  0
SECTION
  2
HEADER
  9
$ACADVER
  1
AC1009
  9
$INSBASE
 10
0.0
 20
0.0
 30
0.0
  9
$EXTMIN
 10
867.99324330406671
 20
327.38164749855792
 30
-0.0000000000000053
  9
$EXTMAX
 10
32765.33210850941
 20
22484.553276491992
 30
0.0000000000000099
  9
$LIMMIN
 10
0.0
 20
0.0
  9
$LIMMAX
 10
33600.0
 20
23760.0
  9
$ORTHOMODE
 70
     1
  9
$REGENMODE
 70
     1
  9
$FILLMODE
 70
     1
  9
$QTEXTMODE
 70
     0
  9
$MIRRTEXT
 70
     1
  9
$DRAGMODE
 70
     2
  9
$LTSCALE
 40
80.0
  9
$OSMODE
 70
  3071
  9
$ATTMODE
 70
     1
  9
$TEXTSIZE
 40
0.2
  9
$TRACEWID
 40
0.05
  9
$TEXTSTYLE
  7
00
  9
$CLAYER
  8
0
  9
$CELTYPE
  6
BYLAYER
  9
$CECOLOR
 62
   256
  9
$DIMSCALE
 40
80.0
  9
$DIMASZ
 40
0.18
  9
$DIMEXO
 40
0.0625
  9
$DIMDLI
 40
0.38
  9
$DIMRND
 40
0.0
  9
$DIMDLE
 40
0.0
  9
$DIMEXE
 40
0.18
  9
$DIMTP
 40
0.0
  9
$DIMTM
 40
0.0
  9
$DIMTXT
 40
0.18
  9
$DIMCEN
 40
0.09
  9
$DIMTSZ
 40
0.0
  9
$DIMTOL
 70
     0
  9
$DIMLIM
 70
     0
  9
$DIMTIH
 70
     1
  9
$DIMTOH
 70
     1
  9
$DIMSE1
 70
     0
  9
$DIMSE2
 70
     0
  9
$DIMTAD
 70
     0
  9
$DIMZIN
 70
     0
  9
$DIMBLK
  1

  9
$DIMASO
 70
     1
  9
$DIMSHO
 70
     1
  9
$DIMPOST
  1

  9
$DIMAPOST
  1

  9
$DIMALT
 70
     0
  9
$DIMALTD
 70
     2
  9
$DIMALTF
 40
25.399999999999999
  9
$DIMLFAC
 40
1.0
  9
$DIMTOFL
 70
     0
  9
$DIMTVP
 40
0.0
  9
$DIMTIX
 70
     0
  9
$DIMSOXD
 70
     0
  9
$DIMSAH
 70
     0
  9
$DIMBLK1
  1

  9
$DIMBLK2
  1

  9
$DIMSTYLE
  2
STANDARD
  9
$DIMCLRD
 70
     0
  9
$DIMCLRE
 70
     0
  9
$DIMCLRT
 70
     0
  9
$DIMTFAC
 40
1.0
  9
$DIMGAP
 40
0.09
  9
$LUNITS
 70
     2
  9
$LUPREC
 70
     4
  9
$SKETCHINC
 40
0.1
  9
$FILLETRAD
 40
0.0
  9
$AUNITS
 70
     0
  9
$AUPREC
 70
     0
  9
$MENU
  1
acad
  9
$ELEVATION
 40
0.0
  9
$PELEVATION
 40
0.0
  9
$THICKNESS
 40
0.0
  9
$LIMCHECK
 70
     0
  9
$BLIPMODE
 70
     1
  9
$CHAMFERA
 40
0.0
  9
$CHAMFERB
 40
0.0
  9
$SKPOLY
 70
     0
  9
$TDCREATE
 40
2311940.0749271871
  9
$TDUPDATE
 40
2458942.4459226849
  9
$TDINDWG
 40
0.0982576505
  9
$TDUSRTIMER
 40
0.0982563657
  9
$USRTIMER
 70
     1
  9
$ANGBASE
 50
0.0
  9
$ANGDIR
 70
     0
  9
$PDMODE
 70
     0
  9
$PDSIZE
 40
0.0
  9
$PLINEWID
 40
0.0
  9
$COORDS
 70
     1
  9
$SPLFRAME
 70
     0
  9
$SPLINETYPE
 70
     6
  9
$SPLINESEGS
 70
     8
  9
$ATTDIA
 70
     1
  9
$ATTREQ
 70
     1
  9
$HANDLING
 70
     1
  9
$HANDSEED
  5
81B2
  9
$SURFTAB1
 70
     6
  9
$SURFTAB2
 70
     6
  9
$SURFTYPE
 70
     6
  9
$SURFU
 70
     6
  9
$SURFV
 70
     6
  9
$UCSNAME
  2

  9
$UCSORG
 10
0.0
 20
0.0
 30
0.0
  9
$UCSXDIR
 10
1.0
 20
0.0
 30
0.0
  9
$UCSYDIR
 10
0.0
 20
1.0
 30
0.0
  9
$PUCSNAME
  2

  9
$PUCSORG
 10
0.0
 20
0.0
 30
0.0
  9
$PUCSXDIR
 10
1.0
 20
0.0
 30
0.0
  9
$PUCSYDIR
 10
0.0
 20
1.0
 30
0.0
  9
$USERI1
 70
     0
  9
$USERI2
 70
     0
  9
$USERI3
 70
     0
  9
$USERI4
 70
     0
  9
$USERI5
 70
     0
  9
$USERR1
 40
0.0
  9
$USERR2
 40
0.0
  9
$USERR3
 40
0.0
  9
$USERR4
 40
0.0
  9
$USERR5
 40
0.0
  9
$WORLDVIEW
 70
     1
  9
$SHADEDGE
 70
     3
  9
$SHADEDIF
 70
    70
  9
$TILEMODE
 70
     1
  9
$MAXACTVP
 70
    16
  9
$PLIMCHECK
 70
     0
  9
$PEXTMIN
 10
1.0000000000000000E+020
 20
1.0000000000000000E+020
 30
1.0000000000000000E+020
  9
$PEXTMAX
 10
-1.0000000000000000E+020
 20
-1.0000000000000000E+020
 30
-1.0000000000000000E+020
  9
$PLIMMIN
 10
0.0
 20
0.0
  9
$PLIMMAX
 10
12.0
 20
9.0
  9
$UNITMODE
 70
     0
  9
$VISRETAIN
 70
     0
  9
$PLINEGEN
 70
     1
  9
$PSLTSCALE
 70
     0
  0
ENDSEC
  0
SECTION
  2
TABLES
  0
TABLE
  2
VPORT
 70
     1
  0
VPORT
  2
*ACTIVE
 70
     0
 10
0.0
 20
0.0
 11
1.0
 21
1.0
 12
16800.0
 22
11880.0
 13
0.0
 23
0.0
 14
1.0
 24
1.0
 15
0.0
 25
0.0
 16
0.0
 26
0.0
 36
1.0
 17
0.0
 27
0.0
 37
0.0
 40
23981.023255813951
 41
2.195652173913043
 42
50.0
 43
0.0
 44
0.0
 50
0.0
 51
0.0
 71
     0
 72
 10000
 73
     1
 74
     1
 75
     0
 76
     0
 77
     0
 78
     0
  0
ENDTAB
  0
TABLE
  2
LTYPE
 70
     3
  0
LTYPE
  2
CONTINUOUS
 70
     0
  3
Solid line
 72
    65
 73
     0
 40
0.0
  0
LTYPE
  2
DASHED3
 70
     0
  3
------  ------  ------  ------  
 72
    65
 73
     2
 40
5.0
 49
3.75
 49
-1.25
  0
LTYPE
  2
CENTER2
 70
     0
  3
----------  --  ----------  --  
 72
    65
 73
     4
 40
20.0
 49
12.5
 49
-2.5
 49
2.5
 49
-2.5
  0
ENDTAB
  0
TABLE
  2
LAYER
 70
    17
  0
LAYER
  2
0
 70
     0
 62
     7
  6
CONTINUOUS
  0
LAYER
  2
SUNPOU
 70
     0
 62
     4
  6
CONTINUOUS
  0
LAYER
  2
0-1
 70
     0
 62
     7
  6
CONTINUOUS
  0
LAYER
  2
0-2
 70
     0
 62
     7
  6
CONTINUOUS
  0
LAYER
  2
0-6
 70
     0
 62
     7
  6
CONTINUOUS
  0
LAYER
  2
2-0
 70
     0
 62
     7
  6
CONTINUOUS
  0
LAYER
  2
0-5
 70
     0
 62
     7
  6
CONTINUOUS
  0
LAYER
  2
0-7
 70
     0
 62
     7
  6
CONTINUOUS
  0
LAYER
  2
YODOROGO
 70
     0
 62
   130
  6
CONTINUOUS
  0
LAYER
  2
WAKUSEN-01
 70
     0
 62
    50
  6
CONTINUOUS
  0
LAYER
  2
WAKUSEN-02
 70
     0
 62
   130
  6
CONTINUOUS
  0
LAYER
  2
WAKUMOJI-01
 70
     0
 62
   130
  6
CONTINUOUS
  0
LAYER
  2
FILENAME
 70
     0
 62
     7
  6
CONTINUOUS
  0
LAYER
  2
NAME
 70
     0
 62
    20
  6
CONTINUOUS
  0
LAYER
  2
0-4
 70
     0
 62
     7
  6
CONTINUOUS
  0
ENDTAB
  0
TABLE
  2
STYLE
 70
     5
  0
STYLE
  2
STANDARD
 70
     0
 40
0.0
 41
1.0
 50
0.0
 71
     0
 42
0.0
  3
txt
  4
BIGFONT
  0
STYLE
  2
00
 70
     0
 40
0.0
 41
0.6666666666666666
 50
0.0
 71
     0
 42
0.2
  3
ROMANS
  4
BIGFONT
  0
STYLE
  2
01
 70
     0
 40
3.0
 41
1.0
 50
0.0
 71
     0
 42
0.2
  3
ROMANS
  4
BIGFONT
  0
STYLE
  2
WAKUMOJI
 70
     0
 40
3.0
 41
1.0
 50
0.0
 71
     0
 42
3.0
  3
SIMPLEX
  4
BIGFONT
  0
STYLE
  2
FILENAME
 70
     0
 40
200.0
 41
1.0
 50
0.0
 71
     0
 42
200.0
  3
romans
  4
bigfont
  0
ENDTAB
  0
TABLE
  2
VIEW
 70
     0
  0
ENDTAB
  0
TABLE
  2
UCS
 70
     0
  0
ENDTAB
  0
TABLE
  2
APPID
 70
    13
  0
APPID
  2
ACAD
 70
     0
  0
APPID
  2
ACADANNOTATIVE
 70
     0
  0
APPID
  2
ACAD_PSEXT
 70
     0
  0
APPID
  2
DCO15
 70
     0
  0
APPID
  2
ACAD_EXEMPT_FROM_CAD_STANDARDS
 70
     0
  0
APPID
  2
AUTOCAD_POSTSCRIPT_FIGURE
 70
     0
  0
APPID
  2
ACAD_MLEADERVER
 70
     0
  0
APPID
  2
ACAD_DSTYLE_DIMJAG
 70
     0
  0
APPID
  2
ACAD_DSTYLE_DIMTALN
 70
     0
  0
APPID
  2
ACAD_DSTYLE_DIM_LINETYPE
 70
     0
  0
APPID
  2
ACAD_DSTYLE_DIM_EXT1_LINETYPE
 70
     0
  0
APPID
  2
ACAD_DSTYLE_DIM_EXT2_LINETYPE
 70
     0
  0
APPID
  2
ACAD_NAV_VCDISPLAY
 70
     0
  0
ENDTAB
  0
TABLE
  2
DIMSTYLE
 70
     1
  0
DIMSTYLE
  2
STANDARD
 70
     0
  3

  4

  5

  6

  7

 40
1.0
 41
0.18
 42
0.0625
 43
0.38
 44
0.18
 45
0.0
 46
0.0
 47
0.0
 48
0.0
140
0.18
141
0.09
142
0.0
143
25.399999999999999
144
1.0
145
0.0
146
1.0
147
0.09
 71
     0
 72
     0
 73
     1
 74
     1
 75
     0
 76
     0
 77
     0
 78
     0
170
     0
171
     2
172
     0
173
     0
174
     0
175
     0
176
     0
177
     0
178
     0
  0
ENDTAB
  0
ENDSEC
  0
SECTION
  2
BLOCKS
  0
BLOCK
  8
0
  2
$MODEL_SPACE
 70
     0
 10
0.0
 20
0.0
 30
0.0
  3
$MODEL_SPACE
  1

  0
ENDBLK
  5
7639
  8
0
  0
BLOCK
 67
     1
  8
0
  2
$PAPER_SPACE
 70
     0
 10
0.0
 20
0.0
 30
0.0
  3
$PAPER_SPACE
  1

  0
ENDBLK
  5
7635
 67
     1
  8
0
  0
ENDSEC
  0
SECTION
  2
ENTITIES
  0
CIRCLE
  5
7666
  8
0-1
  6
CONTINUOUS
 62
     4
 10
15128.71370900002
 20
1375.999734
 30
0.0
 40
20.0
  0
ARC
  5
7667
  8
0-1
  6
CONTINUOUS
 62
     4
 10
15128.71370900002
 20
1375.999734
 30
0.0
 40
20.0
 50
180.0
 51
0.0
  0
ARC
  5
7668
  8
0-1
  6
CONTINUOUS
 62
     4
 10
15128.71370900002
 20
1375.999734
 30
0.0
 40
20.0
 50
0.0
 51
179.99998499999839
  0
CIRCLE
  5
7669
  8
0-1
  6
CONTINUOUS
 62
     4
 10
15128.71370900002
 20
1775.999816999999
 30
0.0
 40
20.0
  0
ARC
  5
766A
  8
0-1
  6
CONTINUOUS
 62
     4
 10
15128.71370900002
 20
1775.999816999999
 30
0.0
 40
20.0
 50
180.0
 51
0.0
  0
ARC
  5
766B
  8
0-1
  6
CONTINUOUS
 62
     4
 10
15128.71370900002
 20
1775.999816999999
 30
0.0
 40
20.0
 50
0.0
 51
179.99998499999839
  0
TEXT
  5
766C
  8
0-1
  6
CONTINUOUS
 62
     7
 10
16686.216744000001
 20
1655.9997920000001
 30
0.0
 40
160.0
  1
H
  0
TEXT
  5
766D
  8
0-1
  6
CONTINUOUS
 62
     7
 10
15176.145943
 20
1655.9997920000001
 30
0.0
 40
160.0
  1
（ ）内寸法ハ、  タ イプヲ示ス。
  0
TEXT
  5
766E
  8
0-1
  6
CONTINUOUS
 62
     7
 10
15288.714237
 20
1255.9997100000001
 30
0.0
 40
160.0
  1
有効高サハ、基礎高サヲ含ミマセン。
  0
TEXT
  5
766F
  8
2-0
  6
CONTINUOUS
 62
     7
 10
21794.443992500012
 20
3073.3068879999951
 30
0.0
 40
160.0
  1
正 面 立 面 図
 72
     4
 11
22439.77732583334
 21
3153.3068879999951
 31
0.0
  0
TEXT
  5
7670
  8
2-0
  6
CONTINUOUS
 62
     7
 10
21961.366527000031
 20
12144.78507699998
 30
0.0
 40
160.0
  1
平　面　図
 72
     4
 11
22414.69986033336
 21
12219.45174366665
 31
0.0
  0
TEXT
  5
7671
  8
2-0
  6
CONTINUOUS
 62
     7
 10
11586.28074899999
 20
3073.3068879999951
 30
0.0
 40
160.0
  1
側 面 立 面 図
 72
     4
 11
12231.61408233333
 21
3153.3068879999951
 31
0.0
  0
TEXT
  5
7672
  8
2-0
  6
CONTINUOUS
 62
     7
 10
10824.424752499979
 20
12144.78507699997
 30
0.0
 40
160.0
  1
小 屋 伏 図
 50
359.99980699999981
 72
     4
 11
11325.75835530931
 21
12224.78338826548
 31
0.0
  0
TEXT
  5
767A
  8
2-0
  6
CONTINUOUS
 62
     7
 10
13583.106267470959
 20
3100.5022569999951
 30
0.0
 40
160.0
  1
1
 72
     4
 11
13609.772934137631
 21
3180.5022569999951
 31
0.0
  0
TEXT
  5
767B
  8
2-0
  6
CONTINUOUS
 62
     7
 10
13826.19498472166
 20
3020.5037249999941
 30
0.0
 40
160.0
  1
80
 72
     4
 11
13946.19498472166
 21
3100.5037249999941
 31
0.0
  0
TEXT
  5
767C
  8
2-0
  6
CONTINUOUS
 62
     7
 10
13084.10823347095
 20
3073.3068879999951
 30
0.0
 40
160.0
  1
(S=  /   )
 72
     4
 11
13644.10823347095
 21
3153.3068879999951
 31
0.0
  0
TEXT
  5
767D
  8
2-0
  6
CONTINUOUS
 62
     7
 10
23791.26951097096
 20
3100.5022569999951
 30
0.0
 40
160.0
  1
1
 72
     4
 11
23817.936177637632
 21
3180.5022569999951
 31
0.0
  0
TEXT
  5
767E
  8
2-0
  6
CONTINUOUS
 62
     7
 10
24034.358228221648
 20
3020.5037249999941
 30
0.0
 40
160.0
  1
80
 72
     4
 11
24154.358228221648
 21
3100.5037249999941
 31
0.0
  0
TEXT
  5
767F
  8
2-0
  6
CONTINUOUS
 62
     7
 10
23292.271476970949
 20
3073.3068879999951
 30
0.0
 40
160.0
  1
(S=  /   )
 72
     4
 11
23852.271476970949
 21
3153.3068879999951
 31
0.0
  0
TEXT
  5
7680
  8
2-0
  6
CONTINUOUS
 62
     7
 10
23766.192045470991
 20
12166.64711266664
 30
0.0
 40
160.0
  1
1
 72
     4
 11
23792.858712137651
 21
12246.64711266664
 31
0.0
  0
TEXT
  5
7681
  8
2-0
  6
CONTINUOUS
 62
     7
 10
24009.280762721679
 20
12086.64858066665
 30
0.0
 40
160.0
  1
80
 72
     4
 11
24129.280762721679
 21
12166.64858066665
 31
0.0
  0
TEXT
  5
7682
  8
2-0
  6
CONTINUOUS
 62
     7
 10
23267.19401147098
 20
12139.45174366665
 30
0.0
 40
160.0
  1
(S=  /   )
 72
     4
 11
23827.19401147098
 21
12219.45174366665
 31
0.0
  0
TEXT
  5
7683
  8
2-0
  6
CONTINUOUS
 62
     7
 10
12677.250540446939
 20
12171.97875726549
 30
0.0
 40
160.0
  1
1
 72
     4
 11
12703.917207113611
 21
12251.97875726549
 31
0.0
  0
TEXT
  5
7684
  8
2-0
  6
CONTINUOUS
 62
     7
 10
12920.33925769764
 20
12091.98022526549
 30
0.0
 40
160.0
  1
80
 72
     4
 11
13040.33925769764
 21
12171.98022526549
 31
0.0
  0
TEXT
  5
7685
  8
2-0
  6
CONTINUOUS
 62
     7
 10
12178.252506446939
 20
12144.78338826548
 30
0.0
 40
160.0
  1
(S=  /   )
 72
     4
 11
12738.252506446939
 21
12224.78338826548
 31
0.0
  0
LINE
  5
7686
  8
2-0
  6
CONTINUOUS
 62
     6
 10
24023.694442000011
 20
13609.81985099998
 30
0.0
 11
25023.68784399996
 21
13609.81985099998
 31
0.0
  0
LINE
  5
7687
  8
2-0
  6
CONTINUOUS
 62
     6
 10
25491.62822100001
 20
14080.24056499998
 30
0.0
 11
25023.68784399996
 21
13609.81985099998
 31
0.0
  0
LINE
  5
7688
  8
2-0
  6
CONTINUOUS
 62
     6
 10
25452.988018
 20
17271.848212000001
 30
0.0
 11
25148.292600000001
 21
17375.501743000001
 31
0.0
  0
LINE
  5
7689
  8
2-0
  6
CONTINUOUS
 62
     6
 10
25608.010056999981
 20
16782.226168000001
 30
0.0
 11
25148.292600000001
 21
16538.312857000001
 31
0.0
  0
LINE
  5
768A
  8
2-0
  6
CONTINUOUS
 62
     6
 10
24228.289564999999
 20
16538.312857000001
 30
0.0
 11
25148.292600000001
 21
16538.312857000001
 31
0.0
  0
LINE
  5
768B
  8
2-0
  6
CONTINUOUS
 62
     6
 10
23948.29853800001
 20
17375.501743000001
 30
0.0
 11
25148.292600000001
 21
17375.501743000001
 31
0.0
  0
LINE
  5
768C
  8
2-0
  6
CONTINUOUS
 62
     6
 10
25524.187342000008
 20
14401.92421099997
 30
0.0
 11
25148.292600000001
 21
14582.86804599999
 31
0.0
  0
LINE
  5
768D
  8
2-0
  6
CONTINUOUS
 62
     6
 10
24628.290883999991
 20
14582.86804599999
 30
0.0
 11
25148.292600000001
 21
14582.86804599999
 31
0.0
  0
LINE
  5
768E
  8
2-0
  6
CONTINUOUS
 62
     4
 10
23840.353358000011
 20
20208.321500999999
 30
0.0
 11
23840.353358000011
 21
20938.318466000001
 31
0.0
  0
LINE
  5
768F
  8
2-0
  6
CONTINUOUS
 62
     3
 10
25719.354018000002
 20
20019.319047000001
 30
0.0
 11
25719.354018000002
 21
20013.323085000018
 31
0.0
  0
LINE
  5
7690
  8
2-0
  6
CONTINUOUS
 62
     3
 10
25719.354018000002
 20
20013.323085000018
 30
0.0
 11
25749.351641999991
 21
20013.323085000018
 31
0.0
  0
LINE
  5
7691
  8
2-0
  6
CONTINUOUS
 62
     3
 10
25749.351641999991
 20
20043.322689000001
 30
0.0
 11
25668.349741999991
 21
20043.322689000001
 31
0.0
  0
LINE
  5
7692
  8
2-0
  6
CONTINUOUS
 62
     3
 10
25719.354018000002
 20
20003.025628999989
 30
0.0
 11
25749.351641999991
 21
20003.025628999989
 31
0.0
  0
LINE
  5
7693
  8
2-0
  6
CONTINUOUS
 62
     3
 10
25719.354018000002
 20
20021.027371000011
 30
0.0
 11
25719.354018000002
 21
20003.025628999989
 31
0.0
  0
LINE
  5
7694
  8
2-0
  6
CONTINUOUS
 62
     3
 10
25744.351377999999
 20
20021.027371000011
 30
0.0
 11
25719.354018000002
 21
20021.027371000011
 31
0.0
  0
LINE
  5
7695
  8
2-0
  6
CONTINUOUS
 62
     3
 10
25744.351377999999
 20
20016.019188999999
 30
0.0
 11
25744.351377999999
 21
20021.027371000011
 31
0.0
  0
LINE
  5
7696
  8
2-0
  6
CONTINUOUS
 62
     3
 10
25737.349821000011
 20
20016.019188999999
 30
0.0
 11
25744.351377999999
 21
20016.019188999999
 31
0.0
  0
LINE
  5
7697
  8
2-0
  6
CONTINUOUS
 62
     3
 10
25637.053553000009
 20
20116.319415999998
 30
0.0
 11
25637.053553000009
 21
20123.32493200001
 31
0.0
  0
LINE
  5
7698
  8
2-0
  6
CONTINUOUS
 62
     3
 10
25637.053553000009
 20
20123.32493200001
 30
0.0
 11
25642.053816999989
 21
20123.32493200001
 31
0.0
  0
LINE
  5
7699
  8
2-0
  6
CONTINUOUS
 62
     3
 10
25642.053816999989
 20
20123.32493200001
 30
0.0
 11
25642.053816999989
 21
20098.315695000001
 31
0.0
  0
LINE
  5
769A
  8
2-0
  6
CONTINUOUS
 62
     3
 10
25642.053816999989
 20
20098.315695000001
 30
0.0
 11
25624.052074999989
 21
20098.315695000001
 31
0.0
  0
LINE
  5
769B
  8
2-0
  6
CONTINUOUS
 62
     3
 10
25624.052074999989
 20
20098.315695000001
 30
0.0
 11
25624.052074999989
 21
20128.319258
 31
0.0
  0
LINE
  5
769C
  8
2-0
  6
CONTINUOUS
 62
     3
 10
25634.349531
 20
20128.319258
 30
0.0
 11
25749.351641999991
 21
20128.319258
 31
0.0
  0
LINE
  5
769D
  8
2-0
  6
CONTINUOUS
 62
     3
 10
25634.349531
 20
20098.315695000001
 30
0.0
 11
25634.349531
 21
20128.319258
 31
0.0
  0
LINE
  5
769E
  8
2-0
  6
CONTINUOUS
 62
     3
 10
25640.351430999988
 20
20098.315695000001
 30
0.0
 11
25634.349531
 21
20098.315695000001
 31
0.0
  0
LINE
  5
769F
  8
2-0
  6
CONTINUOUS
 62
     3
 10
25737.349821000011
 20
19312.22236649998
 30
0.0
 11
25744.351377999999
 21
19312.22236649998
 31
0.0
  0
LINE
  5
76A0
  8
2-0
  6
CONTINUOUS
 62
     3
 10
25744.351377999999
 20
19312.22236649998
 30
0.0
 11
25744.351377999999
 21
19317.222630499989
 31
0.0
  0
LINE
  5
76A1
  8
2-0
  6
CONTINUOUS
 62
     3
 10
25744.351377999999
 20
19317.222630499989
 30
0.0
 11
25719.354018000002
 21
19317.222630499989
 31
0.0
  0
LINE
  5
76A2
  8
2-0
  6
CONTINUOUS
 62
     3
 10
25719.354018000002
 20
19317.222630499989
 30
0.0
 11
25719.354018000002
 21
19299.226826499991
 31
0.0
  0
LINE
  5
76A3
  8
2-0
  6
CONTINUOUS
 62
     3
 10
25719.354018000002
 20
19299.226826499991
 30
0.0
 11
25749.351641999991
 21
19299.226826499991
 31
0.0
  0
LINE
  5
76A4
  8
2-0
  6
CONTINUOUS
 62
     3
 10
25719.354018000002
 20
19315.318333499948
 30
0.0
 11
25719.354018000002
 21
19309.320392499991
 31
0.0
  0
LINE
  5
76A5
  8
2-0
  6
CONTINUOUS
 62
     3
 10
25719.354018000002
 20
19309.320392499991
 30
0.0
 11
25749.351641999991
 21
19309.320392499991
 31
0.0
  0
LINE
  5
76A6
  8
2-0
  6
CONTINUOUS
 62
     3
 10
25749.351641999991
 20
19309.320392499991
 30
0.0
 11
25749.351641999991
 21
19346.321553499991
 31
0.0
  0
LINE
  5
76A7
  8
2-0
  6
CONTINUOUS
 62
     3
 10
25719.354018000002
 20
19346.321553499991
 30
0.0
 11
25749.351641999991
 21
19346.321553499991
 31
0.0
  0
LINE
  5
76A8
  8
2-0
  6
CONTINUOUS
 62
     3
 10
25719.354018000002
 20
19340.317673499969
 30
0.0
 11
25719.354018000002
 21
19346.321553499991
 31
0.0
  0
LINE
  5
76A9
  8
2-0
  6
CONTINUOUS
 62
     3
 10
25719.354018000002
 20
19356.41709849998
 30
0.0
 11
25749.351641999991
 21
19356.41709849998
 31
0.0
  0
LINE
  5
76AA
  8
2-0
  6
CONTINUOUS
 62
     3
 10
25719.354018000002
 20
19338.415356499991
 30
0.0
 11
25719.354018000002
 21
19356.41709849998
 31
0.0
  0
LINE
  5
76AB
  8
2-0
  6
CONTINUOUS
 62
     3
 10
25744.351377999999
 20
19338.415356499991
 30
0.0
 11
25719.354018000002
 21
19338.415356499991
 31
0.0
  0
LINE
  5
76AC
  8
2-0
  6
CONTINUOUS
 62
     3
 10
25744.351377999999
 20
19343.415620499989
 30
0.0
 11
25744.351377999999
 21
19338.415356499991
 31
0.0
  0
LINE
  5
76AD
  8
2-0
  6
CONTINUOUS
 62
     3
 10
25737.349821000011
 20
19343.415620499989
 30
0.0
 11
25744.351377999999
 21
19343.415620499989
 31
0.0
  0
LINE
  5
76AE
  8
2-0
  6
CONTINUOUS
 62
     3
 10
25737.349821000011
 20
18611.221376999991
 30
0.0
 11
25744.351377999999
 21
18611.221376999991
 31
0.0
  0
LINE
  5
76AF
  8
2-0
  6
CONTINUOUS
 62
     3
 10
25744.351377999999
 20
18611.221376999991
 30
0.0
 11
25744.351377999999
 21
18616.227578999991
 31
0.0
  0
LINE
  5
76B0
  8
2-0
  6
CONTINUOUS
 62
     3
 10
25744.351377999999
 20
18616.227578999991
 30
0.0
 11
25719.354018000002
 21
18616.227578999991
 31
0.0
  0
LINE
  5
76B1
  8
2-0
  6
CONTINUOUS
 62
     3
 10
25719.354018000002
 20
18616.227578999991
 30
0.0
 11
25719.354018000002
 21
18598.225837000002
 31
0.0
  0
LINE
  5
76B2
  8
2-0
  6
CONTINUOUS
 62
     3
 10
25719.354018000002
 20
18598.225837000002
 30
0.0
 11
25749.351641999991
 21
18598.225837000002
 31
0.0
  0
LINE
  5
76B3
  8
2-0
  6
CONTINUOUS
 62
     3
 10
25719.354018000002
 20
18614.317343999981
 30
0.0
 11
25719.354018000002
 21
18608.321381999991
 31
0.0
  0
LINE
  5
76B4
  8
2-0
  6
CONTINUOUS
 62
     3
 10
25719.354018000002
 20
18608.321381999991
 30
0.0
 11
25749.351641999991
 21
18608.321381999991
 31
0.0
  0
LINE
  5
76B5
  8
2-0
  6
CONTINUOUS
 62
     3
 10
25749.351641999991
 20
18608.321381999991
 30
0.0
 11
25749.351641999991
 21
18645.320564000001
 31
0.0
  0
LINE
  5
76B6
  8
2-0
  6
CONTINUOUS
 62
     3
 10
25719.354018000002
 20
18645.320564000001
 30
0.0
 11
25749.351641999991
 21
18645.320564000001
 31
0.0
  0
LINE
  5
76B7
  8
2-0
  6
CONTINUOUS
 62
     3
 10
25719.354018000002
 20
18639.324602000001
 30
0.0
 11
25719.354018000002
 21
18645.320564000001
 31
0.0
  0
LINE
  5
76B8
  8
2-0
  6
CONTINUOUS
 62
     3
 10
25719.354018000002
 20
18655.416109000002
 30
0.0
 11
25749.351641999991
 21
18655.416109000002
 31
0.0
  0
LINE
  5
76B9
  8
2-0
  6
CONTINUOUS
 62
     3
 10
25719.354018000002
 20
18637.41436699999
 30
0.0
 11
25719.354018000002
 21
18655.416109000002
 31
0.0
  0
LINE
  5
76BA
  8
2-0
  6
CONTINUOUS
 62
     3
 10
25744.351377999999
 20
18637.41436699999
 30
0.0
 11
25719.354018000002
 21
18637.41436699999
 31
0.0
  0
LINE
  5
76BB
  8
2-0
  6
CONTINUOUS
 62
     3
 10
25744.351377999999
 20
18642.420568999991
 30
0.0
 11
25744.351377999999
 21
18637.41436699999
 31
0.0
  0
LINE
  5
76BC
  8
2-0
  6
CONTINUOUS
 62
     3
 10
25737.349821000011
 20
18642.420568999991
 30
0.0
 11
25744.351377999999
 21
18642.420568999991
 31
0.0
  0
LINE
  5
76BD
  8
2-0
  6
CONTINUOUS
 62
     3
 10
25737.349821000011
 20
17941.414630999989
 30
0.0
 11
25744.351377999999
 21
17941.414630999989
 31
0.0
  0
LINE
  5
76BE
  8
2-0
  6
CONTINUOUS
 62
     3
 10
25744.351377999999
 20
17941.414630999989
 30
0.0
 11
25744.351377999999
 21
17936.426243999991
 31
0.0
  0
LINE
  5
76BF
  8
2-0
  6
CONTINUOUS
 62
     3
 10
25744.351377999999
 20
17936.426243999991
 30
0.0
 11
25719.354018000002
 21
17936.426243999991
 31
0.0
  0
LINE
  5
76C0
  8
2-0
  6
CONTINUOUS
 62
     3
 10
25719.354018000002
 20
17936.426243999991
 30
0.0
 11
25719.354018000002
 21
17954.422047
 31
0.0
  0
LINE
  5
76C1
  8
2-0
  6
CONTINUOUS
 62
     3
 10
25719.354018000002
 20
17954.422047
 30
0.0
 11
25749.351641999991
 21
17954.422047
 31
0.0
  0
LINE
  5
76C2
  8
2-0
  6
CONTINUOUS
 62
     3
 10
25719.354018000002
 20
17938.32460199999
 30
0.0
 11
25719.354018000002
 21
17944.320563999991
 31
0.0
  0
LINE
  5
76C3
  8
2-0
  6
CONTINUOUS
 62
     3
 10
25719.354018000002
 20
17944.320563999991
 30
0.0
 11
25749.351641999991
 21
17944.320563999991
 31
0.0
  0
LINE
  5
76C4
  8
2-0
  6
CONTINUOUS
 62
     3
 10
25749.351641999991
 20
17944.320563999991
 30
0.0
 11
25749.351641999991
 21
17907.321381999991
 31
0.0
  0
LINE
  5
76C5
  8
2-0
  6
CONTINUOUS
 62
     3
 10
25719.354018000002
 20
17907.321381999991
 30
0.0
 11
25749.351641999991
 21
17907.321381999991
 31
0.0
  0
LINE
  5
76C6
  8
2-0
  6
CONTINUOUS
 62
     3
 10
25719.354018000002
 20
17913.323282999991
 30
0.0
 11
25719.354018000002
 21
17907.321381999991
 31
0.0
  0
LINE
  5
76C7
  8
2-0
  6
CONTINUOUS
 62
     3
 10
25719.354018000002
 20
17897.23177599999
 30
0.0
 11
25749.351641999991
 21
17897.23177599999
 31
0.0
  0
LINE
  5
76C8
  8
2-0
  6
CONTINUOUS
 62
     3
 10
25719.354018000002
 20
17915.227578999991
 30
0.0
 11
25719.354018000002
 21
17897.23177599999
 31
0.0
  0
LINE
  5
76C9
  8
2-0
  6
CONTINUOUS
 62
     3
 10
25744.351377999999
 20
17915.227578999991
 30
0.0
 11
25719.354018000002
 21
17915.227578999991
 31
0.0
  0
LINE
  5
76CA
  8
2-0
  6
CONTINUOUS
 62
     3
 10
25744.351377999999
 20
17910.227316
 30
0.0
 11
25744.351377999999
 21
17915.227578999991
 31
0.0
  0
LINE
  5
76CB
  8
2-0
  6
CONTINUOUS
 62
     3
 10
25737.349821000011
 20
17910.227316
 30
0.0
 11
25744.351377999999
 21
17910.227316
 31
0.0
  0
LINE
  5
76CC
  8
2-0
  6
CONTINUOUS
 62
     3
 10
25746.465504000011
 20
17190.318201999991
 30
0.0
 11
25746.465504000011
 21
17210.319256999981
 31
0.0
  0
LINE
  5
76CD
  8
2-0
  6
CONTINUOUS
 62
     3
 10
25746.465504000011
 20
17210.319256999981
 30
0.0
 11
25661.468935000001
 21
17210.319256999981
 31
0.0
  0
LINE
  5
76CE
  8
2-0
  6
CONTINUOUS
 62
     3
 10
25737.349821000011
 20
17236.925966999999
 30
0.0
 11
25744.351377999999
 21
17236.925966999999
 31
0.0
  0
LINE
  5
76CF
  8
2-0
  6
CONTINUOUS
 62
     3
 10
25744.351377999999
 20
17236.925966999999
 30
0.0
 11
25744.351377999999
 21
17231.931640999999
 31
0.0
  0
LINE
  5
76D0
  8
2-0
  6
CONTINUOUS
 62
     3
 10
25744.351377999999
 20
17231.931640999999
 30
0.0
 11
25719.354018000002
 21
17231.931640999999
 31
0.0
  0
LINE
  5
76D1
  8
2-0
  6
CONTINUOUS
 62
     3
 10
25719.354018000002
 20
17231.931640999999
 30
0.0
 11
25719.354018000002
 21
17249.92744499999
 31
0.0
  0
LINE
  5
76D2
  8
2-0
  6
CONTINUOUS
 62
     3
 10
25719.354018000002
 20
17249.92744499999
 30
0.0
 11
25749.351641999991
 21
17249.92744499999
 31
0.0
  0
LINE
  5
76D3
  8
2-0
  6
CONTINUOUS
 62
     3
 10
25719.354018000002
 20
17240.318860999982
 30
0.0
 11
25719.354018000002
 21
17234.31696099999
 31
0.0
  0
LINE
  5
76D4
  8
2-0
  6
CONTINUOUS
 62
     3
 10
25749.351641999991
 20
17240.318860999982
 30
0.0
 11
25719.354018000002
 21
17240.318860999982
 31
0.0
  0
LINE
  5
76D5
  8
2-0
  6
CONTINUOUS
 62
     3
 10
25749.351641999991
 20
17249.92744499999
 30
0.0
 11
25749.351641999991
 21
17897.23177599999
 31
0.0
  0
LINE
  5
76D6
  8
2-0
  6
CONTINUOUS
 62
     3
 10
25749.351641999991
 20
17954.422047
 30
0.0
 11
25749.351641999991
 21
18598.225837000002
 31
0.0
  0
LINE
  5
76D7
  8
2-0
  6
CONTINUOUS
 62
     3
 10
25749.351641999991
 20
17095.31714599999
 30
0.0
 11
25719.354018000002
 21
17095.31714599999
 31
0.0
  0
LINE
  5
76D8
  8
2-0
  6
CONTINUOUS
 62
     3
 10
25719.354018000002
 20
17095.31714599999
 30
0.0
 11
25719.354018000002
 21
17101.319046000001
 31
0.0
  0
LINE
  5
76D9
  8
2-0
  6
CONTINUOUS
 62
     3
 10
25661.468935000001
 20
17125.32268899999
 30
0.0
 11
25746.465504000011
 21
17125.32268899999
 31
0.0
  0
LINE
  5
76DA
  8
2-0
  6
CONTINUOUS
 62
     3
 10
25746.465504000011
 20
17125.32268899999
 30
0.0
 11
25746.465504000011
 21
17145.317805999988
 31
0.0
  0
LINE
  5
76DB
  8
2-0
  6
CONTINUOUS
 62
     3
 10
25719.354018000002
 20
17085.708563
 30
0.0
 11
25749.351641999991
 21
17085.708563
 31
0.0
  0
LINE
  5
76DC
  8
2-0
  6
CONTINUOUS
 62
     3
 10
25719.354018000002
 20
17103.70436599998
 30
0.0
 11
25719.354018000002
 21
17085.708563
 31
0.0
  0
LINE
  5
76DD
  8
2-0
  6
CONTINUOUS
 62
     3
 10
25744.351377999999
 20
17103.70436599998
 30
0.0
 11
25719.354018000002
 21
17103.70436599998
 31
0.0
  0
LINE
  5
76DE
  8
2-0
  6
CONTINUOUS
 62
     3
 10
25744.351377999999
 20
17098.704101999989
 30
0.0
 11
25744.351377999999
 21
17103.70436599998
 31
0.0
  0
LINE
  5
76DF
  8
2-0
  6
CONTINUOUS
 62
     3
 10
25737.349821000011
 20
17098.704101999989
 30
0.0
 11
25744.351377999999
 21
17098.704101999989
 31
0.0
  0
LINE
  5
76E0
  8
2-0
  6
CONTINUOUS
 62
     3
 10
25737.349821000011
 20
16394.22187149998
 30
0.0
 11
25744.351377999999
 21
16394.22187149998
 31
0.0
  0
LINE
  5
76E1
  8
2-0
  6
CONTINUOUS
 62
     3
 10
25744.351377999999
 20
16394.22187149998
 30
0.0
 11
25744.351377999999
 21
16399.222135499978
 31
0.0
  0
LINE
  5
76E2
  8
2-0
  6
CONTINUOUS
 62
     3
 10
25744.351377999999
 20
16399.222135499978
 30
0.0
 11
25719.354018000002
 21
16399.222135499978
 31
0.0
  0
LINE
  5
76E3
  8
2-0
  6
CONTINUOUS
 62
     3
 10
25719.354018000002
 20
16399.222135499978
 30
0.0
 11
25719.354018000002
 21
16381.220393499991
 31
0.0
  0
LINE
  5
76E4
  8
2-0
  6
CONTINUOUS
 62
     3
 10
25719.354018000002
 20
16381.220393499991
 30
0.0
 11
25749.351641999991
 21
16381.220393499991
 31
0.0
  0
LINE
  5
76E5
  8
2-0
  6
CONTINUOUS
 62
     3
 10
25719.354018000002
 20
16397.317838499981
 30
0.0
 11
25719.354018000002
 21
16391.320887499991
 31
0.0
  0
LINE
  5
76E6
  8
2-0
  6
CONTINUOUS
 62
     3
 10
25719.354018000002
 20
16391.320887499991
 30
0.0
 11
25749.351641999991
 21
16391.320887499991
 31
0.0
  0
LINE
  5
76E7
  8
2-0
  6
CONTINUOUS
 62
     3
 10
25749.351641999991
 20
16391.320887499991
 30
0.0
 11
25749.351641999991
 21
16428.321058499991
 31
0.0
  0
LINE
  5
76E8
  8
2-0
  6
CONTINUOUS
 62
     3
 10
25719.354018000002
 20
16428.321058499991
 30
0.0
 11
25749.351641999991
 21
16428.321058499991
 31
0.0
  0
LINE
  5
76E9
  8
2-0
  6
CONTINUOUS
 62
     3
 10
25719.354018000002
 20
16422.318168499991
 30
0.0
 11
25719.354018000002
 21
16428.321058499991
 31
0.0
  0
LINE
  5
76EA
  8
2-0
  6
CONTINUOUS
 62
     3
 10
25719.354018000002
 20
16438.416603499991
 30
0.0
 11
25749.351641999991
 21
16438.416603499991
 31
0.0
  0
LINE
  5
76EB
  8
2-0
  6
CONTINUOUS
 62
     3
 10
25719.354018000002
 20
16420.408922499992
 30
0.0
 11
25719.354018000002
 21
16438.416603499991
 31
0.0
  0
LINE
  5
76EC
  8
2-0
  6
CONTINUOUS
 62
     3
 10
25744.351377999999
 20
16420.408922499992
 30
0.0
 11
25719.354018000002
 21
16420.408922499992
 31
0.0
  0
LINE
  5
76ED
  8
2-0
  6
CONTINUOUS
 62
     3
 10
25744.351377999999
 20
16425.415125499982
 30
0.0
 11
25744.351377999999
 21
16420.408922499992
 31
0.0
  0
LINE
  5
76EE
  8
2-0
  6
CONTINUOUS
 62
     3
 10
25737.349821000011
 20
16425.415125499982
 30
0.0
 11
25744.351377999999
 21
16425.415125499982
 31
0.0
  0
LINE
  5
76EF
  8
2-0
  6
CONTINUOUS
 62
     3
 10
25737.349821000011
 20
15724.655141999991
 30
0.0
 11
25744.351377999999
 21
15724.655141999991
 31
0.0
  0
LINE
  5
76F0
  8
2-0
  6
CONTINUOUS
 62
     3
 10
25744.351377999999
 20
15724.655141999991
 30
0.0
 11
25744.351377999999
 21
15719.660817000011
 31
0.0
  0
LINE
  5
76F1
  8
2-0
  6
CONTINUOUS
 62
     3
 10
25744.351377999999
 20
15719.660817000011
 30
0.0
 11
25719.354018000002
 21
15719.660817000011
 31
0.0
  0
LINE
  5
76F2
  8
2-0
  6
CONTINUOUS
 62
     3
 10
25719.354018000002
 20
15719.660817000011
 30
0.0
 11
25719.354018000002
 21
15737.656619999991
 31
0.0
  0
LINE
  5
76F3
  8
2-0
  6
CONTINUOUS
 62
     3
 10
25719.354018000002
 20
15737.656619999991
 30
0.0
 11
25749.351641999991
 21
15737.656619999991
 31
0.0
  0
LINE
  5
76F4
  8
2-0
  6
CONTINUOUS
 62
     3
 10
25719.354018000002
 20
15721.559175
 30
0.0
 11
25719.354018000002
 21
15727.561075000011
 31
0.0
  0
LINE
  5
76F5
  8
2-0
  6
CONTINUOUS
 62
     3
 10
25719.354018000002
 20
15727.561075000011
 30
0.0
 11
25749.351641999991
 21
15727.561075000011
 31
0.0
  0
LINE
  5
76F6
  8
2-0
  6
CONTINUOUS
 62
     3
 10
25749.351641999991
 20
15690.561894
 30
0.0
 11
25749.351641999991
 21
15727.561075000011
 31
0.0
  0
LINE
  5
76F7
  8
2-0
  6
CONTINUOUS
 62
     3
 10
25719.354018000002
 20
15690.561894
 30
0.0
 11
25749.351641999991
 21
15690.561894
 31
0.0
  0
LINE
  5
76F8
  8
2-0
  6
CONTINUOUS
 62
     3
 10
25719.354018000002
 20
15696.55884499999
 30
0.0
 11
25719.354018000002
 21
15690.561894
 31
0.0
  0
LINE
  5
76F9
  8
2-0
  6
CONTINUOUS
 62
     3
 10
25719.354018000002
 20
15680.460409999991
 30
0.0
 11
25749.351641999991
 21
15680.460409999991
 31
0.0
  0
LINE
  5
76FA
  8
2-0
  6
CONTINUOUS
 62
     3
 10
25719.354018000002
 20
15698.46809099999
 30
0.0
 11
25719.354018000002
 21
15680.460409999991
 31
0.0
  0
LINE
  5
76FB
  8
2-0
  6
CONTINUOUS
 62
     3
 10
25744.351377999999
 20
15698.46809099999
 30
0.0
 11
25719.354018000002
 21
15698.46809099999
 31
0.0
  0
LINE
  5
76FC
  8
2-0
  6
CONTINUOUS
 62
     3
 10
25744.351377999999
 20
15693.467827
 30
0.0
 11
25744.351377999999
 21
15698.46809099999
 31
0.0
  0
LINE
  5
76FD
  8
2-0
  6
CONTINUOUS
 62
     3
 10
25737.349821000011
 20
15693.467827
 30
0.0
 11
25744.351377999999
 21
15693.467827
 31
0.0
  0
LINE
  5
76FE
  8
2-0
  6
CONTINUOUS
 62
     3
 10
25749.351641999991
 20
17085.708563
 30
0.0
 11
25749.351641999991
 21
16438.416603499991
 31
0.0
  0
LINE
  5
76FF
  8
2-0
  6
CONTINUOUS
 62
     3
 10
25749.351641999991
 20
17240.318860999982
 30
0.0
 11
25749.351641999991
 21
17095.31714599999
 31
0.0
  0
LINE
  5
7700
  8
2-0
  6
CONTINUOUS
 62
     3
 10
25661.468935000001
 20
17210.319256999981
 30
0.0
 11
25661.468935000001
 21
17125.32268899999
 31
0.0
  0
LINE
  5
7701
  8
2-0
  6
CONTINUOUS
 62
     6
 10
24123.260268000002
 20
18978.76652249998
 30
0.0
 11
25148.292600000001
 21
18978.76652249998
 31
0.0
  0
LINE
  5
7702
  8
2-0
  6
CONTINUOUS
 62
     3
 10
25737.349821000011
 20
14992.226819999991
 30
0.0
 11
25744.351377999999
 21
14992.226819999991
 31
0.0
  0
LINE
  5
7703
  8
2-0
  6
CONTINUOUS
 62
     3
 10
25744.351377999999
 20
14992.226819999991
 30
0.0
 11
25744.351377999999
 21
14997.221145999991
 31
0.0
  0
LINE
  5
7704
  8
2-0
  6
CONTINUOUS
 62
     3
 10
25744.351377999999
 20
14997.221145999991
 30
0.0
 11
25719.354018000002
 21
14997.221145999991
 31
0.0
  0
LINE
  5
7705
  8
2-0
  6
CONTINUOUS
 62
     3
 10
25719.354018000002
 20
14997.221145999991
 30
0.0
 11
25719.354018000002
 21
14979.225341999991
 31
0.0
  0
LINE
  5
7706
  8
2-0
  6
CONTINUOUS
 62
     3
 10
25719.354018000002
 20
14979.225341999991
 30
0.0
 11
25749.351641999991
 21
14979.225341999991
 31
0.0
  0
LINE
  5
7707
  8
2-0
  6
CONTINUOUS
 62
     3
 10
25719.354018000002
 20
14995.323777
 30
0.0
 11
25719.354018000002
 21
14989.320887
 31
0.0
  0
LINE
  5
7708
  8
2-0
  6
CONTINUOUS
 62
     3
 10
25719.354018000002
 20
14989.320887
 30
0.0
 11
25749.351641999991
 21
14989.320887
 31
0.0
  0
LINE
  5
7709
  8
2-0
  6
CONTINUOUS
 62
     3
 10
25749.351641999991
 20
14989.320887
 30
0.0
 11
25749.351641999991
 21
15026.32105899998
 31
0.0
  0
LINE
  5
770A
  8
2-0
  6
CONTINUOUS
 62
     3
 10
25719.354018000002
 20
15026.32105899998
 30
0.0
 11
25749.351641999991
 21
15026.32105899998
 31
0.0
  0
LINE
  5
770B
  8
2-0
  6
CONTINUOUS
 62
     3
 10
25719.354018000002
 20
15020.32410699998
 30
0.0
 11
25719.354018000002
 21
15026.32105899998
 31
0.0
  0
LINE
  5
770C
  8
2-0
  6
CONTINUOUS
 62
     3
 10
25719.354018000002
 20
15036.421552
 30
0.0
 11
25749.351641999991
 21
15036.421552
 31
0.0
  0
LINE
  5
770D
  8
2-0
  6
CONTINUOUS
 62
     3
 10
25719.354018000002
 20
15018.414860999999
 30
0.0
 11
25719.354018000002
 21
15036.421552
 31
0.0
  0
LINE
  5
770E
  8
2-0
  6
CONTINUOUS
 62
     3
 10
25744.351377999999
 20
15018.414860999999
 30
0.0
 11
25719.354018000002
 21
15018.414860999999
 31
0.0
  0
LINE
  5
770F
  8
2-0
  6
CONTINUOUS
 62
     3
 10
25744.351377999999
 20
15023.420074
 30
0.0
 11
25744.351377999999
 21
15018.414860999999
 31
0.0
  0
LINE
  5
7710
  8
2-0
  6
CONTINUOUS
 62
     3
 10
25737.349821000011
 20
15023.420074
 30
0.0
 11
25744.351377999999
 21
15023.420074
 31
0.0
  0
LINE
  5
7711
  8
2-0
  6
CONTINUOUS
 62
     3
 10
25719.354018000002
 20
14316.32289999999
 30
0.0
 11
25719.354018000002
 21
14322.32776899999
 31
0.0
  0
LINE
  5
7712
  8
2-0
  6
CONTINUOUS
 62
     3
 10
25719.354018000002
 20
14322.32776899999
 30
0.0
 11
25749.351641999991
 21
14322.32776899999
 31
0.0
  0
LINE
  5
7713
  8
2-0
  6
CONTINUOUS
 62
     3
 10
25749.351641999991
 20
14322.32776899999
 30
0.0
 11
25749.351641999991
 21
14207.32367799999
 31
0.0
  0
LINE
  5
7714
  8
2-0
  6
CONTINUOUS
 62
     3
 10
25749.351641999991
 20
14207.32367799999
 30
0.0
 11
25664.353093999998
 21
14207.32367799999
 31
0.0
  0
LINE
  5
7715
  8
2-0
  6
CONTINUOUS
 62
     3
 10
25664.353093999998
 20
14207.32367799999
 30
0.0
 11
25664.353093999998
 21
14292.31925699999
 31
0.0
  0
LINE
  5
7716
  8
2-0
  6
CONTINUOUS
 62
     3
 10
25664.353093999998
 20
14292.31925699999
 30
0.0
 11
25696.352011999999
 21
14292.31925699999
 31
0.0
  0
LINE
  5
7717
  8
2-0
  6
CONTINUOUS
 62
     3
 10
25737.349821000011
 20
14319.35750199999
 30
0.0
 11
25744.351377999999
 21
14319.35750199999
 31
0.0
  0
LINE
  5
7718
  8
2-0
  6
CONTINUOUS
 62
     3
 10
25744.351377999999
 20
14319.35750199999
 30
0.0
 11
25744.351377999999
 21
14314.360206999971
 31
0.0
  0
LINE
  5
7719
  8
2-0
  6
CONTINUOUS
 62
     3
 10
25744.351377999999
 20
14314.360206999971
 30
0.0
 11
25719.354018000002
 21
14314.360206999971
 31
0.0
  0
LINE
  5
771A
  8
2-0
  6
CONTINUOUS
 62
     3
 10
25719.354018000002
 20
14314.360206999971
 30
0.0
 11
25719.354018000002
 21
14332.35897999999
 31
0.0
  0
LINE
  5
771B
  8
2-0
  6
CONTINUOUS
 62
     3
 10
25719.354018000002
 20
14332.35897999999
 30
0.0
 11
25749.351641999991
 21
14332.35897999999
 31
0.0
  0
LINE
  5
771C
  8
2-0
  6
CENTER2
 62
     6
 10
25706.853358000011
 20
14009.82611999998
 30
0.0
 11
25706.853358000011
 21
15165.694878
 31
0.0
  0
LINE
  5
771D
  8
2-0
  6
CONTINUOUS
 62
     3
 10
25749.351641999991
 20
18655.416109000002
 30
0.0
 11
25749.351641999991
 21
19299.226826499991
 31
0.0
  0
LINE
  5
771E
  8
2-0
  6
CONTINUOUS
 62
     6
 10
26441.856524999999
 20
20858.322161
 30
0.0
 11
27641.850586999972
 21
20858.322161
 31
0.0
  0
LINE
  5
771F
  8
2-0
  6
CONTINUOUS
 62
     3
 10
23912.855206000011
 20
20128.319258
 30
0.0
 11
23912.855206000011
 21
20098.315695000001
 31
0.0
  0
LINE
  5
7720
  8
2-0
  6
CONTINUOUS
 62
     3
 10
23912.855206000011
 20
20098.315695000001
 30
0.0
 11
23906.857263999991
 21
20098.315695000001
 31
0.0
  0
LINE
  5
7721
  8
2-0
  6
CONTINUOUS
 62
     3
 10
23922.471707000012
 20
20098.315695000001
 30
0.0
 11
23922.471707000012
 21
20128.319258
 31
0.0
  0
LINE
  5
7722
  8
2-0
  6
CONTINUOUS
 62
     3
 10
23904.469965
 20
20098.315695000001
 30
0.0
 11
23922.471707000012
 21
20098.315695000001
 31
0.0
  0
LINE
  5
7723
  8
2-0
  6
CONTINUOUS
 62
     3
 10
23904.469965
 20
20123.32493200001
 30
0.0
 11
23904.469965
 21
20098.315695000001
 31
0.0
  0
LINE
  5
7724
  8
2-0
  6
CONTINUOUS
 62
     3
 10
23909.47022900002
 20
20123.32493200001
 30
0.0
 11
23904.469965
 21
20123.32493200001
 31
0.0
  0
LINE
  5
7725
  8
2-0
  6
CONTINUOUS
 62
     3
 10
23909.47022900002
 20
20116.319415999998
 30
0.0
 11
23909.47022900002
 21
20123.32493200001
 31
0.0
  0
LINE
  5
7726
  8
2-0
  6
CONTINUOUS
 62
     3
 10
23882.853621999999
 20
20125.42718100001
 30
0.0
 11
23882.853621999999
 21
20040.428633
 31
0.0
  0
LINE
  5
7727
  8
2-0
  6
CONTINUOUS
 62
     3
 10
23862.85652500001
 20
20125.42718100001
 30
0.0
 11
23882.853621999999
 21
20125.42718100001
 31
0.0
  0
LINE
  5
7728
  8
2-0
  6
CONTINUOUS
 62
     3
 10
23771.242426000001
 20
20116.319415999998
 30
0.0
 11
23771.242426000001
 21
20123.32493200001
 31
0.0
  0
LINE
  5
7729
  8
2-0
  6
CONTINUOUS
 62
     3
 10
23771.242426000001
 20
20123.32493200001
 30
0.0
 11
23776.242689999999
 21
20123.32493200001
 31
0.0
  0
LINE
  5
772A
  8
2-0
  6
CONTINUOUS
 62
     3
 10
23776.242689999999
 20
20123.32493200001
 30
0.0
 11
23776.242689999999
 21
20098.315695000001
 31
0.0
  0
LINE
  5
772B
  8
2-0
  6
CONTINUOUS
 62
     3
 10
23776.242689999999
 20
20098.315695000001
 30
0.0
 11
23758.240947999999
 21
20098.315695000001
 31
0.0
  0
LINE
  5
772C
  8
2-0
  6
CONTINUOUS
 62
     3
 10
23758.240947999999
 20
20098.315695000001
 30
0.0
 11
23758.240947999999
 21
20128.319258
 31
0.0
  0
LINE
  5
772D
  8
2-0
  6
CONTINUOUS
 62
     3
 10
23797.861012000008
 20
20125.42718100001
 30
0.0
 11
23817.856129000011
 21
20125.42718100001
 31
0.0
  0
LINE
  5
772E
  8
2-0
  6
CONTINUOUS
 62
     3
 10
23797.861012000008
 20
20040.428633
 30
0.0
 11
23797.861012000008
 21
20125.42718100001
 31
0.0
  0
LINE
  5
772F
  8
2-0
  6
CONTINUOUS
 62
     3
 10
23767.863388000009
 20
20098.315695000001
 30
0.0
 11
23773.859349000009
 21
20098.315695000001
 31
0.0
  0
LINE
  5
7730
  8
2-0
  6
CONTINUOUS
 62
     3
 10
23767.863388000009
 20
20128.319258
 30
0.0
 11
23767.863388000009
 21
20098.315695000001
 31
0.0
  0
LINE
  5
7731
  8
2-0
  6
CONTINUOUS
 62
     3
 10
23882.853621999999
 20
20040.428633
 30
0.0
 11
23797.861012000008
 21
20040.428633
 31
0.0
  0
LINE
  5
7732
  8
2-0
  6
CONTINUOUS
 62
     3
 10
23912.855206000011
 20
20128.319258
 30
0.0
 11
23767.863388000009
 21
20128.319258
 31
0.0
  0
LINE
  5
7733
  8
2-0
  6
CONTINUOUS
 62
     6
 10
25579.82369199998
 20
19220.921030499991
 30
0.0
 11
25148.292600000001
 21
18978.76652249998
 31
0.0
  0
LINE
  5
7734
  8
2-0
  6
CONTINUOUS
 62
     6
 10
25901.392525999981
 20
20270.998997999999
 30
0.0
 11
26441.856524999999
 21
20858.322161
 31
0.0
  0
LINE
  5
7735
  8
2-0
  6
CONTINUOUS
 62
     6
 10
23797.85309400002
 20
14292.31925699999
 30
0.0
 11
23521.262881000021
 21
14747.663956999981
 31
0.0
  0
LINE
  5
7736
  8
2-0
  6
CONTINUOUS
 62
     6
 10
23521.262881000021
 20
14747.663956999981
 30
0.0
 11
22490.913562000042
 21
14747.663956999981
 31
0.0
  0
LINE
  5
7737
  8
2-0
  6
CONTINUOUS
 62
     3
 10
25749.351641999991
 20
16381.220393499991
 30
0.0
 11
25749.351641999991
 21
15737.656619999991
 31
0.0
  0
LINE
  5
7738
  8
2-0
  6
CONTINUOUS
 62
     6
 10
23737.574774000012
 20
14442.915091999979
 30
0.0
 11
23797.85309400002
 21
14292.31925699999
 31
0.0
  0
LINE
  5
7739
  8
2-0
  6
CONTINUOUS
 62
     6
 10
23797.85309400002
 20
14292.31925699999
 30
0.0
 11
23691.994379000062
 21
14415.22756599999
 31
0.0
  0
LINE
  5
773A
  8
2-0
  6
CONTINUOUS
 62
     6
 10
23737.574774000012
 20
14442.915091999979
 30
0.0
 11
23691.994379000062
 21
14415.22756599999
 31
0.0
  0
LINE
  5
773B
  8
2-0
  6
CONTINUOUS
 62
     6
 10
23691.994379000062
 20
14415.22756599999
 30
0.0
 11
23797.85309400002
 21
14292.31925699999
 31
0.0
  0
LINE
  5
773C
  8
2-0
  6
CONTINUOUS
 62
     6
 10
23797.85309400002
 20
14292.31925699999
 30
0.0
 11
23737.574774000012
 21
14442.915091999979
 31
0.0
  0
LINE
  5
773D
  8
2-0
  6
CONTINUOUS
 62
     6
 10
23737.574774000012
 20
14442.915091999979
 30
0.0
 11
23797.85309400002
 21
14292.31925699999
 31
0.0
  0
LINE
  5
773E
  8
2-0
  6
CONTINUOUS
 62
     6
 10
23691.994379000062
 20
14415.22756599999
 30
0.0
 11
23797.85309400002
 21
14292.31925699999
 31
0.0
  0
LINE
  5
773F
  8
2-0
  6
CONTINUOUS
 62
     6
 10
23691.994379000062
 20
14415.22756599999
 30
0.0
 11
23737.574774000012
 21
14442.915091999979
 31
0.0
  0
LINE
  5
7740
  8
2-0
  6
CONTINUOUS
 62
     6
 10
25566.766787
 20
19244.180374499989
 30
0.0
 11
25719.354018000002
 21
19299.226826499991
 31
0.0
  0
LINE
  5
7741
  8
2-0
  6
CONTINUOUS
 62
     6
 10
25719.354018000002
 20
19299.226826499991
 30
0.0
 11
25592.872678
 21
19197.667626499981
 31
0.0
  0
LINE
  5
7742
  8
2-0
  6
CONTINUOUS
 62
     6
 10
25566.766787
 20
19244.180374499989
 30
0.0
 11
25592.872678
 21
19197.667626499981
 31
0.0
  0
LINE
  5
7743
  8
2-0
  6
CONTINUOUS
 62
     6
 10
25592.872678
 20
19197.667626499981
 30
0.0
 11
25719.354018000002
 21
19299.226826499991
 31
0.0
  0
LINE
  5
7744
  8
2-0
  6
CONTINUOUS
 62
     6
 10
25719.354018000002
 20
19299.226826499991
 30
0.0
 11
25566.766787
 21
19244.180374499989
 31
0.0
  0
LINE
  5
7745
  8
2-0
  6
CONTINUOUS
 62
     6
 10
25566.766787
 20
19244.180374499989
 30
0.0
 11
25719.354018000002
 21
19299.226826499991
 31
0.0
  0
LINE
  5
7746
  8
2-0
  6
CONTINUOUS
 62
     6
 10
25592.872678
 20
19197.667626499981
 30
0.0
 11
25719.354018000002
 21
19299.226826499991
 31
0.0
  0
LINE
  5
7747
  8
2-0
  6
CONTINUOUS
 62
     6
 10
25592.872678
 20
19197.667626499981
 30
0.0
 11
25566.766787
 21
19244.180374499989
 31
0.0
  0
LINE
  5
7748
  8
2-0
  6
CONTINUOUS
 62
     6
 10
25921.009555000001
 20
20252.937870999998
 30
0.0
 11
25793.047535000009
 21
20153.25525300001
 31
0.0
  0
LINE
  5
7749
  8
2-0
  6
CONTINUOUS
 62
     6
 10
25793.047535000009
 20
20153.25525300001
 30
0.0
 11
25881.761640000001
 21
20289.052208000001
 31
0.0
  0
LINE
  5
774A
  8
2-0
  6
CONTINUOUS
 62
     6
 10
25921.009555000001
 20
20252.937870999998
 30
0.0
 11
25881.761640000001
 21
20289.052208000001
 31
0.0
  0
LINE
  5
774B
  8
2-0
  6
CONTINUOUS
 62
     6
 10
25881.761640000001
 20
20289.052208000001
 30
0.0
 11
25793.047535000009
 21
20153.25525300001
 31
0.0
  0
LINE
  5
774C
  8
2-0
  6
CONTINUOUS
 62
     6
 10
25793.047535000009
 20
20153.25525300001
 30
0.0
 11
25921.009555000001
 21
20252.937870999998
 31
0.0
  0
LINE
  5
774D
  8
2-0
  6
CONTINUOUS
 62
     6
 10
25921.009555000001
 20
20252.937870999998
 30
0.0
 11
25793.047535000009
 21
20153.25525300001
 31
0.0
  0
LINE
  5
774E
  8
2-0
  6
CONTINUOUS
 62
     6
 10
25881.761640000001
 20
20289.052208000001
 30
0.0
 11
25793.047535000009
 21
20153.25525300001
 31
0.0
  0
LINE
  5
774F
  8
2-0
  6
CONTINUOUS
 62
     6
 10
25881.761640000001
 20
20289.052208000001
 30
0.0
 11
25921.009555000001
 21
20252.937870999998
 31
0.0
  0
LINE
  5
7750
  8
2-0
  6
CONTINUOUS
 62
     6
 10
22464.289036999999
 20
19880.546876
 30
0.0
 11
22596.221969999999
 21
19411.201041
 31
0.0
  0
LINE
  5
7751
  8
2-0
  6
CONTINUOUS
 62
     6
 10
22596.221969999999
 20
19411.201041
 30
0.0
 11
23621.260241
 21
19411.201041
 31
0.0
  0
LINE
  5
7752
  8
2-0
  6
CONTINUOUS
 62
     6
 10
22420.99498600002
 20
20034.575196000002
 30
0.0
 11
22438.616659999989
 21
19873.32955100001
 31
0.0
  0
LINE
  5
7753
  8
2-0
  6
CONTINUOUS
 62
     6
 10
22489.961413000012
 20
19887.76816
 30
0.0
 11
22438.616659999989
 21
19873.32955100001
 31
0.0
  0
LINE
  5
7754
  8
2-0
  6
CONTINUOUS
 62
     6
 10
22438.616659999989
 20
19873.32955100001
 30
0.0
 11
22420.99498600002
 21
20034.575196000002
 31
0.0
  0
LINE
  5
7755
  8
2-0
  6
CONTINUOUS
 62
     6
 10
22420.99498600002
 20
20034.575196000002
 30
0.0
 11
22489.961413000012
 21
19887.76816
 31
0.0
  0
LINE
  5
7756
  8
2-0
  6
CONTINUOUS
 62
     6
 10
22489.961413000012
 20
19887.76816
 30
0.0
 11
22420.99498600002
 21
20034.575196000002
 31
0.0
  0
LINE
  5
7757
  8
2-0
  6
CONTINUOUS
 62
     6
 10
22438.616659999989
 20
19873.32955100001
 30
0.0
 11
22420.99498600002
 21
20034.575196000002
 31
0.0
  0
LINE
  5
7758
  8
2-0
  6
CONTINUOUS
 62
     6
 10
22438.616659999989
 20
19873.32955100001
 30
0.0
 11
22489.961413000012
 21
19887.76816
 31
0.0
  0
LINE
  5
7759
  8
2-0
  6
CONTINUOUS
 62
     6
 10
23881.776764000009
 20
20009.567938
 30
0.0
 11
24030.646459000011
 21
19479.94576200001
 31
0.0
  0
LINE
  5
775A
  8
2-0
  6
CONTINUOUS
 62
     6
 10
24030.646459000011
 20
19479.94576200001
 30
0.0
 11
25055.69066800001
 21
19479.94576200001
 31
0.0
  0
LINE
  5
775B
  8
2-0
  6
CONTINUOUS
 62
     6
 10
23899.40041799999
 20
19848.322293000001
 30
0.0
 11
23950.751109000012
 21
19862.756943
 31
0.0
  0
LINE
  5
775C
  8
2-0
  6
CONTINUOUS
 62
     6
 10
23950.751109000012
 20
19862.756943
 30
0.0
 11
23899.40041799999
 21
19848.322293000001
 31
0.0
  0
LINE
  5
775D
  8
2-0
  6
CONTINUOUS
 62
     6
 10
23899.40041799999
 20
19848.322293000001
 30
0.0
 11
23881.776764000009
 21
20009.567938
 31
0.0
  0
LINE
  5
775E
  8
2-0
  6
CONTINUOUS
 62
     6
 10
23881.776764000009
 20
20009.567938
 30
0.0
 11
23950.751109000012
 21
19862.756943
 31
0.0
  0
LINE
  5
775F
  8
2-0
  6
CONTINUOUS
 62
     6
 10
23950.751109000012
 20
19862.756943
 30
0.0
 11
23881.776764000009
 21
20009.567938
 31
0.0
  0
LINE
  5
7760
  8
2-0
  6
CONTINUOUS
 62
     6
 10
23899.40041799999
 20
19848.322293000001
 30
0.0
 11
23881.776764000009
 21
20009.567938
 31
0.0
  0
LINE
  5
7761
  8
2-0
  6
CONTINUOUS
 62
     6
 10
23950.751109000012
 20
19862.756943
 30
0.0
 11
23881.776764000009
 21
20009.567938
 31
0.0
  0
LINE
  5
7762
  8
2-0
  6
CONTINUOUS
 62
     6
 10
23881.776764000009
 20
20009.567938
 30
0.0
 11
23899.40041799999
 21
19848.322293000001
 31
0.0
  0
LINE
  5
7763
  8
2-0
  6
CONTINUOUS
 62
     4
 10
23840.353358000011
 20
20208.321500999999
 30
0.0
 11
23840.353358000011
 21
20938.318466000001
 31
0.0
  0
LINE
  5
7764
  8
2-0
  6
CONTINUOUS
 62
     6
 10
25472.713920999991
 20
14099.050939999979
 30
0.0
 11
25604.460780000001
 21
14193.67786699998
 31
0.0
  0
LINE
  5
7765
  8
2-0
  6
CONTINUOUS
 62
     6
 10
25604.460780000001
 20
14193.67786699998
 30
0.0
 11
25510.530643999999
 21
14061.43909699998
 31
0.0
  0
LINE
  5
7766
  8
2-0
  6
CONTINUOUS
 62
     6
 10
25472.713920999991
 20
14099.050939999979
 30
0.0
 11
25510.530643999999
 21
14061.43909699998
 31
0.0
  0
LINE
  5
7767
  8
2-0
  6
CONTINUOUS
 62
     6
 10
25510.530643999999
 20
14061.43909699998
 30
0.0
 11
25604.460780000001
 21
14193.67786699998
 31
0.0
  0
LINE
  5
7768
  8
2-0
  6
CONTINUOUS
 62
     6
 10
25604.460780000001
 20
14193.67786699998
 30
0.0
 11
25472.713920999991
 21
14099.050939999979
 31
0.0
  0
LINE
  5
7769
  8
2-0
  6
CONTINUOUS
 62
     6
 10
25472.713920999991
 20
14099.050939999979
 30
0.0
 11
25604.460780000001
 21
14193.67786699998
 31
0.0
  0
LINE
  5
776A
  8
2-0
  6
CONTINUOUS
 62
     6
 10
25510.530643999999
 20
14061.43909699998
 30
0.0
 11
25604.460780000001
 21
14193.67786699998
 31
0.0
  0
LINE
  5
776B
  8
2-0
  6
CONTINUOUS
 62
     6
 10
25510.530643999999
 20
14061.43909699998
 30
0.0
 11
25472.713920999991
 21
14099.050939999979
 31
0.0
  0
LINE
  5
776C
  8
2-0
  6
CONTINUOUS
 62
     6
 10
25535.749710000011
 20
14425.955566999981
 30
0.0
 11
25668.349741999991
 21
14332.527238999981
 31
0.0
  0
LINE
  5
776D
  8
2-0
  6
CONTINUOUS
 62
     6
 10
25668.349741999991
 20
14332.527238999981
 30
0.0
 11
25512.617055999988
 21
14377.90275299998
 31
0.0
  0
LINE
  5
776E
  8
2-0
  6
CONTINUOUS
 62
     6
 10
25535.749710000011
 20
14425.955566999981
 30
0.0
 11
25512.617055999988
 21
14377.90275299998
 31
0.0
  0
LINE
  5
776F
  8
2-0
  6
CONTINUOUS
 62
     6
 10
25512.617055999988
 20
14377.90275299998
 30
0.0
 11
25668.349741999991
 21
14332.527238999981
 31
0.0
  0
LINE
  5
7770
  8
2-0
  6
CONTINUOUS
 62
     6
 10
25668.349741999991
 20
14332.527238999981
 30
0.0
 11
25535.749710000011
 21
14425.955566999981
 31
0.0
  0
LINE
  5
7771
  8
2-0
  6
CONTINUOUS
 62
     6
 10
25535.749710000011
 20
14425.955566999981
 30
0.0
 11
25668.349741999991
 21
14332.527238999981
 31
0.0
  0
LINE
  5
7772
  8
2-0
  6
CONTINUOUS
 62
     6
 10
25512.617055999988
 20
14377.90275299998
 30
0.0
 11
25668.349741999991
 21
14332.527238999981
 31
0.0
  0
LINE
  5
7773
  8
2-0
  6
CONTINUOUS
 62
     6
 10
25512.617055999988
 20
14377.90275299998
 30
0.0
 11
25535.749710000011
 21
14425.955566999981
 31
0.0
  0
LINE
  5
7774
  8
2-0
  6
CONTINUOUS
 62
     6
 10
25595.513355999999
 20
16805.776500000011
 30
0.0
 11
25749.351641999991
 21
16857.210330999991
 31
0.0
  0
LINE
  5
7775
  8
2-0
  6
CONTINUOUS
 62
     6
 10
25749.351641999991
 20
16857.210330999991
 30
0.0
 11
25620.516654999981
 21
16758.66989600001
 31
0.0
  0
LINE
  5
7776
  8
2-0
  6
CONTINUOUS
 62
     6
 10
25595.513355999999
 20
16805.776500000011
 30
0.0
 11
25620.516654999981
 21
16758.66989600001
 31
0.0
  0
LINE
  5
7777
  8
2-0
  6
CONTINUOUS
 62
     6
 10
25620.516654999981
 20
16758.66989600001
 30
0.0
 11
25749.351641999991
 21
16857.210330999991
 31
0.0
  0
LINE
  5
7778
  8
2-0
  6
CONTINUOUS
 62
     6
 10
25749.351641999991
 20
16857.210330999991
 30
0.0
 11
25595.513355999999
 21
16805.776500000011
 31
0.0
  0
LINE
  5
7779
  8
2-0
  6
CONTINUOUS
 62
     6
 10
25595.513355999999
 20
16805.776500000011
 30
0.0
 11
25749.351641999991
 21
16857.210330999991
 31
0.0
  0
LINE
  5
777A
  8
2-0
  6
CONTINUOUS
 62
     6
 10
25620.516654999981
 20
16758.66989600001
 30
0.0
 11
25749.351641999991
 21
16857.210330999991
 31
0.0
  0
LINE
  5
777B
  8
2-0
  6
CONTINUOUS
 62
     6
 10
25620.516654999981
 20
16758.66989600001
 30
0.0
 11
25595.513355999999
 21
16805.776500000011
 31
0.0
  0
LINE
  5
777C
  8
2-0
  6
CONTINUOUS
 62
     6
 10
25461.577149000001
 20
17297.094991999991
 30
0.0
 11
25604.460780000001
 21
17220.319362999991
 31
0.0
  0
LINE
  5
777D
  8
2-0
  6
CONTINUOUS
 62
     6
 10
25604.460780000001
 20
17220.319362999991
 30
0.0
 11
25444.398886999988
 21
17246.60143200001
 31
0.0
  0
LINE
  5
777E
  8
2-0
  6
CONTINUOUS
 62
     6
 10
25461.577149000001
 20
17297.094991999991
 30
0.0
 11
25444.398886999988
 21
17246.60143200001
 31
0.0
  0
LINE
  5
777F
  8
2-0
  6
CONTINUOUS
 62
     6
 10
25444.398886999988
 20
17246.60143200001
 30
0.0
 11
25604.460780000001
 21
17220.319362999991
 31
0.0
  0
LINE
  5
7780
  8
2-0
  6
CONTINUOUS
 62
     6
 10
25604.460780000001
 20
17220.319362999991
 30
0.0
 11
25461.577149000001
 21
17297.094991999991
 31
0.0
  0
LINE
  5
7781
  8
2-0
  6
CONTINUOUS
 62
     6
 10
25461.577149000001
 20
17297.094991999991
 30
0.0
 11
25604.460780000001
 21
17220.319362999991
 31
0.0
  0
LINE
  5
7782
  8
2-0
  6
CONTINUOUS
 62
     6
 10
25444.398886999988
 20
17246.60143200001
 30
0.0
 11
25604.460780000001
 21
17220.319362999991
 31
0.0
  0
LINE
  5
7783
  8
2-0
  6
CONTINUOUS
 62
     6
 10
25444.398886999988
 20
17246.60143200001
 30
0.0
 11
25461.577149000001
 21
17297.094991999991
 31
0.0
  0
LINE
  5
7784
  8
2-0
  6
CONTINUOUS
 62
     3
 10
23100.85393899999
 20
20128.319258
 30
0.0
 11
23063.852777000011
 21
20128.319258
 31
0.0
  0
LINE
  5
7785
  8
2-0
  6
CONTINUOUS
 62
     3
 10
23100.85393899999
 20
20098.315695000001
 30
0.0
 11
23100.85393899999
 21
20128.319258
 31
0.0
  0
LINE
  5
7786
  8
2-0
  6
CONTINUOUS
 62
     3
 10
23094.854017999991
 20
20098.315695000001
 30
0.0
 11
23100.85393899999
 21
20098.315695000001
 31
0.0
  0
LINE
  5
7787
  8
2-0
  6
CONTINUOUS
 62
     3
 10
23110.951463000001
 20
20098.315695000001
 30
0.0
 11
23110.951463000001
 21
20128.319258
 31
0.0
  0
LINE
  5
7788
  8
2-0
  6
CONTINUOUS
 62
     3
 10
23092.947742
 20
20098.315695000001
 30
0.0
 11
23110.951463000001
 21
20098.315695000001
 31
0.0
  0
LINE
  5
7789
  8
2-0
  6
CONTINUOUS
 62
     3
 10
23092.947742
 20
20123.32493200001
 30
0.0
 11
23092.947742
 21
20098.315695000001
 31
0.0
  0
LINE
  5
778A
  8
2-0
  6
CONTINUOUS
 62
     3
 10
23097.94800600001
 20
20123.32493200001
 30
0.0
 11
23092.947742
 21
20123.32493200001
 31
0.0
  0
LINE
  5
778B
  8
2-0
  6
CONTINUOUS
 62
     3
 10
23097.94800600001
 20
20116.319415999998
 30
0.0
 11
23097.94800600001
 21
20123.32493200001
 31
0.0
  0
LINE
  5
778C
  8
2-0
  6
CONTINUOUS
 62
     3
 10
23066.758710999991
 20
20116.319415999998
 30
0.0
 11
23066.758710999991
 21
20123.32493200001
 31
0.0
  0
LINE
  5
778D
  8
2-0
  6
CONTINUOUS
 62
     3
 10
23066.758710999991
 20
20123.32493200001
 30
0.0
 11
23071.758975000001
 21
20123.32493200001
 31
0.0
  0
LINE
  5
778E
  8
2-0
  6
CONTINUOUS
 62
     3
 10
23071.758975000001
 20
20123.32493200001
 30
0.0
 11
23071.758975000001
 21
20098.315695000001
 31
0.0
  0
LINE
  5
778F
  8
2-0
  6
CONTINUOUS
 62
     3
 10
23071.758975000001
 20
20098.315695000001
 30
0.0
 11
23053.759212000001
 21
20098.315695000001
 31
0.0
  0
LINE
  5
7790
  8
2-0
  6
CONTINUOUS
 62
     3
 10
23053.759212000001
 20
20098.315695000001
 30
0.0
 11
23053.759212000001
 21
20128.319258
 31
0.0
  0
LINE
  5
7791
  8
2-0
  6
CONTINUOUS
 62
     3
 10
23069.852697999999
 20
20098.315695000001
 30
0.0
 11
23063.852777000011
 21
20098.315695000001
 31
0.0
  0
LINE
  5
7792
  8
2-0
  6
CONTINUOUS
 62
     3
 10
23063.852777000011
 20
20098.315695000001
 30
0.0
 11
23063.852777000011
 21
20128.319258
 31
0.0
  0
LINE
  5
7793
  8
2-0
  6
CONTINUOUS
 62
     3
 10
20559.354677999989
 20
20019.319047000001
 30
0.0
 11
20559.354677999989
 21
20013.323085000018
 31
0.0
  0
LINE
  5
7794
  8
2-0
  6
CONTINUOUS
 62
     3
 10
20559.354677999989
 20
20013.323085000018
 30
0.0
 11
20529.357052999989
 21
20013.323085000018
 31
0.0
  0
LINE
  5
7795
  8
2-0
  6
CONTINUOUS
 62
     3
 10
20529.357052999989
 20
20013.323085000018
 30
0.0
 11
20529.357052999989
 21
20128.319258
 31
0.0
  0
LINE
  5
7796
  8
2-0
  6
CONTINUOUS
 62
     3
 10
20529.357052999989
 20
20043.322689000001
 30
0.0
 11
20610.354994000001
 21
20043.322689000001
 31
0.0
  0
LINE
  5
7797
  8
2-0
  6
CONTINUOUS
 62
     3
 10
20559.354677999989
 20
20003.025628999989
 30
0.0
 11
20529.357052999989
 21
20003.025628999989
 31
0.0
  0
LINE
  5
7798
  8
2-0
  6
CONTINUOUS
 62
     3
 10
20559.354677999989
 20
20021.027371000011
 30
0.0
 11
20559.354677999989
 21
20003.025628999989
 31
0.0
  0
LINE
  5
7799
  8
2-0
  6
CONTINUOUS
 62
     3
 10
20534.361275999989
 20
20021.027371000011
 30
0.0
 11
20559.354677999989
 21
20021.027371000011
 31
0.0
  0
LINE
  5
779A
  8
2-0
  6
CONTINUOUS
 62
     3
 10
20534.361275999989
 20
20016.019188999999
 30
0.0
 11
20534.361275999989
 21
20021.027371000011
 31
0.0
  0
LINE
  5
779B
  8
2-0
  6
CONTINUOUS
 62
     3
 10
20541.358873999969
 20
20016.019188999999
 30
0.0
 11
20534.361275999989
 21
20016.019188999999
 31
0.0
  0
LINE
  5
779C
  8
2-0
  6
CONTINUOUS
 62
     3
 10
20641.653162999992
 20
20116.319415999998
 30
0.0
 11
20641.653162999992
 21
20123.32493200001
 31
0.0
  0
LINE
  5
779D
  8
2-0
  6
CONTINUOUS
 62
     3
 10
20641.653162999992
 20
20123.32493200001
 30
0.0
 11
20636.650919
 21
20123.32493200001
 31
0.0
  0
LINE
  5
779E
  8
2-0
  6
CONTINUOUS
 62
     3
 10
20636.650919
 20
20123.32493200001
 30
0.0
 11
20636.650919
 21
20098.315695000001
 31
0.0
  0
LINE
  5
779F
  8
2-0
  6
CONTINUOUS
 62
     3
 10
20636.650919
 20
20098.315695000001
 30
0.0
 11
20654.658599999992
 21
20098.315695000001
 31
0.0
  0
LINE
  5
77A0
  8
2-0
  6
CONTINUOUS
 62
     3
 10
20654.658599999992
 20
20098.315695000001
 30
0.0
 11
20654.658599999992
 21
20128.319258
 31
0.0
  0
LINE
  5
77A1
  8
2-0
  6
CONTINUOUS
 62
     3
 10
20644.359164000001
 20
20128.319258
 30
0.0
 11
20529.357052999989
 21
20128.319258
 31
0.0
  0
LINE
  5
77A2
  8
2-0
  6
CONTINUOUS
 62
     3
 10
20644.359164000001
 20
20098.315695000001
 30
0.0
 11
20644.359164000001
 21
20128.319258
 31
0.0
  0
LINE
  5
77A3
  8
2-0
  6
CONTINUOUS
 62
     3
 10
20638.355285000001
 20
20098.315695000001
 30
0.0
 11
20644.359164000001
 21
20098.315695000001
 31
0.0
  0
LINE
  5
77A4
  8
2-0
  6
CONTINUOUS
 62
     3
 10
21695.9430565
 20
20116.319415999998
 30
0.0
 11
21695.9430565
 21
20123.32493200001
 31
0.0
  0
LINE
  5
77A5
  8
2-0
  6
CONTINUOUS
 62
     3
 10
21695.9430565
 20
20123.32493200001
 30
0.0
 11
21690.942792500009
 21
20123.32493200001
 31
0.0
  0
LINE
  5
77A6
  8
2-0
  6
CONTINUOUS
 62
     3
 10
21690.942792500009
 20
20123.32493200001
 30
0.0
 11
21690.942792500009
 21
20098.315695000001
 31
0.0
  0
LINE
  5
77A7
  8
2-0
  6
CONTINUOUS
 62
     3
 10
21690.942792500009
 20
20098.315695000001
 30
0.0
 11
21708.9484935
 21
20098.315695000001
 31
0.0
  0
LINE
  5
77A8
  8
2-0
  6
CONTINUOUS
 62
     3
 10
21708.9484935
 20
20098.315695000001
 30
0.0
 11
21708.9484935
 21
20128.319258
 31
0.0
  0
LINE
  5
77A9
  8
2-0
  6
CONTINUOUS
 62
     3
 10
21692.851048500001
 20
20098.315695000001
 30
0.0
 11
21698.8529485
 21
20098.315695000001
 31
0.0
  0
LINE
  5
77AA
  8
2-0
  6
CONTINUOUS
 62
     3
 10
21698.8529485
 20
20098.315695000001
 30
0.0
 11
21698.8529485
 21
20128.319258
 31
0.0
  0
LINE
  5
77AB
  8
2-0
  6
CONTINUOUS
 62
     3
 10
21661.853767500001
 20
20128.319258
 30
0.0
 11
21698.8529485
 21
20128.319258
 31
0.0
  0
LINE
  5
77AC
  8
2-0
  6
CONTINUOUS
 62
     3
 10
21661.853767500001
 20
20098.315695000001
 30
0.0
 11
21661.853767500001
 21
20128.319258
 31
0.0
  0
LINE
  5
77AD
  8
2-0
  6
CONTINUOUS
 62
     3
 10
21667.84774949999
 20
20098.315695000001
 30
0.0
 11
21661.853767500001
 21
20098.315695000001
 31
0.0
  0
LINE
  5
77AE
  8
2-0
  6
CONTINUOUS
 62
     3
 10
21651.758222500011
 20
20098.315695000001
 30
0.0
 11
21651.758222500011
 21
20128.319258
 31
0.0
  0
LINE
  5
77AF
  8
2-0
  6
CONTINUOUS
 62
     3
 10
21669.754025499999
 20
20098.315695000001
 30
0.0
 11
21651.758222500011
 21
20098.315695000001
 31
0.0
  0
LINE
  5
77B0
  8
2-0
  6
CONTINUOUS
 62
     3
 10
21669.754025499999
 20
20123.32493200001
 30
0.0
 11
21669.754025499999
 21
20098.315695000001
 31
0.0
  0
LINE
  5
77B1
  8
2-0
  6
CONTINUOUS
 62
     3
 10
21664.7537615
 20
20123.32493200001
 30
0.0
 11
21669.754025499999
 21
20123.32493200001
 31
0.0
  0
LINE
  5
77B2
  8
2-0
  6
CONTINUOUS
 62
     3
 10
21664.7537615
 20
20116.319415999998
 30
0.0
 11
21664.7537615
 21
20123.32493200001
 31
0.0
  0
LINE
  5
77B3
  8
2-0
  6
CONTINUOUS
 62
     3
 10
22365.7527725
 20
20116.319415999998
 30
0.0
 11
22365.7527725
 21
20123.32493200001
 31
0.0
  0
LINE
  5
77B4
  8
2-0
  6
CONTINUOUS
 62
     3
 10
22365.7527725
 20
20123.32493200001
 30
0.0
 11
22370.753035500009
 21
20123.32493200001
 31
0.0
  0
LINE
  5
77B5
  8
2-0
  6
CONTINUOUS
 62
     3
 10
22370.753035500009
 20
20123.32493200001
 30
0.0
 11
22370.753035500009
 21
20098.315695000001
 31
0.0
  0
LINE
  5
77B6
  8
2-0
  6
CONTINUOUS
 62
     3
 10
22370.753035500009
 20
20098.315695000001
 30
0.0
 11
22352.75921249999
 21
20098.315695000001
 31
0.0
  0
LINE
  5
77B7
  8
2-0
  6
CONTINUOUS
 62
     3
 10
22352.75921249999
 20
20098.315695000001
 30
0.0
 11
22352.75921249999
 21
20128.319258
 31
0.0
  0
LINE
  5
77B8
  8
2-0
  6
CONTINUOUS
 62
     3
 10
22368.850718499991
 20
20098.315695000001
 30
0.0
 11
22362.852777499989
 21
20098.315695000001
 31
0.0
  0
LINE
  5
77B9
  8
2-0
  6
CONTINUOUS
 62
     3
 10
22362.852777499989
 20
20098.315695000001
 30
0.0
 11
22362.852777499989
 21
20128.319258
 31
0.0
  0
LINE
  5
77BA
  8
2-0
  6
CONTINUOUS
 62
     3
 10
22399.8539385
 20
20128.319258
 30
0.0
 11
22362.852777499989
 21
20128.319258
 31
0.0
  0
LINE
  5
77BB
  8
2-0
  6
CONTINUOUS
 62
     3
 10
22399.8539385
 20
20098.315695000001
 30
0.0
 11
22399.8539385
 21
20128.319258
 31
0.0
  0
LINE
  5
77BC
  8
2-0
  6
CONTINUOUS
 62
     3
 10
22393.8480795
 20
20098.315695000001
 30
0.0
 11
22399.8539385
 21
20098.315695000001
 31
0.0
  0
LINE
  5
77BD
  8
2-0
  6
CONTINUOUS
 62
     3
 10
22409.9475035
 20
20098.315695000001
 30
0.0
 11
22409.9475035
 21
20128.319258
 31
0.0
  0
LINE
  5
77BE
  8
2-0
  6
CONTINUOUS
 62
     3
 10
22391.951700499991
 20
20098.315695000001
 30
0.0
 11
22409.9475035
 21
20098.315695000001
 31
0.0
  0
LINE
  5
77BF
  8
2-0
  6
CONTINUOUS
 62
     3
 10
22391.951700499991
 20
20123.32493200001
 30
0.0
 11
22391.951700499991
 21
20098.315695000001
 31
0.0
  0
LINE
  5
77C0
  8
2-0
  6
CONTINUOUS
 62
     3
 10
22396.942066500011
 20
20123.32493200001
 30
0.0
 11
22391.951700499991
 21
20123.32493200001
 31
0.0
  0
LINE
  5
77C1
  8
2-0
  6
CONTINUOUS
 62
     3
 10
22396.942066500011
 20
20116.319415999998
 30
0.0
 11
22396.942066500011
 21
20123.32493200001
 31
0.0
  0
LINE
  5
77C2
  8
2-0
  6
CONTINUOUS
 62
     3
 10
21708.9484935
 20
20128.319258
 30
0.0
 11
22352.75921249999
 21
20128.319258
 31
0.0
  0
LINE
  5
77C3
  8
2-0
  6
CONTINUOUS
 62
     3
 10
21008.152384000012
 20
20128.319258
 30
0.0
 11
21651.758222500011
 21
20128.319258
 31
0.0
  0
LINE
  5
77C4
  8
2-0
  6
CONTINUOUS
 62
     3
 10
23053.759212000001
 20
20128.319258
 30
0.0
 11
22409.9475035
 21
20128.319258
 31
0.0
  0
LINE
  5
77C5
  8
2-0
  6
CONTINUOUS
 62
     3
 10
20559.354677999989
 20
20019.319047000001
 30
0.0
 11
20559.354677999989
 21
20013.323085000018
 31
0.0
  0
LINE
  5
77C6
  8
2-0
  6
CONTINUOUS
 62
     3
 10
20559.354677999989
 20
20013.323085000018
 30
0.0
 11
20529.357052999989
 21
20013.323085000018
 31
0.0
  0
LINE
  5
77C7
  8
2-0
  6
CONTINUOUS
 62
     3
 10
20529.357052999989
 20
20013.323085000018
 30
0.0
 11
20529.357052999989
 21
20128.319258
 31
0.0
  0
LINE
  5
77C8
  8
2-0
  6
CONTINUOUS
 62
     3
 10
20529.357052999989
 20
20043.322689000001
 30
0.0
 11
20610.354994000001
 21
20043.322689000001
 31
0.0
  0
LINE
  5
77C9
  8
2-0
  6
CONTINUOUS
 62
     3
 10
20559.354677999989
 20
20003.025628999989
 30
0.0
 11
20529.357052999989
 21
20003.025628999989
 31
0.0
  0
LINE
  5
77CA
  8
2-0
  6
CONTINUOUS
 62
     3
 10
20559.354677999989
 20
20021.027371000011
 30
0.0
 11
20559.354677999989
 21
20003.025628999989
 31
0.0
  0
LINE
  5
77CB
  8
2-0
  6
CONTINUOUS
 62
     3
 10
20534.361275999989
 20
20021.027371000011
 30
0.0
 11
20559.354677999989
 21
20021.027371000011
 31
0.0
  0
LINE
  5
77CC
  8
2-0
  6
CONTINUOUS
 62
     3
 10
20534.361275999989
 20
20016.019188999999
 30
0.0
 11
20534.361275999989
 21
20021.027371000011
 31
0.0
  0
LINE
  5
77CD
  8
2-0
  6
CONTINUOUS
 62
     3
 10
20541.358873999969
 20
20016.019188999999
 30
0.0
 11
20534.361275999989
 21
20016.019188999999
 31
0.0
  0
LINE
  5
77CE
  8
2-0
  6
CONTINUOUS
 62
     3
 10
20541.358873999969
 20
19312.22236649998
 30
0.0
 11
20534.361275999989
 21
19312.22236649998
 31
0.0
  0
LINE
  5
77CF
  8
2-0
  6
CONTINUOUS
 62
     3
 10
20534.361275999989
 20
19312.22236649998
 30
0.0
 11
20534.361275999989
 21
19317.222630499989
 31
0.0
  0
LINE
  5
77D0
  8
2-0
  6
CONTINUOUS
 62
     3
 10
20534.361275999989
 20
19317.222630499989
 30
0.0
 11
20559.354677999989
 21
19317.222630499989
 31
0.0
  0
LINE
  5
77D1
  8
2-0
  6
CONTINUOUS
 62
     3
 10
20559.354677999989
 20
19317.222630499989
 30
0.0
 11
20559.354677999989
 21
19299.22682649998
 31
0.0
  0
LINE
  5
77D2
  8
2-0
  6
CONTINUOUS
 62
     3
 10
20559.354677999989
 20
19299.22682649998
 30
0.0
 11
20529.357052999989
 21
19299.22682649998
 31
0.0
  0
LINE
  5
77D3
  8
2-0
  6
CONTINUOUS
 62
     3
 10
20559.354677999989
 20
19315.318333499948
 30
0.0
 11
20559.354677999989
 21
19309.320392499991
 31
0.0
  0
LINE
  5
77D4
  8
2-0
  6
CONTINUOUS
 62
     3
 10
20559.354677999989
 20
19309.320392499991
 30
0.0
 11
20529.357052999989
 21
19309.320392499991
 31
0.0
  0
LINE
  5
77D5
  8
2-0
  6
CONTINUOUS
 62
     3
 10
20529.357052999989
 20
19309.320392499991
 30
0.0
 11
20529.357052999989
 21
19346.321553499991
 31
0.0
  0
LINE
  5
77D6
  8
2-0
  6
CONTINUOUS
 62
     3
 10
20559.354677999989
 20
19346.321553499991
 30
0.0
 11
20529.357052999989
 21
19346.321553499991
 31
0.0
  0
LINE
  5
77D7
  8
2-0
  6
CONTINUOUS
 62
     3
 10
20559.354677999989
 20
19340.317673499969
 30
0.0
 11
20559.354677999989
 21
19346.321553499991
 31
0.0
  0
LINE
  5
77D8
  8
2-0
  6
CONTINUOUS
 62
     3
 10
20559.354677999989
 20
19356.41709849998
 30
0.0
 11
20529.357052999989
 21
19356.41709849998
 31
0.0
  0
LINE
  5
77D9
  8
2-0
  6
CONTINUOUS
 62
     3
 10
20559.354677999989
 20
19338.415356499991
 30
0.0
 11
20559.354677999989
 21
19356.41709849998
 31
0.0
  0
LINE
  5
77DA
  8
2-0
  6
CONTINUOUS
 62
     3
 10
20534.361275999989
 20
19338.415356499991
 30
0.0
 11
20559.354677999989
 21
19338.415356499991
 31
0.0
  0
LINE
  5
77DB
  8
2-0
  6
CONTINUOUS
 62
     3
 10
20534.361275999989
 20
19343.415620499982
 30
0.0
 11
20534.361275999989
 21
19338.415356499991
 31
0.0
  0
LINE
  5
77DC
  8
2-0
  6
CONTINUOUS
 62
     3
 10
20541.358873999969
 20
19343.415620499982
 30
0.0
 11
20534.361275999989
 21
19343.415620499982
 31
0.0
  0
LINE
  5
77DD
  8
2-0
  6
CONTINUOUS
 62
     3
 10
20541.358873999969
 20
18611.221376999991
 30
0.0
 11
20534.361275999989
 21
18611.221376999991
 31
0.0
  0
LINE
  5
77DE
  8
2-0
  6
CONTINUOUS
 62
     3
 10
20534.361275999989
 20
18611.221376999991
 30
0.0
 11
20534.361275999989
 21
18616.227578999991
 31
0.0
  0
LINE
  5
77DF
  8
2-0
  6
CONTINUOUS
 62
     3
 10
20534.361275999989
 20
18616.227578999991
 30
0.0
 11
20559.354677999989
 21
18616.227578999991
 31
0.0
  0
LINE
  5
77E0
  8
2-0
  6
CONTINUOUS
 62
     3
 10
20559.354677999989
 20
18616.227578999991
 30
0.0
 11
20559.354677999989
 21
18598.225836999991
 31
0.0
  0
LINE
  5
77E1
  8
2-0
  6
CONTINUOUS
 62
     3
 10
20559.354677999989
 20
18598.225836999991
 30
0.0
 11
20529.357052999989
 21
18598.225836999991
 31
0.0
  0
LINE
  5
77E2
  8
2-0
  6
CONTINUOUS
 62
     3
 10
20559.354677999989
 20
18614.317343999981
 30
0.0
 11
20559.354677999989
 21
18608.32138199998
 31
0.0
  0
LINE
  5
77E3
  8
2-0
  6
CONTINUOUS
 62
     3
 10
20559.354677999989
 20
18608.32138199998
 30
0.0
 11
20529.357052999989
 21
18608.32138199998
 31
0.0
  0
LINE
  5
77E4
  8
2-0
  6
CONTINUOUS
 62
     3
 10
20529.357052999989
 20
18608.32138199998
 30
0.0
 11
20529.357052999989
 21
18645.320563999991
 31
0.0
  0
LINE
  5
77E5
  8
2-0
  6
CONTINUOUS
 62
     3
 10
20559.354677999989
 20
18645.320563999991
 30
0.0
 11
20529.357052999989
 21
18645.320563999991
 31
0.0
  0
LINE
  5
77E6
  8
2-0
  6
CONTINUOUS
 62
     3
 10
20559.354677999989
 20
18639.324602000001
 30
0.0
 11
20559.354677999989
 21
18645.320563999991
 31
0.0
  0
LINE
  5
77E7
  8
2-0
  6
CONTINUOUS
 62
     3
 10
20559.354677999989
 20
18655.416108999991
 30
0.0
 11
20529.357052999989
 21
18655.416108999991
 31
0.0
  0
LINE
  5
77E8
  8
2-0
  6
CONTINUOUS
 62
     3
 10
20559.354677999989
 20
18637.414366999961
 30
0.0
 11
20559.354677999989
 21
18655.416108999991
 31
0.0
  0
LINE
  5
77E9
  8
2-0
  6
CONTINUOUS
 62
     3
 10
20534.361275999989
 20
18637.414366999961
 30
0.0
 11
20559.354677999989
 21
18637.414366999961
 31
0.0
  0
LINE
  5
77EA
  8
2-0
  6
CONTINUOUS
 62
     3
 10
20534.361275999989
 20
18642.42056899998
 30
0.0
 11
20534.361275999989
 21
18637.414366999961
 31
0.0
  0
LINE
  5
77EB
  8
2-0
  6
CONTINUOUS
 62
     3
 10
20541.358873999969
 20
18642.42056899998
 30
0.0
 11
20534.361275999989
 21
18642.42056899998
 31
0.0
  0
LINE
  5
77EC
  8
2-0
  6
CONTINUOUS
 62
     3
 10
20541.358873999969
 20
17941.414630999989
 30
0.0
 11
20534.361275999989
 21
17941.414630999989
 31
0.0
  0
LINE
  5
77ED
  8
2-0
  6
CONTINUOUS
 62
     3
 10
20534.361275999989
 20
17941.414630999989
 30
0.0
 11
20534.361275999989
 21
17936.426243999991
 31
0.0
  0
LINE
  5
77EE
  8
2-0
  6
CONTINUOUS
 62
     3
 10
20534.361275999989
 20
17936.426243999991
 30
0.0
 11
20559.354677999989
 21
17936.426243999991
 31
0.0
  0
LINE
  5
77EF
  8
2-0
  6
CONTINUOUS
 62
     3
 10
20559.354677999989
 20
17936.426243999991
 30
0.0
 11
20559.354677999989
 21
17954.422046999978
 31
0.0
  0
LINE
  5
77F0
  8
2-0
  6
CONTINUOUS
 62
     3
 10
20559.354677999989
 20
17954.422046999978
 30
0.0
 11
20529.357052999989
 21
17954.422046999978
 31
0.0
  0
LINE
  5
77F1
  8
2-0
  6
CONTINUOUS
 62
     3
 10
20559.354677999989
 20
17938.32460199999
 30
0.0
 11
20559.354677999989
 21
17944.32056399998
 31
0.0
  0
LINE
  5
77F2
  8
2-0
  6
CONTINUOUS
 62
     3
 10
20559.354677999989
 20
17944.32056399998
 30
0.0
 11
20529.357052999989
 21
17944.32056399998
 31
0.0
  0
LINE
  5
77F3
  8
2-0
  6
CONTINUOUS
 62
     3
 10
20529.357052999989
 20
17944.32056399998
 30
0.0
 11
20529.357052999989
 21
17907.321381999991
 31
0.0
  0
LINE
  5
77F4
  8
2-0
  6
CONTINUOUS
 62
     3
 10
20559.354677999989
 20
17907.321381999991
 30
0.0
 11
20529.357052999989
 21
17907.321381999991
 31
0.0
  0
LINE
  5
77F5
  8
2-0
  6
CONTINUOUS
 62
     3
 10
20559.354677999989
 20
17913.32328299998
 30
0.0
 11
20559.354677999989
 21
17907.321381999991
 31
0.0
  0
LINE
  5
77F6
  8
2-0
  6
CONTINUOUS
 62
     3
 10
20559.354677999989
 20
17897.23177599999
 30
0.0
 11
20529.357052999989
 21
17897.23177599999
 31
0.0
  0
LINE
  5
77F7
  8
2-0
  6
CONTINUOUS
 62
     3
 10
20559.354677999989
 20
17915.227578999991
 30
0.0
 11
20559.354677999989
 21
17897.23177599999
 31
0.0
  0
LINE
  5
77F8
  8
2-0
  6
CONTINUOUS
 62
     3
 10
20534.361275999989
 20
17915.227578999991
 30
0.0
 11
20559.354677999989
 21
17915.227578999991
 31
0.0
  0
LINE
  5
77F9
  8
2-0
  6
CONTINUOUS
 62
     3
 10
20534.361275999989
 20
17910.22731599999
 30
0.0
 11
20534.361275999989
 21
17915.227578999991
 31
0.0
  0
LINE
  5
77FA
  8
2-0
  6
CONTINUOUS
 62
     3
 10
20541.358873999969
 20
17910.22731599999
 30
0.0
 11
20534.361275999989
 21
17910.22731599999
 31
0.0
  0
LINE
  5
77FB
  8
2-0
  6
CONTINUOUS
 62
     3
 10
20532.243191000001
 20
17190.318201999991
 30
0.0
 11
20532.243191000001
 21
17210.319256999981
 31
0.0
  0
LINE
  5
77FC
  8
2-0
  6
CONTINUOUS
 62
     3
 10
20532.243191000001
 20
17210.319256999981
 30
0.0
 11
20617.243718999998
 21
17210.319256999981
 31
0.0
  0
LINE
  5
77FD
  8
2-0
  6
CONTINUOUS
 62
     3
 10
20541.358873999969
 20
17236.925966999999
 30
0.0
 11
20534.361275999989
 21
17236.925966999999
 31
0.0
  0
LINE
  5
77FE
  8
2-0
  6
CONTINUOUS
 62
     3
 10
20534.361275999989
 20
17236.925966999999
 30
0.0
 11
20534.361275999989
 21
17231.931640999999
 31
0.0
  0
LINE
  5
77FF
  8
2-0
  6
CONTINUOUS
 62
     3
 10
20534.361275999989
 20
17231.931640999999
 30
0.0
 11
20559.354677999989
 21
17231.931640999999
 31
0.0
  0
LINE
  5
7800
  8
2-0
  6
CONTINUOUS
 62
     3
 10
20559.354677999989
 20
17231.931640999999
 30
0.0
 11
20559.354677999989
 21
17249.92744499999
 31
0.0
  0
LINE
  5
7801
  8
2-0
  6
CONTINUOUS
 62
     3
 10
20559.354677999989
 20
17249.92744499999
 30
0.0
 11
20529.357052999989
 21
17249.92744499999
 31
0.0
  0
LINE
  5
7802
  8
2-0
  6
CONTINUOUS
 62
     3
 10
20559.354677999989
 20
17240.318860999982
 30
0.0
 11
20559.354677999989
 21
17234.31696099999
 31
0.0
  0
LINE
  5
7803
  8
2-0
  6
CONTINUOUS
 62
     3
 10
20529.357052999989
 20
17240.318860999982
 30
0.0
 11
20559.354677999989
 21
17240.318860999982
 31
0.0
  0
LINE
  5
7804
  8
2-0
  6
CONTINUOUS
 62
     3
 10
20529.357052999989
 20
17249.92744499999
 30
0.0
 11
20529.357052999989
 21
17897.23177599999
 31
0.0
  0
LINE
  5
7805
  8
2-0
  6
CONTINUOUS
 62
     3
 10
20529.357052999989
 20
17954.422046999978
 30
0.0
 11
20529.357052999989
 21
18598.225836999991
 31
0.0
  0
LINE
  5
7806
  8
2-0
  6
CONTINUOUS
 62
     3
 10
20529.357052999989
 20
17095.31714599999
 30
0.0
 11
20559.354677999989
 21
17095.31714599999
 31
0.0
  0
LINE
  5
7807
  8
2-0
  6
CONTINUOUS
 62
     3
 10
20559.354677999989
 20
17095.31714599999
 30
0.0
 11
20559.354677999989
 21
17101.319046000001
 31
0.0
  0
LINE
  5
7808
  8
2-0
  6
CONTINUOUS
 62
     3
 10
20617.243718999998
 20
17125.32268899999
 30
0.0
 11
20532.243191000001
 21
17125.32268899999
 31
0.0
  0
LINE
  5
7809
  8
2-0
  6
CONTINUOUS
 62
     3
 10
20532.243191000001
 20
17125.32268899999
 30
0.0
 11
20532.243191000001
 21
17145.317805999988
 31
0.0
  0
LINE
  5
780A
  8
2-0
  6
CONTINUOUS
 62
     3
 10
20559.354677999989
 20
17085.708563
 30
0.0
 11
20529.357052999989
 21
17085.708563
 31
0.0
  0
LINE
  5
780B
  8
2-0
  6
CONTINUOUS
 62
     3
 10
20559.354677999989
 20
17103.70436599998
 30
0.0
 11
20559.354677999989
 21
17085.708563
 31
0.0
  0
LINE
  5
780C
  8
2-0
  6
CONTINUOUS
 62
     3
 10
20534.361275999989
 20
17103.70436599998
 30
0.0
 11
20559.354677999989
 21
17103.70436599998
 31
0.0
  0
LINE
  5
780D
  8
2-0
  6
CONTINUOUS
 62
     3
 10
20534.361275999989
 20
17098.704101999989
 30
0.0
 11
20534.361275999989
 21
17103.70436599998
 31
0.0
  0
LINE
  5
780E
  8
2-0
  6
CONTINUOUS
 62
     3
 10
20541.358873999969
 20
17098.704101999989
 30
0.0
 11
20534.361275999989
 21
17098.704101999989
 31
0.0
  0
LINE
  5
780F
  8
2-0
  6
CONTINUOUS
 62
     3
 10
20541.358873999969
 20
16394.22187149998
 30
0.0
 11
20534.361275999989
 21
16394.22187149998
 31
0.0
  0
LINE
  5
7810
  8
2-0
  6
CONTINUOUS
 62
     3
 10
20534.361275999989
 20
16394.22187149998
 30
0.0
 11
20534.361275999989
 21
16399.222135499978
 31
0.0
  0
LINE
  5
7811
  8
2-0
  6
CONTINUOUS
 62
     3
 10
20534.361275999989
 20
16399.222135499978
 30
0.0
 11
20559.354677999989
 21
16399.222135499978
 31
0.0
  0
LINE
  5
7812
  8
2-0
  6
CONTINUOUS
 62
     3
 10
20559.354677999989
 20
16399.222135499978
 30
0.0
 11
20559.354677999989
 21
16381.220393499991
 31
0.0
  0
LINE
  5
7813
  8
2-0
  6
CONTINUOUS
 62
     3
 10
20559.354677999989
 20
16381.220393499991
 30
0.0
 11
20529.357052999989
 21
16381.220393499991
 31
0.0
  0
LINE
  5
7814
  8
2-0
  6
CONTINUOUS
 62
     3
 10
20559.354677999989
 20
16397.317838499981
 30
0.0
 11
20559.354677999989
 21
16391.320887499991
 31
0.0
  0
LINE
  5
7815
  8
2-0
  6
CONTINUOUS
 62
     3
 10
20559.354677999989
 20
16391.320887499991
 30
0.0
 11
20529.357052999989
 21
16391.320887499991
 31
0.0
  0
LINE
  5
7816
  8
2-0
  6
CONTINUOUS
 62
     3
 10
20529.357052999989
 20
16391.320887499991
 30
0.0
 11
20529.357052999989
 21
16428.321058499991
 31
0.0
  0
LINE
  5
7817
  8
2-0
  6
CONTINUOUS
 62
     3
 10
20559.354677999989
 20
16428.321058499991
 30
0.0
 11
20529.357052999989
 21
16428.321058499991
 31
0.0
  0
LINE
  5
7818
  8
2-0
  6
CONTINUOUS
 62
     3
 10
20559.354677999989
 20
16422.318168499991
 30
0.0
 11
20559.354677999989
 21
16428.321058499991
 31
0.0
  0
LINE
  5
7819
  8
2-0
  6
CONTINUOUS
 62
     3
 10
20559.354677999989
 20
16438.416603499991
 30
0.0
 11
20529.357052999989
 21
16438.416603499991
 31
0.0
  0
LINE
  5
781A
  8
2-0
  6
CONTINUOUS
 62
     3
 10
20559.354677999989
 20
16420.408922499992
 30
0.0
 11
20559.354677999989
 21
16438.416603499991
 31
0.0
  0
LINE
  5
781B
  8
2-0
  6
CONTINUOUS
 62
     3
 10
20534.361275999989
 20
16420.408922499992
 30
0.0
 11
20559.354677999989
 21
16420.408922499992
 31
0.0
  0
LINE
  5
781C
  8
2-0
  6
CONTINUOUS
 62
     3
 10
20534.361275999989
 20
16425.415125499982
 30
0.0
 11
20534.361275999989
 21
16420.408922499992
 31
0.0
  0
LINE
  5
781D
  8
2-0
  6
CONTINUOUS
 62
     3
 10
20541.358873999969
 20
16425.415125499982
 30
0.0
 11
20534.361275999989
 21
16425.415125499982
 31
0.0
  0
LINE
  5
781E
  8
2-0
  6
CONTINUOUS
 62
     3
 10
20541.358873999969
 20
15724.655141999991
 30
0.0
 11
20534.361275999989
 21
15724.655141999991
 31
0.0
  0
LINE
  5
781F
  8
2-0
  6
CONTINUOUS
 62
     3
 10
20534.361275999989
 20
15724.655141999991
 30
0.0
 11
20534.361275999989
 21
15719.660817000011
 31
0.0
  0
LINE
  5
7820
  8
2-0
  6
CONTINUOUS
 62
     3
 10
20534.361275999989
 20
15719.660817000011
 30
0.0
 11
20559.354677999989
 21
15719.660817000011
 31
0.0
  0
LINE
  5
7821
  8
2-0
  6
CONTINUOUS
 62
     3
 10
20559.354677999989
 20
15719.660817000011
 30
0.0
 11
20559.354677999989
 21
15737.656619999991
 31
0.0
  0
LINE
  5
7822
  8
2-0
  6
CONTINUOUS
 62
     3
 10
20559.354677999989
 20
15737.656619999991
 30
0.0
 11
20529.357052999989
 21
15737.656619999991
 31
0.0
  0
LINE
  5
7823
  8
2-0
  6
CONTINUOUS
 62
     3
 10
20559.354677999989
 20
15721.559175
 30
0.0
 11
20559.354677999989
 21
15727.561075000011
 31
0.0
  0
LINE
  5
7824
  8
2-0
  6
CONTINUOUS
 62
     3
 10
20559.354677999989
 20
15727.561075000011
 30
0.0
 11
20529.357052999989
 21
15727.561075000011
 31
0.0
  0
LINE
  5
7825
  8
2-0
  6
CONTINUOUS
 62
     3
 10
20529.357052999989
 20
15690.561894
 30
0.0
 11
20529.357052999989
 21
15727.561075000011
 31
0.0
  0
LINE
  5
7826
  8
2-0
  6
CONTINUOUS
 62
     3
 10
20559.354677999989
 20
15690.561894
 30
0.0
 11
20529.357052999989
 21
15690.561894
 31
0.0
  0
LINE
  5
7827
  8
2-0
  6
CONTINUOUS
 62
     3
 10
20559.354677999989
 20
15696.55884499999
 30
0.0
 11
20559.354677999989
 21
15690.561894
 31
0.0
  0
LINE
  5
7828
  8
2-0
  6
CONTINUOUS
 62
     3
 10
20559.354677999989
 20
15680.460409999991
 30
0.0
 11
20529.357052999989
 21
15680.460409999991
 31
0.0
  0
LINE
  5
7829
  8
2-0
  6
CONTINUOUS
 62
     3
 10
20559.354677999989
 20
15698.46809099999
 30
0.0
 11
20559.354677999989
 21
15680.460409999991
 31
0.0
  0
LINE
  5
782A
  8
2-0
  6
CONTINUOUS
 62
     3
 10
20534.361275999989
 20
15698.46809099999
 30
0.0
 11
20559.354677999989
 21
15698.46809099999
 31
0.0
  0
LINE
  5
782B
  8
2-0
  6
CONTINUOUS
 62
     3
 10
20534.361275999989
 20
15693.467827
 30
0.0
 11
20534.361275999989
 21
15698.46809099999
 31
0.0
  0
LINE
  5
782C
  8
2-0
  6
CONTINUOUS
 62
     3
 10
20541.358873999969
 20
15693.467827
 30
0.0
 11
20534.361275999989
 21
15693.467827
 31
0.0
  0
LINE
  5
782D
  8
2-0
  6
CONTINUOUS
 62
     3
 10
20529.357052999989
 20
17085.708563
 30
0.0
 11
20529.357052999989
 21
16438.416603499991
 31
0.0
  0
LINE
  5
782E
  8
2-0
  6
CONTINUOUS
 62
     3
 10
20529.357052999989
 20
17240.318860999982
 30
0.0
 11
20529.357052999989
 21
17095.31714599999
 31
0.0
  0
LINE
  5
782F
  8
2-0
  6
CONTINUOUS
 62
     3
 10
20617.243718999998
 20
17210.319256999981
 30
0.0
 11
20617.243718999998
 21
17125.32268899999
 31
0.0
  0
LINE
  5
7830
  8
2-0
  6
CONTINUOUS
 62
     3
 10
20541.358873999969
 20
14992.226819999991
 30
0.0
 11
20534.361275999989
 21
14992.226819999991
 31
0.0
  0
LINE
  5
7831
  8
2-0
  6
CONTINUOUS
 62
     3
 10
20534.361275999989
 20
14992.226819999991
 30
0.0
 11
20534.361275999989
 21
14997.221146
 31
0.0
  0
LINE
  5
7832
  8
2-0
  6
CONTINUOUS
 62
     3
 10
20534.361275999989
 20
14997.221146
 30
0.0
 11
20559.354677999989
 21
14997.221146
 31
0.0
  0
LINE
  5
7833
  8
2-0
  6
CONTINUOUS
 62
     3
 10
20559.354677999989
 20
14997.221146
 30
0.0
 11
20559.354677999989
 21
14979.225341999991
 31
0.0
  0
LINE
  5
7834
  8
2-0
  6
CONTINUOUS
 62
     3
 10
20559.354677999989
 20
14979.225341999991
 30
0.0
 11
20529.357052999989
 21
14979.225341999991
 31
0.0
  0
LINE
  5
7835
  8
2-0
  6
CONTINUOUS
 62
     3
 10
20559.354677999989
 20
14995.323777
 30
0.0
 11
20559.354677999989
 21
14989.320887
 31
0.0
  0
LINE
  5
7836
  8
2-0
  6
CONTINUOUS
 62
     3
 10
20559.354677999989
 20
14989.320887
 30
0.0
 11
20529.357052999989
 21
14989.320887
 31
0.0
  0
LINE
  5
7837
  8
2-0
  6
CONTINUOUS
 62
     3
 10
20529.357052999989
 20
14989.320887
 30
0.0
 11
20529.357052999989
 21
15026.32105899998
 31
0.0
  0
LINE
  5
7838
  8
2-0
  6
CONTINUOUS
 62
     3
 10
20559.354677999989
 20
15026.32105899998
 30
0.0
 11
20529.357052999989
 21
15026.32105899998
 31
0.0
  0
LINE
  5
7839
  8
2-0
  6
CONTINUOUS
 62
     3
 10
20559.354677999989
 20
15020.32410699998
 30
0.0
 11
20559.354677999989
 21
15026.32105899998
 31
0.0
  0
LINE
  5
783A
  8
2-0
  6
CONTINUOUS
 62
     3
 10
20559.354677999989
 20
15036.421552
 30
0.0
 11
20529.357052999989
 21
15036.421552
 31
0.0
  0
LINE
  5
783B
  8
2-0
  6
CONTINUOUS
 62
     3
 10
20559.354677999989
 20
15018.414860999999
 30
0.0
 11
20559.354677999989
 21
15036.421552
 31
0.0
  0
LINE
  5
783C
  8
2-0
  6
CONTINUOUS
 62
     3
 10
20534.361275999989
 20
15018.414860999999
 30
0.0
 11
20559.354677999989
 21
15018.414860999999
 31
0.0
  0
LINE
  5
783D
  8
2-0
  6
CONTINUOUS
 62
     3
 10
20534.361275999989
 20
15023.420074
 30
0.0
 11
20534.361275999989
 21
15018.414860999999
 31
0.0
  0
LINE
  5
783E
  8
2-0
  6
CONTINUOUS
 62
     3
 10
20541.358873999969
 20
15023.420074
 30
0.0
 11
20534.361275999989
 21
15023.420074
 31
0.0
  0
LINE
  5
783F
  8
2-0
  6
CONTINUOUS
 62
     3
 10
20559.354677999989
 20
14316.32289999999
 30
0.0
 11
20559.354677999989
 21
14322.32776899999
 31
0.0
  0
LINE
  5
7840
  8
2-0
  6
CONTINUOUS
 62
     3
 10
20559.354677999989
 20
14322.32776899999
 30
0.0
 11
20529.357052999989
 21
14322.32776899999
 31
0.0
  0
LINE
  5
7841
  8
2-0
  6
CONTINUOUS
 62
     3
 10
20529.357052999989
 20
14322.32776899999
 30
0.0
 11
20529.357052999989
 21
14207.32367799999
 31
0.0
  0
LINE
  5
7842
  8
2-0
  6
CONTINUOUS
 62
     3
 10
20529.357052999989
 20
14207.32367799999
 30
0.0
 11
20614.355600999999
 21
14207.32367799999
 31
0.0
  0
LINE
  5
7843
  8
2-0
  6
CONTINUOUS
 62
     3
 10
20614.355600999999
 20
14207.32367799999
 30
0.0
 11
20614.355600999999
 21
14292.31925699999
 31
0.0
  0
LINE
  5
7844
  8
2-0
  6
CONTINUOUS
 62
     3
 10
20614.355600999999
 20
14292.31925699999
 30
0.0
 11
20582.358662999992
 21
14292.31925699999
 31
0.0
  0
LINE
  5
7845
  8
2-0
  6
CONTINUOUS
 62
     3
 10
20541.358873999969
 20
14319.35750199999
 30
0.0
 11
20534.361275999989
 21
14319.35750199999
 31
0.0
  0
LINE
  5
7846
  8
2-0
  6
CONTINUOUS
 62
     3
 10
20534.361275999989
 20
14319.35750199999
 30
0.0
 11
20534.361275999989
 21
14314.360206999971
 31
0.0
  0
LINE
  5
7847
  8
2-0
  6
CONTINUOUS
 62
     3
 10
20534.361275999989
 20
14314.360206999971
 30
0.0
 11
20559.354677999989
 21
14314.360206999971
 31
0.0
  0
LINE
  5
7848
  8
2-0
  6
CONTINUOUS
 62
     3
 10
20559.354677999989
 20
14314.360206999971
 30
0.0
 11
20559.354677999989
 21
14332.35897999999
 31
0.0
  0
LINE
  5
7849
  8
2-0
  6
CONTINUOUS
 62
     3
 10
20559.354677999989
 20
14332.35897999999
 30
0.0
 11
20529.357052999989
 21
14332.35897999999
 31
0.0
  0
LINE
  5
784A
  8
2-0
  6
CONTINUOUS
 62
     3
 10
20529.357052999989
 20
15036.421552
 30
0.0
 11
20529.357052999989
 21
15680.460409999991
 31
0.0
  0
LINE
  5
784B
  8
2-0
  6
CONTINUOUS
 62
     3
 10
20529.357052999989
 20
18655.416108999991
 30
0.0
 11
20529.357052999989
 21
19299.22682649998
 31
0.0
  0
LINE
  5
784C
  8
2-0
  6
CONTINUOUS
 62
     3
 10
20529.357052999989
 20
16381.220393499991
 30
0.0
 11
20529.357052999989
 21
15737.656619999991
 31
0.0
  0
LINE
  5
784D
  8
2-0
  6
CONTINUOUS
 62
     3
 10
25749.351641999991
 20
20013.323085000018
 30
0.0
 11
25749.351641999991
 21
20128.319258
 31
0.0
  0
LINE
  5
784E
  8
2-0
  6
CENTER2
 62
     6
 10
19242.398781
 20
20085.820973000002
 30
0.0
 11
26599.352962000001
 21
20085.820973000002
 31
0.0
  0
LINE
  5
784F
  8
2-0
  6
CENTER2
 62
     6
 10
19242.398781
 20
17167.820972999991
 30
0.0
 11
26599.352962000001
 21
17167.820972999991
 31
0.0
  0
LINE
  5
7850
  8
2-0
  6
CENTER2
 62
     6
 10
19242.398781
 20
14249.820972999991
 30
0.0
 11
26599.352962000001
 21
14249.820972999991
 31
0.0
  0
LINE
  5
7851
  8
2-0
  6
CONTINUOUS
 62
     3
 10
20994.945036000001
 20
20116.319415999998
 30
0.0
 11
20994.945036000001
 21
20123.32493200001
 31
0.0
  0
LINE
  5
7852
  8
2-0
  6
CONTINUOUS
 62
     3
 10
20994.945036000001
 20
20123.32493200001
 30
0.0
 11
20989.944771999999
 21
20123.32493200001
 31
0.0
  0
LINE
  5
7853
  8
2-0
  6
CONTINUOUS
 62
     3
 10
20989.944771999999
 20
20123.32493200001
 30
0.0
 11
20989.944771999999
 21
20098.315695000001
 31
0.0
  0
LINE
  5
7854
  8
2-0
  6
CONTINUOUS
 62
     3
 10
20989.944771999999
 20
20098.315695000001
 30
0.0
 11
21007.94651400001
 21
20098.315695000001
 31
0.0
  0
LINE
  5
7855
  8
2-0
  6
CONTINUOUS
 62
     3
 10
21007.94651400001
 20
20098.315695000001
 30
0.0
 11
21007.94651400001
 21
20128.319258
 31
0.0
  0
LINE
  5
7856
  8
2-0
  6
CONTINUOUS
 62
     3
 10
20991.84708900001
 20
20098.315695000001
 30
0.0
 11
20997.85096900001
 21
20098.315695000001
 31
0.0
  0
LINE
  5
7857
  8
2-0
  6
CONTINUOUS
 62
     3
 10
20997.85096900001
 20
20098.315695000001
 30
0.0
 11
20997.85096900001
 21
20128.319258
 31
0.0
  0
LINE
  5
7858
  8
2-0
  6
CONTINUOUS
 62
     3
 10
20960.855747000001
 20
20128.319258
 30
0.0
 11
20997.85096900001
 21
20128.319258
 31
0.0
  0
LINE
  5
7859
  8
2-0
  6
CONTINUOUS
 62
     3
 10
20960.855747000001
 20
20098.315695000001
 30
0.0
 11
20960.855747000001
 21
20128.319258
 31
0.0
  0
LINE
  5
785A
  8
2-0
  6
CONTINUOUS
 62
     3
 10
20966.849729000001
 20
20098.315695000001
 30
0.0
 11
20960.855747000001
 21
20098.315695000001
 31
0.0
  0
LINE
  5
785B
  8
2-0
  6
CONTINUOUS
 62
     3
 10
20950.760202000001
 20
20098.315695000001
 30
0.0
 11
20950.760202000001
 21
20128.319258
 31
0.0
  0
LINE
  5
785C
  8
2-0
  6
CONTINUOUS
 62
     3
 10
20968.75600500001
 20
20098.315695000001
 30
0.0
 11
20950.760202000001
 21
20098.315695000001
 31
0.0
  0
LINE
  5
785D
  8
2-0
  6
CONTINUOUS
 62
     3
 10
20968.75600500001
 20
20123.32493200001
 30
0.0
 11
20968.75600500001
 21
20098.315695000001
 31
0.0
  0
LINE
  5
785E
  8
2-0
  6
CONTINUOUS
 62
     3
 10
20963.75772100002
 20
20123.32493200001
 30
0.0
 11
20968.75600500001
 21
20123.32493200001
 31
0.0
  0
LINE
  5
785F
  8
2-0
  6
CONTINUOUS
 62
     3
 10
20963.75772100002
 20
20116.319415999998
 30
0.0
 11
20963.75772100002
 21
20123.32493200001
 31
0.0
  0
LINE
  5
7860
  8
2-0
  6
CONTINUOUS
 62
     3
 10
20654.658599999992
 20
20128.319258
 30
0.0
 11
20950.760202000001
 21
20128.319258
 31
0.0
  0
LINE
  5
7861
  8
2-0
  6
CONTINUOUS
 62
     3
 10
20529.357052999989
 20
20043.322689000001
 30
0.0
 11
25668.349741999991
 21
20043.322689000001
 31
0.0
  0
LINE
  5
7862
  8
2-0
  6
CONTINUOUS
 62
     3
 10
20529.357052999989
 20
14332.35897999999
 30
0.0
 11
20529.357052999989
 21
14979.225341999991
 31
0.0
  0
LINE
  5
7863
  8
2-0
  6
CENTER2
 62
     6
 10
20571.853358
 20
21328.31925800001
 30
0.0
 11
20571.853358
 21
13624.05753899999
 31
0.0
  0
LINE
  5
7864
  8
2-0
  6
CENTER2
 62
     6
 10
25706.853358000011
 20
21328.31925800001
 30
0.0
 11
25706.853358000011
 21
13624.05753899999
 31
0.0
  0
LINE
  5
7865
  8
2-0
  6
CONTINUOUS
 62
     3
 10
25749.351641999991
 20
20003.025628999989
 30
0.0
 11
25749.351641999991
 21
19356.41709849998
 31
0.0
  0
LINE
  5
7866
  8
2-0
  6
CONTINUOUS
 62
     3
 10
20529.357052999989
 20
20003.025628999989
 30
0.0
 11
20529.357052999989
 21
19356.41709849998
 31
0.0
  0
LINE
  5
7867
  8
2-0
  6
CENTER2
 62
     6
 10
23840.353358000011
 20
21328.31925800001
 30
0.0
 11
23840.353358000011
 21
14058.416371999991
 31
0.0
  0
LINE
  5
7868
  8
2-0
  6
CONTINUOUS
 62
     3
 10
20610.354994000001
 20
14292.31925699999
 30
0.0
 11
20610.354994000001
 21
20128.319258
 31
0.0
  0
LINE
  5
7869
  8
2-0
  6
CONTINUOUS
 62
     3
 10
25668.349741999991
 20
14292.31925699999
 30
0.0
 11
25668.349741999991
 21
20128.319258
 31
0.0
  0
CIRCLE
  5
786A
  8
2-0
  6
CONTINUOUS
 62
     4
 10
19042.401091
 20
20085.820973000002
 30
0.0
 40
200.00001
  0
CIRCLE
  5
786B
  8
2-0
  6
CONTINUOUS
 62
     4
 10
19042.401091
 20
17167.820972999991
 30
0.0
 40
200.00001
  0
CIRCLE
  5
786C
  8
2-0
  6
CONTINUOUS
 62
     4
 10
19042.401091
 20
14249.820972999991
 30
0.0
 40
200.00001
  0
CIRCLE
  5
786D
  8
2-0
  6
CONTINUOUS
 62
     4
 10
23840.353358000011
 20
21528.32387700001
 30
0.0
 40
200.00001
  0
CIRCLE
  5
786E
  8
2-0
  6
CONTINUOUS
 62
     4
 10
20571.853358
 20
21528.32387700001
 30
0.0
 40
200.00001
  0
TEXT
  5
786F
  8
2-0
  6
CONTINUOUS
 62
     7
 10
24103.698664999982
 20
13689.82209500004
 30
0.0
 40
160.0
  1
前柱（右）
 50
0.0002129999927769
 72
     4
 11
24519.69836759301
 21
13769.82364150078
 31
0.0
  0
TEXT
  5
7870
  8
2-0
  6
CONTINUOUS
 62
     7
 10
24308.293787999992
 20
16618.314111000062
 30
0.0
 40
160.0
  1
壁パネル
 50
359.9998229999926
 72
     4
 11
24670.96070180356
 21
16698.312990637882
 31
0.0
  0
TEXT
  5
7871
  8
2-0
  6
CONTINUOUS
 62
     7
 10
24028.290883999998
 20
17455.502006999981
 30
0.0
 40
160.0
  1
中柱（左右）
 50
0.0003540000017592
 72
     4
 11
24545.62372304621
 21
17535.50520332465
 31
0.0
  0
TEXT
  5
7872
  8
2-0
  6
CONTINUOUS
 62
     7
 10
24708.293127999979
 20
14662.863360999991
 30
0.0
 40
160.0
  1
下枠
 50
0.0010630000002211
 72
     4
 11
24878.958310409282
 21
14742.86652733928
 31
0.0
  0
TEXT
  5
7873
  8
2-0
  6
CONTINUOUS
 62
     7
 10
24203.258551999999
 20
19058.770745499991
 30
0.0
 40
160.0
  1
間柱（側）
 72
     4
 11
24624.591885333331
 21
19138.770745499991
 31
0.0
  0
TEXT
  5
7874
  8
2-0
  6
CONTINUOUS
 62
     7
 10
26521.848870999998
 20
20938.31846599999
 30
0.0
 40
160.0
  1
後柱（左右）
 50
0.0003540000017592
 72
     4
 11
27033.84837671298
 21
21018.32162937284
 31
0.0
  0
TEXT
  5
7875
  8
2-0
  6
CONTINUOUS
 62
     7
 10
22609.264596000012
 20
14827.659272999959
 30
0.0
 40
160.0
  1
前柱（中）
 72
     4
 11
23025.264596000012
 21
14907.659272999959
 31
0.0
  0
TEXT
  5
7876
  8
2-0
  6
CONTINUOUS
 62
     7
 10
22676.222234000012
 20
19491.201304999999
 30
0.0
 40
160.0
  1
間柱（後）
 72
     4
 11
23097.55556733334
 21
19571.201304999999
 31
0.0
  0
TEXT
  5
7877
  8
2-0
  6
CONTINUOUS
 62
     7
 10
24110.646723000002
 20
19559.946026000009
 30
0.0
 40
160.0
  1
後柱（中）
 72
     4
 11
24526.646723000002
 21
19639.946026000009
 31
0.0
  0
TEXT
  5
7878
  8
2-0
  6
CONTINUOUS
 62
     7
 10
18994.401723999981
 20
19991.340531000009
 30
0.0
 40
160.0
  1
C
 72
     4
 11
19047.73505733331
 21
20071.340531000009
 31
0.0
  0
TEXT
  5
7879
  8
2-0
  6
CONTINUOUS
 62
     7
 10
18994.622439999981
 20
17097.42689100001
 30
0.0
 40
160.0
  1
B
 72
     4
 11
19047.95577333332
 21
17177.42689100001
 31
0.0
  0
TEXT
  5
787A
  8
2-0
  6
CONTINUOUS
 62
     7
 10
18994.66499999999
 20
14161.21376199999
 30
0.0
 40
160.0
  1
A
 72
     4
 11
19047.998333333329
 21
14241.21376199999
 31
0.0
  0
TEXT
  5
787B
  8
2-0
  6
CONTINUOUS
 62
     7
 10
23788.721575
 20
21432.798247999999
 30
0.0
 40
160.0
  1
2
 72
     4
 11
23842.054908333332
 21
21512.798247999999
 31
0.0
  0
TEXT
  5
787C
  8
2-0
  6
CONTINUOUS
 62
     7
 10
20527.646748999989
 20
21439.55632500002
 30
0.0
 40
160.0
  1
1
 72
     4
 11
20554.31341566666
 21
21519.55632500002
 31
0.0
  0
LINE
  5
787D
  8
2-0
  6
CONTINUOUS
 62
     3
 10
24967.353938999979
 20
20128.319258
 30
0.0
 11
24930.352777000011
 21
20128.319258
 31
0.0
  0
LINE
  5
787E
  8
2-0
  6
CONTINUOUS
 62
     3
 10
24967.353938999979
 20
20098.315695000001
 30
0.0
 11
24967.353938999979
 21
20128.319258
 31
0.0
  0
LINE
  5
787F
  8
2-0
  6
CONTINUOUS
 62
     3
 10
24961.354017999969
 20
20098.315695000001
 30
0.0
 11
24967.353938999979
 21
20098.315695000001
 31
0.0
  0
LINE
  5
7880
  8
2-0
  6
CONTINUOUS
 62
     3
 10
24977.451463000009
 20
20098.315695000001
 30
0.0
 11
24977.451463000009
 21
20128.319258
 31
0.0
  0
LINE
  5
7881
  8
2-0
  6
CONTINUOUS
 62
     3
 10
24959.447742000011
 20
20098.315695000001
 30
0.0
 11
24977.451463000009
 21
20098.315695000001
 31
0.0
  0
LINE
  5
7882
  8
2-0
  6
CONTINUOUS
 62
     3
 10
24959.447742000011
 20
20123.32493200001
 30
0.0
 11
24959.447742000011
 21
20098.315695000001
 31
0.0
  0
LINE
  5
7883
  8
2-0
  6
CONTINUOUS
 62
     3
 10
24964.44800600001
 20
20123.32493200001
 30
0.0
 11
24959.447742000011
 21
20123.32493200001
 31
0.0
  0
LINE
  5
7884
  8
2-0
  6
CONTINUOUS
 62
     3
 10
24964.44800600001
 20
20116.319415999998
 30
0.0
 11
24964.44800600001
 21
20123.32493200001
 31
0.0
  0
LINE
  5
7885
  8
2-0
  6
CONTINUOUS
 62
     3
 10
24933.258710999991
 20
20116.319415999998
 30
0.0
 11
24933.258710999991
 21
20123.32493200001
 31
0.0
  0
LINE
  5
7886
  8
2-0
  6
CONTINUOUS
 62
     3
 10
24933.258710999991
 20
20123.32493200001
 30
0.0
 11
24938.258975000012
 21
20123.32493200001
 31
0.0
  0
LINE
  5
7887
  8
2-0
  6
CONTINUOUS
 62
     3
 10
24938.258975000012
 20
20123.32493200001
 30
0.0
 11
24938.258975000012
 21
20098.315695000001
 31
0.0
  0
LINE
  5
7888
  8
2-0
  6
CONTINUOUS
 62
     3
 10
24938.258975000012
 20
20098.315695000001
 30
0.0
 11
24920.259212000012
 21
20098.315695000001
 31
0.0
  0
LINE
  5
7889
  8
2-0
  6
CONTINUOUS
 62
     3
 10
24920.259212000012
 20
20098.315695000001
 30
0.0
 11
24920.259212000012
 21
20128.319258
 31
0.0
  0
LINE
  5
788A
  8
2-0
  6
CONTINUOUS
 62
     3
 10
24936.352697999992
 20
20098.315695000001
 30
0.0
 11
24930.352777000011
 21
20098.315695000001
 31
0.0
  0
LINE
  5
788B
  8
2-0
  6
CONTINUOUS
 62
     3
 10
24930.352777000011
 20
20098.315695000001
 30
0.0
 11
24930.352777000011
 21
20128.319258
 31
0.0
  0
LINE
  5
788C
  8
2-0
  6
CONTINUOUS
 62
     3
 10
24964.443056500011
 20
20116.319415999998
 30
0.0
 11
24964.443056500011
 21
20123.32493200001
 31
0.0
  0
LINE
  5
788D
  8
2-0
  6
CONTINUOUS
 62
     3
 10
24964.443056500011
 20
20123.32493200001
 30
0.0
 11
24959.442792500009
 21
20123.32493200001
 31
0.0
  0
LINE
  5
788E
  8
2-0
  6
CONTINUOUS
 62
     3
 10
24959.442792500009
 20
20123.32493200001
 30
0.0
 11
24959.442792500009
 21
20098.315695000001
 31
0.0
  0
LINE
  5
788F
  8
2-0
  6
CONTINUOUS
 62
     3
 10
24959.442792500009
 20
20098.315695000001
 30
0.0
 11
24977.448493500011
 21
20098.315695000001
 31
0.0
  0
LINE
  5
7890
  8
2-0
  6
CONTINUOUS
 62
     3
 10
24977.448493500011
 20
20098.315695000001
 30
0.0
 11
24977.448493500011
 21
20128.319258
 31
0.0
  0
LINE
  5
7891
  8
2-0
  6
CONTINUOUS
 62
     3
 10
24961.351048500001
 20
20098.315695000001
 30
0.0
 11
24967.352948500011
 21
20098.315695000001
 31
0.0
  0
LINE
  5
7892
  8
2-0
  6
CONTINUOUS
 62
     3
 10
24967.352948500011
 20
20098.315695000001
 30
0.0
 11
24967.352948500011
 21
20128.319258
 31
0.0
  0
LINE
  5
7893
  8
2-0
  6
CONTINUOUS
 62
     3
 10
24930.35376749999
 20
20128.319258
 30
0.0
 11
24967.352948500011
 21
20128.319258
 31
0.0
  0
LINE
  5
7894
  8
2-0
  6
CONTINUOUS
 62
     3
 10
24930.35376749999
 20
20098.315695000001
 30
0.0
 11
24930.35376749999
 21
20128.319258
 31
0.0
  0
LINE
  5
7895
  8
2-0
  6
CONTINUOUS
 62
     3
 10
24936.347749500001
 20
20098.315695000001
 30
0.0
 11
24930.35376749999
 21
20098.315695000001
 31
0.0
  0
LINE
  5
7896
  8
2-0
  6
CONTINUOUS
 62
     3
 10
24920.258222500011
 20
20098.315695000001
 30
0.0
 11
24920.258222500011
 21
20128.319258
 31
0.0
  0
LINE
  5
7897
  8
2-0
  6
CONTINUOUS
 62
     3
 10
24938.254025500009
 20
20098.315695000001
 30
0.0
 11
24920.258222500011
 21
20098.315695000001
 31
0.0
  0
LINE
  5
7898
  8
2-0
  6
CONTINUOUS
 62
     3
 10
24938.254025500009
 20
20123.32493200001
 30
0.0
 11
24938.254025500009
 21
20098.315695000001
 31
0.0
  0
LINE
  5
7899
  8
2-0
  6
CONTINUOUS
 62
     3
 10
24933.2537615
 20
20123.32493200001
 30
0.0
 11
24938.254025500009
 21
20123.32493200001
 31
0.0
  0
LINE
  5
789A
  8
2-0
  6
CONTINUOUS
 62
     3
 10
24933.2537615
 20
20116.319415999998
 30
0.0
 11
24933.2537615
 21
20123.32493200001
 31
0.0
  0
LINE
  5
789B
  8
2-0
  6
CONTINUOUS
 62
     3
 10
24276.652384000012
 20
20128.319258
 30
0.0
 11
24920.258222500011
 21
20128.319258
 31
0.0
  0
LINE
  5
789C
  8
2-0
  6
CONTINUOUS
 62
     3
 10
25624.736988000011
 20
20128.319258
 30
0.0
 11
24977.451463000009
 21
20128.319258
 31
0.0
  0
LINE
  5
789D
  8
2-0
  6
CONTINUOUS
 62
     3
 10
24263.445036000008
 20
20116.319415999998
 30
0.0
 11
24263.445036000008
 21
20123.32493200001
 31
0.0
  0
LINE
  5
789E
  8
2-0
  6
CONTINUOUS
 62
     3
 10
24263.445036000008
 20
20123.32493200001
 30
0.0
 11
24258.444771999999
 21
20123.32493200001
 31
0.0
  0
LINE
  5
789F
  8
2-0
  6
CONTINUOUS
 62
     3
 10
24258.444771999999
 20
20123.32493200001
 30
0.0
 11
24258.444771999999
 21
20098.315695000001
 31
0.0
  0
LINE
  5
78A0
  8
2-0
  6
CONTINUOUS
 62
     3
 10
24258.444771999999
 20
20098.315695000001
 30
0.0
 11
24276.446513999999
 21
20098.315695000001
 31
0.0
  0
LINE
  5
78A1
  8
2-0
  6
CONTINUOUS
 62
     3
 10
24276.446513999999
 20
20098.315695000001
 30
0.0
 11
24276.446513999999
 21
20128.319258
 31
0.0
  0
LINE
  5
78A2
  8
2-0
  6
CONTINUOUS
 62
     3
 10
24260.347089000021
 20
20098.315695000001
 30
0.0
 11
24266.35096900001
 21
20098.315695000001
 31
0.0
  0
LINE
  5
78A3
  8
2-0
  6
CONTINUOUS
 62
     3
 10
24266.35096900001
 20
20098.315695000001
 30
0.0
 11
24266.35096900001
 21
20128.319258
 31
0.0
  0
LINE
  5
78A4
  8
2-0
  6
CONTINUOUS
 62
     3
 10
24229.35574699998
 20
20128.319258
 30
0.0
 11
24266.35096900001
 21
20128.319258
 31
0.0
  0
LINE
  5
78A5
  8
2-0
  6
CONTINUOUS
 62
     3
 10
24229.35574699998
 20
20098.315695000001
 30
0.0
 11
24229.35574699998
 21
20128.319258
 31
0.0
  0
LINE
  5
78A6
  8
2-0
  6
CONTINUOUS
 62
     3
 10
24235.349729000009
 20
20098.315695000001
 30
0.0
 11
24229.35574699998
 21
20098.315695000001
 31
0.0
  0
LINE
  5
78A7
  8
2-0
  6
CONTINUOUS
 62
     3
 10
24219.260202000001
 20
20098.315695000001
 30
0.0
 11
24219.260202000001
 21
20128.319258
 31
0.0
  0
LINE
  5
78A8
  8
2-0
  6
CONTINUOUS
 62
     3
 10
24237.256005000021
 20
20098.315695000001
 30
0.0
 11
24219.260202000001
 21
20098.315695000001
 31
0.0
  0
LINE
  5
78A9
  8
2-0
  6
CONTINUOUS
 62
     3
 10
24237.256005000021
 20
20123.32493200001
 30
0.0
 11
24237.256005000021
 21
20098.315695000001
 31
0.0
  0
LINE
  5
78AA
  8
2-0
  6
CONTINUOUS
 62
     3
 10
24232.25772100002
 20
20123.32493200001
 30
0.0
 11
24237.256005000021
 21
20123.32493200001
 31
0.0
  0
LINE
  5
78AB
  8
2-0
  6
CONTINUOUS
 62
     3
 10
24232.25772100002
 20
20116.319415999998
 30
0.0
 11
24232.25772100002
 21
20123.32493200001
 31
0.0
  0
LINE
  5
78AC
  8
2-0
  6
CONTINUOUS
 62
     3
 10
23923.158599999999
 20
20128.319258
 30
0.0
 11
24219.260202000001
 21
20128.319258
 31
0.0
  0
LINE
  5
78AD
  8
2-0
  6
CONTINUOUS
 62
     3
 10
23758.925861000011
 20
20128.319258
 30
0.0
 11
23110.951463000001
 21
20128.319258
 31
0.0
  0
LINE
  5
78AE
  8
2-0
  6
CONTINUOUS
 62
     3
 10
25749.351641999991
 20
15680.460409999991
 30
0.0
 11
25749.351641999991
 21
15036.421552
 31
0.0
  0
LINE
  5
78AF
  8
2-0
  6
CONTINUOUS
 62
     3
 10
25749.351641999991
 20
14979.225341999991
 30
0.0
 11
25749.351641999991
 21
14332.35897999999
 31
0.0
  0
CIRCLE
  5
78B0
  8
2-0
  6
CONTINUOUS
 62
     4
 10
25706.853358000011
 20
21528.32387700001
 30
0.0
 40
200.00001
  0
TEXT
  5
78B1
  8
2-0
  6
CONTINUOUS
 62
     7
 10
25655.221575000021
 20
21432.798247999999
 30
0.0
 40
160.0
  1
3
 72
     4
 11
25708.55490833335
 21
21512.798247999999
 31
0.0
  0
LINE
  5
78B2
  8
0-5
  6
CONTINUOUS
 62
     4
 10
18349.98033899998
 20
6045.4053269999904
 30
0.0
 11
18469.976775999989
 21
5837.5598349999918
 31
0.0
  0
LINE
  5
78B3
  8
0-5
  6
CONTINUOUS
 62
     4
 10
18469.976775999989
 20
5837.5598349999918
 30
0.0
 11
18589.977171999999
 21
6045.4053269999904
 31
0.0
  0
LINE
  5
78B4
  8
0-5
  6
CONTINUOUS
 62
     4
 10
18589.977171999999
 20
6045.4053269999904
 30
0.0
 11
18349.98033899998
 21
6045.4053269999904
 31
0.0
  0
TEXT
  5
78B5
  8
0-5
  6
CONTINUOUS
 62
     7
 10
18349.98033899998
 20
6125.4060849999887
 30
0.0
 40
160.0
  1
G.L
 72
     4
 11
18509.98033899998
 21
6205.4060849999887
 31
0.0
  0
LINE
  5
78B6
  8
0-1
  6
CONTINUOUS
 62
     3
 10
9896.0947280000128
 20
7848.605217999987
 30
0.0
 11
15777.09413400001
 21
7848.605217999987
 31
0.0
  0
LINE
  5
78B7
  8
0-1
  6
CONTINUOUS
 62
     3
 10
9186.0948590000207
 20
5837.5598349999918
 30
0.0
 11
15809.59393600001
 21
5837.5598349999918
 31
0.0
  0
LINE
  5
78B8
  8
0-1
  6
CONTINUOUS
 62
     3
 10
9991.0947940000187
 20
5987.5598349999882
 30
0.0
 11
12764.09406800002
 21
5987.5598349999882
 31
0.0
  0
LINE
  5
78B9
  8
0-1
  6
CONTINUOUS
 62
     3
 10
9868.5939360000193
 20
5937.5591749999912
 30
0.0
 11
15809.59393600001
 21
5937.5591749999912
 31
0.0
  0
LINE
  5
78BA
  8
0-1
  6
CONTINUOUS
 62
     3
 10
9991.0947940000187
 20
7848.605217999987
 30
0.0
 11
9991.0947940000187
 21
5937.5591749999912
 31
0.0
  0
LINE
  5
78BB
  8
0-1
  6
CONTINUOUS
 62
     3
 10
9876.092682000015
 20
7970.6405589999904
 30
0.0
 11
9876.092682000015
 21
5937.5591749999912
 31
0.0
  0
LINE
  5
78BC
  8
0-1
  6
CONTINUOUS
 62
     3
 10
9896.0947280000128
 20
7971.2581689999952
 30
0.0
 11
9896.0947280000128
 21
5937.5591749999912
 31
0.0
  0
LINE
  5
78BD
  8
0-1
  6
CONTINUOUS
 62
     3
 10
10114.593988000001
 20
5987.5598349999882
 30
0.0
 11
10114.593988000001
 21
7848.605217999987
 31
0.0
  0
LINE
  5
78BE
  8
0-1
  6
CONTINUOUS
 62
     3
 10
10129.59379100001
 20
5987.5598349999882
 30
0.0
 11
10129.59379100001
 21
7848.605217999987
 31
0.0
  0
LINE
  5
78BF
  8
0-1
  6
CONTINUOUS
 62
     3
 10
10530.592788000011
 20
5987.5598349999882
 30
0.0
 11
10530.592788000011
 21
7848.605217999987
 31
0.0
  0
LINE
  5
78C0
  8
0-1
  6
CONTINUOUS
 62
     3
 10
10515.592985999991
 20
5987.5598349999882
 30
0.0
 11
10515.592985999991
 21
7848.605217999987
 31
0.0
  0
LINE
  5
78C1
  8
0-1
  6
CONTINUOUS
 62
     3
 10
10382.59309100001
 20
5987.5598349999882
 30
0.0
 11
10382.59309100001
 21
7848.605217999987
 31
0.0
  0
LINE
  5
78C2
  8
0-1
  6
CONTINUOUS
 62
     3
 10
10262.594675
 20
5987.5598349999882
 30
0.0
 11
10262.594675
 21
7848.605217999987
 31
0.0
  0
LINE
  5
78C3
  8
0-1
  6
CONTINUOUS
 62
     3
 10
10332.59342100002
 20
5987.5598349999882
 30
0.0
 11
10332.59342100002
 21
7848.605217999987
 31
0.0
  0
LINE
  5
78C4
  8
0-1
  6
CONTINUOUS
 62
     3
 10
10312.59335500001
 20
5987.5598349999882
 30
0.0
 11
10312.59335500001
 21
7848.605217999987
 31
0.0
  0
LINE
  5
78C5
  8
0-1
  6
CONTINUOUS
 62
     3
 10
9868.5939360000193
 20
5837.5598349999918
 30
0.0
 11
9868.5939360000193
 21
5937.5591749999912
 31
0.0
  0
LINE
  5
78C6
  8
0-1
  6
CONTINUOUS
 62
     3
 10
15872.105087
 20
8155.1039779999901
 30
0.0
 11
15868.09161300001
 21
8285.04254699999
 31
0.0
  0
LINE
  5
78C7
  8
0-1
  6
CONTINUOUS
 62
     3
 10
12909.09380400002
 20
5987.5598349999882
 30
0.0
 11
15682.09406800002
 21
5987.5598349999882
 31
0.0
  0
LINE
  5
78C8
  8
0-1
  6
CONTINUOUS
 62
     3
 10
12909.09380400002
 20
7848.605217999987
 30
0.0
 11
12909.09380400002
 21
5937.5591749999912
 31
0.0
  0
LINE
  5
78C9
  8
0-1
  6
CONTINUOUS
 62
     3
 10
12764.09406800002
 20
7848.605217999987
 30
0.0
 11
12764.09406800002
 21
5937.5591749999912
 31
0.0
  0
LINE
  5
78CA
  8
0-1
  6
CONTINUOUS
 62
     3
 10
13032.593989000001
 20
5987.5598349999882
 30
0.0
 11
13032.593989000001
 21
7848.605217999987
 31
0.0
  0
LINE
  5
78CB
  8
0-1
  6
CONTINUOUS
 62
     3
 10
13047.59478100002
 20
5987.5598349999882
 30
0.0
 11
13047.59478100002
 21
7848.605217999987
 31
0.0
  0
LINE
  5
78CC
  8
0-1
  6
CONTINUOUS
 62
     3
 10
13180.593685000031
 20
5987.5598349999882
 30
0.0
 11
13180.593685000031
 21
7848.605217999987
 31
0.0
  0
LINE
  5
78CD
  8
0-1
  6
CONTINUOUS
 62
     3
 10
13230.59533500002
 20
5987.5598349999882
 30
0.0
 11
13230.59533500002
 21
7848.605217999987
 31
0.0
  0
LINE
  5
78CE
  8
0-1
  6
CONTINUOUS
 62
     3
 10
13250.59342100001
 20
5987.5598349999882
 30
0.0
 11
13250.59342100001
 21
7848.605217999987
 31
0.0
  0
LINE
  5
78CF
  8
0-1
  6
CONTINUOUS
 62
     3
 10
12422.595441000019
 20
5987.5598349999882
 30
0.0
 11
12422.595441000019
 21
7848.605217999987
 31
0.0
  0
LINE
  5
78D0
  8
0-1
  6
CONTINUOUS
 62
     3
 10
12442.59451700002
 20
5987.5598349999882
 30
0.0
 11
12442.59451700002
 21
7848.605217999987
 31
0.0
  0
LINE
  5
78D1
  8
0-1
  6
CONTINUOUS
 62
     3
 10
12492.59517700001
 20
5987.5598349999882
 30
0.0
 11
12492.59517700001
 21
7848.605217999987
 31
0.0
  0
LINE
  5
78D2
  8
0-1
  6
CONTINUOUS
 62
     3
 10
12625.595071000011
 20
5987.5598349999882
 30
0.0
 11
12625.595071000011
 21
7848.605217999987
 31
0.0
  0
LINE
  5
78D3
  8
0-1
  6
CONTINUOUS
 62
     3
 10
12640.59388300001
 20
5987.5598349999882
 30
0.0
 11
12640.59388300001
 21
7848.605217999987
 31
0.0
  0
LINE
  5
78D4
  8
0-1
  6
CONTINUOUS
 62
     3
 10
12372.59478100002
 20
5987.5598349999882
 30
0.0
 11
12372.59478100002
 21
7848.605217999987
 31
0.0
  0
LINE
  5
78D5
  8
0-1
  6
CONTINUOUS
 62
     3
 10
12239.594886000021
 20
5987.5598349999882
 30
0.0
 11
12239.594886000021
 21
7848.605217999987
 31
0.0
  0
LINE
  5
78D6
  8
0-1
  6
CONTINUOUS
 62
     3
 10
12224.594094
 20
5987.5598349999882
 30
0.0
 11
12224.594094
 21
7848.605217999987
 31
0.0
  0
LINE
  5
78D7
  8
0-1
  6
CONTINUOUS
 62
     3
 10
11022.59379100001
 20
5987.5598349999882
 30
0.0
 11
11022.59379100001
 21
7848.605217999987
 31
0.0
  0
LINE
  5
78D8
  8
0-1
  6
CONTINUOUS
 62
     3
 10
11042.59583600001
 20
5987.5598349999882
 30
0.0
 11
11042.59583600001
 21
7848.605217999987
 31
0.0
  0
LINE
  5
78D9
  8
0-1
  6
CONTINUOUS
 62
     3
 10
10972.59412100002
 20
5987.5598349999882
 30
0.0
 11
10972.59412100002
 21
7848.605217999987
 31
0.0
  0
LINE
  5
78DA
  8
0-1
  6
CONTINUOUS
 62
     3
 10
11092.59352700001
 20
5987.5598349999882
 30
0.0
 11
11092.59352700001
 21
7848.605217999987
 31
0.0
  0
LINE
  5
78DB
  8
0-1
  6
CONTINUOUS
 62
     3
 10
11225.59441100002
 20
5987.5598349999882
 30
0.0
 11
11225.59441100002
 21
7848.605217999987
 31
0.0
  0
LINE
  5
78DC
  8
0-1
  6
CONTINUOUS
 62
     3
 10
11240.59520300003
 20
5987.5598349999882
 30
0.0
 11
11240.59520300003
 21
7848.605217999987
 31
0.0
  0
LINE
  5
78DD
  8
0-1
  6
CONTINUOUS
 62
     3
 10
10839.59323700001
 20
5987.5598349999882
 30
0.0
 11
10839.59323700001
 21
7848.605217999987
 31
0.0
  0
LINE
  5
78DE
  8
0-1
  6
CONTINUOUS
 62
     3
 10
10824.594424000021
 20
5987.5598349999882
 30
0.0
 11
10824.594424000021
 21
7848.605217999987
 31
0.0
  0
LINE
  5
78DF
  8
0-1
  6
CONTINUOUS
 62
     3
 10
11524.593765000031
 20
5987.5598349999882
 30
0.0
 11
11524.593765000031
 21
7848.605217999987
 31
0.0
  0
LINE
  5
78E0
  8
0-1
  6
CONTINUOUS
 62
     3
 10
11539.592577000019
 20
5987.5598349999882
 30
0.0
 11
11539.592577000019
 21
7848.605217999987
 31
0.0
  0
LINE
  5
78E1
  8
0-1
  6
CONTINUOUS
 62
     3
 10
11940.59454300001
 20
5987.5598349999882
 30
0.0
 11
11940.59454300001
 21
7848.605217999987
 31
0.0
  0
LINE
  5
78E2
  8
0-1
  6
CONTINUOUS
 62
     3
 10
11925.593751
 20
5987.5598349999882
 30
0.0
 11
11925.593751
 21
7848.605217999987
 31
0.0
  0
LINE
  5
78E3
  8
0-1
  6
CONTINUOUS
 62
     3
 10
11792.59286700001
 20
5987.5598349999882
 30
0.0
 11
11792.59286700001
 21
7848.605217999987
 31
0.0
  0
LINE
  5
78E4
  8
0-1
  6
CONTINUOUS
 62
     3
 10
11672.59544100001
 20
5987.5598349999882
 30
0.0
 11
11672.59544100001
 21
7848.605217999987
 31
0.0
  0
LINE
  5
78E5
  8
0-1
  6
CONTINUOUS
 62
     3
 10
11742.59517700001
 20
5987.5598349999882
 30
0.0
 11
11742.59517700001
 21
7848.605217999987
 31
0.0
  0
LINE
  5
78E6
  8
0-1
  6
CONTINUOUS
 62
     3
 10
11722.595111000021
 20
5987.5598349999882
 30
0.0
 11
11722.595111000021
 21
7848.605217999987
 31
0.0
  0
LINE
  5
78E7
  8
0-1
  6
CONTINUOUS
 62
     3
 10
12064.09472800002
 20
7848.605217999987
 30
0.0
 11
12064.09472800002
 21
5987.5598349999882
 31
0.0
  0
LINE
  5
78E8
  8
0-1
  6
CONTINUOUS
 62
     3
 10
12101.09391000002
 20
7848.605217999987
 30
0.0
 11
12101.09391000002
 21
5987.5598349999882
 31
0.0
  0
LINE
  5
78E9
  8
0-1
  6
CONTINUOUS
 62
     3
 10
10654.092971999989
 20
7848.605217999987
 30
0.0
 11
10654.092971999989
 21
5987.5598349999882
 31
0.0
  0
LINE
  5
78EA
  8
0-1
  6
CONTINUOUS
 62
     3
 10
10691.093144
 20
7848.605217999987
 30
0.0
 11
10691.093144
 21
5987.5598349999882
 31
0.0
  0
LINE
  5
78EB
  8
0-1
  6
CONTINUOUS
 62
     3
 10
11364.095388000031
 20
7848.605217999987
 30
0.0
 11
11364.095388000031
 21
5987.5598349999882
 31
0.0
  0
LINE
  5
78EC
  8
0-1
  6
CONTINUOUS
 62
     3
 10
11401.094570000019
 20
7848.605217999987
 30
0.0
 11
11401.094570000019
 21
5987.5598349999882
 31
0.0
  0
LINE
  5
78ED
  8
0-1
  6
CONTINUOUS
 62
     3
 10
12836.542469
 20
8061.7132599999868
 30
0.0
 11
12832.529984000001
 21
8191.6518289999867
 31
0.0
  0
LINE
  5
78EE
  8
0-1
  6
CONTINUOUS
 62
     3
 10
12836.593936000019
 20
8061.7152399999904
 30
0.0
 11
12836.593936000019
 21
7848.605217999987
 31
0.0
  0
LINE
  5
78EF
  8
0-1
  6
CONTINUOUS
 62
     3
 10
15682.09406800002
 20
7848.605217999987
 30
0.0
 11
15682.09406800002
 21
5937.5591749999912
 31
0.0
  0
LINE
  5
78F0
  8
0-1
  6
CONTINUOUS
 62
     3
 10
15797.095189000011
 20
8152.7889309999891
 30
0.0
 11
15797.095189000011
 21
5937.5591749999912
 31
0.0
  0
LINE
  5
78F1
  8
0-1
  6
CONTINUOUS
 62
     3
 10
15777.09413400001
 20
8152.1713209999898
 30
0.0
 11
15777.09413400001
 21
5937.5591749999912
 31
0.0
  0
LINE
  5
78F2
  8
0-1
  6
CONTINUOUS
 62
     3
 10
14272.09528200002
 20
7848.605217999987
 30
0.0
 11
14272.09528200002
 21
5987.5598349999882
 31
0.0
  0
LINE
  5
78F3
  8
0-1
  6
CONTINUOUS
 62
     3
 10
14309.095454
 20
7848.605217999987
 30
0.0
 11
14309.095454
 21
5987.5598349999882
 31
0.0
  0
LINE
  5
78F4
  8
0-1
  6
CONTINUOUS
 62
     3
 10
14972.09462200001
 20
7848.605217999987
 30
0.0
 11
14972.09462200001
 21
5987.5598349999882
 31
0.0
  0
LINE
  5
78F5
  8
0-1
  6
CONTINUOUS
 62
     3
 10
15009.09380400002
 20
7848.605217999987
 30
0.0
 11
15009.09380400002
 21
5987.5598349999882
 31
0.0
  0
LINE
  5
78F6
  8
0-1
  6
CONTINUOUS
 62
     3
 10
13572.092973000021
 20
7848.605217999987
 30
0.0
 11
13572.092973000021
 21
5987.5598349999882
 31
0.0
  0
LINE
  5
78F7
  8
0-1
  6
CONTINUOUS
 62
     3
 10
13609.09413400003
 20
7848.605217999987
 30
0.0
 11
13609.09413400003
 21
5987.5598349999882
 31
0.0
  0
LINE
  5
78F8
  8
0-1
  6
CONTINUOUS
 62
     3
 10
13950.59276200002
 20
5987.5598349999882
 30
0.0
 11
13950.59276200002
 21
7848.605217999987
 31
0.0
  0
LINE
  5
78F9
  8
0-1
  6
CONTINUOUS
 62
     3
 10
13930.593685000031
 20
5987.5598349999882
 30
0.0
 11
13930.593685000031
 21
7848.605217999987
 31
0.0
  0
LINE
  5
78FA
  8
0-1
  6
CONTINUOUS
 62
     3
 10
14000.59441100002
 20
5987.5598349999882
 30
0.0
 11
14000.59441100002
 21
7848.605217999987
 31
0.0
  0
LINE
  5
78FB
  8
0-1
  6
CONTINUOUS
 62
     3
 10
13880.595005000019
 20
5987.5598349999882
 30
0.0
 11
13880.595005000019
 21
7848.605217999987
 31
0.0
  0
LINE
  5
78FC
  8
0-1
  6
CONTINUOUS
 62
     3
 10
13747.59412100002
 20
5987.5598349999882
 30
0.0
 11
13747.59412100002
 21
7848.605217999987
 31
0.0
  0
LINE
  5
78FD
  8
0-1
  6
CONTINUOUS
 62
     3
 10
13732.594319000011
 20
5987.5598349999882
 30
0.0
 11
13732.594319000011
 21
7848.605217999987
 31
0.0
  0
LINE
  5
78FE
  8
0-1
  6
CONTINUOUS
 62
     3
 10
14133.59529500001
 20
5987.5598349999882
 30
0.0
 11
14133.59529500001
 21
7848.605217999987
 31
0.0
  0
LINE
  5
78FF
  8
0-1
  6
CONTINUOUS
 62
     3
 10
14148.59509700001
 20
5987.5598349999882
 30
0.0
 11
14148.59509700001
 21
7848.605217999987
 31
0.0
  0
LINE
  5
7900
  8
0-1
  6
CONTINUOUS
 62
     3
 10
14848.594438
 20
5987.5598349999882
 30
0.0
 11
14848.594438
 21
7848.605217999987
 31
0.0
  0
LINE
  5
7901
  8
0-1
  6
CONTINUOUS
 62
     3
 10
14833.59364600001
 20
5987.5598349999882
 30
0.0
 11
14833.59364600001
 21
7848.605217999987
 31
0.0
  0
LINE
  5
7902
  8
0-1
  6
CONTINUOUS
 62
     3
 10
14432.59365900002
 20
5987.5598349999882
 30
0.0
 11
14432.59365900002
 21
7848.605217999987
 31
0.0
  0
LINE
  5
7903
  8
0-1
  6
CONTINUOUS
 62
     3
 10
14447.59544100001
 20
5987.5598349999882
 30
0.0
 11
14447.59544100001
 21
7848.605217999987
 31
0.0
  0
LINE
  5
7904
  8
0-1
  6
CONTINUOUS
 62
     3
 10
14580.595335000011
 20
5987.5598349999882
 30
0.0
 11
14580.595335000011
 21
7848.605217999987
 31
0.0
  0
LINE
  5
7905
  8
0-1
  6
CONTINUOUS
 62
     3
 10
14700.59276200002
 20
5987.5598349999882
 30
0.0
 11
14700.59276200002
 21
7848.605217999987
 31
0.0
  0
LINE
  5
7906
  8
0-1
  6
CONTINUOUS
 62
     3
 10
14630.59302600001
 20
5987.5598349999882
 30
0.0
 11
14630.59302600001
 21
7848.605217999987
 31
0.0
  0
LINE
  5
7907
  8
0-1
  6
CONTINUOUS
 62
     3
 10
14650.59507100002
 20
5987.5598349999882
 30
0.0
 11
14650.59507100002
 21
7848.605217999987
 31
0.0
  0
LINE
  5
7908
  8
0-1
  6
CONTINUOUS
 62
     3
 10
15350.59441100002
 20
5987.5598349999882
 30
0.0
 11
15350.59441100002
 21
7848.605217999987
 31
0.0
  0
LINE
  5
7909
  8
0-1
  6
CONTINUOUS
 62
     3
 10
15330.595335000011
 20
5987.5598349999882
 30
0.0
 11
15330.595335000011
 21
7848.605217999987
 31
0.0
  0
LINE
  5
790A
  8
0-1
  6
CONTINUOUS
 62
     3
 10
15400.59507100002
 20
5987.5598349999882
 30
0.0
 11
15400.59507100002
 21
7848.605217999987
 31
0.0
  0
LINE
  5
790B
  8
0-1
  6
CONTINUOUS
 62
     3
 10
15280.59467500002
 20
5987.5598349999882
 30
0.0
 11
15280.59467500002
 21
7848.605217999987
 31
0.0
  0
LINE
  5
790C
  8
0-1
  6
CONTINUOUS
 62
     3
 10
15147.594781000011
 20
5987.5598349999882
 30
0.0
 11
15147.594781000011
 21
7848.605217999987
 31
0.0
  0
LINE
  5
790D
  8
0-1
  6
CONTINUOUS
 62
     3
 10
15132.59299900003
 20
5987.5598349999882
 30
0.0
 11
15132.59299900003
 21
7848.605217999987
 31
0.0
  0
LINE
  5
790E
  8
0-1
  6
CONTINUOUS
 62
     3
 10
15543.59507000001
 20
5987.5598349999882
 30
0.0
 11
15543.59507000001
 21
7848.605217999987
 31
0.0
  0
LINE
  5
790F
  8
0-1
  6
CONTINUOUS
 62
     3
 10
15558.59388300001
 20
5987.5598349999882
 30
0.0
 11
15558.59388300001
 21
7848.605217999987
 31
0.0
  0
LINE
  5
7910
  8
0-1
  6
CONTINUOUS
 62
     3
 10
13448.59278800002
 20
5987.5598349999882
 30
0.0
 11
13448.59278800002
 21
7848.605217999987
 31
0.0
  0
LINE
  5
7911
  8
0-1
  6
CONTINUOUS
 62
     3
 10
13433.59397600002
 20
5987.5598349999882
 30
0.0
 11
13433.59397600002
 21
7848.605217999987
 31
0.0
  0
LINE
  5
7912
  8
0-1
  6
CONTINUOUS
 62
     3
 10
13300.59507100002
 20
5987.5598349999882
 30
0.0
 11
13300.59507100002
 21
7848.605217999987
 31
0.0
  0
LINE
  5
7913
  8
0-1
  6
CONTINUOUS
 62
     3
 10
15809.59393600001
 20
5937.5591749999912
 30
0.0
 11
15809.59393600001
 21
5837.5598349999918
 31
0.0
  0
LINE
  5
7914
  8
0-1
  6
CONTINUOUS
 62
     3
 10
9698.6229030000122
 20
8013.1853619999902
 30
0.0
 11
9697.5757370000156
 21
8047.1707269999861
 31
0.0
  0
LINE
  5
7915
  8
0-1
  6
CONTINUOUS
 62
     3
 10
9700.4816710000196
 20
8050.2607559999906
 30
0.0
 11
15881.47513800002
 21
8240.4340959999863
 31
0.0
  0
LINE
  5
7916
  8
0-1
  6
CONTINUOUS
 62
     3
 10
15882.708378000019
 20
8200.4527689999868
 30
0.0
 11
9701.7149110000173
 21
8010.2794289999911
 31
0.0
  0
LINE
  5
7917
  8
0-1
  6
CONTINUOUS
 62
     3
 10
9700.3282580000159
 20
8055.2590399999863
 30
0.0
 11
15881.320736000011
 21
8245.4313899999906
 31
0.0
  0
LINE
  5
7918
  8
0-1
  6
CONTINUOUS
 62
     3
 10
15882.861791000019
 20
8195.4544849999875
 30
0.0
 11
9701.8673340000078
 21
8005.2821349999922
 31
0.0
  0
LINE
  5
7919
  8
0-1
  6
CONTINUOUS
 62
     3
 10
9698.9614000000147
 20
8002.1911159999909
 30
0.0
 11
9698.9614000000147
 21
8002.256439999991
 31
0.0
  0
LINE
  5
791A
  8
0-1
  6
CONTINUOUS
 62
     3
 10
9698.9614000000147
 20
8002.256439999991
 30
0.0
 11
9699.9511600000114
 21
7970.2070449999937
 31
0.0
  0
LINE
  5
791B
  8
0-1
  6
CONTINUOUS
 62
     3
 10
9705.1028570000217
 20
7965.364152999995
 30
0.0
 11
15905.069020000021
 21
8156.1214499999905
 31
0.0
  0
LINE
  5
791C
  8
0-1
  6
CONTINUOUS
 62
     3
 10
15901.05851500001
 20
8286.06100899999
 30
0.0
 11
9701.0923520000179
 21
8095.3017319999899
 31
0.0
  0
LINE
  5
791D
  8
0-1
  6
CONTINUOUS
 62
     3
 10
9696.2474800000127
 20
8090.1490449999947
 30
0.0
 11
9697.2362500000163
 21
8058.164972999989
 31
0.0
  0
LINE
  5
791E
  8
0-1
  6
CONTINUOUS
 62
     3
 10
9713.5870730000097
 20
8095.6867479999892
 30
0.0
 11
9717.5975780000172
 21
7965.7481789999911
 31
0.0
  0
LINE
  5
791F
  8
2-0
  6
CENTER2
 62
     6
 10
9918.5939360000193
 20
5574.9064219999937
 30
0.0
 11
9918.5939360000193
 21
6632.0490199999931
 31
0.0
  0
LINE
  5
7920
  8
2-0
  6
CENTER2
 62
     6
 10
12836.593936000019
 20
5574.9064219999937
 30
0.0
 11
12836.593936000019
 21
6632.0490199999931
 31
0.0
  0
LINE
  5
7921
  8
2-0
  6
CENTER2
 62
     6
 10
15754.593936000019
 20
5574.9064219999937
 30
0.0
 11
15754.593936000019
 21
6632.0490199999931
 31
0.0
  0
ARC
  5
7922
  8
0-1
  6
CONTINUOUS
 62
     3
 10
9703.2915970000176
 20
8007.8277949999883
 30
0.0
 40
2.5
 50
271.76798999988182
 51
91.767989999881877
  0
ARC
  5
7923
  8
0-1
  6
CONTINUOUS
 62
     3
 10
9701.9039550000161
 20
8052.805426999993
 30
0.0
 40
2.5
 50
271.76798999988182
 51
91.767989999881877
  0
ARC
  5
7924
  8
0-1
  6
CONTINUOUS
 62
     3
 10
9700.5727280000156
 20
8047.2627749999892
 30
0.0
 40
3.0
 50
91.767989999881877
 51
181.7679899999892
  0
ARC
  5
7925
  8
0-1
  6
CONTINUOUS
 62
     3
 10
15882.09175800001
 20
8220.4429369999871
 30
0.0
 40
20.0
 50
271.76798999988182
 51
91.767989999881877
  0
ARC
  5
7926
  8
0-1
  6
CONTINUOUS
 62
     3
 10
9701.6228630000114
 20
8013.2793899999861
 30
0.0
 40
3.0
 50
181.7679899999892
 51
271.76798999988182
  0
ARC
  5
7927
  8
0-1
  6
CONTINUOUS
 62
     3
 10
15882.09175800001
 20
8220.4429369999871
 30
0.0
 40
24.999998999999999
 50
271.76798999988182
 51
91.767989999881877
  0
ARC
  5
7928
  8
0-1
  6
CONTINUOUS
 62
     3
 10
9701.9633400000203
 20
8002.2841539999854
 30
0.0
 40
3.0
 50
91.767989999881877
 51
181.7679899999892
  0
ARC
  5
7929
  8
0-1
  6
CONTINUOUS
 62
     3
 10
9704.9484540000194
 20
7970.3614469999893
 30
0.0
 40
5.0
 50
181.7679899999892
 51
271.76798999988182
  0
ARC
  5
792A
  8
0-1
  6
CONTINUOUS
 62
     3
 10
15877.09446300001
 20
8220.288534999987
 30
0.0
 40
69.999999000000003
 50
293.55477900013238
 51
69.981200999909021
  0
ARC
  5
792B
  8
0-1
  6
CONTINUOUS
 62
     3
 10
9701.2467550000129
 20
8090.3034469999939
 30
0.0
 40
5.0
 50
91.767989999881877
 51
181.7679899999892
  0
ARC
  5
792C
  8
0-1
  6
CONTINUOUS
 62
     3
 10
9700.2332410000163
 20
8058.2570209999922
 30
0.0
 40
3.0
 50
181.7679899999892
 51
271.76798999988182
  0
LINE
  5
792D
  8
0-5
  6
CONTINUOUS
 62
     4
 10
15754.593936000019
 20
4157.5592409999917
 30
0.0
 11
15754.593936000019
 21
3997.5597029999931
 31
0.0
  0
LINE
  5
792E
  8
0-5
  6
CONTINUOUS
 62
     4
 10
12836.593936000019
 20
4157.5592409999917
 30
0.0
 11
12836.593936000019
 21
3997.5597029999931
 31
0.0
  0
LINE
  5
792F
  8
0-5
  6
CONTINUOUS
 62
     4
 10
9918.5939360000193
 20
4157.5592409999917
 30
0.0
 11
9918.5939360000193
 21
3997.5597029999931
 31
0.0
  0
CIRCLE
  5
7930
  8
0-5
  6
CONTINUOUS
 62
     4
 10
12836.593936000019
 20
3797.5585479999941
 30
0.0
 40
199.9999949999999
  0
CIRCLE
  5
7931
  8
0-5
  6
CONTINUOUS
 62
     4
 10
15754.593936000019
 20
3797.5585479999941
 30
0.0
 40
199.9999949999999
  0
CIRCLE
  5
7932
  8
0-5
  6
CONTINUOUS
 62
     4
 10
9918.5939360000193
 20
3797.5585479999941
 30
0.0
 40
199.9999949999999
  0
TEXT
  5
7933
  8
0-5
  6
CONTINUOUS
 62
     7
 10
15707.63777599999
 20
3714.347751999996
 30
0.0
 40
160.0
  1
A
 72
     4
 11
15760.97110933333
 21
3794.3477519999951
 31
0.0
  0
TEXT
  5
7934
  8
0-5
  6
CONTINUOUS
 62
     7
 10
12789.63777599999
 20
3714.347751999996
 30
0.0
 40
160.0
  1
B
 72
     4
 11
12842.97110933333
 21
3794.3477519999951
 31
0.0
  0
TEXT
  5
7935
  8
0-5
  6
CONTINUOUS
 62
     7
 10
9871.6377760000196
 20
3714.347751999996
 30
0.0
 40
160.0
  1
C
 72
     4
 11
9924.9711093333517
 21
3794.3477519999951
 31
0.0
  0
LINE
  5
7936
  8
0-5
  6
CONTINUOUS
 62
     4
 10
17514.67793300001
 20
5937.5591749999903
 30
0.0
 11
17634.678328999991
 21
6145.4061519999877
 31
0.0
  0
LINE
  5
7937
  8
0-5
  6
CONTINUOUS
 62
     4
 10
17394.679516
 20
6145.4061519999877
 30
0.0
 11
17514.67793300001
 21
5937.5591749999903
 31
0.0
  0
LINE
  5
7938
  8
0-5
  6
CONTINUOUS
 62
     4
 10
17634.678328999991
 20
6145.4061519999877
 30
0.0
 11
17394.679516
 21
6145.4061519999877
 31
0.0
  0
LINE
  5
7939
  8
0-5
  6
CONTINUOUS
 62
     4
 10
15889.59123100002
 20
5937.5591749999903
 30
0.0
 11
17607.05612600001
 21
5937.5591749999903
 31
0.0
  0
TEXT
  5
793A
  8
0-5
  6
CONTINUOUS
 62
     7
 10
17055.586004000012
 20
6225.4054259999903
 30
0.0
 40
160.0
  1
布基礎天端
 72
     4
 11
17514.252670666679
 21
6305.4054259999893
 31
0.0
  0
LINE
  5
793B
  8
SUNPOU
  6
CONTINUOUS
 10
9696.092682000015
 20
9085.5598609999906
 30
0.0
 11
9220.8035693597776
 21
9085.5598609999906
 31
0.0
  0
LINE
  5
7946
  8
0-1
  6
CONTINUOUS
 62
     3
 10
25911.851167000001
 20
5937.5596699999869
 30
0.0
 11
25811.851825999998
 21
5937.5596699999869
 31
0.0
  0
LINE
  5
7947
  8
0-1
  6
CONTINUOUS
 62
     3
 10
25811.851825999998
 20
5937.5596699999869
 30
0.0
 11
25811.851825999998
 21
5837.5598349999918
 31
0.0
  0
LINE
  5
7948
  8
0-1
  6
CONTINUOUS
 62
     3
 10
25911.851167000001
 20
5837.5598349999918
 30
0.0
 11
25911.851167000001
 21
5937.5596699999869
 31
0.0
  0
LINE
  5
7949
  8
0-1
  6
CONTINUOUS
 62
     3
 10
25884.351694000001
 20
8286.0600189999932
 30
0.0
 11
25884.351694000001
 21
5937.5596699999869
 31
0.0
  0
LINE
  5
794A
  8
0-1
  6
CONTINUOUS
 62
     3
 10
25904.350771000001
 20
8156.059095999989
 30
0.0
 11
25904.350771000001
 21
5937.5596699999869
 31
0.0
  0
LINE
  5
794B
  8
0-1
  6
CONTINUOUS
 62
     3
 10
25774.351825999991
 20
7845.5597289999869
 30
0.0
 11
25774.351825999991
 21
5837.5598349999918
 31
0.0
  0
LINE
  5
794C
  8
0-1
  6
CONTINUOUS
 62
     3
 10
25819.352222000001
 20
8156.059095999989
 30
0.0
 11
25819.352222000001
 21
5937.5596699999869
 31
0.0
  0
LINE
  5
7955
  8
0-1
  6
CONTINUOUS
 62
     3
 10
24037.848791000011
 20
8156.059095999989
 30
0.0
 11
24037.848791000011
 21
5837.5598349999918
 31
0.0
  0
LINE
  5
7956
  8
0-1
  6
CONTINUOUS
 62
     3
 10
24082.849187000022
 20
7845.5597289999869
 30
0.0
 11
24082.849187000022
 21
5837.5598349999918
 31
0.0
  0
LINE
  5
7959
  8
0-1
  6
CONTINUOUS
 62
     3
 10
24082.849187000022
 20
7777.0193929999878
 30
0.0
 11
25774.351825999991
 21
7777.0193929999878
 31
0.0
  0
LINE
  5
795A
  8
0-1
  6
CONTINUOUS
 62
     3
 10
24082.849187000022
 20
6422.56052799999
 30
0.0
 11
25774.351825999991
 21
6422.56052799999
 31
0.0
  0
LINE
  5
795B
  8
0-1
  6
CONTINUOUS
 62
     3
 10
24082.849187000022
 20
6487.5595049999929
 30
0.0
 11
25774.351825999991
 21
6487.5595049999929
 31
0.0
  0
LINE
  5
795C
  8
0-1
  6
CONTINUOUS
 62
     3
 10
24082.849187000022
 20
6552.5599669999892
 30
0.0
 11
25774.351825999991
 21
6552.5599669999892
 31
0.0
  0
LINE
  5
795D
  8
0-1
  6
CONTINUOUS
 62
     3
 10
24082.849187000022
 20
6617.559933999989
 30
0.0
 11
25774.351825999991
 21
6617.559933999989
 31
0.0
  0
LINE
  5
795E
  8
0-1
  6
CONTINUOUS
 62
     3
 10
24082.849187000022
 20
6682.5599009999887
 30
0.0
 11
25774.351825999991
 21
6682.5599009999887
 31
0.0
  0
LINE
  5
795F
  8
0-1
  6
CONTINUOUS
 62
     3
 10
24082.849187000022
 20
6747.5598679999894
 30
0.0
 11
25774.351825999991
 21
6747.5598679999894
 31
0.0
  0
LINE
  5
7960
  8
0-1
  6
CONTINUOUS
 62
     3
 10
24082.849187000022
 20
6812.560329999993
 30
0.0
 11
25774.351825999991
 21
6812.560329999993
 31
0.0
  0
LINE
  5
7961
  8
0-1
  6
CONTINUOUS
 62
     3
 10
24082.849187000022
 20
6877.5593069999877
 30
0.0
 11
25774.351825999991
 21
6877.5593069999877
 31
0.0
  0
LINE
  5
7962
  8
0-1
  6
CONTINUOUS
 62
     3
 10
24082.849187000022
 20
6942.5597689999877
 30
0.0
 11
25774.351825999991
 21
6942.5597689999877
 31
0.0
  0
LINE
  5
7963
  8
0-1
  6
CONTINUOUS
 62
     3
 10
24082.849187000022
 20
7007.5597359999856
 30
0.0
 11
25774.351825999991
 21
7007.5597359999856
 31
0.0
  0
LINE
  5
7964
  8
0-1
  6
CONTINUOUS
 62
     3
 10
24082.849187000022
 20
7072.5601979999883
 30
0.0
 11
25774.351825999991
 21
7072.5601979999883
 31
0.0
  0
LINE
  5
7965
  8
0-1
  6
CONTINUOUS
 62
     3
 10
24082.849187000022
 20
7137.5591749999903
 30
0.0
 11
25774.351825999991
 21
7137.5591749999903
 31
0.0
  0
LINE
  5
7966
  8
0-1
  6
CONTINUOUS
 62
     3
 10
24082.849187000022
 20
7202.5596369999903
 30
0.0
 11
25774.351825999991
 21
7202.5596369999903
 31
0.0
  0
LINE
  5
7967
  8
0-1
  6
CONTINUOUS
 62
     3
 10
24082.849187000022
 20
7267.55960399999
 30
0.0
 11
25774.351825999991
 21
7267.55960399999
 31
0.0
  0
LINE
  5
7968
  8
0-1
  6
CONTINUOUS
 62
     3
 10
24082.849187000022
 20
7332.5595709999898
 30
0.0
 11
25774.351825999991
 21
7332.5595709999898
 31
0.0
  0
LINE
  5
7969
  8
0-1
  6
CONTINUOUS
 62
     3
 10
24082.849187000022
 20
7397.5600329999952
 30
0.0
 11
25774.351825999991
 21
7397.5600329999952
 31
0.0
  0
LINE
  5
796A
  8
0-1
  6
CONTINUOUS
 62
     3
 10
24082.849187000022
 20
7462.5599999999858
 30
0.0
 11
25774.351825999991
 21
7462.5599999999858
 31
0.0
  0
LINE
  5
796B
  8
0-1
  6
CONTINUOUS
 62
     3
 10
24082.849187000022
 20
7527.5604619999858
 30
0.0
 11
25774.351825999991
 21
7527.5604619999858
 31
0.0
  0
LINE
  5
796C
  8
0-1
  6
CONTINUOUS
 62
     3
 10
24082.849187000022
 20
7592.5594389999869
 30
0.0
 11
25774.351825999991
 21
7592.5594389999869
 31
0.0
  0
LINE
  5
796D
  8
0-1
  6
CONTINUOUS
 62
     3
 10
24082.849187000022
 20
7657.5599009999914
 30
0.0
 11
25774.351825999991
 21
7657.5599009999914
 31
0.0
  0
LINE
  5
796E
  8
0-1
  6
CONTINUOUS
 62
     3
 10
24082.849187000022
 20
7722.5598679999894
 30
0.0
 11
25774.351825999991
 21
7722.5598679999894
 31
0.0
  0
LINE
  5
796F
  8
0-1
  6
CONTINUOUS
 62
     3
 10
24082.849187000022
 20
5902.5593069999877
 30
0.0
 11
25774.351825999991
 21
5902.5593069999877
 31
0.0
  0
LINE
  5
7970
  8
0-1
  6
CONTINUOUS
 62
     3
 10
24082.849187000022
 20
5967.5602639999879
 30
0.0
 11
25774.351825999991
 21
5967.5602639999879
 31
0.0
  0
LINE
  5
7971
  8
0-1
  6
CONTINUOUS
 62
     3
 10
24082.849187000022
 20
6032.5592409999899
 30
0.0
 11
25774.351825999991
 21
6032.5592409999899
 31
0.0
  0
LINE
  5
7972
  8
0-1
  6
CONTINUOUS
 62
     3
 10
24082.849187000022
 20
6097.5601979999856
 30
0.0
 11
25774.351825999991
 21
6097.5601979999856
 31
0.0
  0
LINE
  5
7973
  8
0-1
  6
CONTINUOUS
 62
     3
 10
24082.849187000022
 20
6162.5596699999924
 30
0.0
 11
25774.351825999991
 21
6162.5596699999924
 31
0.0
  0
LINE
  5
7974
  8
0-1
  6
CONTINUOUS
 62
     3
 10
24082.849187000022
 20
6227.5596369999903
 30
0.0
 11
25774.351825999991
 21
6227.5596369999903
 31
0.0
  0
LINE
  5
7975
  8
0-1
  6
CONTINUOUS
 62
     3
 10
24082.849187000022
 20
6292.55960399999
 30
0.0
 11
25774.351825999991
 21
6292.55960399999
 31
0.0
  0
LINE
  5
7976
  8
0-1
  6
CONTINUOUS
 62
     3
 10
24082.849187000022
 20
6357.5590759999895
 30
0.0
 11
25774.351825999991
 21
6357.5590759999895
 31
0.0
  0
LINE
  5
7978
  8
0-1
  6
CONTINUOUS
 62
     3
 10
24037.848791000011
 20
7845.5597289999869
 30
0.0
 11
25819.352222000001
 21
7845.5597289999869
 31
0.0
  0
LINE
  5
7979
  8
0-1
  6
CONTINUOUS
 62
     3
 10
20676.849848000002
 20
5837.5598349999918
 30
0.0
 11
25911.851167000001
 21
5837.5598349999918
 31
0.0
  0
LINE
  5
7983
  8
0-1
  6
CONTINUOUS
 62
     3
 10
23952.850243000012
 20
8156.059095999989
 30
0.0
 11
23952.850243000012
 21
5837.5598349999918
 31
0.0
  0
LINE
  5
7984
  8
0-1
  6
CONTINUOUS
 62
     3
 10
23907.851826999991
 20
7845.5597289999869
 30
0.0
 11
23907.851826999991
 21
5837.5598349999918
 31
0.0
  0
LINE
  5
798F
  8
0-1
  6
CONTINUOUS
 62
     3
 10
20776.851167000012
 20
5937.5596699999869
 30
0.0
 11
20776.851167000012
 21
5837.5598349999918
 31
0.0
  0
LINE
  5
7990
  8
0-1
  6
CONTINUOUS
 62
     3
 10
20676.849848000002
 20
5837.5598349999918
 30
0.0
 11
20676.849848000002
 21
5937.5596699999869
 31
0.0
  0
LINE
  5
7991
  8
0-1
  6
CONTINUOUS
 62
     3
 10
20676.849848000002
 20
5937.5596699999869
 30
0.0
 11
20776.851167000012
 21
5937.5596699999869
 31
0.0
  0
LINE
  5
7992
  8
0-1
  6
CONTINUOUS
 62
     3
 10
20814.351167000019
 20
7845.5597289999869
 30
0.0
 11
20814.351167000019
 21
5837.5598349999918
 31
0.0
  0
LINE
  5
7993
  8
0-1
  6
CONTINUOUS
 62
     3
 10
20769.348792000019
 20
8156.059095999989
 30
0.0
 11
20769.348792000019
 21
5937.5596699999869
 31
0.0
  0
LINE
  5
7994
  8
0-1
  6
CONTINUOUS
 62
     3
 10
20704.351299000002
 20
8286.0600189999932
 30
0.0
 11
20704.351299000002
 21
5937.5596699999869
 31
0.0
  0
LINE
  5
7995
  8
0-1
  6
CONTINUOUS
 62
     3
 10
20684.348264000018
 20
8156.059095999989
 30
0.0
 11
20684.348264000018
 21
5937.5596699999869
 31
0.0
  0
LINE
  5
7996
  8
0-1
  6
CONTINUOUS
 62
     3
 10
20769.348792000019
 20
7845.5597289999869
 30
0.0
 11
23952.850243000012
 21
7845.5597289999869
 31
0.0
  0
LINE
  5
7998
  8
0-1
  6
CONTINUOUS
 62
     3
 10
20814.351167000019
 20
6357.5590759999895
 30
0.0
 11
23907.851826999991
 21
6357.5590759999895
 31
0.0
  0
LINE
  5
7999
  8
0-1
  6
CONTINUOUS
 62
     3
 10
20814.351167000019
 20
6292.55960399999
 30
0.0
 11
23907.851826999991
 21
6292.55960399999
 31
0.0
  0
LINE
  5
799A
  8
0-1
  6
CONTINUOUS
 62
     3
 10
20814.351167000019
 20
6227.5596369999903
 30
0.0
 11
23907.851826999991
 21
6227.5596369999903
 31
0.0
  0
LINE
  5
799B
  8
0-1
  6
CONTINUOUS
 62
     3
 10
20814.351167000019
 20
6162.5596699999924
 30
0.0
 11
23907.851826999991
 21
6162.5596699999924
 31
0.0
  0
LINE
  5
799C
  8
0-1
  6
CONTINUOUS
 62
     3
 10
20814.351167000019
 20
6097.5601979999856
 30
0.0
 11
23907.851826999991
 21
6097.5601979999856
 31
0.0
  0
LINE
  5
799D
  8
0-1
  6
CONTINUOUS
 62
     3
 10
20814.351167000019
 20
6032.5592409999899
 30
0.0
 11
23907.851826999991
 21
6032.5592409999899
 31
0.0
  0
LINE
  5
799E
  8
0-1
  6
CONTINUOUS
 62
     3
 10
20814.351167000019
 20
5967.5602639999879
 30
0.0
 11
23907.851826999991
 21
5967.5602639999879
 31
0.0
  0
LINE
  5
799F
  8
0-1
  6
CONTINUOUS
 62
     3
 10
20814.351167000019
 20
5902.5593069999877
 30
0.0
 11
23907.851826999991
 21
5902.5593069999877
 31
0.0
  0
LINE
  5
79A0
  8
0-1
  6
CONTINUOUS
 62
     3
 10
20814.351167000019
 20
7722.5598679999894
 30
0.0
 11
23907.851826999991
 21
7722.5598679999894
 31
0.0
  0
LINE
  5
79A1
  8
0-1
  6
CONTINUOUS
 62
     3
 10
20814.351167000019
 20
7657.5599009999914
 30
0.0
 11
23907.851826999991
 21
7657.5599009999914
 31
0.0
  0
LINE
  5
79A2
  8
0-1
  6
CONTINUOUS
 62
     3
 10
20814.351167000019
 20
7592.5594389999869
 30
0.0
 11
23907.851826999991
 21
7592.5594389999869
 31
0.0
  0
LINE
  5
79A3
  8
0-1
  6
CONTINUOUS
 62
     3
 10
20814.351167000019
 20
7527.5604619999858
 30
0.0
 11
23907.851826999991
 21
7527.5604619999858
 31
0.0
  0
LINE
  5
79A4
  8
0-1
  6
CONTINUOUS
 62
     3
 10
20814.351167000019
 20
7462.5599999999858
 30
0.0
 11
23907.851826999991
 21
7462.5599999999858
 31
0.0
  0
LINE
  5
79A5
  8
0-1
  6
CONTINUOUS
 62
     3
 10
20814.351167000019
 20
7397.5600329999952
 30
0.0
 11
23907.851826999991
 21
7397.5600329999952
 31
0.0
  0
LINE
  5
79A6
  8
0-1
  6
CONTINUOUS
 62
     3
 10
20814.351167000019
 20
7332.5595709999898
 30
0.0
 11
23907.851826999991
 21
7332.5595709999898
 31
0.0
  0
LINE
  5
79A7
  8
0-1
  6
CONTINUOUS
 62
     3
 10
20814.351167000019
 20
7267.55960399999
 30
0.0
 11
23907.851826999991
 21
7267.55960399999
 31
0.0
  0
LINE
  5
79A8
  8
0-1
  6
CONTINUOUS
 62
     3
 10
20814.351167000019
 20
7202.5596369999903
 30
0.0
 11
23907.851826999991
 21
7202.5596369999903
 31
0.0
  0
LINE
  5
79A9
  8
0-1
  6
CONTINUOUS
 62
     3
 10
20814.351167000019
 20
7137.5591749999903
 30
0.0
 11
23907.851826999991
 21
7137.5591749999903
 31
0.0
  0
LINE
  5
79AA
  8
0-1
  6
CONTINUOUS
 62
     3
 10
20814.351167000019
 20
7072.5601979999883
 30
0.0
 11
23907.851826999991
 21
7072.5601979999883
 31
0.0
  0
LINE
  5
79AB
  8
0-1
  6
CONTINUOUS
 62
     3
 10
20814.351167000019
 20
7007.5597359999856
 30
0.0
 11
23907.851826999991
 21
7007.5597359999856
 31
0.0
  0
LINE
  5
79AC
  8
0-1
  6
CONTINUOUS
 62
     3
 10
20814.351167000019
 20
6942.5597689999877
 30
0.0
 11
23907.851826999991
 21
6942.5597689999877
 31
0.0
  0
LINE
  5
79AD
  8
0-1
  6
CONTINUOUS
 62
     3
 10
20814.351167000019
 20
6877.5593069999877
 30
0.0
 11
23907.851826999991
 21
6877.5593069999877
 31
0.0
  0
LINE
  5
79AE
  8
0-1
  6
CONTINUOUS
 62
     3
 10
20814.351167000019
 20
6812.560329999993
 30
0.0
 11
23907.851826999991
 21
6812.560329999993
 31
0.0
  0
LINE
  5
79AF
  8
0-1
  6
CONTINUOUS
 62
     3
 10
20814.351167000019
 20
6747.5598679999894
 30
0.0
 11
23907.851826999991
 21
6747.5598679999894
 31
0.0
  0
LINE
  5
79B0
  8
0-1
  6
CONTINUOUS
 62
     3
 10
20814.351167000019
 20
6682.5599009999887
 30
0.0
 11
23907.851826999991
 21
6682.5599009999887
 31
0.0
  0
LINE
  5
79B1
  8
0-1
  6
CONTINUOUS
 62
     3
 10
20814.351167000019
 20
6617.559933999989
 30
0.0
 11
23907.851826999991
 21
6617.559933999989
 31
0.0
  0
LINE
  5
79B2
  8
0-1
  6
CONTINUOUS
 62
     3
 10
20814.351167000019
 20
6552.5599669999892
 30
0.0
 11
23907.851826999991
 21
6552.5599669999892
 31
0.0
  0
LINE
  5
79B3
  8
0-1
  6
CONTINUOUS
 62
     3
 10
20814.351167000019
 20
6487.5595049999929
 30
0.0
 11
23907.851826999991
 21
6487.5595049999929
 31
0.0
  0
LINE
  5
79B4
  8
0-1
  6
CONTINUOUS
 62
     3
 10
20814.351167000019
 20
6422.56052799999
 30
0.0
 11
23907.851826999991
 21
6422.56052799999
 31
0.0
  0
LINE
  5
79B5
  8
0-1
  6
CONTINUOUS
 62
     3
 10
20814.351167000019
 20
7777.0193929999878
 30
0.0
 11
23907.851826999991
 21
7777.0193929999878
 31
0.0
  0
LINE
  5
79BB
  8
0-2
  6
CONTINUOUS
 62
     4
 10
25292.292506500031
 20
6584.7855389999859
 30
0.0
 11
25192.293166500011
 21
6584.7855389999859
 31
0.0
  0
LINE
  5
79BC
  8
0-2
  6
CONTINUOUS
 62
     4
 10
24564.906526500021
 20
6584.7855389999859
 30
0.0
 11
24664.905867500001
 21
6584.7855389999859
 31
0.0
  0
LINE
  5
79BD
  8
0-2
  6
CONTINUOUS
 62
     4
 10
22724.79151750002
 20
6584.7855389999886
 30
0.0
 11
22624.79217750001
 21
6584.7855389999886
 31
0.0
  0
LINE
  5
79BE
  8
0-2
  6
CONTINUOUS
 62
     4
 10
21997.40751650001
 20
6584.7855389999886
 30
0.0
 11
22097.404877500001
 21
6584.7855389999886
 31
0.0
  0
LINE
  5
79BF
  8
0-5
  6
CONTINUOUS
 62
     4
 10
23995.35050700001
 20
4157.5597359999883
 30
0.0
 11
23995.35050700001
 21
3997.559702999989
 31
0.0
  0
LINE
  5
79C0
  8
0-5
  6
CONTINUOUS
 62
     4
 10
20726.850506999999
 20
4157.5597359999883
 30
0.0
 11
20726.850506999999
 21
3997.559702999989
 31
0.0
  0
LINE
  5
79C1
  8
2-0
  6
CENTER2
 62
     6
 10
25861.85050700001
 20
5574.9074119999914
 30
0.0
 11
25861.85050700001
 21
6612.0494489999892
 31
0.0
  0
LINE
  5
79C2
  8
2-0
  6
CENTER2
 62
     6
 10
23995.35050700001
 20
5574.9074119999914
 30
0.0
 11
23995.35050700001
 21
6612.0494489999892
 31
0.0
  0
LINE
  5
79C3
  8
2-0
  6
CENTER2
 62
     6
 10
20726.850506999999
 20
5574.9074119999914
 30
0.0
 11
20726.850506999999
 21
6612.0494489999892
 31
0.0
  0
CIRCLE
  5
79D4
  8
0-5
  6
CONTINUOUS
 62
     4
 10
23995.35050700001
 20
3797.5600329999888
 30
0.0
 40
199.9999949999999
  0
CIRCLE
  5
79D5
  8
0-5
  6
CONTINUOUS
 62
     4
 10
20726.850506999999
 20
3797.5600329999888
 30
0.0
 40
199.9999949999999
  0
TEXT
  5
79D6
  8
0-5
  6
CONTINUOUS
 62
     7
 10
20108.674567999999
 20
6566.9200817419869
 30
0.0
 40
160.0
  1
(2131.5)
 50
90.0
 72
     4
 11
20028.674567999999
 21
7020.2534150753199
 31
0.0
  0
TEXT
  5
79D7
  8
0-5
  6
CONTINUOUS
 62
     7
 10
23948.422060000001
 20
3711.0300789999901
 30
0.0
 40
160.0
  1
2
 72
     4
 11
24001.755393333329
 21
3791.0300789999901
 31
0.0
  0
TEXT
  5
79D8
  8
0-5
  6
CONTINUOUS
 62
     7
 10
20679.918100999999
 20
3711.0300789999901
 30
0.0
 40
160.0
  1
1
 72
     4
 11
20706.584767666671
 21
3791.0300789999901
 31
0.0
  0
CIRCLE
  5
79D9
  8
0-4
  6
CONTINUOUS
 62
     4
 10
22361.10050700001
 20
6323.6157759999869
 30
0.0
 40
18.487504999999981
  0
CIRCLE
  5
79DA
  8
0-4
  6
CONTINUOUS
 62
     4
 10
24928.600506500021
 20
6323.6157759999869
 30
0.0
 40
18.487504999999981
  0
LINE
  5
79DB
  8
SUNPOU
  6
CONTINUOUS
 10
20444.35050700001
 20
4637.5598349999909
 30
0.0
 11
20086.39550027889
 21
4637.5598349999909
 31
0.0
  0
LINE
  5
79DC
  8
SUNPOU
  6
CONTINUOUS
 10
26144.354466000012
 20
4637.5598349999909
 30
0.0
 11
26502.30947272111
 21
4637.5598349999909
 31
0.0
  0
LINE
  5
79DD
  8
0-5
  6
CONTINUOUS
 62
     4
 10
25904.35050700001
 20
4157.5597359999883
 30
0.0
 11
25904.35050700001
 21
3997.559702999989
 31
0.0
  0
CIRCLE
  5
79DE
  8
0-5
  6
CONTINUOUS
 62
     4
 10
25904.35050700001
 20
3797.5600329999888
 30
0.0
 40
199.9999949999999
  0
TEXT
  5
79DF
  8
0-5
  6
CONTINUOUS
 62
     7
 10
25857.422060000012
 20
3711.0300789999901
 30
0.0
 40
160.0
  1
3
 72
     4
 11
25910.75539333334
 21
3791.0300789999901
 31
0.0
  0
LINE
  5
79E0
  8
0-5
  6
CONTINUOUS
 62
     4
 10
15869.59497900003
 20
5837.5598349999918
 30
0.0
 11
19806.885083000001
 21
5837.5598349999918
 31
0.0
  0
LINE
  5
79E1
  8
0-5
  6
CONTINUOUS
 62
     4
 10
16082.097222
 20
5837.5598349999918
 30
0.0
 11
20596.849584
 21
5837.5598349999918
 31
0.0
  0
LINE
  5
79E2
  8
0-1
  6
CONTINUOUS
 62
     3
 10
14708.5816235
 20
17048.69782762778
 30
0.0
 11
14708.5816235
 21
20250.318965999981
 31
0.0
  0
LINE
  5
79E3
  8
0-1
  6
CONTINUOUS
 62
     3
 10
14671.583430500001
 20
17067.387988179569
 30
0.0
 11
14671.58343050001
 21
20250.318965999981
 31
0.0
  0
LINE
  5
79E4
  8
0-1
  6
CONTINUOUS
 62
     3
 10
14434.58259950002
 20
17187.112310453889
 30
0.0
 11
14434.58259950002
 21
20250.318965999981
 31
0.0
  0
LINE
  5
79E5
  8
0-1
  6
CONTINUOUS
 62
     3
 10
14471.58277150002
 20
17168.42115018225
 30
0.0
 11
14471.58277150002
 21
20250.318965999981
 31
0.0
  0
LINE
  5
79E6
  8
SUNPOU
  6
CONTINUOUS
 10
8747.0821895000117
 20
14057.32763699998
 30
0.0
 11
8747.0821895000117
 21
13381.9015211896
 31
0.0
  0
LINE
  5
79E7
  8
SUNPOU
  6
CONTINUOUS
 10
8747.0821895000117
 20
20308.318861
 30
0.0
 11
8747.0821895000117
 21
21105.286128778462
 31
0.0
  0
TEXT
  5
79E8
  8
0-5
  6
CONTINUOUS
 62
     7
 10
9921.1099165000142
 20
19045.52061299995
 30
0.0
 40
160.0
  1
上枠
 72
     4
 11
10091.77658316668
 21
19125.52061299995
 31
0.0
  0
TEXT
  5
79E9
  8
0-5
  6
CONTINUOUS
 62
     7
 10
7940.6832305000135
 20
12937.32295199998
 30
0.0
 40
160.0
  1
ケラバ 左
 72
     4
 11
8356.6832305000135
 21
13017.32295199998
 31
0.0
  0
TEXT
  5
79EA
  8
0-5
  6
CONTINUOUS
 62
     7
 10
11907.875594500019
 20
13337.323281999979
 30
0.0
 40
160.0
  1
鼻隠し前
 72
     4
 11
12270.542261166691
 21
13417.323281999979
 31
0.0
  0
TEXT
  5
79EB
  8
0-5
  6
CONTINUOUS
 62
     7
 10
11000.34946450001
 20
14701.15120899998
 30
0.0
 40
160.0
  1
桁（前）
 72
     4
 11
11320.34946450001
 21
14781.15120899998
 31
0.0
  0
TEXT
  5
79EC
  8
0-5
  6
CONTINUOUS
 62
     7
 10
11986.95043350002
 20
20618.32334799998
 30
0.0
 40
160.0
  1
屋根
 72
     4
 11
12157.61710016669
 21
20698.32334799998
 31
0.0
  0
TEXT
  5
79ED
  8
0-4
  6
CONTINUOUS
 62
     7
 10
8094.2092485000139
 20
14162.139186999961
 30
0.0
 40
160.0
  1
A
 72
     4
 11
8147.542581833347
 21
14242.139186999961
 31
0.0
  0
TEXT
  5
79EE
  8
0-4
  6
CONTINUOUS
 62
     7
 10
8094.2092485000139
 20
17080.13819699996
 30
0.0
 40
160.0
  1
B
 72
     4
 11
8147.542581833347
 21
17160.138196999971
 31
0.0
  0
TEXT
  5
79EF
  8
0-4
  6
CONTINUOUS
 62
     7
 10
8094.2092485000139
 20
19998.138196999989
 30
0.0
 40
160.0
  1
C
 72
     4
 11
8147.542581833347
 21
20078.138196999989
 31
0.0
  0
TEXT
  5
79F0
  8
0-4
  6
CONTINUOUS
 62
     7
 10
9630.1632445000232
 20
21367.800754999971
 30
0.0
 40
160.0
  1
1
 72
     4
 11
9656.8299111666875
 21
21447.800754999971
 31
0.0
  0
TEXT
  5
79F1
  8
0-4
  6
CONTINUOUS
 62
     7
 10
12896.819323500011
 20
21365.835092999991
 30
0.0
 40
160.0
  1
2
 72
     4
 11
12950.15265683335
 21
21445.835092999991
 31
0.0
  0
TEXT
  5
79F2
  8
0-4
  6
CONTINUOUS
 62
     7
 10
14756.68595549999
 20
21443.582664999991
 30
0.0
 40
160.0
  1
3
 72
     4
 11
14810.019288833329
 21
21523.582664999991
 31
0.0
  0
CIRCLE
  5
79F3
  8
0-4
  6
CONTINUOUS
 62
     4
 10
14811.58196550001
 20
21528.319916999972
 30
0.0
 40
199.9999949999999
  0
CIRCLE
  5
79F4
  8
0-4
  6
CONTINUOUS
 62
     4
 10
8147.0807055000141
 20
14249.82295199998
 30
0.0
 40
199.9999949999999
  0
CIRCLE
  5
79F5
  8
0-4
  6
CONTINUOUS
 62
     4
 10
8147.0807055000141
 20
17167.82295199998
 30
0.0
 40
199.9999949999999
  0
CIRCLE
  5
79F6
  8
0-4
  6
CONTINUOUS
 62
     4
 10
8147.0807055000141
 20
20085.82295199998
 30
0.0
 40
199.9999949999999
  0
CIRCLE
  5
79F7
  8
0-4
  6
CONTINUOUS
 62
     4
 10
9676.5819655000087
 20
21458.322159999989
 30
0.0
 40
199.9999949999999
  0
CIRCLE
  5
79F8
  8
0-4
  6
CONTINUOUS
 62
     4
 10
12945.08196550001
 20
21458.322159999989
 30
0.0
 40
199.9999949999999
  0
ARC
  5
79F9
  8
0-1
  6
CONTINUOUS
 62
     3
 10
14892.082097500001
 20
20303.320575999991
 30
0.0
 40
5.0
 50
0.0
 51
90.0
  0
ARC
  5
79FA
  8
0-1
  6
CONTINUOUS
 62
     3
 10
14828.5831005
 20
20303.320575999991
 30
0.0
 40
5.0
 50
90.0
 51
180.0
  0
ARC
  5
79FB
  8
0-1
  6
CONTINUOUS
 62
     3
 10
14828.5831005
 20
20273.32097199998
 30
0.0
 40
5.0
 50
180.0
 51
269.9999850001808
  0
ARC
  5
79FC
  8
0-1
  6
CONTINUOUS
 62
     3
 10
9659.5818205000123
 20
20273.32097199998
 30
0.0
 40
5.0
 50
269.9999850001808
 51
0.0
  0
ARC
  5
79FD
  8
0-1
  6
CONTINUOUS
 62
     3
 10
9659.5818205000123
 20
20303.320575999991
 30
0.0
 40
5.0
 50
0.0
 51
90.0
  0
ARC
  5
79FE
  8
0-1
  6
CONTINUOUS
 62
     3
 10
9596.0818335000222
 20
20303.320575999991
 30
0.0
 40
5.0
 50
90.0
 51
180.0
  0
LINE
  5
79FF
  8
2-0
  6
DASHED3
 62
     6
 10
13002.0822035
 20
18236.819968999989
 30
0.0
 11
13002.0822035
 21
18581.820575999958
 31
0.0
  0
LINE
  5
7A00
  8
2-0
  6
DASHED3
 62
     6
 10
12888.081728500019
 20
18236.819968999989
 30
0.0
 11
12888.081728500019
 21
18581.820575999958
 31
0.0
  0
LINE
  5
7A01
  8
2-0
  6
DASHED3
 62
     6
 10
13002.0822035
 20
18671.821367999961
 30
0.0
 11
13002.0822035
 21
20046.820496999972
 31
0.0
  0
LINE
  5
7A02
  8
2-0
  6
DASHED3
 62
     6
 10
12945.08196550001
 20
18671.821367999961
 30
0.0
 11
12945.08196550001
 21
20046.820496999972
 31
0.0
  0
LINE
  5
7A03
  8
2-0
  6
DASHED3
 62
     6
 10
12888.081728500019
 20
18671.821367999961
 30
0.0
 11
12888.081728500019
 21
20046.820496999972
 31
0.0
  0
LINE
  5
7A04
  8
2-0
  6
CENTER2
 62
     6
 10
14484.08241450001
 20
14249.82295199998
 30
0.0
 11
15110.34674550001
 21
14249.82295199998
 31
0.0
  0
LINE
  5
7A05
  8
2-0
  6
CENTER2
 62
     6
 10
14484.08241450001
 20
17167.82295199998
 30
0.0
 11
15110.34674550001
 21
17167.82295199998
 31
0.0
  0
LINE
  5
7A06
  8
2-0
  6
CENTER2
 62
     6
 10
8347.0803755000106
 20
14249.82295199998
 30
0.0
 11
9993.5810815000168
 21
14249.82295199998
 31
0.0
  0
LINE
  5
7A07
  8
2-0
  6
CENTER2
 62
     6
 10
8347.0803755000106
 20
17167.82295199998
 30
0.0
 11
9993.5810815000168
 21
17167.82295199998
 31
0.0
  0
LINE
  5
7A08
  8
0-7
  6
CONTINUOUS
 62
     6
 10
9676.5819655000087
 20
21258.321499999991
 30
0.0
 11
9676.5819655000087
 21
20378.320575999991
 31
0.0
  0
LINE
  5
7A09
  8
2-0
  6
CENTER2
 62
     6
 10
8347.0803755000106
 20
20085.82295199998
 30
0.0
 11
9993.5810815000168
 21
20085.82295199998
 31
0.0
  0
LINE
  5
7A0A
  8
0-7
  6
CONTINUOUS
 62
     6
 10
12945.08196550001
 20
21258.321499999991
 30
0.0
 11
12945.08196550001
 21
20378.320575999991
 31
0.0
  0
LINE
  5
7A0B
  8
0-7
  6
CONTINUOUS
 62
     6
 10
14811.58196550001
 20
21328.321235999982
 30
0.0
 11
14811.58196550001
 21
20378.320575999991
 31
0.0
  0
LINE
  5
7A0C
  8
2-0
  6
DASHED3
 62
     6
 10
13350.513892456829
 20
17734.744952508041
 30
0.0
 11
14741.582229500011
 21
20085.82295199998
 31
0.0
  0
LINE
  5
7A0D
  8
2-0
  6
DASHED3
 62
     6
 10
14684.541949016289
 20
17059.83795359575
 30
0.0
 11
14741.582229500011
 21
17167.82295199998
 31
0.0
  0
LINE
  5
7A0E
  8
2-0
  6
DASHED3
 62
     6
 10
13015.08170150001
 20
20085.82295199998
 30
0.0
 11
14741.582229499991
 21
17167.82295199998
 31
0.0
  0
LINE
  5
7A0F
  8
2-0
  6
DASHED3
 62
     6
 10
10348.49883898897
 20
19524.40643362144
 30
0.0
 11
9746.5826915000252
 21
20085.82295199998
 31
0.0
  0
LINE
  5
7A10
  8
2-0
  6
DASHED3
 62
     6
 10
12875.08222950002
 20
20085.82295199998
 30
0.0
 11
11595.59202982157
 21
18892.42261509327
 31
0.0
  0
LINE
  5
7A11
  8
2-0
  6
DASHED3
 62
     6
 10
12945.08196550001
 20
18671.821367999961
 30
0.0
 11
12945.08196550001
 21
18581.820575999958
 31
0.0
  0
LINE
  5
7A12
  8
2-0
  6
DASHED3
 62
     6
 10
12945.08196550001
 20
18078.545581999992
 30
0.0
 11
12945.08196550001
 21
18581.820575999958
 31
0.0
  0
LINE
  5
7A13
  8
2-0
  6
DASHED3
 62
     6
 10
12888.081728500019
 20
18213.010319999968
 30
0.0
 11
12888.081728500019
 21
18236.819968999989
 31
0.0
  0
LINE
  5
7A14
  8
2-0
  6
DASHED3
 62
     6
 10
13002.0822035
 20
17934.08469799997
 30
0.0
 11
13002.0822035
 21
18236.819968999989
 31
0.0
  0
LINE
  5
7A15
  8
2-0
  6
DASHED3
 62
     6
 10
14854.081239499999
 20
16975.19663844091
 30
0.0
 11
14854.081239499999
 21
20131.821024999968
 31
0.0
  0
LINE
  5
7A16
  8
2-0
  6
DASHED3
 62
     6
 10
14811.58196550001
 20
16996.665747875391
 30
0.0
 11
14811.58196550001
 21
20131.821024999968
 31
0.0
  0
LINE
  5
7A17
  8
2-0
  6
DASHED3
 62
     6
 10
14401.832453500019
 20
17201.821183999949
 30
0.0
 11
14811.58196550001
 21
17201.821183999949
 31
0.0
  0
LINE
  5
7A18
  8
2-0
  6
DASHED3
 62
     6
 10
14557.68984950001
 20
17122.820576999969
 30
0.0
 11
14811.58196550001
 21
17122.820576999969
 31
0.0
  0
LINE
  5
7A19
  8
2-0
  6
DASHED3
 62
     6
 10
9634.0817015000212
 20
20131.821024999968
 30
0.0
 11
14854.081239499999
 21
20131.821024999968
 31
0.0
  0
LINE
  5
7A1A
  8
0-6
  6
CONTINUOUS
 62
     6
 10
9676.5819655000087
 20
19864.886903999992
 30
0.0
 11
9676.5819655000087
 21
20131.821024999968
 31
0.0
  0
LINE
  5
7A1B
  8
0-6
  6
CONTINUOUS
 62
     6
 10
9634.0817015000212
 20
19886.42802499999
 30
0.0
 11
9634.0817015000212
 21
20131.821024999968
 31
0.0
  0
LINE
  5
7A1C
  8
2-0
  6
DASHED3
 62
     6
 10
9676.5819655000087
 20
20046.820496999972
 30
0.0
 11
14811.58196550001
 21
20046.820496999972
 31
0.0
  0
LINE
  5
7A1D
  8
0-5
  6
CONTINUOUS
 62
     6
 10
11788.93721050002
 20
20019.647645999979
 30
0.0
 11
11737.15993250001
 21
20032.443253999991
 31
0.0
  0
LINE
  5
7A1E
  8
0-5
  6
CONTINUOUS
 62
     6
 10
11788.93721050002
 20
20019.647645999979
 30
0.0
 11
11724.661251500011
 21
19870.718564999981
 31
0.0
  0
LINE
  5
7A1F
  8
0-5
  6
CONTINUOUS
 62
     6
 10
11737.15993250001
 20
20032.443253999991
 30
0.0
 11
11788.93721050002
 21
20019.647645999979
 31
0.0
  0
LINE
  5
7A20
  8
0-5
  6
CONTINUOUS
 62
     6
 10
11724.661251500011
 20
19870.718564999981
 30
0.0
 11
11737.15993250001
 21
20032.443253999991
 31
0.0
  0
LINE
  5
7A21
  8
0-5
  6
CONTINUOUS
 62
     6
 10
11724.661251500011
 20
19870.718564999981
 30
0.0
 11
11788.93721050002
 21
20019.647645999979
 31
0.0
  0
LINE
  5
7A22
  8
0-5
  6
CONTINUOUS
 62
     6
 10
11737.15993250001
 20
20032.443253999991
 30
0.0
 11
11724.661251500011
 21
19870.718564999981
 31
0.0
  0
LINE
  5
7A23
  8
0-5
  6
CONTINUOUS
 62
     6
 10
10861.61094550001
 20
14432.899717999961
 30
0.0
 11
10813.315641500019
 21
14455.52462599998
 31
0.0
  0
LINE
  5
7A24
  8
0-5
  6
CONTINUOUS
 62
     6
 10
10861.61094550001
 20
14432.899717999961
 30
0.0
 11
10769.590055500021
 21
14299.322793999971
 31
0.0
  0
LINE
  5
7A25
  8
0-5
  6
CONTINUOUS
 62
     6
 10
10813.315641500019
 20
14455.52462599998
 30
0.0
 11
10861.61094550001
 21
14432.899717999961
 31
0.0
  0
LINE
  5
7A26
  8
0-5
  6
CONTINUOUS
 62
     6
 10
10769.590055500021
 20
14299.322793999971
 30
0.0
 11
10813.315641500019
 21
14455.52462599998
 31
0.0
  0
LINE
  5
7A27
  8
0-5
  6
CONTINUOUS
 62
     6
 10
10769.590055500021
 20
14299.322793999971
 30
0.0
 11
10861.61094550001
 21
14432.899717999961
 31
0.0
  0
LINE
  5
7A28
  8
0-5
  6
CONTINUOUS
 62
     6
 10
10813.315641500019
 20
14455.52462599998
 30
0.0
 11
10769.590055500021
 21
14299.322793999971
 31
0.0
  0
LINE
  5
7A29
  8
0-5
  6
CONTINUOUS
 62
     6
 10
9473.7456455000247
 20
14645.576224999961
 30
0.0
 11
9524.6321395000105
 21
14629.612397999979
 31
0.0
  0
LINE
  5
7A2A
  8
0-5
  6
CONTINUOUS
 62
     6
 10
9473.7456455000247
 20
14645.576224999961
 30
0.0
 11
9547.0818595000164
 21
14790.25824899998
 31
0.0
  0
LINE
  5
7A2B
  8
0-5
  6
CONTINUOUS
 62
     6
 10
9524.6321395000105
 20
14629.612397999979
 30
0.0
 11
9473.7456455000247
 21
14645.576224999961
 31
0.0
  0
LINE
  5
7A2C
  8
0-5
  6
CONTINUOUS
 62
     6
 10
9547.0818595000164
 20
14790.25824899998
 30
0.0
 11
9524.6321395000105
 21
14629.612397999979
 31
0.0
  0
LINE
  5
7A2D
  8
0-5
  6
CONTINUOUS
 62
     6
 10
9547.0818595000164
 20
14790.25824899998
 30
0.0
 11
9473.7456455000247
 21
14645.576224999961
 31
0.0
  0
LINE
  5
7A2E
  8
0-5
  6
CONTINUOUS
 62
     6
 10
9524.6321395000105
 20
14629.612397999979
 30
0.0
 11
9547.0818595000164
 21
14790.25824899998
 31
0.0
  0
LINE
  5
7A2F
  8
0-5
  6
CONTINUOUS
 62
     6
 10
11399.01658850001
 20
13906.93371299998
 30
0.0
 11
11444.50691550002
 21
13934.774651999969
 31
0.0
  0
LINE
  5
7A30
  8
0-5
  6
CONTINUOUS
 62
     6
 10
11399.01658850001
 20
13906.93371299998
 30
0.0
 11
11338.23745050001
 21
14057.32169899998
 31
0.0
  0
LINE
  5
7A31
  8
0-5
  6
CONTINUOUS
 62
     6
 10
11444.50691550002
 20
13934.774651999969
 30
0.0
 11
11399.01658850001
 21
13906.93371299998
 31
0.0
  0
LINE
  5
7A32
  8
0-5
  6
CONTINUOUS
 62
     6
 10
11338.23745050001
 20
14057.32169899998
 30
0.0
 11
11444.50691550002
 21
13934.774651999969
 31
0.0
  0
LINE
  5
7A33
  8
0-5
  6
CONTINUOUS
 62
     6
 10
11338.23745050001
 20
14057.32169899998
 30
0.0
 11
11399.01658850001
 21
13906.93371299998
 31
0.0
  0
LINE
  5
7A34
  8
0-5
  6
CONTINUOUS
 62
     6
 10
11444.50691550002
 20
13934.774651999969
 30
0.0
 11
11338.23745050001
 21
14057.32169899998
 31
0.0
  0
LINE
  5
7A35
  8
0-5
  6
CONTINUOUS
 62
     6
 10
9717.7361565000156
 20
19175.394847999982
 30
0.0
 11
9766.3996515000181
 21
19197.226957999981
 31
0.0
  0
LINE
  5
7A36
  8
0-5
  6
CONTINUOUS
 62
     6
 10
9717.7361565000156
 20
19175.394847999982
 30
0.0
 11
9676.5819655000087
 21
19332.295449999961
 31
0.0
  0
LINE
  5
7A37
  8
0-5
  6
CONTINUOUS
 62
     6
 10
9766.3996515000181
 20
19197.226957999981
 30
0.0
 11
9717.7361565000156
 21
19175.394847999982
 31
0.0
  0
LINE
  5
7A38
  8
0-5
  6
CONTINUOUS
 62
     6
 10
9676.5819655000087
 20
19332.295449999961
 30
0.0
 11
9766.3996515000181
 21
19197.226957999981
 31
0.0
  0
LINE
  5
7A39
  8
0-5
  6
CONTINUOUS
 62
     6
 10
9676.5819655000087
 20
19332.295449999961
 30
0.0
 11
9717.7361565000156
 21
19175.394847999982
 31
0.0
  0
LINE
  5
7A3A
  8
0-5
  6
CONTINUOUS
 62
     6
 10
9766.3996515000181
 20
19197.226957999981
 30
0.0
 11
9676.5819655000087
 21
19332.295449999961
 31
0.0
  0
LINE
  5
7A3B
  8
0-5
  6
CONTINUOUS
 62
     6
 10
9742.067409500014
 20
19186.309912999979
 30
0.0
 11
9841.1106415000158
 21
18965.520348999991
 31
0.0
  0
LINE
  5
7A3C
  8
0-5
  6
CONTINUOUS
 62
     6
 10
9499.1883975000164
 20
14637.594805999959
 30
0.0
 11
8940.6835605000197
 21
12857.322688999981
 31
0.0
  0
LINE
  5
7A3D
  8
0-5
  6
CONTINUOUS
 62
     6
 10
7860.6849465000141
 20
12857.322688999981
 30
0.0
 11
8940.6835605000197
 21
12857.322688999981
 31
0.0
  0
LINE
  5
7A3E
  8
0-5
  6
CONTINUOUS
 62
     6
 10
11421.76224650002
 20
13920.853687999979
 30
0.0
 11
11827.87632050001
 21
13257.32202899997
 31
0.0
  0
LINE
  5
7A3F
  8
0-5
  6
CONTINUOUS
 62
     6
 10
11827.87632050001
 20
13257.32202899997
 30
0.0
 11
12690.45550050002
 21
13257.32202899997
 31
0.0
  0
LINE
  5
7A40
  8
0-5
  6
CONTINUOUS
 62
     6
 10
10920.35019050001
 20
14621.150944999979
 30
0.0
 11
11720.34986050002
 21
14621.150944999979
 31
0.0
  0
LINE
  5
7A41
  8
0-5
  6
CONTINUOUS
 62
     6
 10
10837.46279850001
 20
14444.211676999959
 30
0.0
 11
10920.35019050001
 21
14621.150944999979
 31
0.0
  0
LINE
  5
7A42
  8
0-5
  6
CONTINUOUS
 62
     6
 10
9841.1106415000158
 20
18965.520348999991
 30
0.0
 11
10371.60883450001
 21
18965.520348999991
 31
0.0
  0
LINE
  5
7A43
  8
0-5
  6
CONTINUOUS
 62
     6
 10
11906.94917950001
 20
20538.323083999981
 30
0.0
 11
12424.63881750001
 21
20538.323083999981
 31
0.0
  0
LINE
  5
7A44
  8
0-5
  6
CONTINUOUS
 62
     6
 10
11763.04807650001
 20
20026.04742899998
 30
0.0
 11
11906.94917950001
 21
20538.323083999981
 31
0.0
  0
LINE
  5
7A45
  8
0-1
  6
CONTINUOUS
 62
     3
 10
12945.08196550001
 20
14213.322608999961
 30
0.0
 11
12945.08196550001
 21
14057.32169899998
 31
0.0
  0
LINE
  5
7A46
  8
0-1
  6
CONTINUOUS
 62
     3
 10
14034.58226950001
 20
17389.178135357091
 30
0.0
 11
14034.58226950001
 21
20250.318965999981
 31
0.0
  0
LINE
  5
7A47
  8
0-1
  6
CONTINUOUS
 62
     3
 10
13997.58209750001
 20
17407.869295628741
 30
0.0
 11
13997.58209750001
 21
20250.318965999981
 31
0.0
  0
LINE
  5
7A48
  8
0-1
  6
CONTINUOUS
 62
     3
 10
13834.5806195
 20
17490.211797977448
 30
0.0
 11
13834.58061950001
 21
20250.318965999981
 31
0.0
  0
LINE
  5
7A49
  8
0-1
  6
CONTINUOUS
 62
     3
 10
13797.58143750001
 20
17508.902458136588
 30
0.0
 11
13797.58143750001
 21
20250.318965999981
 31
0.0
  0
LINE
  5
7A4A
  8
0-1
  6
CONTINUOUS
 62
     3
 10
13634.582928500011
 20
17591.243460652939
 30
0.0
 11
13634.58292850002
 21
20250.318965999981
 31
0.0
  0
LINE
  5
7A4B
  8
0-1
  6
CONTINUOUS
 62
     3
 10
13597.581767500011
 20
17609.93512053194
 30
0.0
 11
13597.581767500011
 21
20250.318965999981
 31
0.0
  0
LINE
  5
7A4C
  8
0-1
  6
CONTINUOUS
 62
     3
 10
13434.58226950001
 20
17692.276622655641
 30
0.0
 11
13434.58226950001
 21
20250.318965999981
 31
0.0
  0
LINE
  5
7A4D
  8
0-1
  6
CONTINUOUS
 62
     3
 10
13397.582097500021
 20
17710.967782927291
 30
0.0
 11
13397.582097500021
 21
20250.318965999981
 31
0.0
  0
LINE
  5
7A4E
  8
0-1
  6
CONTINUOUS
 62
     3
 10
14234.582928500011
 20
17288.14497335441
 30
0.0
 11
14234.58292850002
 21
20250.318965999981
 31
0.0
  0
LINE
  5
7A4F
  8
0-1
  6
CONTINUOUS
 62
     3
 10
14271.58112150001
 20
17269.454812802611
 30
0.0
 11
14271.581121500019
 21
20250.318965999981
 31
0.0
  0
LINE
  5
7A50
  8
0-1
  6
CONTINUOUS
 62
     3
 10
13015.08170150001
 20
17167.82295199998
 30
0.0
 11
13350.513892456829
 21
17734.744952508041
 31
0.0
  0
LINE
  5
7A51
  8
0-1
  6
CONTINUOUS
 62
     3
 10
14741.582229500011
 20
14249.82295199998
 30
0.0
 11
13015.08170150001
 21
17167.82295199998
 31
0.0
  0
LINE
  5
7A52
  8
0-1
  6
CONTINUOUS
 62
     3
 10
13015.08170150001
 20
14249.82295199998
 30
0.0
 11
14686.92982732694
 21
17059.635538740022
 31
0.0
  0
LINE
  5
7A53
  8
0-1
  6
CONTINUOUS
 62
     3
 10
11595.59202982157
 20
18892.42261509327
 30
0.0
 11
9746.5826915000252
 21
17167.82295199998
 31
0.0
  0
LINE
  5
7A54
  8
0-1
  6
CONTINUOUS
 62
     3
 10
12875.08222950002
 20
17167.82295199998
 30
0.0
 11
10348.49883898897
 21
19524.40643362144
 31
0.0
  0
LINE
  5
7A55
  8
0-1
  6
CONTINUOUS
 62
     3
 10
12875.08222950002
 20
14249.82295199998
 30
0.0
 11
9746.5826915000252
 21
17167.82295199998
 31
0.0
  0
LINE
  5
7A56
  8
0-1
  6
CONTINUOUS
 62
     3
 10
9746.5826915000252
 20
14249.82295199998
 30
0.0
 11
12875.08222950002
 21
17167.82295199998
 31
0.0
  0
LINE
  5
7A57
  8
0-1
  6
CONTINUOUS
 62
     3
 10
12945.08196550001
 20
17201.821183999949
 30
0.0
 11
12945.08196550001
 21
17122.820576999969
 31
0.0
  0
LINE
  5
7A58
  8
0-1
  6
CONTINUOUS
 62
     3
 10
12945.08196550001
 20
14292.323215999981
 30
0.0
 11
12945.08196550001
 21
14202.323413999949
 31
0.0
  0
LINE
  5
7A59
  8
0-1
  6
CONTINUOUS
 62
     3
 10
13002.0822035
 20
14292.323215999981
 30
0.0
 11
13002.0822035
 21
17122.820576999969
 31
0.0
  0
LINE
  5
7A5A
  8
0-1
  6
CONTINUOUS
 62
     3
 10
12888.081728500019
 20
14292.323215999981
 30
0.0
 11
12888.081728500019
 21
17122.820576999969
 31
0.0
  0
LINE
  5
7A5B
  8
0-1
  6
CONTINUOUS
 62
     3
 10
13002.0822035
 20
17201.821183999949
 30
0.0
 11
13002.0822035
 21
17934.08469799997
 31
0.0
  0
LINE
  5
7A5C
  8
0-1
  6
CONTINUOUS
 62
     3
 10
12888.081728500019
 20
17201.821183999949
 30
0.0
 11
12888.081728500019
 21
18213.010319999968
 31
0.0
  0
LINE
  5
7A5D
  8
0-1
  6
CONTINUOUS
 62
     3
 10
12945.08196550001
 20
17201.821183999949
 30
0.0
 11
12945.08196550001
 21
18078.545581999992
 31
0.0
  0
LINE
  5
7A5E
  8
0-1
  6
CONTINUOUS
 62
     3
 10
12945.08196550001
 20
17201.821183999949
 30
0.0
 11
12945.08196550001
 21
17718.54877599996
 31
0.0
  0
LINE
  5
7A5F
  8
0-1
  6
CONTINUOUS
 62
     3
 10
12945.08196550001
 20
14292.323215999981
 30
0.0
 11
12945.08196550001
 21
17122.820576999969
 31
0.0
  0
LINE
  5
7A60
  8
0-1
  6
CONTINUOUS
 62
     3
 10
12945.08196550001
 20
14213.322608999961
 30
0.0
 11
12945.08196550001
 21
14202.323413999949
 31
0.0
  0
LINE
  5
7A61
  8
0-1
  6
CONTINUOUS
 62
     3
 10
12945.08196550001
 20
14292.323215999981
 30
0.0
 11
12945.08196550001
 21
15313.821895999979
 31
0.0
  0
LINE
  5
7A62
  8
0-1
  6
CONTINUOUS
 62
     3
 10
14879.082598499999
 20
16964.082340721881
 30
0.0
 11
14879.082598499999
 21
20290.819916999972
 31
0.0
  0
LINE
  5
7A63
  8
0-1
  6
CONTINUOUS
 62
     3
 10
14879.082598499999
 20
20290.819916999972
 30
0.0
 11
14897.08236150001
 21
20290.819916999972
 31
0.0
  0
LINE
  5
7A64
  8
0-1
  6
CONTINUOUS
 62
     3
 10
14897.08236150001
 20
20303.320575999991
 30
0.0
 11
14897.08236150001
 21
20268.320707999981
 31
0.0
  0
LINE
  5
7A65
  8
0-1
  6
CONTINUOUS
 62
     3
 10
14823.582836500011
 20
20273.32097199998
 30
0.0
 11
14823.582836500011
 21
20303.320575999991
 31
0.0
  0
LINE
  5
7A66
  8
0-1
  6
CONTINUOUS
 62
     3
 10
14879.082598499999
 20
20268.320707999981
 30
0.0
 11
14828.5831005
 21
20268.320707999981
 31
0.0
  0
LINE
  5
7A67
  8
0-1
  6
CONTINUOUS
 62
     3
 10
14828.5831005
 20
20308.322819999968
 30
0.0
 11
14892.082097500001
 21
20308.322819999968
 31
0.0
  0
LINE
  5
7A68
  8
0-1
  6
CONTINUOUS
 62
     3
 10
9609.083311500015
 20
19897.580631999961
 30
0.0
 11
9609.083311500015
 21
20290.819916999972
 31
0.0
  0
LINE
  5
7A69
  8
0-1
  6
CONTINUOUS
 62
     3
 10
9664.5810945000121
 20
20273.32097199998
 30
0.0
 11
9664.5810945000121
 21
20303.320575999991
 31
0.0
  0
LINE
  5
7A6A
  8
0-1
  6
CONTINUOUS
 62
     3
 10
9591.0825595000188
 20
20303.320575999991
 30
0.0
 11
9591.0825595000188
 21
20268.320707999981
 31
0.0
  0
LINE
  5
7A6B
  8
0-1
  6
CONTINUOUS
 62
     3
 10
9659.5818205000123
 20
20308.322819999968
 30
0.0
 11
9596.0818335000222
 21
20308.322819999968
 31
0.0
  0
LINE
  5
7A6C
  8
0-1
  6
CONTINUOUS
 62
     3
 10
9609.083311500015
 20
20290.819916999972
 30
0.0
 11
9591.0825595000188
 21
20290.819916999972
 31
0.0
  0
LINE
  5
7A6D
  8
0-1
  6
CONTINUOUS
 62
     3
 10
9609.083311500015
 20
20268.320707999981
 30
0.0
 11
9659.5818205000123
 21
20268.320707999981
 31
0.0
  0
LINE
  5
7A6E
  8
0-1
  6
CONTINUOUS
 62
     3
 10
12562.8794875
 20
18402.234691999969
 30
0.0
 11
9442.8869295000168
 21
19983.339315999969
 31
0.0
  0
LINE
  5
7A6F
  8
0-1
  6
CONTINUOUS
 62
     3
 10
14761.5813445
 20
14089.32259599998
 30
0.0
 11
14761.5813445
 21
20250.318965999981
 31
0.0
  0
LINE
  5
7A70
  8
0-1
  6
CONTINUOUS
 62
     3
 10
14897.08236150001
 20
14057.32169899998
 30
0.0
 11
14897.08236150001
 21
20298.320312999978
 31
0.0
  0
LINE
  5
7A71
  8
0-1
  6
CONTINUOUS
 62
     3
 10
14811.58196550001
 20
14213.322608999961
 30
0.0
 11
14811.58196550001
 21
16996.665747875391
 31
0.0
  0
LINE
  5
7A72
  8
0-1
  6
CONTINUOUS
 62
     3
 10
14854.081239499999
 20
14213.322608999961
 30
0.0
 11
14854.081239499999
 21
16975.19663844091
 31
0.0
  0
LINE
  5
7A73
  8
0-1
  6
CONTINUOUS
 62
     3
 10
12997.581767500011
 20
17944.700855999981
 30
0.0
 11
12997.581767500011
 21
20250.318965999981
 31
0.0
  0
LINE
  5
7A74
  8
0-1
  6
CONTINUOUS
 62
     3
 10
13034.582928500011
 20
17857.415962999981
 30
0.0
 11
13034.582928500011
 21
20250.318965999981
 31
0.0
  0
LINE
  5
7A75
  8
0-1
  6
CONTINUOUS
 62
     3
 10
13197.58242750002
 20
17600.41110699996
 30
0.0
 11
13197.58242750002
 21
20250.318965999981
 31
0.0
  0
LINE
  5
7A76
  8
0-1
  6
CONTINUOUS
 62
     3
 10
13234.58061950001
 20
17643.788297999959
 30
0.0
 11
13234.58061950001
 21
20250.318965999981
 31
0.0
  0
LINE
  5
7A77
  8
0-1
  6
CONTINUOUS
 62
     3
 10
11234.58193950002
 20
19080.508603999981
 30
0.0
 11
11234.58193950002
 21
20250.318965999981
 31
0.0
  0
LINE
  5
7A78
  8
0-1
  6
CONTINUOUS
 62
     3
 10
11197.581767500011
 20
19099.260583999989
 30
0.0
 11
11197.581767500011
 21
20250.318965999981
 31
0.0
  0
LINE
  5
7A79
  8
0-1
  6
CONTINUOUS
 62
     3
 10
11034.58226950001
 20
19181.879750999949
 30
0.0
 11
11034.58226950001
 21
20250.318965999981
 31
0.0
  0
LINE
  5
7A7A
  8
0-1
  6
CONTINUOUS
 62
     3
 10
12834.58127950002
 20
18334.216453999961
 30
0.0
 11
12834.58127950002
 21
20250.318965999981
 31
0.0
  0
LINE
  5
7A7B
  8
0-1
  6
CONTINUOUS
 62
     3
 10
12797.58308750001
 20
18421.497386999981
 30
0.0
 11
12797.58308750001
 21
20250.318965999981
 31
0.0
  0
LINE
  5
7A7C
  8
0-1
  6
CONTINUOUS
 62
     3
 10
12634.58160950001
 20
18486.30088699995
 30
0.0
 11
12634.58160950001
 21
20250.318965999981
 31
0.0
  0
LINE
  5
7A7D
  8
0-1
  6
CONTINUOUS
 62
     3
 10
12597.581437500019
 20
18442.91973699996
 30
0.0
 11
12597.581437500019
 21
20250.318965999981
 31
0.0
  0
LINE
  5
7A7E
  8
0-1
  6
CONTINUOUS
 62
     3
 10
12434.582928500011
 20
18467.26385599995
 30
0.0
 11
12434.582928500011
 21
20250.318965999981
 31
0.0
  0
LINE
  5
7A7F
  8
0-1
  6
CONTINUOUS
 62
     3
 10
12397.58176750002
 20
18486.01979499996
 30
0.0
 11
12397.58176750002
 21
20250.318965999981
 31
0.0
  0
LINE
  5
7A80
  8
0-1
  6
CONTINUOUS
 62
     3
 10
12234.58127950002
 20
18568.638961999961
 30
0.0
 11
12234.58127950002
 21
20250.318965999981
 31
0.0
  0
LINE
  5
7A81
  8
0-1
  6
CONTINUOUS
 62
     3
 10
12197.58308750001
 20
18587.394900999981
 30
0.0
 11
12197.58308750001
 21
20250.318965999981
 31
0.0
  0
LINE
  5
7A82
  8
0-1
  6
CONTINUOUS
 62
     3
 10
12034.58160950001
 20
18670.01406799996
 30
0.0
 11
12034.58160950001
 21
20250.318965999981
 31
0.0
  0
LINE
  5
7A83
  8
0-1
  6
CONTINUOUS
 62
     3
 10
11997.581437500019
 20
18688.766046999961
 30
0.0
 11
11997.581437500019
 21
20250.318965999981
 31
0.0
  0
LINE
  5
7A84
  8
0-1
  6
CONTINUOUS
 62
     3
 10
11834.581939500011
 20
18771.38521399998
 30
0.0
 11
11834.581939500011
 21
20250.318965999981
 31
0.0
  0
LINE
  5
7A85
  8
0-1
  6
CONTINUOUS
 62
     3
 10
11797.581767500011
 20
18795.139225999981
 30
0.0
 11
11797.581767500011
 21
20250.318965999981
 31
0.0
  0
LINE
  5
7A86
  8
0-1
  6
CONTINUOUS
 62
     3
 10
11634.5812795
 20
18877.758392999978
 30
0.0
 11
11634.5812795
 21
20250.318965999981
 31
0.0
  0
LINE
  5
7A87
  8
0-1
  6
CONTINUOUS
 62
     3
 10
11597.58209750001
 20
18896.514331999992
 30
0.0
 11
11597.58209750001
 21
20250.318965999981
 31
0.0
  0
LINE
  5
7A88
  8
0-1
  6
CONTINUOUS
 62
     3
 10
11434.58160950001
 20
18979.133498999981
 30
0.0
 11
11434.58160950001
 21
20250.318965999981
 31
0.0
  0
LINE
  5
7A89
  8
0-1
  6
CONTINUOUS
 62
     3
 10
11397.58143750001
 20
18997.889436999991
 30
0.0
 11
11397.58143750001
 21
20250.318965999981
 31
0.0
  0
LINE
  5
7A8A
  8
0-1
  6
CONTINUOUS
 62
     3
 10
10997.58209750001
 20
19200.635688999992
 30
0.0
 11
10997.58209750001
 21
20250.318965999981
 31
0.0
  0
LINE
  5
7A8B
  8
0-1
  6
CONTINUOUS
 62
     3
 10
10834.58061950002
 20
19283.254855999981
 30
0.0
 11
10834.58061950002
 21
20250.318965999981
 31
0.0
  0
LINE
  5
7A8C
  8
0-1
  6
CONTINUOUS
 62
     3
 10
10797.58242750002
 20
19302.010794999991
 30
0.0
 11
10797.58242750002
 21
20250.318965999981
 31
0.0
  0
LINE
  5
7A8D
  8
0-1
  6
CONTINUOUS
 62
     3
 10
9634.0817015000212
 20
14213.322608999961
 30
0.0
 11
9634.0817015000212
 21
19886.42802499999
 31
0.0
  0
LINE
  5
7A8E
  8
0-1
  6
CONTINUOUS
 62
     3
 10
9676.5819655000087
 20
14213.322608999961
 30
0.0
 11
9676.5819655000087
 21
19864.886903999992
 31
0.0
  0
LINE
  5
7A8F
  8
0-1
  6
CONTINUOUS
 62
     3
 10
15253.36596724867
 20
16773.492310137521
 30
0.0
 11
13323.71042350001
 21
17748.28510399998
 31
0.0
  0
LINE
  5
7A90
  8
0-1
  6
CONTINUOUS
 62
     3
 10
9591.0825595000188
 20
14089.32259599998
 30
0.0
 11
14897.08236150001
 21
14089.32259599998
 31
0.0
  0
LINE
  5
7A91
  8
0-1
  6
CONTINUOUS
 62
     3
 10
9591.0825595000188
 20
14057.32169899998
 30
0.0
 11
14897.08236150001
 21
14057.32169899998
 31
0.0
  0
LINE
  5
7A92
  8
0-1
  6
CONTINUOUS
 62
     3
 10
9676.5819655000087
 20
14292.323215999981
 30
0.0
 11
14811.58196550001
 21
14292.323215999981
 31
0.0
  0
LINE
  5
7A93
  8
0-1
  6
CONTINUOUS
 62
     3
 10
9634.0817015000212
 20
14213.322608999961
 30
0.0
 11
14854.081239499999
 21
14213.322608999961
 31
0.0
  0
LINE
  5
7A94
  8
0-1
  6
CONTINUOUS
 62
     3
 10
9676.5819655000087
 20
17122.820576999969
 30
0.0
 11
14557.68984950001
 21
17122.820576999969
 31
0.0
  0
LINE
  5
7A95
  8
0-1
  6
CONTINUOUS
 62
     3
 10
13161.473039500021
 20
17558.077122999959
 30
0.0
 11
12725.11687150002
 21
18592.44267299995
 31
0.0
  0
LINE
  5
7A96
  8
0-1
  6
CONTINUOUS
 62
     3
 10
13161.473039500021
 20
17558.077122999959
 30
0.0
 11
13323.71042350001
 21
17748.28510399998
 31
0.0
  0
LINE
  5
7A97
  8
0-1
  6
CONTINUOUS
 62
     3
 10
12562.8794875
 20
18402.234691999969
 30
0.0
 11
12725.11687150002
 21
18592.44267299995
 31
0.0
  0
LINE
  5
7A98
  8
0-1
  6
CONTINUOUS
 62
     3
 10
10634.58193950002
 20
19384.629961999992
 30
0.0
 11
10634.58193950002
 21
20250.318965999981
 31
0.0
  0
LINE
  5
7A99
  8
0-1
  6
CONTINUOUS
 62
     3
 10
10597.58077750001
 20
19403.381941999982
 30
0.0
 11
10597.58077750001
 21
20250.318965999981
 31
0.0
  0
LINE
  5
7A9A
  8
0-1
  6
CONTINUOUS
 62
     3
 10
10434.58226950001
 20
19486.00110899995
 30
0.0
 11
10434.58226950001
 21
20250.318965999981
 31
0.0
  0
LINE
  5
7A9B
  8
0-1
  6
CONTINUOUS
 62
     3
 10
10397.58209750001
 20
19504.755067999991
 30
0.0
 11
10397.58209750001
 21
20250.318965999981
 31
0.0
  0
LINE
  5
7A9C
  8
0-1
  6
CONTINUOUS
 62
     3
 10
10022.0811995
 20
19689.76285399995
 30
0.0
 11
10022.0811995
 21
20250.318965999981
 31
0.0
  0
LINE
  5
7A9D
  8
0-1
  6
CONTINUOUS
 62
     3
 10
9985.0830075000122
 20
19708.518791999992
 30
0.0
 11
9985.0830075000122
 21
20250.318965999981
 31
0.0
  0
LINE
  5
7A9E
  8
0-1
  6
CONTINUOUS
 62
     3
 10
9822.0825195000143
 20
19791.137958999981
 30
0.0
 11
9822.0825195000143
 21
20250.318965999981
 31
0.0
  0
LINE
  5
7A9F
  8
0-1
  6
CONTINUOUS
 62
     3
 10
9785.0813585000178
 20
19809.889938999961
 30
0.0
 11
9785.0813585000178
 21
20250.318965999981
 31
0.0
  0
LINE
  5
7AA0
  8
0-1
  6
CONTINUOUS
 62
     3
 10
9591.0825595000188
 20
14057.32169899998
 30
0.0
 11
9591.0825595000188
 21
20298.320312999978
 31
0.0
  0
LINE
  5
7AA1
  8
0-1
  6
CONTINUOUS
 62
     3
 10
9726.5825855000185
 20
14089.32259599998
 30
0.0
 11
9726.5825855000185
 21
20250.318965999981
 31
0.0
  0
LINE
  5
7AA2
  8
0-1
  6
CONTINUOUS
 62
     3
 10
9676.5819655000087
 20
17201.821183999949
 30
0.0
 11
14401.832453500019
 21
17201.821183999949
 31
0.0
  0
LINE
  5
7AA3
  8
0-1
  6
CONTINUOUS
 62
     3
 10
10197.58242750002
 20
19606.13017299999
 30
0.0
 11
10197.58242750002
 21
20250.318965999981
 31
0.0
  0
LINE
  5
7AA4
  8
0-1
  6
CONTINUOUS
 62
     3
 10
10234.58061950001
 20
19587.374234999981
 30
0.0
 11
10234.58061950001
 21
20250.318965999981
 31
0.0
  0
LINE
  5
7AA5
  8
0-6
  6
CONTINUOUS
 62
     6
 10
15783.88388100002
 20
21183.986617999999
 30
0.0
 11
17458.882232000011
 21
21183.986617999999
 31
0.0
  0
LINE
  5
7AA6
  8
0-6
  6
CONTINUOUS
 62
     6
 10
15004.98983800001
 20
20423.641653999988
 30
0.0
 11
15783.88388100002
 21
21183.986617999999
 31
0.0
  0
LINE
  5
7AA7
  8
0-6
  6
CONTINUOUS
 62
     6
 10
14985.769703000011
 20
20442.126398
 30
0.0
 11
14894.082361000021
 21
20308.32084
 31
0.0
  0
LINE
  5
7AA8
  8
0-6
  6
CONTINUOUS
 62
     6
 10
14894.082361000021
 20
20308.32084
 30
0.0
 11
15024.20898400001
 21
20405.158888999991
 31
0.0
  0
LINE
  5
7AA9
  8
0-6
  6
CONTINUOUS
 62
     6
 10
14894.082361000021
 20
20308.32084
 30
0.0
 11
14985.769703000011
 21
20442.126398
 31
0.0
  0
LINE
  5
7AAA
  8
0-6
  6
CONTINUOUS
 62
     6
 10
14985.769703000011
 20
20442.126398
 30
0.0
 11
15024.20898400001
 21
20405.158888999991
 31
0.0
  0
LINE
  5
7AAB
  8
0-6
  6
CONTINUOUS
 62
     6
 10
15024.20898400001
 20
20405.158888999991
 30
0.0
 11
14894.082361000021
 21
20308.32084
 31
0.0
  0
LINE
  5
7AAC
  8
0-6
  6
CONTINUOUS
 62
     6
 10
15024.20898400001
 20
20405.158888999991
 30
0.0
 11
14985.769703000011
 21
20442.126398
 31
0.0
  0
TEXT
  5
7AAD
  8
0-6
  6
CONTINUOUS
 62
     7
 10
15863.88315600002
 20
21263.984902
 30
0.0
 40
160.0
  1
鼻隠しコーナー後
 72
     4
 11
16610.54982266669
 21
21343.984902
 31
0.0
  0
LINE
  5
7AAE
  8
0-6
  6
CONTINUOUS
 62
     6
 10
10269.206168816951
 20
20538.319125000002
 30
0.0
 11
11069.206828816939
 21
20538.319125000002
 31
0.0
  0
LINE
  5
7AAF
  8
0-6
  6
CONTINUOUS
 62
     6
 10
11363.13366581694
 20
20131.821024999968
 30
0.0
 11
11069.206828816939
 21
20538.319125000002
 31
0.0
  0
LINE
  5
7AB0
  8
0-6
  6
CONTINUOUS
 62
     6
 10
11256.437613816939
 20
20253.996911999991
 30
0.0
 11
11363.13366581694
 21
20131.821024999968
 31
0.0
  0
LINE
  5
7AB1
  8
0-6
  6
CONTINUOUS
 62
     6
 10
11363.13366581694
 20
20131.821024999968
 30
0.0
 11
11301.82995481694
 21
20281.999181999989
 31
0.0
  0
LINE
  5
7AB2
  8
0-6
  6
CONTINUOUS
 62
     6
 10
11363.13366581694
 20
20131.821024999968
 30
0.0
 11
11256.437613816939
 21
20253.996911999991
 31
0.0
  0
LINE
  5
7AB3
  8
0-6
  6
CONTINUOUS
 62
     6
 10
11256.437613816939
 20
20253.996911999991
 30
0.0
 11
11301.82995481694
 21
20281.999181999989
 31
0.0
  0
LINE
  5
7AB4
  8
0-6
  6
CONTINUOUS
 62
     6
 10
11301.82995481694
 20
20281.999181999989
 30
0.0
 11
11363.13366581694
 21
20131.821024999968
 31
0.0
  0
LINE
  5
7AB5
  8
0-6
  6
CONTINUOUS
 62
     6
 10
11301.82995481694
 20
20281.999181999989
 30
0.0
 11
11256.437613816939
 21
20253.996911999991
 31
0.0
  0
TEXT
  5
7AB6
  8
0-6
  6
CONTINUOUS
 62
     7
 10
10349.20643281694
 20
20618.319388999971
 30
0.0
 40
160.0
  1
桁（後）
 72
     4
 11
10669.20643281694
 21
20698.319388999971
 31
0.0
  0
LINE
  5
7AB7
  8
0-6
  6
CONTINUOUS
 62
     6
 10
11800.61212684038
 20
17355.649572999959
 30
0.0
 11
11739.461828840351
 21
17517.417810999959
 31
0.0
  0
LINE
  5
7AB8
  8
0-6
  6
CONTINUOUS
 62
     6
 10
10938.89106784037
 20
17517.417810999959
 30
0.0
 11
11739.461828840351
 21
17517.417810999959
 31
0.0
  0
LINE
  5
7AB9
  8
0-6
  6
CONTINUOUS
 62
     6
 10
11826.248871840369
 20
17362.983688999971
 30
0.0
 11
11844.61484584037
 21
17201.821183999949
 31
0.0
  0
LINE
  5
7ABA
  8
0-6
  6
CONTINUOUS
 62
     6
 10
11844.61484584037
 20
17201.821183999949
 30
0.0
 11
11774.973401840371
 21
17348.317435999961
 31
0.0
  0
LINE
  5
7ABB
  8
0-6
  6
CONTINUOUS
 62
     6
 10
11844.61484584037
 20
17201.821183999949
 30
0.0
 11
11826.248871840369
 21
17362.983688999971
 31
0.0
  0
LINE
  5
7ABC
  8
0-6
  6
CONTINUOUS
 62
     6
 10
11826.248871840369
 20
17362.983688999971
 30
0.0
 11
11774.973401840371
 21
17348.317435999961
 31
0.0
  0
LINE
  5
7ABD
  8
0-6
  6
CONTINUOUS
 62
     6
 10
11774.973401840371
 20
17348.317435999961
 30
0.0
 11
11844.61484584037
 21
17201.821183999949
 31
0.0
  0
LINE
  5
7ABE
  8
0-6
  6
CONTINUOUS
 62
     6
 10
11774.973401840371
 20
17348.317435999961
 30
0.0
 11
11826.248871840369
 21
17362.983688999971
 31
0.0
  0
TEXT
  5
7ABF
  8
0-6
  6
CONTINUOUS
 62
     7
 10
11019.46143284035
 20
17597.41807499995
 30
0.0
 40
160.0
  1
桁（中）
 72
     4
 11
11339.46143284035
 21
17677.41807499995
 31
0.0
  0
TEXT
  5
7AC0
  8
0-5
  6
CONTINUOUS
 62
     7
 10
10942.42041702558
 20
16625.053149968109
 30
0.0
 40
160.0
  1
ブレース
 72
     4
 11
11305.08708369225
 21
16710.386483301441
 31
0.0
  0
LINE
  5
7AC1
  8
0-5
  6
CONTINUOUS
 62
     6
 10
10775.220380025579
 20
16424.753582968111
 30
0.0
 11
10738.355805025591
 21
16463.294809968102
 31
0.0
  0
LINE
  5
7AC2
  8
0-5
  6
CONTINUOUS
 62
     6
 10
10775.220380025579
 20
16424.753582968111
 30
0.0
 11
10641.16045302559
 21
16333.436410968119
 31
0.0
  0
LINE
  5
7AC3
  8
0-5
  6
CONTINUOUS
 62
     6
 10
10738.355805025591
 20
16463.294809968102
 30
0.0
 11
10775.220380025579
 21
16424.753582968111
 31
0.0
  0
LINE
  5
7AC4
  8
0-5
  6
CONTINUOUS
 62
     6
 10
10641.16045302559
 20
16333.436410968119
 30
0.0
 11
10738.355805025591
 21
16463.294809968102
 31
0.0
  0
LINE
  5
7AC5
  8
0-5
  6
CONTINUOUS
 62
     6
 10
10641.16045302559
 20
16333.436410968119
 30
0.0
 11
10775.220380025579
 21
16424.753582968111
 31
0.0
  0
LINE
  5
7AC6
  8
0-5
  6
CONTINUOUS
 62
     6
 10
10738.355805025591
 20
16463.294809968102
 30
0.0
 11
10641.16045302559
 21
16333.436410968119
 31
0.0
  0
LINE
  5
7AC7
  8
0-5
  6
CONTINUOUS
 62
     6
 10
10862.42015302557
 20
16545.052885968111
 30
0.0
 11
11742.422066025591
 21
16545.052885968111
 31
0.0
  0
LINE
  5
7AC8
  8
0-5
  6
CONTINUOUS
 62
     6
 10
10756.787103025579
 20
16444.022216968111
 30
0.0
 11
10862.42015302557
 21
16545.052885968111
 31
0.0
  0
LINE
  5
7AC9
  8
0-6
  6
CONTINUOUS
 62
     6
 10
12888.081728500019
 20
15359.25844514496
 30
0.0
 11
12622.89453250001
 21
15728.217944144961
 31
0.0
  0
LINE
  5
7ACA
  8
0-6
  6
CONTINUOUS
 62
     6
 10
12376.65528750002
 20
15728.217944144961
 30
0.0
 11
12622.89453250001
 21
15728.217944144961
 31
0.0
  0
LINE
  5
7ACB
  8
0-6
  6
CONTINUOUS
 62
     6
 10
12815.70360150001
 20
15504.421491144971
 30
0.0
 11
12888.081728500019
 21
15359.25844514496
 31
0.0
  0
LINE
  5
7ACC
  8
0-6
  6
CONTINUOUS
 62
     6
 10
12888.081728500019
 20
15359.25844514496
 30
0.0
 11
12772.536239500019
 21
15473.099569144981
 31
0.0
  0
LINE
  5
7ACD
  8
0-6
  6
CONTINUOUS
 62
     6
 10
12888.081728500019
 20
15359.25844514496
 30
0.0
 11
12815.70360150001
 21
15504.421491144971
 31
0.0
  0
LINE
  5
7ACE
  8
0-6
  6
CONTINUOUS
 62
     6
 10
12815.70360150001
 20
15504.421491144971
 30
0.0
 11
12772.536239500019
 21
15473.099569144981
 31
0.0
  0
LINE
  5
7ACF
  8
0-6
  6
CONTINUOUS
 62
     6
 10
12772.536239500019
 20
15473.099569144981
 30
0.0
 11
12888.081728500019
 21
15359.25844514496
 31
0.0
  0
LINE
  5
7AD0
  8
0-6
  6
CONTINUOUS
 62
     6
 10
12772.536239500019
 20
15473.099569144981
 30
0.0
 11
12815.70360150001
 21
15504.421491144971
 31
0.0
  0
TEXT
  5
7AD1
  8
0-6
  6
CONTINUOUS
 62
     7
 10
12392.896248500019
 20
15808.21622814496
 30
0.0
 40
160.0
  1
梁
 72
     4
 11
12467.562915166691
 21
15888.21622814496
 31
0.0
  0
LINE
  5
7AD2
  8
0-2
  6
CONTINUOUS
 62
     3
 10
9664.5810945000121
 20
20298.318332999981
 30
0.0
 11
14823.582836500011
 21
20298.318332999981
 31
0.0
  0
LINE
  5
7AD3
  8
0-2
  6
CONTINUOUS
 62
     3
 10
9609.083311500015
 20
20250.318965999981
 30
0.0
 11
14879.082598499999
 21
20250.318965999981
 31
0.0
  0
TEXT
  5
7AD4
  8
0-5
  6
CONTINUOUS
 62
     7
 10
13449.480509400109
 20
21361.351689090079
 30
0.0
 40
160.0
  1
鼻隠し後
 72
     4
 11
13812.147176066779
 21
21441.351689090079
 31
0.0
  0
LINE
  5
7AD5
  8
0-5
  6
CONTINUOUS
 62
     6
 10
13085.36463342822
 20
20441.870602697301
 30
0.0
 11
13034.726507453081
 21
20458.606442484212
 31
0.0
  0
LINE
  5
7AD6
  8
0-5
  6
CONTINUOUS
 62
     6
 10
13085.36463342822
 20
20441.870602697301
 30
0.0
 11
13009.83961558239
 21
20298.318332999981
 31
0.0
  0
LINE
  5
7AD7
  8
0-5
  6
CONTINUOUS
 62
     6
 10
13034.726507453081
 20
20458.606442484212
 30
0.0
 11
13085.36463342822
 21
20441.870602697301
 31
0.0
  0
LINE
  5
7AD8
  8
0-5
  6
CONTINUOUS
 62
     6
 10
13009.83961558239
 20
20298.318332999981
 30
0.0
 11
13034.726507453081
 21
20458.606442484212
 31
0.0
  0
LINE
  5
7AD9
  8
0-5
  6
CONTINUOUS
 62
     6
 10
13009.83961558239
 20
20298.318332999981
 30
0.0
 11
13085.36463342822
 21
20441.870602697301
 31
0.0
  0
LINE
  5
7ADA
  8
0-5
  6
CONTINUOUS
 62
     6
 10
13034.726507453081
 20
20458.606442484212
 30
0.0
 11
13009.83961558239
 21
20298.318332999981
 31
0.0
  0
LINE
  5
7ADB
  8
0-5
  6
CONTINUOUS
 62
     6
 10
13373.845890858631
 20
21281.35538409009
 30
0.0
 11
14275.44922667488
 21
21281.35538409009
 31
0.0
  0
LINE
  5
7ADC
  8
0-5
  6
CONTINUOUS
 62
     6
 10
13236.937559931141
 20
20933.7314464015
 30
0.0
 11
13373.845890858631
 21
21281.35538409009
 31
0.0
  0
LINE
  5
7ADD
  8
0-5
  6
CONTINUOUS
 62
     6
 10
13060.04439268191
 20
20450.240396200868
 30
0.0
 11
13188.06544891802
 21
20800.145165873
 31
0.0
  0
LINE
  5
7AE0
  8
WAKUSEN-01
 10
868.00000000000193
 20
22484.000000000011
 30
0.0
 11
32764.000000000011
 21
22484.000000000011
 31
0.0
  0
LINE
  5
7AE3
  8
WAKUSEN-01
 10
20560.0
 20
2484.0
 30
0.0
 11
32764.0
 21
2484.0
 31
0.0
  0
LINE
  5
7AE4
  8
WAKUSEN-02
 10
20560.0
 20
1655.9999999999991
 30
0.0
 11
26868.0
 21
1655.9999999999991
 31
0.0
  0
TEXT
  5
7AE5
  8
WAKUMOJI-01
 10
20670.260259962761
 20
2125.9030093393221
 30
0.0
 40
240.0
  1
名　称
  7
WAKUMOJI
  0
TEXT
  5
7AE6
  8
WAKUMOJI-01
 10
20656.505485091919
 20
1319.12897497982
 30
0.0
 40
240.0
  1
機種名
  7
WAKUMOJI
  0
LINE
  5
7AE9
  8
YODOROGO
 10
29977.604341291921
 20
1995.7494964292871
 30
0.0
 11
29829.604341291921
 21
1995.7494964292871
 31
0.0
1001
AUTOCAD_POSTSCRIPT_FIGURE
1002
{
1000
PSFILL
1000
Grayscale
1000
Grayscale
1070
    25
1002
}
  0
LINE
  5
7AEA
  8
YODOROGO
 10
29829.604341291921
 20
1947.749496429288
 30
0.0
 11
29977.604341291921
 21
1947.749496429288
 31
0.0
1001
AUTOCAD_POSTSCRIPT_FIGURE
1002
{
1000
PSFILL
1000
Grayscale
1000
Grayscale
1070
    25
1002
}
  0
LINE
  5
7AEB
  8
YODOROGO
 10
29977.604341291921
 20
1907.7494964292871
 30
0.0
 11
29829.604341291921
 21
1907.7494964292871
 31
0.0
1001
AUTOCAD_POSTSCRIPT_FIGURE
1002
{
1000
PSFILL
1000
Grayscale
1000
Grayscale
1070
    25
1002
}
  0
LINE
  5
7AEC
  8
YODOROGO
 10
29829.604341291921
 20
1859.749496429288
 30
0.0
 11
29977.604341291921
 21
1859.749496429288
 31
0.0
1001
AUTOCAD_POSTSCRIPT_FIGURE
1002
{
1000
PSFILL
1000
Grayscale
1000
Grayscale
1070
    25
1002
}
  0
LINE
  5
7AED
  8
YODOROGO
 10
29977.604341291921
 20
1819.7494964292871
 30
0.0
 11
29829.604341291921
 21
1819.7494964292871
 31
0.0
1001
AUTOCAD_POSTSCRIPT_FIGURE
1002
{
1000
PSFILL
1000
Grayscale
1000
Grayscale
1070
    25
1002
}
  0
LINE
  5
7AEE
  8
YODOROGO
 10
29921.60434129191
 20
1707.749496429288
 30
0.0
 11
29977.604341291921
 21
1707.749496429288
 31
0.0
1001
AUTOCAD_POSTSCRIPT_FIGURE
1002
{
1000
PSFILL
1000
Grayscale
1000
Grayscale
1070
    25
1002
}
  0
LINE
  5
7AEF
  8
YODOROGO
 10
29737.604341291921
 20
1427.749496429288
 30
0.0
 11
29937.604341291932
 21
1481.3393349155101
 31
0.0
  0
LINE
  5
7AF0
  8
YODOROGO
 10
29949.60434129191
 20
1707.749496429288
 30
0.0
 11
29885.604341291921
 21
1707.749496429288
 31
0.0
  0
ARC
  5
7AF1
  8
YODOROGO
 10
30254.34774982791
 20
1807.864609233261
 30
0.0
 40
381.88686420564721
 50
213.96111677667841
 51
264.47872074317792
  0
ARC
  5
7AF2
  8
YODOROGO
 10
30254.347749827921
 20
1807.864609233302
 30
0.0
 40
381.8868642056816
 50
208.14114420486601
 51
212.9210361185994
  0
LINE
  5
7AF3
  8
YODOROGO
 10
29771.409872985321
 20
1556.807661346234
 30
0.0
 11
29933.78413250855
 21
1600.3157130570869
 31
0.0
  0
LINE
  5
7AF4
  8
YODOROGO
 10
29737.604341291921
 20
1427.749496429288
 30
0.0
 11
29937.604341291932
 21
1481.3393349155101
 31
0.0
  0
LINE
  5
7AF5
  8
YODOROGO
 10
29949.60434129191
 20
1707.749496429288
 30
0.0
 11
29885.604341291921
 21
1707.749496429288
 31
0.0
  0
ARC
  5
7AF6
  8
YODOROGO
 10
30254.34774982791
 20
1807.864609233261
 30
0.0
 40
381.88686420564721
 50
213.96111677667841
 51
264.47872074317792
  0
LINE
  5
7AF7
  8
YODOROGO
 10
28793.60434129191
 20
1819.7494964292871
 30
0.0
 11
28433.60434129191
 21
1819.7494964292871
 31
0.0
  0
LINE
  5
7AF8
  8
YODOROGO
 10
28513.60434129191
 20
1427.749496429288
 30
0.0
 11
28793.60434129191
 21
1427.749496429288
 31
0.0
  0
LINE
  5
7AF9
  8
YODOROGO
 10
28729.604341291921
 20
1923.7494964292871
 30
0.0
 11
28497.60434129191
 21
1923.7494964292871
 31
0.0
  0
LINE
  5
7AFA
  8
YODOROGO
 10
28585.604341291921
 20
2027.749496429288
 30
0.0
 11
28657.604341291921
 21
2027.749496429288
 31
0.0
  0
LINE
  5
7AFB
  8
YODOROGO
 10
28433.60434129191
 20
1707.749496429288
 30
0.0
 11
28433.60434129191
 21
1507.749496429288
 31
0.0
  0
LINE
  5
7AFC
  8
YODOROGO
 10
28497.60434129191
 20
1563.7494964292871
 30
0.0
 11
28497.60434129191
 21
1707.749496429288
 31
0.0
  0
LINE
  5
7AFD
  8
YODOROGO
 10
28585.604341291921
 20
1747.74949642929
 30
0.0
 11
28585.604341291921
 21
1547.749496429288
 31
0.0
  0
LINE
  5
7AFE
  8
YODOROGO
 10
27857.604341291921
 20
1683.749496429288
 30
0.0
 11
27777.604341291921
 21
1619.9724140445701
 31
0.0
  0
LINE
  5
7AFF
  8
YODOROGO
 10
27937.604341291921
 20
1619.9724140445701
 30
0.0
 11
27857.604341291921
 21
1683.749496429288
 31
0.0
  0
LINE
  5
7B00
  8
YODOROGO
 10
27857.604341291921
 20
1707.749496429288
 30
0.0
 11
27937.604341291921
 21
1643.9724140445701
 31
0.0
  0
LINE
  5
7B01
  8
YODOROGO
 10
27777.604341291921
 20
1643.9724140445701
 30
0.0
 11
27857.604341291921
 21
1707.749496429288
 31
0.0
  0
LINE
  5
7B02
  8
YODOROGO
 10
28040.913204016892
 20
1659.749496429288
 30
0.0
 11
28040.913204016892
 21
1683.7494964292871
 31
0.0
  0
LINE
  5
7B03
  8
YODOROGO
 10
27977.604341291921
 20
1683.7494964292871
 30
0.0
 11
27977.604341291921
 21
1667.749496429285
 31
0.0
  0
LINE
  5
7B04
  8
YODOROGO
 10
28098.135520230931
 20
1707.749496429288
 30
0.0
 11
28098.135520230931
 21
1655.5036372746561
 31
0.0
1001
AUTOCAD_POSTSCRIPT_FIGURE
1002
{
1000
PSFILL
1000
Grayscale
1000
Grayscale
1070
   100
1002
}
  0
LINE
  5
7B05
  8
YODOROGO
 10
28082.135520230921
 20
1655.5036372746561
 30
0.0
 11
28082.135520230921
 21
1707.749496429288
 31
0.0
1001
AUTOCAD_POSTSCRIPT_FIGURE
1002
{
1000
PSFILL
1000
Grayscale
1000
Grayscale
1070
   100
1002
}
  0
LINE
  5
7B06
  8
YODOROGO
 10
27809.604341291921
 20
1608.771904043258
 30
0.0
 11
27809.604341291921
 21
1632.771904043258
 31
0.0
  0
LINE
  5
7B07
  8
YODOROGO
 10
27905.604341291921
 20
1608.771904043258
 30
0.0
 11
27809.604341291921
 21
1608.771904043258
 31
0.0
  0
LINE
  5
7B08
  8
YODOROGO
 10
27905.604341291921
 20
1632.771904043258
 30
0.0
 11
27905.604341291921
 21
1608.771904043258
 31
0.0
  0
LINE
  5
7B09
  8
YODOROGO
 10
27809.604341291921
 20
1632.771904043258
 30
0.0
 11
27905.604341291921
 21
1632.771904043258
 31
0.0
  0
LINE
  5
7B0A
  8
YODOROGO
 10
27824.509588915738
 20
1568.5028573704751
 30
0.0
 11
27785.604341291921
 21
1475.7494964292871
 31
0.0
1001
AUTOCAD_POSTSCRIPT_FIGURE
1002
{
1000
PSFILL
1000
Grayscale
1000
Grayscale
1070
   100
1002
}
  0
LINE
  5
7B0B
  8
YODOROGO
 10
27777.604341291921
 20
1568.5028573704751
 30
0.0
 11
27824.509588915738
 21
1568.5028573704751
 31
0.0
1001
AUTOCAD_POSTSCRIPT_FIGURE
1002
{
1000
PSFILL
1000
Grayscale
1000
Grayscale
1070
   100
1002
}
  0
LINE
  5
7B0C
  8
YODOROGO
 10
27777.604341291921
 20
1588.5028573704751
 30
0.0
 11
27777.604341291921
 21
1568.5028573704751
 31
0.0
1001
AUTOCAD_POSTSCRIPT_FIGURE
1002
{
1000
PSFILL
1000
Grayscale
1000
Grayscale
1070
   100
1002
}
  0
LINE
  5
7B0D
  8
YODOROGO
 10
27937.604341291921
 20
1588.5028573704751
 30
0.0
 11
27777.604341291921
 21
1588.5028573704751
 31
0.0
1001
AUTOCAD_POSTSCRIPT_FIGURE
1002
{
1000
PSFILL
1000
Grayscale
1000
Grayscale
1070
   100
1002
}
  0
LINE
  5
7B0E
  8
YODOROGO
 10
27937.604341291921
 20
1568.5028573704751
 30
0.0
 11
27937.604341291921
 21
1588.5028573704751
 31
0.0
1001
AUTOCAD_POSTSCRIPT_FIGURE
1002
{
1000
PSFILL
1000
Grayscale
1000
Grayscale
1070
   100
1002
}
  0
LINE
  5
7B0F
  8
YODOROGO
 10
27844.509588915738
 20
1568.5028573704751
 30
0.0
 11
27937.604341291921
 21
1568.5028573704751
 31
0.0
1001
AUTOCAD_POSTSCRIPT_FIGURE
1002
{
1000
PSFILL
1000
Grayscale
1000
Grayscale
1070
   100
1002
}
  0
LINE
  5
7B10
  8
YODOROGO
 10
27815.546718284771
 20
1495.7494964292871
 30
0.0
 11
27844.509588915738
 21
1568.5028573704751
 31
0.0
1001
AUTOCAD_POSTSCRIPT_FIGURE
1002
{
1000
PSFILL
1000
Grayscale
1000
Grayscale
1070
   100
1002
}
  0
LINE
  5
7B11
  8
YODOROGO
 10
27902.054790808648
 20
1495.7494964292871
 30
0.0
 11
27815.546718284771
 21
1495.7494964292871
 31
0.0
1001
AUTOCAD_POSTSCRIPT_FIGURE
1002
{
1000
PSFILL
1000
Grayscale
1000
Grayscale
1070
   100
1002
}
  0
LINE
  5
7B12
  8
YODOROGO
 10
27885.065004790951
 20
1536.2338106976929
 30
0.0
 11
27902.054790808648
 21
1495.7494964292871
 31
0.0
1001
AUTOCAD_POSTSCRIPT_FIGURE
1002
{
1000
PSFILL
1000
Grayscale
1000
Grayscale
1070
   100
1002
}
  0
LINE
  5
7B13
  8
YODOROGO
 10
27901.065004790951
 20
1536.2338106976929
 30
0.0
 11
27885.065004790951
 21
1536.2338106976929
 31
0.0
1001
AUTOCAD_POSTSCRIPT_FIGURE
1002
{
1000
PSFILL
1000
Grayscale
1000
Grayscale
1070
   100
1002
}
  0
LINE
  5
7B14
  8
YODOROGO
 10
27929.604341291921
 20
1475.7494964292871
 30
0.0
 11
27901.065004790951
 21
1536.2338106976929
 31
0.0
1001
AUTOCAD_POSTSCRIPT_FIGURE
1002
{
1000
PSFILL
1000
Grayscale
1000
Grayscale
1070
   100
1002
}
  0
LINE
  5
7B15
  8
YODOROGO
 10
27785.604341291921
 20
1475.7494964292871
 30
0.0
 11
27929.604341291921
 21
1475.7494964292871
 31
0.0
1001
AUTOCAD_POSTSCRIPT_FIGURE
1002
{
1000
PSFILL
1000
Grayscale
1000
Grayscale
1070
   100
1002
}
  0
LINE
  5
7B16
  8
YODOROGO
 10
27777.604341291921
 20
1619.9724140445701
 30
0.0
 11
27777.604341291921
 21
1643.9724140445701
 31
0.0
  0
LINE
  5
7B17
  8
YODOROGO
 10
27937.604341291921
 20
1643.9724140445701
 30
0.0
 11
27937.604341291921
 21
1619.9724140445701
 31
0.0
  0
ARC
  5
7B18
  8
YODOROGO
 10
28225.940442146959
 20
1600.877765325326
 30
0.0
 40
175.9999999999998
 50
280.3644312771313
 51
3.5414836592180561
  0
ARC
  5
7B19
  8
YODOROGO
 10
28235.756030759301
 20
1633.5978069619041
 30
0.0
 40
111.9999999999982
 50
281.24905825041549
 51
348.75094174958321
  0
LINE
  5
7B1A
  8
YODOROGO
 10
28257.604341291921
 20
1523.7494964292871
 30
0.0
 11
28257.604341291921
 21
1427.749496429288
 31
0.0
  0
LINE
  5
7B1B
  8
YODOROGO
 10
28020.088903736909
 20
1610.650565061914
 30
0.0
 11
28040.913204016892
 21
1659.749496429288
 31
0.0
  0
LINE
  5
7B1C
  8
YODOROGO
 10
28041.604341291921
 20
1583.120489948401
 30
0.0
 11
28020.088903736909
 21
1610.650565061914
 31
0.0
  0
LINE
  5
7B1D
  8
YODOROGO
 10
28041.604341291921
 20
1563.120489948398
 30
0.0
 11
28041.604341291921
 21
1583.120489948401
 31
0.0
  0
LINE
  5
7B1E
  8
YODOROGO
 10
28017.604341291921
 20
1585.2370637495301
 30
0.0
 11
28041.604341291921
 21
1563.120489948398
 31
0.0
  0
LINE
  5
7B1F
  8
YODOROGO
 10
28017.604341291921
 20
1475.7494964292871
 30
0.0
 11
28017.604341291921
 21
1585.2370637495301
 31
0.0
  0
LINE
  5
7B20
  8
YODOROGO
 10
28001.604341291921
 20
1475.7494964292871
 30
0.0
 11
28017.604341291921
 21
1475.7494964292871
 31
0.0
  0
LINE
  5
7B21
  8
YODOROGO
 10
28001.604341291921
 20
1580.0053496897469
 30
0.0
 11
28001.604341291921
 21
1475.7494964292871
 31
0.0
  0
LINE
  5
7B22
  8
YODOROGO
 10
27977.604341291921
 20
1532.7680790334291
 30
0.0
 11
28001.604341291921
 21
1580.0053496897469
 31
0.0
  0
LINE
  5
7B23
  8
YODOROGO
 10
27977.604341291921
 20
1556.76807903343
 30
0.0
 11
27977.604341291921
 21
1532.7680790334291
 31
0.0
  0
LINE
  5
7B24
  8
YODOROGO
 10
28025.828774291349
 20
1667.749496429285
 30
0.0
 11
27977.604341291921
 21
1556.76807903343
 31
0.0
  0
LINE
  5
7B25
  8
YODOROGO
 10
27977.604341291921
 20
1667.749496429285
 30
0.0
 11
28025.828774291349
 21
1667.749496429285
 31
0.0
  0
LINE
  5
7B26
  8
YODOROGO
 10
28050.135520230899
 20
1655.5036372746561
 30
0.0
 11
28082.135520230921
 21
1655.5036372746561
 31
0.0
1001
AUTOCAD_POSTSCRIPT_FIGURE
1002
{
1000
PSFILL
1000
Grayscale
1000
Grayscale
1070
   100
1002
}
  0
LINE
  5
7B27
  8
YODOROGO
 10
28050.135520230899
 20
1631.5036372746561
 30
0.0
 11
28050.135520230899
 21
1655.5036372746561
 31
0.0
1001
AUTOCAD_POSTSCRIPT_FIGURE
1002
{
1000
PSFILL
1000
Grayscale
1000
Grayscale
1070
   100
1002
}
  0
LINE
  5
7B28
  8
YODOROGO
 10
28082.135520230921
 20
1631.5036372746561
 30
0.0
 11
28050.135520230899
 21
1631.5036372746561
 31
0.0
1001
AUTOCAD_POSTSCRIPT_FIGURE
1002
{
1000
PSFILL
1000
Grayscale
1000
Grayscale
1070
   100
1002
}
  0
LINE
  5
7B29
  8
YODOROGO
 10
28082.135520230921
 20
1499.749496429288
 30
0.0
 11
28082.135520230921
 21
1631.5036372746561
 31
0.0
1001
AUTOCAD_POSTSCRIPT_FIGURE
1002
{
1000
PSFILL
1000
Grayscale
1000
Grayscale
1070
   100
1002
}
  0
LINE
  5
7B2A
  8
YODOROGO
 10
28050.135520230921
 20
1499.749496429288
 30
0.0
 11
28082.135520230921
 21
1499.749496429288
 31
0.0
1001
AUTOCAD_POSTSCRIPT_FIGURE
1002
{
1000
PSFILL
1000
Grayscale
1000
Grayscale
1070
   100
1002
}
  0
LINE
  5
7B2B
  8
YODOROGO
 10
28050.135520230921
 20
1475.7494964292871
 30
0.0
 11
28050.135520230921
 21
1499.749496429288
 31
0.0
1001
AUTOCAD_POSTSCRIPT_FIGURE
1002
{
1000
PSFILL
1000
Grayscale
1000
Grayscale
1070
   100
1002
}
  0
LINE
  5
7B2C
  8
YODOROGO
 10
28137.604341291921
 20
1475.7494964292871
 30
0.0
 11
28050.135520230921
 21
1475.7494964292871
 31
0.0
1001
AUTOCAD_POSTSCRIPT_FIGURE
1002
{
1000
PSFILL
1000
Grayscale
1000
Grayscale
1070
   100
1002
}
  0
LINE
  5
7B2D
  8
YODOROGO
 10
28137.604341291921
 20
1499.749496429288
 30
0.0
 11
28137.604341291921
 21
1475.7494964292871
 31
0.0
1001
AUTOCAD_POSTSCRIPT_FIGURE
1002
{
1000
PSFILL
1000
Grayscale
1000
Grayscale
1070
   100
1002
}
  0
LINE
  5
7B2E
  8
YODOROGO
 10
28098.135520230931
 20
1499.749496429288
 30
0.0
 11
28137.604341291921
 21
1499.749496429288
 31
0.0
1001
AUTOCAD_POSTSCRIPT_FIGURE
1002
{
1000
PSFILL
1000
Grayscale
1000
Grayscale
1070
   100
1002
}
  0
LINE
  5
7B2F
  8
YODOROGO
 10
28098.135520230931
 20
1631.5036372746561
 30
0.0
 11
28098.135520230931
 21
1499.749496429288
 31
0.0
1001
AUTOCAD_POSTSCRIPT_FIGURE
1002
{
1000
PSFILL
1000
Grayscale
1000
Grayscale
1070
   100
1002
}
  0
LINE
  5
7B30
  8
YODOROGO
 10
28137.604341291921
 20
1631.5036372746561
 30
0.0
 11
28098.135520230931
 21
1631.5036372746561
 31
0.0
1001
AUTOCAD_POSTSCRIPT_FIGURE
1002
{
1000
PSFILL
1000
Grayscale
1000
Grayscale
1070
   100
1002
}
  0
LINE
  5
7B31
  8
YODOROGO
 10
28137.604341291921
 20
1655.5036372746561
 30
0.0
 11
28137.604341291921
 21
1631.5036372746561
 31
0.0
1001
AUTOCAD_POSTSCRIPT_FIGURE
1002
{
1000
PSFILL
1000
Grayscale
1000
Grayscale
1070
   100
1002
}
  0
LINE
  5
7B32
  8
YODOROGO
 10
28098.135520230931
 20
1655.5036372746561
 30
0.0
 11
28137.604341291921
 21
1655.5036372746561
 31
0.0
1001
AUTOCAD_POSTSCRIPT_FIGURE
1002
{
1000
PSFILL
1000
Grayscale
1000
Grayscale
1070
   100
1002
}
  0
LINE
  5
7B33
  8
YODOROGO
 10
28401.60434129191
 20
1667.749496429288
 30
0.0
 11
28345.604341291921
 21
1667.749496429288
 31
0.0
  0
LINE
  5
7B34
  8
YODOROGO
 10
28401.60434129191
 20
1611.749496429288
 30
0.0
 11
28401.60434129191
 21
1667.749496429288
 31
0.0
  0
LINE
  5
7B35
  8
YODOROGO
 10
28345.604341291921
 20
1667.749496429288
 30
0.0
 11
28345.604341291921
 21
1611.749496429288
 31
0.0
  0
ARC
  5
7B36
  8
YODOROGO
 10
28513.60434129191
 20
1507.749496429288
 30
0.0
 40
80.0
 50
180.0
 51
270.0
  0
ARC
  5
7B37
  8
YODOROGO
 10
28537.604341291921
 20
1563.7494964292871
 30
0.0
 40
40.0
 50
180.0
 51
270.0
  0
LINE
  5
7B38
  8
YODOROGO
 10
28561.604341291932
 20
1523.7494964292871
 30
0.0
 11
28537.604341291921
 21
1523.7494964292871
 31
0.0
  0
ARC
  5
7B39
  8
YODOROGO
 10
28561.604341291932
 20
1547.749496429285
 30
0.0
 40
23.999999999996358
 50
270.0
 51
0.0000000000054281
  0
LINE
  5
7B3A
  8
YODOROGO
 10
27801.604341291921
 20
1890.786580793706
 30
0.0
 11
27777.604341291921
 21
1843.776747951672
 31
0.0
1001
AUTOCAD_POSTSCRIPT_FIGURE
1002
{
1000
PSFILL
1000
Grayscale
1000
Grayscale
1070
   100
1002
}
  0
LINE
  5
7B3B
  8
YODOROGO
 10
27801.604341291921
 20
1747.749496429286
 30
0.0
 11
27801.604341291921
 21
1890.786580793706
 31
0.0
1001
AUTOCAD_POSTSCRIPT_FIGURE
1002
{
1000
PSFILL
1000
Grayscale
1000
Grayscale
1070
   100
1002
}
  0
LINE
  5
7B3C
  8
YODOROGO
 10
27817.604341291921
 20
1747.749496429286
 30
0.0
 11
27801.604341291921
 21
1747.749496429286
 31
0.0
1001
AUTOCAD_POSTSCRIPT_FIGURE
1002
{
1000
PSFILL
1000
Grayscale
1000
Grayscale
1070
   100
1002
}
  0
LINE
  5
7B3D
  8
YODOROGO
 10
27817.604341291921
 20
1893.7713320852661
 30
0.0
 11
27817.604341291921
 21
1747.749496429286
 31
0.0
1001
AUTOCAD_POSTSCRIPT_FIGURE
1002
{
1000
PSFILL
1000
Grayscale
1000
Grayscale
1070
   100
1002
}
  0
LINE
  5
7B3E
  8
YODOROGO
 10
27841.604341291921
 20
1867.6547582841361
 30
0.0
 11
27817.604341291921
 21
1893.7713320852661
 31
0.0
1001
AUTOCAD_POSTSCRIPT_FIGURE
1002
{
1000
PSFILL
1000
Grayscale
1000
Grayscale
1070
   100
1002
}
  0
LINE
  5
7B3F
  8
YODOROGO
 10
27841.604341291921
 20
1883.6547582841361
 30
0.0
 11
27841.604341291921
 21
1867.6547582841361
 31
0.0
1001
AUTOCAD_POSTSCRIPT_FIGURE
1002
{
1000
PSFILL
1000
Grayscale
1000
Grayscale
1070
   100
1002
}
  0
LINE
  5
7B40
  8
YODOROGO
 10
27817.604341291921
 20
1917.7713320852649
 30
0.0
 11
27841.604341291921
 21
1883.6547582841361
 31
0.0
1001
AUTOCAD_POSTSCRIPT_FIGURE
1002
{
1000
PSFILL
1000
Grayscale
1000
Grayscale
1070
   100
1002
}
  0
LINE
  5
7B41
  8
YODOROGO
 10
27817.604341291921
 20
1939.749496429288
 30
0.0
 11
27817.604341291921
 21
1917.7713320852649
 31
0.0
1001
AUTOCAD_POSTSCRIPT_FIGURE
1002
{
1000
PSFILL
1000
Grayscale
1000
Grayscale
1070
   100
1002
}
  0
LINE
  5
7B42
  8
YODOROGO
 10
27889.604341291921
 20
1939.749496429288
 30
0.0
 11
27817.604341291921
 21
1939.749496429288
 31
0.0
1001
AUTOCAD_POSTSCRIPT_FIGURE
1002
{
1000
PSFILL
1000
Grayscale
1000
Grayscale
1070
   100
1002
}
  0
LINE
  5
7B43
  8
YODOROGO
 10
27889.604341291921
 20
1900.5683489363
 30
0.0
 11
27889.604341291921
 21
1939.749496429288
 31
0.0
1001
AUTOCAD_POSTSCRIPT_FIGURE
1002
{
1000
PSFILL
1000
Grayscale
1000
Grayscale
1070
   100
1002
}
  0
LINE
  5
7B44
  8
YODOROGO
 10
27857.604341291921
 20
1900.5683489363
 30
0.0
 11
27889.604341291921
 21
1900.5683489363
 31
0.0
1001
AUTOCAD_POSTSCRIPT_FIGURE
1002
{
1000
PSFILL
1000
Grayscale
1000
Grayscale
1070
   100
1002
}
  0
LINE
  5
7B45
  8
YODOROGO
 10
27857.604341291921
 20
1884.568348936298
 30
0.0
 11
27857.604341291921
 21
1900.5683489363
 31
0.0
1001
AUTOCAD_POSTSCRIPT_FIGURE
1002
{
1000
PSFILL
1000
Grayscale
1000
Grayscale
1070
   100
1002
}
  0
LINE
  5
7B46
  8
YODOROGO
 10
27889.604341291921
 20
1884.568348936298
 30
0.0
 11
27857.604341291921
 21
1884.568348936298
 31
0.0
1001
AUTOCAD_POSTSCRIPT_FIGURE
1002
{
1000
PSFILL
1000
Grayscale
1000
Grayscale
1070
   100
1002
}
  0
LINE
  5
7B47
  8
YODOROGO
 10
27889.604341291921
 20
1879.6191779644371
 30
0.0
 11
27889.604341291921
 21
1884.568348936298
 31
0.0
1001
AUTOCAD_POSTSCRIPT_FIGURE
1002
{
1000
PSFILL
1000
Grayscale
1000
Grayscale
1070
   100
1002
}
  0
LINE
  5
7B48
  8
YODOROGO
 10
27849.604341291921
 20
1812.974981161417
 30
0.0
 11
27889.604341291921
 21
1879.6191779644371
 31
0.0
1001
AUTOCAD_POSTSCRIPT_FIGURE
1002
{
1000
PSFILL
1000
Grayscale
1000
Grayscale
1070
   100
1002
}
  0
LINE
  5
7B49
  8
YODOROGO
 10
27849.604341291921
 20
1796.9749811614161
 30
0.0
 11
27849.604341291921
 21
1812.974981161417
 31
0.0
1001
AUTOCAD_POSTSCRIPT_FIGURE
1002
{
1000
PSFILL
1000
Grayscale
1000
Grayscale
1070
   100
1002
}
  0
LINE
  5
7B4A
  8
YODOROGO
 10
27889.604341291921
 20
1847.6191779644359
 30
0.0
 11
27849.604341291921
 21
1796.9749811614161
 31
0.0
1001
AUTOCAD_POSTSCRIPT_FIGURE
1002
{
1000
PSFILL
1000
Grayscale
1000
Grayscale
1070
   100
1002
}
  0
LINE
  5
7B4B
  8
YODOROGO
 10
27889.604341291921
 20
1747.749496429286
 30
0.0
 11
27889.604341291921
 21
1847.6191779644359
 31
0.0
1001
AUTOCAD_POSTSCRIPT_FIGURE
1002
{
1000
PSFILL
1000
Grayscale
1000
Grayscale
1070
   100
1002
}
  0
LINE
  5
7B4C
  8
YODOROGO
 10
27905.604341291921
 20
1747.749496429286
 30
0.0
 11
27889.604341291921
 21
1747.749496429286
 31
0.0
1001
AUTOCAD_POSTSCRIPT_FIGURE
1002
{
1000
PSFILL
1000
Grayscale
1000
Grayscale
1070
   100
1002
}
  0
LINE
  5
7B4D
  8
YODOROGO
 10
27905.604341291921
 20
1849.409012158806
 30
0.0
 11
27905.604341291921
 21
1747.749496429286
 31
0.0
1001
AUTOCAD_POSTSCRIPT_FIGURE
1002
{
1000
PSFILL
1000
Grayscale
1000
Grayscale
1070
   100
1002
}
  0
LINE
  5
7B4E
  8
YODOROGO
 10
27937.604341291921
 20
1796.9749811614161
 30
0.0
 11
27905.604341291921
 21
1849.409012158806
 31
0.0
1001
AUTOCAD_POSTSCRIPT_FIGURE
1002
{
1000
PSFILL
1000
Grayscale
1000
Grayscale
1070
   100
1002
}
  0
LINE
  5
7B4F
  8
YODOROGO
 10
27937.604341291921
 20
1812.974981161417
 30
0.0
 11
27937.604341291921
 21
1796.9749811614161
 31
0.0
1001
AUTOCAD_POSTSCRIPT_FIGURE
1002
{
1000
PSFILL
1000
Grayscale
1000
Grayscale
1070
   100
1002
}
  0
LINE
  5
7B50
  8
YODOROGO
 10
27905.604341291921
 20
1881.4090121588081
 30
0.0
 11
27937.604341291921
 21
1812.974981161417
 31
0.0
1001
AUTOCAD_POSTSCRIPT_FIGURE
1002
{
1000
PSFILL
1000
Grayscale
1000
Grayscale
1070
   100
1002
}
  0
LINE
  5
7B51
  8
YODOROGO
 10
27905.604341291921
 20
1884.5683489363
 30
0.0
 11
27905.604341291921
 21
1881.4090121588081
 31
0.0
1001
AUTOCAD_POSTSCRIPT_FIGURE
1002
{
1000
PSFILL
1000
Grayscale
1000
Grayscale
1070
   100
1002
}
  0
LINE
  5
7B52
  8
YODOROGO
 10
27937.604341291921
 20
1884.568348936298
 30
0.0
 11
27905.604341291921
 21
1884.5683489363
 31
0.0
1001
AUTOCAD_POSTSCRIPT_FIGURE
1002
{
1000
PSFILL
1000
Grayscale
1000
Grayscale
1070
   100
1002
}
  0
LINE
  5
7B53
  8
YODOROGO
 10
27937.604341291921
 20
1900.5683489363
 30
0.0
 11
27937.604341291921
 21
1884.568348936298
 31
0.0
1001
AUTOCAD_POSTSCRIPT_FIGURE
1002
{
1000
PSFILL
1000
Grayscale
1000
Grayscale
1070
   100
1002
}
  0
LINE
  5
7B54
  8
YODOROGO
 10
27905.604341291921
 20
1900.5683489363
 30
0.0
 11
27937.604341291921
 21
1900.5683489363
 31
0.0
1001
AUTOCAD_POSTSCRIPT_FIGURE
1002
{
1000
PSFILL
1000
Grayscale
1000
Grayscale
1070
   100
1002
}
  0
LINE
  5
7B55
  8
YODOROGO
 10
27905.604341291921
 20
1939.749496429288
 30
0.0
 11
27905.604341291921
 21
1900.5683489363
 31
0.0
1001
AUTOCAD_POSTSCRIPT_FIGURE
1002
{
1000
PSFILL
1000
Grayscale
1000
Grayscale
1070
   100
1002
}
  0
LINE
  5
7B56
  8
YODOROGO
 10
27937.604341291921
 20
1939.749496429288
 30
0.0
 11
27905.604341291921
 21
1939.749496429288
 31
0.0
1001
AUTOCAD_POSTSCRIPT_FIGURE
1002
{
1000
PSFILL
1000
Grayscale
1000
Grayscale
1070
   100
1002
}
  0
LINE
  5
7B57
  8
YODOROGO
 10
27937.604341291921
 20
1955.7494964292871
 30
0.0
 11
27937.604341291921
 21
1939.749496429288
 31
0.0
1001
AUTOCAD_POSTSCRIPT_FIGURE
1002
{
1000
PSFILL
1000
Grayscale
1000
Grayscale
1070
   100
1002
}
  0
LINE
  5
7B58
  8
YODOROGO
 10
27905.604341291921
 20
1955.7494964292871
 30
0.0
 11
27937.604341291921
 21
1955.7494964292871
 31
0.0
1001
AUTOCAD_POSTSCRIPT_FIGURE
1002
{
1000
PSFILL
1000
Grayscale
1000
Grayscale
1070
   100
1002
}
  0
LINE
  5
7B59
  8
YODOROGO
 10
27905.604341291921
 20
1979.749496429288
 30
0.0
 11
27905.604341291921
 21
1955.7494964292871
 31
0.0
1001
AUTOCAD_POSTSCRIPT_FIGURE
1002
{
1000
PSFILL
1000
Grayscale
1000
Grayscale
1070
   100
1002
}
  0
LINE
  5
7B5A
  8
YODOROGO
 10
27889.604341291921
 20
1979.749496429288
 30
0.0
 11
27905.604341291921
 21
1979.749496429288
 31
0.0
1001
AUTOCAD_POSTSCRIPT_FIGURE
1002
{
1000
PSFILL
1000
Grayscale
1000
Grayscale
1070
   100
1002
}
  0
LINE
  5
7B5B
  8
YODOROGO
 10
27889.604341291921
 20
1955.7494964292871
 30
0.0
 11
27889.604341291921
 21
1979.749496429288
 31
0.0
1001
AUTOCAD_POSTSCRIPT_FIGURE
1002
{
1000
PSFILL
1000
Grayscale
1000
Grayscale
1070
   100
1002
}
  0
LINE
  5
7B5C
  8
YODOROGO
 10
27865.604341291921
 20
1955.7494964292871
 30
0.0
 11
27889.604341291921
 21
1955.7494964292871
 31
0.0
1001
AUTOCAD_POSTSCRIPT_FIGURE
1002
{
1000
PSFILL
1000
Grayscale
1000
Grayscale
1070
   100
1002
}
  0
LINE
  5
7B5D
  8
YODOROGO
 10
27865.604341291921
 20
1979.749496429288
 30
0.0
 11
27865.604341291921
 21
1955.7494964292871
 31
0.0
1001
AUTOCAD_POSTSCRIPT_FIGURE
1002
{
1000
PSFILL
1000
Grayscale
1000
Grayscale
1070
   100
1002
}
  0
LINE
  5
7B5E
  8
YODOROGO
 10
27849.604341291921
 20
1979.749496429288
 30
0.0
 11
27865.604341291921
 21
1979.749496429288
 31
0.0
1001
AUTOCAD_POSTSCRIPT_FIGURE
1002
{
1000
PSFILL
1000
Grayscale
1000
Grayscale
1070
   100
1002
}
  0
LINE
  5
7B5F
  8
YODOROGO
 10
27849.604341291921
 20
1955.7494964292871
 30
0.0
 11
27849.604341291921
 21
1979.749496429288
 31
0.0
1001
AUTOCAD_POSTSCRIPT_FIGURE
1002
{
1000
PSFILL
1000
Grayscale
1000
Grayscale
1070
   100
1002
}
  0
LINE
  5
7B60
  8
YODOROGO
 10
27817.604341291921
 20
1955.7494964292871
 30
0.0
 11
27849.604341291921
 21
1955.7494964292871
 31
0.0
1001
AUTOCAD_POSTSCRIPT_FIGURE
1002
{
1000
PSFILL
1000
Grayscale
1000
Grayscale
1070
   100
1002
}
  0
LINE
  5
7B61
  8
YODOROGO
 10
27817.604341291921
 20
1979.749496429288
 30
0.0
 11
27817.604341291921
 21
1955.7494964292871
 31
0.0
1001
AUTOCAD_POSTSCRIPT_FIGURE
1002
{
1000
PSFILL
1000
Grayscale
1000
Grayscale
1070
   100
1002
}
  0
LINE
  5
7B62
  8
YODOROGO
 10
27801.604341291921
 20
1979.749496429288
 30
0.0
 11
27817.604341291921
 21
1979.749496429288
 31
0.0
1001
AUTOCAD_POSTSCRIPT_FIGURE
1002
{
1000
PSFILL
1000
Grayscale
1000
Grayscale
1070
   100
1002
}
  0
LINE
  5
7B63
  8
YODOROGO
 10
27801.604341291921
 20
1955.7494964292871
 30
0.0
 11
27801.604341291921
 21
1979.749496429288
 31
0.0
1001
AUTOCAD_POSTSCRIPT_FIGURE
1002
{
1000
PSFILL
1000
Grayscale
1000
Grayscale
1070
   100
1002
}
  0
LINE
  5
7B64
  8
YODOROGO
 10
27777.604341291921
 20
1955.7494964292871
 30
0.0
 11
27801.604341291921
 21
1955.7494964292871
 31
0.0
1001
AUTOCAD_POSTSCRIPT_FIGURE
1002
{
1000
PSFILL
1000
Grayscale
1000
Grayscale
1070
   100
1002
}
  0
LINE
  5
7B65
  8
YODOROGO
 10
27777.604341291921
 20
1939.749496429288
 30
0.0
 11
27777.604341291921
 21
1955.7494964292871
 31
0.0
1001
AUTOCAD_POSTSCRIPT_FIGURE
1002
{
1000
PSFILL
1000
Grayscale
1000
Grayscale
1070
   100
1002
}
  0
LINE
  5
7B66
  8
YODOROGO
 10
27801.604341291921
 20
1939.749496429288
 30
0.0
 11
27777.604341291921
 21
1939.749496429288
 31
0.0
1001
AUTOCAD_POSTSCRIPT_FIGURE
1002
{
1000
PSFILL
1000
Grayscale
1000
Grayscale
1070
   100
1002
}
  0
LINE
  5
7B67
  8
YODOROGO
 10
27801.604341291921
 20
1914.7865807937051
 30
0.0
 11
27801.604341291921
 21
1939.749496429288
 31
0.0
1001
AUTOCAD_POSTSCRIPT_FIGURE
1002
{
1000
PSFILL
1000
Grayscale
1000
Grayscale
1070
   100
1002
}
  0
LINE
  5
7B68
  8
YODOROGO
 10
27777.604341291921
 20
1859.776747951671
 30
0.0
 11
27801.604341291921
 21
1914.7865807937051
 31
0.0
1001
AUTOCAD_POSTSCRIPT_FIGURE
1002
{
1000
PSFILL
1000
Grayscale
1000
Grayscale
1070
   100
1002
}
  0
LINE
  5
7B69
  8
YODOROGO
 10
27777.604341291921
 20
1843.776747951672
 30
0.0
 11
27777.604341291921
 21
1859.776747951671
 31
0.0
1001
AUTOCAD_POSTSCRIPT_FIGURE
1002
{
1000
PSFILL
1000
Grayscale
1000
Grayscale
1070
   100
1002
}
  0
LINE
  5
7B6A
  8
YODOROGO
 10
28257.604341291921
 20
1867.7494964292871
 30
0.0
 11
28401.60434129191
 21
1824.877625640306
 31
0.0
1001
AUTOCAD_POSTSCRIPT_FIGURE
1002
{
1000
PSFILL
1000
Grayscale
1000
Grayscale
1070
   100
1002
}
  0
LINE
  5
7B6B
  8
YODOROGO
 10
28401.60434129191
 20
1752.877625640306
 30
0.0
 11
28257.604341291921
 21
1795.7494964292871
 31
0.0
1001
AUTOCAD_POSTSCRIPT_FIGURE
1002
{
1000
PSFILL
1000
Grayscale
1000
Grayscale
1070
   100
1002
}
  0
LINE
  5
7B6C
  8
YODOROGO
 10
28401.60434129191
 20
1984.877625640306
 30
0.0
 11
28257.604341291921
 21
2027.749496429288
 31
0.0
1001
AUTOCAD_POSTSCRIPT_FIGURE
1002
{
1000
PSFILL
1000
Grayscale
1000
Grayscale
1070
   100
1002
}
  0
LINE
  5
7B6D
  8
YODOROGO
 10
28257.604341291921
 20
1959.749496429288
 30
0.0
 11
28401.60434129191
 21
1916.8776256403071
 31
0.0
1001
AUTOCAD_POSTSCRIPT_FIGURE
1002
{
1000
PSFILL
1000
Grayscale
1000
Grayscale
1070
   100
1002
}
  0
LINE
  5
7B6E
  8
YODOROGO
 10
28257.604341291921
 20
1795.7494964292871
 30
0.0
 11
28257.604341291921
 21
1867.7494964292871
 31
0.0
1001
AUTOCAD_POSTSCRIPT_FIGURE
1002
{
1000
PSFILL
1000
Grayscale
1000
Grayscale
1070
   100
1002
}
  0
LINE
  5
7B6F
  8
YODOROGO
 10
28257.604341291921
 20
2027.749496429288
 30
0.0
 11
28257.604341291921
 21
1959.749496429288
 31
0.0
1001
AUTOCAD_POSTSCRIPT_FIGURE
1002
{
1000
PSFILL
1000
Grayscale
1000
Grayscale
1070
   100
1002
}
  0
LINE
  5
7B70
  8
YODOROGO
 10
28080.236320206739
 20
1939.749496429288
 30
0.0
 11
28129.60434129191
 21
1747.749496429286
 31
0.0
1001
AUTOCAD_POSTSCRIPT_FIGURE
1002
{
1000
PSFILL
1000
Grayscale
1000
Grayscale
1070
   100
1002
}
  0
LINE
  5
7B71
  8
YODOROGO
 10
27977.604341291921
 20
1939.749496429288
 30
0.0
 11
28080.236320206739
 21
1939.749496429288
 31
0.0
1001
AUTOCAD_POSTSCRIPT_FIGURE
1002
{
1000
PSFILL
1000
Grayscale
1000
Grayscale
1070
   100
1002
}
  0
LINE
  5
7B72
  8
YODOROGO
 10
27977.604341291921
 20
1955.7494964292871
 30
0.0
 11
27977.604341291921
 21
1939.749496429288
 31
0.0
1001
AUTOCAD_POSTSCRIPT_FIGURE
1002
{
1000
PSFILL
1000
Grayscale
1000
Grayscale
1070
   100
1002
}
  0
LINE
  5
7B73
  8
YODOROGO
 10
28076.60687851991
 20
1955.7494964292871
 30
0.0
 11
27977.604341291921
 21
1955.7494964292871
 31
0.0
1001
AUTOCAD_POSTSCRIPT_FIGURE
1002
{
1000
PSFILL
1000
Grayscale
1000
Grayscale
1070
   100
1002
}
  0
LINE
  5
7B74
  8
YODOROGO
 10
28071.162715989711
 20
1979.749496429288
 30
0.0
 11
28076.60687851991
 21
1955.7494964292871
 31
0.0
1001
AUTOCAD_POSTSCRIPT_FIGURE
1002
{
1000
PSFILL
1000
Grayscale
1000
Grayscale
1070
   100
1002
}
  0
LINE
  5
7B75
  8
YODOROGO
 10
28091.162715989711
 20
1979.749496429288
 30
0.0
 11
28071.162715989711
 21
1979.749496429288
 31
0.0
1001
AUTOCAD_POSTSCRIPT_FIGURE
1002
{
1000
PSFILL
1000
Grayscale
1000
Grayscale
1070
   100
1002
}
  0
LINE
  5
7B76
  8
YODOROGO
 10
28095.806878519939
 20
1955.7494964292871
 30
0.0
 11
28091.162715989711
 21
1979.749496429288
 31
0.0
1001
AUTOCAD_POSTSCRIPT_FIGURE
1002
{
1000
PSFILL
1000
Grayscale
1000
Grayscale
1070
   100
1002
}
  0
LINE
  5
7B77
  8
YODOROGO
 10
28121.604341291921
 20
1955.7494964292871
 30
0.0
 11
28095.806878519939
 21
1955.7494964292871
 31
0.0
1001
AUTOCAD_POSTSCRIPT_FIGURE
1002
{
1000
PSFILL
1000
Grayscale
1000
Grayscale
1070
   100
1002
}
  0
LINE
  5
7B78
  8
YODOROGO
 10
28121.604341291921
 20
1979.749496429288
 30
0.0
 11
28121.604341291921
 21
1955.7494964292871
 31
0.0
1001
AUTOCAD_POSTSCRIPT_FIGURE
1002
{
1000
PSFILL
1000
Grayscale
1000
Grayscale
1070
   100
1002
}
  0
LINE
  5
7B79
  8
YODOROGO
 10
28137.604341291921
 20
1979.749496429288
 30
0.0
 11
28121.604341291921
 21
1979.749496429288
 31
0.0
1001
AUTOCAD_POSTSCRIPT_FIGURE
1002
{
1000
PSFILL
1000
Grayscale
1000
Grayscale
1070
   100
1002
}
  0
LINE
  5
7B7A
  8
YODOROGO
 10
28137.604341291921
 20
1955.7494964292871
 30
0.0
 11
28137.604341291921
 21
1979.749496429288
 31
0.0
1001
AUTOCAD_POSTSCRIPT_FIGURE
1002
{
1000
PSFILL
1000
Grayscale
1000
Grayscale
1070
   100
1002
}
  0
LINE
  5
7B7B
  8
YODOROGO
 10
28137.604341291921
 20
1939.749496429288
 30
0.0
 11
28137.604341291921
 21
1955.7494964292871
 31
0.0
1001
AUTOCAD_POSTSCRIPT_FIGURE
1002
{
1000
PSFILL
1000
Grayscale
1000
Grayscale
1070
   100
1002
}
  0
LINE
  5
7B7C
  8
YODOROGO
 10
28098.902986873411
 20
1939.749496429288
 30
0.0
 11
28137.604341291921
 21
1939.749496429288
 31
0.0
1001
AUTOCAD_POSTSCRIPT_FIGURE
1002
{
1000
PSFILL
1000
Grayscale
1000
Grayscale
1070
   100
1002
}
  0
LINE
  5
7B7D
  8
YODOROGO
 10
28137.604341291921
 20
1747.749496429286
 30
0.0
 11
28098.902986873411
 21
1939.749496429288
 31
0.0
1001
AUTOCAD_POSTSCRIPT_FIGURE
1002
{
1000
PSFILL
1000
Grayscale
1000
Grayscale
1070
   100
1002
}
  0
LINE
  5
7B7E
  8
YODOROGO
 10
28129.60434129191
 20
1747.749496429286
 30
0.0
 11
28137.604341291921
 21
1747.749496429286
 31
0.0
1001
AUTOCAD_POSTSCRIPT_FIGURE
1002
{
1000
PSFILL
1000
Grayscale
1000
Grayscale
1070
   100
1002
}
  0
LINE
  5
7B7F
  8
YODOROGO
 10
28078.06921993379
 20
1775.7407762987939
 30
0.0
 11
27977.604341291921
 21
1747.749496429286
 31
0.0
  0
LINE
  5
7B80
  8
YODOROGO
 10
28078.06921993379
 20
1798.6689795290731
 30
0.0
 11
28078.06921993379
 21
1775.7407762987939
 31
0.0
  0
LINE
  5
7B81
  8
YODOROGO
 10
28033.83678061287
 20
1786.816933133767
 30
0.0
 11
28078.06921993379
 21
1798.6689795290731
 31
0.0
  0
LINE
  5
7B82
  8
YODOROGO
 10
28033.83678061287
 20
1872.5683489362989
 30
0.0
 11
28033.83678061287
 21
1786.816933133767
 31
0.0
  0
LINE
  5
7B83
  8
YODOROGO
 10
28078.06921993379
 20
1872.5683489362989
 30
0.0
 11
28033.83678061287
 21
1872.5683489362989
 31
0.0
  0
LINE
  5
7B84
  8
YODOROGO
 10
28078.06921993379
 20
1892.568348936298
 30
0.0
 11
28078.06921993379
 21
1872.5683489362989
 31
0.0
  0
LINE
  5
7B85
  8
YODOROGO
 10
27977.604341291921
 20
1892.568348936298
 30
0.0
 11
28078.06921993379
 21
1892.568348936298
 31
0.0
  0
LINE
  5
7B86
  8
YODOROGO
 10
27977.604341291921
 20
1872.5683489362989
 30
0.0
 11
27977.604341291921
 21
1892.568348936298
 31
0.0
  0
LINE
  5
7B87
  8
YODOROGO
 10
28021.836780612852
 20
1872.5683489362989
 30
0.0
 11
27977.604341291921
 21
1872.5683489362989
 31
0.0
  0
LINE
  5
7B88
  8
YODOROGO
 10
28021.836780612852
 20
1784.673339594317
 30
0.0
 11
28021.836780612852
 21
1872.5683489362989
 31
0.0
  0
LINE
  5
7B89
  8
YODOROGO
 10
27977.604341291921
 20
1771.749496429286
 30
0.0
 11
28021.836780612852
 21
1784.673339594317
 31
0.0
  0
LINE
  5
7B8A
  8
YODOROGO
 10
27977.604341291921
 20
1747.749496429286
 30
0.0
 11
27977.604341291921
 21
1771.749496429286
 31
0.0
  0
LINE
  5
7B8B
  8
YODOROGO
 10
28001.604341291921
 20
1707.749496429288
 30
0.0
 11
28001.604341291921
 21
1683.7494964292871
 31
0.0
  0
LINE
  5
7B8C
  8
YODOROGO
 10
28017.604341291921
 20
1707.749496429288
 30
0.0
 11
28001.604341291921
 21
1707.749496429288
 31
0.0
  0
LINE
  5
7B8D
  8
YODOROGO
 10
28017.604341291921
 20
1683.7494964292871
 30
0.0
 11
28017.604341291921
 21
1707.749496429288
 31
0.0
  0
LINE
  5
7B8E
  8
YODOROGO
 10
28040.913204016892
 20
1683.7494964292871
 30
0.0
 11
28017.604341291921
 21
1683.7494964292871
 31
0.0
  0
LINE
  5
7B8F
  8
YODOROGO
 10
28001.604341291921
 20
1683.7494964292871
 30
0.0
 11
27977.604341291921
 21
1683.7494964292871
 31
0.0
  0
LINE
  5
7B90
  8
YODOROGO
 10
28082.135520230921
 20
1707.749496429288
 30
0.0
 11
28098.135520230931
 21
1707.749496429288
 31
0.0
1001
AUTOCAD_POSTSCRIPT_FIGURE
1002
{
1000
PSFILL
1000
Grayscale
1000
Grayscale
1070
   100
1002
}
  0
LINE
  5
7B91
  8
YODOROGO
 10
28401.60434129191
 20
1824.877625640306
 30
0.0
 11
28401.60434129191
 21
1752.877625640306
 31
0.0
1001
AUTOCAD_POSTSCRIPT_FIGURE
1002
{
1000
PSFILL
1000
Grayscale
1000
Grayscale
1070
   100
1002
}
  0
LINE
  5
7B92
  8
YODOROGO
 10
28401.60434129191
 20
1916.8776256403071
 30
0.0
 11
28401.60434129191
 21
1984.877625640306
 31
0.0
1001
AUTOCAD_POSTSCRIPT_FIGURE
1002
{
1000
PSFILL
1000
Grayscale
1000
Grayscale
1070
   100
1002
}
  0
LINE
  5
7B93
  8
YODOROGO
 10
28433.60434129191
 20
1819.7494964292871
 30
0.0
 11
28433.60434129191
 21
1747.74949642929
 31
0.0
  0
LINE
  5
7B94
  8
YODOROGO
 10
28497.60434129191
 20
1707.749496429288
 30
0.0
 11
28433.60434129191
 21
1707.749496429288
 31
0.0
  0
LINE
  5
7B95
  8
YODOROGO
 10
28433.60434129191
 20
1747.74949642929
 30
0.0
 11
28585.604341291921
 21
1747.74949642929
 31
0.0
  0
LINE
  5
7B96
  8
YODOROGO
 10
28497.60434129191
 20
1867.7494964292871
 30
0.0
 11
28433.60434129191
 21
1867.7494964292871
 31
0.0
  0
LINE
  5
7B97
  8
YODOROGO
 10
28497.60434129191
 20
1923.7494964292871
 30
0.0
 11
28497.60434129191
 21
1867.7494964292871
 31
0.0
  0
LINE
  5
7B98
  8
YODOROGO
 10
28585.604341291921
 20
1987.7494964292871
 30
0.0
 11
28585.604341291921
 21
2027.749496429288
 31
0.0
  0
LINE
  5
7B99
  8
YODOROGO
 10
28433.60434129191
 20
1987.7494964292871
 30
0.0
 11
28585.604341291921
 21
1987.7494964292871
 31
0.0
  0
LINE
  5
7B9A
  8
YODOROGO
 10
28433.60434129191
 20
1867.7494964292871
 30
0.0
 11
28433.60434129191
 21
1987.7494964292871
 31
0.0
  0
LINE
  5
7B9B
  8
YODOROGO
 10
29001.60434129191
 20
2027.749496429288
 30
0.0
 11
29001.60434129191
 21
1619.749496429288
 31
0.0
  0
LINE
  5
7B9C
  8
YODOROGO
 10
29073.604341291921
 20
1579.749496429288
 30
0.0
 11
29073.604341291921
 21
2027.749496429288
 31
0.0
  0
LINE
  5
7B9D
  8
YODOROGO
 10
29261.604341291921
 20
1491.749496429286
 30
0.0
 11
29261.604341291921
 21
2007.749496429288
 31
0.0
  0
LINE
  5
7B9E
  8
YODOROGO
 10
29197.604341291921
 20
2007.749496429288
 30
0.0
 11
29197.604341291921
 21
1491.749496429286
 31
0.0
  0
LINE
  5
7B9F
  8
YODOROGO
 10
29385.604341291921
 20
2027.749496429288
 30
0.0
 11
29385.604341291921
 21
1427.749496429288
 31
0.0
  0
LINE
  5
7BA0
  8
YODOROGO
 10
29457.604341291921
 20
1427.749496429288
 30
0.0
 11
29457.604341291921
 21
2027.749496429288
 31
0.0
  0
LINE
  5
7BA1
  8
YODOROGO
 10
28657.604341291921
 20
1667.749496429288
 30
0.0
 11
28657.604341291921
 21
1747.74949642929
 31
0.0
  0
LINE
  5
7BA2
  8
YODOROGO
 10
29885.604341291921
 20
1707.749496429288
 30
0.0
 11
29885.604341291921
 21
1667.749496429288
 31
0.0
  0
LINE
  5
7BA3
  8
YODOROGO
 10
29885.604341291921
 20
1707.749496429288
 30
0.0
 11
29885.604341291921
 21
1667.749496429288
 31
0.0
  0
ARC
  5
7BA4
  8
YODOROGO
 10
28906.911576186842
 20
1618.217864442272
 30
0.0
 40
94.705151178741644
 50
274.05244162907098
 51
0.9266642149310712
  0
ARC
  5
7BA5
  8
YODOROGO
 10
28909.186170719819
 20
1592.61072861044
 30
0.0
 40
164.92042356085511
 50
271.5351210653775
 51
355.52727750585052
  0
LINE
  5
7BA6
  8
YODOROGO
 10
28913.604341291921
 20
1523.7494964292871
 30
0.0
 11
28913.604341291921
 21
1427.749496429288
 31
0.0
  0
LINE
  5
7BA7
  8
YODOROGO
 10
28793.60434129191
 20
1667.749496429288
 30
0.0
 11
28657.604341291921
 21
1667.749496429288
 31
0.0
  0
LINE
  5
7BA8
  8
YODOROGO
 10
28793.60434129191
 20
1603.7494964292871
 30
0.0
 11
28793.60434129191
 21
1667.749496429288
 31
0.0
  0
LINE
  5
7BA9
  8
YODOROGO
 10
28657.604341291921
 20
1603.7494964292871
 30
0.0
 11
28793.60434129191
 21
1603.7494964292871
 31
0.0
  0
LINE
  5
7BAA
  8
YODOROGO
 10
28657.604341291921
 20
1523.7494964292871
 30
0.0
 11
28657.604341291921
 21
1603.7494964292871
 31
0.0
  0
LINE
  5
7BAB
  8
YODOROGO
 10
28793.60434129191
 20
1523.7494964292871
 30
0.0
 11
28657.604341291921
 21
1523.7494964292871
 31
0.0
  0
LINE
  5
7BAC
  8
YODOROGO
 10
28793.60434129191
 20
1427.749496429288
 30
0.0
 11
28793.60434129191
 21
1523.7494964292871
 31
0.0
  0
LINE
  5
7BAD
  8
YODOROGO
 10
29197.604341291921
 20
1491.749496429286
 30
0.0
 11
29261.604341291921
 21
1491.749496429286
 31
0.0
  0
LINE
  5
7BAE
  8
YODOROGO
 10
29385.604341291921
 20
1427.749496429288
 30
0.0
 11
29457.604341291921
 21
1427.749496429288
 31
0.0
  0
LINE
  5
7BAF
  8
YODOROGO
 10
29737.604341291921
 20
1528.4414521705639
 30
0.0
 11
29737.604341291921
 21
1427.749496429288
 31
0.0
  0
LINE
  5
7BB0
  8
YODOROGO
 10
29617.604341291921
 20
1427.749496429288
 30
0.0
 11
29737.604341291921
 21
1528.4414521705639
 31
0.0
  0
LINE
  5
7BB1
  8
YODOROGO
 10
29617.604341291921
 20
1547.749496429288
 30
0.0
 11
29617.604341291921
 21
1427.749496429288
 31
0.0
  0
LINE
  5
7BB2
  8
YODOROGO
 10
29712.94462869945
 20
1627.749496429288
 30
0.0
 11
29617.604341291921
 21
1547.749496429288
 31
0.0
  0
LINE
  5
7BB3
  8
YODOROGO
 10
29617.604341291921
 20
1627.749496429288
 30
0.0
 11
29712.94462869945
 21
1627.749496429288
 31
0.0
  0
LINE
  5
7BB4
  8
YODOROGO
 10
29617.604341291921
 20
1667.749496429288
 30
0.0
 11
29617.604341291921
 21
1627.749496429288
 31
0.0
  0
LINE
  5
7BB5
  8
YODOROGO
 10
29885.604341291921
 20
1667.749496429288
 30
0.0
 11
29617.604341291921
 21
1667.749496429288
 31
0.0
  0
LINE
  5
7BB6
  8
YODOROGO
 10
29917.604341291921
 20
1627.749496429288
 30
0.0
 11
29777.604341291921
 21
1627.749496429288
 31
0.0
  0
LINE
  5
7BB7
  8
YODOROGO
 10
29777.604341291921
 20
1562.0054374176559
 30
0.0
 11
29771.409872985321
 21
1556.807661346234
 31
0.0
  0
LINE
  5
7BB8
  8
YODOROGO
 10
29777.604341291921
 20
1627.749496429288
 30
0.0
 11
29777.604341291921
 21
1562.0054374176559
 31
0.0
  0
LINE
  5
7BB9
  8
YODOROGO
 10
29737.604341291921
 20
1528.4414521705639
 30
0.0
 11
29737.604341291921
 21
1427.749496429288
 31
0.0
  0
LINE
  5
7BBA
  8
YODOROGO
 10
29617.604341291921
 20
1427.749496429288
 30
0.0
 11
29737.604341291921
 21
1528.4414521705639
 31
0.0
  0
LINE
  5
7BBB
  8
YODOROGO
 10
29617.604341291921
 20
1547.749496429288
 30
0.0
 11
29617.604341291921
 21
1427.749496429288
 31
0.0
  0
LINE
  5
7BBC
  8
YODOROGO
 10
29712.94462869945
 20
1627.749496429288
 30
0.0
 11
29617.604341291921
 21
1547.749496429288
 31
0.0
  0
LINE
  5
7BBD
  8
YODOROGO
 10
29617.604341291921
 20
1627.749496429288
 30
0.0
 11
29712.94462869945
 21
1627.749496429288
 31
0.0
  0
LINE
  5
7BBE
  8
YODOROGO
 10
29617.604341291921
 20
1667.749496429288
 30
0.0
 11
29617.604341291921
 21
1627.749496429288
 31
0.0
  0
LINE
  5
7BBF
  8
YODOROGO
 10
29885.604341291921
 20
1667.749496429288
 30
0.0
 11
29617.604341291921
 21
1667.749496429288
 31
0.0
  0
LINE
  5
7BC0
  8
YODOROGO
 10
28793.60434129191
 20
1747.74949642929
 30
0.0
 11
28793.60434129191
 21
1819.7494964292871
 31
0.0
  0
LINE
  5
7BC1
  8
YODOROGO
 10
28657.604341291921
 20
1747.74949642929
 30
0.0
 11
28793.60434129191
 21
1747.74949642929
 31
0.0
  0
LINE
  5
7BC2
  8
YODOROGO
 10
28729.604341291921
 20
1867.7494964292871
 30
0.0
 11
28729.604341291921
 21
1923.7494964292871
 31
0.0
  0
LINE
  5
7BC3
  8
YODOROGO
 10
28793.60434129191
 20
1867.7494964292871
 30
0.0
 11
28729.604341291921
 21
1867.7494964292871
 31
0.0
  0
LINE
  5
7BC4
  8
YODOROGO
 10
28793.60434129191
 20
1947.749496429288
 30
0.0
 11
28793.60434129191
 21
1867.7494964292871
 31
0.0
  0
ARC
  5
7BC5
  8
YODOROGO
 10
28753.60434129191
 20
1947.749496429288
 30
0.0
 40
40.0
 50
0.0
 51
90.0
  0
LINE
  5
7BC6
  8
YODOROGO
 10
28657.604341291921
 20
1987.7494964292871
 30
0.0
 11
28753.60434129191
 21
1987.7494964292871
 31
0.0
  0
LINE
  5
7BC7
  8
YODOROGO
 10
28657.604341291921
 20
2027.749496429288
 30
0.0
 11
28657.604341291921
 21
1987.7494964292871
 31
0.0
  0
LINE
  5
7BC8
  8
YODOROGO
 10
29073.604341291921
 20
2027.749496429288
 30
0.0
 11
29001.60434129191
 21
2027.749496429288
 31
0.0
  0
LINE
  5
7BC9
  8
YODOROGO
 10
29261.604341291921
 20
2007.749496429288
 30
0.0
 11
29197.604341291921
 21
2007.749496429288
 31
0.0
  0
LINE
  5
7BCA
  8
YODOROGO
 10
29457.604341291921
 20
2027.749496429288
 30
0.0
 11
29385.604341291921
 21
2027.749496429288
 31
0.0
  0
LINE
  5
7BCB
  8
YODOROGO
 10
29673.604341291921
 20
1707.749496429288
 30
0.0
 11
29673.604341291921
 21
1771.7494964292871
 31
0.0
1001
AUTOCAD_POSTSCRIPT_FIGURE
1002
{
1000
PSFILL
1000
Grayscale
1000
Grayscale
1070
    25
1002
}
  0
LINE
  5
7BCC
  8
YODOROGO
 10
29617.604341291921
 20
1707.749496429288
 30
0.0
 11
29673.604341291921
 21
1707.749496429288
 31
0.0
1001
AUTOCAD_POSTSCRIPT_FIGURE
1002
{
1000
PSFILL
1000
Grayscale
1000
Grayscale
1070
    25
1002
}
  0
LINE
  5
7BCD
  8
YODOROGO
 10
29617.604341291921
 20
1819.7494964292871
 30
0.0
 11
29617.604341291921
 21
1707.749496429288
 31
0.0
1001
AUTOCAD_POSTSCRIPT_FIGURE
1002
{
1000
PSFILL
1000
Grayscale
1000
Grayscale
1070
    25
1002
}
  0
LINE
  5
7BCE
  8
YODOROGO
 10
29765.604341291921
 20
1819.7494964292871
 30
0.0
 11
29617.604341291921
 21
1819.7494964292871
 31
0.0
1001
AUTOCAD_POSTSCRIPT_FIGURE
1002
{
1000
PSFILL
1000
Grayscale
1000
Grayscale
1070
    25
1002
}
  0
LINE
  5
7BCF
  8
YODOROGO
 10
29765.604341291921
 20
1859.749496429288
 30
0.0
 11
29765.604341291921
 21
1819.7494964292871
 31
0.0
1001
AUTOCAD_POSTSCRIPT_FIGURE
1002
{
1000
PSFILL
1000
Grayscale
1000
Grayscale
1070
    25
1002
}
  0
LINE
  5
7BD0
  8
YODOROGO
 10
29617.604341291921
 20
1859.749496429288
 30
0.0
 11
29765.604341291921
 21
1859.749496429288
 31
0.0
1001
AUTOCAD_POSTSCRIPT_FIGURE
1002
{
1000
PSFILL
1000
Grayscale
1000
Grayscale
1070
    25
1002
}
  0
LINE
  5
7BD1
  8
YODOROGO
 10
29617.604341291921
 20
1907.7494964292871
 30
0.0
 11
29617.604341291921
 21
1859.749496429288
 31
0.0
1001
AUTOCAD_POSTSCRIPT_FIGURE
1002
{
1000
PSFILL
1000
Grayscale
1000
Grayscale
1070
    25
1002
}
  0
LINE
  5
7BD2
  8
YODOROGO
 10
29765.604341291921
 20
1907.7494964292871
 30
0.0
 11
29617.604341291921
 21
1907.7494964292871
 31
0.0
1001
AUTOCAD_POSTSCRIPT_FIGURE
1002
{
1000
PSFILL
1000
Grayscale
1000
Grayscale
1070
    25
1002
}
  0
LINE
  5
7BD3
  8
YODOROGO
 10
29765.604341291921
 20
1947.749496429288
 30
0.0
 11
29765.604341291921
 21
1907.7494964292871
 31
0.0
1001
AUTOCAD_POSTSCRIPT_FIGURE
1002
{
1000
PSFILL
1000
Grayscale
1000
Grayscale
1070
    25
1002
}
  0
LINE
  5
7BD4
  8
YODOROGO
 10
29617.604341291921
 20
1947.749496429288
 30
0.0
 11
29765.604341291921
 21
1947.749496429288
 31
0.0
1001
AUTOCAD_POSTSCRIPT_FIGURE
1002
{
1000
PSFILL
1000
Grayscale
1000
Grayscale
1070
    25
1002
}
  0
LINE
  5
7BD5
  8
YODOROGO
 10
29617.604341291921
 20
2027.749496429288
 30
0.0
 11
29617.604341291921
 21
1947.749496429288
 31
0.0
1001
AUTOCAD_POSTSCRIPT_FIGURE
1002
{
1000
PSFILL
1000
Grayscale
1000
Grayscale
1070
    25
1002
}
  0
LINE
  5
7BD6
  8
YODOROGO
 10
29665.604341291921
 20
2027.749496429288
 30
0.0
 11
29617.604341291921
 21
2027.749496429288
 31
0.0
1001
AUTOCAD_POSTSCRIPT_FIGURE
1002
{
1000
PSFILL
1000
Grayscale
1000
Grayscale
1070
    25
1002
}
  0
LINE
  5
7BD7
  8
YODOROGO
 10
29665.604341291921
 20
1995.7494964292871
 30
0.0
 11
29665.604341291921
 21
2027.749496429288
 31
0.0
1001
AUTOCAD_POSTSCRIPT_FIGURE
1002
{
1000
PSFILL
1000
Grayscale
1000
Grayscale
1070
    25
1002
}
  0
LINE
  5
7BD8
  8
YODOROGO
 10
29765.604341291921
 20
1995.7494964292871
 30
0.0
 11
29665.604341291921
 21
1995.7494964292871
 31
0.0
1001
AUTOCAD_POSTSCRIPT_FIGURE
1002
{
1000
PSFILL
1000
Grayscale
1000
Grayscale
1070
    25
1002
}
  0
LINE
  5
7BD9
  8
YODOROGO
 10
29765.604341291921
 20
2027.749496429288
 30
0.0
 11
29765.604341291921
 21
1995.7494964292871
 31
0.0
1001
AUTOCAD_POSTSCRIPT_FIGURE
1002
{
1000
PSFILL
1000
Grayscale
1000
Grayscale
1070
    25
1002
}
  0
LINE
  5
7BDA
  8
YODOROGO
 10
29829.604341291921
 20
2027.749496429288
 30
0.0
 11
29765.604341291921
 21
2027.749496429288
 31
0.0
1001
AUTOCAD_POSTSCRIPT_FIGURE
1002
{
1000
PSFILL
1000
Grayscale
1000
Grayscale
1070
    25
1002
}
  0
LINE
  5
7BDB
  8
YODOROGO
 10
29829.604341291921
 20
1995.7494964292871
 30
0.0
 11
29829.604341291921
 21
2027.749496429288
 31
0.0
1001
AUTOCAD_POSTSCRIPT_FIGURE
1002
{
1000
PSFILL
1000
Grayscale
1000
Grayscale
1070
    25
1002
}
  0
LINE
  5
7BDC
  8
YODOROGO
 10
29829.604341291921
 20
1907.7494964292871
 30
0.0
 11
29829.604341291921
 21
1947.749496429288
 31
0.0
1001
AUTOCAD_POSTSCRIPT_FIGURE
1002
{
1000
PSFILL
1000
Grayscale
1000
Grayscale
1070
    25
1002
}
  0
LINE
  5
7BDD
  8
YODOROGO
 10
29829.604341291921
 20
1819.7494964292871
 30
0.0
 11
29829.604341291921
 21
1859.749496429288
 31
0.0
1001
AUTOCAD_POSTSCRIPT_FIGURE
1002
{
1000
PSFILL
1000
Grayscale
1000
Grayscale
1070
    25
1002
}
  0
LINE
  5
7BDE
  8
YODOROGO
 10
29921.60434129191
 20
1771.7494964292871
 30
0.0
 11
29921.60434129191
 21
1707.749496429288
 31
0.0
1001
AUTOCAD_POSTSCRIPT_FIGURE
1002
{
1000
PSFILL
1000
Grayscale
1000
Grayscale
1070
    25
1002
}
  0
LINE
  5
7BDF
  8
YODOROGO
 10
29829.604341291921
 20
1771.7494964292871
 30
0.0
 11
29921.60434129191
 21
1771.7494964292871
 31
0.0
1001
AUTOCAD_POSTSCRIPT_FIGURE
1002
{
1000
PSFILL
1000
Grayscale
1000
Grayscale
1070
    25
1002
}
  0
LINE
  5
7BE0
  8
YODOROGO
 10
29829.604341291921
 20
1707.749496429288
 30
0.0
 11
29829.604341291921
 21
1771.7494964292871
 31
0.0
1001
AUTOCAD_POSTSCRIPT_FIGURE
1002
{
1000
PSFILL
1000
Grayscale
1000
Grayscale
1070
    25
1002
}
  0
LINE
  5
7BE1
  8
YODOROGO
 10
29765.604341291921
 20
1707.749496429288
 30
0.0
 11
29829.604341291921
 21
1707.749496429288
 31
0.0
1001
AUTOCAD_POSTSCRIPT_FIGURE
1002
{
1000
PSFILL
1000
Grayscale
1000
Grayscale
1070
    25
1002
}
  0
LINE
  5
7BE2
  8
YODOROGO
 10
29765.604341291921
 20
1771.7494964292871
 30
0.0
 11
29765.604341291921
 21
1707.749496429288
 31
0.0
1001
AUTOCAD_POSTSCRIPT_FIGURE
1002
{
1000
PSFILL
1000
Grayscale
1000
Grayscale
1070
    25
1002
}
  0
LINE
  5
7BE3
  8
YODOROGO
 10
29673.604341291921
 20
1771.7494964292871
 30
0.0
 11
29765.604341291921
 21
1771.7494964292871
 31
0.0
1001
AUTOCAD_POSTSCRIPT_FIGURE
1002
{
1000
PSFILL
1000
Grayscale
1000
Grayscale
1070
    25
1002
}
  0
ARC
  5
7BE4
  8
YODOROGO
 10
31059.517893357912
 20
1602.6807375155761
 30
0.0
 40
178.22128111072141
 50
281.02627495425338
 51
357.77113575573799
  0
LINE
  5
7BE5
  8
YODOROGO
 10
31413.604341291921
 20
1907.7494964292871
 30
0.0
 11
31165.604341291921
 21
1907.7494964292871
 31
0.0
  0
LINE
  5
7BE6
  8
YODOROGO
 10
31413.604341291921
 20
2027.749496429288
 30
0.0
 11
31165.604341291921
 21
2027.749496429288
 31
0.0
  0
LINE
  5
7BE7
  8
YODOROGO
 10
31165.604341291921
 20
1963.749496429286
 30
0.0
 11
31413.604341291921
 21
1963.749496429286
 31
0.0
  0
LINE
  5
7BE8
  8
YODOROGO
 10
30791.604341291921
 20
1563.7494964292871
 30
0.0
 11
30791.604341291921
 21
1755.7494964292871
 31
0.0
  0
LINE
  5
7BE9
  8
YODOROGO
 10
30763.604341291921
 20
1691.749496429288
 30
0.0
 11
30763.604341291921
 21
1563.7494964292871
 31
0.0
  0
LINE
  5
7BEA
  8
YODOROGO
 10
30723.604341291921
 20
1491.749496429288
 30
0.0
 11
30723.604341291921
 21
1691.749496429288
 31
0.0
  0
LINE
  5
7BEB
  8
YODOROGO
 10
30899.604341291932
 20
1691.749496429288
 30
0.0
 11
30899.604341291932
 21
1491.749496429288
 31
0.0
  0
LINE
  5
7BEC
  8
YODOROGO
 10
30859.604341291932
 20
1563.7494964292871
 30
0.0
 11
30859.604341291932
 21
1691.749496429288
 31
0.0
  0
LINE
  5
7BED
  8
YODOROGO
 10
30831.604341291921
 20
1755.7494964292871
 30
0.0
 11
30831.604341291921
 21
1563.7494964292871
 31
0.0
  0
LINE
  5
7BEE
  8
YODOROGO
 10
30973.604341291921
 20
2027.749496429288
 30
0.0
 11
30973.604341291921
 21
1467.749496429288
 31
0.0
  0
LINE
  5
7BEF
  8
YODOROGO
 10
30645.604341291921
 20
1427.749496429288
 30
0.0
 11
30645.604341291921
 21
2027.749496429288
 31
0.0
  0
LINE
  5
7BF0
  8
YODOROGO
 10
30697.604341291932
 20
1963.749496429286
 30
0.0
 11
30697.604341291932
 21
1427.749496429288
 31
0.0
  0
LINE
  5
7BF1
  8
YODOROGO
 10
30925.604341291921
 20
1547.749496429288
 30
0.0
 11
30925.604341291921
 21
1963.749496429286
 31
0.0
  0
LINE
  5
7BF2
  8
YODOROGO
 10
30381.604341291932
 20
1627.749496429288
 30
0.0
 11
30381.604341291932
 21
1679.749496429288
 31
0.0
  0
LINE
  5
7BF3
  8
YODOROGO
 10
30617.604341291921
 20
1679.749496429288
 30
0.0
 11
30617.604341291921
 21
1627.749496429288
 31
0.0
  0
LINE
  5
7BF4
  8
YODOROGO
 10
31165.604341291921
 20
1907.7494964292871
 30
0.0
 11
31165.604341291921
 21
1635.7494964292871
 31
0.0
  0
LINE
  5
7BF5
  8
YODOROGO
 10
29949.60434129191
 20
1667.749496429288
 30
0.0
 11
29949.60434129191
 21
1707.749496429288
 31
0.0
  0
LINE
  5
7BF6
  8
YODOROGO
 10
29949.60434129191
 20
1667.749496429288
 30
0.0
 11
29949.60434129191
 21
1707.749496429288
 31
0.0
  0
ARC
  5
7BF7
  8
YODOROGO
 10
30537.604341291921
 20
1507.749496429288
 30
0.0
 40
80.0
 50
270.0
 51
0.0
  0
LINE
  5
7BF8
  8
YODOROGO
 10
30569.604341291921
 20
1599.7494964292871
 30
0.0
 11
30617.604341291921
 21
1599.7494964292871
 31
0.0
  0
LINE
  5
7BF9
  8
YODOROGO
 10
30617.604341291921
 20
1627.749496429288
 30
0.0
 11
30529.604341291939
 21
1627.749496429288
 31
0.0
  0
LINE
  5
7BFA
  8
YODOROGO
 10
30217.604341291921
 20
1667.749496429288
 30
0.0
 11
29949.60434129191
 21
1667.749496429288
 31
0.0
  0
LINE
  5
7BFB
  8
YODOROGO
 10
30217.604341291921
 20
1627.749496429288
 30
0.0
 11
30217.604341291921
 21
1667.749496429288
 31
0.0
  0
LINE
  5
7BFC
  8
YODOROGO
 10
30017.604341291921
 20
1627.749496429288
 30
0.0
 11
30217.604341291921
 21
1627.749496429288
 31
0.0
  0
ARC
  5
7BFD
  8
YODOROGO
 10
30230.05882870136
 20
1868.885714952901
 30
0.0
 40
321.37763628522822
 50
228.6181454618993
 51
245.660289248906
  0
LINE
  5
7BFE
  8
YODOROGO
 10
30105.604341291921
 20
1603.7494964292871
 30
0.0
 11
30097.60434129195
 21
1576.0728158699001
 31
0.0
  0
LINE
  5
7BFF
  8
YODOROGO
 10
30189.604341291921
 20
1603.7494964292871
 30
0.0
 11
30105.604341291921
 21
1603.7494964292871
 31
0.0
  0
LINE
  5
7C00
  8
YODOROGO
 10
30177.604341291921
 20
1551.817722473427
 30
0.0
 11
30189.604341291921
 21
1603.7494964292871
 31
0.0
  0
ARC
  5
7C01
  8
YODOROGO
 10
30230.05882870045
 20
1868.885714953002
 30
0.0
 40
321.37763628529081
 50
260.60629297969911
 51
267.77903556555862
  0
LINE
  5
7C02
  8
YODOROGO
 10
30217.604341291921
 20
1427.749496429285
 30
0.0
 11
30217.604341291921
 21
1547.749496429288
 31
0.0
  0
LINE
  5
7C03
  8
YODOROGO
 10
29937.604341291932
 20
1481.3393349155101
 30
0.0
 11
29937.604341291921
 21
1594.531090531141
 31
0.0
  0
LINE
  5
7C04
  8
YODOROGO
 10
30217.604341291921
 20
1667.749496429288
 30
0.0
 11
29949.60434129191
 21
1667.749496429288
 31
0.0
  0
LINE
  5
7C05
  8
YODOROGO
 10
30217.604341291921
 20
1627.749496429288
 30
0.0
 11
30217.604341291921
 21
1667.749496429288
 31
0.0
  0
LINE
  5
7C06
  8
YODOROGO
 10
30017.604341291921
 20
1627.749496429288
 30
0.0
 11
30217.604341291921
 21
1627.749496429288
 31
0.0
  0
ARC
  5
7C07
  8
YODOROGO
 10
30230.05882870136
 20
1868.885714952901
 30
0.0
 40
321.37763628522822
 50
228.6181454618993
 51
245.660289248906
  0
LINE
  5
7C08
  8
YODOROGO
 10
30105.604341291921
 20
1603.7494964292871
 30
0.0
 11
30097.60434129195
 21
1576.0728158699001
 31
0.0
  0
LINE
  5
7C09
  8
YODOROGO
 10
30189.604341291921
 20
1603.7494964292871
 30
0.0
 11
30105.604341291921
 21
1603.7494964292871
 31
0.0
  0
LINE
  5
7C0A
  8
YODOROGO
 10
30177.604341291921
 20
1551.817722473427
 30
0.0
 11
30189.604341291921
 21
1603.7494964292871
 31
0.0
  0
ARC
  5
7C0B
  8
YODOROGO
 10
30230.05882870045
 20
1868.885714953002
 30
0.0
 40
321.37763628529081
 50
260.60629297969911
 51
267.77903556555862
  0
LINE
  5
7C0C
  8
YODOROGO
 10
30217.604341291921
 20
1427.749496429285
 30
0.0
 11
30217.604341291921
 21
1547.749496429288
 31
0.0
  0
LINE
  5
7C0D
  8
YODOROGO
 10
29937.604341291932
 20
1481.3393349155101
 30
0.0
 11
29937.604341291921
 21
1594.531090531141
 31
0.0
  0
LINE
  5
7C0E
  8
YODOROGO
 10
30433.604341291921
 20
1573.749496429288
 30
0.0
 11
30381.604341291932
 21
1573.749496429288
 31
0.0
  0
LINE
  5
7C0F
  8
YODOROGO
 10
30433.604341291921
 20
1601.749496429285
 30
0.0
 11
30433.604341291921
 21
1573.749496429288
 31
0.0
  0
LINE
  5
7C10
  8
YODOROGO
 10
30381.604341291932
 20
1601.749496429285
 30
0.0
 11
30433.604341291921
 21
1601.749496429285
 31
0.0
  0
LINE
  5
7C11
  8
YODOROGO
 10
30381.604341291932
 20
1573.749496429288
 30
0.0
 11
30381.604341291932
 21
1601.749496429285
 31
0.0
  0
LINE
  5
7C12
  8
YODOROGO
 10
30429.604341291921
 20
1577.7494964292871
 30
0.0
 11
30385.604341291921
 21
1577.7494964292871
 31
0.0
  0
LINE
  5
7C13
  8
YODOROGO
 10
30429.604341291921
 20
1597.749496429288
 30
0.0
 11
30429.604341291921
 21
1577.7494964292871
 31
0.0
  0
LINE
  5
7C14
  8
YODOROGO
 10
30385.604341291921
 20
1597.749496429288
 30
0.0
 11
30429.604341291921
 21
1597.749496429288
 31
0.0
  0
LINE
  5
7C15
  8
YODOROGO
 10
30385.604341291921
 20
1577.7494964292871
 30
0.0
 11
30385.604341291921
 21
1597.749496429288
 31
0.0
  0
LINE
  5
7C16
  8
YODOROGO
 10
30425.604341291921
 20
1581.749496429286
 30
0.0
 11
30389.604341291921
 21
1581.749496429286
 31
0.0
  0
LINE
  5
7C17
  8
YODOROGO
 10
30425.604341291921
 20
1593.749496429288
 30
0.0
 11
30425.604341291921
 21
1581.749496429286
 31
0.0
  0
LINE
  5
7C18
  8
YODOROGO
 10
30389.604341291921
 20
1593.749496429288
 30
0.0
 11
30425.604341291921
 21
1593.749496429288
 31
0.0
  0
LINE
  5
7C19
  8
YODOROGO
 10
30389.604341291921
 20
1581.749496429286
 30
0.0
 11
30389.604341291921
 21
1593.749496429288
 31
0.0
  0
LINE
  5
7C1A
  8
YODOROGO
 10
30421.604341291932
 20
1585.7494964292871
 30
0.0
 11
30393.604341291921
 21
1585.7494964292871
 31
0.0
  0
LINE
  5
7C1B
  8
YODOROGO
 10
30421.604341291932
 20
1589.749496429288
 30
0.0
 11
30421.604341291932
 21
1585.7494964292871
 31
0.0
  0
LINE
  5
7C1C
  8
YODOROGO
 10
30393.604341291921
 20
1589.749496429288
 30
0.0
 11
30421.604341291932
 21
1589.749496429288
 31
0.0
  0
LINE
  5
7C1D
  8
YODOROGO
 10
30393.604341291921
 20
1585.7494964292871
 30
0.0
 11
30393.604341291921
 21
1589.749496429288
 31
0.0
  0
LINE
  5
7C1E
  8
YODOROGO
 10
30465.604341291921
 20
1627.749496429288
 30
0.0
 11
30381.604341291932
 21
1627.749496429288
 31
0.0
  0
LINE
  5
7C1F
  8
YODOROGO
 10
30465.604341291921
 20
1547.749496429288
 30
0.0
 11
30465.604341291921
 21
1627.749496429288
 31
0.0
  0
LINE
  5
7C20
  8
YODOROGO
 10
30381.604341291932
 20
1547.749496429288
 30
0.0
 11
30465.604341291921
 21
1547.749496429288
 31
0.0
  0
LINE
  5
7C21
  8
YODOROGO
 10
30381.604341291932
 20
1427.749496429288
 30
0.0
 11
30381.604341291932
 21
1547.749496429288
 31
0.0
  0
LINE
  5
7C22
  8
YODOROGO
 10
30537.604341291921
 20
1427.749496429288
 30
0.0
 11
30381.604341291932
 21
1427.749496429288
 31
0.0
  0
LINE
  5
7C23
  8
YODOROGO
 10
30569.604341291921
 20
1571.749496429285
 30
0.0
 11
30569.604341291921
 21
1599.7494964292871
 31
0.0
  0
ARC
  5
7C24
  8
YODOROGO
 10
30545.604341291921
 20
1571.749496429291
 30
0.0
 40
24.000000000003752
 50
270.0
 51
359.99999999998772
  0
LINE
  5
7C25
  8
YODOROGO
 10
30529.604341291939
 20
1547.749496429288
 30
0.0
 11
30545.604341291921
 21
1547.749496429288
 31
0.0
  0
LINE
  5
7C26
  8
YODOROGO
 10
30529.604341291939
 20
1627.749496429288
 30
0.0
 11
30529.604341291939
 21
1547.749496429288
 31
0.0
  0
LINE
  5
7C27
  8
YODOROGO
 10
30899.604341291932
 20
1547.749496429288
 30
0.0
 11
30925.604341291921
 21
1547.749496429288
 31
0.0
  0
LINE
  5
7C28
  8
YODOROGO
 10
30933.604341291921
 20
1427.749496429288
 30
0.0
 11
30899.604341291932
 21
1427.749496429288
 31
0.0
  0
LINE
  5
7C29
  8
YODOROGO
 10
30763.604341291921
 20
1563.7494964292871
 30
0.0
 11
30791.604341291921
 21
1563.7494964292871
 31
0.0
  0
LINE
  5
7C2A
  8
YODOROGO
 10
30899.604341291932
 20
1491.749496429288
 30
0.0
 11
30723.604341291921
 21
1491.749496429288
 31
0.0
  0
LINE
  5
7C2B
  8
YODOROGO
 10
30831.604341291921
 20
1563.7494964292871
 30
0.0
 11
30859.604341291932
 21
1563.7494964292871
 31
0.0
  0
LINE
  5
7C2C
  8
YODOROGO
 10
30899.604341291932
 20
1427.749496429288
 30
0.0
 11
30899.604341291932
 21
1547.749496429288
 31
0.0
  0
LINE
  5
7C2D
  8
YODOROGO
 10
30697.604341291932
 20
1427.749496429288
 30
0.0
 11
30645.604341291921
 21
1427.749496429288
 31
0.0
  0
LINE
  5
7C2E
  8
YODOROGO
 10
30617.604341291921
 20
1599.7494964292871
 30
0.0
 11
30617.604341291921
 21
1507.749496429288
 31
0.0
  0
ARC
  5
7C2F
  8
YODOROGO
 10
30933.604341291921
 20
1467.749496429288
 30
0.0
 40
40.0
 50
270.0
 51
0.0
  0
LINE
  5
7C30
  8
YODOROGO
 10
31093.604341291921
 20
1523.7494964292871
 30
0.0
 11
31093.604341291921
 21
1427.749496429288
 31
0.0
  0
ARC
  5
7C31
  8
YODOROGO
 10
31039.721395566768
 20
1637.5313901097329
 30
0.0
 40
125.8955565916754
 50
295.34052442160112
 51
359.18902303418679
  0
LINE
  5
7C32
  8
YODOROGO
 10
30617.604341291921
 20
1859.749496429288
 30
0.0
 11
30497.604341291921
 21
1939.749496429288
 31
0.0
  0
LINE
  5
7C33
  8
YODOROGO
 10
30497.604341291921
 20
2027.749496429288
 30
0.0
 11
30617.604341291921
 21
1947.749496429288
 31
0.0
  0
LINE
  5
7C34
  8
YODOROGO
 10
30529.604341291939
 20
1679.749496429288
 30
0.0
 11
30617.604341291921
 21
1679.749496429288
 31
0.0
  0
LINE
  5
7C35
  8
YODOROGO
 10
30617.604341291921
 20
1735.7494964292871
 30
0.0
 11
30529.604341291939
 21
1735.7494964292871
 31
0.0
  0
LINE
  5
7C36
  8
YODOROGO
 10
30381.604341291932
 20
1795.7494964292871
 30
0.0
 11
30617.604341291921
 21
1795.7494964292871
 31
0.0
  0
LINE
  5
7C37
  8
YODOROGO
 10
30081.604341291921
 20
2027.749496429288
 30
0.0
 11
30021.604341291921
 21
2027.749496429288
 31
0.0
  0
LINE
  5
7C38
  8
YODOROGO
 10
30081.604341291921
 20
1827.7494964292871
 30
0.0
 11
30081.604341291921
 21
2027.749496429288
 31
0.0
  0
LINE
  5
7C39
  8
YODOROGO
 10
30021.604341291921
 20
1827.7494964292871
 30
0.0
 11
30081.604341291921
 21
1827.7494964292871
 31
0.0
  0
LINE
  5
7C3A
  8
YODOROGO
 10
30021.604341291921
 20
2027.749496429288
 30
0.0
 11
30021.604341291921
 21
1827.7494964292871
 31
0.0
  0
LINE
  5
7C3B
  8
YODOROGO
 10
30161.604341291921
 20
2027.749496429288
 30
0.0
 11
30217.604341291921
 21
2027.749496429288
 31
0.0
  0
LINE
  5
7C3C
  8
YODOROGO
 10
30161.604341291921
 20
1811.749496429288
 30
0.0
 11
30161.604341291921
 21
2027.749496429288
 31
0.0
  0
ARC
  5
7C3D
  8
YODOROGO
 10
30121.604341291921
 20
1811.749496429288
 30
0.0
 40
40.0
 50
270.0
 51
0.0
  0
LINE
  5
7C3E
  8
YODOROGO
 10
30021.604341291921
 20
1771.7494964292871
 30
0.0
 11
30121.604341291921
 21
1771.7494964292871
 31
0.0
  0
LINE
  5
7C3F
  8
YODOROGO
 10
30021.604341291921
 20
1707.749496429288
 30
0.0
 11
30021.604341291921
 21
1771.7494964292871
 31
0.0
  0
LINE
  5
7C40
  8
YODOROGO
 10
30137.604341291921
 20
1707.749496429288
 30
0.0
 11
30021.604341291921
 21
1707.749496429288
 31
0.0
  0
ARC
  5
7C41
  8
YODOROGO
 10
30137.604341291921
 20
1787.7494964292871
 30
0.0
 40
80.0
 50
270.0
 51
0.0
  0
LINE
  5
7C42
  8
YODOROGO
 10
30217.604341291921
 20
2027.749496429288
 30
0.0
 11
30217.604341291921
 21
1787.7494964292871
 31
0.0
  0
LINE
  5
7C43
  8
YODOROGO
 10
29977.604341291921
 20
1947.749496429288
 30
0.0
 11
29977.604341291921
 21
1995.7494964292871
 31
0.0
1001
AUTOCAD_POSTSCRIPT_FIGURE
1002
{
1000
PSFILL
1000
Grayscale
1000
Grayscale
1070
    25
1002
}
  0
LINE
  5
7C44
  8
YODOROGO
 10
29977.604341291921
 20
1859.749496429288
 30
0.0
 11
29977.604341291921
 21
1907.7494964292871
 31
0.0
1001
AUTOCAD_POSTSCRIPT_FIGURE
1002
{
1000
PSFILL
1000
Grayscale
1000
Grayscale
1070
    25
1002
}
  0
LINE
  5
7C45
  8
YODOROGO
 10
29977.604341291921
 20
1707.749496429288
 30
0.0
 11
29977.604341291921
 21
1819.7494964292871
 31
0.0
1001
AUTOCAD_POSTSCRIPT_FIGURE
1002
{
1000
PSFILL
1000
Grayscale
1000
Grayscale
1070
    25
1002
}
  0
LINE
  5
7C46
  8
YODOROGO
 10
30381.604341291932
 20
1907.7494964292871
 30
0.0
 11
30497.604341291921
 21
2027.749496429288
 31
0.0
  0
LINE
  5
7C47
  8
YODOROGO
 10
30381.604341291932
 20
1819.7494964292871
 30
0.0
 11
30381.604341291932
 21
1907.7494964292871
 31
0.0
  0
LINE
  5
7C48
  8
YODOROGO
 10
30497.604341291921
 20
1939.749496429288
 30
0.0
 11
30381.604341291932
 21
1819.7494964292871
 31
0.0
  0
LINE
  5
7C49
  8
YODOROGO
 10
30465.604341291921
 20
1679.749496429288
 30
0.0
 11
30465.604341291921
 21
1735.7494964292871
 31
0.0
  0
LINE
  5
7C4A
  8
YODOROGO
 10
30381.604341291932
 20
1679.749496429288
 30
0.0
 11
30465.604341291921
 21
1679.749496429288
 31
0.0
  0
LINE
  5
7C4B
  8
YODOROGO
 10
30529.604341291939
 20
1735.7494964292871
 30
0.0
 11
30529.604341291939
 21
1679.749496429288
 31
0.0
  0
LINE
  5
7C4C
  8
YODOROGO
 10
30381.604341291932
 20
1735.7494964292871
 30
0.0
 11
30381.604341291932
 21
1795.7494964292871
 31
0.0
  0
LINE
  5
7C4D
  8
YODOROGO
 10
30465.604341291921
 20
1735.7494964292871
 30
0.0
 11
30381.604341291932
 21
1735.7494964292871
 31
0.0
  0
LINE
  5
7C4E
  8
YODOROGO
 10
30645.604341291921
 20
2027.749496429288
 30
0.0
 11
30973.604341291921
 21
2027.749496429288
 31
0.0
  0
LINE
  5
7C4F
  8
YODOROGO
 10
30925.604341291921
 20
1963.749496429286
 30
0.0
 11
30697.604341291932
 21
1963.749496429286
 31
0.0
  0
LINE
  5
7C50
  8
YODOROGO
 10
30873.604341291921
 20
1819.7494964292871
 30
0.0
 11
30899.604341291932
 21
1819.7494964292871
 31
0.0
  0
LINE
  5
7C51
  8
YODOROGO
 10
30899.604341291932
 20
1939.749496429288
 30
0.0
 11
30873.604341291921
 21
1819.7494964292871
 31
0.0
  0
LINE
  5
7C52
  8
YODOROGO
 10
30851.604341291939
 20
1939.749496429288
 30
0.0
 11
30899.604341291932
 21
1939.749496429288
 31
0.0
  0
LINE
  5
7C53
  8
YODOROGO
 10
30825.604341291921
 20
1819.7494964292871
 30
0.0
 11
30851.604341291939
 21
1939.749496429288
 31
0.0
  0
LINE
  5
7C54
  8
YODOROGO
 10
30797.604341291921
 20
1819.7494964292871
 30
0.0
 11
30825.604341291921
 21
1819.7494964292871
 31
0.0
  0
LINE
  5
7C55
  8
YODOROGO
 10
30771.604341291939
 20
1939.749496429288
 30
0.0
 11
30797.604341291921
 21
1819.7494964292871
 31
0.0
  0
LINE
  5
7C56
  8
YODOROGO
 10
30723.604341291921
 20
1939.749496429288
 30
0.0
 11
30771.604341291939
 21
1939.749496429288
 31
0.0
  0
LINE
  5
7C57
  8
YODOROGO
 10
30749.604341291921
 20
1819.7494964292871
 30
0.0
 11
30723.604341291921
 21
1939.749496429288
 31
0.0
  0
LINE
  5
7C58
  8
YODOROGO
 10
30723.604341291921
 20
1819.7494964292871
 30
0.0
 11
30749.604341291921
 21
1819.7494964292871
 31
0.0
  0
LINE
  5
7C59
  8
YODOROGO
 10
30723.604341291921
 20
1755.7494964292871
 30
0.0
 11
30723.604341291921
 21
1819.7494964292871
 31
0.0
  0
LINE
  5
7C5A
  8
YODOROGO
 10
30899.604341291932
 20
1755.7494964292871
 30
0.0
 11
30723.604341291921
 21
1755.7494964292871
 31
0.0
  0
LINE
  5
7C5B
  8
YODOROGO
 10
30899.604341291932
 20
1819.7494964292871
 30
0.0
 11
30899.604341291932
 21
1755.7494964292871
 31
0.0
  0
LINE
  5
7C5C
  8
YODOROGO
 10
30617.604341291921
 20
1947.749496429288
 30
0.0
 11
30617.604341291921
 21
1859.749496429288
 31
0.0
  0
LINE
  5
7C5D
  8
YODOROGO
 10
30791.604341291921
 20
1755.7494964292871
 30
0.0
 11
30831.604341291921
 21
1755.7494964292871
 31
0.0
  0
LINE
  5
7C5E
  8
YODOROGO
 10
30723.604341291921
 20
1691.749496429288
 30
0.0
 11
30763.604341291921
 21
1691.749496429288
 31
0.0
  0
LINE
  5
7C5F
  8
YODOROGO
 10
30859.604341291932
 20
1691.749496429288
 30
0.0
 11
30899.604341291932
 21
1691.749496429288
 31
0.0
  0
LINE
  5
7C60
  8
YODOROGO
 10
30617.604341291921
 20
1795.7494964292871
 30
0.0
 11
30617.604341291921
 21
1735.7494964292871
 31
0.0
  0
LINE
  5
7C61
  8
YODOROGO
 10
31165.604341291921
 20
2027.749496429288
 30
0.0
 11
31165.604341291921
 21
1963.749496429286
 31
0.0
  0
LINE
  5
7C62
  8
YODOROGO
 10
31533.604341291921
 20
1595.7494964292871
 30
0.0
 11
31533.60434129191
 21
1811.749496429288
 31
0.0
  0
LINE
  5
7C63
  8
YODOROGO
 10
31461.60434129191
 20
1987.7494964292871
 30
0.0
 11
31461.60434129191
 21
1635.7494964292871
 31
0.0
  0
LINE
  5
7C64
  8
YODOROGO
 10
31653.604341291921
 20
1427.749496429288
 30
0.0
 11
31653.60434129191
 21
1811.749496429288
 31
0.0
  0
LINE
  5
7C65
  8
YODOROGO
 10
31589.604341291921
 20
1811.749496429288
 30
0.0
 11
31589.604341291921
 21
1427.749496429288
 31
0.0
  0
LINE
  5
7C66
  8
YODOROGO
 10
31237.604341291921
 20
1595.7494964292871
 30
0.0
 11
31237.604341291921
 21
1707.749496429288
 31
0.0
  0
ARC
  5
7C67
  8
YODOROGO
 10
31353.914865116069
 20
1607.790351288558
 30
0.0
 40
180.0924485759885
 50
268.62849102169793
 51
356.16638457330322
  0
LINE
  5
7C68
  8
YODOROGO
 10
31349.604341291939
 20
1527.749496429288
 30
0.0
 11
31349.604341291939
 21
1427.749496429288
 31
0.0
  0
ARC
  5
7C69
  8
YODOROGO
 10
31351.518075724562
 20
1637.838957017655
 30
0.0
 40
110.1060929836122
 50
269.00410209305932
 51
358.91264455492478
  0
LINE
  5
7C6A
  8
YODOROGO
 10
31589.604341291921
 20
1427.749496429288
 30
0.0
 11
31653.604341291921
 21
1427.749496429288
 31
0.0
  0
LINE
  5
7C6B
  8
YODOROGO
 10
31533.60434129191
 20
1811.749496429288
 30
0.0
 11
31589.604341291921
 21
1811.749496429288
 31
0.0
  0
LINE
  5
7C6C
  8
YODOROGO
 10
31621.604341291939
 20
1987.7494964292871
 30
0.0
 11
31461.60434129191
 21
1987.7494964292871
 31
0.0
  0
LINE
  5
7C6D
  8
YODOROGO
 10
31533.60434129191
 20
1915.7494964292871
 30
0.0
 11
31661.604341291939
 21
1915.7494964292871
 31
0.0
  0
LINE
  5
7C6E
  8
YODOROGO
 10
31701.604341291939
 20
1875.7494964292871
 30
0.0
 11
31533.60434129191
 21
1875.7494964292871
 31
0.0
  0
LINE
  5
7C6F
  8
YODOROGO
 10
31237.604341291921
 20
1779.749496429288
 30
0.0
 11
31349.604341291939
 21
1779.749496429288
 31
0.0
  0
LINE
  5
7C70
  8
YODOROGO
 10
31237.604341291921
 20
1835.7494964292871
 30
0.0
 11
31237.604341291921
 21
1779.749496429288
 31
0.0
  0
LINE
  5
7C71
  8
YODOROGO
 10
31349.604341291939
 20
1835.7494964292871
 30
0.0
 11
31237.604341291921
 21
1835.7494964292871
 31
0.0
  0
LINE
  5
7C72
  8
YODOROGO
 10
31349.604341291939
 20
1779.749496429288
 30
0.0
 11
31349.604341291939
 21
1835.7494964292871
 31
0.0
  0
LINE
  5
7C73
  8
YODOROGO
 10
31533.60434129191
 20
1875.7494964292871
 30
0.0
 11
31533.60434129191
 21
1915.7494964292871
 31
0.0
  0
LINE
  5
7C74
  8
YODOROGO
 10
31413.604341291921
 20
1707.749496429288
 30
0.0
 11
31413.604341291921
 21
1907.7494964292871
 31
0.0
  0
LINE
  5
7C75
  8
YODOROGO
 10
31237.604341291921
 20
1707.749496429288
 30
0.0
 11
31413.604341291921
 21
1707.749496429288
 31
0.0
  0
LINE
  5
7C76
  8
YODOROGO
 10
31413.604341291921
 20
1963.749496429286
 30
0.0
 11
31413.604341291921
 21
2027.749496429288
 31
0.0
  0
ARC
  5
7C77
  8
YODOROGO
 10
31621.604341291939
 20
2003.749496429285
 30
0.0
 40
15.999999999994539
 50
270.0
 51
0.0000000000081422
  0
LINE
  5
7C78
  8
YODOROGO
 10
31637.604341291921
 20
2027.749496429288
 30
0.0
 11
31637.604341291921
 21
2003.7494964292871
 31
0.0
  0
LINE
  5
7C79
  8
YODOROGO
 10
31701.604341291939
 20
2027.749496429288
 30
0.0
 11
31637.604341291921
 21
2027.749496429288
 31
0.0
  0
LINE
  5
7C7A
  8
YODOROGO
 10
31701.604341291939
 20
1955.7494964292871
 30
0.0
 11
31701.604341291939
 21
2027.749496429288
 31
0.0
  0
ARC
  5
7C7B
  8
YODOROGO
 10
31661.604341291939
 20
1955.7494964292871
 30
0.0
 40
40.0
 50
270.0
 51
0.0
  0
LINE
  5
7C7C
  8
YODOROGO
 10
31701.604341291939
 20
1811.749496429288
 30
0.0
 11
31701.604341291939
 21
1875.7494964292871
 31
0.0
  0
LINE
  5
7C7D
  8
YODOROGO
 10
31653.60434129191
 20
1811.749496429288
 30
0.0
 11
31701.604341291939
 21
1811.749496429288
 31
0.0
  0
LINE
  5
7C7E
  8
SUNPOU
  6
CONTINUOUS
 62
     4
 10
9514.0776105000114
 20
14057.32763699998
 30
0.0
 11
8667.0821895000117
 21
14057.32763699998
 31
0.0
  0
LINE
  5
7C7F
  8
SUNPOU
  6
CONTINUOUS
 62
     4
 10
8747.0821895000117
 20
14249.82295199998
 30
0.0
 11
8747.0821895000117
 21
14057.32763699998
 31
0.0
  0
LINE
  5
7C80
  8
SUNPOU
  6
CONTINUOUS
 62
     4
 10
8747.0821895000117
 20
14249.82295199998
 30
0.0
 11
8747.0821895000117
 21
17167.82295199998
 31
0.0
  0
LINE
  5
7C81
  8
SUNPOU
  6
CONTINUOUS
 62
     4
 10
8747.0821895000117
 20
17167.82295199998
 30
0.0
 11
8747.0821895000117
 21
20085.82295199998
 31
0.0
  0
LINE
  5
7C82
  8
SUNPOU
  6
CONTINUOUS
 62
     4
 10
9514.0819655000087
 20
20308.318861
 30
0.0
 11
8667.0821895000117
 21
20308.318861
 31
0.0
  0
LINE
  5
7C83
  8
SUNPOU
  6
CONTINUOUS
 62
     4
 10
8747.0821895000117
 20
20085.82295199998
 30
0.0
 11
8747.0821895000117
 21
20308.318861
 31
0.0
  0
LINE
  5
7C84
  8
SUNPOU
  6
CONTINUOUS
 62
     4
 10
9587.5820845000162
 20
20298.318332999981
 30
0.0
 11
9067.0821895000117
 21
20298.318332999981
 31
0.0
  0
LINE
  5
7C85
  8
SUNPOU
  6
CONTINUOUS
 62
     4
 10
9514.0819655000087
 20
20308.318861
 30
0.0
 11
9067.0821895000117
 21
20308.318861
 31
0.0
  0
LINE
  5
7C86
  8
SUNPOU
  6
CONTINUOUS
 62
     4
 10
9147.0821895000117
 20
20298.318332999981
 30
0.0
 11
9147.0821895000117
 21
20058.318332999981
 31
0.0
  0
LINE
  5
7C87
  8
SUNPOU
  6
CONTINUOUS
 62
     4
 10
9147.0821895000117
 20
20308.318861
 30
0.0
 11
9147.0821895000117
 21
20548.318861
 31
0.0
  0
LINE
  5
7C88
  8
SUNPOU
  6
CONTINUOUS
 62
     4
 10
9147.0821895000117
 20
20298.318332999981
 30
0.0
 11
9147.0821895000117
 21
20308.318861
 31
0.0
  0
LINE
  5
7C89
  8
SUNPOU
  6
CONTINUOUS
 62
     4
 10
12945.07602749999
 20
20858.32809899998
 30
0.0
 11
14811.57602749999
 21
20858.32809899998
 31
0.0
  0
LINE
  5
7C8A
  8
SUNPOU
  6
CONTINUOUS
 62
     4
 10
14897.07602749999
 20
20388.322819999968
 30
0.0
 11
14897.07602749999
 21
20938.32809899998
 31
0.0
  0
LINE
  5
7C8B
  8
SUNPOU
  6
CONTINUOUS
 62
     4
 10
14811.57602749999
 20
20858.32809899998
 30
0.0
 11
14571.57602749999
 21
20858.32809899998
 31
0.0
  0
LINE
  5
7C8C
  8
SUNPOU
  6
CONTINUOUS
 62
     4
 10
14894.07602749999
 20
20858.32809899998
 30
0.0
 11
15134.07602749999
 21
20858.32809899998
 31
0.0
  0
LINE
  5
7C8D
  8
SUNPOU
  6
CONTINUOUS
 62
     4
 10
14811.57602749999
 20
20858.32809899998
 30
0.0
 11
14894.07602749999
 21
20858.32809899998
 31
0.0
  0
LINE
  5
7C8E
  8
SUNPOU
  6
CONTINUOUS
 62
     4
 10
12945.08790350002
 20
20858.32809899998
 30
0.0
 11
9676.5879035000253
 21
20858.32809899998
 31
0.0
  0
LINE
  5
7C8F
  8
SUNPOU
  6
CONTINUOUS
 62
     4
 10
9591.0879035000235
 20
20388.322819999968
 30
0.0
 11
9591.0879035000235
 21
20938.32809899998
 31
0.0
  0
LINE
  5
7C90
  8
SUNPOU
  6
CONTINUOUS
 62
     4
 10
9676.5879035000253
 20
20858.32809899998
 30
0.0
 11
9916.5879035000253
 21
20858.32809899998
 31
0.0
  0
LINE
  5
7C91
  8
SUNPOU
  6
CONTINUOUS
 62
     4
 10
9594.0879035000253
 20
20858.32809899998
 30
0.0
 11
9354.0879035000253
 21
20858.32809899998
 31
0.0
  0
LINE
  5
7C92
  8
SUNPOU
  6
CONTINUOUS
 62
     4
 10
9676.5879035000253
 20
20858.32809899998
 30
0.0
 11
9594.0879035000253
 21
20858.32809899998
 31
0.0
  0
LINE
  5
7C96
  8
SUNPOU
  6
CONTINUOUS
 62
     4
 10
20596.849848000002
 20
5937.5596699999869
 30
0.0
 11
19796.85116699999
 21
5937.5596699999869
 31
0.0
  0
LINE
  5
7C97
  8
SUNPOU
  6
CONTINUOUS
 62
     4
 10
20596.849848000002
 20
7829.0596699999869
 30
0.0
 11
19796.85116699999
 21
7829.0596699999869
 31
0.0
  0
LINE
  5
7C98
  8
SUNPOU
  6
CONTINUOUS
 62
     4
 10
19876.85116699999
 20
5937.5596699999869
 30
0.0
 11
19876.85116699999
 21
7829.0596699999869
 31
0.0
  0
LINE
  5
7C99
  8
SUNPOU
  6
CONTINUOUS
 62
     4
 10
20596.849848000002
 20
5937.5596699999869
 30
0.0
 11
19396.848858000001
 21
5937.5596699999869
 31
0.0
  0
LINE
  5
7C9A
  8
SUNPOU
  6
CONTINUOUS
 62
     4
 10
20564.350112
 20
8286.0596699999987
 30
0.0
 11
19396.848858000001
 21
8286.0596699999987
 31
0.0
  0
LINE
  5
7C9B
  8
SUNPOU
  6
CONTINUOUS
 62
     4
 10
19476.848858000001
 20
5937.5596699999869
 30
0.0
 11
19476.848858000001
 21
8286.0596699999987
 31
0.0
  0
LINE
  5
7CAC
  8
SUNPOU
  6
CONTINUOUS
 62
     4
 10
20820.85050700001
 20
5757.5598349999918
 30
0.0
 11
20820.85050700001
 21
4957.55983499999
 31
0.0
  0
LINE
  5
7CAD
  8
SUNPOU
  6
CONTINUOUS
 62
     4
 10
23901.350506999999
 20
5757.5598349999918
 30
0.0
 11
23901.350506999999
 21
4957.55983499999
 31
0.0
  0
LINE
  5
7CAE
  8
SUNPOU
  6
CONTINUOUS
 62
     4
 10
20820.85050700001
 20
5037.5598349999909
 30
0.0
 11
23901.350506999999
 21
5037.5598349999909
 31
0.0
  0
LINE
  5
7CAF
  8
SUNPOU
  6
CONTINUOUS
 62
     4
 10
24089.35050700001
 20
5757.5598349999918
 30
0.0
 11
24089.35050700001
 21
4957.55983499999
 31
0.0
  0
LINE
  5
7CB0
  8
SUNPOU
  6
CONTINUOUS
 62
     4
 10
25767.85050700001
 20
5757.5598349999918
 30
0.0
 11
25767.85050700001
 21
4957.55983499999
 31
0.0
  0
LINE
  5
7CB1
  8
SUNPOU
  6
CONTINUOUS
 62
     4
 10
24089.35050700001
 20
5037.5598349999909
 30
0.0
 11
25767.85050700001
 21
5037.5598349999909
 31
0.0
  0
LINE
  5
7CB2
  8
SUNPOU
  6
CONTINUOUS
 62
     4
 10
23995.35050700001
 20
5494.9074119999896
 30
0.0
 11
23995.35050700001
 21
4557.5598349999909
 31
0.0
  0
LINE
  5
7CB3
  8
SUNPOU
  6
CONTINUOUS
 62
     4
 10
25861.85050700001
 20
5494.9074119999896
 30
0.0
 11
25861.85050700001
 21
4557.5598349999909
 31
0.0
  0
LINE
  5
7CB4
  8
SUNPOU
  6
CONTINUOUS
 62
     4
 10
23995.35050700001
 20
4637.5598349999909
 30
0.0
 11
25861.85050700001
 21
4637.5598349999909
 31
0.0
  0
LINE
  5
7CB5
  8
SUNPOU
  6
CONTINUOUS
 62
     4
 10
20726.850506999999
 20
5494.9074119999896
 30
0.0
 11
20726.850506999999
 21
4557.5598349999909
 31
0.0
  0
LINE
  5
7CB6
  8
SUNPOU
  6
CONTINUOUS
 62
     4
 10
23995.35050700001
 20
5494.9074119999896
 30
0.0
 11
23995.35050700001
 21
4557.5598349999909
 31
0.0
  0
LINE
  5
7CB7
  8
SUNPOU
  6
CONTINUOUS
 62
     4
 10
20726.850506999999
 20
4637.5598349999909
 30
0.0
 11
23995.35050700001
 21
4637.5598349999909
 31
0.0
  0
LINE
  5
7CB8
  8
SUNPOU
  6
CONTINUOUS
 62
     4
 10
25861.854466000012
 20
5494.9074119999896
 30
0.0
 11
25861.854466000012
 21
4557.5598349999909
 31
0.0
  0
LINE
  5
7CB9
  8
SUNPOU
  6
CONTINUOUS
 62
     4
 10
25904.354466000012
 20
5757.5598349999918
 30
0.0
 11
25904.354466000012
 21
4557.5598349999909
 31
0.0
  0
LINE
  5
7CBA
  8
SUNPOU
  6
CONTINUOUS
 62
     4
 10
25861.854466000012
 20
4637.5598349999909
 30
0.0
 11
25621.854466000012
 21
4637.5598349999909
 31
0.0
  0
LINE
  5
7CBB
  8
SUNPOU
  6
CONTINUOUS
 62
     4
 10
25904.354466000012
 20
4637.5598349999909
 30
0.0
 11
26144.354466000012
 21
4637.5598349999909
 31
0.0
  0
LINE
  5
7CBC
  8
SUNPOU
  6
CONTINUOUS
 62
     4
 10
25861.854466000012
 20
4637.5598349999909
 30
0.0
 11
25904.354466000012
 21
4637.5598349999909
 31
0.0
  0
LINE
  5
7CBD
  8
SUNPOU
  6
CONTINUOUS
 62
     4
 10
20726.850506999999
 20
5494.9074119999896
 30
0.0
 11
20726.850506999999
 21
4557.5598349999909
 31
0.0
  0
LINE
  5
7CBE
  8
SUNPOU
  6
CONTINUOUS
 62
     4
 10
20684.35050700001
 20
5757.5598349999918
 30
0.0
 11
20684.35050700001
 21
4557.5598349999909
 31
0.0
  0
LINE
  5
7CBF
  8
SUNPOU
  6
CONTINUOUS
 62
     4
 10
20726.850506999999
 20
4637.5598349999909
 30
0.0
 11
20966.850506999999
 21
4637.5598349999909
 31
0.0
  0
LINE
  5
7CC0
  8
SUNPOU
  6
CONTINUOUS
 62
     4
 10
20684.35050700001
 20
4637.5598349999909
 30
0.0
 11
20444.35050700001
 21
4637.5598349999909
 31
0.0
  0
LINE
  5
7CC1
  8
SUNPOU
  6
CONTINUOUS
 62
     4
 10
20726.850506999999
 20
4637.5598349999909
 30
0.0
 11
20684.35050700001
 21
4637.5598349999909
 31
0.0
  0
LINE
  5
7CC2
  8
SUNPOU
  6
CONTINUOUS
 62
     4
 10
20684.35050700001
 20
5757.5598349999918
 30
0.0
 11
20684.35050700001
 21
4157.5599999999877
 31
0.0
  0
LINE
  5
7CC3
  8
SUNPOU
  6
CONTINUOUS
 62
     4
 10
25904.35050700001
 20
5757.5598349999918
 30
0.0
 11
25904.35050700001
 21
4157.5599999999877
 31
0.0
  0
LINE
  5
7CC4
  8
SUNPOU
  6
CONTINUOUS
 62
     4
 10
20684.35050700001
 20
4237.5599999999858
 30
0.0
 11
25904.35050700001
 21
4237.5599999999858
 31
0.0
  0
LINE
  5
7CC5
  8
SUNPOU
  6
CONTINUOUS
 62
     4
 10
9696.0939360000193
 20
8174.5581849999953
 30
0.0
 11
9696.0939360000193
 21
9565.5582109999887
 31
0.0
  0
LINE
  5
7CC6
  8
SUNPOU
  6
CONTINUOUS
 62
     4
 10
15947.093936000019
 20
8306.4480084124225
 30
0.0
 11
15947.093936000019
 21
9565.5582109999887
 31
0.0
  0
LINE
  5
7CC7
  8
SUNPOU
  6
CONTINUOUS
 62
     4
 10
9696.0939360000193
 20
9485.5582109999887
 30
0.0
 11
15947.093936000019
 21
9485.5582109999887
 31
0.0
  0
LINE
  5
7CC8
  8
SUNPOU
  6
CONTINUOUS
 62
     4
 10
15797.095189000011
 20
8232.7889309999846
 30
0.0
 11
15797.095189000011
 21
9165.5598609999906
 31
0.0
  0
LINE
  5
7CC9
  8
SUNPOU
  6
CONTINUOUS
 62
     4
 10
15947.093936000019
 20
8306.4480084124225
 30
0.0
 11
15947.093936000019
 21
9165.5598609999906
 31
0.0
  0
LINE
  5
7CCA
  8
SUNPOU
  6
CONTINUOUS
 62
     4
 10
15797.095189000011
 20
9085.5598609999906
 30
0.0
 11
15557.095189000011
 21
9085.5598609999906
 31
0.0
  0
LINE
  5
7CCB
  8
SUNPOU
  6
CONTINUOUS
 62
     4
 10
15947.093936000019
 20
9085.5598609999906
 30
0.0
 11
16187.093936000019
 21
9085.5598609999906
 31
0.0
  0
LINE
  5
7CCC
  8
SUNPOU
  6
CONTINUOUS
 62
     4
 10
15797.095189000011
 20
9085.5598609999906
 30
0.0
 11
15947.093936000019
 21
9085.5598609999906
 31
0.0
  0
LINE
  5
7CCD
  8
SUNPOU
  6
CONTINUOUS
 62
     4
 10
9876.092682000015
 20
8050.6405589999904
 30
0.0
 11
9876.092682000015
 21
9165.5598609999906
 31
0.0
  0
LINE
  5
7CCE
  8
SUNPOU
  6
CONTINUOUS
 62
     4
 10
15797.095189000011
 20
8232.7889309999846
 30
0.0
 11
15797.095189000011
 21
9165.5598609999906
 31
0.0
  0
LINE
  5
7CCF
  8
SUNPOU
  6
CONTINUOUS
 62
     4
 10
9876.092682000015
 20
9085.5598609999906
 30
0.0
 11
15797.095189000011
 21
9085.5598609999906
 31
0.0
  0
LINE
  5
7CD0
  8
SUNPOU
  6
CONTINUOUS
 62
     4
 10
9696.0939360000193
 20
8174.5581849999953
 30
0.0
 11
9696.0939360000193
 21
9165.5598609999906
 31
0.0
  0
LINE
  5
7CD1
  8
SUNPOU
  6
CONTINUOUS
 62
     4
 10
9876.092682000015
 20
8050.6405589999904
 30
0.0
 11
9876.092682000015
 21
9165.5598609999906
 31
0.0
  0
LINE
  5
7CD2
  8
SUNPOU
  6
CONTINUOUS
 62
     4
 10
9696.0939360000193
 20
9085.5598609999906
 30
0.0
 11
9876.092682000015
 21
9085.5598609999906
 31
0.0
  0
LINE
  5
7CD3
  8
SUNPOU
  6
CONTINUOUS
 62
     4
 10
9788.5939360000193
 20
5937.5591749999903
 30
0.0
 11
8706.0955180000165
 21
5937.5591749999903
 31
0.0
  0
LINE
  5
7CD4
  8
SUNPOU
  6
CONTINUOUS
 62
     4
 10
9616.0959140000032
 20
8094.0591749999912
 30
0.0
 11
8706.0955180000165
 21
8094.0591749999912
 31
0.0
  0
LINE
  5
7CD5
  8
SUNPOU
  6
CONTINUOUS
 62
     4
 10
8786.0955180000128
 20
5937.5591749999903
 30
0.0
 11
8786.0955180000128
 21
8094.0591749999912
 31
0.0
  0
LINE
  5
7CD6
  8
SUNPOU
  6
CONTINUOUS
 62
     4
 10
15889.59393600001
 20
5937.5591749999903
 30
0.0
 11
16967.093341000011
 21
5937.5591749999903
 31
0.0
  0
LINE
  5
7CD7
  8
SUNPOU
  6
CONTINUOUS
 62
     4
 10
15981.90020459938
 20
8286.0591749999894
 30
0.0
 11
16967.093341000011
 21
8286.0591749999894
 31
0.0
  0
LINE
  5
7CD8
  8
SUNPOU
  6
CONTINUOUS
 62
     4
 10
16887.093341000011
 20
5937.5591749999903
 30
0.0
 11
16887.093341000011
 21
8286.0591749999894
 31
0.0
  0
LINE
  5
7CD9
  8
SUNPOU
  6
CONTINUOUS
 62
     4
 10
9876.0939360000193
 20
5857.5586799999937
 30
0.0
 11
9876.0939360000193
 21
4157.5590099999927
 31
0.0
  0
LINE
  5
7CDA
  8
SUNPOU
  6
CONTINUOUS
 62
     4
 10
15797.09393600001
 20
5857.5586799999937
 30
0.0
 11
15797.09393600001
 21
4157.5590099999927
 31
0.0
  0
LINE
  5
7CDB
  8
SUNPOU
  6
CONTINUOUS
 62
     4
 10
9876.0939360000193
 20
4237.5590099999927
 30
0.0
 11
15797.09393600001
 21
4237.5590099999927
 31
0.0
  0
LINE
  5
7CDC
  8
SUNPOU
  6
CONTINUOUS
 62
     4
 10
15754.593936000019
 20
5494.9064219999918
 30
0.0
 11
15754.593936000019
 21
4557.5588449999923
 31
0.0
  0
LINE
  5
7CDD
  8
SUNPOU
  6
CONTINUOUS
 62
     4
 10
15797.09393600001
 20
5857.5586799999937
 30
0.0
 11
15797.09393600001
 21
4557.5588449999923
 31
0.0
  0
LINE
  5
7CDE
  8
SUNPOU
  6
CONTINUOUS
 62
     4
 10
15754.593936000019
 20
4637.5588449999923
 30
0.0
 11
15514.593936000019
 21
4637.5588449999923
 31
0.0
  0
LINE
  5
7CDF
  8
SUNPOU
  6
CONTINUOUS
 62
     4
 10
15797.09393600001
 20
4637.5588449999923
 30
0.0
 11
16037.09393600001
 21
4637.5588449999923
 31
0.0
  0
LINE
  5
7CE0
  8
SUNPOU
  6
CONTINUOUS
 62
     4
 10
15754.593936000019
 20
4637.5588449999923
 30
0.0
 11
15797.09393600001
 21
4637.5588449999923
 31
0.0
  0
LINE
  5
7CE1
  8
SUNPOU
  6
CONTINUOUS
 62
     4
 10
9918.5939360000193
 20
5494.9064219999918
 30
0.0
 11
9918.5939360000193
 21
4557.5588449999923
 31
0.0
  0
LINE
  5
7CE2
  8
SUNPOU
  6
CONTINUOUS
 62
     4
 10
9876.0939360000193
 20
5857.5586799999937
 30
0.0
 11
9876.0939360000193
 21
4557.5588449999923
 31
0.0
  0
LINE
  5
7CE3
  8
SUNPOU
  6
CONTINUOUS
 62
     4
 10
9918.5939360000193
 20
4637.5588449999923
 30
0.0
 11
10158.59393600001
 21
4637.5588449999923
 31
0.0
  0
LINE
  5
7CE4
  8
SUNPOU
  6
CONTINUOUS
 62
     4
 10
9876.0939360000193
 20
4637.5588449999923
 30
0.0
 11
9636.0939360000211
 21
4637.5588449999923
 31
0.0
  0
LINE
  5
7CE5
  8
SUNPOU
  6
CONTINUOUS
 62
     4
 10
9918.5939360000193
 20
4637.5588449999923
 30
0.0
 11
9876.0939360000193
 21
4637.5588449999923
 31
0.0
  0
LINE
  5
7CE6
  8
SUNPOU
  6
CONTINUOUS
 62
     4
 10
12836.593936000019
 20
5494.9064219999918
 30
0.0
 11
12836.593936000019
 21
4557.5588449999923
 31
0.0
  0
LINE
  5
7CE7
  8
SUNPOU
  6
CONTINUOUS
 62
     4
 10
9918.5939360000193
 20
5494.9064219999918
 30
0.0
 11
9918.5939360000193
 21
4557.5588449999923
 31
0.0
  0
LINE
  5
7CE8
  8
SUNPOU
  6
CONTINUOUS
 62
     4
 10
12836.593936000019
 20
4637.5588449999923
 30
0.0
 11
9918.5939360000193
 21
4637.5588449999923
 31
0.0
  0
LINE
  5
7CE9
  8
SUNPOU
  6
CONTINUOUS
 62
     4
 10
12836.593936000019
 20
5494.9064219999918
 30
0.0
 11
12836.593936000019
 21
4557.5588449999923
 31
0.0
  0
LINE
  5
7CEA
  8
SUNPOU
  6
CONTINUOUS
 62
     4
 10
15754.593936000019
 20
5494.9064219999918
 30
0.0
 11
15754.593936000019
 21
4557.5588449999923
 31
0.0
  0
LINE
  5
7CEB
  8
SUNPOU
  6
CONTINUOUS
 62
     4
 10
12836.593936000019
 20
4637.5588449999923
 30
0.0
 11
15754.593936000019
 21
4637.5588449999923
 31
0.0
  0
LINE
  5
7CEC
  8
SUNPOU
  6
CONTINUOUS
 62
     4
 10
20571.853358
 20
13544.05753899999
 30
0.0
 11
20571.853358
 21
13198.37288899998
 31
0.0
  0
LINE
  5
7CED
  8
SUNPOU
  6
CONTINUOUS
 62
     4
 10
20529.351115000001
 20
14127.32367799999
 30
0.0
 11
20529.351115000001
 21
13198.37288899998
 31
0.0
  0
LINE
  5
7CEE
  8
SUNPOU
  6
CONTINUOUS
 62
     4
 10
20571.853358
 20
13278.37288899998
 30
0.0
 11
20811.853358
 21
13278.37288899998
 31
0.0
  0
LINE
  5
7CEF
  8
SUNPOU
  6
CONTINUOUS
 62
     4
 10
20529.351115000001
 20
13278.37288899998
 30
0.0
 11
20289.351115000001
 21
13278.37288899998
 31
0.0
  0
LINE
  5
7CF0
  8
SUNPOU
  6
CONTINUOUS
 62
     4
 10
20571.853358
 20
13278.37288899998
 30
0.0
 11
20529.351115000001
 21
13278.37288899998
 31
0.0
  0
LINE
  5
7CF1
  8
SUNPOU
  6
CONTINUOUS
 62
     4
 10
25706.853358000011
 20
13544.05753899999
 30
0.0
 11
25706.853358000011
 21
13198.37288899998
 31
0.0
  0
LINE
  5
7CF2
  8
SUNPOU
  6
CONTINUOUS
 62
     4
 10
25749.35560100001
 20
14127.32367799999
 30
0.0
 11
25749.35560100001
 21
13198.37288899998
 31
0.0
  0
LINE
  5
7CF3
  8
SUNPOU
  6
CONTINUOUS
 62
     4
 10
25706.853358000011
 20
13278.37288899998
 30
0.0
 11
25466.853358000011
 21
13278.37288899998
 31
0.0
  0
LINE
  5
7CF4
  8
SUNPOU
  6
CONTINUOUS
 62
     4
 10
25749.35560100001
 20
13278.37288899998
 30
0.0
 11
25989.35560100001
 21
13278.37288899998
 31
0.0
  0
LINE
  5
7CF5
  8
SUNPOU
  6
CONTINUOUS
 62
     4
 10
25706.853358000011
 20
13278.37288899998
 30
0.0
 11
25749.35560100001
 21
13278.37288899998
 31
0.0
  0
LINE
  5
7CF6
  8
2-0
  6
CONTINUOUS
 62
     3
 10
23797.853358000011
 20
14207.320972999991
 30
0.0
 11
23882.853358000011
 21
14207.320972999991
 31
0.0
  0
LINE
  5
7CF7
  8
2-0
  6
CONTINUOUS
 62
     3
 10
23882.853358000011
 20
14207.320972999991
 30
0.0
 11
23882.853358000011
 21
14292.320972999991
 31
0.0
  0
LINE
  5
7CF8
  8
2-0
  6
CONTINUOUS
 62
     3
 10
23882.853358000011
 20
14292.320972999991
 30
0.0
 11
23797.853358000011
 21
14292.320972999991
 31
0.0
  0
LINE
  5
7CF9
  8
2-0
  6
CONTINUOUS
 62
     3
 10
23797.853358000011
 20
14292.320972999991
 30
0.0
 11
23797.853358000011
 21
14207.320972999991
 31
0.0
  0
LINE
  5
7CFA
  8
SUNPOU
  6
CONTINUOUS
 62
     4
 10
25706.853358000011
 20
13544.05753899999
 30
0.0
 11
25706.853358000011
 21
13198.37288899998
 31
0.0
  0
LINE
  5
7CFB
  8
SUNPOU
  6
CONTINUOUS
 62
     4
 10
25664.351115000001
 20
14127.32367799999
 30
0.0
 11
25664.351115000001
 21
13198.37288899998
 31
0.0
  0
LINE
  5
7CFC
  8
SUNPOU
  6
CONTINUOUS
 62
     4
 10
25706.853358000011
 20
13278.37288899998
 30
0.0
 11
25946.853358000011
 21
13278.37288899998
 31
0.0
  0
LINE
  5
7CFD
  8
SUNPOU
  6
CONTINUOUS
 62
     4
 10
25664.351115000001
 20
13278.37288899998
 30
0.0
 11
25424.351115000001
 21
13278.37288899998
 31
0.0
  0
LINE
  5
7CFE
  8
SUNPOU
  6
CONTINUOUS
 62
     4
 10
25706.853358000011
 20
13278.37288899998
 30
0.0
 11
25664.351115000001
 21
13278.37288899998
 31
0.0
  0
LINE
  5
7CFF
  8
SUNPOU
  6
CONTINUOUS
 62
     4
 10
20571.853358
 20
13544.05753899999
 30
0.0
 11
20571.853358
 21
13198.37288899998
 31
0.0
  0
LINE
  5
7D00
  8
SUNPOU
  6
CONTINUOUS
 62
     4
 10
20614.355600999999
 20
14127.32367799999
 30
0.0
 11
20614.355600999999
 21
13198.37288899998
 31
0.0
  0
LINE
  5
7D01
  8
SUNPOU
  6
CONTINUOUS
 62
     4
 10
20571.853358
 20
13278.37288899998
 30
0.0
 11
20331.853358
 21
13278.37288899998
 31
0.0
  0
LINE
  5
7D02
  8
SUNPOU
  6
CONTINUOUS
 62
     4
 10
20614.355600999999
 20
13278.37288899998
 30
0.0
 11
20854.355600999999
 21
13278.37288899998
 31
0.0
  0
LINE
  5
7D03
  8
SUNPOU
  6
CONTINUOUS
 62
     4
 10
20571.853358
 20
13278.37288899998
 30
0.0
 11
20614.355600999999
 21
13278.37288899998
 31
0.0
  0
LINE
  5
7D04
  8
SUNPOU
  6
CONTINUOUS
 62
     4
 10
20529.351115000001
 20
14127.32367799999
 30
0.0
 11
20529.351115000001
 21
12798.37288899998
 31
0.0
  0
LINE
  5
7D05
  8
SUNPOU
  6
CONTINUOUS
 62
     4
 10
25749.35560100001
 20
14127.32367799999
 30
0.0
 11
25749.35560100001
 21
12798.37288899998
 31
0.0
  0
LINE
  5
7D06
  8
SUNPOU
  6
CONTINUOUS
 62
     4
 10
20529.351115000001
 20
12878.37288899998
 30
0.0
 11
25749.35560100001
 21
12878.37288899998
 31
0.0
  0
LINE
  5
7D07
  8
SUNPOU
  6
CONTINUOUS
 62
     4
 10
25829.351641999991
 20
15007.820972999991
 30
0.0
 11
26879.352962000001
 21
15007.820972999991
 31
0.0
  0
LINE
  5
7D08
  8
SUNPOU
  6
CONTINUOUS
 62
     4
 10
26679.352962000001
 20
14249.820972999991
 30
0.0
 11
26879.352962000001
 21
14249.820972999991
 31
0.0
  0
LINE
  5
7D09
  8
SUNPOU
  6
CONTINUOUS
 62
     4
 10
26799.352962000001
 20
15007.820972999991
 30
0.0
 11
26799.352962000001
 21
14249.820972999991
 31
0.0
  0
LINE
  5
7D0A
  8
SUNPOU
  6
CONTINUOUS
 62
     4
 10
25829.351641999991
 20
15709.061484499989
 30
0.0
 11
26879.352962000001
 21
15709.061484499989
 31
0.0
  0
LINE
  5
7D0B
  8
SUNPOU
  6
CONTINUOUS
 62
     4
 10
25829.351641999991
 20
15007.820972999991
 30
0.0
 11
26879.352962000001
 21
15007.820972999991
 31
0.0
  0
LINE
  5
7D0C
  8
SUNPOU
  6
CONTINUOUS
 62
     4
 10
26799.352962000001
 20
15709.061484499989
 30
0.0
 11
26799.352962000001
 21
15007.820972999991
 31
0.0
  0
LINE
  5
7D0D
  8
SUNPOU
  6
CONTINUOUS
 62
     4
 10
25829.351641999991
 20
16409.820972999991
 30
0.0
 11
26879.352962000001
 21
16409.820972999991
 31
0.0
  0
LINE
  5
7D0E
  8
SUNPOU
  6
CONTINUOUS
 62
     4
 10
25829.351641999991
 20
15709.061484499989
 30
0.0
 11
26879.352962000001
 21
15709.061484499989
 31
0.0
  0
LINE
  5
7D0F
  8
SUNPOU
  6
CONTINUOUS
 62
     4
 10
26799.352962000001
 20
16409.820972999991
 30
0.0
 11
26799.352962000001
 21
15709.061484499989
 31
0.0
  0
LINE
  5
7D10
  8
SUNPOU
  6
CONTINUOUS
 62
     4
 10
26679.352962000001
 20
17167.820972999991
 30
0.0
 11
26879.352962000001
 21
17167.820972999991
 31
0.0
  0
LINE
  5
7D11
  8
SUNPOU
  6
CONTINUOUS
 62
     4
 10
25829.351641999991
 20
16409.820972999991
 30
0.0
 11
26879.352962000001
 21
16409.820972999991
 31
0.0
  0
LINE
  5
7D12
  8
SUNPOU
  6
CONTINUOUS
 62
     4
 10
26799.352962000001
 20
17167.820972999991
 30
0.0
 11
26799.352962000001
 21
16409.820972999991
 31
0.0
  0
LINE
  5
7D13
  8
SUNPOU
  6
CONTINUOUS
 62
     4
 10
25829.351641999991
 20
17925.820972999991
 30
0.0
 11
26879.352962000001
 21
17925.820972999991
 31
0.0
  0
LINE
  5
7D14
  8
SUNPOU
  6
CONTINUOUS
 62
     4
 10
26679.352962000001
 20
17167.820972999991
 30
0.0
 11
26879.352962000001
 21
17167.820972999991
 31
0.0
  0
LINE
  5
7D15
  8
SUNPOU
  6
CONTINUOUS
 62
     4
 10
26799.352962000001
 20
17925.820972999991
 30
0.0
 11
26799.352962000001
 21
17167.820972999991
 31
0.0
  0
LINE
  5
7D16
  8
SUNPOU
  6
CONTINUOUS
 62
     4
 10
25829.351641999991
 20
18626.820972999991
 30
0.0
 11
26879.352962000001
 21
18626.820972999991
 31
0.0
  0
LINE
  5
7D17
  8
SUNPOU
  6
CONTINUOUS
 62
     4
 10
25829.351641999991
 20
17925.820972999991
 30
0.0
 11
26879.352962000001
 21
17925.820972999991
 31
0.0
  0
LINE
  5
7D18
  8
SUNPOU
  6
CONTINUOUS
 62
     4
 10
26799.352962000001
 20
18626.820972999991
 30
0.0
 11
26799.352962000001
 21
17925.820972999991
 31
0.0
  0
LINE
  5
7D19
  8
SUNPOU
  6
CONTINUOUS
 62
     4
 10
25829.351641999991
 20
19327.820972999991
 30
0.0
 11
26879.352962000001
 21
19327.820972999991
 31
0.0
  0
LINE
  5
7D1A
  8
SUNPOU
  6
CONTINUOUS
 62
     4
 10
25829.351641999991
 20
18626.820972999991
 30
0.0
 11
26879.352962000001
 21
18626.820972999991
 31
0.0
  0
LINE
  5
7D1B
  8
SUNPOU
  6
CONTINUOUS
 62
     4
 10
26799.352962000001
 20
19327.820972999991
 30
0.0
 11
26799.352962000001
 21
18626.820972999991
 31
0.0
  0
LINE
  5
7D1C
  8
SUNPOU
  6
CONTINUOUS
 62
     4
 10
26679.352962000001
 20
20085.820973000002
 30
0.0
 11
26879.352962000001
 21
20085.820973000002
 31
0.0
  0
LINE
  5
7D1D
  8
SUNPOU
  6
CONTINUOUS
 62
     4
 10
25829.351641999991
 20
19327.820972999991
 30
0.0
 11
26879.352962000001
 21
19327.820972999991
 31
0.0
  0
LINE
  5
7D1E
  8
SUNPOU
  6
CONTINUOUS
 62
     4
 10
26799.352962000001
 20
20085.820973000002
 30
0.0
 11
26799.352962000001
 21
19327.820972999991
 31
0.0
  0
LINE
  5
7D1F
  8
SUNPOU
  6
CONTINUOUS
 62
     4
 10
26679.352962000001
 20
17167.820972999991
 30
0.0
 11
27279.352962000001
 21
17167.820972999991
 31
0.0
  0
LINE
  5
7D20
  8
SUNPOU
  6
CONTINUOUS
 62
     4
 10
26679.352962000001
 20
20085.820973000002
 30
0.0
 11
27279.352962000001
 21
20085.820973000002
 31
0.0
  0
LINE
  5
7D21
  8
SUNPOU
  6
CONTINUOUS
 62
     4
 10
27199.352962000001
 20
17167.820972999991
 30
0.0
 11
27199.352962000001
 21
20085.820973000002
 31
0.0
  0
LINE
  5
7D22
  8
SUNPOU
  6
CONTINUOUS
 62
     4
 10
26679.352962000001
 20
14249.820972999991
 30
0.0
 11
27279.352962000001
 21
14249.820972999991
 31
0.0
  0
LINE
  5
7D23
  8
SUNPOU
  6
CONTINUOUS
 62
     4
 10
26679.352962000001
 20
17167.820972999991
 30
0.0
 11
27279.352962000001
 21
17167.820972999991
 31
0.0
  0
LINE
  5
7D24
  8
SUNPOU
  6
CONTINUOUS
 62
     4
 10
27199.352962000001
 20
14249.820972999991
 30
0.0
 11
27199.352962000001
 21
17167.820972999991
 31
0.0
  0
LINE
  5
7D25
  8
SUNPOU
  6
CONTINUOUS
 62
     4
 10
25829.351641999991
 20
20128.318267999992
 30
0.0
 11
27679.352962000012
 21
20128.318267999992
 31
0.0
  0
LINE
  5
7D26
  8
SUNPOU
  6
CONTINUOUS
 62
     4
 10
25829.351641999991
 20
14207.32367799999
 30
0.0
 11
27679.352962000012
 21
14207.32367799999
 31
0.0
  0
LINE
  5
7D27
  8
SUNPOU
  6
CONTINUOUS
 62
     4
 10
27599.352962000001
 20
20128.318267999992
 30
0.0
 11
27599.352962000001
 21
14207.32367799999
 31
0.0
  0
LINE
  5
7D28
  8
SUNPOU
  6
CONTINUOUS
 62
     4
 10
26679.352962000001
 20
20085.820973000002
 30
0.0
 11
27279.352962000001
 21
20085.820973000002
 31
0.0
  0
LINE
  5
7D29
  8
SUNPOU
  6
CONTINUOUS
 62
     4
 10
25829.351641999991
 20
20128.318267999992
 30
0.0
 11
27279.352962000001
 21
20128.318267999992
 31
0.0
  0
LINE
  5
7D2A
  8
SUNPOU
  6
CONTINUOUS
 62
     4
 10
27199.352962000001
 20
20085.820973000002
 30
0.0
 11
27199.352962000001
 21
19845.820972999991
 31
0.0
  0
LINE
  5
7D2B
  8
SUNPOU
  6
CONTINUOUS
 62
     4
 10
27199.352962000001
 20
20128.318267999992
 30
0.0
 11
27199.352962000001
 21
20368.318267999992
 31
0.0
  0
LINE
  5
7D2C
  8
SUNPOU
  6
CONTINUOUS
 62
     4
 10
27199.352962000001
 20
20085.820973000002
 30
0.0
 11
27199.352962000001
 21
20128.318267999992
 31
0.0
  0
LINE
  5
7D2D
  8
SUNPOU
  6
CONTINUOUS
 62
     4
 10
26679.352962000001
 20
14249.820972999991
 30
0.0
 11
27279.352962000001
 21
14249.820972999991
 31
0.0
  0
LINE
  5
7D2E
  8
SUNPOU
  6
CONTINUOUS
 62
     4
 10
25829.351641999991
 20
14207.32367799999
 30
0.0
 11
27279.352962000001
 21
14207.32367799999
 31
0.0
  0
LINE
  5
7D2F
  8
SUNPOU
  6
CONTINUOUS
 62
     4
 10
27199.352962000001
 20
14249.820972999991
 30
0.0
 11
27199.352962000001
 21
14489.820972999991
 31
0.0
  0
LINE
  5
7D30
  8
SUNPOU
  6
CONTINUOUS
 62
     4
 10
27199.352962000001
 20
14207.32367799999
 30
0.0
 11
27199.352962000001
 21
13967.323677999981
 31
0.0
  0
LINE
  5
7D31
  8
SUNPOU
  6
CONTINUOUS
 62
     4
 10
27199.352962000001
 20
14249.820972999991
 30
0.0
 11
27199.352962000001
 21
14207.32367799999
 31
0.0
  0
LINE
  5
7D32
  8
SUNPOU
  6
CONTINUOUS
 62
     4
 10
23840.353358000011
 20
20208.319258
 30
0.0
 11
23840.353358000011
 21
20938.322161
 31
0.0
  0
LINE
  5
7D33
  8
SUNPOU
  6
CONTINUOUS
 62
     4
 10
24247.853358000011
 20
20208.319258
 30
0.0
 11
24247.853358000011
 21
20938.322161
 31
0.0
  0
LINE
  5
7D34
  8
SUNPOU
  6
CONTINUOUS
 62
     4
 10
23840.353358000011
 20
20858.322161
 30
0.0
 11
24247.853358000011
 21
20858.322161
 31
0.0
  0
LINE
  5
7D35
  8
SUNPOU
  6
CONTINUOUS
 62
     4
 10
24948.853358000011
 20
20208.319258
 30
0.0
 11
24948.853358000011
 21
20938.322161
 31
0.0
  0
LINE
  5
7D36
  8
SUNPOU
  6
CONTINUOUS
 62
     4
 10
25706.854347500011
 20
20208.319258
 30
0.0
 11
25706.854347500011
 21
20938.322161
 31
0.0
  0
LINE
  5
7D37
  8
SUNPOU
  6
CONTINUOUS
 62
     4
 10
24948.853358000011
 20
20858.322161
 30
0.0
 11
25706.854347500011
 21
20858.322161
 31
0.0
  0
LINE
  5
7D38
  8
SUNPOU
  6
CONTINUOUS
 62
     4
 10
24247.853358000011
 20
20208.319258
 30
0.0
 11
24247.853358000011
 21
20938.322161
 31
0.0
  0
LINE
  5
7D39
  8
SUNPOU
  6
CONTINUOUS
 62
     4
 10
24948.853358000011
 20
20208.319258
 30
0.0
 11
24948.853358000011
 21
20938.322161
 31
0.0
  0
LINE
  5
7D3A
  8
SUNPOU
  6
CONTINUOUS
 62
     4
 10
24247.853358000011
 20
20858.322161
 30
0.0
 11
24948.853358000011
 21
20858.322161
 31
0.0
  0
LINE
  5
7D3B
  8
SUNPOU
  6
CONTINUOUS
 62
     4
 10
25706.853358000011
 20
20208.319258
 30
0.0
 11
25706.853358000011
 21
20938.322161
 31
0.0
  0
LINE
  5
7D3C
  8
SUNPOU
  6
CONTINUOUS
 62
     4
 10
25749.349663000001
 20
20208.319258
 30
0.0
 11
25749.349663000001
 21
20938.322161
 31
0.0
  0
LINE
  5
7D3D
  8
SUNPOU
  6
CONTINUOUS
 62
     4
 10
25706.853358000011
 20
20858.322161
 30
0.0
 11
25466.853358000011
 21
20858.322161
 31
0.0
  0
LINE
  5
7D3E
  8
SUNPOU
  6
CONTINUOUS
 62
     4
 10
25749.349663000001
 20
20858.322161
 30
0.0
 11
25989.349663000001
 21
20858.322161
 31
0.0
  0
LINE
  5
7D3F
  8
SUNPOU
  6
CONTINUOUS
 62
     4
 10
25706.853358000011
 20
20858.322161
 30
0.0
 11
25749.349663000001
 21
20858.322161
 31
0.0
  0
LINE
  5
7D40
  8
SUNPOU
  6
CONTINUOUS
 62
     4
 10
20571.853358
 20
20208.319258
 30
0.0
 11
20571.853358
 21
20938.322161
 31
0.0
  0
LINE
  5
7D41
  8
SUNPOU
  6
CONTINUOUS
 62
     4
 10
20979.353358
 20
20208.319258
 30
0.0
 11
20979.353358
 21
20938.322161
 31
0.0
  0
LINE
  5
7D42
  8
SUNPOU
  6
CONTINUOUS
 62
     4
 10
20571.853358
 20
20858.322161
 30
0.0
 11
20979.353358
 21
20858.322161
 31
0.0
  0
LINE
  5
7D43
  8
SUNPOU
  6
CONTINUOUS
 62
     4
 10
20571.853358
 20
20208.319258
 30
0.0
 11
20571.853358
 21
20938.322161
 31
0.0
  0
LINE
  5
7D44
  8
SUNPOU
  6
CONTINUOUS
 62
     4
 10
20529.357052999989
 20
20208.319258
 30
0.0
 11
20529.357052999989
 21
20938.322161
 31
0.0
  0
LINE
  5
7D45
  8
SUNPOU
  6
CONTINUOUS
 62
     4
 10
20571.853358
 20
20858.322161
 30
0.0
 11
20811.853358
 21
20858.322161
 31
0.0
  0
LINE
  5
7D46
  8
SUNPOU
  6
CONTINUOUS
 62
     4
 10
20529.357052999989
 20
20858.322161
 30
0.0
 11
20289.357052999989
 21
20858.322161
 31
0.0
  0
LINE
  5
7D47
  8
SUNPOU
  6
CONTINUOUS
 62
     4
 10
20571.853358
 20
20858.322161
 30
0.0
 11
20529.357052999989
 21
20858.322161
 31
0.0
  0
LINE
  5
7D48
  8
SUNPOU
  6
CONTINUOUS
 62
     4
 10
23082.353358000011
 20
20208.319258
 30
0.0
 11
23082.353358000011
 21
20938.322161
 31
0.0
  0
LINE
  5
7D49
  8
SUNPOU
  6
CONTINUOUS
 62
     4
 10
23840.354347500011
 20
20208.319258
 30
0.0
 11
23840.354347500011
 21
20938.322161
 31
0.0
  0
LINE
  5
7D4A
  8
SUNPOU
  6
CONTINUOUS
 62
     4
 10
23082.353358000011
 20
20858.322161
 30
0.0
 11
23840.354347500011
 21
20858.322161
 31
0.0
  0
LINE
  5
7D4B
  8
SUNPOU
  6
CONTINUOUS
 62
     4
 10
22381.353358000011
 20
20208.319258
 30
0.0
 11
22381.353358000011
 21
20938.322161
 31
0.0
  0
LINE
  5
7D4C
  8
SUNPOU
  6
CONTINUOUS
 62
     4
 10
23082.353358000011
 20
20208.319258
 30
0.0
 11
23082.353358000011
 21
20938.322161
 31
0.0
  0
LINE
  5
7D4D
  8
SUNPOU
  6
CONTINUOUS
 62
     4
 10
22381.353358000011
 20
20858.322161
 30
0.0
 11
23082.353358000011
 21
20858.322161
 31
0.0
  0
LINE
  5
7D4E
  8
SUNPOU
  6
CONTINUOUS
 62
     4
 10
21680.353358
 20
20208.319258
 30
0.0
 11
21680.353358
 21
20938.322161
 31
0.0
  0
LINE
  5
7D4F
  8
SUNPOU
  6
CONTINUOUS
 62
     4
 10
22381.353358000011
 20
20208.319258
 30
0.0
 11
22381.353358000011
 21
20938.322161
 31
0.0
  0
LINE
  5
7D50
  8
SUNPOU
  6
CONTINUOUS
 62
     4
 10
21680.353358
 20
20858.322161
 30
0.0
 11
22381.353358000011
 21
20858.322161
 31
0.0
  0
LINE
  5
7D51
  8
SUNPOU
  6
CONTINUOUS
 62
     4
 10
20979.353358
 20
20208.319258
 30
0.0
 11
20979.353358
 21
20938.322161
 31
0.0
  0
LINE
  5
7D52
  8
SUNPOU
  6
CONTINUOUS
 62
     4
 10
21680.353358
 20
20208.319258
 30
0.0
 11
21680.353358
 21
20938.322161
 31
0.0
  0
LINE
  5
7D53
  8
SUNPOU
  6
CONTINUOUS
 62
     4
 10
20979.353358
 20
20858.322161
 30
0.0
 11
21680.353358
 21
20858.322161
 31
0.0
  0
TEXT
  5
7D54
  8
0
  6
CONTINUOUS
 62
     7
 10
21156.520024666679
 20
20618.322161000011
 30
0.0
 40
160.0
  1
701
  0
TEXT
  5
7D55
  8
0
  6
CONTINUOUS
 62
     7
 10
21857.52002466669
 20
20938.322161
 30
0.0
 40
160.0
  1
701
  0
TEXT
  5
7D56
  8
0
  6
CONTINUOUS
 62
     7
 10
22558.520024666679
 20
20938.322161
 30
0.0
 40
160.0
  1
701
  0
TEXT
  5
7D57
  8
0
  6
CONTINUOUS
 62
     7
 10
23248.020519416681
 20
20938.322161
 30
0.0
 40
160.0
  1
758
  0
TEXT
  5
7D58
  8
0
  6
CONTINUOUS
 62
     7
 10
19969.0413784712
 20
20938.322161
 30
0.0
 40
160.0
  1
42.5
  0
TEXT
  5
7D59
  8
0
  6
CONTINUOUS
 62
     7
 10
20672.686691333329
 20
20938.322161
 30
0.0
 40
160.0
  1
407.5
  0
TEXT
  5
7D5A
  8
0
  6
CONTINUOUS
 62
     7
 10
25829.66533752879
 20
20938.322161
 30
0.0
 40
160.0
  1
42.5
  0
TEXT
  5
7D5B
  8
0
  6
CONTINUOUS
 62
     7
 10
24425.020024666672
 20
20618.322161000011
 30
0.0
 40
160.0
  1
701
  0
TEXT
  5
7D5C
  8
0
  6
CONTINUOUS
 62
     7
 10
25114.520519416681
 20
20938.322161
 30
0.0
 40
160.0
  1
758
  0
TEXT
  5
7D5D
  8
0
  6
CONTINUOUS
 62
     7
 10
23941.18669133334
 20
20938.322161
 30
0.0
 40
160.0
  1
407.5
  0
TEXT
  5
7D5E
  8
0
  6
CONTINUOUS
 62
     7
 10
27119.352962000001
 20
13633.7674416032
 30
0.0
 40
160.0
  1
42.5
 50
90.0
  0
TEXT
  5
7D5F
  8
0
  6
CONTINUOUS
 62
     7
 10
27119.352962000001
 20
20221.874504396768
 30
0.0
 40
160.0
  1
42.5
 50
90.0
  0
TEXT
  5
7D60
  8
0
  6
CONTINUOUS
 62
     7
 10
27519.352962000001
 20
16901.15430633333
 30
0.0
 40
160.0
  1
5921
 50
90.0
  0
TEXT
  5
7D61
  8
0
  6
CONTINUOUS
 62
     7
 10
27119.352962000001
 20
15442.15430633333
 30
0.0
 40
160.0
  1
2918
 50
90.0
  0
TEXT
  5
7D62
  8
0
  6
CONTINUOUS
 62
     7
 10
27119.352962000001
 20
18360.15430633333
 30
0.0
 40
160.0
  1
2918
 50
90.0
  0
TEXT
  5
7D63
  8
0
  6
CONTINUOUS
 62
     7
 10
26719.352962000001
 20
19493.48763966664
 30
0.0
 40
160.0
  1
758
 50
90.0
  0
TEXT
  5
7D64
  8
0
  6
CONTINUOUS
 62
     7
 10
26719.352962000001
 20
18803.98763966664
 30
0.0
 40
160.0
  1
701
 50
90.0
  0
TEXT
  5
7D65
  8
0
  6
CONTINUOUS
 62
     7
 10
26719.352962000001
 20
18102.98763966667
 30
0.0
 40
160.0
  1
701
 50
90.0
  0
TEXT
  5
7D66
  8
0
  6
CONTINUOUS
 62
     7
 10
26719.352962000001
 20
17333.487639666659
 30
0.0
 40
160.0
  1
758
 50
90.0
  0
TEXT
  5
7D67
  8
0
  6
CONTINUOUS
 62
     7
 10
26719.352962000001
 20
16575.487639666651
 30
0.0
 40
160.0
  1
758
 50
90.0
  0
TEXT
  5
7D68
  8
0
  6
CONTINUOUS
 62
     7
 10
26719.352962000001
 20
15886.107895416661
 30
0.0
 40
160.0
  1
701
 50
90.0
  0
TEXT
  5
7D69
  8
0
  6
CONTINUOUS
 62
     7
 10
26719.352962000001
 20
15185.107895416661
 30
0.0
 40
160.0
  1
701
 50
90.0
  0
TEXT
  5
7D6A
  8
0
  6
CONTINUOUS
 62
     7
 10
26719.352962000001
 20
14415.48763966666
 30
0.0
 40
160.0
  1
758
 50
90.0
  0
TEXT
  5
7D6B
  8
0
  6
CONTINUOUS
 62
     7
 10
22859.353358000011
 20
12958.37288899998
 30
0.0
 40
160.0
  1
5220
  0
TEXT
  5
7D6C
  8
0
  6
CONTINUOUS
 62
     7
 10
20689.907030382081
 20
13358.37288899998
 30
0.0
 40
160.0
  1
42.5
  0
TEXT
  5
7D6D
  8
0
  6
CONTINUOUS
 62
     7
 10
25108.799685617902
 20
13358.37288899998
 30
0.0
 40
160.0
  1
42.5
  0
TEXT
  5
7D6E
  8
0
  6
CONTINUOUS
 62
     7
 10
25824.907030382081
 20
13358.37288899998
 30
0.0
 40
160.0
  1
42.5
  0
TEXT
  5
7D6F
  8
0
  6
CONTINUOUS
 62
     7
 10
19973.799685617909
 20
13358.37288899998
 30
0.0
 40
160.0
  1
42.5
  0
TEXT
  5
7D70
  8
0
  6
CONTINUOUS
 62
     7
 10
14028.92726933335
 20
4717.5588449999923
 30
0.0
 40
160.0
  1
2918
  0
TEXT
  5
7D71
  8
0
  6
CONTINUOUS
 62
     7
 10
11110.92726933335
 20
4717.5588449999923
 30
0.0
 40
160.0
  1
2918
  0
TEXT
  5
7D72
  8
0
  6
CONTINUOUS
 62
     7
 10
9278.9202269037032
 20
4717.5588449999923
 30
0.0
 40
160.0
  1
42.5
  0
TEXT
  5
7D73
  8
0
  6
CONTINUOUS
 62
     7
 10
15935.41257330983
 20
4717.5588449999923
 30
0.0
 40
160.0
  1
42.5
  0
TEXT
  5
7D74
  8
0
  6
CONTINUOUS
 62
     7
 10
12569.927269333341
 20
4317.5590099999927
 30
0.0
 40
160.0
  1
5921
  0
TEXT
  5
7D75
  8
0
  6
CONTINUOUS
 62
     7
 10
16807.093341000011
 20
6093.1425083333252
 30
0.0
 40
160.0
  1
2348.5（2588.5）
 50
90.0
  0
TEXT
  5
7D76
  8
0
  6
CONTINUOUS
 62
     7
 10
8706.0955180000128
 20
6023.809174999993
 30
0.0
 40
160.0
  1
2156.5（2396.5）
 50
90.0
  0
TEXT
  5
7D77
  8
0
  6
CONTINUOUS
 62
     7
 10
9282.7606026666854
 20
9165.5598609999906
 30
0.0
 40
160.0
  1
180
  0
TEXT
  5
7D78
  8
0
  6
CONTINUOUS
 62
     7
 10
12569.92726883334
 20
9165.5598609999906
 30
0.0
 40
160.0
  1
5921
  0
TEXT
  5
7D79
  8
0
  6
CONTINUOUS
 62
     7
 10
16013.76060266668
 20
9165.5598609999906
 30
0.0
 40
160.0
  1
150
  0
TEXT
  5
7D7A
  8
0
  6
CONTINUOUS
 62
     7
 10
12554.927269333341
 20
9565.5582109999887
 30
0.0
 40
160.0
  1
6251
  0
TEXT
  5
7D7B
  8
0
  6
CONTINUOUS
 62
     7
 10
23014.35050700001
 20
4317.5599999999858
 30
0.0
 40
160.0
  1
5220
  0
TEXT
  5
7D7C
  8
0
  6
CONTINUOUS
 62
     7
 10
20118.311516741149
 20
4717.5598349999909
 30
0.0
 40
160.0
  1
42.5
  0
TEXT
  5
7D7D
  8
0
  6
CONTINUOUS
 62
     7
 10
25990.393456258858
 20
4717.5598349999909
 30
0.0
 40
160.0
  1
42.5
  0
TEXT
  5
7D7E
  8
0
  6
CONTINUOUS
 62
     7
 10
21961.10050700001
 20
4717.5598349999909
 30
0.0
 40
160.0
  1
3268.5
  0
TEXT
  5
7D7F
  8
0
  6
CONTINUOUS
 62
     7
 10
24555.267173666671
 20
4717.5598349999909
 30
0.0
 40
160.0
  1
1866.5
  0
TEXT
  5
7D80
  8
0
  6
CONTINUOUS
 62
     7
 10
24464.60050700001
 20
5384.226501666657
 30
0.0
 40
160.0
  1
有効開口巾
  0
TEXT
  5
7D81
  8
0
  6
CONTINUOUS
 62
     7
 10
24507.267173666671
 20
5117.55983499999
 30
0.0
 40
160.0
  1
 1678.5
  0
TEXT
  5
7D82
  8
0
  6
CONTINUOUS
 62
     7
 10
21459.767173666671
 20
5117.55983499999
 30
0.0
 40
160.0
  1
有効開口巾 3080.5
  0
TEXT
  5
7D87
  8
0
  6
CONTINUOUS
 62
     7
 10
19396.848858000001
 20
6093.1430033333263
 30
0.0
 40
160.0
  1
2348.5（2588.5）
 50
90.0
  0
TEXT
  5
7D88
  8
0
  6
CONTINUOUS
 62
     7
 10
19796.85116699999
 20
6001.5389082912616
 30
0.0
 40
160.0
  1
有効開口高サ 1891.5
 50
90.0
  0
TEXT
  5
7D8A
  8
0
  6
CONTINUOUS
 62
     7
 10
9060.0911974767623
 20
20938.32809899998
 30
0.0
 40
160.0
  1
85.5
  0
TEXT
  5
7D8B
  8
0
  6
CONTINUOUS
 62
     7
 10
10910.83790350002
 20
20938.32809899998
 30
0.0
 40
160.0
  1
3268.5
  0
TEXT
  5
7D8C
  8
0
  6
CONTINUOUS
 62
     7
 10
14948.07273352325
 20
20938.32809899998
 30
0.0
 40
160.0
  1
85.5
  0
TEXT
  5
7D8D
  8
0
  6
CONTINUOUS
 62
     7
 10
13504.992694166651
 20
20938.32809899998
 30
0.0
 40
160.0
  1
1866.5
  0
TEXT
  5
7D8E
  8
0
  6
CONTINUOUS
 62
     7
 10
9067.0821895000117
 20
20454.985527666671
 30
0.0
 40
160.0
  1
10
 50
90.0
  0
TEXT
  5
7D8F
  8
0
  6
CONTINUOUS
 62
     7
 10
8667.0821895000117
 20
20397.278136807661
 30
0.0
 40
160.0
  1
222.5
 50
90.0
  0
TEXT
  5
7D90
  8
0
  6
CONTINUOUS
 62
     7
 10
8667.0821895000117
 20
18360.156285333302
 30
0.0
 40
160.0
  1
2918
 50
90.0
  0
TEXT
  5
7D91
  8
0
  6
CONTINUOUS
 62
     7
 10
8667.0821895000117
 20
15442.156285333311
 30
0.0
 40
160.0
  1
2918
 50
90.0
  0
TEXT
  5
7D92
  8
0
  6
CONTINUOUS
 62
     7
 10
8667.0821895000117
 20
13441.8699417026
 30
0.0
 40
160.0
  1
192.5
 50
90.0
  0
ARC
  5
7D93
  8
0
  6
BYBLOCK
 62
     0
 10
8747.0821895000117
 20
14249.82295199998
 30
0.0
 40
15.0
 50
270.0
 51
90.0
  0
ARC
  5
7D94
  8
0
  6
BYBLOCK
 62
     0
 10
8747.0821895000117
 20
14249.82295199998
 30
0.0
 40
15.0
 50
90.0
 51
270.0
  0
ARC
  5
7D95
  8
0
  6
BYBLOCK
 62
     0
 10
8747.0821895000117
 20
14057.32763699998
 30
0.0
 40
15.0
 50
90.0
 51
270.0
  0
ARC
  5
7D96
  8
0
  6
BYBLOCK
 62
     0
 10
8747.0821895000117
 20
14057.32763699998
 30
0.0
 40
15.0
 50
270.0
 51
90.0
  0
ARC
  5
7D97
  8
0
  6
BYBLOCK
 62
     0
 10
8747.0821895000117
 20
14249.82295199998
 30
0.0
 40
15.0
 50
90.0
 51
270.0
  0
ARC
  5
7D98
  8
0
  6
BYBLOCK
 62
     0
 10
8747.0821895000117
 20
14249.82295199998
 30
0.0
 40
15.0
 50
270.0
 51
90.0
  0
ARC
  5
7D99
  8
0
  6
BYBLOCK
 62
     0
 10
8747.0821895000117
 20
17167.82295199998
 30
0.0
 40
15.0
 50
270.0
 51
90.0
  0
ARC
  5
7D9A
  8
0
  6
BYBLOCK
 62
     0
 10
8747.0821895000117
 20
17167.82295199998
 30
0.0
 40
15.0
 50
90.0
 51
270.0
  0
ARC
  5
7D9B
  8
0
  6
BYBLOCK
 62
     0
 10
8747.0821895000117
 20
17167.82295199998
 30
0.0
 40
15.0
 50
90.0
 51
270.0
  0
ARC
  5
7D9C
  8
0
  6
BYBLOCK
 62
     0
 10
8747.0821895000117
 20
17167.82295199998
 30
0.0
 40
15.0
 50
270.0
 51
90.0
  0
ARC
  5
7D9D
  8
0
  6
BYBLOCK
 62
     0
 10
8747.0821895000117
 20
20085.82295199998
 30
0.0
 40
15.0
 50
270.0
 51
90.0
  0
ARC
  5
7D9E
  8
0
  6
BYBLOCK
 62
     0
 10
8747.0821895000117
 20
20085.82295199998
 30
0.0
 40
15.0
 50
90.0
 51
270.0
  0
ARC
  5
7D9F
  8
0
  6
BYBLOCK
 62
     0
 10
8747.0821895000117
 20
20085.82295199998
 30
0.0
 40
15.0
 50
90.0
 51
270.0
  0
ARC
  5
7DA0
  8
0
  6
BYBLOCK
 62
     0
 10
8747.0821895000117
 20
20085.82295199998
 30
0.0
 40
15.0
 50
270.0
 51
90.0
  0
ARC
  5
7DA1
  8
0
  6
BYBLOCK
 62
     0
 10
8747.0821895000117
 20
20308.318861
 30
0.0
 40
15.0
 50
270.0
 51
90.0
  0
ARC
  5
7DA2
  8
0
  6
BYBLOCK
 62
     0
 10
8747.0821895000117
 20
20308.318861
 30
0.0
 40
15.0
 50
90.0
 51
270.0
  0
ARC
  5
7DA3
  8
0
  6
BYBLOCK
 62
     0
 10
9147.0821895000117
 20
20298.318332999981
 30
0.0
 40
15.0
 50
270.0
 51
90.0
  0
ARC
  5
7DA4
  8
0
  6
BYBLOCK
 62
     0
 10
9147.0821895000117
 20
20298.318332999981
 30
0.0
 40
15.0
 50
90.0
 51
270.0
  0
ARC
  5
7DA5
  8
0
  6
BYBLOCK
 62
     0
 10
9147.0821895000117
 20
20308.318861
 30
0.0
 40
15.0
 50
90.0
 51
270.0
  0
ARC
  5
7DA6
  8
0
  6
BYBLOCK
 62
     0
 10
9147.0821895000117
 20
20308.318861
 30
0.0
 40
15.0
 50
270.0
 51
90.0
  0
ARC
  5
7DA7
  8
0
  6
BYBLOCK
 62
     0
 10
12945.07602749999
 20
20858.32809899998
 30
0.0
 40
15.0
 50
0.0
 51
180.0
  0
ARC
  5
7DA8
  8
0
  6
BYBLOCK
 62
     0
 10
12945.07602749999
 20
20858.32809899998
 30
0.0
 40
15.0
 50
180.0
 51
0.0
  0
ARC
  5
7DA9
  8
0
  6
BYBLOCK
 62
     0
 10
14811.57602749999
 20
20858.32809899998
 30
0.0
 40
15.0
 50
180.0
 51
0.0
  0
ARC
  5
7DAA
  8
0
  6
BYBLOCK
 62
     0
 10
14811.57602749999
 20
20858.32809899998
 30
0.0
 40
15.0
 50
0.0
 51
180.0
  0
ARC
  5
7DAB
  8
0
  6
BYBLOCK
 62
     0
 10
14811.57602749999
 20
20858.32809899998
 30
0.0
 40
15.0
 50
180.0
 51
0.0
  0
ARC
  5
7DAC
  8
0
  6
BYBLOCK
 62
     0
 10
14811.57602749999
 20
20858.32809899998
 30
0.0
 40
15.0
 50
0.0
 51
180.0
  0
ARC
  5
7DAD
  8
0
  6
BYBLOCK
 62
     0
 10
14897.07602749999
 20
20858.32809899998
 30
0.0
 40
15.0
 50
0.0
 51
180.0
  0
ARC
  5
7DAE
  8
0
  6
BYBLOCK
 62
     0
 10
14897.07602749999
 20
20858.32809899998
 30
0.0
 40
15.0
 50
180.0
 51
0.0
  0
ARC
  5
7DAF
  8
0
  6
BYBLOCK
 62
     0
 10
12945.08790350002
 20
20858.32809899998
 30
0.0
 40
15.0
 50
180.0
 51
0.0
  0
ARC
  5
7DB0
  8
0
  6
BYBLOCK
 62
     0
 10
12945.08790350002
 20
20858.32809899998
 30
0.0
 40
15.0
 50
0.0
 51
180.0
  0
ARC
  5
7DB1
  8
0
  6
BYBLOCK
 62
     0
 10
9676.5879035000253
 20
20858.32809899998
 30
0.0
 40
15.0
 50
0.0
 51
180.0
  0
ARC
  5
7DB2
  8
0
  6
BYBLOCK
 62
     0
 10
9676.5879035000253
 20
20858.32809899998
 30
0.0
 40
15.0
 50
180.0
 51
0.0
  0
ARC
  5
7DB3
  8
0
  6
BYBLOCK
 62
     0
 10
9676.5879035000253
 20
20858.32809899998
 30
0.0
 40
15.0
 50
0.0
 51
180.0
  0
ARC
  5
7DB4
  8
0
  6
BYBLOCK
 62
     0
 10
9676.5879035000253
 20
20858.32809899998
 30
0.0
 40
15.0
 50
180.0
 51
0.0
  0
ARC
  5
7DB5
  8
0
  6
BYBLOCK
 62
     0
 10
9591.0879035000235
 20
20858.32809899998
 30
0.0
 40
15.0
 50
180.0
 51
0.0
  0
ARC
  5
7DB6
  8
0
  6
BYBLOCK
 62
     0
 10
9591.0879035000235
 20
20858.32809899998
 30
0.0
 40
15.0
 50
0.0
 51
180.0
  0
ARC
  5
7DBB
  8
0
  6
BYBLOCK
 62
     0
 10
19876.85116699999
 20
5937.5596699999869
 30
0.0
 40
15.0
 50
90.0
 51
270.0
  0
ARC
  5
7DBC
  8
0
  6
BYBLOCK
 62
     0
 10
19876.85116699999
 20
5937.5596699999869
 30
0.0
 40
15.0
 50
270.0
 51
90.0
  0
ARC
  5
7DBD
  8
0
  6
BYBLOCK
 62
     0
 10
19876.85116699999
 20
7829.0596699999869
 30
0.0
 40
15.0
 50
270.0
 51
90.0
  0
ARC
  5
7DBE
  8
0
  6
BYBLOCK
 62
     0
 10
19876.85116699999
 20
7829.0596699999869
 30
0.0
 40
15.0
 50
90.0
 51
270.0
  0
ARC
  5
7DBF
  8
0
  6
BYBLOCK
 62
     0
 10
19476.848858000001
 20
5937.5596699999869
 30
0.0
 40
15.0
 50
90.0
 51
270.0
  0
ARC
  5
7DC0
  8
0
  6
BYBLOCK
 62
     0
 10
19476.848858000001
 20
5937.5596699999869
 30
0.0
 40
15.0
 50
270.0
 51
90.0
  0
ARC
  5
7DC1
  8
0
  6
BYBLOCK
 62
     0
 10
19476.848858000001
 20
8286.0596699999987
 30
0.0
 40
15.0
 50
270.0
 51
90.0
  0
ARC
  5
7DC2
  8
0
  6
BYBLOCK
 62
     0
 10
19476.848858000001
 20
8286.0596699999987
 30
0.0
 40
15.0
 50
90.0
 51
270.0
  0
ARC
  5
7DD3
  8
0
  6
BYBLOCK
 62
     0
 10
20820.85050700001
 20
5037.5598349999909
 30
0.0
 40
15.0
 50
0.0
 51
180.0
  0
ARC
  5
7DD4
  8
0
  6
BYBLOCK
 62
     0
 10
20820.85050700001
 20
5037.5598349999909
 30
0.0
 40
15.0
 50
180.0
 51
0.0
  0
ARC
  5
7DD5
  8
0
  6
BYBLOCK
 62
     0
 10
23901.350506999999
 20
5037.5598349999909
 30
0.0
 40
15.0
 50
180.0
 51
0.0
  0
ARC
  5
7DD6
  8
0
  6
BYBLOCK
 62
     0
 10
23901.350506999999
 20
5037.5598349999909
 30
0.0
 40
15.0
 50
0.0
 51
180.0
  0
ARC
  5
7DD7
  8
0
  6
BYBLOCK
 62
     0
 10
24089.35050700001
 20
5037.5598349999909
 30
0.0
 40
15.0
 50
0.0
 51
180.0
  0
ARC
  5
7DD8
  8
0
  6
BYBLOCK
 62
     0
 10
24089.35050700001
 20
5037.5598349999909
 30
0.0
 40
15.0
 50
180.0
 51
0.0
  0
ARC
  5
7DD9
  8
0
  6
BYBLOCK
 62
     0
 10
25767.85050700001
 20
5037.5598349999909
 30
0.0
 40
15.0
 50
180.0
 51
0.0
  0
ARC
  5
7DDA
  8
0
  6
BYBLOCK
 62
     0
 10
25767.85050700001
 20
5037.5598349999909
 30
0.0
 40
15.0
 50
0.0
 51
180.0
  0
ARC
  5
7DDB
  8
0
  6
BYBLOCK
 62
     0
 10
23995.35050700001
 20
4637.5598349999909
 30
0.0
 40
15.0
 50
0.0
 51
180.0
  0
ARC
  5
7DDC
  8
0
  6
BYBLOCK
 62
     0
 10
23995.35050700001
 20
4637.5598349999909
 30
0.0
 40
15.0
 50
180.0
 51
0.0
  0
ARC
  5
7DDD
  8
0
  6
BYBLOCK
 62
     0
 10
25861.85050700001
 20
4637.5598349999909
 30
0.0
 40
15.0
 50
180.0
 51
0.0
  0
ARC
  5
7DDE
  8
0
  6
BYBLOCK
 62
     0
 10
25861.85050700001
 20
4637.5598349999909
 30
0.0
 40
15.0
 50
0.0
 51
180.0
  0
ARC
  5
7DDF
  8
0
  6
BYBLOCK
 62
     0
 10
20726.850506999999
 20
4637.5598349999909
 30
0.0
 40
15.0
 50
0.0
 51
180.0
  0
ARC
  5
7DE0
  8
0
  6
BYBLOCK
 62
     0
 10
20726.850506999999
 20
4637.5598349999909
 30
0.0
 40
15.0
 50
180.0
 51
0.0
  0
ARC
  5
7DE1
  8
0
  6
BYBLOCK
 62
     0
 10
23995.35050700001
 20
4637.5598349999909
 30
0.0
 40
15.0
 50
180.0
 51
0.0
  0
ARC
  5
7DE2
  8
0
  6
BYBLOCK
 62
     0
 10
23995.35050700001
 20
4637.5598349999909
 30
0.0
 40
15.0
 50
0.0
 51
180.0
  0
ARC
  5
7DE3
  8
0
  6
BYBLOCK
 62
     0
 10
25861.854466000012
 20
4637.5598349999909
 30
0.0
 40
15.0
 50
180.0
 51
0.0
  0
ARC
  5
7DE4
  8
0
  6
BYBLOCK
 62
     0
 10
25861.854466000012
 20
4637.5598349999909
 30
0.0
 40
15.0
 50
0.0
 51
180.0
  0
ARC
  5
7DE5
  8
0
  6
BYBLOCK
 62
     0
 10
25904.354466000012
 20
4637.5598349999909
 30
0.0
 40
15.0
 50
0.0
 51
180.0
  0
ARC
  5
7DE6
  8
0
  6
BYBLOCK
 62
     0
 10
25904.354466000012
 20
4637.5598349999909
 30
0.0
 40
15.0
 50
180.0
 51
0.0
  0
ARC
  5
7DE7
  8
0
  6
BYBLOCK
 62
     0
 10
20726.850506999999
 20
4637.5598349999909
 30
0.0
 40
15.0
 50
0.0
 51
180.0
  0
ARC
  5
7DE8
  8
0
  6
BYBLOCK
 62
     0
 10
20726.850506999999
 20
4637.5598349999909
 30
0.0
 40
15.0
 50
180.0
 51
0.0
  0
ARC
  5
7DE9
  8
0
  6
BYBLOCK
 62
     0
 10
20684.35050700001
 20
4637.5598349999909
 30
0.0
 40
15.0
 50
180.0
 51
0.0
  0
ARC
  5
7DEA
  8
0
  6
BYBLOCK
 62
     0
 10
20684.35050700001
 20
4637.5598349999909
 30
0.0
 40
15.0
 50
0.0
 51
180.0
  0
ARC
  5
7DEB
  8
0
  6
BYBLOCK
 62
     0
 10
20684.35050700001
 20
4237.5599999999858
 30
0.0
 40
15.0
 50
0.0
 51
180.0
  0
ARC
  5
7DEC
  8
0
  6
BYBLOCK
 62
     0
 10
20684.35050700001
 20
4237.5599999999858
 30
0.0
 40
15.0
 50
180.0
 51
0.0
  0
ARC
  5
7DED
  8
0
  6
BYBLOCK
 62
     0
 10
25904.35050700001
 20
4237.5599999999858
 30
0.0
 40
15.0
 50
180.0
 51
0.0
  0
ARC
  5
7DEE
  8
0
  6
BYBLOCK
 62
     0
 10
25904.35050700001
 20
4237.5599999999858
 30
0.0
 40
15.0
 50
0.0
 51
180.0
  0
ARC
  5
7DEF
  8
0
  6
BYBLOCK
 62
     0
 10
9696.0939360000193
 20
9485.5582109999887
 30
0.0
 40
15.0
 50
0.0
 51
180.0
  0
ARC
  5
7DF0
  8
0
  6
BYBLOCK
 62
     0
 10
9696.0939360000193
 20
9485.5582109999887
 30
0.0
 40
15.0
 50
180.0
 51
0.0
  0
ARC
  5
7DF1
  8
0
  6
BYBLOCK
 62
     0
 10
15947.093936000019
 20
9485.5582109999887
 30
0.0
 40
15.0
 50
180.0
 51
0.0
  0
ARC
  5
7DF2
  8
0
  6
BYBLOCK
 62
     0
 10
15947.093936000019
 20
9485.5582109999887
 30
0.0
 40
15.0
 50
0.0
 51
180.0
  0
ARC
  5
7DF3
  8
0
  6
BYBLOCK
 62
     0
 10
15797.095189000011
 20
9085.5598609999906
 30
0.0
 40
15.0
 50
180.0
 51
0.0
  0
ARC
  5
7DF4
  8
0
  6
BYBLOCK
 62
     0
 10
15797.095189000011
 20
9085.5598609999906
 30
0.0
 40
15.0
 50
0.0
 51
180.0
  0
ARC
  5
7DF5
  8
0
  6
BYBLOCK
 62
     0
 10
15947.093936000019
 20
9085.5598609999906
 30
0.0
 40
15.0
 50
0.0
 51
180.0
  0
ARC
  5
7DF6
  8
0
  6
BYBLOCK
 62
     0
 10
15947.093936000019
 20
9085.5598609999906
 30
0.0
 40
15.0
 50
180.0
 51
0.0
  0
ARC
  5
7DF7
  8
0
  6
BYBLOCK
 62
     0
 10
9876.092682000015
 20
9085.5598609999906
 30
0.0
 40
15.0
 50
0.0
 51
180.0
  0
ARC
  5
7DF8
  8
0
  6
BYBLOCK
 62
     0
 10
9876.092682000015
 20
9085.5598609999906
 30
0.0
 40
15.0
 50
180.0
 51
0.0
  0
ARC
  5
7DF9
  8
0
  6
BYBLOCK
 62
     0
 10
15797.095189000011
 20
9085.5598609999906
 30
0.0
 40
15.0
 50
180.0
 51
0.0
  0
ARC
  5
7DFA
  8
0
  6
BYBLOCK
 62
     0
 10
15797.095189000011
 20
9085.5598609999906
 30
0.0
 40
15.0
 50
0.0
 51
180.0
  0
ARC
  5
7DFB
  8
0
  6
BYBLOCK
 62
     0
 10
9696.0939360000193
 20
9085.5598609999906
 30
0.0
 40
15.0
 50
0.0
 51
180.0
  0
ARC
  5
7DFC
  8
0
  6
BYBLOCK
 62
     0
 10
9696.0939360000193
 20
9085.5598609999906
 30
0.0
 40
15.0
 50
180.0
 51
0.0
  0
ARC
  5
7DFD
  8
0
  6
BYBLOCK
 62
     0
 10
9876.092682000015
 20
9085.5598609999906
 30
0.0
 40
15.0
 50
180.0
 51
0.0
  0
ARC
  5
7DFE
  8
0
  6
BYBLOCK
 62
     0
 10
9876.092682000015
 20
9085.5598609999906
 30
0.0
 40
15.0
 50
0.0
 51
180.0
  0
ARC
  5
7DFF
  8
0
  6
BYBLOCK
 62
     0
 10
8786.0955180000128
 20
5937.5591749999903
 30
0.0
 40
15.0
 50
90.0
 51
270.0
  0
ARC
  5
7E00
  8
0
  6
BYBLOCK
 62
     0
 10
8786.0955180000128
 20
5937.5591749999903
 30
0.0
 40
15.0
 50
270.0
 51
90.0
  0
ARC
  5
7E01
  8
0
  6
BYBLOCK
 62
     0
 10
8786.0955180000128
 20
8094.0591749999912
 30
0.0
 40
15.0
 50
270.0
 51
90.0
  0
ARC
  5
7E02
  8
0
  6
BYBLOCK
 62
     0
 10
8786.0955180000128
 20
8094.0591749999912
 30
0.0
 40
15.0
 50
90.0
 51
270.0
  0
ARC
  5
7E03
  8
0
  6
BYBLOCK
 62
     0
 10
16887.093341000011
 20
5937.5591749999903
 30
0.0
 40
15.0
 50
90.0
 51
270.0
  0
ARC
  5
7E04
  8
0
  6
BYBLOCK
 62
     0
 10
16887.093341000011
 20
5937.5591749999903
 30
0.0
 40
15.0
 50
270.0
 51
90.0
  0
ARC
  5
7E05
  8
0
  6
BYBLOCK
 62
     0
 10
16887.093341000011
 20
8286.0591749999894
 30
0.0
 40
15.0
 50
270.0
 51
90.0
  0
ARC
  5
7E06
  8
0
  6
BYBLOCK
 62
     0
 10
16887.093341000011
 20
8286.0591749999894
 30
0.0
 40
15.0
 50
90.0
 51
270.0
  0
ARC
  5
7E07
  8
0
  6
BYBLOCK
 62
     0
 10
9876.0939360000193
 20
4237.5590099999927
 30
0.0
 40
15.0
 50
0.0
 51
180.0
  0
ARC
  5
7E08
  8
0
  6
BYBLOCK
 62
     0
 10
9876.0939360000193
 20
4237.5590099999927
 30
0.0
 40
15.0
 50
180.0
 51
0.0
  0
ARC
  5
7E09
  8
0
  6
BYBLOCK
 62
     0
 10
15797.09393600001
 20
4237.5590099999927
 30
0.0
 40
15.0
 50
180.0
 51
0.0
  0
ARC
  5
7E0A
  8
0
  6
BYBLOCK
 62
     0
 10
15797.09393600001
 20
4237.5590099999927
 30
0.0
 40
15.0
 50
0.0
 51
180.0
  0
ARC
  5
7E0B
  8
0
  6
BYBLOCK
 62
     0
 10
15754.593936000019
 20
4637.5588449999923
 30
0.0
 40
15.0
 50
180.0
 51
0.0
  0
ARC
  5
7E0C
  8
0
  6
BYBLOCK
 62
     0
 10
15754.593936000019
 20
4637.5588449999923
 30
0.0
 40
15.0
 50
0.0
 51
180.0
  0
ARC
  5
7E0D
  8
0
  6
BYBLOCK
 62
     0
 10
15797.09393600001
 20
4637.5588449999923
 30
0.0
 40
15.0
 50
0.0
 51
180.0
  0
ARC
  5
7E0E
  8
0
  6
BYBLOCK
 62
     0
 10
15797.09393600001
 20
4637.5588449999923
 30
0.0
 40
15.0
 50
180.0
 51
0.0
  0
ARC
  5
7E0F
  8
0
  6
BYBLOCK
 62
     0
 10
9918.5939360000193
 20
4637.5588449999923
 30
0.0
 40
15.0
 50
0.0
 51
180.0
  0
ARC
  5
7E10
  8
0
  6
BYBLOCK
 62
     0
 10
9918.5939360000193
 20
4637.5588449999923
 30
0.0
 40
15.0
 50
180.0
 51
0.0
  0
ARC
  5
7E11
  8
0
  6
BYBLOCK
 62
     0
 10
9876.0939360000193
 20
4637.5588449999923
 30
0.0
 40
15.0
 50
180.0
 51
0.0
  0
ARC
  5
7E12
  8
0
  6
BYBLOCK
 62
     0
 10
9876.0939360000193
 20
4637.5588449999923
 30
0.0
 40
15.0
 50
0.0
 51
180.0
  0
ARC
  5
7E13
  8
0
  6
BYBLOCK
 62
     0
 10
12836.593936000019
 20
4637.5588449999923
 30
0.0
 40
15.0
 50
180.0
 51
0.0
  0
ARC
  5
7E14
  8
0
  6
BYBLOCK
 62
     0
 10
12836.593936000019
 20
4637.5588449999923
 30
0.0
 40
15.0
 50
0.0
 51
180.0
  0
ARC
  5
7E15
  8
0
  6
BYBLOCK
 62
     0
 10
9918.5939360000193
 20
4637.5588449999923
 30
0.0
 40
15.0
 50
0.0
 51
180.0
  0
ARC
  5
7E16
  8
0
  6
BYBLOCK
 62
     0
 10
9918.5939360000193
 20
4637.5588449999923
 30
0.0
 40
15.0
 50
180.0
 51
0.0
  0
ARC
  5
7E17
  8
0
  6
BYBLOCK
 62
     0
 10
12836.593936000019
 20
4637.5588449999923
 30
0.0
 40
15.0
 50
0.0
 51
180.0
  0
ARC
  5
7E18
  8
0
  6
BYBLOCK
 62
     0
 10
12836.593936000019
 20
4637.5588449999923
 30
0.0
 40
15.0
 50
180.0
 51
0.0
  0
ARC
  5
7E19
  8
0
  6
BYBLOCK
 62
     0
 10
15754.593936000019
 20
4637.5588449999923
 30
0.0
 40
15.0
 50
180.0
 51
0.0
  0
ARC
  5
7E1A
  8
0
  6
BYBLOCK
 62
     0
 10
15754.593936000019
 20
4637.5588449999923
 30
0.0
 40
15.0
 50
0.0
 51
180.0
  0
ARC
  5
7E1B
  8
0
  6
BYBLOCK
 62
     0
 10
20571.853358
 20
13278.37288899998
 30
0.0
 40
15.0
 50
0.0
 51
180.0
  0
ARC
  5
7E1C
  8
0
  6
BYBLOCK
 62
     0
 10
20571.853358
 20
13278.37288899998
 30
0.0
 40
15.0
 50
180.0
 51
0.0
  0
ARC
  5
7E1D
  8
0
  6
BYBLOCK
 62
     0
 10
20529.351115000001
 20
13278.37288899998
 30
0.0
 40
15.0
 50
180.0
 51
0.0
  0
ARC
  5
7E1E
  8
0
  6
BYBLOCK
 62
     0
 10
20529.351115000001
 20
13278.37288899998
 30
0.0
 40
15.0
 50
0.0
 51
180.0
  0
ARC
  5
7E1F
  8
0
  6
BYBLOCK
 62
     0
 10
25706.853358000011
 20
13278.37288899998
 30
0.0
 40
15.0
 50
180.0
 51
0.0
  0
ARC
  5
7E20
  8
0
  6
BYBLOCK
 62
     0
 10
25706.853358000011
 20
13278.37288899998
 30
0.0
 40
15.0
 50
0.0
 51
180.0
  0
ARC
  5
7E21
  8
0
  6
BYBLOCK
 62
     0
 10
25749.35560100001
 20
13278.37288899998
 30
0.0
 40
15.0
 50
0.0
 51
180.0
  0
ARC
  5
7E22
  8
0
  6
BYBLOCK
 62
     0
 10
25749.35560100001
 20
13278.37288899998
 30
0.0
 40
15.0
 50
180.0
 51
0.0
  0
ARC
  5
7E23
  8
0
  6
BYBLOCK
 62
     0
 10
25706.853358000011
 20
13278.37288899998
 30
0.0
 40
15.0
 50
0.0
 51
180.0
  0
ARC
  5
7E24
  8
0
  6
BYBLOCK
 62
     0
 10
25706.853358000011
 20
13278.37288899998
 30
0.0
 40
15.0
 50
180.0
 51
0.0
  0
ARC
  5
7E25
  8
0
  6
BYBLOCK
 62
     0
 10
25664.351115000001
 20
13278.37288899998
 30
0.0
 40
15.0
 50
180.0
 51
0.0
  0
ARC
  5
7E26
  8
0
  6
BYBLOCK
 62
     0
 10
25664.351115000001
 20
13278.37288899998
 30
0.0
 40
15.0
 50
0.0
 51
180.0
  0
ARC
  5
7E27
  8
0
  6
BYBLOCK
 62
     0
 10
20571.853358
 20
13278.37288899998
 30
0.0
 40
15.0
 50
180.0
 51
0.0
  0
ARC
  5
7E28
  8
0
  6
BYBLOCK
 62
     0
 10
20571.853358
 20
13278.37288899998
 30
0.0
 40
15.0
 50
0.0
 51
180.0
  0
ARC
  5
7E29
  8
0
  6
BYBLOCK
 62
     0
 10
20614.355600999999
 20
13278.37288899998
 30
0.0
 40
15.0
 50
0.0
 51
180.0
  0
ARC
  5
7E2A
  8
0
  6
BYBLOCK
 62
     0
 10
20614.355600999999
 20
13278.37288899998
 30
0.0
 40
15.0
 50
180.0
 51
0.0
  0
ARC
  5
7E2B
  8
0
  6
BYBLOCK
 62
     0
 10
20529.351115000001
 20
12878.37288899998
 30
0.0
 40
15.0
 50
0.0
 51
180.0
  0
ARC
  5
7E2C
  8
0
  6
BYBLOCK
 62
     0
 10
20529.351115000001
 20
12878.37288899998
 30
0.0
 40
15.0
 50
180.0
 51
0.0
  0
ARC
  5
7E2D
  8
0
  6
BYBLOCK
 62
     0
 10
25749.35560100001
 20
12878.37288899998
 30
0.0
 40
15.0
 50
180.0
 51
0.0
  0
ARC
  5
7E2E
  8
0
  6
BYBLOCK
 62
     0
 10
25749.35560100001
 20
12878.37288899998
 30
0.0
 40
15.0
 50
0.0
 51
180.0
  0
ARC
  5
7E2F
  8
0
  6
BYBLOCK
 62
     0
 10
26799.352962000001
 20
15007.820972999991
 30
0.0
 40
15.0
 50
270.0
 51
90.0
  0
ARC
  5
7E30
  8
0
  6
BYBLOCK
 62
     0
 10
26799.352962000001
 20
15007.820972999991
 30
0.0
 40
15.0
 50
90.0
 51
270.0
  0
ARC
  5
7E31
  8
0
  6
BYBLOCK
 62
     0
 10
26799.352962000001
 20
14249.820972999991
 30
0.0
 40
15.0
 50
90.0
 51
270.0
  0
ARC
  5
7E32
  8
0
  6
BYBLOCK
 62
     0
 10
26799.352962000001
 20
14249.820972999991
 30
0.0
 40
15.0
 50
270.0
 51
90.0
  0
ARC
  5
7E33
  8
0
  6
BYBLOCK
 62
     0
 10
26799.352962000001
 20
15709.061484499989
 30
0.0
 40
15.0
 50
270.0
 51
90.0
  0
ARC
  5
7E34
  8
0
  6
BYBLOCK
 62
     0
 10
26799.352962000001
 20
15709.061484499989
 30
0.0
 40
15.0
 50
90.0
 51
270.0
  0
ARC
  5
7E35
  8
0
  6
BYBLOCK
 62
     0
 10
26799.352962000001
 20
15007.820972999991
 30
0.0
 40
15.0
 50
90.0
 51
270.0
  0
ARC
  5
7E36
  8
0
  6
BYBLOCK
 62
     0
 10
26799.352962000001
 20
15007.820972999991
 30
0.0
 40
15.0
 50
270.0
 51
90.0
  0
ARC
  5
7E37
  8
0
  6
BYBLOCK
 62
     0
 10
26799.352962000001
 20
16409.820972999991
 30
0.0
 40
15.0
 50
270.0
 51
90.0
  0
ARC
  5
7E38
  8
0
  6
BYBLOCK
 62
     0
 10
26799.352962000001
 20
16409.820972999991
 30
0.0
 40
15.0
 50
90.0
 51
270.0
  0
ARC
  5
7E39
  8
0
  6
BYBLOCK
 62
     0
 10
26799.352962000001
 20
15709.061484499989
 30
0.0
 40
15.0
 50
90.0
 51
270.0
  0
ARC
  5
7E3A
  8
0
  6
BYBLOCK
 62
     0
 10
26799.352962000001
 20
15709.061484499989
 30
0.0
 40
15.0
 50
270.0
 51
90.0
  0
ARC
  5
7E3B
  8
0
  6
BYBLOCK
 62
     0
 10
26799.352962000001
 20
17167.820972999991
 30
0.0
 40
15.0
 50
270.0
 51
90.0
  0
ARC
  5
7E3C
  8
0
  6
BYBLOCK
 62
     0
 10
26799.352962000001
 20
17167.820972999991
 30
0.0
 40
15.0
 50
90.0
 51
270.0
  0
ARC
  5
7E3D
  8
0
  6
BYBLOCK
 62
     0
 10
26799.352962000001
 20
16409.820972999991
 30
0.0
 40
15.0
 50
90.0
 51
270.0
  0
ARC
  5
7E3E
  8
0
  6
BYBLOCK
 62
     0
 10
26799.352962000001
 20
16409.820972999991
 30
0.0
 40
15.0
 50
270.0
 51
90.0
  0
ARC
  5
7E3F
  8
0
  6
BYBLOCK
 62
     0
 10
26799.352962000001
 20
17925.820972999991
 30
0.0
 40
15.0
 50
270.0
 51
90.0
  0
ARC
  5
7E40
  8
0
  6
BYBLOCK
 62
     0
 10
26799.352962000001
 20
17925.820972999991
 30
0.0
 40
15.0
 50
90.0
 51
270.0
  0
ARC
  5
7E41
  8
0
  6
BYBLOCK
 62
     0
 10
26799.352962000001
 20
17167.820972999991
 30
0.0
 40
15.0
 50
90.0
 51
270.0
  0
ARC
  5
7E42
  8
0
  6
BYBLOCK
 62
     0
 10
26799.352962000001
 20
17167.820972999991
 30
0.0
 40
15.0
 50
270.0
 51
90.0
  0
ARC
  5
7E43
  8
0
  6
BYBLOCK
 62
     0
 10
26799.352962000001
 20
18626.820972999991
 30
0.0
 40
15.0
 50
270.0
 51
90.0
  0
ARC
  5
7E44
  8
0
  6
BYBLOCK
 62
     0
 10
26799.352962000001
 20
18626.820972999991
 30
0.0
 40
15.0
 50
90.0
 51
270.0
  0
ARC
  5
7E45
  8
0
  6
BYBLOCK
 62
     0
 10
26799.352962000001
 20
17925.820972999991
 30
0.0
 40
15.0
 50
90.0
 51
270.0
  0
ARC
  5
7E46
  8
0
  6
BYBLOCK
 62
     0
 10
26799.352962000001
 20
17925.820972999991
 30
0.0
 40
15.0
 50
270.0
 51
90.0
  0
ARC
  5
7E47
  8
0
  6
BYBLOCK
 62
     0
 10
26799.352962000001
 20
19327.820972999991
 30
0.0
 40
15.0
 50
270.0
 51
90.0
  0
ARC
  5
7E48
  8
0
  6
BYBLOCK
 62
     0
 10
26799.352962000001
 20
19327.820972999991
 30
0.0
 40
15.0
 50
90.0
 51
270.0
  0
ARC
  5
7E49
  8
0
  6
BYBLOCK
 62
     0
 10
26799.352962000001
 20
18626.820972999991
 30
0.0
 40
15.0
 50
90.0
 51
270.0
  0
ARC
  5
7E4A
  8
0
  6
BYBLOCK
 62
     0
 10
26799.352962000001
 20
18626.820972999991
 30
0.0
 40
15.0
 50
270.0
 51
90.0
  0
ARC
  5
7E4B
  8
0
  6
BYBLOCK
 62
     0
 10
26799.352962000001
 20
20085.820973000002
 30
0.0
 40
15.0
 50
270.0
 51
90.0
  0
ARC
  5
7E4C
  8
0
  6
BYBLOCK
 62
     0
 10
26799.352962000001
 20
20085.820973000002
 30
0.0
 40
15.0
 50
90.0
 51
270.0
  0
ARC
  5
7E4D
  8
0
  6
BYBLOCK
 62
     0
 10
26799.352962000001
 20
19327.820972999991
 30
0.0
 40
15.0
 50
90.0
 51
270.0
  0
ARC
  5
7E4E
  8
0
  6
BYBLOCK
 62
     0
 10
26799.352962000001
 20
19327.820972999991
 30
0.0
 40
15.0
 50
270.0
 51
90.0
  0
ARC
  5
7E4F
  8
0
  6
BYBLOCK
 62
     0
 10
27199.352962000001
 20
17167.820972999991
 30
0.0
 40
15.0
 50
90.0
 51
270.0
  0
ARC
  5
7E50
  8
0
  6
BYBLOCK
 62
     0
 10
27199.352962000001
 20
17167.820972999991
 30
0.0
 40
15.0
 50
270.0
 51
90.0
  0
ARC
  5
7E51
  8
0
  6
BYBLOCK
 62
     0
 10
27199.352962000001
 20
20085.820973000002
 30
0.0
 40
15.0
 50
270.0
 51
90.0
  0
ARC
  5
7E52
  8
0
  6
BYBLOCK
 62
     0
 10
27199.352962000001
 20
20085.820973000002
 30
0.0
 40
15.0
 50
90.0
 51
270.0
  0
ARC
  5
7E53
  8
0
  6
BYBLOCK
 62
     0
 10
27199.352962000001
 20
14249.820972999991
 30
0.0
 40
15.0
 50
90.0
 51
270.0
  0
ARC
  5
7E54
  8
0
  6
BYBLOCK
 62
     0
 10
27199.352962000001
 20
14249.820972999991
 30
0.0
 40
15.0
 50
270.0
 51
90.0
  0
ARC
  5
7E55
  8
0
  6
BYBLOCK
 62
     0
 10
27199.352962000001
 20
17167.820972999991
 30
0.0
 40
15.0
 50
270.0
 51
90.0
  0
ARC
  5
7E56
  8
0
  6
BYBLOCK
 62
     0
 10
27199.352962000001
 20
17167.820972999991
 30
0.0
 40
15.0
 50
90.0
 51
270.0
  0
ARC
  5
7E57
  8
0
  6
BYBLOCK
 62
     0
 10
27599.352962000001
 20
20128.318267999992
 30
0.0
 40
15.0
 50
270.0
 51
90.0
  0
ARC
  5
7E58
  8
0
  6
BYBLOCK
 62
     0
 10
27599.352962000001
 20
20128.318267999992
 30
0.0
 40
15.0
 50
90.0
 51
270.0
  0
ARC
  5
7E59
  8
0
  6
BYBLOCK
 62
     0
 10
27599.352962000001
 20
14207.32367799999
 30
0.0
 40
15.0
 50
90.0
 51
270.0
  0
ARC
  5
7E5A
  8
0
  6
BYBLOCK
 62
     0
 10
27599.352962000001
 20
14207.32367799999
 30
0.0
 40
15.0
 50
270.0
 51
90.0
  0
ARC
  5
7E5B
  8
0
  6
BYBLOCK
 62
     0
 10
27199.352962000001
 20
20085.820973000002
 30
0.0
 40
15.0
 50
270.0
 51
90.0
  0
ARC
  5
7E5C
  8
0
  6
BYBLOCK
 62
     0
 10
27199.352962000001
 20
20085.820973000002
 30
0.0
 40
15.0
 50
90.0
 51
270.0
  0
ARC
  5
7E5D
  8
0
  6
BYBLOCK
 62
     0
 10
27199.352962000001
 20
20128.318267999992
 30
0.0
 40
15.0
 50
90.0
 51
270.0
  0
ARC
  5
7E5E
  8
0
  6
BYBLOCK
 62
     0
 10
27199.352962000001
 20
20128.318267999992
 30
0.0
 40
15.0
 50
270.0
 51
90.0
  0
ARC
  5
7E5F
  8
0
  6
BYBLOCK
 62
     0
 10
27199.352962000001
 20
14249.820972999991
 30
0.0
 40
15.0
 50
90.0
 51
270.0
  0
ARC
  5
7E60
  8
0
  6
BYBLOCK
 62
     0
 10
27199.352962000001
 20
14249.820972999991
 30
0.0
 40
15.0
 50
270.0
 51
90.0
  0
ARC
  5
7E61
  8
0
  6
BYBLOCK
 62
     0
 10
27199.352962000001
 20
14207.32367799999
 30
0.0
 40
15.0
 50
270.0
 51
90.0
  0
ARC
  5
7E62
  8
0
  6
BYBLOCK
 62
     0
 10
27199.352962000001
 20
14207.32367799999
 30
0.0
 40
15.0
 50
90.0
 51
270.0
  0
ARC
  5
7E63
  8
0
  6
BYBLOCK
 62
     0
 10
23840.353358000011
 20
20858.322161
 30
0.0
 40
15.0
 50
0.0
 51
180.0
  0
ARC
  5
7E64
  8
0
  6
BYBLOCK
 62
     0
 10
23840.353358000011
 20
20858.322161
 30
0.0
 40
15.0
 50
180.0
 51
0.0
  0
ARC
  5
7E65
  8
0
  6
BYBLOCK
 62
     0
 10
24247.853358000011
 20
20858.322161
 30
0.0
 40
15.0
 50
180.0
 51
0.0
  0
ARC
  5
7E66
  8
0
  6
BYBLOCK
 62
     0
 10
24247.853358000011
 20
20858.322161
 30
0.0
 40
15.0
 50
0.0
 51
180.0
  0
ARC
  5
7E67
  8
0
  6
BYBLOCK
 62
     0
 10
24948.853358000011
 20
20858.322161
 30
0.0
 40
15.0
 50
0.0
 51
180.0
  0
ARC
  5
7E68
  8
0
  6
BYBLOCK
 62
     0
 10
24948.853358000011
 20
20858.322161
 30
0.0
 40
15.0
 50
180.0
 51
0.0
  0
ARC
  5
7E69
  8
0
  6
BYBLOCK
 62
     0
 10
25706.854347500011
 20
20858.322161
 30
0.0
 40
15.0
 50
180.0
 51
0.0
  0
ARC
  5
7E6A
  8
0
  6
BYBLOCK
 62
     0
 10
25706.854347500011
 20
20858.322161
 30
0.0
 40
15.0
 50
0.0
 51
180.0
  0
ARC
  5
7E6B
  8
0
  6
BYBLOCK
 62
     0
 10
24247.853358000011
 20
20858.322161
 30
0.0
 40
15.0
 50
0.0
 51
180.0
  0
ARC
  5
7E6C
  8
0
  6
BYBLOCK
 62
     0
 10
24247.853358000011
 20
20858.322161
 30
0.0
 40
15.0
 50
180.0
 51
0.0
  0
ARC
  5
7E6D
  8
0
  6
BYBLOCK
 62
     0
 10
24948.853358000011
 20
20858.322161
 30
0.0
 40
15.0
 50
180.0
 51
0.0
  0
ARC
  5
7E6E
  8
0
  6
BYBLOCK
 62
     0
 10
24948.853358000011
 20
20858.322161
 30
0.0
 40
15.0
 50
0.0
 51
180.0
  0
ARC
  5
7E6F
  8
0
  6
BYBLOCK
 62
     0
 10
25706.853358000011
 20
20858.322161
 30
0.0
 40
15.0
 50
180.0
 51
0.0
  0
ARC
  5
7E70
  8
0
  6
BYBLOCK
 62
     0
 10
25706.853358000011
 20
20858.322161
 30
0.0
 40
15.0
 50
0.0
 51
180.0
  0
ARC
  5
7E71
  8
0
  6
BYBLOCK
 62
     0
 10
25749.349663000001
 20
20858.322161
 30
0.0
 40
15.0
 50
0.0
 51
180.0
  0
ARC
  5
7E72
  8
0
  6
BYBLOCK
 62
     0
 10
25749.349663000001
 20
20858.322161
 30
0.0
 40
15.0
 50
180.0
 51
0.0
  0
ARC
  5
7E73
  8
0
  6
BYBLOCK
 62
     0
 10
20571.853358
 20
20858.322161
 30
0.0
 40
15.0
 50
0.0
 51
180.0
  0
ARC
  5
7E74
  8
0
  6
BYBLOCK
 62
     0
 10
20571.853358
 20
20858.322161
 30
0.0
 40
15.0
 50
180.0
 51
0.0
  0
ARC
  5
7E75
  8
0
  6
BYBLOCK
 62
     0
 10
20979.353358
 20
20858.322161
 30
0.0
 40
15.0
 50
180.0
 51
0.0
  0
ARC
  5
7E76
  8
0
  6
BYBLOCK
 62
     0
 10
20979.353358
 20
20858.322161
 30
0.0
 40
15.0
 50
0.0
 51
180.0
  0
ARC
  5
7E77
  8
0
  6
BYBLOCK
 62
     0
 10
20571.853358
 20
20858.322161
 30
0.0
 40
15.0
 50
0.0
 51
180.0
  0
ARC
  5
7E78
  8
0
  6
BYBLOCK
 62
     0
 10
20571.853358
 20
20858.322161
 30
0.0
 40
15.0
 50
180.0
 51
0.0
  0
ARC
  5
7E79
  8
0
  6
BYBLOCK
 62
     0
 10
20529.357052999989
 20
20858.322161
 30
0.0
 40
15.0
 50
180.0
 51
0.0
  0
ARC
  5
7E7A
  8
0
  6
BYBLOCK
 62
     0
 10
20529.357052999989
 20
20858.322161
 30
0.0
 40
15.0
 50
0.0
 51
180.0
  0
ARC
  5
7E7B
  8
0
  6
BYBLOCK
 62
     0
 10
23082.353358000011
 20
20858.322161
 30
0.0
 40
15.0
 50
0.0
 51
180.0
  0
ARC
  5
7E7C
  8
0
  6
BYBLOCK
 62
     0
 10
23082.353358000011
 20
20858.322161
 30
0.0
 40
15.0
 50
180.0
 51
0.0
  0
ARC
  5
7E7D
  8
0
  6
BYBLOCK
 62
     0
 10
23840.354347500011
 20
20858.322161
 30
0.0
 40
15.0
 50
180.0
 51
0.0
  0
ARC
  5
7E7E
  8
0
  6
BYBLOCK
 62
     0
 10
23840.354347500011
 20
20858.322161
 30
0.0
 40
15.0
 50
0.0
 51
180.0
  0
ARC
  5
7E7F
  8
0
  6
BYBLOCK
 62
     0
 10
22381.353358000011
 20
20858.322161
 30
0.0
 40
15.0
 50
0.0
 51
180.0
  0
ARC
  5
7E80
  8
0
  6
BYBLOCK
 62
     0
 10
22381.353358000011
 20
20858.322161
 30
0.0
 40
15.0
 50
180.0
 51
0.0
  0
ARC
  5
7E81
  8
0
  6
BYBLOCK
 62
     0
 10
23082.353358000011
 20
20858.322161
 30
0.0
 40
15.0
 50
180.0
 51
0.0
  0
ARC
  5
7E82
  8
0
  6
BYBLOCK
 62
     0
 10
23082.353358000011
 20
20858.322161
 30
0.0
 40
15.0
 50
0.0
 51
180.0
  0
ARC
  5
7E83
  8
0
  6
BYBLOCK
 62
     0
 10
21680.353358
 20
20858.322161
 30
0.0
 40
15.0
 50
0.0
 51
180.0
  0
ARC
  5
7E84
  8
0
  6
BYBLOCK
 62
     0
 10
21680.353358
 20
20858.322161
 30
0.0
 40
15.0
 50
180.0
 51
0.0
  0
ARC
  5
7E85
  8
0
  6
BYBLOCK
 62
     0
 10
22381.353358000011
 20
20858.322161
 30
0.0
 40
15.0
 50
180.0
 51
0.0
  0
ARC
  5
7E86
  8
0
  6
BYBLOCK
 62
     0
 10
22381.353358000011
 20
20858.322161
 30
0.0
 40
15.0
 50
0.0
 51
180.0
  0
ARC
  5
7E87
  8
0
  6
BYBLOCK
 62
     0
 10
20979.353358
 20
20858.322161
 30
0.0
 40
15.0
 50
0.0
 51
180.0
  0
ARC
  5
7E88
  8
0
  6
BYBLOCK
 62
     0
 10
20979.353358
 20
20858.322161
 30
0.0
 40
15.0
 50
180.0
 51
0.0
  0
ARC
  5
7E89
  8
0
  6
BYBLOCK
 62
     0
 10
21680.353358
 20
20858.322161
 30
0.0
 40
15.0
 50
180.0
 51
0.0
  0
ARC
  5
7E8A
  8
0
  6
BYBLOCK
 62
     0
 10
21680.353358
 20
20858.322161
 30
0.0
 40
15.0
 50
0.0
 51
180.0
  0
LINE
  5
7FB0
  8
0-1
  6
CONTINUOUS
 62
     3
 10
25798.353488999968
 20
8036.0596899999846
 30
0.0
 11
25798.353488999968
 21
8068.0595969999877
 31
0.0
  0
LINE
  5
7FB1
  8
0-1
  6
CONTINUOUS
 62
     3
 10
25947.35288199997
 20
7959.8729679999878
 30
0.0
 11
25904.350771000001
 21
7959.8729679999878
 31
0.0
  0
LINE
  5
7FB2
  8
0-1
  6
CONTINUOUS
 62
     3
 10
25947.35288199997
 20
8286.0600189999859
 30
0.0
 11
25947.35288199997
 21
7959.8729679999878
 31
0.0
  0
LINE
  5
7FB3
  8
0-1
  6
CONTINUOUS
 62
     3
 10
25512.386295999979
 20
8032.5242689999877
 30
0.0
 11
25480.387379000022
 21
8064.5241769999839
 31
0.0
  0
LINE
  5
7FB4
  8
0-1
  6
CONTINUOUS
 62
     3
 10
25793.353224999992
 20
8073.0598609999879
 30
0.0
 11
25483.922799000011
 21
8073.0598609999879
 31
0.0
  0
LINE
  5
7FB5
  8
0-1
  6
CONTINUOUS
 62
     3
 10
25798.353488999968
 20
8064.6607639999902
 30
0.0
 11
25480.256730000008
 21
8064.6607639999902
 31
0.0
  0
LINE
  5
7FB6
  8
0-1
  6
CONTINUOUS
 62
     3
 10
25793.353224999992
 20
8031.0594259999862
 30
0.0
 11
25515.923696000002
 21
8031.0594259999862
 31
0.0
  0
LINE
  5
7FB7
  8
0-1
  6
CONTINUOUS
 62
     3
 10
25798.353488999968
 20
8039.4595129999861
 30
0.0
 11
25505.452043000008
 21
8039.4595129999861
 31
0.0
  0
LINE
  5
7FB8
  8
0-1
  6
CONTINUOUS
 62
     3
 10
25798.353488999968
 20
8047.8595999999807
 30
0.0
 11
25497.052944999981
 21
8047.8595999999807
 31
0.0
  0
LINE
  5
7FB9
  8
0-1
  6
CONTINUOUS
 62
     3
 10
25798.353488999968
 20
8056.2606769999884
 30
0.0
 11
25488.651869000001
 21
8056.2606769999884
 31
0.0
  0
LINE
  5
7FBA
  8
0-1
  6
CONTINUOUS
 62
     3
 10
24344.81669700002
 20
8032.5242689999877
 30
0.0
 11
24376.81363500002
 21
8064.5241769999839
 31
0.0
  0
LINE
  5
7FBB
  8
0-1
  6
CONTINUOUS
 62
     3
 10
24058.851483000031
 20
8036.0596899999846
 30
0.0
 11
24058.851483000031
 21
8068.0595969999877
 31
0.0
  0
LINE
  5
7FBC
  8
0-1
  6
CONTINUOUS
 62
     3
 10
24058.851483000031
 20
8039.4595129999861
 30
0.0
 11
24351.748971000001
 21
8039.4595129999861
 31
0.0
  0
LINE
  5
7FBD
  8
0-1
  6
CONTINUOUS
 62
     3
 10
24058.851483000031
 20
8047.8595999999807
 30
0.0
 11
24360.150048000021
 21
8047.8595999999807
 31
0.0
  0
LINE
  5
7FBE
  8
0-1
  6
CONTINUOUS
 62
     3
 10
24063.851747000019
 20
8031.0594259999862
 30
0.0
 11
24341.279297000019
 21
8031.0594259999862
 31
0.0
  0
LINE
  5
7FBF
  8
0-1
  6
CONTINUOUS
 62
     3
 10
24058.851483000031
 20
8056.2606769999884
 30
0.0
 11
24368.549145000001
 21
8056.2606769999884
 31
0.0
  0
LINE
  5
7FC0
  8
0-1
  6
CONTINUOUS
 62
     3
 10
24058.851483000031
 20
8064.6607639999902
 30
0.0
 11
24376.946263000031
 21
8064.6607639999902
 31
0.0
  0
LINE
  5
7FC1
  8
0-1
  6
CONTINUOUS
 62
     3
 10
24063.851747000019
 20
8073.0598609999879
 30
0.0
 11
24373.280194000021
 21
8073.0598609999879
 31
0.0
  0
LINE
  5
7FC2
  8
0-1
  6
CONTINUOUS
 62
     3
 10
25947.35288199997
 20
8156.059095999989
 30
0.0
 11
23995.35050700001
 21
8156.059095999989
 31
0.0
  0
LINE
  5
7FC3
  8
0-1
  6
CONTINUOUS
 62
     3
 10
24037.848791000011
 20
8082.0597419999913
 30
0.0
 11
25819.35222199998
 21
8082.0597419999913
 31
0.0
  0
LINE
  5
7FC4
  8
0-1
  6
CONTINUOUS
 62
     3
 10
24037.848791000011
 20
8022.0595439999915
 30
0.0
 11
25819.35222199998
 21
8022.0595439999915
 31
0.0
  0
LINE
  5
7FC5
  8
0-1
  6
CONTINUOUS
 62
     3
 10
23995.35050700001
 20
8286.0600189999859
 30
0.0
 11
25947.35288199997
 21
8286.0600189999859
 31
0.0
  0
LINE
  5
7FC6
  8
0-1
  6
CONTINUOUS
 62
     3
 10
23931.849531
 20
8036.0596899999846
 30
0.0
 11
23931.849531
 21
8068.0595969999877
 31
0.0
  0
LINE
  5
7FC7
  8
0-1
  6
CONTINUOUS
 62
     3
 10
23645.888276000001
 20
8032.5242689999877
 30
0.0
 11
23613.887379000011
 21
8064.5241769999839
 31
0.0
  0
LINE
  5
7FC8
  8
0-1
  6
CONTINUOUS
 62
     3
 10
23931.849531
 20
8064.6607639999902
 30
0.0
 11
23613.756730999979
 21
8064.6607639999902
 31
0.0
  0
LINE
  5
7FC9
  8
0-1
  6
CONTINUOUS
 62
     3
 10
23931.849531
 20
8056.2606769999884
 30
0.0
 11
23622.151869000001
 21
8056.2606769999884
 31
0.0
  0
LINE
  5
7FCA
  8
0-1
  6
CONTINUOUS
 62
     3
 10
23931.849531
 20
8047.8595999999807
 30
0.0
 11
23630.55096600001
 21
8047.8595999999807
 31
0.0
  0
LINE
  5
7FCB
  8
0-1
  6
CONTINUOUS
 62
     3
 10
23931.849531
 20
8039.4595129999861
 30
0.0
 11
23638.95006399999
 21
8039.4595129999861
 31
0.0
  0
LINE
  5
7FCC
  8
0-1
  6
CONTINUOUS
 62
     3
 10
23926.85124599998
 20
8073.0598609999879
 30
0.0
 11
23617.42081999997
 21
8073.0598609999879
 31
0.0
  0
LINE
  5
7FCD
  8
0-1
  6
CONTINUOUS
 62
     3
 10
23926.85124599998
 20
8031.0594259999862
 30
0.0
 11
23649.423696999998
 21
8031.0594259999862
 31
0.0
  0
LINE
  5
7FCE
  8
0-1
  6
CONTINUOUS
 62
     3
 10
20795.349768
 20
8031.0594259999862
 30
0.0
 11
21072.779297999979
 21
8031.0594259999862
 31
0.0
  0
LINE
  5
7FCF
  8
0-1
  6
CONTINUOUS
 62
     3
 10
20790.351483999981
 20
8036.0596899999846
 30
0.0
 11
20790.351483999981
 21
8068.0595969999877
 31
0.0
  0
LINE
  5
7FD0
  8
0-1
  6
CONTINUOUS
 62
     3
 10
20641.350112
 20
7959.8729679999878
 30
0.0
 11
20684.348264000011
 21
7959.8729679999878
 31
0.0
  0
LINE
  5
7FD1
  8
0-1
  6
CONTINUOUS
 62
     3
 10
20641.350112
 20
7959.8729679999878
 30
0.0
 11
20641.350112
 21
8286.0600189999859
 31
0.0
  0
LINE
  5
7FD2
  8
0-1
  6
CONTINUOUS
 62
     3
 10
20795.349768
 20
8073.0598609999879
 30
0.0
 11
21104.78019500001
 21
8073.0598609999879
 31
0.0
  0
LINE
  5
7FD3
  8
0-1
  6
CONTINUOUS
 62
     3
 10
21076.312738000001
 20
8032.5242689999877
 30
0.0
 11
21108.31363599997
 21
8064.5241769999839
 31
0.0
  0
LINE
  5
7FD4
  8
0-1
  6
CONTINUOUS
 62
     3
 10
20790.351483999981
 20
8064.6607639999902
 30
0.0
 11
21108.446263000002
 21
8064.6607639999902
 31
0.0
  0
LINE
  5
7FD5
  8
0-1
  6
CONTINUOUS
 62
     3
 10
20790.351483999981
 20
8056.2606769999884
 30
0.0
 11
21100.049146000008
 21
8056.2606769999884
 31
0.0
  0
LINE
  5
7FD6
  8
0-1
  6
CONTINUOUS
 62
     3
 10
20790.351483999981
 20
8047.8595999999807
 30
0.0
 11
21091.650047999989
 21
8047.8595999999807
 31
0.0
  0
LINE
  5
7FD7
  8
0-1
  6
CONTINUOUS
 62
     3
 10
20790.351483999981
 20
8039.4595129999861
 30
0.0
 11
21083.250951000009
 21
8039.4595129999861
 31
0.0
  0
LINE
  5
7FD8
  8
0-1
  6
CONTINUOUS
 62
     3
 10
20769.348792000012
 20
8022.0595439999915
 30
0.0
 11
23952.850243000012
 21
8022.0595439999915
 31
0.0
  0
LINE
  5
7FD9
  8
0-1
  6
CONTINUOUS
 62
     3
 10
20769.348792000012
 20
8082.0597419999913
 30
0.0
 11
23952.850243000012
 21
8082.0597419999913
 31
0.0
  0
LINE
  5
7FDA
  8
0-1
  6
CONTINUOUS
 62
     3
 10
20641.350112
 20
8286.0600189999859
 30
0.0
 11
23995.35050700001
 21
8286.0600189999859
 31
0.0
  0
LINE
  5
7FDB
  8
0-1
  6
CONTINUOUS
 62
     3
 10
23995.35050700001
 20
8156.059095999989
 30
0.0
 11
20641.350112
 21
8156.059095999989
 31
0.0
  0
LINE
  5
7FDC
  8
0-1
  6
CONTINUOUS
 62
     3
 10
23995.35050700001
 20
8156.059095999989
 30
0.0
 11
23995.35050700001
 21
8286.0600189999859
 31
0.0
  0
LINE
  5
7FDD
  8
0-1
  6
CONTINUOUS
 62
     3
 10
23995.35050700001
 20
8156.059095999989
 30
0.0
 11
23995.35050700001
 21
8286.0600189999859
 31
0.0
  0
ARC
  5
7FDE
  8
0-1
  6
CONTINUOUS
 62
     3
 10
25793.353224999992
 20
8068.0595969999877
 30
0.0
 40
5.0
 50
0.0
 51
90.0
  0
ARC
  5
7FDF
  8
0-1
  6
CONTINUOUS
 62
     3
 10
25793.353224999992
 20
8036.0596899999846
 30
0.0
 40
5.0
 50
269.9999850001808
 51
0.0
  0
ARC
  5
7FE0
  8
0-1
  6
CONTINUOUS
 62
     3
 10
25483.922799000011
 20
8068.0595969999877
 30
0.0
 40
5.0
 50
90.0
 51
224.99998499997989
  0
ARC
  5
7FE1
  8
0-1
  6
CONTINUOUS
 62
     3
 10
25515.923696000002
 20
8036.0596899999846
 30
0.0
 40
5.0
 50
224.99998499997989
 51
269.9999850001808
  0
ARC
  5
7FE2
  8
0-1
  6
CONTINUOUS
 62
     3
 10
24373.280194000021
 20
8068.0595969999877
 30
0.0
 40
5.0
 50
314.99998500027471
 51
90.0
  0
ARC
  5
7FE3
  8
0-1
  6
CONTINUOUS
 62
     3
 10
24341.279297000019
 20
8036.0596899999846
 30
0.0
 40
5.0
 50
269.9999850001808
 51
314.99998500027471
  0
ARC
  5
7FE4
  8
0-1
  6
CONTINUOUS
 62
     3
 10
24063.851747000019
 20
8036.0596899999846
 30
0.0
 40
5.0
 50
180.0
 51
269.9999850001808
  0
ARC
  5
7FE5
  8
0-1
  6
CONTINUOUS
 62
     3
 10
24063.851747000019
 20
8068.0595969999877
 30
0.0
 40
5.0
 50
90.0
 51
180.0
  0
ARC
  5
7FE6
  8
0-1
  6
CONTINUOUS
 62
     3
 10
23926.85124599998
 20
8036.0596899999846
 30
0.0
 40
5.0
 50
269.9999850001808
 51
0.0
  0
ARC
  5
7FE7
  8
0-1
  6
CONTINUOUS
 62
     3
 10
23926.85124599998
 20
8068.0595969999877
 30
0.0
 40
5.0
 50
0.0
 51
90.0
  0
ARC
  5
7FE8
  8
0-1
  6
CONTINUOUS
 62
     3
 10
23617.42081999997
 20
8068.0595969999877
 30
0.0
 40
5.0
 50
90.0
 51
224.99998499997989
  0
ARC
  5
7FE9
  8
0-1
  6
CONTINUOUS
 62
     3
 10
23649.423696999998
 20
8036.0596899999846
 30
0.0
 40
5.0
 50
224.99998499997989
 51
269.9999850001808
  0
ARC
  5
7FEA
  8
0-1
  6
CONTINUOUS
 62
     3
 10
21104.78019500001
 20
8068.0595969999877
 30
0.0
 40
5.0
 50
314.99998500027471
 51
90.0
  0
ARC
  5
7FEB
  8
0-1
  6
CONTINUOUS
 62
     3
 10
20795.349768
 20
8068.0595969999877
 30
0.0
 40
5.0
 50
90.0
 51
180.0
  0
ARC
  5
7FEC
  8
0-1
  6
CONTINUOUS
 62
     3
 10
20795.349768
 20
8036.0596899999846
 30
0.0
 40
5.0
 50
180.0
 51
269.9999850001808
  0
ARC
  5
7FED
  8
0-1
  6
CONTINUOUS
 62
     3
 10
21072.779297999979
 20
8036.0596899999846
 30
0.0
 40
5.0
 50
269.9999850001808
 51
314.99998500027471
  0
LINE
  5
7FEE
  8
SUNPOU
  6
CONTINUOUS
 62
     4
 10
20641.34813199997
 20
8366.0600189999859
 30
0.0
 11
20641.34813199997
 21
9565.5176309999715
 31
0.0
  0
LINE
  5
7FEF
  8
SUNPOU
  6
CONTINUOUS
 62
     4
 10
25947.35288199997
 20
8366.0600189999859
 30
0.0
 11
25947.35288199997
 21
9565.5176309999715
 31
0.0
  0
LINE
  5
7FF0
  8
SUNPOU
  6
CONTINUOUS
 62
     4
 10
20644.34813199997
 20
9485.5176309999842
 30
0.0
 11
25944.35288199997
 21
9485.5176309999842
 31
0.0
  0
LINE
  5
7FF1
  8
SUNPOU
  6
CONTINUOUS
 62
     4
 10
20684.350243000012
 20
8366.0600189999859
 30
0.0
 11
20684.350243000012
 21
9165.559860999987
 31
0.0
  0
LINE
  5
7FF2
  8
SUNPOU
  6
CONTINUOUS
 62
     4
 10
25904.350771000001
 20
8366.0600189999859
 30
0.0
 11
25904.350771000001
 21
9165.559860999987
 31
0.0
  0
LINE
  5
7FF3
  8
SUNPOU
  6
CONTINUOUS
 62
     4
 10
20684.350243000012
 20
9085.559860999987
 30
0.0
 11
25904.350771000001
 21
9085.559860999987
 31
0.0
  0
LINE
  5
7FF4
  8
SUNPOU
  6
CONTINUOUS
 62
     4
 10
20684.350243000012
 20
8366.0600189999859
 30
0.0
 11
20684.350243000012
 21
9165.559860999987
 31
0.0
  0
LINE
  5
7FF5
  8
SUNPOU
  6
CONTINUOUS
 62
     4
 10
20641.34813199997
 20
8366.0600189999859
 30
0.0
 11
20641.34813199997
 21
9165.559860999987
 31
0.0
  0
LINE
  5
7FF6
  8
SUNPOU
  6
CONTINUOUS
 62
     4
 10
20684.350243000012
 20
9085.559860999987
 30
0.0
 11
20924.350243000012
 21
9085.559860999987
 31
0.0
  0
LINE
  5
7FF7
  8
SUNPOU
  6
CONTINUOUS
 62
     4
 10
20644.34813199997
 20
9085.559860999987
 30
0.0
 11
20404.34813199997
 21
9085.559860999987
 31
0.0
  0
LINE
  5
7FF8
  8
SUNPOU
  6
CONTINUOUS
 62
     4
 10
20684.350243000012
 20
9085.559860999987
 30
0.0
 11
20644.34813199997
 21
9085.559860999987
 31
0.0
  0
LINE
  5
7FF9
  8
SUNPOU
  6
CONTINUOUS
 62
     4
 10
25904.350771000001
 20
8366.0600189999859
 30
0.0
 11
25904.350771000001
 21
9165.559860999987
 31
0.0
  0
LINE
  5
7FFA
  8
SUNPOU
  6
CONTINUOUS
 62
     4
 10
25947.35288199997
 20
8366.0600189999859
 30
0.0
 11
25947.35288199997
 21
9165.559860999987
 31
0.0
  0
LINE
  5
7FFB
  8
SUNPOU
  6
CONTINUOUS
 62
     4
 10
25904.350771000001
 20
9085.559860999987
 30
0.0
 11
25664.350771000001
 21
9085.559860999987
 31
0.0
  0
LINE
  5
7FFC
  8
SUNPOU
  6
CONTINUOUS
 62
     4
 10
25944.35288199997
 20
9085.559860999987
 30
0.0
 11
26184.35288199997
 21
9085.559860999987
 31
0.0
  0
LINE
  5
7FFD
  8
SUNPOU
  6
CONTINUOUS
 62
     4
 10
25904.350771000001
 20
9085.559860999987
 30
0.0
 11
25944.35288199997
 21
9085.559860999987
 31
0.0
  0
TEXT
  5
7FFE
  8
0
  6
CONTINUOUS
 62
     7
 10
26064.35288199997
 20
9165.559860999987
 30
0.0
 40
160.0
  1
43
  0
TEXT
  5
7FFF
  8
0
  6
CONTINUOUS
 62
     7
 10
20284.348131999988
 20
9165.559860999987
 30
0.0
 40
160.0
  1
43
  0
TEXT
  5
8000
  8
0
  6
CONTINUOUS
 62
     7
 10
23014.350507000021
 20
9165.559860999987
 30
0.0
 40
160.0
  1
5220
  0
TEXT
  5
8001
  8
0
  6
CONTINUOUS
 62
     7
 10
23027.683840333331
 20
9565.5176309999715
 30
0.0
 40
160.0
  1
5306
  0
ARC
  5
8002
  8
0
  6
BYBLOCK
 62
     0
 10
20641.34813199997
 20
9485.5176309999842
 30
0.0
 40
15.0
 50
0.0
 51
180.0
  0
ARC
  5
8003
  8
0
  6
BYBLOCK
 62
     0
 10
20641.34813199997
 20
9485.5176309999842
 30
0.0
 40
15.0
 50
180.0
 51
0.0
  0
ARC
  5
8004
  8
0
  6
BYBLOCK
 62
     0
 10
25947.35288199997
 20
9485.5176309999842
 30
0.0
 40
15.0
 50
180.0
 51
0.0
  0
ARC
  5
8005
  8
0
  6
BYBLOCK
 62
     0
 10
25947.35288199997
 20
9485.5176309999842
 30
0.0
 40
15.0
 50
0.0
 51
180.0
  0
ARC
  5
8006
  8
0
  6
BYBLOCK
 62
     0
 10
20684.350243000012
 20
9085.559860999987
 30
0.0
 40
15.0
 50
0.0
 51
180.0
  0
ARC
  5
8007
  8
0
  6
BYBLOCK
 62
     0
 10
20684.350243000012
 20
9085.559860999987
 30
0.0
 40
15.0
 50
180.0
 51
0.0
  0
ARC
  5
8008
  8
0
  6
BYBLOCK
 62
     0
 10
25904.350771000001
 20
9085.559860999987
 30
0.0
 40
15.0
 50
180.0
 51
0.0
  0
ARC
  5
8009
  8
0
  6
BYBLOCK
 62
     0
 10
25904.350771000001
 20
9085.559860999987
 30
0.0
 40
15.0
 50
0.0
 51
180.0
  0
ARC
  5
800A
  8
0
  6
BYBLOCK
 62
     0
 10
20684.350243000012
 20
9085.559860999987
 30
0.0
 40
15.0
 50
0.0
 51
180.0
  0
ARC
  5
800B
  8
0
  6
BYBLOCK
 62
     0
 10
20684.350243000012
 20
9085.559860999987
 30
0.0
 40
15.0
 50
180.0
 51
0.0
  0
ARC
  5
800C
  8
0
  6
BYBLOCK
 62
     0
 10
20641.34813199997
 20
9085.559860999987
 30
0.0
 40
15.0
 50
180.0
 51
0.0
  0
ARC
  5
800D
  8
0
  6
BYBLOCK
 62
     0
 10
20641.34813199997
 20
9085.559860999987
 30
0.0
 40
15.0
 50
0.0
 51
180.0
  0
ARC
  5
800E
  8
0
  6
BYBLOCK
 62
     0
 10
25904.350771000001
 20
9085.559860999987
 30
0.0
 40
15.0
 50
180.0
 51
0.0
  0
ARC
  5
800F
  8
0
  6
BYBLOCK
 62
     0
 10
25904.350771000001
 20
9085.559860999987
 30
0.0
 40
15.0
 50
0.0
 51
180.0
  0
ARC
  5
8010
  8
0
  6
BYBLOCK
 62
     0
 10
25947.35288199997
 20
9085.559860999987
 30
0.0
 40
15.0
 50
0.0
 51
180.0
  0
ARC
  5
8011
  8
0
  6
BYBLOCK
 62
     0
 10
25947.35288199997
 20
9085.559860999987
 30
0.0
 40
15.0
 50
180.0
 51
0.0
  0
LINE
  5
801F
  8
SUNPOU
  6
CONTINUOUS
 62
     4
 10
9591.0825595000297
 20
13977.32169899998
 30
0.0
 11
9591.0825595000297
 21
12798.37486799997
 31
0.0
  0
LINE
  5
8020
  8
SUNPOU
  6
CONTINUOUS
 62
     4
 10
14897.08236150003
 20
13977.32169899998
 30
0.0
 11
14897.08236150003
 21
12798.37486799997
 31
0.0
  0
LINE
  5
8021
  8
SUNPOU
  6
CONTINUOUS
 62
     4
 10
9591.0825595000297
 20
12878.37486799997
 30
0.0
 11
14897.08236150003
 21
12878.37486799997
 31
0.0
  0
TEXT
  5
8022
  8
0
  6
CONTINUOUS
 62
     7
 10
11454.74912716668
 20
12958.37486799997
 30
0.0
 40
160.0
  1
ケラバ外寸 5306
  0
ARC
  5
8023
  8
0
  6
BYBLOCK
 62
     0
 10
9591.0825595000297
 20
12878.37486799997
 30
0.0
 40
15.0
 50
0.0
 51
180.0
  0
ARC
  5
8024
  8
0
  6
BYBLOCK
 62
     0
 10
9591.0825595000297
 20
12878.37486799997
 30
0.0
 40
15.0
 50
180.0
 51
0.0
  0
ARC
  5
8025
  8
0
  6
BYBLOCK
 62
     0
 10
14897.08236150003
 20
12878.37486799997
 30
0.0
 40
15.0
 50
180.0
 51
0.0
  0
ARC
  5
8026
  8
0
  6
BYBLOCK
 62
     0
 10
14897.08236150003
 20
12878.37486799997
 30
0.0
 40
15.0
 50
0.0
 51
180.0
  0
TEXT
  5
807C
  8
NAME
 10
21933.552716388989
 20
1876.0
 30
0.0
 40
360.0
  1
ヨドガレージ ラヴィージュ
 41
0.75
  7
01
  0
LINE
  5
807D
  8
NAME
  6
CONTINUOUS
 10
26067.886878884288
 20
2236.0
 30
0.0
 11
26067.886878884288
 21
1876.0
 31
0.0
  0
LINE
  5
807E
  8
NAME
  6
CONTINUOUS
 10
26167.886878884288
 20
2236.0
 30
0.0
 11
26167.886878884288
 21
1876.0
 31
0.0
  0
LINE
  5
807F
  8
NAME
  6
CONTINUOUS
 10
26267.88687888431
 20
2236.0
 30
0.0
 11
26267.88687888431
 21
1876.0
 31
0.0
  0
LINE
  5
8080
  8
NAME
  6
CONTINUOUS
 10
26007.886878884288
 20
2236.0
 30
0.0
 11
26327.886878884288
 21
2236.0
 31
0.0
  0
LINE
  5
8081
  8
NAME
  6
CONTINUOUS
 10
26327.886878884288
 20
1876.0
 30
0.0
 11
26007.886878884288
 21
1876.0
 31
0.0
  0
TEXT
  5
80CC
  8
NAME
 10
25530.092913773511
 20
1076.0
 30
0.0
 40
360.0
  1
型（単棟）
 41
0.6
  7
01
  0
TEXT
  5
80CD
  8
NAME
 10
21583.547829600931
 20
1076.6369801169251
 30
0.0
 40
360.0
  1
VGC-3359（H）+1959（H）
 41
0.55
  0
TEXT
  5
8167
  8
FILENAME
  6
CONTINUOUS
 10
27746.857142857141
 20
348.0
 30
0.0
 40
200.0
  1
＜VGC-3359+1959-1-A_0.DXF ＞
  7
FILENAME
 72
     2
 11
32764.0
 21
348.0
 31
0.0
  0
LINE
  5
816C
  8
WAKUSEN-01
 10
868.00000000000193
 20
827.99999999999955
 30
0.0
 11
32764.000000000011
 21
827.99999999999943
 31
0.0
  0
LINE
  5
816D
  8
WAKUSEN-01
 10
868.00000000000193
 20
827.99999999999955
 30
0.0
 11
868.00000000000193
 21
22484.000000000011
 31
0.0
  0
LINE
  5
816E
  8
WAKUSEN-01
 10
32764.000000000011
 20
827.99999999999943
 30
0.0
 11
32764.000000000011
 21
22484.000000000011
 31
0.0
  0
LINE
  5
816F
  8
WAKUSEN-01
 10
20560.0
 20
827.99999999999716
 30
0.0
 11
20560.0
 21
2484.0
 31
0.0
  0
LINE
  5
8170
  8
WAKUSEN-02
 10
26868.0
 20
827.99999999999261
 30
0.0
 11
26868.0
 21
2484.0
 31
0.0
  0
ENDSEC
  0
EOF
