  0
SECTION
  2
HEADER
  9
$ACADVER
  1
AC1009
  9
$INSBASE
 10
0.0
 20
0.0
 30
0.0
  9
$EXTMIN
 10
867.99324330406671
 20
327.38164749855792
 30
-0.0000000000000053
  9
$EXTMAX
 10
32765.33210850941
 20
22484.553276491992
 30
0.0000000000000099
  9
$LIMMIN
 10
0.0
 20
0.0
  9
$LIMMAX
 10
33600.0
 20
23760.0
  9
$ORTHOMODE
 70
     1
  9
$REGENMODE
 70
     1
  9
$FILLMODE
 70
     1
  9
$QTEXTMODE
 70
     0
  9
$MIRRTEXT
 70
     1
  9
$DRAGMODE
 70
     2
  9
$LTSCALE
 40
80.0
  9
$OSMODE
 70
  3071
  9
$ATTMODE
 70
     1
  9
$TEXTSIZE
 40
0.2
  9
$TRACEWID
 40
0.05
  9
$TEXTSTYLE
  7
00
  9
$CLAYER
  8
0
  9
$CELTYPE
  6
BYLAYER
  9
$CECOLOR
 62
   256
  9
$DIMSCALE
 40
80.0
  9
$DIMASZ
 40
3.0
  9
$DIMEXO
 40
1.0
  9
$DIMDLI
 40
0.38
  9
$DIMRND
 40
0.5
  9
$DIMDLE
 40
0.0
  9
$DIMEXE
 40
1.0
  9
$DIMTP
 40
0.0
  9
$DIMTM
 40
0.0
  9
$DIMTXT
 40
2.0
  9
$DIMCEN
 40
0.09
  9
$DIMTSZ
 40
0.0
  9
$DIMTOL
 70
     0
  9
$DIMLIM
 70
     0
  9
$DIMTIH
 70
     0
  9
$DIMTOH
 70
     0
  9
$DIMSE1
 70
     0
  9
$DIMSE2
 70
     0
  9
$DIMTAD
 70
     1
  9
$DIMZIN
 70
     8
  9
$DIMBLK
  1
DOTSMALL
  9
$DIMASO
 70
     1
  9
$DIMSHO
 70
     1
  9
$DIMPOST
  1

  9
$DIMAPOST
  1

  9
$DIMALT
 70
     0
  9
$DIMALTD
 70
     2
  9
$DIMALTF
 40
25.399999999999999
  9
$DIMLFAC
 40
1.0
  9
$DIMTOFL
 70
     1
  9
$DIMTVP
 40
0.0
  9
$DIMTIX
 70
     0
  9
$DIMSOXD
 70
     0
  9
$DIMSAH
 70
     0
  9
$DIMBLK1
  1

  9
$DIMBLK2
  1

  9
$DIMSTYLE
  2
SUNPOU
  9
$DIMCLRD
 70
     4
  9
$DIMCLRE
 70
     4
  9
$DIMCLRT
 70
     7
  9
$DIMTFAC
 40
1.0
  9
$DIMGAP
 40
1.0
  9
$LUNITS
 70
     2
  9
$LUPREC
 70
     4
  9
$SKETCHINC
 40
0.1
  9
$FILLETRAD
 40
0.0
  9
$AUNITS
 70
     0
  9
$AUPREC
 70
     0
  9
$MENU
  1
acad
  9
$ELEVATION
 40
0.0
  9
$PELEVATION
 40
0.0
  9
$THICKNESS
 40
0.0
  9
$LIMCHECK
 70
     0
  9
$BLIPMODE
 70
     1
  9
$CHAMFERA
 40
0.0
  9
$CHAMFERB
 40
0.0
  9
$SKPOLY
 70
     0
  9
$TDCREATE
 40
2311940.0749271992
  9
$TDUPDATE
 40
2458942.429769387
  9
$TDINDWG
 40
0.0438803356
  9
$TDUSRTIMER
 40
0.0438794213
  9
$USRTIMER
 70
     1
  9
$ANGBASE
 50
0.0
  9
$ANGDIR
 70
     0
  9
$PDMODE
 70
     0
  9
$PDSIZE
 40
0.0
  9
$PLINEWID
 40
0.0
  9
$COORDS
 70
     1
  9
$SPLFRAME
 70
     0
  9
$SPLINETYPE
 70
     6
  9
$SPLINESEGS
 70
     8
  9
$ATTDIA
 70
     1
  9
$ATTREQ
 70
     1
  9
$HANDLING
 70
     1
  9
$HANDSEED
  5
456E
  9
$SURFTAB1
 70
     6
  9
$SURFTAB2
 70
     6
  9
$SURFTYPE
 70
     6
  9
$SURFU
 70
     6
  9
$SURFV
 70
     6
  9
$UCSNAME
  2

  9
$UCSORG
 10
0.0
 20
0.0
 30
0.0
  9
$UCSXDIR
 10
1.0
 20
0.0
 30
0.0
  9
$UCSYDIR
 10
0.0
 20
1.0
 30
0.0
  9
$PUCSNAME
  2

  9
$PUCSORG
 10
0.0
 20
0.0
 30
0.0
  9
$PUCSXDIR
 10
1.0
 20
0.0
 30
0.0
  9
$PUCSYDIR
 10
0.0
 20
1.0
 30
0.0
  9
$USERI1
 70
     0
  9
$USERI2
 70
     0
  9
$USERI3
 70
     0
  9
$USERI4
 70
     0
  9
$USERI5
 70
     0
  9
$USERR1
 40
0.0
  9
$USERR2
 40
0.0
  9
$USERR3
 40
0.0
  9
$USERR4
 40
0.0
  9
$USERR5
 40
0.0
  9
$WORLDVIEW
 70
     1
  9
$SHADEDGE
 70
     3
  9
$SHADEDIF
 70
    70
  9
$TILEMODE
 70
     1
  9
$MAXACTVP
 70
    16
  9
$PLIMCHECK
 70
     0
  9
$PEXTMIN
 10
1.0000000000000000E+020
 20
1.0000000000000000E+020
 30
1.0000000000000000E+020
  9
$PEXTMAX
 10
-1.0000000000000000E+020
 20
-1.0000000000000000E+020
 30
-1.0000000000000000E+020
  9
$PLIMMIN
 10
0.0
 20
0.0
  9
$PLIMMAX
 10
12.0
 20
9.0
  9
$UNITMODE
 70
     0
  9
$VISRETAIN
 70
     0
  9
$PLINEGEN
 70
     1
  9
$PSLTSCALE
 70
     0
  0
ENDSEC
  0
SECTION
  2
TABLES
  0
TABLE
  2
VPORT
 70
     1
  0
VPORT
  2
*ACTIVE
 70
     0
 10
0.0
 20
0.0
 11
1.0
 21
1.0
 12
16800.0
 22
11880.0
 13
0.0
 23
0.0
 14
1.0
 24
1.0
 15
0.0
 25
0.0
 16
0.0
 26
0.0
 36
1.0
 17
0.0
 27
0.0
 37
0.0
 40
23981.023255813951
 41
2.195652173913043
 42
50.0
 43
0.0
 44
0.0
 50
0.0
 51
0.0
 71
     0
 72
 10000
 73
     1
 74
     1
 75
     0
 76
     0
 77
     0
 78
     0
  0
ENDTAB
  0
TABLE
  2
LTYPE
 70
     3
  0
LTYPE
  2
CONTINUOUS
 70
     0
  3
Solid line
 72
    65
 73
     0
 40
0.0
  0
LTYPE
  2
DASHED3
 70
     0
  3
------  ------  ------  ------  
 72
    65
 73
     2
 40
5.0
 49
3.75
 49
-1.25
  0
LTYPE
  2
CENTER2
 70
     0
  3
----------  --  ----------  --  
 72
    65
 73
     4
 40
20.0
 49
12.5
 49
-2.5
 49
2.5
 49
-2.5
  0
ENDTAB
  0
TABLE
  2
LAYER
 70
    17
  0
LAYER
  2
0
 70
     0
 62
     7
  6
CONTINUOUS
  0
LAYER
  2
SUNPOU
 70
     0
 62
     4
  6
CONTINUOUS
  0
LAYER
  2
0-1
 70
     0
 62
     7
  6
CONTINUOUS
  0
LAYER
  2
0-2
 70
     0
 62
     7
  6
CONTINUOUS
  0
LAYER
  2
0-6
 70
     0
 62
     7
  6
CONTINUOUS
  0
LAYER
  2
0-4
 70
     0
 62
     7
  6
CONTINUOUS
  0
LAYER
  2
0-5
 70
     0
 62
     7
  6
CONTINUOUS
  0
LAYER
  2
2-0
 70
     0
 62
     7
  6
CONTINUOUS
  0
LAYER
  2
YODOROGO
 70
     0
 62
   130
  6
CONTINUOUS
  0
LAYER
  2
WAKUSEN-01
 70
     0
 62
    50
  6
CONTINUOUS
  0
LAYER
  2
WAKUSEN-02
 70
     0
 62
   130
  6
CONTINUOUS
  0
LAYER
  2
WAKUMOJI-01
 70
     0
 62
   130
  6
CONTINUOUS
  0
LAYER
  2
FILENAME
 70
     0
 62
     7
  6
CONTINUOUS
  0
LAYER
  2
NAME
 70
     0
 62
    20
  6
CONTINUOUS
  0
LAYER
  2
0-0
 70
     0
 62
     7
  6
CONTINUOUS
  0
ENDTAB
  0
TABLE
  2
STYLE
 70
     5
  0
STYLE
  2
STANDARD
 70
     0
 40
0.0
 41
1.0
 50
0.0
 71
     0
 42
0.0
  3
txt
  4
BIGFONT
  0
STYLE
  2
00
 70
     0
 40
0.0
 41
0.6666666666666666
 50
0.0
 71
     0
 42
0.2
  3
ROMANS
  4
BIGFONT
  0
STYLE
  2
01
 70
     0
 40
3.0
 41
1.0
 50
0.0
 71
     0
 42
0.2
  3
ROMANS
  4
BIGFONT
  0
STYLE
  2
WAKUMOJI
 70
     0
 40
3.0
 41
1.0
 50
0.0
 71
     0
 42
3.0
  3
SIMPLEX
  4
BIGFONT
  0
STYLE
  2
FILENAME
 70
     0
 40
200.0
 41
1.0
 50
0.0
 71
     0
 42
200.0
  3
romans
  4
bigfont
  0
ENDTAB
  0
TABLE
  2
VIEW
 70
     0
  0
ENDTAB
  0
TABLE
  2
UCS
 70
     0
  0
ENDTAB
  0
TABLE
  2
APPID
 70
    13
  0
APPID
  2
ACAD
 70
     0
  0
APPID
  2
ACADANNOTATIVE
 70
     0
  0
APPID
  2
ACAD_PSEXT
 70
     0
  0
APPID
  2
DCO15
 70
     0
  0
APPID
  2
ACAD_MLEADERVER
 70
     0
  0
APPID
  2
AUTOCAD_POSTSCRIPT_FIGURE
 70
     0
  0
APPID
  2
ACAD_EXEMPT_FROM_CAD_STANDARDS
 70
     0
  0
APPID
  2
ACAD_DSTYLE_DIMJAG
 70
     0
  0
APPID
  2
ACAD_DSTYLE_DIMTALN
 70
     0
  0
APPID
  2
ACAD_DSTYLE_DIM_LINETYPE
 70
     0
  0
APPID
  2
ACAD_DSTYLE_DIM_EXT1_LINETYPE
 70
     0
  0
APPID
  2
ACAD_DSTYLE_DIM_EXT2_LINETYPE
 70
     0
  0
APPID
  2
ACAD_NAV_VCDISPLAY
 70
     0
  0
ENDTAB
  0
TABLE
  2
DIMSTYLE
 70
     2
  0
DIMSTYLE
  2
SUNPOU
 70
     0
  3

  4

  5

  6

  7

 40
80.0
 41
3.0
 42
1.0
 43
0.38
 44
1.0
 45
0.5
 46
0.0
 47
0.0
 48
0.0
140
2.0
141
0.09
142
0.0
143
25.399999999999999
144
1.0
145
0.0
146
1.0
147
1.0
 71
     0
 72
     0
 73
     0
 74
     0
 75
     0
 76
     0
 77
     1
 78
     8
170
     0
171
     2
172
     1
173
     0
174
     0
175
     0
176
     4
177
     4
178
     7
  0
ENDTAB
  0
ENDSEC
  0
SECTION
  2
BLOCKS
  0
BLOCK
  8
0
  2
$MODEL_SPACE
 70
     0
 10
0.0
 20
0.0
 30
0.0
  3
$MODEL_SPACE
  1

  0
ENDBLK
  5
39C4
  8
0
  0
BLOCK
 67
     1
  8
0
  2
$PAPER_SPACE
 70
     0
 10
0.0
 20
0.0
 30
0.0
  3
$PAPER_SPACE
  1

  0
ENDBLK
  5
39C0
 67
     1
  8
0
  0
BLOCK
  8
0
  2
_DOTSMALL
 70
     0
 10
0.0
 20
0.0
 30
0.0
  3
_DOTSMALL
  1

  0
POLYLINE
  5
39F3
  8
0
  6
BYBLOCK
 62
     0
 66
     1
 10
0.0
 20
0.0
 30
0.0
 70
     1
 40
0.5
 41
0.5
  0
VERTEX
  5
4536
  8
0
  6
BYBLOCK
 62
     0
 10
-0.0625
 20
0.0
 30
0.0
 42
1.0
  0
VERTEX
  5
4537
  8
0
  6
BYBLOCK
 62
     0
 10
0.0625
 20
0.0
 30
0.0
 42
1.0
  0
SEQEND
  5
4538
  8
0
  6
BYBLOCK
 62
     0
  0
ENDBLK
  5
39F7
  8
0
  0
ENDSEC
  0
SECTION
  2
ENTITIES
  0
LINE
  5
39F8
  8
0-2
  6
CONTINUOUS
 62
     3
 10
8996.6570544999868
 20
19393.282197
 30
0.0
 11
8996.6570544999868
 21
20056.228908000001
 31
0.0
  0
LINE
  5
39F9
  8
0-2
  6
CONTINUOUS
 62
     3
 10
8959.6588624999858
 20
19412.038134999992
 30
0.0
 11
8959.6588624999858
 21
20056.228908000001
 31
0.0
  0
LINE
  5
39FA
  8
0-2
  6
CONTINUOUS
 62
     3
 10
8438.65939049999
 20
17358.231124999998
 30
0.0
 11
13163.90888949999
 21
17358.231124999998
 31
0.0
  0
LINE
  5
39FB
  8
0-2
  6
CONTINUOUS
 62
     3
 10
8488.6600104999889
 20
14245.73055699999
 30
0.0
 11
8488.6600104999889
 21
20056.228908000001
 31
0.0
  0
LINE
  5
39FC
  8
0-2
  6
CONTINUOUS
 62
     3
 10
8353.1599844999946
 20
14213.729659999981
 30
0.0
 11
8353.1599844999946
 21
20104.226294999979
 31
0.0
  0
LINE
  5
39FD
  8
0-2
  6
CONTINUOUS
 62
     3
 10
8547.1587834999864
 20
19615.797901000002
 30
0.0
 11
8547.1587834999864
 21
20056.228908000001
 31
0.0
  0
LINE
  5
39FE
  8
0-2
  6
CONTINUOUS
 62
     3
 10
8584.1599444999865
 20
19597.041961999999
 30
0.0
 11
8584.1599444999865
 21
20056.228908000001
 31
0.0
  0
LINE
  5
39FF
  8
0-2
  6
CONTINUOUS
 62
     3
 10
8747.1604334999865
 20
19514.426755
 30
0.0
 11
8747.1604334999865
 21
20056.228908000001
 31
0.0
  0
LINE
  5
3A00
  8
0-2
  6
CONTINUOUS
 62
     3
 10
8784.1586254999893
 20
19495.670816000002
 30
0.0
 11
8784.1586254999893
 21
20056.228908000001
 31
0.0
  0
LINE
  5
3A01
  8
0-2
  6
CONTINUOUS
 62
     3
 10
9159.6585324999924
 20
19310.663029999982
 30
0.0
 11
9159.6585324999924
 21
20056.228908000001
 31
0.0
  0
LINE
  5
3A02
  8
0-2
  6
CONTINUOUS
 62
     3
 10
9196.6587044999906
 20
19291.907091000001
 30
0.0
 11
9196.6587044999906
 21
20056.228908000001
 31
0.0
  0
LINE
  5
3A03
  8
0-2
  6
CONTINUOUS
 62
     3
 10
9359.6572134999878
 20
19209.291883000002
 30
0.0
 11
9359.6572134999878
 21
20056.228908000001
 31
0.0
  0
LINE
  5
3A04
  8
0-2
  6
CONTINUOUS
 62
     3
 10
9396.658374499988
 20
19190.537923999989
 30
0.0
 11
9396.658374499988
 21
20056.228908000001
 31
0.0
  0
LINE
  5
3A05
  8
0-2
  6
CONTINUOUS
 62
     3
 10
8426.6595094999866
 20
20104.226294999979
 30
0.0
 11
14987.66026149999
 21
20104.226294999979
 31
0.0
  0
LINE
  5
3A06
  8
0-2
  6
CONTINUOUS
 62
     3
 10
11324.95493249999
 20
18213.140727000002
 30
0.0
 11
11487.193306499979
 21
18403.348708999991
 31
0.0
  0
LINE
  5
3A07
  8
0-2
  6
CONTINUOUS
 62
     3
 10
11923.55046449998
 20
17723.98584999999
 30
0.0
 11
12085.78784849998
 21
17914.193831000001
 31
0.0
  0
LINE
  5
3A08
  8
0-2
  6
CONTINUOUS
 62
     3
 10
11923.55046449998
 20
17723.98584999999
 30
0.0
 11
11487.193306499979
 21
18403.348708999991
 31
0.0
  0
LINE
  5
3A09
  8
0-2
  6
CONTINUOUS
 62
     3
 10
8438.65939049999
 20
17279.232497000001
 30
0.0
 11
13319.765294499981
 21
17279.232497000001
 31
0.0
  0
LINE
  5
3A0A
  8
0-2
  6
CONTINUOUS
 62
     3
 10
8396.1601164999902
 20
14369.73057
 30
0.0
 11
15018.15965449999
 21
14369.73057
 31
0.0
  0
LINE
  5
3A0B
  8
0-2
  6
CONTINUOUS
 62
     3
 10
8438.65939049999
 20
14448.73018799999
 30
0.0
 11
14975.65939049999
 21
14448.73018799999
 31
0.0
  0
LINE
  5
3A0C
  8
0-2
  6
CONTINUOUS
 62
     3
 10
8353.1599844999946
 20
14213.729659999981
 30
0.0
 11
15061.15879649998
 21
14213.729659999981
 31
0.0
  0
LINE
  5
3A0D
  8
0-2
  6
CONTINUOUS
 62
     3
 10
8353.1599844999946
 20
14245.73055699999
 30
0.0
 11
15061.15879649998
 21
14245.73055699999
 31
0.0
  0
LINE
  5
3A0E
  8
0-2
  6
CONTINUOUS
 62
     3
 10
8438.65939049999
 20
14369.73057
 30
0.0
 11
8438.65939049999
 21
19670.792885999988
 31
0.0
  0
LINE
  5
3A0F
  8
0-2
  6
CONTINUOUS
 62
     3
 10
8396.1601164999902
 20
14369.73057
 30
0.0
 11
8396.1601164999902
 21
19692.335986999991
 31
0.0
  0
LINE
  5
3A10
  8
0-2
  6
CONTINUOUS
 62
     3
 10
9559.658862499984
 20
19107.916777999992
 30
0.0
 11
9559.658862499984
 21
20056.228908000001
 31
0.0
  0
LINE
  5
3A11
  8
0-2
  6
CONTINUOUS
 62
     3
 10
9596.6570544999886
 20
19089.162819000001
 30
0.0
 11
9596.6570544999886
 21
20056.228908000001
 31
0.0
  0
LINE
  5
3A12
  8
0-2
  6
CONTINUOUS
 62
     3
 10
9759.6585324999905
 20
19006.541671999999
 30
0.0
 11
9759.6585324999905
 21
20056.228908000001
 31
0.0
  0
LINE
  5
3A13
  8
0-2
  6
CONTINUOUS
 62
     3
 10
10159.65787249998
 20
18803.793440999991
 30
0.0
 11
10159.65787249998
 21
20056.228908000001
 31
0.0
  0
LINE
  5
3A14
  8
0-2
  6
CONTINUOUS
 62
     3
 10
10196.658044499991
 20
18785.041461000001
 30
0.0
 11
10196.658044499991
 21
20056.228908000001
 31
0.0
  0
LINE
  5
3A15
  8
0-2
  6
CONTINUOUS
 62
     3
 10
10359.65952249998
 20
18702.418334999991
 30
0.0
 11
10359.65952249998
 21
20056.228908000001
 31
0.0
  0
LINE
  5
3A16
  8
0-2
  6
CONTINUOUS
 62
     3
 10
10396.65771449999
 20
18683.666355000001
 30
0.0
 11
10396.65771449999
 21
20056.228908000001
 31
0.0
  0
LINE
  5
3A17
  8
0-2
  6
CONTINUOUS
 62
     3
 10
10559.65820249999
 20
18601.04718799999
 30
0.0
 11
10559.65820249999
 21
20056.228908000001
 31
0.0
  0
LINE
  5
3A18
  8
0-2
  6
CONTINUOUS
 62
     3
 10
10596.65936449999
 20
18582.295209
 30
0.0
 11
10596.65936449999
 21
20056.228908000001
 31
0.0
  0
LINE
  5
3A19
  8
0-2
  6
CONTINUOUS
 62
     3
 10
10759.65787249998
 20
18499.672083000001
 30
0.0
 11
10759.65787249998
 21
20056.228908000001
 31
0.0
  0
LINE
  5
3A1A
  8
0-2
  6
CONTINUOUS
 62
     3
 10
10796.65804449998
 20
18480.920103
 30
0.0
 11
10796.65804449998
 21
20056.228908000001
 31
0.0
  0
LINE
  5
3A1B
  8
0-2
  6
CONTINUOUS
 62
     3
 10
10959.65952249998
 20
18398.300935999981
 30
0.0
 11
10959.65952249998
 21
20056.228908000001
 31
0.0
  0
LINE
  5
3A1C
  8
0-2
  6
CONTINUOUS
 62
     3
 10
10996.65771449999
 20
18379.546977000002
 30
0.0
 11
10996.65771449999
 21
20056.228908000001
 31
0.0
  0
LINE
  5
3A1D
  8
0-2
  6
CONTINUOUS
 62
     3
 10
11159.65820249999
 20
18296.927810000001
 30
0.0
 11
11159.65820249999
 21
20056.228908000001
 31
0.0
  0
LINE
  5
3A1E
  8
0-2
  6
CONTINUOUS
 62
     3
 10
11196.65936449999
 20
18278.171871999992
 30
0.0
 11
11196.65936449999
 21
20056.228908000001
 31
0.0
  0
LINE
  5
3A1F
  8
0-2
  6
CONTINUOUS
 62
     3
 10
11359.657872499991
 20
18253.82775199999
 30
0.0
 11
11359.657872499991
 21
20056.228908000001
 31
0.0
  0
LINE
  5
3A20
  8
0-2
  6
CONTINUOUS
 62
     3
 10
11396.65804449998
 20
18297.208901999991
 30
0.0
 11
11396.65804449998
 21
20056.228908000001
 31
0.0
  0
LINE
  5
3A21
  8
0-2
  6
CONTINUOUS
 62
     3
 10
11559.65952249998
 20
18290.528026999978
 30
0.0
 11
11559.65952249998
 21
20056.228908000001
 31
0.0
  0
LINE
  5
3A22
  8
0-2
  6
CONTINUOUS
 62
     3
 10
11596.65870449998
 20
18232.926015000001
 30
0.0
 11
11596.65870449998
 21
20056.228908000001
 31
0.0
  0
LINE
  5
3A23
  8
0-2
  6
CONTINUOUS
 62
     3
 10
9796.6587044999796
 20
18987.787713000002
 30
0.0
 11
9796.6587044999796
 21
20056.228908000001
 31
0.0
  0
LINE
  5
3A24
  8
0-2
  6
CONTINUOUS
 62
     3
 10
9959.6582024999807
 20
18905.16854599999
 30
0.0
 11
9959.6582024999807
 21
20056.228908000001
 31
0.0
  0
LINE
  5
3A25
  8
0-2
  6
CONTINUOUS
 62
     3
 10
9996.658374499988
 20
18886.416566999989
 30
0.0
 11
9996.658374499988
 21
20056.228908000001
 31
0.0
  0
LINE
  5
3A26
  8
0-2
  6
CONTINUOUS
 62
     3
 10
8508.6601164999865
 20
14406.230913999991
 30
0.0
 11
11637.159654499979
 21
17324.230914
 31
0.0
  0
LINE
  5
3A27
  8
0-2
  6
CONTINUOUS
 62
     3
 10
11637.159654499979
 20
14406.230913999991
 30
0.0
 11
8508.6601164999865
 21
17324.230914
 31
0.0
  0
LINE
  5
3A28
  8
0-2
  6
CONTINUOUS
 62
     3
 10
12796.65771449999
 20
17544.37911300001
 30
0.0
 11
12796.65771449999
 21
20056.228908000001
 31
0.0
  0
LINE
  5
3A29
  8
0-2
  6
CONTINUOUS
 62
     3
 10
12759.65952249998
 20
17563.131093000011
 30
0.0
 11
12759.65952249998
 21
20056.228908000001
 31
0.0
  0
LINE
  5
3A2A
  8
0-2
  6
CONTINUOUS
 62
     3
 10
12596.658044499991
 20
17655.251026000002
 30
0.0
 11
12596.658044499991
 21
20056.228908000001
 31
0.0
  0
LINE
  5
3A2B
  8
0-2
  6
CONTINUOUS
 62
     3
 10
12559.65886249998
 20
17674.003005999999
 30
0.0
 11
12559.65886249998
 21
20056.228908000001
 31
0.0
  0
LINE
  5
3A2C
  8
0-2
  6
CONTINUOUS
 62
     3
 10
12396.65837449999
 20
17756.622172999982
 30
0.0
 11
12396.65837449999
 21
20056.228908000001
 31
0.0
  0
LINE
  5
3A2D
  8
0-2
  6
CONTINUOUS
 62
     3
 10
12359.65721349999
 20
17775.378111000002
 30
0.0
 11
12359.65721349999
 21
20056.228908000001
 31
0.0
  0
LINE
  5
3A2E
  8
0-2
  6
CONTINUOUS
 62
     3
 10
12196.657714499979
 20
17857.997277999992
 30
0.0
 11
12196.657714499979
 21
20056.228908000001
 31
0.0
  0
LINE
  5
3A2F
  8
0-2
  6
CONTINUOUS
 62
     3
 10
12159.65952249998
 20
17876.749258
 30
0.0
 11
12159.65952249998
 21
20056.228908000001
 31
0.0
  0
LINE
  5
3A30
  8
0-2
  6
CONTINUOUS
 62
     3
 10
11996.658044499991
 20
17809.697025000001
 30
0.0
 11
11996.658044499991
 21
20056.228908000001
 31
0.0
  0
LINE
  5
3A31
  8
0-2
  6
CONTINUOUS
 62
     3
 10
11959.65886249998
 20
17766.315875
 30
0.0
 11
11959.65886249998
 21
20056.228908000001
 31
0.0
  0
LINE
  5
3A32
  8
0-2
  6
CONTINUOUS
 62
     3
 10
11796.65837449999
 20
17921.543784000001
 30
0.0
 11
11796.65837449999
 21
20056.228908000001
 31
0.0
  0
LINE
  5
3A33
  8
0-2
  6
CONTINUOUS
 62
     3
 10
11759.657213499981
 20
17979.149753999991
 30
0.0
 11
11759.657213499981
 21
20056.228908000001
 31
0.0
  0
LINE
  5
3A34
  8
0-2
  6
CONTINUOUS
 62
     3
 10
14905.658664499981
 20
14406.230913999991
 30
0.0
 11
11777.159126499981
 21
17324.230914
 31
0.0
  0
LINE
  5
3A35
  8
0-2
  6
CONTINUOUS
 62
     3
 10
11777.159126499981
 20
14406.230913999991
 30
0.0
 11
14351.573518499979
 21
16765.736536
 31
0.0
  0
LINE
  5
3A36
  8
0-2
  6
CONTINUOUS
 62
     3
 10
15018.15965449999
 20
14369.73057
 30
0.0
 11
15018.15965449999
 21
16433.191270999981
 31
0.0
  0
LINE
  5
3A37
  8
0-2
  6
CONTINUOUS
 62
     3
 10
14975.65939049999
 20
14369.73057
 30
0.0
 11
14975.65939049999
 21
16454.730413000001
 31
0.0
  0
LINE
  5
3A38
  8
0-2
  6
CONTINUOUS
 62
     3
 10
15061.15879649998
 20
14213.729659999981
 30
0.0
 11
15061.15879649998
 21
20104.226294999979
 31
0.0
  0
LINE
  5
3A39
  8
0-2
  6
CONTINUOUS
 62
     3
 10
14925.65975949998
 20
14245.73055699999
 30
0.0
 11
14925.65975949998
 21
20056.228908000001
 31
0.0
  0
LINE
  5
3A3A
  8
0-2
  6
CONTINUOUS
 62
     3
 10
14830.16081549999
 20
16528.481336000001
 30
0.0
 11
14830.16081549999
 21
20056.228908000001
 31
0.0
  0
LINE
  5
3A3B
  8
0-2
  6
CONTINUOUS
 62
     3
 10
14867.159997499961
 20
16509.725397999991
 30
0.0
 11
14867.159997499961
 21
20056.228908000001
 31
0.0
  0
LINE
  5
3A3C
  8
0-2
  6
CONTINUOUS
 62
     3
 10
11324.95493249999
 20
18213.140727000002
 30
0.0
 11
8204.9633654999907
 21
19789.247277999992
 31
0.0
  0
LINE
  5
3A3D
  8
0-2
  6
CONTINUOUS
 62
     3
 10
12996.658374499981
 20
17443.005987
 30
0.0
 11
12996.658374499981
 21
20056.228908000001
 31
0.0
  0
LINE
  5
3A3E
  8
0-2
  6
CONTINUOUS
 62
     3
 10
13033.65854549998
 20
17424.24806899999
 30
0.0
 11
13033.65854549998
 21
20056.228908000001
 31
0.0
  0
LINE
  5
3A3F
  8
0-2
  6
CONTINUOUS
 62
     3
 10
13196.658044499991
 20
17341.630882000001
 30
0.0
 11
13196.658044499991
 21
20056.228908000001
 31
0.0
  0
LINE
  5
3A40
  8
0-2
  6
CONTINUOUS
 62
     3
 10
13233.65920549998
 20
17322.878902
 30
0.0
 11
13233.65920549998
 21
20056.228908000001
 31
0.0
  0
LINE
  5
3A41
  8
0-2
  6
CONTINUOUS
 62
     3
 10
13396.65771449999
 20
17240.255775999991
 30
0.0
 11
13396.65771449999
 21
20056.228908000001
 31
0.0
  0
LINE
  5
3A42
  8
0-2
  6
CONTINUOUS
 62
     3
 10
13433.65788649999
 20
17221.503797000001
 30
0.0
 11
13433.65788649999
 21
20056.228908000001
 31
0.0
  0
LINE
  5
3A43
  8
0-2
  6
CONTINUOUS
 62
     3
 10
14070.659047499979
 20
16908.123307999991
 30
0.0
 11
14070.659047499979
 21
20056.228908000001
 31
0.0
  0
LINE
  5
3A44
  8
0-2
  6
CONTINUOUS
 62
     3
 10
14033.65788649999
 20
16926.87924599999
 30
0.0
 11
14033.65788649999
 21
20056.228908000001
 31
0.0
  0
LINE
  5
3A45
  8
0-2
  6
CONTINUOUS
 62
     3
 10
13870.65739749997
 20
17009.49841299999
 30
0.0
 11
13870.65739749997
 21
20056.228908000001
 31
0.0
  0
LINE
  5
3A46
  8
0-2
  6
CONTINUOUS
 62
     3
 10
13833.65920549998
 20
17028.254351999982
 30
0.0
 11
13833.65920549998
 21
20056.228908000001
 31
0.0
  0
LINE
  5
3A47
  8
0-2
  6
CONTINUOUS
 62
     3
 10
13670.65970749999
 20
17110.869559999988
 30
0.0
 11
13670.65970749999
 21
20056.228908000001
 31
0.0
  0
LINE
  5
3A48
  8
0-2
  6
CONTINUOUS
 62
     3
 10
13633.65854549998
 20
17120.13265000001
 30
0.0
 11
13633.65854549998
 21
20056.228908000001
 31
0.0
  0
LINE
  5
3A49
  8
0-2
  6
CONTINUOUS
 62
     3
 10
14270.65970749999
 20
16806.752161
 30
0.0
 11
14270.65970749999
 21
20056.228908000001
 31
0.0
  0
LINE
  5
3A4A
  8
0-2
  6
CONTINUOUS
 62
     3
 10
14307.65888949996
 20
16787.996222000002
 30
0.0
 11
14307.65888949996
 21
20056.228908000001
 31
0.0
  0
LINE
  5
3A4B
  8
0-2
  6
CONTINUOUS
 62
     3
 10
14470.65739749999
 20
16705.37705499999
 30
0.0
 11
14470.65739749999
 21
20056.228908000001
 31
0.0
  0
LINE
  5
3A4C
  8
0-2
  6
CONTINUOUS
 62
     3
 10
14507.65855949998
 20
16686.623095999988
 30
0.0
 11
14507.65855949998
 21
20056.228908000001
 31
0.0
  0
LINE
  5
3A4D
  8
0-2
  6
CONTINUOUS
 62
     3
 10
14681.16047249998
 20
16604.001950000002
 30
0.0
 11
14681.16047249998
 21
20056.228908000001
 31
0.0
  0
LINE
  5
3A4E
  8
0-2
  6
CONTINUOUS
 62
     3
 10
14718.15965449999
 20
16585.247990999978
 30
0.0
 11
14718.15965449999
 21
20056.228908000001
 31
0.0
  0
LINE
  5
3A4F
  8
0-2
  6
CONTINUOUS
 62
     3
 10
15274.42417049998
 20
16303.299220999999
 30
0.0
 11
12085.78784849998
 21
17914.193831000001
 31
0.0
  0
LINE
  5
3A50
  8
0-2
  6
CONTINUOUS
 62
     3
 10
8508.6601164999865
 20
17324.230914
 30
0.0
 11
10253.23862449998
 21
18756.362195999991
 31
0.0
  0
LINE
  5
3A51
  8
0-2
  6
CONTINUOUS
 62
     3
 10
9336.9937044999879
 20
19220.775071
 30
0.0
 11
11637.159654499979
 21
17324.230914
 31
0.0
  0
LINE
  5
3A52
  8
0-2
  6
CONTINUOUS
 62
     3
 10
11777.159126499981
 20
17324.230914
 30
0.0
 11
12332.35965149999
 21
17789.214945999978
 31
0.0
  0
LINE
  5
3A53
  8
0-2
  6
CONTINUOUS
 62
     3
 10
8371.1607364999873
 20
20056.228908000001
 30
0.0
 11
15043.15903349998
 21
20056.228908000001
 31
0.0
  0
LINE
  5
3A54
  8
0-2
  6
CONTINUOUS
 62
     3
 10
8371.1607364999873
 20
20074.228670999979
 30
0.0
 11
8421.6592454999864
 21
20074.228670999979
 31
0.0
  0
LINE
  5
3A55
  8
0-2
  6
CONTINUOUS
 62
     3
 10
8371.1607364999873
 20
20096.727878999998
 30
0.0
 11
8353.1599844999946
 21
20096.727878999998
 31
0.0
  0
LINE
  5
3A56
  8
0-2
  6
CONTINUOUS
 62
     3
 10
8421.6592454999864
 20
20114.226823000001
 30
0.0
 11
8358.1592584999908
 21
20114.226823000001
 31
0.0
  0
LINE
  5
3A57
  8
0-2
  6
CONTINUOUS
 62
     3
 10
8353.1599844999946
 20
20109.226558999992
 30
0.0
 11
8353.1599844999946
 21
20074.228670999979
 31
0.0
  0
LINE
  5
3A58
  8
0-2
  6
CONTINUOUS
 62
     3
 10
8426.6595094999866
 20
20079.228934999988
 30
0.0
 11
8426.6595094999866
 21
20109.226558999992
 31
0.0
  0
LINE
  5
3A59
  8
0-2
  6
CONTINUOUS
 62
     3
 10
8371.1607364999873
 20
19703.486615000002
 30
0.0
 11
8371.1607364999873
 21
20096.727878999998
 31
0.0
  0
LINE
  5
3A5A
  8
0-2
  6
CONTINUOUS
 62
     3
 10
14992.65953549999
 20
20114.226823000001
 30
0.0
 11
15056.15952249998
 21
20114.226823000001
 31
0.0
  0
LINE
  5
3A5B
  8
0-2
  6
CONTINUOUS
 62
     3
 10
15061.15879649998
 20
20109.226558999992
 30
0.0
 11
15061.15879649998
 21
20074.228670999979
 31
0.0
  0
LINE
  5
3A5C
  8
0-2
  6
CONTINUOUS
 62
     3
 10
15043.15903349998
 20
20074.228670999979
 30
0.0
 11
14992.65953549999
 21
20074.228670999979
 31
0.0
  0
LINE
  5
3A5D
  8
0-2
  6
CONTINUOUS
 62
     3
 10
14987.66026149999
 20
20079.228934999988
 30
0.0
 11
14987.66026149999
 21
20109.226558999992
 31
0.0
  0
LINE
  5
3A5E
  8
0-2
  6
CONTINUOUS
 62
     3
 10
15043.15903349998
 20
20096.727878999998
 30
0.0
 11
15061.15879649998
 21
20096.727878999998
 31
0.0
  0
LINE
  5
3A5F
  8
0-2
  6
CONTINUOUS
 62
     3
 10
15043.15903349998
 20
16422.036683999992
 30
0.0
 11
15043.15903349998
 21
20096.727878999998
 31
0.0
  0
LINE
  5
3A60
  8
0-2
  6
CONTINUOUS
 62
     3
 10
11650.15915249998
 20
14448.73018799999
 30
0.0
 11
11650.15915249998
 21
17279.232497000001
 31
0.0
  0
LINE
  5
3A61
  8
0-2
  6
CONTINUOUS
 62
     3
 10
11764.159628499991
 20
14448.73018799999
 30
0.0
 11
11764.159628499991
 21
17279.232497000001
 31
0.0
  0
LINE
  5
3A62
  8
0-2
  6
CONTINUOUS
 62
     3
 10
11707.15939049999
 20
14448.73018799999
 30
0.0
 11
11707.15939049999
 21
14369.73057
 31
0.0
  0
LINE
  5
3A63
  8
0-2
  6
CONTINUOUS
 62
     3
 10
11707.15939049999
 20
14448.73018799999
 30
0.0
 11
11707.15939049999
 21
17279.232497000001
 31
0.0
  0
LINE
  5
3A64
  8
0-2
  6
CONTINUOUS
 62
     3
 10
11650.15915249998
 20
17358.231124999998
 30
0.0
 11
11650.15915249998
 21
18149.631832999981
 31
0.0
  0
LINE
  5
3A65
  8
0-2
  6
CONTINUOUS
 62
     3
 10
11764.159628499991
 20
17358.231124999998
 30
0.0
 11
11764.159628499991
 21
17972.144238000001
 31
0.0
  0
LINE
  5
3A66
  8
0-2
  6
CONTINUOUS
 62
     3
 10
11707.15939049999
 20
17358.231124999998
 30
0.0
 11
11707.15939049999
 21
18060.886055999999
 31
0.0
  0
LINE
  5
3A67
  8
0-2
  6
CONTINUOUS
 62
     3
 10
11707.15939049999
 20
17279.232497000001
 30
0.0
 11
11707.15939049999
 21
17358.231124999998
 31
0.0
  0
LINE
  5
3A68
  8
0-2
  6
CONTINUOUS
 62
     3
 10
11622.15886249998
 20
20056.228908000001
 30
0.0
 11
11622.15886249998
 21
20104.226294999979
 31
0.0
  0
LINE
  5
3A69
  8
0-2
  6
CONTINUOUS
 62
     3
 10
11707.15939049999
 20
14369.73057
 30
0.0
 11
11707.15939049999
 21
14213.729659999981
 31
0.0
  0
LINE
  5
3A6A
  8
0-6
  6
CONTINUOUS
 62
     6
 10
10281.91294049998
 20
17512.05951399999
 30
0.0
 11
10220.76462149998
 21
17683.322578999981
 31
0.0
  0
LINE
  5
3A6B
  8
0-6
  6
CONTINUOUS
 62
     6
 10
10035.04519849998
 20
19831.953411999999
 30
0.0
 11
10178.94630149998
 21
20344.227086999999
 31
0.0
  0
LINE
  5
3A6C
  8
0-6
  6
CONTINUOUS
 62
     6
 10
9621.8998754999902
 20
19937.730967
 30
0.0
 11
9327.9720484999871
 21
20344.227086999999
 31
0.0
  0
LINE
  5
3A6D
  8
0-6
  6
CONTINUOUS
 62
     6
 10
10178.94630149998
 20
20344.227086999999
 30
0.0
 11
10696.635939499991
 21
20344.227086999999
 31
0.0
  0
LINE
  5
3A6E
  8
0-6
  6
CONTINUOUS
 62
     6
 10
9568.6330104999852
 20
20234.132202000001
 30
0.0
 11
9359.4424354999901
 21
20596.461303999989
 31
0.0
  0
LINE
  5
3A6F
  8
0-6
  6
CONTINUOUS
 62
     6
 10
9285.4361534999916
 20
20724.647009
 30
0.0
 11
9089.3777044999879
 21
21064.227482999991
 31
0.0
  0
LINE
  5
3A70
  8
0-6
  6
CONTINUOUS
 62
     6
 10
9089.3777044999879
 20
21064.227482999991
 30
0.0
 11
9931.8152844999877
 21
21064.227482999991
 31
0.0
  0
LINE
  5
3A71
  8
0-6
  6
CONTINUOUS
 62
     6
 10
8517.4739224999867
 20
20344.227086999999
 30
0.0
 11
9327.9720484999871
 21
20344.227086999999
 31
0.0
  0
LINE
  5
3A72
  8
0-6
  6
CONTINUOUS
 62
     6
 10
9420.1938604999887
 20
17683.322578999981
 30
0.0
 11
10220.76462149998
 21
17683.322578999981
 31
0.0
  0
LINE
  5
3A73
  8
0-6
  6
CONTINUOUS
 62
     6
 10
8603.1880674999866
 20
18542.002108000001
 30
0.0
 11
9133.6852694999907
 21
18542.002108000001
 31
0.0
  0
LINE
  5
3A74
  8
0-6
  6
CONTINUOUS
 62
     6
 10
9599.5392334999869
 20
14600.61963799998
 30
0.0
 11
9682.4266254999893
 21
14797.05779899998
 31
0.0
  0
LINE
  5
3A75
  8
0-6
  6
CONTINUOUS
 62
     6
 10
9682.4266254999893
 20
14797.05779899998
 30
0.0
 11
10482.426295499979
 21
14797.05779899998
 31
0.0
  0
LINE
  5
3A76
  8
0-6
  6
CONTINUOUS
 62
     6
 10
10589.952755499969
 20
13413.72999
 30
0.0
 11
11452.53094649999
 21
13413.72999
 31
0.0
  0
LINE
  5
3A77
  8
0-6
  6
CONTINUOUS
 62
     6
 10
10183.838682499991
 20
14077.261649
 30
0.0
 11
10589.952755499969
 21
13413.72999
 31
0.0
  0
LINE
  5
3A78
  8
0-6
  6
CONTINUOUS
 62
     6
 10
8261.2648324999864
 20
14813.501659
 30
0.0
 11
7702.7599964999918
 21
13013.729660000001
 31
0.0
  0
LINE
  5
3A79
  8
0-6
  6
CONTINUOUS
 62
     6
 10
8504.1438444999894
 20
18762.79563099999
 30
0.0
 11
8603.1880674999866
 21
18542.002108000001
 31
0.0
  0
LINE
  5
3A7A
  8
0-6
  6
CONTINUOUS
 62
     6
 10
9731.7394024999885
 20
16820.343535999989
 30
0.0
 11
10611.73933649997
 21
16820.343535999989
 31
0.0
  0
LINE
  5
3A7B
  8
0-6
  6
CONTINUOUS
 62
     6
 10
9520.4742924999882
 20
16618.28417599999
 30
0.0
 11
9731.7394024999885
 21
16820.343535999989
 31
0.0
  0
LINE
  5
3A7C
  8
0-6
  6
CONTINUOUS
 62
     6
 10
6622.7623714999872
 20
13013.729660000001
 30
0.0
 11
7702.7599964999918
 21
13013.729660000001
 31
0.0
  0
LINE
  5
3A7D
  8
0-6
  6
CONTINUOUS
 62
     6
 10
12750.441894499991
 20
21064.227482999991
 30
0.0
 11
14425.44123449998
 21
21064.227482999991
 31
0.0
  0
LINE
  5
3A7E
  8
0-6
  6
CONTINUOUS
 62
     6
 10
14626.22586249999
 20
20734.647537000001
 30
0.0
 11
14425.44123449998
 21
21064.227482999991
 31
0.0
  0
LINE
  5
3A7F
  8
0-6
  6
CONTINUOUS
 62
     6
 10
14909.42568849999
 20
20244.13272999999
 30
0.0
 11
14700.23214449998
 21
20606.461831999979
 31
0.0
  0
LINE
  5
3A80
  8
0-6
  6
CONTINUOUS
 62
     6
 10
11650.15915249998
 20
15610.101506000001
 30
0.0
 11
11384.96898749998
 21
15979.06199499998
 31
0.0
  0
LINE
  5
3A81
  8
0-6
  6
CONTINUOUS
 62
     6
 10
11138.732711499981
 20
15979.06199499998
 30
0.0
 11
11384.96898749998
 21
15979.06199499998
 31
0.0
  0
LINE
  5
3A82
  8
0-6
  6
CONTINUOUS
 62
     6
 10
8286.7095644999863
 20
14805.51826099999
 30
0.0
 11
8309.1602744999927
 21
14966.165102000001
 31
0.0
  0
LINE
  5
3A83
  8
0-6
  6
CONTINUOUS
 62
     6
 10
8309.1602744999927
 20
14966.165102000001
 30
0.0
 11
8235.8230704999896
 21
14821.48307799999
 31
0.0
  0
LINE
  5
3A84
  8
0-6
  6
CONTINUOUS
 62
     6
 10
8309.1602744999927
 20
14966.165102000001
 30
0.0
 11
8286.7095644999863
 21
14805.51826099999
 31
0.0
  0
LINE
  5
3A85
  8
0-6
  6
CONTINUOUS
 62
     6
 10
8286.7095644999863
 20
14805.51826099999
 30
0.0
 11
8235.8230704999896
 21
14821.48307799999
 31
0.0
  0
LINE
  5
3A86
  8
0-6
  6
CONTINUOUS
 62
     6
 10
8235.8230704999896
 20
14821.48307799999
 30
0.0
 11
8309.1602744999927
 21
14966.165102000001
 31
0.0
  0
LINE
  5
3A87
  8
0-6
  6
CONTINUOUS
 62
     6
 10
8235.8230704999896
 20
14821.48307799999
 30
0.0
 11
8286.7095644999863
 21
14805.51826099999
 31
0.0
  0
LINE
  5
3A88
  8
0-6
  6
CONTINUOUS
 62
     6
 10
9575.3920764999875
 20
14611.931596999981
 30
0.0
 11
9531.6664904999925
 21
14455.730755
 31
0.0
  0
LINE
  5
3A89
  8
0-6
  6
CONTINUOUS
 62
     6
 10
9531.6664904999925
 20
14455.730755
 30
0.0
 11
9623.6873804999886
 21
14589.30767899999
 31
0.0
  0
LINE
  5
3A8A
  8
0-6
  6
CONTINUOUS
 62
     6
 10
9531.6664904999925
 20
14455.730755
 30
0.0
 11
9575.3920764999875
 21
14611.931596999981
 31
0.0
  0
LINE
  5
3A8B
  8
0-6
  6
CONTINUOUS
 62
     6
 10
9575.3920764999875
 20
14611.931596999981
 30
0.0
 11
9623.6873804999886
 21
14589.30767899999
 31
0.0
  0
LINE
  5
3A8C
  8
0-6
  6
CONTINUOUS
 62
     6
 10
9623.6873804999886
 20
14589.30767899999
 30
0.0
 11
9531.6664904999925
 21
14455.730755
 31
0.0
  0
LINE
  5
3A8D
  8
0-6
  6
CONTINUOUS
 62
     6
 10
9623.6873804999886
 20
14589.30767899999
 30
0.0
 11
9575.3920764999875
 21
14611.931596999981
 31
0.0
  0
LINE
  5
3A8E
  8
0-6
  6
CONTINUOUS
 62
     6
 10
10206.58335049999
 20
14091.182613000001
 30
0.0
 11
10100.31388549998
 21
14213.729659999981
 31
0.0
  0
LINE
  5
3A8F
  8
0-6
  6
CONTINUOUS
 62
     6
 10
10100.31388549998
 20
14213.729659999981
 30
0.0
 11
10161.09401349998
 21
14063.340684999979
 31
0.0
  0
LINE
  5
3A90
  8
0-6
  6
CONTINUOUS
 62
     6
 10
10100.31388549998
 20
14213.729659999981
 30
0.0
 11
10206.58335049999
 21
14091.182613000001
 31
0.0
  0
LINE
  5
3A91
  8
0-6
  6
CONTINUOUS
 62
     6
 10
10206.58335049999
 20
14091.182613000001
 30
0.0
 11
10161.09401349998
 21
14063.340684999979
 31
0.0
  0
LINE
  5
3A92
  8
0-6
  6
CONTINUOUS
 62
     6
 10
10161.09401349998
 20
14063.340684999979
 30
0.0
 11
10100.31388549998
 21
14213.729659999981
 31
0.0
  0
LINE
  5
3A93
  8
0-6
  6
CONTINUOUS
 62
     6
 10
10161.09401349998
 20
14063.340684999979
 30
0.0
 11
10206.58335049999
 21
14091.182613000001
 31
0.0
  0
LINE
  5
3A94
  8
0-6
  6
CONTINUOUS
 62
     6
 10
9502.0410154999918
 20
16637.556768999992
 30
0.0
 11
9404.8436834999884
 21
16507.694412000001
 31
0.0
  0
LINE
  5
3A95
  8
0-6
  6
CONTINUOUS
 62
     6
 10
9404.8436834999884
 20
16507.694412000001
 30
0.0
 11
9538.905589499991
 21
16599.01356299999
 31
0.0
  0
LINE
  5
3A96
  8
0-6
  6
CONTINUOUS
 62
     6
 10
9404.8436834999884
 20
16507.694412000001
 30
0.0
 11
9502.0410154999918
 21
16637.556768999992
 31
0.0
  0
LINE
  5
3A97
  8
0-6
  6
CONTINUOUS
 62
     6
 10
9502.0410154999918
 20
16637.556768999992
 30
0.0
 11
9538.905589499991
 21
16599.01356299999
 31
0.0
  0
LINE
  5
3A98
  8
0-6
  6
CONTINUOUS
 62
     6
 10
9538.905589499991
 20
16599.01356299999
 30
0.0
 11
9404.8436834999884
 21
16507.694412000001
 31
0.0
  0
LINE
  5
3A99
  8
0-6
  6
CONTINUOUS
 62
     6
 10
9538.905589499991
 20
16599.01356299999
 30
0.0
 11
9502.0410154999918
 21
16637.556768999992
 31
0.0
  0
LINE
  5
3A9A
  8
0-6
  6
CONTINUOUS
 62
     6
 10
8528.4770764999867
 20
18773.708717000001
 30
0.0
 11
8438.65939049999
 21
18908.78116799999
 31
0.0
  0
LINE
  5
3A9B
  8
0-6
  6
CONTINUOUS
 62
     6
 10
8438.65939049999
 20
18908.78116799999
 30
0.0
 11
8479.8135814999896
 21
18751.878585999999
 31
0.0
  0
LINE
  5
3A9C
  8
0-6
  6
CONTINUOUS
 62
     6
 10
8438.65939049999
 20
18908.78116799999
 30
0.0
 11
8528.4770764999867
 21
18773.708717000001
 31
0.0
  0
LINE
  5
3A9D
  8
0-6
  6
CONTINUOUS
 62
     6
 10
8528.4770764999867
 20
18773.708717000001
 30
0.0
 11
8479.8135814999896
 21
18751.878585999999
 31
0.0
  0
LINE
  5
3A9E
  8
0-6
  6
CONTINUOUS
 62
     6
 10
8479.8135814999896
 20
18751.878585999999
 30
0.0
 11
8438.65939049999
 21
18908.78116799999
 31
0.0
  0
LINE
  5
3A9F
  8
0-6
  6
CONTINUOUS
 62
     6
 10
8479.8135814999896
 20
18751.878585999999
 30
0.0
 11
8528.4770764999867
 21
18773.708717000001
 31
0.0
  0
LINE
  5
3AA0
  8
0-6
  6
CONTINUOUS
 62
     6
 10
10307.54968549998
 20
17519.39560900001
 30
0.0
 11
10325.91565849998
 21
17358.231124999998
 31
0.0
  0
LINE
  5
3AA1
  8
0-6
  6
CONTINUOUS
 62
     6
 10
10325.91565849998
 20
17358.231124999998
 30
0.0
 11
10256.27421549998
 21
17504.727376999999
 31
0.0
  0
LINE
  5
3AA2
  8
0-6
  6
CONTINUOUS
 62
     6
 10
10325.91565849998
 20
17358.231124999998
 30
0.0
 11
10307.54968549998
 21
17519.39560900001
 31
0.0
  0
LINE
  5
3AA3
  8
0-6
  6
CONTINUOUS
 62
     6
 10
10307.54968549998
 20
17519.39560900001
 30
0.0
 11
10256.27421549998
 21
17504.727376999999
 31
0.0
  0
LINE
  5
3AA4
  8
0-6
  6
CONTINUOUS
 62
     6
 10
10256.27421549998
 20
17504.727376999999
 30
0.0
 11
10325.91565849998
 21
17358.231124999998
 31
0.0
  0
LINE
  5
3AA5
  8
0-6
  6
CONTINUOUS
 62
     6
 10
10256.27421549998
 20
17504.727376999999
 30
0.0
 11
10307.54968549998
 21
17519.39560900001
 31
0.0
  0
LINE
  5
3AA6
  8
0-6
  6
CONTINUOUS
 62
     6
 10
11577.78003549998
 20
15755.26455299999
 30
0.0
 11
11650.15915249998
 21
15610.101506000001
 31
0.0
  0
LINE
  5
3AA7
  8
0-6
  6
CONTINUOUS
 62
     6
 10
11650.15915249998
 20
15610.101506000001
 30
0.0
 11
11534.612673499991
 21
15723.94263
 31
0.0
  0
LINE
  5
3AA8
  8
0-6
  6
CONTINUOUS
 62
     6
 10
11650.15915249998
 20
15610.101506000001
 30
0.0
 11
11577.78003549998
 21
15755.26455299999
 31
0.0
  0
LINE
  5
3AA9
  8
0-6
  6
CONTINUOUS
 62
     6
 10
11577.78003549998
 20
15755.26455299999
 30
0.0
 11
11534.612673499991
 21
15723.94263
 31
0.0
  0
LINE
  5
3AAA
  8
0-6
  6
CONTINUOUS
 62
     6
 10
11534.612673499991
 20
15723.94263
 30
0.0
 11
11650.15915249998
 21
15610.101506000001
 31
0.0
  0
LINE
  5
3AAB
  8
0-6
  6
CONTINUOUS
 62
     6
 10
11534.612673499991
 20
15723.94263
 30
0.0
 11
11577.78003549998
 21
15755.26455299999
 31
0.0
  0
LINE
  5
3AAC
  8
0-6
  6
CONTINUOUS
 62
     6
 10
9515.2048134999877
 20
20059.904874
 30
0.0
 11
9621.8998754999902
 21
19937.730967
 31
0.0
  0
LINE
  5
3AAD
  8
0-6
  6
CONTINUOUS
 62
     6
 10
9621.8998754999902
 20
19937.730967
 30
0.0
 11
9560.5961644999916
 21
20087.903184999999
 31
0.0
  0
LINE
  5
3AAE
  8
0-6
  6
CONTINUOUS
 62
     6
 10
9621.8998754999902
 20
19937.730967
 30
0.0
 11
9515.2048134999877
 21
20059.904874
 31
0.0
  0
LINE
  5
3AAF
  8
0-6
  6
CONTINUOUS
 62
     6
 10
9515.2048134999877
 20
20059.904874
 30
0.0
 11
9560.5961644999916
 21
20087.903184999999
 31
0.0
  0
LINE
  5
3AB0
  8
0-6
  6
CONTINUOUS
 62
     6
 10
9560.5961644999916
 20
20087.903184999999
 30
0.0
 11
9621.8998754999902
 21
19937.730967
 31
0.0
  0
LINE
  5
3AB1
  8
0-6
  6
CONTINUOUS
 62
     6
 10
9560.5961644999916
 20
20087.903184999999
 30
0.0
 11
9515.2048134999877
 21
20059.904874
 31
0.0
  0
LINE
  5
3AB2
  8
0-6
  6
CONTINUOUS
 62
     6
 10
10009.158044499991
 20
19838.349236999991
 30
0.0
 11
9996.658374499988
 21
19676.628507000001
 31
0.0
  0
LINE
  5
3AB3
  8
0-6
  6
CONTINUOUS
 62
     6
 10
9996.658374499988
 20
19676.628507000001
 30
0.0
 11
10060.93334249998
 21
19825.553627999991
 31
0.0
  0
LINE
  5
3AB4
  8
0-6
  6
CONTINUOUS
 62
     6
 10
9996.658374499988
 20
19676.628507000001
 30
0.0
 11
10009.158044499991
 21
19838.349236999991
 31
0.0
  0
LINE
  5
3AB5
  8
0-6
  6
CONTINUOUS
 62
     6
 10
10009.158044499991
 20
19838.349236999991
 30
0.0
 11
10060.93334249998
 21
19825.553627999991
 31
0.0
  0
LINE
  5
3AB6
  8
0-6
  6
CONTINUOUS
 62
     6
 10
10060.93334249998
 20
19825.553627999991
 30
0.0
 11
9996.658374499988
 21
19676.628507000001
 31
0.0
  0
LINE
  5
3AB7
  8
0-6
  6
CONTINUOUS
 62
     6
 10
10060.93334249998
 20
19825.553627999991
 30
0.0
 11
10009.158044499991
 21
19838.349236999991
 31
0.0
  0
LINE
  5
3AB8
  8
0-6
  6
CONTINUOUS
 62
     6
 10
9546.9830154999872
 20
20221.633522
 30
0.0
 11
9643.633010499987
 21
20104.226294999979
 31
0.0
  0
LINE
  5
3AB9
  8
0-6
  6
CONTINUOUS
 62
     6
 10
9643.633010499987
 20
20104.226294999979
 30
0.0
 11
9590.2859744999896
 21
20246.632861999999
 31
0.0
  0
LINE
  5
3ABA
  8
0-6
  6
CONTINUOUS
 62
     6
 10
9643.633010499987
 20
20104.226294999979
 30
0.0
 11
9546.9830154999872
 21
20221.633522
 31
0.0
  0
LINE
  5
3ABB
  8
0-6
  6
CONTINUOUS
 62
     6
 10
9546.9830154999872
 20
20221.633522
 30
0.0
 11
9590.2859744999896
 21
20246.632861999999
 31
0.0
  0
LINE
  5
3ABC
  8
0-6
  6
CONTINUOUS
 62
     6
 10
9590.2859744999896
 20
20246.632861999999
 30
0.0
 11
9643.633010499987
 21
20104.226294999979
 31
0.0
  0
LINE
  5
3ABD
  8
0-6
  6
CONTINUOUS
 62
     6
 10
9590.2859744999896
 20
20246.632861999999
 30
0.0
 11
9546.9830154999872
 21
20221.633522
 31
0.0
  0
LINE
  5
3ABE
  8
0-6
  6
CONTINUOUS
 62
     6
 10
14887.773714499979
 20
20231.63207
 30
0.0
 11
14984.42568849998
 21
20114.226823000001
 31
0.0
  0
LINE
  5
3ABF
  8
0-6
  6
CONTINUOUS
 62
     6
 10
14984.42568849998
 20
20114.226823000001
 30
0.0
 11
14931.076672499979
 21
20256.631409999991
 31
0.0
  0
LINE
  5
3AC0
  8
0-6
  6
CONTINUOUS
 62
     6
 10
14984.42568849998
 20
20114.226823000001
 30
0.0
 11
14887.773714499979
 21
20231.63207
 31
0.0
  0
LINE
  5
3AC1
  8
0-6
  6
CONTINUOUS
 62
     6
 10
14887.773714499979
 20
20231.63207
 30
0.0
 11
14931.076672499979
 21
20256.631409999991
 31
0.0
  0
LINE
  5
3AC2
  8
0-6
  6
CONTINUOUS
 62
     6
 10
14931.076672499979
 20
20256.631409999991
 30
0.0
 11
14984.42568849998
 21
20114.226823000001
 31
0.0
  0
LINE
  5
3AC3
  8
0-6
  6
CONTINUOUS
 62
     6
 10
14931.076672499979
 20
20256.631409999991
 30
0.0
 11
14887.773714499979
 21
20231.63207
 31
0.0
  0
LINE
  5
3AC4
  8
0-4
  6
DASHED3
 62
     6
 10
8438.65939049999
 20
19852.728459999991
 30
0.0
 11
14975.65939049999
 21
19852.728459999991
 31
0.0
  0
LINE
  5
3AC5
  8
0-4
  6
DASHED3
 62
     6
 10
8396.1601164999902
 20
19692.335986999991
 30
0.0
 11
8396.1601164999902
 21
19937.730967
 31
0.0
  0
LINE
  5
3AC6
  8
0-4
  6
DASHED3
 62
     6
 10
8438.65939049999
 20
19670.792885999988
 30
0.0
 11
8438.65939049999
 21
19937.730967
 31
0.0
  0
LINE
  5
3AC7
  8
0-4
  6
DASHED3
 62
     6
 10
8396.1601164999902
 20
19937.730967
 30
0.0
 11
15018.15965449999
 21
19937.730967
 31
0.0
  0
LINE
  5
3AC8
  8
0-4
  6
DASHED3
 62
     6
 10
14905.658664499981
 20
17324.230914
 30
0.0
 11
11777.159126499981
 21
19891.730914
 31
0.0
  0
LINE
  5
3AC9
  8
0-4
  6
DASHED3
 62
     6
 10
13319.765294499981
 20
17279.232497000001
 30
0.0
 11
14975.65939049999
 21
17279.232497000001
 31
0.0
  0
LINE
  5
3ACA
  8
0-4
  6
DASHED3
 62
     6
 10
13163.90888949999
 20
17358.231124999998
 30
0.0
 11
14975.65939049999
 21
17358.231124999998
 31
0.0
  0
LINE
  5
3ACB
  8
0-4
  6
DASHED3
 62
     6
 10
14975.65939049999
 20
16454.730413000001
 30
0.0
 11
14975.65939049999
 21
19937.730967
 31
0.0
  0
LINE
  5
3ACC
  8
0-4
  6
DASHED3
 62
     6
 10
15018.15965449999
 20
16433.191270999981
 30
0.0
 11
15018.15965449999
 21
19937.730967
 31
0.0
  0
LINE
  5
3ACD
  8
0-4
  6
DASHED3
 62
     6
 10
14351.573518499979
 20
16765.736536
 30
0.0
 11
14905.658664499981
 21
17324.230914
 31
0.0
  0
LINE
  5
3ACE
  8
0-4
  6
DASHED3
 62
     6
 10
10253.23862449998
 20
18756.362195999991
 30
0.0
 11
11637.159654499979
 21
19891.730914
 31
0.0
  0
LINE
  5
3ACF
  8
0-4
  6
DASHED3
 62
     6
 10
8508.6601164999865
 20
19891.730914
 30
0.0
 11
9336.9937044999879
 21
19220.775071
 31
0.0
  0
LINE
  5
3AD0
  8
0-4
  6
DASHED3
 62
     6
 10
12332.35965149999
 20
17789.214945999978
 30
0.0
 11
14905.658664499981
 21
19891.730914
 31
0.0
  0
LINE
  5
3AD1
  8
0-4
  6
CENTER2
 62
     6
 10
14975.65939049999
 20
21134.229199000001
 30
0.0
 11
14975.65939049999
 21
20184.226558999992
 31
0.0
  0
LINE
  5
3AD2
  8
0-4
  6
CENTER2
 62
     6
 10
11707.15939049999
 20
21134.229199000009
 30
0.0
 11
11707.15939049999
 21
20184.226558999992
 31
0.0
  0
LINE
  5
3AD3
  8
0-4
  6
CENTER2
 62
     6
 10
7109.1578004999901
 20
19891.730914
 30
0.0
 11
8755.6575164999867
 21
19891.730914
 31
0.0
  0
LINE
  5
3AD4
  8
0-4
  6
CENTER2
 62
     6
 10
8438.65939049999
 20
21134.229199000009
 30
0.0
 11
8438.65939049999
 21
20184.226558999992
 31
0.0
  0
LINE
  5
3AD5
  8
0-4
  6
CENTER2
 62
     6
 10
7109.1578004999901
 20
17324.230914
 30
0.0
 11
8755.6575164999867
 21
17324.230914
 31
0.0
  0
LINE
  5
3AD6
  8
0-4
  6
CENTER2
 62
     6
 10
7109.1578004999901
 20
14406.230913999991
 30
0.0
 11
8755.6575164999867
 21
14406.230913999991
 31
0.0
  0
LINE
  5
3AD7
  8
0-4
  6
DASHED3
 62
     6
 10
11650.15915249998
 20
18149.631832999981
 30
0.0
 11
11650.15915249998
 21
19852.728459999991
 31
0.0
  0
LINE
  5
3AD8
  8
0-4
  6
DASHED3
 62
     6
 10
11707.15939049999
 20
18060.886055999999
 30
0.0
 11
11707.15939049999
 21
19852.728459999991
 31
0.0
  0
LINE
  5
3AD9
  8
0-4
  6
DASHED3
 62
     6
 10
11764.159628499991
 20
17972.144238000001
 30
0.0
 11
11764.159628499991
 21
19852.728459999991
 31
0.0
  0
CIRCLE
  5
3ADA
  8
0-1
  6
CONTINUOUS
 62
     4
 10
11707.15939049999
 20
21334.231838000022
 30
0.0
 40
199.9999949999999
  0
CIRCLE
  5
3ADB
  8
0-1
  6
CONTINUOUS
 62
     4
 10
8438.65939049999
 20
21334.231838000022
 30
0.0
 40
199.9999949999999
  0
CIRCLE
  5
3ADC
  8
0-1
  6
CONTINUOUS
 62
     4
 10
6909.1591204999904
 20
19891.730914
 30
0.0
 40
199.9999949999999
  0
CIRCLE
  5
3ADD
  8
0-1
  6
CONTINUOUS
 62
     4
 10
6909.1591204999904
 20
17324.230914
 30
0.0
 40
199.9999949999999
  0
CIRCLE
  5
3ADE
  8
0-1
  6
CONTINUOUS
 62
     4
 10
6909.1591204999904
 20
14406.230913999991
 30
0.0
 40
199.9999949999999
  0
CIRCLE
  5
3ADF
  8
0-1
  6
CONTINUOUS
 62
     4
 10
14975.65939049999
 20
21334.229857999992
 30
0.0
 40
199.9999949999999
  0
CIRCLE
  5
3AE0
  8
0-1
  6
CONTINUOUS
 62
     4
 10
15128.716678999999
 20
1375.9998579999999
 30
0.0
 40
20.0
  0
ARC
  5
3AE1
  8
0-1
  6
CONTINUOUS
 62
     4
 10
15128.716678999999
 20
1375.9998579999999
 30
0.0
 40
20.0
 50
180.0
 51
0.0
  0
ARC
  5
3AE2
  8
0-1
  6
CONTINUOUS
 62
     4
 10
15128.716678999999
 20
1375.9998579999999
 30
0.0
 40
20.0
 50
0.0
 51
179.99998499999839
  0
CIRCLE
  5
3AE3
  8
0-1
  6
CONTINUOUS
 62
     4
 10
15128.716678999999
 20
1776.000188
 30
0.0
 40
20.0
  0
ARC
  5
3AE4
  8
0-1
  6
CONTINUOUS
 62
     4
 10
15128.716678999999
 20
1776.000188
 30
0.0
 40
20.0
 50
180.0
 51
0.0
  0
ARC
  5
3AE5
  8
0-1
  6
CONTINUOUS
 62
     4
 10
15128.716678999999
 20
1776.000188
 30
0.0
 40
20.0
 50
0.0
 51
179.99998499999839
  0
ARC
  5
3AE6
  8
0-2
  6
CONTINUOUS
 62
     3
 10
8358.1592584999908
 20
20109.226558999992
 30
0.0
 40
5.0
 50
90.0
 51
180.0
  0
ARC
  5
3AE7
  8
0-2
  6
CONTINUOUS
 62
     3
 10
8421.6592454999864
 20
20109.226558999992
 30
0.0
 40
5.0
 50
0.0
 51
90.0
  0
ARC
  5
3AE8
  8
0-2
  6
CONTINUOUS
 62
     3
 10
8421.6592454999864
 20
20079.228934999988
 30
0.0
 40
5.0
 50
269.9999850001808
 51
0.0
  0
ARC
  5
3AE9
  8
0-2
  6
CONTINUOUS
 62
     3
 10
14992.65953549999
 20
20079.228934999988
 30
0.0
 40
5.0
 50
180.0
 51
269.9999850001808
  0
ARC
  5
3AEA
  8
0-2
  6
CONTINUOUS
 62
     3
 10
14992.65953549999
 20
20109.226558999992
 30
0.0
 40
5.0
 50
90.0
 51
180.0
  0
ARC
  5
3AEB
  8
0-2
  6
CONTINUOUS
 62
     3
 10
15056.15952249998
 20
20109.226558999992
 30
0.0
 40
5.0
 50
0.0
 51
90.0
  0
TEXT
  5
3AEC
  8
0-1
  6
CONTINUOUS
 62
     7
 10
14928.09947649997
 20
21243.835141999982
 30
0.0
 40
160.0
  1
3
 72
     4
 11
14981.43280983331
 21
21323.835141999982
 31
0.0
  0
TEXT
  5
3AED
  8
0-1
  6
CONTINUOUS
 62
     7
 10
11662.032305499981
 20
21243.577805000012
 30
0.0
 40
160.0
  1
2
 72
     4
 11
11715.36563883332
 21
21323.577805000012
 31
0.0
  0
TEXT
  5
3AEE
  8
0-1
  6
CONTINUOUS
 62
     7
 10
8389.5425854999903
 20
21250.890147000031
 30
0.0
 40
160.0
  1
1
 72
     4
 11
8416.2092521666564
 21
21330.890147000031
 31
0.0
  0
TEXT
  5
3AEF
  8
0-1
  6
CONTINUOUS
 62
     7
 10
6856.2050184999925
 20
19805.053734000001
 30
0.0
 40
160.0
  1
C
 72
     4
 11
6909.5383518333256
 21
19885.053734000001
 31
0.0
  0
TEXT
  5
3AF0
  8
0-1
  6
CONTINUOUS
 62
     7
 10
6856.2050184999925
 20
17237.559671999988
 30
0.0
 40
160.0
  1
B
 72
     4
 11
6909.5383518333256
 21
17317.559671999988
 31
0.0
  0
TEXT
  5
3AF1
  8
0-1
  6
CONTINUOUS
 62
     7
 10
6856.2050184999925
 20
14319.557693000001
 30
0.0
 40
160.0
  1
A
 72
     4
 11
6909.5383518333256
 21
14399.557693000001
 31
0.0
  0
TEXT
  5
3AF2
  8
0-1
  6
CONTINUOUS
 62
     7
 10
16686.333535999991
 20
1655.999916
 30
0.0
 40
160.0
  1
H
  0
TEXT
  5
3AF3
  8
0-1
  6
CONTINUOUS
 62
     7
 10
15176.14792299998
 20
1655.999916
 30
0.0
 40
160.0
  1
（ ）内寸法ハ、  タ イプヲ示ス。
  0
TEXT
  5
3AF4
  8
0-1
  6
CONTINUOUS
 62
     7
 10
15288.715227000001
 20
1256.000080999999
 30
0.0
 40
160.0
  1
有効高サハ、基礎高サヲ含ミマセン。
  0
TEXT
  5
3AF5
  8
0-6
  6
CONTINUOUS
 62
     7
 10
10258.94656549998
 20
20424.227351000001
 30
0.0
 40
160.0
  1
屋根
 72
     4
 11
10429.61323216665
 21
20504.227351000001
 31
0.0
  0
TEXT
  5
3AF6
  8
0-6
  6
CONTINUOUS
 62
     7
 10
9169.3779684999899
 20
21144.22774699999
 30
0.0
 40
160.0
  1
鼻隠し後
 72
     4
 11
9532.044635166656
 21
21224.22774699999
 31
0.0
  0
TEXT
  5
3AF7
  8
0-6
  6
CONTINUOUS
 62
     7
 10
8607.9726424999917
 20
20424.227351000001
 30
0.0
 40
160.0
  1
桁（後）
 72
     4
 11
8927.9726424999935
 21
20504.227351000001
 31
0.0
  0
TEXT
  5
3AF8
  8
0-6
  6
CONTINUOUS
 62
     7
 10
9500.7652154999887
 20
17763.322843000002
 30
0.0
 40
160.0
  1
桁（中）
 72
     4
 11
9820.7652154999887
 21
17843.322843000002
 31
0.0
  0
TEXT
  5
3AF9
  8
0-6
  6
CONTINUOUS
 62
     7
 10
9762.42589949998
 20
14877.058063
 30
0.0
 40
160.0
  1
桁（前）
 72
     4
 11
10082.42589949998
 21
14957.058063
 31
0.0
  0
TEXT
  5
3AFA
  8
0-6
  6
CONTINUOUS
 62
     7
 10
10669.95301949999
 20
13493.73025399998
 30
0.0
 40
160.0
  1
鼻隠し前
 72
     4
 11
11032.619686166659
 21
13573.73025399998
 31
0.0
  0
TEXT
  5
3AFB
  8
0-6
  6
CONTINUOUS
 62
     7
 10
6702.7606564999887
 20
13093.730914
 30
0.0
 40
160.0
  1
ケラバ 左
 72
     4
 11
7118.7606564999878
 21
13173.730914
 31
0.0
  0
TEXT
  5
3AFC
  8
0-6
  6
CONTINUOUS
 62
     7
 10
8683.1873414999918
 20
18622.002371999992
 30
0.0
 40
160.0
  1
上枠
 72
     4
 11
8853.8540081666561
 21
18702.002371999992
 31
0.0
  0
TEXT
  5
3AFD
  8
0-6
  6
CONTINUOUS
 62
     7
 10
9811.7396664999742
 20
16900.345778999999
 30
0.0
 40
160.0
  1
ブレース
 72
     4
 11
10174.40633316664
 21
16985.679112333331
 31
0.0
  0
TEXT
  5
3AFE
  8
0-6
  6
CONTINUOUS
 62
     7
 10
12830.44314749998
 20
21144.22774699999
 30
0.0
 40
160.0
  1
鼻隠しコーナー後
 72
     4
 11
13577.10981416665
 21
21224.22774699999
 31
0.0
  0
TEXT
  5
3AFF
  8
0-6
  6
CONTINUOUS
 62
     7
 10
11154.972682499991
 20
16059.06028
 30
0.0
 40
160.0
  1
梁
 72
     4
 11
11229.63934916666
 21
16139.06028
 31
0.0
  0
TEXT
  5
3B00
  8
0-4
  6
CONTINUOUS
 62
     7
 10
10466.750487499959
 20
12148.90450037622
 30
0.0
 40
160.0
  1
小 屋 伏 図
 72
     4
 11
10968.083820833301
 21
12228.90450037622
 31
0.0
  0
TEXT
  5
3B09
  8
2-0
  6
CONTINUOUS
 62
     7
 10
12319.576005970919
 20
12176.099869376219
 30
0.0
 40
160.0
  1
1
 72
     4
 11
12346.242672637591
 21
12256.099869376219
 31
0.0
  0
TEXT
  5
3B0A
  8
2-0
  6
CONTINUOUS
 62
     7
 10
12562.664723221629
 20
12096.101337376231
 30
0.0
 40
160.0
  1
80
 72
     4
 11
12682.664723221629
 21
12176.101337376231
 31
0.0
  0
TEXT
  5
3B0B
  8
2-0
  6
CONTINUOUS
 62
     7
 10
11820.577971970921
 20
12148.90450037622
 30
0.0
 40
160.0
  1
(S=  /   )
 72
     4
 11
12380.577971970921
 21
12228.90450037622
 31
0.0
  0
LINE
  5
3B0C
  8
0-1
  6
CONTINUOUS
 62
     3
 10
8789.3756595000086
 20
8526.8256480000018
 30
0.0
 11
14319.874076499989
 21
8526.8256480000018
 31
0.0
  0
LINE
  5
3B0D
  8
0-1
  6
CONTINUOUS
 62
     3
 10
8079.3748015000074
 20
6515.7797690000016
 30
0.0
 11
14352.373878500001
 21
6515.7797690000016
 31
0.0
  0
LINE
  5
3B0E
  8
0-1
  6
CONTINUOUS
 62
     3
 10
8884.3747355000087
 20
6665.7797690000016
 30
0.0
 11
11306.8740105
 21
6665.7797690000016
 31
0.0
  0
LINE
  5
3B0F
  8
0-1
  6
CONTINUOUS
 62
     3
 10
8761.8738785000005
 20
6615.7796040000021
 30
0.0
 11
14352.373878500001
 21
6615.7796040000021
 31
0.0
  0
LINE
  5
3B10
  8
0-1
  6
CONTINUOUS
 62
     3
 10
8884.3747355000087
 20
8526.8256480000018
 30
0.0
 11
8884.3747355000087
 21
6615.7796040000021
 31
0.0
  0
LINE
  5
3B11
  8
0-1
  6
CONTINUOUS
 62
     3
 10
8769.3746035000058
 20
8648.7936849999969
 30
0.0
 11
8769.3746035000058
 21
6615.7796040000021
 31
0.0
  0
LINE
  5
3B12
  8
0-1
  6
CONTINUOUS
 62
     3
 10
8789.3756595000086
 20
8649.4489060000051
 30
0.0
 11
8789.3756595000086
 21
6615.7796040000021
 31
0.0
  0
LINE
  5
3B13
  8
0-1
  6
CONTINUOUS
 62
     3
 10
8761.8738785000005
 20
6515.7797690000016
 30
0.0
 11
8761.8738785000005
 21
6615.7796040000021
 31
0.0
  0
LINE
  5
3B14
  8
0-1
  6
CONTINUOUS
 62
     3
 10
14415.00776049999
 20
8833.2689810000029
 30
0.0
 11
14410.747836500001
 21
8963.198642000003
 31
0.0
  0
LINE
  5
3B15
  8
0-1
  6
CONTINUOUS
 62
     3
 10
11451.873746499999
 20
6665.7797690000016
 30
0.0
 11
14224.874010499991
 21
6665.7797690000016
 31
0.0
  0
LINE
  5
3B16
  8
0-1
  6
CONTINUOUS
 62
     3
 10
10915.373732499969
 20
6665.7797690000016
 30
0.0
 11
10915.373732499969
 21
8526.8256480000018
 31
0.0
  0
LINE
  5
3B17
  8
0-1
  6
CONTINUOUS
 62
     3
 10
10782.3748285
 20
6665.7797690000016
 30
0.0
 11
10782.3748285
 21
8526.8256480000018
 31
0.0
  0
LINE
  5
3B18
  8
0-1
  6
CONTINUOUS
 62
     3
 10
10767.373046500001
 20
6665.7797690000016
 30
0.0
 11
10767.373046500001
 21
8526.8256480000018
 31
0.0
  0
LINE
  5
3B19
  8
0-1
  6
CONTINUOUS
 62
     3
 10
10965.37538249998
 20
6665.7797690000016
 30
0.0
 11
10965.37538249998
 21
8526.8256480000018
 31
0.0
  0
LINE
  5
3B1A
  8
0-1
  6
CONTINUOUS
 62
     3
 10
10985.374458499989
 20
6665.7797690000016
 30
0.0
 11
10985.374458499989
 21
8526.8256480000018
 31
0.0
  0
LINE
  5
3B1B
  8
0-1
  6
CONTINUOUS
 62
     3
 10
11035.3751185
 20
6665.7797690000016
 30
0.0
 11
11035.3751185
 21
8526.8256480000018
 31
0.0
  0
LINE
  5
3B1C
  8
0-1
  6
CONTINUOUS
 62
     3
 10
11168.3740235
 20
6665.7797690000016
 30
0.0
 11
11168.3740235
 21
8526.8256480000018
 31
0.0
  0
LINE
  5
3B1D
  8
0-1
  6
CONTINUOUS
 62
     3
 10
11183.3728355
 20
6665.7797690000016
 30
0.0
 11
11183.3728355
 21
8526.8256480000018
 31
0.0
  0
LINE
  5
3B1E
  8
0-1
  6
CONTINUOUS
 62
     3
 10
11451.873746499999
 20
8526.8256480000018
 30
0.0
 11
11451.873746499999
 21
6615.7796040000021
 31
0.0
  0
LINE
  5
3B1F
  8
0-1
  6
CONTINUOUS
 62
     3
 10
11306.8740105
 20
8526.8256480000018
 30
0.0
 11
11306.8740105
 21
6615.7796040000021
 31
0.0
  0
LINE
  5
3B20
  8
0-1
  6
CONTINUOUS
 62
     3
 10
11575.372941499991
 20
6665.7797690000016
 30
0.0
 11
11575.372941499991
 21
8526.8256480000018
 31
0.0
  0
LINE
  5
3B21
  8
0-1
  6
CONTINUOUS
 62
     3
 10
11590.374722500001
 20
6665.7797690000016
 30
0.0
 11
11590.374722500001
 21
8526.8256480000018
 31
0.0
  0
LINE
  5
3B22
  8
0-1
  6
CONTINUOUS
 62
     3
 10
11723.373627499999
 20
6665.7797690000016
 30
0.0
 11
11723.373627499999
 21
8526.8256480000018
 31
0.0
  0
LINE
  5
3B23
  8
0-1
  6
CONTINUOUS
 62
     3
 10
11773.37428749999
 20
6665.7797690000016
 30
0.0
 11
11773.37428749999
 21
8526.8256480000018
 31
0.0
  0
LINE
  5
3B24
  8
0-1
  6
CONTINUOUS
 62
     3
 10
11793.373363500001
 20
6665.7797690000016
 30
0.0
 11
11793.373363500001
 21
8526.8256480000018
 31
0.0
  0
LINE
  5
3B25
  8
0-1
  6
CONTINUOUS
 62
     3
 10
9565.3737324999875
 20
6665.7797690000016
 30
0.0
 11
9565.3737324999875
 21
8526.8256480000018
 31
0.0
  0
LINE
  5
3B26
  8
0-1
  6
CONTINUOUS
 62
     3
 10
9585.3757785000034
 20
6665.7797690000016
 30
0.0
 11
9585.3757785000034
 21
8526.8256480000018
 31
0.0
  0
LINE
  5
3B27
  8
0-1
  6
CONTINUOUS
 62
     3
 10
9515.3730734999917
 20
6665.7797690000016
 30
0.0
 11
9515.3730734999917
 21
8526.8256480000018
 31
0.0
  0
LINE
  5
3B28
  8
0-1
  6
CONTINUOUS
 62
     3
 10
9635.3734695000021
 20
6665.7797690000016
 30
0.0
 11
9635.3734695000021
 21
8526.8256480000018
 31
0.0
  0
LINE
  5
3B29
  8
0-1
  6
CONTINUOUS
 62
     3
 10
9768.3733635000044
 20
6665.7797690000016
 30
0.0
 11
9768.3733635000044
 21
8526.8256480000018
 31
0.0
  0
LINE
  5
3B2A
  8
0-1
  6
CONTINUOUS
 62
     3
 10
9783.375145500002
 20
6665.7797690000016
 30
0.0
 11
9783.375145500002
 21
8526.8256480000018
 31
0.0
  0
LINE
  5
3B2B
  8
0-1
  6
CONTINUOUS
 62
     3
 10
9372.8743925000072
 20
6665.7797690000016
 30
0.0
 11
9372.8743925000072
 21
8526.8256480000018
 31
0.0
  0
LINE
  5
3B2C
  8
0-1
  6
CONTINUOUS
 62
     3
 10
9357.8755805000092
 20
6665.7797690000016
 30
0.0
 11
9357.8755805000092
 21
8526.8256480000018
 31
0.0
  0
LINE
  5
3B2D
  8
0-1
  6
CONTINUOUS
 62
     3
 10
10067.37370649998
 20
6665.7797690000016
 30
0.0
 11
10067.37370649998
 21
8526.8256480000018
 31
0.0
  0
LINE
  5
3B2E
  8
0-1
  6
CONTINUOUS
 62
     3
 10
10082.37251849998
 20
6665.7797690000016
 30
0.0
 11
10082.37251849998
 21
8526.8256480000018
 31
0.0
  0
LINE
  5
3B2F
  8
0-1
  6
CONTINUOUS
 62
     3
 10
10483.3744855
 20
6665.7797690000016
 30
0.0
 11
10483.3744855
 21
8526.8256480000018
 31
0.0
  0
LINE
  5
3B30
  8
0-1
  6
CONTINUOUS
 62
     3
 10
10468.37270349999
 20
6665.7797690000016
 30
0.0
 11
10468.37270349999
 21
8526.8256480000018
 31
0.0
  0
LINE
  5
3B31
  8
0-1
  6
CONTINUOUS
 62
     3
 10
10335.372809499981
 20
6665.7797690000016
 30
0.0
 11
10335.372809499981
 21
8526.8256480000018
 31
0.0
  0
LINE
  5
3B32
  8
0-1
  6
CONTINUOUS
 62
     3
 10
10215.3743925
 20
6665.7797690000016
 30
0.0
 11
10215.3743925
 21
8526.8256480000018
 31
0.0
  0
LINE
  5
3B33
  8
0-1
  6
CONTINUOUS
 62
     3
 10
10285.37511849998
 20
6665.7797690000016
 30
0.0
 11
10285.37511849998
 21
8526.8256480000018
 31
0.0
  0
LINE
  5
3B34
  8
0-1
  6
CONTINUOUS
 62
     3
 10
10265.37307349999
 20
6665.7797690000016
 30
0.0
 11
10265.37307349999
 21
8526.8256480000018
 31
0.0
  0
LINE
  5
3B35
  8
0-1
  6
CONTINUOUS
 62
     3
 10
10606.874669500001
 20
8526.8256480000018
 30
0.0
 11
10606.874669500001
 21
6665.7797690000016
 31
0.0
  0
LINE
  5
3B36
  8
0-1
  6
CONTINUOUS
 62
     3
 10
10643.8728625
 20
8526.8256480000018
 30
0.0
 11
10643.8728625
 21
6665.7797690000016
 31
0.0
  0
LINE
  5
3B37
  8
0-1
  6
CONTINUOUS
 62
     3
 10
9197.3742345000101
 20
8526.8256480000018
 30
0.0
 11
9197.3742345000101
 21
6665.7797690000016
 31
0.0
  0
LINE
  5
3B38
  8
0-1
  6
CONTINUOUS
 62
     3
 10
9234.3744055000116
 20
8526.8256480000018
 30
0.0
 11
9234.3744055000116
 21
6665.7797690000016
 31
0.0
  0
LINE
  5
3B39
  8
0-1
  6
CONTINUOUS
 62
     3
 10
9906.8753295000079
 20
8526.8256480000018
 30
0.0
 11
9906.8753295000079
 21
6665.7797690000016
 31
0.0
  0
LINE
  5
3B3A
  8
0-1
  6
CONTINUOUS
 62
     3
 10
9943.8735214999961
 20
8526.8256480000018
 30
0.0
 11
9943.8735214999961
 21
6665.7797690000016
 31
0.0
  0
LINE
  5
3B3B
  8
0-1
  6
CONTINUOUS
 62
     3
 10
11379.373878500001
 20
8734.0614480000004
 30
0.0
 11
11375.1129645
 21
8863.9911090000023
 31
0.0
  0
LINE
  5
3B3C
  8
0-1
  6
CONTINUOUS
 62
     3
 10
11379.373878500001
 20
8734.0614480000004
 30
0.0
 11
11379.373878500001
 21
8526.8256480000018
 31
0.0
  0
LINE
  5
3B3D
  8
0-1
  6
CONTINUOUS
 62
     3
 10
14224.874010499991
 20
8526.8256480000018
 30
0.0
 11
14224.874010499991
 21
6615.7796040000021
 31
0.0
  0
LINE
  5
3B3E
  8
0-1
  6
CONTINUOUS
 62
     3
 10
14339.8731525
 20
8830.805470000003
 30
0.0
 11
14339.8731525
 21
6615.7796040000021
 31
0.0
  0
LINE
  5
3B3F
  8
0-1
  6
CONTINUOUS
 62
     3
 10
14319.874076499989
 20
8830.149260000002
 30
0.0
 11
14319.874076499989
 21
6615.7796040000021
 31
0.0
  0
LINE
  5
3B40
  8
0-1
  6
CONTINUOUS
 62
     3
 10
12814.87423449999
 20
8526.8256480000018
 30
0.0
 11
12814.87423449999
 21
6665.7797690000016
 31
0.0
  0
LINE
  5
3B41
  8
0-1
  6
CONTINUOUS
 62
     3
 10
12851.87341649999
 20
8526.8256480000018
 30
0.0
 11
12851.87341649999
 21
6665.7797690000016
 31
0.0
  0
LINE
  5
3B42
  8
0-1
  6
CONTINUOUS
 62
     3
 10
13524.874670499999
 20
8526.8256480000018
 30
0.0
 11
13524.874670499999
 21
6665.7797690000016
 31
0.0
  0
LINE
  5
3B43
  8
0-1
  6
CONTINUOUS
 62
     3
 10
13561.8728625
 20
8526.8256480000018
 30
0.0
 11
13561.8728625
 21
6665.7797690000016
 31
0.0
  0
LINE
  5
3B44
  8
0-1
  6
CONTINUOUS
 62
     3
 10
12114.8729145
 20
8526.8256480000018
 30
0.0
 11
12114.8729145
 21
6665.7797690000016
 31
0.0
  0
LINE
  5
3B45
  8
0-1
  6
CONTINUOUS
 62
     3
 10
12151.87407649998
 20
8526.8256480000018
 30
0.0
 11
12151.87407649998
 21
6665.7797690000016
 31
0.0
  0
LINE
  5
3B46
  8
0-1
  6
CONTINUOUS
 62
     3
 10
12493.372703499999
 20
6665.7797690000016
 30
0.0
 11
12493.372703499999
 21
8526.8256480000018
 31
0.0
  0
LINE
  5
3B47
  8
0-1
  6
CONTINUOUS
 62
     3
 10
12473.37362749999
 20
6665.7797690000016
 30
0.0
 11
12473.37362749999
 21
8526.8256480000018
 31
0.0
  0
LINE
  5
3B48
  8
0-1
  6
CONTINUOUS
 62
     3
 10
12543.373363500001
 20
6665.7797690000016
 30
0.0
 11
12543.373363500001
 21
8526.8256480000018
 31
0.0
  0
LINE
  5
3B49
  8
0-1
  6
CONTINUOUS
 62
     3
 10
12423.37296749999
 20
6665.7797690000016
 30
0.0
 11
12423.37296749999
 21
8526.8256480000018
 31
0.0
  0
LINE
  5
3B4A
  8
0-1
  6
CONTINUOUS
 62
     3
 10
12290.373073500001
 20
6665.7797690000016
 30
0.0
 11
12290.373073500001
 21
8526.8256480000018
 31
0.0
  0
LINE
  5
3B4B
  8
0-1
  6
CONTINUOUS
 62
     3
 10
12275.374260500001
 20
6665.7797690000016
 30
0.0
 11
12275.374260500001
 21
8526.8256480000018
 31
0.0
  0
LINE
  5
3B4C
  8
0-1
  6
CONTINUOUS
 62
     3
 10
12676.37325749999
 20
6665.7797690000016
 30
0.0
 11
12676.37325749999
 21
8526.8256480000018
 31
0.0
  0
LINE
  5
3B4D
  8
0-1
  6
CONTINUOUS
 62
     3
 10
12691.375039500001
 20
6665.7797690000016
 30
0.0
 11
12691.375039500001
 21
8526.8256480000018
 31
0.0
  0
LINE
  5
3B4E
  8
0-1
  6
CONTINUOUS
 62
     3
 10
13391.37437949999
 20
6665.7797690000016
 30
0.0
 11
13391.37437949999
 21
8526.8256480000018
 31
0.0
  0
LINE
  5
3B4F
  8
0-1
  6
CONTINUOUS
 62
     3
 10
13376.3725985
 20
6665.7797690000016
 30
0.0
 11
13376.3725985
 21
8526.8256480000018
 31
0.0
  0
LINE
  5
3B50
  8
0-1
  6
CONTINUOUS
 62
     3
 10
12975.37360149999
 20
6665.7797690000016
 30
0.0
 11
12975.37360149999
 21
8526.8256480000018
 31
0.0
  0
LINE
  5
3B51
  8
0-1
  6
CONTINUOUS
 62
     3
 10
12990.3743925
 20
6665.7797690000016
 30
0.0
 11
12990.3743925
 21
8526.8256480000018
 31
0.0
  0
LINE
  5
3B52
  8
0-1
  6
CONTINUOUS
 62
     3
 10
13123.375277499999
 20
6665.7797690000016
 30
0.0
 11
13123.375277499999
 21
8526.8256480000018
 31
0.0
  0
LINE
  5
3B53
  8
0-1
  6
CONTINUOUS
 62
     3
 10
13243.372703499999
 20
6665.7797690000016
 30
0.0
 11
13243.372703499999
 21
8526.8256480000018
 31
0.0
  0
LINE
  5
3B54
  8
0-1
  6
CONTINUOUS
 62
     3
 10
13173.3729675
 20
6665.7797690000016
 30
0.0
 11
13173.3729675
 21
8526.8256480000018
 31
0.0
  0
LINE
  5
3B55
  8
0-1
  6
CONTINUOUS
 62
     3
 10
13193.37501349999
 20
6665.7797690000016
 30
0.0
 11
13193.37501349999
 21
8526.8256480000018
 31
0.0
  0
LINE
  5
3B56
  8
0-1
  6
CONTINUOUS
 62
     3
 10
13903.374459500001
 20
6665.7797690000016
 30
0.0
 11
13903.374459500001
 21
8526.8256480000018
 31
0.0
  0
LINE
  5
3B57
  8
0-1
  6
CONTINUOUS
 62
     3
 10
13883.375383500001
 20
6665.7797690000016
 30
0.0
 11
13883.375383500001
 21
8526.8256480000018
 31
0.0
  0
LINE
  5
3B58
  8
0-1
  6
CONTINUOUS
 62
     3
 10
13953.37511949999
 20
6665.7797690000016
 30
0.0
 11
13953.37511949999
 21
8526.8256480000018
 31
0.0
  0
LINE
  5
3B59
  8
0-1
  6
CONTINUOUS
 62
     3
 10
13833.374723499999
 20
6665.7797690000016
 30
0.0
 11
13833.374723499999
 21
8526.8256480000018
 31
0.0
  0
LINE
  5
3B5A
  8
0-1
  6
CONTINUOUS
 62
     3
 10
13700.3748285
 20
6665.7797690000016
 30
0.0
 11
13700.3748285
 21
8526.8256480000018
 31
0.0
  0
LINE
  5
3B5B
  8
0-1
  6
CONTINUOUS
 62
     3
 10
13685.373047499999
 20
6665.7797690000016
 30
0.0
 11
13685.373047499999
 21
8526.8256480000018
 31
0.0
  0
LINE
  5
3B5C
  8
0-1
  6
CONTINUOUS
 62
     3
 10
14086.37501349999
 20
6665.7797690000016
 30
0.0
 11
14086.37501349999
 21
8526.8256480000018
 31
0.0
  0
LINE
  5
3B5D
  8
0-1
  6
CONTINUOUS
 62
     3
 10
14101.373825499981
 20
6665.7797690000016
 30
0.0
 11
14101.373825499981
 21
8526.8256480000018
 31
0.0
  0
LINE
  5
3B5E
  8
0-1
  6
CONTINUOUS
 62
     3
 10
11991.372730499999
 20
6665.7797690000016
 30
0.0
 11
11991.372730499999
 21
8526.8256480000018
 31
0.0
  0
LINE
  5
3B5F
  8
0-1
  6
CONTINUOUS
 62
     3
 10
11976.373917499999
 20
6665.7797690000016
 30
0.0
 11
11976.373917499999
 21
8526.8256480000018
 31
0.0
  0
LINE
  5
3B60
  8
0-1
  6
CONTINUOUS
 62
     3
 10
11843.37501349999
 20
6665.7797690000016
 30
0.0
 11
11843.37501349999
 21
8526.8256480000018
 31
0.0
  0
LINE
  5
3B61
  8
0-1
  6
CONTINUOUS
 62
     3
 10
14352.373878500001
 20
6615.7796040000021
 30
0.0
 11
14352.373878500001
 21
6515.7797690000016
 31
0.0
  0
LINE
  5
3B62
  8
0-1
  6
CONTINUOUS
 62
     3
 10
8592.0621965000137
 20
8691.0049390000022
 30
0.0
 11
8590.9477275000136
 21
8724.9873349999998
 31
0.0
  0
LINE
  5
3B63
  8
0-1
  6
CONTINUOUS
 62
     3
 10
8593.8477225000097
 20
8728.0833020000027
 30
0.0
 11
14424.215490500001
 21
8918.6159240000015
 31
0.0
  0
LINE
  5
3B64
  8
0-1
  6
CONTINUOUS
 62
     3
 10
14425.52692149999
 20
8878.6375670000016
 30
0.0
 11
8595.1601425000081
 21
8688.1049450000046
 31
0.0
  0
LINE
  5
3B65
  8
0-1
  6
CONTINUOUS
 62
     3
 10
8592.4234584999995
 20
8680.0106930000056
 30
0.0
 11
8592.4204895000057
 21
8680.0760170000012
 31
0.0
  0
LINE
  5
3B66
  8
0-1
  6
CONTINUOUS
 62
     3
 10
8592.4204895000057
 20
8680.0760170000012
 30
0.0
 11
8593.4716135000053
 21
8648.0286010000054
 31
0.0
  0
LINE
  5
3B67
  8
0-1
  6
CONTINUOUS
 62
     3
 10
8598.6322185000045
 20
8643.1956070000069
 30
0.0
 11
14447.971693499991
 21
8834.3497980000029
 31
0.0
  0
LINE
  5
3B68
  8
0-1
  6
CONTINUOUS
 62
     3
 10
14443.710779499999
 20
8964.2794590000049
 30
0.0
 11
8594.3732845000068
 21
8773.1252680000016
 31
0.0
  0
LINE
  5
3B69
  8
0-1
  6
CONTINUOUS
 62
     3
 10
8589.5383105000055
 20
8767.963673000002
 30
0.0
 11
8590.5884445000029
 21
8735.981581
 31
0.0
  0
LINE
  5
3B6A
  8
0-1
  6
CONTINUOUS
 62
     3
 10
8593.6844115000058
 20
8733.0815860000002
 30
0.0
 11
14424.05317049999
 21
8923.614209000003
 31
0.0
  0
LINE
  5
3B6B
  8
0-1
  6
CONTINUOUS
 62
     3
 10
14425.689242500001
 20
8873.6412620000028
 30
0.0
 11
8595.3224635000097
 21
8683.1076500000017
 31
0.0
  0
LINE
  5
3B6C
  8
0-1
  6
CONTINUOUS
 62
     3
 10
8606.8650365000067
 20
8773.5350280000057
 30
0.0
 11
8611.1259495000049
 21
8643.6043770000033
 31
0.0
  0
LINE
  5
3B6D
  8
0-5
  6
CONTINUOUS
 62
     4
 10
17222.747439499992
 20
6723.6262510000033
 30
0.0
 11
17342.745856499991
 21
6515.7797690000016
 31
0.0
  0
LINE
  5
3B6E
  8
0-5
  6
CONTINUOUS
 62
     4
 10
14432.374142500001
 20
6515.7797690000016
 30
0.0
 11
19314.619536499999
 21
6515.7797690000016
 31
0.0
  0
LINE
  5
3B6F
  8
0-5
  6
CONTINUOUS
 62
     4
 10
17342.745856499991
 20
6515.7797690000016
 30
0.0
 11
17462.748231499991
 21
6723.6262510000033
 31
0.0
  0
LINE
  5
3B70
  8
0-5
  6
CONTINUOUS
 62
     4
 10
17462.748231499991
 20
6723.6262510000033
 30
0.0
 11
17222.747439499992
 21
6723.6262510000033
 31
0.0
  0
LINE
  5
3B71
  8
0-5
  6
CONTINUOUS
 62
     4
 10
14432.374142500001
 20
6615.7796040000021
 30
0.0
 11
16149.8340905
 21
6615.7796040000021
 31
0.0
  0
LINE
  5
3B72
  8
0-5
  6
CONTINUOUS
 62
     4
 10
16177.460251500001
 20
6823.6255910000036
 30
0.0
 11
15937.4584705
 21
6823.6255910000036
 31
0.0
  0
LINE
  5
3B73
  8
0-5
  6
CONTINUOUS
 62
     4
 10
16057.457876500001
 20
6615.7796040000021
 30
0.0
 11
16177.460251500001
 21
6823.6255910000036
 31
0.0
  0
LINE
  5
3B74
  8
0-5
  6
CONTINUOUS
 62
     4
 10
15937.4584705
 20
6823.6255910000036
 30
0.0
 11
16057.457876500001
 21
6615.7796040000021
 31
0.0
  0
LINE
  5
3B75
  8
2-0
  6
CENTER2
 62
     6
 10
8811.8738785000005
 20
6253.1263570000046
 30
0.0
 11
8811.8738785000005
 21
7310.2694489999967
 31
0.0
  0
LINE
  5
3B76
  8
2-0
  6
CENTER2
 62
     6
 10
11379.373878500001
 20
6253.1263570000046
 30
0.0
 11
11379.373878500001
 21
7310.2694489999967
 31
0.0
  0
LINE
  5
3B77
  8
2-0
  6
CENTER2
 62
     6
 10
14297.373878500001
 20
6253.1263570000046
 30
0.0
 11
14297.373878500001
 21
7310.2694489999967
 31
0.0
  0
ARC
  5
3B78
  8
0-1
  6
CONTINUOUS
 62
     3
 10
8595.2650575000062
 20
8730.6309420000034
 30
0.0
 40
2.5
 50
271.87799100002047
 51
91.877991000020657
  0
ARC
  5
3B79
  8
0-1
  6
CONTINUOUS
 62
     3
 10
8596.7397985000061
 20
8685.6562800000029
 30
0.0
 40
2.5
 50
271.87799100002047
 51
91.877991000020657
  0
ARC
  5
3B7A
  8
0-1
  6
CONTINUOUS
 62
     3
 10
8593.9457085000067
 20
8725.0853210000023
 30
0.0
 40
3.0
 50
91.877991000020657
 51
181.87799100002039
  0
ARC
  5
3B7B
  8
0-1
  6
CONTINUOUS
 62
     3
 10
14424.871701499989
 20
8898.6267460000035
 30
0.0
 40
20.0
 50
271.87799100002047
 51
91.877991000020657
  0
ARC
  5
3B7C
  8
0-1
  6
CONTINUOUS
 62
     3
 10
8595.0601775000068
 20
8691.1039149999979
 30
0.0
 40
3.0
 50
181.87799100002039
 51
271.87799100002047
  0
ARC
  5
3B7D
  8
0-1
  6
CONTINUOUS
 62
     3
 10
8595.4204495000085
 20
8680.1096690000049
 30
0.0
 40
3.0
 50
91.877991000020657
 51
181.87799100002039
  0
ARC
  5
3B7E
  8
0-1
  6
CONTINUOUS
 62
     3
 10
8598.4689085000082
 20
8648.1919120000057
 30
0.0
 40
5.0
 50
181.87799100002039
 51
271.87799100002047
  0
ARC
  5
3B7F
  8
0-1
  6
CONTINUOUS
 62
     3
 10
14419.873416500001
 20
8898.4634360000018
 30
0.0
 40
69.999999000000003
 50
293.66478000018742
 51
70.091202000197327
  0
ARC
  5
3B80
  8
0-1
  6
CONTINUOUS
 62
     3
 10
8594.5356045000062
 20
8768.1279730000024
 30
0.0
 40
5.0
 50
91.877991000020657
 51
181.87799100002039
  0
ARC
  5
3B81
  8
0-1
  6
CONTINUOUS
 62
     3
 10
8593.5854355000029
 20
8736.0795670000025
 30
0.0
 40
3.0
 50
181.87799100002039
 51
271.87799100002047
  0
ARC
  5
3B82
  8
0-1
  6
CONTINUOUS
 62
     3
 10
14424.871701499989
 20
8898.6267460000035
 30
0.0
 40
24.999998999999999
 50
271.87799100002047
 51
91.877991000020657
  0
TEXT
  5
3B83
  8
0-0
  6
CONTINUOUS
 62
     7
 10
17222.747439499992
 20
6803.6260200000024
 30
0.0
 40
160.0
  1
G.L
 72
     4
 11
17382.747439499992
 21
6883.6260200000042
 31
0.0
  0
TEXT
  5
3B84
  8
0-0
  6
CONTINUOUS
 62
     7
 10
15598.366937499981
 20
6903.6258549999966
 30
0.0
 40
160.0
  1
布基礎天端
 72
     4
 11
16057.033604166651
 21
6983.6258549999984
 31
0.0
  0
TEXT
  5
3B85
  8
2-0
  6
CONTINUOUS
 62
     7
 10
9898.7830575000098
 20
3638.6597025833762
 30
0.0
 40
160.0
  1
側 面 立 面 図
 72
     4
 11
10544.11639083334
 21
3718.6597025833762
 31
0.0
  0
TEXT
  5
3B86
  8
2-0
  6
CONTINUOUS
 62
     7
 10
11895.60857597094
 20
3665.855071583379
 30
0.0
 40
160.0
  1
1
 72
     4
 11
11922.27524263761
 21
3745.855071583379
 31
0.0
  0
TEXT
  5
3B87
  8
2-0
  6
CONTINUOUS
 62
     7
 10
12138.69729322165
 20
3585.8565395833748
 30
0.0
 40
160.0
  1
80
 72
     4
 11
12258.69729322165
 21
3665.8565395833748
 31
0.0
  0
TEXT
  5
3B88
  8
2-0
  6
CONTINUOUS
 62
     7
 10
11396.61054197096
 20
3638.6597025833762
 30
0.0
 40
160.0
  1
(S=  /   )
 72
     4
 11
11956.61054197096
 21
3718.6597025833762
 31
0.0
  0
LINE
  5
3B89
  8
0-1
  6
CONTINUOUS
 62
     3
 10
9064.3743395000256
 20
6665.7797690000016
 30
0.0
 11
9064.3743395000256
 21
8526.8256480000018
 31
0.0
  0
LINE
  5
3B8A
  8
0-1
  6
CONTINUOUS
 62
     3
 10
9049.3755275000221
 20
6665.7797690000016
 30
0.0
 11
9049.3755275000221
 21
8526.8256480000018
 31
0.0
  0
LINE
  5
3B8B
  8
0-5
  6
CONTINUOUS
 62
     4
 10
14297.373878500001
 20
4835.7801650000047
 30
0.0
 11
14297.373878500001
 21
4675.7806270000037
 31
0.0
  0
LINE
  5
3B8C
  8
0-5
  6
CONTINUOUS
 62
     4
 10
11379.373878500001
 20
4835.7801650000047
 30
0.0
 11
11379.373878500001
 21
4675.7806270000037
 31
0.0
  0
LINE
  5
3B8D
  8
0-5
  6
CONTINUOUS
 62
     4
 10
8811.8738785000005
 20
4835.7801650000047
 30
0.0
 11
8811.8738785000005
 21
4675.7806270000037
 31
0.0
  0
CIRCLE
  5
3B8E
  8
0-5
  6
CONTINUOUS
 62
     4
 10
11379.373878500001
 20
4475.7794720000047
 30
0.0
 40
199.9999949999999
  0
CIRCLE
  5
3B8F
  8
0-5
  6
CONTINUOUS
 62
     4
 10
14297.373878500001
 20
4475.7794720000047
 30
0.0
 40
199.9999949999999
  0
CIRCLE
  5
3B90
  8
0-5
  6
CONTINUOUS
 62
     4
 10
8811.8738785000005
 20
4475.7794720000047
 30
0.0
 40
199.9999949999999
  0
TEXT
  5
3B91
  8
0-5
  6
CONTINUOUS
 62
     7
 10
14250.417718499981
 20
4392.5686760000062
 30
0.0
 40
160.0
  1
A
 72
     4
 11
14303.75105183332
 21
4472.5686760000071
 31
0.0
  0
TEXT
  5
3B92
  8
0-5
  6
CONTINUOUS
 62
     7
 10
11332.417718499981
 20
4392.5686760000062
 30
0.0
 40
160.0
  1
B
 72
     4
 11
11385.75105183332
 21
4472.5686760000071
 31
0.0
  0
TEXT
  5
3B93
  8
0-5
  6
CONTINUOUS
 62
     7
 10
8764.9177185000062
 20
4392.5686760000062
 30
0.0
 40
160.0
  1
C
 72
     4
 11
8818.2510518333402
 21
4472.5686760000071
 31
0.0
  0
LINE
  5
3B9E
  8
0-1
  6
CONTINUOUS
 62
     3
 10
26031.619139499991
 20
6615.7796039999957
 30
0.0
 11
25931.6197985
 21
6615.7796039999957
 31
0.0
  0
LINE
  5
3B9F
  8
0-1
  6
CONTINUOUS
 62
     3
 10
25931.6197985
 20
6615.7796039999957
 30
0.0
 11
25931.6197985
 21
6515.7797690000016
 31
0.0
  0
LINE
  5
3BA0
  8
0-1
  6
CONTINUOUS
 62
     3
 10
26031.619139499991
 20
6515.7797690000016
 30
0.0
 11
26031.619139499991
 21
6615.7796039999957
 31
0.0
  0
LINE
  5
3BA1
  8
0-1
  6
CONTINUOUS
 62
     3
 10
26004.119666499992
 20
8964.2799530000029
 30
0.0
 11
26004.119666499992
 21
6615.7796039999957
 31
0.0
  0
LINE
  5
3BA2
  8
0-1
  6
CONTINUOUS
 62
     3
 10
26024.118743499988
 20
8834.2790299999979
 30
0.0
 11
26024.118743499988
 21
6615.7796039999957
 31
0.0
  0
LINE
  5
3BA3
  8
0-1
  6
CONTINUOUS
 62
     3
 10
25894.119798499989
 20
8523.7796629999975
 30
0.0
 11
25894.119798499989
 21
6515.7797690000016
 31
0.0
  0
LINE
  5
3BA4
  8
0-1
  6
CONTINUOUS
 62
     3
 10
25939.120194499981
 20
8834.2790299999979
 30
0.0
 11
25939.120194499981
 21
6615.7796039999957
 31
0.0
  0
LINE
  5
3BAD
  8
0-1
  6
CONTINUOUS
 62
     3
 10
22755.616763500009
 20
8834.2790299999979
 30
0.0
 11
22755.616763500009
 21
6515.7797690000016
 31
0.0
  0
LINE
  5
3BAE
  8
0-1
  6
CONTINUOUS
 62
     3
 10
22800.61715950002
 20
8523.7796629999975
 30
0.0
 11
22800.61715950002
 21
6515.7797690000016
 31
0.0
  0
LINE
  5
3BB1
  8
0-1
  6
CONTINUOUS
 62
     3
 10
22800.61715950002
 20
8455.2393269999993
 30
0.0
 11
25894.119798499989
 21
8455.2393269999993
 31
0.0
  0
LINE
  5
3BB2
  8
0-1
  6
CONTINUOUS
 62
     3
 10
22800.61715950002
 20
7100.7804619999988
 30
0.0
 11
25894.119798499989
 21
7100.7804619999988
 31
0.0
  0
LINE
  5
3BB3
  8
0-1
  6
CONTINUOUS
 62
     3
 10
22800.61715950002
 20
7165.7794390000035
 30
0.0
 11
25894.119798499989
 21
7165.7794390000035
 31
0.0
  0
LINE
  5
3BB4
  8
0-1
  6
CONTINUOUS
 62
     3
 10
22800.61715950002
 20
7230.7799009999972
 30
0.0
 11
25894.119798499989
 21
7230.7799009999972
 31
0.0
  0
LINE
  5
3BB5
  8
0-1
  6
CONTINUOUS
 62
     3
 10
22800.61715950002
 20
7295.7798679999978
 30
0.0
 11
25894.119798499989
 21
7295.7798679999978
 31
0.0
  0
LINE
  5
3BB6
  8
0-1
  6
CONTINUOUS
 62
     3
 10
22800.61715950002
 20
7360.7798349999975
 30
0.0
 11
25894.119798499989
 21
7360.7798349999975
 31
0.0
  0
LINE
  5
3BB7
  8
0-1
  6
CONTINUOUS
 62
     3
 10
22800.61715950002
 20
7425.7798019999982
 30
0.0
 11
25894.119798499989
 21
7425.7798019999982
 31
0.0
  0
LINE
  5
3BB8
  8
0-1
  6
CONTINUOUS
 62
     3
 10
22800.61715950002
 20
7490.7802640000027
 30
0.0
 11
25894.119798499989
 21
7490.7802640000027
 31
0.0
  0
LINE
  5
3BB9
  8
0-1
  6
CONTINUOUS
 62
     3
 10
22800.61715950002
 20
7555.7792409999929
 30
0.0
 11
25894.119798499989
 21
7555.7792409999929
 31
0.0
  0
LINE
  5
3BBA
  8
0-1
  6
CONTINUOUS
 62
     3
 10
22800.61715950002
 20
7620.7797029999929
 30
0.0
 11
25894.119798499989
 21
7620.7797029999929
 31
0.0
  0
LINE
  5
3BBB
  8
0-1
  6
CONTINUOUS
 62
     3
 10
22800.61715950002
 20
7685.7796699999981
 30
0.0
 11
25894.119798499989
 21
7685.7796699999981
 31
0.0
  0
LINE
  5
3BBC
  8
0-1
  6
CONTINUOUS
 62
     3
 10
22800.61715950002
 20
7750.7801319999971
 30
0.0
 11
25894.119798499989
 21
7750.7801319999971
 31
0.0
  0
LINE
  5
3BBD
  8
0-1
  6
CONTINUOUS
 62
     3
 10
22800.61715950002
 20
7815.7791089999973
 30
0.0
 11
25894.119798499989
 21
7815.7791089999973
 31
0.0
  0
LINE
  5
3BBE
  8
0-1
  6
CONTINUOUS
 62
     3
 10
22800.61715950002
 20
7880.7795709999973
 30
0.0
 11
25894.119798499989
 21
7880.7795709999973
 31
0.0
  0
LINE
  5
3BBF
  8
0-1
  6
CONTINUOUS
 62
     3
 10
22800.61715950002
 20
7945.7795379999998
 30
0.0
 11
25894.119798499989
 21
7945.7795379999998
 31
0.0
  0
LINE
  5
3BC0
  8
0-1
  6
CONTINUOUS
 62
     3
 10
22800.61715950002
 20
8010.7795050000004
 30
0.0
 11
25894.119798499989
 21
8010.7795050000004
 31
0.0
  0
LINE
  5
3BC1
  8
0-1
  6
CONTINUOUS
 62
     3
 10
22800.61715950002
 20
8075.7799670000022
 30
0.0
 11
25894.119798499989
 21
8075.7799670000022
 31
0.0
  0
LINE
  5
3BC2
  8
0-1
  6
CONTINUOUS
 62
     3
 10
22800.61715950002
 20
8140.7799339999992
 30
0.0
 11
25894.119798499989
 21
8140.7799339999992
 31
0.0
  0
LINE
  5
3BC3
  8
0-1
  6
CONTINUOUS
 62
     3
 10
22800.61715950002
 20
8205.7803959999983
 30
0.0
 11
25894.119798499989
 21
8205.7803959999983
 31
0.0
  0
LINE
  5
3BC4
  8
0-1
  6
CONTINUOUS
 62
     3
 10
22800.61715950002
 20
8270.7793729999976
 30
0.0
 11
25894.119798499989
 21
8270.7793729999976
 31
0.0
  0
LINE
  5
3BC5
  8
0-1
  6
CONTINUOUS
 62
     3
 10
22800.61715950002
 20
8335.779835000003
 30
0.0
 11
25894.119798499989
 21
8335.779835000003
 31
0.0
  0
LINE
  5
3BC6
  8
0-1
  6
CONTINUOUS
 62
     3
 10
22800.61715950002
 20
8400.7798019999973
 30
0.0
 11
25894.119798499989
 21
8400.7798019999973
 31
0.0
  0
LINE
  5
3BC7
  8
0-1
  6
CONTINUOUS
 62
     3
 10
22800.61715950002
 20
6580.7792409999956
 30
0.0
 11
25894.119798499989
 21
6580.7792409999956
 31
0.0
  0
LINE
  5
3BC8
  8
0-1
  6
CONTINUOUS
 62
     3
 10
22800.61715950002
 20
6645.7801979999967
 30
0.0
 11
25894.119798499989
 21
6645.7801979999967
 31
0.0
  0
LINE
  5
3BC9
  8
0-1
  6
CONTINUOUS
 62
     3
 10
22800.61715950002
 20
6710.7791749999997
 30
0.0
 11
25894.119798499989
 21
6710.7791749999997
 31
0.0
  0
LINE
  5
3BCA
  8
0-1
  6
CONTINUOUS
 62
     3
 10
22800.61715950002
 20
6775.7801319999971
 30
0.0
 11
25894.119798499989
 21
6775.7801319999971
 31
0.0
  0
LINE
  5
3BCB
  8
0-1
  6
CONTINUOUS
 62
     3
 10
22800.61715950002
 20
6840.7796040000012
 30
0.0
 11
25894.119798499989
 21
6840.7796040000012
 31
0.0
  0
LINE
  5
3BCC
  8
0-1
  6
CONTINUOUS
 62
     3
 10
22800.61715950002
 20
6905.779571
 30
0.0
 11
25894.119798499989
 21
6905.779571
 31
0.0
  0
LINE
  5
3BCD
  8
0-1
  6
CONTINUOUS
 62
     3
 10
22800.61715950002
 20
6970.7795379999989
 30
0.0
 11
25894.119798499989
 21
6970.7795379999989
 31
0.0
  0
LINE
  5
3BCE
  8
0-1
  6
CONTINUOUS
 62
     3
 10
22800.61715950002
 20
7035.7790099999966
 30
0.0
 11
25894.119798499989
 21
7035.7790099999966
 31
0.0
  0
LINE
  5
3BD0
  8
0-1
  6
CONTINUOUS
 62
     3
 10
22755.616763500009
 20
8523.7796629999975
 30
0.0
 11
25939.120194499981
 21
8523.7796629999975
 31
0.0
  0
LINE
  5
3BD1
  8
0-1
  6
CONTINUOUS
 62
     3
 10
19394.617820499989
 20
6515.7797690000016
 30
0.0
 11
26031.619139499991
 21
6515.7797690000016
 31
0.0
  0
LINE
  5
3BDB
  8
0-1
  6
CONTINUOUS
 62
     3
 10
22670.618215499991
 20
8834.2790299999979
 30
0.0
 11
22670.618215499991
 21
6515.7797690000016
 31
0.0
  0
LINE
  5
3BDC
  8
0-1
  6
CONTINUOUS
 62
     3
 10
22625.61979949996
 20
8523.7796629999975
 30
0.0
 11
22625.61979949996
 21
6515.7797690000016
 31
0.0
  0
LINE
  5
3BE7
  8
0-1
  6
CONTINUOUS
 62
     3
 10
19494.619139499991
 20
6615.7796039999957
 30
0.0
 11
19494.619139499991
 21
6515.7797690000016
 31
0.0
  0
LINE
  5
3BE8
  8
0-1
  6
CONTINUOUS
 62
     3
 10
19394.617820499989
 20
6515.7797690000016
 30
0.0
 11
19394.617820499989
 21
6615.7796039999957
 31
0.0
  0
LINE
  5
3BE9
  8
0-1
  6
CONTINUOUS
 62
     3
 10
19394.617820499989
 20
6615.7796039999957
 30
0.0
 11
19494.619139499991
 21
6615.7796039999957
 31
0.0
  0
LINE
  5
3BEA
  8
0-1
  6
CONTINUOUS
 62
     3
 10
19532.119139499991
 20
8523.7796629999975
 30
0.0
 11
19532.119139499991
 21
6515.7797690000016
 31
0.0
  0
LINE
  5
3BEB
  8
0-1
  6
CONTINUOUS
 62
     3
 10
19487.116764499991
 20
8834.2790299999979
 30
0.0
 11
19487.116764499991
 21
6615.7796039999957
 31
0.0
  0
LINE
  5
3BEC
  8
0-1
  6
CONTINUOUS
 62
     3
 10
19422.119271499982
 20
8964.2799530000029
 30
0.0
 11
19422.119271499982
 21
6615.7796039999957
 31
0.0
  0
LINE
  5
3BED
  8
0-1
  6
CONTINUOUS
 62
     3
 10
19402.116236499991
 20
8834.2790299999979
 30
0.0
 11
19402.116236499991
 21
6615.7796039999957
 31
0.0
  0
LINE
  5
3BEE
  8
0-1
  6
CONTINUOUS
 62
     3
 10
19487.116764499991
 20
8523.7796629999975
 30
0.0
 11
22670.618215499991
 21
8523.7796629999975
 31
0.0
  0
LINE
  5
3BF0
  8
0-1
  6
CONTINUOUS
 62
     3
 10
19532.119139499991
 20
7035.7790099999966
 30
0.0
 11
22625.61979949996
 21
7035.7790099999966
 31
0.0
  0
LINE
  5
3BF1
  8
0-1
  6
CONTINUOUS
 62
     3
 10
19532.119139499991
 20
6970.7795379999989
 30
0.0
 11
22625.61979949996
 21
6970.7795379999989
 31
0.0
  0
LINE
  5
3BF2
  8
0-1
  6
CONTINUOUS
 62
     3
 10
19532.119139499991
 20
6905.779571
 30
0.0
 11
22625.61979949996
 21
6905.779571
 31
0.0
  0
LINE
  5
3BF3
  8
0-1
  6
CONTINUOUS
 62
     3
 10
19532.119139499991
 20
6840.7796040000012
 30
0.0
 11
22625.61979949996
 21
6840.7796040000012
 31
0.0
  0
LINE
  5
3BF4
  8
0-1
  6
CONTINUOUS
 62
     3
 10
19532.119139499991
 20
6775.7801319999971
 30
0.0
 11
22625.61979949996
 21
6775.7801319999971
 31
0.0
  0
LINE
  5
3BF5
  8
0-1
  6
CONTINUOUS
 62
     3
 10
19532.119139499991
 20
6710.7791749999997
 30
0.0
 11
22625.61979949996
 21
6710.7791749999997
 31
0.0
  0
LINE
  5
3BF6
  8
0-1
  6
CONTINUOUS
 62
     3
 10
19532.119139499991
 20
6645.7801979999967
 30
0.0
 11
22625.61979949996
 21
6645.7801979999967
 31
0.0
  0
LINE
  5
3BF7
  8
0-1
  6
CONTINUOUS
 62
     3
 10
19532.119139499991
 20
6580.7792409999956
 30
0.0
 11
22625.61979949996
 21
6580.7792409999956
 31
0.0
  0
LINE
  5
3BF8
  8
0-1
  6
CONTINUOUS
 62
     3
 10
19532.119139499991
 20
8400.7798019999973
 30
0.0
 11
22625.61979949996
 21
8400.7798019999973
 31
0.0
  0
LINE
  5
3BF9
  8
0-1
  6
CONTINUOUS
 62
     3
 10
19532.119139499991
 20
8335.779835000003
 30
0.0
 11
22625.61979949996
 21
8335.779835000003
 31
0.0
  0
LINE
  5
3BFA
  8
0-1
  6
CONTINUOUS
 62
     3
 10
19532.119139499991
 20
8270.7793729999976
 30
0.0
 11
22625.61979949996
 21
8270.7793729999976
 31
0.0
  0
LINE
  5
3BFB
  8
0-1
  6
CONTINUOUS
 62
     3
 10
19532.119139499991
 20
8205.7803959999983
 30
0.0
 11
22625.61979949996
 21
8205.7803959999983
 31
0.0
  0
LINE
  5
3BFC
  8
0-1
  6
CONTINUOUS
 62
     3
 10
19532.119139499991
 20
8140.7799339999992
 30
0.0
 11
22625.61979949996
 21
8140.7799339999992
 31
0.0
  0
LINE
  5
3BFD
  8
0-1
  6
CONTINUOUS
 62
     3
 10
19532.119139499991
 20
8075.7799670000022
 30
0.0
 11
22625.61979949996
 21
8075.7799670000022
 31
0.0
  0
LINE
  5
3BFE
  8
0-1
  6
CONTINUOUS
 62
     3
 10
19532.119139499991
 20
8010.7795050000004
 30
0.0
 11
22625.61979949996
 21
8010.7795050000004
 31
0.0
  0
LINE
  5
3BFF
  8
0-1
  6
CONTINUOUS
 62
     3
 10
19532.119139499991
 20
7945.7795379999998
 30
0.0
 11
22625.61979949996
 21
7945.7795379999998
 31
0.0
  0
LINE
  5
3C00
  8
0-1
  6
CONTINUOUS
 62
     3
 10
19532.119139499991
 20
7880.7795709999973
 30
0.0
 11
22625.61979949996
 21
7880.7795709999973
 31
0.0
  0
LINE
  5
3C01
  8
0-1
  6
CONTINUOUS
 62
     3
 10
19532.119139499991
 20
7815.7791089999973
 30
0.0
 11
22625.61979949996
 21
7815.7791089999973
 31
0.0
  0
LINE
  5
3C02
  8
0-1
  6
CONTINUOUS
 62
     3
 10
19532.119139499991
 20
7750.7801319999971
 30
0.0
 11
22625.61979949996
 21
7750.7801319999971
 31
0.0
  0
LINE
  5
3C03
  8
0-1
  6
CONTINUOUS
 62
     3
 10
19532.119139499991
 20
7685.7796699999981
 30
0.0
 11
22625.61979949996
 21
7685.7796699999981
 31
0.0
  0
LINE
  5
3C04
  8
0-1
  6
CONTINUOUS
 62
     3
 10
19532.119139499991
 20
7620.7797029999929
 30
0.0
 11
22625.61979949996
 21
7620.7797029999929
 31
0.0
  0
LINE
  5
3C05
  8
0-1
  6
CONTINUOUS
 62
     3
 10
19532.119139499991
 20
7555.7792409999929
 30
0.0
 11
22625.61979949996
 21
7555.7792409999929
 31
0.0
  0
LINE
  5
3C06
  8
0-1
  6
CONTINUOUS
 62
     3
 10
19532.119139499991
 20
7490.7802640000027
 30
0.0
 11
22625.61979949996
 21
7490.7802640000027
 31
0.0
  0
LINE
  5
3C07
  8
0-1
  6
CONTINUOUS
 62
     3
 10
19532.119139499991
 20
7425.7798019999982
 30
0.0
 11
22625.61979949996
 21
7425.7798019999982
 31
0.0
  0
LINE
  5
3C08
  8
0-1
  6
CONTINUOUS
 62
     3
 10
19532.119139499991
 20
7360.7798349999975
 30
0.0
 11
22625.61979949996
 21
7360.7798349999975
 31
0.0
  0
LINE
  5
3C09
  8
0-1
  6
CONTINUOUS
 62
     3
 10
19532.119139499991
 20
7295.7798679999978
 30
0.0
 11
22625.61979949996
 21
7295.7798679999978
 31
0.0
  0
LINE
  5
3C0A
  8
0-1
  6
CONTINUOUS
 62
     3
 10
19532.119139499991
 20
7230.7799009999972
 30
0.0
 11
22625.61979949996
 21
7230.7799009999972
 31
0.0
  0
LINE
  5
3C0B
  8
0-1
  6
CONTINUOUS
 62
     3
 10
19532.119139499991
 20
7165.7794390000035
 30
0.0
 11
22625.61979949996
 21
7165.7794390000035
 31
0.0
  0
LINE
  5
3C0C
  8
0-1
  6
CONTINUOUS
 62
     3
 10
19532.119139499991
 20
7100.7804619999988
 30
0.0
 11
22625.61979949996
 21
7100.7804619999988
 31
0.0
  0
LINE
  5
3C0D
  8
0-1
  6
CONTINUOUS
 62
     3
 10
19532.119139499991
 20
8455.2393269999993
 30
0.0
 11
22625.61979949996
 21
8455.2393269999993
 31
0.0
  0
LINE
  5
3C13
  8
0-2
  6
CONTINUOUS
 62
     4
 10
24711.060479500011
 20
7263.0054729999974
 30
0.0
 11
24611.061139500001
 21
7263.0054729999974
 31
0.0
  0
LINE
  5
3C14
  8
0-2
  6
CONTINUOUS
 62
     4
 10
23983.674499500001
 20
7263.0054729999974
 30
0.0
 11
24083.673840499989
 21
7263.0054729999974
 31
0.0
  0
LINE
  5
3C15
  8
0-2
  6
CONTINUOUS
 62
     4
 10
21442.55949
 20
7263.0054729999974
 30
0.0
 11
21342.560150000001
 21
7263.0054729999974
 31
0.0
  0
LINE
  5
3C16
  8
0-2
  6
CONTINUOUS
 62
     4
 10
20715.175489000001
 20
7263.0054729999974
 30
0.0
 11
20815.172849999992
 21
7263.0054729999974
 31
0.0
  0
LINE
  5
3C17
  8
0-5
  6
CONTINUOUS
 62
     4
 10
22713.118479499979
 20
4835.7796699999972
 30
0.0
 11
22713.118479499979
 21
4675.7796369999969
 31
0.0
  0
LINE
  5
3C18
  8
0-5
  6
CONTINUOUS
 62
     4
 10
19444.61847949999
 20
4835.7796699999972
 30
0.0
 11
19444.61847949999
 21
4675.7796369999969
 31
0.0
  0
LINE
  5
3C19
  8
2-0
  6
CENTER2
 62
     6
 10
25981.61847949999
 20
6253.1273459999966
 30
0.0
 11
25981.61847949999
 21
7290.2693829999998
 31
0.0
  0
LINE
  5
3C1A
  8
2-0
  6
CENTER2
 62
     6
 10
22713.118479499979
 20
6253.1273459999966
 30
0.0
 11
22713.118479499979
 21
7290.2693829999998
 31
0.0
  0
LINE
  5
3C1B
  8
2-0
  6
CENTER2
 62
     6
 10
19444.61847949999
 20
6253.1273459999966
 30
0.0
 11
19444.61847949999
 21
7290.2693829999998
 31
0.0
  0
CIRCLE
  5
3C2C
  8
0-5
  6
CONTINUOUS
 62
     4
 10
22713.118479499979
 20
4475.7799669999986
 30
0.0
 40
199.9999949999999
  0
CIRCLE
  5
3C2D
  8
0-5
  6
CONTINUOUS
 62
     4
 10
19444.61847949999
 20
4475.7799669999986
 30
0.0
 40
199.9999949999999
  0
TEXT
  5
3C2E
  8
0-5
  6
CONTINUOUS
 62
     7
 10
18826.4425405
 20
7245.1400157419948
 30
0.0
 40
160.0
  1
(2131.5)
 50
90.0
 72
     4
 11
18746.4425405
 21
7698.4733490753279
 31
0.0
  0
TEXT
  5
3C2F
  8
0-5
  6
CONTINUOUS
 62
     7
 10
22666.190032499992
 20
4389.2500129999971
 30
0.0
 40
160.0
  1
2
 72
     4
 11
22719.52336583332
 21
4469.2500129999971
 31
0.0
  0
TEXT
  5
3C30
  8
0-5
  6
CONTINUOUS
 62
     7
 10
19397.68607349999
 20
4389.2500129999971
 30
0.0
 40
160.0
  1
1
 72
     4
 11
19424.352740166662
 21
4469.2500129999971
 31
0.0
  0
CIRCLE
  5
3C31
  8
0-4
  6
CONTINUOUS
 62
     4
 10
21078.86847949999
 20
7001.8357099999976
 30
0.0
 40
18.487504999999981
  0
CIRCLE
  5
3C32
  8
0-4
  6
CONTINUOUS
 62
     4
 10
24347.368479500001
 20
7001.8357099999976
 30
0.0
 40
18.487504999999981
  0
LINE
  5
3C33
  8
SUNPOU
  6
CONTINUOUS
 10
19162.118479499979
 20
5315.7797690000016
 30
0.0
 11
18804.163472778881
 21
5315.7797690000016
 31
0.0
  0
LINE
  5
3C34
  8
SUNPOU
  6
CONTINUOUS
 10
26264.122438499991
 20
5315.7797690000016
 30
0.0
 11
26622.077445221112
 21
5315.7797690000016
 31
0.0
  0
LINE
  5
3C35
  8
0-5
  6
CONTINUOUS
 62
     4
 10
26024.118479500001
 20
4835.7796699999972
 30
0.0
 11
26024.118479500001
 21
4675.7796369999969
 31
0.0
  0
CIRCLE
  5
3C36
  8
0-5
  6
CONTINUOUS
 62
     4
 10
26024.118479500001
 20
4475.7799669999986
 30
0.0
 40
199.9999949999999
  0
TEXT
  5
3C37
  8
0-5
  6
CONTINUOUS
 62
     7
 10
25977.190032499999
 20
4389.2500129999971
 30
0.0
 40
160.0
  1
3
 72
     4
 11
26030.523365833331
 21
4469.2500129999971
 31
0.0
  0
TEXT
  5
3C38
  8
2-0
  6
CONTINUOUS
 62
     7
 10
21395.084735499979
 20
3638.6581370000022
 30
0.0
 40
160.0
  1
正 面 立 面 図
 50
0.000139
 72
     4
 11
22040.417874750801
 21
3718.6597025833762
 31
0.0
  0
TEXT
  5
3C39
  8
2-0
  6
CONTINUOUS
 62
     7
 10
23391.91005988844
 20
3665.855071583379
 30
0.0
 40
160.0
  1
1
 72
     4
 11
23418.576726555111
 21
3745.855071583379
 31
0.0
  0
TEXT
  5
3C3A
  8
2-0
  6
CONTINUOUS
 62
     7
 10
23634.998777139121
 20
3585.8565395833748
 30
0.0
 40
160.0
  1
80
 72
     4
 11
23754.998777139121
 21
3665.8565395833748
 31
0.0
  0
TEXT
  5
3C3B
  8
2-0
  6
CONTINUOUS
 62
     7
 10
22892.912025888429
 20
3638.6597025833762
 30
0.0
 40
160.0
  1
(S=  /   )
 72
     4
 11
23452.912025888429
 21
3718.6597025833762
 31
0.0
  0
LINE
  5
3C3C
  8
0-5
  6
CONTINUOUS
 62
     4
 10
17222.749419499982
 20
6723.625261000001
 30
0.0
 11
17342.745856499991
 21
6515.7797690000016
 31
0.0
  0
LINE
  5
3C3D
  8
0-5
  6
CONTINUOUS
 62
     4
 10
17342.745856499991
 20
6515.7797690000016
 30
0.0
 11
17462.746252499979
 21
6723.625261000001
 31
0.0
  0
LINE
  5
3C3E
  8
0-5
  6
CONTINUOUS
 62
     4
 10
17462.746252499979
 20
6723.625261000001
 30
0.0
 11
17222.749419499982
 21
6723.625261000001
 31
0.0
  0
TEXT
  5
3C3F
  8
0-5
  6
CONTINUOUS
 62
     7
 10
17222.749419499982
 20
6803.6260190000021
 30
0.0
 40
160.0
  1
G.L
 72
     4
 11
17382.749419499982
 21
6883.6260190000021
 31
0.0
  0
LINE
  5
3C40
  8
SUNPOU
  6
CONTINUOUS
 10
8589.3738785000023
 20
9763.7812800000029
 30
0.0
 11
8053.2482369121444
 21
9763.7812800000029
 31
0.0
  0
TEXT
  5
3C41
  8
2-0
  6
CONTINUOUS
 62
     7
 10
21632.192382500001
 20
12154.23951899999
 30
0.0
 40
160.0
  1
平　面　図
 50
359.99978700000008
 72
     4
 11
22085.525993407369
 21
12228.90450037622
 31
0.0
  0
TEXT
  5
3C42
  8
2-0
  6
CONTINUOUS
 62
     7
 10
23437.018178544989
 20
12176.09986937623
 30
0.0
 40
160.0
  1
1
 72
     4
 11
23463.684845211661
 21
12256.09986937623
 31
0.0
  0
TEXT
  5
3C43
  8
2-0
  6
CONTINUOUS
 62
     7
 10
23680.106895795681
 20
12096.101337376231
 30
0.0
 40
160.0
  1
80
 72
     4
 11
23800.106895795681
 21
12176.101337376231
 31
0.0
  0
TEXT
  5
3C44
  8
2-0
  6
CONTINUOUS
 62
     7
 10
22938.020144544978
 20
12148.90450037622
 30
0.0
 40
160.0
  1
(S=  /   )
 72
     4
 11
23498.020144544978
 21
12228.90450037622
 31
0.0
  0
LINE
  5
3C45
  8
2-0
  6
CONTINUOUS
 62
     6
 10
24298.45956349999
 20
13766.229791999989
 30
0.0
 11
25298.452965499961
 21
13766.229791999989
 31
0.0
  0
LINE
  5
3C46
  8
2-0
  6
CONTINUOUS
 62
     6
 10
25766.393342499981
 20
14236.650506
 30
0.0
 11
25298.452965499961
 21
13766.229791999989
 31
0.0
  0
LINE
  5
3C47
  8
2-0
  6
CONTINUOUS
 62
     6
 10
25727.753139499979
 20
17428.25815300001
 30
0.0
 11
25423.05772149999
 21
17531.911684000021
 31
0.0
  0
LINE
  5
3C48
  8
2-0
  6
CONTINUOUS
 62
     6
 10
25882.775178499949
 20
16938.636109000021
 30
0.0
 11
25423.05772149999
 21
16694.722797999999
 31
0.0
  0
LINE
  5
3C49
  8
2-0
  6
CONTINUOUS
 62
     6
 10
24503.054686499981
 20
16694.722797999999
 30
0.0
 11
25423.05772149999
 21
16694.722797999999
 31
0.0
  0
LINE
  5
3C4A
  8
2-0
  6
CONTINUOUS
 62
     6
 10
24223.063659499989
 20
17531.911684000021
 30
0.0
 11
25423.05772149999
 21
17531.911684000021
 31
0.0
  0
LINE
  5
3C4B
  8
2-0
  6
CONTINUOUS
 62
     6
 10
25798.952463499991
 20
14558.334151999979
 30
0.0
 11
25423.05772149999
 21
14739.277986999999
 31
0.0
  0
LINE
  5
3C4C
  8
2-0
  6
CONTINUOUS
 62
     6
 10
24903.056005499991
 20
14739.277986999999
 30
0.0
 11
25423.05772149999
 21
14739.277986999999
 31
0.0
  0
LINE
  5
3C4D
  8
2-0
  6
CONTINUOUS
 62
     4
 10
22713.118479499979
 20
20014.231442000018
 30
0.0
 11
22713.118479499979
 21
20744.228406999999
 31
0.0
  0
LINE
  5
3C4E
  8
2-0
  6
CONTINUOUS
 62
     3
 10
25994.119139499991
 20
19825.228987999999
 30
0.0
 11
25994.119139499991
 21
19819.23302600002
 31
0.0
  0
LINE
  5
3C4F
  8
2-0
  6
CONTINUOUS
 62
     3
 10
25994.119139499991
 20
19819.23302600002
 30
0.0
 11
26024.116763499991
 21
19819.23302600002
 31
0.0
  0
LINE
  5
3C50
  8
2-0
  6
CONTINUOUS
 62
     3
 10
26024.116763499991
 20
19849.23263000001
 30
0.0
 11
25943.114863499992
 21
19849.23263000001
 31
0.0
  0
LINE
  5
3C51
  8
2-0
  6
CONTINUOUS
 62
     3
 10
25994.119139499991
 20
19808.935570000001
 30
0.0
 11
26024.116763499991
 21
19808.935570000001
 31
0.0
  0
LINE
  5
3C52
  8
2-0
  6
CONTINUOUS
 62
     3
 10
25994.119139499991
 20
19826.93731200002
 30
0.0
 11
25994.119139499991
 21
19808.935570000001
 31
0.0
  0
LINE
  5
3C53
  8
2-0
  6
CONTINUOUS
 62
     3
 10
26019.116499499989
 20
19826.93731200002
 30
0.0
 11
25994.119139499991
 21
19826.93731200002
 31
0.0
  0
LINE
  5
3C54
  8
2-0
  6
CONTINUOUS
 62
     3
 10
26019.116499499989
 20
19821.929130000019
 30
0.0
 11
26019.116499499989
 21
19826.93731200002
 31
0.0
  0
LINE
  5
3C55
  8
2-0
  6
CONTINUOUS
 62
     3
 10
26012.1149425
 20
19821.929130000019
 30
0.0
 11
26019.116499499989
 21
19821.929130000019
 31
0.0
  0
LINE
  5
3C56
  8
2-0
  6
CONTINUOUS
 62
     3
 10
25911.818674499991
 20
19922.229357000011
 30
0.0
 11
25911.818674499991
 21
19929.234873000001
 31
0.0
  0
LINE
  5
3C57
  8
2-0
  6
CONTINUOUS
 62
     3
 10
25911.818674499991
 20
19929.234873000001
 30
0.0
 11
25916.81893849996
 21
19929.234873000001
 31
0.0
  0
LINE
  5
3C58
  8
2-0
  6
CONTINUOUS
 62
     3
 10
25916.81893849996
 20
19929.234873000001
 30
0.0
 11
25916.81893849996
 21
19904.22563600001
 31
0.0
  0
LINE
  5
3C59
  8
2-0
  6
CONTINUOUS
 62
     3
 10
25916.81893849996
 20
19904.22563600001
 30
0.0
 11
25898.817196499971
 21
19904.22563600001
 31
0.0
  0
LINE
  5
3C5A
  8
2-0
  6
CONTINUOUS
 62
     3
 10
25898.817196499971
 20
19904.22563600001
 30
0.0
 11
25898.817196499971
 21
19934.229199000009
 31
0.0
  0
LINE
  5
3C5B
  8
2-0
  6
CONTINUOUS
 62
     3
 10
25909.1146525
 20
19934.229199000009
 30
0.0
 11
26024.116763499991
 21
19934.229199000009
 31
0.0
  0
LINE
  5
3C5C
  8
2-0
  6
CONTINUOUS
 62
     3
 10
25909.1146525
 20
19904.22563600001
 30
0.0
 11
25909.1146525
 21
19934.229199000009
 31
0.0
  0
LINE
  5
3C5D
  8
2-0
  6
CONTINUOUS
 62
     3
 10
25915.116552499981
 20
19904.22563600001
 30
0.0
 11
25909.1146525
 21
19904.22563600001
 31
0.0
  0
LINE
  5
3C5E
  8
2-0
  6
CONTINUOUS
 62
     3
 10
26012.1149425
 20
19468.632307499978
 30
0.0
 11
26019.116499499989
 21
19468.632307499978
 31
0.0
  0
LINE
  5
3C5F
  8
2-0
  6
CONTINUOUS
 62
     3
 10
26019.116499499989
 20
19468.632307499978
 30
0.0
 11
26019.116499499989
 21
19473.632571499991
 31
0.0
  0
LINE
  5
3C60
  8
2-0
  6
CONTINUOUS
 62
     3
 10
26019.116499499989
 20
19473.632571499991
 30
0.0
 11
25994.119139499991
 21
19473.632571499991
 31
0.0
  0
LINE
  5
3C61
  8
2-0
  6
CONTINUOUS
 62
     3
 10
25994.119139499991
 20
19473.632571499991
 30
0.0
 11
25994.119139499991
 21
19455.6367675
 31
0.0
  0
LINE
  5
3C62
  8
2-0
  6
CONTINUOUS
 62
     3
 10
25994.119139499991
 20
19455.6367675
 30
0.0
 11
26024.116763499991
 21
19455.6367675
 31
0.0
  0
LINE
  5
3C63
  8
2-0
  6
CONTINUOUS
 62
     3
 10
25994.119139499991
 20
19471.728274499968
 30
0.0
 11
25994.119139499991
 21
19465.730333499989
 31
0.0
  0
LINE
  5
3C64
  8
2-0
  6
CONTINUOUS
 62
     3
 10
25994.119139499991
 20
19465.730333499989
 30
0.0
 11
26024.116763499991
 21
19465.730333499989
 31
0.0
  0
LINE
  5
3C65
  8
2-0
  6
CONTINUOUS
 62
     3
 10
26024.116763499991
 20
19465.730333499989
 30
0.0
 11
26024.116763499991
 21
19502.7314945
 31
0.0
  0
LINE
  5
3C66
  8
2-0
  6
CONTINUOUS
 62
     3
 10
25994.119139499991
 20
19502.7314945
 30
0.0
 11
26024.116763499991
 21
19502.7314945
 31
0.0
  0
LINE
  5
3C67
  8
2-0
  6
CONTINUOUS
 62
     3
 10
25994.119139499991
 20
19496.727614499981
 30
0.0
 11
25994.119139499991
 21
19502.7314945
 31
0.0
  0
LINE
  5
3C68
  8
2-0
  6
CONTINUOUS
 62
     3
 10
25994.119139499991
 20
19512.827039499982
 30
0.0
 11
26024.116763499991
 21
19512.827039499982
 31
0.0
  0
LINE
  5
3C69
  8
2-0
  6
CONTINUOUS
 62
     3
 10
25994.119139499991
 20
19494.8252975
 30
0.0
 11
25994.119139499991
 21
19512.827039499982
 31
0.0
  0
LINE
  5
3C6A
  8
2-0
  6
CONTINUOUS
 62
     3
 10
26019.116499499989
 20
19494.8252975
 30
0.0
 11
25994.119139499991
 21
19494.8252975
 31
0.0
  0
LINE
  5
3C6B
  8
2-0
  6
CONTINUOUS
 62
     3
 10
26019.116499499989
 20
19499.825561500002
 30
0.0
 11
26019.116499499989
 21
19494.8252975
 31
0.0
  0
LINE
  5
3C6C
  8
2-0
  6
CONTINUOUS
 62
     3
 10
26012.1149425
 20
19499.825561500002
 30
0.0
 11
26019.116499499989
 21
19499.825561500002
 31
0.0
  0
LINE
  5
3C6D
  8
2-0
  6
CONTINUOUS
 62
     3
 10
26012.1149425
 20
18767.631318
 30
0.0
 11
26019.116499499989
 21
18767.631318
 31
0.0
  0
LINE
  5
3C6E
  8
2-0
  6
CONTINUOUS
 62
     3
 10
26019.116499499989
 20
18767.631318
 30
0.0
 11
26019.116499499989
 21
18772.63752
 31
0.0
  0
LINE
  5
3C6F
  8
2-0
  6
CONTINUOUS
 62
     3
 10
26019.116499499989
 20
18772.63752
 30
0.0
 11
25994.119139499991
 21
18772.63752
 31
0.0
  0
LINE
  5
3C70
  8
2-0
  6
CONTINUOUS
 62
     3
 10
25994.119139499991
 20
18772.63752
 30
0.0
 11
25994.119139499991
 21
18754.635778
 31
0.0
  0
LINE
  5
3C71
  8
2-0
  6
CONTINUOUS
 62
     3
 10
25994.119139499991
 20
18754.635778
 30
0.0
 11
26024.116763499991
 21
18754.635778
 31
0.0
  0
LINE
  5
3C72
  8
2-0
  6
CONTINUOUS
 62
     3
 10
25994.119139499991
 20
18770.72728499999
 30
0.0
 11
25994.119139499991
 21
18764.731323
 31
0.0
  0
LINE
  5
3C73
  8
2-0
  6
CONTINUOUS
 62
     3
 10
25994.119139499991
 20
18764.731323
 30
0.0
 11
26024.116763499991
 21
18764.731323
 31
0.0
  0
LINE
  5
3C74
  8
2-0
  6
CONTINUOUS
 62
     3
 10
26024.116763499991
 20
18764.731323
 30
0.0
 11
26024.116763499991
 21
18801.730505
 31
0.0
  0
LINE
  5
3C75
  8
2-0
  6
CONTINUOUS
 62
     3
 10
25994.119139499991
 20
18801.730505
 30
0.0
 11
26024.116763499991
 21
18801.730505
 31
0.0
  0
LINE
  5
3C76
  8
2-0
  6
CONTINUOUS
 62
     3
 10
25994.119139499991
 20
18795.73454300001
 30
0.0
 11
25994.119139499991
 21
18801.730505
 31
0.0
  0
LINE
  5
3C77
  8
2-0
  6
CONTINUOUS
 62
     3
 10
25994.119139499991
 20
18811.82605
 30
0.0
 11
26024.116763499991
 21
18811.82605
 31
0.0
  0
LINE
  5
3C78
  8
2-0
  6
CONTINUOUS
 62
     3
 10
25994.119139499991
 20
18793.824307999988
 30
0.0
 11
25994.119139499991
 21
18811.82605
 31
0.0
  0
LINE
  5
3C79
  8
2-0
  6
CONTINUOUS
 62
     3
 10
26019.116499499989
 20
18793.824307999988
 30
0.0
 11
25994.119139499991
 21
18793.824307999988
 31
0.0
  0
LINE
  5
3C7A
  8
2-0
  6
CONTINUOUS
 62
     3
 10
26019.116499499989
 20
18798.83051
 30
0.0
 11
26019.116499499989
 21
18793.824307999988
 31
0.0
  0
LINE
  5
3C7B
  8
2-0
  6
CONTINUOUS
 62
     3
 10
26012.1149425
 20
18798.83051
 30
0.0
 11
26019.116499499989
 21
18798.83051
 31
0.0
  0
LINE
  5
3C7C
  8
2-0
  6
CONTINUOUS
 62
     3
 10
26012.1149425
 20
18097.824572000001
 30
0.0
 11
26019.116499499989
 21
18097.824572000001
 31
0.0
  0
LINE
  5
3C7D
  8
2-0
  6
CONTINUOUS
 62
     3
 10
26019.116499499989
 20
18097.824572000001
 30
0.0
 11
26019.116499499989
 21
18092.836185
 31
0.0
  0
LINE
  5
3C7E
  8
2-0
  6
CONTINUOUS
 62
     3
 10
26019.116499499989
 20
18092.836185
 30
0.0
 11
25994.119139499991
 21
18092.836185
 31
0.0
  0
LINE
  5
3C7F
  8
2-0
  6
CONTINUOUS
 62
     3
 10
25994.119139499991
 20
18092.836185
 30
0.0
 11
25994.119139499991
 21
18110.831988000002
 31
0.0
  0
LINE
  5
3C80
  8
2-0
  6
CONTINUOUS
 62
     3
 10
25994.119139499991
 20
18110.831988000002
 30
0.0
 11
26024.116763499991
 21
18110.831988000002
 31
0.0
  0
LINE
  5
3C81
  8
2-0
  6
CONTINUOUS
 62
     3
 10
25994.119139499991
 20
18094.734542999991
 30
0.0
 11
25994.119139499991
 21
18100.730504999989
 31
0.0
  0
LINE
  5
3C82
  8
2-0
  6
CONTINUOUS
 62
     3
 10
25994.119139499991
 20
18100.730504999989
 30
0.0
 11
26024.116763499991
 21
18100.730504999989
 31
0.0
  0
LINE
  5
3C83
  8
2-0
  6
CONTINUOUS
 62
     3
 10
26024.116763499991
 20
18100.730504999989
 30
0.0
 11
26024.116763499991
 21
18063.731323
 31
0.0
  0
LINE
  5
3C84
  8
2-0
  6
CONTINUOUS
 62
     3
 10
25994.119139499991
 20
18063.731323
 30
0.0
 11
26024.116763499991
 21
18063.731323
 31
0.0
  0
LINE
  5
3C85
  8
2-0
  6
CONTINUOUS
 62
     3
 10
25994.119139499991
 20
18069.733224
 30
0.0
 11
25994.119139499991
 21
18063.731323
 31
0.0
  0
LINE
  5
3C86
  8
2-0
  6
CONTINUOUS
 62
     3
 10
25994.119139499991
 20
18053.641716999991
 30
0.0
 11
26024.116763499991
 21
18053.641716999991
 31
0.0
  0
LINE
  5
3C87
  8
2-0
  6
CONTINUOUS
 62
     3
 10
25994.119139499991
 20
18071.63752
 30
0.0
 11
25994.119139499991
 21
18053.641716999991
 31
0.0
  0
LINE
  5
3C88
  8
2-0
  6
CONTINUOUS
 62
     3
 10
26019.116499499989
 20
18071.63752
 30
0.0
 11
25994.119139499991
 21
18071.63752
 31
0.0
  0
LINE
  5
3C89
  8
2-0
  6
CONTINUOUS
 62
     3
 10
26019.116499499989
 20
18066.637256999998
 30
0.0
 11
26019.116499499989
 21
18071.63752
 31
0.0
  0
LINE
  5
3C8A
  8
2-0
  6
CONTINUOUS
 62
     3
 10
26012.1149425
 20
18066.637256999998
 30
0.0
 11
26019.116499499989
 21
18066.637256999998
 31
0.0
  0
LINE
  5
3C8B
  8
2-0
  6
CONTINUOUS
 62
     3
 10
26021.2306255
 20
17346.728143
 30
0.0
 11
26021.2306255
 21
17366.72919799999
 31
0.0
  0
LINE
  5
3C8C
  8
2-0
  6
CONTINUOUS
 62
     3
 10
26021.2306255
 20
17366.72919799999
 30
0.0
 11
25936.23405649999
 21
17366.72919799999
 31
0.0
  0
LINE
  5
3C8D
  8
2-0
  6
CONTINUOUS
 62
     3
 10
26012.1149425
 20
17393.335908000001
 30
0.0
 11
26019.116499499989
 21
17393.335908000001
 31
0.0
  0
LINE
  5
3C8E
  8
2-0
  6
CONTINUOUS
 62
     3
 10
26019.116499499989
 20
17393.335908000001
 30
0.0
 11
26019.116499499989
 21
17388.341582000001
 31
0.0
  0
LINE
  5
3C8F
  8
2-0
  6
CONTINUOUS
 62
     3
 10
26019.116499499989
 20
17388.341582000001
 30
0.0
 11
25994.119139499991
 21
17388.341582000001
 31
0.0
  0
LINE
  5
3C90
  8
2-0
  6
CONTINUOUS
 62
     3
 10
25994.119139499991
 20
17388.341582000001
 30
0.0
 11
25994.119139499991
 21
17406.33738600001
 31
0.0
  0
LINE
  5
3C91
  8
2-0
  6
CONTINUOUS
 62
     3
 10
25994.119139499991
 20
17406.33738600001
 30
0.0
 11
26024.116763499991
 21
17406.33738600001
 31
0.0
  0
LINE
  5
3C92
  8
2-0
  6
CONTINUOUS
 62
     3
 10
25994.119139499991
 20
17396.728802000001
 30
0.0
 11
25994.119139499991
 21
17390.726901999991
 31
0.0
  0
LINE
  5
3C93
  8
2-0
  6
CONTINUOUS
 62
     3
 10
26024.116763499991
 20
17396.728802000001
 30
0.0
 11
25994.119139499991
 21
17396.728802000001
 31
0.0
  0
LINE
  5
3C94
  8
2-0
  6
CONTINUOUS
 62
     3
 10
26024.116763499991
 20
17406.33738600001
 30
0.0
 11
26024.116763499991
 21
18053.641716999991
 31
0.0
  0
LINE
  5
3C95
  8
2-0
  6
CONTINUOUS
 62
     3
 10
26024.116763499991
 20
18110.831988000002
 30
0.0
 11
26024.116763499991
 21
18754.635778
 31
0.0
  0
LINE
  5
3C96
  8
2-0
  6
CONTINUOUS
 62
     3
 10
26024.116763499991
 20
17251.72708700001
 30
0.0
 11
25994.119139499991
 21
17251.72708700001
 31
0.0
  0
LINE
  5
3C97
  8
2-0
  6
CONTINUOUS
 62
     3
 10
25994.119139499991
 20
17251.72708700001
 30
0.0
 11
25994.119139499991
 21
17257.728986999999
 31
0.0
  0
LINE
  5
3C98
  8
2-0
  6
CONTINUOUS
 62
     3
 10
25936.23405649999
 20
17281.732629999991
 30
0.0
 11
26021.2306255
 21
17281.732629999991
 31
0.0
  0
LINE
  5
3C99
  8
2-0
  6
CONTINUOUS
 62
     3
 10
26021.2306255
 20
17281.732629999991
 30
0.0
 11
26021.2306255
 21
17301.727747000012
 31
0.0
  0
LINE
  5
3C9A
  8
2-0
  6
CONTINUOUS
 62
     3
 10
25994.119139499991
 20
17242.118504000009
 30
0.0
 11
26024.116763499991
 21
17242.118504000009
 31
0.0
  0
LINE
  5
3C9B
  8
2-0
  6
CONTINUOUS
 62
     3
 10
25994.119139499991
 20
17260.114306999982
 30
0.0
 11
25994.119139499991
 21
17242.118504000009
 31
0.0
  0
LINE
  5
3C9C
  8
2-0
  6
CONTINUOUS
 62
     3
 10
26019.116499499989
 20
17260.114306999982
 30
0.0
 11
25994.119139499991
 21
17260.114306999982
 31
0.0
  0
LINE
  5
3C9D
  8
2-0
  6
CONTINUOUS
 62
     3
 10
26019.116499499989
 20
17255.114043000009
 30
0.0
 11
26019.116499499989
 21
17260.114306999982
 31
0.0
  0
LINE
  5
3C9E
  8
2-0
  6
CONTINUOUS
 62
     3
 10
26012.1149425
 20
17255.114043000009
 30
0.0
 11
26019.116499499989
 21
17255.114043000009
 31
0.0
  0
LINE
  5
3C9F
  8
2-0
  6
CONTINUOUS
 62
     3
 10
26012.1149425
 20
16550.631812499989
 30
0.0
 11
26019.116499499989
 21
16550.631812499989
 31
0.0
  0
LINE
  5
3CA0
  8
2-0
  6
CONTINUOUS
 62
     3
 10
26019.116499499989
 20
16550.631812499989
 30
0.0
 11
26019.116499499989
 21
16555.632076499991
 31
0.0
  0
LINE
  5
3CA1
  8
2-0
  6
CONTINUOUS
 62
     3
 10
26019.116499499989
 20
16555.632076499991
 30
0.0
 11
25994.119139499991
 21
16555.632076499991
 31
0.0
  0
LINE
  5
3CA2
  8
2-0
  6
CONTINUOUS
 62
     3
 10
25994.119139499991
 20
16555.632076499991
 30
0.0
 11
25994.119139499991
 21
16537.630334499991
 31
0.0
  0
LINE
  5
3CA3
  8
2-0
  6
CONTINUOUS
 62
     3
 10
25994.119139499991
 20
16537.630334499991
 30
0.0
 11
26024.116763499991
 21
16537.630334499991
 31
0.0
  0
LINE
  5
3CA4
  8
2-0
  6
CONTINUOUS
 62
     3
 10
25994.119139499991
 20
16553.727779500001
 30
0.0
 11
25994.119139499991
 21
16547.7308285
 31
0.0
  0
LINE
  5
3CA5
  8
2-0
  6
CONTINUOUS
 62
     3
 10
25994.119139499991
 20
16547.7308285
 30
0.0
 11
26024.116763499991
 21
16547.7308285
 31
0.0
  0
LINE
  5
3CA6
  8
2-0
  6
CONTINUOUS
 62
     3
 10
26024.116763499991
 20
16547.7308285
 30
0.0
 11
26024.116763499991
 21
16584.7309995
 31
0.0
  0
LINE
  5
3CA7
  8
2-0
  6
CONTINUOUS
 62
     3
 10
25994.119139499991
 20
16584.7309995
 30
0.0
 11
26024.116763499991
 21
16584.7309995
 31
0.0
  0
LINE
  5
3CA8
  8
2-0
  6
CONTINUOUS
 62
     3
 10
25994.119139499991
 20
16578.7281095
 30
0.0
 11
25994.119139499991
 21
16584.7309995
 31
0.0
  0
LINE
  5
3CA9
  8
2-0
  6
CONTINUOUS
 62
     3
 10
25994.119139499991
 20
16594.8265445
 30
0.0
 11
26024.116763499991
 21
16594.8265445
 31
0.0
  0
LINE
  5
3CAA
  8
2-0
  6
CONTINUOUS
 62
     3
 10
25994.119139499991
 20
16576.818863500001
 30
0.0
 11
25994.119139499991
 21
16594.8265445
 31
0.0
  0
LINE
  5
3CAB
  8
2-0
  6
CONTINUOUS
 62
     3
 10
26019.116499499989
 20
16576.818863500001
 30
0.0
 11
25994.119139499991
 21
16576.818863500001
 31
0.0
  0
LINE
  5
3CAC
  8
2-0
  6
CONTINUOUS
 62
     3
 10
26019.116499499989
 20
16581.825066500001
 30
0.0
 11
26019.116499499989
 21
16576.818863500001
 31
0.0
  0
LINE
  5
3CAD
  8
2-0
  6
CONTINUOUS
 62
     3
 10
26012.1149425
 20
16581.825066500001
 30
0.0
 11
26019.116499499989
 21
16581.825066500001
 31
0.0
  0
LINE
  5
3CAE
  8
2-0
  6
CONTINUOUS
 62
     3
 10
26012.1149425
 20
15881.065083
 30
0.0
 11
26019.116499499989
 21
15881.065083
 31
0.0
  0
LINE
  5
3CAF
  8
2-0
  6
CONTINUOUS
 62
     3
 10
26019.116499499989
 20
15881.065083
 30
0.0
 11
26019.116499499989
 21
15876.070758000011
 31
0.0
  0
LINE
  5
3CB0
  8
2-0
  6
CONTINUOUS
 62
     3
 10
26019.116499499989
 20
15876.070758000011
 30
0.0
 11
25994.119139499991
 21
15876.070758000011
 31
0.0
  0
LINE
  5
3CB1
  8
2-0
  6
CONTINUOUS
 62
     3
 10
25994.119139499991
 20
15876.070758000011
 30
0.0
 11
25994.119139499991
 21
15894.06656100002
 31
0.0
  0
LINE
  5
3CB2
  8
2-0
  6
CONTINUOUS
 62
     3
 10
25994.119139499991
 20
15894.06656100002
 30
0.0
 11
26024.116763499991
 21
15894.06656100002
 31
0.0
  0
LINE
  5
3CB3
  8
2-0
  6
CONTINUOUS
 62
     3
 10
25994.119139499991
 20
15877.969116
 30
0.0
 11
25994.119139499991
 21
15883.97101600001
 31
0.0
  0
LINE
  5
3CB4
  8
2-0
  6
CONTINUOUS
 62
     3
 10
25994.119139499991
 20
15883.97101600001
 30
0.0
 11
26024.116763499991
 21
15883.97101600001
 31
0.0
  0
LINE
  5
3CB5
  8
2-0
  6
CONTINUOUS
 62
     3
 10
26024.116763499991
 20
15846.971835
 30
0.0
 11
26024.116763499991
 21
15883.97101600001
 31
0.0
  0
LINE
  5
3CB6
  8
2-0
  6
CONTINUOUS
 62
     3
 10
25994.119139499991
 20
15846.971835
 30
0.0
 11
26024.116763499991
 21
15846.971835
 31
0.0
  0
LINE
  5
3CB7
  8
2-0
  6
CONTINUOUS
 62
     3
 10
25994.119139499991
 20
15852.96878600001
 30
0.0
 11
25994.119139499991
 21
15846.971835
 31
0.0
  0
LINE
  5
3CB8
  8
2-0
  6
CONTINUOUS
 62
     3
 10
25994.119139499991
 20
15836.870351
 30
0.0
 11
26024.116763499991
 21
15836.870351
 31
0.0
  0
LINE
  5
3CB9
  8
2-0
  6
CONTINUOUS
 62
     3
 10
25994.119139499991
 20
15854.878032000001
 30
0.0
 11
25994.119139499991
 21
15836.870351
 31
0.0
  0
LINE
  5
3CBA
  8
2-0
  6
CONTINUOUS
 62
     3
 10
26019.116499499989
 20
15854.878032000001
 30
0.0
 11
25994.119139499991
 21
15854.878032000001
 31
0.0
  0
LINE
  5
3CBB
  8
2-0
  6
CONTINUOUS
 62
     3
 10
26019.116499499989
 20
15849.87776800002
 30
0.0
 11
26019.116499499989
 21
15854.878032000001
 31
0.0
  0
LINE
  5
3CBC
  8
2-0
  6
CONTINUOUS
 62
     3
 10
26012.1149425
 20
15849.87776800002
 30
0.0
 11
26019.116499499989
 21
15849.87776800002
 31
0.0
  0
LINE
  5
3CBD
  8
2-0
  6
CONTINUOUS
 62
     3
 10
26024.116763499991
 20
17242.118504000009
 30
0.0
 11
26024.116763499991
 21
16594.8265445
 31
0.0
  0
LINE
  5
3CBE
  8
2-0
  6
CONTINUOUS
 62
     3
 10
26024.116763499991
 20
17396.728802000001
 30
0.0
 11
26024.116763499991
 21
17251.72708700001
 31
0.0
  0
LINE
  5
3CBF
  8
2-0
  6
CONTINUOUS
 62
     3
 10
25936.23405649999
 20
17366.72919799999
 30
0.0
 11
25936.23405649999
 21
17281.732629999991
 31
0.0
  0
LINE
  5
3CC0
  8
2-0
  6
CONTINUOUS
 62
     6
 10
24398.025389499991
 20
19135.176463499982
 30
0.0
 11
25423.05772149999
 21
19135.176463499982
 31
0.0
  0
LINE
  5
3CC1
  8
2-0
  6
CONTINUOUS
 62
     3
 10
26012.1149425
 20
15148.636761
 30
0.0
 11
26019.116499499989
 21
15148.636761
 31
0.0
  0
LINE
  5
3CC2
  8
2-0
  6
CONTINUOUS
 62
     3
 10
26019.116499499989
 20
15148.636761
 30
0.0
 11
26019.116499499989
 21
15153.631087
 31
0.0
  0
LINE
  5
3CC3
  8
2-0
  6
CONTINUOUS
 62
     3
 10
26019.116499499989
 20
15153.631087
 30
0.0
 11
25994.119139499991
 21
15153.631087
 31
0.0
  0
LINE
  5
3CC4
  8
2-0
  6
CONTINUOUS
 62
     3
 10
25994.119139499991
 20
15153.631087
 30
0.0
 11
25994.119139499991
 21
15135.635283
 31
0.0
  0
LINE
  5
3CC5
  8
2-0
  6
CONTINUOUS
 62
     3
 10
25994.119139499991
 20
15135.635283
 30
0.0
 11
26024.116763499991
 21
15135.635283
 31
0.0
  0
LINE
  5
3CC6
  8
2-0
  6
CONTINUOUS
 62
     3
 10
25994.119139499991
 20
15151.73371800001
 30
0.0
 11
25994.119139499991
 21
15145.730828000011
 31
0.0
  0
LINE
  5
3CC7
  8
2-0
  6
CONTINUOUS
 62
     3
 10
25994.119139499991
 20
15145.730828000011
 30
0.0
 11
26024.116763499991
 21
15145.730828000011
 31
0.0
  0
LINE
  5
3CC8
  8
2-0
  6
CONTINUOUS
 62
     3
 10
26024.116763499991
 20
15145.730828000011
 30
0.0
 11
26024.116763499991
 21
15182.730999999991
 31
0.0
  0
LINE
  5
3CC9
  8
2-0
  6
CONTINUOUS
 62
     3
 10
25994.119139499991
 20
15182.730999999991
 30
0.0
 11
26024.116763499991
 21
15182.730999999991
 31
0.0
  0
LINE
  5
3CCA
  8
2-0
  6
CONTINUOUS
 62
     3
 10
25994.119139499991
 20
15176.734048
 30
0.0
 11
25994.119139499991
 21
15182.730999999991
 31
0.0
  0
LINE
  5
3CCB
  8
2-0
  6
CONTINUOUS
 62
     3
 10
25994.119139499991
 20
15192.831493000011
 30
0.0
 11
26024.116763499991
 21
15192.831493000011
 31
0.0
  0
LINE
  5
3CCC
  8
2-0
  6
CONTINUOUS
 62
     3
 10
25994.119139499991
 20
15174.82480200001
 30
0.0
 11
25994.119139499991
 21
15192.831493000011
 31
0.0
  0
LINE
  5
3CCD
  8
2-0
  6
CONTINUOUS
 62
     3
 10
26019.116499499989
 20
15174.82480200001
 30
0.0
 11
25994.119139499991
 21
15174.82480200001
 31
0.0
  0
LINE
  5
3CCE
  8
2-0
  6
CONTINUOUS
 62
     3
 10
26019.116499499989
 20
15179.83001500001
 30
0.0
 11
26019.116499499989
 21
15174.82480200001
 31
0.0
  0
LINE
  5
3CCF
  8
2-0
  6
CONTINUOUS
 62
     3
 10
26012.1149425
 20
15179.83001500001
 30
0.0
 11
26019.116499499989
 21
15179.83001500001
 31
0.0
  0
LINE
  5
3CD0
  8
2-0
  6
CONTINUOUS
 62
     3
 10
25994.119139499991
 20
14472.732840999999
 30
0.0
 11
25994.119139499991
 21
14478.737709999999
 31
0.0
  0
LINE
  5
3CD1
  8
2-0
  6
CONTINUOUS
 62
     3
 10
25994.119139499991
 20
14478.737709999999
 30
0.0
 11
26024.116763499991
 21
14478.737709999999
 31
0.0
  0
LINE
  5
3CD2
  8
2-0
  6
CONTINUOUS
 62
     3
 10
26024.116763499991
 20
14478.737709999999
 30
0.0
 11
26024.116763499991
 21
14363.733619000001
 31
0.0
  0
LINE
  5
3CD3
  8
2-0
  6
CONTINUOUS
 62
     3
 10
26024.116763499991
 20
14363.733619000001
 30
0.0
 11
25939.118215499991
 21
14363.733619000001
 31
0.0
  0
LINE
  5
3CD4
  8
2-0
  6
CONTINUOUS
 62
     3
 10
25939.118215499991
 20
14363.733619000001
 30
0.0
 11
25939.118215499991
 21
14448.729198000001
 31
0.0
  0
LINE
  5
3CD5
  8
2-0
  6
CONTINUOUS
 62
     3
 10
25939.118215499991
 20
14448.729198000001
 30
0.0
 11
25971.117133499989
 21
14448.729198000001
 31
0.0
  0
LINE
  5
3CD6
  8
2-0
  6
CONTINUOUS
 62
     3
 10
26012.1149425
 20
14475.767443000001
 30
0.0
 11
26019.116499499989
 21
14475.767443000001
 31
0.0
  0
LINE
  5
3CD7
  8
2-0
  6
CONTINUOUS
 62
     3
 10
26019.116499499989
 20
14475.767443000001
 30
0.0
 11
26019.116499499989
 21
14470.77014799998
 31
0.0
  0
LINE
  5
3CD8
  8
2-0
  6
CONTINUOUS
 62
     3
 10
26019.116499499989
 20
14470.77014799998
 30
0.0
 11
25994.119139499991
 21
14470.77014799998
 31
0.0
  0
LINE
  5
3CD9
  8
2-0
  6
CONTINUOUS
 62
     3
 10
25994.119139499991
 20
14470.77014799998
 30
0.0
 11
25994.119139499991
 21
14488.768921000001
 31
0.0
  0
LINE
  5
3CDA
  8
2-0
  6
CONTINUOUS
 62
     3
 10
25994.119139499991
 20
14488.768921000001
 30
0.0
 11
26024.116763499991
 21
14488.768921000001
 31
0.0
  0
LINE
  5
3CDB
  8
2-0
  6
CENTER2
 62
     6
 10
25981.61847949999
 20
14166.236060999991
 30
0.0
 11
25981.61847949999
 21
15322.10481900002
 31
0.0
  0
LINE
  5
3CDC
  8
2-0
  6
CONTINUOUS
 62
     3
 10
26024.116763499991
 20
18811.82605
 30
0.0
 11
26024.116763499991
 21
19455.6367675
 31
0.0
  0
LINE
  5
3CDD
  8
2-0
  6
CONTINUOUS
 62
     6
 10
26716.621646499982
 20
20664.232102000031
 30
0.0
 11
27916.615708499961
 21
20664.232102000031
 31
0.0
  0
LINE
  5
3CDE
  8
2-0
  6
CONTINUOUS
 62
     3
 10
22785.620327500001
 20
19934.229199000009
 30
0.0
 11
22785.620327500001
 21
19904.22563600001
 31
0.0
  0
LINE
  5
3CDF
  8
2-0
  6
CONTINUOUS
 62
     3
 10
22785.620327500001
 20
19904.22563600001
 30
0.0
 11
22779.622385499981
 21
19904.22563600001
 31
0.0
  0
LINE
  5
3CE0
  8
2-0
  6
CONTINUOUS
 62
     3
 10
22795.236828500001
 20
19904.22563600001
 30
0.0
 11
22795.236828500001
 21
19934.229199000009
 31
0.0
  0
LINE
  5
3CE1
  8
2-0
  6
CONTINUOUS
 62
     3
 10
22777.235086499979
 20
19904.22563600001
 30
0.0
 11
22795.236828500001
 21
19904.22563600001
 31
0.0
  0
LINE
  5
3CE2
  8
2-0
  6
CONTINUOUS
 62
     3
 10
22777.235086499979
 20
19929.234873000001
 30
0.0
 11
22777.235086499979
 21
19904.22563600001
 31
0.0
  0
LINE
  5
3CE3
  8
2-0
  6
CONTINUOUS
 62
     3
 10
22782.235350499988
 20
19929.234873000001
 30
0.0
 11
22777.235086499979
 21
19929.234873000001
 31
0.0
  0
LINE
  5
3CE4
  8
2-0
  6
CONTINUOUS
 62
     3
 10
22782.235350499988
 20
19922.229357000011
 30
0.0
 11
22782.235350499988
 21
19929.234873000001
 31
0.0
  0
LINE
  5
3CE5
  8
2-0
  6
CONTINUOUS
 62
     3
 10
22755.61874350001
 20
19931.337122000001
 30
0.0
 11
22755.61874350001
 21
19846.338574000009
 31
0.0
  0
LINE
  5
3CE6
  8
2-0
  6
CONTINUOUS
 62
     3
 10
22735.621646499989
 20
19931.337122000001
 30
0.0
 11
22755.61874350001
 21
19931.337122000001
 31
0.0
  0
LINE
  5
3CE7
  8
2-0
  6
CONTINUOUS
 62
     3
 10
22644.007547500001
 20
19922.229357000011
 30
0.0
 11
22644.007547500001
 21
19929.234873000001
 31
0.0
  0
LINE
  5
3CE8
  8
2-0
  6
CONTINUOUS
 62
     3
 10
22644.007547500001
 20
19929.234873000001
 30
0.0
 11
22649.007811499981
 21
19929.234873000001
 31
0.0
  0
LINE
  5
3CE9
  8
2-0
  6
CONTINUOUS
 62
     3
 10
22649.007811499981
 20
19929.234873000001
 30
0.0
 11
22649.007811499981
 21
19904.22563600001
 31
0.0
  0
LINE
  5
3CEA
  8
2-0
  6
CONTINUOUS
 62
     3
 10
22649.007811499981
 20
19904.22563600001
 30
0.0
 11
22631.006069499988
 21
19904.22563600001
 31
0.0
  0
LINE
  5
3CEB
  8
2-0
  6
CONTINUOUS
 62
     3
 10
22631.006069499988
 20
19904.22563600001
 30
0.0
 11
22631.006069499988
 21
19934.229199000009
 31
0.0
  0
LINE
  5
3CEC
  8
2-0
  6
CONTINUOUS
 62
     3
 10
22670.626133499991
 20
19931.337122000001
 30
0.0
 11
22690.6212505
 21
19931.337122000001
 31
0.0
  0
LINE
  5
3CED
  8
2-0
  6
CONTINUOUS
 62
     3
 10
22670.626133499991
 20
19846.338574000009
 30
0.0
 11
22670.626133499991
 21
19931.337122000001
 31
0.0
  0
LINE
  5
3CEE
  8
2-0
  6
CONTINUOUS
 62
     3
 10
22640.628509500009
 20
19904.22563600001
 30
0.0
 11
22646.624470499992
 21
19904.22563600001
 31
0.0
  0
LINE
  5
3CEF
  8
2-0
  6
CONTINUOUS
 62
     3
 10
22640.628509500009
 20
19934.229199000009
 30
0.0
 11
22640.628509500009
 21
19904.22563600001
 31
0.0
  0
LINE
  5
3CF0
  8
2-0
  6
CONTINUOUS
 62
     3
 10
22755.61874350001
 20
19846.338574000009
 30
0.0
 11
22670.626133499991
 21
19846.338574000009
 31
0.0
  0
LINE
  5
3CF1
  8
2-0
  6
CONTINUOUS
 62
     3
 10
22785.620327500001
 20
19934.229199000009
 30
0.0
 11
22640.628509500009
 21
19934.229199000009
 31
0.0
  0
LINE
  5
3CF2
  8
2-0
  6
CONTINUOUS
 62
     6
 10
25854.58881349998
 20
19377.330971499989
 30
0.0
 11
25423.05772149999
 21
19135.176463499982
 31
0.0
  0
LINE
  5
3CF3
  8
2-0
  6
CONTINUOUS
 62
     6
 10
26176.15764749996
 20
20076.908939000012
 30
0.0
 11
26716.621646499982
 21
20664.232102000031
 31
0.0
  0
LINE
  5
3CF4
  8
2-0
  6
CONTINUOUS
 62
     6
 10
22755.61874350001
 20
14448.729198000001
 30
0.0
 11
23032.208956499999
 21
14904.073898000001
 31
0.0
  0
LINE
  5
3CF5
  8
2-0
  6
CONTINUOUS
 62
     6
 10
23032.208956499999
 20
14904.073898000001
 30
0.0
 11
24062.558275499989
 21
14904.073898000001
 31
0.0
  0
LINE
  5
3CF6
  8
2-0
  6
CONTINUOUS
 62
     3
 10
26024.116763499991
 20
16537.630334499991
 30
0.0
 11
26024.116763499991
 21
15894.06656100002
 31
0.0
  0
LINE
  5
3CF7
  8
2-0
  6
CONTINUOUS
 62
     6
 10
22815.897063500001
 20
14599.32503299999
 30
0.0
 11
22755.61874350001
 21
14448.729198000001
 31
0.0
  0
LINE
  5
3CF8
  8
2-0
  6
CONTINUOUS
 62
     6
 10
22755.61874350001
 20
14448.729198000001
 30
0.0
 11
22861.477458499961
 21
14571.63750699999
 31
0.0
  0
LINE
  5
3CF9
  8
2-0
  6
CONTINUOUS
 62
     6
 10
22815.897063500001
 20
14599.32503299999
 30
0.0
 11
22861.477458499961
 21
14571.63750699999
 31
0.0
  0
LINE
  5
3CFA
  8
2-0
  6
CONTINUOUS
 62
     6
 10
22861.477458499961
 20
14571.63750699999
 30
0.0
 11
22755.61874350001
 21
14448.729198000001
 31
0.0
  0
LINE
  5
3CFB
  8
2-0
  6
CONTINUOUS
 62
     6
 10
22755.61874350001
 20
14448.729198000001
 30
0.0
 11
22815.897063500001
 21
14599.32503299999
 31
0.0
  0
LINE
  5
3CFC
  8
2-0
  6
CONTINUOUS
 62
     6
 10
22815.897063500001
 20
14599.32503299999
 30
0.0
 11
22755.61874350001
 21
14448.729198000001
 31
0.0
  0
LINE
  5
3CFD
  8
2-0
  6
CONTINUOUS
 62
     6
 10
22861.477458499961
 20
14571.63750699999
 30
0.0
 11
22755.61874350001
 21
14448.729198000001
 31
0.0
  0
LINE
  5
3CFE
  8
2-0
  6
CONTINUOUS
 62
     6
 10
22861.477458499961
 20
14571.63750699999
 30
0.0
 11
22815.897063500001
 21
14599.32503299999
 31
0.0
  0
LINE
  5
3CFF
  8
2-0
  6
CONTINUOUS
 62
     6
 10
25841.53190849999
 20
19400.590315500001
 30
0.0
 11
25994.119139499991
 21
19455.6367675
 31
0.0
  0
LINE
  5
3D00
  8
2-0
  6
CONTINUOUS
 62
     6
 10
25994.119139499991
 20
19455.6367675
 30
0.0
 11
25867.6377995
 21
19354.07756749999
 31
0.0
  0
LINE
  5
3D01
  8
2-0
  6
CONTINUOUS
 62
     6
 10
25841.53190849999
 20
19400.590315500001
 30
0.0
 11
25867.6377995
 21
19354.07756749999
 31
0.0
  0
LINE
  5
3D02
  8
2-0
  6
CONTINUOUS
 62
     6
 10
25867.6377995
 20
19354.07756749999
 30
0.0
 11
25994.119139499991
 21
19455.6367675
 31
0.0
  0
LINE
  5
3D03
  8
2-0
  6
CONTINUOUS
 62
     6
 10
25994.119139499991
 20
19455.6367675
 30
0.0
 11
25841.53190849999
 21
19400.590315500001
 31
0.0
  0
LINE
  5
3D04
  8
2-0
  6
CONTINUOUS
 62
     6
 10
25841.53190849999
 20
19400.590315500001
 30
0.0
 11
25994.119139499991
 21
19455.6367675
 31
0.0
  0
LINE
  5
3D05
  8
2-0
  6
CONTINUOUS
 62
     6
 10
25867.6377995
 20
19354.07756749999
 30
0.0
 11
25994.119139499991
 21
19455.6367675
 31
0.0
  0
LINE
  5
3D06
  8
2-0
  6
CONTINUOUS
 62
     6
 10
25867.6377995
 20
19354.07756749999
 30
0.0
 11
25841.53190849999
 21
19400.590315500001
 31
0.0
  0
LINE
  5
3D07
  8
2-0
  6
CONTINUOUS
 62
     6
 10
26195.77467649999
 20
20058.847812000022
 30
0.0
 11
26067.812656499991
 21
19959.165194000008
 31
0.0
  0
LINE
  5
3D08
  8
2-0
  6
CONTINUOUS
 62
     6
 10
26067.812656499991
 20
19959.165194000008
 30
0.0
 11
26156.526761499979
 21
20094.962149000021
 31
0.0
  0
LINE
  5
3D09
  8
2-0
  6
CONTINUOUS
 62
     6
 10
26195.77467649999
 20
20058.847812000022
 30
0.0
 11
26156.526761499979
 21
20094.962149000021
 31
0.0
  0
LINE
  5
3D0A
  8
2-0
  6
CONTINUOUS
 62
     6
 10
26156.526761499979
 20
20094.962149000021
 30
0.0
 11
26067.812656499991
 21
19959.165194000008
 31
0.0
  0
LINE
  5
3D0B
  8
2-0
  6
CONTINUOUS
 62
     6
 10
26067.812656499991
 20
19959.165194000008
 30
0.0
 11
26195.77467649999
 21
20058.847812000022
 31
0.0
  0
LINE
  5
3D0C
  8
2-0
  6
CONTINUOUS
 62
     6
 10
26195.77467649999
 20
20058.847812000022
 30
0.0
 11
26067.812656499991
 21
19959.165194000008
 31
0.0
  0
LINE
  5
3D0D
  8
2-0
  6
CONTINUOUS
 62
     6
 10
26156.526761499979
 20
20094.962149000021
 30
0.0
 11
26067.812656499991
 21
19959.165194000008
 31
0.0
  0
LINE
  5
3D0E
  8
2-0
  6
CONTINUOUS
 62
     6
 10
26156.526761499979
 20
20094.962149000021
 30
0.0
 11
26195.77467649999
 21
20058.847812000022
 31
0.0
  0
LINE
  5
3D0F
  8
2-0
  6
CONTINUOUS
 62
     6
 10
21337.054158499999
 20
19686.45681700002
 30
0.0
 11
21468.98709150001
 21
19217.110981999998
 31
0.0
  0
LINE
  5
3D10
  8
2-0
  6
CONTINUOUS
 62
     6
 10
21468.98709150001
 20
19217.110981999998
 30
0.0
 11
22494.025362499979
 21
19217.110981999998
 31
0.0
  0
LINE
  5
3D11
  8
2-0
  6
CONTINUOUS
 62
     6
 10
21293.760107499998
 20
19840.485137000011
 30
0.0
 11
21311.3817815
 21
19679.239492000019
 31
0.0
  0
LINE
  5
3D12
  8
2-0
  6
CONTINUOUS
 62
     6
 10
21362.726534500009
 20
19693.67810100002
 30
0.0
 11
21311.3817815
 21
19679.239492000019
 31
0.0
  0
LINE
  5
3D13
  8
2-0
  6
CONTINUOUS
 62
     6
 10
21311.3817815
 20
19679.239492000019
 30
0.0
 11
21293.760107499998
 21
19840.485137000011
 31
0.0
  0
LINE
  5
3D14
  8
2-0
  6
CONTINUOUS
 62
     6
 10
21293.760107499998
 20
19840.485137000011
 30
0.0
 11
21362.726534500009
 21
19693.67810100002
 31
0.0
  0
LINE
  5
3D15
  8
2-0
  6
CONTINUOUS
 62
     6
 10
21362.726534500009
 20
19693.67810100002
 30
0.0
 11
21293.760107499998
 21
19840.485137000011
 31
0.0
  0
LINE
  5
3D16
  8
2-0
  6
CONTINUOUS
 62
     6
 10
21311.3817815
 20
19679.239492000019
 30
0.0
 11
21293.760107499998
 21
19840.485137000011
 31
0.0
  0
LINE
  5
3D17
  8
2-0
  6
CONTINUOUS
 62
     6
 10
21311.3817815
 20
19679.239492000019
 30
0.0
 11
21362.726534500009
 21
19693.67810100002
 31
0.0
  0
LINE
  5
3D18
  8
2-0
  6
CONTINUOUS
 62
     6
 10
22754.541885499992
 20
19815.47787900002
 30
0.0
 11
22903.411580499989
 21
19285.855703000001
 31
0.0
  0
LINE
  5
3D19
  8
2-0
  6
CONTINUOUS
 62
     6
 10
22903.411580499989
 20
19285.855703000001
 30
0.0
 11
23928.4557895
 21
19285.855703000001
 31
0.0
  0
LINE
  5
3D1A
  8
2-0
  6
CONTINUOUS
 62
     6
 10
22772.16553949998
 20
19654.23223400001
 30
0.0
 11
22823.516230500009
 21
19668.66688400002
 31
0.0
  0
LINE
  5
3D1B
  8
2-0
  6
CONTINUOUS
 62
     6
 10
22823.516230500009
 20
19668.66688400002
 30
0.0
 11
22772.16553949998
 21
19654.23223400001
 31
0.0
  0
LINE
  5
3D1C
  8
2-0
  6
CONTINUOUS
 62
     6
 10
22772.16553949998
 20
19654.23223400001
 30
0.0
 11
22754.541885499992
 21
19815.47787900002
 31
0.0
  0
LINE
  5
3D1D
  8
2-0
  6
CONTINUOUS
 62
     6
 10
22754.541885499992
 20
19815.47787900002
 30
0.0
 11
22823.516230500009
 21
19668.66688400002
 31
0.0
  0
LINE
  5
3D1E
  8
2-0
  6
CONTINUOUS
 62
     6
 10
22823.516230500009
 20
19668.66688400002
 30
0.0
 11
22754.541885499992
 21
19815.47787900002
 31
0.0
  0
LINE
  5
3D1F
  8
2-0
  6
CONTINUOUS
 62
     6
 10
22772.16553949998
 20
19654.23223400001
 30
0.0
 11
22754.541885499992
 21
19815.47787900002
 31
0.0
  0
LINE
  5
3D20
  8
2-0
  6
CONTINUOUS
 62
     6
 10
22823.516230500009
 20
19668.66688400002
 30
0.0
 11
22754.541885499992
 21
19815.47787900002
 31
0.0
  0
LINE
  5
3D21
  8
2-0
  6
CONTINUOUS
 62
     6
 10
22754.541885499992
 20
19815.47787900002
 30
0.0
 11
22772.16553949998
 21
19654.23223400001
 31
0.0
  0
LINE
  5
3D22
  8
2-0
  6
CONTINUOUS
 62
     4
 10
22713.118479499979
 20
20014.231442000018
 30
0.0
 11
22713.118479499979
 21
20744.228406999999
 31
0.0
  0
LINE
  5
3D23
  8
2-0
  6
CONTINUOUS
 62
     6
 10
25747.479042499988
 20
14255.46088099999
 30
0.0
 11
25879.225901499991
 21
14350.087808
 31
0.0
  0
LINE
  5
3D24
  8
2-0
  6
CONTINUOUS
 62
     6
 10
25879.225901499991
 20
14350.087808
 30
0.0
 11
25785.295765499988
 21
14217.84903799998
 31
0.0
  0
LINE
  5
3D25
  8
2-0
  6
CONTINUOUS
 62
     6
 10
25747.479042499988
 20
14255.46088099999
 30
0.0
 11
25785.295765499988
 21
14217.84903799998
 31
0.0
  0
LINE
  5
3D26
  8
2-0
  6
CONTINUOUS
 62
     6
 10
25785.295765499988
 20
14217.84903799998
 30
0.0
 11
25879.225901499991
 21
14350.087808
 31
0.0
  0
LINE
  5
3D27
  8
2-0
  6
CONTINUOUS
 62
     6
 10
25879.225901499991
 20
14350.087808
 30
0.0
 11
25747.479042499988
 21
14255.46088099999
 31
0.0
  0
LINE
  5
3D28
  8
2-0
  6
CONTINUOUS
 62
     6
 10
25747.479042499988
 20
14255.46088099999
 30
0.0
 11
25879.225901499991
 21
14350.087808
 31
0.0
  0
LINE
  5
3D29
  8
2-0
  6
CONTINUOUS
 62
     6
 10
25785.295765499988
 20
14217.84903799998
 30
0.0
 11
25879.225901499991
 21
14350.087808
 31
0.0
  0
LINE
  5
3D2A
  8
2-0
  6
CONTINUOUS
 62
     6
 10
25785.295765499988
 20
14217.84903799998
 30
0.0
 11
25747.479042499988
 21
14255.46088099999
 31
0.0
  0
LINE
  5
3D2B
  8
2-0
  6
CONTINUOUS
 62
     6
 10
25810.51483149999
 20
14582.365507999981
 30
0.0
 11
25943.114863499992
 21
14488.937179999981
 31
0.0
  0
LINE
  5
3D2C
  8
2-0
  6
CONTINUOUS
 62
     6
 10
25943.114863499992
 20
14488.937179999981
 30
0.0
 11
25787.382177499981
 21
14534.312694
 31
0.0
  0
LINE
  5
3D2D
  8
2-0
  6
CONTINUOUS
 62
     6
 10
25810.51483149999
 20
14582.365507999981
 30
0.0
 11
25787.382177499981
 21
14534.312694
 31
0.0
  0
LINE
  5
3D2E
  8
2-0
  6
CONTINUOUS
 62
     6
 10
25787.382177499981
 20
14534.312694
 30
0.0
 11
25943.114863499992
 21
14488.937179999981
 31
0.0
  0
LINE
  5
3D2F
  8
2-0
  6
CONTINUOUS
 62
     6
 10
25943.114863499992
 20
14488.937179999981
 30
0.0
 11
25810.51483149999
 21
14582.365507999981
 31
0.0
  0
LINE
  5
3D30
  8
2-0
  6
CONTINUOUS
 62
     6
 10
25810.51483149999
 20
14582.365507999981
 30
0.0
 11
25943.114863499992
 21
14488.937179999981
 31
0.0
  0
LINE
  5
3D31
  8
2-0
  6
CONTINUOUS
 62
     6
 10
25787.382177499981
 20
14534.312694
 30
0.0
 11
25943.114863499992
 21
14488.937179999981
 31
0.0
  0
LINE
  5
3D32
  8
2-0
  6
CONTINUOUS
 62
     6
 10
25787.382177499981
 20
14534.312694
 30
0.0
 11
25810.51483149999
 21
14582.365507999981
 31
0.0
  0
LINE
  5
3D33
  8
2-0
  6
CONTINUOUS
 62
     6
 10
25870.278477499989
 20
16962.186441000009
 30
0.0
 11
26024.116763499991
 21
17013.620272000011
 31
0.0
  0
LINE
  5
3D34
  8
2-0
  6
CONTINUOUS
 62
     6
 10
26024.116763499991
 20
17013.620272000011
 30
0.0
 11
25895.281776499989
 21
16915.079837000008
 31
0.0
  0
LINE
  5
3D35
  8
2-0
  6
CONTINUOUS
 62
     6
 10
25870.278477499989
 20
16962.186441000009
 30
0.0
 11
25895.281776499989
 21
16915.079837000008
 31
0.0
  0
LINE
  5
3D36
  8
2-0
  6
CONTINUOUS
 62
     6
 10
25895.281776499989
 20
16915.079837000008
 30
0.0
 11
26024.116763499991
 21
17013.620272000011
 31
0.0
  0
LINE
  5
3D37
  8
2-0
  6
CONTINUOUS
 62
     6
 10
26024.116763499991
 20
17013.620272000011
 30
0.0
 11
25870.278477499989
 21
16962.186441000009
 31
0.0
  0
LINE
  5
3D38
  8
2-0
  6
CONTINUOUS
 62
     6
 10
25870.278477499989
 20
16962.186441000009
 30
0.0
 11
26024.116763499991
 21
17013.620272000011
 31
0.0
  0
LINE
  5
3D39
  8
2-0
  6
CONTINUOUS
 62
     6
 10
25895.281776499989
 20
16915.079837000008
 30
0.0
 11
26024.116763499991
 21
17013.620272000011
 31
0.0
  0
LINE
  5
3D3A
  8
2-0
  6
CONTINUOUS
 62
     6
 10
25895.281776499989
 20
16915.079837000008
 30
0.0
 11
25870.278477499989
 21
16962.186441000009
 31
0.0
  0
LINE
  5
3D3B
  8
2-0
  6
CONTINUOUS
 62
     6
 10
25736.34227049999
 20
17453.504933000011
 30
0.0
 11
25879.225901499991
 21
17376.729304000011
 31
0.0
  0
LINE
  5
3D3C
  8
2-0
  6
CONTINUOUS
 62
     6
 10
25879.225901499991
 20
17376.729304000011
 30
0.0
 11
25719.164008499982
 21
17403.011373000008
 31
0.0
  0
LINE
  5
3D3D
  8
2-0
  6
CONTINUOUS
 62
     6
 10
25736.34227049999
 20
17453.504933000011
 30
0.0
 11
25719.164008499982
 21
17403.011373000008
 31
0.0
  0
LINE
  5
3D3E
  8
2-0
  6
CONTINUOUS
 62
     6
 10
25719.164008499982
 20
17403.011373000008
 30
0.0
 11
25879.225901499991
 21
17376.729304000011
 31
0.0
  0
LINE
  5
3D3F
  8
2-0
  6
CONTINUOUS
 62
     6
 10
25879.225901499991
 20
17376.729304000011
 30
0.0
 11
25736.34227049999
 21
17453.504933000011
 31
0.0
  0
LINE
  5
3D40
  8
2-0
  6
CONTINUOUS
 62
     6
 10
25736.34227049999
 20
17453.504933000011
 30
0.0
 11
25879.225901499991
 21
17376.729304000011
 31
0.0
  0
LINE
  5
3D41
  8
2-0
  6
CONTINUOUS
 62
     6
 10
25719.164008499982
 20
17403.011373000008
 30
0.0
 11
25879.225901499991
 21
17376.729304000011
 31
0.0
  0
LINE
  5
3D42
  8
2-0
  6
CONTINUOUS
 62
     6
 10
25719.164008499982
 20
17403.011373000008
 30
0.0
 11
25736.34227049999
 21
17453.504933000011
 31
0.0
  0
LINE
  5
3D43
  8
2-0
  6
CONTINUOUS
 62
     3
 10
21973.619060499979
 20
19934.229199000009
 30
0.0
 11
21936.61789849999
 21
19934.229199000009
 31
0.0
  0
LINE
  5
3D44
  8
2-0
  6
CONTINUOUS
 62
     3
 10
21973.619060499979
 20
19904.22563600001
 30
0.0
 11
21973.619060499979
 21
19934.229199000009
 31
0.0
  0
LINE
  5
3D45
  8
2-0
  6
CONTINUOUS
 62
     3
 10
21967.619139499981
 20
19904.22563600001
 30
0.0
 11
21973.619060499979
 21
19904.22563600001
 31
0.0
  0
LINE
  5
3D46
  8
2-0
  6
CONTINUOUS
 62
     3
 10
21983.716584499991
 20
19904.22563600001
 30
0.0
 11
21983.716584499991
 21
19934.229199000009
 31
0.0
  0
LINE
  5
3D47
  8
2-0
  6
CONTINUOUS
 62
     3
 10
21965.712863499979
 20
19904.22563600001
 30
0.0
 11
21983.716584499991
 21
19904.22563600001
 31
0.0
  0
LINE
  5
3D48
  8
2-0
  6
CONTINUOUS
 62
     3
 10
21965.712863499979
 20
19929.234873000001
 30
0.0
 11
21965.712863499979
 21
19904.22563600001
 31
0.0
  0
LINE
  5
3D49
  8
2-0
  6
CONTINUOUS
 62
     3
 10
21970.713127499988
 20
19929.234873000001
 30
0.0
 11
21965.712863499979
 21
19929.234873000001
 31
0.0
  0
LINE
  5
3D4A
  8
2-0
  6
CONTINUOUS
 62
     3
 10
21970.713127499988
 20
19922.229357000011
 30
0.0
 11
21970.713127499988
 21
19929.234873000001
 31
0.0
  0
LINE
  5
3D4B
  8
2-0
  6
CONTINUOUS
 62
     3
 10
21939.523832499981
 20
19922.229357000011
 30
0.0
 11
21939.523832499981
 21
19929.234873000001
 31
0.0
  0
LINE
  5
3D4C
  8
2-0
  6
CONTINUOUS
 62
     3
 10
21939.523832499981
 20
19929.234873000001
 30
0.0
 11
21944.52409649999
 21
19929.234873000001
 31
0.0
  0
LINE
  5
3D4D
  8
2-0
  6
CONTINUOUS
 62
     3
 10
21944.52409649999
 20
19929.234873000001
 30
0.0
 11
21944.52409649999
 21
19904.22563600001
 31
0.0
  0
LINE
  5
3D4E
  8
2-0
  6
CONTINUOUS
 62
     3
 10
21944.52409649999
 20
19904.22563600001
 30
0.0
 11
21926.52433349999
 21
19904.22563600001
 31
0.0
  0
LINE
  5
3D4F
  8
2-0
  6
CONTINUOUS
 62
     3
 10
21926.52433349999
 20
19904.22563600001
 30
0.0
 11
21926.52433349999
 21
19934.229199000009
 31
0.0
  0
LINE
  5
3D50
  8
2-0
  6
CONTINUOUS
 62
     3
 10
21942.617819499981
 20
19904.22563600001
 30
0.0
 11
21936.61789849999
 21
19904.22563600001
 31
0.0
  0
LINE
  5
3D51
  8
2-0
  6
CONTINUOUS
 62
     3
 10
21936.61789849999
 20
19904.22563600001
 30
0.0
 11
21936.61789849999
 21
19934.229199000009
 31
0.0
  0
LINE
  5
3D52
  8
2-0
  6
CONTINUOUS
 62
     3
 10
19432.1197995
 20
19825.228987999999
 30
0.0
 11
19432.1197995
 21
19819.23302600002
 31
0.0
  0
LINE
  5
3D53
  8
2-0
  6
CONTINUOUS
 62
     3
 10
19432.1197995
 20
19819.23302600002
 30
0.0
 11
19402.122174499978
 21
19819.23302600002
 31
0.0
  0
LINE
  5
3D54
  8
2-0
  6
CONTINUOUS
 62
     3
 10
19402.122174499978
 20
19819.23302600002
 30
0.0
 11
19402.122174499978
 21
19934.229199000009
 31
0.0
  0
LINE
  5
3D55
  8
2-0
  6
CONTINUOUS
 62
     3
 10
19402.122174499978
 20
19849.23263000001
 30
0.0
 11
19483.120115499991
 21
19849.23263000001
 31
0.0
  0
LINE
  5
3D56
  8
2-0
  6
CONTINUOUS
 62
     3
 10
19432.1197995
 20
19808.935570000001
 30
0.0
 11
19402.122174499978
 21
19808.935570000001
 31
0.0
  0
LINE
  5
3D57
  8
2-0
  6
CONTINUOUS
 62
     3
 10
19432.1197995
 20
19826.93731200002
 30
0.0
 11
19432.1197995
 21
19808.935570000001
 31
0.0
  0
LINE
  5
3D58
  8
2-0
  6
CONTINUOUS
 62
     3
 10
19407.126397499989
 20
19826.93731200002
 30
0.0
 11
19432.1197995
 21
19826.93731200002
 31
0.0
  0
LINE
  5
3D59
  8
2-0
  6
CONTINUOUS
 62
     3
 10
19407.126397499989
 20
19821.929130000019
 30
0.0
 11
19407.126397499989
 21
19826.93731200002
 31
0.0
  0
LINE
  5
3D5A
  8
2-0
  6
CONTINUOUS
 62
     3
 10
19414.123995499969
 20
19821.929130000019
 30
0.0
 11
19407.126397499989
 21
19821.929130000019
 31
0.0
  0
LINE
  5
3D5B
  8
2-0
  6
CONTINUOUS
 62
     3
 10
19514.418284499981
 20
19922.229357000011
 30
0.0
 11
19514.418284499981
 21
19929.234873000001
 31
0.0
  0
LINE
  5
3D5C
  8
2-0
  6
CONTINUOUS
 62
     3
 10
19514.418284499981
 20
19929.234873000001
 30
0.0
 11
19509.416040499978
 21
19929.234873000001
 31
0.0
  0
LINE
  5
3D5D
  8
2-0
  6
CONTINUOUS
 62
     3
 10
19509.416040499978
 20
19929.234873000001
 30
0.0
 11
19509.416040499978
 21
19904.22563600001
 31
0.0
  0
LINE
  5
3D5E
  8
2-0
  6
CONTINUOUS
 62
     3
 10
19509.416040499978
 20
19904.22563600001
 30
0.0
 11
19527.423721499981
 21
19904.22563600001
 31
0.0
  0
LINE
  5
3D5F
  8
2-0
  6
CONTINUOUS
 62
     3
 10
19527.423721499981
 20
19904.22563600001
 30
0.0
 11
19527.423721499981
 21
19934.229199000009
 31
0.0
  0
LINE
  5
3D60
  8
2-0
  6
CONTINUOUS
 62
     3
 10
19517.124285499991
 20
19934.229199000009
 30
0.0
 11
19402.122174499978
 21
19934.229199000009
 31
0.0
  0
LINE
  5
3D61
  8
2-0
  6
CONTINUOUS
 62
     3
 10
19517.124285499991
 20
19904.22563600001
 30
0.0
 11
19517.124285499991
 21
19934.229199000009
 31
0.0
  0
LINE
  5
3D62
  8
2-0
  6
CONTINUOUS
 62
     3
 10
19511.120406499991
 20
19904.22563600001
 30
0.0
 11
19517.124285499991
 21
19904.22563600001
 31
0.0
  0
LINE
  5
3D63
  8
2-0
  6
CONTINUOUS
 62
     3
 10
20568.70817799999
 20
19922.229357000011
 30
0.0
 11
20568.70817799999
 21
19929.234873000001
 31
0.0
  0
LINE
  5
3D64
  8
2-0
  6
CONTINUOUS
 62
     3
 10
20568.70817799999
 20
19929.234873000001
 30
0.0
 11
20563.707913999991
 21
19929.234873000001
 31
0.0
  0
LINE
  5
3D65
  8
2-0
  6
CONTINUOUS
 62
     3
 10
20563.707913999991
 20
19929.234873000001
 30
0.0
 11
20563.707913999991
 21
19904.22563600001
 31
0.0
  0
LINE
  5
3D66
  8
2-0
  6
CONTINUOUS
 62
     3
 10
20563.707913999991
 20
19904.22563600001
 30
0.0
 11
20581.71361499999
 21
19904.22563600001
 31
0.0
  0
LINE
  5
3D67
  8
2-0
  6
CONTINUOUS
 62
     3
 10
20581.71361499999
 20
19904.22563600001
 30
0.0
 11
20581.71361499999
 21
19934.229199000009
 31
0.0
  0
LINE
  5
3D68
  8
2-0
  6
CONTINUOUS
 62
     3
 10
20565.616169999979
 20
19904.22563600001
 30
0.0
 11
20571.61806999999
 21
19904.22563600001
 31
0.0
  0
LINE
  5
3D69
  8
2-0
  6
CONTINUOUS
 62
     3
 10
20571.61806999999
 20
19904.22563600001
 30
0.0
 11
20571.61806999999
 21
19934.229199000009
 31
0.0
  0
LINE
  5
3D6A
  8
2-0
  6
CONTINUOUS
 62
     3
 10
20534.618888999968
 20
19934.229199000009
 30
0.0
 11
20571.61806999999
 21
19934.229199000009
 31
0.0
  0
LINE
  5
3D6B
  8
2-0
  6
CONTINUOUS
 62
     3
 10
20534.618888999968
 20
19904.22563600001
 30
0.0
 11
20534.618888999968
 21
19934.229199000009
 31
0.0
  0
LINE
  5
3D6C
  8
2-0
  6
CONTINUOUS
 62
     3
 10
20540.61287099999
 20
19904.22563600001
 30
0.0
 11
20534.618888999968
 21
19904.22563600001
 31
0.0
  0
LINE
  5
3D6D
  8
2-0
  6
CONTINUOUS
 62
     3
 10
20524.523343999979
 20
19904.22563600001
 30
0.0
 11
20524.523343999979
 21
19934.229199000009
 31
0.0
  0
LINE
  5
3D6E
  8
2-0
  6
CONTINUOUS
 62
     3
 10
20542.519146999992
 20
19904.22563600001
 30
0.0
 11
20524.523343999979
 21
19904.22563600001
 31
0.0
  0
LINE
  5
3D6F
  8
2-0
  6
CONTINUOUS
 62
     3
 10
20542.519146999992
 20
19929.234873000001
 30
0.0
 11
20542.519146999992
 21
19904.22563600001
 31
0.0
  0
LINE
  5
3D70
  8
2-0
  6
CONTINUOUS
 62
     3
 10
20537.518882999979
 20
19929.234873000001
 30
0.0
 11
20542.519146999992
 21
19929.234873000001
 31
0.0
  0
LINE
  5
3D71
  8
2-0
  6
CONTINUOUS
 62
     3
 10
20537.518882999979
 20
19922.229357000011
 30
0.0
 11
20537.518882999979
 21
19929.234873000001
 31
0.0
  0
LINE
  5
3D72
  8
2-0
  6
CONTINUOUS
 62
     3
 10
21238.517893999979
 20
19922.229357000011
 30
0.0
 11
21238.517893999979
 21
19929.234873000001
 31
0.0
  0
LINE
  5
3D73
  8
2-0
  6
CONTINUOUS
 62
     3
 10
21238.517893999979
 20
19929.234873000001
 30
0.0
 11
21243.518156999991
 21
19929.234873000001
 31
0.0
  0
LINE
  5
3D74
  8
2-0
  6
CONTINUOUS
 62
     3
 10
21243.518156999991
 20
19929.234873000001
 30
0.0
 11
21243.518156999991
 21
19904.22563600001
 31
0.0
  0
LINE
  5
3D75
  8
2-0
  6
CONTINUOUS
 62
     3
 10
21243.518156999991
 20
19904.22563600001
 30
0.0
 11
21225.524333999969
 21
19904.22563600001
 31
0.0
  0
LINE
  5
3D76
  8
2-0
  6
CONTINUOUS
 62
     3
 10
21225.524333999969
 20
19904.22563600001
 30
0.0
 11
21225.524333999969
 21
19934.229199000009
 31
0.0
  0
LINE
  5
3D77
  8
2-0
  6
CONTINUOUS
 62
     3
 10
21241.61583999998
 20
19904.22563600001
 30
0.0
 11
21235.61789899999
 21
19904.22563600001
 31
0.0
  0
LINE
  5
3D78
  8
2-0
  6
CONTINUOUS
 62
     3
 10
21235.61789899999
 20
19904.22563600001
 30
0.0
 11
21235.61789899999
 21
19934.229199000009
 31
0.0
  0
LINE
  5
3D79
  8
2-0
  6
CONTINUOUS
 62
     3
 10
21272.61905999999
 20
19934.229199000009
 30
0.0
 11
21235.61789899999
 21
19934.229199000009
 31
0.0
  0
LINE
  5
3D7A
  8
2-0
  6
CONTINUOUS
 62
     3
 10
21272.61905999999
 20
19904.22563600001
 30
0.0
 11
21272.61905999999
 21
19934.229199000009
 31
0.0
  0
LINE
  5
3D7B
  8
2-0
  6
CONTINUOUS
 62
     3
 10
21266.613200999978
 20
19904.22563600001
 30
0.0
 11
21272.61905999999
 21
19904.22563600001
 31
0.0
  0
LINE
  5
3D7C
  8
2-0
  6
CONTINUOUS
 62
     3
 10
21282.712624999978
 20
19904.22563600001
 30
0.0
 11
21282.712624999978
 21
19934.229199000009
 31
0.0
  0
LINE
  5
3D7D
  8
2-0
  6
CONTINUOUS
 62
     3
 10
21264.716821999991
 20
19904.22563600001
 30
0.0
 11
21282.712624999978
 21
19904.22563600001
 31
0.0
  0
LINE
  5
3D7E
  8
2-0
  6
CONTINUOUS
 62
     3
 10
21264.716821999991
 20
19929.234873000001
 30
0.0
 11
21264.716821999991
 21
19904.22563600001
 31
0.0
  0
LINE
  5
3D7F
  8
2-0
  6
CONTINUOUS
 62
     3
 10
21269.707187999989
 20
19929.234873000001
 30
0.0
 11
21264.716821999991
 21
19929.234873000001
 31
0.0
  0
LINE
  5
3D80
  8
2-0
  6
CONTINUOUS
 62
     3
 10
21269.707187999989
 20
19922.229357000011
 30
0.0
 11
21269.707187999989
 21
19929.234873000001
 31
0.0
  0
LINE
  5
3D81
  8
2-0
  6
CONTINUOUS
 62
     3
 10
20581.71361499999
 20
19934.229199000009
 30
0.0
 11
21225.524333999969
 21
19934.229199000009
 31
0.0
  0
LINE
  5
3D82
  8
2-0
  6
CONTINUOUS
 62
     3
 10
19880.917505500001
 20
19934.229199000009
 30
0.0
 11
20524.523343999979
 21
19934.229199000009
 31
0.0
  0
LINE
  5
3D83
  8
2-0
  6
CONTINUOUS
 62
     3
 10
21926.52433349999
 20
19934.229199000009
 30
0.0
 11
21282.712624999978
 21
19934.229199000009
 31
0.0
  0
LINE
  5
3D84
  8
2-0
  6
CONTINUOUS
 62
     3
 10
19432.1197995
 20
19825.228987999999
 30
0.0
 11
19432.1197995
 21
19819.23302600002
 31
0.0
  0
LINE
  5
3D85
  8
2-0
  6
CONTINUOUS
 62
     3
 10
19432.1197995
 20
19819.23302600002
 30
0.0
 11
19402.122174499978
 21
19819.23302600002
 31
0.0
  0
LINE
  5
3D86
  8
2-0
  6
CONTINUOUS
 62
     3
 10
19402.122174499978
 20
19819.23302600002
 30
0.0
 11
19402.122174499978
 21
19934.229199000009
 31
0.0
  0
LINE
  5
3D87
  8
2-0
  6
CONTINUOUS
 62
     3
 10
19402.122174499978
 20
19849.23263000001
 30
0.0
 11
19483.120115499991
 21
19849.23263000001
 31
0.0
  0
LINE
  5
3D88
  8
2-0
  6
CONTINUOUS
 62
     3
 10
19432.1197995
 20
19808.935570000001
 30
0.0
 11
19402.122174499978
 21
19808.935570000001
 31
0.0
  0
LINE
  5
3D89
  8
2-0
  6
CONTINUOUS
 62
     3
 10
19432.1197995
 20
19826.93731200002
 30
0.0
 11
19432.1197995
 21
19808.935570000001
 31
0.0
  0
LINE
  5
3D8A
  8
2-0
  6
CONTINUOUS
 62
     3
 10
19407.126397499989
 20
19826.93731200002
 30
0.0
 11
19432.1197995
 21
19826.93731200002
 31
0.0
  0
LINE
  5
3D8B
  8
2-0
  6
CONTINUOUS
 62
     3
 10
19407.126397499989
 20
19821.929130000019
 30
0.0
 11
19407.126397499989
 21
19826.93731200002
 31
0.0
  0
LINE
  5
3D8C
  8
2-0
  6
CONTINUOUS
 62
     3
 10
19414.123995499969
 20
19821.929130000019
 30
0.0
 11
19407.126397499989
 21
19821.929130000019
 31
0.0
  0
LINE
  5
3D8D
  8
2-0
  6
CONTINUOUS
 62
     3
 10
19414.123995499969
 20
19468.632307499978
 30
0.0
 11
19407.126397499989
 21
19468.632307499978
 31
0.0
  0
LINE
  5
3D8E
  8
2-0
  6
CONTINUOUS
 62
     3
 10
19407.126397499989
 20
19468.632307499978
 30
0.0
 11
19407.126397499989
 21
19473.632571499991
 31
0.0
  0
LINE
  5
3D8F
  8
2-0
  6
CONTINUOUS
 62
     3
 10
19407.126397499989
 20
19473.632571499991
 30
0.0
 11
19432.1197995
 21
19473.632571499991
 31
0.0
  0
LINE
  5
3D90
  8
2-0
  6
CONTINUOUS
 62
     3
 10
19432.1197995
 20
19473.632571499991
 30
0.0
 11
19432.1197995
 21
19455.636767499989
 31
0.0
  0
LINE
  5
3D91
  8
2-0
  6
CONTINUOUS
 62
     3
 10
19432.1197995
 20
19455.636767499989
 30
0.0
 11
19402.122174499978
 21
19455.636767499989
 31
0.0
  0
LINE
  5
3D92
  8
2-0
  6
CONTINUOUS
 62
     3
 10
19432.1197995
 20
19471.728274499968
 30
0.0
 11
19432.1197995
 21
19465.730333499989
 31
0.0
  0
LINE
  5
3D93
  8
2-0
  6
CONTINUOUS
 62
     3
 10
19432.1197995
 20
19465.730333499989
 30
0.0
 11
19402.122174499978
 21
19465.730333499989
 31
0.0
  0
LINE
  5
3D94
  8
2-0
  6
CONTINUOUS
 62
     3
 10
19402.122174499978
 20
19465.730333499989
 30
0.0
 11
19402.122174499978
 21
19502.7314945
 31
0.0
  0
LINE
  5
3D95
  8
2-0
  6
CONTINUOUS
 62
     3
 10
19432.1197995
 20
19502.7314945
 30
0.0
 11
19402.122174499978
 21
19502.7314945
 31
0.0
  0
LINE
  5
3D96
  8
2-0
  6
CONTINUOUS
 62
     3
 10
19432.1197995
 20
19496.727614499981
 30
0.0
 11
19432.1197995
 21
19502.7314945
 31
0.0
  0
LINE
  5
3D97
  8
2-0
  6
CONTINUOUS
 62
     3
 10
19432.1197995
 20
19512.827039499982
 30
0.0
 11
19402.122174499978
 21
19512.827039499982
 31
0.0
  0
LINE
  5
3D98
  8
2-0
  6
CONTINUOUS
 62
     3
 10
19432.1197995
 20
19494.8252975
 30
0.0
 11
19432.1197995
 21
19512.827039499982
 31
0.0
  0
LINE
  5
3D99
  8
2-0
  6
CONTINUOUS
 62
     3
 10
19407.126397499989
 20
19494.8252975
 30
0.0
 11
19432.1197995
 21
19494.8252975
 31
0.0
  0
LINE
  5
3D9A
  8
2-0
  6
CONTINUOUS
 62
     3
 10
19407.126397499989
 20
19499.825561500002
 30
0.0
 11
19407.126397499989
 21
19494.8252975
 31
0.0
  0
LINE
  5
3D9B
  8
2-0
  6
CONTINUOUS
 62
     3
 10
19414.123995499969
 20
19499.825561500002
 30
0.0
 11
19407.126397499989
 21
19499.825561500002
 31
0.0
  0
LINE
  5
3D9C
  8
2-0
  6
CONTINUOUS
 62
     3
 10
19414.123995499969
 20
18767.631317999989
 30
0.0
 11
19407.126397499989
 21
18767.631317999989
 31
0.0
  0
LINE
  5
3D9D
  8
2-0
  6
CONTINUOUS
 62
     3
 10
19407.126397499989
 20
18767.631317999989
 30
0.0
 11
19407.126397499989
 21
18772.63752
 31
0.0
  0
LINE
  5
3D9E
  8
2-0
  6
CONTINUOUS
 62
     3
 10
19407.126397499989
 20
18772.63752
 30
0.0
 11
19432.1197995
 21
18772.63752
 31
0.0
  0
LINE
  5
3D9F
  8
2-0
  6
CONTINUOUS
 62
     3
 10
19432.1197995
 20
18772.63752
 30
0.0
 11
19432.1197995
 21
18754.635778
 31
0.0
  0
LINE
  5
3DA0
  8
2-0
  6
CONTINUOUS
 62
     3
 10
19432.1197995
 20
18754.635778
 30
0.0
 11
19402.122174499978
 21
18754.635778
 31
0.0
  0
LINE
  5
3DA1
  8
2-0
  6
CONTINUOUS
 62
     3
 10
19432.1197995
 20
18770.72728499999
 30
0.0
 11
19432.1197995
 21
18764.731322999989
 31
0.0
  0
LINE
  5
3DA2
  8
2-0
  6
CONTINUOUS
 62
     3
 10
19432.1197995
 20
18764.731322999989
 30
0.0
 11
19402.122174499978
 21
18764.731322999989
 31
0.0
  0
LINE
  5
3DA3
  8
2-0
  6
CONTINUOUS
 62
     3
 10
19402.122174499978
 20
18764.731322999989
 30
0.0
 11
19402.122174499978
 21
18801.730505
 31
0.0
  0
LINE
  5
3DA4
  8
2-0
  6
CONTINUOUS
 62
     3
 10
19432.1197995
 20
18801.730505
 30
0.0
 11
19402.122174499978
 21
18801.730505
 31
0.0
  0
LINE
  5
3DA5
  8
2-0
  6
CONTINUOUS
 62
     3
 10
19432.1197995
 20
18795.73454300001
 30
0.0
 11
19432.1197995
 21
18801.730505
 31
0.0
  0
LINE
  5
3DA6
  8
2-0
  6
CONTINUOUS
 62
     3
 10
19432.1197995
 20
18811.82605
 30
0.0
 11
19402.122174499978
 21
18811.82605
 31
0.0
  0
LINE
  5
3DA7
  8
2-0
  6
CONTINUOUS
 62
     3
 10
19432.1197995
 20
18793.824307999988
 30
0.0
 11
19432.1197995
 21
18811.82605
 31
0.0
  0
LINE
  5
3DA8
  8
2-0
  6
CONTINUOUS
 62
     3
 10
19407.126397499989
 20
18793.824307999988
 30
0.0
 11
19432.1197995
 21
18793.824307999988
 31
0.0
  0
LINE
  5
3DA9
  8
2-0
  6
CONTINUOUS
 62
     3
 10
19407.126397499989
 20
18798.83051
 30
0.0
 11
19407.126397499989
 21
18793.824307999988
 31
0.0
  0
LINE
  5
3DAA
  8
2-0
  6
CONTINUOUS
 62
     3
 10
19414.123995499969
 20
18798.83051
 30
0.0
 11
19407.126397499989
 21
18798.83051
 31
0.0
  0
LINE
  5
3DAB
  8
2-0
  6
CONTINUOUS
 62
     3
 10
19414.123995499969
 20
18097.824572000001
 30
0.0
 11
19407.126397499989
 21
18097.824572000001
 31
0.0
  0
LINE
  5
3DAC
  8
2-0
  6
CONTINUOUS
 62
     3
 10
19407.126397499989
 20
18097.824572000001
 30
0.0
 11
19407.126397499989
 21
18092.836185
 31
0.0
  0
LINE
  5
3DAD
  8
2-0
  6
CONTINUOUS
 62
     3
 10
19407.126397499989
 20
18092.836185
 30
0.0
 11
19432.1197995
 21
18092.836185
 31
0.0
  0
LINE
  5
3DAE
  8
2-0
  6
CONTINUOUS
 62
     3
 10
19432.1197995
 20
18092.836185
 30
0.0
 11
19432.1197995
 21
18110.831988000002
 31
0.0
  0
LINE
  5
3DAF
  8
2-0
  6
CONTINUOUS
 62
     3
 10
19432.1197995
 20
18110.831988000002
 30
0.0
 11
19402.122174499978
 21
18110.831988000002
 31
0.0
  0
LINE
  5
3DB0
  8
2-0
  6
CONTINUOUS
 62
     3
 10
19432.1197995
 20
18094.734542999991
 30
0.0
 11
19432.1197995
 21
18100.730504999981
 31
0.0
  0
LINE
  5
3DB1
  8
2-0
  6
CONTINUOUS
 62
     3
 10
19432.1197995
 20
18100.730504999981
 30
0.0
 11
19402.122174499978
 21
18100.730504999981
 31
0.0
  0
LINE
  5
3DB2
  8
2-0
  6
CONTINUOUS
 62
     3
 10
19402.122174499978
 20
18100.730504999981
 30
0.0
 11
19402.122174499978
 21
18063.731323
 31
0.0
  0
LINE
  5
3DB3
  8
2-0
  6
CONTINUOUS
 62
     3
 10
19432.1197995
 20
18063.731323
 30
0.0
 11
19402.122174499978
 21
18063.731323
 31
0.0
  0
LINE
  5
3DB4
  8
2-0
  6
CONTINUOUS
 62
     3
 10
19432.1197995
 20
18069.733223999981
 30
0.0
 11
19432.1197995
 21
18063.731323
 31
0.0
  0
LINE
  5
3DB5
  8
2-0
  6
CONTINUOUS
 62
     3
 10
19432.1197995
 20
18053.641716999991
 30
0.0
 11
19402.122174499978
 21
18053.641716999991
 31
0.0
  0
LINE
  5
3DB6
  8
2-0
  6
CONTINUOUS
 62
     3
 10
19432.1197995
 20
18071.63752
 30
0.0
 11
19432.1197995
 21
18053.641716999991
 31
0.0
  0
LINE
  5
3DB7
  8
2-0
  6
CONTINUOUS
 62
     3
 10
19407.126397499989
 20
18071.63752
 30
0.0
 11
19432.1197995
 21
18071.63752
 31
0.0
  0
LINE
  5
3DB8
  8
2-0
  6
CONTINUOUS
 62
     3
 10
19407.126397499989
 20
18066.637256999998
 30
0.0
 11
19407.126397499989
 21
18071.63752
 31
0.0
  0
LINE
  5
3DB9
  8
2-0
  6
CONTINUOUS
 62
     3
 10
19414.123995499969
 20
18066.637256999998
 30
0.0
 11
19407.126397499989
 21
18066.637256999998
 31
0.0
  0
LINE
  5
3DBA
  8
2-0
  6
CONTINUOUS
 62
     3
 10
19405.008312499991
 20
17346.728143
 30
0.0
 11
19405.008312499991
 21
17366.72919799999
 31
0.0
  0
LINE
  5
3DBB
  8
2-0
  6
CONTINUOUS
 62
     3
 10
19405.008312499991
 20
17366.72919799999
 30
0.0
 11
19490.008840499991
 21
17366.72919799999
 31
0.0
  0
LINE
  5
3DBC
  8
2-0
  6
CONTINUOUS
 62
     3
 10
19414.123995499969
 20
17393.335908000001
 30
0.0
 11
19407.126397499989
 21
17393.335908000001
 31
0.0
  0
LINE
  5
3DBD
  8
2-0
  6
CONTINUOUS
 62
     3
 10
19407.126397499989
 20
17393.335908000001
 30
0.0
 11
19407.126397499989
 21
17388.341582000001
 31
0.0
  0
LINE
  5
3DBE
  8
2-0
  6
CONTINUOUS
 62
     3
 10
19407.126397499989
 20
17388.341582000001
 30
0.0
 11
19432.1197995
 21
17388.341582000001
 31
0.0
  0
LINE
  5
3DBF
  8
2-0
  6
CONTINUOUS
 62
     3
 10
19432.1197995
 20
17388.341582000001
 30
0.0
 11
19432.1197995
 21
17406.33738600001
 31
0.0
  0
LINE
  5
3DC0
  8
2-0
  6
CONTINUOUS
 62
     3
 10
19432.1197995
 20
17406.33738600001
 30
0.0
 11
19402.122174499978
 21
17406.33738600001
 31
0.0
  0
LINE
  5
3DC1
  8
2-0
  6
CONTINUOUS
 62
     3
 10
19432.1197995
 20
17396.728802000001
 30
0.0
 11
19432.1197995
 21
17390.726901999991
 31
0.0
  0
LINE
  5
3DC2
  8
2-0
  6
CONTINUOUS
 62
     3
 10
19402.122174499978
 20
17396.728802000001
 30
0.0
 11
19432.1197995
 21
17396.728802000001
 31
0.0
  0
LINE
  5
3DC3
  8
2-0
  6
CONTINUOUS
 62
     3
 10
19402.122174499978
 20
17406.33738600001
 30
0.0
 11
19402.122174499978
 21
18053.641716999991
 31
0.0
  0
LINE
  5
3DC4
  8
2-0
  6
CONTINUOUS
 62
     3
 10
19402.122174499978
 20
18110.831988000002
 30
0.0
 11
19402.122174499978
 21
18754.635778
 31
0.0
  0
LINE
  5
3DC5
  8
2-0
  6
CONTINUOUS
 62
     3
 10
19402.122174499978
 20
17251.72708700001
 30
0.0
 11
19432.1197995
 21
17251.72708700001
 31
0.0
  0
LINE
  5
3DC6
  8
2-0
  6
CONTINUOUS
 62
     3
 10
19432.1197995
 20
17251.72708700001
 30
0.0
 11
19432.1197995
 21
17257.728986999999
 31
0.0
  0
LINE
  5
3DC7
  8
2-0
  6
CONTINUOUS
 62
     3
 10
19490.008840499991
 20
17281.732629999991
 30
0.0
 11
19405.008312499991
 21
17281.732629999991
 31
0.0
  0
LINE
  5
3DC8
  8
2-0
  6
CONTINUOUS
 62
     3
 10
19405.008312499991
 20
17281.732629999991
 30
0.0
 11
19405.008312499991
 21
17301.727747000012
 31
0.0
  0
LINE
  5
3DC9
  8
2-0
  6
CONTINUOUS
 62
     3
 10
19432.1197995
 20
17242.118504000009
 30
0.0
 11
19402.122174499978
 21
17242.118504000009
 31
0.0
  0
LINE
  5
3DCA
  8
2-0
  6
CONTINUOUS
 62
     3
 10
19432.1197995
 20
17260.114306999982
 30
0.0
 11
19432.1197995
 21
17242.118504000009
 31
0.0
  0
LINE
  5
3DCB
  8
2-0
  6
CONTINUOUS
 62
     3
 10
19407.126397499989
 20
17260.114306999982
 30
0.0
 11
19432.1197995
 21
17260.114306999982
 31
0.0
  0
LINE
  5
3DCC
  8
2-0
  6
CONTINUOUS
 62
     3
 10
19407.126397499989
 20
17255.114043000009
 30
0.0
 11
19407.126397499989
 21
17260.114306999982
 31
0.0
  0
LINE
  5
3DCD
  8
2-0
  6
CONTINUOUS
 62
     3
 10
19414.123995499969
 20
17255.114043000009
 30
0.0
 11
19407.126397499989
 21
17255.114043000009
 31
0.0
  0
LINE
  5
3DCE
  8
2-0
  6
CONTINUOUS
 62
     3
 10
19414.123995499969
 20
16550.631812499989
 30
0.0
 11
19407.126397499989
 21
16550.631812499989
 31
0.0
  0
LINE
  5
3DCF
  8
2-0
  6
CONTINUOUS
 62
     3
 10
19407.126397499989
 20
16550.631812499989
 30
0.0
 11
19407.126397499989
 21
16555.632076499991
 31
0.0
  0
LINE
  5
3DD0
  8
2-0
  6
CONTINUOUS
 62
     3
 10
19407.126397499989
 20
16555.632076499991
 30
0.0
 11
19432.1197995
 21
16555.632076499991
 31
0.0
  0
LINE
  5
3DD1
  8
2-0
  6
CONTINUOUS
 62
     3
 10
19432.1197995
 20
16555.632076499991
 30
0.0
 11
19432.1197995
 21
16537.630334499991
 31
0.0
  0
LINE
  5
3DD2
  8
2-0
  6
CONTINUOUS
 62
     3
 10
19432.1197995
 20
16537.630334499991
 30
0.0
 11
19402.122174499978
 21
16537.630334499991
 31
0.0
  0
LINE
  5
3DD3
  8
2-0
  6
CONTINUOUS
 62
     3
 10
19432.1197995
 20
16553.727779500001
 30
0.0
 11
19432.1197995
 21
16547.7308285
 31
0.0
  0
LINE
  5
3DD4
  8
2-0
  6
CONTINUOUS
 62
     3
 10
19432.1197995
 20
16547.7308285
 30
0.0
 11
19402.122174499978
 21
16547.7308285
 31
0.0
  0
LINE
  5
3DD5
  8
2-0
  6
CONTINUOUS
 62
     3
 10
19402.122174499978
 20
16547.7308285
 30
0.0
 11
19402.122174499978
 21
16584.7309995
 31
0.0
  0
LINE
  5
3DD6
  8
2-0
  6
CONTINUOUS
 62
     3
 10
19432.1197995
 20
16584.7309995
 30
0.0
 11
19402.122174499978
 21
16584.7309995
 31
0.0
  0
LINE
  5
3DD7
  8
2-0
  6
CONTINUOUS
 62
     3
 10
19432.1197995
 20
16578.7281095
 30
0.0
 11
19432.1197995
 21
16584.7309995
 31
0.0
  0
LINE
  5
3DD8
  8
2-0
  6
CONTINUOUS
 62
     3
 10
19432.1197995
 20
16594.8265445
 30
0.0
 11
19402.122174499978
 21
16594.8265445
 31
0.0
  0
LINE
  5
3DD9
  8
2-0
  6
CONTINUOUS
 62
     3
 10
19432.1197995
 20
16576.818863500001
 30
0.0
 11
19432.1197995
 21
16594.8265445
 31
0.0
  0
LINE
  5
3DDA
  8
2-0
  6
CONTINUOUS
 62
     3
 10
19407.126397499989
 20
16576.818863500001
 30
0.0
 11
19432.1197995
 21
16576.818863500001
 31
0.0
  0
LINE
  5
3DDB
  8
2-0
  6
CONTINUOUS
 62
     3
 10
19407.126397499989
 20
16581.825066500001
 30
0.0
 11
19407.126397499989
 21
16576.818863500001
 31
0.0
  0
LINE
  5
3DDC
  8
2-0
  6
CONTINUOUS
 62
     3
 10
19414.123995499969
 20
16581.825066500001
 30
0.0
 11
19407.126397499989
 21
16581.825066500001
 31
0.0
  0
LINE
  5
3DDD
  8
2-0
  6
CONTINUOUS
 62
     3
 10
19414.123995499969
 20
15881.065083
 30
0.0
 11
19407.126397499989
 21
15881.065083
 31
0.0
  0
LINE
  5
3DDE
  8
2-0
  6
CONTINUOUS
 62
     3
 10
19407.126397499989
 20
15881.065083
 30
0.0
 11
19407.126397499989
 21
15876.070758000011
 31
0.0
  0
LINE
  5
3DDF
  8
2-0
  6
CONTINUOUS
 62
     3
 10
19407.126397499989
 20
15876.070758000011
 30
0.0
 11
19432.1197995
 21
15876.070758000011
 31
0.0
  0
LINE
  5
3DE0
  8
2-0
  6
CONTINUOUS
 62
     3
 10
19432.1197995
 20
15876.070758000011
 30
0.0
 11
19432.1197995
 21
15894.066561000011
 31
0.0
  0
LINE
  5
3DE1
  8
2-0
  6
CONTINUOUS
 62
     3
 10
19432.1197995
 20
15894.066561000011
 30
0.0
 11
19402.122174499978
 21
15894.066561000011
 31
0.0
  0
LINE
  5
3DE2
  8
2-0
  6
CONTINUOUS
 62
     3
 10
19432.1197995
 20
15877.969116
 30
0.0
 11
19432.1197995
 21
15883.97101600001
 31
0.0
  0
LINE
  5
3DE3
  8
2-0
  6
CONTINUOUS
 62
     3
 10
19432.1197995
 20
15883.97101600001
 30
0.0
 11
19402.122174499978
 21
15883.97101600001
 31
0.0
  0
LINE
  5
3DE4
  8
2-0
  6
CONTINUOUS
 62
     3
 10
19402.122174499978
 20
15846.971835
 30
0.0
 11
19402.122174499978
 21
15883.97101600001
 31
0.0
  0
LINE
  5
3DE5
  8
2-0
  6
CONTINUOUS
 62
     3
 10
19432.1197995
 20
15846.971835
 30
0.0
 11
19402.122174499978
 21
15846.971835
 31
0.0
  0
LINE
  5
3DE6
  8
2-0
  6
CONTINUOUS
 62
     3
 10
19432.1197995
 20
15852.968785999999
 30
0.0
 11
19432.1197995
 21
15846.971835
 31
0.0
  0
LINE
  5
3DE7
  8
2-0
  6
CONTINUOUS
 62
     3
 10
19432.1197995
 20
15836.870351
 30
0.0
 11
19402.122174499978
 21
15836.870351
 31
0.0
  0
LINE
  5
3DE8
  8
2-0
  6
CONTINUOUS
 62
     3
 10
19432.1197995
 20
15854.878032000001
 30
0.0
 11
19432.1197995
 21
15836.870351
 31
0.0
  0
LINE
  5
3DE9
  8
2-0
  6
CONTINUOUS
 62
     3
 10
19407.126397499989
 20
15854.878032000001
 30
0.0
 11
19432.1197995
 21
15854.878032000001
 31
0.0
  0
LINE
  5
3DEA
  8
2-0
  6
CONTINUOUS
 62
     3
 10
19407.126397499989
 20
15849.87776800002
 30
0.0
 11
19407.126397499989
 21
15854.878032000001
 31
0.0
  0
LINE
  5
3DEB
  8
2-0
  6
CONTINUOUS
 62
     3
 10
19414.123995499969
 20
15849.87776800002
 30
0.0
 11
19407.126397499989
 21
15849.87776800002
 31
0.0
  0
LINE
  5
3DEC
  8
2-0
  6
CONTINUOUS
 62
     3
 10
19402.122174499978
 20
17242.118504000009
 30
0.0
 11
19402.122174499978
 21
16594.8265445
 31
0.0
  0
LINE
  5
3DED
  8
2-0
  6
CONTINUOUS
 62
     3
 10
19402.122174499978
 20
17396.728802000001
 30
0.0
 11
19402.122174499978
 21
17251.72708700001
 31
0.0
  0
LINE
  5
3DEE
  8
2-0
  6
CONTINUOUS
 62
     3
 10
19490.008840499991
 20
17366.72919799999
 30
0.0
 11
19490.008840499991
 21
17281.732629999991
 31
0.0
  0
LINE
  5
3DEF
  8
2-0
  6
CONTINUOUS
 62
     3
 10
19414.123995499969
 20
15148.636761
 30
0.0
 11
19407.126397499989
 21
15148.636761
 31
0.0
  0
LINE
  5
3DF0
  8
2-0
  6
CONTINUOUS
 62
     3
 10
19407.126397499989
 20
15148.636761
 30
0.0
 11
19407.126397499989
 21
15153.631087000011
 31
0.0
  0
LINE
  5
3DF1
  8
2-0
  6
CONTINUOUS
 62
     3
 10
19407.126397499989
 20
15153.631087000011
 30
0.0
 11
19432.1197995
 21
15153.631087000011
 31
0.0
  0
LINE
  5
3DF2
  8
2-0
  6
CONTINUOUS
 62
     3
 10
19432.1197995
 20
15153.631087000011
 30
0.0
 11
19432.1197995
 21
15135.635283000011
 31
0.0
  0
LINE
  5
3DF3
  8
2-0
  6
CONTINUOUS
 62
     3
 10
19432.1197995
 20
15135.635283000011
 30
0.0
 11
19402.122174499978
 21
15135.635283000011
 31
0.0
  0
LINE
  5
3DF4
  8
2-0
  6
CONTINUOUS
 62
     3
 10
19432.1197995
 20
15151.73371800001
 30
0.0
 11
19432.1197995
 21
15145.730828000011
 31
0.0
  0
LINE
  5
3DF5
  8
2-0
  6
CONTINUOUS
 62
     3
 10
19432.1197995
 20
15145.730828000011
 30
0.0
 11
19402.122174499978
 21
15145.730828000011
 31
0.0
  0
LINE
  5
3DF6
  8
2-0
  6
CONTINUOUS
 62
     3
 10
19402.122174499978
 20
15145.730828000011
 30
0.0
 11
19402.122174499978
 21
15182.730999999991
 31
0.0
  0
LINE
  5
3DF7
  8
2-0
  6
CONTINUOUS
 62
     3
 10
19432.1197995
 20
15182.730999999991
 30
0.0
 11
19402.122174499978
 21
15182.730999999991
 31
0.0
  0
LINE
  5
3DF8
  8
2-0
  6
CONTINUOUS
 62
     3
 10
19432.1197995
 20
15176.734048
 30
0.0
 11
19432.1197995
 21
15182.730999999991
 31
0.0
  0
LINE
  5
3DF9
  8
2-0
  6
CONTINUOUS
 62
     3
 10
19432.1197995
 20
15192.831493000011
 30
0.0
 11
19402.122174499978
 21
15192.831493000011
 31
0.0
  0
LINE
  5
3DFA
  8
2-0
  6
CONTINUOUS
 62
     3
 10
19432.1197995
 20
15174.82480200001
 30
0.0
 11
19432.1197995
 21
15192.831493000011
 31
0.0
  0
LINE
  5
3DFB
  8
2-0
  6
CONTINUOUS
 62
     3
 10
19407.126397499989
 20
15174.82480200001
 30
0.0
 11
19432.1197995
 21
15174.82480200001
 31
0.0
  0
LINE
  5
3DFC
  8
2-0
  6
CONTINUOUS
 62
     3
 10
19407.126397499989
 20
15179.83001500001
 30
0.0
 11
19407.126397499989
 21
15174.82480200001
 31
0.0
  0
LINE
  5
3DFD
  8
2-0
  6
CONTINUOUS
 62
     3
 10
19414.123995499969
 20
15179.83001500001
 30
0.0
 11
19407.126397499989
 21
15179.83001500001
 31
0.0
  0
LINE
  5
3DFE
  8
2-0
  6
CONTINUOUS
 62
     3
 10
19432.1197995
 20
14472.732840999999
 30
0.0
 11
19432.1197995
 21
14478.737709999999
 31
0.0
  0
LINE
  5
3DFF
  8
2-0
  6
CONTINUOUS
 62
     3
 10
19432.1197995
 20
14478.737709999999
 30
0.0
 11
19402.122174499978
 21
14478.737709999999
 31
0.0
  0
LINE
  5
3E00
  8
2-0
  6
CONTINUOUS
 62
     3
 10
19402.122174499978
 20
14478.737709999999
 30
0.0
 11
19402.122174499978
 21
14363.733619000001
 31
0.0
  0
LINE
  5
3E01
  8
2-0
  6
CONTINUOUS
 62
     3
 10
19402.122174499978
 20
14363.733619000001
 30
0.0
 11
19487.120722499989
 21
14363.733619000001
 31
0.0
  0
LINE
  5
3E02
  8
2-0
  6
CONTINUOUS
 62
     3
 10
19487.120722499989
 20
14363.733619000001
 30
0.0
 11
19487.120722499989
 21
14448.729198000001
 31
0.0
  0
LINE
  5
3E03
  8
2-0
  6
CONTINUOUS
 62
     3
 10
19487.120722499989
 20
14448.729198000001
 30
0.0
 11
19455.123784499981
 21
14448.729198000001
 31
0.0
  0
LINE
  5
3E04
  8
2-0
  6
CONTINUOUS
 62
     3
 10
19414.123995499969
 20
14475.767443000001
 30
0.0
 11
19407.126397499989
 21
14475.767443000001
 31
0.0
  0
LINE
  5
3E05
  8
2-0
  6
CONTINUOUS
 62
     3
 10
19407.126397499989
 20
14475.767443000001
 30
0.0
 11
19407.126397499989
 21
14470.77014799998
 31
0.0
  0
LINE
  5
3E06
  8
2-0
  6
CONTINUOUS
 62
     3
 10
19407.126397499989
 20
14470.77014799998
 30
0.0
 11
19432.1197995
 21
14470.77014799998
 31
0.0
  0
LINE
  5
3E07
  8
2-0
  6
CONTINUOUS
 62
     3
 10
19432.1197995
 20
14470.77014799998
 30
0.0
 11
19432.1197995
 21
14488.768921000001
 31
0.0
  0
LINE
  5
3E08
  8
2-0
  6
CONTINUOUS
 62
     3
 10
19432.1197995
 20
14488.768921000001
 30
0.0
 11
19402.122174499978
 21
14488.768921000001
 31
0.0
  0
LINE
  5
3E09
  8
2-0
  6
CONTINUOUS
 62
     3
 10
19402.122174499978
 20
15192.831493000011
 30
0.0
 11
19402.122174499978
 21
15836.870351
 31
0.0
  0
LINE
  5
3E0A
  8
2-0
  6
CONTINUOUS
 62
     3
 10
19402.122174499978
 20
18811.82605
 30
0.0
 11
19402.122174499978
 21
19455.636767499989
 31
0.0
  0
LINE
  5
3E0B
  8
2-0
  6
CONTINUOUS
 62
     3
 10
19402.122174499978
 20
16537.630334499991
 30
0.0
 11
19402.122174499978
 21
15894.066561000011
 31
0.0
  0
LINE
  5
3E0C
  8
2-0
  6
CONTINUOUS
 62
     3
 10
26024.116763499991
 20
19819.23302600002
 30
0.0
 11
26024.116763499991
 21
19934.229199000009
 31
0.0
  0
LINE
  5
3E0D
  8
2-0
  6
CENTER2
 62
     6
 10
18115.1639025
 20
19891.730914
 30
0.0
 11
26874.11808349999
 21
19891.730914
 31
0.0
  0
LINE
  5
3E0E
  8
2-0
  6
CENTER2
 62
     6
 10
18115.1639025
 20
17324.230914
 30
0.0
 11
26874.11808349999
 21
17324.230914
 31
0.0
  0
LINE
  5
3E0F
  8
2-0
  6
CENTER2
 62
     6
 10
18115.1639025
 20
14406.230913999991
 30
0.0
 11
26874.11808349999
 21
14406.230913999991
 31
0.0
  0
LINE
  5
3E10
  8
2-0
  6
CONTINUOUS
 62
     3
 10
19867.710157499991
 20
19922.229357000011
 30
0.0
 11
19867.710157499991
 21
19929.234873000001
 31
0.0
  0
LINE
  5
3E11
  8
2-0
  6
CONTINUOUS
 62
     3
 10
19867.710157499991
 20
19929.234873000001
 30
0.0
 11
19862.709893499981
 21
19929.234873000001
 31
0.0
  0
LINE
  5
3E12
  8
2-0
  6
CONTINUOUS
 62
     3
 10
19862.709893499981
 20
19929.234873000001
 30
0.0
 11
19862.709893499981
 21
19904.22563600001
 31
0.0
  0
LINE
  5
3E13
  8
2-0
  6
CONTINUOUS
 62
     3
 10
19862.709893499981
 20
19904.22563600001
 30
0.0
 11
19880.7116355
 21
19904.22563600001
 31
0.0
  0
LINE
  5
3E14
  8
2-0
  6
CONTINUOUS
 62
     3
 10
19880.7116355
 20
19904.22563600001
 30
0.0
 11
19880.7116355
 21
19934.229199000009
 31
0.0
  0
LINE
  5
3E15
  8
2-0
  6
CONTINUOUS
 62
     3
 10
19864.612210499999
 20
19904.22563600001
 30
0.0
 11
19870.616090499982
 21
19904.22563600001
 31
0.0
  0
LINE
  5
3E16
  8
2-0
  6
CONTINUOUS
 62
     3
 10
19870.616090499982
 20
19904.22563600001
 30
0.0
 11
19870.616090499982
 21
19934.229199000009
 31
0.0
  0
LINE
  5
3E17
  8
2-0
  6
CONTINUOUS
 62
     3
 10
19833.62086849998
 20
19934.229199000009
 30
0.0
 11
19870.616090499982
 21
19934.229199000009
 31
0.0
  0
LINE
  5
3E18
  8
2-0
  6
CONTINUOUS
 62
     3
 10
19833.62086849998
 20
19904.22563600001
 30
0.0
 11
19833.62086849998
 21
19934.229199000009
 31
0.0
  0
LINE
  5
3E19
  8
2-0
  6
CONTINUOUS
 62
     3
 10
19839.614850499998
 20
19904.22563600001
 30
0.0
 11
19833.62086849998
 21
19904.22563600001
 31
0.0
  0
LINE
  5
3E1A
  8
2-0
  6
CONTINUOUS
 62
     3
 10
19823.525323499998
 20
19904.22563600001
 30
0.0
 11
19823.525323499998
 21
19934.229199000009
 31
0.0
  0
LINE
  5
3E1B
  8
2-0
  6
CONTINUOUS
 62
     3
 10
19841.5211265
 20
19904.22563600001
 30
0.0
 11
19823.525323499998
 21
19904.22563600001
 31
0.0
  0
LINE
  5
3E1C
  8
2-0
  6
CONTINUOUS
 62
     3
 10
19841.5211265
 20
19929.234873000001
 30
0.0
 11
19841.5211265
 21
19904.22563600001
 31
0.0
  0
LINE
  5
3E1D
  8
2-0
  6
CONTINUOUS
 62
     3
 10
19836.522842499991
 20
19929.234873000001
 30
0.0
 11
19841.5211265
 21
19929.234873000001
 31
0.0
  0
LINE
  5
3E1E
  8
2-0
  6
CONTINUOUS
 62
     3
 10
19836.522842499991
 20
19922.229357000011
 30
0.0
 11
19836.522842499991
 21
19929.234873000001
 31
0.0
  0
LINE
  5
3E1F
  8
2-0
  6
CONTINUOUS
 62
     3
 10
19527.423721499981
 20
19934.229199000009
 30
0.0
 11
19823.525323499998
 21
19934.229199000009
 31
0.0
  0
LINE
  5
3E20
  8
2-0
  6
CONTINUOUS
 62
     3
 10
19402.122174499978
 20
19849.23263000001
 30
0.0
 11
25943.114863499992
 21
19849.23263000001
 31
0.0
  0
LINE
  5
3E21
  8
2-0
  6
CONTINUOUS
 62
     3
 10
19402.122174499978
 20
14488.768921000001
 30
0.0
 11
19402.122174499978
 21
15135.635283000011
 31
0.0
  0
LINE
  5
3E22
  8
2-0
  6
CENTER2
 62
     6
 10
19444.61847949999
 20
21134.229199000009
 30
0.0
 11
19444.61847949999
 21
13780.467479999999
 31
0.0
  0
LINE
  5
3E23
  8
2-0
  6
CENTER2
 62
     6
 10
25981.61847949999
 20
21134.229199000009
 30
0.0
 11
25981.61847949999
 21
13780.467479999999
 31
0.0
  0
LINE
  5
3E24
  8
2-0
  6
CONTINUOUS
 62
     3
 10
26024.116763499991
 20
19808.935570000001
 30
0.0
 11
26024.116763499991
 21
19512.827039499982
 31
0.0
  0
LINE
  5
3E25
  8
2-0
  6
CONTINUOUS
 62
     3
 10
19402.122174499978
 20
19808.935570000001
 30
0.0
 11
19402.122174499978
 21
19512.827039499982
 31
0.0
  0
LINE
  5
3E26
  8
2-0
  6
CENTER2
 62
     6
 10
22713.118479499979
 20
21134.229199000009
 30
0.0
 11
22713.118479499979
 21
14214.82631299999
 31
0.0
  0
LINE
  5
3E27
  8
2-0
  6
CONTINUOUS
 62
     3
 10
19483.120115499991
 20
14448.729198000001
 30
0.0
 11
19483.120115499991
 21
19934.229199000009
 31
0.0
  0
LINE
  5
3E28
  8
2-0
  6
CONTINUOUS
 62
     3
 10
25943.114863499992
 20
14448.729198000001
 30
0.0
 11
25943.114863499992
 21
19934.229199000009
 31
0.0
  0
CIRCLE
  5
3E29
  8
2-0
  6
CONTINUOUS
 62
     4
 10
17915.166212499989
 20
19891.730914
 30
0.0
 40
200.00001
  0
CIRCLE
  5
3E2A
  8
2-0
  6
CONTINUOUS
 62
     4
 10
17915.166212499989
 20
17324.230914
 30
0.0
 40
200.00001
  0
CIRCLE
  5
3E2B
  8
2-0
  6
CONTINUOUS
 62
     4
 10
17915.166212499989
 20
14406.230913999991
 30
0.0
 40
200.00001
  0
CIRCLE
  5
3E2C
  8
2-0
  6
CONTINUOUS
 62
     4
 10
22713.118479499979
 20
21334.233818000012
 30
0.0
 40
200.00001
  0
CIRCLE
  5
3E2D
  8
2-0
  6
CONTINUOUS
 62
     4
 10
19444.61847949999
 20
21334.233818000012
 30
0.0
 40
200.00001
  0
TEXT
  5
3E2E
  8
2-0
  6
CONTINUOUS
 62
     7
 10
24378.463786499979
 20
13846.232035999999
 30
0.0
 40
160.0
  1
前柱（右）
 50
0.000213
 72
     4
 11
24794.463489092999
 21
13926.23358250079
 31
0.0
  0
TEXT
  5
3E2F
  8
2-0
  6
CONTINUOUS
 62
     7
 10
24583.058909499989
 20
16774.72405200003
 30
0.0
 40
160.0
  1
壁パネル
 50
359.99982299999999
 72
     4
 11
24945.72582330355
 21
16854.722931637891
 31
0.0
  0
TEXT
  5
3E30
  8
2-0
  6
CONTINUOUS
 62
     7
 10
24303.056005499981
 20
17611.911948000012
 30
0.0
 40
160.0
  1
中柱（左右）
 50
0.000354
 72
     4
 11
24820.388844546189
 21
17691.915144324659
 31
0.0
  0
TEXT
  5
3E31
  8
2-0
  6
CONTINUOUS
 62
     7
 10
24983.05824949998
 20
14819.273302
 30
0.0
 40
160.0
  1
下枠
 50
0.001063
 72
     4
 11
25153.723431909279
 21
14899.276468339291
 31
0.0
  0
TEXT
  5
3E32
  8
2-0
  6
CONTINUOUS
 62
     7
 10
24478.0236735
 20
19215.1806865
 30
0.0
 40
160.0
  1
間柱（側）
 72
     4
 11
24899.357006833328
 21
19295.1806865
 31
0.0
  0
TEXT
  5
3E33
  8
2-0
  6
CONTINUOUS
 62
     7
 10
26796.613992499992
 20
20744.228406999999
 30
0.0
 40
160.0
  1
後柱（左右）
 50
0.000354
 72
     4
 11
27308.61349821297
 21
20824.231570372842
 31
0.0
  0
TEXT
  5
3E34
  8
2-0
  6
CONTINUOUS
 62
     7
 10
23112.2072415
 20
14984.069213999979
 30
0.0
 40
160.0
  1
前柱（中）
 72
     4
 11
23528.2072415
 21
15064.069213999979
 31
0.0
  0
TEXT
  5
3E35
  8
2-0
  6
CONTINUOUS
 62
     7
 10
21548.987355500009
 20
19297.111246000011
 30
0.0
 40
160.0
  1
間柱（後）
 72
     4
 11
21970.320688833341
 21
19377.111246000011
 31
0.0
  0
TEXT
  5
3E36
  8
2-0
  6
CONTINUOUS
 62
     7
 10
22983.411844500009
 20
19365.855967000021
 30
0.0
 40
160.0
  1
後柱（中）
 72
     4
 11
23399.411844500009
 21
19445.855967000021
 31
0.0
  0
TEXT
  5
3E37
  8
2-0
  6
CONTINUOUS
 62
     7
 10
17867.166845499982
 20
19797.250472000022
 30
0.0
 40
160.0
  1
C
 72
     4
 11
17920.500178833321
 21
19877.250472000022
 31
0.0
  0
TEXT
  5
3E38
  8
2-0
  6
CONTINUOUS
 62
     7
 10
17867.387561499982
 20
17253.836832000019
 30
0.0
 40
160.0
  1
B
 72
     4
 11
17920.72089483331
 21
17333.836832000019
 31
0.0
  0
TEXT
  5
3E39
  8
2-0
  6
CONTINUOUS
 62
     7
 10
17867.430121500001
 20
14317.62370299999
 30
0.0
 40
160.0
  1
A
 72
     4
 11
17920.76345483333
 21
14397.62370299999
 31
0.0
  0
TEXT
  5
3E3A
  8
2-0
  6
CONTINUOUS
 62
     7
 10
22661.486696499989
 20
21238.708189000012
 30
0.0
 40
160.0
  1
2
 72
     4
 11
22714.820029833321
 21
21318.708189000012
 31
0.0
  0
TEXT
  5
3E3B
  8
2-0
  6
CONTINUOUS
 62
     7
 10
19400.411870499978
 20
21245.466266000029
 30
0.0
 40
160.0
  1
1
 72
     4
 11
19427.07853716665
 21
21325.466266000029
 31
0.0
  0
LINE
  5
3E3C
  8
2-0
  6
CONTINUOUS
 62
     3
 10
25242.11906049999
 20
19934.229199000009
 30
0.0
 11
25205.117898500001
 21
19934.229199000009
 31
0.0
  0
LINE
  5
3E3D
  8
2-0
  6
CONTINUOUS
 62
     3
 10
25242.11906049999
 20
19904.22563600001
 30
0.0
 11
25242.11906049999
 21
19934.229199000009
 31
0.0
  0
LINE
  5
3E3E
  8
2-0
  6
CONTINUOUS
 62
     3
 10
25236.119139499981
 20
19904.22563600001
 30
0.0
 11
25242.11906049999
 21
19904.22563600001
 31
0.0
  0
LINE
  5
3E3F
  8
2-0
  6
CONTINUOUS
 62
     3
 10
25252.216584499991
 20
19904.22563600001
 30
0.0
 11
25252.216584499991
 21
19934.229199000009
 31
0.0
  0
LINE
  5
3E40
  8
2-0
  6
CONTINUOUS
 62
     3
 10
25234.21286349999
 20
19904.22563600001
 30
0.0
 11
25252.216584499991
 21
19904.22563600001
 31
0.0
  0
LINE
  5
3E41
  8
2-0
  6
CONTINUOUS
 62
     3
 10
25234.21286349999
 20
19929.234873000001
 30
0.0
 11
25234.21286349999
 21
19904.22563600001
 31
0.0
  0
LINE
  5
3E42
  8
2-0
  6
CONTINUOUS
 62
     3
 10
25239.213127499988
 20
19929.234873000001
 30
0.0
 11
25234.21286349999
 21
19929.234873000001
 31
0.0
  0
LINE
  5
3E43
  8
2-0
  6
CONTINUOUS
 62
     3
 10
25239.213127499988
 20
19922.229357000011
 30
0.0
 11
25239.213127499988
 21
19929.234873000001
 31
0.0
  0
LINE
  5
3E44
  8
2-0
  6
CONTINUOUS
 62
     3
 10
25208.023832499981
 20
19922.229357000011
 30
0.0
 11
25208.023832499981
 21
19929.234873000001
 31
0.0
  0
LINE
  5
3E45
  8
2-0
  6
CONTINUOUS
 62
     3
 10
25208.023832499981
 20
19929.234873000001
 30
0.0
 11
25213.02409649999
 21
19929.234873000001
 31
0.0
  0
LINE
  5
3E46
  8
2-0
  6
CONTINUOUS
 62
     3
 10
25213.02409649999
 20
19929.234873000001
 30
0.0
 11
25213.02409649999
 21
19904.22563600001
 31
0.0
  0
LINE
  5
3E47
  8
2-0
  6
CONTINUOUS
 62
     3
 10
25213.02409649999
 20
19904.22563600001
 30
0.0
 11
25195.02433349999
 21
19904.22563600001
 31
0.0
  0
LINE
  5
3E48
  8
2-0
  6
CONTINUOUS
 62
     3
 10
25195.02433349999
 20
19904.22563600001
 30
0.0
 11
25195.02433349999
 21
19934.229199000009
 31
0.0
  0
LINE
  5
3E49
  8
2-0
  6
CONTINUOUS
 62
     3
 10
25211.117819499988
 20
19904.22563600001
 30
0.0
 11
25205.117898500001
 21
19904.22563600001
 31
0.0
  0
LINE
  5
3E4A
  8
2-0
  6
CONTINUOUS
 62
     3
 10
25205.117898500001
 20
19904.22563600001
 30
0.0
 11
25205.117898500001
 21
19934.229199000009
 31
0.0
  0
LINE
  5
3E4B
  8
2-0
  6
CONTINUOUS
 62
     3
 10
23837.208178000001
 20
19922.229357000011
 30
0.0
 11
23837.208178000001
 21
19929.234873000001
 31
0.0
  0
LINE
  5
3E4C
  8
2-0
  6
CONTINUOUS
 62
     3
 10
23837.208178000001
 20
19929.234873000001
 30
0.0
 11
23832.207913999991
 21
19929.234873000001
 31
0.0
  0
LINE
  5
3E4D
  8
2-0
  6
CONTINUOUS
 62
     3
 10
23832.207913999991
 20
19929.234873000001
 30
0.0
 11
23832.207913999991
 21
19904.22563600001
 31
0.0
  0
LINE
  5
3E4E
  8
2-0
  6
CONTINUOUS
 62
     3
 10
23832.207913999991
 20
19904.22563600001
 30
0.0
 11
23850.213614999979
 21
19904.22563600001
 31
0.0
  0
LINE
  5
3E4F
  8
2-0
  6
CONTINUOUS
 62
     3
 10
23850.213614999979
 20
19904.22563600001
 30
0.0
 11
23850.213614999979
 21
19934.229199000009
 31
0.0
  0
LINE
  5
3E50
  8
2-0
  6
CONTINUOUS
 62
     3
 10
23834.11616999999
 20
19904.22563600001
 30
0.0
 11
23840.11807
 21
19904.22563600001
 31
0.0
  0
LINE
  5
3E51
  8
2-0
  6
CONTINUOUS
 62
     3
 10
23840.11807
 20
19904.22563600001
 30
0.0
 11
23840.11807
 21
19934.229199000009
 31
0.0
  0
LINE
  5
3E52
  8
2-0
  6
CONTINUOUS
 62
     3
 10
23803.118888999968
 20
19934.229199000009
 30
0.0
 11
23840.11807
 21
19934.229199000009
 31
0.0
  0
LINE
  5
3E53
  8
2-0
  6
CONTINUOUS
 62
     3
 10
23803.118888999968
 20
19904.22563600001
 30
0.0
 11
23803.118888999968
 21
19934.229199000009
 31
0.0
  0
LINE
  5
3E54
  8
2-0
  6
CONTINUOUS
 62
     3
 10
23809.11287099999
 20
19904.22563600001
 30
0.0
 11
23803.118888999968
 21
19904.22563600001
 31
0.0
  0
LINE
  5
3E55
  8
2-0
  6
CONTINUOUS
 62
     3
 10
23793.02334399999
 20
19904.22563600001
 30
0.0
 11
23793.02334399999
 21
19934.229199000009
 31
0.0
  0
LINE
  5
3E56
  8
2-0
  6
CONTINUOUS
 62
     3
 10
23811.019146999992
 20
19904.22563600001
 30
0.0
 11
23793.02334399999
 21
19904.22563600001
 31
0.0
  0
LINE
  5
3E57
  8
2-0
  6
CONTINUOUS
 62
     3
 10
23811.019146999992
 20
19929.234873000001
 30
0.0
 11
23811.019146999992
 21
19904.22563600001
 31
0.0
  0
LINE
  5
3E58
  8
2-0
  6
CONTINUOUS
 62
     3
 10
23806.01888299999
 20
19929.234873000001
 30
0.0
 11
23811.019146999992
 21
19929.234873000001
 31
0.0
  0
LINE
  5
3E59
  8
2-0
  6
CONTINUOUS
 62
     3
 10
23806.01888299999
 20
19922.229357000011
 30
0.0
 11
23806.01888299999
 21
19929.234873000001
 31
0.0
  0
LINE
  5
3E5A
  8
2-0
  6
CONTINUOUS
 62
     3
 10
24507.01789399999
 20
19922.229357000011
 30
0.0
 11
24507.01789399999
 21
19929.234873000001
 31
0.0
  0
LINE
  5
3E5B
  8
2-0
  6
CONTINUOUS
 62
     3
 10
24507.01789399999
 20
19929.234873000001
 30
0.0
 11
24512.018156999991
 21
19929.234873000001
 31
0.0
  0
LINE
  5
3E5C
  8
2-0
  6
CONTINUOUS
 62
     3
 10
24512.018156999991
 20
19929.234873000001
 30
0.0
 11
24512.018156999991
 21
19904.22563600001
 31
0.0
  0
LINE
  5
3E5D
  8
2-0
  6
CONTINUOUS
 62
     3
 10
24512.018156999991
 20
19904.22563600001
 30
0.0
 11
24494.02433399998
 21
19904.22563600001
 31
0.0
  0
LINE
  5
3E5E
  8
2-0
  6
CONTINUOUS
 62
     3
 10
24494.02433399998
 20
19904.22563600001
 30
0.0
 11
24494.02433399998
 21
19934.229199000009
 31
0.0
  0
LINE
  5
3E5F
  8
2-0
  6
CONTINUOUS
 62
     3
 10
24510.115839999969
 20
19904.22563600001
 30
0.0
 11
24504.11789899999
 21
19904.22563600001
 31
0.0
  0
LINE
  5
3E60
  8
2-0
  6
CONTINUOUS
 62
     3
 10
24504.11789899999
 20
19904.22563600001
 30
0.0
 11
24504.11789899999
 21
19934.229199000009
 31
0.0
  0
LINE
  5
3E61
  8
2-0
  6
CONTINUOUS
 62
     3
 10
24541.11905999999
 20
19934.229199000009
 30
0.0
 11
24504.11789899999
 21
19934.229199000009
 31
0.0
  0
LINE
  5
3E62
  8
2-0
  6
CONTINUOUS
 62
     3
 10
24541.11905999999
 20
19904.22563600001
 30
0.0
 11
24541.11905999999
 21
19934.229199000009
 31
0.0
  0
LINE
  5
3E63
  8
2-0
  6
CONTINUOUS
 62
     3
 10
24535.113201
 20
19904.22563600001
 30
0.0
 11
24541.11905999999
 21
19904.22563600001
 31
0.0
  0
LINE
  5
3E64
  8
2-0
  6
CONTINUOUS
 62
     3
 10
24551.212625
 20
19904.22563600001
 30
0.0
 11
24551.212625
 21
19934.229199000009
 31
0.0
  0
LINE
  5
3E65
  8
2-0
  6
CONTINUOUS
 62
     3
 10
24533.216821999991
 20
19904.22563600001
 30
0.0
 11
24551.212625
 21
19904.22563600001
 31
0.0
  0
LINE
  5
3E66
  8
2-0
  6
CONTINUOUS
 62
     3
 10
24533.216821999991
 20
19929.234873000001
 30
0.0
 11
24533.216821999991
 21
19904.22563600001
 31
0.0
  0
LINE
  5
3E67
  8
2-0
  6
CONTINUOUS
 62
     3
 10
24538.207187999978
 20
19929.234873000001
 30
0.0
 11
24533.216821999991
 21
19929.234873000001
 31
0.0
  0
LINE
  5
3E68
  8
2-0
  6
CONTINUOUS
 62
     3
 10
24538.207187999978
 20
19922.229357000011
 30
0.0
 11
24538.207187999978
 21
19929.234873000001
 31
0.0
  0
LINE
  5
3E69
  8
2-0
  6
CONTINUOUS
 62
     3
 10
23850.213614999979
 20
19934.229199000009
 30
0.0
 11
24494.02433399998
 21
19934.229199000009
 31
0.0
  0
LINE
  5
3E6A
  8
2-0
  6
CONTINUOUS
 62
     3
 10
23149.417505500001
 20
19934.229199000009
 30
0.0
 11
23793.02334399999
 21
19934.229199000009
 31
0.0
  0
LINE
  5
3E6B
  8
2-0
  6
CONTINUOUS
 62
     3
 10
25899.50210949999
 20
19934.229199000009
 30
0.0
 11
25252.216584499991
 21
19934.229199000009
 31
0.0
  0
LINE
  5
3E6C
  8
2-0
  6
CONTINUOUS
 62
     3
 10
25195.02433349999
 20
19934.229199000009
 30
0.0
 11
24551.212625
 21
19934.229199000009
 31
0.0
  0
LINE
  5
3E6D
  8
2-0
  6
CONTINUOUS
 62
     3
 10
23136.210157500002
 20
19922.229357000011
 30
0.0
 11
23136.210157500002
 21
19929.234873000001
 31
0.0
  0
LINE
  5
3E6E
  8
2-0
  6
CONTINUOUS
 62
     3
 10
23136.210157500002
 20
19929.234873000001
 30
0.0
 11
23131.209893499981
 21
19929.234873000001
 31
0.0
  0
LINE
  5
3E6F
  8
2-0
  6
CONTINUOUS
 62
     3
 10
23131.209893499981
 20
19929.234873000001
 30
0.0
 11
23131.209893499981
 21
19904.22563600001
 31
0.0
  0
LINE
  5
3E70
  8
2-0
  6
CONTINUOUS
 62
     3
 10
23131.209893499981
 20
19904.22563600001
 30
0.0
 11
23149.211635500011
 21
19904.22563600001
 31
0.0
  0
LINE
  5
3E71
  8
2-0
  6
CONTINUOUS
 62
     3
 10
23149.211635500011
 20
19904.22563600001
 30
0.0
 11
23149.211635500011
 21
19934.229199000009
 31
0.0
  0
LINE
  5
3E72
  8
2-0
  6
CONTINUOUS
 62
     3
 10
23133.11221050001
 20
19904.22563600001
 30
0.0
 11
23139.116090499982
 21
19904.22563600001
 31
0.0
  0
LINE
  5
3E73
  8
2-0
  6
CONTINUOUS
 62
     3
 10
23139.116090499982
 20
19904.22563600001
 30
0.0
 11
23139.116090499982
 21
19934.229199000009
 31
0.0
  0
LINE
  5
3E74
  8
2-0
  6
CONTINUOUS
 62
     3
 10
23102.120868499991
 20
19934.229199000009
 30
0.0
 11
23139.116090499982
 21
19934.229199000009
 31
0.0
  0
LINE
  5
3E75
  8
2-0
  6
CONTINUOUS
 62
     3
 10
23102.120868499991
 20
19904.22563600001
 30
0.0
 11
23102.120868499991
 21
19934.229199000009
 31
0.0
  0
LINE
  5
3E76
  8
2-0
  6
CONTINUOUS
 62
     3
 10
23108.114850499991
 20
19904.22563600001
 30
0.0
 11
23102.120868499991
 21
19904.22563600001
 31
0.0
  0
LINE
  5
3E77
  8
2-0
  6
CONTINUOUS
 62
     3
 10
23092.025323499998
 20
19904.22563600001
 30
0.0
 11
23092.025323499998
 21
19934.229199000009
 31
0.0
  0
LINE
  5
3E78
  8
2-0
  6
CONTINUOUS
 62
     3
 10
23110.021126500011
 20
19904.22563600001
 30
0.0
 11
23092.025323499998
 21
19904.22563600001
 31
0.0
  0
LINE
  5
3E79
  8
2-0
  6
CONTINUOUS
 62
     3
 10
23110.021126500011
 20
19929.234873000001
 30
0.0
 11
23110.021126500011
 21
19904.22563600001
 31
0.0
  0
LINE
  5
3E7A
  8
2-0
  6
CONTINUOUS
 62
     3
 10
23105.022842499999
 20
19929.234873000001
 30
0.0
 11
23110.021126500011
 21
19929.234873000001
 31
0.0
  0
LINE
  5
3E7B
  8
2-0
  6
CONTINUOUS
 62
     3
 10
23105.022842499999
 20
19922.229357000011
 30
0.0
 11
23105.022842499999
 21
19929.234873000001
 31
0.0
  0
LINE
  5
3E7C
  8
2-0
  6
CONTINUOUS
 62
     3
 10
22795.923721499981
 20
19934.229199000009
 30
0.0
 11
23092.025323499998
 21
19934.229199000009
 31
0.0
  0
LINE
  5
3E7D
  8
2-0
  6
CONTINUOUS
 62
     3
 10
22631.690982500011
 20
19934.229199000009
 30
0.0
 11
21983.716584499991
 21
19934.229199000009
 31
0.0
  0
LINE
  5
3E7E
  8
2-0
  6
CONTINUOUS
 62
     3
 10
26024.116763499991
 20
15836.870351
 30
0.0
 11
26024.116763499991
 21
15192.831493000011
 31
0.0
  0
LINE
  5
3E7F
  8
2-0
  6
CONTINUOUS
 62
     3
 10
26024.116763499991
 20
15135.635283
 30
0.0
 11
26024.116763499991
 21
14488.768921000001
 31
0.0
  0
CIRCLE
  5
3E80
  8
2-0
  6
CONTINUOUS
 62
     4
 10
25981.61847949999
 20
21334.233818000012
 30
0.0
 40
200.00001
  0
TEXT
  5
3E81
  8
2-0
  6
CONTINUOUS
 62
     7
 10
25929.986696499989
 20
21238.708189000012
 30
0.0
 40
160.0
  1
3
 72
     4
 11
25983.320029833321
 21
21318.708189000012
 31
0.0
  0
LINE
  5
3E82
  8
SUNPOU
  6
CONTINUOUS
 10
7509.1596144999912
 20
20114.226823000001
 30
0.0
 11
7509.1596144999912
 21
20911.19409077847
 31
0.0
  0
LINE
  5
3E83
  8
SUNPOU
  6
CONTINUOUS
 10
7509.1596144999912
 20
14213.735599
 30
0.0
 11
7509.1596144999912
 21
13538.30948318962
 31
0.0
  0
LINE
  5
3E86
  8
WAKUSEN-01
 10
868.00000000000193
 20
22484.000000000011
 30
0.0
 11
32764.000000000011
 21
22484.000000000011
 31
0.0
  0
LINE
  5
3E89
  8
WAKUSEN-01
 10
20560.0
 20
2484.0
 30
0.0
 11
32764.0
 21
2484.0
 31
0.0
  0
LINE
  5
3E8A
  8
WAKUSEN-02
 10
20560.0
 20
1655.9999999999991
 30
0.0
 11
26868.0
 21
1655.9999999999991
 31
0.0
  0
TEXT
  5
3E8B
  8
WAKUMOJI-01
 10
20670.260259962761
 20
2125.9030093393221
 30
0.0
 40
240.0
  1
名　称
  7
WAKUMOJI
  0
TEXT
  5
3E8C
  8
WAKUMOJI-01
 10
20656.505485091919
 20
1319.12897497982
 30
0.0
 40
240.0
  1
機種名
  7
WAKUMOJI
  0
LINE
  5
3E8F
  8
YODOROGO
 10
29977.604341291921
 20
1995.7494964292871
 30
0.0
 11
29829.604341291921
 21
1995.7494964292871
 31
0.0
1001
AUTOCAD_POSTSCRIPT_FIGURE
1002
{
1000
PSFILL
1000
Grayscale
1000
Grayscale
1070
    25
1002
}
  0
LINE
  5
3E90
  8
YODOROGO
 10
29829.604341291921
 20
1947.749496429288
 30
0.0
 11
29977.604341291921
 21
1947.749496429288
 31
0.0
1001
AUTOCAD_POSTSCRIPT_FIGURE
1002
{
1000
PSFILL
1000
Grayscale
1000
Grayscale
1070
    25
1002
}
  0
LINE
  5
3E91
  8
YODOROGO
 10
29977.604341291921
 20
1907.7494964292871
 30
0.0
 11
29829.604341291921
 21
1907.7494964292871
 31
0.0
1001
AUTOCAD_POSTSCRIPT_FIGURE
1002
{
1000
PSFILL
1000
Grayscale
1000
Grayscale
1070
    25
1002
}
  0
LINE
  5
3E92
  8
YODOROGO
 10
29829.604341291921
 20
1859.749496429288
 30
0.0
 11
29977.604341291921
 21
1859.749496429288
 31
0.0
1001
AUTOCAD_POSTSCRIPT_FIGURE
1002
{
1000
PSFILL
1000
Grayscale
1000
Grayscale
1070
    25
1002
}
  0
LINE
  5
3E93
  8
YODOROGO
 10
29977.604341291921
 20
1819.7494964292871
 30
0.0
 11
29829.604341291921
 21
1819.7494964292871
 31
0.0
1001
AUTOCAD_POSTSCRIPT_FIGURE
1002
{
1000
PSFILL
1000
Grayscale
1000
Grayscale
1070
    25
1002
}
  0
LINE
  5
3E94
  8
YODOROGO
 10
29921.60434129191
 20
1707.749496429288
 30
0.0
 11
29977.604341291921
 21
1707.749496429288
 31
0.0
1001
AUTOCAD_POSTSCRIPT_FIGURE
1002
{
1000
PSFILL
1000
Grayscale
1000
Grayscale
1070
    25
1002
}
  0
LINE
  5
3E95
  8
YODOROGO
 10
29737.604341291921
 20
1427.749496429288
 30
0.0
 11
29937.604341291932
 21
1481.3393349155101
 31
0.0
  0
LINE
  5
3E96
  8
YODOROGO
 10
29949.60434129191
 20
1707.749496429288
 30
0.0
 11
29885.604341291921
 21
1707.749496429288
 31
0.0
  0
ARC
  5
3E97
  8
YODOROGO
 10
30254.34774982791
 20
1807.864609233261
 30
0.0
 40
381.88686420564721
 50
213.96111677667841
 51
264.47872074317792
  0
ARC
  5
3E98
  8
YODOROGO
 10
30254.347749827921
 20
1807.864609233302
 30
0.0
 40
381.8868642056816
 50
208.14114420486601
 51
212.9210361185994
  0
LINE
  5
3E99
  8
YODOROGO
 10
29771.409872985321
 20
1556.807661346234
 30
0.0
 11
29933.78413250855
 21
1600.3157130570869
 31
0.0
  0
LINE
  5
3E9A
  8
YODOROGO
 10
29737.604341291921
 20
1427.749496429288
 30
0.0
 11
29937.604341291932
 21
1481.3393349155101
 31
0.0
  0
LINE
  5
3E9B
  8
YODOROGO
 10
29949.60434129191
 20
1707.749496429288
 30
0.0
 11
29885.604341291921
 21
1707.749496429288
 31
0.0
  0
ARC
  5
3E9C
  8
YODOROGO
 10
30254.34774982791
 20
1807.864609233261
 30
0.0
 40
381.88686420564721
 50
213.96111677667841
 51
264.47872074317792
  0
LINE
  5
3E9D
  8
YODOROGO
 10
28793.60434129191
 20
1819.7494964292871
 30
0.0
 11
28433.60434129191
 21
1819.7494964292871
 31
0.0
  0
LINE
  5
3E9E
  8
YODOROGO
 10
28513.60434129191
 20
1427.749496429288
 30
0.0
 11
28793.60434129191
 21
1427.749496429288
 31
0.0
  0
LINE
  5
3E9F
  8
YODOROGO
 10
28729.604341291921
 20
1923.7494964292871
 30
0.0
 11
28497.60434129191
 21
1923.7494964292871
 31
0.0
  0
LINE
  5
3EA0
  8
YODOROGO
 10
28585.604341291921
 20
2027.749496429288
 30
0.0
 11
28657.604341291921
 21
2027.749496429288
 31
0.0
  0
LINE
  5
3EA1
  8
YODOROGO
 10
28433.60434129191
 20
1707.749496429288
 30
0.0
 11
28433.60434129191
 21
1507.749496429288
 31
0.0
  0
LINE
  5
3EA2
  8
YODOROGO
 10
28497.60434129191
 20
1563.7494964292871
 30
0.0
 11
28497.60434129191
 21
1707.749496429288
 31
0.0
  0
LINE
  5
3EA3
  8
YODOROGO
 10
28585.604341291921
 20
1747.74949642929
 30
0.0
 11
28585.604341291921
 21
1547.749496429288
 31
0.0
  0
LINE
  5
3EA4
  8
YODOROGO
 10
27857.604341291921
 20
1683.749496429288
 30
0.0
 11
27777.604341291921
 21
1619.9724140445701
 31
0.0
  0
LINE
  5
3EA5
  8
YODOROGO
 10
27937.604341291921
 20
1619.9724140445701
 30
0.0
 11
27857.604341291921
 21
1683.749496429288
 31
0.0
  0
LINE
  5
3EA6
  8
YODOROGO
 10
27857.604341291921
 20
1707.749496429288
 30
0.0
 11
27937.604341291921
 21
1643.9724140445701
 31
0.0
  0
LINE
  5
3EA7
  8
YODOROGO
 10
27777.604341291921
 20
1643.9724140445701
 30
0.0
 11
27857.604341291921
 21
1707.749496429288
 31
0.0
  0
LINE
  5
3EA8
  8
YODOROGO
 10
28040.913204016892
 20
1659.749496429288
 30
0.0
 11
28040.913204016892
 21
1683.7494964292871
 31
0.0
  0
LINE
  5
3EA9
  8
YODOROGO
 10
27977.604341291921
 20
1683.7494964292871
 30
0.0
 11
27977.604341291921
 21
1667.749496429285
 31
0.0
  0
LINE
  5
3EAA
  8
YODOROGO
 10
28098.135520230931
 20
1707.749496429288
 30
0.0
 11
28098.135520230931
 21
1655.5036372746561
 31
0.0
1001
AUTOCAD_POSTSCRIPT_FIGURE
1002
{
1000
PSFILL
1000
Grayscale
1000
Grayscale
1070
   100
1002
}
  0
LINE
  5
3EAB
  8
YODOROGO
 10
28082.135520230921
 20
1655.5036372746561
 30
0.0
 11
28082.135520230921
 21
1707.749496429288
 31
0.0
1001
AUTOCAD_POSTSCRIPT_FIGURE
1002
{
1000
PSFILL
1000
Grayscale
1000
Grayscale
1070
   100
1002
}
  0
LINE
  5
3EAC
  8
YODOROGO
 10
27809.604341291921
 20
1608.771904043258
 30
0.0
 11
27809.604341291921
 21
1632.771904043258
 31
0.0
  0
LINE
  5
3EAD
  8
YODOROGO
 10
27905.604341291921
 20
1608.771904043258
 30
0.0
 11
27809.604341291921
 21
1608.771904043258
 31
0.0
  0
LINE
  5
3EAE
  8
YODOROGO
 10
27905.604341291921
 20
1632.771904043258
 30
0.0
 11
27905.604341291921
 21
1608.771904043258
 31
0.0
  0
LINE
  5
3EAF
  8
YODOROGO
 10
27809.604341291921
 20
1632.771904043258
 30
0.0
 11
27905.604341291921
 21
1632.771904043258
 31
0.0
  0
LINE
  5
3EB0
  8
YODOROGO
 10
27824.509588915738
 20
1568.5028573704751
 30
0.0
 11
27785.604341291921
 21
1475.7494964292871
 31
0.0
1001
AUTOCAD_POSTSCRIPT_FIGURE
1002
{
1000
PSFILL
1000
Grayscale
1000
Grayscale
1070
   100
1002
}
  0
LINE
  5
3EB1
  8
YODOROGO
 10
27777.604341291921
 20
1568.5028573704751
 30
0.0
 11
27824.509588915738
 21
1568.5028573704751
 31
0.0
1001
AUTOCAD_POSTSCRIPT_FIGURE
1002
{
1000
PSFILL
1000
Grayscale
1000
Grayscale
1070
   100
1002
}
  0
LINE
  5
3EB2
  8
YODOROGO
 10
27777.604341291921
 20
1588.5028573704751
 30
0.0
 11
27777.604341291921
 21
1568.5028573704751
 31
0.0
1001
AUTOCAD_POSTSCRIPT_FIGURE
1002
{
1000
PSFILL
1000
Grayscale
1000
Grayscale
1070
   100
1002
}
  0
LINE
  5
3EB3
  8
YODOROGO
 10
27937.604341291921
 20
1588.5028573704751
 30
0.0
 11
27777.604341291921
 21
1588.5028573704751
 31
0.0
1001
AUTOCAD_POSTSCRIPT_FIGURE
1002
{
1000
PSFILL
1000
Grayscale
1000
Grayscale
1070
   100
1002
}
  0
LINE
  5
3EB4
  8
YODOROGO
 10
27937.604341291921
 20
1568.5028573704751
 30
0.0
 11
27937.604341291921
 21
1588.5028573704751
 31
0.0
1001
AUTOCAD_POSTSCRIPT_FIGURE
1002
{
1000
PSFILL
1000
Grayscale
1000
Grayscale
1070
   100
1002
}
  0
LINE
  5
3EB5
  8
YODOROGO
 10
27844.509588915738
 20
1568.5028573704751
 30
0.0
 11
27937.604341291921
 21
1568.5028573704751
 31
0.0
1001
AUTOCAD_POSTSCRIPT_FIGURE
1002
{
1000
PSFILL
1000
Grayscale
1000
Grayscale
1070
   100
1002
}
  0
LINE
  5
3EB6
  8
YODOROGO
 10
27815.546718284771
 20
1495.7494964292871
 30
0.0
 11
27844.509588915738
 21
1568.5028573704751
 31
0.0
1001
AUTOCAD_POSTSCRIPT_FIGURE
1002
{
1000
PSFILL
1000
Grayscale
1000
Grayscale
1070
   100
1002
}
  0
LINE
  5
3EB7
  8
YODOROGO
 10
27902.054790808648
 20
1495.7494964292871
 30
0.0
 11
27815.546718284771
 21
1495.7494964292871
 31
0.0
1001
AUTOCAD_POSTSCRIPT_FIGURE
1002
{
1000
PSFILL
1000
Grayscale
1000
Grayscale
1070
   100
1002
}
  0
LINE
  5
3EB8
  8
YODOROGO
 10
27885.065004790951
 20
1536.2338106976929
 30
0.0
 11
27902.054790808648
 21
1495.7494964292871
 31
0.0
1001
AUTOCAD_POSTSCRIPT_FIGURE
1002
{
1000
PSFILL
1000
Grayscale
1000
Grayscale
1070
   100
1002
}
  0
LINE
  5
3EB9
  8
YODOROGO
 10
27901.065004790951
 20
1536.2338106976929
 30
0.0
 11
27885.065004790951
 21
1536.2338106976929
 31
0.0
1001
AUTOCAD_POSTSCRIPT_FIGURE
1002
{
1000
PSFILL
1000
Grayscale
1000
Grayscale
1070
   100
1002
}
  0
LINE
  5
3EBA
  8
YODOROGO
 10
27929.604341291921
 20
1475.7494964292871
 30
0.0
 11
27901.065004790951
 21
1536.2338106976929
 31
0.0
1001
AUTOCAD_POSTSCRIPT_FIGURE
1002
{
1000
PSFILL
1000
Grayscale
1000
Grayscale
1070
   100
1002
}
  0
LINE
  5
3EBB
  8
YODOROGO
 10
27785.604341291921
 20
1475.7494964292871
 30
0.0
 11
27929.604341291921
 21
1475.7494964292871
 31
0.0
1001
AUTOCAD_POSTSCRIPT_FIGURE
1002
{
1000
PSFILL
1000
Grayscale
1000
Grayscale
1070
   100
1002
}
  0
LINE
  5
3EBC
  8
YODOROGO
 10
27777.604341291921
 20
1619.9724140445701
 30
0.0
 11
27777.604341291921
 21
1643.9724140445701
 31
0.0
  0
LINE
  5
3EBD
  8
YODOROGO
 10
27937.604341291921
 20
1643.9724140445701
 30
0.0
 11
27937.604341291921
 21
1619.9724140445701
 31
0.0
  0
ARC
  5
3EBE
  8
YODOROGO
 10
28225.940442146959
 20
1600.877765325326
 30
0.0
 40
175.9999999999998
 50
280.3644312771313
 51
3.5414836592180561
  0
ARC
  5
3EBF
  8
YODOROGO
 10
28235.756030759301
 20
1633.5978069619041
 30
0.0
 40
111.9999999999982
 50
281.24905825041549
 51
348.75094174958321
  0
LINE
  5
3EC0
  8
YODOROGO
 10
28257.604341291921
 20
1523.7494964292871
 30
0.0
 11
28257.604341291921
 21
1427.749496429288
 31
0.0
  0
LINE
  5
3EC1
  8
YODOROGO
 10
28020.088903736909
 20
1610.650565061914
 30
0.0
 11
28040.913204016892
 21
1659.749496429288
 31
0.0
  0
LINE
  5
3EC2
  8
YODOROGO
 10
28041.604341291921
 20
1583.120489948401
 30
0.0
 11
28020.088903736909
 21
1610.650565061914
 31
0.0
  0
LINE
  5
3EC3
  8
YODOROGO
 10
28041.604341291921
 20
1563.120489948398
 30
0.0
 11
28041.604341291921
 21
1583.120489948401
 31
0.0
  0
LINE
  5
3EC4
  8
YODOROGO
 10
28017.604341291921
 20
1585.2370637495301
 30
0.0
 11
28041.604341291921
 21
1563.120489948398
 31
0.0
  0
LINE
  5
3EC5
  8
YODOROGO
 10
28017.604341291921
 20
1475.7494964292871
 30
0.0
 11
28017.604341291921
 21
1585.2370637495301
 31
0.0
  0
LINE
  5
3EC6
  8
YODOROGO
 10
28001.604341291921
 20
1475.7494964292871
 30
0.0
 11
28017.604341291921
 21
1475.7494964292871
 31
0.0
  0
LINE
  5
3EC7
  8
YODOROGO
 10
28001.604341291921
 20
1580.0053496897469
 30
0.0
 11
28001.604341291921
 21
1475.7494964292871
 31
0.0
  0
LINE
  5
3EC8
  8
YODOROGO
 10
27977.604341291921
 20
1532.7680790334291
 30
0.0
 11
28001.604341291921
 21
1580.0053496897469
 31
0.0
  0
LINE
  5
3EC9
  8
YODOROGO
 10
27977.604341291921
 20
1556.76807903343
 30
0.0
 11
27977.604341291921
 21
1532.7680790334291
 31
0.0
  0
LINE
  5
3ECA
  8
YODOROGO
 10
28025.828774291349
 20
1667.749496429285
 30
0.0
 11
27977.604341291921
 21
1556.76807903343
 31
0.0
  0
LINE
  5
3ECB
  8
YODOROGO
 10
27977.604341291921
 20
1667.749496429285
 30
0.0
 11
28025.828774291349
 21
1667.749496429285
 31
0.0
  0
LINE
  5
3ECC
  8
YODOROGO
 10
28050.135520230899
 20
1655.5036372746561
 30
0.0
 11
28082.135520230921
 21
1655.5036372746561
 31
0.0
1001
AUTOCAD_POSTSCRIPT_FIGURE
1002
{
1000
PSFILL
1000
Grayscale
1000
Grayscale
1070
   100
1002
}
  0
LINE
  5
3ECD
  8
YODOROGO
 10
28050.135520230899
 20
1631.5036372746561
 30
0.0
 11
28050.135520230899
 21
1655.5036372746561
 31
0.0
1001
AUTOCAD_POSTSCRIPT_FIGURE
1002
{
1000
PSFILL
1000
Grayscale
1000
Grayscale
1070
   100
1002
}
  0
LINE
  5
3ECE
  8
YODOROGO
 10
28082.135520230921
 20
1631.5036372746561
 30
0.0
 11
28050.135520230899
 21
1631.5036372746561
 31
0.0
1001
AUTOCAD_POSTSCRIPT_FIGURE
1002
{
1000
PSFILL
1000
Grayscale
1000
Grayscale
1070
   100
1002
}
  0
LINE
  5
3ECF
  8
YODOROGO
 10
28082.135520230921
 20
1499.749496429288
 30
0.0
 11
28082.135520230921
 21
1631.5036372746561
 31
0.0
1001
AUTOCAD_POSTSCRIPT_FIGURE
1002
{
1000
PSFILL
1000
Grayscale
1000
Grayscale
1070
   100
1002
}
  0
LINE
  5
3ED0
  8
YODOROGO
 10
28050.135520230921
 20
1499.749496429288
 30
0.0
 11
28082.135520230921
 21
1499.749496429288
 31
0.0
1001
AUTOCAD_POSTSCRIPT_FIGURE
1002
{
1000
PSFILL
1000
Grayscale
1000
Grayscale
1070
   100
1002
}
  0
LINE
  5
3ED1
  8
YODOROGO
 10
28050.135520230921
 20
1475.7494964292871
 30
0.0
 11
28050.135520230921
 21
1499.749496429288
 31
0.0
1001
AUTOCAD_POSTSCRIPT_FIGURE
1002
{
1000
PSFILL
1000
Grayscale
1000
Grayscale
1070
   100
1002
}
  0
LINE
  5
3ED2
  8
YODOROGO
 10
28137.604341291921
 20
1475.7494964292871
 30
0.0
 11
28050.135520230921
 21
1475.7494964292871
 31
0.0
1001
AUTOCAD_POSTSCRIPT_FIGURE
1002
{
1000
PSFILL
1000
Grayscale
1000
Grayscale
1070
   100
1002
}
  0
LINE
  5
3ED3
  8
YODOROGO
 10
28137.604341291921
 20
1499.749496429288
 30
0.0
 11
28137.604341291921
 21
1475.7494964292871
 31
0.0
1001
AUTOCAD_POSTSCRIPT_FIGURE
1002
{
1000
PSFILL
1000
Grayscale
1000
Grayscale
1070
   100
1002
}
  0
LINE
  5
3ED4
  8
YODOROGO
 10
28098.135520230931
 20
1499.749496429288
 30
0.0
 11
28137.604341291921
 21
1499.749496429288
 31
0.0
1001
AUTOCAD_POSTSCRIPT_FIGURE
1002
{
1000
PSFILL
1000
Grayscale
1000
Grayscale
1070
   100
1002
}
  0
LINE
  5
3ED5
  8
YODOROGO
 10
28098.135520230931
 20
1631.5036372746561
 30
0.0
 11
28098.135520230931
 21
1499.749496429288
 31
0.0
1001
AUTOCAD_POSTSCRIPT_FIGURE
1002
{
1000
PSFILL
1000
Grayscale
1000
Grayscale
1070
   100
1002
}
  0
LINE
  5
3ED6
  8
YODOROGO
 10
28137.604341291921
 20
1631.5036372746561
 30
0.0
 11
28098.135520230931
 21
1631.5036372746561
 31
0.0
1001
AUTOCAD_POSTSCRIPT_FIGURE
1002
{
1000
PSFILL
1000
Grayscale
1000
Grayscale
1070
   100
1002
}
  0
LINE
  5
3ED7
  8
YODOROGO
 10
28137.604341291921
 20
1655.5036372746561
 30
0.0
 11
28137.604341291921
 21
1631.5036372746561
 31
0.0
1001
AUTOCAD_POSTSCRIPT_FIGURE
1002
{
1000
PSFILL
1000
Grayscale
1000
Grayscale
1070
   100
1002
}
  0
LINE
  5
3ED8
  8
YODOROGO
 10
28098.135520230931
 20
1655.5036372746561
 30
0.0
 11
28137.604341291921
 21
1655.5036372746561
 31
0.0
1001
AUTOCAD_POSTSCRIPT_FIGURE
1002
{
1000
PSFILL
1000
Grayscale
1000
Grayscale
1070
   100
1002
}
  0
LINE
  5
3ED9
  8
YODOROGO
 10
28401.60434129191
 20
1667.749496429288
 30
0.0
 11
28345.604341291921
 21
1667.749496429288
 31
0.0
  0
LINE
  5
3EDA
  8
YODOROGO
 10
28401.60434129191
 20
1611.749496429288
 30
0.0
 11
28401.60434129191
 21
1667.749496429288
 31
0.0
  0
LINE
  5
3EDB
  8
YODOROGO
 10
28345.604341291921
 20
1667.749496429288
 30
0.0
 11
28345.604341291921
 21
1611.749496429288
 31
0.0
  0
ARC
  5
3EDC
  8
YODOROGO
 10
28513.60434129191
 20
1507.749496429288
 30
0.0
 40
80.0
 50
180.0
 51
270.0
  0
ARC
  5
3EDD
  8
YODOROGO
 10
28537.604341291921
 20
1563.7494964292871
 30
0.0
 40
40.0
 50
180.0
 51
270.0
  0
LINE
  5
3EDE
  8
YODOROGO
 10
28561.604341291932
 20
1523.7494964292871
 30
0.0
 11
28537.604341291921
 21
1523.7494964292871
 31
0.0
  0
ARC
  5
3EDF
  8
YODOROGO
 10
28561.604341291932
 20
1547.749496429285
 30
0.0
 40
23.999999999996358
 50
270.0
 51
0.0000000000054281
  0
LINE
  5
3EE0
  8
YODOROGO
 10
27801.604341291921
 20
1890.786580793706
 30
0.0
 11
27777.604341291921
 21
1843.776747951672
 31
0.0
1001
AUTOCAD_POSTSCRIPT_FIGURE
1002
{
1000
PSFILL
1000
Grayscale
1000
Grayscale
1070
   100
1002
}
  0
LINE
  5
3EE1
  8
YODOROGO
 10
27801.604341291921
 20
1747.749496429286
 30
0.0
 11
27801.604341291921
 21
1890.786580793706
 31
0.0
1001
AUTOCAD_POSTSCRIPT_FIGURE
1002
{
1000
PSFILL
1000
Grayscale
1000
Grayscale
1070
   100
1002
}
  0
LINE
  5
3EE2
  8
YODOROGO
 10
27817.604341291921
 20
1747.749496429286
 30
0.0
 11
27801.604341291921
 21
1747.749496429286
 31
0.0
1001
AUTOCAD_POSTSCRIPT_FIGURE
1002
{
1000
PSFILL
1000
Grayscale
1000
Grayscale
1070
   100
1002
}
  0
LINE
  5
3EE3
  8
YODOROGO
 10
27817.604341291921
 20
1893.7713320852661
 30
0.0
 11
27817.604341291921
 21
1747.749496429286
 31
0.0
1001
AUTOCAD_POSTSCRIPT_FIGURE
1002
{
1000
PSFILL
1000
Grayscale
1000
Grayscale
1070
   100
1002
}
  0
LINE
  5
3EE4
  8
YODOROGO
 10
27841.604341291921
 20
1867.6547582841361
 30
0.0
 11
27817.604341291921
 21
1893.7713320852661
 31
0.0
1001
AUTOCAD_POSTSCRIPT_FIGURE
1002
{
1000
PSFILL
1000
Grayscale
1000
Grayscale
1070
   100
1002
}
  0
LINE
  5
3EE5
  8
YODOROGO
 10
27841.604341291921
 20
1883.6547582841361
 30
0.0
 11
27841.604341291921
 21
1867.6547582841361
 31
0.0
1001
AUTOCAD_POSTSCRIPT_FIGURE
1002
{
1000
PSFILL
1000
Grayscale
1000
Grayscale
1070
   100
1002
}
  0
LINE
  5
3EE6
  8
YODOROGO
 10
27817.604341291921
 20
1917.7713320852649
 30
0.0
 11
27841.604341291921
 21
1883.6547582841361
 31
0.0
1001
AUTOCAD_POSTSCRIPT_FIGURE
1002
{
1000
PSFILL
1000
Grayscale
1000
Grayscale
1070
   100
1002
}
  0
LINE
  5
3EE7
  8
YODOROGO
 10
27817.604341291921
 20
1939.749496429288
 30
0.0
 11
27817.604341291921
 21
1917.7713320852649
 31
0.0
1001
AUTOCAD_POSTSCRIPT_FIGURE
1002
{
1000
PSFILL
1000
Grayscale
1000
Grayscale
1070
   100
1002
}
  0
LINE
  5
3EE8
  8
YODOROGO
 10
27889.604341291921
 20
1939.749496429288
 30
0.0
 11
27817.604341291921
 21
1939.749496429288
 31
0.0
1001
AUTOCAD_POSTSCRIPT_FIGURE
1002
{
1000
PSFILL
1000
Grayscale
1000
Grayscale
1070
   100
1002
}
  0
LINE
  5
3EE9
  8
YODOROGO
 10
27889.604341291921
 20
1900.5683489363
 30
0.0
 11
27889.604341291921
 21
1939.749496429288
 31
0.0
1001
AUTOCAD_POSTSCRIPT_FIGURE
1002
{
1000
PSFILL
1000
Grayscale
1000
Grayscale
1070
   100
1002
}
  0
LINE
  5
3EEA
  8
YODOROGO
 10
27857.604341291921
 20
1900.5683489363
 30
0.0
 11
27889.604341291921
 21
1900.5683489363
 31
0.0
1001
AUTOCAD_POSTSCRIPT_FIGURE
1002
{
1000
PSFILL
1000
Grayscale
1000
Grayscale
1070
   100
1002
}
  0
LINE
  5
3EEB
  8
YODOROGO
 10
27857.604341291921
 20
1884.568348936298
 30
0.0
 11
27857.604341291921
 21
1900.5683489363
 31
0.0
1001
AUTOCAD_POSTSCRIPT_FIGURE
1002
{
1000
PSFILL
1000
Grayscale
1000
Grayscale
1070
   100
1002
}
  0
LINE
  5
3EEC
  8
YODOROGO
 10
27889.604341291921
 20
1884.568348936298
 30
0.0
 11
27857.604341291921
 21
1884.568348936298
 31
0.0
1001
AUTOCAD_POSTSCRIPT_FIGURE
1002
{
1000
PSFILL
1000
Grayscale
1000
Grayscale
1070
   100
1002
}
  0
LINE
  5
3EED
  8
YODOROGO
 10
27889.604341291921
 20
1879.6191779644371
 30
0.0
 11
27889.604341291921
 21
1884.568348936298
 31
0.0
1001
AUTOCAD_POSTSCRIPT_FIGURE
1002
{
1000
PSFILL
1000
Grayscale
1000
Grayscale
1070
   100
1002
}
  0
LINE
  5
3EEE
  8
YODOROGO
 10
27849.604341291921
 20
1812.974981161417
 30
0.0
 11
27889.604341291921
 21
1879.6191779644371
 31
0.0
1001
AUTOCAD_POSTSCRIPT_FIGURE
1002
{
1000
PSFILL
1000
Grayscale
1000
Grayscale
1070
   100
1002
}
  0
LINE
  5
3EEF
  8
YODOROGO
 10
27849.604341291921
 20
1796.9749811614161
 30
0.0
 11
27849.604341291921
 21
1812.974981161417
 31
0.0
1001
AUTOCAD_POSTSCRIPT_FIGURE
1002
{
1000
PSFILL
1000
Grayscale
1000
Grayscale
1070
   100
1002
}
  0
LINE
  5
3EF0
  8
YODOROGO
 10
27889.604341291921
 20
1847.6191779644359
 30
0.0
 11
27849.604341291921
 21
1796.9749811614161
 31
0.0
1001
AUTOCAD_POSTSCRIPT_FIGURE
1002
{
1000
PSFILL
1000
Grayscale
1000
Grayscale
1070
   100
1002
}
  0
LINE
  5
3EF1
  8
YODOROGO
 10
27889.604341291921
 20
1747.749496429286
 30
0.0
 11
27889.604341291921
 21
1847.6191779644359
 31
0.0
1001
AUTOCAD_POSTSCRIPT_FIGURE
1002
{
1000
PSFILL
1000
Grayscale
1000
Grayscale
1070
   100
1002
}
  0
LINE
  5
3EF2
  8
YODOROGO
 10
27905.604341291921
 20
1747.749496429286
 30
0.0
 11
27889.604341291921
 21
1747.749496429286
 31
0.0
1001
AUTOCAD_POSTSCRIPT_FIGURE
1002
{
1000
PSFILL
1000
Grayscale
1000
Grayscale
1070
   100
1002
}
  0
LINE
  5
3EF3
  8
YODOROGO
 10
27905.604341291921
 20
1849.409012158806
 30
0.0
 11
27905.604341291921
 21
1747.749496429286
 31
0.0
1001
AUTOCAD_POSTSCRIPT_FIGURE
1002
{
1000
PSFILL
1000
Grayscale
1000
Grayscale
1070
   100
1002
}
  0
LINE
  5
3EF4
  8
YODOROGO
 10
27937.604341291921
 20
1796.9749811614161
 30
0.0
 11
27905.604341291921
 21
1849.409012158806
 31
0.0
1001
AUTOCAD_POSTSCRIPT_FIGURE
1002
{
1000
PSFILL
1000
Grayscale
1000
Grayscale
1070
   100
1002
}
  0
LINE
  5
3EF5
  8
YODOROGO
 10
27937.604341291921
 20
1812.974981161417
 30
0.0
 11
27937.604341291921
 21
1796.9749811614161
 31
0.0
1001
AUTOCAD_POSTSCRIPT_FIGURE
1002
{
1000
PSFILL
1000
Grayscale
1000
Grayscale
1070
   100
1002
}
  0
LINE
  5
3EF6
  8
YODOROGO
 10
27905.604341291921
 20
1881.4090121588081
 30
0.0
 11
27937.604341291921
 21
1812.974981161417
 31
0.0
1001
AUTOCAD_POSTSCRIPT_FIGURE
1002
{
1000
PSFILL
1000
Grayscale
1000
Grayscale
1070
   100
1002
}
  0
LINE
  5
3EF7
  8
YODOROGO
 10
27905.604341291921
 20
1884.5683489363
 30
0.0
 11
27905.604341291921
 21
1881.4090121588081
 31
0.0
1001
AUTOCAD_POSTSCRIPT_FIGURE
1002
{
1000
PSFILL
1000
Grayscale
1000
Grayscale
1070
   100
1002
}
  0
LINE
  5
3EF8
  8
YODOROGO
 10
27937.604341291921
 20
1884.568348936298
 30
0.0
 11
27905.604341291921
 21
1884.5683489363
 31
0.0
1001
AUTOCAD_POSTSCRIPT_FIGURE
1002
{
1000
PSFILL
1000
Grayscale
1000
Grayscale
1070
   100
1002
}
  0
LINE
  5
3EF9
  8
YODOROGO
 10
27937.604341291921
 20
1900.5683489363
 30
0.0
 11
27937.604341291921
 21
1884.568348936298
 31
0.0
1001
AUTOCAD_POSTSCRIPT_FIGURE
1002
{
1000
PSFILL
1000
Grayscale
1000
Grayscale
1070
   100
1002
}
  0
LINE
  5
3EFA
  8
YODOROGO
 10
27905.604341291921
 20
1900.5683489363
 30
0.0
 11
27937.604341291921
 21
1900.5683489363
 31
0.0
1001
AUTOCAD_POSTSCRIPT_FIGURE
1002
{
1000
PSFILL
1000
Grayscale
1000
Grayscale
1070
   100
1002
}
  0
LINE
  5
3EFB
  8
YODOROGO
 10
27905.604341291921
 20
1939.749496429288
 30
0.0
 11
27905.604341291921
 21
1900.5683489363
 31
0.0
1001
AUTOCAD_POSTSCRIPT_FIGURE
1002
{
1000
PSFILL
1000
Grayscale
1000
Grayscale
1070
   100
1002
}
  0
LINE
  5
3EFC
  8
YODOROGO
 10
27937.604341291921
 20
1939.749496429288
 30
0.0
 11
27905.604341291921
 21
1939.749496429288
 31
0.0
1001
AUTOCAD_POSTSCRIPT_FIGURE
1002
{
1000
PSFILL
1000
Grayscale
1000
Grayscale
1070
   100
1002
}
  0
LINE
  5
3EFD
  8
YODOROGO
 10
27937.604341291921
 20
1955.7494964292871
 30
0.0
 11
27937.604341291921
 21
1939.749496429288
 31
0.0
1001
AUTOCAD_POSTSCRIPT_FIGURE
1002
{
1000
PSFILL
1000
Grayscale
1000
Grayscale
1070
   100
1002
}
  0
LINE
  5
3EFE
  8
YODOROGO
 10
27905.604341291921
 20
1955.7494964292871
 30
0.0
 11
27937.604341291921
 21
1955.7494964292871
 31
0.0
1001
AUTOCAD_POSTSCRIPT_FIGURE
1002
{
1000
PSFILL
1000
Grayscale
1000
Grayscale
1070
   100
1002
}
  0
LINE
  5
3EFF
  8
YODOROGO
 10
27905.604341291921
 20
1979.749496429288
 30
0.0
 11
27905.604341291921
 21
1955.7494964292871
 31
0.0
1001
AUTOCAD_POSTSCRIPT_FIGURE
1002
{
1000
PSFILL
1000
Grayscale
1000
Grayscale
1070
   100
1002
}
  0
LINE
  5
3F00
  8
YODOROGO
 10
27889.604341291921
 20
1979.749496429288
 30
0.0
 11
27905.604341291921
 21
1979.749496429288
 31
0.0
1001
AUTOCAD_POSTSCRIPT_FIGURE
1002
{
1000
PSFILL
1000
Grayscale
1000
Grayscale
1070
   100
1002
}
  0
LINE
  5
3F01
  8
YODOROGO
 10
27889.604341291921
 20
1955.7494964292871
 30
0.0
 11
27889.604341291921
 21
1979.749496429288
 31
0.0
1001
AUTOCAD_POSTSCRIPT_FIGURE
1002
{
1000
PSFILL
1000
Grayscale
1000
Grayscale
1070
   100
1002
}
  0
LINE
  5
3F02
  8
YODOROGO
 10
27865.604341291921
 20
1955.7494964292871
 30
0.0
 11
27889.604341291921
 21
1955.7494964292871
 31
0.0
1001
AUTOCAD_POSTSCRIPT_FIGURE
1002
{
1000
PSFILL
1000
Grayscale
1000
Grayscale
1070
   100
1002
}
  0
LINE
  5
3F03
  8
YODOROGO
 10
27865.604341291921
 20
1979.749496429288
 30
0.0
 11
27865.604341291921
 21
1955.7494964292871
 31
0.0
1001
AUTOCAD_POSTSCRIPT_FIGURE
1002
{
1000
PSFILL
1000
Grayscale
1000
Grayscale
1070
   100
1002
}
  0
LINE
  5
3F04
  8
YODOROGO
 10
27849.604341291921
 20
1979.749496429288
 30
0.0
 11
27865.604341291921
 21
1979.749496429288
 31
0.0
1001
AUTOCAD_POSTSCRIPT_FIGURE
1002
{
1000
PSFILL
1000
Grayscale
1000
Grayscale
1070
   100
1002
}
  0
LINE
  5
3F05
  8
YODOROGO
 10
27849.604341291921
 20
1955.7494964292871
 30
0.0
 11
27849.604341291921
 21
1979.749496429288
 31
0.0
1001
AUTOCAD_POSTSCRIPT_FIGURE
1002
{
1000
PSFILL
1000
Grayscale
1000
Grayscale
1070
   100
1002
}
  0
LINE
  5
3F06
  8
YODOROGO
 10
27817.604341291921
 20
1955.7494964292871
 30
0.0
 11
27849.604341291921
 21
1955.7494964292871
 31
0.0
1001
AUTOCAD_POSTSCRIPT_FIGURE
1002
{
1000
PSFILL
1000
Grayscale
1000
Grayscale
1070
   100
1002
}
  0
LINE
  5
3F07
  8
YODOROGO
 10
27817.604341291921
 20
1979.749496429288
 30
0.0
 11
27817.604341291921
 21
1955.7494964292871
 31
0.0
1001
AUTOCAD_POSTSCRIPT_FIGURE
1002
{
1000
PSFILL
1000
Grayscale
1000
Grayscale
1070
   100
1002
}
  0
LINE
  5
3F08
  8
YODOROGO
 10
27801.604341291921
 20
1979.749496429288
 30
0.0
 11
27817.604341291921
 21
1979.749496429288
 31
0.0
1001
AUTOCAD_POSTSCRIPT_FIGURE
1002
{
1000
PSFILL
1000
Grayscale
1000
Grayscale
1070
   100
1002
}
  0
LINE
  5
3F09
  8
YODOROGO
 10
27801.604341291921
 20
1955.7494964292871
 30
0.0
 11
27801.604341291921
 21
1979.749496429288
 31
0.0
1001
AUTOCAD_POSTSCRIPT_FIGURE
1002
{
1000
PSFILL
1000
Grayscale
1000
Grayscale
1070
   100
1002
}
  0
LINE
  5
3F0A
  8
YODOROGO
 10
27777.604341291921
 20
1955.7494964292871
 30
0.0
 11
27801.604341291921
 21
1955.7494964292871
 31
0.0
1001
AUTOCAD_POSTSCRIPT_FIGURE
1002
{
1000
PSFILL
1000
Grayscale
1000
Grayscale
1070
   100
1002
}
  0
LINE
  5
3F0B
  8
YODOROGO
 10
27777.604341291921
 20
1939.749496429288
 30
0.0
 11
27777.604341291921
 21
1955.7494964292871
 31
0.0
1001
AUTOCAD_POSTSCRIPT_FIGURE
1002
{
1000
PSFILL
1000
Grayscale
1000
Grayscale
1070
   100
1002
}
  0
LINE
  5
3F0C
  8
YODOROGO
 10
27801.604341291921
 20
1939.749496429288
 30
0.0
 11
27777.604341291921
 21
1939.749496429288
 31
0.0
1001
AUTOCAD_POSTSCRIPT_FIGURE
1002
{
1000
PSFILL
1000
Grayscale
1000
Grayscale
1070
   100
1002
}
  0
LINE
  5
3F0D
  8
YODOROGO
 10
27801.604341291921
 20
1914.7865807937051
 30
0.0
 11
27801.604341291921
 21
1939.749496429288
 31
0.0
1001
AUTOCAD_POSTSCRIPT_FIGURE
1002
{
1000
PSFILL
1000
Grayscale
1000
Grayscale
1070
   100
1002
}
  0
LINE
  5
3F0E
  8
YODOROGO
 10
27777.604341291921
 20
1859.776747951671
 30
0.0
 11
27801.604341291921
 21
1914.7865807937051
 31
0.0
1001
AUTOCAD_POSTSCRIPT_FIGURE
1002
{
1000
PSFILL
1000
Grayscale
1000
Grayscale
1070
   100
1002
}
  0
LINE
  5
3F0F
  8
YODOROGO
 10
27777.604341291921
 20
1843.776747951672
 30
0.0
 11
27777.604341291921
 21
1859.776747951671
 31
0.0
1001
AUTOCAD_POSTSCRIPT_FIGURE
1002
{
1000
PSFILL
1000
Grayscale
1000
Grayscale
1070
   100
1002
}
  0
LINE
  5
3F10
  8
YODOROGO
 10
28257.604341291921
 20
1867.7494964292871
 30
0.0
 11
28401.60434129191
 21
1824.877625640306
 31
0.0
1001
AUTOCAD_POSTSCRIPT_FIGURE
1002
{
1000
PSFILL
1000
Grayscale
1000
Grayscale
1070
   100
1002
}
  0
LINE
  5
3F11
  8
YODOROGO
 10
28401.60434129191
 20
1752.877625640306
 30
0.0
 11
28257.604341291921
 21
1795.7494964292871
 31
0.0
1001
AUTOCAD_POSTSCRIPT_FIGURE
1002
{
1000
PSFILL
1000
Grayscale
1000
Grayscale
1070
   100
1002
}
  0
LINE
  5
3F12
  8
YODOROGO
 10
28401.60434129191
 20
1984.877625640306
 30
0.0
 11
28257.604341291921
 21
2027.749496429288
 31
0.0
1001
AUTOCAD_POSTSCRIPT_FIGURE
1002
{
1000
PSFILL
1000
Grayscale
1000
Grayscale
1070
   100
1002
}
  0
LINE
  5
3F13
  8
YODOROGO
 10
28257.604341291921
 20
1959.749496429288
 30
0.0
 11
28401.60434129191
 21
1916.8776256403071
 31
0.0
1001
AUTOCAD_POSTSCRIPT_FIGURE
1002
{
1000
PSFILL
1000
Grayscale
1000
Grayscale
1070
   100
1002
}
  0
LINE
  5
3F14
  8
YODOROGO
 10
28257.604341291921
 20
1795.7494964292871
 30
0.0
 11
28257.604341291921
 21
1867.7494964292871
 31
0.0
1001
AUTOCAD_POSTSCRIPT_FIGURE
1002
{
1000
PSFILL
1000
Grayscale
1000
Grayscale
1070
   100
1002
}
  0
LINE
  5
3F15
  8
YODOROGO
 10
28257.604341291921
 20
2027.749496429288
 30
0.0
 11
28257.604341291921
 21
1959.749496429288
 31
0.0
1001
AUTOCAD_POSTSCRIPT_FIGURE
1002
{
1000
PSFILL
1000
Grayscale
1000
Grayscale
1070
   100
1002
}
  0
LINE
  5
3F16
  8
YODOROGO
 10
28080.236320206739
 20
1939.749496429288
 30
0.0
 11
28129.60434129191
 21
1747.749496429286
 31
0.0
1001
AUTOCAD_POSTSCRIPT_FIGURE
1002
{
1000
PSFILL
1000
Grayscale
1000
Grayscale
1070
   100
1002
}
  0
LINE
  5
3F17
  8
YODOROGO
 10
27977.604341291921
 20
1939.749496429288
 30
0.0
 11
28080.236320206739
 21
1939.749496429288
 31
0.0
1001
AUTOCAD_POSTSCRIPT_FIGURE
1002
{
1000
PSFILL
1000
Grayscale
1000
Grayscale
1070
   100
1002
}
  0
LINE
  5
3F18
  8
YODOROGO
 10
27977.604341291921
 20
1955.7494964292871
 30
0.0
 11
27977.604341291921
 21
1939.749496429288
 31
0.0
1001
AUTOCAD_POSTSCRIPT_FIGURE
1002
{
1000
PSFILL
1000
Grayscale
1000
Grayscale
1070
   100
1002
}
  0
LINE
  5
3F19
  8
YODOROGO
 10
28076.60687851991
 20
1955.7494964292871
 30
0.0
 11
27977.604341291921
 21
1955.7494964292871
 31
0.0
1001
AUTOCAD_POSTSCRIPT_FIGURE
1002
{
1000
PSFILL
1000
Grayscale
1000
Grayscale
1070
   100
1002
}
  0
LINE
  5
3F1A
  8
YODOROGO
 10
28071.162715989711
 20
1979.749496429288
 30
0.0
 11
28076.60687851991
 21
1955.7494964292871
 31
0.0
1001
AUTOCAD_POSTSCRIPT_FIGURE
1002
{
1000
PSFILL
1000
Grayscale
1000
Grayscale
1070
   100
1002
}
  0
LINE
  5
3F1B
  8
YODOROGO
 10
28091.162715989711
 20
1979.749496429288
 30
0.0
 11
28071.162715989711
 21
1979.749496429288
 31
0.0
1001
AUTOCAD_POSTSCRIPT_FIGURE
1002
{
1000
PSFILL
1000
Grayscale
1000
Grayscale
1070
   100
1002
}
  0
LINE
  5
3F1C
  8
YODOROGO
 10
28095.806878519939
 20
1955.7494964292871
 30
0.0
 11
28091.162715989711
 21
1979.749496429288
 31
0.0
1001
AUTOCAD_POSTSCRIPT_FIGURE
1002
{
1000
PSFILL
1000
Grayscale
1000
Grayscale
1070
   100
1002
}
  0
LINE
  5
3F1D
  8
YODOROGO
 10
28121.604341291921
 20
1955.7494964292871
 30
0.0
 11
28095.806878519939
 21
1955.7494964292871
 31
0.0
1001
AUTOCAD_POSTSCRIPT_FIGURE
1002
{
1000
PSFILL
1000
Grayscale
1000
Grayscale
1070
   100
1002
}
  0
LINE
  5
3F1E
  8
YODOROGO
 10
28121.604341291921
 20
1979.749496429288
 30
0.0
 11
28121.604341291921
 21
1955.7494964292871
 31
0.0
1001
AUTOCAD_POSTSCRIPT_FIGURE
1002
{
1000
PSFILL
1000
Grayscale
1000
Grayscale
1070
   100
1002
}
  0
LINE
  5
3F1F
  8
YODOROGO
 10
28137.604341291921
 20
1979.749496429288
 30
0.0
 11
28121.604341291921
 21
1979.749496429288
 31
0.0
1001
AUTOCAD_POSTSCRIPT_FIGURE
1002
{
1000
PSFILL
1000
Grayscale
1000
Grayscale
1070
   100
1002
}
  0
LINE
  5
3F20
  8
YODOROGO
 10
28137.604341291921
 20
1955.7494964292871
 30
0.0
 11
28137.604341291921
 21
1979.749496429288
 31
0.0
1001
AUTOCAD_POSTSCRIPT_FIGURE
1002
{
1000
PSFILL
1000
Grayscale
1000
Grayscale
1070
   100
1002
}
  0
LINE
  5
3F21
  8
YODOROGO
 10
28137.604341291921
 20
1939.749496429288
 30
0.0
 11
28137.604341291921
 21
1955.7494964292871
 31
0.0
1001
AUTOCAD_POSTSCRIPT_FIGURE
1002
{
1000
PSFILL
1000
Grayscale
1000
Grayscale
1070
   100
1002
}
  0
LINE
  5
3F22
  8
YODOROGO
 10
28098.902986873411
 20
1939.749496429288
 30
0.0
 11
28137.604341291921
 21
1939.749496429288
 31
0.0
1001
AUTOCAD_POSTSCRIPT_FIGURE
1002
{
1000
PSFILL
1000
Grayscale
1000
Grayscale
1070
   100
1002
}
  0
LINE
  5
3F23
  8
YODOROGO
 10
28137.604341291921
 20
1747.749496429286
 30
0.0
 11
28098.902986873411
 21
1939.749496429288
 31
0.0
1001
AUTOCAD_POSTSCRIPT_FIGURE
1002
{
1000
PSFILL
1000
Grayscale
1000
Grayscale
1070
   100
1002
}
  0
LINE
  5
3F24
  8
YODOROGO
 10
28129.60434129191
 20
1747.749496429286
 30
0.0
 11
28137.604341291921
 21
1747.749496429286
 31
0.0
1001
AUTOCAD_POSTSCRIPT_FIGURE
1002
{
1000
PSFILL
1000
Grayscale
1000
Grayscale
1070
   100
1002
}
  0
LINE
  5
3F25
  8
YODOROGO
 10
28078.06921993379
 20
1775.7407762987939
 30
0.0
 11
27977.604341291921
 21
1747.749496429286
 31
0.0
  0
LINE
  5
3F26
  8
YODOROGO
 10
28078.06921993379
 20
1798.6689795290731
 30
0.0
 11
28078.06921993379
 21
1775.7407762987939
 31
0.0
  0
LINE
  5
3F27
  8
YODOROGO
 10
28033.83678061287
 20
1786.816933133767
 30
0.0
 11
28078.06921993379
 21
1798.6689795290731
 31
0.0
  0
LINE
  5
3F28
  8
YODOROGO
 10
28033.83678061287
 20
1872.5683489362989
 30
0.0
 11
28033.83678061287
 21
1786.816933133767
 31
0.0
  0
LINE
  5
3F29
  8
YODOROGO
 10
28078.06921993379
 20
1872.5683489362989
 30
0.0
 11
28033.83678061287
 21
1872.5683489362989
 31
0.0
  0
LINE
  5
3F2A
  8
YODOROGO
 10
28078.06921993379
 20
1892.568348936298
 30
0.0
 11
28078.06921993379
 21
1872.5683489362989
 31
0.0
  0
LINE
  5
3F2B
  8
YODOROGO
 10
27977.604341291921
 20
1892.568348936298
 30
0.0
 11
28078.06921993379
 21
1892.568348936298
 31
0.0
  0
LINE
  5
3F2C
  8
YODOROGO
 10
27977.604341291921
 20
1872.5683489362989
 30
0.0
 11
27977.604341291921
 21
1892.568348936298
 31
0.0
  0
LINE
  5
3F2D
  8
YODOROGO
 10
28021.836780612852
 20
1872.5683489362989
 30
0.0
 11
27977.604341291921
 21
1872.5683489362989
 31
0.0
  0
LINE
  5
3F2E
  8
YODOROGO
 10
28021.836780612852
 20
1784.673339594317
 30
0.0
 11
28021.836780612852
 21
1872.5683489362989
 31
0.0
  0
LINE
  5
3F2F
  8
YODOROGO
 10
27977.604341291921
 20
1771.749496429286
 30
0.0
 11
28021.836780612852
 21
1784.673339594317
 31
0.0
  0
LINE
  5
3F30
  8
YODOROGO
 10
27977.604341291921
 20
1747.749496429286
 30
0.0
 11
27977.604341291921
 21
1771.749496429286
 31
0.0
  0
LINE
  5
3F31
  8
YODOROGO
 10
28001.604341291921
 20
1707.749496429288
 30
0.0
 11
28001.604341291921
 21
1683.7494964292871
 31
0.0
  0
LINE
  5
3F32
  8
YODOROGO
 10
28017.604341291921
 20
1707.749496429288
 30
0.0
 11
28001.604341291921
 21
1707.749496429288
 31
0.0
  0
LINE
  5
3F33
  8
YODOROGO
 10
28017.604341291921
 20
1683.7494964292871
 30
0.0
 11
28017.604341291921
 21
1707.749496429288
 31
0.0
  0
LINE
  5
3F34
  8
YODOROGO
 10
28040.913204016892
 20
1683.7494964292871
 30
0.0
 11
28017.604341291921
 21
1683.7494964292871
 31
0.0
  0
LINE
  5
3F35
  8
YODOROGO
 10
28001.604341291921
 20
1683.7494964292871
 30
0.0
 11
27977.604341291921
 21
1683.7494964292871
 31
0.0
  0
LINE
  5
3F36
  8
YODOROGO
 10
28082.135520230921
 20
1707.749496429288
 30
0.0
 11
28098.135520230931
 21
1707.749496429288
 31
0.0
1001
AUTOCAD_POSTSCRIPT_FIGURE
1002
{
1000
PSFILL
1000
Grayscale
1000
Grayscale
1070
   100
1002
}
  0
LINE
  5
3F37
  8
YODOROGO
 10
28401.60434129191
 20
1824.877625640306
 30
0.0
 11
28401.60434129191
 21
1752.877625640306
 31
0.0
1001
AUTOCAD_POSTSCRIPT_FIGURE
1002
{
1000
PSFILL
1000
Grayscale
1000
Grayscale
1070
   100
1002
}
  0
LINE
  5
3F38
  8
YODOROGO
 10
28401.60434129191
 20
1916.8776256403071
 30
0.0
 11
28401.60434129191
 21
1984.877625640306
 31
0.0
1001
AUTOCAD_POSTSCRIPT_FIGURE
1002
{
1000
PSFILL
1000
Grayscale
1000
Grayscale
1070
   100
1002
}
  0
LINE
  5
3F39
  8
YODOROGO
 10
28433.60434129191
 20
1819.7494964292871
 30
0.0
 11
28433.60434129191
 21
1747.74949642929
 31
0.0
  0
LINE
  5
3F3A
  8
YODOROGO
 10
28497.60434129191
 20
1707.749496429288
 30
0.0
 11
28433.60434129191
 21
1707.749496429288
 31
0.0
  0
LINE
  5
3F3B
  8
YODOROGO
 10
28433.60434129191
 20
1747.74949642929
 30
0.0
 11
28585.604341291921
 21
1747.74949642929
 31
0.0
  0
LINE
  5
3F3C
  8
YODOROGO
 10
28497.60434129191
 20
1867.7494964292871
 30
0.0
 11
28433.60434129191
 21
1867.7494964292871
 31
0.0
  0
LINE
  5
3F3D
  8
YODOROGO
 10
28497.60434129191
 20
1923.7494964292871
 30
0.0
 11
28497.60434129191
 21
1867.7494964292871
 31
0.0
  0
LINE
  5
3F3E
  8
YODOROGO
 10
28585.604341291921
 20
1987.7494964292871
 30
0.0
 11
28585.604341291921
 21
2027.749496429288
 31
0.0
  0
LINE
  5
3F3F
  8
YODOROGO
 10
28433.60434129191
 20
1987.7494964292871
 30
0.0
 11
28585.604341291921
 21
1987.7494964292871
 31
0.0
  0
LINE
  5
3F40
  8
YODOROGO
 10
28433.60434129191
 20
1867.7494964292871
 30
0.0
 11
28433.60434129191
 21
1987.7494964292871
 31
0.0
  0
LINE
  5
3F41
  8
YODOROGO
 10
29001.60434129191
 20
2027.749496429288
 30
0.0
 11
29001.60434129191
 21
1619.749496429288
 31
0.0
  0
LINE
  5
3F42
  8
YODOROGO
 10
29073.604341291921
 20
1579.749496429288
 30
0.0
 11
29073.604341291921
 21
2027.749496429288
 31
0.0
  0
LINE
  5
3F43
  8
YODOROGO
 10
29261.604341291921
 20
1491.749496429286
 30
0.0
 11
29261.604341291921
 21
2007.749496429288
 31
0.0
  0
LINE
  5
3F44
  8
YODOROGO
 10
29197.604341291921
 20
2007.749496429288
 30
0.0
 11
29197.604341291921
 21
1491.749496429286
 31
0.0
  0
LINE
  5
3F45
  8
YODOROGO
 10
29385.604341291921
 20
2027.749496429288
 30
0.0
 11
29385.604341291921
 21
1427.749496429288
 31
0.0
  0
LINE
  5
3F46
  8
YODOROGO
 10
29457.604341291921
 20
1427.749496429288
 30
0.0
 11
29457.604341291921
 21
2027.749496429288
 31
0.0
  0
LINE
  5
3F47
  8
YODOROGO
 10
28657.604341291921
 20
1667.749496429288
 30
0.0
 11
28657.604341291921
 21
1747.74949642929
 31
0.0
  0
LINE
  5
3F48
  8
YODOROGO
 10
29885.604341291921
 20
1707.749496429288
 30
0.0
 11
29885.604341291921
 21
1667.749496429288
 31
0.0
  0
LINE
  5
3F49
  8
YODOROGO
 10
29885.604341291921
 20
1707.749496429288
 30
0.0
 11
29885.604341291921
 21
1667.749496429288
 31
0.0
  0
ARC
  5
3F4A
  8
YODOROGO
 10
28906.911576186842
 20
1618.217864442272
 30
0.0
 40
94.705151178741644
 50
274.05244162907098
 51
0.9266642149310712
  0
ARC
  5
3F4B
  8
YODOROGO
 10
28909.186170719819
 20
1592.61072861044
 30
0.0
 40
164.92042356085511
 50
271.5351210653775
 51
355.52727750585052
  0
LINE
  5
3F4C
  8
YODOROGO
 10
28913.604341291921
 20
1523.7494964292871
 30
0.0
 11
28913.604341291921
 21
1427.749496429288
 31
0.0
  0
LINE
  5
3F4D
  8
YODOROGO
 10
28793.60434129191
 20
1667.749496429288
 30
0.0
 11
28657.604341291921
 21
1667.749496429288
 31
0.0
  0
LINE
  5
3F4E
  8
YODOROGO
 10
28793.60434129191
 20
1603.7494964292871
 30
0.0
 11
28793.60434129191
 21
1667.749496429288
 31
0.0
  0
LINE
  5
3F4F
  8
YODOROGO
 10
28657.604341291921
 20
1603.7494964292871
 30
0.0
 11
28793.60434129191
 21
1603.7494964292871
 31
0.0
  0
LINE
  5
3F50
  8
YODOROGO
 10
28657.604341291921
 20
1523.7494964292871
 30
0.0
 11
28657.604341291921
 21
1603.7494964292871
 31
0.0
  0
LINE
  5
3F51
  8
YODOROGO
 10
28793.60434129191
 20
1523.7494964292871
 30
0.0
 11
28657.604341291921
 21
1523.7494964292871
 31
0.0
  0
LINE
  5
3F52
  8
YODOROGO
 10
28793.60434129191
 20
1427.749496429288
 30
0.0
 11
28793.60434129191
 21
1523.7494964292871
 31
0.0
  0
LINE
  5
3F53
  8
YODOROGO
 10
29197.604341291921
 20
1491.749496429286
 30
0.0
 11
29261.604341291921
 21
1491.749496429286
 31
0.0
  0
LINE
  5
3F54
  8
YODOROGO
 10
29385.604341291921
 20
1427.749496429288
 30
0.0
 11
29457.604341291921
 21
1427.749496429288
 31
0.0
  0
LINE
  5
3F55
  8
YODOROGO
 10
29737.604341291921
 20
1528.4414521705639
 30
0.0
 11
29737.604341291921
 21
1427.749496429288
 31
0.0
  0
LINE
  5
3F56
  8
YODOROGO
 10
29617.604341291921
 20
1427.749496429288
 30
0.0
 11
29737.604341291921
 21
1528.4414521705639
 31
0.0
  0
LINE
  5
3F57
  8
YODOROGO
 10
29617.604341291921
 20
1547.749496429288
 30
0.0
 11
29617.604341291921
 21
1427.749496429288
 31
0.0
  0
LINE
  5
3F58
  8
YODOROGO
 10
29712.94462869945
 20
1627.749496429288
 30
0.0
 11
29617.604341291921
 21
1547.749496429288
 31
0.0
  0
LINE
  5
3F59
  8
YODOROGO
 10
29617.604341291921
 20
1627.749496429288
 30
0.0
 11
29712.94462869945
 21
1627.749496429288
 31
0.0
  0
LINE
  5
3F5A
  8
YODOROGO
 10
29617.604341291921
 20
1667.749496429288
 30
0.0
 11
29617.604341291921
 21
1627.749496429288
 31
0.0
  0
LINE
  5
3F5B
  8
YODOROGO
 10
29885.604341291921
 20
1667.749496429288
 30
0.0
 11
29617.604341291921
 21
1667.749496429288
 31
0.0
  0
LINE
  5
3F5C
  8
YODOROGO
 10
29917.604341291921
 20
1627.749496429288
 30
0.0
 11
29777.604341291921
 21
1627.749496429288
 31
0.0
  0
LINE
  5
3F5D
  8
YODOROGO
 10
29777.604341291921
 20
1562.0054374176559
 30
0.0
 11
29771.409872985321
 21
1556.807661346234
 31
0.0
  0
LINE
  5
3F5E
  8
YODOROGO
 10
29777.604341291921
 20
1627.749496429288
 30
0.0
 11
29777.604341291921
 21
1562.0054374176559
 31
0.0
  0
LINE
  5
3F5F
  8
YODOROGO
 10
29737.604341291921
 20
1528.4414521705639
 30
0.0
 11
29737.604341291921
 21
1427.749496429288
 31
0.0
  0
LINE
  5
3F60
  8
YODOROGO
 10
29617.604341291921
 20
1427.749496429288
 30
0.0
 11
29737.604341291921
 21
1528.4414521705639
 31
0.0
  0
LINE
  5
3F61
  8
YODOROGO
 10
29617.604341291921
 20
1547.749496429288
 30
0.0
 11
29617.604341291921
 21
1427.749496429288
 31
0.0
  0
LINE
  5
3F62
  8
YODOROGO
 10
29712.94462869945
 20
1627.749496429288
 30
0.0
 11
29617.604341291921
 21
1547.749496429288
 31
0.0
  0
LINE
  5
3F63
  8
YODOROGO
 10
29617.604341291921
 20
1627.749496429288
 30
0.0
 11
29712.94462869945
 21
1627.749496429288
 31
0.0
  0
LINE
  5
3F64
  8
YODOROGO
 10
29617.604341291921
 20
1667.749496429288
 30
0.0
 11
29617.604341291921
 21
1627.749496429288
 31
0.0
  0
LINE
  5
3F65
  8
YODOROGO
 10
29885.604341291921
 20
1667.749496429288
 30
0.0
 11
29617.604341291921
 21
1667.749496429288
 31
0.0
  0
LINE
  5
3F66
  8
YODOROGO
 10
28793.60434129191
 20
1747.74949642929
 30
0.0
 11
28793.60434129191
 21
1819.7494964292871
 31
0.0
  0
LINE
  5
3F67
  8
YODOROGO
 10
28657.604341291921
 20
1747.74949642929
 30
0.0
 11
28793.60434129191
 21
1747.74949642929
 31
0.0
  0
LINE
  5
3F68
  8
YODOROGO
 10
28729.604341291921
 20
1867.7494964292871
 30
0.0
 11
28729.604341291921
 21
1923.7494964292871
 31
0.0
  0
LINE
  5
3F69
  8
YODOROGO
 10
28793.60434129191
 20
1867.7494964292871
 30
0.0
 11
28729.604341291921
 21
1867.7494964292871
 31
0.0
  0
LINE
  5
3F6A
  8
YODOROGO
 10
28793.60434129191
 20
1947.749496429288
 30
0.0
 11
28793.60434129191
 21
1867.7494964292871
 31
0.0
  0
ARC
  5
3F6B
  8
YODOROGO
 10
28753.60434129191
 20
1947.749496429288
 30
0.0
 40
40.0
 50
0.0
 51
90.0
  0
LINE
  5
3F6C
  8
YODOROGO
 10
28657.604341291921
 20
1987.7494964292871
 30
0.0
 11
28753.60434129191
 21
1987.7494964292871
 31
0.0
  0
LINE
  5
3F6D
  8
YODOROGO
 10
28657.604341291921
 20
2027.749496429288
 30
0.0
 11
28657.604341291921
 21
1987.7494964292871
 31
0.0
  0
LINE
  5
3F6E
  8
YODOROGO
 10
29073.604341291921
 20
2027.749496429288
 30
0.0
 11
29001.60434129191
 21
2027.749496429288
 31
0.0
  0
LINE
  5
3F6F
  8
YODOROGO
 10
29261.604341291921
 20
2007.749496429288
 30
0.0
 11
29197.604341291921
 21
2007.749496429288
 31
0.0
  0
LINE
  5
3F70
  8
YODOROGO
 10
29457.604341291921
 20
2027.749496429288
 30
0.0
 11
29385.604341291921
 21
2027.749496429288
 31
0.0
  0
LINE
  5
3F71
  8
YODOROGO
 10
29673.604341291921
 20
1707.749496429288
 30
0.0
 11
29673.604341291921
 21
1771.7494964292871
 31
0.0
1001
AUTOCAD_POSTSCRIPT_FIGURE
1002
{
1000
PSFILL
1000
Grayscale
1000
Grayscale
1070
    25
1002
}
  0
LINE
  5
3F72
  8
YODOROGO
 10
29617.604341291921
 20
1707.749496429288
 30
0.0
 11
29673.604341291921
 21
1707.749496429288
 31
0.0
1001
AUTOCAD_POSTSCRIPT_FIGURE
1002
{
1000
PSFILL
1000
Grayscale
1000
Grayscale
1070
    25
1002
}
  0
LINE
  5
3F73
  8
YODOROGO
 10
29617.604341291921
 20
1819.7494964292871
 30
0.0
 11
29617.604341291921
 21
1707.749496429288
 31
0.0
1001
AUTOCAD_POSTSCRIPT_FIGURE
1002
{
1000
PSFILL
1000
Grayscale
1000
Grayscale
1070
    25
1002
}
  0
LINE
  5
3F74
  8
YODOROGO
 10
29765.604341291921
 20
1819.7494964292871
 30
0.0
 11
29617.604341291921
 21
1819.7494964292871
 31
0.0
1001
AUTOCAD_POSTSCRIPT_FIGURE
1002
{
1000
PSFILL
1000
Grayscale
1000
Grayscale
1070
    25
1002
}
  0
LINE
  5
3F75
  8
YODOROGO
 10
29765.604341291921
 20
1859.749496429288
 30
0.0
 11
29765.604341291921
 21
1819.7494964292871
 31
0.0
1001
AUTOCAD_POSTSCRIPT_FIGURE
1002
{
1000
PSFILL
1000
Grayscale
1000
Grayscale
1070
    25
1002
}
  0
LINE
  5
3F76
  8
YODOROGO
 10
29617.604341291921
 20
1859.749496429288
 30
0.0
 11
29765.604341291921
 21
1859.749496429288
 31
0.0
1001
AUTOCAD_POSTSCRIPT_FIGURE
1002
{
1000
PSFILL
1000
Grayscale
1000
Grayscale
1070
    25
1002
}
  0
LINE
  5
3F77
  8
YODOROGO
 10
29617.604341291921
 20
1907.7494964292871
 30
0.0
 11
29617.604341291921
 21
1859.749496429288
 31
0.0
1001
AUTOCAD_POSTSCRIPT_FIGURE
1002
{
1000
PSFILL
1000
Grayscale
1000
Grayscale
1070
    25
1002
}
  0
LINE
  5
3F78
  8
YODOROGO
 10
29765.604341291921
 20
1907.7494964292871
 30
0.0
 11
29617.604341291921
 21
1907.7494964292871
 31
0.0
1001
AUTOCAD_POSTSCRIPT_FIGURE
1002
{
1000
PSFILL
1000
Grayscale
1000
Grayscale
1070
    25
1002
}
  0
LINE
  5
3F79
  8
YODOROGO
 10
29765.604341291921
 20
1947.749496429288
 30
0.0
 11
29765.604341291921
 21
1907.7494964292871
 31
0.0
1001
AUTOCAD_POSTSCRIPT_FIGURE
1002
{
1000
PSFILL
1000
Grayscale
1000
Grayscale
1070
    25
1002
}
  0
LINE
  5
3F7A
  8
YODOROGO
 10
29617.604341291921
 20
1947.749496429288
 30
0.0
 11
29765.604341291921
 21
1947.749496429288
 31
0.0
1001
AUTOCAD_POSTSCRIPT_FIGURE
1002
{
1000
PSFILL
1000
Grayscale
1000
Grayscale
1070
    25
1002
}
  0
LINE
  5
3F7B
  8
YODOROGO
 10
29617.604341291921
 20
2027.749496429288
 30
0.0
 11
29617.604341291921
 21
1947.749496429288
 31
0.0
1001
AUTOCAD_POSTSCRIPT_FIGURE
1002
{
1000
PSFILL
1000
Grayscale
1000
Grayscale
1070
    25
1002
}
  0
LINE
  5
3F7C
  8
YODOROGO
 10
29665.604341291921
 20
2027.749496429288
 30
0.0
 11
29617.604341291921
 21
2027.749496429288
 31
0.0
1001
AUTOCAD_POSTSCRIPT_FIGURE
1002
{
1000
PSFILL
1000
Grayscale
1000
Grayscale
1070
    25
1002
}
  0
LINE
  5
3F7D
  8
YODOROGO
 10
29665.604341291921
 20
1995.7494964292871
 30
0.0
 11
29665.604341291921
 21
2027.749496429288
 31
0.0
1001
AUTOCAD_POSTSCRIPT_FIGURE
1002
{
1000
PSFILL
1000
Grayscale
1000
Grayscale
1070
    25
1002
}
  0
LINE
  5
3F7E
  8
YODOROGO
 10
29765.604341291921
 20
1995.7494964292871
 30
0.0
 11
29665.604341291921
 21
1995.7494964292871
 31
0.0
1001
AUTOCAD_POSTSCRIPT_FIGURE
1002
{
1000
PSFILL
1000
Grayscale
1000
Grayscale
1070
    25
1002
}
  0
LINE
  5
3F7F
  8
YODOROGO
 10
29765.604341291921
 20
2027.749496429288
 30
0.0
 11
29765.604341291921
 21
1995.7494964292871
 31
0.0
1001
AUTOCAD_POSTSCRIPT_FIGURE
1002
{
1000
PSFILL
1000
Grayscale
1000
Grayscale
1070
    25
1002
}
  0
LINE
  5
3F80
  8
YODOROGO
 10
29829.604341291921
 20
2027.749496429288
 30
0.0
 11
29765.604341291921
 21
2027.749496429288
 31
0.0
1001
AUTOCAD_POSTSCRIPT_FIGURE
1002
{
1000
PSFILL
1000
Grayscale
1000
Grayscale
1070
    25
1002
}
  0
LINE
  5
3F81
  8
YODOROGO
 10
29829.604341291921
 20
1995.7494964292871
 30
0.0
 11
29829.604341291921
 21
2027.749496429288
 31
0.0
1001
AUTOCAD_POSTSCRIPT_FIGURE
1002
{
1000
PSFILL
1000
Grayscale
1000
Grayscale
1070
    25
1002
}
  0
LINE
  5
3F82
  8
YODOROGO
 10
29829.604341291921
 20
1907.7494964292871
 30
0.0
 11
29829.604341291921
 21
1947.749496429288
 31
0.0
1001
AUTOCAD_POSTSCRIPT_FIGURE
1002
{
1000
PSFILL
1000
Grayscale
1000
Grayscale
1070
    25
1002
}
  0
LINE
  5
3F83
  8
YODOROGO
 10
29829.604341291921
 20
1819.7494964292871
 30
0.0
 11
29829.604341291921
 21
1859.749496429288
 31
0.0
1001
AUTOCAD_POSTSCRIPT_FIGURE
1002
{
1000
PSFILL
1000
Grayscale
1000
Grayscale
1070
    25
1002
}
  0
LINE
  5
3F84
  8
YODOROGO
 10
29921.60434129191
 20
1771.7494964292871
 30
0.0
 11
29921.60434129191
 21
1707.749496429288
 31
0.0
1001
AUTOCAD_POSTSCRIPT_FIGURE
1002
{
1000
PSFILL
1000
Grayscale
1000
Grayscale
1070
    25
1002
}
  0
LINE
  5
3F85
  8
YODOROGO
 10
29829.604341291921
 20
1771.7494964292871
 30
0.0
 11
29921.60434129191
 21
1771.7494964292871
 31
0.0
1001
AUTOCAD_POSTSCRIPT_FIGURE
1002
{
1000
PSFILL
1000
Grayscale
1000
Grayscale
1070
    25
1002
}
  0
LINE
  5
3F86
  8
YODOROGO
 10
29829.604341291921
 20
1707.749496429288
 30
0.0
 11
29829.604341291921
 21
1771.7494964292871
 31
0.0
1001
AUTOCAD_POSTSCRIPT_FIGURE
1002
{
1000
PSFILL
1000
Grayscale
1000
Grayscale
1070
    25
1002
}
  0
LINE
  5
3F87
  8
YODOROGO
 10
29765.604341291921
 20
1707.749496429288
 30
0.0
 11
29829.604341291921
 21
1707.749496429288
 31
0.0
1001
AUTOCAD_POSTSCRIPT_FIGURE
1002
{
1000
PSFILL
1000
Grayscale
1000
Grayscale
1070
    25
1002
}
  0
LINE
  5
3F88
  8
YODOROGO
 10
29765.604341291921
 20
1771.7494964292871
 30
0.0
 11
29765.604341291921
 21
1707.749496429288
 31
0.0
1001
AUTOCAD_POSTSCRIPT_FIGURE
1002
{
1000
PSFILL
1000
Grayscale
1000
Grayscale
1070
    25
1002
}
  0
LINE
  5
3F89
  8
YODOROGO
 10
29673.604341291921
 20
1771.7494964292871
 30
0.0
 11
29765.604341291921
 21
1771.7494964292871
 31
0.0
1001
AUTOCAD_POSTSCRIPT_FIGURE
1002
{
1000
PSFILL
1000
Grayscale
1000
Grayscale
1070
    25
1002
}
  0
ARC
  5
3F8A
  8
YODOROGO
 10
31059.517893357912
 20
1602.6807375155761
 30
0.0
 40
178.22128111072141
 50
281.02627495425338
 51
357.77113575573799
  0
LINE
  5
3F8B
  8
YODOROGO
 10
31413.604341291921
 20
1907.7494964292871
 30
0.0
 11
31165.604341291921
 21
1907.7494964292871
 31
0.0
  0
LINE
  5
3F8C
  8
YODOROGO
 10
31413.604341291921
 20
2027.749496429288
 30
0.0
 11
31165.604341291921
 21
2027.749496429288
 31
0.0
  0
LINE
  5
3F8D
  8
YODOROGO
 10
31165.604341291921
 20
1963.749496429286
 30
0.0
 11
31413.604341291921
 21
1963.749496429286
 31
0.0
  0
LINE
  5
3F8E
  8
YODOROGO
 10
30791.604341291921
 20
1563.7494964292871
 30
0.0
 11
30791.604341291921
 21
1755.7494964292871
 31
0.0
  0
LINE
  5
3F8F
  8
YODOROGO
 10
30763.604341291921
 20
1691.749496429288
 30
0.0
 11
30763.604341291921
 21
1563.7494964292871
 31
0.0
  0
LINE
  5
3F90
  8
YODOROGO
 10
30723.604341291921
 20
1491.749496429288
 30
0.0
 11
30723.604341291921
 21
1691.749496429288
 31
0.0
  0
LINE
  5
3F91
  8
YODOROGO
 10
30899.604341291932
 20
1691.749496429288
 30
0.0
 11
30899.604341291932
 21
1491.749496429288
 31
0.0
  0
LINE
  5
3F92
  8
YODOROGO
 10
30859.604341291932
 20
1563.7494964292871
 30
0.0
 11
30859.604341291932
 21
1691.749496429288
 31
0.0
  0
LINE
  5
3F93
  8
YODOROGO
 10
30831.604341291921
 20
1755.7494964292871
 30
0.0
 11
30831.604341291921
 21
1563.7494964292871
 31
0.0
  0
LINE
  5
3F94
  8
YODOROGO
 10
30973.604341291921
 20
2027.749496429288
 30
0.0
 11
30973.604341291921
 21
1467.749496429288
 31
0.0
  0
LINE
  5
3F95
  8
YODOROGO
 10
30645.604341291921
 20
1427.749496429288
 30
0.0
 11
30645.604341291921
 21
2027.749496429288
 31
0.0
  0
LINE
  5
3F96
  8
YODOROGO
 10
30697.604341291932
 20
1963.749496429286
 30
0.0
 11
30697.604341291932
 21
1427.749496429288
 31
0.0
  0
LINE
  5
3F97
  8
YODOROGO
 10
30925.604341291921
 20
1547.749496429288
 30
0.0
 11
30925.604341291921
 21
1963.749496429286
 31
0.0
  0
LINE
  5
3F98
  8
YODOROGO
 10
30381.604341291932
 20
1627.749496429288
 30
0.0
 11
30381.604341291932
 21
1679.749496429288
 31
0.0
  0
LINE
  5
3F99
  8
YODOROGO
 10
30617.604341291921
 20
1679.749496429288
 30
0.0
 11
30617.604341291921
 21
1627.749496429288
 31
0.0
  0
LINE
  5
3F9A
  8
YODOROGO
 10
31165.604341291921
 20
1907.7494964292871
 30
0.0
 11
31165.604341291921
 21
1635.7494964292871
 31
0.0
  0
LINE
  5
3F9B
  8
YODOROGO
 10
29949.60434129191
 20
1667.749496429288
 30
0.0
 11
29949.60434129191
 21
1707.749496429288
 31
0.0
  0
LINE
  5
3F9C
  8
YODOROGO
 10
29949.60434129191
 20
1667.749496429288
 30
0.0
 11
29949.60434129191
 21
1707.749496429288
 31
0.0
  0
ARC
  5
3F9D
  8
YODOROGO
 10
30537.604341291921
 20
1507.749496429288
 30
0.0
 40
80.0
 50
270.0
 51
0.0
  0
LINE
  5
3F9E
  8
YODOROGO
 10
30569.604341291921
 20
1599.7494964292871
 30
0.0
 11
30617.604341291921
 21
1599.7494964292871
 31
0.0
  0
LINE
  5
3F9F
  8
YODOROGO
 10
30617.604341291921
 20
1627.749496429288
 30
0.0
 11
30529.604341291939
 21
1627.749496429288
 31
0.0
  0
LINE
  5
3FA0
  8
YODOROGO
 10
30217.604341291921
 20
1667.749496429288
 30
0.0
 11
29949.60434129191
 21
1667.749496429288
 31
0.0
  0
LINE
  5
3FA1
  8
YODOROGO
 10
30217.604341291921
 20
1627.749496429288
 30
0.0
 11
30217.604341291921
 21
1667.749496429288
 31
0.0
  0
LINE
  5
3FA2
  8
YODOROGO
 10
30017.604341291921
 20
1627.749496429288
 30
0.0
 11
30217.604341291921
 21
1627.749496429288
 31
0.0
  0
ARC
  5
3FA3
  8
YODOROGO
 10
30230.05882870136
 20
1868.885714952901
 30
0.0
 40
321.37763628522822
 50
228.6181454618993
 51
245.660289248906
  0
LINE
  5
3FA4
  8
YODOROGO
 10
30105.604341291921
 20
1603.7494964292871
 30
0.0
 11
30097.60434129195
 21
1576.0728158699001
 31
0.0
  0
LINE
  5
3FA5
  8
YODOROGO
 10
30189.604341291921
 20
1603.7494964292871
 30
0.0
 11
30105.604341291921
 21
1603.7494964292871
 31
0.0
  0
LINE
  5
3FA6
  8
YODOROGO
 10
30177.604341291921
 20
1551.817722473427
 30
0.0
 11
30189.604341291921
 21
1603.7494964292871
 31
0.0
  0
ARC
  5
3FA7
  8
YODOROGO
 10
30230.05882870045
 20
1868.885714953002
 30
0.0
 40
321.37763628529081
 50
260.60629297969911
 51
267.77903556555862
  0
LINE
  5
3FA8
  8
YODOROGO
 10
30217.604341291921
 20
1427.749496429285
 30
0.0
 11
30217.604341291921
 21
1547.749496429288
 31
0.0
  0
LINE
  5
3FA9
  8
YODOROGO
 10
29937.604341291932
 20
1481.3393349155101
 30
0.0
 11
29937.604341291921
 21
1594.531090531141
 31
0.0
  0
LINE
  5
3FAA
  8
YODOROGO
 10
30217.604341291921
 20
1667.749496429288
 30
0.0
 11
29949.60434129191
 21
1667.749496429288
 31
0.0
  0
LINE
  5
3FAB
  8
YODOROGO
 10
30217.604341291921
 20
1627.749496429288
 30
0.0
 11
30217.604341291921
 21
1667.749496429288
 31
0.0
  0
LINE
  5
3FAC
  8
YODOROGO
 10
30017.604341291921
 20
1627.749496429288
 30
0.0
 11
30217.604341291921
 21
1627.749496429288
 31
0.0
  0
ARC
  5
3FAD
  8
YODOROGO
 10
30230.05882870136
 20
1868.885714952901
 30
0.0
 40
321.37763628522822
 50
228.6181454618993
 51
245.660289248906
  0
LINE
  5
3FAE
  8
YODOROGO
 10
30105.604341291921
 20
1603.7494964292871
 30
0.0
 11
30097.60434129195
 21
1576.0728158699001
 31
0.0
  0
LINE
  5
3FAF
  8
YODOROGO
 10
30189.604341291921
 20
1603.7494964292871
 30
0.0
 11
30105.604341291921
 21
1603.7494964292871
 31
0.0
  0
LINE
  5
3FB0
  8
YODOROGO
 10
30177.604341291921
 20
1551.817722473427
 30
0.0
 11
30189.604341291921
 21
1603.7494964292871
 31
0.0
  0
ARC
  5
3FB1
  8
YODOROGO
 10
30230.05882870045
 20
1868.885714953002
 30
0.0
 40
321.37763628529081
 50
260.60629297969911
 51
267.77903556555862
  0
LINE
  5
3FB2
  8
YODOROGO
 10
30217.604341291921
 20
1427.749496429285
 30
0.0
 11
30217.604341291921
 21
1547.749496429288
 31
0.0
  0
LINE
  5
3FB3
  8
YODOROGO
 10
29937.604341291932
 20
1481.3393349155101
 30
0.0
 11
29937.604341291921
 21
1594.531090531141
 31
0.0
  0
LINE
  5
3FB4
  8
YODOROGO
 10
30433.604341291921
 20
1573.749496429288
 30
0.0
 11
30381.604341291932
 21
1573.749496429288
 31
0.0
  0
LINE
  5
3FB5
  8
YODOROGO
 10
30433.604341291921
 20
1601.749496429285
 30
0.0
 11
30433.604341291921
 21
1573.749496429288
 31
0.0
  0
LINE
  5
3FB6
  8
YODOROGO
 10
30381.604341291932
 20
1601.749496429285
 30
0.0
 11
30433.604341291921
 21
1601.749496429285
 31
0.0
  0
LINE
  5
3FB7
  8
YODOROGO
 10
30381.604341291932
 20
1573.749496429288
 30
0.0
 11
30381.604341291932
 21
1601.749496429285
 31
0.0
  0
LINE
  5
3FB8
  8
YODOROGO
 10
30429.604341291921
 20
1577.7494964292871
 30
0.0
 11
30385.604341291921
 21
1577.7494964292871
 31
0.0
  0
LINE
  5
3FB9
  8
YODOROGO
 10
30429.604341291921
 20
1597.749496429288
 30
0.0
 11
30429.604341291921
 21
1577.7494964292871
 31
0.0
  0
LINE
  5
3FBA
  8
YODOROGO
 10
30385.604341291921
 20
1597.749496429288
 30
0.0
 11
30429.604341291921
 21
1597.749496429288
 31
0.0
  0
LINE
  5
3FBB
  8
YODOROGO
 10
30385.604341291921
 20
1577.7494964292871
 30
0.0
 11
30385.604341291921
 21
1597.749496429288
 31
0.0
  0
LINE
  5
3FBC
  8
YODOROGO
 10
30425.604341291921
 20
1581.749496429286
 30
0.0
 11
30389.604341291921
 21
1581.749496429286
 31
0.0
  0
LINE
  5
3FBD
  8
YODOROGO
 10
30425.604341291921
 20
1593.749496429288
 30
0.0
 11
30425.604341291921
 21
1581.749496429286
 31
0.0
  0
LINE
  5
3FBE
  8
YODOROGO
 10
30389.604341291921
 20
1593.749496429288
 30
0.0
 11
30425.604341291921
 21
1593.749496429288
 31
0.0
  0
LINE
  5
3FBF
  8
YODOROGO
 10
30389.604341291921
 20
1581.749496429286
 30
0.0
 11
30389.604341291921
 21
1593.749496429288
 31
0.0
  0
LINE
  5
3FC0
  8
YODOROGO
 10
30421.604341291932
 20
1585.7494964292871
 30
0.0
 11
30393.604341291921
 21
1585.7494964292871
 31
0.0
  0
LINE
  5
3FC1
  8
YODOROGO
 10
30421.604341291932
 20
1589.749496429288
 30
0.0
 11
30421.604341291932
 21
1585.7494964292871
 31
0.0
  0
LINE
  5
3FC2
  8
YODOROGO
 10
30393.604341291921
 20
1589.749496429288
 30
0.0
 11
30421.604341291932
 21
1589.749496429288
 31
0.0
  0
LINE
  5
3FC3
  8
YODOROGO
 10
30393.604341291921
 20
1585.7494964292871
 30
0.0
 11
30393.604341291921
 21
1589.749496429288
 31
0.0
  0
LINE
  5
3FC4
  8
YODOROGO
 10
30465.604341291921
 20
1627.749496429288
 30
0.0
 11
30381.604341291932
 21
1627.749496429288
 31
0.0
  0
LINE
  5
3FC5
  8
YODOROGO
 10
30465.604341291921
 20
1547.749496429288
 30
0.0
 11
30465.604341291921
 21
1627.749496429288
 31
0.0
  0
LINE
  5
3FC6
  8
YODOROGO
 10
30381.604341291932
 20
1547.749496429288
 30
0.0
 11
30465.604341291921
 21
1547.749496429288
 31
0.0
  0
LINE
  5
3FC7
  8
YODOROGO
 10
30381.604341291932
 20
1427.749496429288
 30
0.0
 11
30381.604341291932
 21
1547.749496429288
 31
0.0
  0
LINE
  5
3FC8
  8
YODOROGO
 10
30537.604341291921
 20
1427.749496429288
 30
0.0
 11
30381.604341291932
 21
1427.749496429288
 31
0.0
  0
LINE
  5
3FC9
  8
YODOROGO
 10
30569.604341291921
 20
1571.749496429285
 30
0.0
 11
30569.604341291921
 21
1599.7494964292871
 31
0.0
  0
ARC
  5
3FCA
  8
YODOROGO
 10
30545.604341291921
 20
1571.749496429291
 30
0.0
 40
24.000000000003752
 50
270.0
 51
359.99999999998772
  0
LINE
  5
3FCB
  8
YODOROGO
 10
30529.604341291939
 20
1547.749496429288
 30
0.0
 11
30545.604341291921
 21
1547.749496429288
 31
0.0
  0
LINE
  5
3FCC
  8
YODOROGO
 10
30529.604341291939
 20
1627.749496429288
 30
0.0
 11
30529.604341291939
 21
1547.749496429288
 31
0.0
  0
LINE
  5
3FCD
  8
YODOROGO
 10
30899.604341291932
 20
1547.749496429288
 30
0.0
 11
30925.604341291921
 21
1547.749496429288
 31
0.0
  0
LINE
  5
3FCE
  8
YODOROGO
 10
30933.604341291921
 20
1427.749496429288
 30
0.0
 11
30899.604341291932
 21
1427.749496429288
 31
0.0
  0
LINE
  5
3FCF
  8
YODOROGO
 10
30763.604341291921
 20
1563.7494964292871
 30
0.0
 11
30791.604341291921
 21
1563.7494964292871
 31
0.0
  0
LINE
  5
3FD0
  8
YODOROGO
 10
30899.604341291932
 20
1491.749496429288
 30
0.0
 11
30723.604341291921
 21
1491.749496429288
 31
0.0
  0
LINE
  5
3FD1
  8
YODOROGO
 10
30831.604341291921
 20
1563.7494964292871
 30
0.0
 11
30859.604341291932
 21
1563.7494964292871
 31
0.0
  0
LINE
  5
3FD2
  8
YODOROGO
 10
30899.604341291932
 20
1427.749496429288
 30
0.0
 11
30899.604341291932
 21
1547.749496429288
 31
0.0
  0
LINE
  5
3FD3
  8
YODOROGO
 10
30697.604341291932
 20
1427.749496429288
 30
0.0
 11
30645.604341291921
 21
1427.749496429288
 31
0.0
  0
LINE
  5
3FD4
  8
YODOROGO
 10
30617.604341291921
 20
1599.7494964292871
 30
0.0
 11
30617.604341291921
 21
1507.749496429288
 31
0.0
  0
ARC
  5
3FD5
  8
YODOROGO
 10
30933.604341291921
 20
1467.749496429288
 30
0.0
 40
40.0
 50
270.0
 51
0.0
  0
LINE
  5
3FD6
  8
YODOROGO
 10
31093.604341291921
 20
1523.7494964292871
 30
0.0
 11
31093.604341291921
 21
1427.749496429288
 31
0.0
  0
ARC
  5
3FD7
  8
YODOROGO
 10
31039.721395566768
 20
1637.5313901097329
 30
0.0
 40
125.8955565916754
 50
295.34052442160112
 51
359.18902303418679
  0
LINE
  5
3FD8
  8
YODOROGO
 10
30617.604341291921
 20
1859.749496429288
 30
0.0
 11
30497.604341291921
 21
1939.749496429288
 31
0.0
  0
LINE
  5
3FD9
  8
YODOROGO
 10
30497.604341291921
 20
2027.749496429288
 30
0.0
 11
30617.604341291921
 21
1947.749496429288
 31
0.0
  0
LINE
  5
3FDA
  8
YODOROGO
 10
30529.604341291939
 20
1679.749496429288
 30
0.0
 11
30617.604341291921
 21
1679.749496429288
 31
0.0
  0
LINE
  5
3FDB
  8
YODOROGO
 10
30617.604341291921
 20
1735.7494964292871
 30
0.0
 11
30529.604341291939
 21
1735.7494964292871
 31
0.0
  0
LINE
  5
3FDC
  8
YODOROGO
 10
30381.604341291932
 20
1795.7494964292871
 30
0.0
 11
30617.604341291921
 21
1795.7494964292871
 31
0.0
  0
LINE
  5
3FDD
  8
YODOROGO
 10
30081.604341291921
 20
2027.749496429288
 30
0.0
 11
30021.604341291921
 21
2027.749496429288
 31
0.0
  0
LINE
  5
3FDE
  8
YODOROGO
 10
30081.604341291921
 20
1827.7494964292871
 30
0.0
 11
30081.604341291921
 21
2027.749496429288
 31
0.0
  0
LINE
  5
3FDF
  8
YODOROGO
 10
30021.604341291921
 20
1827.7494964292871
 30
0.0
 11
30081.604341291921
 21
1827.7494964292871
 31
0.0
  0
LINE
  5
3FE0
  8
YODOROGO
 10
30021.604341291921
 20
2027.749496429288
 30
0.0
 11
30021.604341291921
 21
1827.7494964292871
 31
0.0
  0
LINE
  5
3FE1
  8
YODOROGO
 10
30161.604341291921
 20
2027.749496429288
 30
0.0
 11
30217.604341291921
 21
2027.749496429288
 31
0.0
  0
LINE
  5
3FE2
  8
YODOROGO
 10
30161.604341291921
 20
1811.749496429288
 30
0.0
 11
30161.604341291921
 21
2027.749496429288
 31
0.0
  0
ARC
  5
3FE3
  8
YODOROGO
 10
30121.604341291921
 20
1811.749496429288
 30
0.0
 40
40.0
 50
270.0
 51
0.0
  0
LINE
  5
3FE4
  8
YODOROGO
 10
30021.604341291921
 20
1771.7494964292871
 30
0.0
 11
30121.604341291921
 21
1771.7494964292871
 31
0.0
  0
LINE
  5
3FE5
  8
YODOROGO
 10
30021.604341291921
 20
1707.749496429288
 30
0.0
 11
30021.604341291921
 21
1771.7494964292871
 31
0.0
  0
LINE
  5
3FE6
  8
YODOROGO
 10
30137.604341291921
 20
1707.749496429288
 30
0.0
 11
30021.604341291921
 21
1707.749496429288
 31
0.0
  0
ARC
  5
3FE7
  8
YODOROGO
 10
30137.604341291921
 20
1787.7494964292871
 30
0.0
 40
80.0
 50
270.0
 51
0.0
  0
LINE
  5
3FE8
  8
YODOROGO
 10
30217.604341291921
 20
2027.749496429288
 30
0.0
 11
30217.604341291921
 21
1787.7494964292871
 31
0.0
  0
LINE
  5
3FE9
  8
YODOROGO
 10
29977.604341291921
 20
1947.749496429288
 30
0.0
 11
29977.604341291921
 21
1995.7494964292871
 31
0.0
1001
AUTOCAD_POSTSCRIPT_FIGURE
1002
{
1000
PSFILL
1000
Grayscale
1000
Grayscale
1070
    25
1002
}
  0
LINE
  5
3FEA
  8
YODOROGO
 10
29977.604341291921
 20
1859.749496429288
 30
0.0
 11
29977.604341291921
 21
1907.7494964292871
 31
0.0
1001
AUTOCAD_POSTSCRIPT_FIGURE
1002
{
1000
PSFILL
1000
Grayscale
1000
Grayscale
1070
    25
1002
}
  0
LINE
  5
3FEB
  8
YODOROGO
 10
29977.604341291921
 20
1707.749496429288
 30
0.0
 11
29977.604341291921
 21
1819.7494964292871
 31
0.0
1001
AUTOCAD_POSTSCRIPT_FIGURE
1002
{
1000
PSFILL
1000
Grayscale
1000
Grayscale
1070
    25
1002
}
  0
LINE
  5
3FEC
  8
YODOROGO
 10
30381.604341291932
 20
1907.7494964292871
 30
0.0
 11
30497.604341291921
 21
2027.749496429288
 31
0.0
  0
LINE
  5
3FED
  8
YODOROGO
 10
30381.604341291932
 20
1819.7494964292871
 30
0.0
 11
30381.604341291932
 21
1907.7494964292871
 31
0.0
  0
LINE
  5
3FEE
  8
YODOROGO
 10
30497.604341291921
 20
1939.749496429288
 30
0.0
 11
30381.604341291932
 21
1819.7494964292871
 31
0.0
  0
LINE
  5
3FEF
  8
YODOROGO
 10
30465.604341291921
 20
1679.749496429288
 30
0.0
 11
30465.604341291921
 21
1735.7494964292871
 31
0.0
  0
LINE
  5
3FF0
  8
YODOROGO
 10
30381.604341291932
 20
1679.749496429288
 30
0.0
 11
30465.604341291921
 21
1679.749496429288
 31
0.0
  0
LINE
  5
3FF1
  8
YODOROGO
 10
30529.604341291939
 20
1735.7494964292871
 30
0.0
 11
30529.604341291939
 21
1679.749496429288
 31
0.0
  0
LINE
  5
3FF2
  8
YODOROGO
 10
30381.604341291932
 20
1735.7494964292871
 30
0.0
 11
30381.604341291932
 21
1795.7494964292871
 31
0.0
  0
LINE
  5
3FF3
  8
YODOROGO
 10
30465.604341291921
 20
1735.7494964292871
 30
0.0
 11
30381.604341291932
 21
1735.7494964292871
 31
0.0
  0
LINE
  5
3FF4
  8
YODOROGO
 10
30645.604341291921
 20
2027.749496429288
 30
0.0
 11
30973.604341291921
 21
2027.749496429288
 31
0.0
  0
LINE
  5
3FF5
  8
YODOROGO
 10
30925.604341291921
 20
1963.749496429286
 30
0.0
 11
30697.604341291932
 21
1963.749496429286
 31
0.0
  0
LINE
  5
3FF6
  8
YODOROGO
 10
30873.604341291921
 20
1819.7494964292871
 30
0.0
 11
30899.604341291932
 21
1819.7494964292871
 31
0.0
  0
LINE
  5
3FF7
  8
YODOROGO
 10
30899.604341291932
 20
1939.749496429288
 30
0.0
 11
30873.604341291921
 21
1819.7494964292871
 31
0.0
  0
LINE
  5
3FF8
  8
YODOROGO
 10
30851.604341291939
 20
1939.749496429288
 30
0.0
 11
30899.604341291932
 21
1939.749496429288
 31
0.0
  0
LINE
  5
3FF9
  8
YODOROGO
 10
30825.604341291921
 20
1819.7494964292871
 30
0.0
 11
30851.604341291939
 21
1939.749496429288
 31
0.0
  0
LINE
  5
3FFA
  8
YODOROGO
 10
30797.604341291921
 20
1819.7494964292871
 30
0.0
 11
30825.604341291921
 21
1819.7494964292871
 31
0.0
  0
LINE
  5
3FFB
  8
YODOROGO
 10
30771.604341291939
 20
1939.749496429288
 30
0.0
 11
30797.604341291921
 21
1819.7494964292871
 31
0.0
  0
LINE
  5
3FFC
  8
YODOROGO
 10
30723.604341291921
 20
1939.749496429288
 30
0.0
 11
30771.604341291939
 21
1939.749496429288
 31
0.0
  0
LINE
  5
3FFD
  8
YODOROGO
 10
30749.604341291921
 20
1819.7494964292871
 30
0.0
 11
30723.604341291921
 21
1939.749496429288
 31
0.0
  0
LINE
  5
3FFE
  8
YODOROGO
 10
30723.604341291921
 20
1819.7494964292871
 30
0.0
 11
30749.604341291921
 21
1819.7494964292871
 31
0.0
  0
LINE
  5
3FFF
  8
YODOROGO
 10
30723.604341291921
 20
1755.7494964292871
 30
0.0
 11
30723.604341291921
 21
1819.7494964292871
 31
0.0
  0
LINE
  5
4000
  8
YODOROGO
 10
30899.604341291932
 20
1755.7494964292871
 30
0.0
 11
30723.604341291921
 21
1755.7494964292871
 31
0.0
  0
LINE
  5
4001
  8
YODOROGO
 10
30899.604341291932
 20
1819.7494964292871
 30
0.0
 11
30899.604341291932
 21
1755.7494964292871
 31
0.0
  0
LINE
  5
4002
  8
YODOROGO
 10
30617.604341291921
 20
1947.749496429288
 30
0.0
 11
30617.604341291921
 21
1859.749496429288
 31
0.0
  0
LINE
  5
4003
  8
YODOROGO
 10
30791.604341291921
 20
1755.7494964292871
 30
0.0
 11
30831.604341291921
 21
1755.7494964292871
 31
0.0
  0
LINE
  5
4004
  8
YODOROGO
 10
30723.604341291921
 20
1691.749496429288
 30
0.0
 11
30763.604341291921
 21
1691.749496429288
 31
0.0
  0
LINE
  5
4005
  8
YODOROGO
 10
30859.604341291932
 20
1691.749496429288
 30
0.0
 11
30899.604341291932
 21
1691.749496429288
 31
0.0
  0
LINE
  5
4006
  8
YODOROGO
 10
30617.604341291921
 20
1795.7494964292871
 30
0.0
 11
30617.604341291921
 21
1735.7494964292871
 31
0.0
  0
LINE
  5
4007
  8
YODOROGO
 10
31165.604341291921
 20
2027.749496429288
 30
0.0
 11
31165.604341291921
 21
1963.749496429286
 31
0.0
  0
LINE
  5
4008
  8
YODOROGO
 10
31533.604341291921
 20
1595.7494964292871
 30
0.0
 11
31533.60434129191
 21
1811.749496429288
 31
0.0
  0
LINE
  5
4009
  8
YODOROGO
 10
31461.60434129191
 20
1987.7494964292871
 30
0.0
 11
31461.60434129191
 21
1635.7494964292871
 31
0.0
  0
LINE
  5
400A
  8
YODOROGO
 10
31653.604341291921
 20
1427.749496429288
 30
0.0
 11
31653.60434129191
 21
1811.749496429288
 31
0.0
  0
LINE
  5
400B
  8
YODOROGO
 10
31589.604341291921
 20
1811.749496429288
 30
0.0
 11
31589.604341291921
 21
1427.749496429288
 31
0.0
  0
LINE
  5
400C
  8
YODOROGO
 10
31237.604341291921
 20
1595.7494964292871
 30
0.0
 11
31237.604341291921
 21
1707.749496429288
 31
0.0
  0
ARC
  5
400D
  8
YODOROGO
 10
31353.914865116069
 20
1607.790351288558
 30
0.0
 40
180.0924485759885
 50
268.62849102169793
 51
356.16638457330322
  0
LINE
  5
400E
  8
YODOROGO
 10
31349.604341291939
 20
1527.749496429288
 30
0.0
 11
31349.604341291939
 21
1427.749496429288
 31
0.0
  0
ARC
  5
400F
  8
YODOROGO
 10
31351.518075724562
 20
1637.838957017655
 30
0.0
 40
110.1060929836122
 50
269.00410209305932
 51
358.91264455492478
  0
LINE
  5
4010
  8
YODOROGO
 10
31589.604341291921
 20
1427.749496429288
 30
0.0
 11
31653.604341291921
 21
1427.749496429288
 31
0.0
  0
LINE
  5
4011
  8
YODOROGO
 10
31533.60434129191
 20
1811.749496429288
 30
0.0
 11
31589.604341291921
 21
1811.749496429288
 31
0.0
  0
LINE
  5
4012
  8
YODOROGO
 10
31621.604341291939
 20
1987.7494964292871
 30
0.0
 11
31461.60434129191
 21
1987.7494964292871
 31
0.0
  0
LINE
  5
4013
  8
YODOROGO
 10
31533.60434129191
 20
1915.7494964292871
 30
0.0
 11
31661.604341291939
 21
1915.7494964292871
 31
0.0
  0
LINE
  5
4014
  8
YODOROGO
 10
31701.604341291939
 20
1875.7494964292871
 30
0.0
 11
31533.60434129191
 21
1875.7494964292871
 31
0.0
  0
LINE
  5
4015
  8
YODOROGO
 10
31237.604341291921
 20
1779.749496429288
 30
0.0
 11
31349.604341291939
 21
1779.749496429288
 31
0.0
  0
LINE
  5
4016
  8
YODOROGO
 10
31237.604341291921
 20
1835.7494964292871
 30
0.0
 11
31237.604341291921
 21
1779.749496429288
 31
0.0
  0
LINE
  5
4017
  8
YODOROGO
 10
31349.604341291939
 20
1835.7494964292871
 30
0.0
 11
31237.604341291921
 21
1835.7494964292871
 31
0.0
  0
LINE
  5
4018
  8
YODOROGO
 10
31349.604341291939
 20
1779.749496429288
 30
0.0
 11
31349.604341291939
 21
1835.7494964292871
 31
0.0
  0
LINE
  5
4019
  8
YODOROGO
 10
31533.60434129191
 20
1875.7494964292871
 30
0.0
 11
31533.60434129191
 21
1915.7494964292871
 31
0.0
  0
LINE
  5
401A
  8
YODOROGO
 10
31413.604341291921
 20
1707.749496429288
 30
0.0
 11
31413.604341291921
 21
1907.7494964292871
 31
0.0
  0
LINE
  5
401B
  8
YODOROGO
 10
31237.604341291921
 20
1707.749496429288
 30
0.0
 11
31413.604341291921
 21
1707.749496429288
 31
0.0
  0
LINE
  5
401C
  8
YODOROGO
 10
31413.604341291921
 20
1963.749496429286
 30
0.0
 11
31413.604341291921
 21
2027.749496429288
 31
0.0
  0
ARC
  5
401D
  8
YODOROGO
 10
31621.604341291939
 20
2003.749496429285
 30
0.0
 40
15.999999999994539
 50
270.0
 51
0.0000000000081422
  0
LINE
  5
401E
  8
YODOROGO
 10
31637.604341291921
 20
2027.749496429288
 30
0.0
 11
31637.604341291921
 21
2003.7494964292871
 31
0.0
  0
LINE
  5
401F
  8
YODOROGO
 10
31701.604341291939
 20
2027.749496429288
 30
0.0
 11
31637.604341291921
 21
2027.749496429288
 31
0.0
  0
LINE
  5
4020
  8
YODOROGO
 10
31701.604341291939
 20
1955.7494964292871
 30
0.0
 11
31701.604341291939
 21
2027.749496429288
 31
0.0
  0
ARC
  5
4021
  8
YODOROGO
 10
31661.604341291939
 20
1955.7494964292871
 30
0.0
 40
40.0
 50
270.0
 51
0.0
  0
LINE
  5
4022
  8
YODOROGO
 10
31701.604341291939
 20
1811.749496429288
 30
0.0
 11
31701.604341291939
 21
1875.7494964292871
 31
0.0
  0
LINE
  5
4023
  8
YODOROGO
 10
31653.60434129191
 20
1811.749496429288
 30
0.0
 11
31701.604341291939
 21
1811.749496429288
 31
0.0
  0
LINE
  5
4027
  8
SUNPOU
  6
CONTINUOUS
 62
     4
 10
8276.1550354999908
 20
20104.226823000012
 30
0.0
 11
7829.1596144999903
 21
20104.226823000012
 31
0.0
  0
LINE
  5
4028
  8
SUNPOU
  6
CONTINUOUS
 62
     4
 10
8276.1593904999863
 20
20114.226823000001
 30
0.0
 11
7829.1596144999903
 21
20114.226823000001
 31
0.0
  0
LINE
  5
4029
  8
SUNPOU
  6
CONTINUOUS
 62
     4
 10
7909.1596144999912
 20
20104.226823000012
 30
0.0
 11
7909.1596144999912
 21
19864.22682299999
 31
0.0
  0
LINE
  5
402A
  8
SUNPOU
  6
CONTINUOUS
 62
     4
 10
7909.1596144999912
 20
20114.226823000001
 30
0.0
 11
7909.1596144999912
 21
20354.226823000012
 31
0.0
  0
LINE
  5
402B
  8
SUNPOU
  6
CONTINUOUS
 62
     4
 10
7909.1596144999912
 20
20104.226823000012
 30
0.0
 11
7909.1596144999912
 21
20114.226823000001
 31
0.0
  0
LINE
  5
402C
  8
SUNPOU
  6
CONTINUOUS
 62
     4
 10
8276.1593904999863
 20
20114.226823000001
 30
0.0
 11
7429.159614499993
 21
20114.226823000001
 31
0.0
  0
LINE
  5
402D
  8
SUNPOU
  6
CONTINUOUS
 62
     4
 10
7509.1596144999912
 20
19891.730914
 30
0.0
 11
7509.1596144999912
 21
20114.226823000001
 31
0.0
  0
LINE
  5
402E
  8
SUNPOU
  6
CONTINUOUS
 62
     4
 10
7509.1596144999912
 20
17324.230914
 30
0.0
 11
7509.1596144999912
 21
19891.730914
 31
0.0
  0
LINE
  5
402F
  8
SUNPOU
  6
CONTINUOUS
 62
     4
 10
7509.1596144999912
 20
14406.230913999991
 30
0.0
 11
7509.1596144999912
 21
17324.230914
 31
0.0
  0
LINE
  5
4030
  8
SUNPOU
  6
CONTINUOUS
 62
     4
 10
8276.1550354999908
 20
14213.735599
 30
0.0
 11
7429.159614499993
 21
14213.735599
 31
0.0
  0
LINE
  5
4031
  8
SUNPOU
  6
CONTINUOUS
 62
     4
 10
7509.1596144999976
 20
14406.230913999991
 30
0.0
 11
7509.1596144999912
 21
14213.735599
 31
0.0
  0
LINE
  5
4032
  8
SUNPOU
  6
CONTINUOUS
 62
     4
 10
8353.1593904999863
 20
20194.226823000001
 30
0.0
 11
8353.1593904999863
 21
20744.232102000031
 31
0.0
  0
LINE
  5
4033
  8
SUNPOU
  6
CONTINUOUS
 62
     4
 10
8438.65939049999
 20
20664.232102000031
 30
0.0
 11
8678.6593904999918
 21
20664.232102000031
 31
0.0
  0
LINE
  5
4034
  8
SUNPOU
  6
CONTINUOUS
 62
     4
 10
8356.1593904999863
 20
20664.232102000031
 30
0.0
 11
8116.1593904999918
 21
20664.232102000031
 31
0.0
  0
LINE
  5
4035
  8
SUNPOU
  6
CONTINUOUS
 62
     4
 10
8438.65939049999
 20
20664.232102000031
 30
0.0
 11
8356.1593904999863
 21
20664.232102000031
 31
0.0
  0
LINE
  5
4036
  8
SUNPOU
  6
CONTINUOUS
 62
     4
 10
11707.15939049999
 20
20664.232102000031
 30
0.0
 11
8438.65939049999
 21
20664.232102000031
 31
0.0
  0
LINE
  5
4037
  8
SUNPOU
  6
CONTINUOUS
 62
     4
 10
15061.159390499981
 20
20194.226823000001
 30
0.0
 11
15061.159390499981
 21
20744.232102000031
 31
0.0
  0
LINE
  5
4038
  8
SUNPOU
  6
CONTINUOUS
 62
     4
 10
14975.65939049999
 20
20664.232102000031
 30
0.0
 11
14735.65939049999
 21
20664.232102000031
 31
0.0
  0
LINE
  5
4039
  8
SUNPOU
  6
CONTINUOUS
 62
     4
 10
15058.159390499981
 20
20664.232102000031
 30
0.0
 11
15298.159390499981
 21
20664.232102000031
 31
0.0
  0
LINE
  5
403A
  8
SUNPOU
  6
CONTINUOUS
 62
     4
 10
14975.65939049999
 20
20664.232102000031
 30
0.0
 11
15058.159390499981
 21
20664.232102000031
 31
0.0
  0
LINE
  5
403B
  8
SUNPOU
  6
CONTINUOUS
 62
     4
 10
11707.15939049999
 20
20664.232102000031
 30
0.0
 11
14975.65939049999
 21
20664.232102000031
 31
0.0
  0
LINE
  5
403C
  8
SUNPOU
  6
CONTINUOUS
 62
     4
 10
26104.11676349998
 20
19484.230914
 30
0.0
 11
27154.11808349998
 21
19484.230914
 31
0.0
  0
LINE
  5
403D
  8
SUNPOU
  6
CONTINUOUS
 62
     4
 10
26954.11808349999
 20
19891.730914
 30
0.0
 11
27154.11808349998
 21
19891.730914
 31
0.0
  0
LINE
  5
403E
  8
SUNPOU
  6
CONTINUOUS
 62
     4
 10
27074.11808349999
 20
19484.230914
 30
0.0
 11
27074.11808349999
 21
19891.730914
 31
0.0
  0
LINE
  5
403F
  8
SUNPOU
  6
CONTINUOUS
 62
     4
 10
19444.61847949999
 20
13700.467479999999
 30
0.0
 11
19444.61847949999
 21
13354.78283
 31
0.0
  0
LINE
  5
4040
  8
SUNPOU
  6
CONTINUOUS
 62
     4
 10
19402.116236499991
 20
14283.733619000001
 30
0.0
 11
19402.116236499991
 21
13354.78283
 31
0.0
  0
LINE
  5
4041
  8
SUNPOU
  6
CONTINUOUS
 62
     4
 10
19444.61847949999
 20
13434.78283
 30
0.0
 11
19684.61847949999
 21
13434.78283
 31
0.0
  0
LINE
  5
4042
  8
SUNPOU
  6
CONTINUOUS
 62
     4
 10
19402.116236499991
 20
13434.78283
 30
0.0
 11
19162.116236499991
 21
13434.78283
 31
0.0
  0
LINE
  5
4043
  8
SUNPOU
  6
CONTINUOUS
 62
     4
 10
19444.61847949999
 20
13434.78283
 30
0.0
 11
19402.116236499991
 21
13434.78283
 31
0.0
  0
LINE
  5
4044
  8
SUNPOU
  6
CONTINUOUS
 62
     4
 10
25981.61847949999
 20
13700.467479999999
 30
0.0
 11
25981.61847949999
 21
13354.78283
 31
0.0
  0
LINE
  5
4045
  8
SUNPOU
  6
CONTINUOUS
 62
     4
 10
26024.120722499989
 20
14283.733619000001
 30
0.0
 11
26024.120722499989
 21
13354.78283
 31
0.0
  0
LINE
  5
4046
  8
SUNPOU
  6
CONTINUOUS
 62
     4
 10
25981.61847949999
 20
13434.78283
 30
0.0
 11
25741.618479500001
 21
13434.78283
 31
0.0
  0
LINE
  5
4047
  8
SUNPOU
  6
CONTINUOUS
 62
     4
 10
26024.120722499989
 20
13434.78283
 30
0.0
 11
26264.120722499989
 21
13434.78283
 31
0.0
  0
LINE
  5
4048
  8
SUNPOU
  6
CONTINUOUS
 62
     4
 10
25981.61847949999
 20
13434.78283
 30
0.0
 11
26024.120722499989
 21
13434.78283
 31
0.0
  0
LINE
  5
4049
  8
2-0
  6
CONTINUOUS
 62
     3
 10
22670.61847949999
 20
14363.730913999991
 30
0.0
 11
22755.61847949999
 21
14363.730913999991
 31
0.0
  0
LINE
  5
404A
  8
2-0
  6
CONTINUOUS
 62
     3
 10
22755.61847949999
 20
14363.730913999991
 30
0.0
 11
22755.61847949999
 21
14448.730913999991
 31
0.0
  0
LINE
  5
404B
  8
2-0
  6
CONTINUOUS
 62
     3
 10
22755.61847949999
 20
14448.730913999991
 30
0.0
 11
22670.61847949999
 21
14448.730913999991
 31
0.0
  0
LINE
  5
404C
  8
2-0
  6
CONTINUOUS
 62
     3
 10
22670.61847949999
 20
14448.730913999991
 30
0.0
 11
22670.61847949999
 21
14363.730913999991
 31
0.0
  0
LINE
  5
404D
  8
SUNPOU
  6
CONTINUOUS
 62
     4
 10
25981.61847949999
 20
13700.467479999999
 30
0.0
 11
25981.61847949999
 21
13354.78283
 31
0.0
  0
LINE
  5
404E
  8
SUNPOU
  6
CONTINUOUS
 62
     4
 10
25939.116236499991
 20
14283.733619000001
 30
0.0
 11
25939.116236499991
 21
13354.78283
 31
0.0
  0
LINE
  5
404F
  8
SUNPOU
  6
CONTINUOUS
 62
     4
 10
25981.61847949999
 20
13434.78283
 30
0.0
 11
26221.61847949999
 21
13434.78283
 31
0.0
  0
LINE
  5
4050
  8
SUNPOU
  6
CONTINUOUS
 62
     4
 10
25939.116236499991
 20
13434.78283
 30
0.0
 11
25699.116236499991
 21
13434.78283
 31
0.0
  0
LINE
  5
4051
  8
SUNPOU
  6
CONTINUOUS
 62
     4
 10
25981.61847949999
 20
13434.78283
 30
0.0
 11
25939.116236499991
 21
13434.78283
 31
0.0
  0
LINE
  5
4052
  8
SUNPOU
  6
CONTINUOUS
 62
     4
 10
19444.61847949999
 20
13700.467479999999
 30
0.0
 11
19444.61847949999
 21
13354.78283
 31
0.0
  0
LINE
  5
4053
  8
SUNPOU
  6
CONTINUOUS
 62
     4
 10
19487.120722499989
 20
14283.733619000001
 30
0.0
 11
19487.120722499989
 21
13354.78283
 31
0.0
  0
LINE
  5
4054
  8
SUNPOU
  6
CONTINUOUS
 62
     4
 10
19444.61847949999
 20
13434.78283
 30
0.0
 11
19204.61847949999
 21
13434.78283
 31
0.0
  0
LINE
  5
4055
  8
SUNPOU
  6
CONTINUOUS
 62
     4
 10
19487.120722499989
 20
13434.78283
 30
0.0
 11
19727.120722499982
 21
13434.78283
 31
0.0
  0
LINE
  5
4056
  8
SUNPOU
  6
CONTINUOUS
 62
     4
 10
19444.61847949999
 20
13434.78283
 30
0.0
 11
19487.120722499989
 21
13434.78283
 31
0.0
  0
LINE
  5
4057
  8
SUNPOU
  6
CONTINUOUS
 62
     4
 10
19402.116236499991
 20
14283.733619000001
 30
0.0
 11
19402.116236499991
 21
12954.78283
 31
0.0
  0
LINE
  5
4058
  8
SUNPOU
  6
CONTINUOUS
 62
     4
 10
26024.120722499989
 20
14283.733619000001
 30
0.0
 11
26024.120722499989
 21
12954.78283
 31
0.0
  0
LINE
  5
4059
  8
SUNPOU
  6
CONTINUOUS
 62
     4
 10
19402.116236499991
 20
13034.78283
 30
0.0
 11
26024.120722499989
 21
13034.78283
 31
0.0
  0
LINE
  5
405A
  8
SUNPOU
  6
CONTINUOUS
 62
     4
 10
26104.116763499991
 20
15164.230913999991
 30
0.0
 11
27154.11808349998
 21
15164.230913999991
 31
0.0
  0
LINE
  5
405B
  8
SUNPOU
  6
CONTINUOUS
 62
     4
 10
26954.11808349999
 20
14406.230913999991
 30
0.0
 11
27154.11808349998
 21
14406.230913999991
 31
0.0
  0
LINE
  5
405C
  8
SUNPOU
  6
CONTINUOUS
 62
     4
 10
27074.11808349999
 20
15164.230913999991
 30
0.0
 11
27074.11808349999
 21
14406.230913999991
 31
0.0
  0
LINE
  5
405D
  8
SUNPOU
  6
CONTINUOUS
 62
     4
 10
26104.116763499991
 20
15865.471425500011
 30
0.0
 11
27154.11808349998
 21
15865.471425500011
 31
0.0
  0
LINE
  5
405E
  8
SUNPOU
  6
CONTINUOUS
 62
     4
 10
26104.116763499991
 20
15164.230913999991
 30
0.0
 11
27154.11808349998
 21
15164.230913999991
 31
0.0
  0
LINE
  5
405F
  8
SUNPOU
  6
CONTINUOUS
 62
     4
 10
27074.11808349999
 20
15865.471425500011
 30
0.0
 11
27074.11808349999
 21
15164.230913999991
 31
0.0
  0
LINE
  5
4060
  8
SUNPOU
  6
CONTINUOUS
 62
     4
 10
26104.116763499991
 20
16566.230914
 30
0.0
 11
27154.11808349998
 21
16566.230914
 31
0.0
  0
LINE
  5
4061
  8
SUNPOU
  6
CONTINUOUS
 62
     4
 10
26104.116763499991
 20
15865.471425500011
 30
0.0
 11
27154.11808349998
 21
15865.471425500011
 31
0.0
  0
LINE
  5
4062
  8
SUNPOU
  6
CONTINUOUS
 62
     4
 10
27074.11808349999
 20
16566.230914
 30
0.0
 11
27074.11808349999
 21
15865.471425500011
 31
0.0
  0
LINE
  5
4063
  8
SUNPOU
  6
CONTINUOUS
 62
     4
 10
26954.11808349999
 20
17324.230914
 30
0.0
 11
27154.11808349998
 21
17324.230914
 31
0.0
  0
LINE
  5
4064
  8
SUNPOU
  6
CONTINUOUS
 62
     4
 10
26104.116763499991
 20
16566.230914
 30
0.0
 11
27154.11808349998
 21
16566.230914
 31
0.0
  0
LINE
  5
4065
  8
SUNPOU
  6
CONTINUOUS
 62
     4
 10
27074.11808349999
 20
17324.230914
 30
0.0
 11
27074.11808349999
 21
16566.230914
 31
0.0
  0
LINE
  5
4066
  8
SUNPOU
  6
CONTINUOUS
 62
     4
 10
26104.116763499991
 20
18082.230914
 30
0.0
 11
27154.11808349998
 21
18082.230914
 31
0.0
  0
LINE
  5
4067
  8
SUNPOU
  6
CONTINUOUS
 62
     4
 10
26954.11808349999
 20
17324.230914
 30
0.0
 11
27154.11808349998
 21
17324.230914
 31
0.0
  0
LINE
  5
4068
  8
SUNPOU
  6
CONTINUOUS
 62
     4
 10
27074.11808349999
 20
18082.230914
 30
0.0
 11
27074.11808349999
 21
17324.230914
 31
0.0
  0
LINE
  5
4069
  8
SUNPOU
  6
CONTINUOUS
 62
     4
 10
26104.116763499991
 20
18783.230914
 30
0.0
 11
27154.11808349998
 21
18783.230914
 31
0.0
  0
LINE
  5
406A
  8
SUNPOU
  6
CONTINUOUS
 62
     4
 10
26104.116763499991
 20
18082.230914
 30
0.0
 11
27154.11808349998
 21
18082.230914
 31
0.0
  0
LINE
  5
406B
  8
SUNPOU
  6
CONTINUOUS
 62
     4
 10
27074.11808349999
 20
18783.230914
 30
0.0
 11
27074.11808349999
 21
18082.230914
 31
0.0
  0
LINE
  5
406C
  8
SUNPOU
  6
CONTINUOUS
 62
     4
 10
26104.116763499991
 20
19484.230914
 30
0.0
 11
27154.11808349998
 21
19484.230914
 31
0.0
  0
LINE
  5
406D
  8
SUNPOU
  6
CONTINUOUS
 62
     4
 10
26104.116763499991
 20
18783.230914
 30
0.0
 11
27154.11808349998
 21
18783.230914
 31
0.0
  0
LINE
  5
406E
  8
SUNPOU
  6
CONTINUOUS
 62
     4
 10
27074.11808349999
 20
19484.230914
 30
0.0
 11
27074.11808349999
 21
18783.230914
 31
0.0
  0
LINE
  5
406F
  8
SUNPOU
  6
CONTINUOUS
 62
     4
 10
26954.11808349999
 20
17324.230914
 30
0.0
 11
27554.11808349998
 21
17324.230914
 31
0.0
  0
LINE
  5
4070
  8
SUNPOU
  6
CONTINUOUS
 62
     4
 10
26954.11808349999
 20
19891.730914
 30
0.0
 11
27554.11808349998
 21
19891.730914
 31
0.0
  0
LINE
  5
4071
  8
SUNPOU
  6
CONTINUOUS
 62
     4
 10
27474.11808349998
 20
17324.230914
 30
0.0
 11
27474.11808349998
 21
19891.730914
 31
0.0
  0
LINE
  5
4072
  8
SUNPOU
  6
CONTINUOUS
 62
     4
 10
26954.11808349999
 20
14406.230913999991
 30
0.0
 11
27554.11808349998
 21
14406.230913999991
 31
0.0
  0
LINE
  5
4073
  8
SUNPOU
  6
CONTINUOUS
 62
     4
 10
26954.11808349999
 20
17324.230914
 30
0.0
 11
27554.11808349998
 21
17324.230914
 31
0.0
  0
LINE
  5
4074
  8
SUNPOU
  6
CONTINUOUS
 62
     4
 10
27474.11808349998
 20
14406.230913999991
 30
0.0
 11
27474.11808349998
 21
17324.230914
 31
0.0
  0
LINE
  5
4075
  8
SUNPOU
  6
CONTINUOUS
 62
     4
 10
26104.116763499991
 20
19934.228209000001
 30
0.0
 11
27954.11808349999
 21
19934.228209000001
 31
0.0
  0
LINE
  5
4076
  8
SUNPOU
  6
CONTINUOUS
 62
     4
 10
26104.116763499991
 20
14363.733619000001
 30
0.0
 11
27954.11808349999
 21
14363.733619000001
 31
0.0
  0
LINE
  5
4077
  8
SUNPOU
  6
CONTINUOUS
 62
     4
 10
27874.11808349999
 20
19934.228209000001
 30
0.0
 11
27874.11808349999
 21
14363.733619000001
 31
0.0
  0
LINE
  5
4078
  8
SUNPOU
  6
CONTINUOUS
 62
     4
 10
26954.11808349999
 20
19891.730914
 30
0.0
 11
27554.11808349998
 21
19891.730914
 31
0.0
  0
LINE
  5
4079
  8
SUNPOU
  6
CONTINUOUS
 62
     4
 10
26104.116763499991
 20
19934.228209000001
 30
0.0
 11
27554.11808349998
 21
19934.228209000001
 31
0.0
  0
LINE
  5
407A
  8
SUNPOU
  6
CONTINUOUS
 62
     4
 10
27474.11808349998
 20
19891.730914
 30
0.0
 11
27474.11808349998
 21
19651.730914
 31
0.0
  0
LINE
  5
407B
  8
SUNPOU
  6
CONTINUOUS
 62
     4
 10
27474.11808349998
 20
19934.228209000001
 30
0.0
 11
27474.11808349998
 21
20174.228209000001
 31
0.0
  0
LINE
  5
407C
  8
SUNPOU
  6
CONTINUOUS
 62
     4
 10
27474.11808349998
 20
19891.730914
 30
0.0
 11
27474.11808349998
 21
19934.228209000001
 31
0.0
  0
LINE
  5
407D
  8
SUNPOU
  6
CONTINUOUS
 62
     4
 10
26954.11808349999
 20
14406.230913999991
 30
0.0
 11
27554.11808349998
 21
14406.230913999991
 31
0.0
  0
LINE
  5
407E
  8
SUNPOU
  6
CONTINUOUS
 62
     4
 10
26104.116763499991
 20
14363.733619000001
 30
0.0
 11
27554.11808349998
 21
14363.733619000001
 31
0.0
  0
LINE
  5
407F
  8
SUNPOU
  6
CONTINUOUS
 62
     4
 10
27474.11808349998
 20
14406.230913999991
 30
0.0
 11
27474.11808349998
 21
14646.230913999991
 31
0.0
  0
LINE
  5
4080
  8
SUNPOU
  6
CONTINUOUS
 62
     4
 10
27474.11808349998
 20
14363.733619000001
 30
0.0
 11
27474.11808349998
 21
14123.733619000001
 31
0.0
  0
LINE
  5
4081
  8
SUNPOU
  6
CONTINUOUS
 62
     4
 10
27474.11808349998
 20
14406.230913999991
 30
0.0
 11
27474.11808349998
 21
14363.733619000001
 31
0.0
  0
LINE
  5
4082
  8
SUNPOU
  6
CONTINUOUS
 62
     4
 10
22713.118479499979
 20
20014.229199000009
 30
0.0
 11
22713.118479499979
 21
20744.232102000031
 31
0.0
  0
LINE
  5
4083
  8
SUNPOU
  6
CONTINUOUS
 62
     4
 10
23120.61847949999
 20
20014.229199000009
 30
0.0
 11
23120.61847949999
 21
20744.232102000031
 31
0.0
  0
LINE
  5
4084
  8
SUNPOU
  6
CONTINUOUS
 62
     4
 10
22713.118479499979
 20
20664.232102000031
 30
0.0
 11
23120.61847949999
 21
20664.232102000031
 31
0.0
  0
LINE
  5
4085
  8
SUNPOU
  6
CONTINUOUS
 62
     4
 10
25223.618479500001
 20
20014.229199000009
 30
0.0
 11
25223.618479500001
 21
20744.232102000031
 31
0.0
  0
LINE
  5
4086
  8
SUNPOU
  6
CONTINUOUS
 62
     4
 10
25981.619469000001
 20
20014.229199000009
 30
0.0
 11
25981.619469000001
 21
20744.232102000031
 31
0.0
  0
LINE
  5
4087
  8
SUNPOU
  6
CONTINUOUS
 62
     4
 10
25223.618479500001
 20
20664.232102000031
 30
0.0
 11
25981.619469000001
 21
20664.232102000031
 31
0.0
  0
LINE
  5
4088
  8
SUNPOU
  6
CONTINUOUS
 62
     4
 10
24522.618479500001
 20
20014.229199000009
 30
0.0
 11
24522.618479500001
 21
20744.232102000031
 31
0.0
  0
LINE
  5
4089
  8
SUNPOU
  6
CONTINUOUS
 62
     4
 10
25223.618479500001
 20
20014.229199000009
 30
0.0
 11
25223.618479500001
 21
20744.232102000031
 31
0.0
  0
LINE
  5
408A
  8
SUNPOU
  6
CONTINUOUS
 62
     4
 10
24522.618479500001
 20
20664.232102000031
 30
0.0
 11
25223.618479500001
 21
20664.232102000031
 31
0.0
  0
LINE
  5
408B
  8
SUNPOU
  6
CONTINUOUS
 62
     4
 10
23821.61847949999
 20
20014.229199000009
 30
0.0
 11
23821.61847949999
 21
20744.232102000031
 31
0.0
  0
LINE
  5
408C
  8
SUNPOU
  6
CONTINUOUS
 62
     4
 10
24522.618479500001
 20
20014.229199000009
 30
0.0
 11
24522.618479500001
 21
20744.232102000031
 31
0.0
  0
LINE
  5
408D
  8
SUNPOU
  6
CONTINUOUS
 62
     4
 10
23821.61847949999
 20
20664.232102000031
 30
0.0
 11
24522.618479500001
 21
20664.232102000031
 31
0.0
  0
LINE
  5
408E
  8
SUNPOU
  6
CONTINUOUS
 62
     4
 10
23120.61847949999
 20
20014.229199000009
 30
0.0
 11
23120.61847949999
 21
20744.232102000031
 31
0.0
  0
LINE
  5
408F
  8
SUNPOU
  6
CONTINUOUS
 62
     4
 10
23821.61847949999
 20
20014.229199000009
 30
0.0
 11
23821.61847949999
 21
20744.232102000031
 31
0.0
  0
LINE
  5
4090
  8
SUNPOU
  6
CONTINUOUS
 62
     4
 10
23120.61847949999
 20
20664.232102000031
 30
0.0
 11
23821.61847949999
 21
20664.232102000031
 31
0.0
  0
LINE
  5
4091
  8
SUNPOU
  6
CONTINUOUS
 62
     4
 10
25981.61847949999
 20
20014.229199000009
 30
0.0
 11
25981.61847949999
 21
20744.232102000031
 31
0.0
  0
LINE
  5
4092
  8
SUNPOU
  6
CONTINUOUS
 62
     4
 10
26024.114784500001
 20
20014.229199000009
 30
0.0
 11
26024.114784500001
 21
20744.232102000031
 31
0.0
  0
LINE
  5
4093
  8
SUNPOU
  6
CONTINUOUS
 62
     4
 10
25981.61847949999
 20
20664.232102000031
 30
0.0
 11
25741.618479500001
 21
20664.232102000031
 31
0.0
  0
LINE
  5
4094
  8
SUNPOU
  6
CONTINUOUS
 62
     4
 10
26024.114784500001
 20
20664.232102000031
 30
0.0
 11
26264.114784500001
 21
20664.232102000031
 31
0.0
  0
LINE
  5
4095
  8
SUNPOU
  6
CONTINUOUS
 62
     4
 10
25981.61847949999
 20
20664.232102000031
 30
0.0
 11
26024.114784500001
 21
20664.232102000031
 31
0.0
  0
LINE
  5
4096
  8
SUNPOU
  6
CONTINUOUS
 62
     4
 10
19444.61847949999
 20
20014.229199000009
 30
0.0
 11
19444.61847949999
 21
20744.232102000031
 31
0.0
  0
LINE
  5
4097
  8
SUNPOU
  6
CONTINUOUS
 62
     4
 10
19852.11847949999
 20
20014.229199000009
 30
0.0
 11
19852.11847949999
 21
20744.232102000031
 31
0.0
  0
LINE
  5
4098
  8
SUNPOU
  6
CONTINUOUS
 62
     4
 10
19444.61847949999
 20
20664.232102000031
 30
0.0
 11
19852.11847949999
 21
20664.232102000031
 31
0.0
  0
LINE
  5
4099
  8
SUNPOU
  6
CONTINUOUS
 62
     4
 10
19444.61847949999
 20
20014.229199000009
 30
0.0
 11
19444.61847949999
 21
20744.232102000031
 31
0.0
  0
LINE
  5
409A
  8
SUNPOU
  6
CONTINUOUS
 62
     4
 10
19402.122174499978
 20
20014.229199000009
 30
0.0
 11
19402.122174499978
 21
20744.232102000031
 31
0.0
  0
LINE
  5
409B
  8
SUNPOU
  6
CONTINUOUS
 62
     4
 10
19444.61847949999
 20
20664.232102000031
 30
0.0
 11
19684.61847949999
 21
20664.232102000031
 31
0.0
  0
LINE
  5
409C
  8
SUNPOU
  6
CONTINUOUS
 62
     4
 10
19402.122174499978
 20
20664.232102000031
 30
0.0
 11
19162.122174499978
 21
20664.232102000031
 31
0.0
  0
LINE
  5
409D
  8
SUNPOU
  6
CONTINUOUS
 62
     4
 10
19444.61847949999
 20
20664.232102000031
 30
0.0
 11
19402.122174499978
 21
20664.232102000031
 31
0.0
  0
LINE
  5
409E
  8
SUNPOU
  6
CONTINUOUS
 62
     4
 10
21955.11847949999
 20
20014.229199000009
 30
0.0
 11
21955.11847949999
 21
20744.232102000031
 31
0.0
  0
LINE
  5
409F
  8
SUNPOU
  6
CONTINUOUS
 62
     4
 10
22713.119469000001
 20
20014.229199000009
 30
0.0
 11
22713.119469000001
 21
20744.232102000031
 31
0.0
  0
LINE
  5
40A0
  8
SUNPOU
  6
CONTINUOUS
 62
     4
 10
21955.11847949999
 20
20664.232102000031
 30
0.0
 11
22713.119469000001
 21
20664.232102000031
 31
0.0
  0
LINE
  5
40A1
  8
SUNPOU
  6
CONTINUOUS
 62
     4
 10
21254.11847949999
 20
20014.229199000009
 30
0.0
 11
21254.11847949999
 21
20744.232102000031
 31
0.0
  0
LINE
  5
40A2
  8
SUNPOU
  6
CONTINUOUS
 62
     4
 10
21955.11847949999
 20
20014.229199000009
 30
0.0
 11
21955.11847949999
 21
20744.232102000031
 31
0.0
  0
LINE
  5
40A3
  8
SUNPOU
  6
CONTINUOUS
 62
     4
 10
21254.11847949999
 20
20664.232102000031
 30
0.0
 11
21955.11847949999
 21
20664.232102000031
 31
0.0
  0
LINE
  5
40A4
  8
SUNPOU
  6
CONTINUOUS
 62
     4
 10
20553.118479500001
 20
20014.229199000009
 30
0.0
 11
20553.118479500001
 21
20744.232102000031
 31
0.0
  0
LINE
  5
40A5
  8
SUNPOU
  6
CONTINUOUS
 62
     4
 10
21254.11847949999
 20
20014.229199000009
 30
0.0
 11
21254.11847949999
 21
20744.232102000031
 31
0.0
  0
LINE
  5
40A6
  8
SUNPOU
  6
CONTINUOUS
 62
     4
 10
20553.118479500001
 20
20664.232102000031
 30
0.0
 11
21254.11847949999
 21
20664.232102000031
 31
0.0
  0
LINE
  5
40A7
  8
SUNPOU
  6
CONTINUOUS
 62
     4
 10
19852.11847949999
 20
20014.229199000009
 30
0.0
 11
19852.11847949999
 21
20744.232102000031
 31
0.0
  0
LINE
  5
40A8
  8
SUNPOU
  6
CONTINUOUS
 62
     4
 10
20553.118479500001
 20
20014.229199000009
 30
0.0
 11
20553.118479500001
 21
20744.232102000031
 31
0.0
  0
LINE
  5
40A9
  8
SUNPOU
  6
CONTINUOUS
 62
     4
 10
19852.11847949999
 20
20664.232102000031
 30
0.0
 11
20553.118479500001
 21
20664.232102000031
 31
0.0
  0
LINE
  5
40AA
  8
SUNPOU
  6
CONTINUOUS
 62
     4
 10
8769.3738785000023
 20
8722.9653796838102
 30
0.0
 11
8769.3738785000023
 21
9843.7812800000029
 31
0.0
  0
LINE
  5
40AB
  8
SUNPOU
  6
CONTINUOUS
 62
     4
 10
8589.3738785000023
 20
8852.7796040000067
 30
0.0
 11
8589.3738785000023
 21
9843.7812800000029
 31
0.0
  0
LINE
  5
40AC
  8
SUNPOU
  6
CONTINUOUS
 62
     4
 10
8769.3738785000023
 20
9763.7812800000029
 30
0.0
 11
8589.3738785000023
 21
9763.7812800000029
 31
0.0
  0
LINE
  5
40AD
  8
SUNPOU
  6
CONTINUOUS
 62
     4
 10
19314.6178205
 20
6615.7796039999957
 30
0.0
 11
18514.619139499981
 21
6615.7796039999957
 31
0.0
  0
LINE
  5
40AE
  8
SUNPOU
  6
CONTINUOUS
 62
     4
 10
19314.6178205
 20
8507.2796039999957
 30
0.0
 11
18514.619139499991
 21
8507.2796039999957
 31
0.0
  0
LINE
  5
40AF
  8
SUNPOU
  6
CONTINUOUS
 62
     4
 10
18594.619139499991
 20
6615.7796039999957
 30
0.0
 11
18594.619139499991
 21
8507.2796039999957
 31
0.0
  0
LINE
  5
40B0
  8
SUNPOU
  6
CONTINUOUS
 62
     4
 10
19314.6178205
 20
6615.7796039999957
 30
0.0
 11
18114.616830499981
 21
6615.7796039999957
 31
0.0
  0
LINE
  5
40B1
  8
SUNPOU
  6
CONTINUOUS
 62
     4
 10
19282.11808449998
 20
8964.2791089999973
 30
0.0
 11
18114.616830499988
 21
8964.2791089999973
 31
0.0
  0
LINE
  5
40B2
  8
SUNPOU
  6
CONTINUOUS
 62
     4
 10
18194.616830499981
 20
6615.7796039999957
 30
0.0
 11
18194.616830499988
 21
8964.2791089999973
 31
0.0
  0
LINE
  5
40C3
  8
SUNPOU
  6
CONTINUOUS
 62
     4
 10
19538.61847949999
 20
6435.7797690000007
 30
0.0
 11
19538.61847949999
 21
5635.7797689999989
 31
0.0
  0
LINE
  5
40C4
  8
SUNPOU
  6
CONTINUOUS
 62
     4
 10
22619.11847949999
 20
6435.7797690000007
 30
0.0
 11
22619.11847949999
 21
5635.7797689999989
 31
0.0
  0
LINE
  5
40C5
  8
SUNPOU
  6
CONTINUOUS
 62
     4
 10
19538.61847949999
 20
5715.7797689999998
 30
0.0
 11
22619.11847949999
 21
5715.7797689999998
 31
0.0
  0
LINE
  5
40C6
  8
SUNPOU
  6
CONTINUOUS
 62
     4
 10
22807.11847949999
 20
6435.7797690000007
 30
0.0
 11
22807.11847949999
 21
5635.7797689999989
 31
0.0
  0
LINE
  5
40C7
  8
SUNPOU
  6
CONTINUOUS
 62
     4
 10
25887.618479499979
 20
6435.7797690000007
 30
0.0
 11
25887.618479499979
 21
5635.7797689999989
 31
0.0
  0
LINE
  5
40C8
  8
SUNPOU
  6
CONTINUOUS
 62
     4
 10
22807.11847949999
 20
5715.7797689999998
 30
0.0
 11
25887.618479499979
 21
5715.7797689999998
 31
0.0
  0
LINE
  5
40C9
  8
SUNPOU
  6
CONTINUOUS
 62
     4
 10
22713.118479499979
 20
6173.1273459999966
 30
0.0
 11
22713.118479499979
 21
5235.7797689999998
 31
0.0
  0
LINE
  5
40CA
  8
SUNPOU
  6
CONTINUOUS
 62
     4
 10
25981.61847949999
 20
6173.1273459999966
 30
0.0
 11
25981.61847949999
 21
5235.7797689999998
 31
0.0
  0
LINE
  5
40CB
  8
SUNPOU
  6
CONTINUOUS
 62
     4
 10
22713.118479499979
 20
5315.7797690000016
 30
0.0
 11
25981.61847949999
 21
5315.7797690000016
 31
0.0
  0
LINE
  5
40CC
  8
SUNPOU
  6
CONTINUOUS
 62
     4
 10
19444.61847949999
 20
6173.1273459999966
 30
0.0
 11
19444.61847949999
 21
5235.7797689999998
 31
0.0
  0
LINE
  5
40CD
  8
SUNPOU
  6
CONTINUOUS
 62
     4
 10
22713.118479499979
 20
6173.1273459999966
 30
0.0
 11
22713.118479499979
 21
5235.7797689999998
 31
0.0
  0
LINE
  5
40CE
  8
SUNPOU
  6
CONTINUOUS
 62
     4
 10
19444.61847949999
 20
5315.7797690000016
 30
0.0
 11
22713.118479499979
 21
5315.7797690000016
 31
0.0
  0
LINE
  5
40CF
  8
SUNPOU
  6
CONTINUOUS
 62
     4
 10
25981.622438499999
 20
6173.1273459999966
 30
0.0
 11
25981.622438499999
 21
5235.7797689999998
 31
0.0
  0
LINE
  5
40D0
  8
SUNPOU
  6
CONTINUOUS
 62
     4
 10
26024.122438499991
 20
6435.7797690000007
 30
0.0
 11
26024.122438499991
 21
5235.7797689999998
 31
0.0
  0
LINE
  5
40D1
  8
SUNPOU
  6
CONTINUOUS
 62
     4
 10
25981.622438499999
 20
5315.7797690000016
 30
0.0
 11
25741.622438499999
 21
5315.7797690000016
 31
0.0
  0
LINE
  5
40D2
  8
SUNPOU
  6
CONTINUOUS
 62
     4
 10
26024.122438499991
 20
5315.7797690000016
 30
0.0
 11
26264.122438499991
 21
5315.7797690000016
 31
0.0
  0
LINE
  5
40D3
  8
SUNPOU
  6
CONTINUOUS
 62
     4
 10
25981.622438499999
 20
5315.7797690000016
 30
0.0
 11
26024.122438499991
 21
5315.7797690000016
 31
0.0
  0
LINE
  5
40D4
  8
SUNPOU
  6
CONTINUOUS
 62
     4
 10
19444.61847949999
 20
6173.1273459999966
 30
0.0
 11
19444.61847949999
 21
5235.7797689999998
 31
0.0
  0
LINE
  5
40D5
  8
SUNPOU
  6
CONTINUOUS
 62
     4
 10
19402.118479499979
 20
6435.7797690000007
 30
0.0
 11
19402.118479499979
 21
5235.7797689999998
 31
0.0
  0
LINE
  5
40D6
  8
SUNPOU
  6
CONTINUOUS
 62
     4
 10
19444.61847949999
 20
5315.7797690000016
 30
0.0
 11
19684.61847949999
 21
5315.7797690000016
 31
0.0
  0
LINE
  5
40D7
  8
SUNPOU
  6
CONTINUOUS
 62
     4
 10
19402.118479499979
 20
5315.7797690000016
 30
0.0
 11
19162.118479499979
 21
5315.7797690000016
 31
0.0
  0
LINE
  5
40D8
  8
SUNPOU
  6
CONTINUOUS
 62
     4
 10
19444.61847949999
 20
5315.7797690000016
 30
0.0
 11
19402.118479499979
 21
5315.7797690000016
 31
0.0
  0
LINE
  5
40D9
  8
SUNPOU
  6
CONTINUOUS
 62
     4
 10
19402.118479499979
 20
6435.7797690000007
 30
0.0
 11
19402.118479499979
 21
4835.7799339999983
 31
0.0
  0
LINE
  5
40DA
  8
SUNPOU
  6
CONTINUOUS
 62
     4
 10
26024.118479500001
 20
6435.7797690000007
 30
0.0
 11
26024.118479500001
 21
4835.7799339999983
 31
0.0
  0
LINE
  5
40DB
  8
SUNPOU
  6
CONTINUOUS
 62
     4
 10
19402.118479499979
 20
4915.7799339999983
 30
0.0
 11
26024.118479500001
 21
4915.7799339999983
 31
0.0
  0
LINE
  5
40DC
  8
SUNPOU
  6
CONTINUOUS
 62
     4
 10
14432.373878500001
 20
6615.7796040000021
 30
0.0
 11
15509.87229449999
 21
6615.7796040000021
 31
0.0
  0
LINE
  5
40DD
  8
SUNPOU
  6
CONTINUOUS
 62
     4
 10
14524.679158099359
 20
8964.279604000003
 30
0.0
 11
15509.87229449999
 21
8964.279604000003
 31
0.0
  0
LINE
  5
40DE
  8
SUNPOU
  6
CONTINUOUS
 62
     4
 10
15429.87229449999
 20
6615.7796040000021
 30
0.0
 11
15429.87229449999
 21
8964.279604000003
 31
0.0
  0
LINE
  5
40DF
  8
SUNPOU
  6
CONTINUOUS
 62
     4
 10
8681.8738785000005
 20
6615.7796040000021
 30
0.0
 11
7599.3754605000086
 21
6615.7796040000021
 31
0.0
  0
LINE
  5
40E0
  8
SUNPOU
  6
CONTINUOUS
 62
     4
 10
8509.3758565000026
 20
8771.7796040000067
 30
0.0
 11
7599.3754605000086
 21
8771.7796040000067
 31
0.0
  0
LINE
  5
40E1
  8
SUNPOU
  6
CONTINUOUS
 62
     4
 10
7679.3754605000104
 20
6615.7796040000021
 30
0.0
 11
7679.3754605000104
 21
8771.7796040000067
 31
0.0
  0
LINE
  5
40E2
  8
SUNPOU
  6
CONTINUOUS
 62
     4
 10
8589.3738785000023
 20
8852.7796040000067
 30
0.0
 11
8589.3738785000023
 21
10243.779630000001
 31
0.0
  0
LINE
  5
40E3
  8
SUNPOU
  6
CONTINUOUS
 62
     4
 10
14489.873878500001
 20
8984.6694274124347
 30
0.0
 11
14489.873878500001
 21
10243.779630000001
 31
0.0
  0
LINE
  5
40E4
  8
SUNPOU
  6
CONTINUOUS
 62
     4
 10
8589.3738785000023
 20
10163.779630000001
 30
0.0
 11
14489.873878500001
 21
10163.779630000001
 31
0.0
  0
LINE
  5
40E5
  8
SUNPOU
  6
CONTINUOUS
 62
     4
 10
14339.873878500001
 20
8910.6896680000063
 30
0.0
 11
14339.873878500001
 21
9843.7812800000029
 31
0.0
  0
LINE
  5
40E6
  8
SUNPOU
  6
CONTINUOUS
 62
     4
 10
14489.873878500001
 20
8984.6694274124347
 30
0.0
 11
14489.873878500001
 21
9843.7812800000029
 31
0.0
  0
LINE
  5
40E7
  8
SUNPOU
  6
CONTINUOUS
 62
     4
 10
14339.873878500001
 20
9763.7812800000029
 30
0.0
 11
14099.873878500001
 21
9763.7812800000029
 31
0.0
  0
LINE
  5
40E8
  8
SUNPOU
  6
CONTINUOUS
 62
     4
 10
14489.873878500001
 20
9763.7812800000029
 30
0.0
 11
14729.873878500001
 21
9763.7812800000029
 31
0.0
  0
LINE
  5
40E9
  8
SUNPOU
  6
CONTINUOUS
 62
     4
 10
14339.873878500001
 20
9763.7812800000029
 30
0.0
 11
14489.873878500001
 21
9763.7812800000029
 31
0.0
  0
LINE
  5
40EA
  8
SUNPOU
  6
CONTINUOUS
 62
     4
 10
8769.3738785000023
 20
8722.9653796838102
 30
0.0
 11
8769.3738785000023
 21
9843.7812800000029
 31
0.0
  0
LINE
  5
40EB
  8
SUNPOU
  6
CONTINUOUS
 62
     4
 10
14339.873878500001
 20
8910.6896680000063
 30
0.0
 11
14339.873878500001
 21
9843.7812800000029
 31
0.0
  0
LINE
  5
40EC
  8
SUNPOU
  6
CONTINUOUS
 62
     4
 10
8769.3738785000023
 20
9763.7812800000029
 30
0.0
 11
14339.873878500001
 21
9763.7812800000029
 31
0.0
  0
LINE
  5
40ED
  8
SUNPOU
  6
CONTINUOUS
 62
     4
 10
8769.3738785000023
 20
6535.7796040000076
 30
0.0
 11
8769.3738785000023
 21
4835.7799340000038
 31
0.0
  0
LINE
  5
40EE
  8
SUNPOU
  6
CONTINUOUS
 62
     4
 10
14339.873878500001
 20
6535.7796040000076
 30
0.0
 11
14339.873878500001
 21
4835.7799340000038
 31
0.0
  0
LINE
  5
40EF
  8
SUNPOU
  6
CONTINUOUS
 62
     4
 10
8769.3738785000023
 20
4915.7799340000047
 30
0.0
 11
14339.873878500001
 21
4915.7799340000047
 31
0.0
  0
LINE
  5
40F0
  8
SUNPOU
  6
CONTINUOUS
 62
     4
 10
14297.373878500001
 20
6173.1273460000039
 30
0.0
 11
14297.373878500001
 21
5235.7797690000043
 31
0.0
  0
LINE
  5
40F1
  8
SUNPOU
  6
CONTINUOUS
 62
     4
 10
14339.873878500001
 20
6535.7796040000076
 30
0.0
 11
14339.873878500001
 21
5235.7797690000043
 31
0.0
  0
LINE
  5
40F2
  8
SUNPOU
  6
CONTINUOUS
 62
     4
 10
14297.373878500001
 20
5315.7797690000052
 30
0.0
 11
14057.373878500001
 21
5315.7797690000052
 31
0.0
  0
LINE
  5
40F3
  8
SUNPOU
  6
CONTINUOUS
 62
     4
 10
14339.873878500001
 20
5315.7797690000052
 30
0.0
 11
14579.873878500001
 21
5315.7797690000052
 31
0.0
  0
LINE
  5
40F4
  8
SUNPOU
  6
CONTINUOUS
 62
     4
 10
14297.373878500001
 20
5315.7797690000052
 30
0.0
 11
14339.873878500001
 21
5315.7797690000052
 31
0.0
  0
LINE
  5
40F5
  8
SUNPOU
  6
CONTINUOUS
 62
     4
 10
8811.8738785000005
 20
6173.1273460000039
 30
0.0
 11
8811.8738785000005
 21
5235.7797690000043
 31
0.0
  0
LINE
  5
40F6
  8
SUNPOU
  6
CONTINUOUS
 62
     4
 10
8769.3738785000023
 20
6535.7796040000076
 30
0.0
 11
8769.3738785000023
 21
5235.7797690000043
 31
0.0
  0
LINE
  5
40F7
  8
SUNPOU
  6
CONTINUOUS
 62
     4
 10
8811.8738785000005
 20
5315.7797690000052
 30
0.0
 11
9051.8738785000023
 21
5315.7797690000052
 31
0.0
  0
LINE
  5
40F8
  8
SUNPOU
  6
CONTINUOUS
 62
     4
 10
8769.3738785000023
 20
5315.7797690000052
 30
0.0
 11
8529.3738785000023
 21
5315.7797690000052
 31
0.0
  0
LINE
  5
40F9
  8
SUNPOU
  6
CONTINUOUS
 62
     4
 10
8811.8738785000005
 20
5315.7797690000052
 30
0.0
 11
8769.3738785000023
 21
5315.7797690000052
 31
0.0
  0
LINE
  5
40FA
  8
SUNPOU
  6
CONTINUOUS
 62
     4
 10
11379.373878500001
 20
6173.1273460000039
 30
0.0
 11
11379.373878500001
 21
5235.7797690000043
 31
0.0
  0
LINE
  5
40FB
  8
SUNPOU
  6
CONTINUOUS
 62
     4
 10
8811.8738785000005
 20
6173.1273460000039
 30
0.0
 11
8811.8738785000005
 21
5235.7797690000043
 31
0.0
  0
LINE
  5
40FC
  8
SUNPOU
  6
CONTINUOUS
 62
     4
 10
11379.373878500001
 20
5315.7797690000052
 30
0.0
 11
8811.8738785000005
 21
5315.7797690000052
 31
0.0
  0
LINE
  5
40FD
  8
SUNPOU
  6
CONTINUOUS
 62
     4
 10
11379.373878500001
 20
6173.1273460000039
 30
0.0
 11
11379.373878500001
 21
5235.7797690000043
 31
0.0
  0
LINE
  5
40FE
  8
SUNPOU
  6
CONTINUOUS
 62
     4
 10
14297.373878500001
 20
6173.1273460000039
 30
0.0
 11
14297.373878500001
 21
5235.7797690000043
 31
0.0
  0
LINE
  5
40FF
  8
SUNPOU
  6
CONTINUOUS
 62
     4
 10
11379.373878500001
 20
5315.7797690000052
 30
0.0
 11
14297.373878500001
 21
5315.7797690000052
 31
0.0
  0
TEXT
  5
4100
  8
0
  6
CONTINUOUS
 62
     7
 10
12571.707211833331
 20
5395.7797690000043
 30
0.0
 40
160.0
  1
2918
  0
TEXT
  5
4101
  8
0
  6
CONTINUOUS
 62
     7
 10
9695.6238785000023
 20
5395.7797690000043
 30
0.0
 40
160.0
  1
2567.5
  0
TEXT
  5
4102
  8
0
  6
CONTINUOUS
 62
     7
 10
8172.2001694036962
 20
5395.7797690000043
 30
0.0
 40
160.0
  1
42.5
  0
TEXT
  5
4103
  8
0
  6
CONTINUOUS
 62
     7
 10
14478.192515809809
 20
5395.7797690000043
 30
0.0
 40
160.0
  1
42.5
  0
TEXT
  5
4104
  8
0
  6
CONTINUOUS
 62
     7
 10
11167.957211833331
 20
4995.7799340000047
 30
0.0
 40
160.0
  1
5570.5
  0
TEXT
  5
4105
  8
0
  6
CONTINUOUS
 62
     7
 10
11167.957211833331
 20
9843.7812800000029
 30
0.0
 40
160.0
  1
5570.5
  0
TEXT
  5
4106
  8
0
  6
CONTINUOUS
 62
     7
 10
14556.54054516667
 20
9843.7812800000029
 30
0.0
 40
160.0
  1
150
  0
TEXT
  5
4107
  8
0
  6
CONTINUOUS
 62
     7
 10
11166.29054516667
 20
10243.779630000001
 30
0.0
 40
160.0
  1
5900.5
  0
TEXT
  5
4108
  8
0
  6
CONTINUOUS
 62
     7
 10
7599.3754605000086
 20
6915.112937333337
 30
0.0
 40
160.0
  1
2156（2396）
 50
90.0
  0
TEXT
  5
4109
  8
0
  6
CONTINUOUS
 62
     7
 10
15349.87229449999
 20
6771.362937333337
 30
0.0
 40
160.0
  1
2348.5（2588.5）
 50
90.0
  0
TEXT
  5
410A
  8
0
  6
CONTINUOUS
 62
     7
 10
22419.785146166661
 20
4995.7799339999983
 30
0.0
 40
160.0
  1
6622
  0
TEXT
  5
410B
  8
0
  6
CONTINUOUS
 62
     7
 10
18836.07948924115
 20
5395.7797689999998
 30
0.0
 40
160.0
  1
42.5
  0
TEXT
  5
410C
  8
0
  6
CONTINUOUS
 62
     7
 10
26110.161428758849
 20
5395.7797689999998
 30
0.0
 40
160.0
  1
42.5
  0
TEXT
  5
410D
  8
0
  6
CONTINUOUS
 62
     7
 10
20678.868479500001
 20
5395.7797689999998
 30
0.0
 40
160.0
  1
3268.5
  0
TEXT
  5
410E
  8
0
  6
CONTINUOUS
 62
     7
 10
23947.36847949999
 20
5395.7797689999998
 30
0.0
 40
160.0
  1
3268.5
  0
TEXT
  5
410F
  8
0
  6
CONTINUOUS
 62
     7
 10
23446.035146166661
 20
5795.7797690000007
 30
0.0
 40
160.0
  1
有効開口巾 3080.5
  0
TEXT
  5
4110
  8
0
  6
CONTINUOUS
 62
     7
 10
20177.535146166661
 20
5795.7797690000007
 30
0.0
 40
160.0
  1
有効開口巾 3080.5
  0
TEXT
  5
4115
  8
0
  6
CONTINUOUS
 62
     7
 10
18114.616830499981
 20
6771.3626898333332
 30
0.0
 40
160.0
  1
2348.5（2588.5）
 50
90.0
  0
TEXT
  5
4116
  8
0
  6
CONTINUOUS
 62
     7
 10
18514.619139499991
 20
6679.7588422912713
 30
0.0
 40
160.0
  1
有効開口高サ 1891.5
 50
90.0
  0
TEXT
  5
4117
  8
0
  6
CONTINUOUS
 62
     7
 10
8128.4205078486357
 20
9843.7812800000029
 30
0.0
 40
160.0
  1
180
  0
TEXT
  5
4118
  8
0
  6
CONTINUOUS
 62
     7
 10
20029.285146166661
 20
20424.232102000031
 30
0.0
 40
160.0
  1
701
  0
TEXT
  5
4119
  8
0
  6
CONTINUOUS
 62
     7
 10
20730.285146166661
 20
20744.232102000031
 30
0.0
 40
160.0
  1
701
  0
TEXT
  5
411A
  8
0
  6
CONTINUOUS
 62
     7
 10
21431.285146166661
 20
20744.232102000031
 30
0.0
 40
160.0
  1
701
  0
TEXT
  5
411B
  8
0
  6
CONTINUOUS
 62
     7
 10
22120.785640916671
 20
20744.232102000031
 30
0.0
 40
160.0
  1
758
  0
TEXT
  5
411C
  8
0
  6
CONTINUOUS
 62
     7
 10
18841.806499971179
 20
20744.232102000031
 30
0.0
 40
160.0
  1
42.5
  0
TEXT
  5
411D
  8
0
  6
CONTINUOUS
 62
     7
 10
19545.451812833318
 20
20744.232102000031
 30
0.0
 40
160.0
  1
407.5
  0
TEXT
  5
411E
  8
0
  6
CONTINUOUS
 62
     7
 10
26104.43045902879
 20
20744.232102000031
 30
0.0
 40
160.0
  1
42.5
  0
TEXT
  5
411F
  8
0
  6
CONTINUOUS
 62
     7
 10
23297.785146166661
 20
20424.232102000031
 30
0.0
 40
160.0
  1
701
  0
TEXT
  5
4120
  8
0
  6
CONTINUOUS
 62
     7
 10
23998.785146166661
 20
20744.232102000031
 30
0.0
 40
160.0
  1
701
  0
TEXT
  5
4121
  8
0
  6
CONTINUOUS
 62
     7
 10
24699.785146166661
 20
20744.232102000031
 30
0.0
 40
160.0
  1
701
  0
TEXT
  5
4122
  8
0
  6
CONTINUOUS
 62
     7
 10
25389.285640916671
 20
20744.232102000031
 30
0.0
 40
160.0
  1
758
  0
TEXT
  5
4123
  8
0
  6
CONTINUOUS
 62
     7
 10
22813.951812833329
 20
20744.232102000031
 30
0.0
 40
160.0
  1
407.5
  0
TEXT
  5
4124
  8
0
  6
CONTINUOUS
 62
     7
 10
27394.11808349998
 20
13790.1773826032
 30
0.0
 40
160.0
  1
42.5
 50
90.0
  0
TEXT
  5
4125
  8
0
  6
CONTINUOUS
 62
     7
 10
27394.11808349998
 20
20027.784445396788
 30
0.0
 40
160.0
  1
42.5
 50
90.0
  0
TEXT
  5
4126
  8
0
  6
CONTINUOUS
 62
     7
 10
27794.11808349999
 20
16762.314247333339
 30
0.0
 40
160.0
  1
5570.5
 50
90.0
  0
TEXT
  5
4127
  8
0
  6
CONTINUOUS
 62
     7
 10
27394.11808349998
 20
15598.56424733333
 30
0.0
 40
160.0
  1
2918
 50
90.0
  0
TEXT
  5
4128
  8
0
  6
CONTINUOUS
 62
     7
 10
27394.11808349998
 20
18207.980914
 30
0.0
 40
160.0
  1
2567.5
 50
90.0
  0
TEXT
  5
4129
  8
0
  6
CONTINUOUS
 62
     7
 10
26994.11808349999
 20
18960.397580666671
 30
0.0
 40
160.0
  1
701
 50
90.0
  0
TEXT
  5
412A
  8
0
  6
CONTINUOUS
 62
     7
 10
26994.11808349999
 20
18259.397580666671
 30
0.0
 40
160.0
  1
701
 50
90.0
  0
TEXT
  5
412B
  8
0
  6
CONTINUOUS
 62
     7
 10
26994.11808349999
 20
17489.897580666671
 30
0.0
 40
160.0
  1
758
 50
90.0
  0
TEXT
  5
412C
  8
0
  6
CONTINUOUS
 62
     7
 10
26994.11808349999
 20
16731.897580666671
 30
0.0
 40
160.0
  1
758
 50
90.0
  0
TEXT
  5
412D
  8
0
  6
CONTINUOUS
 62
     7
 10
26994.11808349999
 20
16042.51783641668
 30
0.0
 40
160.0
  1
701
 50
90.0
  0
TEXT
  5
412E
  8
0
  6
CONTINUOUS
 62
     7
 10
26994.11808349999
 20
15341.51783641668
 30
0.0
 40
160.0
  1
701
 50
90.0
  0
TEXT
  5
412F
  8
0
  6
CONTINUOUS
 62
     7
 10
26994.11808349999
 20
14571.89758066666
 30
0.0
 40
160.0
  1
758
 50
90.0
  0
TEXT
  5
4130
  8
0
  6
CONTINUOUS
 62
     7
 10
22419.785146166669
 20
13114.78283
 30
0.0
 40
160.0
  1
6622
  0
TEXT
  5
4131
  8
0
  6
CONTINUOUS
 62
     7
 10
19562.672151882081
 20
13514.78283
 30
0.0
 40
160.0
  1
42.5
  0
TEXT
  5
4132
  8
0
  6
CONTINUOUS
 62
     7
 10
25383.564807117891
 20
13514.78283
 30
0.0
 40
160.0
  1
42.5
  0
TEXT
  5
4133
  8
0
  6
CONTINUOUS
 62
     7
 10
26099.672151882089
 20
13514.78283
 30
0.0
 40
160.0
  1
42.5
  0
TEXT
  5
4134
  8
0
  6
CONTINUOUS
 62
     7
 10
18846.56480711788
 20
13514.78283
 30
0.0
 40
160.0
  1
42.5
  0
TEXT
  5
4135
  8
0
  6
CONTINUOUS
 62
     7
 10
27354.11808349998
 20
19193.608881643198
 30
0.0
 40
160.0
  1
407.5
 50
90.0
  0
TEXT
  5
4136
  8
0
  6
CONTINUOUS
 62
     7
 10
12941.40939049999
 20
20744.232102000031
 30
0.0
 40
160.0
  1
3268.5
  0
TEXT
  5
4137
  8
0
  6
CONTINUOUS
 62
     7
 10
15112.15609652324
 20
20744.232102000031
 30
0.0
 40
160.0
  1
85.5
  0
TEXT
  5
4138
  8
0
  6
CONTINUOUS
 62
     7
 10
9672.90939049999
 20
20744.232102000031
 30
0.0
 40
160.0
  1
3268.5
  0
TEXT
  5
4139
  8
0
  6
CONTINUOUS
 62
     7
 10
7822.1626844767216
 20
20744.232102000031
 30
0.0
 40
160.0
  1
85.5
  0
TEXT
  5
413A
  8
0
  6
CONTINUOUS
 62
     7
 10
7429.1596144999867
 20
13598.27790370263
 30
0.0
 40
160.0
  1
192.5
 50
90.0
  0
TEXT
  5
413B
  8
0
  6
CONTINUOUS
 62
     7
 10
7429.1596144999903
 20
15598.56424733333
 30
0.0
 40
160.0
  1
2918
 50
90.0
  0
TEXT
  5
413C
  8
0
  6
CONTINUOUS
 62
     7
 10
7429.1596144999903
 20
18207.980914
 30
0.0
 40
160.0
  1
2567.5
 50
90.0
  0
TEXT
  5
413D
  8
0
  6
CONTINUOUS
 62
     7
 10
7429.1596144999867
 20
20203.186098807681
 30
0.0
 40
160.0
  1
222.5
 50
90.0
  0
TEXT
  5
413E
  8
0
  6
CONTINUOUS
 62
     7
 10
7829.1596144999903
 20
20260.89348966668
 30
0.0
 40
160.0
  1
10
 50
90.0
  0
ARC
  5
4144
  8
0
  6
BYBLOCK
 62
     0
 10
7909.1596144999912
 20
20104.226823000012
 30
0.0
 40
15.0
 50
270.0
 51
90.0
  0
ARC
  5
4145
  8
0
  6
BYBLOCK
 62
     0
 10
7909.1596144999912
 20
20104.226823000012
 30
0.0
 40
15.0
 50
90.0
 51
270.0
  0
ARC
  5
4146
  8
0
  6
BYBLOCK
 62
     0
 10
7909.1596144999912
 20
20114.226823000001
 30
0.0
 40
15.0
 50
90.0
 51
270.0
  0
ARC
  5
4147
  8
0
  6
BYBLOCK
 62
     0
 10
7909.1596144999912
 20
20114.226823000001
 30
0.0
 40
15.0
 50
270.0
 51
90.0
  0
ARC
  5
4148
  8
0
  6
BYBLOCK
 62
     0
 10
7509.1596144999912
 20
19891.730914
 30
0.0
 40
15.0
 50
90.0
 51
270.0
  0
ARC
  5
4149
  8
0
  6
BYBLOCK
 62
     0
 10
7509.1596144999912
 20
19891.730914
 30
0.0
 40
15.0
 50
270.0
 51
90.0
  0
ARC
  5
414A
  8
0
  6
BYBLOCK
 62
     0
 10
7509.1596144999912
 20
20114.226823000001
 30
0.0
 40
15.0
 50
270.0
 51
90.0
  0
ARC
  5
414B
  8
0
  6
BYBLOCK
 62
     0
 10
7509.1596144999912
 20
20114.226823000001
 30
0.0
 40
15.0
 50
90.0
 51
270.0
  0
ARC
  5
414C
  8
0
  6
BYBLOCK
 62
     0
 10
7509.1596144999912
 20
17324.230914
 30
0.0
 40
15.0
 50
90.0
 51
270.0
  0
ARC
  5
414D
  8
0
  6
BYBLOCK
 62
     0
 10
7509.1596144999912
 20
17324.230914
 30
0.0
 40
15.0
 50
270.0
 51
90.0
  0
ARC
  5
414E
  8
0
  6
BYBLOCK
 62
     0
 10
7509.1596144999912
 20
19891.730914
 30
0.0
 40
15.0
 50
270.0
 51
90.0
  0
ARC
  5
414F
  8
0
  6
BYBLOCK
 62
     0
 10
7509.1596144999912
 20
19891.730914
 30
0.0
 40
15.0
 50
90.0
 51
270.0
  0
ARC
  5
4150
  8
0
  6
BYBLOCK
 62
     0
 10
7509.1596144999912
 20
14406.230913999991
 30
0.0
 40
15.0
 50
90.0
 51
270.0
  0
ARC
  5
4151
  8
0
  6
BYBLOCK
 62
     0
 10
7509.1596144999912
 20
14406.230913999991
 30
0.0
 40
15.0
 50
270.0
 51
90.0
  0
ARC
  5
4152
  8
0
  6
BYBLOCK
 62
     0
 10
7509.1596144999912
 20
17324.230914
 30
0.0
 40
15.0
 50
270.0
 51
90.0
  0
ARC
  5
4153
  8
0
  6
BYBLOCK
 62
     0
 10
7509.1596144999912
 20
17324.230914
 30
0.0
 40
15.0
 50
90.0
 51
270.0
  0
ARC
  5
4154
  8
0
  6
BYBLOCK
 62
     0
 10
7509.1596144999976
 20
14406.230913999991
 30
0.0
 40
15.0
 50
270.0
 51
90.0
  0
ARC
  5
4155
  8
0
  6
BYBLOCK
 62
     0
 10
7509.1596144999976
 20
14406.230913999991
 30
0.0
 40
15.0
 50
90.0
 51
270.0
  0
ARC
  5
4156
  8
0
  6
BYBLOCK
 62
     0
 10
7509.1596144999912
 20
14213.735599
 30
0.0
 40
15.0
 50
90.0
 51
270.0
  0
ARC
  5
4157
  8
0
  6
BYBLOCK
 62
     0
 10
7509.1596144999912
 20
14213.735599
 30
0.0
 40
15.0
 50
270.0
 51
90.0
  0
ARC
  5
4158
  8
0
  6
BYBLOCK
 62
     0
 10
8438.65939049999
 20
20664.232102000031
 30
0.0
 40
15.0
 50
0.0
 51
180.0
  0
ARC
  5
4159
  8
0
  6
BYBLOCK
 62
     0
 10
8438.65939049999
 20
20664.232102000031
 30
0.0
 40
15.0
 50
180.0
 51
0.0
  0
ARC
  5
415A
  8
0
  6
BYBLOCK
 62
     0
 10
8353.1593904999863
 20
20664.232102000031
 30
0.0
 40
15.0
 50
180.0
 51
0.0
  0
ARC
  5
415B
  8
0
  6
BYBLOCK
 62
     0
 10
8353.1593904999863
 20
20664.232102000031
 30
0.0
 40
15.0
 50
0.0
 51
180.0
  0
ARC
  5
415C
  8
0
  6
BYBLOCK
 62
     0
 10
11707.15939049999
 20
20664.232102000031
 30
0.0
 40
15.0
 50
180.0
 51
0.0
  0
ARC
  5
415D
  8
0
  6
BYBLOCK
 62
     0
 10
11707.15939049999
 20
20664.232102000031
 30
0.0
 40
15.0
 50
0.0
 51
180.0
  0
ARC
  5
415E
  8
0
  6
BYBLOCK
 62
     0
 10
8438.65939049999
 20
20664.232102000031
 30
0.0
 40
15.0
 50
0.0
 51
180.0
  0
ARC
  5
415F
  8
0
  6
BYBLOCK
 62
     0
 10
8438.65939049999
 20
20664.232102000031
 30
0.0
 40
15.0
 50
180.0
 51
0.0
  0
ARC
  5
4160
  8
0
  6
BYBLOCK
 62
     0
 10
14975.65939049999
 20
20664.232102000031
 30
0.0
 40
15.0
 50
180.0
 51
0.0
  0
ARC
  5
4161
  8
0
  6
BYBLOCK
 62
     0
 10
14975.65939049999
 20
20664.232102000031
 30
0.0
 40
15.0
 50
0.0
 51
180.0
  0
ARC
  5
4162
  8
0
  6
BYBLOCK
 62
     0
 10
15061.159390499981
 20
20664.232102000031
 30
0.0
 40
15.0
 50
0.0
 51
180.0
  0
ARC
  5
4163
  8
0
  6
BYBLOCK
 62
     0
 10
15061.159390499981
 20
20664.232102000031
 30
0.0
 40
15.0
 50
180.0
 51
0.0
  0
ARC
  5
4164
  8
0
  6
BYBLOCK
 62
     0
 10
11707.15939049999
 20
20664.232102000031
 30
0.0
 40
15.0
 50
0.0
 51
180.0
  0
ARC
  5
4165
  8
0
  6
BYBLOCK
 62
     0
 10
11707.15939049999
 20
20664.232102000031
 30
0.0
 40
15.0
 50
180.0
 51
0.0
  0
ARC
  5
4166
  8
0
  6
BYBLOCK
 62
     0
 10
14975.65939049999
 20
20664.232102000031
 30
0.0
 40
15.0
 50
180.0
 51
0.0
  0
ARC
  5
4167
  8
0
  6
BYBLOCK
 62
     0
 10
14975.65939049999
 20
20664.232102000031
 30
0.0
 40
15.0
 50
0.0
 51
180.0
  0
ARC
  5
4168
  8
0
  6
BYBLOCK
 62
     0
 10
27074.11808349999
 20
19484.230914
 30
0.0
 40
15.0
 50
90.0
 51
270.0
  0
ARC
  5
4169
  8
0
  6
BYBLOCK
 62
     0
 10
27074.11808349999
 20
19484.230914
 30
0.0
 40
15.0
 50
270.0
 51
90.0
  0
ARC
  5
416A
  8
0
  6
BYBLOCK
 62
     0
 10
27074.11808349999
 20
19891.730914
 30
0.0
 40
15.0
 50
270.0
 51
90.0
  0
ARC
  5
416B
  8
0
  6
BYBLOCK
 62
     0
 10
27074.11808349999
 20
19891.730914
 30
0.0
 40
15.0
 50
90.0
 51
270.0
  0
ARC
  5
416C
  8
0
  6
BYBLOCK
 62
     0
 10
19444.61847949999
 20
13434.78283
 30
0.0
 40
15.0
 50
0.0
 51
180.0
  0
ARC
  5
416D
  8
0
  6
BYBLOCK
 62
     0
 10
19444.61847949999
 20
13434.78283
 30
0.0
 40
15.0
 50
180.0
 51
0.0
  0
ARC
  5
416E
  8
0
  6
BYBLOCK
 62
     0
 10
19402.116236499991
 20
13434.78283
 30
0.0
 40
15.0
 50
180.0
 51
0.0
  0
ARC
  5
416F
  8
0
  6
BYBLOCK
 62
     0
 10
19402.116236499991
 20
13434.78283
 30
0.0
 40
15.0
 50
0.0
 51
180.0
  0
ARC
  5
4170
  8
0
  6
BYBLOCK
 62
     0
 10
25981.61847949999
 20
13434.78283
 30
0.0
 40
15.0
 50
180.0
 51
0.0
  0
ARC
  5
4171
  8
0
  6
BYBLOCK
 62
     0
 10
25981.61847949999
 20
13434.78283
 30
0.0
 40
15.0
 50
0.0
 51
180.0
  0
ARC
  5
4172
  8
0
  6
BYBLOCK
 62
     0
 10
26024.120722499989
 20
13434.78283
 30
0.0
 40
15.0
 50
0.0
 51
180.0
  0
ARC
  5
4173
  8
0
  6
BYBLOCK
 62
     0
 10
26024.120722499989
 20
13434.78283
 30
0.0
 40
15.0
 50
180.0
 51
0.0
  0
ARC
  5
4174
  8
0
  6
BYBLOCK
 62
     0
 10
25981.61847949999
 20
13434.78283
 30
0.0
 40
15.0
 50
0.0
 51
180.0
  0
ARC
  5
4175
  8
0
  6
BYBLOCK
 62
     0
 10
25981.61847949999
 20
13434.78283
 30
0.0
 40
15.0
 50
180.0
 51
0.0
  0
ARC
  5
4176
  8
0
  6
BYBLOCK
 62
     0
 10
25939.116236499991
 20
13434.78283
 30
0.0
 40
15.0
 50
180.0
 51
0.0
  0
ARC
  5
4177
  8
0
  6
BYBLOCK
 62
     0
 10
25939.116236499991
 20
13434.78283
 30
0.0
 40
15.0
 50
0.0
 51
180.0
  0
ARC
  5
4178
  8
0
  6
BYBLOCK
 62
     0
 10
19444.61847949999
 20
13434.78283
 30
0.0
 40
15.0
 50
180.0
 51
0.0
  0
ARC
  5
4179
  8
0
  6
BYBLOCK
 62
     0
 10
19444.61847949999
 20
13434.78283
 30
0.0
 40
15.0
 50
0.0
 51
180.0
  0
ARC
  5
417A
  8
0
  6
BYBLOCK
 62
     0
 10
19487.120722499989
 20
13434.78283
 30
0.0
 40
15.0
 50
0.0
 51
180.0
  0
ARC
  5
417B
  8
0
  6
BYBLOCK
 62
     0
 10
19487.120722499989
 20
13434.78283
 30
0.0
 40
15.0
 50
180.0
 51
0.0
  0
ARC
  5
417C
  8
0
  6
BYBLOCK
 62
     0
 10
19402.116236499991
 20
13034.78283
 30
0.0
 40
15.0
 50
0.0
 51
180.0
  0
ARC
  5
417D
  8
0
  6
BYBLOCK
 62
     0
 10
19402.116236499991
 20
13034.78283
 30
0.0
 40
15.0
 50
180.0
 51
0.0
  0
ARC
  5
417E
  8
0
  6
BYBLOCK
 62
     0
 10
26024.120722499989
 20
13034.78283
 30
0.0
 40
15.0
 50
180.0
 51
0.0
  0
ARC
  5
417F
  8
0
  6
BYBLOCK
 62
     0
 10
26024.120722499989
 20
13034.78283
 30
0.0
 40
15.0
 50
0.0
 51
180.0
  0
ARC
  5
4180
  8
0
  6
BYBLOCK
 62
     0
 10
27074.11808349999
 20
15164.230913999991
 30
0.0
 40
15.0
 50
270.0
 51
90.0
  0
ARC
  5
4181
  8
0
  6
BYBLOCK
 62
     0
 10
27074.11808349999
 20
15164.230913999991
 30
0.0
 40
15.0
 50
90.0
 51
270.0
  0
ARC
  5
4182
  8
0
  6
BYBLOCK
 62
     0
 10
27074.11808349999
 20
14406.230913999991
 30
0.0
 40
15.0
 50
90.0
 51
270.0
  0
ARC
  5
4183
  8
0
  6
BYBLOCK
 62
     0
 10
27074.11808349999
 20
14406.230913999991
 30
0.0
 40
15.0
 50
270.0
 51
90.0
  0
ARC
  5
4184
  8
0
  6
BYBLOCK
 62
     0
 10
27074.11808349999
 20
15865.471425500011
 30
0.0
 40
15.0
 50
270.0
 51
90.0
  0
ARC
  5
4185
  8
0
  6
BYBLOCK
 62
     0
 10
27074.11808349999
 20
15865.471425500011
 30
0.0
 40
15.0
 50
90.0
 51
270.0
  0
ARC
  5
4186
  8
0
  6
BYBLOCK
 62
     0
 10
27074.11808349999
 20
15164.230913999991
 30
0.0
 40
15.0
 50
90.0
 51
270.0
  0
ARC
  5
4187
  8
0
  6
BYBLOCK
 62
     0
 10
27074.11808349999
 20
15164.230913999991
 30
0.0
 40
15.0
 50
270.0
 51
90.0
  0
ARC
  5
4188
  8
0
  6
BYBLOCK
 62
     0
 10
27074.11808349999
 20
16566.230914
 30
0.0
 40
15.0
 50
270.0
 51
90.0
  0
ARC
  5
4189
  8
0
  6
BYBLOCK
 62
     0
 10
27074.11808349999
 20
16566.230914
 30
0.0
 40
15.0
 50
90.0
 51
270.0
  0
ARC
  5
418A
  8
0
  6
BYBLOCK
 62
     0
 10
27074.11808349999
 20
15865.471425500011
 30
0.0
 40
15.0
 50
90.0
 51
270.0
  0
ARC
  5
418B
  8
0
  6
BYBLOCK
 62
     0
 10
27074.11808349999
 20
15865.471425500011
 30
0.0
 40
15.0
 50
270.0
 51
90.0
  0
ARC
  5
418C
  8
0
  6
BYBLOCK
 62
     0
 10
27074.11808349999
 20
17324.230914
 30
0.0
 40
15.0
 50
270.0
 51
90.0
  0
ARC
  5
418D
  8
0
  6
BYBLOCK
 62
     0
 10
27074.11808349999
 20
17324.230914
 30
0.0
 40
15.0
 50
90.0
 51
270.0
  0
ARC
  5
418E
  8
0
  6
BYBLOCK
 62
     0
 10
27074.11808349999
 20
16566.230914
 30
0.0
 40
15.0
 50
90.0
 51
270.0
  0
ARC
  5
418F
  8
0
  6
BYBLOCK
 62
     0
 10
27074.11808349999
 20
16566.230914
 30
0.0
 40
15.0
 50
270.0
 51
90.0
  0
ARC
  5
4190
  8
0
  6
BYBLOCK
 62
     0
 10
27074.11808349999
 20
18082.230914
 30
0.0
 40
15.0
 50
270.0
 51
90.0
  0
ARC
  5
4191
  8
0
  6
BYBLOCK
 62
     0
 10
27074.11808349999
 20
18082.230914
 30
0.0
 40
15.0
 50
90.0
 51
270.0
  0
ARC
  5
4192
  8
0
  6
BYBLOCK
 62
     0
 10
27074.11808349999
 20
17324.230914
 30
0.0
 40
15.0
 50
90.0
 51
270.0
  0
ARC
  5
4193
  8
0
  6
BYBLOCK
 62
     0
 10
27074.11808349999
 20
17324.230914
 30
0.0
 40
15.0
 50
270.0
 51
90.0
  0
ARC
  5
4194
  8
0
  6
BYBLOCK
 62
     0
 10
27074.11808349999
 20
18783.230914
 30
0.0
 40
15.0
 50
270.0
 51
90.0
  0
ARC
  5
4195
  8
0
  6
BYBLOCK
 62
     0
 10
27074.11808349999
 20
18783.230914
 30
0.0
 40
15.0
 50
90.0
 51
270.0
  0
ARC
  5
4196
  8
0
  6
BYBLOCK
 62
     0
 10
27074.11808349999
 20
18082.230914
 30
0.0
 40
15.0
 50
90.0
 51
270.0
  0
ARC
  5
4197
  8
0
  6
BYBLOCK
 62
     0
 10
27074.11808349999
 20
18082.230914
 30
0.0
 40
15.0
 50
270.0
 51
90.0
  0
ARC
  5
4198
  8
0
  6
BYBLOCK
 62
     0
 10
27074.11808349999
 20
19484.230914
 30
0.0
 40
15.0
 50
270.0
 51
90.0
  0
ARC
  5
4199
  8
0
  6
BYBLOCK
 62
     0
 10
27074.11808349999
 20
19484.230914
 30
0.0
 40
15.0
 50
90.0
 51
270.0
  0
ARC
  5
419A
  8
0
  6
BYBLOCK
 62
     0
 10
27074.11808349999
 20
18783.230914
 30
0.0
 40
15.0
 50
90.0
 51
270.0
  0
ARC
  5
419B
  8
0
  6
BYBLOCK
 62
     0
 10
27074.11808349999
 20
18783.230914
 30
0.0
 40
15.0
 50
270.0
 51
90.0
  0
ARC
  5
419C
  8
0
  6
BYBLOCK
 62
     0
 10
27474.11808349998
 20
17324.230914
 30
0.0
 40
15.0
 50
90.0
 51
270.0
  0
ARC
  5
419D
  8
0
  6
BYBLOCK
 62
     0
 10
27474.11808349998
 20
17324.230914
 30
0.0
 40
15.0
 50
270.0
 51
90.0
  0
ARC
  5
419E
  8
0
  6
BYBLOCK
 62
     0
 10
27474.11808349998
 20
19891.730914
 30
0.0
 40
15.0
 50
270.0
 51
90.0
  0
ARC
  5
419F
  8
0
  6
BYBLOCK
 62
     0
 10
27474.11808349998
 20
19891.730914
 30
0.0
 40
15.0
 50
90.0
 51
270.0
  0
ARC
  5
41A0
  8
0
  6
BYBLOCK
 62
     0
 10
27474.11808349998
 20
14406.230913999991
 30
0.0
 40
15.0
 50
90.0
 51
270.0
  0
ARC
  5
41A1
  8
0
  6
BYBLOCK
 62
     0
 10
27474.11808349998
 20
14406.230913999991
 30
0.0
 40
15.0
 50
270.0
 51
90.0
  0
ARC
  5
41A2
  8
0
  6
BYBLOCK
 62
     0
 10
27474.11808349998
 20
17324.230914
 30
0.0
 40
15.0
 50
270.0
 51
90.0
  0
ARC
  5
41A3
  8
0
  6
BYBLOCK
 62
     0
 10
27474.11808349998
 20
17324.230914
 30
0.0
 40
15.0
 50
90.0
 51
270.0
  0
ARC
  5
41A4
  8
0
  6
BYBLOCK
 62
     0
 10
27874.11808349999
 20
19934.228209000001
 30
0.0
 40
15.0
 50
270.0
 51
90.0
  0
ARC
  5
41A5
  8
0
  6
BYBLOCK
 62
     0
 10
27874.11808349999
 20
19934.228209000001
 30
0.0
 40
15.0
 50
90.0
 51
270.0
  0
ARC
  5
41A6
  8
0
  6
BYBLOCK
 62
     0
 10
27874.11808349999
 20
14363.733619000001
 30
0.0
 40
15.0
 50
90.0
 51
270.0
  0
ARC
  5
41A7
  8
0
  6
BYBLOCK
 62
     0
 10
27874.11808349999
 20
14363.733619000001
 30
0.0
 40
15.0
 50
270.0
 51
90.0
  0
ARC
  5
41A8
  8
0
  6
BYBLOCK
 62
     0
 10
27474.11808349998
 20
19891.730914
 30
0.0
 40
15.0
 50
270.0
 51
90.0
  0
ARC
  5
41A9
  8
0
  6
BYBLOCK
 62
     0
 10
27474.11808349998
 20
19891.730914
 30
0.0
 40
15.0
 50
90.0
 51
270.0
  0
ARC
  5
41AA
  8
0
  6
BYBLOCK
 62
     0
 10
27474.11808349998
 20
19934.228209000001
 30
0.0
 40
15.0
 50
90.0
 51
270.0
  0
ARC
  5
41AB
  8
0
  6
BYBLOCK
 62
     0
 10
27474.11808349998
 20
19934.228209000001
 30
0.0
 40
15.0
 50
270.0
 51
90.0
  0
ARC
  5
41AC
  8
0
  6
BYBLOCK
 62
     0
 10
27474.11808349998
 20
14406.230913999991
 30
0.0
 40
15.0
 50
90.0
 51
270.0
  0
ARC
  5
41AD
  8
0
  6
BYBLOCK
 62
     0
 10
27474.11808349998
 20
14406.230913999991
 30
0.0
 40
15.0
 50
270.0
 51
90.0
  0
ARC
  5
41AE
  8
0
  6
BYBLOCK
 62
     0
 10
27474.11808349998
 20
14363.733619000001
 30
0.0
 40
15.0
 50
270.0
 51
90.0
  0
ARC
  5
41AF
  8
0
  6
BYBLOCK
 62
     0
 10
27474.11808349998
 20
14363.733619000001
 30
0.0
 40
15.0
 50
90.0
 51
270.0
  0
ARC
  5
41B0
  8
0
  6
BYBLOCK
 62
     0
 10
22713.118479499979
 20
20664.232102000031
 30
0.0
 40
15.0
 50
0.0
 51
180.0
  0
ARC
  5
41B1
  8
0
  6
BYBLOCK
 62
     0
 10
22713.118479499979
 20
20664.232102000031
 30
0.0
 40
15.0
 50
180.0
 51
0.0
  0
ARC
  5
41B2
  8
0
  6
BYBLOCK
 62
     0
 10
23120.61847949999
 20
20664.232102000031
 30
0.0
 40
15.0
 50
180.0
 51
0.0
  0
ARC
  5
41B3
  8
0
  6
BYBLOCK
 62
     0
 10
23120.61847949999
 20
20664.232102000031
 30
0.0
 40
15.0
 50
0.0
 51
180.0
  0
ARC
  5
41B4
  8
0
  6
BYBLOCK
 62
     0
 10
25223.618479500001
 20
20664.232102000031
 30
0.0
 40
15.0
 50
0.0
 51
180.0
  0
ARC
  5
41B5
  8
0
  6
BYBLOCK
 62
     0
 10
25223.618479500001
 20
20664.232102000031
 30
0.0
 40
15.0
 50
180.0
 51
0.0
  0
ARC
  5
41B6
  8
0
  6
BYBLOCK
 62
     0
 10
25981.619469000001
 20
20664.232102000031
 30
0.0
 40
15.0
 50
180.0
 51
0.0
  0
ARC
  5
41B7
  8
0
  6
BYBLOCK
 62
     0
 10
25981.619469000001
 20
20664.232102000031
 30
0.0
 40
15.0
 50
0.0
 51
180.0
  0
ARC
  5
41B8
  8
0
  6
BYBLOCK
 62
     0
 10
24522.618479500001
 20
20664.232102000031
 30
0.0
 40
15.0
 50
0.0
 51
180.0
  0
ARC
  5
41B9
  8
0
  6
BYBLOCK
 62
     0
 10
24522.618479500001
 20
20664.232102000031
 30
0.0
 40
15.0
 50
180.0
 51
0.0
  0
ARC
  5
41BA
  8
0
  6
BYBLOCK
 62
     0
 10
25223.618479500001
 20
20664.232102000031
 30
0.0
 40
15.0
 50
180.0
 51
0.0
  0
ARC
  5
41BB
  8
0
  6
BYBLOCK
 62
     0
 10
25223.618479500001
 20
20664.232102000031
 30
0.0
 40
15.0
 50
0.0
 51
180.0
  0
ARC
  5
41BC
  8
0
  6
BYBLOCK
 62
     0
 10
23821.61847949999
 20
20664.232102000031
 30
0.0
 40
15.0
 50
0.0
 51
180.0
  0
ARC
  5
41BD
  8
0
  6
BYBLOCK
 62
     0
 10
23821.61847949999
 20
20664.232102000031
 30
0.0
 40
15.0
 50
180.0
 51
0.0
  0
ARC
  5
41BE
  8
0
  6
BYBLOCK
 62
     0
 10
24522.618479500001
 20
20664.232102000031
 30
0.0
 40
15.0
 50
180.0
 51
0.0
  0
ARC
  5
41BF
  8
0
  6
BYBLOCK
 62
     0
 10
24522.618479500001
 20
20664.232102000031
 30
0.0
 40
15.0
 50
0.0
 51
180.0
  0
ARC
  5
41C0
  8
0
  6
BYBLOCK
 62
     0
 10
23120.61847949999
 20
20664.232102000031
 30
0.0
 40
15.0
 50
0.0
 51
180.0
  0
ARC
  5
41C1
  8
0
  6
BYBLOCK
 62
     0
 10
23120.61847949999
 20
20664.232102000031
 30
0.0
 40
15.0
 50
180.0
 51
0.0
  0
ARC
  5
41C2
  8
0
  6
BYBLOCK
 62
     0
 10
23821.61847949999
 20
20664.232102000031
 30
0.0
 40
15.0
 50
180.0
 51
0.0
  0
ARC
  5
41C3
  8
0
  6
BYBLOCK
 62
     0
 10
23821.61847949999
 20
20664.232102000031
 30
0.0
 40
15.0
 50
0.0
 51
180.0
  0
ARC
  5
41C4
  8
0
  6
BYBLOCK
 62
     0
 10
25981.61847949999
 20
20664.232102000031
 30
0.0
 40
15.0
 50
180.0
 51
0.0
  0
ARC
  5
41C5
  8
0
  6
BYBLOCK
 62
     0
 10
25981.61847949999
 20
20664.232102000031
 30
0.0
 40
15.0
 50
0.0
 51
180.0
  0
ARC
  5
41C6
  8
0
  6
BYBLOCK
 62
     0
 10
26024.114784500001
 20
20664.232102000031
 30
0.0
 40
15.0
 50
0.0
 51
180.0
  0
ARC
  5
41C7
  8
0
  6
BYBLOCK
 62
     0
 10
26024.114784500001
 20
20664.232102000031
 30
0.0
 40
15.0
 50
180.0
 51
0.0
  0
ARC
  5
41C8
  8
0
  6
BYBLOCK
 62
     0
 10
19444.61847949999
 20
20664.232102000031
 30
0.0
 40
15.0
 50
0.0
 51
180.0
  0
ARC
  5
41C9
  8
0
  6
BYBLOCK
 62
     0
 10
19444.61847949999
 20
20664.232102000031
 30
0.0
 40
15.0
 50
180.0
 51
0.0
  0
ARC
  5
41CA
  8
0
  6
BYBLOCK
 62
     0
 10
19852.11847949999
 20
20664.232102000031
 30
0.0
 40
15.0
 50
180.0
 51
0.0
  0
ARC
  5
41CB
  8
0
  6
BYBLOCK
 62
     0
 10
19852.11847949999
 20
20664.232102000031
 30
0.0
 40
15.0
 50
0.0
 51
180.0
  0
ARC
  5
41CC
  8
0
  6
BYBLOCK
 62
     0
 10
19444.61847949999
 20
20664.232102000031
 30
0.0
 40
15.0
 50
0.0
 51
180.0
  0
ARC
  5
41CD
  8
0
  6
BYBLOCK
 62
     0
 10
19444.61847949999
 20
20664.232102000031
 30
0.0
 40
15.0
 50
180.0
 51
0.0
  0
ARC
  5
41CE
  8
0
  6
BYBLOCK
 62
     0
 10
19402.122174499978
 20
20664.232102000031
 30
0.0
 40
15.0
 50
180.0
 51
0.0
  0
ARC
  5
41CF
  8
0
  6
BYBLOCK
 62
     0
 10
19402.122174499978
 20
20664.232102000031
 30
0.0
 40
15.0
 50
0.0
 51
180.0
  0
ARC
  5
41D0
  8
0
  6
BYBLOCK
 62
     0
 10
21955.11847949999
 20
20664.232102000031
 30
0.0
 40
15.0
 50
0.0
 51
180.0
  0
ARC
  5
41D1
  8
0
  6
BYBLOCK
 62
     0
 10
21955.11847949999
 20
20664.232102000031
 30
0.0
 40
15.0
 50
180.0
 51
0.0
  0
ARC
  5
41D2
  8
0
  6
BYBLOCK
 62
     0
 10
22713.119469000001
 20
20664.232102000031
 30
0.0
 40
15.0
 50
180.0
 51
0.0
  0
ARC
  5
41D3
  8
0
  6
BYBLOCK
 62
     0
 10
22713.119469000001
 20
20664.232102000031
 30
0.0
 40
15.0
 50
0.0
 51
180.0
  0
ARC
  5
41D4
  8
0
  6
BYBLOCK
 62
     0
 10
21254.11847949999
 20
20664.232102000031
 30
0.0
 40
15.0
 50
0.0
 51
180.0
  0
ARC
  5
41D5
  8
0
  6
BYBLOCK
 62
     0
 10
21254.11847949999
 20
20664.232102000031
 30
0.0
 40
15.0
 50
180.0
 51
0.0
  0
ARC
  5
41D6
  8
0
  6
BYBLOCK
 62
     0
 10
21955.11847949999
 20
20664.232102000031
 30
0.0
 40
15.0
 50
180.0
 51
0.0
  0
ARC
  5
41D7
  8
0
  6
BYBLOCK
 62
     0
 10
21955.11847949999
 20
20664.232102000031
 30
0.0
 40
15.0
 50
0.0
 51
180.0
  0
ARC
  5
41D8
  8
0
  6
BYBLOCK
 62
     0
 10
20553.118479500001
 20
20664.232102000031
 30
0.0
 40
15.0
 50
0.0
 51
180.0
  0
ARC
  5
41D9
  8
0
  6
BYBLOCK
 62
     0
 10
20553.118479500001
 20
20664.232102000031
 30
0.0
 40
15.0
 50
180.0
 51
0.0
  0
ARC
  5
41DA
  8
0
  6
BYBLOCK
 62
     0
 10
21254.11847949999
 20
20664.232102000031
 30
0.0
 40
15.0
 50
180.0
 51
0.0
  0
ARC
  5
41DB
  8
0
  6
BYBLOCK
 62
     0
 10
21254.11847949999
 20
20664.232102000031
 30
0.0
 40
15.0
 50
0.0
 51
180.0
  0
ARC
  5
41DC
  8
0
  6
BYBLOCK
 62
     0
 10
19852.11847949999
 20
20664.232102000031
 30
0.0
 40
15.0
 50
0.0
 51
180.0
  0
ARC
  5
41DD
  8
0
  6
BYBLOCK
 62
     0
 10
19852.11847949999
 20
20664.232102000031
 30
0.0
 40
15.0
 50
180.0
 51
0.0
  0
ARC
  5
41DE
  8
0
  6
BYBLOCK
 62
     0
 10
20553.118479500001
 20
20664.232102000031
 30
0.0
 40
15.0
 50
180.0
 51
0.0
  0
ARC
  5
41DF
  8
0
  6
BYBLOCK
 62
     0
 10
20553.118479500001
 20
20664.232102000031
 30
0.0
 40
15.0
 50
0.0
 51
180.0
  0
ARC
  5
41E0
  8
0
  6
BYBLOCK
 62
     0
 10
8769.3738785000023
 20
9763.7812800000029
 30
0.0
 40
15.0
 50
180.0
 51
0.0
  0
ARC
  5
41E1
  8
0
  6
BYBLOCK
 62
     0
 10
8769.3738785000023
 20
9763.7812800000029
 30
0.0
 40
15.0
 50
0.0
 51
180.0
  0
ARC
  5
41E2
  8
0
  6
BYBLOCK
 62
     0
 10
8589.3738785000023
 20
9763.7812800000029
 30
0.0
 40
15.0
 50
0.0
 51
180.0
  0
ARC
  5
41E3
  8
0
  6
BYBLOCK
 62
     0
 10
8589.3738785000023
 20
9763.7812800000029
 30
0.0
 40
15.0
 50
180.0
 51
0.0
  0
ARC
  5
41E4
  8
0
  6
BYBLOCK
 62
     0
 10
18594.619139499991
 20
6615.7796039999957
 30
0.0
 40
15.0
 50
90.0
 51
270.0
  0
ARC
  5
41E5
  8
0
  6
BYBLOCK
 62
     0
 10
18594.619139499991
 20
6615.7796039999957
 30
0.0
 40
15.0
 50
270.0
 51
90.0
  0
ARC
  5
41E6
  8
0
  6
BYBLOCK
 62
     0
 10
18594.619139499991
 20
8507.2796039999957
 30
0.0
 40
15.0
 50
270.0
 51
90.0
  0
ARC
  5
41E7
  8
0
  6
BYBLOCK
 62
     0
 10
18594.619139499991
 20
8507.2796039999957
 30
0.0
 40
15.0
 50
90.0
 51
270.0
  0
ARC
  5
41E8
  8
0
  6
BYBLOCK
 62
     0
 10
18194.616830499981
 20
6615.7796039999957
 30
0.0
 40
15.0
 50
90.0
 51
270.0
  0
ARC
  5
41E9
  8
0
  6
BYBLOCK
 62
     0
 10
18194.616830499981
 20
6615.7796039999957
 30
0.0
 40
15.0
 50
270.0
 51
90.0
  0
ARC
  5
41EA
  8
0
  6
BYBLOCK
 62
     0
 10
18194.616830499988
 20
8964.2791089999973
 30
0.0
 40
15.0
 50
270.0
 51
90.0
  0
ARC
  5
41EB
  8
0
  6
BYBLOCK
 62
     0
 10
18194.616830499988
 20
8964.2791089999973
 30
0.0
 40
15.0
 50
90.0
 51
270.0
  0
ARC
  5
41FC
  8
0
  6
BYBLOCK
 62
     0
 10
19538.61847949999
 20
5715.7797689999998
 30
0.0
 40
15.0
 50
0.0
 51
180.0
  0
ARC
  5
41FD
  8
0
  6
BYBLOCK
 62
     0
 10
19538.61847949999
 20
5715.7797689999998
 30
0.0
 40
15.0
 50
180.0
 51
0.0
  0
ARC
  5
41FE
  8
0
  6
BYBLOCK
 62
     0
 10
22619.11847949999
 20
5715.7797689999998
 30
0.0
 40
15.0
 50
180.0
 51
0.0
  0
ARC
  5
41FF
  8
0
  6
BYBLOCK
 62
     0
 10
22619.11847949999
 20
5715.7797689999998
 30
0.0
 40
15.0
 50
0.0
 51
180.0
  0
ARC
  5
4200
  8
0
  6
BYBLOCK
 62
     0
 10
22807.11847949999
 20
5715.7797689999998
 30
0.0
 40
15.0
 50
0.0
 51
180.0
  0
ARC
  5
4201
  8
0
  6
BYBLOCK
 62
     0
 10
22807.11847949999
 20
5715.7797689999998
 30
0.0
 40
15.0
 50
180.0
 51
0.0
  0
ARC
  5
4202
  8
0
  6
BYBLOCK
 62
     0
 10
25887.618479499979
 20
5715.7797689999998
 30
0.0
 40
15.0
 50
180.0
 51
0.0
  0
ARC
  5
4203
  8
0
  6
BYBLOCK
 62
     0
 10
25887.618479499979
 20
5715.7797689999998
 30
0.0
 40
15.0
 50
0.0
 51
180.0
  0
ARC
  5
4204
  8
0
  6
BYBLOCK
 62
     0
 10
22713.118479499979
 20
5315.7797690000016
 30
0.0
 40
15.0
 50
0.0
 51
180.0
  0
ARC
  5
4205
  8
0
  6
BYBLOCK
 62
     0
 10
22713.118479499979
 20
5315.7797690000016
 30
0.0
 40
15.0
 50
180.0
 51
0.0
  0
ARC
  5
4206
  8
0
  6
BYBLOCK
 62
     0
 10
25981.61847949999
 20
5315.7797690000016
 30
0.0
 40
15.0
 50
180.0
 51
0.0
  0
ARC
  5
4207
  8
0
  6
BYBLOCK
 62
     0
 10
25981.61847949999
 20
5315.7797690000016
 30
0.0
 40
15.0
 50
0.0
 51
180.0
  0
ARC
  5
4208
  8
0
  6
BYBLOCK
 62
     0
 10
19444.61847949999
 20
5315.7797690000016
 30
0.0
 40
15.0
 50
0.0
 51
180.0
  0
ARC
  5
4209
  8
0
  6
BYBLOCK
 62
     0
 10
19444.61847949999
 20
5315.7797690000016
 30
0.0
 40
15.0
 50
180.0
 51
0.0
  0
ARC
  5
420A
  8
0
  6
BYBLOCK
 62
     0
 10
22713.118479499979
 20
5315.7797690000016
 30
0.0
 40
15.0
 50
180.0
 51
0.0
  0
ARC
  5
420B
  8
0
  6
BYBLOCK
 62
     0
 10
22713.118479499979
 20
5315.7797690000016
 30
0.0
 40
15.0
 50
0.0
 51
180.0
  0
ARC
  5
420C
  8
0
  6
BYBLOCK
 62
     0
 10
25981.622438499999
 20
5315.7797690000016
 30
0.0
 40
15.0
 50
180.0
 51
0.0
  0
ARC
  5
420D
  8
0
  6
BYBLOCK
 62
     0
 10
25981.622438499999
 20
5315.7797690000016
 30
0.0
 40
15.0
 50
0.0
 51
180.0
  0
ARC
  5
420E
  8
0
  6
BYBLOCK
 62
     0
 10
26024.122438499991
 20
5315.7797690000016
 30
0.0
 40
15.0
 50
0.0
 51
180.0
  0
ARC
  5
420F
  8
0
  6
BYBLOCK
 62
     0
 10
26024.122438499991
 20
5315.7797690000016
 30
0.0
 40
15.0
 50
180.0
 51
0.0
  0
ARC
  5
4210
  8
0
  6
BYBLOCK
 62
     0
 10
19444.61847949999
 20
5315.7797690000016
 30
0.0
 40
15.0
 50
0.0
 51
180.0
  0
ARC
  5
4211
  8
0
  6
BYBLOCK
 62
     0
 10
19444.61847949999
 20
5315.7797690000016
 30
0.0
 40
15.0
 50
180.0
 51
0.0
  0
ARC
  5
4212
  8
0
  6
BYBLOCK
 62
     0
 10
19402.118479499979
 20
5315.7797690000016
 30
0.0
 40
15.0
 50
180.0
 51
0.0
  0
ARC
  5
4213
  8
0
  6
BYBLOCK
 62
     0
 10
19402.118479499979
 20
5315.7797690000016
 30
0.0
 40
15.0
 50
0.0
 51
180.0
  0
ARC
  5
4214
  8
0
  6
BYBLOCK
 62
     0
 10
19402.118479499979
 20
4915.7799339999983
 30
0.0
 40
15.0
 50
0.0
 51
180.0
  0
ARC
  5
4215
  8
0
  6
BYBLOCK
 62
     0
 10
19402.118479499979
 20
4915.7799339999983
 30
0.0
 40
15.0
 50
180.0
 51
0.0
  0
ARC
  5
4216
  8
0
  6
BYBLOCK
 62
     0
 10
26024.118479500001
 20
4915.7799339999983
 30
0.0
 40
15.0
 50
180.0
 51
0.0
  0
ARC
  5
4217
  8
0
  6
BYBLOCK
 62
     0
 10
26024.118479500001
 20
4915.7799339999983
 30
0.0
 40
15.0
 50
0.0
 51
180.0
  0
ARC
  5
4218
  8
0
  6
BYBLOCK
 62
     0
 10
15429.87229449999
 20
6615.7796040000021
 30
0.0
 40
15.0
 50
90.0
 51
270.0
  0
ARC
  5
4219
  8
0
  6
BYBLOCK
 62
     0
 10
15429.87229449999
 20
6615.7796040000021
 30
0.0
 40
15.0
 50
270.0
 51
90.0
  0
ARC
  5
421A
  8
0
  6
BYBLOCK
 62
     0
 10
15429.87229449999
 20
8964.279604000003
 30
0.0
 40
15.0
 50
270.0
 51
90.0
  0
ARC
  5
421B
  8
0
  6
BYBLOCK
 62
     0
 10
15429.87229449999
 20
8964.279604000003
 30
0.0
 40
15.0
 50
90.0
 51
270.0
  0
ARC
  5
421C
  8
0
  6
BYBLOCK
 62
     0
 10
7679.3754605000104
 20
6615.7796040000021
 30
0.0
 40
15.0
 50
90.0
 51
270.0
  0
ARC
  5
421D
  8
0
  6
BYBLOCK
 62
     0
 10
7679.3754605000104
 20
6615.7796040000021
 30
0.0
 40
15.0
 50
270.0
 51
90.0
  0
ARC
  5
421E
  8
0
  6
BYBLOCK
 62
     0
 10
7679.3754605000104
 20
8771.7796040000067
 30
0.0
 40
15.0
 50
270.0
 51
90.0
  0
ARC
  5
421F
  8
0
  6
BYBLOCK
 62
     0
 10
7679.3754605000104
 20
8771.7796040000067
 30
0.0
 40
15.0
 50
90.0
 51
270.0
  0
ARC
  5
4220
  8
0
  6
BYBLOCK
 62
     0
 10
8589.3738785000023
 20
10163.779630000001
 30
0.0
 40
15.0
 50
0.0
 51
180.0
  0
ARC
  5
4221
  8
0
  6
BYBLOCK
 62
     0
 10
8589.3738785000023
 20
10163.779630000001
 30
0.0
 40
15.0
 50
180.0
 51
0.0
  0
ARC
  5
4222
  8
0
  6
BYBLOCK
 62
     0
 10
14489.873878500001
 20
10163.779630000001
 30
0.0
 40
15.0
 50
180.0
 51
0.0
  0
ARC
  5
4223
  8
0
  6
BYBLOCK
 62
     0
 10
14489.873878500001
 20
10163.779630000001
 30
0.0
 40
15.0
 50
0.0
 51
180.0
  0
ARC
  5
4224
  8
0
  6
BYBLOCK
 62
     0
 10
14339.873878500001
 20
9763.7812800000029
 30
0.0
 40
15.0
 50
180.0
 51
0.0
  0
ARC
  5
4225
  8
0
  6
BYBLOCK
 62
     0
 10
14339.873878500001
 20
9763.7812800000029
 30
0.0
 40
15.0
 50
0.0
 51
180.0
  0
ARC
  5
4226
  8
0
  6
BYBLOCK
 62
     0
 10
14489.873878500001
 20
9763.7812800000029
 30
0.0
 40
15.0
 50
0.0
 51
180.0
  0
ARC
  5
4227
  8
0
  6
BYBLOCK
 62
     0
 10
14489.873878500001
 20
9763.7812800000029
 30
0.0
 40
15.0
 50
180.0
 51
0.0
  0
ARC
  5
4228
  8
0
  6
BYBLOCK
 62
     0
 10
8769.3738785000023
 20
9763.7812800000029
 30
0.0
 40
15.0
 50
0.0
 51
180.0
  0
ARC
  5
4229
  8
0
  6
BYBLOCK
 62
     0
 10
8769.3738785000023
 20
9763.7812800000029
 30
0.0
 40
15.0
 50
180.0
 51
0.0
  0
ARC
  5
422A
  8
0
  6
BYBLOCK
 62
     0
 10
14339.873878500001
 20
9763.7812800000029
 30
0.0
 40
15.0
 50
180.0
 51
0.0
  0
ARC
  5
422B
  8
0
  6
BYBLOCK
 62
     0
 10
14339.873878500001
 20
9763.7812800000029
 30
0.0
 40
15.0
 50
0.0
 51
180.0
  0
ARC
  5
422C
  8
0
  6
BYBLOCK
 62
     0
 10
8769.3738785000023
 20
4915.7799340000047
 30
0.0
 40
15.0
 50
0.0
 51
180.0
  0
ARC
  5
422D
  8
0
  6
BYBLOCK
 62
     0
 10
8769.3738785000023
 20
4915.7799340000047
 30
0.0
 40
15.0
 50
180.0
 51
0.0
  0
ARC
  5
422E
  8
0
  6
BYBLOCK
 62
     0
 10
14339.873878500001
 20
4915.7799340000047
 30
0.0
 40
15.0
 50
180.0
 51
0.0
  0
ARC
  5
422F
  8
0
  6
BYBLOCK
 62
     0
 10
14339.873878500001
 20
4915.7799340000047
 30
0.0
 40
15.0
 50
0.0
 51
180.0
  0
ARC
  5
4230
  8
0
  6
BYBLOCK
 62
     0
 10
14297.373878500001
 20
5315.7797690000052
 30
0.0
 40
15.0
 50
180.0
 51
0.0
  0
ARC
  5
4231
  8
0
  6
BYBLOCK
 62
     0
 10
14297.373878500001
 20
5315.7797690000052
 30
0.0
 40
15.0
 50
0.0
 51
180.0
  0
ARC
  5
4232
  8
0
  6
BYBLOCK
 62
     0
 10
14339.873878500001
 20
5315.7797690000052
 30
0.0
 40
15.0
 50
0.0
 51
180.0
  0
ARC
  5
4233
  8
0
  6
BYBLOCK
 62
     0
 10
14339.873878500001
 20
5315.7797690000052
 30
0.0
 40
15.0
 50
180.0
 51
0.0
  0
ARC
  5
4234
  8
0
  6
BYBLOCK
 62
     0
 10
8811.8738785000005
 20
5315.7797690000052
 30
0.0
 40
15.0
 50
0.0
 51
180.0
  0
ARC
  5
4235
  8
0
  6
BYBLOCK
 62
     0
 10
8811.8738785000005
 20
5315.7797690000052
 30
0.0
 40
15.0
 50
180.0
 51
0.0
  0
ARC
  5
4236
  8
0
  6
BYBLOCK
 62
     0
 10
8769.3738785000023
 20
5315.7797690000052
 30
0.0
 40
15.0
 50
180.0
 51
0.0
  0
ARC
  5
4237
  8
0
  6
BYBLOCK
 62
     0
 10
8769.3738785000023
 20
5315.7797690000052
 30
0.0
 40
15.0
 50
0.0
 51
180.0
  0
ARC
  5
4238
  8
0
  6
BYBLOCK
 62
     0
 10
11379.373878500001
 20
5315.7797690000052
 30
0.0
 40
15.0
 50
180.0
 51
0.0
  0
ARC
  5
4239
  8
0
  6
BYBLOCK
 62
     0
 10
11379.373878500001
 20
5315.7797690000052
 30
0.0
 40
15.0
 50
0.0
 51
180.0
  0
ARC
  5
423A
  8
0
  6
BYBLOCK
 62
     0
 10
8811.8738785000005
 20
5315.7797690000052
 30
0.0
 40
15.0
 50
0.0
 51
180.0
  0
ARC
  5
423B
  8
0
  6
BYBLOCK
 62
     0
 10
8811.8738785000005
 20
5315.7797690000052
 30
0.0
 40
15.0
 50
180.0
 51
0.0
  0
ARC
  5
423C
  8
0
  6
BYBLOCK
 62
     0
 10
11379.373878500001
 20
5315.7797690000052
 30
0.0
 40
15.0
 50
0.0
 51
180.0
  0
ARC
  5
423D
  8
0
  6
BYBLOCK
 62
     0
 10
11379.373878500001
 20
5315.7797690000052
 30
0.0
 40
15.0
 50
180.0
 51
0.0
  0
ARC
  5
423E
  8
0
  6
BYBLOCK
 62
     0
 10
14297.373878500001
 20
5315.7797690000052
 30
0.0
 40
15.0
 50
180.0
 51
0.0
  0
ARC
  5
423F
  8
0
  6
BYBLOCK
 62
     0
 10
14297.373878500001
 20
5315.7797690000052
 30
0.0
 40
15.0
 50
0.0
 51
180.0
  0
LINE
  5
4365
  8
0-1
  6
CONTINUOUS
 62
     3
 10
25918.121461499992
 20
8714.2796239999971
 30
0.0
 11
25918.121461499992
 21
8746.2795310000001
 31
0.0
  0
LINE
  5
4366
  8
0-1
  6
CONTINUOUS
 62
     3
 10
26067.120854500001
 20
8638.0929020000021
 30
0.0
 11
26024.118743499988
 21
8638.0929020000021
 31
0.0
  0
LINE
  5
4367
  8
0-1
  6
CONTINUOUS
 62
     3
 10
26067.120854500001
 20
8964.2799530000029
 30
0.0
 11
26067.120854500001
 21
8638.0929020000021
 31
0.0
  0
LINE
  5
4368
  8
0-1
  6
CONTINUOUS
 62
     3
 10
25632.154268500009
 20
8710.7442029999984
 30
0.0
 11
25600.155351500001
 21
8742.7441109999982
 31
0.0
  0
LINE
  5
4369
  8
0-1
  6
CONTINUOUS
 62
     3
 10
25913.121197499979
 20
8751.2797950000004
 30
0.0
 11
25603.690771500002
 21
8751.2797950000004
 31
0.0
  0
LINE
  5
436A
  8
0-1
  6
CONTINUOUS
 62
     3
 10
25918.121461499992
 20
8742.8806980000045
 30
0.0
 11
25600.024702499992
 21
8742.8806980000045
 31
0.0
  0
LINE
  5
436B
  8
0-1
  6
CONTINUOUS
 62
     3
 10
25913.121197499979
 20
8709.2793600000005
 30
0.0
 11
25635.691668499989
 21
8709.2793600000005
 31
0.0
  0
LINE
  5
436C
  8
0-1
  6
CONTINUOUS
 62
     3
 10
25918.121461499992
 20
8717.6794470000004
 30
0.0
 11
25625.22001550001
 21
8717.6794470000004
 31
0.0
  0
LINE
  5
436D
  8
0-1
  6
CONTINUOUS
 62
     3
 10
25918.121461499992
 20
8726.0795339999986
 30
0.0
 11
25616.820917500001
 21
8726.0795339999986
 31
0.0
  0
LINE
  5
436E
  8
0-1
  6
CONTINUOUS
 62
     3
 10
25918.121461499992
 20
8734.4806109999972
 30
0.0
 11
25608.419841499988
 21
8734.4806109999972
 31
0.0
  0
LINE
  5
436F
  8
0-1
  6
CONTINUOUS
 62
     3
 10
23062.584669500018
 20
8710.7442029999984
 30
0.0
 11
23094.581607500018
 21
8742.7441109999982
 31
0.0
  0
LINE
  5
4370
  8
0-1
  6
CONTINUOUS
 62
     3
 10
22776.619455500018
 20
8714.2796239999971
 30
0.0
 11
22776.619455500018
 21
8746.2795310000001
 31
0.0
  0
LINE
  5
4371
  8
0-1
  6
CONTINUOUS
 62
     3
 10
22776.619455500018
 20
8717.6794470000004
 30
0.0
 11
23069.516943499999
 21
8717.6794470000004
 31
0.0
  0
LINE
  5
4372
  8
0-1
  6
CONTINUOUS
 62
     3
 10
22776.619455500018
 20
8726.0795339999986
 30
0.0
 11
23077.918020500008
 21
8726.0795339999986
 31
0.0
  0
LINE
  5
4373
  8
0-1
  6
CONTINUOUS
 62
     3
 10
22781.619719499999
 20
8709.2793600000005
 30
0.0
 11
23059.04726950001
 21
8709.2793600000005
 31
0.0
  0
LINE
  5
4374
  8
0-1
  6
CONTINUOUS
 62
     3
 10
22776.619455500018
 20
8734.4806109999972
 30
0.0
 11
23086.317117500021
 21
8734.4806109999972
 31
0.0
  0
LINE
  5
4375
  8
0-1
  6
CONTINUOUS
 62
     3
 10
22776.619455500018
 20
8742.8806980000045
 30
0.0
 11
23094.714235500021
 21
8742.8806980000045
 31
0.0
  0
LINE
  5
4376
  8
0-1
  6
CONTINUOUS
 62
     3
 10
22781.619719499999
 20
8751.2797950000004
 30
0.0
 11
23091.04816650003
 21
8751.2797950000004
 31
0.0
  0
LINE
  5
4377
  8
0-1
  6
CONTINUOUS
 62
     3
 10
26067.120854500001
 20
8834.2790299999979
 30
0.0
 11
22713.118479500001
 21
8834.2790299999979
 31
0.0
  0
LINE
  5
4378
  8
0-1
  6
CONTINUOUS
 62
     3
 10
22755.616763500009
 20
8760.2796760000001
 30
0.0
 11
25939.120194499988
 21
8760.2796760000001
 31
0.0
  0
LINE
  5
4379
  8
0-1
  6
CONTINUOUS
 62
     3
 10
22755.616763500009
 20
8700.2794779999967
 30
0.0
 11
25939.120194499988
 21
8700.2794779999967
 31
0.0
  0
LINE
  5
437A
  8
0-1
  6
CONTINUOUS
 62
     3
 10
22713.118479500001
 20
8964.2799530000029
 30
0.0
 11
26067.120854500001
 21
8964.2799530000029
 31
0.0
  0
LINE
  5
437B
  8
0-1
  6
CONTINUOUS
 62
     3
 10
22649.617503500001
 20
8714.2796239999971
 30
0.0
 11
22649.617503500001
 21
8746.2795310000001
 31
0.0
  0
LINE
  5
437C
  8
0-1
  6
CONTINUOUS
 62
     3
 10
22363.656248499989
 20
8710.7442029999984
 30
0.0
 11
22331.655351500001
 21
8742.7441109999982
 31
0.0
  0
LINE
  5
437D
  8
0-1
  6
CONTINUOUS
 62
     3
 10
22649.617503500001
 20
8742.8806980000045
 30
0.0
 11
22331.524703499981
 21
8742.8806980000045
 31
0.0
  0
LINE
  5
437E
  8
0-1
  6
CONTINUOUS
 62
     3
 10
22649.617503500001
 20
8734.4806109999972
 30
0.0
 11
22339.919841499988
 21
8734.4806109999972
 31
0.0
  0
LINE
  5
437F
  8
0-1
  6
CONTINUOUS
 62
     3
 10
22649.617503500001
 20
8726.0795339999986
 30
0.0
 11
22348.318938500001
 21
8726.0795339999986
 31
0.0
  0
LINE
  5
4380
  8
0-1
  6
CONTINUOUS
 62
     3
 10
22649.617503500001
 20
8717.6794470000004
 30
0.0
 11
22356.71803649998
 21
8717.6794470000004
 31
0.0
  0
LINE
  5
4381
  8
0-1
  6
CONTINUOUS
 62
     3
 10
22644.619218499989
 20
8751.2797950000004
 30
0.0
 11
22335.188792500001
 21
8751.2797950000004
 31
0.0
  0
LINE
  5
4382
  8
0-1
  6
CONTINUOUS
 62
     3
 10
22644.619218499989
 20
8709.2793600000005
 30
0.0
 11
22367.191669499989
 21
8709.2793600000005
 31
0.0
  0
LINE
  5
4383
  8
0-1
  6
CONTINUOUS
 62
     3
 10
19513.117740500002
 20
8709.2793600000005
 30
0.0
 11
19790.547270499981
 21
8709.2793600000005
 31
0.0
  0
LINE
  5
4384
  8
0-1
  6
CONTINUOUS
 62
     3
 10
19508.119456500001
 20
8714.2796239999971
 30
0.0
 11
19508.119456500001
 21
8746.2795310000001
 31
0.0
  0
LINE
  5
4385
  8
0-1
  6
CONTINUOUS
 62
     3
 10
19359.11808449998
 20
8638.0929020000021
 30
0.0
 11
19402.116236499998
 21
8638.0929020000021
 31
0.0
  0
LINE
  5
4386
  8
0-1
  6
CONTINUOUS
 62
     3
 10
19359.11808449998
 20
8638.0929020000021
 30
0.0
 11
19359.11808449998
 21
8964.2799530000029
 31
0.0
  0
LINE
  5
4387
  8
0-1
  6
CONTINUOUS
 62
     3
 10
19513.117740500002
 20
8751.2797950000004
 30
0.0
 11
19822.548167500001
 21
8751.2797950000004
 31
0.0
  0
LINE
  5
4388
  8
0-1
  6
CONTINUOUS
 62
     3
 10
19794.080710499999
 20
8710.7442029999984
 30
0.0
 11
19826.081608500001
 21
8742.7441109999982
 31
0.0
  0
LINE
  5
4389
  8
0-1
  6
CONTINUOUS
 62
     3
 10
19508.119456500001
 20
8742.8806980000045
 30
0.0
 11
19826.214235500011
 21
8742.8806980000045
 31
0.0
  0
LINE
  5
438A
  8
0-1
  6
CONTINUOUS
 62
     3
 10
19508.119456500001
 20
8734.4806109999972
 30
0.0
 11
19817.817118499999
 21
8734.4806109999972
 31
0.0
  0
LINE
  5
438B
  8
0-1
  6
CONTINUOUS
 62
     3
 10
19508.119456500001
 20
8726.0795339999986
 30
0.0
 11
19809.418020500008
 21
8726.0795339999986
 31
0.0
  0
LINE
  5
438C
  8
0-1
  6
CONTINUOUS
 62
     3
 10
19508.119456500001
 20
8717.6794470000004
 30
0.0
 11
19801.018923499971
 21
8717.6794470000004
 31
0.0
  0
LINE
  5
438D
  8
0-1
  6
CONTINUOUS
 62
     3
 10
19487.116764499999
 20
8700.2794779999967
 30
0.0
 11
22670.618215499991
 21
8700.2794779999967
 31
0.0
  0
LINE
  5
438E
  8
0-1
  6
CONTINUOUS
 62
     3
 10
19487.116764499999
 20
8760.2796760000001
 30
0.0
 11
22670.618215499991
 21
8760.2796760000001
 31
0.0
  0
LINE
  5
438F
  8
0-1
  6
CONTINUOUS
 62
     3
 10
19359.11808449998
 20
8964.2799530000029
 30
0.0
 11
22713.118479500001
 21
8964.2799530000029
 31
0.0
  0
LINE
  5
4390
  8
0-1
  6
CONTINUOUS
 62
     3
 10
22713.118479500001
 20
8834.2790299999979
 30
0.0
 11
19359.11808449998
 21
8834.2790299999979
 31
0.0
  0
LINE
  5
4391
  8
0-1
  6
CONTINUOUS
 62
     3
 10
22713.118479500001
 20
8834.2790299999979
 30
0.0
 11
22713.118479500001
 21
8964.2799530000029
 31
0.0
  0
LINE
  5
4392
  8
0-1
  6
CONTINUOUS
 62
     3
 10
22713.118479500001
 20
8834.2790299999979
 30
0.0
 11
22713.118479500001
 21
8964.2799530000029
 31
0.0
  0
ARC
  5
4393
  8
0-1
  6
CONTINUOUS
 62
     3
 10
25913.121197499979
 20
8746.2795310000001
 30
0.0
 40
5.0
 50
0.0
 51
90.0
  0
ARC
  5
4394
  8
0-1
  6
CONTINUOUS
 62
     3
 10
25913.121197499979
 20
8714.2796239999971
 30
0.0
 40
5.0
 50
269.9999850001808
 51
0.0
  0
ARC
  5
4395
  8
0-1
  6
CONTINUOUS
 62
     3
 10
25603.690771500002
 20
8746.2795310000001
 30
0.0
 40
5.0
 50
90.0
 51
224.99998499997989
  0
ARC
  5
4396
  8
0-1
  6
CONTINUOUS
 62
     3
 10
25635.691668499989
 20
8714.2796239999971
 30
0.0
 40
5.0
 50
224.99998499997989
 51
269.9999850001808
  0
ARC
  5
4397
  8
0-1
  6
CONTINUOUS
 62
     3
 10
23091.04816650003
 20
8746.2795310000001
 30
0.0
 40
5.0
 50
314.99998500027471
 51
90.0
  0
ARC
  5
4398
  8
0-1
  6
CONTINUOUS
 62
     3
 10
23059.04726950001
 20
8714.2796239999971
 30
0.0
 40
5.0
 50
269.9999850001808
 51
314.99998500027471
  0
ARC
  5
4399
  8
0-1
  6
CONTINUOUS
 62
     3
 10
22781.619719499999
 20
8714.2796239999971
 30
0.0
 40
5.0
 50
180.0
 51
269.9999850001808
  0
ARC
  5
439A
  8
0-1
  6
CONTINUOUS
 62
     3
 10
22781.619719499999
 20
8746.2795310000001
 30
0.0
 40
5.0
 50
90.0
 51
180.0
  0
ARC
  5
439B
  8
0-1
  6
CONTINUOUS
 62
     3
 10
22644.619218499989
 20
8714.2796239999971
 30
0.0
 40
5.0
 50
269.9999850001808
 51
0.0
  0
ARC
  5
439C
  8
0-1
  6
CONTINUOUS
 62
     3
 10
22644.619218499989
 20
8746.2795310000001
 30
0.0
 40
5.0
 50
0.0
 51
90.0
  0
ARC
  5
439D
  8
0-1
  6
CONTINUOUS
 62
     3
 10
22335.188792500001
 20
8746.2795310000001
 30
0.0
 40
5.0
 50
90.0
 51
224.99998499997989
  0
ARC
  5
439E
  8
0-1
  6
CONTINUOUS
 62
     3
 10
22367.191669499989
 20
8714.2796239999971
 30
0.0
 40
5.0
 50
224.99998499997989
 51
269.9999850001808
  0
ARC
  5
439F
  8
0-1
  6
CONTINUOUS
 62
     3
 10
19822.548167500001
 20
8746.2795310000001
 30
0.0
 40
5.0
 50
314.99998500027471
 51
90.0
  0
ARC
  5
43A0
  8
0-1
  6
CONTINUOUS
 62
     3
 10
19513.117740500002
 20
8746.2795310000001
 30
0.0
 40
5.0
 50
90.0
 51
180.0
  0
ARC
  5
43A1
  8
0-1
  6
CONTINUOUS
 62
     3
 10
19513.117740500002
 20
8714.2796239999971
 30
0.0
 40
5.0
 50
180.0
 51
269.9999850001808
  0
ARC
  5
43A2
  8
0-1
  6
CONTINUOUS
 62
     3
 10
19790.547270499981
 20
8714.2796239999971
 30
0.0
 40
5.0
 50
269.9999850001808
 51
314.99998500027471
  0
LINE
  5
43A3
  8
SUNPOU
  6
CONTINUOUS
 62
     4
 10
19359.116104499979
 20
9044.2799530000029
 30
0.0
 11
19359.116104499979
 21
10243.737564999999
 31
0.0
  0
LINE
  5
43A4
  8
SUNPOU
  6
CONTINUOUS
 62
     4
 10
26067.120854500001
 20
9044.2799530000029
 30
0.0
 11
26067.120854500001
 21
10243.737564999999
 31
0.0
  0
LINE
  5
43A5
  8
SUNPOU
  6
CONTINUOUS
 62
     4
 10
19362.116104499979
 20
10163.737564999999
 30
0.0
 11
26064.120854500001
 21
10163.737564999999
 31
0.0
  0
LINE
  5
43A6
  8
SUNPOU
  6
CONTINUOUS
 62
     4
 10
19402.118215499981
 20
9044.2799530000029
 30
0.0
 11
19402.118215499981
 21
9843.7797950000004
 31
0.0
  0
LINE
  5
43A7
  8
SUNPOU
  6
CONTINUOUS
 62
     4
 10
26024.118743499988
 20
9044.2799530000029
 30
0.0
 11
26024.118743499988
 21
9843.7797950000004
 31
0.0
  0
LINE
  5
43A8
  8
SUNPOU
  6
CONTINUOUS
 62
     4
 10
19402.118215499981
 20
9763.7797950000004
 30
0.0
 11
26024.118743499988
 21
9763.7797950000004
 31
0.0
  0
LINE
  5
43A9
  8
SUNPOU
  6
CONTINUOUS
 62
     4
 10
19402.118215499981
 20
9044.2799530000029
 30
0.0
 11
19402.118215499981
 21
9843.7797950000004
 31
0.0
  0
LINE
  5
43AA
  8
SUNPOU
  6
CONTINUOUS
 62
     4
 10
19359.116104499979
 20
9044.2799530000029
 30
0.0
 11
19359.116104499979
 21
9843.7797950000004
 31
0.0
  0
LINE
  5
43AB
  8
SUNPOU
  6
CONTINUOUS
 62
     4
 10
19402.118215499981
 20
9763.7797950000004
 30
0.0
 11
19642.118215499981
 21
9763.7797950000004
 31
0.0
  0
LINE
  5
43AC
  8
SUNPOU
  6
CONTINUOUS
 62
     4
 10
19362.116104499979
 20
9763.7797950000004
 30
0.0
 11
19122.11610449999
 21
9763.7797950000004
 31
0.0
  0
LINE
  5
43AD
  8
SUNPOU
  6
CONTINUOUS
 62
     4
 10
19402.118215499981
 20
9763.7797950000004
 30
0.0
 11
19362.116104499979
 21
9763.7797950000004
 31
0.0
  0
LINE
  5
43AE
  8
SUNPOU
  6
CONTINUOUS
 62
     4
 10
26024.118743499988
 20
9044.2799530000029
 30
0.0
 11
26024.118743499988
 21
9843.7797950000004
 31
0.0
  0
LINE
  5
43AF
  8
SUNPOU
  6
CONTINUOUS
 62
     4
 10
26067.120854500001
 20
9044.2799530000029
 30
0.0
 11
26067.120854500001
 21
9843.7797950000004
 31
0.0
  0
LINE
  5
43B0
  8
SUNPOU
  6
CONTINUOUS
 62
     4
 10
26024.118743499988
 20
9763.7797950000004
 30
0.0
 11
25784.118743499981
 21
9763.7797950000004
 31
0.0
  0
LINE
  5
43B1
  8
SUNPOU
  6
CONTINUOUS
 62
     4
 10
26064.120854500001
 20
9763.7797950000004
 30
0.0
 11
26304.120854500001
 21
9763.7797950000004
 31
0.0
  0
LINE
  5
43B2
  8
SUNPOU
  6
CONTINUOUS
 62
     4
 10
26024.118743499988
 20
9763.7797950000004
 30
0.0
 11
26064.120854500001
 21
9763.7797950000004
 31
0.0
  0
TEXT
  5
43B3
  8
0
  6
CONTINUOUS
 62
     7
 10
26184.120854500001
 20
9843.7797950000004
 30
0.0
 40
160.0
  1
43
  0
TEXT
  5
43B4
  8
0
  6
CONTINUOUS
 62
     7
 10
19002.11610449999
 20
9843.7797950000004
 30
0.0
 40
160.0
  1
43
  0
TEXT
  5
43B5
  8
0
  6
CONTINUOUS
 62
     7
 10
22419.785146166669
 20
9843.7797950000004
 30
0.0
 40
160.0
  1
6622
  0
TEXT
  5
43B6
  8
0
  6
CONTINUOUS
 62
     7
 10
22433.118479500001
 20
10243.737564999999
 30
0.0
 40
160.0
  1
6708
  0
ARC
  5
43B7
  8
0
  6
BYBLOCK
 62
     0
 10
19359.116104499979
 20
10163.737564999999
 30
0.0
 40
15.0
 50
0.0
 51
180.0
  0
ARC
  5
43B8
  8
0
  6
BYBLOCK
 62
     0
 10
19359.116104499979
 20
10163.737564999999
 30
0.0
 40
15.0
 50
180.0
 51
0.0
  0
ARC
  5
43B9
  8
0
  6
BYBLOCK
 62
     0
 10
26067.120854500001
 20
10163.737564999999
 30
0.0
 40
15.0
 50
180.0
 51
0.0
  0
ARC
  5
43BA
  8
0
  6
BYBLOCK
 62
     0
 10
26067.120854500001
 20
10163.737564999999
 30
0.0
 40
15.0
 50
0.0
 51
180.0
  0
ARC
  5
43BB
  8
0
  6
BYBLOCK
 62
     0
 10
19402.118215499981
 20
9763.7797950000004
 30
0.0
 40
15.0
 50
0.0
 51
180.0
  0
ARC
  5
43BC
  8
0
  6
BYBLOCK
 62
     0
 10
19402.118215499981
 20
9763.7797950000004
 30
0.0
 40
15.0
 50
180.0
 51
0.0
  0
ARC
  5
43BD
  8
0
  6
BYBLOCK
 62
     0
 10
26024.118743499988
 20
9763.7797950000004
 30
0.0
 40
15.0
 50
180.0
 51
0.0
  0
ARC
  5
43BE
  8
0
  6
BYBLOCK
 62
     0
 10
26024.118743499988
 20
9763.7797950000004
 30
0.0
 40
15.0
 50
0.0
 51
180.0
  0
ARC
  5
43BF
  8
0
  6
BYBLOCK
 62
     0
 10
19402.118215499981
 20
9763.7797950000004
 30
0.0
 40
15.0
 50
0.0
 51
180.0
  0
ARC
  5
43C0
  8
0
  6
BYBLOCK
 62
     0
 10
19402.118215499981
 20
9763.7797950000004
 30
0.0
 40
15.0
 50
180.0
 51
0.0
  0
ARC
  5
43C1
  8
0
  6
BYBLOCK
 62
     0
 10
19359.116104499979
 20
9763.7797950000004
 30
0.0
 40
15.0
 50
180.0
 51
0.0
  0
ARC
  5
43C2
  8
0
  6
BYBLOCK
 62
     0
 10
19359.116104499979
 20
9763.7797950000004
 30
0.0
 40
15.0
 50
0.0
 51
180.0
  0
ARC
  5
43C3
  8
0
  6
BYBLOCK
 62
     0
 10
26024.118743499988
 20
9763.7797950000004
 30
0.0
 40
15.0
 50
180.0
 51
0.0
  0
ARC
  5
43C4
  8
0
  6
BYBLOCK
 62
     0
 10
26024.118743499988
 20
9763.7797950000004
 30
0.0
 40
15.0
 50
0.0
 51
180.0
  0
ARC
  5
43C5
  8
0
  6
BYBLOCK
 62
     0
 10
26067.120854500001
 20
9763.7797950000004
 30
0.0
 40
15.0
 50
0.0
 51
180.0
  0
ARC
  5
43C6
  8
0
  6
BYBLOCK
 62
     0
 10
26067.120854500001
 20
9763.7797950000004
 30
0.0
 40
15.0
 50
180.0
 51
0.0
  0
LINE
  5
43D4
  8
SUNPOU
  6
CONTINUOUS
 62
     4
 10
8353.1589944999978
 20
14133.729659999981
 30
0.0
 11
8353.1589944999978
 21
12933.728670999961
 31
0.0
  0
LINE
  5
43D5
  8
SUNPOU
  6
CONTINUOUS
 62
     4
 10
15061.15879749998
 20
14133.729659999981
 30
0.0
 11
15061.15879749998
 21
12933.728670999961
 31
0.0
  0
LINE
  5
43D6
  8
SUNPOU
  6
CONTINUOUS
 62
     4
 10
8353.1589944999978
 20
13013.728670999961
 30
0.0
 11
15061.15879749998
 21
13013.728670999961
 31
0.0
  0
TEXT
  5
43D7
  8
0
  6
CONTINUOUS
 62
     7
 10
10904.492229333309
 20
13093.728670999961
 30
0.0
 40
160.0
  1
ケラバ外寸 6708
  0
ARC
  5
43D8
  8
0
  6
BYBLOCK
 62
     0
 10
8353.1589944999978
 20
13013.728670999961
 30
0.0
 40
15.0
 50
0.0
 51
180.0
  0
ARC
  5
43D9
  8
0
  6
BYBLOCK
 62
     0
 10
8353.1589944999978
 20
13013.728670999961
 30
0.0
 40
15.0
 50
180.0
 51
0.0
  0
ARC
  5
43DA
  8
0
  6
BYBLOCK
 62
     0
 10
15061.15879749998
 20
13013.728670999961
 30
0.0
 40
15.0
 50
180.0
 51
0.0
  0
ARC
  5
43DB
  8
0
  6
BYBLOCK
 62
     0
 10
15061.15879749998
 20
13013.728670999961
 30
0.0
 40
15.0
 50
0.0
 51
180.0
  0
TEXT
  5
4432
  8
NAME
 10
24033.053546554009
 20
1076.0
 30
0.0
 40
360.0
  1
H
 41
0.6700000000000002
  7
00
  0
TEXT
  5
4433
  8
NAME
 10
23657.221561973682
 20
1076.0
 30
0.0
 40
360.0
  1
（ ）
  7
01
  0
TEXT
  5
4435
  8
NAME
 10
21933.552716389011
 20
1876.0
 30
0.0
 40
360.0
  1
ヨドガレージ ラヴィージュ
 41
0.75
  7
01
  0
TEXT
  5
4436
  8
NAME
 10
21816.089515848391
 20
1076.6369801169251
 30
0.0
 40
360.0
  1
VGC-3355
 41
0.6700000000000002
  0
LINE
  5
4437
  8
NAME
  6
CONTINUOUS
 10
26067.886878884299
 20
2236.0
 30
0.0
 11
26067.886878884299
 21
1876.0
 31
0.0
  0
LINE
  5
4438
  8
NAME
  6
CONTINUOUS
 10
26167.886878884299
 20
2236.0
 30
0.0
 11
26167.886878884299
 21
1876.0
 31
0.0
  0
LINE
  5
4439
  8
NAME
  6
CONTINUOUS
 10
26267.88687888431
 20
2236.0
 30
0.0
 11
26267.88687888431
 21
1876.0
 31
0.0
  0
LINE
  5
443A
  8
NAME
  6
CONTINUOUS
 10
26007.886878884299
 20
2236.0
 30
0.0
 11
26327.886878884299
 21
2236.0
 31
0.0
  0
LINE
  5
443B
  8
NAME
  6
CONTINUOUS
 10
26327.886878884299
 20
1876.0
 30
0.0
 11
26007.886878884299
 21
1876.0
 31
0.0
  0
TEXT
  5
443C
  8
NAME
 10
25346.041792426669
 20
1076.0
 30
0.0
 40
360.0
  1
2
 41
0.6700000000000002
  7
00
  0
TEXT
  5
4486
  8
NAME
 10
24557.214549256722
 20
1076.0
 30
0.0
 40
360.0
  1
型（ 連棟）
  7
01
  0
TEXT
  5
451F
  8
FILENAME
  6
CONTINUOUS
 10
28756.38095238095
 20
348.0
 30
0.0
 40
200.0
  1
＜VGC-3355-2-A_0.DXF ＞
  7
FILENAME
 72
     2
 11
32764.0
 21
348.0
 31
0.0
  0
LINE
  5
4525
  8
WAKUSEN-01
 10
868.00000000000193
 20
827.99999999999955
 30
0.0
 11
32764.000000000011
 21
827.99999999999943
 31
0.0
  0
LINE
  5
4526
  8
WAKUSEN-01
 10
868.00000000000193
 20
827.99999999999955
 30
0.0
 11
868.00000000000193
 21
22484.000000000011
 31
0.0
  0
LINE
  5
4527
  8
WAKUSEN-01
 10
32764.000000000011
 20
827.99999999999943
 30
0.0
 11
32764.000000000011
 21
22484.000000000011
 31
0.0
  0
LINE
  5
4528
  8
WAKUSEN-01
 10
20560.0
 20
827.99999999999716
 30
0.0
 11
20560.0
 21
2484.0
 31
0.0
  0
LINE
  5
4529
  8
WAKUSEN-02
 10
26868.0
 20
827.99999999999261
 30
0.0
 11
26868.0
 21
2484.0
 31
0.0
  0
ENDSEC
  0
EOF
