  0
SECTION
  2
HEADER
  9
$ACADVER
  1
AC1009
  9
$INSBASE
 10
0.0
 20
0.0
 30
0.0
  9
$EXTMIN
 10
867.99324330406671
 20
327.38164749855792
 30
-0.0000000000000053
  9
$EXTMAX
 10
32765.33210850941
 20
22484.553276491992
 30
0.0000000000000099
  9
$LIMMIN
 10
0.0
 20
0.0
  9
$LIMMAX
 10
33600.0
 20
23760.0
  9
$ORTHOMODE
 70
     1
  9
$REGENMODE
 70
     1
  9
$FILLMODE
 70
     1
  9
$QTEXTMODE
 70
     0
  9
$MIRRTEXT
 70
     1
  9
$DRAGMODE
 70
     2
  9
$LTSCALE
 40
80.0
  9
$OSMODE
 70
  3071
  9
$ATTMODE
 70
     1
  9
$TEXTSIZE
 40
0.2
  9
$TRACEWID
 40
0.05
  9
$TEXTSTYLE
  7
00
  9
$CLAYER
  8
0
  9
$CELTYPE
  6
BYLAYER
  9
$CECOLOR
 62
   256
  9
$DIMSCALE
 40
80.0
  9
$DIMASZ
 40
0.18
  9
$DIMEXO
 40
0.0625
  9
$DIMDLI
 40
0.38
  9
$DIMRND
 40
0.0
  9
$DIMDLE
 40
0.0
  9
$DIMEXE
 40
0.18
  9
$DIMTP
 40
0.0
  9
$DIMTM
 40
0.0
  9
$DIMTXT
 40
0.18
  9
$DIMCEN
 40
0.09
  9
$DIMTSZ
 40
0.0
  9
$DIMTOL
 70
     0
  9
$DIMLIM
 70
     0
  9
$DIMTIH
 70
     1
  9
$DIMTOH
 70
     1
  9
$DIMSE1
 70
     0
  9
$DIMSE2
 70
     0
  9
$DIMTAD
 70
     0
  9
$DIMZIN
 70
     0
  9
$DIMBLK
  1

  9
$DIMASO
 70
     1
  9
$DIMSHO
 70
     1
  9
$DIMPOST
  1

  9
$DIMAPOST
  1

  9
$DIMALT
 70
     0
  9
$DIMALTD
 70
     2
  9
$DIMALTF
 40
25.399999999999999
  9
$DIMLFAC
 40
1.0
  9
$DIMTOFL
 70
     0
  9
$DIMTVP
 40
0.0
  9
$DIMTIX
 70
     0
  9
$DIMSOXD
 70
     0
  9
$DIMSAH
 70
     0
  9
$DIMBLK1
  1

  9
$DIMBLK2
  1

  9
$DIMSTYLE
  2
STANDARD
  9
$DIMCLRD
 70
     0
  9
$DIMCLRE
 70
     0
  9
$DIMCLRT
 70
     0
  9
$DIMTFAC
 40
1.0
  9
$DIMGAP
 40
0.09
  9
$LUNITS
 70
     2
  9
$LUPREC
 70
     4
  9
$SKETCHINC
 40
0.1
  9
$FILLETRAD
 40
0.0
  9
$AUNITS
 70
     0
  9
$AUPREC
 70
     0
  9
$MENU
  1
acad
  9
$ELEVATION
 40
0.0
  9
$PELEVATION
 40
0.0
  9
$THICKNESS
 40
0.0
  9
$LIMCHECK
 70
     0
  9
$BLIPMODE
 70
     1
  9
$CHAMFERA
 40
0.0
  9
$CHAMFERB
 40
0.0
  9
$SKPOLY
 70
     0
  9
$TDCREATE
 40
2311940.0749271871
  9
$TDUPDATE
 40
2458942.4460426969
  9
$TDINDWG
 40
0.0827681134
  9
$TDUSRTIMER
 40
0.0827670139
  9
$USRTIMER
 70
     1
  9
$ANGBASE
 50
0.0
  9
$ANGDIR
 70
     0
  9
$PDMODE
 70
     0
  9
$PDSIZE
 40
0.0
  9
$PLINEWID
 40
0.0
  9
$COORDS
 70
     1
  9
$SPLFRAME
 70
     0
  9
$SPLINETYPE
 70
     6
  9
$SPLINESEGS
 70
     8
  9
$ATTDIA
 70
     1
  9
$ATTREQ
 70
     1
  9
$HANDLING
 70
     1
  9
$HANDSEED
  5
834E
  9
$SURFTAB1
 70
     6
  9
$SURFTAB2
 70
     6
  9
$SURFTYPE
 70
     6
  9
$SURFU
 70
     6
  9
$SURFV
 70
     6
  9
$UCSNAME
  2

  9
$UCSORG
 10
0.0
 20
0.0
 30
0.0
  9
$UCSXDIR
 10
1.0
 20
0.0
 30
0.0
  9
$UCSYDIR
 10
0.0
 20
1.0
 30
0.0
  9
$PUCSNAME
  2

  9
$PUCSORG
 10
0.0
 20
0.0
 30
0.0
  9
$PUCSXDIR
 10
1.0
 20
0.0
 30
0.0
  9
$PUCSYDIR
 10
0.0
 20
1.0
 30
0.0
  9
$USERI1
 70
     0
  9
$USERI2
 70
     0
  9
$USERI3
 70
     0
  9
$USERI4
 70
     0
  9
$USERI5
 70
     0
  9
$USERR1
 40
0.0
  9
$USERR2
 40
0.0
  9
$USERR3
 40
0.0
  9
$USERR4
 40
0.0
  9
$USERR5
 40
0.0
  9
$WORLDVIEW
 70
     1
  9
$SHADEDGE
 70
     3
  9
$SHADEDIF
 70
    70
  9
$TILEMODE
 70
     1
  9
$MAXACTVP
 70
    16
  9
$PLIMCHECK
 70
     0
  9
$PEXTMIN
 10
1.0000000000000000E+020
 20
1.0000000000000000E+020
 30
1.0000000000000000E+020
  9
$PEXTMAX
 10
-1.0000000000000000E+020
 20
-1.0000000000000000E+020
 30
-1.0000000000000000E+020
  9
$PLIMMIN
 10
0.0
 20
0.0
  9
$PLIMMAX
 10
12.0
 20
9.0
  9
$UNITMODE
 70
     0
  9
$VISRETAIN
 70
     0
  9
$PLINEGEN
 70
     1
  9
$PSLTSCALE
 70
     0
  0
ENDSEC
  0
SECTION
  2
TABLES
  0
TABLE
  2
VPORT
 70
     1
  0
VPORT
  2
*ACTIVE
 70
     0
 10
0.0
 20
0.0
 11
1.0
 21
1.0
 12
16800.0
 22
11880.0
 13
0.0
 23
0.0
 14
1.0
 24
1.0
 15
0.0
 25
0.0
 16
0.0
 26
0.0
 36
1.0
 17
0.0
 27
0.0
 37
0.0
 40
23981.023255813951
 41
2.195652173913043
 42
50.0
 43
0.0
 44
0.0
 50
0.0
 51
0.0
 71
     0
 72
 10000
 73
     1
 74
     1
 75
     0
 76
     0
 77
     0
 78
     0
  0
ENDTAB
  0
TABLE
  2
LTYPE
 70
     3
  0
LTYPE
  2
CONTINUOUS
 70
     0
  3
Solid line
 72
    65
 73
     0
 40
0.0
  0
LTYPE
  2
DASHED3
 70
     0
  3
------  ------  ------  ------  
 72
    65
 73
     2
 40
5.0
 49
3.75
 49
-1.25
  0
LTYPE
  2
CENTER2
 70
     0
  3
----------  --  ----------  --  
 72
    65
 73
     4
 40
20.0
 49
12.5
 49
-2.5
 49
2.5
 49
-2.5
  0
ENDTAB
  0
TABLE
  2
LAYER
 70
    18
  0
LAYER
  2
0
 70
     0
 62
     7
  6
CONTINUOUS
  0
LAYER
  2
SUNPOU
 70
     0
 62
     4
  6
CONTINUOUS
  0
LAYER
  2
0-1
 70
     0
 62
     7
  6
CONTINUOUS
  0
LAYER
  2
0-2
 70
     0
 62
     7
  6
CONTINUOUS
  0
LAYER
  2
0-6
 70
     0
 62
     7
  6
CONTINUOUS
  0
LAYER
  2
2-0
 70
     0
 62
     7
  6
CONTINUOUS
  0
LAYER
  2
0-5
 70
     0
 62
     7
  6
CONTINUOUS
  0
LAYER
  2
0-7
 70
     0
 62
     7
  6
CONTINUOUS
  0
LAYER
  2
0-0
 70
     0
 62
     7
  6
CONTINUOUS
  0
LAYER
  2
YODOROGO
 70
     0
 62
   130
  6
CONTINUOUS
  0
LAYER
  2
WAKUSEN-01
 70
     0
 62
    50
  6
CONTINUOUS
  0
LAYER
  2
WAKUSEN-02
 70
     0
 62
   130
  6
CONTINUOUS
  0
LAYER
  2
WAKUMOJI-01
 70
     0
 62
   130
  6
CONTINUOUS
  0
LAYER
  2
FILENAME
 70
     0
 62
     7
  6
CONTINUOUS
  0
LAYER
  2
NAME
 70
     0
 62
    20
  6
CONTINUOUS
  0
LAYER
  2
0-4
 70
     0
 62
     7
  6
CONTINUOUS
  0
ENDTAB
  0
TABLE
  2
STYLE
 70
     5
  0
STYLE
  2
STANDARD
 70
     0
 40
0.0
 41
1.0
 50
0.0
 71
     0
 42
0.0
  3
txt
  4
BIGFONT
  0
STYLE
  2
00
 70
     0
 40
0.0
 41
0.6666666666666666
 50
0.0
 71
     0
 42
0.2
  3
ROMANS
  4
BIGFONT
  0
STYLE
  2
01
 70
     0
 40
3.0
 41
1.0
 50
0.0
 71
     0
 42
0.2
  3
ROMANS
  4
BIGFONT
  0
STYLE
  2
WAKUMOJI
 70
     0
 40
3.0
 41
1.0
 50
0.0
 71
     0
 42
3.0
  3
SIMPLEX
  4
BIGFONT
  0
STYLE
  2
FILENAME
 70
     0
 40
200.0
 41
1.0
 50
0.0
 71
     0
 42
200.0
  3
romans
  4
bigfont
  0
ENDTAB
  0
TABLE
  2
VIEW
 70
     0
  0
ENDTAB
  0
TABLE
  2
UCS
 70
     0
  0
ENDTAB
  0
TABLE
  2
APPID
 70
    13
  0
APPID
  2
ACAD
 70
     0
  0
APPID
  2
ACADANNOTATIVE
 70
     0
  0
APPID
  2
ACAD_PSEXT
 70
     0
  0
APPID
  2
DCO15
 70
     0
  0
APPID
  2
ACAD_EXEMPT_FROM_CAD_STANDARDS
 70
     0
  0
APPID
  2
AUTOCAD_POSTSCRIPT_FIGURE
 70
     0
  0
APPID
  2
ACAD_MLEADERVER
 70
     0
  0
APPID
  2
ACAD_DSTYLE_DIMJAG
 70
     0
  0
APPID
  2
ACAD_DSTYLE_DIMTALN
 70
     0
  0
APPID
  2
ACAD_DSTYLE_DIM_LINETYPE
 70
     0
  0
APPID
  2
ACAD_DSTYLE_DIM_EXT1_LINETYPE
 70
     0
  0
APPID
  2
ACAD_DSTYLE_DIM_EXT2_LINETYPE
 70
     0
  0
APPID
  2
ACAD_NAV_VCDISPLAY
 70
     0
  0
ENDTAB
  0
TABLE
  2
DIMSTYLE
 70
     1
  0
DIMSTYLE
  2
STANDARD
 70
     0
  3

  4

  5

  6

  7

 40
1.0
 41
0.18
 42
0.0625
 43
0.38
 44
0.18
 45
0.0
 46
0.0
 47
0.0
 48
0.0
140
0.18
141
0.09
142
0.0
143
25.399999999999999
144
1.0
145
0.0
146
1.0
147
0.09
 71
     0
 72
     0
 73
     1
 74
     1
 75
     0
 76
     0
 77
     0
 78
     0
170
     0
171
     2
172
     0
173
     0
174
     0
175
     0
176
     0
177
     0
178
     0
  0
ENDTAB
  0
ENDSEC
  0
SECTION
  2
BLOCKS
  0
BLOCK
  8
0
  2
$MODEL_SPACE
 70
     0
 10
0.0
 20
0.0
 30
0.0
  3
$MODEL_SPACE
  1

  0
ENDBLK
  5
77CB
  8
0
  0
BLOCK
 67
     1
  8
0
  2
$PAPER_SPACE
 70
     0
 10
0.0
 20
0.0
 30
0.0
  3
$PAPER_SPACE
  1

  0
ENDBLK
  5
77C7
 67
     1
  8
0
  0
ENDSEC
  0
SECTION
  2
ENTITIES
  0
CIRCLE
  5
77F9
  8
0-1
  6
CONTINUOUS
 62
     4
 10
15128.71370900002
 20
1375.999734
 30
0.0
 40
20.0
  0
ARC
  5
77FA
  8
0-1
  6
CONTINUOUS
 62
     4
 10
15128.71370900002
 20
1375.999734
 30
0.0
 40
20.0
 50
180.0
 51
0.0
  0
ARC
  5
77FB
  8
0-1
  6
CONTINUOUS
 62
     4
 10
15128.71370900002
 20
1375.999734
 30
0.0
 40
20.0
 50
0.0
 51
179.99998499999839
  0
CIRCLE
  5
77FC
  8
0-1
  6
CONTINUOUS
 62
     4
 10
15128.71370900002
 20
1775.999816999999
 30
0.0
 40
20.0
  0
ARC
  5
77FD
  8
0-1
  6
CONTINUOUS
 62
     4
 10
15128.71370900002
 20
1775.999816999999
 30
0.0
 40
20.0
 50
180.0
 51
0.0
  0
ARC
  5
77FE
  8
0-1
  6
CONTINUOUS
 62
     4
 10
15128.71370900002
 20
1775.999816999999
 30
0.0
 40
20.0
 50
0.0
 51
179.99998499999839
  0
TEXT
  5
77FF
  8
0-1
  6
CONTINUOUS
 62
     7
 10
16686.216744000001
 20
1655.9997920000001
 30
0.0
 40
160.0
  1
H
  0
TEXT
  5
7800
  8
0-1
  6
CONTINUOUS
 62
     7
 10
15176.145943
 20
1655.9997920000001
 30
0.0
 40
160.0
  1
（ ）内寸法ハ、  タ イプヲ示ス。
  0
TEXT
  5
7801
  8
0-1
  6
CONTINUOUS
 62
     7
 10
15288.714237
 20
1255.9997100000001
 30
0.0
 40
160.0
  1
有効高サハ、基礎高サヲ含ミマセン。
  0
TEXT
  5
7802
  8
2-0
  6
CONTINUOUS
 62
     7
 10
11037.747572
 20
12374.02916499998
 30
0.0
 40
160.0
  1
小 屋 伏 図
 50
359.99961300000001
 72
     4
 11
11539.08144567584
 21
12454.02577878016
 31
0.0
  0
TEXT
  5
7803
  8
2-0
  6
CONTINUOUS
 62
     7
 10
21794.443992500012
 20
3442.3567029999981
 30
0.0
 40
160.0
  1
正 面 立 面 図
 72
     4
 11
22439.77732583334
 21
3522.3567029999981
 31
0.0
  0
TEXT
  5
7804
  8
2-0
  6
CONTINUOUS
 62
     7
 10
21961.366527000031
 20
12494.78969499999
 30
0.0
 40
160.0
  1
平　面　図
 72
     4
 11
22414.69986033336
 21
12569.45636166666
 31
0.0
  0
LINE
  5
7805
  8
2-0
  6
CONTINUOUS
 62
     6
 10
11469.470624500011
 20
17700.651333500002
 30
0.0
 11
11408.32032650001
 21
17862.41957150001
 31
0.0
  0
LINE
  5
7806
  8
2-0
  6
CONTINUOUS
 62
     6
 10
10607.749565500009
 20
17862.41957150001
 30
0.0
 11
11408.32032650001
 21
17862.41957150001
 31
0.0
  0
LINE
  5
7807
  8
2-0
  6
CONTINUOUS
 62
     6
 10
11495.10736950001
 20
17707.9854495
 30
0.0
 11
11513.47334350002
 21
17546.8229445
 31
0.0
  0
LINE
  5
7808
  8
2-0
  6
CONTINUOUS
 62
     6
 10
11513.47334350002
 20
17546.8229445
 30
0.0
 11
11443.831899500001
 21
17693.31919649999
 31
0.0
  0
LINE
  5
7809
  8
2-0
  6
CONTINUOUS
 62
     6
 10
11513.47334350002
 20
17546.8229445
 30
0.0
 11
11495.10736950001
 21
17707.9854495
 31
0.0
  0
LINE
  5
780A
  8
2-0
  6
CONTINUOUS
 62
     6
 10
11495.10736950001
 20
17707.9854495
 30
0.0
 11
11443.831899500001
 21
17693.31919649999
 31
0.0
  0
LINE
  5
780B
  8
2-0
  6
CONTINUOUS
 62
     6
 10
11443.831899500001
 20
17693.31919649999
 30
0.0
 11
11513.47334350002
 21
17546.8229445
 31
0.0
  0
LINE
  5
780C
  8
2-0
  6
CONTINUOUS
 62
     6
 10
11443.831899500001
 20
17693.31919649999
 30
0.0
 11
11495.10736950001
 21
17707.9854495
 31
0.0
  0
TEXT
  5
780D
  8
0-5
  6
CONTINUOUS
 62
     7
 10
10688.3199305
 20
17942.419835500001
 30
0.0
 40
160.0
  1
桁（中）
 72
     4
 11
11008.3199305
 21
18022.419835500001
 31
0.0
  0
LINE
  5
780E
  8
2-0
  6
CONTINUOUS
 62
     6
 10
12888.079747500011
 20
16139.19717849999
 30
0.0
 11
12622.89255150001
 21
16508.156677499999
 31
0.0
  0
LINE
  5
780F
  8
2-0
  6
CONTINUOUS
 62
     6
 10
12376.65330650002
 20
16508.156677499999
 30
0.0
 11
12622.89255150001
 21
16508.156677499999
 31
0.0
  0
LINE
  5
7810
  8
2-0
  6
CONTINUOUS
 62
     6
 10
12815.701620500011
 20
16284.3602245
 30
0.0
 11
12888.079747500011
 21
16139.19717849999
 31
0.0
  0
LINE
  5
7811
  8
2-0
  6
CONTINUOUS
 62
     6
 10
12888.079747500011
 20
16139.19717849999
 30
0.0
 11
12772.534258500031
 21
16253.038302499999
 31
0.0
  0
LINE
  5
7812
  8
2-0
  6
CONTINUOUS
 62
     6
 10
12888.079747500011
 20
16139.19717849999
 30
0.0
 11
12815.701620500011
 21
16284.3602245
 31
0.0
  0
LINE
  5
7813
  8
2-0
  6
CONTINUOUS
 62
     6
 10
12815.701620500011
 20
16284.3602245
 30
0.0
 11
12772.534258500031
 21
16253.038302499999
 31
0.0
  0
LINE
  5
7814
  8
2-0
  6
CONTINUOUS
 62
     6
 10
12772.534258500031
 20
16253.038302499999
 30
0.0
 11
12888.079747500011
 21
16139.19717849999
 31
0.0
  0
LINE
  5
7815
  8
2-0
  6
CONTINUOUS
 62
     6
 10
12772.534258500031
 20
16253.038302499999
 30
0.0
 11
12815.701620500011
 21
16284.3602245
 31
0.0
  0
TEXT
  5
7816
  8
0-5
  6
CONTINUOUS
 62
     7
 10
12392.894267500011
 20
16588.1549615
 30
0.0
 40
160.0
  1
梁
 72
     4
 11
12467.56093416668
 21
16668.1549615
 31
0.0
  0
TEXT
  5
7817
  8
2-0
  6
CONTINUOUS
 62
     7
 10
11081.861047455301
 20
3442.3567029999981
 30
0.0
 40
160.0
  1
側 面 立 面 図
 72
     4
 11
11727.19438078864
 21
3522.3567029999981
 31
0.0
  0
TEXT
  5
781F
  8
2-0
  6
CONTINUOUS
 62
     7
 10
13078.68656592626
 20
3469.552072
 30
0.0
 40
160.0
  1
1
 72
     4
 11
13105.35323259293
 21
3549.552072
 31
0.0
  0
TEXT
  5
7820
  8
2-0
  6
CONTINUOUS
 62
     7
 10
13321.775283176959
 20
3389.5535399999999
 30
0.0
 40
160.0
  1
80
 72
     4
 11
13441.775283176959
 21
3469.553539999999
 31
0.0
  0
TEXT
  5
7821
  8
2-0
  6
CONTINUOUS
 62
     7
 10
12579.68853192626
 20
3442.3567029999981
 30
0.0
 40
160.0
  1
(S=  /   )
 72
     4
 11
13139.68853192626
 21
3522.3567029999981
 31
0.0
  0
TEXT
  5
7822
  8
2-0
  6
CONTINUOUS
 62
     7
 10
23791.26951097096
 20
3469.552072
 30
0.0
 40
160.0
  1
1
 72
     4
 11
23817.936177637632
 21
3549.552072
 31
0.0
  0
TEXT
  5
7823
  8
2-0
  6
CONTINUOUS
 62
     7
 10
24034.358228221648
 20
3389.5535399999999
 30
0.0
 40
160.0
  1
80
 72
     4
 11
24154.358228221648
 21
3469.553539999999
 31
0.0
  0
TEXT
  5
7824
  8
2-0
  6
CONTINUOUS
 62
     7
 10
23292.271476970949
 20
3442.3567029999981
 30
0.0
 40
160.0
  1
(S=  /   )
 72
     4
 11
23852.271476970949
 21
3522.3567029999981
 31
0.0
  0
TEXT
  5
7825
  8
2-0
  6
CONTINUOUS
 62
     7
 10
23766.192045470991
 20
12516.65173066667
 30
0.0
 40
160.0
  1
1
 72
     4
 11
23792.858712137651
 21
12596.65173066667
 31
0.0
  0
TEXT
  5
7826
  8
2-0
  6
CONTINUOUS
 62
     7
 10
24009.280762721679
 20
12436.653198666671
 30
0.0
 40
160.0
  1
80
 72
     4
 11
24129.280762721679
 21
12516.653198666671
 31
0.0
  0
TEXT
  5
7827
  8
2-0
  6
CONTINUOUS
 62
     7
 10
23267.19401147098
 20
12489.45636166666
 30
0.0
 40
160.0
  1
(S=  /   )
 72
     4
 11
23827.19401147098
 21
12569.45636166666
 31
0.0
  0
TEXT
  5
7828
  8
2-0
  6
CONTINUOUS
 62
     7
 10
12890.57363081346
 20
12401.22114778017
 30
0.0
 40
160.0
  1
1
 72
     4
 11
12917.24029748013
 21
12481.22114778017
 31
0.0
  0
TEXT
  5
7829
  8
2-0
  6
CONTINUOUS
 62
     7
 10
13133.662348064159
 20
12321.222615780171
 30
0.0
 40
160.0
  1
80
 72
     4
 11
13253.662348064159
 21
12401.222615780171
 31
0.0
  0
TEXT
  5
782A
  8
2-0
  6
CONTINUOUS
 62
     7
 10
12391.57559681346
 20
12374.02577878016
 30
0.0
 40
160.0
  1
(S=  /   )
 72
     4
 11
12951.57559681346
 21
12454.02577878016
 31
0.0
  0
LINE
  5
782B
  8
0-6
  6
CONTINUOUS
 62
     6
 10
14324.712191742959
 20
15306.25550581696
 30
0.0
 11
14957.50093674299
 21
15508.495000816991
 31
0.0
  0
LINE
  5
782C
  8
0-6
  6
CONTINUOUS
 62
     6
 10
14468.999300742949
 20
15380.36472281699
 30
0.0
 11
14324.712191742959
 21
15306.25550581696
 31
0.0
  0
LINE
  5
782D
  8
0-6
  6
CONTINUOUS
 62
     6
 10
14324.712191742959
 20
15306.25550581696
 30
0.0
 11
14485.235311742979
 21
15329.562357816991
 31
0.0
  0
LINE
  5
782E
  8
0-6
  6
CONTINUOUS
 62
     6
 10
14324.712191742959
 20
15306.25550581696
 30
0.0
 11
14468.999300742949
 21
15380.36472281699
 31
0.0
  0
LINE
  5
782F
  8
0-6
  6
CONTINUOUS
 62
     6
 10
14468.999300742949
 20
15380.36472281699
 30
0.0
 11
14485.235311742979
 21
15329.562357816991
 31
0.0
  0
LINE
  5
7830
  8
0-6
  6
CONTINUOUS
 62
     6
 10
14485.235311742979
 20
15329.562357816991
 30
0.0
 11
14324.712191742959
 21
15306.25550581696
 31
0.0
  0
LINE
  5
7831
  8
0-6
  6
CONTINUOUS
 62
     6
 10
14485.235311742979
 20
15329.562357816991
 30
0.0
 11
14468.999300742949
 21
15380.36472281699
 31
0.0
  0
LINE
  5
7832
  8
2-0
  6
CONTINUOUS
 62
     6
 10
14957.50093674299
 20
15508.495000816991
 30
0.0
 11
15837.50384074298
 21
15508.495000816991
 31
0.0
  0
TEXT
  5
7833
  8
2-0
  6
CONTINUOUS
 62
     7
 10
15037.505159742899
 20
15588.499223817271
 30
0.0
 40
160.0
  1
ブレース
 50
359.99973399995241
 72
     4
 11
15400.172222572201
 21
15673.83087344189
 31
0.0
  0
LINE
  5
7834
  8
0-1
  6
CONTINUOUS
 62
     3
 10
14708.58162349998
 20
17048.180091023969
 30
0.0
 11
14708.5816235
 21
20249.821604000001
 31
0.0
  0
LINE
  5
7835
  8
0-1
  6
CONTINUOUS
 62
     3
 10
14671.583430500001
 20
17066.87025157578
 30
0.0
 11
14671.583430500001
 21
20249.821604000001
 31
0.0
  0
LINE
  5
7836
  8
0-1
  6
CONTINUOUS
 62
     3
 10
14434.58259950002
 20
17186.5945738501
 30
0.0
 11
14434.58259950002
 21
20249.821604000001
 31
0.0
  0
LINE
  5
7837
  8
0-1
  6
CONTINUOUS
 62
     3
 10
14471.58277149999
 20
17167.90341357846
 30
0.0
 11
14471.58277150002
 21
20249.821604000001
 31
0.0
  0
LINE
  5
7838
  8
SUNPOU
  6
CONTINUOUS
 10
8747.0821895000026
 20
14407.330275
 30
0.0
 11
8747.0821895000026
 21
13731.904159189609
 31
0.0
  0
LINE
  5
7839
  8
SUNPOU
  6
CONTINUOUS
 10
8747.0821895000026
 20
20307.82149900002
 30
0.0
 11
8747.0821895000026
 21
21104.788766778471
 31
0.0
  0
LINE
  5
783A
  8
0-6
  6
CONTINUOUS
 62
     6
 10
11560.20018035975
 20
20275.47158524016
 30
0.0
 11
11634.5812795
 21
20131.32366300001
 31
0.0
  0
LINE
  5
783B
  8
0-6
  6
CONTINUOUS
 62
     6
 10
11634.5812795
 20
20131.32366300001
 30
0.0
 11
11610.97382413271
 21
20291.805101424929
 31
0.0
  0
LINE
  5
783C
  8
0-6
  6
CONTINUOUS
 62
     6
 10
11634.5812795
 20
20131.32366300001
 30
0.0
 11
11560.20018035975
 21
20275.47158524016
 31
0.0
  0
LINE
  5
783D
  8
0-6
  6
CONTINUOUS
 62
     6
 10
11560.20018035975
 20
20275.47158524016
 30
0.0
 11
11610.97382413271
 21
20291.805101424929
 31
0.0
  0
LINE
  5
783E
  8
0-6
  6
CONTINUOUS
 62
     6
 10
11610.97382413271
 20
20291.805101424929
 30
0.0
 11
11634.5812795
 21
20131.32366300001
 31
0.0
  0
LINE
  5
783F
  8
0-6
  6
CONTINUOUS
 62
     6
 10
11610.97382413271
 20
20291.805101424929
 30
0.0
 11
11560.20018035975
 21
20275.47158524016
 31
0.0
  0
LINE
  5
7840
  8
0-6
  6
CONTINUOUS
 62
     6
 10
11634.5812795
 20
20131.32366300001
 30
0.0
 11
11501.18733161877
 21
20537.823742
 31
0.0
  0
TEXT
  5
7841
  8
0-5
  6
CONTINUOUS
 62
     7
 10
10888.145589246749
 20
17025.678760909279
 30
0.0
 40
160.0
  1
ブレース
 72
     4
 11
11250.812255913421
 21
17111.012094242611
 31
0.0
  0
TEXT
  5
7842
  8
0-5
  6
CONTINUOUS
 62
     7
 10
10218.31887450001
 20
21339.26351200002
 30
0.0
 40
160.0
  1
鼻隠しコーナー後
 72
     4
 11
10964.985541166679
 21
21419.26351200002
 31
0.0
  0
TEXT
  5
7843
  8
0-5
  6
CONTINUOUS
 62
     7
 10
9921.1099165000142
 20
19395.523250999999
 30
0.0
 40
160.0
  1
上枠
 72
     4
 11
10091.77658316668
 21
19475.523250999999
 31
0.0
  0
TEXT
  5
7844
  8
0-5
  6
CONTINUOUS
 62
     7
 10
7940.6832305000062
 20
13287.32559
 30
0.0
 40
160.0
  1
ケラバ 左
 72
     4
 11
8356.6832305000062
 21
13367.32559
 31
0.0
  0
TEXT
  5
7845
  8
0-5
  6
CONTINUOUS
 62
     7
 10
11907.875594499999
 20
13687.32591999999
 30
0.0
 40
160.0
  1
鼻隠し前
 72
     4
 11
12270.542261166671
 21
13767.32591999999
 31
0.0
  0
TEXT
  5
7846
  8
0-5
  6
CONTINUOUS
 62
     7
 10
11000.34946450001
 20
15051.153847
 30
0.0
 40
160.0
  1
桁（前）
 72
     4
 11
11320.34946450001
 21
15131.153847
 31
0.0
  0
TEXT
  5
7847
  8
0-5
  6
CONTINUOUS
 62
     7
 10
11986.9504335
 20
20617.825986
 30
0.0
 40
160.0
  1
屋根
 72
     4
 11
12157.61710016667
 21
20697.825986
 31
0.0
  0
TEXT
  5
7848
  8
0-4
  6
CONTINUOUS
 62
     7
 10
8094.2092485000094
 20
14512.14182499999
 30
0.0
 40
160.0
  1
A
 72
     4
 11
8147.5425818333424
 21
14592.14182499999
 31
0.0
  0
TEXT
  5
7849
  8
0-4
  6
CONTINUOUS
 62
     7
 10
8094.2092485000094
 20
17430.140834999991
 30
0.0
 40
160.0
  1
B
 72
     4
 11
8147.5425818333424
 21
17510.140834999991
 31
0.0
  0
TEXT
  5
784A
  8
0-4
  6
CONTINUOUS
 62
     7
 10
8094.2092485000094
 20
19997.640835000009
 30
0.0
 40
160.0
  1
C
 72
     4
 11
8147.5425818333424
 21
20077.640835000009
 31
0.0
  0
TEXT
  5
784B
  8
0-4
  6
CONTINUOUS
 62
     7
 10
9630.1632445000141
 20
21367.303392999998
 30
0.0
 40
160.0
  1
1
 72
     4
 11
9656.8299111666802
 21
21447.303392999998
 31
0.0
  0
TEXT
  5
784C
  8
0-4
  6
CONTINUOUS
 62
     7
 10
12896.819323500011
 20
21365.337731
 30
0.0
 40
160.0
  1
2
 72
     4
 11
12950.15265683335
 21
21445.337731
 31
0.0
  0
TEXT
  5
784D
  8
0-4
  6
CONTINUOUS
 62
     7
 10
14756.68595549999
 20
21443.085303
 30
0.0
 40
160.0
  1
3
 72
     4
 11
14810.019288833329
 21
21523.085303
 31
0.0
  0
CIRCLE
  5
784E
  8
0-4
  6
CONTINUOUS
 62
     4
 10
14811.58196549999
 20
21527.822554999999
 30
0.0
 40
199.9999949999999
  0
CIRCLE
  5
784F
  8
0-4
  6
CONTINUOUS
 62
     4
 10
8147.0807055000023
 20
14599.82559
 30
0.0
 40
199.9999949999999
  0
CIRCLE
  5
7850
  8
0-4
  6
CONTINUOUS
 62
     4
 10
8147.0807055000023
 20
17517.825590000011
 30
0.0
 40
199.9999949999999
  0
CIRCLE
  5
7851
  8
0-4
  6
CONTINUOUS
 62
     4
 10
8147.0807055000023
 20
20085.32559
 30
0.0
 40
199.9999949999999
  0
CIRCLE
  5
7852
  8
0-4
  6
CONTINUOUS
 62
     4
 10
9676.5819654999996
 20
21457.82479800002
 30
0.0
 40
199.9999949999999
  0
CIRCLE
  5
7853
  8
0-4
  6
CONTINUOUS
 62
     4
 10
12945.08196549999
 20
21457.82479800002
 30
0.0
 40
199.9999949999999
  0
ARC
  5
7854
  8
0-1
  6
CONTINUOUS
 62
     3
 10
14892.082097500001
 20
20302.823214000011
 30
0.0
 40
5.0
 50
0.0
 51
90.0
  0
ARC
  5
7855
  8
0-1
  6
CONTINUOUS
 62
     3
 10
14828.583100499991
 20
20302.823214000011
 30
0.0
 40
5.0
 50
90.0
 51
180.0
  0
ARC
  5
7856
  8
0-1
  6
CONTINUOUS
 62
     3
 10
14828.583100499991
 20
20272.82361000001
 30
0.0
 40
5.0
 50
180.0
 51
269.9999850001808
  0
ARC
  5
7857
  8
0-1
  6
CONTINUOUS
 62
     3
 10
9659.5818205000032
 20
20272.82361000001
 30
0.0
 40
5.0
 50
269.9999850001808
 51
0.0
  0
ARC
  5
7858
  8
0-1
  6
CONTINUOUS
 62
     3
 10
9659.5818205000032
 20
20302.823214000011
 30
0.0
 40
5.0
 50
0.0
 51
90.0
  0
ARC
  5
7859
  8
0-1
  6
CONTINUOUS
 62
     3
 10
9596.0818335000167
 20
20302.823214000011
 30
0.0
 40
5.0
 50
90.0
 51
180.0
  0
LINE
  5
785A
  8
2-0
  6
DASHED3
 62
     6
 10
13002.0822035
 20
18229.43264605592
 30
0.0
 11
13002.0822035
 21
18931.823214
 31
0.0
  0
LINE
  5
785B
  8
2-0
  6
DASHED3
 62
     6
 10
12888.081728500019
 20
18229.43264605592
 30
0.0
 11
12888.081728500019
 21
18931.823214
 31
0.0
  0
LINE
  5
785C
  8
2-0
  6
DASHED3
 62
     6
 10
13002.0822035
 20
19021.824005999992
 30
0.0
 11
13002.0822035
 21
20046.32313500001
 31
0.0
  0
LINE
  5
785D
  8
2-0
  6
DASHED3
 62
     6
 10
12945.08196549999
 20
19021.824005999992
 30
0.0
 11
12945.08196549999
 21
20046.32313500001
 31
0.0
  0
LINE
  5
785E
  8
2-0
  6
DASHED3
 62
     6
 10
12888.081728500019
 20
19021.824005999992
 30
0.0
 11
12888.081728500019
 21
20046.32313500001
 31
0.0
  0
LINE
  5
785F
  8
2-0
  6
CENTER2
 62
     6
 10
14484.08241450001
 20
14599.82559
 30
0.0
 11
15110.34674550001
 21
14599.82559
 31
0.0
  0
LINE
  5
7860
  8
2-0
  6
CENTER2
 62
     6
 10
14484.08241450001
 20
17517.825590000011
 30
0.0
 11
15110.34674550001
 21
17517.825590000011
 31
0.0
  0
LINE
  5
7861
  8
2-0
  6
CENTER2
 62
     6
 10
8347.0803755000015
 20
14599.82559
 30
0.0
 11
9993.5810815000095
 21
14599.82559
 31
0.0
  0
LINE
  5
7862
  8
2-0
  6
CENTER2
 62
     6
 10
8347.0803755000015
 20
17517.825590000011
 30
0.0
 11
9993.5810815000095
 21
17517.825590000011
 31
0.0
  0
LINE
  5
7863
  8
0-7
  6
CONTINUOUS
 62
     6
 10
9676.5819654999996
 20
21257.824138000022
 30
0.0
 11
9676.5819654999996
 21
20377.823214000011
 31
0.0
  0
LINE
  5
7864
  8
2-0
  6
CENTER2
 62
     6
 10
8347.0803755000015
 20
20085.32559
 30
0.0
 11
9993.5810815000095
 21
20085.32559
 31
0.0
  0
LINE
  5
7865
  8
0-7
  6
CONTINUOUS
 62
     6
 10
12945.08196549999
 20
21257.824138000022
 30
0.0
 11
12945.08196549999
 21
20377.823214000011
 31
0.0
  0
LINE
  5
7866
  8
0-7
  6
CONTINUOUS
 62
     6
 10
14811.58196549999
 20
21327.823874000009
 30
0.0
 11
14811.58196549999
 21
20377.823214000011
 31
0.0
  0
LINE
  5
7867
  8
2-0
  6
DASHED3
 62
     6
 10
13115.33871865674
 20
17666.919023436782
 30
0.0
 11
14741.582229499991
 21
20085.32559
 31
0.0
  0
LINE
  5
7868
  8
2-0
  6
DASHED3
 62
     6
 10
14520.05494610853
 20
17143.417008911929
 30
0.0
 11
14741.582229499991
 21
17517.825590000011
 31
0.0
  0
LINE
  5
7869
  8
2-0
  6
DASHED3
 62
     6
 10
13015.08170149999
 20
20085.32559
 30
0.0
 11
14741.582229499991
 21
17517.825590000011
 31
0.0
  0
LINE
  5
786A
  8
2-0
  6
DASHED3
 62
     6
 10
10563.384001873839
 20
19414.992307571109
 30
0.0
 11
9746.5826915000162
 21
20085.32559
 31
0.0
  0
LINE
  5
786B
  8
2-0
  6
DASHED3
 62
     6
 10
12875.08222950002
 20
20085.32559
 30
0.0
 11
11487.58958219795
 21
18946.636794084308
 31
0.0
  0
LINE
  5
786C
  8
2-0
  6
DASHED3
 62
     6
 10
12945.08196549999
 20
19021.824005999992
 30
0.0
 11
12945.08196549999
 21
18931.823214
 31
0.0
  0
LINE
  5
786D
  8
2-0
  6
DASHED3
 62
     6
 10
12945.08196549999
 20
18071.158259055941
 30
0.0
 11
12945.08196549999
 21
18931.823214
 31
0.0
  0
LINE
  5
786E
  8
2-0
  6
DASHED3
 62
     6
 10
12888.081728500019
 20
18205.62299705594
 30
0.0
 11
12888.081728500019
 21
18229.43264605592
 31
0.0
  0
LINE
  5
786F
  8
2-0
  6
DASHED3
 62
     6
 10
13002.0822035
 20
17926.69737505593
 30
0.0
 11
13002.0822035
 21
18229.43264605592
 31
0.0
  0
LINE
  5
7870
  8
2-0
  6
DASHED3
 62
     6
 10
14854.081239499999
 20
16974.607879271582
 30
0.0
 11
14854.08123949999
 21
20131.32366300001
 31
0.0
  0
LINE
  5
7871
  8
2-0
  6
DASHED3
 62
     6
 10
14811.58196550001
 20
16996.14801127158
 30
0.0
 11
14811.58196549999
 21
20131.32366300001
 31
0.0
  0
LINE
  5
7872
  8
2-0
  6
DASHED3
 62
     6
 10
13711.59136703607
 20
17551.823821999991
 30
0.0
 11
14811.58196549999
 21
17551.823821999991
 31
0.0
  0
LINE
  5
7873
  8
2-0
  6
DASHED3
 62
     6
 10
13867.97738077855
 20
17472.823215
 30
0.0
 11
14811.58196549999
 21
17472.823215
 31
0.0
  0
LINE
  5
7874
  8
2-0
  6
DASHED3
 62
     6
 10
9634.0817015000157
 20
20131.32366300001
 30
0.0
 11
14854.08123949999
 21
20131.32366300001
 31
0.0
  0
LINE
  5
7875
  8
0-6
  6
CONTINUOUS
 62
     6
 10
9676.5819654999996
 20
19864.389542000001
 30
0.0
 11
9676.5819654999996
 21
20131.32366300001
 31
0.0
  0
LINE
  5
7876
  8
0-6
  6
CONTINUOUS
 62
     6
 10
9634.0817015000157
 20
19885.93066300001
 30
0.0
 11
9634.0817015000157
 21
20131.32366300001
 31
0.0
  0
LINE
  5
7877
  8
2-0
  6
DASHED3
 62
     6
 10
9676.5819654999996
 20
20046.32313500001
 30
0.0
 11
14811.58196549999
 21
20046.32313500001
 31
0.0
  0
LINE
  5
7878
  8
0-5
  6
CONTINUOUS
 62
     6
 10
11788.9372105
 20
20019.150284000021
 30
0.0
 11
11737.159932500001
 21
20031.945892000022
 31
0.0
  0
LINE
  5
7879
  8
0-5
  6
CONTINUOUS
 62
     6
 10
11788.9372105
 20
20019.150284000021
 30
0.0
 11
11724.661251500011
 21
19870.221203000001
 31
0.0
  0
LINE
  5
787A
  8
0-5
  6
CONTINUOUS
 62
     6
 10
11737.159932500001
 20
20031.945892000022
 30
0.0
 11
11788.9372105
 21
20019.150284000021
 31
0.0
  0
LINE
  5
787B
  8
0-5
  6
CONTINUOUS
 62
     6
 10
11724.661251500011
 20
19870.221203000001
 30
0.0
 11
11737.159932500001
 21
20031.945892000022
 31
0.0
  0
LINE
  5
787C
  8
0-5
  6
CONTINUOUS
 62
     6
 10
11724.661251500011
 20
19870.221203000001
 30
0.0
 11
11788.9372105
 21
20019.150284000021
 31
0.0
  0
LINE
  5
787D
  8
0-5
  6
CONTINUOUS
 62
     6
 10
11737.159932500001
 20
20031.945892000022
 30
0.0
 11
11724.661251500011
 21
19870.221203000001
 31
0.0
  0
LINE
  5
787E
  8
0-5
  6
CONTINUOUS
 62
     6
 10
9763.1868935000184
 20
20439.805900000021
 30
0.0
 11
9714.4214525000061
 21
20461.39848900001
 31
0.0
  0
LINE
  5
787F
  8
0-5
  6
CONTINUOUS
 62
     6
 10
9763.1868935000184
 20
20439.805900000021
 30
0.0
 11
9674.0273965000142
 21
20304.299935000021
 31
0.0
  0
LINE
  5
7880
  8
0-5
  6
CONTINUOUS
 62
     6
 10
9714.4214525000061
 20
20461.39848900001
 30
0.0
 11
9763.1868935000184
 21
20439.805900000021
 31
0.0
  0
LINE
  5
7881
  8
0-5
  6
CONTINUOUS
 62
     6
 10
9674.0273965000142
 20
20304.299935000021
 30
0.0
 11
9714.4214525000061
 21
20461.39848900001
 31
0.0
  0
LINE
  5
7882
  8
0-5
  6
CONTINUOUS
 62
     6
 10
9674.0273965000142
 20
20304.299935000021
 30
0.0
 11
9763.1868935000184
 21
20439.805900000021
 31
0.0
  0
LINE
  5
7883
  8
0-5
  6
CONTINUOUS
 62
     6
 10
9714.4214525000061
 20
20461.39848900001
 30
0.0
 11
9674.0273965000142
 21
20304.299935000021
 31
0.0
  0
LINE
  5
7884
  8
0-5
  6
CONTINUOUS
 62
     6
 10
10720.945552246771
 20
16825.379193909292
 30
0.0
 11
10684.080977246749
 21
16863.92042090929
 31
0.0
  0
LINE
  5
7885
  8
0-5
  6
CONTINUOUS
 62
     6
 10
10720.945552246771
 20
16825.379193909292
 30
0.0
 11
10586.885625246759
 21
16734.062021909289
 31
0.0
  0
LINE
  5
7886
  8
0-5
  6
CONTINUOUS
 62
     6
 10
10684.080977246749
 20
16863.92042090929
 30
0.0
 11
10720.945552246771
 21
16825.379193909292
 31
0.0
  0
LINE
  5
7887
  8
0-5
  6
CONTINUOUS
 62
     6
 10
10586.885625246759
 20
16734.062021909289
 30
0.0
 11
10684.080977246749
 21
16863.92042090929
 31
0.0
  0
LINE
  5
7888
  8
0-5
  6
CONTINUOUS
 62
     6
 10
10586.885625246759
 20
16734.062021909289
 30
0.0
 11
10720.945552246771
 21
16825.379193909292
 31
0.0
  0
LINE
  5
7889
  8
0-5
  6
CONTINUOUS
 62
     6
 10
10684.080977246749
 20
16863.92042090929
 30
0.0
 11
10586.885625246759
 21
16734.062021909289
 31
0.0
  0
LINE
  5
788A
  8
0-5
  6
CONTINUOUS
 62
     6
 10
10861.61094550001
 20
14782.902355999981
 30
0.0
 11
10813.315641499999
 21
14805.527264
 31
0.0
  0
LINE
  5
788B
  8
0-5
  6
CONTINUOUS
 62
     6
 10
10861.61094550001
 20
14782.902355999981
 30
0.0
 11
10769.59005550001
 21
14649.325431999991
 31
0.0
  0
LINE
  5
788C
  8
0-5
  6
CONTINUOUS
 62
     6
 10
10813.315641499999
 20
14805.527264
 30
0.0
 11
10861.61094550001
 21
14782.902355999981
 31
0.0
  0
LINE
  5
788D
  8
0-5
  6
CONTINUOUS
 62
     6
 10
10769.59005550001
 20
14649.325431999991
 30
0.0
 11
10813.315641499999
 21
14805.527264
 31
0.0
  0
LINE
  5
788E
  8
0-5
  6
CONTINUOUS
 62
     6
 10
10769.59005550001
 20
14649.325431999991
 30
0.0
 11
10861.61094550001
 21
14782.902355999981
 31
0.0
  0
LINE
  5
788F
  8
0-5
  6
CONTINUOUS
 62
     6
 10
10813.315641499999
 20
14805.527264
 30
0.0
 11
10769.59005550001
 21
14649.325431999991
 31
0.0
  0
LINE
  5
7890
  8
0-5
  6
CONTINUOUS
 62
     6
 10
9473.7456455000156
 20
14995.578862999981
 30
0.0
 11
9524.6321395000032
 21
14979.615035999999
 31
0.0
  0
LINE
  5
7891
  8
0-5
  6
CONTINUOUS
 62
     6
 10
9473.7456455000156
 20
14995.578862999981
 30
0.0
 11
9547.0818595000092
 21
15140.260887
 31
0.0
  0
LINE
  5
7892
  8
0-5
  6
CONTINUOUS
 62
     6
 10
9524.6321395000032
 20
14979.615035999999
 30
0.0
 11
9473.7456455000156
 21
14995.578862999981
 31
0.0
  0
LINE
  5
7893
  8
0-5
  6
CONTINUOUS
 62
     6
 10
9547.0818595000092
 20
15140.260887
 30
0.0
 11
9524.6321395000032
 21
14979.615035999999
 31
0.0
  0
LINE
  5
7894
  8
0-5
  6
CONTINUOUS
 62
     6
 10
9547.0818595000092
 20
15140.260887
 30
0.0
 11
9473.7456455000156
 21
14995.578862999981
 31
0.0
  0
LINE
  5
7895
  8
0-5
  6
CONTINUOUS
 62
     6
 10
9524.6321395000032
 20
14979.615035999999
 30
0.0
 11
9547.0818595000092
 21
15140.260887
 31
0.0
  0
LINE
  5
7896
  8
0-5
  6
CONTINUOUS
 62
     6
 10
11399.01658850001
 20
14256.936351
 30
0.0
 11
11444.5069155
 21
14284.777289999991
 31
0.0
  0
LINE
  5
7897
  8
0-5
  6
CONTINUOUS
 62
     6
 10
11399.01658850001
 20
14256.936351
 30
0.0
 11
11338.23745050001
 21
14407.324337
 31
0.0
  0
LINE
  5
7898
  8
0-5
  6
CONTINUOUS
 62
     6
 10
11444.5069155
 20
14284.777289999991
 30
0.0
 11
11399.01658850001
 21
14256.936351
 31
0.0
  0
LINE
  5
7899
  8
0-5
  6
CONTINUOUS
 62
     6
 10
11338.23745050001
 20
14407.324337
 30
0.0
 11
11444.5069155
 21
14284.777289999991
 31
0.0
  0
LINE
  5
789A
  8
0-5
  6
CONTINUOUS
 62
     6
 10
11338.23745050001
 20
14407.324337
 30
0.0
 11
11399.01658850001
 21
14256.936351
 31
0.0
  0
LINE
  5
789B
  8
0-5
  6
CONTINUOUS
 62
     6
 10
11444.5069155
 20
14284.777289999991
 30
0.0
 11
11338.23745050001
 21
14407.324337
 31
0.0
  0
LINE
  5
789C
  8
0-5
  6
CONTINUOUS
 62
     6
 10
9717.7361565000083
 20
19525.397486000002
 30
0.0
 11
9766.399651500009
 21
19547.229596000001
 31
0.0
  0
LINE
  5
789D
  8
0-5
  6
CONTINUOUS
 62
     6
 10
9717.7361565000083
 20
19525.397486000002
 30
0.0
 11
9676.5819654999996
 21
19682.298088
 31
0.0
  0
LINE
  5
789E
  8
0-5
  6
CONTINUOUS
 62
     6
 10
9766.399651500009
 20
19547.229596000001
 30
0.0
 11
9717.7361565000083
 21
19525.397486000002
 31
0.0
  0
LINE
  5
789F
  8
0-5
  6
CONTINUOUS
 62
     6
 10
9676.5819654999996
 20
19682.298088
 30
0.0
 11
9766.399651500009
 21
19547.229596000001
 31
0.0
  0
LINE
  5
78A0
  8
0-5
  6
CONTINUOUS
 62
     6
 10
9676.5819654999996
 20
19682.298088
 30
0.0
 11
9717.7361565000083
 21
19525.397486000002
 31
0.0
  0
LINE
  5
78A1
  8
0-5
  6
CONTINUOUS
 62
     6
 10
9766.399651500009
 20
19547.229596000001
 30
0.0
 11
9676.5819654999996
 21
19682.298088
 31
0.0
  0
LINE
  5
78A2
  8
0-5
  6
CONTINUOUS
 62
     6
 10
10808.14532524674
 20
16945.678496909291
 30
0.0
 11
11688.147238246749
 21
16945.678496909291
 31
0.0
  0
LINE
  5
78A3
  8
0-5
  6
CONTINUOUS
 62
     6
 10
10138.319600500001
 20
21259.267207000012
 30
0.0
 11
11791.16515850002
 21
21259.267207000012
 31
0.0
  0
LINE
  5
78A4
  8
0-5
  6
CONTINUOUS
 62
     6
 10
9961.9869745000105
 20
20914.547903000021
 30
0.0
 11
10138.319600500001
 21
21259.267207000012
 31
0.0
  0
LINE
  5
78A5
  8
0-5
  6
CONTINUOUS
 62
     6
 10
9738.8031835000093
 20
20450.604174
 30
0.0
 11
9900.3249715000056
 21
20786.362198000021
 31
0.0
  0
LINE
  5
78A6
  8
0-5
  6
CONTINUOUS
 62
     6
 10
10702.512275246771
 20
16844.647827909292
 30
0.0
 11
10808.14532524674
 21
16945.678496909291
 31
0.0
  0
LINE
  5
78A7
  8
0-5
  6
CONTINUOUS
 62
     6
 10
9742.0674095000086
 20
19536.312551000021
 30
0.0
 11
9841.1106415000104
 21
19315.522987000011
 31
0.0
  0
LINE
  5
78A8
  8
0-5
  6
CONTINUOUS
 62
     6
 10
9499.1883975000092
 20
14987.59744399999
 30
0.0
 11
8940.6835605000106
 21
13207.325327
 31
0.0
  0
LINE
  5
78A9
  8
0-5
  6
CONTINUOUS
 62
     6
 10
7860.684946500005
 20
13207.325327
 30
0.0
 11
8940.6835605000106
 21
13207.325327
 31
0.0
  0
LINE
  5
78AA
  8
0-5
  6
CONTINUOUS
 62
     6
 10
11421.76224650002
 20
14270.85632599999
 30
0.0
 11
11827.87632050001
 21
13607.32466699999
 31
0.0
  0
LINE
  5
78AB
  8
0-5
  6
CONTINUOUS
 62
     6
 10
11827.87632050001
 20
13607.32466699999
 30
0.0
 11
12690.4555005
 21
13607.32466699999
 31
0.0
  0
LINE
  5
78AC
  8
0-5
  6
CONTINUOUS
 62
     6
 10
10920.350190499999
 20
14971.153582999999
 30
0.0
 11
11720.34986050002
 21
14971.153582999999
 31
0.0
  0
LINE
  5
78AD
  8
0-5
  6
CONTINUOUS
 62
     6
 10
10837.46279850001
 20
14794.21431499999
 30
0.0
 11
10920.350190499999
 21
14971.153582999999
 31
0.0
  0
LINE
  5
78AE
  8
0-5
  6
CONTINUOUS
 62
     6
 10
9841.1106415000104
 20
19315.522987000011
 30
0.0
 11
10371.60883450001
 21
19315.522987000011
 31
0.0
  0
LINE
  5
78AF
  8
0-5
  6
CONTINUOUS
 62
     6
 10
11906.94917950001
 20
20537.82572200002
 30
0.0
 11
12424.63881749999
 21
20537.82572200002
 31
0.0
  0
LINE
  5
78B0
  8
0-5
  6
CONTINUOUS
 62
     6
 10
11763.04807650001
 20
20025.550067
 30
0.0
 11
11906.94917950001
 21
20537.82572200002
 31
0.0
  0
LINE
  5
78B1
  8
0-1
  6
CONTINUOUS
 62
     3
 10
12945.08196549999
 20
14563.325246999981
 30
0.0
 11
12945.08196549999
 21
14407.324337
 31
0.0
  0
LINE
  5
78B2
  8
0-1
  6
CONTINUOUS
 62
     3
 10
14034.58226950001
 20
17388.660398753302
 30
0.0
 11
14034.58226950001
 21
20249.821604000001
 31
0.0
  0
LINE
  5
78B3
  8
0-1
  6
CONTINUOUS
 62
     3
 10
13997.582097500001
 20
17407.35155902493
 30
0.0
 11
13997.582097500001
 21
20249.821604000001
 31
0.0
  0
LINE
  5
78B4
  8
0-1
  6
CONTINUOUS
 62
     3
 10
13834.58061950001
 20
17489.694061373659
 30
0.0
 11
13834.58061950001
 21
20249.821604000001
 31
0.0
  0
LINE
  5
78B5
  8
0-1
  6
CONTINUOUS
 62
     3
 10
13797.58143750001
 20
17508.384721532791
 30
0.0
 11
13797.58143750001
 21
20249.821604000001
 31
0.0
  0
LINE
  5
78B6
  8
0-1
  6
CONTINUOUS
 62
     3
 10
13634.582928499991
 20
17590.72572404916
 30
0.0
 11
13634.58292850002
 21
20249.821604000001
 31
0.0
  0
LINE
  5
78B7
  8
0-1
  6
CONTINUOUS
 62
     3
 10
13597.5817675
 20
17609.41738392815
 30
0.0
 11
13597.5817675
 21
20249.821604000001
 31
0.0
  0
LINE
  5
78B8
  8
0-1
  6
CONTINUOUS
 62
     3
 10
13434.58226950001
 20
17691.758886051852
 30
0.0
 11
13434.58226950001
 21
20249.821604000001
 31
0.0
  0
LINE
  5
78B9
  8
0-1
  6
CONTINUOUS
 62
     3
 10
13397.582097500001
 20
17710.450046323491
 30
0.0
 11
13397.582097500001
 21
20249.821604000001
 31
0.0
  0
LINE
  5
78BA
  8
0-1
  6
CONTINUOUS
 62
     3
 10
14234.582928500011
 20
17287.62723675061
 30
0.0
 11
14234.58292850002
 21
20249.821604000001
 31
0.0
  0
LINE
  5
78BB
  8
0-1
  6
CONTINUOUS
 62
     3
 10
14271.581121499999
 20
17268.937076198821
 30
0.0
 11
14271.58112150001
 21
20249.821604000001
 31
0.0
  0
LINE
  5
78BC
  8
0-1
  6
CONTINUOUS
 62
     3
 10
13015.08170149999
 20
17517.825590000011
 30
0.0
 11
13115.33871865674
 21
17666.919023436782
 31
0.0
  0
LINE
  5
78BD
  8
0-1
  6
CONTINUOUS
 62
     3
 10
14741.582229499991
 20
14599.82559
 30
0.0
 11
13015.08170149999
 21
17517.825590000011
 31
0.0
  0
LINE
  5
78BE
  8
0-1
  6
CONTINUOUS
 62
     3
 10
13015.08170149999
 20
14599.82559
 30
0.0
 11
14520.05494610853
 21
17143.417008911929
 31
0.0
  0
LINE
  5
78BF
  8
0-1
  6
CONTINUOUS
 62
     3
 10
11487.58958219795
 20
18946.636794084308
 30
0.0
 11
9746.5826915000162
 21
17517.825590000011
 31
0.0
  0
LINE
  5
78C0
  8
0-1
  6
CONTINUOUS
 62
     3
 10
12875.08222950002
 20
17517.825590000011
 30
0.0
 11
10563.384001873839
 21
19414.992307571109
 31
0.0
  0
LINE
  5
78C1
  8
0-1
  6
CONTINUOUS
 62
     3
 10
12875.08222950002
 20
14599.82559
 30
0.0
 11
9746.5826915000162
 21
17517.825590000011
 31
0.0
  0
LINE
  5
78C2
  8
0-1
  6
CONTINUOUS
 62
     3
 10
9746.5826915000162
 20
14599.82559
 30
0.0
 11
12875.08222950002
 21
17517.825590000011
 31
0.0
  0
LINE
  5
78C3
  8
0-1
  6
CONTINUOUS
 62
     3
 10
12945.08196549999
 20
17551.823821999991
 30
0.0
 11
12945.08196549999
 21
17472.823215
 31
0.0
  0
LINE
  5
78C4
  8
0-1
  6
CONTINUOUS
 62
     3
 10
13002.0822035
 20
14642.325854000001
 30
0.0
 11
13002.0822035
 21
17472.823215
 31
0.0
  0
LINE
  5
78C5
  8
0-1
  6
CONTINUOUS
 62
     3
 10
12888.081728500019
 20
14642.325854000001
 30
0.0
 11
12888.081728500019
 21
17472.823215
 31
0.0
  0
LINE
  5
78C6
  8
0-1
  6
CONTINUOUS
 62
     3
 10
13002.0822035
 20
17551.823821999991
 30
0.0
 11
13002.0822035
 21
17926.69737505593
 31
0.0
  0
LINE
  5
78C7
  8
0-1
  6
CONTINUOUS
 62
     3
 10
12888.081728500019
 20
17551.823821999991
 30
0.0
 11
12888.081728500019
 21
18205.62299705594
 31
0.0
  0
LINE
  5
78C8
  8
0-1
  6
CONTINUOUS
 62
     3
 10
12945.08196549999
 20
17551.823821999991
 30
0.0
 11
12945.08196549999
 21
18071.158259055941
 31
0.0
  0
LINE
  5
78C9
  8
0-1
  6
CONTINUOUS
 62
     3
 10
12945.08196549999
 20
17551.823821999991
 30
0.0
 11
12945.08196549999
 21
18068.55141399999
 31
0.0
  0
LINE
  5
78CA
  8
0-1
  6
CONTINUOUS
 62
     3
 10
12945.08196549999
 20
14642.325854000001
 30
0.0
 11
12945.08196549999
 21
17472.823215
 31
0.0
  0
LINE
  5
78CB
  8
0-1
  6
CONTINUOUS
 62
     3
 10
14879.082598499999
 20
16963.457251271571
 30
0.0
 11
14879.082598499979
 21
20290.32255500001
 31
0.0
  0
LINE
  5
78CC
  8
0-1
  6
CONTINUOUS
 62
     3
 10
14879.082598499979
 20
20290.32255500001
 30
0.0
 11
14897.08236150001
 21
20290.32255500001
 31
0.0
  0
LINE
  5
78CD
  8
0-1
  6
CONTINUOUS
 62
     3
 10
14897.08236150001
 20
20302.823214000011
 30
0.0
 11
14897.08236150001
 21
20267.823346000001
 31
0.0
  0
LINE
  5
78CE
  8
0-1
  6
CONTINUOUS
 62
     3
 10
14823.5828365
 20
20272.82361000001
 30
0.0
 11
14823.5828365
 21
20302.823214000011
 31
0.0
  0
LINE
  5
78CF
  8
0-1
  6
CONTINUOUS
 62
     3
 10
14879.082598499979
 20
20267.823346000001
 30
0.0
 11
14828.583100499991
 21
20267.823346000001
 31
0.0
  0
LINE
  5
78D0
  8
0-1
  6
CONTINUOUS
 62
     3
 10
14828.583100499991
 20
20307.82545800001
 30
0.0
 11
14892.082097500001
 21
20307.82545800001
 31
0.0
  0
LINE
  5
78D1
  8
0-1
  6
CONTINUOUS
 62
     3
 10
9609.0833115000078
 20
19897.08327000001
 30
0.0
 11
9609.0833115000078
 21
20290.32255500001
 31
0.0
  0
LINE
  5
78D2
  8
0-1
  6
CONTINUOUS
 62
     3
 10
9664.5810945000085
 20
20272.82361000001
 30
0.0
 11
9664.5810945000085
 21
20302.823214000011
 31
0.0
  0
LINE
  5
78D3
  8
0-1
  6
CONTINUOUS
 62
     3
 10
9591.0825595000115
 20
20302.823214000011
 30
0.0
 11
9591.0825595000115
 21
20267.823346000001
 31
0.0
  0
LINE
  5
78D4
  8
0-1
  6
CONTINUOUS
 62
     3
 10
9659.5818205000032
 20
20307.82545800001
 30
0.0
 11
9596.0818335000167
 21
20307.82545800001
 31
0.0
  0
LINE
  5
78D5
  8
0-1
  6
CONTINUOUS
 62
     3
 10
9609.0833115000078
 20
20290.32255500001
 30
0.0
 11
9591.0825595000115
 21
20290.32255500001
 31
0.0
  0
LINE
  5
78D6
  8
0-1
  6
CONTINUOUS
 62
     3
 10
9609.0833115000078
 20
20267.823346000001
 30
0.0
 11
9659.5818205000032
 21
20267.823346000001
 31
0.0
  0
LINE
  5
78D7
  8
0-1
  6
CONTINUOUS
 62
     3
 10
12562.8794875
 20
18401.716955396161
 30
0.0
 11
9442.8869295000095
 21
19982.821579396161
 31
0.0
  0
LINE
  5
78D8
  8
0-1
  6
CONTINUOUS
 62
     3
 10
14761.5813445
 20
14439.325234
 30
0.0
 11
14761.5813445
 21
20249.821604000001
 31
0.0
  0
LINE
  5
78D9
  8
0-1
  6
CONTINUOUS
 62
     3
 10
14897.08236150001
 20
14407.324337
 30
0.0
 11
14897.08236150001
 21
20297.82295100002
 31
0.0
  0
LINE
  5
78DA
  8
0-1
  6
CONTINUOUS
 62
     3
 10
14811.58196549999
 20
14563.325246999981
 30
0.0
 11
14811.58196550001
 21
16996.14801127158
 31
0.0
  0
LINE
  5
78DB
  8
0-1
  6
CONTINUOUS
 62
     3
 10
14854.08123949999
 20
14563.325246999981
 30
0.0
 11
14854.081239499999
 21
16974.607879271582
 31
0.0
  0
LINE
  5
78DC
  8
0-1
  6
CONTINUOUS
 62
     3
 10
12997.581767500011
 20
17937.313533055942
 30
0.0
 11
12997.581767500011
 21
20249.821604000001
 31
0.0
  0
LINE
  5
78DD
  8
0-1
  6
CONTINUOUS
 62
     3
 10
13034.58292850002
 20
17858.34752480076
 30
0.0
 11
13034.5829285
 21
20249.821604000001
 31
0.0
  0
LINE
  5
78DE
  8
0-1
  6
CONTINUOUS
 62
     3
 10
13197.58242750002
 20
17599.894226969202
 30
0.0
 11
13197.58242750002
 21
20249.821604000001
 31
0.0
  0
LINE
  5
78DF
  8
0-1
  6
CONTINUOUS
 62
     3
 10
13234.58061950001
 20
17643.271106128999
 30
0.0
 11
13234.58061950001
 21
20249.821604000001
 31
0.0
  0
LINE
  5
78E0
  8
0-1
  6
CONTINUOUS
 62
     3
 10
11234.581939500011
 20
19074.852341506481
 30
0.0
 11
11234.581939500011
 21
20249.821604000001
 31
0.0
  0
LINE
  5
78E1
  8
0-1
  6
CONTINUOUS
 62
     3
 10
11197.5817675
 20
19093.602752589359
 30
0.0
 11
11197.5817675
 21
20249.821604000001
 31
0.0
  0
LINE
  5
78E2
  8
0-1
  6
CONTINUOUS
 62
     3
 10
11034.58226950001
 20
19176.205276539829
 30
0.0
 11
11034.58226950001
 21
20249.821604000001
 31
0.0
  0
LINE
  5
78E3
  8
0-1
  6
CONTINUOUS
 62
     3
 10
12834.5812795
 20
18332.443758198759
 30
0.0
 11
12834.5812795
 21
20249.821604000001
 31
0.0
  0
LINE
  5
78E4
  8
0-1
  6
CONTINUOUS
 62
     3
 10
12797.58308750001
 20
18420.14655243788
 30
0.0
 11
12797.58308750001
 21
20249.821604000001
 31
0.0
  0
LINE
  5
78E5
  8
0-1
  6
CONTINUOUS
 62
     3
 10
12634.58160950001
 20
18485.78090861571
 30
0.0
 11
12634.58160950001
 21
20249.821604000001
 31
0.0
  0
LINE
  5
78E6
  8
0-1
  6
CONTINUOUS
 62
     3
 10
12597.581437500001
 20
18442.401708093261
 30
0.0
 11
12597.581437500019
 21
20249.821604000001
 31
0.0
  0
LINE
  5
78E7
  8
0-1
  6
CONTINUOUS
 62
     3
 10
12434.582928500011
 20
18466.73322671964
 30
0.0
 11
12434.582928500011
 21
20249.821604000001
 31
0.0
  0
LINE
  5
78E8
  8
0-1
  6
CONTINUOUS
 62
     3
 10
12397.581767500031
 20
18485.484138993601
 30
0.0
 11
12397.581767500011
 21
20249.821604000001
 31
0.0
  0
LINE
  5
78E9
  8
0-1
  6
CONTINUOUS
 62
     3
 10
12234.5812795
 20
18568.087164641929
 30
0.0
 11
12234.5812795
 21
20249.821604000001
 31
0.0
  0
LINE
  5
78EA
  8
0-1
  6
CONTINUOUS
 62
     3
 10
12197.58308750001
 20
18586.836572329081
 30
0.0
 11
12197.58308750001
 21
20249.821604000001
 31
0.0
  0
LINE
  5
78EB
  8
0-1
  6
CONTINUOUS
 62
     3
 10
12034.58160950001
 20
18669.440099675281
 30
0.0
 11
12034.58160950001
 21
20249.821604000001
 31
0.0
  0
LINE
  5
78EC
  8
0-1
  6
CONTINUOUS
 62
     3
 10
11997.581437500019
 20
18688.190510758141
 30
0.0
 11
11997.581437500019
 21
20249.821604000001
 31
0.0
  0
LINE
  5
78ED
  8
0-1
  6
CONTINUOUS
 62
     3
 10
11834.581939500011
 20
18770.7930347086
 30
0.0
 11
11834.581939500011
 21
20249.821604000001
 31
0.0
  0
LINE
  5
78EE
  8
0-1
  6
CONTINUOUS
 62
     3
 10
11797.581767500011
 20
18789.543445791471
 30
0.0
 11
11797.5817675
 21
20249.821604000001
 31
0.0
  0
LINE
  5
78EF
  8
0-1
  6
CONTINUOUS
 62
     3
 10
11634.58127949998
 20
18872.146471439821
 30
0.0
 11
11634.5812795
 21
20249.821604000001
 31
0.0
  0
LINE
  5
78F0
  8
0-1
  6
CONTINUOUS
 62
     3
 10
11597.582097500001
 20
18890.896380824801
 30
0.0
 11
11597.582097500001
 21
20249.821604000001
 31
0.0
  0
LINE
  5
78F1
  8
0-1
  6
CONTINUOUS
 62
     3
 10
11434.58160950001
 20
18973.499406473151
 30
0.0
 11
11434.58160950001
 21
20249.821604000001
 31
0.0
  0
LINE
  5
78F2
  8
0-1
  6
CONTINUOUS
 62
     3
 10
11397.581437500001
 20
18992.249817556021
 30
0.0
 11
11397.58143750001
 21
20249.821604000001
 31
0.0
  0
LINE
  5
78F3
  8
0-1
  6
CONTINUOUS
 62
     3
 10
10997.582097500001
 20
19194.955687622682
 30
0.0
 11
10997.582097500001
 21
20249.821604000001
 31
0.0
  0
LINE
  5
78F4
  8
0-1
  6
CONTINUOUS
 62
     3
 10
10834.58061950002
 20
19277.559214968878
 30
0.0
 11
10834.58061950002
 21
20249.821604000001
 31
0.0
  0
LINE
  5
78F5
  8
0-1
  6
CONTINUOUS
 62
     3
 10
10797.58242750002
 20
19296.308622656041
 30
0.0
 11
10797.58242750002
 21
20249.821604000001
 31
0.0
  0
LINE
  5
78F6
  8
0-1
  6
CONTINUOUS
 62
     3
 10
9634.0817015000157
 20
14563.325246999981
 30
0.0
 11
9634.0817015000157
 21
19885.93066300001
 31
0.0
  0
LINE
  5
78F7
  8
0-1
  6
CONTINUOUS
 62
     3
 10
9676.5819654999996
 20
14563.325246999981
 30
0.0
 11
9676.5819654999996
 21
19864.389542000001
 31
0.0
  0
LINE
  5
78F8
  8
0-1
  6
CONTINUOUS
 62
     3
 10
15253.36596724867
 20
16772.974573533698
 30
0.0
 11
13323.71042350001
 21
17747.76736739618
 31
0.0
  0
LINE
  5
78F9
  8
0-1
  6
CONTINUOUS
 62
     3
 10
9591.0825595000115
 20
14439.325234
 30
0.0
 11
14894.08236150001
 21
14439.325234
 31
0.0
  0
LINE
  5
78FA
  8
0-1
  6
CONTINUOUS
 62
     3
 10
9591.0825595000115
 20
14407.324337
 30
0.0
 11
14894.08236150001
 21
14407.324337
 31
0.0
  0
LINE
  5
78FB
  8
0-1
  6
CONTINUOUS
 62
     3
 10
9676.5819654999996
 20
14642.325854000001
 30
0.0
 11
14811.58196549999
 21
14642.325854000001
 31
0.0
  0
LINE
  5
78FC
  8
0-1
  6
CONTINUOUS
 62
     3
 10
9634.0817015000157
 20
14563.325246999981
 30
0.0
 11
14854.08123949999
 21
14563.325246999981
 31
0.0
  0
LINE
  5
78FD
  8
0-1
  6
CONTINUOUS
 62
     3
 10
9676.5819654999996
 20
17472.823215
 30
0.0
 11
13867.97738077855
 21
17472.823215
 31
0.0
  0
LINE
  5
78FE
  8
0-1
  6
CONTINUOUS
 62
     3
 10
13161.47303950001
 20
17557.559386396151
 30
0.0
 11
12725.1168715
 21
18591.924936396161
 31
0.0
  0
LINE
  5
78FF
  8
0-1
  6
CONTINUOUS
 62
     3
 10
13161.47303950001
 20
17557.559386396151
 30
0.0
 11
13323.71042350001
 21
17747.76736739618
 31
0.0
  0
LINE
  5
7900
  8
0-1
  6
CONTINUOUS
 62
     3
 10
12562.8794875
 20
18401.716955396161
 30
0.0
 11
12725.1168715
 21
18591.924936396161
 31
0.0
  0
LINE
  5
7901
  8
0-1
  6
CONTINUOUS
 62
     3
 10
10634.581939500011
 20
19378.911648304362
 30
0.0
 11
10634.581939500011
 21
20249.821604000001
 31
0.0
  0
LINE
  5
7902
  8
0-1
  6
CONTINUOUS
 62
     3
 10
10597.58077750001
 20
19397.662561085079
 30
0.0
 11
10597.58077750001
 21
20249.821604000001
 31
0.0
  0
LINE
  5
7903
  8
0-1
  6
CONTINUOUS
 62
     3
 10
10434.58226950001
 20
19480.264583337681
 30
0.0
 11
10434.58226950001
 21
20249.821604000001
 31
0.0
  0
LINE
  5
7904
  8
0-1
  6
CONTINUOUS
 62
     3
 10
10397.58209750001
 20
19499.01499442058
 30
0.0
 11
10397.58209750001
 21
20249.821604000001
 31
0.0
  0
LINE
  5
7905
  8
0-1
  6
CONTINUOUS
 62
     3
 10
10022.0811995
 20
19689.265491999999
 30
0.0
 11
10022.0811995
 21
20249.821604000001
 31
0.0
  0
LINE
  5
7906
  8
0-1
  6
CONTINUOUS
 62
     3
 10
9985.0830075000031
 20
19708.021430000001
 30
0.0
 11
9985.0830075000031
 21
20249.821604000001
 31
0.0
  0
LINE
  5
7907
  8
0-1
  6
CONTINUOUS
 62
     3
 10
9822.0825195000089
 20
19790.64059700002
 30
0.0
 11
9822.0825195000089
 21
20249.821604000001
 31
0.0
  0
LINE
  5
7908
  8
0-1
  6
CONTINUOUS
 62
     3
 10
9785.0813585000087
 20
19809.392576999999
 30
0.0
 11
9785.0813585000087
 21
20249.821604000001
 31
0.0
  0
LINE
  5
7909
  8
0-1
  6
CONTINUOUS
 62
     3
 10
9591.0825595000115
 20
14407.324337
 30
0.0
 11
9591.0825595000115
 21
20297.82295100002
 31
0.0
  0
LINE
  5
790A
  8
0-1
  6
CONTINUOUS
 62
     3
 10
9726.582585500013
 20
14439.325234
 30
0.0
 11
9726.5825855000039
 21
20249.821604000001
 31
0.0
  0
LINE
  5
790B
  8
0-1
  6
CONTINUOUS
 62
     3
 10
9676.5819654999996
 20
17551.823821999991
 30
0.0
 11
13711.59136703607
 21
17551.823821999991
 31
0.0
  0
LINE
  5
790C
  8
0-1
  6
CONTINUOUS
 62
     3
 10
10197.58242750001
 20
19605.632811000021
 30
0.0
 11
10197.58242750001
 21
20249.821604000001
 31
0.0
  0
LINE
  5
790D
  8
0-1
  6
CONTINUOUS
 62
     3
 10
10234.58061950001
 20
19586.876873000008
 30
0.0
 11
10234.58061950001
 21
20249.821604000001
 31
0.0
  0
LINE
  5
790E
  8
2-0
  6
CONTINUOUS
 62
     6
 10
24023.692462000021
 20
13959.82248999999
 30
0.0
 11
25023.685863999981
 21
13959.82248999999
 31
0.0
  0
LINE
  5
790F
  8
2-0
  6
CONTINUOUS
 62
     6
 10
25491.62624100002
 20
14430.24320399998
 30
0.0
 11
25023.685863999981
 21
13959.82248999999
 31
0.0
  0
LINE
  5
7910
  8
2-0
  6
CONTINUOUS
 62
     6
 10
25452.986038000021
 20
17621.850850999999
 30
0.0
 11
25148.290620000011
 21
17725.50438200001
 31
0.0
  0
LINE
  5
7911
  8
2-0
  6
CONTINUOUS
 62
     6
 10
25608.008076999991
 20
17132.22880700001
 30
0.0
 11
25148.290620000011
 21
16888.315495999988
 31
0.0
  0
LINE
  5
7912
  8
2-0
  6
CONTINUOUS
 62
     6
 10
24228.287585000009
 20
16888.315495999988
 30
0.0
 11
25148.290620000011
 21
16888.315495999988
 31
0.0
  0
LINE
  5
7913
  8
2-0
  6
CONTINUOUS
 62
     6
 10
23948.296558000009
 20
17725.50438200001
 30
0.0
 11
25148.290620000011
 21
17725.50438200001
 31
0.0
  0
LINE
  5
7914
  8
2-0
  6
CONTINUOUS
 62
     6
 10
25524.185362000011
 20
14751.92684999998
 30
0.0
 11
25148.290620000011
 21
14932.870684999991
 31
0.0
  0
LINE
  5
7915
  8
2-0
  6
CONTINUOUS
 62
     6
 10
24628.288904000008
 20
14932.870684999991
 30
0.0
 11
25148.290620000011
 21
14932.870684999991
 31
0.0
  0
LINE
  5
7916
  8
2-0
  6
CONTINUOUS
 62
     4
 10
23840.351378000021
 20
20207.824140000012
 30
0.0
 11
23840.351378000021
 21
20937.821104999992
 31
0.0
  0
LINE
  5
7917
  8
2-0
  6
CONTINUOUS
 62
     3
 10
25719.352038000001
 20
20018.821685999988
 30
0.0
 11
25719.352038000001
 21
20012.82572400002
 31
0.0
  0
LINE
  5
7918
  8
2-0
  6
CONTINUOUS
 62
     3
 10
25719.352038000001
 20
20012.82572400002
 30
0.0
 11
25749.349662000011
 21
20012.82572400002
 31
0.0
  0
LINE
  5
7919
  8
2-0
  6
CONTINUOUS
 62
     3
 10
25749.349662000011
 20
20042.825327999999
 30
0.0
 11
25668.347762000001
 21
20042.825327999999
 31
0.0
  0
LINE
  5
791A
  8
2-0
  6
CONTINUOUS
 62
     3
 10
25719.352038000001
 20
20002.528267999991
 30
0.0
 11
25749.349662000011
 21
20002.528267999991
 31
0.0
  0
LINE
  5
791B
  8
2-0
  6
CONTINUOUS
 62
     3
 10
25719.352038000001
 20
20020.530010000009
 30
0.0
 11
25719.352038000001
 21
20002.528267999991
 31
0.0
  0
LINE
  5
791C
  8
2-0
  6
CONTINUOUS
 62
     3
 10
25744.34939800002
 20
20020.530010000009
 30
0.0
 11
25719.352038000001
 21
20020.530010000009
 31
0.0
  0
LINE
  5
791D
  8
2-0
  6
CONTINUOUS
 62
     3
 10
25744.34939800002
 20
20015.521828000001
 30
0.0
 11
25744.34939800002
 21
20020.530010000009
 31
0.0
  0
LINE
  5
791E
  8
2-0
  6
CONTINUOUS
 62
     3
 10
25737.347841000039
 20
20015.521828000001
 30
0.0
 11
25744.34939800002
 21
20015.521828000001
 31
0.0
  0
LINE
  5
791F
  8
2-0
  6
CONTINUOUS
 62
     3
 10
25637.051573000012
 20
20115.822055000001
 30
0.0
 11
25637.051573000012
 21
20122.82757100002
 31
0.0
  0
LINE
  5
7920
  8
2-0
  6
CONTINUOUS
 62
     3
 10
25637.051573000012
 20
20122.82757100002
 30
0.0
 11
25642.05183700001
 21
20122.82757100002
 31
0.0
  0
LINE
  5
7921
  8
2-0
  6
CONTINUOUS
 62
     3
 10
25642.05183700001
 20
20122.82757100002
 30
0.0
 11
25642.05183700001
 21
20097.818333999989
 31
0.0
  0
LINE
  5
7922
  8
2-0
  6
CONTINUOUS
 62
     3
 10
25642.05183700001
 20
20097.818333999989
 30
0.0
 11
25624.050094999991
 21
20097.818333999989
 31
0.0
  0
LINE
  5
7923
  8
2-0
  6
CONTINUOUS
 62
     3
 10
25624.050094999991
 20
20097.818333999989
 30
0.0
 11
25624.050094999991
 21
20127.82189700002
 31
0.0
  0
LINE
  5
7924
  8
2-0
  6
CONTINUOUS
 62
     3
 10
25634.347551000021
 20
20127.82189700002
 30
0.0
 11
25749.349662000011
 21
20127.82189700002
 31
0.0
  0
LINE
  5
7925
  8
2-0
  6
CONTINUOUS
 62
     3
 10
25634.347551000021
 20
20097.818333999989
 30
0.0
 11
25634.347551000021
 21
20127.82189700002
 31
0.0
  0
LINE
  5
7926
  8
2-0
  6
CONTINUOUS
 62
     3
 10
25640.34945100002
 20
20097.818333999989
 30
0.0
 11
25634.347551000021
 21
20097.818333999989
 31
0.0
  0
LINE
  5
7927
  8
2-0
  6
CONTINUOUS
 62
     3
 10
25737.347841000039
 20
19662.22500549996
 30
0.0
 11
25744.34939800002
 21
19662.22500549996
 31
0.0
  0
LINE
  5
7928
  8
2-0
  6
CONTINUOUS
 62
     3
 10
25744.34939800002
 20
19662.22500549996
 30
0.0
 11
25744.34939800002
 21
19667.225269499992
 31
0.0
  0
LINE
  5
7929
  8
2-0
  6
CONTINUOUS
 62
     3
 10
25744.34939800002
 20
19667.225269499992
 30
0.0
 11
25719.352038000001
 21
19667.225269499992
 31
0.0
  0
LINE
  5
792A
  8
2-0
  6
CONTINUOUS
 62
     3
 10
25719.352038000001
 20
19667.225269499992
 30
0.0
 11
25719.352038000001
 21
19649.22946549999
 31
0.0
  0
LINE
  5
792B
  8
2-0
  6
CONTINUOUS
 62
     3
 10
25719.352038000001
 20
19649.22946549999
 30
0.0
 11
25749.349662000011
 21
19649.22946549999
 31
0.0
  0
LINE
  5
792C
  8
2-0
  6
CONTINUOUS
 62
     3
 10
25719.352038000001
 20
19665.32097249998
 30
0.0
 11
25719.352038000001
 21
19659.323031499989
 31
0.0
  0
LINE
  5
792D
  8
2-0
  6
CONTINUOUS
 62
     3
 10
25719.352038000001
 20
19659.323031499989
 30
0.0
 11
25749.349662000011
 21
19659.323031499989
 31
0.0
  0
LINE
  5
792E
  8
2-0
  6
CONTINUOUS
 62
     3
 10
25749.349662000011
 20
19659.323031499989
 30
0.0
 11
25749.349662000011
 21
19696.324192499978
 31
0.0
  0
LINE
  5
792F
  8
2-0
  6
CONTINUOUS
 62
     3
 10
25719.352038000001
 20
19696.324192499978
 30
0.0
 11
25749.349662000011
 21
19696.324192499978
 31
0.0
  0
LINE
  5
7930
  8
2-0
  6
CONTINUOUS
 62
     3
 10
25719.352038000001
 20
19690.320312499982
 30
0.0
 11
25719.352038000001
 21
19696.324192499978
 31
0.0
  0
LINE
  5
7931
  8
2-0
  6
CONTINUOUS
 62
     3
 10
25719.352038000001
 20
19706.41973749996
 30
0.0
 11
25749.349662000011
 21
19706.41973749996
 31
0.0
  0
LINE
  5
7932
  8
2-0
  6
CONTINUOUS
 62
     3
 10
25719.352038000001
 20
19688.417995499982
 30
0.0
 11
25719.352038000001
 21
19706.41973749996
 31
0.0
  0
LINE
  5
7933
  8
2-0
  6
CONTINUOUS
 62
     3
 10
25744.34939800002
 20
19688.417995499982
 30
0.0
 11
25719.352038000001
 21
19688.417995499982
 31
0.0
  0
LINE
  5
7934
  8
2-0
  6
CONTINUOUS
 62
     3
 10
25744.34939800002
 20
19693.418259499991
 30
0.0
 11
25744.34939800002
 21
19688.417995499982
 31
0.0
  0
LINE
  5
7935
  8
2-0
  6
CONTINUOUS
 62
     3
 10
25737.347841000039
 20
19693.418259499991
 30
0.0
 11
25744.34939800002
 21
19693.418259499991
 31
0.0
  0
LINE
  5
7936
  8
2-0
  6
CONTINUOUS
 62
     3
 10
25737.347841000039
 20
18961.224015999989
 30
0.0
 11
25744.34939800002
 21
18961.224015999989
 31
0.0
  0
LINE
  5
7937
  8
2-0
  6
CONTINUOUS
 62
     3
 10
25744.34939800002
 20
18961.224015999989
 30
0.0
 11
25744.34939800002
 21
18966.23021799999
 31
0.0
  0
LINE
  5
7938
  8
2-0
  6
CONTINUOUS
 62
     3
 10
25744.34939800002
 20
18966.23021799999
 30
0.0
 11
25719.352038000001
 21
18966.23021799999
 31
0.0
  0
LINE
  5
7939
  8
2-0
  6
CONTINUOUS
 62
     3
 10
25719.352038000001
 20
18966.23021799999
 30
0.0
 11
25719.352038000001
 21
18948.228476
 31
0.0
  0
LINE
  5
793A
  8
2-0
  6
CONTINUOUS
 62
     3
 10
25719.352038000001
 20
18948.228476
 30
0.0
 11
25749.349662000011
 21
18948.228476
 31
0.0
  0
LINE
  5
793B
  8
2-0
  6
CONTINUOUS
 62
     3
 10
25719.352038000001
 20
18964.31998299999
 30
0.0
 11
25719.352038000001
 21
18958.324020999989
 31
0.0
  0
LINE
  5
793C
  8
2-0
  6
CONTINUOUS
 62
     3
 10
25719.352038000001
 20
18958.324020999989
 30
0.0
 11
25749.349662000011
 21
18958.324020999989
 31
0.0
  0
LINE
  5
793D
  8
2-0
  6
CONTINUOUS
 62
     3
 10
25749.349662000011
 20
18958.324020999989
 30
0.0
 11
25749.349662000011
 21
18995.323203
 31
0.0
  0
LINE
  5
793E
  8
2-0
  6
CONTINUOUS
 62
     3
 10
25719.352038000001
 20
18995.323203
 30
0.0
 11
25749.349662000011
 21
18995.323203
 31
0.0
  0
LINE
  5
793F
  8
2-0
  6
CONTINUOUS
 62
     3
 10
25719.352038000001
 20
18989.327240999992
 30
0.0
 11
25719.352038000001
 21
18995.323203
 31
0.0
  0
LINE
  5
7940
  8
2-0
  6
CONTINUOUS
 62
     3
 10
25719.352038000001
 20
19005.418748
 30
0.0
 11
25749.349662000011
 21
19005.418748
 31
0.0
  0
LINE
  5
7941
  8
2-0
  6
CONTINUOUS
 62
     3
 10
25719.352038000001
 20
18987.417006
 30
0.0
 11
25719.352038000001
 21
19005.418748
 31
0.0
  0
LINE
  5
7942
  8
2-0
  6
CONTINUOUS
 62
     3
 10
25744.34939800002
 20
18987.417006
 30
0.0
 11
25719.352038000001
 21
18987.417006
 31
0.0
  0
LINE
  5
7943
  8
2-0
  6
CONTINUOUS
 62
     3
 10
25744.34939800002
 20
18992.423207999989
 30
0.0
 11
25744.34939800002
 21
18987.417006
 31
0.0
  0
LINE
  5
7944
  8
2-0
  6
CONTINUOUS
 62
     3
 10
25737.347841000039
 20
18992.423207999989
 30
0.0
 11
25744.34939800002
 21
18992.423207999989
 31
0.0
  0
LINE
  5
7945
  8
2-0
  6
CONTINUOUS
 62
     3
 10
25737.347841000039
 20
18291.417270000002
 30
0.0
 11
25744.34939800002
 21
18291.417270000002
 31
0.0
  0
LINE
  5
7946
  8
2-0
  6
CONTINUOUS
 62
     3
 10
25744.34939800002
 20
18291.417270000002
 30
0.0
 11
25744.34939800002
 21
18286.428883
 31
0.0
  0
LINE
  5
7947
  8
2-0
  6
CONTINUOUS
 62
     3
 10
25744.34939800002
 20
18286.428883
 30
0.0
 11
25719.352038000001
 21
18286.428883
 31
0.0
  0
LINE
  5
7948
  8
2-0
  6
CONTINUOUS
 62
     3
 10
25719.352038000001
 20
18286.428883
 30
0.0
 11
25719.352038000001
 21
18304.424685999998
 31
0.0
  0
LINE
  5
7949
  8
2-0
  6
CONTINUOUS
 62
     3
 10
25719.352038000001
 20
18304.424685999998
 30
0.0
 11
25749.349662000011
 21
18304.424685999998
 31
0.0
  0
LINE
  5
794A
  8
2-0
  6
CONTINUOUS
 62
     3
 10
25719.352038000001
 20
18288.327240999992
 30
0.0
 11
25719.352038000001
 21
18294.323202999982
 31
0.0
  0
LINE
  5
794B
  8
2-0
  6
CONTINUOUS
 62
     3
 10
25719.352038000001
 20
18294.323202999982
 30
0.0
 11
25749.349662000011
 21
18294.323202999982
 31
0.0
  0
LINE
  5
794C
  8
2-0
  6
CONTINUOUS
 62
     3
 10
25749.349662000011
 20
18294.323202999982
 30
0.0
 11
25749.349662000011
 21
18257.324021
 31
0.0
  0
LINE
  5
794D
  8
2-0
  6
CONTINUOUS
 62
     3
 10
25719.352038000001
 20
18257.324021
 30
0.0
 11
25749.349662000011
 21
18257.324021
 31
0.0
  0
LINE
  5
794E
  8
2-0
  6
CONTINUOUS
 62
     3
 10
25719.352038000001
 20
18263.325921999989
 30
0.0
 11
25719.352038000001
 21
18257.324021
 31
0.0
  0
LINE
  5
794F
  8
2-0
  6
CONTINUOUS
 62
     3
 10
25719.352038000001
 20
18247.234414999992
 30
0.0
 11
25749.349662000011
 21
18247.234414999992
 31
0.0
  0
LINE
  5
7950
  8
2-0
  6
CONTINUOUS
 62
     3
 10
25719.352038000001
 20
18265.23021799999
 30
0.0
 11
25719.352038000001
 21
18247.234414999992
 31
0.0
  0
LINE
  5
7951
  8
2-0
  6
CONTINUOUS
 62
     3
 10
25744.34939800002
 20
18265.23021799999
 30
0.0
 11
25719.352038000001
 21
18265.23021799999
 31
0.0
  0
LINE
  5
7952
  8
2-0
  6
CONTINUOUS
 62
     3
 10
25744.34939800002
 20
18260.229954999992
 30
0.0
 11
25744.34939800002
 21
18265.23021799999
 31
0.0
  0
LINE
  5
7953
  8
2-0
  6
CONTINUOUS
 62
     3
 10
25737.347841000039
 20
18260.229954999992
 30
0.0
 11
25744.34939800002
 21
18260.229954999992
 31
0.0
  0
LINE
  5
7954
  8
2-0
  6
CONTINUOUS
 62
     3
 10
25746.463524000021
 20
17540.32084099999
 30
0.0
 11
25746.463524000021
 21
17560.32189599999
 31
0.0
  0
LINE
  5
7955
  8
2-0
  6
CONTINUOUS
 62
     3
 10
25746.463524000021
 20
17560.32189599999
 30
0.0
 11
25661.466955000011
 21
17560.32189599999
 31
0.0
  0
LINE
  5
7956
  8
2-0
  6
CONTINUOUS
 62
     3
 10
25737.347841000039
 20
17586.928606000001
 30
0.0
 11
25744.34939800002
 21
17586.928606000001
 31
0.0
  0
LINE
  5
7957
  8
2-0
  6
CONTINUOUS
 62
     3
 10
25744.34939800002
 20
17586.928606000001
 30
0.0
 11
25744.34939800002
 21
17581.934280000001
 31
0.0
  0
LINE
  5
7958
  8
2-0
  6
CONTINUOUS
 62
     3
 10
25744.34939800002
 20
17581.934280000001
 30
0.0
 11
25719.352038000001
 21
17581.934280000001
 31
0.0
  0
LINE
  5
7959
  8
2-0
  6
CONTINUOUS
 62
     3
 10
25719.352038000001
 20
17581.934280000001
 30
0.0
 11
25719.352038000001
 21
17599.930083999989
 31
0.0
  0
LINE
  5
795A
  8
2-0
  6
CONTINUOUS
 62
     3
 10
25719.352038000001
 20
17599.930083999989
 30
0.0
 11
25749.349662000011
 21
17599.930083999989
 31
0.0
  0
LINE
  5
795B
  8
2-0
  6
CONTINUOUS
 62
     3
 10
25719.352038000001
 20
17590.321499999991
 30
0.0
 11
25719.352038000001
 21
17584.319599999992
 31
0.0
  0
LINE
  5
795C
  8
2-0
  6
CONTINUOUS
 62
     3
 10
25749.349662000011
 20
17590.321499999991
 30
0.0
 11
25719.352038000001
 21
17590.321499999991
 31
0.0
  0
LINE
  5
795D
  8
2-0
  6
CONTINUOUS
 62
     3
 10
25749.349662000011
 20
17599.930083999989
 30
0.0
 11
25749.349662000011
 21
18247.234414999992
 31
0.0
  0
LINE
  5
795E
  8
2-0
  6
CONTINUOUS
 62
     3
 10
25749.349662000011
 20
18304.424685999998
 30
0.0
 11
25749.349662000011
 21
18948.228476
 31
0.0
  0
LINE
  5
795F
  8
2-0
  6
CONTINUOUS
 62
     3
 10
25749.349662000011
 20
17445.319784999989
 30
0.0
 11
25719.352038000001
 21
17445.319784999989
 31
0.0
  0
LINE
  5
7960
  8
2-0
  6
CONTINUOUS
 62
     3
 10
25719.352038000001
 20
17445.319784999989
 30
0.0
 11
25719.352038000001
 21
17451.321684999999
 31
0.0
  0
LINE
  5
7961
  8
2-0
  6
CONTINUOUS
 62
     3
 10
25661.466955000011
 20
17475.325327999999
 30
0.0
 11
25746.463524000021
 21
17475.325327999999
 31
0.0
  0
LINE
  5
7962
  8
2-0
  6
CONTINUOUS
 62
     3
 10
25746.463524000021
 20
17475.325327999999
 30
0.0
 11
25746.463524000021
 21
17495.32044499999
 31
0.0
  0
LINE
  5
7963
  8
2-0
  6
CONTINUOUS
 62
     3
 10
25719.352038000001
 20
17435.711201999991
 30
0.0
 11
25749.349662000011
 21
17435.711201999991
 31
0.0
  0
LINE
  5
7964
  8
2-0
  6
CONTINUOUS
 62
     3
 10
25719.352038000001
 20
17453.707004999978
 30
0.0
 11
25719.352038000001
 21
17435.711201999991
 31
0.0
  0
LINE
  5
7965
  8
2-0
  6
CONTINUOUS
 62
     3
 10
25744.34939800002
 20
17453.707004999978
 30
0.0
 11
25719.352038000001
 21
17453.707004999978
 31
0.0
  0
LINE
  5
7966
  8
2-0
  6
CONTINUOUS
 62
     3
 10
25744.34939800002
 20
17448.706741000002
 30
0.0
 11
25744.34939800002
 21
17453.707004999978
 31
0.0
  0
LINE
  5
7967
  8
2-0
  6
CONTINUOUS
 62
     3
 10
25737.347841000039
 20
17448.706741000002
 30
0.0
 11
25744.34939800002
 21
17448.706741000002
 31
0.0
  0
LINE
  5
7968
  8
2-0
  6
CONTINUOUS
 62
     3
 10
25737.347841000039
 20
16744.224510499971
 30
0.0
 11
25744.34939800002
 21
16744.224510499971
 31
0.0
  0
LINE
  5
7969
  8
2-0
  6
CONTINUOUS
 62
     3
 10
25744.34939800002
 20
16744.224510499971
 30
0.0
 11
25744.34939800002
 21
16749.22477449998
 31
0.0
  0
LINE
  5
796A
  8
2-0
  6
CONTINUOUS
 62
     3
 10
25744.34939800002
 20
16749.22477449998
 30
0.0
 11
25719.352038000001
 21
16749.22477449998
 31
0.0
  0
LINE
  5
796B
  8
2-0
  6
CONTINUOUS
 62
     3
 10
25719.352038000001
 20
16749.22477449998
 30
0.0
 11
25719.352038000001
 21
16731.223032499991
 31
0.0
  0
LINE
  5
796C
  8
2-0
  6
CONTINUOUS
 62
     3
 10
25719.352038000001
 20
16731.223032499991
 30
0.0
 11
25749.349662000011
 21
16731.223032499991
 31
0.0
  0
LINE
  5
796D
  8
2-0
  6
CONTINUOUS
 62
     3
 10
25719.352038000001
 20
16747.320477500001
 30
0.0
 11
25719.352038000001
 21
16741.3235265
 31
0.0
  0
LINE
  5
796E
  8
2-0
  6
CONTINUOUS
 62
     3
 10
25719.352038000001
 20
16741.3235265
 30
0.0
 11
25749.349662000011
 21
16741.3235265
 31
0.0
  0
LINE
  5
796F
  8
2-0
  6
CONTINUOUS
 62
     3
 10
25749.349662000011
 20
16741.3235265
 30
0.0
 11
25749.349662000011
 21
16778.323697499989
 31
0.0
  0
LINE
  5
7970
  8
2-0
  6
CONTINUOUS
 62
     3
 10
25719.352038000001
 20
16778.323697499989
 30
0.0
 11
25749.349662000011
 21
16778.323697499989
 31
0.0
  0
LINE
  5
7971
  8
2-0
  6
CONTINUOUS
 62
     3
 10
25719.352038000001
 20
16772.320807499978
 30
0.0
 11
25719.352038000001
 21
16778.323697499989
 31
0.0
  0
LINE
  5
7972
  8
2-0
  6
CONTINUOUS
 62
     3
 10
25719.352038000001
 20
16788.419242499989
 30
0.0
 11
25749.349662000011
 21
16788.419242499989
 31
0.0
  0
LINE
  5
7973
  8
2-0
  6
CONTINUOUS
 62
     3
 10
25719.352038000001
 20
16770.411561500001
 30
0.0
 11
25719.352038000001
 21
16788.419242499989
 31
0.0
  0
LINE
  5
7974
  8
2-0
  6
CONTINUOUS
 62
     3
 10
25744.34939800002
 20
16770.411561500001
 30
0.0
 11
25719.352038000001
 21
16770.411561500001
 31
0.0
  0
LINE
  5
7975
  8
2-0
  6
CONTINUOUS
 62
     3
 10
25744.34939800002
 20
16775.417764499991
 30
0.0
 11
25744.34939800002
 21
16770.411561500001
 31
0.0
  0
LINE
  5
7976
  8
2-0
  6
CONTINUOUS
 62
     3
 10
25737.347841000039
 20
16775.417764499991
 30
0.0
 11
25744.34939800002
 21
16775.417764499991
 31
0.0
  0
LINE
  5
7977
  8
2-0
  6
CONTINUOUS
 62
     3
 10
25737.347841000039
 20
16074.657781
 30
0.0
 11
25744.34939800002
 21
16074.657781
 31
0.0
  0
LINE
  5
7978
  8
2-0
  6
CONTINUOUS
 62
     3
 10
25744.34939800002
 20
16074.657781
 30
0.0
 11
25744.34939800002
 21
16069.663456
 31
0.0
  0
LINE
  5
7979
  8
2-0
  6
CONTINUOUS
 62
     3
 10
25744.34939800002
 20
16069.663456
 30
0.0
 11
25719.352038000001
 21
16069.663456
 31
0.0
  0
LINE
  5
797A
  8
2-0
  6
CONTINUOUS
 62
     3
 10
25719.352038000001
 20
16069.663456
 30
0.0
 11
25719.352038000001
 21
16087.659259
 31
0.0
  0
LINE
  5
797B
  8
2-0
  6
CONTINUOUS
 62
     3
 10
25719.352038000001
 20
16087.659259
 30
0.0
 11
25749.349662000011
 21
16087.659259
 31
0.0
  0
LINE
  5
797C
  8
2-0
  6
CONTINUOUS
 62
     3
 10
25719.352038000001
 20
16071.561814000001
 30
0.0
 11
25719.352038000001
 21
16077.563714000011
 31
0.0
  0
LINE
  5
797D
  8
2-0
  6
CONTINUOUS
 62
     3
 10
25719.352038000001
 20
16077.563714000011
 30
0.0
 11
25749.349662000011
 21
16077.563714000011
 31
0.0
  0
LINE
  5
797E
  8
2-0
  6
CONTINUOUS
 62
     3
 10
25749.349662000011
 20
16040.56453300001
 30
0.0
 11
25749.349662000011
 21
16077.563714000011
 31
0.0
  0
LINE
  5
797F
  8
2-0
  6
CONTINUOUS
 62
     3
 10
25719.352038000001
 20
16040.56453300001
 30
0.0
 11
25749.349662000011
 21
16040.56453300001
 31
0.0
  0
LINE
  5
7980
  8
2-0
  6
CONTINUOUS
 62
     3
 10
25719.352038000001
 20
16046.561484
 30
0.0
 11
25719.352038000001
 21
16040.56453300001
 31
0.0
  0
LINE
  5
7981
  8
2-0
  6
CONTINUOUS
 62
     3
 10
25719.352038000001
 20
16030.463049
 30
0.0
 11
25749.349662000011
 21
16030.463049
 31
0.0
  0
LINE
  5
7982
  8
2-0
  6
CONTINUOUS
 62
     3
 10
25719.352038000001
 20
16048.47072999999
 30
0.0
 11
25719.352038000001
 21
16030.463049
 31
0.0
  0
LINE
  5
7983
  8
2-0
  6
CONTINUOUS
 62
     3
 10
25744.34939800002
 20
16048.47072999999
 30
0.0
 11
25719.352038000001
 21
16048.47072999999
 31
0.0
  0
LINE
  5
7984
  8
2-0
  6
CONTINUOUS
 62
     3
 10
25744.34939800002
 20
16043.47046600001
 30
0.0
 11
25744.34939800002
 21
16048.47072999999
 31
0.0
  0
LINE
  5
7985
  8
2-0
  6
CONTINUOUS
 62
     3
 10
25737.347841000039
 20
16043.47046600001
 30
0.0
 11
25744.34939800002
 21
16043.47046600001
 31
0.0
  0
LINE
  5
7986
  8
2-0
  6
CONTINUOUS
 62
     3
 10
25749.349662000011
 20
17435.711201999991
 30
0.0
 11
25749.349662000011
 21
16788.419242499989
 31
0.0
  0
LINE
  5
7987
  8
2-0
  6
CONTINUOUS
 62
     3
 10
25749.349662000011
 20
17590.321499999991
 30
0.0
 11
25749.349662000011
 21
17445.319784999989
 31
0.0
  0
LINE
  5
7988
  8
2-0
  6
CONTINUOUS
 62
     3
 10
25661.466955000011
 20
17560.32189599999
 30
0.0
 11
25661.466955000011
 21
17475.325327999999
 31
0.0
  0
LINE
  5
7989
  8
2-0
  6
CONTINUOUS
 62
     6
 10
24123.258288000012
 20
19328.769161499949
 30
0.0
 11
25148.290620000011
 21
19328.769161499949
 31
0.0
  0
LINE
  5
798A
  8
2-0
  6
CONTINUOUS
 62
     3
 10
25737.347841000039
 20
15342.22945899998
 30
0.0
 11
25744.34939800002
 21
15342.22945899998
 31
0.0
  0
LINE
  5
798B
  8
2-0
  6
CONTINUOUS
 62
     3
 10
25744.34939800002
 20
15342.22945899998
 30
0.0
 11
25744.34939800002
 21
15347.223785
 31
0.0
  0
LINE
  5
798C
  8
2-0
  6
CONTINUOUS
 62
     3
 10
25744.34939800002
 20
15347.223785
 30
0.0
 11
25719.352038000001
 21
15347.223785
 31
0.0
  0
LINE
  5
798D
  8
2-0
  6
CONTINUOUS
 62
     3
 10
25719.352038000001
 20
15347.223785
 30
0.0
 11
25719.352038000001
 21
15329.227980999991
 31
0.0
  0
LINE
  5
798E
  8
2-0
  6
CONTINUOUS
 62
     3
 10
25719.352038000001
 20
15329.227980999991
 30
0.0
 11
25749.349662000011
 21
15329.227980999991
 31
0.0
  0
LINE
  5
798F
  8
2-0
  6
CONTINUOUS
 62
     3
 10
25719.352038000001
 20
15345.326416
 30
0.0
 11
25719.352038000001
 21
15339.323525999989
 31
0.0
  0
LINE
  5
7990
  8
2-0
  6
CONTINUOUS
 62
     3
 10
25719.352038000001
 20
15339.323525999989
 30
0.0
 11
25749.349662000011
 21
15339.323525999989
 31
0.0
  0
LINE
  5
7991
  8
2-0
  6
CONTINUOUS
 62
     3
 10
25749.349662000011
 20
15339.323525999989
 30
0.0
 11
25749.349662000011
 21
15376.32369799998
 31
0.0
  0
LINE
  5
7992
  8
2-0
  6
CONTINUOUS
 62
     3
 10
25719.352038000001
 20
15376.32369799998
 30
0.0
 11
25749.349662000011
 21
15376.32369799998
 31
0.0
  0
LINE
  5
7993
  8
2-0
  6
CONTINUOUS
 62
     3
 10
25719.352038000001
 20
15370.32674599999
 30
0.0
 11
25719.352038000001
 21
15376.32369799998
 31
0.0
  0
LINE
  5
7994
  8
2-0
  6
CONTINUOUS
 62
     3
 10
25719.352038000001
 20
15386.424191
 30
0.0
 11
25749.349662000011
 21
15386.424191
 31
0.0
  0
LINE
  5
7995
  8
2-0
  6
CONTINUOUS
 62
     3
 10
25719.352038000001
 20
15368.41749999999
 30
0.0
 11
25719.352038000001
 21
15386.424191
 31
0.0
  0
LINE
  5
7996
  8
2-0
  6
CONTINUOUS
 62
     3
 10
25744.34939800002
 20
15368.41749999999
 30
0.0
 11
25719.352038000001
 21
15368.41749999999
 31
0.0
  0
LINE
  5
7997
  8
2-0
  6
CONTINUOUS
 62
     3
 10
25744.34939800002
 20
15373.422713
 30
0.0
 11
25744.34939800002
 21
15368.41749999999
 31
0.0
  0
LINE
  5
7998
  8
2-0
  6
CONTINUOUS
 62
     3
 10
25737.347841000039
 20
15373.422713
 30
0.0
 11
25744.34939800002
 21
15373.422713
 31
0.0
  0
LINE
  5
7999
  8
2-0
  6
CONTINUOUS
 62
     3
 10
25719.352038000001
 20
14666.32553899999
 30
0.0
 11
25719.352038000001
 21
14672.330407999991
 31
0.0
  0
LINE
  5
799A
  8
2-0
  6
CONTINUOUS
 62
     3
 10
25719.352038000001
 20
14672.330407999991
 30
0.0
 11
25749.349662000011
 21
14672.330407999991
 31
0.0
  0
LINE
  5
799B
  8
2-0
  6
CONTINUOUS
 62
     3
 10
25749.349662000011
 20
14672.330407999991
 30
0.0
 11
25749.349662000011
 21
14557.32631699999
 31
0.0
  0
LINE
  5
799C
  8
2-0
  6
CONTINUOUS
 62
     3
 10
25749.349662000011
 20
14557.32631699999
 30
0.0
 11
25664.351114000008
 21
14557.32631699999
 31
0.0
  0
LINE
  5
799D
  8
2-0
  6
CONTINUOUS
 62
     3
 10
25664.351114000008
 20
14557.32631699999
 30
0.0
 11
25664.351114000008
 21
14642.321895999979
 31
0.0
  0
LINE
  5
799E
  8
2-0
  6
CONTINUOUS
 62
     3
 10
25664.351114000008
 20
14642.321895999979
 30
0.0
 11
25696.350032000009
 21
14642.321895999979
 31
0.0
  0
LINE
  5
799F
  8
2-0
  6
CONTINUOUS
 62
     3
 10
25737.347841000039
 20
14669.36014099999
 30
0.0
 11
25744.34939800002
 21
14669.36014099999
 31
0.0
  0
LINE
  5
79A0
  8
2-0
  6
CONTINUOUS
 62
     3
 10
25744.34939800002
 20
14669.36014099999
 30
0.0
 11
25744.34939800002
 21
14664.362845999971
 31
0.0
  0
LINE
  5
79A1
  8
2-0
  6
CONTINUOUS
 62
     3
 10
25744.34939800002
 20
14664.362845999971
 30
0.0
 11
25719.352038000001
 21
14664.362845999971
 31
0.0
  0
LINE
  5
79A2
  8
2-0
  6
CONTINUOUS
 62
     3
 10
25719.352038000001
 20
14664.362845999971
 30
0.0
 11
25719.352038000001
 21
14682.36161899999
 31
0.0
  0
LINE
  5
79A3
  8
2-0
  6
CONTINUOUS
 62
     3
 10
25719.352038000001
 20
14682.36161899999
 30
0.0
 11
25749.349662000011
 21
14682.36161899999
 31
0.0
  0
LINE
  5
79A4
  8
2-0
  6
CENTER2
 62
     6
 10
25706.851378000021
 20
14359.828758999971
 30
0.0
 11
25706.851378000021
 21
15515.69751700001
 31
0.0
  0
LINE
  5
79A5
  8
2-0
  6
CONTINUOUS
 62
     3
 10
25749.349662000011
 20
19005.418748
 30
0.0
 11
25749.349662000011
 21
19649.22946549999
 31
0.0
  0
LINE
  5
79A6
  8
2-0
  6
CONTINUOUS
 62
     6
 10
26441.854544999998
 20
20857.824799999999
 30
0.0
 11
27641.848606999989
 21
20857.824799999999
 31
0.0
  0
LINE
  5
79A7
  8
2-0
  6
CONTINUOUS
 62
     3
 10
23912.853226000021
 20
20127.82189700002
 30
0.0
 11
23912.853226000021
 21
20097.818333999989
 31
0.0
  0
LINE
  5
79A8
  8
2-0
  6
CONTINUOUS
 62
     3
 10
23912.853226000021
 20
20097.818333999989
 30
0.0
 11
23906.855284000008
 21
20097.818333999989
 31
0.0
  0
LINE
  5
79A9
  8
2-0
  6
CONTINUOUS
 62
     3
 10
23922.469727000022
 20
20097.818333999989
 30
0.0
 11
23922.469727000022
 21
20127.82189700002
 31
0.0
  0
LINE
  5
79AA
  8
2-0
  6
CONTINUOUS
 62
     3
 10
23904.46798500001
 20
20097.818333999989
 30
0.0
 11
23922.469727000022
 21
20097.818333999989
 31
0.0
  0
LINE
  5
79AB
  8
2-0
  6
CONTINUOUS
 62
     3
 10
23904.46798500001
 20
20122.82757100002
 30
0.0
 11
23904.46798500001
 21
20097.818333999989
 31
0.0
  0
LINE
  5
79AC
  8
2-0
  6
CONTINUOUS
 62
     3
 10
23909.46824900002
 20
20122.82757100002
 30
0.0
 11
23904.46798500001
 21
20122.82757100002
 31
0.0
  0
LINE
  5
79AD
  8
2-0
  6
CONTINUOUS
 62
     3
 10
23909.46824900002
 20
20115.822055000001
 30
0.0
 11
23909.46824900002
 21
20122.82757100002
 31
0.0
  0
LINE
  5
79AE
  8
2-0
  6
CONTINUOUS
 62
     3
 10
23882.85164200002
 20
20124.929820000001
 30
0.0
 11
23882.85164200002
 21
20039.93127200002
 31
0.0
  0
LINE
  5
79AF
  8
2-0
  6
CONTINUOUS
 62
     3
 10
23862.85454500002
 20
20124.929820000001
 30
0.0
 11
23882.85164200002
 21
20124.929820000001
 31
0.0
  0
LINE
  5
79B0
  8
2-0
  6
CONTINUOUS
 62
     3
 10
23771.240446000029
 20
20115.822055000001
 30
0.0
 11
23771.240446000029
 21
20122.82757100002
 31
0.0
  0
LINE
  5
79B1
  8
2-0
  6
CONTINUOUS
 62
     3
 10
23771.240446000029
 20
20122.82757100002
 30
0.0
 11
23776.240709999998
 21
20122.82757100002
 31
0.0
  0
LINE
  5
79B2
  8
2-0
  6
CONTINUOUS
 62
     3
 10
23776.240709999998
 20
20122.82757100002
 30
0.0
 11
23776.240709999998
 21
20097.818333999989
 31
0.0
  0
LINE
  5
79B3
  8
2-0
  6
CONTINUOUS
 62
     3
 10
23776.240709999998
 20
20097.818333999989
 30
0.0
 11
23758.23896800002
 21
20097.818333999989
 31
0.0
  0
LINE
  5
79B4
  8
2-0
  6
CONTINUOUS
 62
     3
 10
23758.23896800002
 20
20097.818333999989
 30
0.0
 11
23758.23896800002
 21
20127.82189700002
 31
0.0
  0
LINE
  5
79B5
  8
2-0
  6
CONTINUOUS
 62
     3
 10
23797.859032000011
 20
20124.929820000001
 30
0.0
 11
23817.854149000021
 21
20124.929820000001
 31
0.0
  0
LINE
  5
79B6
  8
2-0
  6
CONTINUOUS
 62
     3
 10
23797.859032000011
 20
20039.93127200002
 30
0.0
 11
23797.859032000011
 21
20124.929820000001
 31
0.0
  0
LINE
  5
79B7
  8
2-0
  6
CONTINUOUS
 62
     3
 10
23767.86140800003
 20
20097.818333999989
 30
0.0
 11
23773.857369000008
 21
20097.818333999989
 31
0.0
  0
LINE
  5
79B8
  8
2-0
  6
CONTINUOUS
 62
     3
 10
23767.86140800003
 20
20127.82189700002
 30
0.0
 11
23767.86140800003
 21
20097.818333999989
 31
0.0
  0
LINE
  5
79B9
  8
2-0
  6
CONTINUOUS
 62
     3
 10
23882.85164200002
 20
20039.93127200002
 30
0.0
 11
23797.859032000011
 21
20039.93127200002
 31
0.0
  0
LINE
  5
79BA
  8
2-0
  6
CONTINUOUS
 62
     3
 10
23912.853226000021
 20
20127.82189700002
 30
0.0
 11
23767.86140800003
 21
20127.82189700002
 31
0.0
  0
LINE
  5
79BB
  8
2-0
  6
CONTINUOUS
 62
     6
 10
25579.821712000001
 20
19570.923669499989
 30
0.0
 11
25148.290620000011
 21
19328.769161499949
 31
0.0
  0
LINE
  5
79BC
  8
2-0
  6
CONTINUOUS
 62
     6
 10
25901.390545999991
 20
20270.501637000008
 30
0.0
 11
26441.854544999998
 21
20857.824799999999
 31
0.0
  0
LINE
  5
79BD
  8
2-0
  6
CONTINUOUS
 62
     6
 10
23797.85111400003
 20
14642.321895999979
 30
0.0
 11
23521.260901000041
 21
15097.66659599999
 31
0.0
  0
LINE
  5
79BE
  8
2-0
  6
CONTINUOUS
 62
     6
 10
23521.260901000041
 20
15097.66659599999
 30
0.0
 11
22490.911582000052
 21
15097.66659599999
 31
0.0
  0
LINE
  5
79BF
  8
2-0
  6
CONTINUOUS
 62
     3
 10
25749.349662000011
 20
16731.223032499991
 30
0.0
 11
25749.349662000011
 21
16087.659259
 31
0.0
  0
LINE
  5
79C0
  8
2-0
  6
CONTINUOUS
 62
     6
 10
23737.572794000029
 20
14792.91773099998
 30
0.0
 11
23797.85111400003
 21
14642.321895999979
 31
0.0
  0
LINE
  5
79C1
  8
2-0
  6
CONTINUOUS
 62
     6
 10
23797.85111400003
 20
14642.321895999979
 30
0.0
 11
23691.992399000072
 21
14765.230204999991
 31
0.0
  0
LINE
  5
79C2
  8
2-0
  6
CONTINUOUS
 62
     6
 10
23737.572794000029
 20
14792.91773099998
 30
0.0
 11
23691.992399000072
 21
14765.230204999991
 31
0.0
  0
LINE
  5
79C3
  8
2-0
  6
CONTINUOUS
 62
     6
 10
23691.992399000072
 20
14765.230204999991
 30
0.0
 11
23797.85111400003
 21
14642.321895999979
 31
0.0
  0
LINE
  5
79C4
  8
2-0
  6
CONTINUOUS
 62
     6
 10
23797.85111400003
 20
14642.321895999979
 30
0.0
 11
23737.572794000029
 21
14792.91773099998
 31
0.0
  0
LINE
  5
79C5
  8
2-0
  6
CONTINUOUS
 62
     6
 10
23737.572794000029
 20
14792.91773099998
 30
0.0
 11
23797.85111400003
 21
14642.321895999979
 31
0.0
  0
LINE
  5
79C6
  8
2-0
  6
CONTINUOUS
 62
     6
 10
23691.992399000072
 20
14765.230204999991
 30
0.0
 11
23797.85111400003
 21
14642.321895999979
 31
0.0
  0
LINE
  5
79C7
  8
2-0
  6
CONTINUOUS
 62
     6
 10
23691.992399000072
 20
14765.230204999991
 30
0.0
 11
23737.572794000029
 21
14792.91773099998
 31
0.0
  0
LINE
  5
79C8
  8
2-0
  6
CONTINUOUS
 62
     6
 10
25566.76480700001
 20
19594.183013499991
 30
0.0
 11
25719.352038000001
 21
19649.22946549999
 31
0.0
  0
LINE
  5
79C9
  8
2-0
  6
CONTINUOUS
 62
     6
 10
25719.352038000001
 20
19649.22946549999
 30
0.0
 11
25592.870698000021
 21
19547.670265499972
 31
0.0
  0
LINE
  5
79CA
  8
2-0
  6
CONTINUOUS
 62
     6
 10
25566.76480700001
 20
19594.183013499991
 30
0.0
 11
25592.870698000021
 21
19547.670265499972
 31
0.0
  0
LINE
  5
79CB
  8
2-0
  6
CONTINUOUS
 62
     6
 10
25592.870698000021
 20
19547.670265499972
 30
0.0
 11
25719.352038000001
 21
19649.22946549999
 31
0.0
  0
LINE
  5
79CC
  8
2-0
  6
CONTINUOUS
 62
     6
 10
25719.352038000001
 20
19649.22946549999
 30
0.0
 11
25566.76480700001
 21
19594.183013499991
 31
0.0
  0
LINE
  5
79CD
  8
2-0
  6
CONTINUOUS
 62
     6
 10
25566.76480700001
 20
19594.183013499991
 30
0.0
 11
25719.352038000001
 21
19649.22946549999
 31
0.0
  0
LINE
  5
79CE
  8
2-0
  6
CONTINUOUS
 62
     6
 10
25592.870698000021
 20
19547.670265499972
 30
0.0
 11
25719.352038000001
 21
19649.22946549999
 31
0.0
  0
LINE
  5
79CF
  8
2-0
  6
CONTINUOUS
 62
     6
 10
25592.870698000021
 20
19547.670265499972
 30
0.0
 11
25566.76480700001
 21
19594.183013499991
 31
0.0
  0
LINE
  5
79D0
  8
2-0
  6
CONTINUOUS
 62
     6
 10
25921.007575000011
 20
20252.44051
 30
0.0
 11
25793.045555000012
 21
20152.75789200002
 31
0.0
  0
LINE
  5
79D1
  8
2-0
  6
CONTINUOUS
 62
     6
 10
25793.045555000012
 20
20152.75789200002
 30
0.0
 11
25881.75966
 21
20288.55484700001
 31
0.0
  0
LINE
  5
79D2
  8
2-0
  6
CONTINUOUS
 62
     6
 10
25921.007575000011
 20
20252.44051
 30
0.0
 11
25881.75966
 21
20288.55484700001
 31
0.0
  0
LINE
  5
79D3
  8
2-0
  6
CONTINUOUS
 62
     6
 10
25881.75966
 20
20288.55484700001
 30
0.0
 11
25793.045555000012
 21
20152.75789200002
 31
0.0
  0
LINE
  5
79D4
  8
2-0
  6
CONTINUOUS
 62
     6
 10
25793.045555000012
 20
20152.75789200002
 30
0.0
 11
25921.007575000011
 21
20252.44051
 31
0.0
  0
LINE
  5
79D5
  8
2-0
  6
CONTINUOUS
 62
     6
 10
25921.007575000011
 20
20252.44051
 30
0.0
 11
25793.045555000012
 21
20152.75789200002
 31
0.0
  0
LINE
  5
79D6
  8
2-0
  6
CONTINUOUS
 62
     6
 10
25881.75966
 20
20288.55484700001
 30
0.0
 11
25793.045555000012
 21
20152.75789200002
 31
0.0
  0
LINE
  5
79D7
  8
2-0
  6
CONTINUOUS
 62
     6
 10
25881.75966
 20
20288.55484700001
 30
0.0
 11
25921.007575000011
 21
20252.44051
 31
0.0
  0
LINE
  5
79D8
  8
2-0
  6
CONTINUOUS
 62
     6
 10
22298.415699000008
 20
19880.04951500001
 30
0.0
 11
22166.482766000008
 21
19410.703679999991
 31
0.0
  0
LINE
  5
79D9
  8
2-0
  6
CONTINUOUS
 62
     6
 10
22166.482766000008
 20
19410.703679999991
 30
0.0
 11
21141.444495000022
 21
19410.703679999991
 31
0.0
  0
LINE
  5
79DA
  8
2-0
  6
CONTINUOUS
 62
     6
 10
22341.709750000002
 20
20034.077835000011
 30
0.0
 11
22324.088076000018
 21
19872.832190000001
 31
0.0
  0
LINE
  5
79DB
  8
2-0
  6
CONTINUOUS
 62
     6
 10
22272.743323000021
 20
19887.270799000009
 30
0.0
 11
22324.088076000018
 21
19872.832190000001
 31
0.0
  0
LINE
  5
79DC
  8
2-0
  6
CONTINUOUS
 62
     6
 10
22324.088076000018
 20
19872.832190000001
 30
0.0
 11
22341.709750000002
 21
20034.077835000011
 31
0.0
  0
LINE
  5
79DD
  8
2-0
  6
CONTINUOUS
 62
     6
 10
22341.709750000002
 20
20034.077835000011
 30
0.0
 11
22272.743323000021
 21
19887.270799000009
 31
0.0
  0
LINE
  5
79DE
  8
2-0
  6
CONTINUOUS
 62
     6
 10
22272.743323000021
 20
19887.270799000009
 30
0.0
 11
22341.709750000002
 21
20034.077835000011
 31
0.0
  0
LINE
  5
79DF
  8
2-0
  6
CONTINUOUS
 62
     6
 10
22324.088076000018
 20
19872.832190000001
 30
0.0
 11
22341.709750000002
 21
20034.077835000011
 31
0.0
  0
LINE
  5
79E0
  8
2-0
  6
CONTINUOUS
 62
     6
 10
22324.088076000018
 20
19872.832190000001
 30
0.0
 11
22272.743323000021
 21
19887.270799000009
 31
0.0
  0
LINE
  5
79E1
  8
2-0
  6
CONTINUOUS
 62
     6
 10
23798.935890000012
 20
20009.070576999999
 30
0.0
 11
23650.066195000021
 21
19479.448401000001
 31
0.0
  0
LINE
  5
79E2
  8
2-0
  6
CONTINUOUS
 62
     6
 10
23650.066195000021
 20
19479.448401000001
 30
0.0
 11
22625.021986000029
 21
19479.448401000001
 31
0.0
  0
LINE
  5
79E3
  8
2-0
  6
CONTINUOUS
 62
     6
 10
23781.312236000042
 20
19847.82493200001
 30
0.0
 11
23729.961544999998
 21
19862.25958200001
 31
0.0
  0
LINE
  5
79E4
  8
2-0
  6
CONTINUOUS
 62
     6
 10
23729.961544999998
 20
19862.25958200001
 30
0.0
 11
23781.312236000042
 21
19847.82493200001
 31
0.0
  0
LINE
  5
79E5
  8
2-0
  6
CONTINUOUS
 62
     6
 10
23781.312236000042
 20
19847.82493200001
 30
0.0
 11
23798.935890000012
 21
20009.070576999999
 31
0.0
  0
LINE
  5
79E6
  8
2-0
  6
CONTINUOUS
 62
     6
 10
23798.935890000012
 20
20009.070576999999
 30
0.0
 11
23729.961544999998
 21
19862.25958200001
 31
0.0
  0
LINE
  5
79E7
  8
2-0
  6
CONTINUOUS
 62
     6
 10
23729.961544999998
 20
19862.25958200001
 30
0.0
 11
23798.935890000012
 21
20009.070576999999
 31
0.0
  0
LINE
  5
79E8
  8
2-0
  6
CONTINUOUS
 62
     6
 10
23781.312236000042
 20
19847.82493200001
 30
0.0
 11
23798.935890000012
 21
20009.070576999999
 31
0.0
  0
LINE
  5
79E9
  8
2-0
  6
CONTINUOUS
 62
     6
 10
23729.961544999998
 20
19862.25958200001
 30
0.0
 11
23798.935890000012
 21
20009.070576999999
 31
0.0
  0
LINE
  5
79EA
  8
2-0
  6
CONTINUOUS
 62
     6
 10
23798.935890000012
 20
20009.070576999999
 30
0.0
 11
23781.312236000042
 21
19847.82493200001
 31
0.0
  0
LINE
  5
79EB
  8
2-0
  6
CONTINUOUS
 62
     4
 10
23840.351378000021
 20
20207.824140000012
 30
0.0
 11
23840.351378000021
 21
20937.821104999992
 31
0.0
  0
LINE
  5
79EC
  8
2-0
  6
CONTINUOUS
 62
     6
 10
25472.71194100002
 20
14449.053578999979
 30
0.0
 11
25604.458800000011
 21
14543.680505999981
 31
0.0
  0
LINE
  5
79ED
  8
2-0
  6
CONTINUOUS
 62
     6
 10
25604.458800000011
 20
14543.680505999981
 30
0.0
 11
25510.528664000001
 21
14411.441735999981
 31
0.0
  0
LINE
  5
79EE
  8
2-0
  6
CONTINUOUS
 62
     6
 10
25472.71194100002
 20
14449.053578999979
 30
0.0
 11
25510.528664000001
 21
14411.441735999981
 31
0.0
  0
LINE
  5
79EF
  8
2-0
  6
CONTINUOUS
 62
     6
 10
25510.528664000001
 20
14411.441735999981
 30
0.0
 11
25604.458800000011
 21
14543.680505999981
 31
0.0
  0
LINE
  5
79F0
  8
2-0
  6
CONTINUOUS
 62
     6
 10
25604.458800000011
 20
14543.680505999981
 30
0.0
 11
25472.71194100002
 21
14449.053578999979
 31
0.0
  0
LINE
  5
79F1
  8
2-0
  6
CONTINUOUS
 62
     6
 10
25472.71194100002
 20
14449.053578999979
 30
0.0
 11
25604.458800000011
 21
14543.680505999981
 31
0.0
  0
LINE
  5
79F2
  8
2-0
  6
CONTINUOUS
 62
     6
 10
25510.528664000001
 20
14411.441735999981
 30
0.0
 11
25604.458800000011
 21
14543.680505999981
 31
0.0
  0
LINE
  5
79F3
  8
2-0
  6
CONTINUOUS
 62
     6
 10
25510.528664000001
 20
14411.441735999981
 30
0.0
 11
25472.71194100002
 21
14449.053578999979
 31
0.0
  0
LINE
  5
79F4
  8
2-0
  6
CONTINUOUS
 62
     6
 10
25535.747730000021
 20
14775.958205999979
 30
0.0
 11
25668.347762000001
 21
14682.529877999979
 31
0.0
  0
LINE
  5
79F5
  8
2-0
  6
CONTINUOUS
 62
     6
 10
25668.347762000001
 20
14682.529877999979
 30
0.0
 11
25512.61507600002
 21
14727.90539199999
 31
0.0
  0
LINE
  5
79F6
  8
2-0
  6
CONTINUOUS
 62
     6
 10
25535.747730000021
 20
14775.958205999979
 30
0.0
 11
25512.61507600002
 21
14727.90539199999
 31
0.0
  0
LINE
  5
79F7
  8
2-0
  6
CONTINUOUS
 62
     6
 10
25512.61507600002
 20
14727.90539199999
 30
0.0
 11
25668.347762000001
 21
14682.529877999979
 31
0.0
  0
LINE
  5
79F8
  8
2-0
  6
CONTINUOUS
 62
     6
 10
25668.347762000001
 20
14682.529877999979
 30
0.0
 11
25535.747730000021
 21
14775.958205999979
 31
0.0
  0
LINE
  5
79F9
  8
2-0
  6
CONTINUOUS
 62
     6
 10
25535.747730000021
 20
14775.958205999979
 30
0.0
 11
25668.347762000001
 21
14682.529877999979
 31
0.0
  0
LINE
  5
79FA
  8
2-0
  6
CONTINUOUS
 62
     6
 10
25512.61507600002
 20
14727.90539199999
 30
0.0
 11
25668.347762000001
 21
14682.529877999979
 31
0.0
  0
LINE
  5
79FB
  8
2-0
  6
CONTINUOUS
 62
     6
 10
25512.61507600002
 20
14727.90539199999
 30
0.0
 11
25535.747730000021
 21
14775.958205999979
 31
0.0
  0
LINE
  5
79FC
  8
2-0
  6
CONTINUOUS
 62
     6
 10
25595.511376000009
 20
17155.779138999991
 30
0.0
 11
25749.349662000011
 21
17207.212970000011
 31
0.0
  0
LINE
  5
79FD
  8
2-0
  6
CONTINUOUS
 62
     6
 10
25749.349662000011
 20
17207.212970000011
 30
0.0
 11
25620.514674999991
 21
17108.672535000002
 31
0.0
  0
LINE
  5
79FE
  8
2-0
  6
CONTINUOUS
 62
     6
 10
25595.511376000009
 20
17155.779138999991
 30
0.0
 11
25620.514674999991
 21
17108.672535000002
 31
0.0
  0
LINE
  5
79FF
  8
2-0
  6
CONTINUOUS
 62
     6
 10
25620.514674999991
 20
17108.672535000002
 30
0.0
 11
25749.349662000011
 21
17207.212970000011
 31
0.0
  0
LINE
  5
7A00
  8
2-0
  6
CONTINUOUS
 62
     6
 10
25749.349662000011
 20
17207.212970000011
 30
0.0
 11
25595.511376000009
 21
17155.779138999991
 31
0.0
  0
LINE
  5
7A01
  8
2-0
  6
CONTINUOUS
 62
     6
 10
25595.511376000009
 20
17155.779138999991
 30
0.0
 11
25749.349662000011
 21
17207.212970000011
 31
0.0
  0
LINE
  5
7A02
  8
2-0
  6
CONTINUOUS
 62
     6
 10
25620.514674999991
 20
17108.672535000002
 30
0.0
 11
25749.349662000011
 21
17207.212970000011
 31
0.0
  0
LINE
  5
7A03
  8
2-0
  6
CONTINUOUS
 62
     6
 10
25620.514674999991
 20
17108.672535000002
 30
0.0
 11
25595.511376000009
 21
17155.779138999991
 31
0.0
  0
LINE
  5
7A04
  8
2-0
  6
CONTINUOUS
 62
     6
 10
25461.575169000022
 20
17647.097631000011
 30
0.0
 11
25604.458800000011
 21
17570.322002000001
 31
0.0
  0
LINE
  5
7A05
  8
2-0
  6
CONTINUOUS
 62
     6
 10
25604.458800000011
 20
17570.322002000001
 30
0.0
 11
25444.39690700002
 21
17596.604071000009
 31
0.0
  0
LINE
  5
7A06
  8
2-0
  6
CONTINUOUS
 62
     6
 10
25461.575169000022
 20
17647.097631000011
 30
0.0
 11
25444.39690700002
 21
17596.604071000009
 31
0.0
  0
LINE
  5
7A07
  8
2-0
  6
CONTINUOUS
 62
     6
 10
25444.39690700002
 20
17596.604071000009
 30
0.0
 11
25604.458800000011
 21
17570.322002000001
 31
0.0
  0
LINE
  5
7A08
  8
2-0
  6
CONTINUOUS
 62
     6
 10
25604.458800000011
 20
17570.322002000001
 30
0.0
 11
25461.575169000022
 21
17647.097631000011
 31
0.0
  0
LINE
  5
7A09
  8
2-0
  6
CONTINUOUS
 62
     6
 10
25461.575169000022
 20
17647.097631000011
 30
0.0
 11
25604.458800000011
 21
17570.322002000001
 31
0.0
  0
LINE
  5
7A0A
  8
2-0
  6
CONTINUOUS
 62
     6
 10
25444.39690700002
 20
17596.604071000009
 30
0.0
 11
25604.458800000011
 21
17570.322002000001
 31
0.0
  0
LINE
  5
7A0B
  8
2-0
  6
CONTINUOUS
 62
     6
 10
25444.39690700002
 20
17596.604071000009
 30
0.0
 11
25461.575169000022
 21
17647.097631000011
 31
0.0
  0
LINE
  5
7A0C
  8
2-0
  6
CONTINUOUS
 62
     3
 10
23100.851959000011
 20
20127.82189700002
 30
0.0
 11
23063.850797000021
 21
20127.82189700002
 31
0.0
  0
LINE
  5
7A0D
  8
2-0
  6
CONTINUOUS
 62
     3
 10
23100.851959000011
 20
20097.818333999989
 30
0.0
 11
23100.851959000011
 21
20127.82189700002
 31
0.0
  0
LINE
  5
7A0E
  8
2-0
  6
CONTINUOUS
 62
     3
 10
23094.85203799999
 20
20097.818333999989
 30
0.0
 11
23100.851959000011
 21
20097.818333999989
 31
0.0
  0
LINE
  5
7A0F
  8
2-0
  6
CONTINUOUS
 62
     3
 10
23110.949483000011
 20
20097.818333999989
 30
0.0
 11
23110.949483000011
 21
20127.82189700002
 31
0.0
  0
LINE
  5
7A10
  8
2-0
  6
CONTINUOUS
 62
     3
 10
23092.945762000021
 20
20097.818333999989
 30
0.0
 11
23110.949483000011
 21
20097.818333999989
 31
0.0
  0
LINE
  5
7A11
  8
2-0
  6
CONTINUOUS
 62
     3
 10
23092.945762000021
 20
20122.82757100002
 30
0.0
 11
23092.945762000021
 21
20097.818333999989
 31
0.0
  0
LINE
  5
7A12
  8
2-0
  6
CONTINUOUS
 62
     3
 10
23097.94602600002
 20
20122.82757100002
 30
0.0
 11
23092.945762000021
 21
20122.82757100002
 31
0.0
  0
LINE
  5
7A13
  8
2-0
  6
CONTINUOUS
 62
     3
 10
23097.94602600002
 20
20115.822055000001
 30
0.0
 11
23097.94602600002
 21
20122.82757100002
 31
0.0
  0
LINE
  5
7A14
  8
2-0
  6
CONTINUOUS
 62
     3
 10
23066.756731000001
 20
20115.822055000001
 30
0.0
 11
23066.756731000001
 21
20122.82757100002
 31
0.0
  0
LINE
  5
7A15
  8
2-0
  6
CONTINUOUS
 62
     3
 10
23066.756731000001
 20
20122.82757100002
 30
0.0
 11
23071.756995000022
 21
20122.82757100002
 31
0.0
  0
LINE
  5
7A16
  8
2-0
  6
CONTINUOUS
 62
     3
 10
23071.756995000022
 20
20122.82757100002
 30
0.0
 11
23071.756995000022
 21
20097.818333999989
 31
0.0
  0
LINE
  5
7A17
  8
2-0
  6
CONTINUOUS
 62
     3
 10
23071.756995000022
 20
20097.818333999989
 30
0.0
 11
23053.757232000029
 21
20097.818333999989
 31
0.0
  0
LINE
  5
7A18
  8
2-0
  6
CONTINUOUS
 62
     3
 10
23053.757232000029
 20
20097.818333999989
 30
0.0
 11
23053.757232000029
 21
20127.82189700002
 31
0.0
  0
LINE
  5
7A19
  8
2-0
  6
CONTINUOUS
 62
     3
 10
23069.85071800002
 20
20097.818333999989
 30
0.0
 11
23063.850797000021
 21
20097.818333999989
 31
0.0
  0
LINE
  5
7A1A
  8
2-0
  6
CONTINUOUS
 62
     3
 10
23063.850797000021
 20
20097.818333999989
 30
0.0
 11
23063.850797000021
 21
20127.82189700002
 31
0.0
  0
LINE
  5
7A1B
  8
2-0
  6
CONTINUOUS
 62
     3
 10
20559.352698000021
 20
20018.821685999988
 30
0.0
 11
20559.352698000021
 21
20012.82572400002
 31
0.0
  0
LINE
  5
7A1C
  8
2-0
  6
CONTINUOUS
 62
     3
 10
20559.352698000021
 20
20012.82572400002
 30
0.0
 11
20529.355072999999
 21
20012.82572400002
 31
0.0
  0
LINE
  5
7A1D
  8
2-0
  6
CONTINUOUS
 62
     3
 10
20529.355072999999
 20
20012.82572400002
 30
0.0
 11
20529.355072999999
 21
20127.82189700002
 31
0.0
  0
LINE
  5
7A1E
  8
2-0
  6
CONTINUOUS
 62
     3
 10
20529.355072999999
 20
20042.825327999999
 30
0.0
 11
20610.353014000011
 21
20042.825327999999
 31
0.0
  0
LINE
  5
7A1F
  8
2-0
  6
CONTINUOUS
 62
     3
 10
20559.352698000021
 20
20002.528267999991
 30
0.0
 11
20529.355072999999
 21
20002.528267999991
 31
0.0
  0
LINE
  5
7A20
  8
2-0
  6
CONTINUOUS
 62
     3
 10
20559.352698000021
 20
20020.530010000009
 30
0.0
 11
20559.352698000021
 21
20002.528267999991
 31
0.0
  0
LINE
  5
7A21
  8
2-0
  6
CONTINUOUS
 62
     3
 10
20534.359295999999
 20
20020.530010000009
 30
0.0
 11
20559.352698000021
 21
20020.530010000009
 31
0.0
  0
LINE
  5
7A22
  8
2-0
  6
CONTINUOUS
 62
     3
 10
20534.359295999999
 20
20015.521828000001
 30
0.0
 11
20534.359295999999
 21
20020.530010000009
 31
0.0
  0
LINE
  5
7A23
  8
2-0
  6
CONTINUOUS
 62
     3
 10
20541.356894
 20
20015.521828000001
 30
0.0
 11
20534.359295999999
 21
20015.521828000001
 31
0.0
  0
LINE
  5
7A24
  8
2-0
  6
CONTINUOUS
 62
     3
 10
20641.651183000002
 20
20115.822055000001
 30
0.0
 11
20641.651183000002
 21
20122.82757100002
 31
0.0
  0
LINE
  5
7A25
  8
2-0
  6
CONTINUOUS
 62
     3
 10
20641.651183000002
 20
20122.82757100002
 30
0.0
 11
20636.648939000021
 21
20122.82757100002
 31
0.0
  0
LINE
  5
7A26
  8
2-0
  6
CONTINUOUS
 62
     3
 10
20636.648939000021
 20
20122.82757100002
 30
0.0
 11
20636.648939000021
 21
20097.818333999989
 31
0.0
  0
LINE
  5
7A27
  8
2-0
  6
CONTINUOUS
 62
     3
 10
20636.648939000021
 20
20097.818333999989
 30
0.0
 11
20654.656620000009
 21
20097.818333999989
 31
0.0
  0
LINE
  5
7A28
  8
2-0
  6
CONTINUOUS
 62
     3
 10
20654.656620000009
 20
20097.818333999989
 30
0.0
 11
20654.656620000009
 21
20127.82189700002
 31
0.0
  0
LINE
  5
7A29
  8
2-0
  6
CONTINUOUS
 62
     3
 10
20644.357184000019
 20
20127.82189700002
 30
0.0
 11
20529.355072999999
 21
20127.82189700002
 31
0.0
  0
LINE
  5
7A2A
  8
2-0
  6
CONTINUOUS
 62
     3
 10
20644.357184000019
 20
20097.818333999989
 30
0.0
 11
20644.357184000019
 21
20127.82189700002
 31
0.0
  0
LINE
  5
7A2B
  8
2-0
  6
CONTINUOUS
 62
     3
 10
20638.353305000001
 20
20097.818333999989
 30
0.0
 11
20644.357184000019
 21
20097.818333999989
 31
0.0
  0
LINE
  5
7A2C
  8
2-0
  6
CONTINUOUS
 62
     3
 10
21695.941076500021
 20
20115.822055000001
 30
0.0
 11
21695.941076500021
 21
20122.82757100002
 31
0.0
  0
LINE
  5
7A2D
  8
2-0
  6
CONTINUOUS
 62
     3
 10
21695.941076500021
 20
20122.82757100002
 30
0.0
 11
21690.940812500012
 21
20122.82757100002
 31
0.0
  0
LINE
  5
7A2E
  8
2-0
  6
CONTINUOUS
 62
     3
 10
21690.940812500012
 20
20122.82757100002
 30
0.0
 11
21690.940812500012
 21
20097.818333999989
 31
0.0
  0
LINE
  5
7A2F
  8
2-0
  6
CONTINUOUS
 62
     3
 10
21690.940812500012
 20
20097.818333999989
 30
0.0
 11
21708.946513500021
 21
20097.818333999989
 31
0.0
  0
LINE
  5
7A30
  8
2-0
  6
CONTINUOUS
 62
     3
 10
21708.946513500021
 20
20097.818333999989
 30
0.0
 11
21708.946513500021
 21
20127.82189700002
 31
0.0
  0
LINE
  5
7A31
  8
2-0
  6
CONTINUOUS
 62
     3
 10
21692.8490685
 20
20097.818333999989
 30
0.0
 11
21698.850968500021
 21
20097.818333999989
 31
0.0
  0
LINE
  5
7A32
  8
2-0
  6
CONTINUOUS
 62
     3
 10
21698.850968500021
 20
20097.818333999989
 30
0.0
 11
21698.850968500021
 21
20127.82189700002
 31
0.0
  0
LINE
  5
7A33
  8
2-0
  6
CONTINUOUS
 62
     3
 10
21661.8517875
 20
20127.82189700002
 30
0.0
 11
21698.850968500021
 21
20127.82189700002
 31
0.0
  0
LINE
  5
7A34
  8
2-0
  6
CONTINUOUS
 62
     3
 10
21661.8517875
 20
20097.818333999989
 30
0.0
 11
21661.8517875
 21
20127.82189700002
 31
0.0
  0
LINE
  5
7A35
  8
2-0
  6
CONTINUOUS
 62
     3
 10
21667.8457695
 20
20097.818333999989
 30
0.0
 11
21661.8517875
 21
20097.818333999989
 31
0.0
  0
LINE
  5
7A36
  8
2-0
  6
CONTINUOUS
 62
     3
 10
21651.756242500011
 20
20097.818333999989
 30
0.0
 11
21651.756242500011
 21
20127.82189700002
 31
0.0
  0
LINE
  5
7A37
  8
2-0
  6
CONTINUOUS
 62
     3
 10
21669.752045500009
 20
20097.818333999989
 30
0.0
 11
21651.756242500011
 21
20097.818333999989
 31
0.0
  0
LINE
  5
7A38
  8
2-0
  6
CONTINUOUS
 62
     3
 10
21669.752045500009
 20
20122.82757100002
 30
0.0
 11
21669.752045500009
 21
20097.818333999989
 31
0.0
  0
LINE
  5
7A39
  8
2-0
  6
CONTINUOUS
 62
     3
 10
21664.751781500021
 20
20122.82757100002
 30
0.0
 11
21669.752045500009
 21
20122.82757100002
 31
0.0
  0
LINE
  5
7A3A
  8
2-0
  6
CONTINUOUS
 62
     3
 10
21664.751781500021
 20
20115.822055000001
 30
0.0
 11
21664.751781500021
 21
20122.82757100002
 31
0.0
  0
LINE
  5
7A3B
  8
2-0
  6
CONTINUOUS
 62
     3
 10
22365.750792499999
 20
20115.822055000001
 30
0.0
 11
22365.750792499999
 21
20122.82757100002
 31
0.0
  0
LINE
  5
7A3C
  8
2-0
  6
CONTINUOUS
 62
     3
 10
22365.750792499999
 20
20122.82757100002
 30
0.0
 11
22370.751055500012
 21
20122.82757100002
 31
0.0
  0
LINE
  5
7A3D
  8
2-0
  6
CONTINUOUS
 62
     3
 10
22370.751055500012
 20
20122.82757100002
 30
0.0
 11
22370.751055500012
 21
20097.818333999989
 31
0.0
  0
LINE
  5
7A3E
  8
2-0
  6
CONTINUOUS
 62
     3
 10
22370.751055500012
 20
20097.818333999989
 30
0.0
 11
22352.757232500011
 21
20097.818333999989
 31
0.0
  0
LINE
  5
7A3F
  8
2-0
  6
CONTINUOUS
 62
     3
 10
22352.757232500011
 20
20097.818333999989
 30
0.0
 11
22352.757232500011
 21
20127.82189700002
 31
0.0
  0
LINE
  5
7A40
  8
2-0
  6
CONTINUOUS
 62
     3
 10
22368.848738500012
 20
20097.818333999989
 30
0.0
 11
22362.85079750001
 21
20097.818333999989
 31
0.0
  0
LINE
  5
7A41
  8
2-0
  6
CONTINUOUS
 62
     3
 10
22362.85079750001
 20
20097.818333999989
 30
0.0
 11
22362.85079750001
 21
20127.82189700002
 31
0.0
  0
LINE
  5
7A42
  8
2-0
  6
CONTINUOUS
 62
     3
 10
22399.851958500021
 20
20127.82189700002
 30
0.0
 11
22362.85079750001
 21
20127.82189700002
 31
0.0
  0
LINE
  5
7A43
  8
2-0
  6
CONTINUOUS
 62
     3
 10
22399.851958500021
 20
20097.818333999989
 30
0.0
 11
22399.851958500021
 21
20127.82189700002
 31
0.0
  0
LINE
  5
7A44
  8
2-0
  6
CONTINUOUS
 62
     3
 10
22393.846099500021
 20
20097.818333999989
 30
0.0
 11
22399.851958500021
 21
20097.818333999989
 31
0.0
  0
LINE
  5
7A45
  8
2-0
  6
CONTINUOUS
 62
     3
 10
22409.94552350002
 20
20097.818333999989
 30
0.0
 11
22409.94552350002
 21
20127.82189700002
 31
0.0
  0
LINE
  5
7A46
  8
2-0
  6
CONTINUOUS
 62
     3
 10
22391.949720500001
 20
20097.818333999989
 30
0.0
 11
22409.94552350002
 21
20097.818333999989
 31
0.0
  0
LINE
  5
7A47
  8
2-0
  6
CONTINUOUS
 62
     3
 10
22391.949720500001
 20
20122.82757100002
 30
0.0
 11
22391.949720500001
 21
20097.818333999989
 31
0.0
  0
LINE
  5
7A48
  8
2-0
  6
CONTINUOUS
 62
     3
 10
22396.940086500021
 20
20122.82757100002
 30
0.0
 11
22391.949720500001
 21
20122.82757100002
 31
0.0
  0
LINE
  5
7A49
  8
2-0
  6
CONTINUOUS
 62
     3
 10
22396.940086500021
 20
20115.822055000001
 30
0.0
 11
22396.940086500021
 21
20122.82757100002
 31
0.0
  0
LINE
  5
7A4A
  8
2-0
  6
CONTINUOUS
 62
     3
 10
21708.946513500021
 20
20127.82189700002
 30
0.0
 11
22352.757232500011
 21
20127.82189700002
 31
0.0
  0
LINE
  5
7A4B
  8
2-0
  6
CONTINUOUS
 62
     3
 10
21008.150404000022
 20
20127.82189700002
 30
0.0
 11
21651.756242500011
 21
20127.82189700002
 31
0.0
  0
LINE
  5
7A4C
  8
2-0
  6
CONTINUOUS
 62
     3
 10
23053.757232000029
 20
20127.82189700002
 30
0.0
 11
22409.94552350002
 21
20127.82189700002
 31
0.0
  0
LINE
  5
7A4D
  8
2-0
  6
CONTINUOUS
 62
     3
 10
20559.352698000021
 20
20018.821685999988
 30
0.0
 11
20559.352698000021
 21
20012.82572400002
 31
0.0
  0
LINE
  5
7A4E
  8
2-0
  6
CONTINUOUS
 62
     3
 10
20559.352698000021
 20
20012.82572400002
 30
0.0
 11
20529.355072999999
 21
20012.82572400002
 31
0.0
  0
LINE
  5
7A4F
  8
2-0
  6
CONTINUOUS
 62
     3
 10
20529.355072999999
 20
20012.82572400002
 30
0.0
 11
20529.355072999999
 21
20127.82189700002
 31
0.0
  0
LINE
  5
7A50
  8
2-0
  6
CONTINUOUS
 62
     3
 10
20529.355072999999
 20
20042.825327999999
 30
0.0
 11
20610.353014000011
 21
20042.825327999999
 31
0.0
  0
LINE
  5
7A51
  8
2-0
  6
CONTINUOUS
 62
     3
 10
20559.352698000021
 20
20002.528267999991
 30
0.0
 11
20529.355072999999
 21
20002.528267999991
 31
0.0
  0
LINE
  5
7A52
  8
2-0
  6
CONTINUOUS
 62
     3
 10
20559.352698000021
 20
20020.530010000009
 30
0.0
 11
20559.352698000021
 21
20002.528267999991
 31
0.0
  0
LINE
  5
7A53
  8
2-0
  6
CONTINUOUS
 62
     3
 10
20534.359295999999
 20
20020.530010000009
 30
0.0
 11
20559.352698000021
 21
20020.530010000009
 31
0.0
  0
LINE
  5
7A54
  8
2-0
  6
CONTINUOUS
 62
     3
 10
20534.359295999999
 20
20015.521828000001
 30
0.0
 11
20534.359295999999
 21
20020.530010000009
 31
0.0
  0
LINE
  5
7A55
  8
2-0
  6
CONTINUOUS
 62
     3
 10
20541.356894
 20
20015.521828000001
 30
0.0
 11
20534.359295999999
 21
20015.521828000001
 31
0.0
  0
LINE
  5
7A56
  8
2-0
  6
CONTINUOUS
 62
     3
 10
20541.356894
 20
19662.22500549996
 30
0.0
 11
20534.359295999999
 21
19662.22500549996
 31
0.0
  0
LINE
  5
7A57
  8
2-0
  6
CONTINUOUS
 62
     3
 10
20534.359295999999
 20
19662.22500549996
 30
0.0
 11
20534.359295999999
 21
19667.225269499992
 31
0.0
  0
LINE
  5
7A58
  8
2-0
  6
CONTINUOUS
 62
     3
 10
20534.359295999999
 20
19667.225269499992
 30
0.0
 11
20559.352698000021
 21
19667.225269499992
 31
0.0
  0
LINE
  5
7A59
  8
2-0
  6
CONTINUOUS
 62
     3
 10
20559.352698000021
 20
19667.225269499992
 30
0.0
 11
20559.352698000021
 21
19649.22946549996
 31
0.0
  0
LINE
  5
7A5A
  8
2-0
  6
CONTINUOUS
 62
     3
 10
20559.352698000021
 20
19649.22946549996
 30
0.0
 11
20529.355072999999
 21
19649.22946549996
 31
0.0
  0
LINE
  5
7A5B
  8
2-0
  6
CONTINUOUS
 62
     3
 10
20559.352698000021
 20
19665.320972499951
 30
0.0
 11
20559.352698000021
 21
19659.323031499989
 31
0.0
  0
LINE
  5
7A5C
  8
2-0
  6
CONTINUOUS
 62
     3
 10
20559.352698000021
 20
19659.323031499989
 30
0.0
 11
20529.355072999999
 21
19659.323031499989
 31
0.0
  0
LINE
  5
7A5D
  8
2-0
  6
CONTINUOUS
 62
     3
 10
20529.355072999999
 20
19659.323031499989
 30
0.0
 11
20529.355072999999
 21
19696.324192499978
 31
0.0
  0
LINE
  5
7A5E
  8
2-0
  6
CONTINUOUS
 62
     3
 10
20559.352698000021
 20
19696.324192499978
 30
0.0
 11
20529.355072999999
 21
19696.324192499978
 31
0.0
  0
LINE
  5
7A5F
  8
2-0
  6
CONTINUOUS
 62
     3
 10
20559.352698000021
 20
19690.320312499982
 30
0.0
 11
20559.352698000021
 21
19696.324192499978
 31
0.0
  0
LINE
  5
7A60
  8
2-0
  6
CONTINUOUS
 62
     3
 10
20559.352698000021
 20
19706.41973749996
 30
0.0
 11
20529.355072999999
 21
19706.41973749996
 31
0.0
  0
LINE
  5
7A61
  8
2-0
  6
CONTINUOUS
 62
     3
 10
20559.352698000021
 20
19688.417995499982
 30
0.0
 11
20559.352698000021
 21
19706.41973749996
 31
0.0
  0
LINE
  5
7A62
  8
2-0
  6
CONTINUOUS
 62
     3
 10
20534.359295999999
 20
19688.417995499982
 30
0.0
 11
20559.352698000021
 21
19688.417995499982
 31
0.0
  0
LINE
  5
7A63
  8
2-0
  6
CONTINUOUS
 62
     3
 10
20534.359295999999
 20
19693.418259499991
 30
0.0
 11
20534.359295999999
 21
19688.417995499982
 31
0.0
  0
LINE
  5
7A64
  8
2-0
  6
CONTINUOUS
 62
     3
 10
20541.356894
 20
19693.418259499991
 30
0.0
 11
20534.359295999999
 21
19693.418259499991
 31
0.0
  0
LINE
  5
7A65
  8
2-0
  6
CONTINUOUS
 62
     3
 10
20541.356894
 20
18961.224015999989
 30
0.0
 11
20534.359295999999
 21
18961.224015999989
 31
0.0
  0
LINE
  5
7A66
  8
2-0
  6
CONTINUOUS
 62
     3
 10
20534.359295999999
 20
18961.224015999989
 30
0.0
 11
20534.359295999999
 21
18966.23021799999
 31
0.0
  0
LINE
  5
7A67
  8
2-0
  6
CONTINUOUS
 62
     3
 10
20534.359295999999
 20
18966.23021799999
 30
0.0
 11
20559.352698000021
 21
18966.23021799999
 31
0.0
  0
LINE
  5
7A68
  8
2-0
  6
CONTINUOUS
 62
     3
 10
20559.352698000021
 20
18966.23021799999
 30
0.0
 11
20559.352698000021
 21
18948.228476
 31
0.0
  0
LINE
  5
7A69
  8
2-0
  6
CONTINUOUS
 62
     3
 10
20559.352698000021
 20
18948.228476
 30
0.0
 11
20529.355072999999
 21
18948.228476
 31
0.0
  0
LINE
  5
7A6A
  8
2-0
  6
CONTINUOUS
 62
     3
 10
20559.352698000021
 20
18964.319982999961
 30
0.0
 11
20559.352698000021
 21
18958.32402099996
 31
0.0
  0
LINE
  5
7A6B
  8
2-0
  6
CONTINUOUS
 62
     3
 10
20559.352698000021
 20
18958.32402099996
 30
0.0
 11
20529.355072999999
 21
18958.32402099996
 31
0.0
  0
LINE
  5
7A6C
  8
2-0
  6
CONTINUOUS
 62
     3
 10
20529.355072999999
 20
18958.32402099996
 30
0.0
 11
20529.355072999999
 21
18995.323202999982
 31
0.0
  0
LINE
  5
7A6D
  8
2-0
  6
CONTINUOUS
 62
     3
 10
20559.352698000021
 20
18995.323202999982
 30
0.0
 11
20529.355072999999
 21
18995.323202999982
 31
0.0
  0
LINE
  5
7A6E
  8
2-0
  6
CONTINUOUS
 62
     3
 10
20559.352698000021
 20
18989.327240999992
 30
0.0
 11
20559.352698000021
 21
18995.323202999982
 31
0.0
  0
LINE
  5
7A6F
  8
2-0
  6
CONTINUOUS
 62
     3
 10
20559.352698000021
 20
19005.418748
 30
0.0
 11
20529.355072999999
 21
19005.418748
 31
0.0
  0
LINE
  5
7A70
  8
2-0
  6
CONTINUOUS
 62
     3
 10
20559.352698000021
 20
18987.417005999981
 30
0.0
 11
20559.352698000021
 21
19005.418748
 31
0.0
  0
LINE
  5
7A71
  8
2-0
  6
CONTINUOUS
 62
     3
 10
20534.359295999999
 20
18987.417005999981
 30
0.0
 11
20559.352698000021
 21
18987.417005999981
 31
0.0
  0
LINE
  5
7A72
  8
2-0
  6
CONTINUOUS
 62
     3
 10
20534.359295999999
 20
18992.42320799996
 30
0.0
 11
20534.359295999999
 21
18987.417005999981
 31
0.0
  0
LINE
  5
7A73
  8
2-0
  6
CONTINUOUS
 62
     3
 10
20541.356894
 20
18992.42320799996
 30
0.0
 11
20534.359295999999
 21
18992.42320799996
 31
0.0
  0
LINE
  5
7A74
  8
2-0
  6
CONTINUOUS
 62
     3
 10
20541.356894
 20
18291.417269999991
 30
0.0
 11
20534.359295999999
 21
18291.417269999991
 31
0.0
  0
LINE
  5
7A75
  8
2-0
  6
CONTINUOUS
 62
     3
 10
20534.359295999999
 20
18291.417269999991
 30
0.0
 11
20534.359295999999
 21
18286.42888299999
 31
0.0
  0
LINE
  5
7A76
  8
2-0
  6
CONTINUOUS
 62
     3
 10
20534.359295999999
 20
18286.42888299999
 30
0.0
 11
20559.352698000021
 21
18286.42888299999
 31
0.0
  0
LINE
  5
7A77
  8
2-0
  6
CONTINUOUS
 62
     3
 10
20559.352698000021
 20
18286.42888299999
 30
0.0
 11
20559.352698000021
 21
18304.424685999991
 31
0.0
  0
LINE
  5
7A78
  8
2-0
  6
CONTINUOUS
 62
     3
 10
20559.352698000021
 20
18304.424685999991
 30
0.0
 11
20529.355072999999
 21
18304.424685999991
 31
0.0
  0
LINE
  5
7A79
  8
2-0
  6
CONTINUOUS
 62
     3
 10
20559.352698000021
 20
18288.327240999992
 30
0.0
 11
20559.352698000021
 21
18294.323202999982
 31
0.0
  0
LINE
  5
7A7A
  8
2-0
  6
CONTINUOUS
 62
     3
 10
20559.352698000021
 20
18294.323202999982
 30
0.0
 11
20529.355072999999
 21
18294.323202999982
 31
0.0
  0
LINE
  5
7A7B
  8
2-0
  6
CONTINUOUS
 62
     3
 10
20529.355072999999
 20
18294.323202999982
 30
0.0
 11
20529.355072999999
 21
18257.324020999979
 31
0.0
  0
LINE
  5
7A7C
  8
2-0
  6
CONTINUOUS
 62
     3
 10
20559.352698000021
 20
18257.324020999979
 30
0.0
 11
20529.355072999999
 21
18257.324020999979
 31
0.0
  0
LINE
  5
7A7D
  8
2-0
  6
CONTINUOUS
 62
     3
 10
20559.352698000021
 20
18263.325921999982
 30
0.0
 11
20559.352698000021
 21
18257.324020999979
 31
0.0
  0
LINE
  5
7A7E
  8
2-0
  6
CONTINUOUS
 62
     3
 10
20559.352698000021
 20
18247.234414999992
 30
0.0
 11
20529.355072999999
 21
18247.234414999992
 31
0.0
  0
LINE
  5
7A7F
  8
2-0
  6
CONTINUOUS
 62
     3
 10
20559.352698000021
 20
18265.23021799999
 30
0.0
 11
20559.352698000021
 21
18247.234414999992
 31
0.0
  0
LINE
  5
7A80
  8
2-0
  6
CONTINUOUS
 62
     3
 10
20534.359295999999
 20
18265.23021799999
 30
0.0
 11
20559.352698000021
 21
18265.23021799999
 31
0.0
  0
LINE
  5
7A81
  8
2-0
  6
CONTINUOUS
 62
     3
 10
20534.359295999999
 20
18260.229954999992
 30
0.0
 11
20534.359295999999
 21
18265.23021799999
 31
0.0
  0
LINE
  5
7A82
  8
2-0
  6
CONTINUOUS
 62
     3
 10
20541.356894
 20
18260.229954999992
 30
0.0
 11
20534.359295999999
 21
18260.229954999992
 31
0.0
  0
LINE
  5
7A83
  8
2-0
  6
CONTINUOUS
 62
     3
 10
20532.241211000019
 20
17540.32084099999
 30
0.0
 11
20532.241211000019
 21
17560.32189599999
 31
0.0
  0
LINE
  5
7A84
  8
2-0
  6
CONTINUOUS
 62
     3
 10
20532.241211000019
 20
17560.32189599999
 30
0.0
 11
20617.241739000008
 21
17560.32189599999
 31
0.0
  0
LINE
  5
7A85
  8
2-0
  6
CONTINUOUS
 62
     3
 10
20541.356894
 20
17586.928606000001
 30
0.0
 11
20534.359295999999
 21
17586.928606000001
 31
0.0
  0
LINE
  5
7A86
  8
2-0
  6
CONTINUOUS
 62
     3
 10
20534.359295999999
 20
17586.928606000001
 30
0.0
 11
20534.359295999999
 21
17581.934280000001
 31
0.0
  0
LINE
  5
7A87
  8
2-0
  6
CONTINUOUS
 62
     3
 10
20534.359295999999
 20
17581.934280000001
 30
0.0
 11
20559.352698000021
 21
17581.934280000001
 31
0.0
  0
LINE
  5
7A88
  8
2-0
  6
CONTINUOUS
 62
     3
 10
20559.352698000021
 20
17581.934280000001
 30
0.0
 11
20559.352698000021
 21
17599.930083999989
 31
0.0
  0
LINE
  5
7A89
  8
2-0
  6
CONTINUOUS
 62
     3
 10
20559.352698000021
 20
17599.930083999989
 30
0.0
 11
20529.355072999999
 21
17599.930083999989
 31
0.0
  0
LINE
  5
7A8A
  8
2-0
  6
CONTINUOUS
 62
     3
 10
20559.352698000021
 20
17590.321499999991
 30
0.0
 11
20559.352698000021
 21
17584.319599999992
 31
0.0
  0
LINE
  5
7A8B
  8
2-0
  6
CONTINUOUS
 62
     3
 10
20529.355072999999
 20
17590.321499999991
 30
0.0
 11
20559.352698000021
 21
17590.321499999991
 31
0.0
  0
LINE
  5
7A8C
  8
2-0
  6
CONTINUOUS
 62
     3
 10
20529.355072999999
 20
17599.930083999989
 30
0.0
 11
20529.355072999999
 21
18247.234414999992
 31
0.0
  0
LINE
  5
7A8D
  8
2-0
  6
CONTINUOUS
 62
     3
 10
20529.355072999999
 20
18304.424685999991
 30
0.0
 11
20529.355072999999
 21
18948.228476
 31
0.0
  0
LINE
  5
7A8E
  8
2-0
  6
CONTINUOUS
 62
     3
 10
20529.355072999999
 20
17445.319784999989
 30
0.0
 11
20559.352698000021
 21
17445.319784999989
 31
0.0
  0
LINE
  5
7A8F
  8
2-0
  6
CONTINUOUS
 62
     3
 10
20559.352698000021
 20
17445.319784999989
 30
0.0
 11
20559.352698000021
 21
17451.321684999999
 31
0.0
  0
LINE
  5
7A90
  8
2-0
  6
CONTINUOUS
 62
     3
 10
20617.241739000008
 20
17475.325327999999
 30
0.0
 11
20532.241211000019
 21
17475.325327999999
 31
0.0
  0
LINE
  5
7A91
  8
2-0
  6
CONTINUOUS
 62
     3
 10
20532.241211000019
 20
17475.325327999999
 30
0.0
 11
20532.241211000019
 21
17495.32044499999
 31
0.0
  0
LINE
  5
7A92
  8
2-0
  6
CONTINUOUS
 62
     3
 10
20559.352698000021
 20
17435.711201999991
 30
0.0
 11
20529.355072999999
 21
17435.711201999991
 31
0.0
  0
LINE
  5
7A93
  8
2-0
  6
CONTINUOUS
 62
     3
 10
20559.352698000021
 20
17453.707004999978
 30
0.0
 11
20559.352698000021
 21
17435.711201999991
 31
0.0
  0
LINE
  5
7A94
  8
2-0
  6
CONTINUOUS
 62
     3
 10
20534.359295999999
 20
17453.707004999978
 30
0.0
 11
20559.352698000021
 21
17453.707004999978
 31
0.0
  0
LINE
  5
7A95
  8
2-0
  6
CONTINUOUS
 62
     3
 10
20534.359295999999
 20
17448.706741000002
 30
0.0
 11
20534.359295999999
 21
17453.707004999978
 31
0.0
  0
LINE
  5
7A96
  8
2-0
  6
CONTINUOUS
 62
     3
 10
20541.356894
 20
17448.706741000002
 30
0.0
 11
20534.359295999999
 21
17448.706741000002
 31
0.0
  0
LINE
  5
7A97
  8
2-0
  6
CONTINUOUS
 62
     3
 10
20541.356894
 20
16744.224510499971
 30
0.0
 11
20534.359295999999
 21
16744.224510499971
 31
0.0
  0
LINE
  5
7A98
  8
2-0
  6
CONTINUOUS
 62
     3
 10
20534.359295999999
 20
16744.224510499971
 30
0.0
 11
20534.359295999999
 21
16749.22477449998
 31
0.0
  0
LINE
  5
7A99
  8
2-0
  6
CONTINUOUS
 62
     3
 10
20534.359295999999
 20
16749.22477449998
 30
0.0
 11
20559.352698000021
 21
16749.22477449998
 31
0.0
  0
LINE
  5
7A9A
  8
2-0
  6
CONTINUOUS
 62
     3
 10
20559.352698000021
 20
16749.22477449998
 30
0.0
 11
20559.352698000021
 21
16731.223032499991
 31
0.0
  0
LINE
  5
7A9B
  8
2-0
  6
CONTINUOUS
 62
     3
 10
20559.352698000021
 20
16731.223032499991
 30
0.0
 11
20529.355072999999
 21
16731.223032499991
 31
0.0
  0
LINE
  5
7A9C
  8
2-0
  6
CONTINUOUS
 62
     3
 10
20559.352698000021
 20
16747.320477500001
 30
0.0
 11
20559.352698000021
 21
16741.3235265
 31
0.0
  0
LINE
  5
7A9D
  8
2-0
  6
CONTINUOUS
 62
     3
 10
20559.352698000021
 20
16741.3235265
 30
0.0
 11
20529.355072999999
 21
16741.3235265
 31
0.0
  0
LINE
  5
7A9E
  8
2-0
  6
CONTINUOUS
 62
     3
 10
20529.355072999999
 20
16741.3235265
 30
0.0
 11
20529.355072999999
 21
16778.323697499989
 31
0.0
  0
LINE
  5
7A9F
  8
2-0
  6
CONTINUOUS
 62
     3
 10
20559.352698000021
 20
16778.323697499989
 30
0.0
 11
20529.355072999999
 21
16778.323697499989
 31
0.0
  0
LINE
  5
7AA0
  8
2-0
  6
CONTINUOUS
 62
     3
 10
20559.352698000021
 20
16772.320807499978
 30
0.0
 11
20559.352698000021
 21
16778.323697499989
 31
0.0
  0
LINE
  5
7AA1
  8
2-0
  6
CONTINUOUS
 62
     3
 10
20559.352698000021
 20
16788.419242499989
 30
0.0
 11
20529.355072999999
 21
16788.419242499989
 31
0.0
  0
LINE
  5
7AA2
  8
2-0
  6
CONTINUOUS
 62
     3
 10
20559.352698000021
 20
16770.411561500001
 30
0.0
 11
20559.352698000021
 21
16788.419242499989
 31
0.0
  0
LINE
  5
7AA3
  8
2-0
  6
CONTINUOUS
 62
     3
 10
20534.359295999999
 20
16770.411561500001
 30
0.0
 11
20559.352698000021
 21
16770.411561500001
 31
0.0
  0
LINE
  5
7AA4
  8
2-0
  6
CONTINUOUS
 62
     3
 10
20534.359295999999
 20
16775.417764499991
 30
0.0
 11
20534.359295999999
 21
16770.411561500001
 31
0.0
  0
LINE
  5
7AA5
  8
2-0
  6
CONTINUOUS
 62
     3
 10
20541.356894
 20
16775.417764499991
 30
0.0
 11
20534.359295999999
 21
16775.417764499991
 31
0.0
  0
LINE
  5
7AA6
  8
2-0
  6
CONTINUOUS
 62
     3
 10
20541.356894
 20
16074.657781
 30
0.0
 11
20534.359295999999
 21
16074.657781
 31
0.0
  0
LINE
  5
7AA7
  8
2-0
  6
CONTINUOUS
 62
     3
 10
20534.359295999999
 20
16074.657781
 30
0.0
 11
20534.359295999999
 21
16069.663456
 31
0.0
  0
LINE
  5
7AA8
  8
2-0
  6
CONTINUOUS
 62
     3
 10
20534.359295999999
 20
16069.663456
 30
0.0
 11
20559.352698000021
 21
16069.663456
 31
0.0
  0
LINE
  5
7AA9
  8
2-0
  6
CONTINUOUS
 62
     3
 10
20559.352698000021
 20
16069.663456
 30
0.0
 11
20559.352698000021
 21
16087.659259
 31
0.0
  0
LINE
  5
7AAA
  8
2-0
  6
CONTINUOUS
 62
     3
 10
20559.352698000021
 20
16087.659259
 30
0.0
 11
20529.355072999999
 21
16087.659259
 31
0.0
  0
LINE
  5
7AAB
  8
2-0
  6
CONTINUOUS
 62
     3
 10
20559.352698000021
 20
16071.561814000001
 30
0.0
 11
20559.352698000021
 21
16077.563714000011
 31
0.0
  0
LINE
  5
7AAC
  8
2-0
  6
CONTINUOUS
 62
     3
 10
20559.352698000021
 20
16077.563714000011
 30
0.0
 11
20529.355072999999
 21
16077.563714000011
 31
0.0
  0
LINE
  5
7AAD
  8
2-0
  6
CONTINUOUS
 62
     3
 10
20529.355072999999
 20
16040.56453300001
 30
0.0
 11
20529.355072999999
 21
16077.563714000011
 31
0.0
  0
LINE
  5
7AAE
  8
2-0
  6
CONTINUOUS
 62
     3
 10
20559.352698000021
 20
16040.56453300001
 30
0.0
 11
20529.355072999999
 21
16040.56453300001
 31
0.0
  0
LINE
  5
7AAF
  8
2-0
  6
CONTINUOUS
 62
     3
 10
20559.352698000021
 20
16046.561484
 30
0.0
 11
20559.352698000021
 21
16040.56453300001
 31
0.0
  0
LINE
  5
7AB0
  8
2-0
  6
CONTINUOUS
 62
     3
 10
20559.352698000021
 20
16030.463049
 30
0.0
 11
20529.355072999999
 21
16030.463049
 31
0.0
  0
LINE
  5
7AB1
  8
2-0
  6
CONTINUOUS
 62
     3
 10
20559.352698000021
 20
16048.47072999999
 30
0.0
 11
20559.352698000021
 21
16030.463049
 31
0.0
  0
LINE
  5
7AB2
  8
2-0
  6
CONTINUOUS
 62
     3
 10
20534.359295999999
 20
16048.47072999999
 30
0.0
 11
20559.352698000021
 21
16048.47072999999
 31
0.0
  0
LINE
  5
7AB3
  8
2-0
  6
CONTINUOUS
 62
     3
 10
20534.359295999999
 20
16043.47046600001
 30
0.0
 11
20534.359295999999
 21
16048.47072999999
 31
0.0
  0
LINE
  5
7AB4
  8
2-0
  6
CONTINUOUS
 62
     3
 10
20541.356894
 20
16043.47046600001
 30
0.0
 11
20534.359295999999
 21
16043.47046600001
 31
0.0
  0
LINE
  5
7AB5
  8
2-0
  6
CONTINUOUS
 62
     3
 10
20529.355072999999
 20
17435.711201999991
 30
0.0
 11
20529.355072999999
 21
16788.419242499989
 31
0.0
  0
LINE
  5
7AB6
  8
2-0
  6
CONTINUOUS
 62
     3
 10
20529.355072999999
 20
17590.321499999991
 30
0.0
 11
20529.355072999999
 21
17445.319784999989
 31
0.0
  0
LINE
  5
7AB7
  8
2-0
  6
CONTINUOUS
 62
     3
 10
20617.241739000008
 20
17560.32189599999
 30
0.0
 11
20617.241739000008
 21
17475.325327999999
 31
0.0
  0
LINE
  5
7AB8
  8
2-0
  6
CONTINUOUS
 62
     3
 10
20541.356894
 20
15342.22945899998
 30
0.0
 11
20534.359295999999
 21
15342.22945899998
 31
0.0
  0
LINE
  5
7AB9
  8
2-0
  6
CONTINUOUS
 62
     3
 10
20534.359295999999
 20
15342.22945899998
 30
0.0
 11
20534.359295999999
 21
15347.223785
 31
0.0
  0
LINE
  5
7ABA
  8
2-0
  6
CONTINUOUS
 62
     3
 10
20534.359295999999
 20
15347.223785
 30
0.0
 11
20559.352698000021
 21
15347.223785
 31
0.0
  0
LINE
  5
7ABB
  8
2-0
  6
CONTINUOUS
 62
     3
 10
20559.352698000021
 20
15347.223785
 30
0.0
 11
20559.352698000021
 21
15329.227980999991
 31
0.0
  0
LINE
  5
7ABC
  8
2-0
  6
CONTINUOUS
 62
     3
 10
20559.352698000021
 20
15329.227980999991
 30
0.0
 11
20529.355072999999
 21
15329.227980999991
 31
0.0
  0
LINE
  5
7ABD
  8
2-0
  6
CONTINUOUS
 62
     3
 10
20559.352698000021
 20
15345.326416
 30
0.0
 11
20559.352698000021
 21
15339.323525999989
 31
0.0
  0
LINE
  5
7ABE
  8
2-0
  6
CONTINUOUS
 62
     3
 10
20559.352698000021
 20
15339.323525999989
 30
0.0
 11
20529.355072999999
 21
15339.323525999989
 31
0.0
  0
LINE
  5
7ABF
  8
2-0
  6
CONTINUOUS
 62
     3
 10
20529.355072999999
 20
15339.323525999989
 30
0.0
 11
20529.355072999999
 21
15376.32369799998
 31
0.0
  0
LINE
  5
7AC0
  8
2-0
  6
CONTINUOUS
 62
     3
 10
20559.352698000021
 20
15376.32369799998
 30
0.0
 11
20529.355072999999
 21
15376.32369799998
 31
0.0
  0
LINE
  5
7AC1
  8
2-0
  6
CONTINUOUS
 62
     3
 10
20559.352698000021
 20
15370.32674599999
 30
0.0
 11
20559.352698000021
 21
15376.32369799998
 31
0.0
  0
LINE
  5
7AC2
  8
2-0
  6
CONTINUOUS
 62
     3
 10
20559.352698000021
 20
15386.424191
 30
0.0
 11
20529.355072999999
 21
15386.424191
 31
0.0
  0
LINE
  5
7AC3
  8
2-0
  6
CONTINUOUS
 62
     3
 10
20559.352698000021
 20
15368.41749999999
 30
0.0
 11
20559.352698000021
 21
15386.424191
 31
0.0
  0
LINE
  5
7AC4
  8
2-0
  6
CONTINUOUS
 62
     3
 10
20534.359295999999
 20
15368.41749999999
 30
0.0
 11
20559.352698000021
 21
15368.41749999999
 31
0.0
  0
LINE
  5
7AC5
  8
2-0
  6
CONTINUOUS
 62
     3
 10
20534.359295999999
 20
15373.422713
 30
0.0
 11
20534.359295999999
 21
15368.41749999999
 31
0.0
  0
LINE
  5
7AC6
  8
2-0
  6
CONTINUOUS
 62
     3
 10
20541.356894
 20
15373.422713
 30
0.0
 11
20534.359295999999
 21
15373.422713
 31
0.0
  0
LINE
  5
7AC7
  8
2-0
  6
CONTINUOUS
 62
     3
 10
20559.352698000021
 20
14666.32553899999
 30
0.0
 11
20559.352698000021
 21
14672.330407999991
 31
0.0
  0
LINE
  5
7AC8
  8
2-0
  6
CONTINUOUS
 62
     3
 10
20559.352698000021
 20
14672.330407999991
 30
0.0
 11
20529.355072999999
 21
14672.330407999991
 31
0.0
  0
LINE
  5
7AC9
  8
2-0
  6
CONTINUOUS
 62
     3
 10
20529.355072999999
 20
14672.330407999991
 30
0.0
 11
20529.355072999999
 21
14557.32631699999
 31
0.0
  0
LINE
  5
7ACA
  8
2-0
  6
CONTINUOUS
 62
     3
 10
20529.355072999999
 20
14557.32631699999
 30
0.0
 11
20614.35362100002
 21
14557.32631699999
 31
0.0
  0
LINE
  5
7ACB
  8
2-0
  6
CONTINUOUS
 62
     3
 10
20614.35362100002
 20
14557.32631699999
 30
0.0
 11
20614.35362100002
 21
14642.321895999979
 31
0.0
  0
LINE
  5
7ACC
  8
2-0
  6
CONTINUOUS
 62
     3
 10
20614.35362100002
 20
14642.321895999979
 30
0.0
 11
20582.356683000002
 21
14642.321895999979
 31
0.0
  0
LINE
  5
7ACD
  8
2-0
  6
CONTINUOUS
 62
     3
 10
20541.356894
 20
14669.36014099999
 30
0.0
 11
20534.359295999999
 21
14669.36014099999
 31
0.0
  0
LINE
  5
7ACE
  8
2-0
  6
CONTINUOUS
 62
     3
 10
20534.359295999999
 20
14669.36014099999
 30
0.0
 11
20534.359295999999
 21
14664.362845999971
 31
0.0
  0
LINE
  5
7ACF
  8
2-0
  6
CONTINUOUS
 62
     3
 10
20534.359295999999
 20
14664.362845999971
 30
0.0
 11
20559.352698000021
 21
14664.362845999971
 31
0.0
  0
LINE
  5
7AD0
  8
2-0
  6
CONTINUOUS
 62
     3
 10
20559.352698000021
 20
14664.362845999971
 30
0.0
 11
20559.352698000021
 21
14682.36161899999
 31
0.0
  0
LINE
  5
7AD1
  8
2-0
  6
CONTINUOUS
 62
     3
 10
20559.352698000021
 20
14682.36161899999
 30
0.0
 11
20529.355072999999
 21
14682.36161899999
 31
0.0
  0
LINE
  5
7AD2
  8
2-0
  6
CONTINUOUS
 62
     3
 10
20529.355072999999
 20
15386.424191
 30
0.0
 11
20529.355072999999
 21
16030.463049
 31
0.0
  0
LINE
  5
7AD3
  8
2-0
  6
CONTINUOUS
 62
     3
 10
20529.355072999999
 20
19005.418748
 30
0.0
 11
20529.355072999999
 21
19649.22946549996
 31
0.0
  0
LINE
  5
7AD4
  8
2-0
  6
CONTINUOUS
 62
     3
 10
20529.355072999999
 20
16731.223032499991
 30
0.0
 11
20529.355072999999
 21
16087.659259
 31
0.0
  0
LINE
  5
7AD5
  8
2-0
  6
CONTINUOUS
 62
     3
 10
25749.349662000011
 20
20012.82572400002
 30
0.0
 11
25749.349662000011
 21
20127.82189700002
 31
0.0
  0
LINE
  5
7AD6
  8
2-0
  6
CENTER2
 62
     6
 10
19242.396801000021
 20
20085.323611999989
 30
0.0
 11
26599.350982000029
 21
20085.323611999989
 31
0.0
  0
LINE
  5
7AD7
  8
2-0
  6
CENTER2
 62
     6
 10
19242.396801000021
 20
17517.823611999989
 30
0.0
 11
26599.350982000029
 21
17517.823611999989
 31
0.0
  0
LINE
  5
7AD8
  8
2-0
  6
CENTER2
 62
     6
 10
19242.396801000021
 20
14599.82361199998
 30
0.0
 11
26599.350982000029
 21
14599.82361199998
 31
0.0
  0
LINE
  5
7AD9
  8
2-0
  6
CONTINUOUS
 62
     3
 10
20994.943056000011
 20
20115.822055000001
 30
0.0
 11
20994.943056000011
 21
20122.82757100002
 31
0.0
  0
LINE
  5
7ADA
  8
2-0
  6
CONTINUOUS
 62
     3
 10
20994.943056000011
 20
20122.82757100002
 30
0.0
 11
20989.94279200002
 21
20122.82757100002
 31
0.0
  0
LINE
  5
7ADB
  8
2-0
  6
CONTINUOUS
 62
     3
 10
20989.94279200002
 20
20122.82757100002
 30
0.0
 11
20989.94279200002
 21
20097.818333999989
 31
0.0
  0
LINE
  5
7ADC
  8
2-0
  6
CONTINUOUS
 62
     3
 10
20989.94279200002
 20
20097.818333999989
 30
0.0
 11
21007.94453400002
 21
20097.818333999989
 31
0.0
  0
LINE
  5
7ADD
  8
2-0
  6
CONTINUOUS
 62
     3
 10
21007.94453400002
 20
20097.818333999989
 30
0.0
 11
21007.94453400002
 21
20127.82189700002
 31
0.0
  0
LINE
  5
7ADE
  8
2-0
  6
CONTINUOUS
 62
     3
 10
20991.845109000031
 20
20097.818333999989
 30
0.0
 11
20997.84898900002
 21
20097.818333999989
 31
0.0
  0
LINE
  5
7ADF
  8
2-0
  6
CONTINUOUS
 62
     3
 10
20997.84898900002
 20
20097.818333999989
 30
0.0
 11
20997.84898900002
 21
20127.82189700002
 31
0.0
  0
LINE
  5
7AE0
  8
2-0
  6
CONTINUOUS
 62
     3
 10
20960.853767000001
 20
20127.82189700002
 30
0.0
 11
20997.84898900002
 21
20127.82189700002
 31
0.0
  0
LINE
  5
7AE1
  8
2-0
  6
CONTINUOUS
 62
     3
 10
20960.853767000001
 20
20097.818333999989
 30
0.0
 11
20960.853767000001
 21
20127.82189700002
 31
0.0
  0
LINE
  5
7AE2
  8
2-0
  6
CONTINUOUS
 62
     3
 10
20966.847749000019
 20
20097.818333999989
 30
0.0
 11
20960.853767000001
 21
20097.818333999989
 31
0.0
  0
LINE
  5
7AE3
  8
2-0
  6
CONTINUOUS
 62
     3
 10
20950.758222000011
 20
20097.818333999989
 30
0.0
 11
20950.758222000011
 21
20127.82189700002
 31
0.0
  0
LINE
  5
7AE4
  8
2-0
  6
CONTINUOUS
 62
     3
 10
20968.754025000031
 20
20097.818333999989
 30
0.0
 11
20950.758222000011
 21
20097.818333999989
 31
0.0
  0
LINE
  5
7AE5
  8
2-0
  6
CONTINUOUS
 62
     3
 10
20968.754025000031
 20
20122.82757100002
 30
0.0
 11
20968.754025000031
 21
20097.818333999989
 31
0.0
  0
LINE
  5
7AE6
  8
2-0
  6
CONTINUOUS
 62
     3
 10
20963.75574100003
 20
20122.82757100002
 30
0.0
 11
20968.754025000031
 21
20122.82757100002
 31
0.0
  0
LINE
  5
7AE7
  8
2-0
  6
CONTINUOUS
 62
     3
 10
20963.75574100003
 20
20115.822055000001
 30
0.0
 11
20963.75574100003
 21
20122.82757100002
 31
0.0
  0
LINE
  5
7AE8
  8
2-0
  6
CONTINUOUS
 62
     3
 10
20654.656620000009
 20
20127.82189700002
 30
0.0
 11
20950.758222000011
 21
20127.82189700002
 31
0.0
  0
LINE
  5
7AE9
  8
2-0
  6
CONTINUOUS
 62
     3
 10
20529.355072999999
 20
20042.825327999999
 30
0.0
 11
25668.347762000001
 21
20042.825327999999
 31
0.0
  0
LINE
  5
7AEA
  8
2-0
  6
CONTINUOUS
 62
     3
 10
20529.355072999999
 20
14682.36161899999
 30
0.0
 11
20529.355072999999
 21
15329.227980999991
 31
0.0
  0
LINE
  5
7AEB
  8
2-0
  6
CENTER2
 62
     6
 10
20571.851378000021
 20
21327.82189700002
 30
0.0
 11
20571.851378000021
 21
13974.060177999991
 31
0.0
  0
LINE
  5
7AEC
  8
2-0
  6
CENTER2
 62
     6
 10
25706.851378000021
 20
21327.82189700002
 30
0.0
 11
25706.851378000021
 21
13974.060177999991
 31
0.0
  0
LINE
  5
7AED
  8
2-0
  6
CONTINUOUS
 62
     3
 10
25749.349662000011
 20
20002.528267999991
 30
0.0
 11
25749.349662000011
 21
19706.41973749996
 31
0.0
  0
LINE
  5
7AEE
  8
2-0
  6
CONTINUOUS
 62
     3
 10
20529.355072999999
 20
20002.528267999991
 30
0.0
 11
20529.355072999999
 21
19706.41973749996
 31
0.0
  0
LINE
  5
7AEF
  8
2-0
  6
CENTER2
 62
     6
 10
23840.351378000021
 20
21327.82189700002
 30
0.0
 11
23840.351378000021
 21
14408.419010999991
 31
0.0
  0
LINE
  5
7AF0
  8
2-0
  6
CONTINUOUS
 62
     3
 10
20610.353014000011
 20
14642.321895999979
 30
0.0
 11
20610.353014000011
 21
20127.82189700002
 31
0.0
  0
LINE
  5
7AF1
  8
2-0
  6
CONTINUOUS
 62
     3
 10
25668.347762000001
 20
14642.321895999979
 30
0.0
 11
25668.347762000001
 21
20127.82189700002
 31
0.0
  0
CIRCLE
  5
7AF2
  8
2-0
  6
CONTINUOUS
 62
     4
 10
19042.399111000021
 20
20085.323611999989
 30
0.0
 40
200.00001
  0
CIRCLE
  5
7AF3
  8
2-0
  6
CONTINUOUS
 62
     4
 10
19042.399111000021
 20
17517.823611999989
 30
0.0
 40
200.00001
  0
CIRCLE
  5
7AF4
  8
2-0
  6
CONTINUOUS
 62
     4
 10
19042.399111000021
 20
14599.82361199998
 30
0.0
 40
200.00001
  0
CIRCLE
  5
7AF5
  8
2-0
  6
CONTINUOUS
 62
     4
 10
23840.351378000021
 20
21527.826516000008
 30
0.0
 40
200.00001
  0
CIRCLE
  5
7AF6
  8
2-0
  6
CONTINUOUS
 62
     4
 10
20571.851378000021
 20
21527.826516000008
 30
0.0
 40
200.00001
  0
TEXT
  5
7AF7
  8
2-0
  6
CONTINUOUS
 62
     7
 10
24103.696685000032
 20
14039.824733999951
 30
0.0
 40
160.0
  1
前柱（右）
 50
0.0002130000058044
 72
     4
 11
24519.696387593041
 21
14119.82628050078
 31
0.0
  0
TEXT
  5
7AF8
  8
2-0
  6
CONTINUOUS
 62
     7
 10
24308.291807999962
 20
16968.31675000022
 30
0.0
 40
160.0
  1
壁パネル
 50
359.99982299996668
 72
     4
 11
24670.95872180357
 21
17048.31562963788
 31
0.0
  0
TEXT
  5
7AF9
  8
2-0
  6
CONTINUOUS
 62
     7
 10
24028.288904000041
 20
17805.50464599987
 30
0.0
 40
160.0
  1
中柱（左右）
 50
0.0003540000147867
 72
     4
 11
24545.621743046231
 21
17885.50784232466
 31
0.0
  0
TEXT
  5
7AFA
  8
2-0
  6
CONTINUOUS
 62
     7
 10
24708.291148000051
 20
15012.865999999871
 30
0.0
 40
160.0
  1
下枠
 50
0.0010630000393038
 72
     4
 11
24878.956330409292
 21
15092.86916633928
 31
0.0
  0
TEXT
  5
7AFB
  8
2-0
  6
CONTINUOUS
 62
     7
 10
24203.256572000031
 20
19408.773384499989
 30
0.0
 40
160.0
  1
間柱（側）
 72
     4
 11
24624.58990533336
 21
19488.773384499989
 31
0.0
  0
TEXT
  5
7AFC
  8
2-0
  6
CONTINUOUS
 62
     7
 10
26521.84689100003
 20
20937.821104999861
 30
0.0
 40
160.0
  1
後柱（左右）
 50
0.0003540000147867
 72
     4
 11
27033.84639671299
 21
21017.824268372831
 31
0.0
  0
TEXT
  5
7AFD
  8
2-0
  6
CONTINUOUS
 62
     7
 10
22609.26261600004
 20
15177.66191199998
 30
0.0
 40
160.0
  1
前柱（中）
 72
     4
 11
23025.26261600004
 21
15257.66191199998
 31
0.0
  0
TEXT
  5
7AFE
  8
2-0
  6
CONTINUOUS
 62
     7
 10
21243.81583533336
 20
19490.703944000001
 30
0.0
 40
160.0
  1
間柱（後）
 72
     4
 11
21665.149168666689
 21
19570.703944000001
 31
0.0
  0
TEXT
  5
7AFF
  8
2-0
  6
CONTINUOUS
 62
     7
 10
22738.065931000008
 20
19559.448665
 30
0.0
 40
160.0
  1
後柱（中）
 72
     4
 11
23154.065931000008
 21
19639.448665
 31
0.0
  0
TEXT
  5
7B00
  8
2-0
  6
CONTINUOUS
 62
     7
 10
18994.399744000009
 20
19990.843170000018
 30
0.0
 40
160.0
  1
C
 72
     4
 11
19047.733077333341
 21
20070.843170000018
 31
0.0
  0
TEXT
  5
7B01
  8
2-0
  6
CONTINUOUS
 62
     7
 10
18994.620460000009
 20
17447.429530000001
 30
0.0
 40
160.0
  1
B
 72
     4
 11
19047.953793333341
 21
17527.429530000001
 31
0.0
  0
TEXT
  5
7B02
  8
2-0
  6
CONTINUOUS
 62
     7
 10
18994.663020000022
 20
14511.216400999991
 30
0.0
 40
160.0
  1
A
 72
     4
 11
19047.99635333335
 21
14591.216400999991
 31
0.0
  0
TEXT
  5
7B03
  8
2-0
  6
CONTINUOUS
 62
     7
 10
23788.71959500002
 20
21432.300887000009
 30
0.0
 40
160.0
  1
2
 72
     4
 11
23842.052928333349
 21
21512.300887000009
 31
0.0
  0
TEXT
  5
7B04
  8
2-0
  6
CONTINUOUS
 62
     7
 10
20527.64476900001
 20
21439.058964000022
 30
0.0
 40
160.0
  1
1
 72
     4
 11
20554.311435666681
 21
21519.058964000022
 31
0.0
  0
LINE
  5
7B05
  8
2-0
  6
CONTINUOUS
 62
     3
 10
24967.351959000011
 20
20127.82189700002
 30
0.0
 11
24930.350797000021
 21
20127.82189700002
 31
0.0
  0
LINE
  5
7B06
  8
2-0
  6
CONTINUOUS
 62
     3
 10
24967.351959000011
 20
20097.818333999989
 30
0.0
 11
24967.351959000011
 21
20127.82189700002
 31
0.0
  0
LINE
  5
7B07
  8
2-0
  6
CONTINUOUS
 62
     3
 10
24961.352038000001
 20
20097.818333999989
 30
0.0
 11
24967.351959000011
 21
20097.818333999989
 31
0.0
  0
LINE
  5
7B08
  8
2-0
  6
CONTINUOUS
 62
     3
 10
24977.449483000011
 20
20097.818333999989
 30
0.0
 11
24977.449483000011
 21
20127.82189700002
 31
0.0
  0
LINE
  5
7B09
  8
2-0
  6
CONTINUOUS
 62
     3
 10
24959.445762000021
 20
20097.818333999989
 30
0.0
 11
24977.449483000011
 21
20097.818333999989
 31
0.0
  0
LINE
  5
7B0A
  8
2-0
  6
CONTINUOUS
 62
     3
 10
24959.445762000021
 20
20122.82757100002
 30
0.0
 11
24959.445762000021
 21
20097.818333999989
 31
0.0
  0
LINE
  5
7B0B
  8
2-0
  6
CONTINUOUS
 62
     3
 10
24964.44602600002
 20
20122.82757100002
 30
0.0
 11
24959.445762000021
 21
20122.82757100002
 31
0.0
  0
LINE
  5
7B0C
  8
2-0
  6
CONTINUOUS
 62
     3
 10
24964.44602600002
 20
20115.822055000001
 30
0.0
 11
24964.44602600002
 21
20122.82757100002
 31
0.0
  0
LINE
  5
7B0D
  8
2-0
  6
CONTINUOUS
 62
     3
 10
24933.256731000001
 20
20115.822055000001
 30
0.0
 11
24933.256731000001
 21
20122.82757100002
 31
0.0
  0
LINE
  5
7B0E
  8
2-0
  6
CONTINUOUS
 62
     3
 10
24933.256731000001
 20
20122.82757100002
 30
0.0
 11
24938.256995000022
 21
20122.82757100002
 31
0.0
  0
LINE
  5
7B0F
  8
2-0
  6
CONTINUOUS
 62
     3
 10
24938.256995000022
 20
20122.82757100002
 30
0.0
 11
24938.256995000022
 21
20097.818333999989
 31
0.0
  0
LINE
  5
7B10
  8
2-0
  6
CONTINUOUS
 62
     3
 10
24938.256995000022
 20
20097.818333999989
 30
0.0
 11
24920.257232000022
 21
20097.818333999989
 31
0.0
  0
LINE
  5
7B11
  8
2-0
  6
CONTINUOUS
 62
     3
 10
24920.257232000022
 20
20097.818333999989
 30
0.0
 11
24920.257232000022
 21
20127.82189700002
 31
0.0
  0
LINE
  5
7B12
  8
2-0
  6
CONTINUOUS
 62
     3
 10
24936.35071800002
 20
20097.818333999989
 30
0.0
 11
24930.350797000021
 21
20097.818333999989
 31
0.0
  0
LINE
  5
7B13
  8
2-0
  6
CONTINUOUS
 62
     3
 10
24930.350797000021
 20
20097.818333999989
 30
0.0
 11
24930.350797000021
 21
20127.82189700002
 31
0.0
  0
LINE
  5
7B14
  8
2-0
  6
CONTINUOUS
 62
     3
 10
24964.441076500021
 20
20115.822055000001
 30
0.0
 11
24964.441076500021
 21
20122.82757100002
 31
0.0
  0
LINE
  5
7B15
  8
2-0
  6
CONTINUOUS
 62
     3
 10
24964.441076500021
 20
20122.82757100002
 30
0.0
 11
24959.440812500012
 21
20122.82757100002
 31
0.0
  0
LINE
  5
7B16
  8
2-0
  6
CONTINUOUS
 62
     3
 10
24959.440812500012
 20
20122.82757100002
 30
0.0
 11
24959.440812500012
 21
20097.818333999989
 31
0.0
  0
LINE
  5
7B17
  8
2-0
  6
CONTINUOUS
 62
     3
 10
24959.440812500012
 20
20097.818333999989
 30
0.0
 11
24977.446513500021
 21
20097.818333999989
 31
0.0
  0
LINE
  5
7B18
  8
2-0
  6
CONTINUOUS
 62
     3
 10
24977.446513500021
 20
20097.818333999989
 30
0.0
 11
24977.446513500021
 21
20127.82189700002
 31
0.0
  0
LINE
  5
7B19
  8
2-0
  6
CONTINUOUS
 62
     3
 10
24961.349068500011
 20
20097.818333999989
 30
0.0
 11
24967.350968500021
 21
20097.818333999989
 31
0.0
  0
LINE
  5
7B1A
  8
2-0
  6
CONTINUOUS
 62
     3
 10
24967.350968500021
 20
20097.818333999989
 30
0.0
 11
24967.350968500021
 21
20127.82189700002
 31
0.0
  0
LINE
  5
7B1B
  8
2-0
  6
CONTINUOUS
 62
     3
 10
24930.351787500011
 20
20127.82189700002
 30
0.0
 11
24967.350968500021
 21
20127.82189700002
 31
0.0
  0
LINE
  5
7B1C
  8
2-0
  6
CONTINUOUS
 62
     3
 10
24930.351787500011
 20
20097.818333999989
 30
0.0
 11
24930.351787500011
 21
20127.82189700002
 31
0.0
  0
LINE
  5
7B1D
  8
2-0
  6
CONTINUOUS
 62
     3
 10
24936.345769500011
 20
20097.818333999989
 30
0.0
 11
24930.351787500011
 21
20097.818333999989
 31
0.0
  0
LINE
  5
7B1E
  8
2-0
  6
CONTINUOUS
 62
     3
 10
24920.256242500011
 20
20097.818333999989
 30
0.0
 11
24920.256242500011
 21
20127.82189700002
 31
0.0
  0
LINE
  5
7B1F
  8
2-0
  6
CONTINUOUS
 62
     3
 10
24938.252045500009
 20
20097.818333999989
 30
0.0
 11
24920.256242500011
 21
20097.818333999989
 31
0.0
  0
LINE
  5
7B20
  8
2-0
  6
CONTINUOUS
 62
     3
 10
24938.252045500009
 20
20122.82757100002
 30
0.0
 11
24938.252045500009
 21
20097.818333999989
 31
0.0
  0
LINE
  5
7B21
  8
2-0
  6
CONTINUOUS
 62
     3
 10
24933.251781500021
 20
20122.82757100002
 30
0.0
 11
24938.252045500009
 21
20122.82757100002
 31
0.0
  0
LINE
  5
7B22
  8
2-0
  6
CONTINUOUS
 62
     3
 10
24933.251781500021
 20
20115.822055000001
 30
0.0
 11
24933.251781500021
 21
20122.82757100002
 31
0.0
  0
LINE
  5
7B23
  8
2-0
  6
CONTINUOUS
 62
     3
 10
24276.650404000029
 20
20127.82189700002
 30
0.0
 11
24920.256242500011
 21
20127.82189700002
 31
0.0
  0
LINE
  5
7B24
  8
2-0
  6
CONTINUOUS
 62
     3
 10
25624.735008000011
 20
20127.82189700002
 30
0.0
 11
24977.449483000011
 21
20127.82189700002
 31
0.0
  0
LINE
  5
7B25
  8
2-0
  6
CONTINUOUS
 62
     3
 10
24263.443056000011
 20
20115.822055000001
 30
0.0
 11
24263.443056000011
 21
20122.82757100002
 31
0.0
  0
LINE
  5
7B26
  8
2-0
  6
CONTINUOUS
 62
     3
 10
24263.443056000011
 20
20122.82757100002
 30
0.0
 11
24258.442792000009
 21
20122.82757100002
 31
0.0
  0
LINE
  5
7B27
  8
2-0
  6
CONTINUOUS
 62
     3
 10
24258.442792000009
 20
20122.82757100002
 30
0.0
 11
24258.442792000009
 21
20097.818333999989
 31
0.0
  0
LINE
  5
7B28
  8
2-0
  6
CONTINUOUS
 62
     3
 10
24258.442792000009
 20
20097.818333999989
 30
0.0
 11
24276.44453400002
 21
20097.818333999989
 31
0.0
  0
LINE
  5
7B29
  8
2-0
  6
CONTINUOUS
 62
     3
 10
24276.44453400002
 20
20097.818333999989
 30
0.0
 11
24276.44453400002
 21
20127.82189700002
 31
0.0
  0
LINE
  5
7B2A
  8
2-0
  6
CONTINUOUS
 62
     3
 10
24260.345109000042
 20
20097.818333999989
 30
0.0
 11
24266.348989000009
 21
20097.818333999989
 31
0.0
  0
LINE
  5
7B2B
  8
2-0
  6
CONTINUOUS
 62
     3
 10
24266.348989000009
 20
20097.818333999989
 30
0.0
 11
24266.348989000009
 21
20127.82189700002
 31
0.0
  0
LINE
  5
7B2C
  8
2-0
  6
CONTINUOUS
 62
     3
 10
24229.353767000011
 20
20127.82189700002
 30
0.0
 11
24266.348989000009
 21
20127.82189700002
 31
0.0
  0
LINE
  5
7B2D
  8
2-0
  6
CONTINUOUS
 62
     3
 10
24229.353767000011
 20
20097.818333999989
 30
0.0
 11
24229.353767000011
 21
20127.82189700002
 31
0.0
  0
LINE
  5
7B2E
  8
2-0
  6
CONTINUOUS
 62
     3
 10
24235.347749000011
 20
20097.818333999989
 30
0.0
 11
24229.353767000011
 21
20097.818333999989
 31
0.0
  0
LINE
  5
7B2F
  8
2-0
  6
CONTINUOUS
 62
     3
 10
24219.258222000011
 20
20097.818333999989
 30
0.0
 11
24219.258222000011
 21
20127.82189700002
 31
0.0
  0
LINE
  5
7B30
  8
2-0
  6
CONTINUOUS
 62
     3
 10
24237.254025000038
 20
20097.818333999989
 30
0.0
 11
24219.258222000011
 21
20097.818333999989
 31
0.0
  0
LINE
  5
7B31
  8
2-0
  6
CONTINUOUS
 62
     3
 10
24237.254025000038
 20
20122.82757100002
 30
0.0
 11
24237.254025000038
 21
20097.818333999989
 31
0.0
  0
LINE
  5
7B32
  8
2-0
  6
CONTINUOUS
 62
     3
 10
24232.25574100003
 20
20122.82757100002
 30
0.0
 11
24237.254025000038
 21
20122.82757100002
 31
0.0
  0
LINE
  5
7B33
  8
2-0
  6
CONTINUOUS
 62
     3
 10
24232.25574100003
 20
20115.822055000001
 30
0.0
 11
24232.25574100003
 21
20122.82757100002
 31
0.0
  0
LINE
  5
7B34
  8
2-0
  6
CONTINUOUS
 62
     3
 10
23923.156620000009
 20
20127.82189700002
 30
0.0
 11
24219.258222000011
 21
20127.82189700002
 31
0.0
  0
LINE
  5
7B35
  8
2-0
  6
CONTINUOUS
 62
     3
 10
23758.923881000039
 20
20127.82189700002
 30
0.0
 11
23110.949483000011
 21
20127.82189700002
 31
0.0
  0
LINE
  5
7B36
  8
2-0
  6
CONTINUOUS
 62
     3
 10
25749.349662000011
 20
16030.463049
 30
0.0
 11
25749.349662000011
 21
15386.424191
 31
0.0
  0
LINE
  5
7B37
  8
2-0
  6
CONTINUOUS
 62
     3
 10
25749.349662000011
 20
15329.227980999991
 30
0.0
 11
25749.349662000011
 21
14682.36161899999
 31
0.0
  0
CIRCLE
  5
7B38
  8
2-0
  6
CONTINUOUS
 62
     4
 10
25706.851378000021
 20
21527.826516000008
 30
0.0
 40
200.00001
  0
TEXT
  5
7B39
  8
2-0
  6
CONTINUOUS
 62
     7
 10
25655.219595000031
 20
21432.300887000009
 30
0.0
 40
160.0
  1
3
 72
     4
 11
25708.55292833336
 21
21512.300887000009
 31
0.0
  0
LINE
  5
7B3A
  8
SUNPOU
  6
CONTINUOUS
 10
26799.350982000029
 20
20085.323611999989
 30
0.0
 11
26799.350982000029
 21
20811.541466516272
 31
0.0
  0
LINE
  5
7B3B
  8
0-1
  6
CONTINUOUS
 62
     3
 10
9392.1799734553315
 20
8337.6353859999981
 30
0.0
 11
14922.67839045531
 21
8337.6353859999981
 31
0.0
  0
LINE
  5
7B3C
  8
0-1
  6
CONTINUOUS
 62
     3
 10
8682.179115455323
 20
6326.589506999996
 30
0.0
 11
14955.17819245532
 21
6326.589506999996
 31
0.0
  0
LINE
  5
7B3D
  8
0-1
  6
CONTINUOUS
 62
     3
 10
9487.1790494553279
 20
6476.589506999996
 30
0.0
 11
11909.67832445531
 21
6476.589506999996
 31
0.0
  0
LINE
  5
7B3E
  8
0-1
  6
CONTINUOUS
 62
     3
 10
9364.6781924553234
 20
6426.5893419999966
 30
0.0
 11
14955.17819245532
 21
6426.5893419999966
 31
0.0
  0
LINE
  5
7B3F
  8
0-1
  6
CONTINUOUS
 62
     3
 10
9487.1790494553279
 20
8337.6353859999981
 30
0.0
 11
9487.1790494553279
 21
6426.5893419999966
 31
0.0
  0
LINE
  5
7B40
  8
0-1
  6
CONTINUOUS
 62
     3
 10
9372.1789174553287
 20
8459.6034229999932
 30
0.0
 11
9372.1789174553287
 21
6426.5893419999966
 31
0.0
  0
LINE
  5
7B41
  8
0-1
  6
CONTINUOUS
 62
     3
 10
9392.1799734553315
 20
8460.2586440000032
 30
0.0
 11
9392.1799734553315
 21
6426.5893419999966
 31
0.0
  0
LINE
  5
7B42
  8
0-1
  6
CONTINUOUS
 62
     3
 10
9364.6781924553234
 20
6326.589506999996
 30
0.0
 11
9364.6781924553234
 21
6426.5893419999966
 31
0.0
  0
LINE
  5
7B43
  8
0-1
  6
CONTINUOUS
 62
     3
 10
15017.812074455311
 20
8644.0787189999974
 30
0.0
 11
15013.552150455311
 21
8774.0083799999975
 31
0.0
  0
LINE
  5
7B44
  8
0-1
  6
CONTINUOUS
 62
     3
 10
12054.678060455321
 20
6476.589506999996
 30
0.0
 11
14827.678324455321
 21
6476.589506999996
 31
0.0
  0
LINE
  5
7B45
  8
0-1
  6
CONTINUOUS
 62
     3
 10
11518.17804645531
 20
6476.589506999996
 30
0.0
 11
11518.17804645531
 21
8337.6353859999981
 31
0.0
  0
LINE
  5
7B46
  8
0-1
  6
CONTINUOUS
 62
     3
 10
11385.17914245531
 20
6476.589506999996
 30
0.0
 11
11385.17914245531
 21
8337.6353859999981
 31
0.0
  0
LINE
  5
7B47
  8
0-1
  6
CONTINUOUS
 62
     3
 10
11370.17736045532
 20
6476.589506999996
 30
0.0
 11
11370.17736045532
 21
8337.6353859999981
 31
0.0
  0
LINE
  5
7B48
  8
0-1
  6
CONTINUOUS
 62
     3
 10
11568.1796964553
 20
6476.589506999996
 30
0.0
 11
11568.1796964553
 21
8337.6353859999981
 31
0.0
  0
LINE
  5
7B49
  8
0-1
  6
CONTINUOUS
 62
     3
 10
11588.178772455311
 20
6476.589506999996
 30
0.0
 11
11588.178772455311
 21
8337.6353859999981
 31
0.0
  0
LINE
  5
7B4A
  8
0-1
  6
CONTINUOUS
 62
     3
 10
11638.179432455319
 20
6476.589506999996
 30
0.0
 11
11638.179432455319
 21
8337.6353859999981
 31
0.0
  0
LINE
  5
7B4B
  8
0-1
  6
CONTINUOUS
 62
     3
 10
11771.178337455311
 20
6476.589506999996
 30
0.0
 11
11771.178337455311
 21
8337.6353859999981
 31
0.0
  0
LINE
  5
7B4C
  8
0-1
  6
CONTINUOUS
 62
     3
 10
11786.17714945531
 20
6476.589506999996
 30
0.0
 11
11786.17714945531
 21
8337.6353859999981
 31
0.0
  0
LINE
  5
7B4D
  8
0-1
  6
CONTINUOUS
 62
     3
 10
12054.678060455321
 20
8337.6353859999981
 30
0.0
 11
12054.678060455321
 21
6426.5893419999966
 31
0.0
  0
LINE
  5
7B4E
  8
0-1
  6
CONTINUOUS
 62
     3
 10
11909.67832445531
 20
8337.6353859999981
 30
0.0
 11
11909.67832445531
 21
6426.5893419999966
 31
0.0
  0
LINE
  5
7B4F
  8
0-1
  6
CONTINUOUS
 62
     3
 10
12178.177255455321
 20
6476.589506999996
 30
0.0
 11
12178.177255455321
 21
8337.6353859999981
 31
0.0
  0
LINE
  5
7B50
  8
0-1
  6
CONTINUOUS
 62
     3
 10
12193.179036455311
 20
6476.589506999996
 30
0.0
 11
12193.179036455311
 21
8337.6353859999981
 31
0.0
  0
LINE
  5
7B51
  8
0-1
  6
CONTINUOUS
 62
     3
 10
12326.17794145532
 20
6476.589506999996
 30
0.0
 11
12326.17794145532
 21
8337.6353859999981
 31
0.0
  0
LINE
  5
7B52
  8
0-1
  6
CONTINUOUS
 62
     3
 10
12376.17860145532
 20
6476.589506999996
 30
0.0
 11
12376.17860145532
 21
8337.6353859999981
 31
0.0
  0
LINE
  5
7B53
  8
0-1
  6
CONTINUOUS
 62
     3
 10
12396.17767745532
 20
6476.589506999996
 30
0.0
 11
12396.17767745532
 21
8337.6353859999981
 31
0.0
  0
LINE
  5
7B54
  8
0-1
  6
CONTINUOUS
 62
     3
 10
10168.178046455299
 20
6476.589506999996
 30
0.0
 11
10168.178046455299
 21
8337.6353859999981
 31
0.0
  0
LINE
  5
7B55
  8
0-1
  6
CONTINUOUS
 62
     3
 10
10188.18009245531
 20
6476.589506999996
 30
0.0
 11
10188.18009245531
 21
8337.6353859999981
 31
0.0
  0
LINE
  5
7B56
  8
0-1
  6
CONTINUOUS
 62
     3
 10
10118.1773874553
 20
6476.589506999996
 30
0.0
 11
10118.1773874553
 21
8337.6353859999981
 31
0.0
  0
LINE
  5
7B57
  8
0-1
  6
CONTINUOUS
 62
     3
 10
10238.17778345532
 20
6476.589506999996
 30
0.0
 11
10238.17778345532
 21
8337.6353859999981
 31
0.0
  0
LINE
  5
7B58
  8
0-1
  6
CONTINUOUS
 62
     3
 10
10371.17767745532
 20
6476.589506999996
 30
0.0
 11
10371.17767745532
 21
8337.6353859999981
 31
0.0
  0
LINE
  5
7B59
  8
0-1
  6
CONTINUOUS
 62
     3
 10
10386.179459455319
 20
6476.589506999996
 30
0.0
 11
10386.179459455319
 21
8337.6353859999981
 31
0.0
  0
LINE
  5
7B5A
  8
0-1
  6
CONTINUOUS
 62
     3
 10
9975.6787064553282
 20
6476.589506999996
 30
0.0
 11
9975.6787064553282
 21
8337.6353859999981
 31
0.0
  0
LINE
  5
7B5B
  8
0-1
  6
CONTINUOUS
 62
     3
 10
9960.6798944553302
 20
6476.589506999996
 30
0.0
 11
9960.6798944553302
 21
8337.6353859999981
 31
0.0
  0
LINE
  5
7B5C
  8
0-1
  6
CONTINUOUS
 62
     3
 10
10670.1780204553
 20
6476.589506999996
 30
0.0
 11
10670.1780204553
 21
8337.6353859999981
 31
0.0
  0
LINE
  5
7B5D
  8
0-1
  6
CONTINUOUS
 62
     3
 10
10685.1768324553
 20
6476.589506999996
 30
0.0
 11
10685.1768324553
 21
8337.6353859999981
 31
0.0
  0
LINE
  5
7B5E
  8
0-1
  6
CONTINUOUS
 62
     3
 10
11086.178799455311
 20
6476.589506999996
 30
0.0
 11
11086.178799455311
 21
8337.6353859999981
 31
0.0
  0
LINE
  5
7B5F
  8
0-1
  6
CONTINUOUS
 62
     3
 10
11071.17701745532
 20
6476.589506999996
 30
0.0
 11
11071.17701745532
 21
8337.6353859999981
 31
0.0
  0
LINE
  5
7B60
  8
0-1
  6
CONTINUOUS
 62
     3
 10
10938.177123455311
 20
6476.589506999996
 30
0.0
 11
10938.177123455311
 21
8337.6353859999981
 31
0.0
  0
LINE
  5
7B61
  8
0-1
  6
CONTINUOUS
 62
     3
 10
10818.17870645531
 20
6476.589506999996
 30
0.0
 11
10818.17870645531
 21
8337.6353859999981
 31
0.0
  0
LINE
  5
7B62
  8
0-1
  6
CONTINUOUS
 62
     3
 10
10888.179432455299
 20
6476.589506999996
 30
0.0
 11
10888.179432455299
 21
8337.6353859999981
 31
0.0
  0
LINE
  5
7B63
  8
0-1
  6
CONTINUOUS
 62
     3
 10
10868.1773874553
 20
6476.589506999996
 30
0.0
 11
10868.1773874553
 21
8337.6353859999981
 31
0.0
  0
LINE
  5
7B64
  8
0-1
  6
CONTINUOUS
 62
     3
 10
11209.67898345532
 20
8337.6353859999981
 30
0.0
 11
11209.67898345532
 21
6476.589506999996
 31
0.0
  0
LINE
  5
7B65
  8
0-1
  6
CONTINUOUS
 62
     3
 10
11246.67717645531
 20
8337.6353859999981
 30
0.0
 11
11246.67717645531
 21
6476.589506999996
 31
0.0
  0
LINE
  5
7B66
  8
0-1
  6
CONTINUOUS
 62
     3
 10
9800.1785484553238
 20
8337.6353859999981
 30
0.0
 11
9800.1785484553238
 21
6476.589506999996
 31
0.0
  0
LINE
  5
7B67
  8
0-1
  6
CONTINUOUS
 62
     3
 10
9837.1787194553362
 20
8337.6353859999981
 30
0.0
 11
9837.1787194553362
 21
6476.589506999996
 31
0.0
  0
LINE
  5
7B68
  8
0-1
  6
CONTINUOUS
 62
     3
 10
10509.67964345532
 20
8337.6353859999981
 30
0.0
 11
10509.67964345532
 21
6476.589506999996
 31
0.0
  0
LINE
  5
7B69
  8
0-1
  6
CONTINUOUS
 62
     3
 10
10546.677835455301
 20
8337.6353859999981
 30
0.0
 11
10546.677835455301
 21
6476.589506999996
 31
0.0
  0
LINE
  5
7B6A
  8
0-1
  6
CONTINUOUS
 62
     3
 10
11982.178192455311
 20
8544.8711859999985
 30
0.0
 11
11977.91727845531
 21
8674.8008469999986
 31
0.0
  0
LINE
  5
7B6B
  8
0-1
  6
CONTINUOUS
 62
     3
 10
11982.178192455311
 20
8544.8711859999985
 30
0.0
 11
11982.178192455311
 21
8337.6353859999981
 31
0.0
  0
LINE
  5
7B6C
  8
0-1
  6
CONTINUOUS
 62
     3
 10
14827.678324455321
 20
8337.6353859999981
 30
0.0
 11
14827.678324455321
 21
6426.5893419999966
 31
0.0
  0
LINE
  5
7B6D
  8
0-1
  6
CONTINUOUS
 62
     3
 10
14942.67746645532
 20
8641.6152079999974
 30
0.0
 11
14942.67746645532
 21
6426.5893419999966
 31
0.0
  0
LINE
  5
7B6E
  8
0-1
  6
CONTINUOUS
 62
     3
 10
14922.67839045531
 20
8640.9589979999982
 30
0.0
 11
14922.67839045531
 21
6426.5893419999966
 31
0.0
  0
LINE
  5
7B6F
  8
0-1
  6
CONTINUOUS
 62
     3
 10
13417.6785484553
 20
8337.6353859999981
 30
0.0
 11
13417.6785484553
 21
6476.589506999996
 31
0.0
  0
LINE
  5
7B70
  8
0-1
  6
CONTINUOUS
 62
     3
 10
13454.677730455311
 20
8337.6353859999981
 30
0.0
 11
13454.677730455311
 21
6476.589506999996
 31
0.0
  0
LINE
  5
7B71
  8
0-1
  6
CONTINUOUS
 62
     3
 10
14127.67898445532
 20
8337.6353859999981
 30
0.0
 11
14127.67898445532
 21
6476.589506999996
 31
0.0
  0
LINE
  5
7B72
  8
0-1
  6
CONTINUOUS
 62
     3
 10
14164.67717645532
 20
8337.6353859999981
 30
0.0
 11
14164.67717645532
 21
6476.589506999996
 31
0.0
  0
LINE
  5
7B73
  8
0-1
  6
CONTINUOUS
 62
     3
 10
12717.67722845531
 20
8337.6353859999981
 30
0.0
 11
12717.67722845531
 21
6476.589506999996
 31
0.0
  0
LINE
  5
7B74
  8
0-1
  6
CONTINUOUS
 62
     3
 10
12754.67839045531
 20
8337.6353859999981
 30
0.0
 11
12754.67839045531
 21
6476.589506999996
 31
0.0
  0
LINE
  5
7B75
  8
0-1
  6
CONTINUOUS
 62
     3
 10
13096.17701745532
 20
6476.589506999996
 30
0.0
 11
13096.17701745532
 21
8337.6353859999981
 31
0.0
  0
LINE
  5
7B76
  8
0-1
  6
CONTINUOUS
 62
     3
 10
13076.17794145532
 20
6476.589506999996
 30
0.0
 11
13076.17794145532
 21
8337.6353859999981
 31
0.0
  0
LINE
  5
7B77
  8
0-1
  6
CONTINUOUS
 62
     3
 10
13146.17767745532
 20
6476.589506999996
 30
0.0
 11
13146.17767745532
 21
8337.6353859999981
 31
0.0
  0
LINE
  5
7B78
  8
0-1
  6
CONTINUOUS
 62
     3
 10
13026.177281455321
 20
6476.589506999996
 30
0.0
 11
13026.177281455321
 21
8337.6353859999981
 31
0.0
  0
LINE
  5
7B79
  8
0-1
  6
CONTINUOUS
 62
     3
 10
12893.17738745532
 20
6476.589506999996
 30
0.0
 11
12893.17738745532
 21
8337.6353859999981
 31
0.0
  0
LINE
  5
7B7A
  8
0-1
  6
CONTINUOUS
 62
     3
 10
12878.17857445532
 20
6476.589506999996
 30
0.0
 11
12878.17857445532
 21
8337.6353859999981
 31
0.0
  0
LINE
  5
7B7B
  8
0-1
  6
CONTINUOUS
 62
     3
 10
13279.1775714553
 20
6476.589506999996
 30
0.0
 11
13279.1775714553
 21
8337.6353859999981
 31
0.0
  0
LINE
  5
7B7C
  8
0-1
  6
CONTINUOUS
 62
     3
 10
13294.179353455311
 20
6476.589506999996
 30
0.0
 11
13294.179353455311
 21
8337.6353859999981
 31
0.0
  0
LINE
  5
7B7D
  8
0-1
  6
CONTINUOUS
 62
     3
 10
13994.1786934553
 20
6476.589506999996
 30
0.0
 11
13994.1786934553
 21
8337.6353859999981
 31
0.0
  0
LINE
  5
7B7E
  8
0-1
  6
CONTINUOUS
 62
     3
 10
13979.176912455319
 20
6476.589506999996
 30
0.0
 11
13979.176912455319
 21
8337.6353859999981
 31
0.0
  0
LINE
  5
7B7F
  8
0-1
  6
CONTINUOUS
 62
     3
 10
13578.177915455321
 20
6476.589506999996
 30
0.0
 11
13578.177915455321
 21
8337.6353859999981
 31
0.0
  0
LINE
  5
7B80
  8
0-1
  6
CONTINUOUS
 62
     3
 10
13593.178706455319
 20
6476.589506999996
 30
0.0
 11
13593.178706455319
 21
8337.6353859999981
 31
0.0
  0
LINE
  5
7B81
  8
0-1
  6
CONTINUOUS
 62
     3
 10
13726.17959145532
 20
6476.589506999996
 30
0.0
 11
13726.17959145532
 21
8337.6353859999981
 31
0.0
  0
LINE
  5
7B82
  8
0-1
  6
CONTINUOUS
 62
     3
 10
13846.17701745532
 20
6476.589506999996
 30
0.0
 11
13846.17701745532
 21
8337.6353859999981
 31
0.0
  0
LINE
  5
7B83
  8
0-1
  6
CONTINUOUS
 62
     3
 10
13776.177281455321
 20
6476.589506999996
 30
0.0
 11
13776.177281455321
 21
8337.6353859999981
 31
0.0
  0
LINE
  5
7B84
  8
0-1
  6
CONTINUOUS
 62
     3
 10
13796.17932745532
 20
6476.589506999996
 30
0.0
 11
13796.17932745532
 21
8337.6353859999981
 31
0.0
  0
LINE
  5
7B85
  8
0-1
  6
CONTINUOUS
 62
     3
 10
14506.17877345532
 20
6476.589506999996
 30
0.0
 11
14506.17877345532
 21
8337.6353859999981
 31
0.0
  0
LINE
  5
7B86
  8
0-1
  6
CONTINUOUS
 62
     3
 10
14486.179697455311
 20
6476.589506999996
 30
0.0
 11
14486.179697455311
 21
8337.6353859999981
 31
0.0
  0
LINE
  5
7B87
  8
0-1
  6
CONTINUOUS
 62
     3
 10
14556.179433455311
 20
6476.589506999996
 30
0.0
 11
14556.179433455311
 21
8337.6353859999981
 31
0.0
  0
LINE
  5
7B88
  8
0-1
  6
CONTINUOUS
 62
     3
 10
14436.17903745532
 20
6476.589506999996
 30
0.0
 11
14436.17903745532
 21
8337.6353859999981
 31
0.0
  0
LINE
  5
7B89
  8
0-1
  6
CONTINUOUS
 62
     3
 10
14303.179142455319
 20
6476.589506999996
 30
0.0
 11
14303.179142455319
 21
8337.6353859999981
 31
0.0
  0
LINE
  5
7B8A
  8
0-1
  6
CONTINUOUS
 62
     3
 10
14288.1773614553
 20
6476.589506999996
 30
0.0
 11
14288.1773614553
 21
8337.6353859999981
 31
0.0
  0
LINE
  5
7B8B
  8
0-1
  6
CONTINUOUS
 62
     3
 10
14689.17932745532
 20
6476.589506999996
 30
0.0
 11
14689.17932745532
 21
8337.6353859999981
 31
0.0
  0
LINE
  5
7B8C
  8
0-1
  6
CONTINUOUS
 62
     3
 10
14704.178139455311
 20
6476.589506999996
 30
0.0
 11
14704.178139455311
 21
8337.6353859999981
 31
0.0
  0
LINE
  5
7B8D
  8
0-1
  6
CONTINUOUS
 62
     3
 10
12594.17704445532
 20
6476.589506999996
 30
0.0
 11
12594.17704445532
 21
8337.6353859999981
 31
0.0
  0
LINE
  5
7B8E
  8
0-1
  6
CONTINUOUS
 62
     3
 10
12579.17823145532
 20
6476.589506999996
 30
0.0
 11
12579.17823145532
 21
8337.6353859999981
 31
0.0
  0
LINE
  5
7B8F
  8
0-1
  6
CONTINUOUS
 62
     3
 10
12446.17932745532
 20
6476.589506999996
 30
0.0
 11
12446.17932745532
 21
8337.6353859999981
 31
0.0
  0
LINE
  5
7B90
  8
0-1
  6
CONTINUOUS
 62
     3
 10
14955.17819245532
 20
6426.5893419999966
 30
0.0
 11
14955.17819245532
 21
6326.589506999996
 31
0.0
  0
LINE
  5
7B91
  8
0-1
  6
CONTINUOUS
 62
     3
 10
9194.8665104553293
 20
8501.8146769999967
 30
0.0
 11
9193.7520414553292
 21
8535.7970729999943
 31
0.0
  0
LINE
  5
7B92
  8
0-1
  6
CONTINUOUS
 62
     3
 10
9196.6520364553289
 20
8538.893039999999
 30
0.0
 11
15027.01980445532
 21
8729.4256619999978
 31
0.0
  0
LINE
  5
7B93
  8
0-1
  6
CONTINUOUS
 62
     3
 10
15028.33123545532
 20
8689.4473049999979
 30
0.0
 11
9197.9644564553328
 21
8498.9146830000027
 31
0.0
  0
LINE
  5
7B94
  8
0-1
  6
CONTINUOUS
 62
     3
 10
9195.2277724553205
 20
8490.8204310000001
 30
0.0
 11
9195.2248034553304
 21
8490.8857549999975
 31
0.0
  0
LINE
  5
7B95
  8
0-1
  6
CONTINUOUS
 62
     3
 10
9195.2248034553304
 20
8490.8857549999975
 30
0.0
 11
9196.2759274553227
 21
8458.8383390000017
 31
0.0
  0
LINE
  5
7B96
  8
0-1
  6
CONTINUOUS
 62
     3
 10
9201.4365324553237
 20
8454.0053450000032
 30
0.0
 11
15050.77600745531
 21
8645.1595359999974
 31
0.0
  0
LINE
  5
7B97
  8
0-1
  6
CONTINUOUS
 62
     3
 10
15046.51509345532
 20
8775.089197000003
 30
0.0
 11
9197.1775984553242
 21
8583.9350059999997
 31
0.0
  0
LINE
  5
7B98
  8
0-1
  6
CONTINUOUS
 62
     3
 10
9192.3426244553266
 20
8578.7734109999983
 30
0.0
 11
9193.3927584553239
 21
8546.7913189999981
 31
0.0
  0
LINE
  5
7B99
  8
0-1
  6
CONTINUOUS
 62
     3
 10
9196.4887254553214
 20
8543.8913239999983
 30
0.0
 11
15026.85748445531
 21
8734.4239469999975
 31
0.0
  0
LINE
  5
7B9A
  8
0-1
  6
CONTINUOUS
 62
     3
 10
15028.493556455331
 20
8684.4510000000028
 30
0.0
 11
9198.1267774553271
 21
8493.917387999998
 31
0.0
  0
LINE
  5
7B9B
  8
0-1
  6
CONTINUOUS
 62
     3
 10
9209.6693504553259
 20
8584.3447659999983
 30
0.0
 11
9213.9302634553242
 21
8454.4141149999959
 31
0.0
  0
LINE
  5
7B9C
  8
0-5
  6
CONTINUOUS
 62
     4
 10
18679.971454999999
 20
6534.435988999996
 30
0.0
 11
18799.969872000001
 21
6326.589506999996
 31
0.0
  0
LINE
  5
7B9D
  8
0-5
  6
CONTINUOUS
 62
     4
 10
18799.969872000001
 20
6326.589506999996
 30
0.0
 11
18919.972247000002
 21
6534.435988999996
 31
0.0
  0
LINE
  5
7B9E
  8
0-5
  6
CONTINUOUS
 62
     4
 10
18919.972247000002
 20
6534.435988999996
 30
0.0
 11
18679.971454999999
 21
6534.435988999996
 31
0.0
  0
LINE
  5
7B9F
  8
0-5
  6
CONTINUOUS
 62
     4
 10
15035.178456455311
 20
6426.5893419999966
 30
0.0
 11
16752.63840445532
 21
6426.5893419999966
 31
0.0
  0
LINE
  5
7BA0
  8
0-5
  6
CONTINUOUS
 62
     4
 10
16780.26456545532
 20
6634.4353289999972
 30
0.0
 11
16540.262784455321
 21
6634.4353289999972
 31
0.0
  0
LINE
  5
7BA1
  8
0-5
  6
CONTINUOUS
 62
     4
 10
16660.26219045532
 20
6426.5893419999966
 30
0.0
 11
16780.26456545532
 21
6634.4353289999972
 31
0.0
  0
LINE
  5
7BA2
  8
0-5
  6
CONTINUOUS
 62
     4
 10
16540.262784455321
 20
6634.4353289999972
 30
0.0
 11
16660.26219045532
 21
6426.5893419999966
 31
0.0
  0
LINE
  5
7BA3
  8
2-0
  6
CENTER2
 62
     6
 10
9414.6781924553234
 20
6063.936095
 30
0.0
 11
9414.6781924553234
 21
7121.0791869999939
 31
0.0
  0
LINE
  5
7BA4
  8
2-0
  6
CENTER2
 62
     6
 10
11982.178192455311
 20
6063.936095
 30
0.0
 11
11982.178192455311
 21
7121.0791869999939
 31
0.0
  0
LINE
  5
7BA5
  8
2-0
  6
CENTER2
 62
     6
 10
14900.178192455311
 20
6063.936095
 30
0.0
 11
14900.178192455311
 21
7121.0791869999939
 31
0.0
  0
ARC
  5
7BA6
  8
0-1
  6
CONTINUOUS
 62
     3
 10
9198.0693714553327
 20
8541.4406799999997
 30
0.0
 40
2.5
 50
271.87799100002047
 51
91.877991000020657
  0
ARC
  5
7BA7
  8
0-1
  6
CONTINUOUS
 62
     3
 10
9199.5441124553236
 20
8496.4660179999973
 30
0.0
 40
2.5
 50
271.87799100002047
 51
91.877991000020657
  0
ARC
  5
7BA8
  8
0-1
  6
CONTINUOUS
 62
     3
 10
9196.7500224553223
 20
8535.8950589999968
 30
0.0
 40
3.0
 50
91.877991000020657
 51
181.87799100002559
  0
ARC
  5
7BA9
  8
0-1
  6
CONTINUOUS
 62
     3
 10
15027.676015455319
 20
8709.4364839999998
 30
0.0
 40
20.0
 50
271.87799100002047
 51
91.877991000020657
  0
ARC
  5
7BAA
  8
0-1
  6
CONTINUOUS
 62
     3
 10
9197.8644914553297
 20
8501.9136529999923
 30
0.0
 40
3.0
 50
181.87799100002559
 51
271.87799100002047
  0
ARC
  5
7BAB
  8
0-1
  6
CONTINUOUS
 62
     3
 10
9198.2247634553278
 20
8490.919407000003
 30
0.0
 40
3.0
 50
91.877991000020657
 51
181.87799100002559
  0
ARC
  5
7BAC
  8
0-1
  6
CONTINUOUS
 62
     3
 10
9201.2732224553238
 20
8459.0016499999983
 30
0.0
 40
5.0
 50
181.87799100002559
 51
271.87799100002047
  0
ARC
  5
7BAD
  8
0-1
  6
CONTINUOUS
 62
     3
 10
15022.67773045532
 20
8709.2731739999981
 30
0.0
 40
69.999999000000003
 50
293.66478000014212
 51
70.091202000174519
  0
ARC
  5
7BAE
  8
0-1
  6
CONTINUOUS
 62
     3
 10
9197.3399184553291
 20
8578.9377110000005
 30
0.0
 40
5.0
 50
91.877991000020657
 51
181.87799100002559
  0
ARC
  5
7BAF
  8
0-1
  6
CONTINUOUS
 62
     3
 10
9196.3897494553239
 20
8546.8893050000006
 30
0.0
 40
3.0
 50
181.87799100002559
 51
271.87799100002047
  0
ARC
  5
7BB0
  8
0-1
  6
CONTINUOUS
 62
     3
 10
15027.676015455319
 20
8709.4364839999998
 30
0.0
 40
24.999998999999999
 50
271.87799100002047
 51
91.877991000020657
  0
TEXT
  5
7BB1
  8
0-0
  6
CONTINUOUS
 62
     7
 10
18679.971454999999
 20
6614.4357579999987
 30
0.0
 40
160.0
  1
G.L
 72
     4
 11
18839.971454999999
 21
6694.4357579999987
 31
0.0
  0
TEXT
  5
7BB2
  8
0-0
  6
CONTINUOUS
 62
     7
 10
16201.1712514553
 20
6714.4355929999929
 30
0.0
 40
160.0
  1
布基礎天端
 72
     4
 11
16659.837918121972
 21
6794.4355929999938
 31
0.0
  0
LINE
  5
7BB3
  8
0-1
  6
CONTINUOUS
 62
     3
 10
9667.1786534553412
 20
6476.589506999996
 30
0.0
 11
9667.1786534553412
 21
8337.6353859999981
 31
0.0
  0
LINE
  5
7BB4
  8
0-1
  6
CONTINUOUS
 62
     3
 10
9652.1798414553505
 20
6476.589506999996
 30
0.0
 11
9652.1798414553505
 21
8337.6353859999981
 31
0.0
  0
LINE
  5
7BB5
  8
0-5
  6
CONTINUOUS
 62
     4
 10
14900.178192455311
 20
4646.5899029999991
 30
0.0
 11
14900.178192455311
 21
4486.5903649999991
 31
0.0
  0
LINE
  5
7BB6
  8
0-5
  6
CONTINUOUS
 62
     4
 10
11982.178192455311
 20
4646.5899029999991
 30
0.0
 11
11982.178192455311
 21
4486.5903649999991
 31
0.0
  0
LINE
  5
7BB7
  8
0-5
  6
CONTINUOUS
 62
     4
 10
9414.6781924553234
 20
4646.5899029999991
 30
0.0
 11
9414.6781924553234
 21
4486.5903649999991
 31
0.0
  0
CIRCLE
  5
7BB8
  8
0-5
  6
CONTINUOUS
 62
     4
 10
11982.178192455311
 20
4286.589210000001
 30
0.0
 40
199.9999949999999
  0
CIRCLE
  5
7BB9
  8
0-5
  6
CONTINUOUS
 62
     4
 10
14900.178192455311
 20
4286.589210000001
 30
0.0
 40
199.9999949999999
  0
CIRCLE
  5
7BBA
  8
0-5
  6
CONTINUOUS
 62
     4
 10
9414.6781924553234
 20
4286.589210000001
 30
0.0
 40
199.9999949999999
  0
TEXT
  5
7BBB
  8
0-5
  6
CONTINUOUS
 62
     7
 10
14853.22203245532
 20
4203.3784140000016
 30
0.0
 40
160.0
  1
A
 72
     4
 11
14906.555365788659
 21
4283.3784140000016
 31
0.0
  0
TEXT
  5
7BBC
  8
0-5
  6
CONTINUOUS
 62
     7
 10
11935.222032455311
 20
4203.3784140000016
 30
0.0
 40
160.0
  1
B
 72
     4
 11
11988.55536578865
 21
4283.3784140000016
 31
0.0
  0
TEXT
  5
7BBD
  8
0-5
  6
CONTINUOUS
 62
     7
 10
9367.7220324553309
 20
4203.3784140000016
 30
0.0
 40
160.0
  1
C
 72
     4
 11
9421.0553657886649
 21
4283.3784140000016
 31
0.0
  0
LINE
  5
7BBE
  8
0-5
  6
CONTINUOUS
 62
     4
 10
18679.973435
 20
6534.4349989999973
 30
0.0
 11
18799.969872000001
 21
6326.589506999996
 31
0.0
  0
LINE
  5
7BBF
  8
0-5
  6
CONTINUOUS
 62
     4
 10
18799.969872000001
 20
6326.589506999996
 30
0.0
 11
18919.970268000001
 21
6534.4349989999973
 31
0.0
  0
LINE
  5
7BC0
  8
0-5
  6
CONTINUOUS
 62
     4
 10
18919.970268000001
 20
6534.4349989999973
 30
0.0
 11
18679.973435
 21
6534.4349989999973
 31
0.0
  0
TEXT
  5
7BC1
  8
0-5
  6
CONTINUOUS
 62
     7
 10
18679.973435
 20
6614.435756999992
 30
0.0
 40
160.0
  1
G.L
 72
     4
 11
18839.973435
 21
6694.4357569999929
 31
0.0
  0
LINE
  5
7BC2
  8
SUNPOU
  6
CONTINUOUS
 10
9192.1781924553216
 20
9574.5910179999992
 30
0.0
 11
8656.0525508674618
 21
9574.5910179999992
 31
0.0
  0
LINE
  5
7BCD
  8
0-1
  6
CONTINUOUS
 62
     3
 10
26106.854675999999
 20
6426.5893419999911
 30
0.0
 11
26006.855335000011
 21
6426.5893419999911
 31
0.0
  0
LINE
  5
7BCE
  8
0-1
  6
CONTINUOUS
 62
     3
 10
26006.855335000011
 20
6426.5893419999911
 30
0.0
 11
26006.855335000011
 21
6326.589506999996
 31
0.0
  0
LINE
  5
7BCF
  8
0-1
  6
CONTINUOUS
 62
     3
 10
26106.854675999999
 20
6326.589506999996
 30
0.0
 11
26106.854675999999
 21
6426.5893419999911
 31
0.0
  0
LINE
  5
7BD0
  8
0-1
  6
CONTINUOUS
 62
     3
 10
26079.355202999988
 20
8775.0896909999974
 30
0.0
 11
26079.355202999988
 21
6426.5893419999911
 31
0.0
  0
LINE
  5
7BD1
  8
0-1
  6
CONTINUOUS
 62
     3
 10
26099.35428000001
 20
8645.0887679999905
 30
0.0
 11
26099.35428000001
 21
6426.5893419999911
 31
0.0
  0
LINE
  5
7BD2
  8
0-1
  6
CONTINUOUS
 62
     3
 10
25969.355334999989
 20
8334.5894009999938
 30
0.0
 11
25969.355334999989
 21
6326.589506999996
 31
0.0
  0
LINE
  5
7BD3
  8
0-1
  6
CONTINUOUS
 62
     3
 10
26014.355731
 20
8645.0887679999905
 30
0.0
 11
26014.355731
 21
6426.5893419999911
 31
0.0
  0
LINE
  5
7BDC
  8
0-1
  6
CONTINUOUS
 62
     3
 10
24232.85230000002
 20
8645.0887679999905
 30
0.0
 11
24232.85230000002
 21
6326.589506999996
 31
0.0
  0
LINE
  5
7BDD
  8
0-1
  6
CONTINUOUS
 62
     3
 10
24277.852696000031
 20
8334.5894009999938
 30
0.0
 11
24277.852696000031
 21
6326.589506999996
 31
0.0
  0
LINE
  5
7BE0
  8
0-1
  6
CONTINUOUS
 62
     3
 10
24277.852696000031
 20
8266.0490649999956
 30
0.0
 11
25969.355334999989
 21
8266.0490649999956
 31
0.0
  0
LINE
  5
7BE1
  8
0-1
  6
CONTINUOUS
 62
     3
 10
24277.852696000031
 20
6911.5901999999951
 30
0.0
 11
25969.355334999989
 21
6911.5901999999951
 31
0.0
  0
LINE
  5
7BE2
  8
0-1
  6
CONTINUOUS
 62
     3
 10
24277.852696000031
 20
6976.5891769999971
 30
0.0
 11
25969.355334999989
 21
6976.5891769999971
 31
0.0
  0
LINE
  5
7BE3
  8
0-1
  6
CONTINUOUS
 62
     3
 10
24277.852696000031
 20
7041.5896389999943
 30
0.0
 11
25969.355334999989
 21
7041.5896389999943
 31
0.0
  0
LINE
  5
7BE4
  8
0-1
  6
CONTINUOUS
 62
     3
 10
24277.852696000031
 20
7106.5896059999923
 30
0.0
 11
25969.355334999989
 21
7106.5896059999923
 31
0.0
  0
LINE
  5
7BE5
  8
0-1
  6
CONTINUOUS
 62
     3
 10
24277.852696000031
 20
7171.5895729999929
 30
0.0
 11
25969.355334999989
 21
7171.5895729999929
 31
0.0
  0
LINE
  5
7BE6
  8
0-1
  6
CONTINUOUS
 62
     3
 10
24277.852696000031
 20
7236.589539999989
 30
0.0
 11
25969.355334999989
 21
7236.589539999989
 31
0.0
  0
LINE
  5
7BE7
  8
0-1
  6
CONTINUOUS
 62
     3
 10
24277.852696000031
 20
7301.5900019999972
 30
0.0
 11
25969.355334999989
 21
7301.5900019999972
 31
0.0
  0
LINE
  5
7BE8
  8
0-1
  6
CONTINUOUS
 62
     3
 10
24277.852696000031
 20
7366.588978999991
 30
0.0
 11
25969.355334999989
 21
7366.588978999991
 31
0.0
  0
LINE
  5
7BE9
  8
0-1
  6
CONTINUOUS
 62
     3
 10
24277.852696000031
 20
7431.5894409999919
 30
0.0
 11
25969.355334999989
 21
7431.5894409999919
 31
0.0
  0
LINE
  5
7BEA
  8
0-1
  6
CONTINUOUS
 62
     3
 10
24277.852696000031
 20
7496.5894079999898
 30
0.0
 11
25969.355334999989
 21
7496.5894079999898
 31
0.0
  0
LINE
  5
7BEB
  8
0-1
  6
CONTINUOUS
 62
     3
 10
24277.852696000031
 20
7561.5898699999898
 30
0.0
 11
25969.355334999989
 21
7561.5898699999898
 31
0.0
  0
LINE
  5
7BEC
  8
0-1
  6
CONTINUOUS
 62
     3
 10
24277.852696000031
 20
7626.5888469999954
 30
0.0
 11
25969.355334999989
 21
7626.5888469999954
 31
0.0
  0
LINE
  5
7BED
  8
0-1
  6
CONTINUOUS
 62
     3
 10
24277.852696000031
 20
7691.5893089999936
 30
0.0
 11
25969.355334999989
 21
7691.5893089999936
 31
0.0
  0
LINE
  5
7BEE
  8
0-1
  6
CONTINUOUS
 62
     3
 10
24277.852696000031
 20
7756.5892759999942
 30
0.0
 11
25969.355334999989
 21
7756.5892759999942
 31
0.0
  0
LINE
  5
7BEF
  8
0-1
  6
CONTINUOUS
 62
     3
 10
24277.852696000031
 20
7821.589242999994
 30
0.0
 11
25969.355334999989
 21
7821.589242999994
 31
0.0
  0
LINE
  5
7BF0
  8
0-1
  6
CONTINUOUS
 62
     3
 10
24277.852696000031
 20
7886.5897049999967
 30
0.0
 11
25969.355334999989
 21
7886.5897049999967
 31
0.0
  0
LINE
  5
7BF1
  8
0-1
  6
CONTINUOUS
 62
     3
 10
24277.852696000031
 20
7951.5896719999937
 30
0.0
 11
25969.355334999989
 21
7951.5896719999937
 31
0.0
  0
LINE
  5
7BF2
  8
0-1
  6
CONTINUOUS
 62
     3
 10
24277.852696000031
 20
8016.5901339999937
 30
0.0
 11
25969.355334999989
 21
8016.5901339999937
 31
0.0
  0
LINE
  5
7BF3
  8
0-1
  6
CONTINUOUS
 62
     3
 10
24277.852696000031
 20
8081.5891109999902
 30
0.0
 11
25969.355334999989
 21
8081.5891109999902
 31
0.0
  0
LINE
  5
7BF4
  8
0-1
  6
CONTINUOUS
 62
     3
 10
24277.852696000031
 20
8146.5895729999984
 30
0.0
 11
25969.355334999989
 21
8146.5895729999984
 31
0.0
  0
LINE
  5
7BF5
  8
0-1
  6
CONTINUOUS
 62
     3
 10
24277.852696000031
 20
8211.5895399999936
 30
0.0
 11
25969.355334999989
 21
8211.5895399999936
 31
0.0
  0
LINE
  5
7BF6
  8
0-1
  6
CONTINUOUS
 62
     3
 10
24277.852696000031
 20
6391.5889789999901
 30
0.0
 11
25969.355334999989
 21
6391.5889789999901
 31
0.0
  0
LINE
  5
7BF7
  8
0-1
  6
CONTINUOUS
 62
     3
 10
24277.852696000031
 20
6456.5899359999921
 30
0.0
 11
25969.355334999989
 21
6456.5899359999921
 31
0.0
  0
LINE
  5
7BF8
  8
0-1
  6
CONTINUOUS
 62
     3
 10
24277.852696000031
 20
6521.588912999995
 30
0.0
 11
25969.355334999989
 21
6521.588912999995
 31
0.0
  0
LINE
  5
7BF9
  8
0-1
  6
CONTINUOUS
 62
     3
 10
24277.852696000031
 20
6586.5898699999916
 30
0.0
 11
25969.355334999989
 21
6586.5898699999916
 31
0.0
  0
LINE
  5
7BFA
  8
0-1
  6
CONTINUOUS
 62
     3
 10
24277.852696000031
 20
6651.5893419999938
 30
0.0
 11
25969.355334999989
 21
6651.5893419999938
 31
0.0
  0
LINE
  5
7BFB
  8
0-1
  6
CONTINUOUS
 62
     3
 10
24277.852696000031
 20
6716.5893089999936
 30
0.0
 11
25969.355334999989
 21
6716.5893089999936
 31
0.0
  0
LINE
  5
7BFC
  8
0-1
  6
CONTINUOUS
 62
     3
 10
24277.852696000031
 20
6781.5892759999942
 30
0.0
 11
25969.355334999989
 21
6781.5892759999942
 31
0.0
  0
LINE
  5
7BFD
  8
0-1
  6
CONTINUOUS
 62
     3
 10
24277.852696000031
 20
6846.5887479999938
 30
0.0
 11
25969.355334999989
 21
6846.5887479999938
 31
0.0
  0
LINE
  5
7BFF
  8
0-1
  6
CONTINUOUS
 62
     3
 10
24232.85230000002
 20
8334.5894009999938
 30
0.0
 11
26014.355731
 21
8334.5894009999938
 31
0.0
  0
LINE
  5
7C00
  8
0-1
  6
CONTINUOUS
 62
     3
 10
20871.853357
 20
6326.589506999996
 30
0.0
 11
26106.854675999999
 21
6326.589506999996
 31
0.0
  0
LINE
  5
7C0A
  8
0-1
  6
CONTINUOUS
 62
     3
 10
24147.85375200001
 20
8645.0887679999905
 30
0.0
 11
24147.85375200001
 21
6326.589506999996
 31
0.0
  0
LINE
  5
7C0B
  8
0-1
  6
CONTINUOUS
 62
     3
 10
24102.855335999979
 20
8334.5894009999938
 30
0.0
 11
24102.855335999979
 21
6326.589506999996
 31
0.0
  0
LINE
  5
7C16
  8
0-1
  6
CONTINUOUS
 62
     3
 10
20971.85467600001
 20
6426.5893419999911
 30
0.0
 11
20971.85467600001
 21
6326.589506999996
 31
0.0
  0
LINE
  5
7C17
  8
0-1
  6
CONTINUOUS
 62
     3
 10
20871.853357
 20
6326.589506999996
 30
0.0
 11
20871.853357
 21
6426.5893419999911
 31
0.0
  0
LINE
  5
7C18
  8
0-1
  6
CONTINUOUS
 62
     3
 10
20871.853357
 20
6426.5893419999911
 30
0.0
 11
20971.85467600001
 21
6426.5893419999911
 31
0.0
  0
LINE
  5
7C19
  8
0-1
  6
CONTINUOUS
 62
     3
 10
21009.354675999992
 20
8334.5894009999938
 30
0.0
 11
21009.354675999992
 21
6326.589506999996
 31
0.0
  0
LINE
  5
7C1A
  8
0-1
  6
CONTINUOUS
 62
     3
 10
20964.352301000021
 20
8645.0887679999905
 30
0.0
 11
20964.352301000021
 21
6426.5893419999911
 31
0.0
  0
LINE
  5
7C1B
  8
0-1
  6
CONTINUOUS
 62
     3
 10
20899.354807999989
 20
8775.0896909999974
 30
0.0
 11
20899.354807999989
 21
6426.5893419999911
 31
0.0
  0
LINE
  5
7C1C
  8
0-1
  6
CONTINUOUS
 62
     3
 10
20879.35177300002
 20
8645.0887679999905
 30
0.0
 11
20879.35177300002
 21
6426.5893419999911
 31
0.0
  0
LINE
  5
7C1D
  8
0-1
  6
CONTINUOUS
 62
     3
 10
20964.352301000021
 20
8334.5894009999938
 30
0.0
 11
24147.85375200001
 21
8334.5894009999938
 31
0.0
  0
LINE
  5
7C1F
  8
0-1
  6
CONTINUOUS
 62
     3
 10
21009.354675999992
 20
6846.5887479999938
 30
0.0
 11
24102.855335999979
 21
6846.5887479999938
 31
0.0
  0
LINE
  5
7C20
  8
0-1
  6
CONTINUOUS
 62
     3
 10
21009.354675999992
 20
6781.5892759999942
 30
0.0
 11
24102.855335999979
 21
6781.5892759999942
 31
0.0
  0
LINE
  5
7C21
  8
0-1
  6
CONTINUOUS
 62
     3
 10
21009.354675999992
 20
6716.5893089999936
 30
0.0
 11
24102.855335999979
 21
6716.5893089999936
 31
0.0
  0
LINE
  5
7C22
  8
0-1
  6
CONTINUOUS
 62
     3
 10
21009.354675999992
 20
6651.5893419999938
 30
0.0
 11
24102.855335999979
 21
6651.5893419999938
 31
0.0
  0
LINE
  5
7C23
  8
0-1
  6
CONTINUOUS
 62
     3
 10
21009.354675999992
 20
6586.5898699999916
 30
0.0
 11
24102.855335999979
 21
6586.5898699999916
 31
0.0
  0
LINE
  5
7C24
  8
0-1
  6
CONTINUOUS
 62
     3
 10
21009.354675999992
 20
6521.588912999995
 30
0.0
 11
24102.855335999979
 21
6521.588912999995
 31
0.0
  0
LINE
  5
7C25
  8
0-1
  6
CONTINUOUS
 62
     3
 10
21009.354675999992
 20
6456.5899359999921
 30
0.0
 11
24102.855335999979
 21
6456.5899359999921
 31
0.0
  0
LINE
  5
7C26
  8
0-1
  6
CONTINUOUS
 62
     3
 10
21009.354675999992
 20
6391.5889789999901
 30
0.0
 11
24102.855335999979
 21
6391.5889789999901
 31
0.0
  0
LINE
  5
7C27
  8
0-1
  6
CONTINUOUS
 62
     3
 10
21009.354675999992
 20
8211.5895399999936
 30
0.0
 11
24102.855335999979
 21
8211.5895399999936
 31
0.0
  0
LINE
  5
7C28
  8
0-1
  6
CONTINUOUS
 62
     3
 10
21009.354675999992
 20
8146.5895729999984
 30
0.0
 11
24102.855335999979
 21
8146.5895729999984
 31
0.0
  0
LINE
  5
7C29
  8
0-1
  6
CONTINUOUS
 62
     3
 10
21009.354675999992
 20
8081.5891109999902
 30
0.0
 11
24102.855335999979
 21
8081.5891109999902
 31
0.0
  0
LINE
  5
7C2A
  8
0-1
  6
CONTINUOUS
 62
     3
 10
21009.354675999992
 20
8016.5901339999937
 30
0.0
 11
24102.855335999979
 21
8016.5901339999937
 31
0.0
  0
LINE
  5
7C2B
  8
0-1
  6
CONTINUOUS
 62
     3
 10
21009.354675999992
 20
7951.5896719999937
 30
0.0
 11
24102.855335999979
 21
7951.5896719999937
 31
0.0
  0
LINE
  5
7C2C
  8
0-1
  6
CONTINUOUS
 62
     3
 10
21009.354675999992
 20
7886.5897049999967
 30
0.0
 11
24102.855335999979
 21
7886.5897049999967
 31
0.0
  0
LINE
  5
7C2D
  8
0-1
  6
CONTINUOUS
 62
     3
 10
21009.354675999992
 20
7821.589242999994
 30
0.0
 11
24102.855335999979
 21
7821.589242999994
 31
0.0
  0
LINE
  5
7C2E
  8
0-1
  6
CONTINUOUS
 62
     3
 10
21009.354675999992
 20
7756.5892759999942
 30
0.0
 11
24102.855335999979
 21
7756.5892759999942
 31
0.0
  0
LINE
  5
7C2F
  8
0-1
  6
CONTINUOUS
 62
     3
 10
21009.354675999992
 20
7691.5893089999936
 30
0.0
 11
24102.855335999979
 21
7691.5893089999936
 31
0.0
  0
LINE
  5
7C30
  8
0-1
  6
CONTINUOUS
 62
     3
 10
21009.354675999992
 20
7626.5888469999954
 30
0.0
 11
24102.855335999979
 21
7626.5888469999954
 31
0.0
  0
LINE
  5
7C31
  8
0-1
  6
CONTINUOUS
 62
     3
 10
21009.354675999992
 20
7561.5898699999898
 30
0.0
 11
24102.855335999979
 21
7561.5898699999898
 31
0.0
  0
LINE
  5
7C32
  8
0-1
  6
CONTINUOUS
 62
     3
 10
21009.354675999992
 20
7496.5894079999898
 30
0.0
 11
24102.855335999979
 21
7496.5894079999898
 31
0.0
  0
LINE
  5
7C33
  8
0-1
  6
CONTINUOUS
 62
     3
 10
21009.354675999992
 20
7431.5894409999919
 30
0.0
 11
24102.855335999979
 21
7431.5894409999919
 31
0.0
  0
LINE
  5
7C34
  8
0-1
  6
CONTINUOUS
 62
     3
 10
21009.354675999992
 20
7366.588978999991
 30
0.0
 11
24102.855335999979
 21
7366.588978999991
 31
0.0
  0
LINE
  5
7C35
  8
0-1
  6
CONTINUOUS
 62
     3
 10
21009.354675999992
 20
7301.5900019999972
 30
0.0
 11
24102.855335999979
 21
7301.5900019999972
 31
0.0
  0
LINE
  5
7C36
  8
0-1
  6
CONTINUOUS
 62
     3
 10
21009.354675999992
 20
7236.589539999989
 30
0.0
 11
24102.855335999979
 21
7236.589539999989
 31
0.0
  0
LINE
  5
7C37
  8
0-1
  6
CONTINUOUS
 62
     3
 10
21009.354675999992
 20
7171.5895729999929
 30
0.0
 11
24102.855335999979
 21
7171.5895729999929
 31
0.0
  0
LINE
  5
7C38
  8
0-1
  6
CONTINUOUS
 62
     3
 10
21009.354675999992
 20
7106.5896059999923
 30
0.0
 11
24102.855335999979
 21
7106.5896059999923
 31
0.0
  0
LINE
  5
7C39
  8
0-1
  6
CONTINUOUS
 62
     3
 10
21009.354675999992
 20
7041.5896389999943
 30
0.0
 11
24102.855335999979
 21
7041.5896389999943
 31
0.0
  0
LINE
  5
7C3A
  8
0-1
  6
CONTINUOUS
 62
     3
 10
21009.354675999992
 20
6976.5891769999971
 30
0.0
 11
24102.855335999979
 21
6976.5891769999971
 31
0.0
  0
LINE
  5
7C3B
  8
0-1
  6
CONTINUOUS
 62
     3
 10
21009.354675999992
 20
6911.5901999999951
 30
0.0
 11
24102.855335999979
 21
6911.5901999999951
 31
0.0
  0
LINE
  5
7C3C
  8
0-1
  6
CONTINUOUS
 62
     3
 10
21009.354675999992
 20
8266.0490649999956
 30
0.0
 11
24102.855335999979
 21
8266.0490649999956
 31
0.0
  0
LINE
  5
7C42
  8
0-2
  6
CONTINUOUS
 62
     4
 10
25487.296015500011
 20
7073.8152109999919
 30
0.0
 11
25387.296675500009
 21
7073.8152109999919
 31
0.0
  0
LINE
  5
7C43
  8
0-2
  6
CONTINUOUS
 62
     4
 10
24759.91003550003
 20
7073.8152109999919
 30
0.0
 11
24859.909376500011
 21
7073.8152109999919
 31
0.0
  0
LINE
  5
7C44
  8
0-2
  6
CONTINUOUS
 62
     4
 10
22919.795026500022
 20
7073.8152109999928
 30
0.0
 11
22819.795686500009
 21
7073.8152109999928
 31
0.0
  0
LINE
  5
7C45
  8
0-2
  6
CONTINUOUS
 62
     4
 10
22192.411025500001
 20
7073.8152109999928
 30
0.0
 11
22292.40838650001
 21
7073.8152109999928
 31
0.0
  0
LINE
  5
7C46
  8
0-5
  6
CONTINUOUS
 62
     4
 10
24190.354016000001
 20
4646.589407999988
 30
0.0
 11
24190.354016000001
 21
4486.5893749999932
 31
0.0
  0
LINE
  5
7C47
  8
0-5
  6
CONTINUOUS
 62
     4
 10
20921.854016000001
 20
4646.589407999988
 30
0.0
 11
20921.854016000001
 21
4486.5893749999932
 31
0.0
  0
LINE
  5
7C48
  8
2-0
  6
CENTER2
 62
     6
 10
26056.854016000008
 20
6063.937083999991
 30
0.0
 11
26056.854016000008
 21
7101.0791209999952
 31
0.0
  0
LINE
  5
7C49
  8
2-0
  6
CENTER2
 62
     6
 10
24190.354016000001
 20
6063.937083999991
 30
0.0
 11
24190.354016000001
 21
7101.0791209999952
 31
0.0
  0
LINE
  5
7C4A
  8
2-0
  6
CENTER2
 62
     6
 10
20921.854016000001
 20
6063.937083999991
 30
0.0
 11
20921.854016000001
 21
7101.0791209999952
 31
0.0
  0
CIRCLE
  5
7C5B
  8
0-5
  6
CONTINUOUS
 62
     4
 10
24190.354016000001
 20
4286.5897049999921
 30
0.0
 40
199.9999949999999
  0
CIRCLE
  5
7C5C
  8
0-5
  6
CONTINUOUS
 62
     4
 10
20921.854016000001
 20
4286.5897049999921
 30
0.0
 40
199.9999949999999
  0
TEXT
  5
7C5D
  8
0-5
  6
CONTINUOUS
 62
     7
 10
20303.678077
 20
7055.9497537419902
 30
0.0
 40
160.0
  1
(2131.5)
 50
90.0
 72
     4
 11
20223.678077
 21
7509.2830870753232
 31
0.0
  0
TEXT
  5
7C5E
  8
0-5
  6
CONTINUOUS
 62
     7
 10
24143.425568999999
 20
4200.0597509999934
 30
0.0
 40
160.0
  1
2
 72
     4
 11
24196.758902333331
 21
4280.0597509999934
 31
0.0
  0
TEXT
  5
7C5F
  8
0-5
  6
CONTINUOUS
 62
     7
 10
20874.921609999979
 20
4200.0597509999934
 30
0.0
 40
160.0
  1
1
 72
     4
 11
20901.588276666651
 21
4280.0597509999934
 31
0.0
  0
CIRCLE
  5
7C60
  8
0-4
  6
CONTINUOUS
 62
     4
 10
22556.104016000008
 20
6812.6454479999902
 30
0.0
 40
18.487504999999981
  0
CIRCLE
  5
7C61
  8
0-4
  6
CONTINUOUS
 62
     4
 10
25123.604015500001
 20
6812.6454479999902
 30
0.0
 40
18.487504999999981
  0
LINE
  5
7C62
  8
SUNPOU
  6
CONTINUOUS
 10
20639.354016000008
 20
5126.5895069999942
 30
0.0
 11
20281.399009278892
 21
5126.5895069999942
 31
0.0
  0
LINE
  5
7C63
  8
SUNPOU
  6
CONTINUOUS
 10
26339.35797500001
 20
5126.5895069999942
 30
0.0
 11
26697.312981721108
 21
5126.5895069999942
 31
0.0
  0
LINE
  5
7C64
  8
0-5
  6
CONTINUOUS
 62
     4
 10
26099.354016000001
 20
4646.589407999988
 30
0.0
 11
26099.354016000001
 21
4486.5893749999932
 31
0.0
  0
CIRCLE
  5
7C65
  8
0-5
  6
CONTINUOUS
 62
     4
 10
26099.354016000001
 20
4286.5897049999921
 30
0.0
 40
199.9999949999999
  0
TEXT
  5
7C66
  8
0-5
  6
CONTINUOUS
 62
     7
 10
26052.425568999999
 20
4200.0597509999934
 30
0.0
 40
160.0
  1
3
 72
     4
 11
26105.758902333331
 21
4280.0597509999934
 31
0.0
  0
LINE
  5
7C67
  8
0-1
  6
CONTINUOUS
 62
     4
 10
15035.17548745531
 20
6326.5895069999988
 30
0.0
 11
20791.64523492166
 21
6326.5895069999988
 31
0.0
  0
LINE
  5
7C68
  8
0-6
  6
CONTINUOUS
 62
     6
 10
10701.186671618771
 20
20537.823742
 30
0.0
 11
11501.18733161877
 21
20537.823742
 31
0.0
  0
TEXT
  5
7C69
  8
0-6
  6
CONTINUOUS
 62
     7
 10
10781.18693561876
 20
20617.824005999992
 30
0.0
 40
160.0
  1
桁（後）
 72
     4
 11
11101.18693561876
 21
20697.824005999992
 31
0.0
  0
LINE
  5
7C6A
  8
0-2
  6
CONTINUOUS
 62
     3
 10
9664.5810945000085
 20
20297.820971000001
 30
0.0
 11
14823.5828365
 21
20297.820971000001
 31
0.0
  0
LINE
  5
7C6B
  8
0-2
  6
CONTINUOUS
 62
     3
 10
9609.0833115000078
 20
20249.821604000001
 30
0.0
 11
14879.082598499979
 21
20249.821604000001
 31
0.0
  0
TEXT
  5
7C6C
  8
0-5
  6
CONTINUOUS
 62
     7
 10
13487.04808182158
 20
21360.854327090128
 30
0.0
 40
160.0
  1
鼻隠し後
 72
     4
 11
13849.71474848825
 21
21440.854327090128
 31
0.0
  0
LINE
  5
7C6D
  8
0-5
  6
CONTINUOUS
 62
     6
 10
13122.9322058497
 20
20441.373240697329
 30
0.0
 11
13072.29407987456
 21
20458.10908048425
 31
0.0
  0
LINE
  5
7C6E
  8
0-5
  6
CONTINUOUS
 62
     6
 10
13122.9322058497
 20
20441.373240697329
 30
0.0
 11
13047.40718800387
 21
20297.820971000001
 31
0.0
  0
LINE
  5
7C6F
  8
0-5
  6
CONTINUOUS
 62
     6
 10
13072.29407987456
 20
20458.10908048425
 30
0.0
 11
13122.9322058497
 21
20441.373240697329
 31
0.0
  0
LINE
  5
7C70
  8
0-5
  6
CONTINUOUS
 62
     6
 10
13047.40718800387
 20
20297.820971000001
 30
0.0
 11
13072.29407987456
 21
20458.10908048425
 31
0.0
  0
LINE
  5
7C71
  8
0-5
  6
CONTINUOUS
 62
     6
 10
13047.40718800387
 20
20297.820971000001
 30
0.0
 11
13122.9322058497
 21
20441.373240697329
 31
0.0
  0
LINE
  5
7C72
  8
0-5
  6
CONTINUOUS
 62
     6
 10
13072.29407987456
 20
20458.10908048425
 30
0.0
 11
13047.40718800387
 21
20297.820971000001
 31
0.0
  0
LINE
  5
7C73
  8
0-5
  6
CONTINUOUS
 62
     6
 10
13411.413463280111
 20
21280.85802209012
 30
0.0
 11
14313.01679909636
 21
21280.85802209012
 31
0.0
  0
LINE
  5
7C74
  8
0-5
  6
CONTINUOUS
 62
     6
 10
13274.50513235262
 20
20933.23408440152
 30
0.0
 11
13411.413463280111
 21
21280.85802209012
 31
0.0
  0
LINE
  5
7C75
  8
0-5
  6
CONTINUOUS
 62
     6
 10
13097.611965103401
 20
20449.743034200921
 30
0.0
 11
13225.633021339499
 21
20799.647803873038
 31
0.0
  0
LINE
  5
7C78
  8
WAKUSEN-01
 10
868.00000000000193
 20
22484.000000000011
 30
0.0
 11
32764.000000000011
 21
22484.000000000011
 31
0.0
  0
LINE
  5
7C7B
  8
WAKUSEN-01
 10
20560.0
 20
2484.0
 30
0.0
 11
32764.0
 21
2484.0
 31
0.0
  0
LINE
  5
7C7C
  8
WAKUSEN-02
 10
20560.0
 20
1655.9999999999991
 30
0.0
 11
26868.0
 21
1655.9999999999991
 31
0.0
  0
TEXT
  5
7C7D
  8
WAKUMOJI-01
 10
20670.260259962761
 20
2125.9030093393221
 30
0.0
 40
240.0
  1
名　称
  7
WAKUMOJI
  0
TEXT
  5
7C7E
  8
WAKUMOJI-01
 10
20656.505485091919
 20
1319.12897497982
 30
0.0
 40
240.0
  1
機種名
  7
WAKUMOJI
  0
LINE
  5
7C81
  8
YODOROGO
 10
29977.604341291921
 20
1995.7494964292871
 30
0.0
 11
29829.604341291921
 21
1995.7494964292871
 31
0.0
1001
AUTOCAD_POSTSCRIPT_FIGURE
1002
{
1000
PSFILL
1000
Grayscale
1000
Grayscale
1070
    25
1002
}
  0
LINE
  5
7C82
  8
YODOROGO
 10
29829.604341291921
 20
1947.749496429288
 30
0.0
 11
29977.604341291921
 21
1947.749496429288
 31
0.0
1001
AUTOCAD_POSTSCRIPT_FIGURE
1002
{
1000
PSFILL
1000
Grayscale
1000
Grayscale
1070
    25
1002
}
  0
LINE
  5
7C83
  8
YODOROGO
 10
29977.604341291921
 20
1907.7494964292871
 30
0.0
 11
29829.604341291921
 21
1907.7494964292871
 31
0.0
1001
AUTOCAD_POSTSCRIPT_FIGURE
1002
{
1000
PSFILL
1000
Grayscale
1000
Grayscale
1070
    25
1002
}
  0
LINE
  5
7C84
  8
YODOROGO
 10
29829.604341291921
 20
1859.749496429288
 30
0.0
 11
29977.604341291921
 21
1859.749496429288
 31
0.0
1001
AUTOCAD_POSTSCRIPT_FIGURE
1002
{
1000
PSFILL
1000
Grayscale
1000
Grayscale
1070
    25
1002
}
  0
LINE
  5
7C85
  8
YODOROGO
 10
29977.604341291921
 20
1819.7494964292871
 30
0.0
 11
29829.604341291921
 21
1819.7494964292871
 31
0.0
1001
AUTOCAD_POSTSCRIPT_FIGURE
1002
{
1000
PSFILL
1000
Grayscale
1000
Grayscale
1070
    25
1002
}
  0
LINE
  5
7C86
  8
YODOROGO
 10
29921.60434129191
 20
1707.749496429288
 30
0.0
 11
29977.604341291921
 21
1707.749496429288
 31
0.0
1001
AUTOCAD_POSTSCRIPT_FIGURE
1002
{
1000
PSFILL
1000
Grayscale
1000
Grayscale
1070
    25
1002
}
  0
LINE
  5
7C87
  8
YODOROGO
 10
29737.604341291921
 20
1427.749496429288
 30
0.0
 11
29937.604341291932
 21
1481.3393349155101
 31
0.0
  0
LINE
  5
7C88
  8
YODOROGO
 10
29949.60434129191
 20
1707.749496429288
 30
0.0
 11
29885.604341291921
 21
1707.749496429288
 31
0.0
  0
ARC
  5
7C89
  8
YODOROGO
 10
30254.34774982791
 20
1807.864609233261
 30
0.0
 40
381.88686420564721
 50
213.96111677667841
 51
264.47872074317792
  0
ARC
  5
7C8A
  8
YODOROGO
 10
30254.347749827921
 20
1807.864609233302
 30
0.0
 40
381.8868642056816
 50
208.14114420486601
 51
212.9210361185994
  0
LINE
  5
7C8B
  8
YODOROGO
 10
29771.409872985321
 20
1556.807661346234
 30
0.0
 11
29933.78413250855
 21
1600.3157130570869
 31
0.0
  0
LINE
  5
7C8C
  8
YODOROGO
 10
29737.604341291921
 20
1427.749496429288
 30
0.0
 11
29937.604341291932
 21
1481.3393349155101
 31
0.0
  0
LINE
  5
7C8D
  8
YODOROGO
 10
29949.60434129191
 20
1707.749496429288
 30
0.0
 11
29885.604341291921
 21
1707.749496429288
 31
0.0
  0
ARC
  5
7C8E
  8
YODOROGO
 10
30254.34774982791
 20
1807.864609233261
 30
0.0
 40
381.88686420564721
 50
213.96111677667841
 51
264.47872074317792
  0
LINE
  5
7C8F
  8
YODOROGO
 10
28793.60434129191
 20
1819.7494964292871
 30
0.0
 11
28433.60434129191
 21
1819.7494964292871
 31
0.0
  0
LINE
  5
7C90
  8
YODOROGO
 10
28513.60434129191
 20
1427.749496429288
 30
0.0
 11
28793.60434129191
 21
1427.749496429288
 31
0.0
  0
LINE
  5
7C91
  8
YODOROGO
 10
28729.604341291921
 20
1923.7494964292871
 30
0.0
 11
28497.60434129191
 21
1923.7494964292871
 31
0.0
  0
LINE
  5
7C92
  8
YODOROGO
 10
28585.604341291921
 20
2027.749496429288
 30
0.0
 11
28657.604341291921
 21
2027.749496429288
 31
0.0
  0
LINE
  5
7C93
  8
YODOROGO
 10
28433.60434129191
 20
1707.749496429288
 30
0.0
 11
28433.60434129191
 21
1507.749496429288
 31
0.0
  0
LINE
  5
7C94
  8
YODOROGO
 10
28497.60434129191
 20
1563.7494964292871
 30
0.0
 11
28497.60434129191
 21
1707.749496429288
 31
0.0
  0
LINE
  5
7C95
  8
YODOROGO
 10
28585.604341291921
 20
1747.74949642929
 30
0.0
 11
28585.604341291921
 21
1547.749496429288
 31
0.0
  0
LINE
  5
7C96
  8
YODOROGO
 10
27857.604341291921
 20
1683.749496429288
 30
0.0
 11
27777.604341291921
 21
1619.9724140445701
 31
0.0
  0
LINE
  5
7C97
  8
YODOROGO
 10
27937.604341291921
 20
1619.9724140445701
 30
0.0
 11
27857.604341291921
 21
1683.749496429288
 31
0.0
  0
LINE
  5
7C98
  8
YODOROGO
 10
27857.604341291921
 20
1707.749496429288
 30
0.0
 11
27937.604341291921
 21
1643.9724140445701
 31
0.0
  0
LINE
  5
7C99
  8
YODOROGO
 10
27777.604341291921
 20
1643.9724140445701
 30
0.0
 11
27857.604341291921
 21
1707.749496429288
 31
0.0
  0
LINE
  5
7C9A
  8
YODOROGO
 10
28040.913204016892
 20
1659.749496429288
 30
0.0
 11
28040.913204016892
 21
1683.7494964292871
 31
0.0
  0
LINE
  5
7C9B
  8
YODOROGO
 10
27977.604341291921
 20
1683.7494964292871
 30
0.0
 11
27977.604341291921
 21
1667.749496429285
 31
0.0
  0
LINE
  5
7C9C
  8
YODOROGO
 10
28098.135520230931
 20
1707.749496429288
 30
0.0
 11
28098.135520230931
 21
1655.5036372746561
 31
0.0
1001
AUTOCAD_POSTSCRIPT_FIGURE
1002
{
1000
PSFILL
1000
Grayscale
1000
Grayscale
1070
   100
1002
}
  0
LINE
  5
7C9D
  8
YODOROGO
 10
28082.135520230921
 20
1655.5036372746561
 30
0.0
 11
28082.135520230921
 21
1707.749496429288
 31
0.0
1001
AUTOCAD_POSTSCRIPT_FIGURE
1002
{
1000
PSFILL
1000
Grayscale
1000
Grayscale
1070
   100
1002
}
  0
LINE
  5
7C9E
  8
YODOROGO
 10
27809.604341291921
 20
1608.771904043258
 30
0.0
 11
27809.604341291921
 21
1632.771904043258
 31
0.0
  0
LINE
  5
7C9F
  8
YODOROGO
 10
27905.604341291921
 20
1608.771904043258
 30
0.0
 11
27809.604341291921
 21
1608.771904043258
 31
0.0
  0
LINE
  5
7CA0
  8
YODOROGO
 10
27905.604341291921
 20
1632.771904043258
 30
0.0
 11
27905.604341291921
 21
1608.771904043258
 31
0.0
  0
LINE
  5
7CA1
  8
YODOROGO
 10
27809.604341291921
 20
1632.771904043258
 30
0.0
 11
27905.604341291921
 21
1632.771904043258
 31
0.0
  0
LINE
  5
7CA2
  8
YODOROGO
 10
27824.509588915738
 20
1568.5028573704751
 30
0.0
 11
27785.604341291921
 21
1475.7494964292871
 31
0.0
1001
AUTOCAD_POSTSCRIPT_FIGURE
1002
{
1000
PSFILL
1000
Grayscale
1000
Grayscale
1070
   100
1002
}
  0
LINE
  5
7CA3
  8
YODOROGO
 10
27777.604341291921
 20
1568.5028573704751
 30
0.0
 11
27824.509588915738
 21
1568.5028573704751
 31
0.0
1001
AUTOCAD_POSTSCRIPT_FIGURE
1002
{
1000
PSFILL
1000
Grayscale
1000
Grayscale
1070
   100
1002
}
  0
LINE
  5
7CA4
  8
YODOROGO
 10
27777.604341291921
 20
1588.5028573704751
 30
0.0
 11
27777.604341291921
 21
1568.5028573704751
 31
0.0
1001
AUTOCAD_POSTSCRIPT_FIGURE
1002
{
1000
PSFILL
1000
Grayscale
1000
Grayscale
1070
   100
1002
}
  0
LINE
  5
7CA5
  8
YODOROGO
 10
27937.604341291921
 20
1588.5028573704751
 30
0.0
 11
27777.604341291921
 21
1588.5028573704751
 31
0.0
1001
AUTOCAD_POSTSCRIPT_FIGURE
1002
{
1000
PSFILL
1000
Grayscale
1000
Grayscale
1070
   100
1002
}
  0
LINE
  5
7CA6
  8
YODOROGO
 10
27937.604341291921
 20
1568.5028573704751
 30
0.0
 11
27937.604341291921
 21
1588.5028573704751
 31
0.0
1001
AUTOCAD_POSTSCRIPT_FIGURE
1002
{
1000
PSFILL
1000
Grayscale
1000
Grayscale
1070
   100
1002
}
  0
LINE
  5
7CA7
  8
YODOROGO
 10
27844.509588915738
 20
1568.5028573704751
 30
0.0
 11
27937.604341291921
 21
1568.5028573704751
 31
0.0
1001
AUTOCAD_POSTSCRIPT_FIGURE
1002
{
1000
PSFILL
1000
Grayscale
1000
Grayscale
1070
   100
1002
}
  0
LINE
  5
7CA8
  8
YODOROGO
 10
27815.546718284771
 20
1495.7494964292871
 30
0.0
 11
27844.509588915738
 21
1568.5028573704751
 31
0.0
1001
AUTOCAD_POSTSCRIPT_FIGURE
1002
{
1000
PSFILL
1000
Grayscale
1000
Grayscale
1070
   100
1002
}
  0
LINE
  5
7CA9
  8
YODOROGO
 10
27902.054790808648
 20
1495.7494964292871
 30
0.0
 11
27815.546718284771
 21
1495.7494964292871
 31
0.0
1001
AUTOCAD_POSTSCRIPT_FIGURE
1002
{
1000
PSFILL
1000
Grayscale
1000
Grayscale
1070
   100
1002
}
  0
LINE
  5
7CAA
  8
YODOROGO
 10
27885.065004790951
 20
1536.2338106976929
 30
0.0
 11
27902.054790808648
 21
1495.7494964292871
 31
0.0
1001
AUTOCAD_POSTSCRIPT_FIGURE
1002
{
1000
PSFILL
1000
Grayscale
1000
Grayscale
1070
   100
1002
}
  0
LINE
  5
7CAB
  8
YODOROGO
 10
27901.065004790951
 20
1536.2338106976929
 30
0.0
 11
27885.065004790951
 21
1536.2338106976929
 31
0.0
1001
AUTOCAD_POSTSCRIPT_FIGURE
1002
{
1000
PSFILL
1000
Grayscale
1000
Grayscale
1070
   100
1002
}
  0
LINE
  5
7CAC
  8
YODOROGO
 10
27929.604341291921
 20
1475.7494964292871
 30
0.0
 11
27901.065004790951
 21
1536.2338106976929
 31
0.0
1001
AUTOCAD_POSTSCRIPT_FIGURE
1002
{
1000
PSFILL
1000
Grayscale
1000
Grayscale
1070
   100
1002
}
  0
LINE
  5
7CAD
  8
YODOROGO
 10
27785.604341291921
 20
1475.7494964292871
 30
0.0
 11
27929.604341291921
 21
1475.7494964292871
 31
0.0
1001
AUTOCAD_POSTSCRIPT_FIGURE
1002
{
1000
PSFILL
1000
Grayscale
1000
Grayscale
1070
   100
1002
}
  0
LINE
  5
7CAE
  8
YODOROGO
 10
27777.604341291921
 20
1619.9724140445701
 30
0.0
 11
27777.604341291921
 21
1643.9724140445701
 31
0.0
  0
LINE
  5
7CAF
  8
YODOROGO
 10
27937.604341291921
 20
1643.9724140445701
 30
0.0
 11
27937.604341291921
 21
1619.9724140445701
 31
0.0
  0
ARC
  5
7CB0
  8
YODOROGO
 10
28225.940442146959
 20
1600.877765325326
 30
0.0
 40
175.9999999999998
 50
280.3644312771313
 51
3.5414836592180561
  0
ARC
  5
7CB1
  8
YODOROGO
 10
28235.756030759301
 20
1633.5978069619041
 30
0.0
 40
111.9999999999982
 50
281.24905825041549
 51
348.75094174958321
  0
LINE
  5
7CB2
  8
YODOROGO
 10
28257.604341291921
 20
1523.7494964292871
 30
0.0
 11
28257.604341291921
 21
1427.749496429288
 31
0.0
  0
LINE
  5
7CB3
  8
YODOROGO
 10
28020.088903736909
 20
1610.650565061914
 30
0.0
 11
28040.913204016892
 21
1659.749496429288
 31
0.0
  0
LINE
  5
7CB4
  8
YODOROGO
 10
28041.604341291921
 20
1583.120489948401
 30
0.0
 11
28020.088903736909
 21
1610.650565061914
 31
0.0
  0
LINE
  5
7CB5
  8
YODOROGO
 10
28041.604341291921
 20
1563.120489948398
 30
0.0
 11
28041.604341291921
 21
1583.120489948401
 31
0.0
  0
LINE
  5
7CB6
  8
YODOROGO
 10
28017.604341291921
 20
1585.2370637495301
 30
0.0
 11
28041.604341291921
 21
1563.120489948398
 31
0.0
  0
LINE
  5
7CB7
  8
YODOROGO
 10
28017.604341291921
 20
1475.7494964292871
 30
0.0
 11
28017.604341291921
 21
1585.2370637495301
 31
0.0
  0
LINE
  5
7CB8
  8
YODOROGO
 10
28001.604341291921
 20
1475.7494964292871
 30
0.0
 11
28017.604341291921
 21
1475.7494964292871
 31
0.0
  0
LINE
  5
7CB9
  8
YODOROGO
 10
28001.604341291921
 20
1580.0053496897469
 30
0.0
 11
28001.604341291921
 21
1475.7494964292871
 31
0.0
  0
LINE
  5
7CBA
  8
YODOROGO
 10
27977.604341291921
 20
1532.7680790334291
 30
0.0
 11
28001.604341291921
 21
1580.0053496897469
 31
0.0
  0
LINE
  5
7CBB
  8
YODOROGO
 10
27977.604341291921
 20
1556.76807903343
 30
0.0
 11
27977.604341291921
 21
1532.7680790334291
 31
0.0
  0
LINE
  5
7CBC
  8
YODOROGO
 10
28025.828774291349
 20
1667.749496429285
 30
0.0
 11
27977.604341291921
 21
1556.76807903343
 31
0.0
  0
LINE
  5
7CBD
  8
YODOROGO
 10
27977.604341291921
 20
1667.749496429285
 30
0.0
 11
28025.828774291349
 21
1667.749496429285
 31
0.0
  0
LINE
  5
7CBE
  8
YODOROGO
 10
28050.135520230899
 20
1655.5036372746561
 30
0.0
 11
28082.135520230921
 21
1655.5036372746561
 31
0.0
1001
AUTOCAD_POSTSCRIPT_FIGURE
1002
{
1000
PSFILL
1000
Grayscale
1000
Grayscale
1070
   100
1002
}
  0
LINE
  5
7CBF
  8
YODOROGO
 10
28050.135520230899
 20
1631.5036372746561
 30
0.0
 11
28050.135520230899
 21
1655.5036372746561
 31
0.0
1001
AUTOCAD_POSTSCRIPT_FIGURE
1002
{
1000
PSFILL
1000
Grayscale
1000
Grayscale
1070
   100
1002
}
  0
LINE
  5
7CC0
  8
YODOROGO
 10
28082.135520230921
 20
1631.5036372746561
 30
0.0
 11
28050.135520230899
 21
1631.5036372746561
 31
0.0
1001
AUTOCAD_POSTSCRIPT_FIGURE
1002
{
1000
PSFILL
1000
Grayscale
1000
Grayscale
1070
   100
1002
}
  0
LINE
  5
7CC1
  8
YODOROGO
 10
28082.135520230921
 20
1499.749496429288
 30
0.0
 11
28082.135520230921
 21
1631.5036372746561
 31
0.0
1001
AUTOCAD_POSTSCRIPT_FIGURE
1002
{
1000
PSFILL
1000
Grayscale
1000
Grayscale
1070
   100
1002
}
  0
LINE
  5
7CC2
  8
YODOROGO
 10
28050.135520230921
 20
1499.749496429288
 30
0.0
 11
28082.135520230921
 21
1499.749496429288
 31
0.0
1001
AUTOCAD_POSTSCRIPT_FIGURE
1002
{
1000
PSFILL
1000
Grayscale
1000
Grayscale
1070
   100
1002
}
  0
LINE
  5
7CC3
  8
YODOROGO
 10
28050.135520230921
 20
1475.7494964292871
 30
0.0
 11
28050.135520230921
 21
1499.749496429288
 31
0.0
1001
AUTOCAD_POSTSCRIPT_FIGURE
1002
{
1000
PSFILL
1000
Grayscale
1000
Grayscale
1070
   100
1002
}
  0
LINE
  5
7CC4
  8
YODOROGO
 10
28137.604341291921
 20
1475.7494964292871
 30
0.0
 11
28050.135520230921
 21
1475.7494964292871
 31
0.0
1001
AUTOCAD_POSTSCRIPT_FIGURE
1002
{
1000
PSFILL
1000
Grayscale
1000
Grayscale
1070
   100
1002
}
  0
LINE
  5
7CC5
  8
YODOROGO
 10
28137.604341291921
 20
1499.749496429288
 30
0.0
 11
28137.604341291921
 21
1475.7494964292871
 31
0.0
1001
AUTOCAD_POSTSCRIPT_FIGURE
1002
{
1000
PSFILL
1000
Grayscale
1000
Grayscale
1070
   100
1002
}
  0
LINE
  5
7CC6
  8
YODOROGO
 10
28098.135520230931
 20
1499.749496429288
 30
0.0
 11
28137.604341291921
 21
1499.749496429288
 31
0.0
1001
AUTOCAD_POSTSCRIPT_FIGURE
1002
{
1000
PSFILL
1000
Grayscale
1000
Grayscale
1070
   100
1002
}
  0
LINE
  5
7CC7
  8
YODOROGO
 10
28098.135520230931
 20
1631.5036372746561
 30
0.0
 11
28098.135520230931
 21
1499.749496429288
 31
0.0
1001
AUTOCAD_POSTSCRIPT_FIGURE
1002
{
1000
PSFILL
1000
Grayscale
1000
Grayscale
1070
   100
1002
}
  0
LINE
  5
7CC8
  8
YODOROGO
 10
28137.604341291921
 20
1631.5036372746561
 30
0.0
 11
28098.135520230931
 21
1631.5036372746561
 31
0.0
1001
AUTOCAD_POSTSCRIPT_FIGURE
1002
{
1000
PSFILL
1000
Grayscale
1000
Grayscale
1070
   100
1002
}
  0
LINE
  5
7CC9
  8
YODOROGO
 10
28137.604341291921
 20
1655.5036372746561
 30
0.0
 11
28137.604341291921
 21
1631.5036372746561
 31
0.0
1001
AUTOCAD_POSTSCRIPT_FIGURE
1002
{
1000
PSFILL
1000
Grayscale
1000
Grayscale
1070
   100
1002
}
  0
LINE
  5
7CCA
  8
YODOROGO
 10
28098.135520230931
 20
1655.5036372746561
 30
0.0
 11
28137.604341291921
 21
1655.5036372746561
 31
0.0
1001
AUTOCAD_POSTSCRIPT_FIGURE
1002
{
1000
PSFILL
1000
Grayscale
1000
Grayscale
1070
   100
1002
}
  0
LINE
  5
7CCB
  8
YODOROGO
 10
28401.60434129191
 20
1667.749496429288
 30
0.0
 11
28345.604341291921
 21
1667.749496429288
 31
0.0
  0
LINE
  5
7CCC
  8
YODOROGO
 10
28401.60434129191
 20
1611.749496429288
 30
0.0
 11
28401.60434129191
 21
1667.749496429288
 31
0.0
  0
LINE
  5
7CCD
  8
YODOROGO
 10
28345.604341291921
 20
1667.749496429288
 30
0.0
 11
28345.604341291921
 21
1611.749496429288
 31
0.0
  0
ARC
  5
7CCE
  8
YODOROGO
 10
28513.60434129191
 20
1507.749496429288
 30
0.0
 40
80.0
 50
180.0
 51
270.0
  0
ARC
  5
7CCF
  8
YODOROGO
 10
28537.604341291921
 20
1563.7494964292871
 30
0.0
 40
40.0
 50
180.0
 51
270.0
  0
LINE
  5
7CD0
  8
YODOROGO
 10
28561.604341291932
 20
1523.7494964292871
 30
0.0
 11
28537.604341291921
 21
1523.7494964292871
 31
0.0
  0
ARC
  5
7CD1
  8
YODOROGO
 10
28561.604341291932
 20
1547.749496429285
 30
0.0
 40
23.999999999996358
 50
270.0
 51
0.0000000000054281
  0
LINE
  5
7CD2
  8
YODOROGO
 10
27801.604341291921
 20
1890.786580793706
 30
0.0
 11
27777.604341291921
 21
1843.776747951672
 31
0.0
1001
AUTOCAD_POSTSCRIPT_FIGURE
1002
{
1000
PSFILL
1000
Grayscale
1000
Grayscale
1070
   100
1002
}
  0
LINE
  5
7CD3
  8
YODOROGO
 10
27801.604341291921
 20
1747.749496429286
 30
0.0
 11
27801.604341291921
 21
1890.786580793706
 31
0.0
1001
AUTOCAD_POSTSCRIPT_FIGURE
1002
{
1000
PSFILL
1000
Grayscale
1000
Grayscale
1070
   100
1002
}
  0
LINE
  5
7CD4
  8
YODOROGO
 10
27817.604341291921
 20
1747.749496429286
 30
0.0
 11
27801.604341291921
 21
1747.749496429286
 31
0.0
1001
AUTOCAD_POSTSCRIPT_FIGURE
1002
{
1000
PSFILL
1000
Grayscale
1000
Grayscale
1070
   100
1002
}
  0
LINE
  5
7CD5
  8
YODOROGO
 10
27817.604341291921
 20
1893.7713320852661
 30
0.0
 11
27817.604341291921
 21
1747.749496429286
 31
0.0
1001
AUTOCAD_POSTSCRIPT_FIGURE
1002
{
1000
PSFILL
1000
Grayscale
1000
Grayscale
1070
   100
1002
}
  0
LINE
  5
7CD6
  8
YODOROGO
 10
27841.604341291921
 20
1867.6547582841361
 30
0.0
 11
27817.604341291921
 21
1893.7713320852661
 31
0.0
1001
AUTOCAD_POSTSCRIPT_FIGURE
1002
{
1000
PSFILL
1000
Grayscale
1000
Grayscale
1070
   100
1002
}
  0
LINE
  5
7CD7
  8
YODOROGO
 10
27841.604341291921
 20
1883.6547582841361
 30
0.0
 11
27841.604341291921
 21
1867.6547582841361
 31
0.0
1001
AUTOCAD_POSTSCRIPT_FIGURE
1002
{
1000
PSFILL
1000
Grayscale
1000
Grayscale
1070
   100
1002
}
  0
LINE
  5
7CD8
  8
YODOROGO
 10
27817.604341291921
 20
1917.7713320852649
 30
0.0
 11
27841.604341291921
 21
1883.6547582841361
 31
0.0
1001
AUTOCAD_POSTSCRIPT_FIGURE
1002
{
1000
PSFILL
1000
Grayscale
1000
Grayscale
1070
   100
1002
}
  0
LINE
  5
7CD9
  8
YODOROGO
 10
27817.604341291921
 20
1939.749496429288
 30
0.0
 11
27817.604341291921
 21
1917.7713320852649
 31
0.0
1001
AUTOCAD_POSTSCRIPT_FIGURE
1002
{
1000
PSFILL
1000
Grayscale
1000
Grayscale
1070
   100
1002
}
  0
LINE
  5
7CDA
  8
YODOROGO
 10
27889.604341291921
 20
1939.749496429288
 30
0.0
 11
27817.604341291921
 21
1939.749496429288
 31
0.0
1001
AUTOCAD_POSTSCRIPT_FIGURE
1002
{
1000
PSFILL
1000
Grayscale
1000
Grayscale
1070
   100
1002
}
  0
LINE
  5
7CDB
  8
YODOROGO
 10
27889.604341291921
 20
1900.5683489363
 30
0.0
 11
27889.604341291921
 21
1939.749496429288
 31
0.0
1001
AUTOCAD_POSTSCRIPT_FIGURE
1002
{
1000
PSFILL
1000
Grayscale
1000
Grayscale
1070
   100
1002
}
  0
LINE
  5
7CDC
  8
YODOROGO
 10
27857.604341291921
 20
1900.5683489363
 30
0.0
 11
27889.604341291921
 21
1900.5683489363
 31
0.0
1001
AUTOCAD_POSTSCRIPT_FIGURE
1002
{
1000
PSFILL
1000
Grayscale
1000
Grayscale
1070
   100
1002
}
  0
LINE
  5
7CDD
  8
YODOROGO
 10
27857.604341291921
 20
1884.568348936298
 30
0.0
 11
27857.604341291921
 21
1900.5683489363
 31
0.0
1001
AUTOCAD_POSTSCRIPT_FIGURE
1002
{
1000
PSFILL
1000
Grayscale
1000
Grayscale
1070
   100
1002
}
  0
LINE
  5
7CDE
  8
YODOROGO
 10
27889.604341291921
 20
1884.568348936298
 30
0.0
 11
27857.604341291921
 21
1884.568348936298
 31
0.0
1001
AUTOCAD_POSTSCRIPT_FIGURE
1002
{
1000
PSFILL
1000
Grayscale
1000
Grayscale
1070
   100
1002
}
  0
LINE
  5
7CDF
  8
YODOROGO
 10
27889.604341291921
 20
1879.6191779644371
 30
0.0
 11
27889.604341291921
 21
1884.568348936298
 31
0.0
1001
AUTOCAD_POSTSCRIPT_FIGURE
1002
{
1000
PSFILL
1000
Grayscale
1000
Grayscale
1070
   100
1002
}
  0
LINE
  5
7CE0
  8
YODOROGO
 10
27849.604341291921
 20
1812.974981161417
 30
0.0
 11
27889.604341291921
 21
1879.6191779644371
 31
0.0
1001
AUTOCAD_POSTSCRIPT_FIGURE
1002
{
1000
PSFILL
1000
Grayscale
1000
Grayscale
1070
   100
1002
}
  0
LINE
  5
7CE1
  8
YODOROGO
 10
27849.604341291921
 20
1796.9749811614161
 30
0.0
 11
27849.604341291921
 21
1812.974981161417
 31
0.0
1001
AUTOCAD_POSTSCRIPT_FIGURE
1002
{
1000
PSFILL
1000
Grayscale
1000
Grayscale
1070
   100
1002
}
  0
LINE
  5
7CE2
  8
YODOROGO
 10
27889.604341291921
 20
1847.6191779644359
 30
0.0
 11
27849.604341291921
 21
1796.9749811614161
 31
0.0
1001
AUTOCAD_POSTSCRIPT_FIGURE
1002
{
1000
PSFILL
1000
Grayscale
1000
Grayscale
1070
   100
1002
}
  0
LINE
  5
7CE3
  8
YODOROGO
 10
27889.604341291921
 20
1747.749496429286
 30
0.0
 11
27889.604341291921
 21
1847.6191779644359
 31
0.0
1001
AUTOCAD_POSTSCRIPT_FIGURE
1002
{
1000
PSFILL
1000
Grayscale
1000
Grayscale
1070
   100
1002
}
  0
LINE
  5
7CE4
  8
YODOROGO
 10
27905.604341291921
 20
1747.749496429286
 30
0.0
 11
27889.604341291921
 21
1747.749496429286
 31
0.0
1001
AUTOCAD_POSTSCRIPT_FIGURE
1002
{
1000
PSFILL
1000
Grayscale
1000
Grayscale
1070
   100
1002
}
  0
LINE
  5
7CE5
  8
YODOROGO
 10
27905.604341291921
 20
1849.409012158806
 30
0.0
 11
27905.604341291921
 21
1747.749496429286
 31
0.0
1001
AUTOCAD_POSTSCRIPT_FIGURE
1002
{
1000
PSFILL
1000
Grayscale
1000
Grayscale
1070
   100
1002
}
  0
LINE
  5
7CE6
  8
YODOROGO
 10
27937.604341291921
 20
1796.9749811614161
 30
0.0
 11
27905.604341291921
 21
1849.409012158806
 31
0.0
1001
AUTOCAD_POSTSCRIPT_FIGURE
1002
{
1000
PSFILL
1000
Grayscale
1000
Grayscale
1070
   100
1002
}
  0
LINE
  5
7CE7
  8
YODOROGO
 10
27937.604341291921
 20
1812.974981161417
 30
0.0
 11
27937.604341291921
 21
1796.9749811614161
 31
0.0
1001
AUTOCAD_POSTSCRIPT_FIGURE
1002
{
1000
PSFILL
1000
Grayscale
1000
Grayscale
1070
   100
1002
}
  0
LINE
  5
7CE8
  8
YODOROGO
 10
27905.604341291921
 20
1881.4090121588081
 30
0.0
 11
27937.604341291921
 21
1812.974981161417
 31
0.0
1001
AUTOCAD_POSTSCRIPT_FIGURE
1002
{
1000
PSFILL
1000
Grayscale
1000
Grayscale
1070
   100
1002
}
  0
LINE
  5
7CE9
  8
YODOROGO
 10
27905.604341291921
 20
1884.5683489363
 30
0.0
 11
27905.604341291921
 21
1881.4090121588081
 31
0.0
1001
AUTOCAD_POSTSCRIPT_FIGURE
1002
{
1000
PSFILL
1000
Grayscale
1000
Grayscale
1070
   100
1002
}
  0
LINE
  5
7CEA
  8
YODOROGO
 10
27937.604341291921
 20
1884.568348936298
 30
0.0
 11
27905.604341291921
 21
1884.5683489363
 31
0.0
1001
AUTOCAD_POSTSCRIPT_FIGURE
1002
{
1000
PSFILL
1000
Grayscale
1000
Grayscale
1070
   100
1002
}
  0
LINE
  5
7CEB
  8
YODOROGO
 10
27937.604341291921
 20
1900.5683489363
 30
0.0
 11
27937.604341291921
 21
1884.568348936298
 31
0.0
1001
AUTOCAD_POSTSCRIPT_FIGURE
1002
{
1000
PSFILL
1000
Grayscale
1000
Grayscale
1070
   100
1002
}
  0
LINE
  5
7CEC
  8
YODOROGO
 10
27905.604341291921
 20
1900.5683489363
 30
0.0
 11
27937.604341291921
 21
1900.5683489363
 31
0.0
1001
AUTOCAD_POSTSCRIPT_FIGURE
1002
{
1000
PSFILL
1000
Grayscale
1000
Grayscale
1070
   100
1002
}
  0
LINE
  5
7CED
  8
YODOROGO
 10
27905.604341291921
 20
1939.749496429288
 30
0.0
 11
27905.604341291921
 21
1900.5683489363
 31
0.0
1001
AUTOCAD_POSTSCRIPT_FIGURE
1002
{
1000
PSFILL
1000
Grayscale
1000
Grayscale
1070
   100
1002
}
  0
LINE
  5
7CEE
  8
YODOROGO
 10
27937.604341291921
 20
1939.749496429288
 30
0.0
 11
27905.604341291921
 21
1939.749496429288
 31
0.0
1001
AUTOCAD_POSTSCRIPT_FIGURE
1002
{
1000
PSFILL
1000
Grayscale
1000
Grayscale
1070
   100
1002
}
  0
LINE
  5
7CEF
  8
YODOROGO
 10
27937.604341291921
 20
1955.7494964292871
 30
0.0
 11
27937.604341291921
 21
1939.749496429288
 31
0.0
1001
AUTOCAD_POSTSCRIPT_FIGURE
1002
{
1000
PSFILL
1000
Grayscale
1000
Grayscale
1070
   100
1002
}
  0
LINE
  5
7CF0
  8
YODOROGO
 10
27905.604341291921
 20
1955.7494964292871
 30
0.0
 11
27937.604341291921
 21
1955.7494964292871
 31
0.0
1001
AUTOCAD_POSTSCRIPT_FIGURE
1002
{
1000
PSFILL
1000
Grayscale
1000
Grayscale
1070
   100
1002
}
  0
LINE
  5
7CF1
  8
YODOROGO
 10
27905.604341291921
 20
1979.749496429288
 30
0.0
 11
27905.604341291921
 21
1955.7494964292871
 31
0.0
1001
AUTOCAD_POSTSCRIPT_FIGURE
1002
{
1000
PSFILL
1000
Grayscale
1000
Grayscale
1070
   100
1002
}
  0
LINE
  5
7CF2
  8
YODOROGO
 10
27889.604341291921
 20
1979.749496429288
 30
0.0
 11
27905.604341291921
 21
1979.749496429288
 31
0.0
1001
AUTOCAD_POSTSCRIPT_FIGURE
1002
{
1000
PSFILL
1000
Grayscale
1000
Grayscale
1070
   100
1002
}
  0
LINE
  5
7CF3
  8
YODOROGO
 10
27889.604341291921
 20
1955.7494964292871
 30
0.0
 11
27889.604341291921
 21
1979.749496429288
 31
0.0
1001
AUTOCAD_POSTSCRIPT_FIGURE
1002
{
1000
PSFILL
1000
Grayscale
1000
Grayscale
1070
   100
1002
}
  0
LINE
  5
7CF4
  8
YODOROGO
 10
27865.604341291921
 20
1955.7494964292871
 30
0.0
 11
27889.604341291921
 21
1955.7494964292871
 31
0.0
1001
AUTOCAD_POSTSCRIPT_FIGURE
1002
{
1000
PSFILL
1000
Grayscale
1000
Grayscale
1070
   100
1002
}
  0
LINE
  5
7CF5
  8
YODOROGO
 10
27865.604341291921
 20
1979.749496429288
 30
0.0
 11
27865.604341291921
 21
1955.7494964292871
 31
0.0
1001
AUTOCAD_POSTSCRIPT_FIGURE
1002
{
1000
PSFILL
1000
Grayscale
1000
Grayscale
1070
   100
1002
}
  0
LINE
  5
7CF6
  8
YODOROGO
 10
27849.604341291921
 20
1979.749496429288
 30
0.0
 11
27865.604341291921
 21
1979.749496429288
 31
0.0
1001
AUTOCAD_POSTSCRIPT_FIGURE
1002
{
1000
PSFILL
1000
Grayscale
1000
Grayscale
1070
   100
1002
}
  0
LINE
  5
7CF7
  8
YODOROGO
 10
27849.604341291921
 20
1955.7494964292871
 30
0.0
 11
27849.604341291921
 21
1979.749496429288
 31
0.0
1001
AUTOCAD_POSTSCRIPT_FIGURE
1002
{
1000
PSFILL
1000
Grayscale
1000
Grayscale
1070
   100
1002
}
  0
LINE
  5
7CF8
  8
YODOROGO
 10
27817.604341291921
 20
1955.7494964292871
 30
0.0
 11
27849.604341291921
 21
1955.7494964292871
 31
0.0
1001
AUTOCAD_POSTSCRIPT_FIGURE
1002
{
1000
PSFILL
1000
Grayscale
1000
Grayscale
1070
   100
1002
}
  0
LINE
  5
7CF9
  8
YODOROGO
 10
27817.604341291921
 20
1979.749496429288
 30
0.0
 11
27817.604341291921
 21
1955.7494964292871
 31
0.0
1001
AUTOCAD_POSTSCRIPT_FIGURE
1002
{
1000
PSFILL
1000
Grayscale
1000
Grayscale
1070
   100
1002
}
  0
LINE
  5
7CFA
  8
YODOROGO
 10
27801.604341291921
 20
1979.749496429288
 30
0.0
 11
27817.604341291921
 21
1979.749496429288
 31
0.0
1001
AUTOCAD_POSTSCRIPT_FIGURE
1002
{
1000
PSFILL
1000
Grayscale
1000
Grayscale
1070
   100
1002
}
  0
LINE
  5
7CFB
  8
YODOROGO
 10
27801.604341291921
 20
1955.7494964292871
 30
0.0
 11
27801.604341291921
 21
1979.749496429288
 31
0.0
1001
AUTOCAD_POSTSCRIPT_FIGURE
1002
{
1000
PSFILL
1000
Grayscale
1000
Grayscale
1070
   100
1002
}
  0
LINE
  5
7CFC
  8
YODOROGO
 10
27777.604341291921
 20
1955.7494964292871
 30
0.0
 11
27801.604341291921
 21
1955.7494964292871
 31
0.0
1001
AUTOCAD_POSTSCRIPT_FIGURE
1002
{
1000
PSFILL
1000
Grayscale
1000
Grayscale
1070
   100
1002
}
  0
LINE
  5
7CFD
  8
YODOROGO
 10
27777.604341291921
 20
1939.749496429288
 30
0.0
 11
27777.604341291921
 21
1955.7494964292871
 31
0.0
1001
AUTOCAD_POSTSCRIPT_FIGURE
1002
{
1000
PSFILL
1000
Grayscale
1000
Grayscale
1070
   100
1002
}
  0
LINE
  5
7CFE
  8
YODOROGO
 10
27801.604341291921
 20
1939.749496429288
 30
0.0
 11
27777.604341291921
 21
1939.749496429288
 31
0.0
1001
AUTOCAD_POSTSCRIPT_FIGURE
1002
{
1000
PSFILL
1000
Grayscale
1000
Grayscale
1070
   100
1002
}
  0
LINE
  5
7CFF
  8
YODOROGO
 10
27801.604341291921
 20
1914.7865807937051
 30
0.0
 11
27801.604341291921
 21
1939.749496429288
 31
0.0
1001
AUTOCAD_POSTSCRIPT_FIGURE
1002
{
1000
PSFILL
1000
Grayscale
1000
Grayscale
1070
   100
1002
}
  0
LINE
  5
7D00
  8
YODOROGO
 10
27777.604341291921
 20
1859.776747951671
 30
0.0
 11
27801.604341291921
 21
1914.7865807937051
 31
0.0
1001
AUTOCAD_POSTSCRIPT_FIGURE
1002
{
1000
PSFILL
1000
Grayscale
1000
Grayscale
1070
   100
1002
}
  0
LINE
  5
7D01
  8
YODOROGO
 10
27777.604341291921
 20
1843.776747951672
 30
0.0
 11
27777.604341291921
 21
1859.776747951671
 31
0.0
1001
AUTOCAD_POSTSCRIPT_FIGURE
1002
{
1000
PSFILL
1000
Grayscale
1000
Grayscale
1070
   100
1002
}
  0
LINE
  5
7D02
  8
YODOROGO
 10
28257.604341291921
 20
1867.7494964292871
 30
0.0
 11
28401.60434129191
 21
1824.877625640306
 31
0.0
1001
AUTOCAD_POSTSCRIPT_FIGURE
1002
{
1000
PSFILL
1000
Grayscale
1000
Grayscale
1070
   100
1002
}
  0
LINE
  5
7D03
  8
YODOROGO
 10
28401.60434129191
 20
1752.877625640306
 30
0.0
 11
28257.604341291921
 21
1795.7494964292871
 31
0.0
1001
AUTOCAD_POSTSCRIPT_FIGURE
1002
{
1000
PSFILL
1000
Grayscale
1000
Grayscale
1070
   100
1002
}
  0
LINE
  5
7D04
  8
YODOROGO
 10
28401.60434129191
 20
1984.877625640306
 30
0.0
 11
28257.604341291921
 21
2027.749496429288
 31
0.0
1001
AUTOCAD_POSTSCRIPT_FIGURE
1002
{
1000
PSFILL
1000
Grayscale
1000
Grayscale
1070
   100
1002
}
  0
LINE
  5
7D05
  8
YODOROGO
 10
28257.604341291921
 20
1959.749496429288
 30
0.0
 11
28401.60434129191
 21
1916.8776256403071
 31
0.0
1001
AUTOCAD_POSTSCRIPT_FIGURE
1002
{
1000
PSFILL
1000
Grayscale
1000
Grayscale
1070
   100
1002
}
  0
LINE
  5
7D06
  8
YODOROGO
 10
28257.604341291921
 20
1795.7494964292871
 30
0.0
 11
28257.604341291921
 21
1867.7494964292871
 31
0.0
1001
AUTOCAD_POSTSCRIPT_FIGURE
1002
{
1000
PSFILL
1000
Grayscale
1000
Grayscale
1070
   100
1002
}
  0
LINE
  5
7D07
  8
YODOROGO
 10
28257.604341291921
 20
2027.749496429288
 30
0.0
 11
28257.604341291921
 21
1959.749496429288
 31
0.0
1001
AUTOCAD_POSTSCRIPT_FIGURE
1002
{
1000
PSFILL
1000
Grayscale
1000
Grayscale
1070
   100
1002
}
  0
LINE
  5
7D08
  8
YODOROGO
 10
28080.236320206739
 20
1939.749496429288
 30
0.0
 11
28129.60434129191
 21
1747.749496429286
 31
0.0
1001
AUTOCAD_POSTSCRIPT_FIGURE
1002
{
1000
PSFILL
1000
Grayscale
1000
Grayscale
1070
   100
1002
}
  0
LINE
  5
7D09
  8
YODOROGO
 10
27977.604341291921
 20
1939.749496429288
 30
0.0
 11
28080.236320206739
 21
1939.749496429288
 31
0.0
1001
AUTOCAD_POSTSCRIPT_FIGURE
1002
{
1000
PSFILL
1000
Grayscale
1000
Grayscale
1070
   100
1002
}
  0
LINE
  5
7D0A
  8
YODOROGO
 10
27977.604341291921
 20
1955.7494964292871
 30
0.0
 11
27977.604341291921
 21
1939.749496429288
 31
0.0
1001
AUTOCAD_POSTSCRIPT_FIGURE
1002
{
1000
PSFILL
1000
Grayscale
1000
Grayscale
1070
   100
1002
}
  0
LINE
  5
7D0B
  8
YODOROGO
 10
28076.60687851991
 20
1955.7494964292871
 30
0.0
 11
27977.604341291921
 21
1955.7494964292871
 31
0.0
1001
AUTOCAD_POSTSCRIPT_FIGURE
1002
{
1000
PSFILL
1000
Grayscale
1000
Grayscale
1070
   100
1002
}
  0
LINE
  5
7D0C
  8
YODOROGO
 10
28071.162715989711
 20
1979.749496429288
 30
0.0
 11
28076.60687851991
 21
1955.7494964292871
 31
0.0
1001
AUTOCAD_POSTSCRIPT_FIGURE
1002
{
1000
PSFILL
1000
Grayscale
1000
Grayscale
1070
   100
1002
}
  0
LINE
  5
7D0D
  8
YODOROGO
 10
28091.162715989711
 20
1979.749496429288
 30
0.0
 11
28071.162715989711
 21
1979.749496429288
 31
0.0
1001
AUTOCAD_POSTSCRIPT_FIGURE
1002
{
1000
PSFILL
1000
Grayscale
1000
Grayscale
1070
   100
1002
}
  0
LINE
  5
7D0E
  8
YODOROGO
 10
28095.806878519939
 20
1955.7494964292871
 30
0.0
 11
28091.162715989711
 21
1979.749496429288
 31
0.0
1001
AUTOCAD_POSTSCRIPT_FIGURE
1002
{
1000
PSFILL
1000
Grayscale
1000
Grayscale
1070
   100
1002
}
  0
LINE
  5
7D0F
  8
YODOROGO
 10
28121.604341291921
 20
1955.7494964292871
 30
0.0
 11
28095.806878519939
 21
1955.7494964292871
 31
0.0
1001
AUTOCAD_POSTSCRIPT_FIGURE
1002
{
1000
PSFILL
1000
Grayscale
1000
Grayscale
1070
   100
1002
}
  0
LINE
  5
7D10
  8
YODOROGO
 10
28121.604341291921
 20
1979.749496429288
 30
0.0
 11
28121.604341291921
 21
1955.7494964292871
 31
0.0
1001
AUTOCAD_POSTSCRIPT_FIGURE
1002
{
1000
PSFILL
1000
Grayscale
1000
Grayscale
1070
   100
1002
}
  0
LINE
  5
7D11
  8
YODOROGO
 10
28137.604341291921
 20
1979.749496429288
 30
0.0
 11
28121.604341291921
 21
1979.749496429288
 31
0.0
1001
AUTOCAD_POSTSCRIPT_FIGURE
1002
{
1000
PSFILL
1000
Grayscale
1000
Grayscale
1070
   100
1002
}
  0
LINE
  5
7D12
  8
YODOROGO
 10
28137.604341291921
 20
1955.7494964292871
 30
0.0
 11
28137.604341291921
 21
1979.749496429288
 31
0.0
1001
AUTOCAD_POSTSCRIPT_FIGURE
1002
{
1000
PSFILL
1000
Grayscale
1000
Grayscale
1070
   100
1002
}
  0
LINE
  5
7D13
  8
YODOROGO
 10
28137.604341291921
 20
1939.749496429288
 30
0.0
 11
28137.604341291921
 21
1955.7494964292871
 31
0.0
1001
AUTOCAD_POSTSCRIPT_FIGURE
1002
{
1000
PSFILL
1000
Grayscale
1000
Grayscale
1070
   100
1002
}
  0
LINE
  5
7D14
  8
YODOROGO
 10
28098.902986873411
 20
1939.749496429288
 30
0.0
 11
28137.604341291921
 21
1939.749496429288
 31
0.0
1001
AUTOCAD_POSTSCRIPT_FIGURE
1002
{
1000
PSFILL
1000
Grayscale
1000
Grayscale
1070
   100
1002
}
  0
LINE
  5
7D15
  8
YODOROGO
 10
28137.604341291921
 20
1747.749496429286
 30
0.0
 11
28098.902986873411
 21
1939.749496429288
 31
0.0
1001
AUTOCAD_POSTSCRIPT_FIGURE
1002
{
1000
PSFILL
1000
Grayscale
1000
Grayscale
1070
   100
1002
}
  0
LINE
  5
7D16
  8
YODOROGO
 10
28129.60434129191
 20
1747.749496429286
 30
0.0
 11
28137.604341291921
 21
1747.749496429286
 31
0.0
1001
AUTOCAD_POSTSCRIPT_FIGURE
1002
{
1000
PSFILL
1000
Grayscale
1000
Grayscale
1070
   100
1002
}
  0
LINE
  5
7D17
  8
YODOROGO
 10
28078.06921993379
 20
1775.7407762987939
 30
0.0
 11
27977.604341291921
 21
1747.749496429286
 31
0.0
  0
LINE
  5
7D18
  8
YODOROGO
 10
28078.06921993379
 20
1798.6689795290731
 30
0.0
 11
28078.06921993379
 21
1775.7407762987939
 31
0.0
  0
LINE
  5
7D19
  8
YODOROGO
 10
28033.83678061287
 20
1786.816933133767
 30
0.0
 11
28078.06921993379
 21
1798.6689795290731
 31
0.0
  0
LINE
  5
7D1A
  8
YODOROGO
 10
28033.83678061287
 20
1872.5683489362989
 30
0.0
 11
28033.83678061287
 21
1786.816933133767
 31
0.0
  0
LINE
  5
7D1B
  8
YODOROGO
 10
28078.06921993379
 20
1872.5683489362989
 30
0.0
 11
28033.83678061287
 21
1872.5683489362989
 31
0.0
  0
LINE
  5
7D1C
  8
YODOROGO
 10
28078.06921993379
 20
1892.568348936298
 30
0.0
 11
28078.06921993379
 21
1872.5683489362989
 31
0.0
  0
LINE
  5
7D1D
  8
YODOROGO
 10
27977.604341291921
 20
1892.568348936298
 30
0.0
 11
28078.06921993379
 21
1892.568348936298
 31
0.0
  0
LINE
  5
7D1E
  8
YODOROGO
 10
27977.604341291921
 20
1872.5683489362989
 30
0.0
 11
27977.604341291921
 21
1892.568348936298
 31
0.0
  0
LINE
  5
7D1F
  8
YODOROGO
 10
28021.836780612852
 20
1872.5683489362989
 30
0.0
 11
27977.604341291921
 21
1872.5683489362989
 31
0.0
  0
LINE
  5
7D20
  8
YODOROGO
 10
28021.836780612852
 20
1784.673339594317
 30
0.0
 11
28021.836780612852
 21
1872.5683489362989
 31
0.0
  0
LINE
  5
7D21
  8
YODOROGO
 10
27977.604341291921
 20
1771.749496429286
 30
0.0
 11
28021.836780612852
 21
1784.673339594317
 31
0.0
  0
LINE
  5
7D22
  8
YODOROGO
 10
27977.604341291921
 20
1747.749496429286
 30
0.0
 11
27977.604341291921
 21
1771.749496429286
 31
0.0
  0
LINE
  5
7D23
  8
YODOROGO
 10
28001.604341291921
 20
1707.749496429288
 30
0.0
 11
28001.604341291921
 21
1683.7494964292871
 31
0.0
  0
LINE
  5
7D24
  8
YODOROGO
 10
28017.604341291921
 20
1707.749496429288
 30
0.0
 11
28001.604341291921
 21
1707.749496429288
 31
0.0
  0
LINE
  5
7D25
  8
YODOROGO
 10
28017.604341291921
 20
1683.7494964292871
 30
0.0
 11
28017.604341291921
 21
1707.749496429288
 31
0.0
  0
LINE
  5
7D26
  8
YODOROGO
 10
28040.913204016892
 20
1683.7494964292871
 30
0.0
 11
28017.604341291921
 21
1683.7494964292871
 31
0.0
  0
LINE
  5
7D27
  8
YODOROGO
 10
28001.604341291921
 20
1683.7494964292871
 30
0.0
 11
27977.604341291921
 21
1683.7494964292871
 31
0.0
  0
LINE
  5
7D28
  8
YODOROGO
 10
28082.135520230921
 20
1707.749496429288
 30
0.0
 11
28098.135520230931
 21
1707.749496429288
 31
0.0
1001
AUTOCAD_POSTSCRIPT_FIGURE
1002
{
1000
PSFILL
1000
Grayscale
1000
Grayscale
1070
   100
1002
}
  0
LINE
  5
7D29
  8
YODOROGO
 10
28401.60434129191
 20
1824.877625640306
 30
0.0
 11
28401.60434129191
 21
1752.877625640306
 31
0.0
1001
AUTOCAD_POSTSCRIPT_FIGURE
1002
{
1000
PSFILL
1000
Grayscale
1000
Grayscale
1070
   100
1002
}
  0
LINE
  5
7D2A
  8
YODOROGO
 10
28401.60434129191
 20
1916.8776256403071
 30
0.0
 11
28401.60434129191
 21
1984.877625640306
 31
0.0
1001
AUTOCAD_POSTSCRIPT_FIGURE
1002
{
1000
PSFILL
1000
Grayscale
1000
Grayscale
1070
   100
1002
}
  0
LINE
  5
7D2B
  8
YODOROGO
 10
28433.60434129191
 20
1819.7494964292871
 30
0.0
 11
28433.60434129191
 21
1747.74949642929
 31
0.0
  0
LINE
  5
7D2C
  8
YODOROGO
 10
28497.60434129191
 20
1707.749496429288
 30
0.0
 11
28433.60434129191
 21
1707.749496429288
 31
0.0
  0
LINE
  5
7D2D
  8
YODOROGO
 10
28433.60434129191
 20
1747.74949642929
 30
0.0
 11
28585.604341291921
 21
1747.74949642929
 31
0.0
  0
LINE
  5
7D2E
  8
YODOROGO
 10
28497.60434129191
 20
1867.7494964292871
 30
0.0
 11
28433.60434129191
 21
1867.7494964292871
 31
0.0
  0
LINE
  5
7D2F
  8
YODOROGO
 10
28497.60434129191
 20
1923.7494964292871
 30
0.0
 11
28497.60434129191
 21
1867.7494964292871
 31
0.0
  0
LINE
  5
7D30
  8
YODOROGO
 10
28585.604341291921
 20
1987.7494964292871
 30
0.0
 11
28585.604341291921
 21
2027.749496429288
 31
0.0
  0
LINE
  5
7D31
  8
YODOROGO
 10
28433.60434129191
 20
1987.7494964292871
 30
0.0
 11
28585.604341291921
 21
1987.7494964292871
 31
0.0
  0
LINE
  5
7D32
  8
YODOROGO
 10
28433.60434129191
 20
1867.7494964292871
 30
0.0
 11
28433.60434129191
 21
1987.7494964292871
 31
0.0
  0
LINE
  5
7D33
  8
YODOROGO
 10
29001.60434129191
 20
2027.749496429288
 30
0.0
 11
29001.60434129191
 21
1619.749496429288
 31
0.0
  0
LINE
  5
7D34
  8
YODOROGO
 10
29073.604341291921
 20
1579.749496429288
 30
0.0
 11
29073.604341291921
 21
2027.749496429288
 31
0.0
  0
LINE
  5
7D35
  8
YODOROGO
 10
29261.604341291921
 20
1491.749496429286
 30
0.0
 11
29261.604341291921
 21
2007.749496429288
 31
0.0
  0
LINE
  5
7D36
  8
YODOROGO
 10
29197.604341291921
 20
2007.749496429288
 30
0.0
 11
29197.604341291921
 21
1491.749496429286
 31
0.0
  0
LINE
  5
7D37
  8
YODOROGO
 10
29385.604341291921
 20
2027.749496429288
 30
0.0
 11
29385.604341291921
 21
1427.749496429288
 31
0.0
  0
LINE
  5
7D38
  8
YODOROGO
 10
29457.604341291921
 20
1427.749496429288
 30
0.0
 11
29457.604341291921
 21
2027.749496429288
 31
0.0
  0
LINE
  5
7D39
  8
YODOROGO
 10
28657.604341291921
 20
1667.749496429288
 30
0.0
 11
28657.604341291921
 21
1747.74949642929
 31
0.0
  0
LINE
  5
7D3A
  8
YODOROGO
 10
29885.604341291921
 20
1707.749496429288
 30
0.0
 11
29885.604341291921
 21
1667.749496429288
 31
0.0
  0
LINE
  5
7D3B
  8
YODOROGO
 10
29885.604341291921
 20
1707.749496429288
 30
0.0
 11
29885.604341291921
 21
1667.749496429288
 31
0.0
  0
ARC
  5
7D3C
  8
YODOROGO
 10
28906.911576186842
 20
1618.217864442272
 30
0.0
 40
94.705151178741644
 50
274.05244162907098
 51
0.9266642149310712
  0
ARC
  5
7D3D
  8
YODOROGO
 10
28909.186170719819
 20
1592.61072861044
 30
0.0
 40
164.92042356085511
 50
271.5351210653775
 51
355.52727750585052
  0
LINE
  5
7D3E
  8
YODOROGO
 10
28913.604341291921
 20
1523.7494964292871
 30
0.0
 11
28913.604341291921
 21
1427.749496429288
 31
0.0
  0
LINE
  5
7D3F
  8
YODOROGO
 10
28793.60434129191
 20
1667.749496429288
 30
0.0
 11
28657.604341291921
 21
1667.749496429288
 31
0.0
  0
LINE
  5
7D40
  8
YODOROGO
 10
28793.60434129191
 20
1603.7494964292871
 30
0.0
 11
28793.60434129191
 21
1667.749496429288
 31
0.0
  0
LINE
  5
7D41
  8
YODOROGO
 10
28657.604341291921
 20
1603.7494964292871
 30
0.0
 11
28793.60434129191
 21
1603.7494964292871
 31
0.0
  0
LINE
  5
7D42
  8
YODOROGO
 10
28657.604341291921
 20
1523.7494964292871
 30
0.0
 11
28657.604341291921
 21
1603.7494964292871
 31
0.0
  0
LINE
  5
7D43
  8
YODOROGO
 10
28793.60434129191
 20
1523.7494964292871
 30
0.0
 11
28657.604341291921
 21
1523.7494964292871
 31
0.0
  0
LINE
  5
7D44
  8
YODOROGO
 10
28793.60434129191
 20
1427.749496429288
 30
0.0
 11
28793.60434129191
 21
1523.7494964292871
 31
0.0
  0
LINE
  5
7D45
  8
YODOROGO
 10
29197.604341291921
 20
1491.749496429286
 30
0.0
 11
29261.604341291921
 21
1491.749496429286
 31
0.0
  0
LINE
  5
7D46
  8
YODOROGO
 10
29385.604341291921
 20
1427.749496429288
 30
0.0
 11
29457.604341291921
 21
1427.749496429288
 31
0.0
  0
LINE
  5
7D47
  8
YODOROGO
 10
29737.604341291921
 20
1528.4414521705639
 30
0.0
 11
29737.604341291921
 21
1427.749496429288
 31
0.0
  0
LINE
  5
7D48
  8
YODOROGO
 10
29617.604341291921
 20
1427.749496429288
 30
0.0
 11
29737.604341291921
 21
1528.4414521705639
 31
0.0
  0
LINE
  5
7D49
  8
YODOROGO
 10
29617.604341291921
 20
1547.749496429288
 30
0.0
 11
29617.604341291921
 21
1427.749496429288
 31
0.0
  0
LINE
  5
7D4A
  8
YODOROGO
 10
29712.94462869945
 20
1627.749496429288
 30
0.0
 11
29617.604341291921
 21
1547.749496429288
 31
0.0
  0
LINE
  5
7D4B
  8
YODOROGO
 10
29617.604341291921
 20
1627.749496429288
 30
0.0
 11
29712.94462869945
 21
1627.749496429288
 31
0.0
  0
LINE
  5
7D4C
  8
YODOROGO
 10
29617.604341291921
 20
1667.749496429288
 30
0.0
 11
29617.604341291921
 21
1627.749496429288
 31
0.0
  0
LINE
  5
7D4D
  8
YODOROGO
 10
29885.604341291921
 20
1667.749496429288
 30
0.0
 11
29617.604341291921
 21
1667.749496429288
 31
0.0
  0
LINE
  5
7D4E
  8
YODOROGO
 10
29917.604341291921
 20
1627.749496429288
 30
0.0
 11
29777.604341291921
 21
1627.749496429288
 31
0.0
  0
LINE
  5
7D4F
  8
YODOROGO
 10
29777.604341291921
 20
1562.0054374176559
 30
0.0
 11
29771.409872985321
 21
1556.807661346234
 31
0.0
  0
LINE
  5
7D50
  8
YODOROGO
 10
29777.604341291921
 20
1627.749496429288
 30
0.0
 11
29777.604341291921
 21
1562.0054374176559
 31
0.0
  0
LINE
  5
7D51
  8
YODOROGO
 10
29737.604341291921
 20
1528.4414521705639
 30
0.0
 11
29737.604341291921
 21
1427.749496429288
 31
0.0
  0
LINE
  5
7D52
  8
YODOROGO
 10
29617.604341291921
 20
1427.749496429288
 30
0.0
 11
29737.604341291921
 21
1528.4414521705639
 31
0.0
  0
LINE
  5
7D53
  8
YODOROGO
 10
29617.604341291921
 20
1547.749496429288
 30
0.0
 11
29617.604341291921
 21
1427.749496429288
 31
0.0
  0
LINE
  5
7D54
  8
YODOROGO
 10
29712.94462869945
 20
1627.749496429288
 30
0.0
 11
29617.604341291921
 21
1547.749496429288
 31
0.0
  0
LINE
  5
7D55
  8
YODOROGO
 10
29617.604341291921
 20
1627.749496429288
 30
0.0
 11
29712.94462869945
 21
1627.749496429288
 31
0.0
  0
LINE
  5
7D56
  8
YODOROGO
 10
29617.604341291921
 20
1667.749496429288
 30
0.0
 11
29617.604341291921
 21
1627.749496429288
 31
0.0
  0
LINE
  5
7D57
  8
YODOROGO
 10
29885.604341291921
 20
1667.749496429288
 30
0.0
 11
29617.604341291921
 21
1667.749496429288
 31
0.0
  0
LINE
  5
7D58
  8
YODOROGO
 10
28793.60434129191
 20
1747.74949642929
 30
0.0
 11
28793.60434129191
 21
1819.7494964292871
 31
0.0
  0
LINE
  5
7D59
  8
YODOROGO
 10
28657.604341291921
 20
1747.74949642929
 30
0.0
 11
28793.60434129191
 21
1747.74949642929
 31
0.0
  0
LINE
  5
7D5A
  8
YODOROGO
 10
28729.604341291921
 20
1867.7494964292871
 30
0.0
 11
28729.604341291921
 21
1923.7494964292871
 31
0.0
  0
LINE
  5
7D5B
  8
YODOROGO
 10
28793.60434129191
 20
1867.7494964292871
 30
0.0
 11
28729.604341291921
 21
1867.7494964292871
 31
0.0
  0
LINE
  5
7D5C
  8
YODOROGO
 10
28793.60434129191
 20
1947.749496429288
 30
0.0
 11
28793.60434129191
 21
1867.7494964292871
 31
0.0
  0
ARC
  5
7D5D
  8
YODOROGO
 10
28753.60434129191
 20
1947.749496429288
 30
0.0
 40
40.0
 50
0.0
 51
90.0
  0
LINE
  5
7D5E
  8
YODOROGO
 10
28657.604341291921
 20
1987.7494964292871
 30
0.0
 11
28753.60434129191
 21
1987.7494964292871
 31
0.0
  0
LINE
  5
7D5F
  8
YODOROGO
 10
28657.604341291921
 20
2027.749496429288
 30
0.0
 11
28657.604341291921
 21
1987.7494964292871
 31
0.0
  0
LINE
  5
7D60
  8
YODOROGO
 10
29073.604341291921
 20
2027.749496429288
 30
0.0
 11
29001.60434129191
 21
2027.749496429288
 31
0.0
  0
LINE
  5
7D61
  8
YODOROGO
 10
29261.604341291921
 20
2007.749496429288
 30
0.0
 11
29197.604341291921
 21
2007.749496429288
 31
0.0
  0
LINE
  5
7D62
  8
YODOROGO
 10
29457.604341291921
 20
2027.749496429288
 30
0.0
 11
29385.604341291921
 21
2027.749496429288
 31
0.0
  0
LINE
  5
7D63
  8
YODOROGO
 10
29673.604341291921
 20
1707.749496429288
 30
0.0
 11
29673.604341291921
 21
1771.7494964292871
 31
0.0
1001
AUTOCAD_POSTSCRIPT_FIGURE
1002
{
1000
PSFILL
1000
Grayscale
1000
Grayscale
1070
    25
1002
}
  0
LINE
  5
7D64
  8
YODOROGO
 10
29617.604341291921
 20
1707.749496429288
 30
0.0
 11
29673.604341291921
 21
1707.749496429288
 31
0.0
1001
AUTOCAD_POSTSCRIPT_FIGURE
1002
{
1000
PSFILL
1000
Grayscale
1000
Grayscale
1070
    25
1002
}
  0
LINE
  5
7D65
  8
YODOROGO
 10
29617.604341291921
 20
1819.7494964292871
 30
0.0
 11
29617.604341291921
 21
1707.749496429288
 31
0.0
1001
AUTOCAD_POSTSCRIPT_FIGURE
1002
{
1000
PSFILL
1000
Grayscale
1000
Grayscale
1070
    25
1002
}
  0
LINE
  5
7D66
  8
YODOROGO
 10
29765.604341291921
 20
1819.7494964292871
 30
0.0
 11
29617.604341291921
 21
1819.7494964292871
 31
0.0
1001
AUTOCAD_POSTSCRIPT_FIGURE
1002
{
1000
PSFILL
1000
Grayscale
1000
Grayscale
1070
    25
1002
}
  0
LINE
  5
7D67
  8
YODOROGO
 10
29765.604341291921
 20
1859.749496429288
 30
0.0
 11
29765.604341291921
 21
1819.7494964292871
 31
0.0
1001
AUTOCAD_POSTSCRIPT_FIGURE
1002
{
1000
PSFILL
1000
Grayscale
1000
Grayscale
1070
    25
1002
}
  0
LINE
  5
7D68
  8
YODOROGO
 10
29617.604341291921
 20
1859.749496429288
 30
0.0
 11
29765.604341291921
 21
1859.749496429288
 31
0.0
1001
AUTOCAD_POSTSCRIPT_FIGURE
1002
{
1000
PSFILL
1000
Grayscale
1000
Grayscale
1070
    25
1002
}
  0
LINE
  5
7D69
  8
YODOROGO
 10
29617.604341291921
 20
1907.7494964292871
 30
0.0
 11
29617.604341291921
 21
1859.749496429288
 31
0.0
1001
AUTOCAD_POSTSCRIPT_FIGURE
1002
{
1000
PSFILL
1000
Grayscale
1000
Grayscale
1070
    25
1002
}
  0
LINE
  5
7D6A
  8
YODOROGO
 10
29765.604341291921
 20
1907.7494964292871
 30
0.0
 11
29617.604341291921
 21
1907.7494964292871
 31
0.0
1001
AUTOCAD_POSTSCRIPT_FIGURE
1002
{
1000
PSFILL
1000
Grayscale
1000
Grayscale
1070
    25
1002
}
  0
LINE
  5
7D6B
  8
YODOROGO
 10
29765.604341291921
 20
1947.749496429288
 30
0.0
 11
29765.604341291921
 21
1907.7494964292871
 31
0.0
1001
AUTOCAD_POSTSCRIPT_FIGURE
1002
{
1000
PSFILL
1000
Grayscale
1000
Grayscale
1070
    25
1002
}
  0
LINE
  5
7D6C
  8
YODOROGO
 10
29617.604341291921
 20
1947.749496429288
 30
0.0
 11
29765.604341291921
 21
1947.749496429288
 31
0.0
1001
AUTOCAD_POSTSCRIPT_FIGURE
1002
{
1000
PSFILL
1000
Grayscale
1000
Grayscale
1070
    25
1002
}
  0
LINE
  5
7D6D
  8
YODOROGO
 10
29617.604341291921
 20
2027.749496429288
 30
0.0
 11
29617.604341291921
 21
1947.749496429288
 31
0.0
1001
AUTOCAD_POSTSCRIPT_FIGURE
1002
{
1000
PSFILL
1000
Grayscale
1000
Grayscale
1070
    25
1002
}
  0
LINE
  5
7D6E
  8
YODOROGO
 10
29665.604341291921
 20
2027.749496429288
 30
0.0
 11
29617.604341291921
 21
2027.749496429288
 31
0.0
1001
AUTOCAD_POSTSCRIPT_FIGURE
1002
{
1000
PSFILL
1000
Grayscale
1000
Grayscale
1070
    25
1002
}
  0
LINE
  5
7D6F
  8
YODOROGO
 10
29665.604341291921
 20
1995.7494964292871
 30
0.0
 11
29665.604341291921
 21
2027.749496429288
 31
0.0
1001
AUTOCAD_POSTSCRIPT_FIGURE
1002
{
1000
PSFILL
1000
Grayscale
1000
Grayscale
1070
    25
1002
}
  0
LINE
  5
7D70
  8
YODOROGO
 10
29765.604341291921
 20
1995.7494964292871
 30
0.0
 11
29665.604341291921
 21
1995.7494964292871
 31
0.0
1001
AUTOCAD_POSTSCRIPT_FIGURE
1002
{
1000
PSFILL
1000
Grayscale
1000
Grayscale
1070
    25
1002
}
  0
LINE
  5
7D71
  8
YODOROGO
 10
29765.604341291921
 20
2027.749496429288
 30
0.0
 11
29765.604341291921
 21
1995.7494964292871
 31
0.0
1001
AUTOCAD_POSTSCRIPT_FIGURE
1002
{
1000
PSFILL
1000
Grayscale
1000
Grayscale
1070
    25
1002
}
  0
LINE
  5
7D72
  8
YODOROGO
 10
29829.604341291921
 20
2027.749496429288
 30
0.0
 11
29765.604341291921
 21
2027.749496429288
 31
0.0
1001
AUTOCAD_POSTSCRIPT_FIGURE
1002
{
1000
PSFILL
1000
Grayscale
1000
Grayscale
1070
    25
1002
}
  0
LINE
  5
7D73
  8
YODOROGO
 10
29829.604341291921
 20
1995.7494964292871
 30
0.0
 11
29829.604341291921
 21
2027.749496429288
 31
0.0
1001
AUTOCAD_POSTSCRIPT_FIGURE
1002
{
1000
PSFILL
1000
Grayscale
1000
Grayscale
1070
    25
1002
}
  0
LINE
  5
7D74
  8
YODOROGO
 10
29829.604341291921
 20
1907.7494964292871
 30
0.0
 11
29829.604341291921
 21
1947.749496429288
 31
0.0
1001
AUTOCAD_POSTSCRIPT_FIGURE
1002
{
1000
PSFILL
1000
Grayscale
1000
Grayscale
1070
    25
1002
}
  0
LINE
  5
7D75
  8
YODOROGO
 10
29829.604341291921
 20
1819.7494964292871
 30
0.0
 11
29829.604341291921
 21
1859.749496429288
 31
0.0
1001
AUTOCAD_POSTSCRIPT_FIGURE
1002
{
1000
PSFILL
1000
Grayscale
1000
Grayscale
1070
    25
1002
}
  0
LINE
  5
7D76
  8
YODOROGO
 10
29921.60434129191
 20
1771.7494964292871
 30
0.0
 11
29921.60434129191
 21
1707.749496429288
 31
0.0
1001
AUTOCAD_POSTSCRIPT_FIGURE
1002
{
1000
PSFILL
1000
Grayscale
1000
Grayscale
1070
    25
1002
}
  0
LINE
  5
7D77
  8
YODOROGO
 10
29829.604341291921
 20
1771.7494964292871
 30
0.0
 11
29921.60434129191
 21
1771.7494964292871
 31
0.0
1001
AUTOCAD_POSTSCRIPT_FIGURE
1002
{
1000
PSFILL
1000
Grayscale
1000
Grayscale
1070
    25
1002
}
  0
LINE
  5
7D78
  8
YODOROGO
 10
29829.604341291921
 20
1707.749496429288
 30
0.0
 11
29829.604341291921
 21
1771.7494964292871
 31
0.0
1001
AUTOCAD_POSTSCRIPT_FIGURE
1002
{
1000
PSFILL
1000
Grayscale
1000
Grayscale
1070
    25
1002
}
  0
LINE
  5
7D79
  8
YODOROGO
 10
29765.604341291921
 20
1707.749496429288
 30
0.0
 11
29829.604341291921
 21
1707.749496429288
 31
0.0
1001
AUTOCAD_POSTSCRIPT_FIGURE
1002
{
1000
PSFILL
1000
Grayscale
1000
Grayscale
1070
    25
1002
}
  0
LINE
  5
7D7A
  8
YODOROGO
 10
29765.604341291921
 20
1771.7494964292871
 30
0.0
 11
29765.604341291921
 21
1707.749496429288
 31
0.0
1001
AUTOCAD_POSTSCRIPT_FIGURE
1002
{
1000
PSFILL
1000
Grayscale
1000
Grayscale
1070
    25
1002
}
  0
LINE
  5
7D7B
  8
YODOROGO
 10
29673.604341291921
 20
1771.7494964292871
 30
0.0
 11
29765.604341291921
 21
1771.7494964292871
 31
0.0
1001
AUTOCAD_POSTSCRIPT_FIGURE
1002
{
1000
PSFILL
1000
Grayscale
1000
Grayscale
1070
    25
1002
}
  0
ARC
  5
7D7C
  8
YODOROGO
 10
31059.517893357912
 20
1602.6807375155761
 30
0.0
 40
178.22128111072141
 50
281.02627495425338
 51
357.77113575573799
  0
LINE
  5
7D7D
  8
YODOROGO
 10
31413.604341291921
 20
1907.7494964292871
 30
0.0
 11
31165.604341291921
 21
1907.7494964292871
 31
0.0
  0
LINE
  5
7D7E
  8
YODOROGO
 10
31413.604341291921
 20
2027.749496429288
 30
0.0
 11
31165.604341291921
 21
2027.749496429288
 31
0.0
  0
LINE
  5
7D7F
  8
YODOROGO
 10
31165.604341291921
 20
1963.749496429286
 30
0.0
 11
31413.604341291921
 21
1963.749496429286
 31
0.0
  0
LINE
  5
7D80
  8
YODOROGO
 10
30791.604341291921
 20
1563.7494964292871
 30
0.0
 11
30791.604341291921
 21
1755.7494964292871
 31
0.0
  0
LINE
  5
7D81
  8
YODOROGO
 10
30763.604341291921
 20
1691.749496429288
 30
0.0
 11
30763.604341291921
 21
1563.7494964292871
 31
0.0
  0
LINE
  5
7D82
  8
YODOROGO
 10
30723.604341291921
 20
1491.749496429288
 30
0.0
 11
30723.604341291921
 21
1691.749496429288
 31
0.0
  0
LINE
  5
7D83
  8
YODOROGO
 10
30899.604341291932
 20
1691.749496429288
 30
0.0
 11
30899.604341291932
 21
1491.749496429288
 31
0.0
  0
LINE
  5
7D84
  8
YODOROGO
 10
30859.604341291932
 20
1563.7494964292871
 30
0.0
 11
30859.604341291932
 21
1691.749496429288
 31
0.0
  0
LINE
  5
7D85
  8
YODOROGO
 10
30831.604341291921
 20
1755.7494964292871
 30
0.0
 11
30831.604341291921
 21
1563.7494964292871
 31
0.0
  0
LINE
  5
7D86
  8
YODOROGO
 10
30973.604341291921
 20
2027.749496429288
 30
0.0
 11
30973.604341291921
 21
1467.749496429288
 31
0.0
  0
LINE
  5
7D87
  8
YODOROGO
 10
30645.604341291921
 20
1427.749496429288
 30
0.0
 11
30645.604341291921
 21
2027.749496429288
 31
0.0
  0
LINE
  5
7D88
  8
YODOROGO
 10
30697.604341291932
 20
1963.749496429286
 30
0.0
 11
30697.604341291932
 21
1427.749496429288
 31
0.0
  0
LINE
  5
7D89
  8
YODOROGO
 10
30925.604341291921
 20
1547.749496429288
 30
0.0
 11
30925.604341291921
 21
1963.749496429286
 31
0.0
  0
LINE
  5
7D8A
  8
YODOROGO
 10
30381.604341291932
 20
1627.749496429288
 30
0.0
 11
30381.604341291932
 21
1679.749496429288
 31
0.0
  0
LINE
  5
7D8B
  8
YODOROGO
 10
30617.604341291921
 20
1679.749496429288
 30
0.0
 11
30617.604341291921
 21
1627.749496429288
 31
0.0
  0
LINE
  5
7D8C
  8
YODOROGO
 10
31165.604341291921
 20
1907.7494964292871
 30
0.0
 11
31165.604341291921
 21
1635.7494964292871
 31
0.0
  0
LINE
  5
7D8D
  8
YODOROGO
 10
29949.60434129191
 20
1667.749496429288
 30
0.0
 11
29949.60434129191
 21
1707.749496429288
 31
0.0
  0
LINE
  5
7D8E
  8
YODOROGO
 10
29949.60434129191
 20
1667.749496429288
 30
0.0
 11
29949.60434129191
 21
1707.749496429288
 31
0.0
  0
ARC
  5
7D8F
  8
YODOROGO
 10
30537.604341291921
 20
1507.749496429288
 30
0.0
 40
80.0
 50
270.0
 51
0.0
  0
LINE
  5
7D90
  8
YODOROGO
 10
30569.604341291921
 20
1599.7494964292871
 30
0.0
 11
30617.604341291921
 21
1599.7494964292871
 31
0.0
  0
LINE
  5
7D91
  8
YODOROGO
 10
30617.604341291921
 20
1627.749496429288
 30
0.0
 11
30529.604341291939
 21
1627.749496429288
 31
0.0
  0
LINE
  5
7D92
  8
YODOROGO
 10
30217.604341291921
 20
1667.749496429288
 30
0.0
 11
29949.60434129191
 21
1667.749496429288
 31
0.0
  0
LINE
  5
7D93
  8
YODOROGO
 10
30217.604341291921
 20
1627.749496429288
 30
0.0
 11
30217.604341291921
 21
1667.749496429288
 31
0.0
  0
LINE
  5
7D94
  8
YODOROGO
 10
30017.604341291921
 20
1627.749496429288
 30
0.0
 11
30217.604341291921
 21
1627.749496429288
 31
0.0
  0
ARC
  5
7D95
  8
YODOROGO
 10
30230.05882870136
 20
1868.885714952901
 30
0.0
 40
321.37763628522822
 50
228.6181454618993
 51
245.660289248906
  0
LINE
  5
7D96
  8
YODOROGO
 10
30105.604341291921
 20
1603.7494964292871
 30
0.0
 11
30097.60434129195
 21
1576.0728158699001
 31
0.0
  0
LINE
  5
7D97
  8
YODOROGO
 10
30189.604341291921
 20
1603.7494964292871
 30
0.0
 11
30105.604341291921
 21
1603.7494964292871
 31
0.0
  0
LINE
  5
7D98
  8
YODOROGO
 10
30177.604341291921
 20
1551.817722473427
 30
0.0
 11
30189.604341291921
 21
1603.7494964292871
 31
0.0
  0
ARC
  5
7D99
  8
YODOROGO
 10
30230.05882870045
 20
1868.885714953002
 30
0.0
 40
321.37763628529081
 50
260.60629297969911
 51
267.77903556555862
  0
LINE
  5
7D9A
  8
YODOROGO
 10
30217.604341291921
 20
1427.749496429285
 30
0.0
 11
30217.604341291921
 21
1547.749496429288
 31
0.0
  0
LINE
  5
7D9B
  8
YODOROGO
 10
29937.604341291932
 20
1481.3393349155101
 30
0.0
 11
29937.604341291921
 21
1594.531090531141
 31
0.0
  0
LINE
  5
7D9C
  8
YODOROGO
 10
30217.604341291921
 20
1667.749496429288
 30
0.0
 11
29949.60434129191
 21
1667.749496429288
 31
0.0
  0
LINE
  5
7D9D
  8
YODOROGO
 10
30217.604341291921
 20
1627.749496429288
 30
0.0
 11
30217.604341291921
 21
1667.749496429288
 31
0.0
  0
LINE
  5
7D9E
  8
YODOROGO
 10
30017.604341291921
 20
1627.749496429288
 30
0.0
 11
30217.604341291921
 21
1627.749496429288
 31
0.0
  0
ARC
  5
7D9F
  8
YODOROGO
 10
30230.05882870136
 20
1868.885714952901
 30
0.0
 40
321.37763628522822
 50
228.6181454618993
 51
245.660289248906
  0
LINE
  5
7DA0
  8
YODOROGO
 10
30105.604341291921
 20
1603.7494964292871
 30
0.0
 11
30097.60434129195
 21
1576.0728158699001
 31
0.0
  0
LINE
  5
7DA1
  8
YODOROGO
 10
30189.604341291921
 20
1603.7494964292871
 30
0.0
 11
30105.604341291921
 21
1603.7494964292871
 31
0.0
  0
LINE
  5
7DA2
  8
YODOROGO
 10
30177.604341291921
 20
1551.817722473427
 30
0.0
 11
30189.604341291921
 21
1603.7494964292871
 31
0.0
  0
ARC
  5
7DA3
  8
YODOROGO
 10
30230.05882870045
 20
1868.885714953002
 30
0.0
 40
321.37763628529081
 50
260.60629297969911
 51
267.77903556555862
  0
LINE
  5
7DA4
  8
YODOROGO
 10
30217.604341291921
 20
1427.749496429285
 30
0.0
 11
30217.604341291921
 21
1547.749496429288
 31
0.0
  0
LINE
  5
7DA5
  8
YODOROGO
 10
29937.604341291932
 20
1481.3393349155101
 30
0.0
 11
29937.604341291921
 21
1594.531090531141
 31
0.0
  0
LINE
  5
7DA6
  8
YODOROGO
 10
30433.604341291921
 20
1573.749496429288
 30
0.0
 11
30381.604341291932
 21
1573.749496429288
 31
0.0
  0
LINE
  5
7DA7
  8
YODOROGO
 10
30433.604341291921
 20
1601.749496429285
 30
0.0
 11
30433.604341291921
 21
1573.749496429288
 31
0.0
  0
LINE
  5
7DA8
  8
YODOROGO
 10
30381.604341291932
 20
1601.749496429285
 30
0.0
 11
30433.604341291921
 21
1601.749496429285
 31
0.0
  0
LINE
  5
7DA9
  8
YODOROGO
 10
30381.604341291932
 20
1573.749496429288
 30
0.0
 11
30381.604341291932
 21
1601.749496429285
 31
0.0
  0
LINE
  5
7DAA
  8
YODOROGO
 10
30429.604341291921
 20
1577.7494964292871
 30
0.0
 11
30385.604341291921
 21
1577.7494964292871
 31
0.0
  0
LINE
  5
7DAB
  8
YODOROGO
 10
30429.604341291921
 20
1597.749496429288
 30
0.0
 11
30429.604341291921
 21
1577.7494964292871
 31
0.0
  0
LINE
  5
7DAC
  8
YODOROGO
 10
30385.604341291921
 20
1597.749496429288
 30
0.0
 11
30429.604341291921
 21
1597.749496429288
 31
0.0
  0
LINE
  5
7DAD
  8
YODOROGO
 10
30385.604341291921
 20
1577.7494964292871
 30
0.0
 11
30385.604341291921
 21
1597.749496429288
 31
0.0
  0
LINE
  5
7DAE
  8
YODOROGO
 10
30425.604341291921
 20
1581.749496429286
 30
0.0
 11
30389.604341291921
 21
1581.749496429286
 31
0.0
  0
LINE
  5
7DAF
  8
YODOROGO
 10
30425.604341291921
 20
1593.749496429288
 30
0.0
 11
30425.604341291921
 21
1581.749496429286
 31
0.0
  0
LINE
  5
7DB0
  8
YODOROGO
 10
30389.604341291921
 20
1593.749496429288
 30
0.0
 11
30425.604341291921
 21
1593.749496429288
 31
0.0
  0
LINE
  5
7DB1
  8
YODOROGO
 10
30389.604341291921
 20
1581.749496429286
 30
0.0
 11
30389.604341291921
 21
1593.749496429288
 31
0.0
  0
LINE
  5
7DB2
  8
YODOROGO
 10
30421.604341291932
 20
1585.7494964292871
 30
0.0
 11
30393.604341291921
 21
1585.7494964292871
 31
0.0
  0
LINE
  5
7DB3
  8
YODOROGO
 10
30421.604341291932
 20
1589.749496429288
 30
0.0
 11
30421.604341291932
 21
1585.7494964292871
 31
0.0
  0
LINE
  5
7DB4
  8
YODOROGO
 10
30393.604341291921
 20
1589.749496429288
 30
0.0
 11
30421.604341291932
 21
1589.749496429288
 31
0.0
  0
LINE
  5
7DB5
  8
YODOROGO
 10
30393.604341291921
 20
1585.7494964292871
 30
0.0
 11
30393.604341291921
 21
1589.749496429288
 31
0.0
  0
LINE
  5
7DB6
  8
YODOROGO
 10
30465.604341291921
 20
1627.749496429288
 30
0.0
 11
30381.604341291932
 21
1627.749496429288
 31
0.0
  0
LINE
  5
7DB7
  8
YODOROGO
 10
30465.604341291921
 20
1547.749496429288
 30
0.0
 11
30465.604341291921
 21
1627.749496429288
 31
0.0
  0
LINE
  5
7DB8
  8
YODOROGO
 10
30381.604341291932
 20
1547.749496429288
 30
0.0
 11
30465.604341291921
 21
1547.749496429288
 31
0.0
  0
LINE
  5
7DB9
  8
YODOROGO
 10
30381.604341291932
 20
1427.749496429288
 30
0.0
 11
30381.604341291932
 21
1547.749496429288
 31
0.0
  0
LINE
  5
7DBA
  8
YODOROGO
 10
30537.604341291921
 20
1427.749496429288
 30
0.0
 11
30381.604341291932
 21
1427.749496429288
 31
0.0
  0
LINE
  5
7DBB
  8
YODOROGO
 10
30569.604341291921
 20
1571.749496429285
 30
0.0
 11
30569.604341291921
 21
1599.7494964292871
 31
0.0
  0
ARC
  5
7DBC
  8
YODOROGO
 10
30545.604341291921
 20
1571.749496429291
 30
0.0
 40
24.000000000003752
 50
270.0
 51
359.99999999998772
  0
LINE
  5
7DBD
  8
YODOROGO
 10
30529.604341291939
 20
1547.749496429288
 30
0.0
 11
30545.604341291921
 21
1547.749496429288
 31
0.0
  0
LINE
  5
7DBE
  8
YODOROGO
 10
30529.604341291939
 20
1627.749496429288
 30
0.0
 11
30529.604341291939
 21
1547.749496429288
 31
0.0
  0
LINE
  5
7DBF
  8
YODOROGO
 10
30899.604341291932
 20
1547.749496429288
 30
0.0
 11
30925.604341291921
 21
1547.749496429288
 31
0.0
  0
LINE
  5
7DC0
  8
YODOROGO
 10
30933.604341291921
 20
1427.749496429288
 30
0.0
 11
30899.604341291932
 21
1427.749496429288
 31
0.0
  0
LINE
  5
7DC1
  8
YODOROGO
 10
30763.604341291921
 20
1563.7494964292871
 30
0.0
 11
30791.604341291921
 21
1563.7494964292871
 31
0.0
  0
LINE
  5
7DC2
  8
YODOROGO
 10
30899.604341291932
 20
1491.749496429288
 30
0.0
 11
30723.604341291921
 21
1491.749496429288
 31
0.0
  0
LINE
  5
7DC3
  8
YODOROGO
 10
30831.604341291921
 20
1563.7494964292871
 30
0.0
 11
30859.604341291932
 21
1563.7494964292871
 31
0.0
  0
LINE
  5
7DC4
  8
YODOROGO
 10
30899.604341291932
 20
1427.749496429288
 30
0.0
 11
30899.604341291932
 21
1547.749496429288
 31
0.0
  0
LINE
  5
7DC5
  8
YODOROGO
 10
30697.604341291932
 20
1427.749496429288
 30
0.0
 11
30645.604341291921
 21
1427.749496429288
 31
0.0
  0
LINE
  5
7DC6
  8
YODOROGO
 10
30617.604341291921
 20
1599.7494964292871
 30
0.0
 11
30617.604341291921
 21
1507.749496429288
 31
0.0
  0
ARC
  5
7DC7
  8
YODOROGO
 10
30933.604341291921
 20
1467.749496429288
 30
0.0
 40
40.0
 50
270.0
 51
0.0
  0
LINE
  5
7DC8
  8
YODOROGO
 10
31093.604341291921
 20
1523.7494964292871
 30
0.0
 11
31093.604341291921
 21
1427.749496429288
 31
0.0
  0
ARC
  5
7DC9
  8
YODOROGO
 10
31039.721395566768
 20
1637.5313901097329
 30
0.0
 40
125.8955565916754
 50
295.34052442160112
 51
359.18902303418679
  0
LINE
  5
7DCA
  8
YODOROGO
 10
30617.604341291921
 20
1859.749496429288
 30
0.0
 11
30497.604341291921
 21
1939.749496429288
 31
0.0
  0
LINE
  5
7DCB
  8
YODOROGO
 10
30497.604341291921
 20
2027.749496429288
 30
0.0
 11
30617.604341291921
 21
1947.749496429288
 31
0.0
  0
LINE
  5
7DCC
  8
YODOROGO
 10
30529.604341291939
 20
1679.749496429288
 30
0.0
 11
30617.604341291921
 21
1679.749496429288
 31
0.0
  0
LINE
  5
7DCD
  8
YODOROGO
 10
30617.604341291921
 20
1735.7494964292871
 30
0.0
 11
30529.604341291939
 21
1735.7494964292871
 31
0.0
  0
LINE
  5
7DCE
  8
YODOROGO
 10
30381.604341291932
 20
1795.7494964292871
 30
0.0
 11
30617.604341291921
 21
1795.7494964292871
 31
0.0
  0
LINE
  5
7DCF
  8
YODOROGO
 10
30081.604341291921
 20
2027.749496429288
 30
0.0
 11
30021.604341291921
 21
2027.749496429288
 31
0.0
  0
LINE
  5
7DD0
  8
YODOROGO
 10
30081.604341291921
 20
1827.7494964292871
 30
0.0
 11
30081.604341291921
 21
2027.749496429288
 31
0.0
  0
LINE
  5
7DD1
  8
YODOROGO
 10
30021.604341291921
 20
1827.7494964292871
 30
0.0
 11
30081.604341291921
 21
1827.7494964292871
 31
0.0
  0
LINE
  5
7DD2
  8
YODOROGO
 10
30021.604341291921
 20
2027.749496429288
 30
0.0
 11
30021.604341291921
 21
1827.7494964292871
 31
0.0
  0
LINE
  5
7DD3
  8
YODOROGO
 10
30161.604341291921
 20
2027.749496429288
 30
0.0
 11
30217.604341291921
 21
2027.749496429288
 31
0.0
  0
LINE
  5
7DD4
  8
YODOROGO
 10
30161.604341291921
 20
1811.749496429288
 30
0.0
 11
30161.604341291921
 21
2027.749496429288
 31
0.0
  0
ARC
  5
7DD5
  8
YODOROGO
 10
30121.604341291921
 20
1811.749496429288
 30
0.0
 40
40.0
 50
270.0
 51
0.0
  0
LINE
  5
7DD6
  8
YODOROGO
 10
30021.604341291921
 20
1771.7494964292871
 30
0.0
 11
30121.604341291921
 21
1771.7494964292871
 31
0.0
  0
LINE
  5
7DD7
  8
YODOROGO
 10
30021.604341291921
 20
1707.749496429288
 30
0.0
 11
30021.604341291921
 21
1771.7494964292871
 31
0.0
  0
LINE
  5
7DD8
  8
YODOROGO
 10
30137.604341291921
 20
1707.749496429288
 30
0.0
 11
30021.604341291921
 21
1707.749496429288
 31
0.0
  0
ARC
  5
7DD9
  8
YODOROGO
 10
30137.604341291921
 20
1787.7494964292871
 30
0.0
 40
80.0
 50
270.0
 51
0.0
  0
LINE
  5
7DDA
  8
YODOROGO
 10
30217.604341291921
 20
2027.749496429288
 30
0.0
 11
30217.604341291921
 21
1787.7494964292871
 31
0.0
  0
LINE
  5
7DDB
  8
YODOROGO
 10
29977.604341291921
 20
1947.749496429288
 30
0.0
 11
29977.604341291921
 21
1995.7494964292871
 31
0.0
1001
AUTOCAD_POSTSCRIPT_FIGURE
1002
{
1000
PSFILL
1000
Grayscale
1000
Grayscale
1070
    25
1002
}
  0
LINE
  5
7DDC
  8
YODOROGO
 10
29977.604341291921
 20
1859.749496429288
 30
0.0
 11
29977.604341291921
 21
1907.7494964292871
 31
0.0
1001
AUTOCAD_POSTSCRIPT_FIGURE
1002
{
1000
PSFILL
1000
Grayscale
1000
Grayscale
1070
    25
1002
}
  0
LINE
  5
7DDD
  8
YODOROGO
 10
29977.604341291921
 20
1707.749496429288
 30
0.0
 11
29977.604341291921
 21
1819.7494964292871
 31
0.0
1001
AUTOCAD_POSTSCRIPT_FIGURE
1002
{
1000
PSFILL
1000
Grayscale
1000
Grayscale
1070
    25
1002
}
  0
LINE
  5
7DDE
  8
YODOROGO
 10
30381.604341291932
 20
1907.7494964292871
 30
0.0
 11
30497.604341291921
 21
2027.749496429288
 31
0.0
  0
LINE
  5
7DDF
  8
YODOROGO
 10
30381.604341291932
 20
1819.7494964292871
 30
0.0
 11
30381.604341291932
 21
1907.7494964292871
 31
0.0
  0
LINE
  5
7DE0
  8
YODOROGO
 10
30497.604341291921
 20
1939.749496429288
 30
0.0
 11
30381.604341291932
 21
1819.7494964292871
 31
0.0
  0
LINE
  5
7DE1
  8
YODOROGO
 10
30465.604341291921
 20
1679.749496429288
 30
0.0
 11
30465.604341291921
 21
1735.7494964292871
 31
0.0
  0
LINE
  5
7DE2
  8
YODOROGO
 10
30381.604341291932
 20
1679.749496429288
 30
0.0
 11
30465.604341291921
 21
1679.749496429288
 31
0.0
  0
LINE
  5
7DE3
  8
YODOROGO
 10
30529.604341291939
 20
1735.7494964292871
 30
0.0
 11
30529.604341291939
 21
1679.749496429288
 31
0.0
  0
LINE
  5
7DE4
  8
YODOROGO
 10
30381.604341291932
 20
1735.7494964292871
 30
0.0
 11
30381.604341291932
 21
1795.7494964292871
 31
0.0
  0
LINE
  5
7DE5
  8
YODOROGO
 10
30465.604341291921
 20
1735.7494964292871
 30
0.0
 11
30381.604341291932
 21
1735.7494964292871
 31
0.0
  0
LINE
  5
7DE6
  8
YODOROGO
 10
30645.604341291921
 20
2027.749496429288
 30
0.0
 11
30973.604341291921
 21
2027.749496429288
 31
0.0
  0
LINE
  5
7DE7
  8
YODOROGO
 10
30925.604341291921
 20
1963.749496429286
 30
0.0
 11
30697.604341291932
 21
1963.749496429286
 31
0.0
  0
LINE
  5
7DE8
  8
YODOROGO
 10
30873.604341291921
 20
1819.7494964292871
 30
0.0
 11
30899.604341291932
 21
1819.7494964292871
 31
0.0
  0
LINE
  5
7DE9
  8
YODOROGO
 10
30899.604341291932
 20
1939.749496429288
 30
0.0
 11
30873.604341291921
 21
1819.7494964292871
 31
0.0
  0
LINE
  5
7DEA
  8
YODOROGO
 10
30851.604341291939
 20
1939.749496429288
 30
0.0
 11
30899.604341291932
 21
1939.749496429288
 31
0.0
  0
LINE
  5
7DEB
  8
YODOROGO
 10
30825.604341291921
 20
1819.7494964292871
 30
0.0
 11
30851.604341291939
 21
1939.749496429288
 31
0.0
  0
LINE
  5
7DEC
  8
YODOROGO
 10
30797.604341291921
 20
1819.7494964292871
 30
0.0
 11
30825.604341291921
 21
1819.7494964292871
 31
0.0
  0
LINE
  5
7DED
  8
YODOROGO
 10
30771.604341291939
 20
1939.749496429288
 30
0.0
 11
30797.604341291921
 21
1819.7494964292871
 31
0.0
  0
LINE
  5
7DEE
  8
YODOROGO
 10
30723.604341291921
 20
1939.749496429288
 30
0.0
 11
30771.604341291939
 21
1939.749496429288
 31
0.0
  0
LINE
  5
7DEF
  8
YODOROGO
 10
30749.604341291921
 20
1819.7494964292871
 30
0.0
 11
30723.604341291921
 21
1939.749496429288
 31
0.0
  0
LINE
  5
7DF0
  8
YODOROGO
 10
30723.604341291921
 20
1819.7494964292871
 30
0.0
 11
30749.604341291921
 21
1819.7494964292871
 31
0.0
  0
LINE
  5
7DF1
  8
YODOROGO
 10
30723.604341291921
 20
1755.7494964292871
 30
0.0
 11
30723.604341291921
 21
1819.7494964292871
 31
0.0
  0
LINE
  5
7DF2
  8
YODOROGO
 10
30899.604341291932
 20
1755.7494964292871
 30
0.0
 11
30723.604341291921
 21
1755.7494964292871
 31
0.0
  0
LINE
  5
7DF3
  8
YODOROGO
 10
30899.604341291932
 20
1819.7494964292871
 30
0.0
 11
30899.604341291932
 21
1755.7494964292871
 31
0.0
  0
LINE
  5
7DF4
  8
YODOROGO
 10
30617.604341291921
 20
1947.749496429288
 30
0.0
 11
30617.604341291921
 21
1859.749496429288
 31
0.0
  0
LINE
  5
7DF5
  8
YODOROGO
 10
30791.604341291921
 20
1755.7494964292871
 30
0.0
 11
30831.604341291921
 21
1755.7494964292871
 31
0.0
  0
LINE
  5
7DF6
  8
YODOROGO
 10
30723.604341291921
 20
1691.749496429288
 30
0.0
 11
30763.604341291921
 21
1691.749496429288
 31
0.0
  0
LINE
  5
7DF7
  8
YODOROGO
 10
30859.604341291932
 20
1691.749496429288
 30
0.0
 11
30899.604341291932
 21
1691.749496429288
 31
0.0
  0
LINE
  5
7DF8
  8
YODOROGO
 10
30617.604341291921
 20
1795.7494964292871
 30
0.0
 11
30617.604341291921
 21
1735.7494964292871
 31
0.0
  0
LINE
  5
7DF9
  8
YODOROGO
 10
31165.604341291921
 20
2027.749496429288
 30
0.0
 11
31165.604341291921
 21
1963.749496429286
 31
0.0
  0
LINE
  5
7DFA
  8
YODOROGO
 10
31533.604341291921
 20
1595.7494964292871
 30
0.0
 11
31533.60434129191
 21
1811.749496429288
 31
0.0
  0
LINE
  5
7DFB
  8
YODOROGO
 10
31461.60434129191
 20
1987.7494964292871
 30
0.0
 11
31461.60434129191
 21
1635.7494964292871
 31
0.0
  0
LINE
  5
7DFC
  8
YODOROGO
 10
31653.604341291921
 20
1427.749496429288
 30
0.0
 11
31653.60434129191
 21
1811.749496429288
 31
0.0
  0
LINE
  5
7DFD
  8
YODOROGO
 10
31589.604341291921
 20
1811.749496429288
 30
0.0
 11
31589.604341291921
 21
1427.749496429288
 31
0.0
  0
LINE
  5
7DFE
  8
YODOROGO
 10
31237.604341291921
 20
1595.7494964292871
 30
0.0
 11
31237.604341291921
 21
1707.749496429288
 31
0.0
  0
ARC
  5
7DFF
  8
YODOROGO
 10
31353.914865116069
 20
1607.790351288558
 30
0.0
 40
180.0924485759885
 50
268.62849102169793
 51
356.16638457330322
  0
LINE
  5
7E00
  8
YODOROGO
 10
31349.604341291939
 20
1527.749496429288
 30
0.0
 11
31349.604341291939
 21
1427.749496429288
 31
0.0
  0
ARC
  5
7E01
  8
YODOROGO
 10
31351.518075724562
 20
1637.838957017655
 30
0.0
 40
110.1060929836122
 50
269.00410209305932
 51
358.91264455492478
  0
LINE
  5
7E02
  8
YODOROGO
 10
31589.604341291921
 20
1427.749496429288
 30
0.0
 11
31653.604341291921
 21
1427.749496429288
 31
0.0
  0
LINE
  5
7E03
  8
YODOROGO
 10
31533.60434129191
 20
1811.749496429288
 30
0.0
 11
31589.604341291921
 21
1811.749496429288
 31
0.0
  0
LINE
  5
7E04
  8
YODOROGO
 10
31621.604341291939
 20
1987.7494964292871
 30
0.0
 11
31461.60434129191
 21
1987.7494964292871
 31
0.0
  0
LINE
  5
7E05
  8
YODOROGO
 10
31533.60434129191
 20
1915.7494964292871
 30
0.0
 11
31661.604341291939
 21
1915.7494964292871
 31
0.0
  0
LINE
  5
7E06
  8
YODOROGO
 10
31701.604341291939
 20
1875.7494964292871
 30
0.0
 11
31533.60434129191
 21
1875.7494964292871
 31
0.0
  0
LINE
  5
7E07
  8
YODOROGO
 10
31237.604341291921
 20
1779.749496429288
 30
0.0
 11
31349.604341291939
 21
1779.749496429288
 31
0.0
  0
LINE
  5
7E08
  8
YODOROGO
 10
31237.604341291921
 20
1835.7494964292871
 30
0.0
 11
31237.604341291921
 21
1779.749496429288
 31
0.0
  0
LINE
  5
7E09
  8
YODOROGO
 10
31349.604341291939
 20
1835.7494964292871
 30
0.0
 11
31237.604341291921
 21
1835.7494964292871
 31
0.0
  0
LINE
  5
7E0A
  8
YODOROGO
 10
31349.604341291939
 20
1779.749496429288
 30
0.0
 11
31349.604341291939
 21
1835.7494964292871
 31
0.0
  0
LINE
  5
7E0B
  8
YODOROGO
 10
31533.60434129191
 20
1875.7494964292871
 30
0.0
 11
31533.60434129191
 21
1915.7494964292871
 31
0.0
  0
LINE
  5
7E0C
  8
YODOROGO
 10
31413.604341291921
 20
1707.749496429288
 30
0.0
 11
31413.604341291921
 21
1907.7494964292871
 31
0.0
  0
LINE
  5
7E0D
  8
YODOROGO
 10
31237.604341291921
 20
1707.749496429288
 30
0.0
 11
31413.604341291921
 21
1707.749496429288
 31
0.0
  0
LINE
  5
7E0E
  8
YODOROGO
 10
31413.604341291921
 20
1963.749496429286
 30
0.0
 11
31413.604341291921
 21
2027.749496429288
 31
0.0
  0
ARC
  5
7E0F
  8
YODOROGO
 10
31621.604341291939
 20
2003.749496429285
 30
0.0
 40
15.999999999994539
 50
270.0
 51
0.0000000000081422
  0
LINE
  5
7E10
  8
YODOROGO
 10
31637.604341291921
 20
2027.749496429288
 30
0.0
 11
31637.604341291921
 21
2003.7494964292871
 31
0.0
  0
LINE
  5
7E11
  8
YODOROGO
 10
31701.604341291939
 20
2027.749496429288
 30
0.0
 11
31637.604341291921
 21
2027.749496429288
 31
0.0
  0
LINE
  5
7E12
  8
YODOROGO
 10
31701.604341291939
 20
1955.7494964292871
 30
0.0
 11
31701.604341291939
 21
2027.749496429288
 31
0.0
  0
ARC
  5
7E13
  8
YODOROGO
 10
31661.604341291939
 20
1955.7494964292871
 30
0.0
 40
40.0
 50
270.0
 51
0.0
  0
LINE
  5
7E14
  8
YODOROGO
 10
31701.604341291939
 20
1811.749496429288
 30
0.0
 11
31701.604341291939
 21
1875.7494964292871
 31
0.0
  0
LINE
  5
7E15
  8
YODOROGO
 10
31653.60434129191
 20
1811.749496429288
 30
0.0
 11
31701.604341291939
 21
1811.749496429288
 31
0.0
  0
LINE
  5
7E16
  8
SUNPOU
  6
CONTINUOUS
 62
     4
 10
20791.853357
 20
6426.5893419999911
 30
0.0
 11
19991.854675999999
 21
6426.5893419999911
 31
0.0
  0
LINE
  5
7E17
  8
SUNPOU
  6
CONTINUOUS
 62
     4
 10
20791.853357
 20
8318.0893419999902
 30
0.0
 11
19991.854675999999
 21
8318.0893419999957
 31
0.0
  0
LINE
  5
7E18
  8
SUNPOU
  6
CONTINUOUS
 62
     4
 10
20071.854675999992
 20
6426.5893419999911
 30
0.0
 11
20071.854675999992
 21
8318.0893419999957
 31
0.0
  0
LINE
  5
7E19
  8
SUNPOU
  6
CONTINUOUS
 62
     4
 10
20791.853357
 20
6426.5893419999911
 30
0.0
 11
19591.852366999981
 21
6426.5893419999911
 31
0.0
  0
LINE
  5
7E1A
  8
SUNPOU
  6
CONTINUOUS
 62
     4
 10
20759.353620999998
 20
8775.0893419999993
 30
0.0
 11
19591.852366999989
 21
8775.0893420000011
 31
0.0
  0
LINE
  5
7E1B
  8
SUNPOU
  6
CONTINUOUS
 62
     4
 10
19671.852366999981
 20
6426.5893419999911
 30
0.0
 11
19671.852366999989
 21
8775.0893420000011
 31
0.0
  0
LINE
  5
7E2C
  8
SUNPOU
  6
CONTINUOUS
 62
     4
 10
21015.854016000001
 20
6246.5895069999951
 30
0.0
 11
21015.854016000001
 21
5446.589506999996
 31
0.0
  0
LINE
  5
7E2D
  8
SUNPOU
  6
CONTINUOUS
 62
     4
 10
24096.354016000008
 20
6246.5895069999951
 30
0.0
 11
24096.354016000008
 21
5446.589506999996
 31
0.0
  0
LINE
  5
7E2E
  8
SUNPOU
  6
CONTINUOUS
 62
     4
 10
21015.854016000001
 20
5526.589506999997
 30
0.0
 11
24096.354016000008
 21
5526.589506999997
 31
0.0
  0
LINE
  5
7E2F
  8
SUNPOU
  6
CONTINUOUS
 62
     4
 10
24284.354016000008
 20
6246.5895069999951
 30
0.0
 11
24284.354016000008
 21
5446.589506999996
 31
0.0
  0
LINE
  5
7E30
  8
SUNPOU
  6
CONTINUOUS
 62
     4
 10
25962.854016000001
 20
6246.5895069999951
 30
0.0
 11
25962.854016000001
 21
5446.589506999996
 31
0.0
  0
LINE
  5
7E31
  8
SUNPOU
  6
CONTINUOUS
 62
     4
 10
24284.354016000008
 20
5526.589506999997
 30
0.0
 11
25962.854016000001
 21
5526.589506999997
 31
0.0
  0
LINE
  5
7E32
  8
SUNPOU
  6
CONTINUOUS
 62
     4
 10
24190.354016000001
 20
5983.9370839999929
 30
0.0
 11
24190.354016000001
 21
5046.5895069999951
 31
0.0
  0
LINE
  5
7E33
  8
SUNPOU
  6
CONTINUOUS
 62
     4
 10
26056.854016000008
 20
5983.9370839999929
 30
0.0
 11
26056.854016000008
 21
5046.5895069999951
 31
0.0
  0
LINE
  5
7E34
  8
SUNPOU
  6
CONTINUOUS
 62
     4
 10
24190.354016000001
 20
5126.5895069999942
 30
0.0
 11
26056.854016000008
 21
5126.5895069999942
 31
0.0
  0
LINE
  5
7E35
  8
SUNPOU
  6
CONTINUOUS
 62
     4
 10
20921.854016000001
 20
5983.9370839999929
 30
0.0
 11
20921.854016000001
 21
5046.5895069999951
 31
0.0
  0
LINE
  5
7E36
  8
SUNPOU
  6
CONTINUOUS
 62
     4
 10
24190.354016000001
 20
5983.9370839999929
 30
0.0
 11
24190.354016000001
 21
5046.5895069999951
 31
0.0
  0
LINE
  5
7E37
  8
SUNPOU
  6
CONTINUOUS
 62
     4
 10
20921.854016000001
 20
5126.5895069999942
 30
0.0
 11
24190.354016000001
 21
5126.5895069999942
 31
0.0
  0
LINE
  5
7E38
  8
SUNPOU
  6
CONTINUOUS
 62
     4
 10
26056.857974999999
 20
5983.9370839999929
 30
0.0
 11
26056.857974999999
 21
5046.5895069999951
 31
0.0
  0
LINE
  5
7E39
  8
SUNPOU
  6
CONTINUOUS
 62
     4
 10
26099.35797500001
 20
6246.5895069999951
 30
0.0
 11
26099.35797500001
 21
5046.5895069999951
 31
0.0
  0
LINE
  5
7E3A
  8
SUNPOU
  6
CONTINUOUS
 62
     4
 10
26056.857974999999
 20
5126.5895069999942
 30
0.0
 11
25816.857974999999
 21
5126.5895069999942
 31
0.0
  0
LINE
  5
7E3B
  8
SUNPOU
  6
CONTINUOUS
 62
     4
 10
26099.35797500001
 20
5126.5895069999942
 30
0.0
 11
26339.35797500001
 21
5126.5895069999942
 31
0.0
  0
LINE
  5
7E3C
  8
SUNPOU
  6
CONTINUOUS
 62
     4
 10
26056.857974999999
 20
5126.5895069999942
 30
0.0
 11
26099.35797500001
 21
5126.5895069999942
 31
0.0
  0
LINE
  5
7E3D
  8
SUNPOU
  6
CONTINUOUS
 62
     4
 10
20921.854016000001
 20
5983.9370839999929
 30
0.0
 11
20921.854016000001
 21
5046.5895069999951
 31
0.0
  0
LINE
  5
7E3E
  8
SUNPOU
  6
CONTINUOUS
 62
     4
 10
20879.354016000008
 20
6246.5895069999951
 30
0.0
 11
20879.354016000008
 21
5046.5895069999951
 31
0.0
  0
LINE
  5
7E3F
  8
SUNPOU
  6
CONTINUOUS
 62
     4
 10
20921.854016000001
 20
5126.5895069999942
 30
0.0
 11
21161.854016000008
 21
5126.5895069999942
 31
0.0
  0
LINE
  5
7E40
  8
SUNPOU
  6
CONTINUOUS
 62
     4
 10
20879.354016000008
 20
5126.5895069999942
 30
0.0
 11
20639.354016000008
 21
5126.5895069999942
 31
0.0
  0
LINE
  5
7E41
  8
SUNPOU
  6
CONTINUOUS
 62
     4
 10
20921.854016000001
 20
5126.5895069999942
 30
0.0
 11
20879.354016000008
 21
5126.5895069999942
 31
0.0
  0
LINE
  5
7E42
  8
SUNPOU
  6
CONTINUOUS
 62
     4
 10
20879.354016000008
 20
6246.5895069999951
 30
0.0
 11
20879.354016000008
 21
4646.5896719999928
 31
0.0
  0
LINE
  5
7E43
  8
SUNPOU
  6
CONTINUOUS
 62
     4
 10
26099.354016000001
 20
6246.5895069999951
 30
0.0
 11
26099.354016000001
 21
4646.5896719999928
 31
0.0
  0
LINE
  5
7E44
  8
SUNPOU
  6
CONTINUOUS
 62
     4
 10
20879.354016000008
 20
4726.5896719999937
 30
0.0
 11
26099.354016000001
 21
4726.5896719999937
 31
0.0
  0
LINE
  5
7E45
  8
SUNPOU
  6
CONTINUOUS
 62
     4
 10
9372.1781924553197
 20
8533.7751176838065
 30
0.0
 11
9372.1781924553197
 21
9654.5910179999992
 31
0.0
  0
LINE
  5
7E46
  8
SUNPOU
  6
CONTINUOUS
 62
     4
 10
9192.1781924553216
 20
8663.5893420000029
 30
0.0
 11
9192.1781924553216
 21
9654.5910179999992
 31
0.0
  0
LINE
  5
7E47
  8
SUNPOU
  6
CONTINUOUS
 62
     4
 10
9372.1781924553197
 20
9574.5910179999992
 30
0.0
 11
9192.1781924553216
 21
9574.5910179999992
 31
0.0
  0
LINE
  5
7E48
  8
SUNPOU
  6
CONTINUOUS
 62
     4
 10
15035.17819245532
 20
6426.5893419999966
 30
0.0
 11
16112.6766084553
 21
6426.5893419999966
 31
0.0
  0
LINE
  5
7E49
  8
SUNPOU
  6
CONTINUOUS
 62
     4
 10
15127.48347205469
 20
8775.0893419999993
 30
0.0
 11
16112.6766084553
 21
8775.0893419999993
 31
0.0
  0
LINE
  5
7E4A
  8
SUNPOU
  6
CONTINUOUS
 62
     4
 10
16032.6766084553
 20
6426.5893419999966
 30
0.0
 11
16032.6766084553
 21
8775.0893419999993
 31
0.0
  0
LINE
  5
7E4B
  8
SUNPOU
  6
CONTINUOUS
 62
     4
 10
9284.6781924553288
 20
6426.5893419999966
 30
0.0
 11
8202.1797744553369
 21
6426.5893419999966
 31
0.0
  0
LINE
  5
7E4C
  8
SUNPOU
  6
CONTINUOUS
 62
     4
 10
9112.1801704553236
 20
8582.5893420000029
 30
0.0
 11
8202.1797744553369
 21
8582.5893420000029
 31
0.0
  0
LINE
  5
7E4D
  8
SUNPOU
  6
CONTINUOUS
 62
     4
 10
8282.1797744553332
 20
6426.5893419999966
 30
0.0
 11
8282.1797744553332
 21
8582.5893420000029
 31
0.0
  0
LINE
  5
7E4E
  8
SUNPOU
  6
CONTINUOUS
 62
     4
 10
9192.1781924553216
 20
8663.5893420000029
 30
0.0
 11
9192.1781924553216
 21
10054.58936799999
 31
0.0
  0
LINE
  5
7E4F
  8
SUNPOU
  6
CONTINUOUS
 62
     4
 10
15092.67819245532
 20
8795.4791654124274
 30
0.0
 11
15092.67819245532
 21
10054.58936799999
 31
0.0
  0
LINE
  5
7E50
  8
SUNPOU
  6
CONTINUOUS
 62
     4
 10
9192.1781924553216
 20
9974.5893679999972
 30
0.0
 11
15092.67819245532
 21
9974.5893679999972
 31
0.0
  0
LINE
  5
7E51
  8
SUNPOU
  6
CONTINUOUS
 62
     4
 10
14942.67819245532
 20
8721.4994060000026
 30
0.0
 11
14942.67819245532
 21
9654.5910179999992
 31
0.0
  0
LINE
  5
7E52
  8
SUNPOU
  6
CONTINUOUS
 62
     4
 10
15092.67819245532
 20
8795.4791654124274
 30
0.0
 11
15092.67819245532
 21
9654.5910179999992
 31
0.0
  0
LINE
  5
7E53
  8
SUNPOU
  6
CONTINUOUS
 62
     4
 10
14942.67819245532
 20
9574.5910179999992
 30
0.0
 11
14702.67819245532
 21
9574.5910179999992
 31
0.0
  0
LINE
  5
7E54
  8
SUNPOU
  6
CONTINUOUS
 62
     4
 10
15092.67819245532
 20
9574.5910179999992
 30
0.0
 11
15332.67819245532
 21
9574.5910179999992
 31
0.0
  0
LINE
  5
7E55
  8
SUNPOU
  6
CONTINUOUS
 62
     4
 10
14942.67819245532
 20
9574.5910179999992
 30
0.0
 11
15092.67819245532
 21
9574.5910179999992
 31
0.0
  0
LINE
  5
7E56
  8
SUNPOU
  6
CONTINUOUS
 62
     4
 10
9372.1781924553197
 20
8533.7751176838065
 30
0.0
 11
9372.1781924553197
 21
9654.5910179999992
 31
0.0
  0
LINE
  5
7E57
  8
SUNPOU
  6
CONTINUOUS
 62
     4
 10
14942.67819245532
 20
8721.4994060000026
 30
0.0
 11
14942.67819245532
 21
9654.5910179999992
 31
0.0
  0
LINE
  5
7E58
  8
SUNPOU
  6
CONTINUOUS
 62
     4
 10
9372.1781924553197
 20
9574.5910179999992
 30
0.0
 11
14942.67819245532
 21
9574.5910179999992
 31
0.0
  0
LINE
  5
7E59
  8
SUNPOU
  6
CONTINUOUS
 62
     4
 10
9372.1781924553197
 20
6346.589342000002
 30
0.0
 11
9372.1781924553197
 21
4646.589672000001
 31
0.0
  0
LINE
  5
7E5A
  8
SUNPOU
  6
CONTINUOUS
 62
     4
 10
14942.67819245532
 20
6346.589342000002
 30
0.0
 11
14942.67819245532
 21
4646.589672000001
 31
0.0
  0
LINE
  5
7E5B
  8
SUNPOU
  6
CONTINUOUS
 62
     4
 10
9372.1781924553197
 20
4726.589672000001
 30
0.0
 11
14942.67819245532
 21
4726.589672000001
 31
0.0
  0
LINE
  5
7E5C
  8
SUNPOU
  6
CONTINUOUS
 62
     4
 10
14900.178192455311
 20
5983.9370840000001
 30
0.0
 11
14900.178192455311
 21
5046.5895069999997
 31
0.0
  0
LINE
  5
7E5D
  8
SUNPOU
  6
CONTINUOUS
 62
     4
 10
14942.67819245532
 20
6346.589342000002
 30
0.0
 11
14942.67819245532
 21
5046.5895069999997
 31
0.0
  0
LINE
  5
7E5E
  8
SUNPOU
  6
CONTINUOUS
 62
     4
 10
14900.178192455311
 20
5126.5895069999997
 30
0.0
 11
14660.178192455311
 21
5126.5895069999997
 31
0.0
  0
LINE
  5
7E5F
  8
SUNPOU
  6
CONTINUOUS
 62
     4
 10
14942.67819245532
 20
5126.5895069999997
 30
0.0
 11
15182.67819245532
 21
5126.5895069999997
 31
0.0
  0
LINE
  5
7E60
  8
SUNPOU
  6
CONTINUOUS
 62
     4
 10
14900.178192455311
 20
5126.5895069999997
 30
0.0
 11
14942.67819245532
 21
5126.5895069999997
 31
0.0
  0
LINE
  5
7E61
  8
SUNPOU
  6
CONTINUOUS
 62
     4
 10
9414.6781924553234
 20
5983.9370840000001
 30
0.0
 11
9414.6781924553234
 21
5046.5895069999997
 31
0.0
  0
LINE
  5
7E62
  8
SUNPOU
  6
CONTINUOUS
 62
     4
 10
9372.1781924553197
 20
6346.589342000002
 30
0.0
 11
9372.1781924553197
 21
5046.5895069999997
 31
0.0
  0
LINE
  5
7E63
  8
SUNPOU
  6
CONTINUOUS
 62
     4
 10
9414.6781924553234
 20
5126.5895069999997
 30
0.0
 11
9654.6781924553216
 21
5126.5895069999997
 31
0.0
  0
LINE
  5
7E64
  8
SUNPOU
  6
CONTINUOUS
 62
     4
 10
9372.1781924553197
 20
5126.5895069999997
 30
0.0
 11
9132.1781924553161
 21
5126.5895069999997
 31
0.0
  0
LINE
  5
7E65
  8
SUNPOU
  6
CONTINUOUS
 62
     4
 10
9414.6781924553234
 20
5126.5895069999997
 30
0.0
 11
9372.1781924553197
 21
5126.5895069999997
 31
0.0
  0
LINE
  5
7E66
  8
SUNPOU
  6
CONTINUOUS
 62
     4
 10
11982.178192455311
 20
5983.9370840000001
 30
0.0
 11
11982.178192455311
 21
5046.5895069999997
 31
0.0
  0
LINE
  5
7E67
  8
SUNPOU
  6
CONTINUOUS
 62
     4
 10
9414.6781924553234
 20
5983.9370840000001
 30
0.0
 11
9414.6781924553234
 21
5046.5895069999997
 31
0.0
  0
LINE
  5
7E68
  8
SUNPOU
  6
CONTINUOUS
 62
     4
 10
11982.178192455311
 20
5126.5895069999997
 30
0.0
 11
9414.6781924553234
 21
5126.5895069999997
 31
0.0
  0
LINE
  5
7E69
  8
SUNPOU
  6
CONTINUOUS
 62
     4
 10
11982.178192455311
 20
5983.9370840000001
 30
0.0
 11
11982.178192455311
 21
5046.5895069999997
 31
0.0
  0
LINE
  5
7E6A
  8
SUNPOU
  6
CONTINUOUS
 62
     4
 10
14900.178192455311
 20
5983.9370840000001
 30
0.0
 11
14900.178192455311
 21
5046.5895069999997
 31
0.0
  0
LINE
  5
7E6B
  8
SUNPOU
  6
CONTINUOUS
 62
     4
 10
11982.178192455311
 20
5126.5895069999997
 30
0.0
 11
14900.178192455311
 21
5126.5895069999997
 31
0.0
  0
LINE
  5
7E6C
  8
SUNPOU
  6
CONTINUOUS
 62
     4
 10
20571.851378000021
 20
13894.060177999991
 30
0.0
 11
20571.851378000021
 21
13548.37552799998
 31
0.0
  0
LINE
  5
7E6D
  8
SUNPOU
  6
CONTINUOUS
 62
     4
 10
20529.349135000019
 20
14477.32631699999
 30
0.0
 11
20529.349135000019
 21
13548.37552799998
 31
0.0
  0
LINE
  5
7E6E
  8
SUNPOU
  6
CONTINUOUS
 62
     4
 10
20571.851378000021
 20
13628.37552799998
 30
0.0
 11
20811.851378000021
 21
13628.37552799998
 31
0.0
  0
LINE
  5
7E6F
  8
SUNPOU
  6
CONTINUOUS
 62
     4
 10
20529.349135000019
 20
13628.37552799998
 30
0.0
 11
20289.349135000019
 21
13628.37552799998
 31
0.0
  0
LINE
  5
7E70
  8
SUNPOU
  6
CONTINUOUS
 62
     4
 10
20571.851378000021
 20
13628.37552799998
 30
0.0
 11
20529.349135000019
 21
13628.37552799998
 31
0.0
  0
LINE
  5
7E71
  8
SUNPOU
  6
CONTINUOUS
 62
     4
 10
25706.851378000021
 20
13894.060177999991
 30
0.0
 11
25706.851378000021
 21
13548.37552799998
 31
0.0
  0
LINE
  5
7E72
  8
SUNPOU
  6
CONTINUOUS
 62
     4
 10
25749.353621000009
 20
14477.32631699999
 30
0.0
 11
25749.353621000009
 21
13548.37552799998
 31
0.0
  0
LINE
  5
7E73
  8
SUNPOU
  6
CONTINUOUS
 62
     4
 10
25706.851378000021
 20
13628.37552799998
 30
0.0
 11
25466.851378000021
 21
13628.37552799998
 31
0.0
  0
LINE
  5
7E74
  8
SUNPOU
  6
CONTINUOUS
 62
     4
 10
25749.353621000009
 20
13628.37552799998
 30
0.0
 11
25989.353621000009
 21
13628.37552799998
 31
0.0
  0
LINE
  5
7E75
  8
SUNPOU
  6
CONTINUOUS
 62
     4
 10
25706.851378000021
 20
13628.37552799998
 30
0.0
 11
25749.353621000009
 21
13628.37552799998
 31
0.0
  0
LINE
  5
7E76
  8
2-0
  6
CONTINUOUS
 62
     3
 10
23797.851378000021
 20
14557.32361199998
 30
0.0
 11
23882.851378000021
 21
14557.32361199998
 31
0.0
  0
LINE
  5
7E77
  8
2-0
  6
CONTINUOUS
 62
     3
 10
23882.851378000021
 20
14557.32361199998
 30
0.0
 11
23882.851378000021
 21
14642.32361199998
 31
0.0
  0
LINE
  5
7E78
  8
2-0
  6
CONTINUOUS
 62
     3
 10
23882.851378000021
 20
14642.32361199998
 30
0.0
 11
23797.851378000021
 21
14642.32361199998
 31
0.0
  0
LINE
  5
7E79
  8
2-0
  6
CONTINUOUS
 62
     3
 10
23797.851378000021
 20
14642.32361199998
 30
0.0
 11
23797.851378000021
 21
14557.32361199998
 31
0.0
  0
LINE
  5
7E7A
  8
SUNPOU
  6
CONTINUOUS
 62
     4
 10
25706.851378000021
 20
13894.060177999991
 30
0.0
 11
25706.851378000021
 21
13548.37552799998
 31
0.0
  0
LINE
  5
7E7B
  8
SUNPOU
  6
CONTINUOUS
 62
     4
 10
25664.349135000011
 20
14477.32631699999
 30
0.0
 11
25664.349135000011
 21
13548.37552799998
 31
0.0
  0
LINE
  5
7E7C
  8
SUNPOU
  6
CONTINUOUS
 62
     4
 10
25706.851378000021
 20
13628.37552799998
 30
0.0
 11
25946.851378000021
 21
13628.37552799998
 31
0.0
  0
LINE
  5
7E7D
  8
SUNPOU
  6
CONTINUOUS
 62
     4
 10
25664.349135000011
 20
13628.37552799998
 30
0.0
 11
25424.349135000011
 21
13628.37552799998
 31
0.0
  0
LINE
  5
7E7E
  8
SUNPOU
  6
CONTINUOUS
 62
     4
 10
25706.851378000021
 20
13628.37552799998
 30
0.0
 11
25664.349135000011
 21
13628.37552799998
 31
0.0
  0
LINE
  5
7E7F
  8
SUNPOU
  6
CONTINUOUS
 62
     4
 10
20571.851378000021
 20
13894.060177999991
 30
0.0
 11
20571.851378000021
 21
13548.37552799998
 31
0.0
  0
LINE
  5
7E80
  8
SUNPOU
  6
CONTINUOUS
 62
     4
 10
20614.35362100002
 20
14477.32631699999
 30
0.0
 11
20614.35362100002
 21
13548.37552799998
 31
0.0
  0
LINE
  5
7E81
  8
SUNPOU
  6
CONTINUOUS
 62
     4
 10
20571.851378000021
 20
13628.37552799998
 30
0.0
 11
20331.851378000021
 21
13628.37552799998
 31
0.0
  0
LINE
  5
7E82
  8
SUNPOU
  6
CONTINUOUS
 62
     4
 10
20614.35362100002
 20
13628.37552799998
 30
0.0
 11
20854.353621000009
 21
13628.37552799998
 31
0.0
  0
LINE
  5
7E83
  8
SUNPOU
  6
CONTINUOUS
 62
     4
 10
20571.851378000021
 20
13628.37552799998
 30
0.0
 11
20614.35362100002
 21
13628.37552799998
 31
0.0
  0
LINE
  5
7E84
  8
SUNPOU
  6
CONTINUOUS
 62
     4
 10
20529.349135000019
 20
14477.32631699999
 30
0.0
 11
20529.349135000019
 21
13148.37552799998
 31
0.0
  0
LINE
  5
7E85
  8
SUNPOU
  6
CONTINUOUS
 62
     4
 10
25749.353621000009
 20
14477.32631699999
 30
0.0
 11
25749.353621000009
 21
13148.37552799998
 31
0.0
  0
LINE
  5
7E86
  8
SUNPOU
  6
CONTINUOUS
 62
     4
 10
20529.349135000019
 20
13228.37552799998
 30
0.0
 11
25749.353621000009
 21
13228.37552799998
 31
0.0
  0
LINE
  5
7E87
  8
SUNPOU
  6
CONTINUOUS
 62
     4
 10
25829.349662000011
 20
15357.82361199998
 30
0.0
 11
26879.350982000029
 21
15357.82361199998
 31
0.0
  0
LINE
  5
7E88
  8
SUNPOU
  6
CONTINUOUS
 62
     4
 10
26679.350982000029
 20
14599.82361199998
 30
0.0
 11
26879.350982000029
 21
14599.82361199998
 31
0.0
  0
LINE
  5
7E89
  8
SUNPOU
  6
CONTINUOUS
 62
     4
 10
26799.350982000029
 20
15357.82361199998
 30
0.0
 11
26799.350982000029
 21
14599.82361199998
 31
0.0
  0
LINE
  5
7E8A
  8
SUNPOU
  6
CONTINUOUS
 62
     4
 10
25829.349662000011
 20
16059.0641235
 30
0.0
 11
26879.350982000029
 21
16059.0641235
 31
0.0
  0
LINE
  5
7E8B
  8
SUNPOU
  6
CONTINUOUS
 62
     4
 10
25829.349662000011
 20
15357.82361199998
 30
0.0
 11
26879.350982000029
 21
15357.82361199998
 31
0.0
  0
LINE
  5
7E8C
  8
SUNPOU
  6
CONTINUOUS
 62
     4
 10
26799.350982000029
 20
16059.0641235
 30
0.0
 11
26799.350982000029
 21
15357.82361199998
 31
0.0
  0
LINE
  5
7E8D
  8
SUNPOU
  6
CONTINUOUS
 62
     4
 10
25829.349662000011
 20
16759.823611999989
 30
0.0
 11
26879.350982000029
 21
16759.823611999989
 31
0.0
  0
LINE
  5
7E8E
  8
SUNPOU
  6
CONTINUOUS
 62
     4
 10
25829.349662000011
 20
16059.0641235
 30
0.0
 11
26879.350982000029
 21
16059.0641235
 31
0.0
  0
LINE
  5
7E8F
  8
SUNPOU
  6
CONTINUOUS
 62
     4
 10
26799.350982000029
 20
16759.823611999989
 30
0.0
 11
26799.350982000029
 21
16059.0641235
 31
0.0
  0
LINE
  5
7E90
  8
SUNPOU
  6
CONTINUOUS
 62
     4
 10
26679.350982000029
 20
17517.823611999989
 30
0.0
 11
26879.350982000029
 21
17517.823611999989
 31
0.0
  0
LINE
  5
7E91
  8
SUNPOU
  6
CONTINUOUS
 62
     4
 10
25829.349662000011
 20
16759.823611999989
 30
0.0
 11
26879.350982000029
 21
16759.823611999989
 31
0.0
  0
LINE
  5
7E92
  8
SUNPOU
  6
CONTINUOUS
 62
     4
 10
26799.350982000029
 20
17517.823611999989
 30
0.0
 11
26799.350982000029
 21
16759.823611999989
 31
0.0
  0
LINE
  5
7E93
  8
SUNPOU
  6
CONTINUOUS
 62
     4
 10
25829.349662000011
 20
18275.823611999989
 30
0.0
 11
26879.350982000029
 21
18275.823611999989
 31
0.0
  0
LINE
  5
7E94
  8
SUNPOU
  6
CONTINUOUS
 62
     4
 10
26679.350982000029
 20
17517.823611999989
 30
0.0
 11
26879.350982000029
 21
17517.823611999989
 31
0.0
  0
LINE
  5
7E95
  8
SUNPOU
  6
CONTINUOUS
 62
     4
 10
26799.350982000029
 20
18275.823611999989
 30
0.0
 11
26799.350982000029
 21
17517.823611999989
 31
0.0
  0
LINE
  5
7E96
  8
SUNPOU
  6
CONTINUOUS
 62
     4
 10
25829.349662000011
 20
18976.823611999989
 30
0.0
 11
26879.350982000029
 21
18976.823611999989
 31
0.0
  0
LINE
  5
7E97
  8
SUNPOU
  6
CONTINUOUS
 62
     4
 10
25829.349662000011
 20
18275.823611999989
 30
0.0
 11
26879.350982000029
 21
18275.823611999989
 31
0.0
  0
LINE
  5
7E98
  8
SUNPOU
  6
CONTINUOUS
 62
     4
 10
26799.350982000029
 20
18976.823611999989
 30
0.0
 11
26799.350982000029
 21
18275.823611999989
 31
0.0
  0
LINE
  5
7E99
  8
SUNPOU
  6
CONTINUOUS
 62
     4
 10
25829.349662000011
 20
19677.823611999989
 30
0.0
 11
26879.350982000029
 21
19677.823611999989
 31
0.0
  0
LINE
  5
7E9A
  8
SUNPOU
  6
CONTINUOUS
 62
     4
 10
25829.349662000011
 20
18976.823611999989
 30
0.0
 11
26879.350982000029
 21
18976.823611999989
 31
0.0
  0
LINE
  5
7E9B
  8
SUNPOU
  6
CONTINUOUS
 62
     4
 10
26799.350982000029
 20
19677.823611999989
 30
0.0
 11
26799.350982000029
 21
18976.823611999989
 31
0.0
  0
LINE
  5
7E9C
  8
SUNPOU
  6
CONTINUOUS
 62
     4
 10
26679.350982000029
 20
20085.323611999989
 30
0.0
 11
26879.350982000029
 21
20085.323611999989
 31
0.0
  0
LINE
  5
7E9D
  8
SUNPOU
  6
CONTINUOUS
 62
     4
 10
25829.349662000011
 20
19677.823611999989
 30
0.0
 11
26879.350982000029
 21
19677.823611999989
 31
0.0
  0
LINE
  5
7E9E
  8
SUNPOU
  6
CONTINUOUS
 62
     4
 10
26799.350982000029
 20
20085.323611999989
 30
0.0
 11
26799.350982000029
 21
19677.823611999989
 31
0.0
  0
LINE
  5
7E9F
  8
SUNPOU
  6
CONTINUOUS
 62
     4
 10
26679.350982000029
 20
17517.823611999989
 30
0.0
 11
27279.350982000029
 21
17517.823611999989
 31
0.0
  0
LINE
  5
7EA0
  8
SUNPOU
  6
CONTINUOUS
 62
     4
 10
26679.350982000029
 20
20085.323611999989
 30
0.0
 11
27279.350982000029
 21
20085.323611999989
 31
0.0
  0
LINE
  5
7EA1
  8
SUNPOU
  6
CONTINUOUS
 62
     4
 10
27199.350982000029
 20
17517.823611999989
 30
0.0
 11
27199.350982000029
 21
20085.323611999989
 31
0.0
  0
LINE
  5
7EA2
  8
SUNPOU
  6
CONTINUOUS
 62
     4
 10
26679.350982000029
 20
14599.82361199998
 30
0.0
 11
27279.350982000029
 21
14599.82361199998
 31
0.0
  0
LINE
  5
7EA3
  8
SUNPOU
  6
CONTINUOUS
 62
     4
 10
26679.350982000029
 20
17517.823611999989
 30
0.0
 11
27279.350982000029
 21
17517.823611999989
 31
0.0
  0
LINE
  5
7EA4
  8
SUNPOU
  6
CONTINUOUS
 62
     4
 10
27199.350982000029
 20
14599.82361199998
 30
0.0
 11
27199.350982000029
 21
17517.823611999989
 31
0.0
  0
LINE
  5
7EA5
  8
SUNPOU
  6
CONTINUOUS
 62
     4
 10
25829.349662000011
 20
20127.820907000001
 30
0.0
 11
27679.350982000022
 21
20127.820907000001
 31
0.0
  0
LINE
  5
7EA6
  8
SUNPOU
  6
CONTINUOUS
 62
     4
 10
25829.349662000011
 20
14557.32631699999
 30
0.0
 11
27679.350982000022
 21
14557.32631699999
 31
0.0
  0
LINE
  5
7EA7
  8
SUNPOU
  6
CONTINUOUS
 62
     4
 10
27599.350982000022
 20
20127.820907000001
 30
0.0
 11
27599.350982000022
 21
14557.32631699999
 31
0.0
  0
LINE
  5
7EA8
  8
SUNPOU
  6
CONTINUOUS
 62
     4
 10
26679.350982000029
 20
20085.323611999989
 30
0.0
 11
27279.350982000029
 21
20085.323611999989
 31
0.0
  0
LINE
  5
7EA9
  8
SUNPOU
  6
CONTINUOUS
 62
     4
 10
25829.349662000011
 20
20127.820907000001
 30
0.0
 11
27279.350982000029
 21
20127.820907000001
 31
0.0
  0
LINE
  5
7EAA
  8
SUNPOU
  6
CONTINUOUS
 62
     4
 10
27199.350982000029
 20
20085.323611999989
 30
0.0
 11
27199.350982000029
 21
19845.323611999989
 31
0.0
  0
LINE
  5
7EAB
  8
SUNPOU
  6
CONTINUOUS
 62
     4
 10
27199.350982000029
 20
20127.820907000001
 30
0.0
 11
27199.350982000029
 21
20367.820907000001
 31
0.0
  0
LINE
  5
7EAC
  8
SUNPOU
  6
CONTINUOUS
 62
     4
 10
27199.350982000029
 20
20085.323611999989
 30
0.0
 11
27199.350982000029
 21
20127.820907000001
 31
0.0
  0
LINE
  5
7EAD
  8
SUNPOU
  6
CONTINUOUS
 62
     4
 10
26679.350982000029
 20
14599.82361199998
 30
0.0
 11
27279.350982000029
 21
14599.82361199998
 31
0.0
  0
LINE
  5
7EAE
  8
SUNPOU
  6
CONTINUOUS
 62
     4
 10
25829.349662000011
 20
14557.32631699999
 30
0.0
 11
27279.350982000029
 21
14557.32631699999
 31
0.0
  0
LINE
  5
7EAF
  8
SUNPOU
  6
CONTINUOUS
 62
     4
 10
27199.350982000029
 20
14599.82361199998
 30
0.0
 11
27199.350982000029
 21
14839.82361199998
 31
0.0
  0
LINE
  5
7EB0
  8
SUNPOU
  6
CONTINUOUS
 62
     4
 10
27199.350982000029
 20
14557.32631699999
 30
0.0
 11
27199.350982000029
 21
14317.32631699999
 31
0.0
  0
LINE
  5
7EB1
  8
SUNPOU
  6
CONTINUOUS
 62
     4
 10
27199.350982000029
 20
14599.82361199998
 30
0.0
 11
27199.350982000029
 21
14557.32631699999
 31
0.0
  0
LINE
  5
7EB2
  8
SUNPOU
  6
CONTINUOUS
 62
     4
 10
23840.351378000021
 20
20207.82189700002
 30
0.0
 11
23840.351378000021
 21
20937.824799999999
 31
0.0
  0
LINE
  5
7EB3
  8
SUNPOU
  6
CONTINUOUS
 62
     4
 10
24247.851378000021
 20
20207.82189700002
 30
0.0
 11
24247.851378000021
 21
20937.824799999999
 31
0.0
  0
LINE
  5
7EB4
  8
SUNPOU
  6
CONTINUOUS
 62
     4
 10
23840.351378000021
 20
20857.824799999999
 30
0.0
 11
24247.851378000021
 21
20857.824799999999
 31
0.0
  0
LINE
  5
7EB5
  8
SUNPOU
  6
CONTINUOUS
 62
     4
 10
24948.851378000021
 20
20207.82189700002
 30
0.0
 11
24948.851378000021
 21
20937.824799999999
 31
0.0
  0
LINE
  5
7EB6
  8
SUNPOU
  6
CONTINUOUS
 62
     4
 10
25706.852367500022
 20
20207.82189700002
 30
0.0
 11
25706.852367500022
 21
20937.824799999999
 31
0.0
  0
LINE
  5
7EB7
  8
SUNPOU
  6
CONTINUOUS
 62
     4
 10
24948.851378000021
 20
20857.824799999999
 30
0.0
 11
25706.852367500022
 21
20857.824799999999
 31
0.0
  0
LINE
  5
7EB8
  8
SUNPOU
  6
CONTINUOUS
 62
     4
 10
24247.851378000021
 20
20207.82189700002
 30
0.0
 11
24247.851378000021
 21
20937.824799999999
 31
0.0
  0
LINE
  5
7EB9
  8
SUNPOU
  6
CONTINUOUS
 62
     4
 10
24948.851378000021
 20
20207.82189700002
 30
0.0
 11
24948.851378000021
 21
20937.824799999999
 31
0.0
  0
LINE
  5
7EBA
  8
SUNPOU
  6
CONTINUOUS
 62
     4
 10
24247.851378000021
 20
20857.824799999999
 30
0.0
 11
24948.851378000021
 21
20857.824799999999
 31
0.0
  0
LINE
  5
7EBB
  8
SUNPOU
  6
CONTINUOUS
 62
     4
 10
25706.851378000021
 20
20207.82189700002
 30
0.0
 11
25706.851378000021
 21
20937.824799999999
 31
0.0
  0
LINE
  5
7EBC
  8
SUNPOU
  6
CONTINUOUS
 62
     4
 10
25749.347683000029
 20
20207.82189700002
 30
0.0
 11
25749.347683000029
 21
20937.824799999999
 31
0.0
  0
LINE
  5
7EBD
  8
SUNPOU
  6
CONTINUOUS
 62
     4
 10
25706.851378000021
 20
20857.824799999999
 30
0.0
 11
25466.851378000021
 21
20857.824799999999
 31
0.0
  0
LINE
  5
7EBE
  8
SUNPOU
  6
CONTINUOUS
 62
     4
 10
25749.347683000029
 20
20857.824799999999
 30
0.0
 11
25989.347683000029
 21
20857.824799999999
 31
0.0
  0
LINE
  5
7EBF
  8
SUNPOU
  6
CONTINUOUS
 62
     4
 10
25706.851378000021
 20
20857.824799999999
 30
0.0
 11
25749.347683000029
 21
20857.824799999999
 31
0.0
  0
LINE
  5
7EC0
  8
SUNPOU
  6
CONTINUOUS
 62
     4
 10
20571.851378000021
 20
20207.82189700002
 30
0.0
 11
20571.851378000021
 21
20937.824799999999
 31
0.0
  0
LINE
  5
7EC1
  8
SUNPOU
  6
CONTINUOUS
 62
     4
 10
20979.351378000021
 20
20207.82189700002
 30
0.0
 11
20979.351378000021
 21
20937.824799999999
 31
0.0
  0
LINE
  5
7EC2
  8
SUNPOU
  6
CONTINUOUS
 62
     4
 10
20571.851378000021
 20
20857.824799999999
 30
0.0
 11
20979.351378000021
 21
20857.824799999999
 31
0.0
  0
LINE
  5
7EC3
  8
SUNPOU
  6
CONTINUOUS
 62
     4
 10
20571.851378000021
 20
20207.82189700002
 30
0.0
 11
20571.851378000021
 21
20937.824799999999
 31
0.0
  0
LINE
  5
7EC4
  8
SUNPOU
  6
CONTINUOUS
 62
     4
 10
20529.355072999999
 20
20207.82189700002
 30
0.0
 11
20529.355072999999
 21
20937.824799999999
 31
0.0
  0
LINE
  5
7EC5
  8
SUNPOU
  6
CONTINUOUS
 62
     4
 10
20571.851378000021
 20
20857.824799999999
 30
0.0
 11
20811.851378000021
 21
20857.824799999999
 31
0.0
  0
LINE
  5
7EC6
  8
SUNPOU
  6
CONTINUOUS
 62
     4
 10
20529.355072999999
 20
20857.824799999999
 30
0.0
 11
20289.35507300001
 21
20857.824799999999
 31
0.0
  0
LINE
  5
7EC7
  8
SUNPOU
  6
CONTINUOUS
 62
     4
 10
20571.851378000021
 20
20857.824799999999
 30
0.0
 11
20529.355072999999
 21
20857.824799999999
 31
0.0
  0
LINE
  5
7EC8
  8
SUNPOU
  6
CONTINUOUS
 62
     4
 10
23082.351378000021
 20
20207.82189700002
 30
0.0
 11
23082.351378000021
 21
20937.824799999999
 31
0.0
  0
LINE
  5
7EC9
  8
SUNPOU
  6
CONTINUOUS
 62
     4
 10
23840.352367500029
 20
20207.82189700002
 30
0.0
 11
23840.352367500029
 21
20937.824799999999
 31
0.0
  0
LINE
  5
7ECA
  8
SUNPOU
  6
CONTINUOUS
 62
     4
 10
23082.351378000021
 20
20857.824799999999
 30
0.0
 11
23840.352367500029
 21
20857.824799999999
 31
0.0
  0
LINE
  5
7ECB
  8
SUNPOU
  6
CONTINUOUS
 62
     4
 10
22381.351378000021
 20
20207.82189700002
 30
0.0
 11
22381.351378000021
 21
20937.824799999999
 31
0.0
  0
LINE
  5
7ECC
  8
SUNPOU
  6
CONTINUOUS
 62
     4
 10
23082.351378000021
 20
20207.82189700002
 30
0.0
 11
23082.351378000021
 21
20937.824799999999
 31
0.0
  0
LINE
  5
7ECD
  8
SUNPOU
  6
CONTINUOUS
 62
     4
 10
22381.351378000021
 20
20857.824799999999
 30
0.0
 11
23082.351378000021
 21
20857.824799999999
 31
0.0
  0
LINE
  5
7ECE
  8
SUNPOU
  6
CONTINUOUS
 62
     4
 10
21680.351378000021
 20
20207.82189700002
 30
0.0
 11
21680.351378000021
 21
20937.824799999999
 31
0.0
  0
LINE
  5
7ECF
  8
SUNPOU
  6
CONTINUOUS
 62
     4
 10
22381.351378000021
 20
20207.82189700002
 30
0.0
 11
22381.351378000021
 21
20937.824799999999
 31
0.0
  0
LINE
  5
7ED0
  8
SUNPOU
  6
CONTINUOUS
 62
     4
 10
21680.351378000021
 20
20857.824799999999
 30
0.0
 11
22381.351378000021
 21
20857.824799999999
 31
0.0
  0
LINE
  5
7ED1
  8
SUNPOU
  6
CONTINUOUS
 62
     4
 10
20979.351378000021
 20
20207.82189700002
 30
0.0
 11
20979.351378000021
 21
20937.824799999999
 31
0.0
  0
LINE
  5
7ED2
  8
SUNPOU
  6
CONTINUOUS
 62
     4
 10
21680.351378000021
 20
20207.82189700002
 30
0.0
 11
21680.351378000021
 21
20937.824799999999
 31
0.0
  0
LINE
  5
7ED3
  8
SUNPOU
  6
CONTINUOUS
 62
     4
 10
20979.351378000021
 20
20857.824799999999
 30
0.0
 11
21680.351378000021
 21
20857.824799999999
 31
0.0
  0
LINE
  5
7ED4
  8
SUNPOU
  6
CONTINUOUS
 62
     4
 10
9514.0776105000041
 20
14407.330275
 30
0.0
 11
8667.0821895000026
 21
14407.330275
 31
0.0
  0
LINE
  5
7ED5
  8
SUNPOU
  6
CONTINUOUS
 62
     4
 10
8747.0821895000026
 20
14599.82559
 30
0.0
 11
8747.0821895000026
 21
14407.330275
 31
0.0
  0
LINE
  5
7ED6
  8
SUNPOU
  6
CONTINUOUS
 62
     4
 10
8790.6568279927069
 20
14599.82559
 30
0.0
 11
8667.0821895000026
 21
14599.82559
 31
0.0
  0
LINE
  5
7ED7
  8
SUNPOU
  6
CONTINUOUS
 62
     4
 10
8747.0821895000026
 20
14599.82559
 30
0.0
 11
8747.0821895000026
 21
17517.825590000011
 31
0.0
  0
LINE
  5
7ED8
  8
SUNPOU
  6
CONTINUOUS
 62
     4
 10
8738.5128108802473
 20
20085.32559
 30
0.0
 11
8667.0821895000026
 21
20085.32559
 31
0.0
  0
LINE
  5
7ED9
  8
SUNPOU
  6
CONTINUOUS
 62
     4
 10
8747.0821895000026
 20
17517.825590000011
 30
0.0
 11
8747.0821895000026
 21
20085.32559
 31
0.0
  0
LINE
  5
7EDA
  8
SUNPOU
  6
CONTINUOUS
 62
     4
 10
9514.0819654999996
 20
20307.82149900002
 30
0.0
 11
8667.0821895000026
 21
20307.82149900002
 31
0.0
  0
LINE
  5
7EDB
  8
SUNPOU
  6
CONTINUOUS
 62
     4
 10
8747.0821895000026
 20
20085.32559
 30
0.0
 11
8747.0821895000026
 21
20307.82149900002
 31
0.0
  0
LINE
  5
7EDC
  8
SUNPOU
  6
CONTINUOUS
 62
     4
 10
9587.5820845000089
 20
20297.820971000001
 30
0.0
 11
9067.0821895000045
 21
20297.820971000001
 31
0.0
  0
LINE
  5
7EDD
  8
SUNPOU
  6
CONTINUOUS
 62
     4
 10
9514.0819654999996
 20
20307.82149900002
 30
0.0
 11
9067.0821895000045
 21
20307.82149900002
 31
0.0
  0
LINE
  5
7EDE
  8
SUNPOU
  6
CONTINUOUS
 62
     4
 10
9147.0821895000045
 20
20297.820971000001
 30
0.0
 11
9147.0821895000045
 21
20057.82097099999
 31
0.0
  0
LINE
  5
7EDF
  8
SUNPOU
  6
CONTINUOUS
 62
     4
 10
9147.0821895000045
 20
20307.82149900002
 30
0.0
 11
9147.0821895000081
 21
20547.82149900002
 31
0.0
  0
LINE
  5
7EE0
  8
SUNPOU
  6
CONTINUOUS
 62
     4
 10
9147.0821895000045
 20
20297.820971000001
 30
0.0
 11
9147.0821895000045
 21
20307.82149900002
 31
0.0
  0
LINE
  5
7EE1
  8
SUNPOU
  6
CONTINUOUS
 62
     4
 10
12945.07602749997
 20
20857.830737
 30
0.0
 11
14811.576027499959
 21
20857.830737
 31
0.0
  0
LINE
  5
7EE2
  8
SUNPOU
  6
CONTINUOUS
 62
     4
 10
14897.076027499979
 20
20387.82545800001
 30
0.0
 11
14897.076027499979
 21
20937.830737
 31
0.0
  0
LINE
  5
7EE3
  8
SUNPOU
  6
CONTINUOUS
 62
     4
 10
14811.576027499959
 20
20857.830737
 30
0.0
 11
14571.576027499959
 21
20857.830737
 31
0.0
  0
LINE
  5
7EE4
  8
SUNPOU
  6
CONTINUOUS
 62
     4
 10
14894.076027499979
 20
20857.830737
 30
0.0
 11
15134.076027499979
 21
20857.830737
 31
0.0
  0
LINE
  5
7EE5
  8
SUNPOU
  6
CONTINUOUS
 62
     4
 10
14811.576027499959
 20
20857.830737
 30
0.0
 11
14894.076027499979
 21
20857.830737
 31
0.0
  0
LINE
  5
7EE6
  8
SUNPOU
  6
CONTINUOUS
 62
     4
 10
12945.087903500011
 20
20857.830737
 30
0.0
 11
9676.5879035000216
 21
20857.830737
 31
0.0
  0
LINE
  5
7EE7
  8
SUNPOU
  6
CONTINUOUS
 62
     4
 10
9591.0879035000162
 20
20387.82545800001
 30
0.0
 11
9591.0879035000162
 21
20937.830737
 31
0.0
  0
LINE
  5
7EE8
  8
SUNPOU
  6
CONTINUOUS
 62
     4
 10
9676.5879035000216
 20
20857.830737
 30
0.0
 11
9916.5879035000216
 21
20857.830737
 31
0.0
  0
LINE
  5
7EE9
  8
SUNPOU
  6
CONTINUOUS
 62
     4
 10
9594.0879035000162
 20
20857.830737
 30
0.0
 11
9354.0879035000216
 21
20857.830737
 31
0.0
  0
LINE
  5
7EEA
  8
SUNPOU
  6
CONTINUOUS
 62
     4
 10
9676.5879035000216
 20
20857.830737
 30
0.0
 11
9594.0879035000162
 21
20857.830737
 31
0.0
  0
TEXT
  5
7EEF
  8
0
  6
CONTINUOUS
 62
     7
 10
9060.0911974767587
 20
20937.830737
 30
0.0
 40
160.0
  1
85.5
  0
TEXT
  5
7EF0
  8
0
  6
CONTINUOUS
 62
     7
 10
10910.837903500011
 20
20937.830737
 30
0.0
 40
160.0
  1
3268.5
  0
TEXT
  5
7EF1
  8
0
  6
CONTINUOUS
 62
     7
 10
14948.07273352324
 20
20937.830737
 30
0.0
 40
160.0
  1
85.5
  0
TEXT
  5
7EF2
  8
0
  6
CONTINUOUS
 62
     7
 10
13504.992694166631
 20
20937.830737
 30
0.0
 40
160.0
  1
1866.5
  0
TEXT
  5
7EF3
  8
0
  6
CONTINUOUS
 62
     7
 10
9067.0821895000045
 20
20454.488165666691
 30
0.0
 40
160.0
  1
10
 50
90.0
  0
TEXT
  5
7EF4
  8
0
  6
CONTINUOUS
 62
     7
 10
8667.0821895000026
 20
20396.780774807681
 30
0.0
 40
160.0
  1
222.5
 50
90.0
  0
TEXT
  5
7EF5
  8
0
  6
CONTINUOUS
 62
     7
 10
8667.0821895000026
 20
18401.57559
 30
0.0
 40
160.0
  1
2567.5
 50
90.0
  0
TEXT
  5
7EF6
  8
0
  6
CONTINUOUS
 62
     7
 10
8667.0821895000026
 20
15792.15892333334
 30
0.0
 40
160.0
  1
2918
 50
90.0
  0
TEXT
  5
7EF7
  8
0
  6
CONTINUOUS
 62
     7
 10
8667.0821895000026
 20
13791.872579702631
 30
0.0
 40
160.0
  1
192.5
 50
90.0
  0
TEXT
  5
7EF8
  8
0
  6
CONTINUOUS
 62
     7
 10
21156.518044666682
 20
20617.824800000009
 30
0.0
 40
160.0
  1
701
  0
TEXT
  5
7EF9
  8
0
  6
CONTINUOUS
 62
     7
 10
21857.518044666682
 20
20937.824799999999
 30
0.0
 40
160.0
  1
701
  0
TEXT
  5
7EFA
  8
0
  6
CONTINUOUS
 62
     7
 10
22558.518044666689
 20
20937.824799999999
 30
0.0
 40
160.0
  1
701
  0
TEXT
  5
7EFB
  8
0
  6
CONTINUOUS
 62
     7
 10
23248.018539416691
 20
20937.824799999999
 30
0.0
 40
160.0
  1
758
  0
TEXT
  5
7EFC
  8
0
  6
CONTINUOUS
 62
     7
 10
19969.03939847121
 20
20937.824799999999
 30
0.0
 40
160.0
  1
42.5
  0
TEXT
  5
7EFD
  8
0
  6
CONTINUOUS
 62
     7
 10
20672.684711333339
 20
20937.824799999999
 30
0.0
 40
160.0
  1
407.5
  0
TEXT
  5
7EFE
  8
0
  6
CONTINUOUS
 62
     7
 10
25829.6633575288
 20
20937.824799999999
 30
0.0
 40
160.0
  1
42.5
  0
TEXT
  5
7EFF
  8
0
  6
CONTINUOUS
 62
     7
 10
24425.018044666682
 20
20617.824800000009
 30
0.0
 40
160.0
  1
701
  0
TEXT
  5
7F00
  8
0
  6
CONTINUOUS
 62
     7
 10
25114.518539416691
 20
20937.824799999999
 30
0.0
 40
160.0
  1
758
  0
TEXT
  5
7F01
  8
0
  6
CONTINUOUS
 62
     7
 10
23941.184711333361
 20
20937.824799999999
 30
0.0
 40
160.0
  1
407.5
  0
TEXT
  5
7F02
  8
0
  6
CONTINUOUS
 62
     7
 10
27119.350982000029
 20
13983.770080603201
 30
0.0
 40
160.0
  1
42.5
 50
90.0
  0
TEXT
  5
7F03
  8
0
  6
CONTINUOUS
 62
     7
 10
27119.350982000029
 20
20221.377143396781
 30
0.0
 40
160.0
  1
42.5
 50
90.0
  0
TEXT
  5
7F04
  8
0
  6
CONTINUOUS
 62
     7
 10
27519.350982000011
 20
16955.906945333329
 30
0.0
 40
160.0
  1
5570.5
 50
90.0
  0
TEXT
  5
7F05
  8
0
  6
CONTINUOUS
 62
     7
 10
27119.350982000011
 20
15792.15694533333
 30
0.0
 40
160.0
  1
2918
 50
90.0
  0
TEXT
  5
7F06
  8
0
  6
CONTINUOUS
 62
     7
 10
27119.350982000011
 20
18401.573612
 30
0.0
 40
160.0
  1
2567.5
 50
90.0
  0
TEXT
  5
7F07
  8
0
  6
CONTINUOUS
 62
     7
 10
26712.675819035008
 20
20190.281669987849
 30
0.0
 40
160.0
  1
407.5
 50
90.0
  0
TEXT
  5
7F08
  8
0
  6
CONTINUOUS
 62
     7
 10
26719.350982000011
 20
19153.990278666672
 30
0.0
 40
160.0
  1
701
 50
90.0
  0
TEXT
  5
7F09
  8
0
  6
CONTINUOUS
 62
     7
 10
26719.350982000011
 20
18452.990278666672
 30
0.0
 40
160.0
  1
701
 50
90.0
  0
TEXT
  5
7F0A
  8
0
  6
CONTINUOUS
 62
     7
 10
26719.350982000011
 20
17683.490278666672
 30
0.0
 40
160.0
  1
758
 50
90.0
  0
TEXT
  5
7F0B
  8
0
  6
CONTINUOUS
 62
     7
 10
26719.350982000011
 20
16925.490278666672
 30
0.0
 40
160.0
  1
758
 50
90.0
  0
TEXT
  5
7F0C
  8
0
  6
CONTINUOUS
 62
     7
 10
26719.350982000011
 20
16236.11053441667
 30
0.0
 40
160.0
  1
701
 50
90.0
  0
TEXT
  5
7F0D
  8
0
  6
CONTINUOUS
 62
     7
 10
26719.350982000011
 20
15535.110534416661
 30
0.0
 40
160.0
  1
701
 50
90.0
  0
TEXT
  5
7F0E
  8
0
  6
CONTINUOUS
 62
     7
 10
26719.350982000011
 20
14765.490278666661
 30
0.0
 40
160.0
  1
758
 50
90.0
  0
TEXT
  5
7F0F
  8
0
  6
CONTINUOUS
 62
     7
 10
22859.351378000021
 20
13308.37552799998
 30
0.0
 40
160.0
  1
5220
  0
TEXT
  5
7F10
  8
0
  6
CONTINUOUS
 62
     7
 10
20689.905050382102
 20
13708.37552799998
 30
0.0
 40
160.0
  1
42.5
  0
TEXT
  5
7F11
  8
0
  6
CONTINUOUS
 62
     7
 10
25108.797705617912
 20
13708.37552799998
 30
0.0
 40
160.0
  1
42.5
  0
TEXT
  5
7F12
  8
0
  6
CONTINUOUS
 62
     7
 10
25824.905050382109
 20
13708.37552799998
 30
0.0
 40
160.0
  1
42.5
  0
TEXT
  5
7F13
  8
0
  6
CONTINUOUS
 62
     7
 10
19973.797705617912
 20
13708.37552799998
 30
0.0
 40
160.0
  1
42.5
  0
TEXT
  5
7F14
  8
0
  6
CONTINUOUS
 62
     7
 10
13174.51152578865
 20
5206.5895069999997
 30
0.0
 40
160.0
  1
2918
  0
TEXT
  5
7F15
  8
0
  6
CONTINUOUS
 62
     7
 10
10298.42819245532
 20
5206.5895069999997
 30
0.0
 40
160.0
  1
2567.5
  0
TEXT
  5
7F16
  8
0
  6
CONTINUOUS
 62
     7
 10
8775.0044833590146
 20
5206.5895069999997
 30
0.0
 40
160.0
  1
42.5
  0
TEXT
  5
7F17
  8
0
  6
CONTINUOUS
 62
     7
 10
15080.996829765139
 20
5206.5895069999997
 30
0.0
 40
160.0
  1
42.5
  0
TEXT
  5
7F18
  8
0
  6
CONTINUOUS
 62
     7
 10
11770.76152578865
 20
4806.589672000001
 30
0.0
 40
160.0
  1
5570.5
  0
TEXT
  5
7F19
  8
0
  6
CONTINUOUS
 62
     7
 10
11770.76152578865
 20
9654.5910179999992
 30
0.0
 40
160.0
  1
5570.5
  0
TEXT
  5
7F1A
  8
0
  6
CONTINUOUS
 62
     7
 10
15159.34485912198
 20
9654.5910179999992
 30
0.0
 40
160.0
  1
150
  0
TEXT
  5
7F1B
  8
0
  6
CONTINUOUS
 62
     7
 10
11769.09485912198
 20
10054.58936799999
 30
0.0
 40
160.0
  1
5900.5
  0
TEXT
  5
7F1C
  8
0
  6
CONTINUOUS
 62
     7
 10
8202.1797744553314
 20
6725.9226753333351
 30
0.0
 40
160.0
  1
2156（2396）
 50
90.0
  0
TEXT
  5
7F1D
  8
0
  6
CONTINUOUS
 62
     7
 10
15952.6766084553
 20
6582.1726753333351
 30
0.0
 40
160.0
  1
2348.5（2588.5）
 50
90.0
  0
TEXT
  5
7F1E
  8
0
  6
CONTINUOUS
 62
     7
 10
8731.2248218039549
 20
9654.5910179999992
 30
0.0
 40
160.0
  1
180
  0
TEXT
  5
7F1F
  8
0
  6
CONTINUOUS
 62
     7
 10
23209.354016000001
 20
4806.5896719999937
 30
0.0
 40
160.0
  1
5220
  0
TEXT
  5
7F20
  8
0
  6
CONTINUOUS
 62
     7
 10
20313.315025741151
 20
5206.5895069999951
 30
0.0
 40
160.0
  1
42.5
  0
TEXT
  5
7F21
  8
0
  6
CONTINUOUS
 62
     7
 10
26185.396965258849
 20
5206.5895069999951
 30
0.0
 40
160.0
  1
42.5
  0
TEXT
  5
7F22
  8
0
  6
CONTINUOUS
 62
     7
 10
22156.104016000008
 20
5206.5895069999951
 30
0.0
 40
160.0
  1
3268.5
  0
TEXT
  5
7F23
  8
0
  6
CONTINUOUS
 62
     7
 10
24750.27068266668
 20
5206.5895069999951
 30
0.0
 40
160.0
  1
1866.5
  0
TEXT
  5
7F24
  8
0
  6
CONTINUOUS
 62
     7
 10
24659.604016000001
 20
5873.256173666663
 30
0.0
 40
160.0
  1
有効開口巾
  0
TEXT
  5
7F25
  8
0
  6
CONTINUOUS
 62
     7
 10
24702.27068266668
 20
5606.589506999996
 30
0.0
 40
160.0
  1
 1678.5
  0
TEXT
  5
7F26
  8
0
  6
CONTINUOUS
 62
     7
 10
21654.77068266668
 20
5606.589506999996
 30
0.0
 40
160.0
  1
有効開口巾 3080.5
  0
TEXT
  5
7F2B
  8
0
  6
CONTINUOUS
 62
     7
 10
19591.852366999981
 20
6582.1726753333323
 30
0.0
 40
160.0
  1
2348.5（2588.5）
 50
90.0
  0
TEXT
  5
7F2C
  8
0
  6
CONTINUOUS
 62
     7
 10
19991.854675999999
 20
6490.5685802912658
 30
0.0
 40
160.0
  1
有効開口高サ 1891.5
 50
90.0
  0
ARC
  5
7F2D
  8
0
  6
BYBLOCK
 62
     0
 10
20071.854675999992
 20
6426.5893419999911
 30
0.0
 40
15.0
 50
90.0
 51
270.0
  0
ARC
  5
7F2E
  8
0
  6
BYBLOCK
 62
     0
 10
20071.854675999992
 20
6426.5893419999911
 30
0.0
 40
15.0
 50
270.0
 51
90.0
  0
ARC
  5
7F2F
  8
0
  6
BYBLOCK
 62
     0
 10
20071.854675999992
 20
8318.0893419999957
 30
0.0
 40
15.0
 50
270.0
 51
90.0
  0
ARC
  5
7F30
  8
0
  6
BYBLOCK
 62
     0
 10
20071.854675999992
 20
8318.0893419999957
 30
0.0
 40
15.0
 50
90.0
 51
270.0
  0
ARC
  5
7F31
  8
0
  6
BYBLOCK
 62
     0
 10
19671.852366999981
 20
6426.5893419999911
 30
0.0
 40
15.0
 50
90.0
 51
270.0
  0
ARC
  5
7F32
  8
0
  6
BYBLOCK
 62
     0
 10
19671.852366999981
 20
6426.5893419999911
 30
0.0
 40
15.0
 50
270.0
 51
90.0
  0
ARC
  5
7F33
  8
0
  6
BYBLOCK
 62
     0
 10
19671.852366999989
 20
8775.0893420000011
 30
0.0
 40
15.0
 50
270.0
 51
90.0
  0
ARC
  5
7F34
  8
0
  6
BYBLOCK
 62
     0
 10
19671.852366999989
 20
8775.0893420000011
 30
0.0
 40
15.0
 50
90.0
 51
270.0
  0
ARC
  5
7F45
  8
0
  6
BYBLOCK
 62
     0
 10
21015.854016000001
 20
5526.589506999997
 30
0.0
 40
15.0
 50
0.0
 51
180.0
  0
ARC
  5
7F46
  8
0
  6
BYBLOCK
 62
     0
 10
21015.854016000001
 20
5526.589506999997
 30
0.0
 40
15.0
 50
180.0
 51
0.0
  0
ARC
  5
7F47
  8
0
  6
BYBLOCK
 62
     0
 10
24096.354016000008
 20
5526.589506999997
 30
0.0
 40
15.0
 50
180.0
 51
0.0
  0
ARC
  5
7F48
  8
0
  6
BYBLOCK
 62
     0
 10
24096.354016000008
 20
5526.589506999997
 30
0.0
 40
15.0
 50
0.0
 51
180.0
  0
ARC
  5
7F49
  8
0
  6
BYBLOCK
 62
     0
 10
24284.354016000008
 20
5526.589506999997
 30
0.0
 40
15.0
 50
0.0
 51
180.0
  0
ARC
  5
7F4A
  8
0
  6
BYBLOCK
 62
     0
 10
24284.354016000008
 20
5526.589506999997
 30
0.0
 40
15.0
 50
180.0
 51
0.0
  0
ARC
  5
7F4B
  8
0
  6
BYBLOCK
 62
     0
 10
25962.854016000001
 20
5526.589506999997
 30
0.0
 40
15.0
 50
180.0
 51
0.0
  0
ARC
  5
7F4C
  8
0
  6
BYBLOCK
 62
     0
 10
25962.854016000001
 20
5526.589506999997
 30
0.0
 40
15.0
 50
0.0
 51
180.0
  0
ARC
  5
7F4D
  8
0
  6
BYBLOCK
 62
     0
 10
24190.354016000001
 20
5126.5895069999942
 30
0.0
 40
15.0
 50
0.0
 51
180.0
  0
ARC
  5
7F4E
  8
0
  6
BYBLOCK
 62
     0
 10
24190.354016000001
 20
5126.5895069999942
 30
0.0
 40
15.0
 50
180.0
 51
0.0
  0
ARC
  5
7F4F
  8
0
  6
BYBLOCK
 62
     0
 10
26056.854016000008
 20
5126.5895069999942
 30
0.0
 40
15.0
 50
180.0
 51
0.0
  0
ARC
  5
7F50
  8
0
  6
BYBLOCK
 62
     0
 10
26056.854016000008
 20
5126.5895069999942
 30
0.0
 40
15.0
 50
0.0
 51
180.0
  0
ARC
  5
7F51
  8
0
  6
BYBLOCK
 62
     0
 10
20921.854016000001
 20
5126.5895069999942
 30
0.0
 40
15.0
 50
0.0
 51
180.0
  0
ARC
  5
7F52
  8
0
  6
BYBLOCK
 62
     0
 10
20921.854016000001
 20
5126.5895069999942
 30
0.0
 40
15.0
 50
180.0
 51
0.0
  0
ARC
  5
7F53
  8
0
  6
BYBLOCK
 62
     0
 10
24190.354016000001
 20
5126.5895069999942
 30
0.0
 40
15.0
 50
180.0
 51
0.0
  0
ARC
  5
7F54
  8
0
  6
BYBLOCK
 62
     0
 10
24190.354016000001
 20
5126.5895069999942
 30
0.0
 40
15.0
 50
0.0
 51
180.0
  0
ARC
  5
7F55
  8
0
  6
BYBLOCK
 62
     0
 10
26056.857974999999
 20
5126.5895069999942
 30
0.0
 40
15.0
 50
180.0
 51
0.0
  0
ARC
  5
7F56
  8
0
  6
BYBLOCK
 62
     0
 10
26056.857974999999
 20
5126.5895069999942
 30
0.0
 40
15.0
 50
0.0
 51
180.0
  0
ARC
  5
7F57
  8
0
  6
BYBLOCK
 62
     0
 10
26099.35797500001
 20
5126.5895069999942
 30
0.0
 40
15.0
 50
0.0
 51
180.0
  0
ARC
  5
7F58
  8
0
  6
BYBLOCK
 62
     0
 10
26099.35797500001
 20
5126.5895069999942
 30
0.0
 40
15.0
 50
180.0
 51
0.0
  0
ARC
  5
7F59
  8
0
  6
BYBLOCK
 62
     0
 10
20921.854016000001
 20
5126.5895069999942
 30
0.0
 40
15.0
 50
0.0
 51
180.0
  0
ARC
  5
7F5A
  8
0
  6
BYBLOCK
 62
     0
 10
20921.854016000001
 20
5126.5895069999942
 30
0.0
 40
15.0
 50
180.0
 51
0.0
  0
ARC
  5
7F5B
  8
0
  6
BYBLOCK
 62
     0
 10
20879.354016000008
 20
5126.5895069999942
 30
0.0
 40
15.0
 50
180.0
 51
0.0
  0
ARC
  5
7F5C
  8
0
  6
BYBLOCK
 62
     0
 10
20879.354016000008
 20
5126.5895069999942
 30
0.0
 40
15.0
 50
0.0
 51
180.0
  0
ARC
  5
7F5D
  8
0
  6
BYBLOCK
 62
     0
 10
20879.354016000008
 20
4726.5896719999937
 30
0.0
 40
15.0
 50
0.0
 51
180.0
  0
ARC
  5
7F5E
  8
0
  6
BYBLOCK
 62
     0
 10
20879.354016000008
 20
4726.5896719999937
 30
0.0
 40
15.0
 50
180.0
 51
0.0
  0
ARC
  5
7F5F
  8
0
  6
BYBLOCK
 62
     0
 10
26099.354016000001
 20
4726.5896719999937
 30
0.0
 40
15.0
 50
180.0
 51
0.0
  0
ARC
  5
7F60
  8
0
  6
BYBLOCK
 62
     0
 10
26099.354016000001
 20
4726.5896719999937
 30
0.0
 40
15.0
 50
0.0
 51
180.0
  0
ARC
  5
7F61
  8
0
  6
BYBLOCK
 62
     0
 10
9372.1781924553197
 20
9574.5910179999992
 30
0.0
 40
15.0
 50
180.0
 51
0.0
  0
ARC
  5
7F62
  8
0
  6
BYBLOCK
 62
     0
 10
9372.1781924553197
 20
9574.5910179999992
 30
0.0
 40
15.0
 50
0.0
 51
180.0
  0
ARC
  5
7F63
  8
0
  6
BYBLOCK
 62
     0
 10
9192.1781924553216
 20
9574.5910179999992
 30
0.0
 40
15.0
 50
0.0
 51
180.0
  0
ARC
  5
7F64
  8
0
  6
BYBLOCK
 62
     0
 10
9192.1781924553216
 20
9574.5910179999992
 30
0.0
 40
15.0
 50
180.0
 51
0.0
  0
ARC
  5
7F65
  8
0
  6
BYBLOCK
 62
     0
 10
16032.6766084553
 20
6426.5893419999966
 30
0.0
 40
15.0
 50
90.0
 51
270.0
  0
ARC
  5
7F66
  8
0
  6
BYBLOCK
 62
     0
 10
16032.6766084553
 20
6426.5893419999966
 30
0.0
 40
15.0
 50
270.0
 51
90.0
  0
ARC
  5
7F67
  8
0
  6
BYBLOCK
 62
     0
 10
16032.6766084553
 20
8775.0893419999993
 30
0.0
 40
15.0
 50
270.0
 51
90.0
  0
ARC
  5
7F68
  8
0
  6
BYBLOCK
 62
     0
 10
16032.6766084553
 20
8775.0893419999993
 30
0.0
 40
15.0
 50
90.0
 51
270.0
  0
ARC
  5
7F69
  8
0
  6
BYBLOCK
 62
     0
 10
8282.1797744553332
 20
6426.5893419999966
 30
0.0
 40
15.0
 50
90.0
 51
270.0
  0
ARC
  5
7F6A
  8
0
  6
BYBLOCK
 62
     0
 10
8282.1797744553332
 20
6426.5893419999966
 30
0.0
 40
15.0
 50
270.0
 51
90.0
  0
ARC
  5
7F6B
  8
0
  6
BYBLOCK
 62
     0
 10
8282.1797744553332
 20
8582.5893420000029
 30
0.0
 40
15.0
 50
270.0
 51
90.0
  0
ARC
  5
7F6C
  8
0
  6
BYBLOCK
 62
     0
 10
8282.1797744553332
 20
8582.5893420000029
 30
0.0
 40
15.0
 50
90.0
 51
270.0
  0
ARC
  5
7F6D
  8
0
  6
BYBLOCK
 62
     0
 10
9192.1781924553216
 20
9974.5893679999972
 30
0.0
 40
15.0
 50
0.0
 51
180.0
  0
ARC
  5
7F6E
  8
0
  6
BYBLOCK
 62
     0
 10
9192.1781924553216
 20
9974.5893679999972
 30
0.0
 40
15.0
 50
180.0
 51
0.0
  0
ARC
  5
7F6F
  8
0
  6
BYBLOCK
 62
     0
 10
15092.67819245532
 20
9974.5893679999972
 30
0.0
 40
15.0
 50
180.0
 51
0.0
  0
ARC
  5
7F70
  8
0
  6
BYBLOCK
 62
     0
 10
15092.67819245532
 20
9974.5893679999972
 30
0.0
 40
15.0
 50
0.0
 51
180.0
  0
ARC
  5
7F71
  8
0
  6
BYBLOCK
 62
     0
 10
14942.67819245532
 20
9574.5910179999992
 30
0.0
 40
15.0
 50
180.0
 51
0.0
  0
ARC
  5
7F72
  8
0
  6
BYBLOCK
 62
     0
 10
14942.67819245532
 20
9574.5910179999992
 30
0.0
 40
15.0
 50
0.0
 51
180.0
  0
ARC
  5
7F73
  8
0
  6
BYBLOCK
 62
     0
 10
15092.67819245532
 20
9574.5910179999992
 30
0.0
 40
15.0
 50
0.0
 51
180.0
  0
ARC
  5
7F74
  8
0
  6
BYBLOCK
 62
     0
 10
15092.67819245532
 20
9574.5910179999992
 30
0.0
 40
15.0
 50
180.0
 51
0.0
  0
ARC
  5
7F75
  8
0
  6
BYBLOCK
 62
     0
 10
9372.1781924553197
 20
9574.5910179999992
 30
0.0
 40
15.0
 50
0.0
 51
180.0
  0
ARC
  5
7F76
  8
0
  6
BYBLOCK
 62
     0
 10
9372.1781924553197
 20
9574.5910179999992
 30
0.0
 40
15.0
 50
180.0
 51
0.0
  0
ARC
  5
7F77
  8
0
  6
BYBLOCK
 62
     0
 10
14942.67819245532
 20
9574.5910179999992
 30
0.0
 40
15.0
 50
180.0
 51
0.0
  0
ARC
  5
7F78
  8
0
  6
BYBLOCK
 62
     0
 10
14942.67819245532
 20
9574.5910179999992
 30
0.0
 40
15.0
 50
0.0
 51
180.0
  0
ARC
  5
7F79
  8
0
  6
BYBLOCK
 62
     0
 10
9372.1781924553197
 20
4726.589672000001
 30
0.0
 40
15.0
 50
0.0
 51
180.0
  0
ARC
  5
7F7A
  8
0
  6
BYBLOCK
 62
     0
 10
9372.1781924553197
 20
4726.589672000001
 30
0.0
 40
15.0
 50
180.0
 51
0.0
  0
ARC
  5
7F7B
  8
0
  6
BYBLOCK
 62
     0
 10
14942.67819245532
 20
4726.589672000001
 30
0.0
 40
15.0
 50
180.0
 51
0.0
  0
ARC
  5
7F7C
  8
0
  6
BYBLOCK
 62
     0
 10
14942.67819245532
 20
4726.589672000001
 30
0.0
 40
15.0
 50
0.0
 51
180.0
  0
ARC
  5
7F7D
  8
0
  6
BYBLOCK
 62
     0
 10
14900.178192455311
 20
5126.5895069999997
 30
0.0
 40
15.0
 50
180.0
 51
0.0
  0
ARC
  5
7F7E
  8
0
  6
BYBLOCK
 62
     0
 10
14900.178192455311
 20
5126.5895069999997
 30
0.0
 40
15.0
 50
0.0
 51
180.0
  0
ARC
  5
7F7F
  8
0
  6
BYBLOCK
 62
     0
 10
14942.67819245532
 20
5126.5895069999997
 30
0.0
 40
15.0
 50
0.0
 51
180.0
  0
ARC
  5
7F80
  8
0
  6
BYBLOCK
 62
     0
 10
14942.67819245532
 20
5126.5895069999997
 30
0.0
 40
15.0
 50
180.0
 51
0.0
  0
ARC
  5
7F81
  8
0
  6
BYBLOCK
 62
     0
 10
9414.6781924553234
 20
5126.5895069999997
 30
0.0
 40
15.0
 50
0.0
 51
180.0
  0
ARC
  5
7F82
  8
0
  6
BYBLOCK
 62
     0
 10
9414.6781924553234
 20
5126.5895069999997
 30
0.0
 40
15.0
 50
180.0
 51
0.0
  0
ARC
  5
7F83
  8
0
  6
BYBLOCK
 62
     0
 10
9372.1781924553197
 20
5126.5895069999997
 30
0.0
 40
15.0
 50
180.0
 51
0.0
  0
ARC
  5
7F84
  8
0
  6
BYBLOCK
 62
     0
 10
9372.1781924553197
 20
5126.5895069999997
 30
0.0
 40
15.0
 50
0.0
 51
180.0
  0
ARC
  5
7F85
  8
0
  6
BYBLOCK
 62
     0
 10
11982.178192455311
 20
5126.5895069999997
 30
0.0
 40
15.0
 50
180.0
 51
0.0
  0
ARC
  5
7F86
  8
0
  6
BYBLOCK
 62
     0
 10
11982.178192455311
 20
5126.5895069999997
 30
0.0
 40
15.0
 50
0.0
 51
180.0
  0
ARC
  5
7F87
  8
0
  6
BYBLOCK
 62
     0
 10
9414.6781924553234
 20
5126.5895069999997
 30
0.0
 40
15.0
 50
0.0
 51
180.0
  0
ARC
  5
7F88
  8
0
  6
BYBLOCK
 62
     0
 10
9414.6781924553234
 20
5126.5895069999997
 30
0.0
 40
15.0
 50
180.0
 51
0.0
  0
ARC
  5
7F89
  8
0
  6
BYBLOCK
 62
     0
 10
11982.178192455311
 20
5126.5895069999997
 30
0.0
 40
15.0
 50
0.0
 51
180.0
  0
ARC
  5
7F8A
  8
0
  6
BYBLOCK
 62
     0
 10
11982.178192455311
 20
5126.5895069999997
 30
0.0
 40
15.0
 50
180.0
 51
0.0
  0
ARC
  5
7F8B
  8
0
  6
BYBLOCK
 62
     0
 10
14900.178192455311
 20
5126.5895069999997
 30
0.0
 40
15.0
 50
180.0
 51
0.0
  0
ARC
  5
7F8C
  8
0
  6
BYBLOCK
 62
     0
 10
14900.178192455311
 20
5126.5895069999997
 30
0.0
 40
15.0
 50
0.0
 51
180.0
  0
ARC
  5
7F8D
  8
0
  6
BYBLOCK
 62
     0
 10
20571.851378000021
 20
13628.37552799998
 30
0.0
 40
15.0
 50
0.0
 51
180.0
  0
ARC
  5
7F8E
  8
0
  6
BYBLOCK
 62
     0
 10
20571.851378000021
 20
13628.37552799998
 30
0.0
 40
15.0
 50
180.0
 51
0.0
  0
ARC
  5
7F8F
  8
0
  6
BYBLOCK
 62
     0
 10
20529.349135000019
 20
13628.37552799998
 30
0.0
 40
15.0
 50
180.0
 51
0.0
  0
ARC
  5
7F90
  8
0
  6
BYBLOCK
 62
     0
 10
20529.349135000019
 20
13628.37552799998
 30
0.0
 40
15.0
 50
0.0
 51
180.0
  0
ARC
  5
7F91
  8
0
  6
BYBLOCK
 62
     0
 10
25706.851378000021
 20
13628.37552799998
 30
0.0
 40
15.0
 50
180.0
 51
0.0
  0
ARC
  5
7F92
  8
0
  6
BYBLOCK
 62
     0
 10
25706.851378000021
 20
13628.37552799998
 30
0.0
 40
15.0
 50
0.0
 51
180.0
  0
ARC
  5
7F93
  8
0
  6
BYBLOCK
 62
     0
 10
25749.353621000009
 20
13628.37552799998
 30
0.0
 40
15.0
 50
0.0
 51
180.0
  0
ARC
  5
7F94
  8
0
  6
BYBLOCK
 62
     0
 10
25749.353621000009
 20
13628.37552799998
 30
0.0
 40
15.0
 50
180.0
 51
0.0
  0
ARC
  5
7F95
  8
0
  6
BYBLOCK
 62
     0
 10
25706.851378000021
 20
13628.37552799998
 30
0.0
 40
15.0
 50
0.0
 51
180.0
  0
ARC
  5
7F96
  8
0
  6
BYBLOCK
 62
     0
 10
25706.851378000021
 20
13628.37552799998
 30
0.0
 40
15.0
 50
180.0
 51
0.0
  0
ARC
  5
7F97
  8
0
  6
BYBLOCK
 62
     0
 10
25664.349135000011
 20
13628.37552799998
 30
0.0
 40
15.0
 50
180.0
 51
0.0
  0
ARC
  5
7F98
  8
0
  6
BYBLOCK
 62
     0
 10
25664.349135000011
 20
13628.37552799998
 30
0.0
 40
15.0
 50
0.0
 51
180.0
  0
ARC
  5
7F99
  8
0
  6
BYBLOCK
 62
     0
 10
20571.851378000021
 20
13628.37552799998
 30
0.0
 40
15.0
 50
180.0
 51
0.0
  0
ARC
  5
7F9A
  8
0
  6
BYBLOCK
 62
     0
 10
20571.851378000021
 20
13628.37552799998
 30
0.0
 40
15.0
 50
0.0
 51
180.0
  0
ARC
  5
7F9B
  8
0
  6
BYBLOCK
 62
     0
 10
20614.35362100002
 20
13628.37552799998
 30
0.0
 40
15.0
 50
0.0
 51
180.0
  0
ARC
  5
7F9C
  8
0
  6
BYBLOCK
 62
     0
 10
20614.35362100002
 20
13628.37552799998
 30
0.0
 40
15.0
 50
180.0
 51
0.0
  0
ARC
  5
7F9D
  8
0
  6
BYBLOCK
 62
     0
 10
20529.349135000019
 20
13228.37552799998
 30
0.0
 40
15.0
 50
0.0
 51
180.0
  0
ARC
  5
7F9E
  8
0
  6
BYBLOCK
 62
     0
 10
20529.349135000019
 20
13228.37552799998
 30
0.0
 40
15.0
 50
180.0
 51
0.0
  0
ARC
  5
7F9F
  8
0
  6
BYBLOCK
 62
     0
 10
25749.353621000009
 20
13228.37552799998
 30
0.0
 40
15.0
 50
180.0
 51
0.0
  0
ARC
  5
7FA0
  8
0
  6
BYBLOCK
 62
     0
 10
25749.353621000009
 20
13228.37552799998
 30
0.0
 40
15.0
 50
0.0
 51
180.0
  0
ARC
  5
7FA1
  8
0
  6
BYBLOCK
 62
     0
 10
26799.350982000029
 20
15357.82361199998
 30
0.0
 40
15.0
 50
270.0
 51
90.0
  0
ARC
  5
7FA2
  8
0
  6
BYBLOCK
 62
     0
 10
26799.350982000029
 20
15357.82361199998
 30
0.0
 40
15.0
 50
90.0
 51
270.0
  0
ARC
  5
7FA3
  8
0
  6
BYBLOCK
 62
     0
 10
26799.350982000029
 20
14599.82361199998
 30
0.0
 40
15.0
 50
90.0
 51
270.0
  0
ARC
  5
7FA4
  8
0
  6
BYBLOCK
 62
     0
 10
26799.350982000029
 20
14599.82361199998
 30
0.0
 40
15.0
 50
270.0
 51
90.0
  0
ARC
  5
7FA5
  8
0
  6
BYBLOCK
 62
     0
 10
26799.350982000029
 20
16059.0641235
 30
0.0
 40
15.0
 50
270.0
 51
90.0
  0
ARC
  5
7FA6
  8
0
  6
BYBLOCK
 62
     0
 10
26799.350982000029
 20
16059.0641235
 30
0.0
 40
15.0
 50
90.0
 51
270.0
  0
ARC
  5
7FA7
  8
0
  6
BYBLOCK
 62
     0
 10
26799.350982000029
 20
15357.82361199998
 30
0.0
 40
15.0
 50
90.0
 51
270.0
  0
ARC
  5
7FA8
  8
0
  6
BYBLOCK
 62
     0
 10
26799.350982000029
 20
15357.82361199998
 30
0.0
 40
15.0
 50
270.0
 51
90.0
  0
ARC
  5
7FA9
  8
0
  6
BYBLOCK
 62
     0
 10
26799.350982000029
 20
16759.823611999989
 30
0.0
 40
15.0
 50
270.0
 51
90.0
  0
ARC
  5
7FAA
  8
0
  6
BYBLOCK
 62
     0
 10
26799.350982000029
 20
16759.823611999989
 30
0.0
 40
15.0
 50
90.0
 51
270.0
  0
ARC
  5
7FAB
  8
0
  6
BYBLOCK
 62
     0
 10
26799.350982000029
 20
16059.0641235
 30
0.0
 40
15.0
 50
90.0
 51
270.0
  0
ARC
  5
7FAC
  8
0
  6
BYBLOCK
 62
     0
 10
26799.350982000029
 20
16059.0641235
 30
0.0
 40
15.0
 50
270.0
 51
90.0
  0
ARC
  5
7FAD
  8
0
  6
BYBLOCK
 62
     0
 10
26799.350982000029
 20
17517.823611999989
 30
0.0
 40
15.0
 50
270.0
 51
90.0
  0
ARC
  5
7FAE
  8
0
  6
BYBLOCK
 62
     0
 10
26799.350982000029
 20
17517.823611999989
 30
0.0
 40
15.0
 50
90.0
 51
270.0
  0
ARC
  5
7FAF
  8
0
  6
BYBLOCK
 62
     0
 10
26799.350982000029
 20
16759.823611999989
 30
0.0
 40
15.0
 50
90.0
 51
270.0
  0
ARC
  5
7FB0
  8
0
  6
BYBLOCK
 62
     0
 10
26799.350982000029
 20
16759.823611999989
 30
0.0
 40
15.0
 50
270.0
 51
90.0
  0
ARC
  5
7FB1
  8
0
  6
BYBLOCK
 62
     0
 10
26799.350982000029
 20
18275.823611999989
 30
0.0
 40
15.0
 50
270.0
 51
90.0
  0
ARC
  5
7FB2
  8
0
  6
BYBLOCK
 62
     0
 10
26799.350982000029
 20
18275.823611999989
 30
0.0
 40
15.0
 50
90.0
 51
270.0
  0
ARC
  5
7FB3
  8
0
  6
BYBLOCK
 62
     0
 10
26799.350982000029
 20
17517.823611999989
 30
0.0
 40
15.0
 50
90.0
 51
270.0
  0
ARC
  5
7FB4
  8
0
  6
BYBLOCK
 62
     0
 10
26799.350982000029
 20
17517.823611999989
 30
0.0
 40
15.0
 50
270.0
 51
90.0
  0
ARC
  5
7FB5
  8
0
  6
BYBLOCK
 62
     0
 10
26799.350982000029
 20
18976.823611999989
 30
0.0
 40
15.0
 50
270.0
 51
90.0
  0
ARC
  5
7FB6
  8
0
  6
BYBLOCK
 62
     0
 10
26799.350982000029
 20
18976.823611999989
 30
0.0
 40
15.0
 50
90.0
 51
270.0
  0
ARC
  5
7FB7
  8
0
  6
BYBLOCK
 62
     0
 10
26799.350982000029
 20
18275.823611999989
 30
0.0
 40
15.0
 50
90.0
 51
270.0
  0
ARC
  5
7FB8
  8
0
  6
BYBLOCK
 62
     0
 10
26799.350982000029
 20
18275.823611999989
 30
0.0
 40
15.0
 50
270.0
 51
90.0
  0
ARC
  5
7FB9
  8
0
  6
BYBLOCK
 62
     0
 10
26799.350982000029
 20
19677.823611999989
 30
0.0
 40
15.0
 50
270.0
 51
90.0
  0
ARC
  5
7FBA
  8
0
  6
BYBLOCK
 62
     0
 10
26799.350982000029
 20
19677.823611999989
 30
0.0
 40
15.0
 50
90.0
 51
270.0
  0
ARC
  5
7FBB
  8
0
  6
BYBLOCK
 62
     0
 10
26799.350982000029
 20
18976.823611999989
 30
0.0
 40
15.0
 50
90.0
 51
270.0
  0
ARC
  5
7FBC
  8
0
  6
BYBLOCK
 62
     0
 10
26799.350982000029
 20
18976.823611999989
 30
0.0
 40
15.0
 50
270.0
 51
90.0
  0
ARC
  5
7FBD
  8
0
  6
BYBLOCK
 62
     0
 10
26799.350982000029
 20
20085.323611999989
 30
0.0
 40
15.0
 50
270.0
 51
90.0
  0
ARC
  5
7FBE
  8
0
  6
BYBLOCK
 62
     0
 10
26799.350982000029
 20
20085.323611999989
 30
0.0
 40
15.0
 50
90.0
 51
270.0
  0
ARC
  5
7FBF
  8
0
  6
BYBLOCK
 62
     0
 10
26799.350982000029
 20
19677.823611999989
 30
0.0
 40
15.0
 50
90.0
 51
270.0
  0
ARC
  5
7FC0
  8
0
  6
BYBLOCK
 62
     0
 10
26799.350982000029
 20
19677.823611999989
 30
0.0
 40
15.0
 50
270.0
 51
90.0
  0
ARC
  5
7FC1
  8
0
  6
BYBLOCK
 62
     0
 10
27199.350982000029
 20
17517.823611999989
 30
0.0
 40
15.0
 50
90.0
 51
270.0
  0
ARC
  5
7FC2
  8
0
  6
BYBLOCK
 62
     0
 10
27199.350982000029
 20
17517.823611999989
 30
0.0
 40
15.0
 50
270.0
 51
90.0
  0
ARC
  5
7FC3
  8
0
  6
BYBLOCK
 62
     0
 10
27199.350982000029
 20
20085.323611999989
 30
0.0
 40
15.0
 50
270.0
 51
90.0
  0
ARC
  5
7FC4
  8
0
  6
BYBLOCK
 62
     0
 10
27199.350982000029
 20
20085.323611999989
 30
0.0
 40
15.0
 50
90.0
 51
270.0
  0
ARC
  5
7FC5
  8
0
  6
BYBLOCK
 62
     0
 10
27199.350982000029
 20
14599.82361199998
 30
0.0
 40
15.0
 50
90.0
 51
270.0
  0
ARC
  5
7FC6
  8
0
  6
BYBLOCK
 62
     0
 10
27199.350982000029
 20
14599.82361199998
 30
0.0
 40
15.0
 50
270.0
 51
90.0
  0
ARC
  5
7FC7
  8
0
  6
BYBLOCK
 62
     0
 10
27199.350982000029
 20
17517.823611999989
 30
0.0
 40
15.0
 50
270.0
 51
90.0
  0
ARC
  5
7FC8
  8
0
  6
BYBLOCK
 62
     0
 10
27199.350982000029
 20
17517.823611999989
 30
0.0
 40
15.0
 50
90.0
 51
270.0
  0
ARC
  5
7FC9
  8
0
  6
BYBLOCK
 62
     0
 10
27599.350982000022
 20
20127.820907000001
 30
0.0
 40
15.0
 50
270.0
 51
90.0
  0
ARC
  5
7FCA
  8
0
  6
BYBLOCK
 62
     0
 10
27599.350982000022
 20
20127.820907000001
 30
0.0
 40
15.0
 50
90.0
 51
270.0
  0
ARC
  5
7FCB
  8
0
  6
BYBLOCK
 62
     0
 10
27599.350982000022
 20
14557.32631699999
 30
0.0
 40
15.0
 50
90.0
 51
270.0
  0
ARC
  5
7FCC
  8
0
  6
BYBLOCK
 62
     0
 10
27599.350982000022
 20
14557.32631699999
 30
0.0
 40
15.0
 50
270.0
 51
90.0
  0
ARC
  5
7FCD
  8
0
  6
BYBLOCK
 62
     0
 10
27199.350982000029
 20
20085.323611999989
 30
0.0
 40
15.0
 50
270.0
 51
90.0
  0
ARC
  5
7FCE
  8
0
  6
BYBLOCK
 62
     0
 10
27199.350982000029
 20
20085.323611999989
 30
0.0
 40
15.0
 50
90.0
 51
270.0
  0
ARC
  5
7FCF
  8
0
  6
BYBLOCK
 62
     0
 10
27199.350982000029
 20
20127.820907000001
 30
0.0
 40
15.0
 50
90.0
 51
270.0
  0
ARC
  5
7FD0
  8
0
  6
BYBLOCK
 62
     0
 10
27199.350982000029
 20
20127.820907000001
 30
0.0
 40
15.0
 50
270.0
 51
90.0
  0
ARC
  5
7FD1
  8
0
  6
BYBLOCK
 62
     0
 10
27199.350982000029
 20
14599.82361199998
 30
0.0
 40
15.0
 50
90.0
 51
270.0
  0
ARC
  5
7FD2
  8
0
  6
BYBLOCK
 62
     0
 10
27199.350982000029
 20
14599.82361199998
 30
0.0
 40
15.0
 50
270.0
 51
90.0
  0
ARC
  5
7FD3
  8
0
  6
BYBLOCK
 62
     0
 10
27199.350982000029
 20
14557.32631699999
 30
0.0
 40
15.0
 50
270.0
 51
90.0
  0
ARC
  5
7FD4
  8
0
  6
BYBLOCK
 62
     0
 10
27199.350982000029
 20
14557.32631699999
 30
0.0
 40
15.0
 50
90.0
 51
270.0
  0
ARC
  5
7FD5
  8
0
  6
BYBLOCK
 62
     0
 10
23840.351378000021
 20
20857.824799999999
 30
0.0
 40
15.0
 50
0.0
 51
180.0
  0
ARC
  5
7FD6
  8
0
  6
BYBLOCK
 62
     0
 10
23840.351378000021
 20
20857.824799999999
 30
0.0
 40
15.0
 50
180.0
 51
0.0
  0
ARC
  5
7FD7
  8
0
  6
BYBLOCK
 62
     0
 10
24247.851378000021
 20
20857.824799999999
 30
0.0
 40
15.0
 50
180.0
 51
0.0
  0
ARC
  5
7FD8
  8
0
  6
BYBLOCK
 62
     0
 10
24247.851378000021
 20
20857.824799999999
 30
0.0
 40
15.0
 50
0.0
 51
180.0
  0
ARC
  5
7FD9
  8
0
  6
BYBLOCK
 62
     0
 10
24948.851378000021
 20
20857.824799999999
 30
0.0
 40
15.0
 50
0.0
 51
180.0
  0
ARC
  5
7FDA
  8
0
  6
BYBLOCK
 62
     0
 10
24948.851378000021
 20
20857.824799999999
 30
0.0
 40
15.0
 50
180.0
 51
0.0
  0
ARC
  5
7FDB
  8
0
  6
BYBLOCK
 62
     0
 10
25706.852367500022
 20
20857.824799999999
 30
0.0
 40
15.0
 50
180.0
 51
0.0
  0
ARC
  5
7FDC
  8
0
  6
BYBLOCK
 62
     0
 10
25706.852367500022
 20
20857.824799999999
 30
0.0
 40
15.0
 50
0.0
 51
180.0
  0
ARC
  5
7FDD
  8
0
  6
BYBLOCK
 62
     0
 10
24247.851378000021
 20
20857.824799999999
 30
0.0
 40
15.0
 50
0.0
 51
180.0
  0
ARC
  5
7FDE
  8
0
  6
BYBLOCK
 62
     0
 10
24247.851378000021
 20
20857.824799999999
 30
0.0
 40
15.0
 50
180.0
 51
0.0
  0
ARC
  5
7FDF
  8
0
  6
BYBLOCK
 62
     0
 10
24948.851378000021
 20
20857.824799999999
 30
0.0
 40
15.0
 50
180.0
 51
0.0
  0
ARC
  5
7FE0
  8
0
  6
BYBLOCK
 62
     0
 10
24948.851378000021
 20
20857.824799999999
 30
0.0
 40
15.0
 50
0.0
 51
180.0
  0
ARC
  5
7FE1
  8
0
  6
BYBLOCK
 62
     0
 10
25706.851378000021
 20
20857.824799999999
 30
0.0
 40
15.0
 50
180.0
 51
0.0
  0
ARC
  5
7FE2
  8
0
  6
BYBLOCK
 62
     0
 10
25706.851378000021
 20
20857.824799999999
 30
0.0
 40
15.0
 50
0.0
 51
180.0
  0
ARC
  5
7FE3
  8
0
  6
BYBLOCK
 62
     0
 10
25749.347683000029
 20
20857.824799999999
 30
0.0
 40
15.0
 50
0.0
 51
180.0
  0
ARC
  5
7FE4
  8
0
  6
BYBLOCK
 62
     0
 10
25749.347683000029
 20
20857.824799999999
 30
0.0
 40
15.0
 50
180.0
 51
0.0
  0
ARC
  5
7FE5
  8
0
  6
BYBLOCK
 62
     0
 10
20571.851378000021
 20
20857.824799999999
 30
0.0
 40
15.0
 50
0.0
 51
180.0
  0
ARC
  5
7FE6
  8
0
  6
BYBLOCK
 62
     0
 10
20571.851378000021
 20
20857.824799999999
 30
0.0
 40
15.0
 50
180.0
 51
0.0
  0
ARC
  5
7FE7
  8
0
  6
BYBLOCK
 62
     0
 10
20979.351378000021
 20
20857.824799999999
 30
0.0
 40
15.0
 50
180.0
 51
0.0
  0
ARC
  5
7FE8
  8
0
  6
BYBLOCK
 62
     0
 10
20979.351378000021
 20
20857.824799999999
 30
0.0
 40
15.0
 50
0.0
 51
180.0
  0
ARC
  5
7FE9
  8
0
  6
BYBLOCK
 62
     0
 10
20571.851378000021
 20
20857.824799999999
 30
0.0
 40
15.0
 50
0.0
 51
180.0
  0
ARC
  5
7FEA
  8
0
  6
BYBLOCK
 62
     0
 10
20571.851378000021
 20
20857.824799999999
 30
0.0
 40
15.0
 50
180.0
 51
0.0
  0
ARC
  5
7FEB
  8
0
  6
BYBLOCK
 62
     0
 10
20529.355072999999
 20
20857.824799999999
 30
0.0
 40
15.0
 50
180.0
 51
0.0
  0
ARC
  5
7FEC
  8
0
  6
BYBLOCK
 62
     0
 10
20529.355072999999
 20
20857.824799999999
 30
0.0
 40
15.0
 50
0.0
 51
180.0
  0
ARC
  5
7FED
  8
0
  6
BYBLOCK
 62
     0
 10
23082.351378000021
 20
20857.824799999999
 30
0.0
 40
15.0
 50
0.0
 51
180.0
  0
ARC
  5
7FEE
  8
0
  6
BYBLOCK
 62
     0
 10
23082.351378000021
 20
20857.824799999999
 30
0.0
 40
15.0
 50
180.0
 51
0.0
  0
ARC
  5
7FEF
  8
0
  6
BYBLOCK
 62
     0
 10
23840.352367500029
 20
20857.824799999999
 30
0.0
 40
15.0
 50
180.0
 51
0.0
  0
ARC
  5
7FF0
  8
0
  6
BYBLOCK
 62
     0
 10
23840.352367500029
 20
20857.824799999999
 30
0.0
 40
15.0
 50
0.0
 51
180.0
  0
ARC
  5
7FF1
  8
0
  6
BYBLOCK
 62
     0
 10
22381.351378000021
 20
20857.824799999999
 30
0.0
 40
15.0
 50
0.0
 51
180.0
  0
ARC
  5
7FF2
  8
0
  6
BYBLOCK
 62
     0
 10
22381.351378000021
 20
20857.824799999999
 30
0.0
 40
15.0
 50
180.0
 51
0.0
  0
ARC
  5
7FF3
  8
0
  6
BYBLOCK
 62
     0
 10
23082.351378000021
 20
20857.824799999999
 30
0.0
 40
15.0
 50
180.0
 51
0.0
  0
ARC
  5
7FF4
  8
0
  6
BYBLOCK
 62
     0
 10
23082.351378000021
 20
20857.824799999999
 30
0.0
 40
15.0
 50
0.0
 51
180.0
  0
ARC
  5
7FF5
  8
0
  6
BYBLOCK
 62
     0
 10
21680.351378000021
 20
20857.824799999999
 30
0.0
 40
15.0
 50
0.0
 51
180.0
  0
ARC
  5
7FF6
  8
0
  6
BYBLOCK
 62
     0
 10
21680.351378000021
 20
20857.824799999999
 30
0.0
 40
15.0
 50
180.0
 51
0.0
  0
ARC
  5
7FF7
  8
0
  6
BYBLOCK
 62
     0
 10
22381.351378000021
 20
20857.824799999999
 30
0.0
 40
15.0
 50
180.0
 51
0.0
  0
ARC
  5
7FF8
  8
0
  6
BYBLOCK
 62
     0
 10
22381.351378000021
 20
20857.824799999999
 30
0.0
 40
15.0
 50
0.0
 51
180.0
  0
ARC
  5
7FF9
  8
0
  6
BYBLOCK
 62
     0
 10
20979.351378000021
 20
20857.824799999999
 30
0.0
 40
15.0
 50
0.0
 51
180.0
  0
ARC
  5
7FFA
  8
0
  6
BYBLOCK
 62
     0
 10
20979.351378000021
 20
20857.824799999999
 30
0.0
 40
15.0
 50
180.0
 51
0.0
  0
ARC
  5
7FFB
  8
0
  6
BYBLOCK
 62
     0
 10
21680.351378000021
 20
20857.824799999999
 30
0.0
 40
15.0
 50
180.0
 51
0.0
  0
ARC
  5
7FFC
  8
0
  6
BYBLOCK
 62
     0
 10
21680.351378000021
 20
20857.824799999999
 30
0.0
 40
15.0
 50
0.0
 51
180.0
  0
ARC
  5
7FFD
  8
0
  6
BYBLOCK
 62
     0
 10
8747.0821895000026
 20
14599.82559
 30
0.0
 40
15.0
 50
270.0
 51
90.0
  0
ARC
  5
7FFE
  8
0
  6
BYBLOCK
 62
     0
 10
8747.0821895000026
 20
14599.82559
 30
0.0
 40
15.0
 50
90.0
 51
270.0
  0
ARC
  5
7FFF
  8
0
  6
BYBLOCK
 62
     0
 10
8747.0821895000026
 20
14407.330275
 30
0.0
 40
15.0
 50
90.0
 51
270.0
  0
ARC
  5
8000
  8
0
  6
BYBLOCK
 62
     0
 10
8747.0821895000026
 20
14407.330275
 30
0.0
 40
15.0
 50
270.0
 51
90.0
  0
ARC
  5
8001
  8
0
  6
BYBLOCK
 62
     0
 10
8747.0821895000026
 20
14599.82559
 30
0.0
 40
15.0
 50
90.0
 51
270.0
  0
ARC
  5
8002
  8
0
  6
BYBLOCK
 62
     0
 10
8747.0821895000026
 20
14599.82559
 30
0.0
 40
15.0
 50
270.0
 51
90.0
  0
ARC
  5
8003
  8
0
  6
BYBLOCK
 62
     0
 10
8747.0821895000026
 20
17517.825590000011
 30
0.0
 40
15.0
 50
270.0
 51
90.0
  0
ARC
  5
8004
  8
0
  6
BYBLOCK
 62
     0
 10
8747.0821895000026
 20
17517.825590000011
 30
0.0
 40
15.0
 50
90.0
 51
270.0
  0
ARC
  5
8005
  8
0
  6
BYBLOCK
 62
     0
 10
8747.0821895000026
 20
17517.825590000011
 30
0.0
 40
15.0
 50
90.0
 51
270.0
  0
ARC
  5
8006
  8
0
  6
BYBLOCK
 62
     0
 10
8747.0821895000026
 20
17517.825590000011
 30
0.0
 40
15.0
 50
270.0
 51
90.0
  0
ARC
  5
8007
  8
0
  6
BYBLOCK
 62
     0
 10
8747.0821895000026
 20
20085.32559
 30
0.0
 40
15.0
 50
270.0
 51
90.0
  0
ARC
  5
8008
  8
0
  6
BYBLOCK
 62
     0
 10
8747.0821895000026
 20
20085.32559
 30
0.0
 40
15.0
 50
90.0
 51
270.0
  0
ARC
  5
8009
  8
0
  6
BYBLOCK
 62
     0
 10
8747.0821895000026
 20
20085.32559
 30
0.0
 40
15.0
 50
90.0
 51
270.0
  0
ARC
  5
800A
  8
0
  6
BYBLOCK
 62
     0
 10
8747.0821895000026
 20
20085.32559
 30
0.0
 40
15.0
 50
270.0
 51
90.0
  0
ARC
  5
800B
  8
0
  6
BYBLOCK
 62
     0
 10
8747.0821895000026
 20
20307.82149900002
 30
0.0
 40
15.0
 50
270.0
 51
90.0
  0
ARC
  5
800C
  8
0
  6
BYBLOCK
 62
     0
 10
8747.0821895000026
 20
20307.82149900002
 30
0.0
 40
15.0
 50
90.0
 51
270.0
  0
ARC
  5
800D
  8
0
  6
BYBLOCK
 62
     0
 10
9147.0821895000045
 20
20297.820971000001
 30
0.0
 40
15.0
 50
270.0
 51
90.0
  0
ARC
  5
800E
  8
0
  6
BYBLOCK
 62
     0
 10
9147.0821895000045
 20
20297.820971000001
 30
0.0
 40
15.0
 50
90.0
 51
270.0
  0
ARC
  5
800F
  8
0
  6
BYBLOCK
 62
     0
 10
9147.0821895000045
 20
20307.82149900002
 30
0.0
 40
15.0
 50
90.0
 51
270.0
  0
ARC
  5
8010
  8
0
  6
BYBLOCK
 62
     0
 10
9147.0821895000045
 20
20307.82149900002
 30
0.0
 40
15.0
 50
270.0
 51
90.0
  0
ARC
  5
8011
  8
0
  6
BYBLOCK
 62
     0
 10
12945.07602749997
 20
20857.830737
 30
0.0
 40
15.0
 50
0.0
 51
180.0
  0
ARC
  5
8012
  8
0
  6
BYBLOCK
 62
     0
 10
12945.07602749997
 20
20857.830737
 30
0.0
 40
15.0
 50
180.0
 51
0.0
  0
ARC
  5
8013
  8
0
  6
BYBLOCK
 62
     0
 10
14811.576027499959
 20
20857.830737
 30
0.0
 40
15.0
 50
180.0
 51
0.0
  0
ARC
  5
8014
  8
0
  6
BYBLOCK
 62
     0
 10
14811.576027499959
 20
20857.830737
 30
0.0
 40
15.0
 50
0.0
 51
180.0
  0
ARC
  5
8015
  8
0
  6
BYBLOCK
 62
     0
 10
14811.576027499959
 20
20857.830737
 30
0.0
 40
15.0
 50
180.0
 51
0.0
  0
ARC
  5
8016
  8
0
  6
BYBLOCK
 62
     0
 10
14811.576027499959
 20
20857.830737
 30
0.0
 40
15.0
 50
0.0
 51
180.0
  0
ARC
  5
8017
  8
0
  6
BYBLOCK
 62
     0
 10
14897.076027499979
 20
20857.830737
 30
0.0
 40
15.0
 50
0.0
 51
180.0
  0
ARC
  5
8018
  8
0
  6
BYBLOCK
 62
     0
 10
14897.076027499979
 20
20857.830737
 30
0.0
 40
15.0
 50
180.0
 51
0.0
  0
ARC
  5
8019
  8
0
  6
BYBLOCK
 62
     0
 10
12945.087903500011
 20
20857.830737
 30
0.0
 40
15.0
 50
180.0
 51
0.0
  0
ARC
  5
801A
  8
0
  6
BYBLOCK
 62
     0
 10
12945.087903500011
 20
20857.830737
 30
0.0
 40
15.0
 50
0.0
 51
180.0
  0
ARC
  5
801B
  8
0
  6
BYBLOCK
 62
     0
 10
9676.5879035000216
 20
20857.830737
 30
0.0
 40
15.0
 50
0.0
 51
180.0
  0
ARC
  5
801C
  8
0
  6
BYBLOCK
 62
     0
 10
9676.5879035000216
 20
20857.830737
 30
0.0
 40
15.0
 50
180.0
 51
0.0
  0
ARC
  5
801D
  8
0
  6
BYBLOCK
 62
     0
 10
9676.5879035000216
 20
20857.830737
 30
0.0
 40
15.0
 50
0.0
 51
180.0
  0
ARC
  5
801E
  8
0
  6
BYBLOCK
 62
     0
 10
9676.5879035000216
 20
20857.830737
 30
0.0
 40
15.0
 50
180.0
 51
0.0
  0
ARC
  5
801F
  8
0
  6
BYBLOCK
 62
     0
 10
9591.0879035000162
 20
20857.830737
 30
0.0
 40
15.0
 50
180.0
 51
0.0
  0
ARC
  5
8020
  8
0
  6
BYBLOCK
 62
     0
 10
9591.0879035000162
 20
20857.830737
 30
0.0
 40
15.0
 50
0.0
 51
180.0
  0
LINE
  5
814C
  8
0-1
  6
CONTINUOUS
 62
     3
 10
25993.356997999981
 20
8525.0893619999897
 30
0.0
 11
25993.356997999981
 21
8557.089268999991
 31
0.0
  0
LINE
  5
814D
  8
0-1
  6
CONTINUOUS
 62
     3
 10
26142.356390999979
 20
8448.9026399999912
 30
0.0
 11
26099.35428000001
 21
8448.9026399999912
 31
0.0
  0
LINE
  5
814E
  8
0-1
  6
CONTINUOUS
 62
     3
 10
26142.356390999979
 20
8775.0896909999901
 30
0.0
 11
26142.356390999979
 21
8448.9026399999912
 31
0.0
  0
LINE
  5
814F
  8
0-1
  6
CONTINUOUS
 62
     3
 10
25707.389804999992
 20
8521.553940999991
 30
0.0
 11
25675.390888000031
 21
8553.5538489999872
 31
0.0
  0
LINE
  5
8150
  8
0-1
  6
CONTINUOUS
 62
     3
 10
25988.356734000001
 20
8562.0895329999894
 30
0.0
 11
25678.92630800002
 21
8562.0895329999894
 31
0.0
  0
LINE
  5
8151
  8
0-1
  6
CONTINUOUS
 62
     3
 10
25993.356997999981
 20
8553.6904359999935
 30
0.0
 11
25675.260239000021
 21
8553.6904359999935
 31
0.0
  0
LINE
  5
8152
  8
0-1
  6
CONTINUOUS
 62
     3
 10
25988.356734000001
 20
8520.0890979999895
 30
0.0
 11
25710.927205000011
 21
8520.0890979999895
 31
0.0
  0
LINE
  5
8153
  8
0-1
  6
CONTINUOUS
 62
     3
 10
25993.356997999981
 20
8528.4891849999894
 30
0.0
 11
25700.455552000021
 21
8528.4891849999894
 31
0.0
  0
LINE
  5
8154
  8
0-1
  6
CONTINUOUS
 62
     3
 10
25993.356997999981
 20
8536.8892719999876
 30
0.0
 11
25692.05645399999
 21
8536.8892719999876
 31
0.0
  0
LINE
  5
8155
  8
0-1
  6
CONTINUOUS
 62
     3
 10
25993.356997999981
 20
8545.2903489999899
 30
0.0
 11
25683.65537800001
 21
8545.2903489999899
 31
0.0
  0
LINE
  5
8156
  8
0-1
  6
CONTINUOUS
 62
     3
 10
24539.820206000029
 20
8521.553940999991
 30
0.0
 11
24571.817144000019
 21
8553.5538489999872
 31
0.0
  0
LINE
  5
8157
  8
0-1
  6
CONTINUOUS
 62
     3
 10
24253.854992000041
 20
8525.0893619999897
 30
0.0
 11
24253.854992000041
 21
8557.089268999991
 31
0.0
  0
LINE
  5
8158
  8
0-1
  6
CONTINUOUS
 62
     3
 10
24253.854992000041
 20
8528.4891849999894
 30
0.0
 11
24546.75248000001
 21
8528.4891849999894
 31
0.0
  0
LINE
  5
8159
  8
0-1
  6
CONTINUOUS
 62
     3
 10
24253.854992000041
 20
8536.8892719999876
 30
0.0
 11
24555.153557000031
 21
8536.8892719999876
 31
0.0
  0
LINE
  5
815A
  8
0-1
  6
CONTINUOUS
 62
     3
 10
24258.855256000032
 20
8520.0890979999895
 30
0.0
 11
24536.282806000028
 21
8520.0890979999895
 31
0.0
  0
LINE
  5
815B
  8
0-1
  6
CONTINUOUS
 62
     3
 10
24253.854992000041
 20
8545.2903489999899
 30
0.0
 11
24563.55265400001
 21
8545.2903489999899
 31
0.0
  0
LINE
  5
815C
  8
0-1
  6
CONTINUOUS
 62
     3
 10
24253.854992000041
 20
8553.6904359999935
 30
0.0
 11
24571.94977200004
 21
8553.6904359999935
 31
0.0
  0
LINE
  5
815D
  8
0-1
  6
CONTINUOUS
 62
     3
 10
24258.855256000032
 20
8562.0895329999894
 30
0.0
 11
24568.28370300003
 21
8562.0895329999894
 31
0.0
  0
LINE
  5
815E
  8
0-1
  6
CONTINUOUS
 62
     3
 10
26142.356390999979
 20
8645.0887679999905
 30
0.0
 11
24190.35401600003
 21
8645.0887679999905
 31
0.0
  0
LINE
  5
815F
  8
0-1
  6
CONTINUOUS
 62
     3
 10
24232.85230000002
 20
8571.0894139999946
 30
0.0
 11
26014.355730999989
 21
8571.0894139999946
 31
0.0
  0
LINE
  5
8160
  8
0-1
  6
CONTINUOUS
 62
     3
 10
24232.85230000002
 20
8511.089215999993
 30
0.0
 11
26014.355730999989
 21
8511.089215999993
 31
0.0
  0
LINE
  5
8161
  8
0-1
  6
CONTINUOUS
 62
     3
 10
24190.35401600003
 20
8775.0896909999901
 30
0.0
 11
26142.356390999979
 21
8775.0896909999901
 31
0.0
  0
LINE
  5
8162
  8
0-1
  6
CONTINUOUS
 62
     3
 10
24126.853040000009
 20
8525.0893619999897
 30
0.0
 11
24126.853040000009
 21
8557.089268999991
 31
0.0
  0
LINE
  5
8163
  8
0-1
  6
CONTINUOUS
 62
     3
 10
23840.891785000011
 20
8521.553940999991
 30
0.0
 11
23808.89088800002
 21
8553.5538489999872
 31
0.0
  0
LINE
  5
8164
  8
0-1
  6
CONTINUOUS
 62
     3
 10
24126.853040000009
 20
8553.6904359999935
 30
0.0
 11
23808.760239999989
 21
8553.6904359999935
 31
0.0
  0
LINE
  5
8165
  8
0-1
  6
CONTINUOUS
 62
     3
 10
24126.853040000009
 20
8545.2903489999899
 30
0.0
 11
23817.15537800001
 21
8545.2903489999899
 31
0.0
  0
LINE
  5
8166
  8
0-1
  6
CONTINUOUS
 62
     3
 10
24126.853040000009
 20
8536.8892719999876
 30
0.0
 11
23825.554475000012
 21
8536.8892719999876
 31
0.0
  0
LINE
  5
8167
  8
0-1
  6
CONTINUOUS
 62
     3
 10
24126.853040000009
 20
8528.4891849999894
 30
0.0
 11
23833.953572999999
 21
8528.4891849999894
 31
0.0
  0
LINE
  5
8168
  8
0-1
  6
CONTINUOUS
 62
     3
 10
24121.854754999989
 20
8562.0895329999894
 30
0.0
 11
23812.424328999979
 21
8562.0895329999894
 31
0.0
  0
LINE
  5
8169
  8
0-1
  6
CONTINUOUS
 62
     3
 10
24121.854754999989
 20
8520.0890979999895
 30
0.0
 11
23844.427206000011
 21
8520.0890979999895
 31
0.0
  0
LINE
  5
816A
  8
0-1
  6
CONTINUOUS
 62
     3
 10
20990.353277000009
 20
8520.0890979999895
 30
0.0
 11
21267.782806999989
 21
8520.0890979999895
 31
0.0
  0
LINE
  5
816B
  8
0-1
  6
CONTINUOUS
 62
     3
 10
20985.35499299999
 20
8525.0893619999897
 30
0.0
 11
20985.35499299999
 21
8557.089268999991
 31
0.0
  0
LINE
  5
816C
  8
0-1
  6
CONTINUOUS
 62
     3
 10
20836.353621000009
 20
8448.9026399999912
 30
0.0
 11
20879.35177300002
 21
8448.9026399999912
 31
0.0
  0
LINE
  5
816D
  8
0-1
  6
CONTINUOUS
 62
     3
 10
20836.353621000009
 20
8448.9026399999912
 30
0.0
 11
20836.353621000009
 21
8775.0896909999901
 31
0.0
  0
LINE
  5
816E
  8
0-1
  6
CONTINUOUS
 62
     3
 10
20990.353277000009
 20
8562.0895329999894
 30
0.0
 11
21299.783704000019
 21
8562.0895329999894
 31
0.0
  0
LINE
  5
816F
  8
0-1
  6
CONTINUOUS
 62
     3
 10
21271.31624700001
 20
8521.553940999991
 30
0.0
 11
21303.317144999979
 21
8553.5538489999872
 31
0.0
  0
LINE
  5
8170
  8
0-1
  6
CONTINUOUS
 62
     3
 10
20985.35499299999
 20
8553.6904359999935
 30
0.0
 11
21303.449772000011
 21
8553.6904359999935
 31
0.0
  0
LINE
  5
8171
  8
0-1
  6
CONTINUOUS
 62
     3
 10
20985.35499299999
 20
8545.2903489999899
 30
0.0
 11
21295.052655000021
 21
8545.2903489999899
 31
0.0
  0
LINE
  5
8172
  8
0-1
  6
CONTINUOUS
 62
     3
 10
20985.35499299999
 20
8536.8892719999876
 30
0.0
 11
21286.653557000001
 21
8536.8892719999876
 31
0.0
  0
LINE
  5
8173
  8
0-1
  6
CONTINUOUS
 62
     3
 10
20985.35499299999
 20
8528.4891849999894
 30
0.0
 11
21278.254460000018
 21
8528.4891849999894
 31
0.0
  0
LINE
  5
8174
  8
0-1
  6
CONTINUOUS
 62
     3
 10
20964.352301000021
 20
8511.089215999993
 30
0.0
 11
24147.853752000021
 21
8511.089215999993
 31
0.0
  0
LINE
  5
8175
  8
0-1
  6
CONTINUOUS
 62
     3
 10
20964.352301000021
 20
8571.0894139999946
 30
0.0
 11
24147.853752000021
 21
8571.0894139999946
 31
0.0
  0
LINE
  5
8176
  8
0-1
  6
CONTINUOUS
 62
     3
 10
20836.353621000009
 20
8775.0896909999901
 30
0.0
 11
24190.35401600003
 21
8775.0896909999901
 31
0.0
  0
LINE
  5
8177
  8
0-1
  6
CONTINUOUS
 62
     3
 10
24190.35401600003
 20
8645.0887679999905
 30
0.0
 11
20836.353621000009
 21
8645.0887679999905
 31
0.0
  0
LINE
  5
8178
  8
0-1
  6
CONTINUOUS
 62
     3
 10
24190.35401600003
 20
8645.0887679999905
 30
0.0
 11
24190.35401600003
 21
8775.0896909999901
 31
0.0
  0
LINE
  5
8179
  8
0-1
  6
CONTINUOUS
 62
     3
 10
24190.35401600003
 20
8645.0887679999905
 30
0.0
 11
24190.35401600003
 21
8775.0896909999901
 31
0.0
  0
ARC
  5
817A
  8
0-1
  6
CONTINUOUS
 62
     3
 10
25988.356734000001
 20
8557.089268999991
 30
0.0
 40
5.0
 50
0.0
 51
90.0
  0
ARC
  5
817B
  8
0-1
  6
CONTINUOUS
 62
     3
 10
25988.356734000001
 20
8525.0893619999897
 30
0.0
 40
5.0
 50
269.9999850001808
 51
0.0
  0
ARC
  5
817C
  8
0-1
  6
CONTINUOUS
 62
     3
 10
25678.92630800002
 20
8557.089268999991
 30
0.0
 40
5.0
 50
90.0
 51
224.99998499997989
  0
ARC
  5
817D
  8
0-1
  6
CONTINUOUS
 62
     3
 10
25710.927205000011
 20
8525.0893619999897
 30
0.0
 40
5.0
 50
224.99998499997989
 51
269.9999850001808
  0
ARC
  5
817E
  8
0-1
  6
CONTINUOUS
 62
     3
 10
24568.28370300003
 20
8557.089268999991
 30
0.0
 40
5.0
 50
314.99998500027471
 51
90.0
  0
ARC
  5
817F
  8
0-1
  6
CONTINUOUS
 62
     3
 10
24536.282806000028
 20
8525.0893619999897
 30
0.0
 40
5.0
 50
269.9999850001808
 51
314.99998500027471
  0
ARC
  5
8180
  8
0-1
  6
CONTINUOUS
 62
     3
 10
24258.855256000032
 20
8525.0893619999897
 30
0.0
 40
5.0
 50
180.0
 51
269.9999850001808
  0
ARC
  5
8181
  8
0-1
  6
CONTINUOUS
 62
     3
 10
24258.855256000032
 20
8557.089268999991
 30
0.0
 40
5.0
 50
90.0
 51
180.0
  0
ARC
  5
8182
  8
0-1
  6
CONTINUOUS
 62
     3
 10
24121.854754999989
 20
8525.0893619999897
 30
0.0
 40
5.0
 50
269.9999850001808
 51
0.0
  0
ARC
  5
8183
  8
0-1
  6
CONTINUOUS
 62
     3
 10
24121.854754999989
 20
8557.089268999991
 30
0.0
 40
5.0
 50
0.0
 51
90.0
  0
ARC
  5
8184
  8
0-1
  6
CONTINUOUS
 62
     3
 10
23812.424328999979
 20
8557.089268999991
 30
0.0
 40
5.0
 50
90.0
 51
224.99998499997989
  0
ARC
  5
8185
  8
0-1
  6
CONTINUOUS
 62
     3
 10
23844.427206000011
 20
8525.0893619999897
 30
0.0
 40
5.0
 50
224.99998499997989
 51
269.9999850001808
  0
ARC
  5
8186
  8
0-1
  6
CONTINUOUS
 62
     3
 10
21299.783704000019
 20
8557.089268999991
 30
0.0
 40
5.0
 50
314.99998500027471
 51
90.0
  0
ARC
  5
8187
  8
0-1
  6
CONTINUOUS
 62
     3
 10
20990.353277000009
 20
8557.089268999991
 30
0.0
 40
5.0
 50
90.0
 51
180.0
  0
ARC
  5
8188
  8
0-1
  6
CONTINUOUS
 62
     3
 10
20990.353277000009
 20
8525.0893619999897
 30
0.0
 40
5.0
 50
180.0
 51
269.9999850001808
  0
ARC
  5
8189
  8
0-1
  6
CONTINUOUS
 62
     3
 10
21267.782806999989
 20
8525.0893619999897
 30
0.0
 40
5.0
 50
269.9999850001808
 51
314.99998500027471
  0
LINE
  5
818A
  8
SUNPOU
  6
CONTINUOUS
 62
     4
 10
20836.351640999979
 20
8855.0896909999901
 30
0.0
 11
20836.351640999979
 21
10054.54730299997
 31
0.0
  0
LINE
  5
818B
  8
SUNPOU
  6
CONTINUOUS
 62
     4
 10
26142.356390999979
 20
8855.0896909999901
 30
0.0
 11
26142.356390999979
 21
10054.54730299997
 31
0.0
  0
LINE
  5
818C
  8
SUNPOU
  6
CONTINUOUS
 62
     4
 10
20839.351640999979
 20
9974.5473029999885
 30
0.0
 11
26139.356390999979
 21
9974.5473029999885
 31
0.0
  0
LINE
  5
818D
  8
SUNPOU
  6
CONTINUOUS
 62
     4
 10
20879.353752000021
 20
8855.0896909999901
 30
0.0
 11
20879.353752000021
 21
9654.5895329999894
 31
0.0
  0
LINE
  5
818E
  8
SUNPOU
  6
CONTINUOUS
 62
     4
 10
26099.35428000001
 20
8855.0896909999901
 30
0.0
 11
26099.35428000001
 21
9654.5895329999894
 31
0.0
  0
LINE
  5
818F
  8
SUNPOU
  6
CONTINUOUS
 62
     4
 10
20879.353752000021
 20
9574.5895329999894
 30
0.0
 11
26099.35428000001
 21
9574.5895329999894
 31
0.0
  0
LINE
  5
8190
  8
SUNPOU
  6
CONTINUOUS
 62
     4
 10
20879.353752000021
 20
8855.0896909999901
 30
0.0
 11
20879.353752000021
 21
9654.5895329999894
 31
0.0
  0
LINE
  5
8191
  8
SUNPOU
  6
CONTINUOUS
 62
     4
 10
20836.351640999979
 20
8855.0896909999901
 30
0.0
 11
20836.351640999979
 21
9654.5895329999894
 31
0.0
  0
LINE
  5
8192
  8
SUNPOU
  6
CONTINUOUS
 62
     4
 10
20879.353752000021
 20
9574.5895329999894
 30
0.0
 11
21119.353752000021
 21
9574.5895329999894
 31
0.0
  0
LINE
  5
8193
  8
SUNPOU
  6
CONTINUOUS
 62
     4
 10
20839.351640999979
 20
9574.5895329999894
 30
0.0
 11
20599.351640999979
 21
9574.5895329999894
 31
0.0
  0
LINE
  5
8194
  8
SUNPOU
  6
CONTINUOUS
 62
     4
 10
20879.353752000021
 20
9574.5895329999894
 30
0.0
 11
20839.351640999979
 21
9574.5895329999894
 31
0.0
  0
LINE
  5
8195
  8
SUNPOU
  6
CONTINUOUS
 62
     4
 10
26099.35428000001
 20
8855.0896909999901
 30
0.0
 11
26099.35428000001
 21
9654.5895329999894
 31
0.0
  0
LINE
  5
8196
  8
SUNPOU
  6
CONTINUOUS
 62
     4
 10
26142.356390999979
 20
8855.0896909999901
 30
0.0
 11
26142.356390999979
 21
9654.5895329999894
 31
0.0
  0
LINE
  5
8197
  8
SUNPOU
  6
CONTINUOUS
 62
     4
 10
26099.35428000001
 20
9574.5895329999894
 30
0.0
 11
25859.35428000001
 21
9574.5895329999894
 31
0.0
  0
LINE
  5
8198
  8
SUNPOU
  6
CONTINUOUS
 62
     4
 10
26139.356390999979
 20
9574.5895329999894
 30
0.0
 11
26379.356390999979
 21
9574.5895329999894
 31
0.0
  0
LINE
  5
8199
  8
SUNPOU
  6
CONTINUOUS
 62
     4
 10
26099.35428000001
 20
9574.5895329999894
 30
0.0
 11
26139.356390999979
 21
9574.5895329999894
 31
0.0
  0
TEXT
  5
819A
  8
0
  6
CONTINUOUS
 62
     7
 10
26259.356390999979
 20
9654.5895329999894
 30
0.0
 40
160.0
  1
43
  0
TEXT
  5
819B
  8
0
  6
CONTINUOUS
 62
     7
 10
20479.351641000001
 20
9654.5895329999894
 30
0.0
 40
160.0
  1
43
  0
TEXT
  5
819C
  8
0
  6
CONTINUOUS
 62
     7
 10
23209.35401600003
 20
9654.5895329999894
 30
0.0
 40
160.0
  1
5220
  0
TEXT
  5
819D
  8
0
  6
CONTINUOUS
 62
     7
 10
23222.687349333341
 20
10054.54730299997
 30
0.0
 40
160.0
  1
5306
  0
ARC
  5
819E
  8
0
  6
BYBLOCK
 62
     0
 10
20836.351640999979
 20
9974.5473029999885
 30
0.0
 40
15.0
 50
0.0
 51
180.0
  0
ARC
  5
819F
  8
0
  6
BYBLOCK
 62
     0
 10
20836.351640999979
 20
9974.5473029999885
 30
0.0
 40
15.0
 50
180.0
 51
0.0
  0
ARC
  5
81A0
  8
0
  6
BYBLOCK
 62
     0
 10
26142.356390999979
 20
9974.5473029999885
 30
0.0
 40
15.0
 50
180.0
 51
0.0
  0
ARC
  5
81A1
  8
0
  6
BYBLOCK
 62
     0
 10
26142.356390999979
 20
9974.5473029999885
 30
0.0
 40
15.0
 50
0.0
 51
180.0
  0
ARC
  5
81A2
  8
0
  6
BYBLOCK
 62
     0
 10
20879.353752000021
 20
9574.5895329999894
 30
0.0
 40
15.0
 50
0.0
 51
180.0
  0
ARC
  5
81A3
  8
0
  6
BYBLOCK
 62
     0
 10
20879.353752000021
 20
9574.5895329999894
 30
0.0
 40
15.0
 50
180.0
 51
0.0
  0
ARC
  5
81A4
  8
0
  6
BYBLOCK
 62
     0
 10
26099.35428000001
 20
9574.5895329999894
 30
0.0
 40
15.0
 50
180.0
 51
0.0
  0
ARC
  5
81A5
  8
0
  6
BYBLOCK
 62
     0
 10
26099.35428000001
 20
9574.5895329999894
 30
0.0
 40
15.0
 50
0.0
 51
180.0
  0
ARC
  5
81A6
  8
0
  6
BYBLOCK
 62
     0
 10
20879.353752000021
 20
9574.5895329999894
 30
0.0
 40
15.0
 50
0.0
 51
180.0
  0
ARC
  5
81A7
  8
0
  6
BYBLOCK
 62
     0
 10
20879.353752000021
 20
9574.5895329999894
 30
0.0
 40
15.0
 50
180.0
 51
0.0
  0
ARC
  5
81A8
  8
0
  6
BYBLOCK
 62
     0
 10
20836.351640999979
 20
9574.5895329999894
 30
0.0
 40
15.0
 50
180.0
 51
0.0
  0
ARC
  5
81A9
  8
0
  6
BYBLOCK
 62
     0
 10
20836.351640999979
 20
9574.5895329999894
 30
0.0
 40
15.0
 50
0.0
 51
180.0
  0
ARC
  5
81AA
  8
0
  6
BYBLOCK
 62
     0
 10
26099.35428000001
 20
9574.5895329999894
 30
0.0
 40
15.0
 50
180.0
 51
0.0
  0
ARC
  5
81AB
  8
0
  6
BYBLOCK
 62
     0
 10
26099.35428000001
 20
9574.5895329999894
 30
0.0
 40
15.0
 50
0.0
 51
180.0
  0
ARC
  5
81AC
  8
0
  6
BYBLOCK
 62
     0
 10
26142.356390999979
 20
9574.5895329999894
 30
0.0
 40
15.0
 50
0.0
 51
180.0
  0
ARC
  5
81AD
  8
0
  6
BYBLOCK
 62
     0
 10
26142.356390999979
 20
9574.5895329999894
 30
0.0
 40
15.0
 50
180.0
 51
0.0
  0
LINE
  5
81BB
  8
SUNPOU
  6
CONTINUOUS
 62
     4
 10
9591.0825595000097
 20
14327.324337
 30
0.0
 11
9591.0825595000097
 21
13148.37750599999
 31
0.0
  0
LINE
  5
81BC
  8
SUNPOU
  6
CONTINUOUS
 62
     4
 10
14897.08236150001
 20
14327.324337
 30
0.0
 11
14897.08236150001
 21
13148.37750599999
 31
0.0
  0
LINE
  5
81BD
  8
SUNPOU
  6
CONTINUOUS
 62
     4
 10
9591.0825595000097
 20
13228.37750599999
 30
0.0
 11
14897.08236150001
 21
13228.37750599999
 31
0.0
  0
TEXT
  5
81BE
  8
0
  6
CONTINUOUS
 62
     7
 10
11454.74912716666
 20
13308.37750599999
 30
0.0
 40
160.0
  1
ケラバ外寸 5306
  0
ARC
  5
81BF
  8
0
  6
BYBLOCK
 62
     0
 10
9591.0825595000097
 20
13228.37750599999
 30
0.0
 40
15.0
 50
0.0
 51
180.0
  0
ARC
  5
81C0
  8
0
  6
BYBLOCK
 62
     0
 10
9591.0825595000097
 20
13228.37750599999
 30
0.0
 40
15.0
 50
180.0
 51
0.0
  0
ARC
  5
81C1
  8
0
  6
BYBLOCK
 62
     0
 10
14897.08236150001
 20
13228.37750599999
 30
0.0
 40
15.0
 50
180.0
 51
0.0
  0
ARC
  5
81C2
  8
0
  6
BYBLOCK
 62
     0
 10
14897.08236150001
 20
13228.37750599999
 30
0.0
 40
15.0
 50
0.0
 51
180.0
  0
TEXT
  5
8218
  8
NAME
 10
21933.552716388989
 20
1876.0
 30
0.0
 40
360.0
  1
ヨドガレージ ラヴィージュ
 41
0.75
  7
01
  0
LINE
  5
8219
  8
NAME
  6
CONTINUOUS
 10
26067.886878884288
 20
2236.0
 30
0.0
 11
26067.886878884288
 21
1876.0
 31
0.0
  0
LINE
  5
821A
  8
NAME
  6
CONTINUOUS
 10
26167.886878884288
 20
2236.0
 30
0.0
 11
26167.886878884288
 21
1876.0
 31
0.0
  0
LINE
  5
821B
  8
NAME
  6
CONTINUOUS
 10
26267.88687888431
 20
2236.0
 30
0.0
 11
26267.88687888431
 21
1876.0
 31
0.0
  0
LINE
  5
821C
  8
NAME
  6
CONTINUOUS
 10
26007.886878884288
 20
2236.0
 30
0.0
 11
26327.886878884288
 21
2236.0
 31
0.0
  0
LINE
  5
821D
  8
NAME
  6
CONTINUOUS
 10
26327.886878884288
 20
1876.0
 30
0.0
 11
26007.886878884288
 21
1876.0
 31
0.0
  0
TEXT
  5
8268
  8
NAME
 10
25530.092913773511
 20
1076.0
 30
0.0
 40
360.0
  1
型（単棟）
 41
0.6
  7
01
  0
TEXT
  5
8269
  8
NAME
 10
21583.547829600931
 20
1076.6369801169251
 30
0.0
 40
360.0
  1
VGC-3355（H）+1955（H）
 41
0.55
  0
TEXT
  5
8303
  8
FILENAME
  6
CONTINUOUS
 10
27746.857142857141
 20
348.0
 30
0.0
 40
200.0
  1
＜VGC-3355+1955-1-A_0.DXF ＞
  7
FILENAME
 72
     2
 11
32764.0
 21
348.0
 31
0.0
  0
LINE
  5
8308
  8
WAKUSEN-01
 10
868.00000000000193
 20
827.99999999999955
 30
0.0
 11
32764.000000000011
 21
827.99999999999943
 31
0.0
  0
LINE
  5
8309
  8
WAKUSEN-01
 10
868.00000000000193
 20
827.99999999999955
 30
0.0
 11
868.00000000000193
 21
22484.000000000011
 31
0.0
  0
LINE
  5
830A
  8
WAKUSEN-01
 10
32764.000000000011
 20
827.99999999999943
 30
0.0
 11
32764.000000000011
 21
22484.000000000011
 31
0.0
  0
LINE
  5
830B
  8
WAKUSEN-01
 10
20560.0
 20
827.99999999999716
 30
0.0
 11
20560.0
 21
2484.0
 31
0.0
  0
LINE
  5
830C
  8
WAKUSEN-02
 10
26868.0
 20
827.99999999999261
 30
0.0
 11
26868.0
 21
2484.0
 31
0.0
  0
ENDSEC
  0
EOF
