  0
SECTION
  2
HEADER
  9
$ACADVER
  1
AC1009
  9
$INSBASE
 10
0.0
 20
0.0
 30
0.0
  9
$EXTMIN
 10
867.99324330406671
 20
327.38164749855792
 30
-0.000000000000013
  9
$EXTMAX
 10
32765.33210850941
 20
22484.553276491992
 30
0.0000000000000023
  9
$LIMMIN
 10
0.0
 20
0.0
  9
$LIMMAX
 10
33600.0
 20
23760.0
  9
$ORTHOMODE
 70
     1
  9
$REGENMODE
 70
     1
  9
$FILLMODE
 70
     1
  9
$QTEXTMODE
 70
     0
  9
$MIRRTEXT
 70
     1
  9
$DRAGMODE
 70
     2
  9
$LTSCALE
 40
80.0
  9
$OSMODE
 70
  3071
  9
$ATTMODE
 70
     1
  9
$TEXTSIZE
 40
0.2
  9
$TRACEWID
 40
0.05
  9
$TEXTSTYLE
  7
00
  9
$CLAYER
  8
0
  9
$CELTYPE
  6
BYLAYER
  9
$CECOLOR
 62
   256
  9
$DIMSCALE
 40
80.0
  9
$DIMASZ
 40
3.0
  9
$DIMEXO
 40
1.0
  9
$DIMDLI
 40
0.38
  9
$DIMRND
 40
0.5
  9
$DIMDLE
 40
0.0
  9
$DIMEXE
 40
1.0
  9
$DIMTP
 40
0.0
  9
$DIMTM
 40
0.0
  9
$DIMTXT
 40
2.0
  9
$DIMCEN
 40
0.09
  9
$DIMTSZ
 40
0.0
  9
$DIMTOL
 70
     0
  9
$DIMLIM
 70
     0
  9
$DIMTIH
 70
     0
  9
$DIMTOH
 70
     0
  9
$DIMSE1
 70
     0
  9
$DIMSE2
 70
     0
  9
$DIMTAD
 70
     1
  9
$DIMZIN
 70
     8
  9
$DIMBLK
  1
DOTSMALL
  9
$DIMASO
 70
     1
  9
$DIMSHO
 70
     1
  9
$DIMPOST
  1

  9
$DIMAPOST
  1

  9
$DIMALT
 70
     0
  9
$DIMALTD
 70
     2
  9
$DIMALTF
 40
25.399999999999999
  9
$DIMLFAC
 40
1.0
  9
$DIMTOFL
 70
     1
  9
$DIMTVP
 40
0.0
  9
$DIMTIX
 70
     0
  9
$DIMSOXD
 70
     0
  9
$DIMSAH
 70
     0
  9
$DIMBLK1
  1

  9
$DIMBLK2
  1

  9
$DIMSTYLE
  2
SUNPOU
  9
$DIMCLRD
 70
     4
  9
$DIMCLRE
 70
     4
  9
$DIMCLRT
 70
     7
  9
$DIMTFAC
 40
1.0
  9
$DIMGAP
 40
1.0
  9
$LUNITS
 70
     2
  9
$LUPREC
 70
     4
  9
$SKETCHINC
 40
0.1
  9
$FILLETRAD
 40
0.0
  9
$AUNITS
 70
     0
  9
$AUPREC
 70
     0
  9
$MENU
  1
acad
  9
$ELEVATION
 40
0.0
  9
$PELEVATION
 40
0.0
  9
$THICKNESS
 40
0.0
  9
$LIMCHECK
 70
     0
  9
$BLIPMODE
 70
     1
  9
$CHAMFERA
 40
0.0
  9
$CHAMFERB
 40
0.0
  9
$SKPOLY
 70
     0
  9
$TDCREATE
 40
2311940.074926944
  9
$TDUPDATE
 40
2458942.430380486
  9
$TDINDWG
 40
0.0303809838
  9
$TDUSRTIMER
 40
0.0303766551
  9
$USRTIMER
 70
     1
  9
$ANGBASE
 50
0.0
  9
$ANGDIR
 70
     0
  9
$PDMODE
 70
     0
  9
$PDSIZE
 40
0.0
  9
$PLINEWID
 40
0.0
  9
$COORDS
 70
     1
  9
$SPLFRAME
 70
     0
  9
$SPLINETYPE
 70
     6
  9
$SPLINESEGS
 70
     8
  9
$ATTDIA
 70
     1
  9
$ATTREQ
 70
     1
  9
$HANDLING
 70
     1
  9
$HANDSEED
  5
37B6
  9
$SURFTAB1
 70
     6
  9
$SURFTAB2
 70
     6
  9
$SURFTYPE
 70
     6
  9
$SURFU
 70
     6
  9
$SURFV
 70
     6
  9
$UCSNAME
  2

  9
$UCSORG
 10
0.0
 20
0.0
 30
0.0
  9
$UCSXDIR
 10
1.0
 20
0.0
 30
0.0
  9
$UCSYDIR
 10
0.0
 20
1.0
 30
0.0
  9
$PUCSNAME
  2

  9
$PUCSORG
 10
0.0
 20
0.0
 30
0.0
  9
$PUCSXDIR
 10
1.0
 20
0.0
 30
0.0
  9
$PUCSYDIR
 10
0.0
 20
1.0
 30
0.0
  9
$USERI1
 70
     0
  9
$USERI2
 70
     0
  9
$USERI3
 70
     0
  9
$USERI4
 70
     0
  9
$USERI5
 70
     0
  9
$USERR1
 40
0.0
  9
$USERR2
 40
0.0
  9
$USERR3
 40
0.0
  9
$USERR4
 40
0.0
  9
$USERR5
 40
0.0
  9
$WORLDVIEW
 70
     1
  9
$SHADEDGE
 70
     3
  9
$SHADEDIF
 70
    70
  9
$TILEMODE
 70
     1
  9
$MAXACTVP
 70
    16
  9
$PLIMCHECK
 70
     0
  9
$PEXTMIN
 10
1.0000000000000000E+020
 20
1.0000000000000000E+020
 30
1.0000000000000000E+020
  9
$PEXTMAX
 10
-1.0000000000000000E+020
 20
-1.0000000000000000E+020
 30
-1.0000000000000000E+020
  9
$PLIMMIN
 10
0.0
 20
0.0
  9
$PLIMMAX
 10
12.0
 20
9.0
  9
$UNITMODE
 70
     0
  9
$VISRETAIN
 70
     0
  9
$PLINEGEN
 70
     1
  9
$PSLTSCALE
 70
     0
  0
ENDSEC
  0
SECTION
  2
TABLES
  0
TABLE
  2
VPORT
 70
     1
  0
VPORT
  2
*ACTIVE
 70
     0
 10
0.0
 20
0.0
 11
1.0
 21
1.0
 12
16800.0
 22
11880.0
 13
0.0
 23
0.0
 14
1.0
 24
1.0
 15
0.0
 25
0.0
 16
0.0
 26
0.0
 36
1.0
 17
0.0
 27
0.0
 37
0.0
 40
23981.023255813951
 41
2.195652173913043
 42
50.0
 43
0.0
 44
0.0
 50
0.0
 51
0.0
 71
     0
 72
 10000
 73
     1
 74
     1
 75
     0
 76
     0
 77
     0
 78
     0
  0
ENDTAB
  0
TABLE
  2
LTYPE
 70
     3
  0
LTYPE
  2
CONTINUOUS
 70
     0
  3
Solid line
 72
    65
 73
     0
 40
0.0
  0
LTYPE
  2
DASHED3
 70
     0
  3
------  ------  ------  ------  
 72
    65
 73
     2
 40
5.0
 49
3.75
 49
-1.25
  0
LTYPE
  2
CENTER2
 70
     0
  3
----------  --  ----------  --  
 72
    65
 73
     4
 40
20.0
 49
12.5
 49
-2.5
 49
2.5
 49
-2.5
  0
ENDTAB
  0
TABLE
  2
LAYER
 70
    17
  0
LAYER
  2
0
 70
     0
 62
     7
  6
CONTINUOUS
  0
LAYER
  2
SUNPOU
 70
     0
 62
     4
  6
CONTINUOUS
  0
LAYER
  2
0-1
 70
     0
 62
     7
  6
CONTINUOUS
  0
LAYER
  2
0-2
 70
     0
 62
     7
  6
CONTINUOUS
  0
LAYER
  2
0-5
 70
     0
 62
     7
  6
CONTINUOUS
  0
LAYER
  2
0-6
 70
     0
 62
     7
  6
CONTINUOUS
  0
LAYER
  2
2-0
 70
     0
 62
     7
  6
CONTINUOUS
  0
LAYER
  2
YODOROGO
 70
     0
 62
   130
  6
CONTINUOUS
  0
LAYER
  2
WAKUSEN-01
 70
     0
 62
    50
  6
CONTINUOUS
  0
LAYER
  2
WAKUSEN-02
 70
     0
 62
   130
  6
CONTINUOUS
  0
LAYER
  2
WAKUMOJI-01
 70
     0
 62
   130
  6
CONTINUOUS
  0
LAYER
  2
FILENAME
 70
     0
 62
     7
  6
CONTINUOUS
  0
LAYER
  2
NAME
 70
     0
 62
    20
  6
CONTINUOUS
  0
LAYER
  2
0-4
 70
     0
 62
     7
  6
CONTINUOUS
  0
LAYER
  2
0-0
 70
     0
 62
     7
  6
CONTINUOUS
  0
ENDTAB
  0
TABLE
  2
STYLE
 70
     5
  0
STYLE
  2
STANDARD
 70
     0
 40
0.0
 41
1.0
 50
0.0
 71
     0
 42
0.0
  3
txt
  4
BIGFONT
  0
STYLE
  2
00
 70
     0
 40
0.0
 41
0.6666666666666666
 50
0.0
 71
     0
 42
0.2
  3
ROMANS
  4
BIGFONT
  0
STYLE
  2
01
 70
     0
 40
3.0
 41
1.0
 50
0.0
 71
     0
 42
0.2
  3
ROMANS
  4
BIGFONT
  0
STYLE
  2
WAKUMOJI
 70
     0
 40
3.0
 41
1.0
 50
0.0
 71
     0
 42
3.0
  3
SIMPLEX
  4
BIGFONT
  0
STYLE
  2
FILENAME
 70
     0
 40
200.0
 41
1.0
 50
0.0
 71
     0
 42
200.0
  3
romans
  4
bigfont
  0
ENDTAB
  0
TABLE
  2
VIEW
 70
     0
  0
ENDTAB
  0
TABLE
  2
UCS
 70
     0
  0
ENDTAB
  0
TABLE
  2
APPID
 70
    13
  0
APPID
  2
ACAD
 70
     0
  0
APPID
  2
ACADANNOTATIVE
 70
     0
  0
APPID
  2
ACAD_PSEXT
 70
     0
  0
APPID
  2
DCO15
 70
     0
  0
APPID
  2
ACAD_MLEADERVER
 70
     0
  0
APPID
  2
AUTOCAD_POSTSCRIPT_FIGURE
 70
     0
  0
APPID
  2
ACAD_EXEMPT_FROM_CAD_STANDARDS
 70
     0
  0
APPID
  2
ACAD_DSTYLE_DIMJAG
 70
     0
  0
APPID
  2
ACAD_DSTYLE_DIMTALN
 70
     0
  0
APPID
  2
ACAD_DSTYLE_DIM_LINETYPE
 70
     0
  0
APPID
  2
ACAD_DSTYLE_DIM_EXT1_LINETYPE
 70
     0
  0
APPID
  2
ACAD_DSTYLE_DIM_EXT2_LINETYPE
 70
     0
  0
APPID
  2
ACAD_NAV_VCDISPLAY
 70
     0
  0
ENDTAB
  0
TABLE
  2
DIMSTYLE
 70
     2
  0
DIMSTYLE
  2
SUNPOU
 70
     0
  3

  4

  5

  6

  7

 40
80.0
 41
3.0
 42
1.0
 43
0.38
 44
1.0
 45
0.5
 46
0.0
 47
0.0
 48
0.0
140
2.0
141
0.09
142
0.0
143
25.399999999999999
144
1.0
145
0.0
146
1.0
147
1.0
 71
     0
 72
     0
 73
     0
 74
     0
 75
     0
 76
     0
 77
     1
 78
     8
170
     0
171
     2
172
     1
173
     0
174
     0
175
     0
176
     4
177
     4
178
     7
  0
ENDTAB
  0
ENDSEC
  0
SECTION
  2
BLOCKS
  0
BLOCK
  8
0
  2
$MODEL_SPACE
 70
     0
 10
0.0
 20
0.0
 30
0.0
  3
$MODEL_SPACE
  1

  0
ENDBLK
  5
2E65
  8
0
  0
BLOCK
 67
     1
  8
0
  2
$PAPER_SPACE
 70
     0
 10
0.0
 20
0.0
 30
0.0
  3
$PAPER_SPACE
  1

  0
ENDBLK
  5
2E61
 67
     1
  8
0
  0
BLOCK
  8
0
  2
_DOTSMALL
 70
     0
 10
0.0
 20
0.0
 30
0.0
  3
_DOTSMALL
  1

  0
POLYLINE
  5
2E94
  8
0
  6
BYBLOCK
 62
     0
 66
     1
 10
0.0
 20
0.0
 30
0.0
 70
     1
 40
0.5
 41
0.5
  0
VERTEX
  5
377E
  8
0
  6
BYBLOCK
 62
     0
 10
-0.0625
 20
0.0
 30
0.0
 42
1.0
  0
VERTEX
  5
377F
  8
0
  6
BYBLOCK
 62
     0
 10
0.0625
 20
0.0
 30
0.0
 42
1.0
  0
SEQEND
  5
3780
  8
0
  6
BYBLOCK
 62
     0
  0
ENDBLK
  5
2E98
  8
0
  0
ENDSEC
  0
SECTION
  2
ENTITIES
  0
LINE
  5
2E99
  8
0-1
  6
CONTINUOUS
 62
     3
 10
10474.256482000001
 20
18546.667826000001
 30
0.0
 11
10474.256482000001
 21
19352.755506000001
 31
0.0
  0
LINE
  5
2E9A
  8
0-1
  6
CONTINUOUS
 62
     3
 10
10437.257299999999
 20
18572.124435000002
 30
0.0
 11
10437.257299999999
 21
19352.755506000001
 31
0.0
  0
LINE
  5
2E9B
  8
0-1
  6
CONTINUOUS
 62
     3
 10
9926.7572739999996
 20
16654.757723999988
 30
0.0
 11
13195.257274
 21
16654.757723999988
 31
0.0
  0
LINE
  5
2E9C
  8
0-1
  6
CONTINUOUS
 62
     3
 10
13145.259622999991
 20
13892.758146
 30
0.0
 11
13145.259622999991
 21
19352.755506000001
 31
0.0
  0
LINE
  5
2E9D
  8
0-1
  6
CONTINUOUS
 62
     3
 10
9976.756903999998
 20
13892.758146
 30
0.0
 11
9976.756903999998
 21
19352.755506000001
 31
0.0
  0
LINE
  5
2E9E
  8
0-1
  6
CONTINUOUS
 62
     3
 10
9841.2568779999874
 20
13860.759228000001
 30
0.0
 11
9841.2568779999874
 21
19400.758830999999
 31
0.0
  0
LINE
  5
2E9F
  8
0-1
  6
CONTINUOUS
 62
     3
 10
13280.757670000001
 20
13860.759228000001
 30
0.0
 11
13280.757670000001
 21
19400.758830999999
 31
0.0
  0
LINE
  5
2EA0
  8
0-1
  6
CONTINUOUS
 62
     3
 10
10035.256665999999
 20
18848.738402999999
 30
0.0
 11
10035.256665999999
 21
19352.755506000001
 31
0.0
  0
LINE
  5
2EA1
  8
0-1
  6
CONTINUOUS
 62
     3
 10
10072.255848000001
 20
18823.277835000001
 30
0.0
 11
10072.255848000001
 21
19352.755506000001
 31
0.0
  0
LINE
  5
2EA2
  8
0-1
  6
CONTINUOUS
 62
     3
 10
10235.257326000001
 20
18711.11831200001
 30
0.0
 11
10235.257326000001
 21
19352.755506000001
 31
0.0
  0
LINE
  5
2EA3
  8
0-1
  6
CONTINUOUS
 62
     3
 10
10272.25650799998
 20
18685.661703000002
 30
0.0
 11
10272.25650799998
 21
19352.755506000001
 31
0.0
  0
LINE
  5
2EA4
  8
0-1
  6
CONTINUOUS
 62
     3
 10
10637.255979999991
 20
18434.50830300001
 30
0.0
 11
10637.255979999991
 21
19352.755506000001
 31
0.0
  0
LINE
  5
2EA5
  8
0-1
  6
CONTINUOUS
 62
     3
 10
10674.257142
 20
18409.047735
 30
0.0
 11
10674.257142
 21
19352.755506000001
 31
0.0
  0
LINE
  5
2EA6
  8
0-1
  6
CONTINUOUS
 62
     3
 10
10837.256639999991
 20
18296.888212999991
 30
0.0
 11
10837.256639999991
 21
19352.755506000001
 31
0.0
  0
LINE
  5
2EA7
  8
0-1
  6
CONTINUOUS
 62
     3
 10
10874.255821999979
 20
18271.427644999989
 30
0.0
 11
10874.255821999979
 21
19352.755506000001
 31
0.0
  0
LINE
  5
2EA8
  8
0-1
  6
CONTINUOUS
 62
     3
 10
9914.7564029999958
 20
19400.758830999999
 30
0.0
 11
13207.258145
 21
19400.758830999999
 31
0.0
  0
LINE
  5
2EA9
  8
0-1
  6
CONTINUOUS
 62
     3
 10
11205.934058000001
 20
18043.208946999999
 30
0.0
 11
11350.975363999991
 21
18246.83014699999
 31
0.0
  0
LINE
  5
2EAA
  8
0-1
  6
CONTINUOUS
 62
     3
 10
11875.387446999979
 20
17259.414605999991
 30
0.0
 11
12020.42875299998
 21
17463.035806
 31
0.0
  0
LINE
  5
2EAB
  8
0-1
  6
CONTINUOUS
 62
     3
 10
11875.387446999979
 20
17259.414605999991
 30
0.0
 11
11350.975363999991
 21
18246.83014699999
 31
0.0
  0
LINE
  5
2EAC
  8
0-1
  6
CONTINUOUS
 62
     3
 10
9926.7572739999996
 20
16575.759096000002
 30
0.0
 11
13195.257274
 21
16575.759096000002
 31
0.0
  0
LINE
  5
2EAD
  8
0-1
  6
CONTINUOUS
 62
     3
 10
9884.2570099999975
 20
14016.759149
 30
0.0
 11
13237.759518000001
 21
14016.759149
 31
0.0
  0
LINE
  5
2EAE
  8
0-1
  6
CONTINUOUS
 62
     3
 10
9926.7572739999996
 20
14095.757775999989
 30
0.0
 11
13195.257274
 21
14095.757775999989
 31
0.0
  0
LINE
  5
2EAF
  8
0-1
  6
CONTINUOUS
 62
     3
 10
9841.2568779999874
 20
13860.759228000001
 30
0.0
 11
13280.757670000001
 21
13860.759228000001
 31
0.0
  0
LINE
  5
2EB0
  8
0-1
  6
CONTINUOUS
 62
     3
 10
9841.2568779999874
 20
13892.758146
 30
0.0
 11
13280.757670000001
 21
13892.758146
 31
0.0
  0
LINE
  5
2EB1
  8
0-1
  6
CONTINUOUS
 62
     3
 10
13195.257274
 20
14016.759149
 30
0.0
 11
13195.257274
 21
16652.374382999991
 31
0.0
  0
LINE
  5
2EB2
  8
0-1
  6
CONTINUOUS
 62
     3
 10
13237.759518000001
 20
14016.759149
 30
0.0
 11
13237.759518000001
 21
16623.128976000011
 31
0.0
  0
LINE
  5
2EB3
  8
0-1
  6
CONTINUOUS
 62
     3
 10
13612.999038999989
 20
16364.92849
 30
0.0
 11
12020.42875299998
 21
17463.035806
 31
0.0
  0
LINE
  5
2EB4
  8
0-1
  6
CONTINUOUS
 62
     3
 10
9926.7572739999996
 20
14016.759149
 30
0.0
 11
9926.7572739999996
 21
18923.397925000001
 31
0.0
  0
LINE
  5
2EB5
  8
0-1
  6
CONTINUOUS
 62
     3
 10
9884.2570099999975
 20
14016.759149
 30
0.0
 11
9884.2570099999975
 21
18953.086745000001
 31
0.0
  0
LINE
  5
2EB6
  8
0-1
  6
CONTINUOUS
 62
     3
 10
11037.257299999999
 20
18159.272080999988
 30
0.0
 11
11037.257299999999
 21
19352.755506000001
 31
0.0
  0
LINE
  5
2EB7
  8
0-1
  6
CONTINUOUS
 62
     3
 10
11074.25846099999
 20
18133.811513000001
 30
0.0
 11
11074.25846099999
 21
19352.755506000001
 31
0.0
  0
LINE
  5
2EB8
  8
0-1
  6
CONTINUOUS
 62
     3
 10
11237.25598
 20
18087.181972999992
 30
0.0
 11
11237.25598
 21
19352.755506000001
 31
0.0
  0
LINE
  5
2EB9
  8
0-1
  6
CONTINUOUS
 62
     3
 10
11637.25729999999
 20
17707.791400999991
 30
0.0
 11
11637.25729999999
 21
19352.755506000001
 31
0.0
  0
LINE
  5
2EBA
  8
0-1
  6
CONTINUOUS
 62
     3
 10
11674.25846099999
 20
17638.124223999999
 30
0.0
 11
11674.25846099999
 21
19352.755506000001
 31
0.0
  0
LINE
  5
2EBB
  8
0-1
  6
CONTINUOUS
 62
     3
 10
11837.25598
 20
17331.211745000001
 30
0.0
 11
11837.25598
 21
19352.755506000001
 31
0.0
  0
LINE
  5
2EBC
  8
0-1
  6
CONTINUOUS
 62
     3
 10
11874.257142
 20
17261.540609
 30
0.0
 11
11874.257142
 21
19352.755506000001
 31
0.0
  0
LINE
  5
2EBD
  8
0-1
  6
CONTINUOUS
 62
     3
 10
12037.256639999991
 20
17451.45958100001
 30
0.0
 11
12037.256639999991
 21
19352.755506000001
 31
0.0
  0
LINE
  5
2EBE
  8
0-1
  6
CONTINUOUS
 62
     3
 10
12074.25582199999
 20
17425.999013000011
 30
0.0
 11
12074.25582199999
 21
19352.755506000001
 31
0.0
  0
LINE
  5
2EBF
  8
0-1
  6
CONTINUOUS
 62
     3
 10
12237.257299999979
 20
17313.839489999991
 30
0.0
 11
12237.257299999979
 21
19352.755506000001
 31
0.0
  0
LINE
  5
2EC0
  8
0-1
  6
CONTINUOUS
 62
     3
 10
12274.256482000001
 20
17288.378921999982
 30
0.0
 11
12274.256482000001
 21
19352.755506000001
 31
0.0
  0
LINE
  5
2EC1
  8
0-1
  6
CONTINUOUS
 62
     3
 10
12437.255979999991
 20
17176.223357999988
 30
0.0
 11
12437.255979999991
 21
19352.755506000001
 31
0.0
  0
LINE
  5
2EC2
  8
0-1
  6
CONTINUOUS
 62
     3
 10
12474.257142
 20
17150.76278999999
 30
0.0
 11
12474.257142
 21
19352.755506000001
 31
0.0
  0
LINE
  5
2EC3
  8
0-1
  6
CONTINUOUS
 62
     3
 10
12637.256639999991
 20
17038.607227000011
 30
0.0
 11
12637.256639999991
 21
19352.755506000001
 31
0.0
  0
LINE
  5
2EC4
  8
0-1
  6
CONTINUOUS
 62
     3
 10
12674.25582199999
 20
17013.1427
 30
0.0
 11
12674.25582199999
 21
19352.755506000001
 31
0.0
  0
LINE
  5
2EC5
  8
0-1
  6
CONTINUOUS
 62
     3
 10
12837.257299999999
 20
16891.484391999991
 30
0.0
 11
12837.257299999999
 21
19352.755506000001
 31
0.0
  0
LINE
  5
2EC6
  8
0-1
  6
CONTINUOUS
 62
     3
 10
12874.256482000001
 20
16866.027783000001
 30
0.0
 11
12874.256482000001
 21
19352.755506000001
 31
0.0
  0
LINE
  5
2EC7
  8
0-1
  6
CONTINUOUS
 62
     3
 10
13047.757406000001
 20
16753.868259999988
 30
0.0
 11
13047.757406000001
 21
19352.755506000001
 31
0.0
  0
LINE
  5
2EC8
  8
0-1
  6
CONTINUOUS
 62
     3
 10
13084.75856799999
 20
16728.407692000012
 30
0.0
 11
13084.75856799999
 21
19352.755506000001
 31
0.0
  0
LINE
  5
2EC9
  8
0-1
  6
CONTINUOUS
 62
     3
 10
11274.257142
 20
18139.124541000001
 30
0.0
 11
11274.257142
 21
19352.755506000001
 31
0.0
  0
LINE
  5
2ECA
  8
0-1
  6
CONTINUOUS
 62
     3
 10
11437.256639999991
 20
18084.371057
 30
0.0
 11
11437.256639999991
 21
19352.755506000001
 31
0.0
  0
LINE
  5
2ECB
  8
0-1
  6
CONTINUOUS
 62
     3
 10
11474.25582199999
 20
18014.703880000001
 30
0.0
 11
11474.25582199999
 21
19352.755506000001
 31
0.0
  0
LINE
  5
2ECC
  8
0-1
  6
CONTINUOUS
 62
     3
 10
9996.7570099999957
 20
16620.757511999989
 30
0.0
 11
13125.257537999991
 21
14053.257512
 31
0.0
  0
LINE
  5
2ECD
  8
0-1
  6
CONTINUOUS
 62
     3
 10
13125.257537999991
 20
16620.757511999989
 30
0.0
 11
9996.7570099999957
 21
14053.257512
 31
0.0
  0
LINE
  5
2ECE
  8
0-1
  6
CONTINUOUS
 62
     3
 10
9996.7570099999957
 20
16620.757511999989
 30
0.0
 11
11561.10917899999
 21
17913.649455999988
 31
0.0
  0
LINE
  5
2ECF
  8
0-1
  6
CONTINUOUS
 62
     3
 10
11274.74014399999
 20
18139.801535999999
 30
0.0
 11
11510.57207
 21
17946.327348999988
 31
0.0
  0
LINE
  5
2ED0
  8
0-1
  6
CONTINUOUS
 62
     3
 10
11205.934058000001
 20
18043.208946999999
 30
0.0
 11
9553.7803420000018
 21
19180.038550000001
 31
0.0
  0
LINE
  5
2ED1
  8
0-1
  6
CONTINUOUS
 62
     3
 10
12511.74328499999
 20
17124.969662999989
 30
0.0
 11
13125.257537999991
 21
16620.757511999989
 31
0.0
  0
LINE
  5
2ED2
  8
0-1
  6
CONTINUOUS
 62
     3
 10
13262.75988699998
 20
16607.993577000001
 30
0.0
 11
13262.75988699998
 21
19393.25645600001
 31
0.0
  0
LINE
  5
2ED3
  8
0-1
  6
CONTINUOUS
 62
     3
 10
9859.2566399999978
 20
18967.778731999992
 30
0.0
 11
9859.2566399999978
 21
19393.25645600001
 31
0.0
  0
LINE
  5
2ED4
  8
0-1
  6
CONTINUOUS
 62
     3
 10
9862.2566399999978
 20
19352.755506000001
 30
0.0
 11
13262.75988699998
 21
19352.755506000001
 31
0.0
  0
LINE
  5
2ED5
  8
0-1
  6
CONTINUOUS
 62
     3
 10
9914.7564029999958
 20
19375.757512
 30
0.0
 11
9914.7564029999958
 21
19405.759095000001
 31
0.0
  0
LINE
  5
2ED6
  8
0-1
  6
CONTINUOUS
 62
     3
 10
9841.2568779999874
 20
19405.759095000001
 30
0.0
 11
9841.2568779999874
 21
19370.757247999991
 31
0.0
  0
LINE
  5
2ED7
  8
0-1
  6
CONTINUOUS
 62
     3
 10
9909.7561389999883
 20
19410.755399999991
 30
0.0
 11
9846.2571420000004
 21
19410.755399999991
 31
0.0
  0
LINE
  5
2ED8
  8
0-1
  6
CONTINUOUS
 62
     3
 10
9859.2566399999978
 20
19393.25645600001
 30
0.0
 11
9841.2568779999874
 21
19393.25645600001
 31
0.0
  0
LINE
  5
2ED9
  8
0-1
  6
CONTINUOUS
 62
     3
 10
9859.2566399999978
 20
19370.757247999991
 30
0.0
 11
9909.7561389999883
 21
19370.757247999991
 31
0.0
  0
LINE
  5
2EDA
  8
0-1
  6
CONTINUOUS
 62
     3
 10
13262.75988699998
 20
19393.25645600001
 30
0.0
 11
13280.757670000001
 21
19393.25645600001
 31
0.0
  0
LINE
  5
2EDB
  8
0-1
  6
CONTINUOUS
 62
     3
 10
13207.258145
 20
19375.757512
 30
0.0
 11
13207.258145
 21
19405.759095000001
 31
0.0
  0
LINE
  5
2EDC
  8
0-1
  6
CONTINUOUS
 62
     3
 10
13262.75988699998
 20
19370.757247999991
 30
0.0
 11
13212.25840899998
 21
19370.757247999991
 31
0.0
  0
LINE
  5
2EDD
  8
0-1
  6
CONTINUOUS
 62
     3
 10
13280.757670000001
 20
19405.759095000001
 30
0.0
 11
13280.757670000001
 21
19370.757247999991
 31
0.0
  0
LINE
  5
2EDE
  8
0-1
  6
CONTINUOUS
 62
     3
 10
13212.25840899998
 20
19410.755399999991
 30
0.0
 11
13275.759385999991
 21
19410.755399999991
 31
0.0
  0
LINE
  5
2EDF
  8
0-6
  6
CONTINUOUS
 62
     6
 10
11757.039949
 20
16808.590071999999
 30
0.0
 11
11695.89459899999
 21
16979.855114999991
 31
0.0
  0
LINE
  5
2EE0
  8
0-6
  6
CONTINUOUS
 62
     6
 10
11512.64462599999
 20
19128.483969000001
 30
0.0
 11
11656.545728999999
 21
19640.755664
 31
0.0
  0
LINE
  5
2EE1
  8
0-6
  6
CONTINUOUS
 62
     6
 10
11099.497323
 20
19234.25756400001
 30
0.0
 11
10805.570485999981
 21
19640.755664
 31
0.0
  0
LINE
  5
2EE2
  8
0-6
  6
CONTINUOUS
 62
     6
 10
11656.545728999999
 20
19640.755664
 30
0.0
 11
12208.35434899999
 21
19640.755664
 31
0.0
  0
LINE
  5
2EE3
  8
0-6
  6
CONTINUOUS
 62
     6
 10
11046.232437000001
 20
19530.66275900001
 30
0.0
 11
10837.040873
 21
19962.993576000001
 31
0.0
  0
LINE
  5
2EE4
  8
0-6
  6
CONTINUOUS
 62
     6
 10
10763.032610999981
 20
20091.17532200001
 30
0.0
 11
10566.977131999971
 21
20430.757775999999
 31
0.0
  0
LINE
  5
2EE5
  8
0-6
  6
CONTINUOUS
 62
     6
 10
10566.977131999971
 20
20430.757775999999
 30
0.0
 11
11409.412732000001
 21
20430.757775999999
 31
0.0
  0
LINE
  5
2EE6
  8
0-6
  6
CONTINUOUS
 62
     6
 10
10005.569826000001
 20
19640.755664
 30
0.0
 11
10805.570485999981
 21
19640.755664
 31
0.0
  0
LINE
  5
2EE7
  8
0-6
  6
CONTINUOUS
 62
     6
 10
10895.319879000001
 20
16979.855114999991
 30
0.0
 11
11695.89459899999
 21
16979.855114999991
 31
0.0
  0
LINE
  5
2EE8
  8
0-6
  6
CONTINUOUS
 62
     6
 10
10941.216997
 20
16051.376705999999
 30
0.0
 11
11152.485076999999
 21
16253.438045000001
 31
0.0
  0
LINE
  5
2EE9
  8
0-6
  6
CONTINUOUS
 62
     6
 10
11152.485076999999
 20
16253.438045000001
 30
0.0
 11
12032.48204099999
 21
16253.438045000001
 31
0.0
  0
LINE
  5
2EEA
  8
0-6
  6
CONTINUOUS
 62
     6
 10
10091.28495999999
 20
18067.956889000001
 30
0.0
 11
10611.284696000001
 21
18067.956889000001
 31
0.0
  0
LINE
  5
2EEB
  8
0-6
  6
CONTINUOUS
 62
     6
 10
11077.13866099999
 20
14247.650196000001
 30
0.0
 11
11160.02506299999
 21
14434.087261000001
 31
0.0
  0
LINE
  5
2EEC
  8
0-6
  6
CONTINUOUS
 62
     6
 10
11160.02506299999
 20
14434.087261000001
 30
0.0
 11
11960.025723000001
 21
14434.087261000001
 31
0.0
  0
LINE
  5
2EED
  8
0-6
  6
CONTINUOUS
 62
     6
 10
12067.549213
 20
13060.75856799999
 30
0.0
 11
12940.62982
 21
13060.75856799999
 31
0.0
  0
LINE
  5
2EEE
  8
0-6
  6
CONTINUOUS
 62
     6
 10
11661.43909899999
 20
13724.291216999991
 30
0.0
 11
12067.549213
 21
13060.75856799999
 31
0.0
  0
LINE
  5
2EEF
  8
0-6
  6
CONTINUOUS
 62
     6
 10
8082.6239069999947
 20
12570.75843599998
 30
0.0
 11
9162.6235109999961
 21
12570.75843599998
 31
0.0
  0
LINE
  5
2EF0
  8
0-6
  6
CONTINUOUS
 62
     6
 10
9749.3627159999996
 20
14450.531122
 30
0.0
 11
9162.6235109999961
 21
12570.75843599998
 31
0.0
  0
LINE
  5
2EF1
  8
0-6
  6
CONTINUOUS
 62
     6
 10
9992.2417279999972
 20
18288.748432
 30
0.0
 11
10091.28495999999
 21
18067.956889000001
 31
0.0
  0
LINE
  5
2EF2
  8
0-6
  6
CONTINUOUS
 62
     6
 10
13388.666137
 20
19526.082152999981
 30
0.0
 11
14315.41339199998
 21
20430.757775999999
 31
0.0
  0
LINE
  5
2EF3
  8
0-6
  6
CONTINUOUS
 62
     6
 10
14315.41339199998
 20
20430.757775999999
 30
0.0
 11
15990.412732000001
 21
20430.757775999999
 31
0.0
  0
LINE
  5
2EF4
  8
0-6
  6
CONTINUOUS
 62
     6
 10
9774.8074479999977
 20
14442.547723
 30
0.0
 11
9797.2591469999898
 21
14603.195554
 31
0.0
  0
LINE
  5
2EF5
  8
0-6
  6
CONTINUOUS
 62
     6
 10
9797.2591469999898
 20
14603.195554
 30
0.0
 11
9723.9199640000024
 21
14458.514520000001
 31
0.0
  0
LINE
  5
2EF6
  8
0-6
  6
CONTINUOUS
 62
     6
 10
9797.2591469999898
 20
14603.195554
 30
0.0
 11
9774.8074479999977
 21
14442.547723
 31
0.0
  0
LINE
  5
2EF7
  8
0-6
  6
CONTINUOUS
 62
     6
 10
9774.8074479999977
 20
14442.547723
 30
0.0
 11
9723.9199640000024
 21
14458.514520000001
 31
0.0
  0
LINE
  5
2EF8
  8
0-6
  6
CONTINUOUS
 62
     6
 10
9723.9199640000024
 20
14458.514520000001
 30
0.0
 11
9797.2591469999898
 21
14603.195554
 31
0.0
  0
LINE
  5
2EF9
  8
0-6
  6
CONTINUOUS
 62
     6
 10
9723.9199640000024
 20
14458.514520000001
 30
0.0
 11
9774.8074479999977
 21
14442.547723
 31
0.0
  0
LINE
  5
2EFA
  8
0-6
  6
CONTINUOUS
 62
     6
 10
11684.183767
 20
13738.211191
 30
0.0
 11
11577.91133299998
 21
13860.759228000001
 31
0.0
  0
LINE
  5
2EFB
  8
0-6
  6
CONTINUOUS
 62
     6
 10
11577.91133299998
 20
13860.759228000001
 30
0.0
 11
11638.692451000001
 21
13710.37124199999
 31
0.0
  0
LINE
  5
2EFC
  8
0-6
  6
CONTINUOUS
 62
     6
 10
11577.91133299998
 20
13860.759228000001
 30
0.0
 11
11684.183767
 21
13738.211191
 31
0.0
  0
LINE
  5
2EFD
  8
0-6
  6
CONTINUOUS
 62
     6
 10
11684.183767
 20
13738.211191
 30
0.0
 11
11638.692451000001
 21
13710.37124199999
 31
0.0
  0
LINE
  5
2EFE
  8
0-6
  6
CONTINUOUS
 62
     6
 10
11638.692451000001
 20
13710.37124199999
 30
0.0
 11
11577.91133299998
 21
13860.759228000001
 31
0.0
  0
LINE
  5
2EFF
  8
0-6
  6
CONTINUOUS
 62
     6
 10
11638.692451000001
 20
13710.37124199999
 30
0.0
 11
11684.183767
 21
13738.211191
 31
0.0
  0
LINE
  5
2F00
  8
0-6
  6
CONTINUOUS
 62
     6
 10
11052.990513999979
 20
14258.961165000001
 30
0.0
 11
11009.26690699999
 21
14102.759332999991
 31
0.0
  0
LINE
  5
2F01
  8
0-6
  6
CONTINUOUS
 62
     6
 10
11009.26690699999
 20
14102.759332999991
 30
0.0
 11
11101.286807999981
 21
14236.33724699999
 31
0.0
  0
LINE
  5
2F02
  8
0-6
  6
CONTINUOUS
 62
     6
 10
11009.26690699999
 20
14102.759332999991
 30
0.0
 11
11052.990513999979
 21
14258.961165000001
 31
0.0
  0
LINE
  5
2F03
  8
0-6
  6
CONTINUOUS
 62
     6
 10
11052.990513999979
 20
14258.961165000001
 30
0.0
 11
11101.286807999981
 21
14236.33724699999
 31
0.0
  0
LINE
  5
2F04
  8
0-6
  6
CONTINUOUS
 62
     6
 10
11101.286807999981
 20
14236.33724699999
 30
0.0
 11
11009.26690699999
 21
14102.759332999991
 31
0.0
  0
LINE
  5
2F05
  8
0-6
  6
CONTINUOUS
 62
     6
 10
11101.286807999981
 20
14236.33724699999
 30
0.0
 11
11052.990513999979
 21
14258.961165000001
 31
0.0
  0
LINE
  5
2F06
  8
0-6
  6
CONTINUOUS
 62
     6
 10
10922.78371999999
 20
16070.649299000001
 30
0.0
 11
10825.587378
 21
15940.784962
 31
0.0
  0
LINE
  5
2F07
  8
0-6
  6
CONTINUOUS
 62
     6
 10
10825.587378
 20
15940.784962
 30
0.0
 11
10959.64829399999
 21
16032.108072000001
 31
0.0
  0
LINE
  5
2F08
  8
0-6
  6
CONTINUOUS
 62
     6
 10
10825.587378
 20
15940.784962
 30
0.0
 11
10922.78371999999
 21
16070.649299000001
 31
0.0
  0
LINE
  5
2F09
  8
0-6
  6
CONTINUOUS
 62
     6
 10
10922.78371999999
 20
16070.649299000001
 30
0.0
 11
10959.64829399999
 21
16032.108072000001
 31
0.0
  0
LINE
  5
2F0A
  8
0-6
  6
CONTINUOUS
 62
     6
 10
10959.64829399999
 20
16032.108072000001
 30
0.0
 11
10825.587378
 21
15940.784962
 31
0.0
  0
LINE
  5
2F0B
  8
0-6
  6
CONTINUOUS
 62
     6
 10
10959.64829399999
 20
16032.108072000001
 30
0.0
 11
10922.78371999999
 21
16070.649299000001
 31
0.0
  0
LINE
  5
2F0C
  8
0-6
  6
CONTINUOUS
 62
     6
 10
10016.573969999999
 20
18299.663498000002
 30
0.0
 11
9926.7572739999996
 21
18434.730008999992
 31
0.0
  0
LINE
  5
2F0D
  8
0-6
  6
CONTINUOUS
 62
     6
 10
9926.7572739999996
 20
18434.730008999992
 30
0.0
 11
9967.9114649999865
 21
18277.833366999981
 31
0.0
  0
LINE
  5
2F0E
  8
0-6
  6
CONTINUOUS
 62
     6
 10
9926.7572739999996
 20
18434.730008999992
 30
0.0
 11
10016.573969999999
 21
18299.663498000002
 31
0.0
  0
LINE
  5
2F0F
  8
0-6
  6
CONTINUOUS
 62
     6
 10
10016.573969999999
 20
18299.663498000002
 30
0.0
 11
9967.9114649999865
 21
18277.833366999981
 31
0.0
  0
LINE
  5
2F10
  8
0-6
  6
CONTINUOUS
 62
     6
 10
9967.9114649999865
 20
18277.833366999981
 30
0.0
 11
9926.7572739999996
 21
18434.730008999992
 31
0.0
  0
LINE
  5
2F11
  8
0-6
  6
CONTINUOUS
 62
     6
 10
9967.9114649999865
 20
18277.833366999981
 30
0.0
 11
10016.573969999999
 21
18299.663498000002
 31
0.0
  0
LINE
  5
2F12
  8
0-6
  6
CONTINUOUS
 62
     6
 10
11782.678672999989
 20
16815.922207999989
 30
0.0
 11
11801.042666999991
 21
16654.757723999988
 31
0.0
  0
LINE
  5
2F13
  8
0-6
  6
CONTINUOUS
 62
     6
 10
11801.042666999991
 20
16654.757723999988
 30
0.0
 11
11731.403204
 21
16801.253976000011
 31
0.0
  0
LINE
  5
2F14
  8
0-6
  6
CONTINUOUS
 62
     6
 10
11801.042666999991
 20
16654.757723999988
 30
0.0
 11
11782.678672999989
 21
16815.922207999989
 31
0.0
  0
LINE
  5
2F15
  8
0-6
  6
CONTINUOUS
 62
     6
 10
11782.678672999989
 20
16815.922207999989
 30
0.0
 11
11731.403204
 21
16801.253976000011
 31
0.0
  0
LINE
  5
2F16
  8
0-6
  6
CONTINUOUS
 62
     6
 10
11731.403204
 20
16801.253976000011
 30
0.0
 11
11801.042666999991
 21
16654.757723999988
 31
0.0
  0
LINE
  5
2F17
  8
0-6
  6
CONTINUOUS
 62
     6
 10
11731.403204
 20
16801.253976000011
 30
0.0
 11
11782.678672999989
 21
16815.922207999989
 31
0.0
  0
LINE
  5
2F18
  8
0-6
  6
CONTINUOUS
 62
     6
 10
11024.58244199999
 20
19518.164078000002
 30
0.0
 11
11121.232437000001
 21
19400.758830999999
 31
0.0
  0
LINE
  5
2F19
  8
0-6
  6
CONTINUOUS
 62
     6
 10
11121.232437000001
 20
19400.758830999999
 30
0.0
 11
11067.882431999989
 21
19543.161439
 31
0.0
  0
LINE
  5
2F1A
  8
0-6
  6
CONTINUOUS
 62
     6
 10
11121.232437000001
 20
19400.758830999999
 30
0.0
 11
11024.58244199999
 21
19518.164078000002
 31
0.0
  0
LINE
  5
2F1B
  8
0-6
  6
CONTINUOUS
 62
     6
 10
11024.58244199999
 20
19518.164078000002
 30
0.0
 11
11067.882431999989
 21
19543.161439
 31
0.0
  0
LINE
  5
2F1C
  8
0-6
  6
CONTINUOUS
 62
     6
 10
11067.882431999989
 20
19543.161439
 30
0.0
 11
11121.232437000001
 21
19400.758830999999
 31
0.0
  0
LINE
  5
2F1D
  8
0-6
  6
CONTINUOUS
 62
     6
 10
11067.882431999989
 20
19543.161439
 30
0.0
 11
11024.58244199999
 21
19518.164078000002
 31
0.0
  0
LINE
  5
2F1E
  8
0-6
  6
CONTINUOUS
 62
     6
 10
10992.801271999981
 20
19356.437409999991
 30
0.0
 11
11099.497323
 21
19234.25756400001
 31
0.0
  0
LINE
  5
2F1F
  8
0-6
  6
CONTINUOUS
 62
     6
 10
11099.497323
 20
19234.25756400001
 30
0.0
 11
11038.193611999999
 21
19384.431762
 31
0.0
  0
LINE
  5
2F20
  8
0-6
  6
CONTINUOUS
 62
     6
 10
11099.497323
 20
19234.25756400001
 30
0.0
 11
10992.801271999981
 21
19356.437409999991
 31
0.0
  0
LINE
  5
2F21
  8
0-6
  6
CONTINUOUS
 62
     6
 10
10992.801271999981
 20
19356.437409999991
 30
0.0
 11
11038.193611999999
 21
19384.431762
 31
0.0
  0
LINE
  5
2F22
  8
0-6
  6
CONTINUOUS
 62
     6
 10
11038.193611999999
 20
19384.431762
 30
0.0
 11
11099.497323
 21
19234.25756400001
 31
0.0
  0
LINE
  5
2F23
  8
0-6
  6
CONTINUOUS
 62
     6
 10
11038.193611999999
 20
19384.431762
 30
0.0
 11
10992.801271999981
 21
19356.437409999991
 31
0.0
  0
LINE
  5
2F24
  8
0-6
  6
CONTINUOUS
 62
     6
 10
11486.758460999979
 20
19134.877813999981
 30
0.0
 11
11474.25582199999
 21
18973.155104000001
 31
0.0
  0
LINE
  5
2F25
  8
0-6
  6
CONTINUOUS
 62
     6
 10
11474.25582199999
 20
18973.155104000001
 30
0.0
 11
11538.530790000001
 21
19122.082204999992
 31
0.0
  0
LINE
  5
2F26
  8
0-6
  6
CONTINUOUS
 62
     6
 10
11474.25582199999
 20
18973.155104000001
 30
0.0
 11
11486.758460999979
 21
19134.877813999981
 31
0.0
  0
LINE
  5
2F27
  8
0-6
  6
CONTINUOUS
 62
     6
 10
11486.758460999979
 20
19134.877813999981
 30
0.0
 11
11538.530790000001
 21
19122.082204999992
 31
0.0
  0
LINE
  5
2F28
  8
0-6
  6
CONTINUOUS
 62
     6
 10
11538.530790000001
 20
19122.082204999992
 30
0.0
 11
11474.25582199999
 21
18973.155104000001
 31
0.0
  0
LINE
  5
2F29
  8
0-6
  6
CONTINUOUS
 62
     6
 10
11538.530790000001
 20
19122.082204999992
 30
0.0
 11
11486.758460999979
 21
19134.877813999981
 31
0.0
  0
LINE
  5
2F2A
  8
0-6
  6
CONTINUOUS
 62
     6
 10
13369.445012
 20
19544.56689699999
 30
0.0
 11
13277.757670000001
 21
19410.755399999991
 31
0.0
  0
LINE
  5
2F2B
  8
0-6
  6
CONTINUOUS
 62
     6
 10
13277.757670000001
 20
19410.755399999991
 30
0.0
 11
13407.88726299999
 21
19507.597408000001
 31
0.0
  0
LINE
  5
2F2C
  8
0-6
  6
CONTINUOUS
 62
     6
 10
13277.757670000001
 20
19410.755399999991
 30
0.0
 11
13369.445012
 21
19544.56689699999
 31
0.0
  0
LINE
  5
2F2D
  8
0-6
  6
CONTINUOUS
 62
     6
 10
13369.445012
 20
19544.56689699999
 30
0.0
 11
13407.88726299999
 21
19507.597408000001
 31
0.0
  0
LINE
  5
2F2E
  8
0-6
  6
CONTINUOUS
 62
     6
 10
13407.88726299999
 20
19507.597408000001
 30
0.0
 11
13277.757670000001
 21
19410.755399999991
 31
0.0
  0
LINE
  5
2F2F
  8
0-6
  6
CONTINUOUS
 62
     6
 10
13407.88726299999
 20
19507.597408000001
 30
0.0
 11
13369.445012
 21
19544.56689699999
 31
0.0
  0
LINE
  5
2F30
  8
2-0
  6
DASHED3
 62
     6
 10
9926.7572739999996
 20
19149.257036999988
 30
0.0
 11
13195.257274
 21
19149.257036999988
 31
0.0
  0
LINE
  5
2F31
  8
2-0
  6
DASHED3
 62
     6
 10
9884.2570099999975
 20
18953.086745000001
 30
0.0
 11
9884.2570099999975
 21
19234.25756400001
 31
0.0
  0
LINE
  5
2F32
  8
2-0
  6
DASHED3
 62
     6
 10
9926.7572739999996
 20
18923.397925000001
 30
0.0
 11
9926.7572739999996
 21
19234.25756400001
 31
0.0
  0
LINE
  5
2F33
  8
2-0
  6
DASHED3
 62
     6
 10
9884.2570099999975
 20
19234.25756400001
 30
0.0
 11
13237.759518000001
 21
19234.25756400001
 31
0.0
  0
LINE
  5
2F34
  8
2-0
  6
DASHED3
 62
     6
 10
13195.257274
 20
16652.374382999991
 30
0.0
 11
13195.257274
 21
19234.25756400001
 31
0.0
  0
LINE
  5
2F35
  8
2-0
  6
DASHED3
 62
     6
 10
13237.759518000001
 20
16623.128976000011
 30
0.0
 11
13237.759518000001
 21
19234.25756400001
 31
0.0
  0
LINE
  5
2F36
  8
2-0
  6
DASHED3
 62
     6
 10
9996.7570099999957
 20
19188.257511999989
 30
0.0
 11
11274.74014399999
 21
18139.801535999999
 31
0.0
  0
LINE
  5
2F37
  8
2-0
  6
DASHED3
 62
     6
 10
11561.10917899999
 20
17913.649455999988
 30
0.0
 11
13125.257537999991
 21
19188.257511999989
 31
0.0
  0
LINE
  5
2F38
  8
2-0
  6
DASHED3
 62
     6
 10
11510.57207
 20
17946.327348999988
 30
0.0
 11
12511.74328499999
 21
17124.969662999989
 31
0.0
  0
LINE
  5
2F39
  8
2-0
  6
CENTER2
 62
     6
 10
13195.257274
 20
20430.757775999999
 30
0.0
 11
13195.257274
 21
19480.75909499999
 31
0.0
  0
LINE
  5
2F3A
  8
2-0
  6
CENTER2
 62
     6
 10
8597.2571680000001
 20
19188.257511999989
 30
0.0
 11
10243.7554
 21
19188.257511999989
 31
0.0
  0
LINE
  5
2F3B
  8
2-0
  6
CENTER2
 62
     6
 10
9926.7572739999996
 20
20430.757775999999
 30
0.0
 11
9926.7572739999996
 21
19480.75909499999
 31
0.0
  0
LINE
  5
2F3C
  8
2-0
  6
CENTER2
 62
     6
 10
8597.2571680000001
 20
16620.757511999989
 30
0.0
 11
10243.7554
 21
16620.757511999989
 31
0.0
  0
LINE
  5
2F3D
  8
2-0
  6
CENTER2
 62
     6
 10
8597.2571680000001
 20
14053.257512
 30
0.0
 11
10243.7554
 21
14053.257512
 31
0.0
  0
ARC
  5
2F3E
  8
0-1
  6
CONTINUOUS
 62
     3
 10
9909.7561389999883
 20
19375.757512
 30
0.0
 40
5.0
 50
269.9999850001808
 51
0.0
  0
ARC
  5
2F3F
  8
0-1
  6
CONTINUOUS
 62
     3
 10
9909.7561389999883
 20
19405.759095000001
 30
0.0
 40
5.0
 50
0.0
 51
90.0
  0
ARC
  5
2F40
  8
0-1
  6
CONTINUOUS
 62
     3
 10
9846.2571420000004
 20
19405.759095000001
 30
0.0
 40
5.0
 50
90.0
 51
180.0
  0
ARC
  5
2F41
  8
0-1
  6
CONTINUOUS
 62
     3
 10
13275.759385999991
 20
19405.759095000001
 30
0.0
 40
5.0
 50
0.0
 51
90.0
  0
ARC
  5
2F42
  8
0-1
  6
CONTINUOUS
 62
     3
 10
13212.25840899998
 20
19405.759095000001
 30
0.0
 40
5.0
 50
90.0
 51
180.0
  0
ARC
  5
2F43
  8
0-1
  6
CONTINUOUS
 62
     3
 10
13212.25840899998
 20
19375.757512
 30
0.0
 40
5.0
 50
180.0
 51
269.9999850001808
  0
CIRCLE
  5
2F44
  8
0-5
  6
CONTINUOUS
 62
     4
 10
13195.257274
 20
20630.75645600001
 30
0.0
 40
199.9999949999999
  0
CIRCLE
  5
2F45
  8
0-5
  6
CONTINUOUS
 62
     4
 10
9926.7572739999996
 20
20630.75645600001
 30
0.0
 40
199.9999949999999
  0
CIRCLE
  5
2F46
  8
0-5
  6
CONTINUOUS
 62
     4
 10
8397.2565079999968
 20
19188.257511999989
 30
0.0
 40
199.9999949999999
  0
CIRCLE
  5
2F47
  8
0-5
  6
CONTINUOUS
 62
     4
 10
8397.2565079999968
 20
16620.757511999989
 30
0.0
 40
199.9999949999999
  0
CIRCLE
  5
2F48
  8
0-5
  6
CONTINUOUS
 62
     4
 10
8397.2565079999968
 20
14053.257512
 30
0.0
 40
199.9999949999999
  0
CIRCLE
  5
2F49
  8
2-0
  6
CONTINUOUS
 62
     4
 10
15604.205948999999
 20
1334.883773
 30
0.0
 40
20.000004000000001
  0
ARC
  5
2F4A
  8
2-0
  6
CONTINUOUS
 62
     4
 10
15604.205948999999
 20
1334.883773
 30
0.0
 40
20.000004000000001
 50
180.0
 51
0.0
  0
ARC
  5
2F4B
  8
2-0
  6
CONTINUOUS
 62
     4
 10
15604.205948999999
 20
1334.883773
 30
0.0
 40
20.000004000000001
 50
0.0
 51
179.99998499999839
  0
CIRCLE
  5
2F4C
  8
2-0
  6
CONTINUOUS
 62
     4
 10
15604.205948999999
 20
1734.882989
 30
0.0
 40
20.000004000000001
  0
ARC
  5
2F4D
  8
2-0
  6
CONTINUOUS
 62
     4
 10
15604.205948999999
 20
1734.882989
 30
0.0
 40
20.000004000000001
 50
180.0
 51
0.0
  0
ARC
  5
2F4E
  8
2-0
  6
CONTINUOUS
 62
     4
 10
15604.205948999999
 20
1734.882989
 30
0.0
 40
20.000004000000001
 50
0.0
 51
179.99998499999839
  0
TEXT
  5
2F4F
  8
0-5
  6
CONTINUOUS
 62
     7
 10
13138.43717299998
 20
20539.282901999999
 30
0.0
 40
160.0
  1
2
 72
     4
 11
13191.77050633332
 21
20619.282901999999
 31
0.0
  0
TEXT
  5
2F50
  8
0-5
  6
CONTINUOUS
 62
     7
 10
9883.1069090000037
 20
20540.783377
 30
0.0
 40
160.0
  1
1
 72
     4
 11
9909.7735756666698
 21
20620.783377
 31
0.0
  0
TEXT
  5
2F51
  8
0-5
  6
CONTINUOUS
 62
     7
 10
8344.8368769999979
 20
19093.695908999991
 30
0.0
 40
160.0
  1
C
 72
     4
 11
8398.1702103333319
 21
19173.695908999991
 31
0.0
  0
TEXT
  5
2F52
  8
0-5
  6
CONTINUOUS
 62
     7
 10
8344.8368769999979
 20
16526.195909999991
 30
0.0
 40
160.0
  1
B
 72
     4
 11
8398.1702103333319
 21
16606.195909999991
 31
0.0
  0
TEXT
  5
2F53
  8
0-5
  6
CONTINUOUS
 62
     7
 10
8344.8368769999979
 20
13958.695909999989
 30
0.0
 40
160.0
  1
A
 72
     4
 11
8398.1702103333319
 21
14038.695909999989
 31
0.0
  0
TEXT
  5
2F54
  8
0-6
  6
CONTINUOUS
 62
     7
 10
11736.545992999991
 20
19720.759886999989
 30
0.0
 40
160.0
  1
屋根
 72
     4
 11
11907.21265966666
 21
19800.759886999989
 31
0.0
  0
TEXT
  5
2F55
  8
0-6
  6
CONTINUOUS
 62
     7
 10
10646.975415999979
 20
20510.758039
 30
0.0
 40
160.0
  1
鼻隠し後
 72
     4
 11
11009.642082666651
 21
20590.758039
 31
0.0
  0
TEXT
  5
2F56
  8
0-6
  6
CONTINUOUS
 62
     7
 10
10085.570089999999
 20
19720.759886999989
 30
0.0
 40
160.0
  1
桁（後）
 72
     4
 11
10405.570089999999
 21
19800.759886999989
 31
0.0
  0
TEXT
  5
2F57
  8
0-6
  6
CONTINUOUS
 62
     7
 10
10975.89222399999
 20
17059.855379000011
 30
0.0
 40
160.0
  1
桁（中）
 72
     4
 11
11295.89222399999
 21
17139.855379000011
 31
0.0
  0
TEXT
  5
2F58
  8
0-6
  6
CONTINUOUS
 62
     7
 10
11232.481380999991
 20
16333.438308999979
 30
0.0
 40
160.0
  1
ブレース
 72
     4
 11
11595.14804766666
 21
16418.771642333319
 31
0.0
  0
TEXT
  5
2F59
  8
0-6
  6
CONTINUOUS
 62
     7
 10
11240.027306
 20
14514.085544999991
 30
0.0
 40
160.0
  1
桁（前）
 72
     4
 11
11560.027306
 21
14594.085544999991
 31
0.0
  0
TEXT
  5
2F5A
  8
0-6
  6
CONTINUOUS
 62
     7
 10
12147.54947699998
 20
13140.75883199999
 30
0.0
 40
160.0
  1
鼻隠し前
 72
     4
 11
12510.21614366665
 21
13220.75883199999
 31
0.0
  0
TEXT
  5
2F5B
  8
0-6
  6
CONTINUOUS
 62
     7
 10
8162.6221909999958
 20
12650.758699999989
 30
0.0
 40
160.0
  1
ケラバ 左
 72
     4
 11
8578.6221909999967
 21
12730.758699999989
 31
0.0
  0
TEXT
  5
2F5C
  8
0-6
  6
CONTINUOUS
 62
     7
 10
10171.283245000001
 20
18147.957152999999
 30
0.0
 40
160.0
  1
上枠
 72
     4
 11
10341.94991166667
 21
18227.957152999999
 31
0.0
  0
TEXT
  5
2F5D
  8
0-6
  6
CONTINUOUS
 62
     7
 10
14395.413655999981
 20
20510.758039
 30
0.0
 40
160.0
  1
鼻隠しコーナー後
 72
     4
 11
15142.08032266665
 21
20590.758039
 31
0.0
  0
TEXT
  5
2F5E
  8
2-0
  6
CONTINUOUS
 62
     7
 10
10206.291030999981
 20
11817.045754886491
 30
0.0
 40
160.0
  1
小 屋 伏 図
 50
359.99961300000001
 72
     4
 11
10707.62490467582
 21
11897.042368666671
 31
0.0
  0
TEXT
  5
2F5F
  8
2-0
  6
CONTINUOUS
 62
     7
 10
17145.989626999999
 20
1614.8834589999999
 30
0.0
 40
160.0
  1
H
  0
TEXT
  5
2F60
  8
2-0
  6
CONTINUOUS
 62
     7
 10
15651.63917299997
 20
1614.8834589999999
 30
0.0
 40
160.0
  1
（ ）内寸法ハ、  タ  イプヲ示ス。
  0
TEXT
  5
2F61
  8
2-0
  6
CONTINUOUS
 62
     7
 10
15764.206477
 20
1214.8843670000001
 30
0.0
 40
160.0
  1
有効高サハ、基礎高サヲ含ミマセン。
  0
TEXT
  5
2F69
  8
2-0
  6
CONTINUOUS
 62
     7
 10
12059.117089813441
 20
11844.237737666661
 30
0.0
 40
160.0
  1
1
 72
     4
 11
12085.78375648011
 21
11924.237737666661
 31
0.0
  0
TEXT
  5
2F6A
  8
2-0
  6
CONTINUOUS
 62
     7
 10
12302.205807064151
 20
11764.23920566667
 30
0.0
 40
160.0
  1
80
 72
     4
 11
12422.205807064151
 21
11844.23920566667
 31
0.0
  0
TEXT
  5
2F6B
  8
2-0
  6
CONTINUOUS
 62
     7
 10
11560.11905581344
 20
11817.042368666671
 30
0.0
 40
160.0
  1
(S=  /   )
 72
     4
 11
12120.11905581344
 21
11897.042368666671
 31
0.0
  0
LINE
  5
2F6C
  8
0-1
  6
CONTINUOUS
 62
     3
 10
9276.5124190000097
 20
8022.5051830000029
 30
0.0
 11
14456.51479400001
 21
8022.5051830000029
 31
0.0
  0
LINE
  5
2F6D
  8
0-1
  6
CONTINUOUS
 62
     3
 10
8566.5125510000089
 20
6011.4597990000002
 30
0.0
 11
14489.013606
 21
6011.4597990000002
 31
0.0
  0
LINE
  5
2F6E
  8
0-1
  6
CONTINUOUS
 62
     3
 10
9249.0136060000077
 20
6111.4596339999998
 30
0.0
 11
14489.013606
 21
6111.4596339999998
 31
0.0
  0
LINE
  5
2F6F
  8
0-1
  6
CONTINUOUS
 62
     3
 10
9256.5143320000061
 20
8144.4870769999989
 30
0.0
 11
9256.5143320000061
 21
6111.4596339999998
 31
0.0
  0
LINE
  5
2F70
  8
0-1
  6
CONTINUOUS
 62
     3
 10
9276.5124190000097
 20
8145.1878260000021
 30
0.0
 11
9276.5124190000097
 21
6111.4596339999998
 31
0.0
  0
LINE
  5
2F71
  8
0-1
  6
CONTINUOUS
 62
     3
 10
9249.0136060000077
 20
6011.4597990000002
 30
0.0
 11
9249.0136060000077
 21
6111.4596339999998
 31
0.0
  0
LINE
  5
2F72
  8
0-1
  6
CONTINUOUS
 62
     3
 10
14551.79397200001
 20
8329.3840100000016
 30
0.0
 11
14547.242069
 21
8459.3047630000019
 31
0.0
  0
LINE
  5
2F73
  8
0-1
  6
CONTINUOUS
 62
     3
 10
11939.01347400001
 20
6161.4597990000002
 30
0.0
 11
14361.513738000011
 21
6161.4597990000002
 31
0.0
  0
LINE
  5
2F74
  8
0-1
  6
CONTINUOUS
 62
     3
 10
11452.513131000011
 20
6161.4597990000002
 30
0.0
 11
11452.513131000011
 21
8022.5051830000029
 31
0.0
  0
LINE
  5
2F75
  8
0-1
  6
CONTINUOUS
 62
     3
 10
11472.514187000001
 20
6161.4597990000002
 30
0.0
 11
11472.514187000001
 21
8022.5051830000029
 31
0.0
  0
LINE
  5
2F76
  8
0-1
  6
CONTINUOUS
 62
     3
 10
11402.514450000001
 20
6161.4597990000002
 30
0.0
 11
11402.514450000001
 21
8022.5051830000029
 31
0.0
  0
LINE
  5
2F77
  8
0-1
  6
CONTINUOUS
 62
     3
 10
11522.512866999999
 20
6161.4597990000002
 30
0.0
 11
11522.512866999999
 21
8022.5051830000029
 31
0.0
  0
LINE
  5
2F78
  8
0-1
  6
CONTINUOUS
 62
     3
 10
11655.51177100001
 20
6161.4597990000002
 30
0.0
 11
11655.51177100001
 21
8022.5051830000029
 31
0.0
  0
LINE
  5
2F79
  8
0-1
  6
CONTINUOUS
 62
     3
 10
11670.51355300001
 20
6161.4597990000002
 30
0.0
 11
11670.51355300001
 21
8022.5051830000029
 31
0.0
  0
LINE
  5
2F7A
  8
0-1
  6
CONTINUOUS
 62
     3
 10
11269.512575999999
 20
6161.4597990000002
 30
0.0
 11
11269.512575999999
 21
8022.5051830000029
 31
0.0
  0
LINE
  5
2F7B
  8
0-1
  6
CONTINUOUS
 62
     3
 10
11254.513763999999
 20
6161.4597990000002
 30
0.0
 11
11254.513763999999
 21
8022.5051830000029
 31
0.0
  0
LINE
  5
2F7C
  8
0-1
  6
CONTINUOUS
 62
     3
 10
9371.5114950000097
 20
8022.5051830000029
 30
0.0
 11
9371.5114950000097
 21
6111.4596339999998
 31
0.0
  0
LINE
  5
2F7D
  8
0-1
  6
CONTINUOUS
 62
     3
 10
11939.01347400001
 20
8022.5051830000029
 30
0.0
 11
11939.01347400001
 21
6111.4596339999998
 31
0.0
  0
LINE
  5
2F7E
  8
0-1
  6
CONTINUOUS
 62
     3
 10
11794.013738000011
 20
8022.5051830000029
 30
0.0
 11
11794.013738000011
 21
6111.4596339999998
 31
0.0
  0
LINE
  5
2F7F
  8
0-1
  6
CONTINUOUS
 62
     3
 10
10052.513461
 20
6161.4597990000002
 30
0.0
 11
10052.513461
 21
8022.5051830000029
 31
0.0
  0
LINE
  5
2F80
  8
0-1
  6
CONTINUOUS
 62
     3
 10
10072.51352699999
 20
6161.4597990000002
 30
0.0
 11
10072.51352699999
 21
8022.5051830000029
 31
0.0
  0
LINE
  5
2F81
  8
0-1
  6
CONTINUOUS
 62
     3
 10
10002.513790999999
 20
6161.4597990000002
 30
0.0
 11
10002.513790999999
 21
8022.5051830000029
 31
0.0
  0
LINE
  5
2F82
  8
0-1
  6
CONTINUOUS
 62
     3
 10
10122.513197
 20
6161.4597990000002
 30
0.0
 11
10122.513197
 21
8022.5051830000029
 31
0.0
  0
LINE
  5
2F83
  8
0-1
  6
CONTINUOUS
 62
     3
 10
10255.51408100001
 20
6161.4597990000002
 30
0.0
 11
10255.51408100001
 21
8022.5051830000029
 31
0.0
  0
LINE
  5
2F84
  8
0-1
  6
CONTINUOUS
 62
     3
 10
10270.51289300001
 20
6161.4597990000002
 30
0.0
 11
10270.51289300001
 21
8022.5051830000029
 31
0.0
  0
LINE
  5
2F85
  8
0-1
  6
CONTINUOUS
 62
     3
 10
9869.5129060000127
 20
6161.4597990000002
 30
0.0
 11
9869.5129060000127
 21
8022.5051830000029
 31
0.0
  0
LINE
  5
2F86
  8
0-1
  6
CONTINUOUS
 62
     3
 10
9854.5121150000123
 20
6161.4597990000002
 30
0.0
 11
9854.5121150000123
 21
8022.5051830000029
 31
0.0
  0
LINE
  5
2F87
  8
0-1
  6
CONTINUOUS
 62
     3
 10
10554.51343400001
 20
6161.4597990000002
 30
0.0
 11
10554.51343400001
 21
8022.5051830000029
 31
0.0
  0
LINE
  5
2F88
  8
0-1
  6
CONTINUOUS
 62
     3
 10
10569.51224700001
 20
6161.4597990000002
 30
0.0
 11
10569.51224700001
 21
8022.5051830000029
 31
0.0
  0
LINE
  5
2F89
  8
0-1
  6
CONTINUOUS
 62
     3
 10
10970.514213
 20
6161.4597990000002
 30
0.0
 11
10970.514213
 21
8022.5051830000029
 31
0.0
  0
LINE
  5
2F8A
  8
0-1
  6
CONTINUOUS
 62
     3
 10
10955.513421
 20
6161.4597990000002
 30
0.0
 11
10955.513421
 21
8022.5051830000029
 31
0.0
  0
LINE
  5
2F8B
  8
0-1
  6
CONTINUOUS
 62
     3
 10
10822.512537000001
 20
6161.4597990000002
 30
0.0
 11
10822.512537000001
 21
8022.5051830000029
 31
0.0
  0
LINE
  5
2F8C
  8
0-1
  6
CONTINUOUS
 62
     3
 10
10702.513131000011
 20
6161.4597990000002
 30
0.0
 11
10702.513131000011
 21
8022.5051830000029
 31
0.0
  0
LINE
  5
2F8D
  8
0-1
  6
CONTINUOUS
 62
     3
 10
10772.51286700001
 20
6161.4597990000002
 30
0.0
 11
10772.51286700001
 21
8022.5051830000029
 31
0.0
  0
LINE
  5
2F8E
  8
0-1
  6
CONTINUOUS
 62
     3
 10
10752.513790999999
 20
6161.4597990000002
 30
0.0
 11
10752.513790999999
 21
8022.5051830000029
 31
0.0
  0
LINE
  5
2F8F
  8
0-1
  6
CONTINUOUS
 62
     3
 10
11094.013408000001
 20
8022.5051830000029
 30
0.0
 11
11094.013408000001
 21
6161.4597990000002
 31
0.0
  0
LINE
  5
2F90
  8
0-1
  6
CONTINUOUS
 62
     3
 10
11131.013579
 20
8022.5051830000029
 30
0.0
 11
11131.013579
 21
6161.4597990000002
 31
0.0
  0
LINE
  5
2F91
  8
0-1
  6
CONTINUOUS
 62
     3
 10
9694.0127480000119
 20
8022.5051830000029
 30
0.0
 11
9694.0127480000119
 21
6161.4597990000002
 31
0.0
  0
LINE
  5
2F92
  8
0-1
  6
CONTINUOUS
 62
     3
 10
9731.0139090000121
 20
8022.5051830000029
 30
0.0
 11
9731.0139090000121
 21
6161.4597990000002
 31
0.0
  0
LINE
  5
2F93
  8
0-1
  6
CONTINUOUS
 62
     3
 10
10394.01208800001
 20
8022.5051830000029
 30
0.0
 11
10394.01208800001
 21
6161.4597990000002
 31
0.0
  0
LINE
  5
2F94
  8
0-1
  6
CONTINUOUS
 62
     3
 10
10431.014239
 20
8022.5051830000029
 30
0.0
 11
10431.014239
 21
6161.4597990000002
 31
0.0
  0
LINE
  5
2F95
  8
0-1
  6
CONTINUOUS
 62
     3
 10
9371.5114950000097
 20
6161.4597990000002
 30
0.0
 11
11794.013738000011
 21
6161.4597990000002
 31
0.0
  0
LINE
  5
2F96
  8
0-1
  6
CONTINUOUS
 62
     3
 10
11866.51360600001
 20
8235.6181730000044
 30
0.0
 11
11861.959722999991
 21
8365.5369470000005
 31
0.0
  0
LINE
  5
2F97
  8
0-1
  6
CONTINUOUS
 62
     3
 10
11866.51360600001
 20
8235.6181730000044
 30
0.0
 11
11866.51360600001
 21
8022.5051830000029
 31
0.0
  0
LINE
  5
2F98
  8
0-1
  6
CONTINUOUS
 62
     3
 10
14361.513738000011
 20
8022.5051830000029
 30
0.0
 11
14361.513738000011
 21
6111.4596339999998
 31
0.0
  0
LINE
  5
2F99
  8
0-1
  6
CONTINUOUS
 62
     3
 10
14476.513870000001
 20
8326.746301000001
 30
0.0
 11
14476.513870000001
 21
6111.4596339999998
 31
0.0
  0
LINE
  5
2F9A
  8
0-1
  6
CONTINUOUS
 62
     3
 10
14456.51479400001
 20
8326.0455519999978
 30
0.0
 11
14456.51479400001
 21
6111.4596339999998
 31
0.0
  0
LINE
  5
2F9B
  8
0-1
  6
CONTINUOUS
 62
     3
 10
13302.011983
 20
8022.5051830000029
 30
0.0
 11
13302.011983
 21
6161.4597990000002
 31
0.0
  0
LINE
  5
2F9C
  8
0-1
  6
CONTINUOUS
 62
     3
 10
13339.013144
 20
8022.5051830000029
 30
0.0
 11
13339.013144
 21
6161.4597990000002
 31
0.0
  0
LINE
  5
2F9D
  8
0-1
  6
CONTINUOUS
 62
     3
 10
14002.014291999991
 20
8022.5051830000029
 30
0.0
 11
14002.014291999991
 21
6161.4597990000002
 31
0.0
  0
LINE
  5
2F9E
  8
0-1
  6
CONTINUOUS
 62
     3
 10
14039.01248400001
 20
8022.5051830000029
 30
0.0
 11
14039.01248400001
 21
6161.4597990000002
 31
0.0
  0
LINE
  5
2F9F
  8
0-1
  6
CONTINUOUS
 62
     3
 10
12602.012642000011
 20
8022.5051830000029
 30
0.0
 11
12602.012642000011
 21
6161.4597990000002
 31
0.0
  0
LINE
  5
2FA0
  8
0-1
  6
CONTINUOUS
 62
     3
 10
12639.012814000011
 20
8022.5051830000029
 30
0.0
 11
12639.012814000011
 21
6161.4597990000002
 31
0.0
  0
LINE
  5
2FA1
  8
0-1
  6
CONTINUOUS
 62
     3
 10
12980.51243100001
 20
6161.4597990000002
 30
0.0
 11
12980.51243100001
 21
8022.5051830000029
 31
0.0
  0
LINE
  5
2FA2
  8
0-1
  6
CONTINUOUS
 62
     3
 10
12960.513354999999
 20
6161.4597990000002
 30
0.0
 11
12960.513354999999
 21
8022.5051830000029
 31
0.0
  0
LINE
  5
2FA3
  8
0-1
  6
CONTINUOUS
 62
     3
 10
13030.51408100001
 20
6161.4597990000002
 30
0.0
 11
13030.51408100001
 21
8022.5051830000029
 31
0.0
  0
LINE
  5
2FA4
  8
0-1
  6
CONTINUOUS
 62
     3
 10
12910.512694999999
 20
6161.4597990000002
 30
0.0
 11
12910.512694999999
 21
8022.5051830000029
 31
0.0
  0
LINE
  5
2FA5
  8
0-1
  6
CONTINUOUS
 62
     3
 10
12777.51379100001
 20
6161.4597990000002
 30
0.0
 11
12777.51379100001
 21
8022.5051830000029
 31
0.0
  0
LINE
  5
2FA6
  8
0-1
  6
CONTINUOUS
 62
     3
 10
12762.51299899999
 20
6161.4597990000002
 30
0.0
 11
12762.51299899999
 21
8022.5051830000029
 31
0.0
  0
LINE
  5
2FA7
  8
0-1
  6
CONTINUOUS
 62
     3
 10
13163.512986000011
 20
6161.4597990000002
 30
0.0
 11
13163.512986000011
 21
8022.5051830000029
 31
0.0
  0
LINE
  5
2FA8
  8
0-1
  6
CONTINUOUS
 62
     3
 10
13178.51179800001
 20
6161.4597990000002
 30
0.0
 11
13178.51179800001
 21
8022.5051830000029
 31
0.0
  0
LINE
  5
2FA9
  8
0-1
  6
CONTINUOUS
 62
     3
 10
13878.51410700001
 20
6161.4597990000002
 30
0.0
 11
13878.51410700001
 21
8022.5051830000029
 31
0.0
  0
LINE
  5
2FAA
  8
0-1
  6
CONTINUOUS
 62
     3
 10
13863.512325999989
 20
6161.4597990000002
 30
0.0
 11
13863.512325999989
 21
8022.5051830000029
 31
0.0
  0
LINE
  5
2FAB
  8
0-1
  6
CONTINUOUS
 62
     3
 10
13462.51332900001
 20
6161.4597990000002
 30
0.0
 11
13462.51332900001
 21
8022.5051830000029
 31
0.0
  0
LINE
  5
2FAC
  8
0-1
  6
CONTINUOUS
 62
     3
 10
13477.512140999999
 20
6161.4597990000002
 30
0.0
 11
13477.512140999999
 21
8022.5051830000029
 31
0.0
  0
LINE
  5
2FAD
  8
0-1
  6
CONTINUOUS
 62
     3
 10
13610.512035000011
 20
6161.4597990000002
 30
0.0
 11
13610.512035000011
 21
8022.5051830000029
 31
0.0
  0
LINE
  5
2FAE
  8
0-1
  6
CONTINUOUS
 62
     3
 10
13730.51243100001
 20
6161.4597990000002
 30
0.0
 11
13730.51243100001
 21
8022.5051830000029
 31
0.0
  0
LINE
  5
2FAF
  8
0-1
  6
CONTINUOUS
 62
     3
 10
13660.51269500001
 20
6161.4597990000002
 30
0.0
 11
13660.51269500001
 21
8022.5051830000029
 31
0.0
  0
LINE
  5
2FB0
  8
0-1
  6
CONTINUOUS
 62
     3
 10
13680.51177100001
 20
6161.4597990000002
 30
0.0
 11
13680.51177100001
 21
8022.5051830000029
 31
0.0
  0
LINE
  5
2FB1
  8
0-1
  6
CONTINUOUS
 62
     3
 10
12478.51245800001
 20
6161.4597990000002
 30
0.0
 11
12478.51245800001
 21
8022.5051830000029
 31
0.0
  0
LINE
  5
2FB2
  8
0-1
  6
CONTINUOUS
 62
     3
 10
12463.51265600001
 20
6161.4597990000002
 30
0.0
 11
12463.51265600001
 21
8022.5051830000029
 31
0.0
  0
LINE
  5
2FB3
  8
0-1
  6
CONTINUOUS
 62
     3
 10
12062.513659
 20
6161.4597990000002
 30
0.0
 11
12062.513659
 21
8022.5051830000029
 31
0.0
  0
LINE
  5
2FB4
  8
0-1
  6
CONTINUOUS
 62
     3
 10
12077.51445000001
 20
6161.4597990000002
 30
0.0
 11
12077.51445000001
 21
8022.5051830000029
 31
0.0
  0
LINE
  5
2FB5
  8
0-1
  6
CONTINUOUS
 62
     3
 10
12210.51335500001
 20
6161.4597990000002
 30
0.0
 11
12210.51335500001
 21
8022.5051830000029
 31
0.0
  0
LINE
  5
2FB6
  8
0-1
  6
CONTINUOUS
 62
     3
 10
12330.512761000011
 20
6161.4597990000002
 30
0.0
 11
12330.512761000011
 21
8022.5051830000029
 31
0.0
  0
LINE
  5
2FB7
  8
0-1
  6
CONTINUOUS
 62
     3
 10
12260.513025
 20
6161.4597990000002
 30
0.0
 11
12260.513025
 21
8022.5051830000029
 31
0.0
  0
LINE
  5
2FB8
  8
0-1
  6
CONTINUOUS
 62
     3
 10
12280.513091000001
 20
6161.4597990000002
 30
0.0
 11
12280.513091000001
 21
8022.5051830000029
 31
0.0
  0
LINE
  5
2FB9
  8
0-1
  6
CONTINUOUS
 62
     3
 10
14489.013606
 20
6111.4596339999998
 30
0.0
 11
14489.013606
 21
6011.4597990000002
 31
0.0
  0
LINE
  5
2FBA
  8
0-1
  6
CONTINUOUS
 62
     3
 10
9079.3860200000126
 20
8186.3103449999971
 30
0.0
 11
9078.193360000012
 21
8220.2877920000046
 31
0.0
  0
LINE
  5
2FBB
  8
0-1
  6
CONTINUOUS
 62
     3
 10
9081.087416000013
 20
8223.3916769999978
 30
0.0
 11
14560.81166900001
 21
8414.7517380000008
 31
0.0
  0
LINE
  5
2FBC
  8
0-1
  6
CONTINUOUS
 62
     3
 10
14562.211189000011
 20
8374.778330000001
 30
0.0
 11
9082.4879260000125
 21
8183.4162890000034
 31
0.0
  0
LINE
  5
2FBD
  8
0-1
  6
CONTINUOUS
 62
     3
 10
9079.7710360000165
 20
8175.3160990000051
 30
0.0
 11
9079.7680670000118
 21
8175.3814230000016
 31
0.0
  0
LINE
  5
2FBE
  8
0-1
  6
CONTINUOUS
 62
     3
 10
9079.7680670000118
 20
8175.3814230000016
 30
0.0
 11
9080.8914440000135
 21
8143.3369759999978
 31
0.0
  0
LINE
  5
2FBF
  8
0-1
  6
CONTINUOUS
 62
     3
 10
9086.062936000013
 20
8138.5138789999974
 30
0.0
 11
14584.75493599999
 21
8330.5390590000006
 31
0.0
  0
LINE
  5
2FC0
  8
0-1
  6
CONTINUOUS
 62
     3
 10
14580.203033
 20
8460.4588220000023
 30
0.0
 11
9081.5110330000116
 21
8268.4346330000008
 31
0.0
  0
LINE
  5
2FC1
  8
0-1
  6
CONTINUOUS
 62
     3
 10
9076.687936000013
 20
8263.2621500000005
 30
0.0
 11
9077.8083440000173
 21
8231.283027999998
 31
0.0
  0
LINE
  5
2FC2
  8
0-1
  6
CONTINUOUS
 62
     3
 10
9080.9132190000128
 20
8228.3889720000006
 30
0.0
 11
14560.63549200001
 21
8419.7490329999982
 31
0.0
  0
LINE
  5
2FC3
  8
0-1
  6
CONTINUOUS
 62
     3
 10
14562.386376
 20
8369.7810350000018
 30
0.0
 11
9082.6631130000114
 21
8178.4189939999969
 31
0.0
  0
LINE
  5
2FC4
  8
0-1
  6
CONTINUOUS
 62
     3
 10
9094.0027850000133
 20
8268.8721060000007
 30
0.0
 11
9098.5556780000115
 21
8138.9513529999967
 31
0.0
  0
LINE
  5
2FC5
  8
0-5
  6
CONTINUOUS
 62
     4
 10
17359.886507999989
 20
6219.3052910000006
 30
0.0
 11
17479.884924000009
 21
6011.4597990000002
 31
0.0
  0
LINE
  5
2FC6
  8
0-5
  6
CONTINUOUS
 62
     4
 10
14569.013870000001
 20
6011.4597990000002
 30
0.0
 11
19451.75860400001
 21
6011.4597990000002
 31
0.0
  0
LINE
  5
2FC7
  8
0-5
  6
CONTINUOUS
 62
     4
 10
17479.884924000009
 20
6011.4597990000002
 30
0.0
 11
17599.885320000001
 21
6219.3052910000006
 31
0.0
  0
LINE
  5
2FC8
  8
0-5
  6
CONTINUOUS
 62
     4
 10
17599.885320000001
 20
6219.3052910000006
 30
0.0
 11
17359.886507999989
 21
6219.3052910000006
 31
0.0
  0
LINE
  5
2FC9
  8
0-5
  6
CONTINUOUS
 62
     4
 10
9299.0136060000114
 20
4331.4597000000003
 30
0.0
 11
9299.0136060000114
 21
4171.4596669999992
 31
0.0
  0
LINE
  5
2FCA
  8
0-5
  6
CONTINUOUS
 62
     4
 10
11866.51360600001
 20
4331.4597000000003
 30
0.0
 11
11866.51360600001
 21
4171.4596669999992
 31
0.0
  0
LINE
  5
2FCB
  8
0-5
  6
CONTINUOUS
 62
     4
 10
14434.01360600001
 20
4331.4597000000003
 30
0.0
 11
14434.01360600001
 21
4171.4596669999992
 31
0.0
  0
LINE
  5
2FCC
  8
2-0
  6
CENTER2
 62
     6
 10
9299.0136060000114
 20
5748.8063859999984
 30
0.0
 11
9299.0136060000114
 21
6805.9494789999999
 31
0.0
  0
LINE
  5
2FCD
  8
2-0
  6
CENTER2
 62
     6
 10
11866.51360600001
 20
5748.8063859999984
 30
0.0
 11
11866.51360600001
 21
6805.9494789999999
 31
0.0
  0
LINE
  5
2FCE
  8
2-0
  6
CENTER2
 62
     6
 10
14434.01360600001
 20
5748.8063859999984
 30
0.0
 11
14434.01360600001
 21
6805.9494789999999
 31
0.0
  0
ARC
  5
2FCF
  8
0-1
  6
CONTINUOUS
 62
     3
 10
9084.0745100000076
 20
8180.9705939999967
 30
0.0
 40
2.5
 50
272.00698899981808
 51
92.006988999818205
  0
ARC
  5
2FD0
  8
0-1
  6
CONTINUOUS
 62
     3
 10
9082.499803000017
 20
8225.9442660000004
 30
0.0
 40
2.5
 50
272.00698899981808
 51
92.006988999818205
  0
ARC
  5
2FD1
  8
0-1
  6
CONTINUOUS
 62
     3
 10
9081.1923310000166
 20
8220.3927060000005
 30
0.0
 40
3.0
 50
92.006988999818205
 51
182.00698899999421
  0
ARC
  5
2FD2
  8
0-1
  6
CONTINUOUS
 62
     3
 10
14561.510439000011
 20
8394.764538999998
 30
0.0
 40
20.0
 50
272.00698899981808
 51
92.006988999818205
  0
ARC
  5
2FD3
  8
0-1
  6
CONTINUOUS
 62
     3
 10
9082.3830110000126
 20
8186.4152600000016
 30
0.0
 40
3.0
 50
182.00698899999421
 51
272.00698899981808
  0
ARC
  5
2FD4
  8
0-1
  6
CONTINUOUS
 62
     3
 10
9082.7680270000128
 20
8175.4220029999988
 30
0.0
 40
3.0
 50
92.006988999818205
 51
182.00698899999421
  0
ARC
  5
2FD5
  8
0-1
  6
CONTINUOUS
 62
     3
 10
9085.8887380000087
 20
8143.511174000002
 30
0.0
 40
5.0
 50
182.00698899999421
 51
272.00698899981808
  0
ARC
  5
2FD6
  8
0-1
  6
CONTINUOUS
 62
     3
 10
14556.51413400001
 20
8394.5903410000028
 30
0.0
 40
69.999999000000003
 50
293.79377700003289
 51
70.220199999983819
  0
ARC
  5
2FD7
  8
0-1
  6
CONTINUOUS
 62
     3
 10
9081.685231000014
 20
8263.4373379999997
 30
0.0
 40
5.0
 50
92.006988999818205
 51
182.00698899999421
  0
ARC
  5
2FD8
  8
0-1
  6
CONTINUOUS
 62
     3
 10
9080.8063250000123
 20
8231.3869530000029
 30
0.0
 40
3.0
 50
182.00698899999421
 51
272.00698899981808
  0
ARC
  5
2FD9
  8
0-1
  6
CONTINUOUS
 62
     3
 10
14561.510439000011
 20
8394.764538999998
 30
0.0
 40
24.999998999999999
 50
272.00698899981808
 51
92.006988999818205
  0
CIRCLE
  5
2FDA
  8
0-5
  6
CONTINUOUS
 62
     4
 10
9299.0136060000114
 20
3971.459006999999
 30
0.0
 40
199.9999949999999
  0
CIRCLE
  5
2FDB
  8
0-5
  6
CONTINUOUS
 62
     4
 10
14434.01360600001
 20
3971.459006999999
 30
0.0
 40
199.9999949999999
  0
CIRCLE
  5
2FDC
  8
0-5
  6
CONTINUOUS
 62
     4
 10
11866.51360600001
 20
3971.459006999999
 30
0.0
 40
199.9999949999999
  0
TEXT
  5
2FDD
  8
0-5
  6
CONTINUOUS
 62
     7
 10
17359.886507999989
 20
6299.3060500000011
 30
0.0
 40
160.0
  1
G.L
 72
     4
 11
17519.886507999989
 21
6379.3060500000001
 31
0.0
  0
TEXT
  5
2FDE
  8
0-5
  6
CONTINUOUS
 62
     7
 10
9244.8176298542166
 20
3884.205062638202
 30
0.0
 40
160.0
  1
C
 72
     4
 11
9298.1509631875524
 21
3964.205062638202
 31
0.0
  0
TEXT
  5
2FDF
  8
0-5
  6
CONTINUOUS
 62
     7
 10
11812.31663885419
 20
3884.205062638202
 30
0.0
 40
160.0
  1
B
 72
     4
 11
11865.64997218753
 21
3964.205062638202
 31
0.0
  0
TEXT
  5
2FE0
  8
0-5
  6
CONTINUOUS
 62
     7
 10
14379.81564985421
 20
3884.205062638202
 30
0.0
 40
160.0
  1
A
 72
     4
 11
14433.14898318755
 21
3964.205062638202
 31
0.0
  0
TEXT
  5
2FE1
  8
2-0
  6
CONTINUOUS
 62
     7
 10
10397.565323999999
 20
3224.2921930000011
 30
0.0
 40
160.0
  1
側 面 立 面 図
 72
     4
 11
11042.89865733334
 21
3304.2921930000011
 31
0.0
  0
TEXT
  5
2FE2
  8
2-0
  6
CONTINUOUS
 62
     7
 10
12394.39084247095
 20
3251.4875619999989
 30
0.0
 40
160.0
  1
1
 72
     4
 11
12421.057509137619
 21
3331.4875619999989
 31
0.0
  0
TEXT
  5
2FE3
  8
2-0
  6
CONTINUOUS
 62
     7
 10
12637.47955972166
 20
3171.4890300000011
 30
0.0
 40
160.0
  1
80
 72
     4
 11
12757.47955972166
 21
3251.4890300000011
 31
0.0
  0
TEXT
  5
2FE4
  8
2-0
  6
CONTINUOUS
 62
     7
 10
11895.39280847095
 20
3224.2921930000011
 30
0.0
 40
160.0
  1
(S=  /   )
 72
     4
 11
12455.39280847095
 21
3304.2921930000011
 31
0.0
  0
LINE
  5
2FE5
  8
0-1
  6
CONTINUOUS
 62
     3
 10
19624.25583200001
 20
8019.4596930000034
 30
0.0
 11
22807.759263
 21
8019.4596930000034
 31
0.0
  0
LINE
  5
2FE6
  8
0-1
  6
CONTINUOUS
 62
     3
 10
19624.25583200001
 20
8195.9600030000001
 30
0.0
 11
22807.759263
 21
8195.9600030000001
 31
0.0
  0
LINE
  5
2FE7
  8
0-1
  6
CONTINUOUS
 62
     3
 10
19496.259132000021
 20
8133.7739220000012
 30
0.0
 11
19496.259132000021
 21
8459.4596599999986
 31
0.0
  0
LINE
  5
2FE8
  8
0-1
  6
CONTINUOUS
 62
     3
 10
22935.757944000001
 20
8329.4597259999973
 30
0.0
 11
19496.259132000021
 21
8329.4597259999973
 31
0.0
  0
LINE
  5
2FE9
  8
0-1
  6
CONTINUOUS
 62
     3
 10
22935.757944000001
 20
8459.4596599999986
 30
0.0
 11
22935.757944000001
 21
8133.7739220000012
 31
0.0
  0
LINE
  5
2FEA
  8
0-1
  6
CONTINUOUS
 62
     3
 10
19496.259132000021
 20
8459.4596599999986
 30
0.0
 11
22935.757944000001
 21
8459.4596599999986
 31
0.0
  0
LINE
  5
2FEB
  8
0-1
  6
CONTINUOUS
 62
     3
 10
22935.757944000001
 20
8133.7739220000012
 30
0.0
 11
22892.757812000011
 21
8133.7739220000012
 31
0.0
  0
LINE
  5
2FEC
  8
0-1
  6
CONTINUOUS
 62
     3
 10
22900.25820800001
 20
6111.4596339999998
 30
0.0
 11
22800.258867000011
 21
6111.4596339999998
 31
0.0
  0
LINE
  5
2FED
  8
0-1
  6
CONTINUOUS
 62
     3
 10
22800.258867000011
 20
6111.4596339999998
 30
0.0
 11
22800.258867000011
 21
6011.4597990000002
 31
0.0
  0
LINE
  5
2FEE
  8
0-1
  6
CONTINUOUS
 62
     3
 10
22900.25820800001
 20
6011.4597990000002
 30
0.0
 11
22900.25820800001
 21
6111.4596339999998
 31
0.0
  0
LINE
  5
2FEF
  8
0-1
  6
CONTINUOUS
 62
     3
 10
22807.759263
 20
8329.4597259999973
 30
0.0
 11
22807.759263
 21
6111.4596339999998
 31
0.0
  0
LINE
  5
2FF0
  8
0-1
  6
CONTINUOUS
 62
     3
 10
22762.760847000001
 20
8019.4596930000034
 30
0.0
 11
22762.760847000001
 21
6011.4597990000002
 31
0.0
  0
LINE
  5
2FF1
  8
0-1
  6
CONTINUOUS
 62
     3
 10
22872.760715
 20
8459.4596599999986
 30
0.0
 11
22872.760715
 21
6111.4596339999998
 31
0.0
  0
LINE
  5
2FF2
  8
0-1
  6
CONTINUOUS
 62
     3
 10
22892.757812000011
 20
8329.4597259999973
 30
0.0
 11
22892.757812000011
 21
6111.4596339999998
 31
0.0
  0
LINE
  5
2FF3
  8
0-1
  6
CONTINUOUS
 62
     3
 10
19496.259132000021
 20
8133.7739220000012
 30
0.0
 11
19539.257284000021
 21
8133.7739220000012
 31
0.0
  0
LINE
  5
2FF4
  8
0-1
  6
CONTINUOUS
 62
     3
 10
19531.756888
 20
6111.4596339999998
 30
0.0
 11
19631.75622800002
 21
6111.4596339999998
 31
0.0
  0
LINE
  5
2FF5
  8
0-1
  6
CONTINUOUS
 62
     3
 10
19631.75622800002
 20
6111.4596339999998
 30
0.0
 11
19631.75622800002
 21
6011.4597990000002
 31
0.0
  0
LINE
  5
2FF6
  8
0-1
  6
CONTINUOUS
 62
     3
 10
19531.756888
 20
6011.4597990000002
 30
0.0
 11
19531.756888
 21
6111.4596339999998
 31
0.0
  0
LINE
  5
2FF7
  8
0-1
  6
CONTINUOUS
 62
     3
 10
19669.258208000021
 20
8019.4596930000034
 30
0.0
 11
19669.258208000021
 21
6011.4597990000002
 31
0.0
  0
LINE
  5
2FF8
  8
0-1
  6
CONTINUOUS
 62
     3
 10
19624.25583200001
 20
8329.4597259999973
 30
0.0
 11
19624.25583200001
 21
6111.4596339999998
 31
0.0
  0
LINE
  5
2FF9
  8
0-1
  6
CONTINUOUS
 62
     3
 10
19559.256360000021
 20
8459.4596599999986
 30
0.0
 11
19559.256360000021
 21
6111.4596339999998
 31
0.0
  0
LINE
  5
2FFA
  8
0-1
  6
CONTINUOUS
 62
     3
 10
19539.257284000021
 20
8329.4597259999973
 30
0.0
 11
19539.257284000021
 21
6111.4596339999998
 31
0.0
  0
LINE
  5
2FFB
  8
0-1
  6
CONTINUOUS
 62
     3
 10
19669.258208000021
 20
6531.4605249999986
 30
0.0
 11
22762.760847000001
 21
6531.4605249999986
 31
0.0
  0
LINE
  5
2FFC
  8
0-1
  6
CONTINUOUS
 62
     3
 10
19669.258208000021
 20
6466.4600630000032
 30
0.0
 11
22762.760847000001
 21
6466.4600630000032
 31
0.0
  0
LINE
  5
2FFD
  8
0-1
  6
CONTINUOUS
 62
     3
 10
19669.258208000021
 20
6401.4600959999998
 30
0.0
 11
22762.760847000001
 21
6401.4600959999998
 31
0.0
  0
LINE
  5
2FFE
  8
0-1
  6
CONTINUOUS
 62
     3
 10
19669.258208000021
 20
6336.4596339999998
 30
0.0
 11
22762.760847000001
 21
6336.4596339999998
 31
0.0
  0
LINE
  5
2FFF
  8
0-1
  6
CONTINUOUS
 62
     3
 10
19669.258208000021
 20
6271.460162000003
 30
0.0
 11
22762.760847000001
 21
6271.460162000003
 31
0.0
  0
LINE
  5
3000
  8
0-1
  6
CONTINUOUS
 62
     3
 10
19669.258208000021
 20
6206.4601950000006
 30
0.0
 11
22762.760847000001
 21
6206.4601950000006
 31
0.0
  0
LINE
  5
3001
  8
0-1
  6
CONTINUOUS
 62
     3
 10
19669.258208000021
 20
6141.4602280000026
 30
0.0
 11
22762.760847000001
 21
6141.4602280000026
 31
0.0
  0
LINE
  5
3002
  8
0-1
  6
CONTINUOUS
 62
     3
 10
19669.258208000021
 20
6076.4597660000018
 30
0.0
 11
22762.760847000001
 21
6076.4597660000018
 31
0.0
  0
LINE
  5
3003
  8
0-1
  6
CONTINUOUS
 62
     3
 10
19669.258208000021
 20
7896.4598320000023
 30
0.0
 11
22762.760847000001
 21
7896.4598320000023
 31
0.0
  0
LINE
  5
3004
  8
0-1
  6
CONTINUOUS
 62
     3
 10
19669.258208000021
 20
7831.4598650000016
 30
0.0
 11
22762.760847000001
 21
7831.4598650000016
 31
0.0
  0
LINE
  5
3005
  8
0-1
  6
CONTINUOUS
 62
     3
 10
19669.258208000021
 20
7766.4603930000021
 30
0.0
 11
22762.760847000001
 21
7766.4603930000021
 31
0.0
  0
LINE
  5
3006
  8
0-1
  6
CONTINUOUS
 62
     3
 10
19669.258208000021
 20
7701.4604259999978
 30
0.0
 11
22762.760847000001
 21
7701.4604259999978
 31
0.0
  0
LINE
  5
3007
  8
0-1
  6
CONTINUOUS
 62
     3
 10
19669.258208000021
 20
7636.4604590000017
 30
0.0
 11
22762.760847000001
 21
7636.4604590000017
 31
0.0
  0
LINE
  5
3008
  8
0-1
  6
CONTINUOUS
 62
     3
 10
19669.258208000021
 20
7571.4599969999981
 30
0.0
 11
22762.760847000001
 21
7571.4599969999981
 31
0.0
  0
LINE
  5
3009
  8
0-1
  6
CONTINUOUS
 62
     3
 10
19669.258208000021
 20
7506.4600300000029
 30
0.0
 11
22762.760847000001
 21
7506.4600300000029
 31
0.0
  0
LINE
  5
300A
  8
0-1
  6
CONTINUOUS
 62
     3
 10
19669.258208000021
 20
7441.4605579999998
 30
0.0
 11
22762.760847000001
 21
7441.4605579999998
 31
0.0
  0
LINE
  5
300B
  8
0-1
  6
CONTINUOUS
 62
     3
 10
19669.258208000021
 20
7376.4605909999973
 30
0.0
 11
22762.760847000001
 21
7376.4605909999973
 31
0.0
  0
LINE
  5
300C
  8
0-1
  6
CONTINUOUS
 62
     3
 10
19669.258208000021
 20
7311.4601290000019
 30
0.0
 11
22762.760847000001
 21
7311.4601290000019
 31
0.0
  0
LINE
  5
300D
  8
0-1
  6
CONTINUOUS
 62
     3
 10
19669.258208000021
 20
7246.4601620000021
 30
0.0
 11
22762.760847000001
 21
7246.4601620000021
 31
0.0
  0
LINE
  5
300E
  8
0-1
  6
CONTINUOUS
 62
     3
 10
19669.258208000021
 20
7181.4601950000006
 30
0.0
 11
22762.760847000001
 21
7181.4601950000006
 31
0.0
  0
LINE
  5
300F
  8
0-1
  6
CONTINUOUS
 62
     3
 10
19669.258208000021
 20
7116.4597330000024
 30
0.0
 11
22762.760847000001
 21
7116.4597330000024
 31
0.0
  0
LINE
  5
3010
  8
0-1
  6
CONTINUOUS
 62
     3
 10
19669.258208000021
 20
7051.4597659999999
 30
0.0
 11
22762.760847000001
 21
7051.4597659999999
 31
0.0
  0
LINE
  5
3011
  8
0-1
  6
CONTINUOUS
 62
     3
 10
19669.258208000021
 20
6986.4602940000013
 30
0.0
 11
22762.760847000001
 21
6986.4602940000013
 31
0.0
  0
LINE
  5
3012
  8
0-1
  6
CONTINUOUS
 62
     3
 10
19669.258208000021
 20
6921.4603270000007
 30
0.0
 11
22762.760847000001
 21
6921.4603270000007
 31
0.0
  0
LINE
  5
3013
  8
0-1
  6
CONTINUOUS
 62
     3
 10
19669.258208000021
 20
6856.4603599999991
 30
0.0
 11
22762.760847000001
 21
6856.4603599999991
 31
0.0
  0
LINE
  5
3014
  8
0-1
  6
CONTINUOUS
 62
     3
 10
19669.258208000021
 20
6791.4598980000019
 30
0.0
 11
22762.760847000001
 21
6791.4598980000019
 31
0.0
  0
LINE
  5
3015
  8
0-1
  6
CONTINUOUS
 62
     3
 10
19669.258208000021
 20
6726.4599310000003
 30
0.0
 11
22762.760847000001
 21
6726.4599310000003
 31
0.0
  0
LINE
  5
3016
  8
0-1
  6
CONTINUOUS
 62
     3
 10
19669.258208000021
 20
6661.4604590000008
 30
0.0
 11
22762.760847000001
 21
6661.4604590000008
 31
0.0
  0
LINE
  5
3017
  8
0-1
  6
CONTINUOUS
 62
     3
 10
19669.258208000021
 20
6596.4604920000002
 30
0.0
 11
22762.760847000001
 21
6596.4604920000002
 31
0.0
  0
LINE
  5
3018
  8
0-1
  6
CONTINUOUS
 62
     3
 10
19669.258208000021
 20
7950.9198520000018
 30
0.0
 11
22762.760847000001
 21
7950.9198520000018
 31
0.0
  0
LINE
  5
3019
  8
0-1
  6
CONTINUOUS
 62
     3
 10
19531.756888
 20
6011.4597990000002
 30
0.0
 11
22900.25820800001
 21
6011.4597990000002
 31
0.0
  0
LINE
  5
301A
  8
0-1
  6
CONTINUOUS
 62
     3
 10
19650.258788000021
 20
8204.9603800000059
 30
0.0
 11
19927.688318000011
 21
8204.9603800000059
 31
0.0
  0
LINE
  5
301B
  8
0-1
  6
CONTINUOUS
 62
     3
 10
19650.258788000021
 20
8246.9598250000017
 30
0.0
 11
19959.685256000012
 21
8246.9598250000017
 31
0.0
  0
LINE
  5
301C
  8
0-1
  6
CONTINUOUS
 62
     3
 10
19645.258525000001
 20
8209.9601490000023
 30
0.0
 11
19645.258525000001
 21
8241.9605510000038
 31
0.0
  0
LINE
  5
301D
  8
0-1
  6
CONTINUOUS
 62
     3
 10
19624.25583200001
 20
8255.9597070000018
 30
0.0
 11
22807.759263
 21
8255.9597070000018
 31
0.0
  0
LINE
  5
301E
  8
0-1
  6
CONTINUOUS
 62
     3
 10
19931.221758000022
 20
8206.4242340000019
 30
0.0
 11
19963.222656000002
 21
8238.4246360000034
 31
0.0
  0
LINE
  5
301F
  8
0-1
  6
CONTINUOUS
 62
     3
 10
19645.258525000001
 20
8238.560233000002
 30
0.0
 11
19963.35132400001
 21
8238.560233000002
 31
0.0
  0
LINE
  5
3020
  8
0-1
  6
CONTINUOUS
 62
     3
 10
19645.258525000001
 20
8230.1601460000002
 30
0.0
 11
19954.958166000011
 21
8230.1601460000002
 31
0.0
  0
LINE
  5
3021
  8
0-1
  6
CONTINUOUS
 62
     3
 10
19645.258525000001
 20
8221.7605540000022
 30
0.0
 11
19946.55906800002
 21
8221.7605540000022
 31
0.0
  0
LINE
  5
3022
  8
0-1
  6
CONTINUOUS
 62
     3
 10
19645.258525000001
 20
8213.3604670000022
 30
0.0
 11
19938.156012000021
 21
8213.3604670000022
 31
0.0
  0
LINE
  5
3023
  8
0-1
  6
CONTINUOUS
 62
     3
 10
22786.758550999992
 20
8238.560233000002
 30
0.0
 11
22468.665751000011
 21
8238.560233000002
 31
0.0
  0
LINE
  5
3024
  8
0-1
  6
CONTINUOUS
 62
     3
 10
22786.758550999992
 20
8230.1601460000002
 30
0.0
 11
22477.060889000011
 21
8230.1601460000002
 31
0.0
  0
LINE
  5
3025
  8
0-1
  6
CONTINUOUS
 62
     3
 10
22786.758550999992
 20
8221.7605540000022
 30
0.0
 11
22485.459986000002
 21
8221.7605540000022
 31
0.0
  0
LINE
  5
3026
  8
0-1
  6
CONTINUOUS
 62
     3
 10
22786.758550999992
 20
8213.3604670000022
 30
0.0
 11
22493.859084
 21
8213.3604670000022
 31
0.0
  0
LINE
  5
3027
  8
0-1
  6
CONTINUOUS
 62
     3
 10
22781.758287000011
 20
8246.9598250000017
 30
0.0
 11
22472.331818999992
 21
8246.9598250000017
 31
0.0
  0
LINE
  5
3028
  8
0-1
  6
CONTINUOUS
 62
     3
 10
22781.758287000011
 20
8204.9603800000059
 30
0.0
 11
22504.328758
 21
8204.9603800000059
 31
0.0
  0
LINE
  5
3029
  8
0-1
  6
CONTINUOUS
 62
     3
 10
22786.758550999992
 20
8209.9601490000023
 30
0.0
 11
22786.758550999992
 21
8241.9605510000038
 31
0.0
  0
LINE
  5
302A
  8
0-1
  6
CONTINUOUS
 62
     3
 10
22500.793336999999
 20
8206.4242340000019
 30
0.0
 11
22468.79639900001
 21
8238.4246360000034
 31
0.0
  0
LINE
  5
302B
  8
0-2
  6
CONTINUOUS
 62
     4
 10
21579.699547
 20
6758.6864930000029
 30
0.0
 11
21479.700207000002
 21
6758.6864930000029
 31
0.0
  0
LINE
  5
302C
  8
0-2
  6
CONTINUOUS
 62
     4
 10
20852.315546999998
 20
6758.6864930000029
 30
0.0
 11
20952.314887
 21
6758.6864930000029
 31
0.0
  0
LINE
  5
302D
  8
0-5
  6
CONTINUOUS
 62
     4
 10
22850.259527000009
 20
4331.4601949999997
 30
0.0
 11
22850.259527000009
 21
4171.4606569999987
 31
0.0
  0
LINE
  5
302E
  8
0-5
  6
CONTINUOUS
 62
     4
 10
19581.759526999991
 20
4331.4601949999997
 30
0.0
 11
19581.759526999991
 21
4171.4606569999987
 31
0.0
  0
LINE
  5
302F
  8
2-0
  6
CENTER2
 62
     6
 10
22850.259527000009
 20
5748.8073760000016
 30
0.0
 11
22850.259527000009
 21
6785.9504030000016
 31
0.0
  0
LINE
  5
3030
  8
2-0
  6
CENTER2
 62
     6
 10
19581.759526999991
 20
5748.8073760000016
 30
0.0
 11
19581.759526999991
 21
6785.9504030000016
 31
0.0
  0
ARC
  5
3031
  8
0-1
  6
CONTINUOUS
 62
     3
 10
19650.258788000021
 20
8241.9605510000038
 30
0.0
 40
5.0
 50
90.0
 51
180.0
  0
ARC
  5
3032
  8
0-1
  6
CONTINUOUS
 62
     3
 10
19650.258788000021
 20
8209.9601490000023
 30
0.0
 40
5.0
 50
180.0
 51
269.9999850001808
  0
ARC
  5
3033
  8
0-1
  6
CONTINUOUS
 62
     3
 10
19927.688318000011
 20
8209.9601490000023
 30
0.0
 40
5.0
 50
269.9999850001808
 51
314.99998500026533
  0
ARC
  5
3034
  8
0-1
  6
CONTINUOUS
 62
     3
 10
19959.685256000012
 20
8241.9605510000038
 30
0.0
 40
5.0
 50
314.99998500026533
 51
90.0
  0
ARC
  5
3035
  8
0-1
  6
CONTINUOUS
 62
     3
 10
22781.758287000011
 20
8209.9601490000023
 30
0.0
 40
5.0
 50
269.9999850001808
 51
0.0
  0
ARC
  5
3036
  8
0-1
  6
CONTINUOUS
 62
     3
 10
22781.758287000011
 20
8241.9605510000038
 30
0.0
 40
5.0
 50
0.0
 51
90.0
  0
ARC
  5
3037
  8
0-1
  6
CONTINUOUS
 62
     3
 10
22472.331818999992
 20
8241.9605510000038
 30
0.0
 40
5.0
 50
90.0
 51
224.99998499998901
  0
ARC
  5
3038
  8
0-1
  6
CONTINUOUS
 62
     3
 10
22504.328758
 20
8209.9601490000023
 30
0.0
 40
5.0
 50
224.99998499998901
 51
269.9999850001808
  0
CIRCLE
  5
3039
  8
0-5
  6
CONTINUOUS
 62
     4
 10
22850.259527000009
 20
3971.4595020000011
 30
0.0
 40
199.9999949999999
  0
CIRCLE
  5
303A
  8
0-5
  6
CONTINUOUS
 62
     4
 10
19581.759526999991
 20
3971.4595020000011
 30
0.0
 40
199.9999949999999
  0
TEXT
  5
303B
  8
0-5
  6
CONTINUOUS
 62
     7
 10
22798.346652000011
 20
3881.9845200000018
 30
0.0
 40
160.0
  1
2
 72
     4
 11
22851.67998533334
 21
3961.9845200000009
 31
0.0
  0
TEXT
  5
303C
  8
0-5
  6
CONTINUOUS
 62
     7
 10
19529.846653000019
 20
3881.9845200000018
 30
0.0
 40
160.0
  1
1
 72
     4
 11
19556.51331966669
 21
3961.9845200000009
 31
0.0
  0
TEXT
  5
303D
  8
2-0
  6
CONTINUOUS
 62
     7
 10
19872.915037999999
 20
3163.073848999999
 30
0.0
 40
160.0
  1
正 面 立 面 図
 72
     4
 11
20518.248371333331
 21
3243.073848999999
 31
0.0
  0
CIRCLE
  5
303E
  8
0-4
  6
CONTINUOUS
 62
     4
 10
21216.009526999998
 20
6497.5162349999991
 30
0.0
 40
18.487504999999981
  0
TEXT
  5
303F
  8
2-0
  6
CONTINUOUS
 62
     7
 10
21869.740556470959
 20
3190.269217999999
 30
0.0
 40
160.0
  1
1
 72
     4
 11
21896.40722313763
 21
3270.269217999999
 31
0.0
  0
TEXT
  5
3040
  8
2-0
  6
CONTINUOUS
 62
     7
 10
22112.829273721662
 20
3110.2706859999989
 30
0.0
 40
160.0
  1
80
 72
     4
 11
22232.829273721662
 21
3190.2706859999989
 31
0.0
  0
TEXT
  5
3041
  8
2-0
  6
CONTINUOUS
 62
     7
 10
21370.74252247098
 20
3163.073848999999
 30
0.0
 40
160.0
  1
(S=  /   )
 72
     4
 11
21930.74252247098
 21
3243.073848999999
 31
0.0
  0
LINE
  5
3042
  8
SUNPOU
  6
CONTINUOUS
 10
19299.259526999991
 20
4811.4597990000038
 30
0.0
 11
18941.304520278911
 21
4811.4597990000038
 31
0.0
  0
LINE
  5
3043
  8
SUNPOU
  6
CONTINUOUS
 10
23132.759527000009
 20
4811.4597990000038
 30
0.0
 11
23490.714533721111
 21
4811.4597990000038
 31
0.0
  0
TEXT
  5
3044
  8
0-5
  6
CONTINUOUS
 62
     7
 10
18963.581608000011
 20
6740.8200457419989
 30
0.0
 40
160.0
  1
(2131.5)
 50
90.0
 72
     4
 11
18883.581608000011
 21
7194.1533790753319
 31
0.0
  0
LINE
  5
3045
  8
0-1
  6
CONTINUOUS
 62
     3
 10
9561.0118630000215
 20
6161.4597990000002
 30
0.0
 11
9561.0118630000215
 21
8022.5051830000029
 31
0.0
  0
LINE
  5
3046
  8
0-1
  6
CONTINUOUS
 62
     3
 10
9546.0110720000212
 20
6161.4597990000002
 30
0.0
 11
9546.0110720000212
 21
8022.5051830000029
 31
0.0
  0
LINE
  5
3047
  8
0-1
  6
CONTINUOUS
 62
     3
 10
14187.01416000001
 20
6161.4597990000002
 30
0.0
 11
14187.01416000001
 21
8022.5051830000029
 31
0.0
  0
LINE
  5
3048
  8
0-1
  6
CONTINUOUS
 62
     3
 10
14172.012379
 20
6161.4597990000002
 30
0.0
 11
14172.012379
 21
8022.5051830000029
 31
0.0
  0
LINE
  5
3049
  8
0-5
  6
CONTINUOUS
 62
     4
 10
14569.013870000021
 20
6111.4596339999998
 30
0.0
 11
16286.47381800002
 21
6111.4596339999998
 31
0.0
  0
LINE
  5
304A
  8
0-5
  6
CONTINUOUS
 62
     4
 10
16314.09997900001
 20
6319.3056209999977
 30
0.0
 11
16074.098198000011
 21
6319.3056209999977
 31
0.0
  0
LINE
  5
304B
  8
0-5
  6
CONTINUOUS
 62
     4
 10
16194.09760400001
 20
6111.4596339999998
 30
0.0
 11
16314.09997900001
 21
6319.3056209999977
 31
0.0
  0
LINE
  5
304C
  8
0-5
  6
CONTINUOUS
 62
     4
 10
16074.098198000011
 20
6319.3056209999977
 30
0.0
 11
16194.09760400001
 21
6111.4596339999998
 31
0.0
  0
TEXT
  5
304D
  8
0-0
  6
CONTINUOUS
 62
     7
 10
15735.006665000001
 20
6399.3058849999961
 30
0.0
 40
160.0
  1
布基礎天端
 72
     4
 11
16193.67333166667
 21
6479.3058849999961
 31
0.0
  0
TEXT
  5
304E
  8
2-0
  6
CONTINUOUS
 62
     7
 10
19980.717641000021
 20
11822.375701999999
 30
0.0
 40
160.0
  1
平　面　図
 72
     4
 11
20434.05097433335
 21
11897.042368666671
 31
0.0
  0
TEXT
  5
304F
  8
2-0
  6
CONTINUOUS
 62
     7
 10
21785.543159470981
 20
11844.237737666661
 30
0.0
 40
160.0
  1
1
 72
     4
 11
21812.209826137649
 21
11924.237737666661
 31
0.0
  0
TEXT
  5
3050
  8
2-0
  6
CONTINUOUS
 62
     7
 10
22028.631876721662
 20
11764.23920566667
 30
0.0
 40
160.0
  1
80
 72
     4
 11
22148.631876721662
 21
11844.23920566667
 31
0.0
  0
TEXT
  5
3051
  8
2-0
  6
CONTINUOUS
 62
     7
 10
21286.545125470981
 20
11817.042368666671
 30
0.0
 40
160.0
  1
(S=  /   )
 72
     4
 11
21846.545125470981
 21
11897.042368666671
 31
0.0
  0
LINE
  5
3052
  8
2-0
  6
CONTINUOUS
 62
     6
 10
21167.100611000002
 20
13413.25639
 30
0.0
 11
22167.094012999962
 21
13413.25639
 31
0.0
  0
LINE
  5
3053
  8
2-0
  6
CONTINUOUS
 62
     6
 10
22635.034390000001
 20
13883.677103999989
 30
0.0
 11
22167.094012999962
 21
13413.25639
 31
0.0
  0
LINE
  5
3054
  8
2-0
  6
CONTINUOUS
 62
     6
 10
22596.394187000002
 20
16724.78475100001
 30
0.0
 11
22291.698768999991
 21
16828.438282000021
 31
0.0
  0
LINE
  5
3055
  8
2-0
  6
CONTINUOUS
 62
     6
 10
22751.416225999968
 20
16235.16270700001
 30
0.0
 11
22291.698768999991
 21
15991.24939600001
 31
0.0
  0
LINE
  5
3056
  8
2-0
  6
CONTINUOUS
 62
     6
 10
21371.695734000001
 20
15991.24939600001
 30
0.0
 11
22291.698768999991
 21
15991.24939600001
 31
0.0
  0
LINE
  5
3057
  8
2-0
  6
CONTINUOUS
 62
     6
 10
21091.704707000001
 20
16828.438282000021
 30
0.0
 11
22291.698768999991
 21
16828.438282000021
 31
0.0
  0
LINE
  5
3058
  8
2-0
  6
CONTINUOUS
 62
     6
 10
22667.59351100001
 20
14205.36074999998
 30
0.0
 11
22291.698768999991
 21
14386.304585
 31
0.0
  0
LINE
  5
3059
  8
2-0
  6
CONTINUOUS
 62
     6
 10
21771.697053
 20
14386.304585
 30
0.0
 11
22291.698768999991
 21
14386.304585
 31
0.0
  0
LINE
  5
305A
  8
2-0
  6
CONTINUOUS
 62
     4
 10
19581.759526999991
 20
19310.758040000001
 30
0.0
 11
19581.759526999991
 21
20040.75500500001
 31
0.0
  0
LINE
  5
305B
  8
2-0
  6
CONTINUOUS
 62
     3
 10
22862.760187
 20
19121.755585999988
 30
0.0
 11
22862.760187
 21
19115.75962400002
 31
0.0
  0
LINE
  5
305C
  8
2-0
  6
CONTINUOUS
 62
     3
 10
22862.760187
 20
19115.75962400002
 30
0.0
 11
22892.75781100001
 21
19115.75962400002
 31
0.0
  0
LINE
  5
305D
  8
2-0
  6
CONTINUOUS
 62
     3
 10
22892.75781100001
 20
19145.759227999999
 30
0.0
 11
22811.755910999978
 21
19145.759227999999
 31
0.0
  0
LINE
  5
305E
  8
2-0
  6
CONTINUOUS
 62
     3
 10
22862.760187
 20
19105.462167999991
 30
0.0
 11
22892.75781100001
 21
19105.462167999991
 31
0.0
  0
LINE
  5
305F
  8
2-0
  6
CONTINUOUS
 62
     3
 10
22862.760187
 20
19123.463910000009
 30
0.0
 11
22862.760187
 21
19105.462167999991
 31
0.0
  0
LINE
  5
3060
  8
2-0
  6
CONTINUOUS
 62
     3
 10
22887.757547000001
 20
19123.463910000009
 30
0.0
 11
22862.760187
 21
19123.463910000009
 31
0.0
  0
LINE
  5
3061
  8
2-0
  6
CONTINUOUS
 62
     3
 10
22887.757547000001
 20
19118.455728000001
 30
0.0
 11
22887.757547000001
 21
19123.463910000009
 31
0.0
  0
LINE
  5
3062
  8
2-0
  6
CONTINUOUS
 62
     3
 10
22880.755990000001
 20
19118.455728000001
 30
0.0
 11
22887.757547000001
 21
19118.455728000001
 31
0.0
  0
LINE
  5
3063
  8
2-0
  6
CONTINUOUS
 62
     3
 10
22780.459722000011
 20
19218.755955000001
 30
0.0
 11
22780.459722000011
 21
19225.761471000009
 31
0.0
  0
LINE
  5
3064
  8
2-0
  6
CONTINUOUS
 62
     3
 10
22780.459722000011
 20
19225.761471000009
 30
0.0
 11
22785.459985999991
 21
19225.761471000009
 31
0.0
  0
LINE
  5
3065
  8
2-0
  6
CONTINUOUS
 62
     3
 10
22785.459985999991
 20
19225.761471000009
 30
0.0
 11
22785.459985999991
 21
19200.752234
 31
0.0
  0
LINE
  5
3066
  8
2-0
  6
CONTINUOUS
 62
     3
 10
22785.459985999991
 20
19200.752234
 30
0.0
 11
22767.458243999979
 21
19200.752234
 31
0.0
  0
LINE
  5
3067
  8
2-0
  6
CONTINUOUS
 62
     3
 10
22767.458243999979
 20
19200.752234
 30
0.0
 11
22767.458243999979
 21
19230.75579700002
 31
0.0
  0
LINE
  5
3068
  8
2-0
  6
CONTINUOUS
 62
     3
 10
22777.755700000002
 20
19230.75579700002
 30
0.0
 11
22892.75781100001
 21
19230.75579700002
 31
0.0
  0
LINE
  5
3069
  8
2-0
  6
CONTINUOUS
 62
     3
 10
22777.755700000002
 20
19200.752234
 30
0.0
 11
22777.755700000002
 21
19230.75579700002
 31
0.0
  0
LINE
  5
306A
  8
2-0
  6
CONTINUOUS
 62
     3
 10
22783.757600000001
 20
19200.752234
 30
0.0
 11
22777.755700000002
 21
19200.752234
 31
0.0
  0
LINE
  5
306B
  8
2-0
  6
CONTINUOUS
 62
     3
 10
22880.755990000001
 20
18765.158905499949
 30
0.0
 11
22887.757547000001
 21
18765.158905499949
 31
0.0
  0
LINE
  5
306C
  8
2-0
  6
CONTINUOUS
 62
     3
 10
22887.757547000001
 20
18765.158905499949
 30
0.0
 11
22887.757547000001
 21
18770.159169499992
 31
0.0
  0
LINE
  5
306D
  8
2-0
  6
CONTINUOUS
 62
     3
 10
22887.757547000001
 20
18770.159169499992
 30
0.0
 11
22862.760187
 21
18770.159169499992
 31
0.0
  0
LINE
  5
306E
  8
2-0
  6
CONTINUOUS
 62
     3
 10
22862.760187
 20
18770.159169499992
 30
0.0
 11
22862.760187
 21
18752.163365500001
 31
0.0
  0
LINE
  5
306F
  8
2-0
  6
CONTINUOUS
 62
     3
 10
22862.760187
 20
18752.163365500001
 30
0.0
 11
22892.75781100001
 21
18752.163365500001
 31
0.0
  0
LINE
  5
3070
  8
2-0
  6
CONTINUOUS
 62
     3
 10
22862.760187
 20
18768.25487249998
 30
0.0
 11
22862.760187
 21
18762.2569315
 31
0.0
  0
LINE
  5
3071
  8
2-0
  6
CONTINUOUS
 62
     3
 10
22862.760187
 20
18762.2569315
 30
0.0
 11
22892.75781100001
 21
18762.2569315
 31
0.0
  0
LINE
  5
3072
  8
2-0
  6
CONTINUOUS
 62
     3
 10
22892.75781100001
 20
18762.2569315
 30
0.0
 11
22892.75781100001
 21
18799.2580925
 31
0.0
  0
LINE
  5
3073
  8
2-0
  6
CONTINUOUS
 62
     3
 10
22862.760187
 20
18799.2580925
 30
0.0
 11
22892.75781100001
 21
18799.2580925
 31
0.0
  0
LINE
  5
3074
  8
2-0
  6
CONTINUOUS
 62
     3
 10
22862.760187
 20
18793.254212499989
 30
0.0
 11
22862.760187
 21
18799.2580925
 31
0.0
  0
LINE
  5
3075
  8
2-0
  6
CONTINUOUS
 62
     3
 10
22862.760187
 20
18809.353637499989
 30
0.0
 11
22892.75781100001
 21
18809.353637499989
 31
0.0
  0
LINE
  5
3076
  8
2-0
  6
CONTINUOUS
 62
     3
 10
22862.760187
 20
18791.3518955
 30
0.0
 11
22862.760187
 21
18809.353637499989
 31
0.0
  0
LINE
  5
3077
  8
2-0
  6
CONTINUOUS
 62
     3
 10
22887.757547000001
 20
18791.3518955
 30
0.0
 11
22862.760187
 21
18791.3518955
 31
0.0
  0
LINE
  5
3078
  8
2-0
  6
CONTINUOUS
 62
     3
 10
22887.757547000001
 20
18796.352159499991
 30
0.0
 11
22887.757547000001
 21
18791.3518955
 31
0.0
  0
LINE
  5
3079
  8
2-0
  6
CONTINUOUS
 62
     3
 10
22880.755990000001
 20
18796.352159499991
 30
0.0
 11
22887.757547000001
 21
18796.352159499991
 31
0.0
  0
LINE
  5
307A
  8
2-0
  6
CONTINUOUS
 62
     3
 10
22880.755990000001
 20
18064.157916
 30
0.0
 11
22887.757547000001
 21
18064.157916
 31
0.0
  0
LINE
  5
307B
  8
2-0
  6
CONTINUOUS
 62
     3
 10
22887.757547000001
 20
18064.157916
 30
0.0
 11
22887.757547000001
 21
18069.16411799999
 31
0.0
  0
LINE
  5
307C
  8
2-0
  6
CONTINUOUS
 62
     3
 10
22887.757547000001
 20
18069.16411799999
 30
0.0
 11
22862.760187
 21
18069.16411799999
 31
0.0
  0
LINE
  5
307D
  8
2-0
  6
CONTINUOUS
 62
     3
 10
22862.760187
 20
18069.16411799999
 30
0.0
 11
22862.760187
 21
18051.162376
 31
0.0
  0
LINE
  5
307E
  8
2-0
  6
CONTINUOUS
 62
     3
 10
22862.760187
 20
18051.162376
 30
0.0
 11
22892.75781100001
 21
18051.162376
 31
0.0
  0
LINE
  5
307F
  8
2-0
  6
CONTINUOUS
 62
     3
 10
22862.760187
 20
18067.25388299999
 30
0.0
 11
22862.760187
 21
18061.257920999989
 31
0.0
  0
LINE
  5
3080
  8
2-0
  6
CONTINUOUS
 62
     3
 10
22862.760187
 20
18061.257920999989
 30
0.0
 11
22892.75781100001
 21
18061.257920999989
 31
0.0
  0
LINE
  5
3081
  8
2-0
  6
CONTINUOUS
 62
     3
 10
22892.75781100001
 20
18061.257920999989
 30
0.0
 11
22892.75781100001
 21
18098.257103
 31
0.0
  0
LINE
  5
3082
  8
2-0
  6
CONTINUOUS
 62
     3
 10
22862.760187
 20
18098.257103
 30
0.0
 11
22892.75781100001
 21
18098.257103
 31
0.0
  0
LINE
  5
3083
  8
2-0
  6
CONTINUOUS
 62
     3
 10
22862.760187
 20
18092.26114100001
 30
0.0
 11
22862.760187
 21
18098.257103
 31
0.0
  0
LINE
  5
3084
  8
2-0
  6
CONTINUOUS
 62
     3
 10
22862.760187
 20
18108.352648
 30
0.0
 11
22892.75781100001
 21
18108.352648
 31
0.0
  0
LINE
  5
3085
  8
2-0
  6
CONTINUOUS
 62
     3
 10
22862.760187
 20
18090.350906
 30
0.0
 11
22862.760187
 21
18108.352648
 31
0.0
  0
LINE
  5
3086
  8
2-0
  6
CONTINUOUS
 62
     3
 10
22887.757547000001
 20
18090.350906
 30
0.0
 11
22862.760187
 21
18090.350906
 31
0.0
  0
LINE
  5
3087
  8
2-0
  6
CONTINUOUS
 62
     3
 10
22887.757547000001
 20
18095.357107999978
 30
0.0
 11
22887.757547000001
 21
18090.350906
 31
0.0
  0
LINE
  5
3088
  8
2-0
  6
CONTINUOUS
 62
     3
 10
22880.755990000001
 20
18095.357107999978
 30
0.0
 11
22887.757547000001
 21
18095.357107999978
 31
0.0
  0
LINE
  5
3089
  8
2-0
  6
CONTINUOUS
 62
     3
 10
22880.755990000001
 20
17394.351170000002
 30
0.0
 11
22887.757547000001
 21
17394.351170000002
 31
0.0
  0
LINE
  5
308A
  8
2-0
  6
CONTINUOUS
 62
     3
 10
22887.757547000001
 20
17394.351170000002
 30
0.0
 11
22887.757547000001
 21
17389.362783
 31
0.0
  0
LINE
  5
308B
  8
2-0
  6
CONTINUOUS
 62
     3
 10
22887.757547000001
 20
17389.362783
 30
0.0
 11
22862.760187
 21
17389.362783
 31
0.0
  0
LINE
  5
308C
  8
2-0
  6
CONTINUOUS
 62
     3
 10
22862.760187
 20
17389.362783
 30
0.0
 11
22862.760187
 21
17407.358585999991
 31
0.0
  0
LINE
  5
308D
  8
2-0
  6
CONTINUOUS
 62
     3
 10
22862.760187
 20
17407.358585999991
 30
0.0
 11
22892.75781100001
 21
17407.358585999991
 31
0.0
  0
LINE
  5
308E
  8
2-0
  6
CONTINUOUS
 62
     3
 10
22862.760187
 20
17391.261140999999
 30
0.0
 11
22862.760187
 21
17397.257102999989
 31
0.0
  0
LINE
  5
308F
  8
2-0
  6
CONTINUOUS
 62
     3
 10
22862.760187
 20
17397.257102999989
 30
0.0
 11
22892.75781100001
 21
17397.257102999989
 31
0.0
  0
LINE
  5
3090
  8
2-0
  6
CONTINUOUS
 62
     3
 10
22892.75781100001
 20
17397.257102999989
 30
0.0
 11
22892.75781100001
 21
17360.257921
 31
0.0
  0
LINE
  5
3091
  8
2-0
  6
CONTINUOUS
 62
     3
 10
22862.760187
 20
17360.257921
 30
0.0
 11
22892.75781100001
 21
17360.257921
 31
0.0
  0
LINE
  5
3092
  8
2-0
  6
CONTINUOUS
 62
     3
 10
22862.760187
 20
17366.259821999982
 30
0.0
 11
22862.760187
 21
17360.257921
 31
0.0
  0
LINE
  5
3093
  8
2-0
  6
CONTINUOUS
 62
     3
 10
22862.760187
 20
17350.168314999999
 30
0.0
 11
22892.75781100001
 21
17350.168314999999
 31
0.0
  0
LINE
  5
3094
  8
2-0
  6
CONTINUOUS
 62
     3
 10
22862.760187
 20
17368.164118000001
 30
0.0
 11
22862.760187
 21
17350.168314999999
 31
0.0
  0
LINE
  5
3095
  8
2-0
  6
CONTINUOUS
 62
     3
 10
22887.757547000001
 20
17368.164118000001
 30
0.0
 11
22862.760187
 21
17368.164118000001
 31
0.0
  0
LINE
  5
3096
  8
2-0
  6
CONTINUOUS
 62
     3
 10
22887.757547000001
 20
17363.16385500001
 30
0.0
 11
22887.757547000001
 21
17368.164118000001
 31
0.0
  0
LINE
  5
3097
  8
2-0
  6
CONTINUOUS
 62
     3
 10
22880.755990000001
 20
17363.16385500001
 30
0.0
 11
22887.757547000001
 21
17363.16385500001
 31
0.0
  0
LINE
  5
3098
  8
2-0
  6
CONTINUOUS
 62
     3
 10
22889.871673000009
 20
16643.25474099999
 30
0.0
 11
22889.871673000009
 21
16663.255796000001
 31
0.0
  0
LINE
  5
3099
  8
2-0
  6
CONTINUOUS
 62
     3
 10
22889.871673000009
 20
16663.255796000001
 30
0.0
 11
22804.875103999992
 21
16663.255796000001
 31
0.0
  0
LINE
  5
309A
  8
2-0
  6
CONTINUOUS
 62
     3
 10
22880.755990000001
 20
16689.862506000001
 30
0.0
 11
22887.757547000001
 21
16689.862506000001
 31
0.0
  0
LINE
  5
309B
  8
2-0
  6
CONTINUOUS
 62
     3
 10
22887.757547000001
 20
16689.862506000001
 30
0.0
 11
22887.757547000001
 21
16684.868180000001
 31
0.0
  0
LINE
  5
309C
  8
2-0
  6
CONTINUOUS
 62
     3
 10
22887.757547000001
 20
16684.868180000001
 30
0.0
 11
22862.760187
 21
16684.868180000001
 31
0.0
  0
LINE
  5
309D
  8
2-0
  6
CONTINUOUS
 62
     3
 10
22862.760187
 20
16684.868180000001
 30
0.0
 11
22862.760187
 21
16702.863984
 31
0.0
  0
LINE
  5
309E
  8
2-0
  6
CONTINUOUS
 62
     3
 10
22862.760187
 20
16702.863984
 30
0.0
 11
22892.75781100001
 21
16702.863984
 31
0.0
  0
LINE
  5
309F
  8
2-0
  6
CONTINUOUS
 62
     3
 10
22862.760187
 20
16693.255399999991
 30
0.0
 11
22862.760187
 21
16687.253499999992
 31
0.0
  0
LINE
  5
30A0
  8
2-0
  6
CONTINUOUS
 62
     3
 10
22892.75781100001
 20
16693.255399999991
 30
0.0
 11
22862.760187
 21
16693.255399999991
 31
0.0
  0
LINE
  5
30A1
  8
2-0
  6
CONTINUOUS
 62
     3
 10
22892.75781100001
 20
16702.863984
 30
0.0
 11
22892.75781100001
 21
17350.168314999999
 31
0.0
  0
LINE
  5
30A2
  8
2-0
  6
CONTINUOUS
 62
     3
 10
22892.75781100001
 20
17407.358585999991
 30
0.0
 11
22892.75781100001
 21
18051.162376
 31
0.0
  0
LINE
  5
30A3
  8
2-0
  6
CONTINUOUS
 62
     3
 10
22892.75781100001
 20
16548.253685
 30
0.0
 11
22862.760187
 21
16548.253685
 31
0.0
  0
LINE
  5
30A4
  8
2-0
  6
CONTINUOUS
 62
     3
 10
22862.760187
 20
16548.253685
 30
0.0
 11
22862.760187
 21
16554.255584999992
 31
0.0
  0
LINE
  5
30A5
  8
2-0
  6
CONTINUOUS
 62
     3
 10
22804.875103999992
 20
16578.259227999999
 30
0.0
 11
22889.871673000009
 21
16578.259227999999
 31
0.0
  0
LINE
  5
30A6
  8
2-0
  6
CONTINUOUS
 62
     3
 10
22889.871673000009
 20
16578.259227999999
 30
0.0
 11
22889.871673000009
 21
16598.254345000001
 31
0.0
  0
LINE
  5
30A7
  8
2-0
  6
CONTINUOUS
 62
     3
 10
22862.760187
 20
16538.64510200001
 30
0.0
 11
22892.75781100001
 21
16538.64510200001
 31
0.0
  0
LINE
  5
30A8
  8
2-0
  6
CONTINUOUS
 62
     3
 10
22862.760187
 20
16556.640904999989
 30
0.0
 11
22862.760187
 21
16538.64510200001
 31
0.0
  0
LINE
  5
30A9
  8
2-0
  6
CONTINUOUS
 62
     3
 10
22887.757547000001
 20
16556.640904999989
 30
0.0
 11
22862.760187
 21
16556.640904999989
 31
0.0
  0
LINE
  5
30AA
  8
2-0
  6
CONTINUOUS
 62
     3
 10
22887.757547000001
 20
16551.640641000002
 30
0.0
 11
22887.757547000001
 21
16556.640904999989
 31
0.0
  0
LINE
  5
30AB
  8
2-0
  6
CONTINUOUS
 62
     3
 10
22880.755990000001
 20
16551.640641000002
 30
0.0
 11
22887.757547000001
 21
16551.640641000002
 31
0.0
  0
LINE
  5
30AC
  8
2-0
  6
CONTINUOUS
 62
     3
 10
22880.755990000001
 20
15847.15841049998
 30
0.0
 11
22887.757547000001
 21
15847.15841049998
 31
0.0
  0
LINE
  5
30AD
  8
2-0
  6
CONTINUOUS
 62
     3
 10
22887.757547000001
 20
15847.15841049998
 30
0.0
 11
22887.757547000001
 21
15852.15867449998
 31
0.0
  0
LINE
  5
30AE
  8
2-0
  6
CONTINUOUS
 62
     3
 10
22887.757547000001
 20
15852.15867449998
 30
0.0
 11
22862.760187
 21
15852.15867449998
 31
0.0
  0
LINE
  5
30AF
  8
2-0
  6
CONTINUOUS
 62
     3
 10
22862.760187
 20
15852.15867449998
 30
0.0
 11
22862.760187
 21
15834.156932499989
 31
0.0
  0
LINE
  5
30B0
  8
2-0
  6
CONTINUOUS
 62
     3
 10
22862.760187
 20
15834.156932499989
 30
0.0
 11
22892.75781100001
 21
15834.156932499989
 31
0.0
  0
LINE
  5
30B1
  8
2-0
  6
CONTINUOUS
 62
     3
 10
22862.760187
 20
15850.25437749999
 30
0.0
 11
22862.760187
 21
15844.257426499989
 31
0.0
  0
LINE
  5
30B2
  8
2-0
  6
CONTINUOUS
 62
     3
 10
22862.760187
 20
15844.257426499989
 30
0.0
 11
22892.75781100001
 21
15844.257426499989
 31
0.0
  0
LINE
  5
30B3
  8
2-0
  6
CONTINUOUS
 62
     3
 10
22892.75781100001
 20
15844.257426499989
 30
0.0
 11
22892.75781100001
 21
15881.2575975
 31
0.0
  0
LINE
  5
30B4
  8
2-0
  6
CONTINUOUS
 62
     3
 10
22862.760187
 20
15881.2575975
 30
0.0
 11
22892.75781100001
 21
15881.2575975
 31
0.0
  0
LINE
  5
30B5
  8
2-0
  6
CONTINUOUS
 62
     3
 10
22862.760187
 20
15875.254707499989
 30
0.0
 11
22862.760187
 21
15881.2575975
 31
0.0
  0
LINE
  5
30B6
  8
2-0
  6
CONTINUOUS
 62
     3
 10
22862.760187
 20
15891.3531425
 30
0.0
 11
22892.75781100001
 21
15891.3531425
 31
0.0
  0
LINE
  5
30B7
  8
2-0
  6
CONTINUOUS
 62
     3
 10
22862.760187
 20
15873.34546149999
 30
0.0
 11
22862.760187
 21
15891.3531425
 31
0.0
  0
LINE
  5
30B8
  8
2-0
  6
CONTINUOUS
 62
     3
 10
22887.757547000001
 20
15873.34546149999
 30
0.0
 11
22862.760187
 21
15873.34546149999
 31
0.0
  0
LINE
  5
30B9
  8
2-0
  6
CONTINUOUS
 62
     3
 10
22887.757547000001
 20
15878.3516645
 30
0.0
 11
22887.757547000001
 21
15873.34546149999
 31
0.0
  0
LINE
  5
30BA
  8
2-0
  6
CONTINUOUS
 62
     3
 10
22880.755990000001
 20
15878.3516645
 30
0.0
 11
22887.757547000001
 21
15878.3516645
 31
0.0
  0
LINE
  5
30BB
  8
2-0
  6
CONTINUOUS
 62
     3
 10
22880.755990000001
 20
15177.591681000011
 30
0.0
 11
22887.757547000001
 21
15177.591681000011
 31
0.0
  0
LINE
  5
30BC
  8
2-0
  6
CONTINUOUS
 62
     3
 10
22887.757547000001
 20
15177.591681000011
 30
0.0
 11
22887.757547000001
 21
15172.597356
 31
0.0
  0
LINE
  5
30BD
  8
2-0
  6
CONTINUOUS
 62
     3
 10
22887.757547000001
 20
15172.597356
 30
0.0
 11
22862.760187
 21
15172.597356
 31
0.0
  0
LINE
  5
30BE
  8
2-0
  6
CONTINUOUS
 62
     3
 10
22862.760187
 20
15172.597356
 30
0.0
 11
22862.760187
 21
15190.593159
 31
0.0
  0
LINE
  5
30BF
  8
2-0
  6
CONTINUOUS
 62
     3
 10
22862.760187
 20
15190.593159
 30
0.0
 11
22892.75781100001
 21
15190.593159
 31
0.0
  0
LINE
  5
30C0
  8
2-0
  6
CONTINUOUS
 62
     3
 10
22862.760187
 20
15174.49571400001
 30
0.0
 11
22862.760187
 21
15180.497614000011
 31
0.0
  0
LINE
  5
30C1
  8
2-0
  6
CONTINUOUS
 62
     3
 10
22862.760187
 20
15180.497614000011
 30
0.0
 11
22892.75781100001
 21
15180.497614000011
 31
0.0
  0
LINE
  5
30C2
  8
2-0
  6
CONTINUOUS
 62
     3
 10
22892.75781100001
 20
15143.49843300001
 30
0.0
 11
22892.75781100001
 21
15180.497614000011
 31
0.0
  0
LINE
  5
30C3
  8
2-0
  6
CONTINUOUS
 62
     3
 10
22862.760187
 20
15143.49843300001
 30
0.0
 11
22892.75781100001
 21
15143.49843300001
 31
0.0
  0
LINE
  5
30C4
  8
2-0
  6
CONTINUOUS
 62
     3
 10
22862.760187
 20
15149.495383999991
 30
0.0
 11
22862.760187
 21
15143.49843300001
 31
0.0
  0
LINE
  5
30C5
  8
2-0
  6
CONTINUOUS
 62
     3
 10
22862.760187
 20
15133.396949000011
 30
0.0
 11
22892.75781100001
 21
15133.396949000011
 31
0.0
  0
LINE
  5
30C6
  8
2-0
  6
CONTINUOUS
 62
     3
 10
22862.760187
 20
15151.404630000001
 30
0.0
 11
22862.760187
 21
15133.396949000011
 31
0.0
  0
LINE
  5
30C7
  8
2-0
  6
CONTINUOUS
 62
     3
 10
22887.757547000001
 20
15151.404630000001
 30
0.0
 11
22862.760187
 21
15151.404630000001
 31
0.0
  0
LINE
  5
30C8
  8
2-0
  6
CONTINUOUS
 62
     3
 10
22887.757547000001
 20
15146.40436600001
 30
0.0
 11
22887.757547000001
 21
15151.404630000001
 31
0.0
  0
LINE
  5
30C9
  8
2-0
  6
CONTINUOUS
 62
     3
 10
22880.755990000001
 20
15146.40436600001
 30
0.0
 11
22887.757547000001
 21
15146.40436600001
 31
0.0
  0
LINE
  5
30CA
  8
2-0
  6
CONTINUOUS
 62
     3
 10
22892.75781100001
 20
16538.64510200001
 30
0.0
 11
22892.75781100001
 21
15891.3531425
 31
0.0
  0
LINE
  5
30CB
  8
2-0
  6
CONTINUOUS
 62
     3
 10
22892.75781100001
 20
16693.255399999991
 30
0.0
 11
22892.75781100001
 21
16548.253685
 31
0.0
  0
LINE
  5
30CC
  8
2-0
  6
CONTINUOUS
 62
     3
 10
22804.875103999992
 20
16663.255796000001
 30
0.0
 11
22804.875103999992
 21
16578.259227999999
 31
0.0
  0
LINE
  5
30CD
  8
2-0
  6
CONTINUOUS
 62
     6
 10
21266.666437
 20
18431.703061499989
 30
0.0
 11
22291.698768999991
 21
18431.703061499989
 31
0.0
  0
LINE
  5
30CE
  8
2-0
  6
CONTINUOUS
 62
     3
 10
22880.755990000001
 20
14445.163359
 30
0.0
 11
22887.757547000001
 21
14445.163359
 31
0.0
  0
LINE
  5
30CF
  8
2-0
  6
CONTINUOUS
 62
     3
 10
22887.757547000001
 20
14445.163359
 30
0.0
 11
22887.757547000001
 21
14450.157685
 31
0.0
  0
LINE
  5
30D0
  8
2-0
  6
CONTINUOUS
 62
     3
 10
22887.757547000001
 20
14450.157685
 30
0.0
 11
22862.760187
 21
14450.157685
 31
0.0
  0
LINE
  5
30D1
  8
2-0
  6
CONTINUOUS
 62
     3
 10
22862.760187
 20
14450.157685
 30
0.0
 11
22862.760187
 21
14432.161881
 31
0.0
  0
LINE
  5
30D2
  8
2-0
  6
CONTINUOUS
 62
     3
 10
22862.760187
 20
14432.161881
 30
0.0
 11
22892.75781100001
 21
14432.161881
 31
0.0
  0
LINE
  5
30D3
  8
2-0
  6
CONTINUOUS
 62
     3
 10
22862.760187
 20
14448.260316000011
 30
0.0
 11
22862.760187
 21
14442.257426
 31
0.0
  0
LINE
  5
30D4
  8
2-0
  6
CONTINUOUS
 62
     3
 10
22862.760187
 20
14442.257426
 30
0.0
 11
22892.75781100001
 21
14442.257426
 31
0.0
  0
LINE
  5
30D5
  8
2-0
  6
CONTINUOUS
 62
     3
 10
22892.75781100001
 20
14442.257426
 30
0.0
 11
22892.75781100001
 21
14479.25759799998
 31
0.0
  0
LINE
  5
30D6
  8
2-0
  6
CONTINUOUS
 62
     3
 10
22862.760187
 20
14479.25759799998
 30
0.0
 11
22892.75781100001
 21
14479.25759799998
 31
0.0
  0
LINE
  5
30D7
  8
2-0
  6
CONTINUOUS
 62
     3
 10
22862.760187
 20
14473.26064599999
 30
0.0
 11
22862.760187
 21
14479.25759799998
 31
0.0
  0
LINE
  5
30D8
  8
2-0
  6
CONTINUOUS
 62
     3
 10
22862.760187
 20
14489.358091
 30
0.0
 11
22892.75781100001
 21
14489.358091
 31
0.0
  0
LINE
  5
30D9
  8
2-0
  6
CONTINUOUS
 62
     3
 10
22862.760187
 20
14471.35140000001
 30
0.0
 11
22862.760187
 21
14489.358091
 31
0.0
  0
LINE
  5
30DA
  8
2-0
  6
CONTINUOUS
 62
     3
 10
22887.757547000001
 20
14471.35140000001
 30
0.0
 11
22862.760187
 21
14471.35140000001
 31
0.0
  0
LINE
  5
30DB
  8
2-0
  6
CONTINUOUS
 62
     3
 10
22887.757547000001
 20
14476.356613000011
 30
0.0
 11
22887.757547000001
 21
14471.35140000001
 31
0.0
  0
LINE
  5
30DC
  8
2-0
  6
CONTINUOUS
 62
     3
 10
22880.755990000001
 20
14476.356613000011
 30
0.0
 11
22887.757547000001
 21
14476.356613000011
 31
0.0
  0
LINE
  5
30DD
  8
2-0
  6
CONTINUOUS
 62
     3
 10
22862.760187
 20
14119.75943899999
 30
0.0
 11
22862.760187
 21
14125.764308
 31
0.0
  0
LINE
  5
30DE
  8
2-0
  6
CONTINUOUS
 62
     3
 10
22862.760187
 20
14125.764308
 30
0.0
 11
22892.75781100001
 21
14125.764308
 31
0.0
  0
LINE
  5
30DF
  8
2-0
  6
CONTINUOUS
 62
     3
 10
22892.75781100001
 20
14125.764308
 30
0.0
 11
22892.75781100001
 21
14010.76021699999
 31
0.0
  0
LINE
  5
30E0
  8
2-0
  6
CONTINUOUS
 62
     3
 10
22892.75781100001
 20
14010.76021699999
 30
0.0
 11
22807.759263000011
 21
14010.76021699999
 31
0.0
  0
LINE
  5
30E1
  8
2-0
  6
CONTINUOUS
 62
     3
 10
22807.759263000011
 20
14010.76021699999
 30
0.0
 11
22807.759263000011
 21
14095.755795999999
 31
0.0
  0
LINE
  5
30E2
  8
2-0
  6
CONTINUOUS
 62
     3
 10
22807.759263000011
 20
14095.755795999999
 30
0.0
 11
22839.758181000001
 21
14095.755795999999
 31
0.0
  0
LINE
  5
30E3
  8
2-0
  6
CONTINUOUS
 62
     3
 10
22880.755990000001
 20
14122.79404099999
 30
0.0
 11
22887.757547000001
 21
14122.79404099999
 31
0.0
  0
LINE
  5
30E4
  8
2-0
  6
CONTINUOUS
 62
     3
 10
22887.757547000001
 20
14122.79404099999
 30
0.0
 11
22887.757547000001
 21
14117.79674599998
 31
0.0
  0
LINE
  5
30E5
  8
2-0
  6
CONTINUOUS
 62
     3
 10
22887.757547000001
 20
14117.79674599998
 30
0.0
 11
22862.760187
 21
14117.79674599998
 31
0.0
  0
LINE
  5
30E6
  8
2-0
  6
CONTINUOUS
 62
     3
 10
22862.760187
 20
14117.79674599998
 30
0.0
 11
22862.760187
 21
14135.795518999999
 31
0.0
  0
LINE
  5
30E7
  8
2-0
  6
CONTINUOUS
 62
     3
 10
22862.760187
 20
14135.795518999999
 30
0.0
 11
22892.75781100001
 21
14135.795518999999
 31
0.0
  0
LINE
  5
30E8
  8
2-0
  6
CENTER2
 62
     6
 10
22850.259527000009
 20
13813.262658999991
 30
0.0
 11
22850.259527000009
 21
14618.63141700001
 31
0.0
  0
LINE
  5
30E9
  8
2-0
  6
CONTINUOUS
 62
     3
 10
22892.75781100001
 20
18108.352648
 30
0.0
 11
22892.75781100001
 21
18752.163365500001
 31
0.0
  0
LINE
  5
30EA
  8
2-0
  6
CONTINUOUS
 62
     6
 10
23585.26269399999
 20
19960.75870000002
 30
0.0
 11
24785.256755999981
 21
19960.75870000002
 31
0.0
  0
LINE
  5
30EB
  8
2-0
  6
CONTINUOUS
 62
     6
 10
22723.229860999982
 20
18673.857569499989
 30
0.0
 11
22291.698768999991
 21
18431.703061499989
 31
0.0
  0
LINE
  5
30EC
  8
2-0
  6
CONTINUOUS
 62
     6
 10
23044.798694999961
 20
19373.435537000001
 30
0.0
 11
23585.26269399999
 21
19960.75870000002
 31
0.0
  0
LINE
  5
30ED
  8
2-0
  6
CONTINUOUS
 62
     3
 10
22892.75781100001
 20
15834.156932499989
 30
0.0
 11
22892.75781100001
 21
15190.593159
 31
0.0
  0
LINE
  5
30EE
  8
2-0
  6
CONTINUOUS
 62
     6
 10
22710.172955999999
 20
18697.116913499991
 30
0.0
 11
22862.760187
 21
18752.163365500001
 31
0.0
  0
LINE
  5
30EF
  8
2-0
  6
CONTINUOUS
 62
     6
 10
22862.760187
 20
18752.163365500001
 30
0.0
 11
22736.278847000001
 21
18650.60416549995
 31
0.0
  0
LINE
  5
30F0
  8
2-0
  6
CONTINUOUS
 62
     6
 10
22710.172955999999
 20
18697.116913499991
 30
0.0
 11
22736.278847000001
 21
18650.60416549995
 31
0.0
  0
LINE
  5
30F1
  8
2-0
  6
CONTINUOUS
 62
     6
 10
22736.278847000001
 20
18650.60416549995
 30
0.0
 11
22862.760187
 21
18752.163365500001
 31
0.0
  0
LINE
  5
30F2
  8
2-0
  6
CONTINUOUS
 62
     6
 10
22862.760187
 20
18752.163365500001
 30
0.0
 11
22710.172955999999
 21
18697.116913499991
 31
0.0
  0
LINE
  5
30F3
  8
2-0
  6
CONTINUOUS
 62
     6
 10
22710.172955999999
 20
18697.116913499991
 30
0.0
 11
22862.760187
 21
18752.163365500001
 31
0.0
  0
LINE
  5
30F4
  8
2-0
  6
CONTINUOUS
 62
     6
 10
22736.278847000001
 20
18650.60416549995
 30
0.0
 11
22862.760187
 21
18752.163365500001
 31
0.0
  0
LINE
  5
30F5
  8
2-0
  6
CONTINUOUS
 62
     6
 10
22736.278847000001
 20
18650.60416549995
 30
0.0
 11
22710.172955999999
 21
18697.116913499991
 31
0.0
  0
LINE
  5
30F6
  8
2-0
  6
CONTINUOUS
 62
     6
 10
23064.415723999991
 20
19355.374410000011
 30
0.0
 11
22936.45370400001
 21
19255.691792000009
 31
0.0
  0
LINE
  5
30F7
  8
2-0
  6
CONTINUOUS
 62
     6
 10
22936.45370400001
 20
19255.691792000009
 30
0.0
 11
23025.167808999999
 21
19391.488747000021
 31
0.0
  0
LINE
  5
30F8
  8
2-0
  6
CONTINUOUS
 62
     6
 10
23064.415723999991
 20
19355.374410000011
 30
0.0
 11
23025.167808999999
 21
19391.488747000021
 31
0.0
  0
LINE
  5
30F9
  8
2-0
  6
CONTINUOUS
 62
     6
 10
23025.167808999999
 20
19391.488747000021
 30
0.0
 11
22936.45370400001
 21
19255.691792000009
 31
0.0
  0
LINE
  5
30FA
  8
2-0
  6
CONTINUOUS
 62
     6
 10
22936.45370400001
 20
19255.691792000009
 30
0.0
 11
23064.415723999991
 21
19355.374410000011
 31
0.0
  0
LINE
  5
30FB
  8
2-0
  6
CONTINUOUS
 62
     6
 10
23064.415723999991
 20
19355.374410000011
 30
0.0
 11
22936.45370400001
 21
19255.691792000009
 31
0.0
  0
LINE
  5
30FC
  8
2-0
  6
CONTINUOUS
 62
     6
 10
23025.167808999999
 20
19391.488747000021
 30
0.0
 11
22936.45370400001
 21
19255.691792000009
 31
0.0
  0
LINE
  5
30FD
  8
2-0
  6
CONTINUOUS
 62
     6
 10
23025.167808999999
 20
19391.488747000021
 30
0.0
 11
23064.415723999991
 21
19355.374410000011
 31
0.0
  0
LINE
  5
30FE
  8
2-0
  6
CONTINUOUS
 62
     4
 10
19581.759526999991
 20
19310.758040000001
 30
0.0
 11
19581.759526999991
 21
20040.75500500001
 31
0.0
  0
LINE
  5
30FF
  8
2-0
  6
CONTINUOUS
 62
     6
 10
22616.120090000011
 20
13902.48747899999
 30
0.0
 11
22747.86694900001
 21
13997.114406000001
 31
0.0
  0
LINE
  5
3100
  8
2-0
  6
CONTINUOUS
 62
     6
 10
22747.86694900001
 20
13997.114406000001
 30
0.0
 11
22653.936812999989
 21
13864.87563599999
 31
0.0
  0
LINE
  5
3101
  8
2-0
  6
CONTINUOUS
 62
     6
 10
22616.120090000011
 20
13902.48747899999
 30
0.0
 11
22653.936812999989
 21
13864.87563599999
 31
0.0
  0
LINE
  5
3102
  8
2-0
  6
CONTINUOUS
 62
     6
 10
22653.936812999989
 20
13864.87563599999
 30
0.0
 11
22747.86694900001
 21
13997.114406000001
 31
0.0
  0
LINE
  5
3103
  8
2-0
  6
CONTINUOUS
 62
     6
 10
22747.86694900001
 20
13997.114406000001
 30
0.0
 11
22616.120090000011
 21
13902.48747899999
 31
0.0
  0
LINE
  5
3104
  8
2-0
  6
CONTINUOUS
 62
     6
 10
22616.120090000011
 20
13902.48747899999
 30
0.0
 11
22747.86694900001
 21
13997.114406000001
 31
0.0
  0
LINE
  5
3105
  8
2-0
  6
CONTINUOUS
 62
     6
 10
22653.936812999989
 20
13864.87563599999
 30
0.0
 11
22747.86694900001
 21
13997.114406000001
 31
0.0
  0
LINE
  5
3106
  8
2-0
  6
CONTINUOUS
 62
     6
 10
22653.936812999989
 20
13864.87563599999
 30
0.0
 11
22616.120090000011
 21
13902.48747899999
 31
0.0
  0
LINE
  5
3107
  8
2-0
  6
CONTINUOUS
 62
     6
 10
22679.155879000009
 20
14229.39210599999
 30
0.0
 11
22811.755910999978
 21
14135.96377799999
 31
0.0
  0
LINE
  5
3108
  8
2-0
  6
CONTINUOUS
 62
     6
 10
22811.755910999978
 20
14135.96377799999
 30
0.0
 11
22656.023225000001
 21
14181.339292000001
 31
0.0
  0
LINE
  5
3109
  8
2-0
  6
CONTINUOUS
 62
     6
 10
22679.155879000009
 20
14229.39210599999
 30
0.0
 11
22656.023225000001
 21
14181.339292000001
 31
0.0
  0
LINE
  5
310A
  8
2-0
  6
CONTINUOUS
 62
     6
 10
22656.023225000001
 20
14181.339292000001
 30
0.0
 11
22811.755910999978
 21
14135.96377799999
 31
0.0
  0
LINE
  5
310B
  8
2-0
  6
CONTINUOUS
 62
     6
 10
22811.755910999978
 20
14135.96377799999
 30
0.0
 11
22679.155879000009
 21
14229.39210599999
 31
0.0
  0
LINE
  5
310C
  8
2-0
  6
CONTINUOUS
 62
     6
 10
22679.155879000009
 20
14229.39210599999
 30
0.0
 11
22811.755910999978
 21
14135.96377799999
 31
0.0
  0
LINE
  5
310D
  8
2-0
  6
CONTINUOUS
 62
     6
 10
22656.023225000001
 20
14181.339292000001
 30
0.0
 11
22811.755910999978
 21
14135.96377799999
 31
0.0
  0
LINE
  5
310E
  8
2-0
  6
CONTINUOUS
 62
     6
 10
22656.023225000001
 20
14181.339292000001
 30
0.0
 11
22679.155879000009
 21
14229.39210599999
 31
0.0
  0
LINE
  5
310F
  8
2-0
  6
CONTINUOUS
 62
     6
 10
22738.919525000001
 20
16258.71303900002
 30
0.0
 11
22892.75781100001
 21
16310.14687000002
 31
0.0
  0
LINE
  5
3110
  8
2-0
  6
CONTINUOUS
 62
     6
 10
22892.75781100001
 20
16310.14687000002
 30
0.0
 11
22763.922823999979
 21
16211.60643500002
 31
0.0
  0
LINE
  5
3111
  8
2-0
  6
CONTINUOUS
 62
     6
 10
22738.919525000001
 20
16258.71303900002
 30
0.0
 11
22763.922823999979
 21
16211.60643500002
 31
0.0
  0
LINE
  5
3112
  8
2-0
  6
CONTINUOUS
 62
     6
 10
22763.922823999979
 20
16211.60643500002
 30
0.0
 11
22892.75781100001
 21
16310.14687000002
 31
0.0
  0
LINE
  5
3113
  8
2-0
  6
CONTINUOUS
 62
     6
 10
22892.75781100001
 20
16310.14687000002
 30
0.0
 11
22738.919525000001
 21
16258.71303900002
 31
0.0
  0
LINE
  5
3114
  8
2-0
  6
CONTINUOUS
 62
     6
 10
22738.919525000001
 20
16258.71303900002
 30
0.0
 11
22892.75781100001
 21
16310.14687000002
 31
0.0
  0
LINE
  5
3115
  8
2-0
  6
CONTINUOUS
 62
     6
 10
22763.922823999979
 20
16211.60643500002
 30
0.0
 11
22892.75781100001
 21
16310.14687000002
 31
0.0
  0
LINE
  5
3116
  8
2-0
  6
CONTINUOUS
 62
     6
 10
22763.922823999979
 20
16211.60643500002
 30
0.0
 11
22738.919525000001
 21
16258.71303900002
 31
0.0
  0
LINE
  5
3117
  8
2-0
  6
CONTINUOUS
 62
     6
 10
22604.983317999999
 20
16750.031531000011
 30
0.0
 11
22747.86694900001
 21
16673.255902000001
 31
0.0
  0
LINE
  5
3118
  8
2-0
  6
CONTINUOUS
 62
     6
 10
22747.86694900001
 20
16673.255902000001
 30
0.0
 11
22587.805056000001
 21
16699.53797100002
 31
0.0
  0
LINE
  5
3119
  8
2-0
  6
CONTINUOUS
 62
     6
 10
22604.983317999999
 20
16750.031531000011
 30
0.0
 11
22587.805056000001
 21
16699.53797100002
 31
0.0
  0
LINE
  5
311A
  8
2-0
  6
CONTINUOUS
 62
     6
 10
22587.805056000001
 20
16699.53797100002
 30
0.0
 11
22747.86694900001
 21
16673.255902000001
 31
0.0
  0
LINE
  5
311B
  8
2-0
  6
CONTINUOUS
 62
     6
 10
22747.86694900001
 20
16673.255902000001
 30
0.0
 11
22604.983317999999
 21
16750.031531000011
 31
0.0
  0
LINE
  5
311C
  8
2-0
  6
CONTINUOUS
 62
     6
 10
22604.983317999999
 20
16750.031531000011
 30
0.0
 11
22747.86694900001
 21
16673.255902000001
 31
0.0
  0
LINE
  5
311D
  8
2-0
  6
CONTINUOUS
 62
     6
 10
22587.805056000001
 20
16699.53797100002
 30
0.0
 11
22747.86694900001
 21
16673.255902000001
 31
0.0
  0
LINE
  5
311E
  8
2-0
  6
CONTINUOUS
 62
     6
 10
22587.805056000001
 20
16699.53797100002
 30
0.0
 11
22604.983317999999
 21
16750.031531000011
 31
0.0
  0
LINE
  5
311F
  8
2-0
  6
CONTINUOUS
 62
     3
 10
19569.260847000001
 20
19121.755585999988
 30
0.0
 11
19569.260847000001
 21
19115.75962400002
 31
0.0
  0
LINE
  5
3120
  8
2-0
  6
CONTINUOUS
 62
     3
 10
19569.260847000001
 20
19115.75962400002
 30
0.0
 11
19539.263222000001
 21
19115.75962400002
 31
0.0
  0
LINE
  5
3121
  8
2-0
  6
CONTINUOUS
 62
     3
 10
19539.263222000001
 20
19115.75962400002
 30
0.0
 11
19539.263222000001
 21
19230.75579700002
 31
0.0
  0
LINE
  5
3122
  8
2-0
  6
CONTINUOUS
 62
     3
 10
19539.263222000001
 20
19145.759227999999
 30
0.0
 11
19620.261162999999
 21
19145.759227999999
 31
0.0
  0
LINE
  5
3123
  8
2-0
  6
CONTINUOUS
 62
     3
 10
19569.260847000001
 20
19105.462167999991
 30
0.0
 11
19539.263222000001
 21
19105.462167999991
 31
0.0
  0
LINE
  5
3124
  8
2-0
  6
CONTINUOUS
 62
     3
 10
19569.260847000001
 20
19123.463910000009
 30
0.0
 11
19569.260847000001
 21
19105.462167999991
 31
0.0
  0
LINE
  5
3125
  8
2-0
  6
CONTINUOUS
 62
     3
 10
19544.267445000001
 20
19123.463910000009
 30
0.0
 11
19569.260847000001
 21
19123.463910000009
 31
0.0
  0
LINE
  5
3126
  8
2-0
  6
CONTINUOUS
 62
     3
 10
19544.267445000001
 20
19118.455728000001
 30
0.0
 11
19544.267445000001
 21
19123.463910000009
 31
0.0
  0
LINE
  5
3127
  8
2-0
  6
CONTINUOUS
 62
     3
 10
19551.265042999981
 20
19118.455728000001
 30
0.0
 11
19544.267445000001
 21
19118.455728000001
 31
0.0
  0
LINE
  5
3128
  8
2-0
  6
CONTINUOUS
 62
     3
 10
19651.55933199999
 20
19218.755955000001
 30
0.0
 11
19651.55933199999
 21
19225.761471000009
 31
0.0
  0
LINE
  5
3129
  8
2-0
  6
CONTINUOUS
 62
     3
 10
19651.55933199999
 20
19225.761471000009
 30
0.0
 11
19646.557088000001
 21
19225.761471000009
 31
0.0
  0
LINE
  5
312A
  8
2-0
  6
CONTINUOUS
 62
     3
 10
19646.557088000001
 20
19225.761471000009
 30
0.0
 11
19646.557088000001
 21
19200.752234
 31
0.0
  0
LINE
  5
312B
  8
2-0
  6
CONTINUOUS
 62
     3
 10
19646.557088000001
 20
19200.752234
 30
0.0
 11
19664.56476899999
 21
19200.752234
 31
0.0
  0
LINE
  5
312C
  8
2-0
  6
CONTINUOUS
 62
     3
 10
19664.56476899999
 20
19200.752234
 30
0.0
 11
19664.56476899999
 21
19230.75579700002
 31
0.0
  0
LINE
  5
312D
  8
2-0
  6
CONTINUOUS
 62
     3
 10
19654.26533300001
 20
19230.75579700002
 30
0.0
 11
19539.263222000001
 21
19230.75579700002
 31
0.0
  0
LINE
  5
312E
  8
2-0
  6
CONTINUOUS
 62
     3
 10
19654.26533300001
 20
19200.752234
 30
0.0
 11
19654.26533300001
 21
19230.75579700002
 31
0.0
  0
LINE
  5
312F
  8
2-0
  6
CONTINUOUS
 62
     3
 10
19648.261454
 20
19200.752234
 30
0.0
 11
19654.26533300001
 21
19200.752234
 31
0.0
  0
LINE
  5
3130
  8
2-0
  6
CONTINUOUS
 62
     3
 10
19569.260847000001
 20
19121.755585999988
 30
0.0
 11
19569.260847000001
 21
19115.75962400002
 31
0.0
  0
LINE
  5
3131
  8
2-0
  6
CONTINUOUS
 62
     3
 10
19569.260847000001
 20
19115.75962400002
 30
0.0
 11
19539.263222000001
 21
19115.75962400002
 31
0.0
  0
LINE
  5
3132
  8
2-0
  6
CONTINUOUS
 62
     3
 10
19539.263222000001
 20
19115.75962400002
 30
0.0
 11
19539.263222000001
 21
19230.75579700002
 31
0.0
  0
LINE
  5
3133
  8
2-0
  6
CONTINUOUS
 62
     3
 10
19539.263222000001
 20
19145.759227999999
 30
0.0
 11
19620.261162999999
 21
19145.759227999999
 31
0.0
  0
LINE
  5
3134
  8
2-0
  6
CONTINUOUS
 62
     3
 10
19569.260847000001
 20
19105.462167999991
 30
0.0
 11
19539.263222000001
 21
19105.462167999991
 31
0.0
  0
LINE
  5
3135
  8
2-0
  6
CONTINUOUS
 62
     3
 10
19569.260847000001
 20
19123.463910000009
 30
0.0
 11
19569.260847000001
 21
19105.462167999991
 31
0.0
  0
LINE
  5
3136
  8
2-0
  6
CONTINUOUS
 62
     3
 10
19544.267445000001
 20
19123.463910000009
 30
0.0
 11
19569.260847000001
 21
19123.463910000009
 31
0.0
  0
LINE
  5
3137
  8
2-0
  6
CONTINUOUS
 62
     3
 10
19544.267445000001
 20
19118.455728000001
 30
0.0
 11
19544.267445000001
 21
19123.463910000009
 31
0.0
  0
LINE
  5
3138
  8
2-0
  6
CONTINUOUS
 62
     3
 10
19551.265042999981
 20
19118.455728000001
 30
0.0
 11
19544.267445000001
 21
19118.455728000001
 31
0.0
  0
LINE
  5
3139
  8
2-0
  6
CONTINUOUS
 62
     3
 10
19551.265042999981
 20
18765.158905499949
 30
0.0
 11
19544.267445000001
 21
18765.158905499949
 31
0.0
  0
LINE
  5
313A
  8
2-0
  6
CONTINUOUS
 62
     3
 10
19544.267445000001
 20
18765.158905499949
 30
0.0
 11
19544.267445000001
 21
18770.159169499992
 31
0.0
  0
LINE
  5
313B
  8
2-0
  6
CONTINUOUS
 62
     3
 10
19544.267445000001
 20
18770.159169499992
 30
0.0
 11
19569.260847000001
 21
18770.159169499992
 31
0.0
  0
LINE
  5
313C
  8
2-0
  6
CONTINUOUS
 62
     3
 10
19569.260847000001
 20
18770.159169499992
 30
0.0
 11
19569.260847000001
 21
18752.163365499979
 31
0.0
  0
LINE
  5
313D
  8
2-0
  6
CONTINUOUS
 62
     3
 10
19569.260847000001
 20
18752.163365499979
 30
0.0
 11
19539.263222000001
 21
18752.163365499979
 31
0.0
  0
LINE
  5
313E
  8
2-0
  6
CONTINUOUS
 62
     3
 10
19569.260847000001
 20
18768.254872499961
 30
0.0
 11
19569.260847000001
 21
18762.256931499989
 31
0.0
  0
LINE
  5
313F
  8
2-0
  6
CONTINUOUS
 62
     3
 10
19569.260847000001
 20
18762.256931499989
 30
0.0
 11
19539.263222000001
 21
18762.256931499989
 31
0.0
  0
LINE
  5
3140
  8
2-0
  6
CONTINUOUS
 62
     3
 10
19539.263222000001
 20
18762.256931499989
 30
0.0
 11
19539.263222000001
 21
18799.258092499978
 31
0.0
  0
LINE
  5
3141
  8
2-0
  6
CONTINUOUS
 62
     3
 10
19569.260847000001
 20
18799.258092499978
 30
0.0
 11
19539.263222000001
 21
18799.258092499978
 31
0.0
  0
LINE
  5
3142
  8
2-0
  6
CONTINUOUS
 62
     3
 10
19569.260847000001
 20
18793.254212499989
 30
0.0
 11
19569.260847000001
 21
18799.258092499978
 31
0.0
  0
LINE
  5
3143
  8
2-0
  6
CONTINUOUS
 62
     3
 10
19569.260847000001
 20
18809.35363749996
 30
0.0
 11
19539.263222000001
 21
18809.35363749996
 31
0.0
  0
LINE
  5
3144
  8
2-0
  6
CONTINUOUS
 62
     3
 10
19569.260847000001
 20
18791.3518955
 30
0.0
 11
19569.260847000001
 21
18809.35363749996
 31
0.0
  0
LINE
  5
3145
  8
2-0
  6
CONTINUOUS
 62
     3
 10
19544.267445000001
 20
18791.3518955
 30
0.0
 11
19569.260847000001
 21
18791.3518955
 31
0.0
  0
LINE
  5
3146
  8
2-0
  6
CONTINUOUS
 62
     3
 10
19544.267445000001
 20
18796.352159499991
 30
0.0
 11
19544.267445000001
 21
18791.3518955
 31
0.0
  0
LINE
  5
3147
  8
2-0
  6
CONTINUOUS
 62
     3
 10
19551.265042999981
 20
18796.352159499991
 30
0.0
 11
19544.267445000001
 21
18796.352159499991
 31
0.0
  0
LINE
  5
3148
  8
2-0
  6
CONTINUOUS
 62
     3
 10
19551.265042999981
 20
18064.157915999989
 30
0.0
 11
19544.267445000001
 21
18064.157915999989
 31
0.0
  0
LINE
  5
3149
  8
2-0
  6
CONTINUOUS
 62
     3
 10
19544.267445000001
 20
18064.157915999989
 30
0.0
 11
19544.267445000001
 21
18069.164117999979
 31
0.0
  0
LINE
  5
314A
  8
2-0
  6
CONTINUOUS
 62
     3
 10
19544.267445000001
 20
18069.164117999979
 30
0.0
 11
19569.260847000001
 21
18069.164117999979
 31
0.0
  0
LINE
  5
314B
  8
2-0
  6
CONTINUOUS
 62
     3
 10
19569.260847000001
 20
18069.164117999979
 30
0.0
 11
19569.260847000001
 21
18051.162376
 31
0.0
  0
LINE
  5
314C
  8
2-0
  6
CONTINUOUS
 62
     3
 10
19569.260847000001
 20
18051.162376
 30
0.0
 11
19539.263222000001
 21
18051.162376
 31
0.0
  0
LINE
  5
314D
  8
2-0
  6
CONTINUOUS
 62
     3
 10
19569.260847000001
 20
18067.253882999961
 30
0.0
 11
19569.260847000001
 21
18061.257920999989
 31
0.0
  0
LINE
  5
314E
  8
2-0
  6
CONTINUOUS
 62
     3
 10
19569.260847000001
 20
18061.257920999989
 30
0.0
 11
19539.263222000001
 21
18061.257920999989
 31
0.0
  0
LINE
  5
314F
  8
2-0
  6
CONTINUOUS
 62
     3
 10
19539.263222000001
 20
18061.257920999989
 30
0.0
 11
19539.263222000001
 21
18098.257102999989
 31
0.0
  0
LINE
  5
3150
  8
2-0
  6
CONTINUOUS
 62
     3
 10
19569.260847000001
 20
18098.257102999989
 30
0.0
 11
19539.263222000001
 21
18098.257102999989
 31
0.0
  0
LINE
  5
3151
  8
2-0
  6
CONTINUOUS
 62
     3
 10
19569.260847000001
 20
18092.261140999992
 30
0.0
 11
19569.260847000001
 21
18098.257102999989
 31
0.0
  0
LINE
  5
3152
  8
2-0
  6
CONTINUOUS
 62
     3
 10
19569.260847000001
 20
18108.352648
 30
0.0
 11
19539.263222000001
 21
18108.352648
 31
0.0
  0
LINE
  5
3153
  8
2-0
  6
CONTINUOUS
 62
     3
 10
19569.260847000001
 20
18090.350905999989
 30
0.0
 11
19569.260847000001
 21
18108.352648
 31
0.0
  0
LINE
  5
3154
  8
2-0
  6
CONTINUOUS
 62
     3
 10
19544.267445000001
 20
18090.350905999989
 30
0.0
 11
19569.260847000001
 21
18090.350905999989
 31
0.0
  0
LINE
  5
3155
  8
2-0
  6
CONTINUOUS
 62
     3
 10
19544.267445000001
 20
18095.357107999978
 30
0.0
 11
19544.267445000001
 21
18090.350905999989
 31
0.0
  0
LINE
  5
3156
  8
2-0
  6
CONTINUOUS
 62
     3
 10
19551.265042999981
 20
18095.357107999978
 30
0.0
 11
19544.267445000001
 21
18095.357107999978
 31
0.0
  0
LINE
  5
3157
  8
2-0
  6
CONTINUOUS
 62
     3
 10
19551.265042999981
 20
17394.351169999991
 30
0.0
 11
19544.267445000001
 21
17394.351169999991
 31
0.0
  0
LINE
  5
3158
  8
2-0
  6
CONTINUOUS
 62
     3
 10
19544.267445000001
 20
17394.351169999991
 30
0.0
 11
19544.267445000001
 21
17389.36278299999
 31
0.0
  0
LINE
  5
3159
  8
2-0
  6
CONTINUOUS
 62
     3
 10
19544.267445000001
 20
17389.36278299999
 30
0.0
 11
19569.260847000001
 21
17389.36278299999
 31
0.0
  0
LINE
  5
315A
  8
2-0
  6
CONTINUOUS
 62
     3
 10
19569.260847000001
 20
17389.36278299999
 30
0.0
 11
19569.260847000001
 21
17407.358585999991
 31
0.0
  0
LINE
  5
315B
  8
2-0
  6
CONTINUOUS
 62
     3
 10
19569.260847000001
 20
17407.358585999991
 30
0.0
 11
19539.263222000001
 21
17407.358585999991
 31
0.0
  0
LINE
  5
315C
  8
2-0
  6
CONTINUOUS
 62
     3
 10
19569.260847000001
 20
17391.261140999992
 30
0.0
 11
19569.260847000001
 21
17397.257102999989
 31
0.0
  0
LINE
  5
315D
  8
2-0
  6
CONTINUOUS
 62
     3
 10
19569.260847000001
 20
17397.257102999989
 30
0.0
 11
19539.263222000001
 21
17397.257102999989
 31
0.0
  0
LINE
  5
315E
  8
2-0
  6
CONTINUOUS
 62
     3
 10
19539.263222000001
 20
17397.257102999989
 30
0.0
 11
19539.263222000001
 21
17360.257920999989
 31
0.0
  0
LINE
  5
315F
  8
2-0
  6
CONTINUOUS
 62
     3
 10
19569.260847000001
 20
17360.257920999989
 30
0.0
 11
19539.263222000001
 21
17360.257920999989
 31
0.0
  0
LINE
  5
3160
  8
2-0
  6
CONTINUOUS
 62
     3
 10
19569.260847000001
 20
17366.259821999982
 30
0.0
 11
19569.260847000001
 21
17360.257920999989
 31
0.0
  0
LINE
  5
3161
  8
2-0
  6
CONTINUOUS
 62
     3
 10
19569.260847000001
 20
17350.168314999992
 30
0.0
 11
19539.263222000001
 21
17350.168314999992
 31
0.0
  0
LINE
  5
3162
  8
2-0
  6
CONTINUOUS
 62
     3
 10
19569.260847000001
 20
17368.16411799999
 30
0.0
 11
19569.260847000001
 21
17350.168314999992
 31
0.0
  0
LINE
  5
3163
  8
2-0
  6
CONTINUOUS
 62
     3
 10
19544.267445000001
 20
17368.16411799999
 30
0.0
 11
19569.260847000001
 21
17368.16411799999
 31
0.0
  0
LINE
  5
3164
  8
2-0
  6
CONTINUOUS
 62
     3
 10
19544.267445000001
 20
17363.163854999992
 30
0.0
 11
19544.267445000001
 21
17368.16411799999
 31
0.0
  0
LINE
  5
3165
  8
2-0
  6
CONTINUOUS
 62
     3
 10
19551.265042999981
 20
17363.163854999992
 30
0.0
 11
19544.267445000001
 21
17363.163854999992
 31
0.0
  0
LINE
  5
3166
  8
2-0
  6
CONTINUOUS
 62
     3
 10
19542.149359999989
 20
16643.25474099999
 30
0.0
 11
19542.149359999989
 21
16663.255796000001
 31
0.0
  0
LINE
  5
3167
  8
2-0
  6
CONTINUOUS
 62
     3
 10
19542.149359999989
 20
16663.255796000001
 30
0.0
 11
19627.149888
 21
16663.255796000001
 31
0.0
  0
LINE
  5
3168
  8
2-0
  6
CONTINUOUS
 62
     3
 10
19551.265042999981
 20
16689.862506000001
 30
0.0
 11
19544.267445000001
 21
16689.862506000001
 31
0.0
  0
LINE
  5
3169
  8
2-0
  6
CONTINUOUS
 62
     3
 10
19544.267445000001
 20
16689.862506000001
 30
0.0
 11
19544.267445000001
 21
16684.868180000001
 31
0.0
  0
LINE
  5
316A
  8
2-0
  6
CONTINUOUS
 62
     3
 10
19544.267445000001
 20
16684.868180000001
 30
0.0
 11
19569.260847000001
 21
16684.868180000001
 31
0.0
  0
LINE
  5
316B
  8
2-0
  6
CONTINUOUS
 62
     3
 10
19569.260847000001
 20
16684.868180000001
 30
0.0
 11
19569.260847000001
 21
16702.863984
 31
0.0
  0
LINE
  5
316C
  8
2-0
  6
CONTINUOUS
 62
     3
 10
19569.260847000001
 20
16702.863984
 30
0.0
 11
19539.263222000001
 21
16702.863984
 31
0.0
  0
LINE
  5
316D
  8
2-0
  6
CONTINUOUS
 62
     3
 10
19569.260847000001
 20
16693.255399999991
 30
0.0
 11
19569.260847000001
 21
16687.253499999992
 31
0.0
  0
LINE
  5
316E
  8
2-0
  6
CONTINUOUS
 62
     3
 10
19539.263222000001
 20
16693.255399999991
 30
0.0
 11
19569.260847000001
 21
16693.255399999991
 31
0.0
  0
LINE
  5
316F
  8
2-0
  6
CONTINUOUS
 62
     3
 10
19539.263222000001
 20
16702.863984
 30
0.0
 11
19539.263222000001
 21
17350.168314999992
 31
0.0
  0
LINE
  5
3170
  8
2-0
  6
CONTINUOUS
 62
     3
 10
19539.263222000001
 20
17407.358585999991
 30
0.0
 11
19539.263222000001
 21
18051.162376
 31
0.0
  0
LINE
  5
3171
  8
2-0
  6
CONTINUOUS
 62
     3
 10
19539.263222000001
 20
16548.253685
 30
0.0
 11
19569.260847000001
 21
16548.253685
 31
0.0
  0
LINE
  5
3172
  8
2-0
  6
CONTINUOUS
 62
     3
 10
19569.260847000001
 20
16548.253685
 30
0.0
 11
19569.260847000001
 21
16554.255584999992
 31
0.0
  0
LINE
  5
3173
  8
2-0
  6
CONTINUOUS
 62
     3
 10
19627.149888
 20
16578.259227999999
 30
0.0
 11
19542.149359999989
 21
16578.259227999999
 31
0.0
  0
LINE
  5
3174
  8
2-0
  6
CONTINUOUS
 62
     3
 10
19542.149359999989
 20
16578.259227999999
 30
0.0
 11
19542.149359999989
 21
16598.254345000001
 31
0.0
  0
LINE
  5
3175
  8
2-0
  6
CONTINUOUS
 62
     3
 10
19569.260847000001
 20
16538.64510200001
 30
0.0
 11
19539.263222000001
 21
16538.64510200001
 31
0.0
  0
LINE
  5
3176
  8
2-0
  6
CONTINUOUS
 62
     3
 10
19569.260847000001
 20
16556.640904999989
 30
0.0
 11
19569.260847000001
 21
16538.64510200001
 31
0.0
  0
LINE
  5
3177
  8
2-0
  6
CONTINUOUS
 62
     3
 10
19544.267445000001
 20
16556.640904999989
 30
0.0
 11
19569.260847000001
 21
16556.640904999989
 31
0.0
  0
LINE
  5
3178
  8
2-0
  6
CONTINUOUS
 62
     3
 10
19544.267445000001
 20
16551.640641000002
 30
0.0
 11
19544.267445000001
 21
16556.640904999989
 31
0.0
  0
LINE
  5
3179
  8
2-0
  6
CONTINUOUS
 62
     3
 10
19551.265042999981
 20
16551.640641000002
 30
0.0
 11
19544.267445000001
 21
16551.640641000002
 31
0.0
  0
LINE
  5
317A
  8
2-0
  6
CONTINUOUS
 62
     3
 10
19551.265042999981
 20
15847.15841049998
 30
0.0
 11
19544.267445000001
 21
15847.15841049998
 31
0.0
  0
LINE
  5
317B
  8
2-0
  6
CONTINUOUS
 62
     3
 10
19544.267445000001
 20
15847.15841049998
 30
0.0
 11
19544.267445000001
 21
15852.15867449998
 31
0.0
  0
LINE
  5
317C
  8
2-0
  6
CONTINUOUS
 62
     3
 10
19544.267445000001
 20
15852.15867449998
 30
0.0
 11
19569.260847000001
 21
15852.15867449998
 31
0.0
  0
LINE
  5
317D
  8
2-0
  6
CONTINUOUS
 62
     3
 10
19569.260847000001
 20
15852.15867449998
 30
0.0
 11
19569.260847000001
 21
15834.15693249998
 31
0.0
  0
LINE
  5
317E
  8
2-0
  6
CONTINUOUS
 62
     3
 10
19569.260847000001
 20
15834.15693249998
 30
0.0
 11
19539.263222000001
 21
15834.15693249998
 31
0.0
  0
LINE
  5
317F
  8
2-0
  6
CONTINUOUS
 62
     3
 10
19569.260847000001
 20
15850.25437749999
 30
0.0
 11
19569.260847000001
 21
15844.257426499989
 31
0.0
  0
LINE
  5
3180
  8
2-0
  6
CONTINUOUS
 62
     3
 10
19569.260847000001
 20
15844.257426499989
 30
0.0
 11
19539.263222000001
 21
15844.257426499989
 31
0.0
  0
LINE
  5
3181
  8
2-0
  6
CONTINUOUS
 62
     3
 10
19539.263222000001
 20
15844.257426499989
 30
0.0
 11
19539.263222000001
 21
15881.2575975
 31
0.0
  0
LINE
  5
3182
  8
2-0
  6
CONTINUOUS
 62
     3
 10
19569.260847000001
 20
15881.2575975
 30
0.0
 11
19539.263222000001
 21
15881.2575975
 31
0.0
  0
LINE
  5
3183
  8
2-0
  6
CONTINUOUS
 62
     3
 10
19569.260847000001
 20
15875.254707499989
 30
0.0
 11
19569.260847000001
 21
15881.2575975
 31
0.0
  0
LINE
  5
3184
  8
2-0
  6
CONTINUOUS
 62
     3
 10
19569.260847000001
 20
15891.3531425
 30
0.0
 11
19539.263222000001
 21
15891.3531425
 31
0.0
  0
LINE
  5
3185
  8
2-0
  6
CONTINUOUS
 62
     3
 10
19569.260847000001
 20
15873.34546149999
 30
0.0
 11
19569.260847000001
 21
15891.3531425
 31
0.0
  0
LINE
  5
3186
  8
2-0
  6
CONTINUOUS
 62
     3
 10
19544.267445000001
 20
15873.34546149999
 30
0.0
 11
19569.260847000001
 21
15873.34546149999
 31
0.0
  0
LINE
  5
3187
  8
2-0
  6
CONTINUOUS
 62
     3
 10
19544.267445000001
 20
15878.3516645
 30
0.0
 11
19544.267445000001
 21
15873.34546149999
 31
0.0
  0
LINE
  5
3188
  8
2-0
  6
CONTINUOUS
 62
     3
 10
19551.265042999981
 20
15878.3516645
 30
0.0
 11
19544.267445000001
 21
15878.3516645
 31
0.0
  0
LINE
  5
3189
  8
2-0
  6
CONTINUOUS
 62
     3
 10
19551.265042999981
 20
15177.591681000011
 30
0.0
 11
19544.267445000001
 21
15177.591681000011
 31
0.0
  0
LINE
  5
318A
  8
2-0
  6
CONTINUOUS
 62
     3
 10
19544.267445000001
 20
15177.591681000011
 30
0.0
 11
19544.267445000001
 21
15172.597356
 31
0.0
  0
LINE
  5
318B
  8
2-0
  6
CONTINUOUS
 62
     3
 10
19544.267445000001
 20
15172.597356
 30
0.0
 11
19569.260847000001
 21
15172.597356
 31
0.0
  0
LINE
  5
318C
  8
2-0
  6
CONTINUOUS
 62
     3
 10
19569.260847000001
 20
15172.597356
 30
0.0
 11
19569.260847000001
 21
15190.593159
 31
0.0
  0
LINE
  5
318D
  8
2-0
  6
CONTINUOUS
 62
     3
 10
19569.260847000001
 20
15190.593159
 30
0.0
 11
19539.263222000001
 21
15190.593159
 31
0.0
  0
LINE
  5
318E
  8
2-0
  6
CONTINUOUS
 62
     3
 10
19569.260847000001
 20
15174.495714000001
 30
0.0
 11
19569.260847000001
 21
15180.497614000011
 31
0.0
  0
LINE
  5
318F
  8
2-0
  6
CONTINUOUS
 62
     3
 10
19569.260847000001
 20
15180.497614000011
 30
0.0
 11
19539.263222000001
 21
15180.497614000011
 31
0.0
  0
LINE
  5
3190
  8
2-0
  6
CONTINUOUS
 62
     3
 10
19539.263222000001
 20
15143.49843300001
 30
0.0
 11
19539.263222000001
 21
15180.497614000011
 31
0.0
  0
LINE
  5
3191
  8
2-0
  6
CONTINUOUS
 62
     3
 10
19569.260847000001
 20
15143.49843300001
 30
0.0
 11
19539.263222000001
 21
15143.49843300001
 31
0.0
  0
LINE
  5
3192
  8
2-0
  6
CONTINUOUS
 62
     3
 10
19569.260847000001
 20
15149.495383999991
 30
0.0
 11
19569.260847000001
 21
15143.49843300001
 31
0.0
  0
LINE
  5
3193
  8
2-0
  6
CONTINUOUS
 62
     3
 10
19569.260847000001
 20
15133.396949
 30
0.0
 11
19539.263222000001
 21
15133.396949
 31
0.0
  0
LINE
  5
3194
  8
2-0
  6
CONTINUOUS
 62
     3
 10
19569.260847000001
 20
15151.404630000001
 30
0.0
 11
19569.260847000001
 21
15133.396949
 31
0.0
  0
LINE
  5
3195
  8
2-0
  6
CONTINUOUS
 62
     3
 10
19544.267445000001
 20
15151.404630000001
 30
0.0
 11
19569.260847000001
 21
15151.404630000001
 31
0.0
  0
LINE
  5
3196
  8
2-0
  6
CONTINUOUS
 62
     3
 10
19544.267445000001
 20
15146.40436600001
 30
0.0
 11
19544.267445000001
 21
15151.404630000001
 31
0.0
  0
LINE
  5
3197
  8
2-0
  6
CONTINUOUS
 62
     3
 10
19551.265042999981
 20
15146.40436600001
 30
0.0
 11
19544.267445000001
 21
15146.40436600001
 31
0.0
  0
LINE
  5
3198
  8
2-0
  6
CONTINUOUS
 62
     3
 10
19539.263222000001
 20
16538.64510200001
 30
0.0
 11
19539.263222000001
 21
15891.3531425
 31
0.0
  0
LINE
  5
3199
  8
2-0
  6
CONTINUOUS
 62
     3
 10
19539.263222000001
 20
16693.255399999991
 30
0.0
 11
19539.263222000001
 21
16548.253685
 31
0.0
  0
LINE
  5
319A
  8
2-0
  6
CONTINUOUS
 62
     3
 10
19627.149888
 20
16663.255796000001
 30
0.0
 11
19627.149888
 21
16578.259227999999
 31
0.0
  0
LINE
  5
319B
  8
2-0
  6
CONTINUOUS
 62
     3
 10
19551.265042999981
 20
14445.163359
 30
0.0
 11
19544.267445000001
 21
14445.163359
 31
0.0
  0
LINE
  5
319C
  8
2-0
  6
CONTINUOUS
 62
     3
 10
19544.267445000001
 20
14445.163359
 30
0.0
 11
19544.267445000001
 21
14450.157685
 31
0.0
  0
LINE
  5
319D
  8
2-0
  6
CONTINUOUS
 62
     3
 10
19544.267445000001
 20
14450.157685
 30
0.0
 11
19569.260847000001
 21
14450.157685
 31
0.0
  0
LINE
  5
319E
  8
2-0
  6
CONTINUOUS
 62
     3
 10
19569.260847000001
 20
14450.157685
 30
0.0
 11
19569.260847000001
 21
14432.161881
 31
0.0
  0
LINE
  5
319F
  8
2-0
  6
CONTINUOUS
 62
     3
 10
19569.260847000001
 20
14432.161881
 30
0.0
 11
19539.263222000001
 21
14432.161881
 31
0.0
  0
LINE
  5
31A0
  8
2-0
  6
CONTINUOUS
 62
     3
 10
19569.260847000001
 20
14448.260316000011
 30
0.0
 11
19569.260847000001
 21
14442.257426
 31
0.0
  0
LINE
  5
31A1
  8
2-0
  6
CONTINUOUS
 62
     3
 10
19569.260847000001
 20
14442.257426
 30
0.0
 11
19539.263222000001
 21
14442.257426
 31
0.0
  0
LINE
  5
31A2
  8
2-0
  6
CONTINUOUS
 62
     3
 10
19539.263222000001
 20
14442.257426
 30
0.0
 11
19539.263222000001
 21
14479.25759799998
 31
0.0
  0
LINE
  5
31A3
  8
2-0
  6
CONTINUOUS
 62
     3
 10
19569.260847000001
 20
14479.25759799998
 30
0.0
 11
19539.263222000001
 21
14479.25759799998
 31
0.0
  0
LINE
  5
31A4
  8
2-0
  6
CONTINUOUS
 62
     3
 10
19569.260847000001
 20
14473.260646000001
 30
0.0
 11
19569.260847000001
 21
14479.25759799998
 31
0.0
  0
LINE
  5
31A5
  8
2-0
  6
CONTINUOUS
 62
     3
 10
19569.260847000001
 20
14489.358091
 30
0.0
 11
19539.263222000001
 21
14489.358091
 31
0.0
  0
LINE
  5
31A6
  8
2-0
  6
CONTINUOUS
 62
     3
 10
19569.260847000001
 20
14471.35140000001
 30
0.0
 11
19569.260847000001
 21
14489.358091
 31
0.0
  0
LINE
  5
31A7
  8
2-0
  6
CONTINUOUS
 62
     3
 10
19544.267445000001
 20
14471.35140000001
 30
0.0
 11
19569.260847000001
 21
14471.35140000001
 31
0.0
  0
LINE
  5
31A8
  8
2-0
  6
CONTINUOUS
 62
     3
 10
19544.267445000001
 20
14476.356613000011
 30
0.0
 11
19544.267445000001
 21
14471.35140000001
 31
0.0
  0
LINE
  5
31A9
  8
2-0
  6
CONTINUOUS
 62
     3
 10
19551.265042999981
 20
14476.356613000011
 30
0.0
 11
19544.267445000001
 21
14476.356613000011
 31
0.0
  0
LINE
  5
31AA
  8
2-0
  6
CONTINUOUS
 62
     3
 10
19569.260847000001
 20
14119.75943899999
 30
0.0
 11
19569.260847000001
 21
14125.764308
 31
0.0
  0
LINE
  5
31AB
  8
2-0
  6
CONTINUOUS
 62
     3
 10
19569.260847000001
 20
14125.764308
 30
0.0
 11
19539.263222000001
 21
14125.764308
 31
0.0
  0
LINE
  5
31AC
  8
2-0
  6
CONTINUOUS
 62
     3
 10
19539.263222000001
 20
14125.764308
 30
0.0
 11
19539.263222000001
 21
14010.76021699999
 31
0.0
  0
LINE
  5
31AD
  8
2-0
  6
CONTINUOUS
 62
     3
 10
19539.263222000001
 20
14010.76021699999
 30
0.0
 11
19624.261770000001
 21
14010.76021699999
 31
0.0
  0
LINE
  5
31AE
  8
2-0
  6
CONTINUOUS
 62
     3
 10
19624.261770000001
 20
14010.76021699999
 30
0.0
 11
19624.261770000001
 21
14095.755795999999
 31
0.0
  0
LINE
  5
31AF
  8
2-0
  6
CONTINUOUS
 62
     3
 10
19624.261770000001
 20
14095.755795999999
 30
0.0
 11
19592.26483199999
 21
14095.755795999999
 31
0.0
  0
LINE
  5
31B0
  8
2-0
  6
CONTINUOUS
 62
     3
 10
19551.265042999981
 20
14122.79404099999
 30
0.0
 11
19544.267445000001
 21
14122.79404099999
 31
0.0
  0
LINE
  5
31B1
  8
2-0
  6
CONTINUOUS
 62
     3
 10
19544.267445000001
 20
14122.79404099999
 30
0.0
 11
19544.267445000001
 21
14117.79674599998
 31
0.0
  0
LINE
  5
31B2
  8
2-0
  6
CONTINUOUS
 62
     3
 10
19544.267445000001
 20
14117.79674599998
 30
0.0
 11
19569.260847000001
 21
14117.79674599998
 31
0.0
  0
LINE
  5
31B3
  8
2-0
  6
CONTINUOUS
 62
     3
 10
19569.260847000001
 20
14117.79674599998
 30
0.0
 11
19569.260847000001
 21
14135.795518999999
 31
0.0
  0
LINE
  5
31B4
  8
2-0
  6
CONTINUOUS
 62
     3
 10
19569.260847000001
 20
14135.795518999999
 30
0.0
 11
19539.263222000001
 21
14135.795518999999
 31
0.0
  0
LINE
  5
31B5
  8
2-0
  6
CONTINUOUS
 62
     3
 10
19539.263222000001
 20
14489.358091
 30
0.0
 11
19539.263222000001
 21
15133.396949
 31
0.0
  0
LINE
  5
31B6
  8
2-0
  6
CONTINUOUS
 62
     3
 10
19539.263222000001
 20
18108.352648
 30
0.0
 11
19539.263222000001
 21
18752.163365499979
 31
0.0
  0
LINE
  5
31B7
  8
2-0
  6
CONTINUOUS
 62
     3
 10
19539.263222000001
 20
15834.15693249998
 30
0.0
 11
19539.263222000001
 21
15190.593159
 31
0.0
  0
LINE
  5
31B8
  8
2-0
  6
CONTINUOUS
 62
     3
 10
22892.75781100001
 20
19115.75962400002
 30
0.0
 11
22892.75781100001
 21
19230.75579700002
 31
0.0
  0
LINE
  5
31B9
  8
2-0
  6
CENTER2
 62
     6
 10
18252.304950000002
 20
19188.257511999989
 30
0.0
 11
23742.75913100001
 21
19188.257511999989
 31
0.0
  0
LINE
  5
31BA
  8
2-0
  6
CENTER2
 62
     6
 10
18252.304950000002
 20
16620.757511999989
 30
0.0
 11
23742.75913100001
 21
16620.757511999989
 31
0.0
  0
LINE
  5
31BB
  8
2-0
  6
CENTER2
 62
     6
 10
18252.304950000002
 20
14053.257512
 30
0.0
 11
23742.75913100001
 21
14053.257512
 31
0.0
  0
LINE
  5
31BC
  8
2-0
  6
CONTINUOUS
 62
     3
 10
19539.263222000001
 20
19145.759227999999
 30
0.0
 11
22811.755910999978
 21
19145.759227999999
 31
0.0
  0
LINE
  5
31BD
  8
2-0
  6
CONTINUOUS
 62
     3
 10
19539.263222000001
 20
14135.795518999999
 30
0.0
 11
19539.263222000001
 21
14432.161881
 31
0.0
  0
LINE
  5
31BE
  8
2-0
  6
CENTER2
 62
     6
 10
19581.759526999991
 20
20430.75579700002
 30
0.0
 11
19581.759526999991
 21
13427.494077999991
 31
0.0
  0
LINE
  5
31BF
  8
2-0
  6
CENTER2
 62
     6
 10
22850.259527000009
 20
20430.75579700002
 30
0.0
 11
22850.259527000009
 21
13427.494077999991
 31
0.0
  0
LINE
  5
31C0
  8
2-0
  6
CONTINUOUS
 62
     3
 10
22892.75781100001
 20
19105.462167999991
 30
0.0
 11
22892.75781100001
 21
18809.353637499989
 31
0.0
  0
LINE
  5
31C1
  8
2-0
  6
CONTINUOUS
 62
     3
 10
19539.263222000001
 20
19105.462167999991
 30
0.0
 11
19539.263222000001
 21
18809.35363749996
 31
0.0
  0
LINE
  5
31C2
  8
2-0
  6
CONTINUOUS
 62
     3
 10
19620.261162999999
 20
14095.755795999999
 30
0.0
 11
19620.261162999999
 21
19230.75579700002
 31
0.0
  0
LINE
  5
31C3
  8
2-0
  6
CONTINUOUS
 62
     3
 10
22811.755910999978
 20
14095.755795999999
 30
0.0
 11
22811.755910999978
 21
19230.75579700002
 31
0.0
  0
CIRCLE
  5
31C4
  8
2-0
  6
CONTINUOUS
 62
     4
 10
18052.30725999999
 20
19188.257511999989
 30
0.0
 40
200.00001
  0
CIRCLE
  5
31C5
  8
2-0
  6
CONTINUOUS
 62
     4
 10
18052.30725999999
 20
16620.757511999989
 30
0.0
 40
200.00001
  0
CIRCLE
  5
31C6
  8
2-0
  6
CONTINUOUS
 62
     4
 10
18052.30725999999
 20
14053.257512
 30
0.0
 40
200.00001
  0
CIRCLE
  5
31C7
  8
2-0
  6
CONTINUOUS
 62
     4
 10
19581.759526999991
 20
20630.760416000008
 30
0.0
 40
200.00001
  0
TEXT
  5
31C8
  8
2-0
  6
CONTINUOUS
 62
     7
 10
21247.104834000002
 20
13493.258634
 30
0.0
 40
160.0
  1
前柱（右）
 50
0.000213
 72
     4
 11
21663.104536593019
 21
13573.260180500791
 31
0.0
  0
TEXT
  5
31C9
  8
2-0
  6
CONTINUOUS
 62
     7
 10
21451.69995699999
 20
16071.250650000011
 30
0.0
 40
160.0
  1
壁パネル
 50
359.99982299999999
 72
     4
 11
21814.366870803551
 21
16151.24952963788
 31
0.0
  0
TEXT
  5
31CA
  8
2-0
  6
CONTINUOUS
 62
     7
 10
21171.697052999989
 20
16908.438546000009
 30
0.0
 40
160.0
  1
中柱（左右）
 50
0.000354
 72
     4
 11
21689.029892046208
 21
16988.44174232466
 31
0.0
  0
TEXT
  5
31CB
  8
2-0
  6
CONTINUOUS
 62
     7
 10
21851.699296999981
 20
14466.299899999991
 30
0.0
 40
160.0
  1
下枠
 50
0.001063
 72
     4
 11
22022.36447940928
 21
14546.30306633928
 31
0.0
  0
TEXT
  5
31CC
  8
2-0
  6
CONTINUOUS
 62
     7
 10
21346.664721000019
 20
18511.707284499978
 30
0.0
 40
160.0
  1
間柱（側）
 72
     4
 11
21767.998054333351
 21
18591.707284499978
 31
0.0
  0
TEXT
  5
31CD
  8
2-0
  6
CONTINUOUS
 62
     7
 10
23665.25504
 20
20040.755004999992
 30
0.0
 40
160.0
  1
後柱（左右）
 50
0.000354
 72
     4
 11
24177.254545712982
 21
20120.758168372831
 31
0.0
  0
TEXT
  5
31CE
  8
2-0
  6
CONTINUOUS
 62
     7
 10
18004.307892999979
 20
19093.777070000011
 30
0.0
 40
160.0
  1
C
 72
     4
 11
18057.641226333311
 21
19173.777070000011
 31
0.0
  0
TEXT
  5
31CF
  8
2-0
  6
CONTINUOUS
 62
     7
 10
18004.528609000001
 20
16550.363430000009
 30
0.0
 40
160.0
  1
B
 72
     4
 11
18057.861942333329
 21
16630.363430000009
 31
0.0
  0
TEXT
  5
31D0
  8
2-0
  6
CONTINUOUS
 62
     7
 10
18004.571168999981
 20
13964.650301
 30
0.0
 40
160.0
  1
A
 72
     4
 11
18057.904502333309
 21
14044.650301
 31
0.0
  0
TEXT
  5
31D1
  8
2-0
  6
CONTINUOUS
 62
     7
 10
19537.552917999968
 20
20541.992864000022
 30
0.0
 40
160.0
  1
1
 72
     4
 11
19564.21958466664
 21
20621.992864000022
 31
0.0
  0
LINE
  5
31D2
  8
2-0
  6
CONTINUOUS
 62
     3
 10
22110.760107999991
 20
19230.75579700002
 30
0.0
 11
22073.758946000009
 21
19230.75579700002
 31
0.0
  0
LINE
  5
31D3
  8
2-0
  6
CONTINUOUS
 62
     3
 10
22110.760107999991
 20
19200.752234
 30
0.0
 11
22110.760107999991
 21
19230.75579700002
 31
0.0
  0
LINE
  5
31D4
  8
2-0
  6
CONTINUOUS
 62
     3
 10
22104.760186999989
 20
19200.752234
 30
0.0
 11
22110.760107999991
 21
19200.752234
 31
0.0
  0
LINE
  5
31D5
  8
2-0
  6
CONTINUOUS
 62
     3
 10
22120.85763200001
 20
19200.752234
 30
0.0
 11
22120.85763200001
 21
19230.75579700002
 31
0.0
  0
LINE
  5
31D6
  8
2-0
  6
CONTINUOUS
 62
     3
 10
22102.853911000009
 20
19200.752234
 30
0.0
 11
22120.85763200001
 21
19200.752234
 31
0.0
  0
LINE
  5
31D7
  8
2-0
  6
CONTINUOUS
 62
     3
 10
22102.853911000009
 20
19225.761471000009
 30
0.0
 11
22102.853911000009
 21
19200.752234
 31
0.0
  0
LINE
  5
31D8
  8
2-0
  6
CONTINUOUS
 62
     3
 10
22107.854175000011
 20
19225.761471000009
 30
0.0
 11
22102.853911000009
 21
19225.761471000009
 31
0.0
  0
LINE
  5
31D9
  8
2-0
  6
CONTINUOUS
 62
     3
 10
22107.854175000011
 20
19218.755955000001
 30
0.0
 11
22107.854175000011
 21
19225.761471000009
 31
0.0
  0
LINE
  5
31DA
  8
2-0
  6
CONTINUOUS
 62
     3
 10
22076.664879999989
 20
19218.755955000001
 30
0.0
 11
22076.664879999989
 21
19225.761471000009
 31
0.0
  0
LINE
  5
31DB
  8
2-0
  6
CONTINUOUS
 62
     3
 10
22076.664879999989
 20
19225.761471000009
 30
0.0
 11
22081.66514400001
 21
19225.761471000009
 31
0.0
  0
LINE
  5
31DC
  8
2-0
  6
CONTINUOUS
 62
     3
 10
22081.66514400001
 20
19225.761471000009
 30
0.0
 11
22081.66514400001
 21
19200.752234
 31
0.0
  0
LINE
  5
31DD
  8
2-0
  6
CONTINUOUS
 62
     3
 10
22081.66514400001
 20
19200.752234
 30
0.0
 11
22063.66538100001
 21
19200.752234
 31
0.0
  0
LINE
  5
31DE
  8
2-0
  6
CONTINUOUS
 62
     3
 10
22063.66538100001
 20
19200.752234
 30
0.0
 11
22063.66538100001
 21
19230.75579700002
 31
0.0
  0
LINE
  5
31DF
  8
2-0
  6
CONTINUOUS
 62
     3
 10
22079.758867
 20
19200.752234
 30
0.0
 11
22073.758946000009
 21
19200.752234
 31
0.0
  0
LINE
  5
31E0
  8
2-0
  6
CONTINUOUS
 62
     3
 10
22073.758946000009
 20
19200.752234
 30
0.0
 11
22073.758946000009
 21
19230.75579700002
 31
0.0
  0
LINE
  5
31E1
  8
2-0
  6
CONTINUOUS
 62
     3
 10
20705.849225499998
 20
19218.755955000001
 30
0.0
 11
20705.849225499998
 21
19225.761471000009
 31
0.0
  0
LINE
  5
31E2
  8
2-0
  6
CONTINUOUS
 62
     3
 10
20705.849225499998
 20
19225.761471000009
 30
0.0
 11
20700.8489615
 21
19225.761471000009
 31
0.0
  0
LINE
  5
31E3
  8
2-0
  6
CONTINUOUS
 62
     3
 10
20700.8489615
 20
19225.761471000009
 30
0.0
 11
20700.8489615
 21
19200.752234
 31
0.0
  0
LINE
  5
31E4
  8
2-0
  6
CONTINUOUS
 62
     3
 10
20700.8489615
 20
19200.752234
 30
0.0
 11
20718.854662500002
 21
19200.752234
 31
0.0
  0
LINE
  5
31E5
  8
2-0
  6
CONTINUOUS
 62
     3
 10
20718.854662500002
 20
19200.752234
 30
0.0
 11
20718.854662500002
 21
19230.75579700002
 31
0.0
  0
LINE
  5
31E6
  8
2-0
  6
CONTINUOUS
 62
     3
 10
20702.757217499991
 20
19200.752234
 30
0.0
 11
20708.759117500002
 21
19200.752234
 31
0.0
  0
LINE
  5
31E7
  8
2-0
  6
CONTINUOUS
 62
     3
 10
20708.759117500002
 20
19200.752234
 30
0.0
 11
20708.759117500002
 21
19230.75579700002
 31
0.0
  0
LINE
  5
31E8
  8
2-0
  6
CONTINUOUS
 62
     3
 10
20671.759936499991
 20
19230.75579700002
 30
0.0
 11
20708.759117500002
 21
19230.75579700002
 31
0.0
  0
LINE
  5
31E9
  8
2-0
  6
CONTINUOUS
 62
     3
 10
20671.759936499991
 20
19200.752234
 30
0.0
 11
20671.759936499991
 21
19230.75579700002
 31
0.0
  0
LINE
  5
31EA
  8
2-0
  6
CONTINUOUS
 62
     3
 10
20677.753918499999
 20
19200.752234
 30
0.0
 11
20671.759936499991
 21
19200.752234
 31
0.0
  0
LINE
  5
31EB
  8
2-0
  6
CONTINUOUS
 62
     3
 10
20661.66439150001
 20
19200.752234
 30
0.0
 11
20661.66439150001
 21
19230.75579700002
 31
0.0
  0
LINE
  5
31EC
  8
2-0
  6
CONTINUOUS
 62
     3
 10
20679.6601945
 20
19200.752234
 30
0.0
 11
20661.66439150001
 21
19200.752234
 31
0.0
  0
LINE
  5
31ED
  8
2-0
  6
CONTINUOUS
 62
     3
 10
20679.6601945
 20
19225.761471000009
 30
0.0
 11
20679.6601945
 21
19200.752234
 31
0.0
  0
LINE
  5
31EE
  8
2-0
  6
CONTINUOUS
 62
     3
 10
20674.659930500009
 20
19225.761471000009
 30
0.0
 11
20679.6601945
 21
19225.761471000009
 31
0.0
  0
LINE
  5
31EF
  8
2-0
  6
CONTINUOUS
 62
     3
 10
20674.659930500009
 20
19218.755955000001
 30
0.0
 11
20674.659930500009
 21
19225.761471000009
 31
0.0
  0
LINE
  5
31F0
  8
2-0
  6
CONTINUOUS
 62
     3
 10
21375.658941500002
 20
19218.755955000001
 30
0.0
 11
21375.658941500002
 21
19225.761471000009
 31
0.0
  0
LINE
  5
31F1
  8
2-0
  6
CONTINUOUS
 62
     3
 10
21375.658941500002
 20
19225.761471000009
 30
0.0
 11
21380.6592045
 21
19225.761471000009
 31
0.0
  0
LINE
  5
31F2
  8
2-0
  6
CONTINUOUS
 62
     3
 10
21380.6592045
 20
19225.761471000009
 30
0.0
 11
21380.6592045
 21
19200.752234
 31
0.0
  0
LINE
  5
31F3
  8
2-0
  6
CONTINUOUS
 62
     3
 10
21380.6592045
 20
19200.752234
 30
0.0
 11
21362.665381499999
 21
19200.752234
 31
0.0
  0
LINE
  5
31F4
  8
2-0
  6
CONTINUOUS
 62
     3
 10
21362.665381499999
 20
19200.752234
 30
0.0
 11
21362.665381499999
 21
19230.75579700002
 31
0.0
  0
LINE
  5
31F5
  8
2-0
  6
CONTINUOUS
 62
     3
 10
21378.756887499989
 20
19200.752234
 30
0.0
 11
21372.758946499998
 21
19200.752234
 31
0.0
  0
LINE
  5
31F6
  8
2-0
  6
CONTINUOUS
 62
     3
 10
21372.758946499998
 20
19200.752234
 30
0.0
 11
21372.758946499998
 21
19230.75579700002
 31
0.0
  0
LINE
  5
31F7
  8
2-0
  6
CONTINUOUS
 62
     3
 10
21409.760107499998
 20
19230.75579700002
 30
0.0
 11
21372.758946499998
 21
19230.75579700002
 31
0.0
  0
LINE
  5
31F8
  8
2-0
  6
CONTINUOUS
 62
     3
 10
21409.760107499998
 20
19200.752234
 30
0.0
 11
21409.760107499998
 21
19230.75579700002
 31
0.0
  0
LINE
  5
31F9
  8
2-0
  6
CONTINUOUS
 62
     3
 10
21403.754248500009
 20
19200.752234
 30
0.0
 11
21409.760107499998
 21
19200.752234
 31
0.0
  0
LINE
  5
31FA
  8
2-0
  6
CONTINUOUS
 62
     3
 10
21419.853672500009
 20
19200.752234
 30
0.0
 11
21419.853672500009
 21
19230.75579700002
 31
0.0
  0
LINE
  5
31FB
  8
2-0
  6
CONTINUOUS
 62
     3
 10
21401.8578695
 20
19200.752234
 30
0.0
 11
21419.853672500009
 21
19200.752234
 31
0.0
  0
LINE
  5
31FC
  8
2-0
  6
CONTINUOUS
 62
     3
 10
21401.8578695
 20
19225.761471000009
 30
0.0
 11
21401.8578695
 21
19200.752234
 31
0.0
  0
LINE
  5
31FD
  8
2-0
  6
CONTINUOUS
 62
     3
 10
21406.848235500001
 20
19225.761471000009
 30
0.0
 11
21401.8578695
 21
19225.761471000009
 31
0.0
  0
LINE
  5
31FE
  8
2-0
  6
CONTINUOUS
 62
     3
 10
21406.848235500001
 20
19218.755955000001
 30
0.0
 11
21406.848235500001
 21
19225.761471000009
 31
0.0
  0
LINE
  5
31FF
  8
2-0
  6
CONTINUOUS
 62
     3
 10
20718.854662500002
 20
19230.75579700002
 30
0.0
 11
21362.665381499999
 21
19230.75579700002
 31
0.0
  0
LINE
  5
3200
  8
2-0
  6
CONTINUOUS
 62
     3
 10
20018.05855300001
 20
19230.75579700002
 30
0.0
 11
20661.66439150001
 21
19230.75579700002
 31
0.0
  0
LINE
  5
3201
  8
2-0
  6
CONTINUOUS
 62
     3
 10
22768.14315700001
 20
19230.75579700002
 30
0.0
 11
22120.85763200001
 21
19230.75579700002
 31
0.0
  0
LINE
  5
3202
  8
2-0
  6
CONTINUOUS
 62
     3
 10
22063.66538100001
 20
19230.75579700002
 30
0.0
 11
21419.853672500009
 21
19230.75579700002
 31
0.0
  0
LINE
  5
3203
  8
2-0
  6
CONTINUOUS
 62
     3
 10
20004.851204999999
 20
19218.755955000001
 30
0.0
 11
20004.851204999999
 21
19225.761471000009
 31
0.0
  0
LINE
  5
3204
  8
2-0
  6
CONTINUOUS
 62
     3
 10
20004.851204999999
 20
19225.761471000009
 30
0.0
 11
19999.850941000001
 21
19225.761471000009
 31
0.0
  0
LINE
  5
3205
  8
2-0
  6
CONTINUOUS
 62
     3
 10
19999.850941000001
 20
19225.761471000009
 30
0.0
 11
19999.850941000001
 21
19200.752234
 31
0.0
  0
LINE
  5
3206
  8
2-0
  6
CONTINUOUS
 62
     3
 10
19999.850941000001
 20
19200.752234
 30
0.0
 11
20017.852683000001
 21
19200.752234
 31
0.0
  0
LINE
  5
3207
  8
2-0
  6
CONTINUOUS
 62
     3
 10
20017.852683000001
 20
19200.752234
 30
0.0
 11
20017.852683000001
 21
19230.75579700002
 31
0.0
  0
LINE
  5
3208
  8
2-0
  6
CONTINUOUS
 62
     3
 10
20001.753258000019
 20
19200.752234
 30
0.0
 11
20007.757138000001
 21
19200.752234
 31
0.0
  0
LINE
  5
3209
  8
2-0
  6
CONTINUOUS
 62
     3
 10
20007.757138000001
 20
19200.752234
 30
0.0
 11
20007.757138000001
 21
19230.75579700002
 31
0.0
  0
LINE
  5
320A
  8
2-0
  6
CONTINUOUS
 62
     3
 10
19970.761915999989
 20
19230.75579700002
 30
0.0
 11
20007.757138000001
 21
19230.75579700002
 31
0.0
  0
LINE
  5
320B
  8
2-0
  6
CONTINUOUS
 62
     3
 10
19970.761915999989
 20
19200.752234
 30
0.0
 11
19970.761915999989
 21
19230.75579700002
 31
0.0
  0
LINE
  5
320C
  8
2-0
  6
CONTINUOUS
 62
     3
 10
19976.75589800001
 20
19200.752234
 30
0.0
 11
19970.761915999989
 21
19200.752234
 31
0.0
  0
LINE
  5
320D
  8
2-0
  6
CONTINUOUS
 62
     3
 10
19960.666370999999
 20
19200.752234
 30
0.0
 11
19960.666370999999
 21
19230.75579700002
 31
0.0
  0
LINE
  5
320E
  8
2-0
  6
CONTINUOUS
 62
     3
 10
19978.662174000001
 20
19200.752234
 30
0.0
 11
19960.666370999999
 21
19200.752234
 31
0.0
  0
LINE
  5
320F
  8
2-0
  6
CONTINUOUS
 62
     3
 10
19978.662174000001
 20
19225.761471000009
 30
0.0
 11
19978.662174000001
 21
19200.752234
 31
0.0
  0
LINE
  5
3210
  8
2-0
  6
CONTINUOUS
 62
     3
 10
19973.663890000022
 20
19225.761471000009
 30
0.0
 11
19978.662174000001
 21
19225.761471000009
 31
0.0
  0
LINE
  5
3211
  8
2-0
  6
CONTINUOUS
 62
     3
 10
19973.663890000022
 20
19218.755955000001
 30
0.0
 11
19973.663890000022
 21
19225.761471000009
 31
0.0
  0
LINE
  5
3212
  8
2-0
  6
CONTINUOUS
 62
     3
 10
19664.56476899999
 20
19230.75579700002
 30
0.0
 11
19960.666370999999
 21
19230.75579700002
 31
0.0
  0
LINE
  5
3213
  8
2-0
  6
CONTINUOUS
 62
     3
 10
22892.75781100001
 20
15133.396949000011
 30
0.0
 11
22892.75781100001
 21
14489.358091
 31
0.0
  0
LINE
  5
3214
  8
2-0
  6
CONTINUOUS
 62
     3
 10
22892.75781100001
 20
14432.161881
 30
0.0
 11
22892.75781100001
 21
14135.795518999999
 31
0.0
  0
CIRCLE
  5
3215
  8
2-0
  6
CONTINUOUS
 62
     4
 10
22850.259527000009
 20
20630.760416000008
 30
0.0
 40
200.00001
  0
TEXT
  5
3216
  8
2-0
  6
CONTINUOUS
 62
     7
 10
22798.627744000009
 20
20535.234787000009
 30
0.0
 40
160.0
  1
2
 72
     4
 11
22851.961077333341
 21
20615.234787000009
 31
0.0
  0
LINE
  5
3217
  8
0-6
  6
CONTINUOUS
 62
     6
 10
19933.083785499999
 20
18519.437569000002
 30
0.0
 11
20958.124035500001
 21
18519.437569000002
 31
0.0
  0
LINE
  5
3218
  8
0-6
  6
CONTINUOUS
 62
     6
 10
21258.048813500009
 20
19076.790821000021
 30
0.0
 11
21362.66439150001
 21
19200.752234
 31
0.0
  0
LINE
  5
3219
  8
0-6
  6
CONTINUOUS
 62
     6
 10
21362.66439150001
 20
19200.752234
 30
0.0
 11
21303.906341499998
 21
19049.56056400001
 31
0.0
  0
LINE
  5
321A
  8
0-6
  6
CONTINUOUS
 62
     6
 10
21362.66439150001
 20
19200.752234
 30
0.0
 11
21258.048813500009
 21
19076.790821000021
 31
0.0
  0
LINE
  5
321B
  8
0-6
  6
CONTINUOUS
 62
     6
 10
21258.048813500009
 20
19076.790821000021
 30
0.0
 11
21303.906341499998
 21
19049.56056400001
 31
0.0
  0
LINE
  5
321C
  8
0-6
  6
CONTINUOUS
 62
     6
 10
21303.906341499998
 20
19049.56056400001
 30
0.0
 11
21362.66439150001
 21
19200.752234
 31
0.0
  0
LINE
  5
321D
  8
0-6
  6
CONTINUOUS
 62
     6
 10
21303.906341499998
 20
19049.56056400001
 30
0.0
 11
21258.048813500009
 21
19076.790821000021
 31
0.0
  0
LINE
  5
321E
  8
0-6
  6
CONTINUOUS
 62
     6
 10
21280.977577500002
 20
19063.177672000009
 30
0.0
 11
20958.124035500001
 21
18519.437569000002
 31
0.0
  0
TEXT
  5
321F
  8
0-6
  6
CONTINUOUS
 62
     7
 10
20013.084049500008
 20
18599.439813000001
 30
0.0
 40
160.0
  1
間柱（後）
 72
     4
 11
20434.417382833341
 21
18679.439813000001
 31
0.0
  0
LINE
  5
3220
  8
SUNPOU
  6
CONTINUOUS
 10
8997.2576519999911
 20
19410.753421000009
 30
0.0
 11
8997.2576519999911
 21
20207.72068877846
 31
0.0
  0
LINE
  5
3221
  8
SUNPOU
  6
CONTINUOUS
 10
8997.2576519999911
 20
13860.762197
 30
0.0
 11
8997.2576519999911
 21
13185.33608118962
 31
0.0
  0
LINE
  5
3222
  8
SUNPOU
  6
CONTINUOUS
 10
9076.5136060000114
 20
9259.4613089999966
 30
0.0
 11
8601.2244933597794
 21
9259.4613089999966
 31
0.0
  0
LINE
  5
3225
  8
WAKUSEN-01
 10
868.00000000000193
 20
22484.000000000011
 30
0.0
 11
32764.000000000011
 21
22484.000000000011
 31
0.0
  0
LINE
  5
3228
  8
WAKUSEN-01
 10
20560.0
 20
2484.0
 30
0.0
 11
32764.0
 21
2484.0
 31
0.0
  0
LINE
  5
3229
  8
WAKUSEN-02
 10
20560.0
 20
1655.9999999999991
 30
0.0
 11
26868.0
 21
1655.9999999999991
 31
0.0
  0
TEXT
  5
322A
  8
WAKUMOJI-01
 10
20670.260259962761
 20
2125.9030093393221
 30
0.0
 40
240.0
  1
名　称
  7
WAKUMOJI
  0
TEXT
  5
322B
  8
WAKUMOJI-01
 10
20656.505485091919
 20
1319.12897497982
 30
0.0
 40
240.0
  1
機種名
  7
WAKUMOJI
  0
LINE
  5
322E
  8
YODOROGO
 10
29977.604341291921
 20
1995.7494964292871
 30
0.0
 11
29829.604341291921
 21
1995.7494964292871
 31
0.0
1001
AUTOCAD_POSTSCRIPT_FIGURE
1002
{
1000
PSFILL
1000
Grayscale
1000
Grayscale
1070
    25
1002
}
  0
LINE
  5
322F
  8
YODOROGO
 10
29829.604341291921
 20
1947.749496429288
 30
0.0
 11
29977.604341291921
 21
1947.749496429288
 31
0.0
1001
AUTOCAD_POSTSCRIPT_FIGURE
1002
{
1000
PSFILL
1000
Grayscale
1000
Grayscale
1070
    25
1002
}
  0
LINE
  5
3230
  8
YODOROGO
 10
29977.604341291921
 20
1907.7494964292871
 30
0.0
 11
29829.604341291921
 21
1907.7494964292871
 31
0.0
1001
AUTOCAD_POSTSCRIPT_FIGURE
1002
{
1000
PSFILL
1000
Grayscale
1000
Grayscale
1070
    25
1002
}
  0
LINE
  5
3231
  8
YODOROGO
 10
29829.604341291921
 20
1859.749496429288
 30
0.0
 11
29977.604341291921
 21
1859.749496429288
 31
0.0
1001
AUTOCAD_POSTSCRIPT_FIGURE
1002
{
1000
PSFILL
1000
Grayscale
1000
Grayscale
1070
    25
1002
}
  0
LINE
  5
3232
  8
YODOROGO
 10
29977.604341291921
 20
1819.7494964292871
 30
0.0
 11
29829.604341291921
 21
1819.7494964292871
 31
0.0
1001
AUTOCAD_POSTSCRIPT_FIGURE
1002
{
1000
PSFILL
1000
Grayscale
1000
Grayscale
1070
    25
1002
}
  0
LINE
  5
3233
  8
YODOROGO
 10
29921.60434129191
 20
1707.749496429288
 30
0.0
 11
29977.604341291921
 21
1707.749496429288
 31
0.0
1001
AUTOCAD_POSTSCRIPT_FIGURE
1002
{
1000
PSFILL
1000
Grayscale
1000
Grayscale
1070
    25
1002
}
  0
LINE
  5
3234
  8
YODOROGO
 10
29737.604341291921
 20
1427.749496429288
 30
0.0
 11
29937.604341291932
 21
1481.3393349155101
 31
0.0
  0
LINE
  5
3235
  8
YODOROGO
 10
29949.60434129191
 20
1707.749496429288
 30
0.0
 11
29885.604341291921
 21
1707.749496429288
 31
0.0
  0
ARC
  5
3236
  8
YODOROGO
 10
30254.34774982791
 20
1807.864609233261
 30
0.0
 40
381.88686420564721
 50
213.96111677667841
 51
264.47872074317792
  0
ARC
  5
3237
  8
YODOROGO
 10
30254.347749827921
 20
1807.864609233302
 30
0.0
 40
381.8868642056816
 50
208.14114420486601
 51
212.9210361185994
  0
LINE
  5
3238
  8
YODOROGO
 10
29771.409872985321
 20
1556.807661346234
 30
0.0
 11
29933.78413250855
 21
1600.3157130570869
 31
0.0
  0
LINE
  5
3239
  8
YODOROGO
 10
29737.604341291921
 20
1427.749496429288
 30
0.0
 11
29937.604341291932
 21
1481.3393349155101
 31
0.0
  0
LINE
  5
323A
  8
YODOROGO
 10
29949.60434129191
 20
1707.749496429288
 30
0.0
 11
29885.604341291921
 21
1707.749496429288
 31
0.0
  0
ARC
  5
323B
  8
YODOROGO
 10
30254.34774982791
 20
1807.864609233261
 30
0.0
 40
381.88686420564721
 50
213.96111677667841
 51
264.47872074317792
  0
LINE
  5
323C
  8
YODOROGO
 10
28793.60434129191
 20
1819.7494964292871
 30
0.0
 11
28433.60434129191
 21
1819.7494964292871
 31
0.0
  0
LINE
  5
323D
  8
YODOROGO
 10
28513.60434129191
 20
1427.749496429288
 30
0.0
 11
28793.60434129191
 21
1427.749496429288
 31
0.0
  0
LINE
  5
323E
  8
YODOROGO
 10
28729.604341291921
 20
1923.7494964292871
 30
0.0
 11
28497.60434129191
 21
1923.7494964292871
 31
0.0
  0
LINE
  5
323F
  8
YODOROGO
 10
28585.604341291921
 20
2027.749496429288
 30
0.0
 11
28657.604341291921
 21
2027.749496429288
 31
0.0
  0
LINE
  5
3240
  8
YODOROGO
 10
28433.60434129191
 20
1707.749496429288
 30
0.0
 11
28433.60434129191
 21
1507.749496429288
 31
0.0
  0
LINE
  5
3241
  8
YODOROGO
 10
28497.60434129191
 20
1563.7494964292871
 30
0.0
 11
28497.60434129191
 21
1707.749496429288
 31
0.0
  0
LINE
  5
3242
  8
YODOROGO
 10
28585.604341291921
 20
1747.74949642929
 30
0.0
 11
28585.604341291921
 21
1547.749496429288
 31
0.0
  0
LINE
  5
3243
  8
YODOROGO
 10
27857.604341291921
 20
1683.749496429288
 30
0.0
 11
27777.604341291921
 21
1619.9724140445701
 31
0.0
  0
LINE
  5
3244
  8
YODOROGO
 10
27937.604341291921
 20
1619.9724140445701
 30
0.0
 11
27857.604341291921
 21
1683.749496429288
 31
0.0
  0
LINE
  5
3245
  8
YODOROGO
 10
27857.604341291921
 20
1707.749496429288
 30
0.0
 11
27937.604341291921
 21
1643.9724140445701
 31
0.0
  0
LINE
  5
3246
  8
YODOROGO
 10
27777.604341291921
 20
1643.9724140445701
 30
0.0
 11
27857.604341291921
 21
1707.749496429288
 31
0.0
  0
LINE
  5
3247
  8
YODOROGO
 10
28040.913204016892
 20
1659.749496429288
 30
0.0
 11
28040.913204016892
 21
1683.7494964292871
 31
0.0
  0
LINE
  5
3248
  8
YODOROGO
 10
27977.604341291921
 20
1683.7494964292871
 30
0.0
 11
27977.604341291921
 21
1667.749496429285
 31
0.0
  0
LINE
  5
3249
  8
YODOROGO
 10
28098.135520230931
 20
1707.749496429288
 30
0.0
 11
28098.135520230931
 21
1655.5036372746561
 31
0.0
1001
AUTOCAD_POSTSCRIPT_FIGURE
1002
{
1000
PSFILL
1000
Grayscale
1000
Grayscale
1070
   100
1002
}
  0
LINE
  5
324A
  8
YODOROGO
 10
28082.135520230921
 20
1655.5036372746561
 30
0.0
 11
28082.135520230921
 21
1707.749496429288
 31
0.0
1001
AUTOCAD_POSTSCRIPT_FIGURE
1002
{
1000
PSFILL
1000
Grayscale
1000
Grayscale
1070
   100
1002
}
  0
LINE
  5
324B
  8
YODOROGO
 10
27809.604341291921
 20
1608.771904043258
 30
0.0
 11
27809.604341291921
 21
1632.771904043258
 31
0.0
  0
LINE
  5
324C
  8
YODOROGO
 10
27905.604341291921
 20
1608.771904043258
 30
0.0
 11
27809.604341291921
 21
1608.771904043258
 31
0.0
  0
LINE
  5
324D
  8
YODOROGO
 10
27905.604341291921
 20
1632.771904043258
 30
0.0
 11
27905.604341291921
 21
1608.771904043258
 31
0.0
  0
LINE
  5
324E
  8
YODOROGO
 10
27809.604341291921
 20
1632.771904043258
 30
0.0
 11
27905.604341291921
 21
1632.771904043258
 31
0.0
  0
LINE
  5
324F
  8
YODOROGO
 10
27824.509588915738
 20
1568.5028573704751
 30
0.0
 11
27785.604341291921
 21
1475.7494964292871
 31
0.0
1001
AUTOCAD_POSTSCRIPT_FIGURE
1002
{
1000
PSFILL
1000
Grayscale
1000
Grayscale
1070
   100
1002
}
  0
LINE
  5
3250
  8
YODOROGO
 10
27777.604341291921
 20
1568.5028573704751
 30
0.0
 11
27824.509588915738
 21
1568.5028573704751
 31
0.0
1001
AUTOCAD_POSTSCRIPT_FIGURE
1002
{
1000
PSFILL
1000
Grayscale
1000
Grayscale
1070
   100
1002
}
  0
LINE
  5
3251
  8
YODOROGO
 10
27777.604341291921
 20
1588.5028573704751
 30
0.0
 11
27777.604341291921
 21
1568.5028573704751
 31
0.0
1001
AUTOCAD_POSTSCRIPT_FIGURE
1002
{
1000
PSFILL
1000
Grayscale
1000
Grayscale
1070
   100
1002
}
  0
LINE
  5
3252
  8
YODOROGO
 10
27937.604341291921
 20
1588.5028573704751
 30
0.0
 11
27777.604341291921
 21
1588.5028573704751
 31
0.0
1001
AUTOCAD_POSTSCRIPT_FIGURE
1002
{
1000
PSFILL
1000
Grayscale
1000
Grayscale
1070
   100
1002
}
  0
LINE
  5
3253
  8
YODOROGO
 10
27937.604341291921
 20
1568.5028573704751
 30
0.0
 11
27937.604341291921
 21
1588.5028573704751
 31
0.0
1001
AUTOCAD_POSTSCRIPT_FIGURE
1002
{
1000
PSFILL
1000
Grayscale
1000
Grayscale
1070
   100
1002
}
  0
LINE
  5
3254
  8
YODOROGO
 10
27844.509588915738
 20
1568.5028573704751
 30
0.0
 11
27937.604341291921
 21
1568.5028573704751
 31
0.0
1001
AUTOCAD_POSTSCRIPT_FIGURE
1002
{
1000
PSFILL
1000
Grayscale
1000
Grayscale
1070
   100
1002
}
  0
LINE
  5
3255
  8
YODOROGO
 10
27815.546718284771
 20
1495.7494964292871
 30
0.0
 11
27844.509588915738
 21
1568.5028573704751
 31
0.0
1001
AUTOCAD_POSTSCRIPT_FIGURE
1002
{
1000
PSFILL
1000
Grayscale
1000
Grayscale
1070
   100
1002
}
  0
LINE
  5
3256
  8
YODOROGO
 10
27902.054790808648
 20
1495.7494964292871
 30
0.0
 11
27815.546718284771
 21
1495.7494964292871
 31
0.0
1001
AUTOCAD_POSTSCRIPT_FIGURE
1002
{
1000
PSFILL
1000
Grayscale
1000
Grayscale
1070
   100
1002
}
  0
LINE
  5
3257
  8
YODOROGO
 10
27885.065004790951
 20
1536.2338106976929
 30
0.0
 11
27902.054790808648
 21
1495.7494964292871
 31
0.0
1001
AUTOCAD_POSTSCRIPT_FIGURE
1002
{
1000
PSFILL
1000
Grayscale
1000
Grayscale
1070
   100
1002
}
  0
LINE
  5
3258
  8
YODOROGO
 10
27901.065004790951
 20
1536.2338106976929
 30
0.0
 11
27885.065004790951
 21
1536.2338106976929
 31
0.0
1001
AUTOCAD_POSTSCRIPT_FIGURE
1002
{
1000
PSFILL
1000
Grayscale
1000
Grayscale
1070
   100
1002
}
  0
LINE
  5
3259
  8
YODOROGO
 10
27929.604341291921
 20
1475.7494964292871
 30
0.0
 11
27901.065004790951
 21
1536.2338106976929
 31
0.0
1001
AUTOCAD_POSTSCRIPT_FIGURE
1002
{
1000
PSFILL
1000
Grayscale
1000
Grayscale
1070
   100
1002
}
  0
LINE
  5
325A
  8
YODOROGO
 10
27785.604341291921
 20
1475.7494964292871
 30
0.0
 11
27929.604341291921
 21
1475.7494964292871
 31
0.0
1001
AUTOCAD_POSTSCRIPT_FIGURE
1002
{
1000
PSFILL
1000
Grayscale
1000
Grayscale
1070
   100
1002
}
  0
LINE
  5
325B
  8
YODOROGO
 10
27777.604341291921
 20
1619.9724140445701
 30
0.0
 11
27777.604341291921
 21
1643.9724140445701
 31
0.0
  0
LINE
  5
325C
  8
YODOROGO
 10
27937.604341291921
 20
1643.9724140445701
 30
0.0
 11
27937.604341291921
 21
1619.9724140445701
 31
0.0
  0
ARC
  5
325D
  8
YODOROGO
 10
28225.940442146959
 20
1600.877765325326
 30
0.0
 40
175.9999999999998
 50
280.3644312771313
 51
3.5414836592180561
  0
ARC
  5
325E
  8
YODOROGO
 10
28235.756030759301
 20
1633.5978069619041
 30
0.0
 40
111.9999999999982
 50
281.24905825041549
 51
348.75094174958321
  0
LINE
  5
325F
  8
YODOROGO
 10
28257.604341291921
 20
1523.7494964292871
 30
0.0
 11
28257.604341291921
 21
1427.749496429288
 31
0.0
  0
LINE
  5
3260
  8
YODOROGO
 10
28020.088903736909
 20
1610.650565061914
 30
0.0
 11
28040.913204016892
 21
1659.749496429288
 31
0.0
  0
LINE
  5
3261
  8
YODOROGO
 10
28041.604341291921
 20
1583.120489948401
 30
0.0
 11
28020.088903736909
 21
1610.650565061914
 31
0.0
  0
LINE
  5
3262
  8
YODOROGO
 10
28041.604341291921
 20
1563.120489948398
 30
0.0
 11
28041.604341291921
 21
1583.120489948401
 31
0.0
  0
LINE
  5
3263
  8
YODOROGO
 10
28017.604341291921
 20
1585.2370637495301
 30
0.0
 11
28041.604341291921
 21
1563.120489948398
 31
0.0
  0
LINE
  5
3264
  8
YODOROGO
 10
28017.604341291921
 20
1475.7494964292871
 30
0.0
 11
28017.604341291921
 21
1585.2370637495301
 31
0.0
  0
LINE
  5
3265
  8
YODOROGO
 10
28001.604341291921
 20
1475.7494964292871
 30
0.0
 11
28017.604341291921
 21
1475.7494964292871
 31
0.0
  0
LINE
  5
3266
  8
YODOROGO
 10
28001.604341291921
 20
1580.0053496897469
 30
0.0
 11
28001.604341291921
 21
1475.7494964292871
 31
0.0
  0
LINE
  5
3267
  8
YODOROGO
 10
27977.604341291921
 20
1532.7680790334291
 30
0.0
 11
28001.604341291921
 21
1580.0053496897469
 31
0.0
  0
LINE
  5
3268
  8
YODOROGO
 10
27977.604341291921
 20
1556.76807903343
 30
0.0
 11
27977.604341291921
 21
1532.7680790334291
 31
0.0
  0
LINE
  5
3269
  8
YODOROGO
 10
28025.828774291349
 20
1667.749496429285
 30
0.0
 11
27977.604341291921
 21
1556.76807903343
 31
0.0
  0
LINE
  5
326A
  8
YODOROGO
 10
27977.604341291921
 20
1667.749496429285
 30
0.0
 11
28025.828774291349
 21
1667.749496429285
 31
0.0
  0
LINE
  5
326B
  8
YODOROGO
 10
28050.135520230899
 20
1655.5036372746561
 30
0.0
 11
28082.135520230921
 21
1655.5036372746561
 31
0.0
1001
AUTOCAD_POSTSCRIPT_FIGURE
1002
{
1000
PSFILL
1000
Grayscale
1000
Grayscale
1070
   100
1002
}
  0
LINE
  5
326C
  8
YODOROGO
 10
28050.135520230899
 20
1631.5036372746561
 30
0.0
 11
28050.135520230899
 21
1655.5036372746561
 31
0.0
1001
AUTOCAD_POSTSCRIPT_FIGURE
1002
{
1000
PSFILL
1000
Grayscale
1000
Grayscale
1070
   100
1002
}
  0
LINE
  5
326D
  8
YODOROGO
 10
28082.135520230921
 20
1631.5036372746561
 30
0.0
 11
28050.135520230899
 21
1631.5036372746561
 31
0.0
1001
AUTOCAD_POSTSCRIPT_FIGURE
1002
{
1000
PSFILL
1000
Grayscale
1000
Grayscale
1070
   100
1002
}
  0
LINE
  5
326E
  8
YODOROGO
 10
28082.135520230921
 20
1499.749496429288
 30
0.0
 11
28082.135520230921
 21
1631.5036372746561
 31
0.0
1001
AUTOCAD_POSTSCRIPT_FIGURE
1002
{
1000
PSFILL
1000
Grayscale
1000
Grayscale
1070
   100
1002
}
  0
LINE
  5
326F
  8
YODOROGO
 10
28050.135520230921
 20
1499.749496429288
 30
0.0
 11
28082.135520230921
 21
1499.749496429288
 31
0.0
1001
AUTOCAD_POSTSCRIPT_FIGURE
1002
{
1000
PSFILL
1000
Grayscale
1000
Grayscale
1070
   100
1002
}
  0
LINE
  5
3270
  8
YODOROGO
 10
28050.135520230921
 20
1475.7494964292871
 30
0.0
 11
28050.135520230921
 21
1499.749496429288
 31
0.0
1001
AUTOCAD_POSTSCRIPT_FIGURE
1002
{
1000
PSFILL
1000
Grayscale
1000
Grayscale
1070
   100
1002
}
  0
LINE
  5
3271
  8
YODOROGO
 10
28137.604341291921
 20
1475.7494964292871
 30
0.0
 11
28050.135520230921
 21
1475.7494964292871
 31
0.0
1001
AUTOCAD_POSTSCRIPT_FIGURE
1002
{
1000
PSFILL
1000
Grayscale
1000
Grayscale
1070
   100
1002
}
  0
LINE
  5
3272
  8
YODOROGO
 10
28137.604341291921
 20
1499.749496429288
 30
0.0
 11
28137.604341291921
 21
1475.7494964292871
 31
0.0
1001
AUTOCAD_POSTSCRIPT_FIGURE
1002
{
1000
PSFILL
1000
Grayscale
1000
Grayscale
1070
   100
1002
}
  0
LINE
  5
3273
  8
YODOROGO
 10
28098.135520230931
 20
1499.749496429288
 30
0.0
 11
28137.604341291921
 21
1499.749496429288
 31
0.0
1001
AUTOCAD_POSTSCRIPT_FIGURE
1002
{
1000
PSFILL
1000
Grayscale
1000
Grayscale
1070
   100
1002
}
  0
LINE
  5
3274
  8
YODOROGO
 10
28098.135520230931
 20
1631.5036372746561
 30
0.0
 11
28098.135520230931
 21
1499.749496429288
 31
0.0
1001
AUTOCAD_POSTSCRIPT_FIGURE
1002
{
1000
PSFILL
1000
Grayscale
1000
Grayscale
1070
   100
1002
}
  0
LINE
  5
3275
  8
YODOROGO
 10
28137.604341291921
 20
1631.5036372746561
 30
0.0
 11
28098.135520230931
 21
1631.5036372746561
 31
0.0
1001
AUTOCAD_POSTSCRIPT_FIGURE
1002
{
1000
PSFILL
1000
Grayscale
1000
Grayscale
1070
   100
1002
}
  0
LINE
  5
3276
  8
YODOROGO
 10
28137.604341291921
 20
1655.5036372746561
 30
0.0
 11
28137.604341291921
 21
1631.5036372746561
 31
0.0
1001
AUTOCAD_POSTSCRIPT_FIGURE
1002
{
1000
PSFILL
1000
Grayscale
1000
Grayscale
1070
   100
1002
}
  0
LINE
  5
3277
  8
YODOROGO
 10
28098.135520230931
 20
1655.5036372746561
 30
0.0
 11
28137.604341291921
 21
1655.5036372746561
 31
0.0
1001
AUTOCAD_POSTSCRIPT_FIGURE
1002
{
1000
PSFILL
1000
Grayscale
1000
Grayscale
1070
   100
1002
}
  0
LINE
  5
3278
  8
YODOROGO
 10
28401.60434129191
 20
1667.749496429288
 30
0.0
 11
28345.604341291921
 21
1667.749496429288
 31
0.0
  0
LINE
  5
3279
  8
YODOROGO
 10
28401.60434129191
 20
1611.749496429288
 30
0.0
 11
28401.60434129191
 21
1667.749496429288
 31
0.0
  0
LINE
  5
327A
  8
YODOROGO
 10
28345.604341291921
 20
1667.749496429288
 30
0.0
 11
28345.604341291921
 21
1611.749496429288
 31
0.0
  0
ARC
  5
327B
  8
YODOROGO
 10
28513.60434129191
 20
1507.749496429288
 30
0.0
 40
80.0
 50
180.0
 51
270.0
  0
ARC
  5
327C
  8
YODOROGO
 10
28537.604341291921
 20
1563.7494964292871
 30
0.0
 40
40.0
 50
180.0
 51
270.0
  0
LINE
  5
327D
  8
YODOROGO
 10
28561.604341291932
 20
1523.7494964292871
 30
0.0
 11
28537.604341291921
 21
1523.7494964292871
 31
0.0
  0
ARC
  5
327E
  8
YODOROGO
 10
28561.604341291932
 20
1547.749496429285
 30
0.0
 40
23.999999999996358
 50
270.0
 51
0.0000000000054281
  0
LINE
  5
327F
  8
YODOROGO
 10
27801.604341291921
 20
1890.786580793706
 30
0.0
 11
27777.604341291921
 21
1843.776747951672
 31
0.0
1001
AUTOCAD_POSTSCRIPT_FIGURE
1002
{
1000
PSFILL
1000
Grayscale
1000
Grayscale
1070
   100
1002
}
  0
LINE
  5
3280
  8
YODOROGO
 10
27801.604341291921
 20
1747.749496429286
 30
0.0
 11
27801.604341291921
 21
1890.786580793706
 31
0.0
1001
AUTOCAD_POSTSCRIPT_FIGURE
1002
{
1000
PSFILL
1000
Grayscale
1000
Grayscale
1070
   100
1002
}
  0
LINE
  5
3281
  8
YODOROGO
 10
27817.604341291921
 20
1747.749496429286
 30
0.0
 11
27801.604341291921
 21
1747.749496429286
 31
0.0
1001
AUTOCAD_POSTSCRIPT_FIGURE
1002
{
1000
PSFILL
1000
Grayscale
1000
Grayscale
1070
   100
1002
}
  0
LINE
  5
3282
  8
YODOROGO
 10
27817.604341291921
 20
1893.7713320852661
 30
0.0
 11
27817.604341291921
 21
1747.749496429286
 31
0.0
1001
AUTOCAD_POSTSCRIPT_FIGURE
1002
{
1000
PSFILL
1000
Grayscale
1000
Grayscale
1070
   100
1002
}
  0
LINE
  5
3283
  8
YODOROGO
 10
27841.604341291921
 20
1867.6547582841361
 30
0.0
 11
27817.604341291921
 21
1893.7713320852661
 31
0.0
1001
AUTOCAD_POSTSCRIPT_FIGURE
1002
{
1000
PSFILL
1000
Grayscale
1000
Grayscale
1070
   100
1002
}
  0
LINE
  5
3284
  8
YODOROGO
 10
27841.604341291921
 20
1883.6547582841361
 30
0.0
 11
27841.604341291921
 21
1867.6547582841361
 31
0.0
1001
AUTOCAD_POSTSCRIPT_FIGURE
1002
{
1000
PSFILL
1000
Grayscale
1000
Grayscale
1070
   100
1002
}
  0
LINE
  5
3285
  8
YODOROGO
 10
27817.604341291921
 20
1917.7713320852649
 30
0.0
 11
27841.604341291921
 21
1883.6547582841361
 31
0.0
1001
AUTOCAD_POSTSCRIPT_FIGURE
1002
{
1000
PSFILL
1000
Grayscale
1000
Grayscale
1070
   100
1002
}
  0
LINE
  5
3286
  8
YODOROGO
 10
27817.604341291921
 20
1939.749496429288
 30
0.0
 11
27817.604341291921
 21
1917.7713320852649
 31
0.0
1001
AUTOCAD_POSTSCRIPT_FIGURE
1002
{
1000
PSFILL
1000
Grayscale
1000
Grayscale
1070
   100
1002
}
  0
LINE
  5
3287
  8
YODOROGO
 10
27889.604341291921
 20
1939.749496429288
 30
0.0
 11
27817.604341291921
 21
1939.749496429288
 31
0.0
1001
AUTOCAD_POSTSCRIPT_FIGURE
1002
{
1000
PSFILL
1000
Grayscale
1000
Grayscale
1070
   100
1002
}
  0
LINE
  5
3288
  8
YODOROGO
 10
27889.604341291921
 20
1900.5683489363
 30
0.0
 11
27889.604341291921
 21
1939.749496429288
 31
0.0
1001
AUTOCAD_POSTSCRIPT_FIGURE
1002
{
1000
PSFILL
1000
Grayscale
1000
Grayscale
1070
   100
1002
}
  0
LINE
  5
3289
  8
YODOROGO
 10
27857.604341291921
 20
1900.5683489363
 30
0.0
 11
27889.604341291921
 21
1900.5683489363
 31
0.0
1001
AUTOCAD_POSTSCRIPT_FIGURE
1002
{
1000
PSFILL
1000
Grayscale
1000
Grayscale
1070
   100
1002
}
  0
LINE
  5
328A
  8
YODOROGO
 10
27857.604341291921
 20
1884.568348936298
 30
0.0
 11
27857.604341291921
 21
1900.5683489363
 31
0.0
1001
AUTOCAD_POSTSCRIPT_FIGURE
1002
{
1000
PSFILL
1000
Grayscale
1000
Grayscale
1070
   100
1002
}
  0
LINE
  5
328B
  8
YODOROGO
 10
27889.604341291921
 20
1884.568348936298
 30
0.0
 11
27857.604341291921
 21
1884.568348936298
 31
0.0
1001
AUTOCAD_POSTSCRIPT_FIGURE
1002
{
1000
PSFILL
1000
Grayscale
1000
Grayscale
1070
   100
1002
}
  0
LINE
  5
328C
  8
YODOROGO
 10
27889.604341291921
 20
1879.6191779644371
 30
0.0
 11
27889.604341291921
 21
1884.568348936298
 31
0.0
1001
AUTOCAD_POSTSCRIPT_FIGURE
1002
{
1000
PSFILL
1000
Grayscale
1000
Grayscale
1070
   100
1002
}
  0
LINE
  5
328D
  8
YODOROGO
 10
27849.604341291921
 20
1812.974981161417
 30
0.0
 11
27889.604341291921
 21
1879.6191779644371
 31
0.0
1001
AUTOCAD_POSTSCRIPT_FIGURE
1002
{
1000
PSFILL
1000
Grayscale
1000
Grayscale
1070
   100
1002
}
  0
LINE
  5
328E
  8
YODOROGO
 10
27849.604341291921
 20
1796.9749811614161
 30
0.0
 11
27849.604341291921
 21
1812.974981161417
 31
0.0
1001
AUTOCAD_POSTSCRIPT_FIGURE
1002
{
1000
PSFILL
1000
Grayscale
1000
Grayscale
1070
   100
1002
}
  0
LINE
  5
328F
  8
YODOROGO
 10
27889.604341291921
 20
1847.6191779644359
 30
0.0
 11
27849.604341291921
 21
1796.9749811614161
 31
0.0
1001
AUTOCAD_POSTSCRIPT_FIGURE
1002
{
1000
PSFILL
1000
Grayscale
1000
Grayscale
1070
   100
1002
}
  0
LINE
  5
3290
  8
YODOROGO
 10
27889.604341291921
 20
1747.749496429286
 30
0.0
 11
27889.604341291921
 21
1847.6191779644359
 31
0.0
1001
AUTOCAD_POSTSCRIPT_FIGURE
1002
{
1000
PSFILL
1000
Grayscale
1000
Grayscale
1070
   100
1002
}
  0
LINE
  5
3291
  8
YODOROGO
 10
27905.604341291921
 20
1747.749496429286
 30
0.0
 11
27889.604341291921
 21
1747.749496429286
 31
0.0
1001
AUTOCAD_POSTSCRIPT_FIGURE
1002
{
1000
PSFILL
1000
Grayscale
1000
Grayscale
1070
   100
1002
}
  0
LINE
  5
3292
  8
YODOROGO
 10
27905.604341291921
 20
1849.409012158806
 30
0.0
 11
27905.604341291921
 21
1747.749496429286
 31
0.0
1001
AUTOCAD_POSTSCRIPT_FIGURE
1002
{
1000
PSFILL
1000
Grayscale
1000
Grayscale
1070
   100
1002
}
  0
LINE
  5
3293
  8
YODOROGO
 10
27937.604341291921
 20
1796.9749811614161
 30
0.0
 11
27905.604341291921
 21
1849.409012158806
 31
0.0
1001
AUTOCAD_POSTSCRIPT_FIGURE
1002
{
1000
PSFILL
1000
Grayscale
1000
Grayscale
1070
   100
1002
}
  0
LINE
  5
3294
  8
YODOROGO
 10
27937.604341291921
 20
1812.974981161417
 30
0.0
 11
27937.604341291921
 21
1796.9749811614161
 31
0.0
1001
AUTOCAD_POSTSCRIPT_FIGURE
1002
{
1000
PSFILL
1000
Grayscale
1000
Grayscale
1070
   100
1002
}
  0
LINE
  5
3295
  8
YODOROGO
 10
27905.604341291921
 20
1881.4090121588081
 30
0.0
 11
27937.604341291921
 21
1812.974981161417
 31
0.0
1001
AUTOCAD_POSTSCRIPT_FIGURE
1002
{
1000
PSFILL
1000
Grayscale
1000
Grayscale
1070
   100
1002
}
  0
LINE
  5
3296
  8
YODOROGO
 10
27905.604341291921
 20
1884.5683489363
 30
0.0
 11
27905.604341291921
 21
1881.4090121588081
 31
0.0
1001
AUTOCAD_POSTSCRIPT_FIGURE
1002
{
1000
PSFILL
1000
Grayscale
1000
Grayscale
1070
   100
1002
}
  0
LINE
  5
3297
  8
YODOROGO
 10
27937.604341291921
 20
1884.568348936298
 30
0.0
 11
27905.604341291921
 21
1884.5683489363
 31
0.0
1001
AUTOCAD_POSTSCRIPT_FIGURE
1002
{
1000
PSFILL
1000
Grayscale
1000
Grayscale
1070
   100
1002
}
  0
LINE
  5
3298
  8
YODOROGO
 10
27937.604341291921
 20
1900.5683489363
 30
0.0
 11
27937.604341291921
 21
1884.568348936298
 31
0.0
1001
AUTOCAD_POSTSCRIPT_FIGURE
1002
{
1000
PSFILL
1000
Grayscale
1000
Grayscale
1070
   100
1002
}
  0
LINE
  5
3299
  8
YODOROGO
 10
27905.604341291921
 20
1900.5683489363
 30
0.0
 11
27937.604341291921
 21
1900.5683489363
 31
0.0
1001
AUTOCAD_POSTSCRIPT_FIGURE
1002
{
1000
PSFILL
1000
Grayscale
1000
Grayscale
1070
   100
1002
}
  0
LINE
  5
329A
  8
YODOROGO
 10
27905.604341291921
 20
1939.749496429288
 30
0.0
 11
27905.604341291921
 21
1900.5683489363
 31
0.0
1001
AUTOCAD_POSTSCRIPT_FIGURE
1002
{
1000
PSFILL
1000
Grayscale
1000
Grayscale
1070
   100
1002
}
  0
LINE
  5
329B
  8
YODOROGO
 10
27937.604341291921
 20
1939.749496429288
 30
0.0
 11
27905.604341291921
 21
1939.749496429288
 31
0.0
1001
AUTOCAD_POSTSCRIPT_FIGURE
1002
{
1000
PSFILL
1000
Grayscale
1000
Grayscale
1070
   100
1002
}
  0
LINE
  5
329C
  8
YODOROGO
 10
27937.604341291921
 20
1955.7494964292871
 30
0.0
 11
27937.604341291921
 21
1939.749496429288
 31
0.0
1001
AUTOCAD_POSTSCRIPT_FIGURE
1002
{
1000
PSFILL
1000
Grayscale
1000
Grayscale
1070
   100
1002
}
  0
LINE
  5
329D
  8
YODOROGO
 10
27905.604341291921
 20
1955.7494964292871
 30
0.0
 11
27937.604341291921
 21
1955.7494964292871
 31
0.0
1001
AUTOCAD_POSTSCRIPT_FIGURE
1002
{
1000
PSFILL
1000
Grayscale
1000
Grayscale
1070
   100
1002
}
  0
LINE
  5
329E
  8
YODOROGO
 10
27905.604341291921
 20
1979.749496429288
 30
0.0
 11
27905.604341291921
 21
1955.7494964292871
 31
0.0
1001
AUTOCAD_POSTSCRIPT_FIGURE
1002
{
1000
PSFILL
1000
Grayscale
1000
Grayscale
1070
   100
1002
}
  0
LINE
  5
329F
  8
YODOROGO
 10
27889.604341291921
 20
1979.749496429288
 30
0.0
 11
27905.604341291921
 21
1979.749496429288
 31
0.0
1001
AUTOCAD_POSTSCRIPT_FIGURE
1002
{
1000
PSFILL
1000
Grayscale
1000
Grayscale
1070
   100
1002
}
  0
LINE
  5
32A0
  8
YODOROGO
 10
27889.604341291921
 20
1955.7494964292871
 30
0.0
 11
27889.604341291921
 21
1979.749496429288
 31
0.0
1001
AUTOCAD_POSTSCRIPT_FIGURE
1002
{
1000
PSFILL
1000
Grayscale
1000
Grayscale
1070
   100
1002
}
  0
LINE
  5
32A1
  8
YODOROGO
 10
27865.604341291921
 20
1955.7494964292871
 30
0.0
 11
27889.604341291921
 21
1955.7494964292871
 31
0.0
1001
AUTOCAD_POSTSCRIPT_FIGURE
1002
{
1000
PSFILL
1000
Grayscale
1000
Grayscale
1070
   100
1002
}
  0
LINE
  5
32A2
  8
YODOROGO
 10
27865.604341291921
 20
1979.749496429288
 30
0.0
 11
27865.604341291921
 21
1955.7494964292871
 31
0.0
1001
AUTOCAD_POSTSCRIPT_FIGURE
1002
{
1000
PSFILL
1000
Grayscale
1000
Grayscale
1070
   100
1002
}
  0
LINE
  5
32A3
  8
YODOROGO
 10
27849.604341291921
 20
1979.749496429288
 30
0.0
 11
27865.604341291921
 21
1979.749496429288
 31
0.0
1001
AUTOCAD_POSTSCRIPT_FIGURE
1002
{
1000
PSFILL
1000
Grayscale
1000
Grayscale
1070
   100
1002
}
  0
LINE
  5
32A4
  8
YODOROGO
 10
27849.604341291921
 20
1955.7494964292871
 30
0.0
 11
27849.604341291921
 21
1979.749496429288
 31
0.0
1001
AUTOCAD_POSTSCRIPT_FIGURE
1002
{
1000
PSFILL
1000
Grayscale
1000
Grayscale
1070
   100
1002
}
  0
LINE
  5
32A5
  8
YODOROGO
 10
27817.604341291921
 20
1955.7494964292871
 30
0.0
 11
27849.604341291921
 21
1955.7494964292871
 31
0.0
1001
AUTOCAD_POSTSCRIPT_FIGURE
1002
{
1000
PSFILL
1000
Grayscale
1000
Grayscale
1070
   100
1002
}
  0
LINE
  5
32A6
  8
YODOROGO
 10
27817.604341291921
 20
1979.749496429288
 30
0.0
 11
27817.604341291921
 21
1955.7494964292871
 31
0.0
1001
AUTOCAD_POSTSCRIPT_FIGURE
1002
{
1000
PSFILL
1000
Grayscale
1000
Grayscale
1070
   100
1002
}
  0
LINE
  5
32A7
  8
YODOROGO
 10
27801.604341291921
 20
1979.749496429288
 30
0.0
 11
27817.604341291921
 21
1979.749496429288
 31
0.0
1001
AUTOCAD_POSTSCRIPT_FIGURE
1002
{
1000
PSFILL
1000
Grayscale
1000
Grayscale
1070
   100
1002
}
  0
LINE
  5
32A8
  8
YODOROGO
 10
27801.604341291921
 20
1955.7494964292871
 30
0.0
 11
27801.604341291921
 21
1979.749496429288
 31
0.0
1001
AUTOCAD_POSTSCRIPT_FIGURE
1002
{
1000
PSFILL
1000
Grayscale
1000
Grayscale
1070
   100
1002
}
  0
LINE
  5
32A9
  8
YODOROGO
 10
27777.604341291921
 20
1955.7494964292871
 30
0.0
 11
27801.604341291921
 21
1955.7494964292871
 31
0.0
1001
AUTOCAD_POSTSCRIPT_FIGURE
1002
{
1000
PSFILL
1000
Grayscale
1000
Grayscale
1070
   100
1002
}
  0
LINE
  5
32AA
  8
YODOROGO
 10
27777.604341291921
 20
1939.749496429288
 30
0.0
 11
27777.604341291921
 21
1955.7494964292871
 31
0.0
1001
AUTOCAD_POSTSCRIPT_FIGURE
1002
{
1000
PSFILL
1000
Grayscale
1000
Grayscale
1070
   100
1002
}
  0
LINE
  5
32AB
  8
YODOROGO
 10
27801.604341291921
 20
1939.749496429288
 30
0.0
 11
27777.604341291921
 21
1939.749496429288
 31
0.0
1001
AUTOCAD_POSTSCRIPT_FIGURE
1002
{
1000
PSFILL
1000
Grayscale
1000
Grayscale
1070
   100
1002
}
  0
LINE
  5
32AC
  8
YODOROGO
 10
27801.604341291921
 20
1914.7865807937051
 30
0.0
 11
27801.604341291921
 21
1939.749496429288
 31
0.0
1001
AUTOCAD_POSTSCRIPT_FIGURE
1002
{
1000
PSFILL
1000
Grayscale
1000
Grayscale
1070
   100
1002
}
  0
LINE
  5
32AD
  8
YODOROGO
 10
27777.604341291921
 20
1859.776747951671
 30
0.0
 11
27801.604341291921
 21
1914.7865807937051
 31
0.0
1001
AUTOCAD_POSTSCRIPT_FIGURE
1002
{
1000
PSFILL
1000
Grayscale
1000
Grayscale
1070
   100
1002
}
  0
LINE
  5
32AE
  8
YODOROGO
 10
27777.604341291921
 20
1843.776747951672
 30
0.0
 11
27777.604341291921
 21
1859.776747951671
 31
0.0
1001
AUTOCAD_POSTSCRIPT_FIGURE
1002
{
1000
PSFILL
1000
Grayscale
1000
Grayscale
1070
   100
1002
}
  0
LINE
  5
32AF
  8
YODOROGO
 10
28257.604341291921
 20
1867.7494964292871
 30
0.0
 11
28401.60434129191
 21
1824.877625640306
 31
0.0
1001
AUTOCAD_POSTSCRIPT_FIGURE
1002
{
1000
PSFILL
1000
Grayscale
1000
Grayscale
1070
   100
1002
}
  0
LINE
  5
32B0
  8
YODOROGO
 10
28401.60434129191
 20
1752.877625640306
 30
0.0
 11
28257.604341291921
 21
1795.7494964292871
 31
0.0
1001
AUTOCAD_POSTSCRIPT_FIGURE
1002
{
1000
PSFILL
1000
Grayscale
1000
Grayscale
1070
   100
1002
}
  0
LINE
  5
32B1
  8
YODOROGO
 10
28401.60434129191
 20
1984.877625640306
 30
0.0
 11
28257.604341291921
 21
2027.749496429288
 31
0.0
1001
AUTOCAD_POSTSCRIPT_FIGURE
1002
{
1000
PSFILL
1000
Grayscale
1000
Grayscale
1070
   100
1002
}
  0
LINE
  5
32B2
  8
YODOROGO
 10
28257.604341291921
 20
1959.749496429288
 30
0.0
 11
28401.60434129191
 21
1916.8776256403071
 31
0.0
1001
AUTOCAD_POSTSCRIPT_FIGURE
1002
{
1000
PSFILL
1000
Grayscale
1000
Grayscale
1070
   100
1002
}
  0
LINE
  5
32B3
  8
YODOROGO
 10
28257.604341291921
 20
1795.7494964292871
 30
0.0
 11
28257.604341291921
 21
1867.7494964292871
 31
0.0
1001
AUTOCAD_POSTSCRIPT_FIGURE
1002
{
1000
PSFILL
1000
Grayscale
1000
Grayscale
1070
   100
1002
}
  0
LINE
  5
32B4
  8
YODOROGO
 10
28257.604341291921
 20
2027.749496429288
 30
0.0
 11
28257.604341291921
 21
1959.749496429288
 31
0.0
1001
AUTOCAD_POSTSCRIPT_FIGURE
1002
{
1000
PSFILL
1000
Grayscale
1000
Grayscale
1070
   100
1002
}
  0
LINE
  5
32B5
  8
YODOROGO
 10
28080.236320206739
 20
1939.749496429288
 30
0.0
 11
28129.60434129191
 21
1747.749496429286
 31
0.0
1001
AUTOCAD_POSTSCRIPT_FIGURE
1002
{
1000
PSFILL
1000
Grayscale
1000
Grayscale
1070
   100
1002
}
  0
LINE
  5
32B6
  8
YODOROGO
 10
27977.604341291921
 20
1939.749496429288
 30
0.0
 11
28080.236320206739
 21
1939.749496429288
 31
0.0
1001
AUTOCAD_POSTSCRIPT_FIGURE
1002
{
1000
PSFILL
1000
Grayscale
1000
Grayscale
1070
   100
1002
}
  0
LINE
  5
32B7
  8
YODOROGO
 10
27977.604341291921
 20
1955.7494964292871
 30
0.0
 11
27977.604341291921
 21
1939.749496429288
 31
0.0
1001
AUTOCAD_POSTSCRIPT_FIGURE
1002
{
1000
PSFILL
1000
Grayscale
1000
Grayscale
1070
   100
1002
}
  0
LINE
  5
32B8
  8
YODOROGO
 10
28076.60687851991
 20
1955.7494964292871
 30
0.0
 11
27977.604341291921
 21
1955.7494964292871
 31
0.0
1001
AUTOCAD_POSTSCRIPT_FIGURE
1002
{
1000
PSFILL
1000
Grayscale
1000
Grayscale
1070
   100
1002
}
  0
LINE
  5
32B9
  8
YODOROGO
 10
28071.162715989711
 20
1979.749496429288
 30
0.0
 11
28076.60687851991
 21
1955.7494964292871
 31
0.0
1001
AUTOCAD_POSTSCRIPT_FIGURE
1002
{
1000
PSFILL
1000
Grayscale
1000
Grayscale
1070
   100
1002
}
  0
LINE
  5
32BA
  8
YODOROGO
 10
28091.162715989711
 20
1979.749496429288
 30
0.0
 11
28071.162715989711
 21
1979.749496429288
 31
0.0
1001
AUTOCAD_POSTSCRIPT_FIGURE
1002
{
1000
PSFILL
1000
Grayscale
1000
Grayscale
1070
   100
1002
}
  0
LINE
  5
32BB
  8
YODOROGO
 10
28095.806878519939
 20
1955.7494964292871
 30
0.0
 11
28091.162715989711
 21
1979.749496429288
 31
0.0
1001
AUTOCAD_POSTSCRIPT_FIGURE
1002
{
1000
PSFILL
1000
Grayscale
1000
Grayscale
1070
   100
1002
}
  0
LINE
  5
32BC
  8
YODOROGO
 10
28121.604341291921
 20
1955.7494964292871
 30
0.0
 11
28095.806878519939
 21
1955.7494964292871
 31
0.0
1001
AUTOCAD_POSTSCRIPT_FIGURE
1002
{
1000
PSFILL
1000
Grayscale
1000
Grayscale
1070
   100
1002
}
  0
LINE
  5
32BD
  8
YODOROGO
 10
28121.604341291921
 20
1979.749496429288
 30
0.0
 11
28121.604341291921
 21
1955.7494964292871
 31
0.0
1001
AUTOCAD_POSTSCRIPT_FIGURE
1002
{
1000
PSFILL
1000
Grayscale
1000
Grayscale
1070
   100
1002
}
  0
LINE
  5
32BE
  8
YODOROGO
 10
28137.604341291921
 20
1979.749496429288
 30
0.0
 11
28121.604341291921
 21
1979.749496429288
 31
0.0
1001
AUTOCAD_POSTSCRIPT_FIGURE
1002
{
1000
PSFILL
1000
Grayscale
1000
Grayscale
1070
   100
1002
}
  0
LINE
  5
32BF
  8
YODOROGO
 10
28137.604341291921
 20
1955.7494964292871
 30
0.0
 11
28137.604341291921
 21
1979.749496429288
 31
0.0
1001
AUTOCAD_POSTSCRIPT_FIGURE
1002
{
1000
PSFILL
1000
Grayscale
1000
Grayscale
1070
   100
1002
}
  0
LINE
  5
32C0
  8
YODOROGO
 10
28137.604341291921
 20
1939.749496429288
 30
0.0
 11
28137.604341291921
 21
1955.7494964292871
 31
0.0
1001
AUTOCAD_POSTSCRIPT_FIGURE
1002
{
1000
PSFILL
1000
Grayscale
1000
Grayscale
1070
   100
1002
}
  0
LINE
  5
32C1
  8
YODOROGO
 10
28098.902986873411
 20
1939.749496429288
 30
0.0
 11
28137.604341291921
 21
1939.749496429288
 31
0.0
1001
AUTOCAD_POSTSCRIPT_FIGURE
1002
{
1000
PSFILL
1000
Grayscale
1000
Grayscale
1070
   100
1002
}
  0
LINE
  5
32C2
  8
YODOROGO
 10
28137.604341291921
 20
1747.749496429286
 30
0.0
 11
28098.902986873411
 21
1939.749496429288
 31
0.0
1001
AUTOCAD_POSTSCRIPT_FIGURE
1002
{
1000
PSFILL
1000
Grayscale
1000
Grayscale
1070
   100
1002
}
  0
LINE
  5
32C3
  8
YODOROGO
 10
28129.60434129191
 20
1747.749496429286
 30
0.0
 11
28137.604341291921
 21
1747.749496429286
 31
0.0
1001
AUTOCAD_POSTSCRIPT_FIGURE
1002
{
1000
PSFILL
1000
Grayscale
1000
Grayscale
1070
   100
1002
}
  0
LINE
  5
32C4
  8
YODOROGO
 10
28078.06921993379
 20
1775.7407762987939
 30
0.0
 11
27977.604341291921
 21
1747.749496429286
 31
0.0
  0
LINE
  5
32C5
  8
YODOROGO
 10
28078.06921993379
 20
1798.6689795290731
 30
0.0
 11
28078.06921993379
 21
1775.7407762987939
 31
0.0
  0
LINE
  5
32C6
  8
YODOROGO
 10
28033.83678061287
 20
1786.816933133767
 30
0.0
 11
28078.06921993379
 21
1798.6689795290731
 31
0.0
  0
LINE
  5
32C7
  8
YODOROGO
 10
28033.83678061287
 20
1872.5683489362989
 30
0.0
 11
28033.83678061287
 21
1786.816933133767
 31
0.0
  0
LINE
  5
32C8
  8
YODOROGO
 10
28078.06921993379
 20
1872.5683489362989
 30
0.0
 11
28033.83678061287
 21
1872.5683489362989
 31
0.0
  0
LINE
  5
32C9
  8
YODOROGO
 10
28078.06921993379
 20
1892.568348936298
 30
0.0
 11
28078.06921993379
 21
1872.5683489362989
 31
0.0
  0
LINE
  5
32CA
  8
YODOROGO
 10
27977.604341291921
 20
1892.568348936298
 30
0.0
 11
28078.06921993379
 21
1892.568348936298
 31
0.0
  0
LINE
  5
32CB
  8
YODOROGO
 10
27977.604341291921
 20
1872.5683489362989
 30
0.0
 11
27977.604341291921
 21
1892.568348936298
 31
0.0
  0
LINE
  5
32CC
  8
YODOROGO
 10
28021.836780612852
 20
1872.5683489362989
 30
0.0
 11
27977.604341291921
 21
1872.5683489362989
 31
0.0
  0
LINE
  5
32CD
  8
YODOROGO
 10
28021.836780612852
 20
1784.673339594317
 30
0.0
 11
28021.836780612852
 21
1872.5683489362989
 31
0.0
  0
LINE
  5
32CE
  8
YODOROGO
 10
27977.604341291921
 20
1771.749496429286
 30
0.0
 11
28021.836780612852
 21
1784.673339594317
 31
0.0
  0
LINE
  5
32CF
  8
YODOROGO
 10
27977.604341291921
 20
1747.749496429286
 30
0.0
 11
27977.604341291921
 21
1771.749496429286
 31
0.0
  0
LINE
  5
32D0
  8
YODOROGO
 10
28001.604341291921
 20
1707.749496429288
 30
0.0
 11
28001.604341291921
 21
1683.7494964292871
 31
0.0
  0
LINE
  5
32D1
  8
YODOROGO
 10
28017.604341291921
 20
1707.749496429288
 30
0.0
 11
28001.604341291921
 21
1707.749496429288
 31
0.0
  0
LINE
  5
32D2
  8
YODOROGO
 10
28017.604341291921
 20
1683.7494964292871
 30
0.0
 11
28017.604341291921
 21
1707.749496429288
 31
0.0
  0
LINE
  5
32D3
  8
YODOROGO
 10
28040.913204016892
 20
1683.7494964292871
 30
0.0
 11
28017.604341291921
 21
1683.7494964292871
 31
0.0
  0
LINE
  5
32D4
  8
YODOROGO
 10
28001.604341291921
 20
1683.7494964292871
 30
0.0
 11
27977.604341291921
 21
1683.7494964292871
 31
0.0
  0
LINE
  5
32D5
  8
YODOROGO
 10
28082.135520230921
 20
1707.749496429288
 30
0.0
 11
28098.135520230931
 21
1707.749496429288
 31
0.0
1001
AUTOCAD_POSTSCRIPT_FIGURE
1002
{
1000
PSFILL
1000
Grayscale
1000
Grayscale
1070
   100
1002
}
  0
LINE
  5
32D6
  8
YODOROGO
 10
28401.60434129191
 20
1824.877625640306
 30
0.0
 11
28401.60434129191
 21
1752.877625640306
 31
0.0
1001
AUTOCAD_POSTSCRIPT_FIGURE
1002
{
1000
PSFILL
1000
Grayscale
1000
Grayscale
1070
   100
1002
}
  0
LINE
  5
32D7
  8
YODOROGO
 10
28401.60434129191
 20
1916.8776256403071
 30
0.0
 11
28401.60434129191
 21
1984.877625640306
 31
0.0
1001
AUTOCAD_POSTSCRIPT_FIGURE
1002
{
1000
PSFILL
1000
Grayscale
1000
Grayscale
1070
   100
1002
}
  0
LINE
  5
32D8
  8
YODOROGO
 10
28433.60434129191
 20
1819.7494964292871
 30
0.0
 11
28433.60434129191
 21
1747.74949642929
 31
0.0
  0
LINE
  5
32D9
  8
YODOROGO
 10
28497.60434129191
 20
1707.749496429288
 30
0.0
 11
28433.60434129191
 21
1707.749496429288
 31
0.0
  0
LINE
  5
32DA
  8
YODOROGO
 10
28433.60434129191
 20
1747.74949642929
 30
0.0
 11
28585.604341291921
 21
1747.74949642929
 31
0.0
  0
LINE
  5
32DB
  8
YODOROGO
 10
28497.60434129191
 20
1867.7494964292871
 30
0.0
 11
28433.60434129191
 21
1867.7494964292871
 31
0.0
  0
LINE
  5
32DC
  8
YODOROGO
 10
28497.60434129191
 20
1923.7494964292871
 30
0.0
 11
28497.60434129191
 21
1867.7494964292871
 31
0.0
  0
LINE
  5
32DD
  8
YODOROGO
 10
28585.604341291921
 20
1987.7494964292871
 30
0.0
 11
28585.604341291921
 21
2027.749496429288
 31
0.0
  0
LINE
  5
32DE
  8
YODOROGO
 10
28433.60434129191
 20
1987.7494964292871
 30
0.0
 11
28585.604341291921
 21
1987.7494964292871
 31
0.0
  0
LINE
  5
32DF
  8
YODOROGO
 10
28433.60434129191
 20
1867.7494964292871
 30
0.0
 11
28433.60434129191
 21
1987.7494964292871
 31
0.0
  0
LINE
  5
32E0
  8
YODOROGO
 10
29001.60434129191
 20
2027.749496429288
 30
0.0
 11
29001.60434129191
 21
1619.749496429288
 31
0.0
  0
LINE
  5
32E1
  8
YODOROGO
 10
29073.604341291921
 20
1579.749496429288
 30
0.0
 11
29073.604341291921
 21
2027.749496429288
 31
0.0
  0
LINE
  5
32E2
  8
YODOROGO
 10
29261.604341291921
 20
1491.749496429286
 30
0.0
 11
29261.604341291921
 21
2007.749496429288
 31
0.0
  0
LINE
  5
32E3
  8
YODOROGO
 10
29197.604341291921
 20
2007.749496429288
 30
0.0
 11
29197.604341291921
 21
1491.749496429286
 31
0.0
  0
LINE
  5
32E4
  8
YODOROGO
 10
29385.604341291921
 20
2027.749496429288
 30
0.0
 11
29385.604341291921
 21
1427.749496429288
 31
0.0
  0
LINE
  5
32E5
  8
YODOROGO
 10
29457.604341291921
 20
1427.749496429288
 30
0.0
 11
29457.604341291921
 21
2027.749496429288
 31
0.0
  0
LINE
  5
32E6
  8
YODOROGO
 10
28657.604341291921
 20
1667.749496429288
 30
0.0
 11
28657.604341291921
 21
1747.74949642929
 31
0.0
  0
LINE
  5
32E7
  8
YODOROGO
 10
29885.604341291921
 20
1707.749496429288
 30
0.0
 11
29885.604341291921
 21
1667.749496429288
 31
0.0
  0
LINE
  5
32E8
  8
YODOROGO
 10
29885.604341291921
 20
1707.749496429288
 30
0.0
 11
29885.604341291921
 21
1667.749496429288
 31
0.0
  0
ARC
  5
32E9
  8
YODOROGO
 10
28906.911576186842
 20
1618.217864442272
 30
0.0
 40
94.705151178741644
 50
274.05244162907098
 51
0.9266642149310712
  0
ARC
  5
32EA
  8
YODOROGO
 10
28909.186170719819
 20
1592.61072861044
 30
0.0
 40
164.92042356085511
 50
271.5351210653775
 51
355.52727750585052
  0
LINE
  5
32EB
  8
YODOROGO
 10
28913.604341291921
 20
1523.7494964292871
 30
0.0
 11
28913.604341291921
 21
1427.749496429288
 31
0.0
  0
LINE
  5
32EC
  8
YODOROGO
 10
28793.60434129191
 20
1667.749496429288
 30
0.0
 11
28657.604341291921
 21
1667.749496429288
 31
0.0
  0
LINE
  5
32ED
  8
YODOROGO
 10
28793.60434129191
 20
1603.7494964292871
 30
0.0
 11
28793.60434129191
 21
1667.749496429288
 31
0.0
  0
LINE
  5
32EE
  8
YODOROGO
 10
28657.604341291921
 20
1603.7494964292871
 30
0.0
 11
28793.60434129191
 21
1603.7494964292871
 31
0.0
  0
LINE
  5
32EF
  8
YODOROGO
 10
28657.604341291921
 20
1523.7494964292871
 30
0.0
 11
28657.604341291921
 21
1603.7494964292871
 31
0.0
  0
LINE
  5
32F0
  8
YODOROGO
 10
28793.60434129191
 20
1523.7494964292871
 30
0.0
 11
28657.604341291921
 21
1523.7494964292871
 31
0.0
  0
LINE
  5
32F1
  8
YODOROGO
 10
28793.60434129191
 20
1427.749496429288
 30
0.0
 11
28793.60434129191
 21
1523.7494964292871
 31
0.0
  0
LINE
  5
32F2
  8
YODOROGO
 10
29197.604341291921
 20
1491.749496429286
 30
0.0
 11
29261.604341291921
 21
1491.749496429286
 31
0.0
  0
LINE
  5
32F3
  8
YODOROGO
 10
29385.604341291921
 20
1427.749496429288
 30
0.0
 11
29457.604341291921
 21
1427.749496429288
 31
0.0
  0
LINE
  5
32F4
  8
YODOROGO
 10
29737.604341291921
 20
1528.4414521705639
 30
0.0
 11
29737.604341291921
 21
1427.749496429288
 31
0.0
  0
LINE
  5
32F5
  8
YODOROGO
 10
29617.604341291921
 20
1427.749496429288
 30
0.0
 11
29737.604341291921
 21
1528.4414521705639
 31
0.0
  0
LINE
  5
32F6
  8
YODOROGO
 10
29617.604341291921
 20
1547.749496429288
 30
0.0
 11
29617.604341291921
 21
1427.749496429288
 31
0.0
  0
LINE
  5
32F7
  8
YODOROGO
 10
29712.94462869945
 20
1627.749496429288
 30
0.0
 11
29617.604341291921
 21
1547.749496429288
 31
0.0
  0
LINE
  5
32F8
  8
YODOROGO
 10
29617.604341291921
 20
1627.749496429288
 30
0.0
 11
29712.94462869945
 21
1627.749496429288
 31
0.0
  0
LINE
  5
32F9
  8
YODOROGO
 10
29617.604341291921
 20
1667.749496429288
 30
0.0
 11
29617.604341291921
 21
1627.749496429288
 31
0.0
  0
LINE
  5
32FA
  8
YODOROGO
 10
29885.604341291921
 20
1667.749496429288
 30
0.0
 11
29617.604341291921
 21
1667.749496429288
 31
0.0
  0
LINE
  5
32FB
  8
YODOROGO
 10
29917.604341291921
 20
1627.749496429288
 30
0.0
 11
29777.604341291921
 21
1627.749496429288
 31
0.0
  0
LINE
  5
32FC
  8
YODOROGO
 10
29777.604341291921
 20
1562.0054374176559
 30
0.0
 11
29771.409872985321
 21
1556.807661346234
 31
0.0
  0
LINE
  5
32FD
  8
YODOROGO
 10
29777.604341291921
 20
1627.749496429288
 30
0.0
 11
29777.604341291921
 21
1562.0054374176559
 31
0.0
  0
LINE
  5
32FE
  8
YODOROGO
 10
29737.604341291921
 20
1528.4414521705639
 30
0.0
 11
29737.604341291921
 21
1427.749496429288
 31
0.0
  0
LINE
  5
32FF
  8
YODOROGO
 10
29617.604341291921
 20
1427.749496429288
 30
0.0
 11
29737.604341291921
 21
1528.4414521705639
 31
0.0
  0
LINE
  5
3300
  8
YODOROGO
 10
29617.604341291921
 20
1547.749496429288
 30
0.0
 11
29617.604341291921
 21
1427.749496429288
 31
0.0
  0
LINE
  5
3301
  8
YODOROGO
 10
29712.94462869945
 20
1627.749496429288
 30
0.0
 11
29617.604341291921
 21
1547.749496429288
 31
0.0
  0
LINE
  5
3302
  8
YODOROGO
 10
29617.604341291921
 20
1627.749496429288
 30
0.0
 11
29712.94462869945
 21
1627.749496429288
 31
0.0
  0
LINE
  5
3303
  8
YODOROGO
 10
29617.604341291921
 20
1667.749496429288
 30
0.0
 11
29617.604341291921
 21
1627.749496429288
 31
0.0
  0
LINE
  5
3304
  8
YODOROGO
 10
29885.604341291921
 20
1667.749496429288
 30
0.0
 11
29617.604341291921
 21
1667.749496429288
 31
0.0
  0
LINE
  5
3305
  8
YODOROGO
 10
28793.60434129191
 20
1747.74949642929
 30
0.0
 11
28793.60434129191
 21
1819.7494964292871
 31
0.0
  0
LINE
  5
3306
  8
YODOROGO
 10
28657.604341291921
 20
1747.74949642929
 30
0.0
 11
28793.60434129191
 21
1747.74949642929
 31
0.0
  0
LINE
  5
3307
  8
YODOROGO
 10
28729.604341291921
 20
1867.7494964292871
 30
0.0
 11
28729.604341291921
 21
1923.7494964292871
 31
0.0
  0
LINE
  5
3308
  8
YODOROGO
 10
28793.60434129191
 20
1867.7494964292871
 30
0.0
 11
28729.604341291921
 21
1867.7494964292871
 31
0.0
  0
LINE
  5
3309
  8
YODOROGO
 10
28793.60434129191
 20
1947.749496429288
 30
0.0
 11
28793.60434129191
 21
1867.7494964292871
 31
0.0
  0
ARC
  5
330A
  8
YODOROGO
 10
28753.60434129191
 20
1947.749496429288
 30
0.0
 40
40.0
 50
0.0
 51
90.0
  0
LINE
  5
330B
  8
YODOROGO
 10
28657.604341291921
 20
1987.7494964292871
 30
0.0
 11
28753.60434129191
 21
1987.7494964292871
 31
0.0
  0
LINE
  5
330C
  8
YODOROGO
 10
28657.604341291921
 20
2027.749496429288
 30
0.0
 11
28657.604341291921
 21
1987.7494964292871
 31
0.0
  0
LINE
  5
330D
  8
YODOROGO
 10
29073.604341291921
 20
2027.749496429288
 30
0.0
 11
29001.60434129191
 21
2027.749496429288
 31
0.0
  0
LINE
  5
330E
  8
YODOROGO
 10
29261.604341291921
 20
2007.749496429288
 30
0.0
 11
29197.604341291921
 21
2007.749496429288
 31
0.0
  0
LINE
  5
330F
  8
YODOROGO
 10
29457.604341291921
 20
2027.749496429288
 30
0.0
 11
29385.604341291921
 21
2027.749496429288
 31
0.0
  0
LINE
  5
3310
  8
YODOROGO
 10
29673.604341291921
 20
1707.749496429288
 30
0.0
 11
29673.604341291921
 21
1771.7494964292871
 31
0.0
1001
AUTOCAD_POSTSCRIPT_FIGURE
1002
{
1000
PSFILL
1000
Grayscale
1000
Grayscale
1070
    25
1002
}
  0
LINE
  5
3311
  8
YODOROGO
 10
29617.604341291921
 20
1707.749496429288
 30
0.0
 11
29673.604341291921
 21
1707.749496429288
 31
0.0
1001
AUTOCAD_POSTSCRIPT_FIGURE
1002
{
1000
PSFILL
1000
Grayscale
1000
Grayscale
1070
    25
1002
}
  0
LINE
  5
3312
  8
YODOROGO
 10
29617.604341291921
 20
1819.7494964292871
 30
0.0
 11
29617.604341291921
 21
1707.749496429288
 31
0.0
1001
AUTOCAD_POSTSCRIPT_FIGURE
1002
{
1000
PSFILL
1000
Grayscale
1000
Grayscale
1070
    25
1002
}
  0
LINE
  5
3313
  8
YODOROGO
 10
29765.604341291921
 20
1819.7494964292871
 30
0.0
 11
29617.604341291921
 21
1819.7494964292871
 31
0.0
1001
AUTOCAD_POSTSCRIPT_FIGURE
1002
{
1000
PSFILL
1000
Grayscale
1000
Grayscale
1070
    25
1002
}
  0
LINE
  5
3314
  8
YODOROGO
 10
29765.604341291921
 20
1859.749496429288
 30
0.0
 11
29765.604341291921
 21
1819.7494964292871
 31
0.0
1001
AUTOCAD_POSTSCRIPT_FIGURE
1002
{
1000
PSFILL
1000
Grayscale
1000
Grayscale
1070
    25
1002
}
  0
LINE
  5
3315
  8
YODOROGO
 10
29617.604341291921
 20
1859.749496429288
 30
0.0
 11
29765.604341291921
 21
1859.749496429288
 31
0.0
1001
AUTOCAD_POSTSCRIPT_FIGURE
1002
{
1000
PSFILL
1000
Grayscale
1000
Grayscale
1070
    25
1002
}
  0
LINE
  5
3316
  8
YODOROGO
 10
29617.604341291921
 20
1907.7494964292871
 30
0.0
 11
29617.604341291921
 21
1859.749496429288
 31
0.0
1001
AUTOCAD_POSTSCRIPT_FIGURE
1002
{
1000
PSFILL
1000
Grayscale
1000
Grayscale
1070
    25
1002
}
  0
LINE
  5
3317
  8
YODOROGO
 10
29765.604341291921
 20
1907.7494964292871
 30
0.0
 11
29617.604341291921
 21
1907.7494964292871
 31
0.0
1001
AUTOCAD_POSTSCRIPT_FIGURE
1002
{
1000
PSFILL
1000
Grayscale
1000
Grayscale
1070
    25
1002
}
  0
LINE
  5
3318
  8
YODOROGO
 10
29765.604341291921
 20
1947.749496429288
 30
0.0
 11
29765.604341291921
 21
1907.7494964292871
 31
0.0
1001
AUTOCAD_POSTSCRIPT_FIGURE
1002
{
1000
PSFILL
1000
Grayscale
1000
Grayscale
1070
    25
1002
}
  0
LINE
  5
3319
  8
YODOROGO
 10
29617.604341291921
 20
1947.749496429288
 30
0.0
 11
29765.604341291921
 21
1947.749496429288
 31
0.0
1001
AUTOCAD_POSTSCRIPT_FIGURE
1002
{
1000
PSFILL
1000
Grayscale
1000
Grayscale
1070
    25
1002
}
  0
LINE
  5
331A
  8
YODOROGO
 10
29617.604341291921
 20
2027.749496429288
 30
0.0
 11
29617.604341291921
 21
1947.749496429288
 31
0.0
1001
AUTOCAD_POSTSCRIPT_FIGURE
1002
{
1000
PSFILL
1000
Grayscale
1000
Grayscale
1070
    25
1002
}
  0
LINE
  5
331B
  8
YODOROGO
 10
29665.604341291921
 20
2027.749496429288
 30
0.0
 11
29617.604341291921
 21
2027.749496429288
 31
0.0
1001
AUTOCAD_POSTSCRIPT_FIGURE
1002
{
1000
PSFILL
1000
Grayscale
1000
Grayscale
1070
    25
1002
}
  0
LINE
  5
331C
  8
YODOROGO
 10
29665.604341291921
 20
1995.7494964292871
 30
0.0
 11
29665.604341291921
 21
2027.749496429288
 31
0.0
1001
AUTOCAD_POSTSCRIPT_FIGURE
1002
{
1000
PSFILL
1000
Grayscale
1000
Grayscale
1070
    25
1002
}
  0
LINE
  5
331D
  8
YODOROGO
 10
29765.604341291921
 20
1995.7494964292871
 30
0.0
 11
29665.604341291921
 21
1995.7494964292871
 31
0.0
1001
AUTOCAD_POSTSCRIPT_FIGURE
1002
{
1000
PSFILL
1000
Grayscale
1000
Grayscale
1070
    25
1002
}
  0
LINE
  5
331E
  8
YODOROGO
 10
29765.604341291921
 20
2027.749496429288
 30
0.0
 11
29765.604341291921
 21
1995.7494964292871
 31
0.0
1001
AUTOCAD_POSTSCRIPT_FIGURE
1002
{
1000
PSFILL
1000
Grayscale
1000
Grayscale
1070
    25
1002
}
  0
LINE
  5
331F
  8
YODOROGO
 10
29829.604341291921
 20
2027.749496429288
 30
0.0
 11
29765.604341291921
 21
2027.749496429288
 31
0.0
1001
AUTOCAD_POSTSCRIPT_FIGURE
1002
{
1000
PSFILL
1000
Grayscale
1000
Grayscale
1070
    25
1002
}
  0
LINE
  5
3320
  8
YODOROGO
 10
29829.604341291921
 20
1995.7494964292871
 30
0.0
 11
29829.604341291921
 21
2027.749496429288
 31
0.0
1001
AUTOCAD_POSTSCRIPT_FIGURE
1002
{
1000
PSFILL
1000
Grayscale
1000
Grayscale
1070
    25
1002
}
  0
LINE
  5
3321
  8
YODOROGO
 10
29829.604341291921
 20
1907.7494964292871
 30
0.0
 11
29829.604341291921
 21
1947.749496429288
 31
0.0
1001
AUTOCAD_POSTSCRIPT_FIGURE
1002
{
1000
PSFILL
1000
Grayscale
1000
Grayscale
1070
    25
1002
}
  0
LINE
  5
3322
  8
YODOROGO
 10
29829.604341291921
 20
1819.7494964292871
 30
0.0
 11
29829.604341291921
 21
1859.749496429288
 31
0.0
1001
AUTOCAD_POSTSCRIPT_FIGURE
1002
{
1000
PSFILL
1000
Grayscale
1000
Grayscale
1070
    25
1002
}
  0
LINE
  5
3323
  8
YODOROGO
 10
29921.60434129191
 20
1771.7494964292871
 30
0.0
 11
29921.60434129191
 21
1707.749496429288
 31
0.0
1001
AUTOCAD_POSTSCRIPT_FIGURE
1002
{
1000
PSFILL
1000
Grayscale
1000
Grayscale
1070
    25
1002
}
  0
LINE
  5
3324
  8
YODOROGO
 10
29829.604341291921
 20
1771.7494964292871
 30
0.0
 11
29921.60434129191
 21
1771.7494964292871
 31
0.0
1001
AUTOCAD_POSTSCRIPT_FIGURE
1002
{
1000
PSFILL
1000
Grayscale
1000
Grayscale
1070
    25
1002
}
  0
LINE
  5
3325
  8
YODOROGO
 10
29829.604341291921
 20
1707.749496429288
 30
0.0
 11
29829.604341291921
 21
1771.7494964292871
 31
0.0
1001
AUTOCAD_POSTSCRIPT_FIGURE
1002
{
1000
PSFILL
1000
Grayscale
1000
Grayscale
1070
    25
1002
}
  0
LINE
  5
3326
  8
YODOROGO
 10
29765.604341291921
 20
1707.749496429288
 30
0.0
 11
29829.604341291921
 21
1707.749496429288
 31
0.0
1001
AUTOCAD_POSTSCRIPT_FIGURE
1002
{
1000
PSFILL
1000
Grayscale
1000
Grayscale
1070
    25
1002
}
  0
LINE
  5
3327
  8
YODOROGO
 10
29765.604341291921
 20
1771.7494964292871
 30
0.0
 11
29765.604341291921
 21
1707.749496429288
 31
0.0
1001
AUTOCAD_POSTSCRIPT_FIGURE
1002
{
1000
PSFILL
1000
Grayscale
1000
Grayscale
1070
    25
1002
}
  0
LINE
  5
3328
  8
YODOROGO
 10
29673.604341291921
 20
1771.7494964292871
 30
0.0
 11
29765.604341291921
 21
1771.7494964292871
 31
0.0
1001
AUTOCAD_POSTSCRIPT_FIGURE
1002
{
1000
PSFILL
1000
Grayscale
1000
Grayscale
1070
    25
1002
}
  0
ARC
  5
3329
  8
YODOROGO
 10
31059.517893357912
 20
1602.6807375155761
 30
0.0
 40
178.22128111072141
 50
281.02627495425338
 51
357.77113575573799
  0
LINE
  5
332A
  8
YODOROGO
 10
31413.604341291921
 20
1907.7494964292871
 30
0.0
 11
31165.604341291921
 21
1907.7494964292871
 31
0.0
  0
LINE
  5
332B
  8
YODOROGO
 10
31413.604341291921
 20
2027.749496429288
 30
0.0
 11
31165.604341291921
 21
2027.749496429288
 31
0.0
  0
LINE
  5
332C
  8
YODOROGO
 10
31165.604341291921
 20
1963.749496429286
 30
0.0
 11
31413.604341291921
 21
1963.749496429286
 31
0.0
  0
LINE
  5
332D
  8
YODOROGO
 10
30791.604341291921
 20
1563.7494964292871
 30
0.0
 11
30791.604341291921
 21
1755.7494964292871
 31
0.0
  0
LINE
  5
332E
  8
YODOROGO
 10
30763.604341291921
 20
1691.749496429288
 30
0.0
 11
30763.604341291921
 21
1563.7494964292871
 31
0.0
  0
LINE
  5
332F
  8
YODOROGO
 10
30723.604341291921
 20
1491.749496429288
 30
0.0
 11
30723.604341291921
 21
1691.749496429288
 31
0.0
  0
LINE
  5
3330
  8
YODOROGO
 10
30899.604341291932
 20
1691.749496429288
 30
0.0
 11
30899.604341291932
 21
1491.749496429288
 31
0.0
  0
LINE
  5
3331
  8
YODOROGO
 10
30859.604341291932
 20
1563.7494964292871
 30
0.0
 11
30859.604341291932
 21
1691.749496429288
 31
0.0
  0
LINE
  5
3332
  8
YODOROGO
 10
30831.604341291921
 20
1755.7494964292871
 30
0.0
 11
30831.604341291921
 21
1563.7494964292871
 31
0.0
  0
LINE
  5
3333
  8
YODOROGO
 10
30973.604341291921
 20
2027.749496429288
 30
0.0
 11
30973.604341291921
 21
1467.749496429288
 31
0.0
  0
LINE
  5
3334
  8
YODOROGO
 10
30645.604341291921
 20
1427.749496429288
 30
0.0
 11
30645.604341291921
 21
2027.749496429288
 31
0.0
  0
LINE
  5
3335
  8
YODOROGO
 10
30697.604341291932
 20
1963.749496429286
 30
0.0
 11
30697.604341291932
 21
1427.749496429288
 31
0.0
  0
LINE
  5
3336
  8
YODOROGO
 10
30925.604341291921
 20
1547.749496429288
 30
0.0
 11
30925.604341291921
 21
1963.749496429286
 31
0.0
  0
LINE
  5
3337
  8
YODOROGO
 10
30381.604341291932
 20
1627.749496429288
 30
0.0
 11
30381.604341291932
 21
1679.749496429288
 31
0.0
  0
LINE
  5
3338
  8
YODOROGO
 10
30617.604341291921
 20
1679.749496429288
 30
0.0
 11
30617.604341291921
 21
1627.749496429288
 31
0.0
  0
LINE
  5
3339
  8
YODOROGO
 10
31165.604341291921
 20
1907.7494964292871
 30
0.0
 11
31165.604341291921
 21
1635.7494964292871
 31
0.0
  0
LINE
  5
333A
  8
YODOROGO
 10
29949.60434129191
 20
1667.749496429288
 30
0.0
 11
29949.60434129191
 21
1707.749496429288
 31
0.0
  0
LINE
  5
333B
  8
YODOROGO
 10
29949.60434129191
 20
1667.749496429288
 30
0.0
 11
29949.60434129191
 21
1707.749496429288
 31
0.0
  0
ARC
  5
333C
  8
YODOROGO
 10
30537.604341291921
 20
1507.749496429288
 30
0.0
 40
80.0
 50
270.0
 51
0.0
  0
LINE
  5
333D
  8
YODOROGO
 10
30569.604341291921
 20
1599.7494964292871
 30
0.0
 11
30617.604341291921
 21
1599.7494964292871
 31
0.0
  0
LINE
  5
333E
  8
YODOROGO
 10
30617.604341291921
 20
1627.749496429288
 30
0.0
 11
30529.604341291939
 21
1627.749496429288
 31
0.0
  0
LINE
  5
333F
  8
YODOROGO
 10
30217.604341291921
 20
1667.749496429288
 30
0.0
 11
29949.60434129191
 21
1667.749496429288
 31
0.0
  0
LINE
  5
3340
  8
YODOROGO
 10
30217.604341291921
 20
1627.749496429288
 30
0.0
 11
30217.604341291921
 21
1667.749496429288
 31
0.0
  0
LINE
  5
3341
  8
YODOROGO
 10
30017.604341291921
 20
1627.749496429288
 30
0.0
 11
30217.604341291921
 21
1627.749496429288
 31
0.0
  0
ARC
  5
3342
  8
YODOROGO
 10
30230.05882870136
 20
1868.885714952901
 30
0.0
 40
321.37763628522822
 50
228.6181454618993
 51
245.660289248906
  0
LINE
  5
3343
  8
YODOROGO
 10
30105.604341291921
 20
1603.7494964292871
 30
0.0
 11
30097.60434129195
 21
1576.0728158699001
 31
0.0
  0
LINE
  5
3344
  8
YODOROGO
 10
30189.604341291921
 20
1603.7494964292871
 30
0.0
 11
30105.604341291921
 21
1603.7494964292871
 31
0.0
  0
LINE
  5
3345
  8
YODOROGO
 10
30177.604341291921
 20
1551.817722473427
 30
0.0
 11
30189.604341291921
 21
1603.7494964292871
 31
0.0
  0
ARC
  5
3346
  8
YODOROGO
 10
30230.05882870045
 20
1868.885714953002
 30
0.0
 40
321.37763628529081
 50
260.60629297969911
 51
267.77903556555862
  0
LINE
  5
3347
  8
YODOROGO
 10
30217.604341291921
 20
1427.749496429285
 30
0.0
 11
30217.604341291921
 21
1547.749496429288
 31
0.0
  0
LINE
  5
3348
  8
YODOROGO
 10
29937.604341291932
 20
1481.3393349155101
 30
0.0
 11
29937.604341291921
 21
1594.531090531141
 31
0.0
  0
LINE
  5
3349
  8
YODOROGO
 10
30217.604341291921
 20
1667.749496429288
 30
0.0
 11
29949.60434129191
 21
1667.749496429288
 31
0.0
  0
LINE
  5
334A
  8
YODOROGO
 10
30217.604341291921
 20
1627.749496429288
 30
0.0
 11
30217.604341291921
 21
1667.749496429288
 31
0.0
  0
LINE
  5
334B
  8
YODOROGO
 10
30017.604341291921
 20
1627.749496429288
 30
0.0
 11
30217.604341291921
 21
1627.749496429288
 31
0.0
  0
ARC
  5
334C
  8
YODOROGO
 10
30230.05882870136
 20
1868.885714952901
 30
0.0
 40
321.37763628522822
 50
228.6181454618993
 51
245.660289248906
  0
LINE
  5
334D
  8
YODOROGO
 10
30105.604341291921
 20
1603.7494964292871
 30
0.0
 11
30097.60434129195
 21
1576.0728158699001
 31
0.0
  0
LINE
  5
334E
  8
YODOROGO
 10
30189.604341291921
 20
1603.7494964292871
 30
0.0
 11
30105.604341291921
 21
1603.7494964292871
 31
0.0
  0
LINE
  5
334F
  8
YODOROGO
 10
30177.604341291921
 20
1551.817722473427
 30
0.0
 11
30189.604341291921
 21
1603.7494964292871
 31
0.0
  0
ARC
  5
3350
  8
YODOROGO
 10
30230.05882870045
 20
1868.885714953002
 30
0.0
 40
321.37763628529081
 50
260.60629297969911
 51
267.77903556555862
  0
LINE
  5
3351
  8
YODOROGO
 10
30217.604341291921
 20
1427.749496429285
 30
0.0
 11
30217.604341291921
 21
1547.749496429288
 31
0.0
  0
LINE
  5
3352
  8
YODOROGO
 10
29937.604341291932
 20
1481.3393349155101
 30
0.0
 11
29937.604341291921
 21
1594.531090531141
 31
0.0
  0
LINE
  5
3353
  8
YODOROGO
 10
30433.604341291921
 20
1573.749496429288
 30
0.0
 11
30381.604341291932
 21
1573.749496429288
 31
0.0
  0
LINE
  5
3354
  8
YODOROGO
 10
30433.604341291921
 20
1601.749496429285
 30
0.0
 11
30433.604341291921
 21
1573.749496429288
 31
0.0
  0
LINE
  5
3355
  8
YODOROGO
 10
30381.604341291932
 20
1601.749496429285
 30
0.0
 11
30433.604341291921
 21
1601.749496429285
 31
0.0
  0
LINE
  5
3356
  8
YODOROGO
 10
30381.604341291932
 20
1573.749496429288
 30
0.0
 11
30381.604341291932
 21
1601.749496429285
 31
0.0
  0
LINE
  5
3357
  8
YODOROGO
 10
30429.604341291921
 20
1577.7494964292871
 30
0.0
 11
30385.604341291921
 21
1577.7494964292871
 31
0.0
  0
LINE
  5
3358
  8
YODOROGO
 10
30429.604341291921
 20
1597.749496429288
 30
0.0
 11
30429.604341291921
 21
1577.7494964292871
 31
0.0
  0
LINE
  5
3359
  8
YODOROGO
 10
30385.604341291921
 20
1597.749496429288
 30
0.0
 11
30429.604341291921
 21
1597.749496429288
 31
0.0
  0
LINE
  5
335A
  8
YODOROGO
 10
30385.604341291921
 20
1577.7494964292871
 30
0.0
 11
30385.604341291921
 21
1597.749496429288
 31
0.0
  0
LINE
  5
335B
  8
YODOROGO
 10
30425.604341291921
 20
1581.749496429286
 30
0.0
 11
30389.604341291921
 21
1581.749496429286
 31
0.0
  0
LINE
  5
335C
  8
YODOROGO
 10
30425.604341291921
 20
1593.749496429288
 30
0.0
 11
30425.604341291921
 21
1581.749496429286
 31
0.0
  0
LINE
  5
335D
  8
YODOROGO
 10
30389.604341291921
 20
1593.749496429288
 30
0.0
 11
30425.604341291921
 21
1593.749496429288
 31
0.0
  0
LINE
  5
335E
  8
YODOROGO
 10
30389.604341291921
 20
1581.749496429286
 30
0.0
 11
30389.604341291921
 21
1593.749496429288
 31
0.0
  0
LINE
  5
335F
  8
YODOROGO
 10
30421.604341291932
 20
1585.7494964292871
 30
0.0
 11
30393.604341291921
 21
1585.7494964292871
 31
0.0
  0
LINE
  5
3360
  8
YODOROGO
 10
30421.604341291932
 20
1589.749496429288
 30
0.0
 11
30421.604341291932
 21
1585.7494964292871
 31
0.0
  0
LINE
  5
3361
  8
YODOROGO
 10
30393.604341291921
 20
1589.749496429288
 30
0.0
 11
30421.604341291932
 21
1589.749496429288
 31
0.0
  0
LINE
  5
3362
  8
YODOROGO
 10
30393.604341291921
 20
1585.7494964292871
 30
0.0
 11
30393.604341291921
 21
1589.749496429288
 31
0.0
  0
LINE
  5
3363
  8
YODOROGO
 10
30465.604341291921
 20
1627.749496429288
 30
0.0
 11
30381.604341291932
 21
1627.749496429288
 31
0.0
  0
LINE
  5
3364
  8
YODOROGO
 10
30465.604341291921
 20
1547.749496429288
 30
0.0
 11
30465.604341291921
 21
1627.749496429288
 31
0.0
  0
LINE
  5
3365
  8
YODOROGO
 10
30381.604341291932
 20
1547.749496429288
 30
0.0
 11
30465.604341291921
 21
1547.749496429288
 31
0.0
  0
LINE
  5
3366
  8
YODOROGO
 10
30381.604341291932
 20
1427.749496429288
 30
0.0
 11
30381.604341291932
 21
1547.749496429288
 31
0.0
  0
LINE
  5
3367
  8
YODOROGO
 10
30537.604341291921
 20
1427.749496429288
 30
0.0
 11
30381.604341291932
 21
1427.749496429288
 31
0.0
  0
LINE
  5
3368
  8
YODOROGO
 10
30569.604341291921
 20
1571.749496429285
 30
0.0
 11
30569.604341291921
 21
1599.7494964292871
 31
0.0
  0
ARC
  5
3369
  8
YODOROGO
 10
30545.604341291921
 20
1571.749496429291
 30
0.0
 40
24.000000000003752
 50
270.0
 51
359.99999999998772
  0
LINE
  5
336A
  8
YODOROGO
 10
30529.604341291939
 20
1547.749496429288
 30
0.0
 11
30545.604341291921
 21
1547.749496429288
 31
0.0
  0
LINE
  5
336B
  8
YODOROGO
 10
30529.604341291939
 20
1627.749496429288
 30
0.0
 11
30529.604341291939
 21
1547.749496429288
 31
0.0
  0
LINE
  5
336C
  8
YODOROGO
 10
30899.604341291932
 20
1547.749496429288
 30
0.0
 11
30925.604341291921
 21
1547.749496429288
 31
0.0
  0
LINE
  5
336D
  8
YODOROGO
 10
30933.604341291921
 20
1427.749496429288
 30
0.0
 11
30899.604341291932
 21
1427.749496429288
 31
0.0
  0
LINE
  5
336E
  8
YODOROGO
 10
30763.604341291921
 20
1563.7494964292871
 30
0.0
 11
30791.604341291921
 21
1563.7494964292871
 31
0.0
  0
LINE
  5
336F
  8
YODOROGO
 10
30899.604341291932
 20
1491.749496429288
 30
0.0
 11
30723.604341291921
 21
1491.749496429288
 31
0.0
  0
LINE
  5
3370
  8
YODOROGO
 10
30831.604341291921
 20
1563.7494964292871
 30
0.0
 11
30859.604341291932
 21
1563.7494964292871
 31
0.0
  0
LINE
  5
3371
  8
YODOROGO
 10
30899.604341291932
 20
1427.749496429288
 30
0.0
 11
30899.604341291932
 21
1547.749496429288
 31
0.0
  0
LINE
  5
3372
  8
YODOROGO
 10
30697.604341291932
 20
1427.749496429288
 30
0.0
 11
30645.604341291921
 21
1427.749496429288
 31
0.0
  0
LINE
  5
3373
  8
YODOROGO
 10
30617.604341291921
 20
1599.7494964292871
 30
0.0
 11
30617.604341291921
 21
1507.749496429288
 31
0.0
  0
ARC
  5
3374
  8
YODOROGO
 10
30933.604341291921
 20
1467.749496429288
 30
0.0
 40
40.0
 50
270.0
 51
0.0
  0
LINE
  5
3375
  8
YODOROGO
 10
31093.604341291921
 20
1523.7494964292871
 30
0.0
 11
31093.604341291921
 21
1427.749496429288
 31
0.0
  0
ARC
  5
3376
  8
YODOROGO
 10
31039.721395566768
 20
1637.5313901097329
 30
0.0
 40
125.8955565916754
 50
295.34052442160112
 51
359.18902303418679
  0
LINE
  5
3377
  8
YODOROGO
 10
30617.604341291921
 20
1859.749496429288
 30
0.0
 11
30497.604341291921
 21
1939.749496429288
 31
0.0
  0
LINE
  5
3378
  8
YODOROGO
 10
30497.604341291921
 20
2027.749496429288
 30
0.0
 11
30617.604341291921
 21
1947.749496429288
 31
0.0
  0
LINE
  5
3379
  8
YODOROGO
 10
30529.604341291939
 20
1679.749496429288
 30
0.0
 11
30617.604341291921
 21
1679.749496429288
 31
0.0
  0
LINE
  5
337A
  8
YODOROGO
 10
30617.604341291921
 20
1735.7494964292871
 30
0.0
 11
30529.604341291939
 21
1735.7494964292871
 31
0.0
  0
LINE
  5
337B
  8
YODOROGO
 10
30381.604341291932
 20
1795.7494964292871
 30
0.0
 11
30617.604341291921
 21
1795.7494964292871
 31
0.0
  0
LINE
  5
337C
  8
YODOROGO
 10
30081.604341291921
 20
2027.749496429288
 30
0.0
 11
30021.604341291921
 21
2027.749496429288
 31
0.0
  0
LINE
  5
337D
  8
YODOROGO
 10
30081.604341291921
 20
1827.7494964292871
 30
0.0
 11
30081.604341291921
 21
2027.749496429288
 31
0.0
  0
LINE
  5
337E
  8
YODOROGO
 10
30021.604341291921
 20
1827.7494964292871
 30
0.0
 11
30081.604341291921
 21
1827.7494964292871
 31
0.0
  0
LINE
  5
337F
  8
YODOROGO
 10
30021.604341291921
 20
2027.749496429288
 30
0.0
 11
30021.604341291921
 21
1827.7494964292871
 31
0.0
  0
LINE
  5
3380
  8
YODOROGO
 10
30161.604341291921
 20
2027.749496429288
 30
0.0
 11
30217.604341291921
 21
2027.749496429288
 31
0.0
  0
LINE
  5
3381
  8
YODOROGO
 10
30161.604341291921
 20
1811.749496429288
 30
0.0
 11
30161.604341291921
 21
2027.749496429288
 31
0.0
  0
ARC
  5
3382
  8
YODOROGO
 10
30121.604341291921
 20
1811.749496429288
 30
0.0
 40
40.0
 50
270.0
 51
0.0
  0
LINE
  5
3383
  8
YODOROGO
 10
30021.604341291921
 20
1771.7494964292871
 30
0.0
 11
30121.604341291921
 21
1771.7494964292871
 31
0.0
  0
LINE
  5
3384
  8
YODOROGO
 10
30021.604341291921
 20
1707.749496429288
 30
0.0
 11
30021.604341291921
 21
1771.7494964292871
 31
0.0
  0
LINE
  5
3385
  8
YODOROGO
 10
30137.604341291921
 20
1707.749496429288
 30
0.0
 11
30021.604341291921
 21
1707.749496429288
 31
0.0
  0
ARC
  5
3386
  8
YODOROGO
 10
30137.604341291921
 20
1787.7494964292871
 30
0.0
 40
80.0
 50
270.0
 51
0.0
  0
LINE
  5
3387
  8
YODOROGO
 10
30217.604341291921
 20
2027.749496429288
 30
0.0
 11
30217.604341291921
 21
1787.7494964292871
 31
0.0
  0
LINE
  5
3388
  8
YODOROGO
 10
29977.604341291921
 20
1947.749496429288
 30
0.0
 11
29977.604341291921
 21
1995.7494964292871
 31
0.0
1001
AUTOCAD_POSTSCRIPT_FIGURE
1002
{
1000
PSFILL
1000
Grayscale
1000
Grayscale
1070
    25
1002
}
  0
LINE
  5
3389
  8
YODOROGO
 10
29977.604341291921
 20
1859.749496429288
 30
0.0
 11
29977.604341291921
 21
1907.7494964292871
 31
0.0
1001
AUTOCAD_POSTSCRIPT_FIGURE
1002
{
1000
PSFILL
1000
Grayscale
1000
Grayscale
1070
    25
1002
}
  0
LINE
  5
338A
  8
YODOROGO
 10
29977.604341291921
 20
1707.749496429288
 30
0.0
 11
29977.604341291921
 21
1819.7494964292871
 31
0.0
1001
AUTOCAD_POSTSCRIPT_FIGURE
1002
{
1000
PSFILL
1000
Grayscale
1000
Grayscale
1070
    25
1002
}
  0
LINE
  5
338B
  8
YODOROGO
 10
30381.604341291932
 20
1907.7494964292871
 30
0.0
 11
30497.604341291921
 21
2027.749496429288
 31
0.0
  0
LINE
  5
338C
  8
YODOROGO
 10
30381.604341291932
 20
1819.7494964292871
 30
0.0
 11
30381.604341291932
 21
1907.7494964292871
 31
0.0
  0
LINE
  5
338D
  8
YODOROGO
 10
30497.604341291921
 20
1939.749496429288
 30
0.0
 11
30381.604341291932
 21
1819.7494964292871
 31
0.0
  0
LINE
  5
338E
  8
YODOROGO
 10
30465.604341291921
 20
1679.749496429288
 30
0.0
 11
30465.604341291921
 21
1735.7494964292871
 31
0.0
  0
LINE
  5
338F
  8
YODOROGO
 10
30381.604341291932
 20
1679.749496429288
 30
0.0
 11
30465.604341291921
 21
1679.749496429288
 31
0.0
  0
LINE
  5
3390
  8
YODOROGO
 10
30529.604341291939
 20
1735.7494964292871
 30
0.0
 11
30529.604341291939
 21
1679.749496429288
 31
0.0
  0
LINE
  5
3391
  8
YODOROGO
 10
30381.604341291932
 20
1735.7494964292871
 30
0.0
 11
30381.604341291932
 21
1795.7494964292871
 31
0.0
  0
LINE
  5
3392
  8
YODOROGO
 10
30465.604341291921
 20
1735.7494964292871
 30
0.0
 11
30381.604341291932
 21
1735.7494964292871
 31
0.0
  0
LINE
  5
3393
  8
YODOROGO
 10
30645.604341291921
 20
2027.749496429288
 30
0.0
 11
30973.604341291921
 21
2027.749496429288
 31
0.0
  0
LINE
  5
3394
  8
YODOROGO
 10
30925.604341291921
 20
1963.749496429286
 30
0.0
 11
30697.604341291932
 21
1963.749496429286
 31
0.0
  0
LINE
  5
3395
  8
YODOROGO
 10
30873.604341291921
 20
1819.7494964292871
 30
0.0
 11
30899.604341291932
 21
1819.7494964292871
 31
0.0
  0
LINE
  5
3396
  8
YODOROGO
 10
30899.604341291932
 20
1939.749496429288
 30
0.0
 11
30873.604341291921
 21
1819.7494964292871
 31
0.0
  0
LINE
  5
3397
  8
YODOROGO
 10
30851.604341291939
 20
1939.749496429288
 30
0.0
 11
30899.604341291932
 21
1939.749496429288
 31
0.0
  0
LINE
  5
3398
  8
YODOROGO
 10
30825.604341291921
 20
1819.7494964292871
 30
0.0
 11
30851.604341291939
 21
1939.749496429288
 31
0.0
  0
LINE
  5
3399
  8
YODOROGO
 10
30797.604341291921
 20
1819.7494964292871
 30
0.0
 11
30825.604341291921
 21
1819.7494964292871
 31
0.0
  0
LINE
  5
339A
  8
YODOROGO
 10
30771.604341291939
 20
1939.749496429288
 30
0.0
 11
30797.604341291921
 21
1819.7494964292871
 31
0.0
  0
LINE
  5
339B
  8
YODOROGO
 10
30723.604341291921
 20
1939.749496429288
 30
0.0
 11
30771.604341291939
 21
1939.749496429288
 31
0.0
  0
LINE
  5
339C
  8
YODOROGO
 10
30749.604341291921
 20
1819.7494964292871
 30
0.0
 11
30723.604341291921
 21
1939.749496429288
 31
0.0
  0
LINE
  5
339D
  8
YODOROGO
 10
30723.604341291921
 20
1819.7494964292871
 30
0.0
 11
30749.604341291921
 21
1819.7494964292871
 31
0.0
  0
LINE
  5
339E
  8
YODOROGO
 10
30723.604341291921
 20
1755.7494964292871
 30
0.0
 11
30723.604341291921
 21
1819.7494964292871
 31
0.0
  0
LINE
  5
339F
  8
YODOROGO
 10
30899.604341291932
 20
1755.7494964292871
 30
0.0
 11
30723.604341291921
 21
1755.7494964292871
 31
0.0
  0
LINE
  5
33A0
  8
YODOROGO
 10
30899.604341291932
 20
1819.7494964292871
 30
0.0
 11
30899.604341291932
 21
1755.7494964292871
 31
0.0
  0
LINE
  5
33A1
  8
YODOROGO
 10
30617.604341291921
 20
1947.749496429288
 30
0.0
 11
30617.604341291921
 21
1859.749496429288
 31
0.0
  0
LINE
  5
33A2
  8
YODOROGO
 10
30791.604341291921
 20
1755.7494964292871
 30
0.0
 11
30831.604341291921
 21
1755.7494964292871
 31
0.0
  0
LINE
  5
33A3
  8
YODOROGO
 10
30723.604341291921
 20
1691.749496429288
 30
0.0
 11
30763.604341291921
 21
1691.749496429288
 31
0.0
  0
LINE
  5
33A4
  8
YODOROGO
 10
30859.604341291932
 20
1691.749496429288
 30
0.0
 11
30899.604341291932
 21
1691.749496429288
 31
0.0
  0
LINE
  5
33A5
  8
YODOROGO
 10
30617.604341291921
 20
1795.7494964292871
 30
0.0
 11
30617.604341291921
 21
1735.7494964292871
 31
0.0
  0
LINE
  5
33A6
  8
YODOROGO
 10
31165.604341291921
 20
2027.749496429288
 30
0.0
 11
31165.604341291921
 21
1963.749496429286
 31
0.0
  0
LINE
  5
33A7
  8
YODOROGO
 10
31533.604341291921
 20
1595.7494964292871
 30
0.0
 11
31533.60434129191
 21
1811.749496429288
 31
0.0
  0
LINE
  5
33A8
  8
YODOROGO
 10
31461.60434129191
 20
1987.7494964292871
 30
0.0
 11
31461.60434129191
 21
1635.7494964292871
 31
0.0
  0
LINE
  5
33A9
  8
YODOROGO
 10
31653.604341291921
 20
1427.749496429288
 30
0.0
 11
31653.60434129191
 21
1811.749496429288
 31
0.0
  0
LINE
  5
33AA
  8
YODOROGO
 10
31589.604341291921
 20
1811.749496429288
 30
0.0
 11
31589.604341291921
 21
1427.749496429288
 31
0.0
  0
LINE
  5
33AB
  8
YODOROGO
 10
31237.604341291921
 20
1595.7494964292871
 30
0.0
 11
31237.604341291921
 21
1707.749496429288
 31
0.0
  0
ARC
  5
33AC
  8
YODOROGO
 10
31353.914865116069
 20
1607.790351288558
 30
0.0
 40
180.0924485759885
 50
268.62849102169793
 51
356.16638457330322
  0
LINE
  5
33AD
  8
YODOROGO
 10
31349.604341291939
 20
1527.749496429288
 30
0.0
 11
31349.604341291939
 21
1427.749496429288
 31
0.0
  0
ARC
  5
33AE
  8
YODOROGO
 10
31351.518075724562
 20
1637.838957017655
 30
0.0
 40
110.1060929836122
 50
269.00410209305932
 51
358.91264455492478
  0
LINE
  5
33AF
  8
YODOROGO
 10
31589.604341291921
 20
1427.749496429288
 30
0.0
 11
31653.604341291921
 21
1427.749496429288
 31
0.0
  0
LINE
  5
33B0
  8
YODOROGO
 10
31533.60434129191
 20
1811.749496429288
 30
0.0
 11
31589.604341291921
 21
1811.749496429288
 31
0.0
  0
LINE
  5
33B1
  8
YODOROGO
 10
31621.604341291939
 20
1987.7494964292871
 30
0.0
 11
31461.60434129191
 21
1987.7494964292871
 31
0.0
  0
LINE
  5
33B2
  8
YODOROGO
 10
31533.60434129191
 20
1915.7494964292871
 30
0.0
 11
31661.604341291939
 21
1915.7494964292871
 31
0.0
  0
LINE
  5
33B3
  8
YODOROGO
 10
31701.604341291939
 20
1875.7494964292871
 30
0.0
 11
31533.60434129191
 21
1875.7494964292871
 31
0.0
  0
LINE
  5
33B4
  8
YODOROGO
 10
31237.604341291921
 20
1779.749496429288
 30
0.0
 11
31349.604341291939
 21
1779.749496429288
 31
0.0
  0
LINE
  5
33B5
  8
YODOROGO
 10
31237.604341291921
 20
1835.7494964292871
 30
0.0
 11
31237.604341291921
 21
1779.749496429288
 31
0.0
  0
LINE
  5
33B6
  8
YODOROGO
 10
31349.604341291939
 20
1835.7494964292871
 30
0.0
 11
31237.604341291921
 21
1835.7494964292871
 31
0.0
  0
LINE
  5
33B7
  8
YODOROGO
 10
31349.604341291939
 20
1779.749496429288
 30
0.0
 11
31349.604341291939
 21
1835.7494964292871
 31
0.0
  0
LINE
  5
33B8
  8
YODOROGO
 10
31533.60434129191
 20
1875.7494964292871
 30
0.0
 11
31533.60434129191
 21
1915.7494964292871
 31
0.0
  0
LINE
  5
33B9
  8
YODOROGO
 10
31413.604341291921
 20
1707.749496429288
 30
0.0
 11
31413.604341291921
 21
1907.7494964292871
 31
0.0
  0
LINE
  5
33BA
  8
YODOROGO
 10
31237.604341291921
 20
1707.749496429288
 30
0.0
 11
31413.604341291921
 21
1707.749496429288
 31
0.0
  0
LINE
  5
33BB
  8
YODOROGO
 10
31413.604341291921
 20
1963.749496429286
 30
0.0
 11
31413.604341291921
 21
2027.749496429288
 31
0.0
  0
ARC
  5
33BC
  8
YODOROGO
 10
31621.604341291939
 20
2003.749496429285
 30
0.0
 40
15.999999999994539
 50
270.0
 51
0.0000000000081422
  0
LINE
  5
33BD
  8
YODOROGO
 10
31637.604341291921
 20
2027.749496429288
 30
0.0
 11
31637.604341291921
 21
2003.7494964292871
 31
0.0
  0
LINE
  5
33BE
  8
YODOROGO
 10
31701.604341291939
 20
2027.749496429288
 30
0.0
 11
31637.604341291921
 21
2027.749496429288
 31
0.0
  0
LINE
  5
33BF
  8
YODOROGO
 10
31701.604341291939
 20
1955.7494964292871
 30
0.0
 11
31701.604341291939
 21
2027.749496429288
 31
0.0
  0
ARC
  5
33C0
  8
YODOROGO
 10
31661.604341291939
 20
1955.7494964292871
 30
0.0
 40
40.0
 50
270.0
 51
0.0
  0
LINE
  5
33C1
  8
YODOROGO
 10
31701.604341291939
 20
1811.749496429288
 30
0.0
 11
31701.604341291939
 21
1875.7494964292871
 31
0.0
  0
LINE
  5
33C2
  8
YODOROGO
 10
31653.60434129191
 20
1811.749496429288
 30
0.0
 11
31701.604341291939
 21
1811.749496429288
 31
0.0
  0
LINE
  5
33C3
  8
SUNPOU
  6
CONTINUOUS
 62
     4
 10
9841.2568779999874
 20
13780.759228000001
 30
0.0
 11
9841.2568779999874
 21
12601.809428
 31
0.0
  0
LINE
  5
33C4
  8
SUNPOU
  6
CONTINUOUS
 62
     4
 10
13280.757670000001
 20
13780.759228000001
 30
0.0
 11
13280.757670000001
 21
12601.809428
 31
0.0
  0
LINE
  5
33C5
  8
SUNPOU
  6
CONTINUOUS
 62
     4
 10
9841.2568779999874
 20
12681.809428
 30
0.0
 11
13280.757670000001
 21
12681.809428
 31
0.0
  0
LINE
  5
33C6
  8
SUNPOU
  6
CONTINUOUS
 62
     4
 10
9764.2530729999908
 20
13860.762197
 30
0.0
 11
8917.2576519999948
 21
13860.762197
 31
0.0
  0
LINE
  5
33C7
  8
SUNPOU
  6
CONTINUOUS
 62
     4
 10
8997.2576519999911
 20
14053.257512
 30
0.0
 11
8997.2576519999911
 21
14293.257512
 31
0.0
  0
LINE
  5
33C8
  8
SUNPOU
  6
CONTINUOUS
 62
     4
 10
8997.2576519999911
 20
13860.762197
 30
0.0
 11
8997.2576519999911
 21
13620.762197
 31
0.0
  0
LINE
  5
33C9
  8
SUNPOU
  6
CONTINUOUS
 62
     4
 10
8997.2576519999911
 20
14053.257512
 30
0.0
 11
8997.2576519999911
 21
13860.762197
 31
0.0
  0
LINE
  5
33CA
  8
SUNPOU
  6
CONTINUOUS
 62
     4
 10
8997.2576519999911
 20
16620.757511999989
 30
0.0
 11
8997.2576519999911
 21
14053.257512
 31
0.0
  0
LINE
  5
33CB
  8
SUNPOU
  6
CONTINUOUS
 62
     4
 10
9764.2530729999908
 20
19400.753421000001
 30
0.0
 11
9317.2576519999911
 21
19400.753421000001
 31
0.0
  0
LINE
  5
33CC
  8
SUNPOU
  6
CONTINUOUS
 62
     4
 10
9764.2574279999935
 20
19410.753421000009
 30
0.0
 11
9317.2576519999911
 21
19410.753421000009
 31
0.0
  0
LINE
  5
33CD
  8
SUNPOU
  6
CONTINUOUS
 62
     4
 10
9397.2576519999911
 20
19400.753421000001
 30
0.0
 11
9397.2576519999911
 21
19160.753421000001
 31
0.0
  0
LINE
  5
33CE
  8
SUNPOU
  6
CONTINUOUS
 62
     4
 10
9397.2576519999911
 20
19410.753421000009
 30
0.0
 11
9397.2576519999911
 21
19650.753421000001
 31
0.0
  0
LINE
  5
33CF
  8
SUNPOU
  6
CONTINUOUS
 62
     4
 10
9397.2576519999911
 20
19400.753421000001
 30
0.0
 11
9397.2576519999911
 21
19410.753421000009
 31
0.0
  0
LINE
  5
33D0
  8
SUNPOU
  6
CONTINUOUS
 62
     4
 10
9764.2574279999935
 20
19410.753421000009
 30
0.0
 11
8917.2576519999948
 21
19410.753421000009
 31
0.0
  0
LINE
  5
33D1
  8
SUNPOU
  6
CONTINUOUS
 62
     4
 10
8997.2576519999911
 20
19188.257511999989
 30
0.0
 11
8997.2576519999911
 21
18948.257511999989
 31
0.0
  0
LINE
  5
33D2
  8
SUNPOU
  6
CONTINUOUS
 62
     4
 10
8997.2576519999911
 20
19410.753421000009
 30
0.0
 11
8997.2576519999911
 21
19650.753421000001
 31
0.0
  0
LINE
  5
33D3
  8
SUNPOU
  6
CONTINUOUS
 62
     4
 10
8997.2576519999911
 20
19188.257511999989
 30
0.0
 11
8997.2576519999911
 21
19410.753421000009
 31
0.0
  0
LINE
  5
33D4
  8
SUNPOU
  6
CONTINUOUS
 62
     4
 10
8997.2576519999911
 20
16620.757511999989
 30
0.0
 11
8997.2576519999911
 21
19188.257511999989
 31
0.0
  0
LINE
  5
33D5
  8
SUNPOU
  6
CONTINUOUS
 62
     4
 10
13280.763212000011
 20
19560.759096000002
 30
0.0
 11
13280.763212000011
 21
20110.764374999992
 31
0.0
  0
LINE
  5
33D6
  8
SUNPOU
  6
CONTINUOUS
 62
     4
 10
13195.263212000011
 20
20030.764374999992
 30
0.0
 11
12955.263212000011
 21
20030.764374999992
 31
0.0
  0
LINE
  5
33D7
  8
SUNPOU
  6
CONTINUOUS
 62
     4
 10
13277.763212000011
 20
20030.764374999992
 30
0.0
 11
13517.763212000011
 21
20030.764374999992
 31
0.0
  0
LINE
  5
33D8
  8
SUNPOU
  6
CONTINUOUS
 62
     4
 10
13195.263212000011
 20
20030.764374999992
 30
0.0
 11
13277.763212000011
 21
20030.764374999992
 31
0.0
  0
LINE
  5
33D9
  8
SUNPOU
  6
CONTINUOUS
 62
     4
 10
9841.2632120000126
 20
19560.759096000002
 30
0.0
 11
9841.2632120000126
 21
20110.764374999992
 31
0.0
  0
LINE
  5
33DA
  8
SUNPOU
  6
CONTINUOUS
 62
     4
 10
9926.7632120000126
 20
20030.764374999992
 30
0.0
 11
10166.763212000011
 21
20030.764374999992
 31
0.0
  0
LINE
  5
33DB
  8
SUNPOU
  6
CONTINUOUS
 62
     4
 10
9844.2632120000126
 20
20030.764374999992
 30
0.0
 11
9604.2632120000126
 21
20030.764374999992
 31
0.0
  0
LINE
  5
33DC
  8
SUNPOU
  6
CONTINUOUS
 62
     4
 10
9926.7632120000126
 20
20030.764374999992
 30
0.0
 11
9844.2632120000126
 21
20030.764374999992
 31
0.0
  0
LINE
  5
33DD
  8
SUNPOU
  6
CONTINUOUS
 62
     4
 10
13195.263212000011
 20
20030.764374999992
 30
0.0
 11
9926.7632120000126
 21
20030.764374999992
 31
0.0
  0
LINE
  5
33DE
  8
SUNPOU
  6
CONTINUOUS
 62
     4
 10
22972.75781100001
 20
14460.87776775
 30
0.0
 11
24022.759130999999
 21
14460.87776775
 31
0.0
  0
LINE
  5
33DF
  8
SUNPOU
  6
CONTINUOUS
 62
     4
 10
23822.75913100001
 20
14053.37776775
 30
0.0
 11
24022.759130999999
 21
14053.37776775
 31
0.0
  0
LINE
  5
33E0
  8
SUNPOU
  6
CONTINUOUS
 62
     4
 10
23942.759130999999
 20
14460.87776775
 30
0.0
 11
23942.759130999999
 21
14053.37776775
 31
0.0
  0
LINE
  5
33E1
  8
SUNPOU
  6
CONTINUOUS
 62
     4
 10
22972.75781100001
 20
18780.757511999989
 30
0.0
 11
24022.759130999999
 21
18780.757511999989
 31
0.0
  0
LINE
  5
33E2
  8
SUNPOU
  6
CONTINUOUS
 62
     4
 10
23822.75913100001
 20
19188.257511999989
 30
0.0
 11
24022.759130999999
 21
19188.257511999989
 31
0.0
  0
LINE
  5
33E3
  8
SUNPOU
  6
CONTINUOUS
 62
     4
 10
23942.759130999999
 20
18780.757511999989
 30
0.0
 11
23942.759130999999
 21
19188.257511999989
 31
0.0
  0
LINE
  5
33E4
  8
SUNPOU
  6
CONTINUOUS
 62
     4
 10
19581.759526999991
 20
13347.494077999991
 30
0.0
 11
19581.759526999991
 21
13001.809428
 31
0.0
  0
LINE
  5
33E5
  8
SUNPOU
  6
CONTINUOUS
 62
     4
 10
19539.25728400001
 20
13930.76021699999
 30
0.0
 11
19539.25728400001
 21
13001.809428
 31
0.0
  0
LINE
  5
33E6
  8
SUNPOU
  6
CONTINUOUS
 62
     4
 10
19581.759526999991
 20
13081.809428
 30
0.0
 11
19821.759526999998
 21
13081.809428
 31
0.0
  0
LINE
  5
33E7
  8
SUNPOU
  6
CONTINUOUS
 62
     4
 10
19539.25728400001
 20
13081.809428
 30
0.0
 11
19299.25728400001
 21
13081.809428
 31
0.0
  0
LINE
  5
33E8
  8
SUNPOU
  6
CONTINUOUS
 62
     4
 10
19581.759526999991
 20
13081.809428
 30
0.0
 11
19539.25728400001
 21
13081.809428
 31
0.0
  0
LINE
  5
33E9
  8
SUNPOU
  6
CONTINUOUS
 62
     4
 10
22850.259527000009
 20
13347.494077999991
 30
0.0
 11
22850.259527000009
 21
13001.809428
 31
0.0
  0
LINE
  5
33EA
  8
SUNPOU
  6
CONTINUOUS
 62
     4
 10
22892.761770000001
 20
13930.76021699999
 30
0.0
 11
22892.761770000001
 21
13001.809428
 31
0.0
  0
LINE
  5
33EB
  8
SUNPOU
  6
CONTINUOUS
 62
     4
 10
22850.259527000009
 20
13081.809428
 30
0.0
 11
22610.259527000009
 21
13081.809428
 31
0.0
  0
LINE
  5
33EC
  8
SUNPOU
  6
CONTINUOUS
 62
     4
 10
22892.761770000001
 20
13081.809428
 30
0.0
 11
23132.761770000001
 21
13081.809428
 31
0.0
  0
LINE
  5
33ED
  8
SUNPOU
  6
CONTINUOUS
 62
     4
 10
22850.259527000009
 20
13081.809428
 30
0.0
 11
22892.761770000001
 21
13081.809428
 31
0.0
  0
LINE
  5
33EE
  8
SUNPOU
  6
CONTINUOUS
 62
     4
 10
22850.259527000009
 20
13347.494077999991
 30
0.0
 11
22850.259527000009
 21
13001.809428
 31
0.0
  0
LINE
  5
33EF
  8
SUNPOU
  6
CONTINUOUS
 62
     4
 10
22807.757283999999
 20
13930.76021699999
 30
0.0
 11
22807.757283999999
 21
13001.809428
 31
0.0
  0
LINE
  5
33F0
  8
SUNPOU
  6
CONTINUOUS
 62
     4
 10
22850.259527000009
 20
13081.809428
 30
0.0
 11
23090.259527000009
 21
13081.809428
 31
0.0
  0
LINE
  5
33F1
  8
SUNPOU
  6
CONTINUOUS
 62
     4
 10
22807.757283999999
 20
13081.809428
 30
0.0
 11
22567.757283999999
 21
13081.809428
 31
0.0
  0
LINE
  5
33F2
  8
SUNPOU
  6
CONTINUOUS
 62
     4
 10
22850.259527000009
 20
13081.809428
 30
0.0
 11
22807.757283999999
 21
13081.809428
 31
0.0
  0
LINE
  5
33F3
  8
SUNPOU
  6
CONTINUOUS
 62
     4
 10
19581.759526999991
 20
13347.494077999991
 30
0.0
 11
19581.759526999991
 21
13001.809428
 31
0.0
  0
LINE
  5
33F4
  8
SUNPOU
  6
CONTINUOUS
 62
     4
 10
19624.261770000001
 20
13930.76021699999
 30
0.0
 11
19624.261770000001
 21
13001.809428
 31
0.0
  0
LINE
  5
33F5
  8
SUNPOU
  6
CONTINUOUS
 62
     4
 10
19581.759526999991
 20
13081.809428
 30
0.0
 11
19341.759526999998
 21
13081.809428
 31
0.0
  0
LINE
  5
33F6
  8
SUNPOU
  6
CONTINUOUS
 62
     4
 10
19624.261770000001
 20
13081.809428
 30
0.0
 11
19864.261770000001
 21
13081.809428
 31
0.0
  0
LINE
  5
33F7
  8
SUNPOU
  6
CONTINUOUS
 62
     4
 10
19581.759526999991
 20
13081.809428
 30
0.0
 11
19624.261770000001
 21
13081.809428
 31
0.0
  0
LINE
  5
33F8
  8
SUNPOU
  6
CONTINUOUS
 62
     4
 10
19539.25728400001
 20
13930.76021699999
 30
0.0
 11
19539.25728400001
 21
12601.809428
 31
0.0
  0
LINE
  5
33F9
  8
SUNPOU
  6
CONTINUOUS
 62
     4
 10
22892.761770000001
 20
13930.76021699999
 30
0.0
 11
22892.761770000001
 21
12601.809428
 31
0.0
  0
LINE
  5
33FA
  8
SUNPOU
  6
CONTINUOUS
 62
     4
 10
19539.25728400001
 20
12681.809428
 30
0.0
 11
22892.761770000001
 21
12681.809428
 31
0.0
  0
LINE
  5
33FB
  8
SUNPOU
  6
CONTINUOUS
 62
     4
 10
22972.75781100001
 20
15161.99802350002
 30
0.0
 11
24022.759130999999
 21
15161.99802350002
 31
0.0
  0
LINE
  5
33FC
  8
SUNPOU
  6
CONTINUOUS
 62
     4
 10
22972.75781100001
 20
14460.757511999989
 30
0.0
 11
24022.759130999999
 21
14460.757511999989
 31
0.0
  0
LINE
  5
33FD
  8
SUNPOU
  6
CONTINUOUS
 62
     4
 10
23942.759130999999
 20
15161.99802350002
 30
0.0
 11
23942.759130999999
 21
14460.757511999989
 31
0.0
  0
LINE
  5
33FE
  8
SUNPOU
  6
CONTINUOUS
 62
     4
 10
22972.75781100001
 20
15862.757512
 30
0.0
 11
24022.759130999999
 21
15862.757512
 31
0.0
  0
LINE
  5
33FF
  8
SUNPOU
  6
CONTINUOUS
 62
     4
 10
22972.75781100001
 20
15161.99802350002
 30
0.0
 11
24022.759130999999
 21
15161.99802350002
 31
0.0
  0
LINE
  5
3400
  8
SUNPOU
  6
CONTINUOUS
 62
     4
 10
23942.759130999999
 20
15862.757512
 30
0.0
 11
23942.759130999999
 21
15161.99802350002
 31
0.0
  0
LINE
  5
3401
  8
SUNPOU
  6
CONTINUOUS
 62
     4
 10
23822.75913100001
 20
16620.757511999989
 30
0.0
 11
24022.759130999999
 21
16620.757511999989
 31
0.0
  0
LINE
  5
3402
  8
SUNPOU
  6
CONTINUOUS
 62
     4
 10
22972.75781100001
 20
15862.757512
 30
0.0
 11
24022.759130999999
 21
15862.757512
 31
0.0
  0
LINE
  5
3403
  8
SUNPOU
  6
CONTINUOUS
 62
     4
 10
23942.759130999999
 20
16620.757511999989
 30
0.0
 11
23942.759130999999
 21
15862.757512
 31
0.0
  0
LINE
  5
3404
  8
SUNPOU
  6
CONTINUOUS
 62
     4
 10
22972.75781100001
 20
17378.757511999978
 30
0.0
 11
24022.759130999999
 21
17378.757511999978
 31
0.0
  0
LINE
  5
3405
  8
SUNPOU
  6
CONTINUOUS
 62
     4
 10
23822.75913100001
 20
16620.757511999989
 30
0.0
 11
24022.759130999999
 21
16620.757511999989
 31
0.0
  0
LINE
  5
3406
  8
SUNPOU
  6
CONTINUOUS
 62
     4
 10
23942.759130999999
 20
17378.757511999978
 30
0.0
 11
23942.759130999999
 21
16620.757511999989
 31
0.0
  0
LINE
  5
3407
  8
SUNPOU
  6
CONTINUOUS
 62
     4
 10
22972.75781100001
 20
18079.757511999978
 30
0.0
 11
24022.759130999999
 21
18079.757511999978
 31
0.0
  0
LINE
  5
3408
  8
SUNPOU
  6
CONTINUOUS
 62
     4
 10
22972.75781100001
 20
17378.757511999978
 30
0.0
 11
24022.759130999999
 21
17378.757511999978
 31
0.0
  0
LINE
  5
3409
  8
SUNPOU
  6
CONTINUOUS
 62
     4
 10
23942.759130999999
 20
18079.757511999978
 30
0.0
 11
23942.759130999999
 21
17378.757511999978
 31
0.0
  0
LINE
  5
340A
  8
SUNPOU
  6
CONTINUOUS
 62
     4
 10
22972.75781100001
 20
18780.757511999989
 30
0.0
 11
24022.759130999999
 21
18780.757511999989
 31
0.0
  0
LINE
  5
340B
  8
SUNPOU
  6
CONTINUOUS
 62
     4
 10
22972.75781100001
 20
18079.757511999978
 30
0.0
 11
24022.759130999999
 21
18079.757511999978
 31
0.0
  0
LINE
  5
340C
  8
SUNPOU
  6
CONTINUOUS
 62
     4
 10
23942.759130999999
 20
18780.757511999989
 30
0.0
 11
23942.759130999999
 21
18079.757511999978
 31
0.0
  0
LINE
  5
340D
  8
SUNPOU
  6
CONTINUOUS
 62
     4
 10
23822.75913100001
 20
16620.757511999989
 30
0.0
 11
24422.759130999999
 21
16620.757511999989
 31
0.0
  0
LINE
  5
340E
  8
SUNPOU
  6
CONTINUOUS
 62
     4
 10
23822.75913100001
 20
19188.257511999989
 30
0.0
 11
24422.759130999999
 21
19188.257511999989
 31
0.0
  0
LINE
  5
340F
  8
SUNPOU
  6
CONTINUOUS
 62
     4
 10
24342.759130999999
 20
16620.757511999989
 30
0.0
 11
24342.759130999999
 21
19188.257511999989
 31
0.0
  0
LINE
  5
3410
  8
SUNPOU
  6
CONTINUOUS
 62
     4
 10
23822.75913100001
 20
14053.257512
 30
0.0
 11
24422.759130999999
 21
14053.257512
 31
0.0
  0
LINE
  5
3411
  8
SUNPOU
  6
CONTINUOUS
 62
     4
 10
23822.75913100001
 20
16620.757511999989
 30
0.0
 11
24422.759130999999
 21
16620.757511999989
 31
0.0
  0
LINE
  5
3412
  8
SUNPOU
  6
CONTINUOUS
 62
     4
 10
24342.759130999999
 20
14053.257512
 30
0.0
 11
24342.759130999999
 21
16620.757511999989
 31
0.0
  0
LINE
  5
3413
  8
SUNPOU
  6
CONTINUOUS
 62
     4
 10
22972.75781100001
 20
19230.754807000001
 30
0.0
 11
24822.759130999999
 21
19230.754806999979
 31
0.0
  0
LINE
  5
3414
  8
SUNPOU
  6
CONTINUOUS
 62
     4
 10
22972.75781100001
 20
14010.76021699999
 30
0.0
 11
24822.759130999999
 21
14010.76021699999
 31
0.0
  0
LINE
  5
3415
  8
SUNPOU
  6
CONTINUOUS
 62
     4
 10
24742.759130999999
 20
19230.754806999979
 30
0.0
 11
24742.759130999999
 21
14010.76021699999
 31
0.0
  0
LINE
  5
3416
  8
SUNPOU
  6
CONTINUOUS
 62
     4
 10
23822.75913100001
 20
19188.257511999989
 30
0.0
 11
24422.759130999999
 21
19188.257511999989
 31
0.0
  0
LINE
  5
3417
  8
SUNPOU
  6
CONTINUOUS
 62
     4
 10
22972.75781100001
 20
19230.754807000001
 30
0.0
 11
24422.759130999999
 21
19230.754807000001
 31
0.0
  0
LINE
  5
3418
  8
SUNPOU
  6
CONTINUOUS
 62
     4
 10
24342.759130999999
 20
19188.257511999989
 30
0.0
 11
24342.759130999999
 21
18948.257511999989
 31
0.0
  0
LINE
  5
3419
  8
SUNPOU
  6
CONTINUOUS
 62
     4
 10
24342.759130999999
 20
19230.754807000001
 30
0.0
 11
24342.759130999999
 21
19470.754807000001
 31
0.0
  0
LINE
  5
341A
  8
SUNPOU
  6
CONTINUOUS
 62
     4
 10
24342.759130999999
 20
19188.257511999989
 30
0.0
 11
24342.759130999999
 21
19230.754807000001
 31
0.0
  0
LINE
  5
341B
  8
SUNPOU
  6
CONTINUOUS
 62
     4
 10
23822.75913100001
 20
14053.257512
 30
0.0
 11
24422.759130999999
 21
14053.257512
 31
0.0
  0
LINE
  5
341C
  8
SUNPOU
  6
CONTINUOUS
 62
     4
 10
22972.75781100001
 20
14010.76021699999
 30
0.0
 11
24422.759130999999
 21
14010.76021699999
 31
0.0
  0
LINE
  5
341D
  8
SUNPOU
  6
CONTINUOUS
 62
     4
 10
24342.759130999999
 20
14053.257512
 30
0.0
 11
24342.759130999999
 21
14293.257512
 31
0.0
  0
LINE
  5
341E
  8
SUNPOU
  6
CONTINUOUS
 62
     4
 10
24342.759130999999
 20
14010.76021699999
 30
0.0
 11
24342.759130999999
 21
13770.76021699999
 31
0.0
  0
LINE
  5
341F
  8
SUNPOU
  6
CONTINUOUS
 62
     4
 10
24342.759130999999
 20
14053.257512
 30
0.0
 11
24342.759130999999
 21
14010.76021699999
 31
0.0
  0
LINE
  5
3420
  8
SUNPOU
  6
CONTINUOUS
 62
     4
 10
19581.759526999991
 20
19310.75579700002
 30
0.0
 11
19581.759526999991
 21
20040.75870000002
 31
0.0
  0
LINE
  5
3421
  8
SUNPOU
  6
CONTINUOUS
 62
     4
 10
19989.259526999991
 20
19310.75579700002
 30
0.0
 11
19989.259526999991
 21
20040.75870000002
 31
0.0
  0
LINE
  5
3422
  8
SUNPOU
  6
CONTINUOUS
 62
     4
 10
19581.759526999991
 20
19960.75870000002
 30
0.0
 11
19341.759526999998
 21
19960.75870000002
 31
0.0
  0
LINE
  5
3423
  8
SUNPOU
  6
CONTINUOUS
 62
     4
 10
19989.259526999991
 20
19960.75870000002
 30
0.0
 11
20229.259526999998
 21
19960.75870000002
 31
0.0
  0
LINE
  5
3424
  8
SUNPOU
  6
CONTINUOUS
 62
     4
 10
19581.759526999991
 20
19960.75870000002
 30
0.0
 11
19989.259526999991
 21
19960.75870000002
 31
0.0
  0
LINE
  5
3425
  8
SUNPOU
  6
CONTINUOUS
 62
     4
 10
22092.259527000009
 20
19310.75579700002
 30
0.0
 11
22092.259527000009
 21
20040.75870000002
 31
0.0
  0
LINE
  5
3426
  8
SUNPOU
  6
CONTINUOUS
 62
     4
 10
22850.26051650002
 20
19310.75579700002
 30
0.0
 11
22850.26051650002
 21
20040.75870000002
 31
0.0
  0
LINE
  5
3427
  8
SUNPOU
  6
CONTINUOUS
 62
     4
 10
22092.259527000009
 20
19960.75870000002
 30
0.0
 11
22850.26051650002
 21
19960.75870000002
 31
0.0
  0
LINE
  5
3428
  8
SUNPOU
  6
CONTINUOUS
 62
     4
 10
21391.259526999998
 20
19310.75579700002
 30
0.0
 11
21391.259526999998
 21
20040.75870000002
 31
0.0
  0
LINE
  5
3429
  8
SUNPOU
  6
CONTINUOUS
 62
     4
 10
22092.259527000009
 20
19310.75579700002
 30
0.0
 11
22092.259527000009
 21
20040.75870000002
 31
0.0
  0
LINE
  5
342A
  8
SUNPOU
  6
CONTINUOUS
 62
     4
 10
21391.259526999998
 20
19960.75870000002
 30
0.0
 11
22092.259527000009
 21
19960.75870000002
 31
0.0
  0
LINE
  5
342B
  8
SUNPOU
  6
CONTINUOUS
 62
     4
 10
20690.259526999998
 20
19310.75579700002
 30
0.0
 11
20690.259526999998
 21
20040.75870000002
 31
0.0
  0
LINE
  5
342C
  8
SUNPOU
  6
CONTINUOUS
 62
     4
 10
21391.259526999998
 20
19310.75579700002
 30
0.0
 11
21391.259526999998
 21
20040.75870000002
 31
0.0
  0
LINE
  5
342D
  8
SUNPOU
  6
CONTINUOUS
 62
     4
 10
20690.259526999998
 20
19960.75870000002
 30
0.0
 11
21391.259526999998
 21
19960.75870000002
 31
0.0
  0
LINE
  5
342E
  8
SUNPOU
  6
CONTINUOUS
 62
     4
 10
19989.259526999991
 20
19310.75579700002
 30
0.0
 11
19989.259526999991
 21
20040.75870000002
 31
0.0
  0
LINE
  5
342F
  8
SUNPOU
  6
CONTINUOUS
 62
     4
 10
20690.259526999998
 20
19310.75579700002
 30
0.0
 11
20690.259526999998
 21
20040.75870000002
 31
0.0
  0
LINE
  5
3430
  8
SUNPOU
  6
CONTINUOUS
 62
     4
 10
19989.259526999991
 20
19960.75870000002
 30
0.0
 11
20690.259526999998
 21
19960.75870000002
 31
0.0
  0
LINE
  5
3431
  8
SUNPOU
  6
CONTINUOUS
 62
     4
 10
22850.259527000009
 20
19310.75579700002
 30
0.0
 11
22850.259527000009
 21
20040.75870000002
 31
0.0
  0
LINE
  5
3432
  8
SUNPOU
  6
CONTINUOUS
 62
     4
 10
22892.755831999992
 20
19310.75579700002
 30
0.0
 11
22892.755831999992
 21
20040.75870000002
 31
0.0
  0
LINE
  5
3433
  8
SUNPOU
  6
CONTINUOUS
 62
     4
 10
22850.259527000009
 20
19960.75870000002
 30
0.0
 11
22610.259527000009
 21
19960.75870000002
 31
0.0
  0
LINE
  5
3434
  8
SUNPOU
  6
CONTINUOUS
 62
     4
 10
22892.755831999992
 20
19960.75870000002
 30
0.0
 11
23132.755831999992
 21
19960.75870000002
 31
0.0
  0
LINE
  5
3435
  8
SUNPOU
  6
CONTINUOUS
 62
     4
 10
22850.259527000009
 20
19960.75870000002
 30
0.0
 11
22892.755831999992
 21
19960.75870000002
 31
0.0
  0
LINE
  5
3436
  8
SUNPOU
  6
CONTINUOUS
 62
     4
 10
19581.759526999991
 20
19310.75579700002
 30
0.0
 11
19581.759526999991
 21
20040.75870000002
 31
0.0
  0
LINE
  5
3437
  8
SUNPOU
  6
CONTINUOUS
 62
     4
 10
19539.263222000001
 20
19310.75579700002
 30
0.0
 11
19539.263222000001
 21
20040.75870000002
 31
0.0
  0
LINE
  5
3438
  8
SUNPOU
  6
CONTINUOUS
 62
     4
 10
19581.759526999991
 20
19960.75870000002
 30
0.0
 11
19821.759526999998
 21
19960.75870000002
 31
0.0
  0
LINE
  5
3439
  8
SUNPOU
  6
CONTINUOUS
 62
     4
 10
19539.263222000001
 20
19960.75870000002
 30
0.0
 11
19299.263222000001
 21
19960.75870000002
 31
0.0
  0
LINE
  5
343A
  8
SUNPOU
  6
CONTINUOUS
 62
     4
 10
19581.759526999991
 20
19960.75870000002
 30
0.0
 11
19539.263222000001
 21
19960.75870000002
 31
0.0
  0
LINE
  5
343B
  8
SUNPOU
  6
CONTINUOUS
 62
     4
 10
14569.013606
 20
6111.4596339999998
 30
0.0
 11
15646.51202200001
 21
6111.4596339999998
 31
0.0
  0
LINE
  5
343C
  8
SUNPOU
  6
CONTINUOUS
 62
     4
 10
14661.31888559939
 20
8460.4596340000007
 30
0.0
 11
15646.51202200001
 21
8460.4596340000007
 31
0.0
  0
LINE
  5
343D
  8
SUNPOU
  6
CONTINUOUS
 62
     4
 10
15566.51202200001
 20
6111.4596339999998
 30
0.0
 11
15566.51202200001
 21
8460.4596340000007
 31
0.0
  0
LINE
  5
343E
  8
SUNPOU
  6
CONTINUOUS
 62
     4
 10
9169.0136060000114
 20
6111.4596339999998
 30
0.0
 11
8086.5132100000128
 21
6111.4596339999998
 31
0.0
  0
LINE
  5
343F
  8
SUNPOU
  6
CONTINUOUS
 62
     4
 10
8996.5136060000059
 20
8266.9596340000026
 30
0.0
 11
8086.5132100000128
 21
8266.9596340000026
 31
0.0
  0
LINE
  5
3440
  8
SUNPOU
  6
CONTINUOUS
 62
     4
 10
8166.5132100000101
 20
6111.4596339999998
 30
0.0
 11
8166.5132100000128
 21
8266.9596340000026
 31
0.0
  0
LINE
  5
3441
  8
SUNPOU
  6
CONTINUOUS
 62
     4
 10
14476.513606
 20
8406.3696970000001
 30
0.0
 11
14476.513606
 21
9339.4613089999966
 31
0.0
  0
LINE
  5
3442
  8
SUNPOU
  6
CONTINUOUS
 62
     4
 10
14626.51360600001
 20
8480.3494564124285
 30
0.0
 11
14626.51360600001
 21
9339.4613089999966
 31
0.0
  0
LINE
  5
3443
  8
SUNPOU
  6
CONTINUOUS
 62
     4
 10
14476.513606
 20
9259.4613089999966
 30
0.0
 11
14236.513606
 21
9259.4613089999966
 31
0.0
  0
LINE
  5
3444
  8
SUNPOU
  6
CONTINUOUS
 62
     4
 10
14626.51360600001
 20
9259.4613089999966
 30
0.0
 11
14866.513606
 21
9259.4613089999966
 31
0.0
  0
LINE
  5
3445
  8
SUNPOU
  6
CONTINUOUS
 62
     4
 10
14476.513606
 20
9259.4613089999966
 30
0.0
 11
14626.51360600001
 21
9259.4613089999966
 31
0.0
  0
LINE
  5
3446
  8
SUNPOU
  6
CONTINUOUS
 62
     4
 10
9076.5136060000114
 20
8348.4596330000004
 30
0.0
 11
9076.5136060000114
 21
9739.4596589999965
 31
0.0
  0
LINE
  5
3447
  8
SUNPOU
  6
CONTINUOUS
 62
     4
 10
14626.51360600001
 20
8480.3494564124285
 30
0.0
 11
14626.51360600001
 21
9739.4596589999965
 31
0.0
  0
LINE
  5
3448
  8
SUNPOU
  6
CONTINUOUS
 62
     4
 10
9076.5136060000114
 20
9659.4596589999965
 30
0.0
 11
14626.51360600001
 21
9659.4596589999965
 31
0.0
  0
LINE
  5
3449
  8
SUNPOU
  6
CONTINUOUS
 62
     4
 10
9256.5136060000114
 20
8218.6454086838057
 30
0.0
 11
9256.5136060000114
 21
9339.4613089999966
 31
0.0
  0
LINE
  5
344A
  8
SUNPOU
  6
CONTINUOUS
 62
     4
 10
14476.513606
 20
8406.3696970000001
 30
0.0
 11
14476.513606
 21
9339.4613089999966
 31
0.0
  0
LINE
  5
344B
  8
SUNPOU
  6
CONTINUOUS
 62
     4
 10
9256.5136060000114
 20
9259.4613089999966
 30
0.0
 11
14476.513606
 21
9259.4613089999966
 31
0.0
  0
LINE
  5
344C
  8
SUNPOU
  6
CONTINUOUS
 62
     4
 10
9076.5136060000114
 20
8348.4596330000004
 30
0.0
 11
9076.5136060000114
 21
9339.4613089999966
 31
0.0
  0
LINE
  5
344D
  8
SUNPOU
  6
CONTINUOUS
 62
     4
 10
9256.5136060000114
 20
8218.6454086838057
 30
0.0
 11
9256.5136060000114
 21
9339.4613089999966
 31
0.0
  0
LINE
  5
344E
  8
SUNPOU
  6
CONTINUOUS
 62
     4
 10
9076.5136060000114
 20
9259.4613089999966
 30
0.0
 11
8836.5136060000114
 21
9259.4613089999966
 31
0.0
  0
LINE
  5
344F
  8
SUNPOU
  6
CONTINUOUS
 62
     4
 10
9256.5136060000114
 20
9259.4613089999966
 30
0.0
 11
9496.5136060000132
 21
9259.4613089999966
 31
0.0
  0
LINE
  5
3450
  8
SUNPOU
  6
CONTINUOUS
 62
     4
 10
9076.5136060000114
 20
9259.4613089999966
 30
0.0
 11
9256.5136060000114
 21
9259.4613089999966
 31
0.0
  0
LINE
  5
3451
  8
SUNPOU
  6
CONTINUOUS
 62
     4
 10
14434.011627
 20
5668.8073749999958
 30
0.0
 11
14434.011627
 21
4731.4597979999953
 31
0.0
  0
LINE
  5
3452
  8
SUNPOU
  6
CONTINUOUS
 62
     4
 10
14476.511627000011
 20
6031.4596329999977
 30
0.0
 11
14476.511627000011
 21
4731.4597979999953
 31
0.0
  0
LINE
  5
3453
  8
SUNPOU
  6
CONTINUOUS
 62
     4
 10
14434.011627
 20
4811.4597979999962
 30
0.0
 11
14194.011627
 21
4811.4597979999962
 31
0.0
  0
LINE
  5
3454
  8
SUNPOU
  6
CONTINUOUS
 62
     4
 10
14476.511627000011
 20
4811.4597979999962
 30
0.0
 11
14716.511627000011
 21
4811.4597979999962
 31
0.0
  0
LINE
  5
3455
  8
SUNPOU
  6
CONTINUOUS
 62
     4
 10
14434.011627
 20
4811.4597979999962
 30
0.0
 11
14476.511627000011
 21
4811.4597979999962
 31
0.0
  0
LINE
  5
3456
  8
SUNPOU
  6
CONTINUOUS
 62
     4
 10
11866.51360600001
 20
5668.8063859999993
 30
0.0
 11
11866.51360600001
 21
4731.4597990000002
 31
0.0
  0
LINE
  5
3457
  8
SUNPOU
  6
CONTINUOUS
 62
     4
 10
14434.01360600001
 20
5668.8063859999993
 30
0.0
 11
14434.01360600001
 21
4731.4597990000002
 31
0.0
  0
LINE
  5
3458
  8
SUNPOU
  6
CONTINUOUS
 62
     4
 10
11866.51360600001
 20
4811.4597990000002
 30
0.0
 11
14434.01360600001
 21
4811.4597990000002
 31
0.0
  0
LINE
  5
3459
  8
SUNPOU
  6
CONTINUOUS
 62
     4
 10
9256.5136060000114
 20
6031.4596329999977
 30
0.0
 11
9256.5136060000114
 21
4331.4599629999948
 31
0.0
  0
LINE
  5
345A
  8
SUNPOU
  6
CONTINUOUS
 62
     4
 10
14476.511627000011
 20
6031.4596329999977
 30
0.0
 11
14476.511627000011
 21
4331.4599629999948
 31
0.0
  0
LINE
  5
345B
  8
SUNPOU
  6
CONTINUOUS
 62
     4
 10
9256.5136060000114
 20
4411.4599629999948
 30
0.0
 11
14476.511627000011
 21
4411.4599629999948
 31
0.0
  0
LINE
  5
345C
  8
SUNPOU
  6
CONTINUOUS
 62
     4
 10
9299.0136060000114
 20
5668.8073749999958
 30
0.0
 11
9299.0136060000114
 21
4731.4597979999953
 31
0.0
  0
LINE
  5
345D
  8
SUNPOU
  6
CONTINUOUS
 62
     4
 10
9256.5136060000114
 20
6031.4596329999977
 30
0.0
 11
9256.5136060000114
 21
4731.4597979999953
 31
0.0
  0
LINE
  5
345E
  8
SUNPOU
  6
CONTINUOUS
 62
     4
 10
9299.0136060000114
 20
4811.4597979999962
 30
0.0
 11
9539.0136060000114
 21
4811.4597979999962
 31
0.0
  0
LINE
  5
345F
  8
SUNPOU
  6
CONTINUOUS
 62
     4
 10
9256.5136060000114
 20
4811.4597979999962
 30
0.0
 11
9016.5136060000095
 21
4811.4597979999962
 31
0.0
  0
LINE
  5
3460
  8
SUNPOU
  6
CONTINUOUS
 62
     4
 10
9299.0136060000114
 20
4811.4597979999962
 30
0.0
 11
9256.5136060000114
 21
4811.4597979999962
 31
0.0
  0
LINE
  5
3461
  8
SUNPOU
  6
CONTINUOUS
 62
     4
 10
11866.51360600001
 20
5668.8073749999958
 30
0.0
 11
11866.51360600001
 21
4731.4597979999953
 31
0.0
  0
LINE
  5
3462
  8
SUNPOU
  6
CONTINUOUS
 62
     4
 10
9299.0136060000114
 20
5668.8073749999958
 30
0.0
 11
9299.0136060000114
 21
4731.4597979999953
 31
0.0
  0
LINE
  5
3463
  8
SUNPOU
  6
CONTINUOUS
 62
     4
 10
11866.51360600001
 20
4811.4597979999962
 30
0.0
 11
9299.0136060000114
 21
4811.4597979999962
 31
0.0
  0
LINE
  5
3464
  8
SUNPOU
  6
CONTINUOUS
 62
     4
 10
19451.756888
 20
6111.4596339999998
 30
0.0
 11
18651.758206999999
 21
6111.4596339999998
 31
0.0
  0
LINE
  5
3465
  8
SUNPOU
  6
CONTINUOUS
 62
     4
 10
19451.756888
 20
8002.9596339999989
 30
0.0
 11
18651.758206999999
 21
8002.9596339999989
 31
0.0
  0
LINE
  5
3466
  8
SUNPOU
  6
CONTINUOUS
 62
     4
 10
18731.758206999999
 20
6111.4596339999998
 30
0.0
 11
18731.758206999999
 21
8002.9596339999989
 31
0.0
  0
LINE
  5
3467
  8
SUNPOU
  6
CONTINUOUS
 62
     4
 10
19451.756888
 20
6111.4596339999998
 30
0.0
 11
18251.755897999989
 21
6111.4596340000016
 31
0.0
  0
LINE
  5
3468
  8
SUNPOU
  6
CONTINUOUS
 62
     4
 10
19419.259132000021
 20
8460.4594890000008
 30
0.0
 11
18251.755897999999
 21
8460.4594890000008
 31
0.0
  0
LINE
  5
3469
  8
SUNPOU
  6
CONTINUOUS
 62
     4
 10
18331.75589800001
 20
6111.4596340000016
 30
0.0
 11
18331.75589800001
 21
8460.4594890000008
 31
0.0
  0
LINE
  5
346A
  8
SUNPOU
  6
CONTINUOUS
 62
     4
 10
22892.759790999989
 20
8539.4596599999968
 30
0.0
 11
22892.759790999989
 21
9338.9595019999961
 31
0.0
  0
LINE
  5
346B
  8
SUNPOU
  6
CONTINUOUS
 62
     4
 10
22935.76190199998
 20
8539.4596599999968
 30
0.0
 11
22935.76190199998
 21
9338.9595019999961
 31
0.0
  0
LINE
  5
346C
  8
SUNPOU
  6
CONTINUOUS
 62
     4
 10
22892.759790999989
 20
9258.9595019999961
 30
0.0
 11
22652.759790999989
 21
9258.9595019999961
 31
0.0
  0
LINE
  5
346D
  8
SUNPOU
  6
CONTINUOUS
 62
     4
 10
22932.76190199998
 20
9258.9595019999961
 30
0.0
 11
23172.76190199998
 21
9258.9595019999961
 31
0.0
  0
LINE
  5
346E
  8
SUNPOU
  6
CONTINUOUS
 62
     4
 10
22892.759790999989
 20
9258.9595019999961
 30
0.0
 11
22932.76190199998
 21
9258.9595019999961
 31
0.0
  0
LINE
  5
346F
  8
SUNPOU
  6
CONTINUOUS
 62
     4
 10
19496.257152000031
 20
8539.4596599999968
 30
0.0
 11
19496.257152000031
 21
9738.9172720000006
 31
0.0
  0
LINE
  5
3470
  8
SUNPOU
  6
CONTINUOUS
 62
     4
 10
22935.76190199998
 20
8539.4596599999968
 30
0.0
 11
22935.76190199998
 21
9738.9172720000006
 31
0.0
  0
LINE
  5
3471
  8
SUNPOU
  6
CONTINUOUS
 62
     4
 10
19499.257152000031
 20
9658.9172719999951
 30
0.0
 11
22932.76190199998
 21
9658.9172719999951
 31
0.0
  0
LINE
  5
3472
  8
SUNPOU
  6
CONTINUOUS
 62
     4
 10
19539.259263000022
 20
8539.4596599999968
 30
0.0
 11
19539.259263000022
 21
9338.9595019999961
 31
0.0
  0
LINE
  5
3473
  8
SUNPOU
  6
CONTINUOUS
 62
     4
 10
22892.759790999989
 20
8539.4596599999968
 30
0.0
 11
22892.759790999989
 21
9338.9595019999961
 31
0.0
  0
LINE
  5
3474
  8
SUNPOU
  6
CONTINUOUS
 62
     4
 10
19539.259263000022
 20
9258.9595019999961
 30
0.0
 11
22892.759790999989
 21
9258.9595019999961
 31
0.0
  0
LINE
  5
3475
  8
SUNPOU
  6
CONTINUOUS
 62
     4
 10
19539.259263000022
 20
8539.4596599999968
 30
0.0
 11
19539.259263000022
 21
9338.9595019999961
 31
0.0
  0
LINE
  5
3476
  8
SUNPOU
  6
CONTINUOUS
 62
     4
 10
19496.257152000031
 20
8539.4596599999968
 30
0.0
 11
19496.257152000031
 21
9338.9595019999961
 31
0.0
  0
LINE
  5
3477
  8
SUNPOU
  6
CONTINUOUS
 62
     4
 10
19539.259263000022
 20
9258.9595019999961
 30
0.0
 11
19779.259263000022
 21
9258.9595019999961
 31
0.0
  0
LINE
  5
3478
  8
SUNPOU
  6
CONTINUOUS
 62
     4
 10
19499.257152000031
 20
9258.9595019999961
 30
0.0
 11
19259.257152000031
 21
9258.9595019999961
 31
0.0
  0
LINE
  5
3479
  8
SUNPOU
  6
CONTINUOUS
 62
     4
 10
19539.259263000022
 20
9258.9595019999961
 30
0.0
 11
19499.257152000031
 21
9258.9595019999961
 31
0.0
  0
LINE
  5
347A
  8
SUNPOU
  6
CONTINUOUS
 62
     4
 10
22850.259527000009
 20
5668.8073760000016
 30
0.0
 11
22850.259527000009
 21
4731.4597990000038
 31
0.0
  0
LINE
  5
347B
  8
SUNPOU
  6
CONTINUOUS
 62
     4
 10
22892.759527000009
 20
5931.4597990000048
 30
0.0
 11
22892.759527000009
 21
4731.4597990000038
 31
0.0
  0
LINE
  5
347C
  8
SUNPOU
  6
CONTINUOUS
 62
     4
 10
22850.259527000009
 20
4811.4597990000038
 30
0.0
 11
22610.259527000009
 21
4811.4597990000038
 31
0.0
  0
LINE
  5
347D
  8
SUNPOU
  6
CONTINUOUS
 62
     4
 10
22892.759527000009
 20
4811.4597990000038
 30
0.0
 11
23132.759527000009
 21
4811.4597990000038
 31
0.0
  0
LINE
  5
347E
  8
SUNPOU
  6
CONTINUOUS
 62
     4
 10
22850.259527000009
 20
4811.4597990000038
 30
0.0
 11
22892.759527000009
 21
4811.4597990000038
 31
0.0
  0
LINE
  5
347F
  8
SUNPOU
  6
CONTINUOUS
 62
     4
 10
19675.759526999991
 20
5931.4597990000048
 30
0.0
 11
19675.759526999991
 21
5131.4597990000057
 31
0.0
  0
LINE
  5
3480
  8
SUNPOU
  6
CONTINUOUS
 62
     4
 10
22756.259526999998
 20
5931.4597990000048
 30
0.0
 11
22756.259526999998
 21
5131.4597990000057
 31
0.0
  0
LINE
  5
3481
  8
SUNPOU
  6
CONTINUOUS
 62
     4
 10
19675.759526999991
 20
5211.4597990000057
 30
0.0
 11
22756.259526999998
 21
5211.4597990000057
 31
0.0
  0
LINE
  5
3482
  8
SUNPOU
  6
CONTINUOUS
 62
     4
 10
19581.759526999991
 20
5668.8073760000016
 30
0.0
 11
19581.759526999991
 21
4731.4597990000038
 31
0.0
  0
LINE
  5
3483
  8
SUNPOU
  6
CONTINUOUS
 62
     4
 10
22850.259527000009
 20
5668.8073760000016
 30
0.0
 11
22850.259527000009
 21
4731.4597990000038
 31
0.0
  0
LINE
  5
3484
  8
SUNPOU
  6
CONTINUOUS
 62
     4
 10
19581.759526999991
 20
4811.4597990000038
 30
0.0
 11
22850.259527000009
 21
4811.4597990000038
 31
0.0
  0
LINE
  5
3485
  8
SUNPOU
  6
CONTINUOUS
 62
     4
 10
19581.759526999991
 20
5668.8073760000016
 30
0.0
 11
19581.759526999991
 21
4731.4597990000038
 31
0.0
  0
LINE
  5
3486
  8
SUNPOU
  6
CONTINUOUS
 62
     4
 10
19539.259526999991
 20
5931.4597990000048
 30
0.0
 11
19539.259526999991
 21
4731.4597990000038
 31
0.0
  0
LINE
  5
3487
  8
SUNPOU
  6
CONTINUOUS
 62
     4
 10
19581.759526999991
 20
4811.4597990000038
 30
0.0
 11
19821.759526999998
 21
4811.4597990000038
 31
0.0
  0
LINE
  5
3488
  8
SUNPOU
  6
CONTINUOUS
 62
     4
 10
19539.259526999991
 20
4811.4597990000038
 30
0.0
 11
19299.259526999991
 21
4811.4597990000038
 31
0.0
  0
LINE
  5
3489
  8
SUNPOU
  6
CONTINUOUS
 62
     4
 10
19581.759526999991
 20
4811.4597990000038
 30
0.0
 11
19539.259526999991
 21
4811.4597990000038
 31
0.0
  0
LINE
  5
348A
  8
SUNPOU
  6
CONTINUOUS
 62
     4
 10
19539.259526999991
 20
5931.4597990000048
 30
0.0
 11
19539.259526999991
 21
4331.4599640000033
 31
0.0
  0
LINE
  5
348B
  8
SUNPOU
  6
CONTINUOUS
 62
     4
 10
22892.759527000009
 20
5931.4597990000048
 30
0.0
 11
22892.759527000009
 21
4331.4599640000033
 31
0.0
  0
LINE
  5
348C
  8
SUNPOU
  6
CONTINUOUS
 62
     4
 10
19539.259526999991
 20
4411.4599640000042
 30
0.0
 11
22892.759527000009
 21
4411.4599640000042
 31
0.0
  0
TEXT
  5
348D
  8
0
  6
CONTINUOUS
 62
     7
 10
20816.009526999998
 20
4491.4599640000033
 30
0.0
 40
160.0
  1
3353.5
  0
TEXT
  5
348E
  8
0
  6
CONTINUOUS
 62
     7
 10
18973.220536741152
 20
4891.4597990000057
 30
0.0
 40
160.0
  1
42.5
  0
TEXT
  5
348F
  8
0
  6
CONTINUOUS
 62
     7
 10
20816.009526999998
 20
4891.4597990000057
 30
0.0
 40
160.0
  1
3268.5
  0
TEXT
  5
3490
  8
0
  6
CONTINUOUS
 62
     7
 10
20314.676193666681
 20
5291.4597990000057
 30
0.0
 40
160.0
  1
有効開口巾 3080.5
  0
TEXT
  5
3491
  8
0
  6
CONTINUOUS
 62
     7
 10
22978.798517258841
 20
4891.4597990000057
 30
0.0
 40
160.0
  1
42.5
  0
TEXT
  5
3492
  8
0
  6
CONTINUOUS
 62
     7
 10
19139.257152000031
 20
9338.9595019999961
 30
0.0
 40
160.0
  1
43
  0
TEXT
  5
3493
  8
0
  6
CONTINUOUS
 62
     7
 10
20816.009526999998
 20
9338.9595019999961
 30
0.0
 40
160.0
  1
3353.5
  0
TEXT
  5
3494
  8
0
  6
CONTINUOUS
 62
     7
 10
20816.009526999998
 20
9738.9172720000006
 30
0.0
 40
160.0
  1
3439.5
  0
TEXT
  5
3495
  8
0
  6
CONTINUOUS
 62
     7
 10
23052.76190199998
 20
9338.9595019999961
 30
0.0
 40
160.0
  1
43
  0
TEXT
  5
3496
  8
0
  6
CONTINUOUS
 62
     7
 10
18251.755897999989
 20
6517.9595615000053
 30
0.0
 40
160.0
  1
2349 (2589)
 50
90.0
  0
TEXT
  5
3497
  8
0
  6
CONTINUOUS
 62
     7
 10
18651.758206999999
 20
6175.4388722912772
 30
0.0
 40
160.0
  1
有効開口高サ 1891.5
 50
90.0
  0
TEXT
  5
3498
  8
0
  6
CONTINUOUS
 62
     7
 10
10182.763606
 20
4891.4597979999962
 30
0.0
 40
160.0
  1
2567.5
  0
TEXT
  5
3499
  8
0
  6
CONTINUOUS
 62
     7
 10
8659.3398969037044
 20
4891.4597979999962
 30
0.0
 40
160.0
  1
42.5
  0
TEXT
  5
349A
  8
0
  6
CONTINUOUS
 62
     7
 10
11586.5126165
 20
4491.4599629999957
 30
0.0
 40
160.0
  1
5220
  0
TEXT
  5
349B
  8
0
  6
CONTINUOUS
 62
     7
 10
12750.263606
 20
4891.4597990000002
 30
0.0
 40
160.0
  1
2567.5
  0
TEXT
  5
349C
  8
0
  6
CONTINUOUS
 62
     7
 10
14593.6853360963
 20
4891.4597979999962
 30
0.0
 40
160.0
  1
42.5
  0
TEXT
  5
349D
  8
0
  6
CONTINUOUS
 62
     7
 10
8663.1802726666774
 20
9339.4613089999966
 30
0.0
 40
160.0
  1
180
  0
TEXT
  5
349E
  8
0
  6
CONTINUOUS
 62
     7
 10
11586.51360600001
 20
9339.4613089999966
 30
0.0
 40
160.0
  1
5220
  0
TEXT
  5
349F
  8
0
  6
CONTINUOUS
 62
     7
 10
11571.51360600001
 20
9739.4596589999965
 30
0.0
 40
160.0
  1
5550
  0
TEXT
  5
34A0
  8
0
  6
CONTINUOUS
 62
     7
 10
14693.18027266667
 20
9339.4613089999966
 30
0.0
 40
160.0
  1
150
  0
TEXT
  5
34A1
  8
0
  6
CONTINUOUS
 62
     7
 10
8086.5132100000101
 20
6197.2096340000026
 30
0.0
 40
160.0
  1
2155.5（2395.5）
 50
90.0
  0
TEXT
  5
34A2
  8
0
  6
CONTINUOUS
 62
     7
 10
15486.51202200001
 20
6480.6263006666677
 30
0.0
 40
160.0
  1
2349（2589）
 50
90.0
  0
TEXT
  5
34A3
  8
0
  6
CONTINUOUS
 62
     7
 10
18978.947547471202
 20
20040.75870000002
 30
0.0
 40
160.0
  1
42.5
  0
TEXT
  5
34A4
  8
0
  6
CONTINUOUS
 62
     7
 10
22973.071506528791
 20
20040.75870000002
 30
0.0
 40
160.0
  1
42.5
  0
TEXT
  5
34A5
  8
0
  6
CONTINUOUS
 62
     7
 10
20166.426193666681
 20
19720.75870000002
 30
0.0
 40
160.0
  1
701
  0
TEXT
  5
34A6
  8
0
  6
CONTINUOUS
 62
     7
 10
20867.426193666681
 20
20040.75870000002
 30
0.0
 40
160.0
  1
701
  0
TEXT
  5
34A7
  8
0
  6
CONTINUOUS
 62
     7
 10
21568.426193666681
 20
20040.75870000002
 30
0.0
 40
160.0
  1
701
  0
TEXT
  5
34A8
  8
0
  6
CONTINUOUS
 62
     7
 10
22257.926688416679
 20
20040.75870000002
 30
0.0
 40
160.0
  1
758
  0
TEXT
  5
34A9
  8
0
  6
CONTINUOUS
 62
     7
 10
19682.592860333341
 20
20040.75870000002
 30
0.0
 40
160.0
  1
407.5
  0
TEXT
  5
34AA
  8
0
  6
CONTINUOUS
 62
     7
 10
24262.759130999999
 20
13437.203980603201
 30
0.0
 40
160.0
  1
42.5
 50
90.0
  0
TEXT
  5
34AB
  8
0
  6
CONTINUOUS
 62
     7
 10
24262.759130999999
 20
19324.311043396781
 30
0.0
 40
160.0
  1
42.5
 50
90.0
  0
TEXT
  5
34AC
  8
0
  6
CONTINUOUS
 62
     7
 10
24662.759130999999
 20
16340.757512
 30
0.0
 40
160.0
  1
5220
 50
90.0
  0
TEXT
  5
34AD
  8
0
  6
CONTINUOUS
 62
     7
 10
24262.759130999999
 20
14937.007512
 30
0.0
 40
160.0
  1
2567.5
 50
90.0
  0
TEXT
  5
34AE
  8
0
  6
CONTINUOUS
 62
     7
 10
24262.759130999999
 20
17504.507511999989
 30
0.0
 40
160.0
  1
2567.5
 50
90.0
  0
TEXT
  5
34AF
  8
0
  6
CONTINUOUS
 62
     7
 10
23862.759130999992
 20
18256.924178666672
 30
0.0
 40
160.0
  1
701
 50
90.0
  0
TEXT
  5
34B0
  8
0
  6
CONTINUOUS
 62
     7
 10
23862.759130999992
 20
17555.924178666672
 30
0.0
 40
160.0
  1
701
 50
90.0
  0
TEXT
  5
34B1
  8
0
  6
CONTINUOUS
 62
     7
 10
23862.759130999992
 20
16786.424178666672
 30
0.0
 40
160.0
  1
758
 50
90.0
  0
TEXT
  5
34B2
  8
0
  6
CONTINUOUS
 62
     7
 10
23862.759130999992
 20
16028.42417866667
 30
0.0
 40
160.0
  1
758
 50
90.0
  0
TEXT
  5
34B3
  8
0
  6
CONTINUOUS
 62
     7
 10
23862.759130999992
 20
15339.04443441667
 30
0.0
 40
160.0
  1
701
 50
90.0
  0
TEXT
  5
34B4
  8
0
  6
CONTINUOUS
 62
     7
 10
23862.759130999992
 20
14638.04443441667
 30
0.0
 40
160.0
  1
701
 50
90.0
  0
TEXT
  5
34B5
  8
0
  6
CONTINUOUS
 62
     7
 10
20816.009526999998
 20
12761.809428
 30
0.0
 40
160.0
  1
3353.5
  0
TEXT
  5
34B6
  8
0
  6
CONTINUOUS
 62
     7
 10
19699.81319938209
 20
13161.809428
 30
0.0
 40
160.0
  1
42.5
  0
TEXT
  5
34B7
  8
0
  6
CONTINUOUS
 62
     7
 10
22252.205854617911
 20
13161.809428
 30
0.0
 40
160.0
  1
42.5
  0
TEXT
  5
34B8
  8
0
  6
CONTINUOUS
 62
     7
 10
22968.313199382079
 20
13161.809428
 30
0.0
 40
160.0
  1
42.5
  0
TEXT
  5
34B9
  8
0
  6
CONTINUOUS
 62
     7
 10
18983.705854617911
 20
13161.809428
 30
0.0
 40
160.0
  1
42.5
  0
TEXT
  5
34BA
  8
0
  6
CONTINUOUS
 62
     7
 10
24222.759130999999
 20
18490.13547964321
 30
0.0
 40
160.0
  1
407.5
 50
90.0
  0
TEXT
  5
34BB
  8
0
  6
CONTINUOUS
 62
     7
 10
24222.759130999999
 20
14126.19818195355
 30
0.0
 40
160.0
  1
407.5
 50
90.0
  0
TEXT
  5
34BC
  8
0
  6
CONTINUOUS
 62
     7
 10
11161.013212000011
 20
20110.764374999992
 30
0.0
 40
160.0
  1
3268.5
  0
TEXT
  5
34BD
  8
0
  6
CONTINUOUS
 62
     7
 10
9310.2665059767514
 20
20110.764374999992
 30
0.0
 40
160.0
  1
85.5
  0
TEXT
  5
34BE
  8
0
  6
CONTINUOUS
 62
     7
 10
13331.759918023279
 20
20110.764374999992
 30
0.0
 40
160.0
  1
85.5
  0
TEXT
  5
34BF
  8
0
  6
CONTINUOUS
 62
     7
 10
8917.2576519999911
 20
17504.507511999989
 30
0.0
 40
160.0
  1
2567.5
 50
90.0
  0
TEXT
  5
34C0
  8
0
  6
CONTINUOUS
 62
     7
 10
8917.2576519999893
 20
19499.712696807681
 30
0.0
 40
160.0
  1
222.5
 50
90.0
  0
TEXT
  5
34C1
  8
0
  6
CONTINUOUS
 62
     7
 10
9317.2576519999911
 20
19557.42008766668
 30
0.0
 40
160.0
  1
10
 50
90.0
  0
TEXT
  5
34C2
  8
0
  6
CONTINUOUS
 62
     7
 10
8917.2576519999911
 20
14937.007512
 30
0.0
 40
160.0
  1
2567.5
 50
90.0
  0
TEXT
  5
34C3
  8
0
  6
CONTINUOUS
 62
     7
 10
8917.2576519999948
 20
13245.304501702631
 30
0.0
 40
160.0
  1
192.5
 50
90.0
  0
TEXT
  5
34C4
  8
0
  6
CONTINUOUS
 62
     7
 10
10638.340607333321
 20
12761.809428
 30
0.0
 40
160.0
  1
ケラバ外寸 3439.5
  0
ARC
  5
34C5
  8
0
  6
BYBLOCK
 62
     0
 10
9841.2568779999874
 20
12681.809428
 30
0.0
 40
15.0
 50
0.0
 51
180.0
  0
ARC
  5
34C6
  8
0
  6
BYBLOCK
 62
     0
 10
9841.2568779999874
 20
12681.809428
 30
0.0
 40
15.0
 50
180.0
 51
0.0
  0
ARC
  5
34C7
  8
0
  6
BYBLOCK
 62
     0
 10
13280.757670000001
 20
12681.809428
 30
0.0
 40
15.0
 50
180.0
 51
0.0
  0
ARC
  5
34C8
  8
0
  6
BYBLOCK
 62
     0
 10
13280.757670000001
 20
12681.809428
 30
0.0
 40
15.0
 50
0.0
 51
180.0
  0
ARC
  5
34C9
  8
0
  6
BYBLOCK
 62
     0
 10
8997.2576519999911
 20
14053.257512
 30
0.0
 40
15.0
 50
90.0
 51
270.0
  0
ARC
  5
34CA
  8
0
  6
BYBLOCK
 62
     0
 10
8997.2576519999911
 20
14053.257512
 30
0.0
 40
15.0
 50
270.0
 51
90.0
  0
ARC
  5
34CB
  8
0
  6
BYBLOCK
 62
     0
 10
8997.2576519999911
 20
13860.762197
 30
0.0
 40
15.0
 50
270.0
 51
90.0
  0
ARC
  5
34CC
  8
0
  6
BYBLOCK
 62
     0
 10
8997.2576519999911
 20
13860.762197
 30
0.0
 40
15.0
 50
90.0
 51
270.0
  0
ARC
  5
34CD
  8
0
  6
BYBLOCK
 62
     0
 10
8997.2576519999911
 20
16620.757511999989
 30
0.0
 40
15.0
 50
270.0
 51
90.0
  0
ARC
  5
34CE
  8
0
  6
BYBLOCK
 62
     0
 10
8997.2576519999911
 20
16620.757511999989
 30
0.0
 40
15.0
 50
90.0
 51
270.0
  0
ARC
  5
34CF
  8
0
  6
BYBLOCK
 62
     0
 10
8997.2576519999911
 20
14053.257512
 30
0.0
 40
15.0
 50
90.0
 51
270.0
  0
ARC
  5
34D0
  8
0
  6
BYBLOCK
 62
     0
 10
8997.2576519999911
 20
14053.257512
 30
0.0
 40
15.0
 50
270.0
 51
90.0
  0
ARC
  5
34D1
  8
0
  6
BYBLOCK
 62
     0
 10
9397.2576519999911
 20
19400.753421000001
 30
0.0
 40
15.0
 50
270.0
 51
90.0
  0
ARC
  5
34D2
  8
0
  6
BYBLOCK
 62
     0
 10
9397.2576519999911
 20
19400.753421000001
 30
0.0
 40
15.0
 50
90.0
 51
270.0
  0
ARC
  5
34D3
  8
0
  6
BYBLOCK
 62
     0
 10
9397.2576519999911
 20
19410.753421000009
 30
0.0
 40
15.0
 50
90.0
 51
270.0
  0
ARC
  5
34D4
  8
0
  6
BYBLOCK
 62
     0
 10
9397.2576519999911
 20
19410.753421000009
 30
0.0
 40
15.0
 50
270.0
 51
90.0
  0
ARC
  5
34D5
  8
0
  6
BYBLOCK
 62
     0
 10
8997.2576519999911
 20
19188.257511999989
 30
0.0
 40
15.0
 50
270.0
 51
90.0
  0
ARC
  5
34D6
  8
0
  6
BYBLOCK
 62
     0
 10
8997.2576519999911
 20
19188.257511999989
 30
0.0
 40
15.0
 50
90.0
 51
270.0
  0
ARC
  5
34D7
  8
0
  6
BYBLOCK
 62
     0
 10
8997.2576519999911
 20
19410.753421000009
 30
0.0
 40
15.0
 50
90.0
 51
270.0
  0
ARC
  5
34D8
  8
0
  6
BYBLOCK
 62
     0
 10
8997.2576519999911
 20
19410.753421000009
 30
0.0
 40
15.0
 50
270.0
 51
90.0
  0
ARC
  5
34D9
  8
0
  6
BYBLOCK
 62
     0
 10
8997.2576519999911
 20
16620.757511999989
 30
0.0
 40
15.0
 50
90.0
 51
270.0
  0
ARC
  5
34DA
  8
0
  6
BYBLOCK
 62
     0
 10
8997.2576519999911
 20
16620.757511999989
 30
0.0
 40
15.0
 50
270.0
 51
90.0
  0
ARC
  5
34DB
  8
0
  6
BYBLOCK
 62
     0
 10
8997.2576519999911
 20
19188.257511999989
 30
0.0
 40
15.0
 50
270.0
 51
90.0
  0
ARC
  5
34DC
  8
0
  6
BYBLOCK
 62
     0
 10
8997.2576519999911
 20
19188.257511999989
 30
0.0
 40
15.0
 50
90.0
 51
270.0
  0
ARC
  5
34DD
  8
0
  6
BYBLOCK
 62
     0
 10
13195.263212000011
 20
20030.764374999992
 30
0.0
 40
15.0
 50
180.0
 51
0.0
  0
ARC
  5
34DE
  8
0
  6
BYBLOCK
 62
     0
 10
13195.263212000011
 20
20030.764374999992
 30
0.0
 40
15.0
 50
0.0
 51
180.0
  0
ARC
  5
34DF
  8
0
  6
BYBLOCK
 62
     0
 10
13280.763212000011
 20
20030.764374999992
 30
0.0
 40
15.0
 50
0.0
 51
180.0
  0
ARC
  5
34E0
  8
0
  6
BYBLOCK
 62
     0
 10
13280.763212000011
 20
20030.764374999992
 30
0.0
 40
15.0
 50
180.0
 51
0.0
  0
ARC
  5
34E1
  8
0
  6
BYBLOCK
 62
     0
 10
9926.7632120000126
 20
20030.764374999992
 30
0.0
 40
15.0
 50
0.0
 51
180.0
  0
ARC
  5
34E2
  8
0
  6
BYBLOCK
 62
     0
 10
9926.7632120000126
 20
20030.764374999992
 30
0.0
 40
15.0
 50
180.0
 51
0.0
  0
ARC
  5
34E3
  8
0
  6
BYBLOCK
 62
     0
 10
9841.2632120000126
 20
20030.764374999992
 30
0.0
 40
15.0
 50
180.0
 51
0.0
  0
ARC
  5
34E4
  8
0
  6
BYBLOCK
 62
     0
 10
9841.2632120000126
 20
20030.764374999992
 30
0.0
 40
15.0
 50
0.0
 51
180.0
  0
ARC
  5
34E5
  8
0
  6
BYBLOCK
 62
     0
 10
13195.263212000011
 20
20030.764374999992
 30
0.0
 40
15.0
 50
180.0
 51
0.0
  0
ARC
  5
34E6
  8
0
  6
BYBLOCK
 62
     0
 10
13195.263212000011
 20
20030.764374999992
 30
0.0
 40
15.0
 50
0.0
 51
180.0
  0
ARC
  5
34E7
  8
0
  6
BYBLOCK
 62
     0
 10
9926.7632120000126
 20
20030.764374999992
 30
0.0
 40
15.0
 50
0.0
 51
180.0
  0
ARC
  5
34E8
  8
0
  6
BYBLOCK
 62
     0
 10
9926.7632120000126
 20
20030.764374999992
 30
0.0
 40
15.0
 50
180.0
 51
0.0
  0
ARC
  5
34E9
  8
0
  6
BYBLOCK
 62
     0
 10
23942.759130999999
 20
14460.87776775
 30
0.0
 40
15.0
 50
270.0
 51
90.0
  0
ARC
  5
34EA
  8
0
  6
BYBLOCK
 62
     0
 10
23942.759130999999
 20
14460.87776775
 30
0.0
 40
15.0
 50
90.0
 51
270.0
  0
ARC
  5
34EB
  8
0
  6
BYBLOCK
 62
     0
 10
23942.759130999999
 20
14053.37776775
 30
0.0
 40
15.0
 50
90.0
 51
270.0
  0
ARC
  5
34EC
  8
0
  6
BYBLOCK
 62
     0
 10
23942.759130999999
 20
14053.37776775
 30
0.0
 40
15.0
 50
270.0
 51
90.0
  0
ARC
  5
34ED
  8
0
  6
BYBLOCK
 62
     0
 10
23942.759130999999
 20
18780.757511999989
 30
0.0
 40
15.0
 50
90.0
 51
270.0
  0
ARC
  5
34EE
  8
0
  6
BYBLOCK
 62
     0
 10
23942.759130999999
 20
18780.757511999989
 30
0.0
 40
15.0
 50
270.0
 51
90.0
  0
ARC
  5
34EF
  8
0
  6
BYBLOCK
 62
     0
 10
23942.759130999999
 20
19188.257511999989
 30
0.0
 40
15.0
 50
270.0
 51
90.0
  0
ARC
  5
34F0
  8
0
  6
BYBLOCK
 62
     0
 10
23942.759130999999
 20
19188.257511999989
 30
0.0
 40
15.0
 50
90.0
 51
270.0
  0
ARC
  5
34F1
  8
0
  6
BYBLOCK
 62
     0
 10
19581.759526999991
 20
13081.809428
 30
0.0
 40
15.0
 50
0.0
 51
180.0
  0
ARC
  5
34F2
  8
0
  6
BYBLOCK
 62
     0
 10
19581.759526999991
 20
13081.809428
 30
0.0
 40
15.0
 50
180.0
 51
0.0
  0
ARC
  5
34F3
  8
0
  6
BYBLOCK
 62
     0
 10
19539.25728400001
 20
13081.809428
 30
0.0
 40
15.0
 50
180.0
 51
0.0
  0
ARC
  5
34F4
  8
0
  6
BYBLOCK
 62
     0
 10
19539.25728400001
 20
13081.809428
 30
0.0
 40
15.0
 50
0.0
 51
180.0
  0
ARC
  5
34F5
  8
0
  6
BYBLOCK
 62
     0
 10
22850.259527000009
 20
13081.809428
 30
0.0
 40
15.0
 50
180.0
 51
0.0
  0
ARC
  5
34F6
  8
0
  6
BYBLOCK
 62
     0
 10
22850.259527000009
 20
13081.809428
 30
0.0
 40
15.0
 50
0.0
 51
180.0
  0
ARC
  5
34F7
  8
0
  6
BYBLOCK
 62
     0
 10
22892.761770000001
 20
13081.809428
 30
0.0
 40
15.0
 50
0.0
 51
180.0
  0
ARC
  5
34F8
  8
0
  6
BYBLOCK
 62
     0
 10
22892.761770000001
 20
13081.809428
 30
0.0
 40
15.0
 50
180.0
 51
0.0
  0
ARC
  5
34F9
  8
0
  6
BYBLOCK
 62
     0
 10
22850.259527000009
 20
13081.809428
 30
0.0
 40
15.0
 50
0.0
 51
180.0
  0
ARC
  5
34FA
  8
0
  6
BYBLOCK
 62
     0
 10
22850.259527000009
 20
13081.809428
 30
0.0
 40
15.0
 50
180.0
 51
0.0
  0
ARC
  5
34FB
  8
0
  6
BYBLOCK
 62
     0
 10
22807.757283999999
 20
13081.809428
 30
0.0
 40
15.0
 50
180.0
 51
0.0
  0
ARC
  5
34FC
  8
0
  6
BYBLOCK
 62
     0
 10
22807.757283999999
 20
13081.809428
 30
0.0
 40
15.0
 50
0.0
 51
180.0
  0
ARC
  5
34FD
  8
0
  6
BYBLOCK
 62
     0
 10
19581.759526999991
 20
13081.809428
 30
0.0
 40
15.0
 50
180.0
 51
0.0
  0
ARC
  5
34FE
  8
0
  6
BYBLOCK
 62
     0
 10
19581.759526999991
 20
13081.809428
 30
0.0
 40
15.0
 50
0.0
 51
180.0
  0
ARC
  5
34FF
  8
0
  6
BYBLOCK
 62
     0
 10
19624.261770000001
 20
13081.809428
 30
0.0
 40
15.0
 50
0.0
 51
180.0
  0
ARC
  5
3500
  8
0
  6
BYBLOCK
 62
     0
 10
19624.261770000001
 20
13081.809428
 30
0.0
 40
15.0
 50
180.0
 51
0.0
  0
ARC
  5
3501
  8
0
  6
BYBLOCK
 62
     0
 10
19539.25728400001
 20
12681.809428
 30
0.0
 40
15.0
 50
0.0
 51
180.0
  0
ARC
  5
3502
  8
0
  6
BYBLOCK
 62
     0
 10
19539.25728400001
 20
12681.809428
 30
0.0
 40
15.0
 50
180.0
 51
0.0
  0
ARC
  5
3503
  8
0
  6
BYBLOCK
 62
     0
 10
22892.761770000001
 20
12681.809428
 30
0.0
 40
15.0
 50
180.0
 51
0.0
  0
ARC
  5
3504
  8
0
  6
BYBLOCK
 62
     0
 10
22892.761770000001
 20
12681.809428
 30
0.0
 40
15.0
 50
0.0
 51
180.0
  0
ARC
  5
3505
  8
0
  6
BYBLOCK
 62
     0
 10
23942.759130999999
 20
15161.99802350002
 30
0.0
 40
15.0
 50
270.0
 51
90.0
  0
ARC
  5
3506
  8
0
  6
BYBLOCK
 62
     0
 10
23942.759130999999
 20
15161.99802350002
 30
0.0
 40
15.0
 50
90.0
 51
270.0
  0
ARC
  5
3507
  8
0
  6
BYBLOCK
 62
     0
 10
23942.759130999999
 20
14460.757511999989
 30
0.0
 40
15.0
 50
90.0
 51
270.0
  0
ARC
  5
3508
  8
0
  6
BYBLOCK
 62
     0
 10
23942.759130999999
 20
14460.757511999989
 30
0.0
 40
15.0
 50
270.0
 51
90.0
  0
ARC
  5
3509
  8
0
  6
BYBLOCK
 62
     0
 10
23942.759130999999
 20
15862.757512
 30
0.0
 40
15.0
 50
270.0
 51
90.0
  0
ARC
  5
350A
  8
0
  6
BYBLOCK
 62
     0
 10
23942.759130999999
 20
15862.757512
 30
0.0
 40
15.0
 50
90.0
 51
270.0
  0
ARC
  5
350B
  8
0
  6
BYBLOCK
 62
     0
 10
23942.759130999999
 20
15161.99802350002
 30
0.0
 40
15.0
 50
90.0
 51
270.0
  0
ARC
  5
350C
  8
0
  6
BYBLOCK
 62
     0
 10
23942.759130999999
 20
15161.99802350002
 30
0.0
 40
15.0
 50
270.0
 51
90.0
  0
ARC
  5
350D
  8
0
  6
BYBLOCK
 62
     0
 10
23942.759130999999
 20
16620.757511999989
 30
0.0
 40
15.0
 50
270.0
 51
90.0
  0
ARC
  5
350E
  8
0
  6
BYBLOCK
 62
     0
 10
23942.759130999999
 20
16620.757511999989
 30
0.0
 40
15.0
 50
90.0
 51
270.0
  0
ARC
  5
350F
  8
0
  6
BYBLOCK
 62
     0
 10
23942.759130999999
 20
15862.757512
 30
0.0
 40
15.0
 50
90.0
 51
270.0
  0
ARC
  5
3510
  8
0
  6
BYBLOCK
 62
     0
 10
23942.759130999999
 20
15862.757512
 30
0.0
 40
15.0
 50
270.0
 51
90.0
  0
ARC
  5
3511
  8
0
  6
BYBLOCK
 62
     0
 10
23942.759130999999
 20
17378.757511999978
 30
0.0
 40
15.0
 50
270.0
 51
90.0
  0
ARC
  5
3512
  8
0
  6
BYBLOCK
 62
     0
 10
23942.759130999999
 20
17378.757511999978
 30
0.0
 40
15.0
 50
90.0
 51
270.0
  0
ARC
  5
3513
  8
0
  6
BYBLOCK
 62
     0
 10
23942.759130999999
 20
16620.757511999989
 30
0.0
 40
15.0
 50
90.0
 51
270.0
  0
ARC
  5
3514
  8
0
  6
BYBLOCK
 62
     0
 10
23942.759130999999
 20
16620.757511999989
 30
0.0
 40
15.0
 50
270.0
 51
90.0
  0
ARC
  5
3515
  8
0
  6
BYBLOCK
 62
     0
 10
23942.759130999999
 20
18079.757511999978
 30
0.0
 40
15.0
 50
270.0
 51
90.0
  0
ARC
  5
3516
  8
0
  6
BYBLOCK
 62
     0
 10
23942.759130999999
 20
18079.757511999978
 30
0.0
 40
15.0
 50
90.0
 51
270.0
  0
ARC
  5
3517
  8
0
  6
BYBLOCK
 62
     0
 10
23942.759130999999
 20
17378.757511999978
 30
0.0
 40
15.0
 50
90.0
 51
270.0
  0
ARC
  5
3518
  8
0
  6
BYBLOCK
 62
     0
 10
23942.759130999999
 20
17378.757511999978
 30
0.0
 40
15.0
 50
270.0
 51
90.0
  0
ARC
  5
3519
  8
0
  6
BYBLOCK
 62
     0
 10
23942.759130999999
 20
18780.757511999989
 30
0.0
 40
15.0
 50
270.0
 51
90.0
  0
ARC
  5
351A
  8
0
  6
BYBLOCK
 62
     0
 10
23942.759130999999
 20
18780.757511999989
 30
0.0
 40
15.0
 50
90.0
 51
270.0
  0
ARC
  5
351B
  8
0
  6
BYBLOCK
 62
     0
 10
23942.759130999999
 20
18079.757511999978
 30
0.0
 40
15.0
 50
90.0
 51
270.0
  0
ARC
  5
351C
  8
0
  6
BYBLOCK
 62
     0
 10
23942.759130999999
 20
18079.757511999978
 30
0.0
 40
15.0
 50
270.0
 51
90.0
  0
ARC
  5
351D
  8
0
  6
BYBLOCK
 62
     0
 10
24342.759130999999
 20
16620.757511999989
 30
0.0
 40
15.0
 50
90.0
 51
270.0
  0
ARC
  5
351E
  8
0
  6
BYBLOCK
 62
     0
 10
24342.759130999999
 20
16620.757511999989
 30
0.0
 40
15.0
 50
270.0
 51
90.0
  0
ARC
  5
351F
  8
0
  6
BYBLOCK
 62
     0
 10
24342.759130999999
 20
19188.257511999989
 30
0.0
 40
15.0
 50
270.0
 51
90.0
  0
ARC
  5
3520
  8
0
  6
BYBLOCK
 62
     0
 10
24342.759130999999
 20
19188.257511999989
 30
0.0
 40
15.0
 50
90.0
 51
270.0
  0
ARC
  5
3521
  8
0
  6
BYBLOCK
 62
     0
 10
24342.759130999999
 20
14053.257512
 30
0.0
 40
15.0
 50
90.0
 51
270.0
  0
ARC
  5
3522
  8
0
  6
BYBLOCK
 62
     0
 10
24342.759130999999
 20
14053.257512
 30
0.0
 40
15.0
 50
270.0
 51
90.0
  0
ARC
  5
3523
  8
0
  6
BYBLOCK
 62
     0
 10
24342.759130999999
 20
16620.757511999989
 30
0.0
 40
15.0
 50
270.0
 51
90.0
  0
ARC
  5
3524
  8
0
  6
BYBLOCK
 62
     0
 10
24342.759130999999
 20
16620.757511999989
 30
0.0
 40
15.0
 50
90.0
 51
270.0
  0
ARC
  5
3525
  8
0
  6
BYBLOCK
 62
     0
 10
24742.759130999999
 20
19230.754806999979
 30
0.0
 40
15.0
 50
270.0
 51
90.0
  0
ARC
  5
3526
  8
0
  6
BYBLOCK
 62
     0
 10
24742.759130999999
 20
19230.754806999979
 30
0.0
 40
15.0
 50
90.0
 51
270.0
  0
ARC
  5
3527
  8
0
  6
BYBLOCK
 62
     0
 10
24742.759130999999
 20
14010.76021699999
 30
0.0
 40
15.0
 50
90.0
 51
270.0
  0
ARC
  5
3528
  8
0
  6
BYBLOCK
 62
     0
 10
24742.759130999999
 20
14010.76021699999
 30
0.0
 40
15.0
 50
270.0
 51
90.0
  0
ARC
  5
3529
  8
0
  6
BYBLOCK
 62
     0
 10
24342.759130999999
 20
19188.257511999989
 30
0.0
 40
15.0
 50
270.0
 51
90.0
  0
ARC
  5
352A
  8
0
  6
BYBLOCK
 62
     0
 10
24342.759130999999
 20
19188.257511999989
 30
0.0
 40
15.0
 50
90.0
 51
270.0
  0
ARC
  5
352B
  8
0
  6
BYBLOCK
 62
     0
 10
24342.759130999999
 20
19230.754807000001
 30
0.0
 40
15.0
 50
90.0
 51
270.0
  0
ARC
  5
352C
  8
0
  6
BYBLOCK
 62
     0
 10
24342.759130999999
 20
19230.754807000001
 30
0.0
 40
15.0
 50
270.0
 51
90.0
  0
ARC
  5
352D
  8
0
  6
BYBLOCK
 62
     0
 10
24342.759130999999
 20
14053.257512
 30
0.0
 40
15.0
 50
90.0
 51
270.0
  0
ARC
  5
352E
  8
0
  6
BYBLOCK
 62
     0
 10
24342.759130999999
 20
14053.257512
 30
0.0
 40
15.0
 50
270.0
 51
90.0
  0
ARC
  5
352F
  8
0
  6
BYBLOCK
 62
     0
 10
24342.759130999999
 20
14010.76021699999
 30
0.0
 40
15.0
 50
270.0
 51
90.0
  0
ARC
  5
3530
  8
0
  6
BYBLOCK
 62
     0
 10
24342.759130999999
 20
14010.76021699999
 30
0.0
 40
15.0
 50
90.0
 51
270.0
  0
ARC
  5
3531
  8
0
  6
BYBLOCK
 62
     0
 10
19581.759526999991
 20
19960.75870000002
 30
0.0
 40
15.0
 50
180.0
 51
0.0
  0
ARC
  5
3532
  8
0
  6
BYBLOCK
 62
     0
 10
19581.759526999991
 20
19960.75870000002
 30
0.0
 40
15.0
 50
0.0
 51
180.0
  0
ARC
  5
3533
  8
0
  6
BYBLOCK
 62
     0
 10
19989.259526999991
 20
19960.75870000002
 30
0.0
 40
15.0
 50
0.0
 51
180.0
  0
ARC
  5
3534
  8
0
  6
BYBLOCK
 62
     0
 10
19989.259526999991
 20
19960.75870000002
 30
0.0
 40
15.0
 50
180.0
 51
0.0
  0
ARC
  5
3535
  8
0
  6
BYBLOCK
 62
     0
 10
22092.259527000009
 20
19960.75870000002
 30
0.0
 40
15.0
 50
0.0
 51
180.0
  0
ARC
  5
3536
  8
0
  6
BYBLOCK
 62
     0
 10
22092.259527000009
 20
19960.75870000002
 30
0.0
 40
15.0
 50
180.0
 51
0.0
  0
ARC
  5
3537
  8
0
  6
BYBLOCK
 62
     0
 10
22850.26051650002
 20
19960.75870000002
 30
0.0
 40
15.0
 50
180.0
 51
0.0
  0
ARC
  5
3538
  8
0
  6
BYBLOCK
 62
     0
 10
22850.26051650002
 20
19960.75870000002
 30
0.0
 40
15.0
 50
0.0
 51
180.0
  0
ARC
  5
3539
  8
0
  6
BYBLOCK
 62
     0
 10
21391.259526999998
 20
19960.75870000002
 30
0.0
 40
15.0
 50
0.0
 51
180.0
  0
ARC
  5
353A
  8
0
  6
BYBLOCK
 62
     0
 10
21391.259526999998
 20
19960.75870000002
 30
0.0
 40
15.0
 50
180.0
 51
0.0
  0
ARC
  5
353B
  8
0
  6
BYBLOCK
 62
     0
 10
22092.259527000009
 20
19960.75870000002
 30
0.0
 40
15.0
 50
180.0
 51
0.0
  0
ARC
  5
353C
  8
0
  6
BYBLOCK
 62
     0
 10
22092.259527000009
 20
19960.75870000002
 30
0.0
 40
15.0
 50
0.0
 51
180.0
  0
ARC
  5
353D
  8
0
  6
BYBLOCK
 62
     0
 10
20690.259526999998
 20
19960.75870000002
 30
0.0
 40
15.0
 50
0.0
 51
180.0
  0
ARC
  5
353E
  8
0
  6
BYBLOCK
 62
     0
 10
20690.259526999998
 20
19960.75870000002
 30
0.0
 40
15.0
 50
180.0
 51
0.0
  0
ARC
  5
353F
  8
0
  6
BYBLOCK
 62
     0
 10
21391.259526999998
 20
19960.75870000002
 30
0.0
 40
15.0
 50
180.0
 51
0.0
  0
ARC
  5
3540
  8
0
  6
BYBLOCK
 62
     0
 10
21391.259526999998
 20
19960.75870000002
 30
0.0
 40
15.0
 50
0.0
 51
180.0
  0
ARC
  5
3541
  8
0
  6
BYBLOCK
 62
     0
 10
19989.259526999991
 20
19960.75870000002
 30
0.0
 40
15.0
 50
0.0
 51
180.0
  0
ARC
  5
3542
  8
0
  6
BYBLOCK
 62
     0
 10
19989.259526999991
 20
19960.75870000002
 30
0.0
 40
15.0
 50
180.0
 51
0.0
  0
ARC
  5
3543
  8
0
  6
BYBLOCK
 62
     0
 10
20690.259526999998
 20
19960.75870000002
 30
0.0
 40
15.0
 50
180.0
 51
0.0
  0
ARC
  5
3544
  8
0
  6
BYBLOCK
 62
     0
 10
20690.259526999998
 20
19960.75870000002
 30
0.0
 40
15.0
 50
0.0
 51
180.0
  0
ARC
  5
3545
  8
0
  6
BYBLOCK
 62
     0
 10
22850.259527000009
 20
19960.75870000002
 30
0.0
 40
15.0
 50
180.0
 51
0.0
  0
ARC
  5
3546
  8
0
  6
BYBLOCK
 62
     0
 10
22850.259527000009
 20
19960.75870000002
 30
0.0
 40
15.0
 50
0.0
 51
180.0
  0
ARC
  5
3547
  8
0
  6
BYBLOCK
 62
     0
 10
22892.755831999992
 20
19960.75870000002
 30
0.0
 40
15.0
 50
0.0
 51
180.0
  0
ARC
  5
3548
  8
0
  6
BYBLOCK
 62
     0
 10
22892.755831999992
 20
19960.75870000002
 30
0.0
 40
15.0
 50
180.0
 51
0.0
  0
ARC
  5
3549
  8
0
  6
BYBLOCK
 62
     0
 10
19581.759526999991
 20
19960.75870000002
 30
0.0
 40
15.0
 50
0.0
 51
180.0
  0
ARC
  5
354A
  8
0
  6
BYBLOCK
 62
     0
 10
19581.759526999991
 20
19960.75870000002
 30
0.0
 40
15.0
 50
180.0
 51
0.0
  0
ARC
  5
354B
  8
0
  6
BYBLOCK
 62
     0
 10
19539.263222000001
 20
19960.75870000002
 30
0.0
 40
15.0
 50
180.0
 51
0.0
  0
ARC
  5
354C
  8
0
  6
BYBLOCK
 62
     0
 10
19539.263222000001
 20
19960.75870000002
 30
0.0
 40
15.0
 50
0.0
 51
180.0
  0
ARC
  5
354D
  8
0
  6
BYBLOCK
 62
     0
 10
15566.51202200001
 20
6111.4596339999998
 30
0.0
 40
15.0
 50
90.0
 51
270.0
  0
ARC
  5
354E
  8
0
  6
BYBLOCK
 62
     0
 10
15566.51202200001
 20
6111.4596339999998
 30
0.0
 40
15.0
 50
270.0
 51
90.0
  0
ARC
  5
354F
  8
0
  6
BYBLOCK
 62
     0
 10
15566.51202200001
 20
8460.4596340000007
 30
0.0
 40
15.0
 50
270.0
 51
90.0
  0
ARC
  5
3550
  8
0
  6
BYBLOCK
 62
     0
 10
15566.51202200001
 20
8460.4596340000007
 30
0.0
 40
15.0
 50
90.0
 51
270.0
  0
ARC
  5
3551
  8
0
  6
BYBLOCK
 62
     0
 10
8166.5132100000101
 20
6111.4596339999998
 30
0.0
 40
15.0
 50
90.0
 51
270.0
  0
ARC
  5
3552
  8
0
  6
BYBLOCK
 62
     0
 10
8166.5132100000101
 20
6111.4596339999998
 30
0.0
 40
15.0
 50
270.0
 51
90.0
  0
ARC
  5
3553
  8
0
  6
BYBLOCK
 62
     0
 10
8166.5132100000128
 20
8266.9596340000026
 30
0.0
 40
15.0
 50
270.0
 51
90.0
  0
ARC
  5
3554
  8
0
  6
BYBLOCK
 62
     0
 10
8166.5132100000128
 20
8266.9596340000026
 30
0.0
 40
15.0
 50
90.0
 51
270.0
  0
ARC
  5
3555
  8
0
  6
BYBLOCK
 62
     0
 10
14476.513606
 20
9259.4613089999966
 30
0.0
 40
15.0
 50
180.0
 51
0.0
  0
ARC
  5
3556
  8
0
  6
BYBLOCK
 62
     0
 10
14476.513606
 20
9259.4613089999966
 30
0.0
 40
15.0
 50
0.0
 51
180.0
  0
ARC
  5
3557
  8
0
  6
BYBLOCK
 62
     0
 10
14626.51360600001
 20
9259.4613089999966
 30
0.0
 40
15.0
 50
0.0
 51
180.0
  0
ARC
  5
3558
  8
0
  6
BYBLOCK
 62
     0
 10
14626.51360600001
 20
9259.4613089999966
 30
0.0
 40
15.0
 50
180.0
 51
0.0
  0
ARC
  5
3559
  8
0
  6
BYBLOCK
 62
     0
 10
9076.5136060000114
 20
9659.4596589999965
 30
0.0
 40
15.0
 50
0.0
 51
180.0
  0
ARC
  5
355A
  8
0
  6
BYBLOCK
 62
     0
 10
9076.5136060000114
 20
9659.4596589999965
 30
0.0
 40
15.0
 50
180.0
 51
0.0
  0
ARC
  5
355B
  8
0
  6
BYBLOCK
 62
     0
 10
14626.51360600001
 20
9659.4596589999965
 30
0.0
 40
15.0
 50
180.0
 51
0.0
  0
ARC
  5
355C
  8
0
  6
BYBLOCK
 62
     0
 10
14626.51360600001
 20
9659.4596589999965
 30
0.0
 40
15.0
 50
0.0
 51
180.0
  0
ARC
  5
355D
  8
0
  6
BYBLOCK
 62
     0
 10
9256.5136060000114
 20
9259.4613089999966
 30
0.0
 40
15.0
 50
0.0
 51
180.0
  0
ARC
  5
355E
  8
0
  6
BYBLOCK
 62
     0
 10
9256.5136060000114
 20
9259.4613089999966
 30
0.0
 40
15.0
 50
180.0
 51
0.0
  0
ARC
  5
355F
  8
0
  6
BYBLOCK
 62
     0
 10
14476.513606
 20
9259.4613089999966
 30
0.0
 40
15.0
 50
180.0
 51
0.0
  0
ARC
  5
3560
  8
0
  6
BYBLOCK
 62
     0
 10
14476.513606
 20
9259.4613089999966
 30
0.0
 40
15.0
 50
0.0
 51
180.0
  0
ARC
  5
3561
  8
0
  6
BYBLOCK
 62
     0
 10
9076.5136060000114
 20
9259.4613089999966
 30
0.0
 40
15.0
 50
180.0
 51
0.0
  0
ARC
  5
3562
  8
0
  6
BYBLOCK
 62
     0
 10
9076.5136060000114
 20
9259.4613089999966
 30
0.0
 40
15.0
 50
0.0
 51
180.0
  0
ARC
  5
3563
  8
0
  6
BYBLOCK
 62
     0
 10
9256.5136060000114
 20
9259.4613089999966
 30
0.0
 40
15.0
 50
0.0
 51
180.0
  0
ARC
  5
3564
  8
0
  6
BYBLOCK
 62
     0
 10
9256.5136060000114
 20
9259.4613089999966
 30
0.0
 40
15.0
 50
180.0
 51
0.0
  0
ARC
  5
3565
  8
0
  6
BYBLOCK
 62
     0
 10
14434.011627
 20
4811.4597979999962
 30
0.0
 40
15.0
 50
180.0
 51
0.0
  0
ARC
  5
3566
  8
0
  6
BYBLOCK
 62
     0
 10
14434.011627
 20
4811.4597979999962
 30
0.0
 40
15.0
 50
0.0
 51
180.0
  0
ARC
  5
3567
  8
0
  6
BYBLOCK
 62
     0
 10
14476.511627000011
 20
4811.4597979999962
 30
0.0
 40
15.0
 50
0.0
 51
180.0
  0
ARC
  5
3568
  8
0
  6
BYBLOCK
 62
     0
 10
14476.511627000011
 20
4811.4597979999962
 30
0.0
 40
15.0
 50
180.0
 51
0.0
  0
ARC
  5
3569
  8
0
  6
BYBLOCK
 62
     0
 10
11866.51360600001
 20
4811.4597990000002
 30
0.0
 40
15.0
 50
0.0
 51
180.0
  0
ARC
  5
356A
  8
0
  6
BYBLOCK
 62
     0
 10
11866.51360600001
 20
4811.4597990000002
 30
0.0
 40
15.0
 50
180.0
 51
0.0
  0
ARC
  5
356B
  8
0
  6
BYBLOCK
 62
     0
 10
14434.01360600001
 20
4811.4597990000002
 30
0.0
 40
15.0
 50
180.0
 51
0.0
  0
ARC
  5
356C
  8
0
  6
BYBLOCK
 62
     0
 10
14434.01360600001
 20
4811.4597990000002
 30
0.0
 40
15.0
 50
0.0
 51
180.0
  0
ARC
  5
356D
  8
0
  6
BYBLOCK
 62
     0
 10
9256.5136060000114
 20
4411.4599629999948
 30
0.0
 40
15.0
 50
0.0
 51
180.0
  0
ARC
  5
356E
  8
0
  6
BYBLOCK
 62
     0
 10
9256.5136060000114
 20
4411.4599629999948
 30
0.0
 40
15.0
 50
180.0
 51
0.0
  0
ARC
  5
356F
  8
0
  6
BYBLOCK
 62
     0
 10
14476.511627000011
 20
4411.4599629999948
 30
0.0
 40
15.0
 50
180.0
 51
0.0
  0
ARC
  5
3570
  8
0
  6
BYBLOCK
 62
     0
 10
14476.511627000011
 20
4411.4599629999948
 30
0.0
 40
15.0
 50
0.0
 51
180.0
  0
ARC
  5
3571
  8
0
  6
BYBLOCK
 62
     0
 10
9299.0136060000114
 20
4811.4597979999962
 30
0.0
 40
15.0
 50
0.0
 51
180.0
  0
ARC
  5
3572
  8
0
  6
BYBLOCK
 62
     0
 10
9299.0136060000114
 20
4811.4597979999962
 30
0.0
 40
15.0
 50
180.0
 51
0.0
  0
ARC
  5
3573
  8
0
  6
BYBLOCK
 62
     0
 10
9256.5136060000114
 20
4811.4597979999962
 30
0.0
 40
15.0
 50
180.0
 51
0.0
  0
ARC
  5
3574
  8
0
  6
BYBLOCK
 62
     0
 10
9256.5136060000114
 20
4811.4597979999962
 30
0.0
 40
15.0
 50
0.0
 51
180.0
  0
ARC
  5
3575
  8
0
  6
BYBLOCK
 62
     0
 10
11866.51360600001
 20
4811.4597979999962
 30
0.0
 40
15.0
 50
180.0
 51
0.0
  0
ARC
  5
3576
  8
0
  6
BYBLOCK
 62
     0
 10
11866.51360600001
 20
4811.4597979999962
 30
0.0
 40
15.0
 50
0.0
 51
180.0
  0
ARC
  5
3577
  8
0
  6
BYBLOCK
 62
     0
 10
9299.0136060000114
 20
4811.4597979999962
 30
0.0
 40
15.0
 50
0.0
 51
180.0
  0
ARC
  5
3578
  8
0
  6
BYBLOCK
 62
     0
 10
9299.0136060000114
 20
4811.4597979999962
 30
0.0
 40
15.0
 50
180.0
 51
0.0
  0
ARC
  5
3579
  8
0
  6
BYBLOCK
 62
     0
 10
18731.758206999999
 20
6111.4596339999998
 30
0.0
 40
15.0
 50
90.0
 51
270.0
  0
ARC
  5
357A
  8
0
  6
BYBLOCK
 62
     0
 10
18731.758206999999
 20
6111.4596339999998
 30
0.0
 40
15.0
 50
270.0
 51
90.0
  0
ARC
  5
357B
  8
0
  6
BYBLOCK
 62
     0
 10
18731.758206999999
 20
8002.9596339999989
 30
0.0
 40
15.0
 50
270.0
 51
90.0
  0
ARC
  5
357C
  8
0
  6
BYBLOCK
 62
     0
 10
18731.758206999999
 20
8002.9596339999989
 30
0.0
 40
15.0
 50
90.0
 51
270.0
  0
ARC
  5
357D
  8
0
  6
BYBLOCK
 62
     0
 10
18331.75589800001
 20
6111.4596340000016
 30
0.0
 40
15.0
 50
90.0
 51
270.0
  0
ARC
  5
357E
  8
0
  6
BYBLOCK
 62
     0
 10
18331.75589800001
 20
6111.4596340000016
 30
0.0
 40
15.0
 50
270.0
 51
90.0
  0
ARC
  5
357F
  8
0
  6
BYBLOCK
 62
     0
 10
18331.75589800001
 20
8460.4594890000008
 30
0.0
 40
15.0
 50
270.0
 51
90.0
  0
ARC
  5
3580
  8
0
  6
BYBLOCK
 62
     0
 10
18331.75589800001
 20
8460.4594890000008
 30
0.0
 40
15.0
 50
90.0
 51
270.0
  0
ARC
  5
3581
  8
0
  6
BYBLOCK
 62
     0
 10
22892.759790999989
 20
9258.9595019999961
 30
0.0
 40
15.0
 50
180.0
 51
0.0
  0
ARC
  5
3582
  8
0
  6
BYBLOCK
 62
     0
 10
22892.759790999989
 20
9258.9595019999961
 30
0.0
 40
15.0
 50
0.0
 51
180.0
  0
ARC
  5
3583
  8
0
  6
BYBLOCK
 62
     0
 10
22935.76190199998
 20
9258.9595019999961
 30
0.0
 40
15.0
 50
0.0
 51
180.0
  0
ARC
  5
3584
  8
0
  6
BYBLOCK
 62
     0
 10
22935.76190199998
 20
9258.9595019999961
 30
0.0
 40
15.0
 50
180.0
 51
0.0
  0
ARC
  5
3585
  8
0
  6
BYBLOCK
 62
     0
 10
19496.257152000031
 20
9658.9172719999951
 30
0.0
 40
15.0
 50
0.0
 51
180.0
  0
ARC
  5
3586
  8
0
  6
BYBLOCK
 62
     0
 10
19496.257152000031
 20
9658.9172719999951
 30
0.0
 40
15.0
 50
180.0
 51
0.0
  0
ARC
  5
3587
  8
0
  6
BYBLOCK
 62
     0
 10
22935.76190199998
 20
9658.9172719999951
 30
0.0
 40
15.0
 50
180.0
 51
0.0
  0
ARC
  5
3588
  8
0
  6
BYBLOCK
 62
     0
 10
22935.76190199998
 20
9658.9172719999951
 30
0.0
 40
15.0
 50
0.0
 51
180.0
  0
ARC
  5
3589
  8
0
  6
BYBLOCK
 62
     0
 10
19539.259263000022
 20
9258.9595019999961
 30
0.0
 40
15.0
 50
0.0
 51
180.0
  0
ARC
  5
358A
  8
0
  6
BYBLOCK
 62
     0
 10
19539.259263000022
 20
9258.9595019999961
 30
0.0
 40
15.0
 50
180.0
 51
0.0
  0
ARC
  5
358B
  8
0
  6
BYBLOCK
 62
     0
 10
22892.759790999989
 20
9258.9595019999961
 30
0.0
 40
15.0
 50
180.0
 51
0.0
  0
ARC
  5
358C
  8
0
  6
BYBLOCK
 62
     0
 10
22892.759790999989
 20
9258.9595019999961
 30
0.0
 40
15.0
 50
0.0
 51
180.0
  0
ARC
  5
358D
  8
0
  6
BYBLOCK
 62
     0
 10
19539.259263000022
 20
9258.9595019999961
 30
0.0
 40
15.0
 50
0.0
 51
180.0
  0
ARC
  5
358E
  8
0
  6
BYBLOCK
 62
     0
 10
19539.259263000022
 20
9258.9595019999961
 30
0.0
 40
15.0
 50
180.0
 51
0.0
  0
ARC
  5
358F
  8
0
  6
BYBLOCK
 62
     0
 10
19496.257152000031
 20
9258.9595019999961
 30
0.0
 40
15.0
 50
180.0
 51
0.0
  0
ARC
  5
3590
  8
0
  6
BYBLOCK
 62
     0
 10
19496.257152000031
 20
9258.9595019999961
 30
0.0
 40
15.0
 50
0.0
 51
180.0
  0
ARC
  5
3591
  8
0
  6
BYBLOCK
 62
     0
 10
22850.259527000009
 20
4811.4597990000038
 30
0.0
 40
15.0
 50
180.0
 51
0.0
  0
ARC
  5
3592
  8
0
  6
BYBLOCK
 62
     0
 10
22850.259527000009
 20
4811.4597990000038
 30
0.0
 40
15.0
 50
0.0
 51
180.0
  0
ARC
  5
3593
  8
0
  6
BYBLOCK
 62
     0
 10
22892.759527000009
 20
4811.4597990000038
 30
0.0
 40
15.0
 50
0.0
 51
180.0
  0
ARC
  5
3594
  8
0
  6
BYBLOCK
 62
     0
 10
22892.759527000009
 20
4811.4597990000038
 30
0.0
 40
15.0
 50
180.0
 51
0.0
  0
ARC
  5
3595
  8
0
  6
BYBLOCK
 62
     0
 10
19675.759526999991
 20
5211.4597990000057
 30
0.0
 40
15.0
 50
0.0
 51
180.0
  0
ARC
  5
3596
  8
0
  6
BYBLOCK
 62
     0
 10
19675.759526999991
 20
5211.4597990000057
 30
0.0
 40
15.0
 50
180.0
 51
0.0
  0
ARC
  5
3597
  8
0
  6
BYBLOCK
 62
     0
 10
22756.259526999998
 20
5211.4597990000057
 30
0.0
 40
15.0
 50
180.0
 51
0.0
  0
ARC
  5
3598
  8
0
  6
BYBLOCK
 62
     0
 10
22756.259526999998
 20
5211.4597990000057
 30
0.0
 40
15.0
 50
0.0
 51
180.0
  0
ARC
  5
3599
  8
0
  6
BYBLOCK
 62
     0
 10
19581.759526999991
 20
4811.4597990000038
 30
0.0
 40
15.0
 50
0.0
 51
180.0
  0
ARC
  5
359A
  8
0
  6
BYBLOCK
 62
     0
 10
19581.759526999991
 20
4811.4597990000038
 30
0.0
 40
15.0
 50
180.0
 51
0.0
  0
ARC
  5
359B
  8
0
  6
BYBLOCK
 62
     0
 10
22850.259527000009
 20
4811.4597990000038
 30
0.0
 40
15.0
 50
180.0
 51
0.0
  0
ARC
  5
359C
  8
0
  6
BYBLOCK
 62
     0
 10
22850.259527000009
 20
4811.4597990000038
 30
0.0
 40
15.0
 50
0.0
 51
180.0
  0
ARC
  5
359D
  8
0
  6
BYBLOCK
 62
     0
 10
19581.759526999991
 20
4811.4597990000038
 30
0.0
 40
15.0
 50
0.0
 51
180.0
  0
ARC
  5
359E
  8
0
  6
BYBLOCK
 62
     0
 10
19581.759526999991
 20
4811.4597990000038
 30
0.0
 40
15.0
 50
180.0
 51
0.0
  0
ARC
  5
359F
  8
0
  6
BYBLOCK
 62
     0
 10
19539.259526999991
 20
4811.4597990000038
 30
0.0
 40
15.0
 50
180.0
 51
0.0
  0
ARC
  5
35A0
  8
0
  6
BYBLOCK
 62
     0
 10
19539.259526999991
 20
4811.4597990000038
 30
0.0
 40
15.0
 50
0.0
 51
180.0
  0
ARC
  5
35A1
  8
0
  6
BYBLOCK
 62
     0
 10
19539.259526999991
 20
4411.4599640000042
 30
0.0
 40
15.0
 50
0.0
 51
180.0
  0
ARC
  5
35A2
  8
0
  6
BYBLOCK
 62
     0
 10
19539.259526999991
 20
4411.4599640000042
 30
0.0
 40
15.0
 50
180.0
 51
0.0
  0
ARC
  5
35A3
  8
0
  6
BYBLOCK
 62
     0
 10
22892.759527000009
 20
4411.4599640000042
 30
0.0
 40
15.0
 50
180.0
 51
0.0
  0
ARC
  5
35A4
  8
0
  6
BYBLOCK
 62
     0
 10
22892.759527000009
 20
4411.4599640000042
 30
0.0
 40
15.0
 50
0.0
 51
180.0
  0
TEXT
  5
36C4
  8
NAME
 10
24033.05354655402
 20
1076.0
 30
0.0
 40
360.0
  1
H
 41
0.6700000000000002
  7
00
  0
TEXT
  5
36C5
  8
NAME
 10
23657.2215619737
 20
1076.0
 30
0.0
 40
360.0
  1
（ ）
  7
01
  0
TEXT
  5
36C6
  8
NAME
 10
24557.214549256751
 20
1076.0
 30
0.0
 40
360.0
  1
型（単棟）
  7
01
  0
TEXT
  5
36C7
  8
NAME
 10
21933.552716389018
 20
1876.0
 30
0.0
 40
360.0
  1
ヨドガレージ ラヴィージュ
 41
0.75
  7
01
  0
TEXT
  5
36C8
  8
NAME
 10
21816.089515848402
 20
1076.6369801169251
 30
0.0
 40
360.0
  1
VGC-3352
 41
0.6700000000000002
  0
LINE
  5
36C9
  8
NAME
  6
CONTINUOUS
 10
26067.886878884321
 20
2236.0
 30
0.0
 11
26067.886878884321
 21
1876.0
 31
0.0
  0
LINE
  5
36CA
  8
NAME
  6
CONTINUOUS
 10
26167.886878884321
 20
2236.0
 30
0.0
 11
26167.886878884321
 21
1876.0
 31
0.0
  0
LINE
  5
36CB
  8
NAME
  6
CONTINUOUS
 10
26267.886878884328
 20
2236.0
 30
0.0
 11
26267.886878884328
 21
1876.0
 31
0.0
  0
LINE
  5
36CC
  8
NAME
  6
CONTINUOUS
 10
26007.886878884321
 20
2236.0
 30
0.0
 11
26327.886878884321
 21
2236.0
 31
0.0
  0
LINE
  5
36CD
  8
NAME
  6
CONTINUOUS
 10
26327.886878884321
 20
1876.0
 30
0.0
 11
26007.886878884321
 21
1876.0
 31
0.0
  0
TEXT
  5
3767
  8
FILENAME
  6
CONTINUOUS
 10
28756.38095238095
 20
348.0
 30
0.0
 40
200.0
  1
＜VGC-3352-1-A_0.DXF ＞
  7
FILENAME
 72
     2
 11
32764.0
 21
348.0
 31
0.0
  0
LINE
  5
376D
  8
WAKUSEN-01
 10
868.00000000000193
 20
827.99999999999955
 30
0.0
 11
32764.000000000011
 21
827.99999999999943
 31
0.0
  0
LINE
  5
376E
  8
WAKUSEN-01
 10
868.00000000000193
 20
827.99999999999955
 30
0.0
 11
868.00000000000193
 21
22484.000000000011
 31
0.0
  0
LINE
  5
376F
  8
WAKUSEN-01
 10
32764.000000000011
 20
827.99999999999943
 30
0.0
 11
32764.000000000011
 21
22484.000000000011
 31
0.0
  0
LINE
  5
3770
  8
WAKUSEN-01
 10
20560.0
 20
827.99999999999716
 30
0.0
 11
20560.0
 21
2484.0
 31
0.0
  0
LINE
  5
3771
  8
WAKUSEN-02
 10
26868.0
 20
827.99999999999261
 30
0.0
 11
26868.0
 21
2484.0
 31
0.0
  0
ENDSEC
  0
EOF
