  0
SECTION
  2
HEADER
  9
$ACADVER
  1
AC1009
  9
$INSBASE
 10
0.0
 20
0.0
 30
0.0
  9
$EXTMIN
 10
867.99324330406671
 20
327.38164749855792
 30
-0.0000000000000053
  9
$EXTMAX
 10
32765.33210850941
 20
22484.553276491992
 30
0.0000000000000099
  9
$LIMMIN
 10
0.0
 20
0.0
  9
$LIMMAX
 10
33600.0
 20
23760.0
  9
$ORTHOMODE
 70
     1
  9
$REGENMODE
 70
     1
  9
$FILLMODE
 70
     1
  9
$QTEXTMODE
 70
     0
  9
$MIRRTEXT
 70
     1
  9
$DRAGMODE
 70
     2
  9
$LTSCALE
 40
80.0
  9
$OSMODE
 70
  3071
  9
$ATTMODE
 70
     1
  9
$TEXTSIZE
 40
0.2
  9
$TRACEWID
 40
0.05
  9
$TEXTSTYLE
  7
00
  9
$CLAYER
  8
0
  9
$CELTYPE
  6
BYLAYER
  9
$CECOLOR
 62
   256
  9
$DIMSCALE
 40
80.0
  9
$DIMASZ
 40
3.0
  9
$DIMEXO
 40
1.0
  9
$DIMDLI
 40
0.38
  9
$DIMRND
 40
0.5
  9
$DIMDLE
 40
0.0
  9
$DIMEXE
 40
1.0
  9
$DIMTP
 40
0.0
  9
$DIMTM
 40
0.0
  9
$DIMTXT
 40
2.0
  9
$DIMCEN
 40
0.09
  9
$DIMTSZ
 40
0.0
  9
$DIMTOL
 70
     0
  9
$DIMLIM
 70
     0
  9
$DIMTIH
 70
     0
  9
$DIMTOH
 70
     0
  9
$DIMSE1
 70
     0
  9
$DIMSE2
 70
     0
  9
$DIMTAD
 70
     1
  9
$DIMZIN
 70
     8
  9
$DIMBLK
  1
DOTSMALL
  9
$DIMASO
 70
     1
  9
$DIMSHO
 70
     1
  9
$DIMPOST
  1

  9
$DIMAPOST
  1

  9
$DIMALT
 70
     0
  9
$DIMALTD
 70
     2
  9
$DIMALTF
 40
25.399999999999999
  9
$DIMLFAC
 40
1.0
  9
$DIMTOFL
 70
     1
  9
$DIMTVP
 40
0.0
  9
$DIMTIX
 70
     0
  9
$DIMSOXD
 70
     0
  9
$DIMSAH
 70
     0
  9
$DIMBLK1
  1

  9
$DIMBLK2
  1

  9
$DIMSTYLE
  2
SUNPOU
  9
$DIMCLRD
 70
     4
  9
$DIMCLRE
 70
     4
  9
$DIMCLRT
 70
     7
  9
$DIMTFAC
 40
1.0
  9
$DIMGAP
 40
1.0
  9
$LUNITS
 70
     2
  9
$LUPREC
 70
     4
  9
$SKETCHINC
 40
0.1
  9
$FILLETRAD
 40
0.0
  9
$AUNITS
 70
     0
  9
$AUPREC
 70
     0
  9
$MENU
  1
acad
  9
$ELEVATION
 40
0.0
  9
$PELEVATION
 40
0.0
  9
$THICKNESS
 40
0.0
  9
$LIMCHECK
 70
     0
  9
$BLIPMODE
 70
     1
  9
$CHAMFERA
 40
0.0
  9
$CHAMFERB
 40
0.0
  9
$SKPOLY
 70
     0
  9
$TDCREATE
 40
2311940.074926944
  9
$TDUPDATE
 40
2458942.426083276
  9
$TDINDWG
 40
0.0664451157
  9
$TDUSRTIMER
 40
0.0664444444
  9
$USRTIMER
 70
     1
  9
$ANGBASE
 50
0.0
  9
$ANGDIR
 70
     0
  9
$PDMODE
 70
     0
  9
$PDSIZE
 40
0.0
  9
$PLINEWID
 40
0.0
  9
$COORDS
 70
     1
  9
$SPLFRAME
 70
     0
  9
$SPLINETYPE
 70
     6
  9
$SPLINESEGS
 70
     8
  9
$ATTDIA
 70
     1
  9
$ATTREQ
 70
     1
  9
$HANDLING
 70
     1
  9
$HANDSEED
  5
4CAC
  9
$SURFTAB1
 70
     6
  9
$SURFTAB2
 70
     6
  9
$SURFTYPE
 70
     6
  9
$SURFU
 70
     6
  9
$SURFV
 70
     6
  9
$UCSNAME
  2

  9
$UCSORG
 10
0.0
 20
0.0
 30
0.0
  9
$UCSXDIR
 10
1.0
 20
0.0
 30
0.0
  9
$UCSYDIR
 10
0.0
 20
1.0
 30
0.0
  9
$PUCSNAME
  2

  9
$PUCSORG
 10
0.0
 20
0.0
 30
0.0
  9
$PUCSXDIR
 10
1.0
 20
0.0
 30
0.0
  9
$PUCSYDIR
 10
0.0
 20
1.0
 30
0.0
  9
$USERI1
 70
     0
  9
$USERI2
 70
     0
  9
$USERI3
 70
     0
  9
$USERI4
 70
     0
  9
$USERI5
 70
     0
  9
$USERR1
 40
0.0
  9
$USERR2
 40
0.0
  9
$USERR3
 40
0.0
  9
$USERR4
 40
0.0
  9
$USERR5
 40
0.0
  9
$WORLDVIEW
 70
     1
  9
$SHADEDGE
 70
     3
  9
$SHADEDIF
 70
    70
  9
$TILEMODE
 70
     1
  9
$MAXACTVP
 70
    16
  9
$PLIMCHECK
 70
     0
  9
$PEXTMIN
 10
1.0000000000000000E+020
 20
1.0000000000000000E+020
 30
1.0000000000000000E+020
  9
$PEXTMAX
 10
-1.0000000000000000E+020
 20
-1.0000000000000000E+020
 30
-1.0000000000000000E+020
  9
$PLIMMIN
 10
0.0
 20
0.0
  9
$PLIMMAX
 10
12.0
 20
9.0
  9
$UNITMODE
 70
     0
  9
$VISRETAIN
 70
     0
  9
$PLINEGEN
 70
     1
  9
$PSLTSCALE
 70
     0
  0
ENDSEC
  0
SECTION
  2
TABLES
  0
TABLE
  2
VPORT
 70
     1
  0
VPORT
  2
*ACTIVE
 70
     0
 10
0.0
 20
0.0
 11
1.0
 21
1.0
 12
16800.0
 22
11880.0
 13
0.0
 23
0.0
 14
1.0
 24
1.0
 15
0.0
 25
0.0
 16
0.0
 26
0.0
 36
1.0
 17
0.0
 27
0.0
 37
0.0
 40
23981.023255813951
 41
2.195652173913043
 42
50.0
 43
0.0
 44
0.0
 50
0.0
 51
0.0
 71
     0
 72
 10000
 73
     1
 74
     1
 75
     0
 76
     0
 77
     0
 78
     0
  0
ENDTAB
  0
TABLE
  2
LTYPE
 70
     4
  0
LTYPE
  2
CONTINUOUS
 70
     0
  3
Solid line
 72
    65
 73
     0
 40
0.0
  0
LTYPE
  2
DASHED3
 70
     0
  3
------  ------  ------  ------  
 72
    65
 73
     2
 40
5.0
 49
3.75
 49
-1.25
  0
LTYPE
  2
CENTER2
 70
     0
  3
----------  --  ----------  --  
 72
    65
 73
     4
 40
20.0
 49
12.5
 49
-2.5
 49
2.5
 49
-2.5
  0
LTYPE
  2
PHANTOM2
 70
     0
  3
___ _ _ ___ _ _ ___ _ _ ___ _ _
 72
    65
 73
     6
 40
1.25
 49
0.625
 49
-0.125
 49
0.125
 49
-0.125
 49
0.125
 49
-0.125
  0
ENDTAB
  0
TABLE
  2
LAYER
 70
    16
  0
LAYER
  2
0
 70
     0
 62
     7
  6
CONTINUOUS
  0
LAYER
  2
SUNPOU
 70
     0
 62
     4
  6
CONTINUOUS
  0
LAYER
  2
0-1
 70
     0
 62
     7
  6
CONTINUOUS
  0
LAYER
  2
0-2
 70
     0
 62
     7
  6
CONTINUOUS
  0
LAYER
  2
0-5
 70
     0
 62
     7
  6
CONTINUOUS
  0
LAYER
  2
2-0
 70
     0
 62
     7
  6
CONTINUOUS
  0
LAYER
  2
0-3
 70
     0
 62
     7
  6
CONTINUOUS
  0
LAYER
  2
YODOROGO
 70
     0
 62
   130
  6
CONTINUOUS
  0
LAYER
  2
WAKUSEN-01
 70
     0
 62
    50
  6
CONTINUOUS
  0
LAYER
  2
WAKUSEN-02
 70
     0
 62
   130
  6
CONTINUOUS
  0
LAYER
  2
WAKUMOJI-01
 70
     0
 62
   130
  6
CONTINUOUS
  0
LAYER
  2
FILENAME
 70
     0
 62
     7
  6
CONTINUOUS
  0
LAYER
  2
NAME
 70
     0
 62
    20
  6
CONTINUOUS
  0
LAYER
  2
0-4
 70
     0
 62
     7
  6
CONTINUOUS
  0
ENDTAB
  0
TABLE
  2
STYLE
 70
     5
  0
STYLE
  2
STANDARD
 70
     0
 40
0.0
 41
1.0
 50
0.0
 71
     0
 42
0.0
  3
txt
  4
BIGFONT
  0
STYLE
  2
00
 70
     0
 40
0.0
 41
0.6666666666666666
 50
0.0
 71
     0
 42
0.2
  3
ROMANS
  4
BIGFONT
  0
STYLE
  2
01
 70
     0
 40
3.0
 41
1.0
 50
0.0
 71
     0
 42
0.2
  3
ROMANS
  4
BIGFONT
  0
STYLE
  2
WAKUMOJI
 70
     0
 40
3.0
 41
1.0
 50
0.0
 71
     0
 42
3.0
  3
SIMPLEX
  4
BIGFONT
  0
STYLE
  2
FILENAME
 70
     0
 40
200.0
 41
1.0
 50
0.0
 71
     0
 42
200.0
  3
romans
  4
bigfont
  0
ENDTAB
  0
TABLE
  2
VIEW
 70
     0
  0
ENDTAB
  0
TABLE
  2
UCS
 70
     0
  0
ENDTAB
  0
TABLE
  2
APPID
 70
    13
  0
APPID
  2
ACAD
 70
     0
  0
APPID
  2
ACADANNOTATIVE
 70
     0
  0
APPID
  2
ACAD_PSEXT
 70
     0
  0
APPID
  2
DCO15
 70
     0
  0
APPID
  2
ACAD_MLEADERVER
 70
     0
  0
APPID
  2
AUTOCAD_POSTSCRIPT_FIGURE
 70
     0
  0
APPID
  2
ACAD_EXEMPT_FROM_CAD_STANDARDS
 70
     0
  0
APPID
  2
ACAD_DSTYLE_DIMJAG
 70
     0
  0
APPID
  2
ACAD_DSTYLE_DIMTALN
 70
     0
  0
APPID
  2
ACAD_DSTYLE_DIM_LINETYPE
 70
     0
  0
APPID
  2
ACAD_DSTYLE_DIM_EXT1_LINETYPE
 70
     0
  0
APPID
  2
ACAD_DSTYLE_DIM_EXT2_LINETYPE
 70
     0
  0
APPID
  2
ACAD_NAV_VCDISPLAY
 70
     0
  0
ENDTAB
  0
TABLE
  2
DIMSTYLE
 70
     2
  0
DIMSTYLE
  2
SUNPOU
 70
     0
  3

  4

  5

  6

  7

 40
80.0
 41
3.0
 42
1.0
 43
0.38
 44
1.0
 45
0.5
 46
0.0
 47
0.0
 48
0.0
140
2.0
141
0.09
142
0.0
143
25.399999999999999
144
1.0
145
0.0
146
1.0
147
1.0
 71
     0
 72
     0
 73
     0
 74
     0
 75
     0
 76
     0
 77
     1
 78
     8
170
     0
171
     2
172
     1
173
     0
174
     0
175
     0
176
     4
177
     4
178
     7
  0
ENDTAB
  0
ENDSEC
  0
SECTION
  2
BLOCKS
  0
BLOCK
  8
0
  2
$MODEL_SPACE
 70
     0
 10
0.0
 20
0.0
 30
0.0
  3
$MODEL_SPACE
  1

  0
ENDBLK
  5
4007
  8
0
  0
BLOCK
 67
     1
  8
0
  2
$PAPER_SPACE
 70
     0
 10
0.0
 20
0.0
 30
0.0
  3
$PAPER_SPACE
  1

  0
ENDBLK
  5
4003
 67
     1
  8
0
  0
BLOCK
  8
0
  2
_DOTSMALL
 70
     0
 10
0.0
 20
0.0
 30
0.0
  3
_DOTSMALL
  1

  0
POLYLINE
  5
4035
  8
0
  6
BYBLOCK
 62
     0
 66
     1
 10
0.0
 20
0.0
 30
0.0
 70
     1
 40
0.5
 41
0.5
  0
VERTEX
  5
4C74
  8
0
  6
BYBLOCK
 62
     0
 10
-0.0625
 20
0.0
 30
0.0
 42
1.0
  0
VERTEX
  5
4C75
  8
0
  6
BYBLOCK
 62
     0
 10
0.0625
 20
0.0
 30
0.0
 42
1.0
  0
SEQEND
  5
4C76
  8
0
  6
BYBLOCK
 62
     0
  0
ENDBLK
  5
4039
  8
0
  0
ENDSEC
  0
SECTION
  2
ENTITIES
  0
LINE
  5
403A
  8
2-0
  6
CONTINUOUS
 62
     3
 10
7745.0510916115227
 20
18230.366592999992
 30
0.0
 11
7871.7917476115263
 21
18445.860944999979
 31
0.0
  0
LINE
  5
403B
  8
2-0
  6
CONTINUOUS
 62
     3
 10
8480.2720056115231
 20
17507.895757999991
 30
0.0
 11
8607.0186006115255
 21
17723.39208899999
 31
0.0
  0
LINE
  5
403C
  8
2-0
  6
CONTINUOUS
 62
     3
 10
8480.2720056115231
 20
17507.895757999991
 30
0.0
 11
7871.7917476115263
 21
18445.860944999979
 31
0.0
  0
LINE
  5
403D
  8
2-0
  6
CONTINUOUS
 62
     3
 10
7745.0510916115227
 20
18230.366592999992
 30
0.0
 11
5026.8280656115166
 21
19477.904731999981
 31
0.0
  0
LINE
  5
403E
  8
2-0
  6
CONTINUOUS
 62
     3
 10
5193.0249416115166
 20
20162.81420199999
 30
0.0
 11
5243.526914611517
 21
20162.81420199999
 31
0.0
  0
LINE
  5
403F
  8
2-0
  6
CONTINUOUS
 62
     3
 10
5193.0249416115166
 20
20185.317368999989
 30
0.0
 11
5175.0246846115188
 21
20185.317368999989
 31
0.0
  0
LINE
  5
4040
  8
2-0
  6
CONTINUOUS
 62
     3
 10
5243.526914611517
 20
20202.818292999989
 30
0.0
 11
5180.030391611519
 21
20202.818292999989
 31
0.0
  0
LINE
  5
4041
  8
2-0
  6
CONTINUOUS
 62
     3
 10
5175.0246846115188
 20
20197.812089999989
 30
0.0
 11
5175.0246846115188
 21
20162.81420199999
 31
0.0
  0
LINE
  5
4042
  8
2-0
  6
CONTINUOUS
 62
     3
 10
5248.527178611519
 20
20167.816444999989
 30
0.0
 11
5248.527178611519
 21
20197.812089999989
 31
0.0
  0
LINE
  5
4043
  8
2-0
  6
CONTINUOUS
 62
     3
 10
14021.51621261149
 20
20202.818292999989
 30
0.0
 11
14085.02213761151
 21
20202.818292999989
 31
0.0
  0
LINE
  5
4044
  8
2-0
  6
CONTINUOUS
 62
     3
 10
14090.013493611519
 20
20197.812089999989
 30
0.0
 11
14090.013493611519
 21
20162.81420199999
 31
0.0
  0
LINE
  5
4045
  8
2-0
  6
CONTINUOUS
 62
     3
 10
14072.019669611491
 20
20162.81420199999
 30
0.0
 11
14021.51621261149
 21
20162.81420199999
 31
0.0
  0
LINE
  5
4046
  8
2-0
  6
CONTINUOUS
 62
     3
 10
14016.518917611491
 20
20167.816444999989
 30
0.0
 11
14016.518917611491
 21
20197.812089999989
 31
0.0
  0
LINE
  5
4047
  8
2-0
  6
CONTINUOUS
 62
     3
 10
14072.019669611491
 20
20185.317368999989
 30
0.0
 11
14090.013493611519
 21
20185.317368999989
 31
0.0
  0
LINE
  5
4048
  8
2-0
  6
CONTINUOUS
 62
     3
 10
8178.5250806115209
 20
13836.30879099997
 30
0.0
 11
8178.5250806115209
 21
13757.318081999951
 31
0.0
  0
LINE
  5
4049
  8
2-0
  6
CONTINUOUS
 62
     3
 10
8235.5253176115239
 20
17096.31467699998
 30
0.0
 11
8235.5253176115239
 21
17885.176162999978
 31
0.0
  0
LINE
  5
404A
  8
2-0
  6
CONTINUOUS
 62
     3
 10
8121.5238536115257
 20
17096.31467699998
 30
0.0
 11
8121.5238536115257
 21
18060.903965999991
 31
0.0
  0
LINE
  5
404B
  8
2-0
  6
CONTINUOUS
 62
     3
 10
8178.5250806115209
 20
17096.31467699998
 30
0.0
 11
8178.5250806115209
 21
17973.03907499999
 31
0.0
  0
LINE
  5
404C
  8
2-0
  6
CONTINUOUS
 62
     3
 10
8178.5250806115209
 20
17017.321987999949
 30
0.0
 11
8178.5250806115209
 21
17096.31467699998
 31
0.0
  0
LINE
  5
404D
  8
2-0
  6
CONTINUOUS
 62
     3
 10
8093.5176246115234
 20
20144.810479999989
 30
0.0
 11
8093.5176246115234
 21
20192.817764999982
 31
0.0
  0
LINE
  5
404E
  8
2-0
  6
CONTINUOUS
 62
     6
 10
7052.908955611525
 20
17250.147023999969
 30
0.0
 11
6991.7596466115237
 21
17421.91338899999
 31
0.0
  0
LINE
  5
404F
  8
2-0
  6
CONTINUOUS
 62
     6
 10
6888.7638106115264
 20
19920.538942999981
 30
0.0
 11
7032.6619446115246
 21
20432.810638999981
 31
0.0
  0
LINE
  5
4050
  8
2-0
  6
CONTINUOUS
 62
     6
 10
6475.616012611521
 20
20026.314518999981
 30
0.0
 11
6181.6956096115246
 21
20432.810638999981
 31
0.0
  0
LINE
  5
4051
  8
2-0
  6
CONTINUOUS
 62
     6
 10
7032.6619446115246
 20
20432.810638999981
 30
0.0
 11
7550.3595006115293
 21
20432.810638999981
 31
0.0
  0
LINE
  5
4052
  8
2-0
  6
CONTINUOUS
 62
     6
 10
6422.356570611526
 20
20322.719712999969
 30
0.0
 11
6213.1659956115218
 21
20685.050793999992
 31
0.0
  0
LINE
  5
4053
  8
2-0
  6
CONTINUOUS
 62
     6
 10
6139.1552606115292
 20
20813.238478999981
 30
0.0
 11
5943.094832611524
 21
21152.81895299998
 31
0.0
  0
LINE
  5
4054
  8
2-0
  6
CONTINUOUS
 62
     6
 10
5943.094832611524
 20
21152.81895299998
 30
0.0
 11
6785.5383496115246
 21
21152.81895299998
 31
0.0
  0
LINE
  5
4055
  8
2-0
  6
CONTINUOUS
 62
     6
 10
5371.7017716115224
 20
20432.810638999981
 30
0.0
 11
6181.6956096115246
 21
20432.810638999981
 31
0.0
  0
LINE
  5
4056
  8
2-0
  6
CONTINUOUS
 62
     6
 10
6191.1943296115187
 20
17421.91338899999
 30
0.0
 11
6991.7596466115237
 21
17421.91338899999
 31
0.0
  0
LINE
  5
4057
  8
2-0
  6
CONTINUOUS
 62
     6
 10
5425.0552416115197
 20
18208.938303999948
 30
0.0
 11
5955.055083611529
 21
18208.938303999948
 31
0.0
  0
LINE
  5
4058
  8
2-0
  6
CONTINUOUS
 62
     6
 10
6070.9078926115217
 20
13988.210118999979
 30
0.0
 11
6153.7987486115226
 21
14175.644872999959
 31
0.0
  0
LINE
  5
4059
  8
2-0
  6
CONTINUOUS
 62
     6
 10
6153.7987486115226
 20
14175.644872999959
 30
0.0
 11
6953.7959446115283
 21
14175.644872999959
 31
0.0
  0
LINE
  5
405A
  8
2-0
  6
CONTINUOUS
 62
     6
 10
7061.3144866115254
 20
12801.31156199997
 30
0.0
 11
7923.895646611526
 21
12801.31156199997
 31
0.0
  0
LINE
  5
405B
  8
2-0
  6
CONTINUOUS
 62
     6
 10
6655.2053616115263
 20
13464.849159999971
 30
0.0
 11
7061.3144866115254
 21
12801.31156199997
 31
0.0
  0
LINE
  5
405C
  8
2-0
  6
CONTINUOUS
 62
     6
 10
3444.622617611516
 20
12401.318160999979
 30
0.0
 11
4524.6266756115183
 21
12401.318160999979
 31
0.0
  0
LINE
  5
405D
  8
2-0
  6
CONTINUOUS
 62
     6
 10
5083.1364606115158
 20
14192.08675499998
 30
0.0
 11
4524.6266756115183
 21
12401.318160999979
 31
0.0
  0
LINE
  5
405E
  8
2-0
  6
CONTINUOUS
 62
     6
 10
5326.0174526115188
 20
18429.729847999992
 30
0.0
 11
5425.0552416115197
 21
18208.938303999948
 31
0.0
  0
LINE
  5
405F
  8
2-0
  6
CONTINUOUS
 62
     6
 10
6417.8437636115259
 20
16517.74890399996
 30
0.0
 11
7297.8402326115238
 21
16517.74890399996
 31
0.0
  0
LINE
  5
4060
  8
2-0
  6
CONTINUOUS
 62
     6
 10
6206.5756836115233
 20
16315.67766699998
 30
0.0
 11
6417.8437636115259
 21
16517.74890399996
 31
0.0
  0
LINE
  5
4061
  8
2-0
  6
CONTINUOUS
 62
     6
 10
11779.80978761149
 20
21152.81895299998
 30
0.0
 11
13454.805169611511
 21
21152.81895299998
 31
0.0
  0
LINE
  5
4062
  8
2-0
  6
CONTINUOUS
 62
     6
 10
13645.091341611511
 20
20823.23306799999
 30
0.0
 11
13454.805169611511
 21
21152.81895299998
 31
0.0
  0
LINE
  5
4063
  8
2-0
  6
CONTINUOUS
 62
     6
 10
13938.283354611491
 20
20332.726178999979
 30
0.0
 11
13729.092779611499
 21
20695.049341999991
 31
0.0
  0
LINE
  5
4064
  8
2-0
  6
CONTINUOUS
 62
     6
 10
8121.5238536115257
 20
15338.692209999959
 30
0.0
 11
7856.3356666115251
 21
15707.646760999971
 31
0.0
  0
LINE
  5
4065
  8
2-0
  6
CONTINUOUS
 62
     6
 10
7610.1043406115268
 20
15707.646760999971
 30
0.0
 11
7856.3356666115251
 21
15707.646760999971
 31
0.0
  0
LINE
  5
4066
  8
2-0
  6
CONTINUOUS
 62
     6
 10
5108.577728611519
 20
14184.10830499998
 30
0.0
 11
5131.0279436115279
 21
14344.749206999981
 31
0.0
  0
LINE
  5
4067
  8
2-0
  6
CONTINUOUS
 62
     6
 10
5131.0279436115279
 20
14344.749206999981
 30
0.0
 11
5057.6907396115193
 21
14200.069162999969
 31
0.0
  0
LINE
  5
4068
  8
2-0
  6
CONTINUOUS
 62
     6
 10
5131.0279436115279
 20
14344.749206999981
 30
0.0
 11
5108.577728611519
 21
14184.10830499998
 31
0.0
  0
LINE
  5
4069
  8
2-0
  6
CONTINUOUS
 62
     6
 10
5108.577728611519
 20
14184.10830499998
 30
0.0
 11
5057.6907396115193
 21
14200.069162999969
 31
0.0
  0
LINE
  5
406A
  8
2-0
  6
CONTINUOUS
 62
     6
 10
5057.6907396115193
 20
14200.069162999969
 30
0.0
 11
5131.0279436115279
 21
14344.749206999981
 31
0.0
  0
LINE
  5
406B
  8
2-0
  6
CONTINUOUS
 62
     6
 10
5057.6907396115193
 20
14200.069162999969
 30
0.0
 11
5108.577728611519
 21
14184.10830499998
 31
0.0
  0
LINE
  5
406C
  8
2-0
  6
CONTINUOUS
 62
     6
 10
6046.7587556115241
 20
13999.51712899998
 30
0.0
 11
6003.0331706115248
 21
13843.319255999981
 31
0.0
  0
LINE
  5
406D
  8
2-0
  6
CONTINUOUS
 62
     6
 10
6003.0331706115248
 20
13843.319255999981
 30
0.0
 11
6095.0545556115248
 21
13976.89617999998
 31
0.0
  0
LINE
  5
406E
  8
2-0
  6
CONTINUOUS
 62
     6
 10
6003.0331706115248
 20
13843.319255999981
 30
0.0
 11
6046.7587556115241
 21
13999.51712899998
 31
0.0
  0
LINE
  5
406F
  8
2-0
  6
CONTINUOUS
 62
     6
 10
6046.7587556115241
 20
13999.51712899998
 30
0.0
 11
6095.0545556115248
 21
13976.89617999998
 31
0.0
  0
LINE
  5
4070
  8
2-0
  6
CONTINUOUS
 62
     6
 10
6095.0545556115248
 20
13976.89617999998
 30
0.0
 11
6003.0331706115248
 21
13843.319255999981
 31
0.0
  0
LINE
  5
4071
  8
2-0
  6
CONTINUOUS
 62
     6
 10
6095.0545556115248
 20
13976.89617999998
 30
0.0
 11
6046.7587556115241
 21
13999.51712899998
 31
0.0
  0
LINE
  5
4072
  8
2-0
  6
CONTINUOUS
 62
     6
 10
6677.9465666115284
 20
13478.771113999979
 30
0.0
 11
6571.6790806115232
 21
13601.32112999998
 31
0.0
  0
LINE
  5
4073
  8
2-0
  6
CONTINUOUS
 62
     6
 10
6571.6790806115232
 20
13601.32112999998
 30
0.0
 11
6632.458713611526
 21
13450.926215999951
 31
0.0
  0
LINE
  5
4074
  8
2-0
  6
CONTINUOUS
 62
     6
 10
6571.6790806115232
 20
13601.32112999998
 30
0.0
 11
6677.9465666115284
 21
13478.771113999979
 31
0.0
  0
LINE
  5
4075
  8
2-0
  6
CONTINUOUS
 62
     6
 10
6677.9465666115284
 20
13478.771113999979
 30
0.0
 11
6632.458713611526
 21
13450.926215999951
 31
0.0
  0
LINE
  5
4076
  8
2-0
  6
CONTINUOUS
 62
     6
 10
6632.458713611526
 20
13450.926215999951
 30
0.0
 11
6571.6790806115232
 21
13601.32112999998
 31
0.0
  0
LINE
  5
4077
  8
2-0
  6
CONTINUOUS
 62
     6
 10
6632.458713611526
 20
13450.926215999951
 30
0.0
 11
6677.9465666115284
 21
13478.771113999979
 31
0.0
  0
LINE
  5
4078
  8
2-0
  6
CONTINUOUS
 62
     6
 10
8049.1427566115226
 20
15483.85723599998
 30
0.0
 11
8121.5238536115257
 21
15338.692209999959
 31
0.0
  0
LINE
  5
4079
  8
2-0
  6
CONTINUOUS
 62
     6
 10
8121.5238536115257
 20
15338.692209999959
 30
0.0
 11
8005.9793536115249
 21
15452.53828299998
 31
0.0
  0
LINE
  5
407A
  8
2-0
  6
CONTINUOUS
 62
     6
 10
8121.5238536115257
 20
15338.692209999959
 30
0.0
 11
8049.1427566115226
 21
15483.85723599998
 31
0.0
  0
LINE
  5
407B
  8
2-0
  6
CONTINUOUS
 62
     6
 10
8049.1427566115226
 20
15483.85723599998
 30
0.0
 11
8005.9793536115249
 21
15452.53828299998
 31
0.0
  0
LINE
  5
407C
  8
2-0
  6
CONTINUOUS
 62
     6
 10
8005.9793536115249
 20
15452.53828299998
 30
0.0
 11
8121.5238536115257
 21
15338.692209999959
 31
0.0
  0
LINE
  5
407D
  8
2-0
  6
CONTINUOUS
 62
     6
 10
8005.9793536115249
 20
15452.53828299998
 30
0.0
 11
8049.1427566115226
 21
15483.85723599998
 31
0.0
  0
LINE
  5
407E
  8
2-0
  6
CONTINUOUS
 62
     6
 10
6188.144385611522
 20
16334.95619899998
 30
0.0
 11
6090.9450746115253
 21
16205.093840999951
 31
0.0
  0
LINE
  5
407F
  8
2-0
  6
CONTINUOUS
 62
     6
 10
6090.9450746115253
 20
16205.093840999951
 30
0.0
 11
6225.006981611521
 21
16296.41695199998
 31
0.0
  0
LINE
  5
4080
  8
2-0
  6
CONTINUOUS
 62
     6
 10
6090.9450746115253
 20
16205.093840999951
 30
0.0
 11
6188.144385611522
 21
16334.95619899998
 31
0.0
  0
LINE
  5
4081
  8
2-0
  6
CONTINUOUS
 62
     6
 10
6188.144385611522
 20
16334.95619899998
 30
0.0
 11
6225.006981611521
 21
16296.41695199998
 31
0.0
  0
LINE
  5
4082
  8
2-0
  6
CONTINUOUS
 62
     6
 10
6225.006981611521
 20
16296.41695199998
 30
0.0
 11
6090.9450746115253
 21
16205.093840999951
 31
0.0
  0
LINE
  5
4083
  8
2-0
  6
CONTINUOUS
 62
     6
 10
6225.006981611521
 20
16296.41695199998
 30
0.0
 11
6188.144385611522
 21
16334.95619899998
 31
0.0
  0
LINE
  5
4084
  8
2-0
  6
CONTINUOUS
 62
     6
 10
7078.5491646115261
 20
17257.479160999981
 30
0.0
 11
7096.9131586115254
 21
17096.31467699998
 31
0.0
  0
LINE
  5
4085
  8
2-0
  6
CONTINUOUS
 62
     6
 10
7096.9131586115254
 20
17096.31467699998
 30
0.0
 11
7027.2702306115252
 21
17242.806969999969
 31
0.0
  0
LINE
  5
4086
  8
2-0
  6
CONTINUOUS
 62
     6
 10
7096.9131586115254
 20
17096.31467699998
 30
0.0
 11
7078.5491646115261
 21
17257.479160999981
 31
0.0
  0
LINE
  5
4087
  8
2-0
  6
CONTINUOUS
 62
     6
 10
7078.5491646115261
 20
17257.479160999981
 30
0.0
 11
7027.2702306115252
 21
17242.806969999969
 31
0.0
  0
LINE
  5
4088
  8
2-0
  6
CONTINUOUS
 62
     6
 10
7027.2702306115252
 20
17242.806969999969
 30
0.0
 11
7096.9131586115254
 21
17096.31467699998
 31
0.0
  0
LINE
  5
4089
  8
2-0
  6
CONTINUOUS
 62
     6
 10
7027.2702306115252
 20
17242.806969999969
 30
0.0
 11
7078.5491646115261
 21
17257.479160999981
 31
0.0
  0
LINE
  5
408A
  8
2-0
  6
CONTINUOUS
 62
     6
 10
5350.346230611518
 20
18440.642933999981
 30
0.0
 11
5260.5250806115218
 21
18575.70944599999
 31
0.0
  0
LINE
  5
408B
  8
2-0
  6
CONTINUOUS
 62
     6
 10
5260.5250806115218
 20
18575.70944599999
 30
0.0
 11
5301.6792716115187
 21
18418.808843999988
 31
0.0
  0
LINE
  5
408C
  8
2-0
  6
CONTINUOUS
 62
     6
 10
5260.5250806115218
 20
18575.70944599999
 30
0.0
 11
5350.346230611518
 21
18440.642933999981
 31
0.0
  0
LINE
  5
408D
  8
2-0
  6
CONTINUOUS
 62
     6
 10
5350.346230611518
 20
18440.642933999981
 30
0.0
 11
5301.6792716115187
 21
18418.808843999988
 31
0.0
  0
LINE
  5
408E
  8
2-0
  6
CONTINUOUS
 62
     6
 10
5301.6792716115187
 20
18418.808843999988
 30
0.0
 11
5260.5250806115218
 21
18575.70944599999
 31
0.0
  0
LINE
  5
408F
  8
2-0
  6
CONTINUOUS
 62
     6
 10
5301.6792716115187
 20
18418.808843999988
 30
0.0
 11
5350.346230611518
 21
18440.642933999981
 31
0.0
  0
LINE
  5
4090
  8
2-0
  6
CONTINUOUS
 62
     6
 10
6400.707070611521
 20
20310.221032999991
 30
0.0
 11
6497.3550856115216
 21
20192.817764999982
 31
0.0
  0
LINE
  5
4091
  8
2-0
  6
CONTINUOUS
 62
     6
 10
6497.3550856115216
 20
20192.817764999982
 30
0.0
 11
6444.0031016115236
 21
20335.22235199999
 31
0.0
  0
LINE
  5
4092
  8
2-0
  6
CONTINUOUS
 62
     6
 10
6497.3550856115216
 20
20192.817764999982
 30
0.0
 11
6400.707070611521
 21
20310.221032999991
 31
0.0
  0
LINE
  5
4093
  8
2-0
  6
CONTINUOUS
 62
     6
 10
6400.707070611521
 20
20310.221032999991
 30
0.0
 11
6444.0031016115236
 21
20335.22235199999
 31
0.0
  0
LINE
  5
4094
  8
2-0
  6
CONTINUOUS
 62
     6
 10
6444.0031016115236
 20
20335.22235199999
 30
0.0
 11
6497.3550856115216
 21
20192.817764999982
 31
0.0
  0
LINE
  5
4095
  8
2-0
  6
CONTINUOUS
 62
     6
 10
6444.0031016115236
 20
20335.22235199999
 30
0.0
 11
6400.707070611521
 21
20310.221032999991
 31
0.0
  0
LINE
  5
4096
  8
2-0
  6
CONTINUOUS
 62
     6
 10
6368.9234256115233
 20
20148.488425999982
 30
0.0
 11
6475.616012611521
 21
20026.314518999981
 31
0.0
  0
LINE
  5
4097
  8
2-0
  6
CONTINUOUS
 62
     6
 10
6475.616012611521
 20
20026.314518999981
 30
0.0
 11
6414.316260611522
 21
20176.490696000001
 31
0.0
  0
LINE
  5
4098
  8
2-0
  6
CONTINUOUS
 62
     6
 10
6475.616012611521
 20
20026.314518999981
 30
0.0
 11
6368.9234256115233
 21
20148.488425999982
 31
0.0
  0
LINE
  5
4099
  8
2-0
  6
CONTINUOUS
 62
     6
 10
6368.9234256115233
 20
20148.488425999982
 30
0.0
 11
6414.316260611522
 21
20176.490696000001
 31
0.0
  0
LINE
  5
409A
  8
2-0
  6
CONTINUOUS
 62
     6
 10
6414.316260611522
 20
20176.490696000001
 30
0.0
 11
6475.616012611521
 21
20026.314518999981
 31
0.0
  0
LINE
  5
409B
  8
2-0
  6
CONTINUOUS
 62
     6
 10
6414.316260611522
 20
20176.490696000001
 30
0.0
 11
6368.9234256115233
 21
20148.488425999982
 31
0.0
  0
LINE
  5
409C
  8
2-0
  6
CONTINUOUS
 62
     6
 10
6862.878635611527
 20
19926.936746999989
 30
0.0
 11
6850.3799556115273
 21
19765.21205899999
 31
0.0
  0
LINE
  5
409D
  8
2-0
  6
CONTINUOUS
 62
     6
 10
6850.3799556115273
 20
19765.21205899999
 30
0.0
 11
6914.6573986115209
 21
19914.14509799999
 31
0.0
  0
LINE
  5
409E
  8
2-0
  6
CONTINUOUS
 62
     6
 10
6850.3799556115273
 20
19765.21205899999
 30
0.0
 11
6862.878635611527
 21
19926.936746999989
 31
0.0
  0
LINE
  5
409F
  8
2-0
  6
CONTINUOUS
 62
     6
 10
6862.878635611527
 20
19926.936746999989
 30
0.0
 11
6914.6573986115209
 21
19914.14509799999
 31
0.0
  0
LINE
  5
40A0
  8
2-0
  6
CONTINUOUS
 62
     6
 10
6914.6573986115209
 20
19914.14509799999
 30
0.0
 11
6850.3799556115273
 21
19765.21205899999
 31
0.0
  0
LINE
  5
40A1
  8
2-0
  6
CONTINUOUS
 62
     6
 10
6914.6573986115209
 20
19914.14509799999
 30
0.0
 11
6862.878635611527
 21
19926.936746999989
 31
0.0
  0
LINE
  5
40A2
  8
2-0
  6
CONTINUOUS
 62
     6
 10
13916.635339611499
 20
20320.219581000001
 30
0.0
 11
14013.2833546115
 21
20202.818292999989
 31
0.0
  0
LINE
  5
40A3
  8
2-0
  6
CONTINUOUS
 62
     6
 10
14013.2833546115
 20
20202.818292999989
 30
0.0
 11
13959.932359611519
 21
20345.222879999979
 31
0.0
  0
LINE
  5
40A4
  8
2-0
  6
CONTINUOUS
 62
     6
 10
14013.2833546115
 20
20202.818292999989
 30
0.0
 11
13916.635339611499
 21
20320.219581000001
 31
0.0
  0
LINE
  5
40A5
  8
2-0
  6
CONTINUOUS
 62
     6
 10
13916.635339611499
 20
20320.219581000001
 30
0.0
 11
13959.932359611519
 21
20345.222879999979
 31
0.0
  0
LINE
  5
40A6
  8
2-0
  6
CONTINUOUS
 62
     6
 10
13959.932359611519
 20
20345.222879999979
 30
0.0
 11
14013.2833546115
 21
20202.818292999989
 31
0.0
  0
LINE
  5
40A7
  8
2-0
  6
CONTINUOUS
 62
     6
 10
13959.932359611519
 20
20345.222879999979
 30
0.0
 11
13916.635339611499
 21
20320.219581000001
 31
0.0
  0
LINE
  5
40A8
  8
2-0
  6
DASHED3
 62
     6
 10
8178.5250806115209
 20
17973.03907499999
 30
0.0
 11
8178.5250806115209
 21
19794.809820999981
 31
0.0
  0
LINE
  5
40A9
  8
2-0
  6
CENTER2
 62
     6
 10
3931.0244796115221
 20
19980.316444999949
 30
0.0
 11
5577.5301346115157
 21
19980.316444999949
 31
0.0
  0
LINE
  5
40AA
  8
2-0
  6
CENTER2
 62
     6
 10
3931.0244796115221
 20
17062.316444999979
 30
0.0
 11
5577.5301346115157
 21
17062.316444999979
 31
0.0
  0
LINE
  5
40AB
  8
2-0
  6
CENTER2
 62
     6
 10
3931.0244796115221
 20
13793.81644499998
 30
0.0
 11
5577.5301346115157
 21
13793.81644499998
 31
0.0
  0
LINE
  5
40AC
  8
2-0
  6
CENTER2
 62
     6
 10
13677.522784611499
 20
17062.316444999979
 30
0.0
 11
14303.285796611521
 21
17062.316444999979
 31
0.0
  0
LINE
  5
40AD
  8
2-0
  6
CENTER2
 62
     6
 10
13677.522784611499
 20
13793.81644499998
 30
0.0
 11
14303.285796611521
 21
13793.81644499998
 31
0.0
  0
LINE
  5
40AE
  8
2-0
  6
DASHED3
 62
     6
 10
11086.521015611501
 20
16571.20778299998
 30
0.0
 11
11086.521015611501
 21
19794.809820999981
 31
0.0
  0
LINE
  5
40AF
  8
2-0
  6
DASHED3
 62
     6
 10
11029.520778611501
 20
17017.321987999949
 30
0.0
 11
11029.520778611501
 21
16597.464116999981
 31
0.0
  0
LINE
  5
40B0
  8
2-0
  6
DASHED3
 62
     6
 10
11143.526202611511
 20
17017.321987999949
 30
0.0
 11
11143.526202611511
 21
16544.949468999981
 31
0.0
  0
LINE
  5
40B1
  8
2-0
  6
DASHED3
 62
     6
 10
14047.018310611489
 20
15212.06339599998
 30
0.0
 11
14047.018310611489
 21
16551.628363999971
 31
0.0
  0
LINE
  5
40B2
  8
2-0
  6
DASHED3
 62
     6
 10
14004.518046611511
 20
15231.637865999979
 30
0.0
 11
14004.518046611511
 21
16571.20778299998
 31
0.0
  0
LINE
  5
40B3
  8
2-0
  6
DASHED3
 62
     6
 10
9946.5954456115287
 20
17096.31467699998
 30
0.0
 11
14004.518046611511
 21
17096.31467699998
 31
0.0
  0
LINE
  5
40B4
  8
2-0
  6
DASHED3
 62
     6
 10
10118.0930176115
 20
17017.321987999949
 30
0.0
 11
14004.518046611511
 21
17017.321987999949
 31
0.0
  0
LINE
  5
40B5
  8
2-0
  6
CONTINUOUS
 62
     3
 10
10036.51804661152
 20
17349.874748999981
 30
0.0
 11
9790.6786646115306
 21
17535.318028999969
 31
0.0
  0
LINE
  5
40B6
  8
2-0
  6
CONTINUOUS
 62
     3
 10
9790.6786646115306
 20
16455.43563799997
 30
0.0
 11
9430.5715726115232
 21
16727.067157999969
 31
0.0
  0
LINE
  5
40B7
  8
2-0
  6
CONTINUOUS
 62
     3
 10
9648.5551696115308
 20
17256.748718999981
 30
0.0
 11
9490.6786646115233
 21
17385.832703999979
 31
0.0
  0
LINE
  5
40B8
  8
2-0
  6
CONTINUOUS
 62
     3
 10
9490.6786646115233
 20
16305.95229299998
 30
0.0
 11
9042.6037466115285
 21
16643.93133599998
 31
0.0
  0
LINE
  5
40B9
  8
2-0
  6
CONTINUOUS
 62
     3
 10
9430.5715726115232
 20
16727.067157999969
 30
0.0
 11
10036.51804661152
 21
17349.874748999981
 31
0.0
  0
LINE
  5
40BA
  8
2-0
  6
CONTINUOUS
 62
     3
 10
9648.5551696115308
 20
17256.748718999981
 30
0.0
 11
9042.6037466115285
 21
16643.93133599998
 31
0.0
  0
LINE
  5
40BB
  8
2-0
  6
CONTINUOUS
 62
     3
 10
9490.6786646115233
 20
16305.95229299998
 30
0.0
 11
9490.6786646115233
 21
13823.99717499998
 31
0.0
  0
LINE
  5
40BC
  8
2-0
  6
CONTINUOUS
 62
     3
 10
9790.6786646115306
 20
16455.43563799997
 30
0.0
 11
9790.6786646115306
 21
13823.99717499998
 31
0.0
  0
LINE
  5
40BD
  8
2-0
  6
CONTINUOUS
 62
     3
 10
9490.6786646115233
 20
17385.832703999979
 30
0.0
 11
9490.6786646115233
 21
20245.013710999989
 31
0.0
  0
LINE
  5
40BE
  8
2-0
  6
CONTINUOUS
 62
     3
 10
9790.6786646115306
 20
17535.318028999969
 30
0.0
 11
9790.6786646115306
 21
20245.013710999989
 31
0.0
  0
LINE
  5
40BF
  8
2-0
  6
CONTINUOUS
 62
     3
 10
5193.0249416115166
 20
20144.810479999989
 30
0.0
 11
9490.6786646115233
 21
20144.810479999989
 31
0.0
  0
LINE
  5
40C0
  8
2-0
  6
CONTINUOUS
 62
     3
 10
5248.527178611519
 20
20192.817764999982
 30
0.0
 11
9490.6786646115233
 21
20192.817764999982
 31
0.0
  0
LINE
  5
40C1
  8
2-0
  6
DASHED3
 62
     6
 10
5218.0297646115223
 20
20026.314518999981
 30
0.0
 11
9490.6786646115233
 21
20026.314518999981
 31
0.0
  0
LINE
  5
40C2
  8
2-0
  6
DASHED3
 62
     6
 10
5260.5250806115218
 20
19941.31794999999
 30
0.0
 11
9490.6786646115233
 21
19941.31794999999
 31
0.0
  0
LINE
  5
40C3
  8
2-0
  6
CONTINUOUS
 62
     3
 10
9790.6786646115306
 20
20192.817764999982
 30
0.0
 11
14013.518917611491
 21
20192.817764999982
 31
0.0
  0
LINE
  5
40C4
  8
2-0
  6
CONTINUOUS
 62
     3
 10
9790.6786646115306
 20
20144.810479999989
 30
0.0
 11
14069.019669611491
 21
20144.810479999989
 31
0.0
  0
LINE
  5
40C5
  8
2-0
  6
DASHED3
 62
     6
 10
9790.6786646115306
 20
20026.314518999981
 30
0.0
 11
14047.018310611489
 21
20026.314518999981
 31
0.0
  0
LINE
  5
40C6
  8
2-0
  6
DASHED3
 62
     6
 10
9790.6786646115306
 20
19941.31794999999
 30
0.0
 11
14004.518046611511
 21
19941.31794999999
 31
0.0
  0
LINE
  5
40C7
  8
2-0
  6
CONTINUOUS
 62
     3
 10
9797.0230216115233
 20
17530.533532999991
 30
0.0
 11
9797.0230216115233
 21
19794.809820999981
 31
0.0
  0
LINE
  5
40C8
  8
2-0
  6
CONTINUOUS
 62
     3
 10
14303.46494261151
 20
15093.927706999981
 30
0.0
 11
9842.9082626115305
 21
17144.07650099996
 31
0.0
  0
LINE
  5
40C9
  8
2-0
  6
CONTINUOUS
 62
     3
 10
9632.8328426115277
 20
17240.849225999958
 30
0.0
 11
8607.0186006115255
 21
17723.39208899999
 31
0.0
  0
LINE
  5
40CA
  8
2-0
  6
CONTINUOUS
 62
     3
 10
9795.6888266115275
 20
17096.31467699998
 30
0.0
 11
9946.5954456115287
 21
17096.31467699998
 31
0.0
  0
LINE
  5
40CB
  8
2-0
  6
CONTINUOUS
 62
     3
 10
9717.5710846115235
 20
17017.321987999949
 30
0.0
 11
10118.0930176115
 21
17017.321987999949
 31
0.0
  0
LINE
  5
40CC
  8
2-0
  6
CONTINUOUS
 62
     3
 10
5260.5250806115218
 20
17096.31467699998
 30
0.0
 11
9489.9214986115203
 21
17096.31467699998
 31
0.0
  0
LINE
  5
40CD
  8
2-0
  6
CONTINUOUS
 62
     3
 10
5260.5250806115218
 20
17017.321987999949
 30
0.0
 11
9411.8057366115227
 21
17017.321987999949
 31
0.0
  0
LINE
  5
40CE
  8
2-0
  6
CONTINUOUS
 62
     3
 10
9790.6786646115306
 20
13757.318081999951
 30
0.0
 11
14047.018310611489
 21
13757.318081999951
 31
0.0
  0
LINE
  5
40CF
  8
2-0
  6
CONTINUOUS
 62
     3
 10
9790.6786646115306
 20
13836.30879099997
 30
0.0
 11
14004.518046611511
 21
13836.30879099997
 31
0.0
  0
LINE
  5
40D0
  8
2-0
  6
CONTINUOUS
 62
     3
 10
9790.6786646115306
 20
13633.321037999969
 30
0.0
 11
14087.013493611519
 21
13633.321037999969
 31
0.0
  0
LINE
  5
40D1
  8
2-0
  6
CONTINUOUS
 62
     3
 10
9790.6786646115306
 20
13601.32112999998
 30
0.0
 11
14087.013493611519
 21
13601.32112999998
 31
0.0
  0
LINE
  5
40D2
  8
2-0
  6
CONTINUOUS
 62
     3
 10
5218.0297646115223
 20
13757.318081999951
 30
0.0
 11
9490.6786646115233
 21
13757.318081999951
 31
0.0
  0
LINE
  5
40D3
  8
2-0
  6
CONTINUOUS
 62
     3
 10
5260.5250806115218
 20
13836.30879099997
 30
0.0
 11
9490.6786646115233
 21
13836.30879099997
 31
0.0
  0
LINE
  5
40D4
  8
2-0
  6
CONTINUOUS
 62
     3
 10
5178.0246846115188
 20
13633.321037999969
 30
0.0
 11
9490.6786646115233
 21
13633.321037999969
 31
0.0
  0
LINE
  5
40D5
  8
2-0
  6
CONTINUOUS
 62
     3
 10
5178.0246846115188
 20
13601.32112999998
 30
0.0
 11
9490.6786646115233
 21
13601.32112999998
 31
0.0
  0
LINE
  5
40D6
  8
2-0
  6
CONTINUOUS
 62
     3
 10
8178.5250806115209
 20
13757.318081999951
 30
0.0
 11
8178.5250806115209
 21
13601.32112999998
 31
0.0
  0
LINE
  5
40D7
  8
2-0
  6
CONTINUOUS
 62
     3
 10
11086.521015611501
 20
14196.805926999979
 30
0.0
 11
11086.521015611501
 21
16571.20778299998
 31
0.0
  0
LINE
  5
40D8
  8
2-0
  6
CONTINUOUS
 62
     3
 10
5193.0249416115166
 20
19399.96712599996
 30
0.0
 11
5193.0249416115166
 21
20185.317368999989
 31
0.0
  0
LINE
  5
40D9
  8
2-0
  6
DASHED3
 62
     6
 10
5218.0297646115223
 20
19389.831990999981
 30
0.0
 11
5218.0297646115223
 21
20026.314518999981
 31
0.0
  0
LINE
  5
40DA
  8
2-0
  6
DASHED3
 62
     6
 10
5260.5250806115218
 20
19370.25455199998
 30
0.0
 11
5260.5250806115218
 21
20026.314518999981
 31
0.0
  0
LINE
  5
40DB
  8
2-0
  6
CONTINUOUS
 62
     3
 10
13969.999201611499
 20
15247.545276999979
 30
0.0
 11
13969.999201611499
 21
20144.810479999989
 31
0.0
  0
LINE
  5
40DC
  8
2-0
  6
DASHED3
 62
     6
 10
14047.018310611489
 20
16551.628363999971
 30
0.0
 11
14047.018310611489
 21
20026.314518999981
 31
0.0
  0
LINE
  5
40DD
  8
2-0
  6
DASHED3
 62
     6
 10
14004.518046611511
 20
16571.20778299998
 30
0.0
 11
14004.518046611511
 21
20026.314518999981
 31
0.0
  0
LINE
  5
40DE
  8
2-0
  6
CONTINUOUS
 62
     3
 10
14006.99838361149
 20
15230.49568399996
 30
0.0
 11
14006.99838361149
 21
20144.810479999989
 31
0.0
  0
LINE
  5
40DF
  8
2-0
  6
DASHED3
 62
     6
 10
8121.5238536115257
 20
18060.903965999991
 30
0.0
 11
8121.5238536115257
 21
19941.31794999999
 31
0.0
  0
LINE
  5
40E0
  8
2-0
  6
DASHED3
 62
     6
 10
8235.5253176115239
 20
17885.176162999978
 30
0.0
 11
8235.5253176115239
 21
19941.31794999999
 31
0.0
  0
LINE
  5
40E1
  8
2-0
  6
DASHED3
 62
     6
 10
11029.520778611501
 20
17096.31467699998
 30
0.0
 11
11029.520778611501
 21
19941.31794999999
 31
0.0
  0
LINE
  5
40E2
  8
2-0
  6
DASHED3
 62
     6
 10
11143.526202611511
 20
17096.31467699998
 30
0.0
 11
11143.526202611511
 21
19941.31794999999
 31
0.0
  0
LINE
  5
40E3
  8
2-0
  6
CONTINUOUS
 62
     3
 10
7960.0258196115201
 20
18309.85614099996
 30
0.0
 11
7960.0258196115201
 21
20144.810479999989
 31
0.0
  0
LINE
  5
40E4
  8
2-0
  6
CONTINUOUS
 62
     3
 10
7997.0210426115209
 20
18252.82027199999
 30
0.0
 11
7997.0210426115209
 21
20144.810479999989
 31
0.0
  0
LINE
  5
40E5
  8
2-0
  6
CONTINUOUS
 62
     3
 10
7797.0253316115259
 20
18318.728343999948
 30
0.0
 11
7797.0253316115259
 21
20144.810479999989
 31
0.0
  0
LINE
  5
40E6
  8
2-0
  6
CONTINUOUS
 62
     3
 10
7760.029118611521
 20
18255.82716099999
 30
0.0
 11
7760.029118611521
 21
20144.810479999989
 31
0.0
  0
LINE
  5
40E7
  8
2-0
  6
CONTINUOUS
 62
     3
 10
7597.024671611528
 20
18298.56100799999
 30
0.0
 11
7597.024671611528
 21
20144.810479999989
 31
0.0
  0
LINE
  5
40E8
  8
2-0
  6
CONTINUOUS
 62
     3
 10
7560.0235096115166
 20
18315.60664299997
 30
0.0
 11
7560.0235096115166
 21
20144.810479999989
 31
0.0
  0
LINE
  5
40E9
  8
2-0
  6
CONTINUOUS
 62
     3
 10
7397.0141136115226
 20
18390.683843999981
 30
0.0
 11
7397.0141136115226
 21
20144.810479999989
 31
0.0
  0
LINE
  5
40EA
  8
2-0
  6
CONTINUOUS
 62
     3
 10
7360.025819611521
 20
18407.733437999981
 30
0.0
 11
7360.025819611521
 21
20144.810479999989
 31
0.0
  0
LINE
  5
40EB
  8
2-0
  6
CONTINUOUS
 62
     3
 10
7197.0223616115218
 20
18482.818556999991
 30
0.0
 11
7197.0223616115218
 21
20144.810479999989
 31
0.0
  0
LINE
  5
40EC
  8
2-0
  6
CONTINUOUS
 62
     3
 10
7160.028623611528
 20
18499.860231999992
 30
0.0
 11
7160.028623611528
 21
20144.810479999989
 31
0.0
  0
LINE
  5
40ED
  8
2-0
  6
CONTINUOUS
 62
     3
 10
6997.0246716115262
 20
18574.945351999981
 30
0.0
 11
6997.0246716115262
 21
20144.810479999989
 31
0.0
  0
LINE
  5
40EE
  8
2-0
  6
CONTINUOUS
 62
     3
 10
6960.0235096115248
 20
18591.994944999991
 30
0.0
 11
6960.0235096115248
 21
20144.810479999989
 31
0.0
  0
LINE
  5
40EF
  8
2-0
  6
CONTINUOUS
 62
     3
 10
6397.0271456115242
 20
18851.34157199995
 30
0.0
 11
6397.0271456115242
 21
20144.810479999989
 31
0.0
  0
LINE
  5
40F0
  8
2-0
  6
CONTINUOUS
 62
     3
 10
6360.0244996115234
 20
18868.38126799999
 30
0.0
 11
6360.0244996115234
 21
20144.810479999989
 31
0.0
  0
LINE
  5
40F1
  8
2-0
  6
CONTINUOUS
 62
     3
 10
6560.0241696115263
 20
18776.248534999981
 30
0.0
 11
6560.0241696115263
 21
20144.810479999989
 31
0.0
  0
LINE
  5
40F2
  8
2-0
  6
CONTINUOUS
 62
     3
 10
6597.020877611526
 20
18759.20685899998
 30
0.0
 11
6597.020877611526
 21
20144.810479999989
 31
0.0
  0
LINE
  5
40F3
  8
2-0
  6
CONTINUOUS
 62
     3
 10
6760.0223556115243
 20
18684.12173999998
 30
0.0
 11
6760.0223556115243
 21
20144.810479999989
 31
0.0
  0
LINE
  5
40F4
  8
2-0
  6
CONTINUOUS
 62
     3
 10
6797.020547611527
 20
18667.080063999991
 30
0.0
 11
6797.020547611527
 21
20144.810479999989
 31
0.0
  0
LINE
  5
40F5
  8
2-0
  6
CONTINUOUS
 62
     3
 10
6197.027475611525
 20
18943.46044899998
 30
0.0
 11
6197.027475611525
 21
20144.810479999989
 31
0.0
  0
LINE
  5
40F6
  8
2-0
  6
CONTINUOUS
 62
     3
 10
5387.028194611521
 20
19311.98346399999
 30
0.0
 11
5387.028194611521
 21
20144.810479999989
 31
0.0
  0
LINE
  5
40F7
  8
2-0
  6
CONTINUOUS
 62
     3
 10
5350.030002611521
 20
19329.027118999991
 30
0.0
 11
5350.030002611521
 21
20144.810479999989
 31
0.0
  0
LINE
  5
40F8
  8
2-0
  6
CONTINUOUS
 62
     3
 10
5587.0318236115199
 20
19219.85666899999
 30
0.0
 11
5587.0318236115199
 21
20144.810479999989
 31
0.0
  0
LINE
  5
40F9
  8
2-0
  6
CONTINUOUS
 62
     3
 10
5550.0291776115182
 20
19236.90626299995
 30
0.0
 11
5550.0291776115182
 21
20144.810479999989
 31
0.0
  0
LINE
  5
40FA
  8
2-0
  6
CONTINUOUS
 62
     3
 10
5797.022691611528
 20
19127.729873999979
 30
0.0
 11
5797.022691611528
 21
20144.810479999989
 31
0.0
  0
LINE
  5
40FB
  8
2-0
  6
CONTINUOUS
 62
     3
 10
5760.0289536115242
 20
19144.77352899998
 30
0.0
 11
5760.0289536115242
 21
20144.810479999989
 31
0.0
  0
LINE
  5
40FC
  8
2-0
  6
CONTINUOUS
 62
     3
 10
5960.025654611527
 20
19052.64475499999
 30
0.0
 11
5960.025654611527
 21
20144.810479999989
 31
0.0
  0
LINE
  5
40FD
  8
2-0
  6
CONTINUOUS
 62
     3
 10
5997.0223616115254
 20
19035.589222999992
 30
0.0
 11
5997.0223616115254
 21
20144.810479999989
 31
0.0
  0
LINE
  5
40FE
  8
2-0
  6
CONTINUOUS
 62
     3
 10
6160.022355611527
 20
18960.504103999981
 30
0.0
 11
6160.022355611527
 21
20144.810479999989
 31
0.0
  0
LINE
  5
40FF
  8
2-0
  6
CONTINUOUS
 62
     3
 10
8160.019550611526
 20
18001.556019999982
 30
0.0
 11
8160.019550611526
 21
20144.810479999989
 31
0.0
  0
LINE
  5
4100
  8
2-0
  6
CONTINUOUS
 62
     3
 10
8197.0276406115227
 20
17944.524109999991
 30
0.0
 11
8197.0276406115227
 21
20144.810479999989
 31
0.0
  0
LINE
  5
4101
  8
2-0
  6
CONTINUOUS
 62
     3
 10
8397.0233516115259
 20
17636.223988999991
 30
0.0
 11
8397.0233516115259
 21
20144.810479999989
 31
0.0
  0
LINE
  5
4102
  8
2-0
  6
CONTINUOUS
 62
     3
 10
9360.0225206115156
 20
17376.515109999989
 30
0.0
 11
9360.0225206115156
 21
20144.810479999989
 31
0.0
  0
LINE
  5
4103
  8
2-0
  6
CONTINUOUS
 62
     3
 10
9397.023681611523
 20
17359.47739299999
 30
0.0
 11
9397.023681611523
 21
20144.810479999989
 31
0.0
  0
LINE
  5
4104
  8
2-0
  6
CONTINUOUS
 62
     3
 10
9160.0268096115215
 20
17468.651801999989
 30
0.0
 11
9160.0268096115215
 21
20144.810479999989
 31
0.0
  0
LINE
  5
4105
  8
2-0
  6
CONTINUOUS
 62
     3
 10
9197.0279706115234
 20
17451.606167999991
 30
0.0
 11
9197.0279706115234
 21
20144.810479999989
 31
0.0
  0
LINE
  5
4106
  8
2-0
  6
CONTINUOUS
 62
     3
 10
8997.0233516115186
 20
17543.736920999982
 30
0.0
 11
8997.0233516115186
 21
20144.810479999989
 31
0.0
  0
LINE
  5
4107
  8
2-0
  6
CONTINUOUS
 62
     3
 10
8960.0231806115262
 20
17560.774637999992
 30
0.0
 11
8960.0231806115262
 21
20144.810479999989
 31
0.0
  0
LINE
  5
4108
  8
2-0
  6
CONTINUOUS
 62
     3
 10
8760.0225206115283
 20
17652.909350999991
 30
0.0
 11
8760.0225206115283
 21
20144.810479999989
 31
0.0
  0
LINE
  5
4109
  8
2-0
  6
CONTINUOUS
 62
     3
 10
8797.0197226115288
 20
17635.867674999979
 30
0.0
 11
8797.0197226115288
 21
20144.810479999989
 31
0.0
  0
LINE
  5
410A
  8
2-0
  6
CONTINUOUS
 62
     3
 10
8597.0210426115227
 20
17706.40979899999
 30
0.0
 11
8597.0210426115227
 21
20144.810479999989
 31
0.0
  0
LINE
  5
410B
  8
2-0
  6
CONTINUOUS
 62
     3
 10
8560.0258196115228
 20
17651.13966099999
 30
0.0
 11
8560.0258196115228
 21
20144.810479999989
 31
0.0
  0
LINE
  5
410C
  8
2-0
  6
CONTINUOUS
 62
     3
 10
8360.020210611523
 20
17693.265795999971
 30
0.0
 11
8360.020210611523
 21
20144.810479999989
 31
0.0
  0
LINE
  5
410D
  8
2-0
  6
CONTINUOUS
 62
     3
 10
10797.02335161148
 20
16704.567948999971
 30
0.0
 11
10797.02335161148
 21
20144.810479999989
 31
0.0
  0
LINE
  5
410E
  8
2-0
  6
CONTINUOUS
 62
     3
 10
10760.02219061152
 20
16721.609624999968
 30
0.0
 11
10760.02219061152
 21
20144.810479999989
 31
0.0
  0
LINE
  5
410F
  8
2-0
  6
CONTINUOUS
 62
     3
 10
10597.02269161151
 20
16796.692764999982
 30
0.0
 11
10597.02269161151
 21
20144.810479999989
 31
0.0
  0
LINE
  5
4110
  8
2-0
  6
CONTINUOUS
 62
     3
 10
10560.022520611519
 20
16813.736419999979
 30
0.0
 11
10560.022520611519
 21
20144.810479999989
 31
0.0
  0
LINE
  5
4111
  8
2-0
  6
CONTINUOUS
 62
     3
 10
10360.024829611521
 20
16905.86519399998
 30
0.0
 11
10360.024829611521
 21
20144.810479999989
 31
0.0
  0
LINE
  5
4112
  8
2-0
  6
CONTINUOUS
 62
     3
 10
10397.0240116115
 20
16888.827476999981
 30
0.0
 11
10397.0240116115
 21
20144.810479999989
 31
0.0
  0
LINE
  5
4113
  8
2-0
  6
CONTINUOUS
 62
     3
 10
10197.02038261151
 20
16980.95427199997
 30
0.0
 11
10197.02038261151
 21
20144.810479999989
 31
0.0
  0
LINE
  5
4114
  8
2-0
  6
CONTINUOUS
 62
     3
 10
10160.02219061152
 20
16997.997926999979
 30
0.0
 11
10160.02219061152
 21
20144.810479999989
 31
0.0
  0
LINE
  5
4115
  8
2-0
  6
CONTINUOUS
 62
     3
 10
9960.0215306115279
 20
17090.126700999968
 30
0.0
 11
9960.0215306115279
 21
20144.810479999989
 31
0.0
  0
LINE
  5
4116
  8
2-0
  6
CONTINUOUS
 62
     3
 10
9997.0197226115288
 20
17073.088984999969
 30
0.0
 11
9997.0197226115288
 21
20144.810479999989
 31
0.0
  0
LINE
  5
4117
  8
2-0
  6
CONTINUOUS
 62
     3
 10
10960.020870611501
 20
16629.480850999978
 30
0.0
 11
10960.020870611501
 21
20144.810479999989
 31
0.0
  0
LINE
  5
4118
  8
2-0
  6
CONTINUOUS
 62
     3
 10
10997.022031611499
 20
16612.43719599997
 30
0.0
 11
10997.022031611499
 21
20144.810479999989
 31
0.0
  0
LINE
  5
4119
  8
2-0
  6
CONTINUOUS
 62
     3
 10
11197.019722611511
 20
16520.306441999968
 30
0.0
 11
11197.019722611511
 21
20144.810479999989
 31
0.0
  0
LINE
  5
411A
  8
2-0
  6
CONTINUOUS
 62
     3
 10
11160.023509611499
 20
16537.34811699998
 30
0.0
 11
11160.023509611499
 21
20144.810479999989
 31
0.0
  0
LINE
  5
411B
  8
2-0
  6
CONTINUOUS
 62
     3
 10
11397.019392611521
 20
16428.177666999982
 30
0.0
 11
11397.019392611521
 21
20144.810479999989
 31
0.0
  0
LINE
  5
411C
  8
2-0
  6
CONTINUOUS
 62
     3
 10
11360.02219061152
 20
16445.229240999961
 30
0.0
 11
11360.02219061152
 21
20144.810479999989
 31
0.0
  0
LINE
  5
411D
  8
2-0
  6
CONTINUOUS
 62
     3
 10
11597.0180726115
 20
16336.05087299998
 30
0.0
 11
11597.0180726115
 21
20144.810479999989
 31
0.0
  0
LINE
  5
411E
  8
2-0
  6
CONTINUOUS
 62
     3
 10
11560.017901611511
 20
16353.098486999959
 30
0.0
 11
11560.017901611511
 21
20144.810479999989
 31
0.0
  0
LINE
  5
411F
  8
2-0
  6
CONTINUOUS
 62
     3
 10
11797.01576361152
 20
16243.918138999979
 30
0.0
 11
11797.01576361152
 21
20144.810479999989
 31
0.0
  0
LINE
  5
4120
  8
2-0
  6
CONTINUOUS
 62
     3
 10
11997.01444361149
 20
16151.789364999981
 30
0.0
 11
11997.01444361149
 21
20144.810479999989
 31
0.0
  0
LINE
  5
4121
  8
2-0
  6
CONTINUOUS
 62
     3
 10
11960.01724161152
 20
16168.83301999998
 30
0.0
 11
11960.01724161152
 21
20144.810479999989
 31
0.0
  0
LINE
  5
4122
  8
2-0
  6
CONTINUOUS
 62
     3
 10
12197.015103611509
 20
16059.660590999951
 30
0.0
 11
12197.015103611509
 21
20144.810479999989
 31
0.0
  0
LINE
  5
4123
  8
2-0
  6
CONTINUOUS
 62
     3
 10
12160.017901611511
 20
16076.704245999979
 30
0.0
 11
12160.017901611511
 21
20144.810479999989
 31
0.0
  0
LINE
  5
4124
  8
2-0
  6
CONTINUOUS
 62
     3
 10
12360.013612611499
 20
15984.574481999971
 30
0.0
 11
12360.013612611499
 21
20144.810479999989
 31
0.0
  0
LINE
  5
4125
  8
2-0
  6
CONTINUOUS
 62
     3
 10
12597.01147461151
 20
15875.401062999979
 30
0.0
 11
12597.01147461151
 21
20144.810479999989
 31
0.0
  0
LINE
  5
4126
  8
2-0
  6
CONTINUOUS
 62
     3
 10
12560.014272611499
 20
15892.445706999961
 30
0.0
 11
12560.014272611499
 21
20144.810479999989
 31
0.0
  0
LINE
  5
4127
  8
2-0
  6
CONTINUOUS
 62
     3
 10
12797.012134611499
 20
15783.27525799998
 30
0.0
 11
12797.012134611499
 21
20144.810479999989
 31
0.0
  0
LINE
  5
4128
  8
2-0
  6
CONTINUOUS
 62
     3
 10
12760.009983611521
 20
15800.31594299998
 30
0.0
 11
12760.009983611521
 21
20144.810479999989
 31
0.0
  0
LINE
  5
4129
  8
2-0
  6
CONTINUOUS
 62
     3
 10
12997.01180461152
 20
15691.142523999981
 30
0.0
 11
12997.01180461152
 21
20144.810479999989
 31
0.0
  0
LINE
  5
412A
  8
2-0
  6
CONTINUOUS
 62
     3
 10
12960.010643611509
 20
15708.186178999949
 30
0.0
 11
12960.010643611509
 21
20144.810479999989
 31
0.0
  0
LINE
  5
412B
  8
2-0
  6
CONTINUOUS
 62
     3
 10
13197.00850561152
 20
15599.015729999979
 30
0.0
 11
13197.00850561152
 21
20144.810479999989
 31
0.0
  0
LINE
  5
412C
  8
2-0
  6
CONTINUOUS
 62
     3
 10
13160.009323611501
 20
15616.060373999981
 30
0.0
 11
13160.009323611501
 21
20144.810479999989
 31
0.0
  0
LINE
  5
412D
  8
2-0
  6
CONTINUOUS
 62
     3
 10
13397.0052066115
 20
15506.883985999981
 30
0.0
 11
13397.0052066115
 21
20144.810479999989
 31
0.0
  0
LINE
  5
412E
  8
2-0
  6
CONTINUOUS
 62
     3
 10
13360.007014611519
 20
15523.92764099998
 30
0.0
 11
13360.007014611519
 21
20144.810479999989
 31
0.0
  0
LINE
  5
412F
  8
2-0
  6
CONTINUOUS
 62
     3
 10
13597.00487661152
 20
15414.75422199996
 30
0.0
 11
13597.00487661152
 21
20144.810479999989
 31
0.0
  0
LINE
  5
4130
  8
2-0
  6
CONTINUOUS
 62
     3
 10
13560.008663611499
 20
15431.80084599998
 30
0.0
 11
13560.008663611499
 21
20144.810479999989
 31
0.0
  0
LINE
  5
4131
  8
2-0
  6
CONTINUOUS
 62
     3
 10
13806.999702611491
 20
15322.625447999961
 30
0.0
 11
13806.999702611491
 21
20144.810479999989
 31
0.0
  0
LINE
  5
4132
  8
2-0
  6
CONTINUOUS
 62
     3
 10
13770.000521611521
 20
15339.669102999969
 30
0.0
 11
13770.000521611521
 21
20144.810479999989
 31
0.0
  0
LINE
  5
4133
  8
2-0
  6
CONTINUOUS
 62
     3
 10
11760.0185616115
 20
16260.971691999979
 30
0.0
 11
11760.0185616115
 21
20144.810479999989
 31
0.0
  0
LINE
  5
4134
  8
2-0
  6
CONTINUOUS
 62
     3
 10
12397.01279461149
 20
15967.52488799998
 30
0.0
 11
12397.01279461149
 21
20144.810479999989
 31
0.0
  0
LINE
  5
4135
  8
2-0
  6
CENTER2
 62
     6
 10
5260.5250806115218
 20
21222.814729999998
 30
0.0
 11
5260.5250806115218
 21
14467.812907999971
 31
0.0
  0
LINE
  5
4136
  8
2-0
  6
CENTER2
 62
     6
 10
8178.5250806115209
 20
21222.814729999998
 30
0.0
 11
8178.5250806115209
 21
14546.806586999979
 31
0.0
  0
LINE
  5
4137
  8
2-0
  6
DASHED3
 62
     6
 10
11156.520751611521
 20
17062.316444999979
 30
0.0
 11
13934.51930061149
 21
19980.316444999949
 31
0.0
  0
LINE
  5
4138
  8
2-0
  6
DASHED3
 62
     6
 10
11156.520751611521
 20
19980.316444999949
 30
0.0
 11
13934.51930061149
 21
17062.316444999979
 31
0.0
  0
LINE
  5
4139
  8
2-0
  6
DASHED3
 62
     6
 10
9790.6786646115306
 20
18692.469369999992
 30
0.0
 11
11016.525238611521
 21
19980.316444999949
 31
0.0
  0
LINE
  5
413A
  8
2-0
  6
DASHED3
 62
     6
 10
9790.6786646115306
 20
18360.16362599999
 30
0.0
 11
11016.525238611521
 21
17062.316444999979
 31
0.0
  0
LINE
  5
413B
  8
2-0
  6
DASHED3
 62
     6
 10
8248.5208576115238
 20
19980.316444999949
 30
0.0
 11
9490.6786646115233
 21
18675.336635999989
 31
0.0
  0
LINE
  5
413C
  8
2-0
  6
CONTINUOUS
 62
     3
 10
9790.6786646115306
 20
15092.16296599994
 30
0.0
 11
11016.525238611521
 21
13793.81644499998
 31
0.0
  0
LINE
  5
413D
  8
2-0
  6
CONTINUOUS
 62
     3
 10
8248.5208576115238
 20
13793.81644499998
 30
0.0
 11
9490.6786646115233
 21
15109.296688999981
 31
0.0
  0
LINE
  5
413E
  8
2-0
  6
CONTINUOUS
 62
     3
 10
8248.5208576115238
 20
17062.316444999979
 30
0.0
 11
9490.6786646115233
 21
15757.33663599998
 31
0.0
  0
LINE
  5
413F
  8
2-0
  6
DASHED3
 62
     6
 10
6839.7637976115257
 20
18647.387813999991
 30
0.0
 11
8108.525344611523
 21
19980.316444999949
 31
0.0
  0
LINE
  5
4140
  8
2-0
  6
DASHED3
 62
     6
 10
5330.5248166115207
 20
19980.316444999949
 30
0.0
 11
6429.3066606115253
 21
18836.46548999998
 31
0.0
  0
LINE
  5
4141
  8
2-0
  6
CONTINUOUS
 62
     3
 10
6429.3066606115253
 20
18836.46548999998
 30
0.0
 11
8108.525344611523
 21
17062.316444999979
 31
0.0
  0
LINE
  5
4142
  8
2-0
  6
CONTINUOUS
 62
     3
 10
5330.5248166115207
 20
17062.316444999979
 30
0.0
 11
6839.7637976115257
 21
18647.387813999991
 31
0.0
  0
LINE
  5
4143
  8
2-0
  6
CONTINUOUS
 62
     3
 10
8248.5208576115238
 20
17062.316444999979
 30
0.0
 11
8788.6265636115259
 21
17639.73763399999
 31
0.0
  0
LINE
  5
4144
  8
2-0
  6
DASHED3
 62
     6
 10
8788.6265636115259
 20
17639.73763399999
 30
0.0
 11
9490.6786646115233
 21
18377.296359999989
 31
0.0
  0
LINE
  5
4145
  8
2-0
  6
CONTINUOUS
 62
     3
 10
9790.6786646115306
 20
15774.470358999981
 30
0.0
 11
10712.88589361151
 21
16743.322963999981
 31
0.0
  0
LINE
  5
4146
  8
2-0
  6
DASHED3
 62
     6
 10
10712.88589361151
 20
16743.322963999981
 30
0.0
 11
11016.525238611521
 21
17062.316444999979
 31
0.0
  0
LINE
  5
4147
  8
2-0
  6
CONTINUOUS
 62
     3
 10
5175.0246846115188
 20
13601.32112999998
 30
0.0
 11
5175.0246846115188
 21
20162.81420199999
 31
0.0
  0
LINE
  5
4148
  8
2-0
  6
CONTINUOUS
 62
     3
 10
5218.0297646115223
 20
13757.318081999951
 30
0.0
 11
5218.0297646115223
 21
19389.837929999991
 31
0.0
  0
LINE
  5
4149
  8
2-0
  6
CONTINUOUS
 62
     3
 10
5260.5250806115218
 20
13757.318081999951
 30
0.0
 11
5260.5250806115218
 21
19370.262469999991
 31
0.0
  0
LINE
  5
414A
  8
2-0
  6
CONTINUOUS
 62
     3
 10
5310.5301546115234
 20
13633.321037999969
 30
0.0
 11
5310.5301546115234
 21
20144.810479999989
 31
0.0
  0
LINE
  5
414B
  8
2-0
  6
CONTINUOUS
 62
     3
 10
8121.5238536115257
 20
13836.30879099997
 30
0.0
 11
8121.5238536115257
 21
17017.321987999949
 31
0.0
  0
LINE
  5
414C
  8
2-0
  6
CONTINUOUS
 62
     3
 10
8178.5250806115209
 20
13836.30879099997
 30
0.0
 11
8178.5250806115209
 21
17017.321987999949
 31
0.0
  0
LINE
  5
414D
  8
2-0
  6
CONTINUOUS
 62
     3
 10
8235.5253176115239
 20
13836.30879099997
 30
0.0
 11
8235.5253176115239
 21
17017.321987999949
 31
0.0
  0
LINE
  5
414E
  8
2-0
  6
CONTINUOUS
 62
     3
 10
11143.526202611511
 20
13836.30879099997
 30
0.0
 11
11143.526202611511
 21
16544.949468999981
 31
0.0
  0
LINE
  5
414F
  8
2-0
  6
CONTINUOUS
 62
     3
 10
11029.520778611501
 20
13836.30879099997
 30
0.0
 11
11029.520778611501
 21
16597.464116999981
 31
0.0
  0
LINE
  5
4150
  8
2-0
  6
CENTER2
 62
     6
 10
11086.521015611501
 20
21222.814729999998
 30
0.0
 11
11086.521015611501
 21
13836.30879099997
 31
0.0
  0
LINE
  5
4151
  8
2-0
  6
CONTINUOUS
 62
     3
 10
11086.521015611501
 20
13836.30879099997
 30
0.0
 11
11086.521015611501
 21
14196.805926999979
 31
0.0
  0
LINE
  5
4152
  8
2-0
  6
CONTINUOUS
 62
     3
 10
11086.521015611501
 20
13836.30879099997
 30
0.0
 11
11086.521015611501
 21
13601.32112999998
 31
0.0
  0
LINE
  5
4153
  8
2-0
  6
CONTINUOUS
 62
     3
 10
14090.013493611519
 20
13601.32112999998
 30
0.0
 11
14090.013493611519
 21
20185.317368999989
 31
0.0
  0
LINE
  5
4154
  8
2-0
  6
CONTINUOUS
 62
     3
 10
14004.518046611511
 20
13757.318081999951
 30
0.0
 11
14004.518046611511
 21
15231.637865999979
 31
0.0
  0
LINE
  5
4155
  8
2-0
  6
CENTER2
 62
     6
 10
14004.521015611501
 20
21222.814729999998
 30
0.0
 11
14004.521015611501
 21
13757.318081999951
 31
0.0
  0
LINE
  5
4156
  8
2-0
  6
CONTINUOUS
 62
     3
 10
14047.018310611489
 20
13633.321037999969
 30
0.0
 11
14047.018310611489
 21
15212.06339599998
 31
0.0
  0
LINE
  5
4157
  8
2-0
  6
CONTINUOUS
 62
     3
 10
14072.019669611491
 20
13633.321037999969
 30
0.0
 11
14072.019669611491
 21
20185.317368999989
 31
0.0
  0
LINE
  5
4158
  8
0-1
  6
CONTINUOUS
 62
     3
 10
5330.5292706115179
 20
13793.81941399997
 30
0.0
 11
8108.525344611523
 21
17062.316444999979
 31
0.0
  0
LINE
  5
4159
  8
0-1
  6
CONTINUOUS
 62
     3
 10
8108.525344611523
 20
13793.81941399997
 30
0.0
 11
5330.5292706115179
 21
17062.316444999979
 31
0.0
  0
LINE
  5
415A
  8
2-0
  6
DASHED3
 62
     6
 10
11887.08781761148
 20
16202.425449999961
 30
0.0
 11
11156.52471061152
 21
17062.316444999979
 31
0.0
  0
LINE
  5
415B
  8
2-0
  6
DASHED3
 62
     6
 10
12826.36047661152
 20
15769.751186999971
 30
0.0
 11
13934.51930061149
 21
17062.316444999979
 31
0.0
  0
LINE
  5
415C
  8
0-1
  6
CONTINUOUS
 62
     3
 10
13934.51930061149
 20
13793.81941399997
 30
0.0
 11
11887.08781761148
 21
16202.425449999961
 31
0.0
  0
LINE
  5
415D
  8
0-1
  6
CONTINUOUS
 62
     3
 10
11156.52471061152
 20
13793.81941399997
 30
0.0
 11
12826.36047661152
 21
15769.751186999971
 31
0.0
  0
CIRCLE
  5
415E
  8
2-0
  6
CONTINUOUS
 62
     4
 10
5260.5250806115218
 20
21422.815389999982
 30
0.0
 40
200.000057
  0
CIRCLE
  5
415F
  8
2-0
  6
CONTINUOUS
 62
     4
 10
3731.0292636115232
 20
19980.316444999949
 30
0.0
 40
200.000057
  0
CIRCLE
  5
4160
  8
2-0
  6
CONTINUOUS
 62
     4
 10
3731.0292636115232
 20
17062.316444999979
 30
0.0
 40
200.000057
  0
CIRCLE
  5
4161
  8
2-0
  6
CONTINUOUS
 62
     4
 10
3731.0292636115232
 20
13793.81644499998
 30
0.0
 40
200.000057
  0
ARC
  5
4162
  8
2-0
  6
CONTINUOUS
 62
     3
 10
5180.030391611519
 20
20197.812089999989
 30
0.0
 40
5.0000019999999941
 50
90.0
 51
180.0
  0
ARC
  5
4163
  8
2-0
  6
CONTINUOUS
 62
     3
 10
5243.526914611517
 20
20197.812089999989
 30
0.0
 40
5.0000019999999941
 50
0.0
 51
90.0
  0
ARC
  5
4164
  8
2-0
  6
CONTINUOUS
 62
     3
 10
5243.526914611517
 20
20167.816444999989
 30
0.0
 40
5.0000019999999941
 50
269.9999850001808
 51
0.0
  0
ARC
  5
4165
  8
2-0
  6
CONTINUOUS
 62
     3
 10
14021.51621261149
 20
20167.816444999989
 30
0.0
 40
5.0000019999999941
 50
180.0
 51
269.9999850001808
  0
ARC
  5
4166
  8
2-0
  6
CONTINUOUS
 62
     3
 10
14021.51621261149
 20
20197.812089999989
 30
0.0
 40
5.0000019999999941
 50
90.0
 51
180.0
  0
ARC
  5
4167
  8
2-0
  6
CONTINUOUS
 62
     3
 10
14085.02213761151
 20
20197.812089999989
 30
0.0
 40
5.0000019999999941
 50
0.0
 51
90.0
  0
CIRCLE
  5
4168
  8
2-0
  6
CONTINUOUS
 62
     4
 10
8178.5250806115209
 20
21422.813409999992
 30
0.0
 40
200.000057
  0
CIRCLE
  5
4169
  8
2-0
  6
CONTINUOUS
 62
     4
 10
11086.521015611501
 20
21422.813409999992
 30
0.0
 40
200.000057
  0
CIRCLE
  5
416A
  8
2-0
  6
CONTINUOUS
 62
     4
 10
14004.518046611511
 20
21422.813409999992
 30
0.0
 40
200.000057
  0
CIRCLE
  5
416B
  8
2-0
  6
CONTINUOUS
 62
     4
 10
15470.69137999998
 20
1646.5145580000001
 30
0.0
 40
20.000004000000001
  0
ARC
  5
416C
  8
2-0
  6
CONTINUOUS
 62
     4
 10
15470.69137999998
 20
1646.5145580000001
 30
0.0
 40
20.000004000000001
 50
180.0
 51
0.0
  0
ARC
  5
416D
  8
2-0
  6
CONTINUOUS
 62
     4
 10
15470.69137999998
 20
1646.5145580000001
 30
0.0
 40
20.000004000000001
 50
0.0
 51
179.99998499999839
  0
CIRCLE
  5
416E
  8
2-0
  6
CONTINUOUS
 62
     4
 10
15470.69137999998
 20
2046.516496
 30
0.0
 40
20.000004000000001
  0
ARC
  5
416F
  8
2-0
  6
CONTINUOUS
 62
     4
 10
15470.69137999998
 20
2046.516496
 30
0.0
 40
20.000004000000001
 50
180.0
 51
0.0
  0
ARC
  5
4170
  8
2-0
  6
CONTINUOUS
 62
     4
 10
15470.69137999998
 20
2046.516496
 30
0.0
 40
20.000004000000001
 50
0.0
 51
179.99998499999839
  0
TEXT
  5
4171
  8
2-0
  6
CONTINUOUS
 62
     7
 10
5212.2891616115194
 20
21328.960476
 30
0.0
 40
160.0
  1
1
 50
0.004253
 72
     4
 11
5238.9498898964794
 21
21408.962455215678
 31
0.0
  0
TEXT
  5
4172
  8
2-0
  6
CONTINUOUS
 62
     7
 10
3670.8009266115241
 20
19883.613003999992
 30
0.0
 40
160.0
  1
C
 50
0.005671
 72
     4
 11
3724.1263414738778
 21
19963.61828241462
 31
0.0
  0
TEXT
  5
4173
  8
2-0
  6
CONTINUOUS
 62
     7
 10
3681.8006166115251
 20
16971.73169499998
 30
0.0
 40
160.0
  1
B
 72
     4
 11
3735.1339499448591
 21
17051.73169499998
 31
0.0
  0
TEXT
  5
4174
  8
2-0
  6
CONTINUOUS
 62
     7
 10
3683.9003906115208
 20
13702.21323299998
 30
0.0
 40
160.0
  1
A
 72
     4
 11
3737.2337239448539
 21
13782.21323299998
 31
0.0
  0
TEXT
  5
4175
  8
2-0
  6
CONTINUOUS
 62
     7
 10
7112.6706216115253
 20
20512.818821000001
 30
0.0
 40
160.0
  1
屋根
 50
359.99964599999993
 72
     4
 11
7283.3377825521793
 21
20592.817766540349
 31
0.0
  0
TEXT
  5
4176
  8
2-0
  6
CONTINUOUS
 62
     7
 10
6023.0990556115266
 20
21232.815257999991
 30
0.0
 40
160.0
  1
鼻隠し後
 72
     4
 11
6385.7657222781927
 21
21312.815257999991
 31
0.0
  0
TEXT
  5
4177
  8
2-0
  6
CONTINUOUS
 62
     7
 10
5461.6902646115304
 20
20512.81882099999
 30
0.0
 40
160.0
  1
桁（後）
 50
359.99982299999999
 72
     4
 11
5781.6905117486249
 21
20592.817832445118
 31
0.0
  0
TEXT
  5
4178
  8
2-0
  6
CONTINUOUS
 62
     7
 10
6271.7572716115264
 20
17501.90969399998
 30
0.0
 40
160.0
  1
桁（中）
 50
359.99946799999998
 72
     4
 11
6591.7580144098611
 21
17581.906722748012
 31
0.0
  0
TEXT
  5
4179
  8
2-0
  6
CONTINUOUS
 62
     7
 10
6233.7945586115238
 20
14255.64414799995
 30
0.0
 40
160.0
  1
桁（前）
 50
359.99973399999988
 72
     4
 11
6553.7949300141408
 21
14335.64266237483
 31
0.0
  0
TEXT
  5
417A
  8
2-0
  6
CONTINUOUS
 62
     7
 10
7141.3162346115259
 20
12881.315784999981
 30
0.0
 40
160.0
  1
鼻隠し前
 50
0.000532
 72
     4
 11
7503.9821584504298
 21
12961.319152411519
 31
0.0
  0
TEXT
  5
417B
  8
2-0
  6
CONTINUOUS
 62
     7
 10
3524.6298096115179
 20
12481.31941399997
 30
0.0
 40
160.0
  1
ケラバ 左
 50
359.99976400000008
 72
     4
 11
3940.6301391261518
 21
12561.317700504849
 31
0.0
  0
TEXT
  5
417C
  8
2-0
  6
CONTINUOUS
 62
     7
 10
5505.0510516115201
 20
18288.934608999989
 30
0.0
 40
160.0
  1
上枠
 50
359.99964599999993
 72
     4
 11
5675.7182125521731
 21
18368.933554540341
 31
0.0
  0
TEXT
  5
417D
  8
2-0
  6
CONTINUOUS
 62
     7
 10
6497.8410576115284
 20
16597.74520899995
 30
0.0
 40
160.0
  1
ブレース
 50
0.000177
 72
     4
 11
6860.5074606619346
 21
16683.079662694628
 31
0.0
  0
TEXT
  5
417E
  8
2-0
  6
CONTINUOUS
 62
     7
 10
11859.80807261152
 20
21232.815257999991
 30
0.0
 40
160.0
  1
鼻隠しコーナー後
 72
     4
 11
12606.47473927819
 21
21312.815257999991
 31
0.0
  0
TEXT
  5
417F
  8
2-0
  6
CONTINUOUS
 62
     7
 10
7626.337382611533
 20
15787.645044999979
 30
0.0
 40
160.0
  1
梁
 72
     4
 11
7701.0040492782
 21
15867.645044999979
 31
0.0
  0
TEXT
  5
4180
  8
2-0
  6
CONTINUOUS
 62
     7
 10
8135.6724626115292
 20
21336.710289999992
 30
0.0
 40
160.0
  1
2
 72
     4
 11
8189.0057959448613
 21
21416.710289999992
 31
0.0
  0
TEXT
  5
4181
  8
2-0
  6
CONTINUOUS
 62
     7
 10
10923.013770611509
 20
21347.322488999998
 30
0.0
 40
140.0
  1
n-1
 50
359.99952699999972
 72
     4
 11
11086.347681817801
 21
21417.321140614411
 31
0.0
  0
TEXT
  5
4182
  8
2-0
  6
CONTINUOUS
 62
     7
 10
13967.989000611489
 20
21361.17714
 30
0.0
 40
160.0
  1
n
 72
     4
 11
14021.32233394483
 21
21414.510473333328
 31
0.0
  0
TEXT
  5
4183
  8
2-0
  6
CONTINUOUS
 62
     7
 10
8348.5004026115239
 20
11681.612238347439
 30
0.0
 40
160.0
  1
小 屋 伏 図
 50
359.99980699999981
 72
     4
 11
8849.8340054208493
 21
11761.610549612949
 31
0.0
  0
TEXT
  5
4184
  8
2-0
  6
CONTINUOUS
 62
     7
 10
16954.353213802191
 20
1926.5143680000001
 30
0.0
 40
160.0
  1
H
  0
TEXT
  5
4185
  8
2-0
  6
CONTINUOUS
 62
     7
 10
15518.122624999991
 20
1926.5143680000001
 30
0.0
 40
160.0
  1
（ ）内寸法ハ、  タ イプヲ示ス。
  0
TEXT
  5
4186
  8
2-0
  6
CONTINUOUS
 62
     7
 10
15630.691907999981
 20
1526.5151519999979
 30
0.0
 40
160.0
  1
有効高サハ、基礎高サヲ含ミマセン。
  0
TEXT
  5
418F
  8
0-3
  6
CONTINUOUS
 62
     7
 10
27544.4346805186
 20
3658.1200421350532
 30
0.0
 40
160.0
  1
連結する場合は強度上、下記間口寸法に一ヶ所
  0
TEXT
  5
4190
  8
0-3
  6
CONTINUOUS
 62
     7
 10
27544.4346805186
 20
3451.291530856121
 30
0.0
 40
160.0
  1
中間ブレース、もしくは間仕切りが必要になります。
  0
TEXT
  5
4191
  8
0-3
  6
CONTINUOUS
 62
     7
 10
27544.4346805186
 20
3124.142197938243
 30
0.0
 40
160.0
  1
標準タイプ：間口寸法 10.57ｍ以内に一箇所
  0
TEXT
  5
4192
  8
0-3
  6
CONTINUOUS
 62
     7
 10
27571.745290429761
 20
2873.074148021421
 30
0.0
 40
160.0
  1
Hタイプ　：間口寸法 9.21ｍ以内に一箇所
  0
TEXT
  5
4193
  8
2-0
  6
CONTINUOUS
 62
     7
 10
10201.32619055847
 20
11708.80591861295
 30
0.0
 40
160.0
  1
1
 72
     4
 11
10227.992857225139
 21
11788.80591861295
 31
0.0
  0
TEXT
  5
4194
  8
2-0
  6
CONTINUOUS
 62
     7
 10
10444.41490780917
 20
11628.807386612951
 30
0.0
 40
160.0
  1
80
 72
     4
 11
10564.41490780917
 21
11708.807386612951
 31
0.0
  0
TEXT
  5
4195
  8
2-0
  6
CONTINUOUS
 62
     7
 10
9702.3281565584803
 20
11681.610549612949
 30
0.0
 40
160.0
  1
(S=  /   )
 72
     4
 11
10262.32815655848
 21
11761.610549612949
 31
0.0
  0
LINE
  5
4196
  8
0-1
  6
CONTINUOUS
 62
     3
 10
25849.67910599996
 20
8311.2286080000031
 30
0.0
 11
25849.67910599996
 21
8343.2285150000007
 31
0.0
  0
LINE
  5
4197
  8
0-1
  6
CONTINUOUS
 62
     3
 10
25998.678498999961
 20
8235.0418860000027
 30
0.0
 11
25955.67638799996
 21
8235.0418860000027
 31
0.0
  0
LINE
  5
4198
  8
0-1
  6
CONTINUOUS
 62
     3
 10
25998.678498999961
 20
8561.2289369999999
 30
0.0
 11
25998.678498999961
 21
8235.0418860000027
 31
0.0
  0
LINE
  5
4199
  8
0-1
  6
CONTINUOUS
 62
     3
 10
25563.71191299997
 20
8307.6931870000008
 30
0.0
 11
25531.712995999958
 21
8339.6930949999969
 31
0.0
  0
LINE
  5
419A
  8
0-1
  6
CONTINUOUS
 62
     3
 10
25844.678841999961
 20
8348.2287790000028
 30
0.0
 11
25535.248415999959
 21
8348.2287790000028
 31
0.0
  0
LINE
  5
419B
  8
0-1
  6
CONTINUOUS
 62
     3
 10
25849.67910599996
 20
8339.8296820000032
 30
0.0
 11
25531.58234699997
 21
8339.8296820000032
 31
0.0
  0
LINE
  5
419C
  8
0-1
  6
CONTINUOUS
 62
     3
 10
25844.678841999961
 20
8306.2283440000028
 30
0.0
 11
25567.24931299996
 21
8306.2283440000028
 31
0.0
  0
LINE
  5
419D
  8
0-1
  6
CONTINUOUS
 62
     3
 10
25849.67910599996
 20
8314.6284309999974
 30
0.0
 11
25556.77765999996
 21
8314.6284309999974
 31
0.0
  0
LINE
  5
419E
  8
0-1
  6
CONTINUOUS
 62
     3
 10
25849.67910599996
 20
8323.0285179999992
 30
0.0
 11
25548.378561999962
 21
8323.0285179999992
 31
0.0
  0
LINE
  5
419F
  8
0-1
  6
CONTINUOUS
 62
     3
 10
25849.67910599996
 20
8331.4295950000032
 30
0.0
 11
25539.97748599996
 21
8331.4295950000032
 31
0.0
  0
LINE
  5
41A0
  8
0-1
  6
CONTINUOUS
 62
     3
 10
25963.17678399997
 20
6212.7285879999999
 30
0.0
 11
25863.17744299996
 21
6212.7285879999999
 31
0.0
  0
LINE
  5
41A1
  8
0-1
  6
CONTINUOUS
 62
     3
 10
25863.17744299996
 20
6212.7285879999999
 30
0.0
 11
25863.17744299996
 21
6112.7287530000012
 31
0.0
  0
LINE
  5
41A2
  8
0-1
  6
CONTINUOUS
 62
     3
 10
25963.17678399997
 20
6112.7287530000012
 30
0.0
 11
25963.17678399997
 21
6212.7285879999999
 31
0.0
  0
LINE
  5
41A3
  8
0-1
  6
CONTINUOUS
 62
     3
 10
25935.67731099997
 20
8561.2289369999999
 30
0.0
 11
25935.67731099997
 21
6212.7285879999999
 31
0.0
  0
LINE
  5
41A4
  8
0-1
  6
CONTINUOUS
 62
     3
 10
25955.67638799996
 20
8431.2280139999984
 30
0.0
 11
25955.67638799996
 21
6212.7285879999999
 31
0.0
  0
LINE
  5
41A5
  8
0-1
  6
CONTINUOUS
 62
     3
 10
25825.67744299995
 20
8120.7286469999981
 30
0.0
 11
25825.67744299995
 21
6112.7287530000012
 31
0.0
  0
LINE
  5
41A6
  8
0-1
  6
CONTINUOUS
 62
     3
 10
25870.67783899996
 20
8431.2280139999984
 30
0.0
 11
25870.67783899996
 21
6212.7285879999999
 31
0.0
  0
LINE
  5
41A7
  8
0-1
  6
CONTINUOUS
 62
     3
 10
23344.64231399999
 20
8307.6931870000008
 30
0.0
 11
23376.63925199999
 21
8339.6930949999969
 31
0.0
  0
LINE
  5
41A8
  8
0-1
  6
CONTINUOUS
 62
     3
 10
23058.677099999979
 20
8311.2286080000031
 30
0.0
 11
23058.677099999979
 21
8343.2285150000007
 31
0.0
  0
LINE
  5
41A9
  8
0-1
  6
CONTINUOUS
 62
     3
 10
22931.675146999991
 20
8311.2286080000031
 30
0.0
 11
22931.675146999991
 21
8343.2285150000007
 31
0.0
  0
LINE
  5
41AA
  8
0-1
  6
CONTINUOUS
 62
     3
 10
23058.677099999979
 20
8314.6284309999974
 30
0.0
 11
23351.574587999981
 21
8314.6284309999974
 31
0.0
  0
LINE
  5
41AB
  8
0-1
  6
CONTINUOUS
 62
     3
 10
23058.677099999979
 20
8323.0285179999992
 30
0.0
 11
23359.975664999991
 21
8323.0285179999992
 31
0.0
  0
LINE
  5
41AC
  8
0-1
  6
CONTINUOUS
 62
     3
 10
23063.677363999981
 20
8306.2283440000028
 30
0.0
 11
23341.104913999981
 21
8306.2283440000028
 31
0.0
  0
LINE
  5
41AD
  8
0-1
  6
CONTINUOUS
 62
     3
 10
23058.677099999979
 20
8331.4295950000032
 30
0.0
 11
23368.374761999989
 21
8331.4295950000032
 31
0.0
  0
LINE
  5
41AE
  8
0-1
  6
CONTINUOUS
 62
     3
 10
23058.677099999979
 20
8339.8296820000032
 30
0.0
 11
23376.771879999978
 21
8339.8296820000032
 31
0.0
  0
LINE
  5
41AF
  8
0-1
  6
CONTINUOUS
 62
     3
 10
23063.677363999981
 20
8348.2287790000028
 30
0.0
 11
23373.105811000001
 21
8348.2287790000028
 31
0.0
  0
LINE
  5
41B0
  8
0-1
  6
CONTINUOUS
 62
     3
 10
22645.709933999991
 20
8307.6931870000008
 30
0.0
 11
22613.71299599998
 21
8339.6930949999969
 31
0.0
  0
LINE
  5
41B1
  8
0-1
  6
CONTINUOUS
 62
     3
 10
22150.12755999999
 20
7546.4450679999973
 30
0.0
 11
21904.28322899999
 21
7731.8858739999978
 31
0.0
  0
LINE
  5
41B2
  8
0-1
  6
CONTINUOUS
 62
     3
 10
21762.15973399999
 20
7463.3127109999969
 30
0.0
 11
21604.283229000001
 21
7582.4020330000021
 31
0.0
  0
LINE
  5
41B3
  8
0-1
  6
CONTINUOUS
 62
     3
 10
21544.177126999981
 20
6933.6326340000023
 30
0.0
 11
22150.12755999999
 21
7546.4450679999973
 31
0.0
  0
LINE
  5
41B4
  8
0-1
  6
CONTINUOUS
 62
     3
 10
22926.67686299999
 20
8306.2283440000028
 30
0.0
 11
22649.245353999991
 21
8306.2283440000028
 31
0.0
  0
LINE
  5
41B5
  8
0-1
  6
CONTINUOUS
 62
     3
 10
22926.67686299999
 20
8348.2287790000028
 30
0.0
 11
22617.246435999969
 21
8348.2287790000028
 31
0.0
  0
LINE
  5
41B6
  8
0-1
  6
CONTINUOUS
 62
     3
 10
22931.675146999991
 20
8314.6284309999974
 30
0.0
 11
22638.777659999982
 21
8314.6284309999974
 31
0.0
  0
LINE
  5
41B7
  8
0-1
  6
CONTINUOUS
 62
     3
 10
22931.675146999991
 20
8323.0285179999992
 30
0.0
 11
22630.376582999968
 21
8323.0285179999992
 31
0.0
  0
LINE
  5
41B8
  8
0-1
  6
CONTINUOUS
 62
     3
 10
22931.675146999991
 20
8331.4295950000032
 30
0.0
 11
22621.977485999982
 21
8331.4295950000032
 31
0.0
  0
LINE
  5
41B9
  8
0-1
  6
CONTINUOUS
 62
     3
 10
22931.675146999991
 20
8339.8296820000032
 30
0.0
 11
22613.582347999982
 21
8339.8296820000032
 31
0.0
  0
LINE
  5
41BA
  8
0-1
  6
CONTINUOUS
 62
     3
 10
21598.404058999979
 20
6892.728852000002
 30
0.0
 11
22907.677444000001
 21
6892.728852000002
 31
0.0
  0
LINE
  5
41BB
  8
0-1
  6
CONTINUOUS
 62
     3
 10
21568.00261299999
 20
6957.7288190000027
 30
0.0
 11
22907.677444000001
 21
6957.7288190000027
 31
0.0
  0
LINE
  5
41BC
  8
0-1
  6
CONTINUOUS
 62
     3
 10
21632.27560099999
 20
7022.7287859999997
 30
0.0
 11
22907.677444000001
 21
7022.7287859999997
 31
0.0
  0
LINE
  5
41BD
  8
0-1
  6
CONTINUOUS
 62
     3
 10
21696.548589999991
 20
7087.7292480000024
 30
0.0
 11
22907.677444000001
 21
7087.7292480000024
 31
0.0
  0
LINE
  5
41BE
  8
0-1
  6
CONTINUOUS
 62
     3
 10
21760.81959899998
 20
7152.7282250000007
 30
0.0
 11
22907.677444000001
 21
7152.7282250000007
 31
0.0
  0
LINE
  5
41BF
  8
0-1
  6
CONTINUOUS
 62
     3
 10
21825.092587999981
 20
7217.7286870000007
 30
0.0
 11
22907.677444000001
 21
7217.7286870000007
 31
0.0
  0
LINE
  5
41C0
  8
0-1
  6
CONTINUOUS
 62
     3
 10
21889.363597999982
 20
7282.7286539999968
 30
0.0
 11
22907.677444000001
 21
7282.7286539999968
 31
0.0
  0
LINE
  5
41C1
  8
0-1
  6
CONTINUOUS
 62
     3
 10
21953.636585999979
 20
7347.7291160000004
 30
0.0
 11
22907.677444000001
 21
7347.7291160000004
 31
0.0
  0
LINE
  5
41C2
  8
0-1
  6
CONTINUOUS
 62
     3
 10
22017.90759599999
 20
7412.7280929999979
 30
0.0
 11
22907.677444000001
 21
7412.7280929999979
 31
0.0
  0
LINE
  5
41C3
  8
0-1
  6
CONTINUOUS
 62
     3
 10
22082.180583999991
 20
7477.7285550000033
 30
0.0
 11
22907.677444000001
 21
7477.7285550000033
 31
0.0
  0
LINE
  5
41C4
  8
0-1
  6
CONTINUOUS
 62
     3
 10
22146.451593999991
 20
7542.7285220000031
 30
0.0
 11
22907.677444000001
 21
7542.7285220000031
 31
0.0
  0
LINE
  5
41C5
  8
0-1
  6
CONTINUOUS
 62
     3
 10
22068.882178999971
 20
7607.7284890000019
 30
0.0
 11
22907.677444000001
 21
7607.7284890000019
 31
0.0
  0
LINE
  5
41C6
  8
0-1
  6
CONTINUOUS
 62
     3
 10
21982.707795999992
 20
7672.7289510000028
 30
0.0
 11
22907.677444000001
 21
7672.7289510000028
 31
0.0
  0
LINE
  5
41C7
  8
0-1
  6
CONTINUOUS
 62
     3
 10
21904.28322899999
 20
7737.7289180000007
 30
0.0
 11
22907.677444000001
 21
7737.7289180000007
 31
0.0
  0
LINE
  5
41C8
  8
0-1
  6
CONTINUOUS
 62
     3
 10
21904.28322899999
 20
7802.7293799999989
 30
0.0
 11
22907.677444000001
 21
7802.7293799999989
 31
0.0
  0
LINE
  5
41C9
  8
0-1
  6
CONTINUOUS
 62
     3
 10
21904.28322899999
 20
7867.7283569999972
 30
0.0
 11
22907.677444000001
 21
7867.7283569999972
 31
0.0
  0
LINE
  5
41CA
  8
0-1
  6
CONTINUOUS
 62
     3
 10
21904.28322899999
 20
7932.7288190000027
 30
0.0
 11
22907.677444000001
 21
7932.7288190000027
 31
0.0
  0
LINE
  5
41CB
  8
0-1
  6
CONTINUOUS
 62
     3
 10
21904.28322899999
 20
7997.7287859999969
 30
0.0
 11
22907.677444000001
 21
7997.7287859999969
 31
0.0
  0
LINE
  5
41CC
  8
0-1
  6
CONTINUOUS
 62
     3
 10
21904.28322899999
 20
8052.1883109999999
 30
0.0
 11
22907.677444000001
 21
8052.1883109999999
 31
0.0
  0
LINE
  5
41CD
  8
0-1
  6
CONTINUOUS
 62
     3
 10
21904.28322899999
 20
8120.7286469999981
 30
0.0
 11
23710.67113599999
 21
8120.7286469999981
 31
0.0
  0
LINE
  5
41CE
  8
0-1
  6
CONTINUOUS
 62
     3
 10
21904.28322899999
 20
8297.2284620000028
 30
0.0
 11
22952.677839999971
 21
8297.2284620000028
 31
0.0
  0
LINE
  5
41CF
  8
0-1
  6
CONTINUOUS
 62
     3
 10
21904.28322899999
 20
8357.2286600000025
 30
0.0
 11
22952.677839999971
 21
8357.2286600000025
 31
0.0
  0
LINE
  5
41D0
  8
0-1
  6
CONTINUOUS
 62
     3
 10
21904.28322899999
 20
6662.0030939999988
 30
0.0
 11
21904.28322899999
 21
5695.3695289999996
 31
0.0
  0
LINE
  5
41D1
  8
0-1
  6
CONTINUOUS
 62
     3
 10
21604.283229000001
 20
6512.5172739999998
 30
0.0
 11
21604.283229000001
 21
5695.3695289999996
 31
0.0
  0
LINE
  5
41D2
  8
0-1
  6
CONTINUOUS
 62
     3
 10
21904.28322899999
 20
6177.7282249999998
 30
0.0
 11
22907.677444000001
 21
6177.7282249999998
 31
0.0
  0
LINE
  5
41D3
  8
0-1
  6
CONTINUOUS
 62
     3
 10
21904.28322899999
 20
6242.7291820000009
 30
0.0
 11
22907.677444000001
 21
6242.7291820000009
 31
0.0
  0
LINE
  5
41D4
  8
0-1
  6
CONTINUOUS
 62
     3
 10
21904.28322899999
 20
6307.7281590000002
 30
0.0
 11
22907.677444000001
 21
6307.7281590000002
 31
0.0
  0
LINE
  5
41D5
  8
0-1
  6
CONTINUOUS
 62
     3
 10
21904.28322899999
 20
6437.7285880000027
 30
0.0
 11
22907.677444000001
 21
6437.7285880000027
 31
0.0
  0
LINE
  5
41D6
  8
0-1
  6
CONTINUOUS
 62
     3
 10
21904.28322899999
 20
6372.7291160000023
 30
0.0
 11
22907.677444000001
 21
6372.7291160000023
 31
0.0
  0
LINE
  5
41D7
  8
0-1
  6
CONTINUOUS
 62
     3
 10
21904.28322899999
 20
6502.7285549999997
 30
0.0
 11
22907.677444000001
 21
6502.7285549999997
 31
0.0
  0
LINE
  5
41D8
  8
0-1
  6
CONTINUOUS
 62
     3
 10
21904.28322899999
 20
6567.7285220000022
 30
0.0
 11
22907.677444000001
 21
6567.7285220000022
 31
0.0
  0
LINE
  5
41D9
  8
0-1
  6
CONTINUOUS
 62
     3
 10
21904.28322899999
 20
6632.7279940000008
 30
0.0
 11
22907.677444000001
 21
6632.7279940000008
 31
0.0
  0
LINE
  5
41DA
  8
0-1
  6
CONTINUOUS
 62
     3
 10
21856.92126799998
 20
6697.7294460000012
 30
0.0
 11
22907.677444000001
 21
6697.7294460000012
 31
0.0
  0
LINE
  5
41DB
  8
0-1
  6
CONTINUOUS
 62
     3
 10
21770.746884999979
 20
6762.7284230000032
 30
0.0
 11
22907.677444000001
 21
6762.7284230000032
 31
0.0
  0
LINE
  5
41DC
  8
0-1
  6
CONTINUOUS
 62
     3
 10
21684.574481999982
 20
6827.7288849999986
 30
0.0
 11
22907.677444000001
 21
6827.7288849999986
 31
0.0
  0
LINE
  5
41DD
  8
0-1
  6
CONTINUOUS
 62
     3
 10
22952.677839999971
 20
8431.2280139999984
 30
0.0
 11
22952.677839999971
 21
6112.7287530000012
 31
0.0
  0
LINE
  5
41DE
  8
0-1
  6
CONTINUOUS
 62
     3
 10
23037.674407999992
 20
8431.2280139999984
 30
0.0
 11
23037.674407999992
 21
6112.7287530000012
 31
0.0
  0
LINE
  5
41DF
  8
0-1
  6
CONTINUOUS
 62
     3
 10
23082.674803999998
 20
8120.7286469999981
 30
0.0
 11
23082.674803999998
 21
6112.7287530000012
 31
0.0
  0
LINE
  5
41E0
  8
0-1
  6
CONTINUOUS
 62
     3
 10
22907.677444000001
 20
8120.7286469999981
 30
0.0
 11
22907.677444000001
 21
6112.7287530000012
 31
0.0
  0
LINE
  5
41E1
  8
0-1
  6
CONTINUOUS
 62
     3
 10
21904.28322899999
 20
6662.0030939999988
 30
0.0
 11
21544.177126999981
 21
6933.6326340000023
 31
0.0
  0
LINE
  5
41E2
  8
0-1
  6
CONTINUOUS
 62
     3
 10
25998.678498999961
 20
8431.2280139999984
 30
0.0
 11
21904.28322899999
 21
8431.2280139999984
 31
0.0
  0
LINE
  5
41E3
  8
0-1
  6
CONTINUOUS
 62
     3
 10
23037.674407999992
 20
8357.2286600000025
 30
0.0
 11
25870.67783899996
 21
8357.2286600000025
 31
0.0
  0
LINE
  5
41E4
  8
0-1
  6
CONTINUOUS
 62
     3
 10
23082.674803999998
 20
8052.1883109999999
 30
0.0
 11
25825.67744299995
 21
8052.1883109999999
 31
0.0
  0
LINE
  5
41E5
  8
0-1
  6
CONTINUOUS
 62
     3
 10
23082.674803999998
 20
6697.7294460000012
 30
0.0
 11
25825.67744299995
 21
6697.7294460000012
 31
0.0
  0
LINE
  5
41E6
  8
0-1
  6
CONTINUOUS
 62
     3
 10
23082.674803999998
 20
6762.7284230000032
 30
0.0
 11
25825.67744299995
 21
6762.7284230000032
 31
0.0
  0
LINE
  5
41E7
  8
0-1
  6
CONTINUOUS
 62
     3
 10
23082.674803999998
 20
6827.7288849999986
 30
0.0
 11
25825.67744299995
 21
6827.7288849999986
 31
0.0
  0
LINE
  5
41E8
  8
0-1
  6
CONTINUOUS
 62
     3
 10
23082.674803999998
 20
6892.728852000002
 30
0.0
 11
25825.67744299995
 21
6892.728852000002
 31
0.0
  0
LINE
  5
41E9
  8
0-1
  6
CONTINUOUS
 62
     3
 10
23082.674803999998
 20
6957.7288190000027
 30
0.0
 11
25825.67744299995
 21
6957.7288190000027
 31
0.0
  0
LINE
  5
41EA
  8
0-1
  6
CONTINUOUS
 62
     3
 10
23082.674803999998
 20
7022.7287859999997
 30
0.0
 11
25825.67744299995
 21
7022.7287859999997
 31
0.0
  0
LINE
  5
41EB
  8
0-1
  6
CONTINUOUS
 62
     3
 10
23082.674803999998
 20
7087.7292480000024
 30
0.0
 11
25825.67744299995
 21
7087.7292480000024
 31
0.0
  0
LINE
  5
41EC
  8
0-1
  6
CONTINUOUS
 62
     3
 10
23082.674803999998
 20
7152.7282250000007
 30
0.0
 11
25825.67744299995
 21
7152.7282250000007
 31
0.0
  0
LINE
  5
41ED
  8
0-1
  6
CONTINUOUS
 62
     3
 10
23082.674803999998
 20
7217.7286870000007
 30
0.0
 11
25825.67744299995
 21
7217.7286870000007
 31
0.0
  0
LINE
  5
41EE
  8
0-1
  6
CONTINUOUS
 62
     3
 10
23082.674803999998
 20
7282.7286539999968
 30
0.0
 11
25825.67744299995
 21
7282.7286539999968
 31
0.0
  0
LINE
  5
41EF
  8
0-1
  6
CONTINUOUS
 62
     3
 10
23082.674803999998
 20
7347.7291160000004
 30
0.0
 11
25825.67744299995
 21
7347.7291160000004
 31
0.0
  0
LINE
  5
41F0
  8
0-1
  6
CONTINUOUS
 62
     3
 10
23082.674803999998
 20
7412.7280929999979
 30
0.0
 11
25825.67744299995
 21
7412.7280929999979
 31
0.0
  0
LINE
  5
41F1
  8
0-1
  6
CONTINUOUS
 62
     3
 10
23082.674803999998
 20
7477.7285550000033
 30
0.0
 11
25825.67744299995
 21
7477.7285550000033
 31
0.0
  0
LINE
  5
41F2
  8
0-1
  6
CONTINUOUS
 62
     3
 10
23082.674803999998
 20
7542.7285220000031
 30
0.0
 11
25825.67744299995
 21
7542.7285220000031
 31
0.0
  0
LINE
  5
41F3
  8
0-1
  6
CONTINUOUS
 62
     3
 10
23082.674803999998
 20
7607.7284890000019
 30
0.0
 11
25825.67744299995
 21
7607.7284890000019
 31
0.0
  0
LINE
  5
41F4
  8
0-1
  6
CONTINUOUS
 62
     3
 10
23082.674803999998
 20
7672.7289510000028
 30
0.0
 11
25825.67744299995
 21
7672.7289510000028
 31
0.0
  0
LINE
  5
41F5
  8
0-1
  6
CONTINUOUS
 62
     3
 10
23082.674803999998
 20
7737.7289180000007
 30
0.0
 11
25825.67744299995
 21
7737.7289180000007
 31
0.0
  0
LINE
  5
41F6
  8
0-1
  6
CONTINUOUS
 62
     3
 10
23082.674803999998
 20
7802.7293799999989
 30
0.0
 11
25825.67744299995
 21
7802.7293799999989
 31
0.0
  0
LINE
  5
41F7
  8
0-1
  6
CONTINUOUS
 62
     3
 10
23082.674803999998
 20
7867.7283569999972
 30
0.0
 11
25825.67744299995
 21
7867.7283569999972
 31
0.0
  0
LINE
  5
41F8
  8
0-1
  6
CONTINUOUS
 62
     3
 10
23082.674803999998
 20
7932.7288190000027
 30
0.0
 11
25825.67744299995
 21
7932.7288190000027
 31
0.0
  0
LINE
  5
41F9
  8
0-1
  6
CONTINUOUS
 62
     3
 10
23082.674803999998
 20
7997.7287859999969
 30
0.0
 11
25825.67744299995
 21
7997.7287859999969
 31
0.0
  0
LINE
  5
41FA
  8
0-1
  6
CONTINUOUS
 62
     3
 10
23082.674803999998
 20
6177.7282249999998
 30
0.0
 11
25825.67744299995
 21
6177.7282249999998
 31
0.0
  0
LINE
  5
41FB
  8
0-1
  6
CONTINUOUS
 62
     3
 10
23082.674803999998
 20
6242.7291820000009
 30
0.0
 11
25825.67744299995
 21
6242.7291820000009
 31
0.0
  0
LINE
  5
41FC
  8
0-1
  6
CONTINUOUS
 62
     3
 10
23082.674803999998
 20
6307.7281590000002
 30
0.0
 11
25825.67744299995
 21
6307.7281590000002
 31
0.0
  0
LINE
  5
41FD
  8
0-1
  6
CONTINUOUS
 62
     3
 10
23082.674803999998
 20
6372.7291160000023
 30
0.0
 11
25825.67744299995
 21
6372.7291160000023
 31
0.0
  0
LINE
  5
41FE
  8
0-1
  6
CONTINUOUS
 62
     3
 10
23082.674803999998
 20
6437.7285880000027
 30
0.0
 11
25825.67744299995
 21
6437.7285880000027
 31
0.0
  0
LINE
  5
41FF
  8
0-1
  6
CONTINUOUS
 62
     3
 10
23082.674803999998
 20
6502.7285549999997
 30
0.0
 11
25825.67744299995
 21
6502.7285549999997
 31
0.0
  0
LINE
  5
4200
  8
0-1
  6
CONTINUOUS
 62
     3
 10
23082.674803999998
 20
6567.7285220000022
 30
0.0
 11
25825.67744299995
 21
6567.7285220000022
 31
0.0
  0
LINE
  5
4201
  8
0-1
  6
CONTINUOUS
 62
     3
 10
23082.674803999998
 20
6632.7279940000008
 30
0.0
 11
25825.67744299995
 21
6632.7279940000008
 31
0.0
  0
LINE
  5
4202
  8
0-1
  6
CONTINUOUS
 62
     3
 10
23037.674407999992
 20
8297.2284620000028
 30
0.0
 11
25870.67783899996
 21
8297.2284620000028
 31
0.0
  0
LINE
  5
4203
  8
0-1
  6
CONTINUOUS
 62
     3
 10
23037.674407999992
 20
8120.7286469999981
 30
0.0
 11
25870.67783899996
 21
8120.7286469999981
 31
0.0
  0
LINE
  5
4204
  8
0-1
  6
CONTINUOUS
 62
     3
 10
21904.28322899999
 20
6112.7287530000012
 30
0.0
 11
25963.17678399997
 21
6112.7287530000012
 31
0.0
  0
LINE
  5
4205
  8
0-1
  6
CONTINUOUS
 62
     3
 10
21904.28322899999
 20
8561.2289369999999
 30
0.0
 11
25998.678498999961
 21
8561.2289369999999
 31
0.0
  0
LINE
  5
4206
  8
0-1
  6
CONTINUOUS
 62
     3
 10
21904.28322899999
 20
7731.8858739999978
 30
0.0
 11
21904.28322899999
 21
8935.9082550000021
 31
0.0
  0
LINE
  5
4207
  8
0-1
  6
CONTINUOUS
 62
     3
 10
21604.283229000001
 20
7582.4020330000021
 30
0.0
 11
21604.283229000001
 21
8935.9082550000021
 31
0.0
  0
LINE
  5
4208
  8
0-1
  6
CONTINUOUS
 62
     3
 10
20558.671821999989
 20
8314.6284309999974
 30
0.0
 11
20851.573267999989
 21
8314.6284309999974
 31
0.0
  0
LINE
  5
4209
  8
0-1
  6
CONTINUOUS
 62
     3
 10
20558.671821999989
 20
8323.0285179999992
 30
0.0
 11
20859.97038599999
 21
8323.0285179999992
 31
0.0
  0
LINE
  5
420A
  8
0-1
  6
CONTINUOUS
 62
     3
 10
20563.67208599997
 20
8306.2283440000028
 30
0.0
 11
20841.101614999981
 21
8306.2283440000028
 31
0.0
  0
LINE
  5
420B
  8
0-1
  6
CONTINUOUS
 62
     3
 10
20558.671821999989
 20
8331.4295950000032
 30
0.0
 11
20868.373441999989
 21
8331.4295950000032
 31
0.0
  0
LINE
  5
420C
  8
0-1
  6
CONTINUOUS
 62
     3
 10
20563.67208599997
 20
8348.2287790000028
 30
0.0
 11
20873.100532999972
 21
8348.2287790000028
 31
0.0
  0
LINE
  5
420D
  8
0-1
  6
CONTINUOUS
 62
     3
 10
20558.671821999989
 20
8311.2286080000031
 30
0.0
 11
20558.671821999989
 21
8343.2285150000007
 31
0.0
  0
LINE
  5
420E
  8
0-1
  6
CONTINUOUS
 62
     3
 10
20431.66986899999
 20
8311.2286080000031
 30
0.0
 11
20431.66986899999
 21
8343.2285150000007
 31
0.0
  0
LINE
  5
420F
  8
0-1
  6
CONTINUOUS
 62
     3
 10
20558.671821999989
 20
8339.8296820000032
 30
0.0
 11
20876.766600999981
 21
8339.8296820000032
 31
0.0
  0
LINE
  5
4210
  8
0-1
  6
CONTINUOUS
 62
     3
 10
20844.637034999982
 20
8307.6931870000008
 30
0.0
 11
20876.633972999989
 21
8339.6930949999969
 31
0.0
  0
LINE
  5
4211
  8
0-1
  6
CONTINUOUS
 62
     3
 10
20582.669525999991
 20
6892.728852000002
 30
0.0
 11
21197.967244999982
 21
6892.728852000002
 31
0.0
  0
LINE
  5
4212
  8
0-1
  6
CONTINUOUS
 62
     3
 10
20582.669525999991
 20
6957.7288190000027
 30
0.0
 11
21262.238253999982
 21
6957.7288190000027
 31
0.0
  0
LINE
  5
4213
  8
0-1
  6
CONTINUOUS
 62
     3
 10
20582.669525999991
 20
7022.7287859999997
 30
0.0
 11
21326.51124299999
 21
7022.7287859999997
 31
0.0
  0
LINE
  5
4214
  8
0-1
  6
CONTINUOUS
 62
     3
 10
20582.669525999991
 20
7087.7292480000024
 30
0.0
 11
21390.782252999968
 21
7087.7292480000024
 31
0.0
  0
LINE
  5
4215
  8
0-1
  6
CONTINUOUS
 62
     3
 10
20582.669525999991
 20
7152.7282250000007
 30
0.0
 11
21455.055240999991
 21
7152.7282250000007
 31
0.0
  0
LINE
  5
4216
  8
0-1
  6
CONTINUOUS
 62
     3
 10
20582.669525999991
 20
7217.7286870000007
 30
0.0
 11
21519.326250999991
 21
7217.7286870000007
 31
0.0
  0
LINE
  5
4217
  8
0-1
  6
CONTINUOUS
 62
     3
 10
20145.708613999981
 20
8307.6931870000008
 30
0.0
 11
20113.70771699999
 21
8339.6930949999969
 31
0.0
  0
LINE
  5
4218
  8
0-1
  6
CONTINUOUS
 62
     3
 10
20431.66986899999
 20
8339.8296820000032
 30
0.0
 11
20113.577068999992
 21
8339.8296820000032
 31
0.0
  0
LINE
  5
4219
  8
0-1
  6
CONTINUOUS
 62
     3
 10
20431.66986899999
 20
8331.4295950000032
 30
0.0
 11
20121.972206999992
 21
8331.4295950000032
 31
0.0
  0
LINE
  5
421A
  8
0-1
  6
CONTINUOUS
 62
     3
 10
20431.66986899999
 20
8323.0285179999992
 30
0.0
 11
20130.371303999978
 21
8323.0285179999992
 31
0.0
  0
LINE
  5
421B
  8
0-1
  6
CONTINUOUS
 62
     3
 10
20431.66986899999
 20
8314.6284309999974
 30
0.0
 11
20138.770401999991
 21
8314.6284309999974
 31
0.0
  0
LINE
  5
421C
  8
0-1
  6
CONTINUOUS
 62
     3
 10
20426.671583999989
 20
8348.2287790000028
 30
0.0
 11
20117.241157999979
 21
8348.2287790000028
 31
0.0
  0
LINE
  5
421D
  8
0-1
  6
CONTINUOUS
 62
     3
 10
20426.671583999989
 20
8306.2283440000028
 30
0.0
 11
20149.244034999982
 21
8306.2283440000028
 31
0.0
  0
LINE
  5
421E
  8
0-1
  6
CONTINUOUS
 62
     3
 10
20582.669525999991
 20
6697.7294460000012
 30
0.0
 11
21358.745723999989
 21
6697.7294460000012
 31
0.0
  0
LINE
  5
421F
  8
0-1
  6
CONTINUOUS
 62
     3
 10
20582.669525999991
 20
6762.7284230000032
 30
0.0
 11
21272.573320999982
 21
6762.7284230000032
 31
0.0
  0
LINE
  5
4220
  8
0-1
  6
CONTINUOUS
 62
     3
 10
20582.669525999991
 20
6827.7288849999986
 30
0.0
 11
21186.398938999992
 21
6827.7288849999986
 31
0.0
  0
LINE
  5
4221
  8
0-1
  6
CONTINUOUS
 62
     3
 10
20582.669525999991
 20
6632.7279940000008
 30
0.0
 11
21444.914167999981
 21
6632.7279940000008
 31
0.0
  0
LINE
  5
4222
  8
0-1
  6
CONTINUOUS
 62
     3
 10
20452.670580999991
 20
8431.2280139999984
 30
0.0
 11
20452.670580999991
 21
6112.7287530000012
 31
0.0
  0
LINE
  5
4223
  8
0-1
  6
CONTINUOUS
 62
     3
 10
20407.672164999982
 20
8120.7286469999981
 30
0.0
 11
20407.672164999982
 21
6112.7287530000012
 31
0.0
  0
LINE
  5
4224
  8
0-1
  6
CONTINUOUS
 62
     3
 10
20537.673088999982
 20
8431.2280139999984
 30
0.0
 11
20537.673088999982
 21
6112.7287530000012
 31
0.0
  0
LINE
  5
4225
  8
0-1
  6
CONTINUOUS
 62
     3
 10
20582.669525999991
 20
8120.7286469999981
 30
0.0
 11
20582.669525999991
 21
6112.7287530000012
 31
0.0
  0
LINE
  5
4226
  8
0-1
  6
CONTINUOUS
 62
     3
 10
20582.669525999991
 20
8120.7286469999981
 30
0.0
 11
20582.669525999991
 21
6112.7287530000012
 31
0.0
  0
LINE
  5
4227
  8
0-1
  6
CONTINUOUS
 62
     3
 10
17645.67010599999
 20
8306.2283440000028
 30
0.0
 11
17923.099635999992
 21
8306.2283440000028
 31
0.0
  0
LINE
  5
4228
  8
0-1
  6
CONTINUOUS
 62
     3
 10
17640.671821999978
 20
8311.2286080000031
 30
0.0
 11
17640.671821999978
 21
8343.2285150000007
 31
0.0
  0
LINE
  5
4229
  8
0-1
  6
CONTINUOUS
 62
     3
 10
17491.67044999998
 20
8235.0418860000027
 30
0.0
 11
17534.668602000002
 21
8235.0418860000027
 31
0.0
  0
LINE
  5
422A
  8
0-1
  6
CONTINUOUS
 62
     3
 10
17491.67044999998
 20
8235.0418860000027
 30
0.0
 11
17491.67044999998
 21
8561.2289369999999
 31
0.0
  0
LINE
  5
422B
  8
0-1
  6
CONTINUOUS
 62
     3
 10
17645.67010599999
 20
8348.2287790000028
 30
0.0
 11
17955.10053299999
 21
8348.2287790000028
 31
0.0
  0
LINE
  5
422C
  8
0-1
  6
CONTINUOUS
 62
     3
 10
17926.633075999991
 20
8307.6931870000008
 30
0.0
 11
17958.633973999989
 21
8339.6930949999969
 31
0.0
  0
LINE
  5
422D
  8
0-1
  6
CONTINUOUS
 62
     3
 10
17640.671821999978
 20
8339.8296820000032
 30
0.0
 11
17958.766600999999
 21
8339.8296820000032
 31
0.0
  0
LINE
  5
422E
  8
0-1
  6
CONTINUOUS
 62
     3
 10
17640.671821999978
 20
8331.4295950000032
 30
0.0
 11
17950.369483999992
 21
8331.4295950000032
 31
0.0
  0
LINE
  5
422F
  8
0-1
  6
CONTINUOUS
 62
     3
 10
17640.671821999978
 20
8323.0285179999992
 30
0.0
 11
17941.970386000001
 21
8323.0285179999992
 31
0.0
  0
LINE
  5
4230
  8
0-1
  6
CONTINUOUS
 62
     3
 10
17640.671821999978
 20
8314.6284309999974
 30
0.0
 11
17933.571289
 21
8314.6284309999974
 31
0.0
  0
LINE
  5
4231
  8
0-1
  6
CONTINUOUS
 62
     3
 10
17627.171504999991
 20
6212.7285879999999
 30
0.0
 11
17627.171504999991
 21
6112.7287530000012
 31
0.0
  0
LINE
  5
4232
  8
0-1
  6
CONTINUOUS
 62
     3
 10
17527.170185999999
 20
6112.7287530000012
 30
0.0
 11
17527.170185999999
 21
6212.7285879999999
 31
0.0
  0
LINE
  5
4233
  8
0-1
  6
CONTINUOUS
 62
     3
 10
17527.170185999999
 20
6212.7285879999999
 30
0.0
 11
17627.171504999991
 21
6212.7285879999999
 31
0.0
  0
LINE
  5
4234
  8
0-1
  6
CONTINUOUS
 62
     3
 10
17664.671504999998
 20
8120.7286469999981
 30
0.0
 11
17664.671504999998
 21
6112.7287530000012
 31
0.0
  0
LINE
  5
4235
  8
0-1
  6
CONTINUOUS
 62
     3
 10
17619.669129999998
 20
8431.2280139999984
 30
0.0
 11
17619.669129999998
 21
6212.7285879999999
 31
0.0
  0
LINE
  5
4236
  8
0-1
  6
CONTINUOUS
 62
     3
 10
17554.671636999981
 20
8561.2289369999999
 30
0.0
 11
17554.671636999981
 21
6212.7285879999999
 31
0.0
  0
LINE
  5
4237
  8
0-1
  6
CONTINUOUS
 62
     3
 10
17534.668602000002
 20
8431.2280139999984
 30
0.0
 11
17534.668602000002
 21
6212.7285879999999
 31
0.0
  0
LINE
  5
4238
  8
0-1
  6
CONTINUOUS
 62
     3
 10
17619.669129999998
 20
8120.7286469999981
 30
0.0
 11
20452.670580999991
 21
8120.7286469999981
 31
0.0
  0
LINE
  5
4239
  8
0-1
  6
CONTINUOUS
 62
     3
 10
17619.669129999998
 20
8297.2284620000028
 30
0.0
 11
20452.670580999991
 21
8297.2284620000028
 31
0.0
  0
LINE
  5
423A
  8
0-1
  6
CONTINUOUS
 62
     3
 10
17664.671504999998
 20
6632.7279940000008
 30
0.0
 11
20407.672164999982
 21
6632.7279940000008
 31
0.0
  0
LINE
  5
423B
  8
0-1
  6
CONTINUOUS
 62
     3
 10
17664.671504999998
 20
6567.7285220000022
 30
0.0
 11
20407.672164999982
 21
6567.7285220000022
 31
0.0
  0
LINE
  5
423C
  8
0-1
  6
CONTINUOUS
 62
     3
 10
17664.671504999998
 20
6502.7285549999997
 30
0.0
 11
20407.672164999982
 21
6502.7285549999997
 31
0.0
  0
LINE
  5
423D
  8
0-1
  6
CONTINUOUS
 62
     3
 10
17664.671504999998
 20
6437.7285880000027
 30
0.0
 11
20407.672164999982
 21
6437.7285880000027
 31
0.0
  0
LINE
  5
423E
  8
0-1
  6
CONTINUOUS
 62
     3
 10
17664.671504999998
 20
6372.7291160000023
 30
0.0
 11
20407.672164999982
 21
6372.7291160000023
 31
0.0
  0
LINE
  5
423F
  8
0-1
  6
CONTINUOUS
 62
     3
 10
17664.671504999998
 20
6307.7281590000002
 30
0.0
 11
20407.672164999982
 21
6307.7281590000002
 31
0.0
  0
LINE
  5
4240
  8
0-1
  6
CONTINUOUS
 62
     3
 10
17664.671504999998
 20
6242.7291820000009
 30
0.0
 11
20407.672164999982
 21
6242.7291820000009
 31
0.0
  0
LINE
  5
4241
  8
0-1
  6
CONTINUOUS
 62
     3
 10
17664.671504999998
 20
6177.7282249999998
 30
0.0
 11
20407.672164999982
 21
6177.7282249999998
 31
0.0
  0
LINE
  5
4242
  8
0-1
  6
CONTINUOUS
 62
     3
 10
17664.671504999998
 20
7997.7287859999969
 30
0.0
 11
20407.672164999982
 21
7997.7287859999969
 31
0.0
  0
LINE
  5
4243
  8
0-1
  6
CONTINUOUS
 62
     3
 10
17664.671504999998
 20
7932.7288190000027
 30
0.0
 11
20407.672164999982
 21
7932.7288190000027
 31
0.0
  0
LINE
  5
4244
  8
0-1
  6
CONTINUOUS
 62
     3
 10
17664.671504999998
 20
7867.7283569999972
 30
0.0
 11
20407.672164999982
 21
7867.7283569999972
 31
0.0
  0
LINE
  5
4245
  8
0-1
  6
CONTINUOUS
 62
     3
 10
17664.671504999998
 20
7802.7293799999989
 30
0.0
 11
20407.672164999982
 21
7802.7293799999989
 31
0.0
  0
LINE
  5
4246
  8
0-1
  6
CONTINUOUS
 62
     3
 10
17664.671504999998
 20
7737.7289180000007
 30
0.0
 11
20407.672164999982
 21
7737.7289180000007
 31
0.0
  0
LINE
  5
4247
  8
0-1
  6
CONTINUOUS
 62
     3
 10
17664.671504999998
 20
7672.7289510000028
 30
0.0
 11
20407.672164999982
 21
7672.7289510000028
 31
0.0
  0
LINE
  5
4248
  8
0-1
  6
CONTINUOUS
 62
     3
 10
17664.671504999998
 20
7607.7284890000019
 30
0.0
 11
20407.672164999982
 21
7607.7284890000019
 31
0.0
  0
LINE
  5
4249
  8
0-1
  6
CONTINUOUS
 62
     3
 10
17664.671504999998
 20
7542.7285220000031
 30
0.0
 11
20407.672164999982
 21
7542.7285220000031
 31
0.0
  0
LINE
  5
424A
  8
0-1
  6
CONTINUOUS
 62
     3
 10
17664.671504999998
 20
7477.7285550000033
 30
0.0
 11
20407.672164999982
 21
7477.7285550000033
 31
0.0
  0
LINE
  5
424B
  8
0-1
  6
CONTINUOUS
 62
     3
 10
17664.671504999998
 20
7412.7280929999979
 30
0.0
 11
20407.672164999982
 21
7412.7280929999979
 31
0.0
  0
LINE
  5
424C
  8
0-1
  6
CONTINUOUS
 62
     3
 10
17664.671504999998
 20
7347.7291160000004
 30
0.0
 11
20407.672164999982
 21
7347.7291160000004
 31
0.0
  0
LINE
  5
424D
  8
0-1
  6
CONTINUOUS
 62
     3
 10
17664.671504999998
 20
7282.7286539999968
 30
0.0
 11
20407.672164999982
 21
7282.7286539999968
 31
0.0
  0
LINE
  5
424E
  8
0-1
  6
CONTINUOUS
 62
     3
 10
17664.671504999998
 20
7217.7286870000007
 30
0.0
 11
20407.672164999982
 21
7217.7286870000007
 31
0.0
  0
LINE
  5
424F
  8
0-1
  6
CONTINUOUS
 62
     3
 10
17664.671504999998
 20
7152.7282250000007
 30
0.0
 11
20407.672164999982
 21
7152.7282250000007
 31
0.0
  0
LINE
  5
4250
  8
0-1
  6
CONTINUOUS
 62
     3
 10
17664.671504999998
 20
7087.7292480000024
 30
0.0
 11
20407.672164999982
 21
7087.7292480000024
 31
0.0
  0
LINE
  5
4251
  8
0-1
  6
CONTINUOUS
 62
     3
 10
17664.671504999998
 20
7022.7287859999997
 30
0.0
 11
20407.672164999982
 21
7022.7287859999997
 31
0.0
  0
LINE
  5
4252
  8
0-1
  6
CONTINUOUS
 62
     3
 10
17664.671504999998
 20
6957.7288190000027
 30
0.0
 11
20407.672164999982
 21
6957.7288190000027
 31
0.0
  0
LINE
  5
4253
  8
0-1
  6
CONTINUOUS
 62
     3
 10
17664.671504999998
 20
6892.728852000002
 30
0.0
 11
20407.672164999982
 21
6892.728852000002
 31
0.0
  0
LINE
  5
4254
  8
0-1
  6
CONTINUOUS
 62
     3
 10
17664.671504999998
 20
6827.7288849999986
 30
0.0
 11
20407.672164999982
 21
6827.7288849999986
 31
0.0
  0
LINE
  5
4255
  8
0-1
  6
CONTINUOUS
 62
     3
 10
17664.671504999998
 20
6762.7284230000032
 30
0.0
 11
20407.672164999982
 21
6762.7284230000032
 31
0.0
  0
LINE
  5
4256
  8
0-1
  6
CONTINUOUS
 62
     3
 10
17664.671504999998
 20
6697.7294460000012
 30
0.0
 11
20407.672164999982
 21
6697.7294460000012
 31
0.0
  0
LINE
  5
4257
  8
0-1
  6
CONTINUOUS
 62
     3
 10
17664.671504999998
 20
8052.1883109999999
 30
0.0
 11
20407.672164999982
 21
8052.1883109999999
 31
0.0
  0
LINE
  5
4258
  8
0-1
  6
CONTINUOUS
 62
     3
 10
17619.669129999998
 20
8357.2286600000025
 30
0.0
 11
20452.670580999991
 21
8357.2286600000025
 31
0.0
  0
LINE
  5
4259
  8
0-1
  6
CONTINUOUS
 62
     3
 10
17491.67044999998
 20
8561.2289369999999
 30
0.0
 11
21604.283229000001
 21
8561.2289369999999
 31
0.0
  0
LINE
  5
425A
  8
0-1
  6
CONTINUOUS
 62
     3
 10
17527.170185999999
 20
6112.7287530000012
 30
0.0
 11
21604.283229000001
 21
6112.7287530000012
 31
0.0
  0
LINE
  5
425B
  8
0-1
  6
CONTINUOUS
 62
     3
 10
20537.673088999982
 20
8357.2286600000025
 30
0.0
 11
21604.283229000001
 21
8357.2286600000025
 31
0.0
  0
LINE
  5
425C
  8
0-1
  6
CONTINUOUS
 62
     3
 10
20537.673088999982
 20
8297.2284620000028
 30
0.0
 11
21604.283229000001
 21
8297.2284620000028
 31
0.0
  0
LINE
  5
425D
  8
0-1
  6
CONTINUOUS
 62
     3
 10
20582.669525999991
 20
8052.1883109999999
 30
0.0
 11
21604.283229000001
 21
8052.1883109999999
 31
0.0
  0
LINE
  5
425E
  8
0-1
  6
CONTINUOUS
 62
     3
 10
20582.669525999991
 20
7282.7286539999968
 30
0.0
 11
21583.599238999981
 21
7282.7286539999968
 31
0.0
  0
LINE
  5
425F
  8
0-1
  6
CONTINUOUS
 62
     3
 10
20582.669525999991
 20
7347.7291160000004
 30
0.0
 11
21647.870248999981
 21
7347.7291160000004
 31
0.0
  0
LINE
  5
4260
  8
0-1
  6
CONTINUOUS
 62
     3
 10
20582.669525999991
 20
7412.7280929999979
 30
0.0
 11
21712.14323799999
 21
7412.7280929999979
 31
0.0
  0
LINE
  5
4261
  8
0-1
  6
CONTINUOUS
 62
     3
 10
20582.669525999991
 20
7477.7285550000033
 30
0.0
 11
21743.047481999991
 21
7477.7285550000033
 31
0.0
  0
LINE
  5
4262
  8
0-1
  6
CONTINUOUS
 62
     3
 10
20582.669525999991
 20
7542.7285220000031
 30
0.0
 11
21656.879037999981
 21
7542.7285220000031
 31
0.0
  0
LINE
  5
4263
  8
0-1
  6
CONTINUOUS
 62
     3
 10
20582.669525999991
 20
7607.7284890000019
 30
0.0
 11
21604.283229000001
 21
7607.7284890000019
 31
0.0
  0
LINE
  5
4264
  8
0-1
  6
CONTINUOUS
 62
     3
 10
20582.669525999991
 20
7672.7289510000028
 30
0.0
 11
21604.283229000001
 21
7672.7289510000028
 31
0.0
  0
LINE
  5
4265
  8
0-1
  6
CONTINUOUS
 62
     3
 10
20582.669525999991
 20
7737.7289180000007
 30
0.0
 11
21604.283229000001
 21
7737.7289180000007
 31
0.0
  0
LINE
  5
4266
  8
0-1
  6
CONTINUOUS
 62
     3
 10
20582.669525999991
 20
7802.7293799999989
 30
0.0
 11
21604.283229000001
 21
7802.7293799999989
 31
0.0
  0
LINE
  5
4267
  8
0-1
  6
CONTINUOUS
 62
     3
 10
20582.669525999991
 20
7867.7283569999972
 30
0.0
 11
21604.283229000001
 21
7867.7283569999972
 31
0.0
  0
LINE
  5
4268
  8
0-1
  6
CONTINUOUS
 62
     3
 10
20582.669525999991
 20
7932.7288190000027
 30
0.0
 11
21604.283229000001
 21
7932.7288190000027
 31
0.0
  0
LINE
  5
4269
  8
0-1
  6
CONTINUOUS
 62
     3
 10
20582.669525999991
 20
7997.7287859999969
 30
0.0
 11
21604.283229000001
 21
7997.7287859999969
 31
0.0
  0
LINE
  5
426A
  8
0-1
  6
CONTINUOUS
 62
     3
 10
20582.669525999991
 20
6177.7282249999998
 30
0.0
 11
21604.283229000001
 21
6177.7282249999998
 31
0.0
  0
LINE
  5
426B
  8
0-1
  6
CONTINUOUS
 62
     3
 10
20582.669525999991
 20
6242.7291820000009
 30
0.0
 11
21604.283229000001
 21
6242.7291820000009
 31
0.0
  0
LINE
  5
426C
  8
0-1
  6
CONTINUOUS
 62
     3
 10
20582.669525999991
 20
6307.7281590000002
 30
0.0
 11
21604.283229000001
 21
6307.7281590000002
 31
0.0
  0
LINE
  5
426D
  8
0-1
  6
CONTINUOUS
 62
     3
 10
20582.669525999991
 20
6372.7291160000023
 30
0.0
 11
21604.283229000001
 21
6372.7291160000023
 31
0.0
  0
LINE
  5
426E
  8
0-1
  6
CONTINUOUS
 62
     3
 10
20582.669525999991
 20
6437.7285880000027
 30
0.0
 11
21604.283229000001
 21
6437.7285880000027
 31
0.0
  0
LINE
  5
426F
  8
0-1
  6
CONTINUOUS
 62
     3
 10
20582.669525999991
 20
6502.7285549999997
 30
0.0
 11
21604.283229000001
 21
6502.7285549999997
 31
0.0
  0
LINE
  5
4270
  8
0-1
  6
CONTINUOUS
 62
     3
 10
20582.669525999991
 20
6567.7285220000022
 30
0.0
 11
21531.086570999982
 21
6567.7285220000022
 31
0.0
  0
LINE
  5
4271
  8
0-1
  6
CONTINUOUS
 62
     3
 10
20537.673088999982
 20
8120.7286469999981
 30
0.0
 11
21604.283229000001
 21
8120.7286469999981
 31
0.0
  0
LINE
  5
4272
  8
0-1
  6
CONTINUOUS
 62
     3
 10
21604.283229000001
 20
6512.5172739999998
 30
0.0
 11
21156.211279999981
 21
6850.5002769999983
 31
0.0
  0
LINE
  5
4273
  8
0-1
  6
CONTINUOUS
 62
     3
 10
21762.15973399999
 20
7463.3127109999969
 30
0.0
 11
21156.211279999981
 21
6850.5002769999983
 31
0.0
  0
LINE
  5
4274
  8
0-1
  6
CONTINUOUS
 62
     3
 10
21604.283229000001
 20
8431.2280139999984
 30
0.0
 11
17491.67044999998
 21
8431.2280139999984
 31
0.0
  0
LINE
  5
4275
  8
0-1
  6
CONTINUOUS
 62
     3
 10
20495.17084499999
 20
8431.2280139999984
 30
0.0
 11
20495.17084499999
 21
8561.2289369999999
 31
0.0
  0
LINE
  5
4276
  8
0-1
  6
CONTINUOUS
 62
     3
 10
22995.176123999961
 20
8431.2280139999984
 30
0.0
 11
22995.176123999961
 21
8561.2289369999999
 31
0.0
  0
LINE
  5
4277
  8
0-2
  6
CONTINUOUS
 62
     4
 10
24817.868123999961
 20
6859.9544569999989
 30
0.0
 11
24717.86878399998
 21
6859.9544569999989
 31
0.0
  0
LINE
  5
4278
  8
0-2
  6
CONTINUOUS
 62
     4
 10
24090.48214399998
 20
6859.9544569999989
 30
0.0
 11
24190.48148499996
 21
6859.9544569999989
 31
0.0
  0
LINE
  5
4279
  8
0-2
  6
CONTINUOUS
 62
     4
 10
19399.861855499988
 20
6859.9544569999989
 30
0.0
 11
19299.862515500001
 21
6859.9544569999989
 31
0.0
  0
LINE
  5
427A
  8
0-2
  6
CONTINUOUS
 62
     4
 10
18672.477854500001
 20
6859.9544569999989
 30
0.0
 11
18772.475215499999
 21
6859.9544569999989
 31
0.0
  0
LINE
  5
427B
  8
0-5
  6
CONTINUOUS
 62
     4
 10
13159.38080600001
 20
6112.7287530000021
 30
0.0
 11
17447.169922000001
 21
6112.7287530000012
 31
0.0
  0
LINE
  5
427C
  8
0-5
  6
CONTINUOUS
 62
     4
 10
25913.176123999961
 20
4432.7286539999977
 30
0.0
 11
25913.176123999961
 21
4272.7286210000002
 31
0.0
  0
LINE
  5
427D
  8
0-5
  6
CONTINUOUS
 62
     4
 10
22995.176123999961
 20
4432.7286539999977
 30
0.0
 11
22995.176123999961
 21
4272.7286210000002
 31
0.0
  0
LINE
  5
427E
  8
0-5
  6
CONTINUOUS
 62
     4
 10
20495.17084499999
 20
4432.7286539999977
 30
0.0
 11
20495.17084499999
 21
4272.7286210000002
 31
0.0
  0
LINE
  5
427F
  8
0-5
  6
CONTINUOUS
 62
     4
 10
17577.170844999979
 20
4432.7286539999977
 30
0.0
 11
17577.170844999979
 21
4272.7286210000002
 31
0.0
  0
LINE
  5
4280
  8
0-5
  6
CONTINUOUS
 62
     4
 10
15695.29003899999
 20
6320.5742450000034
 30
0.0
 11
15815.287466
 21
6112.7287530000012
 31
0.0
  0
LINE
  5
4281
  8
0-5
  6
CONTINUOUS
 62
     4
 10
15815.287466
 20
6112.7287530000012
 30
0.0
 11
15935.286872000001
 21
6320.5742450000034
 31
0.0
  0
LINE
  5
4282
  8
0-5
  6
CONTINUOUS
 62
     4
 10
15935.286872000001
 20
6320.5742450000034
 30
0.0
 11
15695.29003899999
 21
6320.5742450000034
 31
0.0
  0
LINE
  5
4283
  8
0-5
  6
CONTINUOUS
 62
     4
 10
13159.38080600001
 20
6112.7287530000021
 30
0.0
 11
17447.169922000001
 21
6112.7287530000012
 31
0.0
  0
LINE
  5
4284
  8
2-0
  6
CENTER2
 62
     6
 10
25913.176123999961
 20
5850.0763299999999
 30
0.0
 11
25913.176123999961
 21
6887.2183670000013
 31
0.0
  0
LINE
  5
4285
  8
2-0
  6
CENTER2
 62
     6
 10
22995.176123999961
 20
5850.0763299999999
 30
0.0
 11
22995.176123999961
 21
6887.2183670000013
 31
0.0
  0
LINE
  5
4286
  8
2-0
  6
CENTER2
 62
     6
 10
20495.17084499999
 20
5850.0763299999999
 30
0.0
 11
20495.17084499999
 21
6887.2183670000013
 31
0.0
  0
LINE
  5
4287
  8
2-0
  6
CENTER2
 62
     6
 10
17577.170844999979
 20
5850.0763299999999
 30
0.0
 11
17577.170844999979
 21
6887.2183670000013
 31
0.0
  0
LINE
  5
4288
  8
2-0
  6
CONTINUOUS
 62
     6
 10
24230.017207999961
 20
13153.815322999981
 30
0.0
 11
25230.010609999928
 21
13153.815322999981
 31
0.0
  0
LINE
  5
4289
  8
2-0
  6
CONTINUOUS
 62
     6
 10
25697.95098699996
 20
13624.236036999981
 30
0.0
 11
25230.010609999928
 21
13153.815322999981
 31
0.0
  0
LINE
  5
428A
  8
2-0
  6
CONTINUOUS
 62
     6
 10
25659.310783999961
 20
17166.343683999981
 30
0.0
 11
25354.615365999962
 21
17269.997214999989
 31
0.0
  0
LINE
  5
428B
  8
2-0
  6
CONTINUOUS
 62
     6
 10
25814.332822999932
 20
16676.72164
 30
0.0
 11
25354.615365999962
 21
16432.808328999989
 31
0.0
  0
LINE
  5
428C
  8
2-0
  6
CONTINUOUS
 62
     6
 10
24434.61233099996
 20
16432.808328999989
 30
0.0
 11
25354.615365999962
 21
16432.808328999989
 31
0.0
  0
LINE
  5
428D
  8
2-0
  6
CONTINUOUS
 62
     6
 10
24154.62130399996
 20
17269.997214999989
 30
0.0
 11
25354.615365999962
 21
17269.997214999989
 31
0.0
  0
LINE
  5
428E
  8
2-0
  6
CONTINUOUS
 62
     6
 10
25730.510107999959
 20
13945.919682999949
 30
0.0
 11
25354.615365999962
 21
14126.86351799998
 31
0.0
  0
LINE
  5
428F
  8
2-0
  6
CONTINUOUS
 62
     6
 10
24834.61364999997
 20
14126.86351799998
 30
0.0
 11
25354.615365999962
 21
14126.86351799998
 31
0.0
  0
LINE
  5
4290
  8
2-0
  6
CONTINUOUS
 62
     4
 10
22995.176123999961
 20
20102.816973000001
 30
0.0
 11
22995.176123999961
 21
20832.813937999981
 31
0.0
  0
LINE
  5
4291
  8
2-0
  6
CONTINUOUS
 62
     3
 10
25925.676783999959
 20
19913.814518999981
 30
0.0
 11
25925.676783999959
 21
19907.818556999991
 31
0.0
  0
LINE
  5
4292
  8
2-0
  6
CONTINUOUS
 62
     3
 10
25925.676783999959
 20
19907.818556999991
 30
0.0
 11
25955.674407999959
 21
19907.818556999991
 31
0.0
  0
LINE
  5
4293
  8
2-0
  6
CONTINUOUS
 62
     3
 10
25955.674407999959
 20
19937.818160999981
 30
0.0
 11
25874.67250799996
 21
19937.818160999981
 31
0.0
  0
LINE
  5
4294
  8
2-0
  6
CONTINUOUS
 62
     3
 10
25925.676783999959
 20
19897.521100999991
 30
0.0
 11
25955.674407999959
 21
19897.521100999991
 31
0.0
  0
LINE
  5
4295
  8
2-0
  6
CONTINUOUS
 62
     3
 10
25925.676783999959
 20
19915.522842999992
 30
0.0
 11
25925.676783999959
 21
19897.521100999991
 31
0.0
  0
LINE
  5
4296
  8
2-0
  6
CONTINUOUS
 62
     3
 10
25950.674143999971
 20
19915.522842999992
 30
0.0
 11
25925.676783999959
 21
19915.522842999992
 31
0.0
  0
LINE
  5
4297
  8
2-0
  6
CONTINUOUS
 62
     3
 10
25950.674143999971
 20
19910.514661000001
 30
0.0
 11
25950.674143999971
 21
19915.522842999992
 31
0.0
  0
LINE
  5
4298
  8
2-0
  6
CONTINUOUS
 62
     3
 10
25943.672586999961
 20
19910.514661000001
 30
0.0
 11
25950.674143999971
 21
19910.514661000001
 31
0.0
  0
LINE
  5
4299
  8
2-0
  6
CONTINUOUS
 62
     3
 10
25843.37631899997
 20
20010.814888000001
 30
0.0
 11
25843.37631899997
 21
20017.820403999991
 31
0.0
  0
LINE
  5
429A
  8
2-0
  6
CONTINUOUS
 62
     3
 10
25843.37631899997
 20
20017.820403999991
 30
0.0
 11
25848.376582999961
 21
20017.820403999991
 31
0.0
  0
LINE
  5
429B
  8
2-0
  6
CONTINUOUS
 62
     3
 10
25848.376582999961
 20
20017.820403999991
 30
0.0
 11
25848.376582999961
 21
19992.811166999989
 31
0.0
  0
LINE
  5
429C
  8
2-0
  6
CONTINUOUS
 62
     3
 10
25848.376582999961
 20
19992.811166999989
 30
0.0
 11
25830.374840999961
 21
19992.811166999989
 31
0.0
  0
LINE
  5
429D
  8
2-0
  6
CONTINUOUS
 62
     3
 10
25830.374840999961
 20
19992.811166999989
 30
0.0
 11
25830.374840999961
 21
20022.814729999998
 31
0.0
  0
LINE
  5
429E
  8
2-0
  6
CONTINUOUS
 62
     3
 10
25840.672296999961
 20
20022.814729999998
 30
0.0
 11
25955.674407999959
 21
20022.814729999998
 31
0.0
  0
LINE
  5
429F
  8
2-0
  6
CONTINUOUS
 62
     3
 10
25840.672296999961
 20
19992.811166999989
 30
0.0
 11
25840.672296999961
 21
20022.814729999998
 31
0.0
  0
LINE
  5
42A0
  8
2-0
  6
CONTINUOUS
 62
     3
 10
25846.674196999971
 20
19992.811166999989
 30
0.0
 11
25840.672296999961
 21
19992.811166999989
 31
0.0
  0
LINE
  5
42A1
  8
2-0
  6
CONTINUOUS
 62
     3
 10
25943.672586999961
 20
19206.717838499961
 30
0.0
 11
25950.674143999971
 21
19206.717838499961
 31
0.0
  0
LINE
  5
42A2
  8
2-0
  6
CONTINUOUS
 62
     3
 10
25950.674143999971
 20
19206.717838499961
 30
0.0
 11
25950.674143999971
 21
19211.718102499981
 31
0.0
  0
LINE
  5
42A3
  8
2-0
  6
CONTINUOUS
 62
     3
 10
25950.674143999971
 20
19211.718102499981
 30
0.0
 11
25925.676783999959
 21
19211.718102499981
 31
0.0
  0
LINE
  5
42A4
  8
2-0
  6
CONTINUOUS
 62
     3
 10
25925.676783999959
 20
19211.718102499981
 30
0.0
 11
25925.676783999959
 21
19193.722298499961
 31
0.0
  0
LINE
  5
42A5
  8
2-0
  6
CONTINUOUS
 62
     3
 10
25925.676783999959
 20
19193.722298499961
 30
0.0
 11
25955.674407999959
 21
19193.722298499961
 31
0.0
  0
LINE
  5
42A6
  8
2-0
  6
CONTINUOUS
 62
     3
 10
25925.676783999959
 20
19209.813805499962
 30
0.0
 11
25925.676783999959
 21
19203.81586449996
 31
0.0
  0
LINE
  5
42A7
  8
2-0
  6
CONTINUOUS
 62
     3
 10
25925.676783999959
 20
19203.81586449996
 30
0.0
 11
25955.674407999959
 21
19203.81586449996
 31
0.0
  0
LINE
  5
42A8
  8
2-0
  6
CONTINUOUS
 62
     3
 10
25955.674407999959
 20
19203.81586449996
 30
0.0
 11
25955.674407999959
 21
19240.81702549995
 31
0.0
  0
LINE
  5
42A9
  8
2-0
  6
CONTINUOUS
 62
     3
 10
25925.676783999959
 20
19240.81702549995
 30
0.0
 11
25955.674407999959
 21
19240.81702549995
 31
0.0
  0
LINE
  5
42AA
  8
2-0
  6
CONTINUOUS
 62
     3
 10
25925.676783999959
 20
19234.813145499971
 30
0.0
 11
25925.676783999959
 21
19240.81702549995
 31
0.0
  0
LINE
  5
42AB
  8
2-0
  6
CONTINUOUS
 62
     3
 10
25925.676783999959
 20
19250.912570499971
 30
0.0
 11
25955.674407999959
 21
19250.912570499971
 31
0.0
  0
LINE
  5
42AC
  8
2-0
  6
CONTINUOUS
 62
     3
 10
25925.676783999959
 20
19232.91082849996
 30
0.0
 11
25925.676783999959
 21
19250.912570499971
 31
0.0
  0
LINE
  5
42AD
  8
2-0
  6
CONTINUOUS
 62
     3
 10
25950.674143999971
 20
19232.91082849996
 30
0.0
 11
25925.676783999959
 21
19232.91082849996
 31
0.0
  0
LINE
  5
42AE
  8
2-0
  6
CONTINUOUS
 62
     3
 10
25950.674143999971
 20
19237.91109249998
 30
0.0
 11
25950.674143999971
 21
19232.91082849996
 31
0.0
  0
LINE
  5
42AF
  8
2-0
  6
CONTINUOUS
 62
     3
 10
25943.672586999961
 20
19237.91109249998
 30
0.0
 11
25950.674143999971
 21
19237.91109249998
 31
0.0
  0
LINE
  5
42B0
  8
2-0
  6
CONTINUOUS
 62
     3
 10
25943.672586999961
 20
18505.716848999989
 30
0.0
 11
25950.674143999971
 21
18505.716848999989
 31
0.0
  0
LINE
  5
42B1
  8
2-0
  6
CONTINUOUS
 62
     3
 10
25950.674143999971
 20
18505.716848999989
 30
0.0
 11
25950.674143999971
 21
18510.723050999961
 31
0.0
  0
LINE
  5
42B2
  8
2-0
  6
CONTINUOUS
 62
     3
 10
25950.674143999971
 20
18510.723050999961
 30
0.0
 11
25925.676783999959
 21
18510.723050999961
 31
0.0
  0
LINE
  5
42B3
  8
2-0
  6
CONTINUOUS
 62
     3
 10
25925.676783999959
 20
18510.723050999961
 30
0.0
 11
25925.676783999959
 21
18492.72130899999
 31
0.0
  0
LINE
  5
42B4
  8
2-0
  6
CONTINUOUS
 62
     3
 10
25925.676783999959
 20
18492.72130899999
 30
0.0
 11
25955.674407999959
 21
18492.72130899999
 31
0.0
  0
LINE
  5
42B5
  8
2-0
  6
CONTINUOUS
 62
     3
 10
25925.676783999959
 20
18508.812815999951
 30
0.0
 11
25925.676783999959
 21
18502.81685399995
 31
0.0
  0
LINE
  5
42B6
  8
2-0
  6
CONTINUOUS
 62
     3
 10
25925.676783999959
 20
18502.81685399995
 30
0.0
 11
25955.674407999959
 21
18502.81685399995
 31
0.0
  0
LINE
  5
42B7
  8
2-0
  6
CONTINUOUS
 62
     3
 10
25955.674407999959
 20
18502.81685399995
 30
0.0
 11
25955.674407999959
 21
18539.816035999989
 31
0.0
  0
LINE
  5
42B8
  8
2-0
  6
CONTINUOUS
 62
     3
 10
25925.676783999959
 20
18539.816035999989
 30
0.0
 11
25955.674407999959
 21
18539.816035999989
 31
0.0
  0
LINE
  5
42B9
  8
2-0
  6
CONTINUOUS
 62
     3
 10
25925.676783999959
 20
18533.820073999981
 30
0.0
 11
25925.676783999959
 21
18539.816035999989
 31
0.0
  0
LINE
  5
42BA
  8
2-0
  6
CONTINUOUS
 62
     3
 10
25925.676783999959
 20
18549.911580999978
 30
0.0
 11
25955.674407999959
 21
18549.911580999978
 31
0.0
  0
LINE
  5
42BB
  8
2-0
  6
CONTINUOUS
 62
     3
 10
25925.676783999959
 20
18531.909838999989
 30
0.0
 11
25925.676783999959
 21
18549.911580999978
 31
0.0
  0
LINE
  5
42BC
  8
2-0
  6
CONTINUOUS
 62
     3
 10
25950.674143999971
 20
18531.909838999989
 30
0.0
 11
25925.676783999959
 21
18531.909838999989
 31
0.0
  0
LINE
  5
42BD
  8
2-0
  6
CONTINUOUS
 62
     3
 10
25950.674143999971
 20
18536.91604099996
 30
0.0
 11
25950.674143999971
 21
18531.909838999989
 31
0.0
  0
LINE
  5
42BE
  8
2-0
  6
CONTINUOUS
 62
     3
 10
25943.672586999961
 20
18536.91604099996
 30
0.0
 11
25950.674143999971
 21
18536.91604099996
 31
0.0
  0
LINE
  5
42BF
  8
2-0
  6
CONTINUOUS
 62
     3
 10
25943.672586999961
 20
17835.910102999991
 30
0.0
 11
25950.674143999971
 21
17835.910102999991
 31
0.0
  0
LINE
  5
42C0
  8
2-0
  6
CONTINUOUS
 62
     3
 10
25950.674143999971
 20
17835.910102999991
 30
0.0
 11
25950.674143999971
 21
17830.921715999972
 31
0.0
  0
LINE
  5
42C1
  8
2-0
  6
CONTINUOUS
 62
     3
 10
25950.674143999971
 20
17830.921715999972
 30
0.0
 11
25925.676783999959
 21
17830.921715999972
 31
0.0
  0
LINE
  5
42C2
  8
2-0
  6
CONTINUOUS
 62
     3
 10
25925.676783999959
 20
17830.921715999972
 30
0.0
 11
25925.676783999959
 21
17848.917518999991
 31
0.0
  0
LINE
  5
42C3
  8
2-0
  6
CONTINUOUS
 62
     3
 10
25925.676783999959
 20
17848.917518999991
 30
0.0
 11
25955.674407999959
 21
17848.917518999991
 31
0.0
  0
LINE
  5
42C4
  8
2-0
  6
CONTINUOUS
 62
     3
 10
25925.676783999959
 20
17832.820073999981
 30
0.0
 11
25925.676783999959
 21
17838.816035999971
 31
0.0
  0
LINE
  5
42C5
  8
2-0
  6
CONTINUOUS
 62
     3
 10
25925.676783999959
 20
17838.816035999971
 30
0.0
 11
25955.674407999959
 21
17838.816035999971
 31
0.0
  0
LINE
  5
42C6
  8
2-0
  6
CONTINUOUS
 62
     3
 10
25955.674407999959
 20
17838.816035999971
 30
0.0
 11
25955.674407999959
 21
17801.816853999961
 31
0.0
  0
LINE
  5
42C7
  8
2-0
  6
CONTINUOUS
 62
     3
 10
25925.676783999959
 20
17801.816853999961
 30
0.0
 11
25955.674407999959
 21
17801.816853999961
 31
0.0
  0
LINE
  5
42C8
  8
2-0
  6
CONTINUOUS
 62
     3
 10
25925.676783999959
 20
17807.818754999978
 30
0.0
 11
25925.676783999959
 21
17801.816853999961
 31
0.0
  0
LINE
  5
42C9
  8
2-0
  6
CONTINUOUS
 62
     3
 10
25925.676783999959
 20
17791.727247999981
 30
0.0
 11
25955.674407999959
 21
17791.727247999981
 31
0.0
  0
LINE
  5
42CA
  8
2-0
  6
CONTINUOUS
 62
     3
 10
25925.676783999959
 20
17809.723050999972
 30
0.0
 11
25925.676783999959
 21
17791.727247999981
 31
0.0
  0
LINE
  5
42CB
  8
2-0
  6
CONTINUOUS
 62
     3
 10
25950.674143999971
 20
17809.723050999972
 30
0.0
 11
25925.676783999959
 21
17809.723050999972
 31
0.0
  0
LINE
  5
42CC
  8
2-0
  6
CONTINUOUS
 62
     3
 10
25950.674143999971
 20
17804.722787999981
 30
0.0
 11
25950.674143999971
 21
17809.723050999972
 31
0.0
  0
LINE
  5
42CD
  8
2-0
  6
CONTINUOUS
 62
     3
 10
25943.672586999961
 20
17804.722787999981
 30
0.0
 11
25950.674143999971
 21
17804.722787999981
 31
0.0
  0
LINE
  5
42CE
  8
2-0
  6
CONTINUOUS
 62
     3
 10
25952.788269999961
 20
17084.813673999972
 30
0.0
 11
25952.788269999961
 21
17104.814728999969
 31
0.0
  0
LINE
  5
42CF
  8
2-0
  6
CONTINUOUS
 62
     3
 10
25952.788269999961
 20
17104.814728999969
 30
0.0
 11
25867.791700999958
 21
17104.814728999969
 31
0.0
  0
LINE
  5
42D0
  8
2-0
  6
CONTINUOUS
 62
     3
 10
25943.672586999961
 20
17131.421438999991
 30
0.0
 11
25950.674143999971
 21
17131.421438999991
 31
0.0
  0
LINE
  5
42D1
  8
2-0
  6
CONTINUOUS
 62
     3
 10
25950.674143999971
 20
17131.421438999991
 30
0.0
 11
25950.674143999971
 21
17126.427112999991
 31
0.0
  0
LINE
  5
42D2
  8
2-0
  6
CONTINUOUS
 62
     3
 10
25950.674143999971
 20
17126.427112999991
 30
0.0
 11
25925.676783999959
 21
17126.427112999991
 31
0.0
  0
LINE
  5
42D3
  8
2-0
  6
CONTINUOUS
 62
     3
 10
25925.676783999959
 20
17126.427112999991
 30
0.0
 11
25925.676783999959
 21
17144.422916999989
 31
0.0
  0
LINE
  5
42D4
  8
2-0
  6
CONTINUOUS
 62
     3
 10
25925.676783999959
 20
17144.422916999989
 30
0.0
 11
25955.674407999959
 21
17144.422916999989
 31
0.0
  0
LINE
  5
42D5
  8
2-0
  6
CONTINUOUS
 62
     3
 10
25925.676783999959
 20
17134.81433299998
 30
0.0
 11
25925.676783999959
 21
17128.812432999981
 31
0.0
  0
LINE
  5
42D6
  8
2-0
  6
CONTINUOUS
 62
     3
 10
25955.674407999959
 20
17134.81433299998
 30
0.0
 11
25925.676783999959
 21
17134.81433299998
 31
0.0
  0
LINE
  5
42D7
  8
2-0
  6
CONTINUOUS
 62
     3
 10
25955.674407999959
 20
17144.422916999989
 30
0.0
 11
25955.674407999959
 21
17791.727247999981
 31
0.0
  0
LINE
  5
42D8
  8
2-0
  6
CONTINUOUS
 62
     3
 10
25955.674407999959
 20
17848.917518999991
 30
0.0
 11
25955.674407999959
 21
18492.72130899999
 31
0.0
  0
LINE
  5
42D9
  8
2-0
  6
CONTINUOUS
 62
     3
 10
25955.674407999959
 20
16989.812617999989
 30
0.0
 11
25925.676783999959
 21
16989.812617999989
 31
0.0
  0
LINE
  5
42DA
  8
2-0
  6
CONTINUOUS
 62
     3
 10
25925.676783999959
 20
16989.812617999989
 30
0.0
 11
25925.676783999959
 21
16995.814517999981
 31
0.0
  0
LINE
  5
42DB
  8
2-0
  6
CONTINUOUS
 62
     3
 10
25867.791700999958
 20
17019.818160999981
 30
0.0
 11
25952.788269999961
 21
17019.818160999981
 31
0.0
  0
LINE
  5
42DC
  8
2-0
  6
CONTINUOUS
 62
     3
 10
25952.788269999961
 20
17019.818160999981
 30
0.0
 11
25952.788269999961
 21
17039.813277999991
 31
0.0
  0
LINE
  5
42DD
  8
2-0
  6
CONTINUOUS
 62
     3
 10
25925.676783999959
 20
16980.204034999992
 30
0.0
 11
25955.674407999959
 21
16980.204034999992
 31
0.0
  0
LINE
  5
42DE
  8
2-0
  6
CONTINUOUS
 62
     3
 10
25925.676783999959
 20
16998.199837999979
 30
0.0
 11
25925.676783999959
 21
16980.204034999992
 31
0.0
  0
LINE
  5
42DF
  8
2-0
  6
CONTINUOUS
 62
     3
 10
25950.674143999971
 20
16998.199837999979
 30
0.0
 11
25925.676783999959
 21
16998.199837999979
 31
0.0
  0
LINE
  5
42E0
  8
2-0
  6
CONTINUOUS
 62
     3
 10
25950.674143999971
 20
16993.199573999991
 30
0.0
 11
25950.674143999971
 21
16998.199837999979
 31
0.0
  0
LINE
  5
42E1
  8
2-0
  6
CONTINUOUS
 62
     3
 10
25943.672586999961
 20
16993.199573999991
 30
0.0
 11
25950.674143999971
 21
16993.199573999991
 31
0.0
  0
LINE
  5
42E2
  8
2-0
  6
CONTINUOUS
 62
     3
 10
25943.672586999961
 20
16288.717343499949
 30
0.0
 11
25950.674143999971
 21
16288.717343499949
 31
0.0
  0
LINE
  5
42E3
  8
2-0
  6
CONTINUOUS
 62
     3
 10
25950.674143999971
 20
16288.717343499949
 30
0.0
 11
25950.674143999971
 21
16293.717607499961
 31
0.0
  0
LINE
  5
42E4
  8
2-0
  6
CONTINUOUS
 62
     3
 10
25950.674143999971
 20
16293.717607499961
 30
0.0
 11
25925.676783999959
 21
16293.717607499961
 31
0.0
  0
LINE
  5
42E5
  8
2-0
  6
CONTINUOUS
 62
     3
 10
25925.676783999959
 20
16293.717607499961
 30
0.0
 11
25925.676783999959
 21
16275.71586549998
 31
0.0
  0
LINE
  5
42E6
  8
2-0
  6
CONTINUOUS
 62
     3
 10
25925.676783999959
 20
16275.71586549998
 30
0.0
 11
25955.674407999959
 21
16275.71586549998
 31
0.0
  0
LINE
  5
42E7
  8
2-0
  6
CONTINUOUS
 62
     3
 10
25925.676783999959
 20
16291.81331049998
 30
0.0
 11
25925.676783999959
 21
16285.816359499981
 31
0.0
  0
LINE
  5
42E8
  8
2-0
  6
CONTINUOUS
 62
     3
 10
25925.676783999959
 20
16285.816359499981
 30
0.0
 11
25955.674407999959
 21
16285.816359499981
 31
0.0
  0
LINE
  5
42E9
  8
2-0
  6
CONTINUOUS
 62
     3
 10
25955.674407999959
 20
16285.816359499981
 30
0.0
 11
25955.674407999959
 21
16322.81653049998
 31
0.0
  0
LINE
  5
42EA
  8
2-0
  6
CONTINUOUS
 62
     3
 10
25925.676783999959
 20
16322.81653049998
 30
0.0
 11
25955.674407999959
 21
16322.81653049998
 31
0.0
  0
LINE
  5
42EB
  8
2-0
  6
CONTINUOUS
 62
     3
 10
25925.676783999959
 20
16316.81364049998
 30
0.0
 11
25925.676783999959
 21
16322.81653049998
 31
0.0
  0
LINE
  5
42EC
  8
2-0
  6
CONTINUOUS
 62
     3
 10
25925.676783999959
 20
16332.91207549998
 30
0.0
 11
25955.674407999959
 21
16332.91207549998
 31
0.0
  0
LINE
  5
42ED
  8
2-0
  6
CONTINUOUS
 62
     3
 10
25925.676783999959
 20
16314.904394499979
 30
0.0
 11
25925.676783999959
 21
16332.91207549998
 31
0.0
  0
LINE
  5
42EE
  8
2-0
  6
CONTINUOUS
 62
     3
 10
25950.674143999971
 20
16314.904394499979
 30
0.0
 11
25925.676783999959
 21
16314.904394499979
 31
0.0
  0
LINE
  5
42EF
  8
2-0
  6
CONTINUOUS
 62
     3
 10
25950.674143999971
 20
16319.91059749998
 30
0.0
 11
25950.674143999971
 21
16314.904394499979
 31
0.0
  0
LINE
  5
42F0
  8
2-0
  6
CONTINUOUS
 62
     3
 10
25943.672586999961
 20
16319.91059749998
 30
0.0
 11
25950.674143999971
 21
16319.91059749998
 31
0.0
  0
LINE
  5
42F1
  8
2-0
  6
CONTINUOUS
 62
     3
 10
25943.672586999961
 20
15619.15061399998
 30
0.0
 11
25950.674143999971
 21
15619.15061399998
 31
0.0
  0
LINE
  5
42F2
  8
2-0
  6
CONTINUOUS
 62
     3
 10
25950.674143999971
 20
15619.15061399998
 30
0.0
 11
25950.674143999971
 21
15614.15628899998
 31
0.0
  0
LINE
  5
42F3
  8
2-0
  6
CONTINUOUS
 62
     3
 10
25950.674143999971
 20
15614.15628899998
 30
0.0
 11
25925.676783999959
 21
15614.15628899998
 31
0.0
  0
LINE
  5
42F4
  8
2-0
  6
CONTINUOUS
 62
     3
 10
25925.676783999959
 20
15614.15628899998
 30
0.0
 11
25925.676783999959
 21
15632.152092
 31
0.0
  0
LINE
  5
42F5
  8
2-0
  6
CONTINUOUS
 62
     3
 10
25925.676783999959
 20
15632.152092
 30
0.0
 11
25955.674407999959
 21
15632.152092
 31
0.0
  0
LINE
  5
42F6
  8
2-0
  6
CONTINUOUS
 62
     3
 10
25925.676783999959
 20
15616.05464699999
 30
0.0
 11
25925.676783999959
 21
15622.056547
 31
0.0
  0
LINE
  5
42F7
  8
2-0
  6
CONTINUOUS
 62
     3
 10
25925.676783999959
 20
15622.056547
 30
0.0
 11
25955.674407999959
 21
15622.056547
 31
0.0
  0
LINE
  5
42F8
  8
2-0
  6
CONTINUOUS
 62
     3
 10
25955.674407999959
 20
15585.05736599999
 30
0.0
 11
25955.674407999959
 21
15622.056547
 31
0.0
  0
LINE
  5
42F9
  8
2-0
  6
CONTINUOUS
 62
     3
 10
25925.676783999959
 20
15585.05736599999
 30
0.0
 11
25955.674407999959
 21
15585.05736599999
 31
0.0
  0
LINE
  5
42FA
  8
2-0
  6
CONTINUOUS
 62
     3
 10
25925.676783999959
 20
15591.05431699998
 30
0.0
 11
25925.676783999959
 21
15585.05736599999
 31
0.0
  0
LINE
  5
42FB
  8
2-0
  6
CONTINUOUS
 62
     3
 10
25925.676783999959
 20
15574.95588199998
 30
0.0
 11
25955.674407999959
 21
15574.95588199998
 31
0.0
  0
LINE
  5
42FC
  8
2-0
  6
CONTINUOUS
 62
     3
 10
25925.676783999959
 20
15592.963562999979
 30
0.0
 11
25925.676783999959
 21
15574.95588199998
 31
0.0
  0
LINE
  5
42FD
  8
2-0
  6
CONTINUOUS
 62
     3
 10
25950.674143999971
 20
15592.963562999979
 30
0.0
 11
25925.676783999959
 21
15592.963562999979
 31
0.0
  0
LINE
  5
42FE
  8
2-0
  6
CONTINUOUS
 62
     3
 10
25950.674143999971
 20
15587.963298999999
 30
0.0
 11
25950.674143999971
 21
15592.963562999979
 31
0.0
  0
LINE
  5
42FF
  8
2-0
  6
CONTINUOUS
 62
     3
 10
25943.672586999961
 20
15587.963298999999
 30
0.0
 11
25950.674143999971
 21
15587.963298999999
 31
0.0
  0
LINE
  5
4300
  8
2-0
  6
CONTINUOUS
 62
     3
 10
25955.674407999959
 20
16980.204034999992
 30
0.0
 11
25955.674407999959
 21
16332.91207549998
 31
0.0
  0
LINE
  5
4301
  8
2-0
  6
CONTINUOUS
 62
     3
 10
25955.674407999959
 20
17134.81433299998
 30
0.0
 11
25955.674407999959
 21
16989.812617999989
 31
0.0
  0
LINE
  5
4302
  8
2-0
  6
CONTINUOUS
 62
     3
 10
25867.791700999958
 20
17104.814728999969
 30
0.0
 11
25867.791700999958
 21
17019.818160999981
 31
0.0
  0
LINE
  5
4303
  8
2-0
  6
CONTINUOUS
 62
     6
 10
24329.583033999948
 20
18873.26199449995
 30
0.0
 11
25354.615365999962
 21
18873.26199449995
 31
0.0
  0
LINE
  5
4304
  8
2-0
  6
CONTINUOUS
 62
     3
 10
25943.672586999961
 20
14886.72229199998
 30
0.0
 11
25950.674143999971
 21
14886.72229199998
 31
0.0
  0
LINE
  5
4305
  8
2-0
  6
CONTINUOUS
 62
     3
 10
25950.674143999971
 20
14886.72229199998
 30
0.0
 11
25950.674143999971
 21
14891.71661799998
 31
0.0
  0
LINE
  5
4306
  8
2-0
  6
CONTINUOUS
 62
     3
 10
25950.674143999971
 20
14891.71661799998
 30
0.0
 11
25925.676783999959
 21
14891.71661799998
 31
0.0
  0
LINE
  5
4307
  8
2-0
  6
CONTINUOUS
 62
     3
 10
25925.676783999959
 20
14891.71661799998
 30
0.0
 11
25925.676783999959
 21
14873.720813999969
 31
0.0
  0
LINE
  5
4308
  8
2-0
  6
CONTINUOUS
 62
     3
 10
25925.676783999959
 20
14873.720813999969
 30
0.0
 11
25955.674407999959
 21
14873.720813999969
 31
0.0
  0
LINE
  5
4309
  8
2-0
  6
CONTINUOUS
 62
     3
 10
25925.676783999959
 20
14889.81924899998
 30
0.0
 11
25925.676783999959
 21
14883.81635899998
 31
0.0
  0
LINE
  5
430A
  8
2-0
  6
CONTINUOUS
 62
     3
 10
25925.676783999959
 20
14883.81635899998
 30
0.0
 11
25955.674407999959
 21
14883.81635899998
 31
0.0
  0
LINE
  5
430B
  8
2-0
  6
CONTINUOUS
 62
     3
 10
25955.674407999959
 20
14883.81635899998
 30
0.0
 11
25955.674407999959
 21
14920.816530999949
 31
0.0
  0
LINE
  5
430C
  8
2-0
  6
CONTINUOUS
 62
     3
 10
25925.676783999959
 20
14920.816530999949
 30
0.0
 11
25955.674407999959
 21
14920.816530999949
 31
0.0
  0
LINE
  5
430D
  8
2-0
  6
CONTINUOUS
 62
     3
 10
25925.676783999959
 20
14914.819578999981
 30
0.0
 11
25925.676783999959
 21
14920.816530999949
 31
0.0
  0
LINE
  5
430E
  8
2-0
  6
CONTINUOUS
 62
     3
 10
25925.676783999959
 20
14930.91702399998
 30
0.0
 11
25955.674407999959
 21
14930.91702399998
 31
0.0
  0
LINE
  5
430F
  8
2-0
  6
CONTINUOUS
 62
     3
 10
25925.676783999959
 20
14912.910332999991
 30
0.0
 11
25925.676783999959
 21
14930.91702399998
 31
0.0
  0
LINE
  5
4310
  8
2-0
  6
CONTINUOUS
 62
     3
 10
25950.674143999971
 20
14912.910332999991
 30
0.0
 11
25925.676783999959
 21
14912.910332999991
 31
0.0
  0
LINE
  5
4311
  8
2-0
  6
CONTINUOUS
 62
     3
 10
25950.674143999971
 20
14917.91554599998
 30
0.0
 11
25950.674143999971
 21
14912.910332999991
 31
0.0
  0
LINE
  5
4312
  8
2-0
  6
CONTINUOUS
 62
     3
 10
25943.672586999961
 20
14917.91554599998
 30
0.0
 11
25950.674143999971
 21
14917.91554599998
 31
0.0
  0
LINE
  5
4313
  8
2-0
  6
CONTINUOUS
 62
     3
 10
25925.676783999959
 20
13860.31837199998
 30
0.0
 11
25925.676783999959
 21
13866.32324099998
 31
0.0
  0
LINE
  5
4314
  8
2-0
  6
CONTINUOUS
 62
     3
 10
25925.676783999959
 20
13866.32324099998
 30
0.0
 11
25955.674407999959
 21
13866.32324099998
 31
0.0
  0
LINE
  5
4315
  8
2-0
  6
CONTINUOUS
 62
     3
 10
25955.674407999959
 20
13866.32324099998
 30
0.0
 11
25955.674407999959
 21
13751.319149999979
 31
0.0
  0
LINE
  5
4316
  8
2-0
  6
CONTINUOUS
 62
     3
 10
25955.674407999959
 20
13751.319149999979
 30
0.0
 11
25870.67585999997
 21
13751.319149999979
 31
0.0
  0
LINE
  5
4317
  8
2-0
  6
CONTINUOUS
 62
     3
 10
25870.67585999997
 20
13751.319149999979
 30
0.0
 11
25870.67585999997
 21
13836.31472899998
 31
0.0
  0
LINE
  5
4318
  8
2-0
  6
CONTINUOUS
 62
     3
 10
25870.67585999997
 20
13836.31472899998
 30
0.0
 11
25902.67477799996
 21
13836.31472899998
 31
0.0
  0
LINE
  5
4319
  8
2-0
  6
CONTINUOUS
 62
     3
 10
25943.672586999961
 20
13863.352973999979
 30
0.0
 11
25950.674143999971
 21
13863.352973999979
 31
0.0
  0
LINE
  5
431A
  8
2-0
  6
CONTINUOUS
 62
     3
 10
25950.674143999971
 20
13863.352973999979
 30
0.0
 11
25950.674143999971
 21
13858.355678999949
 31
0.0
  0
LINE
  5
431B
  8
2-0
  6
CONTINUOUS
 62
     3
 10
25950.674143999971
 20
13858.355678999949
 30
0.0
 11
25925.676783999959
 21
13858.355678999949
 31
0.0
  0
LINE
  5
431C
  8
2-0
  6
CONTINUOUS
 62
     3
 10
25925.676783999959
 20
13858.355678999949
 30
0.0
 11
25925.676783999959
 21
13876.35445199997
 31
0.0
  0
LINE
  5
431D
  8
2-0
  6
CONTINUOUS
 62
     3
 10
25925.676783999959
 20
13876.35445199997
 30
0.0
 11
25955.674407999959
 21
13876.35445199997
 31
0.0
  0
LINE
  5
431E
  8
2-0
  6
CENTER2
 62
     6
 10
25913.176123999961
 20
13553.82159199996
 30
0.0
 11
25913.176123999961
 21
15060.190350000001
 31
0.0
  0
LINE
  5
431F
  8
2-0
  6
CONTINUOUS
 62
     3
 10
25955.674407999959
 20
18549.911580999978
 30
0.0
 11
25955.674407999959
 21
19193.722298499961
 31
0.0
  0
LINE
  5
4320
  8
2-0
  6
CONTINUOUS
 62
     6
 10
26648.17929099996
 20
20752.817632999999
 30
0.0
 11
27848.173352999951
 21
20752.817632999999
 31
0.0
  0
LINE
  5
4321
  8
2-0
  6
CONTINUOUS
 62
     3
 10
23067.677971999969
 20
20022.814729999998
 30
0.0
 11
23067.677971999969
 21
19992.811166999989
 31
0.0
  0
LINE
  5
4322
  8
2-0
  6
CONTINUOUS
 62
     3
 10
23067.677971999969
 20
19992.811166999989
 30
0.0
 11
23061.68002999996
 21
19992.811166999989
 31
0.0
  0
LINE
  5
4323
  8
2-0
  6
CONTINUOUS
 62
     3
 10
23077.29447299998
 20
19992.811166999989
 30
0.0
 11
23077.29447299998
 21
20022.814729999998
 31
0.0
  0
LINE
  5
4324
  8
2-0
  6
CONTINUOUS
 62
     3
 10
23059.292730999961
 20
19992.811166999989
 30
0.0
 11
23077.29447299998
 21
19992.811166999989
 31
0.0
  0
LINE
  5
4325
  8
2-0
  6
CONTINUOUS
 62
     3
 10
23059.292730999961
 20
20017.820403999991
 30
0.0
 11
23059.292730999961
 21
19992.811166999989
 31
0.0
  0
LINE
  5
4326
  8
2-0
  6
CONTINUOUS
 62
     3
 10
23064.292994999989
 20
20017.820403999991
 30
0.0
 11
23059.292730999961
 21
20017.820403999991
 31
0.0
  0
LINE
  5
4327
  8
2-0
  6
CONTINUOUS
 62
     3
 10
23064.292994999989
 20
20010.814888000001
 30
0.0
 11
23064.292994999989
 21
20017.820403999991
 31
0.0
  0
LINE
  5
4328
  8
2-0
  6
CONTINUOUS
 62
     3
 10
23037.676387999982
 20
20019.922653000001
 30
0.0
 11
23037.676387999982
 21
19934.924104999991
 31
0.0
  0
LINE
  5
4329
  8
2-0
  6
CONTINUOUS
 62
     3
 10
23017.679290999971
 20
20019.922653000001
 30
0.0
 11
23037.676387999982
 21
20019.922653000001
 31
0.0
  0
LINE
  5
432A
  8
2-0
  6
CONTINUOUS
 62
     3
 10
22926.06519199998
 20
20010.814888000001
 30
0.0
 11
22926.06519199998
 21
20017.820403999991
 31
0.0
  0
LINE
  5
432B
  8
2-0
  6
CONTINUOUS
 62
     3
 10
22926.06519199998
 20
20017.820403999991
 30
0.0
 11
22931.065455999971
 21
20017.820403999991
 31
0.0
  0
LINE
  5
432C
  8
2-0
  6
CONTINUOUS
 62
     3
 10
22931.065455999971
 20
20017.820403999991
 30
0.0
 11
22931.065455999971
 21
19992.811166999989
 31
0.0
  0
LINE
  5
432D
  8
2-0
  6
CONTINUOUS
 62
     3
 10
22931.065455999971
 20
19992.811166999989
 30
0.0
 11
22913.063713999971
 21
19992.811166999989
 31
0.0
  0
LINE
  5
432E
  8
2-0
  6
CONTINUOUS
 62
     3
 10
22913.063713999971
 20
19992.811166999989
 30
0.0
 11
22913.063713999971
 21
20022.814729999998
 31
0.0
  0
LINE
  5
432F
  8
2-0
  6
CONTINUOUS
 62
     3
 10
22952.68377799997
 20
20019.922653000001
 30
0.0
 11
22972.678894999972
 21
20019.922653000001
 31
0.0
  0
LINE
  5
4330
  8
2-0
  6
CONTINUOUS
 62
     3
 10
22952.68377799997
 20
19934.924104999991
 30
0.0
 11
22952.68377799997
 21
20019.922653000001
 31
0.0
  0
LINE
  5
4331
  8
2-0
  6
CONTINUOUS
 62
     3
 10
22922.686153999981
 20
19992.811166999989
 30
0.0
 11
22928.68211499996
 21
19992.811166999989
 31
0.0
  0
LINE
  5
4332
  8
2-0
  6
CONTINUOUS
 62
     3
 10
22922.686153999981
 20
20022.814729999998
 30
0.0
 11
22922.686153999981
 21
19992.811166999989
 31
0.0
  0
LINE
  5
4333
  8
2-0
  6
CONTINUOUS
 62
     3
 10
23037.676387999982
 20
19934.924104999991
 30
0.0
 11
22952.68377799997
 21
19934.924104999991
 31
0.0
  0
LINE
  5
4334
  8
2-0
  6
CONTINUOUS
 62
     3
 10
23067.677971999969
 20
20022.814729999998
 30
0.0
 11
22922.686153999981
 21
20022.814729999998
 31
0.0
  0
LINE
  5
4335
  8
2-0
  6
CONTINUOUS
 62
     6
 10
25786.146457999959
 20
19115.41650249996
 30
0.0
 11
25354.615365999962
 21
18873.26199449995
 31
0.0
  0
LINE
  5
4336
  8
2-0
  6
CONTINUOUS
 62
     6
 10
26107.715291999932
 20
20165.494470000001
 30
0.0
 11
26648.17929099996
 21
20752.817632999999
 31
0.0
  0
LINE
  5
4337
  8
2-0
  6
CONTINUOUS
 62
     6
 10
23037.676387999982
 20
13836.31472899998
 30
0.0
 11
23314.266600999981
 21
14291.659428999979
 31
0.0
  0
LINE
  5
4338
  8
2-0
  6
CONTINUOUS
 62
     6
 10
23314.266600999981
 20
14291.659428999979
 30
0.0
 11
24344.61591999996
 21
14291.659428999979
 31
0.0
  0
LINE
  5
4339
  8
2-0
  6
CONTINUOUS
 62
     3
 10
25955.674407999959
 20
16275.71586549998
 30
0.0
 11
25955.674407999959
 21
15632.152092
 31
0.0
  0
LINE
  5
433A
  8
2-0
  6
CONTINUOUS
 62
     6
 10
23097.954707999961
 20
13986.910563999971
 30
0.0
 11
23037.676387999982
 21
13836.31472899998
 31
0.0
  0
LINE
  5
433B
  8
2-0
  6
CONTINUOUS
 62
     6
 10
23037.676387999982
 20
13836.31472899998
 30
0.0
 11
23143.535102999929
 21
13959.22303799998
 31
0.0
  0
LINE
  5
433C
  8
2-0
  6
CONTINUOUS
 62
     6
 10
23097.954707999961
 20
13986.910563999971
 30
0.0
 11
23143.535102999929
 21
13959.22303799998
 31
0.0
  0
LINE
  5
433D
  8
2-0
  6
CONTINUOUS
 62
     6
 10
23143.535102999929
 20
13959.22303799998
 30
0.0
 11
23037.676387999982
 21
13836.31472899998
 31
0.0
  0
LINE
  5
433E
  8
2-0
  6
CONTINUOUS
 62
     6
 10
23037.676387999982
 20
13836.31472899998
 30
0.0
 11
23097.954707999961
 21
13986.910563999971
 31
0.0
  0
LINE
  5
433F
  8
2-0
  6
CONTINUOUS
 62
     6
 10
23097.954707999961
 20
13986.910563999971
 30
0.0
 11
23037.676387999982
 21
13836.31472899998
 31
0.0
  0
LINE
  5
4340
  8
2-0
  6
CONTINUOUS
 62
     6
 10
23143.535102999929
 20
13959.22303799998
 30
0.0
 11
23037.676387999982
 21
13836.31472899998
 31
0.0
  0
LINE
  5
4341
  8
2-0
  6
CONTINUOUS
 62
     6
 10
23143.535102999929
 20
13959.22303799998
 30
0.0
 11
23097.954707999961
 21
13986.910563999971
 31
0.0
  0
LINE
  5
4342
  8
2-0
  6
CONTINUOUS
 62
     6
 10
25773.089552999962
 20
19138.67584649998
 30
0.0
 11
25925.676783999959
 21
19193.722298499961
 31
0.0
  0
LINE
  5
4343
  8
2-0
  6
CONTINUOUS
 62
     6
 10
25925.676783999959
 20
19193.722298499961
 30
0.0
 11
25799.195443999961
 21
19092.163098499968
 31
0.0
  0
LINE
  5
4344
  8
2-0
  6
CONTINUOUS
 62
     6
 10
25773.089552999962
 20
19138.67584649998
 30
0.0
 11
25799.195443999961
 21
19092.163098499968
 31
0.0
  0
LINE
  5
4345
  8
2-0
  6
CONTINUOUS
 62
     6
 10
25799.195443999961
 20
19092.163098499968
 30
0.0
 11
25925.676783999959
 21
19193.722298499961
 31
0.0
  0
LINE
  5
4346
  8
2-0
  6
CONTINUOUS
 62
     6
 10
25925.676783999959
 20
19193.722298499961
 30
0.0
 11
25773.089552999962
 21
19138.67584649998
 31
0.0
  0
LINE
  5
4347
  8
2-0
  6
CONTINUOUS
 62
     6
 10
25773.089552999962
 20
19138.67584649998
 30
0.0
 11
25925.676783999959
 21
19193.722298499961
 31
0.0
  0
LINE
  5
4348
  8
2-0
  6
CONTINUOUS
 62
     6
 10
25799.195443999961
 20
19092.163098499968
 30
0.0
 11
25925.676783999959
 21
19193.722298499961
 31
0.0
  0
LINE
  5
4349
  8
2-0
  6
CONTINUOUS
 62
     6
 10
25799.195443999961
 20
19092.163098499968
 30
0.0
 11
25773.089552999962
 21
19138.67584649998
 31
0.0
  0
LINE
  5
434A
  8
2-0
  6
CONTINUOUS
 62
     6
 10
26127.332320999962
 20
20147.433343000001
 30
0.0
 11
25999.37030099997
 21
20047.750725000002
 31
0.0
  0
LINE
  5
434B
  8
2-0
  6
CONTINUOUS
 62
     6
 10
25999.37030099997
 20
20047.750725000002
 30
0.0
 11
26088.084405999962
 21
20183.54768
 31
0.0
  0
LINE
  5
434C
  8
2-0
  6
CONTINUOUS
 62
     6
 10
26127.332320999962
 20
20147.433343000001
 30
0.0
 11
26088.084405999962
 21
20183.54768
 31
0.0
  0
LINE
  5
434D
  8
2-0
  6
CONTINUOUS
 62
     6
 10
26088.084405999962
 20
20183.54768
 30
0.0
 11
25999.37030099997
 21
20047.750725000002
 31
0.0
  0
LINE
  5
434E
  8
2-0
  6
CONTINUOUS
 62
     6
 10
25999.37030099997
 20
20047.750725000002
 30
0.0
 11
26127.332320999962
 21
20147.433343000001
 31
0.0
  0
LINE
  5
434F
  8
2-0
  6
CONTINUOUS
 62
     6
 10
26127.332320999962
 20
20147.433343000001
 30
0.0
 11
25999.37030099997
 21
20047.750725000002
 31
0.0
  0
LINE
  5
4350
  8
2-0
  6
CONTINUOUS
 62
     6
 10
26088.084405999962
 20
20183.54768
 30
0.0
 11
25999.37030099997
 21
20047.750725000002
 31
0.0
  0
LINE
  5
4351
  8
2-0
  6
CONTINUOUS
 62
     6
 10
26088.084405999962
 20
20183.54768
 30
0.0
 11
26127.332320999962
 21
20147.433343000001
 31
0.0
  0
LINE
  5
4352
  8
2-0
  6
CONTINUOUS
 62
     6
 10
19119.106523999992
 20
19775.042347999992
 30
0.0
 11
19251.039456999999
 21
19305.696512999992
 31
0.0
  0
LINE
  5
4353
  8
2-0
  6
CONTINUOUS
 62
     6
 10
19251.039456999999
 20
19305.696512999992
 30
0.0
 11
20276.077727999978
 21
19305.696512999992
 31
0.0
  0
LINE
  5
4354
  8
2-0
  6
CONTINUOUS
 62
     6
 10
19075.812473000002
 20
19929.070668
 30
0.0
 11
19093.434146999982
 21
19767.825023000001
 31
0.0
  0
LINE
  5
4355
  8
2-0
  6
CONTINUOUS
 62
     6
 10
19144.778900000001
 20
19782.263631999991
 30
0.0
 11
19093.434146999982
 21
19767.825023000001
 31
0.0
  0
LINE
  5
4356
  8
2-0
  6
CONTINUOUS
 62
     6
 10
19093.434146999982
 20
19767.825023000001
 30
0.0
 11
19075.812473000002
 21
19929.070668
 31
0.0
  0
LINE
  5
4357
  8
2-0
  6
CONTINUOUS
 62
     6
 10
19075.812473000002
 20
19929.070668
 30
0.0
 11
19144.778900000001
 21
19782.263631999991
 31
0.0
  0
LINE
  5
4358
  8
2-0
  6
CONTINUOUS
 62
     6
 10
19144.778900000001
 20
19782.263631999991
 30
0.0
 11
19075.812473000002
 21
19929.070668
 31
0.0
  0
LINE
  5
4359
  8
2-0
  6
CONTINUOUS
 62
     6
 10
19093.434146999982
 20
19767.825023000001
 30
0.0
 11
19075.812473000002
 21
19929.070668
 31
0.0
  0
LINE
  5
435A
  8
2-0
  6
CONTINUOUS
 62
     6
 10
19093.434146999982
 20
19767.825023000001
 30
0.0
 11
19144.778900000001
 21
19782.263631999991
 31
0.0
  0
LINE
  5
435B
  8
2-0
  6
CONTINUOUS
 62
     6
 10
23036.599529999981
 20
19904.063409999992
 30
0.0
 11
23185.469224999972
 21
19374.441234000002
 31
0.0
  0
LINE
  5
435C
  8
2-0
  6
CONTINUOUS
 62
     6
 10
23185.469224999972
 20
19374.441234000002
 30
0.0
 11
24210.51343399996
 21
19374.441234000002
 31
0.0
  0
LINE
  5
435D
  8
2-0
  6
CONTINUOUS
 62
     6
 10
23054.223183999951
 20
19742.817764999989
 30
0.0
 11
23105.57387499998
 21
19757.252414999992
 31
0.0
  0
LINE
  5
435E
  8
2-0
  6
CONTINUOUS
 62
     6
 10
23105.57387499998
 20
19757.252414999992
 30
0.0
 11
23054.223183999951
 21
19742.817764999989
 31
0.0
  0
LINE
  5
435F
  8
2-0
  6
CONTINUOUS
 62
     6
 10
23054.223183999951
 20
19742.817764999989
 30
0.0
 11
23036.599529999981
 21
19904.063409999992
 31
0.0
  0
LINE
  5
4360
  8
2-0
  6
CONTINUOUS
 62
     6
 10
23036.599529999981
 20
19904.063409999992
 30
0.0
 11
23105.57387499998
 21
19757.252414999992
 31
0.0
  0
LINE
  5
4361
  8
2-0
  6
CONTINUOUS
 62
     6
 10
23105.57387499998
 20
19757.252414999992
 30
0.0
 11
23036.599529999981
 21
19904.063409999992
 31
0.0
  0
LINE
  5
4362
  8
2-0
  6
CONTINUOUS
 62
     6
 10
23054.223183999951
 20
19742.817764999989
 30
0.0
 11
23036.599529999981
 21
19904.063409999992
 31
0.0
  0
LINE
  5
4363
  8
2-0
  6
CONTINUOUS
 62
     6
 10
23105.57387499998
 20
19757.252414999992
 30
0.0
 11
23036.599529999981
 21
19904.063409999992
 31
0.0
  0
LINE
  5
4364
  8
2-0
  6
CONTINUOUS
 62
     6
 10
23036.599529999981
 20
19904.063409999992
 30
0.0
 11
23054.223183999951
 21
19742.817764999989
 31
0.0
  0
LINE
  5
4365
  8
2-0
  6
CONTINUOUS
 62
     4
 10
22995.176123999961
 20
20102.816973000001
 30
0.0
 11
22995.176123999961
 21
20832.813937999981
 31
0.0
  0
LINE
  5
4366
  8
2-0
  6
CONTINUOUS
 62
     6
 10
25679.03668699996
 20
13643.046411999971
 30
0.0
 11
25810.78354599997
 21
13737.673338999981
 31
0.0
  0
LINE
  5
4367
  8
2-0
  6
CONTINUOUS
 62
     6
 10
25810.78354599997
 20
13737.673338999981
 30
0.0
 11
25716.85340999996
 21
13605.43456899997
 31
0.0
  0
LINE
  5
4368
  8
2-0
  6
CONTINUOUS
 62
     6
 10
25679.03668699996
 20
13643.046411999971
 30
0.0
 11
25716.85340999996
 21
13605.43456899997
 31
0.0
  0
LINE
  5
4369
  8
2-0
  6
CONTINUOUS
 62
     6
 10
25716.85340999996
 20
13605.43456899997
 30
0.0
 11
25810.78354599997
 21
13737.673338999981
 31
0.0
  0
LINE
  5
436A
  8
2-0
  6
CONTINUOUS
 62
     6
 10
25810.78354599997
 20
13737.673338999981
 30
0.0
 11
25679.03668699996
 21
13643.046411999971
 31
0.0
  0
LINE
  5
436B
  8
2-0
  6
CONTINUOUS
 62
     6
 10
25679.03668699996
 20
13643.046411999971
 30
0.0
 11
25810.78354599997
 21
13737.673338999981
 31
0.0
  0
LINE
  5
436C
  8
2-0
  6
CONTINUOUS
 62
     6
 10
25716.85340999996
 20
13605.43456899997
 30
0.0
 11
25810.78354599997
 21
13737.673338999981
 31
0.0
  0
LINE
  5
436D
  8
2-0
  6
CONTINUOUS
 62
     6
 10
25716.85340999996
 20
13605.43456899997
 30
0.0
 11
25679.03668699996
 21
13643.046411999971
 31
0.0
  0
LINE
  5
436E
  8
2-0
  6
CONTINUOUS
 62
     6
 10
25742.072475999961
 20
13969.95103899997
 30
0.0
 11
25874.67250799996
 21
13876.522710999971
 31
0.0
  0
LINE
  5
436F
  8
2-0
  6
CONTINUOUS
 62
     6
 10
25874.67250799996
 20
13876.522710999971
 30
0.0
 11
25718.939821999971
 21
13921.898224999981
 31
0.0
  0
LINE
  5
4370
  8
2-0
  6
CONTINUOUS
 62
     6
 10
25742.072475999961
 20
13969.95103899997
 30
0.0
 11
25718.939821999971
 21
13921.898224999981
 31
0.0
  0
LINE
  5
4371
  8
2-0
  6
CONTINUOUS
 62
     6
 10
25718.939821999971
 20
13921.898224999981
 30
0.0
 11
25874.67250799996
 21
13876.522710999971
 31
0.0
  0
LINE
  5
4372
  8
2-0
  6
CONTINUOUS
 62
     6
 10
25874.67250799996
 20
13876.522710999971
 30
0.0
 11
25742.072475999961
 21
13969.95103899997
 31
0.0
  0
LINE
  5
4373
  8
2-0
  6
CONTINUOUS
 62
     6
 10
25742.072475999961
 20
13969.95103899997
 30
0.0
 11
25874.67250799996
 21
13876.522710999971
 31
0.0
  0
LINE
  5
4374
  8
2-0
  6
CONTINUOUS
 62
     6
 10
25718.939821999971
 20
13921.898224999981
 30
0.0
 11
25874.67250799996
 21
13876.522710999971
 31
0.0
  0
LINE
  5
4375
  8
2-0
  6
CONTINUOUS
 62
     6
 10
25718.939821999971
 20
13921.898224999981
 30
0.0
 11
25742.072475999961
 21
13969.95103899997
 31
0.0
  0
LINE
  5
4376
  8
2-0
  6
CONTINUOUS
 62
     6
 10
25801.836121999961
 20
16700.271971999999
 30
0.0
 11
25955.674407999959
 21
16751.705803000001
 31
0.0
  0
LINE
  5
4377
  8
2-0
  6
CONTINUOUS
 62
     6
 10
25955.674407999959
 20
16751.705803000001
 30
0.0
 11
25826.839420999961
 21
16653.165368000002
 31
0.0
  0
LINE
  5
4378
  8
2-0
  6
CONTINUOUS
 62
     6
 10
25801.836121999961
 20
16700.271971999999
 30
0.0
 11
25826.839420999961
 21
16653.165368000002
 31
0.0
  0
LINE
  5
4379
  8
2-0
  6
CONTINUOUS
 62
     6
 10
25826.839420999961
 20
16653.165368000002
 30
0.0
 11
25955.674407999959
 21
16751.705803000001
 31
0.0
  0
LINE
  5
437A
  8
2-0
  6
CONTINUOUS
 62
     6
 10
25955.674407999959
 20
16751.705803000001
 30
0.0
 11
25801.836121999961
 21
16700.271971999999
 31
0.0
  0
LINE
  5
437B
  8
2-0
  6
CONTINUOUS
 62
     6
 10
25801.836121999961
 20
16700.271971999999
 30
0.0
 11
25955.674407999959
 21
16751.705803000001
 31
0.0
  0
LINE
  5
437C
  8
2-0
  6
CONTINUOUS
 62
     6
 10
25826.839420999961
 20
16653.165368000002
 30
0.0
 11
25955.674407999959
 21
16751.705803000001
 31
0.0
  0
LINE
  5
437D
  8
2-0
  6
CONTINUOUS
 62
     6
 10
25826.839420999961
 20
16653.165368000002
 30
0.0
 11
25801.836121999961
 21
16700.271971999999
 31
0.0
  0
LINE
  5
437E
  8
2-0
  6
CONTINUOUS
 62
     6
 10
25667.899914999962
 20
17191.59046399999
 30
0.0
 11
25810.78354599997
 21
17114.81483499999
 31
0.0
  0
LINE
  5
437F
  8
2-0
  6
CONTINUOUS
 62
     6
 10
25810.78354599997
 20
17114.81483499999
 30
0.0
 11
25650.72165299996
 21
17141.096904000002
 31
0.0
  0
LINE
  5
4380
  8
2-0
  6
CONTINUOUS
 62
     6
 10
25667.899914999962
 20
17191.59046399999
 30
0.0
 11
25650.72165299996
 21
17141.096904000002
 31
0.0
  0
LINE
  5
4381
  8
2-0
  6
CONTINUOUS
 62
     6
 10
25650.72165299996
 20
17141.096904000002
 30
0.0
 11
25810.78354599997
 21
17114.81483499999
 31
0.0
  0
LINE
  5
4382
  8
2-0
  6
CONTINUOUS
 62
     6
 10
25810.78354599997
 20
17114.81483499999
 30
0.0
 11
25667.899914999962
 21
17191.59046399999
 31
0.0
  0
LINE
  5
4383
  8
2-0
  6
CONTINUOUS
 62
     6
 10
25667.899914999962
 20
17191.59046399999
 30
0.0
 11
25810.78354599997
 21
17114.81483499999
 31
0.0
  0
LINE
  5
4384
  8
2-0
  6
CONTINUOUS
 62
     6
 10
25650.72165299996
 20
17141.096904000002
 30
0.0
 11
25810.78354599997
 21
17114.81483499999
 31
0.0
  0
LINE
  5
4385
  8
2-0
  6
CONTINUOUS
 62
     6
 10
25650.72165299996
 20
17141.096904000002
 30
0.0
 11
25667.899914999962
 21
17191.59046399999
 31
0.0
  0
LINE
  5
4386
  8
2-0
  6
CONTINUOUS
 62
     3
 10
19755.67142599999
 20
20022.814729999998
 30
0.0
 11
19718.670263999989
 21
20022.814729999998
 31
0.0
  0
LINE
  5
4387
  8
2-0
  6
CONTINUOUS
 62
     3
 10
19755.67142599999
 20
19992.811166999989
 30
0.0
 11
19755.67142599999
 21
20022.814729999998
 31
0.0
  0
LINE
  5
4388
  8
2-0
  6
CONTINUOUS
 62
     3
 10
19749.671504999969
 20
19992.811166999989
 30
0.0
 11
19755.67142599999
 21
19992.811166999989
 31
0.0
  0
LINE
  5
4389
  8
2-0
  6
CONTINUOUS
 62
     3
 10
19765.768949999991
 20
19992.811166999989
 30
0.0
 11
19765.768949999991
 21
20022.814729999998
 31
0.0
  0
LINE
  5
438A
  8
2-0
  6
CONTINUOUS
 62
     3
 10
19747.76522899999
 20
19992.811166999989
 30
0.0
 11
19765.768949999991
 21
19992.811166999989
 31
0.0
  0
LINE
  5
438B
  8
2-0
  6
CONTINUOUS
 62
     3
 10
19747.76522899999
 20
20017.820403999991
 30
0.0
 11
19747.76522899999
 21
19992.811166999989
 31
0.0
  0
LINE
  5
438C
  8
2-0
  6
CONTINUOUS
 62
     3
 10
19752.765492999992
 20
20017.820403999991
 30
0.0
 11
19747.76522899999
 21
20017.820403999991
 31
0.0
  0
LINE
  5
438D
  8
2-0
  6
CONTINUOUS
 62
     3
 10
19752.765492999992
 20
20010.814888000001
 30
0.0
 11
19752.765492999992
 21
20017.820403999991
 31
0.0
  0
LINE
  5
438E
  8
2-0
  6
CONTINUOUS
 62
     3
 10
19721.576197999981
 20
20010.814888000001
 30
0.0
 11
19721.576197999981
 21
20017.820403999991
 31
0.0
  0
LINE
  5
438F
  8
2-0
  6
CONTINUOUS
 62
     3
 10
19721.576197999981
 20
20017.820403999991
 30
0.0
 11
19726.57646199999
 21
20017.820403999991
 31
0.0
  0
LINE
  5
4390
  8
2-0
  6
CONTINUOUS
 62
     3
 10
19726.57646199999
 20
20017.820403999991
 30
0.0
 11
19726.57646199999
 21
19992.811166999989
 31
0.0
  0
LINE
  5
4391
  8
2-0
  6
CONTINUOUS
 62
     3
 10
19726.57646199999
 20
19992.811166999989
 30
0.0
 11
19708.57669899999
 21
19992.811166999989
 31
0.0
  0
LINE
  5
4392
  8
2-0
  6
CONTINUOUS
 62
     3
 10
19708.57669899999
 20
19992.811166999989
 30
0.0
 11
19708.57669899999
 21
20022.814729999998
 31
0.0
  0
LINE
  5
4393
  8
2-0
  6
CONTINUOUS
 62
     3
 10
19724.670184999992
 20
19992.811166999989
 30
0.0
 11
19718.670263999989
 21
19992.811166999989
 31
0.0
  0
LINE
  5
4394
  8
2-0
  6
CONTINUOUS
 62
     3
 10
19718.670263999989
 20
19992.811166999989
 30
0.0
 11
19718.670263999989
 21
20022.814729999998
 31
0.0
  0
LINE
  5
4395
  8
2-0
  6
CONTINUOUS
 62
     3
 10
17564.672164999989
 20
19913.814518999981
 30
0.0
 11
17564.672164999989
 21
19907.818556999991
 31
0.0
  0
LINE
  5
4396
  8
2-0
  6
CONTINUOUS
 62
     3
 10
17564.672164999989
 20
19907.818556999991
 30
0.0
 11
17534.674539999989
 21
19907.818556999991
 31
0.0
  0
LINE
  5
4397
  8
2-0
  6
CONTINUOUS
 62
     3
 10
17534.674539999989
 20
19907.818556999991
 30
0.0
 11
17534.674539999989
 21
20022.814729999998
 31
0.0
  0
LINE
  5
4398
  8
2-0
  6
CONTINUOUS
 62
     3
 10
17534.674539999989
 20
19937.818160999981
 30
0.0
 11
17615.672480999991
 21
19937.818160999981
 31
0.0
  0
LINE
  5
4399
  8
2-0
  6
CONTINUOUS
 62
     3
 10
17564.672164999989
 20
19897.521100999991
 30
0.0
 11
17534.674539999989
 21
19897.521100999991
 31
0.0
  0
LINE
  5
439A
  8
2-0
  6
CONTINUOUS
 62
     3
 10
17564.672164999989
 20
19915.522842999992
 30
0.0
 11
17564.672164999989
 21
19897.521100999991
 31
0.0
  0
LINE
  5
439B
  8
2-0
  6
CONTINUOUS
 62
     3
 10
17539.678762999989
 20
19915.522842999992
 30
0.0
 11
17564.672164999989
 21
19915.522842999992
 31
0.0
  0
LINE
  5
439C
  8
2-0
  6
CONTINUOUS
 62
     3
 10
17539.678762999989
 20
19910.514661000001
 30
0.0
 11
17539.678762999989
 21
19915.522842999992
 31
0.0
  0
LINE
  5
439D
  8
2-0
  6
CONTINUOUS
 62
     3
 10
17546.676360999962
 20
19910.514661000001
 30
0.0
 11
17539.678762999989
 21
19910.514661000001
 31
0.0
  0
LINE
  5
439E
  8
2-0
  6
CONTINUOUS
 62
     3
 10
17646.970649999981
 20
20010.814888000001
 30
0.0
 11
17646.970649999981
 21
20017.820403999991
 31
0.0
  0
LINE
  5
439F
  8
2-0
  6
CONTINUOUS
 62
     3
 10
17646.970649999981
 20
20017.820403999991
 30
0.0
 11
17641.968405999989
 21
20017.820403999991
 31
0.0
  0
LINE
  5
43A0
  8
2-0
  6
CONTINUOUS
 62
     3
 10
17641.968405999989
 20
20017.820403999991
 30
0.0
 11
17641.968405999989
 21
19992.811166999989
 31
0.0
  0
LINE
  5
43A1
  8
2-0
  6
CONTINUOUS
 62
     3
 10
17641.968405999989
 20
19992.811166999989
 30
0.0
 11
17659.976086999981
 21
19992.811166999989
 31
0.0
  0
LINE
  5
43A2
  8
2-0
  6
CONTINUOUS
 62
     3
 10
17659.976086999981
 20
19992.811166999989
 30
0.0
 11
17659.976086999981
 21
20022.814729999998
 31
0.0
  0
LINE
  5
43A3
  8
2-0
  6
CONTINUOUS
 62
     3
 10
17649.676650999991
 20
20022.814729999998
 30
0.0
 11
17534.674539999989
 21
20022.814729999998
 31
0.0
  0
LINE
  5
43A4
  8
2-0
  6
CONTINUOUS
 62
     3
 10
17649.676650999991
 20
19992.811166999989
 30
0.0
 11
17649.676650999991
 21
20022.814729999998
 31
0.0
  0
LINE
  5
43A5
  8
2-0
  6
CONTINUOUS
 62
     3
 10
17643.672771999991
 20
19992.811166999989
 30
0.0
 11
17649.676650999991
 21
19992.811166999989
 31
0.0
  0
LINE
  5
43A6
  8
2-0
  6
CONTINUOUS
 62
     3
 10
18350.76054349999
 20
20010.814888000001
 30
0.0
 11
18350.76054349999
 21
20017.820403999991
 31
0.0
  0
LINE
  5
43A7
  8
2-0
  6
CONTINUOUS
 62
     3
 10
18350.76054349999
 20
20017.820403999991
 30
0.0
 11
18345.760279499991
 21
20017.820403999991
 31
0.0
  0
LINE
  5
43A8
  8
2-0
  6
CONTINUOUS
 62
     3
 10
18345.760279499991
 20
20017.820403999991
 30
0.0
 11
18345.760279499991
 21
19992.811166999989
 31
0.0
  0
LINE
  5
43A9
  8
2-0
  6
CONTINUOUS
 62
     3
 10
18345.760279499991
 20
19992.811166999989
 30
0.0
 11
18363.765980499989
 21
19992.811166999989
 31
0.0
  0
LINE
  5
43AA
  8
2-0
  6
CONTINUOUS
 62
     3
 10
18363.765980499989
 20
19992.811166999989
 30
0.0
 11
18363.765980499989
 21
20022.814729999998
 31
0.0
  0
LINE
  5
43AB
  8
2-0
  6
CONTINUOUS
 62
     3
 10
18347.668535499961
 20
19992.811166999989
 30
0.0
 11
18353.670435499978
 21
19992.811166999989
 31
0.0
  0
LINE
  5
43AC
  8
2-0
  6
CONTINUOUS
 62
     3
 10
18353.670435499978
 20
19992.811166999989
 30
0.0
 11
18353.670435499978
 21
20022.814729999998
 31
0.0
  0
LINE
  5
43AD
  8
2-0
  6
CONTINUOUS
 62
     3
 10
18316.671254499961
 20
20022.814729999998
 30
0.0
 11
18353.670435499978
 21
20022.814729999998
 31
0.0
  0
LINE
  5
43AE
  8
2-0
  6
CONTINUOUS
 62
     3
 10
18316.671254499961
 20
19992.811166999989
 30
0.0
 11
18316.671254499961
 21
20022.814729999998
 31
0.0
  0
LINE
  5
43AF
  8
2-0
  6
CONTINUOUS
 62
     3
 10
18322.66523649999
 20
19992.811166999989
 30
0.0
 11
18316.671254499961
 21
19992.811166999989
 31
0.0
  0
LINE
  5
43B0
  8
2-0
  6
CONTINUOUS
 62
     3
 10
18306.575709499979
 20
19992.811166999989
 30
0.0
 11
18306.575709499979
 21
20022.814729999998
 31
0.0
  0
LINE
  5
43B1
  8
2-0
  6
CONTINUOUS
 62
     3
 10
18324.571512499992
 20
19992.811166999989
 30
0.0
 11
18306.575709499979
 21
19992.811166999989
 31
0.0
  0
LINE
  5
43B2
  8
2-0
  6
CONTINUOUS
 62
     3
 10
18324.571512499992
 20
20017.820403999991
 30
0.0
 11
18324.571512499992
 21
19992.811166999989
 31
0.0
  0
LINE
  5
43B3
  8
2-0
  6
CONTINUOUS
 62
     3
 10
18319.571248499989
 20
20017.820403999991
 30
0.0
 11
18324.571512499992
 21
20017.820403999991
 31
0.0
  0
LINE
  5
43B4
  8
2-0
  6
CONTINUOUS
 62
     3
 10
18319.571248499989
 20
20010.814888000001
 30
0.0
 11
18319.571248499989
 21
20017.820403999991
 31
0.0
  0
LINE
  5
43B5
  8
2-0
  6
CONTINUOUS
 62
     3
 10
19020.570259499978
 20
20010.814888000001
 30
0.0
 11
19020.570259499978
 21
20017.820403999991
 31
0.0
  0
LINE
  5
43B6
  8
2-0
  6
CONTINUOUS
 62
     3
 10
19020.570259499978
 20
20017.820403999991
 30
0.0
 11
19025.570522499991
 21
20017.820403999991
 31
0.0
  0
LINE
  5
43B7
  8
2-0
  6
CONTINUOUS
 62
     3
 10
19025.570522499991
 20
20017.820403999991
 30
0.0
 11
19025.570522499991
 21
19992.811166999989
 31
0.0
  0
LINE
  5
43B8
  8
2-0
  6
CONTINUOUS
 62
     3
 10
19025.570522499991
 20
19992.811166999989
 30
0.0
 11
19007.576699499961
 21
19992.811166999989
 31
0.0
  0
LINE
  5
43B9
  8
2-0
  6
CONTINUOUS
 62
     3
 10
19007.576699499961
 20
19992.811166999989
 30
0.0
 11
19007.576699499961
 21
20022.814729999998
 31
0.0
  0
LINE
  5
43BA
  8
2-0
  6
CONTINUOUS
 62
     3
 10
19023.66820549998
 20
19992.811166999989
 30
0.0
 11
19017.67026449999
 21
19992.811166999989
 31
0.0
  0
LINE
  5
43BB
  8
2-0
  6
CONTINUOUS
 62
     3
 10
19017.67026449999
 20
19992.811166999989
 30
0.0
 11
19017.67026449999
 21
20022.814729999998
 31
0.0
  0
LINE
  5
43BC
  8
2-0
  6
CONTINUOUS
 62
     3
 10
19054.67142549999
 20
20022.814729999998
 30
0.0
 11
19017.67026449999
 21
20022.814729999998
 31
0.0
  0
LINE
  5
43BD
  8
2-0
  6
CONTINUOUS
 62
     3
 10
19054.67142549999
 20
19992.811166999989
 30
0.0
 11
19054.67142549999
 21
20022.814729999998
 31
0.0
  0
LINE
  5
43BE
  8
2-0
  6
CONTINUOUS
 62
     3
 10
19048.665566499982
 20
19992.811166999989
 30
0.0
 11
19054.67142549999
 21
19992.811166999989
 31
0.0
  0
LINE
  5
43BF
  8
2-0
  6
CONTINUOUS
 62
     3
 10
19064.764990499982
 20
19992.811166999989
 30
0.0
 11
19064.764990499982
 21
20022.814729999998
 31
0.0
  0
LINE
  5
43C0
  8
2-0
  6
CONTINUOUS
 62
     3
 10
19046.769187499991
 20
19992.811166999989
 30
0.0
 11
19064.764990499982
 21
19992.811166999989
 31
0.0
  0
LINE
  5
43C1
  8
2-0
  6
CONTINUOUS
 62
     3
 10
19046.769187499991
 20
20017.820403999991
 30
0.0
 11
19046.769187499991
 21
19992.811166999989
 31
0.0
  0
LINE
  5
43C2
  8
2-0
  6
CONTINUOUS
 62
     3
 10
19051.759553499978
 20
20017.820403999991
 30
0.0
 11
19046.769187499991
 21
20017.820403999991
 31
0.0
  0
LINE
  5
43C3
  8
2-0
  6
CONTINUOUS
 62
     3
 10
19051.759553499978
 20
20010.814888000001
 30
0.0
 11
19051.759553499978
 21
20017.820403999991
 31
0.0
  0
LINE
  5
43C4
  8
2-0
  6
CONTINUOUS
 62
     3
 10
18363.765980499989
 20
20022.814729999998
 30
0.0
 11
19007.576699499961
 21
20022.814729999998
 31
0.0
  0
LINE
  5
43C5
  8
2-0
  6
CONTINUOUS
 62
     3
 10
17659.976086999981
 20
20022.814729999998
 30
0.0
 11
18306.575709499979
 21
20022.814729999998
 31
0.0
  0
LINE
  5
43C6
  8
2-0
  6
CONTINUOUS
 62
     3
 10
20422.670977000002
 20
20022.814729999998
 30
0.0
 11
20422.670977000002
 21
19992.811166999989
 31
0.0
  0
LINE
  5
43C7
  8
2-0
  6
CONTINUOUS
 62
     3
 10
20422.670977000002
 20
19992.811166999989
 30
0.0
 11
20428.674856000001
 21
19992.811166999989
 31
0.0
  0
LINE
  5
43C8
  8
2-0
  6
CONTINUOUS
 62
     3
 10
20413.05447499999
 20
19992.811166999989
 30
0.0
 11
20413.05447499999
 21
20022.814729999998
 31
0.0
  0
LINE
  5
43C9
  8
2-0
  6
CONTINUOUS
 62
     3
 10
20431.062155999989
 20
19992.811166999989
 30
0.0
 11
20413.05447499999
 21
19992.811166999989
 31
0.0
  0
LINE
  5
43CA
  8
2-0
  6
CONTINUOUS
 62
     3
 10
20431.062155999989
 20
20017.820403999991
 30
0.0
 11
20431.062155999989
 21
19992.811166999989
 31
0.0
  0
LINE
  5
43CB
  8
2-0
  6
CONTINUOUS
 62
     3
 10
20426.055952999988
 20
20017.820403999991
 30
0.0
 11
20431.062155999989
 21
20017.820403999991
 31
0.0
  0
LINE
  5
43CC
  8
2-0
  6
CONTINUOUS
 62
     3
 10
20426.055952999988
 20
20010.814888000001
 30
0.0
 11
20426.055952999988
 21
20017.820403999991
 31
0.0
  0
LINE
  5
43CD
  8
2-0
  6
CONTINUOUS
 62
     3
 10
20452.67454
 20
20019.922653000001
 30
0.0
 11
20452.67454
 21
19934.924104999991
 31
0.0
  0
LINE
  5
43CE
  8
2-0
  6
CONTINUOUS
 62
     3
 10
20472.673615999989
 20
20019.922653000001
 30
0.0
 11
20452.67454
 21
20019.922653000001
 31
0.0
  0
LINE
  5
43CF
  8
2-0
  6
CONTINUOUS
 62
     3
 10
20564.287714999999
 20
20010.814888000001
 30
0.0
 11
20564.287714999999
 21
20017.820403999991
 31
0.0
  0
LINE
  5
43D0
  8
2-0
  6
CONTINUOUS
 62
     3
 10
20564.287714999999
 20
20017.820403999991
 30
0.0
 11
20559.28547200001
 21
20017.820403999991
 31
0.0
  0
LINE
  5
43D1
  8
2-0
  6
CONTINUOUS
 62
     3
 10
20559.28547200001
 20
20017.820403999991
 30
0.0
 11
20559.28547200001
 21
19992.811166999989
 31
0.0
  0
LINE
  5
43D2
  8
2-0
  6
CONTINUOUS
 62
     3
 10
20559.28547200001
 20
19992.811166999989
 30
0.0
 11
20577.28919299999
 21
19992.811166999989
 31
0.0
  0
LINE
  5
43D3
  8
2-0
  6
CONTINUOUS
 62
     3
 10
20577.28919299999
 20
19992.811166999989
 30
0.0
 11
20577.28919299999
 21
20022.814729999998
 31
0.0
  0
LINE
  5
43D4
  8
2-0
  6
CONTINUOUS
 62
     3
 10
20537.673087999989
 20
20019.922653000001
 30
0.0
 11
20517.670053000002
 21
20019.922653000001
 31
0.0
  0
LINE
  5
43D5
  8
2-0
  6
CONTINUOUS
 62
     3
 10
20537.673087999989
 20
19934.924104999991
 30
0.0
 11
20537.673087999989
 21
20019.922653000001
 31
0.0
  0
LINE
  5
43D6
  8
2-0
  6
CONTINUOUS
 62
     3
 10
20567.672692
 20
19992.811166999989
 30
0.0
 11
20561.67277099999
 21
19992.811166999989
 31
0.0
  0
LINE
  5
43D7
  8
2-0
  6
CONTINUOUS
 62
     3
 10
20567.672692
 20
20022.814729999998
 30
0.0
 11
20567.672692
 21
19992.811166999989
 31
0.0
  0
LINE
  5
43D8
  8
2-0
  6
CONTINUOUS
 62
     3
 10
20452.67454
 20
19934.924104999991
 30
0.0
 11
20537.673087999989
 21
19934.924104999991
 31
0.0
  0
LINE
  5
43D9
  8
2-0
  6
CONTINUOUS
 62
     3
 10
20422.670977000002
 20
20022.814729999998
 30
0.0
 11
20567.672692
 21
20022.814729999998
 31
0.0
  0
LINE
  5
43DA
  8
2-0
  6
CONTINUOUS
 62
     3
 10
20413.05447499999
 20
20022.814729999998
 30
0.0
 11
19765.768949999991
 21
20022.814729999998
 31
0.0
  0
LINE
  5
43DB
  8
2-0
  6
CONTINUOUS
 62
     3
 10
19708.57669899999
 20
20022.814729999998
 30
0.0
 11
19064.764990499982
 21
20022.814729999998
 31
0.0
  0
LINE
  5
43DC
  8
2-0
  6
CONTINUOUS
 62
     3
 10
17564.672164999989
 20
19913.814518999981
 30
0.0
 11
17564.672164999989
 21
19907.818556999991
 31
0.0
  0
LINE
  5
43DD
  8
2-0
  6
CONTINUOUS
 62
     3
 10
17564.672164999989
 20
19907.818556999991
 30
0.0
 11
17534.674539999989
 21
19907.818556999991
 31
0.0
  0
LINE
  5
43DE
  8
2-0
  6
CONTINUOUS
 62
     3
 10
17534.674539999989
 20
19907.818556999991
 30
0.0
 11
17534.674539999989
 21
20022.814729999998
 31
0.0
  0
LINE
  5
43DF
  8
2-0
  6
CONTINUOUS
 62
     3
 10
17534.674539999989
 20
19937.818160999981
 30
0.0
 11
17615.672480999991
 21
19937.818160999981
 31
0.0
  0
LINE
  5
43E0
  8
2-0
  6
CONTINUOUS
 62
     3
 10
17564.672164999989
 20
19897.521100999991
 30
0.0
 11
17534.674539999989
 21
19897.521100999991
 31
0.0
  0
LINE
  5
43E1
  8
2-0
  6
CONTINUOUS
 62
     3
 10
17564.672164999989
 20
19915.522842999992
 30
0.0
 11
17564.672164999989
 21
19897.521100999991
 31
0.0
  0
LINE
  5
43E2
  8
2-0
  6
CONTINUOUS
 62
     3
 10
17539.678762999989
 20
19915.522842999992
 30
0.0
 11
17564.672164999989
 21
19915.522842999992
 31
0.0
  0
LINE
  5
43E3
  8
2-0
  6
CONTINUOUS
 62
     3
 10
17539.678762999989
 20
19910.514661000001
 30
0.0
 11
17539.678762999989
 21
19915.522842999992
 31
0.0
  0
LINE
  5
43E4
  8
2-0
  6
CONTINUOUS
 62
     3
 10
17546.676360999962
 20
19910.514661000001
 30
0.0
 11
17539.678762999989
 21
19910.514661000001
 31
0.0
  0
LINE
  5
43E5
  8
2-0
  6
CONTINUOUS
 62
     3
 10
17546.676360999962
 20
19206.717838499961
 30
0.0
 11
17539.678762999989
 21
19206.717838499961
 31
0.0
  0
LINE
  5
43E6
  8
2-0
  6
CONTINUOUS
 62
     3
 10
17539.678762999989
 20
19206.717838499961
 30
0.0
 11
17539.678762999989
 21
19211.718102499981
 31
0.0
  0
LINE
  5
43E7
  8
2-0
  6
CONTINUOUS
 62
     3
 10
17539.678762999989
 20
19211.718102499981
 30
0.0
 11
17564.672164999989
 21
19211.718102499981
 31
0.0
  0
LINE
  5
43E8
  8
2-0
  6
CONTINUOUS
 62
     3
 10
17564.672164999989
 20
19211.718102499981
 30
0.0
 11
17564.672164999989
 21
19193.722298499961
 31
0.0
  0
LINE
  5
43E9
  8
2-0
  6
CONTINUOUS
 62
     3
 10
17564.672164999989
 20
19193.722298499961
 30
0.0
 11
17534.674539999989
 21
19193.722298499961
 31
0.0
  0
LINE
  5
43EA
  8
2-0
  6
CONTINUOUS
 62
     3
 10
17564.672164999989
 20
19209.813805499962
 30
0.0
 11
17564.672164999989
 21
19203.81586449996
 31
0.0
  0
LINE
  5
43EB
  8
2-0
  6
CONTINUOUS
 62
     3
 10
17564.672164999989
 20
19203.81586449996
 30
0.0
 11
17534.674539999989
 21
19203.81586449996
 31
0.0
  0
LINE
  5
43EC
  8
2-0
  6
CONTINUOUS
 62
     3
 10
17534.674539999989
 20
19203.81586449996
 30
0.0
 11
17534.674539999989
 21
19240.81702549995
 31
0.0
  0
LINE
  5
43ED
  8
2-0
  6
CONTINUOUS
 62
     3
 10
17564.672164999989
 20
19240.81702549995
 30
0.0
 11
17534.674539999989
 21
19240.81702549995
 31
0.0
  0
LINE
  5
43EE
  8
2-0
  6
CONTINUOUS
 62
     3
 10
17564.672164999989
 20
19234.813145499971
 30
0.0
 11
17564.672164999989
 21
19240.81702549995
 31
0.0
  0
LINE
  5
43EF
  8
2-0
  6
CONTINUOUS
 62
     3
 10
17564.672164999989
 20
19250.912570499971
 30
0.0
 11
17534.674539999989
 21
19250.912570499971
 31
0.0
  0
LINE
  5
43F0
  8
2-0
  6
CONTINUOUS
 62
     3
 10
17564.672164999989
 20
19232.91082849996
 30
0.0
 11
17564.672164999989
 21
19250.912570499971
 31
0.0
  0
LINE
  5
43F1
  8
2-0
  6
CONTINUOUS
 62
     3
 10
17539.678762999989
 20
19232.91082849996
 30
0.0
 11
17564.672164999989
 21
19232.91082849996
 31
0.0
  0
LINE
  5
43F2
  8
2-0
  6
CONTINUOUS
 62
     3
 10
17539.678762999989
 20
19237.91109249998
 30
0.0
 11
17539.678762999989
 21
19232.91082849996
 31
0.0
  0
LINE
  5
43F3
  8
2-0
  6
CONTINUOUS
 62
     3
 10
17546.676360999962
 20
19237.91109249998
 30
0.0
 11
17539.678762999989
 21
19237.91109249998
 31
0.0
  0
LINE
  5
43F4
  8
2-0
  6
CONTINUOUS
 62
     3
 10
17546.676360999962
 20
18505.71783899999
 30
0.0
 11
17539.678762999989
 21
18505.71783899999
 31
0.0
  0
LINE
  5
43F5
  8
2-0
  6
CONTINUOUS
 62
     3
 10
17539.678762999989
 20
18505.71783899999
 30
0.0
 11
17539.678762999989
 21
18510.724040999969
 31
0.0
  0
LINE
  5
43F6
  8
2-0
  6
CONTINUOUS
 62
     3
 10
17539.678762999989
 20
18510.724040999969
 30
0.0
 11
17564.672164999989
 21
18510.724040999969
 31
0.0
  0
LINE
  5
43F7
  8
2-0
  6
CONTINUOUS
 62
     3
 10
17564.672164999989
 20
18510.724040999969
 30
0.0
 11
17564.672164999989
 21
18492.722298999979
 31
0.0
  0
LINE
  5
43F8
  8
2-0
  6
CONTINUOUS
 62
     3
 10
17564.672164999989
 20
18492.722298999979
 30
0.0
 11
17534.674539999989
 21
18492.722298999979
 31
0.0
  0
LINE
  5
43F9
  8
2-0
  6
CONTINUOUS
 62
     3
 10
17564.672164999989
 20
18508.813805999969
 30
0.0
 11
17564.672164999989
 21
18502.817843999968
 31
0.0
  0
LINE
  5
43FA
  8
2-0
  6
CONTINUOUS
 62
     3
 10
17564.672164999989
 20
18502.817843999968
 30
0.0
 11
17534.674539999989
 21
18502.817843999968
 31
0.0
  0
LINE
  5
43FB
  8
2-0
  6
CONTINUOUS
 62
     3
 10
17534.674539999989
 20
18502.817843999968
 30
0.0
 11
17534.674539999989
 21
18539.817025999961
 31
0.0
  0
LINE
  5
43FC
  8
2-0
  6
CONTINUOUS
 62
     3
 10
17564.672164999989
 20
18539.817025999961
 30
0.0
 11
17534.674539999989
 21
18539.817025999961
 31
0.0
  0
LINE
  5
43FD
  8
2-0
  6
CONTINUOUS
 62
     3
 10
17564.672164999989
 20
18533.821063999982
 30
0.0
 11
17564.672164999989
 21
18539.817025999961
 31
0.0
  0
LINE
  5
43FE
  8
2-0
  6
CONTINUOUS
 62
     3
 10
17564.672164999989
 20
18549.91257099999
 30
0.0
 11
17534.674539999989
 21
18549.91257099999
 31
0.0
  0
LINE
  5
43FF
  8
2-0
  6
CONTINUOUS
 62
     3
 10
17564.672164999989
 20
18531.91082899996
 30
0.0
 11
17564.672164999989
 21
18549.91257099999
 31
0.0
  0
LINE
  5
4400
  8
2-0
  6
CONTINUOUS
 62
     3
 10
17539.678762999989
 20
18531.91082899996
 30
0.0
 11
17564.672164999989
 21
18531.91082899996
 31
0.0
  0
LINE
  5
4401
  8
2-0
  6
CONTINUOUS
 62
     3
 10
17539.678762999989
 20
18536.91703099995
 30
0.0
 11
17539.678762999989
 21
18531.91082899996
 31
0.0
  0
LINE
  5
4402
  8
2-0
  6
CONTINUOUS
 62
     3
 10
17546.676360999962
 20
18536.91703099995
 30
0.0
 11
17539.678762999989
 21
18536.91703099995
 31
0.0
  0
LINE
  5
4403
  8
2-0
  6
CONTINUOUS
 62
     3
 10
17546.676360999962
 20
17835.910102999991
 30
0.0
 11
17539.678762999989
 21
17835.910102999991
 31
0.0
  0
LINE
  5
4404
  8
2-0
  6
CONTINUOUS
 62
     3
 10
17539.678762999989
 20
17835.910102999991
 30
0.0
 11
17539.678762999989
 21
17830.921715999972
 31
0.0
  0
LINE
  5
4405
  8
2-0
  6
CONTINUOUS
 62
     3
 10
17539.678762999989
 20
17830.921715999972
 30
0.0
 11
17564.672164999989
 21
17830.921715999972
 31
0.0
  0
LINE
  5
4406
  8
2-0
  6
CONTINUOUS
 62
     3
 10
17564.672164999989
 20
17830.921715999972
 30
0.0
 11
17564.672164999989
 21
17848.917518999991
 31
0.0
  0
LINE
  5
4407
  8
2-0
  6
CONTINUOUS
 62
     3
 10
17564.672164999989
 20
17848.917518999991
 30
0.0
 11
17534.674539999989
 21
17848.917518999991
 31
0.0
  0
LINE
  5
4408
  8
2-0
  6
CONTINUOUS
 62
     3
 10
17564.672164999989
 20
17832.820073999981
 30
0.0
 11
17564.672164999989
 21
17838.816035999971
 31
0.0
  0
LINE
  5
4409
  8
2-0
  6
CONTINUOUS
 62
     3
 10
17564.672164999989
 20
17838.816035999971
 30
0.0
 11
17534.674539999989
 21
17838.816035999971
 31
0.0
  0
LINE
  5
440A
  8
2-0
  6
CONTINUOUS
 62
     3
 10
17534.674539999989
 20
17838.816035999971
 30
0.0
 11
17534.674539999989
 21
17801.816853999961
 31
0.0
  0
LINE
  5
440B
  8
2-0
  6
CONTINUOUS
 62
     3
 10
17564.672164999989
 20
17801.816853999961
 30
0.0
 11
17534.674539999989
 21
17801.816853999961
 31
0.0
  0
LINE
  5
440C
  8
2-0
  6
CONTINUOUS
 62
     3
 10
17564.672164999989
 20
17807.818754999978
 30
0.0
 11
17564.672164999989
 21
17801.816853999961
 31
0.0
  0
LINE
  5
440D
  8
2-0
  6
CONTINUOUS
 62
     3
 10
17564.672164999989
 20
17791.727247999981
 30
0.0
 11
17534.674539999989
 21
17791.727247999981
 31
0.0
  0
LINE
  5
440E
  8
2-0
  6
CONTINUOUS
 62
     3
 10
17564.672164999989
 20
17809.723050999972
 30
0.0
 11
17564.672164999989
 21
17791.727247999981
 31
0.0
  0
LINE
  5
440F
  8
2-0
  6
CONTINUOUS
 62
     3
 10
17539.678762999989
 20
17809.723050999972
 30
0.0
 11
17564.672164999989
 21
17809.723050999972
 31
0.0
  0
LINE
  5
4410
  8
2-0
  6
CONTINUOUS
 62
     3
 10
17539.678762999989
 20
17804.722787999981
 30
0.0
 11
17539.678762999989
 21
17809.723050999972
 31
0.0
  0
LINE
  5
4411
  8
2-0
  6
CONTINUOUS
 62
     3
 10
17546.676360999962
 20
17804.722787999981
 30
0.0
 11
17539.678762999989
 21
17804.722787999981
 31
0.0
  0
LINE
  5
4412
  8
2-0
  6
CONTINUOUS
 62
     3
 10
17537.560677999991
 20
17084.813673999972
 30
0.0
 11
17537.560677999991
 21
17104.814728999969
 31
0.0
  0
LINE
  5
4413
  8
2-0
  6
CONTINUOUS
 62
     3
 10
17537.560677999991
 20
17104.814728999969
 30
0.0
 11
17622.561205999991
 21
17104.814728999969
 31
0.0
  0
LINE
  5
4414
  8
2-0
  6
CONTINUOUS
 62
     3
 10
17546.676360999962
 20
17131.421438999991
 30
0.0
 11
17539.678762999989
 21
17131.421438999991
 31
0.0
  0
LINE
  5
4415
  8
2-0
  6
CONTINUOUS
 62
     3
 10
17539.678762999989
 20
17131.421438999991
 30
0.0
 11
17539.678762999989
 21
17126.427112999991
 31
0.0
  0
LINE
  5
4416
  8
2-0
  6
CONTINUOUS
 62
     3
 10
17539.678762999989
 20
17126.427112999991
 30
0.0
 11
17564.672164999989
 21
17126.427112999991
 31
0.0
  0
LINE
  5
4417
  8
2-0
  6
CONTINUOUS
 62
     3
 10
17564.672164999989
 20
17126.427112999991
 30
0.0
 11
17564.672164999989
 21
17144.422916999989
 31
0.0
  0
LINE
  5
4418
  8
2-0
  6
CONTINUOUS
 62
     3
 10
17564.672164999989
 20
17144.422916999989
 30
0.0
 11
17534.674539999989
 21
17144.422916999989
 31
0.0
  0
LINE
  5
4419
  8
2-0
  6
CONTINUOUS
 62
     3
 10
17564.672164999989
 20
17134.81433299998
 30
0.0
 11
17564.672164999989
 21
17128.812432999981
 31
0.0
  0
LINE
  5
441A
  8
2-0
  6
CONTINUOUS
 62
     3
 10
17534.674539999989
 20
17134.81433299998
 30
0.0
 11
17564.672164999989
 21
17134.81433299998
 31
0.0
  0
LINE
  5
441B
  8
2-0
  6
CONTINUOUS
 62
     3
 10
17534.674539999989
 20
17144.422916999989
 30
0.0
 11
17534.674539999989
 21
17791.727247999981
 31
0.0
  0
LINE
  5
441C
  8
2-0
  6
CONTINUOUS
 62
     3
 10
17534.674539999989
 20
17848.917518999991
 30
0.0
 11
17534.674539999989
 21
18492.722298999979
 31
0.0
  0
LINE
  5
441D
  8
2-0
  6
CONTINUOUS
 62
     3
 10
17534.674539999989
 20
16989.812617999989
 30
0.0
 11
17564.672164999989
 21
16989.812617999989
 31
0.0
  0
LINE
  5
441E
  8
2-0
  6
CONTINUOUS
 62
     3
 10
17564.672164999989
 20
16989.812617999989
 30
0.0
 11
17564.672164999989
 21
16995.814517999981
 31
0.0
  0
LINE
  5
441F
  8
2-0
  6
CONTINUOUS
 62
     3
 10
17622.561205999991
 20
17019.818160999981
 30
0.0
 11
17537.560677999991
 21
17019.818160999981
 31
0.0
  0
LINE
  5
4420
  8
2-0
  6
CONTINUOUS
 62
     3
 10
17537.560677999991
 20
17019.818160999981
 30
0.0
 11
17537.560677999991
 21
17039.813277999991
 31
0.0
  0
LINE
  5
4421
  8
2-0
  6
CONTINUOUS
 62
     3
 10
17564.672164999989
 20
16980.204034999992
 30
0.0
 11
17534.674539999989
 21
16980.204034999992
 31
0.0
  0
LINE
  5
4422
  8
2-0
  6
CONTINUOUS
 62
     3
 10
17564.672164999989
 20
16998.199837999979
 30
0.0
 11
17564.672164999989
 21
16980.204034999992
 31
0.0
  0
LINE
  5
4423
  8
2-0
  6
CONTINUOUS
 62
     3
 10
17539.678762999989
 20
16998.199837999979
 30
0.0
 11
17564.672164999989
 21
16998.199837999979
 31
0.0
  0
LINE
  5
4424
  8
2-0
  6
CONTINUOUS
 62
     3
 10
17539.678762999989
 20
16993.199573999991
 30
0.0
 11
17539.678762999989
 21
16998.199837999979
 31
0.0
  0
LINE
  5
4425
  8
2-0
  6
CONTINUOUS
 62
     3
 10
17546.676360999962
 20
16993.199573999991
 30
0.0
 11
17539.678762999989
 21
16993.199573999991
 31
0.0
  0
LINE
  5
4426
  8
2-0
  6
CONTINUOUS
 62
     3
 10
17546.676360999962
 20
16288.717343499949
 30
0.0
 11
17539.678762999989
 21
16288.717343499949
 31
0.0
  0
LINE
  5
4427
  8
2-0
  6
CONTINUOUS
 62
     3
 10
17539.678762999989
 20
16288.717343499949
 30
0.0
 11
17539.678762999989
 21
16293.717607499961
 31
0.0
  0
LINE
  5
4428
  8
2-0
  6
CONTINUOUS
 62
     3
 10
17539.678762999989
 20
16293.717607499961
 30
0.0
 11
17564.672164999989
 21
16293.717607499961
 31
0.0
  0
LINE
  5
4429
  8
2-0
  6
CONTINUOUS
 62
     3
 10
17564.672164999989
 20
16293.717607499961
 30
0.0
 11
17564.672164999989
 21
16275.71586549998
 31
0.0
  0
LINE
  5
442A
  8
2-0
  6
CONTINUOUS
 62
     3
 10
17564.672164999989
 20
16275.71586549998
 30
0.0
 11
17534.674539999989
 21
16275.71586549998
 31
0.0
  0
LINE
  5
442B
  8
2-0
  6
CONTINUOUS
 62
     3
 10
17564.672164999989
 20
16291.81331049998
 30
0.0
 11
17564.672164999989
 21
16285.816359499981
 31
0.0
  0
LINE
  5
442C
  8
2-0
  6
CONTINUOUS
 62
     3
 10
17564.672164999989
 20
16285.816359499981
 30
0.0
 11
17534.674539999989
 21
16285.816359499981
 31
0.0
  0
LINE
  5
442D
  8
2-0
  6
CONTINUOUS
 62
     3
 10
17534.674539999989
 20
16285.816359499981
 30
0.0
 11
17534.674539999989
 21
16322.81653049998
 31
0.0
  0
LINE
  5
442E
  8
2-0
  6
CONTINUOUS
 62
     3
 10
17564.672164999989
 20
16322.81653049998
 30
0.0
 11
17534.674539999989
 21
16322.81653049998
 31
0.0
  0
LINE
  5
442F
  8
2-0
  6
CONTINUOUS
 62
     3
 10
17564.672164999989
 20
16316.81364049998
 30
0.0
 11
17564.672164999989
 21
16322.81653049998
 31
0.0
  0
LINE
  5
4430
  8
2-0
  6
CONTINUOUS
 62
     3
 10
17564.672164999989
 20
16332.91207549998
 30
0.0
 11
17534.674539999989
 21
16332.91207549998
 31
0.0
  0
LINE
  5
4431
  8
2-0
  6
CONTINUOUS
 62
     3
 10
17564.672164999989
 20
16314.904394499979
 30
0.0
 11
17564.672164999989
 21
16332.91207549998
 31
0.0
  0
LINE
  5
4432
  8
2-0
  6
CONTINUOUS
 62
     3
 10
17539.678762999989
 20
16314.904394499979
 30
0.0
 11
17564.672164999989
 21
16314.904394499979
 31
0.0
  0
LINE
  5
4433
  8
2-0
  6
CONTINUOUS
 62
     3
 10
17539.678762999989
 20
16319.91059749998
 30
0.0
 11
17539.678762999989
 21
16314.904394499979
 31
0.0
  0
LINE
  5
4434
  8
2-0
  6
CONTINUOUS
 62
     3
 10
17546.676360999962
 20
16319.91059749998
 30
0.0
 11
17539.678762999989
 21
16319.91059749998
 31
0.0
  0
LINE
  5
4435
  8
2-0
  6
CONTINUOUS
 62
     3
 10
17546.676360999962
 20
15619.15061399998
 30
0.0
 11
17539.678762999989
 21
15619.15061399998
 31
0.0
  0
LINE
  5
4436
  8
2-0
  6
CONTINUOUS
 62
     3
 10
17539.678762999989
 20
15619.15061399998
 30
0.0
 11
17539.678762999989
 21
15614.15628899999
 31
0.0
  0
LINE
  5
4437
  8
2-0
  6
CONTINUOUS
 62
     3
 10
17539.678762999989
 20
15614.15628899999
 30
0.0
 11
17564.672164999989
 21
15614.15628899999
 31
0.0
  0
LINE
  5
4438
  8
2-0
  6
CONTINUOUS
 62
     3
 10
17564.672164999989
 20
15614.15628899999
 30
0.0
 11
17564.672164999989
 21
15632.152092
 31
0.0
  0
LINE
  5
4439
  8
2-0
  6
CONTINUOUS
 62
     3
 10
17564.672164999989
 20
15632.152092
 30
0.0
 11
17534.674539999989
 21
15632.152092
 31
0.0
  0
LINE
  5
443A
  8
2-0
  6
CONTINUOUS
 62
     3
 10
17564.672164999989
 20
15616.05464699999
 30
0.0
 11
17564.672164999989
 21
15622.056547
 31
0.0
  0
LINE
  5
443B
  8
2-0
  6
CONTINUOUS
 62
     3
 10
17564.672164999989
 20
15622.056547
 30
0.0
 11
17534.674539999989
 21
15622.056547
 31
0.0
  0
LINE
  5
443C
  8
2-0
  6
CONTINUOUS
 62
     3
 10
17534.674539999989
 20
15585.05736599999
 30
0.0
 11
17534.674539999989
 21
15622.056547
 31
0.0
  0
LINE
  5
443D
  8
2-0
  6
CONTINUOUS
 62
     3
 10
17564.672164999989
 20
15585.05736599999
 30
0.0
 11
17534.674539999989
 21
15585.05736599999
 31
0.0
  0
LINE
  5
443E
  8
2-0
  6
CONTINUOUS
 62
     3
 10
17564.672164999989
 20
15591.05431699998
 30
0.0
 11
17564.672164999989
 21
15585.05736599999
 31
0.0
  0
LINE
  5
443F
  8
2-0
  6
CONTINUOUS
 62
     3
 10
17564.672164999989
 20
15574.95588199998
 30
0.0
 11
17534.674539999989
 21
15574.95588199998
 31
0.0
  0
LINE
  5
4440
  8
2-0
  6
CONTINUOUS
 62
     3
 10
17564.672164999989
 20
15592.963562999979
 30
0.0
 11
17564.672164999989
 21
15574.95588199998
 31
0.0
  0
LINE
  5
4441
  8
2-0
  6
CONTINUOUS
 62
     3
 10
17539.678762999989
 20
15592.963562999979
 30
0.0
 11
17564.672164999989
 21
15592.963562999979
 31
0.0
  0
LINE
  5
4442
  8
2-0
  6
CONTINUOUS
 62
     3
 10
17539.678762999989
 20
15587.963298999999
 30
0.0
 11
17539.678762999989
 21
15592.963562999979
 31
0.0
  0
LINE
  5
4443
  8
2-0
  6
CONTINUOUS
 62
     3
 10
17546.676360999962
 20
15587.963298999999
 30
0.0
 11
17539.678762999989
 21
15587.963298999999
 31
0.0
  0
LINE
  5
4444
  8
2-0
  6
CONTINUOUS
 62
     3
 10
17534.674539999989
 20
16980.204034999992
 30
0.0
 11
17534.674539999989
 21
16332.91207549998
 31
0.0
  0
LINE
  5
4445
  8
2-0
  6
CONTINUOUS
 62
     3
 10
17534.674539999989
 20
17134.81433299998
 30
0.0
 11
17534.674539999989
 21
16989.812617999989
 31
0.0
  0
LINE
  5
4446
  8
2-0
  6
CONTINUOUS
 62
     3
 10
17622.561205999991
 20
17104.814728999969
 30
0.0
 11
17622.561205999991
 21
17019.818160999981
 31
0.0
  0
LINE
  5
4447
  8
2-0
  6
CONTINUOUS
 62
     3
 10
17546.676360999962
 20
14886.72229199998
 30
0.0
 11
17539.678762999989
 21
14886.72229199998
 31
0.0
  0
LINE
  5
4448
  8
2-0
  6
CONTINUOUS
 62
     3
 10
17539.678762999989
 20
14886.72229199998
 30
0.0
 11
17539.678762999989
 21
14891.71661799998
 31
0.0
  0
LINE
  5
4449
  8
2-0
  6
CONTINUOUS
 62
     3
 10
17539.678762999989
 20
14891.71661799998
 30
0.0
 11
17564.672164999989
 21
14891.71661799998
 31
0.0
  0
LINE
  5
444A
  8
2-0
  6
CONTINUOUS
 62
     3
 10
17564.672164999989
 20
14891.71661799998
 30
0.0
 11
17564.672164999989
 21
14873.720813999969
 31
0.0
  0
LINE
  5
444B
  8
2-0
  6
CONTINUOUS
 62
     3
 10
17564.672164999989
 20
14873.720813999969
 30
0.0
 11
17534.674539999989
 21
14873.720813999969
 31
0.0
  0
LINE
  5
444C
  8
2-0
  6
CONTINUOUS
 62
     3
 10
17564.672164999989
 20
14889.81924899998
 30
0.0
 11
17564.672164999989
 21
14883.81635899998
 31
0.0
  0
LINE
  5
444D
  8
2-0
  6
CONTINUOUS
 62
     3
 10
17564.672164999989
 20
14883.81635899998
 30
0.0
 11
17534.674539999989
 21
14883.81635899998
 31
0.0
  0
LINE
  5
444E
  8
2-0
  6
CONTINUOUS
 62
     3
 10
17534.674539999989
 20
14883.81635899998
 30
0.0
 11
17534.674539999989
 21
14920.816530999949
 31
0.0
  0
LINE
  5
444F
  8
2-0
  6
CONTINUOUS
 62
     3
 10
17564.672164999989
 20
14920.816530999949
 30
0.0
 11
17534.674539999989
 21
14920.816530999949
 31
0.0
  0
LINE
  5
4450
  8
2-0
  6
CONTINUOUS
 62
     3
 10
17564.672164999989
 20
14914.819578999981
 30
0.0
 11
17564.672164999989
 21
14920.816530999949
 31
0.0
  0
LINE
  5
4451
  8
2-0
  6
CONTINUOUS
 62
     3
 10
17564.672164999989
 20
14930.91702399998
 30
0.0
 11
17534.674539999989
 21
14930.91702399998
 31
0.0
  0
LINE
  5
4452
  8
2-0
  6
CONTINUOUS
 62
     3
 10
17564.672164999989
 20
14912.910332999991
 30
0.0
 11
17564.672164999989
 21
14930.91702399998
 31
0.0
  0
LINE
  5
4453
  8
2-0
  6
CONTINUOUS
 62
     3
 10
17539.678762999989
 20
14912.910332999991
 30
0.0
 11
17564.672164999989
 21
14912.910332999991
 31
0.0
  0
LINE
  5
4454
  8
2-0
  6
CONTINUOUS
 62
     3
 10
17539.678762999989
 20
14917.91554599998
 30
0.0
 11
17539.678762999989
 21
14912.910332999991
 31
0.0
  0
LINE
  5
4455
  8
2-0
  6
CONTINUOUS
 62
     3
 10
17546.676360999962
 20
14917.91554599998
 30
0.0
 11
17539.678762999989
 21
14917.91554599998
 31
0.0
  0
LINE
  5
4456
  8
2-0
  6
CONTINUOUS
 62
     3
 10
17564.672164999989
 20
13860.31837199998
 30
0.0
 11
17564.672164999989
 21
13866.32324099998
 31
0.0
  0
LINE
  5
4457
  8
2-0
  6
CONTINUOUS
 62
     3
 10
17564.672164999989
 20
13866.32324099998
 30
0.0
 11
17534.674539999989
 21
13866.32324099998
 31
0.0
  0
LINE
  5
4458
  8
2-0
  6
CONTINUOUS
 62
     3
 10
17534.674539999989
 20
13866.32324099998
 30
0.0
 11
17534.674539999989
 21
13751.319149999979
 31
0.0
  0
LINE
  5
4459
  8
2-0
  6
CONTINUOUS
 62
     3
 10
17534.674539999989
 20
13751.319149999979
 30
0.0
 11
17619.673087999989
 21
13751.319149999979
 31
0.0
  0
LINE
  5
445A
  8
2-0
  6
CONTINUOUS
 62
     3
 10
17619.673087999989
 20
13751.319149999979
 30
0.0
 11
17619.673087999989
 21
13836.31472899998
 31
0.0
  0
LINE
  5
445B
  8
2-0
  6
CONTINUOUS
 62
     3
 10
17619.673087999989
 20
13836.31472899998
 30
0.0
 11
17587.676149999981
 21
13836.31472899998
 31
0.0
  0
LINE
  5
445C
  8
2-0
  6
CONTINUOUS
 62
     3
 10
17546.676360999962
 20
13863.352973999979
 30
0.0
 11
17539.678762999989
 21
13863.352973999979
 31
0.0
  0
LINE
  5
445D
  8
2-0
  6
CONTINUOUS
 62
     3
 10
17539.678762999989
 20
13863.352973999979
 30
0.0
 11
17539.678762999989
 21
13858.355678999949
 31
0.0
  0
LINE
  5
445E
  8
2-0
  6
CONTINUOUS
 62
     3
 10
17539.678762999989
 20
13858.355678999949
 30
0.0
 11
17564.672164999989
 21
13858.355678999949
 31
0.0
  0
LINE
  5
445F
  8
2-0
  6
CONTINUOUS
 62
     3
 10
17564.672164999989
 20
13858.355678999949
 30
0.0
 11
17564.672164999989
 21
13876.35445199997
 31
0.0
  0
LINE
  5
4460
  8
2-0
  6
CONTINUOUS
 62
     3
 10
17564.672164999989
 20
13876.35445199997
 30
0.0
 11
17534.674539999989
 21
13876.35445199997
 31
0.0
  0
LINE
  5
4461
  8
2-0
  6
CONTINUOUS
 62
     3
 10
17534.674539999989
 20
14930.91702399998
 30
0.0
 11
17534.674539999989
 21
15574.95588199998
 31
0.0
  0
LINE
  5
4462
  8
2-0
  6
CONTINUOUS
 62
     3
 10
17534.674539999989
 20
18549.91257099999
 30
0.0
 11
17534.674539999989
 21
19193.722298499961
 31
0.0
  0
LINE
  5
4463
  8
2-0
  6
CONTINUOUS
 62
     3
 10
17534.674539999989
 20
16275.71586549998
 30
0.0
 11
17534.674539999989
 21
15632.152092
 31
0.0
  0
LINE
  5
4464
  8
2-0
  6
CONTINUOUS
 62
     3
 10
25955.674407999959
 20
19907.818556999991
 30
0.0
 11
25955.674407999959
 21
20022.814729999998
 31
0.0
  0
LINE
  5
4465
  8
2-0
  6
CONTINUOUS
 62
     3
 10
21975.136137000001
 20
17326.027487999982
 30
0.0
 11
21817.255674
 21
17445.111367000001
 31
0.0
  0
LINE
  5
4466
  8
2-0
  6
CONTINUOUS
 62
     3
 10
22363.098024999999
 20
17409.159350999991
 30
0.0
 11
22117.255674
 21
17594.594712999999
 31
0.0
  0
LINE
  5
4467
  8
2-0
  6
CONTINUOUS
 62
     3
 10
22117.255674
 20
16524.714408
 30
0.0
 11
21757.147592000001
 21
16796.341968000001
 31
0.0
  0
LINE
  5
4468
  8
2-0
  6
CONTINUOUS
 62
     3
 10
21757.147592000001
 20
16796.341968000001
 30
0.0
 11
22363.098024999999
 21
17409.159350999991
 31
0.0
  0
LINE
  5
4469
  8
2-0
  6
CONTINUOUS
 62
     3
 10
21817.255674
 20
16375.23205199999
 30
0.0
 11
21369.183724999992
 21
16713.212084999981
 31
0.0
  0
LINE
  5
446A
  8
2-0
  6
CONTINUOUS
 62
     3
 10
21975.136137000001
 20
17326.027487999982
 30
0.0
 11
21369.183724999992
 21
16713.212084999981
 31
0.0
  0
LINE
  5
446B
  8
2-0
  6
CONTINUOUS
 62
     3
 10
22117.255674
 20
20129.536514999982
 30
0.0
 11
22117.255674
 21
20324.022236000001
 31
0.0
  0
LINE
  5
446C
  8
2-0
  6
CENTER2
 62
     6
 10
16247.71626799998
 20
19980.316444999949
 30
0.0
 11
26805.675727999958
 21
19980.316444999949
 31
0.0
  0
LINE
  5
446D
  8
2-0
  6
CENTER2
 62
     6
 10
16247.71626799998
 20
17062.316444999979
 30
0.0
 11
26805.675727999958
 21
17062.316444999979
 31
0.0
  0
LINE
  5
446E
  8
2-0
  6
CENTER2
 62
     6
 10
16247.71626799998
 20
13793.81644499998
 30
0.0
 11
26805.675727999958
 21
13793.81644499998
 31
0.0
  0
LINE
  5
446F
  8
2-0
  6
CONTINUOUS
 62
     3
 10
21817.255674
 20
19937.818160999981
 30
0.0
 11
17534.674539999989
 21
19937.818160999981
 31
0.0
  0
LINE
  5
4470
  8
2-0
  6
CONTINUOUS
 62
     3
 10
22117.255674
 20
19937.818160999981
 30
0.0
 11
25874.67250799996
 21
19937.818160999981
 31
0.0
  0
LINE
  5
4471
  8
2-0
  6
CONTINUOUS
 62
     3
 10
17534.674539999989
 20
14229.854175
 30
0.0
 11
17534.674539999989
 21
14873.720813999969
 31
0.0
  0
LINE
  5
4472
  8
2-0
  6
CENTER2
 62
     6
 10
17577.170844999979
 20
21222.814729999998
 30
0.0
 11
17577.170844999979
 21
13168.05301099998
 31
0.0
  0
LINE
  5
4473
  8
2-0
  6
CENTER2
 62
     6
 10
25913.176123999961
 20
21222.814729999998
 30
0.0
 11
25913.176123999961
 21
13168.05301099998
 31
0.0
  0
LINE
  5
4474
  8
2-0
  6
CONTINUOUS
 62
     3
 10
25955.674407999959
 20
19897.521100999991
 30
0.0
 11
25955.674407999959
 21
19250.912570499971
 31
0.0
  0
LINE
  5
4475
  8
2-0
  6
CONTINUOUS
 62
     3
 10
21817.255674
 20
17445.111367000001
 30
0.0
 11
21817.255674
 21
20324.022236000001
 31
0.0
  0
LINE
  5
4476
  8
2-0
  6
CONTINUOUS
 62
     3
 10
22117.255674
 20
17594.594712999999
 30
0.0
 11
22117.255674
 21
20129.536514999982
 31
0.0
  0
LINE
  5
4477
  8
2-0
  6
CONTINUOUS
 62
     3
 10
17534.674539999989
 20
19897.521100999991
 30
0.0
 11
17534.674539999989
 21
19250.912570499971
 31
0.0
  0
LINE
  5
4478
  8
2-0
  6
CONTINUOUS
 62
     3
 10
21817.255674
 20
16375.23205199999
 30
0.0
 11
21817.255674
 21
13602.41184399998
 31
0.0
  0
LINE
  5
4479
  8
2-0
  6
CONTINUOUS
 62
     3
 10
22117.255674
 20
16524.714408
 30
0.0
 11
22117.255674
 21
13602.41184399998
 31
0.0
  0
LINE
  5
447A
  8
2-0
  6
CENTER2
 62
     6
 10
22995.176123999961
 20
21222.814729999998
 30
0.0
 11
22995.176123999961
 21
13602.41184399998
 31
0.0
  0
LINE
  5
447B
  8
2-0
  6
CENTER2
 62
     6
 10
20495.17084499999
 20
21222.814729999998
 30
0.0
 11
20495.17084499999
 21
13602.41184399998
 31
0.0
  0
LINE
  5
447C
  8
2-0
  6
CONTINUOUS
 62
     3
 10
17546.676360999962
 20
14185.72278699999
 30
0.0
 11
17539.678762999989
 21
14185.72278699999
 31
0.0
  0
LINE
  5
447D
  8
2-0
  6
CONTINUOUS
 62
     3
 10
17539.678762999989
 20
14185.72278699999
 30
0.0
 11
17539.678762999989
 21
14190.717112999981
 31
0.0
  0
LINE
  5
447E
  8
2-0
  6
CONTINUOUS
 62
     3
 10
17539.678762999989
 20
14190.717112999981
 30
0.0
 11
17564.672164999989
 21
14190.717112999981
 31
0.0
  0
LINE
  5
447F
  8
2-0
  6
CONTINUOUS
 62
     3
 10
17564.672164999989
 20
14190.717112999981
 30
0.0
 11
17564.672164999989
 21
14172.72130899998
 31
0.0
  0
LINE
  5
4480
  8
2-0
  6
CONTINUOUS
 62
     3
 10
17564.672164999989
 20
14172.72130899998
 30
0.0
 11
17534.674539999989
 21
14172.72130899998
 31
0.0
  0
LINE
  5
4481
  8
2-0
  6
CONTINUOUS
 62
     3
 10
17564.672164999989
 20
14188.818755
 30
0.0
 11
17564.672164999989
 21
14182.81685399999
 31
0.0
  0
LINE
  5
4482
  8
2-0
  6
CONTINUOUS
 62
     3
 10
17564.672164999989
 20
14182.81685399999
 30
0.0
 11
17534.674539999989
 21
14182.81685399999
 31
0.0
  0
LINE
  5
4483
  8
2-0
  6
CONTINUOUS
 62
     3
 10
17534.674539999989
 20
14182.81685399999
 30
0.0
 11
17534.674539999989
 21
14219.81603599996
 31
0.0
  0
LINE
  5
4484
  8
2-0
  6
CONTINUOUS
 62
     3
 10
17564.672164999989
 20
14219.81603599996
 30
0.0
 11
17534.674539999989
 21
14219.81603599996
 31
0.0
  0
LINE
  5
4485
  8
2-0
  6
CONTINUOUS
 62
     3
 10
17564.672164999989
 20
14213.820073999999
 30
0.0
 11
17564.672164999989
 21
14219.81603599996
 31
0.0
  0
LINE
  5
4486
  8
2-0
  6
CONTINUOUS
 62
     3
 10
17564.672164999989
 20
14229.917518999981
 30
0.0
 11
17534.674539999989
 21
14229.917518999981
 31
0.0
  0
LINE
  5
4487
  8
2-0
  6
CONTINUOUS
 62
     3
 10
17564.672164999989
 20
14211.909838999971
 30
0.0
 11
17564.672164999989
 21
14229.917518999981
 31
0.0
  0
LINE
  5
4488
  8
2-0
  6
CONTINUOUS
 62
     3
 10
17539.678762999989
 20
14211.909838999971
 30
0.0
 11
17564.672164999989
 21
14211.909838999971
 31
0.0
  0
LINE
  5
4489
  8
2-0
  6
CONTINUOUS
 62
     3
 10
17539.678762999989
 20
14216.91604099998
 30
0.0
 11
17539.678762999989
 21
14211.909838999971
 31
0.0
  0
LINE
  5
448A
  8
2-0
  6
CONTINUOUS
 62
     3
 10
17546.676360999962
 20
14216.91604099998
 30
0.0
 11
17539.678762999989
 21
14216.91604099998
 31
0.0
  0
LINE
  5
448B
  8
2-0
  6
CONTINUOUS
 62
     3
 10
17534.674539999989
 20
13876.35445199997
 30
0.0
 11
17534.674539999989
 21
14172.72130899998
 31
0.0
  0
LINE
  5
448C
  8
2-0
  6
CONTINUOUS
 62
     3
 10
17615.672480999991
 20
13836.31472899998
 30
0.0
 11
17615.672480999991
 21
20022.814729999998
 31
0.0
  0
LINE
  5
448D
  8
2-0
  6
CONTINUOUS
 62
     3
 10
25943.672586999961
 20
14185.72278699999
 30
0.0
 11
25950.674143999971
 21
14185.72278699999
 31
0.0
  0
LINE
  5
448E
  8
2-0
  6
CONTINUOUS
 62
     3
 10
25950.674143999971
 20
14185.72278699999
 30
0.0
 11
25950.674143999971
 21
14190.717112999981
 31
0.0
  0
LINE
  5
448F
  8
2-0
  6
CONTINUOUS
 62
     3
 10
25950.674143999971
 20
14190.717112999981
 30
0.0
 11
25925.676783999959
 21
14190.717112999981
 31
0.0
  0
LINE
  5
4490
  8
2-0
  6
CONTINUOUS
 62
     3
 10
25925.676783999959
 20
14190.717112999981
 30
0.0
 11
25925.676783999959
 21
14172.72130899998
 31
0.0
  0
LINE
  5
4491
  8
2-0
  6
CONTINUOUS
 62
     3
 10
25925.676783999959
 20
14172.72130899998
 30
0.0
 11
25955.674407999959
 21
14172.72130899998
 31
0.0
  0
LINE
  5
4492
  8
2-0
  6
CONTINUOUS
 62
     3
 10
25925.676783999959
 20
14188.818755
 30
0.0
 11
25925.676783999959
 21
14182.81685399999
 31
0.0
  0
LINE
  5
4493
  8
2-0
  6
CONTINUOUS
 62
     3
 10
25925.676783999959
 20
14182.81685399999
 30
0.0
 11
25955.674407999959
 21
14182.81685399999
 31
0.0
  0
LINE
  5
4494
  8
2-0
  6
CONTINUOUS
 62
     3
 10
25955.674407999959
 20
14182.81685399999
 30
0.0
 11
25955.674407999959
 21
14219.81603599996
 31
0.0
  0
LINE
  5
4495
  8
2-0
  6
CONTINUOUS
 62
     3
 10
25925.676783999959
 20
14219.81603599996
 30
0.0
 11
25955.674407999959
 21
14219.81603599996
 31
0.0
  0
LINE
  5
4496
  8
2-0
  6
CONTINUOUS
 62
     3
 10
25925.676783999959
 20
14213.820073999999
 30
0.0
 11
25925.676783999959
 21
14219.81603599996
 31
0.0
  0
LINE
  5
4497
  8
2-0
  6
CONTINUOUS
 62
     3
 10
25925.676783999959
 20
14229.917518999981
 30
0.0
 11
25955.674407999959
 21
14229.917518999981
 31
0.0
  0
LINE
  5
4498
  8
2-0
  6
CONTINUOUS
 62
     3
 10
25925.676783999959
 20
14211.909838999971
 30
0.0
 11
25925.676783999959
 21
14229.917518999981
 31
0.0
  0
LINE
  5
4499
  8
2-0
  6
CONTINUOUS
 62
     3
 10
25950.674143999971
 20
14211.909838999971
 30
0.0
 11
25925.676783999959
 21
14211.909838999971
 31
0.0
  0
LINE
  5
449A
  8
2-0
  6
CONTINUOUS
 62
     3
 10
25950.674143999971
 20
14216.91604099998
 30
0.0
 11
25950.674143999971
 21
14211.909838999971
 31
0.0
  0
LINE
  5
449B
  8
2-0
  6
CONTINUOUS
 62
     3
 10
25943.672586999961
 20
14216.91604099998
 30
0.0
 11
25950.674143999971
 21
14216.91604099998
 31
0.0
  0
LINE
  5
449C
  8
2-0
  6
CONTINUOUS
 62
     3
 10
25955.674407999959
 20
13876.35445199997
 30
0.0
 11
25955.674407999959
 21
14172.72130899998
 31
0.0
  0
LINE
  5
449D
  8
2-0
  6
CONTINUOUS
 62
     3
 10
25874.67250799996
 20
13836.31472899998
 30
0.0
 11
25874.67250799996
 21
20022.814729999998
 31
0.0
  0
LINE
  5
449E
  8
2-0
  6
CONTINUOUS
 62
     6
 10
19149.29616199997
 20
18715.333811999979
 30
0.0
 11
20179.64548099996
 21
18715.333811999979
 31
0.0
  0
LINE
  5
449F
  8
2-0
  6
CONTINUOUS
 62
     3
 10
20452.668601000001
 20
19179.819150499981
 30
0.0
 11
20537.669129000002
 21
19179.819150499981
 31
0.0
  0
LINE
  5
44A0
  8
2-0
  6
CONTINUOUS
 62
     3
 10
20537.669129000002
 20
19264.813739499969
 30
0.0
 11
20452.668601000001
 21
19264.813739499969
 31
0.0
  0
LINE
  5
44A1
  8
2-0
  6
CONTINUOUS
 62
     3
 10
20452.668601000001
 20
19264.813739499969
 30
0.0
 11
20452.668601000001
 21
19179.819150499981
 31
0.0
  0
LINE
  5
44A2
  8
2-0
  6
CONTINUOUS
 62
     3
 10
20537.669129000002
 20
19179.819150499981
 30
0.0
 11
20537.669129000002
 21
19264.813739499969
 31
0.0
  0
ARC
  5
44A3
  8
0-1
  6
CONTINUOUS
 62
     3
 10
25844.678841999961
 20
8343.2285150000007
 30
0.0
 40
5.0
 50
0.0
 51
90.0
  0
ARC
  5
44A4
  8
0-1
  6
CONTINUOUS
 62
     3
 10
25844.678841999961
 20
8311.2286080000031
 30
0.0
 40
5.0
 50
269.9999850001808
 51
0.0
  0
ARC
  5
44A5
  8
0-1
  6
CONTINUOUS
 62
     3
 10
25535.248415999959
 20
8343.2285150000007
 30
0.0
 40
5.0
 50
90.0
 51
224.9999849999752
  0
ARC
  5
44A6
  8
0-1
  6
CONTINUOUS
 62
     3
 10
25567.24931299996
 20
8311.2286080000031
 30
0.0
 40
5.0
 50
224.9999849999752
 51
269.9999850001808
  0
ARC
  5
44A7
  8
0-1
  6
CONTINUOUS
 62
     3
 10
23373.105811000001
 20
8343.2285150000007
 30
0.0
 40
5.0
 50
314.99998500021468
 51
90.0
  0
ARC
  5
44A8
  8
0-1
  6
CONTINUOUS
 62
     3
 10
23341.104913999981
 20
8311.2286080000031
 30
0.0
 40
5.0
 50
269.9999850001808
 51
314.99998500021468
  0
ARC
  5
44A9
  8
0-1
  6
CONTINUOUS
 62
     3
 10
23063.677363999981
 20
8311.2286080000031
 30
0.0
 40
5.0
 50
180.0
 51
269.9999850001808
  0
ARC
  5
44AA
  8
0-1
  6
CONTINUOUS
 62
     3
 10
23063.677363999981
 20
8343.2285150000007
 30
0.0
 40
5.0
 50
90.0
 51
180.0
  0
ARC
  5
44AB
  8
0-1
  6
CONTINUOUS
 62
     3
 10
22926.67686299999
 20
8343.2285150000007
 30
0.0
 40
5.0
 50
0.0
 51
90.0
  0
ARC
  5
44AC
  8
0-1
  6
CONTINUOUS
 62
     3
 10
22926.67686299999
 20
8311.2286080000031
 30
0.0
 40
5.0
 50
269.9999850001808
 51
0.0
  0
ARC
  5
44AD
  8
0-1
  6
CONTINUOUS
 62
     3
 10
22649.245353999991
 20
8311.2286080000031
 30
0.0
 40
5.0
 50
224.9999849999752
 51
269.9999850001808
  0
ARC
  5
44AE
  8
0-1
  6
CONTINUOUS
 62
     3
 10
22617.246435999969
 20
8343.2285150000007
 30
0.0
 40
5.0
 50
90.0
 51
224.9999849999752
  0
ARC
  5
44AF
  8
0-1
  6
CONTINUOUS
 62
     3
 10
20563.67208599997
 20
8311.2286080000031
 30
0.0
 40
5.0
 50
180.0
 51
269.9999850001808
  0
ARC
  5
44B0
  8
0-1
  6
CONTINUOUS
 62
     3
 10
20563.67208599997
 20
8343.2285150000007
 30
0.0
 40
5.0
 50
90.0
 51
180.0
  0
ARC
  5
44B1
  8
0-1
  6
CONTINUOUS
 62
     3
 10
20841.101614999981
 20
8311.2286080000031
 30
0.0
 40
5.0
 50
269.9999850001808
 51
314.99998500021468
  0
ARC
  5
44B2
  8
0-1
  6
CONTINUOUS
 62
     3
 10
20426.671583999989
 20
8311.2286080000031
 30
0.0
 40
5.0
 50
269.9999850001808
 51
0.0
  0
ARC
  5
44B3
  8
0-1
  6
CONTINUOUS
 62
     3
 10
20426.671583999989
 20
8343.2285150000007
 30
0.0
 40
5.0
 50
0.0
 51
90.0
  0
ARC
  5
44B4
  8
0-1
  6
CONTINUOUS
 62
     3
 10
20873.100532999972
 20
8343.2285150000007
 30
0.0
 40
5.0
 50
314.99998500021468
 51
90.0
  0
ARC
  5
44B5
  8
0-1
  6
CONTINUOUS
 62
     3
 10
20117.241157999979
 20
8343.2285150000007
 30
0.0
 40
5.0
 50
90.0
 51
224.9999849999752
  0
ARC
  5
44B6
  8
0-1
  6
CONTINUOUS
 62
     3
 10
20149.244034999982
 20
8311.2286080000031
 30
0.0
 40
5.0
 50
224.9999849999752
 51
269.9999850001808
  0
ARC
  5
44B7
  8
0-1
  6
CONTINUOUS
 62
     3
 10
17955.10053299999
 20
8343.2285150000007
 30
0.0
 40
5.0
 50
314.99998500021468
 51
90.0
  0
ARC
  5
44B8
  8
0-1
  6
CONTINUOUS
 62
     3
 10
17645.67010599999
 20
8343.2285150000007
 30
0.0
 40
5.0
 50
90.0
 51
180.0
  0
ARC
  5
44B9
  8
0-1
  6
CONTINUOUS
 62
     3
 10
17645.67010599999
 20
8311.2286080000031
 30
0.0
 40
5.0
 50
180.0
 51
269.9999850001808
  0
ARC
  5
44BA
  8
0-1
  6
CONTINUOUS
 62
     3
 10
17923.099635999992
 20
8311.2286080000031
 30
0.0
 40
5.0
 50
269.9999850001808
 51
314.99998500021468
  0
CIRCLE
  5
44BB
  8
0-5
  6
CONTINUOUS
 62
     4
 10
25913.176123999961
 20
4072.7289510000001
 30
0.0
 40
199.9999949999999
  0
CIRCLE
  5
44BC
  8
0-5
  6
CONTINUOUS
 62
     4
 10
22995.176123999961
 20
4072.7289510000001
 30
0.0
 40
199.9999949999999
  0
CIRCLE
  5
44BD
  8
0-5
  6
CONTINUOUS
 62
     4
 10
20495.17084499999
 20
4072.7289510000001
 30
0.0
 40
199.9999949999999
  0
CIRCLE
  5
44BE
  8
0-5
  6
CONTINUOUS
 62
     4
 10
17577.170844999979
 20
4072.7289510000001
 30
0.0
 40
199.9999949999999
  0
CIRCLE
  5
44BF
  8
2-0
  6
CONTINUOUS
 62
     4
 10
16047.718577999991
 20
19980.316444999949
 30
0.0
 40
200.00001
  0
CIRCLE
  5
44C0
  8
2-0
  6
CONTINUOUS
 62
     4
 10
16047.718577999991
 20
17062.316444999979
 30
0.0
 40
200.00001
  0
CIRCLE
  5
44C1
  8
2-0
  6
CONTINUOUS
 62
     4
 10
16047.718577999991
 20
13793.81644499998
 30
0.0
 40
200.00001
  0
CIRCLE
  5
44C2
  8
2-0
  6
CONTINUOUS
 62
     4
 10
20495.17084499999
 20
21422.819349000001
 30
0.0
 40
200.00001
  0
CIRCLE
  5
44C3
  8
2-0
  6
CONTINUOUS
 62
     4
 10
17577.170844999979
 20
21422.819349000001
 30
0.0
 40
200.00001
  0
CIRCLE
  5
44C4
  8
2-0
  6
CONTINUOUS
 62
     4
 10
22995.176123999961
 20
21422.819349000001
 30
0.0
 40
200.00001
  0
CIRCLE
  5
44C5
  8
2-0
  6
CONTINUOUS
 62
     4
 10
25913.176123999961
 20
21422.819349000001
 30
0.0
 40
200.00001
  0
TEXT
  5
44C6
  8
0-5
  6
CONTINUOUS
 62
     7
 10
25861.241473999969
 20
3988.2280040000001
 30
0.0
 40
160.0
  1
n
 72
     4
 11
25914.574807333302
 21
4041.5613373333331
 31
0.0
  0
TEXT
  5
44C7
  8
0-5
  6
CONTINUOUS
 62
     7
 10
22829.05101017523
 20
4002.745112439397
 30
0.0
 40
140.0
  1
n-1
 72
     4
 11
22992.384343508558
 21
4072.745112439397
 31
0.0
  0
TEXT
  5
44C8
  8
0-5
  6
CONTINUOUS
 62
     7
 10
16958.994905999989
 20
6842.0889997419981
 30
0.0
 40
160.0
  1
(2131.5)
 50
90.0
 72
     4
 11
16878.994905999989
 21
7295.4223330753312
 31
0.0
  0
TEXT
  5
44C9
  8
0-5
  6
CONTINUOUS
 62
     7
 10
20448.24239799998
 20
3986.1989969999981
 30
0.0
 40
160.0
  1
2
 72
     4
 11
20501.575731333309
 21
4066.1989969999981
 31
0.0
  0
TEXT
  5
44CA
  8
0-5
  6
CONTINUOUS
 62
     7
 10
17530.23843899999
 20
3986.1989969999981
 30
0.0
 40
160.0
  1
1
 72
     4
 11
17556.905105666661
 21
4066.1989969999981
 31
0.0
  0
TEXT
  5
44CB
  8
0-5
  6
CONTINUOUS
 62
     7
 10
15695.29003899999
 20
6400.5750029999999
 30
0.0
 40
160.0
  1
G.L
 72
     4
 11
15855.29003899999
 21
6480.5750029999999
 31
0.0
  0
TEXT
  5
44CC
  8
2-0
  6
CONTINUOUS
 62
     7
 10
24310.021430999968
 20
13233.817566999969
 30
0.0
 40
160.0
  1
前柱（右）
 50
0.000213
 72
     4
 11
24726.021133592989
 21
13313.81911350076
 31
0.0
  0
TEXT
  5
44CD
  8
2-0
  6
CONTINUOUS
 62
     7
 10
24514.616553999971
 20
16512.809582999991
 30
0.0
 40
160.0
  1
壁パネル
 50
359.99982299999999
 72
     4
 11
24877.283467803521
 21
16592.808462637859
 31
0.0
  0
TEXT
  5
44CE
  8
2-0
  6
CONTINUOUS
 62
     7
 10
24234.613649999948
 20
17349.997479000001
 30
0.0
 40
160.0
  1
中柱（左右）
 50
0.000354
 72
     4
 11
24751.946489046171
 21
17430.000675324649
 31
0.0
  0
TEXT
  5
44CF
  8
2-0
  6
CONTINUOUS
 62
     7
 10
24914.615893999959
 20
14206.858832999969
 30
0.0
 40
160.0
  1
下枠
 50
0.001063
 72
     4
 11
25085.281076409261
 21
14286.86199933926
 31
0.0
  0
TEXT
  5
44D0
  8
2-0
  6
CONTINUOUS
 62
     7
 10
24409.581317999971
 20
18953.26621749996
 30
0.0
 40
160.0
  1
間柱（側）
 72
     4
 11
24830.9146513333
 21
19033.26621749996
 31
0.0
  0
TEXT
  5
44D1
  8
2-0
  6
CONTINUOUS
 62
     7
 10
26728.171636999959
 20
20832.813937999999
 30
0.0
 40
160.0
  1
後柱（左右）
 50
0.000354
 72
     4
 11
27240.171142712948
 21
20912.817101372832
 31
0.0
  0
TEXT
  5
44D2
  8
2-0
  6
CONTINUOUS
 62
     7
 10
23394.264885999972
 20
14371.654744999971
 30
0.0
 40
160.0
  1
前柱（中）
 72
     4
 11
23810.264885999972
 21
14451.654744999971
 31
0.0
  0
TEXT
  5
44D3
  8
2-0
  6
CONTINUOUS
 62
     7
 10
19331.039721000008
 20
19385.696777000001
 30
0.0
 40
160.0
  1
間柱（後）
 72
     4
 11
19752.37305433334
 21
19465.696777000001
 31
0.0
  0
TEXT
  5
44D4
  8
2-0
  6
CONTINUOUS
 62
     7
 10
23265.46948899997
 20
19454.441498
 30
0.0
 40
160.0
  1
後柱（中）
 72
     4
 11
23681.46948899997
 21
19534.441498
 31
0.0
  0
TEXT
  5
44D5
  8
2-0
  6
CONTINUOUS
 62
     7
 10
15999.719210999971
 20
19885.836003
 30
0.0
 40
160.0
  1
C
 72
     4
 11
16053.05254433331
 21
19965.836003
 31
0.0
  0
TEXT
  5
44D6
  8
2-0
  6
CONTINUOUS
 62
     7
 10
15999.939926999979
 20
16991.922363000001
 30
0.0
 40
160.0
  1
B
 72
     4
 11
16053.273260333321
 21
17071.922363000001
 31
0.0
  0
TEXT
  5
44D7
  8
2-0
  6
CONTINUOUS
 62
     7
 10
15999.982486999979
 20
13705.209233999971
 30
0.0
 40
160.0
  1
A
 72
     4
 11
16053.315820333321
 21
13785.209233999971
 31
0.0
  0
TEXT
  5
44D8
  8
2-0
  6
CONTINUOUS
 62
     7
 10
20443.539061999989
 20
21327.293720000001
 30
0.0
 40
160.0
  1
2
 72
     4
 11
20496.872395333321
 21
21407.293720000001
 31
0.0
  0
TEXT
  5
44D9
  8
2-0
  6
CONTINUOUS
 62
     7
 10
17532.964235999989
 20
21334.051796999989
 30
0.0
 40
160.0
  1
1
 72
     4
 11
17559.63090266666
 21
21414.051796999989
 31
0.0
  0
TEXT
  5
44DA
  8
2-0
  6
CONTINUOUS
 62
     7
 10
25861.770005999952
 20
21342.431099000001
 30
0.0
 40
160.0
  1
n
 72
     4
 11
25915.10333933328
 21
21395.76443233333
 31
0.0
  0
TEXT
  5
44DB
  8
2-0
  6
CONTINUOUS
 62
     7
 10
22835.221124999978
 20
21354.927800000001
 30
0.0
 40
140.0
  1
n-1
 72
     4
 11
22998.55445833331
 21
21424.927800000001
 31
0.0
  0
TEXT
  5
44DC
  8
2-0
  6
CONTINUOUS
 62
     7
 10
20923.42971299999
 20
11686.942224
 30
0.0
 40
160.0
  1
平 面 図
 50
0.000266
 72
     4
 11
21280.762699683812
 21
11761.610549612949
 31
0.0
  0
TEXT
  5
44DD
  8
2-0
  6
CONTINUOUS
 62
     7
 10
20119.867900000001
 20
3254.289569999999
 30
0.0
 40
160.0
  1
正 面 立 面 図
 72
     4
 11
20765.20123333333
 21
3334.289569999999
 31
0.0
  0
TEXT
  5
44DE
  8
2-0
  6
CONTINUOUS
 62
     7
 10
19271.27805599997
 20
18788.33449899996
 30
0.0
 40
160.0
  1
梁補助柱
 72
     4
 11
19633.944722666642
 21
18868.334498999971
 31
0.0
  0
CIRCLE
  5
44DF
  8
0-4
  6
CONTINUOUS
 62
     4
 10
19036.17084499999
 20
6598.784693999999
 30
0.0
 40
18.487504999999981
  0
CIRCLE
  5
44E0
  8
0-4
  6
CONTINUOUS
 62
     4
 10
24454.176123999961
 20
6598.784693999999
 30
0.0
 40
18.487504999999981
  0
TEXT
  5
44E1
  8
2-0
  6
CONTINUOUS
 62
     7
 10
22116.69341847095
 20
3281.4849389999981
 30
0.0
 40
160.0
  1
1
 72
     4
 11
22143.360085137621
 21
3361.484938999999
 31
0.0
  0
TEXT
  5
44E2
  8
2-0
  6
CONTINUOUS
 62
     7
 10
22359.782135721649
 20
3201.486406999999
 30
0.0
 40
160.0
  1
80
 72
     4
 11
22479.782135721649
 21
3281.486406999999
 31
0.0
  0
TEXT
  5
44E3
  8
2-0
  6
CONTINUOUS
 62
     7
 10
21617.695384470961
 20
3254.289569999999
 30
0.0
 40
160.0
  1
(S=  /   )
 72
     4
 11
22177.695384470961
 21
3334.289569999999
 31
0.0
  0
TEXT
  5
44E4
  8
2-0
  6
CONTINUOUS
 62
     7
 10
22632.254884821439
 20
11708.80591861295
 30
0.0
 40
160.0
  1
1
 72
     4
 11
22658.921551488111
 21
11788.80591861295
 31
0.0
  0
TEXT
  5
44E5
  8
2-0
  6
CONTINUOUS
 62
     7
 10
22875.34360207212
 20
11628.807386612951
 30
0.0
 40
160.0
  1
80
 72
     4
 11
22995.34360207212
 21
11708.807386612951
 31
0.0
  0
TEXT
  5
44E6
  8
2-0
  6
CONTINUOUS
 62
     7
 10
22133.256850821439
 20
11681.610549612949
 30
0.0
 40
160.0
  1
(S=  /   )
 72
     4
 11
22693.256850821439
 21
11761.610549612949
 31
0.0
  0
LINE
  5
44E7
  8
SUNPOU
  6
CONTINUOUS
 10
17294.67084499999
 20
4912.7287530000031
 30
0.0
 11
16936.715838278891
 21
4912.7287530000031
 31
0.0
  0
LINE
  5
44E8
  8
SUNPOU
  6
CONTINUOUS
 10
26195.680082999981
 20
4912.7287530000031
 30
0.0
 11
26553.635089721069
 21
4912.7287530000031
 31
0.0
  0
LINE
  5
44E9
  8
2-0
  6
CONTINUOUS
 62
     3
 10
25173.676704999962
 20
20022.814729999998
 30
0.0
 11
25136.675542999961
 21
20022.814729999998
 31
0.0
  0
LINE
  5
44EA
  8
2-0
  6
CONTINUOUS
 62
     3
 10
25173.676704999962
 20
19992.811166999989
 30
0.0
 11
25173.676704999962
 21
20022.814729999998
 31
0.0
  0
LINE
  5
44EB
  8
2-0
  6
CONTINUOUS
 62
     3
 10
25167.676783999941
 20
19992.811166999989
 30
0.0
 11
25173.676704999962
 21
19992.811166999989
 31
0.0
  0
LINE
  5
44EC
  8
2-0
  6
CONTINUOUS
 62
     3
 10
25183.774228999959
 20
19992.811166999989
 30
0.0
 11
25183.774228999959
 21
20022.814729999998
 31
0.0
  0
LINE
  5
44ED
  8
2-0
  6
CONTINUOUS
 62
     3
 10
25165.770507999961
 20
19992.811166999989
 30
0.0
 11
25183.774228999959
 21
19992.811166999989
 31
0.0
  0
LINE
  5
44EE
  8
2-0
  6
CONTINUOUS
 62
     3
 10
25165.770507999961
 20
20017.820403999991
 30
0.0
 11
25165.770507999961
 21
19992.811166999989
 31
0.0
  0
LINE
  5
44EF
  8
2-0
  6
CONTINUOUS
 62
     3
 10
25170.77077199996
 20
20017.820403999991
 30
0.0
 11
25165.770507999961
 21
20017.820403999991
 31
0.0
  0
LINE
  5
44F0
  8
2-0
  6
CONTINUOUS
 62
     3
 10
25170.77077199996
 20
20010.814888000001
 30
0.0
 11
25170.77077199996
 21
20017.820403999991
 31
0.0
  0
LINE
  5
44F1
  8
2-0
  6
CONTINUOUS
 62
     3
 10
25139.581476999949
 20
20010.814888000001
 30
0.0
 11
25139.581476999949
 21
20017.820403999991
 31
0.0
  0
LINE
  5
44F2
  8
2-0
  6
CONTINUOUS
 62
     3
 10
25139.581476999949
 20
20017.820403999991
 30
0.0
 11
25144.581740999962
 21
20017.820403999991
 31
0.0
  0
LINE
  5
44F3
  8
2-0
  6
CONTINUOUS
 62
     3
 10
25144.581740999962
 20
20017.820403999991
 30
0.0
 11
25144.581740999962
 21
19992.811166999989
 31
0.0
  0
LINE
  5
44F4
  8
2-0
  6
CONTINUOUS
 62
     3
 10
25144.581740999962
 20
19992.811166999989
 30
0.0
 11
25126.581977999958
 21
19992.811166999989
 31
0.0
  0
LINE
  5
44F5
  8
2-0
  6
CONTINUOUS
 62
     3
 10
25126.581977999958
 20
19992.811166999989
 30
0.0
 11
25126.581977999958
 21
20022.814729999998
 31
0.0
  0
LINE
  5
44F6
  8
2-0
  6
CONTINUOUS
 62
     3
 10
25142.675463999971
 20
19992.811166999989
 30
0.0
 11
25136.675542999961
 21
19992.811166999989
 31
0.0
  0
LINE
  5
44F7
  8
2-0
  6
CONTINUOUS
 62
     3
 10
25136.675542999961
 20
19992.811166999989
 30
0.0
 11
25136.675542999961
 21
20022.814729999998
 31
0.0
  0
LINE
  5
44F8
  8
2-0
  6
CONTINUOUS
 62
     3
 10
23768.765822499961
 20
20010.814888000001
 30
0.0
 11
23768.765822499961
 21
20017.820403999991
 31
0.0
  0
LINE
  5
44F9
  8
2-0
  6
CONTINUOUS
 62
     3
 10
23768.765822499961
 20
20017.820403999991
 30
0.0
 11
23763.76555849997
 21
20017.820403999991
 31
0.0
  0
LINE
  5
44FA
  8
2-0
  6
CONTINUOUS
 62
     3
 10
23763.76555849997
 20
20017.820403999991
 30
0.0
 11
23763.76555849997
 21
19992.811166999989
 31
0.0
  0
LINE
  5
44FB
  8
2-0
  6
CONTINUOUS
 62
     3
 10
23763.76555849997
 20
19992.811166999989
 30
0.0
 11
23781.771259499961
 21
19992.811166999989
 31
0.0
  0
LINE
  5
44FC
  8
2-0
  6
CONTINUOUS
 62
     3
 10
23781.771259499961
 20
19992.811166999989
 30
0.0
 11
23781.771259499961
 21
20022.814729999998
 31
0.0
  0
LINE
  5
44FD
  8
2-0
  6
CONTINUOUS
 62
     3
 10
23765.673814499962
 20
19992.811166999989
 30
0.0
 11
23771.675714499961
 21
19992.811166999989
 31
0.0
  0
LINE
  5
44FE
  8
2-0
  6
CONTINUOUS
 62
     3
 10
23771.675714499961
 20
19992.811166999989
 30
0.0
 11
23771.675714499961
 21
20022.814729999998
 31
0.0
  0
LINE
  5
44FF
  8
2-0
  6
CONTINUOUS
 62
     3
 10
23734.676533499962
 20
20022.814729999998
 30
0.0
 11
23771.675714499961
 21
20022.814729999998
 31
0.0
  0
LINE
  5
4500
  8
2-0
  6
CONTINUOUS
 62
     3
 10
23734.676533499962
 20
19992.811166999989
 30
0.0
 11
23734.676533499962
 21
20022.814729999998
 31
0.0
  0
LINE
  5
4501
  8
2-0
  6
CONTINUOUS
 62
     3
 10
23740.670515499962
 20
19992.811166999989
 30
0.0
 11
23734.676533499962
 21
19992.811166999989
 31
0.0
  0
LINE
  5
4502
  8
2-0
  6
CONTINUOUS
 62
     3
 10
23724.580988499962
 20
19992.811166999989
 30
0.0
 11
23724.580988499962
 21
20022.814729999998
 31
0.0
  0
LINE
  5
4503
  8
2-0
  6
CONTINUOUS
 62
     3
 10
23742.57679149996
 20
19992.811166999989
 30
0.0
 11
23724.580988499962
 21
19992.811166999989
 31
0.0
  0
LINE
  5
4504
  8
2-0
  6
CONTINUOUS
 62
     3
 10
23742.57679149996
 20
20017.820403999991
 30
0.0
 11
23742.57679149996
 21
19992.811166999989
 31
0.0
  0
LINE
  5
4505
  8
2-0
  6
CONTINUOUS
 62
     3
 10
23737.576527499961
 20
20017.820403999991
 30
0.0
 11
23742.57679149996
 21
20017.820403999991
 31
0.0
  0
LINE
  5
4506
  8
2-0
  6
CONTINUOUS
 62
     3
 10
23737.576527499961
 20
20010.814888000001
 30
0.0
 11
23737.576527499961
 21
20017.820403999991
 31
0.0
  0
LINE
  5
4507
  8
2-0
  6
CONTINUOUS
 62
     3
 10
24438.575538499961
 20
20010.814888000001
 30
0.0
 11
24438.575538499961
 21
20017.820403999991
 31
0.0
  0
LINE
  5
4508
  8
2-0
  6
CONTINUOUS
 62
     3
 10
24438.575538499961
 20
20017.820403999991
 30
0.0
 11
24443.57580149997
 21
20017.820403999991
 31
0.0
  0
LINE
  5
4509
  8
2-0
  6
CONTINUOUS
 62
     3
 10
24443.57580149997
 20
20017.820403999991
 30
0.0
 11
24443.57580149997
 21
19992.811166999989
 31
0.0
  0
LINE
  5
450A
  8
2-0
  6
CONTINUOUS
 62
     3
 10
24443.57580149997
 20
19992.811166999989
 30
0.0
 11
24425.581978499951
 21
19992.811166999989
 31
0.0
  0
LINE
  5
450B
  8
2-0
  6
CONTINUOUS
 62
     3
 10
24425.581978499951
 20
19992.811166999989
 30
0.0
 11
24425.581978499951
 21
20022.814729999998
 31
0.0
  0
LINE
  5
450C
  8
2-0
  6
CONTINUOUS
 62
     3
 10
24441.673484499959
 20
19992.811166999989
 30
0.0
 11
24435.675543499961
 21
19992.811166999989
 31
0.0
  0
LINE
  5
450D
  8
2-0
  6
CONTINUOUS
 62
     3
 10
24435.675543499961
 20
19992.811166999989
 30
0.0
 11
24435.675543499961
 21
20022.814729999998
 31
0.0
  0
LINE
  5
450E
  8
2-0
  6
CONTINUOUS
 62
     3
 10
24472.676704499961
 20
20022.814729999998
 30
0.0
 11
24435.675543499961
 21
20022.814729999998
 31
0.0
  0
LINE
  5
450F
  8
2-0
  6
CONTINUOUS
 62
     3
 10
24472.676704499961
 20
19992.811166999989
 30
0.0
 11
24472.676704499961
 21
20022.814729999998
 31
0.0
  0
LINE
  5
4510
  8
2-0
  6
CONTINUOUS
 62
     3
 10
24466.670845499961
 20
19992.811166999989
 30
0.0
 11
24472.676704499961
 21
19992.811166999989
 31
0.0
  0
LINE
  5
4511
  8
2-0
  6
CONTINUOUS
 62
     3
 10
24482.770269499961
 20
19992.811166999989
 30
0.0
 11
24482.770269499961
 21
20022.814729999998
 31
0.0
  0
LINE
  5
4512
  8
2-0
  6
CONTINUOUS
 62
     3
 10
24464.774466499959
 20
19992.811166999989
 30
0.0
 11
24482.770269499961
 21
19992.811166999989
 31
0.0
  0
LINE
  5
4513
  8
2-0
  6
CONTINUOUS
 62
     3
 10
24464.774466499959
 20
20017.820403999991
 30
0.0
 11
24464.774466499959
 21
19992.811166999989
 31
0.0
  0
LINE
  5
4514
  8
2-0
  6
CONTINUOUS
 62
     3
 10
24469.764832499961
 20
20017.820403999991
 30
0.0
 11
24464.774466499959
 21
20017.820403999991
 31
0.0
  0
LINE
  5
4515
  8
2-0
  6
CONTINUOUS
 62
     3
 10
24469.764832499961
 20
20010.814888000001
 30
0.0
 11
24469.764832499961
 21
20017.820403999991
 31
0.0
  0
LINE
  5
4516
  8
2-0
  6
CONTINUOUS
 62
     3
 10
23781.771259499961
 20
20022.814729999998
 30
0.0
 11
24425.581978499951
 21
20022.814729999998
 31
0.0
  0
LINE
  5
4517
  8
2-0
  6
CONTINUOUS
 62
     3
 10
23077.29447299998
 20
20022.814729999998
 30
0.0
 11
23724.580988499962
 21
20022.814729999998
 31
0.0
  0
LINE
  5
4518
  8
2-0
  6
CONTINUOUS
 62
     3
 10
25831.059753999962
 20
20022.814729999998
 30
0.0
 11
25183.774228999959
 21
20022.814729999998
 31
0.0
  0
LINE
  5
4519
  8
2-0
  6
CONTINUOUS
 62
     3
 10
25126.581977999958
 20
20022.814729999998
 30
0.0
 11
24482.770269499961
 21
20022.814729999998
 31
0.0
  0
LINE
  5
451A
  8
2-0
  6
CONTINUOUS
 62
     3
 10
22256.365577999961
 20
20022.814729999998
 30
0.0
 11
22219.364415999971
 21
20022.814729999998
 31
0.0
  0
LINE
  5
451B
  8
2-0
  6
CONTINUOUS
 62
     3
 10
22256.365577999961
 20
19992.811166999989
 30
0.0
 11
22256.365577999961
 21
20022.814729999998
 31
0.0
  0
LINE
  5
451C
  8
2-0
  6
CONTINUOUS
 62
     3
 10
22250.365656999958
 20
19992.811166999989
 30
0.0
 11
22256.365577999961
 21
19992.811166999989
 31
0.0
  0
LINE
  5
451D
  8
2-0
  6
CONTINUOUS
 62
     3
 10
22266.46310199998
 20
19992.811166999989
 30
0.0
 11
22266.46310199998
 21
20022.814729999998
 31
0.0
  0
LINE
  5
451E
  8
2-0
  6
CONTINUOUS
 62
     3
 10
22248.459380999961
 20
19992.811166999989
 30
0.0
 11
22266.46310199998
 21
19992.811166999989
 31
0.0
  0
LINE
  5
451F
  8
2-0
  6
CONTINUOUS
 62
     3
 10
22248.459380999961
 20
20017.820403999991
 30
0.0
 11
22248.459380999961
 21
19992.811166999989
 31
0.0
  0
LINE
  5
4520
  8
2-0
  6
CONTINUOUS
 62
     3
 10
22253.45964499997
 20
20017.820403999991
 30
0.0
 11
22248.459380999961
 21
20017.820403999991
 31
0.0
  0
LINE
  5
4521
  8
2-0
  6
CONTINUOUS
 62
     3
 10
22253.45964499997
 20
20010.814888000001
 30
0.0
 11
22253.45964499997
 21
20017.820403999991
 31
0.0
  0
LINE
  5
4522
  8
2-0
  6
CONTINUOUS
 62
     3
 10
22222.27034999997
 20
20010.814888000001
 30
0.0
 11
22222.27034999997
 21
20017.820403999991
 31
0.0
  0
LINE
  5
4523
  8
2-0
  6
CONTINUOUS
 62
     3
 10
22222.27034999997
 20
20017.820403999991
 30
0.0
 11
22227.270613999968
 21
20017.820403999991
 31
0.0
  0
LINE
  5
4524
  8
2-0
  6
CONTINUOUS
 62
     3
 10
22227.270613999968
 20
20017.820403999991
 30
0.0
 11
22227.270613999968
 21
19992.811166999989
 31
0.0
  0
LINE
  5
4525
  8
2-0
  6
CONTINUOUS
 62
     3
 10
22227.270613999968
 20
19992.811166999989
 30
0.0
 11
22209.270850999968
 21
19992.811166999989
 31
0.0
  0
LINE
  5
4526
  8
2-0
  6
CONTINUOUS
 62
     3
 10
22209.270850999968
 20
19992.811166999989
 30
0.0
 11
22209.270850999968
 21
20022.814729999998
 31
0.0
  0
LINE
  5
4527
  8
2-0
  6
CONTINUOUS
 62
     3
 10
22225.36433699997
 20
19992.811166999989
 30
0.0
 11
22219.364415999971
 21
19992.811166999989
 31
0.0
  0
LINE
  5
4528
  8
2-0
  6
CONTINUOUS
 62
     3
 10
22219.364415999971
 20
19992.811166999989
 30
0.0
 11
22219.364415999971
 21
20022.814729999998
 31
0.0
  0
LINE
  5
4529
  8
2-0
  6
CONTINUOUS
 62
     3
 10
22913.748626999961
 20
20022.814729999998
 30
0.0
 11
22266.46310199998
 21
20022.814729999998
 31
0.0
  0
LINE
  5
452A
  8
2-0
  6
CONTINUOUS
 62
     3
 10
22209.270850999968
 20
20022.814729999998
 30
0.0
 11
22117.255674
 21
20022.814729999998
 31
0.0
  0
LINE
  5
452B
  8
2-0
  6
CONTINUOUS
 62
     3
 10
21268.573649499991
 20
20010.814888000001
 30
0.0
 11
21268.573649499991
 21
20017.820403999991
 31
0.0
  0
LINE
  5
452C
  8
2-0
  6
CONTINUOUS
 62
     3
 10
21268.573649499991
 20
20017.820403999991
 30
0.0
 11
21263.573385499989
 21
20017.820403999991
 31
0.0
  0
LINE
  5
452D
  8
2-0
  6
CONTINUOUS
 62
     3
 10
21263.573385499989
 20
20017.820403999991
 30
0.0
 11
21263.573385499989
 21
19992.811166999989
 31
0.0
  0
LINE
  5
452E
  8
2-0
  6
CONTINUOUS
 62
     3
 10
21263.573385499989
 20
19992.811166999989
 30
0.0
 11
21281.579086499991
 21
19992.811166999989
 31
0.0
  0
LINE
  5
452F
  8
2-0
  6
CONTINUOUS
 62
     3
 10
21281.579086499991
 20
19992.811166999989
 30
0.0
 11
21281.579086499991
 21
20022.814729999998
 31
0.0
  0
LINE
  5
4530
  8
2-0
  6
CONTINUOUS
 62
     3
 10
21265.481641499991
 20
19992.811166999989
 30
0.0
 11
21271.483541500002
 21
19992.811166999989
 31
0.0
  0
LINE
  5
4531
  8
2-0
  6
CONTINUOUS
 62
     3
 10
21271.483541500002
 20
19992.811166999989
 30
0.0
 11
21271.483541500002
 21
20022.814729999998
 31
0.0
  0
LINE
  5
4532
  8
2-0
  6
CONTINUOUS
 62
     3
 10
21234.484360499981
 20
20022.814729999998
 30
0.0
 11
21271.483541500002
 21
20022.814729999998
 31
0.0
  0
LINE
  5
4533
  8
2-0
  6
CONTINUOUS
 62
     3
 10
21234.484360499981
 20
19992.811166999989
 30
0.0
 11
21234.484360499981
 21
20022.814729999998
 31
0.0
  0
LINE
  5
4534
  8
2-0
  6
CONTINUOUS
 62
     3
 10
21240.478342499991
 20
19992.811166999989
 30
0.0
 11
21234.484360499981
 21
19992.811166999989
 31
0.0
  0
LINE
  5
4535
  8
2-0
  6
CONTINUOUS
 62
     3
 10
21224.388815499991
 20
19992.811166999989
 30
0.0
 11
21224.388815499991
 21
20022.814729999998
 31
0.0
  0
LINE
  5
4536
  8
2-0
  6
CONTINUOUS
 62
     3
 10
21242.384618499989
 20
19992.811166999989
 30
0.0
 11
21224.388815499991
 21
19992.811166999989
 31
0.0
  0
LINE
  5
4537
  8
2-0
  6
CONTINUOUS
 62
     3
 10
21242.384618499989
 20
20017.820403999991
 30
0.0
 11
21242.384618499989
 21
19992.811166999989
 31
0.0
  0
LINE
  5
4538
  8
2-0
  6
CONTINUOUS
 62
     3
 10
21237.384354499991
 20
20017.820403999991
 30
0.0
 11
21242.384618499989
 21
20017.820403999991
 31
0.0
  0
LINE
  5
4539
  8
2-0
  6
CONTINUOUS
 62
     3
 10
21237.384354499991
 20
20010.814888000001
 30
0.0
 11
21237.384354499991
 21
20017.820403999991
 31
0.0
  0
LINE
  5
453A
  8
2-0
  6
CONTINUOUS
 62
     3
 10
20577.28919299999
 20
20022.814729999998
 30
0.0
 11
21224.388815499991
 21
20022.814729999998
 31
0.0
  0
LINE
  5
453B
  8
2-0
  6
CONTINUOUS
 62
     3
 10
21817.255674
 20
20022.814729999998
 30
0.0
 11
21281.579086499991
 21
20022.814729999998
 31
0.0
  0
LINE
  5
453C
  8
2-0
  6
CONTINUOUS
 62
     3
 10
25955.674407999959
 20
15574.95588199998
 30
0.0
 11
25955.674407999959
 21
14930.91702399998
 31
0.0
  0
LINE
  5
453D
  8
2-0
  6
CONTINUOUS
 62
     3
 10
25955.674407999959
 20
14873.720813999969
 30
0.0
 11
25955.674407999959
 21
14229.917518999981
 31
0.0
  0
LINE
  5
453E
  8
0-1
  6
CONTINUOUS
 62
     3
 10
7241.8830360000075
 20
6262.7287530000021
 30
0.0
 11
7241.8830360000075
 21
8123.7746320000033
 31
0.0
  0
LINE
  5
453F
  8
0-1
  6
CONTINUOUS
 62
     3
 10
7261.8840920000021
 20
6262.7287530000021
 30
0.0
 11
7261.8840920000021
 21
8123.7746320000033
 31
0.0
  0
LINE
  5
4540
  8
0-1
  6
CONTINUOUS
 62
     3
 10
7191.8833660000128
 20
6262.7287530000021
 30
0.0
 11
7191.8833660000128
 21
8123.7746320000033
 31
0.0
  0
LINE
  5
4541
  8
0-1
  6
CONTINUOUS
 62
     3
 10
7311.8827720000081
 20
6262.7287530000021
 30
0.0
 11
7311.8827720000081
 21
8123.7746320000033
 31
0.0
  0
LINE
  5
4542
  8
0-1
  6
CONTINUOUS
 62
     3
 10
7444.8836559999982
 20
6262.7287530000021
 30
0.0
 11
7444.8836559999982
 21
8123.7746320000033
 31
0.0
  0
LINE
  5
4543
  8
0-1
  6
CONTINUOUS
 62
     3
 10
7459.8834580000039
 20
6262.7287530000021
 30
0.0
 11
7459.8834580000039
 21
8123.7746320000033
 31
0.0
  0
LINE
  5
4544
  8
0-1
  6
CONTINUOUS
 62
     3
 10
7058.8834710000083
 20
6262.7287530000021
 30
0.0
 11
7058.8834710000083
 21
8123.7746320000033
 31
0.0
  0
LINE
  5
4545
  8
0-1
  6
CONTINUOUS
 62
     3
 10
7043.8836690000098
 20
6262.7287530000021
 30
0.0
 11
7043.8836690000098
 21
8123.7746320000033
 31
0.0
  0
LINE
  5
4546
  8
0-1
  6
CONTINUOUS
 62
     3
 10
8320.3831550000104
 20
8123.7746320000033
 30
0.0
 11
8320.3831550000104
 21
6262.7287530000021
 31
0.0
  0
LINE
  5
4547
  8
0-1
  6
CONTINUOUS
 62
     3
 10
8283.3849630000059
 20
8123.7746320000033
 30
0.0
 11
8283.3849630000059
 21
6262.7287530000021
 31
0.0
  0
LINE
  5
4548
  8
0-1
  6
CONTINUOUS
 62
     3
 10
7620.3838140000098
 20
8123.7746320000033
 30
0.0
 11
7620.3838140000098
 21
6262.7287530000021
 31
0.0
  0
LINE
  5
4549
  8
0-1
  6
CONTINUOUS
 62
     3
 10
7583.3836429999938
 20
8123.7746320000033
 30
0.0
 11
7583.3836429999938
 21
6262.7287530000021
 31
0.0
  0
LINE
  5
454A
  8
0-1
  6
CONTINUOUS
 62
     3
 10
9020.382494999998
 20
8123.7746320000033
 30
0.0
 11
9020.382494999998
 21
6262.7287530000021
 31
0.0
  0
LINE
  5
454B
  8
0-1
  6
CONTINUOUS
 62
     3
 10
8983.3843030000007
 20
8123.7746320000033
 30
0.0
 11
8983.3843030000007
 21
6262.7287530000021
 31
0.0
  0
LINE
  5
454C
  8
0-1
  6
CONTINUOUS
 62
     3
 10
8641.8827059999967
 20
6262.7287530000021
 30
0.0
 11
8641.8827059999967
 21
8123.7746320000033
 31
0.0
  0
LINE
  5
454D
  8
0-1
  6
CONTINUOUS
 62
     3
 10
8661.8837620000086
 20
6262.7287530000021
 30
0.0
 11
8661.8837620000086
 21
8123.7746320000033
 31
0.0
  0
LINE
  5
454E
  8
0-1
  6
CONTINUOUS
 62
     3
 10
8591.884026000007
 20
6262.7287530000021
 30
0.0
 11
8591.884026000007
 21
8123.7746320000033
 31
0.0
  0
LINE
  5
454F
  8
0-1
  6
CONTINUOUS
 62
     3
 10
8711.8834320000115
 20
6262.7287530000021
 30
0.0
 11
8711.8834320000115
 21
8123.7746320000033
 31
0.0
  0
LINE
  5
4550
  8
0-1
  6
CONTINUOUS
 62
     3
 10
8844.8833259999956
 20
6262.7287530000021
 30
0.0
 11
8844.8833259999956
 21
8123.7746320000033
 31
0.0
  0
LINE
  5
4551
  8
0-1
  6
CONTINUOUS
 62
     3
 10
8859.8831280000086
 20
6262.7287530000021
 30
0.0
 11
8859.8831280000086
 21
8123.7746320000033
 31
0.0
  0
LINE
  5
4552
  8
0-1
  6
CONTINUOUS
 62
     3
 10
8458.8831410000057
 20
6262.7287530000021
 30
0.0
 11
8458.8831410000057
 21
8123.7746320000033
 31
0.0
  0
LINE
  5
4553
  8
0-1
  6
CONTINUOUS
 62
     3
 10
8443.8843290000059
 20
6262.7287530000021
 30
0.0
 11
8443.8843290000059
 21
8123.7746320000033
 31
0.0
  0
LINE
  5
4554
  8
0-1
  6
CONTINUOUS
 62
     3
 10
7743.8830090000083
 20
6262.7287530000021
 30
0.0
 11
7743.8830090000083
 21
8123.7746320000033
 31
0.0
  0
LINE
  5
4555
  8
0-1
  6
CONTINUOUS
 62
     3
 10
7758.8838009999972
 20
6262.7287530000021
 30
0.0
 11
7758.8838009999972
 21
8123.7746320000033
 31
0.0
  0
LINE
  5
4556
  8
0-1
  6
CONTINUOUS
 62
     3
 10
8159.8837880000074
 20
6262.7287530000021
 30
0.0
 11
8159.8837880000074
 21
8123.7746320000033
 31
0.0
  0
LINE
  5
4557
  8
0-1
  6
CONTINUOUS
 62
     3
 10
8144.882996000003
 20
6262.7287530000021
 30
0.0
 11
8144.882996000003
 21
8123.7746320000033
 31
0.0
  0
LINE
  5
4558
  8
0-1
  6
CONTINUOUS
 62
     3
 10
8011.8840920000002
 20
6262.7287530000021
 30
0.0
 11
8011.8840920000002
 21
8123.7746320000033
 31
0.0
  0
LINE
  5
4559
  8
0-1
  6
CONTINUOUS
 62
     3
 10
7891.8827060000049
 20
6262.7287530000021
 30
0.0
 11
7891.8827060000049
 21
8123.7746320000033
 31
0.0
  0
LINE
  5
455A
  8
0-1
  6
CONTINUOUS
 62
     3
 10
7961.8854110000102
 20
6262.7287530000021
 30
0.0
 11
7961.8854110000102
 21
8123.7746320000033
 31
0.0
  0
LINE
  5
455B
  8
0-1
  6
CONTINUOUS
 62
     3
 10
7941.8843560000059
 20
6262.7287530000021
 30
0.0
 11
7941.8843560000059
 21
8123.7746320000033
 31
0.0
  0
LINE
  5
455C
  8
0-1
  6
CONTINUOUS
 62
     3
 10
9143.8826800000024
 20
6262.7287530000021
 30
0.0
 11
9143.8826800000024
 21
8123.7746320000033
 31
0.0
  0
LINE
  5
455D
  8
0-1
  6
CONTINUOUS
 62
     3
 10
9158.8834710000083
 20
6262.7287530000021
 30
0.0
 11
9158.8834710000083
 21
8123.7746320000033
 31
0.0
  0
LINE
  5
455E
  8
0-1
  6
CONTINUOUS
 62
     3
 10
9291.8843560000096
 20
6262.7287530000021
 30
0.0
 11
9291.8843560000096
 21
8123.7746320000033
 31
0.0
  0
LINE
  5
455F
  8
0-1
  6
CONTINUOUS
 62
     3
 10
9559.8834580000057
 20
6262.7287530000021
 30
0.0
 11
9559.8834580000057
 21
8123.7746320000033
 31
0.0
  0
LINE
  5
4560
  8
0-1
  6
CONTINUOUS
 62
     3
 10
9544.8846460000059
 20
6262.7287530000021
 30
0.0
 11
9544.8846460000059
 21
8123.7746320000033
 31
0.0
  0
LINE
  5
4561
  8
0-1
  6
CONTINUOUS
 62
     3
 10
9411.8837619999958
 20
6262.7287530000021
 30
0.0
 11
9411.8837619999958
 21
8123.7746320000033
 31
0.0
  0
LINE
  5
4562
  8
0-1
  6
CONTINUOUS
 62
     3
 10
9361.8840920000021
 20
6262.7287530000021
 30
0.0
 11
9361.8840920000021
 21
8123.7746320000033
 31
0.0
  0
LINE
  5
4563
  8
0-1
  6
CONTINUOUS
 62
     3
 10
9341.8850150000089
 20
6262.7287530000021
 30
0.0
 11
9341.8850150000089
 21
8123.7746320000033
 31
0.0
  0
LINE
  5
4564
  8
0-1
  6
CONTINUOUS
 62
     3
 10
10169.883986000001
 20
6262.7287530000021
 30
0.0
 11
10169.883986000001
 21
8123.7746320000033
 31
0.0
  0
LINE
  5
4565
  8
0-1
  6
CONTINUOUS
 62
     3
 10
10149.88491000001
 20
6262.7287530000021
 30
0.0
 11
10149.88491000001
 21
8123.7746320000033
 31
0.0
  0
LINE
  5
4566
  8
0-1
  6
CONTINUOUS
 62
     3
 10
10219.88464599999
 20
6262.7287530000021
 30
0.0
 11
10219.88464599999
 21
8123.7746320000033
 31
0.0
  0
LINE
  5
4567
  8
0-1
  6
CONTINUOUS
 62
     3
 10
10099.88425000001
 20
6262.7287530000021
 30
0.0
 11
10099.88425000001
 21
8123.7746320000033
 31
0.0
  0
LINE
  5
4568
  8
0-1
  6
CONTINUOUS
 62
     3
 10
9966.8843559999968
 20
6262.7287530000021
 30
0.0
 11
9966.8843559999968
 21
8123.7746320000033
 31
0.0
  0
LINE
  5
4569
  8
0-1
  6
CONTINUOUS
 62
     3
 10
9951.8825739999957
 20
6262.7287530000021
 30
0.0
 11
9951.8825739999957
 21
8123.7746320000033
 31
0.0
  0
LINE
  5
456A
  8
0-1
  6
CONTINUOUS
 62
     3
 10
10352.884539999999
 20
6262.7287530000021
 30
0.0
 11
10352.884539999999
 21
8123.7746320000033
 31
0.0
  0
LINE
  5
456B
  8
0-1
  6
CONTINUOUS
 62
     3
 10
10367.88335300001
 20
6262.7287530000021
 30
0.0
 11
10367.88335300001
 21
8123.7746320000033
 31
0.0
  0
LINE
  5
456C
  8
0-1
  6
CONTINUOUS
 62
     3
 10
12467.88335300001
 20
6262.7287530000021
 30
0.0
 11
12467.88335300001
 21
8123.7746320000033
 31
0.0
  0
LINE
  5
456D
  8
0-1
  6
CONTINUOUS
 62
     3
 10
12452.88454000001
 20
6262.7287530000021
 30
0.0
 11
12452.88454000001
 21
8123.7746320000033
 31
0.0
  0
LINE
  5
456E
  8
0-1
  6
CONTINUOUS
 62
     3
 10
12051.883563999991
 20
6262.7287530000021
 30
0.0
 11
12051.883563999991
 21
8123.7746320000033
 31
0.0
  0
LINE
  5
456F
  8
0-1
  6
CONTINUOUS
 62
     3
 10
12066.883366
 20
6262.7287530000021
 30
0.0
 11
12066.883366
 21
8123.7746320000033
 31
0.0
  0
LINE
  5
4570
  8
0-1
  6
CONTINUOUS
 62
     3
 10
12199.88425000001
 20
6262.7287530000021
 30
0.0
 11
12199.88425000001
 21
8123.7746320000033
 31
0.0
  0
LINE
  5
4571
  8
0-1
  6
CONTINUOUS
 62
     3
 10
12319.883656000011
 20
6262.7287530000021
 30
0.0
 11
12319.883656000011
 21
8123.7746320000033
 31
0.0
  0
LINE
  5
4572
  8
0-1
  6
CONTINUOUS
 62
     3
 10
12249.88491000001
 20
6262.7287530000021
 30
0.0
 11
12249.88491000001
 21
8123.7746320000033
 31
0.0
  0
LINE
  5
4573
  8
0-1
  6
CONTINUOUS
 62
     3
 10
12269.883986000001
 20
6262.7287530000021
 30
0.0
 11
12269.883986000001
 21
8123.7746320000033
 31
0.0
  0
LINE
  5
4574
  8
0-1
  6
CONTINUOUS
 62
     3
 10
11569.88464599999
 20
6262.7287530000021
 30
0.0
 11
11569.88464599999
 21
8123.7746320000033
 31
0.0
  0
LINE
  5
4575
  8
0-1
  6
CONTINUOUS
 62
     3
 10
11549.88359000001
 20
6262.7287530000021
 30
0.0
 11
11549.88359000001
 21
8123.7746320000033
 31
0.0
  0
LINE
  5
4576
  8
0-1
  6
CONTINUOUS
 62
     3
 10
11619.88332600001
 20
6262.7287530000021
 30
0.0
 11
11619.88332600001
 21
8123.7746320000033
 31
0.0
  0
LINE
  5
4577
  8
0-1
  6
CONTINUOUS
 62
     3
 10
11499.88491000001
 20
6262.7287530000021
 30
0.0
 11
11499.88491000001
 21
8123.7746320000033
 31
0.0
  0
LINE
  5
4578
  8
0-1
  6
CONTINUOUS
 62
     3
 10
11366.884026000011
 20
6262.7287530000021
 30
0.0
 11
11366.884026000011
 21
8123.7746320000033
 31
0.0
  0
LINE
  5
4579
  8
0-1
  6
CONTINUOUS
 62
     3
 10
11351.88422399999
 20
6262.7287530000021
 30
0.0
 11
11351.88422399999
 21
8123.7746320000033
 31
0.0
  0
LINE
  5
457A
  8
0-1
  6
CONTINUOUS
 62
     3
 10
11752.882231000011
 20
6262.7287530000021
 30
0.0
 11
11752.882231000011
 21
8123.7746320000033
 31
0.0
  0
LINE
  5
457B
  8
0-1
  6
CONTINUOUS
 62
     3
 10
11767.884012
 20
6262.7287530000021
 30
0.0
 11
11767.884012
 21
8123.7746320000033
 31
0.0
  0
LINE
  5
457C
  8
0-1
  6
CONTINUOUS
 62
     3
 10
11067.884672
 20
6262.7287530000021
 30
0.0
 11
11067.884672
 21
8123.7746320000033
 31
0.0
  0
LINE
  5
457D
  8
0-1
  6
CONTINUOUS
 62
     3
 10
11052.88289100001
 20
6262.7287530000021
 30
0.0
 11
11052.88289100001
 21
8123.7746320000033
 31
0.0
  0
LINE
  5
457E
  8
0-1
  6
CONTINUOUS
 62
     3
 10
10651.884883000001
 20
6262.7287530000021
 30
0.0
 11
10651.884883000001
 21
8123.7746320000033
 31
0.0
  0
LINE
  5
457F
  8
0-1
  6
CONTINUOUS
 62
     3
 10
10666.883696000001
 20
6262.7287530000021
 30
0.0
 11
10666.883696000001
 21
8123.7746320000033
 31
0.0
  0
LINE
  5
4580
  8
0-1
  6
CONTINUOUS
 62
     3
 10
10799.88260000001
 20
6262.7287530000021
 30
0.0
 11
10799.88260000001
 21
8123.7746320000033
 31
0.0
  0
LINE
  5
4581
  8
0-1
  6
CONTINUOUS
 62
     3
 10
10919.883986000001
 20
6262.7287530000021
 30
0.0
 11
10919.883986000001
 21
8123.7746320000033
 31
0.0
  0
LINE
  5
4582
  8
0-1
  6
CONTINUOUS
 62
     3
 10
10849.88424999999
 20
6262.7287530000021
 30
0.0
 11
10849.88424999999
 21
8123.7746320000033
 31
0.0
  0
LINE
  5
4583
  8
0-1
  6
CONTINUOUS
 62
     3
 10
10869.88332600001
 20
6262.7287530000021
 30
0.0
 11
10869.88332600001
 21
8123.7746320000033
 31
0.0
  0
LINE
  5
4584
  8
0-1
  6
CONTINUOUS
 62
     3
 10
10528.384699000009
 20
8123.7746320000033
 30
0.0
 11
10528.384699000009
 21
6262.7287530000021
 31
0.0
  0
LINE
  5
4585
  8
0-1
  6
CONTINUOUS
 62
     3
 10
10491.383537000011
 20
8123.7746320000033
 30
0.0
 11
10491.383537000011
 21
6262.7287530000021
 31
0.0
  0
LINE
  5
4586
  8
0-1
  6
CONTINUOUS
 62
     3
 10
11928.382389
 20
8123.7746320000033
 30
0.0
 11
11928.382389
 21
6262.7287530000021
 31
0.0
  0
LINE
  5
4587
  8
0-1
  6
CONTINUOUS
 62
     3
 10
11891.383207000001
 20
8123.7746320000033
 30
0.0
 11
11891.383207000001
 21
6262.7287530000021
 31
0.0
  0
LINE
  5
4588
  8
0-1
  6
CONTINUOUS
 62
     3
 10
11228.38403899999
 20
8123.7746320000033
 30
0.0
 11
11228.38403899999
 21
6262.7287530000021
 31
0.0
  0
LINE
  5
4589
  8
0-1
  6
CONTINUOUS
 62
     3
 10
11191.38386700001
 20
8123.7746320000033
 30
0.0
 11
11191.38386700001
 21
6262.7287530000021
 31
0.0
  0
LINE
  5
458A
  8
0-1
  6
CONTINUOUS
 62
     3
 10
12628.384699
 20
8123.7746320000033
 30
0.0
 11
12628.384699
 21
6262.7287530000021
 31
0.0
  0
LINE
  5
458B
  8
0-1
  6
CONTINUOUS
 62
     3
 10
12591.383537000011
 20
8123.7746320000033
 30
0.0
 11
12591.383537000011
 21
6262.7287530000021
 31
0.0
  0
LINE
  5
458C
  8
0-1
  6
CONTINUOUS
 62
     3
 10
13079.383511
 20
6212.7285880000036
 30
0.0
 11
13079.383511
 21
6112.7287530000021
 31
0.0
  0
LINE
  5
458D
  8
0-1
  6
CONTINUOUS
 62
     3
 10
13046.882719999991
 20
8427.0576630000032
 30
0.0
 11
13046.882719999991
 21
6212.7285880000036
 31
0.0
  0
LINE
  5
458E
  8
0-1
  6
CONTINUOUS
 62
     3
 10
13066.883511
 20
8427.6386520000051
 30
0.0
 11
13066.883511
 21
6212.7285880000036
 31
0.0
  0
LINE
  5
458F
  8
0-1
  6
CONTINUOUS
 62
     3
 10
12951.88364299999
 20
8123.7746320000033
 30
0.0
 11
12951.88364299999
 21
6212.7285880000036
 31
0.0
  0
LINE
  5
4590
  8
0-1
  6
CONTINUOUS
 62
     3
 10
9755.883511
 20
8328.5300950000037
 30
0.0
 11
9755.883511
 21
8123.7746320000033
 31
0.0
  0
LINE
  5
4591
  8
0-1
  6
CONTINUOUS
 62
     3
 10
9683.3836430000083
 20
8123.7746320000033
 30
0.0
 11
9683.3836430000083
 21
6212.7285880000036
 31
0.0
  0
LINE
  5
4592
  8
0-1
  6
CONTINUOUS
 62
     3
 10
9828.3823889999967
 20
8123.7746320000033
 30
0.0
 11
9828.3823889999967
 21
6212.7285880000036
 31
0.0
  0
LINE
  5
4593
  8
0-1
  6
CONTINUOUS
 62
     3
 10
9828.3823889999967
 20
6262.7287530000021
 30
0.0
 11
12951.88364299999
 21
6262.7287530000021
 31
0.0
  0
LINE
  5
4594
  8
0-1
  6
CONTINUOUS
 62
     3
 10
6787.883511
 20
6112.7287530000021
 30
0.0
 11
6787.883511
 21
6212.7285880000036
 31
0.0
  0
LINE
  5
4595
  8
0-1
  6
CONTINUOUS
 62
     3
 10
6815.3833130000021
 20
8240.5310910000026
 30
0.0
 11
6815.3833130000021
 21
6212.7285880000036
 31
0.0
  0
LINE
  5
4596
  8
0-1
  6
CONTINUOUS
 62
     3
 10
6795.383511
 20
8239.9143636838089
 30
0.0
 11
6795.383511
 21
6212.7285880000036
 31
0.0
  0
LINE
  5
4597
  8
0-1
  6
CONTINUOUS
 62
     3
 10
6910.3823900000061
 20
8123.7746320000033
 30
0.0
 11
6910.3823900000061
 21
6212.7285880000036
 31
0.0
  0
LINE
  5
4598
  8
0-1
  6
CONTINUOUS
 62
     3
 10
6787.883511
 20
6212.7285880000036
 30
0.0
 11
13079.383511
 21
6212.7285880000036
 31
0.0
  0
LINE
  5
4599
  8
0-1
  6
CONTINUOUS
 62
     3
 10
6910.3823900000061
 20
6262.7287530000021
 30
0.0
 11
9683.3836430000083
 21
6262.7287530000021
 31
0.0
  0
LINE
  5
459A
  8
0-1
  6
CONTINUOUS
 62
     3
 10
6105.3824560000003
 20
6112.7287530000012
 30
0.0
 11
13079.383511
 21
6112.7287530000021
 31
0.0
  0
LINE
  5
459B
  8
0-1
  6
CONTINUOUS
 62
     3
 10
6815.3833130000021
 20
8123.7746320000033
 30
0.0
 11
13046.882719999991
 21
8123.7746320000033
 31
0.0
  0
LINE
  5
459C
  8
0-1
  6
CONTINUOUS
 62
     3
 10
6621.0816869999999
 20
8274.7139130000032
 30
0.0
 11
13152.573175999991
 21
8470.2299740000053
 31
0.0
  0
LINE
  5
459D
  8
0-1
  6
CONTINUOUS
 62
     3
 10
13151.07270099999
 20
8520.2088590000058
 30
0.0
 11
6619.5822019999978
 21
8324.6918089999981
 31
0.0
  0
LINE
  5
459E
  8
0-1
  6
CONTINUOUS
 62
     3
 10
6616.4921740000073
 20
8327.6007110000028
 30
0.0
 11
6615.5321069999991
 21
8359.5862670000024
 31
0.0
  0
LINE
  5
459F
  8
0-1
  6
CONTINUOUS
 62
     3
 10
6620.3809380000021
 20
8364.7335100000018
 30
0.0
 11
13170.842152999991
 21
8560.8206620000019
 31
0.0
  0
LINE
  5
45A0
  8
0-1
  6
CONTINUOUS
 62
     3
 10
13174.74675299999
 20
8430.8791240000046
 30
0.0
 11
6624.2815790000022
 21
8234.7924669999975
 31
0.0
  0
LINE
  5
45A1
  8
0-1
  6
CONTINUOUS
 62
     3
 10
6619.1338410000026
 20
8239.6398130000016
 30
0.0
 11
6618.1747640000021
 21
8271.6258640000033
 31
0.0
  0
LINE
  5
45A2
  8
0-1
  6
CONTINUOUS
 62
     3
 10
6617.8431950000022
 20
8282.6206049999982
 30
0.0
 11
6616.8227530000013
 21
8316.6049800000055
 31
0.0
  0
LINE
  5
45A3
  8
0-1
  6
CONTINUOUS
 62
     3
 10
6619.7316560000027
 20
8319.6940190000005
 30
0.0
 11
13151.224134
 21
8515.2115640000029
 31
0.0
  0
LINE
  5
45A4
  8
0-1
  6
CONTINUOUS
 62
     3
 10
13152.42372199999
 20
8475.2282580000028
 30
0.0
 11
6620.9332240000012
 21
8279.7121980000029
 31
0.0
  0
LINE
  5
45A5
  8
0-1
  6
CONTINUOUS
 62
     3
 10
9755.883511
 20
8328.5300950000037
 30
0.0
 11
9751.9808900000044
 21
8458.4716330000028
 31
0.0
  0
LINE
  5
45A6
  8
0-1
  6
CONTINUOUS
 62
     3
 10
13141.77985099999
 20
8429.8883750000023
 30
0.0
 11
13137.878220000001
 21
8559.8299130000087
 31
0.0
  0
LINE
  5
45A7
  8
0-1
  6
CONTINUOUS
 62
     3
 10
6632.8736799999997
 20
8365.1086290000021
 30
0.0
 11
6636.7763010000026
 21
8235.1675860000014
 31
0.0
  0
LINE
  5
45A8
  8
0-5
  6
CONTINUOUS
 62
     4
 10
14784.468499000001
 20
6212.7285880000036
 30
0.0
 11
14904.468894999991
 21
6420.575565000001
 31
0.0
  0
LINE
  5
45A9
  8
0-5
  6
CONTINUOUS
 62
     4
 10
14664.470082
 20
6420.575565000001
 30
0.0
 11
14784.468499000001
 21
6212.7285880000036
 31
0.0
  0
LINE
  5
45AA
  8
0-5
  6
CONTINUOUS
 62
     4
 10
14904.468894999991
 20
6420.575565000001
 30
0.0
 11
14664.470082
 21
6420.575565000001
 31
0.0
  0
LINE
  5
45AB
  8
0-5
  6
CONTINUOUS
 62
     4
 10
13159.38080600001
 20
6212.7285880000036
 30
0.0
 11
14876.846691999999
 21
6212.7285880000036
 31
0.0
  0
LINE
  5
45AC
  8
0-5
  6
CONTINUOUS
 62
     4
 10
13024.383511
 20
4432.7291490000007
 30
0.0
 11
13024.383511
 21
4272.7296110000007
 31
0.0
  0
LINE
  5
45AD
  8
0-5
  6
CONTINUOUS
 62
     4
 10
9755.883511
 20
4432.7291490000007
 30
0.0
 11
9755.883511
 21
4272.7296110000007
 31
0.0
  0
LINE
  5
45AE
  8
0-5
  6
CONTINUOUS
 62
     4
 10
6837.883511
 20
4432.7291490000007
 30
0.0
 11
6837.883511
 21
4272.7296110000007
 31
0.0
  0
LINE
  5
45AF
  8
2-0
  6
CENTER2
 62
     6
 10
13024.383511
 20
5850.0763300000017
 30
0.0
 11
13024.383511
 21
6907.2189280000021
 31
0.0
  0
LINE
  5
45B0
  8
2-0
  6
CENTER2
 62
     6
 10
9755.883511
 20
5850.0763300000017
 30
0.0
 11
9755.883511
 21
6907.2189280000021
 31
0.0
  0
LINE
  5
45B1
  8
2-0
  6
CENTER2
 62
     6
 10
6837.883511
 20
5850.0763300000017
 30
0.0
 11
6837.883511
 21
6907.2189280000021
 31
0.0
  0
ARC
  5
45B2
  8
0-1
  6
CONTINUOUS
 62
     3
 10
13151.82293799999
 20
8495.220406000004
 30
0.0
 40
24.999998999999999
 50
271.71998600002598
 51
91.719986000025997
  0
ARC
  5
45B3
  8
0-1
  6
CONTINUOUS
 62
     3
 10
6619.492134000001
 20
8327.6907790000023
 30
0.0
 40
3.0
 50
181.7199859999738
 51
271.71998600002598
  0
ARC
  5
45B4
  8
0-1
  6
CONTINUOUS
 62
     3
 10
6620.5294019999992
 20
8359.7357210000027
 30
0.0
 40
5.0
 50
91.719986000025997
 51
181.7199859999738
  0
ARC
  5
45B5
  8
0-1
  6
CONTINUOUS
 62
     3
 10
13146.82564399999
 20
8495.0699630000054
 30
0.0
 40
69.999999000000003
 50
293.50677499977832
 51
69.933196999913747
  0
ARC
  5
45B6
  8
0-1
  6
CONTINUOUS
 62
     3
 10
6624.1331150000024
 20
8239.7902570000024
 30
0.0
 40
5.0
 50
181.7199859999738
 51
271.71998600002598
  0
ARC
  5
45B7
  8
0-1
  6
CONTINUOUS
 62
     3
 10
6621.1717560000043
 20
8271.7154370000026
 30
0.0
 40
3.0
 50
91.719986000025997
 51
181.7199859999738
  0
ARC
  5
45B8
  8
0-1
  6
CONTINUOUS
 62
     3
 10
6621.1559189999998
 20
8322.2381949999999
 30
0.0
 40
2.5
 50
271.71998600002598
 51
91.719986000025997
  0
ARC
  5
45B9
  8
0-1
  6
CONTINUOUS
 62
     3
 10
6622.5059509999992
 20
8277.2580890000008
 30
0.0
 40
2.5
 50
271.71998600002598
 51
91.719986000025997
  0
ARC
  5
45BA
  8
0-1
  6
CONTINUOUS
 62
     3
 10
6619.8217240000022
 20
8316.6955429999998
 30
0.0
 40
3.0
 50
91.719986000025997
 51
181.7199859999738
  0
ARC
  5
45BB
  8
0-1
  6
CONTINUOUS
 62
     3
 10
13151.82293799999
 20
8495.220406000004
 30
0.0
 40
20.0
 50
271.71998600002598
 51
91.719986000025997
  0
ARC
  5
45BC
  8
0-1
  6
CONTINUOUS
 62
     3
 10
6620.8421660000004
 20
8282.710178000003
 30
0.0
 40
3.0
 50
181.7199859999738
 51
271.71998600002598
  0
CIRCLE
  5
45BD
  8
0-5
  6
CONTINUOUS
 62
     4
 10
9755.883511
 20
4072.7284560000012
 30
0.0
 40
199.9999949999999
  0
CIRCLE
  5
45BE
  8
0-5
  6
CONTINUOUS
 62
     4
 10
13024.383511
 20
4072.7284560000012
 30
0.0
 40
199.9999949999999
  0
CIRCLE
  5
45BF
  8
0-5
  6
CONTINUOUS
 62
     4
 10
6837.883511
 20
4072.7284560000012
 30
0.0
 40
199.9999949999999
  0
TEXT
  5
45C0
  8
0-5
  6
CONTINUOUS
 62
     7
 10
14325.37657
 20
6500.5748390000026
 30
0.0
 40
160.0
  1
布基礎天端
 72
     4
 11
14784.04323666667
 21
6580.5748390000044
 31
0.0
  0
TEXT
  5
45C1
  8
0-5
  6
CONTINUOUS
 62
     7
 10
12977.427350999989
 20
3989.5176600000041
 30
0.0
 40
160.0
  1
A
 72
     4
 11
13030.760684333331
 21
4069.5176600000041
 31
0.0
  0
TEXT
  5
45C2
  8
0-5
  6
CONTINUOUS
 62
     7
 10
9708.9273509999985
 20
3989.5176600000041
 30
0.0
 40
160.0
  1
B
 72
     4
 11
9762.2606843333306
 21
4069.5176600000041
 31
0.0
  0
TEXT
  5
45C3
  8
0-5
  6
CONTINUOUS
 62
     7
 10
6790.9273510000039
 20
3989.5176600000041
 30
0.0
 40
160.0
  1
C
 72
     4
 11
6844.2606843333378
 21
4069.5176600000041
 31
0.0
  0
TEXT
  5
45C4
  8
2-0
  6
CONTINUOUS
 62
     7
 10
8437.8497670000015
 20
3235.6071210000032
 30
0.0
 40
160.0
  1
側 面 立 面 図
 50
0.000139
 72
     4
 11
9083.1829062508223
 21
3315.6086865833772
 31
0.0
  0
TEXT
  5
45C5
  8
2-0
  6
CONTINUOUS
 62
     7
 10
10434.675091388441
 20
3262.8040555833791
 30
0.0
 40
160.0
  1
1
 72
     4
 11
10461.34175805511
 21
3342.8040555833782
 31
0.0
  0
TEXT
  5
45C6
  8
2-0
  6
CONTINUOUS
 62
     7
 10
10677.76380863914
 20
3182.8055235833781
 30
0.0
 40
160.0
  1
80
 72
     4
 11
10797.76380863914
 21
3262.8055235833772
 31
0.0
  0
TEXT
  5
45C7
  8
2-0
  6
CONTINUOUS
 62
     7
 10
9935.6770573884405
 20
3235.6086865833781
 30
0.0
 40
160.0
  1
(S=  /   )
 72
     4
 11
10495.677057388441
 21
3315.6086865833772
 31
0.0
  0
LINE
  5
45C8
  8
0-1
  6
CONTINUOUS
 62
     3
 10
12751.885873999991
 20
6262.7287530000021
 30
0.0
 11
12751.885873999991
 21
8123.7746320000033
 31
0.0
  0
LINE
  5
45C9
  8
0-1
  6
CONTINUOUS
 62
     3
 10
12766.885676
 20
6262.7287530000021
 30
0.0
 11
12766.885676
 21
8123.7746320000033
 31
0.0
  0
LINE
  5
45CA
  8
SUNPOU
  6
CONTINUOUS
 10
4331.0281186115189
 20
20202.812354000002
 30
0.0
 11
4331.0281186115189
 21
20999.77962177846
 31
0.0
  0
LINE
  5
45CB
  8
SUNPOU
  6
CONTINUOUS
 10
4331.0281186115162
 20
13601.32112999998
 30
0.0
 11
4331.0281186115162
 21
12925.8950141896
 31
0.0
  0
LINE
  5
45CC
  8
SUNPOU
  6
CONTINUOUS
 10
6615.383511
 20
9360.7302639999998
 30
0.0
 11
6140.0943983597681
 21
9360.7302639999998
 31
0.0
  0
LINE
  5
45CF
  8
WAKUSEN-01
 10
868.00000000000193
 20
22484.000000000011
 30
0.0
 11
32764.000000000011
 21
22484.000000000011
 31
0.0
  0
LINE
  5
45D2
  8
WAKUSEN-01
 10
20560.0
 20
2484.0
 30
0.0
 11
32764.0
 21
2484.0
 31
0.0
  0
LINE
  5
45D3
  8
WAKUSEN-02
 10
20560.0
 20
1655.9999999999991
 30
0.0
 11
26868.0
 21
1655.9999999999991
 31
0.0
  0
TEXT
  5
45D4
  8
WAKUMOJI-01
 10
20670.260259962761
 20
2125.9030093393221
 30
0.0
 40
240.0
  1
名　称
  7
WAKUMOJI
  0
TEXT
  5
45D5
  8
WAKUMOJI-01
 10
20656.505485091919
 20
1319.12897497982
 30
0.0
 40
240.0
  1
機種名
  7
WAKUMOJI
  0
LINE
  5
45D8
  8
YODOROGO
 10
29977.604341291921
 20
1995.7494964292871
 30
0.0
 11
29829.604341291921
 21
1995.7494964292871
 31
0.0
1001
AUTOCAD_POSTSCRIPT_FIGURE
1002
{
1000
PSFILL
1000
Grayscale
1000
Grayscale
1070
    25
1002
}
  0
LINE
  5
45D9
  8
YODOROGO
 10
29829.604341291921
 20
1947.749496429288
 30
0.0
 11
29977.604341291921
 21
1947.749496429288
 31
0.0
1001
AUTOCAD_POSTSCRIPT_FIGURE
1002
{
1000
PSFILL
1000
Grayscale
1000
Grayscale
1070
    25
1002
}
  0
LINE
  5
45DA
  8
YODOROGO
 10
29977.604341291921
 20
1907.7494964292871
 30
0.0
 11
29829.604341291921
 21
1907.7494964292871
 31
0.0
1001
AUTOCAD_POSTSCRIPT_FIGURE
1002
{
1000
PSFILL
1000
Grayscale
1000
Grayscale
1070
    25
1002
}
  0
LINE
  5
45DB
  8
YODOROGO
 10
29829.604341291921
 20
1859.749496429288
 30
0.0
 11
29977.604341291921
 21
1859.749496429288
 31
0.0
1001
AUTOCAD_POSTSCRIPT_FIGURE
1002
{
1000
PSFILL
1000
Grayscale
1000
Grayscale
1070
    25
1002
}
  0
LINE
  5
45DC
  8
YODOROGO
 10
29977.604341291921
 20
1819.7494964292871
 30
0.0
 11
29829.604341291921
 21
1819.7494964292871
 31
0.0
1001
AUTOCAD_POSTSCRIPT_FIGURE
1002
{
1000
PSFILL
1000
Grayscale
1000
Grayscale
1070
    25
1002
}
  0
LINE
  5
45DD
  8
YODOROGO
 10
29921.60434129191
 20
1707.749496429288
 30
0.0
 11
29977.604341291921
 21
1707.749496429288
 31
0.0
1001
AUTOCAD_POSTSCRIPT_FIGURE
1002
{
1000
PSFILL
1000
Grayscale
1000
Grayscale
1070
    25
1002
}
  0
LINE
  5
45DE
  8
YODOROGO
 10
29737.604341291921
 20
1427.749496429288
 30
0.0
 11
29937.604341291932
 21
1481.3393349155101
 31
0.0
  0
LINE
  5
45DF
  8
YODOROGO
 10
29949.60434129191
 20
1707.749496429288
 30
0.0
 11
29885.604341291921
 21
1707.749496429288
 31
0.0
  0
ARC
  5
45E0
  8
YODOROGO
 10
30254.34774982791
 20
1807.864609233261
 30
0.0
 40
381.88686420564721
 50
213.96111677667841
 51
264.47872074317792
  0
ARC
  5
45E1
  8
YODOROGO
 10
30254.347749827921
 20
1807.864609233302
 30
0.0
 40
381.8868642056816
 50
208.14114420486601
 51
212.9210361185994
  0
LINE
  5
45E2
  8
YODOROGO
 10
29771.409872985321
 20
1556.807661346234
 30
0.0
 11
29933.78413250855
 21
1600.3157130570869
 31
0.0
  0
LINE
  5
45E3
  8
YODOROGO
 10
29737.604341291921
 20
1427.749496429288
 30
0.0
 11
29937.604341291932
 21
1481.3393349155101
 31
0.0
  0
LINE
  5
45E4
  8
YODOROGO
 10
29949.60434129191
 20
1707.749496429288
 30
0.0
 11
29885.604341291921
 21
1707.749496429288
 31
0.0
  0
ARC
  5
45E5
  8
YODOROGO
 10
30254.34774982791
 20
1807.864609233261
 30
0.0
 40
381.88686420564721
 50
213.96111677667841
 51
264.47872074317792
  0
LINE
  5
45E6
  8
YODOROGO
 10
28793.60434129191
 20
1819.7494964292871
 30
0.0
 11
28433.60434129191
 21
1819.7494964292871
 31
0.0
  0
LINE
  5
45E7
  8
YODOROGO
 10
28513.60434129191
 20
1427.749496429288
 30
0.0
 11
28793.60434129191
 21
1427.749496429288
 31
0.0
  0
LINE
  5
45E8
  8
YODOROGO
 10
28729.604341291921
 20
1923.7494964292871
 30
0.0
 11
28497.60434129191
 21
1923.7494964292871
 31
0.0
  0
LINE
  5
45E9
  8
YODOROGO
 10
28585.604341291921
 20
2027.749496429288
 30
0.0
 11
28657.604341291921
 21
2027.749496429288
 31
0.0
  0
LINE
  5
45EA
  8
YODOROGO
 10
28433.60434129191
 20
1707.749496429288
 30
0.0
 11
28433.60434129191
 21
1507.749496429288
 31
0.0
  0
LINE
  5
45EB
  8
YODOROGO
 10
28497.60434129191
 20
1563.7494964292871
 30
0.0
 11
28497.60434129191
 21
1707.749496429288
 31
0.0
  0
LINE
  5
45EC
  8
YODOROGO
 10
28585.604341291921
 20
1747.74949642929
 30
0.0
 11
28585.604341291921
 21
1547.749496429288
 31
0.0
  0
LINE
  5
45ED
  8
YODOROGO
 10
27857.604341291921
 20
1683.749496429288
 30
0.0
 11
27777.604341291921
 21
1619.9724140445701
 31
0.0
  0
LINE
  5
45EE
  8
YODOROGO
 10
27937.604341291921
 20
1619.9724140445701
 30
0.0
 11
27857.604341291921
 21
1683.749496429288
 31
0.0
  0
LINE
  5
45EF
  8
YODOROGO
 10
27857.604341291921
 20
1707.749496429288
 30
0.0
 11
27937.604341291921
 21
1643.9724140445701
 31
0.0
  0
LINE
  5
45F0
  8
YODOROGO
 10
27777.604341291921
 20
1643.9724140445701
 30
0.0
 11
27857.604341291921
 21
1707.749496429288
 31
0.0
  0
LINE
  5
45F1
  8
YODOROGO
 10
28040.913204016892
 20
1659.749496429288
 30
0.0
 11
28040.913204016892
 21
1683.7494964292871
 31
0.0
  0
LINE
  5
45F2
  8
YODOROGO
 10
27977.604341291921
 20
1683.7494964292871
 30
0.0
 11
27977.604341291921
 21
1667.749496429285
 31
0.0
  0
LINE
  5
45F3
  8
YODOROGO
 10
28098.135520230931
 20
1707.749496429288
 30
0.0
 11
28098.135520230931
 21
1655.5036372746561
 31
0.0
1001
AUTOCAD_POSTSCRIPT_FIGURE
1002
{
1000
PSFILL
1000
Grayscale
1000
Grayscale
1070
   100
1002
}
  0
LINE
  5
45F4
  8
YODOROGO
 10
28082.135520230921
 20
1655.5036372746561
 30
0.0
 11
28082.135520230921
 21
1707.749496429288
 31
0.0
1001
AUTOCAD_POSTSCRIPT_FIGURE
1002
{
1000
PSFILL
1000
Grayscale
1000
Grayscale
1070
   100
1002
}
  0
LINE
  5
45F5
  8
YODOROGO
 10
27809.604341291921
 20
1608.771904043258
 30
0.0
 11
27809.604341291921
 21
1632.771904043258
 31
0.0
  0
LINE
  5
45F6
  8
YODOROGO
 10
27905.604341291921
 20
1608.771904043258
 30
0.0
 11
27809.604341291921
 21
1608.771904043258
 31
0.0
  0
LINE
  5
45F7
  8
YODOROGO
 10
27905.604341291921
 20
1632.771904043258
 30
0.0
 11
27905.604341291921
 21
1608.771904043258
 31
0.0
  0
LINE
  5
45F8
  8
YODOROGO
 10
27809.604341291921
 20
1632.771904043258
 30
0.0
 11
27905.604341291921
 21
1632.771904043258
 31
0.0
  0
LINE
  5
45F9
  8
YODOROGO
 10
27824.509588915738
 20
1568.5028573704751
 30
0.0
 11
27785.604341291921
 21
1475.7494964292871
 31
0.0
1001
AUTOCAD_POSTSCRIPT_FIGURE
1002
{
1000
PSFILL
1000
Grayscale
1000
Grayscale
1070
   100
1002
}
  0
LINE
  5
45FA
  8
YODOROGO
 10
27777.604341291921
 20
1568.5028573704751
 30
0.0
 11
27824.509588915738
 21
1568.5028573704751
 31
0.0
1001
AUTOCAD_POSTSCRIPT_FIGURE
1002
{
1000
PSFILL
1000
Grayscale
1000
Grayscale
1070
   100
1002
}
  0
LINE
  5
45FB
  8
YODOROGO
 10
27777.604341291921
 20
1588.5028573704751
 30
0.0
 11
27777.604341291921
 21
1568.5028573704751
 31
0.0
1001
AUTOCAD_POSTSCRIPT_FIGURE
1002
{
1000
PSFILL
1000
Grayscale
1000
Grayscale
1070
   100
1002
}
  0
LINE
  5
45FC
  8
YODOROGO
 10
27937.604341291921
 20
1588.5028573704751
 30
0.0
 11
27777.604341291921
 21
1588.5028573704751
 31
0.0
1001
AUTOCAD_POSTSCRIPT_FIGURE
1002
{
1000
PSFILL
1000
Grayscale
1000
Grayscale
1070
   100
1002
}
  0
LINE
  5
45FD
  8
YODOROGO
 10
27937.604341291921
 20
1568.5028573704751
 30
0.0
 11
27937.604341291921
 21
1588.5028573704751
 31
0.0
1001
AUTOCAD_POSTSCRIPT_FIGURE
1002
{
1000
PSFILL
1000
Grayscale
1000
Grayscale
1070
   100
1002
}
  0
LINE
  5
45FE
  8
YODOROGO
 10
27844.509588915738
 20
1568.5028573704751
 30
0.0
 11
27937.604341291921
 21
1568.5028573704751
 31
0.0
1001
AUTOCAD_POSTSCRIPT_FIGURE
1002
{
1000
PSFILL
1000
Grayscale
1000
Grayscale
1070
   100
1002
}
  0
LINE
  5
45FF
  8
YODOROGO
 10
27815.546718284771
 20
1495.7494964292871
 30
0.0
 11
27844.509588915738
 21
1568.5028573704751
 31
0.0
1001
AUTOCAD_POSTSCRIPT_FIGURE
1002
{
1000
PSFILL
1000
Grayscale
1000
Grayscale
1070
   100
1002
}
  0
LINE
  5
4600
  8
YODOROGO
 10
27902.054790808648
 20
1495.7494964292871
 30
0.0
 11
27815.546718284771
 21
1495.7494964292871
 31
0.0
1001
AUTOCAD_POSTSCRIPT_FIGURE
1002
{
1000
PSFILL
1000
Grayscale
1000
Grayscale
1070
   100
1002
}
  0
LINE
  5
4601
  8
YODOROGO
 10
27885.065004790951
 20
1536.2338106976929
 30
0.0
 11
27902.054790808648
 21
1495.7494964292871
 31
0.0
1001
AUTOCAD_POSTSCRIPT_FIGURE
1002
{
1000
PSFILL
1000
Grayscale
1000
Grayscale
1070
   100
1002
}
  0
LINE
  5
4602
  8
YODOROGO
 10
27901.065004790951
 20
1536.2338106976929
 30
0.0
 11
27885.065004790951
 21
1536.2338106976929
 31
0.0
1001
AUTOCAD_POSTSCRIPT_FIGURE
1002
{
1000
PSFILL
1000
Grayscale
1000
Grayscale
1070
   100
1002
}
  0
LINE
  5
4603
  8
YODOROGO
 10
27929.604341291921
 20
1475.7494964292871
 30
0.0
 11
27901.065004790951
 21
1536.2338106976929
 31
0.0
1001
AUTOCAD_POSTSCRIPT_FIGURE
1002
{
1000
PSFILL
1000
Grayscale
1000
Grayscale
1070
   100
1002
}
  0
LINE
  5
4604
  8
YODOROGO
 10
27785.604341291921
 20
1475.7494964292871
 30
0.0
 11
27929.604341291921
 21
1475.7494964292871
 31
0.0
1001
AUTOCAD_POSTSCRIPT_FIGURE
1002
{
1000
PSFILL
1000
Grayscale
1000
Grayscale
1070
   100
1002
}
  0
LINE
  5
4605
  8
YODOROGO
 10
27777.604341291921
 20
1619.9724140445701
 30
0.0
 11
27777.604341291921
 21
1643.9724140445701
 31
0.0
  0
LINE
  5
4606
  8
YODOROGO
 10
27937.604341291921
 20
1643.9724140445701
 30
0.0
 11
27937.604341291921
 21
1619.9724140445701
 31
0.0
  0
ARC
  5
4607
  8
YODOROGO
 10
28225.940442146959
 20
1600.877765325326
 30
0.0
 40
175.9999999999998
 50
280.3644312771313
 51
3.5414836592180561
  0
ARC
  5
4608
  8
YODOROGO
 10
28235.756030759301
 20
1633.5978069619041
 30
0.0
 40
111.9999999999982
 50
281.24905825041549
 51
348.75094174958321
  0
LINE
  5
4609
  8
YODOROGO
 10
28257.604341291921
 20
1523.7494964292871
 30
0.0
 11
28257.604341291921
 21
1427.749496429288
 31
0.0
  0
LINE
  5
460A
  8
YODOROGO
 10
28020.088903736909
 20
1610.650565061914
 30
0.0
 11
28040.913204016892
 21
1659.749496429288
 31
0.0
  0
LINE
  5
460B
  8
YODOROGO
 10
28041.604341291921
 20
1583.120489948401
 30
0.0
 11
28020.088903736909
 21
1610.650565061914
 31
0.0
  0
LINE
  5
460C
  8
YODOROGO
 10
28041.604341291921
 20
1563.120489948398
 30
0.0
 11
28041.604341291921
 21
1583.120489948401
 31
0.0
  0
LINE
  5
460D
  8
YODOROGO
 10
28017.604341291921
 20
1585.2370637495301
 30
0.0
 11
28041.604341291921
 21
1563.120489948398
 31
0.0
  0
LINE
  5
460E
  8
YODOROGO
 10
28017.604341291921
 20
1475.7494964292871
 30
0.0
 11
28017.604341291921
 21
1585.2370637495301
 31
0.0
  0
LINE
  5
460F
  8
YODOROGO
 10
28001.604341291921
 20
1475.7494964292871
 30
0.0
 11
28017.604341291921
 21
1475.7494964292871
 31
0.0
  0
LINE
  5
4610
  8
YODOROGO
 10
28001.604341291921
 20
1580.0053496897469
 30
0.0
 11
28001.604341291921
 21
1475.7494964292871
 31
0.0
  0
LINE
  5
4611
  8
YODOROGO
 10
27977.604341291921
 20
1532.7680790334291
 30
0.0
 11
28001.604341291921
 21
1580.0053496897469
 31
0.0
  0
LINE
  5
4612
  8
YODOROGO
 10
27977.604341291921
 20
1556.76807903343
 30
0.0
 11
27977.604341291921
 21
1532.7680790334291
 31
0.0
  0
LINE
  5
4613
  8
YODOROGO
 10
28025.828774291349
 20
1667.749496429285
 30
0.0
 11
27977.604341291921
 21
1556.76807903343
 31
0.0
  0
LINE
  5
4614
  8
YODOROGO
 10
27977.604341291921
 20
1667.749496429285
 30
0.0
 11
28025.828774291349
 21
1667.749496429285
 31
0.0
  0
LINE
  5
4615
  8
YODOROGO
 10
28050.135520230899
 20
1655.5036372746561
 30
0.0
 11
28082.135520230921
 21
1655.5036372746561
 31
0.0
1001
AUTOCAD_POSTSCRIPT_FIGURE
1002
{
1000
PSFILL
1000
Grayscale
1000
Grayscale
1070
   100
1002
}
  0
LINE
  5
4616
  8
YODOROGO
 10
28050.135520230899
 20
1631.5036372746561
 30
0.0
 11
28050.135520230899
 21
1655.5036372746561
 31
0.0
1001
AUTOCAD_POSTSCRIPT_FIGURE
1002
{
1000
PSFILL
1000
Grayscale
1000
Grayscale
1070
   100
1002
}
  0
LINE
  5
4617
  8
YODOROGO
 10
28082.135520230921
 20
1631.5036372746561
 30
0.0
 11
28050.135520230899
 21
1631.5036372746561
 31
0.0
1001
AUTOCAD_POSTSCRIPT_FIGURE
1002
{
1000
PSFILL
1000
Grayscale
1000
Grayscale
1070
   100
1002
}
  0
LINE
  5
4618
  8
YODOROGO
 10
28082.135520230921
 20
1499.749496429288
 30
0.0
 11
28082.135520230921
 21
1631.5036372746561
 31
0.0
1001
AUTOCAD_POSTSCRIPT_FIGURE
1002
{
1000
PSFILL
1000
Grayscale
1000
Grayscale
1070
   100
1002
}
  0
LINE
  5
4619
  8
YODOROGO
 10
28050.135520230921
 20
1499.749496429288
 30
0.0
 11
28082.135520230921
 21
1499.749496429288
 31
0.0
1001
AUTOCAD_POSTSCRIPT_FIGURE
1002
{
1000
PSFILL
1000
Grayscale
1000
Grayscale
1070
   100
1002
}
  0
LINE
  5
461A
  8
YODOROGO
 10
28050.135520230921
 20
1475.7494964292871
 30
0.0
 11
28050.135520230921
 21
1499.749496429288
 31
0.0
1001
AUTOCAD_POSTSCRIPT_FIGURE
1002
{
1000
PSFILL
1000
Grayscale
1000
Grayscale
1070
   100
1002
}
  0
LINE
  5
461B
  8
YODOROGO
 10
28137.604341291921
 20
1475.7494964292871
 30
0.0
 11
28050.135520230921
 21
1475.7494964292871
 31
0.0
1001
AUTOCAD_POSTSCRIPT_FIGURE
1002
{
1000
PSFILL
1000
Grayscale
1000
Grayscale
1070
   100
1002
}
  0
LINE
  5
461C
  8
YODOROGO
 10
28137.604341291921
 20
1499.749496429288
 30
0.0
 11
28137.604341291921
 21
1475.7494964292871
 31
0.0
1001
AUTOCAD_POSTSCRIPT_FIGURE
1002
{
1000
PSFILL
1000
Grayscale
1000
Grayscale
1070
   100
1002
}
  0
LINE
  5
461D
  8
YODOROGO
 10
28098.135520230931
 20
1499.749496429288
 30
0.0
 11
28137.604341291921
 21
1499.749496429288
 31
0.0
1001
AUTOCAD_POSTSCRIPT_FIGURE
1002
{
1000
PSFILL
1000
Grayscale
1000
Grayscale
1070
   100
1002
}
  0
LINE
  5
461E
  8
YODOROGO
 10
28098.135520230931
 20
1631.5036372746561
 30
0.0
 11
28098.135520230931
 21
1499.749496429288
 31
0.0
1001
AUTOCAD_POSTSCRIPT_FIGURE
1002
{
1000
PSFILL
1000
Grayscale
1000
Grayscale
1070
   100
1002
}
  0
LINE
  5
461F
  8
YODOROGO
 10
28137.604341291921
 20
1631.5036372746561
 30
0.0
 11
28098.135520230931
 21
1631.5036372746561
 31
0.0
1001
AUTOCAD_POSTSCRIPT_FIGURE
1002
{
1000
PSFILL
1000
Grayscale
1000
Grayscale
1070
   100
1002
}
  0
LINE
  5
4620
  8
YODOROGO
 10
28137.604341291921
 20
1655.5036372746561
 30
0.0
 11
28137.604341291921
 21
1631.5036372746561
 31
0.0
1001
AUTOCAD_POSTSCRIPT_FIGURE
1002
{
1000
PSFILL
1000
Grayscale
1000
Grayscale
1070
   100
1002
}
  0
LINE
  5
4621
  8
YODOROGO
 10
28098.135520230931
 20
1655.5036372746561
 30
0.0
 11
28137.604341291921
 21
1655.5036372746561
 31
0.0
1001
AUTOCAD_POSTSCRIPT_FIGURE
1002
{
1000
PSFILL
1000
Grayscale
1000
Grayscale
1070
   100
1002
}
  0
LINE
  5
4622
  8
YODOROGO
 10
28401.60434129191
 20
1667.749496429288
 30
0.0
 11
28345.604341291921
 21
1667.749496429288
 31
0.0
  0
LINE
  5
4623
  8
YODOROGO
 10
28401.60434129191
 20
1611.749496429288
 30
0.0
 11
28401.60434129191
 21
1667.749496429288
 31
0.0
  0
LINE
  5
4624
  8
YODOROGO
 10
28345.604341291921
 20
1667.749496429288
 30
0.0
 11
28345.604341291921
 21
1611.749496429288
 31
0.0
  0
ARC
  5
4625
  8
YODOROGO
 10
28513.60434129191
 20
1507.749496429288
 30
0.0
 40
80.0
 50
180.0
 51
270.0
  0
ARC
  5
4626
  8
YODOROGO
 10
28537.604341291921
 20
1563.7494964292871
 30
0.0
 40
40.0
 50
180.0
 51
270.0
  0
LINE
  5
4627
  8
YODOROGO
 10
28561.604341291932
 20
1523.7494964292871
 30
0.0
 11
28537.604341291921
 21
1523.7494964292871
 31
0.0
  0
ARC
  5
4628
  8
YODOROGO
 10
28561.604341291932
 20
1547.749496429285
 30
0.0
 40
23.999999999996358
 50
270.0
 51
0.0000000000054281
  0
LINE
  5
4629
  8
YODOROGO
 10
27801.604341291921
 20
1890.786580793706
 30
0.0
 11
27777.604341291921
 21
1843.776747951672
 31
0.0
1001
AUTOCAD_POSTSCRIPT_FIGURE
1002
{
1000
PSFILL
1000
Grayscale
1000
Grayscale
1070
   100
1002
}
  0
LINE
  5
462A
  8
YODOROGO
 10
27801.604341291921
 20
1747.749496429286
 30
0.0
 11
27801.604341291921
 21
1890.786580793706
 31
0.0
1001
AUTOCAD_POSTSCRIPT_FIGURE
1002
{
1000
PSFILL
1000
Grayscale
1000
Grayscale
1070
   100
1002
}
  0
LINE
  5
462B
  8
YODOROGO
 10
27817.604341291921
 20
1747.749496429286
 30
0.0
 11
27801.604341291921
 21
1747.749496429286
 31
0.0
1001
AUTOCAD_POSTSCRIPT_FIGURE
1002
{
1000
PSFILL
1000
Grayscale
1000
Grayscale
1070
   100
1002
}
  0
LINE
  5
462C
  8
YODOROGO
 10
27817.604341291921
 20
1893.7713320852661
 30
0.0
 11
27817.604341291921
 21
1747.749496429286
 31
0.0
1001
AUTOCAD_POSTSCRIPT_FIGURE
1002
{
1000
PSFILL
1000
Grayscale
1000
Grayscale
1070
   100
1002
}
  0
LINE
  5
462D
  8
YODOROGO
 10
27841.604341291921
 20
1867.6547582841361
 30
0.0
 11
27817.604341291921
 21
1893.7713320852661
 31
0.0
1001
AUTOCAD_POSTSCRIPT_FIGURE
1002
{
1000
PSFILL
1000
Grayscale
1000
Grayscale
1070
   100
1002
}
  0
LINE
  5
462E
  8
YODOROGO
 10
27841.604341291921
 20
1883.6547582841361
 30
0.0
 11
27841.604341291921
 21
1867.6547582841361
 31
0.0
1001
AUTOCAD_POSTSCRIPT_FIGURE
1002
{
1000
PSFILL
1000
Grayscale
1000
Grayscale
1070
   100
1002
}
  0
LINE
  5
462F
  8
YODOROGO
 10
27817.604341291921
 20
1917.7713320852649
 30
0.0
 11
27841.604341291921
 21
1883.6547582841361
 31
0.0
1001
AUTOCAD_POSTSCRIPT_FIGURE
1002
{
1000
PSFILL
1000
Grayscale
1000
Grayscale
1070
   100
1002
}
  0
LINE
  5
4630
  8
YODOROGO
 10
27817.604341291921
 20
1939.749496429288
 30
0.0
 11
27817.604341291921
 21
1917.7713320852649
 31
0.0
1001
AUTOCAD_POSTSCRIPT_FIGURE
1002
{
1000
PSFILL
1000
Grayscale
1000
Grayscale
1070
   100
1002
}
  0
LINE
  5
4631
  8
YODOROGO
 10
27889.604341291921
 20
1939.749496429288
 30
0.0
 11
27817.604341291921
 21
1939.749496429288
 31
0.0
1001
AUTOCAD_POSTSCRIPT_FIGURE
1002
{
1000
PSFILL
1000
Grayscale
1000
Grayscale
1070
   100
1002
}
  0
LINE
  5
4632
  8
YODOROGO
 10
27889.604341291921
 20
1900.5683489363
 30
0.0
 11
27889.604341291921
 21
1939.749496429288
 31
0.0
1001
AUTOCAD_POSTSCRIPT_FIGURE
1002
{
1000
PSFILL
1000
Grayscale
1000
Grayscale
1070
   100
1002
}
  0
LINE
  5
4633
  8
YODOROGO
 10
27857.604341291921
 20
1900.5683489363
 30
0.0
 11
27889.604341291921
 21
1900.5683489363
 31
0.0
1001
AUTOCAD_POSTSCRIPT_FIGURE
1002
{
1000
PSFILL
1000
Grayscale
1000
Grayscale
1070
   100
1002
}
  0
LINE
  5
4634
  8
YODOROGO
 10
27857.604341291921
 20
1884.568348936298
 30
0.0
 11
27857.604341291921
 21
1900.5683489363
 31
0.0
1001
AUTOCAD_POSTSCRIPT_FIGURE
1002
{
1000
PSFILL
1000
Grayscale
1000
Grayscale
1070
   100
1002
}
  0
LINE
  5
4635
  8
YODOROGO
 10
27889.604341291921
 20
1884.568348936298
 30
0.0
 11
27857.604341291921
 21
1884.568348936298
 31
0.0
1001
AUTOCAD_POSTSCRIPT_FIGURE
1002
{
1000
PSFILL
1000
Grayscale
1000
Grayscale
1070
   100
1002
}
  0
LINE
  5
4636
  8
YODOROGO
 10
27889.604341291921
 20
1879.6191779644371
 30
0.0
 11
27889.604341291921
 21
1884.568348936298
 31
0.0
1001
AUTOCAD_POSTSCRIPT_FIGURE
1002
{
1000
PSFILL
1000
Grayscale
1000
Grayscale
1070
   100
1002
}
  0
LINE
  5
4637
  8
YODOROGO
 10
27849.604341291921
 20
1812.974981161417
 30
0.0
 11
27889.604341291921
 21
1879.6191779644371
 31
0.0
1001
AUTOCAD_POSTSCRIPT_FIGURE
1002
{
1000
PSFILL
1000
Grayscale
1000
Grayscale
1070
   100
1002
}
  0
LINE
  5
4638
  8
YODOROGO
 10
27849.604341291921
 20
1796.9749811614161
 30
0.0
 11
27849.604341291921
 21
1812.974981161417
 31
0.0
1001
AUTOCAD_POSTSCRIPT_FIGURE
1002
{
1000
PSFILL
1000
Grayscale
1000
Grayscale
1070
   100
1002
}
  0
LINE
  5
4639
  8
YODOROGO
 10
27889.604341291921
 20
1847.6191779644359
 30
0.0
 11
27849.604341291921
 21
1796.9749811614161
 31
0.0
1001
AUTOCAD_POSTSCRIPT_FIGURE
1002
{
1000
PSFILL
1000
Grayscale
1000
Grayscale
1070
   100
1002
}
  0
LINE
  5
463A
  8
YODOROGO
 10
27889.604341291921
 20
1747.749496429286
 30
0.0
 11
27889.604341291921
 21
1847.6191779644359
 31
0.0
1001
AUTOCAD_POSTSCRIPT_FIGURE
1002
{
1000
PSFILL
1000
Grayscale
1000
Grayscale
1070
   100
1002
}
  0
LINE
  5
463B
  8
YODOROGO
 10
27905.604341291921
 20
1747.749496429286
 30
0.0
 11
27889.604341291921
 21
1747.749496429286
 31
0.0
1001
AUTOCAD_POSTSCRIPT_FIGURE
1002
{
1000
PSFILL
1000
Grayscale
1000
Grayscale
1070
   100
1002
}
  0
LINE
  5
463C
  8
YODOROGO
 10
27905.604341291921
 20
1849.409012158806
 30
0.0
 11
27905.604341291921
 21
1747.749496429286
 31
0.0
1001
AUTOCAD_POSTSCRIPT_FIGURE
1002
{
1000
PSFILL
1000
Grayscale
1000
Grayscale
1070
   100
1002
}
  0
LINE
  5
463D
  8
YODOROGO
 10
27937.604341291921
 20
1796.9749811614161
 30
0.0
 11
27905.604341291921
 21
1849.409012158806
 31
0.0
1001
AUTOCAD_POSTSCRIPT_FIGURE
1002
{
1000
PSFILL
1000
Grayscale
1000
Grayscale
1070
   100
1002
}
  0
LINE
  5
463E
  8
YODOROGO
 10
27937.604341291921
 20
1812.974981161417
 30
0.0
 11
27937.604341291921
 21
1796.9749811614161
 31
0.0
1001
AUTOCAD_POSTSCRIPT_FIGURE
1002
{
1000
PSFILL
1000
Grayscale
1000
Grayscale
1070
   100
1002
}
  0
LINE
  5
463F
  8
YODOROGO
 10
27905.604341291921
 20
1881.4090121588081
 30
0.0
 11
27937.604341291921
 21
1812.974981161417
 31
0.0
1001
AUTOCAD_POSTSCRIPT_FIGURE
1002
{
1000
PSFILL
1000
Grayscale
1000
Grayscale
1070
   100
1002
}
  0
LINE
  5
4640
  8
YODOROGO
 10
27905.604341291921
 20
1884.5683489363
 30
0.0
 11
27905.604341291921
 21
1881.4090121588081
 31
0.0
1001
AUTOCAD_POSTSCRIPT_FIGURE
1002
{
1000
PSFILL
1000
Grayscale
1000
Grayscale
1070
   100
1002
}
  0
LINE
  5
4641
  8
YODOROGO
 10
27937.604341291921
 20
1884.568348936298
 30
0.0
 11
27905.604341291921
 21
1884.5683489363
 31
0.0
1001
AUTOCAD_POSTSCRIPT_FIGURE
1002
{
1000
PSFILL
1000
Grayscale
1000
Grayscale
1070
   100
1002
}
  0
LINE
  5
4642
  8
YODOROGO
 10
27937.604341291921
 20
1900.5683489363
 30
0.0
 11
27937.604341291921
 21
1884.568348936298
 31
0.0
1001
AUTOCAD_POSTSCRIPT_FIGURE
1002
{
1000
PSFILL
1000
Grayscale
1000
Grayscale
1070
   100
1002
}
  0
LINE
  5
4643
  8
YODOROGO
 10
27905.604341291921
 20
1900.5683489363
 30
0.0
 11
27937.604341291921
 21
1900.5683489363
 31
0.0
1001
AUTOCAD_POSTSCRIPT_FIGURE
1002
{
1000
PSFILL
1000
Grayscale
1000
Grayscale
1070
   100
1002
}
  0
LINE
  5
4644
  8
YODOROGO
 10
27905.604341291921
 20
1939.749496429288
 30
0.0
 11
27905.604341291921
 21
1900.5683489363
 31
0.0
1001
AUTOCAD_POSTSCRIPT_FIGURE
1002
{
1000
PSFILL
1000
Grayscale
1000
Grayscale
1070
   100
1002
}
  0
LINE
  5
4645
  8
YODOROGO
 10
27937.604341291921
 20
1939.749496429288
 30
0.0
 11
27905.604341291921
 21
1939.749496429288
 31
0.0
1001
AUTOCAD_POSTSCRIPT_FIGURE
1002
{
1000
PSFILL
1000
Grayscale
1000
Grayscale
1070
   100
1002
}
  0
LINE
  5
4646
  8
YODOROGO
 10
27937.604341291921
 20
1955.7494964292871
 30
0.0
 11
27937.604341291921
 21
1939.749496429288
 31
0.0
1001
AUTOCAD_POSTSCRIPT_FIGURE
1002
{
1000
PSFILL
1000
Grayscale
1000
Grayscale
1070
   100
1002
}
  0
LINE
  5
4647
  8
YODOROGO
 10
27905.604341291921
 20
1955.7494964292871
 30
0.0
 11
27937.604341291921
 21
1955.7494964292871
 31
0.0
1001
AUTOCAD_POSTSCRIPT_FIGURE
1002
{
1000
PSFILL
1000
Grayscale
1000
Grayscale
1070
   100
1002
}
  0
LINE
  5
4648
  8
YODOROGO
 10
27905.604341291921
 20
1979.749496429288
 30
0.0
 11
27905.604341291921
 21
1955.7494964292871
 31
0.0
1001
AUTOCAD_POSTSCRIPT_FIGURE
1002
{
1000
PSFILL
1000
Grayscale
1000
Grayscale
1070
   100
1002
}
  0
LINE
  5
4649
  8
YODOROGO
 10
27889.604341291921
 20
1979.749496429288
 30
0.0
 11
27905.604341291921
 21
1979.749496429288
 31
0.0
1001
AUTOCAD_POSTSCRIPT_FIGURE
1002
{
1000
PSFILL
1000
Grayscale
1000
Grayscale
1070
   100
1002
}
  0
LINE
  5
464A
  8
YODOROGO
 10
27889.604341291921
 20
1955.7494964292871
 30
0.0
 11
27889.604341291921
 21
1979.749496429288
 31
0.0
1001
AUTOCAD_POSTSCRIPT_FIGURE
1002
{
1000
PSFILL
1000
Grayscale
1000
Grayscale
1070
   100
1002
}
  0
LINE
  5
464B
  8
YODOROGO
 10
27865.604341291921
 20
1955.7494964292871
 30
0.0
 11
27889.604341291921
 21
1955.7494964292871
 31
0.0
1001
AUTOCAD_POSTSCRIPT_FIGURE
1002
{
1000
PSFILL
1000
Grayscale
1000
Grayscale
1070
   100
1002
}
  0
LINE
  5
464C
  8
YODOROGO
 10
27865.604341291921
 20
1979.749496429288
 30
0.0
 11
27865.604341291921
 21
1955.7494964292871
 31
0.0
1001
AUTOCAD_POSTSCRIPT_FIGURE
1002
{
1000
PSFILL
1000
Grayscale
1000
Grayscale
1070
   100
1002
}
  0
LINE
  5
464D
  8
YODOROGO
 10
27849.604341291921
 20
1979.749496429288
 30
0.0
 11
27865.604341291921
 21
1979.749496429288
 31
0.0
1001
AUTOCAD_POSTSCRIPT_FIGURE
1002
{
1000
PSFILL
1000
Grayscale
1000
Grayscale
1070
   100
1002
}
  0
LINE
  5
464E
  8
YODOROGO
 10
27849.604341291921
 20
1955.7494964292871
 30
0.0
 11
27849.604341291921
 21
1979.749496429288
 31
0.0
1001
AUTOCAD_POSTSCRIPT_FIGURE
1002
{
1000
PSFILL
1000
Grayscale
1000
Grayscale
1070
   100
1002
}
  0
LINE
  5
464F
  8
YODOROGO
 10
27817.604341291921
 20
1955.7494964292871
 30
0.0
 11
27849.604341291921
 21
1955.7494964292871
 31
0.0
1001
AUTOCAD_POSTSCRIPT_FIGURE
1002
{
1000
PSFILL
1000
Grayscale
1000
Grayscale
1070
   100
1002
}
  0
LINE
  5
4650
  8
YODOROGO
 10
27817.604341291921
 20
1979.749496429288
 30
0.0
 11
27817.604341291921
 21
1955.7494964292871
 31
0.0
1001
AUTOCAD_POSTSCRIPT_FIGURE
1002
{
1000
PSFILL
1000
Grayscale
1000
Grayscale
1070
   100
1002
}
  0
LINE
  5
4651
  8
YODOROGO
 10
27801.604341291921
 20
1979.749496429288
 30
0.0
 11
27817.604341291921
 21
1979.749496429288
 31
0.0
1001
AUTOCAD_POSTSCRIPT_FIGURE
1002
{
1000
PSFILL
1000
Grayscale
1000
Grayscale
1070
   100
1002
}
  0
LINE
  5
4652
  8
YODOROGO
 10
27801.604341291921
 20
1955.7494964292871
 30
0.0
 11
27801.604341291921
 21
1979.749496429288
 31
0.0
1001
AUTOCAD_POSTSCRIPT_FIGURE
1002
{
1000
PSFILL
1000
Grayscale
1000
Grayscale
1070
   100
1002
}
  0
LINE
  5
4653
  8
YODOROGO
 10
27777.604341291921
 20
1955.7494964292871
 30
0.0
 11
27801.604341291921
 21
1955.7494964292871
 31
0.0
1001
AUTOCAD_POSTSCRIPT_FIGURE
1002
{
1000
PSFILL
1000
Grayscale
1000
Grayscale
1070
   100
1002
}
  0
LINE
  5
4654
  8
YODOROGO
 10
27777.604341291921
 20
1939.749496429288
 30
0.0
 11
27777.604341291921
 21
1955.7494964292871
 31
0.0
1001
AUTOCAD_POSTSCRIPT_FIGURE
1002
{
1000
PSFILL
1000
Grayscale
1000
Grayscale
1070
   100
1002
}
  0
LINE
  5
4655
  8
YODOROGO
 10
27801.604341291921
 20
1939.749496429288
 30
0.0
 11
27777.604341291921
 21
1939.749496429288
 31
0.0
1001
AUTOCAD_POSTSCRIPT_FIGURE
1002
{
1000
PSFILL
1000
Grayscale
1000
Grayscale
1070
   100
1002
}
  0
LINE
  5
4656
  8
YODOROGO
 10
27801.604341291921
 20
1914.7865807937051
 30
0.0
 11
27801.604341291921
 21
1939.749496429288
 31
0.0
1001
AUTOCAD_POSTSCRIPT_FIGURE
1002
{
1000
PSFILL
1000
Grayscale
1000
Grayscale
1070
   100
1002
}
  0
LINE
  5
4657
  8
YODOROGO
 10
27777.604341291921
 20
1859.776747951671
 30
0.0
 11
27801.604341291921
 21
1914.7865807937051
 31
0.0
1001
AUTOCAD_POSTSCRIPT_FIGURE
1002
{
1000
PSFILL
1000
Grayscale
1000
Grayscale
1070
   100
1002
}
  0
LINE
  5
4658
  8
YODOROGO
 10
27777.604341291921
 20
1843.776747951672
 30
0.0
 11
27777.604341291921
 21
1859.776747951671
 31
0.0
1001
AUTOCAD_POSTSCRIPT_FIGURE
1002
{
1000
PSFILL
1000
Grayscale
1000
Grayscale
1070
   100
1002
}
  0
LINE
  5
4659
  8
YODOROGO
 10
28257.604341291921
 20
1867.7494964292871
 30
0.0
 11
28401.60434129191
 21
1824.877625640306
 31
0.0
1001
AUTOCAD_POSTSCRIPT_FIGURE
1002
{
1000
PSFILL
1000
Grayscale
1000
Grayscale
1070
   100
1002
}
  0
LINE
  5
465A
  8
YODOROGO
 10
28401.60434129191
 20
1752.877625640306
 30
0.0
 11
28257.604341291921
 21
1795.7494964292871
 31
0.0
1001
AUTOCAD_POSTSCRIPT_FIGURE
1002
{
1000
PSFILL
1000
Grayscale
1000
Grayscale
1070
   100
1002
}
  0
LINE
  5
465B
  8
YODOROGO
 10
28401.60434129191
 20
1984.877625640306
 30
0.0
 11
28257.604341291921
 21
2027.749496429288
 31
0.0
1001
AUTOCAD_POSTSCRIPT_FIGURE
1002
{
1000
PSFILL
1000
Grayscale
1000
Grayscale
1070
   100
1002
}
  0
LINE
  5
465C
  8
YODOROGO
 10
28257.604341291921
 20
1959.749496429288
 30
0.0
 11
28401.60434129191
 21
1916.8776256403071
 31
0.0
1001
AUTOCAD_POSTSCRIPT_FIGURE
1002
{
1000
PSFILL
1000
Grayscale
1000
Grayscale
1070
   100
1002
}
  0
LINE
  5
465D
  8
YODOROGO
 10
28257.604341291921
 20
1795.7494964292871
 30
0.0
 11
28257.604341291921
 21
1867.7494964292871
 31
0.0
1001
AUTOCAD_POSTSCRIPT_FIGURE
1002
{
1000
PSFILL
1000
Grayscale
1000
Grayscale
1070
   100
1002
}
  0
LINE
  5
465E
  8
YODOROGO
 10
28257.604341291921
 20
2027.749496429288
 30
0.0
 11
28257.604341291921
 21
1959.749496429288
 31
0.0
1001
AUTOCAD_POSTSCRIPT_FIGURE
1002
{
1000
PSFILL
1000
Grayscale
1000
Grayscale
1070
   100
1002
}
  0
LINE
  5
465F
  8
YODOROGO
 10
28080.236320206739
 20
1939.749496429288
 30
0.0
 11
28129.60434129191
 21
1747.749496429286
 31
0.0
1001
AUTOCAD_POSTSCRIPT_FIGURE
1002
{
1000
PSFILL
1000
Grayscale
1000
Grayscale
1070
   100
1002
}
  0
LINE
  5
4660
  8
YODOROGO
 10
27977.604341291921
 20
1939.749496429288
 30
0.0
 11
28080.236320206739
 21
1939.749496429288
 31
0.0
1001
AUTOCAD_POSTSCRIPT_FIGURE
1002
{
1000
PSFILL
1000
Grayscale
1000
Grayscale
1070
   100
1002
}
  0
LINE
  5
4661
  8
YODOROGO
 10
27977.604341291921
 20
1955.7494964292871
 30
0.0
 11
27977.604341291921
 21
1939.749496429288
 31
0.0
1001
AUTOCAD_POSTSCRIPT_FIGURE
1002
{
1000
PSFILL
1000
Grayscale
1000
Grayscale
1070
   100
1002
}
  0
LINE
  5
4662
  8
YODOROGO
 10
28076.60687851991
 20
1955.7494964292871
 30
0.0
 11
27977.604341291921
 21
1955.7494964292871
 31
0.0
1001
AUTOCAD_POSTSCRIPT_FIGURE
1002
{
1000
PSFILL
1000
Grayscale
1000
Grayscale
1070
   100
1002
}
  0
LINE
  5
4663
  8
YODOROGO
 10
28071.162715989711
 20
1979.749496429288
 30
0.0
 11
28076.60687851991
 21
1955.7494964292871
 31
0.0
1001
AUTOCAD_POSTSCRIPT_FIGURE
1002
{
1000
PSFILL
1000
Grayscale
1000
Grayscale
1070
   100
1002
}
  0
LINE
  5
4664
  8
YODOROGO
 10
28091.162715989711
 20
1979.749496429288
 30
0.0
 11
28071.162715989711
 21
1979.749496429288
 31
0.0
1001
AUTOCAD_POSTSCRIPT_FIGURE
1002
{
1000
PSFILL
1000
Grayscale
1000
Grayscale
1070
   100
1002
}
  0
LINE
  5
4665
  8
YODOROGO
 10
28095.806878519939
 20
1955.7494964292871
 30
0.0
 11
28091.162715989711
 21
1979.749496429288
 31
0.0
1001
AUTOCAD_POSTSCRIPT_FIGURE
1002
{
1000
PSFILL
1000
Grayscale
1000
Grayscale
1070
   100
1002
}
  0
LINE
  5
4666
  8
YODOROGO
 10
28121.604341291921
 20
1955.7494964292871
 30
0.0
 11
28095.806878519939
 21
1955.7494964292871
 31
0.0
1001
AUTOCAD_POSTSCRIPT_FIGURE
1002
{
1000
PSFILL
1000
Grayscale
1000
Grayscale
1070
   100
1002
}
  0
LINE
  5
4667
  8
YODOROGO
 10
28121.604341291921
 20
1979.749496429288
 30
0.0
 11
28121.604341291921
 21
1955.7494964292871
 31
0.0
1001
AUTOCAD_POSTSCRIPT_FIGURE
1002
{
1000
PSFILL
1000
Grayscale
1000
Grayscale
1070
   100
1002
}
  0
LINE
  5
4668
  8
YODOROGO
 10
28137.604341291921
 20
1979.749496429288
 30
0.0
 11
28121.604341291921
 21
1979.749496429288
 31
0.0
1001
AUTOCAD_POSTSCRIPT_FIGURE
1002
{
1000
PSFILL
1000
Grayscale
1000
Grayscale
1070
   100
1002
}
  0
LINE
  5
4669
  8
YODOROGO
 10
28137.604341291921
 20
1955.7494964292871
 30
0.0
 11
28137.604341291921
 21
1979.749496429288
 31
0.0
1001
AUTOCAD_POSTSCRIPT_FIGURE
1002
{
1000
PSFILL
1000
Grayscale
1000
Grayscale
1070
   100
1002
}
  0
LINE
  5
466A
  8
YODOROGO
 10
28137.604341291921
 20
1939.749496429288
 30
0.0
 11
28137.604341291921
 21
1955.7494964292871
 31
0.0
1001
AUTOCAD_POSTSCRIPT_FIGURE
1002
{
1000
PSFILL
1000
Grayscale
1000
Grayscale
1070
   100
1002
}
  0
LINE
  5
466B
  8
YODOROGO
 10
28098.902986873411
 20
1939.749496429288
 30
0.0
 11
28137.604341291921
 21
1939.749496429288
 31
0.0
1001
AUTOCAD_POSTSCRIPT_FIGURE
1002
{
1000
PSFILL
1000
Grayscale
1000
Grayscale
1070
   100
1002
}
  0
LINE
  5
466C
  8
YODOROGO
 10
28137.604341291921
 20
1747.749496429286
 30
0.0
 11
28098.902986873411
 21
1939.749496429288
 31
0.0
1001
AUTOCAD_POSTSCRIPT_FIGURE
1002
{
1000
PSFILL
1000
Grayscale
1000
Grayscale
1070
   100
1002
}
  0
LINE
  5
466D
  8
YODOROGO
 10
28129.60434129191
 20
1747.749496429286
 30
0.0
 11
28137.604341291921
 21
1747.749496429286
 31
0.0
1001
AUTOCAD_POSTSCRIPT_FIGURE
1002
{
1000
PSFILL
1000
Grayscale
1000
Grayscale
1070
   100
1002
}
  0
LINE
  5
466E
  8
YODOROGO
 10
28078.06921993379
 20
1775.7407762987939
 30
0.0
 11
27977.604341291921
 21
1747.749496429286
 31
0.0
  0
LINE
  5
466F
  8
YODOROGO
 10
28078.06921993379
 20
1798.6689795290731
 30
0.0
 11
28078.06921993379
 21
1775.7407762987939
 31
0.0
  0
LINE
  5
4670
  8
YODOROGO
 10
28033.83678061287
 20
1786.816933133767
 30
0.0
 11
28078.06921993379
 21
1798.6689795290731
 31
0.0
  0
LINE
  5
4671
  8
YODOROGO
 10
28033.83678061287
 20
1872.5683489362989
 30
0.0
 11
28033.83678061287
 21
1786.816933133767
 31
0.0
  0
LINE
  5
4672
  8
YODOROGO
 10
28078.06921993379
 20
1872.5683489362989
 30
0.0
 11
28033.83678061287
 21
1872.5683489362989
 31
0.0
  0
LINE
  5
4673
  8
YODOROGO
 10
28078.06921993379
 20
1892.568348936298
 30
0.0
 11
28078.06921993379
 21
1872.5683489362989
 31
0.0
  0
LINE
  5
4674
  8
YODOROGO
 10
27977.604341291921
 20
1892.568348936298
 30
0.0
 11
28078.06921993379
 21
1892.568348936298
 31
0.0
  0
LINE
  5
4675
  8
YODOROGO
 10
27977.604341291921
 20
1872.5683489362989
 30
0.0
 11
27977.604341291921
 21
1892.568348936298
 31
0.0
  0
LINE
  5
4676
  8
YODOROGO
 10
28021.836780612852
 20
1872.5683489362989
 30
0.0
 11
27977.604341291921
 21
1872.5683489362989
 31
0.0
  0
LINE
  5
4677
  8
YODOROGO
 10
28021.836780612852
 20
1784.673339594317
 30
0.0
 11
28021.836780612852
 21
1872.5683489362989
 31
0.0
  0
LINE
  5
4678
  8
YODOROGO
 10
27977.604341291921
 20
1771.749496429286
 30
0.0
 11
28021.836780612852
 21
1784.673339594317
 31
0.0
  0
LINE
  5
4679
  8
YODOROGO
 10
27977.604341291921
 20
1747.749496429286
 30
0.0
 11
27977.604341291921
 21
1771.749496429286
 31
0.0
  0
LINE
  5
467A
  8
YODOROGO
 10
28001.604341291921
 20
1707.749496429288
 30
0.0
 11
28001.604341291921
 21
1683.7494964292871
 31
0.0
  0
LINE
  5
467B
  8
YODOROGO
 10
28017.604341291921
 20
1707.749496429288
 30
0.0
 11
28001.604341291921
 21
1707.749496429288
 31
0.0
  0
LINE
  5
467C
  8
YODOROGO
 10
28017.604341291921
 20
1683.7494964292871
 30
0.0
 11
28017.604341291921
 21
1707.749496429288
 31
0.0
  0
LINE
  5
467D
  8
YODOROGO
 10
28040.913204016892
 20
1683.7494964292871
 30
0.0
 11
28017.604341291921
 21
1683.7494964292871
 31
0.0
  0
LINE
  5
467E
  8
YODOROGO
 10
28001.604341291921
 20
1683.7494964292871
 30
0.0
 11
27977.604341291921
 21
1683.7494964292871
 31
0.0
  0
LINE
  5
467F
  8
YODOROGO
 10
28082.135520230921
 20
1707.749496429288
 30
0.0
 11
28098.135520230931
 21
1707.749496429288
 31
0.0
1001
AUTOCAD_POSTSCRIPT_FIGURE
1002
{
1000
PSFILL
1000
Grayscale
1000
Grayscale
1070
   100
1002
}
  0
LINE
  5
4680
  8
YODOROGO
 10
28401.60434129191
 20
1824.877625640306
 30
0.0
 11
28401.60434129191
 21
1752.877625640306
 31
0.0
1001
AUTOCAD_POSTSCRIPT_FIGURE
1002
{
1000
PSFILL
1000
Grayscale
1000
Grayscale
1070
   100
1002
}
  0
LINE
  5
4681
  8
YODOROGO
 10
28401.60434129191
 20
1916.8776256403071
 30
0.0
 11
28401.60434129191
 21
1984.877625640306
 31
0.0
1001
AUTOCAD_POSTSCRIPT_FIGURE
1002
{
1000
PSFILL
1000
Grayscale
1000
Grayscale
1070
   100
1002
}
  0
LINE
  5
4682
  8
YODOROGO
 10
28433.60434129191
 20
1819.7494964292871
 30
0.0
 11
28433.60434129191
 21
1747.74949642929
 31
0.0
  0
LINE
  5
4683
  8
YODOROGO
 10
28497.60434129191
 20
1707.749496429288
 30
0.0
 11
28433.60434129191
 21
1707.749496429288
 31
0.0
  0
LINE
  5
4684
  8
YODOROGO
 10
28433.60434129191
 20
1747.74949642929
 30
0.0
 11
28585.604341291921
 21
1747.74949642929
 31
0.0
  0
LINE
  5
4685
  8
YODOROGO
 10
28497.60434129191
 20
1867.7494964292871
 30
0.0
 11
28433.60434129191
 21
1867.7494964292871
 31
0.0
  0
LINE
  5
4686
  8
YODOROGO
 10
28497.60434129191
 20
1923.7494964292871
 30
0.0
 11
28497.60434129191
 21
1867.7494964292871
 31
0.0
  0
LINE
  5
4687
  8
YODOROGO
 10
28585.604341291921
 20
1987.7494964292871
 30
0.0
 11
28585.604341291921
 21
2027.749496429288
 31
0.0
  0
LINE
  5
4688
  8
YODOROGO
 10
28433.60434129191
 20
1987.7494964292871
 30
0.0
 11
28585.604341291921
 21
1987.7494964292871
 31
0.0
  0
LINE
  5
4689
  8
YODOROGO
 10
28433.60434129191
 20
1867.7494964292871
 30
0.0
 11
28433.60434129191
 21
1987.7494964292871
 31
0.0
  0
LINE
  5
468A
  8
YODOROGO
 10
29001.60434129191
 20
2027.749496429288
 30
0.0
 11
29001.60434129191
 21
1619.749496429288
 31
0.0
  0
LINE
  5
468B
  8
YODOROGO
 10
29073.604341291921
 20
1579.749496429288
 30
0.0
 11
29073.604341291921
 21
2027.749496429288
 31
0.0
  0
LINE
  5
468C
  8
YODOROGO
 10
29261.604341291921
 20
1491.749496429286
 30
0.0
 11
29261.604341291921
 21
2007.749496429288
 31
0.0
  0
LINE
  5
468D
  8
YODOROGO
 10
29197.604341291921
 20
2007.749496429288
 30
0.0
 11
29197.604341291921
 21
1491.749496429286
 31
0.0
  0
LINE
  5
468E
  8
YODOROGO
 10
29385.604341291921
 20
2027.749496429288
 30
0.0
 11
29385.604341291921
 21
1427.749496429288
 31
0.0
  0
LINE
  5
468F
  8
YODOROGO
 10
29457.604341291921
 20
1427.749496429288
 30
0.0
 11
29457.604341291921
 21
2027.749496429288
 31
0.0
  0
LINE
  5
4690
  8
YODOROGO
 10
28657.604341291921
 20
1667.749496429288
 30
0.0
 11
28657.604341291921
 21
1747.74949642929
 31
0.0
  0
LINE
  5
4691
  8
YODOROGO
 10
29885.604341291921
 20
1707.749496429288
 30
0.0
 11
29885.604341291921
 21
1667.749496429288
 31
0.0
  0
LINE
  5
4692
  8
YODOROGO
 10
29885.604341291921
 20
1707.749496429288
 30
0.0
 11
29885.604341291921
 21
1667.749496429288
 31
0.0
  0
ARC
  5
4693
  8
YODOROGO
 10
28906.911576186842
 20
1618.217864442272
 30
0.0
 40
94.705151178741644
 50
274.05244162907098
 51
0.9266642149310712
  0
ARC
  5
4694
  8
YODOROGO
 10
28909.186170719819
 20
1592.61072861044
 30
0.0
 40
164.92042356085511
 50
271.5351210653775
 51
355.52727750585052
  0
LINE
  5
4695
  8
YODOROGO
 10
28913.604341291921
 20
1523.7494964292871
 30
0.0
 11
28913.604341291921
 21
1427.749496429288
 31
0.0
  0
LINE
  5
4696
  8
YODOROGO
 10
28793.60434129191
 20
1667.749496429288
 30
0.0
 11
28657.604341291921
 21
1667.749496429288
 31
0.0
  0
LINE
  5
4697
  8
YODOROGO
 10
28793.60434129191
 20
1603.7494964292871
 30
0.0
 11
28793.60434129191
 21
1667.749496429288
 31
0.0
  0
LINE
  5
4698
  8
YODOROGO
 10
28657.604341291921
 20
1603.7494964292871
 30
0.0
 11
28793.60434129191
 21
1603.7494964292871
 31
0.0
  0
LINE
  5
4699
  8
YODOROGO
 10
28657.604341291921
 20
1523.7494964292871
 30
0.0
 11
28657.604341291921
 21
1603.7494964292871
 31
0.0
  0
LINE
  5
469A
  8
YODOROGO
 10
28793.60434129191
 20
1523.7494964292871
 30
0.0
 11
28657.604341291921
 21
1523.7494964292871
 31
0.0
  0
LINE
  5
469B
  8
YODOROGO
 10
28793.60434129191
 20
1427.749496429288
 30
0.0
 11
28793.60434129191
 21
1523.7494964292871
 31
0.0
  0
LINE
  5
469C
  8
YODOROGO
 10
29197.604341291921
 20
1491.749496429286
 30
0.0
 11
29261.604341291921
 21
1491.749496429286
 31
0.0
  0
LINE
  5
469D
  8
YODOROGO
 10
29385.604341291921
 20
1427.749496429288
 30
0.0
 11
29457.604341291921
 21
1427.749496429288
 31
0.0
  0
LINE
  5
469E
  8
YODOROGO
 10
29737.604341291921
 20
1528.4414521705639
 30
0.0
 11
29737.604341291921
 21
1427.749496429288
 31
0.0
  0
LINE
  5
469F
  8
YODOROGO
 10
29617.604341291921
 20
1427.749496429288
 30
0.0
 11
29737.604341291921
 21
1528.4414521705639
 31
0.0
  0
LINE
  5
46A0
  8
YODOROGO
 10
29617.604341291921
 20
1547.749496429288
 30
0.0
 11
29617.604341291921
 21
1427.749496429288
 31
0.0
  0
LINE
  5
46A1
  8
YODOROGO
 10
29712.94462869945
 20
1627.749496429288
 30
0.0
 11
29617.604341291921
 21
1547.749496429288
 31
0.0
  0
LINE
  5
46A2
  8
YODOROGO
 10
29617.604341291921
 20
1627.749496429288
 30
0.0
 11
29712.94462869945
 21
1627.749496429288
 31
0.0
  0
LINE
  5
46A3
  8
YODOROGO
 10
29617.604341291921
 20
1667.749496429288
 30
0.0
 11
29617.604341291921
 21
1627.749496429288
 31
0.0
  0
LINE
  5
46A4
  8
YODOROGO
 10
29885.604341291921
 20
1667.749496429288
 30
0.0
 11
29617.604341291921
 21
1667.749496429288
 31
0.0
  0
LINE
  5
46A5
  8
YODOROGO
 10
29917.604341291921
 20
1627.749496429288
 30
0.0
 11
29777.604341291921
 21
1627.749496429288
 31
0.0
  0
LINE
  5
46A6
  8
YODOROGO
 10
29777.604341291921
 20
1562.0054374176559
 30
0.0
 11
29771.409872985321
 21
1556.807661346234
 31
0.0
  0
LINE
  5
46A7
  8
YODOROGO
 10
29777.604341291921
 20
1627.749496429288
 30
0.0
 11
29777.604341291921
 21
1562.0054374176559
 31
0.0
  0
LINE
  5
46A8
  8
YODOROGO
 10
29737.604341291921
 20
1528.4414521705639
 30
0.0
 11
29737.604341291921
 21
1427.749496429288
 31
0.0
  0
LINE
  5
46A9
  8
YODOROGO
 10
29617.604341291921
 20
1427.749496429288
 30
0.0
 11
29737.604341291921
 21
1528.4414521705639
 31
0.0
  0
LINE
  5
46AA
  8
YODOROGO
 10
29617.604341291921
 20
1547.749496429288
 30
0.0
 11
29617.604341291921
 21
1427.749496429288
 31
0.0
  0
LINE
  5
46AB
  8
YODOROGO
 10
29712.94462869945
 20
1627.749496429288
 30
0.0
 11
29617.604341291921
 21
1547.749496429288
 31
0.0
  0
LINE
  5
46AC
  8
YODOROGO
 10
29617.604341291921
 20
1627.749496429288
 30
0.0
 11
29712.94462869945
 21
1627.749496429288
 31
0.0
  0
LINE
  5
46AD
  8
YODOROGO
 10
29617.604341291921
 20
1667.749496429288
 30
0.0
 11
29617.604341291921
 21
1627.749496429288
 31
0.0
  0
LINE
  5
46AE
  8
YODOROGO
 10
29885.604341291921
 20
1667.749496429288
 30
0.0
 11
29617.604341291921
 21
1667.749496429288
 31
0.0
  0
LINE
  5
46AF
  8
YODOROGO
 10
28793.60434129191
 20
1747.74949642929
 30
0.0
 11
28793.60434129191
 21
1819.7494964292871
 31
0.0
  0
LINE
  5
46B0
  8
YODOROGO
 10
28657.604341291921
 20
1747.74949642929
 30
0.0
 11
28793.60434129191
 21
1747.74949642929
 31
0.0
  0
LINE
  5
46B1
  8
YODOROGO
 10
28729.604341291921
 20
1867.7494964292871
 30
0.0
 11
28729.604341291921
 21
1923.7494964292871
 31
0.0
  0
LINE
  5
46B2
  8
YODOROGO
 10
28793.60434129191
 20
1867.7494964292871
 30
0.0
 11
28729.604341291921
 21
1867.7494964292871
 31
0.0
  0
LINE
  5
46B3
  8
YODOROGO
 10
28793.60434129191
 20
1947.749496429288
 30
0.0
 11
28793.60434129191
 21
1867.7494964292871
 31
0.0
  0
ARC
  5
46B4
  8
YODOROGO
 10
28753.60434129191
 20
1947.749496429288
 30
0.0
 40
40.0
 50
0.0
 51
90.0
  0
LINE
  5
46B5
  8
YODOROGO
 10
28657.604341291921
 20
1987.7494964292871
 30
0.0
 11
28753.60434129191
 21
1987.7494964292871
 31
0.0
  0
LINE
  5
46B6
  8
YODOROGO
 10
28657.604341291921
 20
2027.749496429288
 30
0.0
 11
28657.604341291921
 21
1987.7494964292871
 31
0.0
  0
LINE
  5
46B7
  8
YODOROGO
 10
29073.604341291921
 20
2027.749496429288
 30
0.0
 11
29001.60434129191
 21
2027.749496429288
 31
0.0
  0
LINE
  5
46B8
  8
YODOROGO
 10
29261.604341291921
 20
2007.749496429288
 30
0.0
 11
29197.604341291921
 21
2007.749496429288
 31
0.0
  0
LINE
  5
46B9
  8
YODOROGO
 10
29457.604341291921
 20
2027.749496429288
 30
0.0
 11
29385.604341291921
 21
2027.749496429288
 31
0.0
  0
LINE
  5
46BA
  8
YODOROGO
 10
29673.604341291921
 20
1707.749496429288
 30
0.0
 11
29673.604341291921
 21
1771.7494964292871
 31
0.0
1001
AUTOCAD_POSTSCRIPT_FIGURE
1002
{
1000
PSFILL
1000
Grayscale
1000
Grayscale
1070
    25
1002
}
  0
LINE
  5
46BB
  8
YODOROGO
 10
29617.604341291921
 20
1707.749496429288
 30
0.0
 11
29673.604341291921
 21
1707.749496429288
 31
0.0
1001
AUTOCAD_POSTSCRIPT_FIGURE
1002
{
1000
PSFILL
1000
Grayscale
1000
Grayscale
1070
    25
1002
}
  0
LINE
  5
46BC
  8
YODOROGO
 10
29617.604341291921
 20
1819.7494964292871
 30
0.0
 11
29617.604341291921
 21
1707.749496429288
 31
0.0
1001
AUTOCAD_POSTSCRIPT_FIGURE
1002
{
1000
PSFILL
1000
Grayscale
1000
Grayscale
1070
    25
1002
}
  0
LINE
  5
46BD
  8
YODOROGO
 10
29765.604341291921
 20
1819.7494964292871
 30
0.0
 11
29617.604341291921
 21
1819.7494964292871
 31
0.0
1001
AUTOCAD_POSTSCRIPT_FIGURE
1002
{
1000
PSFILL
1000
Grayscale
1000
Grayscale
1070
    25
1002
}
  0
LINE
  5
46BE
  8
YODOROGO
 10
29765.604341291921
 20
1859.749496429288
 30
0.0
 11
29765.604341291921
 21
1819.7494964292871
 31
0.0
1001
AUTOCAD_POSTSCRIPT_FIGURE
1002
{
1000
PSFILL
1000
Grayscale
1000
Grayscale
1070
    25
1002
}
  0
LINE
  5
46BF
  8
YODOROGO
 10
29617.604341291921
 20
1859.749496429288
 30
0.0
 11
29765.604341291921
 21
1859.749496429288
 31
0.0
1001
AUTOCAD_POSTSCRIPT_FIGURE
1002
{
1000
PSFILL
1000
Grayscale
1000
Grayscale
1070
    25
1002
}
  0
LINE
  5
46C0
  8
YODOROGO
 10
29617.604341291921
 20
1907.7494964292871
 30
0.0
 11
29617.604341291921
 21
1859.749496429288
 31
0.0
1001
AUTOCAD_POSTSCRIPT_FIGURE
1002
{
1000
PSFILL
1000
Grayscale
1000
Grayscale
1070
    25
1002
}
  0
LINE
  5
46C1
  8
YODOROGO
 10
29765.604341291921
 20
1907.7494964292871
 30
0.0
 11
29617.604341291921
 21
1907.7494964292871
 31
0.0
1001
AUTOCAD_POSTSCRIPT_FIGURE
1002
{
1000
PSFILL
1000
Grayscale
1000
Grayscale
1070
    25
1002
}
  0
LINE
  5
46C2
  8
YODOROGO
 10
29765.604341291921
 20
1947.749496429288
 30
0.0
 11
29765.604341291921
 21
1907.7494964292871
 31
0.0
1001
AUTOCAD_POSTSCRIPT_FIGURE
1002
{
1000
PSFILL
1000
Grayscale
1000
Grayscale
1070
    25
1002
}
  0
LINE
  5
46C3
  8
YODOROGO
 10
29617.604341291921
 20
1947.749496429288
 30
0.0
 11
29765.604341291921
 21
1947.749496429288
 31
0.0
1001
AUTOCAD_POSTSCRIPT_FIGURE
1002
{
1000
PSFILL
1000
Grayscale
1000
Grayscale
1070
    25
1002
}
  0
LINE
  5
46C4
  8
YODOROGO
 10
29617.604341291921
 20
2027.749496429288
 30
0.0
 11
29617.604341291921
 21
1947.749496429288
 31
0.0
1001
AUTOCAD_POSTSCRIPT_FIGURE
1002
{
1000
PSFILL
1000
Grayscale
1000
Grayscale
1070
    25
1002
}
  0
LINE
  5
46C5
  8
YODOROGO
 10
29665.604341291921
 20
2027.749496429288
 30
0.0
 11
29617.604341291921
 21
2027.749496429288
 31
0.0
1001
AUTOCAD_POSTSCRIPT_FIGURE
1002
{
1000
PSFILL
1000
Grayscale
1000
Grayscale
1070
    25
1002
}
  0
LINE
  5
46C6
  8
YODOROGO
 10
29665.604341291921
 20
1995.7494964292871
 30
0.0
 11
29665.604341291921
 21
2027.749496429288
 31
0.0
1001
AUTOCAD_POSTSCRIPT_FIGURE
1002
{
1000
PSFILL
1000
Grayscale
1000
Grayscale
1070
    25
1002
}
  0
LINE
  5
46C7
  8
YODOROGO
 10
29765.604341291921
 20
1995.7494964292871
 30
0.0
 11
29665.604341291921
 21
1995.7494964292871
 31
0.0
1001
AUTOCAD_POSTSCRIPT_FIGURE
1002
{
1000
PSFILL
1000
Grayscale
1000
Grayscale
1070
    25
1002
}
  0
LINE
  5
46C8
  8
YODOROGO
 10
29765.604341291921
 20
2027.749496429288
 30
0.0
 11
29765.604341291921
 21
1995.7494964292871
 31
0.0
1001
AUTOCAD_POSTSCRIPT_FIGURE
1002
{
1000
PSFILL
1000
Grayscale
1000
Grayscale
1070
    25
1002
}
  0
LINE
  5
46C9
  8
YODOROGO
 10
29829.604341291921
 20
2027.749496429288
 30
0.0
 11
29765.604341291921
 21
2027.749496429288
 31
0.0
1001
AUTOCAD_POSTSCRIPT_FIGURE
1002
{
1000
PSFILL
1000
Grayscale
1000
Grayscale
1070
    25
1002
}
  0
LINE
  5
46CA
  8
YODOROGO
 10
29829.604341291921
 20
1995.7494964292871
 30
0.0
 11
29829.604341291921
 21
2027.749496429288
 31
0.0
1001
AUTOCAD_POSTSCRIPT_FIGURE
1002
{
1000
PSFILL
1000
Grayscale
1000
Grayscale
1070
    25
1002
}
  0
LINE
  5
46CB
  8
YODOROGO
 10
29829.604341291921
 20
1907.7494964292871
 30
0.0
 11
29829.604341291921
 21
1947.749496429288
 31
0.0
1001
AUTOCAD_POSTSCRIPT_FIGURE
1002
{
1000
PSFILL
1000
Grayscale
1000
Grayscale
1070
    25
1002
}
  0
LINE
  5
46CC
  8
YODOROGO
 10
29829.604341291921
 20
1819.7494964292871
 30
0.0
 11
29829.604341291921
 21
1859.749496429288
 31
0.0
1001
AUTOCAD_POSTSCRIPT_FIGURE
1002
{
1000
PSFILL
1000
Grayscale
1000
Grayscale
1070
    25
1002
}
  0
LINE
  5
46CD
  8
YODOROGO
 10
29921.60434129191
 20
1771.7494964292871
 30
0.0
 11
29921.60434129191
 21
1707.749496429288
 31
0.0
1001
AUTOCAD_POSTSCRIPT_FIGURE
1002
{
1000
PSFILL
1000
Grayscale
1000
Grayscale
1070
    25
1002
}
  0
LINE
  5
46CE
  8
YODOROGO
 10
29829.604341291921
 20
1771.7494964292871
 30
0.0
 11
29921.60434129191
 21
1771.7494964292871
 31
0.0
1001
AUTOCAD_POSTSCRIPT_FIGURE
1002
{
1000
PSFILL
1000
Grayscale
1000
Grayscale
1070
    25
1002
}
  0
LINE
  5
46CF
  8
YODOROGO
 10
29829.604341291921
 20
1707.749496429288
 30
0.0
 11
29829.604341291921
 21
1771.7494964292871
 31
0.0
1001
AUTOCAD_POSTSCRIPT_FIGURE
1002
{
1000
PSFILL
1000
Grayscale
1000
Grayscale
1070
    25
1002
}
  0
LINE
  5
46D0
  8
YODOROGO
 10
29765.604341291921
 20
1707.749496429288
 30
0.0
 11
29829.604341291921
 21
1707.749496429288
 31
0.0
1001
AUTOCAD_POSTSCRIPT_FIGURE
1002
{
1000
PSFILL
1000
Grayscale
1000
Grayscale
1070
    25
1002
}
  0
LINE
  5
46D1
  8
YODOROGO
 10
29765.604341291921
 20
1771.7494964292871
 30
0.0
 11
29765.604341291921
 21
1707.749496429288
 31
0.0
1001
AUTOCAD_POSTSCRIPT_FIGURE
1002
{
1000
PSFILL
1000
Grayscale
1000
Grayscale
1070
    25
1002
}
  0
LINE
  5
46D2
  8
YODOROGO
 10
29673.604341291921
 20
1771.7494964292871
 30
0.0
 11
29765.604341291921
 21
1771.7494964292871
 31
0.0
1001
AUTOCAD_POSTSCRIPT_FIGURE
1002
{
1000
PSFILL
1000
Grayscale
1000
Grayscale
1070
    25
1002
}
  0
ARC
  5
46D3
  8
YODOROGO
 10
31059.517893357912
 20
1602.6807375155761
 30
0.0
 40
178.22128111072141
 50
281.02627495425338
 51
357.77113575573799
  0
LINE
  5
46D4
  8
YODOROGO
 10
31413.604341291921
 20
1907.7494964292871
 30
0.0
 11
31165.604341291921
 21
1907.7494964292871
 31
0.0
  0
LINE
  5
46D5
  8
YODOROGO
 10
31413.604341291921
 20
2027.749496429288
 30
0.0
 11
31165.604341291921
 21
2027.749496429288
 31
0.0
  0
LINE
  5
46D6
  8
YODOROGO
 10
31165.604341291921
 20
1963.749496429286
 30
0.0
 11
31413.604341291921
 21
1963.749496429286
 31
0.0
  0
LINE
  5
46D7
  8
YODOROGO
 10
30791.604341291921
 20
1563.7494964292871
 30
0.0
 11
30791.604341291921
 21
1755.7494964292871
 31
0.0
  0
LINE
  5
46D8
  8
YODOROGO
 10
30763.604341291921
 20
1691.749496429288
 30
0.0
 11
30763.604341291921
 21
1563.7494964292871
 31
0.0
  0
LINE
  5
46D9
  8
YODOROGO
 10
30723.604341291921
 20
1491.749496429288
 30
0.0
 11
30723.604341291921
 21
1691.749496429288
 31
0.0
  0
LINE
  5
46DA
  8
YODOROGO
 10
30899.604341291932
 20
1691.749496429288
 30
0.0
 11
30899.604341291932
 21
1491.749496429288
 31
0.0
  0
LINE
  5
46DB
  8
YODOROGO
 10
30859.604341291932
 20
1563.7494964292871
 30
0.0
 11
30859.604341291932
 21
1691.749496429288
 31
0.0
  0
LINE
  5
46DC
  8
YODOROGO
 10
30831.604341291921
 20
1755.7494964292871
 30
0.0
 11
30831.604341291921
 21
1563.7494964292871
 31
0.0
  0
LINE
  5
46DD
  8
YODOROGO
 10
30973.604341291921
 20
2027.749496429288
 30
0.0
 11
30973.604341291921
 21
1467.749496429288
 31
0.0
  0
LINE
  5
46DE
  8
YODOROGO
 10
30645.604341291921
 20
1427.749496429288
 30
0.0
 11
30645.604341291921
 21
2027.749496429288
 31
0.0
  0
LINE
  5
46DF
  8
YODOROGO
 10
30697.604341291932
 20
1963.749496429286
 30
0.0
 11
30697.604341291932
 21
1427.749496429288
 31
0.0
  0
LINE
  5
46E0
  8
YODOROGO
 10
30925.604341291921
 20
1547.749496429288
 30
0.0
 11
30925.604341291921
 21
1963.749496429286
 31
0.0
  0
LINE
  5
46E1
  8
YODOROGO
 10
30381.604341291932
 20
1627.749496429288
 30
0.0
 11
30381.604341291932
 21
1679.749496429288
 31
0.0
  0
LINE
  5
46E2
  8
YODOROGO
 10
30617.604341291921
 20
1679.749496429288
 30
0.0
 11
30617.604341291921
 21
1627.749496429288
 31
0.0
  0
LINE
  5
46E3
  8
YODOROGO
 10
31165.604341291921
 20
1907.7494964292871
 30
0.0
 11
31165.604341291921
 21
1635.7494964292871
 31
0.0
  0
LINE
  5
46E4
  8
YODOROGO
 10
29949.60434129191
 20
1667.749496429288
 30
0.0
 11
29949.60434129191
 21
1707.749496429288
 31
0.0
  0
LINE
  5
46E5
  8
YODOROGO
 10
29949.60434129191
 20
1667.749496429288
 30
0.0
 11
29949.60434129191
 21
1707.749496429288
 31
0.0
  0
ARC
  5
46E6
  8
YODOROGO
 10
30537.604341291921
 20
1507.749496429288
 30
0.0
 40
80.0
 50
270.0
 51
0.0
  0
LINE
  5
46E7
  8
YODOROGO
 10
30569.604341291921
 20
1599.7494964292871
 30
0.0
 11
30617.604341291921
 21
1599.7494964292871
 31
0.0
  0
LINE
  5
46E8
  8
YODOROGO
 10
30617.604341291921
 20
1627.749496429288
 30
0.0
 11
30529.604341291939
 21
1627.749496429288
 31
0.0
  0
LINE
  5
46E9
  8
YODOROGO
 10
30217.604341291921
 20
1667.749496429288
 30
0.0
 11
29949.60434129191
 21
1667.749496429288
 31
0.0
  0
LINE
  5
46EA
  8
YODOROGO
 10
30217.604341291921
 20
1627.749496429288
 30
0.0
 11
30217.604341291921
 21
1667.749496429288
 31
0.0
  0
LINE
  5
46EB
  8
YODOROGO
 10
30017.604341291921
 20
1627.749496429288
 30
0.0
 11
30217.604341291921
 21
1627.749496429288
 31
0.0
  0
ARC
  5
46EC
  8
YODOROGO
 10
30230.05882870136
 20
1868.885714952901
 30
0.0
 40
321.37763628522822
 50
228.6181454618993
 51
245.660289248906
  0
LINE
  5
46ED
  8
YODOROGO
 10
30105.604341291921
 20
1603.7494964292871
 30
0.0
 11
30097.60434129195
 21
1576.0728158699001
 31
0.0
  0
LINE
  5
46EE
  8
YODOROGO
 10
30189.604341291921
 20
1603.7494964292871
 30
0.0
 11
30105.604341291921
 21
1603.7494964292871
 31
0.0
  0
LINE
  5
46EF
  8
YODOROGO
 10
30177.604341291921
 20
1551.817722473427
 30
0.0
 11
30189.604341291921
 21
1603.7494964292871
 31
0.0
  0
ARC
  5
46F0
  8
YODOROGO
 10
30230.05882870045
 20
1868.885714953002
 30
0.0
 40
321.37763628529081
 50
260.60629297969911
 51
267.77903556555862
  0
LINE
  5
46F1
  8
YODOROGO
 10
30217.604341291921
 20
1427.749496429285
 30
0.0
 11
30217.604341291921
 21
1547.749496429288
 31
0.0
  0
LINE
  5
46F2
  8
YODOROGO
 10
29937.604341291932
 20
1481.3393349155101
 30
0.0
 11
29937.604341291921
 21
1594.531090531141
 31
0.0
  0
LINE
  5
46F3
  8
YODOROGO
 10
30217.604341291921
 20
1667.749496429288
 30
0.0
 11
29949.60434129191
 21
1667.749496429288
 31
0.0
  0
LINE
  5
46F4
  8
YODOROGO
 10
30217.604341291921
 20
1627.749496429288
 30
0.0
 11
30217.604341291921
 21
1667.749496429288
 31
0.0
  0
LINE
  5
46F5
  8
YODOROGO
 10
30017.604341291921
 20
1627.749496429288
 30
0.0
 11
30217.604341291921
 21
1627.749496429288
 31
0.0
  0
ARC
  5
46F6
  8
YODOROGO
 10
30230.05882870136
 20
1868.885714952901
 30
0.0
 40
321.37763628522822
 50
228.6181454618993
 51
245.660289248906
  0
LINE
  5
46F7
  8
YODOROGO
 10
30105.604341291921
 20
1603.7494964292871
 30
0.0
 11
30097.60434129195
 21
1576.0728158699001
 31
0.0
  0
LINE
  5
46F8
  8
YODOROGO
 10
30189.604341291921
 20
1603.7494964292871
 30
0.0
 11
30105.604341291921
 21
1603.7494964292871
 31
0.0
  0
LINE
  5
46F9
  8
YODOROGO
 10
30177.604341291921
 20
1551.817722473427
 30
0.0
 11
30189.604341291921
 21
1603.7494964292871
 31
0.0
  0
ARC
  5
46FA
  8
YODOROGO
 10
30230.05882870045
 20
1868.885714953002
 30
0.0
 40
321.37763628529081
 50
260.60629297969911
 51
267.77903556555862
  0
LINE
  5
46FB
  8
YODOROGO
 10
30217.604341291921
 20
1427.749496429285
 30
0.0
 11
30217.604341291921
 21
1547.749496429288
 31
0.0
  0
LINE
  5
46FC
  8
YODOROGO
 10
29937.604341291932
 20
1481.3393349155101
 30
0.0
 11
29937.604341291921
 21
1594.531090531141
 31
0.0
  0
LINE
  5
46FD
  8
YODOROGO
 10
30433.604341291921
 20
1573.749496429288
 30
0.0
 11
30381.604341291932
 21
1573.749496429288
 31
0.0
  0
LINE
  5
46FE
  8
YODOROGO
 10
30433.604341291921
 20
1601.749496429285
 30
0.0
 11
30433.604341291921
 21
1573.749496429288
 31
0.0
  0
LINE
  5
46FF
  8
YODOROGO
 10
30381.604341291932
 20
1601.749496429285
 30
0.0
 11
30433.604341291921
 21
1601.749496429285
 31
0.0
  0
LINE
  5
4700
  8
YODOROGO
 10
30381.604341291932
 20
1573.749496429288
 30
0.0
 11
30381.604341291932
 21
1601.749496429285
 31
0.0
  0
LINE
  5
4701
  8
YODOROGO
 10
30429.604341291921
 20
1577.7494964292871
 30
0.0
 11
30385.604341291921
 21
1577.7494964292871
 31
0.0
  0
LINE
  5
4702
  8
YODOROGO
 10
30429.604341291921
 20
1597.749496429288
 30
0.0
 11
30429.604341291921
 21
1577.7494964292871
 31
0.0
  0
LINE
  5
4703
  8
YODOROGO
 10
30385.604341291921
 20
1597.749496429288
 30
0.0
 11
30429.604341291921
 21
1597.749496429288
 31
0.0
  0
LINE
  5
4704
  8
YODOROGO
 10
30385.604341291921
 20
1577.7494964292871
 30
0.0
 11
30385.604341291921
 21
1597.749496429288
 31
0.0
  0
LINE
  5
4705
  8
YODOROGO
 10
30425.604341291921
 20
1581.749496429286
 30
0.0
 11
30389.604341291921
 21
1581.749496429286
 31
0.0
  0
LINE
  5
4706
  8
YODOROGO
 10
30425.604341291921
 20
1593.749496429288
 30
0.0
 11
30425.604341291921
 21
1581.749496429286
 31
0.0
  0
LINE
  5
4707
  8
YODOROGO
 10
30389.604341291921
 20
1593.749496429288
 30
0.0
 11
30425.604341291921
 21
1593.749496429288
 31
0.0
  0
LINE
  5
4708
  8
YODOROGO
 10
30389.604341291921
 20
1581.749496429286
 30
0.0
 11
30389.604341291921
 21
1593.749496429288
 31
0.0
  0
LINE
  5
4709
  8
YODOROGO
 10
30421.604341291932
 20
1585.7494964292871
 30
0.0
 11
30393.604341291921
 21
1585.7494964292871
 31
0.0
  0
LINE
  5
470A
  8
YODOROGO
 10
30421.604341291932
 20
1589.749496429288
 30
0.0
 11
30421.604341291932
 21
1585.7494964292871
 31
0.0
  0
LINE
  5
470B
  8
YODOROGO
 10
30393.604341291921
 20
1589.749496429288
 30
0.0
 11
30421.604341291932
 21
1589.749496429288
 31
0.0
  0
LINE
  5
470C
  8
YODOROGO
 10
30393.604341291921
 20
1585.7494964292871
 30
0.0
 11
30393.604341291921
 21
1589.749496429288
 31
0.0
  0
LINE
  5
470D
  8
YODOROGO
 10
30465.604341291921
 20
1627.749496429288
 30
0.0
 11
30381.604341291932
 21
1627.749496429288
 31
0.0
  0
LINE
  5
470E
  8
YODOROGO
 10
30465.604341291921
 20
1547.749496429288
 30
0.0
 11
30465.604341291921
 21
1627.749496429288
 31
0.0
  0
LINE
  5
470F
  8
YODOROGO
 10
30381.604341291932
 20
1547.749496429288
 30
0.0
 11
30465.604341291921
 21
1547.749496429288
 31
0.0
  0
LINE
  5
4710
  8
YODOROGO
 10
30381.604341291932
 20
1427.749496429288
 30
0.0
 11
30381.604341291932
 21
1547.749496429288
 31
0.0
  0
LINE
  5
4711
  8
YODOROGO
 10
30537.604341291921
 20
1427.749496429288
 30
0.0
 11
30381.604341291932
 21
1427.749496429288
 31
0.0
  0
LINE
  5
4712
  8
YODOROGO
 10
30569.604341291921
 20
1571.749496429285
 30
0.0
 11
30569.604341291921
 21
1599.7494964292871
 31
0.0
  0
ARC
  5
4713
  8
YODOROGO
 10
30545.604341291921
 20
1571.749496429291
 30
0.0
 40
24.000000000003752
 50
270.0
 51
359.99999999998772
  0
LINE
  5
4714
  8
YODOROGO
 10
30529.604341291939
 20
1547.749496429288
 30
0.0
 11
30545.604341291921
 21
1547.749496429288
 31
0.0
  0
LINE
  5
4715
  8
YODOROGO
 10
30529.604341291939
 20
1627.749496429288
 30
0.0
 11
30529.604341291939
 21
1547.749496429288
 31
0.0
  0
LINE
  5
4716
  8
YODOROGO
 10
30899.604341291932
 20
1547.749496429288
 30
0.0
 11
30925.604341291921
 21
1547.749496429288
 31
0.0
  0
LINE
  5
4717
  8
YODOROGO
 10
30933.604341291921
 20
1427.749496429288
 30
0.0
 11
30899.604341291932
 21
1427.749496429288
 31
0.0
  0
LINE
  5
4718
  8
YODOROGO
 10
30763.604341291921
 20
1563.7494964292871
 30
0.0
 11
30791.604341291921
 21
1563.7494964292871
 31
0.0
  0
LINE
  5
4719
  8
YODOROGO
 10
30899.604341291932
 20
1491.749496429288
 30
0.0
 11
30723.604341291921
 21
1491.749496429288
 31
0.0
  0
LINE
  5
471A
  8
YODOROGO
 10
30831.604341291921
 20
1563.7494964292871
 30
0.0
 11
30859.604341291932
 21
1563.7494964292871
 31
0.0
  0
LINE
  5
471B
  8
YODOROGO
 10
30899.604341291932
 20
1427.749496429288
 30
0.0
 11
30899.604341291932
 21
1547.749496429288
 31
0.0
  0
LINE
  5
471C
  8
YODOROGO
 10
30697.604341291932
 20
1427.749496429288
 30
0.0
 11
30645.604341291921
 21
1427.749496429288
 31
0.0
  0
LINE
  5
471D
  8
YODOROGO
 10
30617.604341291921
 20
1599.7494964292871
 30
0.0
 11
30617.604341291921
 21
1507.749496429288
 31
0.0
  0
ARC
  5
471E
  8
YODOROGO
 10
30933.604341291921
 20
1467.749496429288
 30
0.0
 40
40.0
 50
270.0
 51
0.0
  0
LINE
  5
471F
  8
YODOROGO
 10
31093.604341291921
 20
1523.7494964292871
 30
0.0
 11
31093.604341291921
 21
1427.749496429288
 31
0.0
  0
ARC
  5
4720
  8
YODOROGO
 10
31039.721395566768
 20
1637.5313901097329
 30
0.0
 40
125.8955565916754
 50
295.34052442160112
 51
359.18902303418679
  0
LINE
  5
4721
  8
YODOROGO
 10
30617.604341291921
 20
1859.749496429288
 30
0.0
 11
30497.604341291921
 21
1939.749496429288
 31
0.0
  0
LINE
  5
4722
  8
YODOROGO
 10
30497.604341291921
 20
2027.749496429288
 30
0.0
 11
30617.604341291921
 21
1947.749496429288
 31
0.0
  0
LINE
  5
4723
  8
YODOROGO
 10
30529.604341291939
 20
1679.749496429288
 30
0.0
 11
30617.604341291921
 21
1679.749496429288
 31
0.0
  0
LINE
  5
4724
  8
YODOROGO
 10
30617.604341291921
 20
1735.7494964292871
 30
0.0
 11
30529.604341291939
 21
1735.7494964292871
 31
0.0
  0
LINE
  5
4725
  8
YODOROGO
 10
30381.604341291932
 20
1795.7494964292871
 30
0.0
 11
30617.604341291921
 21
1795.7494964292871
 31
0.0
  0
LINE
  5
4726
  8
YODOROGO
 10
30081.604341291921
 20
2027.749496429288
 30
0.0
 11
30021.604341291921
 21
2027.749496429288
 31
0.0
  0
LINE
  5
4727
  8
YODOROGO
 10
30081.604341291921
 20
1827.7494964292871
 30
0.0
 11
30081.604341291921
 21
2027.749496429288
 31
0.0
  0
LINE
  5
4728
  8
YODOROGO
 10
30021.604341291921
 20
1827.7494964292871
 30
0.0
 11
30081.604341291921
 21
1827.7494964292871
 31
0.0
  0
LINE
  5
4729
  8
YODOROGO
 10
30021.604341291921
 20
2027.749496429288
 30
0.0
 11
30021.604341291921
 21
1827.7494964292871
 31
0.0
  0
LINE
  5
472A
  8
YODOROGO
 10
30161.604341291921
 20
2027.749496429288
 30
0.0
 11
30217.604341291921
 21
2027.749496429288
 31
0.0
  0
LINE
  5
472B
  8
YODOROGO
 10
30161.604341291921
 20
1811.749496429288
 30
0.0
 11
30161.604341291921
 21
2027.749496429288
 31
0.0
  0
ARC
  5
472C
  8
YODOROGO
 10
30121.604341291921
 20
1811.749496429288
 30
0.0
 40
40.0
 50
270.0
 51
0.0
  0
LINE
  5
472D
  8
YODOROGO
 10
30021.604341291921
 20
1771.7494964292871
 30
0.0
 11
30121.604341291921
 21
1771.7494964292871
 31
0.0
  0
LINE
  5
472E
  8
YODOROGO
 10
30021.604341291921
 20
1707.749496429288
 30
0.0
 11
30021.604341291921
 21
1771.7494964292871
 31
0.0
  0
LINE
  5
472F
  8
YODOROGO
 10
30137.604341291921
 20
1707.749496429288
 30
0.0
 11
30021.604341291921
 21
1707.749496429288
 31
0.0
  0
ARC
  5
4730
  8
YODOROGO
 10
30137.604341291921
 20
1787.7494964292871
 30
0.0
 40
80.0
 50
270.0
 51
0.0
  0
LINE
  5
4731
  8
YODOROGO
 10
30217.604341291921
 20
2027.749496429288
 30
0.0
 11
30217.604341291921
 21
1787.7494964292871
 31
0.0
  0
LINE
  5
4732
  8
YODOROGO
 10
29977.604341291921
 20
1947.749496429288
 30
0.0
 11
29977.604341291921
 21
1995.7494964292871
 31
0.0
1001
AUTOCAD_POSTSCRIPT_FIGURE
1002
{
1000
PSFILL
1000
Grayscale
1000
Grayscale
1070
    25
1002
}
  0
LINE
  5
4733
  8
YODOROGO
 10
29977.604341291921
 20
1859.749496429288
 30
0.0
 11
29977.604341291921
 21
1907.7494964292871
 31
0.0
1001
AUTOCAD_POSTSCRIPT_FIGURE
1002
{
1000
PSFILL
1000
Grayscale
1000
Grayscale
1070
    25
1002
}
  0
LINE
  5
4734
  8
YODOROGO
 10
29977.604341291921
 20
1707.749496429288
 30
0.0
 11
29977.604341291921
 21
1819.7494964292871
 31
0.0
1001
AUTOCAD_POSTSCRIPT_FIGURE
1002
{
1000
PSFILL
1000
Grayscale
1000
Grayscale
1070
    25
1002
}
  0
LINE
  5
4735
  8
YODOROGO
 10
30381.604341291932
 20
1907.7494964292871
 30
0.0
 11
30497.604341291921
 21
2027.749496429288
 31
0.0
  0
LINE
  5
4736
  8
YODOROGO
 10
30381.604341291932
 20
1819.7494964292871
 30
0.0
 11
30381.604341291932
 21
1907.7494964292871
 31
0.0
  0
LINE
  5
4737
  8
YODOROGO
 10
30497.604341291921
 20
1939.749496429288
 30
0.0
 11
30381.604341291932
 21
1819.7494964292871
 31
0.0
  0
LINE
  5
4738
  8
YODOROGO
 10
30465.604341291921
 20
1679.749496429288
 30
0.0
 11
30465.604341291921
 21
1735.7494964292871
 31
0.0
  0
LINE
  5
4739
  8
YODOROGO
 10
30381.604341291932
 20
1679.749496429288
 30
0.0
 11
30465.604341291921
 21
1679.749496429288
 31
0.0
  0
LINE
  5
473A
  8
YODOROGO
 10
30529.604341291939
 20
1735.7494964292871
 30
0.0
 11
30529.604341291939
 21
1679.749496429288
 31
0.0
  0
LINE
  5
473B
  8
YODOROGO
 10
30381.604341291932
 20
1735.7494964292871
 30
0.0
 11
30381.604341291932
 21
1795.7494964292871
 31
0.0
  0
LINE
  5
473C
  8
YODOROGO
 10
30465.604341291921
 20
1735.7494964292871
 30
0.0
 11
30381.604341291932
 21
1735.7494964292871
 31
0.0
  0
LINE
  5
473D
  8
YODOROGO
 10
30645.604341291921
 20
2027.749496429288
 30
0.0
 11
30973.604341291921
 21
2027.749496429288
 31
0.0
  0
LINE
  5
473E
  8
YODOROGO
 10
30925.604341291921
 20
1963.749496429286
 30
0.0
 11
30697.604341291932
 21
1963.749496429286
 31
0.0
  0
LINE
  5
473F
  8
YODOROGO
 10
30873.604341291921
 20
1819.7494964292871
 30
0.0
 11
30899.604341291932
 21
1819.7494964292871
 31
0.0
  0
LINE
  5
4740
  8
YODOROGO
 10
30899.604341291932
 20
1939.749496429288
 30
0.0
 11
30873.604341291921
 21
1819.7494964292871
 31
0.0
  0
LINE
  5
4741
  8
YODOROGO
 10
30851.604341291939
 20
1939.749496429288
 30
0.0
 11
30899.604341291932
 21
1939.749496429288
 31
0.0
  0
LINE
  5
4742
  8
YODOROGO
 10
30825.604341291921
 20
1819.7494964292871
 30
0.0
 11
30851.604341291939
 21
1939.749496429288
 31
0.0
  0
LINE
  5
4743
  8
YODOROGO
 10
30797.604341291921
 20
1819.7494964292871
 30
0.0
 11
30825.604341291921
 21
1819.7494964292871
 31
0.0
  0
LINE
  5
4744
  8
YODOROGO
 10
30771.604341291939
 20
1939.749496429288
 30
0.0
 11
30797.604341291921
 21
1819.7494964292871
 31
0.0
  0
LINE
  5
4745
  8
YODOROGO
 10
30723.604341291921
 20
1939.749496429288
 30
0.0
 11
30771.604341291939
 21
1939.749496429288
 31
0.0
  0
LINE
  5
4746
  8
YODOROGO
 10
30749.604341291921
 20
1819.7494964292871
 30
0.0
 11
30723.604341291921
 21
1939.749496429288
 31
0.0
  0
LINE
  5
4747
  8
YODOROGO
 10
30723.604341291921
 20
1819.7494964292871
 30
0.0
 11
30749.604341291921
 21
1819.7494964292871
 31
0.0
  0
LINE
  5
4748
  8
YODOROGO
 10
30723.604341291921
 20
1755.7494964292871
 30
0.0
 11
30723.604341291921
 21
1819.7494964292871
 31
0.0
  0
LINE
  5
4749
  8
YODOROGO
 10
30899.604341291932
 20
1755.7494964292871
 30
0.0
 11
30723.604341291921
 21
1755.7494964292871
 31
0.0
  0
LINE
  5
474A
  8
YODOROGO
 10
30899.604341291932
 20
1819.7494964292871
 30
0.0
 11
30899.604341291932
 21
1755.7494964292871
 31
0.0
  0
LINE
  5
474B
  8
YODOROGO
 10
30617.604341291921
 20
1947.749496429288
 30
0.0
 11
30617.604341291921
 21
1859.749496429288
 31
0.0
  0
LINE
  5
474C
  8
YODOROGO
 10
30791.604341291921
 20
1755.7494964292871
 30
0.0
 11
30831.604341291921
 21
1755.7494964292871
 31
0.0
  0
LINE
  5
474D
  8
YODOROGO
 10
30723.604341291921
 20
1691.749496429288
 30
0.0
 11
30763.604341291921
 21
1691.749496429288
 31
0.0
  0
LINE
  5
474E
  8
YODOROGO
 10
30859.604341291932
 20
1691.749496429288
 30
0.0
 11
30899.604341291932
 21
1691.749496429288
 31
0.0
  0
LINE
  5
474F
  8
YODOROGO
 10
30617.604341291921
 20
1795.7494964292871
 30
0.0
 11
30617.604341291921
 21
1735.7494964292871
 31
0.0
  0
LINE
  5
4750
  8
YODOROGO
 10
31165.604341291921
 20
2027.749496429288
 30
0.0
 11
31165.604341291921
 21
1963.749496429286
 31
0.0
  0
LINE
  5
4751
  8
YODOROGO
 10
31533.604341291921
 20
1595.7494964292871
 30
0.0
 11
31533.60434129191
 21
1811.749496429288
 31
0.0
  0
LINE
  5
4752
  8
YODOROGO
 10
31461.60434129191
 20
1987.7494964292871
 30
0.0
 11
31461.60434129191
 21
1635.7494964292871
 31
0.0
  0
LINE
  5
4753
  8
YODOROGO
 10
31653.604341291921
 20
1427.749496429288
 30
0.0
 11
31653.60434129191
 21
1811.749496429288
 31
0.0
  0
LINE
  5
4754
  8
YODOROGO
 10
31589.604341291921
 20
1811.749496429288
 30
0.0
 11
31589.604341291921
 21
1427.749496429288
 31
0.0
  0
LINE
  5
4755
  8
YODOROGO
 10
31237.604341291921
 20
1595.7494964292871
 30
0.0
 11
31237.604341291921
 21
1707.749496429288
 31
0.0
  0
ARC
  5
4756
  8
YODOROGO
 10
31353.914865116069
 20
1607.790351288558
 30
0.0
 40
180.0924485759885
 50
268.62849102169793
 51
356.16638457330322
  0
LINE
  5
4757
  8
YODOROGO
 10
31349.604341291939
 20
1527.749496429288
 30
0.0
 11
31349.604341291939
 21
1427.749496429288
 31
0.0
  0
ARC
  5
4758
  8
YODOROGO
 10
31351.518075724562
 20
1637.838957017655
 30
0.0
 40
110.1060929836122
 50
269.00410209305932
 51
358.91264455492478
  0
LINE
  5
4759
  8
YODOROGO
 10
31589.604341291921
 20
1427.749496429288
 30
0.0
 11
31653.604341291921
 21
1427.749496429288
 31
0.0
  0
LINE
  5
475A
  8
YODOROGO
 10
31533.60434129191
 20
1811.749496429288
 30
0.0
 11
31589.604341291921
 21
1811.749496429288
 31
0.0
  0
LINE
  5
475B
  8
YODOROGO
 10
31621.604341291939
 20
1987.7494964292871
 30
0.0
 11
31461.60434129191
 21
1987.7494964292871
 31
0.0
  0
LINE
  5
475C
  8
YODOROGO
 10
31533.60434129191
 20
1915.7494964292871
 30
0.0
 11
31661.604341291939
 21
1915.7494964292871
 31
0.0
  0
LINE
  5
475D
  8
YODOROGO
 10
31701.604341291939
 20
1875.7494964292871
 30
0.0
 11
31533.60434129191
 21
1875.7494964292871
 31
0.0
  0
LINE
  5
475E
  8
YODOROGO
 10
31237.604341291921
 20
1779.749496429288
 30
0.0
 11
31349.604341291939
 21
1779.749496429288
 31
0.0
  0
LINE
  5
475F
  8
YODOROGO
 10
31237.604341291921
 20
1835.7494964292871
 30
0.0
 11
31237.604341291921
 21
1779.749496429288
 31
0.0
  0
LINE
  5
4760
  8
YODOROGO
 10
31349.604341291939
 20
1835.7494964292871
 30
0.0
 11
31237.604341291921
 21
1835.7494964292871
 31
0.0
  0
LINE
  5
4761
  8
YODOROGO
 10
31349.604341291939
 20
1779.749496429288
 30
0.0
 11
31349.604341291939
 21
1835.7494964292871
 31
0.0
  0
LINE
  5
4762
  8
YODOROGO
 10
31533.60434129191
 20
1875.7494964292871
 30
0.0
 11
31533.60434129191
 21
1915.7494964292871
 31
0.0
  0
LINE
  5
4763
  8
YODOROGO
 10
31413.604341291921
 20
1707.749496429288
 30
0.0
 11
31413.604341291921
 21
1907.7494964292871
 31
0.0
  0
LINE
  5
4764
  8
YODOROGO
 10
31237.604341291921
 20
1707.749496429288
 30
0.0
 11
31413.604341291921
 21
1707.749496429288
 31
0.0
  0
LINE
  5
4765
  8
YODOROGO
 10
31413.604341291921
 20
1963.749496429286
 30
0.0
 11
31413.604341291921
 21
2027.749496429288
 31
0.0
  0
ARC
  5
4766
  8
YODOROGO
 10
31621.604341291939
 20
2003.749496429285
 30
0.0
 40
15.999999999994539
 50
270.0
 51
0.0000000000081422
  0
LINE
  5
4767
  8
YODOROGO
 10
31637.604341291921
 20
2027.749496429288
 30
0.0
 11
31637.604341291921
 21
2003.7494964292871
 31
0.0
  0
LINE
  5
4768
  8
YODOROGO
 10
31701.604341291939
 20
2027.749496429288
 30
0.0
 11
31637.604341291921
 21
2027.749496429288
 31
0.0
  0
LINE
  5
4769
  8
YODOROGO
 10
31701.604341291939
 20
1955.7494964292871
 30
0.0
 11
31701.604341291939
 21
2027.749496429288
 31
0.0
  0
ARC
  5
476A
  8
YODOROGO
 10
31661.604341291939
 20
1955.7494964292871
 30
0.0
 40
40.0
 50
270.0
 51
0.0
  0
LINE
  5
476B
  8
YODOROGO
 10
31701.604341291939
 20
1811.749496429288
 30
0.0
 11
31701.604341291939
 21
1875.7494964292871
 31
0.0
  0
LINE
  5
476C
  8
YODOROGO
 10
31653.60434129191
 20
1811.749496429288
 30
0.0
 11
31701.604341291939
 21
1811.749496429288
 31
0.0
  0
LINE
  5
476D
  8
SUNPOU
  6
CONTINUOUS
 62
     4
 10
5260.5250806115218
 20
13521.32112999998
 30
0.0
 11
5260.5250806115218
 21
12342.368360999981
 31
0.0
  0
LINE
  5
476E
  8
SUNPOU
  6
CONTINUOUS
 62
     4
 10
14004.521015611501
 20
13521.32112999998
 30
0.0
 11
14004.521015611501
 21
12342.368360999981
 31
0.0
  0
LINE
  5
476F
  8
SUNPOU
  6
CONTINUOUS
 62
     4
 10
5260.5250806115218
 20
12422.368360999981
 30
0.0
 11
14004.521015611501
 21
12422.368360999981
 31
0.0
  0
LINE
  5
4770
  8
SUNPOU
  6
CONTINUOUS
 62
     4
 10
5175.0295341115489
 20
20282.812354000009
 30
0.0
 11
5175.0295341115489
 21
20832.817632999999
 31
0.0
  0
LINE
  5
4771
  8
SUNPOU
  6
CONTINUOUS
 62
     4
 10
5260.5295341115489
 20
20752.817632999999
 30
0.0
 11
5500.5295341115489
 21
20752.817632999999
 31
0.0
  0
LINE
  5
4772
  8
SUNPOU
  6
CONTINUOUS
 62
     4
 10
5178.0295341115489
 20
20752.817632999999
 30
0.0
 11
4938.0295341115489
 21
20752.817632999999
 31
0.0
  0
LINE
  5
4773
  8
SUNPOU
  6
CONTINUOUS
 62
     4
 10
5260.5295341115489
 20
20752.817632999999
 30
0.0
 11
5178.0295341115489
 21
20752.817632999999
 31
0.0
  0
LINE
  5
4774
  8
SUNPOU
  6
CONTINUOUS
 62
     4
 10
8178.5250806115246
 20
20752.817632999999
 30
0.0
 11
5260.5295341115489
 21
20752.817632999999
 31
0.0
  0
LINE
  5
4775
  8
SUNPOU
  6
CONTINUOUS
 62
     4
 10
8178.5250806115209
 20
20752.817632999999
 30
0.0
 11
11086.525469111541
 21
20752.817632999999
 31
0.0
  0
LINE
  5
4776
  8
SUNPOU
  6
CONTINUOUS
 62
     4
 10
14090.021015611501
 20
20282.812354000009
 30
0.0
 11
14090.021015611501
 21
20832.817632999999
 31
0.0
  0
LINE
  5
4777
  8
SUNPOU
  6
CONTINUOUS
 62
     4
 10
14004.521015611501
 20
20752.817632999999
 30
0.0
 11
13764.521015611501
 21
20752.817632999999
 31
0.0
  0
LINE
  5
4778
  8
SUNPOU
  6
CONTINUOUS
 62
     4
 10
14087.021015611501
 20
20752.817632999999
 30
0.0
 11
14327.021015611501
 21
20752.817632999999
 31
0.0
  0
LINE
  5
4779
  8
SUNPOU
  6
CONTINUOUS
 62
     4
 10
14004.521015611501
 20
20752.817632999999
 30
0.0
 11
14087.021015611501
 21
20752.817632999999
 31
0.0
  0
LINE
  5
477A
  8
SUNPOU
  6
CONTINUOUS
 62
     4
 10
11086.525469111541
 20
20752.817632999999
 30
0.0
 11
14004.521015611501
 21
20752.817632999999
 31
0.0
  0
LINE
  5
477B
  8
SUNPOU
  6
CONTINUOUS
 62
     4
 10
5171.527178611519
 20
20192.817764999982
 30
0.0
 11
4651.0281186115171
 21
20192.817764999982
 31
0.0
  0
LINE
  5
477C
  8
SUNPOU
  6
CONTINUOUS
 62
     4
 10
5098.0278946115177
 20
20202.812354000002
 30
0.0
 11
4651.0281186115171
 21
20202.812354000002
 31
0.0
  0
LINE
  5
477D
  8
SUNPOU
  6
CONTINUOUS
 62
     4
 10
4731.0281186115171
 20
20192.817764999982
 30
0.0
 11
4731.0281186115171
 21
19952.817764999989
 31
0.0
  0
LINE
  5
477E
  8
SUNPOU
  6
CONTINUOUS
 62
     4
 10
4731.0281186115171
 20
20202.812354000002
 30
0.0
 11
4731.0281186115171
 21
20442.812354000002
 31
0.0
  0
LINE
  5
477F
  8
SUNPOU
  6
CONTINUOUS
 62
     4
 10
4731.0281186115171
 20
20192.817764999982
 30
0.0
 11
4731.0281186115171
 21
20202.812354000002
 31
0.0
  0
LINE
  5
4780
  8
SUNPOU
  6
CONTINUOUS
 62
     4
 10
5098.0278946115177
 20
20202.812354000002
 30
0.0
 11
4251.0281186115189
 21
20202.812354000002
 31
0.0
  0
LINE
  5
4781
  8
SUNPOU
  6
CONTINUOUS
 62
     4
 10
4331.0281186115189
 20
19980.316444999949
 30
0.0
 11
4331.0281186115189
 21
20202.812354000002
 31
0.0
  0
LINE
  5
4782
  8
SUNPOU
  6
CONTINUOUS
 62
     4
 10
4331.028118611518
 20
17062.316444999979
 30
0.0
 11
4331.0281186115189
 21
19980.316444999949
 31
0.0
  0
LINE
  5
4783
  8
SUNPOU
  6
CONTINUOUS
 62
     4
 10
4331.0281186115162
 20
13793.81644499998
 30
0.0
 11
4331.0281186115162
 21
17062.316444999979
 31
0.0
  0
LINE
  5
4784
  8
SUNPOU
  6
CONTINUOUS
 62
     4
 10
5098.0235396115168
 20
13601.32112999998
 30
0.0
 11
4251.0281186115171
 21
13601.32112999998
 31
0.0
  0
LINE
  5
4785
  8
SUNPOU
  6
CONTINUOUS
 62
     4
 10
4331.0281186115162
 20
13793.81644499998
 30
0.0
 11
4331.0281186115162
 21
13601.32112999998
 31
0.0
  0
LINE
  5
4786
  8
SUNPOU
  6
CONTINUOUS
 62
     4
 10
22995.176123999961
 20
20102.814729999998
 30
0.0
 11
22995.176123999961
 21
20832.817632999999
 31
0.0
  0
LINE
  5
4787
  8
SUNPOU
  6
CONTINUOUS
 62
     4
 10
23753.176123999961
 20
20102.814729999998
 30
0.0
 11
23753.176123999961
 21
20832.817632999999
 31
0.0
  0
LINE
  5
4788
  8
SUNPOU
  6
CONTINUOUS
 62
     4
 10
22995.176123999961
 20
20752.817632999999
 30
0.0
 11
23753.176123999961
 21
20752.817632999999
 31
0.0
  0
LINE
  5
4789
  8
SUNPOU
  6
CONTINUOUS
 62
     4
 10
17577.170844999979
 20
20102.814729999998
 30
0.0
 11
17577.170844999979
 21
20832.817632999999
 31
0.0
  0
LINE
  5
478A
  8
SUNPOU
  6
CONTINUOUS
 62
     4
 10
18335.170844999979
 20
20102.814729999998
 30
0.0
 11
18335.170844999979
 21
20832.817632999999
 31
0.0
  0
LINE
  5
478B
  8
SUNPOU
  6
CONTINUOUS
 62
     4
 10
17577.170844999979
 20
20752.817632999999
 30
0.0
 11
18335.170844999979
 21
20752.817632999999
 31
0.0
  0
LINE
  5
478C
  8
SUNPOU
  6
CONTINUOUS
 62
     4
 10
6615.383511
 20
8449.7285880000018
 30
0.0
 11
6615.383511
 21
9840.7286139999997
 31
0.0
  0
LINE
  5
478D
  8
SUNPOU
  6
CONTINUOUS
 62
     4
 10
13216.883511
 20
8581.6184114124335
 30
0.0
 11
13216.883511
 21
9840.7286139999997
 31
0.0
  0
LINE
  5
478E
  8
SUNPOU
  6
CONTINUOUS
 62
     4
 10
6615.383511
 20
9760.7286140000015
 30
0.0
 11
13216.883511
 21
9760.7286140000015
 31
0.0
  0
LINE
  5
478F
  8
SUNPOU
  6
CONTINUOUS
 62
     4
 10
13066.883511
 20
8507.6386520000069
 30
0.0
 11
13066.883511
 21
9440.7302639999998
 31
0.0
  0
LINE
  5
4790
  8
SUNPOU
  6
CONTINUOUS
 62
     4
 10
13216.883511
 20
8581.6184114124335
 30
0.0
 11
13216.883511
 21
9440.7302639999998
 31
0.0
  0
LINE
  5
4791
  8
SUNPOU
  6
CONTINUOUS
 62
     4
 10
13066.883511
 20
9360.7302639999998
 30
0.0
 11
12826.883511
 21
9360.7302639999998
 31
0.0
  0
LINE
  5
4792
  8
SUNPOU
  6
CONTINUOUS
 62
     4
 10
13216.883511
 20
9360.7302639999998
 30
0.0
 11
13456.883511
 21
9360.7302639999998
 31
0.0
  0
LINE
  5
4793
  8
SUNPOU
  6
CONTINUOUS
 62
     4
 10
13066.883511
 20
9360.7302639999998
 30
0.0
 11
13216.883511
 21
9360.7302639999998
 31
0.0
  0
LINE
  5
4794
  8
SUNPOU
  6
CONTINUOUS
 62
     4
 10
6795.383511
 20
8319.9143636838089
 30
0.0
 11
6795.383511
 21
9440.7302639999998
 31
0.0
  0
LINE
  5
4795
  8
SUNPOU
  6
CONTINUOUS
 62
     4
 10
13066.883511
 20
8507.6386520000069
 30
0.0
 11
13066.883511
 21
9440.7302639999998
 31
0.0
  0
LINE
  5
4796
  8
SUNPOU
  6
CONTINUOUS
 62
     4
 10
6795.383511
 20
9360.7302639999998
 30
0.0
 11
13066.883511
 21
9360.7302639999998
 31
0.0
  0
LINE
  5
4797
  8
SUNPOU
  6
CONTINUOUS
 62
     4
 10
6615.383511
 20
8449.7285880000018
 30
0.0
 11
6615.383511
 21
9440.7302639999998
 31
0.0
  0
LINE
  5
4798
  8
SUNPOU
  6
CONTINUOUS
 62
     4
 10
6795.383511
 20
8319.9143636838089
 30
0.0
 11
6795.383511
 21
9440.7302639999998
 31
0.0
  0
LINE
  5
4799
  8
SUNPOU
  6
CONTINUOUS
 62
     4
 10
6615.383511
 20
9360.7302639999998
 30
0.0
 11
6795.383511
 21
9360.7302639999998
 31
0.0
  0
LINE
  5
479A
  8
SUNPOU
  6
CONTINUOUS
 62
     4
 10
13159.383511
 20
6212.7285880000036
 30
0.0
 11
14236.88390699999
 21
6212.7285880000036
 31
0.0
  0
LINE
  5
479B
  8
SUNPOU
  6
CONTINUOUS
 62
     4
 10
13251.69077059938
 20
8560.7285880000018
 30
0.0
 11
14236.88390699999
 21
8560.7285880000018
 31
0.0
  0
LINE
  5
479C
  8
SUNPOU
  6
CONTINUOUS
 62
     4
 10
14156.88390699999
 20
6212.7285880000036
 30
0.0
 11
14156.88390699999
 21
8560.7285880000018
 31
0.0
  0
LINE
  5
479D
  8
SUNPOU
  6
CONTINUOUS
 62
     4
 10
6707.883511
 20
6212.7285880000036
 30
0.0
 11
5625.3831150000051
 21
6212.7285880000036
 31
0.0
  0
LINE
  5
479E
  8
SUNPOU
  6
CONTINUOUS
 62
     4
 10
6535.383511
 20
8369.7285880000054
 30
0.0
 11
5625.3831150000051
 21
8369.7285880000054
 31
0.0
  0
LINE
  5
479F
  8
SUNPOU
  6
CONTINUOUS
 62
     4
 10
5705.3831150000024
 20
6212.7285880000036
 30
0.0
 11
5705.3831150000024
 21
8369.7285880000054
 31
0.0
  0
LINE
  5
47A0
  8
SUNPOU
  6
CONTINUOUS
 62
     4
 10
6795.383511
 20
6132.7285880000018
 30
0.0
 11
6795.383511
 21
4432.7289180000043
 31
0.0
  0
LINE
  5
47A1
  8
SUNPOU
  6
CONTINUOUS
 62
     4
 10
13066.883511
 20
6132.7285880000018
 30
0.0
 11
13066.883511
 21
4432.7289180000043
 31
0.0
  0
LINE
  5
47A2
  8
SUNPOU
  6
CONTINUOUS
 62
     4
 10
6795.383511
 20
4512.7289180000034
 30
0.0
 11
13066.883511
 21
4512.7289180000034
 31
0.0
  0
LINE
  5
47A3
  8
SUNPOU
  6
CONTINUOUS
 62
     4
 10
13024.383511
 20
5770.0763300000017
 30
0.0
 11
13024.383511
 21
4832.7287530000021
 31
0.0
  0
LINE
  5
47A4
  8
SUNPOU
  6
CONTINUOUS
 62
     4
 10
13066.883511
 20
6132.7285880000018
 30
0.0
 11
13066.883511
 21
4832.7287530000021
 31
0.0
  0
LINE
  5
47A5
  8
SUNPOU
  6
CONTINUOUS
 62
     4
 10
13024.383511
 20
4912.7287530000031
 30
0.0
 11
12784.383511
 21
4912.7287530000031
 31
0.0
  0
LINE
  5
47A6
  8
SUNPOU
  6
CONTINUOUS
 62
     4
 10
13066.883511
 20
4912.7287530000031
 30
0.0
 11
13306.883511
 21
4912.7287530000031
 31
0.0
  0
LINE
  5
47A7
  8
SUNPOU
  6
CONTINUOUS
 62
     4
 10
13024.383511
 20
4912.7287530000031
 30
0.0
 11
13066.883511
 21
4912.7287530000031
 31
0.0
  0
LINE
  5
47A8
  8
SUNPOU
  6
CONTINUOUS
 62
     4
 10
6837.883511
 20
5770.0763300000017
 30
0.0
 11
6837.883511
 21
4832.7287530000021
 31
0.0
  0
LINE
  5
47A9
  8
SUNPOU
  6
CONTINUOUS
 62
     4
 10
6795.383511
 20
6132.7285880000018
 30
0.0
 11
6795.383511
 21
4832.7287530000021
 31
0.0
  0
LINE
  5
47AA
  8
SUNPOU
  6
CONTINUOUS
 62
     4
 10
6837.883511
 20
4912.7287530000031
 30
0.0
 11
7077.883511
 21
4912.7287530000031
 31
0.0
  0
LINE
  5
47AB
  8
SUNPOU
  6
CONTINUOUS
 62
     4
 10
6795.383511
 20
4912.7287530000031
 30
0.0
 11
6555.3835109999991
 21
4912.7287530000031
 31
0.0
  0
LINE
  5
47AC
  8
SUNPOU
  6
CONTINUOUS
 62
     4
 10
6837.883511
 20
4912.7287530000031
 30
0.0
 11
6795.383511
 21
4912.7287530000031
 31
0.0
  0
LINE
  5
47AD
  8
SUNPOU
  6
CONTINUOUS
 62
     4
 10
9755.883511
 20
5770.0763300000017
 30
0.0
 11
9755.883511
 21
4832.7287530000021
 31
0.0
  0
LINE
  5
47AE
  8
SUNPOU
  6
CONTINUOUS
 62
     4
 10
6837.883511
 20
5770.0763300000017
 30
0.0
 11
6837.883511
 21
4832.7287530000021
 31
0.0
  0
LINE
  5
47AF
  8
SUNPOU
  6
CONTINUOUS
 62
     4
 10
9755.883511
 20
4912.7287530000031
 30
0.0
 11
6837.883511
 21
4912.7287530000031
 31
0.0
  0
LINE
  5
47B0
  8
SUNPOU
  6
CONTINUOUS
 62
     4
 10
9755.883511
 20
5770.0763300000017
 30
0.0
 11
9755.883511
 21
4832.728753000004
 31
0.0
  0
LINE
  5
47B1
  8
SUNPOU
  6
CONTINUOUS
 62
     4
 10
13024.383511
 20
5770.0763300000017
 30
0.0
 11
13024.383511
 21
4832.728753000004
 31
0.0
  0
LINE
  5
47B2
  8
SUNPOU
  6
CONTINUOUS
 62
     4
 10
9755.883511
 20
4912.7287530000031
 30
0.0
 11
13024.383511
 21
4912.7287530000031
 31
0.0
  0
LINE
  5
47B3
  8
2-0
  6
CONTINUOUS
 62
     3
 10
22952.676123999961
 20
13751.31644499998
 30
0.0
 11
23037.676123999961
 21
13751.31644499998
 31
0.0
  0
LINE
  5
47B4
  8
2-0
  6
CONTINUOUS
 62
     3
 10
23037.676123999961
 20
13751.31644499998
 30
0.0
 11
23037.676123999961
 21
13836.31644499998
 31
0.0
  0
LINE
  5
47B5
  8
2-0
  6
CONTINUOUS
 62
     3
 10
23037.676123999961
 20
13836.31644499998
 30
0.0
 11
22952.676123999961
 21
13836.31644499998
 31
0.0
  0
LINE
  5
47B6
  8
2-0
  6
CONTINUOUS
 62
     3
 10
22952.676123999961
 20
13836.31644499998
 30
0.0
 11
22952.676123999961
 21
13751.31644499998
 31
0.0
  0
LINE
  5
47B7
  8
2-0
  6
CONTINUOUS
 62
     3
 10
20452.670844999979
 20
13751.31644499998
 30
0.0
 11
20537.670845000001
 21
13751.31644499998
 31
0.0
  0
LINE
  5
47B8
  8
2-0
  6
CONTINUOUS
 62
     3
 10
20537.670845000001
 20
13751.31644499998
 30
0.0
 11
20537.670845000001
 21
13836.31644499998
 31
0.0
  0
LINE
  5
47B9
  8
2-0
  6
CONTINUOUS
 62
     3
 10
20537.670845000001
 20
13836.31644499998
 30
0.0
 11
20452.670844999979
 21
13836.31644499998
 31
0.0
  0
LINE
  5
47BA
  8
2-0
  6
CONTINUOUS
 62
     3
 10
20452.670844999979
 20
13836.31644499998
 30
0.0
 11
20452.670844999979
 21
13751.31644499998
 31
0.0
  0
LINE
  5
47BB
  8
SUNPOU
  6
CONTINUOUS
 62
     4
 10
25913.176123999961
 20
13088.05301099998
 30
0.0
 11
25913.176123999961
 21
12742.368360999981
 31
0.0
  0
LINE
  5
47BC
  8
SUNPOU
  6
CONTINUOUS
 62
     4
 10
25870.67388099997
 20
13671.319149999979
 30
0.0
 11
25870.67388099997
 21
12742.368360999981
 31
0.0
  0
LINE
  5
47BD
  8
SUNPOU
  6
CONTINUOUS
 62
     4
 10
25913.176123999961
 20
12822.368360999981
 30
0.0
 11
26153.176123999961
 21
12822.368360999981
 31
0.0
  0
LINE
  5
47BE
  8
SUNPOU
  6
CONTINUOUS
 62
     4
 10
25870.67388099997
 20
12822.368360999981
 30
0.0
 11
25630.67388099997
 21
12822.368360999981
 31
0.0
  0
LINE
  5
47BF
  8
SUNPOU
  6
CONTINUOUS
 62
     4
 10
25913.176123999961
 20
12822.368360999981
 30
0.0
 11
25870.67388099997
 21
12822.368360999981
 31
0.0
  0
LINE
  5
47C0
  8
SUNPOU
  6
CONTINUOUS
 62
     4
 10
17577.170844999979
 20
13088.05301099998
 30
0.0
 11
17577.170844999979
 21
12742.368360999981
 31
0.0
  0
LINE
  5
47C1
  8
SUNPOU
  6
CONTINUOUS
 62
     4
 10
17619.673087999989
 20
13671.319149999979
 30
0.0
 11
17619.673087999989
 21
12742.368360999981
 31
0.0
  0
LINE
  5
47C2
  8
SUNPOU
  6
CONTINUOUS
 62
     4
 10
17577.170844999979
 20
12822.368360999981
 30
0.0
 11
17337.170844999979
 21
12822.368360999981
 31
0.0
  0
LINE
  5
47C3
  8
SUNPOU
  6
CONTINUOUS
 62
     4
 10
17619.673087999989
 20
12822.368360999981
 30
0.0
 11
17859.673087999989
 21
12822.368360999981
 31
0.0
  0
LINE
  5
47C4
  8
SUNPOU
  6
CONTINUOUS
 62
     4
 10
17577.170844999979
 20
12822.368360999981
 30
0.0
 11
17619.673087999989
 21
12822.368360999981
 31
0.0
  0
LINE
  5
47C5
  8
SUNPOU
  6
CONTINUOUS
 62
     4
 10
17577.170844999979
 20
13088.05301099998
 30
0.0
 11
17577.170844999979
 21
12342.368360999981
 31
0.0
  0
LINE
  5
47C6
  8
SUNPOU
  6
CONTINUOUS
 62
     4
 10
25913.176123999961
 20
13088.05301099998
 30
0.0
 11
25913.176123999961
 21
12342.368360999981
 31
0.0
  0
LINE
  5
47C7
  8
SUNPOU
  6
CONTINUOUS
 62
     4
 10
17577.170844999979
 20
12422.368360999981
 30
0.0
 11
25913.176123999961
 21
12422.368360999981
 31
0.0
  0
LINE
  5
47C8
  8
SUNPOU
  6
CONTINUOUS
 62
     4
 10
26035.674407999959
 20
14201.31644499998
 30
0.0
 11
27085.675727999958
 21
14201.31644499998
 31
0.0
  0
LINE
  5
47C9
  8
SUNPOU
  6
CONTINUOUS
 62
     4
 10
26885.675727999958
 20
13793.81644499998
 30
0.0
 11
27085.675727999958
 21
13793.81644499998
 31
0.0
  0
LINE
  5
47CA
  8
SUNPOU
  6
CONTINUOUS
 62
     4
 10
27005.675727999958
 20
14201.31644499998
 30
0.0
 11
27005.675727999958
 21
13793.81644499998
 31
0.0
  0
LINE
  5
47CB
  8
SUNPOU
  6
CONTINUOUS
 62
     4
 10
26035.674407999959
 20
14902.31644499998
 30
0.0
 11
27085.675727999958
 21
14902.31644499998
 31
0.0
  0
LINE
  5
47CC
  8
SUNPOU
  6
CONTINUOUS
 62
     4
 10
26035.674407999959
 20
14201.31644499998
 30
0.0
 11
27085.675727999958
 21
14201.31644499998
 31
0.0
  0
LINE
  5
47CD
  8
SUNPOU
  6
CONTINUOUS
 62
     4
 10
27005.675727999958
 20
14902.31644499998
 30
0.0
 11
27005.675727999958
 21
14201.31644499998
 31
0.0
  0
LINE
  5
47CE
  8
SUNPOU
  6
CONTINUOUS
 62
     4
 10
26035.674407999959
 20
15603.556956500001
 30
0.0
 11
27085.675727999958
 21
15603.556956500001
 31
0.0
  0
LINE
  5
47CF
  8
SUNPOU
  6
CONTINUOUS
 62
     4
 10
26035.674407999959
 20
14902.31644499998
 30
0.0
 11
27085.675727999958
 21
14902.31644499998
 31
0.0
  0
LINE
  5
47D0
  8
SUNPOU
  6
CONTINUOUS
 62
     4
 10
27005.675727999958
 20
15603.556956500001
 30
0.0
 11
27005.675727999958
 21
14902.31644499998
 31
0.0
  0
LINE
  5
47D1
  8
SUNPOU
  6
CONTINUOUS
 62
     4
 10
26035.674407999959
 20
16304.31644499998
 30
0.0
 11
27085.675727999958
 21
16304.31644499998
 31
0.0
  0
LINE
  5
47D2
  8
SUNPOU
  6
CONTINUOUS
 62
     4
 10
26035.674407999959
 20
15603.556956500001
 30
0.0
 11
27085.675727999958
 21
15603.556956500001
 31
0.0
  0
LINE
  5
47D3
  8
SUNPOU
  6
CONTINUOUS
 62
     4
 10
27005.675727999958
 20
16304.31644499998
 30
0.0
 11
27005.675727999958
 21
15603.556956500001
 31
0.0
  0
LINE
  5
47D4
  8
SUNPOU
  6
CONTINUOUS
 62
     4
 10
26885.675727999958
 20
17062.316444999979
 30
0.0
 11
27085.675727999958
 21
17062.316444999979
 31
0.0
  0
LINE
  5
47D5
  8
SUNPOU
  6
CONTINUOUS
 62
     4
 10
26035.674407999959
 20
16304.31644499998
 30
0.0
 11
27085.675727999958
 21
16304.31644499998
 31
0.0
  0
LINE
  5
47D6
  8
SUNPOU
  6
CONTINUOUS
 62
     4
 10
27005.675727999958
 20
17062.316444999979
 30
0.0
 11
27005.675727999958
 21
16304.31644499998
 31
0.0
  0
LINE
  5
47D7
  8
SUNPOU
  6
CONTINUOUS
 62
     4
 10
26035.674407999959
 20
17820.316444999979
 30
0.0
 11
27085.675727999958
 21
17820.316444999979
 31
0.0
  0
LINE
  5
47D8
  8
SUNPOU
  6
CONTINUOUS
 62
     4
 10
26885.675727999958
 20
17062.316444999979
 30
0.0
 11
27085.675727999958
 21
17062.316444999979
 31
0.0
  0
LINE
  5
47D9
  8
SUNPOU
  6
CONTINUOUS
 62
     4
 10
27005.675727999958
 20
17820.316444999979
 30
0.0
 11
27005.675727999958
 21
17062.316444999979
 31
0.0
  0
LINE
  5
47DA
  8
SUNPOU
  6
CONTINUOUS
 62
     4
 10
26035.674407999959
 20
18521.31644499996
 30
0.0
 11
27085.675727999958
 21
18521.31644499996
 31
0.0
  0
LINE
  5
47DB
  8
SUNPOU
  6
CONTINUOUS
 62
     4
 10
26035.674407999959
 20
17820.316444999979
 30
0.0
 11
27085.675727999958
 21
17820.316444999979
 31
0.0
  0
LINE
  5
47DC
  8
SUNPOU
  6
CONTINUOUS
 62
     4
 10
27005.675727999958
 20
18521.31644499996
 30
0.0
 11
27005.675727999958
 21
17820.316444999979
 31
0.0
  0
LINE
  5
47DD
  8
SUNPOU
  6
CONTINUOUS
 62
     4
 10
26035.674407999959
 20
19222.31644499996
 30
0.0
 11
27085.675727999958
 21
19222.31644499996
 31
0.0
  0
LINE
  5
47DE
  8
SUNPOU
  6
CONTINUOUS
 62
     4
 10
26035.674407999959
 20
18521.31644499996
 30
0.0
 11
27085.675727999958
 21
18521.31644499996
 31
0.0
  0
LINE
  5
47DF
  8
SUNPOU
  6
CONTINUOUS
 62
     4
 10
27005.675727999958
 20
19222.31644499996
 30
0.0
 11
27005.675727999958
 21
18521.31644499996
 31
0.0
  0
LINE
  5
47E0
  8
SUNPOU
  6
CONTINUOUS
 62
     4
 10
26885.675727999958
 20
19980.316444999949
 30
0.0
 11
27085.675727999958
 21
19980.316444999949
 31
0.0
  0
LINE
  5
47E1
  8
SUNPOU
  6
CONTINUOUS
 62
     4
 10
26035.674407999959
 20
19222.31644499996
 30
0.0
 11
27085.675727999958
 21
19222.31644499996
 31
0.0
  0
LINE
  5
47E2
  8
SUNPOU
  6
CONTINUOUS
 62
     4
 10
27005.675727999958
 20
19980.316444999949
 30
0.0
 11
27005.675727999958
 21
19222.31644499996
 31
0.0
  0
LINE
  5
47E3
  8
SUNPOU
  6
CONTINUOUS
 62
     4
 10
26885.675727999958
 20
17062.316444999979
 30
0.0
 11
27485.675727999958
 21
17062.316444999979
 31
0.0
  0
LINE
  5
47E4
  8
SUNPOU
  6
CONTINUOUS
 62
     4
 10
26885.675727999958
 20
19980.316444999949
 30
0.0
 11
27485.675727999958
 21
19980.316444999949
 31
0.0
  0
LINE
  5
47E5
  8
SUNPOU
  6
CONTINUOUS
 62
     4
 10
27405.675727999958
 20
17062.316444999979
 30
0.0
 11
27405.675727999958
 21
19980.316444999949
 31
0.0
  0
LINE
  5
47E6
  8
SUNPOU
  6
CONTINUOUS
 62
     4
 10
26885.675727999958
 20
13793.81644499998
 30
0.0
 11
27485.675727999958
 21
13793.81644499998
 31
0.0
  0
LINE
  5
47E7
  8
SUNPOU
  6
CONTINUOUS
 62
     4
 10
26885.675727999958
 20
17062.316444999979
 30
0.0
 11
27485.675727999958
 21
17062.316444999979
 31
0.0
  0
LINE
  5
47E8
  8
SUNPOU
  6
CONTINUOUS
 62
     4
 10
27405.675727999958
 20
13793.81644499998
 30
0.0
 11
27405.675727999958
 21
17062.316444999979
 31
0.0
  0
LINE
  5
47E9
  8
SUNPOU
  6
CONTINUOUS
 62
     4
 10
26035.674407999959
 20
20022.81373999998
 30
0.0
 11
27885.675727999958
 21
20022.81373999998
 31
0.0
  0
LINE
  5
47EA
  8
SUNPOU
  6
CONTINUOUS
 62
     4
 10
26035.674407999959
 20
13751.319149999979
 30
0.0
 11
27885.675727999958
 21
13751.319149999979
 31
0.0
  0
LINE
  5
47EB
  8
SUNPOU
  6
CONTINUOUS
 62
     4
 10
27805.675727999958
 20
20022.81373999998
 30
0.0
 11
27805.675727999958
 21
13751.319149999979
 31
0.0
  0
LINE
  5
47EC
  8
SUNPOU
  6
CONTINUOUS
 62
     4
 10
26885.675727999958
 20
19980.316444999949
 30
0.0
 11
27485.675727999958
 21
19980.316444999949
 31
0.0
  0
LINE
  5
47ED
  8
SUNPOU
  6
CONTINUOUS
 62
     4
 10
26035.674407999959
 20
20022.81373999998
 30
0.0
 11
27485.675727999958
 21
20022.81373999998
 31
0.0
  0
LINE
  5
47EE
  8
SUNPOU
  6
CONTINUOUS
 62
     4
 10
27405.675727999958
 20
19980.316444999949
 30
0.0
 11
27405.675727999958
 21
19740.316444999949
 31
0.0
  0
LINE
  5
47EF
  8
SUNPOU
  6
CONTINUOUS
 62
     4
 10
27405.675727999958
 20
20022.81373999998
 30
0.0
 11
27405.675727999958
 21
20262.81373999998
 31
0.0
  0
LINE
  5
47F0
  8
SUNPOU
  6
CONTINUOUS
 62
     4
 10
27405.675727999958
 20
19980.316444999949
 30
0.0
 11
27405.675727999958
 21
20022.81373999998
 31
0.0
  0
LINE
  5
47F1
  8
SUNPOU
  6
CONTINUOUS
 62
     4
 10
26885.675727999958
 20
13793.81644499998
 30
0.0
 11
27485.675727999958
 21
13793.81644499998
 31
0.0
  0
LINE
  5
47F2
  8
SUNPOU
  6
CONTINUOUS
 62
     4
 10
26035.674407999959
 20
13751.319149999979
 30
0.0
 11
27485.675727999958
 21
13751.319149999979
 31
0.0
  0
LINE
  5
47F3
  8
SUNPOU
  6
CONTINUOUS
 62
     4
 10
27405.675727999958
 20
13793.81644499998
 30
0.0
 11
27405.675727999958
 21
14033.816444999969
 31
0.0
  0
LINE
  5
47F4
  8
SUNPOU
  6
CONTINUOUS
 62
     4
 10
27405.675727999958
 20
13751.319149999979
 30
0.0
 11
27405.675727999958
 21
13511.319149999979
 31
0.0
  0
LINE
  5
47F5
  8
SUNPOU
  6
CONTINUOUS
 62
     4
 10
27405.675727999958
 20
13793.81644499998
 30
0.0
 11
27405.675727999958
 21
13751.319149999979
 31
0.0
  0
LINE
  5
47F6
  8
SUNPOU
  6
CONTINUOUS
 62
     4
 10
20495.171834500001
 20
20102.814729999998
 30
0.0
 11
20495.171834500001
 21
20832.817632999999
 31
0.0
  0
LINE
  5
47F7
  8
SUNPOU
  6
CONTINUOUS
 62
     4
 10
22995.176123999961
 20
20102.814729999998
 30
0.0
 11
22995.176123999961
 21
20832.817632999999
 31
0.0
  0
LINE
  5
47F8
  8
SUNPOU
  6
CONTINUOUS
 62
     4
 10
20495.171834500001
 20
20752.817632999999
 30
0.0
 11
22995.176123999961
 21
20752.817632999999
 31
0.0
  0
LINE
  5
47F9
  8
SUNPOU
  6
CONTINUOUS
 62
     4
 10
25155.176123999961
 20
20102.814729999998
 30
0.0
 11
25155.176123999961
 21
20832.817632999999
 31
0.0
  0
LINE
  5
47FA
  8
SUNPOU
  6
CONTINUOUS
 62
     4
 10
25913.17711349998
 20
20102.814729999998
 30
0.0
 11
25913.17711349998
 21
20832.817632999999
 31
0.0
  0
LINE
  5
47FB
  8
SUNPOU
  6
CONTINUOUS
 62
     4
 10
25155.176123999961
 20
20752.817632999999
 30
0.0
 11
25913.17711349998
 21
20752.817632999999
 31
0.0
  0
LINE
  5
47FC
  8
SUNPOU
  6
CONTINUOUS
 62
     4
 10
24454.176123999961
 20
20102.814729999998
 30
0.0
 11
24454.176123999961
 21
20832.817632999999
 31
0.0
  0
LINE
  5
47FD
  8
SUNPOU
  6
CONTINUOUS
 62
     4
 10
25155.176123999961
 20
20102.814729999998
 30
0.0
 11
25155.176123999961
 21
20832.817632999999
 31
0.0
  0
LINE
  5
47FE
  8
SUNPOU
  6
CONTINUOUS
 62
     4
 10
24454.176123999961
 20
20752.817632999999
 30
0.0
 11
25155.176123999961
 21
20752.817632999999
 31
0.0
  0
LINE
  5
47FF
  8
SUNPOU
  6
CONTINUOUS
 62
     4
 10
23753.176123999961
 20
20102.814729999998
 30
0.0
 11
23753.176123999961
 21
20832.817632999999
 31
0.0
  0
LINE
  5
4800
  8
SUNPOU
  6
CONTINUOUS
 62
     4
 10
24454.176123999961
 20
20102.814729999998
 30
0.0
 11
24454.176123999961
 21
20832.817632999999
 31
0.0
  0
LINE
  5
4801
  8
SUNPOU
  6
CONTINUOUS
 62
     4
 10
23753.176123999961
 20
20752.817632999999
 30
0.0
 11
24454.176123999961
 21
20752.817632999999
 31
0.0
  0
LINE
  5
4802
  8
SUNPOU
  6
CONTINUOUS
 62
     4
 10
25913.176123999961
 20
20102.814729999998
 30
0.0
 11
25913.176123999961
 21
20832.817632999999
 31
0.0
  0
LINE
  5
4803
  8
SUNPOU
  6
CONTINUOUS
 62
     4
 10
25955.672428999958
 20
20102.814729999998
 30
0.0
 11
25955.672428999958
 21
20832.817632999999
 31
0.0
  0
LINE
  5
4804
  8
SUNPOU
  6
CONTINUOUS
 62
     4
 10
25913.176123999961
 20
20752.817632999999
 30
0.0
 11
25673.176123999961
 21
20752.817632999999
 31
0.0
  0
LINE
  5
4805
  8
SUNPOU
  6
CONTINUOUS
 62
     4
 10
25955.672428999958
 20
20752.817632999999
 30
0.0
 11
26195.672428999958
 21
20752.817632999999
 31
0.0
  0
LINE
  5
4806
  8
SUNPOU
  6
CONTINUOUS
 62
     4
 10
25913.176123999961
 20
20752.817632999999
 30
0.0
 11
25955.672428999958
 21
20752.817632999999
 31
0.0
  0
LINE
  5
4807
  8
SUNPOU
  6
CONTINUOUS
 62
     4
 10
17577.170844999979
 20
20102.814729999998
 30
0.0
 11
17577.170844999979
 21
20832.817632999999
 31
0.0
  0
LINE
  5
4808
  8
SUNPOU
  6
CONTINUOUS
 62
     4
 10
17534.674539999989
 20
20102.814729999998
 30
0.0
 11
17534.674539999989
 21
20832.817632999999
 31
0.0
  0
LINE
  5
4809
  8
SUNPOU
  6
CONTINUOUS
 62
     4
 10
17577.170844999979
 20
20752.817632999999
 30
0.0
 11
17817.170844999979
 21
20752.817632999999
 31
0.0
  0
LINE
  5
480A
  8
SUNPOU
  6
CONTINUOUS
 62
     4
 10
17534.674539999989
 20
20752.817632999999
 30
0.0
 11
17294.674539999989
 21
20752.817632999999
 31
0.0
  0
LINE
  5
480B
  8
SUNPOU
  6
CONTINUOUS
 62
     4
 10
17577.170844999979
 20
20752.817632999999
 30
0.0
 11
17534.674539999989
 21
20752.817632999999
 31
0.0
  0
LINE
  5
480C
  8
SUNPOU
  6
CONTINUOUS
 62
     4
 10
19737.17084499999
 20
20102.814729999998
 30
0.0
 11
19737.17084499999
 21
20832.817632999999
 31
0.0
  0
LINE
  5
480D
  8
SUNPOU
  6
CONTINUOUS
 62
     4
 10
20495.171834500001
 20
20102.814729999998
 30
0.0
 11
20495.171834500001
 21
20832.817632999999
 31
0.0
  0
LINE
  5
480E
  8
SUNPOU
  6
CONTINUOUS
 62
     4
 10
19737.17084499999
 20
20752.817632999999
 30
0.0
 11
20495.171834500001
 21
20752.817632999999
 31
0.0
  0
LINE
  5
480F
  8
SUNPOU
  6
CONTINUOUS
 62
     4
 10
19036.17084499999
 20
20102.814729999998
 30
0.0
 11
19036.17084499999
 21
20832.817632999999
 31
0.0
  0
LINE
  5
4810
  8
SUNPOU
  6
CONTINUOUS
 62
     4
 10
19737.17084499999
 20
20102.814729999998
 30
0.0
 11
19737.17084499999
 21
20832.817632999999
 31
0.0
  0
LINE
  5
4811
  8
SUNPOU
  6
CONTINUOUS
 62
     4
 10
19036.17084499999
 20
20752.817632999999
 30
0.0
 11
19737.17084499999
 21
20752.817632999999
 31
0.0
  0
LINE
  5
4812
  8
SUNPOU
  6
CONTINUOUS
 62
     4
 10
18335.170844999979
 20
20102.814729999998
 30
0.0
 11
18335.170844999979
 21
20832.817632999999
 31
0.0
  0
LINE
  5
4813
  8
SUNPOU
  6
CONTINUOUS
 62
     4
 10
19036.17084499999
 20
20102.814729999998
 30
0.0
 11
19036.17084499999
 21
20832.817632999999
 31
0.0
  0
LINE
  5
4814
  8
SUNPOU
  6
CONTINUOUS
 62
     4
 10
18335.170844999979
 20
20752.817632999999
 30
0.0
 11
19036.17084499999
 21
20752.817632999999
 31
0.0
  0
LINE
  5
4815
  8
SUNPOU
  6
CONTINUOUS
 62
     4
 10
17447.170185999999
 20
6212.7285879999999
 30
0.0
 11
16647.171504999991
 21
6212.7285879999999
 31
0.0
  0
LINE
  5
4816
  8
SUNPOU
  6
CONTINUOUS
 62
     4
 10
17447.170185999999
 20
8104.228587999999
 30
0.0
 11
16647.171504999991
 21
8104.228587999999
 31
0.0
  0
LINE
  5
4817
  8
SUNPOU
  6
CONTINUOUS
 62
     4
 10
16727.171504999991
 20
6212.7285879999999
 30
0.0
 11
16727.171504999991
 21
8104.228587999999
 31
0.0
  0
LINE
  5
4818
  8
SUNPOU
  6
CONTINUOUS
 62
     4
 10
17447.170185999999
 20
6212.7285879999999
 30
0.0
 11
16247.16919599999
 21
6212.7285879999999
 31
0.0
  0
LINE
  5
4819
  8
SUNPOU
  6
CONTINUOUS
 62
     4
 10
17414.67044999998
 20
8560.7285880000018
 30
0.0
 11
16247.16919599999
 21
8560.7285880000018
 31
0.0
  0
LINE
  5
481A
  8
SUNPOU
  6
CONTINUOUS
 62
     4
 10
16327.16919599999
 20
6212.7285879999999
 30
0.0
 11
16327.16919599999
 21
8560.7285880000018
 31
0.0
  0
LINE
  5
481B
  8
SUNPOU
  6
CONTINUOUS
 62
     4
 10
17491.668469999979
 20
8641.2289370000017
 30
0.0
 11
17491.668469999979
 21
9840.686549
 31
0.0
  0
LINE
  5
481C
  8
SUNPOU
  6
CONTINUOUS
 62
     4
 10
25998.678498999961
 20
8641.2289370000017
 30
0.0
 11
25998.678498999961
 21
9840.686549
 31
0.0
  0
LINE
  5
481D
  8
SUNPOU
  6
CONTINUOUS
 62
     4
 10
17494.668469999979
 20
9760.686549
 30
0.0
 11
25995.678498999961
 21
9760.686549
 31
0.0
  0
LINE
  5
481E
  8
SUNPOU
  6
CONTINUOUS
 62
     4
 10
17534.670580999991
 20
8641.2289370000017
 30
0.0
 11
17534.670580999991
 21
9440.7287790000028
 31
0.0
  0
LINE
  5
481F
  8
SUNPOU
  6
CONTINUOUS
 62
     4
 10
25955.67638799996
 20
8641.2289370000017
 30
0.0
 11
25955.67638799996
 21
9440.7287790000028
 31
0.0
  0
LINE
  5
4820
  8
SUNPOU
  6
CONTINUOUS
 62
     4
 10
17534.670580999991
 20
9360.7287789999955
 30
0.0
 11
25955.67638799996
 21
9360.7287789999955
 31
0.0
  0
LINE
  5
4821
  8
SUNPOU
  6
CONTINUOUS
 62
     4
 10
17534.670580999991
 20
8641.2289370000017
 30
0.0
 11
17534.670580999991
 21
9440.7287790000028
 31
0.0
  0
LINE
  5
4822
  8
SUNPOU
  6
CONTINUOUS
 62
     4
 10
17491.668469999979
 20
8641.2289370000017
 30
0.0
 11
17491.668469999979
 21
9440.7287790000028
 31
0.0
  0
LINE
  5
4823
  8
SUNPOU
  6
CONTINUOUS
 62
     4
 10
17534.670580999991
 20
9360.7287789999955
 30
0.0
 11
17774.670580999991
 21
9360.7287789999955
 31
0.0
  0
LINE
  5
4824
  8
SUNPOU
  6
CONTINUOUS
 62
     4
 10
17494.668469999979
 20
9360.7287789999955
 30
0.0
 11
17254.668469999979
 21
9360.7287789999955
 31
0.0
  0
LINE
  5
4825
  8
SUNPOU
  6
CONTINUOUS
 62
     4
 10
17534.670580999991
 20
9360.7287789999955
 30
0.0
 11
17494.668469999979
 21
9360.7287789999955
 31
0.0
  0
LINE
  5
4826
  8
SUNPOU
  6
CONTINUOUS
 62
     4
 10
25955.67638799996
 20
8641.2289370000017
 30
0.0
 11
25955.67638799996
 21
9440.7287790000028
 31
0.0
  0
LINE
  5
4827
  8
SUNPOU
  6
CONTINUOUS
 62
     4
 10
25998.678498999961
 20
8641.2289370000017
 30
0.0
 11
25998.678498999961
 21
9440.7287790000028
 31
0.0
  0
LINE
  5
4828
  8
SUNPOU
  6
CONTINUOUS
 62
     4
 10
25955.67638799996
 20
9360.7287789999955
 30
0.0
 11
25715.67638799996
 21
9360.7287789999955
 31
0.0
  0
LINE
  5
4829
  8
SUNPOU
  6
CONTINUOUS
 62
     4
 10
25995.678498999961
 20
9360.7287789999955
 30
0.0
 11
26235.678498999961
 21
9360.7287789999955
 31
0.0
  0
LINE
  5
482A
  8
SUNPOU
  6
CONTINUOUS
 62
     4
 10
25955.67638799996
 20
9360.7287789999955
 30
0.0
 11
25995.678498999961
 21
9360.7287789999955
 31
0.0
  0
LINE
  5
482B
  8
SUNPOU
  6
CONTINUOUS
 62
     4
 10
17671.17084499999
 20
6032.728753000004
 30
0.0
 11
17671.17084499999
 21
5232.7287530000031
 31
0.0
  0
LINE
  5
482C
  8
SUNPOU
  6
CONTINUOUS
 62
     4
 10
20401.170844999979
 20
6032.728753000004
 30
0.0
 11
20401.170844999979
 21
5232.7287530000031
 31
0.0
  0
LINE
  5
482D
  8
SUNPOU
  6
CONTINUOUS
 62
     4
 10
17671.17084499999
 20
5312.7287530000031
 30
0.0
 11
20401.170844999979
 21
5312.7287530000031
 31
0.0
  0
LINE
  5
482E
  8
SUNPOU
  6
CONTINUOUS
 62
     4
 10
23089.176123999961
 20
6032.728753000004
 30
0.0
 11
23089.176123999961
 21
5232.7287530000031
 31
0.0
  0
LINE
  5
482F
  8
SUNPOU
  6
CONTINUOUS
 62
     4
 10
25819.176123999961
 20
6032.728753000004
 30
0.0
 11
25819.176123999961
 21
5232.7287530000031
 31
0.0
  0
LINE
  5
4830
  8
SUNPOU
  6
CONTINUOUS
 62
     4
 10
23089.176123999961
 20
5312.7287530000031
 30
0.0
 11
25819.176123999961
 21
5312.7287530000031
 31
0.0
  0
LINE
  5
4831
  8
SUNPOU
  6
CONTINUOUS
 62
     4
 10
22995.176123999961
 20
5770.0763299999999
 30
0.0
 11
22995.176123999961
 21
4832.7287530000021
 31
0.0
  0
LINE
  5
4832
  8
SUNPOU
  6
CONTINUOUS
 62
     4
 10
25913.176123999961
 20
5770.0763299999999
 30
0.0
 11
25913.176123999961
 21
4832.7287530000021
 31
0.0
  0
LINE
  5
4833
  8
SUNPOU
  6
CONTINUOUS
 62
     4
 10
22995.176123999961
 20
4912.7287530000031
 30
0.0
 11
25913.176123999961
 21
4912.7287530000031
 31
0.0
  0
LINE
  5
4834
  8
SUNPOU
  6
CONTINUOUS
 62
     4
 10
20495.17084499999
 20
5770.0763299999999
 30
0.0
 11
20495.17084499999
 21
4832.7287530000021
 31
0.0
  0
LINE
  5
4835
  8
SUNPOU
  6
CONTINUOUS
 62
     4
 10
22995.176123999961
 20
5770.0763299999999
 30
0.0
 11
22995.176123999961
 21
4832.7287530000021
 31
0.0
  0
LINE
  5
4836
  8
SUNPOU
  6
CONTINUOUS
 62
     4
 10
20495.17084499999
 20
4912.7287530000031
 30
0.0
 11
22995.176123999961
 21
4912.7287530000031
 31
0.0
  0
LINE
  5
4837
  8
SUNPOU
  6
CONTINUOUS
 62
     4
 10
17577.170844999979
 20
5770.0763299999999
 30
0.0
 11
17577.170844999979
 21
4832.7287530000021
 31
0.0
  0
LINE
  5
4838
  8
SUNPOU
  6
CONTINUOUS
 62
     4
 10
20495.17084499999
 20
5770.0763299999999
 30
0.0
 11
20495.17084499999
 21
4832.7287530000021
 31
0.0
  0
LINE
  5
4839
  8
SUNPOU
  6
CONTINUOUS
 62
     4
 10
17577.170844999979
 20
4912.7287530000031
 30
0.0
 11
20495.17084499999
 21
4912.7287530000031
 31
0.0
  0
LINE
  5
483A
  8
SUNPOU
  6
CONTINUOUS
 62
     4
 10
25913.180082999981
 20
5770.0763299999999
 30
0.0
 11
25913.180082999981
 21
4832.7287530000021
 31
0.0
  0
LINE
  5
483B
  8
SUNPOU
  6
CONTINUOUS
 62
     4
 10
25955.680082999981
 20
6032.728753000004
 30
0.0
 11
25955.680082999981
 21
4832.7287530000021
 31
0.0
  0
LINE
  5
483C
  8
SUNPOU
  6
CONTINUOUS
 62
     4
 10
25913.180082999981
 20
4912.7287530000031
 30
0.0
 11
25673.180082999981
 21
4912.7287530000031
 31
0.0
  0
LINE
  5
483D
  8
SUNPOU
  6
CONTINUOUS
 62
     4
 10
25955.680082999981
 20
4912.7287530000031
 30
0.0
 11
26195.680082999981
 21
4912.7287530000031
 31
0.0
  0
LINE
  5
483E
  8
SUNPOU
  6
CONTINUOUS
 62
     4
 10
25913.180082999981
 20
4912.7287530000031
 30
0.0
 11
25955.680082999981
 21
4912.7287530000031
 31
0.0
  0
LINE
  5
483F
  8
SUNPOU
  6
CONTINUOUS
 62
     4
 10
17577.170844999979
 20
5770.0763299999999
 30
0.0
 11
17577.170844999979
 21
4832.7287530000021
 31
0.0
  0
LINE
  5
4840
  8
SUNPOU
  6
CONTINUOUS
 62
     4
 10
17534.67084499999
 20
6032.728753000004
 30
0.0
 11
17534.67084499999
 21
4832.7287530000021
 31
0.0
  0
LINE
  5
4841
  8
SUNPOU
  6
CONTINUOUS
 62
     4
 10
17577.170844999979
 20
4912.7287530000031
 30
0.0
 11
17817.170844999979
 21
4912.7287530000031
 31
0.0
  0
LINE
  5
4842
  8
SUNPOU
  6
CONTINUOUS
 62
     4
 10
17534.67084499999
 20
4912.7287530000031
 30
0.0
 11
17294.67084499999
 21
4912.7287530000031
 31
0.0
  0
LINE
  5
4843
  8
SUNPOU
  6
CONTINUOUS
 62
     4
 10
17577.170844999979
 20
4912.7287530000031
 30
0.0
 11
17534.67084499999
 21
4912.7287530000031
 31
0.0
  0
LINE
  5
4844
  8
SUNPOU
  6
CONTINUOUS
 62
     4
 10
17534.67084499999
 20
6032.728753000004
 30
0.0
 11
17534.67084499999
 21
4432.7289179999998
 31
0.0
  0
LINE
  5
4845
  8
SUNPOU
  6
CONTINUOUS
 62
     4
 10
25955.676123999961
 20
6032.728753000004
 30
0.0
 11
25955.676123999961
 21
4432.7289179999998
 31
0.0
  0
LINE
  5
4846
  8
SUNPOU
  6
CONTINUOUS
 62
     4
 10
17534.67084499999
 20
4512.7289179999989
 30
0.0
 11
25955.676123999961
 21
4512.7289179999989
 31
0.0
  0
LINE
  5
4847
  8
0
  6
CONTINUOUS
 10
27320.61169951249
 20
4013.2342825977748
 30
0.0
 11
32662.906701964599
 21
4013.2342825977748
 31
0.0
  0
LINE
  5
4848
  8
0
  6
CONTINUOUS
 10
32662.906701964599
 20
4013.2342825977748
 30
0.0
 11
32662.906701964599
 21
2658.9883116968108
 31
0.0
  0
LINE
  5
4849
  8
0
  6
CONTINUOUS
 10
32662.906701964599
 20
2658.9883116968108
 30
0.0
 11
27320.61169951249
 21
2658.9883116968108
 31
0.0
  0
LINE
  5
484A
  8
0
  6
CONTINUOUS
 10
27320.61169951249
 20
2658.9883116968108
 30
0.0
 11
27320.61169951249
 21
4013.2342825977748
 31
0.0
  0
TEXT
  5
484B
  8
0
  6
CONTINUOUS
 62
     7
 10
20838.506817833309
 20
4592.7289179999971
 30
0.0
 40
160.0
  1
2918 \U+00D7 ｎ ＋ 85
  0
TEXT
  5
484C
  8
0
  6
CONTINUOUS
 62
     7
 10
16968.63185474115
 20
4992.7287530000021
 30
0.0
 40
160.0
  1
42.5
  0
TEXT
  5
484D
  8
0
  6
CONTINUOUS
 62
     7
 10
26041.71907325881
 20
4992.7287530000021
 30
0.0
 40
160.0
  1
42.5
  0
TEXT
  5
484E
  8
0
  6
CONTINUOUS
 62
     7
 10
18769.504178333322
 20
4992.7287530000021
 30
0.0
 40
160.0
  1
2918
  0
TEXT
  5
484F
  8
0
  6
CONTINUOUS
 62
     7
 10
20774.506817833299
 20
4992.7287530000021
 30
0.0
 40
160.0
  1
2918 \U+00D7（ｎ － 2）
  0
TEXT
  5
4850
  8
0
  6
CONTINUOUS
 62
     7
 10
24187.509457333301
 20
4992.7287530000021
 30
0.0
 40
160.0
  1
2918
  0
TEXT
  5
4851
  8
0
  6
CONTINUOUS
 62
     7
 10
23646.176123999961
 20
5392.7287530000031
 30
0.0
 40
160.0
  1
有効開口巾 2730
  0
TEXT
  5
4852
  8
0
  6
CONTINUOUS
 62
     7
 10
18228.17084499999
 20
5392.7287530000031
 30
0.0
 40
160.0
  1
有効開口巾 2730
  0
TEXT
  5
4853
  8
0
  6
CONTINUOUS
 62
     7
 10
26115.678498999961
 20
9440.7287790000028
 30
0.0
 40
160.0
  1
43
  0
TEXT
  5
4854
  8
0
  6
CONTINUOUS
 62
     7
 10
17134.668469999979
 20
9440.7287790000028
 30
0.0
 40
160.0
  1
43
  0
TEXT
  5
4855
  8
0
  6
CONTINUOUS
 62
     7
 10
20838.506817833309
 20
9440.7287790000028
 30
0.0
 40
160.0
  1
2918 \U+00D7 ｎ ＋ 85
  0
TEXT
  5
4856
  8
0
  6
CONTINUOUS
 62
     7
 10
20785.173484499981
 20
9840.686549
 30
0.0
 40
160.0
  1
2918 \U+00D7 ｎ ＋ 171
  0
TEXT
  5
4857
  8
0
  6
CONTINUOUS
 62
     7
 10
16247.16919599999
 20
6581.3952546666696
 30
0.0
 40
160.0
  1
2348（2588）
 50
90.0
  0
TEXT
  5
4858
  8
0
  6
CONTINUOUS
 62
     7
 10
16647.171504999991
 20
6276.7078262912746
 30
0.0
 40
160.0
  1
有効開口高サ 1891.5
 50
90.0
  0
TEXT
  5
4859
  8
0
  6
CONTINUOUS
 62
     7
 10
18512.337511666661
 20
20832.817632999999
 30
0.0
 40
160.0
  1
701
  0
TEXT
  5
485A
  8
0
  6
CONTINUOUS
 62
     7
 10
19213.337511666661
 20
20832.817632999999
 30
0.0
 40
160.0
  1
701
  0
TEXT
  5
485B
  8
0
  6
CONTINUOUS
 62
     7
 10
19902.838006416641
 20
20832.817632999999
 30
0.0
 40
160.0
  1
758
  0
TEXT
  5
485C
  8
0
  6
CONTINUOUS
 62
     7
 10
16974.358865471189
 20
20832.817632999999
 30
0.0
 40
160.0
  1
42.5
  0
TEXT
  5
485D
  8
0
  6
CONTINUOUS
 62
     7
 10
26035.988103528769
 20
20832.817632999999
 30
0.0
 40
160.0
  1
42.5
  0
TEXT
  5
485E
  8
0
  6
CONTINUOUS
 62
     7
 10
23930.34279066664
 20
20832.817632999999
 30
0.0
 40
160.0
  1
701
  0
TEXT
  5
485F
  8
0
  6
CONTINUOUS
 62
     7
 10
24631.34279066664
 20
20832.817632999999
 30
0.0
 40
160.0
  1
701
  0
TEXT
  5
4860
  8
0
  6
CONTINUOUS
 62
     7
 10
25320.843285416639
 20
20832.817632999999
 30
0.0
 40
160.0
  1
758
  0
TEXT
  5
4861
  8
0
  6
CONTINUOUS
 62
     7
 10
20774.507312583311
 20
20832.817632999999
 30
0.0
 40
160.0
  1
2918 \U+00D7（ｎ － 2）
  0
TEXT
  5
4862
  8
0
  6
CONTINUOUS
 62
     7
 10
27325.675727999958
 20
13177.76291360319
 30
0.0
 40
160.0
  1
42.5
 50
90.0
  0
TEXT
  5
4863
  8
0
  6
CONTINUOUS
 62
     7
 10
27325.675727999958
 20
20116.369976396789
 30
0.0
 40
160.0
  1
42.5
 50
90.0
  0
TEXT
  5
4864
  8
0
  6
CONTINUOUS
 62
     7
 10
27725.675727999958
 20
16513.733111666661
 30
0.0
 40
160.0
  1
6271.5
 50
90.0
  0
TEXT
  5
4865
  8
0
  6
CONTINUOUS
 62
     7
 10
27325.675727999958
 20
15028.06644499998
 30
0.0
 40
160.0
  1
3268.5
 50
90.0
  0
TEXT
  5
4866
  8
0
  6
CONTINUOUS
 62
     7
 10
27325.675727999958
 20
18254.649778333322
 30
0.0
 40
160.0
  1
2918
 50
90.0
  0
TEXT
  5
4867
  8
0
  6
CONTINUOUS
 62
     7
 10
26925.675727999958
 20
19387.983111666661
 30
0.0
 40
160.0
  1
758
 50
90.0
  0
TEXT
  5
4868
  8
0
  6
CONTINUOUS
 62
     7
 10
26925.675727999958
 20
18698.48311166665
 30
0.0
 40
160.0
  1
701
 50
90.0
  0
TEXT
  5
4869
  8
0
  6
CONTINUOUS
 62
     7
 10
26925.675727999958
 20
17997.483111666661
 30
0.0
 40
160.0
  1
701
 50
90.0
  0
TEXT
  5
486A
  8
0
  6
CONTINUOUS
 62
     7
 10
26925.675727999958
 20
17227.98311166665
 30
0.0
 40
160.0
  1
758
 50
90.0
  0
TEXT
  5
486B
  8
0
  6
CONTINUOUS
 62
     7
 10
26925.675727999958
 20
16469.98311166665
 30
0.0
 40
160.0
  1
758
 50
90.0
  0
TEXT
  5
486C
  8
0
  6
CONTINUOUS
 62
     7
 10
26925.675727999958
 20
15780.603367416659
 30
0.0
 40
160.0
  1
701
 50
90.0
  0
TEXT
  5
486D
  8
0
  6
CONTINUOUS
 62
     7
 10
26925.675727999958
 20
15079.603367416659
 30
0.0
 40
160.0
  1
701
 50
90.0
  0
TEXT
  5
486E
  8
0
  6
CONTINUOUS
 62
     7
 10
26925.675727999958
 20
14378.48311166665
 30
0.0
 40
160.0
  1
701
 50
90.0
  0
TEXT
  5
486F
  8
0
  6
CONTINUOUS
 62
     7
 10
27285.67572799998
 20
13866.63685920352
 30
0.0
 40
160.0
  1
407.5
 50
90.0
  0
TEXT
  5
4870
  8
0
  6
CONTINUOUS
 62
     7
 10
21222.506817833299
 20
12502.368360999981
 30
0.0
 40
160.0
  1
2918 x n
  0
TEXT
  5
4871
  8
0
  6
CONTINUOUS
 62
     7
 10
17695.224517382081
 20
12902.368360999981
 30
0.0
 40
160.0
  1
42.5
  0
TEXT
  5
4872
  8
0
  6
CONTINUOUS
 62
     7
 10
25315.122451617881
 20
12902.368360999981
 30
0.0
 40
160.0
  1
42.5
  0
TEXT
  5
4873
  8
0
  6
CONTINUOUS
 62
     7
 10
10990.133510999991
 20
4992.7287530000031
 30
0.0
 40
160.0
  1
3268.5
  0
TEXT
  5
4874
  8
0
  6
CONTINUOUS
 62
     7
 10
8030.216844333333
 20
4992.7287530000021
 30
0.0
 40
160.0
  1
2918
  0
TEXT
  5
4875
  8
0
  6
CONTINUOUS
 62
     7
 10
6198.209801903693
 20
4992.7287530000021
 30
0.0
 40
160.0
  1
42.5
  0
TEXT
  5
4876
  8
0
  6
CONTINUOUS
 62
     7
 10
13205.20214830982
 20
4992.7287530000021
 30
0.0
 40
160.0
  1
42.5
  0
TEXT
  5
4877
  8
0
  6
CONTINUOUS
 62
     7
 10
9557.8001776666697
 20
4592.7289180000007
 30
0.0
 40
160.0
  1
6271.5
  0
TEXT
  5
4878
  8
0
  6
CONTINUOUS
 62
     7
 10
5625.3831150000024
 20
6512.5619213333403
 30
0.0
 40
160.0
  1
2157（2397）
 50
90.0
  0
TEXT
  5
4879
  8
0
  6
CONTINUOUS
 62
     7
 10
14076.88390699999
 20
6581.3952546666706
 30
0.0
 40
160.0
  1
2348（2588）
 50
90.0
  0
TEXT
  5
487A
  8
0
  6
CONTINUOUS
 62
     7
 10
6202.0501776666661
 20
9440.7302639999998
 30
0.0
 40
160.0
  1
180
  0
TEXT
  5
487B
  8
0
  6
CONTINUOUS
 62
     7
 10
9557.8001776666697
 20
9440.7302639999998
 30
0.0
 40
160.0
  1
6271.5
  0
TEXT
  5
487C
  8
0
  6
CONTINUOUS
 62
     7
 10
13283.550177666661
 20
9440.7302639999998
 30
0.0
 40
160.0
  1
150
  0
TEXT
  5
487D
  8
0
  6
CONTINUOUS
 62
     7
 10
9556.133511
 20
9840.7286139999997
 30
0.0
 40
160.0
  1
6601.5
  0
TEXT
  5
487E
  8
0
  6
CONTINUOUS
 62
     7
 10
17742.837511666661
 20
20832.817632999999
 30
0.0
 40
160.0
  1
758
  0
TEXT
  5
487F
  8
0
  6
CONTINUOUS
 62
     7
 10
23160.84279066664
 20
20832.817632999999
 30
0.0
 40
160.0
  1
758
  0
TEXT
  5
4880
  8
0
  6
CONTINUOUS
 62
     7
 10
4251.0281186115144
 20
12985.863434702611
 30
0.0
 40
160.0
  1
192.5
 50
90.0
  0
TEXT
  5
4881
  8
0
  6
CONTINUOUS
 62
     7
 10
4251.0281186115144
 20
15028.06644499998
 30
0.0
 40
160.0
  1
3268.5
 50
90.0
  0
TEXT
  5
4882
  8
0
  6
CONTINUOUS
 62
     7
 10
4251.0281186115153
 20
18254.649778333311
 30
0.0
 40
160.0
  1
2918
 50
90.0
  0
TEXT
  5
4883
  8
0
  6
CONTINUOUS
 62
     7
 10
4251.0281186115153
 20
20291.771629807648
 30
0.0
 40
160.0
  1
222.5
 50
90.0
  0
TEXT
  5
4884
  8
0
  6
CONTINUOUS
 62
     7
 10
4651.0281186115171
 20
20349.479020666651
 30
0.0
 40
160.0
  1
10
 50
90.0
  0
TEXT
  5
4885
  8
0
  6
CONTINUOUS
 62
     7
 10
12278.856575694859
 20
20832.817632999999
 30
0.0
 40
160.0
  1
2918
  0
TEXT
  5
4886
  8
0
  6
CONTINUOUS
 62
     7
 10
14141.017721634749
 20
20832.817632999999
 30
0.0
 40
160.0
  1
85.5
  0
TEXT
  5
4887
  8
0
  6
CONTINUOUS
 62
     7
 10
8661.8586081948652
 20
20832.817632999999
 30
0.0
 40
160.0
  1
2918 \U+00D7（ｎ － 2）
  0
TEXT
  5
4888
  8
0
  6
CONTINUOUS
 62
     7
 10
6452.8606406948693
 20
20832.817632999999
 30
0.0
 40
160.0
  1
2918
  0
TEXT
  5
4889
  8
0
  6
CONTINUOUS
 62
     7
 10
4644.0328280882859
 20
20832.817632999999
 30
0.0
 40
160.0
  1
85.5
  0
TEXT
  5
488A
  8
0
  6
CONTINUOUS
 62
     7
 10
8997.8563814448535
 20
12502.368360999981
 30
0.0
 40
160.0
  1
2918  \U+00D7　n
  0
ARC
  5
488B
  8
0
  6
BYBLOCK
 62
     0
 10
5260.5250806115218
 20
12422.368360999981
 30
0.0
 40
15.0
 50
0.0
 51
180.0
  0
ARC
  5
488C
  8
0
  6
BYBLOCK
 62
     0
 10
5260.5250806115218
 20
12422.368360999981
 30
0.0
 40
15.0
 50
180.0
 51
0.0
  0
ARC
  5
488D
  8
0
  6
BYBLOCK
 62
     0
 10
14004.521015611501
 20
12422.368360999981
 30
0.0
 40
15.0
 50
180.0
 51
0.0
  0
ARC
  5
488E
  8
0
  6
BYBLOCK
 62
     0
 10
14004.521015611501
 20
12422.368360999981
 30
0.0
 40
15.0
 50
0.0
 51
180.0
  0
ARC
  5
488F
  8
0
  6
BYBLOCK
 62
     0
 10
5260.5295341115489
 20
20752.817632999999
 30
0.0
 40
15.0
 50
0.0
 51
180.0
  0
ARC
  5
4890
  8
0
  6
BYBLOCK
 62
     0
 10
5260.5295341115489
 20
20752.817632999999
 30
0.0
 40
15.0
 50
180.0
 51
0.0
  0
ARC
  5
4891
  8
0
  6
BYBLOCK
 62
     0
 10
5175.0295341115489
 20
20752.817632999999
 30
0.0
 40
15.0
 50
180.0
 51
0.0
  0
ARC
  5
4892
  8
0
  6
BYBLOCK
 62
     0
 10
5175.0295341115489
 20
20752.817632999999
 30
0.0
 40
15.0
 50
0.0
 51
180.0
  0
ARC
  5
4893
  8
0
  6
BYBLOCK
 62
     0
 10
8178.5250806115246
 20
20752.817632999999
 30
0.0
 40
15.0
 50
180.0
 51
0.0
  0
ARC
  5
4894
  8
0
  6
BYBLOCK
 62
     0
 10
8178.5250806115246
 20
20752.817632999999
 30
0.0
 40
15.0
 50
0.0
 51
180.0
  0
ARC
  5
4895
  8
0
  6
BYBLOCK
 62
     0
 10
5260.5295341115489
 20
20752.817632999999
 30
0.0
 40
15.0
 50
0.0
 51
180.0
  0
ARC
  5
4896
  8
0
  6
BYBLOCK
 62
     0
 10
5260.5295341115489
 20
20752.817632999999
 30
0.0
 40
15.0
 50
180.0
 51
0.0
  0
ARC
  5
4897
  8
0
  6
BYBLOCK
 62
     0
 10
8178.5250806115209
 20
20752.817632999999
 30
0.0
 40
15.0
 50
0.0
 51
180.0
  0
ARC
  5
4898
  8
0
  6
BYBLOCK
 62
     0
 10
8178.5250806115209
 20
20752.817632999999
 30
0.0
 40
15.0
 50
180.0
 51
0.0
  0
ARC
  5
4899
  8
0
  6
BYBLOCK
 62
     0
 10
11086.525469111541
 20
20752.817632999999
 30
0.0
 40
15.0
 50
180.0
 51
0.0
  0
ARC
  5
489A
  8
0
  6
BYBLOCK
 62
     0
 10
11086.525469111541
 20
20752.817632999999
 30
0.0
 40
15.0
 50
0.0
 51
180.0
  0
ARC
  5
489B
  8
0
  6
BYBLOCK
 62
     0
 10
14004.521015611501
 20
20752.817632999999
 30
0.0
 40
15.0
 50
180.0
 51
0.0
  0
ARC
  5
489C
  8
0
  6
BYBLOCK
 62
     0
 10
14004.521015611501
 20
20752.817632999999
 30
0.0
 40
15.0
 50
0.0
 51
180.0
  0
ARC
  5
489D
  8
0
  6
BYBLOCK
 62
     0
 10
14090.021015611501
 20
20752.817632999999
 30
0.0
 40
15.0
 50
0.0
 51
180.0
  0
ARC
  5
489E
  8
0
  6
BYBLOCK
 62
     0
 10
14090.021015611501
 20
20752.817632999999
 30
0.0
 40
15.0
 50
180.0
 51
0.0
  0
ARC
  5
489F
  8
0
  6
BYBLOCK
 62
     0
 10
11086.525469111541
 20
20752.817632999999
 30
0.0
 40
15.0
 50
0.0
 51
180.0
  0
ARC
  5
48A0
  8
0
  6
BYBLOCK
 62
     0
 10
11086.525469111541
 20
20752.817632999999
 30
0.0
 40
15.0
 50
180.0
 51
0.0
  0
ARC
  5
48A1
  8
0
  6
BYBLOCK
 62
     0
 10
14004.521015611501
 20
20752.817632999999
 30
0.0
 40
15.0
 50
180.0
 51
0.0
  0
ARC
  5
48A2
  8
0
  6
BYBLOCK
 62
     0
 10
14004.521015611501
 20
20752.817632999999
 30
0.0
 40
15.0
 50
0.0
 51
180.0
  0
ARC
  5
48A3
  8
0
  6
BYBLOCK
 62
     0
 10
4731.0281186115171
 20
20192.817764999982
 30
0.0
 40
15.0
 50
270.0
 51
90.0
  0
ARC
  5
48A4
  8
0
  6
BYBLOCK
 62
     0
 10
4731.0281186115171
 20
20192.817764999982
 30
0.0
 40
15.0
 50
90.0
 51
270.0
  0
ARC
  5
48A5
  8
0
  6
BYBLOCK
 62
     0
 10
4731.0281186115171
 20
20202.812354000002
 30
0.0
 40
15.0
 50
90.0
 51
270.0
  0
ARC
  5
48A6
  8
0
  6
BYBLOCK
 62
     0
 10
4731.0281186115171
 20
20202.812354000002
 30
0.0
 40
15.0
 50
270.0
 51
90.0
  0
ARC
  5
48A7
  8
0
  6
BYBLOCK
 62
     0
 10
4331.0281186115189
 20
19980.316444999949
 30
0.0
 40
15.0
 50
90.0
 51
270.0
  0
ARC
  5
48A8
  8
0
  6
BYBLOCK
 62
     0
 10
4331.0281186115189
 20
19980.316444999949
 30
0.0
 40
15.0
 50
270.0
 51
90.0
  0
ARC
  5
48A9
  8
0
  6
BYBLOCK
 62
     0
 10
4331.0281186115189
 20
20202.812354000002
 30
0.0
 40
15.0
 50
270.0
 51
90.0
  0
ARC
  5
48AA
  8
0
  6
BYBLOCK
 62
     0
 10
4331.0281186115189
 20
20202.812354000002
 30
0.0
 40
15.0
 50
90.0
 51
270.0
  0
ARC
  5
48AB
  8
0
  6
BYBLOCK
 62
     0
 10
4331.028118611518
 20
17062.316444999979
 30
0.0
 40
15.0
 50
90.0
 51
270.0
  0
ARC
  5
48AC
  8
0
  6
BYBLOCK
 62
     0
 10
4331.028118611518
 20
17062.316444999979
 30
0.0
 40
15.0
 50
270.0
 51
90.0
  0
ARC
  5
48AD
  8
0
  6
BYBLOCK
 62
     0
 10
4331.0281186115189
 20
19980.316444999949
 30
0.0
 40
15.0
 50
270.0
 51
90.0
  0
ARC
  5
48AE
  8
0
  6
BYBLOCK
 62
     0
 10
4331.0281186115189
 20
19980.316444999949
 30
0.0
 40
15.0
 50
90.0
 51
270.0
  0
ARC
  5
48AF
  8
0
  6
BYBLOCK
 62
     0
 10
4331.0281186115162
 20
13793.81644499998
 30
0.0
 40
15.0
 50
90.0
 51
270.0
  0
ARC
  5
48B0
  8
0
  6
BYBLOCK
 62
     0
 10
4331.0281186115162
 20
13793.81644499998
 30
0.0
 40
15.0
 50
270.0
 51
90.0
  0
ARC
  5
48B1
  8
0
  6
BYBLOCK
 62
     0
 10
4331.0281186115162
 20
17062.316444999979
 30
0.0
 40
15.0
 50
270.0
 51
90.0
  0
ARC
  5
48B2
  8
0
  6
BYBLOCK
 62
     0
 10
4331.0281186115162
 20
17062.316444999979
 30
0.0
 40
15.0
 50
90.0
 51
270.0
  0
ARC
  5
48B3
  8
0
  6
BYBLOCK
 62
     0
 10
4331.0281186115162
 20
13793.81644499998
 30
0.0
 40
15.0
 50
270.0
 51
90.0
  0
ARC
  5
48B4
  8
0
  6
BYBLOCK
 62
     0
 10
4331.0281186115162
 20
13793.81644499998
 30
0.0
 40
15.0
 50
90.0
 51
270.0
  0
ARC
  5
48B5
  8
0
  6
BYBLOCK
 62
     0
 10
4331.0281186115162
 20
13601.32112999998
 30
0.0
 40
15.0
 50
90.0
 51
270.0
  0
ARC
  5
48B6
  8
0
  6
BYBLOCK
 62
     0
 10
4331.0281186115162
 20
13601.32112999998
 30
0.0
 40
15.0
 50
270.0
 51
90.0
  0
ARC
  5
48B7
  8
0
  6
BYBLOCK
 62
     0
 10
22995.176123999961
 20
20752.817632999999
 30
0.0
 40
15.0
 50
0.0
 51
180.0
  0
ARC
  5
48B8
  8
0
  6
BYBLOCK
 62
     0
 10
22995.176123999961
 20
20752.817632999999
 30
0.0
 40
15.0
 50
180.0
 51
0.0
  0
ARC
  5
48B9
  8
0
  6
BYBLOCK
 62
     0
 10
23753.176123999961
 20
20752.817632999999
 30
0.0
 40
15.0
 50
180.0
 51
0.0
  0
ARC
  5
48BA
  8
0
  6
BYBLOCK
 62
     0
 10
23753.176123999961
 20
20752.817632999999
 30
0.0
 40
15.0
 50
0.0
 51
180.0
  0
ARC
  5
48BB
  8
0
  6
BYBLOCK
 62
     0
 10
17577.170844999979
 20
20752.817632999999
 30
0.0
 40
15.0
 50
0.0
 51
180.0
  0
ARC
  5
48BC
  8
0
  6
BYBLOCK
 62
     0
 10
17577.170844999979
 20
20752.817632999999
 30
0.0
 40
15.0
 50
180.0
 51
0.0
  0
ARC
  5
48BD
  8
0
  6
BYBLOCK
 62
     0
 10
18335.170844999979
 20
20752.817632999999
 30
0.0
 40
15.0
 50
180.0
 51
0.0
  0
ARC
  5
48BE
  8
0
  6
BYBLOCK
 62
     0
 10
18335.170844999979
 20
20752.817632999999
 30
0.0
 40
15.0
 50
0.0
 51
180.0
  0
ARC
  5
48BF
  8
0
  6
BYBLOCK
 62
     0
 10
6615.383511
 20
9760.7286140000015
 30
0.0
 40
15.0
 50
0.0
 51
180.0
  0
ARC
  5
48C0
  8
0
  6
BYBLOCK
 62
     0
 10
6615.383511
 20
9760.7286140000015
 30
0.0
 40
15.0
 50
180.0
 51
0.0
  0
ARC
  5
48C1
  8
0
  6
BYBLOCK
 62
     0
 10
13216.883511
 20
9760.7286140000015
 30
0.0
 40
15.0
 50
180.0
 51
0.0
  0
ARC
  5
48C2
  8
0
  6
BYBLOCK
 62
     0
 10
13216.883511
 20
9760.7286140000015
 30
0.0
 40
15.0
 50
0.0
 51
180.0
  0
ARC
  5
48C3
  8
0
  6
BYBLOCK
 62
     0
 10
13066.883511
 20
9360.7302639999998
 30
0.0
 40
15.0
 50
180.0
 51
0.0
  0
ARC
  5
48C4
  8
0
  6
BYBLOCK
 62
     0
 10
13066.883511
 20
9360.7302639999998
 30
0.0
 40
15.0
 50
0.0
 51
180.0
  0
ARC
  5
48C5
  8
0
  6
BYBLOCK
 62
     0
 10
13216.883511
 20
9360.7302639999998
 30
0.0
 40
15.0
 50
0.0
 51
180.0
  0
ARC
  5
48C6
  8
0
  6
BYBLOCK
 62
     0
 10
13216.883511
 20
9360.7302639999998
 30
0.0
 40
15.0
 50
180.0
 51
0.0
  0
ARC
  5
48C7
  8
0
  6
BYBLOCK
 62
     0
 10
6795.383511
 20
9360.7302639999998
 30
0.0
 40
15.0
 50
0.0
 51
180.0
  0
ARC
  5
48C8
  8
0
  6
BYBLOCK
 62
     0
 10
6795.383511
 20
9360.7302639999998
 30
0.0
 40
15.0
 50
180.0
 51
0.0
  0
ARC
  5
48C9
  8
0
  6
BYBLOCK
 62
     0
 10
13066.883511
 20
9360.7302639999998
 30
0.0
 40
15.0
 50
180.0
 51
0.0
  0
ARC
  5
48CA
  8
0
  6
BYBLOCK
 62
     0
 10
13066.883511
 20
9360.7302639999998
 30
0.0
 40
15.0
 50
0.0
 51
180.0
  0
ARC
  5
48CB
  8
0
  6
BYBLOCK
 62
     0
 10
6615.383511
 20
9360.7302639999998
 30
0.0
 40
15.0
 50
0.0
 51
180.0
  0
ARC
  5
48CC
  8
0
  6
BYBLOCK
 62
     0
 10
6615.383511
 20
9360.7302639999998
 30
0.0
 40
15.0
 50
180.0
 51
0.0
  0
ARC
  5
48CD
  8
0
  6
BYBLOCK
 62
     0
 10
6795.383511
 20
9360.7302639999998
 30
0.0
 40
15.0
 50
180.0
 51
0.0
  0
ARC
  5
48CE
  8
0
  6
BYBLOCK
 62
     0
 10
6795.383511
 20
9360.7302639999998
 30
0.0
 40
15.0
 50
0.0
 51
180.0
  0
ARC
  5
48CF
  8
0
  6
BYBLOCK
 62
     0
 10
14156.88390699999
 20
6212.7285880000036
 30
0.0
 40
15.0
 50
90.0
 51
270.0
  0
ARC
  5
48D0
  8
0
  6
BYBLOCK
 62
     0
 10
14156.88390699999
 20
6212.7285880000036
 30
0.0
 40
15.0
 50
270.0
 51
90.0
  0
ARC
  5
48D1
  8
0
  6
BYBLOCK
 62
     0
 10
14156.88390699999
 20
8560.7285880000018
 30
0.0
 40
15.0
 50
270.0
 51
90.0
  0
ARC
  5
48D2
  8
0
  6
BYBLOCK
 62
     0
 10
14156.88390699999
 20
8560.7285880000018
 30
0.0
 40
15.0
 50
90.0
 51
270.0
  0
ARC
  5
48D3
  8
0
  6
BYBLOCK
 62
     0
 10
5705.3831150000024
 20
6212.7285880000036
 30
0.0
 40
15.0
 50
90.0
 51
270.0
  0
ARC
  5
48D4
  8
0
  6
BYBLOCK
 62
     0
 10
5705.3831150000024
 20
6212.7285880000036
 30
0.0
 40
15.0
 50
270.0
 51
90.0
  0
ARC
  5
48D5
  8
0
  6
BYBLOCK
 62
     0
 10
5705.3831150000024
 20
8369.7285880000054
 30
0.0
 40
15.0
 50
270.0
 51
90.0
  0
ARC
  5
48D6
  8
0
  6
BYBLOCK
 62
     0
 10
5705.3831150000024
 20
8369.7285880000054
 30
0.0
 40
15.0
 50
90.0
 51
270.0
  0
ARC
  5
48D7
  8
0
  6
BYBLOCK
 62
     0
 10
6795.383511
 20
4512.7289180000034
 30
0.0
 40
15.0
 50
0.0
 51
180.0
  0
ARC
  5
48D8
  8
0
  6
BYBLOCK
 62
     0
 10
6795.383511
 20
4512.7289180000034
 30
0.0
 40
15.0
 50
180.0
 51
0.0
  0
ARC
  5
48D9
  8
0
  6
BYBLOCK
 62
     0
 10
13066.883511
 20
4512.7289180000034
 30
0.0
 40
15.0
 50
180.0
 51
0.0
  0
ARC
  5
48DA
  8
0
  6
BYBLOCK
 62
     0
 10
13066.883511
 20
4512.7289180000034
 30
0.0
 40
15.0
 50
0.0
 51
180.0
  0
ARC
  5
48DB
  8
0
  6
BYBLOCK
 62
     0
 10
13024.383511
 20
4912.7287530000031
 30
0.0
 40
15.0
 50
180.0
 51
0.0
  0
ARC
  5
48DC
  8
0
  6
BYBLOCK
 62
     0
 10
13024.383511
 20
4912.7287530000031
 30
0.0
 40
15.0
 50
0.0
 51
180.0
  0
ARC
  5
48DD
  8
0
  6
BYBLOCK
 62
     0
 10
13066.883511
 20
4912.7287530000031
 30
0.0
 40
15.0
 50
0.0
 51
180.0
  0
ARC
  5
48DE
  8
0
  6
BYBLOCK
 62
     0
 10
13066.883511
 20
4912.7287530000031
 30
0.0
 40
15.0
 50
180.0
 51
0.0
  0
ARC
  5
48DF
  8
0
  6
BYBLOCK
 62
     0
 10
6837.883511
 20
4912.7287530000031
 30
0.0
 40
15.0
 50
0.0
 51
180.0
  0
ARC
  5
48E0
  8
0
  6
BYBLOCK
 62
     0
 10
6837.883511
 20
4912.7287530000031
 30
0.0
 40
15.0
 50
180.0
 51
0.0
  0
ARC
  5
48E1
  8
0
  6
BYBLOCK
 62
     0
 10
6795.383511
 20
4912.7287530000031
 30
0.0
 40
15.0
 50
180.0
 51
0.0
  0
ARC
  5
48E2
  8
0
  6
BYBLOCK
 62
     0
 10
6795.383511
 20
4912.7287530000031
 30
0.0
 40
15.0
 50
0.0
 51
180.0
  0
ARC
  5
48E3
  8
0
  6
BYBLOCK
 62
     0
 10
9755.883511
 20
4912.7287530000031
 30
0.0
 40
15.0
 50
180.0
 51
0.0
  0
ARC
  5
48E4
  8
0
  6
BYBLOCK
 62
     0
 10
9755.883511
 20
4912.7287530000031
 30
0.0
 40
15.0
 50
0.0
 51
180.0
  0
ARC
  5
48E5
  8
0
  6
BYBLOCK
 62
     0
 10
6837.883511
 20
4912.7287530000031
 30
0.0
 40
15.0
 50
0.0
 51
180.0
  0
ARC
  5
48E6
  8
0
  6
BYBLOCK
 62
     0
 10
6837.883511
 20
4912.7287530000031
 30
0.0
 40
15.0
 50
180.0
 51
0.0
  0
ARC
  5
48E7
  8
0
  6
BYBLOCK
 62
     0
 10
9755.883511
 20
4912.7287530000031
 30
0.0
 40
15.0
 50
0.0
 51
180.0
  0
ARC
  5
48E8
  8
0
  6
BYBLOCK
 62
     0
 10
9755.883511
 20
4912.7287530000031
 30
0.0
 40
15.0
 50
180.0
 51
0.0
  0
ARC
  5
48E9
  8
0
  6
BYBLOCK
 62
     0
 10
13024.383511
 20
4912.7287530000031
 30
0.0
 40
15.0
 50
180.0
 51
0.0
  0
ARC
  5
48EA
  8
0
  6
BYBLOCK
 62
     0
 10
13024.383511
 20
4912.7287530000031
 30
0.0
 40
15.0
 50
0.0
 51
180.0
  0
ARC
  5
48EB
  8
0
  6
BYBLOCK
 62
     0
 10
25913.176123999961
 20
12822.368360999981
 30
0.0
 40
15.0
 50
0.0
 51
180.0
  0
ARC
  5
48EC
  8
0
  6
BYBLOCK
 62
     0
 10
25913.176123999961
 20
12822.368360999981
 30
0.0
 40
15.0
 50
180.0
 51
0.0
  0
ARC
  5
48ED
  8
0
  6
BYBLOCK
 62
     0
 10
25870.67388099997
 20
12822.368360999981
 30
0.0
 40
15.0
 50
180.0
 51
0.0
  0
ARC
  5
48EE
  8
0
  6
BYBLOCK
 62
     0
 10
25870.67388099997
 20
12822.368360999981
 30
0.0
 40
15.0
 50
0.0
 51
180.0
  0
ARC
  5
48EF
  8
0
  6
BYBLOCK
 62
     0
 10
17577.170844999979
 20
12822.368360999981
 30
0.0
 40
15.0
 50
180.0
 51
0.0
  0
ARC
  5
48F0
  8
0
  6
BYBLOCK
 62
     0
 10
17577.170844999979
 20
12822.368360999981
 30
0.0
 40
15.0
 50
0.0
 51
180.0
  0
ARC
  5
48F1
  8
0
  6
BYBLOCK
 62
     0
 10
17619.673087999989
 20
12822.368360999981
 30
0.0
 40
15.0
 50
0.0
 51
180.0
  0
ARC
  5
48F2
  8
0
  6
BYBLOCK
 62
     0
 10
17619.673087999989
 20
12822.368360999981
 30
0.0
 40
15.0
 50
180.0
 51
0.0
  0
ARC
  5
48F3
  8
0
  6
BYBLOCK
 62
     0
 10
17577.170844999979
 20
12422.368360999981
 30
0.0
 40
15.0
 50
0.0
 51
180.0
  0
ARC
  5
48F4
  8
0
  6
BYBLOCK
 62
     0
 10
17577.170844999979
 20
12422.368360999981
 30
0.0
 40
15.0
 50
180.0
 51
0.0
  0
ARC
  5
48F5
  8
0
  6
BYBLOCK
 62
     0
 10
25913.176123999961
 20
12422.368360999981
 30
0.0
 40
15.0
 50
180.0
 51
0.0
  0
ARC
  5
48F6
  8
0
  6
BYBLOCK
 62
     0
 10
25913.176123999961
 20
12422.368360999981
 30
0.0
 40
15.0
 50
0.0
 51
180.0
  0
ARC
  5
48F7
  8
0
  6
BYBLOCK
 62
     0
 10
27005.675727999958
 20
14201.31644499998
 30
0.0
 40
15.0
 50
270.0
 51
90.0
  0
ARC
  5
48F8
  8
0
  6
BYBLOCK
 62
     0
 10
27005.675727999958
 20
14201.31644499998
 30
0.0
 40
15.0
 50
90.0
 51
270.0
  0
ARC
  5
48F9
  8
0
  6
BYBLOCK
 62
     0
 10
27005.675727999958
 20
13793.81644499998
 30
0.0
 40
15.0
 50
90.0
 51
270.0
  0
ARC
  5
48FA
  8
0
  6
BYBLOCK
 62
     0
 10
27005.675727999958
 20
13793.81644499998
 30
0.0
 40
15.0
 50
270.0
 51
90.0
  0
ARC
  5
48FB
  8
0
  6
BYBLOCK
 62
     0
 10
27005.675727999958
 20
14902.31644499998
 30
0.0
 40
15.0
 50
270.0
 51
90.0
  0
ARC
  5
48FC
  8
0
  6
BYBLOCK
 62
     0
 10
27005.675727999958
 20
14902.31644499998
 30
0.0
 40
15.0
 50
90.0
 51
270.0
  0
ARC
  5
48FD
  8
0
  6
BYBLOCK
 62
     0
 10
27005.675727999958
 20
14201.31644499998
 30
0.0
 40
15.0
 50
90.0
 51
270.0
  0
ARC
  5
48FE
  8
0
  6
BYBLOCK
 62
     0
 10
27005.675727999958
 20
14201.31644499998
 30
0.0
 40
15.0
 50
270.0
 51
90.0
  0
ARC
  5
48FF
  8
0
  6
BYBLOCK
 62
     0
 10
27005.675727999958
 20
15603.556956500001
 30
0.0
 40
15.0
 50
270.0
 51
90.0
  0
ARC
  5
4900
  8
0
  6
BYBLOCK
 62
     0
 10
27005.675727999958
 20
15603.556956500001
 30
0.0
 40
15.0
 50
90.0
 51
270.0
  0
ARC
  5
4901
  8
0
  6
BYBLOCK
 62
     0
 10
27005.675727999958
 20
14902.31644499998
 30
0.0
 40
15.0
 50
90.0
 51
270.0
  0
ARC
  5
4902
  8
0
  6
BYBLOCK
 62
     0
 10
27005.675727999958
 20
14902.31644499998
 30
0.0
 40
15.0
 50
270.0
 51
90.0
  0
ARC
  5
4903
  8
0
  6
BYBLOCK
 62
     0
 10
27005.675727999958
 20
16304.31644499998
 30
0.0
 40
15.0
 50
270.0
 51
90.0
  0
ARC
  5
4904
  8
0
  6
BYBLOCK
 62
     0
 10
27005.675727999958
 20
16304.31644499998
 30
0.0
 40
15.0
 50
90.0
 51
270.0
  0
ARC
  5
4905
  8
0
  6
BYBLOCK
 62
     0
 10
27005.675727999958
 20
15603.556956500001
 30
0.0
 40
15.0
 50
90.0
 51
270.0
  0
ARC
  5
4906
  8
0
  6
BYBLOCK
 62
     0
 10
27005.675727999958
 20
15603.556956500001
 30
0.0
 40
15.0
 50
270.0
 51
90.0
  0
ARC
  5
4907
  8
0
  6
BYBLOCK
 62
     0
 10
27005.675727999958
 20
17062.316444999979
 30
0.0
 40
15.0
 50
270.0
 51
90.0
  0
ARC
  5
4908
  8
0
  6
BYBLOCK
 62
     0
 10
27005.675727999958
 20
17062.316444999979
 30
0.0
 40
15.0
 50
90.0
 51
270.0
  0
ARC
  5
4909
  8
0
  6
BYBLOCK
 62
     0
 10
27005.675727999958
 20
16304.31644499998
 30
0.0
 40
15.0
 50
90.0
 51
270.0
  0
ARC
  5
490A
  8
0
  6
BYBLOCK
 62
     0
 10
27005.675727999958
 20
16304.31644499998
 30
0.0
 40
15.0
 50
270.0
 51
90.0
  0
ARC
  5
490B
  8
0
  6
BYBLOCK
 62
     0
 10
27005.675727999958
 20
17820.316444999979
 30
0.0
 40
15.0
 50
270.0
 51
90.0
  0
ARC
  5
490C
  8
0
  6
BYBLOCK
 62
     0
 10
27005.675727999958
 20
17820.316444999979
 30
0.0
 40
15.0
 50
90.0
 51
270.0
  0
ARC
  5
490D
  8
0
  6
BYBLOCK
 62
     0
 10
27005.675727999958
 20
17062.316444999979
 30
0.0
 40
15.0
 50
90.0
 51
270.0
  0
ARC
  5
490E
  8
0
  6
BYBLOCK
 62
     0
 10
27005.675727999958
 20
17062.316444999979
 30
0.0
 40
15.0
 50
270.0
 51
90.0
  0
ARC
  5
490F
  8
0
  6
BYBLOCK
 62
     0
 10
27005.675727999958
 20
18521.31644499996
 30
0.0
 40
15.0
 50
270.0
 51
90.0
  0
ARC
  5
4910
  8
0
  6
BYBLOCK
 62
     0
 10
27005.675727999958
 20
18521.31644499996
 30
0.0
 40
15.0
 50
90.0
 51
270.0
  0
ARC
  5
4911
  8
0
  6
BYBLOCK
 62
     0
 10
27005.675727999958
 20
17820.316444999979
 30
0.0
 40
15.0
 50
90.0
 51
270.0
  0
ARC
  5
4912
  8
0
  6
BYBLOCK
 62
     0
 10
27005.675727999958
 20
17820.316444999979
 30
0.0
 40
15.0
 50
270.0
 51
90.0
  0
ARC
  5
4913
  8
0
  6
BYBLOCK
 62
     0
 10
27005.675727999958
 20
19222.31644499996
 30
0.0
 40
15.0
 50
270.0
 51
90.0
  0
ARC
  5
4914
  8
0
  6
BYBLOCK
 62
     0
 10
27005.675727999958
 20
19222.31644499996
 30
0.0
 40
15.0
 50
90.0
 51
270.0
  0
ARC
  5
4915
  8
0
  6
BYBLOCK
 62
     0
 10
27005.675727999958
 20
18521.31644499996
 30
0.0
 40
15.0
 50
90.0
 51
270.0
  0
ARC
  5
4916
  8
0
  6
BYBLOCK
 62
     0
 10
27005.675727999958
 20
18521.31644499996
 30
0.0
 40
15.0
 50
270.0
 51
90.0
  0
ARC
  5
4917
  8
0
  6
BYBLOCK
 62
     0
 10
27005.675727999958
 20
19980.316444999949
 30
0.0
 40
15.0
 50
270.0
 51
90.0
  0
ARC
  5
4918
  8
0
  6
BYBLOCK
 62
     0
 10
27005.675727999958
 20
19980.316444999949
 30
0.0
 40
15.0
 50
90.0
 51
270.0
  0
ARC
  5
4919
  8
0
  6
BYBLOCK
 62
     0
 10
27005.675727999958
 20
19222.31644499996
 30
0.0
 40
15.0
 50
90.0
 51
270.0
  0
ARC
  5
491A
  8
0
  6
BYBLOCK
 62
     0
 10
27005.675727999958
 20
19222.31644499996
 30
0.0
 40
15.0
 50
270.0
 51
90.0
  0
ARC
  5
491B
  8
0
  6
BYBLOCK
 62
     0
 10
27405.675727999958
 20
17062.316444999979
 30
0.0
 40
15.0
 50
90.0
 51
270.0
  0
ARC
  5
491C
  8
0
  6
BYBLOCK
 62
     0
 10
27405.675727999958
 20
17062.316444999979
 30
0.0
 40
15.0
 50
270.0
 51
90.0
  0
ARC
  5
491D
  8
0
  6
BYBLOCK
 62
     0
 10
27405.675727999958
 20
19980.316444999949
 30
0.0
 40
15.0
 50
270.0
 51
90.0
  0
ARC
  5
491E
  8
0
  6
BYBLOCK
 62
     0
 10
27405.675727999958
 20
19980.316444999949
 30
0.0
 40
15.0
 50
90.0
 51
270.0
  0
ARC
  5
491F
  8
0
  6
BYBLOCK
 62
     0
 10
27405.675727999958
 20
13793.81644499998
 30
0.0
 40
15.0
 50
90.0
 51
270.0
  0
ARC
  5
4920
  8
0
  6
BYBLOCK
 62
     0
 10
27405.675727999958
 20
13793.81644499998
 30
0.0
 40
15.0
 50
270.0
 51
90.0
  0
ARC
  5
4921
  8
0
  6
BYBLOCK
 62
     0
 10
27405.675727999958
 20
17062.316444999979
 30
0.0
 40
15.0
 50
270.0
 51
90.0
  0
ARC
  5
4922
  8
0
  6
BYBLOCK
 62
     0
 10
27405.675727999958
 20
17062.316444999979
 30
0.0
 40
15.0
 50
90.0
 51
270.0
  0
ARC
  5
4923
  8
0
  6
BYBLOCK
 62
     0
 10
27805.675727999958
 20
20022.81373999998
 30
0.0
 40
15.0
 50
270.0
 51
90.0
  0
ARC
  5
4924
  8
0
  6
BYBLOCK
 62
     0
 10
27805.675727999958
 20
20022.81373999998
 30
0.0
 40
15.0
 50
90.0
 51
270.0
  0
ARC
  5
4925
  8
0
  6
BYBLOCK
 62
     0
 10
27805.675727999958
 20
13751.319149999979
 30
0.0
 40
15.0
 50
90.0
 51
270.0
  0
ARC
  5
4926
  8
0
  6
BYBLOCK
 62
     0
 10
27805.675727999958
 20
13751.319149999979
 30
0.0
 40
15.0
 50
270.0
 51
90.0
  0
ARC
  5
4927
  8
0
  6
BYBLOCK
 62
     0
 10
27405.675727999958
 20
19980.316444999949
 30
0.0
 40
15.0
 50
270.0
 51
90.0
  0
ARC
  5
4928
  8
0
  6
BYBLOCK
 62
     0
 10
27405.675727999958
 20
19980.316444999949
 30
0.0
 40
15.0
 50
90.0
 51
270.0
  0
ARC
  5
4929
  8
0
  6
BYBLOCK
 62
     0
 10
27405.675727999958
 20
20022.81373999998
 30
0.0
 40
15.0
 50
90.0
 51
270.0
  0
ARC
  5
492A
  8
0
  6
BYBLOCK
 62
     0
 10
27405.675727999958
 20
20022.81373999998
 30
0.0
 40
15.0
 50
270.0
 51
90.0
  0
ARC
  5
492B
  8
0
  6
BYBLOCK
 62
     0
 10
27405.675727999958
 20
13793.81644499998
 30
0.0
 40
15.0
 50
90.0
 51
270.0
  0
ARC
  5
492C
  8
0
  6
BYBLOCK
 62
     0
 10
27405.675727999958
 20
13793.81644499998
 30
0.0
 40
15.0
 50
270.0
 51
90.0
  0
ARC
  5
492D
  8
0
  6
BYBLOCK
 62
     0
 10
27405.675727999958
 20
13751.319149999979
 30
0.0
 40
15.0
 50
270.0
 51
90.0
  0
ARC
  5
492E
  8
0
  6
BYBLOCK
 62
     0
 10
27405.675727999958
 20
13751.319149999979
 30
0.0
 40
15.0
 50
90.0
 51
270.0
  0
ARC
  5
492F
  8
0
  6
BYBLOCK
 62
     0
 10
20495.171834500001
 20
20752.817632999999
 30
0.0
 40
15.0
 50
0.0
 51
180.0
  0
ARC
  5
4930
  8
0
  6
BYBLOCK
 62
     0
 10
20495.171834500001
 20
20752.817632999999
 30
0.0
 40
15.0
 50
180.0
 51
0.0
  0
ARC
  5
4931
  8
0
  6
BYBLOCK
 62
     0
 10
22995.176123999961
 20
20752.817632999999
 30
0.0
 40
15.0
 50
180.0
 51
0.0
  0
ARC
  5
4932
  8
0
  6
BYBLOCK
 62
     0
 10
22995.176123999961
 20
20752.817632999999
 30
0.0
 40
15.0
 50
0.0
 51
180.0
  0
ARC
  5
4933
  8
0
  6
BYBLOCK
 62
     0
 10
25155.176123999961
 20
20752.817632999999
 30
0.0
 40
15.0
 50
0.0
 51
180.0
  0
ARC
  5
4934
  8
0
  6
BYBLOCK
 62
     0
 10
25155.176123999961
 20
20752.817632999999
 30
0.0
 40
15.0
 50
180.0
 51
0.0
  0
ARC
  5
4935
  8
0
  6
BYBLOCK
 62
     0
 10
25913.17711349998
 20
20752.817632999999
 30
0.0
 40
15.0
 50
180.0
 51
0.0
  0
ARC
  5
4936
  8
0
  6
BYBLOCK
 62
     0
 10
25913.17711349998
 20
20752.817632999999
 30
0.0
 40
15.0
 50
0.0
 51
180.0
  0
ARC
  5
4937
  8
0
  6
BYBLOCK
 62
     0
 10
24454.176123999961
 20
20752.817632999999
 30
0.0
 40
15.0
 50
0.0
 51
180.0
  0
ARC
  5
4938
  8
0
  6
BYBLOCK
 62
     0
 10
24454.176123999961
 20
20752.817632999999
 30
0.0
 40
15.0
 50
180.0
 51
0.0
  0
ARC
  5
4939
  8
0
  6
BYBLOCK
 62
     0
 10
25155.176123999961
 20
20752.817632999999
 30
0.0
 40
15.0
 50
180.0
 51
0.0
  0
ARC
  5
493A
  8
0
  6
BYBLOCK
 62
     0
 10
25155.176123999961
 20
20752.817632999999
 30
0.0
 40
15.0
 50
0.0
 51
180.0
  0
ARC
  5
493B
  8
0
  6
BYBLOCK
 62
     0
 10
23753.176123999961
 20
20752.817632999999
 30
0.0
 40
15.0
 50
0.0
 51
180.0
  0
ARC
  5
493C
  8
0
  6
BYBLOCK
 62
     0
 10
23753.176123999961
 20
20752.817632999999
 30
0.0
 40
15.0
 50
180.0
 51
0.0
  0
ARC
  5
493D
  8
0
  6
BYBLOCK
 62
     0
 10
24454.176123999961
 20
20752.817632999999
 30
0.0
 40
15.0
 50
180.0
 51
0.0
  0
ARC
  5
493E
  8
0
  6
BYBLOCK
 62
     0
 10
24454.176123999961
 20
20752.817632999999
 30
0.0
 40
15.0
 50
0.0
 51
180.0
  0
ARC
  5
493F
  8
0
  6
BYBLOCK
 62
     0
 10
25913.176123999961
 20
20752.817632999999
 30
0.0
 40
15.0
 50
180.0
 51
0.0
  0
ARC
  5
4940
  8
0
  6
BYBLOCK
 62
     0
 10
25913.176123999961
 20
20752.817632999999
 30
0.0
 40
15.0
 50
0.0
 51
180.0
  0
ARC
  5
4941
  8
0
  6
BYBLOCK
 62
     0
 10
25955.672428999958
 20
20752.817632999999
 30
0.0
 40
15.0
 50
0.0
 51
180.0
  0
ARC
  5
4942
  8
0
  6
BYBLOCK
 62
     0
 10
25955.672428999958
 20
20752.817632999999
 30
0.0
 40
15.0
 50
180.0
 51
0.0
  0
ARC
  5
4943
  8
0
  6
BYBLOCK
 62
     0
 10
17577.170844999979
 20
20752.817632999999
 30
0.0
 40
15.0
 50
0.0
 51
180.0
  0
ARC
  5
4944
  8
0
  6
BYBLOCK
 62
     0
 10
17577.170844999979
 20
20752.817632999999
 30
0.0
 40
15.0
 50
180.0
 51
0.0
  0
ARC
  5
4945
  8
0
  6
BYBLOCK
 62
     0
 10
17534.674539999989
 20
20752.817632999999
 30
0.0
 40
15.0
 50
180.0
 51
0.0
  0
ARC
  5
4946
  8
0
  6
BYBLOCK
 62
     0
 10
17534.674539999989
 20
20752.817632999999
 30
0.0
 40
15.0
 50
0.0
 51
180.0
  0
ARC
  5
4947
  8
0
  6
BYBLOCK
 62
     0
 10
19737.17084499999
 20
20752.817632999999
 30
0.0
 40
15.0
 50
0.0
 51
180.0
  0
ARC
  5
4948
  8
0
  6
BYBLOCK
 62
     0
 10
19737.17084499999
 20
20752.817632999999
 30
0.0
 40
15.0
 50
180.0
 51
0.0
  0
ARC
  5
4949
  8
0
  6
BYBLOCK
 62
     0
 10
20495.171834500001
 20
20752.817632999999
 30
0.0
 40
15.0
 50
180.0
 51
0.0
  0
ARC
  5
494A
  8
0
  6
BYBLOCK
 62
     0
 10
20495.171834500001
 20
20752.817632999999
 30
0.0
 40
15.0
 50
0.0
 51
180.0
  0
ARC
  5
494B
  8
0
  6
BYBLOCK
 62
     0
 10
19036.17084499999
 20
20752.817632999999
 30
0.0
 40
15.0
 50
0.0
 51
180.0
  0
ARC
  5
494C
  8
0
  6
BYBLOCK
 62
     0
 10
19036.17084499999
 20
20752.817632999999
 30
0.0
 40
15.0
 50
180.0
 51
0.0
  0
ARC
  5
494D
  8
0
  6
BYBLOCK
 62
     0
 10
19737.17084499999
 20
20752.817632999999
 30
0.0
 40
15.0
 50
180.0
 51
0.0
  0
ARC
  5
494E
  8
0
  6
BYBLOCK
 62
     0
 10
19737.17084499999
 20
20752.817632999999
 30
0.0
 40
15.0
 50
0.0
 51
180.0
  0
ARC
  5
494F
  8
0
  6
BYBLOCK
 62
     0
 10
18335.170844999979
 20
20752.817632999999
 30
0.0
 40
15.0
 50
0.0
 51
180.0
  0
ARC
  5
4950
  8
0
  6
BYBLOCK
 62
     0
 10
18335.170844999979
 20
20752.817632999999
 30
0.0
 40
15.0
 50
180.0
 51
0.0
  0
ARC
  5
4951
  8
0
  6
BYBLOCK
 62
     0
 10
19036.17084499999
 20
20752.817632999999
 30
0.0
 40
15.0
 50
180.0
 51
0.0
  0
ARC
  5
4952
  8
0
  6
BYBLOCK
 62
     0
 10
19036.17084499999
 20
20752.817632999999
 30
0.0
 40
15.0
 50
0.0
 51
180.0
  0
ARC
  5
4953
  8
0
  6
BYBLOCK
 62
     0
 10
16727.171504999991
 20
6212.7285879999999
 30
0.0
 40
15.0
 50
90.0
 51
270.0
  0
ARC
  5
4954
  8
0
  6
BYBLOCK
 62
     0
 10
16727.171504999991
 20
6212.7285879999999
 30
0.0
 40
15.0
 50
270.0
 51
90.0
  0
ARC
  5
4955
  8
0
  6
BYBLOCK
 62
     0
 10
16727.171504999991
 20
8104.228587999999
 30
0.0
 40
15.0
 50
270.0
 51
90.0
  0
ARC
  5
4956
  8
0
  6
BYBLOCK
 62
     0
 10
16727.171504999991
 20
8104.228587999999
 30
0.0
 40
15.0
 50
90.0
 51
270.0
  0
ARC
  5
4957
  8
0
  6
BYBLOCK
 62
     0
 10
16327.16919599999
 20
6212.7285879999999
 30
0.0
 40
15.0
 50
90.0
 51
270.0
  0
ARC
  5
4958
  8
0
  6
BYBLOCK
 62
     0
 10
16327.16919599999
 20
6212.7285879999999
 30
0.0
 40
15.0
 50
270.0
 51
90.0
  0
ARC
  5
4959
  8
0
  6
BYBLOCK
 62
     0
 10
16327.16919599999
 20
8560.7285880000018
 30
0.0
 40
15.0
 50
270.0
 51
90.0
  0
ARC
  5
495A
  8
0
  6
BYBLOCK
 62
     0
 10
16327.16919599999
 20
8560.7285880000018
 30
0.0
 40
15.0
 50
90.0
 51
270.0
  0
ARC
  5
495B
  8
0
  6
BYBLOCK
 62
     0
 10
17491.668469999979
 20
9760.686549
 30
0.0
 40
15.0
 50
0.0
 51
180.0
  0
ARC
  5
495C
  8
0
  6
BYBLOCK
 62
     0
 10
17491.668469999979
 20
9760.686549
 30
0.0
 40
15.0
 50
180.0
 51
0.0
  0
ARC
  5
495D
  8
0
  6
BYBLOCK
 62
     0
 10
25998.678498999961
 20
9760.686549
 30
0.0
 40
15.0
 50
180.0
 51
0.0
  0
ARC
  5
495E
  8
0
  6
BYBLOCK
 62
     0
 10
25998.678498999961
 20
9760.686549
 30
0.0
 40
15.0
 50
0.0
 51
180.0
  0
ARC
  5
495F
  8
0
  6
BYBLOCK
 62
     0
 10
17534.670580999991
 20
9360.7287789999955
 30
0.0
 40
15.0
 50
0.0
 51
180.0
  0
ARC
  5
4960
  8
0
  6
BYBLOCK
 62
     0
 10
17534.670580999991
 20
9360.7287789999955
 30
0.0
 40
15.0
 50
180.0
 51
0.0
  0
ARC
  5
4961
  8
0
  6
BYBLOCK
 62
     0
 10
25955.67638799996
 20
9360.7287789999955
 30
0.0
 40
15.0
 50
180.0
 51
0.0
  0
ARC
  5
4962
  8
0
  6
BYBLOCK
 62
     0
 10
25955.67638799996
 20
9360.7287789999955
 30
0.0
 40
15.0
 50
0.0
 51
180.0
  0
ARC
  5
4963
  8
0
  6
BYBLOCK
 62
     0
 10
17534.670580999991
 20
9360.7287789999955
 30
0.0
 40
15.0
 50
0.0
 51
180.0
  0
ARC
  5
4964
  8
0
  6
BYBLOCK
 62
     0
 10
17534.670580999991
 20
9360.7287789999955
 30
0.0
 40
15.0
 50
180.0
 51
0.0
  0
ARC
  5
4965
  8
0
  6
BYBLOCK
 62
     0
 10
17491.668469999979
 20
9360.7287789999955
 30
0.0
 40
15.0
 50
180.0
 51
0.0
  0
ARC
  5
4966
  8
0
  6
BYBLOCK
 62
     0
 10
17491.668469999979
 20
9360.7287789999955
 30
0.0
 40
15.0
 50
0.0
 51
180.0
  0
ARC
  5
4967
  8
0
  6
BYBLOCK
 62
     0
 10
25955.67638799996
 20
9360.7287789999955
 30
0.0
 40
15.0
 50
180.0
 51
0.0
  0
ARC
  5
4968
  8
0
  6
BYBLOCK
 62
     0
 10
25955.67638799996
 20
9360.7287789999955
 30
0.0
 40
15.0
 50
0.0
 51
180.0
  0
ARC
  5
4969
  8
0
  6
BYBLOCK
 62
     0
 10
25998.678498999961
 20
9360.7287789999955
 30
0.0
 40
15.0
 50
0.0
 51
180.0
  0
ARC
  5
496A
  8
0
  6
BYBLOCK
 62
     0
 10
25998.678498999961
 20
9360.7287789999955
 30
0.0
 40
15.0
 50
180.0
 51
0.0
  0
ARC
  5
496B
  8
0
  6
BYBLOCK
 62
     0
 10
17671.17084499999
 20
5312.7287530000031
 30
0.0
 40
15.0
 50
0.0
 51
180.0
  0
ARC
  5
496C
  8
0
  6
BYBLOCK
 62
     0
 10
17671.17084499999
 20
5312.7287530000031
 30
0.0
 40
15.0
 50
180.0
 51
0.0
  0
ARC
  5
496D
  8
0
  6
BYBLOCK
 62
     0
 10
20401.170844999979
 20
5312.7287530000031
 30
0.0
 40
15.0
 50
180.0
 51
0.0
  0
ARC
  5
496E
  8
0
  6
BYBLOCK
 62
     0
 10
20401.170844999979
 20
5312.7287530000031
 30
0.0
 40
15.0
 50
0.0
 51
180.0
  0
ARC
  5
496F
  8
0
  6
BYBLOCK
 62
     0
 10
23089.176123999961
 20
5312.7287530000031
 30
0.0
 40
15.0
 50
0.0
 51
180.0
  0
ARC
  5
4970
  8
0
  6
BYBLOCK
 62
     0
 10
23089.176123999961
 20
5312.7287530000031
 30
0.0
 40
15.0
 50
180.0
 51
0.0
  0
ARC
  5
4971
  8
0
  6
BYBLOCK
 62
     0
 10
25819.176123999961
 20
5312.7287530000031
 30
0.0
 40
15.0
 50
180.0
 51
0.0
  0
ARC
  5
4972
  8
0
  6
BYBLOCK
 62
     0
 10
25819.176123999961
 20
5312.7287530000031
 30
0.0
 40
15.0
 50
0.0
 51
180.0
  0
ARC
  5
4973
  8
0
  6
BYBLOCK
 62
     0
 10
22995.176123999961
 20
4912.7287530000031
 30
0.0
 40
15.0
 50
0.0
 51
180.0
  0
ARC
  5
4974
  8
0
  6
BYBLOCK
 62
     0
 10
22995.176123999961
 20
4912.7287530000031
 30
0.0
 40
15.0
 50
180.0
 51
0.0
  0
ARC
  5
4975
  8
0
  6
BYBLOCK
 62
     0
 10
25913.176123999961
 20
4912.7287530000031
 30
0.0
 40
15.0
 50
180.0
 51
0.0
  0
ARC
  5
4976
  8
0
  6
BYBLOCK
 62
     0
 10
25913.176123999961
 20
4912.7287530000031
 30
0.0
 40
15.0
 50
0.0
 51
180.0
  0
ARC
  5
4977
  8
0
  6
BYBLOCK
 62
     0
 10
20495.17084499999
 20
4912.7287530000031
 30
0.0
 40
15.0
 50
0.0
 51
180.0
  0
ARC
  5
4978
  8
0
  6
BYBLOCK
 62
     0
 10
20495.17084499999
 20
4912.7287530000031
 30
0.0
 40
15.0
 50
180.0
 51
0.0
  0
ARC
  5
4979
  8
0
  6
BYBLOCK
 62
     0
 10
22995.176123999961
 20
4912.7287530000031
 30
0.0
 40
15.0
 50
180.0
 51
0.0
  0
ARC
  5
497A
  8
0
  6
BYBLOCK
 62
     0
 10
22995.176123999961
 20
4912.7287530000031
 30
0.0
 40
15.0
 50
0.0
 51
180.0
  0
ARC
  5
497B
  8
0
  6
BYBLOCK
 62
     0
 10
17577.170844999979
 20
4912.7287530000031
 30
0.0
 40
15.0
 50
0.0
 51
180.0
  0
ARC
  5
497C
  8
0
  6
BYBLOCK
 62
     0
 10
17577.170844999979
 20
4912.7287530000031
 30
0.0
 40
15.0
 50
180.0
 51
0.0
  0
ARC
  5
497D
  8
0
  6
BYBLOCK
 62
     0
 10
20495.17084499999
 20
4912.7287530000031
 30
0.0
 40
15.0
 50
180.0
 51
0.0
  0
ARC
  5
497E
  8
0
  6
BYBLOCK
 62
     0
 10
20495.17084499999
 20
4912.7287530000031
 30
0.0
 40
15.0
 50
0.0
 51
180.0
  0
ARC
  5
497F
  8
0
  6
BYBLOCK
 62
     0
 10
25913.180082999981
 20
4912.7287530000031
 30
0.0
 40
15.0
 50
180.0
 51
0.0
  0
ARC
  5
4980
  8
0
  6
BYBLOCK
 62
     0
 10
25913.180082999981
 20
4912.7287530000031
 30
0.0
 40
15.0
 50
0.0
 51
180.0
  0
ARC
  5
4981
  8
0
  6
BYBLOCK
 62
     0
 10
25955.680082999981
 20
4912.7287530000031
 30
0.0
 40
15.0
 50
0.0
 51
180.0
  0
ARC
  5
4982
  8
0
  6
BYBLOCK
 62
     0
 10
25955.680082999981
 20
4912.7287530000031
 30
0.0
 40
15.0
 50
180.0
 51
0.0
  0
ARC
  5
4983
  8
0
  6
BYBLOCK
 62
     0
 10
17577.170844999979
 20
4912.7287530000031
 30
0.0
 40
15.0
 50
0.0
 51
180.0
  0
ARC
  5
4984
  8
0
  6
BYBLOCK
 62
     0
 10
17577.170844999979
 20
4912.7287530000031
 30
0.0
 40
15.0
 50
180.0
 51
0.0
  0
ARC
  5
4985
  8
0
  6
BYBLOCK
 62
     0
 10
17534.67084499999
 20
4912.7287530000031
 30
0.0
 40
15.0
 50
180.0
 51
0.0
  0
ARC
  5
4986
  8
0
  6
BYBLOCK
 62
     0
 10
17534.67084499999
 20
4912.7287530000031
 30
0.0
 40
15.0
 50
0.0
 51
180.0
  0
ARC
  5
4987
  8
0
  6
BYBLOCK
 62
     0
 10
17534.67084499999
 20
4512.7289179999989
 30
0.0
 40
15.0
 50
0.0
 51
180.0
  0
ARC
  5
4988
  8
0
  6
BYBLOCK
 62
     0
 10
17534.67084499999
 20
4512.7289179999989
 30
0.0
 40
15.0
 50
180.0
 51
0.0
  0
ARC
  5
4989
  8
0
  6
BYBLOCK
 62
     0
 10
25955.676123999961
 20
4512.7289179999989
 30
0.0
 40
15.0
 50
180.0
 51
0.0
  0
ARC
  5
498A
  8
0
  6
BYBLOCK
 62
     0
 10
25955.676123999961
 20
4512.7289179999989
 30
0.0
 40
15.0
 50
0.0
 51
180.0
  0
LINE
  5
498B
  8
2-0
  6
CONTINUOUS
 62
     6
 10
20456.235693999959
 20
19170.678511999991
 30
0.0
 11
20179.64548099996
 21
18715.333811999979
 31
0.0
  0
LINE
  5
498C
  8
2-0
  6
CONTINUOUS
 62
     6
 10
20395.95737399998
 20
19020.082676999999
 30
0.0
 11
20456.235693999959
 21
19170.678511999991
 31
0.0
  0
LINE
  5
498D
  8
2-0
  6
CONTINUOUS
 62
     6
 10
20456.235693999959
 20
19170.678511999991
 30
0.0
 11
20350.376978999971
 21
19047.770203999971
 31
0.0
  0
LINE
  5
498E
  8
2-0
  6
CONTINUOUS
 62
     6
 10
20395.95737399998
 20
19020.082676999999
 30
0.0
 11
20350.376978999971
 21
19047.770203999971
 31
0.0
  0
LINE
  5
498F
  8
2-0
  6
CONTINUOUS
 62
     6
 10
20350.376978999971
 20
19047.770203999971
 30
0.0
 11
20456.235693999959
 21
19170.678511999991
 31
0.0
  0
LINE
  5
4990
  8
2-0
  6
CONTINUOUS
 62
     6
 10
20456.235693999959
 20
19170.678511999991
 30
0.0
 11
20395.95737399998
 21
19020.082676999999
 31
0.0
  0
LINE
  5
4991
  8
2-0
  6
CONTINUOUS
 62
     6
 10
20395.95737399998
 20
19020.082676999999
 30
0.0
 11
20456.235693999959
 21
19170.678511999991
 31
0.0
  0
LINE
  5
4992
  8
2-0
  6
CONTINUOUS
 62
     6
 10
20350.376978999971
 20
19047.770203999971
 30
0.0
 11
20456.235693999959
 21
19170.678511999991
 31
0.0
  0
LINE
  5
4993
  8
2-0
  6
CONTINUOUS
 62
     6
 10
20350.376978999971
 20
19047.770203999971
 30
0.0
 11
20395.95737399998
 21
19020.082676999999
 31
0.0
  0
LINE
  5
4A2C
  8
2-0
  6
CONTINUOUS
 62
     3
 10
22952.674869999981
 20
17019.819150499981
 30
0.0
 11
23037.675397999981
 21
17019.819150499981
 31
0.0
  0
LINE
  5
4A2D
  8
2-0
  6
CONTINUOUS
 62
     3
 10
23037.675397999981
 20
17104.813739499969
 30
0.0
 11
22952.674869999981
 21
17104.813739499969
 31
0.0
  0
LINE
  5
4A2E
  8
2-0
  6
CONTINUOUS
 62
     3
 10
22952.674869999981
 20
17104.813739499969
 30
0.0
 11
22952.674869999981
 21
17019.819150499981
 31
0.0
  0
LINE
  5
4A2F
  8
2-0
  6
CONTINUOUS
 62
     3
 10
23037.675397999981
 20
17019.819150499981
 30
0.0
 11
23037.675397999981
 21
17104.813739499969
 31
0.0
  0
LINE
  5
4A30
  8
2-0
  6
CONTINUOUS
 62
     6
 10
24515.755456286472
 20
16267.716301499981
 30
0.0
 11
23485.4061372865
 21
16267.716301499981
 31
0.0
  0
LINE
  5
4A31
  8
2-0
  6
CONTINUOUS
 62
     6
 10
23034.10830500002
 20
17010.678511999991
 30
0.0
 11
23485.4061372865
 21
16267.716301499981
 31
0.0
  0
LINE
  5
4A32
  8
2-0
  6
CONTINUOUS
 62
     6
 10
23094.386624999999
 20
16860.082676999999
 30
0.0
 11
23034.10830500002
 21
17010.678511999991
 31
0.0
  0
LINE
  5
4A33
  8
2-0
  6
CONTINUOUS
 62
     6
 10
23034.10830500002
 20
17010.678511999991
 30
0.0
 11
23139.967020000018
 21
16887.770203999971
 31
0.0
  0
LINE
  5
4A34
  8
2-0
  6
CONTINUOUS
 62
     6
 10
23094.386624999999
 20
16860.082676999999
 30
0.0
 11
23139.967020000018
 21
16887.770203999971
 31
0.0
  0
LINE
  5
4A35
  8
2-0
  6
CONTINUOUS
 62
     6
 10
23139.967020000018
 20
16887.770203999971
 30
0.0
 11
23034.10830500002
 21
17010.678511999991
 31
0.0
  0
LINE
  5
4A36
  8
2-0
  6
CONTINUOUS
 62
     6
 10
23034.10830500002
 20
17010.678511999991
 30
0.0
 11
23094.386624999999
 21
16860.082676999999
 31
0.0
  0
LINE
  5
4A37
  8
2-0
  6
CONTINUOUS
 62
     6
 10
23094.386624999999
 20
16860.082676999999
 30
0.0
 11
23034.10830500002
 21
17010.678511999991
 31
0.0
  0
LINE
  5
4A38
  8
2-0
  6
CONTINUOUS
 62
     6
 10
23139.967020000018
 20
16887.770203999971
 30
0.0
 11
23034.10830500002
 21
17010.678511999991
 31
0.0
  0
LINE
  5
4A39
  8
2-0
  6
CONTINUOUS
 62
     6
 10
23139.967020000018
 20
16887.770203999971
 30
0.0
 11
23094.386624999999
 21
16860.082676999999
 31
0.0
  0
TEXT
  5
4A3A
  8
2-0
  6
CONTINUOUS
 62
     7
 10
23548.721364619829
 20
16340.716988499969
 30
0.0
 40
160.0
  1
中柱（中）
 72
     4
 11
23970.054697953161
 21
16420.716988499971
 31
0.0
  0
TEXT
  5
4BB7
  8
NAME
 10
24033.053546554042
 20
1076.0
 30
0.0
 40
360.0
  1
H
 41
0.6700000000000002
  7
00
  0
TEXT
  5
4BB8
  8
NAME
 10
23657.221561973711
 20
1076.0
 30
0.0
 40
360.0
  1
（ ）
  7
01
  0
TEXT
  5
4BB9
  8
NAME
 10
24557.214549256762
 20
1076.0
 30
0.0
 40
360.0
  1
型（ 連棟）
  7
01
  0
TEXT
  5
4BBA
  8
NAME
 10
21816.08951584842
 20
1076.6369801169251
 30
0.0
 40
360.0
  1
VGC-3062
 41
0.6700000000000002
  0
TEXT
  5
4BBB
  8
NAME
 10
25322.39915886135
 20
1076.0
 30
0.0
 40
360.0
  1
n
 41
0.6700000000000002
  7
00
  0
TEXT
  5
4BBD
  8
NAME
 10
21933.55271638904
 20
1876.0
 30
0.0
 40
360.0
  1
ヨドガレージ ラヴィージュ
 41
0.75
  7
01
  0
LINE
  5
4BBE
  8
NAME
  6
CONTINUOUS
 10
26067.886878884328
 20
2236.0
 30
0.0
 11
26067.886878884328
 21
1876.0
 31
0.0
  0
LINE
  5
4BBF
  8
NAME
  6
CONTINUOUS
 10
26167.886878884328
 20
2236.0
 30
0.0
 11
26167.886878884328
 21
1876.0
 31
0.0
  0
LINE
  5
4BC0
  8
NAME
  6
CONTINUOUS
 10
26267.886878884328
 20
2236.0
 30
0.0
 11
26267.886878884328
 21
1876.0
 31
0.0
  0
LINE
  5
4BC1
  8
NAME
  6
CONTINUOUS
 10
26007.886878884328
 20
2236.0
 30
0.0
 11
26327.886878884328
 21
2236.0
 31
0.0
  0
LINE
  5
4BC2
  8
NAME
  6
CONTINUOUS
 10
26327.886878884328
 20
1876.0
 30
0.0
 11
26007.886878884328
 21
1876.0
 31
0.0
  0
TEXT
  5
4C5D
  8
FILENAME
  6
CONTINUOUS
 10
28737.333333333328
 20
348.0
 30
0.0
 40
200.0
  1
＜VGC-3062-N-A_0.DXF ＞
  7
FILENAME
 72
     2
 11
32764.0
 21
348.0
 31
0.0
  0
LINE
  5
4C63
  8
WAKUSEN-01
 10
868.00000000000193
 20
827.99999999999955
 30
0.0
 11
32764.000000000011
 21
827.99999999999943
 31
0.0
  0
LINE
  5
4C64
  8
WAKUSEN-01
 10
868.00000000000193
 20
827.99999999999955
 30
0.0
 11
868.00000000000193
 21
22484.000000000011
 31
0.0
  0
LINE
  5
4C65
  8
WAKUSEN-01
 10
32764.000000000011
 20
827.99999999999943
 30
0.0
 11
32764.000000000011
 21
22484.000000000011
 31
0.0
  0
LINE
  5
4C66
  8
WAKUSEN-01
 10
20560.0
 20
827.99999999999716
 30
0.0
 11
20560.0
 21
2484.0
 31
0.0
  0
LINE
  5
4C67
  8
WAKUSEN-02
 10
26868.0
 20
827.99999999999261
 30
0.0
 11
26868.0
 21
2484.0
 31
0.0
  0
ENDSEC
  0
EOF
