  0
SECTION
  2
HEADER
  9
$ACADVER
  1
AC1009
  9
$INSBASE
 10
0.0
 20
0.0
 30
0.0
  9
$EXTMIN
 10
867.99324330406671
 20
327.38164749855792
 30
-0.000000000000013
  9
$EXTMAX
 10
32765.33210850941
 20
22484.553276491992
 30
0.0000000000000023
  9
$LIMMIN
 10
0.0
 20
0.0
  9
$LIMMAX
 10
33600.0
 20
23760.0
  9
$ORTHOMODE
 70
     1
  9
$REGENMODE
 70
     1
  9
$FILLMODE
 70
     1
  9
$QTEXTMODE
 70
     0
  9
$MIRRTEXT
 70
     1
  9
$DRAGMODE
 70
     2
  9
$LTSCALE
 40
80.0
  9
$OSMODE
 70
  3071
  9
$ATTMODE
 70
     1
  9
$TEXTSIZE
 40
0.2
  9
$TRACEWID
 40
0.05
  9
$TEXTSTYLE
  7
00
  9
$CLAYER
  8
0
  9
$CELTYPE
  6
BYLAYER
  9
$CECOLOR
 62
   256
  9
$DIMSCALE
 40
80.0
  9
$DIMASZ
 40
3.0
  9
$DIMEXO
 40
1.0
  9
$DIMDLI
 40
0.38
  9
$DIMRND
 40
0.5
  9
$DIMDLE
 40
0.0
  9
$DIMEXE
 40
1.0
  9
$DIMTP
 40
0.0
  9
$DIMTM
 40
0.0
  9
$DIMTXT
 40
2.0
  9
$DIMCEN
 40
0.09
  9
$DIMTSZ
 40
0.0
  9
$DIMTOL
 70
     0
  9
$DIMLIM
 70
     0
  9
$DIMTIH
 70
     0
  9
$DIMTOH
 70
     0
  9
$DIMSE1
 70
     0
  9
$DIMSE2
 70
     0
  9
$DIMTAD
 70
     1
  9
$DIMZIN
 70
     8
  9
$DIMBLK
  1
DOTSMALL
  9
$DIMASO
 70
     1
  9
$DIMSHO
 70
     1
  9
$DIMPOST
  1

  9
$DIMAPOST
  1

  9
$DIMALT
 70
     0
  9
$DIMALTD
 70
     2
  9
$DIMALTF
 40
25.399999999999999
  9
$DIMLFAC
 40
1.0
  9
$DIMTOFL
 70
     1
  9
$DIMTVP
 40
0.0
  9
$DIMTIX
 70
     0
  9
$DIMSOXD
 70
     0
  9
$DIMSAH
 70
     0
  9
$DIMBLK1
  1

  9
$DIMBLK2
  1

  9
$DIMSTYLE
  2
SUNPOU
  9
$DIMCLRD
 70
     4
  9
$DIMCLRE
 70
     4
  9
$DIMCLRT
 70
     7
  9
$DIMTFAC
 40
1.0
  9
$DIMGAP
 40
1.0
  9
$LUNITS
 70
     2
  9
$LUPREC
 70
     4
  9
$SKETCHINC
 40
0.1
  9
$FILLETRAD
 40
0.0
  9
$AUNITS
 70
     0
  9
$AUPREC
 70
     0
  9
$MENU
  1
acad
  9
$ELEVATION
 40
0.0
  9
$PELEVATION
 40
0.0
  9
$THICKNESS
 40
0.0
  9
$LIMCHECK
 70
     0
  9
$BLIPMODE
 70
     1
  9
$CHAMFERA
 40
0.0
  9
$CHAMFERB
 40
0.0
  9
$SKPOLY
 70
     0
  9
$TDCREATE
 40
2454568.4856976969
  9
$TDUPDATE
 40
2458942.427034514
  9
$TDINDWG
 40
0.0382875694
  9
$TDUSRTIMER
 40
0.0382864815
  9
$USRTIMER
 70
     1
  9
$ANGBASE
 50
0.0
  9
$ANGDIR
 70
     0
  9
$PDMODE
 70
     0
  9
$PDSIZE
 40
0.0
  9
$PLINEWID
 40
0.0
  9
$COORDS
 70
     1
  9
$SPLFRAME
 70
     0
  9
$SPLINETYPE
 70
     6
  9
$SPLINESEGS
 70
     8
  9
$ATTDIA
 70
     1
  9
$ATTREQ
 70
     1
  9
$HANDLING
 70
     1
  9
$HANDSEED
  5
3845
  9
$SURFTAB1
 70
     6
  9
$SURFTAB2
 70
     6
  9
$SURFTYPE
 70
     6
  9
$SURFU
 70
     6
  9
$SURFV
 70
     6
  9
$UCSNAME
  2

  9
$UCSORG
 10
0.0
 20
0.0
 30
0.0
  9
$UCSXDIR
 10
1.0
 20
0.0
 30
0.0
  9
$UCSYDIR
 10
0.0
 20
1.0
 30
0.0
  9
$PUCSNAME
  2

  9
$PUCSORG
 10
0.0
 20
0.0
 30
0.0
  9
$PUCSXDIR
 10
1.0
 20
0.0
 30
0.0
  9
$PUCSYDIR
 10
0.0
 20
1.0
 30
0.0
  9
$USERI1
 70
     0
  9
$USERI2
 70
     0
  9
$USERI3
 70
     0
  9
$USERI4
 70
     0
  9
$USERI5
 70
     0
  9
$USERR1
 40
0.0
  9
$USERR2
 40
0.0
  9
$USERR3
 40
0.0
  9
$USERR4
 40
0.0
  9
$USERR5
 40
0.0
  9
$WORLDVIEW
 70
     1
  9
$SHADEDGE
 70
     3
  9
$SHADEDIF
 70
    70
  9
$TILEMODE
 70
     1
  9
$MAXACTVP
 70
    16
  9
$PLIMCHECK
 70
     0
  9
$PEXTMIN
 10
1.0000000000000000E+020
 20
1.0000000000000000E+020
 30
1.0000000000000000E+020
  9
$PEXTMAX
 10
-1.0000000000000000E+020
 20
-1.0000000000000000E+020
 30
-1.0000000000000000E+020
  9
$PLIMMIN
 10
0.0
 20
0.0
  9
$PLIMMAX
 10
12.0
 20
9.0
  9
$UNITMODE
 70
     0
  9
$VISRETAIN
 70
     0
  9
$PLINEGEN
 70
     1
  9
$PSLTSCALE
 70
     0
  0
ENDSEC
  0
SECTION
  2
TABLES
  0
TABLE
  2
VPORT
 70
     1
  0
VPORT
  2
*ACTIVE
 70
     0
 10
0.0
 20
0.0
 11
1.0
 21
1.0
 12
16800.0
 22
11880.0
 13
0.0
 23
0.0
 14
1.0
 24
1.0
 15
0.0
 25
0.0
 16
0.0
 26
0.0
 36
1.0
 17
0.0
 27
0.0
 37
0.0
 40
23981.023255813951
 41
2.195652173913043
 42
50.0
 43
0.0
 44
0.0
 50
0.0
 51
0.0
 71
     0
 72
 10000
 73
     1
 74
     1
 75
     0
 76
     0
 77
     0
 78
     0
  0
ENDTAB
  0
TABLE
  2
LTYPE
 70
     3
  0
LTYPE
  2
CONTINUOUS
 70
     0
  3
Solid line
 72
    65
 73
     0
 40
0.0
  0
LTYPE
  2
DASHED1
 70
     0
  3
--  --  --  --  --  --  --  --  
 72
    65
 73
     2
 40
2.0
 49
1.25
 49
-1.25
  0
LTYPE
  2
CENTER2
 70
     0
  3
----------  --  ----------  --  
 72
    65
 73
     4
 40
20.0
 49
12.5
 49
-2.5
 49
2.5
 49
-2.5
  0
ENDTAB
  0
TABLE
  2
LAYER
 70
    17
  0
LAYER
  2
0
 70
     0
 62
     7
  6
CONTINUOUS
  0
LAYER
  2
SUNPOU
 70
     0
 62
     4
  6
CONTINUOUS
  0
LAYER
  2
0-1
 70
     0
 62
     7
  6
CONTINUOUS
  0
LAYER
  2
0-2
 70
     0
 62
     7
  6
CONTINUOUS
  0
LAYER
  2
0-5
 70
     0
 62
     7
  6
CONTINUOUS
  0
LAYER
  2
0-6
 70
     0
 62
     7
  6
CONTINUOUS
  0
LAYER
  2
0-7
 70
     0
 62
     7
  6
CONTINUOUS
  0
LAYER
  2
2-0
 70
     0
 62
     7
  6
CONTINUOUS
  0
LAYER
  2
YODOROGO
 70
     0
 62
   130
  6
CONTINUOUS
  0
LAYER
  2
WAKUSEN-01
 70
     0
 62
    50
  6
CONTINUOUS
  0
LAYER
  2
WAKUSEN-02
 70
     0
 62
   130
  6
CONTINUOUS
  0
LAYER
  2
WAKUMOJI-01
 70
     0
 62
   130
  6
CONTINUOUS
  0
LAYER
  2
FILENAME
 70
     0
 62
     7
  6
CONTINUOUS
  0
LAYER
  2
NAME
 70
     0
 62
    20
  6
CONTINUOUS
  0
LAYER
  2
0-4
 70
     0
 62
     7
  6
CONTINUOUS
  0
ENDTAB
  0
TABLE
  2
STYLE
 70
     5
  0
STYLE
  2
STANDARD
 70
     0
 40
0.0
 41
1.0
 50
0.0
 71
     0
 42
0.0
  3
txt
  4
BIGFONT
  0
STYLE
  2
00
 70
     0
 40
0.0
 41
0.6666666666666666
 50
0.0
 71
     0
 42
0.2
  3
ROMANS
  4
BIGFONT
  0
STYLE
  2
01
 70
     0
 40
3.0
 41
1.0
 50
0.0
 71
     0
 42
0.2
  3
ROMANS
  4
BIGFONT
  0
STYLE
  2
WAKUMOJI
 70
     0
 40
3.0
 41
1.0
 50
0.0
 71
     0
 42
3.0
  3
SIMPLEX
  4
BIGFONT
  0
STYLE
  2
FILENAME
 70
     0
 40
200.0
 41
1.0
 50
0.0
 71
     0
 42
200.0
  3
romans
  4
bigfont
  0
ENDTAB
  0
TABLE
  2
VIEW
 70
     0
  0
ENDTAB
  0
TABLE
  2
UCS
 70
     0
  0
ENDTAB
  0
TABLE
  2
APPID
 70
    13
  0
APPID
  2
ACAD
 70
     0
  0
APPID
  2
ACADANNOTATIVE
 70
     0
  0
APPID
  2
ACAD_PSEXT
 70
     0
  0
APPID
  2
DCO15
 70
     0
  0
APPID
  2
ACAD_MLEADERVER
 70
     0
  0
APPID
  2
AUTOCAD_POSTSCRIPT_FIGURE
 70
     0
  0
APPID
  2
ACAD_EXEMPT_FROM_CAD_STANDARDS
 70
     0
  0
APPID
  2
ACAD_DSTYLE_DIMJAG
 70
     0
  0
APPID
  2
ACAD_DSTYLE_DIMTALN
 70
     0
  0
APPID
  2
ACAD_DSTYLE_DIM_LINETYPE
 70
     0
  0
APPID
  2
ACAD_DSTYLE_DIM_EXT1_LINETYPE
 70
     0
  0
APPID
  2
ACAD_DSTYLE_DIM_EXT2_LINETYPE
 70
     0
  0
APPID
  2
ACAD_NAV_VCDISPLAY
 70
     0
  0
ENDTAB
  0
TABLE
  2
DIMSTYLE
 70
     2
  0
DIMSTYLE
  2
SUNPOU
 70
     0
  3

  4

  5

  6

  7

 40
80.0
 41
3.0
 42
1.0
 43
0.38
 44
1.0
 45
0.5
 46
0.0
 47
0.0
 48
0.0
140
2.0
141
0.09
142
0.0
143
25.399999999999999
144
1.0
145
0.0
146
1.0
147
1.0
 71
     0
 72
     0
 73
     0
 74
     0
 75
     0
 76
     0
 77
     1
 78
     8
170
     0
171
     2
172
     1
173
     0
174
     0
175
     0
176
     4
177
     4
178
     7
  0
ENDTAB
  0
ENDSEC
  0
SECTION
  2
BLOCKS
  0
BLOCK
  8
0
  2
$MODEL_SPACE
 70
     0
 10
0.0
 20
0.0
 30
0.0
  3
$MODEL_SPACE
  1

  0
ENDBLK
  5
2E58
  8
0
  0
BLOCK
 67
     1
  8
0
  2
$PAPER_SPACE
 70
     0
 10
0.0
 20
0.0
 30
0.0
  3
$PAPER_SPACE
  1

  0
ENDBLK
  5
2E54
 67
     1
  8
0
  0
BLOCK
  8
0
  2
_DOTSMALL
 70
     0
 10
0.0
 20
0.0
 30
0.0
  3
_DOTSMALL
  1

  0
POLYLINE
  5
2E87
  8
0
  6
BYBLOCK
 62
     0
 66
     1
 10
0.0
 20
0.0
 30
0.0
 70
     1
 40
0.5
 41
0.5
  0
VERTEX
  5
380D
  8
0
  6
BYBLOCK
 62
     0
 10
-0.0625
 20
0.0
 30
0.0
 42
1.0
  0
VERTEX
  5
380E
  8
0
  6
BYBLOCK
 62
     0
 10
0.0625
 20
0.0
 30
0.0
 42
1.0
  0
SEQEND
  5
380F
  8
0
  6
BYBLOCK
 62
     0
  0
ENDBLK
  5
2E8B
  8
0
  0
ENDSEC
  0
SECTION
  2
ENTITIES
  0
LINE
  5
2E8C
  8
0-1
  6
CONTINUOUS
 62
     3
 10
11484.59791999998
 20
16784.484483
 30
0.0
 11
14276.256136
 21
16784.484483
 31
0.0
  0
LINE
  5
2E8D
  8
0-1
  6
CONTINUOUS
 62
     3
 10
14352.59730000001
 20
13671.984905999991
 30
0.0
 11
14352.59730000001
 21
19832.988204999991
 31
0.0
  0
LINE
  5
2E8E
  8
0-1
  6
CONTINUOUS
 62
     3
 10
11534.59656099998
 20
13671.984905999991
 30
0.0
 11
11534.59656099998
 21
19832.988204999991
 31
0.0
  0
LINE
  5
2E8F
  8
0-1
  6
CONTINUOUS
 62
     3
 10
11399.09653499999
 20
13639.98598799998
 30
0.0
 11
11399.09653499999
 21
19880.98559199999
 31
0.0
  0
LINE
  5
2E90
  8
0-1
  6
CONTINUOUS
 62
     3
 10
14488.09732599999
 20
13639.98598799998
 30
0.0
 11
14488.09732599999
 21
19880.98559199999
 31
0.0
  0
LINE
  5
2E91
  8
0-1
  6
CONTINUOUS
 62
     3
 10
11472.596059999991
 20
19880.985591999979
 30
0.0
 11
14414.597801
 21
19880.98559199999
 31
0.0
  0
LINE
  5
2E92
  8
0-1
  6
CONTINUOUS
 62
     3
 10
11484.59791999998
 20
16705.487835
 30
0.0
 11
14356.558277
 21
16705.487835
 31
0.0
  0
LINE
  5
2E93
  8
0-1
  6
CONTINUOUS
 62
     3
 10
11442.09765699998
 20
13795.984919
 30
0.0
 11
14445.099174000001
 21
13795.984919
 31
0.0
  0
LINE
  5
2E94
  8
0-1
  6
CONTINUOUS
 62
     3
 10
11484.59791999998
 20
13874.985526999981
 30
0.0
 11
14402.59791999998
 21
13874.985526999981
 31
0.0
  0
LINE
  5
2E95
  8
0-1
  6
CONTINUOUS
 62
     3
 10
11399.09653499999
 20
13639.98598799998
 30
0.0
 11
14488.09732599999
 21
13639.98598799998
 31
0.0
  0
LINE
  5
2E96
  8
0-1
  6
CONTINUOUS
 62
     3
 10
11399.09653499999
 20
13671.984905999991
 30
0.0
 11
14488.09732599999
 21
13671.984905999991
 31
0.0
  0
LINE
  5
2E97
  8
0-1
  6
CONTINUOUS
 62
     3
 10
14402.59791999998
 20
13795.984919
 30
0.0
 11
14402.59791999998
 21
16660.194470999999
 31
0.0
  0
LINE
  5
2E98
  8
0-1
  6
CONTINUOUS
 62
     3
 10
14445.099174000001
 20
13795.984919
 30
0.0
 11
14445.099174000001
 21
16618.383078999999
 31
0.0
  0
LINE
  5
2E99
  8
0-1
  6
CONTINUOUS
 62
     3
 10
11484.59791999998
 20
13795.984919
 30
0.0
 11
11484.59791999998
 21
19437.347764999991
 31
0.0
  0
LINE
  5
2E9A
  8
0-1
  6
CONTINUOUS
 62
     3
 10
11442.09765699998
 20
13795.984919
 30
0.0
 11
11442.09765699998
 21
19475.453497999999
 31
0.0
  0
LINE
  5
2E9B
  8
0-1
  6
CONTINUOUS
 62
     3
 10
11554.596666999991
 20
16750.486251999992
 30
0.0
 11
14332.598184
 21
13832.486252000001
 31
0.0
  0
LINE
  5
2E9C
  8
0-1
  6
CONTINUOUS
 62
     3
 10
14332.598184
 20
16750.486251999992
 30
0.0
 11
11554.596666999991
 21
13832.486252000001
 31
0.0
  0
LINE
  5
2E9D
  8
0-1
  6
CONTINUOUS
 62
     3
 10
14267.09888400001
 20
16793.495252000001
 30
0.0
 11
14267.09888400001
 21
19832.988204999991
 31
0.0
  0
LINE
  5
2E9E
  8
0-1
  6
CONTINUOUS
 62
     3
 10
14230.096732000011
 20
16829.896618999981
 30
0.0
 11
14230.096732000011
 21
19832.988204999991
 31
0.0
  0
LINE
  5
2E9F
  8
0-1
  6
CONTINUOUS
 62
     3
 10
14057.097128999991
 20
16990.253459999982
 30
0.0
 11
14057.097128999991
 21
19832.988204999991
 31
0.0
  0
LINE
  5
2EA0
  8
0-1
  6
CONTINUOUS
 62
     3
 10
14020.098936999981
 20
17026.652848000002
 30
0.0
 11
14020.098936999981
 21
19832.988204999991
 31
0.0
  0
LINE
  5
2EA1
  8
0-1
  6
CONTINUOUS
 62
     3
 10
13857.095478999991
 20
17197.007816000001
 30
0.0
 11
13857.095478999991
 21
19832.988204999991
 31
0.0
  0
LINE
  5
2EA2
  8
0-1
  6
CONTINUOUS
 62
     3
 10
13820.09728699999
 20
17233.409183
 30
0.0
 11
13820.09728699999
 21
19832.988204999991
 31
0.0
  0
LINE
  5
2EA3
  8
0-1
  6
CONTINUOUS
 62
     3
 10
13657.09778899999
 20
17393.764044999989
 30
0.0
 11
13657.09778899999
 21
19832.988204999991
 31
0.0
  0
LINE
  5
2EA4
  8
0-1
  6
CONTINUOUS
 62
     3
 10
13620.09662699999
 20
17430.163432000001
 30
0.0
 11
13620.09662699999
 21
19832.988204999991
 31
0.0
  0
LINE
  5
2EA5
  8
0-1
  6
CONTINUOUS
 62
     3
 10
13457.09613899999
 20
17463.375795
 30
0.0
 11
13457.09613899999
 21
19832.988204999991
 31
0.0
  0
LINE
  5
2EA6
  8
0-1
  6
CONTINUOUS
 62
     3
 10
13420.096956999991
 20
17426.968488999992
 30
0.0
 11
13420.096956999991
 21
19832.988204999991
 31
0.0
  0
LINE
  5
2EA7
  8
0-1
  6
CONTINUOUS
 62
     3
 10
13057.09778899999
 20
18234.544766999999
 30
0.0
 11
13057.09778899999
 21
19832.988204999991
 31
0.0
  0
LINE
  5
2EA8
  8
0-1
  6
CONTINUOUS
 62
     3
 10
13020.09662699999
 20
18348.606606999991
 30
0.0
 11
13020.09662699999
 21
19832.988204999991
 31
0.0
  0
LINE
  5
2EA9
  8
0-1
  6
CONTINUOUS
 62
     3
 10
13257.095478999991
 20
17618.005889
 30
0.0
 11
13257.095478999991
 21
19832.988204999991
 31
0.0
  0
LINE
  5
2EAA
  8
0-1
  6
CONTINUOUS
 62
     3
 10
13220.09728699998
 20
17732.06376999999
 30
0.0
 11
13220.09728699998
 21
19832.988204999991
 31
0.0
  0
LINE
  5
2EAB
  8
0-1
  6
CONTINUOUS
 62
     3
 10
12857.09712899998
 20
18275.92066399999
 30
0.0
 11
12857.09712899998
 21
19832.988204999991
 31
0.0
  0
LINE
  5
2EAC
  8
0-1
  6
CONTINUOUS
 62
     3
 10
12820.09794699998
 20
18239.95677099999
 30
0.0
 11
12820.09794699998
 21
19832.988204999991
 31
0.0
  0
LINE
  5
2EAD
  8
0-1
  6
CONTINUOUS
 62
     3
 10
12657.09646899996
 20
18386.100667999999
 30
0.0
 11
12657.09646899996
 21
19832.988204999991
 31
0.0
  0
LINE
  5
2EAE
  8
0-1
  6
CONTINUOUS
 62
     3
 10
12620.09629699998
 20
18419.273441000001
 30
0.0
 11
12620.09629699998
 21
19832.988204999991
 31
0.0
  0
LINE
  5
2EAF
  8
0-1
  6
CONTINUOUS
 62
     3
 10
12457.09679899999
 20
18565.417339
 30
0.0
 11
12457.09679899999
 21
19832.988204999991
 31
0.0
  0
LINE
  5
2EB0
  8
0-1
  6
CONTINUOUS
 62
     3
 10
12420.096626999981
 20
18598.59011099999
 30
0.0
 11
12420.096626999981
 21
19832.988204999991
 31
0.0
  0
LINE
  5
2EB1
  8
0-1
  6
CONTINUOUS
 62
     3
 10
12257.097128999991
 20
18744.734008999989
 30
0.0
 11
12257.097128999991
 21
19832.988204999991
 31
0.0
  0
LINE
  5
2EB2
  8
0-1
  6
CONTINUOUS
 62
     3
 10
12220.096956999991
 20
18777.910739999959
 30
0.0
 11
12220.096956999991
 21
19832.988204999991
 31
0.0
  0
LINE
  5
2EB3
  8
0-1
  6
CONTINUOUS
 62
     3
 10
11855.09550499999
 20
19105.164751999979
 30
0.0
 11
11855.09550499999
 21
19832.988204999991
 31
0.0
  0
LINE
  5
2EB4
  8
0-1
  6
CONTINUOUS
 62
     3
 10
11818.09632399998
 20
19138.337523999999
 30
0.0
 11
11818.09632399998
 21
19832.988204999991
 31
0.0
  0
LINE
  5
2EB5
  8
0-1
  6
CONTINUOUS
 62
     3
 10
12020.09629699998
 20
18957.227409999989
 30
0.0
 11
12020.09629699998
 21
19832.988204999991
 31
0.0
  0
LINE
  5
2EB6
  8
0-1
  6
CONTINUOUS
 62
     3
 10
12057.095478999991
 20
18924.054638000001
 30
0.0
 11
12057.095478999991
 21
19832.988204999991
 31
0.0
  0
LINE
  5
2EB7
  8
0-1
  6
CONTINUOUS
 62
     3
 10
11618.09566399998
 20
19317.656173999989
 30
0.0
 11
11618.09566399998
 21
19832.988204999991
 31
0.0
  0
LINE
  5
2EB8
  8
0-1
  6
CONTINUOUS
 62
     3
 10
11655.09682499999
 20
19284.481422000001
 30
0.0
 11
11655.09682499999
 21
19832.988204999991
 31
0.0
  0
LINE
  5
2EB9
  8
0-1
  6
CONTINUOUS
 62
     3
 10
12820.33350999998
 20
18239.742982999989
 30
0.0
 11
11105.09550499999
 21
19777.603254999991
 31
0.0
  0
LINE
  5
2EBA
  8
0-1
  6
CONTINUOUS
 62
     3
 10
12820.33350999998
 20
18239.742982999989
 30
0.0
 11
12998.53076199998
 21
18415.090717999999
 31
0.0
  0
LINE
  5
2EBB
  8
0-1
  6
CONTINUOUS
 62
     3
 10
13343.511362999991
 20
17351.610195999991
 30
0.0
 11
12998.53076199998
 21
18415.090717999999
 31
0.0
  0
LINE
  5
2EBC
  8
0-1
  6
CONTINUOUS
 62
     3
 10
13343.511362999991
 20
17351.610195999991
 30
0.0
 11
13521.70960499998
 21
17526.953973
 31
0.0
  0
LINE
  5
2EBD
  8
0-1
  6
CONTINUOUS
 62
     3
 10
14772.34922700001
 20
16296.442094999989
 30
0.0
 11
13521.70960499998
 21
17526.953973
 31
0.0
  0
LINE
  5
2EBE
  8
0-1
  6
CONTINUOUS
 62
     3
 10
11554.596666999991
 20
16750.486251999992
 30
0.0
 11
13031.83121299999
 21
18312.434863999999
 31
0.0
  0
LINE
  5
2EBF
  8
0-1
  6
CONTINUOUS
 62
     3
 10
12868.98512799998
 20
18287.619619000001
 30
0.0
 11
13128.23079899999
 21
18015.263595999979
 31
0.0
  0
LINE
  5
2EC0
  8
0-1
  6
CONTINUOUS
 62
     3
 10
14419.598065
 20
19890.98611999999
 30
0.0
 11
14483.098051999999
 21
19890.98611999999
 31
0.0
  0
LINE
  5
2EC1
  8
0-1
  6
CONTINUOUS
 62
     3
 10
14488.09732599999
 20
19885.985855999999
 30
0.0
 11
14488.09732599999
 21
19850.984008999989
 31
0.0
  0
LINE
  5
2EC2
  8
0-1
  6
CONTINUOUS
 62
     3
 10
14470.096573999999
 20
19850.984008999989
 30
0.0
 11
14419.598065
 21
19850.984008999989
 31
0.0
  0
LINE
  5
2EC3
  8
0-1
  6
CONTINUOUS
 62
     3
 10
14414.597801
 20
19855.984272999991
 30
0.0
 11
14414.597801
 21
19885.985855999999
 31
0.0
  0
LINE
  5
2EC4
  8
0-1
  6
CONTINUOUS
 62
     3
 10
14470.096573999999
 20
16596.739022999991
 30
0.0
 11
14470.096573999999
 21
19873.487175999991
 31
0.0
  0
LINE
  5
2EC5
  8
0-1
  6
CONTINUOUS
 62
     3
 10
14470.096573999999
 20
19873.487175999991
 30
0.0
 11
14488.09732599999
 21
19873.487175999991
 31
0.0
  0
LINE
  5
2EC6
  8
0-1
  6
CONTINUOUS
 62
     3
 10
11417.09728699999
 20
19495.179400000001
 30
0.0
 11
11417.09728699999
 21
19873.487175999991
 31
0.0
  0
LINE
  5
2EC7
  8
0-1
  6
CONTINUOUS
 62
     3
 10
11417.09728699999
 20
19850.984008999989
 30
0.0
 11
11467.595795999991
 21
19850.984008999989
 31
0.0
  0
LINE
  5
2EC8
  8
0-1
  6
CONTINUOUS
 62
     3
 10
11417.09728699999
 20
19873.487175999991
 30
0.0
 11
11399.09653499999
 21
19873.487175999991
 31
0.0
  0
LINE
  5
2EC9
  8
0-1
  6
CONTINUOUS
 62
     3
 10
11467.595795999991
 20
19890.98611999999
 30
0.0
 11
11404.09778899999
 21
19890.98611999999
 31
0.0
  0
LINE
  5
2ECA
  8
0-1
  6
CONTINUOUS
 62
     3
 10
11399.09653499999
 20
19885.985855999999
 30
0.0
 11
11399.09653499999
 21
19850.984008999989
 31
0.0
  0
LINE
  5
2ECB
  8
0-1
  6
CONTINUOUS
 62
     3
 10
11472.596059999991
 20
19855.984272999991
 30
0.0
 11
11472.596059999991
 21
19885.985855999999
 31
0.0
  0
LINE
  5
2ECC
  8
0-1
  6
CONTINUOUS
 62
     3
 10
11417.09728699999
 20
19832.988204999991
 30
0.0
 11
14470.096573999999
 21
19832.988204999991
 31
0.0
  0
LINE
  5
2ECD
  8
0-6
  6
CONTINUOUS
 62
     6
 10
13314.88059599999
 20
16938.316830999989
 30
0.0
 11
13253.732276999979
 21
17110.085175
 31
0.0
  0
LINE
  5
2ECE
  8
0-6
  6
CONTINUOUS
 62
     6
 10
13134.241606999991
 20
19608.712708999999
 30
0.0
 11
13278.14468999999
 21
20120.986383999982
 31
0.0
  0
LINE
  5
2ECF
  8
0-6
  6
CONTINUOUS
 62
     6
 10
12715.300253999971
 20
19714.484325000001
 30
0.0
 11
12421.37044699999
 21
20120.986383999982
 31
0.0
  0
LINE
  5
2ED0
  8
0-6
  6
CONTINUOUS
 62
     6
 10
13278.14468999999
 20
20120.986383999982
 30
0.0
 11
13829.95231999998
 21
20120.986383999982
 31
0.0
  0
LINE
  5
2ED1
  8
0-6
  6
CONTINUOUS
 62
     6
 10
12743.18177299998
 20
20010.889520000001
 30
0.0
 11
12571.357431607379
 21
20365.98941900002
 31
0.0
  0
LINE
  5
2ED2
  8
0-6
  6
CONTINUOUS
 62
     6
 10
12491.97719186605
 20
20515.989419000001
 30
0.0
 11
12263.92349899998
 21
20910.984536999971
 31
0.0
  0
LINE
  5
2ED3
  8
0-6
  6
CONTINUOUS
 62
     6
 10
12263.92349899998
 20
20910.984536999971
 30
0.0
 11
13106.361077999991
 21
20910.984536999971
 31
0.0
  0
LINE
  5
2ED4
  8
0-6
  6
CONTINUOUS
 62
     6
 10
11621.371766999981
 20
20120.986383999982
 30
0.0
 11
12421.37044699999
 21
20120.986383999982
 31
0.0
  0
LINE
  5
2ED5
  8
0-6
  6
CONTINUOUS
 62
     6
 10
12453.160525999991
 20
17110.085175
 30
0.0
 11
13253.732276999979
 21
17110.085175
 31
0.0
  0
LINE
  5
2ED6
  8
0-6
  6
CONTINUOUS
 62
     6
 10
12499.05467499999
 20
15990.32439299999
 30
0.0
 11
12710.32176399998
 21
16192.383752
 31
0.0
  0
LINE
  5
2ED7
  8
0-6
  6
CONTINUOUS
 62
     6
 10
12710.32176399998
 20
16192.383752
 30
0.0
 11
13590.322688
 21
16192.383752
 31
0.0
  0
LINE
  5
2ED8
  8
0-6
  6
CONTINUOUS
 62
     6
 10
11649.12263799999
 20
18548.183649999999
 30
0.0
 11
12169.12237399998
 21
18548.183649999999
 31
0.0
  0
LINE
  5
2ED9
  8
0-6
  6
CONTINUOUS
 62
     6
 10
12513.77041599999
 20
14026.875966999991
 30
0.0
 11
12596.657807999991
 21
14213.813361
 31
0.0
  0
LINE
  5
2EDA
  8
0-6
  6
CONTINUOUS
 62
     6
 10
12596.657807999991
 20
14213.813361
 30
0.0
 11
13396.65846699999
 21
14213.813361
 31
0.0
  0
LINE
  5
2EDB
  8
0-6
  6
CONTINUOUS
 62
     6
 10
13415.17389399999
 20
12839.986317999999
 30
0.0
 11
14287.75416999998
 21
12839.986317999999
 31
0.0
  0
LINE
  5
2EDC
  8
0-6
  6
CONTINUOUS
 62
     6
 10
13009.06081099999
 20
13503.517977
 30
0.0
 11
13415.17389399999
 21
12839.986317999999
 31
0.0
  0
LINE
  5
2EDD
  8
0-6
  6
CONTINUOUS
 62
     6
 10
9640.4635639999924
 20
12359.986290999999
 30
0.0
 11
10720.464157999981
 21
12359.986290999999
 31
0.0
  0
LINE
  5
2EDE
  8
0-6
  6
CONTINUOUS
 62
     6
 10
11307.20237299998
 20
14230.258211
 30
0.0
 11
10720.464157999981
 21
12359.986290999999
 31
0.0
  0
LINE
  5
2EDF
  8
0-6
  6
CONTINUOUS
 62
     6
 10
11550.08237499998
 20
18768.975192999991
 30
0.0
 11
11649.12263799999
 21
18548.183649999999
 31
0.0
  0
LINE
  5
2EE0
  8
0-6
  6
CONTINUOUS
 62
     6
 10
15522.75403799999
 20
20910.984536999971
 30
0.0
 11
17197.751399000012
 21
20910.984536999971
 31
0.0
  0
LINE
  5
2EE1
  8
0-6
  6
CONTINUOUS
 62
     6
 10
14596.005793
 20
20006.308914000001
 30
0.0
 11
15522.75403799999
 21
20910.984536999971
 31
0.0
  0
LINE
  5
2EE2
  8
0-6
  6
CONTINUOUS
 62
     6
 10
13340.51833099999
 20
16945.64896799999
 30
0.0
 11
13358.88232499998
 21
16784.484483
 31
0.0
  0
LINE
  5
2EE3
  8
0-6
  6
CONTINUOUS
 62
     6
 10
13358.88232499998
 20
16784.484483
 30
0.0
 11
13289.24187099998
 21
16930.980736000001
 31
0.0
  0
LINE
  5
2EE4
  8
0-6
  6
CONTINUOUS
 62
     6
 10
13358.88232499998
 20
16784.484483
 30
0.0
 11
13340.51833099999
 21
16945.64896799999
 31
0.0
  0
LINE
  5
2EE5
  8
0-6
  6
CONTINUOUS
 62
     6
 10
13340.51833099999
 20
16945.64896799999
 30
0.0
 11
13289.24187099998
 21
16930.980736000001
 31
0.0
  0
LINE
  5
2EE6
  8
0-6
  6
CONTINUOUS
 62
     6
 10
13289.24187099998
 20
16930.980736000001
 30
0.0
 11
13358.88232499998
 21
16784.484483
 31
0.0
  0
LINE
  5
2EE7
  8
0-6
  6
CONTINUOUS
 62
     6
 10
13289.24187099998
 20
16930.980736000001
 30
0.0
 11
13340.51833099999
 21
16945.64896799999
 31
0.0
  0
LINE
  5
2EE8
  8
0-6
  6
CONTINUOUS
 62
     6
 10
11332.647104999971
 20
14222.275803
 30
0.0
 11
11355.09682499999
 21
14382.92264299998
 31
0.0
  0
LINE
  5
2EE9
  8
0-6
  6
CONTINUOUS
 62
     6
 10
11355.09682499999
 20
14382.92264299998
 30
0.0
 11
11281.75962099999
 21
14238.24062
 31
0.0
  0
LINE
  5
2EEA
  8
0-6
  6
CONTINUOUS
 62
     6
 10
11355.09682499999
 20
14382.92264299998
 30
0.0
 11
11332.647104999971
 21
14222.275803
 31
0.0
  0
LINE
  5
2EEB
  8
0-6
  6
CONTINUOUS
 62
     6
 10
11332.647104999971
 20
14222.275803
 30
0.0
 11
11281.75962099999
 21
14238.24062
 31
0.0
  0
LINE
  5
2EEC
  8
0-6
  6
CONTINUOUS
 62
     6
 10
11281.75962099999
 20
14238.24062
 30
0.0
 11
11355.09682499999
 21
14382.92264299998
 31
0.0
  0
LINE
  5
2EED
  8
0-6
  6
CONTINUOUS
 62
     6
 10
11281.75962099999
 20
14238.24062
 30
0.0
 11
11332.647104999971
 21
14222.275803
 31
0.0
  0
LINE
  5
2EEE
  8
0-6
  6
CONTINUOUS
 62
     6
 10
12489.62226899999
 20
14038.188915000001
 30
0.0
 11
12445.897671999979
 21
13881.98510399999
 31
0.0
  0
LINE
  5
2EEF
  8
0-6
  6
CONTINUOUS
 62
     6
 10
12445.897671999979
 20
13881.98510399999
 30
0.0
 11
12537.91856299999
 21
14015.564007999999
 31
0.0
  0
LINE
  5
2EF0
  8
0-6
  6
CONTINUOUS
 62
     6
 10
12445.897671999979
 20
13881.98510399999
 30
0.0
 11
12489.62226899999
 21
14038.188915000001
 31
0.0
  0
LINE
  5
2EF1
  8
0-6
  6
CONTINUOUS
 62
     6
 10
12489.62226899999
 20
14038.188915000001
 30
0.0
 11
12537.91856299999
 21
14015.564007999999
 31
0.0
  0
LINE
  5
2EF2
  8
0-6
  6
CONTINUOUS
 62
     6
 10
12537.91856299999
 20
14015.564007999999
 30
0.0
 11
12445.897671999979
 21
13881.98510399999
 31
0.0
  0
LINE
  5
2EF3
  8
0-6
  6
CONTINUOUS
 62
     6
 10
12537.91856299999
 20
14015.564007999999
 30
0.0
 11
12489.62226899999
 21
14038.188915000001
 31
0.0
  0
LINE
  5
2EF4
  8
0-6
  6
CONTINUOUS
 62
     6
 10
13031.80547999999
 20
13517.438942000001
 30
0.0
 11
12925.537003999991
 21
13639.98598799998
 31
0.0
  0
LINE
  5
2EF5
  8
0-6
  6
CONTINUOUS
 62
     6
 10
12925.537003999991
 20
13639.98598799998
 30
0.0
 11
12986.31515299999
 21
13489.59602299998
 31
0.0
  0
LINE
  5
2EF6
  8
0-6
  6
CONTINUOUS
 62
     6
 10
12925.537003999991
 20
13639.98598799998
 30
0.0
 11
13031.80547999999
 21
13517.438942000001
 31
0.0
  0
LINE
  5
2EF7
  8
0-6
  6
CONTINUOUS
 62
     6
 10
13031.80547999999
 20
13517.438942000001
 30
0.0
 11
12986.31515299999
 21
13489.59602299998
 31
0.0
  0
LINE
  5
2EF8
  8
0-6
  6
CONTINUOUS
 62
     6
 10
12986.31515299999
 20
13489.59602299998
 30
0.0
 11
12925.537003999991
 21
13639.98598799998
 31
0.0
  0
LINE
  5
2EF9
  8
0-6
  6
CONTINUOUS
 62
     6
 10
12986.31515299999
 20
13489.59602299998
 30
0.0
 11
13031.80547999999
 21
13517.438942000001
 31
0.0
  0
LINE
  5
2EFA
  8
0-6
  6
CONTINUOUS
 62
     6
 10
12480.623376999971
 20
16009.59401699999
 30
0.0
 11
12383.42802499999
 21
15879.733638999989
 31
0.0
  0
LINE
  5
2EFB
  8
0-6
  6
CONTINUOUS
 62
     6
 10
12383.42802499999
 20
15879.733638999989
 30
0.0
 11
12517.48894099998
 21
15971.054770000001
 31
0.0
  0
LINE
  5
2EFC
  8
0-6
  6
CONTINUOUS
 62
     6
 10
12383.42802499999
 20
15879.733638999989
 30
0.0
 11
12480.623376999971
 21
16009.59401699999
 31
0.0
  0
LINE
  5
2EFD
  8
0-6
  6
CONTINUOUS
 62
     6
 10
12480.623376999971
 20
16009.59401699999
 30
0.0
 11
12517.48894099998
 21
15971.054770000001
 31
0.0
  0
LINE
  5
2EFE
  8
0-6
  6
CONTINUOUS
 62
     6
 10
12517.48894099998
 20
15971.054770000001
 30
0.0
 11
12383.42802499999
 21
15879.733638999989
 31
0.0
  0
LINE
  5
2EFF
  8
0-6
  6
CONTINUOUS
 62
     6
 10
12517.48894099998
 20
15971.054770000001
 30
0.0
 11
12480.623376999971
 21
16009.59401699999
 31
0.0
  0
LINE
  5
2F00
  8
0-6
  6
CONTINUOUS
 62
     6
 10
11574.412637999991
 20
18779.892238
 30
0.0
 11
11484.59791999998
 21
18914.960729999992
 31
0.0
  0
LINE
  5
2F01
  8
0-6
  6
CONTINUOUS
 62
     6
 10
11484.59791999998
 20
18914.960729999992
 30
0.0
 11
11525.751121999991
 21
18758.060128000001
 31
0.0
  0
LINE
  5
2F02
  8
0-6
  6
CONTINUOUS
 62
     6
 10
11484.59791999998
 20
18914.960729999992
 30
0.0
 11
11574.412637999991
 21
18779.892238
 31
0.0
  0
LINE
  5
2F03
  8
0-6
  6
CONTINUOUS
 62
     6
 10
11574.412637999991
 20
18779.892238
 30
0.0
 11
11525.751121999991
 21
18758.060128000001
 31
0.0
  0
LINE
  5
2F04
  8
0-6
  6
CONTINUOUS
 62
     6
 10
11525.751121999991
 20
18758.060128000001
 30
0.0
 11
11484.59791999998
 21
18914.960729999992
 31
0.0
  0
LINE
  5
2F05
  8
0-6
  6
CONTINUOUS
 62
     6
 10
11525.751121999991
 20
18758.060128000001
 30
0.0
 11
11574.412637999991
 21
18779.892238
 31
0.0
  0
LINE
  5
2F06
  8
0-6
  6
CONTINUOUS
 62
     6
 10
13108.35247299999
 20
19615.110513
 30
0.0
 11
13095.85379299998
 21
19453.381866
 31
0.0
  0
LINE
  5
2F07
  8
0-6
  6
CONTINUOUS
 62
     6
 10
13095.85379299998
 20
19453.381866
 30
0.0
 11
13160.129751
 21
19602.314904999999
 31
0.0
  0
LINE
  5
2F08
  8
0-6
  6
CONTINUOUS
 62
     6
 10
13095.85379299998
 20
19453.381866
 30
0.0
 11
13108.35247299999
 21
19615.110513
 31
0.0
  0
LINE
  5
2F09
  8
0-6
  6
CONTINUOUS
 62
     6
 10
13108.35247299999
 20
19615.110513
 30
0.0
 11
13160.129751
 21
19602.314904999999
 31
0.0
  0
LINE
  5
2F0A
  8
0-6
  6
CONTINUOUS
 62
     6
 10
13160.129751
 20
19602.314904999999
 30
0.0
 11
13095.85379299998
 21
19453.381866
 31
0.0
  0
LINE
  5
2F0B
  8
0-6
  6
CONTINUOUS
 62
     6
 10
13160.129751
 20
19602.314904999999
 30
0.0
 11
13108.35247299999
 21
19615.110513
 31
0.0
  0
LINE
  5
2F0C
  8
0-6
  6
CONTINUOUS
 62
     6
 10
12608.603211999991
 20
19836.662192
 30
0.0
 11
12715.300253999971
 21
19714.484325000001
 31
0.0
  0
LINE
  5
2F0D
  8
0-6
  6
CONTINUOUS
 62
     6
 10
12715.300253999971
 20
19714.484325000001
 30
0.0
 11
12653.99654299999
 21
19864.664461999979
 31
0.0
  0
LINE
  5
2F0E
  8
0-6
  6
CONTINUOUS
 62
     6
 10
12715.300253999971
 20
19714.484325000001
 30
0.0
 11
12608.603211999991
 21
19836.662192
 31
0.0
  0
LINE
  5
2F0F
  8
0-6
  6
CONTINUOUS
 62
     6
 10
12608.603211999991
 20
19836.662192
 30
0.0
 11
12653.99654299999
 21
19864.664461999979
 31
0.0
  0
LINE
  5
2F10
  8
0-6
  6
CONTINUOUS
 62
     6
 10
12653.99654299999
 20
19864.664461999979
 30
0.0
 11
12715.300253999971
 21
19714.484325000001
 31
0.0
  0
LINE
  5
2F11
  8
0-6
  6
CONTINUOUS
 62
     6
 10
12653.99654299999
 20
19864.664461999979
 30
0.0
 11
12608.603211999991
 21
19836.662192
 31
0.0
  0
LINE
  5
2F12
  8
0-6
  6
CONTINUOUS
 62
     6
 10
12721.529798999991
 20
19998.392819000001
 30
0.0
 11
12818.180782999971
 21
19880.98559199999
 31
0.0
  0
LINE
  5
2F13
  8
0-6
  6
CONTINUOUS
 62
     6
 10
12818.180782999971
 20
19880.98559199999
 30
0.0
 11
12764.83176799998
 21
20023.390179999991
 31
0.0
  0
LINE
  5
2F14
  8
0-6
  6
CONTINUOUS
 62
     6
 10
12818.180782999971
 20
19880.98559199999
 30
0.0
 11
12721.529798999991
 21
19998.392819000001
 31
0.0
  0
LINE
  5
2F15
  8
0-6
  6
CONTINUOUS
 62
     6
 10
12721.529798999991
 20
19998.392819000001
 30
0.0
 11
12764.83176799998
 21
20023.390179999991
 31
0.0
  0
LINE
  5
2F16
  8
0-6
  6
CONTINUOUS
 62
     6
 10
12764.83176799998
 20
20023.390179999991
 30
0.0
 11
12818.180782999971
 21
19880.98559199999
 31
0.0
  0
LINE
  5
2F17
  8
0-6
  6
CONTINUOUS
 62
     6
 10
12764.83176799998
 20
20023.390179999991
 30
0.0
 11
12721.529798999991
 21
19998.392819000001
 31
0.0
  0
LINE
  5
2F18
  8
0-6
  6
CONTINUOUS
 62
     6
 10
14576.783678000011
 20
20024.795638
 30
0.0
 11
14485.09732599999
 21
19890.98611999999
 31
0.0
  0
LINE
  5
2F19
  8
0-6
  6
CONTINUOUS
 62
     6
 10
14485.09732599999
 20
19890.98611999999
 30
0.0
 11
14615.226919000001
 21
19987.826148999979
 31
0.0
  0
LINE
  5
2F1A
  8
0-6
  6
CONTINUOUS
 62
     6
 10
14485.09732599999
 20
19890.98611999999
 30
0.0
 11
14576.783678000011
 21
20024.795638
 31
0.0
  0
LINE
  5
2F1B
  8
0-6
  6
CONTINUOUS
 62
     6
 10
14576.783678000011
 20
20024.795638
 30
0.0
 11
14615.226919000001
 21
19987.826148999979
 31
0.0
  0
LINE
  5
2F1C
  8
0-6
  6
CONTINUOUS
 62
     6
 10
14615.226919000001
 20
19987.826148999979
 30
0.0
 11
14485.09732599999
 21
19890.98611999999
 31
0.0
  0
LINE
  5
2F1D
  8
0-6
  6
CONTINUOUS
 62
     6
 10
14615.226919000001
 20
19987.826148999979
 30
0.0
 11
14576.783678000011
 21
20024.795638
 31
0.0
  0
LINE
  5
2F1E
  8
0-7
  6
CONTINUOUS
 62
     6
 10
14276.256136
 20
16784.484483
 30
0.0
 11
14402.59791999998
 21
16784.484483
 31
0.0
  0
LINE
  5
2F1F
  8
0-7
  6
DASHED1
 62
     6
 10
11484.59791999998
 20
19629.483798000001
 30
0.0
 11
14402.59791999998
 21
19629.483798000001
 31
0.0
  0
LINE
  5
2F20
  8
0-7
  6
CONTINUOUS
 62
     6
 10
11442.09765699998
 20
19475.453497999999
 30
0.0
 11
11442.09765699998
 21
19714.484325000001
 31
0.0
  0
LINE
  5
2F21
  8
0-7
  6
CONTINUOUS
 62
     6
 10
11484.59791999998
 20
19437.347764999991
 30
0.0
 11
11484.59791999998
 21
19714.484325000001
 31
0.0
  0
LINE
  5
2F22
  8
0-7
  6
DASHED1
 62
     6
 10
11442.09765699998
 20
19714.484325000001
 30
0.0
 11
14445.099174000001
 21
19714.484325000001
 31
0.0
  0
LINE
  5
2F23
  8
0-7
  6
CONTINUOUS
 62
     6
 10
14356.558277
 20
16705.487835
 30
0.0
 11
14402.59791999998
 21
16705.487835
 31
0.0
  0
LINE
  5
2F24
  8
0-7
  6
DASHED1
 62
     6
 10
14402.59791999998
 20
16660.194470999999
 30
0.0
 11
14402.59791999998
 21
19714.484325000001
 31
0.0
  0
LINE
  5
2F25
  8
0-7
  6
DASHED1
 62
     6
 10
14445.099174000001
 20
16618.383078999999
 30
0.0
 11
14445.099174000001
 21
19714.484325000001
 31
0.0
  0
LINE
  5
2F26
  8
0-7
  6
DASHED1
 62
     6
 10
11554.596666999991
 20
19668.486251999992
 30
0.0
 11
12868.98512799998
 21
18287.619619000001
 31
0.0
  0
LINE
  5
2F27
  8
0-7
  6
DASHED1
 62
     6
 10
13031.83121299999
 20
18312.434863999999
 30
0.0
 11
14332.598184
 21
19668.486251999992
 31
0.0
  0
LINE
  5
2F28
  8
0-7
  6
DASHED1
 62
     6
 10
13128.23079899999
 20
18015.263595999979
 30
0.0
 11
14332.598184
 21
16750.486251999992
 31
0.0
  0
LINE
  5
2F29
  8
2-0
  6
CENTER2
 62
     6
 10
14402.59791999998
 20
20910.984536999971
 30
0.0
 11
14402.59791999998
 21
19960.985855999999
 31
0.0
  0
LINE
  5
2F2A
  8
2-0
  6
CENTER2
 62
     6
 10
10155.09781499999
 20
19668.486251999992
 30
0.0
 11
11801.59604699999
 21
19668.486251999992
 31
0.0
  0
LINE
  5
2F2B
  8
2-0
  6
CENTER2
 62
     6
 10
11484.59791999998
 20
20910.984536999971
 30
0.0
 11
11484.59791999998
 21
19960.985855999999
 31
0.0
  0
LINE
  5
2F2C
  8
2-0
  6
CENTER2
 62
     6
 10
10155.09781499999
 20
16750.486251999992
 30
0.0
 11
11801.59604699999
 21
16750.486251999992
 31
0.0
  0
LINE
  5
2F2D
  8
2-0
  6
CENTER2
 62
     6
 10
10155.09781499999
 20
13832.486252000001
 30
0.0
 11
11801.59604699999
 21
13832.486252000001
 31
0.0
  0
ARC
  5
2F2E
  8
0-1
  6
CONTINUOUS
 62
     3
 10
14419.598065
 20
19855.984272999991
 30
0.0
 40
5.0
 50
180.0
 51
269.9999850001808
  0
ARC
  5
2F2F
  8
0-1
  6
CONTINUOUS
 62
     3
 10
14419.598065
 20
19885.985855999999
 30
0.0
 40
5.0
 50
90.0
 51
180.0
  0
ARC
  5
2F30
  8
0-1
  6
CONTINUOUS
 62
     3
 10
14483.098051999999
 20
19885.985855999999
 30
0.0
 40
5.0
 50
0.0
 51
90.0
  0
ARC
  5
2F31
  8
0-1
  6
CONTINUOUS
 62
     3
 10
11404.09778899999
 20
19885.985855999999
 30
0.0
 40
5.0
 50
90.0
 51
180.0
  0
ARC
  5
2F32
  8
0-1
  6
CONTINUOUS
 62
     3
 10
11467.595795999991
 20
19885.985855999999
 30
0.0
 40
5.0
 50
0.0
 51
90.0
  0
ARC
  5
2F33
  8
0-1
  6
CONTINUOUS
 62
     3
 10
11467.595795999991
 20
19855.984272999991
 30
0.0
 40
5.0
 50
269.9999850001808
 51
0.0
  0
CIRCLE
  5
2F34
  8
0-5
  6
CONTINUOUS
 62
     4
 10
14402.59791999998
 20
21110.987175999991
 30
0.0
 40
200.00001
  0
CIRCLE
  5
2F35
  8
0-5
  6
CONTINUOUS
 62
     4
 10
11484.59791999998
 20
21110.987175999991
 30
0.0
 40
200.00001
  0
CIRCLE
  5
2F36
  8
0-5
  6
CONTINUOUS
 62
     4
 10
9955.0961649999936
 20
19668.486251999992
 30
0.0
 40
200.00001
  0
CIRCLE
  5
2F37
  8
0-5
  6
CONTINUOUS
 62
     4
 10
9955.0961649999936
 20
16750.486251999992
 30
0.0
 40
200.00001
  0
CIRCLE
  5
2F38
  8
0-5
  6
CONTINUOUS
 62
     4
 10
9955.0961649999936
 20
13832.486252000001
 30
0.0
 40
200.00001
  0
CIRCLE
  5
2F39
  8
0-5
  6
CONTINUOUS
 62
     4
 10
15128.71667799999
 20
1375.9998579999999
 30
0.0
 40
20.0
  0
ARC
  5
2F3A
  8
0-5
  6
CONTINUOUS
 62
     4
 10
15128.71667799999
 20
1375.9998579999999
 30
0.0
 40
20.0
 50
180.0
 51
0.0
  0
ARC
  5
2F3B
  8
0-5
  6
CONTINUOUS
 62
     4
 10
15128.71667799999
 20
1375.9998579999999
 30
0.0
 40
20.0
 50
0.0
 51
179.99998500000001
  0
CIRCLE
  5
2F3C
  8
0-5
  6
CONTINUOUS
 62
     4
 10
15128.71667799999
 20
1776.0000640000001
 30
0.0
 40
20.0
  0
ARC
  5
2F3D
  8
0-5
  6
CONTINUOUS
 62
     4
 10
15128.71667799999
 20
1776.0000640000001
 30
0.0
 40
20.0
 50
180.0
 51
0.0
  0
ARC
  5
2F3E
  8
0-5
  6
CONTINUOUS
 62
     4
 10
15128.71667799999
 20
1776.0000640000001
 30
0.0
 40
20.0
 50
0.0
 51
179.99998500000001
  0
TEXT
  5
2F3F
  8
0-5
  6
CONTINUOUS
 62
     7
 10
14355.602169999989
 20
21024.391156000002
 30
0.0
 40
160.0
  1
2
 72
     4
 11
14408.93550333333
 21
21104.391156000002
 31
0.0
  0
TEXT
  5
2F40
  8
0-5
  6
CONTINUOUS
 62
     7
 10
11437.601179999991
 20
21024.391156000002
 30
0.0
 40
160.0
  1
1
 72
     4
 11
11464.26784666666
 21
21104.391156000002
 31
0.0
  0
TEXT
  5
2F41
  8
0-5
  6
CONTINUOUS
 62
     7
 10
9896.412346999994
 20
19574.544238999992
 30
0.0
 40
160.0
  1
C
 72
     4
 11
9949.7456803333298
 21
19654.544238999992
 31
0.0
  0
TEXT
  5
2F42
  8
0-5
  6
CONTINUOUS
 62
     7
 10
9896.412346999994
 20
16656.546217999999
 30
0.0
 40
160.0
  1
B
 72
     4
 11
9949.7456803333298
 21
16736.546217999999
 31
0.0
  0
TEXT
  5
2F43
  8
0-5
  6
CONTINUOUS
 62
     7
 10
9896.412346999994
 20
13738.544239000001
 30
0.0
 40
160.0
  1
A
 72
     4
 11
9949.7456803333298
 21
13818.544239000001
 31
0.0
  0
TEXT
  5
2F44
  8
0-5
  6
CONTINUOUS
 62
     7
 10
16601.026753784521
 20
1655.999916
 30
0.0
 40
160.0
  1
H
  0
TEXT
  5
2F45
  8
0-5
  6
CONTINUOUS
 62
     7
 10
15176.146933
 20
1655.999916
 30
0.0
 40
160.0
  1
（ ）内寸法ハ、  タ イプヲ示ス。
  0
TEXT
  5
2F46
  8
0-5
  6
CONTINUOUS
 62
     7
 10
15288.714237
 20
1255.999957
 30
0.0
 40
160.0
  1
有効高サハ、基礎高サヲ含ミマセン。
  0
TEXT
  5
2F47
  8
0-6
  6
CONTINUOUS
 62
     7
 10
13358.14495399999
 20
20200.986647999991
 30
0.0
 40
160.0
  1
屋根
 72
     4
 11
13528.81162066666
 21
20280.986647999991
 31
0.0
  0
TEXT
  5
2F48
  8
0-6
  6
CONTINUOUS
 62
     7
 10
12343.923761999989
 20
20990.984800999991
 30
0.0
 40
160.0
  1
鼻隠し後
 72
     4
 11
12706.590428666659
 21
21070.984800999991
 31
0.0
  0
TEXT
  5
2F49
  8
0-6
  6
CONTINUOUS
 62
     7
 10
11701.373020999979
 20
20200.986647999991
 30
0.0
 40
160.0
  1
桁（後）
 72
     4
 11
12021.373020999979
 21
20280.986647999991
 31
0.0
  0
TEXT
  5
2F4A
  8
0-6
  6
CONTINUOUS
 62
     7
 10
12533.731880999991
 20
17190.08543899998
 30
0.0
 40
160.0
  1
桁（中）
 72
     4
 11
12853.731880999991
 21
17270.08543899998
 31
0.0
  0
TEXT
  5
2F4B
  8
0-6
  6
CONTINUOUS
 62
     7
 10
12790.32202799998
 20
16272.384015999991
 30
0.0
 40
160.0
  1
ブレース
 72
     4
 11
13152.98869466665
 21
16357.71734933333
 31
0.0
  0
TEXT
  5
2F4C
  8
0-6
  6
CONTINUOUS
 62
     7
 10
12676.657081999991
 20
14293.81560399999
 30
0.0
 40
160.0
  1
桁（前）
 72
     4
 11
12996.657081999991
 21
14373.81560399999
 31
0.0
  0
TEXT
  5
2F4D
  8
0-6
  6
CONTINUOUS
 62
     7
 10
13495.174157999991
 20
12919.985592999999
 30
0.0
 40
160.0
  1
鼻隠し前
 72
     4
 11
13857.84082466666
 21
12999.985592999999
 31
0.0
  0
TEXT
  5
2F4E
  8
0-6
  6
CONTINUOUS
 62
     7
 10
9720.4618479999917
 20
12439.986554999999
 30
0.0
 40
160.0
  1
ケラバ 左
 72
     4
 11
10136.46184799999
 21
12519.986554999999
 31
0.0
  0
TEXT
  5
2F4F
  8
0-6
  6
CONTINUOUS
 62
     7
 10
11729.123891999991
 20
18628.18391399999
 30
0.0
 40
160.0
  1
上枠
 72
     4
 11
11899.79055866666
 21
18708.18391399999
 31
0.0
  0
TEXT
  5
2F50
  8
0-6
  6
CONTINUOUS
 62
     7
 10
15602.752323000001
 20
20990.984800999991
 30
0.0
 40
160.0
  1
鼻隠しコーナー後
 72
     4
 11
16349.41898966667
 21
21070.984800999991
 31
0.0
  0
LINE
  5
2F58
  8
0-1
  6
CONTINUOUS
 62
     3
 10
9673.5677129999895
 20
8478.9693009999955
 30
0.0
 11
15554.567118999979
 21
8478.9693009999955
 31
0.0
  0
LINE
  5
2F59
  8
0-1
  6
CONTINUOUS
 62
     3
 10
8963.567843999992
 20
6467.9239179999977
 30
0.0
 11
15587.066920999991
 21
6467.9239179999977
 31
0.0
  0
LINE
  5
2F5A
  8
0-1
  6
CONTINUOUS
 62
     3
 10
9768.56777899999
 20
6617.9239179999977
 30
0.0
 11
12541.567053000001
 21
6617.9239179999977
 31
0.0
  0
LINE
  5
2F5B
  8
0-1
  6
CONTINUOUS
 62
     3
 10
9646.0669209999924
 20
6567.9232579999998
 30
0.0
 11
15587.066920999991
 21
6567.9232579999998
 31
0.0
  0
LINE
  5
2F5C
  8
0-1
  6
CONTINUOUS
 62
     3
 10
9768.56777899999
 20
8478.9693009999955
 30
0.0
 11
9768.56777899999
 21
6567.9232579999998
 31
0.0
  0
LINE
  5
2F5D
  8
0-1
  6
CONTINUOUS
 62
     3
 10
9653.565666999988
 20
8601.0046419999962
 30
0.0
 11
9653.565666999988
 21
6567.9232579999998
 31
0.0
  0
LINE
  5
2F5E
  8
0-1
  6
CONTINUOUS
 62
     3
 10
9673.5677129999895
 20
8601.6222520000028
 30
0.0
 11
9673.5677129999895
 21
6567.9232579999998
 31
0.0
  0
LINE
  5
2F5F
  8
0-1
  6
CONTINUOUS
 62
     3
 10
9892.0669729999972
 20
6617.9239179999977
 30
0.0
 11
9892.0669729999972
 21
8478.9693009999955
 31
0.0
  0
LINE
  5
2F60
  8
0-1
  6
CONTINUOUS
 62
     3
 10
9907.0667759999887
 20
6617.9239179999977
 30
0.0
 11
9907.0667759999887
 21
8478.9693009999955
 31
0.0
  0
LINE
  5
2F61
  8
0-1
  6
CONTINUOUS
 62
     3
 10
10308.065772999969
 20
6617.9239179999977
 30
0.0
 11
10308.065772999969
 21
8478.9693009999955
 31
0.0
  0
LINE
  5
2F62
  8
0-1
  6
CONTINUOUS
 62
     3
 10
10293.065970999971
 20
6617.9239179999977
 30
0.0
 11
10293.065970999971
 21
8478.9693009999955
 31
0.0
  0
LINE
  5
2F63
  8
0-1
  6
CONTINUOUS
 62
     3
 10
10160.066075999979
 20
6617.9239179999977
 30
0.0
 11
10160.066075999979
 21
8478.9693009999955
 31
0.0
  0
LINE
  5
2F64
  8
0-1
  6
CONTINUOUS
 62
     3
 10
10040.067659999981
 20
6617.9239179999977
 30
0.0
 11
10040.067659999981
 21
8478.9693009999955
 31
0.0
  0
LINE
  5
2F65
  8
0-1
  6
CONTINUOUS
 62
     3
 10
10110.066405999991
 20
6617.9239179999977
 30
0.0
 11
10110.066405999991
 21
8478.9693009999955
 31
0.0
  0
LINE
  5
2F66
  8
0-1
  6
CONTINUOUS
 62
     3
 10
10090.06633999999
 20
6617.9239179999977
 30
0.0
 11
10090.06633999999
 21
8478.9693009999955
 31
0.0
  0
LINE
  5
2F67
  8
0-1
  6
CONTINUOUS
 62
     3
 10
9646.0669209999924
 20
6467.9239179999977
 30
0.0
 11
9646.0669209999924
 21
6567.9232579999998
 31
0.0
  0
LINE
  5
2F68
  8
0-1
  6
CONTINUOUS
 62
     3
 10
15649.57807199998
 20
8785.4680609999978
 30
0.0
 11
15645.56459799999
 21
8915.4066299999977
 31
0.0
  0
LINE
  5
2F69
  8
0-1
  6
CONTINUOUS
 62
     3
 10
12686.566789
 20
6617.9239179999977
 30
0.0
 11
15459.56705299999
 21
6617.9239179999977
 31
0.0
  0
LINE
  5
2F6A
  8
0-1
  6
CONTINUOUS
 62
     3
 10
12686.566789
 20
8478.9693009999955
 30
0.0
 11
12686.566789
 21
6567.9232579999998
 31
0.0
  0
LINE
  5
2F6B
  8
0-1
  6
CONTINUOUS
 62
     3
 10
12541.567053000001
 20
8478.9693009999955
 30
0.0
 11
12541.567053000001
 21
6567.9232579999998
 31
0.0
  0
LINE
  5
2F6C
  8
0-1
  6
CONTINUOUS
 62
     3
 10
12810.06697399999
 20
6617.9239179999977
 30
0.0
 11
12810.06697399999
 21
8478.9693009999955
 31
0.0
  0
LINE
  5
2F6D
  8
0-1
  6
CONTINUOUS
 62
     3
 10
12825.067766
 20
6617.9239179999977
 30
0.0
 11
12825.067766
 21
8478.9693009999955
 31
0.0
  0
LINE
  5
2F6E
  8
0-1
  6
CONTINUOUS
 62
     3
 10
12958.06667
 20
6617.9239179999977
 30
0.0
 11
12958.06667
 21
8478.9693009999955
 31
0.0
  0
LINE
  5
2F6F
  8
0-1
  6
CONTINUOUS
 62
     3
 10
13008.06832
 20
6617.9239179999977
 30
0.0
 11
13008.06832
 21
8478.9693009999955
 31
0.0
  0
LINE
  5
2F70
  8
0-1
  6
CONTINUOUS
 62
     3
 10
13028.066405999991
 20
6617.9239179999977
 30
0.0
 11
13028.066405999991
 21
8478.9693009999955
 31
0.0
  0
LINE
  5
2F71
  8
0-1
  6
CONTINUOUS
 62
     3
 10
12200.068426
 20
6617.9239179999977
 30
0.0
 11
12200.068426
 21
8478.9693009999955
 31
0.0
  0
LINE
  5
2F72
  8
0-1
  6
CONTINUOUS
 62
     3
 10
12220.067501999991
 20
6617.9239179999977
 30
0.0
 11
12220.067501999991
 21
8478.9693009999955
 31
0.0
  0
LINE
  5
2F73
  8
0-1
  6
CONTINUOUS
 62
     3
 10
12270.068162
 20
6617.9239179999977
 30
0.0
 11
12270.068162
 21
8478.9693009999955
 31
0.0
  0
LINE
  5
2F74
  8
0-1
  6
CONTINUOUS
 62
     3
 10
12403.068056
 20
6617.9239179999977
 30
0.0
 11
12403.068056
 21
8478.9693009999955
 31
0.0
  0
LINE
  5
2F75
  8
0-1
  6
CONTINUOUS
 62
     3
 10
12418.066867999991
 20
6617.9239179999977
 30
0.0
 11
12418.066867999991
 21
8478.9693009999955
 31
0.0
  0
LINE
  5
2F76
  8
0-1
  6
CONTINUOUS
 62
     3
 10
12150.067766
 20
6617.9239179999977
 30
0.0
 11
12150.067766
 21
8478.9693009999955
 31
0.0
  0
LINE
  5
2F77
  8
0-1
  6
CONTINUOUS
 62
     3
 10
12017.06787099999
 20
6617.9239179999977
 30
0.0
 11
12017.06787099999
 21
8478.9693009999955
 31
0.0
  0
LINE
  5
2F78
  8
0-1
  6
CONTINUOUS
 62
     3
 10
12002.06707899998
 20
6617.9239179999977
 30
0.0
 11
12002.06707899998
 21
8478.9693009999955
 31
0.0
  0
LINE
  5
2F79
  8
0-1
  6
CONTINUOUS
 62
     3
 10
10800.066775999991
 20
6617.9239179999977
 30
0.0
 11
10800.066775999991
 21
8478.9693009999955
 31
0.0
  0
LINE
  5
2F7A
  8
0-1
  6
CONTINUOUS
 62
     3
 10
10820.06882099999
 20
6617.9239179999977
 30
0.0
 11
10820.06882099999
 21
8478.9693009999955
 31
0.0
  0
LINE
  5
2F7B
  8
0-1
  6
CONTINUOUS
 62
     3
 10
10750.067106
 20
6617.9239179999977
 30
0.0
 11
10750.067106
 21
8478.9693009999955
 31
0.0
  0
LINE
  5
2F7C
  8
0-1
  6
CONTINUOUS
 62
     3
 10
10870.066511999999
 20
6617.9239179999977
 30
0.0
 11
10870.066511999999
 21
8478.9693009999955
 31
0.0
  0
LINE
  5
2F7D
  8
0-1
  6
CONTINUOUS
 62
     3
 10
11003.067395999989
 20
6617.9239179999977
 30
0.0
 11
11003.067395999989
 21
8478.9693009999955
 31
0.0
  0
LINE
  5
2F7E
  8
0-1
  6
CONTINUOUS
 62
     3
 10
11018.068187999999
 20
6617.9239179999977
 30
0.0
 11
11018.068187999999
 21
8478.9693009999955
 31
0.0
  0
LINE
  5
2F7F
  8
0-1
  6
CONTINUOUS
 62
     3
 10
10617.06622199999
 20
6617.9239179999977
 30
0.0
 11
10617.06622199999
 21
8478.9693009999955
 31
0.0
  0
LINE
  5
2F80
  8
0-1
  6
CONTINUOUS
 62
     3
 10
10602.06740899999
 20
6617.9239179999977
 30
0.0
 11
10602.06740899999
 21
8478.9693009999955
 31
0.0
  0
LINE
  5
2F81
  8
0-1
  6
CONTINUOUS
 62
     3
 10
11302.06675
 20
6617.9239179999977
 30
0.0
 11
11302.06675
 21
8478.9693009999955
 31
0.0
  0
LINE
  5
2F82
  8
0-1
  6
CONTINUOUS
 62
     3
 10
11317.065561999991
 20
6617.9239179999977
 30
0.0
 11
11317.065561999991
 21
8478.9693009999955
 31
0.0
  0
LINE
  5
2F83
  8
0-1
  6
CONTINUOUS
 62
     3
 10
11718.06752799999
 20
6617.9239179999977
 30
0.0
 11
11718.06752799999
 21
8478.9693009999955
 31
0.0
  0
LINE
  5
2F84
  8
0-1
  6
CONTINUOUS
 62
     3
 10
11703.066735999981
 20
6617.9239179999977
 30
0.0
 11
11703.066735999981
 21
8478.9693009999955
 31
0.0
  0
LINE
  5
2F85
  8
0-1
  6
CONTINUOUS
 62
     3
 10
11570.065851999991
 20
6617.9239179999977
 30
0.0
 11
11570.065851999991
 21
8478.9693009999955
 31
0.0
  0
LINE
  5
2F86
  8
0-1
  6
CONTINUOUS
 62
     3
 10
11450.068425999991
 20
6617.9239179999977
 30
0.0
 11
11450.068425999991
 21
8478.9693009999955
 31
0.0
  0
LINE
  5
2F87
  8
0-1
  6
CONTINUOUS
 62
     3
 10
11520.068162
 20
6617.9239179999977
 30
0.0
 11
11520.068162
 21
8478.9693009999955
 31
0.0
  0
LINE
  5
2F88
  8
0-1
  6
CONTINUOUS
 62
     3
 10
11500.06809599999
 20
6617.9239179999977
 30
0.0
 11
11500.06809599999
 21
8478.9693009999955
 31
0.0
  0
LINE
  5
2F89
  8
0-1
  6
CONTINUOUS
 62
     3
 10
11841.567713
 20
8478.9693009999955
 30
0.0
 11
11841.567713
 21
6617.9239179999977
 31
0.0
  0
LINE
  5
2F8A
  8
0-1
  6
CONTINUOUS
 62
     3
 10
11878.566894999991
 20
8478.9693009999955
 30
0.0
 11
11878.566894999991
 21
6617.9239179999977
 31
0.0
  0
LINE
  5
2F8B
  8
0-1
  6
CONTINUOUS
 62
     3
 10
10431.565956999981
 20
8478.9693009999955
 30
0.0
 11
10431.565956999981
 21
6617.9239179999977
 31
0.0
  0
LINE
  5
2F8C
  8
0-1
  6
CONTINUOUS
 62
     3
 10
10468.566128999981
 20
8478.9693009999955
 30
0.0
 11
10468.566128999981
 21
6617.9239179999977
 31
0.0
  0
LINE
  5
2F8D
  8
0-1
  6
CONTINUOUS
 62
     3
 10
11141.568373
 20
8478.9693009999955
 30
0.0
 11
11141.568373
 21
6617.9239179999977
 31
0.0
  0
LINE
  5
2F8E
  8
0-1
  6
CONTINUOUS
 62
     3
 10
11178.567555
 20
8478.9693009999955
 30
0.0
 11
11178.567555
 21
6617.9239179999977
 31
0.0
  0
LINE
  5
2F8F
  8
0-1
  6
CONTINUOUS
 62
     3
 10
12614.01545399998
 20
8692.0773429999954
 30
0.0
 11
12610.00296899999
 21
8822.0159119999971
 31
0.0
  0
LINE
  5
2F90
  8
0-1
  6
CONTINUOUS
 62
     3
 10
12614.066920999991
 20
8692.0793229999981
 30
0.0
 11
12614.066920999991
 21
8478.9693009999955
 31
0.0
  0
LINE
  5
2F91
  8
0-1
  6
CONTINUOUS
 62
     3
 10
15459.56705299999
 20
8478.9693009999955
 30
0.0
 11
15459.56705299999
 21
6567.9232579999998
 31
0.0
  0
LINE
  5
2F92
  8
0-1
  6
CONTINUOUS
 62
     3
 10
15574.568173999991
 20
8783.1530139999977
 30
0.0
 11
15574.568173999991
 21
6567.9232579999998
 31
0.0
  0
LINE
  5
2F93
  8
0-1
  6
CONTINUOUS
 62
     3
 10
15554.567118999979
 20
8782.5354040000002
 30
0.0
 11
15554.567118999979
 21
6567.9232579999998
 31
0.0
  0
LINE
  5
2F94
  8
0-1
  6
CONTINUOUS
 62
     3
 10
14049.568267000001
 20
8478.9693009999955
 30
0.0
 11
14049.568267000001
 21
6617.9239179999977
 31
0.0
  0
LINE
  5
2F95
  8
0-1
  6
CONTINUOUS
 62
     3
 10
14086.56843899999
 20
8478.9693009999955
 30
0.0
 11
14086.56843899999
 21
6617.9239179999977
 31
0.0
  0
LINE
  5
2F96
  8
0-1
  6
CONTINUOUS
 62
     3
 10
14749.56760699999
 20
8478.9693009999955
 30
0.0
 11
14749.56760699999
 21
6617.9239179999977
 31
0.0
  0
LINE
  5
2F97
  8
0-1
  6
CONTINUOUS
 62
     3
 10
14786.56678899999
 20
8478.9693009999955
 30
0.0
 11
14786.56678899999
 21
6617.9239179999977
 31
0.0
  0
LINE
  5
2F98
  8
0-1
  6
CONTINUOUS
 62
     3
 10
13349.565957999999
 20
8478.9693009999955
 30
0.0
 11
13349.565957999999
 21
6617.9239179999977
 31
0.0
  0
LINE
  5
2F99
  8
0-1
  6
CONTINUOUS
 62
     3
 10
13386.56711899999
 20
8478.9693009999955
 30
0.0
 11
13386.56711899999
 21
6617.9239179999977
 31
0.0
  0
LINE
  5
2F9A
  8
0-1
  6
CONTINUOUS
 62
     3
 10
13728.065747000001
 20
6617.9239179999977
 30
0.0
 11
13728.065747000001
 21
8478.9693009999955
 31
0.0
  0
LINE
  5
2F9B
  8
0-1
  6
CONTINUOUS
 62
     3
 10
13708.066669999989
 20
6617.9239179999977
 30
0.0
 11
13708.066669999989
 21
8478.9693009999955
 31
0.0
  0
LINE
  5
2F9C
  8
0-1
  6
CONTINUOUS
 62
     3
 10
13778.067395999989
 20
6617.9239179999977
 30
0.0
 11
13778.067395999989
 21
8478.9693009999955
 31
0.0
  0
LINE
  5
2F9D
  8
0-1
  6
CONTINUOUS
 62
     3
 10
13658.06799
 20
6617.9239179999977
 30
0.0
 11
13658.06799
 21
8478.9693009999955
 31
0.0
  0
LINE
  5
2F9E
  8
0-1
  6
CONTINUOUS
 62
     3
 10
13525.067106
 20
6617.9239179999977
 30
0.0
 11
13525.067106
 21
8478.9693009999955
 31
0.0
  0
LINE
  5
2F9F
  8
0-1
  6
CONTINUOUS
 62
     3
 10
13510.067303999989
 20
6617.9239179999977
 30
0.0
 11
13510.067303999989
 21
8478.9693009999955
 31
0.0
  0
LINE
  5
2FA0
  8
0-1
  6
CONTINUOUS
 62
     3
 10
13911.06828
 20
6617.9239179999977
 30
0.0
 11
13911.06828
 21
8478.9693009999955
 31
0.0
  0
LINE
  5
2FA1
  8
0-1
  6
CONTINUOUS
 62
     3
 10
13926.068081999991
 20
6617.9239179999977
 30
0.0
 11
13926.068081999991
 21
8478.9693009999955
 31
0.0
  0
LINE
  5
2FA2
  8
0-1
  6
CONTINUOUS
 62
     3
 10
14626.06742299998
 20
6617.9239179999977
 30
0.0
 11
14626.06742299998
 21
8478.9693009999955
 31
0.0
  0
LINE
  5
2FA3
  8
0-1
  6
CONTINUOUS
 62
     3
 10
14611.066630999991
 20
6617.9239179999977
 30
0.0
 11
14611.066630999991
 21
8478.9693009999955
 31
0.0
  0
LINE
  5
2FA4
  8
0-1
  6
CONTINUOUS
 62
     3
 10
14210.066644
 20
6617.9239179999977
 30
0.0
 11
14210.066644
 21
8478.9693009999955
 31
0.0
  0
LINE
  5
2FA5
  8
0-1
  6
CONTINUOUS
 62
     3
 10
14225.068425999991
 20
6617.9239179999977
 30
0.0
 11
14225.068425999991
 21
8478.9693009999955
 31
0.0
  0
LINE
  5
2FA6
  8
0-1
  6
CONTINUOUS
 62
     3
 10
14358.06831999998
 20
6617.9239179999977
 30
0.0
 11
14358.06831999998
 21
8478.9693009999955
 31
0.0
  0
LINE
  5
2FA7
  8
0-1
  6
CONTINUOUS
 62
     3
 10
14478.065747000001
 20
6617.9239179999977
 30
0.0
 11
14478.065747000001
 21
8478.9693009999955
 31
0.0
  0
LINE
  5
2FA8
  8
0-1
  6
CONTINUOUS
 62
     3
 10
14408.06601099999
 20
6617.9239179999977
 30
0.0
 11
14408.06601099999
 21
8478.9693009999955
 31
0.0
  0
LINE
  5
2FA9
  8
0-1
  6
CONTINUOUS
 62
     3
 10
14428.068056
 20
6617.9239179999977
 30
0.0
 11
14428.068056
 21
8478.9693009999955
 31
0.0
  0
LINE
  5
2FAA
  8
0-1
  6
CONTINUOUS
 62
     3
 10
15128.067396
 20
6617.9239179999977
 30
0.0
 11
15128.067396
 21
8478.9693009999955
 31
0.0
  0
LINE
  5
2FAB
  8
0-1
  6
CONTINUOUS
 62
     3
 10
15108.06831999998
 20
6617.9239179999977
 30
0.0
 11
15108.06831999998
 21
8478.9693009999955
 31
0.0
  0
LINE
  5
2FAC
  8
0-1
  6
CONTINUOUS
 62
     3
 10
15178.06805599998
 20
6617.9239179999977
 30
0.0
 11
15178.06805599998
 21
8478.9693009999955
 31
0.0
  0
LINE
  5
2FAD
  8
0-1
  6
CONTINUOUS
 62
     3
 10
15058.067660000001
 20
6617.9239179999977
 30
0.0
 11
15058.067660000001
 21
8478.9693009999955
 31
0.0
  0
LINE
  5
2FAE
  8
0-1
  6
CONTINUOUS
 62
     3
 10
14925.067765999989
 20
6617.9239179999977
 30
0.0
 11
14925.067765999989
 21
8478.9693009999955
 31
0.0
  0
LINE
  5
2FAF
  8
0-1
  6
CONTINUOUS
 62
     3
 10
14910.065984000001
 20
6617.9239179999977
 30
0.0
 11
14910.065984000001
 21
8478.9693009999955
 31
0.0
  0
LINE
  5
2FB0
  8
0-1
  6
CONTINUOUS
 62
     3
 10
15321.068054999991
 20
6617.9239179999977
 30
0.0
 11
15321.068054999991
 21
8478.9693009999955
 31
0.0
  0
LINE
  5
2FB1
  8
0-1
  6
CONTINUOUS
 62
     3
 10
15336.066867999991
 20
6617.9239179999977
 30
0.0
 11
15336.066867999991
 21
8478.9693009999955
 31
0.0
  0
LINE
  5
2FB2
  8
0-1
  6
CONTINUOUS
 62
     3
 10
13226.065773
 20
6617.9239179999977
 30
0.0
 11
13226.065773
 21
8478.9693009999955
 31
0.0
  0
LINE
  5
2FB3
  8
0-1
  6
CONTINUOUS
 62
     3
 10
13211.066961
 20
6617.9239179999977
 30
0.0
 11
13211.066961
 21
8478.9693009999955
 31
0.0
  0
LINE
  5
2FB4
  8
0-1
  6
CONTINUOUS
 62
     3
 10
13078.06805599998
 20
6617.9239179999977
 30
0.0
 11
13078.06805599998
 21
8478.9693009999955
 31
0.0
  0
LINE
  5
2FB5
  8
0-1
  6
CONTINUOUS
 62
     3
 10
15587.066920999991
 20
6567.9232579999998
 30
0.0
 11
15587.066920999991
 21
6467.9239179999977
 31
0.0
  0
LINE
  5
2FB6
  8
0-1
  6
CONTINUOUS
 62
     3
 10
9476.0958879999871
 20
8643.5494449999951
 30
0.0
 11
9475.0487219999868
 21
8677.5348099999956
 31
0.0
  0
LINE
  5
2FB7
  8
0-1
  6
CONTINUOUS
 62
     3
 10
9477.9546559999926
 20
8680.6248389999982
 30
0.0
 11
15658.94812299998
 21
8870.7981789999976
 31
0.0
  0
LINE
  5
2FB8
  8
0-1
  6
CONTINUOUS
 62
     3
 10
15660.181362999991
 20
8830.8168519999981
 30
0.0
 11
9479.1878959999922
 21
8640.6435120000024
 31
0.0
  0
LINE
  5
2FB9
  8
0-1
  6
CONTINUOUS
 62
     3
 10
9477.8012429999908
 20
8685.6231229999976
 30
0.0
 11
15658.79372099998
 21
8875.7954730000001
 31
0.0
  0
LINE
  5
2FBA
  8
0-1
  6
CONTINUOUS
 62
     3
 10
15660.334775999991
 20
8825.818567999997
 30
0.0
 11
9479.3403189999863
 21
8635.6462179999962
 31
0.0
  0
LINE
  5
2FBB
  8
0-1
  6
CONTINUOUS
 62
     3
 10
9476.4343849999877
 20
8632.5551990000004
 30
0.0
 11
9476.4343849999877
 21
8632.6205229999978
 31
0.0
  0
LINE
  5
2FBC
  8
0-1
  6
CONTINUOUS
 62
     3
 10
9476.4343849999877
 20
8632.6205229999978
 30
0.0
 11
9477.4241449999918
 21
8600.5711280000032
 31
0.0
  0
LINE
  5
2FBD
  8
0-1
  6
CONTINUOUS
 62
     3
 10
9482.5758419999911
 20
8595.7282360000008
 30
0.0
 11
15682.54200499999
 21
8786.4855330000028
 31
0.0
  0
LINE
  5
2FBE
  8
0-1
  6
CONTINUOUS
 62
     3
 10
15678.53149999999
 20
8916.4250919999977
 30
0.0
 11
9478.5653369999909
 21
8725.6658149999967
 31
0.0
  0
LINE
  5
2FBF
  8
0-1
  6
CONTINUOUS
 62
     3
 10
9473.7204649999876
 20
8720.5131280000005
 30
0.0
 11
9474.7092349999912
 21
8688.5290559999976
 31
0.0
  0
LINE
  5
2FC0
  8
0-1
  6
CONTINUOUS
 62
     3
 10
9491.0600579999864
 20
8726.0508310000005
 30
0.0
 11
9495.0705629999884
 21
8596.1122620000006
 31
0.0
  0
LINE
  5
2FC1
  8
0-5
  6
CONTINUOUS
 62
     4
 10
18457.442461999992
 20
6675.7694099999999
 30
0.0
 11
18577.438899000001
 21
6467.9239179999977
 31
0.0
  0
LINE
  5
2FC2
  8
0-5
  6
CONTINUOUS
 62
     4
 10
15667.066196
 20
6467.9239179999977
 30
0.0
 11
20724.562579000001
 21
6467.9239179999977
 31
0.0
  0
LINE
  5
2FC3
  8
0-5
  6
CONTINUOUS
 62
     4
 10
18577.438899000001
 20
6467.9239179999977
 30
0.0
 11
18697.439295
 21
6675.7694099999999
 31
0.0
  0
LINE
  5
2FC4
  8
0-5
  6
CONTINUOUS
 62
     4
 10
18697.439295
 20
6675.7694099999999
 30
0.0
 11
18457.442461999992
 21
6675.7694099999999
 31
0.0
  0
LINE
  5
2FC5
  8
2-0
  6
CENTER2
 62
     6
 10
9696.0669209999924
 20
6205.2705050000022
 30
0.0
 11
9696.0669209999924
 21
7262.4131029999999
 31
0.0
  0
LINE
  5
2FC6
  8
2-0
  6
CENTER2
 62
     6
 10
12614.066920999991
 20
6205.2705050000022
 30
0.0
 11
12614.066920999991
 21
7262.4131029999999
 31
0.0
  0
LINE
  5
2FC7
  8
2-0
  6
CENTER2
 62
     6
 10
15532.066920999991
 20
6205.2705050000022
 30
0.0
 11
15532.066920999991
 21
7262.4131029999999
 31
0.0
  0
ARC
  5
2FC8
  8
0-1
  6
CONTINUOUS
 62
     3
 10
9480.7645819999907
 20
8638.1918779999978
 30
0.0
 40
2.5
 50
271.76798999988182
 51
91.767989999881877
  0
ARC
  5
2FC9
  8
0-1
  6
CONTINUOUS
 62
     3
 10
9479.3769399999946
 20
8683.1695100000015
 30
0.0
 40
2.5
 50
271.76798999988182
 51
91.767989999881877
  0
ARC
  5
2FCA
  8
0-1
  6
CONTINUOUS
 62
     3
 10
9478.0457129999886
 20
8677.6268579999978
 30
0.0
 40
3.0
 50
91.767989999881877
 51
181.7679900000058
  0
ARC
  5
2FCB
  8
0-1
  6
CONTINUOUS
 62
     3
 10
15659.56474299999
 20
8850.8070199999984
 30
0.0
 40
20.0
 50
271.76798999988182
 51
91.767989999881877
  0
ARC
  5
2FCC
  8
0-1
  6
CONTINUOUS
 62
     3
 10
9479.0958479999917
 20
8643.6434729999946
 30
0.0
 40
3.0
 50
181.7679900000058
 51
271.76798999988182
  0
ARC
  5
2FCD
  8
0-1
  6
CONTINUOUS
 62
     3
 10
15659.56474299999
 20
8850.8070199999984
 30
0.0
 40
24.999998999999999
 50
271.76798999988182
 51
91.767989999881877
  0
ARC
  5
2FCE
  8
0-1
  6
CONTINUOUS
 62
     3
 10
9479.4363249999915
 20
8632.6482369999976
 30
0.0
 40
3.0
 50
91.767989999881877
 51
181.7679900000058
  0
ARC
  5
2FCF
  8
0-1
  6
CONTINUOUS
 62
     3
 10
9482.4214389999943
 20
8600.7255299999979
 30
0.0
 40
5.0
 50
181.7679900000058
 51
271.76798999988182
  0
ARC
  5
2FD0
  8
0-1
  6
CONTINUOUS
 62
     3
 10
15654.567447999991
 20
8850.6526179999983
 30
0.0
 40
69.999999000000003
 50
293.5547790001263
 51
69.981200999909021
  0
ARC
  5
2FD1
  8
0-1
  6
CONTINUOUS
 62
     3
 10
9478.7197399999877
 20
8720.6675300000006
 30
0.0
 40
5.0
 50
91.767989999881877
 51
181.7679900000058
  0
ARC
  5
2FD2
  8
0-1
  6
CONTINUOUS
 62
     3
 10
9477.7062259999911
 20
8688.6211039999998
 30
0.0
 40
3.0
 50
181.7679900000058
 51
271.76798999988182
  0
TEXT
  5
2FD3
  8
0-5
  6
CONTINUOUS
 62
     7
 10
18457.442461999992
 20
6755.7701679999973
 30
0.0
 40
160.0
  1
G.L
 72
     4
 11
18617.442461999992
 21
6835.7701679999982
 31
0.0
  0
TEXT
  5
2FD4
  8
2-0
  6
CONTINUOUS
 62
     7
 10
11294.743520999989
 20
3506.7732069999979
 30
0.0
 40
160.0
  1
側 面 立 面 図
 72
     4
 11
11940.076854333331
 21
3586.7732069999979
 31
0.0
  0
TEXT
  5
2FD5
  8
2-0
  6
CONTINUOUS
 62
     7
 10
13291.56903947094
 20
3533.9685759999988
 30
0.0
 40
160.0
  1
1
 72
     4
 11
13318.23570613761
 21
3613.9685759999988
 31
0.0
  0
TEXT
  5
2FD6
  8
2-0
  6
CONTINUOUS
 62
     7
 10
13534.65775672165
 20
3453.9700439999988
 30
0.0
 40
160.0
  1
80
 72
     4
 11
13654.65775672165
 21
3533.9700439999988
 31
0.0
  0
TEXT
  5
2FD7
  8
2-0
  6
CONTINUOUS
 62
     7
 10
12792.571005470951
 20
3506.7732069999979
 30
0.0
 40
160.0
  1
(S=  /   )
 72
     4
 11
13352.571005470951
 21
3586.7732069999979
 31
0.0
  0
TEXT
  5
2FD8
  8
2-0
  6
CONTINUOUS
 62
     7
 10
21078.271616000009
 20
11601.604441999991
 30
0.0
 40
160.0
  1
平　面　図
 72
     4
 11
21531.604949333341
 21
11676.27110866666
 31
0.0
  0
TEXT
  5
2FD9
  8
2-0
  6
CONTINUOUS
 62
     7
 10
22883.097134470969
 20
11623.46647766667
 30
0.0
 40
160.0
  1
1
 72
     4
 11
22909.76380113764
 21
11703.46647766667
 31
0.0
  0
TEXT
  5
2FDA
  8
2-0
  6
CONTINUOUS
 62
     7
 10
23126.185851721671
 20
11543.467945666671
 30
0.0
 40
160.0
  1
80
 72
     4
 11
23246.185851721671
 21
11623.467945666671
 31
0.0
  0
TEXT
  5
2FDB
  8
2-0
  6
CONTINUOUS
 62
     7
 10
22384.099100470969
 20
11596.27110866666
 30
0.0
 40
160.0
  1
(S=  /   )
 72
     4
 11
22944.099100470969
 21
11676.27110866666
 31
0.0
  0
LINE
  5
2FDC
  8
2-0
  6
CONTINUOUS
 62
     6
 10
22089.404586000001
 20
13192.485129999999
 30
0.0
 11
23089.397987999961
 21
13192.485129999999
 31
0.0
  0
LINE
  5
2FDD
  8
2-0
  6
CONTINUOUS
 62
     6
 10
23557.338365
 20
13662.905844000001
 30
0.0
 11
23089.397987999961
 21
13192.485129999999
 31
0.0
  0
LINE
  5
2FDE
  8
2-0
  6
CONTINUOUS
 62
     6
 10
23518.698161999979
 20
16854.513491000002
 30
0.0
 11
23214.00274399999
 21
16958.16702200002
 31
0.0
  0
LINE
  5
2FDF
  8
2-0
  6
CONTINUOUS
 62
     6
 10
23673.72020099996
 20
16364.89144700002
 30
0.0
 11
23214.00274399999
 21
16120.978136000011
 31
0.0
  0
LINE
  5
2FE0
  8
2-0
  6
CONTINUOUS
 62
     6
 10
22293.999708999982
 20
16120.978136000011
 30
0.0
 11
23214.00274399999
 21
16120.978136000011
 31
0.0
  0
LINE
  5
2FE1
  8
2-0
  6
CONTINUOUS
 62
     6
 10
22014.008681999989
 20
16958.16702200002
 30
0.0
 11
23214.00274399999
 21
16958.16702200002
 31
0.0
  0
LINE
  5
2FE2
  8
2-0
  6
CONTINUOUS
 62
     6
 10
23589.897485999991
 20
13984.58948999998
 30
0.0
 11
23214.00274399999
 21
14165.533325
 31
0.0
  0
LINE
  5
2FE3
  8
2-0
  6
CONTINUOUS
 62
     6
 10
22694.001027999991
 20
14165.533325
 30
0.0
 11
23214.00274399999
 21
14165.533325
 31
0.0
  0
LINE
  5
2FE4
  8
2-0
  6
CONTINUOUS
 62
     4
 10
20854.563502000001
 20
19790.986780000021
 30
0.0
 11
20854.563502000001
 21
20520.983745000001
 31
0.0
  0
LINE
  5
2FE5
  8
2-0
  6
CONTINUOUS
 62
     3
 10
23785.064161999991
 20
19601.984326000009
 30
0.0
 11
23785.064161999991
 21
19595.988364000012
 31
0.0
  0
LINE
  5
2FE6
  8
2-0
  6
CONTINUOUS
 62
     3
 10
23785.064161999991
 20
19595.988364000012
 30
0.0
 11
23815.061785999991
 21
19595.988364000012
 31
0.0
  0
LINE
  5
2FE7
  8
2-0
  6
CONTINUOUS
 62
     3
 10
23815.061785999991
 20
19625.987968000001
 30
0.0
 11
23734.059885999981
 21
19625.987968000001
 31
0.0
  0
LINE
  5
2FE8
  8
2-0
  6
CONTINUOUS
 62
     3
 10
23785.064161999991
 20
19585.690908
 30
0.0
 11
23815.061785999991
 21
19585.690908
 31
0.0
  0
LINE
  5
2FE9
  8
2-0
  6
CONTINUOUS
 62
     3
 10
23785.064161999991
 20
19603.692650000001
 30
0.0
 11
23785.064161999991
 21
19585.690908
 31
0.0
  0
LINE
  5
2FEA
  8
2-0
  6
CONTINUOUS
 62
     3
 10
23810.061521999989
 20
19603.692650000001
 30
0.0
 11
23785.064161999991
 21
19603.692650000001
 31
0.0
  0
LINE
  5
2FEB
  8
2-0
  6
CONTINUOUS
 62
     3
 10
23810.061521999989
 20
19598.68446800001
 30
0.0
 11
23810.061521999989
 21
19603.692650000001
 31
0.0
  0
LINE
  5
2FEC
  8
2-0
  6
CONTINUOUS
 62
     3
 10
23803.059965
 20
19598.68446800001
 30
0.0
 11
23810.061521999989
 21
19598.68446800001
 31
0.0
  0
LINE
  5
2FED
  8
2-0
  6
CONTINUOUS
 62
     3
 10
23702.763696999991
 20
19698.984695000021
 30
0.0
 11
23702.763696999991
 21
19705.990211000011
 31
0.0
  0
LINE
  5
2FEE
  8
2-0
  6
CONTINUOUS
 62
     3
 10
23702.763696999991
 20
19705.990211000011
 30
0.0
 11
23707.763960999961
 21
19705.990211000011
 31
0.0
  0
LINE
  5
2FEF
  8
2-0
  6
CONTINUOUS
 62
     3
 10
23707.763960999961
 20
19705.990211000011
 30
0.0
 11
23707.763960999961
 21
19680.980973999998
 31
0.0
  0
LINE
  5
2FF0
  8
2-0
  6
CONTINUOUS
 62
     3
 10
23707.763960999961
 20
19680.980973999998
 30
0.0
 11
23689.762218999971
 21
19680.980973999998
 31
0.0
  0
LINE
  5
2FF1
  8
2-0
  6
CONTINUOUS
 62
     3
 10
23689.762218999971
 20
19680.980973999998
 30
0.0
 11
23689.762218999971
 21
19710.984537000011
 31
0.0
  0
LINE
  5
2FF2
  8
2-0
  6
CONTINUOUS
 62
     3
 10
23700.05967499999
 20
19710.984537000011
 30
0.0
 11
23815.061785999991
 21
19710.984537000011
 31
0.0
  0
LINE
  5
2FF3
  8
2-0
  6
CONTINUOUS
 62
     3
 10
23700.05967499999
 20
19680.980973999998
 30
0.0
 11
23700.05967499999
 21
19710.984537000011
 31
0.0
  0
LINE
  5
2FF4
  8
2-0
  6
CONTINUOUS
 62
     3
 10
23706.061574999982
 20
19680.980973999998
 30
0.0
 11
23700.05967499999
 21
19680.980973999998
 31
0.0
  0
LINE
  5
2FF5
  8
2-0
  6
CONTINUOUS
 62
     3
 10
23803.059965
 20
18894.887645499992
 30
0.0
 11
23810.061521999989
 21
18894.887645499992
 31
0.0
  0
LINE
  5
2FF6
  8
2-0
  6
CONTINUOUS
 62
     3
 10
23810.061521999989
 20
18894.887645499992
 30
0.0
 11
23810.061521999989
 21
18899.887909500001
 31
0.0
  0
LINE
  5
2FF7
  8
2-0
  6
CONTINUOUS
 62
     3
 10
23810.061521999989
 20
18899.887909500001
 30
0.0
 11
23785.064161999991
 21
18899.887909500001
 31
0.0
  0
LINE
  5
2FF8
  8
2-0
  6
CONTINUOUS
 62
     3
 10
23785.064161999991
 20
18899.887909500001
 30
0.0
 11
23785.064161999991
 21
18881.892105499999
 31
0.0
  0
LINE
  5
2FF9
  8
2-0
  6
CONTINUOUS
 62
     3
 10
23785.064161999991
 20
18881.892105499999
 30
0.0
 11
23815.061785999991
 21
18881.892105499999
 31
0.0
  0
LINE
  5
2FFA
  8
2-0
  6
CONTINUOUS
 62
     3
 10
23785.064161999991
 20
18897.98361249996
 30
0.0
 11
23785.064161999991
 21
18891.985671499999
 31
0.0
  0
LINE
  5
2FFB
  8
2-0
  6
CONTINUOUS
 62
     3
 10
23785.064161999991
 20
18891.985671499999
 30
0.0
 11
23815.061785999991
 21
18891.985671499999
 31
0.0
  0
LINE
  5
2FFC
  8
2-0
  6
CONTINUOUS
 62
     3
 10
23815.061785999991
 20
18891.985671499999
 30
0.0
 11
23815.061785999991
 21
18928.986832499992
 31
0.0
  0
LINE
  5
2FFD
  8
2-0
  6
CONTINUOUS
 62
     3
 10
23785.064161999991
 20
18928.986832499992
 30
0.0
 11
23815.061785999991
 21
18928.986832499992
 31
0.0
  0
LINE
  5
2FFE
  8
2-0
  6
CONTINUOUS
 62
     3
 10
23785.064161999991
 20
18922.982952499991
 30
0.0
 11
23785.064161999991
 21
18928.986832499992
 31
0.0
  0
LINE
  5
2FFF
  8
2-0
  6
CONTINUOUS
 62
     3
 10
23785.064161999991
 20
18939.082377499992
 30
0.0
 11
23815.061785999991
 21
18939.082377499992
 31
0.0
  0
LINE
  5
3000
  8
2-0
  6
CONTINUOUS
 62
     3
 10
23785.064161999991
 20
18921.080635499999
 30
0.0
 11
23785.064161999991
 21
18939.082377499992
 31
0.0
  0
LINE
  5
3001
  8
2-0
  6
CONTINUOUS
 62
     3
 10
23810.061521999989
 20
18921.080635499999
 30
0.0
 11
23785.064161999991
 21
18921.080635499999
 31
0.0
  0
LINE
  5
3002
  8
2-0
  6
CONTINUOUS
 62
     3
 10
23810.061521999989
 20
18926.080899500001
 30
0.0
 11
23810.061521999989
 21
18921.080635499999
 31
0.0
  0
LINE
  5
3003
  8
2-0
  6
CONTINUOUS
 62
     3
 10
23803.059965
 20
18926.080899500001
 30
0.0
 11
23810.061521999989
 21
18926.080899500001
 31
0.0
  0
LINE
  5
3004
  8
2-0
  6
CONTINUOUS
 62
     3
 10
23803.059965
 20
18193.886655999999
 30
0.0
 11
23810.061521999989
 21
18193.886655999999
 31
0.0
  0
LINE
  5
3005
  8
2-0
  6
CONTINUOUS
 62
     3
 10
23810.061521999989
 20
18193.886655999999
 30
0.0
 11
23810.061521999989
 21
18198.892857999999
 31
0.0
  0
LINE
  5
3006
  8
2-0
  6
CONTINUOUS
 62
     3
 10
23810.061521999989
 20
18198.892857999999
 30
0.0
 11
23785.064161999991
 21
18198.892857999999
 31
0.0
  0
LINE
  5
3007
  8
2-0
  6
CONTINUOUS
 62
     3
 10
23785.064161999991
 20
18198.892857999999
 30
0.0
 11
23785.064161999991
 21
18180.89111600001
 31
0.0
  0
LINE
  5
3008
  8
2-0
  6
CONTINUOUS
 62
     3
 10
23785.064161999991
 20
18180.89111600001
 30
0.0
 11
23815.061785999991
 21
18180.89111600001
 31
0.0
  0
LINE
  5
3009
  8
2-0
  6
CONTINUOUS
 62
     3
 10
23785.064161999991
 20
18196.982622999989
 30
0.0
 11
23785.064161999991
 21
18190.986660999999
 31
0.0
  0
LINE
  5
300A
  8
2-0
  6
CONTINUOUS
 62
     3
 10
23785.064161999991
 20
18190.986660999999
 30
0.0
 11
23815.061785999991
 21
18190.986660999999
 31
0.0
  0
LINE
  5
300B
  8
2-0
  6
CONTINUOUS
 62
     3
 10
23815.061785999991
 20
18190.986660999999
 30
0.0
 11
23815.061785999991
 21
18227.985842999991
 31
0.0
  0
LINE
  5
300C
  8
2-0
  6
CONTINUOUS
 62
     3
 10
23785.064161999991
 20
18227.985842999991
 30
0.0
 11
23815.061785999991
 21
18227.985842999991
 31
0.0
  0
LINE
  5
300D
  8
2-0
  6
CONTINUOUS
 62
     3
 10
23785.064161999991
 20
18221.989881000001
 30
0.0
 11
23785.064161999991
 21
18227.985842999991
 31
0.0
  0
LINE
  5
300E
  8
2-0
  6
CONTINUOUS
 62
     3
 10
23785.064161999991
 20
18238.08138800001
 30
0.0
 11
23815.061785999991
 21
18238.08138800001
 31
0.0
  0
LINE
  5
300F
  8
2-0
  6
CONTINUOUS
 62
     3
 10
23785.064161999991
 20
18220.079645999998
 30
0.0
 11
23785.064161999991
 21
18238.08138800001
 31
0.0
  0
LINE
  5
3010
  8
2-0
  6
CONTINUOUS
 62
     3
 10
23810.061521999989
 20
18220.079645999998
 30
0.0
 11
23785.064161999991
 21
18220.079645999998
 31
0.0
  0
LINE
  5
3011
  8
2-0
  6
CONTINUOUS
 62
     3
 10
23810.061521999989
 20
18225.085847999992
 30
0.0
 11
23810.061521999989
 21
18220.079645999998
 31
0.0
  0
LINE
  5
3012
  8
2-0
  6
CONTINUOUS
 62
     3
 10
23803.059965
 20
18225.085847999992
 30
0.0
 11
23810.061521999989
 21
18225.085847999992
 31
0.0
  0
LINE
  5
3013
  8
2-0
  6
CONTINUOUS
 62
     3
 10
23803.059965
 20
17524.07991
 30
0.0
 11
23810.061521999989
 21
17524.07991
 31
0.0
  0
LINE
  5
3014
  8
2-0
  6
CONTINUOUS
 62
     3
 10
23810.061521999989
 20
17524.07991
 30
0.0
 11
23810.061521999989
 21
17519.091522999999
 31
0.0
  0
LINE
  5
3015
  8
2-0
  6
CONTINUOUS
 62
     3
 10
23810.061521999989
 20
17519.091522999999
 30
0.0
 11
23785.064161999991
 21
17519.091522999999
 31
0.0
  0
LINE
  5
3016
  8
2-0
  6
CONTINUOUS
 62
     3
 10
23785.064161999991
 20
17519.091522999999
 30
0.0
 11
23785.064161999991
 21
17537.087326000001
 31
0.0
  0
LINE
  5
3017
  8
2-0
  6
CONTINUOUS
 62
     3
 10
23785.064161999991
 20
17537.087326000001
 30
0.0
 11
23815.061785999991
 21
17537.087326000001
 31
0.0
  0
LINE
  5
3018
  8
2-0
  6
CONTINUOUS
 62
     3
 10
23785.064161999991
 20
17520.989881000001
 30
0.0
 11
23785.064161999991
 21
17526.985842999999
 31
0.0
  0
LINE
  5
3019
  8
2-0
  6
CONTINUOUS
 62
     3
 10
23785.064161999991
 20
17526.985842999999
 30
0.0
 11
23815.061785999991
 21
17526.985842999999
 31
0.0
  0
LINE
  5
301A
  8
2-0
  6
CONTINUOUS
 62
     3
 10
23815.061785999991
 20
17526.985842999999
 30
0.0
 11
23815.061785999991
 21
17489.98666100001
 31
0.0
  0
LINE
  5
301B
  8
2-0
  6
CONTINUOUS
 62
     3
 10
23785.064161999991
 20
17489.98666100001
 30
0.0
 11
23815.061785999991
 21
17489.98666100001
 31
0.0
  0
LINE
  5
301C
  8
2-0
  6
CONTINUOUS
 62
     3
 10
23785.064161999991
 20
17495.988561999991
 30
0.0
 11
23785.064161999991
 21
17489.98666100001
 31
0.0
  0
LINE
  5
301D
  8
2-0
  6
CONTINUOUS
 62
     3
 10
23785.064161999991
 20
17479.897055000001
 30
0.0
 11
23815.061785999991
 21
17479.897055000001
 31
0.0
  0
LINE
  5
301E
  8
2-0
  6
CONTINUOUS
 62
     3
 10
23785.064161999991
 20
17497.892857999988
 30
0.0
 11
23785.064161999991
 21
17479.897055000001
 31
0.0
  0
LINE
  5
301F
  8
2-0
  6
CONTINUOUS
 62
     3
 10
23810.061521999989
 20
17497.892857999988
 30
0.0
 11
23785.064161999991
 21
17497.892857999988
 31
0.0
  0
LINE
  5
3020
  8
2-0
  6
CONTINUOUS
 62
     3
 10
23810.061521999989
 20
17492.892595000001
 30
0.0
 11
23810.061521999989
 21
17497.892857999988
 31
0.0
  0
LINE
  5
3021
  8
2-0
  6
CONTINUOUS
 62
     3
 10
23803.059965
 20
17492.892595000001
 30
0.0
 11
23810.061521999989
 21
17492.892595000001
 31
0.0
  0
LINE
  5
3022
  8
2-0
  6
CONTINUOUS
 62
     3
 10
23812.175648
 20
16772.983480999999
 30
0.0
 11
23812.175648
 21
16792.984536
 31
0.0
  0
LINE
  5
3023
  8
2-0
  6
CONTINUOUS
 62
     3
 10
23812.175648
 20
16792.984536
 30
0.0
 11
23727.17907899999
 21
16792.984536
 31
0.0
  0
LINE
  5
3024
  8
2-0
  6
CONTINUOUS
 62
     3
 10
23803.059965
 20
16819.591246
 30
0.0
 11
23810.061521999989
 21
16819.591246
 31
0.0
  0
LINE
  5
3025
  8
2-0
  6
CONTINUOUS
 62
     3
 10
23810.061521999989
 20
16819.591246
 30
0.0
 11
23810.061521999989
 21
16814.596920000011
 31
0.0
  0
LINE
  5
3026
  8
2-0
  6
CONTINUOUS
 62
     3
 10
23810.061521999989
 20
16814.596920000011
 30
0.0
 11
23785.064161999991
 21
16814.596920000011
 31
0.0
  0
LINE
  5
3027
  8
2-0
  6
CONTINUOUS
 62
     3
 10
23785.064161999991
 20
16814.596920000011
 30
0.0
 11
23785.064161999991
 21
16832.592723999991
 31
0.0
  0
LINE
  5
3028
  8
2-0
  6
CONTINUOUS
 62
     3
 10
23785.064161999991
 20
16832.592723999991
 30
0.0
 11
23815.061785999991
 21
16832.592723999991
 31
0.0
  0
LINE
  5
3029
  8
2-0
  6
CONTINUOUS
 62
     3
 10
23785.064161999991
 20
16822.98413999999
 30
0.0
 11
23785.064161999991
 21
16816.982240000001
 31
0.0
  0
LINE
  5
302A
  8
2-0
  6
CONTINUOUS
 62
     3
 10
23815.061785999991
 20
16822.98413999999
 30
0.0
 11
23785.064161999991
 21
16822.98413999999
 31
0.0
  0
LINE
  5
302B
  8
2-0
  6
CONTINUOUS
 62
     3
 10
23815.061785999991
 20
16832.592723999991
 30
0.0
 11
23815.061785999991
 21
17479.897055000001
 31
0.0
  0
LINE
  5
302C
  8
2-0
  6
CONTINUOUS
 62
     3
 10
23815.061785999991
 20
17537.087326000001
 30
0.0
 11
23815.061785999991
 21
18180.89111600001
 31
0.0
  0
LINE
  5
302D
  8
2-0
  6
CONTINUOUS
 62
     3
 10
23815.061785999991
 20
16677.982424999991
 30
0.0
 11
23785.064161999991
 21
16677.982424999991
 31
0.0
  0
LINE
  5
302E
  8
2-0
  6
CONTINUOUS
 62
     3
 10
23785.064161999991
 20
16677.982424999991
 30
0.0
 11
23785.064161999991
 21
16683.984325000001
 31
0.0
  0
LINE
  5
302F
  8
2-0
  6
CONTINUOUS
 62
     3
 10
23727.17907899999
 20
16707.987968000001
 30
0.0
 11
23812.175648
 21
16707.987968000001
 31
0.0
  0
LINE
  5
3030
  8
2-0
  6
CONTINUOUS
 62
     3
 10
23812.175648
 20
16707.987968000001
 30
0.0
 11
23812.175648
 21
16727.983085000011
 31
0.0
  0
LINE
  5
3031
  8
2-0
  6
CONTINUOUS
 62
     3
 10
23785.064161999991
 20
16668.373842000012
 30
0.0
 11
23815.061785999991
 21
16668.373842000012
 31
0.0
  0
LINE
  5
3032
  8
2-0
  6
CONTINUOUS
 62
     3
 10
23785.064161999991
 20
16686.369644999992
 30
0.0
 11
23785.064161999991
 21
16668.373842000012
 31
0.0
  0
LINE
  5
3033
  8
2-0
  6
CONTINUOUS
 62
     3
 10
23810.061521999989
 20
16686.369644999992
 30
0.0
 11
23785.064161999991
 21
16686.369644999992
 31
0.0
  0
LINE
  5
3034
  8
2-0
  6
CONTINUOUS
 62
     3
 10
23810.061521999989
 20
16681.369381000011
 30
0.0
 11
23810.061521999989
 21
16686.369644999992
 31
0.0
  0
LINE
  5
3035
  8
2-0
  6
CONTINUOUS
 62
     3
 10
23803.059965
 20
16681.369381000011
 30
0.0
 11
23810.061521999989
 21
16681.369381000011
 31
0.0
  0
LINE
  5
3036
  8
2-0
  6
CONTINUOUS
 62
     3
 10
23803.059965
 20
15976.887150499981
 30
0.0
 11
23810.061521999989
 21
15976.887150499981
 31
0.0
  0
LINE
  5
3037
  8
2-0
  6
CONTINUOUS
 62
     3
 10
23810.061521999989
 20
15976.887150499981
 30
0.0
 11
23810.061521999989
 21
15981.88741449999
 31
0.0
  0
LINE
  5
3038
  8
2-0
  6
CONTINUOUS
 62
     3
 10
23810.061521999989
 20
15981.88741449999
 30
0.0
 11
23785.064161999991
 21
15981.88741449999
 31
0.0
  0
LINE
  5
3039
  8
2-0
  6
CONTINUOUS
 62
     3
 10
23785.064161999991
 20
15981.88741449999
 30
0.0
 11
23785.064161999991
 21
15963.885672500001
 31
0.0
  0
LINE
  5
303A
  8
2-0
  6
CONTINUOUS
 62
     3
 10
23785.064161999991
 20
15963.885672500001
 30
0.0
 11
23815.061785999991
 21
15963.885672500001
 31
0.0
  0
LINE
  5
303B
  8
2-0
  6
CONTINUOUS
 62
     3
 10
23785.064161999991
 20
15979.9831175
 30
0.0
 11
23785.064161999991
 21
15973.986166500001
 31
0.0
  0
LINE
  5
303C
  8
2-0
  6
CONTINUOUS
 62
     3
 10
23785.064161999991
 20
15973.986166500001
 30
0.0
 11
23815.061785999991
 21
15973.986166500001
 31
0.0
  0
LINE
  5
303D
  8
2-0
  6
CONTINUOUS
 62
     3
 10
23815.061785999991
 20
15973.986166500001
 30
0.0
 11
23815.061785999991
 21
16010.9863375
 31
0.0
  0
LINE
  5
303E
  8
2-0
  6
CONTINUOUS
 62
     3
 10
23785.064161999991
 20
16010.9863375
 30
0.0
 11
23815.061785999991
 21
16010.9863375
 31
0.0
  0
LINE
  5
303F
  8
2-0
  6
CONTINUOUS
 62
     3
 10
23785.064161999991
 20
16004.983447500001
 30
0.0
 11
23785.064161999991
 21
16010.9863375
 31
0.0
  0
LINE
  5
3040
  8
2-0
  6
CONTINUOUS
 62
     3
 10
23785.064161999991
 20
16021.081882500001
 30
0.0
 11
23815.061785999991
 21
16021.081882500001
 31
0.0
  0
LINE
  5
3041
  8
2-0
  6
CONTINUOUS
 62
     3
 10
23785.064161999991
 20
16003.074201499991
 30
0.0
 11
23785.064161999991
 21
16021.081882500001
 31
0.0
  0
LINE
  5
3042
  8
2-0
  6
CONTINUOUS
 62
     3
 10
23810.061521999989
 20
16003.074201499991
 30
0.0
 11
23785.064161999991
 21
16003.074201499991
 31
0.0
  0
LINE
  5
3043
  8
2-0
  6
CONTINUOUS
 62
     3
 10
23810.061521999989
 20
16008.0804045
 30
0.0
 11
23810.061521999989
 21
16003.074201499991
 31
0.0
  0
LINE
  5
3044
  8
2-0
  6
CONTINUOUS
 62
     3
 10
23803.059965
 20
16008.0804045
 30
0.0
 11
23810.061521999989
 21
16008.0804045
 31
0.0
  0
LINE
  5
3045
  8
2-0
  6
CONTINUOUS
 62
     3
 10
23803.059965
 20
15307.320421
 30
0.0
 11
23810.061521999989
 21
15307.320421
 31
0.0
  0
LINE
  5
3046
  8
2-0
  6
CONTINUOUS
 62
     3
 10
23810.061521999989
 20
15307.320421
 30
0.0
 11
23810.061521999989
 21
15302.326096000001
 31
0.0
  0
LINE
  5
3047
  8
2-0
  6
CONTINUOUS
 62
     3
 10
23810.061521999989
 20
15302.326096000001
 30
0.0
 11
23785.064161999991
 21
15302.326096000001
 31
0.0
  0
LINE
  5
3048
  8
2-0
  6
CONTINUOUS
 62
     3
 10
23785.064161999991
 20
15302.326096000001
 30
0.0
 11
23785.064161999991
 21
15320.32189900001
 31
0.0
  0
LINE
  5
3049
  8
2-0
  6
CONTINUOUS
 62
     3
 10
23785.064161999991
 20
15320.32189900001
 30
0.0
 11
23815.061785999991
 21
15320.32189900001
 31
0.0
  0
LINE
  5
304A
  8
2-0
  6
CONTINUOUS
 62
     3
 10
23785.064161999991
 20
15304.22445400001
 30
0.0
 11
23785.064161999991
 21
15310.226354
 31
0.0
  0
LINE
  5
304B
  8
2-0
  6
CONTINUOUS
 62
     3
 10
23785.064161999991
 20
15310.226354
 30
0.0
 11
23815.061785999991
 21
15310.226354
 31
0.0
  0
LINE
  5
304C
  8
2-0
  6
CONTINUOUS
 62
     3
 10
23815.061785999991
 20
15273.22717300001
 30
0.0
 11
23815.061785999991
 21
15310.226354
 31
0.0
  0
LINE
  5
304D
  8
2-0
  6
CONTINUOUS
 62
     3
 10
23785.064161999991
 20
15273.22717300001
 30
0.0
 11
23815.061785999991
 21
15273.22717300001
 31
0.0
  0
LINE
  5
304E
  8
2-0
  6
CONTINUOUS
 62
     3
 10
23785.064161999991
 20
15279.224124
 30
0.0
 11
23785.064161999991
 21
15273.22717300001
 31
0.0
  0
LINE
  5
304F
  8
2-0
  6
CONTINUOUS
 62
     3
 10
23785.064161999991
 20
15263.12568899999
 30
0.0
 11
23815.061785999991
 21
15263.12568899999
 31
0.0
  0
LINE
  5
3050
  8
2-0
  6
CONTINUOUS
 62
     3
 10
23785.064161999991
 20
15281.13336999999
 30
0.0
 11
23785.064161999991
 21
15263.12568899999
 31
0.0
  0
LINE
  5
3051
  8
2-0
  6
CONTINUOUS
 62
     3
 10
23810.061521999989
 20
15281.13336999999
 30
0.0
 11
23785.064161999991
 21
15281.13336999999
 31
0.0
  0
LINE
  5
3052
  8
2-0
  6
CONTINUOUS
 62
     3
 10
23810.061521999989
 20
15276.133106000019
 30
0.0
 11
23810.061521999989
 21
15281.13336999999
 31
0.0
  0
LINE
  5
3053
  8
2-0
  6
CONTINUOUS
 62
     3
 10
23803.059965
 20
15276.133106000019
 30
0.0
 11
23810.061521999989
 21
15276.133106000019
 31
0.0
  0
LINE
  5
3054
  8
2-0
  6
CONTINUOUS
 62
     3
 10
23815.061785999991
 20
16668.373842000012
 30
0.0
 11
23815.061785999991
 21
16021.081882500001
 31
0.0
  0
LINE
  5
3055
  8
2-0
  6
CONTINUOUS
 62
     3
 10
23815.061785999991
 20
16822.98413999999
 30
0.0
 11
23815.061785999991
 21
16677.982424999991
 31
0.0
  0
LINE
  5
3056
  8
2-0
  6
CONTINUOUS
 62
     3
 10
23727.17907899999
 20
16792.984536
 30
0.0
 11
23727.17907899999
 21
16707.987968000001
 31
0.0
  0
LINE
  5
3057
  8
2-0
  6
CONTINUOUS
 62
     6
 10
22188.970411999991
 20
18561.431801499992
 30
0.0
 11
23214.00274399999
 21
18561.431801499992
 31
0.0
  0
LINE
  5
3058
  8
2-0
  6
CONTINUOUS
 62
     3
 10
23803.059965
 20
14574.892099000001
 30
0.0
 11
23810.061521999989
 21
14574.892099000001
 31
0.0
  0
LINE
  5
3059
  8
2-0
  6
CONTINUOUS
 62
     3
 10
23810.061521999989
 20
14574.892099000001
 30
0.0
 11
23810.061521999989
 21
14579.886425000001
 31
0.0
  0
LINE
  5
305A
  8
2-0
  6
CONTINUOUS
 62
     3
 10
23810.061521999989
 20
14579.886425000001
 30
0.0
 11
23785.064161999991
 21
14579.886425000001
 31
0.0
  0
LINE
  5
305B
  8
2-0
  6
CONTINUOUS
 62
     3
 10
23785.064161999991
 20
14579.886425000001
 30
0.0
 11
23785.064161999991
 21
14561.890621
 31
0.0
  0
LINE
  5
305C
  8
2-0
  6
CONTINUOUS
 62
     3
 10
23785.064161999991
 20
14561.890621
 30
0.0
 11
23815.061785999991
 21
14561.890621
 31
0.0
  0
LINE
  5
305D
  8
2-0
  6
CONTINUOUS
 62
     3
 10
23785.064161999991
 20
14577.989056
 30
0.0
 11
23785.064161999991
 21
14571.98616600001
 31
0.0
  0
LINE
  5
305E
  8
2-0
  6
CONTINUOUS
 62
     3
 10
23785.064161999991
 20
14571.98616600001
 30
0.0
 11
23815.061785999991
 21
14571.98616600001
 31
0.0
  0
LINE
  5
305F
  8
2-0
  6
CONTINUOUS
 62
     3
 10
23815.061785999991
 20
14571.98616600001
 30
0.0
 11
23815.061785999991
 21
14608.986337999981
 31
0.0
  0
LINE
  5
3060
  8
2-0
  6
CONTINUOUS
 62
     3
 10
23785.064161999991
 20
14608.986337999981
 30
0.0
 11
23815.061785999991
 21
14608.986337999981
 31
0.0
  0
LINE
  5
3061
  8
2-0
  6
CONTINUOUS
 62
     3
 10
23785.064161999991
 20
14602.98938599999
 30
0.0
 11
23785.064161999991
 21
14608.986337999981
 31
0.0
  0
LINE
  5
3062
  8
2-0
  6
CONTINUOUS
 62
     3
 10
23785.064161999991
 20
14619.086831000001
 30
0.0
 11
23815.061785999991
 21
14619.086831000001
 31
0.0
  0
LINE
  5
3063
  8
2-0
  6
CONTINUOUS
 62
     3
 10
23785.064161999991
 20
14601.08014
 30
0.0
 11
23785.064161999991
 21
14619.086831000001
 31
0.0
  0
LINE
  5
3064
  8
2-0
  6
CONTINUOUS
 62
     3
 10
23810.061521999989
 20
14601.08014
 30
0.0
 11
23785.064161999991
 21
14601.08014
 31
0.0
  0
LINE
  5
3065
  8
2-0
  6
CONTINUOUS
 62
     3
 10
23810.061521999989
 20
14606.085353
 30
0.0
 11
23810.061521999989
 21
14601.08014
 31
0.0
  0
LINE
  5
3066
  8
2-0
  6
CONTINUOUS
 62
     3
 10
23803.059965
 20
14606.085353
 30
0.0
 11
23810.061521999989
 21
14606.085353
 31
0.0
  0
LINE
  5
3067
  8
2-0
  6
CONTINUOUS
 62
     3
 10
23785.064161999991
 20
13898.988179
 30
0.0
 11
23785.064161999991
 21
13904.993047999989
 31
0.0
  0
LINE
  5
3068
  8
2-0
  6
CONTINUOUS
 62
     3
 10
23785.064161999991
 20
13904.993047999989
 30
0.0
 11
23815.061785999991
 21
13904.993047999989
 31
0.0
  0
LINE
  5
3069
  8
2-0
  6
CONTINUOUS
 62
     3
 10
23815.061785999991
 20
13904.993047999989
 30
0.0
 11
23815.061785999991
 21
13789.988957
 31
0.0
  0
LINE
  5
306A
  8
2-0
  6
CONTINUOUS
 62
     3
 10
23815.061785999991
 20
13789.988957
 30
0.0
 11
23730.063237999992
 21
13789.988957
 31
0.0
  0
LINE
  5
306B
  8
2-0
  6
CONTINUOUS
 62
     3
 10
23730.063237999992
 20
13789.988957
 30
0.0
 11
23730.063237999992
 21
13874.984536
 31
0.0
  0
LINE
  5
306C
  8
2-0
  6
CONTINUOUS
 62
     3
 10
23730.063237999992
 20
13874.984536
 30
0.0
 11
23762.062155999989
 21
13874.984536
 31
0.0
  0
LINE
  5
306D
  8
2-0
  6
CONTINUOUS
 62
     3
 10
23803.059965
 20
13902.022781
 30
0.0
 11
23810.061521999989
 21
13902.022781
 31
0.0
  0
LINE
  5
306E
  8
2-0
  6
CONTINUOUS
 62
     3
 10
23810.061521999989
 20
13902.022781
 30
0.0
 11
23810.061521999989
 21
13897.02548599998
 31
0.0
  0
LINE
  5
306F
  8
2-0
  6
CONTINUOUS
 62
     3
 10
23810.061521999989
 20
13897.02548599998
 30
0.0
 11
23785.064161999991
 21
13897.02548599998
 31
0.0
  0
LINE
  5
3070
  8
2-0
  6
CONTINUOUS
 62
     3
 10
23785.064161999991
 20
13897.02548599998
 30
0.0
 11
23785.064161999991
 21
13915.024258999991
 31
0.0
  0
LINE
  5
3071
  8
2-0
  6
CONTINUOUS
 62
     3
 10
23785.064161999991
 20
13915.024258999991
 30
0.0
 11
23815.061785999991
 21
13915.024258999991
 31
0.0
  0
LINE
  5
3072
  8
2-0
  6
CENTER2
 62
     6
 10
23772.563502000001
 20
13592.49139899999
 30
0.0
 11
23772.563502000001
 21
14748.360157000019
 31
0.0
  0
LINE
  5
3073
  8
2-0
  6
CONTINUOUS
 62
     3
 10
23815.061785999991
 20
18238.08138800001
 30
0.0
 11
23815.061785999991
 21
18881.892105499999
 31
0.0
  0
LINE
  5
3074
  8
2-0
  6
CONTINUOUS
 62
     6
 10
24507.566668999982
 20
20440.987440000012
 30
0.0
 11
25707.560730999961
 21
20440.987440000012
 31
0.0
  0
LINE
  5
3075
  8
2-0
  6
CONTINUOUS
 62
     6
 10
23645.533835999981
 20
18803.586309499991
 30
0.0
 11
23214.00274399999
 21
18561.431801499992
 31
0.0
  0
LINE
  5
3076
  8
2-0
  6
CONTINUOUS
 62
     6
 10
23967.10266999996
 20
19853.664277000022
 30
0.0
 11
24507.566668999982
 21
20440.987440000012
 31
0.0
  0
LINE
  5
3077
  8
2-0
  6
CONTINUOUS
 62
     3
 10
23815.061785999991
 20
15963.885672500001
 30
0.0
 11
23815.061785999991
 21
15320.32189900001
 31
0.0
  0
LINE
  5
3078
  8
2-0
  6
CONTINUOUS
 62
     6
 10
23632.47693099999
 20
18826.84565349999
 30
0.0
 11
23785.064161999991
 21
18881.892105499999
 31
0.0
  0
LINE
  5
3079
  8
2-0
  6
CONTINUOUS
 62
     6
 10
23785.064161999991
 20
18881.892105499999
 30
0.0
 11
23658.582821999989
 21
18780.332905499981
 31
0.0
  0
LINE
  5
307A
  8
2-0
  6
CONTINUOUS
 62
     6
 10
23632.47693099999
 20
18826.84565349999
 30
0.0
 11
23658.582821999989
 21
18780.332905499981
 31
0.0
  0
LINE
  5
307B
  8
2-0
  6
CONTINUOUS
 62
     6
 10
23658.582821999989
 20
18780.332905499981
 30
0.0
 11
23785.064161999991
 21
18881.892105499999
 31
0.0
  0
LINE
  5
307C
  8
2-0
  6
CONTINUOUS
 62
     6
 10
23785.064161999991
 20
18881.892105499999
 30
0.0
 11
23632.47693099999
 21
18826.84565349999
 31
0.0
  0
LINE
  5
307D
  8
2-0
  6
CONTINUOUS
 62
     6
 10
23632.47693099999
 20
18826.84565349999
 30
0.0
 11
23785.064161999991
 21
18881.892105499999
 31
0.0
  0
LINE
  5
307E
  8
2-0
  6
CONTINUOUS
 62
     6
 10
23658.582821999989
 20
18780.332905499981
 30
0.0
 11
23785.064161999991
 21
18881.892105499999
 31
0.0
  0
LINE
  5
307F
  8
2-0
  6
CONTINUOUS
 62
     6
 10
23658.582821999989
 20
18780.332905499981
 30
0.0
 11
23632.47693099999
 21
18826.84565349999
 31
0.0
  0
LINE
  5
3080
  8
2-0
  6
CONTINUOUS
 62
     6
 10
23986.71969899999
 20
19835.603150000021
 30
0.0
 11
23858.757678999991
 21
19735.920532000011
 31
0.0
  0
LINE
  5
3081
  8
2-0
  6
CONTINUOUS
 62
     6
 10
23858.757678999991
 20
19735.920532000011
 30
0.0
 11
23947.471783999979
 21
19871.717487000009
 31
0.0
  0
LINE
  5
3082
  8
2-0
  6
CONTINUOUS
 62
     6
 10
23986.71969899999
 20
19835.603150000021
 30
0.0
 11
23947.471783999979
 21
19871.717487000009
 31
0.0
  0
LINE
  5
3083
  8
2-0
  6
CONTINUOUS
 62
     6
 10
23947.471783999979
 20
19871.717487000009
 30
0.0
 11
23858.757678999991
 21
19735.920532000011
 31
0.0
  0
LINE
  5
3084
  8
2-0
  6
CONTINUOUS
 62
     6
 10
23858.757678999991
 20
19735.920532000011
 30
0.0
 11
23986.71969899999
 21
19835.603150000021
 31
0.0
  0
LINE
  5
3085
  8
2-0
  6
CONTINUOUS
 62
     6
 10
23986.71969899999
 20
19835.603150000021
 30
0.0
 11
23858.757678999991
 21
19735.920532000011
 31
0.0
  0
LINE
  5
3086
  8
2-0
  6
CONTINUOUS
 62
     6
 10
23947.471783999979
 20
19871.717487000009
 30
0.0
 11
23858.757678999991
 21
19735.920532000011
 31
0.0
  0
LINE
  5
3087
  8
2-0
  6
CONTINUOUS
 62
     6
 10
23947.471783999979
 20
19871.717487000009
 30
0.0
 11
23986.71969899999
 21
19835.603150000021
 31
0.0
  0
LINE
  5
3088
  8
2-0
  6
CONTINUOUS
 62
     4
 10
20854.563502000001
 20
19790.986780000021
 30
0.0
 11
20854.563502000001
 21
20520.983745000001
 31
0.0
  0
LINE
  5
3089
  8
2-0
  6
CONTINUOUS
 62
     6
 10
23538.424064999988
 20
13681.716218999991
 30
0.0
 11
23670.170923999991
 21
13776.343145999999
 31
0.0
  0
LINE
  5
308A
  8
2-0
  6
CONTINUOUS
 62
     6
 10
23670.170923999991
 20
13776.343145999999
 30
0.0
 11
23576.240787999988
 21
13644.10437599999
 31
0.0
  0
LINE
  5
308B
  8
2-0
  6
CONTINUOUS
 62
     6
 10
23538.424064999988
 20
13681.716218999991
 30
0.0
 11
23576.240787999988
 21
13644.10437599999
 31
0.0
  0
LINE
  5
308C
  8
2-0
  6
CONTINUOUS
 62
     6
 10
23576.240787999988
 20
13644.10437599999
 30
0.0
 11
23670.170923999991
 21
13776.343145999999
 31
0.0
  0
LINE
  5
308D
  8
2-0
  6
CONTINUOUS
 62
     6
 10
23670.170923999991
 20
13776.343145999999
 30
0.0
 11
23538.424064999988
 21
13681.716218999991
 31
0.0
  0
LINE
  5
308E
  8
2-0
  6
CONTINUOUS
 62
     6
 10
23538.424064999988
 20
13681.716218999991
 30
0.0
 11
23670.170923999991
 21
13776.343145999999
 31
0.0
  0
LINE
  5
308F
  8
2-0
  6
CONTINUOUS
 62
     6
 10
23576.240787999988
 20
13644.10437599999
 30
0.0
 11
23670.170923999991
 21
13776.343145999999
 31
0.0
  0
LINE
  5
3090
  8
2-0
  6
CONTINUOUS
 62
     6
 10
23576.240787999988
 20
13644.10437599999
 30
0.0
 11
23538.424064999988
 21
13681.716218999991
 31
0.0
  0
LINE
  5
3091
  8
2-0
  6
CONTINUOUS
 62
     6
 10
23601.45985399999
 20
14008.620845999991
 30
0.0
 11
23734.059885999981
 21
13915.192517999991
 31
0.0
  0
LINE
  5
3092
  8
2-0
  6
CONTINUOUS
 62
     6
 10
23734.059885999981
 20
13915.192517999991
 30
0.0
 11
23578.327199999982
 21
13960.568031999999
 31
0.0
  0
LINE
  5
3093
  8
2-0
  6
CONTINUOUS
 62
     6
 10
23601.45985399999
 20
14008.620845999991
 30
0.0
 11
23578.327199999982
 21
13960.568031999999
 31
0.0
  0
LINE
  5
3094
  8
2-0
  6
CONTINUOUS
 62
     6
 10
23578.327199999982
 20
13960.568031999999
 30
0.0
 11
23734.059885999981
 21
13915.192517999991
 31
0.0
  0
LINE
  5
3095
  8
2-0
  6
CONTINUOUS
 62
     6
 10
23734.059885999981
 20
13915.192517999991
 30
0.0
 11
23601.45985399999
 21
14008.620845999991
 31
0.0
  0
LINE
  5
3096
  8
2-0
  6
CONTINUOUS
 62
     6
 10
23601.45985399999
 20
14008.620845999991
 30
0.0
 11
23734.059885999981
 21
13915.192517999991
 31
0.0
  0
LINE
  5
3097
  8
2-0
  6
CONTINUOUS
 62
     6
 10
23578.327199999982
 20
13960.568031999999
 30
0.0
 11
23734.059885999981
 21
13915.192517999991
 31
0.0
  0
LINE
  5
3098
  8
2-0
  6
CONTINUOUS
 62
     6
 10
23578.327199999982
 20
13960.568031999999
 30
0.0
 11
23601.45985399999
 21
14008.620845999991
 31
0.0
  0
LINE
  5
3099
  8
2-0
  6
CONTINUOUS
 62
     6
 10
23661.223499999989
 20
16388.441779000019
 30
0.0
 11
23815.061785999991
 21
16439.875610000021
 31
0.0
  0
LINE
  5
309A
  8
2-0
  6
CONTINUOUS
 62
     6
 10
23815.061785999991
 20
16439.875610000021
 30
0.0
 11
23686.22679899996
 21
16341.33517500002
 31
0.0
  0
LINE
  5
309B
  8
2-0
  6
CONTINUOUS
 62
     6
 10
23661.223499999989
 20
16388.441779000019
 30
0.0
 11
23686.22679899996
 21
16341.33517500002
 31
0.0
  0
LINE
  5
309C
  8
2-0
  6
CONTINUOUS
 62
     6
 10
23686.22679899996
 20
16341.33517500002
 30
0.0
 11
23815.061785999991
 21
16439.875610000021
 31
0.0
  0
LINE
  5
309D
  8
2-0
  6
CONTINUOUS
 62
     6
 10
23815.061785999991
 20
16439.875610000021
 30
0.0
 11
23661.223499999989
 21
16388.441779000019
 31
0.0
  0
LINE
  5
309E
  8
2-0
  6
CONTINUOUS
 62
     6
 10
23661.223499999989
 20
16388.441779000019
 30
0.0
 11
23815.061785999991
 21
16439.875610000021
 31
0.0
  0
LINE
  5
309F
  8
2-0
  6
CONTINUOUS
 62
     6
 10
23686.22679899996
 20
16341.33517500002
 30
0.0
 11
23815.061785999991
 21
16439.875610000021
 31
0.0
  0
LINE
  5
30A0
  8
2-0
  6
CONTINUOUS
 62
     6
 10
23686.22679899996
 20
16341.33517500002
 30
0.0
 11
23661.223499999989
 21
16388.441779000019
 31
0.0
  0
LINE
  5
30A1
  8
2-0
  6
CONTINUOUS
 62
     6
 10
23527.287292999979
 20
16879.76027100001
 30
0.0
 11
23670.170923999991
 21
16802.984641999999
 31
0.0
  0
LINE
  5
30A2
  8
2-0
  6
CONTINUOUS
 62
     6
 10
23670.170923999991
 20
16802.984641999999
 30
0.0
 11
23510.109030999982
 21
16829.266711000011
 31
0.0
  0
LINE
  5
30A3
  8
2-0
  6
CONTINUOUS
 62
     6
 10
23527.287292999979
 20
16879.76027100001
 30
0.0
 11
23510.109030999982
 21
16829.266711000011
 31
0.0
  0
LINE
  5
30A4
  8
2-0
  6
CONTINUOUS
 62
     6
 10
23510.109030999982
 20
16829.266711000011
 30
0.0
 11
23670.170923999991
 21
16802.984641999999
 31
0.0
  0
LINE
  5
30A5
  8
2-0
  6
CONTINUOUS
 62
     6
 10
23670.170923999991
 20
16802.984641999999
 30
0.0
 11
23527.287292999979
 21
16879.76027100001
 31
0.0
  0
LINE
  5
30A6
  8
2-0
  6
CONTINUOUS
 62
     6
 10
23527.287292999979
 20
16879.76027100001
 30
0.0
 11
23670.170923999991
 21
16802.984641999999
 31
0.0
  0
LINE
  5
30A7
  8
2-0
  6
CONTINUOUS
 62
     6
 10
23510.109030999982
 20
16829.266711000011
 30
0.0
 11
23670.170923999991
 21
16802.984641999999
 31
0.0
  0
LINE
  5
30A8
  8
2-0
  6
CONTINUOUS
 62
     6
 10
23510.109030999982
 20
16829.266711000011
 30
0.0
 11
23527.287292999979
 21
16879.76027100001
 31
0.0
  0
LINE
  5
30A9
  8
2-0
  6
CONTINUOUS
 62
     3
 10
20842.064821999989
 20
19601.984326000009
 30
0.0
 11
20842.064821999989
 21
19595.988364000012
 31
0.0
  0
LINE
  5
30AA
  8
2-0
  6
CONTINUOUS
 62
     3
 10
20842.064821999989
 20
19595.988364000012
 30
0.0
 11
20812.067196999989
 21
19595.988364000012
 31
0.0
  0
LINE
  5
30AB
  8
2-0
  6
CONTINUOUS
 62
     3
 10
20812.067196999989
 20
19595.988364000012
 30
0.0
 11
20812.067196999989
 21
19710.984537000011
 31
0.0
  0
LINE
  5
30AC
  8
2-0
  6
CONTINUOUS
 62
     3
 10
20812.067196999989
 20
19625.987968000001
 30
0.0
 11
20893.065138000002
 21
19625.987968000001
 31
0.0
  0
LINE
  5
30AD
  8
2-0
  6
CONTINUOUS
 62
     3
 10
20842.064821999989
 20
19585.690908
 30
0.0
 11
20812.067196999989
 21
19585.690908
 31
0.0
  0
LINE
  5
30AE
  8
2-0
  6
CONTINUOUS
 62
     3
 10
20842.064821999989
 20
19603.692650000001
 30
0.0
 11
20842.064821999989
 21
19585.690908
 31
0.0
  0
LINE
  5
30AF
  8
2-0
  6
CONTINUOUS
 62
     3
 10
20817.071419999989
 20
19603.692650000001
 30
0.0
 11
20842.064821999989
 21
19603.692650000001
 31
0.0
  0
LINE
  5
30B0
  8
2-0
  6
CONTINUOUS
 62
     3
 10
20817.071419999989
 20
19598.68446800001
 30
0.0
 11
20817.071419999989
 21
19603.692650000001
 31
0.0
  0
LINE
  5
30B1
  8
2-0
  6
CONTINUOUS
 62
     3
 10
20824.069017999969
 20
19598.68446800001
 30
0.0
 11
20817.071419999989
 21
19598.68446800001
 31
0.0
  0
LINE
  5
30B2
  8
2-0
  6
CONTINUOUS
 62
     3
 10
20924.363306999989
 20
19698.984695000021
 30
0.0
 11
20924.363306999989
 21
19705.990211000011
 31
0.0
  0
LINE
  5
30B3
  8
2-0
  6
CONTINUOUS
 62
     3
 10
20924.363306999989
 20
19705.990211000011
 30
0.0
 11
20919.361062999989
 21
19705.990211000011
 31
0.0
  0
LINE
  5
30B4
  8
2-0
  6
CONTINUOUS
 62
     3
 10
20919.361062999989
 20
19705.990211000011
 30
0.0
 11
20919.361062999989
 21
19680.980973999998
 31
0.0
  0
LINE
  5
30B5
  8
2-0
  6
CONTINUOUS
 62
     3
 10
20919.361062999989
 20
19680.980973999998
 30
0.0
 11
20937.368743999981
 21
19680.980973999998
 31
0.0
  0
LINE
  5
30B6
  8
2-0
  6
CONTINUOUS
 62
     3
 10
20937.368743999981
 20
19680.980973999998
 30
0.0
 11
20937.368743999981
 21
19710.984537000011
 31
0.0
  0
LINE
  5
30B7
  8
2-0
  6
CONTINUOUS
 62
     3
 10
20927.069307999991
 20
19710.984537000011
 30
0.0
 11
20812.067196999989
 21
19710.984537000011
 31
0.0
  0
LINE
  5
30B8
  8
2-0
  6
CONTINUOUS
 62
     3
 10
20927.069307999991
 20
19680.980973999998
 30
0.0
 11
20927.069307999991
 21
19710.984537000011
 31
0.0
  0
LINE
  5
30B9
  8
2-0
  6
CONTINUOUS
 62
     3
 10
20921.065428999991
 20
19680.980973999998
 30
0.0
 11
20927.069307999991
 21
19680.980973999998
 31
0.0
  0
LINE
  5
30BA
  8
2-0
  6
CONTINUOUS
 62
     3
 10
20842.064821999989
 20
19601.984326000009
 30
0.0
 11
20842.064821999989
 21
19595.988364000012
 31
0.0
  0
LINE
  5
30BB
  8
2-0
  6
CONTINUOUS
 62
     3
 10
20842.064821999989
 20
19595.988364000012
 30
0.0
 11
20812.067196999989
 21
19595.988364000012
 31
0.0
  0
LINE
  5
30BC
  8
2-0
  6
CONTINUOUS
 62
     3
 10
20812.067196999989
 20
19595.988364000012
 30
0.0
 11
20812.067196999989
 21
19710.984537000011
 31
0.0
  0
LINE
  5
30BD
  8
2-0
  6
CONTINUOUS
 62
     3
 10
20812.067196999989
 20
19625.987968000001
 30
0.0
 11
20893.065138000002
 21
19625.987968000001
 31
0.0
  0
LINE
  5
30BE
  8
2-0
  6
CONTINUOUS
 62
     3
 10
20842.064821999989
 20
19585.690908
 30
0.0
 11
20812.067196999989
 21
19585.690908
 31
0.0
  0
LINE
  5
30BF
  8
2-0
  6
CONTINUOUS
 62
     3
 10
20842.064821999989
 20
19603.692650000001
 30
0.0
 11
20842.064821999989
 21
19585.690908
 31
0.0
  0
LINE
  5
30C0
  8
2-0
  6
CONTINUOUS
 62
     3
 10
20817.071419999989
 20
19603.692650000001
 30
0.0
 11
20842.064821999989
 21
19603.692650000001
 31
0.0
  0
LINE
  5
30C1
  8
2-0
  6
CONTINUOUS
 62
     3
 10
20817.071419999989
 20
19598.68446800001
 30
0.0
 11
20817.071419999989
 21
19603.692650000001
 31
0.0
  0
LINE
  5
30C2
  8
2-0
  6
CONTINUOUS
 62
     3
 10
20824.069017999969
 20
19598.68446800001
 30
0.0
 11
20817.071419999989
 21
19598.68446800001
 31
0.0
  0
LINE
  5
30C3
  8
2-0
  6
CONTINUOUS
 62
     3
 10
20824.069017999969
 20
18894.887645499992
 30
0.0
 11
20817.071419999989
 21
18894.887645499992
 31
0.0
  0
LINE
  5
30C4
  8
2-0
  6
CONTINUOUS
 62
     3
 10
20817.071419999989
 20
18894.887645499992
 30
0.0
 11
20817.071419999989
 21
18899.887909500001
 31
0.0
  0
LINE
  5
30C5
  8
2-0
  6
CONTINUOUS
 62
     3
 10
20817.071419999989
 20
18899.887909500001
 30
0.0
 11
20842.064821999989
 21
18899.887909500001
 31
0.0
  0
LINE
  5
30C6
  8
2-0
  6
CONTINUOUS
 62
     3
 10
20842.064821999989
 20
18899.887909500001
 30
0.0
 11
20842.064821999989
 21
18881.892105499981
 31
0.0
  0
LINE
  5
30C7
  8
2-0
  6
CONTINUOUS
 62
     3
 10
20842.064821999989
 20
18881.892105499981
 30
0.0
 11
20812.067196999989
 21
18881.892105499981
 31
0.0
  0
LINE
  5
30C8
  8
2-0
  6
CONTINUOUS
 62
     3
 10
20842.064821999989
 20
18897.98361249996
 30
0.0
 11
20842.064821999989
 21
18891.985671499991
 31
0.0
  0
LINE
  5
30C9
  8
2-0
  6
CONTINUOUS
 62
     3
 10
20842.064821999989
 20
18891.985671499991
 30
0.0
 11
20812.067196999989
 21
18891.985671499991
 31
0.0
  0
LINE
  5
30CA
  8
2-0
  6
CONTINUOUS
 62
     3
 10
20812.067196999989
 20
18891.985671499991
 30
0.0
 11
20812.067196999989
 21
18928.986832499992
 31
0.0
  0
LINE
  5
30CB
  8
2-0
  6
CONTINUOUS
 62
     3
 10
20842.064821999989
 20
18928.986832499992
 30
0.0
 11
20812.067196999989
 21
18928.986832499992
 31
0.0
  0
LINE
  5
30CC
  8
2-0
  6
CONTINUOUS
 62
     3
 10
20842.064821999989
 20
18922.982952499991
 30
0.0
 11
20842.064821999989
 21
18928.986832499992
 31
0.0
  0
LINE
  5
30CD
  8
2-0
  6
CONTINUOUS
 62
     3
 10
20842.064821999989
 20
18939.082377499981
 30
0.0
 11
20812.067196999989
 21
18939.082377499981
 31
0.0
  0
LINE
  5
30CE
  8
2-0
  6
CONTINUOUS
 62
     3
 10
20842.064821999989
 20
18921.080635499999
 30
0.0
 11
20842.064821999989
 21
18939.082377499981
 31
0.0
  0
LINE
  5
30CF
  8
2-0
  6
CONTINUOUS
 62
     3
 10
20817.071419999989
 20
18921.080635499999
 30
0.0
 11
20842.064821999989
 21
18921.080635499999
 31
0.0
  0
LINE
  5
30D0
  8
2-0
  6
CONTINUOUS
 62
     3
 10
20817.071419999989
 20
18926.080899499979
 30
0.0
 11
20817.071419999989
 21
18921.080635499999
 31
0.0
  0
LINE
  5
30D1
  8
2-0
  6
CONTINUOUS
 62
     3
 10
20824.069017999969
 20
18926.080899499979
 30
0.0
 11
20817.071419999989
 21
18926.080899499979
 31
0.0
  0
LINE
  5
30D2
  8
2-0
  6
CONTINUOUS
 62
     3
 10
20824.069017999969
 20
18193.886655999999
 30
0.0
 11
20817.071419999989
 21
18193.886655999999
 31
0.0
  0
LINE
  5
30D3
  8
2-0
  6
CONTINUOUS
 62
     3
 10
20817.071419999989
 20
18193.886655999999
 30
0.0
 11
20817.071419999989
 21
18198.892857999999
 31
0.0
  0
LINE
  5
30D4
  8
2-0
  6
CONTINUOUS
 62
     3
 10
20817.071419999989
 20
18198.892857999999
 30
0.0
 11
20842.064821999989
 21
18198.892857999999
 31
0.0
  0
LINE
  5
30D5
  8
2-0
  6
CONTINUOUS
 62
     3
 10
20842.064821999989
 20
18198.892857999999
 30
0.0
 11
20842.064821999989
 21
18180.891115999992
 31
0.0
  0
LINE
  5
30D6
  8
2-0
  6
CONTINUOUS
 62
     3
 10
20842.064821999989
 20
18180.891115999992
 30
0.0
 11
20812.067196999989
 21
18180.891115999992
 31
0.0
  0
LINE
  5
30D7
  8
2-0
  6
CONTINUOUS
 62
     3
 10
20842.064821999989
 20
18196.982622999982
 30
0.0
 11
20842.064821999989
 21
18190.986660999992
 31
0.0
  0
LINE
  5
30D8
  8
2-0
  6
CONTINUOUS
 62
     3
 10
20842.064821999989
 20
18190.986660999992
 30
0.0
 11
20812.067196999989
 21
18190.986660999992
 31
0.0
  0
LINE
  5
30D9
  8
2-0
  6
CONTINUOUS
 62
     3
 10
20812.067196999989
 20
18190.986660999992
 30
0.0
 11
20812.067196999989
 21
18227.985842999991
 31
0.0
  0
LINE
  5
30DA
  8
2-0
  6
CONTINUOUS
 62
     3
 10
20842.064821999989
 20
18227.985842999991
 30
0.0
 11
20812.067196999989
 21
18227.985842999991
 31
0.0
  0
LINE
  5
30DB
  8
2-0
  6
CONTINUOUS
 62
     3
 10
20842.064821999989
 20
18221.989881000001
 30
0.0
 11
20842.064821999989
 21
18227.985842999991
 31
0.0
  0
LINE
  5
30DC
  8
2-0
  6
CONTINUOUS
 62
     3
 10
20842.064821999989
 20
18238.081387999999
 30
0.0
 11
20812.067196999989
 21
18238.081387999999
 31
0.0
  0
LINE
  5
30DD
  8
2-0
  6
CONTINUOUS
 62
     3
 10
20842.064821999989
 20
18220.079645999991
 30
0.0
 11
20842.064821999989
 21
18238.081387999999
 31
0.0
  0
LINE
  5
30DE
  8
2-0
  6
CONTINUOUS
 62
     3
 10
20817.071419999989
 20
18220.079645999991
 30
0.0
 11
20842.064821999989
 21
18220.079645999991
 31
0.0
  0
LINE
  5
30DF
  8
2-0
  6
CONTINUOUS
 62
     3
 10
20817.071419999989
 20
18225.085847999992
 30
0.0
 11
20817.071419999989
 21
18220.079645999991
 31
0.0
  0
LINE
  5
30E0
  8
2-0
  6
CONTINUOUS
 62
     3
 10
20824.069017999969
 20
18225.085847999992
 30
0.0
 11
20817.071419999989
 21
18225.085847999992
 31
0.0
  0
LINE
  5
30E1
  8
2-0
  6
CONTINUOUS
 62
     3
 10
20824.069017999969
 20
17524.079909999989
 30
0.0
 11
20817.071419999989
 21
17524.079909999989
 31
0.0
  0
LINE
  5
30E2
  8
2-0
  6
CONTINUOUS
 62
     3
 10
20817.071419999989
 20
17524.079909999989
 30
0.0
 11
20817.071419999989
 21
17519.091522999999
 31
0.0
  0
LINE
  5
30E3
  8
2-0
  6
CONTINUOUS
 62
     3
 10
20817.071419999989
 20
17519.091522999999
 30
0.0
 11
20842.064821999989
 21
17519.091522999999
 31
0.0
  0
LINE
  5
30E4
  8
2-0
  6
CONTINUOUS
 62
     3
 10
20842.064821999989
 20
17519.091522999999
 30
0.0
 11
20842.064821999989
 21
17537.08732599999
 31
0.0
  0
LINE
  5
30E5
  8
2-0
  6
CONTINUOUS
 62
     3
 10
20842.064821999989
 20
17537.08732599999
 30
0.0
 11
20812.067196999989
 21
17537.08732599999
 31
0.0
  0
LINE
  5
30E6
  8
2-0
  6
CONTINUOUS
 62
     3
 10
20842.064821999989
 20
17520.989881000001
 30
0.0
 11
20842.064821999989
 21
17526.985842999991
 31
0.0
  0
LINE
  5
30E7
  8
2-0
  6
CONTINUOUS
 62
     3
 10
20842.064821999989
 20
17526.985842999991
 30
0.0
 11
20812.067196999989
 21
17526.985842999991
 31
0.0
  0
LINE
  5
30E8
  8
2-0
  6
CONTINUOUS
 62
     3
 10
20812.067196999989
 20
17526.985842999991
 30
0.0
 11
20812.067196999989
 21
17489.986660999992
 31
0.0
  0
LINE
  5
30E9
  8
2-0
  6
CONTINUOUS
 62
     3
 10
20842.064821999989
 20
17489.986660999992
 30
0.0
 11
20812.067196999989
 21
17489.986660999992
 31
0.0
  0
LINE
  5
30EA
  8
2-0
  6
CONTINUOUS
 62
     3
 10
20842.064821999989
 20
17495.988561999991
 30
0.0
 11
20842.064821999989
 21
17489.986660999992
 31
0.0
  0
LINE
  5
30EB
  8
2-0
  6
CONTINUOUS
 62
     3
 10
20842.064821999989
 20
17479.897055000001
 30
0.0
 11
20812.067196999989
 21
17479.897055000001
 31
0.0
  0
LINE
  5
30EC
  8
2-0
  6
CONTINUOUS
 62
     3
 10
20842.064821999989
 20
17497.892857999981
 30
0.0
 11
20842.064821999989
 21
17479.897055000001
 31
0.0
  0
LINE
  5
30ED
  8
2-0
  6
CONTINUOUS
 62
     3
 10
20817.071419999989
 20
17497.892857999981
 30
0.0
 11
20842.064821999989
 21
17497.892857999981
 31
0.0
  0
LINE
  5
30EE
  8
2-0
  6
CONTINUOUS
 62
     3
 10
20817.071419999989
 20
17492.892595000001
 30
0.0
 11
20817.071419999989
 21
17497.892857999981
 31
0.0
  0
LINE
  5
30EF
  8
2-0
  6
CONTINUOUS
 62
     3
 10
20824.069017999969
 20
17492.892595000001
 30
0.0
 11
20817.071419999989
 21
17492.892595000001
 31
0.0
  0
LINE
  5
30F0
  8
2-0
  6
CONTINUOUS
 62
     3
 10
20814.953334999991
 20
16772.983480999999
 30
0.0
 11
20814.953334999991
 21
16792.984536
 31
0.0
  0
LINE
  5
30F1
  8
2-0
  6
CONTINUOUS
 62
     3
 10
20814.953334999991
 20
16792.984536
 30
0.0
 11
20899.953862999999
 21
16792.984536
 31
0.0
  0
LINE
  5
30F2
  8
2-0
  6
CONTINUOUS
 62
     3
 10
20824.069017999969
 20
16819.591246
 30
0.0
 11
20817.071419999989
 21
16819.591246
 31
0.0
  0
LINE
  5
30F3
  8
2-0
  6
CONTINUOUS
 62
     3
 10
20817.071419999989
 20
16819.591246
 30
0.0
 11
20817.071419999989
 21
16814.596920000011
 31
0.0
  0
LINE
  5
30F4
  8
2-0
  6
CONTINUOUS
 62
     3
 10
20817.071419999989
 20
16814.596920000011
 30
0.0
 11
20842.064821999989
 21
16814.596920000011
 31
0.0
  0
LINE
  5
30F5
  8
2-0
  6
CONTINUOUS
 62
     3
 10
20842.064821999989
 20
16814.596920000011
 30
0.0
 11
20842.064821999989
 21
16832.592723999991
 31
0.0
  0
LINE
  5
30F6
  8
2-0
  6
CONTINUOUS
 62
     3
 10
20842.064821999989
 20
16832.592723999991
 30
0.0
 11
20812.067196999989
 21
16832.592723999991
 31
0.0
  0
LINE
  5
30F7
  8
2-0
  6
CONTINUOUS
 62
     3
 10
20842.064821999989
 20
16822.98413999999
 30
0.0
 11
20842.064821999989
 21
16816.982240000001
 31
0.0
  0
LINE
  5
30F8
  8
2-0
  6
CONTINUOUS
 62
     3
 10
20812.067196999989
 20
16822.98413999999
 30
0.0
 11
20842.064821999989
 21
16822.98413999999
 31
0.0
  0
LINE
  5
30F9
  8
2-0
  6
CONTINUOUS
 62
     3
 10
20812.067196999989
 20
16832.592723999991
 30
0.0
 11
20812.067196999989
 21
17479.897055000001
 31
0.0
  0
LINE
  5
30FA
  8
2-0
  6
CONTINUOUS
 62
     3
 10
20812.067196999989
 20
17537.08732599999
 30
0.0
 11
20812.067196999989
 21
18180.891115999992
 31
0.0
  0
LINE
  5
30FB
  8
2-0
  6
CONTINUOUS
 62
     3
 10
20812.067196999989
 20
16677.982424999991
 30
0.0
 11
20842.064821999989
 21
16677.982424999991
 31
0.0
  0
LINE
  5
30FC
  8
2-0
  6
CONTINUOUS
 62
     3
 10
20842.064821999989
 20
16677.982424999991
 30
0.0
 11
20842.064821999989
 21
16683.984325000001
 31
0.0
  0
LINE
  5
30FD
  8
2-0
  6
CONTINUOUS
 62
     3
 10
20899.953862999999
 20
16707.987968000001
 30
0.0
 11
20814.953334999991
 21
16707.987968000001
 31
0.0
  0
LINE
  5
30FE
  8
2-0
  6
CONTINUOUS
 62
     3
 10
20814.953334999991
 20
16707.987968000001
 30
0.0
 11
20814.953334999991
 21
16727.983085000011
 31
0.0
  0
LINE
  5
30FF
  8
2-0
  6
CONTINUOUS
 62
     3
 10
20842.064821999989
 20
16668.373842000012
 30
0.0
 11
20812.067196999989
 21
16668.373842000012
 31
0.0
  0
LINE
  5
3100
  8
2-0
  6
CONTINUOUS
 62
     3
 10
20842.064821999989
 20
16686.369644999992
 30
0.0
 11
20842.064821999989
 21
16668.373842000012
 31
0.0
  0
LINE
  5
3101
  8
2-0
  6
CONTINUOUS
 62
     3
 10
20817.071419999989
 20
16686.369644999992
 30
0.0
 11
20842.064821999989
 21
16686.369644999992
 31
0.0
  0
LINE
  5
3102
  8
2-0
  6
CONTINUOUS
 62
     3
 10
20817.071419999989
 20
16681.369381000011
 30
0.0
 11
20817.071419999989
 21
16686.369644999992
 31
0.0
  0
LINE
  5
3103
  8
2-0
  6
CONTINUOUS
 62
     3
 10
20824.069017999969
 20
16681.369381000011
 30
0.0
 11
20817.071419999989
 21
16681.369381000011
 31
0.0
  0
LINE
  5
3104
  8
2-0
  6
CONTINUOUS
 62
     3
 10
20824.069017999969
 20
15976.887150499981
 30
0.0
 11
20817.071419999989
 21
15976.887150499981
 31
0.0
  0
LINE
  5
3105
  8
2-0
  6
CONTINUOUS
 62
     3
 10
20817.071419999989
 20
15976.887150499981
 30
0.0
 11
20817.071419999989
 21
15981.88741449999
 31
0.0
  0
LINE
  5
3106
  8
2-0
  6
CONTINUOUS
 62
     3
 10
20817.071419999989
 20
15981.88741449999
 30
0.0
 11
20842.064821999989
 21
15981.88741449999
 31
0.0
  0
LINE
  5
3107
  8
2-0
  6
CONTINUOUS
 62
     3
 10
20842.064821999989
 20
15981.88741449999
 30
0.0
 11
20842.064821999989
 21
15963.88567249999
 31
0.0
  0
LINE
  5
3108
  8
2-0
  6
CONTINUOUS
 62
     3
 10
20842.064821999989
 20
15963.88567249999
 30
0.0
 11
20812.067196999989
 21
15963.88567249999
 31
0.0
  0
LINE
  5
3109
  8
2-0
  6
CONTINUOUS
 62
     3
 10
20842.064821999989
 20
15979.9831175
 30
0.0
 11
20842.064821999989
 21
15973.986166500001
 31
0.0
  0
LINE
  5
310A
  8
2-0
  6
CONTINUOUS
 62
     3
 10
20842.064821999989
 20
15973.986166500001
 30
0.0
 11
20812.067196999989
 21
15973.986166500001
 31
0.0
  0
LINE
  5
310B
  8
2-0
  6
CONTINUOUS
 62
     3
 10
20812.067196999989
 20
15973.986166500001
 30
0.0
 11
20812.067196999989
 21
16010.9863375
 31
0.0
  0
LINE
  5
310C
  8
2-0
  6
CONTINUOUS
 62
     3
 10
20842.064821999989
 20
16010.9863375
 30
0.0
 11
20812.067196999989
 21
16010.9863375
 31
0.0
  0
LINE
  5
310D
  8
2-0
  6
CONTINUOUS
 62
     3
 10
20842.064821999989
 20
16004.983447500001
 30
0.0
 11
20842.064821999989
 21
16010.9863375
 31
0.0
  0
LINE
  5
310E
  8
2-0
  6
CONTINUOUS
 62
     3
 10
20842.064821999989
 20
16021.08188249999
 30
0.0
 11
20812.067196999989
 21
16021.08188249999
 31
0.0
  0
LINE
  5
310F
  8
2-0
  6
CONTINUOUS
 62
     3
 10
20842.064821999989
 20
16003.074201499991
 30
0.0
 11
20842.064821999989
 21
16021.08188249999
 31
0.0
  0
LINE
  5
3110
  8
2-0
  6
CONTINUOUS
 62
     3
 10
20817.071419999989
 20
16003.074201499991
 30
0.0
 11
20842.064821999989
 21
16003.074201499991
 31
0.0
  0
LINE
  5
3111
  8
2-0
  6
CONTINUOUS
 62
     3
 10
20817.071419999989
 20
16008.0804045
 30
0.0
 11
20817.071419999989
 21
16003.074201499991
 31
0.0
  0
LINE
  5
3112
  8
2-0
  6
CONTINUOUS
 62
     3
 10
20824.069017999969
 20
16008.0804045
 30
0.0
 11
20817.071419999989
 21
16008.0804045
 31
0.0
  0
LINE
  5
3113
  8
2-0
  6
CONTINUOUS
 62
     3
 10
20824.069017999969
 20
15307.320421
 30
0.0
 11
20817.071419999989
 21
15307.320421
 31
0.0
  0
LINE
  5
3114
  8
2-0
  6
CONTINUOUS
 62
     3
 10
20817.071419999989
 20
15307.320421
 30
0.0
 11
20817.071419999989
 21
15302.326096000001
 31
0.0
  0
LINE
  5
3115
  8
2-0
  6
CONTINUOUS
 62
     3
 10
20817.071419999989
 20
15302.326096000001
 30
0.0
 11
20842.064821999989
 21
15302.326096000001
 31
0.0
  0
LINE
  5
3116
  8
2-0
  6
CONTINUOUS
 62
     3
 10
20842.064821999989
 20
15302.326096000001
 30
0.0
 11
20842.064821999989
 21
15320.32189900001
 31
0.0
  0
LINE
  5
3117
  8
2-0
  6
CONTINUOUS
 62
     3
 10
20842.064821999989
 20
15320.32189900001
 30
0.0
 11
20812.067196999989
 21
15320.32189900001
 31
0.0
  0
LINE
  5
3118
  8
2-0
  6
CONTINUOUS
 62
     3
 10
20842.064821999989
 20
15304.22445399999
 30
0.0
 11
20842.064821999989
 21
15310.226354
 31
0.0
  0
LINE
  5
3119
  8
2-0
  6
CONTINUOUS
 62
     3
 10
20842.064821999989
 20
15310.226354
 30
0.0
 11
20812.067196999989
 21
15310.226354
 31
0.0
  0
LINE
  5
311A
  8
2-0
  6
CONTINUOUS
 62
     3
 10
20812.067196999989
 20
15273.22717300001
 30
0.0
 11
20812.067196999989
 21
15310.226354
 31
0.0
  0
LINE
  5
311B
  8
2-0
  6
CONTINUOUS
 62
     3
 10
20842.064821999989
 20
15273.22717300001
 30
0.0
 11
20812.067196999989
 21
15273.22717300001
 31
0.0
  0
LINE
  5
311C
  8
2-0
  6
CONTINUOUS
 62
     3
 10
20842.064821999989
 20
15279.224124
 30
0.0
 11
20842.064821999989
 21
15273.22717300001
 31
0.0
  0
LINE
  5
311D
  8
2-0
  6
CONTINUOUS
 62
     3
 10
20842.064821999989
 20
15263.12568899999
 30
0.0
 11
20812.067196999989
 21
15263.12568899999
 31
0.0
  0
LINE
  5
311E
  8
2-0
  6
CONTINUOUS
 62
     3
 10
20842.064821999989
 20
15281.13336999999
 30
0.0
 11
20842.064821999989
 21
15263.12568899999
 31
0.0
  0
LINE
  5
311F
  8
2-0
  6
CONTINUOUS
 62
     3
 10
20817.071419999989
 20
15281.13336999999
 30
0.0
 11
20842.064821999989
 21
15281.13336999999
 31
0.0
  0
LINE
  5
3120
  8
2-0
  6
CONTINUOUS
 62
     3
 10
20817.071419999989
 20
15276.133106000019
 30
0.0
 11
20817.071419999989
 21
15281.13336999999
 31
0.0
  0
LINE
  5
3121
  8
2-0
  6
CONTINUOUS
 62
     3
 10
20824.069017999969
 20
15276.133106000019
 30
0.0
 11
20817.071419999989
 21
15276.133106000019
 31
0.0
  0
LINE
  5
3122
  8
2-0
  6
CONTINUOUS
 62
     3
 10
20812.067196999989
 20
16668.373842000012
 30
0.0
 11
20812.067196999989
 21
16021.08188249999
 31
0.0
  0
LINE
  5
3123
  8
2-0
  6
CONTINUOUS
 62
     3
 10
20812.067196999989
 20
16822.98413999999
 30
0.0
 11
20812.067196999989
 21
16677.982424999991
 31
0.0
  0
LINE
  5
3124
  8
2-0
  6
CONTINUOUS
 62
     3
 10
20899.953862999999
 20
16792.984536
 30
0.0
 11
20899.953862999999
 21
16707.987968000001
 31
0.0
  0
LINE
  5
3125
  8
2-0
  6
CONTINUOUS
 62
     3
 10
20824.069017999969
 20
14574.892099000001
 30
0.0
 11
20817.071419999989
 21
14574.892099000001
 31
0.0
  0
LINE
  5
3126
  8
2-0
  6
CONTINUOUS
 62
     3
 10
20817.071419999989
 20
14574.892099000001
 30
0.0
 11
20817.071419999989
 21
14579.88642500001
 31
0.0
  0
LINE
  5
3127
  8
2-0
  6
CONTINUOUS
 62
     3
 10
20817.071419999989
 20
14579.88642500001
 30
0.0
 11
20842.064821999989
 21
14579.88642500001
 31
0.0
  0
LINE
  5
3128
  8
2-0
  6
CONTINUOUS
 62
     3
 10
20842.064821999989
 20
14579.88642500001
 30
0.0
 11
20842.064821999989
 21
14561.890621
 31
0.0
  0
LINE
  5
3129
  8
2-0
  6
CONTINUOUS
 62
     3
 10
20842.064821999989
 20
14561.890621
 30
0.0
 11
20812.067196999989
 21
14561.890621
 31
0.0
  0
LINE
  5
312A
  8
2-0
  6
CONTINUOUS
 62
     3
 10
20842.064821999989
 20
14577.989056
 30
0.0
 11
20842.064821999989
 21
14571.98616600001
 31
0.0
  0
LINE
  5
312B
  8
2-0
  6
CONTINUOUS
 62
     3
 10
20842.064821999989
 20
14571.98616600001
 30
0.0
 11
20812.067196999989
 21
14571.98616600001
 31
0.0
  0
LINE
  5
312C
  8
2-0
  6
CONTINUOUS
 62
     3
 10
20812.067196999989
 20
14571.98616600001
 30
0.0
 11
20812.067196999989
 21
14608.986337999981
 31
0.0
  0
LINE
  5
312D
  8
2-0
  6
CONTINUOUS
 62
     3
 10
20842.064821999989
 20
14608.986337999981
 30
0.0
 11
20812.067196999989
 21
14608.986337999981
 31
0.0
  0
LINE
  5
312E
  8
2-0
  6
CONTINUOUS
 62
     3
 10
20842.064821999989
 20
14602.989385999999
 30
0.0
 11
20842.064821999989
 21
14608.986337999981
 31
0.0
  0
LINE
  5
312F
  8
2-0
  6
CONTINUOUS
 62
     3
 10
20842.064821999989
 20
14619.086831000001
 30
0.0
 11
20812.067196999989
 21
14619.086831000001
 31
0.0
  0
LINE
  5
3130
  8
2-0
  6
CONTINUOUS
 62
     3
 10
20842.064821999989
 20
14601.08014
 30
0.0
 11
20842.064821999989
 21
14619.086831000001
 31
0.0
  0
LINE
  5
3131
  8
2-0
  6
CONTINUOUS
 62
     3
 10
20817.071419999989
 20
14601.08014
 30
0.0
 11
20842.064821999989
 21
14601.08014
 31
0.0
  0
LINE
  5
3132
  8
2-0
  6
CONTINUOUS
 62
     3
 10
20817.071419999989
 20
14606.085353
 30
0.0
 11
20817.071419999989
 21
14601.08014
 31
0.0
  0
LINE
  5
3133
  8
2-0
  6
CONTINUOUS
 62
     3
 10
20824.069017999969
 20
14606.085353
 30
0.0
 11
20817.071419999989
 21
14606.085353
 31
0.0
  0
LINE
  5
3134
  8
2-0
  6
CONTINUOUS
 62
     3
 10
20842.064821999989
 20
13898.988179
 30
0.0
 11
20842.064821999989
 21
13904.993047999989
 31
0.0
  0
LINE
  5
3135
  8
2-0
  6
CONTINUOUS
 62
     3
 10
20842.064821999989
 20
13904.993047999989
 30
0.0
 11
20812.067196999989
 21
13904.993047999989
 31
0.0
  0
LINE
  5
3136
  8
2-0
  6
CONTINUOUS
 62
     3
 10
20812.067196999989
 20
13904.993047999989
 30
0.0
 11
20812.067196999989
 21
13789.988957
 31
0.0
  0
LINE
  5
3137
  8
2-0
  6
CONTINUOUS
 62
     3
 10
20812.067196999989
 20
13789.988957
 30
0.0
 11
20897.065744999989
 21
13789.988957
 31
0.0
  0
LINE
  5
3138
  8
2-0
  6
CONTINUOUS
 62
     3
 10
20897.065744999989
 20
13789.988957
 30
0.0
 11
20897.065744999989
 21
13874.984536
 31
0.0
  0
LINE
  5
3139
  8
2-0
  6
CONTINUOUS
 62
     3
 10
20897.065744999989
 20
13874.984536
 30
0.0
 11
20865.068806999981
 21
13874.984536
 31
0.0
  0
LINE
  5
313A
  8
2-0
  6
CONTINUOUS
 62
     3
 10
20824.069017999969
 20
13902.022781
 30
0.0
 11
20817.071419999989
 21
13902.022781
 31
0.0
  0
LINE
  5
313B
  8
2-0
  6
CONTINUOUS
 62
     3
 10
20817.071419999989
 20
13902.022781
 30
0.0
 11
20817.071419999989
 21
13897.02548599998
 31
0.0
  0
LINE
  5
313C
  8
2-0
  6
CONTINUOUS
 62
     3
 10
20817.071419999989
 20
13897.02548599998
 30
0.0
 11
20842.064821999989
 21
13897.02548599998
 31
0.0
  0
LINE
  5
313D
  8
2-0
  6
CONTINUOUS
 62
     3
 10
20842.064821999989
 20
13897.02548599998
 30
0.0
 11
20842.064821999989
 21
13915.024258999991
 31
0.0
  0
LINE
  5
313E
  8
2-0
  6
CONTINUOUS
 62
     3
 10
20842.064821999989
 20
13915.024258999991
 30
0.0
 11
20812.067196999989
 21
13915.024258999991
 31
0.0
  0
LINE
  5
313F
  8
2-0
  6
CONTINUOUS
 62
     3
 10
20812.067196999989
 20
14619.086831000001
 30
0.0
 11
20812.067196999989
 21
15263.12568899999
 31
0.0
  0
LINE
  5
3140
  8
2-0
  6
CONTINUOUS
 62
     3
 10
20812.067196999989
 20
18238.081387999999
 30
0.0
 11
20812.067196999989
 21
18881.892105499981
 31
0.0
  0
LINE
  5
3141
  8
2-0
  6
CONTINUOUS
 62
     3
 10
20812.067196999989
 20
15963.88567249999
 30
0.0
 11
20812.067196999989
 21
15320.32189900001
 31
0.0
  0
LINE
  5
3142
  8
2-0
  6
CONTINUOUS
 62
     3
 10
23815.061785999991
 20
19595.988364000012
 30
0.0
 11
23815.061785999991
 21
19710.984537000011
 31
0.0
  0
LINE
  5
3143
  8
2-0
  6
CENTER2
 62
     6
 10
19525.10892499999
 20
19668.486251999992
 30
0.0
 11
24665.063105999991
 21
19668.486251999992
 31
0.0
  0
LINE
  5
3144
  8
2-0
  6
CENTER2
 62
     6
 10
19525.10892499999
 20
16750.486251999992
 30
0.0
 11
24665.063105999991
 21
16750.486251999992
 31
0.0
  0
LINE
  5
3145
  8
2-0
  6
CENTER2
 62
     6
 10
19525.10892499999
 20
13832.486252000001
 30
0.0
 11
24665.063105999991
 21
13832.486252000001
 31
0.0
  0
LINE
  5
3146
  8
2-0
  6
CONTINUOUS
 62
     3
 10
20812.067196999989
 20
19625.987968000001
 30
0.0
 11
23734.059885999981
 21
19625.987968000001
 31
0.0
  0
LINE
  5
3147
  8
2-0
  6
CONTINUOUS
 62
     3
 10
20812.067196999989
 20
13915.024258999991
 30
0.0
 11
20812.067196999989
 21
14561.890621
 31
0.0
  0
LINE
  5
3148
  8
2-0
  6
CENTER2
 62
     6
 10
20854.563502000001
 20
20910.984537000018
 30
0.0
 11
20854.563502000001
 21
13206.722818
 31
0.0
  0
LINE
  5
3149
  8
2-0
  6
CENTER2
 62
     6
 10
23772.563502000001
 20
20910.984537000018
 30
0.0
 11
23772.563502000001
 21
13206.722818
 31
0.0
  0
LINE
  5
314A
  8
2-0
  6
CONTINUOUS
 62
     3
 10
23815.061785999991
 20
19585.690908
 30
0.0
 11
23815.061785999991
 21
18939.082377499992
 31
0.0
  0
LINE
  5
314B
  8
2-0
  6
CONTINUOUS
 62
     3
 10
20812.067196999989
 20
19585.690908
 30
0.0
 11
20812.067196999989
 21
18939.082377499981
 31
0.0
  0
LINE
  5
314C
  8
2-0
  6
CONTINUOUS
 62
     3
 10
20893.065138000002
 20
13874.984536
 30
0.0
 11
20893.065138000002
 21
19710.984537000011
 31
0.0
  0
LINE
  5
314D
  8
2-0
  6
CONTINUOUS
 62
     3
 10
23734.059885999981
 20
13874.984536
 30
0.0
 11
23734.059885999981
 21
19710.984537000011
 31
0.0
  0
CIRCLE
  5
314E
  8
2-0
  6
CONTINUOUS
 62
     4
 10
19325.111234999989
 20
19668.486251999992
 30
0.0
 40
200.00001
  0
CIRCLE
  5
314F
  8
2-0
  6
CONTINUOUS
 62
     4
 10
19325.111234999989
 20
16750.486251999992
 30
0.0
 40
200.00001
  0
CIRCLE
  5
3150
  8
2-0
  6
CONTINUOUS
 62
     4
 10
19325.111234999989
 20
13832.486252000001
 30
0.0
 40
200.00001
  0
CIRCLE
  5
3151
  8
2-0
  6
CONTINUOUS
 62
     4
 10
20854.563502000001
 20
21110.989156000011
 30
0.0
 40
200.00001
  0
TEXT
  5
3152
  8
2-0
  6
CONTINUOUS
 62
     7
 10
22169.40880899999
 20
13272.487373999989
 30
0.0
 40
160.0
  1
前柱（右）
 50
0.000213
 72
     4
 11
22585.40851159301
 21
13352.48892050078
 31
0.0
  0
TEXT
  5
3153
  8
2-0
  6
CONTINUOUS
 62
     7
 10
22374.003931999989
 20
16200.97939000001
 30
0.0
 40
160.0
  1
壁パネル
 50
359.99982299999999
 72
     4
 11
22736.67084580355
 21
16280.978269637881
 31
0.0
  0
TEXT
  5
3154
  8
2-0
  6
CONTINUOUS
 62
     7
 10
22094.001027999981
 20
17038.167286000022
 30
0.0
 40
160.0
  1
中柱（左右）
 50
0.000354
 72
     4
 11
22611.333867046189
 21
17118.170482324669
 31
0.0
  0
TEXT
  5
3155
  8
2-0
  6
CONTINUOUS
 62
     7
 10
22774.00327199998
 20
14245.52863999999
 30
0.0
 40
160.0
  1
下枠
 50
0.001063
 72
     4
 11
22944.668454409279
 21
14325.531806339281
 31
0.0
  0
TEXT
  5
3156
  8
2-0
  6
CONTINUOUS
 62
     7
 10
22268.968695999989
 20
18641.436024499992
 30
0.0
 40
160.0
  1
間柱（側）
 72
     4
 11
22690.302029333328
 21
18721.436024499992
 31
0.0
  0
TEXT
  5
3157
  8
2-0
  6
CONTINUOUS
 62
     7
 10
24587.559014999992
 20
20520.983745000009
 30
0.0
 40
160.0
  1
後柱（左右）
 50
0.000354
 72
     4
 11
25099.55852071297
 21
20600.986908372841
 31
0.0
  0
TEXT
  5
3158
  8
2-0
  6
CONTINUOUS
 62
     7
 10
19277.111867999982
 20
19574.005810000021
 30
0.0
 40
160.0
  1
C
 72
     4
 11
19330.44520133331
 21
19654.005810000021
 31
0.0
  0
TEXT
  5
3159
  8
2-0
  6
CONTINUOUS
 62
     7
 10
19277.332583999982
 20
16680.092170000022
 30
0.0
 40
160.0
  1
B
 72
     4
 11
19330.665917333321
 21
16760.092170000022
 31
0.0
  0
TEXT
  5
315A
  8
2-0
  6
CONTINUOUS
 62
     7
 10
19277.37514399998
 20
13743.879041
 30
0.0
 40
160.0
  1
A
 72
     4
 11
19330.708477333319
 21
13823.879041
 31
0.0
  0
TEXT
  5
315B
  8
2-0
  6
CONTINUOUS
 62
     7
 10
20810.356892999989
 20
21022.221604000009
 30
0.0
 40
160.0
  1
1
 72
     4
 11
20837.023559666661
 21
21102.221604000009
 31
0.0
  0
LINE
  5
315C
  8
2-0
  6
CONTINUOUS
 62
     3
 10
23033.064082999968
 20
19710.984537000011
 30
0.0
 11
22996.062921000001
 21
19710.984537000011
 31
0.0
  0
LINE
  5
315D
  8
2-0
  6
CONTINUOUS
 62
     3
 10
23033.064082999968
 20
19680.980973999998
 30
0.0
 11
23033.064082999968
 21
19710.984537000011
 31
0.0
  0
LINE
  5
315E
  8
2-0
  6
CONTINUOUS
 62
     3
 10
23027.06416199997
 20
19680.980973999998
 30
0.0
 11
23033.064082999968
 21
19680.980973999998
 31
0.0
  0
LINE
  5
315F
  8
2-0
  6
CONTINUOUS
 62
     3
 10
23043.161606999998
 20
19680.980973999998
 30
0.0
 11
23043.161606999998
 21
19710.984537000011
 31
0.0
  0
LINE
  5
3160
  8
2-0
  6
CONTINUOUS
 62
     3
 10
23025.157886000001
 20
19680.980973999998
 30
0.0
 11
23043.161606999998
 21
19680.980973999998
 31
0.0
  0
LINE
  5
3161
  8
2-0
  6
CONTINUOUS
 62
     3
 10
23025.157886000001
 20
19705.990211000011
 30
0.0
 11
23025.157886000001
 21
19680.980973999998
 31
0.0
  0
LINE
  5
3162
  8
2-0
  6
CONTINUOUS
 62
     3
 10
23030.158149999999
 20
19705.990211000011
 30
0.0
 11
23025.157886000001
 21
19705.990211000011
 31
0.0
  0
LINE
  5
3163
  8
2-0
  6
CONTINUOUS
 62
     3
 10
23030.158149999999
 20
19698.984695000021
 30
0.0
 11
23030.158149999999
 21
19705.990211000011
 31
0.0
  0
LINE
  5
3164
  8
2-0
  6
CONTINUOUS
 62
     3
 10
22998.968854999981
 20
19698.984695000021
 30
0.0
 11
22998.968854999981
 21
19705.990211000011
 31
0.0
  0
LINE
  5
3165
  8
2-0
  6
CONTINUOUS
 62
     3
 10
22998.968854999981
 20
19705.990211000011
 30
0.0
 11
23003.969119000001
 21
19705.990211000011
 31
0.0
  0
LINE
  5
3166
  8
2-0
  6
CONTINUOUS
 62
     3
 10
23003.969119000001
 20
19705.990211000011
 30
0.0
 11
23003.969119000001
 21
19680.980973999998
 31
0.0
  0
LINE
  5
3167
  8
2-0
  6
CONTINUOUS
 62
     3
 10
23003.969119000001
 20
19680.980973999998
 30
0.0
 11
22985.969356000001
 21
19680.980973999998
 31
0.0
  0
LINE
  5
3168
  8
2-0
  6
CONTINUOUS
 62
     3
 10
22985.969356000001
 20
19680.980973999998
 30
0.0
 11
22985.969356000001
 21
19710.984537000011
 31
0.0
  0
LINE
  5
3169
  8
2-0
  6
CONTINUOUS
 62
     3
 10
23002.062841999981
 20
19680.980973999998
 30
0.0
 11
22996.062921000001
 21
19680.980973999998
 31
0.0
  0
LINE
  5
316A
  8
2-0
  6
CONTINUOUS
 62
     3
 10
22996.062921000001
 20
19680.980973999998
 30
0.0
 11
22996.062921000001
 21
19710.984537000011
 31
0.0
  0
LINE
  5
316B
  8
2-0
  6
CONTINUOUS
 62
     3
 10
21628.15320049999
 20
19698.984695000021
 30
0.0
 11
21628.15320049999
 21
19705.990211000011
 31
0.0
  0
LINE
  5
316C
  8
2-0
  6
CONTINUOUS
 62
     3
 10
21628.15320049999
 20
19705.990211000011
 30
0.0
 11
21623.152936499991
 21
19705.990211000011
 31
0.0
  0
LINE
  5
316D
  8
2-0
  6
CONTINUOUS
 62
     3
 10
21623.152936499991
 20
19705.990211000011
 30
0.0
 11
21623.152936499991
 21
19680.980973999998
 31
0.0
  0
LINE
  5
316E
  8
2-0
  6
CONTINUOUS
 62
     3
 10
21623.152936499991
 20
19680.980973999998
 30
0.0
 11
21641.158637500001
 21
19680.980973999998
 31
0.0
  0
LINE
  5
316F
  8
2-0
  6
CONTINUOUS
 62
     3
 10
21641.158637500001
 20
19680.980973999998
 30
0.0
 11
21641.158637500001
 21
19710.984537000011
 31
0.0
  0
LINE
  5
3170
  8
2-0
  6
CONTINUOUS
 62
     3
 10
21625.06119249999
 20
19680.980973999998
 30
0.0
 11
21631.063092499979
 21
19680.980973999998
 31
0.0
  0
LINE
  5
3171
  8
2-0
  6
CONTINUOUS
 62
     3
 10
21631.063092499979
 20
19680.980973999998
 30
0.0
 11
21631.063092499979
 21
19710.984537000011
 31
0.0
  0
LINE
  5
3172
  8
2-0
  6
CONTINUOUS
 62
     3
 10
21594.06391149999
 20
19710.984537000011
 30
0.0
 11
21631.063092499979
 21
19710.984537000011
 31
0.0
  0
LINE
  5
3173
  8
2-0
  6
CONTINUOUS
 62
     3
 10
21594.06391149999
 20
19680.980973999998
 30
0.0
 11
21594.06391149999
 21
19710.984537000011
 31
0.0
  0
LINE
  5
3174
  8
2-0
  6
CONTINUOUS
 62
     3
 10
21600.05789349999
 20
19680.980973999998
 30
0.0
 11
21594.06391149999
 21
19680.980973999998
 31
0.0
  0
LINE
  5
3175
  8
2-0
  6
CONTINUOUS
 62
     3
 10
21583.968366500001
 20
19680.980973999998
 30
0.0
 11
21583.968366500001
 21
19710.984537000011
 31
0.0
  0
LINE
  5
3176
  8
2-0
  6
CONTINUOUS
 62
     3
 10
21601.964169499988
 20
19680.980973999998
 30
0.0
 11
21583.968366500001
 21
19680.980973999998
 31
0.0
  0
LINE
  5
3177
  8
2-0
  6
CONTINUOUS
 62
     3
 10
21601.964169499988
 20
19705.990211000011
 30
0.0
 11
21601.964169499988
 21
19680.980973999998
 31
0.0
  0
LINE
  5
3178
  8
2-0
  6
CONTINUOUS
 62
     3
 10
21596.96390549999
 20
19705.990211000011
 30
0.0
 11
21601.964169499988
 21
19705.990211000011
 31
0.0
  0
LINE
  5
3179
  8
2-0
  6
CONTINUOUS
 62
     3
 10
21596.96390549999
 20
19698.984695000021
 30
0.0
 11
21596.96390549999
 21
19705.990211000011
 31
0.0
  0
LINE
  5
317A
  8
2-0
  6
CONTINUOUS
 62
     3
 10
22297.96291649999
 20
19698.984695000021
 30
0.0
 11
22297.96291649999
 21
19705.990211000011
 31
0.0
  0
LINE
  5
317B
  8
2-0
  6
CONTINUOUS
 62
     3
 10
22297.96291649999
 20
19705.990211000011
 30
0.0
 11
22302.963179499999
 21
19705.990211000011
 31
0.0
  0
LINE
  5
317C
  8
2-0
  6
CONTINUOUS
 62
     3
 10
22302.963179499999
 20
19705.990211000011
 30
0.0
 11
22302.963179499999
 21
19680.980973999998
 31
0.0
  0
LINE
  5
317D
  8
2-0
  6
CONTINUOUS
 62
     3
 10
22302.963179499999
 20
19680.980973999998
 30
0.0
 11
22284.969356499991
 21
19680.980973999998
 31
0.0
  0
LINE
  5
317E
  8
2-0
  6
CONTINUOUS
 62
     3
 10
22284.969356499991
 20
19680.980973999998
 30
0.0
 11
22284.969356499991
 21
19710.984537000011
 31
0.0
  0
LINE
  5
317F
  8
2-0
  6
CONTINUOUS
 62
     3
 10
22301.06086249997
 20
19680.980973999998
 30
0.0
 11
22295.06292149999
 21
19680.980973999998
 31
0.0
  0
LINE
  5
3180
  8
2-0
  6
CONTINUOUS
 62
     3
 10
22295.06292149999
 20
19680.980973999998
 30
0.0
 11
22295.06292149999
 21
19710.984537000011
 31
0.0
  0
LINE
  5
3181
  8
2-0
  6
CONTINUOUS
 62
     3
 10
22332.064082500001
 20
19710.984537000011
 30
0.0
 11
22295.06292149999
 21
19710.984537000011
 31
0.0
  0
LINE
  5
3182
  8
2-0
  6
CONTINUOUS
 62
     3
 10
22332.064082500001
 20
19680.980973999998
 30
0.0
 11
22332.064082500001
 21
19710.984537000011
 31
0.0
  0
LINE
  5
3183
  8
2-0
  6
CONTINUOUS
 62
     3
 10
22326.0582235
 20
19680.980973999998
 30
0.0
 11
22332.064082500001
 21
19680.980973999998
 31
0.0
  0
LINE
  5
3184
  8
2-0
  6
CONTINUOUS
 62
     3
 10
22342.1576475
 20
19680.980973999998
 30
0.0
 11
22342.1576475
 21
19710.984537000011
 31
0.0
  0
LINE
  5
3185
  8
2-0
  6
CONTINUOUS
 62
     3
 10
22324.161844499991
 20
19680.980973999998
 30
0.0
 11
22342.1576475
 21
19680.980973999998
 31
0.0
  0
LINE
  5
3186
  8
2-0
  6
CONTINUOUS
 62
     3
 10
22324.161844499991
 20
19705.990211000011
 30
0.0
 11
22324.161844499991
 21
19680.980973999998
 31
0.0
  0
LINE
  5
3187
  8
2-0
  6
CONTINUOUS
 62
     3
 10
22329.1522105
 20
19705.990211000011
 30
0.0
 11
22324.161844499991
 21
19705.990211000011
 31
0.0
  0
LINE
  5
3188
  8
2-0
  6
CONTINUOUS
 62
     3
 10
22329.1522105
 20
19698.984695000021
 30
0.0
 11
22329.1522105
 21
19705.990211000011
 31
0.0
  0
LINE
  5
3189
  8
2-0
  6
CONTINUOUS
 62
     3
 10
21641.158637500001
 20
19710.984537000011
 30
0.0
 11
22284.969356499991
 21
19710.984537000011
 31
0.0
  0
LINE
  5
318A
  8
2-0
  6
CONTINUOUS
 62
     3
 10
20937.368743999981
 20
19710.984537000011
 30
0.0
 11
21583.968366500001
 21
19710.984537000011
 31
0.0
  0
LINE
  5
318B
  8
2-0
  6
CONTINUOUS
 62
     3
 10
23690.447132000001
 20
19710.984537000011
 30
0.0
 11
23043.161606999998
 21
19710.984537000011
 31
0.0
  0
LINE
  5
318C
  8
2-0
  6
CONTINUOUS
 62
     3
 10
22985.969356000001
 20
19710.984537000011
 30
0.0
 11
22342.1576475
 21
19710.984537000011
 31
0.0
  0
LINE
  5
318D
  8
2-0
  6
CONTINUOUS
 62
     3
 10
23815.061785999991
 20
15263.12568899999
 30
0.0
 11
23815.061785999991
 21
14619.086831000001
 31
0.0
  0
LINE
  5
318E
  8
2-0
  6
CONTINUOUS
 62
     3
 10
23815.061785999991
 20
14561.890621
 30
0.0
 11
23815.061785999991
 21
13915.024258999991
 31
0.0
  0
CIRCLE
  5
318F
  8
2-0
  6
CONTINUOUS
 62
     4
 10
23772.563502000001
 20
21110.989156000011
 30
0.0
 40
200.00001
  0
TEXT
  5
3190
  8
2-0
  6
CONTINUOUS
 62
     7
 10
23720.931719000011
 20
21015.463527000022
 30
0.0
 40
160.0
  1
2
 72
     4
 11
23774.26505233334
 21
21095.463527000022
 31
0.0
  0
LINE
  5
3191
  8
0-6
  6
CONTINUOUS
 62
     6
 10
22045.698993499991
 20
18999.666309
 30
0.0
 11
23070.7392435
 21
18999.666309
 31
0.0
  0
LINE
  5
3192
  8
0-6
  6
CONTINUOUS
 62
     6
 10
21745.774215500001
 20
19557.019561000008
 30
0.0
 11
21641.158637500001
 21
19680.980973999998
 31
0.0
  0
LINE
  5
3193
  8
0-6
  6
CONTINUOUS
 62
     6
 10
21641.158637500001
 20
19680.980973999998
 30
0.0
 11
21699.916687500001
 21
19529.78930400002
 31
0.0
  0
LINE
  5
3194
  8
0-6
  6
CONTINUOUS
 62
     6
 10
21641.158637500001
 20
19680.980973999998
 30
0.0
 11
21745.774215500001
 21
19557.019561000008
 31
0.0
  0
LINE
  5
3195
  8
0-6
  6
CONTINUOUS
 62
     6
 10
21745.774215500001
 20
19557.019561000008
 30
0.0
 11
21699.916687500001
 21
19529.78930400002
 31
0.0
  0
LINE
  5
3196
  8
0-6
  6
CONTINUOUS
 62
     6
 10
21699.916687500001
 20
19529.78930400002
 30
0.0
 11
21641.158637500001
 21
19680.980973999998
 31
0.0
  0
LINE
  5
3197
  8
0-6
  6
CONTINUOUS
 62
     6
 10
21699.916687500001
 20
19529.78930400002
 30
0.0
 11
21745.774215500001
 21
19557.019561000008
 31
0.0
  0
LINE
  5
3198
  8
0-6
  6
CONTINUOUS
 62
     6
 10
21722.845451500001
 20
19543.406412000011
 30
0.0
 11
22045.698993499991
 21
18999.666309
 31
0.0
  0
TEXT
  5
3199
  8
0-6
  6
CONTINUOUS
 62
     7
 10
22125.6992575
 20
19079.668553000021
 30
0.0
 40
160.0
  1
間柱（後）
 72
     4
 11
22547.032590833329
 21
19159.668553000021
 31
0.0
  0
LINE
  5
319A
  8
0-5
  6
CONTINUOUS
 62
     4
 10
15532.066920999991
 20
4787.9233240000003
 30
0.0
 11
15532.066920999991
 21
4627.9237860000003
 31
0.0
  0
LINE
  5
319B
  8
0-5
  6
CONTINUOUS
 62
     4
 10
12614.066920999991
 20
4787.9233240000003
 30
0.0
 11
12614.066920999991
 21
4627.9237860000003
 31
0.0
  0
LINE
  5
319C
  8
0-5
  6
CONTINUOUS
 62
     4
 10
9696.0669209999924
 20
4787.9233240000003
 30
0.0
 11
9696.0669209999924
 21
4627.9237860000003
 31
0.0
  0
CIRCLE
  5
319D
  8
0-5
  6
CONTINUOUS
 62
     4
 10
12614.066920999991
 20
4427.9226310000013
 30
0.0
 40
199.9999949999999
  0
CIRCLE
  5
319E
  8
0-5
  6
CONTINUOUS
 62
     4
 10
15532.066920999991
 20
4427.9226310000013
 30
0.0
 40
199.9999949999999
  0
CIRCLE
  5
319F
  8
0-5
  6
CONTINUOUS
 62
     4
 10
9696.0669209999924
 20
4427.9226310000013
 30
0.0
 40
199.9999949999999
  0
TEXT
  5
31A0
  8
0-5
  6
CONTINUOUS
 62
     7
 10
15485.11076099998
 20
4344.7118350000001
 30
0.0
 40
160.0
  1
A
 72
     4
 11
15538.444094333319
 21
4424.7118350000001
 31
0.0
  0
TEXT
  5
31A1
  8
0-5
  6
CONTINUOUS
 62
     7
 10
12567.110760999991
 20
4344.7118350000001
 30
0.0
 40
160.0
  1
B
 72
     4
 11
12620.444094333319
 21
4424.7118350000001
 31
0.0
  0
TEXT
  5
31A2
  8
0-5
  6
CONTINUOUS
 62
     7
 10
9649.1107609999963
 20
4344.7118350000001
 30
0.0
 40
160.0
  1
C
 72
     4
 11
9702.4440943333302
 21
4424.7118350000001
 31
0.0
  0
LINE
  5
31A3
  8
0-5
  6
CONTINUOUS
 62
     4
 10
17292.150917999981
 20
6567.9232579999989
 30
0.0
 11
17412.151313999981
 21
6775.7702349999954
 31
0.0
  0
LINE
  5
31A4
  8
0-5
  6
CONTINUOUS
 62
     4
 10
17172.152500999971
 20
6775.7702349999954
 30
0.0
 11
17292.150917999981
 21
6567.9232579999989
 31
0.0
  0
LINE
  5
31A5
  8
0-5
  6
CONTINUOUS
 62
     4
 10
17412.151313999981
 20
6775.7702349999954
 30
0.0
 11
17172.152500999971
 21
6775.7702349999954
 31
0.0
  0
LINE
  5
31A6
  8
0-5
  6
CONTINUOUS
 62
     4
 10
15667.064216000001
 20
6567.9232579999998
 30
0.0
 11
17384.529110999982
 21
6567.9232579999989
 31
0.0
  0
TEXT
  5
31A7
  8
0-5
  6
CONTINUOUS
 62
     7
 10
16833.058988999979
 20
6855.7695089999979
 30
0.0
 40
160.0
  1
布基礎天端
 72
     4
 11
17291.725655666651
 21
6935.7695089999979
 31
0.0
  0
LINE
  5
31A8
  8
0-1
  6
CONTINUOUS
 62
     3
 10
20897.059807000009
 20
8475.9238119999973
 30
0.0
 11
23730.063237999992
 21
8475.9238119999973
 31
0.0
  0
LINE
  5
31AF
  8
0-1
  6
CONTINUOUS
 62
     3
 10
23822.562182999991
 20
6567.9237529999991
 30
0.0
 11
23722.562841999999
 21
6567.9237529999991
 31
0.0
  0
LINE
  5
31B0
  8
0-1
  6
CONTINUOUS
 62
     3
 10
23722.562841999999
 20
6567.9237529999991
 30
0.0
 11
23722.562841999999
 21
6467.9239179999959
 31
0.0
  0
LINE
  5
31B1
  8
0-1
  6
CONTINUOUS
 62
     3
 10
23822.562182999991
 20
6467.9239179999959
 30
0.0
 11
23822.562182999991
 21
6567.9237529999991
 31
0.0
  0
LINE
  5
31B2
  8
0-1
  6
CONTINUOUS
 62
     3
 10
23730.063237999992
 20
8785.9238449999975
 30
0.0
 11
23730.063237999992
 21
6567.9237529999991
 31
0.0
  0
LINE
  5
31B3
  8
0-1
  6
CONTINUOUS
 62
     3
 10
23685.064821999989
 20
8475.9238119999973
 30
0.0
 11
23685.064821999989
 21
6467.9239179999959
 31
0.0
  0
LINE
  5
31B4
  8
0-1
  6
CONTINUOUS
 62
     3
 10
23795.064689999988
 20
8915.9237789999934
 30
0.0
 11
23795.064689999988
 21
6567.9237529999991
 31
0.0
  0
LINE
  5
31B5
  8
0-1
  6
CONTINUOUS
 62
     3
 10
23815.061786999999
 20
8785.9238449999975
 30
0.0
 11
23815.061786999999
 21
6567.9237529999991
 31
0.0
  0
LINE
  5
31B7
  8
0-1
  6
CONTINUOUS
 62
     3
 10
20804.56086300001
 20
6567.9237529999991
 30
0.0
 11
20904.560203000001
 21
6567.9237529999991
 31
0.0
  0
LINE
  5
31B8
  8
0-1
  6
CONTINUOUS
 62
     3
 10
20904.560203000001
 20
6567.9237529999991
 30
0.0
 11
20904.560203000001
 21
6467.9239179999959
 31
0.0
  0
LINE
  5
31B9
  8
0-1
  6
CONTINUOUS
 62
     3
 10
20804.56086300001
 20
6467.9239179999959
 30
0.0
 11
20804.56086300001
 21
6567.9237529999991
 31
0.0
  0
LINE
  5
31BA
  8
0-1
  6
CONTINUOUS
 62
     3
 10
20942.062182999998
 20
8475.9238119999973
 30
0.0
 11
20942.062182999998
 21
6467.9239179999959
 31
0.0
  0
LINE
  5
31BB
  8
0-1
  6
CONTINUOUS
 62
     3
 10
20897.059807000009
 20
8785.9238449999975
 30
0.0
 11
20897.059807000009
 21
6567.9237529999991
 31
0.0
  0
LINE
  5
31BC
  8
0-1
  6
CONTINUOUS
 62
     3
 10
20832.060334999998
 20
8915.9237789999934
 30
0.0
 11
20832.060334999998
 21
6567.9237529999991
 31
0.0
  0
LINE
  5
31BD
  8
0-1
  6
CONTINUOUS
 62
     3
 10
20812.061258999998
 20
8785.9238449999975
 30
0.0
 11
20812.061258999998
 21
6567.9237529999991
 31
0.0
  0
LINE
  5
31BE
  8
0-1
  6
CONTINUOUS
 62
     3
 10
20942.062182999998
 20
6987.9246439999988
 30
0.0
 11
23685.064821999989
 21
6987.9246439999988
 31
0.0
  0
LINE
  5
31BF
  8
0-1
  6
CONTINUOUS
 62
     3
 10
20942.062182999998
 20
6922.9241819999988
 30
0.0
 11
23685.064821999989
 21
6922.9241819999988
 31
0.0
  0
LINE
  5
31C0
  8
0-1
  6
CONTINUOUS
 62
     3
 10
20942.062182999998
 20
6857.9242150000009
 30
0.0
 11
23685.064821999989
 21
6857.9242150000009
 31
0.0
  0
LINE
  5
31C1
  8
0-1
  6
CONTINUOUS
 62
     3
 10
20942.062182999998
 20
6792.923753
 30
0.0
 11
23685.064821999989
 21
6792.923753
 31
0.0
  0
LINE
  5
31C2
  8
0-1
  6
CONTINUOUS
 62
     3
 10
20942.062182999998
 20
6727.9242810000032
 30
0.0
 11
23685.064821999989
 21
6727.9242810000032
 31
0.0
  0
LINE
  5
31C3
  8
0-1
  6
CONTINUOUS
 62
     3
 10
20942.062182999998
 20
6662.9243139999999
 30
0.0
 11
23685.064821999989
 21
6662.9243139999999
 31
0.0
  0
LINE
  5
31C4
  8
0-1
  6
CONTINUOUS
 62
     3
 10
20942.062182999998
 20
6597.9243470000001
 30
0.0
 11
23685.064821999989
 21
6597.9243470000001
 31
0.0
  0
LINE
  5
31C5
  8
0-1
  6
CONTINUOUS
 62
     3
 10
20942.062182999998
 20
6532.9238849999983
 30
0.0
 11
23685.064821999989
 21
6532.9238849999983
 31
0.0
  0
LINE
  5
31C6
  8
0-1
  6
CONTINUOUS
 62
     3
 10
20942.062182999998
 20
8352.9239510000007
 30
0.0
 11
23685.064821999989
 21
8352.9239510000007
 31
0.0
  0
LINE
  5
31C7
  8
0-1
  6
CONTINUOUS
 62
     3
 10
20942.062182999998
 20
8287.9239839999973
 30
0.0
 11
23685.064821999989
 21
8287.9239839999973
 31
0.0
  0
LINE
  5
31C8
  8
0-1
  6
CONTINUOUS
 62
     3
 10
20942.062182999998
 20
8222.9245120000032
 30
0.0
 11
23685.064821999989
 21
8222.9245120000032
 31
0.0
  0
LINE
  5
31C9
  8
0-1
  6
CONTINUOUS
 62
     3
 10
20942.062182999998
 20
8157.924544999998
 30
0.0
 11
23685.064821999989
 21
8157.924544999998
 31
0.0
  0
LINE
  5
31CA
  8
0-1
  6
CONTINUOUS
 62
     3
 10
20942.062182999998
 20
8092.924578000001
 30
0.0
 11
23685.064821999989
 21
8092.924578000001
 31
0.0
  0
LINE
  5
31CB
  8
0-1
  6
CONTINUOUS
 62
     3
 10
20942.062182999998
 20
8027.9241159999974
 30
0.0
 11
23685.064821999989
 21
8027.9241159999974
 31
0.0
  0
LINE
  5
31CC
  8
0-1
  6
CONTINUOUS
 62
     3
 10
20942.062182999998
 20
7962.9241489999986
 30
0.0
 11
23685.064821999989
 21
7962.9241489999986
 31
0.0
  0
LINE
  5
31CD
  8
0-1
  6
CONTINUOUS
 62
     3
 10
20942.062182999998
 20
7897.9246769999982
 30
0.0
 11
23685.064821999989
 21
7897.9246769999982
 31
0.0
  0
LINE
  5
31CE
  8
0-1
  6
CONTINUOUS
 62
     3
 10
20942.062182999998
 20
7832.9247099999948
 30
0.0
 11
23685.064821999989
 21
7832.9247099999948
 31
0.0
  0
LINE
  5
31CF
  8
0-1
  6
CONTINUOUS
 62
     3
 10
20942.062182999998
 20
7767.924248000003
 30
0.0
 11
23685.064821999989
 21
7767.924248000003
 31
0.0
  0
LINE
  5
31D0
  8
0-1
  6
CONTINUOUS
 62
     3
 10
20942.062182999998
 20
7702.9242809999978
 30
0.0
 11
23685.064821999989
 21
7702.9242809999978
 31
0.0
  0
LINE
  5
31D1
  8
0-1
  6
CONTINUOUS
 62
     3
 10
20942.062182999998
 20
7637.9243139999999
 30
0.0
 11
23685.064821999989
 21
7637.9243139999999
 31
0.0
  0
LINE
  5
31D2
  8
0-1
  6
CONTINUOUS
 62
     3
 10
20942.062182999998
 20
7572.923851999999
 30
0.0
 11
23685.064821999989
 21
7572.923851999999
 31
0.0
  0
LINE
  5
31D3
  8
0-1
  6
CONTINUOUS
 62
     3
 10
20942.062182999998
 20
7507.9238849999938
 30
0.0
 11
23685.064821999989
 21
7507.9238849999938
 31
0.0
  0
LINE
  5
31D4
  8
0-1
  6
CONTINUOUS
 62
     3
 10
20942.062182999998
 20
7442.9244129999997
 30
0.0
 11
23685.064821999989
 21
7442.9244129999997
 31
0.0
  0
LINE
  5
31D5
  8
0-1
  6
CONTINUOUS
 62
     3
 10
20942.062182999998
 20
7377.9244459999973
 30
0.0
 11
23685.064821999989
 21
7377.9244459999973
 31
0.0
  0
LINE
  5
31D6
  8
0-1
  6
CONTINUOUS
 62
     3
 10
20942.062182999998
 20
7312.9244789999966
 30
0.0
 11
23685.064821999989
 21
7312.9244789999966
 31
0.0
  0
LINE
  5
31D7
  8
0-1
  6
CONTINUOUS
 62
     3
 10
20942.062182999998
 20
7247.9240170000021
 30
0.0
 11
23685.064821999989
 21
7247.9240170000021
 31
0.0
  0
LINE
  5
31D8
  8
0-1
  6
CONTINUOUS
 62
     3
 10
20942.062182999998
 20
7182.9240499999978
 30
0.0
 11
23685.064821999989
 21
7182.9240499999978
 31
0.0
  0
LINE
  5
31D9
  8
0-1
  6
CONTINUOUS
 62
     3
 10
20942.062182999998
 20
7117.9245780000001
 30
0.0
 11
23685.064821999989
 21
7117.9245780000001
 31
0.0
  0
LINE
  5
31DA
  8
0-1
  6
CONTINUOUS
 62
     3
 10
20942.062182999998
 20
7052.9246109999985
 30
0.0
 11
23685.064821999989
 21
7052.9246109999985
 31
0.0
  0
LINE
  5
31DB
  8
0-1
  6
CONTINUOUS
 62
     3
 10
20942.062182999998
 20
8407.3839709999975
 30
0.0
 11
23685.064821999989
 21
8407.3839709999975
 31
0.0
  0
LINE
  5
31DC
  8
0-1
  6
CONTINUOUS
 62
     3
 10
20804.56086300001
 20
6467.9239179999959
 30
0.0
 11
23822.562182999991
 21
6467.9239179999959
 31
0.0
  0
LINE
  5
31EE
  8
0-2
  6
CONTINUOUS
 62
     4
 10
22677.25352200001
 20
7215.1506119999976
 30
0.0
 11
22577.254182000001
 21
7215.1506119999976
 31
0.0
  0
LINE
  5
31EF
  8
0-2
  6
CONTINUOUS
 62
     4
 10
21949.869521999979
 20
7215.1506119999976
 30
0.0
 11
22049.868861999988
 21
7215.1506119999976
 31
0.0
  0
LINE
  5
31F0
  8
0-5
  6
CONTINUOUS
 62
     4
 10
23772.563502000001
 20
4787.9243139999962
 30
0.0
 11
23772.563502000001
 21
4627.9247759999989
 31
0.0
  0
LINE
  5
31F1
  8
0-5
  6
CONTINUOUS
 62
     4
 10
20854.563502000001
 20
4787.9243139999962
 30
0.0
 11
20854.563502000001
 21
4627.9247759999989
 31
0.0
  0
LINE
  5
31F2
  8
2-0
  6
CENTER2
 62
     6
 10
23772.563502000001
 20
6205.2714950000009
 30
0.0
 11
23772.563502000001
 21
7242.414522
 31
0.0
  0
LINE
  5
31F3
  8
2-0
  6
CENTER2
 62
     6
 10
20854.563502000001
 20
6205.2714950000009
 30
0.0
 11
20854.563502000001
 21
7242.414522
 31
0.0
  0
CIRCLE
  5
31FC
  8
0-5
  6
CONTINUOUS
 62
     4
 10
23772.563502000001
 20
4427.9236209999972
 30
0.0
 40
199.9999949999999
  0
CIRCLE
  5
31FD
  8
0-5
  6
CONTINUOUS
 62
     4
 10
20854.563502000001
 20
4427.9236209999972
 30
0.0
 40
199.9999949999999
  0
TEXT
  5
31FE
  8
0-5
  6
CONTINUOUS
 62
     7
 10
23720.650626999999
 20
4338.4486389999984
 30
0.0
 40
160.0
  1
2
 72
     4
 11
23773.983960333331
 21
4418.4486389999984
 31
0.0
  0
TEXT
  5
31FF
  8
0-5
  6
CONTINUOUS
 62
     7
 10
20802.65062800001
 20
4338.4486389999984
 30
0.0
 40
160.0
  1
1
 72
     4
 11
20829.317294666671
 21
4418.4486389999984
 31
0.0
  0
CIRCLE
  5
3200
  8
0-4
  6
CONTINUOUS
 62
     4
 10
22313.563502000001
 20
6953.9803539999957
 30
0.0
 40
18.487504999999981
  0
LINE
  5
3201
  8
SUNPOU
  6
CONTINUOUS
 10
20572.06350199999
 20
5267.9239180000041
 30
0.0
 11
20214.108495278891
 21
5267.9239180000041
 31
0.0
  0
LINE
  5
3202
  8
SUNPOU
  6
CONTINUOUS
 10
24055.063502000001
 20
5267.9239180000041
 30
0.0
 11
24413.018508721081
 21
5267.9239180000041
 31
0.0
  0
TEXT
  5
3203
  8
0-5
  6
CONTINUOUS
 62
     7
 10
20236.385582999999
 20
7197.2841647419982
 30
0.0
 40
160.0
  1
(2131.5)
 50
90.0
 72
     4
 11
20156.385582999999
 21
7650.6174980753312
 31
0.0
  0
TEXT
  5
3204
  8
2-0
  6
CONTINUOUS
 62
     7
 10
20994.240102
 20
3506.7741969999988
 30
0.0
 40
160.0
  1
正 面 立 面 図
 72
     4
 11
21639.573435333328
 21
3586.7741969999988
 31
0.0
  0
TEXT
  5
3205
  8
2-0
  6
CONTINUOUS
 62
     7
 10
22991.065620470959
 20
3533.9695660000002
 30
0.0
 40
160.0
  1
1
 72
     4
 11
23017.732287137631
 21
3613.9695660000002
 31
0.0
  0
TEXT
  5
3206
  8
2-0
  6
CONTINUOUS
 62
     7
 10
23234.154337721651
 20
3453.9710340000001
 30
0.0
 40
160.0
  1
80
 72
     4
 11
23354.154337721651
 21
3533.9710340000001
 31
0.0
  0
TEXT
  5
3207
  8
2-0
  6
CONTINUOUS
 62
     7
 10
22492.067586470948
 20
3506.7741969999988
 30
0.0
 40
160.0
  1
(S=  /   )
 72
     4
 11
23052.067586470948
 21
3586.7741969999988
 31
0.0
  0
LINE
  5
3208
  8
SUNPOU
  6
CONTINUOUS
 10
10555.09962899998
 20
19890.982161000022
 30
0.0
 11
10555.09962899998
 21
20687.949428778458
 31
0.0
  0
LINE
  5
3209
  8
SUNPOU
  6
CONTINUOUS
 10
10555.09962899998
 20
13639.990937
 30
0.0
 11
10555.09962899998
 21
12964.56482118961
 31
0.0
  0
TEXT
  5
320A
  8
2-0
  6
CONTINUOUS
 62
     7
 10
11838.665078999989
 20
11583.09509899998
 30
0.0
 40
160.0
  1
小 屋 伏 図
 72
     4
 11
12339.998412333331
 21
11663.09509899998
 31
0.0
  0
TEXT
  5
320B
  8
2-0
  6
CONTINUOUS
 62
     7
 10
13691.490597470951
 20
11610.29046799999
 30
0.0
 40
160.0
  1
1
 72
     4
 11
13718.157264137621
 21
11690.29046799999
 31
0.0
  0
TEXT
  5
320C
  8
2-0
  6
CONTINUOUS
 62
     7
 10
13934.579314721659
 20
11530.291935999991
 30
0.0
 40
160.0
  1
80
 72
     4
 11
14054.579314721659
 21
11610.291935999991
 31
0.0
  0
TEXT
  5
320D
  8
2-0
  6
CONTINUOUS
 62
     7
 10
13192.492563470951
 20
11583.09509899998
 30
0.0
 40
160.0
  1
(S=  /   )
 72
     4
 11
13752.492563470951
 21
11663.09509899998
 31
0.0
  0
LINE
  5
320E
  8
SUNPOU
  6
CONTINUOUS
 10
9473.565666999988
 20
9715.9239439999983
 30
0.0
 11
8998.2765543597579
 21
9715.9239439999983
 31
0.0
  0
LINE
  5
3211
  8
WAKUSEN-01
 10
868.00000000000193
 20
22484.000000000011
 30
0.0
 11
32764.000000000011
 21
22484.000000000011
 31
0.0
  0
LINE
  5
3214
  8
WAKUSEN-01
 10
20560.0
 20
2484.0
 30
0.0
 11
32764.0
 21
2484.0
 31
0.0
  0
LINE
  5
3215
  8
WAKUSEN-02
 10
20560.0
 20
1655.9999999999991
 30
0.0
 11
26868.0
 21
1655.9999999999991
 31
0.0
  0
TEXT
  5
3216
  8
WAKUMOJI-01
 10
20670.260259962761
 20
2125.9030093393221
 30
0.0
 40
240.0
  1
名　称
  7
WAKUMOJI
  0
TEXT
  5
3217
  8
WAKUMOJI-01
 10
20656.505485091919
 20
1319.12897497982
 30
0.0
 40
240.0
  1
機種名
  7
WAKUMOJI
  0
LINE
  5
321A
  8
YODOROGO
 10
29977.604341291921
 20
1995.7494964292871
 30
0.0
 11
29829.604341291921
 21
1995.7494964292871
 31
0.0
1001
AUTOCAD_POSTSCRIPT_FIGURE
1002
{
1000
PSFILL
1000
Grayscale
1000
Grayscale
1070
    25
1002
}
  0
LINE
  5
321B
  8
YODOROGO
 10
29829.604341291921
 20
1947.749496429288
 30
0.0
 11
29977.604341291921
 21
1947.749496429288
 31
0.0
1001
AUTOCAD_POSTSCRIPT_FIGURE
1002
{
1000
PSFILL
1000
Grayscale
1000
Grayscale
1070
    25
1002
}
  0
LINE
  5
321C
  8
YODOROGO
 10
29977.604341291921
 20
1907.7494964292871
 30
0.0
 11
29829.604341291921
 21
1907.7494964292871
 31
0.0
1001
AUTOCAD_POSTSCRIPT_FIGURE
1002
{
1000
PSFILL
1000
Grayscale
1000
Grayscale
1070
    25
1002
}
  0
LINE
  5
321D
  8
YODOROGO
 10
29829.604341291921
 20
1859.749496429288
 30
0.0
 11
29977.604341291921
 21
1859.749496429288
 31
0.0
1001
AUTOCAD_POSTSCRIPT_FIGURE
1002
{
1000
PSFILL
1000
Grayscale
1000
Grayscale
1070
    25
1002
}
  0
LINE
  5
321E
  8
YODOROGO
 10
29977.604341291921
 20
1819.7494964292871
 30
0.0
 11
29829.604341291921
 21
1819.7494964292871
 31
0.0
1001
AUTOCAD_POSTSCRIPT_FIGURE
1002
{
1000
PSFILL
1000
Grayscale
1000
Grayscale
1070
    25
1002
}
  0
LINE
  5
321F
  8
YODOROGO
 10
29921.60434129191
 20
1707.749496429288
 30
0.0
 11
29977.604341291921
 21
1707.749496429288
 31
0.0
1001
AUTOCAD_POSTSCRIPT_FIGURE
1002
{
1000
PSFILL
1000
Grayscale
1000
Grayscale
1070
    25
1002
}
  0
LINE
  5
3220
  8
YODOROGO
 10
29737.604341291921
 20
1427.749496429288
 30
0.0
 11
29937.604341291932
 21
1481.3393349155101
 31
0.0
  0
LINE
  5
3221
  8
YODOROGO
 10
29949.60434129191
 20
1707.749496429288
 30
0.0
 11
29885.604341291921
 21
1707.749496429288
 31
0.0
  0
ARC
  5
3222
  8
YODOROGO
 10
30254.34774982791
 20
1807.864609233261
 30
0.0
 40
381.88686420564721
 50
213.96111677667841
 51
264.47872074317792
  0
ARC
  5
3223
  8
YODOROGO
 10
30254.347749827921
 20
1807.864609233302
 30
0.0
 40
381.8868642056816
 50
208.14114420486601
 51
212.9210361185994
  0
LINE
  5
3224
  8
YODOROGO
 10
29771.409872985321
 20
1556.807661346234
 30
0.0
 11
29933.78413250855
 21
1600.3157130570869
 31
0.0
  0
LINE
  5
3225
  8
YODOROGO
 10
29737.604341291921
 20
1427.749496429288
 30
0.0
 11
29937.604341291932
 21
1481.3393349155101
 31
0.0
  0
LINE
  5
3226
  8
YODOROGO
 10
29949.60434129191
 20
1707.749496429288
 30
0.0
 11
29885.604341291921
 21
1707.749496429288
 31
0.0
  0
ARC
  5
3227
  8
YODOROGO
 10
30254.34774982791
 20
1807.864609233261
 30
0.0
 40
381.88686420564721
 50
213.96111677667841
 51
264.47872074317792
  0
LINE
  5
3228
  8
YODOROGO
 10
28793.60434129191
 20
1819.7494964292871
 30
0.0
 11
28433.60434129191
 21
1819.7494964292871
 31
0.0
  0
LINE
  5
3229
  8
YODOROGO
 10
28513.60434129191
 20
1427.749496429288
 30
0.0
 11
28793.60434129191
 21
1427.749496429288
 31
0.0
  0
LINE
  5
322A
  8
YODOROGO
 10
28729.604341291921
 20
1923.7494964292871
 30
0.0
 11
28497.60434129191
 21
1923.7494964292871
 31
0.0
  0
LINE
  5
322B
  8
YODOROGO
 10
28585.604341291921
 20
2027.749496429288
 30
0.0
 11
28657.604341291921
 21
2027.749496429288
 31
0.0
  0
LINE
  5
322C
  8
YODOROGO
 10
28433.60434129191
 20
1707.749496429288
 30
0.0
 11
28433.60434129191
 21
1507.749496429288
 31
0.0
  0
LINE
  5
322D
  8
YODOROGO
 10
28497.60434129191
 20
1563.7494964292871
 30
0.0
 11
28497.60434129191
 21
1707.749496429288
 31
0.0
  0
LINE
  5
322E
  8
YODOROGO
 10
28585.604341291921
 20
1747.74949642929
 30
0.0
 11
28585.604341291921
 21
1547.749496429288
 31
0.0
  0
LINE
  5
322F
  8
YODOROGO
 10
27857.604341291921
 20
1683.749496429288
 30
0.0
 11
27777.604341291921
 21
1619.9724140445701
 31
0.0
  0
LINE
  5
3230
  8
YODOROGO
 10
27937.604341291921
 20
1619.9724140445701
 30
0.0
 11
27857.604341291921
 21
1683.749496429288
 31
0.0
  0
LINE
  5
3231
  8
YODOROGO
 10
27857.604341291921
 20
1707.749496429288
 30
0.0
 11
27937.604341291921
 21
1643.9724140445701
 31
0.0
  0
LINE
  5
3232
  8
YODOROGO
 10
27777.604341291921
 20
1643.9724140445701
 30
0.0
 11
27857.604341291921
 21
1707.749496429288
 31
0.0
  0
LINE
  5
3233
  8
YODOROGO
 10
28040.913204016892
 20
1659.749496429288
 30
0.0
 11
28040.913204016892
 21
1683.7494964292871
 31
0.0
  0
LINE
  5
3234
  8
YODOROGO
 10
27977.604341291921
 20
1683.7494964292871
 30
0.0
 11
27977.604341291921
 21
1667.749496429285
 31
0.0
  0
LINE
  5
3235
  8
YODOROGO
 10
28098.135520230931
 20
1707.749496429288
 30
0.0
 11
28098.135520230931
 21
1655.5036372746561
 31
0.0
1001
AUTOCAD_POSTSCRIPT_FIGURE
1002
{
1000
PSFILL
1000
Grayscale
1000
Grayscale
1070
   100
1002
}
  0
LINE
  5
3236
  8
YODOROGO
 10
28082.135520230921
 20
1655.5036372746561
 30
0.0
 11
28082.135520230921
 21
1707.749496429288
 31
0.0
1001
AUTOCAD_POSTSCRIPT_FIGURE
1002
{
1000
PSFILL
1000
Grayscale
1000
Grayscale
1070
   100
1002
}
  0
LINE
  5
3237
  8
YODOROGO
 10
27809.604341291921
 20
1608.771904043258
 30
0.0
 11
27809.604341291921
 21
1632.771904043258
 31
0.0
  0
LINE
  5
3238
  8
YODOROGO
 10
27905.604341291921
 20
1608.771904043258
 30
0.0
 11
27809.604341291921
 21
1608.771904043258
 31
0.0
  0
LINE
  5
3239
  8
YODOROGO
 10
27905.604341291921
 20
1632.771904043258
 30
0.0
 11
27905.604341291921
 21
1608.771904043258
 31
0.0
  0
LINE
  5
323A
  8
YODOROGO
 10
27809.604341291921
 20
1632.771904043258
 30
0.0
 11
27905.604341291921
 21
1632.771904043258
 31
0.0
  0
LINE
  5
323B
  8
YODOROGO
 10
27824.509588915738
 20
1568.5028573704751
 30
0.0
 11
27785.604341291921
 21
1475.7494964292871
 31
0.0
1001
AUTOCAD_POSTSCRIPT_FIGURE
1002
{
1000
PSFILL
1000
Grayscale
1000
Grayscale
1070
   100
1002
}
  0
LINE
  5
323C
  8
YODOROGO
 10
27777.604341291921
 20
1568.5028573704751
 30
0.0
 11
27824.509588915738
 21
1568.5028573704751
 31
0.0
1001
AUTOCAD_POSTSCRIPT_FIGURE
1002
{
1000
PSFILL
1000
Grayscale
1000
Grayscale
1070
   100
1002
}
  0
LINE
  5
323D
  8
YODOROGO
 10
27777.604341291921
 20
1588.5028573704751
 30
0.0
 11
27777.604341291921
 21
1568.5028573704751
 31
0.0
1001
AUTOCAD_POSTSCRIPT_FIGURE
1002
{
1000
PSFILL
1000
Grayscale
1000
Grayscale
1070
   100
1002
}
  0
LINE
  5
323E
  8
YODOROGO
 10
27937.604341291921
 20
1588.5028573704751
 30
0.0
 11
27777.604341291921
 21
1588.5028573704751
 31
0.0
1001
AUTOCAD_POSTSCRIPT_FIGURE
1002
{
1000
PSFILL
1000
Grayscale
1000
Grayscale
1070
   100
1002
}
  0
LINE
  5
323F
  8
YODOROGO
 10
27937.604341291921
 20
1568.5028573704751
 30
0.0
 11
27937.604341291921
 21
1588.5028573704751
 31
0.0
1001
AUTOCAD_POSTSCRIPT_FIGURE
1002
{
1000
PSFILL
1000
Grayscale
1000
Grayscale
1070
   100
1002
}
  0
LINE
  5
3240
  8
YODOROGO
 10
27844.509588915738
 20
1568.5028573704751
 30
0.0
 11
27937.604341291921
 21
1568.5028573704751
 31
0.0
1001
AUTOCAD_POSTSCRIPT_FIGURE
1002
{
1000
PSFILL
1000
Grayscale
1000
Grayscale
1070
   100
1002
}
  0
LINE
  5
3241
  8
YODOROGO
 10
27815.546718284771
 20
1495.7494964292871
 30
0.0
 11
27844.509588915738
 21
1568.5028573704751
 31
0.0
1001
AUTOCAD_POSTSCRIPT_FIGURE
1002
{
1000
PSFILL
1000
Grayscale
1000
Grayscale
1070
   100
1002
}
  0
LINE
  5
3242
  8
YODOROGO
 10
27902.054790808648
 20
1495.7494964292871
 30
0.0
 11
27815.546718284771
 21
1495.7494964292871
 31
0.0
1001
AUTOCAD_POSTSCRIPT_FIGURE
1002
{
1000
PSFILL
1000
Grayscale
1000
Grayscale
1070
   100
1002
}
  0
LINE
  5
3243
  8
YODOROGO
 10
27885.065004790951
 20
1536.2338106976929
 30
0.0
 11
27902.054790808648
 21
1495.7494964292871
 31
0.0
1001
AUTOCAD_POSTSCRIPT_FIGURE
1002
{
1000
PSFILL
1000
Grayscale
1000
Grayscale
1070
   100
1002
}
  0
LINE
  5
3244
  8
YODOROGO
 10
27901.065004790951
 20
1536.2338106976929
 30
0.0
 11
27885.065004790951
 21
1536.2338106976929
 31
0.0
1001
AUTOCAD_POSTSCRIPT_FIGURE
1002
{
1000
PSFILL
1000
Grayscale
1000
Grayscale
1070
   100
1002
}
  0
LINE
  5
3245
  8
YODOROGO
 10
27929.604341291921
 20
1475.7494964292871
 30
0.0
 11
27901.065004790951
 21
1536.2338106976929
 31
0.0
1001
AUTOCAD_POSTSCRIPT_FIGURE
1002
{
1000
PSFILL
1000
Grayscale
1000
Grayscale
1070
   100
1002
}
  0
LINE
  5
3246
  8
YODOROGO
 10
27785.604341291921
 20
1475.7494964292871
 30
0.0
 11
27929.604341291921
 21
1475.7494964292871
 31
0.0
1001
AUTOCAD_POSTSCRIPT_FIGURE
1002
{
1000
PSFILL
1000
Grayscale
1000
Grayscale
1070
   100
1002
}
  0
LINE
  5
3247
  8
YODOROGO
 10
27777.604341291921
 20
1619.9724140445701
 30
0.0
 11
27777.604341291921
 21
1643.9724140445701
 31
0.0
  0
LINE
  5
3248
  8
YODOROGO
 10
27937.604341291921
 20
1643.9724140445701
 30
0.0
 11
27937.604341291921
 21
1619.9724140445701
 31
0.0
  0
ARC
  5
3249
  8
YODOROGO
 10
28225.940442146959
 20
1600.877765325326
 30
0.0
 40
175.9999999999998
 50
280.3644312771313
 51
3.5414836592180561
  0
ARC
  5
324A
  8
YODOROGO
 10
28235.756030759301
 20
1633.5978069619041
 30
0.0
 40
111.9999999999982
 50
281.24905825041549
 51
348.75094174958321
  0
LINE
  5
324B
  8
YODOROGO
 10
28257.604341291921
 20
1523.7494964292871
 30
0.0
 11
28257.604341291921
 21
1427.749496429288
 31
0.0
  0
LINE
  5
324C
  8
YODOROGO
 10
28020.088903736909
 20
1610.650565061914
 30
0.0
 11
28040.913204016892
 21
1659.749496429288
 31
0.0
  0
LINE
  5
324D
  8
YODOROGO
 10
28041.604341291921
 20
1583.120489948401
 30
0.0
 11
28020.088903736909
 21
1610.650565061914
 31
0.0
  0
LINE
  5
324E
  8
YODOROGO
 10
28041.604341291921
 20
1563.120489948398
 30
0.0
 11
28041.604341291921
 21
1583.120489948401
 31
0.0
  0
LINE
  5
324F
  8
YODOROGO
 10
28017.604341291921
 20
1585.2370637495301
 30
0.0
 11
28041.604341291921
 21
1563.120489948398
 31
0.0
  0
LINE
  5
3250
  8
YODOROGO
 10
28017.604341291921
 20
1475.7494964292871
 30
0.0
 11
28017.604341291921
 21
1585.2370637495301
 31
0.0
  0
LINE
  5
3251
  8
YODOROGO
 10
28001.604341291921
 20
1475.7494964292871
 30
0.0
 11
28017.604341291921
 21
1475.7494964292871
 31
0.0
  0
LINE
  5
3252
  8
YODOROGO
 10
28001.604341291921
 20
1580.0053496897469
 30
0.0
 11
28001.604341291921
 21
1475.7494964292871
 31
0.0
  0
LINE
  5
3253
  8
YODOROGO
 10
27977.604341291921
 20
1532.7680790334291
 30
0.0
 11
28001.604341291921
 21
1580.0053496897469
 31
0.0
  0
LINE
  5
3254
  8
YODOROGO
 10
27977.604341291921
 20
1556.76807903343
 30
0.0
 11
27977.604341291921
 21
1532.7680790334291
 31
0.0
  0
LINE
  5
3255
  8
YODOROGO
 10
28025.828774291349
 20
1667.749496429285
 30
0.0
 11
27977.604341291921
 21
1556.76807903343
 31
0.0
  0
LINE
  5
3256
  8
YODOROGO
 10
27977.604341291921
 20
1667.749496429285
 30
0.0
 11
28025.828774291349
 21
1667.749496429285
 31
0.0
  0
LINE
  5
3257
  8
YODOROGO
 10
28050.135520230899
 20
1655.5036372746561
 30
0.0
 11
28082.135520230921
 21
1655.5036372746561
 31
0.0
1001
AUTOCAD_POSTSCRIPT_FIGURE
1002
{
1000
PSFILL
1000
Grayscale
1000
Grayscale
1070
   100
1002
}
  0
LINE
  5
3258
  8
YODOROGO
 10
28050.135520230899
 20
1631.5036372746561
 30
0.0
 11
28050.135520230899
 21
1655.5036372746561
 31
0.0
1001
AUTOCAD_POSTSCRIPT_FIGURE
1002
{
1000
PSFILL
1000
Grayscale
1000
Grayscale
1070
   100
1002
}
  0
LINE
  5
3259
  8
YODOROGO
 10
28082.135520230921
 20
1631.5036372746561
 30
0.0
 11
28050.135520230899
 21
1631.5036372746561
 31
0.0
1001
AUTOCAD_POSTSCRIPT_FIGURE
1002
{
1000
PSFILL
1000
Grayscale
1000
Grayscale
1070
   100
1002
}
  0
LINE
  5
325A
  8
YODOROGO
 10
28082.135520230921
 20
1499.749496429288
 30
0.0
 11
28082.135520230921
 21
1631.5036372746561
 31
0.0
1001
AUTOCAD_POSTSCRIPT_FIGURE
1002
{
1000
PSFILL
1000
Grayscale
1000
Grayscale
1070
   100
1002
}
  0
LINE
  5
325B
  8
YODOROGO
 10
28050.135520230921
 20
1499.749496429288
 30
0.0
 11
28082.135520230921
 21
1499.749496429288
 31
0.0
1001
AUTOCAD_POSTSCRIPT_FIGURE
1002
{
1000
PSFILL
1000
Grayscale
1000
Grayscale
1070
   100
1002
}
  0
LINE
  5
325C
  8
YODOROGO
 10
28050.135520230921
 20
1475.7494964292871
 30
0.0
 11
28050.135520230921
 21
1499.749496429288
 31
0.0
1001
AUTOCAD_POSTSCRIPT_FIGURE
1002
{
1000
PSFILL
1000
Grayscale
1000
Grayscale
1070
   100
1002
}
  0
LINE
  5
325D
  8
YODOROGO
 10
28137.604341291921
 20
1475.7494964292871
 30
0.0
 11
28050.135520230921
 21
1475.7494964292871
 31
0.0
1001
AUTOCAD_POSTSCRIPT_FIGURE
1002
{
1000
PSFILL
1000
Grayscale
1000
Grayscale
1070
   100
1002
}
  0
LINE
  5
325E
  8
YODOROGO
 10
28137.604341291921
 20
1499.749496429288
 30
0.0
 11
28137.604341291921
 21
1475.7494964292871
 31
0.0
1001
AUTOCAD_POSTSCRIPT_FIGURE
1002
{
1000
PSFILL
1000
Grayscale
1000
Grayscale
1070
   100
1002
}
  0
LINE
  5
325F
  8
YODOROGO
 10
28098.135520230931
 20
1499.749496429288
 30
0.0
 11
28137.604341291921
 21
1499.749496429288
 31
0.0
1001
AUTOCAD_POSTSCRIPT_FIGURE
1002
{
1000
PSFILL
1000
Grayscale
1000
Grayscale
1070
   100
1002
}
  0
LINE
  5
3260
  8
YODOROGO
 10
28098.135520230931
 20
1631.5036372746561
 30
0.0
 11
28098.135520230931
 21
1499.749496429288
 31
0.0
1001
AUTOCAD_POSTSCRIPT_FIGURE
1002
{
1000
PSFILL
1000
Grayscale
1000
Grayscale
1070
   100
1002
}
  0
LINE
  5
3261
  8
YODOROGO
 10
28137.604341291921
 20
1631.5036372746561
 30
0.0
 11
28098.135520230931
 21
1631.5036372746561
 31
0.0
1001
AUTOCAD_POSTSCRIPT_FIGURE
1002
{
1000
PSFILL
1000
Grayscale
1000
Grayscale
1070
   100
1002
}
  0
LINE
  5
3262
  8
YODOROGO
 10
28137.604341291921
 20
1655.5036372746561
 30
0.0
 11
28137.604341291921
 21
1631.5036372746561
 31
0.0
1001
AUTOCAD_POSTSCRIPT_FIGURE
1002
{
1000
PSFILL
1000
Grayscale
1000
Grayscale
1070
   100
1002
}
  0
LINE
  5
3263
  8
YODOROGO
 10
28098.135520230931
 20
1655.5036372746561
 30
0.0
 11
28137.604341291921
 21
1655.5036372746561
 31
0.0
1001
AUTOCAD_POSTSCRIPT_FIGURE
1002
{
1000
PSFILL
1000
Grayscale
1000
Grayscale
1070
   100
1002
}
  0
LINE
  5
3264
  8
YODOROGO
 10
28401.60434129191
 20
1667.749496429288
 30
0.0
 11
28345.604341291921
 21
1667.749496429288
 31
0.0
  0
LINE
  5
3265
  8
YODOROGO
 10
28401.60434129191
 20
1611.749496429288
 30
0.0
 11
28401.60434129191
 21
1667.749496429288
 31
0.0
  0
LINE
  5
3266
  8
YODOROGO
 10
28345.604341291921
 20
1667.749496429288
 30
0.0
 11
28345.604341291921
 21
1611.749496429288
 31
0.0
  0
ARC
  5
3267
  8
YODOROGO
 10
28513.60434129191
 20
1507.749496429288
 30
0.0
 40
80.0
 50
180.0
 51
270.0
  0
ARC
  5
3268
  8
YODOROGO
 10
28537.604341291921
 20
1563.7494964292871
 30
0.0
 40
40.0
 50
180.0
 51
270.0
  0
LINE
  5
3269
  8
YODOROGO
 10
28561.604341291932
 20
1523.7494964292871
 30
0.0
 11
28537.604341291921
 21
1523.7494964292871
 31
0.0
  0
ARC
  5
326A
  8
YODOROGO
 10
28561.604341291932
 20
1547.749496429285
 30
0.0
 40
23.999999999996358
 50
270.0
 51
0.0000000000054281
  0
LINE
  5
326B
  8
YODOROGO
 10
27801.604341291921
 20
1890.786580793706
 30
0.0
 11
27777.604341291921
 21
1843.776747951672
 31
0.0
1001
AUTOCAD_POSTSCRIPT_FIGURE
1002
{
1000
PSFILL
1000
Grayscale
1000
Grayscale
1070
   100
1002
}
  0
LINE
  5
326C
  8
YODOROGO
 10
27801.604341291921
 20
1747.749496429286
 30
0.0
 11
27801.604341291921
 21
1890.786580793706
 31
0.0
1001
AUTOCAD_POSTSCRIPT_FIGURE
1002
{
1000
PSFILL
1000
Grayscale
1000
Grayscale
1070
   100
1002
}
  0
LINE
  5
326D
  8
YODOROGO
 10
27817.604341291921
 20
1747.749496429286
 30
0.0
 11
27801.604341291921
 21
1747.749496429286
 31
0.0
1001
AUTOCAD_POSTSCRIPT_FIGURE
1002
{
1000
PSFILL
1000
Grayscale
1000
Grayscale
1070
   100
1002
}
  0
LINE
  5
326E
  8
YODOROGO
 10
27817.604341291921
 20
1893.7713320852661
 30
0.0
 11
27817.604341291921
 21
1747.749496429286
 31
0.0
1001
AUTOCAD_POSTSCRIPT_FIGURE
1002
{
1000
PSFILL
1000
Grayscale
1000
Grayscale
1070
   100
1002
}
  0
LINE
  5
326F
  8
YODOROGO
 10
27841.604341291921
 20
1867.6547582841361
 30
0.0
 11
27817.604341291921
 21
1893.7713320852661
 31
0.0
1001
AUTOCAD_POSTSCRIPT_FIGURE
1002
{
1000
PSFILL
1000
Grayscale
1000
Grayscale
1070
   100
1002
}
  0
LINE
  5
3270
  8
YODOROGO
 10
27841.604341291921
 20
1883.6547582841361
 30
0.0
 11
27841.604341291921
 21
1867.6547582841361
 31
0.0
1001
AUTOCAD_POSTSCRIPT_FIGURE
1002
{
1000
PSFILL
1000
Grayscale
1000
Grayscale
1070
   100
1002
}
  0
LINE
  5
3271
  8
YODOROGO
 10
27817.604341291921
 20
1917.7713320852649
 30
0.0
 11
27841.604341291921
 21
1883.6547582841361
 31
0.0
1001
AUTOCAD_POSTSCRIPT_FIGURE
1002
{
1000
PSFILL
1000
Grayscale
1000
Grayscale
1070
   100
1002
}
  0
LINE
  5
3272
  8
YODOROGO
 10
27817.604341291921
 20
1939.749496429288
 30
0.0
 11
27817.604341291921
 21
1917.7713320852649
 31
0.0
1001
AUTOCAD_POSTSCRIPT_FIGURE
1002
{
1000
PSFILL
1000
Grayscale
1000
Grayscale
1070
   100
1002
}
  0
LINE
  5
3273
  8
YODOROGO
 10
27889.604341291921
 20
1939.749496429288
 30
0.0
 11
27817.604341291921
 21
1939.749496429288
 31
0.0
1001
AUTOCAD_POSTSCRIPT_FIGURE
1002
{
1000
PSFILL
1000
Grayscale
1000
Grayscale
1070
   100
1002
}
  0
LINE
  5
3274
  8
YODOROGO
 10
27889.604341291921
 20
1900.5683489363
 30
0.0
 11
27889.604341291921
 21
1939.749496429288
 31
0.0
1001
AUTOCAD_POSTSCRIPT_FIGURE
1002
{
1000
PSFILL
1000
Grayscale
1000
Grayscale
1070
   100
1002
}
  0
LINE
  5
3275
  8
YODOROGO
 10
27857.604341291921
 20
1900.5683489363
 30
0.0
 11
27889.604341291921
 21
1900.5683489363
 31
0.0
1001
AUTOCAD_POSTSCRIPT_FIGURE
1002
{
1000
PSFILL
1000
Grayscale
1000
Grayscale
1070
   100
1002
}
  0
LINE
  5
3276
  8
YODOROGO
 10
27857.604341291921
 20
1884.568348936298
 30
0.0
 11
27857.604341291921
 21
1900.5683489363
 31
0.0
1001
AUTOCAD_POSTSCRIPT_FIGURE
1002
{
1000
PSFILL
1000
Grayscale
1000
Grayscale
1070
   100
1002
}
  0
LINE
  5
3277
  8
YODOROGO
 10
27889.604341291921
 20
1884.568348936298
 30
0.0
 11
27857.604341291921
 21
1884.568348936298
 31
0.0
1001
AUTOCAD_POSTSCRIPT_FIGURE
1002
{
1000
PSFILL
1000
Grayscale
1000
Grayscale
1070
   100
1002
}
  0
LINE
  5
3278
  8
YODOROGO
 10
27889.604341291921
 20
1879.6191779644371
 30
0.0
 11
27889.604341291921
 21
1884.568348936298
 31
0.0
1001
AUTOCAD_POSTSCRIPT_FIGURE
1002
{
1000
PSFILL
1000
Grayscale
1000
Grayscale
1070
   100
1002
}
  0
LINE
  5
3279
  8
YODOROGO
 10
27849.604341291921
 20
1812.974981161417
 30
0.0
 11
27889.604341291921
 21
1879.6191779644371
 31
0.0
1001
AUTOCAD_POSTSCRIPT_FIGURE
1002
{
1000
PSFILL
1000
Grayscale
1000
Grayscale
1070
   100
1002
}
  0
LINE
  5
327A
  8
YODOROGO
 10
27849.604341291921
 20
1796.9749811614161
 30
0.0
 11
27849.604341291921
 21
1812.974981161417
 31
0.0
1001
AUTOCAD_POSTSCRIPT_FIGURE
1002
{
1000
PSFILL
1000
Grayscale
1000
Grayscale
1070
   100
1002
}
  0
LINE
  5
327B
  8
YODOROGO
 10
27889.604341291921
 20
1847.6191779644359
 30
0.0
 11
27849.604341291921
 21
1796.9749811614161
 31
0.0
1001
AUTOCAD_POSTSCRIPT_FIGURE
1002
{
1000
PSFILL
1000
Grayscale
1000
Grayscale
1070
   100
1002
}
  0
LINE
  5
327C
  8
YODOROGO
 10
27889.604341291921
 20
1747.749496429286
 30
0.0
 11
27889.604341291921
 21
1847.6191779644359
 31
0.0
1001
AUTOCAD_POSTSCRIPT_FIGURE
1002
{
1000
PSFILL
1000
Grayscale
1000
Grayscale
1070
   100
1002
}
  0
LINE
  5
327D
  8
YODOROGO
 10
27905.604341291921
 20
1747.749496429286
 30
0.0
 11
27889.604341291921
 21
1747.749496429286
 31
0.0
1001
AUTOCAD_POSTSCRIPT_FIGURE
1002
{
1000
PSFILL
1000
Grayscale
1000
Grayscale
1070
   100
1002
}
  0
LINE
  5
327E
  8
YODOROGO
 10
27905.604341291921
 20
1849.409012158806
 30
0.0
 11
27905.604341291921
 21
1747.749496429286
 31
0.0
1001
AUTOCAD_POSTSCRIPT_FIGURE
1002
{
1000
PSFILL
1000
Grayscale
1000
Grayscale
1070
   100
1002
}
  0
LINE
  5
327F
  8
YODOROGO
 10
27937.604341291921
 20
1796.9749811614161
 30
0.0
 11
27905.604341291921
 21
1849.409012158806
 31
0.0
1001
AUTOCAD_POSTSCRIPT_FIGURE
1002
{
1000
PSFILL
1000
Grayscale
1000
Grayscale
1070
   100
1002
}
  0
LINE
  5
3280
  8
YODOROGO
 10
27937.604341291921
 20
1812.974981161417
 30
0.0
 11
27937.604341291921
 21
1796.9749811614161
 31
0.0
1001
AUTOCAD_POSTSCRIPT_FIGURE
1002
{
1000
PSFILL
1000
Grayscale
1000
Grayscale
1070
   100
1002
}
  0
LINE
  5
3281
  8
YODOROGO
 10
27905.604341291921
 20
1881.4090121588081
 30
0.0
 11
27937.604341291921
 21
1812.974981161417
 31
0.0
1001
AUTOCAD_POSTSCRIPT_FIGURE
1002
{
1000
PSFILL
1000
Grayscale
1000
Grayscale
1070
   100
1002
}
  0
LINE
  5
3282
  8
YODOROGO
 10
27905.604341291921
 20
1884.5683489363
 30
0.0
 11
27905.604341291921
 21
1881.4090121588081
 31
0.0
1001
AUTOCAD_POSTSCRIPT_FIGURE
1002
{
1000
PSFILL
1000
Grayscale
1000
Grayscale
1070
   100
1002
}
  0
LINE
  5
3283
  8
YODOROGO
 10
27937.604341291921
 20
1884.568348936298
 30
0.0
 11
27905.604341291921
 21
1884.5683489363
 31
0.0
1001
AUTOCAD_POSTSCRIPT_FIGURE
1002
{
1000
PSFILL
1000
Grayscale
1000
Grayscale
1070
   100
1002
}
  0
LINE
  5
3284
  8
YODOROGO
 10
27937.604341291921
 20
1900.5683489363
 30
0.0
 11
27937.604341291921
 21
1884.568348936298
 31
0.0
1001
AUTOCAD_POSTSCRIPT_FIGURE
1002
{
1000
PSFILL
1000
Grayscale
1000
Grayscale
1070
   100
1002
}
  0
LINE
  5
3285
  8
YODOROGO
 10
27905.604341291921
 20
1900.5683489363
 30
0.0
 11
27937.604341291921
 21
1900.5683489363
 31
0.0
1001
AUTOCAD_POSTSCRIPT_FIGURE
1002
{
1000
PSFILL
1000
Grayscale
1000
Grayscale
1070
   100
1002
}
  0
LINE
  5
3286
  8
YODOROGO
 10
27905.604341291921
 20
1939.749496429288
 30
0.0
 11
27905.604341291921
 21
1900.5683489363
 31
0.0
1001
AUTOCAD_POSTSCRIPT_FIGURE
1002
{
1000
PSFILL
1000
Grayscale
1000
Grayscale
1070
   100
1002
}
  0
LINE
  5
3287
  8
YODOROGO
 10
27937.604341291921
 20
1939.749496429288
 30
0.0
 11
27905.604341291921
 21
1939.749496429288
 31
0.0
1001
AUTOCAD_POSTSCRIPT_FIGURE
1002
{
1000
PSFILL
1000
Grayscale
1000
Grayscale
1070
   100
1002
}
  0
LINE
  5
3288
  8
YODOROGO
 10
27937.604341291921
 20
1955.7494964292871
 30
0.0
 11
27937.604341291921
 21
1939.749496429288
 31
0.0
1001
AUTOCAD_POSTSCRIPT_FIGURE
1002
{
1000
PSFILL
1000
Grayscale
1000
Grayscale
1070
   100
1002
}
  0
LINE
  5
3289
  8
YODOROGO
 10
27905.604341291921
 20
1955.7494964292871
 30
0.0
 11
27937.604341291921
 21
1955.7494964292871
 31
0.0
1001
AUTOCAD_POSTSCRIPT_FIGURE
1002
{
1000
PSFILL
1000
Grayscale
1000
Grayscale
1070
   100
1002
}
  0
LINE
  5
328A
  8
YODOROGO
 10
27905.604341291921
 20
1979.749496429288
 30
0.0
 11
27905.604341291921
 21
1955.7494964292871
 31
0.0
1001
AUTOCAD_POSTSCRIPT_FIGURE
1002
{
1000
PSFILL
1000
Grayscale
1000
Grayscale
1070
   100
1002
}
  0
LINE
  5
328B
  8
YODOROGO
 10
27889.604341291921
 20
1979.749496429288
 30
0.0
 11
27905.604341291921
 21
1979.749496429288
 31
0.0
1001
AUTOCAD_POSTSCRIPT_FIGURE
1002
{
1000
PSFILL
1000
Grayscale
1000
Grayscale
1070
   100
1002
}
  0
LINE
  5
328C
  8
YODOROGO
 10
27889.604341291921
 20
1955.7494964292871
 30
0.0
 11
27889.604341291921
 21
1979.749496429288
 31
0.0
1001
AUTOCAD_POSTSCRIPT_FIGURE
1002
{
1000
PSFILL
1000
Grayscale
1000
Grayscale
1070
   100
1002
}
  0
LINE
  5
328D
  8
YODOROGO
 10
27865.604341291921
 20
1955.7494964292871
 30
0.0
 11
27889.604341291921
 21
1955.7494964292871
 31
0.0
1001
AUTOCAD_POSTSCRIPT_FIGURE
1002
{
1000
PSFILL
1000
Grayscale
1000
Grayscale
1070
   100
1002
}
  0
LINE
  5
328E
  8
YODOROGO
 10
27865.604341291921
 20
1979.749496429288
 30
0.0
 11
27865.604341291921
 21
1955.7494964292871
 31
0.0
1001
AUTOCAD_POSTSCRIPT_FIGURE
1002
{
1000
PSFILL
1000
Grayscale
1000
Grayscale
1070
   100
1002
}
  0
LINE
  5
328F
  8
YODOROGO
 10
27849.604341291921
 20
1979.749496429288
 30
0.0
 11
27865.604341291921
 21
1979.749496429288
 31
0.0
1001
AUTOCAD_POSTSCRIPT_FIGURE
1002
{
1000
PSFILL
1000
Grayscale
1000
Grayscale
1070
   100
1002
}
  0
LINE
  5
3290
  8
YODOROGO
 10
27849.604341291921
 20
1955.7494964292871
 30
0.0
 11
27849.604341291921
 21
1979.749496429288
 31
0.0
1001
AUTOCAD_POSTSCRIPT_FIGURE
1002
{
1000
PSFILL
1000
Grayscale
1000
Grayscale
1070
   100
1002
}
  0
LINE
  5
3291
  8
YODOROGO
 10
27817.604341291921
 20
1955.7494964292871
 30
0.0
 11
27849.604341291921
 21
1955.7494964292871
 31
0.0
1001
AUTOCAD_POSTSCRIPT_FIGURE
1002
{
1000
PSFILL
1000
Grayscale
1000
Grayscale
1070
   100
1002
}
  0
LINE
  5
3292
  8
YODOROGO
 10
27817.604341291921
 20
1979.749496429288
 30
0.0
 11
27817.604341291921
 21
1955.7494964292871
 31
0.0
1001
AUTOCAD_POSTSCRIPT_FIGURE
1002
{
1000
PSFILL
1000
Grayscale
1000
Grayscale
1070
   100
1002
}
  0
LINE
  5
3293
  8
YODOROGO
 10
27801.604341291921
 20
1979.749496429288
 30
0.0
 11
27817.604341291921
 21
1979.749496429288
 31
0.0
1001
AUTOCAD_POSTSCRIPT_FIGURE
1002
{
1000
PSFILL
1000
Grayscale
1000
Grayscale
1070
   100
1002
}
  0
LINE
  5
3294
  8
YODOROGO
 10
27801.604341291921
 20
1955.7494964292871
 30
0.0
 11
27801.604341291921
 21
1979.749496429288
 31
0.0
1001
AUTOCAD_POSTSCRIPT_FIGURE
1002
{
1000
PSFILL
1000
Grayscale
1000
Grayscale
1070
   100
1002
}
  0
LINE
  5
3295
  8
YODOROGO
 10
27777.604341291921
 20
1955.7494964292871
 30
0.0
 11
27801.604341291921
 21
1955.7494964292871
 31
0.0
1001
AUTOCAD_POSTSCRIPT_FIGURE
1002
{
1000
PSFILL
1000
Grayscale
1000
Grayscale
1070
   100
1002
}
  0
LINE
  5
3296
  8
YODOROGO
 10
27777.604341291921
 20
1939.749496429288
 30
0.0
 11
27777.604341291921
 21
1955.7494964292871
 31
0.0
1001
AUTOCAD_POSTSCRIPT_FIGURE
1002
{
1000
PSFILL
1000
Grayscale
1000
Grayscale
1070
   100
1002
}
  0
LINE
  5
3297
  8
YODOROGO
 10
27801.604341291921
 20
1939.749496429288
 30
0.0
 11
27777.604341291921
 21
1939.749496429288
 31
0.0
1001
AUTOCAD_POSTSCRIPT_FIGURE
1002
{
1000
PSFILL
1000
Grayscale
1000
Grayscale
1070
   100
1002
}
  0
LINE
  5
3298
  8
YODOROGO
 10
27801.604341291921
 20
1914.7865807937051
 30
0.0
 11
27801.604341291921
 21
1939.749496429288
 31
0.0
1001
AUTOCAD_POSTSCRIPT_FIGURE
1002
{
1000
PSFILL
1000
Grayscale
1000
Grayscale
1070
   100
1002
}
  0
LINE
  5
3299
  8
YODOROGO
 10
27777.604341291921
 20
1859.776747951671
 30
0.0
 11
27801.604341291921
 21
1914.7865807937051
 31
0.0
1001
AUTOCAD_POSTSCRIPT_FIGURE
1002
{
1000
PSFILL
1000
Grayscale
1000
Grayscale
1070
   100
1002
}
  0
LINE
  5
329A
  8
YODOROGO
 10
27777.604341291921
 20
1843.776747951672
 30
0.0
 11
27777.604341291921
 21
1859.776747951671
 31
0.0
1001
AUTOCAD_POSTSCRIPT_FIGURE
1002
{
1000
PSFILL
1000
Grayscale
1000
Grayscale
1070
   100
1002
}
  0
LINE
  5
329B
  8
YODOROGO
 10
28257.604341291921
 20
1867.7494964292871
 30
0.0
 11
28401.60434129191
 21
1824.877625640306
 31
0.0
1001
AUTOCAD_POSTSCRIPT_FIGURE
1002
{
1000
PSFILL
1000
Grayscale
1000
Grayscale
1070
   100
1002
}
  0
LINE
  5
329C
  8
YODOROGO
 10
28401.60434129191
 20
1752.877625640306
 30
0.0
 11
28257.604341291921
 21
1795.7494964292871
 31
0.0
1001
AUTOCAD_POSTSCRIPT_FIGURE
1002
{
1000
PSFILL
1000
Grayscale
1000
Grayscale
1070
   100
1002
}
  0
LINE
  5
329D
  8
YODOROGO
 10
28401.60434129191
 20
1984.877625640306
 30
0.0
 11
28257.604341291921
 21
2027.749496429288
 31
0.0
1001
AUTOCAD_POSTSCRIPT_FIGURE
1002
{
1000
PSFILL
1000
Grayscale
1000
Grayscale
1070
   100
1002
}
  0
LINE
  5
329E
  8
YODOROGO
 10
28257.604341291921
 20
1959.749496429288
 30
0.0
 11
28401.60434129191
 21
1916.8776256403071
 31
0.0
1001
AUTOCAD_POSTSCRIPT_FIGURE
1002
{
1000
PSFILL
1000
Grayscale
1000
Grayscale
1070
   100
1002
}
  0
LINE
  5
329F
  8
YODOROGO
 10
28257.604341291921
 20
1795.7494964292871
 30
0.0
 11
28257.604341291921
 21
1867.7494964292871
 31
0.0
1001
AUTOCAD_POSTSCRIPT_FIGURE
1002
{
1000
PSFILL
1000
Grayscale
1000
Grayscale
1070
   100
1002
}
  0
LINE
  5
32A0
  8
YODOROGO
 10
28257.604341291921
 20
2027.749496429288
 30
0.0
 11
28257.604341291921
 21
1959.749496429288
 31
0.0
1001
AUTOCAD_POSTSCRIPT_FIGURE
1002
{
1000
PSFILL
1000
Grayscale
1000
Grayscale
1070
   100
1002
}
  0
LINE
  5
32A1
  8
YODOROGO
 10
28080.236320206739
 20
1939.749496429288
 30
0.0
 11
28129.60434129191
 21
1747.749496429286
 31
0.0
1001
AUTOCAD_POSTSCRIPT_FIGURE
1002
{
1000
PSFILL
1000
Grayscale
1000
Grayscale
1070
   100
1002
}
  0
LINE
  5
32A2
  8
YODOROGO
 10
27977.604341291921
 20
1939.749496429288
 30
0.0
 11
28080.236320206739
 21
1939.749496429288
 31
0.0
1001
AUTOCAD_POSTSCRIPT_FIGURE
1002
{
1000
PSFILL
1000
Grayscale
1000
Grayscale
1070
   100
1002
}
  0
LINE
  5
32A3
  8
YODOROGO
 10
27977.604341291921
 20
1955.7494964292871
 30
0.0
 11
27977.604341291921
 21
1939.749496429288
 31
0.0
1001
AUTOCAD_POSTSCRIPT_FIGURE
1002
{
1000
PSFILL
1000
Grayscale
1000
Grayscale
1070
   100
1002
}
  0
LINE
  5
32A4
  8
YODOROGO
 10
28076.60687851991
 20
1955.7494964292871
 30
0.0
 11
27977.604341291921
 21
1955.7494964292871
 31
0.0
1001
AUTOCAD_POSTSCRIPT_FIGURE
1002
{
1000
PSFILL
1000
Grayscale
1000
Grayscale
1070
   100
1002
}
  0
LINE
  5
32A5
  8
YODOROGO
 10
28071.162715989711
 20
1979.749496429288
 30
0.0
 11
28076.60687851991
 21
1955.7494964292871
 31
0.0
1001
AUTOCAD_POSTSCRIPT_FIGURE
1002
{
1000
PSFILL
1000
Grayscale
1000
Grayscale
1070
   100
1002
}
  0
LINE
  5
32A6
  8
YODOROGO
 10
28091.162715989711
 20
1979.749496429288
 30
0.0
 11
28071.162715989711
 21
1979.749496429288
 31
0.0
1001
AUTOCAD_POSTSCRIPT_FIGURE
1002
{
1000
PSFILL
1000
Grayscale
1000
Grayscale
1070
   100
1002
}
  0
LINE
  5
32A7
  8
YODOROGO
 10
28095.806878519939
 20
1955.7494964292871
 30
0.0
 11
28091.162715989711
 21
1979.749496429288
 31
0.0
1001
AUTOCAD_POSTSCRIPT_FIGURE
1002
{
1000
PSFILL
1000
Grayscale
1000
Grayscale
1070
   100
1002
}
  0
LINE
  5
32A8
  8
YODOROGO
 10
28121.604341291921
 20
1955.7494964292871
 30
0.0
 11
28095.806878519939
 21
1955.7494964292871
 31
0.0
1001
AUTOCAD_POSTSCRIPT_FIGURE
1002
{
1000
PSFILL
1000
Grayscale
1000
Grayscale
1070
   100
1002
}
  0
LINE
  5
32A9
  8
YODOROGO
 10
28121.604341291921
 20
1979.749496429288
 30
0.0
 11
28121.604341291921
 21
1955.7494964292871
 31
0.0
1001
AUTOCAD_POSTSCRIPT_FIGURE
1002
{
1000
PSFILL
1000
Grayscale
1000
Grayscale
1070
   100
1002
}
  0
LINE
  5
32AA
  8
YODOROGO
 10
28137.604341291921
 20
1979.749496429288
 30
0.0
 11
28121.604341291921
 21
1979.749496429288
 31
0.0
1001
AUTOCAD_POSTSCRIPT_FIGURE
1002
{
1000
PSFILL
1000
Grayscale
1000
Grayscale
1070
   100
1002
}
  0
LINE
  5
32AB
  8
YODOROGO
 10
28137.604341291921
 20
1955.7494964292871
 30
0.0
 11
28137.604341291921
 21
1979.749496429288
 31
0.0
1001
AUTOCAD_POSTSCRIPT_FIGURE
1002
{
1000
PSFILL
1000
Grayscale
1000
Grayscale
1070
   100
1002
}
  0
LINE
  5
32AC
  8
YODOROGO
 10
28137.604341291921
 20
1939.749496429288
 30
0.0
 11
28137.604341291921
 21
1955.7494964292871
 31
0.0
1001
AUTOCAD_POSTSCRIPT_FIGURE
1002
{
1000
PSFILL
1000
Grayscale
1000
Grayscale
1070
   100
1002
}
  0
LINE
  5
32AD
  8
YODOROGO
 10
28098.902986873411
 20
1939.749496429288
 30
0.0
 11
28137.604341291921
 21
1939.749496429288
 31
0.0
1001
AUTOCAD_POSTSCRIPT_FIGURE
1002
{
1000
PSFILL
1000
Grayscale
1000
Grayscale
1070
   100
1002
}
  0
LINE
  5
32AE
  8
YODOROGO
 10
28137.604341291921
 20
1747.749496429286
 30
0.0
 11
28098.902986873411
 21
1939.749496429288
 31
0.0
1001
AUTOCAD_POSTSCRIPT_FIGURE
1002
{
1000
PSFILL
1000
Grayscale
1000
Grayscale
1070
   100
1002
}
  0
LINE
  5
32AF
  8
YODOROGO
 10
28129.60434129191
 20
1747.749496429286
 30
0.0
 11
28137.604341291921
 21
1747.749496429286
 31
0.0
1001
AUTOCAD_POSTSCRIPT_FIGURE
1002
{
1000
PSFILL
1000
Grayscale
1000
Grayscale
1070
   100
1002
}
  0
LINE
  5
32B0
  8
YODOROGO
 10
28078.06921993379
 20
1775.7407762987939
 30
0.0
 11
27977.604341291921
 21
1747.749496429286
 31
0.0
  0
LINE
  5
32B1
  8
YODOROGO
 10
28078.06921993379
 20
1798.6689795290731
 30
0.0
 11
28078.06921993379
 21
1775.7407762987939
 31
0.0
  0
LINE
  5
32B2
  8
YODOROGO
 10
28033.83678061287
 20
1786.816933133767
 30
0.0
 11
28078.06921993379
 21
1798.6689795290731
 31
0.0
  0
LINE
  5
32B3
  8
YODOROGO
 10
28033.83678061287
 20
1872.5683489362989
 30
0.0
 11
28033.83678061287
 21
1786.816933133767
 31
0.0
  0
LINE
  5
32B4
  8
YODOROGO
 10
28078.06921993379
 20
1872.5683489362989
 30
0.0
 11
28033.83678061287
 21
1872.5683489362989
 31
0.0
  0
LINE
  5
32B5
  8
YODOROGO
 10
28078.06921993379
 20
1892.568348936298
 30
0.0
 11
28078.06921993379
 21
1872.5683489362989
 31
0.0
  0
LINE
  5
32B6
  8
YODOROGO
 10
27977.604341291921
 20
1892.568348936298
 30
0.0
 11
28078.06921993379
 21
1892.568348936298
 31
0.0
  0
LINE
  5
32B7
  8
YODOROGO
 10
27977.604341291921
 20
1872.5683489362989
 30
0.0
 11
27977.604341291921
 21
1892.568348936298
 31
0.0
  0
LINE
  5
32B8
  8
YODOROGO
 10
28021.836780612852
 20
1872.5683489362989
 30
0.0
 11
27977.604341291921
 21
1872.5683489362989
 31
0.0
  0
LINE
  5
32B9
  8
YODOROGO
 10
28021.836780612852
 20
1784.673339594317
 30
0.0
 11
28021.836780612852
 21
1872.5683489362989
 31
0.0
  0
LINE
  5
32BA
  8
YODOROGO
 10
27977.604341291921
 20
1771.749496429286
 30
0.0
 11
28021.836780612852
 21
1784.673339594317
 31
0.0
  0
LINE
  5
32BB
  8
YODOROGO
 10
27977.604341291921
 20
1747.749496429286
 30
0.0
 11
27977.604341291921
 21
1771.749496429286
 31
0.0
  0
LINE
  5
32BC
  8
YODOROGO
 10
28001.604341291921
 20
1707.749496429288
 30
0.0
 11
28001.604341291921
 21
1683.7494964292871
 31
0.0
  0
LINE
  5
32BD
  8
YODOROGO
 10
28017.604341291921
 20
1707.749496429288
 30
0.0
 11
28001.604341291921
 21
1707.749496429288
 31
0.0
  0
LINE
  5
32BE
  8
YODOROGO
 10
28017.604341291921
 20
1683.7494964292871
 30
0.0
 11
28017.604341291921
 21
1707.749496429288
 31
0.0
  0
LINE
  5
32BF
  8
YODOROGO
 10
28040.913204016892
 20
1683.7494964292871
 30
0.0
 11
28017.604341291921
 21
1683.7494964292871
 31
0.0
  0
LINE
  5
32C0
  8
YODOROGO
 10
28001.604341291921
 20
1683.7494964292871
 30
0.0
 11
27977.604341291921
 21
1683.7494964292871
 31
0.0
  0
LINE
  5
32C1
  8
YODOROGO
 10
28082.135520230921
 20
1707.749496429288
 30
0.0
 11
28098.135520230931
 21
1707.749496429288
 31
0.0
1001
AUTOCAD_POSTSCRIPT_FIGURE
1002
{
1000
PSFILL
1000
Grayscale
1000
Grayscale
1070
   100
1002
}
  0
LINE
  5
32C2
  8
YODOROGO
 10
28401.60434129191
 20
1824.877625640306
 30
0.0
 11
28401.60434129191
 21
1752.877625640306
 31
0.0
1001
AUTOCAD_POSTSCRIPT_FIGURE
1002
{
1000
PSFILL
1000
Grayscale
1000
Grayscale
1070
   100
1002
}
  0
LINE
  5
32C3
  8
YODOROGO
 10
28401.60434129191
 20
1916.8776256403071
 30
0.0
 11
28401.60434129191
 21
1984.877625640306
 31
0.0
1001
AUTOCAD_POSTSCRIPT_FIGURE
1002
{
1000
PSFILL
1000
Grayscale
1000
Grayscale
1070
   100
1002
}
  0
LINE
  5
32C4
  8
YODOROGO
 10
28433.60434129191
 20
1819.7494964292871
 30
0.0
 11
28433.60434129191
 21
1747.74949642929
 31
0.0
  0
LINE
  5
32C5
  8
YODOROGO
 10
28497.60434129191
 20
1707.749496429288
 30
0.0
 11
28433.60434129191
 21
1707.749496429288
 31
0.0
  0
LINE
  5
32C6
  8
YODOROGO
 10
28433.60434129191
 20
1747.74949642929
 30
0.0
 11
28585.604341291921
 21
1747.74949642929
 31
0.0
  0
LINE
  5
32C7
  8
YODOROGO
 10
28497.60434129191
 20
1867.7494964292871
 30
0.0
 11
28433.60434129191
 21
1867.7494964292871
 31
0.0
  0
LINE
  5
32C8
  8
YODOROGO
 10
28497.60434129191
 20
1923.7494964292871
 30
0.0
 11
28497.60434129191
 21
1867.7494964292871
 31
0.0
  0
LINE
  5
32C9
  8
YODOROGO
 10
28585.604341291921
 20
1987.7494964292871
 30
0.0
 11
28585.604341291921
 21
2027.749496429288
 31
0.0
  0
LINE
  5
32CA
  8
YODOROGO
 10
28433.60434129191
 20
1987.7494964292871
 30
0.0
 11
28585.604341291921
 21
1987.7494964292871
 31
0.0
  0
LINE
  5
32CB
  8
YODOROGO
 10
28433.60434129191
 20
1867.7494964292871
 30
0.0
 11
28433.60434129191
 21
1987.7494964292871
 31
0.0
  0
LINE
  5
32CC
  8
YODOROGO
 10
29001.60434129191
 20
2027.749496429288
 30
0.0
 11
29001.60434129191
 21
1619.749496429288
 31
0.0
  0
LINE
  5
32CD
  8
YODOROGO
 10
29073.604341291921
 20
1579.749496429288
 30
0.0
 11
29073.604341291921
 21
2027.749496429288
 31
0.0
  0
LINE
  5
32CE
  8
YODOROGO
 10
29261.604341291921
 20
1491.749496429286
 30
0.0
 11
29261.604341291921
 21
2007.749496429288
 31
0.0
  0
LINE
  5
32CF
  8
YODOROGO
 10
29197.604341291921
 20
2007.749496429288
 30
0.0
 11
29197.604341291921
 21
1491.749496429286
 31
0.0
  0
LINE
  5
32D0
  8
YODOROGO
 10
29385.604341291921
 20
2027.749496429288
 30
0.0
 11
29385.604341291921
 21
1427.749496429288
 31
0.0
  0
LINE
  5
32D1
  8
YODOROGO
 10
29457.604341291921
 20
1427.749496429288
 30
0.0
 11
29457.604341291921
 21
2027.749496429288
 31
0.0
  0
LINE
  5
32D2
  8
YODOROGO
 10
28657.604341291921
 20
1667.749496429288
 30
0.0
 11
28657.604341291921
 21
1747.74949642929
 31
0.0
  0
LINE
  5
32D3
  8
YODOROGO
 10
29885.604341291921
 20
1707.749496429288
 30
0.0
 11
29885.604341291921
 21
1667.749496429288
 31
0.0
  0
LINE
  5
32D4
  8
YODOROGO
 10
29885.604341291921
 20
1707.749496429288
 30
0.0
 11
29885.604341291921
 21
1667.749496429288
 31
0.0
  0
ARC
  5
32D5
  8
YODOROGO
 10
28906.911576186842
 20
1618.217864442272
 30
0.0
 40
94.705151178741644
 50
274.05244162907098
 51
0.9266642149310712
  0
ARC
  5
32D6
  8
YODOROGO
 10
28909.186170719819
 20
1592.61072861044
 30
0.0
 40
164.92042356085511
 50
271.5351210653775
 51
355.52727750585052
  0
LINE
  5
32D7
  8
YODOROGO
 10
28913.604341291921
 20
1523.7494964292871
 30
0.0
 11
28913.604341291921
 21
1427.749496429288
 31
0.0
  0
LINE
  5
32D8
  8
YODOROGO
 10
28793.60434129191
 20
1667.749496429288
 30
0.0
 11
28657.604341291921
 21
1667.749496429288
 31
0.0
  0
LINE
  5
32D9
  8
YODOROGO
 10
28793.60434129191
 20
1603.7494964292871
 30
0.0
 11
28793.60434129191
 21
1667.749496429288
 31
0.0
  0
LINE
  5
32DA
  8
YODOROGO
 10
28657.604341291921
 20
1603.7494964292871
 30
0.0
 11
28793.60434129191
 21
1603.7494964292871
 31
0.0
  0
LINE
  5
32DB
  8
YODOROGO
 10
28657.604341291921
 20
1523.7494964292871
 30
0.0
 11
28657.604341291921
 21
1603.7494964292871
 31
0.0
  0
LINE
  5
32DC
  8
YODOROGO
 10
28793.60434129191
 20
1523.7494964292871
 30
0.0
 11
28657.604341291921
 21
1523.7494964292871
 31
0.0
  0
LINE
  5
32DD
  8
YODOROGO
 10
28793.60434129191
 20
1427.749496429288
 30
0.0
 11
28793.60434129191
 21
1523.7494964292871
 31
0.0
  0
LINE
  5
32DE
  8
YODOROGO
 10
29197.604341291921
 20
1491.749496429286
 30
0.0
 11
29261.604341291921
 21
1491.749496429286
 31
0.0
  0
LINE
  5
32DF
  8
YODOROGO
 10
29385.604341291921
 20
1427.749496429288
 30
0.0
 11
29457.604341291921
 21
1427.749496429288
 31
0.0
  0
LINE
  5
32E0
  8
YODOROGO
 10
29737.604341291921
 20
1528.4414521705639
 30
0.0
 11
29737.604341291921
 21
1427.749496429288
 31
0.0
  0
LINE
  5
32E1
  8
YODOROGO
 10
29617.604341291921
 20
1427.749496429288
 30
0.0
 11
29737.604341291921
 21
1528.4414521705639
 31
0.0
  0
LINE
  5
32E2
  8
YODOROGO
 10
29617.604341291921
 20
1547.749496429288
 30
0.0
 11
29617.604341291921
 21
1427.749496429288
 31
0.0
  0
LINE
  5
32E3
  8
YODOROGO
 10
29712.94462869945
 20
1627.749496429288
 30
0.0
 11
29617.604341291921
 21
1547.749496429288
 31
0.0
  0
LINE
  5
32E4
  8
YODOROGO
 10
29617.604341291921
 20
1627.749496429288
 30
0.0
 11
29712.94462869945
 21
1627.749496429288
 31
0.0
  0
LINE
  5
32E5
  8
YODOROGO
 10
29617.604341291921
 20
1667.749496429288
 30
0.0
 11
29617.604341291921
 21
1627.749496429288
 31
0.0
  0
LINE
  5
32E6
  8
YODOROGO
 10
29885.604341291921
 20
1667.749496429288
 30
0.0
 11
29617.604341291921
 21
1667.749496429288
 31
0.0
  0
LINE
  5
32E7
  8
YODOROGO
 10
29917.604341291921
 20
1627.749496429288
 30
0.0
 11
29777.604341291921
 21
1627.749496429288
 31
0.0
  0
LINE
  5
32E8
  8
YODOROGO
 10
29777.604341291921
 20
1562.0054374176559
 30
0.0
 11
29771.409872985321
 21
1556.807661346234
 31
0.0
  0
LINE
  5
32E9
  8
YODOROGO
 10
29777.604341291921
 20
1627.749496429288
 30
0.0
 11
29777.604341291921
 21
1562.0054374176559
 31
0.0
  0
LINE
  5
32EA
  8
YODOROGO
 10
29737.604341291921
 20
1528.4414521705639
 30
0.0
 11
29737.604341291921
 21
1427.749496429288
 31
0.0
  0
LINE
  5
32EB
  8
YODOROGO
 10
29617.604341291921
 20
1427.749496429288
 30
0.0
 11
29737.604341291921
 21
1528.4414521705639
 31
0.0
  0
LINE
  5
32EC
  8
YODOROGO
 10
29617.604341291921
 20
1547.749496429288
 30
0.0
 11
29617.604341291921
 21
1427.749496429288
 31
0.0
  0
LINE
  5
32ED
  8
YODOROGO
 10
29712.94462869945
 20
1627.749496429288
 30
0.0
 11
29617.604341291921
 21
1547.749496429288
 31
0.0
  0
LINE
  5
32EE
  8
YODOROGO
 10
29617.604341291921
 20
1627.749496429288
 30
0.0
 11
29712.94462869945
 21
1627.749496429288
 31
0.0
  0
LINE
  5
32EF
  8
YODOROGO
 10
29617.604341291921
 20
1667.749496429288
 30
0.0
 11
29617.604341291921
 21
1627.749496429288
 31
0.0
  0
LINE
  5
32F0
  8
YODOROGO
 10
29885.604341291921
 20
1667.749496429288
 30
0.0
 11
29617.604341291921
 21
1667.749496429288
 31
0.0
  0
LINE
  5
32F1
  8
YODOROGO
 10
28793.60434129191
 20
1747.74949642929
 30
0.0
 11
28793.60434129191
 21
1819.7494964292871
 31
0.0
  0
LINE
  5
32F2
  8
YODOROGO
 10
28657.604341291921
 20
1747.74949642929
 30
0.0
 11
28793.60434129191
 21
1747.74949642929
 31
0.0
  0
LINE
  5
32F3
  8
YODOROGO
 10
28729.604341291921
 20
1867.7494964292871
 30
0.0
 11
28729.604341291921
 21
1923.7494964292871
 31
0.0
  0
LINE
  5
32F4
  8
YODOROGO
 10
28793.60434129191
 20
1867.7494964292871
 30
0.0
 11
28729.604341291921
 21
1867.7494964292871
 31
0.0
  0
LINE
  5
32F5
  8
YODOROGO
 10
28793.60434129191
 20
1947.749496429288
 30
0.0
 11
28793.60434129191
 21
1867.7494964292871
 31
0.0
  0
ARC
  5
32F6
  8
YODOROGO
 10
28753.60434129191
 20
1947.749496429288
 30
0.0
 40
40.0
 50
0.0
 51
90.0
  0
LINE
  5
32F7
  8
YODOROGO
 10
28657.604341291921
 20
1987.7494964292871
 30
0.0
 11
28753.60434129191
 21
1987.7494964292871
 31
0.0
  0
LINE
  5
32F8
  8
YODOROGO
 10
28657.604341291921
 20
2027.749496429288
 30
0.0
 11
28657.604341291921
 21
1987.7494964292871
 31
0.0
  0
LINE
  5
32F9
  8
YODOROGO
 10
29073.604341291921
 20
2027.749496429288
 30
0.0
 11
29001.60434129191
 21
2027.749496429288
 31
0.0
  0
LINE
  5
32FA
  8
YODOROGO
 10
29261.604341291921
 20
2007.749496429288
 30
0.0
 11
29197.604341291921
 21
2007.749496429288
 31
0.0
  0
LINE
  5
32FB
  8
YODOROGO
 10
29457.604341291921
 20
2027.749496429288
 30
0.0
 11
29385.604341291921
 21
2027.749496429288
 31
0.0
  0
LINE
  5
32FC
  8
YODOROGO
 10
29673.604341291921
 20
1707.749496429288
 30
0.0
 11
29673.604341291921
 21
1771.7494964292871
 31
0.0
1001
AUTOCAD_POSTSCRIPT_FIGURE
1002
{
1000
PSFILL
1000
Grayscale
1000
Grayscale
1070
    25
1002
}
  0
LINE
  5
32FD
  8
YODOROGO
 10
29617.604341291921
 20
1707.749496429288
 30
0.0
 11
29673.604341291921
 21
1707.749496429288
 31
0.0
1001
AUTOCAD_POSTSCRIPT_FIGURE
1002
{
1000
PSFILL
1000
Grayscale
1000
Grayscale
1070
    25
1002
}
  0
LINE
  5
32FE
  8
YODOROGO
 10
29617.604341291921
 20
1819.7494964292871
 30
0.0
 11
29617.604341291921
 21
1707.749496429288
 31
0.0
1001
AUTOCAD_POSTSCRIPT_FIGURE
1002
{
1000
PSFILL
1000
Grayscale
1000
Grayscale
1070
    25
1002
}
  0
LINE
  5
32FF
  8
YODOROGO
 10
29765.604341291921
 20
1819.7494964292871
 30
0.0
 11
29617.604341291921
 21
1819.7494964292871
 31
0.0
1001
AUTOCAD_POSTSCRIPT_FIGURE
1002
{
1000
PSFILL
1000
Grayscale
1000
Grayscale
1070
    25
1002
}
  0
LINE
  5
3300
  8
YODOROGO
 10
29765.604341291921
 20
1859.749496429288
 30
0.0
 11
29765.604341291921
 21
1819.7494964292871
 31
0.0
1001
AUTOCAD_POSTSCRIPT_FIGURE
1002
{
1000
PSFILL
1000
Grayscale
1000
Grayscale
1070
    25
1002
}
  0
LINE
  5
3301
  8
YODOROGO
 10
29617.604341291921
 20
1859.749496429288
 30
0.0
 11
29765.604341291921
 21
1859.749496429288
 31
0.0
1001
AUTOCAD_POSTSCRIPT_FIGURE
1002
{
1000
PSFILL
1000
Grayscale
1000
Grayscale
1070
    25
1002
}
  0
LINE
  5
3302
  8
YODOROGO
 10
29617.604341291921
 20
1907.7494964292871
 30
0.0
 11
29617.604341291921
 21
1859.749496429288
 31
0.0
1001
AUTOCAD_POSTSCRIPT_FIGURE
1002
{
1000
PSFILL
1000
Grayscale
1000
Grayscale
1070
    25
1002
}
  0
LINE
  5
3303
  8
YODOROGO
 10
29765.604341291921
 20
1907.7494964292871
 30
0.0
 11
29617.604341291921
 21
1907.7494964292871
 31
0.0
1001
AUTOCAD_POSTSCRIPT_FIGURE
1002
{
1000
PSFILL
1000
Grayscale
1000
Grayscale
1070
    25
1002
}
  0
LINE
  5
3304
  8
YODOROGO
 10
29765.604341291921
 20
1947.749496429288
 30
0.0
 11
29765.604341291921
 21
1907.7494964292871
 31
0.0
1001
AUTOCAD_POSTSCRIPT_FIGURE
1002
{
1000
PSFILL
1000
Grayscale
1000
Grayscale
1070
    25
1002
}
  0
LINE
  5
3305
  8
YODOROGO
 10
29617.604341291921
 20
1947.749496429288
 30
0.0
 11
29765.604341291921
 21
1947.749496429288
 31
0.0
1001
AUTOCAD_POSTSCRIPT_FIGURE
1002
{
1000
PSFILL
1000
Grayscale
1000
Grayscale
1070
    25
1002
}
  0
LINE
  5
3306
  8
YODOROGO
 10
29617.604341291921
 20
2027.749496429288
 30
0.0
 11
29617.604341291921
 21
1947.749496429288
 31
0.0
1001
AUTOCAD_POSTSCRIPT_FIGURE
1002
{
1000
PSFILL
1000
Grayscale
1000
Grayscale
1070
    25
1002
}
  0
LINE
  5
3307
  8
YODOROGO
 10
29665.604341291921
 20
2027.749496429288
 30
0.0
 11
29617.604341291921
 21
2027.749496429288
 31
0.0
1001
AUTOCAD_POSTSCRIPT_FIGURE
1002
{
1000
PSFILL
1000
Grayscale
1000
Grayscale
1070
    25
1002
}
  0
LINE
  5
3308
  8
YODOROGO
 10
29665.604341291921
 20
1995.7494964292871
 30
0.0
 11
29665.604341291921
 21
2027.749496429288
 31
0.0
1001
AUTOCAD_POSTSCRIPT_FIGURE
1002
{
1000
PSFILL
1000
Grayscale
1000
Grayscale
1070
    25
1002
}
  0
LINE
  5
3309
  8
YODOROGO
 10
29765.604341291921
 20
1995.7494964292871
 30
0.0
 11
29665.604341291921
 21
1995.7494964292871
 31
0.0
1001
AUTOCAD_POSTSCRIPT_FIGURE
1002
{
1000
PSFILL
1000
Grayscale
1000
Grayscale
1070
    25
1002
}
  0
LINE
  5
330A
  8
YODOROGO
 10
29765.604341291921
 20
2027.749496429288
 30
0.0
 11
29765.604341291921
 21
1995.7494964292871
 31
0.0
1001
AUTOCAD_POSTSCRIPT_FIGURE
1002
{
1000
PSFILL
1000
Grayscale
1000
Grayscale
1070
    25
1002
}
  0
LINE
  5
330B
  8
YODOROGO
 10
29829.604341291921
 20
2027.749496429288
 30
0.0
 11
29765.604341291921
 21
2027.749496429288
 31
0.0
1001
AUTOCAD_POSTSCRIPT_FIGURE
1002
{
1000
PSFILL
1000
Grayscale
1000
Grayscale
1070
    25
1002
}
  0
LINE
  5
330C
  8
YODOROGO
 10
29829.604341291921
 20
1995.7494964292871
 30
0.0
 11
29829.604341291921
 21
2027.749496429288
 31
0.0
1001
AUTOCAD_POSTSCRIPT_FIGURE
1002
{
1000
PSFILL
1000
Grayscale
1000
Grayscale
1070
    25
1002
}
  0
LINE
  5
330D
  8
YODOROGO
 10
29829.604341291921
 20
1907.7494964292871
 30
0.0
 11
29829.604341291921
 21
1947.749496429288
 31
0.0
1001
AUTOCAD_POSTSCRIPT_FIGURE
1002
{
1000
PSFILL
1000
Grayscale
1000
Grayscale
1070
    25
1002
}
  0
LINE
  5
330E
  8
YODOROGO
 10
29829.604341291921
 20
1819.7494964292871
 30
0.0
 11
29829.604341291921
 21
1859.749496429288
 31
0.0
1001
AUTOCAD_POSTSCRIPT_FIGURE
1002
{
1000
PSFILL
1000
Grayscale
1000
Grayscale
1070
    25
1002
}
  0
LINE
  5
330F
  8
YODOROGO
 10
29921.60434129191
 20
1771.7494964292871
 30
0.0
 11
29921.60434129191
 21
1707.749496429288
 31
0.0
1001
AUTOCAD_POSTSCRIPT_FIGURE
1002
{
1000
PSFILL
1000
Grayscale
1000
Grayscale
1070
    25
1002
}
  0
LINE
  5
3310
  8
YODOROGO
 10
29829.604341291921
 20
1771.7494964292871
 30
0.0
 11
29921.60434129191
 21
1771.7494964292871
 31
0.0
1001
AUTOCAD_POSTSCRIPT_FIGURE
1002
{
1000
PSFILL
1000
Grayscale
1000
Grayscale
1070
    25
1002
}
  0
LINE
  5
3311
  8
YODOROGO
 10
29829.604341291921
 20
1707.749496429288
 30
0.0
 11
29829.604341291921
 21
1771.7494964292871
 31
0.0
1001
AUTOCAD_POSTSCRIPT_FIGURE
1002
{
1000
PSFILL
1000
Grayscale
1000
Grayscale
1070
    25
1002
}
  0
LINE
  5
3312
  8
YODOROGO
 10
29765.604341291921
 20
1707.749496429288
 30
0.0
 11
29829.604341291921
 21
1707.749496429288
 31
0.0
1001
AUTOCAD_POSTSCRIPT_FIGURE
1002
{
1000
PSFILL
1000
Grayscale
1000
Grayscale
1070
    25
1002
}
  0
LINE
  5
3313
  8
YODOROGO
 10
29765.604341291921
 20
1771.7494964292871
 30
0.0
 11
29765.604341291921
 21
1707.749496429288
 31
0.0
1001
AUTOCAD_POSTSCRIPT_FIGURE
1002
{
1000
PSFILL
1000
Grayscale
1000
Grayscale
1070
    25
1002
}
  0
LINE
  5
3314
  8
YODOROGO
 10
29673.604341291921
 20
1771.7494964292871
 30
0.0
 11
29765.604341291921
 21
1771.7494964292871
 31
0.0
1001
AUTOCAD_POSTSCRIPT_FIGURE
1002
{
1000
PSFILL
1000
Grayscale
1000
Grayscale
1070
    25
1002
}
  0
ARC
  5
3315
  8
YODOROGO
 10
31059.517893357912
 20
1602.6807375155761
 30
0.0
 40
178.22128111072141
 50
281.02627495425338
 51
357.77113575573799
  0
LINE
  5
3316
  8
YODOROGO
 10
31413.604341291921
 20
1907.7494964292871
 30
0.0
 11
31165.604341291921
 21
1907.7494964292871
 31
0.0
  0
LINE
  5
3317
  8
YODOROGO
 10
31413.604341291921
 20
2027.749496429288
 30
0.0
 11
31165.604341291921
 21
2027.749496429288
 31
0.0
  0
LINE
  5
3318
  8
YODOROGO
 10
31165.604341291921
 20
1963.749496429286
 30
0.0
 11
31413.604341291921
 21
1963.749496429286
 31
0.0
  0
LINE
  5
3319
  8
YODOROGO
 10
30791.604341291921
 20
1563.7494964292871
 30
0.0
 11
30791.604341291921
 21
1755.7494964292871
 31
0.0
  0
LINE
  5
331A
  8
YODOROGO
 10
30763.604341291921
 20
1691.749496429288
 30
0.0
 11
30763.604341291921
 21
1563.7494964292871
 31
0.0
  0
LINE
  5
331B
  8
YODOROGO
 10
30723.604341291921
 20
1491.749496429288
 30
0.0
 11
30723.604341291921
 21
1691.749496429288
 31
0.0
  0
LINE
  5
331C
  8
YODOROGO
 10
30899.604341291932
 20
1691.749496429288
 30
0.0
 11
30899.604341291932
 21
1491.749496429288
 31
0.0
  0
LINE
  5
331D
  8
YODOROGO
 10
30859.604341291932
 20
1563.7494964292871
 30
0.0
 11
30859.604341291932
 21
1691.749496429288
 31
0.0
  0
LINE
  5
331E
  8
YODOROGO
 10
30831.604341291921
 20
1755.7494964292871
 30
0.0
 11
30831.604341291921
 21
1563.7494964292871
 31
0.0
  0
LINE
  5
331F
  8
YODOROGO
 10
30973.604341291921
 20
2027.749496429288
 30
0.0
 11
30973.604341291921
 21
1467.749496429288
 31
0.0
  0
LINE
  5
3320
  8
YODOROGO
 10
30645.604341291921
 20
1427.749496429288
 30
0.0
 11
30645.604341291921
 21
2027.749496429288
 31
0.0
  0
LINE
  5
3321
  8
YODOROGO
 10
30697.604341291932
 20
1963.749496429286
 30
0.0
 11
30697.604341291932
 21
1427.749496429288
 31
0.0
  0
LINE
  5
3322
  8
YODOROGO
 10
30925.604341291921
 20
1547.749496429288
 30
0.0
 11
30925.604341291921
 21
1963.749496429286
 31
0.0
  0
LINE
  5
3323
  8
YODOROGO
 10
30381.604341291932
 20
1627.749496429288
 30
0.0
 11
30381.604341291932
 21
1679.749496429288
 31
0.0
  0
LINE
  5
3324
  8
YODOROGO
 10
30617.604341291921
 20
1679.749496429288
 30
0.0
 11
30617.604341291921
 21
1627.749496429288
 31
0.0
  0
LINE
  5
3325
  8
YODOROGO
 10
31165.604341291921
 20
1907.7494964292871
 30
0.0
 11
31165.604341291921
 21
1635.7494964292871
 31
0.0
  0
LINE
  5
3326
  8
YODOROGO
 10
29949.60434129191
 20
1667.749496429288
 30
0.0
 11
29949.60434129191
 21
1707.749496429288
 31
0.0
  0
LINE
  5
3327
  8
YODOROGO
 10
29949.60434129191
 20
1667.749496429288
 30
0.0
 11
29949.60434129191
 21
1707.749496429288
 31
0.0
  0
ARC
  5
3328
  8
YODOROGO
 10
30537.604341291921
 20
1507.749496429288
 30
0.0
 40
80.0
 50
270.0
 51
0.0
  0
LINE
  5
3329
  8
YODOROGO
 10
30569.604341291921
 20
1599.7494964292871
 30
0.0
 11
30617.604341291921
 21
1599.7494964292871
 31
0.0
  0
LINE
  5
332A
  8
YODOROGO
 10
30617.604341291921
 20
1627.749496429288
 30
0.0
 11
30529.604341291939
 21
1627.749496429288
 31
0.0
  0
LINE
  5
332B
  8
YODOROGO
 10
30217.604341291921
 20
1667.749496429288
 30
0.0
 11
29949.60434129191
 21
1667.749496429288
 31
0.0
  0
LINE
  5
332C
  8
YODOROGO
 10
30217.604341291921
 20
1627.749496429288
 30
0.0
 11
30217.604341291921
 21
1667.749496429288
 31
0.0
  0
LINE
  5
332D
  8
YODOROGO
 10
30017.604341291921
 20
1627.749496429288
 30
0.0
 11
30217.604341291921
 21
1627.749496429288
 31
0.0
  0
ARC
  5
332E
  8
YODOROGO
 10
30230.05882870136
 20
1868.885714952901
 30
0.0
 40
321.37763628522822
 50
228.6181454618993
 51
245.660289248906
  0
LINE
  5
332F
  8
YODOROGO
 10
30105.604341291921
 20
1603.7494964292871
 30
0.0
 11
30097.60434129195
 21
1576.0728158699001
 31
0.0
  0
LINE
  5
3330
  8
YODOROGO
 10
30189.604341291921
 20
1603.7494964292871
 30
0.0
 11
30105.604341291921
 21
1603.7494964292871
 31
0.0
  0
LINE
  5
3331
  8
YODOROGO
 10
30177.604341291921
 20
1551.817722473427
 30
0.0
 11
30189.604341291921
 21
1603.7494964292871
 31
0.0
  0
ARC
  5
3332
  8
YODOROGO
 10
30230.05882870045
 20
1868.885714953002
 30
0.0
 40
321.37763628529081
 50
260.60629297969911
 51
267.77903556555862
  0
LINE
  5
3333
  8
YODOROGO
 10
30217.604341291921
 20
1427.749496429285
 30
0.0
 11
30217.604341291921
 21
1547.749496429288
 31
0.0
  0
LINE
  5
3334
  8
YODOROGO
 10
29937.604341291932
 20
1481.3393349155101
 30
0.0
 11
29937.604341291921
 21
1594.531090531141
 31
0.0
  0
LINE
  5
3335
  8
YODOROGO
 10
30217.604341291921
 20
1667.749496429288
 30
0.0
 11
29949.60434129191
 21
1667.749496429288
 31
0.0
  0
LINE
  5
3336
  8
YODOROGO
 10
30217.604341291921
 20
1627.749496429288
 30
0.0
 11
30217.604341291921
 21
1667.749496429288
 31
0.0
  0
LINE
  5
3337
  8
YODOROGO
 10
30017.604341291921
 20
1627.749496429288
 30
0.0
 11
30217.604341291921
 21
1627.749496429288
 31
0.0
  0
ARC
  5
3338
  8
YODOROGO
 10
30230.05882870136
 20
1868.885714952901
 30
0.0
 40
321.37763628522822
 50
228.6181454618993
 51
245.660289248906
  0
LINE
  5
3339
  8
YODOROGO
 10
30105.604341291921
 20
1603.7494964292871
 30
0.0
 11
30097.60434129195
 21
1576.0728158699001
 31
0.0
  0
LINE
  5
333A
  8
YODOROGO
 10
30189.604341291921
 20
1603.7494964292871
 30
0.0
 11
30105.604341291921
 21
1603.7494964292871
 31
0.0
  0
LINE
  5
333B
  8
YODOROGO
 10
30177.604341291921
 20
1551.817722473427
 30
0.0
 11
30189.604341291921
 21
1603.7494964292871
 31
0.0
  0
ARC
  5
333C
  8
YODOROGO
 10
30230.05882870045
 20
1868.885714953002
 30
0.0
 40
321.37763628529081
 50
260.60629297969911
 51
267.77903556555862
  0
LINE
  5
333D
  8
YODOROGO
 10
30217.604341291921
 20
1427.749496429285
 30
0.0
 11
30217.604341291921
 21
1547.749496429288
 31
0.0
  0
LINE
  5
333E
  8
YODOROGO
 10
29937.604341291932
 20
1481.3393349155101
 30
0.0
 11
29937.604341291921
 21
1594.531090531141
 31
0.0
  0
LINE
  5
333F
  8
YODOROGO
 10
30433.604341291921
 20
1573.749496429288
 30
0.0
 11
30381.604341291932
 21
1573.749496429288
 31
0.0
  0
LINE
  5
3340
  8
YODOROGO
 10
30433.604341291921
 20
1601.749496429285
 30
0.0
 11
30433.604341291921
 21
1573.749496429288
 31
0.0
  0
LINE
  5
3341
  8
YODOROGO
 10
30381.604341291932
 20
1601.749496429285
 30
0.0
 11
30433.604341291921
 21
1601.749496429285
 31
0.0
  0
LINE
  5
3342
  8
YODOROGO
 10
30381.604341291932
 20
1573.749496429288
 30
0.0
 11
30381.604341291932
 21
1601.749496429285
 31
0.0
  0
LINE
  5
3343
  8
YODOROGO
 10
30429.604341291921
 20
1577.7494964292871
 30
0.0
 11
30385.604341291921
 21
1577.7494964292871
 31
0.0
  0
LINE
  5
3344
  8
YODOROGO
 10
30429.604341291921
 20
1597.749496429288
 30
0.0
 11
30429.604341291921
 21
1577.7494964292871
 31
0.0
  0
LINE
  5
3345
  8
YODOROGO
 10
30385.604341291921
 20
1597.749496429288
 30
0.0
 11
30429.604341291921
 21
1597.749496429288
 31
0.0
  0
LINE
  5
3346
  8
YODOROGO
 10
30385.604341291921
 20
1577.7494964292871
 30
0.0
 11
30385.604341291921
 21
1597.749496429288
 31
0.0
  0
LINE
  5
3347
  8
YODOROGO
 10
30425.604341291921
 20
1581.749496429286
 30
0.0
 11
30389.604341291921
 21
1581.749496429286
 31
0.0
  0
LINE
  5
3348
  8
YODOROGO
 10
30425.604341291921
 20
1593.749496429288
 30
0.0
 11
30425.604341291921
 21
1581.749496429286
 31
0.0
  0
LINE
  5
3349
  8
YODOROGO
 10
30389.604341291921
 20
1593.749496429288
 30
0.0
 11
30425.604341291921
 21
1593.749496429288
 31
0.0
  0
LINE
  5
334A
  8
YODOROGO
 10
30389.604341291921
 20
1581.749496429286
 30
0.0
 11
30389.604341291921
 21
1593.749496429288
 31
0.0
  0
LINE
  5
334B
  8
YODOROGO
 10
30421.604341291932
 20
1585.7494964292871
 30
0.0
 11
30393.604341291921
 21
1585.7494964292871
 31
0.0
  0
LINE
  5
334C
  8
YODOROGO
 10
30421.604341291932
 20
1589.749496429288
 30
0.0
 11
30421.604341291932
 21
1585.7494964292871
 31
0.0
  0
LINE
  5
334D
  8
YODOROGO
 10
30393.604341291921
 20
1589.749496429288
 30
0.0
 11
30421.604341291932
 21
1589.749496429288
 31
0.0
  0
LINE
  5
334E
  8
YODOROGO
 10
30393.604341291921
 20
1585.7494964292871
 30
0.0
 11
30393.604341291921
 21
1589.749496429288
 31
0.0
  0
LINE
  5
334F
  8
YODOROGO
 10
30465.604341291921
 20
1627.749496429288
 30
0.0
 11
30381.604341291932
 21
1627.749496429288
 31
0.0
  0
LINE
  5
3350
  8
YODOROGO
 10
30465.604341291921
 20
1547.749496429288
 30
0.0
 11
30465.604341291921
 21
1627.749496429288
 31
0.0
  0
LINE
  5
3351
  8
YODOROGO
 10
30381.604341291932
 20
1547.749496429288
 30
0.0
 11
30465.604341291921
 21
1547.749496429288
 31
0.0
  0
LINE
  5
3352
  8
YODOROGO
 10
30381.604341291932
 20
1427.749496429288
 30
0.0
 11
30381.604341291932
 21
1547.749496429288
 31
0.0
  0
LINE
  5
3353
  8
YODOROGO
 10
30537.604341291921
 20
1427.749496429288
 30
0.0
 11
30381.604341291932
 21
1427.749496429288
 31
0.0
  0
LINE
  5
3354
  8
YODOROGO
 10
30569.604341291921
 20
1571.749496429285
 30
0.0
 11
30569.604341291921
 21
1599.7494964292871
 31
0.0
  0
ARC
  5
3355
  8
YODOROGO
 10
30545.604341291921
 20
1571.749496429291
 30
0.0
 40
24.000000000003752
 50
270.0
 51
359.99999999998772
  0
LINE
  5
3356
  8
YODOROGO
 10
30529.604341291939
 20
1547.749496429288
 30
0.0
 11
30545.604341291921
 21
1547.749496429288
 31
0.0
  0
LINE
  5
3357
  8
YODOROGO
 10
30529.604341291939
 20
1627.749496429288
 30
0.0
 11
30529.604341291939
 21
1547.749496429288
 31
0.0
  0
LINE
  5
3358
  8
YODOROGO
 10
30899.604341291932
 20
1547.749496429288
 30
0.0
 11
30925.604341291921
 21
1547.749496429288
 31
0.0
  0
LINE
  5
3359
  8
YODOROGO
 10
30933.604341291921
 20
1427.749496429288
 30
0.0
 11
30899.604341291932
 21
1427.749496429288
 31
0.0
  0
LINE
  5
335A
  8
YODOROGO
 10
30763.604341291921
 20
1563.7494964292871
 30
0.0
 11
30791.604341291921
 21
1563.7494964292871
 31
0.0
  0
LINE
  5
335B
  8
YODOROGO
 10
30899.604341291932
 20
1491.749496429288
 30
0.0
 11
30723.604341291921
 21
1491.749496429288
 31
0.0
  0
LINE
  5
335C
  8
YODOROGO
 10
30831.604341291921
 20
1563.7494964292871
 30
0.0
 11
30859.604341291932
 21
1563.7494964292871
 31
0.0
  0
LINE
  5
335D
  8
YODOROGO
 10
30899.604341291932
 20
1427.749496429288
 30
0.0
 11
30899.604341291932
 21
1547.749496429288
 31
0.0
  0
LINE
  5
335E
  8
YODOROGO
 10
30697.604341291932
 20
1427.749496429288
 30
0.0
 11
30645.604341291921
 21
1427.749496429288
 31
0.0
  0
LINE
  5
335F
  8
YODOROGO
 10
30617.604341291921
 20
1599.7494964292871
 30
0.0
 11
30617.604341291921
 21
1507.749496429288
 31
0.0
  0
ARC
  5
3360
  8
YODOROGO
 10
30933.604341291921
 20
1467.749496429288
 30
0.0
 40
40.0
 50
270.0
 51
0.0
  0
LINE
  5
3361
  8
YODOROGO
 10
31093.604341291921
 20
1523.7494964292871
 30
0.0
 11
31093.604341291921
 21
1427.749496429288
 31
0.0
  0
ARC
  5
3362
  8
YODOROGO
 10
31039.721395566768
 20
1637.5313901097329
 30
0.0
 40
125.8955565916754
 50
295.34052442160112
 51
359.18902303418679
  0
LINE
  5
3363
  8
YODOROGO
 10
30617.604341291921
 20
1859.749496429288
 30
0.0
 11
30497.604341291921
 21
1939.749496429288
 31
0.0
  0
LINE
  5
3364
  8
YODOROGO
 10
30497.604341291921
 20
2027.749496429288
 30
0.0
 11
30617.604341291921
 21
1947.749496429288
 31
0.0
  0
LINE
  5
3365
  8
YODOROGO
 10
30529.604341291939
 20
1679.749496429288
 30
0.0
 11
30617.604341291921
 21
1679.749496429288
 31
0.0
  0
LINE
  5
3366
  8
YODOROGO
 10
30617.604341291921
 20
1735.7494964292871
 30
0.0
 11
30529.604341291939
 21
1735.7494964292871
 31
0.0
  0
LINE
  5
3367
  8
YODOROGO
 10
30381.604341291932
 20
1795.7494964292871
 30
0.0
 11
30617.604341291921
 21
1795.7494964292871
 31
0.0
  0
LINE
  5
3368
  8
YODOROGO
 10
30081.604341291921
 20
2027.749496429288
 30
0.0
 11
30021.604341291921
 21
2027.749496429288
 31
0.0
  0
LINE
  5
3369
  8
YODOROGO
 10
30081.604341291921
 20
1827.7494964292871
 30
0.0
 11
30081.604341291921
 21
2027.749496429288
 31
0.0
  0
LINE
  5
336A
  8
YODOROGO
 10
30021.604341291921
 20
1827.7494964292871
 30
0.0
 11
30081.604341291921
 21
1827.7494964292871
 31
0.0
  0
LINE
  5
336B
  8
YODOROGO
 10
30021.604341291921
 20
2027.749496429288
 30
0.0
 11
30021.604341291921
 21
1827.7494964292871
 31
0.0
  0
LINE
  5
336C
  8
YODOROGO
 10
30161.604341291921
 20
2027.749496429288
 30
0.0
 11
30217.604341291921
 21
2027.749496429288
 31
0.0
  0
LINE
  5
336D
  8
YODOROGO
 10
30161.604341291921
 20
1811.749496429288
 30
0.0
 11
30161.604341291921
 21
2027.749496429288
 31
0.0
  0
ARC
  5
336E
  8
YODOROGO
 10
30121.604341291921
 20
1811.749496429288
 30
0.0
 40
40.0
 50
270.0
 51
0.0
  0
LINE
  5
336F
  8
YODOROGO
 10
30021.604341291921
 20
1771.7494964292871
 30
0.0
 11
30121.604341291921
 21
1771.7494964292871
 31
0.0
  0
LINE
  5
3370
  8
YODOROGO
 10
30021.604341291921
 20
1707.749496429288
 30
0.0
 11
30021.604341291921
 21
1771.7494964292871
 31
0.0
  0
LINE
  5
3371
  8
YODOROGO
 10
30137.604341291921
 20
1707.749496429288
 30
0.0
 11
30021.604341291921
 21
1707.749496429288
 31
0.0
  0
ARC
  5
3372
  8
YODOROGO
 10
30137.604341291921
 20
1787.7494964292871
 30
0.0
 40
80.0
 50
270.0
 51
0.0
  0
LINE
  5
3373
  8
YODOROGO
 10
30217.604341291921
 20
2027.749496429288
 30
0.0
 11
30217.604341291921
 21
1787.7494964292871
 31
0.0
  0
LINE
  5
3374
  8
YODOROGO
 10
29977.604341291921
 20
1947.749496429288
 30
0.0
 11
29977.604341291921
 21
1995.7494964292871
 31
0.0
1001
AUTOCAD_POSTSCRIPT_FIGURE
1002
{
1000
PSFILL
1000
Grayscale
1000
Grayscale
1070
    25
1002
}
  0
LINE
  5
3375
  8
YODOROGO
 10
29977.604341291921
 20
1859.749496429288
 30
0.0
 11
29977.604341291921
 21
1907.7494964292871
 31
0.0
1001
AUTOCAD_POSTSCRIPT_FIGURE
1002
{
1000
PSFILL
1000
Grayscale
1000
Grayscale
1070
    25
1002
}
  0
LINE
  5
3376
  8
YODOROGO
 10
29977.604341291921
 20
1707.749496429288
 30
0.0
 11
29977.604341291921
 21
1819.7494964292871
 31
0.0
1001
AUTOCAD_POSTSCRIPT_FIGURE
1002
{
1000
PSFILL
1000
Grayscale
1000
Grayscale
1070
    25
1002
}
  0
LINE
  5
3377
  8
YODOROGO
 10
30381.604341291932
 20
1907.7494964292871
 30
0.0
 11
30497.604341291921
 21
2027.749496429288
 31
0.0
  0
LINE
  5
3378
  8
YODOROGO
 10
30381.604341291932
 20
1819.7494964292871
 30
0.0
 11
30381.604341291932
 21
1907.7494964292871
 31
0.0
  0
LINE
  5
3379
  8
YODOROGO
 10
30497.604341291921
 20
1939.749496429288
 30
0.0
 11
30381.604341291932
 21
1819.7494964292871
 31
0.0
  0
LINE
  5
337A
  8
YODOROGO
 10
30465.604341291921
 20
1679.749496429288
 30
0.0
 11
30465.604341291921
 21
1735.7494964292871
 31
0.0
  0
LINE
  5
337B
  8
YODOROGO
 10
30381.604341291932
 20
1679.749496429288
 30
0.0
 11
30465.604341291921
 21
1679.749496429288
 31
0.0
  0
LINE
  5
337C
  8
YODOROGO
 10
30529.604341291939
 20
1735.7494964292871
 30
0.0
 11
30529.604341291939
 21
1679.749496429288
 31
0.0
  0
LINE
  5
337D
  8
YODOROGO
 10
30381.604341291932
 20
1735.7494964292871
 30
0.0
 11
30381.604341291932
 21
1795.7494964292871
 31
0.0
  0
LINE
  5
337E
  8
YODOROGO
 10
30465.604341291921
 20
1735.7494964292871
 30
0.0
 11
30381.604341291932
 21
1735.7494964292871
 31
0.0
  0
LINE
  5
337F
  8
YODOROGO
 10
30645.604341291921
 20
2027.749496429288
 30
0.0
 11
30973.604341291921
 21
2027.749496429288
 31
0.0
  0
LINE
  5
3380
  8
YODOROGO
 10
30925.604341291921
 20
1963.749496429286
 30
0.0
 11
30697.604341291932
 21
1963.749496429286
 31
0.0
  0
LINE
  5
3381
  8
YODOROGO
 10
30873.604341291921
 20
1819.7494964292871
 30
0.0
 11
30899.604341291932
 21
1819.7494964292871
 31
0.0
  0
LINE
  5
3382
  8
YODOROGO
 10
30899.604341291932
 20
1939.749496429288
 30
0.0
 11
30873.604341291921
 21
1819.7494964292871
 31
0.0
  0
LINE
  5
3383
  8
YODOROGO
 10
30851.604341291939
 20
1939.749496429288
 30
0.0
 11
30899.604341291932
 21
1939.749496429288
 31
0.0
  0
LINE
  5
3384
  8
YODOROGO
 10
30825.604341291921
 20
1819.7494964292871
 30
0.0
 11
30851.604341291939
 21
1939.749496429288
 31
0.0
  0
LINE
  5
3385
  8
YODOROGO
 10
30797.604341291921
 20
1819.7494964292871
 30
0.0
 11
30825.604341291921
 21
1819.7494964292871
 31
0.0
  0
LINE
  5
3386
  8
YODOROGO
 10
30771.604341291939
 20
1939.749496429288
 30
0.0
 11
30797.604341291921
 21
1819.7494964292871
 31
0.0
  0
LINE
  5
3387
  8
YODOROGO
 10
30723.604341291921
 20
1939.749496429288
 30
0.0
 11
30771.604341291939
 21
1939.749496429288
 31
0.0
  0
LINE
  5
3388
  8
YODOROGO
 10
30749.604341291921
 20
1819.7494964292871
 30
0.0
 11
30723.604341291921
 21
1939.749496429288
 31
0.0
  0
LINE
  5
3389
  8
YODOROGO
 10
30723.604341291921
 20
1819.7494964292871
 30
0.0
 11
30749.604341291921
 21
1819.7494964292871
 31
0.0
  0
LINE
  5
338A
  8
YODOROGO
 10
30723.604341291921
 20
1755.7494964292871
 30
0.0
 11
30723.604341291921
 21
1819.7494964292871
 31
0.0
  0
LINE
  5
338B
  8
YODOROGO
 10
30899.604341291932
 20
1755.7494964292871
 30
0.0
 11
30723.604341291921
 21
1755.7494964292871
 31
0.0
  0
LINE
  5
338C
  8
YODOROGO
 10
30899.604341291932
 20
1819.7494964292871
 30
0.0
 11
30899.604341291932
 21
1755.7494964292871
 31
0.0
  0
LINE
  5
338D
  8
YODOROGO
 10
30617.604341291921
 20
1947.749496429288
 30
0.0
 11
30617.604341291921
 21
1859.749496429288
 31
0.0
  0
LINE
  5
338E
  8
YODOROGO
 10
30791.604341291921
 20
1755.7494964292871
 30
0.0
 11
30831.604341291921
 21
1755.7494964292871
 31
0.0
  0
LINE
  5
338F
  8
YODOROGO
 10
30723.604341291921
 20
1691.749496429288
 30
0.0
 11
30763.604341291921
 21
1691.749496429288
 31
0.0
  0
LINE
  5
3390
  8
YODOROGO
 10
30859.604341291932
 20
1691.749496429288
 30
0.0
 11
30899.604341291932
 21
1691.749496429288
 31
0.0
  0
LINE
  5
3391
  8
YODOROGO
 10
30617.604341291921
 20
1795.7494964292871
 30
0.0
 11
30617.604341291921
 21
1735.7494964292871
 31
0.0
  0
LINE
  5
3392
  8
YODOROGO
 10
31165.604341291921
 20
2027.749496429288
 30
0.0
 11
31165.604341291921
 21
1963.749496429286
 31
0.0
  0
LINE
  5
3393
  8
YODOROGO
 10
31533.604341291921
 20
1595.7494964292871
 30
0.0
 11
31533.60434129191
 21
1811.749496429288
 31
0.0
  0
LINE
  5
3394
  8
YODOROGO
 10
31461.60434129191
 20
1987.7494964292871
 30
0.0
 11
31461.60434129191
 21
1635.7494964292871
 31
0.0
  0
LINE
  5
3395
  8
YODOROGO
 10
31653.604341291921
 20
1427.749496429288
 30
0.0
 11
31653.60434129191
 21
1811.749496429288
 31
0.0
  0
LINE
  5
3396
  8
YODOROGO
 10
31589.604341291921
 20
1811.749496429288
 30
0.0
 11
31589.604341291921
 21
1427.749496429288
 31
0.0
  0
LINE
  5
3397
  8
YODOROGO
 10
31237.604341291921
 20
1595.7494964292871
 30
0.0
 11
31237.604341291921
 21
1707.749496429288
 31
0.0
  0
ARC
  5
3398
  8
YODOROGO
 10
31353.914865116069
 20
1607.790351288558
 30
0.0
 40
180.0924485759885
 50
268.62849102169793
 51
356.16638457330322
  0
LINE
  5
3399
  8
YODOROGO
 10
31349.604341291939
 20
1527.749496429288
 30
0.0
 11
31349.604341291939
 21
1427.749496429288
 31
0.0
  0
ARC
  5
339A
  8
YODOROGO
 10
31351.518075724562
 20
1637.838957017655
 30
0.0
 40
110.1060929836122
 50
269.00410209305932
 51
358.91264455492478
  0
LINE
  5
339B
  8
YODOROGO
 10
31589.604341291921
 20
1427.749496429288
 30
0.0
 11
31653.604341291921
 21
1427.749496429288
 31
0.0
  0
LINE
  5
339C
  8
YODOROGO
 10
31533.60434129191
 20
1811.749496429288
 30
0.0
 11
31589.604341291921
 21
1811.749496429288
 31
0.0
  0
LINE
  5
339D
  8
YODOROGO
 10
31621.604341291939
 20
1987.7494964292871
 30
0.0
 11
31461.60434129191
 21
1987.7494964292871
 31
0.0
  0
LINE
  5
339E
  8
YODOROGO
 10
31533.60434129191
 20
1915.7494964292871
 30
0.0
 11
31661.604341291939
 21
1915.7494964292871
 31
0.0
  0
LINE
  5
339F
  8
YODOROGO
 10
31701.604341291939
 20
1875.7494964292871
 30
0.0
 11
31533.60434129191
 21
1875.7494964292871
 31
0.0
  0
LINE
  5
33A0
  8
YODOROGO
 10
31237.604341291921
 20
1779.749496429288
 30
0.0
 11
31349.604341291939
 21
1779.749496429288
 31
0.0
  0
LINE
  5
33A1
  8
YODOROGO
 10
31237.604341291921
 20
1835.7494964292871
 30
0.0
 11
31237.604341291921
 21
1779.749496429288
 31
0.0
  0
LINE
  5
33A2
  8
YODOROGO
 10
31349.604341291939
 20
1835.7494964292871
 30
0.0
 11
31237.604341291921
 21
1835.7494964292871
 31
0.0
  0
LINE
  5
33A3
  8
YODOROGO
 10
31349.604341291939
 20
1779.749496429288
 30
0.0
 11
31349.604341291939
 21
1835.7494964292871
 31
0.0
  0
LINE
  5
33A4
  8
YODOROGO
 10
31533.60434129191
 20
1875.7494964292871
 30
0.0
 11
31533.60434129191
 21
1915.7494964292871
 31
0.0
  0
LINE
  5
33A5
  8
YODOROGO
 10
31413.604341291921
 20
1707.749496429288
 30
0.0
 11
31413.604341291921
 21
1907.7494964292871
 31
0.0
  0
LINE
  5
33A6
  8
YODOROGO
 10
31237.604341291921
 20
1707.749496429288
 30
0.0
 11
31413.604341291921
 21
1707.749496429288
 31
0.0
  0
LINE
  5
33A7
  8
YODOROGO
 10
31413.604341291921
 20
1963.749496429286
 30
0.0
 11
31413.604341291921
 21
2027.749496429288
 31
0.0
  0
ARC
  5
33A8
  8
YODOROGO
 10
31621.604341291939
 20
2003.749496429285
 30
0.0
 40
15.999999999994539
 50
270.0
 51
0.0000000000081422
  0
LINE
  5
33A9
  8
YODOROGO
 10
31637.604341291921
 20
2027.749496429288
 30
0.0
 11
31637.604341291921
 21
2003.7494964292871
 31
0.0
  0
LINE
  5
33AA
  8
YODOROGO
 10
31701.604341291939
 20
2027.749496429288
 30
0.0
 11
31637.604341291921
 21
2027.749496429288
 31
0.0
  0
LINE
  5
33AB
  8
YODOROGO
 10
31701.604341291939
 20
1955.7494964292871
 30
0.0
 11
31701.604341291939
 21
2027.749496429288
 31
0.0
  0
ARC
  5
33AC
  8
YODOROGO
 10
31661.604341291939
 20
1955.7494964292871
 30
0.0
 40
40.0
 50
270.0
 51
0.0
  0
LINE
  5
33AD
  8
YODOROGO
 10
31701.604341291939
 20
1811.749496429288
 30
0.0
 11
31701.604341291939
 21
1875.7494964292871
 31
0.0
  0
LINE
  5
33AE
  8
YODOROGO
 10
31653.60434129191
 20
1811.749496429288
 30
0.0
 11
31701.604341291939
 21
1811.749496429288
 31
0.0
  0
LINE
  5
33B2
  8
SUNPOU
  6
CONTINUOUS
 62
     4
 10
11322.095049999991
 20
13639.990937
 30
0.0
 11
10475.09962899998
 21
13639.990937
 31
0.0
  0
LINE
  5
33B3
  8
SUNPOU
  6
CONTINUOUS
 62
     4
 10
10555.09962899998
 20
13832.486252000001
 30
0.0
 11
10555.09962899998
 21
14072.486252000001
 31
0.0
  0
LINE
  5
33B4
  8
SUNPOU
  6
CONTINUOUS
 62
     4
 10
10555.09962899998
 20
13639.990937
 30
0.0
 11
10555.09962899998
 21
13399.990937
 31
0.0
  0
LINE
  5
33B5
  8
SUNPOU
  6
CONTINUOUS
 62
     4
 10
10555.09962899998
 20
13832.486252000001
 30
0.0
 11
10555.09962899998
 21
13639.990937
 31
0.0
  0
LINE
  5
33B6
  8
SUNPOU
  6
CONTINUOUS
 62
     4
 10
10555.09962899998
 20
16750.486251999992
 30
0.0
 11
10555.09962899998
 21
13832.486252000001
 31
0.0
  0
LINE
  5
33B7
  8
SUNPOU
  6
CONTINUOUS
 62
     4
 10
11322.09504999998
 20
19880.982161
 30
0.0
 11
10875.09962899998
 21
19880.982161
 31
0.0
  0
LINE
  5
33B8
  8
SUNPOU
  6
CONTINUOUS
 62
     4
 10
11322.09940499999
 20
19890.982161000022
 30
0.0
 11
10875.09962899998
 21
19890.982161000022
 31
0.0
  0
LINE
  5
33B9
  8
SUNPOU
  6
CONTINUOUS
 62
     4
 10
10955.09962899998
 20
19880.982161
 30
0.0
 11
10955.09962899998
 21
19640.982161000022
 31
0.0
  0
LINE
  5
33BA
  8
SUNPOU
  6
CONTINUOUS
 62
     4
 10
10955.09962899998
 20
19890.982161000022
 30
0.0
 11
10955.09962899998
 21
20130.982161000022
 31
0.0
  0
LINE
  5
33BB
  8
SUNPOU
  6
CONTINUOUS
 62
     4
 10
10955.09962899998
 20
19880.982161
 30
0.0
 11
10955.09962899998
 21
19890.982161000022
 31
0.0
  0
LINE
  5
33BC
  8
SUNPOU
  6
CONTINUOUS
 62
     4
 10
11322.09940499999
 20
19890.982161000022
 30
0.0
 11
10475.09962899998
 21
19890.982161000022
 31
0.0
  0
LINE
  5
33BD
  8
SUNPOU
  6
CONTINUOUS
 62
     4
 10
10555.09962899998
 20
19668.486251999992
 30
0.0
 11
10555.09962899998
 21
19428.486251999992
 31
0.0
  0
LINE
  5
33BE
  8
SUNPOU
  6
CONTINUOUS
 62
     4
 10
10555.09962899998
 20
19890.982161000022
 30
0.0
 11
10555.09962899998
 21
20130.982161000022
 31
0.0
  0
LINE
  5
33BF
  8
SUNPOU
  6
CONTINUOUS
 62
     4
 10
10555.09962899998
 20
19668.486251999992
 30
0.0
 11
10555.09962899998
 21
19890.982161000022
 31
0.0
  0
LINE
  5
33C0
  8
SUNPOU
  6
CONTINUOUS
 62
     4
 10
10555.09962899998
 20
16750.486251999992
 30
0.0
 11
10555.09962899998
 21
19668.486251999992
 31
0.0
  0
LINE
  5
33C1
  8
SUNPOU
  6
CONTINUOUS
 62
     4
 10
11399.09792
 20
19970.98414
 30
0.0
 11
11399.09792
 21
20520.989419000009
 31
0.0
  0
LINE
  5
33C2
  8
SUNPOU
  6
CONTINUOUS
 62
     4
 10
11484.59792
 20
20440.989419000009
 30
0.0
 11
11724.59792
 21
20440.989419000009
 31
0.0
  0
LINE
  5
33C3
  8
SUNPOU
  6
CONTINUOUS
 62
     4
 10
11402.09792
 20
20440.989419000009
 30
0.0
 11
11162.09792
 21
20440.989419000009
 31
0.0
  0
LINE
  5
33C4
  8
SUNPOU
  6
CONTINUOUS
 62
     4
 10
11484.59792
 20
20440.989419000009
 30
0.0
 11
11402.09792
 21
20440.989419000009
 31
0.0
  0
LINE
  5
33C5
  8
SUNPOU
  6
CONTINUOUS
 62
     4
 10
14488.103858
 20
19970.98414
 30
0.0
 11
14488.103858
 21
20520.989419000009
 31
0.0
  0
LINE
  5
33C6
  8
SUNPOU
  6
CONTINUOUS
 62
     4
 10
14402.603858
 20
20440.989419000009
 30
0.0
 11
14162.603858
 21
20440.989419000009
 31
0.0
  0
LINE
  5
33C7
  8
SUNPOU
  6
CONTINUOUS
 62
     4
 10
14485.103858
 20
20440.989419000009
 30
0.0
 11
14725.103858
 21
20440.989419000009
 31
0.0
  0
LINE
  5
33C8
  8
SUNPOU
  6
CONTINUOUS
 62
     4
 10
14402.603858
 20
20440.989419000009
 30
0.0
 11
14485.103858
 21
20440.989419000009
 31
0.0
  0
LINE
  5
33C9
  8
SUNPOU
  6
CONTINUOUS
 62
     4
 10
14402.603858
 20
20440.989419000009
 30
0.0
 11
11484.59791999998
 21
20440.989419000009
 31
0.0
  0
LINE
  5
33CA
  8
SUNPOU
  6
CONTINUOUS
 62
     4
 10
21612.563502000001
 20
19790.984537000018
 30
0.0
 11
21612.563502000001
 21
20520.987440000012
 31
0.0
  0
LINE
  5
33CB
  8
SUNPOU
  6
CONTINUOUS
 62
     4
 10
20854.563502000001
 20
19790.984537000018
 30
0.0
 11
20854.563502000001
 21
20520.987440000012
 31
0.0
  0
LINE
  5
33CC
  8
SUNPOU
  6
CONTINUOUS
 62
     4
 10
21612.563502000001
 20
20440.987440000012
 30
0.0
 11
20854.563502000001
 21
20440.987440000012
 31
0.0
  0
LINE
  5
33CD
  8
SUNPOU
  6
CONTINUOUS
 62
     4
 10
20724.56086300001
 20
6567.9237529999991
 30
0.0
 11
19924.562182000001
 21
6567.9237529999991
 31
0.0
  0
LINE
  5
33CE
  8
SUNPOU
  6
CONTINUOUS
 62
     4
 10
20724.56086300001
 20
8459.4237529999973
 30
0.0
 11
19924.562182000001
 21
8459.4237530000028
 31
0.0
  0
LINE
  5
33CF
  8
SUNPOU
  6
CONTINUOUS
 62
     4
 10
20004.562182000001
 20
6567.9237529999991
 30
0.0
 11
20004.562182000001
 21
8459.4237530000028
 31
0.0
  0
LINE
  5
33D0
  8
SUNPOU
  6
CONTINUOUS
 62
     4
 10
20724.56086300001
 20
6567.9237529999991
 30
0.0
 11
19524.559872999991
 21
6567.9237529999991
 31
0.0
  0
LINE
  5
33D1
  8
SUNPOU
  6
CONTINUOUS
 62
     4
 10
20692.063107000009
 20
8916.4237789999952
 30
0.0
 11
19524.559872999998
 21
8916.4237789999952
 31
0.0
  0
LINE
  5
33D2
  8
SUNPOU
  6
CONTINUOUS
 62
     4
 10
19604.559872999991
 20
6567.9237529999991
 30
0.0
 11
19604.559872999991
 21
8916.4237789999952
 31
0.0
  0
LINE
  5
33E3
  8
SUNPOU
  6
CONTINUOUS
 62
     4
 10
23772.563502000001
 20
6125.2714950000009
 30
0.0
 11
23772.563502000001
 21
5187.9239180000041
 31
0.0
  0
LINE
  5
33E4
  8
SUNPOU
  6
CONTINUOUS
 62
     4
 10
23815.063502000001
 20
6387.9239180000041
 30
0.0
 11
23815.063502000001
 21
5187.9239180000041
 31
0.0
  0
LINE
  5
33E5
  8
SUNPOU
  6
CONTINUOUS
 62
     4
 10
23772.563502000001
 20
5267.9239180000041
 30
0.0
 11
23532.563502000001
 21
5267.9239180000041
 31
0.0
  0
LINE
  5
33E6
  8
SUNPOU
  6
CONTINUOUS
 62
     4
 10
23815.063502000001
 20
5267.9239180000041
 30
0.0
 11
24055.063502000001
 21
5267.9239180000041
 31
0.0
  0
LINE
  5
33E7
  8
SUNPOU
  6
CONTINUOUS
 62
     4
 10
23772.563502000001
 20
5267.9239180000041
 30
0.0
 11
23815.063502000001
 21
5267.9239180000041
 31
0.0
  0
LINE
  5
33E8
  8
SUNPOU
  6
CONTINUOUS
 62
     4
 10
20948.563502000001
 20
6387.9239180000041
 30
0.0
 11
20948.563502000001
 21
5587.9239180000041
 31
0.0
  0
LINE
  5
33E9
  8
SUNPOU
  6
CONTINUOUS
 62
     4
 10
23678.563502000001
 20
6387.9239180000041
 30
0.0
 11
23678.563502000001
 21
5587.9239180000041
 31
0.0
  0
LINE
  5
33EA
  8
SUNPOU
  6
CONTINUOUS
 62
     4
 10
20948.563502000001
 20
5667.9239180000041
 30
0.0
 11
23678.563502000001
 21
5667.9239180000041
 31
0.0
  0
LINE
  5
33EB
  8
SUNPOU
  6
CONTINUOUS
 62
     4
 10
20854.563502000001
 20
6125.2714950000009
 30
0.0
 11
20854.563502000001
 21
5187.9239180000041
 31
0.0
  0
LINE
  5
33EC
  8
SUNPOU
  6
CONTINUOUS
 62
     4
 10
23772.563502000001
 20
6125.2714950000009
 30
0.0
 11
23772.563502000001
 21
5187.9239180000041
 31
0.0
  0
LINE
  5
33ED
  8
SUNPOU
  6
CONTINUOUS
 62
     4
 10
20854.563502000001
 20
5267.9239180000041
 30
0.0
 11
23772.563502000001
 21
5267.9239180000041
 31
0.0
  0
LINE
  5
33EE
  8
SUNPOU
  6
CONTINUOUS
 62
     4
 10
20854.563502000001
 20
6125.2714950000009
 30
0.0
 11
20854.563502000001
 21
5187.9239180000041
 31
0.0
  0
LINE
  5
33EF
  8
SUNPOU
  6
CONTINUOUS
 62
     4
 10
20812.06350199999
 20
6387.9239180000041
 30
0.0
 11
20812.06350199999
 21
5187.9239180000041
 31
0.0
  0
LINE
  5
33F0
  8
SUNPOU
  6
CONTINUOUS
 62
     4
 10
20854.563502000001
 20
5267.9239180000041
 30
0.0
 11
21094.563502000001
 21
5267.9239180000041
 31
0.0
  0
LINE
  5
33F1
  8
SUNPOU
  6
CONTINUOUS
 62
     4
 10
20812.06350199999
 20
5267.9239180000041
 30
0.0
 11
20572.06350199999
 21
5267.9239180000041
 31
0.0
  0
LINE
  5
33F2
  8
SUNPOU
  6
CONTINUOUS
 62
     4
 10
20854.563502000001
 20
5267.9239180000041
 30
0.0
 11
20812.06350199999
 21
5267.9239180000041
 31
0.0
  0
LINE
  5
33F3
  8
SUNPOU
  6
CONTINUOUS
 62
     4
 10
20812.06350199999
 20
6387.9239180000041
 30
0.0
 11
20812.06350199999
 21
4787.9240829999999
 31
0.0
  0
LINE
  5
33F4
  8
SUNPOU
  6
CONTINUOUS
 62
     4
 10
23815.063502000001
 20
6387.9239180000041
 30
0.0
 11
23815.063502000001
 21
4787.9240829999999
 31
0.0
  0
LINE
  5
33F5
  8
SUNPOU
  6
CONTINUOUS
 62
     4
 10
20812.06350199999
 20
4867.9240830000008
 30
0.0
 11
23815.063502000001
 21
4867.9240830000008
 31
0.0
  0
LINE
  5
33F6
  8
SUNPOU
  6
CONTINUOUS
 62
     4
 10
9473.5669209999905
 20
8804.9222680000057
 30
0.0
 11
9473.5669209999905
 21
10195.922293999991
 31
0.0
  0
LINE
  5
33F7
  8
SUNPOU
  6
CONTINUOUS
 62
     4
 10
15724.566920999991
 20
8936.812091412432
 30
0.0
 11
15724.566920999991
 21
10195.922293999991
 31
0.0
  0
LINE
  5
33F8
  8
SUNPOU
  6
CONTINUOUS
 62
     4
 10
9473.5669209999905
 20
10115.922293999991
 30
0.0
 11
15724.566920999991
 21
10115.922293999991
 31
0.0
  0
LINE
  5
33F9
  8
SUNPOU
  6
CONTINUOUS
 62
     4
 10
15574.568173999991
 20
8863.1530139999977
 30
0.0
 11
15574.568173999991
 21
9795.9239440000001
 31
0.0
  0
LINE
  5
33FA
  8
SUNPOU
  6
CONTINUOUS
 62
     4
 10
15724.566920999991
 20
8936.812091412432
 30
0.0
 11
15724.566920999991
 21
9795.9239440000001
 31
0.0
  0
LINE
  5
33FB
  8
SUNPOU
  6
CONTINUOUS
 62
     4
 10
15574.568173999991
 20
9715.9239440000001
 30
0.0
 11
15334.568173999991
 21
9715.9239440000001
 31
0.0
  0
LINE
  5
33FC
  8
SUNPOU
  6
CONTINUOUS
 62
     4
 10
15724.566920999991
 20
9715.9239440000001
 30
0.0
 11
15964.566920999991
 21
9715.9239440000001
 31
0.0
  0
LINE
  5
33FD
  8
SUNPOU
  6
CONTINUOUS
 62
     4
 10
15574.568173999991
 20
9715.9239440000001
 30
0.0
 11
15724.566920999991
 21
9715.9239440000001
 31
0.0
  0
LINE
  5
33FE
  8
SUNPOU
  6
CONTINUOUS
 62
     4
 10
9653.565666999988
 20
8681.0046419999962
 30
0.0
 11
9653.565666999988
 21
9795.9239440000001
 31
0.0
  0
LINE
  5
33FF
  8
SUNPOU
  6
CONTINUOUS
 62
     4
 10
15574.568173999991
 20
8863.1530139999977
 30
0.0
 11
15574.568173999991
 21
9795.9239440000001
 31
0.0
  0
LINE
  5
3400
  8
SUNPOU
  6
CONTINUOUS
 62
     4
 10
9653.565666999988
 20
9715.9239440000001
 30
0.0
 11
15574.568173999991
 21
9715.9239440000001
 31
0.0
  0
LINE
  5
3401
  8
SUNPOU
  6
CONTINUOUS
 62
     4
 10
9473.5669209999905
 20
8804.9222680000057
 30
0.0
 11
9473.5669209999905
 21
9795.9239440000001
 31
0.0
  0
LINE
  5
3402
  8
SUNPOU
  6
CONTINUOUS
 62
     4
 10
9653.565666999988
 20
8681.0046419999962
 30
0.0
 11
9653.565666999988
 21
9795.9239440000001
 31
0.0
  0
LINE
  5
3403
  8
SUNPOU
  6
CONTINUOUS
 62
     4
 10
9473.5669209999905
 20
9715.9239439999983
 30
0.0
 11
9233.5669209999905
 21
9715.9239439999983
 31
0.0
  0
LINE
  5
3404
  8
SUNPOU
  6
CONTINUOUS
 62
     4
 10
9653.565666999988
 20
9715.9239439999983
 30
0.0
 11
9893.5656669999898
 21
9715.9239439999983
 31
0.0
  0
LINE
  5
3405
  8
SUNPOU
  6
CONTINUOUS
 62
     4
 10
9473.5669209999905
 20
9715.9239439999983
 30
0.0
 11
9653.565666999988
 21
9715.9239439999983
 31
0.0
  0
LINE
  5
3406
  8
SUNPOU
  6
CONTINUOUS
 62
     4
 10
9566.0669209999924
 20
6567.9232579999998
 30
0.0
 11
8483.5685029999859
 21
6567.9232579999989
 31
0.0
  0
LINE
  5
3407
  8
SUNPOU
  6
CONTINUOUS
 62
     4
 10
9393.5688989999835
 20
8724.4232579999989
 30
0.0
 11
8483.5685029999859
 21
8724.4232579999989
 31
0.0
  0
LINE
  5
3408
  8
SUNPOU
  6
CONTINUOUS
 62
     4
 10
8563.5685029999859
 20
6567.9232579999989
 30
0.0
 11
8563.5685029999859
 21
8724.4232579999989
 31
0.0
  0
LINE
  5
3409
  8
SUNPOU
  6
CONTINUOUS
 62
     4
 10
15667.066920999991
 20
6567.9232579999998
 30
0.0
 11
16744.56632599996
 21
6567.9232579999989
 31
0.0
  0
LINE
  5
340A
  8
SUNPOU
  6
CONTINUOUS
 62
     4
 10
15759.373189599361
 20
8916.4232580000007
 30
0.0
 11
16744.56632599996
 21
8916.4232580000007
 31
0.0
  0
LINE
  5
340B
  8
SUNPOU
  6
CONTINUOUS
 62
     4
 10
16664.56632599996
 20
6567.9232579999989
 30
0.0
 11
16664.56632599996
 21
8916.4232580000007
 31
0.0
  0
LINE
  5
340C
  8
SUNPOU
  6
CONTINUOUS
 62
     4
 10
9653.5669209999924
 20
6487.9227630000032
 30
0.0
 11
9653.5669209999924
 21
4787.9230930000012
 31
0.0
  0
LINE
  5
340D
  8
SUNPOU
  6
CONTINUOUS
 62
     4
 10
15574.566920999991
 20
6487.9227630000032
 30
0.0
 11
15574.566920999991
 21
4787.9230930000012
 31
0.0
  0
LINE
  5
340E
  8
SUNPOU
  6
CONTINUOUS
 62
     4
 10
9653.5669209999924
 20
4867.9230930000012
 30
0.0
 11
15574.566920999991
 21
4867.9230930000012
 31
0.0
  0
LINE
  5
340F
  8
SUNPOU
  6
CONTINUOUS
 62
     4
 10
15532.066920999991
 20
6125.2705049999986
 30
0.0
 11
15532.066920999991
 21
5187.922928
 31
0.0
  0
LINE
  5
3410
  8
SUNPOU
  6
CONTINUOUS
 62
     4
 10
15574.566920999991
 20
6487.9227630000032
 30
0.0
 11
15574.566920999991
 21
5187.922928
 31
0.0
  0
LINE
  5
3411
  8
SUNPOU
  6
CONTINUOUS
 62
     4
 10
15532.066920999991
 20
5267.922928
 30
0.0
 11
15292.066920999991
 21
5267.922928
 31
0.0
  0
LINE
  5
3412
  8
SUNPOU
  6
CONTINUOUS
 62
     4
 10
15574.566920999991
 20
5267.922928
 30
0.0
 11
15814.566920999991
 21
5267.922928
 31
0.0
  0
LINE
  5
3413
  8
SUNPOU
  6
CONTINUOUS
 62
     4
 10
15532.066920999991
 20
5267.922928
 30
0.0
 11
15574.566920999991
 21
5267.922928
 31
0.0
  0
LINE
  5
3414
  8
SUNPOU
  6
CONTINUOUS
 62
     4
 10
9696.0669209999924
 20
6125.2705049999986
 30
0.0
 11
9696.0669209999924
 21
5187.922928
 31
0.0
  0
LINE
  5
3415
  8
SUNPOU
  6
CONTINUOUS
 62
     4
 10
9653.5669209999924
 20
6487.9227630000032
 30
0.0
 11
9653.5669209999924
 21
5187.922928
 31
0.0
  0
LINE
  5
3416
  8
SUNPOU
  6
CONTINUOUS
 62
     4
 10
9696.0669209999924
 20
5267.922928
 30
0.0
 11
9936.0669209999924
 21
5267.922928
 31
0.0
  0
LINE
  5
3417
  8
SUNPOU
  6
CONTINUOUS
 62
     4
 10
9653.5669209999924
 20
5267.922928
 30
0.0
 11
9413.5669209999905
 21
5267.922928
 31
0.0
  0
LINE
  5
3418
  8
SUNPOU
  6
CONTINUOUS
 62
     4
 10
9696.0669209999924
 20
5267.922928
 30
0.0
 11
9653.5669209999924
 21
5267.922928
 31
0.0
  0
LINE
  5
3419
  8
SUNPOU
  6
CONTINUOUS
 62
     4
 10
12614.066920999991
 20
6125.2705049999986
 30
0.0
 11
12614.066920999991
 21
5187.922928
 31
0.0
  0
LINE
  5
341A
  8
SUNPOU
  6
CONTINUOUS
 62
     4
 10
9696.0669209999924
 20
6125.2705049999986
 30
0.0
 11
9696.0669209999924
 21
5187.922928
 31
0.0
  0
LINE
  5
341B
  8
SUNPOU
  6
CONTINUOUS
 62
     4
 10
12614.066920999991
 20
5267.922928
 30
0.0
 11
9696.0669209999924
 21
5267.922928
 31
0.0
  0
LINE
  5
341C
  8
SUNPOU
  6
CONTINUOUS
 62
     4
 10
12614.066920999991
 20
6125.2705049999986
 30
0.0
 11
12614.066920999991
 21
5187.922928
 31
0.0
  0
LINE
  5
341D
  8
SUNPOU
  6
CONTINUOUS
 62
     4
 10
15532.066920999991
 20
6125.2705049999986
 30
0.0
 11
15532.066920999991
 21
5187.922928
 31
0.0
  0
LINE
  5
341E
  8
SUNPOU
  6
CONTINUOUS
 62
     4
 10
12614.066920999991
 20
5267.922928
 30
0.0
 11
15532.066920999991
 21
5267.922928
 31
0.0
  0
LINE
  5
341F
  8
SUNPOU
  6
CONTINUOUS
 62
     4
 10
20854.563502000001
 20
13126.722818
 30
0.0
 11
20854.563502000001
 21
12781.038167999999
 31
0.0
  0
LINE
  5
3420
  8
SUNPOU
  6
CONTINUOUS
 62
     4
 10
20812.061258999998
 20
13709.988957
 30
0.0
 11
20812.061258999998
 21
12781.038167999999
 31
0.0
  0
LINE
  5
3421
  8
SUNPOU
  6
CONTINUOUS
 62
     4
 10
20854.563502000001
 20
12861.038167999999
 30
0.0
 11
21094.563502000001
 21
12861.038167999999
 31
0.0
  0
LINE
  5
3422
  8
SUNPOU
  6
CONTINUOUS
 62
     4
 10
20812.061258999998
 20
12861.038167999999
 30
0.0
 11
20572.061258999998
 21
12861.038167999999
 31
0.0
  0
LINE
  5
3423
  8
SUNPOU
  6
CONTINUOUS
 62
     4
 10
20854.563502000001
 20
12861.038167999999
 30
0.0
 11
20812.061258999998
 21
12861.038167999999
 31
0.0
  0
LINE
  5
3424
  8
SUNPOU
  6
CONTINUOUS
 62
     4
 10
23772.563502000001
 20
13126.722818
 30
0.0
 11
23772.563502000001
 21
12781.038167999999
 31
0.0
  0
LINE
  5
3425
  8
SUNPOU
  6
CONTINUOUS
 62
     4
 10
23815.065744999989
 20
13709.988957
 30
0.0
 11
23815.065744999989
 21
12781.038167999999
 31
0.0
  0
LINE
  5
3426
  8
SUNPOU
  6
CONTINUOUS
 62
     4
 10
23772.563502000001
 20
12861.038167999999
 30
0.0
 11
23532.563502000001
 21
12861.038167999999
 31
0.0
  0
LINE
  5
3427
  8
SUNPOU
  6
CONTINUOUS
 62
     4
 10
23815.065744999989
 20
12861.038167999999
 30
0.0
 11
24055.065744999989
 21
12861.038167999999
 31
0.0
  0
LINE
  5
3428
  8
SUNPOU
  6
CONTINUOUS
 62
     4
 10
23772.563502000001
 20
12861.038167999999
 30
0.0
 11
23815.065744999989
 21
12861.038167999999
 31
0.0
  0
LINE
  5
3429
  8
SUNPOU
  6
CONTINUOUS
 62
     4
 10
23772.563502000001
 20
13126.722818
 30
0.0
 11
23772.563502000001
 21
12781.038167999999
 31
0.0
  0
LINE
  5
342A
  8
SUNPOU
  6
CONTINUOUS
 62
     4
 10
23730.061258999991
 20
13709.988957
 30
0.0
 11
23730.061258999991
 21
12781.038167999999
 31
0.0
  0
LINE
  5
342B
  8
SUNPOU
  6
CONTINUOUS
 62
     4
 10
23772.563502000001
 20
12861.038167999999
 30
0.0
 11
24012.563502000001
 21
12861.038167999999
 31
0.0
  0
LINE
  5
342C
  8
SUNPOU
  6
CONTINUOUS
 62
     4
 10
23730.061258999991
 20
12861.038167999999
 30
0.0
 11
23490.061258999991
 21
12861.038167999999
 31
0.0
  0
LINE
  5
342D
  8
SUNPOU
  6
CONTINUOUS
 62
     4
 10
23772.563502000001
 20
12861.038167999999
 30
0.0
 11
23730.061258999991
 21
12861.038167999999
 31
0.0
  0
LINE
  5
342E
  8
SUNPOU
  6
CONTINUOUS
 62
     4
 10
20854.563502000001
 20
13126.722818
 30
0.0
 11
20854.563502000001
 21
12781.038167999999
 31
0.0
  0
LINE
  5
342F
  8
SUNPOU
  6
CONTINUOUS
 62
     4
 10
20897.065744999989
 20
13709.988957
 30
0.0
 11
20897.065744999989
 21
12781.038167999999
 31
0.0
  0
LINE
  5
3430
  8
SUNPOU
  6
CONTINUOUS
 62
     4
 10
20854.563502000001
 20
12861.038167999999
 30
0.0
 11
20614.563502000001
 21
12861.038167999999
 31
0.0
  0
LINE
  5
3431
  8
SUNPOU
  6
CONTINUOUS
 62
     4
 10
20897.065744999989
 20
12861.038167999999
 30
0.0
 11
21137.065744999989
 21
12861.038167999999
 31
0.0
  0
LINE
  5
3432
  8
SUNPOU
  6
CONTINUOUS
 62
     4
 10
20854.563502000001
 20
12861.038167999999
 30
0.0
 11
20897.065744999989
 21
12861.038167999999
 31
0.0
  0
LINE
  5
3433
  8
SUNPOU
  6
CONTINUOUS
 62
     4
 10
20812.061258999998
 20
13709.988957
 30
0.0
 11
20812.061258999998
 21
12381.038167999999
 31
0.0
  0
LINE
  5
3434
  8
SUNPOU
  6
CONTINUOUS
 62
     4
 10
23815.065744999989
 20
13709.988957
 30
0.0
 11
23815.065744999989
 21
12381.038167999999
 31
0.0
  0
LINE
  5
3435
  8
SUNPOU
  6
CONTINUOUS
 62
     4
 10
20812.061258999998
 20
12461.038167999999
 30
0.0
 11
23815.065744999989
 21
12461.038167999999
 31
0.0
  0
LINE
  5
3436
  8
SUNPOU
  6
CONTINUOUS
 62
     4
 10
23895.061785999991
 20
14590.486252000001
 30
0.0
 11
24945.063105999991
 21
14590.486252000001
 31
0.0
  0
LINE
  5
3437
  8
SUNPOU
  6
CONTINUOUS
 62
     4
 10
24745.063105999991
 20
13832.486252000001
 30
0.0
 11
24945.063105999991
 21
13832.486252000001
 31
0.0
  0
LINE
  5
3438
  8
SUNPOU
  6
CONTINUOUS
 62
     4
 10
24865.063105999991
 20
14590.486252000001
 30
0.0
 11
24865.063105999991
 21
13832.486252000001
 31
0.0
  0
LINE
  5
3439
  8
SUNPOU
  6
CONTINUOUS
 62
     4
 10
23895.061785999991
 20
15291.72676350001
 30
0.0
 11
24945.063105999991
 21
15291.72676350001
 31
0.0
  0
LINE
  5
343A
  8
SUNPOU
  6
CONTINUOUS
 62
     4
 10
23895.061785999991
 20
14590.486252000001
 30
0.0
 11
24945.063105999991
 21
14590.486252000001
 31
0.0
  0
LINE
  5
343B
  8
SUNPOU
  6
CONTINUOUS
 62
     4
 10
24865.063105999991
 20
15291.72676350001
 30
0.0
 11
24865.063105999991
 21
14590.486252000001
 31
0.0
  0
LINE
  5
343C
  8
SUNPOU
  6
CONTINUOUS
 62
     4
 10
23895.061785999991
 20
15992.486252000001
 30
0.0
 11
24945.063105999991
 21
15992.486252000001
 31
0.0
  0
LINE
  5
343D
  8
SUNPOU
  6
CONTINUOUS
 62
     4
 10
23895.061785999991
 20
15291.72676350001
 30
0.0
 11
24945.063105999991
 21
15291.72676350001
 31
0.0
  0
LINE
  5
343E
  8
SUNPOU
  6
CONTINUOUS
 62
     4
 10
24865.063105999991
 20
15992.486252000001
 30
0.0
 11
24865.063105999991
 21
15291.72676350001
 31
0.0
  0
LINE
  5
343F
  8
SUNPOU
  6
CONTINUOUS
 62
     4
 10
24745.063105999991
 20
16750.486251999992
 30
0.0
 11
24945.063105999991
 21
16750.486251999992
 31
0.0
  0
LINE
  5
3440
  8
SUNPOU
  6
CONTINUOUS
 62
     4
 10
23895.061785999991
 20
15992.486252000001
 30
0.0
 11
24945.063105999991
 21
15992.486252000001
 31
0.0
  0
LINE
  5
3441
  8
SUNPOU
  6
CONTINUOUS
 62
     4
 10
24865.063105999991
 20
16750.486251999992
 30
0.0
 11
24865.063105999991
 21
15992.486252000001
 31
0.0
  0
LINE
  5
3442
  8
SUNPOU
  6
CONTINUOUS
 62
     4
 10
23895.061785999991
 20
17508.486251999992
 30
0.0
 11
24945.063105999991
 21
17508.486251999992
 31
0.0
  0
LINE
  5
3443
  8
SUNPOU
  6
CONTINUOUS
 62
     4
 10
24745.063105999991
 20
16750.486251999992
 30
0.0
 11
24945.063105999991
 21
16750.486251999992
 31
0.0
  0
LINE
  5
3444
  8
SUNPOU
  6
CONTINUOUS
 62
     4
 10
24865.063105999991
 20
17508.486251999992
 30
0.0
 11
24865.063105999991
 21
16750.486251999992
 31
0.0
  0
LINE
  5
3445
  8
SUNPOU
  6
CONTINUOUS
 62
     4
 10
23895.061785999991
 20
18209.486251999992
 30
0.0
 11
24945.063105999991
 21
18209.486251999992
 31
0.0
  0
LINE
  5
3446
  8
SUNPOU
  6
CONTINUOUS
 62
     4
 10
23895.061785999991
 20
17508.486251999992
 30
0.0
 11
24945.063105999991
 21
17508.486251999992
 31
0.0
  0
LINE
  5
3447
  8
SUNPOU
  6
CONTINUOUS
 62
     4
 10
24865.063105999991
 20
18209.486251999992
 30
0.0
 11
24865.063105999991
 21
17508.486251999992
 31
0.0
  0
LINE
  5
3448
  8
SUNPOU
  6
CONTINUOUS
 62
     4
 10
23895.061785999991
 20
18910.486251999999
 30
0.0
 11
24945.063105999991
 21
18910.486251999992
 31
0.0
  0
LINE
  5
3449
  8
SUNPOU
  6
CONTINUOUS
 62
     4
 10
23895.061785999991
 20
18209.486251999992
 30
0.0
 11
24945.063105999991
 21
18209.486251999992
 31
0.0
  0
LINE
  5
344A
  8
SUNPOU
  6
CONTINUOUS
 62
     4
 10
24865.063105999991
 20
18910.486251999992
 30
0.0
 11
24865.063105999991
 21
18209.486251999992
 31
0.0
  0
LINE
  5
344B
  8
SUNPOU
  6
CONTINUOUS
 62
     4
 10
24745.063105999991
 20
19668.486251999992
 30
0.0
 11
24945.063105999991
 21
19668.486251999992
 31
0.0
  0
LINE
  5
344C
  8
SUNPOU
  6
CONTINUOUS
 62
     4
 10
23895.061785999991
 20
18910.486251999999
 30
0.0
 11
24945.063105999991
 21
18910.486251999992
 31
0.0
  0
LINE
  5
344D
  8
SUNPOU
  6
CONTINUOUS
 62
     4
 10
24865.063105999991
 20
19668.486251999992
 30
0.0
 11
24865.063105999991
 21
18910.486251999992
 31
0.0
  0
LINE
  5
344E
  8
SUNPOU
  6
CONTINUOUS
 62
     4
 10
24745.063105999991
 20
16750.486251999992
 30
0.0
 11
25345.06310599998
 21
16750.486251999992
 31
0.0
  0
LINE
  5
344F
  8
SUNPOU
  6
CONTINUOUS
 62
     4
 10
24745.063105999991
 20
19668.486251999992
 30
0.0
 11
25345.06310599998
 21
19668.486251999992
 31
0.0
  0
LINE
  5
3450
  8
SUNPOU
  6
CONTINUOUS
 62
     4
 10
25265.06310599998
 20
16750.486251999992
 30
0.0
 11
25265.06310599998
 21
19668.486251999992
 31
0.0
  0
LINE
  5
3451
  8
SUNPOU
  6
CONTINUOUS
 62
     4
 10
24745.063105999991
 20
13832.486252000001
 30
0.0
 11
25345.06310599998
 21
13832.486252000001
 31
0.0
  0
LINE
  5
3452
  8
SUNPOU
  6
CONTINUOUS
 62
     4
 10
24745.063105999991
 20
16750.486251999992
 30
0.0
 11
25345.06310599998
 21
16750.486251999992
 31
0.0
  0
LINE
  5
3453
  8
SUNPOU
  6
CONTINUOUS
 62
     4
 10
25265.06310599998
 20
13832.486252000001
 30
0.0
 11
25265.06310599998
 21
16750.486251999992
 31
0.0
  0
LINE
  5
3454
  8
SUNPOU
  6
CONTINUOUS
 62
     4
 10
23895.061785999991
 20
19710.983547
 30
0.0
 11
25745.063105999991
 21
19710.983546999982
 31
0.0
  0
LINE
  5
3455
  8
SUNPOU
  6
CONTINUOUS
 62
     4
 10
23895.061785999991
 20
13789.988957
 30
0.0
 11
25745.063105999991
 21
13789.988957
 31
0.0
  0
LINE
  5
3456
  8
SUNPOU
  6
CONTINUOUS
 62
     4
 10
25665.063105999991
 20
19710.983546999982
 30
0.0
 11
25665.063105999991
 21
13789.988957
 31
0.0
  0
LINE
  5
3457
  8
SUNPOU
  6
CONTINUOUS
 62
     4
 10
24745.063105999991
 20
19668.486251999992
 30
0.0
 11
25345.06310599998
 21
19668.486251999992
 31
0.0
  0
LINE
  5
3458
  8
SUNPOU
  6
CONTINUOUS
 62
     4
 10
23895.061785999991
 20
19710.983547
 30
0.0
 11
25345.06310599998
 21
19710.983546999982
 31
0.0
  0
LINE
  5
3459
  8
SUNPOU
  6
CONTINUOUS
 62
     4
 10
25265.06310599998
 20
19668.486251999992
 30
0.0
 11
25265.06310599998
 21
19428.486251999992
 31
0.0
  0
LINE
  5
345A
  8
SUNPOU
  6
CONTINUOUS
 62
     4
 10
25265.06310599998
 20
19710.983546999982
 30
0.0
 11
25265.06310599998
 21
19950.983546999982
 31
0.0
  0
LINE
  5
345B
  8
SUNPOU
  6
CONTINUOUS
 62
     4
 10
25265.06310599998
 20
19668.486251999992
 30
0.0
 11
25265.06310599998
 21
19710.983546999982
 31
0.0
  0
LINE
  5
345C
  8
SUNPOU
  6
CONTINUOUS
 62
     4
 10
24745.063105999991
 20
13832.486252000001
 30
0.0
 11
25345.06310599998
 21
13832.486252000001
 31
0.0
  0
LINE
  5
345D
  8
SUNPOU
  6
CONTINUOUS
 62
     4
 10
23895.061785999991
 20
13789.988957
 30
0.0
 11
25345.06310599998
 21
13789.988957
 31
0.0
  0
LINE
  5
345E
  8
SUNPOU
  6
CONTINUOUS
 62
     4
 10
25265.06310599998
 20
13832.486252000001
 30
0.0
 11
25265.06310599998
 21
14072.486252000001
 31
0.0
  0
LINE
  5
345F
  8
SUNPOU
  6
CONTINUOUS
 62
     4
 10
25265.06310599998
 20
13789.988957
 30
0.0
 11
25265.06310599998
 21
13549.988957
 31
0.0
  0
LINE
  5
3460
  8
SUNPOU
  6
CONTINUOUS
 62
     4
 10
25265.06310599998
 20
13832.486252000001
 30
0.0
 11
25265.06310599998
 21
13789.988957
 31
0.0
  0
LINE
  5
3461
  8
SUNPOU
  6
CONTINUOUS
 62
     4
 10
23014.563502000001
 20
19790.984537000018
 30
0.0
 11
23014.563502000001
 21
20520.987440000012
 31
0.0
  0
LINE
  5
3462
  8
SUNPOU
  6
CONTINUOUS
 62
     4
 10
23772.564491500001
 20
19790.984537000018
 30
0.0
 11
23772.564491500001
 21
20520.987440000012
 31
0.0
  0
LINE
  5
3463
  8
SUNPOU
  6
CONTINUOUS
 62
     4
 10
23014.563502000001
 20
20440.987440000012
 30
0.0
 11
23772.564491500001
 21
20440.987440000012
 31
0.0
  0
LINE
  5
3464
  8
SUNPOU
  6
CONTINUOUS
 62
     4
 10
22313.563502000001
 20
19790.984537000018
 30
0.0
 11
22313.563502000001
 21
20520.987440000012
 31
0.0
  0
LINE
  5
3465
  8
SUNPOU
  6
CONTINUOUS
 62
     4
 10
23014.563502000001
 20
19790.984537000018
 30
0.0
 11
23014.563502000001
 21
20520.987440000012
 31
0.0
  0
LINE
  5
3466
  8
SUNPOU
  6
CONTINUOUS
 62
     4
 10
22313.563502000001
 20
20440.987440000012
 30
0.0
 11
23014.563502000001
 21
20440.987440000012
 31
0.0
  0
LINE
  5
3467
  8
SUNPOU
  6
CONTINUOUS
 62
     4
 10
21612.563502000001
 20
19790.984537000018
 30
0.0
 11
21612.563502000001
 21
20520.987440000012
 31
0.0
  0
LINE
  5
3468
  8
SUNPOU
  6
CONTINUOUS
 62
     4
 10
22313.563502000001
 20
19790.984537000018
 30
0.0
 11
22313.563502000001
 21
20520.987440000012
 31
0.0
  0
LINE
  5
3469
  8
SUNPOU
  6
CONTINUOUS
 62
     4
 10
21612.563502000001
 20
20440.987440000012
 30
0.0
 11
22313.563502000001
 21
20440.987440000012
 31
0.0
  0
LINE
  5
346A
  8
SUNPOU
  6
CONTINUOUS
 62
     4
 10
23772.563502000001
 20
19790.984537000018
 30
0.0
 11
23772.563502000001
 21
20520.987440000012
 31
0.0
  0
LINE
  5
346B
  8
SUNPOU
  6
CONTINUOUS
 62
     4
 10
23815.059806999991
 20
19790.984537000018
 30
0.0
 11
23815.059806999991
 21
20520.987440000012
 31
0.0
  0
LINE
  5
346C
  8
SUNPOU
  6
CONTINUOUS
 62
     4
 10
23772.563502000001
 20
20440.987440000012
 30
0.0
 11
23532.563502000001
 21
20440.987440000012
 31
0.0
  0
LINE
  5
346D
  8
SUNPOU
  6
CONTINUOUS
 62
     4
 10
23815.059806999991
 20
20440.987440000012
 30
0.0
 11
24055.059806999991
 21
20440.987440000012
 31
0.0
  0
LINE
  5
346E
  8
SUNPOU
  6
CONTINUOUS
 62
     4
 10
23772.563502000001
 20
20440.987440000012
 30
0.0
 11
23815.059806999991
 21
20440.987440000012
 31
0.0
  0
LINE
  5
346F
  8
SUNPOU
  6
CONTINUOUS
 62
     4
 10
20854.563502000001
 20
19790.984537000018
 30
0.0
 11
20854.563502000001
 21
20520.987440000012
 31
0.0
  0
LINE
  5
3470
  8
SUNPOU
  6
CONTINUOUS
 62
     4
 10
20812.067196999989
 20
19790.984537000018
 30
0.0
 11
20812.067196999989
 21
20520.987440000012
 31
0.0
  0
LINE
  5
3471
  8
SUNPOU
  6
CONTINUOUS
 62
     4
 10
20854.563502000001
 20
20440.987440000012
 30
0.0
 11
21094.563502000001
 21
20440.987440000012
 31
0.0
  0
LINE
  5
3472
  8
SUNPOU
  6
CONTINUOUS
 62
     4
 10
20812.067196999989
 20
20440.987440000012
 30
0.0
 11
20572.067196999989
 21
20440.987440000012
 31
0.0
  0
LINE
  5
3473
  8
SUNPOU
  6
CONTINUOUS
 62
     4
 10
20854.563502000001
 20
20440.987440000012
 30
0.0
 11
20812.067196999989
 21
20440.987440000012
 31
0.0
  0
TEXT
  5
3474
  8
0
  6
CONTINUOUS
 62
     7
 10
20251.751522471179
 20
20520.987440000012
 30
0.0
 40
160.0
  1
42.5
  0
TEXT
  5
3475
  8
0
  6
CONTINUOUS
 62
     7
 10
23895.37548152879
 20
20520.987440000012
 30
0.0
 40
160.0
  1
42.5
  0
TEXT
  5
3476
  8
0
  6
CONTINUOUS
 62
     7
 10
21789.730168666661
 20
20520.987440000012
 30
0.0
 40
160.0
  1
701
  0
TEXT
  5
3477
  8
0
  6
CONTINUOUS
 62
     7
 10
22490.730168666661
 20
20520.987440000012
 30
0.0
 40
160.0
  1
701
  0
TEXT
  5
3478
  8
0
  6
CONTINUOUS
 62
     7
 10
23180.23066341666
 20
20520.987440000012
 30
0.0
 40
160.0
  1
758
  0
TEXT
  5
3479
  8
0
  6
CONTINUOUS
 62
     7
 10
25185.06310599998
 20
13216.43272060321
 30
0.0
 40
160.0
  1
42.5
 50
90.0
  0
TEXT
  5
347A
  8
0
  6
CONTINUOUS
 62
     7
 10
25185.06310599998
 20
19804.539783396791
 30
0.0
 40
160.0
  1
42.5
 50
90.0
  0
TEXT
  5
347B
  8
0
  6
CONTINUOUS
 62
     7
 10
25585.063105999991
 20
16483.819585333331
 30
0.0
 40
160.0
  1
5921
 50
90.0
  0
TEXT
  5
347C
  8
0
  6
CONTINUOUS
 62
     7
 10
25185.06310599998
 20
15024.819585333331
 30
0.0
 40
160.0
  1
2918
 50
90.0
  0
TEXT
  5
347D
  8
0
  6
CONTINUOUS
 62
     7
 10
25185.06310599998
 20
17942.819585333331
 30
0.0
 40
160.0
  1
2918
 50
90.0
  0
TEXT
  5
347E
  8
0
  6
CONTINUOUS
 62
     7
 10
24785.063105999991
 20
19076.15291866667
 30
0.0
 40
160.0
  1
758
 50
90.0
  0
TEXT
  5
347F
  8
0
  6
CONTINUOUS
 62
     7
 10
24785.063105999991
 20
18386.652918666659
 30
0.0
 40
160.0
  1
701
 50
90.0
  0
TEXT
  5
3480
  8
0
  6
CONTINUOUS
 62
     7
 10
24785.063105999991
 20
17685.65291866667
 30
0.0
 40
160.0
  1
701
 50
90.0
  0
TEXT
  5
3481
  8
0
  6
CONTINUOUS
 62
     7
 10
24785.063105999991
 20
16916.15291866667
 30
0.0
 40
160.0
  1
758
 50
90.0
  0
TEXT
  5
3482
  8
0
  6
CONTINUOUS
 62
     7
 10
24785.063105999991
 20
16158.15291866667
 30
0.0
 40
160.0
  1
758
 50
90.0
  0
TEXT
  5
3483
  8
0
  6
CONTINUOUS
 62
     7
 10
24785.063105999991
 20
15468.773174416679
 30
0.0
 40
160.0
  1
701
 50
90.0
  0
TEXT
  5
3484
  8
0
  6
CONTINUOUS
 62
     7
 10
24785.063105999991
 20
14767.773174416679
 30
0.0
 40
160.0
  1
701
 50
90.0
  0
TEXT
  5
3485
  8
0
  6
CONTINUOUS
 62
     7
 10
24785.063105999991
 20
13998.15291866667
 30
0.0
 40
160.0
  1
758
 50
90.0
  0
TEXT
  5
3486
  8
0
  6
CONTINUOUS
 62
     7
 10
22046.896835333329
 20
12541.038167999999
 30
0.0
 40
160.0
  1
3003
  0
TEXT
  5
3487
  8
0
  6
CONTINUOUS
 62
     7
 10
20972.617174382081
 20
12941.038167999999
 30
0.0
 40
160.0
  1
42.5
  0
TEXT
  5
3488
  8
0
  6
CONTINUOUS
 62
     7
 10
23174.509829617891
 20
12941.038167999999
 30
0.0
 40
160.0
  1
42.5
  0
TEXT
  5
3489
  8
0
  6
CONTINUOUS
 62
     7
 10
23890.617174382081
 20
12941.038167999999
 30
0.0
 40
160.0
  1
42.5
  0
TEXT
  5
348A
  8
0
  6
CONTINUOUS
 62
     7
 10
20256.509829617891
 20
12941.038167999999
 30
0.0
 40
160.0
  1
42.5
  0
TEXT
  5
348B
  8
0
  6
CONTINUOUS
 62
     7
 10
13806.400254333321
 20
5347.922928
 30
0.0
 40
160.0
  1
2918
  0
TEXT
  5
348C
  8
0
  6
CONTINUOUS
 62
     7
 10
10888.400254333321
 20
5347.922928
 30
0.0
 40
160.0
  1
2918
  0
TEXT
  5
348D
  8
0
  6
CONTINUOUS
 62
     7
 10
9056.3932119036836
 20
5347.922928
 30
0.0
 40
160.0
  1
42.5
  0
TEXT
  5
348E
  8
0
  6
CONTINUOUS
 62
     7
 10
15712.88555830981
 20
5347.922928
 30
0.0
 40
160.0
  1
42.5
  0
TEXT
  5
348F
  8
0
  6
CONTINUOUS
 62
     7
 10
12347.400254333321
 20
4947.9230930000012
 30
0.0
 40
160.0
  1
5921
  0
TEXT
  5
3490
  8
0
  6
CONTINUOUS
 62
     7
 10
16584.56632599996
 20
6723.5065913333337
 30
0.0
 40
160.0
  1
2348.5（2588.5）
 50
90.0
  0
TEXT
  5
3491
  8
0
  6
CONTINUOUS
 62
     7
 10
8483.5685029999859
 20
6654.1732579999998
 30
0.0
 40
160.0
  1
2156.5（2396.5）
 50
90.0
  0
TEXT
  5
3492
  8
0
  6
CONTINUOUS
 62
     7
 10
9060.2335876666566
 20
9795.9239440000001
 30
0.0
 40
160.0
  1
180
  0
TEXT
  5
3493
  8
0
  6
CONTINUOUS
 62
     7
 10
12347.400253833321
 20
9795.9239440000001
 30
0.0
 40
160.0
  1
5921
  0
TEXT
  5
3494
  8
0
  6
CONTINUOUS
 62
     7
 10
15791.23358766666
 20
9795.9239440000001
 30
0.0
 40
160.0
  1
150
  0
TEXT
  5
3495
  8
0
  6
CONTINUOUS
 62
     7
 10
12332.400254333321
 20
10195.922293999991
 30
0.0
 40
160.0
  1
6251
  0
TEXT
  5
3496
  8
0
  6
CONTINUOUS
 62
     7
 10
22046.896835333329
 20
4947.9240830000008
 30
0.0
 40
160.0
  1
3003
  0
TEXT
  5
3497
  8
0
  6
CONTINUOUS
 62
     7
 10
20246.024511741161
 20
5347.9239180000041
 30
0.0
 40
160.0
  1
42.5
  0
TEXT
  5
3498
  8
0
  6
CONTINUOUS
 62
     7
 10
22046.896835333329
 20
5347.9239180000041
 30
0.0
 40
160.0
  1
2918
  0
TEXT
  5
3499
  8
0
  6
CONTINUOUS
 62
     7
 10
21505.563502000001
 20
5747.923918000005
 30
0.0
 40
160.0
  1
有効開口巾 2730
  0
TEXT
  5
349A
  8
0
  6
CONTINUOUS
 62
     7
 10
23901.10249225884
 20
5347.9239180000041
 30
0.0
 40
160.0
  1
42.5
  0
TEXT
  5
349F
  8
0
  6
CONTINUOUS
 62
     7
 10
19524.559872999991
 20
6723.5070993333338
 30
0.0
 40
160.0
  1
2348.5（2588.5）
 50
90.0
  0
TEXT
  5
34A0
  8
0
  6
CONTINUOUS
 62
     7
 10
19924.562181999991
 20
6631.9029912912747
 30
0.0
 40
160.0
  1
有効開口高サ 1891.5
 50
90.0
  0
TEXT
  5
34A1
  8
0
  6
CONTINUOUS
 62
     7
 10
21020.230168666669
 20
20520.987440000012
 30
0.0
 40
160.0
  1
758
  0
TEXT
  5
34A2
  8
0
  6
CONTINUOUS
 62
     7
 10
12676.934222333341
 20
20520.989419000009
 30
0.0
 40
160.0
  1
2918
  0
TEXT
  5
34A3
  8
0
  6
CONTINUOUS
 62
     7
 10
14539.100564023271
 20
20520.989419000009
 30
0.0
 40
160.0
  1
85.5
  0
TEXT
  5
34A4
  8
0
  6
CONTINUOUS
 62
     7
 10
10868.10121397673
 20
20520.989419000009
 30
0.0
 40
160.0
  1
85.5
  0
TEXT
  5
34A5
  8
0
  6
CONTINUOUS
 62
     7
 10
10475.09962899998
 20
17942.819585333331
 30
0.0
 40
160.0
  1
2918
 50
90.0
  0
TEXT
  5
34A6
  8
0
  6
CONTINUOUS
 62
     7
 10
10475.099628999969
 20
19979.941436807669
 30
0.0
 40
160.0
  1
222.5
 50
90.0
  0
TEXT
  5
34A7
  8
0
  6
CONTINUOUS
 62
     7
 10
10875.09962899998
 20
20037.648827666679
 30
0.0
 40
160.0
  1
10
 50
90.0
  0
TEXT
  5
34A8
  8
0
  6
CONTINUOUS
 62
     7
 10
10475.09962899998
 20
15024.819585333331
 30
0.0
 40
160.0
  1
2918
 50
90.0
  0
TEXT
  5
34A9
  8
0
  6
CONTINUOUS
 62
     7
 10
10475.09962899998
 20
13024.53324170262
 30
0.0
 40
160.0
  1
192.5
 50
90.0
  0
ARC
  5
34AF
  8
0
  6
BYBLOCK
 62
     0
 10
10555.09962899998
 20
13832.486252000001
 30
0.0
 40
15.0
 50
90.0
 51
270.0
  0
ARC
  5
34B0
  8
0
  6
BYBLOCK
 62
     0
 10
10555.09962899998
 20
13832.486252000001
 30
0.0
 40
15.0
 50
270.0
 51
90.0
  0
ARC
  5
34B1
  8
0
  6
BYBLOCK
 62
     0
 10
10555.09962899998
 20
13639.990937
 30
0.0
 40
15.0
 50
270.0
 51
90.0
  0
ARC
  5
34B2
  8
0
  6
BYBLOCK
 62
     0
 10
10555.09962899998
 20
13639.990937
 30
0.0
 40
15.0
 50
90.0
 51
270.0
  0
ARC
  5
34B3
  8
0
  6
BYBLOCK
 62
     0
 10
10555.09962899998
 20
16750.486251999992
 30
0.0
 40
15.0
 50
270.0
 51
90.0
  0
ARC
  5
34B4
  8
0
  6
BYBLOCK
 62
     0
 10
10555.09962899998
 20
16750.486251999992
 30
0.0
 40
15.0
 50
90.0
 51
270.0
  0
ARC
  5
34B5
  8
0
  6
BYBLOCK
 62
     0
 10
10555.09962899998
 20
13832.486252000001
 30
0.0
 40
15.0
 50
90.0
 51
270.0
  0
ARC
  5
34B6
  8
0
  6
BYBLOCK
 62
     0
 10
10555.09962899998
 20
13832.486252000001
 30
0.0
 40
15.0
 50
270.0
 51
90.0
  0
ARC
  5
34B7
  8
0
  6
BYBLOCK
 62
     0
 10
10955.09962899998
 20
19880.982161
 30
0.0
 40
15.0
 50
270.0
 51
90.0
  0
ARC
  5
34B8
  8
0
  6
BYBLOCK
 62
     0
 10
10955.09962899998
 20
19880.982161
 30
0.0
 40
15.0
 50
90.0
 51
270.0
  0
ARC
  5
34B9
  8
0
  6
BYBLOCK
 62
     0
 10
10955.09962899998
 20
19890.982161000022
 30
0.0
 40
15.0
 50
90.0
 51
270.0
  0
ARC
  5
34BA
  8
0
  6
BYBLOCK
 62
     0
 10
10955.09962899998
 20
19890.982161000022
 30
0.0
 40
15.0
 50
270.0
 51
90.0
  0
ARC
  5
34BB
  8
0
  6
BYBLOCK
 62
     0
 10
10555.09962899998
 20
19668.486251999992
 30
0.0
 40
15.0
 50
270.0
 51
90.0
  0
ARC
  5
34BC
  8
0
  6
BYBLOCK
 62
     0
 10
10555.09962899998
 20
19668.486251999992
 30
0.0
 40
15.0
 50
90.0
 51
270.0
  0
ARC
  5
34BD
  8
0
  6
BYBLOCK
 62
     0
 10
10555.09962899998
 20
19890.982161000022
 30
0.0
 40
15.0
 50
90.0
 51
270.0
  0
ARC
  5
34BE
  8
0
  6
BYBLOCK
 62
     0
 10
10555.09962899998
 20
19890.982161000022
 30
0.0
 40
15.0
 50
270.0
 51
90.0
  0
ARC
  5
34BF
  8
0
  6
BYBLOCK
 62
     0
 10
10555.09962899998
 20
16750.486251999992
 30
0.0
 40
15.0
 50
90.0
 51
270.0
  0
ARC
  5
34C0
  8
0
  6
BYBLOCK
 62
     0
 10
10555.09962899998
 20
16750.486251999992
 30
0.0
 40
15.0
 50
270.0
 51
90.0
  0
ARC
  5
34C1
  8
0
  6
BYBLOCK
 62
     0
 10
10555.09962899998
 20
19668.486251999992
 30
0.0
 40
15.0
 50
270.0
 51
90.0
  0
ARC
  5
34C2
  8
0
  6
BYBLOCK
 62
     0
 10
10555.09962899998
 20
19668.486251999992
 30
0.0
 40
15.0
 50
90.0
 51
270.0
  0
ARC
  5
34C3
  8
0
  6
BYBLOCK
 62
     0
 10
11484.59792
 20
20440.989419000009
 30
0.0
 40
15.0
 50
0.0
 51
180.0
  0
ARC
  5
34C4
  8
0
  6
BYBLOCK
 62
     0
 10
11484.59792
 20
20440.989419000009
 30
0.0
 40
15.0
 50
180.0
 51
0.0
  0
ARC
  5
34C5
  8
0
  6
BYBLOCK
 62
     0
 10
11399.09792
 20
20440.989419000009
 30
0.0
 40
15.0
 50
180.0
 51
0.0
  0
ARC
  5
34C6
  8
0
  6
BYBLOCK
 62
     0
 10
11399.09792
 20
20440.989419000009
 30
0.0
 40
15.0
 50
0.0
 51
180.0
  0
ARC
  5
34C7
  8
0
  6
BYBLOCK
 62
     0
 10
14402.603858
 20
20440.989419000009
 30
0.0
 40
15.0
 50
180.0
 51
0.0
  0
ARC
  5
34C8
  8
0
  6
BYBLOCK
 62
     0
 10
14402.603858
 20
20440.989419000009
 30
0.0
 40
15.0
 50
0.0
 51
180.0
  0
ARC
  5
34C9
  8
0
  6
BYBLOCK
 62
     0
 10
14488.103858
 20
20440.989419000009
 30
0.0
 40
15.0
 50
0.0
 51
180.0
  0
ARC
  5
34CA
  8
0
  6
BYBLOCK
 62
     0
 10
14488.103858
 20
20440.989419000009
 30
0.0
 40
15.0
 50
180.0
 51
0.0
  0
ARC
  5
34CB
  8
0
  6
BYBLOCK
 62
     0
 10
14402.603858
 20
20440.989419000009
 30
0.0
 40
15.0
 50
180.0
 51
0.0
  0
ARC
  5
34CC
  8
0
  6
BYBLOCK
 62
     0
 10
14402.603858
 20
20440.989419000009
 30
0.0
 40
15.0
 50
0.0
 51
180.0
  0
ARC
  5
34CD
  8
0
  6
BYBLOCK
 62
     0
 10
11484.59791999998
 20
20440.989419000009
 30
0.0
 40
15.0
 50
0.0
 51
180.0
  0
ARC
  5
34CE
  8
0
  6
BYBLOCK
 62
     0
 10
11484.59791999998
 20
20440.989419000009
 30
0.0
 40
15.0
 50
180.0
 51
0.0
  0
ARC
  5
34CF
  8
0
  6
BYBLOCK
 62
     0
 10
21612.563502000001
 20
20440.987440000012
 30
0.0
 40
15.0
 50
180.0
 51
0.0
  0
ARC
  5
34D0
  8
0
  6
BYBLOCK
 62
     0
 10
21612.563502000001
 20
20440.987440000012
 30
0.0
 40
15.0
 50
0.0
 51
180.0
  0
ARC
  5
34D1
  8
0
  6
BYBLOCK
 62
     0
 10
20854.563502000001
 20
20440.987440000012
 30
0.0
 40
15.0
 50
0.0
 51
180.0
  0
ARC
  5
34D2
  8
0
  6
BYBLOCK
 62
     0
 10
20854.563502000001
 20
20440.987440000012
 30
0.0
 40
15.0
 50
180.0
 51
0.0
  0
ARC
  5
34D3
  8
0
  6
BYBLOCK
 62
     0
 10
20004.562182000001
 20
6567.9237529999991
 30
0.0
 40
15.0
 50
90.0
 51
270.0
  0
ARC
  5
34D4
  8
0
  6
BYBLOCK
 62
     0
 10
20004.562182000001
 20
6567.9237529999991
 30
0.0
 40
15.0
 50
270.0
 51
90.0
  0
ARC
  5
34D5
  8
0
  6
BYBLOCK
 62
     0
 10
20004.562182000001
 20
8459.4237530000028
 30
0.0
 40
15.0
 50
270.0
 51
90.0
  0
ARC
  5
34D6
  8
0
  6
BYBLOCK
 62
     0
 10
20004.562182000001
 20
8459.4237530000028
 30
0.0
 40
15.0
 50
90.0
 51
270.0
  0
ARC
  5
34D7
  8
0
  6
BYBLOCK
 62
     0
 10
19604.559872999991
 20
6567.9237529999991
 30
0.0
 40
15.0
 50
90.0
 51
270.0
  0
ARC
  5
34D8
  8
0
  6
BYBLOCK
 62
     0
 10
19604.559872999991
 20
6567.9237529999991
 30
0.0
 40
15.0
 50
270.0
 51
90.0
  0
ARC
  5
34D9
  8
0
  6
BYBLOCK
 62
     0
 10
19604.559872999991
 20
8916.4237789999952
 30
0.0
 40
15.0
 50
270.0
 51
90.0
  0
ARC
  5
34DA
  8
0
  6
BYBLOCK
 62
     0
 10
19604.559872999991
 20
8916.4237789999952
 30
0.0
 40
15.0
 50
90.0
 51
270.0
  0
ARC
  5
34EB
  8
0
  6
BYBLOCK
 62
     0
 10
23772.563502000001
 20
5267.9239180000041
 30
0.0
 40
15.0
 50
180.0
 51
0.0
  0
ARC
  5
34EC
  8
0
  6
BYBLOCK
 62
     0
 10
23772.563502000001
 20
5267.9239180000041
 30
0.0
 40
15.0
 50
0.0
 51
180.0
  0
ARC
  5
34ED
  8
0
  6
BYBLOCK
 62
     0
 10
23815.063502000001
 20
5267.9239180000041
 30
0.0
 40
15.0
 50
0.0
 51
180.0
  0
ARC
  5
34EE
  8
0
  6
BYBLOCK
 62
     0
 10
23815.063502000001
 20
5267.9239180000041
 30
0.0
 40
15.0
 50
180.0
 51
0.0
  0
ARC
  5
34EF
  8
0
  6
BYBLOCK
 62
     0
 10
20948.563502000001
 20
5667.9239180000041
 30
0.0
 40
15.0
 50
0.0
 51
180.0
  0
ARC
  5
34F0
  8
0
  6
BYBLOCK
 62
     0
 10
20948.563502000001
 20
5667.9239180000041
 30
0.0
 40
15.0
 50
180.0
 51
0.0
  0
ARC
  5
34F1
  8
0
  6
BYBLOCK
 62
     0
 10
23678.563502000001
 20
5667.9239180000041
 30
0.0
 40
15.0
 50
180.0
 51
0.0
  0
ARC
  5
34F2
  8
0
  6
BYBLOCK
 62
     0
 10
23678.563502000001
 20
5667.9239180000041
 30
0.0
 40
15.0
 50
0.0
 51
180.0
  0
ARC
  5
34F3
  8
0
  6
BYBLOCK
 62
     0
 10
20854.563502000001
 20
5267.9239180000041
 30
0.0
 40
15.0
 50
0.0
 51
180.0
  0
ARC
  5
34F4
  8
0
  6
BYBLOCK
 62
     0
 10
20854.563502000001
 20
5267.9239180000041
 30
0.0
 40
15.0
 50
180.0
 51
0.0
  0
ARC
  5
34F5
  8
0
  6
BYBLOCK
 62
     0
 10
23772.563502000001
 20
5267.9239180000041
 30
0.0
 40
15.0
 50
180.0
 51
0.0
  0
ARC
  5
34F6
  8
0
  6
BYBLOCK
 62
     0
 10
23772.563502000001
 20
5267.9239180000041
 30
0.0
 40
15.0
 50
0.0
 51
180.0
  0
ARC
  5
34F7
  8
0
  6
BYBLOCK
 62
     0
 10
20854.563502000001
 20
5267.9239180000041
 30
0.0
 40
15.0
 50
0.0
 51
180.0
  0
ARC
  5
34F8
  8
0
  6
BYBLOCK
 62
     0
 10
20854.563502000001
 20
5267.9239180000041
 30
0.0
 40
15.0
 50
180.0
 51
0.0
  0
ARC
  5
34F9
  8
0
  6
BYBLOCK
 62
     0
 10
20812.06350199999
 20
5267.9239180000041
 30
0.0
 40
15.0
 50
180.0
 51
0.0
  0
ARC
  5
34FA
  8
0
  6
BYBLOCK
 62
     0
 10
20812.06350199999
 20
5267.9239180000041
 30
0.0
 40
15.0
 50
0.0
 51
180.0
  0
ARC
  5
34FB
  8
0
  6
BYBLOCK
 62
     0
 10
20812.06350199999
 20
4867.9240830000008
 30
0.0
 40
15.0
 50
0.0
 51
180.0
  0
ARC
  5
34FC
  8
0
  6
BYBLOCK
 62
     0
 10
20812.06350199999
 20
4867.9240830000008
 30
0.0
 40
15.0
 50
180.0
 51
0.0
  0
ARC
  5
34FD
  8
0
  6
BYBLOCK
 62
     0
 10
23815.063502000001
 20
4867.9240830000008
 30
0.0
 40
15.0
 50
180.0
 51
0.0
  0
ARC
  5
34FE
  8
0
  6
BYBLOCK
 62
     0
 10
23815.063502000001
 20
4867.9240830000008
 30
0.0
 40
15.0
 50
0.0
 51
180.0
  0
ARC
  5
34FF
  8
0
  6
BYBLOCK
 62
     0
 10
9473.5669209999905
 20
10115.922293999991
 30
0.0
 40
15.0
 50
0.0
 51
180.0
  0
ARC
  5
3500
  8
0
  6
BYBLOCK
 62
     0
 10
9473.5669209999905
 20
10115.922293999991
 30
0.0
 40
15.0
 50
180.0
 51
0.0
  0
ARC
  5
3501
  8
0
  6
BYBLOCK
 62
     0
 10
15724.566920999991
 20
10115.922293999991
 30
0.0
 40
15.0
 50
180.0
 51
0.0
  0
ARC
  5
3502
  8
0
  6
BYBLOCK
 62
     0
 10
15724.566920999991
 20
10115.922293999991
 30
0.0
 40
15.0
 50
0.0
 51
180.0
  0
ARC
  5
3503
  8
0
  6
BYBLOCK
 62
     0
 10
15574.568173999991
 20
9715.9239440000001
 30
0.0
 40
15.0
 50
180.0
 51
0.0
  0
ARC
  5
3504
  8
0
  6
BYBLOCK
 62
     0
 10
15574.568173999991
 20
9715.9239440000001
 30
0.0
 40
15.0
 50
0.0
 51
180.0
  0
ARC
  5
3505
  8
0
  6
BYBLOCK
 62
     0
 10
15724.566920999991
 20
9715.9239440000001
 30
0.0
 40
15.0
 50
0.0
 51
180.0
  0
ARC
  5
3506
  8
0
  6
BYBLOCK
 62
     0
 10
15724.566920999991
 20
9715.9239440000001
 30
0.0
 40
15.0
 50
180.0
 51
0.0
  0
ARC
  5
3507
  8
0
  6
BYBLOCK
 62
     0
 10
9653.565666999988
 20
9715.9239440000001
 30
0.0
 40
15.0
 50
0.0
 51
180.0
  0
ARC
  5
3508
  8
0
  6
BYBLOCK
 62
     0
 10
9653.565666999988
 20
9715.9239440000001
 30
0.0
 40
15.0
 50
180.0
 51
0.0
  0
ARC
  5
3509
  8
0
  6
BYBLOCK
 62
     0
 10
15574.568173999991
 20
9715.9239440000001
 30
0.0
 40
15.0
 50
180.0
 51
0.0
  0
ARC
  5
350A
  8
0
  6
BYBLOCK
 62
     0
 10
15574.568173999991
 20
9715.9239440000001
 30
0.0
 40
15.0
 50
0.0
 51
180.0
  0
ARC
  5
350B
  8
0
  6
BYBLOCK
 62
     0
 10
9473.5669209999905
 20
9715.9239439999983
 30
0.0
 40
15.0
 50
180.0
 51
0.0
  0
ARC
  5
350C
  8
0
  6
BYBLOCK
 62
     0
 10
9473.5669209999905
 20
9715.9239439999983
 30
0.0
 40
15.0
 50
0.0
 51
180.0
  0
ARC
  5
350D
  8
0
  6
BYBLOCK
 62
     0
 10
9653.565666999988
 20
9715.9239439999983
 30
0.0
 40
15.0
 50
0.0
 51
180.0
  0
ARC
  5
350E
  8
0
  6
BYBLOCK
 62
     0
 10
9653.565666999988
 20
9715.9239439999983
 30
0.0
 40
15.0
 50
180.0
 51
0.0
  0
ARC
  5
350F
  8
0
  6
BYBLOCK
 62
     0
 10
8563.5685029999859
 20
6567.9232579999989
 30
0.0
 40
15.0
 50
90.0
 51
270.0
  0
ARC
  5
3510
  8
0
  6
BYBLOCK
 62
     0
 10
8563.5685029999859
 20
6567.9232579999989
 30
0.0
 40
15.0
 50
270.0
 51
90.0
  0
ARC
  5
3511
  8
0
  6
BYBLOCK
 62
     0
 10
8563.5685029999859
 20
8724.4232579999989
 30
0.0
 40
15.0
 50
270.0
 51
90.0
  0
ARC
  5
3512
  8
0
  6
BYBLOCK
 62
     0
 10
8563.5685029999859
 20
8724.4232579999989
 30
0.0
 40
15.0
 50
90.0
 51
270.0
  0
ARC
  5
3513
  8
0
  6
BYBLOCK
 62
     0
 10
16664.56632599996
 20
6567.9232579999989
 30
0.0
 40
15.0
 50
90.0
 51
270.0
  0
ARC
  5
3514
  8
0
  6
BYBLOCK
 62
     0
 10
16664.56632599996
 20
6567.9232579999989
 30
0.0
 40
15.0
 50
270.0
 51
90.0
  0
ARC
  5
3515
  8
0
  6
BYBLOCK
 62
     0
 10
16664.56632599996
 20
8916.4232580000007
 30
0.0
 40
15.0
 50
270.0
 51
90.0
  0
ARC
  5
3516
  8
0
  6
BYBLOCK
 62
     0
 10
16664.56632599996
 20
8916.4232580000007
 30
0.0
 40
15.0
 50
90.0
 51
270.0
  0
ARC
  5
3517
  8
0
  6
BYBLOCK
 62
     0
 10
9653.5669209999924
 20
4867.9230930000012
 30
0.0
 40
15.0
 50
0.0
 51
180.0
  0
ARC
  5
3518
  8
0
  6
BYBLOCK
 62
     0
 10
9653.5669209999924
 20
4867.9230930000012
 30
0.0
 40
15.0
 50
180.0
 51
0.0
  0
ARC
  5
3519
  8
0
  6
BYBLOCK
 62
     0
 10
15574.566920999991
 20
4867.9230930000012
 30
0.0
 40
15.0
 50
180.0
 51
0.0
  0
ARC
  5
351A
  8
0
  6
BYBLOCK
 62
     0
 10
15574.566920999991
 20
4867.9230930000012
 30
0.0
 40
15.0
 50
0.0
 51
180.0
  0
ARC
  5
351B
  8
0
  6
BYBLOCK
 62
     0
 10
15532.066920999991
 20
5267.922928
 30
0.0
 40
15.0
 50
180.0
 51
0.0
  0
ARC
  5
351C
  8
0
  6
BYBLOCK
 62
     0
 10
15532.066920999991
 20
5267.922928
 30
0.0
 40
15.0
 50
0.0
 51
180.0
  0
ARC
  5
351D
  8
0
  6
BYBLOCK
 62
     0
 10
15574.566920999991
 20
5267.922928
 30
0.0
 40
15.0
 50
0.0
 51
180.0
  0
ARC
  5
351E
  8
0
  6
BYBLOCK
 62
     0
 10
15574.566920999991
 20
5267.922928
 30
0.0
 40
15.0
 50
180.0
 51
0.0
  0
ARC
  5
351F
  8
0
  6
BYBLOCK
 62
     0
 10
9696.0669209999924
 20
5267.922928
 30
0.0
 40
15.0
 50
0.0
 51
180.0
  0
ARC
  5
3520
  8
0
  6
BYBLOCK
 62
     0
 10
9696.0669209999924
 20
5267.922928
 30
0.0
 40
15.0
 50
180.0
 51
0.0
  0
ARC
  5
3521
  8
0
  6
BYBLOCK
 62
     0
 10
9653.5669209999924
 20
5267.922928
 30
0.0
 40
15.0
 50
180.0
 51
0.0
  0
ARC
  5
3522
  8
0
  6
BYBLOCK
 62
     0
 10
9653.5669209999924
 20
5267.922928
 30
0.0
 40
15.0
 50
0.0
 51
180.0
  0
ARC
  5
3523
  8
0
  6
BYBLOCK
 62
     0
 10
12614.066920999991
 20
5267.922928
 30
0.0
 40
15.0
 50
180.0
 51
0.0
  0
ARC
  5
3524
  8
0
  6
BYBLOCK
 62
     0
 10
12614.066920999991
 20
5267.922928
 30
0.0
 40
15.0
 50
0.0
 51
180.0
  0
ARC
  5
3525
  8
0
  6
BYBLOCK
 62
     0
 10
9696.0669209999924
 20
5267.922928
 30
0.0
 40
15.0
 50
0.0
 51
180.0
  0
ARC
  5
3526
  8
0
  6
BYBLOCK
 62
     0
 10
9696.0669209999924
 20
5267.922928
 30
0.0
 40
15.0
 50
180.0
 51
0.0
  0
ARC
  5
3527
  8
0
  6
BYBLOCK
 62
     0
 10
12614.066920999991
 20
5267.922928
 30
0.0
 40
15.0
 50
0.0
 51
180.0
  0
ARC
  5
3528
  8
0
  6
BYBLOCK
 62
     0
 10
12614.066920999991
 20
5267.922928
 30
0.0
 40
15.0
 50
180.0
 51
0.0
  0
ARC
  5
3529
  8
0
  6
BYBLOCK
 62
     0
 10
15532.066920999991
 20
5267.922928
 30
0.0
 40
15.0
 50
180.0
 51
0.0
  0
ARC
  5
352A
  8
0
  6
BYBLOCK
 62
     0
 10
15532.066920999991
 20
5267.922928
 30
0.0
 40
15.0
 50
0.0
 51
180.0
  0
ARC
  5
352B
  8
0
  6
BYBLOCK
 62
     0
 10
20854.563502000001
 20
12861.038167999999
 30
0.0
 40
15.0
 50
0.0
 51
180.0
  0
ARC
  5
352C
  8
0
  6
BYBLOCK
 62
     0
 10
20854.563502000001
 20
12861.038167999999
 30
0.0
 40
15.0
 50
180.0
 51
0.0
  0
ARC
  5
352D
  8
0
  6
BYBLOCK
 62
     0
 10
20812.061258999998
 20
12861.038167999999
 30
0.0
 40
15.0
 50
180.0
 51
0.0
  0
ARC
  5
352E
  8
0
  6
BYBLOCK
 62
     0
 10
20812.061258999998
 20
12861.038167999999
 30
0.0
 40
15.0
 50
0.0
 51
180.0
  0
ARC
  5
352F
  8
0
  6
BYBLOCK
 62
     0
 10
23772.563502000001
 20
12861.038167999999
 30
0.0
 40
15.0
 50
180.0
 51
0.0
  0
ARC
  5
3530
  8
0
  6
BYBLOCK
 62
     0
 10
23772.563502000001
 20
12861.038167999999
 30
0.0
 40
15.0
 50
0.0
 51
180.0
  0
ARC
  5
3531
  8
0
  6
BYBLOCK
 62
     0
 10
23815.065744999989
 20
12861.038167999999
 30
0.0
 40
15.0
 50
0.0
 51
180.0
  0
ARC
  5
3532
  8
0
  6
BYBLOCK
 62
     0
 10
23815.065744999989
 20
12861.038167999999
 30
0.0
 40
15.0
 50
180.0
 51
0.0
  0
ARC
  5
3533
  8
0
  6
BYBLOCK
 62
     0
 10
23772.563502000001
 20
12861.038167999999
 30
0.0
 40
15.0
 50
0.0
 51
180.0
  0
ARC
  5
3534
  8
0
  6
BYBLOCK
 62
     0
 10
23772.563502000001
 20
12861.038167999999
 30
0.0
 40
15.0
 50
180.0
 51
0.0
  0
ARC
  5
3535
  8
0
  6
BYBLOCK
 62
     0
 10
23730.061258999991
 20
12861.038167999999
 30
0.0
 40
15.0
 50
180.0
 51
0.0
  0
ARC
  5
3536
  8
0
  6
BYBLOCK
 62
     0
 10
23730.061258999991
 20
12861.038167999999
 30
0.0
 40
15.0
 50
0.0
 51
180.0
  0
ARC
  5
3537
  8
0
  6
BYBLOCK
 62
     0
 10
20854.563502000001
 20
12861.038167999999
 30
0.0
 40
15.0
 50
180.0
 51
0.0
  0
ARC
  5
3538
  8
0
  6
BYBLOCK
 62
     0
 10
20854.563502000001
 20
12861.038167999999
 30
0.0
 40
15.0
 50
0.0
 51
180.0
  0
ARC
  5
3539
  8
0
  6
BYBLOCK
 62
     0
 10
20897.065744999989
 20
12861.038167999999
 30
0.0
 40
15.0
 50
0.0
 51
180.0
  0
ARC
  5
353A
  8
0
  6
BYBLOCK
 62
     0
 10
20897.065744999989
 20
12861.038167999999
 30
0.0
 40
15.0
 50
180.0
 51
0.0
  0
ARC
  5
353B
  8
0
  6
BYBLOCK
 62
     0
 10
20812.061258999998
 20
12461.038167999999
 30
0.0
 40
15.0
 50
0.0
 51
180.0
  0
ARC
  5
353C
  8
0
  6
BYBLOCK
 62
     0
 10
20812.061258999998
 20
12461.038167999999
 30
0.0
 40
15.0
 50
180.0
 51
0.0
  0
ARC
  5
353D
  8
0
  6
BYBLOCK
 62
     0
 10
23815.065744999989
 20
12461.038167999999
 30
0.0
 40
15.0
 50
180.0
 51
0.0
  0
ARC
  5
353E
  8
0
  6
BYBLOCK
 62
     0
 10
23815.065744999989
 20
12461.038167999999
 30
0.0
 40
15.0
 50
0.0
 51
180.0
  0
ARC
  5
353F
  8
0
  6
BYBLOCK
 62
     0
 10
24865.063105999991
 20
14590.486252000001
 30
0.0
 40
15.0
 50
270.0
 51
90.0
  0
ARC
  5
3540
  8
0
  6
BYBLOCK
 62
     0
 10
24865.063105999991
 20
14590.486252000001
 30
0.0
 40
15.0
 50
90.0
 51
270.0
  0
ARC
  5
3541
  8
0
  6
BYBLOCK
 62
     0
 10
24865.063105999991
 20
13832.486252000001
 30
0.0
 40
15.0
 50
90.0
 51
270.0
  0
ARC
  5
3542
  8
0
  6
BYBLOCK
 62
     0
 10
24865.063105999991
 20
13832.486252000001
 30
0.0
 40
15.0
 50
270.0
 51
90.0
  0
ARC
  5
3543
  8
0
  6
BYBLOCK
 62
     0
 10
24865.063105999991
 20
15291.72676350001
 30
0.0
 40
15.0
 50
270.0
 51
90.0
  0
ARC
  5
3544
  8
0
  6
BYBLOCK
 62
     0
 10
24865.063105999991
 20
15291.72676350001
 30
0.0
 40
15.0
 50
90.0
 51
270.0
  0
ARC
  5
3545
  8
0
  6
BYBLOCK
 62
     0
 10
24865.063105999991
 20
14590.486252000001
 30
0.0
 40
15.0
 50
90.0
 51
270.0
  0
ARC
  5
3546
  8
0
  6
BYBLOCK
 62
     0
 10
24865.063105999991
 20
14590.486252000001
 30
0.0
 40
15.0
 50
270.0
 51
90.0
  0
ARC
  5
3547
  8
0
  6
BYBLOCK
 62
     0
 10
24865.063105999991
 20
15992.486252000001
 30
0.0
 40
15.0
 50
270.0
 51
90.0
  0
ARC
  5
3548
  8
0
  6
BYBLOCK
 62
     0
 10
24865.063105999991
 20
15992.486252000001
 30
0.0
 40
15.0
 50
90.0
 51
270.0
  0
ARC
  5
3549
  8
0
  6
BYBLOCK
 62
     0
 10
24865.063105999991
 20
15291.72676350001
 30
0.0
 40
15.0
 50
90.0
 51
270.0
  0
ARC
  5
354A
  8
0
  6
BYBLOCK
 62
     0
 10
24865.063105999991
 20
15291.72676350001
 30
0.0
 40
15.0
 50
270.0
 51
90.0
  0
ARC
  5
354B
  8
0
  6
BYBLOCK
 62
     0
 10
24865.063105999991
 20
16750.486251999992
 30
0.0
 40
15.0
 50
270.0
 51
90.0
  0
ARC
  5
354C
  8
0
  6
BYBLOCK
 62
     0
 10
24865.063105999991
 20
16750.486251999992
 30
0.0
 40
15.0
 50
90.0
 51
270.0
  0
ARC
  5
354D
  8
0
  6
BYBLOCK
 62
     0
 10
24865.063105999991
 20
15992.486252000001
 30
0.0
 40
15.0
 50
90.0
 51
270.0
  0
ARC
  5
354E
  8
0
  6
BYBLOCK
 62
     0
 10
24865.063105999991
 20
15992.486252000001
 30
0.0
 40
15.0
 50
270.0
 51
90.0
  0
ARC
  5
354F
  8
0
  6
BYBLOCK
 62
     0
 10
24865.063105999991
 20
17508.486251999992
 30
0.0
 40
15.0
 50
270.0
 51
90.0
  0
ARC
  5
3550
  8
0
  6
BYBLOCK
 62
     0
 10
24865.063105999991
 20
17508.486251999992
 30
0.0
 40
15.0
 50
90.0
 51
270.0
  0
ARC
  5
3551
  8
0
  6
BYBLOCK
 62
     0
 10
24865.063105999991
 20
16750.486251999992
 30
0.0
 40
15.0
 50
90.0
 51
270.0
  0
ARC
  5
3552
  8
0
  6
BYBLOCK
 62
     0
 10
24865.063105999991
 20
16750.486251999992
 30
0.0
 40
15.0
 50
270.0
 51
90.0
  0
ARC
  5
3553
  8
0
  6
BYBLOCK
 62
     0
 10
24865.063105999991
 20
18209.486251999992
 30
0.0
 40
15.0
 50
270.0
 51
90.0
  0
ARC
  5
3554
  8
0
  6
BYBLOCK
 62
     0
 10
24865.063105999991
 20
18209.486251999992
 30
0.0
 40
15.0
 50
90.0
 51
270.0
  0
ARC
  5
3555
  8
0
  6
BYBLOCK
 62
     0
 10
24865.063105999991
 20
17508.486251999992
 30
0.0
 40
15.0
 50
90.0
 51
270.0
  0
ARC
  5
3556
  8
0
  6
BYBLOCK
 62
     0
 10
24865.063105999991
 20
17508.486251999992
 30
0.0
 40
15.0
 50
270.0
 51
90.0
  0
ARC
  5
3557
  8
0
  6
BYBLOCK
 62
     0
 10
24865.063105999991
 20
18910.486251999992
 30
0.0
 40
15.0
 50
270.0
 51
90.0
  0
ARC
  5
3558
  8
0
  6
BYBLOCK
 62
     0
 10
24865.063105999991
 20
18910.486251999992
 30
0.0
 40
15.0
 50
90.0
 51
270.0
  0
ARC
  5
3559
  8
0
  6
BYBLOCK
 62
     0
 10
24865.063105999991
 20
18209.486251999992
 30
0.0
 40
15.0
 50
90.0
 51
270.0
  0
ARC
  5
355A
  8
0
  6
BYBLOCK
 62
     0
 10
24865.063105999991
 20
18209.486251999992
 30
0.0
 40
15.0
 50
270.0
 51
90.0
  0
ARC
  5
355B
  8
0
  6
BYBLOCK
 62
     0
 10
24865.063105999991
 20
19668.486251999992
 30
0.0
 40
15.0
 50
270.0
 51
90.0
  0
ARC
  5
355C
  8
0
  6
BYBLOCK
 62
     0
 10
24865.063105999991
 20
19668.486251999992
 30
0.0
 40
15.0
 50
90.0
 51
270.0
  0
ARC
  5
355D
  8
0
  6
BYBLOCK
 62
     0
 10
24865.063105999991
 20
18910.486251999992
 30
0.0
 40
15.0
 50
90.0
 51
270.0
  0
ARC
  5
355E
  8
0
  6
BYBLOCK
 62
     0
 10
24865.063105999991
 20
18910.486251999992
 30
0.0
 40
15.0
 50
270.0
 51
90.0
  0
ARC
  5
355F
  8
0
  6
BYBLOCK
 62
     0
 10
25265.06310599998
 20
16750.486251999992
 30
0.0
 40
15.0
 50
90.0
 51
270.0
  0
ARC
  5
3560
  8
0
  6
BYBLOCK
 62
     0
 10
25265.06310599998
 20
16750.486251999992
 30
0.0
 40
15.0
 50
270.0
 51
90.0
  0
ARC
  5
3561
  8
0
  6
BYBLOCK
 62
     0
 10
25265.06310599998
 20
19668.486251999992
 30
0.0
 40
15.0
 50
270.0
 51
90.0
  0
ARC
  5
3562
  8
0
  6
BYBLOCK
 62
     0
 10
25265.06310599998
 20
19668.486251999992
 30
0.0
 40
15.0
 50
90.0
 51
270.0
  0
ARC
  5
3563
  8
0
  6
BYBLOCK
 62
     0
 10
25265.06310599998
 20
13832.486252000001
 30
0.0
 40
15.0
 50
90.0
 51
270.0
  0
ARC
  5
3564
  8
0
  6
BYBLOCK
 62
     0
 10
25265.06310599998
 20
13832.486252000001
 30
0.0
 40
15.0
 50
270.0
 51
90.0
  0
ARC
  5
3565
  8
0
  6
BYBLOCK
 62
     0
 10
25265.06310599998
 20
16750.486251999992
 30
0.0
 40
15.0
 50
270.0
 51
90.0
  0
ARC
  5
3566
  8
0
  6
BYBLOCK
 62
     0
 10
25265.06310599998
 20
16750.486251999992
 30
0.0
 40
15.0
 50
90.0
 51
270.0
  0
ARC
  5
3567
  8
0
  6
BYBLOCK
 62
     0
 10
25665.063105999991
 20
19710.983546999982
 30
0.0
 40
15.0
 50
270.0
 51
90.0
  0
ARC
  5
3568
  8
0
  6
BYBLOCK
 62
     0
 10
25665.063105999991
 20
19710.983546999982
 30
0.0
 40
15.0
 50
90.0
 51
270.0
  0
ARC
  5
3569
  8
0
  6
BYBLOCK
 62
     0
 10
25665.063105999991
 20
13789.988957
 30
0.0
 40
15.0
 50
90.0
 51
270.0
  0
ARC
  5
356A
  8
0
  6
BYBLOCK
 62
     0
 10
25665.063105999991
 20
13789.988957
 30
0.0
 40
15.0
 50
270.0
 51
90.0
  0
ARC
  5
356B
  8
0
  6
BYBLOCK
 62
     0
 10
25265.06310599998
 20
19668.486251999992
 30
0.0
 40
15.0
 50
270.0
 51
90.0
  0
ARC
  5
356C
  8
0
  6
BYBLOCK
 62
     0
 10
25265.06310599998
 20
19668.486251999992
 30
0.0
 40
15.0
 50
90.0
 51
270.0
  0
ARC
  5
356D
  8
0
  6
BYBLOCK
 62
     0
 10
25265.06310599998
 20
19710.983546999982
 30
0.0
 40
15.0
 50
90.0
 51
270.0
  0
ARC
  5
356E
  8
0
  6
BYBLOCK
 62
     0
 10
25265.06310599998
 20
19710.983546999982
 30
0.0
 40
15.0
 50
270.0
 51
90.0
  0
ARC
  5
356F
  8
0
  6
BYBLOCK
 62
     0
 10
25265.06310599998
 20
13832.486252000001
 30
0.0
 40
15.0
 50
90.0
 51
270.0
  0
ARC
  5
3570
  8
0
  6
BYBLOCK
 62
     0
 10
25265.06310599998
 20
13832.486252000001
 30
0.0
 40
15.0
 50
270.0
 51
90.0
  0
ARC
  5
3571
  8
0
  6
BYBLOCK
 62
     0
 10
25265.06310599998
 20
13789.988957
 30
0.0
 40
15.0
 50
270.0
 51
90.0
  0
ARC
  5
3572
  8
0
  6
BYBLOCK
 62
     0
 10
25265.06310599998
 20
13789.988957
 30
0.0
 40
15.0
 50
90.0
 51
270.0
  0
ARC
  5
3573
  8
0
  6
BYBLOCK
 62
     0
 10
23014.563502000001
 20
20440.987440000012
 30
0.0
 40
15.0
 50
0.0
 51
180.0
  0
ARC
  5
3574
  8
0
  6
BYBLOCK
 62
     0
 10
23014.563502000001
 20
20440.987440000012
 30
0.0
 40
15.0
 50
180.0
 51
0.0
  0
ARC
  5
3575
  8
0
  6
BYBLOCK
 62
     0
 10
23772.564491500001
 20
20440.987440000012
 30
0.0
 40
15.0
 50
180.0
 51
0.0
  0
ARC
  5
3576
  8
0
  6
BYBLOCK
 62
     0
 10
23772.564491500001
 20
20440.987440000012
 30
0.0
 40
15.0
 50
0.0
 51
180.0
  0
ARC
  5
3577
  8
0
  6
BYBLOCK
 62
     0
 10
22313.563502000001
 20
20440.987440000012
 30
0.0
 40
15.0
 50
0.0
 51
180.0
  0
ARC
  5
3578
  8
0
  6
BYBLOCK
 62
     0
 10
22313.563502000001
 20
20440.987440000012
 30
0.0
 40
15.0
 50
180.0
 51
0.0
  0
ARC
  5
3579
  8
0
  6
BYBLOCK
 62
     0
 10
23014.563502000001
 20
20440.987440000012
 30
0.0
 40
15.0
 50
180.0
 51
0.0
  0
ARC
  5
357A
  8
0
  6
BYBLOCK
 62
     0
 10
23014.563502000001
 20
20440.987440000012
 30
0.0
 40
15.0
 50
0.0
 51
180.0
  0
ARC
  5
357B
  8
0
  6
BYBLOCK
 62
     0
 10
21612.563502000001
 20
20440.987440000012
 30
0.0
 40
15.0
 50
0.0
 51
180.0
  0
ARC
  5
357C
  8
0
  6
BYBLOCK
 62
     0
 10
21612.563502000001
 20
20440.987440000012
 30
0.0
 40
15.0
 50
180.0
 51
0.0
  0
ARC
  5
357D
  8
0
  6
BYBLOCK
 62
     0
 10
22313.563502000001
 20
20440.987440000012
 30
0.0
 40
15.0
 50
180.0
 51
0.0
  0
ARC
  5
357E
  8
0
  6
BYBLOCK
 62
     0
 10
22313.563502000001
 20
20440.987440000012
 30
0.0
 40
15.0
 50
0.0
 51
180.0
  0
ARC
  5
357F
  8
0
  6
BYBLOCK
 62
     0
 10
23772.563502000001
 20
20440.987440000012
 30
0.0
 40
15.0
 50
180.0
 51
0.0
  0
ARC
  5
3580
  8
0
  6
BYBLOCK
 62
     0
 10
23772.563502000001
 20
20440.987440000012
 30
0.0
 40
15.0
 50
0.0
 51
180.0
  0
ARC
  5
3581
  8
0
  6
BYBLOCK
 62
     0
 10
23815.059806999991
 20
20440.987440000012
 30
0.0
 40
15.0
 50
0.0
 51
180.0
  0
ARC
  5
3582
  8
0
  6
BYBLOCK
 62
     0
 10
23815.059806999991
 20
20440.987440000012
 30
0.0
 40
15.0
 50
180.0
 51
0.0
  0
ARC
  5
3583
  8
0
  6
BYBLOCK
 62
     0
 10
20854.563502000001
 20
20440.987440000012
 30
0.0
 40
15.0
 50
0.0
 51
180.0
  0
ARC
  5
3584
  8
0
  6
BYBLOCK
 62
     0
 10
20854.563502000001
 20
20440.987440000012
 30
0.0
 40
15.0
 50
180.0
 51
0.0
  0
ARC
  5
3585
  8
0
  6
BYBLOCK
 62
     0
 10
20812.067196999989
 20
20440.987440000012
 30
0.0
 40
15.0
 50
180.0
 51
0.0
  0
ARC
  5
3586
  8
0
  6
BYBLOCK
 62
     0
 10
20812.067196999989
 20
20440.987440000012
 30
0.0
 40
15.0
 50
0.0
 51
180.0
  0
TEXT
  5
368C
  8
0
  6
CONTINUOUS
 62
     7
 10
22046.89683533334
 20
9795.4236209999908
 30
0.0
 40
160.0
  1
3003
  0
TEXT
  5
368D
  8
0
  6
CONTINUOUS
 62
     7
 10
22033.563502000001
 20
10195.38139099999
 30
0.0
 40
160.0
  1
3089
  0
LINE
  5
368E
  8
0-1
  6
CONTINUOUS
 62
     3
 10
20897.059807000009
 20
8652.4241219999967
 30
0.0
 11
23730.063237999992
 21
8652.4241219999967
 31
0.0
  0
LINE
  5
368F
  8
0-1
  6
CONTINUOUS
 62
     3
 10
20769.06310700002
 20
8590.2380409999969
 30
0.0
 11
20769.06310700002
 21
8915.9237789999916
 31
0.0
  0
LINE
  5
3690
  8
0-1
  6
CONTINUOUS
 62
     3
 10
23858.061918999989
 20
8785.9238449999921
 30
0.0
 11
20769.06310700002
 21
8785.9238449999921
 31
0.0
  0
LINE
  5
3691
  8
0-1
  6
CONTINUOUS
 62
     3
 10
23858.061918999989
 20
8915.9237789999916
 30
0.0
 11
23858.061918999989
 21
8590.2380409999969
 31
0.0
  0
LINE
  5
3692
  8
0-1
  6
CONTINUOUS
 62
     3
 10
20769.06310700002
 20
8915.9237789999916
 30
0.0
 11
23858.061918999989
 21
8915.9237789999916
 31
0.0
  0
LINE
  5
3693
  8
0-1
  6
CONTINUOUS
 62
     3
 10
23858.061918999989
 20
8590.2380409999969
 30
0.0
 11
23815.06178700001
 21
8590.2380409999969
 31
0.0
  0
LINE
  5
3694
  8
0-1
  6
CONTINUOUS
 62
     3
 10
20769.06310700002
 20
8590.2380409999969
 30
0.0
 11
20812.06125900002
 21
8590.2380409999969
 31
0.0
  0
LINE
  5
3695
  8
0-1
  6
CONTINUOUS
 62
     3
 10
20923.06276300002
 20
8661.424498999997
 30
0.0
 11
21200.49229300001
 21
8661.424498999997
 31
0.0
  0
LINE
  5
3696
  8
0-1
  6
CONTINUOUS
 62
     3
 10
20923.06276300002
 20
8703.4239439999983
 30
0.0
 11
21232.489231000021
 21
8703.4239439999983
 31
0.0
  0
LINE
  5
3697
  8
0-1
  6
CONTINUOUS
 62
     3
 10
20918.0625
 20
8666.4242679999988
 30
0.0
 11
20918.0625
 21
8698.4246699999967
 31
0.0
  0
LINE
  5
3698
  8
0-1
  6
CONTINUOUS
 62
     3
 10
20897.059807000009
 20
8712.4238259999966
 30
0.0
 11
23730.063237999992
 21
8712.4238259999966
 31
0.0
  0
LINE
  5
3699
  8
0-1
  6
CONTINUOUS
 62
     3
 10
21204.02573300002
 20
8662.8883529999966
 30
0.0
 11
21236.026631000001
 21
8694.8887549999981
 31
0.0
  0
LINE
  5
369A
  8
0-1
  6
CONTINUOUS
 62
     3
 10
20918.0625
 20
8695.0243519999967
 30
0.0
 11
21236.155298999991
 21
8695.0243519999967
 31
0.0
  0
LINE
  5
369B
  8
0-1
  6
CONTINUOUS
 62
     3
 10
20918.0625
 20
8686.6242649999967
 30
0.0
 11
21227.76214100001
 21
8686.6242649999967
 31
0.0
  0
LINE
  5
369C
  8
0-1
  6
CONTINUOUS
 62
     3
 10
20918.0625
 20
8678.224672999997
 30
0.0
 11
21219.363043000008
 21
8678.224672999997
 31
0.0
  0
LINE
  5
369D
  8
0-1
  6
CONTINUOUS
 62
     3
 10
20918.0625
 20
8669.824585999997
 30
0.0
 11
21210.95998700002
 21
8669.824585999997
 31
0.0
  0
LINE
  5
369E
  8
0-1
  6
CONTINUOUS
 62
     3
 10
23709.062525999991
 20
8695.0243519999967
 30
0.0
 11
23390.96972600001
 21
8695.0243519999967
 31
0.0
  0
LINE
  5
369F
  8
0-1
  6
CONTINUOUS
 62
     3
 10
23709.062525999991
 20
8686.6242649999967
 30
0.0
 11
23399.36486400001
 21
8686.6242649999967
 31
0.0
  0
LINE
  5
36A0
  8
0-1
  6
CONTINUOUS
 62
     3
 10
23709.062525999991
 20
8678.224672999997
 30
0.0
 11
23407.763961000001
 21
8678.224672999997
 31
0.0
  0
LINE
  5
36A1
  8
0-1
  6
CONTINUOUS
 62
     3
 10
23709.062525999991
 20
8669.824585999997
 30
0.0
 11
23416.163058999999
 21
8669.824585999997
 31
0.0
  0
LINE
  5
36A2
  8
0-1
  6
CONTINUOUS
 62
     3
 10
23704.06226200001
 20
8703.4239439999983
 30
0.0
 11
23394.635793999991
 21
8703.4239439999983
 31
0.0
  0
LINE
  5
36A3
  8
0-1
  6
CONTINUOUS
 62
     3
 10
23704.06226200001
 20
8661.424498999997
 30
0.0
 11
23426.632732999991
 21
8661.424498999997
 31
0.0
  0
LINE
  5
36A4
  8
0-1
  6
CONTINUOUS
 62
     3
 10
23709.062525999991
 20
8666.4242679999988
 30
0.0
 11
23709.062525999991
 21
8698.4246699999967
 31
0.0
  0
LINE
  5
36A5
  8
0-1
  6
CONTINUOUS
 62
     3
 10
23423.097312000009
 20
8662.8883529999966
 30
0.0
 11
23391.100374000009
 21
8694.8887549999981
 31
0.0
  0
ARC
  5
36A6
  8
0-1
  6
CONTINUOUS
 62
     3
 10
20923.06276300002
 20
8698.4246699999967
 30
0.0
 40
5.0
 50
90.0
 51
180.0
  0
ARC
  5
36A7
  8
0-1
  6
CONTINUOUS
 62
     3
 10
20923.06276300002
 20
8666.4242679999988
 30
0.0
 40
5.0
 50
180.0
 51
269.9999850001808
  0
ARC
  5
36A8
  8
0-1
  6
CONTINUOUS
 62
     3
 10
21200.49229300001
 20
8666.4242679999988
 30
0.0
 40
5.0
 50
269.9999850001808
 51
314.99998500027471
  0
ARC
  5
36A9
  8
0-1
  6
CONTINUOUS
 62
     3
 10
21232.489231000021
 20
8698.4246699999967
 30
0.0
 40
5.0
 50
314.99998500027471
 51
90.0
  0
ARC
  5
36AA
  8
0-1
  6
CONTINUOUS
 62
     3
 10
23704.06226200001
 20
8666.4242679999988
 30
0.0
 40
5.0
 50
269.9999850001808
 51
0.0
  0
ARC
  5
36AB
  8
0-1
  6
CONTINUOUS
 62
     3
 10
23704.06226200001
 20
8698.4246699999967
 30
0.0
 40
5.0
 50
0.0
 51
90.0
  0
ARC
  5
36AC
  8
0-1
  6
CONTINUOUS
 62
     3
 10
23394.635793999991
 20
8698.4246699999967
 30
0.0
 40
5.0
 50
90.0
 51
224.99998499997989
  0
ARC
  5
36AD
  8
0-1
  6
CONTINUOUS
 62
     3
 10
23426.632732999991
 20
8666.4242679999988
 30
0.0
 40
5.0
 50
224.99998499997989
 51
269.9999850001808
  0
LINE
  5
36AE
  8
SUNPOU
  6
CONTINUOUS
 62
     4
 10
23815.063765999988
 20
8995.9237789999916
 30
0.0
 11
23815.063765999988
 21
9795.4236209999908
 31
0.0
  0
LINE
  5
36AF
  8
SUNPOU
  6
CONTINUOUS
 62
     4
 10
23815.063765999988
 20
9715.4236209999926
 30
0.0
 11
23575.063765999988
 21
9715.4236209999926
 31
0.0
  0
LINE
  5
36B0
  8
SUNPOU
  6
CONTINUOUS
 62
     4
 10
23855.065876999972
 20
9715.4236209999926
 30
0.0
 11
24095.065876999972
 21
9715.4236209999926
 31
0.0
  0
LINE
  5
36B1
  8
SUNPOU
  6
CONTINUOUS
 62
     4
 10
23815.063765999988
 20
9715.4236209999926
 30
0.0
 11
23855.065876999972
 21
9715.4236209999926
 31
0.0
  0
LINE
  5
36B2
  8
SUNPOU
  6
CONTINUOUS
 62
     4
 10
20769.06112700003
 20
8995.9237789999916
 30
0.0
 11
20769.06112700003
 21
10195.38139099999
 31
0.0
  0
LINE
  5
36B3
  8
SUNPOU
  6
CONTINUOUS
 62
     4
 10
23858.065876999979
 20
8995.9237789999916
 30
0.0
 11
23858.065876999979
 21
10195.38139099999
 31
0.0
  0
LINE
  5
36B4
  8
SUNPOU
  6
CONTINUOUS
 62
     4
 10
20769.06112700003
 20
10115.38139099999
 30
0.0
 11
23855.065876999972
 21
10115.38139099999
 31
0.0
  0
LINE
  5
36B5
  8
SUNPOU
  6
CONTINUOUS
 62
     4
 10
20812.06323800001
 20
8995.9237789999916
 30
0.0
 11
20812.06323800001
 21
9795.4236209999908
 31
0.0
  0
LINE
  5
36B6
  8
SUNPOU
  6
CONTINUOUS
 62
     4
 10
23815.063765999988
 20
8995.9237789999916
 30
0.0
 11
23815.063765999988
 21
9795.4236209999908
 31
0.0
  0
LINE
  5
36B7
  8
SUNPOU
  6
CONTINUOUS
 62
     4
 10
20812.06323800001
 20
9715.4236209999926
 30
0.0
 11
23815.063765999988
 21
9715.4236209999926
 31
0.0
  0
LINE
  5
36B8
  8
SUNPOU
  6
CONTINUOUS
 62
     4
 10
20812.06323800001
 20
8995.9237789999916
 30
0.0
 11
20812.06323800001
 21
9795.4236209999908
 31
0.0
  0
LINE
  5
36B9
  8
SUNPOU
  6
CONTINUOUS
 62
     4
 10
20769.06112700003
 20
8995.9237789999916
 30
0.0
 11
20769.06112700003
 21
9795.4236209999908
 31
0.0
  0
LINE
  5
36BA
  8
SUNPOU
  6
CONTINUOUS
 62
     4
 10
20812.06323800001
 20
9715.4236209999926
 30
0.0
 11
21052.06323800001
 21
9715.4236209999926
 31
0.0
  0
LINE
  5
36BB
  8
SUNPOU
  6
CONTINUOUS
 62
     4
 10
20772.061127000019
 20
9715.4236209999926
 30
0.0
 11
20532.061127000019
 21
9715.4236209999926
 31
0.0
  0
LINE
  5
36BC
  8
SUNPOU
  6
CONTINUOUS
 62
     4
 10
20812.06323800001
 20
9715.4236209999926
 30
0.0
 11
20772.061127000019
 21
9715.4236209999926
 31
0.0
  0
TEXT
  5
36BD
  8
0
  6
CONTINUOUS
 62
     7
 10
20412.061127000019
 20
9795.4236209999908
 30
0.0
 40
160.0
  1
43
  0
TEXT
  5
36BE
  8
0
  6
CONTINUOUS
 62
     7
 10
23975.065876999972
 20
9795.4236209999908
 30
0.0
 40
160.0
  1
43
  0
ARC
  5
36BF
  8
0
  6
BYBLOCK
 62
     0
 10
23815.063765999988
 20
9715.4236209999926
 30
0.0
 40
15.0
 50
180.0
 51
0.0
  0
ARC
  5
36C0
  8
0
  6
BYBLOCK
 62
     0
 10
23815.063765999988
 20
9715.4236209999926
 30
0.0
 40
15.0
 50
0.0
 51
180.0
  0
ARC
  5
36C1
  8
0
  6
BYBLOCK
 62
     0
 10
23858.065876999979
 20
9715.4236209999926
 30
0.0
 40
15.0
 50
0.0
 51
180.0
  0
ARC
  5
36C2
  8
0
  6
BYBLOCK
 62
     0
 10
23858.065876999979
 20
9715.4236209999926
 30
0.0
 40
15.0
 50
180.0
 51
0.0
  0
ARC
  5
36C3
  8
0
  6
BYBLOCK
 62
     0
 10
20769.06112700003
 20
10115.38139099999
 30
0.0
 40
15.0
 50
0.0
 51
180.0
  0
ARC
  5
36C4
  8
0
  6
BYBLOCK
 62
     0
 10
20769.06112700003
 20
10115.38139099999
 30
0.0
 40
15.0
 50
180.0
 51
0.0
  0
ARC
  5
36C5
  8
0
  6
BYBLOCK
 62
     0
 10
23858.065876999979
 20
10115.38139099999
 30
0.0
 40
15.0
 50
180.0
 51
0.0
  0
ARC
  5
36C6
  8
0
  6
BYBLOCK
 62
     0
 10
23858.065876999979
 20
10115.38139099999
 30
0.0
 40
15.0
 50
0.0
 51
180.0
  0
ARC
  5
36C7
  8
0
  6
BYBLOCK
 62
     0
 10
20812.06323800001
 20
9715.4236209999926
 30
0.0
 40
15.0
 50
0.0
 51
180.0
  0
ARC
  5
36C8
  8
0
  6
BYBLOCK
 62
     0
 10
20812.06323800001
 20
9715.4236209999926
 30
0.0
 40
15.0
 50
180.0
 51
0.0
  0
ARC
  5
36C9
  8
0
  6
BYBLOCK
 62
     0
 10
23815.063765999988
 20
9715.4236209999926
 30
0.0
 40
15.0
 50
180.0
 51
0.0
  0
ARC
  5
36CA
  8
0
  6
BYBLOCK
 62
     0
 10
23815.063765999988
 20
9715.4236209999926
 30
0.0
 40
15.0
 50
0.0
 51
180.0
  0
ARC
  5
36CB
  8
0
  6
BYBLOCK
 62
     0
 10
20812.06323800001
 20
9715.4236209999926
 30
0.0
 40
15.0
 50
0.0
 51
180.0
  0
ARC
  5
36CC
  8
0
  6
BYBLOCK
 62
     0
 10
20812.06323800001
 20
9715.4236209999926
 30
0.0
 40
15.0
 50
180.0
 51
0.0
  0
ARC
  5
36CD
  8
0
  6
BYBLOCK
 62
     0
 10
20769.06112700003
 20
9715.4236209999926
 30
0.0
 40
15.0
 50
180.0
 51
0.0
  0
ARC
  5
36CE
  8
0
  6
BYBLOCK
 62
     0
 10
20769.06112700003
 20
9715.4236209999926
 30
0.0
 40
15.0
 50
0.0
 51
180.0
  0
LINE
  5
36DC
  8
SUNPOU
  6
CONTINUOUS
 62
     4
 10
11399.100493999969
 20
13559.98598799998
 30
0.0
 11
11399.100493999969
 21
12381.03618799998
 31
0.0
  0
LINE
  5
36DD
  8
SUNPOU
  6
CONTINUOUS
 62
     4
 10
14488.09732599999
 20
13559.98598799998
 30
0.0
 11
14488.09732599999
 21
12381.03618799998
 31
0.0
  0
LINE
  5
36DE
  8
SUNPOU
  6
CONTINUOUS
 62
     4
 10
11399.100493999969
 20
12461.03618799998
 30
0.0
 11
14488.09732599999
 21
12461.03618799998
 31
0.0
  0
TEXT
  5
36DF
  8
0
  6
CONTINUOUS
 62
     7
 10
12140.932243333311
 20
12541.03618799998
 30
0.0
 40
160.0
  1
ケラバ外寸 3089
  0
ARC
  5
36E0
  8
0
  6
BYBLOCK
 62
     0
 10
11399.100493999969
 20
12461.03618799998
 30
0.0
 40
15.0
 50
0.0
 51
180.0
  0
ARC
  5
36E1
  8
0
  6
BYBLOCK
 62
     0
 10
11399.100493999969
 20
12461.03618799998
 30
0.0
 40
15.0
 50
180.0
 51
0.0
  0
ARC
  5
36E2
  8
0
  6
BYBLOCK
 62
     0
 10
14488.09732599999
 20
12461.03618799998
 30
0.0
 40
15.0
 50
180.0
 51
0.0
  0
ARC
  5
36E3
  8
0
  6
BYBLOCK
 62
     0
 10
14488.09732599999
 20
12461.03618799998
 30
0.0
 40
15.0
 50
0.0
 51
180.0
  0
TEXT
  5
3739
  8
NAME
 10
24033.053546554009
 20
1076.0
 30
0.0
 40
360.0
  1
H
 41
0.6700000000000002
  7
00
  0
TEXT
  5
373A
  8
NAME
 10
23657.221561973682
 20
1076.0
 30
0.0
 40
360.0
  1
（ ）
  7
01
  0
TEXT
  5
373B
  8
NAME
 10
24557.214549256729
 20
1076.0
 30
0.0
 40
360.0
  1
型（単棟）
  7
01
  0
TEXT
  5
373C
  8
NAME
 10
21933.552716389011
 20
1876.0
 30
0.0
 40
360.0
  1
ヨドガレージ ラヴィージュ
 41
0.75
  7
01
  0
TEXT
  5
373D
  8
NAME
 10
21816.089515848391
 20
1076.6369801169251
 30
0.0
 40
360.0
  1
VGC-3059
 41
0.6700000000000002
  0
LINE
  5
373E
  8
NAME
  6
CONTINUOUS
 10
26067.886878884299
 20
2236.0
 30
0.0
 11
26067.886878884299
 21
1876.0
 31
0.0
  0
LINE
  5
373F
  8
NAME
  6
CONTINUOUS
 10
26167.886878884299
 20
2236.0
 30
0.0
 11
26167.886878884299
 21
1876.0
 31
0.0
  0
LINE
  5
3740
  8
NAME
  6
CONTINUOUS
 10
26267.88687888431
 20
2236.0
 30
0.0
 11
26267.88687888431
 21
1876.0
 31
0.0
  0
LINE
  5
3741
  8
NAME
  6
CONTINUOUS
 10
26007.886878884299
 20
2236.0
 30
0.0
 11
26327.886878884299
 21
2236.0
 31
0.0
  0
LINE
  5
3742
  8
NAME
  6
CONTINUOUS
 10
26327.886878884299
 20
1876.0
 30
0.0
 11
26007.886878884299
 21
1876.0
 31
0.0
  0
TEXT
  5
37F6
  8
FILENAME
  6
CONTINUOUS
 10
28756.38095238095
 20
348.0
 30
0.0
 40
200.0
  1
＜VGC-3059-1-A_0.DXF ＞
  7
FILENAME
 72
     2
 11
32764.0
 21
348.0
 31
0.0
  0
LINE
  5
37FC
  8
WAKUSEN-01
 10
868.00000000000193
 20
827.99999999999955
 30
0.0
 11
32764.000000000011
 21
827.99999999999943
 31
0.0
  0
LINE
  5
37FD
  8
WAKUSEN-01
 10
868.00000000000193
 20
827.99999999999955
 30
0.0
 11
868.00000000000193
 21
22484.000000000011
 31
0.0
  0
LINE
  5
37FE
  8
WAKUSEN-01
 10
32764.000000000011
 20
827.99999999999943
 30
0.0
 11
32764.000000000011
 21
22484.000000000011
 31
0.0
  0
LINE
  5
37FF
  8
WAKUSEN-01
 10
20560.0
 20
827.99999999999716
 30
0.0
 11
20560.0
 21
2484.0
 31
0.0
  0
LINE
  5
3800
  8
WAKUSEN-02
 10
26868.0
 20
827.99999999999261
 30
0.0
 11
26868.0
 21
2484.0
 31
0.0
  0
ENDSEC
  0
EOF
