  0
SECTION
  2
HEADER
  9
$ACADVER
  1
AC1009
  9
$INSBASE
 10
0.0
 20
0.0
 30
0.0
  9
$EXTMIN
 10
867.99324330406671
 20
327.38164749855792
 30
-0.0000000000000053
  9
$EXTMAX
 10
32765.33210850941
 20
22484.553276491992
 30
0.0000000000000099
  9
$LIMMIN
 10
0.0
 20
0.0
  9
$LIMMAX
 10
33600.0
 20
23760.0
  9
$ORTHOMODE
 70
     1
  9
$REGENMODE
 70
     1
  9
$FILLMODE
 70
     1
  9
$QTEXTMODE
 70
     0
  9
$MIRRTEXT
 70
     1
  9
$DRAGMODE
 70
     2
  9
$LTSCALE
 40
80.0
  9
$OSMODE
 70
  3071
  9
$ATTMODE
 70
     1
  9
$TEXTSIZE
 40
0.2
  9
$TRACEWID
 40
0.05
  9
$TEXTSTYLE
  7
00
  9
$CLAYER
  8
0
  9
$CELTYPE
  6
BYLAYER
  9
$CECOLOR
 62
   256
  9
$DIMSCALE
 40
80.0
  9
$DIMASZ
 40
3.0
  9
$DIMEXO
 40
1.0
  9
$DIMDLI
 40
0.38
  9
$DIMRND
 40
0.5
  9
$DIMDLE
 40
0.0
  9
$DIMEXE
 40
1.0
  9
$DIMTP
 40
0.0
  9
$DIMTM
 40
0.0
  9
$DIMTXT
 40
2.0
  9
$DIMCEN
 40
0.09
  9
$DIMTSZ
 40
0.0
  9
$DIMTOL
 70
     0
  9
$DIMLIM
 70
     0
  9
$DIMTIH
 70
     0
  9
$DIMTOH
 70
     0
  9
$DIMSE1
 70
     0
  9
$DIMSE2
 70
     0
  9
$DIMTAD
 70
     1
  9
$DIMZIN
 70
     8
  9
$DIMBLK
  1
DOTSMALL
  9
$DIMASO
 70
     1
  9
$DIMSHO
 70
     1
  9
$DIMPOST
  1

  9
$DIMAPOST
  1

  9
$DIMALT
 70
     0
  9
$DIMALTD
 70
     2
  9
$DIMALTF
 40
25.399999999999999
  9
$DIMLFAC
 40
1.0
  9
$DIMTOFL
 70
     1
  9
$DIMTVP
 40
0.0
  9
$DIMTIX
 70
     0
  9
$DIMSOXD
 70
     0
  9
$DIMSAH
 70
     0
  9
$DIMBLK1
  1

  9
$DIMBLK2
  1

  9
$DIMSTYLE
  2
SUNPOU
  9
$DIMCLRD
 70
     4
  9
$DIMCLRE
 70
     4
  9
$DIMCLRT
 70
     7
  9
$DIMTFAC
 40
1.0
  9
$DIMGAP
 40
1.0
  9
$LUNITS
 70
     2
  9
$LUPREC
 70
     4
  9
$SKETCHINC
 40
0.1
  9
$FILLETRAD
 40
0.0
  9
$AUNITS
 70
     0
  9
$AUPREC
 70
     0
  9
$MENU
  1
acad
  9
$ELEVATION
 40
0.0
  9
$PELEVATION
 40
0.0
  9
$THICKNESS
 40
0.0
  9
$LIMCHECK
 70
     0
  9
$BLIPMODE
 70
     1
  9
$CHAMFERA
 40
0.0
  9
$CHAMFERB
 40
0.0
  9
$SKPOLY
 70
     0
  9
$TDCREATE
 40
2311940.0750515158
  9
$TDUPDATE
 40
2458942.446466424
  9
$TDINDWG
 40
0.0298324537
  9
$TDUSRTIMER
 40
0.0298321065
  9
$USRTIMER
 70
     1
  9
$ANGBASE
 50
0.0
  9
$ANGDIR
 70
     0
  9
$PDMODE
 70
     0
  9
$PDSIZE
 40
0.0
  9
$PLINEWID
 40
0.0
  9
$COORDS
 70
     1
  9
$SPLFRAME
 70
     0
  9
$SPLINETYPE
 70
     6
  9
$SPLINESEGS
 70
     8
  9
$ATTDIA
 70
     1
  9
$ATTREQ
 70
     1
  9
$HANDLING
 70
     1
  9
$HANDSEED
  5
3E33
  9
$SURFTAB1
 70
     6
  9
$SURFTAB2
 70
     6
  9
$SURFTYPE
 70
     6
  9
$SURFU
 70
     6
  9
$SURFV
 70
     6
  9
$UCSNAME
  2

  9
$UCSORG
 10
0.0
 20
0.0
 30
0.0
  9
$UCSXDIR
 10
1.0
 20
0.0
 30
0.0
  9
$UCSYDIR
 10
0.0
 20
1.0
 30
0.0
  9
$PUCSNAME
  2

  9
$PUCSORG
 10
0.0
 20
0.0
 30
0.0
  9
$PUCSXDIR
 10
1.0
 20
0.0
 30
0.0
  9
$PUCSYDIR
 10
0.0
 20
1.0
 30
0.0
  9
$USERI1
 70
     0
  9
$USERI2
 70
     0
  9
$USERI3
 70
     0
  9
$USERI4
 70
     0
  9
$USERI5
 70
     0
  9
$USERR1
 40
0.0
  9
$USERR2
 40
0.0
  9
$USERR3
 40
0.0
  9
$USERR4
 40
0.0
  9
$USERR5
 40
0.0
  9
$WORLDVIEW
 70
     1
  9
$SHADEDGE
 70
     3
  9
$SHADEDIF
 70
    70
  9
$TILEMODE
 70
     1
  9
$MAXACTVP
 70
    16
  9
$PLIMCHECK
 70
     0
  9
$PEXTMIN
 10
1.0000000000000000E+020
 20
1.0000000000000000E+020
 30
1.0000000000000000E+020
  9
$PEXTMAX
 10
-1.0000000000000000E+020
 20
-1.0000000000000000E+020
 30
-1.0000000000000000E+020
  9
$PLIMMIN
 10
0.0
 20
0.0
  9
$PLIMMAX
 10
12.0
 20
9.0
  9
$UNITMODE
 70
     0
  9
$VISRETAIN
 70
     0
  9
$PLINEGEN
 70
     1
  9
$PSLTSCALE
 70
     0
  0
ENDSEC
  0
SECTION
  2
TABLES
  0
TABLE
  2
VPORT
 70
     1
  0
VPORT
  2
*ACTIVE
 70
     0
 10
0.0
 20
0.0
 11
1.0
 21
1.0
 12
16800.0
 22
11880.0
 13
0.0
 23
0.0
 14
1.0
 24
1.0
 15
0.0
 25
0.0
 16
0.0
 26
0.0
 36
1.0
 17
0.0
 27
0.0
 37
0.0
 40
23981.023255813951
 41
2.195652173913043
 42
50.0
 43
0.0
 44
0.0
 50
0.0
 51
0.0
 71
     0
 72
 10000
 73
     1
 74
     1
 75
     0
 76
     0
 77
     0
 78
     0
  0
ENDTAB
  0
TABLE
  2
LTYPE
 70
     3
  0
LTYPE
  2
CONTINUOUS
 70
     0
  3
Solid line
 72
    65
 73
     0
 40
0.0
  0
LTYPE
  2
DASHED3
 70
     0
  3
------  ------  ------  ------  
 72
    65
 73
     2
 40
5.0
 49
3.75
 49
-1.25
  0
LTYPE
  2
CENTER2
 70
     0
  3
----------  --  ----------  --  
 72
    65
 73
     4
 40
20.0
 49
12.5
 49
-2.5
 49
2.5
 49
-2.5
  0
ENDTAB
  0
TABLE
  2
LAYER
 70
    16
  0
LAYER
  2
0
 70
     0
 62
     7
  6
CONTINUOUS
  0
LAYER
  2
SUNPOU
 70
     0
 62
     4
  6
CONTINUOUS
  0
LAYER
  2
0-1
 70
     0
 62
     7
  6
CONTINUOUS
  0
LAYER
  2
0-2
 70
     0
 62
     7
  6
CONTINUOUS
  0
LAYER
  2
0-6
 70
     0
 62
     7
  6
CONTINUOUS
  0
LAYER
  2
2-0
 70
     0
 62
     7
  6
CONTINUOUS
  0
LAYER
  2
YODOROGO
 70
     0
 62
   130
  6
CONTINUOUS
  0
LAYER
  2
WAKUSEN-01
 70
     0
 62
    50
  6
CONTINUOUS
  0
LAYER
  2
WAKUSEN-02
 70
     0
 62
   130
  6
CONTINUOUS
  0
LAYER
  2
WAKUMOJI-01
 70
     0
 62
   130
  6
CONTINUOUS
  0
LAYER
  2
FILENAME
 70
     0
 62
     7
  6
CONTINUOUS
  0
LAYER
  2
NAME
 70
     0
 62
    20
  6
CONTINUOUS
  0
LAYER
  2
0-4
 70
     0
 62
     7
  6
CONTINUOUS
  0
LAYER
  2
0-5
 70
     0
 62
     7
  6
CONTINUOUS
  0
ENDTAB
  0
TABLE
  2
STYLE
 70
     5
  0
STYLE
  2
STANDARD
 70
     0
 40
0.0
 41
1.0
 50
0.0
 71
     0
 42
0.0
  3
txt
  4
BIGFONT
  0
STYLE
  2
00
 70
     0
 40
0.0
 41
0.6666666666666666
 50
0.0
 71
     0
 42
0.2
  3
ROMANS
  4
BIGFONT
  0
STYLE
  2
01
 70
     0
 40
3.0
 41
1.0
 50
0.0
 71
     0
 42
0.2
  3
ROMANS
  4
BIGFONT
  0
STYLE
  2
WAKUMOJI
 70
     0
 40
3.0
 41
1.0
 50
0.0
 71
     0
 42
3.0
  3
SIMPLEX
  4
BIGFONT
  0
STYLE
  2
FILENAME
 70
     0
 40
200.0
 41
1.0
 50
0.0
 71
     0
 42
200.0
  3
romans
  4
bigfont
  0
ENDTAB
  0
TABLE
  2
VIEW
 70
     0
  0
ENDTAB
  0
TABLE
  2
UCS
 70
     0
  0
ENDTAB
  0
TABLE
  2
APPID
 70
    13
  0
APPID
  2
ACAD
 70
     0
  0
APPID
  2
ACADANNOTATIVE
 70
     0
  0
APPID
  2
ACAD_PSEXT
 70
     0
  0
APPID
  2
DCO15
 70
     0
  0
APPID
  2
ACAD_MLEADERVER
 70
     0
  0
APPID
  2
AUTOCAD_POSTSCRIPT_FIGURE
 70
     0
  0
APPID
  2
ACAD_EXEMPT_FROM_CAD_STANDARDS
 70
     0
  0
APPID
  2
ACAD_DSTYLE_DIMJAG
 70
     0
  0
APPID
  2
ACAD_DSTYLE_DIMTALN
 70
     0
  0
APPID
  2
ACAD_DSTYLE_DIM_LINETYPE
 70
     0
  0
APPID
  2
ACAD_DSTYLE_DIM_EXT1_LINETYPE
 70
     0
  0
APPID
  2
ACAD_DSTYLE_DIM_EXT2_LINETYPE
 70
     0
  0
APPID
  2
ACAD_NAV_VCDISPLAY
 70
     0
  0
ENDTAB
  0
TABLE
  2
DIMSTYLE
 70
     2
  0
DIMSTYLE
  2
SUNPOU
 70
     0
  3

  4

  5

  6

  7

 40
80.0
 41
3.0
 42
1.0
 43
0.38
 44
1.0
 45
0.5
 46
0.0
 47
0.0
 48
0.0
140
2.0
141
0.09
142
0.0
143
25.399999999999999
144
1.0
145
0.0
146
1.0
147
1.0
 71
     0
 72
     0
 73
     0
 74
     0
 75
     0
 76
     0
 77
     1
 78
     8
170
     0
171
     2
172
     1
173
     0
174
     0
175
     0
176
     4
177
     4
178
     7
  0
ENDTAB
  0
ENDSEC
  0
SECTION
  2
BLOCKS
  0
BLOCK
  8
0
  2
$MODEL_SPACE
 70
     0
 10
0.0
 20
0.0
 30
0.0
  3
$MODEL_SPACE
  1

  0
ENDBLK
  5
32E9
  8
0
  0
BLOCK
 67
     1
  8
0
  2
$PAPER_SPACE
 70
     0
 10
0.0
 20
0.0
 30
0.0
  3
$PAPER_SPACE
  1

  0
ENDBLK
  5
32E5
 67
     1
  8
0
  0
BLOCK
  8
0
  2
_DOTSMALL
 70
     0
 10
0.0
 20
0.0
 30
0.0
  3
_DOTSMALL
  1

  0
POLYLINE
  5
3317
  8
0
  6
BYBLOCK
 62
     0
 66
     1
 10
0.0
 20
0.0
 30
0.0
 70
     1
 40
0.5
 41
0.5
  0
VERTEX
  5
3DFB
  8
0
  6
BYBLOCK
 62
     0
 10
-0.0625
 20
0.0
 30
0.0
 42
1.0
  0
VERTEX
  5
3DFC
  8
0
  6
BYBLOCK
 62
     0
 10
0.0625
 20
0.0
 30
0.0
 42
1.0
  0
SEQEND
  5
3DFD
  8
0
  6
BYBLOCK
 62
     0
  0
ENDBLK
  5
331B
  8
0
  0
ENDSEC
  0
SECTION
  2
ENTITIES
  0
LINE
  5
331C
  8
0-2
  6
CONTINUOUS
 62
     3
 10
9105.3261189999957
 20
17007.731124999991
 30
0.0
 11
13358.863756000001
 21
17007.731124999991
 31
0.0
  0
LINE
  5
331D
  8
0-2
  6
CONTINUOUS
 62
     3
 10
9155.3257499999945
 20
13895.23154699999
 30
0.0
 11
9155.3257499999945
 21
20056.232867999999
 31
0.0
  0
LINE
  5
331E
  8
0-2
  6
CONTINUOUS
 62
     3
 10
9019.824732999994
 20
13863.231638999991
 30
0.0
 11
9019.824732999994
 21
20104.232233999999
 31
0.0
  0
LINE
  5
331F
  8
0-2
  6
CONTINUOUS
 62
     3
 10
9093.3252479999919
 20
20104.232233999999
 30
0.0
 11
13901.82699
 21
20104.23223400001
 31
0.0
  0
LINE
  5
3320
  8
0-2
  6
CONTINUOUS
 62
     3
 10
11641.12463
 20
18213.14666599999
 30
0.0
 11
11803.363004000001
 21
18403.354647999979
 31
0.0
  0
LINE
  5
3321
  8
0-2
  6
CONTINUOUS
 62
     3
 10
12239.71917199999
 20
17373.98914899999
 30
0.0
 11
12401.955566000001
 21
17564.197130999979
 31
0.0
  0
LINE
  5
3322
  8
0-2
  6
CONTINUOUS
 62
     3
 10
12239.71917199999
 20
17373.98914899999
 30
0.0
 11
11803.363004000001
 21
18403.354647999979
 31
0.0
  0
LINE
  5
3323
  8
0-2
  6
CONTINUOUS
 62
     3
 10
9105.3261189999957
 20
16928.73249799999
 30
0.0
 11
13497.19944300001
 21
16928.73249799999
 31
0.0
  0
LINE
  5
3324
  8
0-2
  6
CONTINUOUS
 62
     3
 10
9062.8248649999914
 20
14019.23156
 30
0.0
 11
13932.32737299998
 21
14019.23156
 31
0.0
  0
LINE
  5
3325
  8
0-2
  6
CONTINUOUS
 62
     3
 10
9105.3261189999957
 20
14098.231177000011
 30
0.0
 11
13889.82611899999
 21
14098.231177000011
 31
0.0
  0
LINE
  5
3326
  8
0-2
  6
CONTINUOUS
 62
     3
 10
9019.824732999994
 20
13863.231638999991
 30
0.0
 11
13975.32750499999
 21
13863.231638999991
 31
0.0
  0
LINE
  5
3327
  8
0-2
  6
CONTINUOUS
 62
     3
 10
9019.824732999994
 20
13895.23154699999
 30
0.0
 11
13975.32750499999
 21
13895.23154699999
 31
0.0
  0
LINE
  5
3328
  8
0-2
  6
CONTINUOUS
 62
     3
 10
9105.3261189999957
 20
14019.23156
 30
0.0
 11
9105.3261189999957
 21
19655.772300000001
 31
0.0
  0
LINE
  5
3329
  8
0-2
  6
CONTINUOUS
 62
     3
 10
9062.8248649999914
 20
14019.23156
 30
0.0
 11
9062.8248649999914
 21
19680.047136000001
 31
0.0
  0
LINE
  5
332A
  8
0-2
  6
CONTINUOUS
 62
     3
 10
9175.3248649999987
 20
14055.730913999991
 30
0.0
 11
11953.327371999991
 21
16973.730914
 31
0.0
  0
LINE
  5
332B
  8
0-2
  6
CONTINUOUS
 62
     3
 10
11953.327371999991
 20
14055.730913999991
 30
0.0
 11
9175.3248649999987
 21
16973.730914
 31
0.0
  0
LINE
  5
332C
  8
0-2
  6
CONTINUOUS
 62
     3
 10
13819.826382999991
 20
14055.730913999991
 30
0.0
 11
12093.32585500001
 21
16973.730914
 31
0.0
  0
LINE
  5
332D
  8
0-2
  6
CONTINUOUS
 62
     3
 10
13932.32737299998
 20
14019.23156
 30
0.0
 11
13932.32737299998
 21
16684.968640999989
 31
0.0
  0
LINE
  5
332E
  8
0-2
  6
CONTINUOUS
 62
     3
 10
13889.82611899999
 20
14019.23156
 30
0.0
 11
13889.82611899999
 21
16709.243476999989
 31
0.0
  0
LINE
  5
332F
  8
0-2
  6
CONTINUOUS
 62
     3
 10
13975.32750499999
 20
13863.231638999991
 30
0.0
 11
13975.32750499999
 21
20104.232233999999
 31
0.0
  0
LINE
  5
3330
  8
0-2
  6
CONTINUOUS
 62
     3
 10
13839.82648799999
 20
13895.23154699999
 30
0.0
 11
13839.82648799999
 21
20056.232867999999
 31
0.0
  0
LINE
  5
3331
  8
0-2
  6
CONTINUOUS
 62
     3
 10
11641.12463
 20
18213.14666599999
 30
0.0
 11
8871.6291039999978
 21
19789.251236999979
 31
0.0
  0
LINE
  5
3332
  8
0-2
  6
CONTINUOUS
 62
     3
 10
10808.31542899998
 20
18688.809144999999
 30
0.0
 11
9175.3248649999987
 21
16973.730914
 31
0.0
  0
LINE
  5
3333
  8
0-2
  6
CONTINUOUS
 62
     3
 10
9760.8957319999936
 20
19287.051331999999
 30
0.0
 11
11953.327371999991
 21
16973.730914
 31
0.0
  0
LINE
  5
3334
  8
0-2
  6
CONTINUOUS
 62
     3
 10
9037.8254859999925
 20
20074.232629999991
 30
0.0
 11
9088.3279529999909
 21
20074.232629999991
 31
0.0
  0
LINE
  5
3335
  8
0-2
  6
CONTINUOUS
 62
     3
 10
9037.8254859999925
 20
20096.731837999989
 30
0.0
 11
9019.824732999994
 21
20096.731837999989
 31
0.0
  0
LINE
  5
3336
  8
0-2
  6
CONTINUOUS
 62
     3
 10
9088.3279529999909
 20
20114.230781999991
 30
0.0
 11
9024.8249969999961
 21
20114.230781999991
 31
0.0
  0
LINE
  5
3337
  8
0-2
  6
CONTINUOUS
 62
     3
 10
9019.824732999994
 20
20109.232497999979
 30
0.0
 11
9019.824732999994
 21
20074.232629999991
 31
0.0
  0
LINE
  5
3338
  8
0-2
  6
CONTINUOUS
 62
     3
 10
9093.3252479999919
 20
20079.232893999979
 30
0.0
 11
9093.3252479999919
 21
20109.232497999979
 31
0.0
  0
LINE
  5
3339
  8
0-2
  6
CONTINUOUS
 62
     3
 10
9037.8254859999925
 20
19692.613120000002
 30
0.0
 11
9037.8254859999925
 21
20096.731837999989
 31
0.0
  0
LINE
  5
333A
  8
0-2
  6
CONTINUOUS
 62
     3
 10
9037.8254859999925
 20
20056.232867999999
 30
0.0
 11
13957.32774199997
 21
20056.232867999999
 31
0.0
  0
LINE
  5
333B
  8
0-2
  6
CONTINUOUS
 62
     3
 10
13906.828244
 20
20114.230781999991
 30
0.0
 11
13970.32625099998
 21
20114.230781999991
 31
0.0
  0
LINE
  5
333C
  8
0-2
  6
CONTINUOUS
 62
     3
 10
13975.32750499999
 20
20109.232497999979
 30
0.0
 11
13975.32750499999
 21
20074.232629999991
 31
0.0
  0
LINE
  5
333D
  8
0-2
  6
CONTINUOUS
 62
     3
 10
13957.32774199997
 20
20074.232629999991
 30
0.0
 11
13906.828244
 21
20074.232629999991
 31
0.0
  0
LINE
  5
333E
  8
0-2
  6
CONTINUOUS
 62
     3
 10
13901.82699
 20
20079.232893999979
 30
0.0
 11
13901.82699
 21
20109.232497999979
 31
0.0
  0
LINE
  5
333F
  8
0-2
  6
CONTINUOUS
 62
     3
 10
13957.32774199997
 20
20096.731837999989
 30
0.0
 11
13975.32750499999
 21
20096.731837999989
 31
0.0
  0
LINE
  5
3340
  8
0-2
  6
CONTINUOUS
 62
     3
 10
13957.32774199997
 20
16672.402656999999
 30
0.0
 11
13957.32774199997
 21
20096.731837999989
 31
0.0
  0
LINE
  5
3341
  8
0-2
  6
CONTINUOUS
 62
     3
 10
11966.325881000001
 20
14098.231177000011
 30
0.0
 11
11966.325881000001
 21
16928.73249799999
 31
0.0
  0
LINE
  5
3342
  8
0-2
  6
CONTINUOUS
 62
     3
 10
12080.32635599999
 20
14098.231177000011
 30
0.0
 11
12080.32635599999
 21
16928.73249799999
 31
0.0
  0
LINE
  5
3343
  8
0-2
  6
CONTINUOUS
 62
     3
 10
12023.32611899999
 20
14098.231177000011
 30
0.0
 11
12023.32611899999
 21
14019.23156
 31
0.0
  0
LINE
  5
3344
  8
0-2
  6
CONTINUOUS
 62
     3
 10
12023.32611899999
 20
14098.231177000011
 30
0.0
 11
12023.32611899999
 21
16928.73249799999
 31
0.0
  0
LINE
  5
3345
  8
0-2
  6
CONTINUOUS
 62
     3
 10
11966.325881000001
 20
17007.731124999991
 30
0.0
 11
11966.325881000001
 21
18018.918281999999
 31
0.0
  0
LINE
  5
3346
  8
0-2
  6
CONTINUOUS
 62
     3
 10
12080.32635599999
 20
17007.731124999991
 30
0.0
 11
12080.32635599999
 21
17749.992764999999
 31
0.0
  0
LINE
  5
3347
  8
0-2
  6
CONTINUOUS
 62
     3
 10
12023.32611899999
 20
16928.73249799999
 30
0.0
 11
12023.32611899999
 21
17007.731124999991
 31
0.0
  0
LINE
  5
3348
  8
0-2
  6
CONTINUOUS
 62
     3
 10
12023.32611899999
 20
17007.731124999991
 30
0.0
 11
12023.32611899999
 21
17884.457502999991
 31
0.0
  0
LINE
  5
3349
  8
0-2
  6
CONTINUOUS
 62
     3
 10
14123.523133999999
 20
16575.764538999989
 30
0.0
 11
12401.955566000001
 21
17564.197130999979
 31
0.0
  0
LINE
  5
334A
  8
0-2
  6
CONTINUOUS
 62
     3
 10
12279.826198000001
 20
17421.00865399999
 30
0.0
 11
12279.826198000001
 21
20056.232867999999
 31
0.0
  0
LINE
  5
334B
  8
0-2
  6
CONTINUOUS
 62
     3
 10
12316.825379
 20
17464.389803999991
 30
0.0
 11
12316.825379
 21
20056.232867999999
 31
0.0
  0
LINE
  5
334C
  8
0-2
  6
CONTINUOUS
 62
     3
 10
12479.826858
 20
17519.719327999999
 30
0.0
 11
12479.826858
 21
20056.232867999999
 31
0.0
  0
LINE
  5
334D
  8
0-2
  6
CONTINUOUS
 62
     3
 10
12516.82702899998
 20
17498.587966999999
 30
0.0
 11
12516.82702899998
 21
20056.232867999999
 31
0.0
  0
LINE
  5
334E
  8
0-2
  6
CONTINUOUS
 62
     3
 10
12679.82553799999
 20
17405.487249000002
 30
0.0
 11
12679.82553799999
 21
20056.232867999999
 31
0.0
  0
LINE
  5
334F
  8
0-2
  6
CONTINUOUS
 62
     3
 10
12716.827689
 20
17384.355887999991
 30
0.0
 11
12716.827689
 21
20056.232867999999
 31
0.0
  0
LINE
  5
3350
  8
0-2
  6
CONTINUOUS
 62
     3
 10
12879.826198000001
 20
17291.259128999991
 30
0.0
 11
12879.826198000001
 21
20056.232867999999
 31
0.0
  0
LINE
  5
3351
  8
0-2
  6
CONTINUOUS
 62
     3
 10
12916.825379
 20
17270.12380899999
 30
0.0
 11
12916.825379
 21
20056.232867999999
 31
0.0
  0
LINE
  5
3352
  8
0-2
  6
CONTINUOUS
 62
     3
 10
13079.826858
 20
17167.026944000001
 30
0.0
 11
13079.826858
 21
20056.232867999999
 31
0.0
  0
LINE
  5
3353
  8
0-2
  6
CONTINUOUS
 62
     3
 10
13116.82702899998
 20
17145.891624
 30
0.0
 11
13116.82702899998
 21
20056.232867999999
 31
0.0
  0
LINE
  5
3354
  8
0-2
  6
CONTINUOUS
 62
     3
 10
13279.825537999999
 20
17052.792885999981
 30
0.0
 11
13279.825537999999
 21
20056.232867999999
 31
0.0
  0
LINE
  5
3355
  8
0-2
  6
CONTINUOUS
 62
     3
 10
13316.827688999991
 20
17031.661525
 30
0.0
 11
13316.827688999991
 21
20056.232867999999
 31
0.0
  0
LINE
  5
3356
  8
0-2
  6
CONTINUOUS
 62
     3
 10
13479.82619799999
 20
16938.564765999989
 30
0.0
 11
13479.82619799999
 21
20056.232867999999
 31
0.0
  0
LINE
  5
3357
  8
0-2
  6
CONTINUOUS
 62
     3
 10
13516.826369
 20
16917.42944599998
 30
0.0
 11
13516.826369
 21
20056.232867999999
 31
0.0
  0
LINE
  5
3358
  8
0-2
  6
CONTINUOUS
 62
     3
 10
13679.826858
 20
16824.332687999991
 30
0.0
 11
13679.826858
 21
20056.232867999999
 31
0.0
  0
LINE
  5
3359
  8
0-2
  6
CONTINUOUS
 62
     3
 10
13716.82702899998
 20
16803.197368000001
 30
0.0
 11
13716.82702899998
 21
20056.232867999999
 31
0.0
  0
LINE
  5
335A
  8
0-2
  6
CONTINUOUS
 62
     3
 10
12116.827689
 20
17663.889644999988
 30
0.0
 11
12116.827689
 21
20056.232867999999
 31
0.0
  0
LINE
  5
335B
  8
0-2
  6
CONTINUOUS
 62
     3
 10
10079.826858
 20
19104.892073999988
 30
0.0
 11
10079.826858
 21
20056.232867999999
 31
0.0
  0
LINE
  5
335C
  8
0-2
  6
CONTINUOUS
 62
     3
 10
10479.825207999989
 20
18876.42791599999
 30
0.0
 11
10479.825207999989
 21
20056.232867999999
 31
0.0
  0
LINE
  5
335D
  8
0-2
  6
CONTINUOUS
 62
     3
 10
10516.825379
 20
18855.296555000001
 30
0.0
 11
10516.825379
 21
20056.232867999999
 31
0.0
  0
LINE
  5
335E
  8
0-2
  6
CONTINUOUS
 62
     3
 10
10679.826858
 20
18762.197817
 30
0.0
 11
10679.826858
 21
20056.232867999999
 31
0.0
  0
LINE
  5
335F
  8
0-2
  6
CONTINUOUS
 62
     3
 10
10716.826039
 20
18741.062496999999
 30
0.0
 11
10716.826039
 21
20056.232867999999
 31
0.0
  0
LINE
  5
3360
  8
0-2
  6
CONTINUOUS
 62
     3
 10
10116.82603899999
 20
19083.756753999991
 30
0.0
 11
10116.82603899999
 21
20056.232867999999
 31
0.0
  0
LINE
  5
3361
  8
0-2
  6
CONTINUOUS
 62
     3
 10
10279.826527999991
 20
18990.659995000002
 30
0.0
 11
10279.826527999991
 21
20056.232867999999
 31
0.0
  0
LINE
  5
3362
  8
0-2
  6
CONTINUOUS
 62
     3
 10
10316.82669899999
 20
18969.528633999991
 30
0.0
 11
10316.82669899999
 21
20056.232867999999
 31
0.0
  0
LINE
  5
3363
  8
0-2
  6
CONTINUOUS
 62
     3
 10
11716.825378999991
 20
18301.898381999988
 30
0.0
 11
11716.825378999991
 21
20056.232867999999
 31
0.0
  0
LINE
  5
3364
  8
0-2
  6
CONTINUOUS
 62
     3
 10
11679.826198000001
 20
18258.521190999982
 30
0.0
 11
11679.826198000001
 21
20056.232867999999
 31
0.0
  0
LINE
  5
3365
  8
0-2
  6
CONTINUOUS
 62
     3
 10
11516.827688999991
 20
18284.140119999989
 30
0.0
 11
11516.827688999991
 21
20056.232867999999
 31
0.0
  0
LINE
  5
3366
  8
0-2
  6
CONTINUOUS
 62
     3
 10
11479.82454800001
 20
18305.273461000001
 30
0.0
 11
11479.82454800001
 21
20056.232867999999
 31
0.0
  0
LINE
  5
3367
  8
0-2
  6
CONTINUOUS
 62
     3
 10
11316.826039
 20
18398.370220000001
 30
0.0
 11
11316.826039
 21
20056.232867999999
 31
0.0
  0
LINE
  5
3368
  8
0-2
  6
CONTINUOUS
 62
     3
 10
11279.826858
 20
18419.50158099999
 30
0.0
 11
11279.826858
 21
20056.232867999999
 31
0.0
  0
LINE
  5
3369
  8
0-2
  6
CONTINUOUS
 62
     3
 10
11116.825378999991
 20
18512.602298000002
 30
0.0
 11
11116.825378999991
 21
20056.232867999999
 31
0.0
  0
LINE
  5
336A
  8
0-2
  6
CONTINUOUS
 62
     3
 10
11079.826198000001
 20
18533.73365899999
 30
0.0
 11
11079.826198000001
 21
20056.232867999999
 31
0.0
  0
LINE
  5
336B
  8
0-2
  6
CONTINUOUS
 62
     3
 10
10916.82669899999
 20
18626.834376999999
 30
0.0
 11
10916.82669899999
 21
20056.232867999999
 31
0.0
  0
LINE
  5
336C
  8
0-2
  6
CONTINUOUS
 62
     3
 10
10879.826528
 20
18647.965737999992
 30
0.0
 11
10879.826528
 21
20056.232867999999
 31
0.0
  0
LINE
  5
336D
  8
0-2
  6
CONTINUOUS
 62
     3
 10
11879.826857999989
 20
18222.97299599999
 30
0.0
 11
11879.826857999989
 21
20056.232867999999
 31
0.0
  0
LINE
  5
336E
  8
0-2
  6
CONTINUOUS
 62
     3
 10
11916.82603899999
 20
18135.690084000002
 30
0.0
 11
11916.82603899999
 21
20056.232867999999
 31
0.0
  0
LINE
  5
336F
  8
0-2
  6
CONTINUOUS
 62
     3
 10
9679.8255379999955
 20
19333.354252000001
 30
0.0
 11
9679.8255379999955
 21
20056.232867999999
 31
0.0
  0
LINE
  5
3370
  8
0-2
  6
CONTINUOUS
 62
     3
 10
9716.8266990000029
 20
19312.22289099999
 30
0.0
 11
9716.8266990000029
 21
20056.232867999999
 31
0.0
  0
LINE
  5
3371
  8
0-2
  6
CONTINUOUS
 62
     3
 10
9879.8271870000081
 20
19219.124151999989
 30
0.0
 11
9879.8271870000081
 21
20056.232867999999
 31
0.0
  0
LINE
  5
3372
  8
0-2
  6
CONTINUOUS
 62
     3
 10
9916.8253790000035
 20
19197.988831999981
 30
0.0
 11
9916.8253790000035
 21
20056.232867999999
 31
0.0
  0
LINE
  5
3373
  8
0-2
  6
CONTINUOUS
 62
     3
 10
9479.8258680000035
 20
19447.586329999998
 30
0.0
 11
9479.8258680000035
 21
20056.232867999999
 31
0.0
  0
LINE
  5
3374
  8
0-2
  6
CONTINUOUS
 62
     3
 10
9516.8260390000032
 20
19426.454969999992
 30
0.0
 11
9516.8260390000032
 21
20056.232867999999
 31
0.0
  0
LINE
  5
3375
  8
0-2
  6
CONTINUOUS
 62
     3
 10
9269.8280719999966
 20
19561.818409
 30
0.0
 11
9269.8280719999966
 21
20056.232867999999
 31
0.0
  0
LINE
  5
3376
  8
0-2
  6
CONTINUOUS
 62
     3
 10
9306.8252739999971
 20
19540.683088999991
 30
0.0
 11
9306.8252739999971
 21
20056.232867999999
 31
0.0
  0
LINE
  5
3377
  8
0-2
  6
CONTINUOUS
 62
     3
 10
12093.32585500001
 20
16973.730914
 30
0.0
 11
12427.60220900001
 21
17549.546714
 31
0.0
  0
LINE
  5
3378
  8
0-2
  6
CONTINUOUS
 62
     3
 10
12093.32585500001
 20
14055.730913999991
 30
0.0
 11
13712.154375
 21
16805.86773799999
 31
0.0
  0
LINE
  5
3379
  8
0-2
  6
CONTINUOUS
 62
     3
 10
11938.325591000001
 20
20056.232867999999
 30
0.0
 11
11938.325591000001
 21
20104.232233999999
 31
0.0
  0
LINE
  5
337A
  8
0-2
  6
CONTINUOUS
 62
     3
 10
12023.32611899999
 20
14019.23156
 30
0.0
 11
12023.32611899999
 21
13863.231638999991
 31
0.0
  0
LINE
  5
337B
  8
0-6
  6
CONTINUOUS
 62
     6
 10
10897.712468
 20
17161.55951399999
 30
0.0
 11
10836.564149
 21
17333.327858000001
 31
0.0
  0
LINE
  5
337C
  8
0-6
  6
CONTINUOUS
 62
     6
 10
10733.568807
 20
19831.955392
 30
0.0
 11
10877.472879999999
 21
20344.231046000001
 31
0.0
  0
LINE
  5
337D
  8
0-6
  6
CONTINUOUS
 62
     6
 10
10320.424473999999
 20
19937.732947
 30
0.0
 11
10026.493678000001
 21
20344.231046000001
 31
0.0
  0
LINE
  5
337E
  8
0-6
  6
CONTINUOUS
 62
     6
 10
10877.472879999999
 20
20344.231046000001
 30
0.0
 11
11395.159548999991
 21
20344.231046000001
 31
0.0
  0
LINE
  5
337F
  8
0-6
  6
CONTINUOUS
 62
     6
 10
10267.15958799998
 20
20234.134182000002
 30
0.0
 11
10057.96604399999
 21
20596.467242999988
 31
0.0
  0
LINE
  5
3380
  8
0-6
  6
CONTINUOUS
 62
     6
 10
9983.959762000004
 20
20724.650968000002
 30
0.0
 11
9787.9023039999975
 21
21064.229462999989
 31
0.0
  0
LINE
  5
3381
  8
0-6
  6
CONTINUOUS
 62
     6
 10
9787.9023039999975
 20
21064.229462999989
 30
0.0
 11
10630.33889299998
 21
21064.229462999989
 31
0.0
  0
LINE
  5
3382
  8
0-6
  6
CONTINUOUS
 62
     6
 10
9216.4958829999905
 20
20344.231046000001
 30
0.0
 11
10026.493678000001
 21
20344.231046000001
 31
0.0
  0
LINE
  5
3383
  8
0-6
  6
CONTINUOUS
 62
     6
 10
10035.99338799999
 20
17333.327858000001
 30
0.0
 11
10836.564149
 21
17333.327858000001
 31
0.0
  0
LINE
  5
3384
  8
0-6
  6
CONTINUOUS
 62
     6
 10
9269.8528159999914
 20
18364.441271
 30
0.0
 11
9799.8546370000095
 21
18364.441271
 31
0.0
  0
LINE
  5
3385
  8
0-6
  6
CONTINUOUS
 62
     6
 10
9915.7089309999974
 20
14250.12161800001
 30
0.0
 11
9998.5963229999925
 21
14437.06000199998
 31
0.0
  0
LINE
  5
3386
  8
0-6
  6
CONTINUOUS
 62
     6
 10
9998.5963229999925
 20
14437.06000199998
 30
0.0
 11
10798.594012999991
 21
14437.06000199998
 31
0.0
  0
LINE
  5
3387
  8
0-6
  6
CONTINUOUS
 62
     6
 10
10906.120473000001
 20
13063.23098
 30
0.0
 11
11768.69965399998
 21
13063.23098
 31
0.0
  0
LINE
  5
3388
  8
0-6
  6
CONTINUOUS
 62
     6
 10
10500.008379000001
 20
13726.76263899999
 30
0.0
 11
10906.120473000001
 21
13063.23098
 31
0.0
  0
LINE
  5
3389
  8
0-6
  6
CONTINUOUS
 62
     6
 10
7289.4266259999977
 20
12663.23163899998
 30
0.0
 11
8369.4272199999978
 21
12663.23163899998
 31
0.0
  0
LINE
  5
338A
  8
0-6
  6
CONTINUOUS
 62
     6
 10
8927.9345310000008
 20
14453.50287299999
 30
0.0
 11
8369.4272199999978
 21
12663.23163899998
 31
0.0
  0
LINE
  5
338B
  8
0-6
  6
CONTINUOUS
 62
     6
 10
9170.8115629999957
 20
18585.234793999982
 30
0.0
 11
9269.8528159999914
 21
18364.441271
 31
0.0
  0
LINE
  5
338C
  8
0-6
  6
CONTINUOUS
 62
     6
 10
10298.48942899999
 20
16460.34672899999
 30
0.0
 11
11178.488373
 21
16460.34672899999
 31
0.0
  0
LINE
  5
338D
  8
0-6
  6
CONTINUOUS
 62
     6
 10
10087.22332899998
 20
16258.287369999989
 30
0.0
 11
10298.48942899999
 21
16460.34672899999
 31
0.0
  0
LINE
  5
338E
  8
0-6
  6
CONTINUOUS
 62
     6
 10
11966.325881000001
 20
15250.10271999999
 30
0.0
 11
11701.13769499999
 21
15619.06122999999
 31
0.0
  0
LINE
  5
338F
  8
0-6
  6
CONTINUOUS
 62
     6
 10
11454.90043
 20
15619.06122999999
 30
0.0
 11
11701.13769499999
 21
15619.06122999999
 31
0.0
  0
LINE
  5
3390
  8
0-6
  6
CONTINUOUS
 62
     6
 10
14862.12902499998
 20
20989.898539999998
 30
0.0
 11
16537.128365
 21
20989.898539999998
 31
0.0
  0
LINE
  5
3391
  8
0-6
  6
CONTINUOUS
 62
     6
 10
14083.235972
 20
20229.553575999991
 30
0.0
 11
14862.12902499998
 21
20989.898539999998
 31
0.0
  0
LINE
  5
3392
  8
0-6
  6
CONTINUOUS
 62
     6
 10
8953.3772829999907
 20
14445.52145499998
 30
0.0
 11
8975.8250239999907
 21
14606.16730499999
 31
0.0
  0
LINE
  5
3393
  8
0-6
  6
CONTINUOUS
 62
     6
 10
8975.8250239999907
 20
14606.16730499999
 30
0.0
 11
8902.4888089999949
 21
14461.48627199998
 31
0.0
  0
LINE
  5
3394
  8
0-6
  6
CONTINUOUS
 62
     6
 10
8975.8250239999907
 20
14606.16730499999
 30
0.0
 11
8953.3772829999907
 21
14445.52145499998
 31
0.0
  0
LINE
  5
3395
  8
0-6
  6
CONTINUOUS
 62
     6
 10
8953.3772829999907
 20
14445.52145499998
 30
0.0
 11
8902.4888089999949
 21
14461.48627199998
 31
0.0
  0
LINE
  5
3396
  8
0-6
  6
CONTINUOUS
 62
     6
 10
8902.4888089999949
 20
14461.48627199998
 30
0.0
 11
8975.8250239999907
 21
14606.16730499999
 31
0.0
  0
LINE
  5
3397
  8
0-6
  6
CONTINUOUS
 62
     6
 10
8902.4888089999949
 20
14461.48627199998
 30
0.0
 11
8953.3772829999907
 21
14445.52145499998
 31
0.0
  0
LINE
  5
3398
  8
0-6
  6
CONTINUOUS
 62
     6
 10
9891.5588039999984
 20
14261.433577
 30
0.0
 11
9847.8361880000048
 21
14105.230755
 31
0.0
  0
LINE
  5
3399
  8
0-6
  6
CONTINUOUS
 62
     6
 10
9847.8361880000048
 20
14105.230755
 30
0.0
 11
9939.8570780000045
 21
14238.808669
 31
0.0
  0
LINE
  5
339A
  8
0-6
  6
CONTINUOUS
 62
     6
 10
9847.8361880000048
 20
14105.230755
 30
0.0
 11
9891.5588039999984
 21
14261.433577
 31
0.0
  0
LINE
  5
339B
  8
0-6
  6
CONTINUOUS
 62
     6
 10
9891.5588039999984
 20
14261.433577
 30
0.0
 11
9939.8570780000045
 21
14238.808669
 31
0.0
  0
LINE
  5
339C
  8
0-6
  6
CONTINUOUS
 62
     6
 10
9939.8570780000045
 20
14238.808669
 30
0.0
 11
9847.8361880000048
 21
14105.230755
 31
0.0
  0
LINE
  5
339D
  8
0-6
  6
CONTINUOUS
 62
     6
 10
9939.8570780000045
 20
14238.808669
 30
0.0
 11
9891.5588039999984
 21
14261.433577
 31
0.0
  0
LINE
  5
339E
  8
0-6
  6
CONTINUOUS
 62
     6
 10
10522.75205799998
 20
13740.683602999999
 30
0.0
 11
10416.481603
 21
13863.231638999991
 31
0.0
  0
LINE
  5
339F
  8
0-6
  6
CONTINUOUS
 62
     6
 10
10416.481603
 20
13863.231638999991
 30
0.0
 11
10477.263710999991
 21
13712.841673999999
 31
0.0
  0
LINE
  5
33A0
  8
0-6
  6
CONTINUOUS
 62
     6
 10
10416.481603
 20
13863.231638999991
 30
0.0
 11
10522.75205799998
 21
13740.683602999999
 31
0.0
  0
LINE
  5
33A1
  8
0-6
  6
CONTINUOUS
 62
     6
 10
10522.75205799998
 20
13740.683602999999
 30
0.0
 11
10477.263710999991
 21
13712.841673999999
 31
0.0
  0
LINE
  5
33A2
  8
0-6
  6
CONTINUOUS
 62
     6
 10
10477.263710999991
 20
13712.841673999999
 30
0.0
 11
10416.481603
 21
13863.231638999991
 31
0.0
  0
LINE
  5
33A3
  8
0-6
  6
CONTINUOUS
 62
     6
 10
10477.263710999991
 20
13712.841673999999
 30
0.0
 11
10522.75205799998
 21
13740.683602999999
 31
0.0
  0
LINE
  5
33A4
  8
0-6
  6
CONTINUOUS
 62
     6
 10
11893.947753
 20
15395.26675599999
 30
0.0
 11
11966.325881000001
 21
15250.10271999999
 31
0.0
  0
LINE
  5
33A5
  8
0-6
  6
CONTINUOUS
 62
     6
 10
11966.325881000001
 20
15250.10271999999
 30
0.0
 11
11850.77940199998
 21
15363.94582399998
 31
0.0
  0
LINE
  5
33A6
  8
0-6
  6
CONTINUOUS
 62
     6
 10
11966.325881000001
 20
15250.10271999999
 30
0.0
 11
11893.947753
 21
15395.26675599999
 31
0.0
  0
LINE
  5
33A7
  8
0-6
  6
CONTINUOUS
 62
     6
 10
11893.947753
 20
15395.26675599999
 30
0.0
 11
11850.77940199998
 21
15363.94582399998
 31
0.0
  0
LINE
  5
33A8
  8
0-6
  6
CONTINUOUS
 62
     6
 10
11850.77940199998
 20
15363.94582399998
 30
0.0
 11
11966.325881000001
 21
15250.10271999999
 31
0.0
  0
LINE
  5
33A9
  8
0-6
  6
CONTINUOUS
 62
     6
 10
11850.77940199998
 20
15363.94582399998
 30
0.0
 11
11893.947753
 21
15395.26675599999
 31
0.0
  0
LINE
  5
33AA
  8
0-6
  6
CONTINUOUS
 62
     6
 10
10068.790052
 20
16277.557983000001
 30
0.0
 11
9971.5937099999956
 21
16147.69760499999
 31
0.0
  0
LINE
  5
33AB
  8
0-6
  6
CONTINUOUS
 62
     6
 10
9971.5937099999956
 20
16147.69760499999
 30
0.0
 11
10105.65462599999
 21
16239.014777
 31
0.0
  0
LINE
  5
33AC
  8
0-6
  6
CONTINUOUS
 62
     6
 10
9971.5937099999956
 20
16147.69760499999
 30
0.0
 11
10068.790052
 21
16277.557983000001
 31
0.0
  0
LINE
  5
33AD
  8
0-6
  6
CONTINUOUS
 62
     6
 10
10068.790052
 20
16277.557983000001
 30
0.0
 11
10105.65462599999
 21
16239.014777
 31
0.0
  0
LINE
  5
33AE
  8
0-6
  6
CONTINUOUS
 62
     6
 10
10105.65462599999
 20
16239.014777
 30
0.0
 11
9971.5937099999956
 21
16147.69760499999
 31
0.0
  0
LINE
  5
33AF
  8
0-6
  6
CONTINUOUS
 62
     6
 10
10105.65462599999
 20
16239.014777
 30
0.0
 11
10068.790052
 21
16277.557983000001
 31
0.0
  0
LINE
  5
33B0
  8
0-6
  6
CONTINUOUS
 62
     6
 10
9195.1428159999978
 20
18596.14788
 30
0.0
 11
9105.3261189999957
 21
18731.216371999992
 31
0.0
  0
LINE
  5
33B1
  8
0-6
  6
CONTINUOUS
 62
     6
 10
9105.3261189999957
 20
18731.216371999992
 30
0.0
 11
9146.4803099999972
 21
18574.319728999992
 31
0.0
  0
LINE
  5
33B2
  8
0-6
  6
CONTINUOUS
 62
     6
 10
9105.3261189999957
 20
18731.216371999992
 30
0.0
 11
9195.1428159999978
 21
18596.14788
 31
0.0
  0
LINE
  5
33B3
  8
0-6
  6
CONTINUOUS
 62
     6
 10
9195.1428159999978
 20
18596.14788
 30
0.0
 11
9146.4803099999972
 21
18574.319728999992
 31
0.0
  0
LINE
  5
33B4
  8
0-6
  6
CONTINUOUS
 62
     6
 10
9146.4803099999972
 20
18574.319728999992
 30
0.0
 11
9105.3261189999957
 21
18731.216371999992
 31
0.0
  0
LINE
  5
33B5
  8
0-6
  6
CONTINUOUS
 62
     6
 10
9146.4803099999972
 20
18574.319728999992
 30
0.0
 11
9195.1428159999978
 21
18596.14788
 31
0.0
  0
LINE
  5
33B6
  8
0-6
  6
CONTINUOUS
 62
     6
 10
10923.350202999991
 20
17168.89561
 30
0.0
 11
10941.715185999999
 21
17007.731124999991
 31
0.0
  0
LINE
  5
33B7
  8
0-6
  6
CONTINUOUS
 62
     6
 10
10941.715185999999
 20
17007.731124999991
 30
0.0
 11
10872.07374299999
 21
17154.227376999988
 31
0.0
  0
LINE
  5
33B8
  8
0-6
  6
CONTINUOUS
 62
     6
 10
10941.715185999999
 20
17007.731124999991
 30
0.0
 11
10923.350202999991
 21
17168.89561
 31
0.0
  0
LINE
  5
33B9
  8
0-6
  6
CONTINUOUS
 62
     6
 10
10923.350202999991
 20
17168.89561
 30
0.0
 11
10872.07374299999
 21
17154.227376999988
 31
0.0
  0
LINE
  5
33BA
  8
0-6
  6
CONTINUOUS
 62
     6
 10
10872.07374299999
 20
17154.227376999988
 30
0.0
 11
10941.715185999999
 21
17007.731124999991
 31
0.0
  0
LINE
  5
33BB
  8
0-6
  6
CONTINUOUS
 62
     6
 10
10872.07374299999
 20
17154.227376999988
 30
0.0
 11
10923.350202999991
 21
17168.89561
 31
0.0
  0
LINE
  5
33BC
  8
0-6
  6
CONTINUOUS
 62
     6
 10
10213.728423
 20
20059.908834000002
 30
0.0
 11
10320.424473999999
 21
19937.732947
 31
0.0
  0
LINE
  5
33BD
  8
0-6
  6
CONTINUOUS
 62
     6
 10
10320.424473999999
 20
19937.732947
 30
0.0
 11
10259.119773
 21
20087.909123999991
 31
0.0
  0
LINE
  5
33BE
  8
0-6
  6
CONTINUOUS
 62
     6
 10
10320.424473999999
 20
19937.732947
 30
0.0
 11
10213.728423
 21
20059.908834000002
 31
0.0
  0
LINE
  5
33BF
  8
0-6
  6
CONTINUOUS
 62
     6
 10
10213.728423
 20
20059.908834000002
 30
0.0
 11
10259.119773
 21
20087.909123999991
 31
0.0
  0
LINE
  5
33C0
  8
0-6
  6
CONTINUOUS
 62
     6
 10
10259.119773
 20
20087.909123999991
 30
0.0
 11
10320.424473999999
 21
19937.732947
 31
0.0
  0
LINE
  5
33C1
  8
0-6
  6
CONTINUOUS
 62
     6
 10
10259.119773
 20
20087.909123999991
 30
0.0
 11
10213.728423
 21
20059.908834000002
 31
0.0
  0
LINE
  5
33C2
  8
0-6
  6
CONTINUOUS
 62
     6
 10
10707.681653
 20
19838.35517499999
 30
0.0
 11
10695.181983
 21
19676.63048699998
 31
0.0
  0
LINE
  5
33C3
  8
0-6
  6
CONTINUOUS
 62
     6
 10
10695.181983
 20
19676.63048699998
 30
0.0
 11
10759.456951
 21
19825.559566999989
 31
0.0
  0
LINE
  5
33C4
  8
0-6
  6
CONTINUOUS
 62
     6
 10
10695.181983
 20
19676.63048699998
 30
0.0
 11
10707.681653
 21
19838.35517499999
 31
0.0
  0
LINE
  5
33C5
  8
0-6
  6
CONTINUOUS
 62
     6
 10
10707.681653
 20
19838.35517499999
 30
0.0
 11
10759.456951
 21
19825.559566999989
 31
0.0
  0
LINE
  5
33C6
  8
0-6
  6
CONTINUOUS
 62
     6
 10
10759.456951
 20
19825.559566999989
 30
0.0
 11
10695.181983
 21
19676.63048699998
 31
0.0
  0
LINE
  5
33C7
  8
0-6
  6
CONTINUOUS
 62
     6
 10
10759.456951
 20
19825.559566999989
 30
0.0
 11
10707.681653
 21
19838.35517499999
 31
0.0
  0
LINE
  5
33C8
  8
0-6
  6
CONTINUOUS
 62
     6
 10
10245.506624
 20
20221.633521999978
 30
0.0
 11
10342.15958799999
 21
20104.232233999999
 31
0.0
  0
LINE
  5
33C9
  8
0-6
  6
CONTINUOUS
 62
     6
 10
10342.15958799999
 20
20104.232233999999
 30
0.0
 11
10288.808593
 21
20246.636820999989
 31
0.0
  0
LINE
  5
33CA
  8
0-6
  6
CONTINUOUS
 62
     6
 10
10342.15958799999
 20
20104.232233999999
 30
0.0
 11
10245.506624
 21
20221.633521999978
 31
0.0
  0
LINE
  5
33CB
  8
0-6
  6
CONTINUOUS
 62
     6
 10
10245.506624
 20
20221.633521999978
 30
0.0
 11
10288.808593
 21
20246.636820999989
 31
0.0
  0
LINE
  5
33CC
  8
0-6
  6
CONTINUOUS
 62
     6
 10
10288.808593
 20
20246.636820999989
 30
0.0
 11
10342.15958799999
 21
20104.232233999999
 31
0.0
  0
LINE
  5
33CD
  8
0-6
  6
CONTINUOUS
 62
     6
 10
10288.808593
 20
20246.636820999989
 30
0.0
 11
10245.506624
 21
20221.633521999978
 31
0.0
  0
LINE
  5
33CE
  8
0-6
  6
CONTINUOUS
 62
     6
 10
14064.014846
 20
20248.038319999989
 30
0.0
 11
13972.32750499999
 21
20114.230781999991
 31
0.0
  0
LINE
  5
33CF
  8
0-6
  6
CONTINUOUS
 62
     6
 10
13972.32750499999
 20
20114.230781999991
 30
0.0
 11
14102.455118
 21
20211.07081099998
 31
0.0
  0
LINE
  5
33D0
  8
0-6
  6
CONTINUOUS
 62
     6
 10
13972.32750499999
 20
20114.230781999991
 30
0.0
 11
14064.014846
 21
20248.038319999989
 31
0.0
  0
LINE
  5
33D1
  8
0-6
  6
CONTINUOUS
 62
     6
 10
14064.014846
 20
20248.038319999989
 30
0.0
 11
14102.455118
 21
20211.07081099998
 31
0.0
  0
LINE
  5
33D2
  8
0-6
  6
CONTINUOUS
 62
     6
 10
14102.455118
 20
20211.07081099998
 30
0.0
 11
13972.32750499999
 21
20114.230781999991
 31
0.0
  0
LINE
  5
33D3
  8
0-6
  6
CONTINUOUS
 62
     6
 10
14102.455118
 20
20211.07081099998
 30
0.0
 11
14064.014846
 21
20248.038319999989
 31
0.0
  0
LINE
  5
33D4
  8
2-0
  6
DASHED3
 62
     6
 10
9105.3261189999957
 20
19852.732418999982
 30
0.0
 11
13889.82611899999
 21
19852.732418999982
 31
0.0
  0
LINE
  5
33D5
  8
2-0
  6
DASHED3
 62
     6
 10
9062.8248649999914
 20
19680.047136000001
 30
0.0
 11
9062.8248649999914
 21
19937.732947
 31
0.0
  0
LINE
  5
33D6
  8
2-0
  6
DASHED3
 62
     6
 10
9105.3261189999957
 20
19655.772300000001
 30
0.0
 11
9105.3261189999957
 21
19937.732947
 31
0.0
  0
LINE
  5
33D7
  8
2-0
  6
DASHED3
 62
     6
 10
9062.8248649999914
 20
19937.732947
 30
0.0
 11
13932.32737299998
 21
19937.732947
 31
0.0
  0
LINE
  5
33D8
  8
2-0
  6
DASHED3
 62
     6
 10
13819.826382999991
 20
16973.730914
 30
0.0
 11
12093.32585500001
 21
19891.730914
 31
0.0
  0
LINE
  5
33D9
  8
2-0
  6
DASHED3
 62
     6
 10
13497.19944300001
 20
16928.73249799999
 30
0.0
 11
13889.82611899999
 21
16928.73249799999
 31
0.0
  0
LINE
  5
33DA
  8
2-0
  6
DASHED3
 62
     6
 10
13358.863756000001
 20
17007.731124999991
 30
0.0
 11
13889.82611899999
 21
17007.731124999991
 31
0.0
  0
LINE
  5
33DB
  8
2-0
  6
DASHED3
 62
     6
 10
13889.82611899999
 20
16709.243476999989
 30
0.0
 11
13889.82611899999
 21
19937.732947
 31
0.0
  0
LINE
  5
33DC
  8
2-0
  6
DASHED3
 62
     6
 10
13932.32737299998
 20
16684.968640999989
 30
0.0
 11
13932.32737299998
 21
19937.732947
 31
0.0
  0
LINE
  5
33DD
  8
2-0
  6
DASHED3
 62
     6
 10
11953.327371999991
 20
19891.730914
 30
0.0
 11
10808.31542899998
 21
18688.809144999999
 31
0.0
  0
LINE
  5
33DE
  8
2-0
  6
DASHED3
 62
     6
 10
9175.3248649999987
 20
19891.730914
 30
0.0
 11
9760.8957319999936
 21
19287.051331999999
 31
0.0
  0
LINE
  5
33DF
  8
2-0
  6
DASHED3
 62
     6
 10
12427.60220900001
 20
17549.546714
 30
0.0
 11
13819.826382999991
 21
19891.730914
 31
0.0
  0
LINE
  5
33E0
  8
2-0
  6
DASHED3
 62
     6
 10
13712.154375
 20
16805.86773799999
 30
0.0
 11
13819.826382999991
 21
16973.730914
 31
0.0
  0
LINE
  5
33E1
  8
2-0
  6
CENTER2
 62
     6
 10
13889.82611899999
 20
21134.233157999992
 30
0.0
 11
13889.82611899999
 21
20184.232498000001
 31
0.0
  0
LINE
  5
33E2
  8
2-0
  6
CENTER2
 62
     6
 10
12023.32611899999
 20
21134.229199000009
 30
0.0
 11
12023.32611899999
 21
20184.232498000001
 31
0.0
  0
LINE
  5
33E3
  8
2-0
  6
CENTER2
 62
     6
 10
7775.8260139999929
 20
19891.730914
 30
0.0
 11
9422.3272139999972
 21
19891.730914
 31
0.0
  0
LINE
  5
33E4
  8
2-0
  6
CENTER2
 62
     6
 10
9105.3261189999957
 20
21134.229199000009
 30
0.0
 11
9105.3261189999957
 21
20184.232498000001
 31
0.0
  0
LINE
  5
33E5
  8
2-0
  6
CENTER2
 62
     6
 10
7775.8260139999929
 20
16973.730914
 30
0.0
 11
9422.3272139999972
 21
16973.730914
 31
0.0
  0
LINE
  5
33E6
  8
2-0
  6
CENTER2
 62
     6
 10
7775.8260139999929
 20
14055.730913999991
 30
0.0
 11
9422.3272139999972
 21
14055.730913999991
 31
0.0
  0
LINE
  5
33E7
  8
2-0
  6
CENTER2
 62
     6
 10
13564.32788699999
 20
16973.730914
 30
0.0
 11
14188.59188899999
 21
16973.730914
 31
0.0
  0
LINE
  5
33E8
  8
2-0
  6
CENTER2
 62
     6
 10
13564.32788699999
 20
14055.730913999991
 30
0.0
 11
14188.59188899999
 21
14055.730913999991
 31
0.0
  0
LINE
  5
33E9
  8
2-0
  6
DASHED3
 62
     6
 10
11966.325881000001
 20
18018.918281999999
 30
0.0
 11
11966.325881000001
 21
19852.732418999982
 31
0.0
  0
LINE
  5
33EA
  8
2-0
  6
DASHED3
 62
     6
 10
12023.32611899999
 20
17884.457502999991
 30
0.0
 11
12023.32611899999
 21
19852.732418999982
 31
0.0
  0
LINE
  5
33EB
  8
0-2
  6
CONTINUOUS
 62
     3
 10
12079.82553799999
 20
17751.172557999991
 30
0.0
 11
12079.82553799999
 21
20056.232867999999
 31
0.0
  0
LINE
  5
33EC
  8
2-0
  6
DASHED3
 62
     6
 10
12080.32635599999
 20
17749.992764999999
 30
0.0
 11
12080.32635599999
 21
19852.732418999982
 31
0.0
  0
CIRCLE
  5
33ED
  8
0-1
  6
CONTINUOUS
 62
     4
 10
12023.32611899999
 20
21334.229859000021
 30
0.0
 40
199.9999949999999
  0
CIRCLE
  5
33EE
  8
0-1
  6
CONTINUOUS
 62
     4
 10
9105.3261189999957
 20
21334.229859000021
 30
0.0
 40
199.9999949999999
  0
CIRCLE
  5
33EF
  8
0-1
  6
CONTINUOUS
 62
     4
 10
7575.8273339999869
 20
19891.730914
 30
0.0
 40
199.9999949999999
  0
CIRCLE
  5
33F0
  8
0-1
  6
CONTINUOUS
 62
     4
 10
7575.8273339999869
 20
16973.730914
 30
0.0
 40
199.9999949999999
  0
CIRCLE
  5
33F1
  8
0-1
  6
CONTINUOUS
 62
     4
 10
7575.8273339999869
 20
14055.730913999991
 30
0.0
 40
199.9999949999999
  0
CIRCLE
  5
33F2
  8
0-1
  6
CONTINUOUS
 62
     4
 10
13889.82611899999
 20
21334.231837999982
 30
0.0
 40
199.9999949999999
  0
CIRCLE
  5
33F3
  8
0-1
  6
CONTINUOUS
 62
     4
 10
15128.715688
 20
1375.9998579999999
 30
0.0
 40
20.0
  0
ARC
  5
33F4
  8
0-1
  6
CONTINUOUS
 62
     4
 10
15128.715688
 20
1375.9998579999999
 30
0.0
 40
20.0
 50
180.0
 51
0.0
  0
ARC
  5
33F5
  8
0-1
  6
CONTINUOUS
 62
     4
 10
15128.715688
 20
1375.9998579999999
 30
0.0
 40
20.0
 50
0.0
 51
179.99998499999839
  0
CIRCLE
  5
33F6
  8
0-1
  6
CONTINUOUS
 62
     4
 10
15128.715688
 20
1776.0001879999991
 30
0.0
 40
20.0
  0
ARC
  5
33F7
  8
0-1
  6
CONTINUOUS
 62
     4
 10
15128.715688
 20
1776.0001879999991
 30
0.0
 40
20.0
 50
180.0
 51
0.0
  0
ARC
  5
33F8
  8
0-1
  6
CONTINUOUS
 62
     4
 10
15128.715688
 20
1776.0001879999991
 30
0.0
 40
20.0
 50
0.0
 51
179.99998499999839
  0
ARC
  5
33F9
  8
0-2
  6
CONTINUOUS
 62
     3
 10
9024.8249969999961
 20
20109.232497999979
 30
0.0
 40
5.0
 50
90.0
 51
180.0
  0
ARC
  5
33FA
  8
0-2
  6
CONTINUOUS
 62
     3
 10
9088.3279529999909
 20
20109.232497999979
 30
0.0
 40
5.0
 50
0.0
 51
90.0
  0
ARC
  5
33FB
  8
0-2
  6
CONTINUOUS
 62
     3
 10
9088.3279529999909
 20
20079.232893999979
 30
0.0
 40
5.0
 50
269.9999850001808
 51
0.0
  0
ARC
  5
33FC
  8
0-2
  6
CONTINUOUS
 62
     3
 10
13906.828244
 20
20079.232893999979
 30
0.0
 40
5.0
 50
180.0
 51
269.9999850001808
  0
ARC
  5
33FD
  8
0-2
  6
CONTINUOUS
 62
     3
 10
13906.828244
 20
20109.232497999979
 30
0.0
 40
5.0
 50
90.0
 51
180.0
  0
ARC
  5
33FE
  8
0-2
  6
CONTINUOUS
 62
     3
 10
13970.32625099998
 20
20109.232497999979
 30
0.0
 40
5.0
 50
0.0
 51
90.0
  0
TEXT
  5
33FF
  8
0-1
  6
CONTINUOUS
 62
     7
 10
13840.474740999991
 20
21241.626
 30
0.0
 40
160.0
  1
3
 72
     4
 11
13893.808074333319
 21
21321.626
 31
0.0
  0
TEXT
  5
3400
  8
0-1
  6
CONTINUOUS
 62
     7
 10
11973.974741
 20
21241.62600000004
 30
0.0
 40
160.0
  1
2
 72
     4
 11
12027.308074333339
 21
21321.62600000004
 31
0.0
  0
TEXT
  5
3401
  8
0-1
  6
CONTINUOUS
 62
     7
 10
9055.9747409999945
 20
21241.62600000004
 30
0.0
 40
160.0
  1
1
 72
     4
 11
9082.6414076666606
 21
21321.62600000004
 31
0.0
  0
TEXT
  5
3402
  8
0-1
  6
CONTINUOUS
 62
     7
 10
7526.475956000002
 20
19799.12705599999
 30
0.0
 40
160.0
  1
C
 72
     4
 11
7579.8092893333351
 21
19879.12705599999
 31
0.0
  0
TEXT
  5
3403
  8
0-1
  6
CONTINUOUS
 62
     7
 10
7526.475956000002
 20
16881.127055000001
 30
0.0
 40
160.0
  1
B
 72
     4
 11
7579.8092893333351
 21
16961.127055000001
 31
0.0
  0
TEXT
  5
3404
  8
0-1
  6
CONTINUOUS
 62
     7
 10
7526.475956000002
 20
13963.12705500001
 30
0.0
 40
160.0
  1
A
 72
     4
 11
7579.8092893333351
 21
14043.12705500001
 31
0.0
  0
TEXT
  5
3405
  8
0-1
  6
CONTINUOUS
 62
     7
 10
16676.697239000001
 20
1656.0000389999991
 30
0.0
 40
160.0
  1
H
  0
TEXT
  5
3406
  8
0-1
  6
CONTINUOUS
 62
     7
 10
15176.146933000011
 20
1656.0000389999991
 30
0.0
 40
160.0
  1
（ ）内寸法ハ、  タ イプヲ示ス。
  0
TEXT
  5
3407
  8
0-1
  6
CONTINUOUS
 62
     7
 10
15288.715227000001
 20
1256.0000809999999
 30
0.0
 40
160.0
  1
有効高サハ、基礎高サヲ含ミマセン。
  0
TEXT
  5
3408
  8
0-6
  6
CONTINUOUS
 62
     7
 10
10957.472153999999
 20
20424.231309999999
 30
0.0
 40
160.0
  1
屋根
 72
     4
 11
11128.138820666671
 21
20504.231309999999
 31
0.0
  0
TEXT
  5
3409
  8
0-6
  6
CONTINUOUS
 62
     7
 10
9867.9015779999936
 20
21144.229726999991
 30
0.0
 40
160.0
  1
鼻隠し後
 72
     4
 11
10230.56824466666
 21
21224.229726999991
 31
0.0
  0
TEXT
  5
340A
  8
0-6
  6
CONTINUOUS
 62
     7
 10
9306.4972410000028
 20
20424.231309999999
 30
0.0
 40
160.0
  1
桁（後）
 72
     4
 11
9626.4972410000028
 21
20504.231309999999
 31
0.0
  0
TEXT
  5
340B
  8
0-6
  6
CONTINUOUS
 62
     7
 10
10116.562763
 20
17413.326142000002
 30
0.0
 40
160.0
  1
桁（中）
 72
     4
 11
10436.562763
 21
17493.326142000002
 31
0.0
  0
TEXT
  5
340C
  8
0-6
  6
CONTINUOUS
 62
     7
 10
10078.59460699999
 20
14517.058286999991
 30
0.0
 40
160.0
  1
桁（前）
 72
     4
 11
10398.59460699999
 21
14597.058286999991
 31
0.0
  0
TEXT
  5
340D
  8
0-6
  6
CONTINUOUS
 62
     7
 10
10986.119747000001
 20
13143.231242999989
 30
0.0
 40
160.0
  1
鼻隠し前
 72
     4
 11
11348.78641366667
 21
13223.231242999989
 31
0.0
  0
TEXT
  5
340E
  8
0-6
  6
CONTINUOUS
 62
     7
 10
7369.4283739999928
 20
12743.22992400001
 30
0.0
 40
160.0
  1
ケラバ 左
 72
     4
 11
7785.4283739999937
 21
12823.22992400001
 31
0.0
  0
TEXT
  5
340F
  8
0-6
  6
CONTINUOUS
 62
     7
 10
9359.8521950000068
 20
18444.441534999991
 30
0.0
 40
160.0
  1
上枠
 72
     4
 11
9530.5188616666728
 21
18524.441535000002
 31
0.0
  0
TEXT
  5
3410
  8
0-6
  6
CONTINUOUS
 62
     7
 10
10378.486722999991
 20
16540.346992999999
 30
0.0
 40
160.0
  1
ブレース
 72
     4
 11
10741.153389666661
 21
16625.680326333331
 31
0.0
  0
TEXT
  5
3411
  8
0-6
  6
CONTINUOUS
 62
     7
 10
11471.1404
 20
15699.06347299998
 30
0.0
 40
160.0
  1
梁
 72
     4
 11
11545.80706666667
 21
15779.06347299998
 31
0.0
  0
TEXT
  5
3412
  8
0-6
  6
CONTINUOUS
 62
     7
 10
14942.12928899999
 20
21069.898804
 30
0.0
 40
160.0
  1
鼻隠しコーナー後
 72
     4
 11
15688.795955666659
 21
21149.898804
 31
0.0
  0
TEXT
  5
3413
  8
2-0
  6
CONTINUOUS
 62
     7
 10
9879.4352430000054
 20
11798.40618911071
 30
0.0
 40
160.0
  1
小 屋 伏 図
 50
359.99980699999981
 72
     4
 11
10380.768845809331
 21
11878.40450037622
 31
0.0
  0
TEXT
  5
341B
  8
2-0
  6
CONTINUOUS
 62
     7
 10
11732.261030946949
 20
11825.59986937623
 30
0.0
 40
160.0
  1
1
 72
     4
 11
11758.927697613621
 21
11905.59986937623
 31
0.0
  0
TEXT
  5
341C
  8
2-0
  6
CONTINUOUS
 62
     7
 10
11975.349748197639
 20
11745.601337376231
 30
0.0
 40
160.0
  1
80
 72
     4
 11
12095.349748197639
 21
11825.601337376231
 31
0.0
  0
TEXT
  5
341D
  8
2-0
  6
CONTINUOUS
 62
     7
 10
11233.262996946951
 20
11798.40450037622
 30
0.0
 40
160.0
  1
(S=  /   )
 72
     4
 11
11793.262996946951
 21
11878.40450037622
 31
0.0
  0
LINE
  5
341E
  8
0-1
  6
CONTINUOUS
 62
     4
 10
15006.15782100001
 20
6256.3200620000034
 30
0.0
 11
19908.91308599999
 21
6256.3200620000034
 31
0.0
  0
LINE
  5
341F
  8
0-1
  6
CONTINUOUS
 62
     3
 10
9012.6593379999977
 20
8267.3654449999976
 30
0.0
 11
14893.65874399998
 21
8267.3654449999976
 31
0.0
  0
LINE
  5
3420
  8
0-1
  6
CONTINUOUS
 62
     3
 10
8302.6594689999984
 20
6256.3200620000034
 30
0.0
 11
14926.158546000001
 21
6256.3200620000034
 31
0.0
  0
LINE
  5
3421
  8
0-1
  6
CONTINUOUS
 62
     3
 10
9107.6594040000018
 20
6406.320061999998
 30
0.0
 11
11880.658677999991
 21
6406.320061999998
 31
0.0
  0
LINE
  5
3422
  8
0-1
  6
CONTINUOUS
 62
     3
 10
8985.1585459999988
 20
6356.3194020000001
 30
0.0
 11
14926.158546000001
 21
6356.3194020000001
 31
0.0
  0
LINE
  5
3423
  8
0-1
  6
CONTINUOUS
 62
     3
 10
9107.6594040000018
 20
8267.3654449999976
 30
0.0
 11
9107.6594040000018
 21
6356.319402000001
 31
0.0
  0
LINE
  5
3424
  8
0-1
  6
CONTINUOUS
 62
     3
 10
8992.6572919999981
 20
8389.4007859999983
 30
0.0
 11
8992.6572919999981
 21
6356.319402000001
 31
0.0
  0
LINE
  5
3425
  8
0-1
  6
CONTINUOUS
 62
     3
 10
9012.6593379999977
 20
8390.0183960000031
 30
0.0
 11
9012.6593379999977
 21
6356.319402000001
 31
0.0
  0
LINE
  5
3426
  8
0-1
  6
CONTINUOUS
 62
     3
 10
9231.1585979999982
 20
6406.320061999998
 30
0.0
 11
9231.1585979999982
 21
8267.3654449999976
 31
0.0
  0
LINE
  5
3427
  8
0-1
  6
CONTINUOUS
 62
     3
 10
9246.158400999997
 20
6406.320061999998
 30
0.0
 11
9246.158400999997
 21
8267.3654449999976
 31
0.0
  0
LINE
  5
3428
  8
0-1
  6
CONTINUOUS
 62
     3
 10
9647.1573979999903
 20
6406.320061999998
 30
0.0
 11
9647.1573979999903
 21
8267.3654449999976
 31
0.0
  0
LINE
  5
3429
  8
0-1
  6
CONTINUOUS
 62
     3
 10
9632.1575959999864
 20
6406.320061999998
 30
0.0
 11
9632.1575959999864
 21
8267.3654449999976
 31
0.0
  0
LINE
  5
342A
  8
0-1
  6
CONTINUOUS
 62
     3
 10
9499.1577009999983
 20
6406.320061999998
 30
0.0
 11
9499.1577009999983
 21
8267.3654449999976
 31
0.0
  0
LINE
  5
342B
  8
0-1
  6
CONTINUOUS
 62
     3
 10
9379.1592849999979
 20
6406.320061999998
 30
0.0
 11
9379.1592849999979
 21
8267.3654449999976
 31
0.0
  0
LINE
  5
342C
  8
0-1
  6
CONTINUOUS
 62
     3
 10
9449.1580310000045
 20
6406.320061999998
 30
0.0
 11
9449.1580310000045
 21
8267.3654449999976
 31
0.0
  0
LINE
  5
342D
  8
0-1
  6
CONTINUOUS
 62
     3
 10
9429.1579649999985
 20
6406.320061999998
 30
0.0
 11
9429.1579649999985
 21
8267.3654449999976
 31
0.0
  0
LINE
  5
342E
  8
0-1
  6
CONTINUOUS
 62
     3
 10
8985.1585459999988
 20
6256.3200620000034
 30
0.0
 11
8985.1585459999988
 21
6356.3194020000001
 31
0.0
  0
LINE
  5
342F
  8
0-1
  6
CONTINUOUS
 62
     3
 10
14988.669696999979
 20
8573.8642049999962
 30
0.0
 11
14984.656222999991
 21
8703.8027740000016
 31
0.0
  0
LINE
  5
3430
  8
0-1
  6
CONTINUOUS
 62
     3
 10
12025.65841400001
 20
6406.320061999998
 30
0.0
 11
14798.658678
 21
6406.320061999998
 31
0.0
  0
LINE
  5
3431
  8
0-1
  6
CONTINUOUS
 62
     3
 10
12025.65841400001
 20
8267.3654449999976
 30
0.0
 11
12025.65841400001
 21
6356.319402000001
 31
0.0
  0
LINE
  5
3432
  8
0-1
  6
CONTINUOUS
 62
     3
 10
11880.658677999991
 20
8267.3654449999976
 30
0.0
 11
11880.658677999991
 21
6356.319402000001
 31
0.0
  0
LINE
  5
3433
  8
0-1
  6
CONTINUOUS
 62
     3
 10
12149.158599
 20
6406.320061999998
 30
0.0
 11
12149.158599
 21
8267.3654449999976
 31
0.0
  0
LINE
  5
3434
  8
0-1
  6
CONTINUOUS
 62
     3
 10
12164.15939100001
 20
6406.320061999998
 30
0.0
 11
12164.15939100001
 21
8267.3654449999976
 31
0.0
  0
LINE
  5
3435
  8
0-1
  6
CONTINUOUS
 62
     3
 10
12297.15829500001
 20
6406.320061999998
 30
0.0
 11
12297.15829500001
 21
8267.3654449999976
 31
0.0
  0
LINE
  5
3436
  8
0-1
  6
CONTINUOUS
 62
     3
 10
12347.15994500001
 20
6406.320061999998
 30
0.0
 11
12347.15994500001
 21
8267.3654449999976
 31
0.0
  0
LINE
  5
3437
  8
0-1
  6
CONTINUOUS
 62
     3
 10
12367.158031000001
 20
6406.320061999998
 30
0.0
 11
12367.158031000001
 21
8267.3654449999976
 31
0.0
  0
LINE
  5
3438
  8
0-1
  6
CONTINUOUS
 62
     3
 10
11539.16005100001
 20
6406.320061999998
 30
0.0
 11
11539.16005100001
 21
8267.3654449999976
 31
0.0
  0
LINE
  5
3439
  8
0-1
  6
CONTINUOUS
 62
     3
 10
11559.159127000001
 20
6406.320061999998
 30
0.0
 11
11559.159127000001
 21
8267.3654449999976
 31
0.0
  0
LINE
  5
343A
  8
0-1
  6
CONTINUOUS
 62
     3
 10
11609.159787000001
 20
6406.320061999998
 30
0.0
 11
11609.159787000001
 21
8267.3654449999976
 31
0.0
  0
LINE
  5
343B
  8
0-1
  6
CONTINUOUS
 62
     3
 10
11742.15968100001
 20
6406.320061999998
 30
0.0
 11
11742.15968100001
 21
8267.3654449999976
 31
0.0
  0
LINE
  5
343C
  8
0-1
  6
CONTINUOUS
 62
     3
 10
11757.15849300001
 20
6406.320061999998
 30
0.0
 11
11757.15849300001
 21
8267.3654449999976
 31
0.0
  0
LINE
  5
343D
  8
0-1
  6
CONTINUOUS
 62
     3
 10
11489.15939100001
 20
6406.320061999998
 30
0.0
 11
11489.15939100001
 21
8267.3654449999976
 31
0.0
  0
LINE
  5
343E
  8
0-1
  6
CONTINUOUS
 62
     3
 10
11356.159496
 20
6406.320061999998
 30
0.0
 11
11356.159496
 21
8267.3654449999976
 31
0.0
  0
LINE
  5
343F
  8
0-1
  6
CONTINUOUS
 62
     3
 10
11341.15870399999
 20
6406.320061999998
 30
0.0
 11
11341.15870399999
 21
8267.3654449999976
 31
0.0
  0
LINE
  5
3440
  8
0-1
  6
CONTINUOUS
 62
     3
 10
10139.15840100001
 20
6406.320061999998
 30
0.0
 11
10139.15840100001
 21
8267.3654449999976
 31
0.0
  0
LINE
  5
3441
  8
0-1
  6
CONTINUOUS
 62
     3
 10
10159.160445999991
 20
6406.320061999998
 30
0.0
 11
10159.160445999991
 21
8267.3654449999976
 31
0.0
  0
LINE
  5
3442
  8
0-1
  6
CONTINUOUS
 62
     3
 10
10089.15873100001
 20
6406.320061999998
 30
0.0
 11
10089.15873100001
 21
8267.3654449999976
 31
0.0
  0
LINE
  5
3443
  8
0-1
  6
CONTINUOUS
 62
     3
 10
10209.158137
 20
6406.320061999998
 30
0.0
 11
10209.158137
 21
8267.3654449999976
 31
0.0
  0
LINE
  5
3444
  8
0-1
  6
CONTINUOUS
 62
     3
 10
10342.15902100001
 20
6406.320061999998
 30
0.0
 11
10342.15902100001
 21
8267.3654449999976
 31
0.0
  0
LINE
  5
3445
  8
0-1
  6
CONTINUOUS
 62
     3
 10
10357.159813
 20
6406.320061999998
 30
0.0
 11
10357.159813
 21
8267.3654449999976
 31
0.0
  0
LINE
  5
3446
  8
0-1
  6
CONTINUOUS
 62
     3
 10
9956.1578470000004
 20
6406.320061999998
 30
0.0
 11
9956.1578470000004
 21
8267.3654449999976
 31
0.0
  0
LINE
  5
3447
  8
0-1
  6
CONTINUOUS
 62
     3
 10
9941.1590340000075
 20
6406.320061999998
 30
0.0
 11
9941.1590340000075
 21
8267.3654449999976
 31
0.0
  0
LINE
  5
3448
  8
0-1
  6
CONTINUOUS
 62
     3
 10
10641.158375000001
 20
6406.320061999998
 30
0.0
 11
10641.158375000001
 21
8267.3654449999976
 31
0.0
  0
LINE
  5
3449
  8
0-1
  6
CONTINUOUS
 62
     3
 10
10656.15718700001
 20
6406.320061999998
 30
0.0
 11
10656.15718700001
 21
8267.3654449999976
 31
0.0
  0
LINE
  5
344A
  8
0-1
  6
CONTINUOUS
 62
     3
 10
11057.159153000001
 20
6406.320061999998
 30
0.0
 11
11057.159153000001
 21
8267.3654449999976
 31
0.0
  0
LINE
  5
344B
  8
0-1
  6
CONTINUOUS
 62
     3
 10
11042.158361
 20
6406.320061999998
 30
0.0
 11
11042.158361
 21
8267.3654449999976
 31
0.0
  0
LINE
  5
344C
  8
0-1
  6
CONTINUOUS
 62
     3
 10
10909.157477000001
 20
6406.320061999998
 30
0.0
 11
10909.157477000001
 21
8267.3654449999976
 31
0.0
  0
LINE
  5
344D
  8
0-1
  6
CONTINUOUS
 62
     3
 10
10789.16005100001
 20
6406.320061999998
 30
0.0
 11
10789.16005100001
 21
8267.3654449999976
 31
0.0
  0
LINE
  5
344E
  8
0-1
  6
CONTINUOUS
 62
     3
 10
10859.15978700001
 20
6406.320061999998
 30
0.0
 11
10859.15978700001
 21
8267.3654449999976
 31
0.0
  0
LINE
  5
344F
  8
0-1
  6
CONTINUOUS
 62
     3
 10
10839.159721
 20
6406.320061999998
 30
0.0
 11
10839.159721
 21
8267.3654449999976
 31
0.0
  0
LINE
  5
3450
  8
0-1
  6
CONTINUOUS
 62
     3
 10
11180.65933800001
 20
8267.3654449999976
 30
0.0
 11
11180.65933800001
 21
6406.320061999998
 31
0.0
  0
LINE
  5
3451
  8
0-1
  6
CONTINUOUS
 62
     3
 10
11217.658520000001
 20
8267.3654449999976
 30
0.0
 11
11217.658520000001
 21
6406.320061999998
 31
0.0
  0
LINE
  5
3452
  8
0-1
  6
CONTINUOUS
 62
     3
 10
9770.6575819999907
 20
8267.3654449999976
 30
0.0
 11
9770.6575819999907
 21
6406.320061999998
 31
0.0
  0
LINE
  5
3453
  8
0-1
  6
CONTINUOUS
 62
     3
 10
9807.6577539999962
 20
8267.3654449999976
 30
0.0
 11
9807.6577539999962
 21
6406.320061999998
 31
0.0
  0
LINE
  5
3454
  8
0-1
  6
CONTINUOUS
 62
     3
 10
10480.65999800001
 20
8267.3654449999976
 30
0.0
 11
10480.65999800001
 21
6406.320061999998
 31
0.0
  0
LINE
  5
3455
  8
0-1
  6
CONTINUOUS
 62
     3
 10
10517.659180000001
 20
8267.3654449999976
 30
0.0
 11
10517.659180000001
 21
6406.320061999998
 31
0.0
  0
LINE
  5
3456
  8
0-1
  6
CONTINUOUS
 62
     3
 10
11953.10707899999
 20
8480.4734869999957
 30
0.0
 11
11949.094594
 21
8610.4120559999974
 31
0.0
  0
LINE
  5
3457
  8
0-1
  6
CONTINUOUS
 62
     3
 10
11953.158546000001
 20
8480.4754670000038
 30
0.0
 11
11953.158546000001
 21
8267.3654449999976
 31
0.0
  0
LINE
  5
3458
  8
0-1
  6
CONTINUOUS
 62
     3
 10
14798.658678
 20
8267.3654449999976
 30
0.0
 11
14798.658678
 21
6356.319402000001
 31
0.0
  0
LINE
  5
3459
  8
0-1
  6
CONTINUOUS
 62
     3
 10
14913.659798999999
 20
8571.549157999998
 30
0.0
 11
14913.659798999999
 21
6356.319402000001
 31
0.0
  0
LINE
  5
345A
  8
0-1
  6
CONTINUOUS
 62
     3
 10
14893.65874399998
 20
8570.9315480000005
 30
0.0
 11
14893.65874399998
 21
6356.319402000001
 31
0.0
  0
LINE
  5
345B
  8
0-1
  6
CONTINUOUS
 62
     3
 10
13388.659892
 20
8267.3654449999976
 30
0.0
 11
13388.659892
 21
6406.320061999998
 31
0.0
  0
LINE
  5
345C
  8
0-1
  6
CONTINUOUS
 62
     3
 10
13425.660063999991
 20
8267.3654449999976
 30
0.0
 11
13425.660063999991
 21
6406.320061999998
 31
0.0
  0
LINE
  5
345D
  8
0-1
  6
CONTINUOUS
 62
     3
 10
14088.659232
 20
8267.3654449999976
 30
0.0
 11
14088.659232
 21
6406.320061999998
 31
0.0
  0
LINE
  5
345E
  8
0-1
  6
CONTINUOUS
 62
     3
 10
14125.65841399999
 20
8267.3654449999976
 30
0.0
 11
14125.65841399999
 21
6406.320061999998
 31
0.0
  0
LINE
  5
345F
  8
0-1
  6
CONTINUOUS
 62
     3
 10
12688.657583
 20
8267.3654449999976
 30
0.0
 11
12688.657583
 21
6406.320061999998
 31
0.0
  0
LINE
  5
3460
  8
0-1
  6
CONTINUOUS
 62
     3
 10
12725.658744
 20
8267.3654449999976
 30
0.0
 11
12725.658744
 21
6406.320061999998
 31
0.0
  0
LINE
  5
3461
  8
0-1
  6
CONTINUOUS
 62
     3
 10
13067.157372000011
 20
6406.320061999998
 30
0.0
 11
13067.157372000011
 21
8267.3654449999976
 31
0.0
  0
LINE
  5
3462
  8
0-1
  6
CONTINUOUS
 62
     3
 10
13047.158294999999
 20
6406.320061999998
 30
0.0
 11
13047.158294999999
 21
8267.3654449999976
 31
0.0
  0
LINE
  5
3463
  8
0-1
  6
CONTINUOUS
 62
     3
 10
13117.15902099999
 20
6406.320061999998
 30
0.0
 11
13117.15902099999
 21
8267.3654449999976
 31
0.0
  0
LINE
  5
3464
  8
0-1
  6
CONTINUOUS
 62
     3
 10
12997.15961500001
 20
6406.320061999998
 30
0.0
 11
12997.15961500001
 21
8267.3654449999976
 31
0.0
  0
LINE
  5
3465
  8
0-1
  6
CONTINUOUS
 62
     3
 10
12864.15873100001
 20
6406.320061999998
 30
0.0
 11
12864.15873100001
 21
8267.3654449999976
 31
0.0
  0
LINE
  5
3466
  8
0-1
  6
CONTINUOUS
 62
     3
 10
12849.15892900001
 20
6406.320061999998
 30
0.0
 11
12849.15892900001
 21
8267.3654449999976
 31
0.0
  0
LINE
  5
3467
  8
0-1
  6
CONTINUOUS
 62
     3
 10
13250.159905
 20
6406.320061999998
 30
0.0
 11
13250.159905
 21
8267.3654449999976
 31
0.0
  0
LINE
  5
3468
  8
0-1
  6
CONTINUOUS
 62
     3
 10
13265.159707000001
 20
6406.320061999998
 30
0.0
 11
13265.159707000001
 21
8267.3654449999976
 31
0.0
  0
LINE
  5
3469
  8
0-1
  6
CONTINUOUS
 62
     3
 10
13965.15904799999
 20
6406.320061999998
 30
0.0
 11
13965.15904799999
 21
8267.3654449999976
 31
0.0
  0
LINE
  5
346A
  8
0-1
  6
CONTINUOUS
 62
     3
 10
13950.158256000001
 20
6406.320061999998
 30
0.0
 11
13950.158256000001
 21
8267.3654449999976
 31
0.0
  0
LINE
  5
346B
  8
0-1
  6
CONTINUOUS
 62
     3
 10
13549.15826900001
 20
6406.320061999998
 30
0.0
 11
13549.15826900001
 21
8267.3654449999976
 31
0.0
  0
LINE
  5
346C
  8
0-1
  6
CONTINUOUS
 62
     3
 10
13564.160051000001
 20
6406.320061999998
 30
0.0
 11
13564.160051000001
 21
8267.3654449999976
 31
0.0
  0
LINE
  5
346D
  8
0-1
  6
CONTINUOUS
 62
     3
 10
13697.15994499999
 20
6406.320061999998
 30
0.0
 11
13697.15994499999
 21
8267.3654449999976
 31
0.0
  0
LINE
  5
346E
  8
0-1
  6
CONTINUOUS
 62
     3
 10
13817.157372000011
 20
6406.320061999998
 30
0.0
 11
13817.157372000011
 21
8267.3654449999976
 31
0.0
  0
LINE
  5
346F
  8
0-1
  6
CONTINUOUS
 62
     3
 10
13747.157635999991
 20
6406.320061999998
 30
0.0
 11
13747.157635999991
 21
8267.3654449999976
 31
0.0
  0
LINE
  5
3470
  8
0-1
  6
CONTINUOUS
 62
     3
 10
13767.15968100001
 20
6406.320061999998
 30
0.0
 11
13767.15968100001
 21
8267.3654449999976
 31
0.0
  0
LINE
  5
3471
  8
0-1
  6
CONTINUOUS
 62
     3
 10
14467.159020999999
 20
6406.320061999998
 30
0.0
 11
14467.159020999999
 21
8267.3654449999976
 31
0.0
  0
LINE
  5
3472
  8
0-1
  6
CONTINUOUS
 62
     3
 10
14447.15994499999
 20
6406.320061999998
 30
0.0
 11
14447.15994499999
 21
8267.3654449999976
 31
0.0
  0
LINE
  5
3473
  8
0-1
  6
CONTINUOUS
 62
     3
 10
14517.159680999999
 20
6406.320061999998
 30
0.0
 11
14517.159680999999
 21
8267.3654449999976
 31
0.0
  0
LINE
  5
3474
  8
0-1
  6
CONTINUOUS
 62
     3
 10
14397.159285000011
 20
6406.320061999998
 30
0.0
 11
14397.159285000011
 21
8267.3654449999976
 31
0.0
  0
LINE
  5
3475
  8
0-1
  6
CONTINUOUS
 62
     3
 10
14264.15939100001
 20
6406.320061999998
 30
0.0
 11
14264.15939100001
 21
8267.3654449999976
 31
0.0
  0
LINE
  5
3476
  8
0-1
  6
CONTINUOUS
 62
     3
 10
14249.157609000011
 20
6406.320061999998
 30
0.0
 11
14249.157609000011
 21
8267.3654449999976
 31
0.0
  0
LINE
  5
3477
  8
0-1
  6
CONTINUOUS
 62
     3
 10
14660.159680000001
 20
6406.320061999998
 30
0.0
 11
14660.159680000001
 21
8267.3654449999976
 31
0.0
  0
LINE
  5
3478
  8
0-1
  6
CONTINUOUS
 62
     3
 10
14675.158493000001
 20
6406.320061999998
 30
0.0
 11
14675.158493000001
 21
8267.3654449999976
 31
0.0
  0
LINE
  5
3479
  8
0-1
  6
CONTINUOUS
 62
     3
 10
12565.15739800001
 20
6406.320061999998
 30
0.0
 11
12565.15739800001
 21
8267.3654449999976
 31
0.0
  0
LINE
  5
347A
  8
0-1
  6
CONTINUOUS
 62
     3
 10
12550.15858600001
 20
6406.320061999998
 30
0.0
 11
12550.15858600001
 21
8267.3654449999976
 31
0.0
  0
LINE
  5
347B
  8
0-1
  6
CONTINUOUS
 62
     3
 10
12417.159680999999
 20
6406.320061999998
 30
0.0
 11
12417.159680999999
 21
8267.3654449999976
 31
0.0
  0
LINE
  5
347C
  8
0-1
  6
CONTINUOUS
 62
     3
 10
14926.158546000001
 20
6356.3194020000001
 30
0.0
 11
14926.158546000001
 21
6256.3200620000034
 31
0.0
  0
LINE
  5
347D
  8
0-1
  6
CONTINUOUS
 62
     3
 10
8815.1875129999971
 20
8431.945588999999
 30
0.0
 11
8814.1403469999968
 21
8465.9309539999995
 31
0.0
  0
LINE
  5
347E
  8
0-1
  6
CONTINUOUS
 62
     3
 10
8817.046280999999
 20
8469.0209829999985
 30
0.0
 11
14998.039747999999
 21
8659.1943229999943
 31
0.0
  0
LINE
  5
347F
  8
0-1
  6
CONTINUOUS
 62
     3
 10
14999.272988000001
 20
8619.2129959999984
 30
0.0
 11
8818.2795209999986
 21
8429.0396560000008
 31
0.0
  0
LINE
  5
3480
  8
0-1
  6
CONTINUOUS
 62
     3
 10
8816.8928680000008
 20
8474.0192669999924
 30
0.0
 11
14997.88534599999
 21
8664.1916170000004
 31
0.0
  0
LINE
  5
3481
  8
0-1
  6
CONTINUOUS
 62
     3
 10
14999.426401000001
 20
8614.2147119999972
 30
0.0
 11
8818.4319439999908
 21
8424.0423619999983
 31
0.0
  0
LINE
  5
3482
  8
0-1
  6
CONTINUOUS
 62
     3
 10
8815.5260099999978
 20
8420.9513430000006
 30
0.0
 11
8815.5260099999978
 21
8421.0166670000017
 31
0.0
  0
LINE
  5
3483
  8
0-1
  6
CONTINUOUS
 62
     3
 10
8815.5260099999978
 20
8421.0166670000017
 30
0.0
 11
8816.5157699999982
 21
8388.9672720000017
 31
0.0
  0
LINE
  5
3484
  8
0-1
  6
CONTINUOUS
 62
     3
 10
8821.6674670000011
 20
8384.1243800000011
 30
0.0
 11
15021.63363
 21
8574.8816770000049
 31
0.0
  0
LINE
  5
3485
  8
0-1
  6
CONTINUOUS
 62
     3
 10
15017.623125
 20
8704.8212359999998
 30
0.0
 11
8817.6569619999991
 21
8514.0619590000006
 31
0.0
  0
LINE
  5
3486
  8
0-1
  6
CONTINUOUS
 62
     3
 10
8812.8120899999994
 20
8508.9092720000026
 30
0.0
 11
8813.8008599999976
 21
8476.9251999999979
 31
0.0
  0
LINE
  5
3487
  8
0-1
  6
CONTINUOUS
 62
     3
 10
8830.1516829999946
 20
8514.4469749999953
 30
0.0
 11
8834.1621879999984
 21
8384.5084060000008
 31
0.0
  0
LINE
  5
3488
  8
2-0
  6
CENTER2
 62
     6
 10
9035.1585460000006
 20
5993.6666490000034
 30
0.0
 11
9035.1585460000006
 21
7050.8092470000011
 31
0.0
  0
LINE
  5
3489
  8
2-0
  6
CENTER2
 62
     6
 10
11953.158546000001
 20
5993.6666490000034
 30
0.0
 11
11953.158546000001
 21
7050.8092470000011
 31
0.0
  0
LINE
  5
348A
  8
2-0
  6
CENTER2
 62
     6
 10
14871.158546000001
 20
5993.6666490000034
 30
0.0
 11
14871.158546000001
 21
7050.8092470000011
 31
0.0
  0
ARC
  5
348B
  8
0-1
  6
CONTINUOUS
 62
     3
 10
8819.8562069999989
 20
8426.5880219999981
 30
0.0
 40
2.5
 50
271.76798999988182
 51
91.767989999881877
  0
ARC
  5
348C
  8
0-1
  6
CONTINUOUS
 62
     3
 10
8818.4685649999974
 20
8471.5656540000018
 30
0.0
 40
2.5
 50
271.76798999988182
 51
91.767989999881877
  0
ARC
  5
348D
  8
0-1
  6
CONTINUOUS
 62
     3
 10
8817.1373379999968
 20
8466.0230019999981
 30
0.0
 40
3.0
 50
91.767989999881877
 51
181.7679899999863
  0
ARC
  5
348E
  8
0-1
  6
CONTINUOUS
 62
     3
 10
14998.656368
 20
8639.2031639999968
 30
0.0
 40
20.0
 50
271.76798999988182
 51
91.767989999881877
  0
ARC
  5
348F
  8
0-1
  6
CONTINUOUS
 62
     3
 10
8818.187473
 20
8432.0396169999949
 30
0.0
 40
3.0
 50
181.7679899999863
 51
271.76798999988182
  0
ARC
  5
3490
  8
0-1
  6
CONTINUOUS
 62
     3
 10
14998.656368
 20
8639.2031639999968
 30
0.0
 40
24.999998999999999
 50
271.76798999988182
 51
91.767989999881877
  0
ARC
  5
3491
  8
0-1
  6
CONTINUOUS
 62
     3
 10
8818.5279499999979
 20
8421.0443809999997
 30
0.0
 40
3.0
 50
91.767989999881877
 51
181.7679899999863
  0
ARC
  5
3492
  8
0-1
  6
CONTINUOUS
 62
     3
 10
8821.5130640000025
 20
8389.121674
 30
0.0
 40
5.0
 50
181.7679899999863
 51
271.76798999988182
  0
ARC
  5
3493
  8
0-1
  6
CONTINUOUS
 62
     3
 10
14993.659073000001
 20
8639.0487619999985
 30
0.0
 40
69.999999000000003
 50
293.55477900013489
 51
69.981200999902924
  0
ARC
  5
3494
  8
0-1
  6
CONTINUOUS
 62
     3
 10
8817.8113649999977
 20
8509.0636740000009
 30
0.0
 40
5.0
 50
91.767989999881877
 51
181.7679899999863
  0
ARC
  5
3495
  8
0-1
  6
CONTINUOUS
 62
     3
 10
8816.7978509999975
 20
8477.0172480000019
 30
0.0
 40
3.0
 50
181.7679899999863
 51
271.76798999988182
  0
TEXT
  5
3496
  8
2-0
  6
CONTINUOUS
 62
     7
 10
10633.83514600001
 20
3295.169351
 30
0.0
 40
160.0
  1
側 面 立 面 図
 72
     4
 11
11279.168479333341
 21
3375.169351
 31
0.0
  0
TEXT
  5
3497
  8
2-0
  6
CONTINUOUS
 62
     7
 10
12630.660664470959
 20
3322.3647200000019
 30
0.0
 40
160.0
  1
1
 72
     4
 11
12657.327331137631
 21
3402.3647200000009
 31
0.0
  0
TEXT
  5
3498
  8
2-0
  6
CONTINUOUS
 62
     7
 10
12873.749381721649
 20
3242.366188
 30
0.0
 40
160.0
  1
80
 72
     4
 11
12993.749381721649
 21
3322.366188
 31
0.0
  0
TEXT
  5
3499
  8
2-0
  6
CONTINUOUS
 62
     7
 10
12131.66263047095
 20
3295.169351
 30
0.0
 40
160.0
  1
(S=  /   )
 72
     4
 11
12691.66263047095
 21
3375.169351
 31
0.0
  0
LINE
  5
349A
  8
0-5
  6
CONTINUOUS
 62
     4
 10
14871.158546000001
 20
4576.3194679999997
 30
0.0
 11
14871.158546000001
 21
4416.3199300000024
 31
0.0
  0
LINE
  5
349B
  8
0-5
  6
CONTINUOUS
 62
     4
 10
11953.158546000001
 20
4576.3194679999997
 30
0.0
 11
11953.158546000001
 21
4416.3199300000024
 31
0.0
  0
LINE
  5
349C
  8
0-5
  6
CONTINUOUS
 62
     4
 10
9035.1585460000006
 20
4576.3194679999997
 30
0.0
 11
9035.1585460000006
 21
4416.3199300000024
 31
0.0
  0
CIRCLE
  5
349D
  8
0-5
  6
CONTINUOUS
 62
     4
 10
11953.158546000001
 20
4216.3187750000034
 30
0.0
 40
199.9999949999999
  0
CIRCLE
  5
349E
  8
0-5
  6
CONTINUOUS
 62
     4
 10
14871.158546000001
 20
4216.3187750000034
 30
0.0
 40
199.9999949999999
  0
CIRCLE
  5
349F
  8
0-5
  6
CONTINUOUS
 62
     4
 10
9035.1585460000006
 20
4216.3187750000034
 30
0.0
 40
199.9999949999999
  0
TEXT
  5
34A0
  8
0-5
  6
CONTINUOUS
 62
     7
 10
14824.202385999981
 20
4133.1079790000003
 30
0.0
 40
160.0
  1
A
 72
     4
 11
14877.53571933332
 21
4213.1079790000013
 31
0.0
  0
TEXT
  5
34A1
  8
0-5
  6
CONTINUOUS
 62
     7
 10
11906.202385999981
 20
4133.1079790000003
 30
0.0
 40
160.0
  1
B
 72
     4
 11
11959.53571933332
 21
4213.1079790000013
 31
0.0
  0
TEXT
  5
34A2
  8
0-5
  6
CONTINUOUS
 62
     7
 10
8988.2023860000027
 20
4133.1079790000003
 30
0.0
 40
160.0
  1
C
 72
     4
 11
9041.5357193333366
 21
4213.1079790000013
 31
0.0
  0
LINE
  5
34A3
  8
0-5
  6
CONTINUOUS
 62
     4
 10
16631.242542999989
 20
6356.319402000001
 30
0.0
 11
16751.242938999989
 21
6564.1663789999984
 31
0.0
  0
LINE
  5
34A4
  8
0-5
  6
CONTINUOUS
 62
     4
 10
16511.244125999991
 20
6564.1663789999984
 30
0.0
 11
16631.242542999989
 21
6356.319402000001
 31
0.0
  0
LINE
  5
34A5
  8
0-5
  6
CONTINUOUS
 62
     4
 10
16751.242938999989
 20
6564.1663789999984
 30
0.0
 11
16511.244125999991
 21
6564.1663789999984
 31
0.0
  0
LINE
  5
34A6
  8
0-5
  6
CONTINUOUS
 62
     4
 10
15006.155840999991
 20
6356.3194020000001
 30
0.0
 11
16723.62073599999
 21
6356.319402000001
 31
0.0
  0
TEXT
  5
34A7
  8
0-5
  6
CONTINUOUS
 62
     7
 10
16172.15061399998
 20
6644.165653
 30
0.0
 40
160.0
  1
布基礎天端
 72
     4
 11
16630.817280666652
 21
6724.165653
 31
0.0
  0
TEXT
  5
34A8
  8
2-0
  6
CONTINUOUS
 62
     7
 10
21350.237913000019
 20
11803.73951899999
 30
0.0
 40
160.0
  1
平　面　図
 50
359.99978700000008
 72
     4
 11
21803.57152390738
 21
11878.40450037622
 31
0.0
  0
TEXT
  5
34A9
  8
2-0
  6
CONTINUOUS
 62
     7
 10
23155.063709045
 20
11825.59986937623
 30
0.0
 40
160.0
  1
1
 72
     4
 11
23181.730375711672
 21
11905.59986937623
 31
0.0
  0
TEXT
  5
34AA
  8
2-0
  6
CONTINUOUS
 62
     7
 10
23398.152426295688
 20
11745.601337376231
 30
0.0
 40
160.0
  1
80
 72
     4
 11
23518.152426295688
 21
11825.601337376231
 31
0.0
  0
TEXT
  5
34AB
  8
2-0
  6
CONTINUOUS
 62
     7
 10
22656.065675044989
 20
11798.40450037622
 30
0.0
 40
160.0
  1
(S=  /   )
 72
     4
 11
23216.065675044989
 21
11878.40450037622
 31
0.0
  0
LINE
  5
34AC
  8
2-0
  6
CONTINUOUS
 62
     6
 10
23140.255093999989
 20
13415.729792
 30
0.0
 11
24140.24849599996
 21
13415.729792
 31
0.0
  0
LINE
  5
34AD
  8
2-0
  6
CONTINUOUS
 62
     6
 10
24608.188872999988
 20
13886.150506
 30
0.0
 11
24140.24849599996
 21
13415.729792
 31
0.0
  0
LINE
  5
34AE
  8
2-0
  6
CONTINUOUS
 62
     6
 10
24569.54867
 20
17077.75815300001
 30
0.0
 11
24264.853252000001
 21
17181.411684000021
 31
0.0
  0
LINE
  5
34AF
  8
2-0
  6
CONTINUOUS
 62
     6
 10
24724.57070899996
 20
16588.136109000021
 30
0.0
 11
24264.853252000001
 21
16344.222798000001
 31
0.0
  0
LINE
  5
34B0
  8
2-0
  6
CONTINUOUS
 62
     6
 10
23344.850216999988
 20
16344.222798000001
 30
0.0
 11
24264.853252000001
 21
16344.222798000001
 31
0.0
  0
LINE
  5
34B1
  8
2-0
  6
CONTINUOUS
 62
     6
 10
23064.859189999988
 20
17181.411684000021
 30
0.0
 11
24264.853252000001
 21
17181.411684000021
 31
0.0
  0
LINE
  5
34B2
  8
2-0
  6
CONTINUOUS
 62
     6
 10
24640.747994000001
 20
14207.834151999979
 30
0.0
 11
24264.853252000001
 21
14388.777986999999
 31
0.0
  0
LINE
  5
34B3
  8
2-0
  6
CONTINUOUS
 62
     6
 10
23744.851535999991
 20
14388.777986999999
 30
0.0
 11
24264.853252000001
 21
14388.777986999999
 31
0.0
  0
LINE
  5
34B4
  8
2-0
  6
CONTINUOUS
 62
     4
 10
22956.91401
 20
20014.231442000018
 30
0.0
 11
22956.91401
 21
20744.228406999999
 31
0.0
  0
LINE
  5
34B5
  8
2-0
  6
CONTINUOUS
 62
     3
 10
24835.914669999991
 20
19825.228987999999
 30
0.0
 11
24835.914669999991
 21
19819.23302600002
 31
0.0
  0
LINE
  5
34B6
  8
2-0
  6
CONTINUOUS
 62
     3
 10
24835.914669999991
 20
19819.23302600002
 30
0.0
 11
24865.912294000002
 21
19819.23302600002
 31
0.0
  0
LINE
  5
34B7
  8
2-0
  6
CONTINUOUS
 62
     3
 10
24865.912294000002
 20
19849.23263000001
 30
0.0
 11
24784.910393999991
 21
19849.23263000001
 31
0.0
  0
LINE
  5
34B8
  8
2-0
  6
CONTINUOUS
 62
     3
 10
24835.914669999991
 20
19808.935570000001
 30
0.0
 11
24865.912294000002
 21
19808.935570000001
 31
0.0
  0
LINE
  5
34B9
  8
2-0
  6
CONTINUOUS
 62
     3
 10
24835.914669999991
 20
19826.93731200002
 30
0.0
 11
24835.914669999991
 21
19808.935570000001
 31
0.0
  0
LINE
  5
34BA
  8
2-0
  6
CONTINUOUS
 62
     3
 10
24860.91203000001
 20
19826.93731200002
 30
0.0
 11
24835.914669999991
 21
19826.93731200002
 31
0.0
  0
LINE
  5
34BB
  8
2-0
  6
CONTINUOUS
 62
     3
 10
24860.91203000001
 20
19821.929130000019
 30
0.0
 11
24860.91203000001
 21
19826.93731200002
 31
0.0
  0
LINE
  5
34BC
  8
2-0
  6
CONTINUOUS
 62
     3
 10
24853.910473
 20
19821.929130000019
 30
0.0
 11
24860.91203000001
 21
19821.929130000019
 31
0.0
  0
LINE
  5
34BD
  8
2-0
  6
CONTINUOUS
 62
     3
 10
24753.614205000002
 20
19922.229357000011
 30
0.0
 11
24753.614205000002
 21
19929.234873000001
 31
0.0
  0
LINE
  5
34BE
  8
2-0
  6
CONTINUOUS
 62
     3
 10
24753.614205000002
 20
19929.234873000001
 30
0.0
 11
24758.614468999978
 21
19929.234873000001
 31
0.0
  0
LINE
  5
34BF
  8
2-0
  6
CONTINUOUS
 62
     3
 10
24758.614468999978
 20
19929.234873000001
 30
0.0
 11
24758.614468999978
 21
19904.22563600001
 31
0.0
  0
LINE
  5
34C0
  8
2-0
  6
CONTINUOUS
 62
     3
 10
24758.614468999978
 20
19904.22563600001
 30
0.0
 11
24740.612726999982
 21
19904.22563600001
 31
0.0
  0
LINE
  5
34C1
  8
2-0
  6
CONTINUOUS
 62
     3
 10
24740.612726999982
 20
19904.22563600001
 30
0.0
 11
24740.612726999982
 21
19934.229199000009
 31
0.0
  0
LINE
  5
34C2
  8
2-0
  6
CONTINUOUS
 62
     3
 10
24750.910183
 20
19934.229199000009
 30
0.0
 11
24865.912294000002
 21
19934.229199000009
 31
0.0
  0
LINE
  5
34C3
  8
2-0
  6
CONTINUOUS
 62
     3
 10
24750.910183
 20
19904.22563600001
 30
0.0
 11
24750.910183
 21
19934.229199000009
 31
0.0
  0
LINE
  5
34C4
  8
2-0
  6
CONTINUOUS
 62
     3
 10
24756.912082999999
 20
19904.22563600001
 30
0.0
 11
24750.910183
 21
19904.22563600001
 31
0.0
  0
LINE
  5
34C5
  8
2-0
  6
CONTINUOUS
 62
     3
 10
24853.910473
 20
19118.132307499989
 30
0.0
 11
24860.91203000001
 21
19118.132307499989
 31
0.0
  0
LINE
  5
34C6
  8
2-0
  6
CONTINUOUS
 62
     3
 10
24860.91203000001
 20
19118.132307499989
 30
0.0
 11
24860.91203000001
 21
19123.132571499991
 31
0.0
  0
LINE
  5
34C7
  8
2-0
  6
CONTINUOUS
 62
     3
 10
24860.91203000001
 20
19123.132571499991
 30
0.0
 11
24835.914669999991
 21
19123.132571499991
 31
0.0
  0
LINE
  5
34C8
  8
2-0
  6
CONTINUOUS
 62
     3
 10
24835.914669999991
 20
19123.132571499991
 30
0.0
 11
24835.914669999991
 21
19105.1367675
 31
0.0
  0
LINE
  5
34C9
  8
2-0
  6
CONTINUOUS
 62
     3
 10
24835.914669999991
 20
19105.1367675
 30
0.0
 11
24865.912294000002
 21
19105.1367675
 31
0.0
  0
LINE
  5
34CA
  8
2-0
  6
CONTINUOUS
 62
     3
 10
24835.914669999991
 20
19121.22827449995
 30
0.0
 11
24835.914669999991
 21
19115.230333499989
 31
0.0
  0
LINE
  5
34CB
  8
2-0
  6
CONTINUOUS
 62
     3
 10
24835.914669999991
 20
19115.230333499989
 30
0.0
 11
24865.912294000002
 21
19115.230333499989
 31
0.0
  0
LINE
  5
34CC
  8
2-0
  6
CONTINUOUS
 62
     3
 10
24865.912294000002
 20
19115.230333499989
 30
0.0
 11
24865.912294000002
 21
19152.2314945
 31
0.0
  0
LINE
  5
34CD
  8
2-0
  6
CONTINUOUS
 62
     3
 10
24835.914669999991
 20
19152.2314945
 30
0.0
 11
24865.912294000002
 21
19152.2314945
 31
0.0
  0
LINE
  5
34CE
  8
2-0
  6
CONTINUOUS
 62
     3
 10
24835.914669999991
 20
19146.227614499981
 30
0.0
 11
24835.914669999991
 21
19152.2314945
 31
0.0
  0
LINE
  5
34CF
  8
2-0
  6
CONTINUOUS
 62
     3
 10
24835.914669999991
 20
19162.327039499982
 30
0.0
 11
24865.912294000002
 21
19162.327039499982
 31
0.0
  0
LINE
  5
34D0
  8
2-0
  6
CONTINUOUS
 62
     3
 10
24835.914669999991
 20
19144.3252975
 30
0.0
 11
24835.914669999991
 21
19162.327039499982
 31
0.0
  0
LINE
  5
34D1
  8
2-0
  6
CONTINUOUS
 62
     3
 10
24860.91203000001
 20
19144.3252975
 30
0.0
 11
24835.914669999991
 21
19144.3252975
 31
0.0
  0
LINE
  5
34D2
  8
2-0
  6
CONTINUOUS
 62
     3
 10
24860.91203000001
 20
19149.325561500002
 30
0.0
 11
24860.91203000001
 21
19144.3252975
 31
0.0
  0
LINE
  5
34D3
  8
2-0
  6
CONTINUOUS
 62
     3
 10
24853.910473
 20
19149.325561500002
 30
0.0
 11
24860.91203000001
 21
19149.325561500002
 31
0.0
  0
LINE
  5
34D4
  8
2-0
  6
CONTINUOUS
 62
     3
 10
24853.910473
 20
18417.131317999989
 30
0.0
 11
24860.91203000001
 21
18417.131317999989
 31
0.0
  0
LINE
  5
34D5
  8
2-0
  6
CONTINUOUS
 62
     3
 10
24860.91203000001
 20
18417.131317999989
 30
0.0
 11
24860.91203000001
 21
18422.13752
 31
0.0
  0
LINE
  5
34D6
  8
2-0
  6
CONTINUOUS
 62
     3
 10
24860.91203000001
 20
18422.13752
 30
0.0
 11
24835.914669999991
 21
18422.13752
 31
0.0
  0
LINE
  5
34D7
  8
2-0
  6
CONTINUOUS
 62
     3
 10
24835.914669999991
 20
18422.13752
 30
0.0
 11
24835.914669999991
 21
18404.135778
 31
0.0
  0
LINE
  5
34D8
  8
2-0
  6
CONTINUOUS
 62
     3
 10
24835.914669999991
 20
18404.135778
 30
0.0
 11
24865.912294000002
 21
18404.135778
 31
0.0
  0
LINE
  5
34D9
  8
2-0
  6
CONTINUOUS
 62
     3
 10
24835.914669999991
 20
18420.22728499999
 30
0.0
 11
24835.914669999991
 21
18414.231323
 31
0.0
  0
LINE
  5
34DA
  8
2-0
  6
CONTINUOUS
 62
     3
 10
24835.914669999991
 20
18414.231323
 30
0.0
 11
24865.912294000002
 21
18414.231323
 31
0.0
  0
LINE
  5
34DB
  8
2-0
  6
CONTINUOUS
 62
     3
 10
24865.912294000002
 20
18414.231323
 30
0.0
 11
24865.912294000002
 21
18451.230504999989
 31
0.0
  0
LINE
  5
34DC
  8
2-0
  6
CONTINUOUS
 62
     3
 10
24835.914669999991
 20
18451.230504999989
 30
0.0
 11
24865.912294000002
 21
18451.230504999989
 31
0.0
  0
LINE
  5
34DD
  8
2-0
  6
CONTINUOUS
 62
     3
 10
24835.914669999991
 20
18445.23454300001
 30
0.0
 11
24835.914669999991
 21
18451.230504999989
 31
0.0
  0
LINE
  5
34DE
  8
2-0
  6
CONTINUOUS
 62
     3
 10
24835.914669999991
 20
18461.32605
 30
0.0
 11
24865.912294000002
 21
18461.32605
 31
0.0
  0
LINE
  5
34DF
  8
2-0
  6
CONTINUOUS
 62
     3
 10
24835.914669999991
 20
18443.324307999988
 30
0.0
 11
24835.914669999991
 21
18461.32605
 31
0.0
  0
LINE
  5
34E0
  8
2-0
  6
CONTINUOUS
 62
     3
 10
24860.91203000001
 20
18443.324307999988
 30
0.0
 11
24835.914669999991
 21
18443.324307999988
 31
0.0
  0
LINE
  5
34E1
  8
2-0
  6
CONTINUOUS
 62
     3
 10
24860.91203000001
 20
18448.33051
 30
0.0
 11
24860.91203000001
 21
18443.324307999988
 31
0.0
  0
LINE
  5
34E2
  8
2-0
  6
CONTINUOUS
 62
     3
 10
24853.910473
 20
18448.33051
 30
0.0
 11
24860.91203000001
 21
18448.33051
 31
0.0
  0
LINE
  5
34E3
  8
2-0
  6
CONTINUOUS
 62
     3
 10
24853.910473
 20
17747.324572000001
 30
0.0
 11
24860.91203000001
 21
17747.324572000001
 31
0.0
  0
LINE
  5
34E4
  8
2-0
  6
CONTINUOUS
 62
     3
 10
24860.91203000001
 20
17747.324572000001
 30
0.0
 11
24860.91203000001
 21
17742.336185
 31
0.0
  0
LINE
  5
34E5
  8
2-0
  6
CONTINUOUS
 62
     3
 10
24860.91203000001
 20
17742.336185
 30
0.0
 11
24835.914669999991
 21
17742.336185
 31
0.0
  0
LINE
  5
34E6
  8
2-0
  6
CONTINUOUS
 62
     3
 10
24835.914669999991
 20
17742.336185
 30
0.0
 11
24835.914669999991
 21
17760.331988000002
 31
0.0
  0
LINE
  5
34E7
  8
2-0
  6
CONTINUOUS
 62
     3
 10
24835.914669999991
 20
17760.331988000002
 30
0.0
 11
24865.912294000002
 21
17760.331988000002
 31
0.0
  0
LINE
  5
34E8
  8
2-0
  6
CONTINUOUS
 62
     3
 10
24835.914669999991
 20
17744.234542999991
 30
0.0
 11
24835.914669999991
 21
17750.230504999989
 31
0.0
  0
LINE
  5
34E9
  8
2-0
  6
CONTINUOUS
 62
     3
 10
24835.914669999991
 20
17750.230504999989
 30
0.0
 11
24865.912294000002
 21
17750.230504999989
 31
0.0
  0
LINE
  5
34EA
  8
2-0
  6
CONTINUOUS
 62
     3
 10
24865.912294000002
 20
17750.230504999989
 30
0.0
 11
24865.912294000002
 21
17713.231323
 31
0.0
  0
LINE
  5
34EB
  8
2-0
  6
CONTINUOUS
 62
     3
 10
24835.914669999991
 20
17713.231323
 30
0.0
 11
24865.912294000002
 21
17713.231323
 31
0.0
  0
LINE
  5
34EC
  8
2-0
  6
CONTINUOUS
 62
     3
 10
24835.914669999991
 20
17719.233223999989
 30
0.0
 11
24835.914669999991
 21
17713.231323
 31
0.0
  0
LINE
  5
34ED
  8
2-0
  6
CONTINUOUS
 62
     3
 10
24835.914669999991
 20
17703.141716999991
 30
0.0
 11
24865.912294000002
 21
17703.141716999991
 31
0.0
  0
LINE
  5
34EE
  8
2-0
  6
CONTINUOUS
 62
     3
 10
24835.914669999991
 20
17721.13752
 30
0.0
 11
24835.914669999991
 21
17703.141716999991
 31
0.0
  0
LINE
  5
34EF
  8
2-0
  6
CONTINUOUS
 62
     3
 10
24860.91203000001
 20
17721.13752
 30
0.0
 11
24835.914669999991
 21
17721.13752
 31
0.0
  0
LINE
  5
34F0
  8
2-0
  6
CONTINUOUS
 62
     3
 10
24860.91203000001
 20
17716.137256999991
 30
0.0
 11
24860.91203000001
 21
17721.13752
 31
0.0
  0
LINE
  5
34F1
  8
2-0
  6
CONTINUOUS
 62
     3
 10
24853.910473
 20
17716.137256999991
 30
0.0
 11
24860.91203000001
 21
17716.137256999991
 31
0.0
  0
LINE
  5
34F2
  8
2-0
  6
CONTINUOUS
 62
     3
 10
24863.026156
 20
16996.228143
 30
0.0
 11
24863.026156
 21
17016.229198000001
 31
0.0
  0
LINE
  5
34F3
  8
2-0
  6
CONTINUOUS
 62
     3
 10
24863.026156
 20
17016.229198000001
 30
0.0
 11
24778.029587000001
 21
17016.229198000001
 31
0.0
  0
LINE
  5
34F4
  8
2-0
  6
CONTINUOUS
 62
     3
 10
24853.910473
 20
17042.835908000001
 30
0.0
 11
24860.91203000001
 21
17042.835908000001
 31
0.0
  0
LINE
  5
34F5
  8
2-0
  6
CONTINUOUS
 62
     3
 10
24860.91203000001
 20
17042.835908000001
 30
0.0
 11
24860.91203000001
 21
17037.841582000001
 31
0.0
  0
LINE
  5
34F6
  8
2-0
  6
CONTINUOUS
 62
     3
 10
24860.91203000001
 20
17037.841582000001
 30
0.0
 11
24835.914669999991
 21
17037.841582000001
 31
0.0
  0
LINE
  5
34F7
  8
2-0
  6
CONTINUOUS
 62
     3
 10
24835.914669999991
 20
17037.841582000001
 30
0.0
 11
24835.914669999991
 21
17055.83738600001
 31
0.0
  0
LINE
  5
34F8
  8
2-0
  6
CONTINUOUS
 62
     3
 10
24835.914669999991
 20
17055.83738600001
 30
0.0
 11
24865.912294000002
 21
17055.83738600001
 31
0.0
  0
LINE
  5
34F9
  8
2-0
  6
CONTINUOUS
 62
     3
 10
24835.914669999991
 20
17046.228802000001
 30
0.0
 11
24835.914669999991
 21
17040.226901999991
 31
0.0
  0
LINE
  5
34FA
  8
2-0
  6
CONTINUOUS
 62
     3
 10
24865.912294000002
 20
17046.228802000001
 30
0.0
 11
24835.914669999991
 21
17046.228802000001
 31
0.0
  0
LINE
  5
34FB
  8
2-0
  6
CONTINUOUS
 62
     3
 10
24865.912294000002
 20
17055.83738600001
 30
0.0
 11
24865.912294000002
 21
17703.141716999991
 31
0.0
  0
LINE
  5
34FC
  8
2-0
  6
CONTINUOUS
 62
     3
 10
24865.912294000002
 20
17760.331988000002
 30
0.0
 11
24865.912294000002
 21
18404.135778
 31
0.0
  0
LINE
  5
34FD
  8
2-0
  6
CONTINUOUS
 62
     3
 10
24865.912294000002
 20
16901.22708700001
 30
0.0
 11
24835.914669999991
 21
16901.22708700001
 31
0.0
  0
LINE
  5
34FE
  8
2-0
  6
CONTINUOUS
 62
     3
 10
24835.914669999991
 20
16901.22708700001
 30
0.0
 11
24835.914669999991
 21
16907.22898700001
 31
0.0
  0
LINE
  5
34FF
  8
2-0
  6
CONTINUOUS
 62
     3
 10
24778.029587000001
 20
16931.232629999991
 30
0.0
 11
24863.026156
 21
16931.232629999991
 31
0.0
  0
LINE
  5
3500
  8
2-0
  6
CONTINUOUS
 62
     3
 10
24863.026156
 20
16931.232629999991
 30
0.0
 11
24863.026156
 21
16951.227747000012
 31
0.0
  0
LINE
  5
3501
  8
2-0
  6
CONTINUOUS
 62
     3
 10
24835.914669999991
 20
16891.618503999998
 30
0.0
 11
24865.912294000002
 21
16891.618503999998
 31
0.0
  0
LINE
  5
3502
  8
2-0
  6
CONTINUOUS
 62
     3
 10
24835.914669999991
 20
16909.614306999982
 30
0.0
 11
24835.914669999991
 21
16891.618503999998
 31
0.0
  0
LINE
  5
3503
  8
2-0
  6
CONTINUOUS
 62
     3
 10
24860.91203000001
 20
16909.614306999982
 30
0.0
 11
24835.914669999991
 21
16909.614306999982
 31
0.0
  0
LINE
  5
3504
  8
2-0
  6
CONTINUOUS
 62
     3
 10
24860.91203000001
 20
16904.614043000009
 30
0.0
 11
24860.91203000001
 21
16909.614306999982
 31
0.0
  0
LINE
  5
3505
  8
2-0
  6
CONTINUOUS
 62
     3
 10
24853.910473
 20
16904.614043000009
 30
0.0
 11
24860.91203000001
 21
16904.614043000009
 31
0.0
  0
LINE
  5
3506
  8
2-0
  6
CONTINUOUS
 62
     3
 10
24853.910473
 20
16200.131812499991
 30
0.0
 11
24860.91203000001
 21
16200.131812499991
 31
0.0
  0
LINE
  5
3507
  8
2-0
  6
CONTINUOUS
 62
     3
 10
24860.91203000001
 20
16200.131812499991
 30
0.0
 11
24860.91203000001
 21
16205.13207649998
 31
0.0
  0
LINE
  5
3508
  8
2-0
  6
CONTINUOUS
 62
     3
 10
24860.91203000001
 20
16205.13207649998
 30
0.0
 11
24835.914669999991
 21
16205.13207649998
 31
0.0
  0
LINE
  5
3509
  8
2-0
  6
CONTINUOUS
 62
     3
 10
24835.914669999991
 20
16205.13207649998
 30
0.0
 11
24835.914669999991
 21
16187.130334499991
 31
0.0
  0
LINE
  5
350A
  8
2-0
  6
CONTINUOUS
 62
     3
 10
24835.914669999991
 20
16187.130334499991
 30
0.0
 11
24865.912294000002
 21
16187.130334499991
 31
0.0
  0
LINE
  5
350B
  8
2-0
  6
CONTINUOUS
 62
     3
 10
24835.914669999991
 20
16203.227779500001
 30
0.0
 11
24835.914669999991
 21
16197.2308285
 31
0.0
  0
LINE
  5
350C
  8
2-0
  6
CONTINUOUS
 62
     3
 10
24835.914669999991
 20
16197.2308285
 30
0.0
 11
24865.912294000002
 21
16197.2308285
 31
0.0
  0
LINE
  5
350D
  8
2-0
  6
CONTINUOUS
 62
     3
 10
24865.912294000002
 20
16197.2308285
 30
0.0
 11
24865.912294000002
 21
16234.2309995
 31
0.0
  0
LINE
  5
350E
  8
2-0
  6
CONTINUOUS
 62
     3
 10
24835.914669999991
 20
16234.2309995
 30
0.0
 11
24865.912294000002
 21
16234.2309995
 31
0.0
  0
LINE
  5
350F
  8
2-0
  6
CONTINUOUS
 62
     3
 10
24835.914669999991
 20
16228.228109499991
 30
0.0
 11
24835.914669999991
 21
16234.2309995
 31
0.0
  0
LINE
  5
3510
  8
2-0
  6
CONTINUOUS
 62
     3
 10
24835.914669999991
 20
16244.3265445
 30
0.0
 11
24865.912294000002
 21
16244.3265445
 31
0.0
  0
LINE
  5
3511
  8
2-0
  6
CONTINUOUS
 62
     3
 10
24835.914669999991
 20
16226.318863500001
 30
0.0
 11
24835.914669999991
 21
16244.3265445
 31
0.0
  0
LINE
  5
3512
  8
2-0
  6
CONTINUOUS
 62
     3
 10
24860.91203000001
 20
16226.318863500001
 30
0.0
 11
24835.914669999991
 21
16226.318863500001
 31
0.0
  0
LINE
  5
3513
  8
2-0
  6
CONTINUOUS
 62
     3
 10
24860.91203000001
 20
16231.3250665
 30
0.0
 11
24860.91203000001
 21
16226.318863500001
 31
0.0
  0
LINE
  5
3514
  8
2-0
  6
CONTINUOUS
 62
     3
 10
24853.910473
 20
16231.3250665
 30
0.0
 11
24860.91203000001
 21
16231.3250665
 31
0.0
  0
LINE
  5
3515
  8
2-0
  6
CONTINUOUS
 62
     3
 10
24853.910473
 20
15530.565083
 30
0.0
 11
24860.91203000001
 21
15530.565083
 31
0.0
  0
LINE
  5
3516
  8
2-0
  6
CONTINUOUS
 62
     3
 10
24860.91203000001
 20
15530.565083
 30
0.0
 11
24860.91203000001
 21
15525.570758000011
 31
0.0
  0
LINE
  5
3517
  8
2-0
  6
CONTINUOUS
 62
     3
 10
24860.91203000001
 20
15525.570758000011
 30
0.0
 11
24835.914669999991
 21
15525.570758000011
 31
0.0
  0
LINE
  5
3518
  8
2-0
  6
CONTINUOUS
 62
     3
 10
24835.914669999991
 20
15525.570758000011
 30
0.0
 11
24835.914669999991
 21
15543.566561000011
 31
0.0
  0
LINE
  5
3519
  8
2-0
  6
CONTINUOUS
 62
     3
 10
24835.914669999991
 20
15543.566561000011
 30
0.0
 11
24865.912294000002
 21
15543.566561000011
 31
0.0
  0
LINE
  5
351A
  8
2-0
  6
CONTINUOUS
 62
     3
 10
24835.914669999991
 20
15527.469116
 30
0.0
 11
24835.914669999991
 21
15533.47101600001
 31
0.0
  0
LINE
  5
351B
  8
2-0
  6
CONTINUOUS
 62
     3
 10
24835.914669999991
 20
15533.47101600001
 30
0.0
 11
24865.912294000002
 21
15533.47101600001
 31
0.0
  0
LINE
  5
351C
  8
2-0
  6
CONTINUOUS
 62
     3
 10
24865.912294000002
 20
15496.471835
 30
0.0
 11
24865.912294000002
 21
15533.47101600001
 31
0.0
  0
LINE
  5
351D
  8
2-0
  6
CONTINUOUS
 62
     3
 10
24835.914669999991
 20
15496.471835
 30
0.0
 11
24865.912294000002
 21
15496.471835
 31
0.0
  0
LINE
  5
351E
  8
2-0
  6
CONTINUOUS
 62
     3
 10
24835.914669999991
 20
15502.46878600001
 30
0.0
 11
24835.914669999991
 21
15496.471835
 31
0.0
  0
LINE
  5
351F
  8
2-0
  6
CONTINUOUS
 62
     3
 10
24835.914669999991
 20
15486.370351
 30
0.0
 11
24865.912294000002
 21
15486.370351
 31
0.0
  0
LINE
  5
3520
  8
2-0
  6
CONTINUOUS
 62
     3
 10
24835.914669999991
 20
15504.378032000001
 30
0.0
 11
24835.914669999991
 21
15486.370351
 31
0.0
  0
LINE
  5
3521
  8
2-0
  6
CONTINUOUS
 62
     3
 10
24860.91203000001
 20
15504.378032000001
 30
0.0
 11
24835.914669999991
 21
15504.378032000001
 31
0.0
  0
LINE
  5
3522
  8
2-0
  6
CONTINUOUS
 62
     3
 10
24860.91203000001
 20
15499.377768000009
 30
0.0
 11
24860.91203000001
 21
15504.378032000001
 31
0.0
  0
LINE
  5
3523
  8
2-0
  6
CONTINUOUS
 62
     3
 10
24853.910473
 20
15499.377768000009
 30
0.0
 11
24860.91203000001
 21
15499.377768000009
 31
0.0
  0
LINE
  5
3524
  8
2-0
  6
CONTINUOUS
 62
     3
 10
24865.912294000002
 20
16891.618503999998
 30
0.0
 11
24865.912294000002
 21
16244.3265445
 31
0.0
  0
LINE
  5
3525
  8
2-0
  6
CONTINUOUS
 62
     3
 10
24865.912294000002
 20
17046.228802000001
 30
0.0
 11
24865.912294000002
 21
16901.22708700001
 31
0.0
  0
LINE
  5
3526
  8
2-0
  6
CONTINUOUS
 62
     3
 10
24778.029587000001
 20
17016.229198000001
 30
0.0
 11
24778.029587000001
 21
16931.232629999991
 31
0.0
  0
LINE
  5
3527
  8
2-0
  6
CONTINUOUS
 62
     6
 10
23239.820919999991
 20
18784.676463499982
 30
0.0
 11
24264.853252000001
 21
18784.676463499982
 31
0.0
  0
LINE
  5
3528
  8
2-0
  6
CONTINUOUS
 62
     3
 10
24853.910473
 20
14798.136761
 30
0.0
 11
24860.91203000001
 21
14798.136761
 31
0.0
  0
LINE
  5
3529
  8
2-0
  6
CONTINUOUS
 62
     3
 10
24860.91203000001
 20
14798.136761
 30
0.0
 11
24860.91203000001
 21
14803.131087
 31
0.0
  0
LINE
  5
352A
  8
2-0
  6
CONTINUOUS
 62
     3
 10
24860.91203000001
 20
14803.131087
 30
0.0
 11
24835.914669999991
 21
14803.131087
 31
0.0
  0
LINE
  5
352B
  8
2-0
  6
CONTINUOUS
 62
     3
 10
24835.914669999991
 20
14803.131087
 30
0.0
 11
24835.914669999991
 21
14785.135283
 31
0.0
  0
LINE
  5
352C
  8
2-0
  6
CONTINUOUS
 62
     3
 10
24835.914669999991
 20
14785.135283
 30
0.0
 11
24865.912294000002
 21
14785.135283
 31
0.0
  0
LINE
  5
352D
  8
2-0
  6
CONTINUOUS
 62
     3
 10
24835.914669999991
 20
14801.23371800001
 30
0.0
 11
24835.914669999991
 21
14795.230828000011
 31
0.0
  0
LINE
  5
352E
  8
2-0
  6
CONTINUOUS
 62
     3
 10
24835.914669999991
 20
14795.230828000011
 30
0.0
 11
24865.912294000002
 21
14795.230828000011
 31
0.0
  0
LINE
  5
352F
  8
2-0
  6
CONTINUOUS
 62
     3
 10
24865.912294000002
 20
14795.230828000011
 30
0.0
 11
24865.912294000002
 21
14832.230999999991
 31
0.0
  0
LINE
  5
3530
  8
2-0
  6
CONTINUOUS
 62
     3
 10
24835.914669999991
 20
14832.230999999991
 30
0.0
 11
24865.912294000002
 21
14832.230999999991
 31
0.0
  0
LINE
  5
3531
  8
2-0
  6
CONTINUOUS
 62
     3
 10
24835.914669999991
 20
14826.23404799998
 30
0.0
 11
24835.914669999991
 21
14832.230999999991
 31
0.0
  0
LINE
  5
3532
  8
2-0
  6
CONTINUOUS
 62
     3
 10
24835.914669999991
 20
14842.331493000011
 30
0.0
 11
24865.912294000002
 21
14842.331493000011
 31
0.0
  0
LINE
  5
3533
  8
2-0
  6
CONTINUOUS
 62
     3
 10
24835.914669999991
 20
14824.32480200001
 30
0.0
 11
24835.914669999991
 21
14842.331493000011
 31
0.0
  0
LINE
  5
3534
  8
2-0
  6
CONTINUOUS
 62
     3
 10
24860.91203000001
 20
14824.32480200001
 30
0.0
 11
24835.914669999991
 21
14824.32480200001
 31
0.0
  0
LINE
  5
3535
  8
2-0
  6
CONTINUOUS
 62
     3
 10
24860.91203000001
 20
14829.33001500001
 30
0.0
 11
24860.91203000001
 21
14824.32480200001
 31
0.0
  0
LINE
  5
3536
  8
2-0
  6
CONTINUOUS
 62
     3
 10
24853.910473
 20
14829.33001500001
 30
0.0
 11
24860.91203000001
 21
14829.33001500001
 31
0.0
  0
LINE
  5
3537
  8
2-0
  6
CONTINUOUS
 62
     3
 10
24835.914669999991
 20
14122.23284099999
 30
0.0
 11
24835.914669999991
 21
14128.237709999999
 31
0.0
  0
LINE
  5
3538
  8
2-0
  6
CONTINUOUS
 62
     3
 10
24835.914669999991
 20
14128.237709999999
 30
0.0
 11
24865.912294000002
 21
14128.237709999999
 31
0.0
  0
LINE
  5
3539
  8
2-0
  6
CONTINUOUS
 62
     3
 10
24865.912294000002
 20
14128.237709999999
 30
0.0
 11
24865.912294000002
 21
14013.233619000001
 31
0.0
  0
LINE
  5
353A
  8
2-0
  6
CONTINUOUS
 62
     3
 10
24865.912294000002
 20
14013.233619000001
 30
0.0
 11
24780.913745999991
 21
14013.233619000001
 31
0.0
  0
LINE
  5
353B
  8
2-0
  6
CONTINUOUS
 62
     3
 10
24780.913745999991
 20
14013.233619000001
 30
0.0
 11
24780.913745999991
 21
14098.229198000001
 31
0.0
  0
LINE
  5
353C
  8
2-0
  6
CONTINUOUS
 62
     3
 10
24780.913745999991
 20
14098.229198000001
 30
0.0
 11
24812.912663999989
 21
14098.229198000001
 31
0.0
  0
LINE
  5
353D
  8
2-0
  6
CONTINUOUS
 62
     3
 10
24853.910473
 20
14125.267443000001
 30
0.0
 11
24860.91203000001
 21
14125.267443000001
 31
0.0
  0
LINE
  5
353E
  8
2-0
  6
CONTINUOUS
 62
     3
 10
24860.91203000001
 20
14125.267443000001
 30
0.0
 11
24860.91203000001
 21
14120.270147999971
 31
0.0
  0
LINE
  5
353F
  8
2-0
  6
CONTINUOUS
 62
     3
 10
24860.91203000001
 20
14120.270147999971
 30
0.0
 11
24835.914669999991
 21
14120.270147999971
 31
0.0
  0
LINE
  5
3540
  8
2-0
  6
CONTINUOUS
 62
     3
 10
24835.914669999991
 20
14120.270147999971
 30
0.0
 11
24835.914669999991
 21
14138.268921000001
 31
0.0
  0
LINE
  5
3541
  8
2-0
  6
CONTINUOUS
 62
     3
 10
24835.914669999991
 20
14138.268921000001
 30
0.0
 11
24865.912294000002
 21
14138.268921000001
 31
0.0
  0
LINE
  5
3542
  8
2-0
  6
CENTER2
 62
     6
 10
24823.41401
 20
13815.736060999991
 30
0.0
 11
24823.41401
 21
14971.60481900002
 31
0.0
  0
LINE
  5
3543
  8
2-0
  6
CONTINUOUS
 62
     3
 10
24865.912294000002
 20
18461.32605
 30
0.0
 11
24865.912294000002
 21
19105.1367675
 31
0.0
  0
LINE
  5
3544
  8
2-0
  6
CONTINUOUS
 62
     6
 10
25558.417176999988
 20
20664.232102000031
 30
0.0
 11
26758.411238999961
 21
20664.232102000031
 31
0.0
  0
LINE
  5
3545
  8
2-0
  6
CONTINUOUS
 62
     3
 10
23029.415858000011
 20
19934.229199000009
 30
0.0
 11
23029.415858000011
 21
19904.22563600001
 31
0.0
  0
LINE
  5
3546
  8
2-0
  6
CONTINUOUS
 62
     3
 10
23029.415858000011
 20
19904.22563600001
 30
0.0
 11
23023.417915999991
 21
19904.22563600001
 31
0.0
  0
LINE
  5
3547
  8
2-0
  6
CONTINUOUS
 62
     3
 10
23039.032359000001
 20
19904.22563600001
 30
0.0
 11
23039.032359000001
 21
19934.229199000009
 31
0.0
  0
LINE
  5
3548
  8
2-0
  6
CONTINUOUS
 62
     3
 10
23021.030617
 20
19904.22563600001
 30
0.0
 11
23039.032359000001
 21
19904.22563600001
 31
0.0
  0
LINE
  5
3549
  8
2-0
  6
CONTINUOUS
 62
     3
 10
23021.030617
 20
19929.234873000001
 30
0.0
 11
23021.030617
 21
19904.22563600001
 31
0.0
  0
LINE
  5
354A
  8
2-0
  6
CONTINUOUS
 62
     3
 10
23026.03088100001
 20
19929.234873000001
 30
0.0
 11
23021.030617
 21
19929.234873000001
 31
0.0
  0
LINE
  5
354B
  8
2-0
  6
CONTINUOUS
 62
     3
 10
23026.03088100001
 20
19922.229357000011
 30
0.0
 11
23026.03088100001
 21
19929.234873000001
 31
0.0
  0
LINE
  5
354C
  8
2-0
  6
CONTINUOUS
 62
     3
 10
22999.41427400001
 20
19931.337122000001
 30
0.0
 11
22999.41427400001
 21
19846.338574000009
 31
0.0
  0
LINE
  5
354D
  8
2-0
  6
CONTINUOUS
 62
     3
 10
22979.417176999999
 20
19931.337122000001
 30
0.0
 11
22999.41427400001
 21
19931.337122000001
 31
0.0
  0
LINE
  5
354E
  8
2-0
  6
CONTINUOUS
 62
     3
 10
22887.803078000012
 20
19922.229357000011
 30
0.0
 11
22887.803078000012
 21
19929.234873000001
 31
0.0
  0
LINE
  5
354F
  8
2-0
  6
CONTINUOUS
 62
     3
 10
22887.803078000012
 20
19929.234873000001
 30
0.0
 11
22892.803341999988
 21
19929.234873000001
 31
0.0
  0
LINE
  5
3550
  8
2-0
  6
CONTINUOUS
 62
     3
 10
22892.803341999988
 20
19929.234873000001
 30
0.0
 11
22892.803341999988
 21
19904.22563600001
 31
0.0
  0
LINE
  5
3551
  8
2-0
  6
CONTINUOUS
 62
     3
 10
22892.803341999988
 20
19904.22563600001
 30
0.0
 11
22874.801599999992
 21
19904.22563600001
 31
0.0
  0
LINE
  5
3552
  8
2-0
  6
CONTINUOUS
 62
     3
 10
22874.801599999992
 20
19904.22563600001
 30
0.0
 11
22874.801599999992
 21
19934.229199000009
 31
0.0
  0
LINE
  5
3553
  8
2-0
  6
CONTINUOUS
 62
     3
 10
22914.421664000001
 20
19931.337122000001
 30
0.0
 11
22934.416781000011
 21
19931.337122000001
 31
0.0
  0
LINE
  5
3554
  8
2-0
  6
CONTINUOUS
 62
     3
 10
22914.421664000001
 20
19846.338574000009
 30
0.0
 11
22914.421664000001
 21
19931.337122000001
 31
0.0
  0
LINE
  5
3555
  8
2-0
  6
CONTINUOUS
 62
     3
 10
22884.424040000002
 20
19904.22563600001
 30
0.0
 11
22890.420000999991
 21
19904.22563600001
 31
0.0
  0
LINE
  5
3556
  8
2-0
  6
CONTINUOUS
 62
     3
 10
22884.424040000002
 20
19934.229199000009
 30
0.0
 11
22884.424040000002
 21
19904.22563600001
 31
0.0
  0
LINE
  5
3557
  8
2-0
  6
CONTINUOUS
 62
     3
 10
22999.41427400001
 20
19846.338574000009
 30
0.0
 11
22914.421664000001
 21
19846.338574000009
 31
0.0
  0
LINE
  5
3558
  8
2-0
  6
CONTINUOUS
 62
     3
 10
23029.415858000011
 20
19934.229199000009
 30
0.0
 11
22884.424040000002
 21
19934.229199000009
 31
0.0
  0
LINE
  5
3559
  8
2-0
  6
CONTINUOUS
 62
     6
 10
24696.384343999991
 20
19026.830971499989
 30
0.0
 11
24264.853252000001
 21
18784.676463499982
 31
0.0
  0
LINE
  5
355A
  8
2-0
  6
CONTINUOUS
 62
     6
 10
25017.95317799996
 20
20076.908939000012
 30
0.0
 11
25558.417176999988
 21
20664.232102000031
 31
0.0
  0
LINE
  5
355B
  8
2-0
  6
CONTINUOUS
 62
     3
 10
24865.912294000002
 20
16187.130334499991
 30
0.0
 11
24865.912294000002
 21
15543.566561000011
 31
0.0
  0
LINE
  5
355C
  8
2-0
  6
CONTINUOUS
 62
     6
 10
24683.327439000001
 20
19050.090315500001
 30
0.0
 11
24835.914669999991
 21
19105.1367675
 31
0.0
  0
LINE
  5
355D
  8
2-0
  6
CONTINUOUS
 62
     6
 10
24835.914669999991
 20
19105.1367675
 30
0.0
 11
24709.43333
 21
19003.57756749999
 31
0.0
  0
LINE
  5
355E
  8
2-0
  6
CONTINUOUS
 62
     6
 10
24683.327439000001
 20
19050.090315500001
 30
0.0
 11
24709.43333
 21
19003.57756749999
 31
0.0
  0
LINE
  5
355F
  8
2-0
  6
CONTINUOUS
 62
     6
 10
24709.43333
 20
19003.57756749999
 30
0.0
 11
24835.914669999991
 21
19105.1367675
 31
0.0
  0
LINE
  5
3560
  8
2-0
  6
CONTINUOUS
 62
     6
 10
24835.914669999991
 20
19105.1367675
 30
0.0
 11
24683.327439000001
 21
19050.090315500001
 31
0.0
  0
LINE
  5
3561
  8
2-0
  6
CONTINUOUS
 62
     6
 10
24683.327439000001
 20
19050.090315500001
 30
0.0
 11
24835.914669999991
 21
19105.1367675
 31
0.0
  0
LINE
  5
3562
  8
2-0
  6
CONTINUOUS
 62
     6
 10
24709.43333
 20
19003.57756749999
 30
0.0
 11
24835.914669999991
 21
19105.1367675
 31
0.0
  0
LINE
  5
3563
  8
2-0
  6
CONTINUOUS
 62
     6
 10
24709.43333
 20
19003.57756749999
 30
0.0
 11
24683.327439000001
 21
19050.090315500001
 31
0.0
  0
LINE
  5
3564
  8
2-0
  6
CONTINUOUS
 62
     6
 10
25037.570207000001
 20
20058.847812000022
 30
0.0
 11
24909.608187000002
 21
19959.165194000008
 31
0.0
  0
LINE
  5
3565
  8
2-0
  6
CONTINUOUS
 62
     6
 10
24909.608187000002
 20
19959.165194000008
 30
0.0
 11
24998.322292000001
 21
20094.962149000021
 31
0.0
  0
LINE
  5
3566
  8
2-0
  6
CONTINUOUS
 62
     6
 10
25037.570207000001
 20
20058.847812000022
 30
0.0
 11
24998.322292000001
 21
20094.962149000021
 31
0.0
  0
LINE
  5
3567
  8
2-0
  6
CONTINUOUS
 62
     6
 10
24998.322292000001
 20
20094.962149000021
 30
0.0
 11
24909.608187000002
 21
19959.165194000008
 31
0.0
  0
LINE
  5
3568
  8
2-0
  6
CONTINUOUS
 62
     6
 10
24909.608187000002
 20
19959.165194000008
 30
0.0
 11
25037.570207000001
 21
20058.847812000022
 31
0.0
  0
LINE
  5
3569
  8
2-0
  6
CONTINUOUS
 62
     6
 10
25037.570207000001
 20
20058.847812000022
 30
0.0
 11
24909.608187000002
 21
19959.165194000008
 31
0.0
  0
LINE
  5
356A
  8
2-0
  6
CONTINUOUS
 62
     6
 10
24998.322292000001
 20
20094.962149000021
 30
0.0
 11
24909.608187000002
 21
19959.165194000008
 31
0.0
  0
LINE
  5
356B
  8
2-0
  6
CONTINUOUS
 62
     6
 10
24998.322292000001
 20
20094.962149000021
 30
0.0
 11
25037.570207000001
 21
20058.847812000022
 31
0.0
  0
LINE
  5
356C
  8
2-0
  6
CONTINUOUS
 62
     4
 10
22956.91401
 20
20014.231442000018
 30
0.0
 11
22956.91401
 21
20744.228406999999
 31
0.0
  0
LINE
  5
356D
  8
2-0
  6
CONTINUOUS
 62
     6
 10
24589.274572999999
 20
13904.96088099999
 30
0.0
 11
24721.021432000001
 21
13999.587808
 31
0.0
  0
LINE
  5
356E
  8
2-0
  6
CONTINUOUS
 62
     6
 10
24721.021432000001
 20
13999.587808
 30
0.0
 11
24627.091295999991
 21
13867.34903799998
 31
0.0
  0
LINE
  5
356F
  8
2-0
  6
CONTINUOUS
 62
     6
 10
24589.274572999999
 20
13904.96088099999
 30
0.0
 11
24627.091295999991
 21
13867.34903799998
 31
0.0
  0
LINE
  5
3570
  8
2-0
  6
CONTINUOUS
 62
     6
 10
24627.091295999991
 20
13867.34903799998
 30
0.0
 11
24721.021432000001
 21
13999.587808
 31
0.0
  0
LINE
  5
3571
  8
2-0
  6
CONTINUOUS
 62
     6
 10
24721.021432000001
 20
13999.587808
 30
0.0
 11
24589.274572999999
 21
13904.96088099999
 31
0.0
  0
LINE
  5
3572
  8
2-0
  6
CONTINUOUS
 62
     6
 10
24589.274572999999
 20
13904.96088099999
 30
0.0
 11
24721.021432000001
 21
13999.587808
 31
0.0
  0
LINE
  5
3573
  8
2-0
  6
CONTINUOUS
 62
     6
 10
24627.091295999991
 20
13867.34903799998
 30
0.0
 11
24721.021432000001
 21
13999.587808
 31
0.0
  0
LINE
  5
3574
  8
2-0
  6
CONTINUOUS
 62
     6
 10
24627.091295999991
 20
13867.34903799998
 30
0.0
 11
24589.274572999999
 21
13904.96088099999
 31
0.0
  0
LINE
  5
3575
  8
2-0
  6
CONTINUOUS
 62
     6
 10
24652.310362
 20
14231.865507999981
 30
0.0
 11
24784.910393999991
 21
14138.437179999981
 31
0.0
  0
LINE
  5
3576
  8
2-0
  6
CONTINUOUS
 62
     6
 10
24784.910393999991
 20
14138.437179999981
 30
0.0
 11
24629.177707999988
 21
14183.812694
 31
0.0
  0
LINE
  5
3577
  8
2-0
  6
CONTINUOUS
 62
     6
 10
24652.310362
 20
14231.865507999981
 30
0.0
 11
24629.177707999988
 21
14183.812694
 31
0.0
  0
LINE
  5
3578
  8
2-0
  6
CONTINUOUS
 62
     6
 10
24629.177707999988
 20
14183.812694
 30
0.0
 11
24784.910393999991
 21
14138.437179999981
 31
0.0
  0
LINE
  5
3579
  8
2-0
  6
CONTINUOUS
 62
     6
 10
24784.910393999991
 20
14138.437179999981
 30
0.0
 11
24652.310362
 21
14231.865507999981
 31
0.0
  0
LINE
  5
357A
  8
2-0
  6
CONTINUOUS
 62
     6
 10
24652.310362
 20
14231.865507999981
 30
0.0
 11
24784.910393999991
 21
14138.437179999981
 31
0.0
  0
LINE
  5
357B
  8
2-0
  6
CONTINUOUS
 62
     6
 10
24629.177707999988
 20
14183.812694
 30
0.0
 11
24784.910393999991
 21
14138.437179999981
 31
0.0
  0
LINE
  5
357C
  8
2-0
  6
CONTINUOUS
 62
     6
 10
24629.177707999988
 20
14183.812694
 30
0.0
 11
24652.310362
 21
14231.865507999981
 31
0.0
  0
LINE
  5
357D
  8
2-0
  6
CONTINUOUS
 62
     6
 10
24712.074008
 20
16611.686441000009
 30
0.0
 11
24865.912294000002
 21
16663.120272000011
 31
0.0
  0
LINE
  5
357E
  8
2-0
  6
CONTINUOUS
 62
     6
 10
24865.912294000002
 20
16663.120272000011
 30
0.0
 11
24737.077306999981
 21
16564.579837000008
 31
0.0
  0
LINE
  5
357F
  8
2-0
  6
CONTINUOUS
 62
     6
 10
24712.074008
 20
16611.686441000009
 30
0.0
 11
24737.077306999981
 21
16564.579837000008
 31
0.0
  0
LINE
  5
3580
  8
2-0
  6
CONTINUOUS
 62
     6
 10
24737.077306999981
 20
16564.579837000008
 30
0.0
 11
24865.912294000002
 21
16663.120272000011
 31
0.0
  0
LINE
  5
3581
  8
2-0
  6
CONTINUOUS
 62
     6
 10
24865.912294000002
 20
16663.120272000011
 30
0.0
 11
24712.074008
 21
16611.686441000009
 31
0.0
  0
LINE
  5
3582
  8
2-0
  6
CONTINUOUS
 62
     6
 10
24712.074008
 20
16611.686441000009
 30
0.0
 11
24865.912294000002
 21
16663.120272000011
 31
0.0
  0
LINE
  5
3583
  8
2-0
  6
CONTINUOUS
 62
     6
 10
24737.077306999981
 20
16564.579837000008
 30
0.0
 11
24865.912294000002
 21
16663.120272000011
 31
0.0
  0
LINE
  5
3584
  8
2-0
  6
CONTINUOUS
 62
     6
 10
24737.077306999981
 20
16564.579837000008
 30
0.0
 11
24712.074008
 21
16611.686441000009
 31
0.0
  0
LINE
  5
3585
  8
2-0
  6
CONTINUOUS
 62
     6
 10
24578.137801000001
 20
17103.004933000011
 30
0.0
 11
24721.021432000001
 21
17026.229304000011
 31
0.0
  0
LINE
  5
3586
  8
2-0
  6
CONTINUOUS
 62
     6
 10
24721.021432000001
 20
17026.229304000011
 30
0.0
 11
24560.959538999999
 21
17052.511373000019
 31
0.0
  0
LINE
  5
3587
  8
2-0
  6
CONTINUOUS
 62
     6
 10
24578.137801000001
 20
17103.004933000011
 30
0.0
 11
24560.959538999999
 21
17052.511373000019
 31
0.0
  0
LINE
  5
3588
  8
2-0
  6
CONTINUOUS
 62
     6
 10
24560.959538999999
 20
17052.511373000019
 30
0.0
 11
24721.021432000001
 21
17026.229304000011
 31
0.0
  0
LINE
  5
3589
  8
2-0
  6
CONTINUOUS
 62
     6
 10
24721.021432000001
 20
17026.229304000011
 30
0.0
 11
24578.137801000001
 21
17103.004933000011
 31
0.0
  0
LINE
  5
358A
  8
2-0
  6
CONTINUOUS
 62
     6
 10
24578.137801000001
 20
17103.004933000011
 30
0.0
 11
24721.021432000001
 21
17026.229304000011
 31
0.0
  0
LINE
  5
358B
  8
2-0
  6
CONTINUOUS
 62
     6
 10
24560.959538999999
 20
17052.511373000019
 30
0.0
 11
24721.021432000001
 21
17026.229304000011
 31
0.0
  0
LINE
  5
358C
  8
2-0
  6
CONTINUOUS
 62
     6
 10
24560.959538999999
 20
17052.511373000019
 30
0.0
 11
24578.137801000001
 21
17103.004933000011
 31
0.0
  0
LINE
  5
358D
  8
2-0
  6
CONTINUOUS
 62
     3
 10
22217.41459099999
 20
19934.229199000009
 30
0.0
 11
22180.413429
 21
19934.229199000009
 31
0.0
  0
LINE
  5
358E
  8
2-0
  6
CONTINUOUS
 62
     3
 10
22217.41459099999
 20
19904.22563600001
 30
0.0
 11
22217.41459099999
 21
19934.229199000009
 31
0.0
  0
LINE
  5
358F
  8
2-0
  6
CONTINUOUS
 62
     3
 10
22211.41466999998
 20
19904.22563600001
 30
0.0
 11
22217.41459099999
 21
19904.22563600001
 31
0.0
  0
LINE
  5
3590
  8
2-0
  6
CONTINUOUS
 62
     3
 10
22227.512115000001
 20
19904.22563600001
 30
0.0
 11
22227.512115000001
 21
19934.229199000009
 31
0.0
  0
LINE
  5
3591
  8
2-0
  6
CONTINUOUS
 62
     3
 10
22209.508393999989
 20
19904.22563600001
 30
0.0
 11
22227.512115000001
 21
19904.22563600001
 31
0.0
  0
LINE
  5
3592
  8
2-0
  6
CONTINUOUS
 62
     3
 10
22209.508393999989
 20
19929.234873000001
 30
0.0
 11
22209.508393999989
 21
19904.22563600001
 31
0.0
  0
LINE
  5
3593
  8
2-0
  6
CONTINUOUS
 62
     3
 10
22214.508657999999
 20
19929.234873000001
 30
0.0
 11
22209.508393999989
 21
19929.234873000001
 31
0.0
  0
LINE
  5
3594
  8
2-0
  6
CONTINUOUS
 62
     3
 10
22214.508657999999
 20
19922.229357000011
 30
0.0
 11
22214.508657999999
 21
19929.234873000001
 31
0.0
  0
LINE
  5
3595
  8
2-0
  6
CONTINUOUS
 62
     3
 10
22183.319362999991
 20
19922.229357000011
 30
0.0
 11
22183.319362999991
 21
19929.234873000001
 31
0.0
  0
LINE
  5
3596
  8
2-0
  6
CONTINUOUS
 62
     3
 10
22183.319362999991
 20
19929.234873000001
 30
0.0
 11
22188.319627000001
 21
19929.234873000001
 31
0.0
  0
LINE
  5
3597
  8
2-0
  6
CONTINUOUS
 62
     3
 10
22188.319627000001
 20
19929.234873000001
 30
0.0
 11
22188.319627000001
 21
19904.22563600001
 31
0.0
  0
LINE
  5
3598
  8
2-0
  6
CONTINUOUS
 62
     3
 10
22188.319627000001
 20
19904.22563600001
 30
0.0
 11
22170.319864000001
 21
19904.22563600001
 31
0.0
  0
LINE
  5
3599
  8
2-0
  6
CONTINUOUS
 62
     3
 10
22170.319864000001
 20
19904.22563600001
 30
0.0
 11
22170.319864000001
 21
19934.229199000009
 31
0.0
  0
LINE
  5
359A
  8
2-0
  6
CONTINUOUS
 62
     3
 10
22186.413349999999
 20
19904.22563600001
 30
0.0
 11
22180.413429
 21
19904.22563600001
 31
0.0
  0
LINE
  5
359B
  8
2-0
  6
CONTINUOUS
 62
     3
 10
22180.413429
 20
19904.22563600001
 30
0.0
 11
22180.413429
 21
19934.229199000009
 31
0.0
  0
LINE
  5
359C
  8
2-0
  6
CONTINUOUS
 62
     3
 10
20026.41533
 20
19825.228987999999
 30
0.0
 11
20026.41533
 21
19819.23302600002
 31
0.0
  0
LINE
  5
359D
  8
2-0
  6
CONTINUOUS
 62
     3
 10
20026.41533
 20
19819.23302600002
 30
0.0
 11
19996.417705
 21
19819.23302600002
 31
0.0
  0
LINE
  5
359E
  8
2-0
  6
CONTINUOUS
 62
     3
 10
19996.417705
 20
19819.23302600002
 30
0.0
 11
19996.417705
 21
19934.229199000009
 31
0.0
  0
LINE
  5
359F
  8
2-0
  6
CONTINUOUS
 62
     3
 10
19996.417705
 20
19849.23263000001
 30
0.0
 11
20077.415646000001
 21
19849.23263000001
 31
0.0
  0
LINE
  5
35A0
  8
2-0
  6
CONTINUOUS
 62
     3
 10
20026.41533
 20
19808.935570000001
 30
0.0
 11
19996.417705
 21
19808.935570000001
 31
0.0
  0
LINE
  5
35A1
  8
2-0
  6
CONTINUOUS
 62
     3
 10
20026.41533
 20
19826.93731200002
 30
0.0
 11
20026.41533
 21
19808.935570000001
 31
0.0
  0
LINE
  5
35A2
  8
2-0
  6
CONTINUOUS
 62
     3
 10
20001.421928
 20
19826.93731200002
 30
0.0
 11
20026.41533
 21
19826.93731200002
 31
0.0
  0
LINE
  5
35A3
  8
2-0
  6
CONTINUOUS
 62
     3
 10
20001.421928
 20
19821.929130000019
 30
0.0
 11
20001.421928
 21
19826.93731200002
 31
0.0
  0
LINE
  5
35A4
  8
2-0
  6
CONTINUOUS
 62
     3
 10
20008.419525999969
 20
19821.929130000019
 30
0.0
 11
20001.421928
 21
19821.929130000019
 31
0.0
  0
LINE
  5
35A5
  8
2-0
  6
CONTINUOUS
 62
     3
 10
20108.713814999981
 20
19922.229357000011
 30
0.0
 11
20108.713814999981
 21
19929.234873000001
 31
0.0
  0
LINE
  5
35A6
  8
2-0
  6
CONTINUOUS
 62
     3
 10
20108.713814999981
 20
19929.234873000001
 30
0.0
 11
20103.711571
 21
19929.234873000001
 31
0.0
  0
LINE
  5
35A7
  8
2-0
  6
CONTINUOUS
 62
     3
 10
20103.711571
 20
19929.234873000001
 30
0.0
 11
20103.711571
 21
19904.22563600001
 31
0.0
  0
LINE
  5
35A8
  8
2-0
  6
CONTINUOUS
 62
     3
 10
20103.711571
 20
19904.22563600001
 30
0.0
 11
20121.719251999999
 21
19904.22563600001
 31
0.0
  0
LINE
  5
35A9
  8
2-0
  6
CONTINUOUS
 62
     3
 10
20121.719251999999
 20
19904.22563600001
 30
0.0
 11
20121.719251999999
 21
19934.229199000009
 31
0.0
  0
LINE
  5
35AA
  8
2-0
  6
CONTINUOUS
 62
     3
 10
20111.419816000001
 20
19934.229199000009
 30
0.0
 11
19996.417705
 21
19934.229199000009
 31
0.0
  0
LINE
  5
35AB
  8
2-0
  6
CONTINUOUS
 62
     3
 10
20111.419816000001
 20
19904.22563600001
 30
0.0
 11
20111.419816000001
 21
19934.229199000009
 31
0.0
  0
LINE
  5
35AC
  8
2-0
  6
CONTINUOUS
 62
     3
 10
20105.415937000002
 20
19904.22563600001
 30
0.0
 11
20111.419816000001
 21
19904.22563600001
 31
0.0
  0
LINE
  5
35AD
  8
2-0
  6
CONTINUOUS
 62
     3
 10
20812.5037085
 20
19922.229357000011
 30
0.0
 11
20812.5037085
 21
19929.234873000001
 31
0.0
  0
LINE
  5
35AE
  8
2-0
  6
CONTINUOUS
 62
     3
 10
20812.5037085
 20
19929.234873000001
 30
0.0
 11
20807.503444499991
 21
19929.234873000001
 31
0.0
  0
LINE
  5
35AF
  8
2-0
  6
CONTINUOUS
 62
     3
 10
20807.503444499991
 20
19929.234873000001
 30
0.0
 11
20807.503444499991
 21
19904.22563600001
 31
0.0
  0
LINE
  5
35B0
  8
2-0
  6
CONTINUOUS
 62
     3
 10
20807.503444499991
 20
19904.22563600001
 30
0.0
 11
20825.5091455
 21
19904.22563600001
 31
0.0
  0
LINE
  5
35B1
  8
2-0
  6
CONTINUOUS
 62
     3
 10
20825.5091455
 20
19904.22563600001
 30
0.0
 11
20825.5091455
 21
19934.229199000009
 31
0.0
  0
LINE
  5
35B2
  8
2-0
  6
CONTINUOUS
 62
     3
 10
20809.411700500001
 20
19904.22563600001
 30
0.0
 11
20815.413600500011
 21
19904.22563600001
 31
0.0
  0
LINE
  5
35B3
  8
2-0
  6
CONTINUOUS
 62
     3
 10
20815.413600500011
 20
19904.22563600001
 30
0.0
 11
20815.413600500011
 21
19934.229199000009
 31
0.0
  0
LINE
  5
35B4
  8
2-0
  6
CONTINUOUS
 62
     3
 10
20778.41441949999
 20
19934.229199000009
 30
0.0
 11
20815.413600500011
 21
19934.229199000009
 31
0.0
  0
LINE
  5
35B5
  8
2-0
  6
CONTINUOUS
 62
     3
 10
20778.41441949999
 20
19904.22563600001
 30
0.0
 11
20778.41441949999
 21
19934.229199000009
 31
0.0
  0
LINE
  5
35B6
  8
2-0
  6
CONTINUOUS
 62
     3
 10
20784.408401500001
 20
19904.22563600001
 30
0.0
 11
20778.41441949999
 21
19904.22563600001
 31
0.0
  0
LINE
  5
35B7
  8
2-0
  6
CONTINUOUS
 62
     3
 10
20768.318874500001
 20
19904.22563600001
 30
0.0
 11
20768.318874500001
 21
19934.229199000009
 31
0.0
  0
LINE
  5
35B8
  8
2-0
  6
CONTINUOUS
 62
     3
 10
20786.314677499999
 20
19904.22563600001
 30
0.0
 11
20768.318874500001
 21
19904.22563600001
 31
0.0
  0
LINE
  5
35B9
  8
2-0
  6
CONTINUOUS
 62
     3
 10
20786.314677499999
 20
19929.234873000001
 30
0.0
 11
20786.314677499999
 21
19904.22563600001
 31
0.0
  0
LINE
  5
35BA
  8
2-0
  6
CONTINUOUS
 62
     3
 10
20781.3144135
 20
19929.234873000001
 30
0.0
 11
20786.314677499999
 21
19929.234873000001
 31
0.0
  0
LINE
  5
35BB
  8
2-0
  6
CONTINUOUS
 62
     3
 10
20781.3144135
 20
19922.229357000011
 30
0.0
 11
20781.3144135
 21
19929.234873000001
 31
0.0
  0
LINE
  5
35BC
  8
2-0
  6
CONTINUOUS
 62
     3
 10
21482.313424499989
 20
19922.229357000011
 30
0.0
 11
21482.313424499989
 21
19929.234873000001
 31
0.0
  0
LINE
  5
35BD
  8
2-0
  6
CONTINUOUS
 62
     3
 10
21482.313424499989
 20
19929.234873000001
 30
0.0
 11
21487.313687499998
 21
19929.234873000001
 31
0.0
  0
LINE
  5
35BE
  8
2-0
  6
CONTINUOUS
 62
     3
 10
21487.313687499998
 20
19929.234873000001
 30
0.0
 11
21487.313687499998
 21
19904.22563600001
 31
0.0
  0
LINE
  5
35BF
  8
2-0
  6
CONTINUOUS
 62
     3
 10
21487.313687499998
 20
19904.22563600001
 30
0.0
 11
21469.319864499979
 21
19904.22563600001
 31
0.0
  0
LINE
  5
35C0
  8
2-0
  6
CONTINUOUS
 62
     3
 10
21469.319864499979
 20
19904.22563600001
 30
0.0
 11
21469.319864499979
 21
19934.229199000009
 31
0.0
  0
LINE
  5
35C1
  8
2-0
  6
CONTINUOUS
 62
     3
 10
21485.411370499991
 20
19904.22563600001
 30
0.0
 11
21479.4134295
 21
19904.22563600001
 31
0.0
  0
LINE
  5
35C2
  8
2-0
  6
CONTINUOUS
 62
     3
 10
21479.4134295
 20
19904.22563600001
 30
0.0
 11
21479.4134295
 21
19934.229199000009
 31
0.0
  0
LINE
  5
35C3
  8
2-0
  6
CONTINUOUS
 62
     3
 10
21516.4145905
 20
19934.229199000009
 30
0.0
 11
21479.4134295
 21
19934.229199000009
 31
0.0
  0
LINE
  5
35C4
  8
2-0
  6
CONTINUOUS
 62
     3
 10
21516.4145905
 20
19904.22563600001
 30
0.0
 11
21516.4145905
 21
19934.229199000009
 31
0.0
  0
LINE
  5
35C5
  8
2-0
  6
CONTINUOUS
 62
     3
 10
21510.408731499989
 20
19904.22563600001
 30
0.0
 11
21516.4145905
 21
19904.22563600001
 31
0.0
  0
LINE
  5
35C6
  8
2-0
  6
CONTINUOUS
 62
     3
 10
21526.508155499989
 20
19904.22563600001
 30
0.0
 11
21526.508155499989
 21
19934.229199000009
 31
0.0
  0
LINE
  5
35C7
  8
2-0
  6
CONTINUOUS
 62
     3
 10
21508.512352499991
 20
19904.22563600001
 30
0.0
 11
21526.508155499989
 21
19904.22563600001
 31
0.0
  0
LINE
  5
35C8
  8
2-0
  6
CONTINUOUS
 62
     3
 10
21508.512352499991
 20
19929.234873000001
 30
0.0
 11
21508.512352499991
 21
19904.22563600001
 31
0.0
  0
LINE
  5
35C9
  8
2-0
  6
CONTINUOUS
 62
     3
 10
21513.5027185
 20
19929.234873000001
 30
0.0
 11
21508.512352499991
 21
19929.234873000001
 31
0.0
  0
LINE
  5
35CA
  8
2-0
  6
CONTINUOUS
 62
     3
 10
21513.5027185
 20
19922.229357000011
 30
0.0
 11
21513.5027185
 21
19929.234873000001
 31
0.0
  0
LINE
  5
35CB
  8
2-0
  6
CONTINUOUS
 62
     3
 10
20825.5091455
 20
19934.229199000009
 30
0.0
 11
21469.319864499979
 21
19934.229199000009
 31
0.0
  0
LINE
  5
35CC
  8
2-0
  6
CONTINUOUS
 62
     3
 10
20121.719251999999
 20
19934.229199000009
 30
0.0
 11
20768.318874500001
 21
19934.229199000009
 31
0.0
  0
LINE
  5
35CD
  8
2-0
  6
CONTINUOUS
 62
     3
 10
22170.319864000001
 20
19934.229199000009
 30
0.0
 11
21526.508155499989
 21
19934.229199000009
 31
0.0
  0
LINE
  5
35CE
  8
2-0
  6
CONTINUOUS
 62
     3
 10
20026.41533
 20
19825.228987999999
 30
0.0
 11
20026.41533
 21
19819.23302600002
 31
0.0
  0
LINE
  5
35CF
  8
2-0
  6
CONTINUOUS
 62
     3
 10
20026.41533
 20
19819.23302600002
 30
0.0
 11
19996.417705
 21
19819.23302600002
 31
0.0
  0
LINE
  5
35D0
  8
2-0
  6
CONTINUOUS
 62
     3
 10
19996.417705
 20
19819.23302600002
 30
0.0
 11
19996.417705
 21
19934.229199000009
 31
0.0
  0
LINE
  5
35D1
  8
2-0
  6
CONTINUOUS
 62
     3
 10
19996.417705
 20
19849.23263000001
 30
0.0
 11
20077.415646000001
 21
19849.23263000001
 31
0.0
  0
LINE
  5
35D2
  8
2-0
  6
CONTINUOUS
 62
     3
 10
20026.41533
 20
19808.935570000001
 30
0.0
 11
19996.417705
 21
19808.935570000001
 31
0.0
  0
LINE
  5
35D3
  8
2-0
  6
CONTINUOUS
 62
     3
 10
20026.41533
 20
19826.93731200002
 30
0.0
 11
20026.41533
 21
19808.935570000001
 31
0.0
  0
LINE
  5
35D4
  8
2-0
  6
CONTINUOUS
 62
     3
 10
20001.421928
 20
19826.93731200002
 30
0.0
 11
20026.41533
 21
19826.93731200002
 31
0.0
  0
LINE
  5
35D5
  8
2-0
  6
CONTINUOUS
 62
     3
 10
20001.421928
 20
19821.929130000019
 30
0.0
 11
20001.421928
 21
19826.93731200002
 31
0.0
  0
LINE
  5
35D6
  8
2-0
  6
CONTINUOUS
 62
     3
 10
20008.419525999969
 20
19821.929130000019
 30
0.0
 11
20001.421928
 21
19821.929130000019
 31
0.0
  0
LINE
  5
35D7
  8
2-0
  6
CONTINUOUS
 62
     3
 10
20008.419525999969
 20
19118.132307499989
 30
0.0
 11
20001.421928
 21
19118.132307499989
 31
0.0
  0
LINE
  5
35D8
  8
2-0
  6
CONTINUOUS
 62
     3
 10
20001.421928
 20
19118.132307499989
 30
0.0
 11
20001.421928
 21
19123.132571499991
 31
0.0
  0
LINE
  5
35D9
  8
2-0
  6
CONTINUOUS
 62
     3
 10
20001.421928
 20
19123.132571499991
 30
0.0
 11
20026.41533
 21
19123.132571499991
 31
0.0
  0
LINE
  5
35DA
  8
2-0
  6
CONTINUOUS
 62
     3
 10
20026.41533
 20
19123.132571499991
 30
0.0
 11
20026.41533
 21
19105.136767499989
 31
0.0
  0
LINE
  5
35DB
  8
2-0
  6
CONTINUOUS
 62
     3
 10
20026.41533
 20
19105.136767499989
 30
0.0
 11
19996.417705
 21
19105.136767499989
 31
0.0
  0
LINE
  5
35DC
  8
2-0
  6
CONTINUOUS
 62
     3
 10
20026.41533
 20
19121.22827449995
 30
0.0
 11
20026.41533
 21
19115.230333499989
 31
0.0
  0
LINE
  5
35DD
  8
2-0
  6
CONTINUOUS
 62
     3
 10
20026.41533
 20
19115.230333499989
 30
0.0
 11
19996.417705
 21
19115.230333499989
 31
0.0
  0
LINE
  5
35DE
  8
2-0
  6
CONTINUOUS
 62
     3
 10
19996.417705
 20
19115.230333499989
 30
0.0
 11
19996.417705
 21
19152.2314945
 31
0.0
  0
LINE
  5
35DF
  8
2-0
  6
CONTINUOUS
 62
     3
 10
20026.41533
 20
19152.2314945
 30
0.0
 11
19996.417705
 21
19152.2314945
 31
0.0
  0
LINE
  5
35E0
  8
2-0
  6
CONTINUOUS
 62
     3
 10
20026.41533
 20
19146.227614499981
 30
0.0
 11
20026.41533
 21
19152.2314945
 31
0.0
  0
LINE
  5
35E1
  8
2-0
  6
CONTINUOUS
 62
     3
 10
20026.41533
 20
19162.327039499982
 30
0.0
 11
19996.417705
 21
19162.327039499982
 31
0.0
  0
LINE
  5
35E2
  8
2-0
  6
CONTINUOUS
 62
     3
 10
20026.41533
 20
19144.3252975
 30
0.0
 11
20026.41533
 21
19162.327039499982
 31
0.0
  0
LINE
  5
35E3
  8
2-0
  6
CONTINUOUS
 62
     3
 10
20001.421928
 20
19144.3252975
 30
0.0
 11
20026.41533
 21
19144.3252975
 31
0.0
  0
LINE
  5
35E4
  8
2-0
  6
CONTINUOUS
 62
     3
 10
20001.421928
 20
19149.325561500002
 30
0.0
 11
20001.421928
 21
19144.3252975
 31
0.0
  0
LINE
  5
35E5
  8
2-0
  6
CONTINUOUS
 62
     3
 10
20008.419525999969
 20
19149.325561500002
 30
0.0
 11
20001.421928
 21
19149.325561500002
 31
0.0
  0
LINE
  5
35E6
  8
2-0
  6
CONTINUOUS
 62
     3
 10
20008.419525999969
 20
18417.131317999989
 30
0.0
 11
20001.421928
 21
18417.131317999989
 31
0.0
  0
LINE
  5
35E7
  8
2-0
  6
CONTINUOUS
 62
     3
 10
20001.421928
 20
18417.131317999989
 30
0.0
 11
20001.421928
 21
18422.13752
 31
0.0
  0
LINE
  5
35E8
  8
2-0
  6
CONTINUOUS
 62
     3
 10
20001.421928
 20
18422.13752
 30
0.0
 11
20026.41533
 21
18422.13752
 31
0.0
  0
LINE
  5
35E9
  8
2-0
  6
CONTINUOUS
 62
     3
 10
20026.41533
 20
18422.13752
 30
0.0
 11
20026.41533
 21
18404.135778
 31
0.0
  0
LINE
  5
35EA
  8
2-0
  6
CONTINUOUS
 62
     3
 10
20026.41533
 20
18404.135778
 30
0.0
 11
19996.417705
 21
18404.135778
 31
0.0
  0
LINE
  5
35EB
  8
2-0
  6
CONTINUOUS
 62
     3
 10
20026.41533
 20
18420.22728499999
 30
0.0
 11
20026.41533
 21
18414.231322999989
 31
0.0
  0
LINE
  5
35EC
  8
2-0
  6
CONTINUOUS
 62
     3
 10
20026.41533
 20
18414.231322999989
 30
0.0
 11
19996.417705
 21
18414.231322999989
 31
0.0
  0
LINE
  5
35ED
  8
2-0
  6
CONTINUOUS
 62
     3
 10
19996.417705
 20
18414.231322999989
 30
0.0
 11
19996.417705
 21
18451.230504999989
 31
0.0
  0
LINE
  5
35EE
  8
2-0
  6
CONTINUOUS
 62
     3
 10
20026.41533
 20
18451.230504999989
 30
0.0
 11
19996.417705
 21
18451.230504999989
 31
0.0
  0
LINE
  5
35EF
  8
2-0
  6
CONTINUOUS
 62
     3
 10
20026.41533
 20
18445.23454300001
 30
0.0
 11
20026.41533
 21
18451.230504999989
 31
0.0
  0
LINE
  5
35F0
  8
2-0
  6
CONTINUOUS
 62
     3
 10
20026.41533
 20
18461.32605
 30
0.0
 11
19996.417705
 21
18461.32605
 31
0.0
  0
LINE
  5
35F1
  8
2-0
  6
CONTINUOUS
 62
     3
 10
20026.41533
 20
18443.324307999988
 30
0.0
 11
20026.41533
 21
18461.32605
 31
0.0
  0
LINE
  5
35F2
  8
2-0
  6
CONTINUOUS
 62
     3
 10
20001.421928
 20
18443.324307999988
 30
0.0
 11
20026.41533
 21
18443.324307999988
 31
0.0
  0
LINE
  5
35F3
  8
2-0
  6
CONTINUOUS
 62
     3
 10
20001.421928
 20
18448.330509999989
 30
0.0
 11
20001.421928
 21
18443.324307999988
 31
0.0
  0
LINE
  5
35F4
  8
2-0
  6
CONTINUOUS
 62
     3
 10
20008.419525999969
 20
18448.330509999989
 30
0.0
 11
20001.421928
 21
18448.330509999989
 31
0.0
  0
LINE
  5
35F5
  8
2-0
  6
CONTINUOUS
 62
     3
 10
20008.419525999969
 20
17747.324572000001
 30
0.0
 11
20001.421928
 21
17747.324572000001
 31
0.0
  0
LINE
  5
35F6
  8
2-0
  6
CONTINUOUS
 62
     3
 10
20001.421928
 20
17747.324572000001
 30
0.0
 11
20001.421928
 21
17742.336185
 31
0.0
  0
LINE
  5
35F7
  8
2-0
  6
CONTINUOUS
 62
     3
 10
20001.421928
 20
17742.336185
 30
0.0
 11
20026.41533
 21
17742.336185
 31
0.0
  0
LINE
  5
35F8
  8
2-0
  6
CONTINUOUS
 62
     3
 10
20026.41533
 20
17742.336185
 30
0.0
 11
20026.41533
 21
17760.331988000002
 31
0.0
  0
LINE
  5
35F9
  8
2-0
  6
CONTINUOUS
 62
     3
 10
20026.41533
 20
17760.331988000002
 30
0.0
 11
19996.417705
 21
17760.331988000002
 31
0.0
  0
LINE
  5
35FA
  8
2-0
  6
CONTINUOUS
 62
     3
 10
20026.41533
 20
17744.234542999991
 30
0.0
 11
20026.41533
 21
17750.230504999981
 31
0.0
  0
LINE
  5
35FB
  8
2-0
  6
CONTINUOUS
 62
     3
 10
20026.41533
 20
17750.230504999981
 30
0.0
 11
19996.417705
 21
17750.230504999981
 31
0.0
  0
LINE
  5
35FC
  8
2-0
  6
CONTINUOUS
 62
     3
 10
19996.417705
 20
17750.230504999981
 30
0.0
 11
19996.417705
 21
17713.231323
 31
0.0
  0
LINE
  5
35FD
  8
2-0
  6
CONTINUOUS
 62
     3
 10
20026.41533
 20
17713.231323
 30
0.0
 11
19996.417705
 21
17713.231323
 31
0.0
  0
LINE
  5
35FE
  8
2-0
  6
CONTINUOUS
 62
     3
 10
20026.41533
 20
17719.233223999989
 30
0.0
 11
20026.41533
 21
17713.231323
 31
0.0
  0
LINE
  5
35FF
  8
2-0
  6
CONTINUOUS
 62
     3
 10
20026.41533
 20
17703.141716999991
 30
0.0
 11
19996.417705
 21
17703.141716999991
 31
0.0
  0
LINE
  5
3600
  8
2-0
  6
CONTINUOUS
 62
     3
 10
20026.41533
 20
17721.13752
 30
0.0
 11
20026.41533
 21
17703.141716999991
 31
0.0
  0
LINE
  5
3601
  8
2-0
  6
CONTINUOUS
 62
     3
 10
20001.421928
 20
17721.13752
 30
0.0
 11
20026.41533
 21
17721.13752
 31
0.0
  0
LINE
  5
3602
  8
2-0
  6
CONTINUOUS
 62
     3
 10
20001.421928
 20
17716.137256999991
 30
0.0
 11
20001.421928
 21
17721.13752
 31
0.0
  0
LINE
  5
3603
  8
2-0
  6
CONTINUOUS
 62
     3
 10
20008.419525999969
 20
17716.137256999991
 30
0.0
 11
20001.421928
 21
17716.137256999991
 31
0.0
  0
LINE
  5
3604
  8
2-0
  6
CONTINUOUS
 62
     3
 10
19999.303843000002
 20
16996.228143
 30
0.0
 11
19999.303843000002
 21
17016.229198000001
 31
0.0
  0
LINE
  5
3605
  8
2-0
  6
CONTINUOUS
 62
     3
 10
19999.303843000002
 20
17016.229198000001
 30
0.0
 11
20084.304370999991
 21
17016.229198000001
 31
0.0
  0
LINE
  5
3606
  8
2-0
  6
CONTINUOUS
 62
     3
 10
20008.419525999969
 20
17042.835908000001
 30
0.0
 11
20001.421928
 21
17042.835908000001
 31
0.0
  0
LINE
  5
3607
  8
2-0
  6
CONTINUOUS
 62
     3
 10
20001.421928
 20
17042.835908000001
 30
0.0
 11
20001.421928
 21
17037.841582000001
 31
0.0
  0
LINE
  5
3608
  8
2-0
  6
CONTINUOUS
 62
     3
 10
20001.421928
 20
17037.841582000001
 30
0.0
 11
20026.41533
 21
17037.841582000001
 31
0.0
  0
LINE
  5
3609
  8
2-0
  6
CONTINUOUS
 62
     3
 10
20026.41533
 20
17037.841582000001
 30
0.0
 11
20026.41533
 21
17055.83738600001
 31
0.0
  0
LINE
  5
360A
  8
2-0
  6
CONTINUOUS
 62
     3
 10
20026.41533
 20
17055.83738600001
 30
0.0
 11
19996.417705
 21
17055.83738600001
 31
0.0
  0
LINE
  5
360B
  8
2-0
  6
CONTINUOUS
 62
     3
 10
20026.41533
 20
17046.228802000001
 30
0.0
 11
20026.41533
 21
17040.226901999991
 31
0.0
  0
LINE
  5
360C
  8
2-0
  6
CONTINUOUS
 62
     3
 10
19996.417705
 20
17046.228802000001
 30
0.0
 11
20026.41533
 21
17046.228802000001
 31
0.0
  0
LINE
  5
360D
  8
2-0
  6
CONTINUOUS
 62
     3
 10
19996.417705
 20
17055.83738600001
 30
0.0
 11
19996.417705
 21
17703.141716999991
 31
0.0
  0
LINE
  5
360E
  8
2-0
  6
CONTINUOUS
 62
     3
 10
19996.417705
 20
17760.331988000002
 30
0.0
 11
19996.417705
 21
18404.135778
 31
0.0
  0
LINE
  5
360F
  8
2-0
  6
CONTINUOUS
 62
     3
 10
19996.417705
 20
16901.22708700001
 30
0.0
 11
20026.41533
 21
16901.22708700001
 31
0.0
  0
LINE
  5
3610
  8
2-0
  6
CONTINUOUS
 62
     3
 10
20026.41533
 20
16901.22708700001
 30
0.0
 11
20026.41533
 21
16907.22898700001
 31
0.0
  0
LINE
  5
3611
  8
2-0
  6
CONTINUOUS
 62
     3
 10
20084.304370999991
 20
16931.232629999991
 30
0.0
 11
19999.303843000002
 21
16931.232629999991
 31
0.0
  0
LINE
  5
3612
  8
2-0
  6
CONTINUOUS
 62
     3
 10
19999.303843000002
 20
16931.232629999991
 30
0.0
 11
19999.303843000002
 21
16951.227747000012
 31
0.0
  0
LINE
  5
3613
  8
2-0
  6
CONTINUOUS
 62
     3
 10
20026.41533
 20
16891.618503999998
 30
0.0
 11
19996.417705
 21
16891.618503999998
 31
0.0
  0
LINE
  5
3614
  8
2-0
  6
CONTINUOUS
 62
     3
 10
20026.41533
 20
16909.614306999982
 30
0.0
 11
20026.41533
 21
16891.618503999998
 31
0.0
  0
LINE
  5
3615
  8
2-0
  6
CONTINUOUS
 62
     3
 10
20001.421928
 20
16909.614306999982
 30
0.0
 11
20026.41533
 21
16909.614306999982
 31
0.0
  0
LINE
  5
3616
  8
2-0
  6
CONTINUOUS
 62
     3
 10
20001.421928
 20
16904.614043000009
 30
0.0
 11
20001.421928
 21
16909.614306999982
 31
0.0
  0
LINE
  5
3617
  8
2-0
  6
CONTINUOUS
 62
     3
 10
20008.419525999969
 20
16904.614043000009
 30
0.0
 11
20001.421928
 21
16904.614043000009
 31
0.0
  0
LINE
  5
3618
  8
2-0
  6
CONTINUOUS
 62
     3
 10
20008.419525999969
 20
16200.131812499991
 30
0.0
 11
20001.421928
 21
16200.131812499991
 31
0.0
  0
LINE
  5
3619
  8
2-0
  6
CONTINUOUS
 62
     3
 10
20001.421928
 20
16200.131812499991
 30
0.0
 11
20001.421928
 21
16205.13207649998
 31
0.0
  0
LINE
  5
361A
  8
2-0
  6
CONTINUOUS
 62
     3
 10
20001.421928
 20
16205.13207649998
 30
0.0
 11
20026.41533
 21
16205.13207649998
 31
0.0
  0
LINE
  5
361B
  8
2-0
  6
CONTINUOUS
 62
     3
 10
20026.41533
 20
16205.13207649998
 30
0.0
 11
20026.41533
 21
16187.130334499991
 31
0.0
  0
LINE
  5
361C
  8
2-0
  6
CONTINUOUS
 62
     3
 10
20026.41533
 20
16187.130334499991
 30
0.0
 11
19996.417705
 21
16187.130334499991
 31
0.0
  0
LINE
  5
361D
  8
2-0
  6
CONTINUOUS
 62
     3
 10
20026.41533
 20
16203.227779500001
 30
0.0
 11
20026.41533
 21
16197.2308285
 31
0.0
  0
LINE
  5
361E
  8
2-0
  6
CONTINUOUS
 62
     3
 10
20026.41533
 20
16197.2308285
 30
0.0
 11
19996.417705
 21
16197.2308285
 31
0.0
  0
LINE
  5
361F
  8
2-0
  6
CONTINUOUS
 62
     3
 10
19996.417705
 20
16197.2308285
 30
0.0
 11
19996.417705
 21
16234.2309995
 31
0.0
  0
LINE
  5
3620
  8
2-0
  6
CONTINUOUS
 62
     3
 10
20026.41533
 20
16234.2309995
 30
0.0
 11
19996.417705
 21
16234.2309995
 31
0.0
  0
LINE
  5
3621
  8
2-0
  6
CONTINUOUS
 62
     3
 10
20026.41533
 20
16228.228109499991
 30
0.0
 11
20026.41533
 21
16234.2309995
 31
0.0
  0
LINE
  5
3622
  8
2-0
  6
CONTINUOUS
 62
     3
 10
20026.41533
 20
16244.3265445
 30
0.0
 11
19996.417705
 21
16244.3265445
 31
0.0
  0
LINE
  5
3623
  8
2-0
  6
CONTINUOUS
 62
     3
 10
20026.41533
 20
16226.318863500001
 30
0.0
 11
20026.41533
 21
16244.3265445
 31
0.0
  0
LINE
  5
3624
  8
2-0
  6
CONTINUOUS
 62
     3
 10
20001.421928
 20
16226.318863500001
 30
0.0
 11
20026.41533
 21
16226.318863500001
 31
0.0
  0
LINE
  5
3625
  8
2-0
  6
CONTINUOUS
 62
     3
 10
20001.421928
 20
16231.3250665
 30
0.0
 11
20001.421928
 21
16226.318863500001
 31
0.0
  0
LINE
  5
3626
  8
2-0
  6
CONTINUOUS
 62
     3
 10
20008.419525999969
 20
16231.3250665
 30
0.0
 11
20001.421928
 21
16231.3250665
 31
0.0
  0
LINE
  5
3627
  8
2-0
  6
CONTINUOUS
 62
     3
 10
20008.419525999969
 20
15530.565083
 30
0.0
 11
20001.421928
 21
15530.565083
 31
0.0
  0
LINE
  5
3628
  8
2-0
  6
CONTINUOUS
 62
     3
 10
20001.421928
 20
15530.565083
 30
0.0
 11
20001.421928
 21
15525.570758000011
 31
0.0
  0
LINE
  5
3629
  8
2-0
  6
CONTINUOUS
 62
     3
 10
20001.421928
 20
15525.570758000011
 30
0.0
 11
20026.41533
 21
15525.570758000011
 31
0.0
  0
LINE
  5
362A
  8
2-0
  6
CONTINUOUS
 62
     3
 10
20026.41533
 20
15525.570758000011
 30
0.0
 11
20026.41533
 21
15543.566561000011
 31
0.0
  0
LINE
  5
362B
  8
2-0
  6
CONTINUOUS
 62
     3
 10
20026.41533
 20
15543.566561000011
 30
0.0
 11
19996.417705
 21
15543.566561000011
 31
0.0
  0
LINE
  5
362C
  8
2-0
  6
CONTINUOUS
 62
     3
 10
20026.41533
 20
15527.469116
 30
0.0
 11
20026.41533
 21
15533.47101600001
 31
0.0
  0
LINE
  5
362D
  8
2-0
  6
CONTINUOUS
 62
     3
 10
20026.41533
 20
15533.47101600001
 30
0.0
 11
19996.417705
 21
15533.47101600001
 31
0.0
  0
LINE
  5
362E
  8
2-0
  6
CONTINUOUS
 62
     3
 10
19996.417705
 20
15496.471835
 30
0.0
 11
19996.417705
 21
15533.47101600001
 31
0.0
  0
LINE
  5
362F
  8
2-0
  6
CONTINUOUS
 62
     3
 10
20026.41533
 20
15496.471835
 30
0.0
 11
19996.417705
 21
15496.471835
 31
0.0
  0
LINE
  5
3630
  8
2-0
  6
CONTINUOUS
 62
     3
 10
20026.41533
 20
15502.468785999999
 30
0.0
 11
20026.41533
 21
15496.471835
 31
0.0
  0
LINE
  5
3631
  8
2-0
  6
CONTINUOUS
 62
     3
 10
20026.41533
 20
15486.370351
 30
0.0
 11
19996.417705
 21
15486.370351
 31
0.0
  0
LINE
  5
3632
  8
2-0
  6
CONTINUOUS
 62
     3
 10
20026.41533
 20
15504.378032000001
 30
0.0
 11
20026.41533
 21
15486.370351
 31
0.0
  0
LINE
  5
3633
  8
2-0
  6
CONTINUOUS
 62
     3
 10
20001.421928
 20
15504.378032000001
 30
0.0
 11
20026.41533
 21
15504.378032000001
 31
0.0
  0
LINE
  5
3634
  8
2-0
  6
CONTINUOUS
 62
     3
 10
20001.421928
 20
15499.377768000009
 30
0.0
 11
20001.421928
 21
15504.378032000001
 31
0.0
  0
LINE
  5
3635
  8
2-0
  6
CONTINUOUS
 62
     3
 10
20008.419525999969
 20
15499.377768000009
 30
0.0
 11
20001.421928
 21
15499.377768000009
 31
0.0
  0
LINE
  5
3636
  8
2-0
  6
CONTINUOUS
 62
     3
 10
19996.417705
 20
16891.618503999998
 30
0.0
 11
19996.417705
 21
16244.3265445
 31
0.0
  0
LINE
  5
3637
  8
2-0
  6
CONTINUOUS
 62
     3
 10
19996.417705
 20
17046.228802000001
 30
0.0
 11
19996.417705
 21
16901.22708700001
 31
0.0
  0
LINE
  5
3638
  8
2-0
  6
CONTINUOUS
 62
     3
 10
20084.304370999991
 20
17016.229198000001
 30
0.0
 11
20084.304370999991
 21
16931.232629999991
 31
0.0
  0
LINE
  5
3639
  8
2-0
  6
CONTINUOUS
 62
     3
 10
20008.419525999969
 20
14798.136761
 30
0.0
 11
20001.421928
 21
14798.136761
 31
0.0
  0
LINE
  5
363A
  8
2-0
  6
CONTINUOUS
 62
     3
 10
20001.421928
 20
14798.136761
 30
0.0
 11
20001.421928
 21
14803.131087000011
 31
0.0
  0
LINE
  5
363B
  8
2-0
  6
CONTINUOUS
 62
     3
 10
20001.421928
 20
14803.131087000011
 30
0.0
 11
20026.41533
 21
14803.131087000011
 31
0.0
  0
LINE
  5
363C
  8
2-0
  6
CONTINUOUS
 62
     3
 10
20026.41533
 20
14803.131087000011
 30
0.0
 11
20026.41533
 21
14785.135283000011
 31
0.0
  0
LINE
  5
363D
  8
2-0
  6
CONTINUOUS
 62
     3
 10
20026.41533
 20
14785.135283000011
 30
0.0
 11
19996.417705
 21
14785.135283000011
 31
0.0
  0
LINE
  5
363E
  8
2-0
  6
CONTINUOUS
 62
     3
 10
20026.41533
 20
14801.23371800001
 30
0.0
 11
20026.41533
 21
14795.230828000011
 31
0.0
  0
LINE
  5
363F
  8
2-0
  6
CONTINUOUS
 62
     3
 10
20026.41533
 20
14795.230828000011
 30
0.0
 11
19996.417705
 21
14795.230828000011
 31
0.0
  0
LINE
  5
3640
  8
2-0
  6
CONTINUOUS
 62
     3
 10
19996.417705
 20
14795.230828000011
 30
0.0
 11
19996.417705
 21
14832.231
 31
0.0
  0
LINE
  5
3641
  8
2-0
  6
CONTINUOUS
 62
     3
 10
20026.41533
 20
14832.231
 30
0.0
 11
19996.417705
 21
14832.231
 31
0.0
  0
LINE
  5
3642
  8
2-0
  6
CONTINUOUS
 62
     3
 10
20026.41533
 20
14826.234047999989
 30
0.0
 11
20026.41533
 21
14832.231
 31
0.0
  0
LINE
  5
3643
  8
2-0
  6
CONTINUOUS
 62
     3
 10
20026.41533
 20
14842.331493000011
 30
0.0
 11
19996.417705
 21
14842.331493000011
 31
0.0
  0
LINE
  5
3644
  8
2-0
  6
CONTINUOUS
 62
     3
 10
20026.41533
 20
14824.32480200001
 30
0.0
 11
20026.41533
 21
14842.331493000011
 31
0.0
  0
LINE
  5
3645
  8
2-0
  6
CONTINUOUS
 62
     3
 10
20001.421928
 20
14824.32480200001
 30
0.0
 11
20026.41533
 21
14824.32480200001
 31
0.0
  0
LINE
  5
3646
  8
2-0
  6
CONTINUOUS
 62
     3
 10
20001.421928
 20
14829.33001500001
 30
0.0
 11
20001.421928
 21
14824.32480200001
 31
0.0
  0
LINE
  5
3647
  8
2-0
  6
CONTINUOUS
 62
     3
 10
20008.419525999969
 20
14829.33001500001
 30
0.0
 11
20001.421928
 21
14829.33001500001
 31
0.0
  0
LINE
  5
3648
  8
2-0
  6
CONTINUOUS
 62
     3
 10
20026.41533
 20
14122.23284099999
 30
0.0
 11
20026.41533
 21
14128.237709999999
 31
0.0
  0
LINE
  5
3649
  8
2-0
  6
CONTINUOUS
 62
     3
 10
20026.41533
 20
14128.237709999999
 30
0.0
 11
19996.417705
 21
14128.237709999999
 31
0.0
  0
LINE
  5
364A
  8
2-0
  6
CONTINUOUS
 62
     3
 10
19996.417705
 20
14128.237709999999
 30
0.0
 11
19996.417705
 21
14013.233619000001
 31
0.0
  0
LINE
  5
364B
  8
2-0
  6
CONTINUOUS
 62
     3
 10
19996.417705
 20
14013.233619000001
 30
0.0
 11
20081.416252999989
 21
14013.233619000001
 31
0.0
  0
LINE
  5
364C
  8
2-0
  6
CONTINUOUS
 62
     3
 10
20081.416252999989
 20
14013.233619000001
 30
0.0
 11
20081.416252999989
 21
14098.229198000001
 31
0.0
  0
LINE
  5
364D
  8
2-0
  6
CONTINUOUS
 62
     3
 10
20081.416252999989
 20
14098.229198000001
 30
0.0
 11
20049.419314999981
 21
14098.229198000001
 31
0.0
  0
LINE
  5
364E
  8
2-0
  6
CONTINUOUS
 62
     3
 10
20008.419525999969
 20
14125.267443000001
 30
0.0
 11
20001.421928
 21
14125.267443000001
 31
0.0
  0
LINE
  5
364F
  8
2-0
  6
CONTINUOUS
 62
     3
 10
20001.421928
 20
14125.267443000001
 30
0.0
 11
20001.421928
 21
14120.270147999971
 31
0.0
  0
LINE
  5
3650
  8
2-0
  6
CONTINUOUS
 62
     3
 10
20001.421928
 20
14120.270147999971
 30
0.0
 11
20026.41533
 21
14120.270147999971
 31
0.0
  0
LINE
  5
3651
  8
2-0
  6
CONTINUOUS
 62
     3
 10
20026.41533
 20
14120.270147999971
 30
0.0
 11
20026.41533
 21
14138.268921000001
 31
0.0
  0
LINE
  5
3652
  8
2-0
  6
CONTINUOUS
 62
     3
 10
20026.41533
 20
14138.268921000001
 30
0.0
 11
19996.417705
 21
14138.268921000001
 31
0.0
  0
LINE
  5
3653
  8
2-0
  6
CONTINUOUS
 62
     3
 10
19996.417705
 20
14842.331493000011
 30
0.0
 11
19996.417705
 21
15486.370351
 31
0.0
  0
LINE
  5
3654
  8
2-0
  6
CONTINUOUS
 62
     3
 10
19996.417705
 20
18461.32605
 30
0.0
 11
19996.417705
 21
19105.136767499989
 31
0.0
  0
LINE
  5
3655
  8
2-0
  6
CONTINUOUS
 62
     3
 10
19996.417705
 20
16187.130334499991
 30
0.0
 11
19996.417705
 21
15543.566561000011
 31
0.0
  0
LINE
  5
3656
  8
2-0
  6
CONTINUOUS
 62
     3
 10
24865.912294000002
 20
19819.23302600002
 30
0.0
 11
24865.912294000002
 21
19934.229199000009
 31
0.0
  0
LINE
  5
3657
  8
2-0
  6
CENTER2
 62
     6
 10
18709.459433
 20
19891.730914
 30
0.0
 11
25715.913614000001
 21
19891.730914
 31
0.0
  0
LINE
  5
3658
  8
2-0
  6
CENTER2
 62
     6
 10
18709.459433
 20
16973.730914
 30
0.0
 11
25715.913614000001
 21
16973.730914
 31
0.0
  0
LINE
  5
3659
  8
2-0
  6
CENTER2
 62
     6
 10
18709.459433
 20
14055.730913999991
 30
0.0
 11
25715.913614000001
 21
14055.730913999991
 31
0.0
  0
LINE
  5
365A
  8
2-0
  6
CONTINUOUS
 62
     3
 10
19996.417705
 20
19849.23263000001
 30
0.0
 11
24784.910393999991
 21
19849.23263000001
 31
0.0
  0
LINE
  5
365B
  8
2-0
  6
CONTINUOUS
 62
     3
 10
19996.417705
 20
14138.268921000001
 30
0.0
 11
19996.417705
 21
14785.135283000011
 31
0.0
  0
LINE
  5
365C
  8
2-0
  6
CENTER2
 62
     6
 10
20038.91401
 20
21134.229199000009
 30
0.0
 11
20038.91401
 21
13429.967479999999
 31
0.0
  0
LINE
  5
365D
  8
2-0
  6
CENTER2
 62
     6
 10
24823.41401
 20
21134.229199000009
 30
0.0
 11
24823.41401
 21
13429.967479999999
 31
0.0
  0
LINE
  5
365E
  8
2-0
  6
CONTINUOUS
 62
     3
 10
24865.912294000002
 20
19808.935570000001
 30
0.0
 11
24865.912294000002
 21
19162.327039499982
 31
0.0
  0
LINE
  5
365F
  8
2-0
  6
CONTINUOUS
 62
     3
 10
19996.417705
 20
19808.935570000001
 30
0.0
 11
19996.417705
 21
19162.327039499982
 31
0.0
  0
LINE
  5
3660
  8
2-0
  6
CENTER2
 62
     6
 10
22956.91401
 20
21134.229199000009
 30
0.0
 11
22956.91401
 21
13864.32631299999
 31
0.0
  0
LINE
  5
3661
  8
2-0
  6
CONTINUOUS
 62
     3
 10
20077.415646000001
 20
14098.229198000001
 30
0.0
 11
20077.415646000001
 21
19934.229199000009
 31
0.0
  0
LINE
  5
3662
  8
2-0
  6
CONTINUOUS
 62
     3
 10
24784.910393999991
 20
14098.229198000001
 30
0.0
 11
24784.910393999991
 21
19934.229199000009
 31
0.0
  0
CIRCLE
  5
3663
  8
2-0
  6
CONTINUOUS
 62
     4
 10
18509.461742999989
 20
19891.730914
 30
0.0
 40
200.00001
  0
CIRCLE
  5
3664
  8
2-0
  6
CONTINUOUS
 62
     4
 10
18509.461742999989
 20
16973.730914
 30
0.0
 40
200.00001
  0
CIRCLE
  5
3665
  8
2-0
  6
CONTINUOUS
 62
     4
 10
18509.461742999989
 20
14055.730913999991
 30
0.0
 40
200.00001
  0
CIRCLE
  5
3666
  8
2-0
  6
CONTINUOUS
 62
     4
 10
22956.91401
 20
21334.233818000012
 30
0.0
 40
200.00001
  0
CIRCLE
  5
3667
  8
2-0
  6
CONTINUOUS
 62
     4
 10
20038.91401
 20
21334.233818000012
 30
0.0
 40
200.00001
  0
TEXT
  5
3668
  8
2-0
  6
CONTINUOUS
 62
     7
 10
23220.259316999978
 20
13495.732035999999
 30
0.0
 40
160.0
  1
前柱（右）
 50
0.000213
 72
     4
 11
23636.25901959301
 21
13575.73358250079
 31
0.0
  0
TEXT
  5
3669
  8
2-0
  6
CONTINUOUS
 62
     7
 10
23424.854439999981
 20
16424.22405200002
 30
0.0
 40
160.0
  1
壁パネル
 50
359.99982299999999
 72
     4
 11
23787.521353803539
 21
16504.222931637891
 31
0.0
  0
TEXT
  5
366A
  8
2-0
  6
CONTINUOUS
 62
     7
 10
23144.851535999998
 20
17261.411948000012
 30
0.0
 40
160.0
  1
中柱（左右）
 50
0.000354
 72
     4
 11
23662.18437504621
 21
17341.415144324659
 31
0.0
  0
TEXT
  5
366B
  8
2-0
  6
CONTINUOUS
 62
     7
 10
23824.853779999979
 20
14468.773302
 30
0.0
 40
160.0
  1
下枠
 50
0.001063
 72
     4
 11
23995.518962409282
 21
14548.776468339291
 31
0.0
  0
TEXT
  5
366C
  8
2-0
  6
CONTINUOUS
 62
     7
 10
23319.819203999999
 20
18864.680686499989
 30
0.0
 40
160.0
  1
間柱（側）
 72
     4
 11
23741.152537333332
 21
18944.680686499989
 31
0.0
  0
TEXT
  5
366D
  8
2-0
  6
CONTINUOUS
 62
     7
 10
25638.409522999998
 20
20744.228406999999
 30
0.0
 40
160.0
  1
後柱（左右）
 50
0.000354
 72
     4
 11
26150.409028712991
 21
20824.231570372842
 31
0.0
  0
TEXT
  5
366E
  8
2-0
  6
CONTINUOUS
 62
     7
 10
18461.462375999981
 20
19797.250472000022
 30
0.0
 40
160.0
  1
C
 72
     4
 11
18514.795709333321
 21
19877.250472000022
 31
0.0
  0
TEXT
  5
366F
  8
2-0
  6
CONTINUOUS
 62
     7
 10
18461.68309199997
 20
16903.336832000019
 30
0.0
 40
160.0
  1
B
 72
     4
 11
18515.01642533331
 21
16983.336832000019
 31
0.0
  0
TEXT
  5
3670
  8
2-0
  6
CONTINUOUS
 62
     7
 10
18461.725652000008
 20
13967.12370299999
 30
0.0
 40
160.0
  1
A
 72
     4
 11
18515.05898533334
 21
14047.12370299999
 31
0.0
  0
TEXT
  5
3671
  8
2-0
  6
CONTINUOUS
 62
     7
 10
22905.282227
 20
21238.708189000012
 30
0.0
 40
160.0
  1
2
 72
     4
 11
22958.615560333332
 21
21318.708189000012
 31
0.0
  0
TEXT
  5
3672
  8
2-0
  6
CONTINUOUS
 62
     7
 10
19994.707400999981
 20
21245.466266000029
 30
0.0
 40
160.0
  1
1
 72
     4
 11
20021.374067666649
 21
21325.466266000029
 31
0.0
  0
LINE
  5
3673
  8
2-0
  6
CONTINUOUS
 62
     3
 10
24083.91459099999
 20
19934.229199000009
 30
0.0
 11
24046.913429
 21
19934.229199000009
 31
0.0
  0
LINE
  5
3674
  8
2-0
  6
CONTINUOUS
 62
     3
 10
24083.91459099999
 20
19904.22563600001
 30
0.0
 11
24083.91459099999
 21
19934.229199000009
 31
0.0
  0
LINE
  5
3675
  8
2-0
  6
CONTINUOUS
 62
     3
 10
24077.914669999991
 20
19904.22563600001
 30
0.0
 11
24083.91459099999
 21
19904.22563600001
 31
0.0
  0
LINE
  5
3676
  8
2-0
  6
CONTINUOUS
 62
     3
 10
24094.012115000001
 20
19904.22563600001
 30
0.0
 11
24094.012115000001
 21
19934.229199000009
 31
0.0
  0
LINE
  5
3677
  8
2-0
  6
CONTINUOUS
 62
     3
 10
24076.008394
 20
19904.22563600001
 30
0.0
 11
24094.012115000001
 21
19904.22563600001
 31
0.0
  0
LINE
  5
3678
  8
2-0
  6
CONTINUOUS
 62
     3
 10
24076.008394
 20
19929.234873000001
 30
0.0
 11
24076.008394
 21
19904.22563600001
 31
0.0
  0
LINE
  5
3679
  8
2-0
  6
CONTINUOUS
 62
     3
 10
24081.008657999992
 20
19929.234873000001
 30
0.0
 11
24076.008394
 21
19929.234873000001
 31
0.0
  0
LINE
  5
367A
  8
2-0
  6
CONTINUOUS
 62
     3
 10
24081.008657999992
 20
19922.229357000011
 30
0.0
 11
24081.008657999992
 21
19929.234873000001
 31
0.0
  0
LINE
  5
367B
  8
2-0
  6
CONTINUOUS
 62
     3
 10
24049.819362999991
 20
19922.229357000011
 30
0.0
 11
24049.819362999991
 21
19929.234873000001
 31
0.0
  0
LINE
  5
367C
  8
2-0
  6
CONTINUOUS
 62
     3
 10
24049.819362999991
 20
19929.234873000001
 30
0.0
 11
24054.819627000001
 21
19929.234873000001
 31
0.0
  0
LINE
  5
367D
  8
2-0
  6
CONTINUOUS
 62
     3
 10
24054.819627000001
 20
19929.234873000001
 30
0.0
 11
24054.819627000001
 21
19904.22563600001
 31
0.0
  0
LINE
  5
367E
  8
2-0
  6
CONTINUOUS
 62
     3
 10
24054.819627000001
 20
19904.22563600001
 30
0.0
 11
24036.819864000001
 21
19904.22563600001
 31
0.0
  0
LINE
  5
367F
  8
2-0
  6
CONTINUOUS
 62
     3
 10
24036.819864000001
 20
19904.22563600001
 30
0.0
 11
24036.819864000001
 21
19934.229199000009
 31
0.0
  0
LINE
  5
3680
  8
2-0
  6
CONTINUOUS
 62
     3
 10
24052.913349999992
 20
19904.22563600001
 30
0.0
 11
24046.913429
 21
19904.22563600001
 31
0.0
  0
LINE
  5
3681
  8
2-0
  6
CONTINUOUS
 62
     3
 10
24046.913429
 20
19904.22563600001
 30
0.0
 11
24046.913429
 21
19934.229199000009
 31
0.0
  0
LINE
  5
3682
  8
2-0
  6
CONTINUOUS
 62
     3
 10
23348.8134245
 20
19922.229357000011
 30
0.0
 11
23348.8134245
 21
19929.234873000001
 31
0.0
  0
LINE
  5
3683
  8
2-0
  6
CONTINUOUS
 62
     3
 10
23348.8134245
 20
19929.234873000001
 30
0.0
 11
23353.813687499991
 21
19929.234873000001
 31
0.0
  0
LINE
  5
3684
  8
2-0
  6
CONTINUOUS
 62
     3
 10
23353.813687499991
 20
19929.234873000001
 30
0.0
 11
23353.813687499991
 21
19904.22563600001
 31
0.0
  0
LINE
  5
3685
  8
2-0
  6
CONTINUOUS
 62
     3
 10
23353.813687499991
 20
19904.22563600001
 30
0.0
 11
23335.81986449999
 21
19904.22563600001
 31
0.0
  0
LINE
  5
3686
  8
2-0
  6
CONTINUOUS
 62
     3
 10
23335.81986449999
 20
19904.22563600001
 30
0.0
 11
23335.81986449999
 21
19934.229199000009
 31
0.0
  0
LINE
  5
3687
  8
2-0
  6
CONTINUOUS
 62
     3
 10
23351.911370499991
 20
19904.22563600001
 30
0.0
 11
23345.9134295
 21
19904.22563600001
 31
0.0
  0
LINE
  5
3688
  8
2-0
  6
CONTINUOUS
 62
     3
 10
23345.9134295
 20
19904.22563600001
 30
0.0
 11
23345.9134295
 21
19934.229199000009
 31
0.0
  0
LINE
  5
3689
  8
2-0
  6
CONTINUOUS
 62
     3
 10
23382.9145905
 20
19934.229199000009
 30
0.0
 11
23345.9134295
 21
19934.229199000009
 31
0.0
  0
LINE
  5
368A
  8
2-0
  6
CONTINUOUS
 62
     3
 10
23382.9145905
 20
19904.22563600001
 30
0.0
 11
23382.9145905
 21
19934.229199000009
 31
0.0
  0
LINE
  5
368B
  8
2-0
  6
CONTINUOUS
 62
     3
 10
23376.9087315
 20
19904.22563600001
 30
0.0
 11
23382.9145905
 21
19904.22563600001
 31
0.0
  0
LINE
  5
368C
  8
2-0
  6
CONTINUOUS
 62
     3
 10
23393.0081555
 20
19904.22563600001
 30
0.0
 11
23393.0081555
 21
19934.229199000009
 31
0.0
  0
LINE
  5
368D
  8
2-0
  6
CONTINUOUS
 62
     3
 10
23375.012352499991
 20
19904.22563600001
 30
0.0
 11
23393.0081555
 21
19904.22563600001
 31
0.0
  0
LINE
  5
368E
  8
2-0
  6
CONTINUOUS
 62
     3
 10
23375.012352499991
 20
19929.234873000001
 30
0.0
 11
23375.012352499991
 21
19904.22563600001
 31
0.0
  0
LINE
  5
368F
  8
2-0
  6
CONTINUOUS
 62
     3
 10
23380.002718499989
 20
19929.234873000001
 30
0.0
 11
23375.012352499991
 21
19929.234873000001
 31
0.0
  0
LINE
  5
3690
  8
2-0
  6
CONTINUOUS
 62
     3
 10
23380.002718499989
 20
19922.229357000011
 30
0.0
 11
23380.002718499989
 21
19929.234873000001
 31
0.0
  0
LINE
  5
3691
  8
2-0
  6
CONTINUOUS
 62
     3
 10
23039.032359000001
 20
19934.22919900003
 30
0.0
 11
23335.81986449999
 21
19934.229199000009
 31
0.0
  0
LINE
  5
3692
  8
2-0
  6
CONTINUOUS
 62
     3
 10
24741.297640000001
 20
19934.229199000009
 30
0.0
 11
24094.012115000001
 21
19934.229199000009
 31
0.0
  0
LINE
  5
3693
  8
2-0
  6
CONTINUOUS
 62
     3
 10
24036.819864000001
 20
19934.229199000009
 30
0.0
 11
23393.0081555
 21
19934.229199000009
 31
0.0
  0
LINE
  5
3694
  8
2-0
  6
CONTINUOUS
 62
     3
 10
22875.486513000011
 20
19934.229199000009
 30
0.0
 11
22227.512115000001
 21
19934.229199000009
 31
0.0
  0
LINE
  5
3695
  8
2-0
  6
CONTINUOUS
 62
     3
 10
24865.912294000002
 20
15486.370351
 30
0.0
 11
24865.912294000002
 21
14842.331493000011
 31
0.0
  0
LINE
  5
3696
  8
2-0
  6
CONTINUOUS
 62
     3
 10
24865.912294000002
 20
14785.135283
 30
0.0
 11
24865.912294000002
 21
14138.268921000001
 31
0.0
  0
CIRCLE
  5
3697
  8
2-0
  6
CONTINUOUS
 62
     4
 10
24823.41401
 20
21334.233818000012
 30
0.0
 40
200.00001
  0
TEXT
  5
3698
  8
2-0
  6
CONTINUOUS
 62
     7
 10
24771.782227
 20
21238.708189000012
 30
0.0
 40
160.0
  1
3
 72
     4
 11
24825.115560333332
 21
21318.708189000012
 31
0.0
  0
LINE
  5
36A3
  8
0-1
  6
CONTINUOUS
 62
     3
 10
24873.41466899998
 20
6356.3198969999958
 30
0.0
 11
24773.415327999988
 21
6356.3198969999958
 31
0.0
  0
LINE
  5
36A4
  8
0-1
  6
CONTINUOUS
 62
     3
 10
24773.415327999988
 20
6356.3198969999958
 30
0.0
 11
24773.415327999988
 21
6256.3200619999989
 31
0.0
  0
LINE
  5
36A5
  8
0-1
  6
CONTINUOUS
 62
     3
 10
24873.41466899998
 20
6256.3200619999989
 30
0.0
 11
24873.41466899998
 21
6356.3198969999958
 31
0.0
  0
LINE
  5
36A6
  8
0-1
  6
CONTINUOUS
 62
     3
 10
24845.915195999991
 20
8704.8202459999975
 30
0.0
 11
24845.915195999991
 21
6356.3198969999958
 31
0.0
  0
LINE
  5
36A7
  8
0-1
  6
CONTINUOUS
 62
     3
 10
24865.914272999991
 20
8574.8193229999979
 30
0.0
 11
24865.914272999991
 21
6356.3198969999958
 31
0.0
  0
LINE
  5
36A8
  8
0-1
  6
CONTINUOUS
 62
     3
 10
24735.91532799997
 20
8264.3199559999957
 30
0.0
 11
24735.91532799997
 21
6256.3200619999989
 31
0.0
  0
LINE
  5
36A9
  8
0-1
  6
CONTINUOUS
 62
     3
 10
24780.91572399998
 20
8574.8193229999979
 30
0.0
 11
24780.91572399998
 21
6356.3198969999958
 31
0.0
  0
LINE
  5
36B2
  8
0-1
  6
CONTINUOUS
 62
     3
 10
22999.412293000001
 20
8574.8193229999979
 30
0.0
 11
22999.412293000001
 21
6256.3200619999989
 31
0.0
  0
LINE
  5
36B3
  8
0-1
  6
CONTINUOUS
 62
     3
 10
23044.412689000012
 20
8264.3199559999957
 30
0.0
 11
23044.412689000012
 21
6256.3200619999989
 31
0.0
  0
LINE
  5
36B6
  8
0-1
  6
CONTINUOUS
 62
     3
 10
23044.412689000012
 20
8195.7796199999975
 30
0.0
 11
24735.91532799997
 21
8195.7796199999975
 31
0.0
  0
LINE
  5
36B7
  8
0-1
  6
CONTINUOUS
 62
     3
 10
23044.412689000012
 20
6841.3207549999979
 30
0.0
 11
24735.91532799997
 21
6841.3207549999979
 31
0.0
  0
LINE
  5
36B8
  8
0-1
  6
CONTINUOUS
 62
     3
 10
23044.412689000012
 20
6906.319731999999
 30
0.0
 11
24735.91532799997
 21
6906.319731999999
 31
0.0
  0
LINE
  5
36B9
  8
0-1
  6
CONTINUOUS
 62
     3
 10
23044.412689000012
 20
6971.3201939999963
 30
0.0
 11
24735.91532799997
 21
6971.3201939999963
 31
0.0
  0
LINE
  5
36BA
  8
0-1
  6
CONTINUOUS
 62
     3
 10
23044.412689000012
 20
7036.3201609999978
 30
0.0
 11
24735.91532799997
 21
7036.3201609999978
 31
0.0
  0
LINE
  5
36BB
  8
0-1
  6
CONTINUOUS
 62
     3
 10
23044.412689000012
 20
7101.3201279999967
 30
0.0
 11
24735.91532799997
 21
7101.3201279999967
 31
0.0
  0
LINE
  5
36BC
  8
0-1
  6
CONTINUOUS
 62
     3
 10
23044.412689000012
 20
7166.3200949999973
 30
0.0
 11
24735.91532799997
 21
7166.3200949999973
 31
0.0
  0
LINE
  5
36BD
  8
0-1
  6
CONTINUOUS
 62
     3
 10
23044.412689000012
 20
7231.320557
 30
0.0
 11
24735.91532799997
 21
7231.320557
 31
0.0
  0
LINE
  5
36BE
  8
0-1
  6
CONTINUOUS
 62
     3
 10
23044.412689000012
 20
7296.3195339999966
 30
0.0
 11
24735.91532799997
 21
7296.3195339999966
 31
0.0
  0
LINE
  5
36BF
  8
0-1
  6
CONTINUOUS
 62
     3
 10
23044.412689000012
 20
7361.3199959999947
 30
0.0
 11
24735.91532799997
 21
7361.3199959999947
 31
0.0
  0
LINE
  5
36C0
  8
0-1
  6
CONTINUOUS
 62
     3
 10
23044.412689000012
 20
7426.3199629999917
 30
0.0
 11
24735.91532799997
 21
7426.3199629999917
 31
0.0
  0
LINE
  5
36C1
  8
0-1
  6
CONTINUOUS
 62
     3
 10
23044.412689000012
 20
7491.3204249999953
 30
0.0
 11
24735.91532799997
 21
7491.3204249999953
 31
0.0
  0
LINE
  5
36C2
  8
0-1
  6
CONTINUOUS
 62
     3
 10
23044.412689000012
 20
7556.3194019999974
 30
0.0
 11
24735.91532799997
 21
7556.3194019999974
 31
0.0
  0
LINE
  5
36C3
  8
0-1
  6
CONTINUOUS
 62
     3
 10
23044.412689000012
 20
7621.3198639999973
 30
0.0
 11
24735.91532799997
 21
7621.3198639999973
 31
0.0
  0
LINE
  5
36C4
  8
0-1
  6
CONTINUOUS
 62
     3
 10
23044.412689000012
 20
7686.319830999998
 30
0.0
 11
24735.91532799997
 21
7686.319830999998
 31
0.0
  0
LINE
  5
36C5
  8
0-1
  6
CONTINUOUS
 62
     3
 10
23044.412689000012
 20
7751.3197979999968
 30
0.0
 11
24735.91532799997
 21
7751.3197979999968
 31
0.0
  0
LINE
  5
36C6
  8
0-1
  6
CONTINUOUS
 62
     3
 10
23044.412689000012
 20
7816.3202600000022
 30
0.0
 11
24735.91532799997
 21
7816.3202600000022
 31
0.0
  0
LINE
  5
36C7
  8
0-1
  6
CONTINUOUS
 62
     3
 10
23044.412689000012
 20
7881.3202269999929
 30
0.0
 11
24735.91532799997
 21
7881.3202269999929
 31
0.0
  0
LINE
  5
36C8
  8
0-1
  6
CONTINUOUS
 62
     3
 10
23044.412689000012
 20
7946.3206889999929
 30
0.0
 11
24735.91532799997
 21
7946.3206889999929
 31
0.0
  0
LINE
  5
36C9
  8
0-1
  6
CONTINUOUS
 62
     3
 10
23044.412689000012
 20
8011.3196659999958
 30
0.0
 11
24735.91532799997
 21
8011.3196659999958
 31
0.0
  0
LINE
  5
36CA
  8
0-1
  6
CONTINUOUS
 62
     3
 10
23044.412689000012
 20
8076.3201279999967
 30
0.0
 11
24735.91532799997
 21
8076.3201279999967
 31
0.0
  0
LINE
  5
36CB
  8
0-1
  6
CONTINUOUS
 62
     3
 10
23044.412689000012
 20
8141.3200949999973
 30
0.0
 11
24735.91532799997
 21
8141.3200949999973
 31
0.0
  0
LINE
  5
36CC
  8
0-1
  6
CONTINUOUS
 62
     3
 10
23044.412689000012
 20
6321.3195339999966
 30
0.0
 11
24735.91532799997
 21
6321.3195339999966
 31
0.0
  0
LINE
  5
36CD
  8
0-1
  6
CONTINUOUS
 62
     3
 10
23044.412689000012
 20
6386.3204909999977
 30
0.0
 11
24735.91532799997
 21
6386.3204909999977
 31
0.0
  0
LINE
  5
36CE
  8
0-1
  6
CONTINUOUS
 62
     3
 10
23044.412689000012
 20
6451.3194679999979
 30
0.0
 11
24735.91532799997
 21
6451.3194679999979
 31
0.0
  0
LINE
  5
36CF
  8
0-1
  6
CONTINUOUS
 62
     3
 10
23044.412689000012
 20
6516.3204249999962
 30
0.0
 11
24735.91532799997
 21
6516.3204249999962
 31
0.0
  0
LINE
  5
36D0
  8
0-1
  6
CONTINUOUS
 62
     3
 10
23044.412689000012
 20
6581.3198969999967
 30
0.0
 11
24735.91532799997
 21
6581.3198969999967
 31
0.0
  0
LINE
  5
36D1
  8
0-1
  6
CONTINUOUS
 62
     3
 10
23044.412689000012
 20
6646.3198639999973
 30
0.0
 11
24735.91532799997
 21
6646.3198639999973
 31
0.0
  0
LINE
  5
36D2
  8
0-1
  6
CONTINUOUS
 62
     3
 10
23044.412689000012
 20
6711.3198309999989
 30
0.0
 11
24735.91532799997
 21
6711.3198309999989
 31
0.0
  0
LINE
  5
36D3
  8
0-1
  6
CONTINUOUS
 62
     3
 10
23044.412689000012
 20
6776.3193029999984
 30
0.0
 11
24735.91532799997
 21
6776.3193029999984
 31
0.0
  0
LINE
  5
36D5
  8
0-1
  6
CONTINUOUS
 62
     3
 10
22999.412293000001
 20
8264.3199559999957
 30
0.0
 11
24780.91572399998
 21
8264.3199559999957
 31
0.0
  0
LINE
  5
36D6
  8
0-1
  6
CONTINUOUS
 62
     3
 10
19988.913349999992
 20
6256.3200619999989
 30
0.0
 11
24873.41466899998
 21
6256.3200619999989
 31
0.0
  0
LINE
  5
36E0
  8
0-1
  6
CONTINUOUS
 62
     3
 10
22914.413744999969
 20
8574.8193229999979
 30
0.0
 11
22914.413744999969
 21
6256.3200619999989
 31
0.0
  0
LINE
  5
36E1
  8
0-1
  6
CONTINUOUS
 62
     3
 10
22869.41532899997
 20
8264.3199559999957
 30
0.0
 11
22869.41532899997
 21
6256.3200619999989
 31
0.0
  0
LINE
  5
36EC
  8
0-1
  6
CONTINUOUS
 62
     3
 10
20088.914668999991
 20
6356.3198969999958
 30
0.0
 11
20088.914668999991
 21
6256.3200619999989
 31
0.0
  0
LINE
  5
36ED
  8
0-1
  6
CONTINUOUS
 62
     3
 10
19988.913349999992
 20
6256.3200619999989
 30
0.0
 11
19988.913349999992
 21
6356.3198969999958
 31
0.0
  0
LINE
  5
36EE
  8
0-1
  6
CONTINUOUS
 62
     3
 10
19988.913349999992
 20
6356.3198969999958
 30
0.0
 11
20088.914668999991
 21
6356.3198969999958
 31
0.0
  0
LINE
  5
36EF
  8
0-1
  6
CONTINUOUS
 62
     3
 10
20126.414668999991
 20
8264.3199559999957
 30
0.0
 11
20126.414668999991
 21
6256.3200619999989
 31
0.0
  0
LINE
  5
36F0
  8
0-1
  6
CONTINUOUS
 62
     3
 10
20081.412294000002
 20
8574.8193229999979
 30
0.0
 11
20081.412294000002
 21
6356.3198969999958
 31
0.0
  0
LINE
  5
36F1
  8
0-1
  6
CONTINUOUS
 62
     3
 10
20016.414800999992
 20
8704.8202459999975
 30
0.0
 11
20016.414800999992
 21
6356.3198969999958
 31
0.0
  0
LINE
  5
36F2
  8
0-1
  6
CONTINUOUS
 62
     3
 10
19996.41176599999
 20
8574.8193229999979
 30
0.0
 11
19996.41176599999
 21
6356.3198969999958
 31
0.0
  0
LINE
  5
36F3
  8
0-1
  6
CONTINUOUS
 62
     3
 10
20081.412294000002
 20
8264.3199559999957
 30
0.0
 11
22914.413744999969
 21
8264.3199559999957
 31
0.0
  0
LINE
  5
36F5
  8
0-1
  6
CONTINUOUS
 62
     3
 10
20126.414668999991
 20
6776.3193029999984
 30
0.0
 11
22869.41532899997
 21
6776.3193029999984
 31
0.0
  0
LINE
  5
36F6
  8
0-1
  6
CONTINUOUS
 62
     3
 10
20126.414668999991
 20
6711.3198309999989
 30
0.0
 11
22869.41532899997
 21
6711.3198309999989
 31
0.0
  0
LINE
  5
36F7
  8
0-1
  6
CONTINUOUS
 62
     3
 10
20126.414668999991
 20
6646.3198639999973
 30
0.0
 11
22869.41532899997
 21
6646.3198639999973
 31
0.0
  0
LINE
  5
36F8
  8
0-1
  6
CONTINUOUS
 62
     3
 10
20126.414668999991
 20
6581.3198969999967
 30
0.0
 11
22869.41532899997
 21
6581.3198969999967
 31
0.0
  0
LINE
  5
36F9
  8
0-1
  6
CONTINUOUS
 62
     3
 10
20126.414668999991
 20
6516.3204249999962
 30
0.0
 11
22869.41532899997
 21
6516.3204249999962
 31
0.0
  0
LINE
  5
36FA
  8
0-1
  6
CONTINUOUS
 62
     3
 10
20126.414668999991
 20
6451.3194679999979
 30
0.0
 11
22869.41532899997
 21
6451.3194679999979
 31
0.0
  0
LINE
  5
36FB
  8
0-1
  6
CONTINUOUS
 62
     3
 10
20126.414668999991
 20
6386.3204909999977
 30
0.0
 11
22869.41532899997
 21
6386.3204909999977
 31
0.0
  0
LINE
  5
36FC
  8
0-1
  6
CONTINUOUS
 62
     3
 10
20126.414668999991
 20
6321.3195339999966
 30
0.0
 11
22869.41532899997
 21
6321.3195339999966
 31
0.0
  0
LINE
  5
36FD
  8
0-1
  6
CONTINUOUS
 62
     3
 10
20126.414668999991
 20
8141.3200949999973
 30
0.0
 11
22869.41532899997
 21
8141.3200949999973
 31
0.0
  0
LINE
  5
36FE
  8
0-1
  6
CONTINUOUS
 62
     3
 10
20126.414668999991
 20
8076.3201279999967
 30
0.0
 11
22869.41532899997
 21
8076.3201279999967
 31
0.0
  0
LINE
  5
36FF
  8
0-1
  6
CONTINUOUS
 62
     3
 10
20126.414668999991
 20
8011.3196659999958
 30
0.0
 11
22869.41532899997
 21
8011.3196659999958
 31
0.0
  0
LINE
  5
3700
  8
0-1
  6
CONTINUOUS
 62
     3
 10
20126.414668999991
 20
7946.3206889999929
 30
0.0
 11
22869.41532899997
 21
7946.3206889999929
 31
0.0
  0
LINE
  5
3701
  8
0-1
  6
CONTINUOUS
 62
     3
 10
20126.414668999991
 20
7881.3202269999929
 30
0.0
 11
22869.41532899997
 21
7881.3202269999929
 31
0.0
  0
LINE
  5
3702
  8
0-1
  6
CONTINUOUS
 62
     3
 10
20126.414668999991
 20
7816.3202600000022
 30
0.0
 11
22869.41532899997
 21
7816.3202600000022
 31
0.0
  0
LINE
  5
3703
  8
0-1
  6
CONTINUOUS
 62
     3
 10
20126.414668999991
 20
7751.3197979999968
 30
0.0
 11
22869.41532899997
 21
7751.3197979999968
 31
0.0
  0
LINE
  5
3704
  8
0-1
  6
CONTINUOUS
 62
     3
 10
20126.414668999991
 20
7686.319830999998
 30
0.0
 11
22869.41532899997
 21
7686.319830999998
 31
0.0
  0
LINE
  5
3705
  8
0-1
  6
CONTINUOUS
 62
     3
 10
20126.414668999991
 20
7621.3198639999973
 30
0.0
 11
22869.41532899997
 21
7621.3198639999973
 31
0.0
  0
LINE
  5
3706
  8
0-1
  6
CONTINUOUS
 62
     3
 10
20126.414668999991
 20
7556.3194019999974
 30
0.0
 11
22869.41532899997
 21
7556.3194019999974
 31
0.0
  0
LINE
  5
3707
  8
0-1
  6
CONTINUOUS
 62
     3
 10
20126.414668999991
 20
7491.3204249999953
 30
0.0
 11
22869.41532899997
 21
7491.3204249999953
 31
0.0
  0
LINE
  5
3708
  8
0-1
  6
CONTINUOUS
 62
     3
 10
20126.414668999991
 20
7426.3199629999917
 30
0.0
 11
22869.41532899997
 21
7426.3199629999917
 31
0.0
  0
LINE
  5
3709
  8
0-1
  6
CONTINUOUS
 62
     3
 10
20126.414668999991
 20
7361.3199959999947
 30
0.0
 11
22869.41532899997
 21
7361.3199959999947
 31
0.0
  0
LINE
  5
370A
  8
0-1
  6
CONTINUOUS
 62
     3
 10
20126.414668999991
 20
7296.3195339999966
 30
0.0
 11
22869.41532899997
 21
7296.3195339999966
 31
0.0
  0
LINE
  5
370B
  8
0-1
  6
CONTINUOUS
 62
     3
 10
20126.414668999991
 20
7231.320557
 30
0.0
 11
22869.41532899997
 21
7231.320557
 31
0.0
  0
LINE
  5
370C
  8
0-1
  6
CONTINUOUS
 62
     3
 10
20126.414668999991
 20
7166.3200949999973
 30
0.0
 11
22869.41532899997
 21
7166.3200949999973
 31
0.0
  0
LINE
  5
370D
  8
0-1
  6
CONTINUOUS
 62
     3
 10
20126.414668999991
 20
7101.3201279999967
 30
0.0
 11
22869.41532899997
 21
7101.3201279999967
 31
0.0
  0
LINE
  5
370E
  8
0-1
  6
CONTINUOUS
 62
     3
 10
20126.414668999991
 20
7036.3201609999978
 30
0.0
 11
22869.41532899997
 21
7036.3201609999978
 31
0.0
  0
LINE
  5
370F
  8
0-1
  6
CONTINUOUS
 62
     3
 10
20126.414668999991
 20
6971.3201939999963
 30
0.0
 11
22869.41532899997
 21
6971.3201939999963
 31
0.0
  0
LINE
  5
3710
  8
0-1
  6
CONTINUOUS
 62
     3
 10
20126.414668999991
 20
6906.319731999999
 30
0.0
 11
22869.41532899997
 21
6906.319731999999
 31
0.0
  0
LINE
  5
3711
  8
0-1
  6
CONTINUOUS
 62
     3
 10
20126.414668999991
 20
6841.3207549999979
 30
0.0
 11
22869.41532899997
 21
6841.3207549999979
 31
0.0
  0
LINE
  5
3712
  8
0-1
  6
CONTINUOUS
 62
     3
 10
20126.414668999991
 20
8195.7796199999975
 30
0.0
 11
22869.41532899997
 21
8195.7796199999975
 31
0.0
  0
LINE
  5
3718
  8
0-2
  6
CONTINUOUS
 62
     4
 10
21861.605019499992
 20
7003.5457659999956
 30
0.0
 11
21761.605679499979
 21
7003.5457659999956
 31
0.0
  0
LINE
  5
3719
  8
0-2
  6
CONTINUOUS
 62
     4
 10
21134.221018499989
 20
7003.5457659999956
 30
0.0
 11
21234.218379499998
 21
7003.5457659999956
 31
0.0
  0
LINE
  5
371A
  8
0-5
  6
CONTINUOUS
 62
     4
 10
22956.914008999989
 20
4576.3199629999954
 30
0.0
 11
22956.914008999989
 21
4416.3199299999978
 31
0.0
  0
LINE
  5
371B
  8
0-5
  6
CONTINUOUS
 62
     4
 10
20038.914008999978
 20
4576.3199629999954
 30
0.0
 11
20038.914008999978
 21
4416.3199299999978
 31
0.0
  0
LINE
  5
371C
  8
2-0
  6
CENTER2
 62
     6
 10
24823.414008999978
 20
5993.6676389999984
 30
0.0
 11
24823.414008999978
 21
7030.8096759999962
 31
0.0
  0
LINE
  5
371D
  8
2-0
  6
CENTER2
 62
     6
 10
22956.914008999989
 20
5993.6676389999984
 30
0.0
 11
22956.914008999989
 21
7030.8096759999962
 31
0.0
  0
LINE
  5
371E
  8
2-0
  6
CENTER2
 62
     6
 10
20038.914008999978
 20
5993.6676389999984
 30
0.0
 11
20038.914008999978
 21
7030.8096759999962
 31
0.0
  0
CIRCLE
  5
372F
  8
0-5
  6
CONTINUOUS
 62
     4
 10
22956.914008999989
 20
4216.3202599999968
 30
0.0
 40
199.9999949999999
  0
CIRCLE
  5
3730
  8
0-5
  6
CONTINUOUS
 62
     4
 10
20038.914008999978
 20
4216.3202599999968
 30
0.0
 40
199.9999949999999
  0
TEXT
  5
3731
  8
0-5
  6
CONTINUOUS
 62
     7
 10
19420.738069999981
 20
6985.6803087419958
 30
0.0
 40
160.0
  1
(2131.5)
 50
90.0
 72
     4
 11
19340.738069999981
 21
7439.0136420753288
 31
0.0
  0
TEXT
  5
3732
  8
0-5
  6
CONTINUOUS
 62
     7
 10
22909.985561999991
 20
4129.7903059999971
 30
0.0
 40
160.0
  1
2
 72
     4
 11
22963.318895333319
 21
4209.7903059999971
 31
0.0
  0
TEXT
  5
3733
  8
0-5
  6
CONTINUOUS
 62
     7
 10
19991.981602999989
 20
4129.7903059999971
 30
0.0
 40
160.0
  1
1
 72
     4
 11
20018.648269666661
 21
4209.7903059999971
 31
0.0
  0
CIRCLE
  5
3734
  8
0-4
  6
CONTINUOUS
 62
     4
 10
21497.914008999971
 20
6742.3760029999939
 30
0.0
 40
18.487504999999981
  0
LINE
  5
3735
  8
SUNPOU
  6
CONTINUOUS
 10
19756.41400899996
 20
5056.3200619999989
 30
0.0
 11
19398.45900227888
 21
5056.3200619999989
 31
0.0
  0
LINE
  5
3736
  8
SUNPOU
  6
CONTINUOUS
 10
25105.917967999991
 20
5056.3200619999989
 30
0.0
 11
25463.8729747211
 21
5056.3200619999989
 31
0.0
  0
LINE
  5
3737
  8
0-5
  6
CONTINUOUS
 62
     4
 10
24865.914008999989
 20
4576.3199629999954
 30
0.0
 11
24865.914008999989
 21
4416.3199299999978
 31
0.0
  0
CIRCLE
  5
3738
  8
0-5
  6
CONTINUOUS
 62
     4
 10
24865.914008999989
 20
4216.3202599999968
 30
0.0
 40
199.9999949999999
  0
TEXT
  5
3739
  8
0-5
  6
CONTINUOUS
 62
     7
 10
24818.98556199998
 20
4129.7903059999971
 30
0.0
 40
160.0
  1
3
 72
     4
 11
24872.318895333308
 21
4209.7903059999971
 31
0.0
  0
LINE
  5
373A
  8
0-5
  6
CONTINUOUS
 62
     4
 10
17466.54494899997
 20
6464.1655539999992
 30
0.0
 11
17586.541385999979
 21
6256.3200620000034
 31
0.0
  0
LINE
  5
373B
  8
0-5
  6
CONTINUOUS
 62
     4
 10
17586.541385999979
 20
6256.3200620000034
 30
0.0
 11
17706.541781999971
 21
6464.1655539999992
 31
0.0
  0
LINE
  5
373C
  8
0-5
  6
CONTINUOUS
 62
     4
 10
17706.541781999971
 20
6464.1655539999992
 30
0.0
 11
17466.54494899997
 21
6464.1655539999992
 31
0.0
  0
TEXT
  5
373D
  8
0-5
  6
CONTINUOUS
 62
     7
 10
17466.54494899997
 20
6544.1663119999967
 30
0.0
 40
160.0
  1
G.L
 72
     4
 11
17626.54494899997
 21
6624.1663119999967
 31
0.0
  0
TEXT
  5
373E
  8
2-0
  6
CONTINUOUS
 62
     7
 10
21111.840608999981
 20
3295.170340999995
 30
0.0
 40
160.0
  1
正 面 立 面 図
 72
     4
 11
21757.17394233332
 21
3375.1703409999941
 31
0.0
  0
TEXT
  5
373F
  8
2-0
  6
CONTINUOUS
 62
     7
 10
23108.66612747094
 20
3322.3657099999941
 30
0.0
 40
160.0
  1
1
 72
     4
 11
23135.332794137608
 21
3402.3657099999941
 31
0.0
  0
TEXT
  5
3740
  8
2-0
  6
CONTINUOUS
 62
     7
 10
23351.75484472165
 20
3242.3671779999941
 30
0.0
 40
160.0
  1
80
 72
     4
 11
23471.75484472165
 21
3322.3671779999941
 31
0.0
  0
TEXT
  5
3741
  8
2-0
  6
CONTINUOUS
 62
     7
 10
22609.668093470951
 20
3295.170340999995
 30
0.0
 40
160.0
  1
(S=  /   )
 72
     4
 11
23169.668093470951
 21
3375.1703409999941
 31
0.0
  0
LINE
  5
3742
  8
SUNPOU
  6
CONTINUOUS
 10
8812.6572919999944
 20
9504.3200880000004
 30
0.0
 11
8337.3681793597625
 21
9504.3200880000004
 31
0.0
  0
LINE
  5
3743
  8
2-0
  6
CONTINUOUS
 62
     6
 10
22914.413745999991
 20
14098.229198000001
 30
0.0
 11
22669.383322974361
 21
14501.61767387305
 31
0.0
  0
LINE
  5
3744
  8
2-0
  6
CONTINUOUS
 62
     6
 10
21639.034003974371
 20
14501.61767387305
 30
0.0
 11
22669.383322974361
 21
14501.61767387305
 31
0.0
  0
LINE
  5
3745
  8
2-0
  6
CONTINUOUS
 62
     6
 10
22854.13542599999
 20
14248.82503299999
 30
0.0
 11
22914.413745999991
 21
14098.229198000001
 31
0.0
  0
LINE
  5
3746
  8
2-0
  6
CONTINUOUS
 62
     6
 10
22914.413745999991
 20
14098.229198000001
 30
0.0
 11
22808.555031000022
 21
14221.137506999999
 31
0.0
  0
LINE
  5
3747
  8
2-0
  6
CONTINUOUS
 62
     6
 10
22854.13542599999
 20
14248.82503299999
 30
0.0
 11
22808.555031000022
 21
14221.137506999999
 31
0.0
  0
LINE
  5
3748
  8
2-0
  6
CONTINUOUS
 62
     6
 10
22808.555031000022
 20
14221.137506999999
 30
0.0
 11
22914.413745999991
 21
14098.229198000001
 31
0.0
  0
LINE
  5
3749
  8
2-0
  6
CONTINUOUS
 62
     6
 10
22914.413745999991
 20
14098.229198000001
 30
0.0
 11
22854.13542599999
 21
14248.82503299999
 31
0.0
  0
LINE
  5
374A
  8
2-0
  6
CONTINUOUS
 62
     6
 10
22854.13542599999
 20
14248.82503299999
 30
0.0
 11
22914.413745999991
 21
14098.229198000001
 31
0.0
  0
LINE
  5
374B
  8
2-0
  6
CONTINUOUS
 62
     6
 10
22808.555031000022
 20
14221.137506999999
 30
0.0
 11
22914.413745999991
 21
14098.229198000001
 31
0.0
  0
LINE
  5
374C
  8
2-0
  6
CONTINUOUS
 62
     6
 10
22808.555031000022
 20
14221.137506999999
 30
0.0
 11
22854.13542599999
 21
14248.82503299999
 31
0.0
  0
TEXT
  5
374D
  8
2-0
  6
CONTINUOUS
 62
     7
 10
21719.03228897438
 20
14581.612989873031
 30
0.0
 40
160.0
  1
前柱（中）
 72
     4
 11
22135.03228897438
 21
14661.612989873031
 31
0.0
  0
LINE
  5
374E
  8
0-2
  6
CONTINUOUS
 62
     4
 10
24253.854028999998
 20
7003.5457659999956
 30
0.0
 11
24153.854689
 21
7003.5457659999956
 31
0.0
  0
LINE
  5
374F
  8
0-2
  6
CONTINUOUS
 62
     4
 10
23526.470027999989
 20
7003.5457659999956
 30
0.0
 11
23626.467389000001
 21
7003.5457659999956
 31
0.0
  0
CIRCLE
  5
3750
  8
0-4
  6
CONTINUOUS
 62
     4
 10
23890.163018499989
 20
6742.3760029999939
 30
0.0
 40
18.487504999999981
  0
LINE
  5
3751
  8
SUNPOU
  6
CONTINUOUS
 10
8175.8278279999931
 20
20114.226823000001
 30
0.0
 11
8175.8278279999931
 21
20911.19409077847
 31
0.0
  0
LINE
  5
3752
  8
SUNPOU
  6
CONTINUOUS
 10
8175.8278279999931
 20
13863.235599
 30
0.0
 11
8175.8278279999931
 21
13187.80948318962
 31
0.0
  0
LINE
  5
3753
  8
0-6
  6
CONTINUOUS
 62
     6
 10
22889.199628499999
 20
19813.36573300001
 30
0.0
 11
22576.643541500001
 21
19286.972151999991
 31
0.0
  0
LINE
  5
3754
  8
0-6
  6
CONTINUOUS
 62
     6
 10
21551.607250500001
 20
19286.972151999991
 30
0.0
 11
22576.643541500001
 21
19286.972151999991
 31
0.0
  0
LINE
  5
3755
  8
0-6
  6
CONTINUOUS
 62
     6
 10
21554.62799550001
 20
18689.272353
 30
0.0
 11
22579.668246500001
 21
18689.272353
 31
0.0
  0
LINE
  5
3756
  8
0-6
  6
CONTINUOUS
 62
     6
 10
20913.196672499998
 20
19769.54711000001
 30
0.0
 11
21554.62799550001
 21
18689.272353
 31
0.0
  0
LINE
  5
3757
  8
0-6
  6
CONTINUOUS
 62
     6
 10
20936.1293945
 20
19783.162239000001
 30
0.0
 11
20831.509858500009
 21
19907.121672000001
 31
0.0
  0
LINE
  5
3758
  8
0-6
  6
CONTINUOUS
 62
     6
 10
20831.509858500009
 20
19907.121672000001
 30
0.0
 11
20890.267908500009
 21
19755.931981000009
 31
0.0
  0
LINE
  5
3759
  8
0-6
  6
CONTINUOUS
 62
     6
 10
20831.509858500009
 20
19907.121672000001
 30
0.0
 11
20936.1293945
 21
19783.162239000001
 31
0.0
  0
LINE
  5
375A
  8
0-6
  6
CONTINUOUS
 62
     6
 10
20936.1293945
 20
19783.162239000001
 30
0.0
 11
20890.267908500009
 21
19755.931981000009
 31
0.0
  0
LINE
  5
375B
  8
0-6
  6
CONTINUOUS
 62
     6
 10
20890.267908500009
 20
19755.931981000009
 30
0.0
 11
20831.509858500009
 21
19907.121672000001
 31
0.0
  0
LINE
  5
375C
  8
0-6
  6
CONTINUOUS
 62
     6
 10
20890.267908500009
 20
19755.931981000009
 30
0.0
 11
20936.1293945
 21
19783.162239000001
 31
0.0
  0
LINE
  5
375D
  8
0-6
  6
CONTINUOUS
 62
     6
 10
22784.584050500009
 20
19689.404321000009
 30
0.0
 11
22889.199628499999
 21
19813.36573300001
 31
0.0
  0
LINE
  5
375E
  8
0-6
  6
CONTINUOUS
 62
     6
 10
22889.199628499999
 20
19813.36573300001
 30
0.0
 11
22830.441578499998
 21
19662.176041999999
 31
0.0
  0
LINE
  5
375F
  8
0-6
  6
CONTINUOUS
 62
     6
 10
22889.199628499999
 20
19813.36573300001
 30
0.0
 11
22784.584050500009
 21
19689.404321000009
 31
0.0
  0
LINE
  5
3760
  8
0-6
  6
CONTINUOUS
 62
     6
 10
22784.584050500009
 20
19689.404321000009
 30
0.0
 11
22830.441578499998
 21
19662.176041999999
 31
0.0
  0
LINE
  5
3761
  8
0-6
  6
CONTINUOUS
 62
     6
 10
22830.441578499998
 20
19662.176041999999
 30
0.0
 11
22889.199628499999
 21
19813.36573300001
 31
0.0
  0
LINE
  5
3762
  8
0-6
  6
CONTINUOUS
 62
     6
 10
22830.441578499998
 20
19662.176041999999
 30
0.0
 11
22784.584050500009
 21
19689.404321000009
 31
0.0
  0
TEXT
  5
3763
  8
0-6
  6
CONTINUOUS
 62
     7
 10
21631.603555500002
 20
19366.972416000001
 30
0.0
 40
160.0
  1
後柱（中）
 72
     4
 11
22047.603555500002
 21
19446.972416000001
 31
0.0
  0
TEXT
  5
3764
  8
0-6
  6
CONTINUOUS
 62
     7
 10
21634.628259500001
 20
18769.27261700001
 30
0.0
 40
160.0
  1
間柱（後）
 72
     4
 11
22055.96159283333
 21
18849.27261700001
 31
0.0
  0
LINE
  5
3767
  8
WAKUSEN-01
 10
868.00000000000193
 20
22484.000000000011
 30
0.0
 11
32764.000000000011
 21
22484.000000000011
 31
0.0
  0
LINE
  5
376A
  8
WAKUSEN-01
 10
20560.0
 20
2484.0
 30
0.0
 11
32764.0
 21
2484.0
 31
0.0
  0
LINE
  5
376B
  8
WAKUSEN-02
 10
20560.0
 20
1655.9999999999991
 30
0.0
 11
26868.0
 21
1655.9999999999991
 31
0.0
  0
TEXT
  5
376C
  8
WAKUMOJI-01
 10
20670.260259962761
 20
2125.9030093393221
 30
0.0
 40
240.0
  1
名　称
  7
WAKUMOJI
  0
TEXT
  5
376D
  8
WAKUMOJI-01
 10
20656.505485091919
 20
1319.12897497982
 30
0.0
 40
240.0
  1
機種名
  7
WAKUMOJI
  0
LINE
  5
3770
  8
YODOROGO
 10
29977.604341291921
 20
1995.7494964292871
 30
0.0
 11
29829.604341291921
 21
1995.7494964292871
 31
0.0
1001
AUTOCAD_POSTSCRIPT_FIGURE
1002
{
1000
PSFILL
1000
Grayscale
1000
Grayscale
1070
    25
1002
}
  0
LINE
  5
3771
  8
YODOROGO
 10
29829.604341291921
 20
1947.749496429288
 30
0.0
 11
29977.604341291921
 21
1947.749496429288
 31
0.0
1001
AUTOCAD_POSTSCRIPT_FIGURE
1002
{
1000
PSFILL
1000
Grayscale
1000
Grayscale
1070
    25
1002
}
  0
LINE
  5
3772
  8
YODOROGO
 10
29977.604341291921
 20
1907.7494964292871
 30
0.0
 11
29829.604341291921
 21
1907.7494964292871
 31
0.0
1001
AUTOCAD_POSTSCRIPT_FIGURE
1002
{
1000
PSFILL
1000
Grayscale
1000
Grayscale
1070
    25
1002
}
  0
LINE
  5
3773
  8
YODOROGO
 10
29829.604341291921
 20
1859.749496429288
 30
0.0
 11
29977.604341291921
 21
1859.749496429288
 31
0.0
1001
AUTOCAD_POSTSCRIPT_FIGURE
1002
{
1000
PSFILL
1000
Grayscale
1000
Grayscale
1070
    25
1002
}
  0
LINE
  5
3774
  8
YODOROGO
 10
29977.604341291921
 20
1819.7494964292871
 30
0.0
 11
29829.604341291921
 21
1819.7494964292871
 31
0.0
1001
AUTOCAD_POSTSCRIPT_FIGURE
1002
{
1000
PSFILL
1000
Grayscale
1000
Grayscale
1070
    25
1002
}
  0
LINE
  5
3775
  8
YODOROGO
 10
29921.60434129191
 20
1707.749496429288
 30
0.0
 11
29977.604341291921
 21
1707.749496429288
 31
0.0
1001
AUTOCAD_POSTSCRIPT_FIGURE
1002
{
1000
PSFILL
1000
Grayscale
1000
Grayscale
1070
    25
1002
}
  0
LINE
  5
3776
  8
YODOROGO
 10
29737.604341291921
 20
1427.749496429288
 30
0.0
 11
29937.604341291932
 21
1481.3393349155101
 31
0.0
  0
LINE
  5
3777
  8
YODOROGO
 10
29949.60434129191
 20
1707.749496429288
 30
0.0
 11
29885.604341291921
 21
1707.749496429288
 31
0.0
  0
ARC
  5
3778
  8
YODOROGO
 10
30254.34774982791
 20
1807.864609233261
 30
0.0
 40
381.88686420564721
 50
213.96111677667841
 51
264.47872074317792
  0
ARC
  5
3779
  8
YODOROGO
 10
30254.347749827921
 20
1807.864609233302
 30
0.0
 40
381.8868642056816
 50
208.14114420486601
 51
212.9210361185994
  0
LINE
  5
377A
  8
YODOROGO
 10
29771.409872985321
 20
1556.807661346234
 30
0.0
 11
29933.78413250855
 21
1600.3157130570869
 31
0.0
  0
LINE
  5
377B
  8
YODOROGO
 10
29737.604341291921
 20
1427.749496429288
 30
0.0
 11
29937.604341291932
 21
1481.3393349155101
 31
0.0
  0
LINE
  5
377C
  8
YODOROGO
 10
29949.60434129191
 20
1707.749496429288
 30
0.0
 11
29885.604341291921
 21
1707.749496429288
 31
0.0
  0
ARC
  5
377D
  8
YODOROGO
 10
30254.34774982791
 20
1807.864609233261
 30
0.0
 40
381.88686420564721
 50
213.96111677667841
 51
264.47872074317792
  0
LINE
  5
377E
  8
YODOROGO
 10
28793.60434129191
 20
1819.7494964292871
 30
0.0
 11
28433.60434129191
 21
1819.7494964292871
 31
0.0
  0
LINE
  5
377F
  8
YODOROGO
 10
28513.60434129191
 20
1427.749496429288
 30
0.0
 11
28793.60434129191
 21
1427.749496429288
 31
0.0
  0
LINE
  5
3780
  8
YODOROGO
 10
28729.604341291921
 20
1923.7494964292871
 30
0.0
 11
28497.60434129191
 21
1923.7494964292871
 31
0.0
  0
LINE
  5
3781
  8
YODOROGO
 10
28585.604341291921
 20
2027.749496429288
 30
0.0
 11
28657.604341291921
 21
2027.749496429288
 31
0.0
  0
LINE
  5
3782
  8
YODOROGO
 10
28433.60434129191
 20
1707.749496429288
 30
0.0
 11
28433.60434129191
 21
1507.749496429288
 31
0.0
  0
LINE
  5
3783
  8
YODOROGO
 10
28497.60434129191
 20
1563.7494964292871
 30
0.0
 11
28497.60434129191
 21
1707.749496429288
 31
0.0
  0
LINE
  5
3784
  8
YODOROGO
 10
28585.604341291921
 20
1747.74949642929
 30
0.0
 11
28585.604341291921
 21
1547.749496429288
 31
0.0
  0
LINE
  5
3785
  8
YODOROGO
 10
27857.604341291921
 20
1683.749496429288
 30
0.0
 11
27777.604341291921
 21
1619.9724140445701
 31
0.0
  0
LINE
  5
3786
  8
YODOROGO
 10
27937.604341291921
 20
1619.9724140445701
 30
0.0
 11
27857.604341291921
 21
1683.749496429288
 31
0.0
  0
LINE
  5
3787
  8
YODOROGO
 10
27857.604341291921
 20
1707.749496429288
 30
0.0
 11
27937.604341291921
 21
1643.9724140445701
 31
0.0
  0
LINE
  5
3788
  8
YODOROGO
 10
27777.604341291921
 20
1643.9724140445701
 30
0.0
 11
27857.604341291921
 21
1707.749496429288
 31
0.0
  0
LINE
  5
3789
  8
YODOROGO
 10
28040.913204016892
 20
1659.749496429288
 30
0.0
 11
28040.913204016892
 21
1683.7494964292871
 31
0.0
  0
LINE
  5
378A
  8
YODOROGO
 10
27977.604341291921
 20
1683.7494964292871
 30
0.0
 11
27977.604341291921
 21
1667.749496429285
 31
0.0
  0
LINE
  5
378B
  8
YODOROGO
 10
28098.135520230931
 20
1707.749496429288
 30
0.0
 11
28098.135520230931
 21
1655.5036372746561
 31
0.0
1001
AUTOCAD_POSTSCRIPT_FIGURE
1002
{
1000
PSFILL
1000
Grayscale
1000
Grayscale
1070
   100
1002
}
  0
LINE
  5
378C
  8
YODOROGO
 10
28082.135520230921
 20
1655.5036372746561
 30
0.0
 11
28082.135520230921
 21
1707.749496429288
 31
0.0
1001
AUTOCAD_POSTSCRIPT_FIGURE
1002
{
1000
PSFILL
1000
Grayscale
1000
Grayscale
1070
   100
1002
}
  0
LINE
  5
378D
  8
YODOROGO
 10
27809.604341291921
 20
1608.771904043258
 30
0.0
 11
27809.604341291921
 21
1632.771904043258
 31
0.0
  0
LINE
  5
378E
  8
YODOROGO
 10
27905.604341291921
 20
1608.771904043258
 30
0.0
 11
27809.604341291921
 21
1608.771904043258
 31
0.0
  0
LINE
  5
378F
  8
YODOROGO
 10
27905.604341291921
 20
1632.771904043258
 30
0.0
 11
27905.604341291921
 21
1608.771904043258
 31
0.0
  0
LINE
  5
3790
  8
YODOROGO
 10
27809.604341291921
 20
1632.771904043258
 30
0.0
 11
27905.604341291921
 21
1632.771904043258
 31
0.0
  0
LINE
  5
3791
  8
YODOROGO
 10
27824.509588915738
 20
1568.5028573704751
 30
0.0
 11
27785.604341291921
 21
1475.7494964292871
 31
0.0
1001
AUTOCAD_POSTSCRIPT_FIGURE
1002
{
1000
PSFILL
1000
Grayscale
1000
Grayscale
1070
   100
1002
}
  0
LINE
  5
3792
  8
YODOROGO
 10
27777.604341291921
 20
1568.5028573704751
 30
0.0
 11
27824.509588915738
 21
1568.5028573704751
 31
0.0
1001
AUTOCAD_POSTSCRIPT_FIGURE
1002
{
1000
PSFILL
1000
Grayscale
1000
Grayscale
1070
   100
1002
}
  0
LINE
  5
3793
  8
YODOROGO
 10
27777.604341291921
 20
1588.5028573704751
 30
0.0
 11
27777.604341291921
 21
1568.5028573704751
 31
0.0
1001
AUTOCAD_POSTSCRIPT_FIGURE
1002
{
1000
PSFILL
1000
Grayscale
1000
Grayscale
1070
   100
1002
}
  0
LINE
  5
3794
  8
YODOROGO
 10
27937.604341291921
 20
1588.5028573704751
 30
0.0
 11
27777.604341291921
 21
1588.5028573704751
 31
0.0
1001
AUTOCAD_POSTSCRIPT_FIGURE
1002
{
1000
PSFILL
1000
Grayscale
1000
Grayscale
1070
   100
1002
}
  0
LINE
  5
3795
  8
YODOROGO
 10
27937.604341291921
 20
1568.5028573704751
 30
0.0
 11
27937.604341291921
 21
1588.5028573704751
 31
0.0
1001
AUTOCAD_POSTSCRIPT_FIGURE
1002
{
1000
PSFILL
1000
Grayscale
1000
Grayscale
1070
   100
1002
}
  0
LINE
  5
3796
  8
YODOROGO
 10
27844.509588915738
 20
1568.5028573704751
 30
0.0
 11
27937.604341291921
 21
1568.5028573704751
 31
0.0
1001
AUTOCAD_POSTSCRIPT_FIGURE
1002
{
1000
PSFILL
1000
Grayscale
1000
Grayscale
1070
   100
1002
}
  0
LINE
  5
3797
  8
YODOROGO
 10
27815.546718284771
 20
1495.7494964292871
 30
0.0
 11
27844.509588915738
 21
1568.5028573704751
 31
0.0
1001
AUTOCAD_POSTSCRIPT_FIGURE
1002
{
1000
PSFILL
1000
Grayscale
1000
Grayscale
1070
   100
1002
}
  0
LINE
  5
3798
  8
YODOROGO
 10
27902.054790808648
 20
1495.7494964292871
 30
0.0
 11
27815.546718284771
 21
1495.7494964292871
 31
0.0
1001
AUTOCAD_POSTSCRIPT_FIGURE
1002
{
1000
PSFILL
1000
Grayscale
1000
Grayscale
1070
   100
1002
}
  0
LINE
  5
3799
  8
YODOROGO
 10
27885.065004790951
 20
1536.2338106976929
 30
0.0
 11
27902.054790808648
 21
1495.7494964292871
 31
0.0
1001
AUTOCAD_POSTSCRIPT_FIGURE
1002
{
1000
PSFILL
1000
Grayscale
1000
Grayscale
1070
   100
1002
}
  0
LINE
  5
379A
  8
YODOROGO
 10
27901.065004790951
 20
1536.2338106976929
 30
0.0
 11
27885.065004790951
 21
1536.2338106976929
 31
0.0
1001
AUTOCAD_POSTSCRIPT_FIGURE
1002
{
1000
PSFILL
1000
Grayscale
1000
Grayscale
1070
   100
1002
}
  0
LINE
  5
379B
  8
YODOROGO
 10
27929.604341291921
 20
1475.7494964292871
 30
0.0
 11
27901.065004790951
 21
1536.2338106976929
 31
0.0
1001
AUTOCAD_POSTSCRIPT_FIGURE
1002
{
1000
PSFILL
1000
Grayscale
1000
Grayscale
1070
   100
1002
}
  0
LINE
  5
379C
  8
YODOROGO
 10
27785.604341291921
 20
1475.7494964292871
 30
0.0
 11
27929.604341291921
 21
1475.7494964292871
 31
0.0
1001
AUTOCAD_POSTSCRIPT_FIGURE
1002
{
1000
PSFILL
1000
Grayscale
1000
Grayscale
1070
   100
1002
}
  0
LINE
  5
379D
  8
YODOROGO
 10
27777.604341291921
 20
1619.9724140445701
 30
0.0
 11
27777.604341291921
 21
1643.9724140445701
 31
0.0
  0
LINE
  5
379E
  8
YODOROGO
 10
27937.604341291921
 20
1643.9724140445701
 30
0.0
 11
27937.604341291921
 21
1619.9724140445701
 31
0.0
  0
ARC
  5
379F
  8
YODOROGO
 10
28225.940442146959
 20
1600.877765325326
 30
0.0
 40
175.9999999999998
 50
280.3644312771313
 51
3.5414836592180561
  0
ARC
  5
37A0
  8
YODOROGO
 10
28235.756030759301
 20
1633.5978069619041
 30
0.0
 40
111.9999999999982
 50
281.24905825041549
 51
348.75094174958321
  0
LINE
  5
37A1
  8
YODOROGO
 10
28257.604341291921
 20
1523.7494964292871
 30
0.0
 11
28257.604341291921
 21
1427.749496429288
 31
0.0
  0
LINE
  5
37A2
  8
YODOROGO
 10
28020.088903736909
 20
1610.650565061914
 30
0.0
 11
28040.913204016892
 21
1659.749496429288
 31
0.0
  0
LINE
  5
37A3
  8
YODOROGO
 10
28041.604341291921
 20
1583.120489948401
 30
0.0
 11
28020.088903736909
 21
1610.650565061914
 31
0.0
  0
LINE
  5
37A4
  8
YODOROGO
 10
28041.604341291921
 20
1563.120489948398
 30
0.0
 11
28041.604341291921
 21
1583.120489948401
 31
0.0
  0
LINE
  5
37A5
  8
YODOROGO
 10
28017.604341291921
 20
1585.2370637495301
 30
0.0
 11
28041.604341291921
 21
1563.120489948398
 31
0.0
  0
LINE
  5
37A6
  8
YODOROGO
 10
28017.604341291921
 20
1475.7494964292871
 30
0.0
 11
28017.604341291921
 21
1585.2370637495301
 31
0.0
  0
LINE
  5
37A7
  8
YODOROGO
 10
28001.604341291921
 20
1475.7494964292871
 30
0.0
 11
28017.604341291921
 21
1475.7494964292871
 31
0.0
  0
LINE
  5
37A8
  8
YODOROGO
 10
28001.604341291921
 20
1580.0053496897469
 30
0.0
 11
28001.604341291921
 21
1475.7494964292871
 31
0.0
  0
LINE
  5
37A9
  8
YODOROGO
 10
27977.604341291921
 20
1532.7680790334291
 30
0.0
 11
28001.604341291921
 21
1580.0053496897469
 31
0.0
  0
LINE
  5
37AA
  8
YODOROGO
 10
27977.604341291921
 20
1556.76807903343
 30
0.0
 11
27977.604341291921
 21
1532.7680790334291
 31
0.0
  0
LINE
  5
37AB
  8
YODOROGO
 10
28025.828774291349
 20
1667.749496429285
 30
0.0
 11
27977.604341291921
 21
1556.76807903343
 31
0.0
  0
LINE
  5
37AC
  8
YODOROGO
 10
27977.604341291921
 20
1667.749496429285
 30
0.0
 11
28025.828774291349
 21
1667.749496429285
 31
0.0
  0
LINE
  5
37AD
  8
YODOROGO
 10
28050.135520230899
 20
1655.5036372746561
 30
0.0
 11
28082.135520230921
 21
1655.5036372746561
 31
0.0
1001
AUTOCAD_POSTSCRIPT_FIGURE
1002
{
1000
PSFILL
1000
Grayscale
1000
Grayscale
1070
   100
1002
}
  0
LINE
  5
37AE
  8
YODOROGO
 10
28050.135520230899
 20
1631.5036372746561
 30
0.0
 11
28050.135520230899
 21
1655.5036372746561
 31
0.0
1001
AUTOCAD_POSTSCRIPT_FIGURE
1002
{
1000
PSFILL
1000
Grayscale
1000
Grayscale
1070
   100
1002
}
  0
LINE
  5
37AF
  8
YODOROGO
 10
28082.135520230921
 20
1631.5036372746561
 30
0.0
 11
28050.135520230899
 21
1631.5036372746561
 31
0.0
1001
AUTOCAD_POSTSCRIPT_FIGURE
1002
{
1000
PSFILL
1000
Grayscale
1000
Grayscale
1070
   100
1002
}
  0
LINE
  5
37B0
  8
YODOROGO
 10
28082.135520230921
 20
1499.749496429288
 30
0.0
 11
28082.135520230921
 21
1631.5036372746561
 31
0.0
1001
AUTOCAD_POSTSCRIPT_FIGURE
1002
{
1000
PSFILL
1000
Grayscale
1000
Grayscale
1070
   100
1002
}
  0
LINE
  5
37B1
  8
YODOROGO
 10
28050.135520230921
 20
1499.749496429288
 30
0.0
 11
28082.135520230921
 21
1499.749496429288
 31
0.0
1001
AUTOCAD_POSTSCRIPT_FIGURE
1002
{
1000
PSFILL
1000
Grayscale
1000
Grayscale
1070
   100
1002
}
  0
LINE
  5
37B2
  8
YODOROGO
 10
28050.135520230921
 20
1475.7494964292871
 30
0.0
 11
28050.135520230921
 21
1499.749496429288
 31
0.0
1001
AUTOCAD_POSTSCRIPT_FIGURE
1002
{
1000
PSFILL
1000
Grayscale
1000
Grayscale
1070
   100
1002
}
  0
LINE
  5
37B3
  8
YODOROGO
 10
28137.604341291921
 20
1475.7494964292871
 30
0.0
 11
28050.135520230921
 21
1475.7494964292871
 31
0.0
1001
AUTOCAD_POSTSCRIPT_FIGURE
1002
{
1000
PSFILL
1000
Grayscale
1000
Grayscale
1070
   100
1002
}
  0
LINE
  5
37B4
  8
YODOROGO
 10
28137.604341291921
 20
1499.749496429288
 30
0.0
 11
28137.604341291921
 21
1475.7494964292871
 31
0.0
1001
AUTOCAD_POSTSCRIPT_FIGURE
1002
{
1000
PSFILL
1000
Grayscale
1000
Grayscale
1070
   100
1002
}
  0
LINE
  5
37B5
  8
YODOROGO
 10
28098.135520230931
 20
1499.749496429288
 30
0.0
 11
28137.604341291921
 21
1499.749496429288
 31
0.0
1001
AUTOCAD_POSTSCRIPT_FIGURE
1002
{
1000
PSFILL
1000
Grayscale
1000
Grayscale
1070
   100
1002
}
  0
LINE
  5
37B6
  8
YODOROGO
 10
28098.135520230931
 20
1631.5036372746561
 30
0.0
 11
28098.135520230931
 21
1499.749496429288
 31
0.0
1001
AUTOCAD_POSTSCRIPT_FIGURE
1002
{
1000
PSFILL
1000
Grayscale
1000
Grayscale
1070
   100
1002
}
  0
LINE
  5
37B7
  8
YODOROGO
 10
28137.604341291921
 20
1631.5036372746561
 30
0.0
 11
28098.135520230931
 21
1631.5036372746561
 31
0.0
1001
AUTOCAD_POSTSCRIPT_FIGURE
1002
{
1000
PSFILL
1000
Grayscale
1000
Grayscale
1070
   100
1002
}
  0
LINE
  5
37B8
  8
YODOROGO
 10
28137.604341291921
 20
1655.5036372746561
 30
0.0
 11
28137.604341291921
 21
1631.5036372746561
 31
0.0
1001
AUTOCAD_POSTSCRIPT_FIGURE
1002
{
1000
PSFILL
1000
Grayscale
1000
Grayscale
1070
   100
1002
}
  0
LINE
  5
37B9
  8
YODOROGO
 10
28098.135520230931
 20
1655.5036372746561
 30
0.0
 11
28137.604341291921
 21
1655.5036372746561
 31
0.0
1001
AUTOCAD_POSTSCRIPT_FIGURE
1002
{
1000
PSFILL
1000
Grayscale
1000
Grayscale
1070
   100
1002
}
  0
LINE
  5
37BA
  8
YODOROGO
 10
28401.60434129191
 20
1667.749496429288
 30
0.0
 11
28345.604341291921
 21
1667.749496429288
 31
0.0
  0
LINE
  5
37BB
  8
YODOROGO
 10
28401.60434129191
 20
1611.749496429288
 30
0.0
 11
28401.60434129191
 21
1667.749496429288
 31
0.0
  0
LINE
  5
37BC
  8
YODOROGO
 10
28345.604341291921
 20
1667.749496429288
 30
0.0
 11
28345.604341291921
 21
1611.749496429288
 31
0.0
  0
ARC
  5
37BD
  8
YODOROGO
 10
28513.60434129191
 20
1507.749496429288
 30
0.0
 40
80.0
 50
180.0
 51
270.0
  0
ARC
  5
37BE
  8
YODOROGO
 10
28537.604341291921
 20
1563.7494964292871
 30
0.0
 40
40.0
 50
180.0
 51
270.0
  0
LINE
  5
37BF
  8
YODOROGO
 10
28561.604341291932
 20
1523.7494964292871
 30
0.0
 11
28537.604341291921
 21
1523.7494964292871
 31
0.0
  0
ARC
  5
37C0
  8
YODOROGO
 10
28561.604341291932
 20
1547.749496429285
 30
0.0
 40
23.999999999996358
 50
270.0
 51
0.0000000000054281
  0
LINE
  5
37C1
  8
YODOROGO
 10
27801.604341291921
 20
1890.786580793706
 30
0.0
 11
27777.604341291921
 21
1843.776747951672
 31
0.0
1001
AUTOCAD_POSTSCRIPT_FIGURE
1002
{
1000
PSFILL
1000
Grayscale
1000
Grayscale
1070
   100
1002
}
  0
LINE
  5
37C2
  8
YODOROGO
 10
27801.604341291921
 20
1747.749496429286
 30
0.0
 11
27801.604341291921
 21
1890.786580793706
 31
0.0
1001
AUTOCAD_POSTSCRIPT_FIGURE
1002
{
1000
PSFILL
1000
Grayscale
1000
Grayscale
1070
   100
1002
}
  0
LINE
  5
37C3
  8
YODOROGO
 10
27817.604341291921
 20
1747.749496429286
 30
0.0
 11
27801.604341291921
 21
1747.749496429286
 31
0.0
1001
AUTOCAD_POSTSCRIPT_FIGURE
1002
{
1000
PSFILL
1000
Grayscale
1000
Grayscale
1070
   100
1002
}
  0
LINE
  5
37C4
  8
YODOROGO
 10
27817.604341291921
 20
1893.7713320852661
 30
0.0
 11
27817.604341291921
 21
1747.749496429286
 31
0.0
1001
AUTOCAD_POSTSCRIPT_FIGURE
1002
{
1000
PSFILL
1000
Grayscale
1000
Grayscale
1070
   100
1002
}
  0
LINE
  5
37C5
  8
YODOROGO
 10
27841.604341291921
 20
1867.6547582841361
 30
0.0
 11
27817.604341291921
 21
1893.7713320852661
 31
0.0
1001
AUTOCAD_POSTSCRIPT_FIGURE
1002
{
1000
PSFILL
1000
Grayscale
1000
Grayscale
1070
   100
1002
}
  0
LINE
  5
37C6
  8
YODOROGO
 10
27841.604341291921
 20
1883.6547582841361
 30
0.0
 11
27841.604341291921
 21
1867.6547582841361
 31
0.0
1001
AUTOCAD_POSTSCRIPT_FIGURE
1002
{
1000
PSFILL
1000
Grayscale
1000
Grayscale
1070
   100
1002
}
  0
LINE
  5
37C7
  8
YODOROGO
 10
27817.604341291921
 20
1917.7713320852649
 30
0.0
 11
27841.604341291921
 21
1883.6547582841361
 31
0.0
1001
AUTOCAD_POSTSCRIPT_FIGURE
1002
{
1000
PSFILL
1000
Grayscale
1000
Grayscale
1070
   100
1002
}
  0
LINE
  5
37C8
  8
YODOROGO
 10
27817.604341291921
 20
1939.749496429288
 30
0.0
 11
27817.604341291921
 21
1917.7713320852649
 31
0.0
1001
AUTOCAD_POSTSCRIPT_FIGURE
1002
{
1000
PSFILL
1000
Grayscale
1000
Grayscale
1070
   100
1002
}
  0
LINE
  5
37C9
  8
YODOROGO
 10
27889.604341291921
 20
1939.749496429288
 30
0.0
 11
27817.604341291921
 21
1939.749496429288
 31
0.0
1001
AUTOCAD_POSTSCRIPT_FIGURE
1002
{
1000
PSFILL
1000
Grayscale
1000
Grayscale
1070
   100
1002
}
  0
LINE
  5
37CA
  8
YODOROGO
 10
27889.604341291921
 20
1900.5683489363
 30
0.0
 11
27889.604341291921
 21
1939.749496429288
 31
0.0
1001
AUTOCAD_POSTSCRIPT_FIGURE
1002
{
1000
PSFILL
1000
Grayscale
1000
Grayscale
1070
   100
1002
}
  0
LINE
  5
37CB
  8
YODOROGO
 10
27857.604341291921
 20
1900.5683489363
 30
0.0
 11
27889.604341291921
 21
1900.5683489363
 31
0.0
1001
AUTOCAD_POSTSCRIPT_FIGURE
1002
{
1000
PSFILL
1000
Grayscale
1000
Grayscale
1070
   100
1002
}
  0
LINE
  5
37CC
  8
YODOROGO
 10
27857.604341291921
 20
1884.568348936298
 30
0.0
 11
27857.604341291921
 21
1900.5683489363
 31
0.0
1001
AUTOCAD_POSTSCRIPT_FIGURE
1002
{
1000
PSFILL
1000
Grayscale
1000
Grayscale
1070
   100
1002
}
  0
LINE
  5
37CD
  8
YODOROGO
 10
27889.604341291921
 20
1884.568348936298
 30
0.0
 11
27857.604341291921
 21
1884.568348936298
 31
0.0
1001
AUTOCAD_POSTSCRIPT_FIGURE
1002
{
1000
PSFILL
1000
Grayscale
1000
Grayscale
1070
   100
1002
}
  0
LINE
  5
37CE
  8
YODOROGO
 10
27889.604341291921
 20
1879.6191779644371
 30
0.0
 11
27889.604341291921
 21
1884.568348936298
 31
0.0
1001
AUTOCAD_POSTSCRIPT_FIGURE
1002
{
1000
PSFILL
1000
Grayscale
1000
Grayscale
1070
   100
1002
}
  0
LINE
  5
37CF
  8
YODOROGO
 10
27849.604341291921
 20
1812.974981161417
 30
0.0
 11
27889.604341291921
 21
1879.6191779644371
 31
0.0
1001
AUTOCAD_POSTSCRIPT_FIGURE
1002
{
1000
PSFILL
1000
Grayscale
1000
Grayscale
1070
   100
1002
}
  0
LINE
  5
37D0
  8
YODOROGO
 10
27849.604341291921
 20
1796.9749811614161
 30
0.0
 11
27849.604341291921
 21
1812.974981161417
 31
0.0
1001
AUTOCAD_POSTSCRIPT_FIGURE
1002
{
1000
PSFILL
1000
Grayscale
1000
Grayscale
1070
   100
1002
}
  0
LINE
  5
37D1
  8
YODOROGO
 10
27889.604341291921
 20
1847.6191779644359
 30
0.0
 11
27849.604341291921
 21
1796.9749811614161
 31
0.0
1001
AUTOCAD_POSTSCRIPT_FIGURE
1002
{
1000
PSFILL
1000
Grayscale
1000
Grayscale
1070
   100
1002
}
  0
LINE
  5
37D2
  8
YODOROGO
 10
27889.604341291921
 20
1747.749496429286
 30
0.0
 11
27889.604341291921
 21
1847.6191779644359
 31
0.0
1001
AUTOCAD_POSTSCRIPT_FIGURE
1002
{
1000
PSFILL
1000
Grayscale
1000
Grayscale
1070
   100
1002
}
  0
LINE
  5
37D3
  8
YODOROGO
 10
27905.604341291921
 20
1747.749496429286
 30
0.0
 11
27889.604341291921
 21
1747.749496429286
 31
0.0
1001
AUTOCAD_POSTSCRIPT_FIGURE
1002
{
1000
PSFILL
1000
Grayscale
1000
Grayscale
1070
   100
1002
}
  0
LINE
  5
37D4
  8
YODOROGO
 10
27905.604341291921
 20
1849.409012158806
 30
0.0
 11
27905.604341291921
 21
1747.749496429286
 31
0.0
1001
AUTOCAD_POSTSCRIPT_FIGURE
1002
{
1000
PSFILL
1000
Grayscale
1000
Grayscale
1070
   100
1002
}
  0
LINE
  5
37D5
  8
YODOROGO
 10
27937.604341291921
 20
1796.9749811614161
 30
0.0
 11
27905.604341291921
 21
1849.409012158806
 31
0.0
1001
AUTOCAD_POSTSCRIPT_FIGURE
1002
{
1000
PSFILL
1000
Grayscale
1000
Grayscale
1070
   100
1002
}
  0
LINE
  5
37D6
  8
YODOROGO
 10
27937.604341291921
 20
1812.974981161417
 30
0.0
 11
27937.604341291921
 21
1796.9749811614161
 31
0.0
1001
AUTOCAD_POSTSCRIPT_FIGURE
1002
{
1000
PSFILL
1000
Grayscale
1000
Grayscale
1070
   100
1002
}
  0
LINE
  5
37D7
  8
YODOROGO
 10
27905.604341291921
 20
1881.4090121588081
 30
0.0
 11
27937.604341291921
 21
1812.974981161417
 31
0.0
1001
AUTOCAD_POSTSCRIPT_FIGURE
1002
{
1000
PSFILL
1000
Grayscale
1000
Grayscale
1070
   100
1002
}
  0
LINE
  5
37D8
  8
YODOROGO
 10
27905.604341291921
 20
1884.5683489363
 30
0.0
 11
27905.604341291921
 21
1881.4090121588081
 31
0.0
1001
AUTOCAD_POSTSCRIPT_FIGURE
1002
{
1000
PSFILL
1000
Grayscale
1000
Grayscale
1070
   100
1002
}
  0
LINE
  5
37D9
  8
YODOROGO
 10
27937.604341291921
 20
1884.568348936298
 30
0.0
 11
27905.604341291921
 21
1884.5683489363
 31
0.0
1001
AUTOCAD_POSTSCRIPT_FIGURE
1002
{
1000
PSFILL
1000
Grayscale
1000
Grayscale
1070
   100
1002
}
  0
LINE
  5
37DA
  8
YODOROGO
 10
27937.604341291921
 20
1900.5683489363
 30
0.0
 11
27937.604341291921
 21
1884.568348936298
 31
0.0
1001
AUTOCAD_POSTSCRIPT_FIGURE
1002
{
1000
PSFILL
1000
Grayscale
1000
Grayscale
1070
   100
1002
}
  0
LINE
  5
37DB
  8
YODOROGO
 10
27905.604341291921
 20
1900.5683489363
 30
0.0
 11
27937.604341291921
 21
1900.5683489363
 31
0.0
1001
AUTOCAD_POSTSCRIPT_FIGURE
1002
{
1000
PSFILL
1000
Grayscale
1000
Grayscale
1070
   100
1002
}
  0
LINE
  5
37DC
  8
YODOROGO
 10
27905.604341291921
 20
1939.749496429288
 30
0.0
 11
27905.604341291921
 21
1900.5683489363
 31
0.0
1001
AUTOCAD_POSTSCRIPT_FIGURE
1002
{
1000
PSFILL
1000
Grayscale
1000
Grayscale
1070
   100
1002
}
  0
LINE
  5
37DD
  8
YODOROGO
 10
27937.604341291921
 20
1939.749496429288
 30
0.0
 11
27905.604341291921
 21
1939.749496429288
 31
0.0
1001
AUTOCAD_POSTSCRIPT_FIGURE
1002
{
1000
PSFILL
1000
Grayscale
1000
Grayscale
1070
   100
1002
}
  0
LINE
  5
37DE
  8
YODOROGO
 10
27937.604341291921
 20
1955.7494964292871
 30
0.0
 11
27937.604341291921
 21
1939.749496429288
 31
0.0
1001
AUTOCAD_POSTSCRIPT_FIGURE
1002
{
1000
PSFILL
1000
Grayscale
1000
Grayscale
1070
   100
1002
}
  0
LINE
  5
37DF
  8
YODOROGO
 10
27905.604341291921
 20
1955.7494964292871
 30
0.0
 11
27937.604341291921
 21
1955.7494964292871
 31
0.0
1001
AUTOCAD_POSTSCRIPT_FIGURE
1002
{
1000
PSFILL
1000
Grayscale
1000
Grayscale
1070
   100
1002
}
  0
LINE
  5
37E0
  8
YODOROGO
 10
27905.604341291921
 20
1979.749496429288
 30
0.0
 11
27905.604341291921
 21
1955.7494964292871
 31
0.0
1001
AUTOCAD_POSTSCRIPT_FIGURE
1002
{
1000
PSFILL
1000
Grayscale
1000
Grayscale
1070
   100
1002
}
  0
LINE
  5
37E1
  8
YODOROGO
 10
27889.604341291921
 20
1979.749496429288
 30
0.0
 11
27905.604341291921
 21
1979.749496429288
 31
0.0
1001
AUTOCAD_POSTSCRIPT_FIGURE
1002
{
1000
PSFILL
1000
Grayscale
1000
Grayscale
1070
   100
1002
}
  0
LINE
  5
37E2
  8
YODOROGO
 10
27889.604341291921
 20
1955.7494964292871
 30
0.0
 11
27889.604341291921
 21
1979.749496429288
 31
0.0
1001
AUTOCAD_POSTSCRIPT_FIGURE
1002
{
1000
PSFILL
1000
Grayscale
1000
Grayscale
1070
   100
1002
}
  0
LINE
  5
37E3
  8
YODOROGO
 10
27865.604341291921
 20
1955.7494964292871
 30
0.0
 11
27889.604341291921
 21
1955.7494964292871
 31
0.0
1001
AUTOCAD_POSTSCRIPT_FIGURE
1002
{
1000
PSFILL
1000
Grayscale
1000
Grayscale
1070
   100
1002
}
  0
LINE
  5
37E4
  8
YODOROGO
 10
27865.604341291921
 20
1979.749496429288
 30
0.0
 11
27865.604341291921
 21
1955.7494964292871
 31
0.0
1001
AUTOCAD_POSTSCRIPT_FIGURE
1002
{
1000
PSFILL
1000
Grayscale
1000
Grayscale
1070
   100
1002
}
  0
LINE
  5
37E5
  8
YODOROGO
 10
27849.604341291921
 20
1979.749496429288
 30
0.0
 11
27865.604341291921
 21
1979.749496429288
 31
0.0
1001
AUTOCAD_POSTSCRIPT_FIGURE
1002
{
1000
PSFILL
1000
Grayscale
1000
Grayscale
1070
   100
1002
}
  0
LINE
  5
37E6
  8
YODOROGO
 10
27849.604341291921
 20
1955.7494964292871
 30
0.0
 11
27849.604341291921
 21
1979.749496429288
 31
0.0
1001
AUTOCAD_POSTSCRIPT_FIGURE
1002
{
1000
PSFILL
1000
Grayscale
1000
Grayscale
1070
   100
1002
}
  0
LINE
  5
37E7
  8
YODOROGO
 10
27817.604341291921
 20
1955.7494964292871
 30
0.0
 11
27849.604341291921
 21
1955.7494964292871
 31
0.0
1001
AUTOCAD_POSTSCRIPT_FIGURE
1002
{
1000
PSFILL
1000
Grayscale
1000
Grayscale
1070
   100
1002
}
  0
LINE
  5
37E8
  8
YODOROGO
 10
27817.604341291921
 20
1979.749496429288
 30
0.0
 11
27817.604341291921
 21
1955.7494964292871
 31
0.0
1001
AUTOCAD_POSTSCRIPT_FIGURE
1002
{
1000
PSFILL
1000
Grayscale
1000
Grayscale
1070
   100
1002
}
  0
LINE
  5
37E9
  8
YODOROGO
 10
27801.604341291921
 20
1979.749496429288
 30
0.0
 11
27817.604341291921
 21
1979.749496429288
 31
0.0
1001
AUTOCAD_POSTSCRIPT_FIGURE
1002
{
1000
PSFILL
1000
Grayscale
1000
Grayscale
1070
   100
1002
}
  0
LINE
  5
37EA
  8
YODOROGO
 10
27801.604341291921
 20
1955.7494964292871
 30
0.0
 11
27801.604341291921
 21
1979.749496429288
 31
0.0
1001
AUTOCAD_POSTSCRIPT_FIGURE
1002
{
1000
PSFILL
1000
Grayscale
1000
Grayscale
1070
   100
1002
}
  0
LINE
  5
37EB
  8
YODOROGO
 10
27777.604341291921
 20
1955.7494964292871
 30
0.0
 11
27801.604341291921
 21
1955.7494964292871
 31
0.0
1001
AUTOCAD_POSTSCRIPT_FIGURE
1002
{
1000
PSFILL
1000
Grayscale
1000
Grayscale
1070
   100
1002
}
  0
LINE
  5
37EC
  8
YODOROGO
 10
27777.604341291921
 20
1939.749496429288
 30
0.0
 11
27777.604341291921
 21
1955.7494964292871
 31
0.0
1001
AUTOCAD_POSTSCRIPT_FIGURE
1002
{
1000
PSFILL
1000
Grayscale
1000
Grayscale
1070
   100
1002
}
  0
LINE
  5
37ED
  8
YODOROGO
 10
27801.604341291921
 20
1939.749496429288
 30
0.0
 11
27777.604341291921
 21
1939.749496429288
 31
0.0
1001
AUTOCAD_POSTSCRIPT_FIGURE
1002
{
1000
PSFILL
1000
Grayscale
1000
Grayscale
1070
   100
1002
}
  0
LINE
  5
37EE
  8
YODOROGO
 10
27801.604341291921
 20
1914.7865807937051
 30
0.0
 11
27801.604341291921
 21
1939.749496429288
 31
0.0
1001
AUTOCAD_POSTSCRIPT_FIGURE
1002
{
1000
PSFILL
1000
Grayscale
1000
Grayscale
1070
   100
1002
}
  0
LINE
  5
37EF
  8
YODOROGO
 10
27777.604341291921
 20
1859.776747951671
 30
0.0
 11
27801.604341291921
 21
1914.7865807937051
 31
0.0
1001
AUTOCAD_POSTSCRIPT_FIGURE
1002
{
1000
PSFILL
1000
Grayscale
1000
Grayscale
1070
   100
1002
}
  0
LINE
  5
37F0
  8
YODOROGO
 10
27777.604341291921
 20
1843.776747951672
 30
0.0
 11
27777.604341291921
 21
1859.776747951671
 31
0.0
1001
AUTOCAD_POSTSCRIPT_FIGURE
1002
{
1000
PSFILL
1000
Grayscale
1000
Grayscale
1070
   100
1002
}
  0
LINE
  5
37F1
  8
YODOROGO
 10
28257.604341291921
 20
1867.7494964292871
 30
0.0
 11
28401.60434129191
 21
1824.877625640306
 31
0.0
1001
AUTOCAD_POSTSCRIPT_FIGURE
1002
{
1000
PSFILL
1000
Grayscale
1000
Grayscale
1070
   100
1002
}
  0
LINE
  5
37F2
  8
YODOROGO
 10
28401.60434129191
 20
1752.877625640306
 30
0.0
 11
28257.604341291921
 21
1795.7494964292871
 31
0.0
1001
AUTOCAD_POSTSCRIPT_FIGURE
1002
{
1000
PSFILL
1000
Grayscale
1000
Grayscale
1070
   100
1002
}
  0
LINE
  5
37F3
  8
YODOROGO
 10
28401.60434129191
 20
1984.877625640306
 30
0.0
 11
28257.604341291921
 21
2027.749496429288
 31
0.0
1001
AUTOCAD_POSTSCRIPT_FIGURE
1002
{
1000
PSFILL
1000
Grayscale
1000
Grayscale
1070
   100
1002
}
  0
LINE
  5
37F4
  8
YODOROGO
 10
28257.604341291921
 20
1959.749496429288
 30
0.0
 11
28401.60434129191
 21
1916.8776256403071
 31
0.0
1001
AUTOCAD_POSTSCRIPT_FIGURE
1002
{
1000
PSFILL
1000
Grayscale
1000
Grayscale
1070
   100
1002
}
  0
LINE
  5
37F5
  8
YODOROGO
 10
28257.604341291921
 20
1795.7494964292871
 30
0.0
 11
28257.604341291921
 21
1867.7494964292871
 31
0.0
1001
AUTOCAD_POSTSCRIPT_FIGURE
1002
{
1000
PSFILL
1000
Grayscale
1000
Grayscale
1070
   100
1002
}
  0
LINE
  5
37F6
  8
YODOROGO
 10
28257.604341291921
 20
2027.749496429288
 30
0.0
 11
28257.604341291921
 21
1959.749496429288
 31
0.0
1001
AUTOCAD_POSTSCRIPT_FIGURE
1002
{
1000
PSFILL
1000
Grayscale
1000
Grayscale
1070
   100
1002
}
  0
LINE
  5
37F7
  8
YODOROGO
 10
28080.236320206739
 20
1939.749496429288
 30
0.0
 11
28129.60434129191
 21
1747.749496429286
 31
0.0
1001
AUTOCAD_POSTSCRIPT_FIGURE
1002
{
1000
PSFILL
1000
Grayscale
1000
Grayscale
1070
   100
1002
}
  0
LINE
  5
37F8
  8
YODOROGO
 10
27977.604341291921
 20
1939.749496429288
 30
0.0
 11
28080.236320206739
 21
1939.749496429288
 31
0.0
1001
AUTOCAD_POSTSCRIPT_FIGURE
1002
{
1000
PSFILL
1000
Grayscale
1000
Grayscale
1070
   100
1002
}
  0
LINE
  5
37F9
  8
YODOROGO
 10
27977.604341291921
 20
1955.7494964292871
 30
0.0
 11
27977.604341291921
 21
1939.749496429288
 31
0.0
1001
AUTOCAD_POSTSCRIPT_FIGURE
1002
{
1000
PSFILL
1000
Grayscale
1000
Grayscale
1070
   100
1002
}
  0
LINE
  5
37FA
  8
YODOROGO
 10
28076.60687851991
 20
1955.7494964292871
 30
0.0
 11
27977.604341291921
 21
1955.7494964292871
 31
0.0
1001
AUTOCAD_POSTSCRIPT_FIGURE
1002
{
1000
PSFILL
1000
Grayscale
1000
Grayscale
1070
   100
1002
}
  0
LINE
  5
37FB
  8
YODOROGO
 10
28071.162715989711
 20
1979.749496429288
 30
0.0
 11
28076.60687851991
 21
1955.7494964292871
 31
0.0
1001
AUTOCAD_POSTSCRIPT_FIGURE
1002
{
1000
PSFILL
1000
Grayscale
1000
Grayscale
1070
   100
1002
}
  0
LINE
  5
37FC
  8
YODOROGO
 10
28091.162715989711
 20
1979.749496429288
 30
0.0
 11
28071.162715989711
 21
1979.749496429288
 31
0.0
1001
AUTOCAD_POSTSCRIPT_FIGURE
1002
{
1000
PSFILL
1000
Grayscale
1000
Grayscale
1070
   100
1002
}
  0
LINE
  5
37FD
  8
YODOROGO
 10
28095.806878519939
 20
1955.7494964292871
 30
0.0
 11
28091.162715989711
 21
1979.749496429288
 31
0.0
1001
AUTOCAD_POSTSCRIPT_FIGURE
1002
{
1000
PSFILL
1000
Grayscale
1000
Grayscale
1070
   100
1002
}
  0
LINE
  5
37FE
  8
YODOROGO
 10
28121.604341291921
 20
1955.7494964292871
 30
0.0
 11
28095.806878519939
 21
1955.7494964292871
 31
0.0
1001
AUTOCAD_POSTSCRIPT_FIGURE
1002
{
1000
PSFILL
1000
Grayscale
1000
Grayscale
1070
   100
1002
}
  0
LINE
  5
37FF
  8
YODOROGO
 10
28121.604341291921
 20
1979.749496429288
 30
0.0
 11
28121.604341291921
 21
1955.7494964292871
 31
0.0
1001
AUTOCAD_POSTSCRIPT_FIGURE
1002
{
1000
PSFILL
1000
Grayscale
1000
Grayscale
1070
   100
1002
}
  0
LINE
  5
3800
  8
YODOROGO
 10
28137.604341291921
 20
1979.749496429288
 30
0.0
 11
28121.604341291921
 21
1979.749496429288
 31
0.0
1001
AUTOCAD_POSTSCRIPT_FIGURE
1002
{
1000
PSFILL
1000
Grayscale
1000
Grayscale
1070
   100
1002
}
  0
LINE
  5
3801
  8
YODOROGO
 10
28137.604341291921
 20
1955.7494964292871
 30
0.0
 11
28137.604341291921
 21
1979.749496429288
 31
0.0
1001
AUTOCAD_POSTSCRIPT_FIGURE
1002
{
1000
PSFILL
1000
Grayscale
1000
Grayscale
1070
   100
1002
}
  0
LINE
  5
3802
  8
YODOROGO
 10
28137.604341291921
 20
1939.749496429288
 30
0.0
 11
28137.604341291921
 21
1955.7494964292871
 31
0.0
1001
AUTOCAD_POSTSCRIPT_FIGURE
1002
{
1000
PSFILL
1000
Grayscale
1000
Grayscale
1070
   100
1002
}
  0
LINE
  5
3803
  8
YODOROGO
 10
28098.902986873411
 20
1939.749496429288
 30
0.0
 11
28137.604341291921
 21
1939.749496429288
 31
0.0
1001
AUTOCAD_POSTSCRIPT_FIGURE
1002
{
1000
PSFILL
1000
Grayscale
1000
Grayscale
1070
   100
1002
}
  0
LINE
  5
3804
  8
YODOROGO
 10
28137.604341291921
 20
1747.749496429286
 30
0.0
 11
28098.902986873411
 21
1939.749496429288
 31
0.0
1001
AUTOCAD_POSTSCRIPT_FIGURE
1002
{
1000
PSFILL
1000
Grayscale
1000
Grayscale
1070
   100
1002
}
  0
LINE
  5
3805
  8
YODOROGO
 10
28129.60434129191
 20
1747.749496429286
 30
0.0
 11
28137.604341291921
 21
1747.749496429286
 31
0.0
1001
AUTOCAD_POSTSCRIPT_FIGURE
1002
{
1000
PSFILL
1000
Grayscale
1000
Grayscale
1070
   100
1002
}
  0
LINE
  5
3806
  8
YODOROGO
 10
28078.06921993379
 20
1775.7407762987939
 30
0.0
 11
27977.604341291921
 21
1747.749496429286
 31
0.0
  0
LINE
  5
3807
  8
YODOROGO
 10
28078.06921993379
 20
1798.6689795290731
 30
0.0
 11
28078.06921993379
 21
1775.7407762987939
 31
0.0
  0
LINE
  5
3808
  8
YODOROGO
 10
28033.83678061287
 20
1786.816933133767
 30
0.0
 11
28078.06921993379
 21
1798.6689795290731
 31
0.0
  0
LINE
  5
3809
  8
YODOROGO
 10
28033.83678061287
 20
1872.5683489362989
 30
0.0
 11
28033.83678061287
 21
1786.816933133767
 31
0.0
  0
LINE
  5
380A
  8
YODOROGO
 10
28078.06921993379
 20
1872.5683489362989
 30
0.0
 11
28033.83678061287
 21
1872.5683489362989
 31
0.0
  0
LINE
  5
380B
  8
YODOROGO
 10
28078.06921993379
 20
1892.568348936298
 30
0.0
 11
28078.06921993379
 21
1872.5683489362989
 31
0.0
  0
LINE
  5
380C
  8
YODOROGO
 10
27977.604341291921
 20
1892.568348936298
 30
0.0
 11
28078.06921993379
 21
1892.568348936298
 31
0.0
  0
LINE
  5
380D
  8
YODOROGO
 10
27977.604341291921
 20
1872.5683489362989
 30
0.0
 11
27977.604341291921
 21
1892.568348936298
 31
0.0
  0
LINE
  5
380E
  8
YODOROGO
 10
28021.836780612852
 20
1872.5683489362989
 30
0.0
 11
27977.604341291921
 21
1872.5683489362989
 31
0.0
  0
LINE
  5
380F
  8
YODOROGO
 10
28021.836780612852
 20
1784.673339594317
 30
0.0
 11
28021.836780612852
 21
1872.5683489362989
 31
0.0
  0
LINE
  5
3810
  8
YODOROGO
 10
27977.604341291921
 20
1771.749496429286
 30
0.0
 11
28021.836780612852
 21
1784.673339594317
 31
0.0
  0
LINE
  5
3811
  8
YODOROGO
 10
27977.604341291921
 20
1747.749496429286
 30
0.0
 11
27977.604341291921
 21
1771.749496429286
 31
0.0
  0
LINE
  5
3812
  8
YODOROGO
 10
28001.604341291921
 20
1707.749496429288
 30
0.0
 11
28001.604341291921
 21
1683.7494964292871
 31
0.0
  0
LINE
  5
3813
  8
YODOROGO
 10
28017.604341291921
 20
1707.749496429288
 30
0.0
 11
28001.604341291921
 21
1707.749496429288
 31
0.0
  0
LINE
  5
3814
  8
YODOROGO
 10
28017.604341291921
 20
1683.7494964292871
 30
0.0
 11
28017.604341291921
 21
1707.749496429288
 31
0.0
  0
LINE
  5
3815
  8
YODOROGO
 10
28040.913204016892
 20
1683.7494964292871
 30
0.0
 11
28017.604341291921
 21
1683.7494964292871
 31
0.0
  0
LINE
  5
3816
  8
YODOROGO
 10
28001.604341291921
 20
1683.7494964292871
 30
0.0
 11
27977.604341291921
 21
1683.7494964292871
 31
0.0
  0
LINE
  5
3817
  8
YODOROGO
 10
28082.135520230921
 20
1707.749496429288
 30
0.0
 11
28098.135520230931
 21
1707.749496429288
 31
0.0
1001
AUTOCAD_POSTSCRIPT_FIGURE
1002
{
1000
PSFILL
1000
Grayscale
1000
Grayscale
1070
   100
1002
}
  0
LINE
  5
3818
  8
YODOROGO
 10
28401.60434129191
 20
1824.877625640306
 30
0.0
 11
28401.60434129191
 21
1752.877625640306
 31
0.0
1001
AUTOCAD_POSTSCRIPT_FIGURE
1002
{
1000
PSFILL
1000
Grayscale
1000
Grayscale
1070
   100
1002
}
  0
LINE
  5
3819
  8
YODOROGO
 10
28401.60434129191
 20
1916.8776256403071
 30
0.0
 11
28401.60434129191
 21
1984.877625640306
 31
0.0
1001
AUTOCAD_POSTSCRIPT_FIGURE
1002
{
1000
PSFILL
1000
Grayscale
1000
Grayscale
1070
   100
1002
}
  0
LINE
  5
381A
  8
YODOROGO
 10
28433.60434129191
 20
1819.7494964292871
 30
0.0
 11
28433.60434129191
 21
1747.74949642929
 31
0.0
  0
LINE
  5
381B
  8
YODOROGO
 10
28497.60434129191
 20
1707.749496429288
 30
0.0
 11
28433.60434129191
 21
1707.749496429288
 31
0.0
  0
LINE
  5
381C
  8
YODOROGO
 10
28433.60434129191
 20
1747.74949642929
 30
0.0
 11
28585.604341291921
 21
1747.74949642929
 31
0.0
  0
LINE
  5
381D
  8
YODOROGO
 10
28497.60434129191
 20
1867.7494964292871
 30
0.0
 11
28433.60434129191
 21
1867.7494964292871
 31
0.0
  0
LINE
  5
381E
  8
YODOROGO
 10
28497.60434129191
 20
1923.7494964292871
 30
0.0
 11
28497.60434129191
 21
1867.7494964292871
 31
0.0
  0
LINE
  5
381F
  8
YODOROGO
 10
28585.604341291921
 20
1987.7494964292871
 30
0.0
 11
28585.604341291921
 21
2027.749496429288
 31
0.0
  0
LINE
  5
3820
  8
YODOROGO
 10
28433.60434129191
 20
1987.7494964292871
 30
0.0
 11
28585.604341291921
 21
1987.7494964292871
 31
0.0
  0
LINE
  5
3821
  8
YODOROGO
 10
28433.60434129191
 20
1867.7494964292871
 30
0.0
 11
28433.60434129191
 21
1987.7494964292871
 31
0.0
  0
LINE
  5
3822
  8
YODOROGO
 10
29001.60434129191
 20
2027.749496429288
 30
0.0
 11
29001.60434129191
 21
1619.749496429288
 31
0.0
  0
LINE
  5
3823
  8
YODOROGO
 10
29073.604341291921
 20
1579.749496429288
 30
0.0
 11
29073.604341291921
 21
2027.749496429288
 31
0.0
  0
LINE
  5
3824
  8
YODOROGO
 10
29261.604341291921
 20
1491.749496429286
 30
0.0
 11
29261.604341291921
 21
2007.749496429288
 31
0.0
  0
LINE
  5
3825
  8
YODOROGO
 10
29197.604341291921
 20
2007.749496429288
 30
0.0
 11
29197.604341291921
 21
1491.749496429286
 31
0.0
  0
LINE
  5
3826
  8
YODOROGO
 10
29385.604341291921
 20
2027.749496429288
 30
0.0
 11
29385.604341291921
 21
1427.749496429288
 31
0.0
  0
LINE
  5
3827
  8
YODOROGO
 10
29457.604341291921
 20
1427.749496429288
 30
0.0
 11
29457.604341291921
 21
2027.749496429288
 31
0.0
  0
LINE
  5
3828
  8
YODOROGO
 10
28657.604341291921
 20
1667.749496429288
 30
0.0
 11
28657.604341291921
 21
1747.74949642929
 31
0.0
  0
LINE
  5
3829
  8
YODOROGO
 10
29885.604341291921
 20
1707.749496429288
 30
0.0
 11
29885.604341291921
 21
1667.749496429288
 31
0.0
  0
LINE
  5
382A
  8
YODOROGO
 10
29885.604341291921
 20
1707.749496429288
 30
0.0
 11
29885.604341291921
 21
1667.749496429288
 31
0.0
  0
ARC
  5
382B
  8
YODOROGO
 10
28906.911576186842
 20
1618.217864442272
 30
0.0
 40
94.705151178741644
 50
274.05244162907098
 51
0.9266642149310712
  0
ARC
  5
382C
  8
YODOROGO
 10
28909.186170719819
 20
1592.61072861044
 30
0.0
 40
164.92042356085511
 50
271.5351210653775
 51
355.52727750585052
  0
LINE
  5
382D
  8
YODOROGO
 10
28913.604341291921
 20
1523.7494964292871
 30
0.0
 11
28913.604341291921
 21
1427.749496429288
 31
0.0
  0
LINE
  5
382E
  8
YODOROGO
 10
28793.60434129191
 20
1667.749496429288
 30
0.0
 11
28657.604341291921
 21
1667.749496429288
 31
0.0
  0
LINE
  5
382F
  8
YODOROGO
 10
28793.60434129191
 20
1603.7494964292871
 30
0.0
 11
28793.60434129191
 21
1667.749496429288
 31
0.0
  0
LINE
  5
3830
  8
YODOROGO
 10
28657.604341291921
 20
1603.7494964292871
 30
0.0
 11
28793.60434129191
 21
1603.7494964292871
 31
0.0
  0
LINE
  5
3831
  8
YODOROGO
 10
28657.604341291921
 20
1523.7494964292871
 30
0.0
 11
28657.604341291921
 21
1603.7494964292871
 31
0.0
  0
LINE
  5
3832
  8
YODOROGO
 10
28793.60434129191
 20
1523.7494964292871
 30
0.0
 11
28657.604341291921
 21
1523.7494964292871
 31
0.0
  0
LINE
  5
3833
  8
YODOROGO
 10
28793.60434129191
 20
1427.749496429288
 30
0.0
 11
28793.60434129191
 21
1523.7494964292871
 31
0.0
  0
LINE
  5
3834
  8
YODOROGO
 10
29197.604341291921
 20
1491.749496429286
 30
0.0
 11
29261.604341291921
 21
1491.749496429286
 31
0.0
  0
LINE
  5
3835
  8
YODOROGO
 10
29385.604341291921
 20
1427.749496429288
 30
0.0
 11
29457.604341291921
 21
1427.749496429288
 31
0.0
  0
LINE
  5
3836
  8
YODOROGO
 10
29737.604341291921
 20
1528.4414521705639
 30
0.0
 11
29737.604341291921
 21
1427.749496429288
 31
0.0
  0
LINE
  5
3837
  8
YODOROGO
 10
29617.604341291921
 20
1427.749496429288
 30
0.0
 11
29737.604341291921
 21
1528.4414521705639
 31
0.0
  0
LINE
  5
3838
  8
YODOROGO
 10
29617.604341291921
 20
1547.749496429288
 30
0.0
 11
29617.604341291921
 21
1427.749496429288
 31
0.0
  0
LINE
  5
3839
  8
YODOROGO
 10
29712.94462869945
 20
1627.749496429288
 30
0.0
 11
29617.604341291921
 21
1547.749496429288
 31
0.0
  0
LINE
  5
383A
  8
YODOROGO
 10
29617.604341291921
 20
1627.749496429288
 30
0.0
 11
29712.94462869945
 21
1627.749496429288
 31
0.0
  0
LINE
  5
383B
  8
YODOROGO
 10
29617.604341291921
 20
1667.749496429288
 30
0.0
 11
29617.604341291921
 21
1627.749496429288
 31
0.0
  0
LINE
  5
383C
  8
YODOROGO
 10
29885.604341291921
 20
1667.749496429288
 30
0.0
 11
29617.604341291921
 21
1667.749496429288
 31
0.0
  0
LINE
  5
383D
  8
YODOROGO
 10
29917.604341291921
 20
1627.749496429288
 30
0.0
 11
29777.604341291921
 21
1627.749496429288
 31
0.0
  0
LINE
  5
383E
  8
YODOROGO
 10
29777.604341291921
 20
1562.0054374176559
 30
0.0
 11
29771.409872985321
 21
1556.807661346234
 31
0.0
  0
LINE
  5
383F
  8
YODOROGO
 10
29777.604341291921
 20
1627.749496429288
 30
0.0
 11
29777.604341291921
 21
1562.0054374176559
 31
0.0
  0
LINE
  5
3840
  8
YODOROGO
 10
29737.604341291921
 20
1528.4414521705639
 30
0.0
 11
29737.604341291921
 21
1427.749496429288
 31
0.0
  0
LINE
  5
3841
  8
YODOROGO
 10
29617.604341291921
 20
1427.749496429288
 30
0.0
 11
29737.604341291921
 21
1528.4414521705639
 31
0.0
  0
LINE
  5
3842
  8
YODOROGO
 10
29617.604341291921
 20
1547.749496429288
 30
0.0
 11
29617.604341291921
 21
1427.749496429288
 31
0.0
  0
LINE
  5
3843
  8
YODOROGO
 10
29712.94462869945
 20
1627.749496429288
 30
0.0
 11
29617.604341291921
 21
1547.749496429288
 31
0.0
  0
LINE
  5
3844
  8
YODOROGO
 10
29617.604341291921
 20
1627.749496429288
 30
0.0
 11
29712.94462869945
 21
1627.749496429288
 31
0.0
  0
LINE
  5
3845
  8
YODOROGO
 10
29617.604341291921
 20
1667.749496429288
 30
0.0
 11
29617.604341291921
 21
1627.749496429288
 31
0.0
  0
LINE
  5
3846
  8
YODOROGO
 10
29885.604341291921
 20
1667.749496429288
 30
0.0
 11
29617.604341291921
 21
1667.749496429288
 31
0.0
  0
LINE
  5
3847
  8
YODOROGO
 10
28793.60434129191
 20
1747.74949642929
 30
0.0
 11
28793.60434129191
 21
1819.7494964292871
 31
0.0
  0
LINE
  5
3848
  8
YODOROGO
 10
28657.604341291921
 20
1747.74949642929
 30
0.0
 11
28793.60434129191
 21
1747.74949642929
 31
0.0
  0
LINE
  5
3849
  8
YODOROGO
 10
28729.604341291921
 20
1867.7494964292871
 30
0.0
 11
28729.604341291921
 21
1923.7494964292871
 31
0.0
  0
LINE
  5
384A
  8
YODOROGO
 10
28793.60434129191
 20
1867.7494964292871
 30
0.0
 11
28729.604341291921
 21
1867.7494964292871
 31
0.0
  0
LINE
  5
384B
  8
YODOROGO
 10
28793.60434129191
 20
1947.749496429288
 30
0.0
 11
28793.60434129191
 21
1867.7494964292871
 31
0.0
  0
ARC
  5
384C
  8
YODOROGO
 10
28753.60434129191
 20
1947.749496429288
 30
0.0
 40
40.0
 50
0.0
 51
90.0
  0
LINE
  5
384D
  8
YODOROGO
 10
28657.604341291921
 20
1987.7494964292871
 30
0.0
 11
28753.60434129191
 21
1987.7494964292871
 31
0.0
  0
LINE
  5
384E
  8
YODOROGO
 10
28657.604341291921
 20
2027.749496429288
 30
0.0
 11
28657.604341291921
 21
1987.7494964292871
 31
0.0
  0
LINE
  5
384F
  8
YODOROGO
 10
29073.604341291921
 20
2027.749496429288
 30
0.0
 11
29001.60434129191
 21
2027.749496429288
 31
0.0
  0
LINE
  5
3850
  8
YODOROGO
 10
29261.604341291921
 20
2007.749496429288
 30
0.0
 11
29197.604341291921
 21
2007.749496429288
 31
0.0
  0
LINE
  5
3851
  8
YODOROGO
 10
29457.604341291921
 20
2027.749496429288
 30
0.0
 11
29385.604341291921
 21
2027.749496429288
 31
0.0
  0
LINE
  5
3852
  8
YODOROGO
 10
29673.604341291921
 20
1707.749496429288
 30
0.0
 11
29673.604341291921
 21
1771.7494964292871
 31
0.0
1001
AUTOCAD_POSTSCRIPT_FIGURE
1002
{
1000
PSFILL
1000
Grayscale
1000
Grayscale
1070
    25
1002
}
  0
LINE
  5
3853
  8
YODOROGO
 10
29617.604341291921
 20
1707.749496429288
 30
0.0
 11
29673.604341291921
 21
1707.749496429288
 31
0.0
1001
AUTOCAD_POSTSCRIPT_FIGURE
1002
{
1000
PSFILL
1000
Grayscale
1000
Grayscale
1070
    25
1002
}
  0
LINE
  5
3854
  8
YODOROGO
 10
29617.604341291921
 20
1819.7494964292871
 30
0.0
 11
29617.604341291921
 21
1707.749496429288
 31
0.0
1001
AUTOCAD_POSTSCRIPT_FIGURE
1002
{
1000
PSFILL
1000
Grayscale
1000
Grayscale
1070
    25
1002
}
  0
LINE
  5
3855
  8
YODOROGO
 10
29765.604341291921
 20
1819.7494964292871
 30
0.0
 11
29617.604341291921
 21
1819.7494964292871
 31
0.0
1001
AUTOCAD_POSTSCRIPT_FIGURE
1002
{
1000
PSFILL
1000
Grayscale
1000
Grayscale
1070
    25
1002
}
  0
LINE
  5
3856
  8
YODOROGO
 10
29765.604341291921
 20
1859.749496429288
 30
0.0
 11
29765.604341291921
 21
1819.7494964292871
 31
0.0
1001
AUTOCAD_POSTSCRIPT_FIGURE
1002
{
1000
PSFILL
1000
Grayscale
1000
Grayscale
1070
    25
1002
}
  0
LINE
  5
3857
  8
YODOROGO
 10
29617.604341291921
 20
1859.749496429288
 30
0.0
 11
29765.604341291921
 21
1859.749496429288
 31
0.0
1001
AUTOCAD_POSTSCRIPT_FIGURE
1002
{
1000
PSFILL
1000
Grayscale
1000
Grayscale
1070
    25
1002
}
  0
LINE
  5
3858
  8
YODOROGO
 10
29617.604341291921
 20
1907.7494964292871
 30
0.0
 11
29617.604341291921
 21
1859.749496429288
 31
0.0
1001
AUTOCAD_POSTSCRIPT_FIGURE
1002
{
1000
PSFILL
1000
Grayscale
1000
Grayscale
1070
    25
1002
}
  0
LINE
  5
3859
  8
YODOROGO
 10
29765.604341291921
 20
1907.7494964292871
 30
0.0
 11
29617.604341291921
 21
1907.7494964292871
 31
0.0
1001
AUTOCAD_POSTSCRIPT_FIGURE
1002
{
1000
PSFILL
1000
Grayscale
1000
Grayscale
1070
    25
1002
}
  0
LINE
  5
385A
  8
YODOROGO
 10
29765.604341291921
 20
1947.749496429288
 30
0.0
 11
29765.604341291921
 21
1907.7494964292871
 31
0.0
1001
AUTOCAD_POSTSCRIPT_FIGURE
1002
{
1000
PSFILL
1000
Grayscale
1000
Grayscale
1070
    25
1002
}
  0
LINE
  5
385B
  8
YODOROGO
 10
29617.604341291921
 20
1947.749496429288
 30
0.0
 11
29765.604341291921
 21
1947.749496429288
 31
0.0
1001
AUTOCAD_POSTSCRIPT_FIGURE
1002
{
1000
PSFILL
1000
Grayscale
1000
Grayscale
1070
    25
1002
}
  0
LINE
  5
385C
  8
YODOROGO
 10
29617.604341291921
 20
2027.749496429288
 30
0.0
 11
29617.604341291921
 21
1947.749496429288
 31
0.0
1001
AUTOCAD_POSTSCRIPT_FIGURE
1002
{
1000
PSFILL
1000
Grayscale
1000
Grayscale
1070
    25
1002
}
  0
LINE
  5
385D
  8
YODOROGO
 10
29665.604341291921
 20
2027.749496429288
 30
0.0
 11
29617.604341291921
 21
2027.749496429288
 31
0.0
1001
AUTOCAD_POSTSCRIPT_FIGURE
1002
{
1000
PSFILL
1000
Grayscale
1000
Grayscale
1070
    25
1002
}
  0
LINE
  5
385E
  8
YODOROGO
 10
29665.604341291921
 20
1995.7494964292871
 30
0.0
 11
29665.604341291921
 21
2027.749496429288
 31
0.0
1001
AUTOCAD_POSTSCRIPT_FIGURE
1002
{
1000
PSFILL
1000
Grayscale
1000
Grayscale
1070
    25
1002
}
  0
LINE
  5
385F
  8
YODOROGO
 10
29765.604341291921
 20
1995.7494964292871
 30
0.0
 11
29665.604341291921
 21
1995.7494964292871
 31
0.0
1001
AUTOCAD_POSTSCRIPT_FIGURE
1002
{
1000
PSFILL
1000
Grayscale
1000
Grayscale
1070
    25
1002
}
  0
LINE
  5
3860
  8
YODOROGO
 10
29765.604341291921
 20
2027.749496429288
 30
0.0
 11
29765.604341291921
 21
1995.7494964292871
 31
0.0
1001
AUTOCAD_POSTSCRIPT_FIGURE
1002
{
1000
PSFILL
1000
Grayscale
1000
Grayscale
1070
    25
1002
}
  0
LINE
  5
3861
  8
YODOROGO
 10
29829.604341291921
 20
2027.749496429288
 30
0.0
 11
29765.604341291921
 21
2027.749496429288
 31
0.0
1001
AUTOCAD_POSTSCRIPT_FIGURE
1002
{
1000
PSFILL
1000
Grayscale
1000
Grayscale
1070
    25
1002
}
  0
LINE
  5
3862
  8
YODOROGO
 10
29829.604341291921
 20
1995.7494964292871
 30
0.0
 11
29829.604341291921
 21
2027.749496429288
 31
0.0
1001
AUTOCAD_POSTSCRIPT_FIGURE
1002
{
1000
PSFILL
1000
Grayscale
1000
Grayscale
1070
    25
1002
}
  0
LINE
  5
3863
  8
YODOROGO
 10
29829.604341291921
 20
1907.7494964292871
 30
0.0
 11
29829.604341291921
 21
1947.749496429288
 31
0.0
1001
AUTOCAD_POSTSCRIPT_FIGURE
1002
{
1000
PSFILL
1000
Grayscale
1000
Grayscale
1070
    25
1002
}
  0
LINE
  5
3864
  8
YODOROGO
 10
29829.604341291921
 20
1819.7494964292871
 30
0.0
 11
29829.604341291921
 21
1859.749496429288
 31
0.0
1001
AUTOCAD_POSTSCRIPT_FIGURE
1002
{
1000
PSFILL
1000
Grayscale
1000
Grayscale
1070
    25
1002
}
  0
LINE
  5
3865
  8
YODOROGO
 10
29921.60434129191
 20
1771.7494964292871
 30
0.0
 11
29921.60434129191
 21
1707.749496429288
 31
0.0
1001
AUTOCAD_POSTSCRIPT_FIGURE
1002
{
1000
PSFILL
1000
Grayscale
1000
Grayscale
1070
    25
1002
}
  0
LINE
  5
3866
  8
YODOROGO
 10
29829.604341291921
 20
1771.7494964292871
 30
0.0
 11
29921.60434129191
 21
1771.7494964292871
 31
0.0
1001
AUTOCAD_POSTSCRIPT_FIGURE
1002
{
1000
PSFILL
1000
Grayscale
1000
Grayscale
1070
    25
1002
}
  0
LINE
  5
3867
  8
YODOROGO
 10
29829.604341291921
 20
1707.749496429288
 30
0.0
 11
29829.604341291921
 21
1771.7494964292871
 31
0.0
1001
AUTOCAD_POSTSCRIPT_FIGURE
1002
{
1000
PSFILL
1000
Grayscale
1000
Grayscale
1070
    25
1002
}
  0
LINE
  5
3868
  8
YODOROGO
 10
29765.604341291921
 20
1707.749496429288
 30
0.0
 11
29829.604341291921
 21
1707.749496429288
 31
0.0
1001
AUTOCAD_POSTSCRIPT_FIGURE
1002
{
1000
PSFILL
1000
Grayscale
1000
Grayscale
1070
    25
1002
}
  0
LINE
  5
3869
  8
YODOROGO
 10
29765.604341291921
 20
1771.7494964292871
 30
0.0
 11
29765.604341291921
 21
1707.749496429288
 31
0.0
1001
AUTOCAD_POSTSCRIPT_FIGURE
1002
{
1000
PSFILL
1000
Grayscale
1000
Grayscale
1070
    25
1002
}
  0
LINE
  5
386A
  8
YODOROGO
 10
29673.604341291921
 20
1771.7494964292871
 30
0.0
 11
29765.604341291921
 21
1771.7494964292871
 31
0.0
1001
AUTOCAD_POSTSCRIPT_FIGURE
1002
{
1000
PSFILL
1000
Grayscale
1000
Grayscale
1070
    25
1002
}
  0
ARC
  5
386B
  8
YODOROGO
 10
31059.517893357912
 20
1602.6807375155761
 30
0.0
 40
178.22128111072141
 50
281.02627495425338
 51
357.77113575573799
  0
LINE
  5
386C
  8
YODOROGO
 10
31413.604341291921
 20
1907.7494964292871
 30
0.0
 11
31165.604341291921
 21
1907.7494964292871
 31
0.0
  0
LINE
  5
386D
  8
YODOROGO
 10
31413.604341291921
 20
2027.749496429288
 30
0.0
 11
31165.604341291921
 21
2027.749496429288
 31
0.0
  0
LINE
  5
386E
  8
YODOROGO
 10
31165.604341291921
 20
1963.749496429286
 30
0.0
 11
31413.604341291921
 21
1963.749496429286
 31
0.0
  0
LINE
  5
386F
  8
YODOROGO
 10
30791.604341291921
 20
1563.7494964292871
 30
0.0
 11
30791.604341291921
 21
1755.7494964292871
 31
0.0
  0
LINE
  5
3870
  8
YODOROGO
 10
30763.604341291921
 20
1691.749496429288
 30
0.0
 11
30763.604341291921
 21
1563.7494964292871
 31
0.0
  0
LINE
  5
3871
  8
YODOROGO
 10
30723.604341291921
 20
1491.749496429288
 30
0.0
 11
30723.604341291921
 21
1691.749496429288
 31
0.0
  0
LINE
  5
3872
  8
YODOROGO
 10
30899.604341291932
 20
1691.749496429288
 30
0.0
 11
30899.604341291932
 21
1491.749496429288
 31
0.0
  0
LINE
  5
3873
  8
YODOROGO
 10
30859.604341291932
 20
1563.7494964292871
 30
0.0
 11
30859.604341291932
 21
1691.749496429288
 31
0.0
  0
LINE
  5
3874
  8
YODOROGO
 10
30831.604341291921
 20
1755.7494964292871
 30
0.0
 11
30831.604341291921
 21
1563.7494964292871
 31
0.0
  0
LINE
  5
3875
  8
YODOROGO
 10
30973.604341291921
 20
2027.749496429288
 30
0.0
 11
30973.604341291921
 21
1467.749496429288
 31
0.0
  0
LINE
  5
3876
  8
YODOROGO
 10
30645.604341291921
 20
1427.749496429288
 30
0.0
 11
30645.604341291921
 21
2027.749496429288
 31
0.0
  0
LINE
  5
3877
  8
YODOROGO
 10
30697.604341291932
 20
1963.749496429286
 30
0.0
 11
30697.604341291932
 21
1427.749496429288
 31
0.0
  0
LINE
  5
3878
  8
YODOROGO
 10
30925.604341291921
 20
1547.749496429288
 30
0.0
 11
30925.604341291921
 21
1963.749496429286
 31
0.0
  0
LINE
  5
3879
  8
YODOROGO
 10
30381.604341291932
 20
1627.749496429288
 30
0.0
 11
30381.604341291932
 21
1679.749496429288
 31
0.0
  0
LINE
  5
387A
  8
YODOROGO
 10
30617.604341291921
 20
1679.749496429288
 30
0.0
 11
30617.604341291921
 21
1627.749496429288
 31
0.0
  0
LINE
  5
387B
  8
YODOROGO
 10
31165.604341291921
 20
1907.7494964292871
 30
0.0
 11
31165.604341291921
 21
1635.7494964292871
 31
0.0
  0
LINE
  5
387C
  8
YODOROGO
 10
29949.60434129191
 20
1667.749496429288
 30
0.0
 11
29949.60434129191
 21
1707.749496429288
 31
0.0
  0
LINE
  5
387D
  8
YODOROGO
 10
29949.60434129191
 20
1667.749496429288
 30
0.0
 11
29949.60434129191
 21
1707.749496429288
 31
0.0
  0
ARC
  5
387E
  8
YODOROGO
 10
30537.604341291921
 20
1507.749496429288
 30
0.0
 40
80.0
 50
270.0
 51
0.0
  0
LINE
  5
387F
  8
YODOROGO
 10
30569.604341291921
 20
1599.7494964292871
 30
0.0
 11
30617.604341291921
 21
1599.7494964292871
 31
0.0
  0
LINE
  5
3880
  8
YODOROGO
 10
30617.604341291921
 20
1627.749496429288
 30
0.0
 11
30529.604341291939
 21
1627.749496429288
 31
0.0
  0
LINE
  5
3881
  8
YODOROGO
 10
30217.604341291921
 20
1667.749496429288
 30
0.0
 11
29949.60434129191
 21
1667.749496429288
 31
0.0
  0
LINE
  5
3882
  8
YODOROGO
 10
30217.604341291921
 20
1627.749496429288
 30
0.0
 11
30217.604341291921
 21
1667.749496429288
 31
0.0
  0
LINE
  5
3883
  8
YODOROGO
 10
30017.604341291921
 20
1627.749496429288
 30
0.0
 11
30217.604341291921
 21
1627.749496429288
 31
0.0
  0
ARC
  5
3884
  8
YODOROGO
 10
30230.05882870136
 20
1868.885714952901
 30
0.0
 40
321.37763628522822
 50
228.6181454618993
 51
245.660289248906
  0
LINE
  5
3885
  8
YODOROGO
 10
30105.604341291921
 20
1603.7494964292871
 30
0.0
 11
30097.60434129195
 21
1576.0728158699001
 31
0.0
  0
LINE
  5
3886
  8
YODOROGO
 10
30189.604341291921
 20
1603.7494964292871
 30
0.0
 11
30105.604341291921
 21
1603.7494964292871
 31
0.0
  0
LINE
  5
3887
  8
YODOROGO
 10
30177.604341291921
 20
1551.817722473427
 30
0.0
 11
30189.604341291921
 21
1603.7494964292871
 31
0.0
  0
ARC
  5
3888
  8
YODOROGO
 10
30230.05882870045
 20
1868.885714953002
 30
0.0
 40
321.37763628529081
 50
260.60629297969911
 51
267.77903556555862
  0
LINE
  5
3889
  8
YODOROGO
 10
30217.604341291921
 20
1427.749496429285
 30
0.0
 11
30217.604341291921
 21
1547.749496429288
 31
0.0
  0
LINE
  5
388A
  8
YODOROGO
 10
29937.604341291932
 20
1481.3393349155101
 30
0.0
 11
29937.604341291921
 21
1594.531090531141
 31
0.0
  0
LINE
  5
388B
  8
YODOROGO
 10
30217.604341291921
 20
1667.749496429288
 30
0.0
 11
29949.60434129191
 21
1667.749496429288
 31
0.0
  0
LINE
  5
388C
  8
YODOROGO
 10
30217.604341291921
 20
1627.749496429288
 30
0.0
 11
30217.604341291921
 21
1667.749496429288
 31
0.0
  0
LINE
  5
388D
  8
YODOROGO
 10
30017.604341291921
 20
1627.749496429288
 30
0.0
 11
30217.604341291921
 21
1627.749496429288
 31
0.0
  0
ARC
  5
388E
  8
YODOROGO
 10
30230.05882870136
 20
1868.885714952901
 30
0.0
 40
321.37763628522822
 50
228.6181454618993
 51
245.660289248906
  0
LINE
  5
388F
  8
YODOROGO
 10
30105.604341291921
 20
1603.7494964292871
 30
0.0
 11
30097.60434129195
 21
1576.0728158699001
 31
0.0
  0
LINE
  5
3890
  8
YODOROGO
 10
30189.604341291921
 20
1603.7494964292871
 30
0.0
 11
30105.604341291921
 21
1603.7494964292871
 31
0.0
  0
LINE
  5
3891
  8
YODOROGO
 10
30177.604341291921
 20
1551.817722473427
 30
0.0
 11
30189.604341291921
 21
1603.7494964292871
 31
0.0
  0
ARC
  5
3892
  8
YODOROGO
 10
30230.05882870045
 20
1868.885714953002
 30
0.0
 40
321.37763628529081
 50
260.60629297969911
 51
267.77903556555862
  0
LINE
  5
3893
  8
YODOROGO
 10
30217.604341291921
 20
1427.749496429285
 30
0.0
 11
30217.604341291921
 21
1547.749496429288
 31
0.0
  0
LINE
  5
3894
  8
YODOROGO
 10
29937.604341291932
 20
1481.3393349155101
 30
0.0
 11
29937.604341291921
 21
1594.531090531141
 31
0.0
  0
LINE
  5
3895
  8
YODOROGO
 10
30433.604341291921
 20
1573.749496429288
 30
0.0
 11
30381.604341291932
 21
1573.749496429288
 31
0.0
  0
LINE
  5
3896
  8
YODOROGO
 10
30433.604341291921
 20
1601.749496429285
 30
0.0
 11
30433.604341291921
 21
1573.749496429288
 31
0.0
  0
LINE
  5
3897
  8
YODOROGO
 10
30381.604341291932
 20
1601.749496429285
 30
0.0
 11
30433.604341291921
 21
1601.749496429285
 31
0.0
  0
LINE
  5
3898
  8
YODOROGO
 10
30381.604341291932
 20
1573.749496429288
 30
0.0
 11
30381.604341291932
 21
1601.749496429285
 31
0.0
  0
LINE
  5
3899
  8
YODOROGO
 10
30429.604341291921
 20
1577.7494964292871
 30
0.0
 11
30385.604341291921
 21
1577.7494964292871
 31
0.0
  0
LINE
  5
389A
  8
YODOROGO
 10
30429.604341291921
 20
1597.749496429288
 30
0.0
 11
30429.604341291921
 21
1577.7494964292871
 31
0.0
  0
LINE
  5
389B
  8
YODOROGO
 10
30385.604341291921
 20
1597.749496429288
 30
0.0
 11
30429.604341291921
 21
1597.749496429288
 31
0.0
  0
LINE
  5
389C
  8
YODOROGO
 10
30385.604341291921
 20
1577.7494964292871
 30
0.0
 11
30385.604341291921
 21
1597.749496429288
 31
0.0
  0
LINE
  5
389D
  8
YODOROGO
 10
30425.604341291921
 20
1581.749496429286
 30
0.0
 11
30389.604341291921
 21
1581.749496429286
 31
0.0
  0
LINE
  5
389E
  8
YODOROGO
 10
30425.604341291921
 20
1593.749496429288
 30
0.0
 11
30425.604341291921
 21
1581.749496429286
 31
0.0
  0
LINE
  5
389F
  8
YODOROGO
 10
30389.604341291921
 20
1593.749496429288
 30
0.0
 11
30425.604341291921
 21
1593.749496429288
 31
0.0
  0
LINE
  5
38A0
  8
YODOROGO
 10
30389.604341291921
 20
1581.749496429286
 30
0.0
 11
30389.604341291921
 21
1593.749496429288
 31
0.0
  0
LINE
  5
38A1
  8
YODOROGO
 10
30421.604341291932
 20
1585.7494964292871
 30
0.0
 11
30393.604341291921
 21
1585.7494964292871
 31
0.0
  0
LINE
  5
38A2
  8
YODOROGO
 10
30421.604341291932
 20
1589.749496429288
 30
0.0
 11
30421.604341291932
 21
1585.7494964292871
 31
0.0
  0
LINE
  5
38A3
  8
YODOROGO
 10
30393.604341291921
 20
1589.749496429288
 30
0.0
 11
30421.604341291932
 21
1589.749496429288
 31
0.0
  0
LINE
  5
38A4
  8
YODOROGO
 10
30393.604341291921
 20
1585.7494964292871
 30
0.0
 11
30393.604341291921
 21
1589.749496429288
 31
0.0
  0
LINE
  5
38A5
  8
YODOROGO
 10
30465.604341291921
 20
1627.749496429288
 30
0.0
 11
30381.604341291932
 21
1627.749496429288
 31
0.0
  0
LINE
  5
38A6
  8
YODOROGO
 10
30465.604341291921
 20
1547.749496429288
 30
0.0
 11
30465.604341291921
 21
1627.749496429288
 31
0.0
  0
LINE
  5
38A7
  8
YODOROGO
 10
30381.604341291932
 20
1547.749496429288
 30
0.0
 11
30465.604341291921
 21
1547.749496429288
 31
0.0
  0
LINE
  5
38A8
  8
YODOROGO
 10
30381.604341291932
 20
1427.749496429288
 30
0.0
 11
30381.604341291932
 21
1547.749496429288
 31
0.0
  0
LINE
  5
38A9
  8
YODOROGO
 10
30537.604341291921
 20
1427.749496429288
 30
0.0
 11
30381.604341291932
 21
1427.749496429288
 31
0.0
  0
LINE
  5
38AA
  8
YODOROGO
 10
30569.604341291921
 20
1571.749496429285
 30
0.0
 11
30569.604341291921
 21
1599.7494964292871
 31
0.0
  0
ARC
  5
38AB
  8
YODOROGO
 10
30545.604341291921
 20
1571.749496429291
 30
0.0
 40
24.000000000003752
 50
270.0
 51
359.99999999998772
  0
LINE
  5
38AC
  8
YODOROGO
 10
30529.604341291939
 20
1547.749496429288
 30
0.0
 11
30545.604341291921
 21
1547.749496429288
 31
0.0
  0
LINE
  5
38AD
  8
YODOROGO
 10
30529.604341291939
 20
1627.749496429288
 30
0.0
 11
30529.604341291939
 21
1547.749496429288
 31
0.0
  0
LINE
  5
38AE
  8
YODOROGO
 10
30899.604341291932
 20
1547.749496429288
 30
0.0
 11
30925.604341291921
 21
1547.749496429288
 31
0.0
  0
LINE
  5
38AF
  8
YODOROGO
 10
30933.604341291921
 20
1427.749496429288
 30
0.0
 11
30899.604341291932
 21
1427.749496429288
 31
0.0
  0
LINE
  5
38B0
  8
YODOROGO
 10
30763.604341291921
 20
1563.7494964292871
 30
0.0
 11
30791.604341291921
 21
1563.7494964292871
 31
0.0
  0
LINE
  5
38B1
  8
YODOROGO
 10
30899.604341291932
 20
1491.749496429288
 30
0.0
 11
30723.604341291921
 21
1491.749496429288
 31
0.0
  0
LINE
  5
38B2
  8
YODOROGO
 10
30831.604341291921
 20
1563.7494964292871
 30
0.0
 11
30859.604341291932
 21
1563.7494964292871
 31
0.0
  0
LINE
  5
38B3
  8
YODOROGO
 10
30899.604341291932
 20
1427.749496429288
 30
0.0
 11
30899.604341291932
 21
1547.749496429288
 31
0.0
  0
LINE
  5
38B4
  8
YODOROGO
 10
30697.604341291932
 20
1427.749496429288
 30
0.0
 11
30645.604341291921
 21
1427.749496429288
 31
0.0
  0
LINE
  5
38B5
  8
YODOROGO
 10
30617.604341291921
 20
1599.7494964292871
 30
0.0
 11
30617.604341291921
 21
1507.749496429288
 31
0.0
  0
ARC
  5
38B6
  8
YODOROGO
 10
30933.604341291921
 20
1467.749496429288
 30
0.0
 40
40.0
 50
270.0
 51
0.0
  0
LINE
  5
38B7
  8
YODOROGO
 10
31093.604341291921
 20
1523.7494964292871
 30
0.0
 11
31093.604341291921
 21
1427.749496429288
 31
0.0
  0
ARC
  5
38B8
  8
YODOROGO
 10
31039.721395566768
 20
1637.5313901097329
 30
0.0
 40
125.8955565916754
 50
295.34052442160112
 51
359.18902303418679
  0
LINE
  5
38B9
  8
YODOROGO
 10
30617.604341291921
 20
1859.749496429288
 30
0.0
 11
30497.604341291921
 21
1939.749496429288
 31
0.0
  0
LINE
  5
38BA
  8
YODOROGO
 10
30497.604341291921
 20
2027.749496429288
 30
0.0
 11
30617.604341291921
 21
1947.749496429288
 31
0.0
  0
LINE
  5
38BB
  8
YODOROGO
 10
30529.604341291939
 20
1679.749496429288
 30
0.0
 11
30617.604341291921
 21
1679.749496429288
 31
0.0
  0
LINE
  5
38BC
  8
YODOROGO
 10
30617.604341291921
 20
1735.7494964292871
 30
0.0
 11
30529.604341291939
 21
1735.7494964292871
 31
0.0
  0
LINE
  5
38BD
  8
YODOROGO
 10
30381.604341291932
 20
1795.7494964292871
 30
0.0
 11
30617.604341291921
 21
1795.7494964292871
 31
0.0
  0
LINE
  5
38BE
  8
YODOROGO
 10
30081.604341291921
 20
2027.749496429288
 30
0.0
 11
30021.604341291921
 21
2027.749496429288
 31
0.0
  0
LINE
  5
38BF
  8
YODOROGO
 10
30081.604341291921
 20
1827.7494964292871
 30
0.0
 11
30081.604341291921
 21
2027.749496429288
 31
0.0
  0
LINE
  5
38C0
  8
YODOROGO
 10
30021.604341291921
 20
1827.7494964292871
 30
0.0
 11
30081.604341291921
 21
1827.7494964292871
 31
0.0
  0
LINE
  5
38C1
  8
YODOROGO
 10
30021.604341291921
 20
2027.749496429288
 30
0.0
 11
30021.604341291921
 21
1827.7494964292871
 31
0.0
  0
LINE
  5
38C2
  8
YODOROGO
 10
30161.604341291921
 20
2027.749496429288
 30
0.0
 11
30217.604341291921
 21
2027.749496429288
 31
0.0
  0
LINE
  5
38C3
  8
YODOROGO
 10
30161.604341291921
 20
1811.749496429288
 30
0.0
 11
30161.604341291921
 21
2027.749496429288
 31
0.0
  0
ARC
  5
38C4
  8
YODOROGO
 10
30121.604341291921
 20
1811.749496429288
 30
0.0
 40
40.0
 50
270.0
 51
0.0
  0
LINE
  5
38C5
  8
YODOROGO
 10
30021.604341291921
 20
1771.7494964292871
 30
0.0
 11
30121.604341291921
 21
1771.7494964292871
 31
0.0
  0
LINE
  5
38C6
  8
YODOROGO
 10
30021.604341291921
 20
1707.749496429288
 30
0.0
 11
30021.604341291921
 21
1771.7494964292871
 31
0.0
  0
LINE
  5
38C7
  8
YODOROGO
 10
30137.604341291921
 20
1707.749496429288
 30
0.0
 11
30021.604341291921
 21
1707.749496429288
 31
0.0
  0
ARC
  5
38C8
  8
YODOROGO
 10
30137.604341291921
 20
1787.7494964292871
 30
0.0
 40
80.0
 50
270.0
 51
0.0
  0
LINE
  5
38C9
  8
YODOROGO
 10
30217.604341291921
 20
2027.749496429288
 30
0.0
 11
30217.604341291921
 21
1787.7494964292871
 31
0.0
  0
LINE
  5
38CA
  8
YODOROGO
 10
29977.604341291921
 20
1947.749496429288
 30
0.0
 11
29977.604341291921
 21
1995.7494964292871
 31
0.0
1001
AUTOCAD_POSTSCRIPT_FIGURE
1002
{
1000
PSFILL
1000
Grayscale
1000
Grayscale
1070
    25
1002
}
  0
LINE
  5
38CB
  8
YODOROGO
 10
29977.604341291921
 20
1859.749496429288
 30
0.0
 11
29977.604341291921
 21
1907.7494964292871
 31
0.0
1001
AUTOCAD_POSTSCRIPT_FIGURE
1002
{
1000
PSFILL
1000
Grayscale
1000
Grayscale
1070
    25
1002
}
  0
LINE
  5
38CC
  8
YODOROGO
 10
29977.604341291921
 20
1707.749496429288
 30
0.0
 11
29977.604341291921
 21
1819.7494964292871
 31
0.0
1001
AUTOCAD_POSTSCRIPT_FIGURE
1002
{
1000
PSFILL
1000
Grayscale
1000
Grayscale
1070
    25
1002
}
  0
LINE
  5
38CD
  8
YODOROGO
 10
30381.604341291932
 20
1907.7494964292871
 30
0.0
 11
30497.604341291921
 21
2027.749496429288
 31
0.0
  0
LINE
  5
38CE
  8
YODOROGO
 10
30381.604341291932
 20
1819.7494964292871
 30
0.0
 11
30381.604341291932
 21
1907.7494964292871
 31
0.0
  0
LINE
  5
38CF
  8
YODOROGO
 10
30497.604341291921
 20
1939.749496429288
 30
0.0
 11
30381.604341291932
 21
1819.7494964292871
 31
0.0
  0
LINE
  5
38D0
  8
YODOROGO
 10
30465.604341291921
 20
1679.749496429288
 30
0.0
 11
30465.604341291921
 21
1735.7494964292871
 31
0.0
  0
LINE
  5
38D1
  8
YODOROGO
 10
30381.604341291932
 20
1679.749496429288
 30
0.0
 11
30465.604341291921
 21
1679.749496429288
 31
0.0
  0
LINE
  5
38D2
  8
YODOROGO
 10
30529.604341291939
 20
1735.7494964292871
 30
0.0
 11
30529.604341291939
 21
1679.749496429288
 31
0.0
  0
LINE
  5
38D3
  8
YODOROGO
 10
30381.604341291932
 20
1735.7494964292871
 30
0.0
 11
30381.604341291932
 21
1795.7494964292871
 31
0.0
  0
LINE
  5
38D4
  8
YODOROGO
 10
30465.604341291921
 20
1735.7494964292871
 30
0.0
 11
30381.604341291932
 21
1735.7494964292871
 31
0.0
  0
LINE
  5
38D5
  8
YODOROGO
 10
30645.604341291921
 20
2027.749496429288
 30
0.0
 11
30973.604341291921
 21
2027.749496429288
 31
0.0
  0
LINE
  5
38D6
  8
YODOROGO
 10
30925.604341291921
 20
1963.749496429286
 30
0.0
 11
30697.604341291932
 21
1963.749496429286
 31
0.0
  0
LINE
  5
38D7
  8
YODOROGO
 10
30873.604341291921
 20
1819.7494964292871
 30
0.0
 11
30899.604341291932
 21
1819.7494964292871
 31
0.0
  0
LINE
  5
38D8
  8
YODOROGO
 10
30899.604341291932
 20
1939.749496429288
 30
0.0
 11
30873.604341291921
 21
1819.7494964292871
 31
0.0
  0
LINE
  5
38D9
  8
YODOROGO
 10
30851.604341291939
 20
1939.749496429288
 30
0.0
 11
30899.604341291932
 21
1939.749496429288
 31
0.0
  0
LINE
  5
38DA
  8
YODOROGO
 10
30825.604341291921
 20
1819.7494964292871
 30
0.0
 11
30851.604341291939
 21
1939.749496429288
 31
0.0
  0
LINE
  5
38DB
  8
YODOROGO
 10
30797.604341291921
 20
1819.7494964292871
 30
0.0
 11
30825.604341291921
 21
1819.7494964292871
 31
0.0
  0
LINE
  5
38DC
  8
YODOROGO
 10
30771.604341291939
 20
1939.749496429288
 30
0.0
 11
30797.604341291921
 21
1819.7494964292871
 31
0.0
  0
LINE
  5
38DD
  8
YODOROGO
 10
30723.604341291921
 20
1939.749496429288
 30
0.0
 11
30771.604341291939
 21
1939.749496429288
 31
0.0
  0
LINE
  5
38DE
  8
YODOROGO
 10
30749.604341291921
 20
1819.7494964292871
 30
0.0
 11
30723.604341291921
 21
1939.749496429288
 31
0.0
  0
LINE
  5
38DF
  8
YODOROGO
 10
30723.604341291921
 20
1819.7494964292871
 30
0.0
 11
30749.604341291921
 21
1819.7494964292871
 31
0.0
  0
LINE
  5
38E0
  8
YODOROGO
 10
30723.604341291921
 20
1755.7494964292871
 30
0.0
 11
30723.604341291921
 21
1819.7494964292871
 31
0.0
  0
LINE
  5
38E1
  8
YODOROGO
 10
30899.604341291932
 20
1755.7494964292871
 30
0.0
 11
30723.604341291921
 21
1755.7494964292871
 31
0.0
  0
LINE
  5
38E2
  8
YODOROGO
 10
30899.604341291932
 20
1819.7494964292871
 30
0.0
 11
30899.604341291932
 21
1755.7494964292871
 31
0.0
  0
LINE
  5
38E3
  8
YODOROGO
 10
30617.604341291921
 20
1947.749496429288
 30
0.0
 11
30617.604341291921
 21
1859.749496429288
 31
0.0
  0
LINE
  5
38E4
  8
YODOROGO
 10
30791.604341291921
 20
1755.7494964292871
 30
0.0
 11
30831.604341291921
 21
1755.7494964292871
 31
0.0
  0
LINE
  5
38E5
  8
YODOROGO
 10
30723.604341291921
 20
1691.749496429288
 30
0.0
 11
30763.604341291921
 21
1691.749496429288
 31
0.0
  0
LINE
  5
38E6
  8
YODOROGO
 10
30859.604341291932
 20
1691.749496429288
 30
0.0
 11
30899.604341291932
 21
1691.749496429288
 31
0.0
  0
LINE
  5
38E7
  8
YODOROGO
 10
30617.604341291921
 20
1795.7494964292871
 30
0.0
 11
30617.604341291921
 21
1735.7494964292871
 31
0.0
  0
LINE
  5
38E8
  8
YODOROGO
 10
31165.604341291921
 20
2027.749496429288
 30
0.0
 11
31165.604341291921
 21
1963.749496429286
 31
0.0
  0
LINE
  5
38E9
  8
YODOROGO
 10
31533.604341291921
 20
1595.7494964292871
 30
0.0
 11
31533.60434129191
 21
1811.749496429288
 31
0.0
  0
LINE
  5
38EA
  8
YODOROGO
 10
31461.60434129191
 20
1987.7494964292871
 30
0.0
 11
31461.60434129191
 21
1635.7494964292871
 31
0.0
  0
LINE
  5
38EB
  8
YODOROGO
 10
31653.604341291921
 20
1427.749496429288
 30
0.0
 11
31653.60434129191
 21
1811.749496429288
 31
0.0
  0
LINE
  5
38EC
  8
YODOROGO
 10
31589.604341291921
 20
1811.749496429288
 30
0.0
 11
31589.604341291921
 21
1427.749496429288
 31
0.0
  0
LINE
  5
38ED
  8
YODOROGO
 10
31237.604341291921
 20
1595.7494964292871
 30
0.0
 11
31237.604341291921
 21
1707.749496429288
 31
0.0
  0
ARC
  5
38EE
  8
YODOROGO
 10
31353.914865116069
 20
1607.790351288558
 30
0.0
 40
180.0924485759885
 50
268.62849102169793
 51
356.16638457330322
  0
LINE
  5
38EF
  8
YODOROGO
 10
31349.604341291939
 20
1527.749496429288
 30
0.0
 11
31349.604341291939
 21
1427.749496429288
 31
0.0
  0
ARC
  5
38F0
  8
YODOROGO
 10
31351.518075724562
 20
1637.838957017655
 30
0.0
 40
110.1060929836122
 50
269.00410209305932
 51
358.91264455492478
  0
LINE
  5
38F1
  8
YODOROGO
 10
31589.604341291921
 20
1427.749496429288
 30
0.0
 11
31653.604341291921
 21
1427.749496429288
 31
0.0
  0
LINE
  5
38F2
  8
YODOROGO
 10
31533.60434129191
 20
1811.749496429288
 30
0.0
 11
31589.604341291921
 21
1811.749496429288
 31
0.0
  0
LINE
  5
38F3
  8
YODOROGO
 10
31621.604341291939
 20
1987.7494964292871
 30
0.0
 11
31461.60434129191
 21
1987.7494964292871
 31
0.0
  0
LINE
  5
38F4
  8
YODOROGO
 10
31533.60434129191
 20
1915.7494964292871
 30
0.0
 11
31661.604341291939
 21
1915.7494964292871
 31
0.0
  0
LINE
  5
38F5
  8
YODOROGO
 10
31701.604341291939
 20
1875.7494964292871
 30
0.0
 11
31533.60434129191
 21
1875.7494964292871
 31
0.0
  0
LINE
  5
38F6
  8
YODOROGO
 10
31237.604341291921
 20
1779.749496429288
 30
0.0
 11
31349.604341291939
 21
1779.749496429288
 31
0.0
  0
LINE
  5
38F7
  8
YODOROGO
 10
31237.604341291921
 20
1835.7494964292871
 30
0.0
 11
31237.604341291921
 21
1779.749496429288
 31
0.0
  0
LINE
  5
38F8
  8
YODOROGO
 10
31349.604341291939
 20
1835.7494964292871
 30
0.0
 11
31237.604341291921
 21
1835.7494964292871
 31
0.0
  0
LINE
  5
38F9
  8
YODOROGO
 10
31349.604341291939
 20
1779.749496429288
 30
0.0
 11
31349.604341291939
 21
1835.7494964292871
 31
0.0
  0
LINE
  5
38FA
  8
YODOROGO
 10
31533.60434129191
 20
1875.7494964292871
 30
0.0
 11
31533.60434129191
 21
1915.7494964292871
 31
0.0
  0
LINE
  5
38FB
  8
YODOROGO
 10
31413.604341291921
 20
1707.749496429288
 30
0.0
 11
31413.604341291921
 21
1907.7494964292871
 31
0.0
  0
LINE
  5
38FC
  8
YODOROGO
 10
31237.604341291921
 20
1707.749496429288
 30
0.0
 11
31413.604341291921
 21
1707.749496429288
 31
0.0
  0
LINE
  5
38FD
  8
YODOROGO
 10
31413.604341291921
 20
1963.749496429286
 30
0.0
 11
31413.604341291921
 21
2027.749496429288
 31
0.0
  0
ARC
  5
38FE
  8
YODOROGO
 10
31621.604341291939
 20
2003.749496429285
 30
0.0
 40
15.999999999994539
 50
270.0
 51
0.0000000000081422
  0
LINE
  5
38FF
  8
YODOROGO
 10
31637.604341291921
 20
2027.749496429288
 30
0.0
 11
31637.604341291921
 21
2003.7494964292871
 31
0.0
  0
LINE
  5
3900
  8
YODOROGO
 10
31701.604341291939
 20
2027.749496429288
 30
0.0
 11
31637.604341291921
 21
2027.749496429288
 31
0.0
  0
LINE
  5
3901
  8
YODOROGO
 10
31701.604341291939
 20
1955.7494964292871
 30
0.0
 11
31701.604341291939
 21
2027.749496429288
 31
0.0
  0
ARC
  5
3902
  8
YODOROGO
 10
31661.604341291939
 20
1955.7494964292871
 30
0.0
 40
40.0
 50
270.0
 51
0.0
  0
LINE
  5
3903
  8
YODOROGO
 10
31701.604341291939
 20
1811.749496429288
 30
0.0
 11
31701.604341291939
 21
1875.7494964292871
 31
0.0
  0
LINE
  5
3904
  8
YODOROGO
 10
31653.60434129191
 20
1811.749496429288
 30
0.0
 11
31701.604341291939
 21
1811.749496429288
 31
0.0
  0
LINE
  5
3908
  8
SUNPOU
  6
CONTINUOUS
 62
     4
 10
8942.8232489999937
 20
13863.235599
 30
0.0
 11
8095.827827999995
 21
13863.235599
 31
0.0
  0
LINE
  5
3909
  8
SUNPOU
  6
CONTINUOUS
 62
     4
 10
8175.8278279999931
 20
14055.730913999991
 30
0.0
 11
8175.8278279999931
 21
13863.235599
 31
0.0
  0
LINE
  5
390A
  8
SUNPOU
  6
CONTINUOUS
 62
     4
 10
8175.827827999995
 20
16973.730914
 30
0.0
 11
8175.8278279999931
 21
14055.730913999991
 31
0.0
  0
LINE
  5
390B
  8
SUNPOU
  6
CONTINUOUS
 62
     4
 10
8942.8232489999937
 20
20104.226823000012
 30
0.0
 11
8495.827827999994
 21
20104.226823000012
 31
0.0
  0
LINE
  5
390C
  8
SUNPOU
  6
CONTINUOUS
 62
     4
 10
8942.8276039999946
 20
20114.226823000001
 30
0.0
 11
8495.827827999994
 21
20114.226823000001
 31
0.0
  0
LINE
  5
390D
  8
SUNPOU
  6
CONTINUOUS
 62
     4
 10
8575.827827999994
 20
20104.226823000012
 30
0.0
 11
8575.827827999994
 21
19864.22682299999
 31
0.0
  0
LINE
  5
390E
  8
SUNPOU
  6
CONTINUOUS
 62
     4
 10
8575.827827999994
 20
20114.226823000001
 30
0.0
 11
8575.827827999994
 21
20354.226823000012
 31
0.0
  0
LINE
  5
390F
  8
SUNPOU
  6
CONTINUOUS
 62
     4
 10
8575.827827999994
 20
20104.226823000012
 30
0.0
 11
8575.827827999994
 21
20114.226823000001
 31
0.0
  0
LINE
  5
3910
  8
SUNPOU
  6
CONTINUOUS
 62
     4
 10
8942.8276039999946
 20
20114.226823000001
 30
0.0
 11
8095.827827999995
 21
20114.226823000001
 31
0.0
  0
LINE
  5
3911
  8
SUNPOU
  6
CONTINUOUS
 62
     4
 10
8175.8278279999931
 20
19891.730914
 30
0.0
 11
8175.8278279999931
 21
20114.226823000001
 31
0.0
  0
LINE
  5
3912
  8
SUNPOU
  6
CONTINUOUS
 62
     4
 10
8175.8278279999931
 20
16973.730914
 30
0.0
 11
8175.8278279999931
 21
19891.730914
 31
0.0
  0
LINE
  5
3913
  8
SUNPOU
  6
CONTINUOUS
 62
     4
 10
13975.32611899999
 20
20194.226823000001
 30
0.0
 11
13975.32611899999
 21
20744.232102000031
 31
0.0
  0
LINE
  5
3914
  8
SUNPOU
  6
CONTINUOUS
 62
     4
 10
13889.82611899999
 20
20664.232102000031
 30
0.0
 11
13649.82611899999
 21
20664.232102000031
 31
0.0
  0
LINE
  5
3915
  8
SUNPOU
  6
CONTINUOUS
 62
     4
 10
13972.32611899999
 20
20664.232102000031
 30
0.0
 11
14212.32611899999
 21
20664.232102000031
 31
0.0
  0
LINE
  5
3916
  8
SUNPOU
  6
CONTINUOUS
 62
     4
 10
13889.82611899999
 20
20664.232102000031
 30
0.0
 11
13972.32611899999
 21
20664.232102000031
 31
0.0
  0
LINE
  5
3917
  8
SUNPOU
  6
CONTINUOUS
 62
     4
 10
12023.32611899999
 20
20664.232102000031
 30
0.0
 11
13889.82611899999
 21
20664.232102000031
 31
0.0
  0
LINE
  5
3918
  8
SUNPOU
  6
CONTINUOUS
 62
     4
 10
9019.8261189999994
 20
20194.226823000001
 30
0.0
 11
9019.8261189999994
 21
20744.232102000031
 31
0.0
  0
LINE
  5
3919
  8
SUNPOU
  6
CONTINUOUS
 62
     4
 10
9105.3261189999994
 20
20664.232102000031
 30
0.0
 11
9345.3261189999994
 21
20664.232102000031
 31
0.0
  0
LINE
  5
391A
  8
SUNPOU
  6
CONTINUOUS
 62
     4
 10
9022.8261189999994
 20
20664.232102000031
 30
0.0
 11
8782.8261189999976
 21
20664.232102000031
 31
0.0
  0
LINE
  5
391B
  8
SUNPOU
  6
CONTINUOUS
 62
     4
 10
9105.3261189999994
 20
20664.232102000031
 30
0.0
 11
9022.8261189999994
 21
20664.232102000031
 31
0.0
  0
LINE
  5
391C
  8
SUNPOU
  6
CONTINUOUS
 62
     4
 10
12023.32611899999
 20
20664.232102000031
 30
0.0
 11
9105.3261189999994
 21
20664.232102000031
 31
0.0
  0
LINE
  5
391D
  8
SUNPOU
  6
CONTINUOUS
 62
     4
 10
22956.91401
 20
20014.229199000009
 30
0.0
 11
22956.91401
 21
20744.232102000031
 31
0.0
  0
LINE
  5
391E
  8
SUNPOU
  6
CONTINUOUS
 62
     4
 10
23364.41401
 20
20014.229199000009
 30
0.0
 11
23364.41401
 21
20744.232102000031
 31
0.0
  0
LINE
  5
391F
  8
SUNPOU
  6
CONTINUOUS
 62
     4
 10
22956.91401
 20
20664.232102000031
 30
0.0
 11
23364.41401
 21
20664.232102000031
 31
0.0
  0
LINE
  5
3920
  8
SUNPOU
  6
CONTINUOUS
 62
     4
 10
23364.41401
 20
20014.229199000009
 30
0.0
 11
23364.41401
 21
20744.232102000031
 31
0.0
  0
LINE
  5
3921
  8
SUNPOU
  6
CONTINUOUS
 62
     4
 10
24065.41401
 20
20014.229199000009
 30
0.0
 11
24065.41401
 21
20744.232102000031
 31
0.0
  0
LINE
  5
3922
  8
SUNPOU
  6
CONTINUOUS
 62
     4
 10
23364.41401
 20
20664.232102000031
 30
0.0
 11
24065.41401
 21
20664.232102000031
 31
0.0
  0
LINE
  5
3923
  8
SUNPOU
  6
CONTINUOUS
 62
     4
 10
20038.91401
 20
20014.229199000009
 30
0.0
 11
20038.91401
 21
20744.232102000031
 31
0.0
  0
LINE
  5
3924
  8
SUNPOU
  6
CONTINUOUS
 62
     4
 10
20796.91401
 20
20014.229199000009
 30
0.0
 11
20796.91401
 21
20744.232102000031
 31
0.0
  0
LINE
  5
3925
  8
SUNPOU
  6
CONTINUOUS
 62
     4
 10
20038.91401
 20
20664.232102000031
 30
0.0
 11
20796.91401
 21
20664.232102000031
 31
0.0
  0
LINE
  5
3926
  8
SUNPOU
  6
CONTINUOUS
 62
     4
 10
19908.913349999992
 20
6356.3198969999958
 30
0.0
 11
19108.91466899998
 21
6356.3198969999958
 31
0.0
  0
LINE
  5
3927
  8
SUNPOU
  6
CONTINUOUS
 62
     4
 10
19908.913349999992
 20
8247.8198969999976
 30
0.0
 11
19108.91466899998
 21
8247.8198969999976
 31
0.0
  0
LINE
  5
3928
  8
SUNPOU
  6
CONTINUOUS
 62
     4
 10
19188.91466899998
 20
6356.3198969999958
 30
0.0
 11
19188.91466899998
 21
8247.8198969999976
 31
0.0
  0
LINE
  5
3929
  8
SUNPOU
  6
CONTINUOUS
 62
     4
 10
19908.913349999992
 20
6356.3198969999958
 30
0.0
 11
18708.91235999998
 21
6356.3198969999958
 31
0.0
  0
LINE
  5
392A
  8
SUNPOU
  6
CONTINUOUS
 62
     4
 10
19876.413613999961
 20
8704.8194019999955
 30
0.0
 11
18708.91235999998
 21
8704.8194019999955
 31
0.0
  0
LINE
  5
392B
  8
SUNPOU
  6
CONTINUOUS
 62
     4
 10
18788.912359999958
 20
6356.3198969999958
 30
0.0
 11
18788.912359999969
 21
8704.8194019999955
 31
0.0
  0
LINE
  5
393C
  8
SUNPOU
  6
CONTINUOUS
 62
     4
 10
20132.914008999989
 20
6176.3200619999989
 30
0.0
 11
20132.914008999989
 21
5376.3200619999989
 31
0.0
  0
LINE
  5
393D
  8
SUNPOU
  6
CONTINUOUS
 62
     4
 10
22862.914008999978
 20
6176.3200619999989
 30
0.0
 11
22862.914008999978
 21
5376.3200619999989
 31
0.0
  0
LINE
  5
393E
  8
SUNPOU
  6
CONTINUOUS
 62
     4
 10
20132.914008999989
 20
5456.3200619999989
 30
0.0
 11
22862.914008999978
 21
5456.3200619999989
 31
0.0
  0
LINE
  5
393F
  8
SUNPOU
  6
CONTINUOUS
 62
     4
 10
23050.914008999971
 20
6176.3200619999989
 30
0.0
 11
23050.914008999971
 21
5376.3200619999989
 31
0.0
  0
LINE
  5
3940
  8
SUNPOU
  6
CONTINUOUS
 62
     4
 10
24729.414008999989
 20
6176.3200619999989
 30
0.0
 11
24729.414008999989
 21
5376.3200619999989
 31
0.0
  0
LINE
  5
3941
  8
SUNPOU
  6
CONTINUOUS
 62
     4
 10
23050.914008999971
 20
5456.3200619999989
 30
0.0
 11
24729.414008999989
 21
5456.3200619999989
 31
0.0
  0
LINE
  5
3942
  8
SUNPOU
  6
CONTINUOUS
 62
     4
 10
22956.914008999989
 20
5913.6676389999984
 30
0.0
 11
22956.914008999989
 21
4976.3200619999989
 31
0.0
  0
LINE
  5
3943
  8
SUNPOU
  6
CONTINUOUS
 62
     4
 10
24823.414008999978
 20
5913.6676389999984
 30
0.0
 11
24823.414008999978
 21
4976.3200619999989
 31
0.0
  0
LINE
  5
3944
  8
SUNPOU
  6
CONTINUOUS
 62
     4
 10
22956.914008999989
 20
5056.3200619999989
 30
0.0
 11
24823.414008999978
 21
5056.3200619999989
 31
0.0
  0
LINE
  5
3945
  8
SUNPOU
  6
CONTINUOUS
 62
     4
 10
20038.914008999978
 20
5913.6676389999984
 30
0.0
 11
20038.914008999978
 21
4976.3200619999989
 31
0.0
  0
LINE
  5
3946
  8
SUNPOU
  6
CONTINUOUS
 62
     4
 10
22956.914008999989
 20
5913.6676389999984
 30
0.0
 11
22956.914008999989
 21
4976.3200619999989
 31
0.0
  0
LINE
  5
3947
  8
SUNPOU
  6
CONTINUOUS
 62
     4
 10
20038.914008999978
 20
5056.3200619999989
 30
0.0
 11
22956.914008999989
 21
5056.3200619999989
 31
0.0
  0
LINE
  5
3948
  8
SUNPOU
  6
CONTINUOUS
 62
     4
 10
24823.417968000002
 20
5913.6676389999984
 30
0.0
 11
24823.417968000002
 21
4976.3200619999989
 31
0.0
  0
LINE
  5
3949
  8
SUNPOU
  6
CONTINUOUS
 62
     4
 10
24865.917967999991
 20
6176.3200619999989
 30
0.0
 11
24865.917967999991
 21
4976.3200619999989
 31
0.0
  0
LINE
  5
394A
  8
SUNPOU
  6
CONTINUOUS
 62
     4
 10
24823.417968000002
 20
5056.3200619999989
 30
0.0
 11
24583.417968000002
 21
5056.3200619999989
 31
0.0
  0
LINE
  5
394B
  8
SUNPOU
  6
CONTINUOUS
 62
     4
 10
24865.917967999991
 20
5056.3200619999989
 30
0.0
 11
25105.917967999991
 21
5056.3200619999989
 31
0.0
  0
LINE
  5
394C
  8
SUNPOU
  6
CONTINUOUS
 62
     4
 10
24823.417968000002
 20
5056.3200619999989
 30
0.0
 11
24865.917967999991
 21
5056.3200619999989
 31
0.0
  0
LINE
  5
394D
  8
SUNPOU
  6
CONTINUOUS
 62
     4
 10
20038.914008999978
 20
5913.6676389999984
 30
0.0
 11
20038.914008999978
 21
4976.3200619999989
 31
0.0
  0
LINE
  5
394E
  8
SUNPOU
  6
CONTINUOUS
 62
     4
 10
19996.41400899996
 20
6176.3200619999989
 30
0.0
 11
19996.41400899996
 21
4976.3200619999989
 31
0.0
  0
LINE
  5
394F
  8
SUNPOU
  6
CONTINUOUS
 62
     4
 10
20038.914008999978
 20
5056.3200619999989
 30
0.0
 11
20278.914008999978
 21
5056.3200619999989
 31
0.0
  0
LINE
  5
3950
  8
SUNPOU
  6
CONTINUOUS
 62
     4
 10
19996.41400899996
 20
5056.3200619999989
 30
0.0
 11
19756.41400899996
 21
5056.3200619999989
 31
0.0
  0
LINE
  5
3951
  8
SUNPOU
  6
CONTINUOUS
 62
     4
 10
20038.914008999978
 20
5056.3200619999989
 30
0.0
 11
19996.41400899996
 21
5056.3200619999989
 31
0.0
  0
LINE
  5
3952
  8
SUNPOU
  6
CONTINUOUS
 62
     4
 10
19996.41400899996
 20
6176.3200619999989
 30
0.0
 11
19996.41400899996
 21
4576.320226999992
 31
0.0
  0
LINE
  5
3953
  8
SUNPOU
  6
CONTINUOUS
 62
     4
 10
24865.914008999989
 20
6176.3200619999989
 30
0.0
 11
24865.914008999989
 21
4576.320226999992
 31
0.0
  0
LINE
  5
3954
  8
SUNPOU
  6
CONTINUOUS
 62
     4
 10
19996.41400899996
 20
4656.3202269999974
 30
0.0
 11
24865.914008999989
 21
4656.3202269999974
 31
0.0
  0
LINE
  5
3955
  8
SUNPOU
  6
CONTINUOUS
 62
     4
 10
20038.91401
 20
13349.967479999999
 30
0.0
 11
20038.91401
 21
13004.28283
 31
0.0
  0
LINE
  5
3956
  8
SUNPOU
  6
CONTINUOUS
 62
     4
 10
19996.411767000001
 20
13933.233619000001
 30
0.0
 11
19996.411767000001
 21
13004.28283
 31
0.0
  0
LINE
  5
3957
  8
SUNPOU
  6
CONTINUOUS
 62
     4
 10
20038.91401
 20
13084.28283
 30
0.0
 11
20278.91401
 21
13084.28283
 31
0.0
  0
LINE
  5
3958
  8
SUNPOU
  6
CONTINUOUS
 62
     4
 10
19996.411767000001
 20
13084.28283
 30
0.0
 11
19756.411767000001
 21
13084.28283
 31
0.0
  0
LINE
  5
3959
  8
SUNPOU
  6
CONTINUOUS
 62
     4
 10
20038.91401
 20
13084.28283
 30
0.0
 11
19996.411767000001
 21
13084.28283
 31
0.0
  0
LINE
  5
395A
  8
SUNPOU
  6
CONTINUOUS
 62
     4
 10
24823.41401
 20
13349.967479999999
 30
0.0
 11
24823.41401
 21
13004.28283
 31
0.0
  0
LINE
  5
395B
  8
SUNPOU
  6
CONTINUOUS
 62
     4
 10
24865.916252999989
 20
13933.233619000001
 30
0.0
 11
24865.916252999989
 21
13004.28283
 31
0.0
  0
LINE
  5
395C
  8
SUNPOU
  6
CONTINUOUS
 62
     4
 10
24823.41401
 20
13084.28283
 30
0.0
 11
24583.41401
 21
13084.28283
 31
0.0
  0
LINE
  5
395D
  8
SUNPOU
  6
CONTINUOUS
 62
     4
 10
24865.916252999989
 20
13084.28283
 30
0.0
 11
25105.916252999999
 21
13084.28283
 31
0.0
  0
LINE
  5
395E
  8
SUNPOU
  6
CONTINUOUS
 62
     4
 10
24823.41401
 20
13084.28283
 30
0.0
 11
24865.916252999989
 21
13084.28283
 31
0.0
  0
LINE
  5
395F
  8
2-0
  6
CONTINUOUS
 62
     3
 10
22914.41401
 20
14013.230913999991
 30
0.0
 11
22999.41401
 21
14013.230913999991
 31
0.0
  0
LINE
  5
3960
  8
2-0
  6
CONTINUOUS
 62
     3
 10
22999.41401
 20
14013.230913999991
 30
0.0
 11
22999.41401
 21
14098.230913999991
 31
0.0
  0
LINE
  5
3961
  8
2-0
  6
CONTINUOUS
 62
     3
 10
22999.41401
 20
14098.230913999991
 30
0.0
 11
22914.41401
 21
14098.230913999991
 31
0.0
  0
LINE
  5
3962
  8
2-0
  6
CONTINUOUS
 62
     3
 10
22914.41401
 20
14098.230913999991
 30
0.0
 11
22914.41401
 21
14013.230913999991
 31
0.0
  0
LINE
  5
3963
  8
SUNPOU
  6
CONTINUOUS
 62
     4
 10
24823.41401
 20
13349.967479999999
 30
0.0
 11
24823.41401
 21
13004.28283
 31
0.0
  0
LINE
  5
3964
  8
SUNPOU
  6
CONTINUOUS
 62
     4
 10
24780.911767000001
 20
13933.233619000001
 30
0.0
 11
24780.911767000001
 21
13004.28283
 31
0.0
  0
LINE
  5
3965
  8
SUNPOU
  6
CONTINUOUS
 62
     4
 10
24823.41401
 20
13084.28283
 30
0.0
 11
25063.41401
 21
13084.28283
 31
0.0
  0
LINE
  5
3966
  8
SUNPOU
  6
CONTINUOUS
 62
     4
 10
24780.911767000001
 20
13084.28283
 30
0.0
 11
24540.911767000001
 21
13084.28283
 31
0.0
  0
LINE
  5
3967
  8
SUNPOU
  6
CONTINUOUS
 62
     4
 10
24823.41401
 20
13084.28283
 30
0.0
 11
24780.911767000001
 21
13084.28283
 31
0.0
  0
LINE
  5
3968
  8
SUNPOU
  6
CONTINUOUS
 62
     4
 10
20038.91401
 20
13349.967479999999
 30
0.0
 11
20038.91401
 21
13004.28283
 31
0.0
  0
LINE
  5
3969
  8
SUNPOU
  6
CONTINUOUS
 62
     4
 10
20081.416252999989
 20
13933.233619000001
 30
0.0
 11
20081.416252999989
 21
13004.28283
 31
0.0
  0
LINE
  5
396A
  8
SUNPOU
  6
CONTINUOUS
 62
     4
 10
20038.91401
 20
13084.28283
 30
0.0
 11
19798.91401
 21
13084.28283
 31
0.0
  0
LINE
  5
396B
  8
SUNPOU
  6
CONTINUOUS
 62
     4
 10
20081.416252999989
 20
13084.28283
 30
0.0
 11
20321.416252999989
 21
13084.28283
 31
0.0
  0
LINE
  5
396C
  8
SUNPOU
  6
CONTINUOUS
 62
     4
 10
20038.91401
 20
13084.28283
 30
0.0
 11
20081.416252999989
 21
13084.28283
 31
0.0
  0
LINE
  5
396D
  8
SUNPOU
  6
CONTINUOUS
 62
     4
 10
19996.411767000001
 20
13933.233619000001
 30
0.0
 11
19996.411767000001
 21
12604.282829999989
 31
0.0
  0
LINE
  5
396E
  8
SUNPOU
  6
CONTINUOUS
 62
     4
 10
24865.916252999989
 20
13933.233619000001
 30
0.0
 11
24865.916252999989
 21
12604.282829999989
 31
0.0
  0
LINE
  5
396F
  8
SUNPOU
  6
CONTINUOUS
 62
     4
 10
19996.411767000001
 20
12684.282829999989
 30
0.0
 11
24865.916252999989
 21
12684.282829999989
 31
0.0
  0
LINE
  5
3970
  8
SUNPOU
  6
CONTINUOUS
 62
     4
 10
24945.912294000002
 20
14813.730913999991
 30
0.0
 11
25995.913614000001
 21
14813.730913999991
 31
0.0
  0
LINE
  5
3971
  8
SUNPOU
  6
CONTINUOUS
 62
     4
 10
25795.913614000001
 20
14055.730913999991
 30
0.0
 11
25995.913614000001
 21
14055.730913999991
 31
0.0
  0
LINE
  5
3972
  8
SUNPOU
  6
CONTINUOUS
 62
     4
 10
25915.913614000001
 20
14813.730913999991
 30
0.0
 11
25915.913614000001
 21
14055.730913999991
 31
0.0
  0
LINE
  5
3973
  8
SUNPOU
  6
CONTINUOUS
 62
     4
 10
24945.912294000002
 20
15514.971425500011
 30
0.0
 11
25995.913614000001
 21
15514.971425500011
 31
0.0
  0
LINE
  5
3974
  8
SUNPOU
  6
CONTINUOUS
 62
     4
 10
24945.912294000002
 20
14813.730913999991
 30
0.0
 11
25995.913614000001
 21
14813.730913999991
 31
0.0
  0
LINE
  5
3975
  8
SUNPOU
  6
CONTINUOUS
 62
     4
 10
25915.913614000001
 20
15514.971425500011
 30
0.0
 11
25915.913614000001
 21
14813.730913999991
 31
0.0
  0
LINE
  5
3976
  8
SUNPOU
  6
CONTINUOUS
 62
     4
 10
24945.912294000002
 20
16215.730913999991
 30
0.0
 11
25995.913614000001
 21
16215.730913999991
 31
0.0
  0
LINE
  5
3977
  8
SUNPOU
  6
CONTINUOUS
 62
     4
 10
24945.912294000002
 20
15514.971425500011
 30
0.0
 11
25995.913614000001
 21
15514.971425500011
 31
0.0
  0
LINE
  5
3978
  8
SUNPOU
  6
CONTINUOUS
 62
     4
 10
25915.913614000001
 20
16215.730913999991
 30
0.0
 11
25915.913614000001
 21
15514.971425500011
 31
0.0
  0
LINE
  5
3979
  8
SUNPOU
  6
CONTINUOUS
 62
     4
 10
25795.913614000001
 20
16973.730914
 30
0.0
 11
25995.913614000001
 21
16973.730914
 31
0.0
  0
LINE
  5
397A
  8
SUNPOU
  6
CONTINUOUS
 62
     4
 10
24945.912294000002
 20
16215.730913999991
 30
0.0
 11
25995.913614000001
 21
16215.730913999991
 31
0.0
  0
LINE
  5
397B
  8
SUNPOU
  6
CONTINUOUS
 62
     4
 10
25915.913614000001
 20
16973.730914
 30
0.0
 11
25915.913614000001
 21
16215.730913999991
 31
0.0
  0
LINE
  5
397C
  8
SUNPOU
  6
CONTINUOUS
 62
     4
 10
24945.912294000002
 20
17731.730914
 30
0.0
 11
25995.913614000001
 21
17731.730914
 31
0.0
  0
LINE
  5
397D
  8
SUNPOU
  6
CONTINUOUS
 62
     4
 10
25795.913614000001
 20
16973.730914
 30
0.0
 11
25995.913614000001
 21
16973.730914
 31
0.0
  0
LINE
  5
397E
  8
SUNPOU
  6
CONTINUOUS
 62
     4
 10
25915.913614000001
 20
17731.730914
 30
0.0
 11
25915.913614000001
 21
16973.730914
 31
0.0
  0
LINE
  5
397F
  8
SUNPOU
  6
CONTINUOUS
 62
     4
 10
24945.912294000002
 20
18432.730914
 30
0.0
 11
25995.913614000001
 21
18432.730914
 31
0.0
  0
LINE
  5
3980
  8
SUNPOU
  6
CONTINUOUS
 62
     4
 10
24945.912294000002
 20
17731.730914
 30
0.0
 11
25995.913614000001
 21
17731.730914
 31
0.0
  0
LINE
  5
3981
  8
SUNPOU
  6
CONTINUOUS
 62
     4
 10
25915.913614000001
 20
18432.730914
 30
0.0
 11
25915.913614000001
 21
17731.730914
 31
0.0
  0
LINE
  5
3982
  8
SUNPOU
  6
CONTINUOUS
 62
     4
 10
24945.912294000002
 20
19133.730914
 30
0.0
 11
25995.913614000001
 21
19133.730914
 31
0.0
  0
LINE
  5
3983
  8
SUNPOU
  6
CONTINUOUS
 62
     4
 10
24945.912294000002
 20
18432.730914
 30
0.0
 11
25995.913614000001
 21
18432.730914
 31
0.0
  0
LINE
  5
3984
  8
SUNPOU
  6
CONTINUOUS
 62
     4
 10
25915.913614000001
 20
19133.730914
 30
0.0
 11
25915.913614000001
 21
18432.730914
 31
0.0
  0
LINE
  5
3985
  8
SUNPOU
  6
CONTINUOUS
 62
     4
 10
25795.913614000001
 20
19891.730914
 30
0.0
 11
25995.913614000001
 21
19891.730914
 31
0.0
  0
LINE
  5
3986
  8
SUNPOU
  6
CONTINUOUS
 62
     4
 10
24945.912294000002
 20
19133.730914
 30
0.0
 11
25995.913614000001
 21
19133.730914
 31
0.0
  0
LINE
  5
3987
  8
SUNPOU
  6
CONTINUOUS
 62
     4
 10
25915.913614000001
 20
19891.730914
 30
0.0
 11
25915.913614000001
 21
19133.730914
 31
0.0
  0
LINE
  5
3988
  8
SUNPOU
  6
CONTINUOUS
 62
     4
 10
25795.913614000001
 20
16973.730914
 30
0.0
 11
26395.913614000001
 21
16973.730914
 31
0.0
  0
LINE
  5
3989
  8
SUNPOU
  6
CONTINUOUS
 62
     4
 10
25795.913614000001
 20
19891.730914
 30
0.0
 11
26395.913614000001
 21
19891.730914
 31
0.0
  0
LINE
  5
398A
  8
SUNPOU
  6
CONTINUOUS
 62
     4
 10
26315.913614000001
 20
16973.730914
 30
0.0
 11
26315.913614000001
 21
19891.730914
 31
0.0
  0
LINE
  5
398B
  8
SUNPOU
  6
CONTINUOUS
 62
     4
 10
25795.913614000001
 20
14055.730913999991
 30
0.0
 11
26395.913614000001
 21
14055.730913999991
 31
0.0
  0
LINE
  5
398C
  8
SUNPOU
  6
CONTINUOUS
 62
     4
 10
25795.913614000001
 20
16973.730914
 30
0.0
 11
26395.913614000001
 21
16973.730914
 31
0.0
  0
LINE
  5
398D
  8
SUNPOU
  6
CONTINUOUS
 62
     4
 10
26315.913614000001
 20
14055.730913999991
 30
0.0
 11
26315.913614000001
 21
16973.730914
 31
0.0
  0
LINE
  5
398E
  8
SUNPOU
  6
CONTINUOUS
 62
     4
 10
24945.912294000002
 20
19934.228209000001
 30
0.0
 11
26795.913614000001
 21
19934.228209000001
 31
0.0
  0
LINE
  5
398F
  8
SUNPOU
  6
CONTINUOUS
 62
     4
 10
24945.912294000002
 20
14013.233619000001
 30
0.0
 11
26795.913614000001
 21
14013.233619000001
 31
0.0
  0
LINE
  5
3990
  8
SUNPOU
  6
CONTINUOUS
 62
     4
 10
26715.913614000001
 20
19934.228209000001
 30
0.0
 11
26715.913614000001
 21
14013.233619000001
 31
0.0
  0
LINE
  5
3991
  8
SUNPOU
  6
CONTINUOUS
 62
     4
 10
25795.913614000001
 20
19891.730914
 30
0.0
 11
26395.913614000001
 21
19891.730914
 31
0.0
  0
LINE
  5
3992
  8
SUNPOU
  6
CONTINUOUS
 62
     4
 10
24945.912294000002
 20
19934.228209000001
 30
0.0
 11
26395.913614000001
 21
19934.228209000001
 31
0.0
  0
LINE
  5
3993
  8
SUNPOU
  6
CONTINUOUS
 62
     4
 10
26315.913614000001
 20
19891.730914
 30
0.0
 11
26315.913614000001
 21
19651.730914
 31
0.0
  0
LINE
  5
3994
  8
SUNPOU
  6
CONTINUOUS
 62
     4
 10
26315.913614000001
 20
19934.228209000001
 30
0.0
 11
26315.913614000001
 21
20174.228209000001
 31
0.0
  0
LINE
  5
3995
  8
SUNPOU
  6
CONTINUOUS
 62
     4
 10
26315.913614000001
 20
19891.730914
 30
0.0
 11
26315.913614000001
 21
19934.228209000001
 31
0.0
  0
LINE
  5
3996
  8
SUNPOU
  6
CONTINUOUS
 62
     4
 10
25795.913614000001
 20
14055.730913999991
 30
0.0
 11
26395.913614000001
 21
14055.730913999991
 31
0.0
  0
LINE
  5
3997
  8
SUNPOU
  6
CONTINUOUS
 62
     4
 10
24945.912294000002
 20
14013.233619000001
 30
0.0
 11
26395.913614000001
 21
14013.233619000001
 31
0.0
  0
LINE
  5
3998
  8
SUNPOU
  6
CONTINUOUS
 62
     4
 10
26315.913614000001
 20
14055.730913999991
 30
0.0
 11
26315.913614000001
 21
14295.730913999991
 31
0.0
  0
LINE
  5
3999
  8
SUNPOU
  6
CONTINUOUS
 62
     4
 10
26315.913614000001
 20
14013.233619000001
 30
0.0
 11
26315.913614000001
 21
13773.233619000001
 31
0.0
  0
LINE
  5
399A
  8
SUNPOU
  6
CONTINUOUS
 62
     4
 10
26315.913614000001
 20
14055.730913999991
 30
0.0
 11
26315.913614000001
 21
14013.233619000001
 31
0.0
  0
LINE
  5
399B
  8
SUNPOU
  6
CONTINUOUS
 62
     4
 10
24065.41401
 20
20014.229199000009
 30
0.0
 11
24065.41401
 21
20744.232102000031
 31
0.0
  0
LINE
  5
399C
  8
SUNPOU
  6
CONTINUOUS
 62
     4
 10
24823.414999500001
 20
20014.229199000009
 30
0.0
 11
24823.414999500001
 21
20744.232102000031
 31
0.0
  0
LINE
  5
399D
  8
SUNPOU
  6
CONTINUOUS
 62
     4
 10
24065.41401
 20
20664.232102000031
 30
0.0
 11
24823.414999500001
 21
20664.232102000031
 31
0.0
  0
LINE
  5
399E
  8
SUNPOU
  6
CONTINUOUS
 62
     4
 10
24823.41401
 20
20014.229199000009
 30
0.0
 11
24823.41401
 21
20744.232102000031
 31
0.0
  0
LINE
  5
399F
  8
SUNPOU
  6
CONTINUOUS
 62
     4
 10
24865.910315000001
 20
20014.229199000009
 30
0.0
 11
24865.910315000001
 21
20744.232102000031
 31
0.0
  0
LINE
  5
39A0
  8
SUNPOU
  6
CONTINUOUS
 62
     4
 10
24823.41401
 20
20664.232102000031
 30
0.0
 11
24583.41401
 21
20664.232102000031
 31
0.0
  0
LINE
  5
39A1
  8
SUNPOU
  6
CONTINUOUS
 62
     4
 10
24865.910315000001
 20
20664.232102000031
 30
0.0
 11
25105.910315000001
 21
20664.232102000031
 31
0.0
  0
LINE
  5
39A2
  8
SUNPOU
  6
CONTINUOUS
 62
     4
 10
24823.41401
 20
20664.232102000031
 30
0.0
 11
24865.910315000001
 21
20664.232102000031
 31
0.0
  0
LINE
  5
39A3
  8
SUNPOU
  6
CONTINUOUS
 62
     4
 10
20038.91401
 20
20014.229199000009
 30
0.0
 11
20038.91401
 21
20744.232102000031
 31
0.0
  0
LINE
  5
39A4
  8
SUNPOU
  6
CONTINUOUS
 62
     4
 10
19996.417705
 20
20014.229199000009
 30
0.0
 11
19996.417705
 21
20744.232102000031
 31
0.0
  0
LINE
  5
39A5
  8
SUNPOU
  6
CONTINUOUS
 62
     4
 10
20038.91401
 20
20664.232102000031
 30
0.0
 11
20278.91401
 21
20664.232102000031
 31
0.0
  0
LINE
  5
39A6
  8
SUNPOU
  6
CONTINUOUS
 62
     4
 10
19996.417705
 20
20664.232102000031
 30
0.0
 11
19756.417705
 21
20664.232102000031
 31
0.0
  0
LINE
  5
39A7
  8
SUNPOU
  6
CONTINUOUS
 62
     4
 10
20038.91401
 20
20664.232102000031
 30
0.0
 11
19996.417705
 21
20664.232102000031
 31
0.0
  0
LINE
  5
39A8
  8
SUNPOU
  6
CONTINUOUS
 62
     4
 10
22198.91400999999
 20
20014.229199000009
 30
0.0
 11
22198.91400999999
 21
20744.232102000031
 31
0.0
  0
LINE
  5
39A9
  8
SUNPOU
  6
CONTINUOUS
 62
     4
 10
22956.914999500012
 20
20014.229199000009
 30
0.0
 11
22956.914999500012
 21
20744.232102000031
 31
0.0
  0
LINE
  5
39AA
  8
SUNPOU
  6
CONTINUOUS
 62
     4
 10
22198.91400999999
 20
20664.232102000031
 30
0.0
 11
22956.914999500012
 21
20664.232102000031
 31
0.0
  0
LINE
  5
39AB
  8
SUNPOU
  6
CONTINUOUS
 62
     4
 10
21497.91401
 20
20014.229199000009
 30
0.0
 11
21497.91401
 21
20744.232102000031
 31
0.0
  0
LINE
  5
39AC
  8
SUNPOU
  6
CONTINUOUS
 62
     4
 10
22198.91400999999
 20
20014.229199000009
 30
0.0
 11
22198.91400999999
 21
20744.232102000031
 31
0.0
  0
LINE
  5
39AD
  8
SUNPOU
  6
CONTINUOUS
 62
     4
 10
21497.91401
 20
20664.232102000031
 30
0.0
 11
22198.91400999999
 21
20664.232102000031
 31
0.0
  0
LINE
  5
39AE
  8
SUNPOU
  6
CONTINUOUS
 62
     4
 10
20796.91401
 20
20014.229199000009
 30
0.0
 11
20796.91401
 21
20744.232102000031
 31
0.0
  0
LINE
  5
39AF
  8
SUNPOU
  6
CONTINUOUS
 62
     4
 10
21497.91401
 20
20014.229199000009
 30
0.0
 11
21497.91401
 21
20744.232102000031
 31
0.0
  0
LINE
  5
39B0
  8
SUNPOU
  6
CONTINUOUS
 62
     4
 10
20796.91401
 20
20664.232102000031
 30
0.0
 11
21497.91401
 21
20664.232102000031
 31
0.0
  0
LINE
  5
39B1
  8
SUNPOU
  6
CONTINUOUS
 62
     4
 10
8812.6585459999988
 20
8593.3184120000024
 30
0.0
 11
8812.6585459999988
 21
9984.3184379999984
 31
0.0
  0
LINE
  5
39B2
  8
SUNPOU
  6
CONTINUOUS
 62
     4
 10
15063.658546000001
 20
8725.2082354124323
 30
0.0
 11
15063.658546000001
 21
9984.3184379999984
 31
0.0
  0
LINE
  5
39B3
  8
SUNPOU
  6
CONTINUOUS
 62
     4
 10
8812.6585459999988
 20
9904.3184379999984
 30
0.0
 11
15063.658546000001
 21
9904.3184379999984
 31
0.0
  0
LINE
  5
39B4
  8
SUNPOU
  6
CONTINUOUS
 62
     4
 10
14913.659798999999
 20
8651.5491579999998
 30
0.0
 11
14913.659798999999
 21
9584.3200880000004
 31
0.0
  0
LINE
  5
39B5
  8
SUNPOU
  6
CONTINUOUS
 62
     4
 10
15063.658546000001
 20
8725.2082354124323
 30
0.0
 11
15063.658546000001
 21
9584.3200880000004
 31
0.0
  0
LINE
  5
39B6
  8
SUNPOU
  6
CONTINUOUS
 62
     4
 10
14913.659798999999
 20
9504.3200880000004
 30
0.0
 11
14673.659798999999
 21
9504.3200880000004
 31
0.0
  0
LINE
  5
39B7
  8
SUNPOU
  6
CONTINUOUS
 62
     4
 10
15063.658546000001
 20
9504.3200880000004
 30
0.0
 11
15303.658546000001
 21
9504.3200880000004
 31
0.0
  0
LINE
  5
39B8
  8
SUNPOU
  6
CONTINUOUS
 62
     4
 10
14913.659798999999
 20
9504.3200880000004
 30
0.0
 11
15063.658546000001
 21
9504.3200880000004
 31
0.0
  0
LINE
  5
39B9
  8
SUNPOU
  6
CONTINUOUS
 62
     4
 10
8992.6572919999981
 20
8469.4007859999983
 30
0.0
 11
8992.6572919999981
 21
9584.3200880000004
 31
0.0
  0
LINE
  5
39BA
  8
SUNPOU
  6
CONTINUOUS
 62
     4
 10
14913.659798999999
 20
8651.5491579999998
 30
0.0
 11
14913.659798999999
 21
9584.3200880000004
 31
0.0
  0
LINE
  5
39BB
  8
SUNPOU
  6
CONTINUOUS
 62
     4
 10
8992.6572919999981
 20
9504.3200880000004
 30
0.0
 11
14913.659798999999
 21
9504.3200880000004
 31
0.0
  0
LINE
  5
39BC
  8
SUNPOU
  6
CONTINUOUS
 62
     4
 10
8812.6585459999988
 20
8593.3184120000024
 30
0.0
 11
8812.6585459999988
 21
9584.3200880000004
 31
0.0
  0
LINE
  5
39BD
  8
SUNPOU
  6
CONTINUOUS
 62
     4
 10
8992.6572919999981
 20
8469.4007859999983
 30
0.0
 11
8992.6572919999981
 21
9584.3200880000004
 31
0.0
  0
LINE
  5
39BE
  8
SUNPOU
  6
CONTINUOUS
 62
     4
 10
8812.6585459999988
 20
9504.3200880000004
 30
0.0
 11
8992.6572919999981
 21
9504.3200880000004
 31
0.0
  0
LINE
  5
39BF
  8
SUNPOU
  6
CONTINUOUS
 62
     4
 10
8905.1585459999988
 20
6356.3194020000001
 30
0.0
 11
7822.660127999995
 21
6356.319402000001
 31
0.0
  0
LINE
  5
39C0
  8
SUNPOU
  6
CONTINUOUS
 62
     4
 10
8732.6605239999917
 20
8512.819402000001
 30
0.0
 11
7822.660127999995
 21
8512.819402000001
 31
0.0
  0
LINE
  5
39C1
  8
SUNPOU
  6
CONTINUOUS
 62
     4
 10
7902.6601279999977
 20
6356.319402000001
 30
0.0
 11
7902.6601279999977
 21
8512.819402000001
 31
0.0
  0
LINE
  5
39C2
  8
SUNPOU
  6
CONTINUOUS
 62
     4
 10
15006.158546000001
 20
6356.3194020000001
 30
0.0
 11
16083.65795099999
 21
6356.319402000001
 31
0.0
  0
LINE
  5
39C3
  8
SUNPOU
  6
CONTINUOUS
 62
     4
 10
15098.464814599371
 20
8704.8194019999955
 30
0.0
 11
16083.65795099999
 21
8704.8194019999955
 31
0.0
  0
LINE
  5
39C4
  8
SUNPOU
  6
CONTINUOUS
 62
     4
 10
16003.65795099999
 20
6356.319402000001
 30
0.0
 11
16003.65795099999
 21
8704.8194019999955
 31
0.0
  0
LINE
  5
39C5
  8
SUNPOU
  6
CONTINUOUS
 62
     4
 10
8992.6585460000006
 20
6276.3189070000053
 30
0.0
 11
8992.6585460000006
 21
4576.3192370000006
 31
0.0
  0
LINE
  5
39C6
  8
SUNPOU
  6
CONTINUOUS
 62
     4
 10
14913.658546000001
 20
6276.3189070000053
 30
0.0
 11
14913.658546000001
 21
4576.3192370000006
 31
0.0
  0
LINE
  5
39C7
  8
SUNPOU
  6
CONTINUOUS
 62
     4
 10
8992.6585460000006
 20
4656.3192370000006
 30
0.0
 11
14913.658546000001
 21
4656.3192370000006
 31
0.0
  0
LINE
  5
39C8
  8
SUNPOU
  6
CONTINUOUS
 62
     4
 10
14871.158546000001
 20
5913.6666490000034
 30
0.0
 11
14871.158546000001
 21
4976.3190720000021
 31
0.0
  0
LINE
  5
39C9
  8
SUNPOU
  6
CONTINUOUS
 62
     4
 10
14913.658546000001
 20
6276.3189070000053
 30
0.0
 11
14913.658546000001
 21
4976.3190720000021
 31
0.0
  0
LINE
  5
39CA
  8
SUNPOU
  6
CONTINUOUS
 62
     4
 10
14871.158546000001
 20
5056.3190720000021
 30
0.0
 11
14631.15854599999
 21
5056.3190720000021
 31
0.0
  0
LINE
  5
39CB
  8
SUNPOU
  6
CONTINUOUS
 62
     4
 10
14913.658546000001
 20
5056.3190720000021
 30
0.0
 11
15153.658546000001
 21
5056.3190720000021
 31
0.0
  0
LINE
  5
39CC
  8
SUNPOU
  6
CONTINUOUS
 62
     4
 10
14871.158546000001
 20
5056.3190720000021
 30
0.0
 11
14913.658546000001
 21
5056.3190720000021
 31
0.0
  0
LINE
  5
39CD
  8
SUNPOU
  6
CONTINUOUS
 62
     4
 10
9035.1585460000006
 20
5913.6666490000034
 30
0.0
 11
9035.1585460000006
 21
4976.3190720000021
 31
0.0
  0
LINE
  5
39CE
  8
SUNPOU
  6
CONTINUOUS
 62
     4
 10
8992.6585460000006
 20
6276.3189070000053
 30
0.0
 11
8992.6585460000006
 21
4976.3190720000021
 31
0.0
  0
LINE
  5
39CF
  8
SUNPOU
  6
CONTINUOUS
 62
     4
 10
9035.1585460000006
 20
5056.3190720000021
 30
0.0
 11
9275.1585459999988
 21
5056.3190720000021
 31
0.0
  0
LINE
  5
39D0
  8
SUNPOU
  6
CONTINUOUS
 62
     4
 10
8992.6585460000006
 20
5056.3190720000021
 30
0.0
 11
8752.6585460000006
 21
5056.3190720000021
 31
0.0
  0
LINE
  5
39D1
  8
SUNPOU
  6
CONTINUOUS
 62
     4
 10
9035.1585460000006
 20
5056.3190720000021
 30
0.0
 11
8992.6585460000006
 21
5056.3190720000021
 31
0.0
  0
LINE
  5
39D2
  8
SUNPOU
  6
CONTINUOUS
 62
     4
 10
11953.158546000001
 20
5913.6666490000034
 30
0.0
 11
11953.158546000001
 21
4976.3190720000021
 31
0.0
  0
LINE
  5
39D3
  8
SUNPOU
  6
CONTINUOUS
 62
     4
 10
9035.1585460000006
 20
5913.6666490000034
 30
0.0
 11
9035.1585460000006
 21
4976.3190720000021
 31
0.0
  0
LINE
  5
39D4
  8
SUNPOU
  6
CONTINUOUS
 62
     4
 10
11953.158546000001
 20
5056.3190720000021
 30
0.0
 11
9035.1585460000006
 21
5056.3190720000021
 31
0.0
  0
LINE
  5
39D5
  8
SUNPOU
  6
CONTINUOUS
 62
     4
 10
11953.158546000001
 20
5913.6666490000034
 30
0.0
 11
11953.158546000001
 21
4976.3190720000021
 31
0.0
  0
LINE
  5
39D6
  8
SUNPOU
  6
CONTINUOUS
 62
     4
 10
14871.158546000001
 20
5913.6666490000034
 30
0.0
 11
14871.158546000001
 21
4976.3190720000021
 31
0.0
  0
LINE
  5
39D7
  8
SUNPOU
  6
CONTINUOUS
 62
     4
 10
11953.158546000001
 20
5056.3190720000021
 30
0.0
 11
14871.158546000001
 21
5056.3190720000021
 31
0.0
  0
TEXT
  5
39D8
  8
0
  6
CONTINUOUS
 62
     7
 10
13145.491879333331
 20
5136.3190720000021
 30
0.0
 40
160.0
  1
2918
  0
TEXT
  5
39D9
  8
0
  6
CONTINUOUS
 62
     7
 10
10227.491879333331
 20
5136.3190720000021
 30
0.0
 40
160.0
  1
2918
  0
TEXT
  5
39DA
  8
0
  6
CONTINUOUS
 62
     7
 10
8395.4848369036918
 20
5136.3190720000021
 30
0.0
 40
160.0
  1
42.5
  0
TEXT
  5
39DB
  8
0
  6
CONTINUOUS
 62
     7
 10
15051.977183309809
 20
5136.3190720000021
 30
0.0
 40
160.0
  1
42.5
  0
TEXT
  5
39DC
  8
0
  6
CONTINUOUS
 62
     7
 10
11686.491879333331
 20
4736.3192370000006
 30
0.0
 40
160.0
  1
5921
  0
TEXT
  5
39DD
  8
0
  6
CONTINUOUS
 62
     7
 10
15923.65795099999
 20
6511.9027353333349
 30
0.0
 40
160.0
  1
2348.5（2588.5）
 50
90.0
  0
TEXT
  5
39DE
  8
0
  6
CONTINUOUS
 62
     7
 10
7822.660127999995
 20
6442.5694020000019
 30
0.0
 40
160.0
  1
2156.5（2396.5）
 50
90.0
  0
TEXT
  5
39DF
  8
0
  6
CONTINUOUS
 62
     7
 10
8399.3252126666648
 20
9584.3200880000004
 30
0.0
 40
160.0
  1
180
  0
TEXT
  5
39E0
  8
0
  6
CONTINUOUS
 62
     7
 10
11686.491878833331
 20
9584.3200880000004
 30
0.0
 40
160.0
  1
5921
  0
TEXT
  5
39E1
  8
0
  6
CONTINUOUS
 62
     7
 10
15130.325212666659
 20
9584.3200880000004
 30
0.0
 40
160.0
  1
150
  0
TEXT
  5
39E2
  8
0
  6
CONTINUOUS
 62
     7
 10
11671.491879333331
 20
9984.3184379999984
 30
0.0
 40
160.0
  1
6251
  0
TEXT
  5
39E3
  8
0
  6
CONTINUOUS
 62
     7
 10
20974.080676666668
 20
20744.232102000031
 30
0.0
 40
160.0
  1
701
  0
TEXT
  5
39E4
  8
0
  6
CONTINUOUS
 62
     7
 10
21675.080676666668
 20
20744.232102000031
 30
0.0
 40
160.0
  1
701
  0
TEXT
  5
39E5
  8
0
  6
CONTINUOUS
 62
     7
 10
22364.58117141667
 20
20744.232102000031
 30
0.0
 40
160.0
  1
758
  0
TEXT
  5
39E6
  8
0
  6
CONTINUOUS
 62
     7
 10
19436.1020304712
 20
20744.232102000031
 30
0.0
 40
160.0
  1
42.5
  0
TEXT
  5
39E7
  8
0
  6
CONTINUOUS
 62
     7
 10
24946.22598952879
 20
20744.232102000031
 30
0.0
 40
160.0
  1
42.5
  0
TEXT
  5
39E8
  8
0
  6
CONTINUOUS
 62
     7
 10
24231.08117141667
 20
20744.232102000031
 30
0.0
 40
160.0
  1
758
  0
TEXT
  5
39E9
  8
0
  6
CONTINUOUS
 62
     7
 10
26235.913614000001
 20
13439.6773826032
 30
0.0
 40
160.0
  1
42.5
 50
90.0
  0
TEXT
  5
39EA
  8
0
  6
CONTINUOUS
 62
     7
 10
26235.913614000001
 20
20027.784445396788
 30
0.0
 40
160.0
  1
42.5
 50
90.0
  0
TEXT
  5
39EB
  8
0
  6
CONTINUOUS
 62
     7
 10
26635.91361399999
 20
16707.064247333339
 30
0.0
 40
160.0
  1
5921
 50
90.0
  0
TEXT
  5
39EC
  8
0
  6
CONTINUOUS
 62
     7
 10
26235.91361399999
 20
15248.06424733333
 30
0.0
 40
160.0
  1
2918
 50
90.0
  0
TEXT
  5
39ED
  8
0
  6
CONTINUOUS
 62
     7
 10
26235.91361399999
 20
18166.064247333321
 30
0.0
 40
160.0
  1
2918
 50
90.0
  0
TEXT
  5
39EE
  8
0
  6
CONTINUOUS
 62
     7
 10
25835.91361399999
 20
19299.397580666671
 30
0.0
 40
160.0
  1
758
 50
90.0
  0
TEXT
  5
39EF
  8
0
  6
CONTINUOUS
 62
     7
 10
25835.91361399999
 20
18609.897580666671
 30
0.0
 40
160.0
  1
701
 50
90.0
  0
TEXT
  5
39F0
  8
0
  6
CONTINUOUS
 62
     7
 10
25835.91361399999
 20
17908.897580666671
 30
0.0
 40
160.0
  1
701
 50
90.0
  0
TEXT
  5
39F1
  8
0
  6
CONTINUOUS
 62
     7
 10
25835.91361399999
 20
17139.397580666671
 30
0.0
 40
160.0
  1
758
 50
90.0
  0
TEXT
  5
39F2
  8
0
  6
CONTINUOUS
 62
     7
 10
25835.91361399999
 20
16381.39758066666
 30
0.0
 40
160.0
  1
758
 50
90.0
  0
TEXT
  5
39F3
  8
0
  6
CONTINUOUS
 62
     7
 10
25835.91361399999
 20
15692.01783641668
 30
0.0
 40
160.0
  1
701
 50
90.0
  0
TEXT
  5
39F4
  8
0
  6
CONTINUOUS
 62
     7
 10
25835.91361399999
 20
14991.01783641668
 30
0.0
 40
160.0
  1
701
 50
90.0
  0
TEXT
  5
39F5
  8
0
  6
CONTINUOUS
 62
     7
 10
25835.91361399999
 20
14221.39758066666
 30
0.0
 40
160.0
  1
758
 50
90.0
  0
TEXT
  5
39F6
  8
0
  6
CONTINUOUS
 62
     7
 10
22031.16400999999
 20
12764.282829999989
 30
0.0
 40
160.0
  1
4869.5
  0
TEXT
  5
39F7
  8
0
  6
CONTINUOUS
 62
     7
 10
20156.967682382081
 20
13164.28283
 30
0.0
 40
160.0
  1
42.5
  0
TEXT
  5
39F8
  8
0
  6
CONTINUOUS
 62
     7
 10
24225.360337617909
 20
13164.28283
 30
0.0
 40
160.0
  1
42.5
  0
TEXT
  5
39F9
  8
0
  6
CONTINUOUS
 62
     7
 10
24941.467682382081
 20
13164.28283
 30
0.0
 40
160.0
  1
42.5
  0
TEXT
  5
39FA
  8
0
  6
CONTINUOUS
 62
     7
 10
19440.860337617902
 20
13164.28283
 30
0.0
 40
160.0
  1
42.5
  0
TEXT
  5
39FB
  8
0
  6
CONTINUOUS
 62
     7
 10
22031.164008999989
 20
4736.3202269999929
 30
0.0
 40
160.0
  1
4869.5
  0
TEXT
  5
39FC
  8
0
  6
CONTINUOUS
 62
     7
 10
19430.375018741121
 20
5136.3200619999989
 30
0.0
 40
160.0
  1
42.5
  0
TEXT
  5
39FD
  8
0
  6
CONTINUOUS
 62
     7
 10
24951.95695825883
 20
5136.3200619999989
 30
0.0
 40
160.0
  1
42.5
  0
TEXT
  5
39FE
  8
0
  6
CONTINUOUS
 62
     7
 10
21231.247342333321
 20
5136.3200619999989
 30
0.0
 40
160.0
  1
2918
  0
TEXT
  5
39FF
  8
0
  6
CONTINUOUS
 62
     7
 10
23516.830675666661
 20
5136.3200619999989
 30
0.0
 40
160.0
  1
1866.5
  0
TEXT
  5
3A00
  8
0
  6
CONTINUOUS
 62
     7
 10
23426.164008999989
 20
5802.9867286666649
 30
0.0
 40
160.0
  1
有効開口巾
  0
TEXT
  5
3A01
  8
0
  6
CONTINUOUS
 62
     7
 10
23516.830675666661
 20
5536.3200619999971
 30
0.0
 40
160.0
  1
1678.5
  0
TEXT
  5
3A02
  8
0
  6
CONTINUOUS
 62
     7
 10
20689.914008999989
 20
5536.3200619999971
 30
0.0
 40
160.0
  1
有効開口巾 2730
  0
TEXT
  5
3A07
  8
0
  6
CONTINUOUS
 62
     7
 10
18708.91235999998
 20
6511.9029828333332
 30
0.0
 40
160.0
  1
2348.5（2588.5）
 50
90.0
  0
TEXT
  5
3A08
  8
0
  6
CONTINUOUS
 62
     7
 10
19108.914668999969
 20
6420.2991352912723
 30
0.0
 40
160.0
  1
有効開口高サ 1891.5
 50
90.0
  0
TEXT
  5
3A09
  8
0
  6
CONTINUOUS
 62
     7
 10
20204.580676666668
 20
20744.232102000031
 30
0.0
 40
160.0
  1
758
  0
TEXT
  5
3A0A
  8
0
  6
CONTINUOUS
 62
     7
 10
23541.580676666661
 20
20424.232102000031
 30
0.0
 40
160.0
  1
701
  0
TEXT
  5
3A0B
  8
0
  6
CONTINUOUS
 62
     7
 10
23057.747343333322
 20
20744.232102000031
 30
0.0
 40
160.0
  1
407.5
  0
TEXT
  5
3A0C
  8
0
  6
CONTINUOUS
 62
     7
 10
10297.659452333321
 20
20744.232102000031
 30
0.0
 40
160.0
  1
2918
  0
TEXT
  5
3A0D
  8
0
  6
CONTINUOUS
 62
     7
 10
8488.8294129767364
 20
20744.232102000031
 30
0.0
 40
160.0
  1
85.5
  0
TEXT
  5
3A0E
  8
0
  6
CONTINUOUS
 62
     7
 10
12583.242785666651
 20
20744.232102000031
 30
0.0
 40
160.0
  1
1866.5
  0
TEXT
  5
3A0F
  8
0
  6
CONTINUOUS
 62
     7
 10
14026.32282502325
 20
20744.232102000031
 30
0.0
 40
160.0
  1
85.5
  0
TEXT
  5
3A10
  8
0
  6
CONTINUOUS
 62
     7
 10
8095.8278279999904
 20
18166.064247333321
 30
0.0
 40
160.0
  1
2918
 50
90.0
  0
TEXT
  5
3A11
  8
0
  6
CONTINUOUS
 62
     7
 10
8095.827827999995
 20
20203.186098807681
 30
0.0
 40
160.0
  1
222.5
 50
90.0
  0
TEXT
  5
3A12
  8
0
  6
CONTINUOUS
 62
     7
 10
8495.827827999994
 20
20260.89348966668
 30
0.0
 40
160.0
  1
10
 50
90.0
  0
TEXT
  5
3A13
  8
0
  6
CONTINUOUS
 62
     7
 10
8095.827827999995
 20
15248.06424733333
 30
0.0
 40
160.0
  1
2918
 50
90.0
  0
TEXT
  5
3A14
  8
0
  6
CONTINUOUS
 62
     7
 10
8095.8278279999904
 20
13247.77790370263
 30
0.0
 40
160.0
  1
192.5
 50
90.0
  0
ARC
  5
3A1A
  8
0
  6
BYBLOCK
 62
     0
 10
8175.8278279999931
 20
14055.730913999991
 30
0.0
 40
15.0
 50
270.0
 51
90.0
  0
ARC
  5
3A1B
  8
0
  6
BYBLOCK
 62
     0
 10
8175.8278279999931
 20
14055.730913999991
 30
0.0
 40
15.0
 50
90.0
 51
270.0
  0
ARC
  5
3A1C
  8
0
  6
BYBLOCK
 62
     0
 10
8175.8278279999931
 20
13863.235599
 30
0.0
 40
15.0
 50
90.0
 51
270.0
  0
ARC
  5
3A1D
  8
0
  6
BYBLOCK
 62
     0
 10
8175.8278279999931
 20
13863.235599
 30
0.0
 40
15.0
 50
270.0
 51
90.0
  0
ARC
  5
3A1E
  8
0
  6
BYBLOCK
 62
     0
 10
8175.827827999995
 20
16973.730914
 30
0.0
 40
15.0
 50
270.0
 51
90.0
  0
ARC
  5
3A1F
  8
0
  6
BYBLOCK
 62
     0
 10
8175.827827999995
 20
16973.730914
 30
0.0
 40
15.0
 50
90.0
 51
270.0
  0
ARC
  5
3A20
  8
0
  6
BYBLOCK
 62
     0
 10
8175.8278279999931
 20
14055.730913999991
 30
0.0
 40
15.0
 50
90.0
 51
270.0
  0
ARC
  5
3A21
  8
0
  6
BYBLOCK
 62
     0
 10
8175.8278279999931
 20
14055.730913999991
 30
0.0
 40
15.0
 50
270.0
 51
90.0
  0
ARC
  5
3A22
  8
0
  6
BYBLOCK
 62
     0
 10
8575.827827999994
 20
20104.226823000012
 30
0.0
 40
15.0
 50
270.0
 51
90.0
  0
ARC
  5
3A23
  8
0
  6
BYBLOCK
 62
     0
 10
8575.827827999994
 20
20104.226823000012
 30
0.0
 40
15.0
 50
90.0
 51
270.0
  0
ARC
  5
3A24
  8
0
  6
BYBLOCK
 62
     0
 10
8575.827827999994
 20
20114.226823000001
 30
0.0
 40
15.0
 50
90.0
 51
270.0
  0
ARC
  5
3A25
  8
0
  6
BYBLOCK
 62
     0
 10
8575.827827999994
 20
20114.226823000001
 30
0.0
 40
15.0
 50
270.0
 51
90.0
  0
ARC
  5
3A26
  8
0
  6
BYBLOCK
 62
     0
 10
8175.8278279999931
 20
19891.730914
 30
0.0
 40
15.0
 50
90.0
 51
270.0
  0
ARC
  5
3A27
  8
0
  6
BYBLOCK
 62
     0
 10
8175.8278279999931
 20
19891.730914
 30
0.0
 40
15.0
 50
270.0
 51
90.0
  0
ARC
  5
3A28
  8
0
  6
BYBLOCK
 62
     0
 10
8175.8278279999931
 20
20114.226823000001
 30
0.0
 40
15.0
 50
270.0
 51
90.0
  0
ARC
  5
3A29
  8
0
  6
BYBLOCK
 62
     0
 10
8175.8278279999931
 20
20114.226823000001
 30
0.0
 40
15.0
 50
90.0
 51
270.0
  0
ARC
  5
3A2A
  8
0
  6
BYBLOCK
 62
     0
 10
8175.8278279999931
 20
16973.730914
 30
0.0
 40
15.0
 50
90.0
 51
270.0
  0
ARC
  5
3A2B
  8
0
  6
BYBLOCK
 62
     0
 10
8175.8278279999931
 20
16973.730914
 30
0.0
 40
15.0
 50
270.0
 51
90.0
  0
ARC
  5
3A2C
  8
0
  6
BYBLOCK
 62
     0
 10
8175.8278279999931
 20
19891.730914
 30
0.0
 40
15.0
 50
270.0
 51
90.0
  0
ARC
  5
3A2D
  8
0
  6
BYBLOCK
 62
     0
 10
8175.8278279999931
 20
19891.730914
 30
0.0
 40
15.0
 50
90.0
 51
270.0
  0
ARC
  5
3A2E
  8
0
  6
BYBLOCK
 62
     0
 10
13889.82611899999
 20
20664.232102000031
 30
0.0
 40
15.0
 50
180.0
 51
0.0
  0
ARC
  5
3A2F
  8
0
  6
BYBLOCK
 62
     0
 10
13889.82611899999
 20
20664.232102000031
 30
0.0
 40
15.0
 50
0.0
 51
180.0
  0
ARC
  5
3A30
  8
0
  6
BYBLOCK
 62
     0
 10
13975.32611899999
 20
20664.232102000031
 30
0.0
 40
15.0
 50
0.0
 51
180.0
  0
ARC
  5
3A31
  8
0
  6
BYBLOCK
 62
     0
 10
13975.32611899999
 20
20664.232102000031
 30
0.0
 40
15.0
 50
180.0
 51
0.0
  0
ARC
  5
3A32
  8
0
  6
BYBLOCK
 62
     0
 10
12023.32611899999
 20
20664.232102000031
 30
0.0
 40
15.0
 50
0.0
 51
180.0
  0
ARC
  5
3A33
  8
0
  6
BYBLOCK
 62
     0
 10
12023.32611899999
 20
20664.232102000031
 30
0.0
 40
15.0
 50
180.0
 51
0.0
  0
ARC
  5
3A34
  8
0
  6
BYBLOCK
 62
     0
 10
13889.82611899999
 20
20664.232102000031
 30
0.0
 40
15.0
 50
180.0
 51
0.0
  0
ARC
  5
3A35
  8
0
  6
BYBLOCK
 62
     0
 10
13889.82611899999
 20
20664.232102000031
 30
0.0
 40
15.0
 50
0.0
 51
180.0
  0
ARC
  5
3A36
  8
0
  6
BYBLOCK
 62
     0
 10
9105.3261189999994
 20
20664.232102000031
 30
0.0
 40
15.0
 50
0.0
 51
180.0
  0
ARC
  5
3A37
  8
0
  6
BYBLOCK
 62
     0
 10
9105.3261189999994
 20
20664.232102000031
 30
0.0
 40
15.0
 50
180.0
 51
0.0
  0
ARC
  5
3A38
  8
0
  6
BYBLOCK
 62
     0
 10
9019.8261189999994
 20
20664.232102000031
 30
0.0
 40
15.0
 50
180.0
 51
0.0
  0
ARC
  5
3A39
  8
0
  6
BYBLOCK
 62
     0
 10
9019.8261189999994
 20
20664.232102000031
 30
0.0
 40
15.0
 50
0.0
 51
180.0
  0
ARC
  5
3A3A
  8
0
  6
BYBLOCK
 62
     0
 10
12023.32611899999
 20
20664.232102000031
 30
0.0
 40
15.0
 50
180.0
 51
0.0
  0
ARC
  5
3A3B
  8
0
  6
BYBLOCK
 62
     0
 10
12023.32611899999
 20
20664.232102000031
 30
0.0
 40
15.0
 50
0.0
 51
180.0
  0
ARC
  5
3A3C
  8
0
  6
BYBLOCK
 62
     0
 10
9105.3261189999994
 20
20664.232102000031
 30
0.0
 40
15.0
 50
0.0
 51
180.0
  0
ARC
  5
3A3D
  8
0
  6
BYBLOCK
 62
     0
 10
9105.3261189999994
 20
20664.232102000031
 30
0.0
 40
15.0
 50
180.0
 51
0.0
  0
ARC
  5
3A3E
  8
0
  6
BYBLOCK
 62
     0
 10
22956.91401
 20
20664.232102000031
 30
0.0
 40
15.0
 50
0.0
 51
180.0
  0
ARC
  5
3A3F
  8
0
  6
BYBLOCK
 62
     0
 10
22956.91401
 20
20664.232102000031
 30
0.0
 40
15.0
 50
180.0
 51
0.0
  0
ARC
  5
3A40
  8
0
  6
BYBLOCK
 62
     0
 10
23364.41401
 20
20664.232102000031
 30
0.0
 40
15.0
 50
180.0
 51
0.0
  0
ARC
  5
3A41
  8
0
  6
BYBLOCK
 62
     0
 10
23364.41401
 20
20664.232102000031
 30
0.0
 40
15.0
 50
0.0
 51
180.0
  0
ARC
  5
3A42
  8
0
  6
BYBLOCK
 62
     0
 10
23364.41401
 20
20664.232102000031
 30
0.0
 40
15.0
 50
0.0
 51
180.0
  0
ARC
  5
3A43
  8
0
  6
BYBLOCK
 62
     0
 10
23364.41401
 20
20664.232102000031
 30
0.0
 40
15.0
 50
180.0
 51
0.0
  0
ARC
  5
3A44
  8
0
  6
BYBLOCK
 62
     0
 10
24065.41401
 20
20664.232102000031
 30
0.0
 40
15.0
 50
180.0
 51
0.0
  0
ARC
  5
3A45
  8
0
  6
BYBLOCK
 62
     0
 10
24065.41401
 20
20664.232102000031
 30
0.0
 40
15.0
 50
0.0
 51
180.0
  0
ARC
  5
3A46
  8
0
  6
BYBLOCK
 62
     0
 10
20038.91401
 20
20664.232102000031
 30
0.0
 40
15.0
 50
0.0
 51
180.0
  0
ARC
  5
3A47
  8
0
  6
BYBLOCK
 62
     0
 10
20038.91401
 20
20664.232102000031
 30
0.0
 40
15.0
 50
180.0
 51
0.0
  0
ARC
  5
3A48
  8
0
  6
BYBLOCK
 62
     0
 10
20796.91401
 20
20664.232102000031
 30
0.0
 40
15.0
 50
180.0
 51
0.0
  0
ARC
  5
3A49
  8
0
  6
BYBLOCK
 62
     0
 10
20796.91401
 20
20664.232102000031
 30
0.0
 40
15.0
 50
0.0
 51
180.0
  0
ARC
  5
3A4A
  8
0
  6
BYBLOCK
 62
     0
 10
19188.91466899998
 20
6356.3198969999958
 30
0.0
 40
15.0
 50
90.0
 51
270.0
  0
ARC
  5
3A4B
  8
0
  6
BYBLOCK
 62
     0
 10
19188.91466899998
 20
6356.3198969999958
 30
0.0
 40
15.0
 50
270.0
 51
90.0
  0
ARC
  5
3A4C
  8
0
  6
BYBLOCK
 62
     0
 10
19188.91466899998
 20
8247.8198969999976
 30
0.0
 40
15.0
 50
270.0
 51
90.0
  0
ARC
  5
3A4D
  8
0
  6
BYBLOCK
 62
     0
 10
19188.91466899998
 20
8247.8198969999976
 30
0.0
 40
15.0
 50
90.0
 51
270.0
  0
ARC
  5
3A4E
  8
0
  6
BYBLOCK
 62
     0
 10
18788.912359999958
 20
6356.3198969999958
 30
0.0
 40
15.0
 50
90.0
 51
270.0
  0
ARC
  5
3A4F
  8
0
  6
BYBLOCK
 62
     0
 10
18788.912359999958
 20
6356.3198969999958
 30
0.0
 40
15.0
 50
270.0
 51
90.0
  0
ARC
  5
3A50
  8
0
  6
BYBLOCK
 62
     0
 10
18788.912359999969
 20
8704.8194019999955
 30
0.0
 40
15.0
 50
270.0
 51
90.0
  0
ARC
  5
3A51
  8
0
  6
BYBLOCK
 62
     0
 10
18788.912359999969
 20
8704.8194019999955
 30
0.0
 40
15.0
 50
90.0
 51
270.0
  0
ARC
  5
3A62
  8
0
  6
BYBLOCK
 62
     0
 10
20132.914008999989
 20
5456.3200619999989
 30
0.0
 40
15.0
 50
0.0
 51
180.0
  0
ARC
  5
3A63
  8
0
  6
BYBLOCK
 62
     0
 10
20132.914008999989
 20
5456.3200619999989
 30
0.0
 40
15.0
 50
180.0
 51
0.0
  0
ARC
  5
3A64
  8
0
  6
BYBLOCK
 62
     0
 10
22862.914008999978
 20
5456.3200619999989
 30
0.0
 40
15.0
 50
180.0
 51
0.0
  0
ARC
  5
3A65
  8
0
  6
BYBLOCK
 62
     0
 10
22862.914008999978
 20
5456.3200619999989
 30
0.0
 40
15.0
 50
0.0
 51
180.0
  0
ARC
  5
3A66
  8
0
  6
BYBLOCK
 62
     0
 10
23050.914008999971
 20
5456.3200619999989
 30
0.0
 40
15.0
 50
0.0
 51
180.0
  0
ARC
  5
3A67
  8
0
  6
BYBLOCK
 62
     0
 10
23050.914008999971
 20
5456.3200619999989
 30
0.0
 40
15.0
 50
180.0
 51
0.0
  0
ARC
  5
3A68
  8
0
  6
BYBLOCK
 62
     0
 10
24729.414008999989
 20
5456.3200619999989
 30
0.0
 40
15.0
 50
180.0
 51
0.0
  0
ARC
  5
3A69
  8
0
  6
BYBLOCK
 62
     0
 10
24729.414008999989
 20
5456.3200619999989
 30
0.0
 40
15.0
 50
0.0
 51
180.0
  0
ARC
  5
3A6A
  8
0
  6
BYBLOCK
 62
     0
 10
22956.914008999989
 20
5056.3200619999989
 30
0.0
 40
15.0
 50
0.0
 51
180.0
  0
ARC
  5
3A6B
  8
0
  6
BYBLOCK
 62
     0
 10
22956.914008999989
 20
5056.3200619999989
 30
0.0
 40
15.0
 50
180.0
 51
0.0
  0
ARC
  5
3A6C
  8
0
  6
BYBLOCK
 62
     0
 10
24823.414008999978
 20
5056.3200619999989
 30
0.0
 40
15.0
 50
180.0
 51
0.0
  0
ARC
  5
3A6D
  8
0
  6
BYBLOCK
 62
     0
 10
24823.414008999978
 20
5056.3200619999989
 30
0.0
 40
15.0
 50
0.0
 51
180.0
  0
ARC
  5
3A6E
  8
0
  6
BYBLOCK
 62
     0
 10
20038.914008999978
 20
5056.3200619999989
 30
0.0
 40
15.0
 50
0.0
 51
180.0
  0
ARC
  5
3A6F
  8
0
  6
BYBLOCK
 62
     0
 10
20038.914008999978
 20
5056.3200619999989
 30
0.0
 40
15.0
 50
180.0
 51
0.0
  0
ARC
  5
3A70
  8
0
  6
BYBLOCK
 62
     0
 10
22956.914008999989
 20
5056.3200619999989
 30
0.0
 40
15.0
 50
180.0
 51
0.0
  0
ARC
  5
3A71
  8
0
  6
BYBLOCK
 62
     0
 10
22956.914008999989
 20
5056.3200619999989
 30
0.0
 40
15.0
 50
0.0
 51
180.0
  0
ARC
  5
3A72
  8
0
  6
BYBLOCK
 62
     0
 10
24823.417968000002
 20
5056.3200619999989
 30
0.0
 40
15.0
 50
180.0
 51
0.0
  0
ARC
  5
3A73
  8
0
  6
BYBLOCK
 62
     0
 10
24823.417968000002
 20
5056.3200619999989
 30
0.0
 40
15.0
 50
0.0
 51
180.0
  0
ARC
  5
3A74
  8
0
  6
BYBLOCK
 62
     0
 10
24865.917967999991
 20
5056.3200619999989
 30
0.0
 40
15.0
 50
0.0
 51
180.0
  0
ARC
  5
3A75
  8
0
  6
BYBLOCK
 62
     0
 10
24865.917967999991
 20
5056.3200619999989
 30
0.0
 40
15.0
 50
180.0
 51
0.0
  0
ARC
  5
3A76
  8
0
  6
BYBLOCK
 62
     0
 10
20038.914008999978
 20
5056.3200619999989
 30
0.0
 40
15.0
 50
0.0
 51
180.0
  0
ARC
  5
3A77
  8
0
  6
BYBLOCK
 62
     0
 10
20038.914008999978
 20
5056.3200619999989
 30
0.0
 40
15.0
 50
180.0
 51
0.0
  0
ARC
  5
3A78
  8
0
  6
BYBLOCK
 62
     0
 10
19996.41400899996
 20
5056.3200619999989
 30
0.0
 40
15.0
 50
180.0
 51
0.0
  0
ARC
  5
3A79
  8
0
  6
BYBLOCK
 62
     0
 10
19996.41400899996
 20
5056.3200619999989
 30
0.0
 40
15.0
 50
0.0
 51
180.0
  0
ARC
  5
3A7A
  8
0
  6
BYBLOCK
 62
     0
 10
19996.41400899996
 20
4656.3202269999974
 30
0.0
 40
15.0
 50
0.0
 51
180.0
  0
ARC
  5
3A7B
  8
0
  6
BYBLOCK
 62
     0
 10
19996.41400899996
 20
4656.3202269999974
 30
0.0
 40
15.0
 50
180.0
 51
0.0
  0
ARC
  5
3A7C
  8
0
  6
BYBLOCK
 62
     0
 10
24865.914008999989
 20
4656.3202269999974
 30
0.0
 40
15.0
 50
180.0
 51
0.0
  0
ARC
  5
3A7D
  8
0
  6
BYBLOCK
 62
     0
 10
24865.914008999989
 20
4656.3202269999974
 30
0.0
 40
15.0
 50
0.0
 51
180.0
  0
ARC
  5
3A7E
  8
0
  6
BYBLOCK
 62
     0
 10
20038.91401
 20
13084.28283
 30
0.0
 40
15.0
 50
0.0
 51
180.0
  0
ARC
  5
3A7F
  8
0
  6
BYBLOCK
 62
     0
 10
20038.91401
 20
13084.28283
 30
0.0
 40
15.0
 50
180.0
 51
0.0
  0
ARC
  5
3A80
  8
0
  6
BYBLOCK
 62
     0
 10
19996.411767000001
 20
13084.28283
 30
0.0
 40
15.0
 50
180.0
 51
0.0
  0
ARC
  5
3A81
  8
0
  6
BYBLOCK
 62
     0
 10
19996.411767000001
 20
13084.28283
 30
0.0
 40
15.0
 50
0.0
 51
180.0
  0
ARC
  5
3A82
  8
0
  6
BYBLOCK
 62
     0
 10
24823.41401
 20
13084.28283
 30
0.0
 40
15.0
 50
180.0
 51
0.0
  0
ARC
  5
3A83
  8
0
  6
BYBLOCK
 62
     0
 10
24823.41401
 20
13084.28283
 30
0.0
 40
15.0
 50
0.0
 51
180.0
  0
ARC
  5
3A84
  8
0
  6
BYBLOCK
 62
     0
 10
24865.916252999989
 20
13084.28283
 30
0.0
 40
15.0
 50
0.0
 51
180.0
  0
ARC
  5
3A85
  8
0
  6
BYBLOCK
 62
     0
 10
24865.916252999989
 20
13084.28283
 30
0.0
 40
15.0
 50
180.0
 51
0.0
  0
ARC
  5
3A86
  8
0
  6
BYBLOCK
 62
     0
 10
24823.41401
 20
13084.28283
 30
0.0
 40
15.0
 50
0.0
 51
180.0
  0
ARC
  5
3A87
  8
0
  6
BYBLOCK
 62
     0
 10
24823.41401
 20
13084.28283
 30
0.0
 40
15.0
 50
180.0
 51
0.0
  0
ARC
  5
3A88
  8
0
  6
BYBLOCK
 62
     0
 10
24780.911767000001
 20
13084.28283
 30
0.0
 40
15.0
 50
180.0
 51
0.0
  0
ARC
  5
3A89
  8
0
  6
BYBLOCK
 62
     0
 10
24780.911767000001
 20
13084.28283
 30
0.0
 40
15.0
 50
0.0
 51
180.0
  0
ARC
  5
3A8A
  8
0
  6
BYBLOCK
 62
     0
 10
20038.91401
 20
13084.28283
 30
0.0
 40
15.0
 50
180.0
 51
0.0
  0
ARC
  5
3A8B
  8
0
  6
BYBLOCK
 62
     0
 10
20038.91401
 20
13084.28283
 30
0.0
 40
15.0
 50
0.0
 51
180.0
  0
ARC
  5
3A8C
  8
0
  6
BYBLOCK
 62
     0
 10
20081.416252999989
 20
13084.28283
 30
0.0
 40
15.0
 50
0.0
 51
180.0
  0
ARC
  5
3A8D
  8
0
  6
BYBLOCK
 62
     0
 10
20081.416252999989
 20
13084.28283
 30
0.0
 40
15.0
 50
180.0
 51
0.0
  0
ARC
  5
3A8E
  8
0
  6
BYBLOCK
 62
     0
 10
19996.411767000001
 20
12684.282829999989
 30
0.0
 40
15.0
 50
0.0
 51
180.0
  0
ARC
  5
3A8F
  8
0
  6
BYBLOCK
 62
     0
 10
19996.411767000001
 20
12684.282829999989
 30
0.0
 40
15.0
 50
180.0
 51
0.0
  0
ARC
  5
3A90
  8
0
  6
BYBLOCK
 62
     0
 10
24865.916252999989
 20
12684.282829999989
 30
0.0
 40
15.0
 50
180.0
 51
0.0
  0
ARC
  5
3A91
  8
0
  6
BYBLOCK
 62
     0
 10
24865.916252999989
 20
12684.282829999989
 30
0.0
 40
15.0
 50
0.0
 51
180.0
  0
ARC
  5
3A92
  8
0
  6
BYBLOCK
 62
     0
 10
25915.913614000001
 20
14813.730913999991
 30
0.0
 40
15.0
 50
270.0
 51
90.0
  0
ARC
  5
3A93
  8
0
  6
BYBLOCK
 62
     0
 10
25915.913614000001
 20
14813.730913999991
 30
0.0
 40
15.0
 50
90.0
 51
270.0
  0
ARC
  5
3A94
  8
0
  6
BYBLOCK
 62
     0
 10
25915.913614000001
 20
14055.730913999991
 30
0.0
 40
15.0
 50
90.0
 51
270.0
  0
ARC
  5
3A95
  8
0
  6
BYBLOCK
 62
     0
 10
25915.913614000001
 20
14055.730913999991
 30
0.0
 40
15.0
 50
270.0
 51
90.0
  0
ARC
  5
3A96
  8
0
  6
BYBLOCK
 62
     0
 10
25915.913614000001
 20
15514.971425500011
 30
0.0
 40
15.0
 50
270.0
 51
90.0
  0
ARC
  5
3A97
  8
0
  6
BYBLOCK
 62
     0
 10
25915.913614000001
 20
15514.971425500011
 30
0.0
 40
15.0
 50
90.0
 51
270.0
  0
ARC
  5
3A98
  8
0
  6
BYBLOCK
 62
     0
 10
25915.913614000001
 20
14813.730913999991
 30
0.0
 40
15.0
 50
90.0
 51
270.0
  0
ARC
  5
3A99
  8
0
  6
BYBLOCK
 62
     0
 10
25915.913614000001
 20
14813.730913999991
 30
0.0
 40
15.0
 50
270.0
 51
90.0
  0
ARC
  5
3A9A
  8
0
  6
BYBLOCK
 62
     0
 10
25915.913614000001
 20
16215.730913999991
 30
0.0
 40
15.0
 50
270.0
 51
90.0
  0
ARC
  5
3A9B
  8
0
  6
BYBLOCK
 62
     0
 10
25915.913614000001
 20
16215.730913999991
 30
0.0
 40
15.0
 50
90.0
 51
270.0
  0
ARC
  5
3A9C
  8
0
  6
BYBLOCK
 62
     0
 10
25915.913614000001
 20
15514.971425500011
 30
0.0
 40
15.0
 50
90.0
 51
270.0
  0
ARC
  5
3A9D
  8
0
  6
BYBLOCK
 62
     0
 10
25915.913614000001
 20
15514.971425500011
 30
0.0
 40
15.0
 50
270.0
 51
90.0
  0
ARC
  5
3A9E
  8
0
  6
BYBLOCK
 62
     0
 10
25915.913614000001
 20
16973.730914
 30
0.0
 40
15.0
 50
270.0
 51
90.0
  0
ARC
  5
3A9F
  8
0
  6
BYBLOCK
 62
     0
 10
25915.913614000001
 20
16973.730914
 30
0.0
 40
15.0
 50
90.0
 51
270.0
  0
ARC
  5
3AA0
  8
0
  6
BYBLOCK
 62
     0
 10
25915.913614000001
 20
16215.730913999991
 30
0.0
 40
15.0
 50
90.0
 51
270.0
  0
ARC
  5
3AA1
  8
0
  6
BYBLOCK
 62
     0
 10
25915.913614000001
 20
16215.730913999991
 30
0.0
 40
15.0
 50
270.0
 51
90.0
  0
ARC
  5
3AA2
  8
0
  6
BYBLOCK
 62
     0
 10
25915.913614000001
 20
17731.730914
 30
0.0
 40
15.0
 50
270.0
 51
90.0
  0
ARC
  5
3AA3
  8
0
  6
BYBLOCK
 62
     0
 10
25915.913614000001
 20
17731.730914
 30
0.0
 40
15.0
 50
90.0
 51
270.0
  0
ARC
  5
3AA4
  8
0
  6
BYBLOCK
 62
     0
 10
25915.913614000001
 20
16973.730914
 30
0.0
 40
15.0
 50
90.0
 51
270.0
  0
ARC
  5
3AA5
  8
0
  6
BYBLOCK
 62
     0
 10
25915.913614000001
 20
16973.730914
 30
0.0
 40
15.0
 50
270.0
 51
90.0
  0
ARC
  5
3AA6
  8
0
  6
BYBLOCK
 62
     0
 10
25915.913614000001
 20
18432.730914
 30
0.0
 40
15.0
 50
270.0
 51
90.0
  0
ARC
  5
3AA7
  8
0
  6
BYBLOCK
 62
     0
 10
25915.913614000001
 20
18432.730914
 30
0.0
 40
15.0
 50
90.0
 51
270.0
  0
ARC
  5
3AA8
  8
0
  6
BYBLOCK
 62
     0
 10
25915.913614000001
 20
17731.730914
 30
0.0
 40
15.0
 50
90.0
 51
270.0
  0
ARC
  5
3AA9
  8
0
  6
BYBLOCK
 62
     0
 10
25915.913614000001
 20
17731.730914
 30
0.0
 40
15.0
 50
270.0
 51
90.0
  0
ARC
  5
3AAA
  8
0
  6
BYBLOCK
 62
     0
 10
25915.913614000001
 20
19133.730914
 30
0.0
 40
15.0
 50
270.0
 51
90.0
  0
ARC
  5
3AAB
  8
0
  6
BYBLOCK
 62
     0
 10
25915.913614000001
 20
19133.730914
 30
0.0
 40
15.0
 50
90.0
 51
270.0
  0
ARC
  5
3AAC
  8
0
  6
BYBLOCK
 62
     0
 10
25915.913614000001
 20
18432.730914
 30
0.0
 40
15.0
 50
90.0
 51
270.0
  0
ARC
  5
3AAD
  8
0
  6
BYBLOCK
 62
     0
 10
25915.913614000001
 20
18432.730914
 30
0.0
 40
15.0
 50
270.0
 51
90.0
  0
ARC
  5
3AAE
  8
0
  6
BYBLOCK
 62
     0
 10
25915.913614000001
 20
19891.730914
 30
0.0
 40
15.0
 50
270.0
 51
90.0
  0
ARC
  5
3AAF
  8
0
  6
BYBLOCK
 62
     0
 10
25915.913614000001
 20
19891.730914
 30
0.0
 40
15.0
 50
90.0
 51
270.0
  0
ARC
  5
3AB0
  8
0
  6
BYBLOCK
 62
     0
 10
25915.913614000001
 20
19133.730914
 30
0.0
 40
15.0
 50
90.0
 51
270.0
  0
ARC
  5
3AB1
  8
0
  6
BYBLOCK
 62
     0
 10
25915.913614000001
 20
19133.730914
 30
0.0
 40
15.0
 50
270.0
 51
90.0
  0
ARC
  5
3AB2
  8
0
  6
BYBLOCK
 62
     0
 10
26315.913614000001
 20
16973.730914
 30
0.0
 40
15.0
 50
90.0
 51
270.0
  0
ARC
  5
3AB3
  8
0
  6
BYBLOCK
 62
     0
 10
26315.913614000001
 20
16973.730914
 30
0.0
 40
15.0
 50
270.0
 51
90.0
  0
ARC
  5
3AB4
  8
0
  6
BYBLOCK
 62
     0
 10
26315.913614000001
 20
19891.730914
 30
0.0
 40
15.0
 50
270.0
 51
90.0
  0
ARC
  5
3AB5
  8
0
  6
BYBLOCK
 62
     0
 10
26315.913614000001
 20
19891.730914
 30
0.0
 40
15.0
 50
90.0
 51
270.0
  0
ARC
  5
3AB6
  8
0
  6
BYBLOCK
 62
     0
 10
26315.913614000001
 20
14055.730913999991
 30
0.0
 40
15.0
 50
90.0
 51
270.0
  0
ARC
  5
3AB7
  8
0
  6
BYBLOCK
 62
     0
 10
26315.913614000001
 20
14055.730913999991
 30
0.0
 40
15.0
 50
270.0
 51
90.0
  0
ARC
  5
3AB8
  8
0
  6
BYBLOCK
 62
     0
 10
26315.913614000001
 20
16973.730914
 30
0.0
 40
15.0
 50
270.0
 51
90.0
  0
ARC
  5
3AB9
  8
0
  6
BYBLOCK
 62
     0
 10
26315.913614000001
 20
16973.730914
 30
0.0
 40
15.0
 50
90.0
 51
270.0
  0
ARC
  5
3ABA
  8
0
  6
BYBLOCK
 62
     0
 10
26715.913614000001
 20
19934.228209000001
 30
0.0
 40
15.0
 50
270.0
 51
90.0
  0
ARC
  5
3ABB
  8
0
  6
BYBLOCK
 62
     0
 10
26715.913614000001
 20
19934.228209000001
 30
0.0
 40
15.0
 50
90.0
 51
270.0
  0
ARC
  5
3ABC
  8
0
  6
BYBLOCK
 62
     0
 10
26715.913614000001
 20
14013.233619000001
 30
0.0
 40
15.0
 50
90.0
 51
270.0
  0
ARC
  5
3ABD
  8
0
  6
BYBLOCK
 62
     0
 10
26715.913614000001
 20
14013.233619000001
 30
0.0
 40
15.0
 50
270.0
 51
90.0
  0
ARC
  5
3ABE
  8
0
  6
BYBLOCK
 62
     0
 10
26315.913614000001
 20
19891.730914
 30
0.0
 40
15.0
 50
270.0
 51
90.0
  0
ARC
  5
3ABF
  8
0
  6
BYBLOCK
 62
     0
 10
26315.913614000001
 20
19891.730914
 30
0.0
 40
15.0
 50
90.0
 51
270.0
  0
ARC
  5
3AC0
  8
0
  6
BYBLOCK
 62
     0
 10
26315.913614000001
 20
19934.228209000001
 30
0.0
 40
15.0
 50
90.0
 51
270.0
  0
ARC
  5
3AC1
  8
0
  6
BYBLOCK
 62
     0
 10
26315.913614000001
 20
19934.228209000001
 30
0.0
 40
15.0
 50
270.0
 51
90.0
  0
ARC
  5
3AC2
  8
0
  6
BYBLOCK
 62
     0
 10
26315.913614000001
 20
14055.730913999991
 30
0.0
 40
15.0
 50
90.0
 51
270.0
  0
ARC
  5
3AC3
  8
0
  6
BYBLOCK
 62
     0
 10
26315.913614000001
 20
14055.730913999991
 30
0.0
 40
15.0
 50
270.0
 51
90.0
  0
ARC
  5
3AC4
  8
0
  6
BYBLOCK
 62
     0
 10
26315.913614000001
 20
14013.233619000001
 30
0.0
 40
15.0
 50
270.0
 51
90.0
  0
ARC
  5
3AC5
  8
0
  6
BYBLOCK
 62
     0
 10
26315.913614000001
 20
14013.233619000001
 30
0.0
 40
15.0
 50
90.0
 51
270.0
  0
ARC
  5
3AC6
  8
0
  6
BYBLOCK
 62
     0
 10
24065.41401
 20
20664.232102000031
 30
0.0
 40
15.0
 50
0.0
 51
180.0
  0
ARC
  5
3AC7
  8
0
  6
BYBLOCK
 62
     0
 10
24065.41401
 20
20664.232102000031
 30
0.0
 40
15.0
 50
180.0
 51
0.0
  0
ARC
  5
3AC8
  8
0
  6
BYBLOCK
 62
     0
 10
24823.414999500001
 20
20664.232102000031
 30
0.0
 40
15.0
 50
180.0
 51
0.0
  0
ARC
  5
3AC9
  8
0
  6
BYBLOCK
 62
     0
 10
24823.414999500001
 20
20664.232102000031
 30
0.0
 40
15.0
 50
0.0
 51
180.0
  0
ARC
  5
3ACA
  8
0
  6
BYBLOCK
 62
     0
 10
24823.41401
 20
20664.232102000031
 30
0.0
 40
15.0
 50
180.0
 51
0.0
  0
ARC
  5
3ACB
  8
0
  6
BYBLOCK
 62
     0
 10
24823.41401
 20
20664.232102000031
 30
0.0
 40
15.0
 50
0.0
 51
180.0
  0
ARC
  5
3ACC
  8
0
  6
BYBLOCK
 62
     0
 10
24865.910315000001
 20
20664.232102000031
 30
0.0
 40
15.0
 50
0.0
 51
180.0
  0
ARC
  5
3ACD
  8
0
  6
BYBLOCK
 62
     0
 10
24865.910315000001
 20
20664.232102000031
 30
0.0
 40
15.0
 50
180.0
 51
0.0
  0
ARC
  5
3ACE
  8
0
  6
BYBLOCK
 62
     0
 10
20038.91401
 20
20664.232102000031
 30
0.0
 40
15.0
 50
0.0
 51
180.0
  0
ARC
  5
3ACF
  8
0
  6
BYBLOCK
 62
     0
 10
20038.91401
 20
20664.232102000031
 30
0.0
 40
15.0
 50
180.0
 51
0.0
  0
ARC
  5
3AD0
  8
0
  6
BYBLOCK
 62
     0
 10
19996.417705
 20
20664.232102000031
 30
0.0
 40
15.0
 50
180.0
 51
0.0
  0
ARC
  5
3AD1
  8
0
  6
BYBLOCK
 62
     0
 10
19996.417705
 20
20664.232102000031
 30
0.0
 40
15.0
 50
0.0
 51
180.0
  0
ARC
  5
3AD2
  8
0
  6
BYBLOCK
 62
     0
 10
22198.91400999999
 20
20664.232102000031
 30
0.0
 40
15.0
 50
0.0
 51
180.0
  0
ARC
  5
3AD3
  8
0
  6
BYBLOCK
 62
     0
 10
22198.91400999999
 20
20664.232102000031
 30
0.0
 40
15.0
 50
180.0
 51
0.0
  0
ARC
  5
3AD4
  8
0
  6
BYBLOCK
 62
     0
 10
22956.914999500012
 20
20664.232102000031
 30
0.0
 40
15.0
 50
180.0
 51
0.0
  0
ARC
  5
3AD5
  8
0
  6
BYBLOCK
 62
     0
 10
22956.914999500012
 20
20664.232102000031
 30
0.0
 40
15.0
 50
0.0
 51
180.0
  0
ARC
  5
3AD6
  8
0
  6
BYBLOCK
 62
     0
 10
21497.91401
 20
20664.232102000031
 30
0.0
 40
15.0
 50
0.0
 51
180.0
  0
ARC
  5
3AD7
  8
0
  6
BYBLOCK
 62
     0
 10
21497.91401
 20
20664.232102000031
 30
0.0
 40
15.0
 50
180.0
 51
0.0
  0
ARC
  5
3AD8
  8
0
  6
BYBLOCK
 62
     0
 10
22198.91400999999
 20
20664.232102000031
 30
0.0
 40
15.0
 50
180.0
 51
0.0
  0
ARC
  5
3AD9
  8
0
  6
BYBLOCK
 62
     0
 10
22198.91400999999
 20
20664.232102000031
 30
0.0
 40
15.0
 50
0.0
 51
180.0
  0
ARC
  5
3ADA
  8
0
  6
BYBLOCK
 62
     0
 10
20796.91401
 20
20664.232102000031
 30
0.0
 40
15.0
 50
0.0
 51
180.0
  0
ARC
  5
3ADB
  8
0
  6
BYBLOCK
 62
     0
 10
20796.91401
 20
20664.232102000031
 30
0.0
 40
15.0
 50
180.0
 51
0.0
  0
ARC
  5
3ADC
  8
0
  6
BYBLOCK
 62
     0
 10
21497.91401
 20
20664.232102000031
 30
0.0
 40
15.0
 50
180.0
 51
0.0
  0
ARC
  5
3ADD
  8
0
  6
BYBLOCK
 62
     0
 10
21497.91401
 20
20664.232102000031
 30
0.0
 40
15.0
 50
0.0
 51
180.0
  0
ARC
  5
3ADE
  8
0
  6
BYBLOCK
 62
     0
 10
8812.6585459999988
 20
9904.3184379999984
 30
0.0
 40
15.0
 50
0.0
 51
180.0
  0
ARC
  5
3ADF
  8
0
  6
BYBLOCK
 62
     0
 10
8812.6585459999988
 20
9904.3184379999984
 30
0.0
 40
15.0
 50
180.0
 51
0.0
  0
ARC
  5
3AE0
  8
0
  6
BYBLOCK
 62
     0
 10
15063.658546000001
 20
9904.3184379999984
 30
0.0
 40
15.0
 50
180.0
 51
0.0
  0
ARC
  5
3AE1
  8
0
  6
BYBLOCK
 62
     0
 10
15063.658546000001
 20
9904.3184379999984
 30
0.0
 40
15.0
 50
0.0
 51
180.0
  0
ARC
  5
3AE2
  8
0
  6
BYBLOCK
 62
     0
 10
14913.659798999999
 20
9504.3200880000004
 30
0.0
 40
15.0
 50
180.0
 51
0.0
  0
ARC
  5
3AE3
  8
0
  6
BYBLOCK
 62
     0
 10
14913.659798999999
 20
9504.3200880000004
 30
0.0
 40
15.0
 50
0.0
 51
180.0
  0
ARC
  5
3AE4
  8
0
  6
BYBLOCK
 62
     0
 10
15063.658546000001
 20
9504.3200880000004
 30
0.0
 40
15.0
 50
0.0
 51
180.0
  0
ARC
  5
3AE5
  8
0
  6
BYBLOCK
 62
     0
 10
15063.658546000001
 20
9504.3200880000004
 30
0.0
 40
15.0
 50
180.0
 51
0.0
  0
ARC
  5
3AE6
  8
0
  6
BYBLOCK
 62
     0
 10
8992.6572919999981
 20
9504.3200880000004
 30
0.0
 40
15.0
 50
0.0
 51
180.0
  0
ARC
  5
3AE7
  8
0
  6
BYBLOCK
 62
     0
 10
8992.6572919999981
 20
9504.3200880000004
 30
0.0
 40
15.0
 50
180.0
 51
0.0
  0
ARC
  5
3AE8
  8
0
  6
BYBLOCK
 62
     0
 10
14913.659798999999
 20
9504.3200880000004
 30
0.0
 40
15.0
 50
180.0
 51
0.0
  0
ARC
  5
3AE9
  8
0
  6
BYBLOCK
 62
     0
 10
14913.659798999999
 20
9504.3200880000004
 30
0.0
 40
15.0
 50
0.0
 51
180.0
  0
ARC
  5
3AEA
  8
0
  6
BYBLOCK
 62
     0
 10
8812.6585459999988
 20
9504.3200880000004
 30
0.0
 40
15.0
 50
0.0
 51
180.0
  0
ARC
  5
3AEB
  8
0
  6
BYBLOCK
 62
     0
 10
8812.6585459999988
 20
9504.3200880000004
 30
0.0
 40
15.0
 50
180.0
 51
0.0
  0
ARC
  5
3AEC
  8
0
  6
BYBLOCK
 62
     0
 10
8992.6572919999981
 20
9504.3200880000004
 30
0.0
 40
15.0
 50
180.0
 51
0.0
  0
ARC
  5
3AED
  8
0
  6
BYBLOCK
 62
     0
 10
8992.6572919999981
 20
9504.3200880000004
 30
0.0
 40
15.0
 50
0.0
 51
180.0
  0
ARC
  5
3AEE
  8
0
  6
BYBLOCK
 62
     0
 10
7902.6601279999977
 20
6356.319402000001
 30
0.0
 40
15.0
 50
90.0
 51
270.0
  0
ARC
  5
3AEF
  8
0
  6
BYBLOCK
 62
     0
 10
7902.6601279999977
 20
6356.319402000001
 30
0.0
 40
15.0
 50
270.0
 51
90.0
  0
ARC
  5
3AF0
  8
0
  6
BYBLOCK
 62
     0
 10
7902.6601279999977
 20
8512.819402000001
 30
0.0
 40
15.0
 50
270.0
 51
90.0
  0
ARC
  5
3AF1
  8
0
  6
BYBLOCK
 62
     0
 10
7902.6601279999977
 20
8512.819402000001
 30
0.0
 40
15.0
 50
90.0
 51
270.0
  0
ARC
  5
3AF2
  8
0
  6
BYBLOCK
 62
     0
 10
16003.65795099999
 20
6356.319402000001
 30
0.0
 40
15.0
 50
90.0
 51
270.0
  0
ARC
  5
3AF3
  8
0
  6
BYBLOCK
 62
     0
 10
16003.65795099999
 20
6356.319402000001
 30
0.0
 40
15.0
 50
270.0
 51
90.0
  0
ARC
  5
3AF4
  8
0
  6
BYBLOCK
 62
     0
 10
16003.65795099999
 20
8704.8194019999955
 30
0.0
 40
15.0
 50
270.0
 51
90.0
  0
ARC
  5
3AF5
  8
0
  6
BYBLOCK
 62
     0
 10
16003.65795099999
 20
8704.8194019999955
 30
0.0
 40
15.0
 50
90.0
 51
270.0
  0
ARC
  5
3AF6
  8
0
  6
BYBLOCK
 62
     0
 10
8992.6585460000006
 20
4656.3192370000006
 30
0.0
 40
15.0
 50
0.0
 51
180.0
  0
ARC
  5
3AF7
  8
0
  6
BYBLOCK
 62
     0
 10
8992.6585460000006
 20
4656.3192370000006
 30
0.0
 40
15.0
 50
180.0
 51
0.0
  0
ARC
  5
3AF8
  8
0
  6
BYBLOCK
 62
     0
 10
14913.658546000001
 20
4656.3192370000006
 30
0.0
 40
15.0
 50
180.0
 51
0.0
  0
ARC
  5
3AF9
  8
0
  6
BYBLOCK
 62
     0
 10
14913.658546000001
 20
4656.3192370000006
 30
0.0
 40
15.0
 50
0.0
 51
180.0
  0
ARC
  5
3AFA
  8
0
  6
BYBLOCK
 62
     0
 10
14871.158546000001
 20
5056.3190720000021
 30
0.0
 40
15.0
 50
180.0
 51
0.0
  0
ARC
  5
3AFB
  8
0
  6
BYBLOCK
 62
     0
 10
14871.158546000001
 20
5056.3190720000021
 30
0.0
 40
15.0
 50
0.0
 51
180.0
  0
ARC
  5
3AFC
  8
0
  6
BYBLOCK
 62
     0
 10
14913.658546000001
 20
5056.3190720000021
 30
0.0
 40
15.0
 50
0.0
 51
180.0
  0
ARC
  5
3AFD
  8
0
  6
BYBLOCK
 62
     0
 10
14913.658546000001
 20
5056.3190720000021
 30
0.0
 40
15.0
 50
180.0
 51
0.0
  0
ARC
  5
3AFE
  8
0
  6
BYBLOCK
 62
     0
 10
9035.1585460000006
 20
5056.3190720000021
 30
0.0
 40
15.0
 50
0.0
 51
180.0
  0
ARC
  5
3AFF
  8
0
  6
BYBLOCK
 62
     0
 10
9035.1585460000006
 20
5056.3190720000021
 30
0.0
 40
15.0
 50
180.0
 51
0.0
  0
ARC
  5
3B00
  8
0
  6
BYBLOCK
 62
     0
 10
8992.6585460000006
 20
5056.3190720000021
 30
0.0
 40
15.0
 50
180.0
 51
0.0
  0
ARC
  5
3B01
  8
0
  6
BYBLOCK
 62
     0
 10
8992.6585460000006
 20
5056.3190720000021
 30
0.0
 40
15.0
 50
0.0
 51
180.0
  0
ARC
  5
3B02
  8
0
  6
BYBLOCK
 62
     0
 10
11953.158546000001
 20
5056.3190720000021
 30
0.0
 40
15.0
 50
180.0
 51
0.0
  0
ARC
  5
3B03
  8
0
  6
BYBLOCK
 62
     0
 10
11953.158546000001
 20
5056.3190720000021
 30
0.0
 40
15.0
 50
0.0
 51
180.0
  0
ARC
  5
3B04
  8
0
  6
BYBLOCK
 62
     0
 10
9035.1585460000006
 20
5056.3190720000021
 30
0.0
 40
15.0
 50
0.0
 51
180.0
  0
ARC
  5
3B05
  8
0
  6
BYBLOCK
 62
     0
 10
9035.1585460000006
 20
5056.3190720000021
 30
0.0
 40
15.0
 50
180.0
 51
0.0
  0
ARC
  5
3B06
  8
0
  6
BYBLOCK
 62
     0
 10
11953.158546000001
 20
5056.3190720000021
 30
0.0
 40
15.0
 50
0.0
 51
180.0
  0
ARC
  5
3B07
  8
0
  6
BYBLOCK
 62
     0
 10
11953.158546000001
 20
5056.3190720000021
 30
0.0
 40
15.0
 50
180.0
 51
0.0
  0
ARC
  5
3B08
  8
0
  6
BYBLOCK
 62
     0
 10
14871.158546000001
 20
5056.3190720000021
 30
0.0
 40
15.0
 50
180.0
 51
0.0
  0
ARC
  5
3B09
  8
0
  6
BYBLOCK
 62
     0
 10
14871.158546000001
 20
5056.3190720000021
 30
0.0
 40
15.0
 50
0.0
 51
180.0
  0
LINE
  5
3C2D
  8
0-1
  6
CONTINUOUS
 62
     3
 10
24759.916990999958
 20
8454.8199169999916
 30
0.0
 11
24759.916990999958
 21
8486.8198239999983
 31
0.0
  0
LINE
  5
3C2E
  8
0-1
  6
CONTINUOUS
 62
     3
 10
24908.916383999971
 20
8378.6331949999967
 30
0.0
 11
24865.914272999951
 21
8378.6331949999967
 31
0.0
  0
LINE
  5
3C2F
  8
0-1
  6
CONTINUOUS
 62
     3
 10
24908.916383999971
 20
8704.8202459999993
 30
0.0
 11
24908.916383999971
 21
8378.6331949999967
 31
0.0
  0
LINE
  5
3C30
  8
0-1
  6
CONTINUOUS
 62
     3
 10
24473.94979799998
 20
8451.2844959999893
 30
0.0
 11
24441.950880999972
 21
8483.2844039999927
 31
0.0
  0
LINE
  5
3C31
  8
0-1
  6
CONTINUOUS
 62
     3
 10
24754.916726999949
 20
8491.8200879999968
 30
0.0
 11
24445.486300999972
 21
8491.8200879999968
 31
0.0
  0
LINE
  5
3C32
  8
0-1
  6
CONTINUOUS
 62
     3
 10
24759.916990999958
 20
8483.4209910000009
 30
0.0
 11
24441.820231999958
 21
8483.4209910000009
 31
0.0
  0
LINE
  5
3C33
  8
0-1
  6
CONTINUOUS
 62
     3
 10
24754.916726999949
 20
8449.8196529999968
 30
0.0
 11
24477.487197999959
 21
8449.8196529999968
 31
0.0
  0
LINE
  5
3C34
  8
0-1
  6
CONTINUOUS
 62
     3
 10
24759.916990999958
 20
8458.2197399999968
 30
0.0
 11
24467.015544999958
 21
8458.2197399999968
 31
0.0
  0
LINE
  5
3C35
  8
0-1
  6
CONTINUOUS
 62
     3
 10
24759.916990999958
 20
8466.6198269999932
 30
0.0
 11
24458.616446999971
 21
8466.6198269999932
 31
0.0
  0
LINE
  5
3C36
  8
0-1
  6
CONTINUOUS
 62
     3
 10
24759.916990999958
 20
8475.0209039999954
 30
0.0
 11
24450.215370999958
 21
8475.0209039999954
 31
0.0
  0
LINE
  5
3C37
  8
0-1
  6
CONTINUOUS
 62
     3
 10
23306.380198999988
 20
8451.2844959999893
 30
0.0
 11
23338.377136999989
 21
8483.2844039999927
 31
0.0
  0
LINE
  5
3C38
  8
0-1
  6
CONTINUOUS
 62
     3
 10
23020.414984999989
 20
8454.8199169999916
 30
0.0
 11
23020.414984999989
 21
8486.8198239999983
 31
0.0
  0
LINE
  5
3C39
  8
0-1
  6
CONTINUOUS
 62
     3
 10
23020.414984999989
 20
8458.2197399999968
 30
0.0
 11
23313.312472999969
 21
8458.2197399999968
 31
0.0
  0
LINE
  5
3C3A
  8
0-1
  6
CONTINUOUS
 62
     3
 10
23020.414984999989
 20
8466.6198269999932
 30
0.0
 11
23321.713549999979
 21
8466.6198269999932
 31
0.0
  0
LINE
  5
3C3B
  8
0-1
  6
CONTINUOUS
 62
     3
 10
23025.415248999969
 20
8449.8196529999968
 30
0.0
 11
23302.84279899998
 21
8449.8196529999968
 31
0.0
  0
LINE
  5
3C3C
  8
0-1
  6
CONTINUOUS
 62
     3
 10
23020.414984999989
 20
8475.0209039999954
 30
0.0
 11
23330.112646999991
 21
8475.0209039999954
 31
0.0
  0
LINE
  5
3C3D
  8
0-1
  6
CONTINUOUS
 62
     3
 10
23020.414984999989
 20
8483.4209910000009
 30
0.0
 11
23338.509764999992
 21
8483.4209910000009
 31
0.0
  0
LINE
  5
3C3E
  8
0-1
  6
CONTINUOUS
 62
     3
 10
23025.415248999969
 20
8491.8200879999968
 30
0.0
 11
23334.843696
 21
8491.8200879999968
 31
0.0
  0
LINE
  5
3C3F
  8
0-1
  6
CONTINUOUS
 62
     3
 10
24908.916383999971
 20
8574.8193229999943
 30
0.0
 11
22956.914008999971
 21
8574.8193229999943
 31
0.0
  0
LINE
  5
3C40
  8
0-1
  6
CONTINUOUS
 62
     3
 10
22999.412292999979
 20
8500.8199689999983
 30
0.0
 11
24780.915723999959
 21
8500.8199689999983
 31
0.0
  0
LINE
  5
3C41
  8
0-1
  6
CONTINUOUS
 62
     3
 10
22999.412292999979
 20
8440.8197709999949
 30
0.0
 11
24780.915723999959
 21
8440.8197709999949
 31
0.0
  0
LINE
  5
3C42
  8
0-1
  6
CONTINUOUS
 62
     3
 10
22956.914008999971
 20
8704.8202459999993
 30
0.0
 11
24908.916383999971
 21
8704.8202459999993
 31
0.0
  0
LINE
  5
3C43
  8
0-1
  6
CONTINUOUS
 62
     3
 10
22893.413032999972
 20
8454.8199169999916
 30
0.0
 11
22893.413032999972
 21
8486.8198239999983
 31
0.0
  0
LINE
  5
3C44
  8
0-1
  6
CONTINUOUS
 62
     3
 10
22607.451777999959
 20
8451.2844959999893
 30
0.0
 11
22575.450880999972
 21
8483.2844039999927
 31
0.0
  0
LINE
  5
3C45
  8
0-1
  6
CONTINUOUS
 62
     3
 10
22893.413032999972
 20
8483.4209910000009
 30
0.0
 11
22575.320232999951
 21
8483.4209910000009
 31
0.0
  0
LINE
  5
3C46
  8
0-1
  6
CONTINUOUS
 62
     3
 10
22893.413032999972
 20
8475.0209039999954
 30
0.0
 11
22583.715370999958
 21
8475.0209039999954
 31
0.0
  0
LINE
  5
3C47
  8
0-1
  6
CONTINUOUS
 62
     3
 10
22893.413032999972
 20
8466.6198269999932
 30
0.0
 11
22592.114467999971
 21
8466.6198269999932
 31
0.0
  0
LINE
  5
3C48
  8
0-1
  6
CONTINUOUS
 62
     3
 10
22893.413032999972
 20
8458.2197399999968
 30
0.0
 11
22600.513565999951
 21
8458.2197399999968
 31
0.0
  0
LINE
  5
3C49
  8
0-1
  6
CONTINUOUS
 62
     3
 10
22888.414747999959
 20
8491.8200879999968
 30
0.0
 11
22578.984321999971
 21
8491.8200879999968
 31
0.0
  0
LINE
  5
3C4A
  8
0-1
  6
CONTINUOUS
 62
     3
 10
22888.414747999959
 20
8449.8196529999968
 30
0.0
 11
22610.987198999959
 21
8449.8196529999968
 31
0.0
  0
LINE
  5
3C4B
  8
0-1
  6
CONTINUOUS
 62
     3
 10
20107.413269999972
 20
8449.8196529999968
 30
0.0
 11
20384.84279999994
 21
8449.8196529999968
 31
0.0
  0
LINE
  5
3C4C
  8
0-1
  6
CONTINUOUS
 62
     3
 10
20102.414985999971
 20
8454.8199169999916
 30
0.0
 11
20102.414985999971
 21
8486.8198239999983
 31
0.0
  0
LINE
  5
3C4D
  8
0-1
  6
CONTINUOUS
 62
     3
 10
19953.41361399995
 20
8378.6331949999967
 30
0.0
 11
19996.411765999968
 21
8378.6331949999967
 31
0.0
  0
LINE
  5
3C4E
  8
0-1
  6
CONTINUOUS
 62
     3
 10
19953.41361399995
 20
8378.6331949999967
 30
0.0
 11
19953.41361399995
 21
8704.8202459999993
 31
0.0
  0
LINE
  5
3C4F
  8
0-1
  6
CONTINUOUS
 62
     3
 10
20107.413269999972
 20
8491.8200879999968
 30
0.0
 11
20416.843696999971
 21
8491.8200879999968
 31
0.0
  0
LINE
  5
3C50
  8
0-1
  6
CONTINUOUS
 62
     3
 10
20388.376239999969
 20
8451.2844959999893
 30
0.0
 11
20420.377137999971
 21
8483.2844039999927
 31
0.0
  0
LINE
  5
3C51
  8
0-1
  6
CONTINUOUS
 62
     3
 10
20102.414985999971
 20
8483.4209910000009
 30
0.0
 11
20420.509764999981
 21
8483.4209910000009
 31
0.0
  0
LINE
  5
3C52
  8
0-1
  6
CONTINUOUS
 62
     3
 10
20102.414985999971
 20
8475.0209039999954
 30
0.0
 11
20412.11264799998
 21
8475.0209039999954
 31
0.0
  0
LINE
  5
3C53
  8
0-1
  6
CONTINUOUS
 62
     3
 10
20102.414985999971
 20
8466.6198269999932
 30
0.0
 11
20403.713549999979
 21
8466.6198269999932
 31
0.0
  0
LINE
  5
3C54
  8
0-1
  6
CONTINUOUS
 62
     3
 10
20102.414985999971
 20
8458.2197399999968
 30
0.0
 11
20395.314452999952
 21
8458.2197399999968
 31
0.0
  0
LINE
  5
3C55
  8
0-1
  6
CONTINUOUS
 62
     3
 10
20081.412293999969
 20
8440.8197709999949
 30
0.0
 11
22914.413744999962
 21
8440.8197709999949
 31
0.0
  0
LINE
  5
3C56
  8
0-1
  6
CONTINUOUS
 62
     3
 10
20081.412293999969
 20
8500.8199689999983
 30
0.0
 11
22914.413744999962
 21
8500.8199689999983
 31
0.0
  0
LINE
  5
3C57
  8
0-1
  6
CONTINUOUS
 62
     3
 10
19953.41361399995
 20
8704.8202459999993
 30
0.0
 11
22956.914008999971
 21
8704.8202459999993
 31
0.0
  0
LINE
  5
3C58
  8
0-1
  6
CONTINUOUS
 62
     3
 10
22956.914008999971
 20
8574.8193229999943
 30
0.0
 11
19953.41361399995
 21
8574.8193229999943
 31
0.0
  0
LINE
  5
3C59
  8
0-1
  6
CONTINUOUS
 62
     3
 10
22956.914008999971
 20
8574.8193229999943
 30
0.0
 11
22956.914008999971
 21
8704.8202459999993
 31
0.0
  0
LINE
  5
3C5A
  8
0-1
  6
CONTINUOUS
 62
     3
 10
22956.914008999971
 20
8574.8193229999943
 30
0.0
 11
22956.914008999971
 21
8704.8202459999993
 31
0.0
  0
ARC
  5
3C5B
  8
0-1
  6
CONTINUOUS
 62
     3
 10
24754.916726999949
 20
8486.8198239999983
 30
0.0
 40
5.0
 50
0.0
 51
90.0
  0
ARC
  5
3C5C
  8
0-1
  6
CONTINUOUS
 62
     3
 10
24754.916726999949
 20
8454.8199169999916
 30
0.0
 40
5.0
 50
269.9999850001808
 51
0.0
  0
ARC
  5
3C5D
  8
0-1
  6
CONTINUOUS
 62
     3
 10
24445.486300999972
 20
8486.8198239999983
 30
0.0
 40
5.0
 50
90.0
 51
224.99998499997989
  0
ARC
  5
3C5E
  8
0-1
  6
CONTINUOUS
 62
     3
 10
24477.487197999959
 20
8454.8199169999916
 30
0.0
 40
5.0
 50
224.99998499997989
 51
269.9999850001808
  0
ARC
  5
3C5F
  8
0-1
  6
CONTINUOUS
 62
     3
 10
23334.843696
 20
8486.8198239999983
 30
0.0
 40
5.0
 50
314.99998500027471
 51
90.0
  0
ARC
  5
3C60
  8
0-1
  6
CONTINUOUS
 62
     3
 10
23302.84279899998
 20
8454.8199169999916
 30
0.0
 40
5.0
 50
269.9999850001808
 51
314.99998500027471
  0
ARC
  5
3C61
  8
0-1
  6
CONTINUOUS
 62
     3
 10
23025.415248999969
 20
8454.8199169999916
 30
0.0
 40
5.0
 50
180.0
 51
269.9999850001808
  0
ARC
  5
3C62
  8
0-1
  6
CONTINUOUS
 62
     3
 10
23025.415248999969
 20
8486.8198239999983
 30
0.0
 40
5.0
 50
90.0
 51
180.0
  0
ARC
  5
3C63
  8
0-1
  6
CONTINUOUS
 62
     3
 10
22888.414747999959
 20
8454.8199169999916
 30
0.0
 40
5.0
 50
269.9999850001808
 51
0.0
  0
ARC
  5
3C64
  8
0-1
  6
CONTINUOUS
 62
     3
 10
22888.414747999959
 20
8486.8198239999983
 30
0.0
 40
5.0
 50
0.0
 51
90.0
  0
ARC
  5
3C65
  8
0-1
  6
CONTINUOUS
 62
     3
 10
22578.984321999971
 20
8486.8198239999983
 30
0.0
 40
5.0
 50
90.0
 51
224.99998499997989
  0
ARC
  5
3C66
  8
0-1
  6
CONTINUOUS
 62
     3
 10
22610.987198999959
 20
8454.8199169999916
 30
0.0
 40
5.0
 50
224.99998499997989
 51
269.9999850001808
  0
ARC
  5
3C67
  8
0-1
  6
CONTINUOUS
 62
     3
 10
20416.843696999971
 20
8486.8198239999983
 30
0.0
 40
5.0
 50
314.99998500027471
 51
90.0
  0
ARC
  5
3C68
  8
0-1
  6
CONTINUOUS
 62
     3
 10
20107.413269999972
 20
8486.8198239999983
 30
0.0
 40
5.0
 50
90.0
 51
180.0
  0
ARC
  5
3C69
  8
0-1
  6
CONTINUOUS
 62
     3
 10
20107.413269999972
 20
8454.8199169999916
 30
0.0
 40
5.0
 50
180.0
 51
269.9999850001808
  0
ARC
  5
3C6A
  8
0-1
  6
CONTINUOUS
 62
     3
 10
20384.84279999994
 20
8454.8199169999916
 30
0.0
 40
5.0
 50
269.9999850001808
 51
314.99998500027471
  0
LINE
  5
3C6B
  8
SUNPOU
  6
CONTINUOUS
 62
     4
 10
19953.411633999949
 20
8784.8202459999993
 30
0.0
 11
19953.411633999949
 21
9984.2778579999958
 31
0.0
  0
LINE
  5
3C6C
  8
SUNPOU
  6
CONTINUOUS
 62
     4
 10
24908.916383999971
 20
8784.8202459999993
 30
0.0
 11
24908.916383999971
 21
9984.2778579999958
 31
0.0
  0
LINE
  5
3C6D
  8
SUNPOU
  6
CONTINUOUS
 62
     4
 10
19956.411633999949
 20
9904.2778579999958
 30
0.0
 11
24905.916383999971
 21
9904.2778579999958
 31
0.0
  0
LINE
  5
3C6E
  8
SUNPOU
  6
CONTINUOUS
 62
     4
 10
19996.413744999951
 20
8784.8202459999993
 30
0.0
 11
19996.413744999951
 21
9584.3200879999968
 31
0.0
  0
LINE
  5
3C6F
  8
SUNPOU
  6
CONTINUOUS
 62
     4
 10
24865.914272999951
 20
8784.8202459999993
 30
0.0
 11
24865.914272999951
 21
9584.3200879999968
 31
0.0
  0
LINE
  5
3C70
  8
SUNPOU
  6
CONTINUOUS
 62
     4
 10
19996.413744999951
 20
9504.3200879999986
 30
0.0
 11
24865.914272999951
 21
9504.3200879999986
 31
0.0
  0
LINE
  5
3C71
  8
SUNPOU
  6
CONTINUOUS
 62
     4
 10
19996.413744999951
 20
8784.8202459999993
 30
0.0
 11
19996.413744999951
 21
9584.3200879999968
 31
0.0
  0
LINE
  5
3C72
  8
SUNPOU
  6
CONTINUOUS
 62
     4
 10
19953.411633999949
 20
8784.8202459999993
 30
0.0
 11
19953.411633999949
 21
9584.3200879999968
 31
0.0
  0
LINE
  5
3C73
  8
SUNPOU
  6
CONTINUOUS
 62
     4
 10
19996.413744999951
 20
9504.3200879999986
 30
0.0
 11
20236.413744999951
 21
9504.3200879999986
 31
0.0
  0
LINE
  5
3C74
  8
SUNPOU
  6
CONTINUOUS
 62
     4
 10
19956.411633999949
 20
9504.3200879999986
 30
0.0
 11
19716.411633999971
 21
9504.3200879999986
 31
0.0
  0
LINE
  5
3C75
  8
SUNPOU
  6
CONTINUOUS
 62
     4
 10
19996.413744999951
 20
9504.3200879999986
 30
0.0
 11
19956.411633999949
 21
9504.3200879999986
 31
0.0
  0
LINE
  5
3C76
  8
SUNPOU
  6
CONTINUOUS
 62
     4
 10
24865.914272999951
 20
8784.8202459999993
 30
0.0
 11
24865.914272999951
 21
9584.3200879999968
 31
0.0
  0
LINE
  5
3C77
  8
SUNPOU
  6
CONTINUOUS
 62
     4
 10
24908.916383999971
 20
8784.8202459999993
 30
0.0
 11
24908.916383999971
 21
9584.3200879999968
 31
0.0
  0
LINE
  5
3C78
  8
SUNPOU
  6
CONTINUOUS
 62
     4
 10
24865.914272999951
 20
9504.3200879999986
 30
0.0
 11
24625.914272999951
 21
9504.3200879999986
 31
0.0
  0
LINE
  5
3C79
  8
SUNPOU
  6
CONTINUOUS
 62
     4
 10
24905.916383999971
 20
9504.3200879999986
 30
0.0
 11
25145.916383999971
 21
9504.3200879999986
 31
0.0
  0
LINE
  5
3C7A
  8
SUNPOU
  6
CONTINUOUS
 62
     4
 10
24865.914272999951
 20
9504.3200879999986
 30
0.0
 11
24905.916383999971
 21
9504.3200879999986
 31
0.0
  0
TEXT
  5
3C7B
  8
0
  6
CONTINUOUS
 62
     7
 10
25025.916383999971
 20
9584.3200879999968
 30
0.0
 40
160.0
  1
43
  0
TEXT
  5
3C7C
  8
0
  6
CONTINUOUS
 62
     7
 10
19596.411633999971
 20
9584.3200879999968
 30
0.0
 40
160.0
  1
43
  0
TEXT
  5
3C7D
  8
0
  6
CONTINUOUS
 62
     7
 10
22031.164008999971
 20
9584.3200879999968
 30
0.0
 40
160.0
  1
4869.5
  0
TEXT
  5
3C7E
  8
0
  6
CONTINUOUS
 62
     7
 10
22031.164008999971
 20
9984.2778579999958
 30
0.0
 40
160.0
  1
4955.5
  0
ARC
  5
3C7F
  8
0
  6
BYBLOCK
 62
     0
 10
19953.411633999949
 20
9904.2778579999958
 30
0.0
 40
15.0
 50
0.0
 51
180.0
  0
ARC
  5
3C80
  8
0
  6
BYBLOCK
 62
     0
 10
19953.411633999949
 20
9904.2778579999958
 30
0.0
 40
15.0
 50
180.0
 51
0.0
  0
ARC
  5
3C81
  8
0
  6
BYBLOCK
 62
     0
 10
24908.916383999971
 20
9904.2778579999958
 30
0.0
 40
15.0
 50
180.0
 51
0.0
  0
ARC
  5
3C82
  8
0
  6
BYBLOCK
 62
     0
 10
24908.916383999971
 20
9904.2778579999958
 30
0.0
 40
15.0
 50
0.0
 51
180.0
  0
ARC
  5
3C83
  8
0
  6
BYBLOCK
 62
     0
 10
19996.413744999951
 20
9504.3200879999986
 30
0.0
 40
15.0
 50
0.0
 51
180.0
  0
ARC
  5
3C84
  8
0
  6
BYBLOCK
 62
     0
 10
19996.413744999951
 20
9504.3200879999986
 30
0.0
 40
15.0
 50
180.0
 51
0.0
  0
ARC
  5
3C85
  8
0
  6
BYBLOCK
 62
     0
 10
24865.914272999951
 20
9504.3200879999986
 30
0.0
 40
15.0
 50
180.0
 51
0.0
  0
ARC
  5
3C86
  8
0
  6
BYBLOCK
 62
     0
 10
24865.914272999951
 20
9504.3200879999986
 30
0.0
 40
15.0
 50
0.0
 51
180.0
  0
ARC
  5
3C87
  8
0
  6
BYBLOCK
 62
     0
 10
19996.413744999951
 20
9504.3200879999986
 30
0.0
 40
15.0
 50
0.0
 51
180.0
  0
ARC
  5
3C88
  8
0
  6
BYBLOCK
 62
     0
 10
19996.413744999951
 20
9504.3200879999986
 30
0.0
 40
15.0
 50
180.0
 51
0.0
  0
ARC
  5
3C89
  8
0
  6
BYBLOCK
 62
     0
 10
19953.411633999949
 20
9504.3200879999986
 30
0.0
 40
15.0
 50
180.0
 51
0.0
  0
ARC
  5
3C8A
  8
0
  6
BYBLOCK
 62
     0
 10
19953.411633999949
 20
9504.3200879999986
 30
0.0
 40
15.0
 50
0.0
 51
180.0
  0
ARC
  5
3C8B
  8
0
  6
BYBLOCK
 62
     0
 10
24865.914272999951
 20
9504.3200879999986
 30
0.0
 40
15.0
 50
180.0
 51
0.0
  0
ARC
  5
3C8C
  8
0
  6
BYBLOCK
 62
     0
 10
24865.914272999951
 20
9504.3200879999986
 30
0.0
 40
15.0
 50
0.0
 51
180.0
  0
ARC
  5
3C8D
  8
0
  6
BYBLOCK
 62
     0
 10
24908.916383999971
 20
9504.3200879999986
 30
0.0
 40
15.0
 50
0.0
 51
180.0
  0
ARC
  5
3C8E
  8
0
  6
BYBLOCK
 62
     0
 10
24908.916383999971
 20
9504.3200879999986
 30
0.0
 40
15.0
 50
180.0
 51
0.0
  0
LINE
  5
3C9C
  8
SUNPOU
  6
CONTINUOUS
 62
     4
 10
9019.8257229999872
 20
13783.231638999991
 30
0.0
 11
9019.8257229999872
 21
12585.28723699999
 31
0.0
  0
LINE
  5
3C9D
  8
SUNPOU
  6
CONTINUOUS
 62
     4
 10
13975.326514999981
 20
13783.231638999991
 30
0.0
 11
13975.326514999981
 21
12585.28723699999
 31
0.0
  0
LINE
  5
3C9E
  8
SUNPOU
  6
CONTINUOUS
 62
     4
 10
9019.8257229999872
 20
12665.28723699999
 30
0.0
 11
13975.326514999981
 21
12665.28723699999
 31
0.0
  0
TEXT
  5
3C9F
  8
0
  6
CONTINUOUS
 62
     7
 10
10574.909452333321
 20
12745.287237
 30
0.0
 40
160.0
  1
ケラバ外寸 4955.5
  0
ARC
  5
3CA0
  8
0
  6
BYBLOCK
 62
     0
 10
9019.8257229999872
 20
12665.28723699999
 30
0.0
 40
15.0
 50
0.0
 51
180.0
  0
ARC
  5
3CA1
  8
0
  6
BYBLOCK
 62
     0
 10
9019.8257229999872
 20
12665.28723699999
 30
0.0
 40
15.0
 50
180.0
 51
0.0
  0
ARC
  5
3CA2
  8
0
  6
BYBLOCK
 62
     0
 10
13975.326514999981
 20
12665.28723699999
 30
0.0
 40
15.0
 50
180.0
 51
0.0
  0
ARC
  5
3CA3
  8
0
  6
BYBLOCK
 62
     0
 10
13975.326514999981
 20
12665.28723699999
 30
0.0
 40
15.0
 50
0.0
 51
180.0
  0
TEXT
  5
3CF9
  8
NAME
 10
21933.552716389011
 20
1876.0
 30
0.0
 40
360.0
  1
ヨドガレージ ラヴィージュ
 41
0.75
  7
01
  0
LINE
  5
3CFA
  8
NAME
  6
CONTINUOUS
 10
26067.886878884299
 20
2236.0
 30
0.0
 11
26067.886878884299
 21
1876.0
 31
0.0
  0
LINE
  5
3CFB
  8
NAME
  6
CONTINUOUS
 10
26167.886878884299
 20
2236.0
 30
0.0
 11
26167.886878884299
 21
1876.0
 31
0.0
  0
LINE
  5
3CFC
  8
NAME
  6
CONTINUOUS
 10
26267.88687888431
 20
2236.0
 30
0.0
 11
26267.88687888431
 21
1876.0
 31
0.0
  0
LINE
  5
3CFD
  8
NAME
  6
CONTINUOUS
 10
26007.886878884299
 20
2236.0
 30
0.0
 11
26327.886878884299
 21
2236.0
 31
0.0
  0
LINE
  5
3CFE
  8
NAME
  6
CONTINUOUS
 10
26327.886878884299
 20
1876.0
 30
0.0
 11
26007.886878884299
 21
1876.0
 31
0.0
  0
TEXT
  5
3D49
  8
NAME
 10
25530.092913773529
 20
1076.0
 30
0.0
 40
360.0
  1
型（単棟）
 41
0.6
  7
01
  0
TEXT
  5
3D4A
  8
NAME
 10
21583.54782960095
 20
1076.6369801169251
 30
0.0
 40
360.0
  1
VGC-3059（H）+1959（H）
 41
0.55
  0
TEXT
  5
3DE4
  8
FILENAME
  6
CONTINUOUS
 10
27746.857142857141
 20
348.0
 30
0.0
 40
200.0
  1
＜VGC-3059+1959-1-A_0.DXF ＞
  7
FILENAME
 72
     2
 11
32764.0
 21
348.0
 31
0.0
  0
LINE
  5
3DEA
  8
WAKUSEN-01
 10
868.00000000000193
 20
827.99999999999955
 30
0.0
 11
32764.000000000011
 21
827.99999999999943
 31
0.0
  0
LINE
  5
3DEB
  8
WAKUSEN-01
 10
868.00000000000193
 20
827.99999999999955
 30
0.0
 11
868.00000000000193
 21
22484.000000000011
 31
0.0
  0
LINE
  5
3DEC
  8
WAKUSEN-01
 10
32764.000000000011
 20
827.99999999999943
 30
0.0
 11
32764.000000000011
 21
22484.000000000011
 31
0.0
  0
LINE
  5
3DED
  8
WAKUSEN-01
 10
20560.0
 20
827.99999999999716
 30
0.0
 11
20560.0
 21
2484.0
 31
0.0
  0
LINE
  5
3DEE
  8
WAKUSEN-02
 10
26868.0
 20
827.99999999999261
 30
0.0
 11
26868.0
 21
2484.0
 31
0.0
  0
ENDSEC
  0
EOF
