  0
SECTION
  2
HEADER
  9
$ACADVER
  1
AC1009
  9
$INSBASE
 10
0.0
 20
0.0
 30
0.0
  9
$EXTMIN
 10
867.99324330406671
 20
327.38164749855792
 30
-0.000000000000013
  9
$EXTMAX
 10
32765.33210850941
 20
22484.553276491992
 30
0.0000000000000023
  9
$LIMMIN
 10
0.0
 20
0.0
  9
$LIMMAX
 10
33600.0
 20
23760.0
  9
$ORTHOMODE
 70
     1
  9
$REGENMODE
 70
     1
  9
$FILLMODE
 70
     1
  9
$QTEXTMODE
 70
     0
  9
$MIRRTEXT
 70
     1
  9
$DRAGMODE
 70
     2
  9
$LTSCALE
 40
80.0
  9
$OSMODE
 70
  3071
  9
$ATTMODE
 70
     1
  9
$TEXTSIZE
 40
0.2
  9
$TRACEWID
 40
0.05
  9
$TEXTSTYLE
  7
00
  9
$CLAYER
  8
0
  9
$CELTYPE
  6
BYLAYER
  9
$CECOLOR
 62
   256
  9
$DIMSCALE
 40
80.0
  9
$DIMASZ
 40
3.0
  9
$DIMEXO
 40
1.0
  9
$DIMDLI
 40
0.38
  9
$DIMRND
 40
0.5
  9
$DIMDLE
 40
0.0
  9
$DIMEXE
 40
1.0
  9
$DIMTP
 40
0.0
  9
$DIMTM
 40
0.0
  9
$DIMTXT
 40
2.0
  9
$DIMCEN
 40
0.09
  9
$DIMTSZ
 40
0.0
  9
$DIMTOL
 70
     0
  9
$DIMLIM
 70
     0
  9
$DIMTIH
 70
     0
  9
$DIMTOH
 70
     0
  9
$DIMSE1
 70
     0
  9
$DIMSE2
 70
     0
  9
$DIMTAD
 70
     1
  9
$DIMZIN
 70
     8
  9
$DIMBLK
  1
DOTSMALL
  9
$DIMASO
 70
     1
  9
$DIMSHO
 70
     1
  9
$DIMPOST
  1

  9
$DIMAPOST
  1

  9
$DIMALT
 70
     0
  9
$DIMALTD
 70
     2
  9
$DIMALTF
 40
25.399999999999999
  9
$DIMLFAC
 40
1.0
  9
$DIMTOFL
 70
     1
  9
$DIMTVP
 40
0.0
  9
$DIMTIX
 70
     0
  9
$DIMSOXD
 70
     0
  9
$DIMSAH
 70
     0
  9
$DIMBLK1
  1

  9
$DIMBLK2
  1

  9
$DIMSTYLE
  2
SUNPOU
  9
$DIMCLRD
 70
     4
  9
$DIMCLRE
 70
     4
  9
$DIMCLRT
 70
     7
  9
$DIMTFAC
 40
1.0
  9
$DIMGAP
 40
1.0
  9
$LUNITS
 70
     2
  9
$LUPREC
 70
     4
  9
$SKETCHINC
 40
0.1
  9
$FILLETRAD
 40
0.0
  9
$AUNITS
 70
     0
  9
$AUPREC
 70
     0
  9
$MENU
  1
acad
  9
$ELEVATION
 40
0.0
  9
$PELEVATION
 40
0.0
  9
$THICKNESS
 40
0.0
  9
$LIMCHECK
 70
     0
  9
$BLIPMODE
 70
     1
  9
$CHAMFERA
 40
0.0
  9
$CHAMFERB
 40
0.0
  9
$SKPOLY
 70
     0
  9
$TDCREATE
 40
2454568.4762572339
  9
$TDUPDATE
 40
2458942.4274998838
  9
$TDINDWG
 40
0.0385359722
  9
$TDUSRTIMER
 40
0.0385332292
  9
$USRTIMER
 70
     1
  9
$ANGBASE
 50
0.0
  9
$ANGDIR
 70
     0
  9
$PDMODE
 70
     0
  9
$PDSIZE
 40
0.0
  9
$PLINEWID
 40
0.0
  9
$COORDS
 70
     1
  9
$SPLFRAME
 70
     0
  9
$SPLINETYPE
 70
     6
  9
$SPLINESEGS
 70
     8
  9
$ATTDIA
 70
     1
  9
$ATTREQ
 70
     1
  9
$HANDLING
 70
     1
  9
$HANDSEED
  5
3777
  9
$SURFTAB1
 70
     6
  9
$SURFTAB2
 70
     6
  9
$SURFTYPE
 70
     6
  9
$SURFU
 70
     6
  9
$SURFV
 70
     6
  9
$UCSNAME
  2

  9
$UCSORG
 10
0.0
 20
0.0
 30
0.0
  9
$UCSXDIR
 10
1.0
 20
0.0
 30
0.0
  9
$UCSYDIR
 10
0.0
 20
1.0
 30
0.0
  9
$PUCSNAME
  2

  9
$PUCSORG
 10
0.0
 20
0.0
 30
0.0
  9
$PUCSXDIR
 10
1.0
 20
0.0
 30
0.0
  9
$PUCSYDIR
 10
0.0
 20
1.0
 30
0.0
  9
$USERI1
 70
     0
  9
$USERI2
 70
     0
  9
$USERI3
 70
     0
  9
$USERI4
 70
     0
  9
$USERI5
 70
     0
  9
$USERR1
 40
0.0
  9
$USERR2
 40
0.0
  9
$USERR3
 40
0.0
  9
$USERR4
 40
0.0
  9
$USERR5
 40
0.0
  9
$WORLDVIEW
 70
     1
  9
$SHADEDGE
 70
     3
  9
$SHADEDIF
 70
    70
  9
$TILEMODE
 70
     1
  9
$MAXACTVP
 70
    16
  9
$PLIMCHECK
 70
     0
  9
$PEXTMIN
 10
1.0000000000000000E+020
 20
1.0000000000000000E+020
 30
1.0000000000000000E+020
  9
$PEXTMAX
 10
-1.0000000000000000E+020
 20
-1.0000000000000000E+020
 30
-1.0000000000000000E+020
  9
$PLIMMIN
 10
0.0
 20
0.0
  9
$PLIMMAX
 10
12.0
 20
9.0
  9
$UNITMODE
 70
     0
  9
$VISRETAIN
 70
     0
  9
$PLINEGEN
 70
     1
  9
$PSLTSCALE
 70
     0
  0
ENDSEC
  0
SECTION
  2
TABLES
  0
TABLE
  2
VPORT
 70
     1
  0
VPORT
  2
*ACTIVE
 70
     0
 10
0.0
 20
0.0
 11
1.0
 21
1.0
 12
16800.0
 22
11880.0
 13
0.0
 23
0.0
 14
1.0
 24
1.0
 15
0.0
 25
0.0
 16
0.0
 26
0.0
 36
1.0
 17
0.0
 27
0.0
 37
0.0
 40
23981.023255813951
 41
2.195652173913043
 42
50.0
 43
0.0
 44
0.0
 50
0.0
 51
0.0
 71
     0
 72
 10000
 73
     1
 74
     1
 75
     0
 76
     0
 77
     0
 78
     0
  0
ENDTAB
  0
TABLE
  2
LTYPE
 70
     3
  0
LTYPE
  2
CONTINUOUS
 70
     0
  3
Solid line
 72
    65
 73
     0
 40
0.0
  0
LTYPE
  2
DASHED3
 70
     0
  3
------  ------  ------  ------  
 72
    65
 73
     2
 40
5.0
 49
3.75
 49
-1.25
  0
LTYPE
  2
CENTER2
 70
     0
  3
----------  --  ----------  --  
 72
    65
 73
     4
 40
20.0
 49
12.5
 49
-2.5
 49
2.5
 49
-2.5
  0
ENDTAB
  0
TABLE
  2
LAYER
 70
    17
  0
LAYER
  2
0
 70
     0
 62
     7
  6
CONTINUOUS
  0
LAYER
  2
SUNPOU
 70
     0
 62
     4
  6
CONTINUOUS
  0
LAYER
  2
0-1
 70
     0
 62
     7
  6
CONTINUOUS
  0
LAYER
  2
0-2
 70
     0
 62
     7
  6
CONTINUOUS
  0
LAYER
  2
0-5
 70
     0
 62
     7
  6
CONTINUOUS
  0
LAYER
  2
0-6
 70
     0
 62
     7
  6
CONTINUOUS
  0
LAYER
  2
2-0
 70
     0
 62
     7
  6
CONTINUOUS
  0
LAYER
  2
0-0
 70
     0
 62
     7
  6
CONTINUOUS
  0
LAYER
  2
YODOROGO
 70
     0
 62
   130
  6
CONTINUOUS
  0
LAYER
  2
WAKUSEN-01
 70
     0
 62
    50
  6
CONTINUOUS
  0
LAYER
  2
WAKUSEN-02
 70
     0
 62
   130
  6
CONTINUOUS
  0
LAYER
  2
WAKUMOJI-01
 70
     0
 62
   130
  6
CONTINUOUS
  0
LAYER
  2
FILENAME
 70
     0
 62
     7
  6
CONTINUOUS
  0
LAYER
  2
NAME
 70
     0
 62
    20
  6
CONTINUOUS
  0
LAYER
  2
0-4
 70
     0
 62
     7
  6
CONTINUOUS
  0
ENDTAB
  0
TABLE
  2
STYLE
 70
     5
  0
STYLE
  2
STANDARD
 70
     0
 40
0.0
 41
1.0
 50
0.0
 71
     0
 42
0.0
  3
txt
  4
BIGFONT
  0
STYLE
  2
00
 70
     0
 40
0.0
 41
0.6666666666666666
 50
0.0
 71
     0
 42
0.2
  3
ROMANS
  4
BIGFONT
  0
STYLE
  2
01
 70
     0
 40
3.0
 41
1.0
 50
0.0
 71
     0
 42
0.2
  3
ROMANS
  4
BIGFONT
  0
STYLE
  2
WAKUMOJI
 70
     0
 40
3.0
 41
1.0
 50
0.0
 71
     0
 42
3.0
  3
SIMPLEX
  4
BIGFONT
  0
STYLE
  2
FILENAME
 70
     0
 40
200.0
 41
1.0
 50
0.0
 71
     0
 42
200.0
  3
romans
  4
bigfont
  0
ENDTAB
  0
TABLE
  2
VIEW
 70
     0
  0
ENDTAB
  0
TABLE
  2
UCS
 70
     0
  0
ENDTAB
  0
TABLE
  2
APPID
 70
    13
  0
APPID
  2
ACAD
 70
     0
  0
APPID
  2
ACADANNOTATIVE
 70
     0
  0
APPID
  2
ACAD_PSEXT
 70
     0
  0
APPID
  2
DCO15
 70
     0
  0
APPID
  2
ACAD_MLEADERVER
 70
     0
  0
APPID
  2
AUTOCAD_POSTSCRIPT_FIGURE
 70
     0
  0
APPID
  2
ACAD_EXEMPT_FROM_CAD_STANDARDS
 70
     0
  0
APPID
  2
ACAD_DSTYLE_DIMJAG
 70
     0
  0
APPID
  2
ACAD_DSTYLE_DIMTALN
 70
     0
  0
APPID
  2
ACAD_DSTYLE_DIM_LINETYPE
 70
     0
  0
APPID
  2
ACAD_DSTYLE_DIM_EXT1_LINETYPE
 70
     0
  0
APPID
  2
ACAD_DSTYLE_DIM_EXT2_LINETYPE
 70
     0
  0
APPID
  2
ACAD_NAV_VCDISPLAY
 70
     0
  0
ENDTAB
  0
TABLE
  2
DIMSTYLE
 70
     2
  0
DIMSTYLE
  2
SUNPOU
 70
     0
  3

  4

  5

  6

  7

 40
80.0
 41
3.0
 42
1.0
 43
0.38
 44
1.0
 45
0.5
 46
0.0
 47
0.0
 48
0.0
140
2.0
141
0.09
142
0.0
143
25.399999999999999
144
1.0
145
0.0
146
1.0
147
1.0
 71
     0
 72
     0
 73
     0
 74
     0
 75
     0
 76
     0
 77
     1
 78
     8
170
     0
171
     2
172
     1
173
     0
174
     0
175
     0
176
     4
177
     4
178
     7
  0
ENDTAB
  0
ENDSEC
  0
SECTION
  2
BLOCKS
  0
BLOCK
  8
0
  2
$MODEL_SPACE
 70
     0
 10
0.0
 20
0.0
 30
0.0
  3
$MODEL_SPACE
  1

  0
ENDBLK
  5
2DA5
  8
0
  0
BLOCK
 67
     1
  8
0
  2
$PAPER_SPACE
 70
     0
 10
0.0
 20
0.0
 30
0.0
  3
$PAPER_SPACE
  1

  0
ENDBLK
  5
2DA1
 67
     1
  8
0
  0
BLOCK
  8
0
  2
_DOTSMALL
 70
     0
 10
0.0
 20
0.0
 30
0.0
  3
_DOTSMALL
  1

  0
POLYLINE
  5
2DD4
  8
0
  6
BYBLOCK
 62
     0
 66
     1
 10
0.0
 20
0.0
 30
0.0
 70
     1
 40
0.5
 41
0.5
  0
VERTEX
  5
373F
  8
0
  6
BYBLOCK
 62
     0
 10
-0.0625
 20
0.0
 30
0.0
 42
1.0
  0
VERTEX
  5
3740
  8
0
  6
BYBLOCK
 62
     0
 10
0.0625
 20
0.0
 30
0.0
 42
1.0
  0
SEQEND
  5
3741
  8
0
  6
BYBLOCK
 62
     0
  0
ENDBLK
  5
2DD8
  8
0
  0
ENDSEC
  0
SECTION
  2
ENTITIES
  0
LINE
  5
2DD9
  8
0-1
  6
CONTINUOUS
 62
     3
 10
10895.83543339017
 20
17220.935173999991
 30
0.0
 11
13321.723577390199
 21
17220.935173999991
 31
0.0
  0
LINE
  5
2DDA
  8
0-1
  6
CONTINUOUS
 62
     3
 10
13763.83580239018
 20
14108.43361699999
 30
0.0
 11
13763.83580239018
 21
19918.934937000009
 31
0.0
  0
LINE
  5
2DDB
  8
0-1
  6
CONTINUOUS
 62
     3
 10
10945.83704339018
 20
14108.43361699999
 30
0.0
 11
10945.83704339018
 21
19918.934937000009
 31
0.0
  0
LINE
  5
2DDC
  8
0-1
  6
CONTINUOUS
 62
     3
 10
10810.33503739019
 20
14076.43370899999
 30
0.0
 11
10810.33503739019
 21
19966.936282999999
 31
0.0
  0
LINE
  5
2DDD
  8
0-1
  6
CONTINUOUS
 62
     3
 10
13899.33582839018
 20
14076.43370899999
 30
0.0
 11
13899.33582839018
 21
19966.936282999999
 31
0.0
  0
LINE
  5
2DDE
  8
0-1
  6
CONTINUOUS
 62
     3
 10
10883.834562390201
 20
19966.936282999999
 30
0.0
 11
13825.836304390181
 21
19966.936282999999
 31
0.0
  0
LINE
  5
2DDF
  8
0-1
  6
CONTINUOUS
 62
     3
 10
10895.83543339017
 20
17141.934566999989
 30
0.0
 11
13402.02670739019
 21
17141.934566999989
 31
0.0
  0
LINE
  5
2DE0
  8
0-1
  6
CONTINUOUS
 62
     3
 10
10853.333190390191
 20
14232.434619999991
 30
0.0
 11
13856.335696390181
 21
14232.434619999991
 31
0.0
  0
LINE
  5
2DE1
  8
0-1
  6
CONTINUOUS
 62
     3
 10
10895.83543339017
 20
14311.434236999999
 30
0.0
 11
13813.835433390181
 21
14311.434236999999
 31
0.0
  0
LINE
  5
2DE2
  8
0-1
  6
CONTINUOUS
 62
     3
 10
10810.33503739019
 20
14076.43370899999
 30
0.0
 11
13899.33582839018
 21
14076.43370899999
 31
0.0
  0
LINE
  5
2DE3
  8
0-1
  6
CONTINUOUS
 62
     3
 10
10810.33503739019
 20
14108.43361699999
 30
0.0
 11
13899.33582839018
 21
14108.43361699999
 31
0.0
  0
LINE
  5
2DE4
  8
0-1
  6
CONTINUOUS
 62
     3
 10
13813.835433390181
 20
14232.434619999991
 30
0.0
 11
13813.835433390181
 21
16746.642521999991
 31
0.0
  0
LINE
  5
2DE5
  8
0-1
  6
CONTINUOUS
 62
     3
 10
13856.335696390181
 20
14232.434619999991
 30
0.0
 11
13856.335696390181
 21
16704.833109999981
 31
0.0
  0
LINE
  5
2DE6
  8
0-1
  6
CONTINUOUS
 62
     3
 10
10895.83543339017
 20
14232.434619999991
 30
0.0
 11
10895.83543339017
 21
19523.300435000001
 31
0.0
  0
LINE
  5
2DE7
  8
0-1
  6
CONTINUOUS
 62
     3
 10
10853.333190390191
 20
14232.434619999991
 30
0.0
 11
10853.333190390191
 21
19561.40418799999
 31
0.0
  0
LINE
  5
2DE8
  8
0-1
  6
CONTINUOUS
 62
     3
 10
10965.833190390191
 20
17186.934963
 30
0.0
 11
13743.837676390151
 21
14268.934962999991
 31
0.0
  0
LINE
  5
2DE9
  8
0-1
  6
CONTINUOUS
 62
     3
 10
13678.33738639018
 20
16879.945282000001
 30
0.0
 11
13678.33738639018
 21
19918.934937000009
 31
0.0
  0
LINE
  5
2DEA
  8
0-1
  6
CONTINUOUS
 62
     3
 10
13641.33820439016
 20
16916.344669999991
 30
0.0
 11
13641.33820439016
 21
19918.934937000009
 31
0.0
  0
LINE
  5
2DEB
  8
0-1
  6
CONTINUOUS
 62
     3
 10
13468.338600390191
 20
17076.701510999999
 30
0.0
 11
13468.338600390191
 21
19918.934937000009
 31
0.0
  0
LINE
  5
2DEC
  8
0-1
  6
CONTINUOUS
 62
     3
 10
13431.335460390201
 20
17113.09892
 30
0.0
 11
13431.335460390201
 21
19918.934937000009
 31
0.0
  0
LINE
  5
2DED
  8
0-1
  6
CONTINUOUS
 62
     3
 10
13268.3339813902
 20
17273.457739999991
 30
0.0
 11
13268.3339813902
 21
19918.934937000009
 31
0.0
  0
LINE
  5
2DEE
  8
0-1
  6
CONTINUOUS
 62
     3
 10
13231.3367793902
 20
17309.857127999981
 30
0.0
 11
13231.3367793902
 21
19918.934937000009
 31
0.0
  0
LINE
  5
2DEF
  8
0-1
  6
CONTINUOUS
 62
     3
 10
13068.335301390191
 20
17479.71473499999
 30
0.0
 11
13068.335301390191
 21
19918.934937000009
 31
0.0
  0
LINE
  5
2DF0
  8
0-1
  6
CONTINUOUS
 62
     3
 10
13031.338099390199
 20
17516.114122999988
 30
0.0
 11
13031.338099390199
 21
19918.934937000009
 31
0.0
  0
LINE
  5
2DF1
  8
0-1
  6
CONTINUOUS
 62
     3
 10
12868.336621390201
 20
17549.326486000002
 30
0.0
 11
12868.336621390201
 21
19918.934937000009
 31
0.0
  0
LINE
  5
2DF2
  8
0-1
  6
CONTINUOUS
 62
     3
 10
12831.3334803902
 20
17512.9172
 30
0.0
 11
12831.3334803902
 21
19918.934937000009
 31
0.0
  0
LINE
  5
2DF3
  8
0-1
  6
CONTINUOUS
 62
     3
 10
12468.3353013902
 20
18320.497437000002
 30
0.0
 11
12468.3353013902
 21
19918.934937000009
 31
0.0
  0
LINE
  5
2DF4
  8
0-1
  6
CONTINUOUS
 62
     3
 10
12431.338099390199
 20
18434.557296999999
 30
0.0
 11
12431.338099390199
 21
19918.934937000009
 31
0.0
  0
LINE
  5
2DF5
  8
0-1
  6
CONTINUOUS
 62
     3
 10
12668.33398139018
 20
17703.954600000001
 30
0.0
 11
12668.33398139018
 21
19918.934937000009
 31
0.0
  0
LINE
  5
2DF6
  8
0-1
  6
CONTINUOUS
 62
     3
 10
12631.3367793902
 20
17818.014460999999
 30
0.0
 11
12631.3367793902
 21
19918.934937000009
 31
0.0
  0
LINE
  5
2DF7
  8
0-1
  6
CONTINUOUS
 62
     3
 10
12268.338600390191
 20
18361.869374999991
 30
0.0
 11
12268.338600390191
 21
19918.934937000009
 31
0.0
  0
LINE
  5
2DF8
  8
0-1
  6
CONTINUOUS
 62
     3
 10
12231.335460390201
 20
18325.907460999992
 30
0.0
 11
12231.335460390201
 21
19918.934937000009
 31
0.0
  0
LINE
  5
2DF9
  8
0-1
  6
CONTINUOUS
 62
     3
 10
12068.3339813902
 20
18472.051359000008
 30
0.0
 11
12068.3339813902
 21
19918.934937000009
 31
0.0
  0
LINE
  5
2DFA
  8
0-1
  6
CONTINUOUS
 62
     3
 10
12031.334800390199
 20
18505.22413100001
 30
0.0
 11
12031.334800390199
 21
19918.934937000009
 31
0.0
  0
LINE
  5
2DFB
  8
0-1
  6
CONTINUOUS
 62
     3
 10
11868.335301390191
 20
18651.368029000001
 30
0.0
 11
11868.335301390191
 21
19918.934937000009
 31
0.0
  0
LINE
  5
2DFC
  8
0-1
  6
CONTINUOUS
 62
     3
 10
11831.338099390199
 20
18684.540800999999
 30
0.0
 11
11831.338099390199
 21
19918.934937000009
 31
0.0
  0
LINE
  5
2DFD
  8
0-1
  6
CONTINUOUS
 62
     3
 10
11668.338600390191
 20
18830.684699000001
 30
0.0
 11
11668.338600390191
 21
19918.934937000009
 31
0.0
  0
LINE
  5
2DFE
  8
0-1
  6
CONTINUOUS
 62
     3
 10
11631.335460390201
 20
18863.859450999989
 30
0.0
 11
11631.335460390201
 21
19918.934937000009
 31
0.0
  0
LINE
  5
2DFF
  8
0-1
  6
CONTINUOUS
 62
     3
 10
11266.335987390201
 20
19191.111483000001
 30
0.0
 11
11266.335987390201
 21
19918.934937000009
 31
0.0
  0
LINE
  5
2E00
  8
0-1
  6
CONTINUOUS
 62
     3
 10
11229.3387853902
 20
19224.288214999979
 30
0.0
 11
11229.3387853902
 21
19918.934937000009
 31
0.0
  0
LINE
  5
2E01
  8
0-1
  6
CONTINUOUS
 62
     3
 10
11431.33480039019
 20
19043.176121
 30
0.0
 11
11431.33480039019
 21
19918.934937000009
 31
0.0
  0
LINE
  5
2E02
  8
0-1
  6
CONTINUOUS
 62
     3
 10
11468.3339813902
 20
19010.003348999991
 30
0.0
 11
11468.3339813902
 21
19918.934937000009
 31
0.0
  0
LINE
  5
2E03
  8
0-1
  6
CONTINUOUS
 62
     3
 10
11029.33614639018
 20
19403.604885000012
 30
0.0
 11
11029.33614639018
 21
19918.934937000009
 31
0.0
  0
LINE
  5
2E04
  8
0-1
  6
CONTINUOUS
 62
     3
 10
11066.333348390201
 20
19370.43211300001
 30
0.0
 11
11066.333348390201
 21
19918.934937000009
 31
0.0
  0
LINE
  5
2E05
  8
0-1
  6
CONTINUOUS
 62
     3
 10
12231.573002390191
 20
18325.69565300001
 30
0.0
 11
10516.335987390201
 21
19863.553945
 31
0.0
  0
LINE
  5
2E06
  8
0-1
  6
CONTINUOUS
 62
     3
 10
12231.573002390191
 20
18325.69565300001
 30
0.0
 11
12409.76926439019
 21
18501.039429
 31
0.0
  0
LINE
  5
2E07
  8
0-1
  6
CONTINUOUS
 62
     3
 10
12754.75184539019
 20
17428.060120999991
 30
0.0
 11
12409.76926439019
 21
18501.039429
 31
0.0
  0
LINE
  5
2E08
  8
0-1
  6
CONTINUOUS
 62
     3
 10
12754.75184539019
 20
17428.060120999991
 30
0.0
 11
12932.948107390181
 21
17612.904663000001
 31
0.0
  0
LINE
  5
2E09
  8
0-1
  6
CONTINUOUS
 62
     3
 10
14183.583770390151
 20
16382.890145999991
 30
0.0
 11
12932.948107390181
 21
17612.904663000001
 31
0.0
  0
LINE
  5
2E0A
  8
0-1
  6
CONTINUOUS
 62
     3
 10
10965.833190390191
 20
17186.934963
 30
0.0
 11
12209.3568653902
 21
18345.613569000001
 31
0.0
  0
LINE
  5
2E0B
  8
0-1
  6
CONTINUOUS
 62
     3
 10
12367.32442739018
 20
18459.273566
 30
0.0
 11
12447.2890603902
 21
18385.376157999988
 31
0.0
  0
LINE
  5
2E0C
  8
0-1
  6
CONTINUOUS
 62
     3
 10
13551.2586543902
 20
16995.123570999978
 30
0.0
 11
10965.833190390191
 21
14268.934962999991
 31
0.0
  0
LINE
  5
2E0D
  8
0-1
  6
CONTINUOUS
 62
     3
 10
10828.336779390191
 20
19581.130090999999
 30
0.0
 11
10828.336779390191
 21
19959.435887
 31
0.0
  0
LINE
  5
2E0E
  8
0-1
  6
CONTINUOUS
 62
     3
 10
13881.334086390179
 20
16683.189053999991
 30
0.0
 11
13881.334086390179
 21
19959.435887
 31
0.0
  0
LINE
  5
2E0F
  8
0-1
  6
CONTINUOUS
 62
     3
 10
10828.336779390191
 20
19918.934937000009
 30
0.0
 11
13881.334086390179
 21
19918.934937000002
 31
0.0
  0
LINE
  5
2E10
  8
0-1
  6
CONTINUOUS
 62
     3
 10
10883.834562390201
 20
19941.934963
 30
0.0
 11
10883.834562390201
 21
19971.936547000001
 31
0.0
  0
LINE
  5
2E11
  8
0-1
  6
CONTINUOUS
 62
     3
 10
10810.33503739019
 20
19971.936547000001
 30
0.0
 11
10810.33503739019
 21
19936.934699000001
 31
0.0
  0
LINE
  5
2E12
  8
0-1
  6
CONTINUOUS
 62
     3
 10
10878.83429839018
 20
19976.932852000002
 30
0.0
 11
10815.333322390199
 21
19976.932852000002
 31
0.0
  0
LINE
  5
2E13
  8
0-1
  6
CONTINUOUS
 62
     3
 10
10828.336779390191
 20
19959.435887
 30
0.0
 11
10810.33503739019
 21
19959.435887
 31
0.0
  0
LINE
  5
2E14
  8
0-1
  6
CONTINUOUS
 62
     3
 10
10828.336779390191
 20
19936.934699000001
 30
0.0
 11
10878.83429839018
 21
19936.934699000001
 31
0.0
  0
LINE
  5
2E15
  8
0-1
  6
CONTINUOUS
 62
     3
 10
13881.334086390179
 20
19959.435887
 30
0.0
 11
13899.33582839018
 21
19959.435887
 31
0.0
  0
LINE
  5
2E16
  8
0-1
  6
CONTINUOUS
 62
     3
 10
13825.836304390181
 20
19941.934963
 30
0.0
 11
13825.836304390181
 21
19971.936547000001
 31
0.0
  0
LINE
  5
2E17
  8
0-1
  6
CONTINUOUS
 62
     3
 10
13881.334086390179
 20
19936.934699000001
 30
0.0
 11
13830.83656739017
 21
19936.934699000001
 31
0.0
  0
LINE
  5
2E18
  8
0-1
  6
CONTINUOUS
 62
     3
 10
13899.33582839018
 20
19971.936547000001
 30
0.0
 11
13899.33582839018
 21
19936.934699000001
 31
0.0
  0
LINE
  5
2E19
  8
0-1
  6
CONTINUOUS
 62
     3
 10
13830.83656739017
 20
19976.932852000002
 30
0.0
 11
13894.33556539018
 21
19976.932852000002
 31
0.0
  0
LINE
  5
2E1A
  8
0-5
  6
CONTINUOUS
 62
     4
 10
13853.833585390181
 20
20596.935887
 30
0.0
 11
13896.33582839018
 21
20596.935887
 31
0.0
  0
LINE
  5
2E1B
  8
0-5
  6
CONTINUOUS
 62
     4
 10
13899.33582839018
 20
20676.936151000002
 30
0.0
 11
13899.33582839018
 21
20046.936547000001
 31
0.0
  0
LINE
  5
2E1C
  8
0-5
  6
CONTINUOUS
 62
     4
 10
10855.835301390191
 20
20596.935887
 30
0.0
 11
10813.33503739019
 21
20596.935887
 31
0.0
  0
LINE
  5
2E1D
  8
0-5
  6
CONTINUOUS
 62
     4
 10
10773.33688539019
 20
20596.935887
 30
0.0
 11
10327.4701203902
 21
20596.935887
 31
0.0
  0
LINE
  5
2E1E
  8
0-5
  6
CONTINUOUS
 62
     4
 10
10810.33503739019
 20
20676.936151000002
 30
0.0
 11
10810.33503739019
 21
20046.936547000001
 31
0.0
  0
LINE
  5
2E1F
  8
0-5
  6
CONTINUOUS
 62
     4
 10
10935.835565390191
 20
20596.935887
 30
0.0
 11
13773.835301390151
 21
20596.935887
 31
0.0
  0
LINE
  5
2E20
  8
0-5
  6
CONTINUOUS
 62
     4
 10
13936.337940390171
 20
20596.935887
 30
0.0
 11
14382.20272639016
 21
20596.935887
 31
0.0
  0
LINE
  5
2E21
  8
0-5
  6
CONTINUOUS
 62
     4
 10
10780.33543339019
 20
20596.935887
 30
0.0
 11
10750.33582939018
 21
20596.935887
 31
0.0
  0
LINE
  5
2E22
  8
0-5
  6
CONTINUOUS
 62
     4
 10
10925.83503739019
 20
20596.935887
 30
0.0
 11
10955.836621390201
 21
20596.935887
 31
0.0
  0
LINE
  5
2E23
  8
0-5
  6
CONTINUOUS
 62
     4
 10
10865.83582939018
 20
20596.935887
 30
0.0
 11
10835.836225390191
 21
20596.935887
 31
0.0
  0
LINE
  5
2E24
  8
0-5
  6
CONTINUOUS
 62
     4
 10
13783.83582839018
 20
20596.935887
 30
0.0
 11
13753.83820439016
 21
20596.935887
 31
0.0
  0
LINE
  5
2E25
  8
0-5
  6
CONTINUOUS
 62
     4
 10
13843.835037390179
 20
20596.935887
 30
0.0
 11
13873.83662039017
 21
20596.935887
 31
0.0
  0
LINE
  5
2E26
  8
0-5
  6
CONTINUOUS
 62
     4
 10
13926.33741239017
 20
20596.935887
 30
0.0
 11
13956.338996390179
 21
20596.935887
 31
0.0
  0
LINE
  5
2E27
  8
0-6
  6
CONTINUOUS
 62
     6
 10
10743.885607390201
 20
14658.725502999991
 30
0.0
 11
10766.333348390201
 21
14819.37036399998
 31
0.0
  0
LINE
  5
2E28
  8
0-6
  6
CONTINUOUS
 62
     6
 10
10766.333348390201
 20
14819.37036399998
 30
0.0
 11
10692.998123390191
 21
14674.68834099999
 31
0.0
  0
LINE
  5
2E29
  8
0-6
  6
CONTINUOUS
 62
     6
 10
10766.333348390201
 20
14819.37036399998
 30
0.0
 11
10743.885607390201
 21
14658.725502999991
 31
0.0
  0
LINE
  5
2E2A
  8
0-6
  6
CONTINUOUS
 62
     6
 10
10743.885607390201
 20
14658.725502999991
 30
0.0
 11
10692.998123390191
 21
14674.68834099999
 31
0.0
  0
LINE
  5
2E2B
  8
0-6
  6
CONTINUOUS
 62
     6
 10
10692.998123390191
 20
14674.68834099999
 30
0.0
 11
10766.333348390201
 21
14819.37036399998
 31
0.0
  0
LINE
  5
2E2C
  8
0-6
  6
CONTINUOUS
 62
     6
 10
10692.998123390191
 20
14674.68834099999
 30
0.0
 11
10743.885607390201
 21
14658.725502999991
 31
0.0
  0
LINE
  5
2E2D
  8
0-6
  6
CONTINUOUS
 62
     6
 10
11895.684330390181
 20
14474.637625999991
 30
0.0
 11
11851.95874439018
 21
14318.434805000001
 31
0.0
  0
LINE
  5
2E2E
  8
0-6
  6
CONTINUOUS
 62
     6
 10
11851.95874439018
 20
14318.434805000001
 30
0.0
 11
11943.9806243902
 21
14452.01370799998
 31
0.0
  0
LINE
  5
2E2F
  8
0-6
  6
CONTINUOUS
 62
     6
 10
11851.95874439018
 20
14318.434805000001
 30
0.0
 11
11895.684330390181
 21
14474.637625999991
 31
0.0
  0
LINE
  5
2E30
  8
0-6
  6
CONTINUOUS
 62
     6
 10
11895.684330390181
 20
14474.637625999991
 30
0.0
 11
11943.9806243902
 21
14452.01370799998
 31
0.0
  0
LINE
  5
2E31
  8
0-6
  6
CONTINUOUS
 62
     6
 10
11943.9806243902
 20
14452.01370799998
 30
0.0
 11
11851.95874439018
 21
14318.434805000001
 31
0.0
  0
LINE
  5
2E32
  8
0-6
  6
CONTINUOUS
 62
     6
 10
11943.9806243902
 20
14452.01370799998
 30
0.0
 11
11895.684330390181
 21
14474.637625999991
 31
0.0
  0
LINE
  5
2E33
  8
0-6
  6
CONTINUOUS
 62
     6
 10
12455.551570390189
 20
13953.88666299999
 30
0.0
 11
12349.28111539018
 21
14076.43370899999
 31
0.0
  0
LINE
  5
2E34
  8
0-6
  6
CONTINUOUS
 62
     6
 10
12349.28111539018
 20
14076.43370899999
 30
0.0
 11
12410.0602543902
 21
13926.046713999989
 31
0.0
  0
LINE
  5
2E35
  8
0-6
  6
CONTINUOUS
 62
     6
 10
12349.28111539018
 20
14076.43370899999
 30
0.0
 11
12455.551570390189
 21
13953.88666299999
 31
0.0
  0
LINE
  5
2E36
  8
0-6
  6
CONTINUOUS
 62
     6
 10
12455.551570390189
 20
13953.88666299999
 30
0.0
 11
12410.0602543902
 21
13926.046713999989
 31
0.0
  0
LINE
  5
2E37
  8
0-6
  6
CONTINUOUS
 62
     6
 10
12410.0602543902
 20
13926.046713999989
 30
0.0
 11
12349.28111539018
 21
14076.43370899999
 31
0.0
  0
LINE
  5
2E38
  8
0-6
  6
CONTINUOUS
 62
     6
 10
12410.0602543902
 20
13926.046713999989
 30
0.0
 11
12455.551570390189
 21
13953.88666299999
 31
0.0
  0
LINE
  5
2E39
  8
0-6
  6
CONTINUOUS
 62
     6
 10
11891.863859390191
 20
16446.044707000001
 30
0.0
 11
11794.66751739018
 21
16316.184328999991
 31
0.0
  0
LINE
  5
2E3A
  8
0-6
  6
CONTINUOUS
 62
     6
 10
11794.66751739018
 20
16316.184328999991
 30
0.0
 11
11928.7264543902
 21
16407.501500999992
 31
0.0
  0
LINE
  5
2E3B
  8
0-6
  6
CONTINUOUS
 62
     6
 10
11794.66751739018
 20
16316.184328999991
 30
0.0
 11
11891.863859390191
 21
16446.044707000001
 31
0.0
  0
LINE
  5
2E3C
  8
0-6
  6
CONTINUOUS
 62
     6
 10
11891.863859390191
 20
16446.044707000001
 30
0.0
 11
11928.7264543902
 21
16407.501500999992
 31
0.0
  0
LINE
  5
2E3D
  8
0-6
  6
CONTINUOUS
 62
     6
 10
11928.7264543902
 20
16407.501500999992
 30
0.0
 11
11794.66751739018
 21
16316.184328999991
 31
0.0
  0
LINE
  5
2E3E
  8
0-6
  6
CONTINUOUS
 62
     6
 10
11928.7264543902
 20
16407.501500999992
 30
0.0
 11
11891.863859390191
 21
16446.044707000001
 31
0.0
  0
LINE
  5
2E3F
  8
0-6
  6
CONTINUOUS
 62
     6
 10
10985.65213039019
 20
18865.83896999999
 30
0.0
 11
10895.83543339017
 21
19000.909441
 31
0.0
  0
LINE
  5
2E40
  8
0-6
  6
CONTINUOUS
 62
     6
 10
10895.83543339017
 20
19000.909441
 30
0.0
 11
10936.9896243902
 21
18844.010817999992
 31
0.0
  0
LINE
  5
2E41
  8
0-6
  6
CONTINUOUS
 62
     6
 10
10895.83543339017
 20
19000.909441
 30
0.0
 11
10985.65213039019
 21
18865.83896999999
 31
0.0
  0
LINE
  5
2E42
  8
0-6
  6
CONTINUOUS
 62
     6
 10
10985.65213039019
 20
18865.83896999999
 30
0.0
 11
10936.9896243902
 21
18844.010817999992
 31
0.0
  0
LINE
  5
2E43
  8
0-6
  6
CONTINUOUS
 62
     6
 10
10936.9896243902
 20
18844.010817999992
 30
0.0
 11
10895.83543339017
 21
19000.909441
 31
0.0
  0
LINE
  5
2E44
  8
0-6
  6
CONTINUOUS
 62
     6
 10
10936.9896243902
 20
18844.010817999992
 30
0.0
 11
10985.65213039019
 21
18865.83896999999
 31
0.0
  0
LINE
  5
2E45
  8
0-6
  6
CONTINUOUS
 62
     6
 10
12591.281221390191
 20
17382.099659
 30
0.0
 11
12609.6471943902
 21
17220.935173999991
 31
0.0
  0
LINE
  5
2E46
  8
0-6
  6
CONTINUOUS
 62
     6
 10
12609.6471943902
 20
17220.935173999991
 30
0.0
 11
12540.00575139019
 21
17367.431425999981
 31
0.0
  0
LINE
  5
2E47
  8
0-6
  6
CONTINUOUS
 62
     6
 10
12609.6471943902
 20
17220.935173999991
 30
0.0
 11
12591.281221390191
 21
17382.099659
 31
0.0
  0
LINE
  5
2E48
  8
0-6
  6
CONTINUOUS
 62
     6
 10
12591.281221390191
 20
17382.099659
 30
0.0
 11
12540.00575139019
 21
17367.431425999981
 31
0.0
  0
LINE
  5
2E49
  8
0-6
  6
CONTINUOUS
 62
     6
 10
12540.00575139019
 20
17367.431425999981
 30
0.0
 11
12609.6471943902
 21
17220.935173999991
 31
0.0
  0
LINE
  5
2E4A
  8
0-6
  6
CONTINUOUS
 62
     6
 10
12540.00575139019
 20
17367.431425999981
 30
0.0
 11
12591.281221390191
 21
17382.099659
 31
0.0
  0
LINE
  5
2E4B
  8
0-6
  6
CONTINUOUS
 62
     6
 10
12179.759103390201
 20
20084.339550000001
 30
0.0
 11
12276.409098390201
 21
19966.936282999999
 31
0.0
  0
LINE
  5
2E4C
  8
0-6
  6
CONTINUOUS
 62
     6
 10
12276.409098390201
 20
19966.936282999999
 30
0.0
 11
12223.063051390191
 21
20109.33889100001
 31
0.0
  0
LINE
  5
2E4D
  8
0-6
  6
CONTINUOUS
 62
     6
 10
12276.409098390201
 20
19966.936282999999
 30
0.0
 11
12179.759103390201
 21
20084.339550000001
 31
0.0
  0
LINE
  5
2E4E
  8
0-6
  6
CONTINUOUS
 62
     6
 10
12179.759103390201
 20
20084.339550000001
 30
0.0
 11
12223.063051390191
 21
20109.33889100001
 31
0.0
  0
LINE
  5
2E4F
  8
0-6
  6
CONTINUOUS
 62
     6
 10
12223.063051390191
 20
20109.33889100001
 30
0.0
 11
12276.409098390201
 21
19966.936282999999
 31
0.0
  0
LINE
  5
2E50
  8
0-6
  6
CONTINUOUS
 62
     6
 10
12223.063051390191
 20
20109.33889100001
 30
0.0
 11
12179.759103390201
 21
20084.339550000001
 31
0.0
  0
LINE
  5
2E51
  8
0-6
  6
CONTINUOUS
 62
     6
 10
12062.472627390191
 20
19922.612882000001
 30
0.0
 11
12169.170658390191
 21
19800.433035999999
 31
0.0
  0
LINE
  5
2E52
  8
0-6
  6
CONTINUOUS
 62
     6
 10
12169.170658390191
 20
19800.433035999999
 30
0.0
 11
12107.86496839018
 21
19950.611193000001
 31
0.0
  0
LINE
  5
2E53
  8
0-6
  6
CONTINUOUS
 62
     6
 10
12169.170658390191
 20
19800.433035999999
 30
0.0
 11
12062.472627390191
 21
19922.612882000001
 31
0.0
  0
LINE
  5
2E54
  8
0-6
  6
CONTINUOUS
 62
     6
 10
12062.472627390191
 20
19922.612882000001
 30
0.0
 11
12107.86496839018
 21
19950.611193000001
 31
0.0
  0
LINE
  5
2E55
  8
0-6
  6
CONTINUOUS
 62
     6
 10
12107.86496839018
 20
19950.611193000001
 30
0.0
 11
12169.170658390191
 21
19800.433035999999
 31
0.0
  0
LINE
  5
2E56
  8
0-6
  6
CONTINUOUS
 62
     6
 10
12107.86496839018
 20
19950.611193000001
 30
0.0
 11
12062.472627390191
 21
19922.612882000001
 31
0.0
  0
LINE
  5
2E57
  8
0-6
 62
     6
 10
12541.339946390201
 20
19701.057244999989
 30
0.0
 11
12528.8412663902
 21
19539.33057699999
 31
0.0
  0
LINE
  5
2E58
  8
0-6
 62
     6
 10
12528.8412663902
 20
19539.33057699999
 30
0.0
 11
12593.116234390191
 21
19688.261637
 31
0.0
  0
LINE
  5
2E59
  8
0-6
 62
     6
 10
12528.8412663902
 20
19539.33057699999
 30
0.0
 11
12541.339946390201
 21
19701.057244999989
 31
0.0
  0
LINE
  5
2E5A
  8
0-6
 62
     6
 10
12541.339946390201
 20
19701.057244999989
 30
0.0
 11
12593.116234390191
 21
19688.261637
 31
0.0
  0
LINE
  5
2E5B
  8
0-6
 62
     6
 10
12593.116234390191
 20
19688.261637
 30
0.0
 11
12528.8412663902
 21
19539.33057699999
 31
0.0
  0
LINE
  5
2E5C
  8
0-6
 62
     6
 10
12593.116234390191
 20
19688.261637
 30
0.0
 11
12541.339946390201
 21
19701.057244999989
 31
0.0
  0
LINE
  5
2E5D
  8
0-6
 62
     6
 10
13988.02317039017
 20
20110.744349000001
 30
0.0
 11
13896.33582839018
 21
19976.932852000002
 31
0.0
  0
LINE
  5
2E5E
  8
0-6
 62
     6
 10
13896.33582839018
 20
19976.932852000002
 30
0.0
 11
14026.46146239018
 21
20073.774860000001
 31
0.0
  0
LINE
  5
2E5F
  8
0-6
 62
     6
 10
13896.33582839018
 20
19976.932852000002
 30
0.0
 11
13988.02317039017
 21
20110.744349000001
 31
0.0
  0
LINE
  5
2E60
  8
0-6
 62
     6
 10
13988.02317039017
 20
20110.744349000001
 30
0.0
 11
14026.46146239018
 21
20073.774860000001
 31
0.0
  0
LINE
  5
2E61
  8
0-6
 62
     6
 10
14026.46146239018
 20
20073.774860000001
 30
0.0
 11
13896.33582839018
 21
19976.932852000002
 31
0.0
  0
LINE
  5
2E62
  8
0-6
 62
     6
 10
14026.46146239018
 20
20073.774860000001
 30
0.0
 11
13988.02317039017
 21
20110.744349000001
 31
0.0
  0
LINE
  5
2E63
  8
0-6
  6
CONTINUOUS
 62
     6
 10
12565.6405173902
 20
17374.765541999968
 30
0.0
 11
12504.497147390201
 21
17546.032566999991
 31
0.0
  0
LINE
  5
2E64
  8
0-6
  6
CONTINUOUS
 62
     6
 10
12567.228090390199
 20
19694.659441
 30
0.0
 11
12711.129194390191
 21
20206.933115999989
 31
0.0
  0
LINE
  5
2E65
  8
0-6
  6
CONTINUOUS
 62
     6
 10
12169.170658390191
 20
19800.433035999999
 30
0.0
 11
11875.24382139019
 21
20206.933115999989
 31
0.0
  0
LINE
  5
2E66
  8
0-6
  6
CONTINUOUS
 62
     6
 10
12711.129194390191
 20
20206.933115999989
 30
0.0
 11
13262.937814390199
 21
20206.933115999989
 31
0.0
  0
LINE
  5
2E67
  8
0-6
  6
CONTINUOUS
 62
     6
 10
12201.411077390199
 20
20096.838231000002
 30
0.0
 11
11992.219513390201
 21
20529.171027
 31
0.0
  0
LINE
  5
2E68
  8
0-6
  6
CONTINUOUS
 62
     6
 10
11918.207292390191
 20
20657.354753
 30
0.0
 11
11722.151813390199
 21
20996.935227000002
 31
0.0
  0
LINE
  5
2E69
  8
0-6
  6
CONTINUOUS
 62
     6
 10
11722.151813390199
 20
20996.935227000002
 30
0.0
 11
12564.59137239019
 21
20996.935227000002
 31
0.0
  0
LINE
  5
2E6A
  8
0-6
  6
CONTINUOUS
 62
     6
 10
11075.24118239018
 20
20206.933115999989
 30
0.0
 11
11875.24382139019
 21
20206.933115999989
 31
0.0
  0
LINE
  5
2E6B
  8
0-6
  6
CONTINUOUS
 62
     6
 10
11703.920447390179
 20
17546.032566999991
 30
0.0
 11
12504.497147390201
 21
17546.032566999991
 31
0.0
  0
LINE
  5
2E6C
  8
0-6
  6
CONTINUOUS
 62
     6
 10
11910.297136390191
 20
16426.772113999981
 30
0.0
 11
12121.5612573902
 21
16628.831472999991
 31
0.0
  0
LINE
  5
2E6D
  8
0-6
  6
CONTINUOUS
 62
     6
 10
12121.5612573902
 20
16628.831472999991
 30
0.0
 11
13001.560201390201
 21
16628.831472999991
 31
0.0
  0
LINE
  5
2E6E
  8
0-6
  6
CONTINUOUS
 62
     6
 10
11060.3631203902
 20
18634.134340000001
 30
0.0
 11
11580.36285639018
 21
18634.134340000001
 31
0.0
  0
LINE
  5
2E6F
  8
0-6
  6
CONTINUOUS
 62
     6
 10
11919.8324773902
 20
14463.323688
 30
0.0
 11
12002.7208593902
 21
14650.263060999991
 31
0.0
  0
LINE
  5
2E70
  8
0-6
  6
CONTINUOUS
 62
     6
 10
12002.7208593902
 20
14650.263060999991
 30
0.0
 11
12802.721518390201
 21
14650.263060999991
 31
0.0
  0
LINE
  5
2E71
  8
0-6
  6
CONTINUOUS
 62
     6
 10
12838.920975390191
 20
13276.434039
 30
0.0
 11
13711.50026039017
 21
13276.434039
 31
0.0
  0
LINE
  5
2E72
  8
0-6
  6
CONTINUOUS
 62
     6
 10
12432.806902390201
 20
13939.965697999991
 30
0.0
 11
12838.920975390191
 21
13276.434039
 31
0.0
  0
LINE
  5
2E73
  8
0-6
  6
CONTINUOUS
 62
     6
 10
9051.702066390204
 20
12786.434896999999
 30
0.0
 11
10131.703650390191
 21
12786.434896999999
 31
0.0
  0
LINE
  5
2E74
  8
0-6
  6
CONTINUOUS
 62
     6
 10
10718.444835390201
 20
14666.705931999981
 30
0.0
 11
10131.703650390191
 21
12786.434896999999
 31
0.0
  0
LINE
  5
2E75
  8
0-6
  6
CONTINUOUS
 62
     6
 10
10961.3198873902
 20
18854.925884
 30
0.0
 11
11060.3631203902
 21
18634.134340000001
 31
0.0
  0
LINE
  5
2E76
  8
0-6
 62
     6
 10
14007.24627539018
 20
20092.259603999992
 30
0.0
 11
14933.991551390151
 21
20996.935227000002
 31
0.0
  0
LINE
  5
2E77
  8
0-6
  6
CONTINUOUS
 62
     6
 10
14933.991551390151
 20
20996.935227000002
 30
0.0
 11
16608.99089139016
 21
20996.935227000002
 31
0.0
  0
LINE
  5
2E78
  8
2-0
  6
DASHED3
 62
     6
 10
10895.83543339017
 20
19715.436468
 30
0.0
 11
13813.835433390181
 21
19715.436468
 31
0.0
  0
LINE
  5
2E79
  8
2-0
  6
DASHED3
 62
     6
 10
10853.333190390191
 20
19561.40418799999
 30
0.0
 11
10853.333190390191
 21
19800.433035999999
 31
0.0
  0
LINE
  5
2E7A
  8
2-0
  6
DASHED3
 62
     6
 10
10895.83543339017
 20
19523.300435000001
 30
0.0
 11
10895.83543339017
 21
19800.433035999999
 31
0.0
  0
LINE
  5
2E7B
  8
2-0
  6
DASHED3
 62
     6
 10
10853.333190390191
 20
19800.433035999999
 30
0.0
 11
13856.335696390181
 21
19800.433035999999
 31
0.0
  0
LINE
  5
2E7C
  8
2-0
  6
DASHED3
 62
     6
 10
13813.835433390181
 20
16746.642521999991
 30
0.0
 11
13813.835433390181
 21
19800.433035999999
 31
0.0
  0
LINE
  5
2E7D
  8
2-0
  6
DASHED3
 62
     6
 10
13856.335696390181
 20
16704.833109999981
 30
0.0
 11
13856.335696390181
 21
19800.433035999999
 31
0.0
  0
LINE
  5
2E7E
  8
2-0
  6
DASHED3
 62
     6
 10
13743.837676390151
 20
17186.934963
 30
0.0
 11
13551.2586543902
 21
16995.123570999978
 31
0.0
  0
LINE
  5
2E7F
  8
2-0
  6
DASHED3
 62
     6
 10
10965.833190390191
 20
19754.434963
 30
0.0
 11
12367.32442739018
 21
18459.273566
 31
0.0
  0
LINE
  5
2E80
  8
2-0
  6
DASHED3
 62
     6
 10
12209.3568653902
 20
18345.613569000001
 30
0.0
 11
13743.837676390151
 21
19754.434963
 31
0.0
  0
LINE
  5
2E81
  8
2-0
  6
DASHED3
 62
     6
 10
12447.2890603902
 20
18385.376157999988
 30
0.0
 11
13743.837676390151
 21
17186.934963
 31
0.0
  0
LINE
  5
2E82
  8
2-0
  6
DASHED3
 62
     6
 10
13402.02670739019
 20
17141.934566999989
 30
0.0
 11
13813.835433390181
 21
17141.934566999989
 31
0.0
  0
LINE
  5
2E83
  8
2-0
  6
DASHED3
 62
     6
 10
13321.723577390199
 20
17220.935173999991
 30
0.0
 11
13813.835433390181
 21
17220.935173999991
 31
0.0
  0
LINE
  5
2E84
  8
2-0
  6
CENTER2
 62
     6
 10
13813.835433390181
 20
20996.935227000002
 30
0.0
 11
13813.835433390181
 21
20046.936547000001
 31
0.0
  0
LINE
  5
2E85
  8
2-0
  6
CENTER2
 62
     6
 10
9566.3373073902039
 20
19754.434963
 30
0.0
 11
11212.83355939019
 21
19754.434963
 31
0.0
  0
LINE
  5
2E86
  8
2-0
  6
CENTER2
 62
     6
 10
10895.83543339017
 20
20996.935227000002
 30
0.0
 11
10895.83543339017
 21
20046.936547000001
 31
0.0
  0
LINE
  5
2E87
  8
2-0
  6
CENTER2
 62
     6
 10
9566.3373073902039
 20
17186.934963
 30
0.0
 11
11212.83355939019
 21
17186.934963
 31
0.0
  0
LINE
  5
2E88
  8
2-0
  6
CENTER2
 62
     6
 10
9566.3373073902039
 20
14268.934962999991
 30
0.0
 11
11212.83355939019
 21
14268.934962999991
 31
0.0
  0
ARC
  5
2E89
  8
0-1
  6
CONTINUOUS
 62
     3
 10
10878.83429839018
 20
19941.934963
 30
0.0
 40
5.0
 50
269.9999850001808
 51
0.0
  0
ARC
  5
2E8A
  8
0-1
  6
CONTINUOUS
 62
     3
 10
10878.83429839018
 20
19971.936547000001
 30
0.0
 40
5.0
 50
0.0
 51
90.0
  0
ARC
  5
2E8B
  8
0-1
  6
CONTINUOUS
 62
     3
 10
10815.333322390199
 20
19971.936547000001
 30
0.0
 40
5.0
 50
90.0
 51
180.0
  0
ARC
  5
2E8C
  8
0-1
  6
CONTINUOUS
 62
     3
 10
13894.33556539018
 20
19971.936547000001
 30
0.0
 40
5.0
 50
0.0
 51
90.0
  0
ARC
  5
2E8D
  8
0-1
  6
CONTINUOUS
 62
     3
 10
13830.83656739017
 20
19971.936547000001
 30
0.0
 40
5.0
 50
90.0
 51
180.0
  0
ARC
  5
2E8E
  8
0-1
  6
CONTINUOUS
 62
     3
 10
13830.83656739017
 20
19941.934963
 30
0.0
 40
5.0
 50
180.0
 51
269.9999850001808
  0
CIRCLE
  5
2E8F
  8
0-5
  6
CONTINUOUS
 62
     4
 10
13813.835433390181
 20
21196.935887
 30
0.0
 40
199.9999949999999
  0
CIRCLE
  5
2E90
  8
0-5
  6
CONTINUOUS
 62
     4
 10
10895.83543339017
 20
21196.935887
 30
0.0
 40
199.9999949999999
  0
CIRCLE
  5
2E91
  8
0-5
  6
CONTINUOUS
 62
     4
 10
9366.3346683902018
 20
19754.434963
 30
0.0
 40
199.9999949999999
  0
CIRCLE
  5
2E92
  8
0-5
  6
CONTINUOUS
 62
     4
 10
9366.3346683902018
 20
17186.934963
 30
0.0
 40
199.9999949999999
  0
CIRCLE
  5
2E93
  8
0-5
  6
CONTINUOUS
 62
     4
 10
9366.3346683902018
 20
14268.934962999991
 30
0.0
 40
199.9999949999999
  0
CIRCLE
  5
2E94
  8
0-5
  6
CONTINUOUS
 62
     4
 10
15128.71568800002
 20
1375.999857999999
 30
0.0
 40
20.0
  0
ARC
  5
2E95
  8
0-5
  6
CONTINUOUS
 62
     4
 10
15128.71568800002
 20
1375.999857999999
 30
0.0
 40
20.0
 50
180.0
 51
0.0
  0
ARC
  5
2E96
  8
0-5
  6
CONTINUOUS
 62
     4
 10
15128.71568800002
 20
1375.999857999999
 30
0.0
 40
20.0
 50
0.0
 51
179.99998499999839
  0
CIRCLE
  5
2E97
  8
0-5
  6
CONTINUOUS
 62
     4
 10
15128.71568800002
 20
1776.0001879999979
 30
0.0
 40
20.0
  0
ARC
  5
2E98
  8
0-5
  6
CONTINUOUS
 62
     4
 10
15128.71568800002
 20
1776.0001879999979
 30
0.0
 40
20.0
 50
180.0
 51
0.0
  0
ARC
  5
2E99
  8
0-5
  6
CONTINUOUS
 62
     4
 10
15128.71568800002
 20
1776.0001879999979
 30
0.0
 40
20.0
 50
0.0
 51
179.99998499999839
  0
ARC
  5
2E9A
  8
0-5
  6
CONTINUOUS
 62
     4
 10
10810.33503739019
 20
20596.935887
 30
0.0
 40
30.00000399999999
 50
0.0
 51
180.0
  0
ARC
  5
2E9B
  8
0-5
  6
CONTINUOUS
 62
     4
 10
10810.33503739019
 20
20596.935887
 30
0.0
 40
30.00000399999999
 50
180.0
 51
0.0
  0
ARC
  5
2E9C
  8
0-5
  6
CONTINUOUS
 62
     4
 10
10895.83543339017
 20
20596.935887
 30
0.0
 40
30.00000399999999
 50
0.0
 51
179.99998499999839
  0
ARC
  5
2E9D
  8
0-5
  6
CONTINUOUS
 62
     4
 10
10895.83543339017
 20
20596.935887
 30
0.0
 40
30.00000399999999
 50
180.0
 51
0.0
  0
ARC
  5
2E9E
  8
0-5
  6
CONTINUOUS
 62
     4
 10
10895.83543339017
 20
20596.935887
 30
0.0
 40
30.00000399999999
 50
180.0
 51
0.0
  0
ARC
  5
2E9F
  8
0-5
  6
CONTINUOUS
 62
     4
 10
10895.83543339017
 20
20596.935887
 30
0.0
 40
30.00000399999999
 50
0.0
 51
179.99998499999839
  0
ARC
  5
2EA0
  8
0-5
  6
CONTINUOUS
 62
     4
 10
13813.835433390181
 20
20596.935887
 30
0.0
 40
30.00000399999999
 50
180.0
 51
0.0
  0
ARC
  5
2EA1
  8
0-5
  6
CONTINUOUS
 62
     4
 10
13813.835433390181
 20
20596.935887
 30
0.0
 40
30.00000399999999
 50
0.0
 51
179.99998499999839
  0
ARC
  5
2EA2
  8
0-5
  6
CONTINUOUS
 62
     4
 10
13813.835433390181
 20
20596.935887
 30
0.0
 40
30.00000399999999
 50
0.0
 51
179.99998499999839
  0
ARC
  5
2EA3
  8
0-5
  6
CONTINUOUS
 62
     4
 10
13813.835433390181
 20
20596.935887
 30
0.0
 40
30.00000399999999
 50
180.0
 51
0.0
  0
ARC
  5
2EA4
  8
0-5
  6
CONTINUOUS
 62
     4
 10
13899.33582839018
 20
20596.935887
 30
0.0
 40
30.00000399999999
 50
0.0
 51
179.99998499999839
  0
ARC
  5
2EA5
  8
0-5
  6
CONTINUOUS
 62
     4
 10
13899.33582839018
 20
20596.935887
 30
0.0
 40
30.00000399999999
 50
180.0
 51
0.0
  0
TEXT
  5
2EA6
  8
0-5
  6
CONTINUOUS
 62
     7
 10
13768.38370639017
 20
21104.260765999999
 30
0.0
 40
160.0
  1
2
 72
     4
 11
13821.7170397235
 21
21184.260765999999
 31
0.0
  0
TEXT
  5
2EA7
  8
0-5
  6
CONTINUOUS
 62
     7
 10
12165.49398872351
 20
20676.936151000002
 30
0.0
 40
160.0
  1
2918
 72
     4
 11
12432.16065539018
 21
20756.936151000002
 31
0.0
  0
TEXT
  5
2EA8
  8
0-5
  6
CONTINUOUS
 62
     7
 10
10844.585697390199
 20
21108.686968999998
 30
0.0
 40
160.0
  1
1
 72
     4
 11
10871.252364056871
 21
21188.686968999998
 31
0.0
  0
TEXT
  5
2EA9
  8
0-5
  6
CONTINUOUS
 62
     7
 10
10320.68828939018
 20
20676.936151000002
 30
0.0
 40
160.0
  1
85.5
 72
     4
 11
10560.68828939018
 21
20756.936151000002
 31
0.0
  0
TEXT
  5
2EAA
  8
0-5
  6
CONTINUOUS
 62
     7
 10
9310.4845303901984
 20
19660.514725000001
 30
0.0
 40
160.0
  1
C
 72
     4
 11
9363.8178637235324
 21
19740.514725000001
 31
0.0
  0
TEXT
  5
2EAB
  8
0-5
  6
CONTINUOUS
 62
     7
 10
13960.18322139018
 20
20676.936151000002
 30
0.0
 40
160.0
  1
85.5
 72
     4
 11
14200.18322139018
 21
20756.936151000002
 31
0.0
  0
TEXT
  5
2EAC
  8
0-5
  6
CONTINUOUS
 62
     7
 10
9310.4845303901984
 20
17093.012744
 30
0.0
 40
160.0
  1
B
 72
     4
 11
9363.8178637235324
 21
17173.012744
 31
0.0
  0
TEXT
  5
2EAD
  8
0-5
  6
CONTINUOUS
 62
     7
 10
9310.4845303901984
 20
14175.012745
 30
0.0
 40
160.0
  1
A
 72
     4
 11
9363.8178637235324
 21
14255.012745
 31
0.0
  0
TEXT
  5
2EAE
  8
0-5
  6
CONTINUOUS
 62
     7
 10
16615.76342809292
 20
1655.999791999998
 30
0.0
 40
160.0
  1
H
  0
TEXT
  5
2EAF
  8
0-5
  6
CONTINUOUS
 62
     7
 10
15176.146933
 20
1655.999791999998
 30
0.0
 40
160.0
  1
（ ）内寸法ハ、  タ イプヲ示ス。
  0
TEXT
  5
2EB0
  8
0-5
  6
CONTINUOUS
 62
     7
 10
15288.71621600001
 20
1256.000080999999
 30
0.0
 40
160.0
  1
有効高サハ、基礎高サヲ含ミマセン。
  0
TEXT
  5
2EB1
  8
0-6
  6
CONTINUOUS
 62
     7
 10
12791.131437390201
 20
20286.935358999999
 30
0.0
 40
160.0
  1
屋根
 72
     4
 11
12961.79810405687
 21
20366.935358999999
 31
0.0
  0
TEXT
  5
2EB2
  8
0-6
  6
CONTINUOUS
 62
     7
 10
11802.1540563902
 20
21076.935491
 30
0.0
 40
160.0
  1
鼻隠し後
 72
     4
 11
12164.82072305687
 21
21156.935491
 31
0.0
  0
TEXT
  5
2EB3
  8
0-6
  6
CONTINUOUS
 62
     7
 10
11155.24342539019
 20
20286.935358999999
 30
0.0
 40
160.0
  1
桁（後）
 72
     4
 11
11475.24342539019
 21
20366.935358999999
 31
0.0
  0
TEXT
  5
2EB4
  8
0-6
  6
CONTINUOUS
 62
     7
 10
11784.4947713902
 20
17626.03283099999
 30
0.0
 40
160.0
  1
桁（中）
 72
     4
 11
12104.4947713902
 21
17706.03283099999
 31
0.0
  0
TEXT
  5
2EB5
  8
0-6
  6
CONTINUOUS
 62
     7
 10
12201.563500390201
 20
16708.831737000011
 30
0.0
 40
160.0
  1
ブレース
 72
     4
 11
12564.23016705687
 21
16794.16507033334
 31
0.0
  0
TEXT
  5
2EB6
  8
0-6
  6
CONTINUOUS
 62
     7
 10
12082.719143390201
 20
14730.26332499998
 30
0.0
 40
160.0
  1
桁（前）
 72
     4
 11
12402.719143390201
 21
14810.26332499998
 31
0.0
  0
TEXT
  5
2EB7
  8
0-6
  6
CONTINUOUS
 62
     7
 10
12918.9212393902
 20
13356.434302999991
 30
0.0
 40
160.0
  1
鼻隠し前
 72
     4
 11
13281.58790605687
 21
13436.434302999991
 31
0.0
  0
TEXT
  5
2EB8
  8
0-6
  6
CONTINUOUS
 62
     7
 10
9131.7003513902037
 20
12866.435160999999
 30
0.0
 40
160.0
  1
ケラバ 左
 72
     4
 11
9547.7003513902037
 21
12946.435160999999
 31
0.0
  0
TEXT
  5
2EB9
  8
0-6
  6
CONTINUOUS
 62
     7
 10
11140.363384390201
 20
18714.134603999992
 30
0.0
 40
160.0
  1
上枠
 72
     4
 11
11311.03005105687
 21
18794.134603999992
 31
0.0
  0
TEXT
  5
2EBA
  8
0-6
  6
CONTINUOUS
 62
     7
 10
15013.99181539018
 20
21076.935491
 30
0.0
 40
160.0
  1
鼻隠しコーナー後
 72
     4
 11
15760.65848205685
 21
21156.935491
 31
0.0
  0
TEXT
  5
2EBB
  8
2-0
  6
CONTINUOUS
 62
     7
 10
11029.965633390189
 20
12032.72320588649
 30
0.0
 40
160.0
  1
小 屋 伏 図
 50
359.99961300000001
 72
     4
 11
11531.299507066031
 21
12112.71981966667
 31
0.0
  0
TEXT
  5
2EC3
  8
2-0
  6
CONTINUOUS
 62
     7
 10
12882.79169220366
 20
12059.91518866667
 30
0.0
 40
160.0
  1
1
 72
     4
 11
12909.45835887033
 21
12139.91518866667
 31
0.0
  0
TEXT
  5
2EC4
  8
2-0
  6
CONTINUOUS
 62
     7
 10
13125.88040945435
 20
11979.91665666667
 30
0.0
 40
160.0
  1
80
 72
     4
 11
13245.88040945435
 21
12059.91665666667
 31
0.0
  0
TEXT
  5
2EC5
  8
2-0
  6
CONTINUOUS
 62
     7
 10
12383.79365820366
 20
12032.71981966667
 30
0.0
 40
160.0
  1
(S=  /   )
 72
     4
 11
12943.79365820366
 21
12112.71981966667
 31
0.0
  0
LINE
  5
2EC6
  8
0-1
  6
CONTINUOUS
 62
     3
 10
9626.2250580000036
 20
8588.6831290000027
 30
0.0
 11
15156.723475000001
 21
8588.6831290000027
 31
0.0
  0
LINE
  5
2EC7
  8
0-1
  6
CONTINUOUS
 62
     3
 10
8916.2242000000006
 20
6577.6372500000016
 30
0.0
 11
15189.22327699999
 21
6577.6372500000016
 31
0.0
  0
LINE
  5
2EC8
  8
0-1
  6
CONTINUOUS
 62
     3
 10
9721.2241340000037
 20
6727.6372500000016
 30
0.0
 11
12143.723409
 21
6727.6372500000016
 31
0.0
  0
LINE
  5
2EC9
  8
0-1
  6
CONTINUOUS
 62
     3
 10
9598.7232769999955
 20
6677.6370850000048
 30
0.0
 11
15189.22327699999
 21
6677.6370850000039
 31
0.0
  0
LINE
  5
2ECA
  8
0-1
  6
CONTINUOUS
 62
     3
 10
9721.2241340000037
 20
8588.6831290000027
 30
0.0
 11
9721.2241340000037
 21
6677.6370850000039
 31
0.0
  0
LINE
  5
2ECB
  8
0-1
  6
CONTINUOUS
 62
     3
 10
9606.2240020000045
 20
8710.6511659999978
 30
0.0
 11
9606.2240020000045
 21
6677.6370850000039
 31
0.0
  0
LINE
  5
2ECC
  8
0-1
  6
CONTINUOUS
 62
     3
 10
9626.2250580000036
 20
8711.3063870000024
 30
0.0
 11
9626.2250580000036
 21
6677.6370850000039
 31
0.0
  0
LINE
  5
2ECD
  8
0-1
  6
CONTINUOUS
 62
     3
 10
9598.7232769999955
 20
6577.6372500000016
 30
0.0
 11
9598.7232769999955
 21
6677.6370850000048
 31
0.0
  0
LINE
  5
2ECE
  8
0-1
  6
CONTINUOUS
 62
     3
 10
15251.857158999999
 20
8895.126462000002
 30
0.0
 11
15247.597234999999
 21
9025.0561230000021
 31
0.0
  0
LINE
  5
2ECF
  8
0-1
  6
CONTINUOUS
 62
     3
 10
12288.723145
 20
6727.6372500000016
 30
0.0
 11
15061.723409
 21
6727.6372500000016
 31
0.0
  0
LINE
  5
2ED0
  8
0-1
  6
CONTINUOUS
 62
     3
 10
11752.223130999981
 20
6727.6372500000016
 30
0.0
 11
11752.223130999981
 21
8588.6831290000027
 31
0.0
  0
LINE
  5
2ED1
  8
0-1
  6
CONTINUOUS
 62
     3
 10
11619.224227000001
 20
6727.6372500000016
 30
0.0
 11
11619.224227000001
 21
8588.6831290000027
 31
0.0
  0
LINE
  5
2ED2
  8
0-1
  6
CONTINUOUS
 62
     3
 10
11604.222444999999
 20
6727.6372500000016
 30
0.0
 11
11604.222444999999
 21
8588.6831290000027
 31
0.0
  0
LINE
  5
2ED3
  8
0-1
  6
CONTINUOUS
 62
     3
 10
11802.224780999981
 20
6727.6372500000016
 30
0.0
 11
11802.224780999981
 21
8588.6831290000027
 31
0.0
  0
LINE
  5
2ED4
  8
0-1
  6
CONTINUOUS
 62
     3
 10
11822.223857000001
 20
6727.6372500000016
 30
0.0
 11
11822.223857000001
 21
8588.6831290000027
 31
0.0
  0
LINE
  5
2ED5
  8
0-1
  6
CONTINUOUS
 62
     3
 10
11872.224517000001
 20
6727.6372500000016
 30
0.0
 11
11872.224517000001
 21
8588.6831290000027
 31
0.0
  0
LINE
  5
2ED6
  8
0-1
  6
CONTINUOUS
 62
     3
 10
12005.22342199999
 20
6727.6372500000016
 30
0.0
 11
12005.22342199999
 21
8588.6831290000027
 31
0.0
  0
LINE
  5
2ED7
  8
0-1
  6
CONTINUOUS
 62
     3
 10
12020.222234000001
 20
6727.6372500000016
 30
0.0
 11
12020.222234000001
 21
8588.6831290000027
 31
0.0
  0
LINE
  5
2ED8
  8
0-1
  6
CONTINUOUS
 62
     3
 10
12288.723145
 20
8588.6831290000027
 30
0.0
 11
12288.723145
 21
6677.6370850000039
 31
0.0
  0
LINE
  5
2ED9
  8
0-1
  6
CONTINUOUS
 62
     3
 10
12143.723409
 20
8588.6831290000027
 30
0.0
 11
12143.723409
 21
6677.6370850000039
 31
0.0
  0
LINE
  5
2EDA
  8
0-1
  6
CONTINUOUS
 62
     3
 10
12412.22233999998
 20
6727.6372500000016
 30
0.0
 11
12412.22233999998
 21
8588.6831290000027
 31
0.0
  0
LINE
  5
2EDB
  8
0-1
  6
CONTINUOUS
 62
     3
 10
12427.224120999999
 20
6727.6372500000016
 30
0.0
 11
12427.224120999999
 21
8588.6831290000027
 31
0.0
  0
LINE
  5
2EDC
  8
0-1
  6
CONTINUOUS
 62
     3
 10
12560.223025999991
 20
6727.6372500000016
 30
0.0
 11
12560.223025999991
 21
8588.6831290000027
 31
0.0
  0
LINE
  5
2EDD
  8
0-1
  6
CONTINUOUS
 62
     3
 10
12610.22368599999
 20
6727.6372500000016
 30
0.0
 11
12610.22368599999
 21
8588.6831290000027
 31
0.0
  0
LINE
  5
2EDE
  8
0-1
  6
CONTINUOUS
 62
     3
 10
12630.222761999999
 20
6727.6372500000016
 30
0.0
 11
12630.222761999999
 21
8588.6831290000027
 31
0.0
  0
LINE
  5
2EDF
  8
0-1
  6
CONTINUOUS
 62
     3
 10
10402.223130999981
 20
6727.6372500000016
 30
0.0
 11
10402.223130999981
 21
8588.6831290000027
 31
0.0
  0
LINE
  5
2EE0
  8
0-1
  6
CONTINUOUS
 62
     3
 10
10422.225177
 20
6727.6372500000016
 30
0.0
 11
10422.225177
 21
8588.6831290000027
 31
0.0
  0
LINE
  5
2EE1
  8
0-1
  6
CONTINUOUS
 62
     3
 10
10352.22247199999
 20
6727.6372500000016
 30
0.0
 11
10352.22247199999
 21
8588.6831290000027
 31
0.0
  0
LINE
  5
2EE2
  8
0-1
  6
CONTINUOUS
 62
     3
 10
10472.222868000001
 20
6727.6372500000016
 30
0.0
 11
10472.222868000001
 21
8588.6831290000027
 31
0.0
  0
LINE
  5
2EE3
  8
0-1
  6
CONTINUOUS
 62
     3
 10
10605.22276199999
 20
6727.6372500000016
 30
0.0
 11
10605.22276199999
 21
8588.6831290000027
 31
0.0
  0
LINE
  5
2EE4
  8
0-1
  6
CONTINUOUS
 62
     3
 10
10620.224543999981
 20
6727.6372500000016
 30
0.0
 11
10620.224543999981
 21
8588.6831290000027
 31
0.0
  0
LINE
  5
2EE5
  8
0-1
  6
CONTINUOUS
 62
     3
 10
10209.723791
 20
6727.6372500000016
 30
0.0
 11
10209.723791
 21
8588.6831290000027
 31
0.0
  0
LINE
  5
2EE6
  8
0-1
  6
CONTINUOUS
 62
     3
 10
10194.724979000001
 20
6727.6372500000016
 30
0.0
 11
10194.724979000001
 21
8588.6831290000027
 31
0.0
  0
LINE
  5
2EE7
  8
0-1
  6
CONTINUOUS
 62
     3
 10
10904.223104999979
 20
6727.6372500000016
 30
0.0
 11
10904.223104999979
 21
8588.6831290000027
 31
0.0
  0
LINE
  5
2EE8
  8
0-1
  6
CONTINUOUS
 62
     3
 10
10919.22191699999
 20
6727.6372500000016
 30
0.0
 11
10919.22191699999
 21
8588.6831290000027
 31
0.0
  0
LINE
  5
2EE9
  8
0-1
  6
CONTINUOUS
 62
     3
 10
11320.223884000001
 20
6727.6372500000016
 30
0.0
 11
11320.223884000001
 21
8588.6831290000027
 31
0.0
  0
LINE
  5
2EEA
  8
0-1
  6
CONTINUOUS
 62
     3
 10
11305.222102
 20
6727.6372500000016
 30
0.0
 11
11305.222102
 21
8588.6831290000027
 31
0.0
  0
LINE
  5
2EEB
  8
0-1
  6
CONTINUOUS
 62
     3
 10
11172.22220799999
 20
6727.6372500000016
 30
0.0
 11
11172.22220799999
 21
8588.6831290000027
 31
0.0
  0
LINE
  5
2EEC
  8
0-1
  6
CONTINUOUS
 62
     3
 10
11052.223790999989
 20
6727.6372500000016
 30
0.0
 11
11052.223790999989
 21
8588.6831290000027
 31
0.0
  0
LINE
  5
2EED
  8
0-1
  6
CONTINUOUS
 62
     3
 10
11122.22451699999
 20
6727.6372500000016
 30
0.0
 11
11122.22451699999
 21
8588.6831290000027
 31
0.0
  0
LINE
  5
2EEE
  8
0-1
  6
CONTINUOUS
 62
     3
 10
11102.222471999979
 20
6727.6372500000016
 30
0.0
 11
11102.222471999979
 21
8588.6831290000027
 31
0.0
  0
LINE
  5
2EEF
  8
0-1
  6
CONTINUOUS
 62
     3
 10
11443.724068
 20
8588.6831290000027
 30
0.0
 11
11443.724068
 21
6727.6372500000016
 31
0.0
  0
LINE
  5
2EF0
  8
0-1
  6
CONTINUOUS
 62
     3
 10
11480.722261000001
 20
8588.6831290000027
 30
0.0
 11
11480.722261000001
 21
6727.6372500000016
 31
0.0
  0
LINE
  5
2EF1
  8
0-1
  6
CONTINUOUS
 62
     3
 10
10034.223633
 20
8588.6831290000027
 30
0.0
 11
10034.223633
 21
6727.6372500000016
 31
0.0
  0
LINE
  5
2EF2
  8
0-1
  6
CONTINUOUS
 62
     3
 10
10071.223803999999
 20
8588.6831290000027
 30
0.0
 11
10071.223803999999
 21
6727.6372500000016
 31
0.0
  0
LINE
  5
2EF3
  8
0-1
  6
CONTINUOUS
 62
     3
 10
10743.72472799999
 20
8588.6831290000027
 30
0.0
 11
10743.72472799999
 21
6727.6372500000016
 31
0.0
  0
LINE
  5
2EF4
  8
0-1
  6
CONTINUOUS
 62
     3
 10
10780.72291999998
 20
8588.6831290000027
 30
0.0
 11
10780.72291999998
 21
6727.6372500000016
 31
0.0
  0
LINE
  5
2EF5
  8
0-1
  6
CONTINUOUS
 62
     3
 10
12216.223276999999
 20
8795.9189289999995
 30
0.0
 11
12211.962363000001
 21
8925.8485900000032
 31
0.0
  0
LINE
  5
2EF6
  8
0-1
  6
CONTINUOUS
 62
     3
 10
12216.223276999999
 20
8795.9189289999995
 30
0.0
 11
12216.223276999999
 21
8588.6831290000027
 31
0.0
  0
LINE
  5
2EF7
  8
0-1
  6
CONTINUOUS
 62
     3
 10
15061.723409
 20
8588.6831290000027
 30
0.0
 11
15061.723409
 21
6677.6370850000039
 31
0.0
  0
LINE
  5
2EF8
  8
0-1
  6
CONTINUOUS
 62
     3
 10
15176.722551000001
 20
8892.6629510000057
 30
0.0
 11
15176.722551000001
 21
6677.6370850000039
 31
0.0
  0
LINE
  5
2EF9
  8
0-1
  6
CONTINUOUS
 62
     3
 10
15156.723475000001
 20
8892.0067410000029
 30
0.0
 11
15156.723475000001
 21
6677.6370850000039
 31
0.0
  0
LINE
  5
2EFA
  8
0-1
  6
CONTINUOUS
 62
     3
 10
13651.723632999991
 20
8588.6831290000027
 30
0.0
 11
13651.723632999991
 21
6727.6372500000016
 31
0.0
  0
LINE
  5
2EFB
  8
0-1
  6
CONTINUOUS
 62
     3
 10
13688.722814999979
 20
8588.6831290000027
 30
0.0
 11
13688.722814999979
 21
6727.6372500000016
 31
0.0
  0
LINE
  5
2EFC
  8
0-1
  6
CONTINUOUS
 62
     3
 10
14361.724068999991
 20
8588.6831290000027
 30
0.0
 11
14361.724068999991
 21
6727.6372500000016
 31
0.0
  0
LINE
  5
2EFD
  8
0-1
  6
CONTINUOUS
 62
     3
 10
14398.722261000001
 20
8588.6831290000027
 30
0.0
 11
14398.722261000001
 21
6727.6372500000016
 31
0.0
  0
LINE
  5
2EFE
  8
0-1
  6
CONTINUOUS
 62
     3
 10
12951.722313
 20
8588.6831290000027
 30
0.0
 11
12951.722313
 21
6727.6372500000016
 31
0.0
  0
LINE
  5
2EFF
  8
0-1
  6
CONTINUOUS
 62
     3
 10
12988.723474999981
 20
8588.6831290000027
 30
0.0
 11
12988.723474999981
 21
6727.6372500000016
 31
0.0
  0
LINE
  5
2F00
  8
0-1
  6
CONTINUOUS
 62
     3
 10
13330.222102
 20
6727.6372500000016
 30
0.0
 11
13330.222102
 21
8588.6831290000027
 31
0.0
  0
LINE
  5
2F01
  8
0-1
  6
CONTINUOUS
 62
     3
 10
13310.223026
 20
6727.6372500000016
 30
0.0
 11
13310.223026
 21
8588.6831290000027
 31
0.0
  0
LINE
  5
2F02
  8
0-1
  6
CONTINUOUS
 62
     3
 10
13380.222761999999
 20
6727.6372500000016
 30
0.0
 11
13380.222761999999
 21
8588.6831290000027
 31
0.0
  0
LINE
  5
2F03
  8
0-1
  6
CONTINUOUS
 62
     3
 10
13260.222366
 20
6727.6372500000016
 30
0.0
 11
13260.222366
 21
8588.6831290000027
 31
0.0
  0
LINE
  5
2F04
  8
0-1
  6
CONTINUOUS
 62
     3
 10
13127.22247199999
 20
6727.6372500000016
 30
0.0
 11
13127.22247199999
 21
8588.6831290000027
 31
0.0
  0
LINE
  5
2F05
  8
0-1
  6
CONTINUOUS
 62
     3
 10
13112.22365899999
 20
6727.6372500000016
 30
0.0
 11
13112.22365899999
 21
8588.6831290000027
 31
0.0
  0
LINE
  5
2F06
  8
0-1
  6
CONTINUOUS
 62
     3
 10
13513.222655999991
 20
6727.6372500000016
 30
0.0
 11
13513.222655999991
 21
8588.6831290000027
 31
0.0
  0
LINE
  5
2F07
  8
0-1
  6
CONTINUOUS
 62
     3
 10
13528.224437999999
 20
6727.6372500000016
 30
0.0
 11
13528.224437999999
 21
8588.6831290000027
 31
0.0
  0
LINE
  5
2F08
  8
0-1
  6
CONTINUOUS
 62
     3
 10
14228.22377799999
 20
6727.6372500000016
 30
0.0
 11
14228.22377799999
 21
8588.6831290000027
 31
0.0
  0
LINE
  5
2F09
  8
0-1
  6
CONTINUOUS
 62
     3
 10
14213.221997000001
 20
6727.6372500000016
 30
0.0
 11
14213.221997000001
 21
8588.6831290000027
 31
0.0
  0
LINE
  5
2F0A
  8
0-1
  6
CONTINUOUS
 62
     3
 10
13812.223
 20
6727.6372500000016
 30
0.0
 11
13812.223
 21
8588.6831290000027
 31
0.0
  0
LINE
  5
2F0B
  8
0-1
  6
CONTINUOUS
 62
     3
 10
13827.223791
 20
6727.6372500000016
 30
0.0
 11
13827.223791
 21
8588.6831290000027
 31
0.0
  0
LINE
  5
2F0C
  8
0-1
  6
CONTINUOUS
 62
     3
 10
13960.224676
 20
6727.6372500000016
 30
0.0
 11
13960.224676
 21
8588.6831290000027
 31
0.0
  0
LINE
  5
2F0D
  8
0-1
  6
CONTINUOUS
 62
     3
 10
14080.222102
 20
6727.6372500000016
 30
0.0
 11
14080.222102
 21
8588.6831290000027
 31
0.0
  0
LINE
  5
2F0E
  8
0-1
  6
CONTINUOUS
 62
     3
 10
14010.222366
 20
6727.6372500000016
 30
0.0
 11
14010.222366
 21
8588.6831290000027
 31
0.0
  0
LINE
  5
2F0F
  8
0-1
  6
CONTINUOUS
 62
     3
 10
14030.22441199999
 20
6727.6372500000016
 30
0.0
 11
14030.22441199999
 21
8588.6831290000027
 31
0.0
  0
LINE
  5
2F10
  8
0-1
  6
CONTINUOUS
 62
     3
 10
14740.223857999999
 20
6727.6372500000016
 30
0.0
 11
14740.223857999999
 21
8588.6831290000027
 31
0.0
  0
LINE
  5
2F11
  8
0-1
  6
CONTINUOUS
 62
     3
 10
14720.22478199999
 20
6727.6372500000016
 30
0.0
 11
14720.22478199999
 21
8588.6831290000027
 31
0.0
  0
LINE
  5
2F12
  8
0-1
  6
CONTINUOUS
 62
     3
 10
14790.224517999981
 20
6727.6372500000016
 30
0.0
 11
14790.224517999981
 21
8588.6831290000027
 31
0.0
  0
LINE
  5
2F13
  8
0-1
  6
CONTINUOUS
 62
     3
 10
14670.224121999991
 20
6727.6372500000016
 30
0.0
 11
14670.224121999991
 21
8588.6831290000027
 31
0.0
  0
LINE
  5
2F14
  8
0-1
  6
CONTINUOUS
 62
     3
 10
14537.224227000001
 20
6727.6372500000016
 30
0.0
 11
14537.224227000001
 21
8588.6831290000027
 31
0.0
  0
LINE
  5
2F15
  8
0-1
  6
CONTINUOUS
 62
     3
 10
14522.222445999991
 20
6727.6372500000016
 30
0.0
 11
14522.222445999991
 21
8588.6831290000027
 31
0.0
  0
LINE
  5
2F16
  8
0-1
  6
CONTINUOUS
 62
     3
 10
14923.22441199999
 20
6727.6372500000016
 30
0.0
 11
14923.22441199999
 21
8588.6831290000027
 31
0.0
  0
LINE
  5
2F17
  8
0-1
  6
CONTINUOUS
 62
     3
 10
14938.223223999979
 20
6727.6372500000016
 30
0.0
 11
14938.223223999979
 21
8588.6831290000027
 31
0.0
  0
LINE
  5
2F18
  8
0-1
  6
CONTINUOUS
 62
     3
 10
12828.222128999991
 20
6727.6372500000016
 30
0.0
 11
12828.222128999991
 21
8588.6831290000027
 31
0.0
  0
LINE
  5
2F19
  8
0-1
  6
CONTINUOUS
 62
     3
 10
12813.223315999991
 20
6727.6372500000016
 30
0.0
 11
12813.223315999991
 21
8588.6831290000027
 31
0.0
  0
LINE
  5
2F1A
  8
0-1
  6
CONTINUOUS
 62
     3
 10
12680.224412
 20
6727.6372500000016
 30
0.0
 11
12680.224412
 21
8588.6831290000027
 31
0.0
  0
LINE
  5
2F1B
  8
0-1
  6
CONTINUOUS
 62
     3
 10
15189.22327699999
 20
6677.6370850000039
 30
0.0
 11
15189.22327699999
 21
6577.6372500000016
 31
0.0
  0
LINE
  5
2F1C
  8
0-1
  6
CONTINUOUS
 62
     3
 10
9428.9115950000032
 20
8752.8624200000031
 30
0.0
 11
9427.7971260000068
 21
8786.8448159999953
 31
0.0
  0
LINE
  5
2F1D
  8
0-1
  6
CONTINUOUS
 62
     3
 10
9430.6971210000029
 20
8789.9407830000018
 30
0.0
 11
15261.064888999999
 21
8980.4734050000006
 31
0.0
  0
LINE
  5
2F1E
  8
0-1
  6
CONTINUOUS
 62
     3
 10
15262.37631999999
 20
8940.4950480000007
 30
0.0
 11
9432.0095410000049
 21
8749.9624260000019
 31
0.0
  0
LINE
  5
2F1F
  8
0-1
  6
CONTINUOUS
 62
     3
 10
9429.2728569999963
 20
8741.8681740000029
 30
0.0
 11
9429.2698880000044
 21
8741.9334979999985
 31
0.0
  0
LINE
  5
2F20
  8
0-1
  6
CONTINUOUS
 62
     3
 10
9429.2698880000044
 20
8741.9334979999985
 30
0.0
 11
9430.3210120000003
 21
8709.8860820000027
 31
0.0
  0
LINE
  5
2F21
  8
0-1
  6
CONTINUOUS
 62
     3
 10
9435.4816169999976
 20
8705.0530880000024
 30
0.0
 11
15284.82109199998
 21
8896.207279000002
 31
0.0
  0
LINE
  5
2F22
  8
0-1
  6
CONTINUOUS
 62
     3
 10
15280.560177999991
 20
9026.1369400000021
 30
0.0
 11
9431.2226829999981
 21
8834.9827490000007
 31
0.0
  0
LINE
  5
2F23
  8
0-1
  6
CONTINUOUS
 62
     3
 10
9426.3877090000005
 20
8829.8211540000011
 30
0.0
 11
9427.4378429999997
 21
8797.8390620000027
 31
0.0
  0
LINE
  5
2F24
  8
0-1
  6
CONTINUOUS
 62
     3
 10
9430.5338100000008
 20
8794.939067000003
 30
0.0
 11
15260.902569
 21
8985.4716900000021
 31
0.0
  0
LINE
  5
2F25
  8
0-1
  6
CONTINUOUS
 62
     3
 10
15262.538640999999
 20
8935.4987430000001
 30
0.0
 11
9432.1718620000029
 21
8744.9651310000008
 31
0.0
  0
LINE
  5
2F26
  8
0-1
  6
CONTINUOUS
 62
     3
 10
9443.7144350000017
 20
8835.392509000003
 30
0.0
 11
9447.9753479999981
 21
8705.4618580000024
 31
0.0
  0
LINE
  5
2F27
  8
0-5
  6
CONTINUOUS
 62
     4
 10
18059.59683799999
 20
6785.4837319999997
 30
0.0
 11
18179.59525499996
 21
6577.6372500000016
 31
0.0
  0
LINE
  5
2F28
  8
0-5
  6
CONTINUOUS
 62
     4
 10
15269.223541000019
 20
6577.6372500000016
 30
0.0
 11
20326.718935000001
 21
6577.6372500000016
 31
0.0
  0
LINE
  5
2F29
  8
0-5
  6
CONTINUOUS
 62
     4
 10
18179.59525499996
 20
6577.6372500000016
 30
0.0
 11
18299.597629999989
 21
6785.4837319999997
 31
0.0
  0
LINE
  5
2F2A
  8
0-5
  6
CONTINUOUS
 62
     4
 10
18299.597629999989
 20
6785.4837319999997
 30
0.0
 11
18059.59683799999
 21
6785.4837319999997
 31
0.0
  0
LINE
  5
2F2B
  8
0-5
  6
CONTINUOUS
 62
     4
 10
15269.223541000019
 20
6677.6370850000039
 30
0.0
 11
16986.683488999999
 21
6677.6370850000039
 31
0.0
  0
LINE
  5
2F2C
  8
0-5
  6
CONTINUOUS
 62
     4
 10
17014.309649999988
 20
6885.4830720000027
 30
0.0
 11
16774.307869
 21
6885.4830720000027
 31
0.0
  0
LINE
  5
2F2D
  8
0-5
  6
CONTINUOUS
 62
     4
 10
16894.307274999999
 20
6677.6370850000039
 30
0.0
 11
17014.309649999988
 21
6885.4830720000027
 31
0.0
  0
LINE
  5
2F2E
  8
0-5
  6
CONTINUOUS
 62
     4
 10
16774.307869
 20
6885.4830720000027
 30
0.0
 11
16894.307274999999
 21
6677.6370850000039
 31
0.0
  0
LINE
  5
2F2F
  8
2-0
  6
CENTER2
 62
     6
 10
9648.7232769999955
 20
6314.9838380000037
 30
0.0
 11
9648.7232769999955
 21
7372.1269300000004
 31
0.0
  0
LINE
  5
2F30
  8
2-0
  6
CENTER2
 62
     6
 10
12216.223276999999
 20
6314.9838380000037
 30
0.0
 11
12216.223276999999
 21
7372.1269300000004
 31
0.0
  0
LINE
  5
2F31
  8
2-0
  6
CENTER2
 62
     6
 10
15134.223276999999
 20
6314.9838380000037
 30
0.0
 11
15134.223276999999
 21
7372.1269300000004
 31
0.0
  0
ARC
  5
2F32
  8
0-1
  6
CONTINUOUS
 62
     3
 10
9432.1144560000048
 20
8792.4884229999989
 30
0.0
 40
2.5
 50
271.87799100002047
 51
91.877991000020657
  0
ARC
  5
2F33
  8
0-1
  6
CONTINUOUS
 62
     3
 10
9433.5891969999993
 20
8747.513761000002
 30
0.0
 40
2.5
 50
271.87799100002047
 51
91.877991000020657
  0
ARC
  5
2F34
  8
0-1
  6
CONTINUOUS
 62
     3
 10
9430.7951069999981
 20
8786.9428020000032
 30
0.0
 40
3.0
 50
91.877991000020657
 51
181.87799100001399
  0
ARC
  5
2F35
  8
0-1
  6
CONTINUOUS
 62
     3
 10
15261.721100000001
 20
8960.4842270000008
 30
0.0
 40
20.0
 50
271.87799100002047
 51
91.877991000020657
  0
ARC
  5
2F36
  8
0-1
  6
CONTINUOUS
 62
     3
 10
9431.909576
 20
8752.9613960000006
 30
0.0
 40
3.0
 50
181.87799100001399
 51
271.87799100002047
  0
ARC
  5
2F37
  8
0-1
  6
CONTINUOUS
 62
     3
 10
9432.2698480000035
 20
8741.9671500000022
 30
0.0
 40
3.0
 50
91.877991000020657
 51
181.87799100001399
  0
ARC
  5
2F38
  8
0-1
  6
CONTINUOUS
 62
     3
 10
9435.3183070000014
 20
8710.049393000003
 30
0.0
 40
5.0
 50
181.87799100001399
 51
271.87799100002047
  0
ARC
  5
2F39
  8
0-1
  6
CONTINUOUS
 62
     3
 10
15256.72281499999
 20
8960.3209170000027
 30
0.0
 40
69.999999000000003
 50
293.6647800001233
 51
70.091202000170611
  0
ARC
  5
2F3A
  8
0-1
  6
CONTINUOUS
 62
     3
 10
9431.3850029999994
 20
8829.9854539999997
 30
0.0
 40
5.0
 50
91.877991000020657
 51
181.87799100001399
  0
ARC
  5
2F3B
  8
0-1
  6
CONTINUOUS
 62
     3
 10
9430.4348340000015
 20
8797.9370480000016
 30
0.0
 40
3.0
 50
181.87799100001399
 51
271.87799100002047
  0
ARC
  5
2F3C
  8
0-1
  6
CONTINUOUS
 62
     3
 10
15261.721100000001
 20
8960.4842270000008
 30
0.0
 40
24.999998999999999
 50
271.87799100002047
 51
91.877991000020657
  0
TEXT
  5
2F3D
  8
0-0
  6
CONTINUOUS
 62
     7
 10
18059.59683799999
 20
6865.4835010000006
 30
0.0
 40
160.0
  1
G.L
 72
     4
 11
18219.59683799999
 21
6945.4835010000006
 31
0.0
  0
TEXT
  5
2F3E
  8
0-0
  6
CONTINUOUS
 62
     7
 10
16435.216335999979
 20
6965.4833360000011
 30
0.0
 40
160.0
  1
布基礎天端
 72
     4
 11
16893.883002666651
 21
7045.4833360000011
 31
0.0
  0
TEXT
  5
2F3F
  8
2-0
  6
CONTINUOUS
 62
     7
 10
10735.63245599999
 20
3489.4699880000021
 30
0.0
 40
160.0
  1
側 面 立 面 図
 72
     4
 11
11380.96578933333
 21
3569.4699880000021
 31
0.0
  0
TEXT
  5
2F40
  8
2-0
  6
CONTINUOUS
 62
     7
 10
12732.45797447095
 20
3516.6653570000021
 30
0.0
 40
160.0
  1
1
 72
     4
 11
12759.12464113762
 21
3596.6653570000012
 31
0.0
  0
TEXT
  5
2F41
  8
2-0
  6
CONTINUOUS
 62
     7
 10
12975.546691721651
 20
3436.6668250000012
 30
0.0
 40
160.0
  1
80
 72
     4
 11
13095.546691721651
 21
3516.6668250000012
 31
0.0
  0
TEXT
  5
2F42
  8
2-0
  6
CONTINUOUS
 62
     7
 10
12233.45994047095
 20
3489.4699880000021
 30
0.0
 40
160.0
  1
(S=  /   )
 72
     4
 11
12793.45994047095
 21
3569.4699880000021
 31
0.0
  0
LINE
  5
2F43
  8
0-1
  6
CONTINUOUS
 62
     3
 10
20499.216163000008
 20
8585.6371440000057
 30
0.0
 11
23332.219593999991
 21
8585.6371440000057
 31
0.0
  0
LINE
  5
2F4A
  8
0-1
  6
CONTINUOUS
 62
     3
 10
23424.71853899999
 20
6677.6370850000039
 30
0.0
 11
23324.719197999992
 21
6677.6370850000039
 31
0.0
  0
LINE
  5
2F4B
  8
0-1
  6
CONTINUOUS
 62
     3
 10
23324.719197999992
 20
6677.6370850000039
 30
0.0
 11
23324.719197999992
 21
6577.6372500000016
 31
0.0
  0
LINE
  5
2F4C
  8
0-1
  6
CONTINUOUS
 62
     3
 10
23424.71853899999
 20
6577.6372500000016
 30
0.0
 11
23424.71853899999
 21
6677.6370850000039
 31
0.0
  0
LINE
  5
2F4D
  8
0-1
  6
CONTINUOUS
 62
     3
 10
23332.219593999991
 20
8895.6371770000005
 30
0.0
 11
23332.219593999991
 21
6677.6370850000039
 31
0.0
  0
LINE
  5
2F4E
  8
0-1
  6
CONTINUOUS
 62
     3
 10
23287.221177999989
 20
8585.6371440000057
 30
0.0
 11
23287.221177999989
 21
6577.6372500000016
 31
0.0
  0
LINE
  5
2F4F
  8
0-1
  6
CONTINUOUS
 62
     3
 10
23397.221045999981
 20
9025.6371109999982
 30
0.0
 11
23397.221045999981
 21
6677.6370850000039
 31
0.0
  0
LINE
  5
2F50
  8
0-1
  6
CONTINUOUS
 62
     3
 10
23417.218142999991
 20
8895.6371770000005
 30
0.0
 11
23417.218142999991
 21
6677.6370850000039
 31
0.0
  0
LINE
  5
2F52
  8
0-1
  6
CONTINUOUS
 62
     3
 10
20406.717218999998
 20
6677.6370850000039
 30
0.0
 11
20506.716559
 21
6677.6370850000039
 31
0.0
  0
LINE
  5
2F53
  8
0-1
  6
CONTINUOUS
 62
     3
 10
20506.716559
 20
6677.6370850000039
 30
0.0
 11
20506.716559
 21
6577.6372500000016
 31
0.0
  0
LINE
  5
2F54
  8
0-1
  6
CONTINUOUS
 62
     3
 10
20406.717218999998
 20
6577.6372500000016
 30
0.0
 11
20406.717218999998
 21
6677.6370850000039
 31
0.0
  0
LINE
  5
2F55
  8
0-1
  6
CONTINUOUS
 62
     3
 10
20544.218539000001
 20
8585.6371440000057
 30
0.0
 11
20544.218539000001
 21
6577.6372500000016
 31
0.0
  0
LINE
  5
2F56
  8
0-1
  6
CONTINUOUS
 62
     3
 10
20499.216163000008
 20
8895.6371770000005
 30
0.0
 11
20499.216163000008
 21
6677.6370850000039
 31
0.0
  0
LINE
  5
2F57
  8
0-1
  6
CONTINUOUS
 62
     3
 10
20434.216691000009
 20
9025.6371109999982
 30
0.0
 11
20434.216691000009
 21
6677.6370850000039
 31
0.0
  0
LINE
  5
2F58
  8
0-1
  6
CONTINUOUS
 62
     3
 10
20414.217615000001
 20
8895.6371770000005
 30
0.0
 11
20414.217615000001
 21
6677.6370850000039
 31
0.0
  0
LINE
  5
2F59
  8
0-1
  6
CONTINUOUS
 62
     3
 10
20544.218539000001
 20
7097.6379760000009
 30
0.0
 11
23287.221177999989
 21
7097.6379760000009
 31
0.0
  0
LINE
  5
2F5A
  8
0-1
  6
CONTINUOUS
 62
     3
 10
20544.218539000001
 20
7032.6375140000036
 30
0.0
 11
23287.221177999989
 21
7032.6375140000036
 31
0.0
  0
LINE
  5
2F5B
  8
0-1
  6
CONTINUOUS
 62
     3
 10
20544.218539000001
 20
6967.6375470000039
 30
0.0
 11
23287.221177999989
 21
6967.6375470000039
 31
0.0
  0
LINE
  5
2F5C
  8
0-1
  6
CONTINUOUS
 62
     3
 10
20544.218539000001
 20
6902.6370850000021
 30
0.0
 11
23287.221177999989
 21
6902.6370850000021
 31
0.0
  0
LINE
  5
2F5D
  8
0-1
  6
CONTINUOUS
 62
     3
 10
20544.218539000001
 20
6837.6376130000071
 30
0.0
 11
23287.221177999989
 21
6837.6376130000071
 31
0.0
  0
LINE
  5
2F5E
  8
0-1
  6
CONTINUOUS
 62
     3
 10
20544.218539000001
 20
6772.6376460000029
 30
0.0
 11
23287.221177999989
 21
6772.6376460000029
 31
0.0
  0
LINE
  5
2F5F
  8
0-1
  6
CONTINUOUS
 62
     3
 10
20544.218539000001
 20
6707.6376790000022
 30
0.0
 11
23287.221177999989
 21
6707.6376790000022
 31
0.0
  0
LINE
  5
2F60
  8
0-1
  6
CONTINUOUS
 62
     3
 10
20544.218539000001
 20
6642.6372170000041
 30
0.0
 11
23287.221177999989
 21
6642.6372170000041
 31
0.0
  0
LINE
  5
2F61
  8
0-1
  6
CONTINUOUS
 62
     3
 10
20544.218539000001
 20
8462.6372830000018
 30
0.0
 11
23287.221177999989
 21
8462.6372830000018
 31
0.0
  0
LINE
  5
2F62
  8
0-1
  6
CONTINUOUS
 62
     3
 10
20544.218539000001
 20
8397.6373160000057
 30
0.0
 11
23287.221177999989
 21
8397.6373160000057
 31
0.0
  0
LINE
  5
2F63
  8
0-1
  6
CONTINUOUS
 62
     3
 10
20544.218539000001
 20
8332.6378440000026
 30
0.0
 11
23287.221177999989
 21
8332.6378440000026
 31
0.0
  0
LINE
  5
2F64
  8
0-1
  6
CONTINUOUS
 62
     3
 10
20544.218539000001
 20
8267.6378770000028
 30
0.0
 11
23287.221177999989
 21
8267.6378770000028
 31
0.0
  0
LINE
  5
2F65
  8
0-1
  6
CONTINUOUS
 62
     3
 10
20544.218539000001
 20
8202.6379100000049
 30
0.0
 11
23287.221177999989
 21
8202.6379100000049
 31
0.0
  0
LINE
  5
2F66
  8
0-1
  6
CONTINUOUS
 62
     3
 10
20544.218539000001
 20
8137.6374480000031
 30
0.0
 11
23287.221177999989
 21
8137.6374480000031
 31
0.0
  0
LINE
  5
2F67
  8
0-1
  6
CONTINUOUS
 62
     3
 10
20544.218539000001
 20
8072.6374810000016
 30
0.0
 11
23287.221177999989
 21
8072.6374810000016
 31
0.0
  0
LINE
  5
2F68
  8
0-1
  6
CONTINUOUS
 62
     3
 10
20544.218539000001
 20
8007.6380090000039
 30
0.0
 11
23287.221177999989
 21
8007.6380090000039
 31
0.0
  0
LINE
  5
2F69
  8
0-1
  6
CONTINUOUS
 62
     3
 10
20544.218539000001
 20
7942.6380419999969
 30
0.0
 11
23287.221177999989
 21
7942.6380419999969
 31
0.0
  0
LINE
  5
2F6A
  8
0-1
  6
CONTINUOUS
 62
     3
 10
20544.218539000001
 20
7877.6375800000069
 30
0.0
 11
23287.221177999989
 21
7877.6375800000069
 31
0.0
  0
LINE
  5
2F6B
  8
0-1
  6
CONTINUOUS
 62
     3
 10
20544.218539000001
 20
7812.6376130000026
 30
0.0
 11
23287.221177999989
 21
7812.6376130000026
 31
0.0
  0
LINE
  5
2F6C
  8
0-1
  6
CONTINUOUS
 62
     3
 10
20544.218539000001
 20
7747.637646000002
 30
0.0
 11
23287.221177999989
 21
7747.637646000002
 31
0.0
  0
LINE
  5
2F6D
  8
0-1
  6
CONTINUOUS
 62
     3
 10
20544.218539000001
 20
7682.6371840000038
 30
0.0
 11
23287.221177999989
 21
7682.6371840000038
 31
0.0
  0
LINE
  5
2F6E
  8
0-1
  6
CONTINUOUS
 62
     3
 10
20544.218539000001
 20
7617.6372170000022
 30
0.0
 11
23287.221177999989
 21
7617.6372170000022
 31
0.0
  0
LINE
  5
2F6F
  8
0-1
  6
CONTINUOUS
 62
     3
 10
20544.218539000001
 20
7552.6377450000018
 30
0.0
 11
23287.221177999989
 21
7552.6377450000018
 31
0.0
  0
LINE
  5
2F70
  8
0-1
  6
CONTINUOUS
 62
     3
 10
20544.218539000001
 20
7487.6377780000057
 30
0.0
 11
23287.221177999989
 21
7487.6377780000057
 31
0.0
  0
LINE
  5
2F71
  8
0-1
  6
CONTINUOUS
 62
     3
 10
20544.218539000001
 20
7422.6378110000032
 30
0.0
 11
23287.221177999989
 21
7422.6378110000032
 31
0.0
  0
LINE
  5
2F72
  8
0-1
  6
CONTINUOUS
 62
     3
 10
20544.218539000001
 20
7357.6373490000087
 30
0.0
 11
23287.221177999989
 21
7357.6373490000087
 31
0.0
  0
LINE
  5
2F73
  8
0-1
  6
CONTINUOUS
 62
     3
 10
20544.218539000001
 20
7292.6373820000017
 30
0.0
 11
23287.221177999989
 21
7292.6373820000017
 31
0.0
  0
LINE
  5
2F74
  8
0-1
  6
CONTINUOUS
 62
     3
 10
20544.218539000001
 20
7227.6379100000049
 30
0.0
 11
23287.221177999989
 21
7227.6379100000049
 31
0.0
  0
LINE
  5
2F75
  8
0-1
  6
CONTINUOUS
 62
     3
 10
20544.218539000001
 20
7162.6379430000034
 30
0.0
 11
23287.221177999989
 21
7162.6379430000034
 31
0.0
  0
LINE
  5
2F76
  8
0-1
  6
CONTINUOUS
 62
     3
 10
20544.218539000001
 20
8517.0973030000023
 30
0.0
 11
23287.221177999989
 21
8517.0973030000023
 31
0.0
  0
LINE
  5
2F77
  8
0-1
  6
CONTINUOUS
 62
     3
 10
20406.717218999998
 20
6577.6372500000016
 30
0.0
 11
23424.71853899999
 21
6577.6372500000016
 31
0.0
  0
LINE
  5
2F89
  8
0-2
  6
CONTINUOUS
 62
     4
 10
22279.409877999991
 20
7324.8639440000024
 30
0.0
 11
22179.410537999978
 21
7324.8639440000024
 31
0.0
  0
LINE
  5
2F8A
  8
0-2
  6
CONTINUOUS
 62
     4
 10
21552.025877999979
 20
7324.8639440000024
 30
0.0
 11
21652.025217999992
 21
7324.8639440000024
 31
0.0
  0
LINE
  5
2F8B
  8
0-5
  6
CONTINUOUS
 62
     4
 10
23374.719858
 20
4897.637646000002
 30
0.0
 11
23374.719858
 21
4737.6381080000019
 31
0.0
  0
LINE
  5
2F8C
  8
0-5
  6
CONTINUOUS
 62
     4
 10
20456.719858
 20
4897.637646000002
 30
0.0
 11
20456.719858
 21
4737.6381080000019
 31
0.0
  0
LINE
  5
2F8D
  8
2-0
  6
CENTER2
 62
     6
 10
23374.719858
 20
6314.9848270000039
 30
0.0
 11
23374.719858
 21
7352.1278540000058
 31
0.0
  0
LINE
  5
2F8E
  8
2-0
  6
CENTER2
 62
     6
 10
20456.719858
 20
6314.9848270000039
 30
0.0
 11
20456.719858
 21
7352.1278540000058
 31
0.0
  0
CIRCLE
  5
2F97
  8
0-5
  6
CONTINUOUS
 62
     4
 10
23374.719858
 20
4537.636953000002
 30
0.0
 40
199.9999949999999
  0
CIRCLE
  5
2F98
  8
0-5
  6
CONTINUOUS
 62
     4
 10
20456.719858
 20
4537.636953000002
 30
0.0
 40
199.9999949999999
  0
TEXT
  5
2F99
  8
0-5
  6
CONTINUOUS
 62
     7
 10
23322.806982999991
 20
4448.1619710000023
 30
0.0
 40
160.0
  1
2
 72
     4
 11
23376.14031633332
 21
4528.1619710000023
 31
0.0
  0
TEXT
  5
2F9A
  8
0-5
  6
CONTINUOUS
 62
     7
 10
20404.806983999992
 20
4448.1619710000023
 30
0.0
 40
160.0
  1
1
 72
     4
 11
20431.47365066666
 21
4528.1619710000023
 31
0.0
  0
TEXT
  5
2F9B
  8
2-0
  6
CONTINUOUS
 62
     7
 10
20572.625369000009
 20
3729.2513000000008
 30
0.0
 40
160.0
  1
正 面 立 面 図
 72
     4
 11
21217.958702333341
 21
3809.2513000000008
 31
0.0
  0
CIRCLE
  5
2F9C
  8
0-4
  6
CONTINUOUS
 62
     4
 10
21915.719858
 20
7063.6936859999987
 30
0.0
 40
18.487504999999981
  0
TEXT
  5
2F9D
  8
2-0
  6
CONTINUOUS
 62
     7
 10
22569.450887470972
 20
3756.4466690000022
 30
0.0
 40
160.0
  1
1
 72
     4
 11
22596.117554137629
 21
3836.4466690000022
 31
0.0
  0
TEXT
  5
2F9E
  8
2-0
  6
CONTINUOUS
 62
     7
 10
22812.53960472166
 20
3676.4481370000012
 30
0.0
 40
160.0
  1
80
 72
     4
 11
22932.53960472166
 21
3756.4481370000012
 31
0.0
  0
TEXT
  5
2F9F
  8
2-0
  6
CONTINUOUS
 62
     7
 10
22070.452853470961
 20
3729.2513000000008
 30
0.0
 40
160.0
  1
(S=  /   )
 72
     4
 11
22630.452853470961
 21
3809.2513000000008
 31
0.0
  0
LINE
  5
2FA0
  8
SUNPOU
  6
CONTINUOUS
 10
20174.219857999989
 20
5377.6372500000098
 30
0.0
 11
19816.26485127888
 21
5377.6372500000098
 31
0.0
  0
LINE
  5
2FA1
  8
SUNPOU
  6
CONTINUOUS
 10
23657.219858
 20
5377.6372500000098
 30
0.0
 11
24015.174864721092
 21
5377.6372500000098
 31
0.0
  0
TEXT
  5
2FA2
  8
0-5
  6
CONTINUOUS
 62
     7
 10
19838.54193900001
 20
7306.997496742003
 30
0.0
 40
160.0
  1
(2131.5)
 50
90.0
 72
     4
 11
19758.54193900001
 21
7760.330830075337
 31
0.0
  0
LINE
  5
2FA3
  8
0-1
  6
CONTINUOUS
 62
     3
 10
9901.2237380000206
 20
6727.6372500000016
 30
0.0
 11
9901.2237380000206
 21
8588.6831290000027
 31
0.0
  0
LINE
  5
2FA4
  8
0-1
  6
CONTINUOUS
 62
     3
 10
9886.2249260000153
 20
6727.6372500000016
 30
0.0
 11
9886.2249260000153
 21
8588.6831290000027
 31
0.0
  0
LINE
  5
2FA5
  8
0-5
  6
CONTINUOUS
 62
     4
 10
15134.223276999999
 20
4897.637646000002
 30
0.0
 11
15134.223276999999
 21
4737.6381080000019
 31
0.0
  0
LINE
  5
2FA6
  8
0-5
  6
CONTINUOUS
 62
     4
 10
12216.223276999999
 20
4897.637646000002
 30
0.0
 11
12216.223276999999
 21
4737.6381080000019
 31
0.0
  0
LINE
  5
2FA7
  8
0-5
  6
CONTINUOUS
 62
     4
 10
9648.7232769999955
 20
4897.637646000002
 30
0.0
 11
9648.7232769999955
 21
4737.6381080000019
 31
0.0
  0
CIRCLE
  5
2FA8
  8
0-5
  6
CONTINUOUS
 62
     4
 10
12216.223276999999
 20
4537.6369530000047
 30
0.0
 40
199.9999949999999
  0
CIRCLE
  5
2FA9
  8
0-5
  6
CONTINUOUS
 62
     4
 10
15134.223276999999
 20
4537.6369530000047
 30
0.0
 40
199.9999949999999
  0
CIRCLE
  5
2FAA
  8
0-5
  6
CONTINUOUS
 62
     4
 10
9648.7232769999955
 20
4537.6369530000047
 30
0.0
 40
199.9999949999999
  0
TEXT
  5
2FAB
  8
0-5
  6
CONTINUOUS
 62
     7
 10
15087.26711699999
 20
4454.4261570000053
 30
0.0
 40
160.0
  1
A
 72
     4
 11
15140.60045033333
 21
4534.4261570000053
 31
0.0
  0
TEXT
  5
2FAC
  8
0-5
  6
CONTINUOUS
 62
     7
 10
12169.267116999979
 20
4454.4261570000053
 30
0.0
 40
160.0
  1
B
 72
     4
 11
12222.600450333321
 21
4534.4261570000053
 31
0.0
  0
TEXT
  5
2FAD
  8
0-5
  6
CONTINUOUS
 62
     7
 10
9601.7671170000031
 20
4454.4261570000053
 30
0.0
 40
160.0
  1
C
 72
     4
 11
9655.100450333337
 21
4534.4261570000053
 31
0.0
  0
TEXT
  5
2FAE
  8
2-0
  6
CONTINUOUS
 62
     7
 10
20680.427972000009
 20
12038.053153000001
 30
0.0
 40
160.0
  1
平　面　図
 72
     4
 11
21133.761305333341
 21
12112.71981966667
 31
0.0
  0
TEXT
  5
2FAF
  8
2-0
  6
CONTINUOUS
 62
     7
 10
22485.25349047095
 20
12059.91518866667
 30
0.0
 40
160.0
  1
1
 72
     4
 11
22511.920157137622
 21
12139.91518866667
 31
0.0
  0
TEXT
  5
2FB0
  8
2-0
  6
CONTINUOUS
 62
     7
 10
22728.342207721649
 20
11979.91665666667
 30
0.0
 40
160.0
  1
80
 72
     4
 11
22848.342207721649
 21
12059.91665666667
 31
0.0
  0
TEXT
  5
2FB1
  8
2-0
  6
CONTINUOUS
 62
     7
 10
21986.255456470961
 20
12032.71981966667
 30
0.0
 40
160.0
  1
(S=  /   )
 72
     4
 11
22546.255456470961
 21
12112.71981966667
 31
0.0
  0
LINE
  5
2FB2
  8
2-0
  6
CONTINUOUS
 62
     6
 10
21691.560942
 20
13628.933841
 30
0.0
 11
22691.55434399996
 21
13628.933841
 31
0.0
  0
LINE
  5
2FB3
  8
2-0
  6
CONTINUOUS
 62
     6
 10
23159.494720999999
 20
14099.354555
 30
0.0
 11
22691.55434399996
 21
13628.933841
 31
0.0
  0
LINE
  5
2FB4
  8
2-0
  6
CONTINUOUS
 62
     6
 10
23120.854517999978
 20
17290.96220200001
 30
0.0
 11
22816.15909999999
 21
17394.615733000021
 31
0.0
  0
LINE
  5
2FB5
  8
2-0
  6
CONTINUOUS
 62
     6
 10
23275.87655699997
 20
16801.340158000021
 30
0.0
 11
22816.15909999999
 21
16557.426846999999
 31
0.0
  0
LINE
  5
2FB6
  8
2-0
  6
CONTINUOUS
 62
     6
 10
21896.156064999981
 20
16557.426846999999
 30
0.0
 11
22816.15909999999
 21
16557.426846999999
 31
0.0
  0
LINE
  5
2FB7
  8
2-0
  6
CONTINUOUS
 62
     6
 10
21616.165037999988
 20
17394.615733000021
 30
0.0
 11
22816.15909999999
 21
17394.615733000021
 31
0.0
  0
LINE
  5
2FB8
  8
2-0
  6
CONTINUOUS
 62
     6
 10
23192.05384199999
 20
14421.03820099999
 30
0.0
 11
22816.15909999999
 21
14601.982035999999
 31
0.0
  0
LINE
  5
2FB9
  8
2-0
  6
CONTINUOUS
 62
     6
 10
22296.157383999991
 20
14601.982035999999
 30
0.0
 11
22816.15909999999
 21
14601.982035999999
 31
0.0
  0
LINE
  5
2FBA
  8
2-0
  6
CONTINUOUS
 62
     4
 10
20456.719858
 20
19876.935491000011
 30
0.0
 11
20456.719858
 21
20606.932455999999
 31
0.0
  0
LINE
  5
2FBB
  8
2-0
  6
CONTINUOUS
 62
     3
 10
23387.220517999991
 20
19687.93303700001
 30
0.0
 11
23387.220517999991
 21
19681.937075000009
 31
0.0
  0
LINE
  5
2FBC
  8
2-0
  6
CONTINUOUS
 62
     3
 10
23387.220517999991
 20
19681.937075000009
 30
0.0
 11
23417.21814199998
 21
19681.937075000009
 31
0.0
  0
LINE
  5
2FBD
  8
2-0
  6
CONTINUOUS
 62
     3
 10
23417.21814199998
 20
19711.936678999991
 30
0.0
 11
23336.21624199998
 21
19711.936678999991
 31
0.0
  0
LINE
  5
2FBE
  8
2-0
  6
CONTINUOUS
 62
     3
 10
23387.220517999991
 20
19671.639619000001
 30
0.0
 11
23417.21814199998
 21
19671.639619000001
 31
0.0
  0
LINE
  5
2FBF
  8
2-0
  6
CONTINUOUS
 62
     3
 10
23387.220517999991
 20
19689.64136100002
 30
0.0
 11
23387.220517999991
 21
19671.639619000001
 31
0.0
  0
LINE
  5
2FC0
  8
2-0
  6
CONTINUOUS
 62
     3
 10
23412.217877999989
 20
19689.64136100002
 30
0.0
 11
23387.220517999991
 21
19689.64136100002
 31
0.0
  0
LINE
  5
2FC1
  8
2-0
  6
CONTINUOUS
 62
     3
 10
23412.217877999989
 20
19684.633179000011
 30
0.0
 11
23412.217877999989
 21
19689.64136100002
 31
0.0
  0
LINE
  5
2FC2
  8
2-0
  6
CONTINUOUS
 62
     3
 10
23405.216321
 20
19684.633179000011
 30
0.0
 11
23412.217877999989
 21
19684.633179000011
 31
0.0
  0
LINE
  5
2FC3
  8
2-0
  6
CONTINUOUS
 62
     3
 10
23304.920053000002
 20
19784.933406
 30
0.0
 11
23304.920053000002
 21
19791.938922000008
 31
0.0
  0
LINE
  5
2FC4
  8
2-0
  6
CONTINUOUS
 62
     3
 10
23304.920053000002
 20
19791.938922000008
 30
0.0
 11
23309.920316999971
 21
19791.938922000008
 31
0.0
  0
LINE
  5
2FC5
  8
2-0
  6
CONTINUOUS
 62
     3
 10
23309.920316999971
 20
19791.938922000008
 30
0.0
 11
23309.920316999971
 21
19766.92968500001
 31
0.0
  0
LINE
  5
2FC6
  8
2-0
  6
CONTINUOUS
 62
     3
 10
23309.920316999971
 20
19766.92968500001
 30
0.0
 11
23291.918574999971
 21
19766.92968500001
 31
0.0
  0
LINE
  5
2FC7
  8
2-0
  6
CONTINUOUS
 62
     3
 10
23291.918574999971
 20
19766.92968500001
 30
0.0
 11
23291.918574999971
 21
19796.933248000008
 31
0.0
  0
LINE
  5
2FC8
  8
2-0
  6
CONTINUOUS
 62
     3
 10
23302.216030999989
 20
19796.933248000008
 30
0.0
 11
23417.21814199998
 21
19796.933248000008
 31
0.0
  0
LINE
  5
2FC9
  8
2-0
  6
CONTINUOUS
 62
     3
 10
23302.216030999989
 20
19766.92968500001
 30
0.0
 11
23302.216030999989
 21
19796.933248000008
 31
0.0
  0
LINE
  5
2FCA
  8
2-0
  6
CONTINUOUS
 62
     3
 10
23308.217930999988
 20
19766.92968500001
 30
0.0
 11
23302.216030999989
 21
19766.92968500001
 31
0.0
  0
LINE
  5
2FCB
  8
2-0
  6
CONTINUOUS
 62
     3
 10
23405.216321
 20
19331.336356499989
 30
0.0
 11
23412.217877999989
 21
19331.336356499989
 31
0.0
  0
LINE
  5
2FCC
  8
2-0
  6
CONTINUOUS
 62
     3
 10
23412.217877999989
 20
19331.336356499989
 30
0.0
 11
23412.217877999989
 21
19336.336620499991
 31
0.0
  0
LINE
  5
2FCD
  8
2-0
  6
CONTINUOUS
 62
     3
 10
23412.217877999989
 20
19336.336620499991
 30
0.0
 11
23387.220517999991
 21
19336.336620499991
 31
0.0
  0
LINE
  5
2FCE
  8
2-0
  6
CONTINUOUS
 62
     3
 10
23387.220517999991
 20
19336.336620499991
 30
0.0
 11
23387.220517999991
 21
19318.3408165
 31
0.0
  0
LINE
  5
2FCF
  8
2-0
  6
CONTINUOUS
 62
     3
 10
23387.220517999991
 20
19318.3408165
 30
0.0
 11
23417.21814199998
 21
19318.3408165
 31
0.0
  0
LINE
  5
2FD0
  8
2-0
  6
CONTINUOUS
 62
     3
 10
23387.220517999991
 20
19334.432323499961
 30
0.0
 11
23387.220517999991
 21
19328.4343825
 31
0.0
  0
LINE
  5
2FD1
  8
2-0
  6
CONTINUOUS
 62
     3
 10
23387.220517999991
 20
19328.4343825
 30
0.0
 11
23417.21814199998
 21
19328.4343825
 31
0.0
  0
LINE
  5
2FD2
  8
2-0
  6
CONTINUOUS
 62
     3
 10
23417.21814199998
 20
19328.4343825
 30
0.0
 11
23417.21814199998
 21
19365.4355435
 31
0.0
  0
LINE
  5
2FD3
  8
2-0
  6
CONTINUOUS
 62
     3
 10
23387.220517999991
 20
19365.4355435
 30
0.0
 11
23417.21814199998
 21
19365.4355435
 31
0.0
  0
LINE
  5
2FD4
  8
2-0
  6
CONTINUOUS
 62
     3
 10
23387.220517999991
 20
19359.431663499981
 30
0.0
 11
23387.220517999991
 21
19365.4355435
 31
0.0
  0
LINE
  5
2FD5
  8
2-0
  6
CONTINUOUS
 62
     3
 10
23387.220517999991
 20
19375.531088499989
 30
0.0
 11
23417.21814199998
 21
19375.531088499989
 31
0.0
  0
LINE
  5
2FD6
  8
2-0
  6
CONTINUOUS
 62
     3
 10
23387.220517999991
 20
19357.529346499989
 30
0.0
 11
23387.220517999991
 21
19375.531088499989
 31
0.0
  0
LINE
  5
2FD7
  8
2-0
  6
CONTINUOUS
 62
     3
 10
23412.217877999989
 20
19357.529346499989
 30
0.0
 11
23387.220517999991
 21
19357.529346499989
 31
0.0
  0
LINE
  5
2FD8
  8
2-0
  6
CONTINUOUS
 62
     3
 10
23412.217877999989
 20
19362.529610500002
 30
0.0
 11
23412.217877999989
 21
19357.529346499989
 31
0.0
  0
LINE
  5
2FD9
  8
2-0
  6
CONTINUOUS
 62
     3
 10
23405.216321
 20
19362.529610500002
 30
0.0
 11
23412.217877999989
 21
19362.529610500002
 31
0.0
  0
LINE
  5
2FDA
  8
2-0
  6
CONTINUOUS
 62
     3
 10
23405.216321
 20
18630.335367
 30
0.0
 11
23412.217877999989
 21
18630.335367
 31
0.0
  0
LINE
  5
2FDB
  8
2-0
  6
CONTINUOUS
 62
     3
 10
23412.217877999989
 20
18630.335367
 30
0.0
 11
23412.217877999989
 21
18635.341569
 31
0.0
  0
LINE
  5
2FDC
  8
2-0
  6
CONTINUOUS
 62
     3
 10
23412.217877999989
 20
18635.341569
 30
0.0
 11
23387.220517999991
 21
18635.341569
 31
0.0
  0
LINE
  5
2FDD
  8
2-0
  6
CONTINUOUS
 62
     3
 10
23387.220517999991
 20
18635.341569
 30
0.0
 11
23387.220517999991
 21
18617.339827
 31
0.0
  0
LINE
  5
2FDE
  8
2-0
  6
CONTINUOUS
 62
     3
 10
23387.220517999991
 20
18617.339827
 30
0.0
 11
23417.21814199998
 21
18617.339827
 31
0.0
  0
LINE
  5
2FDF
  8
2-0
  6
CONTINUOUS
 62
     3
 10
23387.220517999991
 20
18633.43133399999
 30
0.0
 11
23387.220517999991
 21
18627.435372
 31
0.0
  0
LINE
  5
2FE0
  8
2-0
  6
CONTINUOUS
 62
     3
 10
23387.220517999991
 20
18627.435372
 30
0.0
 11
23417.21814199998
 21
18627.435372
 31
0.0
  0
LINE
  5
2FE1
  8
2-0
  6
CONTINUOUS
 62
     3
 10
23417.21814199998
 20
18627.435372
 30
0.0
 11
23417.21814199998
 21
18664.434553999989
 31
0.0
  0
LINE
  5
2FE2
  8
2-0
  6
CONTINUOUS
 62
     3
 10
23387.220517999991
 20
18664.434553999989
 30
0.0
 11
23417.21814199998
 21
18664.434553999989
 31
0.0
  0
LINE
  5
2FE3
  8
2-0
  6
CONTINUOUS
 62
     3
 10
23387.220517999991
 20
18658.43859200001
 30
0.0
 11
23387.220517999991
 21
18664.434553999989
 31
0.0
  0
LINE
  5
2FE4
  8
2-0
  6
CONTINUOUS
 62
     3
 10
23387.220517999991
 20
18674.530099
 30
0.0
 11
23417.21814199998
 21
18674.530099
 31
0.0
  0
LINE
  5
2FE5
  8
2-0
  6
CONTINUOUS
 62
     3
 10
23387.220517999991
 20
18656.528356999988
 30
0.0
 11
23387.220517999991
 21
18674.530099
 31
0.0
  0
LINE
  5
2FE6
  8
2-0
  6
CONTINUOUS
 62
     3
 10
23412.217877999989
 20
18656.528356999988
 30
0.0
 11
23387.220517999991
 21
18656.528356999988
 31
0.0
  0
LINE
  5
2FE7
  8
2-0
  6
CONTINUOUS
 62
     3
 10
23412.217877999989
 20
18661.534559
 30
0.0
 11
23412.217877999989
 21
18656.528356999988
 31
0.0
  0
LINE
  5
2FE8
  8
2-0
  6
CONTINUOUS
 62
     3
 10
23405.216321
 20
18661.534559
 30
0.0
 11
23412.217877999989
 21
18661.534559
 31
0.0
  0
LINE
  5
2FE9
  8
2-0
  6
CONTINUOUS
 62
     3
 10
23405.216321
 20
17960.528621000001
 30
0.0
 11
23412.217877999989
 21
17960.528621000001
 31
0.0
  0
LINE
  5
2FEA
  8
2-0
  6
CONTINUOUS
 62
     3
 10
23412.217877999989
 20
17960.528621000001
 30
0.0
 11
23412.217877999989
 21
17955.540234000011
 31
0.0
  0
LINE
  5
2FEB
  8
2-0
  6
CONTINUOUS
 62
     3
 10
23412.217877999989
 20
17955.540234000011
 30
0.0
 11
23387.220517999991
 21
17955.540234000011
 31
0.0
  0
LINE
  5
2FEC
  8
2-0
  6
CONTINUOUS
 62
     3
 10
23387.220517999991
 20
17955.540234000011
 30
0.0
 11
23387.220517999991
 21
17973.536037000002
 31
0.0
  0
LINE
  5
2FED
  8
2-0
  6
CONTINUOUS
 62
     3
 10
23387.220517999991
 20
17973.536037000002
 30
0.0
 11
23417.21814199998
 21
17973.536037000002
 31
0.0
  0
LINE
  5
2FEE
  8
2-0
  6
CONTINUOUS
 62
     3
 10
23387.220517999991
 20
17957.438591999991
 30
0.0
 11
23387.220517999991
 21
17963.434553999989
 31
0.0
  0
LINE
  5
2FEF
  8
2-0
  6
CONTINUOUS
 62
     3
 10
23387.220517999991
 20
17963.434553999989
 30
0.0
 11
23417.21814199998
 21
17963.434553999989
 31
0.0
  0
LINE
  5
2FF0
  8
2-0
  6
CONTINUOUS
 62
     3
 10
23417.21814199998
 20
17963.434553999989
 30
0.0
 11
23417.21814199998
 21
17926.435372000011
 31
0.0
  0
LINE
  5
2FF1
  8
2-0
  6
CONTINUOUS
 62
     3
 10
23387.220517999991
 20
17926.435372000011
 30
0.0
 11
23417.21814199998
 21
17926.435372000011
 31
0.0
  0
LINE
  5
2FF2
  8
2-0
  6
CONTINUOUS
 62
     3
 10
23387.220517999991
 20
17932.437272999989
 30
0.0
 11
23387.220517999991
 21
17926.435372000011
 31
0.0
  0
LINE
  5
2FF3
  8
2-0
  6
CONTINUOUS
 62
     3
 10
23387.220517999991
 20
17916.345765999991
 30
0.0
 11
23417.21814199998
 21
17916.345765999991
 31
0.0
  0
LINE
  5
2FF4
  8
2-0
  6
CONTINUOUS
 62
     3
 10
23387.220517999991
 20
17934.341569
 30
0.0
 11
23387.220517999991
 21
17916.345765999991
 31
0.0
  0
LINE
  5
2FF5
  8
2-0
  6
CONTINUOUS
 62
     3
 10
23412.217877999989
 20
17934.341569
 30
0.0
 11
23387.220517999991
 21
17934.341569
 31
0.0
  0
LINE
  5
2FF6
  8
2-0
  6
CONTINUOUS
 62
     3
 10
23412.217877999989
 20
17929.341305999991
 30
0.0
 11
23412.217877999989
 21
17934.341569
 31
0.0
  0
LINE
  5
2FF7
  8
2-0
  6
CONTINUOUS
 62
     3
 10
23405.216321
 20
17929.341305999991
 30
0.0
 11
23412.217877999989
 21
17929.341305999991
 31
0.0
  0
LINE
  5
2FF8
  8
2-0
  6
CONTINUOUS
 62
     3
 10
23414.332004
 20
17209.432192
 30
0.0
 11
23414.332004
 21
17229.433247000001
 31
0.0
  0
LINE
  5
2FF9
  8
2-0
  6
CONTINUOUS
 62
     3
 10
23414.332004
 20
17229.433247000001
 30
0.0
 11
23329.335434999979
 21
17229.433247000001
 31
0.0
  0
LINE
  5
2FFA
  8
2-0
  6
CONTINUOUS
 62
     3
 10
23405.216321
 20
17256.039957000012
 30
0.0
 11
23412.217877999989
 21
17256.039957000012
 31
0.0
  0
LINE
  5
2FFB
  8
2-0
  6
CONTINUOUS
 62
     3
 10
23412.217877999989
 20
17256.039957000012
 30
0.0
 11
23412.217877999989
 21
17251.045631000012
 31
0.0
  0
LINE
  5
2FFC
  8
2-0
  6
CONTINUOUS
 62
     3
 10
23412.217877999989
 20
17251.045631000012
 30
0.0
 11
23387.220517999991
 21
17251.045631000012
 31
0.0
  0
LINE
  5
2FFD
  8
2-0
  6
CONTINUOUS
 62
     3
 10
23387.220517999991
 20
17251.045631000012
 30
0.0
 11
23387.220517999991
 21
17269.041434999999
 31
0.0
  0
LINE
  5
2FFE
  8
2-0
  6
CONTINUOUS
 62
     3
 10
23387.220517999991
 20
17269.041434999999
 30
0.0
 11
23417.21814199998
 21
17269.041434999999
 31
0.0
  0
LINE
  5
2FFF
  8
2-0
  6
CONTINUOUS
 62
     3
 10
23387.220517999991
 20
17259.432851000001
 30
0.0
 11
23387.220517999991
 21
17253.430950999991
 31
0.0
  0
LINE
  5
3000
  8
2-0
  6
CONTINUOUS
 62
     3
 10
23417.21814199998
 20
17259.432851000001
 30
0.0
 11
23387.220517999991
 21
17259.432851000001
 31
0.0
  0
LINE
  5
3001
  8
2-0
  6
CONTINUOUS
 62
     3
 10
23417.21814199998
 20
17269.041434999999
 30
0.0
 11
23417.21814199998
 21
17916.345765999991
 31
0.0
  0
LINE
  5
3002
  8
2-0
  6
CONTINUOUS
 62
     3
 10
23417.21814199998
 20
17973.536037000002
 30
0.0
 11
23417.21814199998
 21
18617.339827
 31
0.0
  0
LINE
  5
3003
  8
2-0
  6
CONTINUOUS
 62
     3
 10
23417.21814199998
 20
17114.43113600001
 30
0.0
 11
23387.220517999991
 21
17114.43113600001
 31
0.0
  0
LINE
  5
3004
  8
2-0
  6
CONTINUOUS
 62
     3
 10
23387.220517999991
 20
17114.43113600001
 30
0.0
 11
23387.220517999991
 21
17120.433035999991
 31
0.0
  0
LINE
  5
3005
  8
2-0
  6
CONTINUOUS
 62
     3
 10
23329.335434999979
 20
17144.436678999991
 30
0.0
 11
23414.332004
 21
17144.436678999991
 31
0.0
  0
LINE
  5
3006
  8
2-0
  6
CONTINUOUS
 62
     3
 10
23414.332004
 20
17144.436678999991
 30
0.0
 11
23414.332004
 21
17164.431796000012
 31
0.0
  0
LINE
  5
3007
  8
2-0
  6
CONTINUOUS
 62
     3
 10
23387.220517999991
 20
17104.822553000002
 30
0.0
 11
23417.21814199998
 21
17104.822553000002
 31
0.0
  0
LINE
  5
3008
  8
2-0
  6
CONTINUOUS
 62
     3
 10
23387.220517999991
 20
17122.818355999982
 30
0.0
 11
23387.220517999991
 21
17104.822553000002
 31
0.0
  0
LINE
  5
3009
  8
2-0
  6
CONTINUOUS
 62
     3
 10
23412.217877999989
 20
17122.818355999982
 30
0.0
 11
23387.220517999991
 21
17122.818355999982
 31
0.0
  0
LINE
  5
300A
  8
2-0
  6
CONTINUOUS
 62
     3
 10
23412.217877999989
 20
17117.818092000009
 30
0.0
 11
23412.217877999989
 21
17122.818355999982
 31
0.0
  0
LINE
  5
300B
  8
2-0
  6
CONTINUOUS
 62
     3
 10
23405.216321
 20
17117.818092000009
 30
0.0
 11
23412.217877999989
 21
17117.818092000009
 31
0.0
  0
LINE
  5
300C
  8
2-0
  6
CONTINUOUS
 62
     3
 10
23405.216321
 20
16413.335861499982
 30
0.0
 11
23412.217877999989
 21
16413.335861499982
 31
0.0
  0
LINE
  5
300D
  8
2-0
  6
CONTINUOUS
 62
     3
 10
23412.217877999989
 20
16413.335861499982
 30
0.0
 11
23412.217877999989
 21
16418.336125499991
 31
0.0
  0
LINE
  5
300E
  8
2-0
  6
CONTINUOUS
 62
     3
 10
23412.217877999989
 20
16418.336125499991
 30
0.0
 11
23387.220517999991
 21
16418.336125499991
 31
0.0
  0
LINE
  5
300F
  8
2-0
  6
CONTINUOUS
 62
     3
 10
23387.220517999991
 20
16418.336125499991
 30
0.0
 11
23387.220517999991
 21
16400.334383500001
 31
0.0
  0
LINE
  5
3010
  8
2-0
  6
CONTINUOUS
 62
     3
 10
23387.220517999991
 20
16400.334383500001
 30
0.0
 11
23417.21814199998
 21
16400.334383500001
 31
0.0
  0
LINE
  5
3011
  8
2-0
  6
CONTINUOUS
 62
     3
 10
23387.220517999991
 20
16416.431828500001
 30
0.0
 11
23387.220517999991
 21
16410.4348775
 31
0.0
  0
LINE
  5
3012
  8
2-0
  6
CONTINUOUS
 62
     3
 10
23387.220517999991
 20
16410.4348775
 30
0.0
 11
23417.21814199998
 21
16410.4348775
 31
0.0
  0
LINE
  5
3013
  8
2-0
  6
CONTINUOUS
 62
     3
 10
23417.21814199998
 20
16410.4348775
 30
0.0
 11
23417.21814199998
 21
16447.4350485
 31
0.0
  0
LINE
  5
3014
  8
2-0
  6
CONTINUOUS
 62
     3
 10
23387.220517999991
 20
16447.4350485
 30
0.0
 11
23417.21814199998
 21
16447.4350485
 31
0.0
  0
LINE
  5
3015
  8
2-0
  6
CONTINUOUS
 62
     3
 10
23387.220517999991
 20
16441.432158499989
 30
0.0
 11
23387.220517999991
 21
16447.4350485
 31
0.0
  0
LINE
  5
3016
  8
2-0
  6
CONTINUOUS
 62
     3
 10
23387.220517999991
 20
16457.5305935
 30
0.0
 11
23417.21814199998
 21
16457.5305935
 31
0.0
  0
LINE
  5
3017
  8
2-0
  6
CONTINUOUS
 62
     3
 10
23387.220517999991
 20
16439.522912500001
 30
0.0
 11
23387.220517999991
 21
16457.5305935
 31
0.0
  0
LINE
  5
3018
  8
2-0
  6
CONTINUOUS
 62
     3
 10
23412.217877999989
 20
16439.522912500001
 30
0.0
 11
23387.220517999991
 21
16439.522912500001
 31
0.0
  0
LINE
  5
3019
  8
2-0
  6
CONTINUOUS
 62
     3
 10
23412.217877999989
 20
16444.529115500001
 30
0.0
 11
23412.217877999989
 21
16439.522912500001
 31
0.0
  0
LINE
  5
301A
  8
2-0
  6
CONTINUOUS
 62
     3
 10
23405.216321
 20
16444.529115500001
 30
0.0
 11
23412.217877999989
 21
16444.529115500001
 31
0.0
  0
LINE
  5
301B
  8
2-0
  6
CONTINUOUS
 62
     3
 10
23405.216321
 20
15743.76913200001
 30
0.0
 11
23412.217877999989
 21
15743.76913200001
 31
0.0
  0
LINE
  5
301C
  8
2-0
  6
CONTINUOUS
 62
     3
 10
23412.217877999989
 20
15743.76913200001
 30
0.0
 11
23412.217877999989
 21
15738.774807000011
 31
0.0
  0
LINE
  5
301D
  8
2-0
  6
CONTINUOUS
 62
     3
 10
23412.217877999989
 20
15738.774807000011
 30
0.0
 11
23387.220517999991
 21
15738.774807000011
 31
0.0
  0
LINE
  5
301E
  8
2-0
  6
CONTINUOUS
 62
     3
 10
23387.220517999991
 20
15738.774807000011
 30
0.0
 11
23387.220517999991
 21
15756.77061000001
 31
0.0
  0
LINE
  5
301F
  8
2-0
  6
CONTINUOUS
 62
     3
 10
23387.220517999991
 20
15756.77061000001
 30
0.0
 11
23417.21814199998
 21
15756.77061000001
 31
0.0
  0
LINE
  5
3020
  8
2-0
  6
CONTINUOUS
 62
     3
 10
23387.220517999991
 20
15740.673165
 30
0.0
 11
23387.220517999991
 21
15746.67506500001
 31
0.0
  0
LINE
  5
3021
  8
2-0
  6
CONTINUOUS
 62
     3
 10
23387.220517999991
 20
15746.67506500001
 30
0.0
 11
23417.21814199998
 21
15746.67506500001
 31
0.0
  0
LINE
  5
3022
  8
2-0
  6
CONTINUOUS
 62
     3
 10
23417.21814199998
 20
15709.67588400002
 30
0.0
 11
23417.21814199998
 21
15746.67506500001
 31
0.0
  0
LINE
  5
3023
  8
2-0
  6
CONTINUOUS
 62
     3
 10
23387.220517999991
 20
15709.67588400002
 30
0.0
 11
23417.21814199998
 21
15709.67588400002
 31
0.0
  0
LINE
  5
3024
  8
2-0
  6
CONTINUOUS
 62
     3
 10
23387.220517999991
 20
15715.67283500001
 30
0.0
 11
23387.220517999991
 21
15709.67588400002
 31
0.0
  0
LINE
  5
3025
  8
2-0
  6
CONTINUOUS
 62
     3
 10
23387.220517999991
 20
15699.57440000001
 30
0.0
 11
23417.21814199998
 21
15699.57440000001
 31
0.0
  0
LINE
  5
3026
  8
2-0
  6
CONTINUOUS
 62
     3
 10
23387.220517999991
 20
15717.582081
 30
0.0
 11
23387.220517999991
 21
15699.57440000001
 31
0.0
  0
LINE
  5
3027
  8
2-0
  6
CONTINUOUS
 62
     3
 10
23412.217877999989
 20
15717.582081
 30
0.0
 11
23387.220517999991
 21
15717.582081
 31
0.0
  0
LINE
  5
3028
  8
2-0
  6
CONTINUOUS
 62
     3
 10
23412.217877999989
 20
15712.58181700002
 30
0.0
 11
23412.217877999989
 21
15717.582081
 31
0.0
  0
LINE
  5
3029
  8
2-0
  6
CONTINUOUS
 62
     3
 10
23405.216321
 20
15712.58181700002
 30
0.0
 11
23412.217877999989
 21
15712.58181700002
 31
0.0
  0
LINE
  5
302A
  8
2-0
  6
CONTINUOUS
 62
     3
 10
23417.21814199998
 20
17104.822553000002
 30
0.0
 11
23417.21814199998
 21
16457.5305935
 31
0.0
  0
LINE
  5
302B
  8
2-0
  6
CONTINUOUS
 62
     3
 10
23417.21814199998
 20
17259.432851000001
 30
0.0
 11
23417.21814199998
 21
17114.43113600001
 31
0.0
  0
LINE
  5
302C
  8
2-0
  6
CONTINUOUS
 62
     3
 10
23329.335434999979
 20
17229.433247000001
 30
0.0
 11
23329.335434999979
 21
17144.436678999991
 31
0.0
  0
LINE
  5
302D
  8
2-0
  6
CONTINUOUS
 62
     6
 10
21791.126767999991
 20
18997.880512499982
 30
0.0
 11
22816.15909999999
 21
18997.880512499982
 31
0.0
  0
LINE
  5
302E
  8
2-0
  6
CONTINUOUS
 62
     3
 10
23405.216321
 20
15011.34081
 30
0.0
 11
23412.217877999989
 21
15011.34081
 31
0.0
  0
LINE
  5
302F
  8
2-0
  6
CONTINUOUS
 62
     3
 10
23412.217877999989
 20
15011.34081
 30
0.0
 11
23412.217877999989
 21
15016.335136000011
 31
0.0
  0
LINE
  5
3030
  8
2-0
  6
CONTINUOUS
 62
     3
 10
23412.217877999989
 20
15016.335136000011
 30
0.0
 11
23387.220517999991
 21
15016.335136000011
 31
0.0
  0
LINE
  5
3031
  8
2-0
  6
CONTINUOUS
 62
     3
 10
23387.220517999991
 20
15016.335136000011
 30
0.0
 11
23387.220517999991
 21
14998.339332
 31
0.0
  0
LINE
  5
3032
  8
2-0
  6
CONTINUOUS
 62
     3
 10
23387.220517999991
 20
14998.339332
 30
0.0
 11
23417.21814199998
 21
14998.339332
 31
0.0
  0
LINE
  5
3033
  8
2-0
  6
CONTINUOUS
 62
     3
 10
23387.220517999991
 20
15014.43776700001
 30
0.0
 11
23387.220517999991
 21
15008.434877000011
 31
0.0
  0
LINE
  5
3034
  8
2-0
  6
CONTINUOUS
 62
     3
 10
23387.220517999991
 20
15008.434877000011
 30
0.0
 11
23417.21814199998
 21
15008.434877000011
 31
0.0
  0
LINE
  5
3035
  8
2-0
  6
CONTINUOUS
 62
     3
 10
23417.21814199998
 20
15008.434877000011
 30
0.0
 11
23417.21814199998
 21
15045.435048999991
 31
0.0
  0
LINE
  5
3036
  8
2-0
  6
CONTINUOUS
 62
     3
 10
23387.220517999991
 20
15045.435048999991
 30
0.0
 11
23417.21814199998
 21
15045.435048999991
 31
0.0
  0
LINE
  5
3037
  8
2-0
  6
CONTINUOUS
 62
     3
 10
23387.220517999991
 20
15039.438097
 30
0.0
 11
23387.220517999991
 21
15045.435048999991
 31
0.0
  0
LINE
  5
3038
  8
2-0
  6
CONTINUOUS
 62
     3
 10
23387.220517999991
 20
15055.535542000011
 30
0.0
 11
23417.21814199998
 21
15055.535542000011
 31
0.0
  0
LINE
  5
3039
  8
2-0
  6
CONTINUOUS
 62
     3
 10
23387.220517999991
 20
15037.52885100001
 30
0.0
 11
23387.220517999991
 21
15055.535542000011
 31
0.0
  0
LINE
  5
303A
  8
2-0
  6
CONTINUOUS
 62
     3
 10
23412.217877999989
 20
15037.52885100001
 30
0.0
 11
23387.220517999991
 21
15037.52885100001
 31
0.0
  0
LINE
  5
303B
  8
2-0
  6
CONTINUOUS
 62
     3
 10
23412.217877999989
 20
15042.53406400001
 30
0.0
 11
23412.217877999989
 21
15037.52885100001
 31
0.0
  0
LINE
  5
303C
  8
2-0
  6
CONTINUOUS
 62
     3
 10
23405.216321
 20
15042.53406400001
 30
0.0
 11
23412.217877999989
 21
15042.53406400001
 31
0.0
  0
LINE
  5
303D
  8
2-0
  6
CONTINUOUS
 62
     3
 10
23387.220517999991
 20
14335.436890000001
 30
0.0
 11
23387.220517999991
 21
14341.441758999999
 31
0.0
  0
LINE
  5
303E
  8
2-0
  6
CONTINUOUS
 62
     3
 10
23387.220517999991
 20
14341.441758999999
 30
0.0
 11
23417.21814199998
 21
14341.441758999999
 31
0.0
  0
LINE
  5
303F
  8
2-0
  6
CONTINUOUS
 62
     3
 10
23417.21814199998
 20
14341.441758999999
 30
0.0
 11
23417.21814199998
 21
14226.437668
 31
0.0
  0
LINE
  5
3040
  8
2-0
  6
CONTINUOUS
 62
     3
 10
23417.21814199998
 20
14226.437668
 30
0.0
 11
23332.219593999991
 21
14226.437668
 31
0.0
  0
LINE
  5
3041
  8
2-0
  6
CONTINUOUS
 62
     3
 10
23332.219593999991
 20
14226.437668
 30
0.0
 11
23332.219593999991
 21
14311.433247000001
 31
0.0
  0
LINE
  5
3042
  8
2-0
  6
CONTINUOUS
 62
     3
 10
23332.219593999991
 20
14311.433247000001
 30
0.0
 11
23364.218511999989
 21
14311.433247000001
 31
0.0
  0
LINE
  5
3043
  8
2-0
  6
CONTINUOUS
 62
     3
 10
23405.216321
 20
14338.471492000001
 30
0.0
 11
23412.217877999989
 21
14338.471492000001
 31
0.0
  0
LINE
  5
3044
  8
2-0
  6
CONTINUOUS
 62
     3
 10
23412.217877999989
 20
14338.471492000001
 30
0.0
 11
23412.217877999989
 21
14333.47419699998
 31
0.0
  0
LINE
  5
3045
  8
2-0
  6
CONTINUOUS
 62
     3
 10
23412.217877999989
 20
14333.47419699998
 30
0.0
 11
23387.220517999991
 21
14333.47419699998
 31
0.0
  0
LINE
  5
3046
  8
2-0
  6
CONTINUOUS
 62
     3
 10
23387.220517999991
 20
14333.47419699998
 30
0.0
 11
23387.220517999991
 21
14351.472970000001
 31
0.0
  0
LINE
  5
3047
  8
2-0
  6
CONTINUOUS
 62
     3
 10
23387.220517999991
 20
14351.472970000001
 30
0.0
 11
23417.21814199998
 21
14351.472970000001
 31
0.0
  0
LINE
  5
3048
  8
2-0
  6
CENTER2
 62
     6
 10
23374.719858
 20
14028.94010999999
 30
0.0
 11
23374.719858
 21
15184.80886800002
 31
0.0
  0
LINE
  5
3049
  8
2-0
  6
CONTINUOUS
 62
     3
 10
23417.21814199998
 20
18674.530099
 30
0.0
 11
23417.21814199998
 21
19318.3408165
 31
0.0
  0
LINE
  5
304A
  8
2-0
  6
CONTINUOUS
 62
     6
 10
24109.723024999981
 20
20526.936151000031
 30
0.0
 11
25309.717086999961
 21
20526.936151000031
 31
0.0
  0
LINE
  5
304B
  8
2-0
  6
CONTINUOUS
 62
     6
 10
23247.690191999969
 20
19240.0350205
 30
0.0
 11
22816.15909999999
 21
18997.880512499982
 31
0.0
  0
LINE
  5
304C
  8
2-0
  6
CONTINUOUS
 62
     6
 10
23569.25902599996
 20
19939.612988000001
 30
0.0
 11
24109.723024999981
 21
20526.936151000031
 31
0.0
  0
LINE
  5
304D
  8
2-0
  6
CONTINUOUS
 62
     3
 10
23417.21814199998
 20
16400.334383500001
 30
0.0
 11
23417.21814199998
 21
15756.77061000001
 31
0.0
  0
LINE
  5
304E
  8
2-0
  6
CONTINUOUS
 62
     6
 10
23234.63328699999
 20
19263.294364500001
 30
0.0
 11
23387.220517999991
 21
19318.3408165
 31
0.0
  0
LINE
  5
304F
  8
2-0
  6
CONTINUOUS
 62
     6
 10
23387.220517999991
 20
19318.3408165
 30
0.0
 11
23260.739177999989
 21
19216.781616499979
 31
0.0
  0
LINE
  5
3050
  8
2-0
  6
CONTINUOUS
 62
     6
 10
23234.63328699999
 20
19263.294364500001
 30
0.0
 11
23260.739177999989
 21
19216.781616499979
 31
0.0
  0
LINE
  5
3051
  8
2-0
  6
CONTINUOUS
 62
     6
 10
23260.739177999989
 20
19216.781616499979
 30
0.0
 11
23387.220517999991
 21
19318.3408165
 31
0.0
  0
LINE
  5
3052
  8
2-0
  6
CONTINUOUS
 62
     6
 10
23387.220517999991
 20
19318.3408165
 30
0.0
 11
23234.63328699999
 21
19263.294364500001
 31
0.0
  0
LINE
  5
3053
  8
2-0
  6
CONTINUOUS
 62
     6
 10
23234.63328699999
 20
19263.294364500001
 30
0.0
 11
23387.220517999991
 21
19318.3408165
 31
0.0
  0
LINE
  5
3054
  8
2-0
  6
CONTINUOUS
 62
     6
 10
23260.739177999989
 20
19216.781616499979
 30
0.0
 11
23387.220517999991
 21
19318.3408165
 31
0.0
  0
LINE
  5
3055
  8
2-0
  6
CONTINUOUS
 62
     6
 10
23260.739177999989
 20
19216.781616499979
 30
0.0
 11
23234.63328699999
 21
19263.294364500001
 31
0.0
  0
LINE
  5
3056
  8
2-0
  6
CONTINUOUS
 62
     6
 10
23588.87605499999
 20
19921.551861000022
 30
0.0
 11
23460.914035000002
 21
19821.869243000001
 31
0.0
  0
LINE
  5
3057
  8
2-0
  6
CONTINUOUS
 62
     6
 10
23460.914035000002
 20
19821.869243000001
 30
0.0
 11
23549.628139999972
 21
19957.666198000021
 31
0.0
  0
LINE
  5
3058
  8
2-0
  6
CONTINUOUS
 62
     6
 10
23588.87605499999
 20
19921.551861000022
 30
0.0
 11
23549.628139999972
 21
19957.666198000021
 31
0.0
  0
LINE
  5
3059
  8
2-0
  6
CONTINUOUS
 62
     6
 10
23549.628139999972
 20
19957.666198000021
 30
0.0
 11
23460.914035000002
 21
19821.869243000001
 31
0.0
  0
LINE
  5
305A
  8
2-0
  6
CONTINUOUS
 62
     6
 10
23460.914035000002
 20
19821.869243000001
 30
0.0
 11
23588.87605499999
 21
19921.551861000022
 31
0.0
  0
LINE
  5
305B
  8
2-0
  6
CONTINUOUS
 62
     6
 10
23588.87605499999
 20
19921.551861000022
 30
0.0
 11
23460.914035000002
 21
19821.869243000001
 31
0.0
  0
LINE
  5
305C
  8
2-0
  6
CONTINUOUS
 62
     6
 10
23549.628139999972
 20
19957.666198000021
 30
0.0
 11
23460.914035000002
 21
19821.869243000001
 31
0.0
  0
LINE
  5
305D
  8
2-0
  6
CONTINUOUS
 62
     6
 10
23549.628139999972
 20
19957.666198000021
 30
0.0
 11
23588.87605499999
 21
19921.551861000022
 31
0.0
  0
LINE
  5
305E
  8
2-0
  6
CONTINUOUS
 62
     4
 10
20456.719858
 20
19876.935491000011
 30
0.0
 11
20456.719858
 21
20606.932455999999
 31
0.0
  0
LINE
  5
305F
  8
2-0
  6
CONTINUOUS
 62
     6
 10
23140.580420999991
 20
14118.16492999999
 30
0.0
 11
23272.327280000001
 21
14212.791857
 31
0.0
  0
LINE
  5
3060
  8
2-0
  6
CONTINUOUS
 62
     6
 10
23272.327280000001
 20
14212.791857
 30
0.0
 11
23178.397143999991
 21
14080.55308699998
 31
0.0
  0
LINE
  5
3061
  8
2-0
  6
CONTINUOUS
 62
     6
 10
23140.580420999991
 20
14118.16492999999
 30
0.0
 11
23178.397143999991
 21
14080.55308699998
 31
0.0
  0
LINE
  5
3062
  8
2-0
  6
CONTINUOUS
 62
     6
 10
23178.397143999991
 20
14080.55308699998
 30
0.0
 11
23272.327280000001
 21
14212.791857
 31
0.0
  0
LINE
  5
3063
  8
2-0
  6
CONTINUOUS
 62
     6
 10
23272.327280000001
 20
14212.791857
 30
0.0
 11
23140.580420999991
 21
14118.16492999999
 31
0.0
  0
LINE
  5
3064
  8
2-0
  6
CONTINUOUS
 62
     6
 10
23140.580420999991
 20
14118.16492999999
 30
0.0
 11
23272.327280000001
 21
14212.791857
 31
0.0
  0
LINE
  5
3065
  8
2-0
  6
CONTINUOUS
 62
     6
 10
23178.397143999991
 20
14080.55308699998
 30
0.0
 11
23272.327280000001
 21
14212.791857
 31
0.0
  0
LINE
  5
3066
  8
2-0
  6
CONTINUOUS
 62
     6
 10
23178.397143999991
 20
14080.55308699998
 30
0.0
 11
23140.580420999991
 21
14118.16492999999
 31
0.0
  0
LINE
  5
3067
  8
2-0
  6
CONTINUOUS
 62
     6
 10
23203.616209999989
 20
14445.069556999981
 30
0.0
 11
23336.21624199998
 21
14351.641228999981
 31
0.0
  0
LINE
  5
3068
  8
2-0
  6
CONTINUOUS
 62
     6
 10
23336.21624199998
 20
14351.641228999981
 30
0.0
 11
23180.483555999988
 21
14397.016743
 31
0.0
  0
LINE
  5
3069
  8
2-0
  6
CONTINUOUS
 62
     6
 10
23203.616209999989
 20
14445.069556999981
 30
0.0
 11
23180.483555999988
 21
14397.016743
 31
0.0
  0
LINE
  5
306A
  8
2-0
  6
CONTINUOUS
 62
     6
 10
23180.483555999988
 20
14397.016743
 30
0.0
 11
23336.21624199998
 21
14351.641228999981
 31
0.0
  0
LINE
  5
306B
  8
2-0
  6
CONTINUOUS
 62
     6
 10
23336.21624199998
 20
14351.641228999981
 30
0.0
 11
23203.616209999989
 21
14445.069556999981
 31
0.0
  0
LINE
  5
306C
  8
2-0
  6
CONTINUOUS
 62
     6
 10
23203.616209999989
 20
14445.069556999981
 30
0.0
 11
23336.21624199998
 21
14351.641228999981
 31
0.0
  0
LINE
  5
306D
  8
2-0
  6
CONTINUOUS
 62
     6
 10
23180.483555999988
 20
14397.016743
 30
0.0
 11
23336.21624199998
 21
14351.641228999981
 31
0.0
  0
LINE
  5
306E
  8
2-0
  6
CONTINUOUS
 62
     6
 10
23180.483555999988
 20
14397.016743
 30
0.0
 11
23203.616209999989
 21
14445.069556999981
 31
0.0
  0
LINE
  5
306F
  8
2-0
  6
CONTINUOUS
 62
     6
 10
23263.379855999989
 20
16824.890490000009
 30
0.0
 11
23417.21814199998
 21
16876.324321000011
 31
0.0
  0
LINE
  5
3070
  8
2-0
  6
CONTINUOUS
 62
     6
 10
23417.21814199998
 20
16876.324321000011
 30
0.0
 11
23288.38315499996
 21
16777.783886000008
 31
0.0
  0
LINE
  5
3071
  8
2-0
  6
CONTINUOUS
 62
     6
 10
23263.379855999989
 20
16824.890490000009
 30
0.0
 11
23288.38315499996
 21
16777.783886000008
 31
0.0
  0
LINE
  5
3072
  8
2-0
  6
CONTINUOUS
 62
     6
 10
23288.38315499996
 20
16777.783886000008
 30
0.0
 11
23417.21814199998
 21
16876.324321000011
 31
0.0
  0
LINE
  5
3073
  8
2-0
  6
CONTINUOUS
 62
     6
 10
23417.21814199998
 20
16876.324321000011
 30
0.0
 11
23263.379855999989
 21
16824.890490000009
 31
0.0
  0
LINE
  5
3074
  8
2-0
  6
CONTINUOUS
 62
     6
 10
23263.379855999989
 20
16824.890490000009
 30
0.0
 11
23417.21814199998
 21
16876.324321000011
 31
0.0
  0
LINE
  5
3075
  8
2-0
  6
CONTINUOUS
 62
     6
 10
23288.38315499996
 20
16777.783886000008
 30
0.0
 11
23417.21814199998
 21
16876.324321000011
 31
0.0
  0
LINE
  5
3076
  8
2-0
  6
CONTINUOUS
 62
     6
 10
23288.38315499996
 20
16777.783886000008
 30
0.0
 11
23263.379855999989
 21
16824.890490000009
 31
0.0
  0
LINE
  5
3077
  8
2-0
  6
CONTINUOUS
 62
     6
 10
23129.443648999979
 20
17316.208982000011
 30
0.0
 11
23272.327280000001
 21
17239.433353000011
 31
0.0
  0
LINE
  5
3078
  8
2-0
  6
CONTINUOUS
 62
     6
 10
23272.327280000001
 20
17239.433353000011
 30
0.0
 11
23112.265386999981
 21
17265.715422000019
 31
0.0
  0
LINE
  5
3079
  8
2-0
  6
CONTINUOUS
 62
     6
 10
23129.443648999979
 20
17316.208982000011
 30
0.0
 11
23112.265386999981
 21
17265.715422000019
 31
0.0
  0
LINE
  5
307A
  8
2-0
  6
CONTINUOUS
 62
     6
 10
23112.265386999981
 20
17265.715422000019
 30
0.0
 11
23272.327280000001
 21
17239.433353000011
 31
0.0
  0
LINE
  5
307B
  8
2-0
  6
CONTINUOUS
 62
     6
 10
23272.327280000001
 20
17239.433353000011
 30
0.0
 11
23129.443648999979
 21
17316.208982000011
 31
0.0
  0
LINE
  5
307C
  8
2-0
  6
CONTINUOUS
 62
     6
 10
23129.443648999979
 20
17316.208982000011
 30
0.0
 11
23272.327280000001
 21
17239.433353000011
 31
0.0
  0
LINE
  5
307D
  8
2-0
  6
CONTINUOUS
 62
     6
 10
23112.265386999981
 20
17265.715422000019
 30
0.0
 11
23272.327280000001
 21
17239.433353000011
 31
0.0
  0
LINE
  5
307E
  8
2-0
  6
CONTINUOUS
 62
     6
 10
23112.265386999981
 20
17265.715422000019
 30
0.0
 11
23129.443648999979
 21
17316.208982000011
 31
0.0
  0
LINE
  5
307F
  8
2-0
  6
CONTINUOUS
 62
     3
 10
20444.221177999989
 20
19687.93303700001
 30
0.0
 11
20444.221177999989
 21
19681.937075000009
 31
0.0
  0
LINE
  5
3080
  8
2-0
  6
CONTINUOUS
 62
     3
 10
20444.221177999989
 20
19681.937075000009
 30
0.0
 11
20414.223552999989
 21
19681.937075000009
 31
0.0
  0
LINE
  5
3081
  8
2-0
  6
CONTINUOUS
 62
     3
 10
20414.223552999989
 20
19681.937075000009
 30
0.0
 11
20414.223552999989
 21
19796.933248000008
 31
0.0
  0
LINE
  5
3082
  8
2-0
  6
CONTINUOUS
 62
     3
 10
20414.223552999989
 20
19711.936678999991
 30
0.0
 11
20495.221494000001
 21
19711.936678999991
 31
0.0
  0
LINE
  5
3083
  8
2-0
  6
CONTINUOUS
 62
     3
 10
20444.221177999989
 20
19671.639619000001
 30
0.0
 11
20414.223552999989
 21
19671.639619000001
 31
0.0
  0
LINE
  5
3084
  8
2-0
  6
CONTINUOUS
 62
     3
 10
20444.221177999989
 20
19689.64136100002
 30
0.0
 11
20444.221177999989
 21
19671.639619000001
 31
0.0
  0
LINE
  5
3085
  8
2-0
  6
CONTINUOUS
 62
     3
 10
20419.227775999989
 20
19689.64136100002
 30
0.0
 11
20444.221177999989
 21
19689.64136100002
 31
0.0
  0
LINE
  5
3086
  8
2-0
  6
CONTINUOUS
 62
     3
 10
20419.227775999989
 20
19684.633179000011
 30
0.0
 11
20419.227775999989
 21
19689.64136100002
 31
0.0
  0
LINE
  5
3087
  8
2-0
  6
CONTINUOUS
 62
     3
 10
20426.225373999969
 20
19684.633179000011
 30
0.0
 11
20419.227775999989
 21
19684.633179000011
 31
0.0
  0
LINE
  5
3088
  8
2-0
  6
CONTINUOUS
 62
     3
 10
20526.519662999988
 20
19784.933406
 30
0.0
 11
20526.519662999988
 21
19791.938922000008
 31
0.0
  0
LINE
  5
3089
  8
2-0
  6
CONTINUOUS
 62
     3
 10
20526.519662999988
 20
19791.938922000008
 30
0.0
 11
20521.517418999989
 21
19791.938922000008
 31
0.0
  0
LINE
  5
308A
  8
2-0
  6
CONTINUOUS
 62
     3
 10
20521.517418999989
 20
19791.938922000008
 30
0.0
 11
20521.517418999989
 21
19766.92968500001
 31
0.0
  0
LINE
  5
308B
  8
2-0
  6
CONTINUOUS
 62
     3
 10
20521.517418999989
 20
19766.92968500001
 30
0.0
 11
20539.525099999981
 21
19766.92968500001
 31
0.0
  0
LINE
  5
308C
  8
2-0
  6
CONTINUOUS
 62
     3
 10
20539.525099999981
 20
19766.92968500001
 30
0.0
 11
20539.525099999981
 21
19796.933248000008
 31
0.0
  0
LINE
  5
308D
  8
2-0
  6
CONTINUOUS
 62
     3
 10
20529.225664000001
 20
19796.933248000008
 30
0.0
 11
20414.223552999989
 21
19796.933248000008
 31
0.0
  0
LINE
  5
308E
  8
2-0
  6
CONTINUOUS
 62
     3
 10
20529.225664000001
 20
19766.92968500001
 30
0.0
 11
20529.225664000001
 21
19796.933248000008
 31
0.0
  0
LINE
  5
308F
  8
2-0
  6
CONTINUOUS
 62
     3
 10
20523.221784999991
 20
19766.92968500001
 30
0.0
 11
20529.225664000001
 21
19766.92968500001
 31
0.0
  0
LINE
  5
3090
  8
2-0
  6
CONTINUOUS
 62
     3
 10
20444.221177999989
 20
19687.93303700001
 30
0.0
 11
20444.221177999989
 21
19681.937075000009
 31
0.0
  0
LINE
  5
3091
  8
2-0
  6
CONTINUOUS
 62
     3
 10
20444.221177999989
 20
19681.937075000009
 30
0.0
 11
20414.223552999989
 21
19681.937075000009
 31
0.0
  0
LINE
  5
3092
  8
2-0
  6
CONTINUOUS
 62
     3
 10
20414.223552999989
 20
19681.937075000009
 30
0.0
 11
20414.223552999989
 21
19796.933248000008
 31
0.0
  0
LINE
  5
3093
  8
2-0
  6
CONTINUOUS
 62
     3
 10
20414.223552999989
 20
19711.936678999991
 30
0.0
 11
20495.221494000001
 21
19711.936678999991
 31
0.0
  0
LINE
  5
3094
  8
2-0
  6
CONTINUOUS
 62
     3
 10
20444.221177999989
 20
19671.639619000001
 30
0.0
 11
20414.223552999989
 21
19671.639619000001
 31
0.0
  0
LINE
  5
3095
  8
2-0
  6
CONTINUOUS
 62
     3
 10
20444.221177999989
 20
19689.64136100002
 30
0.0
 11
20444.221177999989
 21
19671.639619000001
 31
0.0
  0
LINE
  5
3096
  8
2-0
  6
CONTINUOUS
 62
     3
 10
20419.227775999989
 20
19689.64136100002
 30
0.0
 11
20444.221177999989
 21
19689.64136100002
 31
0.0
  0
LINE
  5
3097
  8
2-0
  6
CONTINUOUS
 62
     3
 10
20419.227775999989
 20
19684.633179000011
 30
0.0
 11
20419.227775999989
 21
19689.64136100002
 31
0.0
  0
LINE
  5
3098
  8
2-0
  6
CONTINUOUS
 62
     3
 10
20426.225373999969
 20
19684.633179000011
 30
0.0
 11
20419.227775999989
 21
19684.633179000011
 31
0.0
  0
LINE
  5
3099
  8
2-0
  6
CONTINUOUS
 62
     3
 10
20426.225373999969
 20
19331.336356499989
 30
0.0
 11
20419.227775999989
 21
19331.336356499989
 31
0.0
  0
LINE
  5
309A
  8
2-0
  6
CONTINUOUS
 62
     3
 10
20419.227775999989
 20
19331.336356499989
 30
0.0
 11
20419.227775999989
 21
19336.336620499991
 31
0.0
  0
LINE
  5
309B
  8
2-0
  6
CONTINUOUS
 62
     3
 10
20419.227775999989
 20
19336.336620499991
 30
0.0
 11
20444.221177999989
 21
19336.336620499991
 31
0.0
  0
LINE
  5
309C
  8
2-0
  6
CONTINUOUS
 62
     3
 10
20444.221177999989
 20
19336.336620499991
 30
0.0
 11
20444.221177999989
 21
19318.340816499989
 31
0.0
  0
LINE
  5
309D
  8
2-0
  6
CONTINUOUS
 62
     3
 10
20444.221177999989
 20
19318.340816499989
 30
0.0
 11
20414.223552999989
 21
19318.340816499989
 31
0.0
  0
LINE
  5
309E
  8
2-0
  6
CONTINUOUS
 62
     3
 10
20444.221177999989
 20
19334.432323499961
 30
0.0
 11
20444.221177999989
 21
19328.434382499989
 31
0.0
  0
LINE
  5
309F
  8
2-0
  6
CONTINUOUS
 62
     3
 10
20444.221177999989
 20
19328.434382499989
 30
0.0
 11
20414.223552999989
 21
19328.434382499989
 31
0.0
  0
LINE
  5
30A0
  8
2-0
  6
CONTINUOUS
 62
     3
 10
20414.223552999989
 20
19328.434382499989
 30
0.0
 11
20414.223552999989
 21
19365.4355435
 31
0.0
  0
LINE
  5
30A1
  8
2-0
  6
CONTINUOUS
 62
     3
 10
20444.221177999989
 20
19365.4355435
 30
0.0
 11
20414.223552999989
 21
19365.4355435
 31
0.0
  0
LINE
  5
30A2
  8
2-0
  6
CONTINUOUS
 62
     3
 10
20444.221177999989
 20
19359.431663499981
 30
0.0
 11
20444.221177999989
 21
19365.4355435
 31
0.0
  0
LINE
  5
30A3
  8
2-0
  6
CONTINUOUS
 62
     3
 10
20444.221177999989
 20
19375.531088499982
 30
0.0
 11
20414.223552999989
 21
19375.531088499982
 31
0.0
  0
LINE
  5
30A4
  8
2-0
  6
CONTINUOUS
 62
     3
 10
20444.221177999989
 20
19357.529346499989
 30
0.0
 11
20444.221177999989
 21
19375.531088499982
 31
0.0
  0
LINE
  5
30A5
  8
2-0
  6
CONTINUOUS
 62
     3
 10
20419.227775999989
 20
19357.529346499989
 30
0.0
 11
20444.221177999989
 21
19357.529346499989
 31
0.0
  0
LINE
  5
30A6
  8
2-0
  6
CONTINUOUS
 62
     3
 10
20419.227775999989
 20
19362.529610499991
 30
0.0
 11
20419.227775999989
 21
19357.529346499989
 31
0.0
  0
LINE
  5
30A7
  8
2-0
  6
CONTINUOUS
 62
     3
 10
20426.225373999969
 20
19362.529610499991
 30
0.0
 11
20419.227775999989
 21
19362.529610499991
 31
0.0
  0
LINE
  5
30A8
  8
2-0
  6
CONTINUOUS
 62
     3
 10
20426.225373999969
 20
18630.335367
 30
0.0
 11
20419.227775999989
 21
18630.335367
 31
0.0
  0
LINE
  5
30A9
  8
2-0
  6
CONTINUOUS
 62
     3
 10
20419.227775999989
 20
18630.335367
 30
0.0
 11
20419.227775999989
 21
18635.341568999989
 31
0.0
  0
LINE
  5
30AA
  8
2-0
  6
CONTINUOUS
 62
     3
 10
20419.227775999989
 20
18635.341568999989
 30
0.0
 11
20444.221177999989
 21
18635.341568999989
 31
0.0
  0
LINE
  5
30AB
  8
2-0
  6
CONTINUOUS
 62
     3
 10
20444.221177999989
 20
18635.341568999989
 30
0.0
 11
20444.221177999989
 21
18617.339827
 31
0.0
  0
LINE
  5
30AC
  8
2-0
  6
CONTINUOUS
 62
     3
 10
20444.221177999989
 20
18617.339827
 30
0.0
 11
20414.223552999989
 21
18617.339827
 31
0.0
  0
LINE
  5
30AD
  8
2-0
  6
CONTINUOUS
 62
     3
 10
20444.221177999989
 20
18633.43133399999
 30
0.0
 11
20444.221177999989
 21
18627.435371999989
 31
0.0
  0
LINE
  5
30AE
  8
2-0
  6
CONTINUOUS
 62
     3
 10
20444.221177999989
 20
18627.435371999989
 30
0.0
 11
20414.223552999989
 21
18627.435371999989
 31
0.0
  0
LINE
  5
30AF
  8
2-0
  6
CONTINUOUS
 62
     3
 10
20414.223552999989
 20
18627.435371999989
 30
0.0
 11
20414.223552999989
 21
18664.434553999989
 31
0.0
  0
LINE
  5
30B0
  8
2-0
  6
CONTINUOUS
 62
     3
 10
20444.221177999989
 20
18664.434553999989
 30
0.0
 11
20414.223552999989
 21
18664.434553999989
 31
0.0
  0
LINE
  5
30B1
  8
2-0
  6
CONTINUOUS
 62
     3
 10
20444.221177999989
 20
18658.438591999991
 30
0.0
 11
20444.221177999989
 21
18664.434553999989
 31
0.0
  0
LINE
  5
30B2
  8
2-0
  6
CONTINUOUS
 62
     3
 10
20444.221177999989
 20
18674.530099
 30
0.0
 11
20414.223552999989
 21
18674.530099
 31
0.0
  0
LINE
  5
30B3
  8
2-0
  6
CONTINUOUS
 62
     3
 10
20444.221177999989
 20
18656.528356999981
 30
0.0
 11
20444.221177999989
 21
18674.530099
 31
0.0
  0
LINE
  5
30B4
  8
2-0
  6
CONTINUOUS
 62
     3
 10
20419.227775999989
 20
18656.528356999981
 30
0.0
 11
20444.221177999989
 21
18656.528356999981
 31
0.0
  0
LINE
  5
30B5
  8
2-0
  6
CONTINUOUS
 62
     3
 10
20419.227775999989
 20
18661.534558999989
 30
0.0
 11
20419.227775999989
 21
18656.528356999981
 31
0.0
  0
LINE
  5
30B6
  8
2-0
  6
CONTINUOUS
 62
     3
 10
20426.225373999969
 20
18661.534558999989
 30
0.0
 11
20419.227775999989
 21
18661.534558999989
 31
0.0
  0
LINE
  5
30B7
  8
2-0
  6
CONTINUOUS
 62
     3
 10
20426.225373999969
 20
17960.52862099999
 30
0.0
 11
20419.227775999989
 21
17960.52862099999
 31
0.0
  0
LINE
  5
30B8
  8
2-0
  6
CONTINUOUS
 62
     3
 10
20419.227775999989
 20
17960.52862099999
 30
0.0
 11
20419.227775999989
 21
17955.540234
 31
0.0
  0
LINE
  5
30B9
  8
2-0
  6
CONTINUOUS
 62
     3
 10
20419.227775999989
 20
17955.540234
 30
0.0
 11
20444.221177999989
 21
17955.540234
 31
0.0
  0
LINE
  5
30BA
  8
2-0
  6
CONTINUOUS
 62
     3
 10
20444.221177999989
 20
17955.540234
 30
0.0
 11
20444.221177999989
 21
17973.536037000002
 31
0.0
  0
LINE
  5
30BB
  8
2-0
  6
CONTINUOUS
 62
     3
 10
20444.221177999989
 20
17973.536037000002
 30
0.0
 11
20414.223552999989
 21
17973.536037000002
 31
0.0
  0
LINE
  5
30BC
  8
2-0
  6
CONTINUOUS
 62
     3
 10
20444.221177999989
 20
17957.438591999991
 30
0.0
 11
20444.221177999989
 21
17963.434553999981
 31
0.0
  0
LINE
  5
30BD
  8
2-0
  6
CONTINUOUS
 62
     3
 10
20444.221177999989
 20
17963.434553999981
 30
0.0
 11
20414.223552999989
 21
17963.434553999981
 31
0.0
  0
LINE
  5
30BE
  8
2-0
  6
CONTINUOUS
 62
     3
 10
20414.223552999989
 20
17963.434553999981
 30
0.0
 11
20414.223552999989
 21
17926.435372
 31
0.0
  0
LINE
  5
30BF
  8
2-0
  6
CONTINUOUS
 62
     3
 10
20444.221177999989
 20
17926.435372
 30
0.0
 11
20414.223552999989
 21
17926.435372
 31
0.0
  0
LINE
  5
30C0
  8
2-0
  6
CONTINUOUS
 62
     3
 10
20444.221177999989
 20
17932.437272999989
 30
0.0
 11
20444.221177999989
 21
17926.435372
 31
0.0
  0
LINE
  5
30C1
  8
2-0
  6
CONTINUOUS
 62
     3
 10
20444.221177999989
 20
17916.345765999991
 30
0.0
 11
20414.223552999989
 21
17916.345765999991
 31
0.0
  0
LINE
  5
30C2
  8
2-0
  6
CONTINUOUS
 62
     3
 10
20444.221177999989
 20
17934.341568999989
 30
0.0
 11
20444.221177999989
 21
17916.345765999991
 31
0.0
  0
LINE
  5
30C3
  8
2-0
  6
CONTINUOUS
 62
     3
 10
20419.227775999989
 20
17934.341568999989
 30
0.0
 11
20444.221177999989
 21
17934.341568999989
 31
0.0
  0
LINE
  5
30C4
  8
2-0
  6
CONTINUOUS
 62
     3
 10
20419.227775999989
 20
17929.341305999991
 30
0.0
 11
20419.227775999989
 21
17934.341568999989
 31
0.0
  0
LINE
  5
30C5
  8
2-0
  6
CONTINUOUS
 62
     3
 10
20426.225373999969
 20
17929.341305999991
 30
0.0
 11
20419.227775999989
 21
17929.341305999991
 31
0.0
  0
LINE
  5
30C6
  8
2-0
  6
CONTINUOUS
 62
     3
 10
20417.109690999991
 20
17209.432192
 30
0.0
 11
20417.109690999991
 21
17229.433247000001
 31
0.0
  0
LINE
  5
30C7
  8
2-0
  6
CONTINUOUS
 62
     3
 10
20417.109690999991
 20
17229.433247000001
 30
0.0
 11
20502.110218999998
 21
17229.433247000001
 31
0.0
  0
LINE
  5
30C8
  8
2-0
  6
CONTINUOUS
 62
     3
 10
20426.225373999969
 20
17256.039957000012
 30
0.0
 11
20419.227775999989
 21
17256.039957000012
 31
0.0
  0
LINE
  5
30C9
  8
2-0
  6
CONTINUOUS
 62
     3
 10
20419.227775999989
 20
17256.039957000012
 30
0.0
 11
20419.227775999989
 21
17251.045631000012
 31
0.0
  0
LINE
  5
30CA
  8
2-0
  6
CONTINUOUS
 62
     3
 10
20419.227775999989
 20
17251.045631000012
 30
0.0
 11
20444.221177999989
 21
17251.045631000012
 31
0.0
  0
LINE
  5
30CB
  8
2-0
  6
CONTINUOUS
 62
     3
 10
20444.221177999989
 20
17251.045631000012
 30
0.0
 11
20444.221177999989
 21
17269.041434999999
 31
0.0
  0
LINE
  5
30CC
  8
2-0
  6
CONTINUOUS
 62
     3
 10
20444.221177999989
 20
17269.041434999999
 30
0.0
 11
20414.223552999989
 21
17269.041434999999
 31
0.0
  0
LINE
  5
30CD
  8
2-0
  6
CONTINUOUS
 62
     3
 10
20444.221177999989
 20
17259.432851000001
 30
0.0
 11
20444.221177999989
 21
17253.430950999991
 31
0.0
  0
LINE
  5
30CE
  8
2-0
  6
CONTINUOUS
 62
     3
 10
20414.223552999989
 20
17259.432851000001
 30
0.0
 11
20444.221177999989
 21
17259.432851000001
 31
0.0
  0
LINE
  5
30CF
  8
2-0
  6
CONTINUOUS
 62
     3
 10
20414.223552999989
 20
17269.041434999999
 30
0.0
 11
20414.223552999989
 21
17916.345765999991
 31
0.0
  0
LINE
  5
30D0
  8
2-0
  6
CONTINUOUS
 62
     3
 10
20414.223552999989
 20
17973.536037000002
 30
0.0
 11
20414.223552999989
 21
18617.339827
 31
0.0
  0
LINE
  5
30D1
  8
2-0
  6
CONTINUOUS
 62
     3
 10
20414.223552999989
 20
17114.43113600001
 30
0.0
 11
20444.221177999989
 21
17114.43113600001
 31
0.0
  0
LINE
  5
30D2
  8
2-0
  6
CONTINUOUS
 62
     3
 10
20444.221177999989
 20
17114.43113600001
 30
0.0
 11
20444.221177999989
 21
17120.433035999991
 31
0.0
  0
LINE
  5
30D3
  8
2-0
  6
CONTINUOUS
 62
     3
 10
20502.110218999998
 20
17144.436678999991
 30
0.0
 11
20417.109690999991
 21
17144.436678999991
 31
0.0
  0
LINE
  5
30D4
  8
2-0
  6
CONTINUOUS
 62
     3
 10
20417.109690999991
 20
17144.436678999991
 30
0.0
 11
20417.109690999991
 21
17164.431796000012
 31
0.0
  0
LINE
  5
30D5
  8
2-0
  6
CONTINUOUS
 62
     3
 10
20444.221177999989
 20
17104.822553000002
 30
0.0
 11
20414.223552999989
 21
17104.822553000002
 31
0.0
  0
LINE
  5
30D6
  8
2-0
  6
CONTINUOUS
 62
     3
 10
20444.221177999989
 20
17122.818355999982
 30
0.0
 11
20444.221177999989
 21
17104.822553000002
 31
0.0
  0
LINE
  5
30D7
  8
2-0
  6
CONTINUOUS
 62
     3
 10
20419.227775999989
 20
17122.818355999982
 30
0.0
 11
20444.221177999989
 21
17122.818355999982
 31
0.0
  0
LINE
  5
30D8
  8
2-0
  6
CONTINUOUS
 62
     3
 10
20419.227775999989
 20
17117.818092000009
 30
0.0
 11
20419.227775999989
 21
17122.818355999982
 31
0.0
  0
LINE
  5
30D9
  8
2-0
  6
CONTINUOUS
 62
     3
 10
20426.225373999969
 20
17117.818092000009
 30
0.0
 11
20419.227775999989
 21
17117.818092000009
 31
0.0
  0
LINE
  5
30DA
  8
2-0
  6
CONTINUOUS
 62
     3
 10
20426.225373999969
 20
16413.335861499982
 30
0.0
 11
20419.227775999989
 21
16413.335861499982
 31
0.0
  0
LINE
  5
30DB
  8
2-0
  6
CONTINUOUS
 62
     3
 10
20419.227775999989
 20
16413.335861499982
 30
0.0
 11
20419.227775999989
 21
16418.336125499991
 31
0.0
  0
LINE
  5
30DC
  8
2-0
  6
CONTINUOUS
 62
     3
 10
20419.227775999989
 20
16418.336125499991
 30
0.0
 11
20444.221177999989
 21
16418.336125499991
 31
0.0
  0
LINE
  5
30DD
  8
2-0
  6
CONTINUOUS
 62
     3
 10
20444.221177999989
 20
16418.336125499991
 30
0.0
 11
20444.221177999989
 21
16400.334383500001
 31
0.0
  0
LINE
  5
30DE
  8
2-0
  6
CONTINUOUS
 62
     3
 10
20444.221177999989
 20
16400.334383500001
 30
0.0
 11
20414.223552999989
 21
16400.334383500001
 31
0.0
  0
LINE
  5
30DF
  8
2-0
  6
CONTINUOUS
 62
     3
 10
20444.221177999989
 20
16416.431828500001
 30
0.0
 11
20444.221177999989
 21
16410.4348775
 31
0.0
  0
LINE
  5
30E0
  8
2-0
  6
CONTINUOUS
 62
     3
 10
20444.221177999989
 20
16410.4348775
 30
0.0
 11
20414.223552999989
 21
16410.4348775
 31
0.0
  0
LINE
  5
30E1
  8
2-0
  6
CONTINUOUS
 62
     3
 10
20414.223552999989
 20
16410.4348775
 30
0.0
 11
20414.223552999989
 21
16447.4350485
 31
0.0
  0
LINE
  5
30E2
  8
2-0
  6
CONTINUOUS
 62
     3
 10
20444.221177999989
 20
16447.4350485
 30
0.0
 11
20414.223552999989
 21
16447.4350485
 31
0.0
  0
LINE
  5
30E3
  8
2-0
  6
CONTINUOUS
 62
     3
 10
20444.221177999989
 20
16441.432158499989
 30
0.0
 11
20444.221177999989
 21
16447.4350485
 31
0.0
  0
LINE
  5
30E4
  8
2-0
  6
CONTINUOUS
 62
     3
 10
20444.221177999989
 20
16457.5305935
 30
0.0
 11
20414.223552999989
 21
16457.5305935
 31
0.0
  0
LINE
  5
30E5
  8
2-0
  6
CONTINUOUS
 62
     3
 10
20444.221177999989
 20
16439.522912500001
 30
0.0
 11
20444.221177999989
 21
16457.5305935
 31
0.0
  0
LINE
  5
30E6
  8
2-0
  6
CONTINUOUS
 62
     3
 10
20419.227775999989
 20
16439.522912500001
 30
0.0
 11
20444.221177999989
 21
16439.522912500001
 31
0.0
  0
LINE
  5
30E7
  8
2-0
  6
CONTINUOUS
 62
     3
 10
20419.227775999989
 20
16444.529115500001
 30
0.0
 11
20419.227775999989
 21
16439.522912500001
 31
0.0
  0
LINE
  5
30E8
  8
2-0
  6
CONTINUOUS
 62
     3
 10
20426.225373999969
 20
16444.529115500001
 30
0.0
 11
20419.227775999989
 21
16444.529115500001
 31
0.0
  0
LINE
  5
30E9
  8
2-0
  6
CONTINUOUS
 62
     3
 10
20426.225373999969
 20
15743.76913200001
 30
0.0
 11
20419.227775999989
 21
15743.76913200001
 31
0.0
  0
LINE
  5
30EA
  8
2-0
  6
CONTINUOUS
 62
     3
 10
20419.227775999989
 20
15743.76913200001
 30
0.0
 11
20419.227775999989
 21
15738.774807000011
 31
0.0
  0
LINE
  5
30EB
  8
2-0
  6
CONTINUOUS
 62
     3
 10
20419.227775999989
 20
15738.774807000011
 30
0.0
 11
20444.221177999989
 21
15738.774807000011
 31
0.0
  0
LINE
  5
30EC
  8
2-0
  6
CONTINUOUS
 62
     3
 10
20444.221177999989
 20
15738.774807000011
 30
0.0
 11
20444.221177999989
 21
15756.77061000001
 31
0.0
  0
LINE
  5
30ED
  8
2-0
  6
CONTINUOUS
 62
     3
 10
20444.221177999989
 20
15756.77061000001
 30
0.0
 11
20414.223552999989
 21
15756.77061000001
 31
0.0
  0
LINE
  5
30EE
  8
2-0
  6
CONTINUOUS
 62
     3
 10
20444.221177999989
 20
15740.673165
 30
0.0
 11
20444.221177999989
 21
15746.67506500001
 31
0.0
  0
LINE
  5
30EF
  8
2-0
  6
CONTINUOUS
 62
     3
 10
20444.221177999989
 20
15746.67506500001
 30
0.0
 11
20414.223552999989
 21
15746.67506500001
 31
0.0
  0
LINE
  5
30F0
  8
2-0
  6
CONTINUOUS
 62
     3
 10
20414.223552999989
 20
15709.67588400002
 30
0.0
 11
20414.223552999989
 21
15746.67506500001
 31
0.0
  0
LINE
  5
30F1
  8
2-0
  6
CONTINUOUS
 62
     3
 10
20444.221177999989
 20
15709.67588400002
 30
0.0
 11
20414.223552999989
 21
15709.67588400002
 31
0.0
  0
LINE
  5
30F2
  8
2-0
  6
CONTINUOUS
 62
     3
 10
20444.221177999989
 20
15715.672834999999
 30
0.0
 11
20444.221177999989
 21
15709.67588400002
 31
0.0
  0
LINE
  5
30F3
  8
2-0
  6
CONTINUOUS
 62
     3
 10
20444.221177999989
 20
15699.5744
 30
0.0
 11
20414.223552999989
 21
15699.5744
 31
0.0
  0
LINE
  5
30F4
  8
2-0
  6
CONTINUOUS
 62
     3
 10
20444.221177999989
 20
15717.582081
 30
0.0
 11
20444.221177999989
 21
15699.5744
 31
0.0
  0
LINE
  5
30F5
  8
2-0
  6
CONTINUOUS
 62
     3
 10
20419.227775999989
 20
15717.582081
 30
0.0
 11
20444.221177999989
 21
15717.582081
 31
0.0
  0
LINE
  5
30F6
  8
2-0
  6
CONTINUOUS
 62
     3
 10
20419.227775999989
 20
15712.58181700002
 30
0.0
 11
20419.227775999989
 21
15717.582081
 31
0.0
  0
LINE
  5
30F7
  8
2-0
  6
CONTINUOUS
 62
     3
 10
20426.225373999969
 20
15712.58181700002
 30
0.0
 11
20419.227775999989
 21
15712.58181700002
 31
0.0
  0
LINE
  5
30F8
  8
2-0
  6
CONTINUOUS
 62
     3
 10
20414.223552999989
 20
17104.822553000002
 30
0.0
 11
20414.223552999989
 21
16457.5305935
 31
0.0
  0
LINE
  5
30F9
  8
2-0
  6
CONTINUOUS
 62
     3
 10
20414.223552999989
 20
17259.432851000001
 30
0.0
 11
20414.223552999989
 21
17114.43113600001
 31
0.0
  0
LINE
  5
30FA
  8
2-0
  6
CONTINUOUS
 62
     3
 10
20502.110218999998
 20
17229.433247000001
 30
0.0
 11
20502.110218999998
 21
17144.436678999991
 31
0.0
  0
LINE
  5
30FB
  8
2-0
  6
CONTINUOUS
 62
     3
 10
20426.225373999969
 20
15011.34081
 30
0.0
 11
20419.227775999989
 21
15011.34081
 31
0.0
  0
LINE
  5
30FC
  8
2-0
  6
CONTINUOUS
 62
     3
 10
20419.227775999989
 20
15011.34081
 30
0.0
 11
20419.227775999989
 21
15016.335136000011
 31
0.0
  0
LINE
  5
30FD
  8
2-0
  6
CONTINUOUS
 62
     3
 10
20419.227775999989
 20
15016.335136000011
 30
0.0
 11
20444.221177999989
 21
15016.335136000011
 31
0.0
  0
LINE
  5
30FE
  8
2-0
  6
CONTINUOUS
 62
     3
 10
20444.221177999989
 20
15016.335136000011
 30
0.0
 11
20444.221177999989
 21
14998.33933200001
 31
0.0
  0
LINE
  5
30FF
  8
2-0
  6
CONTINUOUS
 62
     3
 10
20444.221177999989
 20
14998.33933200001
 30
0.0
 11
20414.223552999989
 21
14998.33933200001
 31
0.0
  0
LINE
  5
3100
  8
2-0
  6
CONTINUOUS
 62
     3
 10
20444.221177999989
 20
15014.43776700001
 30
0.0
 11
20444.221177999989
 21
15008.434877000011
 31
0.0
  0
LINE
  5
3101
  8
2-0
  6
CONTINUOUS
 62
     3
 10
20444.221177999989
 20
15008.434877000011
 30
0.0
 11
20414.223552999989
 21
15008.434877000011
 31
0.0
  0
LINE
  5
3102
  8
2-0
  6
CONTINUOUS
 62
     3
 10
20414.223552999989
 20
15008.434877000011
 30
0.0
 11
20414.223552999989
 21
15045.435048999991
 31
0.0
  0
LINE
  5
3103
  8
2-0
  6
CONTINUOUS
 62
     3
 10
20444.221177999989
 20
15045.435048999991
 30
0.0
 11
20414.223552999989
 21
15045.435048999991
 31
0.0
  0
LINE
  5
3104
  8
2-0
  6
CONTINUOUS
 62
     3
 10
20444.221177999989
 20
15039.438097
 30
0.0
 11
20444.221177999989
 21
15045.435048999991
 31
0.0
  0
LINE
  5
3105
  8
2-0
  6
CONTINUOUS
 62
     3
 10
20444.221177999989
 20
15055.535542000011
 30
0.0
 11
20414.223552999989
 21
15055.535542000011
 31
0.0
  0
LINE
  5
3106
  8
2-0
  6
CONTINUOUS
 62
     3
 10
20444.221177999989
 20
15037.52885100001
 30
0.0
 11
20444.221177999989
 21
15055.535542000011
 31
0.0
  0
LINE
  5
3107
  8
2-0
  6
CONTINUOUS
 62
     3
 10
20419.227775999989
 20
15037.52885100001
 30
0.0
 11
20444.221177999989
 21
15037.52885100001
 31
0.0
  0
LINE
  5
3108
  8
2-0
  6
CONTINUOUS
 62
     3
 10
20419.227775999989
 20
15042.53406400001
 30
0.0
 11
20419.227775999989
 21
15037.52885100001
 31
0.0
  0
LINE
  5
3109
  8
2-0
  6
CONTINUOUS
 62
     3
 10
20426.225373999969
 20
15042.53406400001
 30
0.0
 11
20419.227775999989
 21
15042.53406400001
 31
0.0
  0
LINE
  5
310A
  8
2-0
  6
CONTINUOUS
 62
     3
 10
20444.221177999989
 20
14335.436890000001
 30
0.0
 11
20444.221177999989
 21
14341.441758999999
 31
0.0
  0
LINE
  5
310B
  8
2-0
  6
CONTINUOUS
 62
     3
 10
20444.221177999989
 20
14341.441758999999
 30
0.0
 11
20414.223552999989
 21
14341.441758999999
 31
0.0
  0
LINE
  5
310C
  8
2-0
  6
CONTINUOUS
 62
     3
 10
20414.223552999989
 20
14341.441758999999
 30
0.0
 11
20414.223552999989
 21
14226.437668
 31
0.0
  0
LINE
  5
310D
  8
2-0
  6
CONTINUOUS
 62
     3
 10
20414.223552999989
 20
14226.437668
 30
0.0
 11
20499.222100999981
 21
14226.437668
 31
0.0
  0
LINE
  5
310E
  8
2-0
  6
CONTINUOUS
 62
     3
 10
20499.222100999981
 20
14226.437668
 30
0.0
 11
20499.222100999981
 21
14311.433247000001
 31
0.0
  0
LINE
  5
310F
  8
2-0
  6
CONTINUOUS
 62
     3
 10
20499.222100999981
 20
14311.433247000001
 30
0.0
 11
20467.225162999981
 21
14311.433247000001
 31
0.0
  0
LINE
  5
3110
  8
2-0
  6
CONTINUOUS
 62
     3
 10
20426.225373999969
 20
14338.471492000001
 30
0.0
 11
20419.227775999989
 21
14338.471492000001
 31
0.0
  0
LINE
  5
3111
  8
2-0
  6
CONTINUOUS
 62
     3
 10
20419.227775999989
 20
14338.471492000001
 30
0.0
 11
20419.227775999989
 21
14333.47419699998
 31
0.0
  0
LINE
  5
3112
  8
2-0
  6
CONTINUOUS
 62
     3
 10
20419.227775999989
 20
14333.47419699998
 30
0.0
 11
20444.221177999989
 21
14333.47419699998
 31
0.0
  0
LINE
  5
3113
  8
2-0
  6
CONTINUOUS
 62
     3
 10
20444.221177999989
 20
14333.47419699998
 30
0.0
 11
20444.221177999989
 21
14351.472970000001
 31
0.0
  0
LINE
  5
3114
  8
2-0
  6
CONTINUOUS
 62
     3
 10
20444.221177999989
 20
14351.472970000001
 30
0.0
 11
20414.223552999989
 21
14351.472970000001
 31
0.0
  0
LINE
  5
3115
  8
2-0
  6
CONTINUOUS
 62
     3
 10
20414.223552999989
 20
15055.535542000011
 30
0.0
 11
20414.223552999989
 21
15699.5744
 31
0.0
  0
LINE
  5
3116
  8
2-0
  6
CONTINUOUS
 62
     3
 10
20414.223552999989
 20
18674.530099
 30
0.0
 11
20414.223552999989
 21
19318.340816499989
 31
0.0
  0
LINE
  5
3117
  8
2-0
  6
CONTINUOUS
 62
     3
 10
20414.223552999989
 20
16400.334383500001
 30
0.0
 11
20414.223552999989
 21
15756.77061000001
 31
0.0
  0
LINE
  5
3118
  8
2-0
  6
CONTINUOUS
 62
     3
 10
23417.21814199998
 20
19681.937075000009
 30
0.0
 11
23417.21814199998
 21
19796.933248000008
 31
0.0
  0
LINE
  5
3119
  8
2-0
  6
CENTER2
 62
     6
 10
19127.265280999982
 20
19754.434963
 30
0.0
 11
24267.219461999979
 21
19754.434963
 31
0.0
  0
LINE
  5
311A
  8
2-0
  6
CENTER2
 62
     6
 10
19127.265280999982
 20
17186.934963
 30
0.0
 11
24267.219461999979
 21
17186.934963
 31
0.0
  0
LINE
  5
311B
  8
2-0
  6
CENTER2
 62
     6
 10
19127.265280999982
 20
14268.934962999991
 30
0.0
 11
24267.219461999979
 21
14268.934962999991
 31
0.0
  0
LINE
  5
311C
  8
2-0
  6
CONTINUOUS
 62
     3
 10
20414.223552999989
 20
19711.936678999991
 30
0.0
 11
23336.21624199998
 21
19711.936678999991
 31
0.0
  0
LINE
  5
311D
  8
2-0
  6
CONTINUOUS
 62
     3
 10
20414.223552999989
 20
14351.472970000001
 30
0.0
 11
20414.223552999989
 21
14998.33933200001
 31
0.0
  0
LINE
  5
311E
  8
2-0
  6
CENTER2
 62
     6
 10
20456.719858
 20
20996.933248000008
 30
0.0
 11
20456.719858
 21
13643.17152899999
 31
0.0
  0
LINE
  5
311F
  8
2-0
  6
CENTER2
 62
     6
 10
23374.719858
 20
20996.933248000008
 30
0.0
 11
23374.719858
 21
13643.17152899999
 31
0.0
  0
LINE
  5
3120
  8
2-0
  6
CONTINUOUS
 62
     3
 10
23417.21814199998
 20
19671.639619000001
 30
0.0
 11
23417.21814199998
 21
19375.531088499989
 31
0.0
  0
LINE
  5
3121
  8
2-0
  6
CONTINUOUS
 62
     3
 10
20414.223552999989
 20
19671.639619000001
 30
0.0
 11
20414.223552999989
 21
19375.531088499982
 31
0.0
  0
LINE
  5
3122
  8
2-0
  6
CONTINUOUS
 62
     3
 10
20495.221494000001
 20
14311.433247000001
 30
0.0
 11
20495.221494000001
 21
19796.933248000008
 31
0.0
  0
LINE
  5
3123
  8
2-0
  6
CONTINUOUS
 62
     3
 10
23336.21624199998
 20
14311.433247000001
 30
0.0
 11
23336.21624199998
 21
19796.933248000008
 31
0.0
  0
CIRCLE
  5
3124
  8
2-0
  6
CONTINUOUS
 62
     4
 10
18927.267590999982
 20
19754.434963
 30
0.0
 40
200.00001
  0
CIRCLE
  5
3125
  8
2-0
  6
CONTINUOUS
 62
     4
 10
18927.267590999982
 20
17186.934963
 30
0.0
 40
200.00001
  0
CIRCLE
  5
3126
  8
2-0
  6
CONTINUOUS
 62
     4
 10
18927.267590999982
 20
14268.934962999991
 30
0.0
 40
200.00001
  0
CIRCLE
  5
3127
  8
2-0
  6
CONTINUOUS
 62
     4
 10
20456.719858
 20
21196.937867000011
 30
0.0
 40
200.00001
  0
TEXT
  5
3128
  8
2-0
  6
CONTINUOUS
 62
     7
 10
21771.565164999982
 20
13708.936084999999
 30
0.0
 40
160.0
  1
前柱（右）
 50
0.000213
 72
     4
 11
22187.564867592999
 21
13788.93763150079
 31
0.0
  0
TEXT
  5
3129
  8
2-0
  6
CONTINUOUS
 62
     7
 10
21976.160287999988
 20
16637.42810100002
 30
0.0
 40
160.0
  1
壁パネル
 50
359.99982299999999
 72
     4
 11
22338.82720180355
 21
16717.426980637891
 31
0.0
  0
TEXT
  5
312A
  8
2-0
  6
CONTINUOUS
 62
     7
 10
21696.15738399998
 20
17474.615997000012
 30
0.0
 40
160.0
  1
中柱（左右）
 50
0.000354
 72
     4
 11
22213.490223046188
 21
17554.619193324659
 31
0.0
  0
TEXT
  5
312B
  8
2-0
  6
CONTINUOUS
 62
     7
 10
22376.159627999979
 20
14681.977351
 30
0.0
 40
160.0
  1
下枠
 50
0.001063
 72
     4
 11
22546.824810409282
 21
14761.980517339291
 31
0.0
  0
TEXT
  5
312C
  8
2-0
  6
CONTINUOUS
 62
     7
 10
21871.125051999999
 20
19077.884735499989
 30
0.0
 40
160.0
  1
間柱（側）
 72
     4
 11
22292.458385333332
 21
19157.884735499989
 31
0.0
  0
TEXT
  5
312D
  8
2-0
  6
CONTINUOUS
 62
     7
 10
24189.715370999991
 20
20606.93245600001
 30
0.0
 40
160.0
  1
後柱（左右）
 50
0.000354
 72
     4
 11
24701.714876712969
 21
20686.935619372842
 31
0.0
  0
TEXT
  5
312E
  8
2-0
  6
CONTINUOUS
 62
     7
 10
18879.268223999981
 20
19659.954521000011
 30
0.0
 40
160.0
  1
C
 72
     4
 11
18932.60155733331
 21
19739.954521000011
 31
0.0
  0
TEXT
  5
312F
  8
2-0
  6
CONTINUOUS
 62
     7
 10
18879.488939999981
 20
17116.540881000019
 30
0.0
 40
160.0
  1
B
 72
     4
 11
18932.82227333331
 21
17196.540881000019
 31
0.0
  0
TEXT
  5
3130
  8
2-0
  6
CONTINUOUS
 62
     7
 10
18879.531499999979
 20
14180.32775199999
 30
0.0
 40
160.0
  1
A
 72
     4
 11
18932.864833333319
 21
14260.32775199999
 31
0.0
  0
TEXT
  5
3131
  8
2-0
  6
CONTINUOUS
 62
     7
 10
20412.513248999981
 20
21108.170315000028
 30
0.0
 40
160.0
  1
1
 72
     4
 11
20439.179915666649
 21
21188.170315000028
 31
0.0
  0
LINE
  5
3132
  8
2-0
  6
CONTINUOUS
 62
     3
 10
22635.220438999961
 20
19796.933248000008
 30
0.0
 11
22598.219277
 21
19796.933248000008
 31
0.0
  0
LINE
  5
3133
  8
2-0
  6
CONTINUOUS
 62
     3
 10
22635.220438999961
 20
19766.92968500001
 30
0.0
 11
22635.220438999961
 21
19796.933248000008
 31
0.0
  0
LINE
  5
3134
  8
2-0
  6
CONTINUOUS
 62
     3
 10
22629.220517999958
 20
19766.92968500001
 30
0.0
 11
22635.220438999961
 21
19766.92968500001
 31
0.0
  0
LINE
  5
3135
  8
2-0
  6
CONTINUOUS
 62
     3
 10
22645.317963000001
 20
19766.92968500001
 30
0.0
 11
22645.317963000001
 21
19796.933248000008
 31
0.0
  0
LINE
  5
3136
  8
2-0
  6
CONTINUOUS
 62
     3
 10
22627.314242
 20
19766.92968500001
 30
0.0
 11
22645.317963000001
 21
19766.92968500001
 31
0.0
  0
LINE
  5
3137
  8
2-0
  6
CONTINUOUS
 62
     3
 10
22627.314242
 20
19791.938922000008
 30
0.0
 11
22627.314242
 21
19766.92968500001
 31
0.0
  0
LINE
  5
3138
  8
2-0
  6
CONTINUOUS
 62
     3
 10
22632.314505999999
 20
19791.938922000008
 30
0.0
 11
22627.314242
 21
19791.938922000008
 31
0.0
  0
LINE
  5
3139
  8
2-0
  6
CONTINUOUS
 62
     3
 10
22632.314505999999
 20
19784.933406
 30
0.0
 11
22632.314505999999
 21
19791.938922000008
 31
0.0
  0
LINE
  5
313A
  8
2-0
  6
CONTINUOUS
 62
     3
 10
22601.12521099998
 20
19784.933406
 30
0.0
 11
22601.12521099998
 21
19791.938922000008
 31
0.0
  0
LINE
  5
313B
  8
2-0
  6
CONTINUOUS
 62
     3
 10
22601.12521099998
 20
19791.938922000008
 30
0.0
 11
22606.125475000001
 21
19791.938922000008
 31
0.0
  0
LINE
  5
313C
  8
2-0
  6
CONTINUOUS
 62
     3
 10
22606.125475000001
 20
19791.938922000008
 30
0.0
 11
22606.125475000001
 21
19766.92968500001
 31
0.0
  0
LINE
  5
313D
  8
2-0
  6
CONTINUOUS
 62
     3
 10
22606.125475000001
 20
19766.92968500001
 30
0.0
 11
22588.125712000001
 21
19766.92968500001
 31
0.0
  0
LINE
  5
313E
  8
2-0
  6
CONTINUOUS
 62
     3
 10
22588.125712000001
 20
19766.92968500001
 30
0.0
 11
22588.125712000001
 21
19796.933248000008
 31
0.0
  0
LINE
  5
313F
  8
2-0
  6
CONTINUOUS
 62
     3
 10
22604.219197999992
 20
19766.92968500001
 30
0.0
 11
22598.219277
 21
19766.92968500001
 31
0.0
  0
LINE
  5
3140
  8
2-0
  6
CONTINUOUS
 62
     3
 10
22598.219277
 20
19766.92968500001
 30
0.0
 11
22598.219277
 21
19796.933248000008
 31
0.0
  0
LINE
  5
3141
  8
2-0
  6
CONTINUOUS
 62
     3
 10
21230.309556499989
 20
19784.933406
 30
0.0
 11
21230.309556499989
 21
19791.938922000008
 31
0.0
  0
LINE
  5
3142
  8
2-0
  6
CONTINUOUS
 62
     3
 10
21230.309556499989
 20
19791.938922000008
 30
0.0
 11
21225.309292499991
 21
19791.938922000008
 31
0.0
  0
LINE
  5
3143
  8
2-0
  6
CONTINUOUS
 62
     3
 10
21225.309292499991
 20
19791.938922000008
 30
0.0
 11
21225.309292499991
 21
19766.92968500001
 31
0.0
  0
LINE
  5
3144
  8
2-0
  6
CONTINUOUS
 62
     3
 10
21225.309292499991
 20
19766.92968500001
 30
0.0
 11
21243.3149935
 21
19766.92968500001
 31
0.0
  0
LINE
  5
3145
  8
2-0
  6
CONTINUOUS
 62
     3
 10
21243.3149935
 20
19766.92968500001
 30
0.0
 11
21243.3149935
 21
19796.933248000008
 31
0.0
  0
LINE
  5
3146
  8
2-0
  6
CONTINUOUS
 62
     3
 10
21227.21754849999
 20
19766.92968500001
 30
0.0
 11
21233.219448499982
 21
19766.92968500001
 31
0.0
  0
LINE
  5
3147
  8
2-0
  6
CONTINUOUS
 62
     3
 10
21233.219448499982
 20
19766.92968500001
 30
0.0
 11
21233.219448499982
 21
19796.933248000008
 31
0.0
  0
LINE
  5
3148
  8
2-0
  6
CONTINUOUS
 62
     3
 10
21196.22026749999
 20
19796.933248000008
 30
0.0
 11
21233.219448499982
 21
19796.933248000008
 31
0.0
  0
LINE
  5
3149
  8
2-0
  6
CONTINUOUS
 62
     3
 10
21196.22026749999
 20
19766.92968500001
 30
0.0
 11
21196.22026749999
 21
19796.933248000008
 31
0.0
  0
LINE
  5
314A
  8
2-0
  6
CONTINUOUS
 62
     3
 10
21202.21424949999
 20
19766.92968500001
 30
0.0
 11
21196.22026749999
 21
19766.92968500001
 31
0.0
  0
LINE
  5
314B
  8
2-0
  6
CONTINUOUS
 62
     3
 10
21186.124722500001
 20
19766.92968500001
 30
0.0
 11
21186.124722500001
 21
19796.933248000008
 31
0.0
  0
LINE
  5
314C
  8
2-0
  6
CONTINUOUS
 62
     3
 10
21204.120525499991
 20
19766.92968500001
 30
0.0
 11
21186.124722500001
 21
19766.92968500001
 31
0.0
  0
LINE
  5
314D
  8
2-0
  6
CONTINUOUS
 62
     3
 10
21204.120525499991
 20
19791.938922000008
 30
0.0
 11
21204.120525499991
 21
19766.92968500001
 31
0.0
  0
LINE
  5
314E
  8
2-0
  6
CONTINUOUS
 62
     3
 10
21199.120261499978
 20
19791.938922000008
 30
0.0
 11
21204.120525499991
 21
19791.938922000008
 31
0.0
  0
LINE
  5
314F
  8
2-0
  6
CONTINUOUS
 62
     3
 10
21199.120261499978
 20
19784.933406
 30
0.0
 11
21199.120261499978
 21
19791.938922000008
 31
0.0
  0
LINE
  5
3150
  8
2-0
  6
CONTINUOUS
 62
     3
 10
21900.119272499989
 20
19784.933406
 30
0.0
 11
21900.119272499989
 21
19791.938922000008
 31
0.0
  0
LINE
  5
3151
  8
2-0
  6
CONTINUOUS
 62
     3
 10
21900.119272499989
 20
19791.938922000008
 30
0.0
 11
21905.119535500002
 21
19791.938922000008
 31
0.0
  0
LINE
  5
3152
  8
2-0
  6
CONTINUOUS
 62
     3
 10
21905.119535500002
 20
19791.938922000008
 30
0.0
 11
21905.119535500002
 21
19766.92968500001
 31
0.0
  0
LINE
  5
3153
  8
2-0
  6
CONTINUOUS
 62
     3
 10
21905.119535500002
 20
19766.92968500001
 30
0.0
 11
21887.125712499968
 21
19766.92968500001
 31
0.0
  0
LINE
  5
3154
  8
2-0
  6
CONTINUOUS
 62
     3
 10
21887.125712499968
 20
19766.92968500001
 30
0.0
 11
21887.125712499968
 21
19796.933248000008
 31
0.0
  0
LINE
  5
3155
  8
2-0
  6
CONTINUOUS
 62
     3
 10
21903.217218499969
 20
19766.92968500001
 30
0.0
 11
21897.219277499989
 21
19766.92968500001
 31
0.0
  0
LINE
  5
3156
  8
2-0
  6
CONTINUOUS
 62
     3
 10
21897.219277499989
 20
19766.92968500001
 30
0.0
 11
21897.219277499989
 21
19796.933248000008
 31
0.0
  0
LINE
  5
3157
  8
2-0
  6
CONTINUOUS
 62
     3
 10
21934.2204385
 20
19796.933248000008
 30
0.0
 11
21897.219277499989
 21
19796.933248000008
 31
0.0
  0
LINE
  5
3158
  8
2-0
  6
CONTINUOUS
 62
     3
 10
21934.2204385
 20
19766.92968500001
 30
0.0
 11
21934.2204385
 21
19796.933248000008
 31
0.0
  0
LINE
  5
3159
  8
2-0
  6
CONTINUOUS
 62
     3
 10
21928.2145795
 20
19766.92968500001
 30
0.0
 11
21934.2204385
 21
19766.92968500001
 31
0.0
  0
LINE
  5
315A
  8
2-0
  6
CONTINUOUS
 62
     3
 10
21944.3140035
 20
19766.92968500001
 30
0.0
 11
21944.3140035
 21
19796.933248000008
 31
0.0
  0
LINE
  5
315B
  8
2-0
  6
CONTINUOUS
 62
     3
 10
21926.318200499991
 20
19766.92968500001
 30
0.0
 11
21944.3140035
 21
19766.92968500001
 31
0.0
  0
LINE
  5
315C
  8
2-0
  6
CONTINUOUS
 62
     3
 10
21926.318200499991
 20
19791.938922000008
 30
0.0
 11
21926.318200499991
 21
19766.92968500001
 31
0.0
  0
LINE
  5
315D
  8
2-0
  6
CONTINUOUS
 62
     3
 10
21931.3085665
 20
19791.938922000008
 30
0.0
 11
21926.318200499991
 21
19791.938922000008
 31
0.0
  0
LINE
  5
315E
  8
2-0
  6
CONTINUOUS
 62
     3
 10
21931.3085665
 20
19784.933406
 30
0.0
 11
21931.3085665
 21
19791.938922000008
 31
0.0
  0
LINE
  5
315F
  8
2-0
  6
CONTINUOUS
 62
     3
 10
21243.3149935
 20
19796.933248000008
 30
0.0
 11
21887.125712499968
 21
19796.933248000008
 31
0.0
  0
LINE
  5
3160
  8
2-0
  6
CONTINUOUS
 62
     3
 10
20539.525099999981
 20
19796.933248000008
 30
0.0
 11
21186.124722500001
 21
19796.933248000008
 31
0.0
  0
LINE
  5
3161
  8
2-0
  6
CONTINUOUS
 62
     3
 10
23292.603488000001
 20
19796.933248000008
 30
0.0
 11
22645.317963000001
 21
19796.933248000008
 31
0.0
  0
LINE
  5
3162
  8
2-0
  6
CONTINUOUS
 62
     3
 10
22588.125712000001
 20
19796.933248000008
 30
0.0
 11
21944.3140035
 21
19796.933248000008
 31
0.0
  0
LINE
  5
3163
  8
2-0
  6
CONTINUOUS
 62
     3
 10
23417.21814199998
 20
15699.57440000001
 30
0.0
 11
23417.21814199998
 21
15055.535542000011
 31
0.0
  0
LINE
  5
3164
  8
2-0
  6
CONTINUOUS
 62
     3
 10
23417.21814199998
 20
14998.339332
 30
0.0
 11
23417.21814199998
 21
14351.472970000001
 31
0.0
  0
CIRCLE
  5
3165
  8
2-0
  6
CONTINUOUS
 62
     4
 10
23374.719858
 20
21196.937867000011
 30
0.0
 40
200.00001
  0
TEXT
  5
3166
  8
2-0
  6
CONTINUOUS
 62
     7
 10
23323.088075
 20
21101.412238000012
 30
0.0
 40
160.0
  1
2
 72
     4
 11
23376.421408333332
 21
21181.412238000012
 31
0.0
  0
LINE
  5
3167
  8
0-6
  6
CONTINUOUS
 62
     6
 10
20457.54411649999
 20
19085.615020000008
 30
0.0
 11
21482.58436650001
 21
19085.615020000008
 31
0.0
  0
LINE
  5
3168
  8
0-6
  6
CONTINUOUS
 62
     6
 10
21782.5091445
 20
19642.96827200002
 30
0.0
 11
21887.124722500001
 21
19766.92968500001
 31
0.0
  0
LINE
  5
3169
  8
0-6
  6
CONTINUOUS
 62
     6
 10
21887.124722500001
 20
19766.92968500001
 30
0.0
 11
21828.366672499989
 21
19615.73801500001
 31
0.0
  0
LINE
  5
316A
  8
0-6
  6
CONTINUOUS
 62
     6
 10
21887.124722500001
 20
19766.92968500001
 30
0.0
 11
21782.5091445
 21
19642.96827200002
 31
0.0
  0
LINE
  5
316B
  8
0-6
  6
CONTINUOUS
 62
     6
 10
21782.5091445
 20
19642.96827200002
 30
0.0
 11
21828.366672499989
 21
19615.73801500001
 31
0.0
  0
LINE
  5
316C
  8
0-6
  6
CONTINUOUS
 62
     6
 10
21828.366672499989
 20
19615.73801500001
 30
0.0
 11
21887.124722500001
 21
19766.92968500001
 31
0.0
  0
LINE
  5
316D
  8
0-6
  6
CONTINUOUS
 62
     6
 10
21828.366672499989
 20
19615.73801500001
 30
0.0
 11
21782.5091445
 21
19642.96827200002
 31
0.0
  0
LINE
  5
316E
  8
0-6
  6
CONTINUOUS
 62
     6
 10
21805.4379085
 20
19629.355123000008
 30
0.0
 11
21482.58436650001
 21
19085.615020000008
 31
0.0
  0
TEXT
  5
316F
  8
0-6
  6
CONTINUOUS
 62
     7
 10
20537.5443805
 20
19165.617264000011
 30
0.0
 40
160.0
  1
間柱（後）
 72
     4
 11
20958.877713833332
 21
19245.617264000011
 31
0.0
  0
LINE
  5
3170
  8
SUNPOU
  6
CONTINUOUS
 10
9966.3401113902
 20
19976.930872000001
 30
0.0
 11
9966.3401113902
 21
20773.89813977847
 31
0.0
  0
LINE
  5
3171
  8
SUNPOU
  6
CONTINUOUS
 10
9966.3401113902019
 20
14076.439648
 30
0.0
 11
9966.3401113902019
 21
13401.01353218962
 31
0.0
  0
LINE
  5
3172
  8
SUNPOU
  6
CONTINUOUS
 10
9426.2232769999955
 20
9825.638761000002
 30
0.0
 11
8950.9341643597636
 21
9825.638761000002
 31
0.0
  0
LINE
  5
3175
  8
WAKUSEN-01
 10
868.00000000000193
 20
22484.000000000011
 30
0.0
 11
32764.000000000011
 21
22484.000000000011
 31
0.0
  0
LINE
  5
3178
  8
WAKUSEN-01
 10
20560.0
 20
2484.0
 30
0.0
 11
32764.0
 21
2484.0
 31
0.0
  0
LINE
  5
3179
  8
WAKUSEN-02
 10
20560.0
 20
1655.9999999999991
 30
0.0
 11
26868.0
 21
1655.9999999999991
 31
0.0
  0
TEXT
  5
317A
  8
WAKUMOJI-01
 10
20670.260259962761
 20
2125.9030093393221
 30
0.0
 40
240.0
  1
名　称
  7
WAKUMOJI
  0
TEXT
  5
317B
  8
WAKUMOJI-01
 10
20656.505485091919
 20
1319.12897497982
 30
0.0
 40
240.0
  1
機種名
  7
WAKUMOJI
  0
LINE
  5
317E
  8
YODOROGO
 10
29977.604341291921
 20
1995.7494964292871
 30
0.0
 11
29829.604341291921
 21
1995.7494964292871
 31
0.0
1001
AUTOCAD_POSTSCRIPT_FIGURE
1002
{
1000
PSFILL
1000
Grayscale
1000
Grayscale
1070
    25
1002
}
  0
LINE
  5
317F
  8
YODOROGO
 10
29829.604341291921
 20
1947.749496429288
 30
0.0
 11
29977.604341291921
 21
1947.749496429288
 31
0.0
1001
AUTOCAD_POSTSCRIPT_FIGURE
1002
{
1000
PSFILL
1000
Grayscale
1000
Grayscale
1070
    25
1002
}
  0
LINE
  5
3180
  8
YODOROGO
 10
29977.604341291921
 20
1907.7494964292871
 30
0.0
 11
29829.604341291921
 21
1907.7494964292871
 31
0.0
1001
AUTOCAD_POSTSCRIPT_FIGURE
1002
{
1000
PSFILL
1000
Grayscale
1000
Grayscale
1070
    25
1002
}
  0
LINE
  5
3181
  8
YODOROGO
 10
29829.604341291921
 20
1859.749496429288
 30
0.0
 11
29977.604341291921
 21
1859.749496429288
 31
0.0
1001
AUTOCAD_POSTSCRIPT_FIGURE
1002
{
1000
PSFILL
1000
Grayscale
1000
Grayscale
1070
    25
1002
}
  0
LINE
  5
3182
  8
YODOROGO
 10
29977.604341291921
 20
1819.7494964292871
 30
0.0
 11
29829.604341291921
 21
1819.7494964292871
 31
0.0
1001
AUTOCAD_POSTSCRIPT_FIGURE
1002
{
1000
PSFILL
1000
Grayscale
1000
Grayscale
1070
    25
1002
}
  0
LINE
  5
3183
  8
YODOROGO
 10
29921.60434129191
 20
1707.749496429288
 30
0.0
 11
29977.604341291921
 21
1707.749496429288
 31
0.0
1001
AUTOCAD_POSTSCRIPT_FIGURE
1002
{
1000
PSFILL
1000
Grayscale
1000
Grayscale
1070
    25
1002
}
  0
LINE
  5
3184
  8
YODOROGO
 10
29737.604341291921
 20
1427.749496429288
 30
0.0
 11
29937.604341291932
 21
1481.3393349155101
 31
0.0
  0
LINE
  5
3185
  8
YODOROGO
 10
29949.60434129191
 20
1707.749496429288
 30
0.0
 11
29885.604341291921
 21
1707.749496429288
 31
0.0
  0
ARC
  5
3186
  8
YODOROGO
 10
30254.34774982791
 20
1807.864609233261
 30
0.0
 40
381.88686420564721
 50
213.96111677667841
 51
264.47872074317792
  0
ARC
  5
3187
  8
YODOROGO
 10
30254.347749827921
 20
1807.864609233302
 30
0.0
 40
381.8868642056816
 50
208.14114420486601
 51
212.9210361185994
  0
LINE
  5
3188
  8
YODOROGO
 10
29771.409872985321
 20
1556.807661346234
 30
0.0
 11
29933.78413250855
 21
1600.3157130570869
 31
0.0
  0
LINE
  5
3189
  8
YODOROGO
 10
29737.604341291921
 20
1427.749496429288
 30
0.0
 11
29937.604341291932
 21
1481.3393349155101
 31
0.0
  0
LINE
  5
318A
  8
YODOROGO
 10
29949.60434129191
 20
1707.749496429288
 30
0.0
 11
29885.604341291921
 21
1707.749496429288
 31
0.0
  0
ARC
  5
318B
  8
YODOROGO
 10
30254.34774982791
 20
1807.864609233261
 30
0.0
 40
381.88686420564721
 50
213.96111677667841
 51
264.47872074317792
  0
LINE
  5
318C
  8
YODOROGO
 10
28793.60434129191
 20
1819.7494964292871
 30
0.0
 11
28433.60434129191
 21
1819.7494964292871
 31
0.0
  0
LINE
  5
318D
  8
YODOROGO
 10
28513.60434129191
 20
1427.749496429288
 30
0.0
 11
28793.60434129191
 21
1427.749496429288
 31
0.0
  0
LINE
  5
318E
  8
YODOROGO
 10
28729.604341291921
 20
1923.7494964292871
 30
0.0
 11
28497.60434129191
 21
1923.7494964292871
 31
0.0
  0
LINE
  5
318F
  8
YODOROGO
 10
28585.604341291921
 20
2027.749496429288
 30
0.0
 11
28657.604341291921
 21
2027.749496429288
 31
0.0
  0
LINE
  5
3190
  8
YODOROGO
 10
28433.60434129191
 20
1707.749496429288
 30
0.0
 11
28433.60434129191
 21
1507.749496429288
 31
0.0
  0
LINE
  5
3191
  8
YODOROGO
 10
28497.60434129191
 20
1563.7494964292871
 30
0.0
 11
28497.60434129191
 21
1707.749496429288
 31
0.0
  0
LINE
  5
3192
  8
YODOROGO
 10
28585.604341291921
 20
1747.74949642929
 30
0.0
 11
28585.604341291921
 21
1547.749496429288
 31
0.0
  0
LINE
  5
3193
  8
YODOROGO
 10
27857.604341291921
 20
1683.749496429288
 30
0.0
 11
27777.604341291921
 21
1619.9724140445701
 31
0.0
  0
LINE
  5
3194
  8
YODOROGO
 10
27937.604341291921
 20
1619.9724140445701
 30
0.0
 11
27857.604341291921
 21
1683.749496429288
 31
0.0
  0
LINE
  5
3195
  8
YODOROGO
 10
27857.604341291921
 20
1707.749496429288
 30
0.0
 11
27937.604341291921
 21
1643.9724140445701
 31
0.0
  0
LINE
  5
3196
  8
YODOROGO
 10
27777.604341291921
 20
1643.9724140445701
 30
0.0
 11
27857.604341291921
 21
1707.749496429288
 31
0.0
  0
LINE
  5
3197
  8
YODOROGO
 10
28040.913204016892
 20
1659.749496429288
 30
0.0
 11
28040.913204016892
 21
1683.7494964292871
 31
0.0
  0
LINE
  5
3198
  8
YODOROGO
 10
27977.604341291921
 20
1683.7494964292871
 30
0.0
 11
27977.604341291921
 21
1667.749496429285
 31
0.0
  0
LINE
  5
3199
  8
YODOROGO
 10
28098.135520230931
 20
1707.749496429288
 30
0.0
 11
28098.135520230931
 21
1655.5036372746561
 31
0.0
1001
AUTOCAD_POSTSCRIPT_FIGURE
1002
{
1000
PSFILL
1000
Grayscale
1000
Grayscale
1070
   100
1002
}
  0
LINE
  5
319A
  8
YODOROGO
 10
28082.135520230921
 20
1655.5036372746561
 30
0.0
 11
28082.135520230921
 21
1707.749496429288
 31
0.0
1001
AUTOCAD_POSTSCRIPT_FIGURE
1002
{
1000
PSFILL
1000
Grayscale
1000
Grayscale
1070
   100
1002
}
  0
LINE
  5
319B
  8
YODOROGO
 10
27809.604341291921
 20
1608.771904043258
 30
0.0
 11
27809.604341291921
 21
1632.771904043258
 31
0.0
  0
LINE
  5
319C
  8
YODOROGO
 10
27905.604341291921
 20
1608.771904043258
 30
0.0
 11
27809.604341291921
 21
1608.771904043258
 31
0.0
  0
LINE
  5
319D
  8
YODOROGO
 10
27905.604341291921
 20
1632.771904043258
 30
0.0
 11
27905.604341291921
 21
1608.771904043258
 31
0.0
  0
LINE
  5
319E
  8
YODOROGO
 10
27809.604341291921
 20
1632.771904043258
 30
0.0
 11
27905.604341291921
 21
1632.771904043258
 31
0.0
  0
LINE
  5
319F
  8
YODOROGO
 10
27824.509588915738
 20
1568.5028573704751
 30
0.0
 11
27785.604341291921
 21
1475.7494964292871
 31
0.0
1001
AUTOCAD_POSTSCRIPT_FIGURE
1002
{
1000
PSFILL
1000
Grayscale
1000
Grayscale
1070
   100
1002
}
  0
LINE
  5
31A0
  8
YODOROGO
 10
27777.604341291921
 20
1568.5028573704751
 30
0.0
 11
27824.509588915738
 21
1568.5028573704751
 31
0.0
1001
AUTOCAD_POSTSCRIPT_FIGURE
1002
{
1000
PSFILL
1000
Grayscale
1000
Grayscale
1070
   100
1002
}
  0
LINE
  5
31A1
  8
YODOROGO
 10
27777.604341291921
 20
1588.5028573704751
 30
0.0
 11
27777.604341291921
 21
1568.5028573704751
 31
0.0
1001
AUTOCAD_POSTSCRIPT_FIGURE
1002
{
1000
PSFILL
1000
Grayscale
1000
Grayscale
1070
   100
1002
}
  0
LINE
  5
31A2
  8
YODOROGO
 10
27937.604341291921
 20
1588.5028573704751
 30
0.0
 11
27777.604341291921
 21
1588.5028573704751
 31
0.0
1001
AUTOCAD_POSTSCRIPT_FIGURE
1002
{
1000
PSFILL
1000
Grayscale
1000
Grayscale
1070
   100
1002
}
  0
LINE
  5
31A3
  8
YODOROGO
 10
27937.604341291921
 20
1568.5028573704751
 30
0.0
 11
27937.604341291921
 21
1588.5028573704751
 31
0.0
1001
AUTOCAD_POSTSCRIPT_FIGURE
1002
{
1000
PSFILL
1000
Grayscale
1000
Grayscale
1070
   100
1002
}
  0
LINE
  5
31A4
  8
YODOROGO
 10
27844.509588915738
 20
1568.5028573704751
 30
0.0
 11
27937.604341291921
 21
1568.5028573704751
 31
0.0
1001
AUTOCAD_POSTSCRIPT_FIGURE
1002
{
1000
PSFILL
1000
Grayscale
1000
Grayscale
1070
   100
1002
}
  0
LINE
  5
31A5
  8
YODOROGO
 10
27815.546718284771
 20
1495.7494964292871
 30
0.0
 11
27844.509588915738
 21
1568.5028573704751
 31
0.0
1001
AUTOCAD_POSTSCRIPT_FIGURE
1002
{
1000
PSFILL
1000
Grayscale
1000
Grayscale
1070
   100
1002
}
  0
LINE
  5
31A6
  8
YODOROGO
 10
27902.054790808648
 20
1495.7494964292871
 30
0.0
 11
27815.546718284771
 21
1495.7494964292871
 31
0.0
1001
AUTOCAD_POSTSCRIPT_FIGURE
1002
{
1000
PSFILL
1000
Grayscale
1000
Grayscale
1070
   100
1002
}
  0
LINE
  5
31A7
  8
YODOROGO
 10
27885.065004790951
 20
1536.2338106976929
 30
0.0
 11
27902.054790808648
 21
1495.7494964292871
 31
0.0
1001
AUTOCAD_POSTSCRIPT_FIGURE
1002
{
1000
PSFILL
1000
Grayscale
1000
Grayscale
1070
   100
1002
}
  0
LINE
  5
31A8
  8
YODOROGO
 10
27901.065004790951
 20
1536.2338106976929
 30
0.0
 11
27885.065004790951
 21
1536.2338106976929
 31
0.0
1001
AUTOCAD_POSTSCRIPT_FIGURE
1002
{
1000
PSFILL
1000
Grayscale
1000
Grayscale
1070
   100
1002
}
  0
LINE
  5
31A9
  8
YODOROGO
 10
27929.604341291921
 20
1475.7494964292871
 30
0.0
 11
27901.065004790951
 21
1536.2338106976929
 31
0.0
1001
AUTOCAD_POSTSCRIPT_FIGURE
1002
{
1000
PSFILL
1000
Grayscale
1000
Grayscale
1070
   100
1002
}
  0
LINE
  5
31AA
  8
YODOROGO
 10
27785.604341291921
 20
1475.7494964292871
 30
0.0
 11
27929.604341291921
 21
1475.7494964292871
 31
0.0
1001
AUTOCAD_POSTSCRIPT_FIGURE
1002
{
1000
PSFILL
1000
Grayscale
1000
Grayscale
1070
   100
1002
}
  0
LINE
  5
31AB
  8
YODOROGO
 10
27777.604341291921
 20
1619.9724140445701
 30
0.0
 11
27777.604341291921
 21
1643.9724140445701
 31
0.0
  0
LINE
  5
31AC
  8
YODOROGO
 10
27937.604341291921
 20
1643.9724140445701
 30
0.0
 11
27937.604341291921
 21
1619.9724140445701
 31
0.0
  0
ARC
  5
31AD
  8
YODOROGO
 10
28225.940442146959
 20
1600.877765325326
 30
0.0
 40
175.9999999999998
 50
280.3644312771313
 51
3.5414836592180561
  0
ARC
  5
31AE
  8
YODOROGO
 10
28235.756030759301
 20
1633.5978069619041
 30
0.0
 40
111.9999999999982
 50
281.24905825041549
 51
348.75094174958321
  0
LINE
  5
31AF
  8
YODOROGO
 10
28257.604341291921
 20
1523.7494964292871
 30
0.0
 11
28257.604341291921
 21
1427.749496429288
 31
0.0
  0
LINE
  5
31B0
  8
YODOROGO
 10
28020.088903736909
 20
1610.650565061914
 30
0.0
 11
28040.913204016892
 21
1659.749496429288
 31
0.0
  0
LINE
  5
31B1
  8
YODOROGO
 10
28041.604341291921
 20
1583.120489948401
 30
0.0
 11
28020.088903736909
 21
1610.650565061914
 31
0.0
  0
LINE
  5
31B2
  8
YODOROGO
 10
28041.604341291921
 20
1563.120489948398
 30
0.0
 11
28041.604341291921
 21
1583.120489948401
 31
0.0
  0
LINE
  5
31B3
  8
YODOROGO
 10
28017.604341291921
 20
1585.2370637495301
 30
0.0
 11
28041.604341291921
 21
1563.120489948398
 31
0.0
  0
LINE
  5
31B4
  8
YODOROGO
 10
28017.604341291921
 20
1475.7494964292871
 30
0.0
 11
28017.604341291921
 21
1585.2370637495301
 31
0.0
  0
LINE
  5
31B5
  8
YODOROGO
 10
28001.604341291921
 20
1475.7494964292871
 30
0.0
 11
28017.604341291921
 21
1475.7494964292871
 31
0.0
  0
LINE
  5
31B6
  8
YODOROGO
 10
28001.604341291921
 20
1580.0053496897469
 30
0.0
 11
28001.604341291921
 21
1475.7494964292871
 31
0.0
  0
LINE
  5
31B7
  8
YODOROGO
 10
27977.604341291921
 20
1532.7680790334291
 30
0.0
 11
28001.604341291921
 21
1580.0053496897469
 31
0.0
  0
LINE
  5
31B8
  8
YODOROGO
 10
27977.604341291921
 20
1556.76807903343
 30
0.0
 11
27977.604341291921
 21
1532.7680790334291
 31
0.0
  0
LINE
  5
31B9
  8
YODOROGO
 10
28025.828774291349
 20
1667.749496429285
 30
0.0
 11
27977.604341291921
 21
1556.76807903343
 31
0.0
  0
LINE
  5
31BA
  8
YODOROGO
 10
27977.604341291921
 20
1667.749496429285
 30
0.0
 11
28025.828774291349
 21
1667.749496429285
 31
0.0
  0
LINE
  5
31BB
  8
YODOROGO
 10
28050.135520230899
 20
1655.5036372746561
 30
0.0
 11
28082.135520230921
 21
1655.5036372746561
 31
0.0
1001
AUTOCAD_POSTSCRIPT_FIGURE
1002
{
1000
PSFILL
1000
Grayscale
1000
Grayscale
1070
   100
1002
}
  0
LINE
  5
31BC
  8
YODOROGO
 10
28050.135520230899
 20
1631.5036372746561
 30
0.0
 11
28050.135520230899
 21
1655.5036372746561
 31
0.0
1001
AUTOCAD_POSTSCRIPT_FIGURE
1002
{
1000
PSFILL
1000
Grayscale
1000
Grayscale
1070
   100
1002
}
  0
LINE
  5
31BD
  8
YODOROGO
 10
28082.135520230921
 20
1631.5036372746561
 30
0.0
 11
28050.135520230899
 21
1631.5036372746561
 31
0.0
1001
AUTOCAD_POSTSCRIPT_FIGURE
1002
{
1000
PSFILL
1000
Grayscale
1000
Grayscale
1070
   100
1002
}
  0
LINE
  5
31BE
  8
YODOROGO
 10
28082.135520230921
 20
1499.749496429288
 30
0.0
 11
28082.135520230921
 21
1631.5036372746561
 31
0.0
1001
AUTOCAD_POSTSCRIPT_FIGURE
1002
{
1000
PSFILL
1000
Grayscale
1000
Grayscale
1070
   100
1002
}
  0
LINE
  5
31BF
  8
YODOROGO
 10
28050.135520230921
 20
1499.749496429288
 30
0.0
 11
28082.135520230921
 21
1499.749496429288
 31
0.0
1001
AUTOCAD_POSTSCRIPT_FIGURE
1002
{
1000
PSFILL
1000
Grayscale
1000
Grayscale
1070
   100
1002
}
  0
LINE
  5
31C0
  8
YODOROGO
 10
28050.135520230921
 20
1475.7494964292871
 30
0.0
 11
28050.135520230921
 21
1499.749496429288
 31
0.0
1001
AUTOCAD_POSTSCRIPT_FIGURE
1002
{
1000
PSFILL
1000
Grayscale
1000
Grayscale
1070
   100
1002
}
  0
LINE
  5
31C1
  8
YODOROGO
 10
28137.604341291921
 20
1475.7494964292871
 30
0.0
 11
28050.135520230921
 21
1475.7494964292871
 31
0.0
1001
AUTOCAD_POSTSCRIPT_FIGURE
1002
{
1000
PSFILL
1000
Grayscale
1000
Grayscale
1070
   100
1002
}
  0
LINE
  5
31C2
  8
YODOROGO
 10
28137.604341291921
 20
1499.749496429288
 30
0.0
 11
28137.604341291921
 21
1475.7494964292871
 31
0.0
1001
AUTOCAD_POSTSCRIPT_FIGURE
1002
{
1000
PSFILL
1000
Grayscale
1000
Grayscale
1070
   100
1002
}
  0
LINE
  5
31C3
  8
YODOROGO
 10
28098.135520230931
 20
1499.749496429288
 30
0.0
 11
28137.604341291921
 21
1499.749496429288
 31
0.0
1001
AUTOCAD_POSTSCRIPT_FIGURE
1002
{
1000
PSFILL
1000
Grayscale
1000
Grayscale
1070
   100
1002
}
  0
LINE
  5
31C4
  8
YODOROGO
 10
28098.135520230931
 20
1631.5036372746561
 30
0.0
 11
28098.135520230931
 21
1499.749496429288
 31
0.0
1001
AUTOCAD_POSTSCRIPT_FIGURE
1002
{
1000
PSFILL
1000
Grayscale
1000
Grayscale
1070
   100
1002
}
  0
LINE
  5
31C5
  8
YODOROGO
 10
28137.604341291921
 20
1631.5036372746561
 30
0.0
 11
28098.135520230931
 21
1631.5036372746561
 31
0.0
1001
AUTOCAD_POSTSCRIPT_FIGURE
1002
{
1000
PSFILL
1000
Grayscale
1000
Grayscale
1070
   100
1002
}
  0
LINE
  5
31C6
  8
YODOROGO
 10
28137.604341291921
 20
1655.5036372746561
 30
0.0
 11
28137.604341291921
 21
1631.5036372746561
 31
0.0
1001
AUTOCAD_POSTSCRIPT_FIGURE
1002
{
1000
PSFILL
1000
Grayscale
1000
Grayscale
1070
   100
1002
}
  0
LINE
  5
31C7
  8
YODOROGO
 10
28098.135520230931
 20
1655.5036372746561
 30
0.0
 11
28137.604341291921
 21
1655.5036372746561
 31
0.0
1001
AUTOCAD_POSTSCRIPT_FIGURE
1002
{
1000
PSFILL
1000
Grayscale
1000
Grayscale
1070
   100
1002
}
  0
LINE
  5
31C8
  8
YODOROGO
 10
28401.60434129191
 20
1667.749496429288
 30
0.0
 11
28345.604341291921
 21
1667.749496429288
 31
0.0
  0
LINE
  5
31C9
  8
YODOROGO
 10
28401.60434129191
 20
1611.749496429288
 30
0.0
 11
28401.60434129191
 21
1667.749496429288
 31
0.0
  0
LINE
  5
31CA
  8
YODOROGO
 10
28345.604341291921
 20
1667.749496429288
 30
0.0
 11
28345.604341291921
 21
1611.749496429288
 31
0.0
  0
ARC
  5
31CB
  8
YODOROGO
 10
28513.60434129191
 20
1507.749496429288
 30
0.0
 40
80.0
 50
180.0
 51
270.0
  0
ARC
  5
31CC
  8
YODOROGO
 10
28537.604341291921
 20
1563.7494964292871
 30
0.0
 40
40.0
 50
180.0
 51
270.0
  0
LINE
  5
31CD
  8
YODOROGO
 10
28561.604341291932
 20
1523.7494964292871
 30
0.0
 11
28537.604341291921
 21
1523.7494964292871
 31
0.0
  0
ARC
  5
31CE
  8
YODOROGO
 10
28561.604341291932
 20
1547.749496429285
 30
0.0
 40
23.999999999996358
 50
270.0
 51
0.0000000000054281
  0
LINE
  5
31CF
  8
YODOROGO
 10
27801.604341291921
 20
1890.786580793706
 30
0.0
 11
27777.604341291921
 21
1843.776747951672
 31
0.0
1001
AUTOCAD_POSTSCRIPT_FIGURE
1002
{
1000
PSFILL
1000
Grayscale
1000
Grayscale
1070
   100
1002
}
  0
LINE
  5
31D0
  8
YODOROGO
 10
27801.604341291921
 20
1747.749496429286
 30
0.0
 11
27801.604341291921
 21
1890.786580793706
 31
0.0
1001
AUTOCAD_POSTSCRIPT_FIGURE
1002
{
1000
PSFILL
1000
Grayscale
1000
Grayscale
1070
   100
1002
}
  0
LINE
  5
31D1
  8
YODOROGO
 10
27817.604341291921
 20
1747.749496429286
 30
0.0
 11
27801.604341291921
 21
1747.749496429286
 31
0.0
1001
AUTOCAD_POSTSCRIPT_FIGURE
1002
{
1000
PSFILL
1000
Grayscale
1000
Grayscale
1070
   100
1002
}
  0
LINE
  5
31D2
  8
YODOROGO
 10
27817.604341291921
 20
1893.7713320852661
 30
0.0
 11
27817.604341291921
 21
1747.749496429286
 31
0.0
1001
AUTOCAD_POSTSCRIPT_FIGURE
1002
{
1000
PSFILL
1000
Grayscale
1000
Grayscale
1070
   100
1002
}
  0
LINE
  5
31D3
  8
YODOROGO
 10
27841.604341291921
 20
1867.6547582841361
 30
0.0
 11
27817.604341291921
 21
1893.7713320852661
 31
0.0
1001
AUTOCAD_POSTSCRIPT_FIGURE
1002
{
1000
PSFILL
1000
Grayscale
1000
Grayscale
1070
   100
1002
}
  0
LINE
  5
31D4
  8
YODOROGO
 10
27841.604341291921
 20
1883.6547582841361
 30
0.0
 11
27841.604341291921
 21
1867.6547582841361
 31
0.0
1001
AUTOCAD_POSTSCRIPT_FIGURE
1002
{
1000
PSFILL
1000
Grayscale
1000
Grayscale
1070
   100
1002
}
  0
LINE
  5
31D5
  8
YODOROGO
 10
27817.604341291921
 20
1917.7713320852649
 30
0.0
 11
27841.604341291921
 21
1883.6547582841361
 31
0.0
1001
AUTOCAD_POSTSCRIPT_FIGURE
1002
{
1000
PSFILL
1000
Grayscale
1000
Grayscale
1070
   100
1002
}
  0
LINE
  5
31D6
  8
YODOROGO
 10
27817.604341291921
 20
1939.749496429288
 30
0.0
 11
27817.604341291921
 21
1917.7713320852649
 31
0.0
1001
AUTOCAD_POSTSCRIPT_FIGURE
1002
{
1000
PSFILL
1000
Grayscale
1000
Grayscale
1070
   100
1002
}
  0
LINE
  5
31D7
  8
YODOROGO
 10
27889.604341291921
 20
1939.749496429288
 30
0.0
 11
27817.604341291921
 21
1939.749496429288
 31
0.0
1001
AUTOCAD_POSTSCRIPT_FIGURE
1002
{
1000
PSFILL
1000
Grayscale
1000
Grayscale
1070
   100
1002
}
  0
LINE
  5
31D8
  8
YODOROGO
 10
27889.604341291921
 20
1900.5683489363
 30
0.0
 11
27889.604341291921
 21
1939.749496429288
 31
0.0
1001
AUTOCAD_POSTSCRIPT_FIGURE
1002
{
1000
PSFILL
1000
Grayscale
1000
Grayscale
1070
   100
1002
}
  0
LINE
  5
31D9
  8
YODOROGO
 10
27857.604341291921
 20
1900.5683489363
 30
0.0
 11
27889.604341291921
 21
1900.5683489363
 31
0.0
1001
AUTOCAD_POSTSCRIPT_FIGURE
1002
{
1000
PSFILL
1000
Grayscale
1000
Grayscale
1070
   100
1002
}
  0
LINE
  5
31DA
  8
YODOROGO
 10
27857.604341291921
 20
1884.568348936298
 30
0.0
 11
27857.604341291921
 21
1900.5683489363
 31
0.0
1001
AUTOCAD_POSTSCRIPT_FIGURE
1002
{
1000
PSFILL
1000
Grayscale
1000
Grayscale
1070
   100
1002
}
  0
LINE
  5
31DB
  8
YODOROGO
 10
27889.604341291921
 20
1884.568348936298
 30
0.0
 11
27857.604341291921
 21
1884.568348936298
 31
0.0
1001
AUTOCAD_POSTSCRIPT_FIGURE
1002
{
1000
PSFILL
1000
Grayscale
1000
Grayscale
1070
   100
1002
}
  0
LINE
  5
31DC
  8
YODOROGO
 10
27889.604341291921
 20
1879.6191779644371
 30
0.0
 11
27889.604341291921
 21
1884.568348936298
 31
0.0
1001
AUTOCAD_POSTSCRIPT_FIGURE
1002
{
1000
PSFILL
1000
Grayscale
1000
Grayscale
1070
   100
1002
}
  0
LINE
  5
31DD
  8
YODOROGO
 10
27849.604341291921
 20
1812.974981161417
 30
0.0
 11
27889.604341291921
 21
1879.6191779644371
 31
0.0
1001
AUTOCAD_POSTSCRIPT_FIGURE
1002
{
1000
PSFILL
1000
Grayscale
1000
Grayscale
1070
   100
1002
}
  0
LINE
  5
31DE
  8
YODOROGO
 10
27849.604341291921
 20
1796.9749811614161
 30
0.0
 11
27849.604341291921
 21
1812.974981161417
 31
0.0
1001
AUTOCAD_POSTSCRIPT_FIGURE
1002
{
1000
PSFILL
1000
Grayscale
1000
Grayscale
1070
   100
1002
}
  0
LINE
  5
31DF
  8
YODOROGO
 10
27889.604341291921
 20
1847.6191779644359
 30
0.0
 11
27849.604341291921
 21
1796.9749811614161
 31
0.0
1001
AUTOCAD_POSTSCRIPT_FIGURE
1002
{
1000
PSFILL
1000
Grayscale
1000
Grayscale
1070
   100
1002
}
  0
LINE
  5
31E0
  8
YODOROGO
 10
27889.604341291921
 20
1747.749496429286
 30
0.0
 11
27889.604341291921
 21
1847.6191779644359
 31
0.0
1001
AUTOCAD_POSTSCRIPT_FIGURE
1002
{
1000
PSFILL
1000
Grayscale
1000
Grayscale
1070
   100
1002
}
  0
LINE
  5
31E1
  8
YODOROGO
 10
27905.604341291921
 20
1747.749496429286
 30
0.0
 11
27889.604341291921
 21
1747.749496429286
 31
0.0
1001
AUTOCAD_POSTSCRIPT_FIGURE
1002
{
1000
PSFILL
1000
Grayscale
1000
Grayscale
1070
   100
1002
}
  0
LINE
  5
31E2
  8
YODOROGO
 10
27905.604341291921
 20
1849.409012158806
 30
0.0
 11
27905.604341291921
 21
1747.749496429286
 31
0.0
1001
AUTOCAD_POSTSCRIPT_FIGURE
1002
{
1000
PSFILL
1000
Grayscale
1000
Grayscale
1070
   100
1002
}
  0
LINE
  5
31E3
  8
YODOROGO
 10
27937.604341291921
 20
1796.9749811614161
 30
0.0
 11
27905.604341291921
 21
1849.409012158806
 31
0.0
1001
AUTOCAD_POSTSCRIPT_FIGURE
1002
{
1000
PSFILL
1000
Grayscale
1000
Grayscale
1070
   100
1002
}
  0
LINE
  5
31E4
  8
YODOROGO
 10
27937.604341291921
 20
1812.974981161417
 30
0.0
 11
27937.604341291921
 21
1796.9749811614161
 31
0.0
1001
AUTOCAD_POSTSCRIPT_FIGURE
1002
{
1000
PSFILL
1000
Grayscale
1000
Grayscale
1070
   100
1002
}
  0
LINE
  5
31E5
  8
YODOROGO
 10
27905.604341291921
 20
1881.4090121588081
 30
0.0
 11
27937.604341291921
 21
1812.974981161417
 31
0.0
1001
AUTOCAD_POSTSCRIPT_FIGURE
1002
{
1000
PSFILL
1000
Grayscale
1000
Grayscale
1070
   100
1002
}
  0
LINE
  5
31E6
  8
YODOROGO
 10
27905.604341291921
 20
1884.5683489363
 30
0.0
 11
27905.604341291921
 21
1881.4090121588081
 31
0.0
1001
AUTOCAD_POSTSCRIPT_FIGURE
1002
{
1000
PSFILL
1000
Grayscale
1000
Grayscale
1070
   100
1002
}
  0
LINE
  5
31E7
  8
YODOROGO
 10
27937.604341291921
 20
1884.568348936298
 30
0.0
 11
27905.604341291921
 21
1884.5683489363
 31
0.0
1001
AUTOCAD_POSTSCRIPT_FIGURE
1002
{
1000
PSFILL
1000
Grayscale
1000
Grayscale
1070
   100
1002
}
  0
LINE
  5
31E8
  8
YODOROGO
 10
27937.604341291921
 20
1900.5683489363
 30
0.0
 11
27937.604341291921
 21
1884.568348936298
 31
0.0
1001
AUTOCAD_POSTSCRIPT_FIGURE
1002
{
1000
PSFILL
1000
Grayscale
1000
Grayscale
1070
   100
1002
}
  0
LINE
  5
31E9
  8
YODOROGO
 10
27905.604341291921
 20
1900.5683489363
 30
0.0
 11
27937.604341291921
 21
1900.5683489363
 31
0.0
1001
AUTOCAD_POSTSCRIPT_FIGURE
1002
{
1000
PSFILL
1000
Grayscale
1000
Grayscale
1070
   100
1002
}
  0
LINE
  5
31EA
  8
YODOROGO
 10
27905.604341291921
 20
1939.749496429288
 30
0.0
 11
27905.604341291921
 21
1900.5683489363
 31
0.0
1001
AUTOCAD_POSTSCRIPT_FIGURE
1002
{
1000
PSFILL
1000
Grayscale
1000
Grayscale
1070
   100
1002
}
  0
LINE
  5
31EB
  8
YODOROGO
 10
27937.604341291921
 20
1939.749496429288
 30
0.0
 11
27905.604341291921
 21
1939.749496429288
 31
0.0
1001
AUTOCAD_POSTSCRIPT_FIGURE
1002
{
1000
PSFILL
1000
Grayscale
1000
Grayscale
1070
   100
1002
}
  0
LINE
  5
31EC
  8
YODOROGO
 10
27937.604341291921
 20
1955.7494964292871
 30
0.0
 11
27937.604341291921
 21
1939.749496429288
 31
0.0
1001
AUTOCAD_POSTSCRIPT_FIGURE
1002
{
1000
PSFILL
1000
Grayscale
1000
Grayscale
1070
   100
1002
}
  0
LINE
  5
31ED
  8
YODOROGO
 10
27905.604341291921
 20
1955.7494964292871
 30
0.0
 11
27937.604341291921
 21
1955.7494964292871
 31
0.0
1001
AUTOCAD_POSTSCRIPT_FIGURE
1002
{
1000
PSFILL
1000
Grayscale
1000
Grayscale
1070
   100
1002
}
  0
LINE
  5
31EE
  8
YODOROGO
 10
27905.604341291921
 20
1979.749496429288
 30
0.0
 11
27905.604341291921
 21
1955.7494964292871
 31
0.0
1001
AUTOCAD_POSTSCRIPT_FIGURE
1002
{
1000
PSFILL
1000
Grayscale
1000
Grayscale
1070
   100
1002
}
  0
LINE
  5
31EF
  8
YODOROGO
 10
27889.604341291921
 20
1979.749496429288
 30
0.0
 11
27905.604341291921
 21
1979.749496429288
 31
0.0
1001
AUTOCAD_POSTSCRIPT_FIGURE
1002
{
1000
PSFILL
1000
Grayscale
1000
Grayscale
1070
   100
1002
}
  0
LINE
  5
31F0
  8
YODOROGO
 10
27889.604341291921
 20
1955.7494964292871
 30
0.0
 11
27889.604341291921
 21
1979.749496429288
 31
0.0
1001
AUTOCAD_POSTSCRIPT_FIGURE
1002
{
1000
PSFILL
1000
Grayscale
1000
Grayscale
1070
   100
1002
}
  0
LINE
  5
31F1
  8
YODOROGO
 10
27865.604341291921
 20
1955.7494964292871
 30
0.0
 11
27889.604341291921
 21
1955.7494964292871
 31
0.0
1001
AUTOCAD_POSTSCRIPT_FIGURE
1002
{
1000
PSFILL
1000
Grayscale
1000
Grayscale
1070
   100
1002
}
  0
LINE
  5
31F2
  8
YODOROGO
 10
27865.604341291921
 20
1979.749496429288
 30
0.0
 11
27865.604341291921
 21
1955.7494964292871
 31
0.0
1001
AUTOCAD_POSTSCRIPT_FIGURE
1002
{
1000
PSFILL
1000
Grayscale
1000
Grayscale
1070
   100
1002
}
  0
LINE
  5
31F3
  8
YODOROGO
 10
27849.604341291921
 20
1979.749496429288
 30
0.0
 11
27865.604341291921
 21
1979.749496429288
 31
0.0
1001
AUTOCAD_POSTSCRIPT_FIGURE
1002
{
1000
PSFILL
1000
Grayscale
1000
Grayscale
1070
   100
1002
}
  0
LINE
  5
31F4
  8
YODOROGO
 10
27849.604341291921
 20
1955.7494964292871
 30
0.0
 11
27849.604341291921
 21
1979.749496429288
 31
0.0
1001
AUTOCAD_POSTSCRIPT_FIGURE
1002
{
1000
PSFILL
1000
Grayscale
1000
Grayscale
1070
   100
1002
}
  0
LINE
  5
31F5
  8
YODOROGO
 10
27817.604341291921
 20
1955.7494964292871
 30
0.0
 11
27849.604341291921
 21
1955.7494964292871
 31
0.0
1001
AUTOCAD_POSTSCRIPT_FIGURE
1002
{
1000
PSFILL
1000
Grayscale
1000
Grayscale
1070
   100
1002
}
  0
LINE
  5
31F6
  8
YODOROGO
 10
27817.604341291921
 20
1979.749496429288
 30
0.0
 11
27817.604341291921
 21
1955.7494964292871
 31
0.0
1001
AUTOCAD_POSTSCRIPT_FIGURE
1002
{
1000
PSFILL
1000
Grayscale
1000
Grayscale
1070
   100
1002
}
  0
LINE
  5
31F7
  8
YODOROGO
 10
27801.604341291921
 20
1979.749496429288
 30
0.0
 11
27817.604341291921
 21
1979.749496429288
 31
0.0
1001
AUTOCAD_POSTSCRIPT_FIGURE
1002
{
1000
PSFILL
1000
Grayscale
1000
Grayscale
1070
   100
1002
}
  0
LINE
  5
31F8
  8
YODOROGO
 10
27801.604341291921
 20
1955.7494964292871
 30
0.0
 11
27801.604341291921
 21
1979.749496429288
 31
0.0
1001
AUTOCAD_POSTSCRIPT_FIGURE
1002
{
1000
PSFILL
1000
Grayscale
1000
Grayscale
1070
   100
1002
}
  0
LINE
  5
31F9
  8
YODOROGO
 10
27777.604341291921
 20
1955.7494964292871
 30
0.0
 11
27801.604341291921
 21
1955.7494964292871
 31
0.0
1001
AUTOCAD_POSTSCRIPT_FIGURE
1002
{
1000
PSFILL
1000
Grayscale
1000
Grayscale
1070
   100
1002
}
  0
LINE
  5
31FA
  8
YODOROGO
 10
27777.604341291921
 20
1939.749496429288
 30
0.0
 11
27777.604341291921
 21
1955.7494964292871
 31
0.0
1001
AUTOCAD_POSTSCRIPT_FIGURE
1002
{
1000
PSFILL
1000
Grayscale
1000
Grayscale
1070
   100
1002
}
  0
LINE
  5
31FB
  8
YODOROGO
 10
27801.604341291921
 20
1939.749496429288
 30
0.0
 11
27777.604341291921
 21
1939.749496429288
 31
0.0
1001
AUTOCAD_POSTSCRIPT_FIGURE
1002
{
1000
PSFILL
1000
Grayscale
1000
Grayscale
1070
   100
1002
}
  0
LINE
  5
31FC
  8
YODOROGO
 10
27801.604341291921
 20
1914.7865807937051
 30
0.0
 11
27801.604341291921
 21
1939.749496429288
 31
0.0
1001
AUTOCAD_POSTSCRIPT_FIGURE
1002
{
1000
PSFILL
1000
Grayscale
1000
Grayscale
1070
   100
1002
}
  0
LINE
  5
31FD
  8
YODOROGO
 10
27777.604341291921
 20
1859.776747951671
 30
0.0
 11
27801.604341291921
 21
1914.7865807937051
 31
0.0
1001
AUTOCAD_POSTSCRIPT_FIGURE
1002
{
1000
PSFILL
1000
Grayscale
1000
Grayscale
1070
   100
1002
}
  0
LINE
  5
31FE
  8
YODOROGO
 10
27777.604341291921
 20
1843.776747951672
 30
0.0
 11
27777.604341291921
 21
1859.776747951671
 31
0.0
1001
AUTOCAD_POSTSCRIPT_FIGURE
1002
{
1000
PSFILL
1000
Grayscale
1000
Grayscale
1070
   100
1002
}
  0
LINE
  5
31FF
  8
YODOROGO
 10
28257.604341291921
 20
1867.7494964292871
 30
0.0
 11
28401.60434129191
 21
1824.877625640306
 31
0.0
1001
AUTOCAD_POSTSCRIPT_FIGURE
1002
{
1000
PSFILL
1000
Grayscale
1000
Grayscale
1070
   100
1002
}
  0
LINE
  5
3200
  8
YODOROGO
 10
28401.60434129191
 20
1752.877625640306
 30
0.0
 11
28257.604341291921
 21
1795.7494964292871
 31
0.0
1001
AUTOCAD_POSTSCRIPT_FIGURE
1002
{
1000
PSFILL
1000
Grayscale
1000
Grayscale
1070
   100
1002
}
  0
LINE
  5
3201
  8
YODOROGO
 10
28401.60434129191
 20
1984.877625640306
 30
0.0
 11
28257.604341291921
 21
2027.749496429288
 31
0.0
1001
AUTOCAD_POSTSCRIPT_FIGURE
1002
{
1000
PSFILL
1000
Grayscale
1000
Grayscale
1070
   100
1002
}
  0
LINE
  5
3202
  8
YODOROGO
 10
28257.604341291921
 20
1959.749496429288
 30
0.0
 11
28401.60434129191
 21
1916.8776256403071
 31
0.0
1001
AUTOCAD_POSTSCRIPT_FIGURE
1002
{
1000
PSFILL
1000
Grayscale
1000
Grayscale
1070
   100
1002
}
  0
LINE
  5
3203
  8
YODOROGO
 10
28257.604341291921
 20
1795.7494964292871
 30
0.0
 11
28257.604341291921
 21
1867.7494964292871
 31
0.0
1001
AUTOCAD_POSTSCRIPT_FIGURE
1002
{
1000
PSFILL
1000
Grayscale
1000
Grayscale
1070
   100
1002
}
  0
LINE
  5
3204
  8
YODOROGO
 10
28257.604341291921
 20
2027.749496429288
 30
0.0
 11
28257.604341291921
 21
1959.749496429288
 31
0.0
1001
AUTOCAD_POSTSCRIPT_FIGURE
1002
{
1000
PSFILL
1000
Grayscale
1000
Grayscale
1070
   100
1002
}
  0
LINE
  5
3205
  8
YODOROGO
 10
28080.236320206739
 20
1939.749496429288
 30
0.0
 11
28129.60434129191
 21
1747.749496429286
 31
0.0
1001
AUTOCAD_POSTSCRIPT_FIGURE
1002
{
1000
PSFILL
1000
Grayscale
1000
Grayscale
1070
   100
1002
}
  0
LINE
  5
3206
  8
YODOROGO
 10
27977.604341291921
 20
1939.749496429288
 30
0.0
 11
28080.236320206739
 21
1939.749496429288
 31
0.0
1001
AUTOCAD_POSTSCRIPT_FIGURE
1002
{
1000
PSFILL
1000
Grayscale
1000
Grayscale
1070
   100
1002
}
  0
LINE
  5
3207
  8
YODOROGO
 10
27977.604341291921
 20
1955.7494964292871
 30
0.0
 11
27977.604341291921
 21
1939.749496429288
 31
0.0
1001
AUTOCAD_POSTSCRIPT_FIGURE
1002
{
1000
PSFILL
1000
Grayscale
1000
Grayscale
1070
   100
1002
}
  0
LINE
  5
3208
  8
YODOROGO
 10
28076.60687851991
 20
1955.7494964292871
 30
0.0
 11
27977.604341291921
 21
1955.7494964292871
 31
0.0
1001
AUTOCAD_POSTSCRIPT_FIGURE
1002
{
1000
PSFILL
1000
Grayscale
1000
Grayscale
1070
   100
1002
}
  0
LINE
  5
3209
  8
YODOROGO
 10
28071.162715989711
 20
1979.749496429288
 30
0.0
 11
28076.60687851991
 21
1955.7494964292871
 31
0.0
1001
AUTOCAD_POSTSCRIPT_FIGURE
1002
{
1000
PSFILL
1000
Grayscale
1000
Grayscale
1070
   100
1002
}
  0
LINE
  5
320A
  8
YODOROGO
 10
28091.162715989711
 20
1979.749496429288
 30
0.0
 11
28071.162715989711
 21
1979.749496429288
 31
0.0
1001
AUTOCAD_POSTSCRIPT_FIGURE
1002
{
1000
PSFILL
1000
Grayscale
1000
Grayscale
1070
   100
1002
}
  0
LINE
  5
320B
  8
YODOROGO
 10
28095.806878519939
 20
1955.7494964292871
 30
0.0
 11
28091.162715989711
 21
1979.749496429288
 31
0.0
1001
AUTOCAD_POSTSCRIPT_FIGURE
1002
{
1000
PSFILL
1000
Grayscale
1000
Grayscale
1070
   100
1002
}
  0
LINE
  5
320C
  8
YODOROGO
 10
28121.604341291921
 20
1955.7494964292871
 30
0.0
 11
28095.806878519939
 21
1955.7494964292871
 31
0.0
1001
AUTOCAD_POSTSCRIPT_FIGURE
1002
{
1000
PSFILL
1000
Grayscale
1000
Grayscale
1070
   100
1002
}
  0
LINE
  5
320D
  8
YODOROGO
 10
28121.604341291921
 20
1979.749496429288
 30
0.0
 11
28121.604341291921
 21
1955.7494964292871
 31
0.0
1001
AUTOCAD_POSTSCRIPT_FIGURE
1002
{
1000
PSFILL
1000
Grayscale
1000
Grayscale
1070
   100
1002
}
  0
LINE
  5
320E
  8
YODOROGO
 10
28137.604341291921
 20
1979.749496429288
 30
0.0
 11
28121.604341291921
 21
1979.749496429288
 31
0.0
1001
AUTOCAD_POSTSCRIPT_FIGURE
1002
{
1000
PSFILL
1000
Grayscale
1000
Grayscale
1070
   100
1002
}
  0
LINE
  5
320F
  8
YODOROGO
 10
28137.604341291921
 20
1955.7494964292871
 30
0.0
 11
28137.604341291921
 21
1979.749496429288
 31
0.0
1001
AUTOCAD_POSTSCRIPT_FIGURE
1002
{
1000
PSFILL
1000
Grayscale
1000
Grayscale
1070
   100
1002
}
  0
LINE
  5
3210
  8
YODOROGO
 10
28137.604341291921
 20
1939.749496429288
 30
0.0
 11
28137.604341291921
 21
1955.7494964292871
 31
0.0
1001
AUTOCAD_POSTSCRIPT_FIGURE
1002
{
1000
PSFILL
1000
Grayscale
1000
Grayscale
1070
   100
1002
}
  0
LINE
  5
3211
  8
YODOROGO
 10
28098.902986873411
 20
1939.749496429288
 30
0.0
 11
28137.604341291921
 21
1939.749496429288
 31
0.0
1001
AUTOCAD_POSTSCRIPT_FIGURE
1002
{
1000
PSFILL
1000
Grayscale
1000
Grayscale
1070
   100
1002
}
  0
LINE
  5
3212
  8
YODOROGO
 10
28137.604341291921
 20
1747.749496429286
 30
0.0
 11
28098.902986873411
 21
1939.749496429288
 31
0.0
1001
AUTOCAD_POSTSCRIPT_FIGURE
1002
{
1000
PSFILL
1000
Grayscale
1000
Grayscale
1070
   100
1002
}
  0
LINE
  5
3213
  8
YODOROGO
 10
28129.60434129191
 20
1747.749496429286
 30
0.0
 11
28137.604341291921
 21
1747.749496429286
 31
0.0
1001
AUTOCAD_POSTSCRIPT_FIGURE
1002
{
1000
PSFILL
1000
Grayscale
1000
Grayscale
1070
   100
1002
}
  0
LINE
  5
3214
  8
YODOROGO
 10
28078.06921993379
 20
1775.7407762987939
 30
0.0
 11
27977.604341291921
 21
1747.749496429286
 31
0.0
  0
LINE
  5
3215
  8
YODOROGO
 10
28078.06921993379
 20
1798.6689795290731
 30
0.0
 11
28078.06921993379
 21
1775.7407762987939
 31
0.0
  0
LINE
  5
3216
  8
YODOROGO
 10
28033.83678061287
 20
1786.816933133767
 30
0.0
 11
28078.06921993379
 21
1798.6689795290731
 31
0.0
  0
LINE
  5
3217
  8
YODOROGO
 10
28033.83678061287
 20
1872.5683489362989
 30
0.0
 11
28033.83678061287
 21
1786.816933133767
 31
0.0
  0
LINE
  5
3218
  8
YODOROGO
 10
28078.06921993379
 20
1872.5683489362989
 30
0.0
 11
28033.83678061287
 21
1872.5683489362989
 31
0.0
  0
LINE
  5
3219
  8
YODOROGO
 10
28078.06921993379
 20
1892.568348936298
 30
0.0
 11
28078.06921993379
 21
1872.5683489362989
 31
0.0
  0
LINE
  5
321A
  8
YODOROGO
 10
27977.604341291921
 20
1892.568348936298
 30
0.0
 11
28078.06921993379
 21
1892.568348936298
 31
0.0
  0
LINE
  5
321B
  8
YODOROGO
 10
27977.604341291921
 20
1872.5683489362989
 30
0.0
 11
27977.604341291921
 21
1892.568348936298
 31
0.0
  0
LINE
  5
321C
  8
YODOROGO
 10
28021.836780612852
 20
1872.5683489362989
 30
0.0
 11
27977.604341291921
 21
1872.5683489362989
 31
0.0
  0
LINE
  5
321D
  8
YODOROGO
 10
28021.836780612852
 20
1784.673339594317
 30
0.0
 11
28021.836780612852
 21
1872.5683489362989
 31
0.0
  0
LINE
  5
321E
  8
YODOROGO
 10
27977.604341291921
 20
1771.749496429286
 30
0.0
 11
28021.836780612852
 21
1784.673339594317
 31
0.0
  0
LINE
  5
321F
  8
YODOROGO
 10
27977.604341291921
 20
1747.749496429286
 30
0.0
 11
27977.604341291921
 21
1771.749496429286
 31
0.0
  0
LINE
  5
3220
  8
YODOROGO
 10
28001.604341291921
 20
1707.749496429288
 30
0.0
 11
28001.604341291921
 21
1683.7494964292871
 31
0.0
  0
LINE
  5
3221
  8
YODOROGO
 10
28017.604341291921
 20
1707.749496429288
 30
0.0
 11
28001.604341291921
 21
1707.749496429288
 31
0.0
  0
LINE
  5
3222
  8
YODOROGO
 10
28017.604341291921
 20
1683.7494964292871
 30
0.0
 11
28017.604341291921
 21
1707.749496429288
 31
0.0
  0
LINE
  5
3223
  8
YODOROGO
 10
28040.913204016892
 20
1683.7494964292871
 30
0.0
 11
28017.604341291921
 21
1683.7494964292871
 31
0.0
  0
LINE
  5
3224
  8
YODOROGO
 10
28001.604341291921
 20
1683.7494964292871
 30
0.0
 11
27977.604341291921
 21
1683.7494964292871
 31
0.0
  0
LINE
  5
3225
  8
YODOROGO
 10
28082.135520230921
 20
1707.749496429288
 30
0.0
 11
28098.135520230931
 21
1707.749496429288
 31
0.0
1001
AUTOCAD_POSTSCRIPT_FIGURE
1002
{
1000
PSFILL
1000
Grayscale
1000
Grayscale
1070
   100
1002
}
  0
LINE
  5
3226
  8
YODOROGO
 10
28401.60434129191
 20
1824.877625640306
 30
0.0
 11
28401.60434129191
 21
1752.877625640306
 31
0.0
1001
AUTOCAD_POSTSCRIPT_FIGURE
1002
{
1000
PSFILL
1000
Grayscale
1000
Grayscale
1070
   100
1002
}
  0
LINE
  5
3227
  8
YODOROGO
 10
28401.60434129191
 20
1916.8776256403071
 30
0.0
 11
28401.60434129191
 21
1984.877625640306
 31
0.0
1001
AUTOCAD_POSTSCRIPT_FIGURE
1002
{
1000
PSFILL
1000
Grayscale
1000
Grayscale
1070
   100
1002
}
  0
LINE
  5
3228
  8
YODOROGO
 10
28433.60434129191
 20
1819.7494964292871
 30
0.0
 11
28433.60434129191
 21
1747.74949642929
 31
0.0
  0
LINE
  5
3229
  8
YODOROGO
 10
28497.60434129191
 20
1707.749496429288
 30
0.0
 11
28433.60434129191
 21
1707.749496429288
 31
0.0
  0
LINE
  5
322A
  8
YODOROGO
 10
28433.60434129191
 20
1747.74949642929
 30
0.0
 11
28585.604341291921
 21
1747.74949642929
 31
0.0
  0
LINE
  5
322B
  8
YODOROGO
 10
28497.60434129191
 20
1867.7494964292871
 30
0.0
 11
28433.60434129191
 21
1867.7494964292871
 31
0.0
  0
LINE
  5
322C
  8
YODOROGO
 10
28497.60434129191
 20
1923.7494964292871
 30
0.0
 11
28497.60434129191
 21
1867.7494964292871
 31
0.0
  0
LINE
  5
322D
  8
YODOROGO
 10
28585.604341291921
 20
1987.7494964292871
 30
0.0
 11
28585.604341291921
 21
2027.749496429288
 31
0.0
  0
LINE
  5
322E
  8
YODOROGO
 10
28433.60434129191
 20
1987.7494964292871
 30
0.0
 11
28585.604341291921
 21
1987.7494964292871
 31
0.0
  0
LINE
  5
322F
  8
YODOROGO
 10
28433.60434129191
 20
1867.7494964292871
 30
0.0
 11
28433.60434129191
 21
1987.7494964292871
 31
0.0
  0
LINE
  5
3230
  8
YODOROGO
 10
29001.60434129191
 20
2027.749496429288
 30
0.0
 11
29001.60434129191
 21
1619.749496429288
 31
0.0
  0
LINE
  5
3231
  8
YODOROGO
 10
29073.604341291921
 20
1579.749496429288
 30
0.0
 11
29073.604341291921
 21
2027.749496429288
 31
0.0
  0
LINE
  5
3232
  8
YODOROGO
 10
29261.604341291921
 20
1491.749496429286
 30
0.0
 11
29261.604341291921
 21
2007.749496429288
 31
0.0
  0
LINE
  5
3233
  8
YODOROGO
 10
29197.604341291921
 20
2007.749496429288
 30
0.0
 11
29197.604341291921
 21
1491.749496429286
 31
0.0
  0
LINE
  5
3234
  8
YODOROGO
 10
29385.604341291921
 20
2027.749496429288
 30
0.0
 11
29385.604341291921
 21
1427.749496429288
 31
0.0
  0
LINE
  5
3235
  8
YODOROGO
 10
29457.604341291921
 20
1427.749496429288
 30
0.0
 11
29457.604341291921
 21
2027.749496429288
 31
0.0
  0
LINE
  5
3236
  8
YODOROGO
 10
28657.604341291921
 20
1667.749496429288
 30
0.0
 11
28657.604341291921
 21
1747.74949642929
 31
0.0
  0
LINE
  5
3237
  8
YODOROGO
 10
29885.604341291921
 20
1707.749496429288
 30
0.0
 11
29885.604341291921
 21
1667.749496429288
 31
0.0
  0
LINE
  5
3238
  8
YODOROGO
 10
29885.604341291921
 20
1707.749496429288
 30
0.0
 11
29885.604341291921
 21
1667.749496429288
 31
0.0
  0
ARC
  5
3239
  8
YODOROGO
 10
28906.911576186842
 20
1618.217864442272
 30
0.0
 40
94.705151178741644
 50
274.05244162907098
 51
0.9266642149310712
  0
ARC
  5
323A
  8
YODOROGO
 10
28909.186170719819
 20
1592.61072861044
 30
0.0
 40
164.92042356085511
 50
271.5351210653775
 51
355.52727750585052
  0
LINE
  5
323B
  8
YODOROGO
 10
28913.604341291921
 20
1523.7494964292871
 30
0.0
 11
28913.604341291921
 21
1427.749496429288
 31
0.0
  0
LINE
  5
323C
  8
YODOROGO
 10
28793.60434129191
 20
1667.749496429288
 30
0.0
 11
28657.604341291921
 21
1667.749496429288
 31
0.0
  0
LINE
  5
323D
  8
YODOROGO
 10
28793.60434129191
 20
1603.7494964292871
 30
0.0
 11
28793.60434129191
 21
1667.749496429288
 31
0.0
  0
LINE
  5
323E
  8
YODOROGO
 10
28657.604341291921
 20
1603.7494964292871
 30
0.0
 11
28793.60434129191
 21
1603.7494964292871
 31
0.0
  0
LINE
  5
323F
  8
YODOROGO
 10
28657.604341291921
 20
1523.7494964292871
 30
0.0
 11
28657.604341291921
 21
1603.7494964292871
 31
0.0
  0
LINE
  5
3240
  8
YODOROGO
 10
28793.60434129191
 20
1523.7494964292871
 30
0.0
 11
28657.604341291921
 21
1523.7494964292871
 31
0.0
  0
LINE
  5
3241
  8
YODOROGO
 10
28793.60434129191
 20
1427.749496429288
 30
0.0
 11
28793.60434129191
 21
1523.7494964292871
 31
0.0
  0
LINE
  5
3242
  8
YODOROGO
 10
29197.604341291921
 20
1491.749496429286
 30
0.0
 11
29261.604341291921
 21
1491.749496429286
 31
0.0
  0
LINE
  5
3243
  8
YODOROGO
 10
29385.604341291921
 20
1427.749496429288
 30
0.0
 11
29457.604341291921
 21
1427.749496429288
 31
0.0
  0
LINE
  5
3244
  8
YODOROGO
 10
29737.604341291921
 20
1528.4414521705639
 30
0.0
 11
29737.604341291921
 21
1427.749496429288
 31
0.0
  0
LINE
  5
3245
  8
YODOROGO
 10
29617.604341291921
 20
1427.749496429288
 30
0.0
 11
29737.604341291921
 21
1528.4414521705639
 31
0.0
  0
LINE
  5
3246
  8
YODOROGO
 10
29617.604341291921
 20
1547.749496429288
 30
0.0
 11
29617.604341291921
 21
1427.749496429288
 31
0.0
  0
LINE
  5
3247
  8
YODOROGO
 10
29712.94462869945
 20
1627.749496429288
 30
0.0
 11
29617.604341291921
 21
1547.749496429288
 31
0.0
  0
LINE
  5
3248
  8
YODOROGO
 10
29617.604341291921
 20
1627.749496429288
 30
0.0
 11
29712.94462869945
 21
1627.749496429288
 31
0.0
  0
LINE
  5
3249
  8
YODOROGO
 10
29617.604341291921
 20
1667.749496429288
 30
0.0
 11
29617.604341291921
 21
1627.749496429288
 31
0.0
  0
LINE
  5
324A
  8
YODOROGO
 10
29885.604341291921
 20
1667.749496429288
 30
0.0
 11
29617.604341291921
 21
1667.749496429288
 31
0.0
  0
LINE
  5
324B
  8
YODOROGO
 10
29917.604341291921
 20
1627.749496429288
 30
0.0
 11
29777.604341291921
 21
1627.749496429288
 31
0.0
  0
LINE
  5
324C
  8
YODOROGO
 10
29777.604341291921
 20
1562.0054374176559
 30
0.0
 11
29771.409872985321
 21
1556.807661346234
 31
0.0
  0
LINE
  5
324D
  8
YODOROGO
 10
29777.604341291921
 20
1627.749496429288
 30
0.0
 11
29777.604341291921
 21
1562.0054374176559
 31
0.0
  0
LINE
  5
324E
  8
YODOROGO
 10
29737.604341291921
 20
1528.4414521705639
 30
0.0
 11
29737.604341291921
 21
1427.749496429288
 31
0.0
  0
LINE
  5
324F
  8
YODOROGO
 10
29617.604341291921
 20
1427.749496429288
 30
0.0
 11
29737.604341291921
 21
1528.4414521705639
 31
0.0
  0
LINE
  5
3250
  8
YODOROGO
 10
29617.604341291921
 20
1547.749496429288
 30
0.0
 11
29617.604341291921
 21
1427.749496429288
 31
0.0
  0
LINE
  5
3251
  8
YODOROGO
 10
29712.94462869945
 20
1627.749496429288
 30
0.0
 11
29617.604341291921
 21
1547.749496429288
 31
0.0
  0
LINE
  5
3252
  8
YODOROGO
 10
29617.604341291921
 20
1627.749496429288
 30
0.0
 11
29712.94462869945
 21
1627.749496429288
 31
0.0
  0
LINE
  5
3253
  8
YODOROGO
 10
29617.604341291921
 20
1667.749496429288
 30
0.0
 11
29617.604341291921
 21
1627.749496429288
 31
0.0
  0
LINE
  5
3254
  8
YODOROGO
 10
29885.604341291921
 20
1667.749496429288
 30
0.0
 11
29617.604341291921
 21
1667.749496429288
 31
0.0
  0
LINE
  5
3255
  8
YODOROGO
 10
28793.60434129191
 20
1747.74949642929
 30
0.0
 11
28793.60434129191
 21
1819.7494964292871
 31
0.0
  0
LINE
  5
3256
  8
YODOROGO
 10
28657.604341291921
 20
1747.74949642929
 30
0.0
 11
28793.60434129191
 21
1747.74949642929
 31
0.0
  0
LINE
  5
3257
  8
YODOROGO
 10
28729.604341291921
 20
1867.7494964292871
 30
0.0
 11
28729.604341291921
 21
1923.7494964292871
 31
0.0
  0
LINE
  5
3258
  8
YODOROGO
 10
28793.60434129191
 20
1867.7494964292871
 30
0.0
 11
28729.604341291921
 21
1867.7494964292871
 31
0.0
  0
LINE
  5
3259
  8
YODOROGO
 10
28793.60434129191
 20
1947.749496429288
 30
0.0
 11
28793.60434129191
 21
1867.7494964292871
 31
0.0
  0
ARC
  5
325A
  8
YODOROGO
 10
28753.60434129191
 20
1947.749496429288
 30
0.0
 40
40.0
 50
0.0
 51
90.0
  0
LINE
  5
325B
  8
YODOROGO
 10
28657.604341291921
 20
1987.7494964292871
 30
0.0
 11
28753.60434129191
 21
1987.7494964292871
 31
0.0
  0
LINE
  5
325C
  8
YODOROGO
 10
28657.604341291921
 20
2027.749496429288
 30
0.0
 11
28657.604341291921
 21
1987.7494964292871
 31
0.0
  0
LINE
  5
325D
  8
YODOROGO
 10
29073.604341291921
 20
2027.749496429288
 30
0.0
 11
29001.60434129191
 21
2027.749496429288
 31
0.0
  0
LINE
  5
325E
  8
YODOROGO
 10
29261.604341291921
 20
2007.749496429288
 30
0.0
 11
29197.604341291921
 21
2007.749496429288
 31
0.0
  0
LINE
  5
325F
  8
YODOROGO
 10
29457.604341291921
 20
2027.749496429288
 30
0.0
 11
29385.604341291921
 21
2027.749496429288
 31
0.0
  0
LINE
  5
3260
  8
YODOROGO
 10
29673.604341291921
 20
1707.749496429288
 30
0.0
 11
29673.604341291921
 21
1771.7494964292871
 31
0.0
1001
AUTOCAD_POSTSCRIPT_FIGURE
1002
{
1000
PSFILL
1000
Grayscale
1000
Grayscale
1070
    25
1002
}
  0
LINE
  5
3261
  8
YODOROGO
 10
29617.604341291921
 20
1707.749496429288
 30
0.0
 11
29673.604341291921
 21
1707.749496429288
 31
0.0
1001
AUTOCAD_POSTSCRIPT_FIGURE
1002
{
1000
PSFILL
1000
Grayscale
1000
Grayscale
1070
    25
1002
}
  0
LINE
  5
3262
  8
YODOROGO
 10
29617.604341291921
 20
1819.7494964292871
 30
0.0
 11
29617.604341291921
 21
1707.749496429288
 31
0.0
1001
AUTOCAD_POSTSCRIPT_FIGURE
1002
{
1000
PSFILL
1000
Grayscale
1000
Grayscale
1070
    25
1002
}
  0
LINE
  5
3263
  8
YODOROGO
 10
29765.604341291921
 20
1819.7494964292871
 30
0.0
 11
29617.604341291921
 21
1819.7494964292871
 31
0.0
1001
AUTOCAD_POSTSCRIPT_FIGURE
1002
{
1000
PSFILL
1000
Grayscale
1000
Grayscale
1070
    25
1002
}
  0
LINE
  5
3264
  8
YODOROGO
 10
29765.604341291921
 20
1859.749496429288
 30
0.0
 11
29765.604341291921
 21
1819.7494964292871
 31
0.0
1001
AUTOCAD_POSTSCRIPT_FIGURE
1002
{
1000
PSFILL
1000
Grayscale
1000
Grayscale
1070
    25
1002
}
  0
LINE
  5
3265
  8
YODOROGO
 10
29617.604341291921
 20
1859.749496429288
 30
0.0
 11
29765.604341291921
 21
1859.749496429288
 31
0.0
1001
AUTOCAD_POSTSCRIPT_FIGURE
1002
{
1000
PSFILL
1000
Grayscale
1000
Grayscale
1070
    25
1002
}
  0
LINE
  5
3266
  8
YODOROGO
 10
29617.604341291921
 20
1907.7494964292871
 30
0.0
 11
29617.604341291921
 21
1859.749496429288
 31
0.0
1001
AUTOCAD_POSTSCRIPT_FIGURE
1002
{
1000
PSFILL
1000
Grayscale
1000
Grayscale
1070
    25
1002
}
  0
LINE
  5
3267
  8
YODOROGO
 10
29765.604341291921
 20
1907.7494964292871
 30
0.0
 11
29617.604341291921
 21
1907.7494964292871
 31
0.0
1001
AUTOCAD_POSTSCRIPT_FIGURE
1002
{
1000
PSFILL
1000
Grayscale
1000
Grayscale
1070
    25
1002
}
  0
LINE
  5
3268
  8
YODOROGO
 10
29765.604341291921
 20
1947.749496429288
 30
0.0
 11
29765.604341291921
 21
1907.7494964292871
 31
0.0
1001
AUTOCAD_POSTSCRIPT_FIGURE
1002
{
1000
PSFILL
1000
Grayscale
1000
Grayscale
1070
    25
1002
}
  0
LINE
  5
3269
  8
YODOROGO
 10
29617.604341291921
 20
1947.749496429288
 30
0.0
 11
29765.604341291921
 21
1947.749496429288
 31
0.0
1001
AUTOCAD_POSTSCRIPT_FIGURE
1002
{
1000
PSFILL
1000
Grayscale
1000
Grayscale
1070
    25
1002
}
  0
LINE
  5
326A
  8
YODOROGO
 10
29617.604341291921
 20
2027.749496429288
 30
0.0
 11
29617.604341291921
 21
1947.749496429288
 31
0.0
1001
AUTOCAD_POSTSCRIPT_FIGURE
1002
{
1000
PSFILL
1000
Grayscale
1000
Grayscale
1070
    25
1002
}
  0
LINE
  5
326B
  8
YODOROGO
 10
29665.604341291921
 20
2027.749496429288
 30
0.0
 11
29617.604341291921
 21
2027.749496429288
 31
0.0
1001
AUTOCAD_POSTSCRIPT_FIGURE
1002
{
1000
PSFILL
1000
Grayscale
1000
Grayscale
1070
    25
1002
}
  0
LINE
  5
326C
  8
YODOROGO
 10
29665.604341291921
 20
1995.7494964292871
 30
0.0
 11
29665.604341291921
 21
2027.749496429288
 31
0.0
1001
AUTOCAD_POSTSCRIPT_FIGURE
1002
{
1000
PSFILL
1000
Grayscale
1000
Grayscale
1070
    25
1002
}
  0
LINE
  5
326D
  8
YODOROGO
 10
29765.604341291921
 20
1995.7494964292871
 30
0.0
 11
29665.604341291921
 21
1995.7494964292871
 31
0.0
1001
AUTOCAD_POSTSCRIPT_FIGURE
1002
{
1000
PSFILL
1000
Grayscale
1000
Grayscale
1070
    25
1002
}
  0
LINE
  5
326E
  8
YODOROGO
 10
29765.604341291921
 20
2027.749496429288
 30
0.0
 11
29765.604341291921
 21
1995.7494964292871
 31
0.0
1001
AUTOCAD_POSTSCRIPT_FIGURE
1002
{
1000
PSFILL
1000
Grayscale
1000
Grayscale
1070
    25
1002
}
  0
LINE
  5
326F
  8
YODOROGO
 10
29829.604341291921
 20
2027.749496429288
 30
0.0
 11
29765.604341291921
 21
2027.749496429288
 31
0.0
1001
AUTOCAD_POSTSCRIPT_FIGURE
1002
{
1000
PSFILL
1000
Grayscale
1000
Grayscale
1070
    25
1002
}
  0
LINE
  5
3270
  8
YODOROGO
 10
29829.604341291921
 20
1995.7494964292871
 30
0.0
 11
29829.604341291921
 21
2027.749496429288
 31
0.0
1001
AUTOCAD_POSTSCRIPT_FIGURE
1002
{
1000
PSFILL
1000
Grayscale
1000
Grayscale
1070
    25
1002
}
  0
LINE
  5
3271
  8
YODOROGO
 10
29829.604341291921
 20
1907.7494964292871
 30
0.0
 11
29829.604341291921
 21
1947.749496429288
 31
0.0
1001
AUTOCAD_POSTSCRIPT_FIGURE
1002
{
1000
PSFILL
1000
Grayscale
1000
Grayscale
1070
    25
1002
}
  0
LINE
  5
3272
  8
YODOROGO
 10
29829.604341291921
 20
1819.7494964292871
 30
0.0
 11
29829.604341291921
 21
1859.749496429288
 31
0.0
1001
AUTOCAD_POSTSCRIPT_FIGURE
1002
{
1000
PSFILL
1000
Grayscale
1000
Grayscale
1070
    25
1002
}
  0
LINE
  5
3273
  8
YODOROGO
 10
29921.60434129191
 20
1771.7494964292871
 30
0.0
 11
29921.60434129191
 21
1707.749496429288
 31
0.0
1001
AUTOCAD_POSTSCRIPT_FIGURE
1002
{
1000
PSFILL
1000
Grayscale
1000
Grayscale
1070
    25
1002
}
  0
LINE
  5
3274
  8
YODOROGO
 10
29829.604341291921
 20
1771.7494964292871
 30
0.0
 11
29921.60434129191
 21
1771.7494964292871
 31
0.0
1001
AUTOCAD_POSTSCRIPT_FIGURE
1002
{
1000
PSFILL
1000
Grayscale
1000
Grayscale
1070
    25
1002
}
  0
LINE
  5
3275
  8
YODOROGO
 10
29829.604341291921
 20
1707.749496429288
 30
0.0
 11
29829.604341291921
 21
1771.7494964292871
 31
0.0
1001
AUTOCAD_POSTSCRIPT_FIGURE
1002
{
1000
PSFILL
1000
Grayscale
1000
Grayscale
1070
    25
1002
}
  0
LINE
  5
3276
  8
YODOROGO
 10
29765.604341291921
 20
1707.749496429288
 30
0.0
 11
29829.604341291921
 21
1707.749496429288
 31
0.0
1001
AUTOCAD_POSTSCRIPT_FIGURE
1002
{
1000
PSFILL
1000
Grayscale
1000
Grayscale
1070
    25
1002
}
  0
LINE
  5
3277
  8
YODOROGO
 10
29765.604341291921
 20
1771.7494964292871
 30
0.0
 11
29765.604341291921
 21
1707.749496429288
 31
0.0
1001
AUTOCAD_POSTSCRIPT_FIGURE
1002
{
1000
PSFILL
1000
Grayscale
1000
Grayscale
1070
    25
1002
}
  0
LINE
  5
3278
  8
YODOROGO
 10
29673.604341291921
 20
1771.7494964292871
 30
0.0
 11
29765.604341291921
 21
1771.7494964292871
 31
0.0
1001
AUTOCAD_POSTSCRIPT_FIGURE
1002
{
1000
PSFILL
1000
Grayscale
1000
Grayscale
1070
    25
1002
}
  0
ARC
  5
3279
  8
YODOROGO
 10
31059.517893357912
 20
1602.6807375155761
 30
0.0
 40
178.22128111072141
 50
281.02627495425338
 51
357.77113575573799
  0
LINE
  5
327A
  8
YODOROGO
 10
31413.604341291921
 20
1907.7494964292871
 30
0.0
 11
31165.604341291921
 21
1907.7494964292871
 31
0.0
  0
LINE
  5
327B
  8
YODOROGO
 10
31413.604341291921
 20
2027.749496429288
 30
0.0
 11
31165.604341291921
 21
2027.749496429288
 31
0.0
  0
LINE
  5
327C
  8
YODOROGO
 10
31165.604341291921
 20
1963.749496429286
 30
0.0
 11
31413.604341291921
 21
1963.749496429286
 31
0.0
  0
LINE
  5
327D
  8
YODOROGO
 10
30791.604341291921
 20
1563.7494964292871
 30
0.0
 11
30791.604341291921
 21
1755.7494964292871
 31
0.0
  0
LINE
  5
327E
  8
YODOROGO
 10
30763.604341291921
 20
1691.749496429288
 30
0.0
 11
30763.604341291921
 21
1563.7494964292871
 31
0.0
  0
LINE
  5
327F
  8
YODOROGO
 10
30723.604341291921
 20
1491.749496429288
 30
0.0
 11
30723.604341291921
 21
1691.749496429288
 31
0.0
  0
LINE
  5
3280
  8
YODOROGO
 10
30899.604341291932
 20
1691.749496429288
 30
0.0
 11
30899.604341291932
 21
1491.749496429288
 31
0.0
  0
LINE
  5
3281
  8
YODOROGO
 10
30859.604341291932
 20
1563.7494964292871
 30
0.0
 11
30859.604341291932
 21
1691.749496429288
 31
0.0
  0
LINE
  5
3282
  8
YODOROGO
 10
30831.604341291921
 20
1755.7494964292871
 30
0.0
 11
30831.604341291921
 21
1563.7494964292871
 31
0.0
  0
LINE
  5
3283
  8
YODOROGO
 10
30973.604341291921
 20
2027.749496429288
 30
0.0
 11
30973.604341291921
 21
1467.749496429288
 31
0.0
  0
LINE
  5
3284
  8
YODOROGO
 10
30645.604341291921
 20
1427.749496429288
 30
0.0
 11
30645.604341291921
 21
2027.749496429288
 31
0.0
  0
LINE
  5
3285
  8
YODOROGO
 10
30697.604341291932
 20
1963.749496429286
 30
0.0
 11
30697.604341291932
 21
1427.749496429288
 31
0.0
  0
LINE
  5
3286
  8
YODOROGO
 10
30925.604341291921
 20
1547.749496429288
 30
0.0
 11
30925.604341291921
 21
1963.749496429286
 31
0.0
  0
LINE
  5
3287
  8
YODOROGO
 10
30381.604341291932
 20
1627.749496429288
 30
0.0
 11
30381.604341291932
 21
1679.749496429288
 31
0.0
  0
LINE
  5
3288
  8
YODOROGO
 10
30617.604341291921
 20
1679.749496429288
 30
0.0
 11
30617.604341291921
 21
1627.749496429288
 31
0.0
  0
LINE
  5
3289
  8
YODOROGO
 10
31165.604341291921
 20
1907.7494964292871
 30
0.0
 11
31165.604341291921
 21
1635.7494964292871
 31
0.0
  0
LINE
  5
328A
  8
YODOROGO
 10
29949.60434129191
 20
1667.749496429288
 30
0.0
 11
29949.60434129191
 21
1707.749496429288
 31
0.0
  0
LINE
  5
328B
  8
YODOROGO
 10
29949.60434129191
 20
1667.749496429288
 30
0.0
 11
29949.60434129191
 21
1707.749496429288
 31
0.0
  0
ARC
  5
328C
  8
YODOROGO
 10
30537.604341291921
 20
1507.749496429288
 30
0.0
 40
80.0
 50
270.0
 51
0.0
  0
LINE
  5
328D
  8
YODOROGO
 10
30569.604341291921
 20
1599.7494964292871
 30
0.0
 11
30617.604341291921
 21
1599.7494964292871
 31
0.0
  0
LINE
  5
328E
  8
YODOROGO
 10
30617.604341291921
 20
1627.749496429288
 30
0.0
 11
30529.604341291939
 21
1627.749496429288
 31
0.0
  0
LINE
  5
328F
  8
YODOROGO
 10
30217.604341291921
 20
1667.749496429288
 30
0.0
 11
29949.60434129191
 21
1667.749496429288
 31
0.0
  0
LINE
  5
3290
  8
YODOROGO
 10
30217.604341291921
 20
1627.749496429288
 30
0.0
 11
30217.604341291921
 21
1667.749496429288
 31
0.0
  0
LINE
  5
3291
  8
YODOROGO
 10
30017.604341291921
 20
1627.749496429288
 30
0.0
 11
30217.604341291921
 21
1627.749496429288
 31
0.0
  0
ARC
  5
3292
  8
YODOROGO
 10
30230.05882870136
 20
1868.885714952901
 30
0.0
 40
321.37763628522822
 50
228.6181454618993
 51
245.660289248906
  0
LINE
  5
3293
  8
YODOROGO
 10
30105.604341291921
 20
1603.7494964292871
 30
0.0
 11
30097.60434129195
 21
1576.0728158699001
 31
0.0
  0
LINE
  5
3294
  8
YODOROGO
 10
30189.604341291921
 20
1603.7494964292871
 30
0.0
 11
30105.604341291921
 21
1603.7494964292871
 31
0.0
  0
LINE
  5
3295
  8
YODOROGO
 10
30177.604341291921
 20
1551.817722473427
 30
0.0
 11
30189.604341291921
 21
1603.7494964292871
 31
0.0
  0
ARC
  5
3296
  8
YODOROGO
 10
30230.05882870045
 20
1868.885714953002
 30
0.0
 40
321.37763628529081
 50
260.60629297969911
 51
267.77903556555862
  0
LINE
  5
3297
  8
YODOROGO
 10
30217.604341291921
 20
1427.749496429285
 30
0.0
 11
30217.604341291921
 21
1547.749496429288
 31
0.0
  0
LINE
  5
3298
  8
YODOROGO
 10
29937.604341291932
 20
1481.3393349155101
 30
0.0
 11
29937.604341291921
 21
1594.531090531141
 31
0.0
  0
LINE
  5
3299
  8
YODOROGO
 10
30217.604341291921
 20
1667.749496429288
 30
0.0
 11
29949.60434129191
 21
1667.749496429288
 31
0.0
  0
LINE
  5
329A
  8
YODOROGO
 10
30217.604341291921
 20
1627.749496429288
 30
0.0
 11
30217.604341291921
 21
1667.749496429288
 31
0.0
  0
LINE
  5
329B
  8
YODOROGO
 10
30017.604341291921
 20
1627.749496429288
 30
0.0
 11
30217.604341291921
 21
1627.749496429288
 31
0.0
  0
ARC
  5
329C
  8
YODOROGO
 10
30230.05882870136
 20
1868.885714952901
 30
0.0
 40
321.37763628522822
 50
228.6181454618993
 51
245.660289248906
  0
LINE
  5
329D
  8
YODOROGO
 10
30105.604341291921
 20
1603.7494964292871
 30
0.0
 11
30097.60434129195
 21
1576.0728158699001
 31
0.0
  0
LINE
  5
329E
  8
YODOROGO
 10
30189.604341291921
 20
1603.7494964292871
 30
0.0
 11
30105.604341291921
 21
1603.7494964292871
 31
0.0
  0
LINE
  5
329F
  8
YODOROGO
 10
30177.604341291921
 20
1551.817722473427
 30
0.0
 11
30189.604341291921
 21
1603.7494964292871
 31
0.0
  0
ARC
  5
32A0
  8
YODOROGO
 10
30230.05882870045
 20
1868.885714953002
 30
0.0
 40
321.37763628529081
 50
260.60629297969911
 51
267.77903556555862
  0
LINE
  5
32A1
  8
YODOROGO
 10
30217.604341291921
 20
1427.749496429285
 30
0.0
 11
30217.604341291921
 21
1547.749496429288
 31
0.0
  0
LINE
  5
32A2
  8
YODOROGO
 10
29937.604341291932
 20
1481.3393349155101
 30
0.0
 11
29937.604341291921
 21
1594.531090531141
 31
0.0
  0
LINE
  5
32A3
  8
YODOROGO
 10
30433.604341291921
 20
1573.749496429288
 30
0.0
 11
30381.604341291932
 21
1573.749496429288
 31
0.0
  0
LINE
  5
32A4
  8
YODOROGO
 10
30433.604341291921
 20
1601.749496429285
 30
0.0
 11
30433.604341291921
 21
1573.749496429288
 31
0.0
  0
LINE
  5
32A5
  8
YODOROGO
 10
30381.604341291932
 20
1601.749496429285
 30
0.0
 11
30433.604341291921
 21
1601.749496429285
 31
0.0
  0
LINE
  5
32A6
  8
YODOROGO
 10
30381.604341291932
 20
1573.749496429288
 30
0.0
 11
30381.604341291932
 21
1601.749496429285
 31
0.0
  0
LINE
  5
32A7
  8
YODOROGO
 10
30429.604341291921
 20
1577.7494964292871
 30
0.0
 11
30385.604341291921
 21
1577.7494964292871
 31
0.0
  0
LINE
  5
32A8
  8
YODOROGO
 10
30429.604341291921
 20
1597.749496429288
 30
0.0
 11
30429.604341291921
 21
1577.7494964292871
 31
0.0
  0
LINE
  5
32A9
  8
YODOROGO
 10
30385.604341291921
 20
1597.749496429288
 30
0.0
 11
30429.604341291921
 21
1597.749496429288
 31
0.0
  0
LINE
  5
32AA
  8
YODOROGO
 10
30385.604341291921
 20
1577.7494964292871
 30
0.0
 11
30385.604341291921
 21
1597.749496429288
 31
0.0
  0
LINE
  5
32AB
  8
YODOROGO
 10
30425.604341291921
 20
1581.749496429286
 30
0.0
 11
30389.604341291921
 21
1581.749496429286
 31
0.0
  0
LINE
  5
32AC
  8
YODOROGO
 10
30425.604341291921
 20
1593.749496429288
 30
0.0
 11
30425.604341291921
 21
1581.749496429286
 31
0.0
  0
LINE
  5
32AD
  8
YODOROGO
 10
30389.604341291921
 20
1593.749496429288
 30
0.0
 11
30425.604341291921
 21
1593.749496429288
 31
0.0
  0
LINE
  5
32AE
  8
YODOROGO
 10
30389.604341291921
 20
1581.749496429286
 30
0.0
 11
30389.604341291921
 21
1593.749496429288
 31
0.0
  0
LINE
  5
32AF
  8
YODOROGO
 10
30421.604341291932
 20
1585.7494964292871
 30
0.0
 11
30393.604341291921
 21
1585.7494964292871
 31
0.0
  0
LINE
  5
32B0
  8
YODOROGO
 10
30421.604341291932
 20
1589.749496429288
 30
0.0
 11
30421.604341291932
 21
1585.7494964292871
 31
0.0
  0
LINE
  5
32B1
  8
YODOROGO
 10
30393.604341291921
 20
1589.749496429288
 30
0.0
 11
30421.604341291932
 21
1589.749496429288
 31
0.0
  0
LINE
  5
32B2
  8
YODOROGO
 10
30393.604341291921
 20
1585.7494964292871
 30
0.0
 11
30393.604341291921
 21
1589.749496429288
 31
0.0
  0
LINE
  5
32B3
  8
YODOROGO
 10
30465.604341291921
 20
1627.749496429288
 30
0.0
 11
30381.604341291932
 21
1627.749496429288
 31
0.0
  0
LINE
  5
32B4
  8
YODOROGO
 10
30465.604341291921
 20
1547.749496429288
 30
0.0
 11
30465.604341291921
 21
1627.749496429288
 31
0.0
  0
LINE
  5
32B5
  8
YODOROGO
 10
30381.604341291932
 20
1547.749496429288
 30
0.0
 11
30465.604341291921
 21
1547.749496429288
 31
0.0
  0
LINE
  5
32B6
  8
YODOROGO
 10
30381.604341291932
 20
1427.749496429288
 30
0.0
 11
30381.604341291932
 21
1547.749496429288
 31
0.0
  0
LINE
  5
32B7
  8
YODOROGO
 10
30537.604341291921
 20
1427.749496429288
 30
0.0
 11
30381.604341291932
 21
1427.749496429288
 31
0.0
  0
LINE
  5
32B8
  8
YODOROGO
 10
30569.604341291921
 20
1571.749496429285
 30
0.0
 11
30569.604341291921
 21
1599.7494964292871
 31
0.0
  0
ARC
  5
32B9
  8
YODOROGO
 10
30545.604341291921
 20
1571.749496429291
 30
0.0
 40
24.000000000003752
 50
270.0
 51
359.99999999998772
  0
LINE
  5
32BA
  8
YODOROGO
 10
30529.604341291939
 20
1547.749496429288
 30
0.0
 11
30545.604341291921
 21
1547.749496429288
 31
0.0
  0
LINE
  5
32BB
  8
YODOROGO
 10
30529.604341291939
 20
1627.749496429288
 30
0.0
 11
30529.604341291939
 21
1547.749496429288
 31
0.0
  0
LINE
  5
32BC
  8
YODOROGO
 10
30899.604341291932
 20
1547.749496429288
 30
0.0
 11
30925.604341291921
 21
1547.749496429288
 31
0.0
  0
LINE
  5
32BD
  8
YODOROGO
 10
30933.604341291921
 20
1427.749496429288
 30
0.0
 11
30899.604341291932
 21
1427.749496429288
 31
0.0
  0
LINE
  5
32BE
  8
YODOROGO
 10
30763.604341291921
 20
1563.7494964292871
 30
0.0
 11
30791.604341291921
 21
1563.7494964292871
 31
0.0
  0
LINE
  5
32BF
  8
YODOROGO
 10
30899.604341291932
 20
1491.749496429288
 30
0.0
 11
30723.604341291921
 21
1491.749496429288
 31
0.0
  0
LINE
  5
32C0
  8
YODOROGO
 10
30831.604341291921
 20
1563.7494964292871
 30
0.0
 11
30859.604341291932
 21
1563.7494964292871
 31
0.0
  0
LINE
  5
32C1
  8
YODOROGO
 10
30899.604341291932
 20
1427.749496429288
 30
0.0
 11
30899.604341291932
 21
1547.749496429288
 31
0.0
  0
LINE
  5
32C2
  8
YODOROGO
 10
30697.604341291932
 20
1427.749496429288
 30
0.0
 11
30645.604341291921
 21
1427.749496429288
 31
0.0
  0
LINE
  5
32C3
  8
YODOROGO
 10
30617.604341291921
 20
1599.7494964292871
 30
0.0
 11
30617.604341291921
 21
1507.749496429288
 31
0.0
  0
ARC
  5
32C4
  8
YODOROGO
 10
30933.604341291921
 20
1467.749496429288
 30
0.0
 40
40.0
 50
270.0
 51
0.0
  0
LINE
  5
32C5
  8
YODOROGO
 10
31093.604341291921
 20
1523.7494964292871
 30
0.0
 11
31093.604341291921
 21
1427.749496429288
 31
0.0
  0
ARC
  5
32C6
  8
YODOROGO
 10
31039.721395566768
 20
1637.5313901097329
 30
0.0
 40
125.8955565916754
 50
295.34052442160112
 51
359.18902303418679
  0
LINE
  5
32C7
  8
YODOROGO
 10
30617.604341291921
 20
1859.749496429288
 30
0.0
 11
30497.604341291921
 21
1939.749496429288
 31
0.0
  0
LINE
  5
32C8
  8
YODOROGO
 10
30497.604341291921
 20
2027.749496429288
 30
0.0
 11
30617.604341291921
 21
1947.749496429288
 31
0.0
  0
LINE
  5
32C9
  8
YODOROGO
 10
30529.604341291939
 20
1679.749496429288
 30
0.0
 11
30617.604341291921
 21
1679.749496429288
 31
0.0
  0
LINE
  5
32CA
  8
YODOROGO
 10
30617.604341291921
 20
1735.7494964292871
 30
0.0
 11
30529.604341291939
 21
1735.7494964292871
 31
0.0
  0
LINE
  5
32CB
  8
YODOROGO
 10
30381.604341291932
 20
1795.7494964292871
 30
0.0
 11
30617.604341291921
 21
1795.7494964292871
 31
0.0
  0
LINE
  5
32CC
  8
YODOROGO
 10
30081.604341291921
 20
2027.749496429288
 30
0.0
 11
30021.604341291921
 21
2027.749496429288
 31
0.0
  0
LINE
  5
32CD
  8
YODOROGO
 10
30081.604341291921
 20
1827.7494964292871
 30
0.0
 11
30081.604341291921
 21
2027.749496429288
 31
0.0
  0
LINE
  5
32CE
  8
YODOROGO
 10
30021.604341291921
 20
1827.7494964292871
 30
0.0
 11
30081.604341291921
 21
1827.7494964292871
 31
0.0
  0
LINE
  5
32CF
  8
YODOROGO
 10
30021.604341291921
 20
2027.749496429288
 30
0.0
 11
30021.604341291921
 21
1827.7494964292871
 31
0.0
  0
LINE
  5
32D0
  8
YODOROGO
 10
30161.604341291921
 20
2027.749496429288
 30
0.0
 11
30217.604341291921
 21
2027.749496429288
 31
0.0
  0
LINE
  5
32D1
  8
YODOROGO
 10
30161.604341291921
 20
1811.749496429288
 30
0.0
 11
30161.604341291921
 21
2027.749496429288
 31
0.0
  0
ARC
  5
32D2
  8
YODOROGO
 10
30121.604341291921
 20
1811.749496429288
 30
0.0
 40
40.0
 50
270.0
 51
0.0
  0
LINE
  5
32D3
  8
YODOROGO
 10
30021.604341291921
 20
1771.7494964292871
 30
0.0
 11
30121.604341291921
 21
1771.7494964292871
 31
0.0
  0
LINE
  5
32D4
  8
YODOROGO
 10
30021.604341291921
 20
1707.749496429288
 30
0.0
 11
30021.604341291921
 21
1771.7494964292871
 31
0.0
  0
LINE
  5
32D5
  8
YODOROGO
 10
30137.604341291921
 20
1707.749496429288
 30
0.0
 11
30021.604341291921
 21
1707.749496429288
 31
0.0
  0
ARC
  5
32D6
  8
YODOROGO
 10
30137.604341291921
 20
1787.7494964292871
 30
0.0
 40
80.0
 50
270.0
 51
0.0
  0
LINE
  5
32D7
  8
YODOROGO
 10
30217.604341291921
 20
2027.749496429288
 30
0.0
 11
30217.604341291921
 21
1787.7494964292871
 31
0.0
  0
LINE
  5
32D8
  8
YODOROGO
 10
29977.604341291921
 20
1947.749496429288
 30
0.0
 11
29977.604341291921
 21
1995.7494964292871
 31
0.0
1001
AUTOCAD_POSTSCRIPT_FIGURE
1002
{
1000
PSFILL
1000
Grayscale
1000
Grayscale
1070
    25
1002
}
  0
LINE
  5
32D9
  8
YODOROGO
 10
29977.604341291921
 20
1859.749496429288
 30
0.0
 11
29977.604341291921
 21
1907.7494964292871
 31
0.0
1001
AUTOCAD_POSTSCRIPT_FIGURE
1002
{
1000
PSFILL
1000
Grayscale
1000
Grayscale
1070
    25
1002
}
  0
LINE
  5
32DA
  8
YODOROGO
 10
29977.604341291921
 20
1707.749496429288
 30
0.0
 11
29977.604341291921
 21
1819.7494964292871
 31
0.0
1001
AUTOCAD_POSTSCRIPT_FIGURE
1002
{
1000
PSFILL
1000
Grayscale
1000
Grayscale
1070
    25
1002
}
  0
LINE
  5
32DB
  8
YODOROGO
 10
30381.604341291932
 20
1907.7494964292871
 30
0.0
 11
30497.604341291921
 21
2027.749496429288
 31
0.0
  0
LINE
  5
32DC
  8
YODOROGO
 10
30381.604341291932
 20
1819.7494964292871
 30
0.0
 11
30381.604341291932
 21
1907.7494964292871
 31
0.0
  0
LINE
  5
32DD
  8
YODOROGO
 10
30497.604341291921
 20
1939.749496429288
 30
0.0
 11
30381.604341291932
 21
1819.7494964292871
 31
0.0
  0
LINE
  5
32DE
  8
YODOROGO
 10
30465.604341291921
 20
1679.749496429288
 30
0.0
 11
30465.604341291921
 21
1735.7494964292871
 31
0.0
  0
LINE
  5
32DF
  8
YODOROGO
 10
30381.604341291932
 20
1679.749496429288
 30
0.0
 11
30465.604341291921
 21
1679.749496429288
 31
0.0
  0
LINE
  5
32E0
  8
YODOROGO
 10
30529.604341291939
 20
1735.7494964292871
 30
0.0
 11
30529.604341291939
 21
1679.749496429288
 31
0.0
  0
LINE
  5
32E1
  8
YODOROGO
 10
30381.604341291932
 20
1735.7494964292871
 30
0.0
 11
30381.604341291932
 21
1795.7494964292871
 31
0.0
  0
LINE
  5
32E2
  8
YODOROGO
 10
30465.604341291921
 20
1735.7494964292871
 30
0.0
 11
30381.604341291932
 21
1735.7494964292871
 31
0.0
  0
LINE
  5
32E3
  8
YODOROGO
 10
30645.604341291921
 20
2027.749496429288
 30
0.0
 11
30973.604341291921
 21
2027.749496429288
 31
0.0
  0
LINE
  5
32E4
  8
YODOROGO
 10
30925.604341291921
 20
1963.749496429286
 30
0.0
 11
30697.604341291932
 21
1963.749496429286
 31
0.0
  0
LINE
  5
32E5
  8
YODOROGO
 10
30873.604341291921
 20
1819.7494964292871
 30
0.0
 11
30899.604341291932
 21
1819.7494964292871
 31
0.0
  0
LINE
  5
32E6
  8
YODOROGO
 10
30899.604341291932
 20
1939.749496429288
 30
0.0
 11
30873.604341291921
 21
1819.7494964292871
 31
0.0
  0
LINE
  5
32E7
  8
YODOROGO
 10
30851.604341291939
 20
1939.749496429288
 30
0.0
 11
30899.604341291932
 21
1939.749496429288
 31
0.0
  0
LINE
  5
32E8
  8
YODOROGO
 10
30825.604341291921
 20
1819.7494964292871
 30
0.0
 11
30851.604341291939
 21
1939.749496429288
 31
0.0
  0
LINE
  5
32E9
  8
YODOROGO
 10
30797.604341291921
 20
1819.7494964292871
 30
0.0
 11
30825.604341291921
 21
1819.7494964292871
 31
0.0
  0
LINE
  5
32EA
  8
YODOROGO
 10
30771.604341291939
 20
1939.749496429288
 30
0.0
 11
30797.604341291921
 21
1819.7494964292871
 31
0.0
  0
LINE
  5
32EB
  8
YODOROGO
 10
30723.604341291921
 20
1939.749496429288
 30
0.0
 11
30771.604341291939
 21
1939.749496429288
 31
0.0
  0
LINE
  5
32EC
  8
YODOROGO
 10
30749.604341291921
 20
1819.7494964292871
 30
0.0
 11
30723.604341291921
 21
1939.749496429288
 31
0.0
  0
LINE
  5
32ED
  8
YODOROGO
 10
30723.604341291921
 20
1819.7494964292871
 30
0.0
 11
30749.604341291921
 21
1819.7494964292871
 31
0.0
  0
LINE
  5
32EE
  8
YODOROGO
 10
30723.604341291921
 20
1755.7494964292871
 30
0.0
 11
30723.604341291921
 21
1819.7494964292871
 31
0.0
  0
LINE
  5
32EF
  8
YODOROGO
 10
30899.604341291932
 20
1755.7494964292871
 30
0.0
 11
30723.604341291921
 21
1755.7494964292871
 31
0.0
  0
LINE
  5
32F0
  8
YODOROGO
 10
30899.604341291932
 20
1819.7494964292871
 30
0.0
 11
30899.604341291932
 21
1755.7494964292871
 31
0.0
  0
LINE
  5
32F1
  8
YODOROGO
 10
30617.604341291921
 20
1947.749496429288
 30
0.0
 11
30617.604341291921
 21
1859.749496429288
 31
0.0
  0
LINE
  5
32F2
  8
YODOROGO
 10
30791.604341291921
 20
1755.7494964292871
 30
0.0
 11
30831.604341291921
 21
1755.7494964292871
 31
0.0
  0
LINE
  5
32F3
  8
YODOROGO
 10
30723.604341291921
 20
1691.749496429288
 30
0.0
 11
30763.604341291921
 21
1691.749496429288
 31
0.0
  0
LINE
  5
32F4
  8
YODOROGO
 10
30859.604341291932
 20
1691.749496429288
 30
0.0
 11
30899.604341291932
 21
1691.749496429288
 31
0.0
  0
LINE
  5
32F5
  8
YODOROGO
 10
30617.604341291921
 20
1795.7494964292871
 30
0.0
 11
30617.604341291921
 21
1735.7494964292871
 31
0.0
  0
LINE
  5
32F6
  8
YODOROGO
 10
31165.604341291921
 20
2027.749496429288
 30
0.0
 11
31165.604341291921
 21
1963.749496429286
 31
0.0
  0
LINE
  5
32F7
  8
YODOROGO
 10
31533.604341291921
 20
1595.7494964292871
 30
0.0
 11
31533.60434129191
 21
1811.749496429288
 31
0.0
  0
LINE
  5
32F8
  8
YODOROGO
 10
31461.60434129191
 20
1987.7494964292871
 30
0.0
 11
31461.60434129191
 21
1635.7494964292871
 31
0.0
  0
LINE
  5
32F9
  8
YODOROGO
 10
31653.604341291921
 20
1427.749496429288
 30
0.0
 11
31653.60434129191
 21
1811.749496429288
 31
0.0
  0
LINE
  5
32FA
  8
YODOROGO
 10
31589.604341291921
 20
1811.749496429288
 30
0.0
 11
31589.604341291921
 21
1427.749496429288
 31
0.0
  0
LINE
  5
32FB
  8
YODOROGO
 10
31237.604341291921
 20
1595.7494964292871
 30
0.0
 11
31237.604341291921
 21
1707.749496429288
 31
0.0
  0
ARC
  5
32FC
  8
YODOROGO
 10
31353.914865116069
 20
1607.790351288558
 30
0.0
 40
180.0924485759885
 50
268.62849102169793
 51
356.16638457330322
  0
LINE
  5
32FD
  8
YODOROGO
 10
31349.604341291939
 20
1527.749496429288
 30
0.0
 11
31349.604341291939
 21
1427.749496429288
 31
0.0
  0
ARC
  5
32FE
  8
YODOROGO
 10
31351.518075724562
 20
1637.838957017655
 30
0.0
 40
110.1060929836122
 50
269.00410209305932
 51
358.91264455492478
  0
LINE
  5
32FF
  8
YODOROGO
 10
31589.604341291921
 20
1427.749496429288
 30
0.0
 11
31653.604341291921
 21
1427.749496429288
 31
0.0
  0
LINE
  5
3300
  8
YODOROGO
 10
31533.60434129191
 20
1811.749496429288
 30
0.0
 11
31589.604341291921
 21
1811.749496429288
 31
0.0
  0
LINE
  5
3301
  8
YODOROGO
 10
31621.604341291939
 20
1987.7494964292871
 30
0.0
 11
31461.60434129191
 21
1987.7494964292871
 31
0.0
  0
LINE
  5
3302
  8
YODOROGO
 10
31533.60434129191
 20
1915.7494964292871
 30
0.0
 11
31661.604341291939
 21
1915.7494964292871
 31
0.0
  0
LINE
  5
3303
  8
YODOROGO
 10
31701.604341291939
 20
1875.7494964292871
 30
0.0
 11
31533.60434129191
 21
1875.7494964292871
 31
0.0
  0
LINE
  5
3304
  8
YODOROGO
 10
31237.604341291921
 20
1779.749496429288
 30
0.0
 11
31349.604341291939
 21
1779.749496429288
 31
0.0
  0
LINE
  5
3305
  8
YODOROGO
 10
31237.604341291921
 20
1835.7494964292871
 30
0.0
 11
31237.604341291921
 21
1779.749496429288
 31
0.0
  0
LINE
  5
3306
  8
YODOROGO
 10
31349.604341291939
 20
1835.7494964292871
 30
0.0
 11
31237.604341291921
 21
1835.7494964292871
 31
0.0
  0
LINE
  5
3307
  8
YODOROGO
 10
31349.604341291939
 20
1779.749496429288
 30
0.0
 11
31349.604341291939
 21
1835.7494964292871
 31
0.0
  0
LINE
  5
3308
  8
YODOROGO
 10
31533.60434129191
 20
1875.7494964292871
 30
0.0
 11
31533.60434129191
 21
1915.7494964292871
 31
0.0
  0
LINE
  5
3309
  8
YODOROGO
 10
31413.604341291921
 20
1707.749496429288
 30
0.0
 11
31413.604341291921
 21
1907.7494964292871
 31
0.0
  0
LINE
  5
330A
  8
YODOROGO
 10
31237.604341291921
 20
1707.749496429288
 30
0.0
 11
31413.604341291921
 21
1707.749496429288
 31
0.0
  0
LINE
  5
330B
  8
YODOROGO
 10
31413.604341291921
 20
1963.749496429286
 30
0.0
 11
31413.604341291921
 21
2027.749496429288
 31
0.0
  0
ARC
  5
330C
  8
YODOROGO
 10
31621.604341291939
 20
2003.749496429285
 30
0.0
 40
15.999999999994539
 50
270.0
 51
0.0000000000081422
  0
LINE
  5
330D
  8
YODOROGO
 10
31637.604341291921
 20
2027.749496429288
 30
0.0
 11
31637.604341291921
 21
2003.7494964292871
 31
0.0
  0
LINE
  5
330E
  8
YODOROGO
 10
31701.604341291939
 20
2027.749496429288
 30
0.0
 11
31637.604341291921
 21
2027.749496429288
 31
0.0
  0
LINE
  5
330F
  8
YODOROGO
 10
31701.604341291939
 20
1955.7494964292871
 30
0.0
 11
31701.604341291939
 21
2027.749496429288
 31
0.0
  0
ARC
  5
3310
  8
YODOROGO
 10
31661.604341291939
 20
1955.7494964292871
 30
0.0
 40
40.0
 50
270.0
 51
0.0
  0
LINE
  5
3311
  8
YODOROGO
 10
31701.604341291939
 20
1811.749496429288
 30
0.0
 11
31701.604341291939
 21
1875.7494964292871
 31
0.0
  0
LINE
  5
3312
  8
YODOROGO
 10
31653.60434129191
 20
1811.749496429288
 30
0.0
 11
31701.604341291939
 21
1811.749496429288
 31
0.0
  0
LINE
  5
3316
  8
SUNPOU
  6
CONTINUOUS
 62
     4
 10
10733.3355323902
 20
14076.439648
 30
0.0
 11
9886.3401113902019
 21
14076.439648
 31
0.0
  0
LINE
  5
3317
  8
SUNPOU
  6
CONTINUOUS
 62
     4
 10
9966.3401113902019
 20
14268.934962999991
 30
0.0
 11
9966.3401113902019
 21
14508.934962999991
 31
0.0
  0
LINE
  5
3318
  8
SUNPOU
  6
CONTINUOUS
 62
     4
 10
9966.3401113902019
 20
14076.439648
 30
0.0
 11
9966.3401113902019
 21
13836.439648
 31
0.0
  0
LINE
  5
3319
  8
SUNPOU
  6
CONTINUOUS
 62
     4
 10
9966.3401113902019
 20
14268.934962999991
 30
0.0
 11
9966.3401113902019
 21
14076.439648
 31
0.0
  0
LINE
  5
331A
  8
SUNPOU
  6
CONTINUOUS
 62
     4
 10
9966.3401113902019
 20
17186.934963
 30
0.0
 11
9966.3401113902019
 21
14268.934962999991
 31
0.0
  0
LINE
  5
331B
  8
SUNPOU
  6
CONTINUOUS
 62
     4
 10
10733.3355323902
 20
19966.930872000001
 30
0.0
 11
10286.340111390189
 21
19966.930872000001
 31
0.0
  0
LINE
  5
331C
  8
SUNPOU
  6
CONTINUOUS
 62
     4
 10
10733.339887390201
 20
19976.930872000001
 30
0.0
 11
10286.340111390189
 21
19976.930872000001
 31
0.0
  0
LINE
  5
331D
  8
SUNPOU
  6
CONTINUOUS
 62
     4
 10
10366.340111390189
 20
19966.930872000001
 30
0.0
 11
10366.340111390189
 21
19726.930872000001
 31
0.0
  0
LINE
  5
331E
  8
SUNPOU
  6
CONTINUOUS
 62
     4
 10
10366.340111390189
 20
19976.930872000001
 30
0.0
 11
10366.340111390189
 21
20216.930872000012
 31
0.0
  0
LINE
  5
331F
  8
SUNPOU
  6
CONTINUOUS
 62
     4
 10
10366.340111390189
 20
19966.930872000001
 30
0.0
 11
10366.340111390189
 21
19976.930872000001
 31
0.0
  0
LINE
  5
3320
  8
SUNPOU
  6
CONTINUOUS
 62
     4
 10
10733.339887390201
 20
19976.930872000001
 30
0.0
 11
9886.3401113902
 21
19976.930872000001
 31
0.0
  0
LINE
  5
3321
  8
SUNPOU
  6
CONTINUOUS
 62
     4
 10
9966.3401113902
 20
19754.434963
 30
0.0
 11
9966.3401113902
 21
19514.434962999989
 31
0.0
  0
LINE
  5
3322
  8
SUNPOU
  6
CONTINUOUS
 62
     4
 10
9966.3401113902
 20
19976.930872000001
 30
0.0
 11
9966.3401113902
 21
20216.930872000012
 31
0.0
  0
LINE
  5
3323
  8
SUNPOU
  6
CONTINUOUS
 62
     4
 10
9966.3401113902
 20
19754.434963
 30
0.0
 11
9966.3401113902
 21
19976.930872000001
 31
0.0
  0
LINE
  5
3324
  8
SUNPOU
  6
CONTINUOUS
 62
     4
 10
9966.3401113902
 20
17186.934963
 30
0.0
 11
9966.3401113902
 21
19754.434963
 31
0.0
  0
LINE
  5
3325
  8
SUNPOU
  6
CONTINUOUS
 62
     4
 10
20456.719858
 20
19876.933248000008
 30
0.0
 11
20456.719858
 21
20606.936151000031
 31
0.0
  0
LINE
  5
3326
  8
SUNPOU
  6
CONTINUOUS
 62
     4
 10
21214.719857999989
 20
19876.933248000008
 30
0.0
 11
21214.719857999989
 21
20606.936151000031
 31
0.0
  0
LINE
  5
3327
  8
SUNPOU
  6
CONTINUOUS
 62
     4
 10
20456.719858
 20
20526.936151000031
 30
0.0
 11
21214.719857999989
 21
20526.936151000031
 31
0.0
  0
LINE
  5
3328
  8
SUNPOU
  6
CONTINUOUS
 62
     4
 10
23497.21814199998
 20
19346.934962999989
 30
0.0
 11
24547.219461999979
 21
19346.934962999989
 31
0.0
  0
LINE
  5
3329
  8
SUNPOU
  6
CONTINUOUS
 62
     4
 10
24347.219461999979
 20
19754.434963
 30
0.0
 11
24547.219461999979
 21
19754.434963
 31
0.0
  0
LINE
  5
332A
  8
SUNPOU
  6
CONTINUOUS
 62
     4
 10
24467.219461999979
 20
19346.934962999989
 30
0.0
 11
24467.219461999979
 21
19754.434963
 31
0.0
  0
LINE
  5
332B
  8
SUNPOU
  6
CONTINUOUS
 62
     4
 10
20456.719858
 20
13563.17152899999
 30
0.0
 11
20456.719858
 21
13217.486878999989
 31
0.0
  0
LINE
  5
332C
  8
SUNPOU
  6
CONTINUOUS
 62
     4
 10
20414.217615000001
 20
14146.437668
 30
0.0
 11
20414.217615000001
 21
13217.486878999989
 31
0.0
  0
LINE
  5
332D
  8
SUNPOU
  6
CONTINUOUS
 62
     4
 10
20456.719858
 20
13297.486879
 30
0.0
 11
20696.719858
 21
13297.486879
 31
0.0
  0
LINE
  5
332E
  8
SUNPOU
  6
CONTINUOUS
 62
     4
 10
20414.217615000001
 20
13297.486879
 30
0.0
 11
20174.217615000001
 21
13297.486879
 31
0.0
  0
LINE
  5
332F
  8
SUNPOU
  6
CONTINUOUS
 62
     4
 10
20456.719858
 20
13297.486879
 30
0.0
 11
20414.217615000001
 21
13297.486879
 31
0.0
  0
LINE
  5
3330
  8
SUNPOU
  6
CONTINUOUS
 62
     4
 10
23374.719858
 20
13563.17152899999
 30
0.0
 11
23374.719858
 21
13217.486878999989
 31
0.0
  0
LINE
  5
3331
  8
SUNPOU
  6
CONTINUOUS
 62
     4
 10
23417.222100999988
 20
14146.437668
 30
0.0
 11
23417.222100999988
 21
13217.486878999989
 31
0.0
  0
LINE
  5
3332
  8
SUNPOU
  6
CONTINUOUS
 62
     4
 10
23374.719858
 20
13297.486879
 30
0.0
 11
23134.719858
 21
13297.486879
 31
0.0
  0
LINE
  5
3333
  8
SUNPOU
  6
CONTINUOUS
 62
     4
 10
23417.222100999988
 20
13297.486879
 30
0.0
 11
23657.222100999988
 21
13297.486879
 31
0.0
  0
LINE
  5
3334
  8
SUNPOU
  6
CONTINUOUS
 62
     4
 10
23374.719858
 20
13297.486879
 30
0.0
 11
23417.222100999988
 21
13297.486879
 31
0.0
  0
LINE
  5
3335
  8
SUNPOU
  6
CONTINUOUS
 62
     4
 10
23374.719858
 20
13563.17152899999
 30
0.0
 11
23374.719858
 21
13217.486878999989
 31
0.0
  0
LINE
  5
3336
  8
SUNPOU
  6
CONTINUOUS
 62
     4
 10
23332.21761499999
 20
14146.437668
 30
0.0
 11
23332.21761499999
 21
13217.486878999989
 31
0.0
  0
LINE
  5
3337
  8
SUNPOU
  6
CONTINUOUS
 62
     4
 10
23374.719858
 20
13297.486879
 30
0.0
 11
23614.719858
 21
13297.486879
 31
0.0
  0
LINE
  5
3338
  8
SUNPOU
  6
CONTINUOUS
 62
     4
 10
23332.21761499999
 20
13297.486879
 30
0.0
 11
23092.21761499999
 21
13297.486879
 31
0.0
  0
LINE
  5
3339
  8
SUNPOU
  6
CONTINUOUS
 62
     4
 10
23374.719858
 20
13297.486879
 30
0.0
 11
23332.21761499999
 21
13297.486879
 31
0.0
  0
LINE
  5
333A
  8
SUNPOU
  6
CONTINUOUS
 62
     4
 10
20456.719858
 20
13563.17152899999
 30
0.0
 11
20456.719858
 21
13217.486878999989
 31
0.0
  0
LINE
  5
333B
  8
SUNPOU
  6
CONTINUOUS
 62
     4
 10
20499.222100999981
 20
14146.437668
 30
0.0
 11
20499.222100999981
 21
13217.486878999989
 31
0.0
  0
LINE
  5
333C
  8
SUNPOU
  6
CONTINUOUS
 62
     4
 10
20456.719858
 20
13297.486879
 30
0.0
 11
20216.719858
 21
13297.486879
 31
0.0
  0
LINE
  5
333D
  8
SUNPOU
  6
CONTINUOUS
 62
     4
 10
20499.222100999981
 20
13297.486879
 30
0.0
 11
20739.222100999981
 21
13297.486879
 31
0.0
  0
LINE
  5
333E
  8
SUNPOU
  6
CONTINUOUS
 62
     4
 10
20456.719858
 20
13297.486879
 30
0.0
 11
20499.222100999981
 21
13297.486879
 31
0.0
  0
LINE
  5
333F
  8
SUNPOU
  6
CONTINUOUS
 62
     4
 10
20414.217615000001
 20
14146.437668
 30
0.0
 11
20414.217615000001
 21
12817.486878999989
 31
0.0
  0
LINE
  5
3340
  8
SUNPOU
  6
CONTINUOUS
 62
     4
 10
23417.222100999988
 20
14146.437668
 30
0.0
 11
23417.222100999988
 21
12817.486878999989
 31
0.0
  0
LINE
  5
3341
  8
SUNPOU
  6
CONTINUOUS
 62
     4
 10
20414.217615000001
 20
12897.486878999989
 30
0.0
 11
23417.222100999988
 21
12897.486878999989
 31
0.0
  0
LINE
  5
3342
  8
SUNPOU
  6
CONTINUOUS
 62
     4
 10
23497.21814199998
 20
15026.934963
 30
0.0
 11
24547.219461999979
 21
15026.934963
 31
0.0
  0
LINE
  5
3343
  8
SUNPOU
  6
CONTINUOUS
 62
     4
 10
24347.219461999979
 20
14268.934962999991
 30
0.0
 11
24547.219461999979
 21
14268.934962999991
 31
0.0
  0
LINE
  5
3344
  8
SUNPOU
  6
CONTINUOUS
 62
     4
 10
24467.219461999979
 20
15026.934963
 30
0.0
 11
24467.219461999979
 21
14268.934962999991
 31
0.0
  0
LINE
  5
3345
  8
SUNPOU
  6
CONTINUOUS
 62
     4
 10
23497.21814199998
 20
15728.17547450002
 30
0.0
 11
24547.219461999979
 21
15728.17547450002
 31
0.0
  0
LINE
  5
3346
  8
SUNPOU
  6
CONTINUOUS
 62
     4
 10
23497.21814199998
 20
15026.934963
 30
0.0
 11
24547.219461999979
 21
15026.934963
 31
0.0
  0
LINE
  5
3347
  8
SUNPOU
  6
CONTINUOUS
 62
     4
 10
24467.219461999979
 20
15728.17547450002
 30
0.0
 11
24467.219461999979
 21
15026.934963
 31
0.0
  0
LINE
  5
3348
  8
SUNPOU
  6
CONTINUOUS
 62
     4
 10
23497.21814199998
 20
16428.934963
 30
0.0
 11
24547.219461999979
 21
16428.934963
 31
0.0
  0
LINE
  5
3349
  8
SUNPOU
  6
CONTINUOUS
 62
     4
 10
23497.21814199998
 20
15728.17547450002
 30
0.0
 11
24547.219461999979
 21
15728.17547450002
 31
0.0
  0
LINE
  5
334A
  8
SUNPOU
  6
CONTINUOUS
 62
     4
 10
24467.219461999979
 20
16428.934963
 30
0.0
 11
24467.219461999979
 21
15728.17547450002
 31
0.0
  0
LINE
  5
334B
  8
SUNPOU
  6
CONTINUOUS
 62
     4
 10
24347.219461999979
 20
17186.934963
 30
0.0
 11
24547.219461999979
 21
17186.934963
 31
0.0
  0
LINE
  5
334C
  8
SUNPOU
  6
CONTINUOUS
 62
     4
 10
23497.21814199998
 20
16428.934963
 30
0.0
 11
24547.219461999979
 21
16428.934963
 31
0.0
  0
LINE
  5
334D
  8
SUNPOU
  6
CONTINUOUS
 62
     4
 10
24467.219461999979
 20
17186.934963
 30
0.0
 11
24467.219461999979
 21
16428.934963
 31
0.0
  0
LINE
  5
334E
  8
SUNPOU
  6
CONTINUOUS
 62
     4
 10
23497.21814199998
 20
17944.934963
 30
0.0
 11
24547.219461999979
 21
17944.934963
 31
0.0
  0
LINE
  5
334F
  8
SUNPOU
  6
CONTINUOUS
 62
     4
 10
24347.219461999979
 20
17186.934963
 30
0.0
 11
24547.219461999979
 21
17186.934963
 31
0.0
  0
LINE
  5
3350
  8
SUNPOU
  6
CONTINUOUS
 62
     4
 10
24467.219461999979
 20
17944.934963
 30
0.0
 11
24467.219461999979
 21
17186.934963
 31
0.0
  0
LINE
  5
3351
  8
SUNPOU
  6
CONTINUOUS
 62
     4
 10
23497.21814199998
 20
18645.934963
 30
0.0
 11
24547.219461999979
 21
18645.934963
 31
0.0
  0
LINE
  5
3352
  8
SUNPOU
  6
CONTINUOUS
 62
     4
 10
23497.21814199998
 20
17944.934963
 30
0.0
 11
24547.219461999979
 21
17944.934963
 31
0.0
  0
LINE
  5
3353
  8
SUNPOU
  6
CONTINUOUS
 62
     4
 10
24467.219461999979
 20
18645.934963
 30
0.0
 11
24467.219461999979
 21
17944.934963
 31
0.0
  0
LINE
  5
3354
  8
SUNPOU
  6
CONTINUOUS
 62
     4
 10
23497.21814199998
 20
19346.934962999989
 30
0.0
 11
24547.219461999979
 21
19346.934962999989
 31
0.0
  0
LINE
  5
3355
  8
SUNPOU
  6
CONTINUOUS
 62
     4
 10
23497.21814199998
 20
18645.934963
 30
0.0
 11
24547.219461999979
 21
18645.934963
 31
0.0
  0
LINE
  5
3356
  8
SUNPOU
  6
CONTINUOUS
 62
     4
 10
24467.219461999979
 20
19346.934962999989
 30
0.0
 11
24467.219461999979
 21
18645.934963
 31
0.0
  0
LINE
  5
3357
  8
SUNPOU
  6
CONTINUOUS
 62
     4
 10
24347.219461999979
 20
17186.934963
 30
0.0
 11
24947.219461999979
 21
17186.934963
 31
0.0
  0
LINE
  5
3358
  8
SUNPOU
  6
CONTINUOUS
 62
     4
 10
24347.219461999979
 20
19754.434963
 30
0.0
 11
24947.219461999979
 21
19754.434962999982
 31
0.0
  0
LINE
  5
3359
  8
SUNPOU
  6
CONTINUOUS
 62
     4
 10
24867.219461999979
 20
17186.934963
 30
0.0
 11
24867.219461999979
 21
19754.434962999982
 31
0.0
  0
LINE
  5
335A
  8
SUNPOU
  6
CONTINUOUS
 62
     4
 10
24347.219461999979
 20
14268.934962999991
 30
0.0
 11
24947.219461999979
 21
14268.934962999991
 31
0.0
  0
LINE
  5
335B
  8
SUNPOU
  6
CONTINUOUS
 62
     4
 10
24347.219461999979
 20
17186.934963
 30
0.0
 11
24947.219461999979
 21
17186.934963
 31
0.0
  0
LINE
  5
335C
  8
SUNPOU
  6
CONTINUOUS
 62
     4
 10
24867.219461999979
 20
14268.934962999991
 30
0.0
 11
24867.219461999979
 21
17186.934963
 31
0.0
  0
LINE
  5
335D
  8
SUNPOU
  6
CONTINUOUS
 62
     4
 10
23497.21814199998
 20
19796.932258000001
 30
0.0
 11
25347.21946199999
 21
19796.932258000001
 31
0.0
  0
LINE
  5
335E
  8
SUNPOU
  6
CONTINUOUS
 62
     4
 10
23497.21814199998
 20
14226.437668
 30
0.0
 11
25347.21946199999
 21
14226.437668
 31
0.0
  0
LINE
  5
335F
  8
SUNPOU
  6
CONTINUOUS
 62
     4
 10
25267.21946199999
 20
19796.932258000001
 30
0.0
 11
25267.21946199999
 21
14226.437668
 31
0.0
  0
LINE
  5
3360
  8
SUNPOU
  6
CONTINUOUS
 62
     4
 10
24347.219461999979
 20
19754.434963
 30
0.0
 11
24947.219461999979
 21
19754.434962999982
 31
0.0
  0
LINE
  5
3361
  8
SUNPOU
  6
CONTINUOUS
 62
     4
 10
23497.21814199998
 20
19796.932258000001
 30
0.0
 11
24947.219461999979
 21
19796.932258000001
 31
0.0
  0
LINE
  5
3362
  8
SUNPOU
  6
CONTINUOUS
 62
     4
 10
24867.219461999979
 20
19754.434962999982
 30
0.0
 11
24867.219461999979
 21
19514.434962999982
 31
0.0
  0
LINE
  5
3363
  8
SUNPOU
  6
CONTINUOUS
 62
     4
 10
24867.219461999979
 20
19796.932258000001
 30
0.0
 11
24867.219461999979
 21
20036.932258000001
 31
0.0
  0
LINE
  5
3364
  8
SUNPOU
  6
CONTINUOUS
 62
     4
 10
24867.219461999979
 20
19754.434962999982
 30
0.0
 11
24867.219461999979
 21
19796.932258000001
 31
0.0
  0
LINE
  5
3365
  8
SUNPOU
  6
CONTINUOUS
 62
     4
 10
24347.219461999979
 20
14268.934962999991
 30
0.0
 11
24947.219461999979
 21
14268.934962999991
 31
0.0
  0
LINE
  5
3366
  8
SUNPOU
  6
CONTINUOUS
 62
     4
 10
23497.21814199998
 20
14226.437668
 30
0.0
 11
24947.219461999979
 21
14226.437668
 31
0.0
  0
LINE
  5
3367
  8
SUNPOU
  6
CONTINUOUS
 62
     4
 10
24867.219461999979
 20
14268.934962999991
 30
0.0
 11
24867.219461999979
 21
14508.934962999991
 31
0.0
  0
LINE
  5
3368
  8
SUNPOU
  6
CONTINUOUS
 62
     4
 10
24867.219461999979
 20
14226.437668
 30
0.0
 11
24867.219461999979
 21
13986.437668
 31
0.0
  0
LINE
  5
3369
  8
SUNPOU
  6
CONTINUOUS
 62
     4
 10
24867.219461999979
 20
14268.934962999991
 30
0.0
 11
24867.219461999979
 21
14226.437668
 31
0.0
  0
LINE
  5
336A
  8
SUNPOU
  6
CONTINUOUS
 62
     4
 10
22616.719858
 20
19876.933248000008
 30
0.0
 11
22616.719858
 21
20606.936151000031
 31
0.0
  0
LINE
  5
336B
  8
SUNPOU
  6
CONTINUOUS
 62
     4
 10
23374.720847500001
 20
19876.933248000008
 30
0.0
 11
23374.720847500001
 21
20606.936151000031
 31
0.0
  0
LINE
  5
336C
  8
SUNPOU
  6
CONTINUOUS
 62
     4
 10
22616.719858
 20
20526.936151000031
 30
0.0
 11
23374.720847500001
 21
20526.936151000031
 31
0.0
  0
LINE
  5
336D
  8
SUNPOU
  6
CONTINUOUS
 62
     4
 10
21915.719858
 20
19876.933248000008
 30
0.0
 11
21915.719858
 21
20606.936151000031
 31
0.0
  0
LINE
  5
336E
  8
SUNPOU
  6
CONTINUOUS
 62
     4
 10
22616.719858
 20
19876.933248000008
 30
0.0
 11
22616.719858
 21
20606.936151000031
 31
0.0
  0
LINE
  5
336F
  8
SUNPOU
  6
CONTINUOUS
 62
     4
 10
21915.719858
 20
20526.936151000031
 30
0.0
 11
22616.719858
 21
20526.936151000031
 31
0.0
  0
LINE
  5
3370
  8
SUNPOU
  6
CONTINUOUS
 62
     4
 10
21214.719857999989
 20
19876.933248000008
 30
0.0
 11
21214.719857999989
 21
20606.936151000031
 31
0.0
  0
LINE
  5
3371
  8
SUNPOU
  6
CONTINUOUS
 62
     4
 10
21915.719858
 20
19876.933248000008
 30
0.0
 11
21915.719858
 21
20606.936151000031
 31
0.0
  0
LINE
  5
3372
  8
SUNPOU
  6
CONTINUOUS
 62
     4
 10
21214.719857999989
 20
20526.936151000031
 30
0.0
 11
21915.719858
 21
20526.936151000031
 31
0.0
  0
LINE
  5
3373
  8
SUNPOU
  6
CONTINUOUS
 62
     4
 10
23374.719858
 20
19876.933248000008
 30
0.0
 11
23374.719858
 21
20606.936151000031
 31
0.0
  0
LINE
  5
3374
  8
SUNPOU
  6
CONTINUOUS
 62
     4
 10
23417.21616299999
 20
19876.933248000008
 30
0.0
 11
23417.21616299999
 21
20606.936151000031
 31
0.0
  0
LINE
  5
3375
  8
SUNPOU
  6
CONTINUOUS
 62
     4
 10
23374.719858
 20
20526.936151000031
 30
0.0
 11
23134.719858
 21
20526.936151000031
 31
0.0
  0
LINE
  5
3376
  8
SUNPOU
  6
CONTINUOUS
 62
     4
 10
23417.21616299999
 20
20526.936151000031
 30
0.0
 11
23657.21616299999
 21
20526.936151000031
 31
0.0
  0
LINE
  5
3377
  8
SUNPOU
  6
CONTINUOUS
 62
     4
 10
23374.719858
 20
20526.936151000031
 30
0.0
 11
23417.21616299999
 21
20526.936151000031
 31
0.0
  0
LINE
  5
3378
  8
SUNPOU
  6
CONTINUOUS
 62
     4
 10
20456.719858
 20
19876.933248000008
 30
0.0
 11
20456.719858
 21
20606.936151000031
 31
0.0
  0
LINE
  5
3379
  8
SUNPOU
  6
CONTINUOUS
 62
     4
 10
20414.223552999989
 20
19876.933248000008
 30
0.0
 11
20414.223552999989
 21
20606.936151000031
 31
0.0
  0
LINE
  5
337A
  8
SUNPOU
  6
CONTINUOUS
 62
     4
 10
20456.719858
 20
20526.936151000031
 30
0.0
 11
20696.719858
 21
20526.936151000031
 31
0.0
  0
LINE
  5
337B
  8
SUNPOU
  6
CONTINUOUS
 62
     4
 10
20414.223552999989
 20
20526.936151000031
 30
0.0
 11
20174.223552999989
 21
20526.936151000031
 31
0.0
  0
LINE
  5
337C
  8
SUNPOU
  6
CONTINUOUS
 62
     4
 10
20456.719858
 20
20526.936151000031
 30
0.0
 11
20414.223552999989
 21
20526.936151000031
 31
0.0
  0
LINE
  5
337D
  8
SUNPOU
  6
CONTINUOUS
 62
     4
 10
15269.22327699999
 20
6677.6370850000039
 30
0.0
 11
16346.72169299999
 21
6677.6370850000039
 31
0.0
  0
LINE
  5
337E
  8
SUNPOU
  6
CONTINUOUS
 62
     4
 10
15361.528556599371
 20
9026.1370850000021
 30
0.0
 11
16346.72169299999
 21
9026.1370850000021
 31
0.0
  0
LINE
  5
337F
  8
SUNPOU
  6
CONTINUOUS
 62
     4
 10
16266.72169299999
 20
6677.6370850000039
 30
0.0
 11
16266.72169299999
 21
9026.1370850000021
 31
0.0
  0
LINE
  5
3380
  8
SUNPOU
  6
CONTINUOUS
 62
     4
 10
9518.7232769999955
 20
6677.6370850000048
 30
0.0
 11
8436.2248590000017
 21
6677.6370850000039
 31
0.0
  0
LINE
  5
3381
  8
SUNPOU
  6
CONTINUOUS
 62
     4
 10
9346.2252549999994
 20
8833.6370850000058
 30
0.0
 11
8436.2248590000017
 21
8833.6370850000058
 31
0.0
  0
LINE
  5
3382
  8
SUNPOU
  6
CONTINUOUS
 62
     4
 10
8516.2248590000054
 20
6677.6370850000039
 30
0.0
 11
8516.2248590000054
 21
8833.6370850000058
 31
0.0
  0
LINE
  5
3383
  8
SUNPOU
  6
CONTINUOUS
 62
     4
 10
9426.2232769999955
 20
8914.6370850000058
 30
0.0
 11
9426.2232769999955
 21
10305.637111
 31
0.0
  0
LINE
  5
3384
  8
SUNPOU
  6
CONTINUOUS
 62
     4
 10
15326.723276999999
 20
9046.5269084124357
 30
0.0
 11
15326.723276999999
 21
10305.637111
 31
0.0
  0
LINE
  5
3385
  8
SUNPOU
  6
CONTINUOUS
 62
     4
 10
9426.2232769999955
 20
10225.637111
 30
0.0
 11
15326.723276999999
 21
10225.637111
 31
0.0
  0
LINE
  5
3386
  8
SUNPOU
  6
CONTINUOUS
 62
     4
 10
15176.72327699999
 20
8972.5471490000054
 30
0.0
 11
15176.72327699999
 21
9905.638761000002
 31
0.0
  0
LINE
  5
3387
  8
SUNPOU
  6
CONTINUOUS
 62
     4
 10
15326.723276999999
 20
9046.5269084124357
 30
0.0
 11
15326.723276999999
 21
9905.638761000002
 31
0.0
  0
LINE
  5
3388
  8
SUNPOU
  6
CONTINUOUS
 62
     4
 10
15176.72327699999
 20
9825.638761000002
 30
0.0
 11
14936.72327699999
 21
9825.638761000002
 31
0.0
  0
LINE
  5
3389
  8
SUNPOU
  6
CONTINUOUS
 62
     4
 10
15326.723276999999
 20
9825.638761000002
 30
0.0
 11
15566.723276999999
 21
9825.638761000002
 31
0.0
  0
LINE
  5
338A
  8
SUNPOU
  6
CONTINUOUS
 62
     4
 10
15176.72327699999
 20
9825.638761000002
 30
0.0
 11
15326.723276999999
 21
9825.638761000002
 31
0.0
  0
LINE
  5
338B
  8
SUNPOU
  6
CONTINUOUS
 62
     4
 10
9606.2232769999955
 20
8784.8228606838074
 30
0.0
 11
9606.2232769999955
 21
9905.638761000002
 31
0.0
  0
LINE
  5
338C
  8
SUNPOU
  6
CONTINUOUS
 62
     4
 10
15176.72327699999
 20
8972.5471490000054
 30
0.0
 11
15176.72327699999
 21
9905.638761000002
 31
0.0
  0
LINE
  5
338D
  8
SUNPOU
  6
CONTINUOUS
 62
     4
 10
9606.2232769999955
 20
9825.638761000002
 30
0.0
 11
15176.72327699999
 21
9825.638761000002
 31
0.0
  0
LINE
  5
338E
  8
SUNPOU
  6
CONTINUOUS
 62
     4
 10
9426.2232769999955
 20
8914.6370850000058
 30
0.0
 11
9426.2232769999955
 21
9905.638761000002
 31
0.0
  0
LINE
  5
338F
  8
SUNPOU
  6
CONTINUOUS
 62
     4
 10
9606.2232769999955
 20
8784.8228606838074
 30
0.0
 11
9606.2232769999955
 21
9905.638761000002
 31
0.0
  0
LINE
  5
3390
  8
SUNPOU
  6
CONTINUOUS
 62
     4
 10
9426.2232769999955
 20
9825.638761000002
 30
0.0
 11
9186.2232769999955
 21
9825.638761000002
 31
0.0
  0
LINE
  5
3391
  8
SUNPOU
  6
CONTINUOUS
 62
     4
 10
9606.2232769999955
 20
9825.638761000002
 30
0.0
 11
9846.2232769999955
 21
9825.638761000002
 31
0.0
  0
LINE
  5
3392
  8
SUNPOU
  6
CONTINUOUS
 62
     4
 10
9426.2232769999955
 20
9825.638761000002
 30
0.0
 11
9606.2232769999955
 21
9825.638761000002
 31
0.0
  0
LINE
  5
3393
  8
SUNPOU
  6
CONTINUOUS
 62
     4
 10
9606.2232769999955
 20
6597.6370850000048
 30
0.0
 11
9606.2232769999955
 21
4897.6374150000047
 31
0.0
  0
LINE
  5
3394
  8
SUNPOU
  6
CONTINUOUS
 62
     4
 10
15176.72327699999
 20
6597.6370850000048
 30
0.0
 11
15176.72327699999
 21
4897.6374150000047
 31
0.0
  0
LINE
  5
3395
  8
SUNPOU
  6
CONTINUOUS
 62
     4
 10
9606.2232769999955
 20
4977.6374150000038
 30
0.0
 11
15176.72327699999
 21
4977.6374150000038
 31
0.0
  0
LINE
  5
3396
  8
SUNPOU
  6
CONTINUOUS
 62
     4
 10
15134.223276999999
 20
6234.9848270000039
 30
0.0
 11
15134.223276999999
 21
5297.6372500000034
 31
0.0
  0
LINE
  5
3397
  8
SUNPOU
  6
CONTINUOUS
 62
     4
 10
15176.72327699999
 20
6597.6370850000048
 30
0.0
 11
15176.72327699999
 21
5297.6372500000034
 31
0.0
  0
LINE
  5
3398
  8
SUNPOU
  6
CONTINUOUS
 62
     4
 10
15134.223276999999
 20
5377.6372500000034
 30
0.0
 11
14894.223276999999
 21
5377.6372500000034
 31
0.0
  0
LINE
  5
3399
  8
SUNPOU
  6
CONTINUOUS
 62
     4
 10
15176.72327699999
 20
5377.6372500000034
 30
0.0
 11
15416.72327699999
 21
5377.6372500000034
 31
0.0
  0
LINE
  5
339A
  8
SUNPOU
  6
CONTINUOUS
 62
     4
 10
15134.223276999999
 20
5377.6372500000034
 30
0.0
 11
15176.72327699999
 21
5377.6372500000034
 31
0.0
  0
LINE
  5
339B
  8
SUNPOU
  6
CONTINUOUS
 62
     4
 10
9648.7232769999955
 20
6234.9848270000039
 30
0.0
 11
9648.7232769999955
 21
5297.6372500000034
 31
0.0
  0
LINE
  5
339C
  8
SUNPOU
  6
CONTINUOUS
 62
     4
 10
9606.2232769999955
 20
6597.6370850000048
 30
0.0
 11
9606.2232769999955
 21
5297.6372500000034
 31
0.0
  0
LINE
  5
339D
  8
SUNPOU
  6
CONTINUOUS
 62
     4
 10
9648.7232769999955
 20
5377.6372500000034
 30
0.0
 11
9888.7232769999955
 21
5377.6372500000034
 31
0.0
  0
LINE
  5
339E
  8
SUNPOU
  6
CONTINUOUS
 62
     4
 10
9606.2232769999955
 20
5377.6372500000034
 30
0.0
 11
9366.2232769999955
 21
5377.6372500000034
 31
0.0
  0
LINE
  5
339F
  8
SUNPOU
  6
CONTINUOUS
 62
     4
 10
9648.7232769999955
 20
5377.6372500000034
 30
0.0
 11
9606.2232769999955
 21
5377.6372500000034
 31
0.0
  0
LINE
  5
33A0
  8
SUNPOU
  6
CONTINUOUS
 62
     4
 10
12216.223276999999
 20
6234.9848270000039
 30
0.0
 11
12216.223276999999
 21
5297.6372500000034
 31
0.0
  0
LINE
  5
33A1
  8
SUNPOU
  6
CONTINUOUS
 62
     4
 10
9648.7232769999955
 20
6234.9848270000039
 30
0.0
 11
9648.7232769999955
 21
5297.6372500000034
 31
0.0
  0
LINE
  5
33A2
  8
SUNPOU
  6
CONTINUOUS
 62
     4
 10
12216.223276999999
 20
5377.6372500000034
 30
0.0
 11
9648.7232769999955
 21
5377.6372500000034
 31
0.0
  0
LINE
  5
33A3
  8
SUNPOU
  6
CONTINUOUS
 62
     4
 10
12216.223276999999
 20
6234.9848270000039
 30
0.0
 11
12216.223276999999
 21
5297.6372500000034
 31
0.0
  0
LINE
  5
33A4
  8
SUNPOU
  6
CONTINUOUS
 62
     4
 10
15134.223276999999
 20
6234.9848270000039
 30
0.0
 11
15134.223276999999
 21
5297.6372500000034
 31
0.0
  0
LINE
  5
33A5
  8
SUNPOU
  6
CONTINUOUS
 62
     4
 10
12216.223276999999
 20
5377.6372500000034
 30
0.0
 11
15134.223276999999
 21
5377.6372500000034
 31
0.0
  0
LINE
  5
33A6
  8
SUNPOU
  6
CONTINUOUS
 62
     4
 10
20326.717218999998
 20
6677.6370850000039
 30
0.0
 11
19526.71853799999
 21
6677.6370850000039
 31
0.0
  0
LINE
  5
33A7
  8
SUNPOU
  6
CONTINUOUS
 62
     4
 10
20326.717218999998
 20
8569.1370850000021
 30
0.0
 11
19526.71853799999
 21
8569.1370850000021
 31
0.0
  0
LINE
  5
33A8
  8
SUNPOU
  6
CONTINUOUS
 62
     4
 10
19606.71853799999
 20
6677.6370850000039
 30
0.0
 11
19606.71853799999
 21
8569.1370850000021
 31
0.0
  0
LINE
  5
33A9
  8
SUNPOU
  6
CONTINUOUS
 62
     4
 10
20326.717218999998
 20
6677.6370850000039
 30
0.0
 11
19126.716228999991
 21
6677.6370850000039
 31
0.0
  0
LINE
  5
33AA
  8
SUNPOU
  6
CONTINUOUS
 62
     4
 10
20294.219463000009
 20
9026.1369400000021
 30
0.0
 11
19126.716228999991
 21
9026.1369400000021
 31
0.0
  0
LINE
  5
33AB
  8
SUNPOU
  6
CONTINUOUS
 62
     4
 10
19206.716228999991
 20
6677.6370850000039
 30
0.0
 11
19206.716229000001
 21
9026.1369400000021
 31
0.0
  0
LINE
  5
33BC
  8
SUNPOU
  6
CONTINUOUS
 62
     4
 10
23374.719858
 20
6234.9848270000057
 30
0.0
 11
23374.719858
 21
5297.6372500000089
 31
0.0
  0
LINE
  5
33BD
  8
SUNPOU
  6
CONTINUOUS
 62
     4
 10
23417.219858
 20
6497.6372500000098
 30
0.0
 11
23417.219858
 21
5297.6372500000089
 31
0.0
  0
LINE
  5
33BE
  8
SUNPOU
  6
CONTINUOUS
 62
     4
 10
23374.719858
 20
5377.6372500000098
 30
0.0
 11
23134.719858
 21
5377.6372500000098
 31
0.0
  0
LINE
  5
33BF
  8
SUNPOU
  6
CONTINUOUS
 62
     4
 10
23417.219858
 20
5377.6372500000098
 30
0.0
 11
23657.219858
 21
5377.6372500000098
 31
0.0
  0
LINE
  5
33C0
  8
SUNPOU
  6
CONTINUOUS
 62
     4
 10
23374.719858
 20
5377.6372500000098
 30
0.0
 11
23417.219858
 21
5377.6372500000098
 31
0.0
  0
LINE
  5
33C1
  8
SUNPOU
  6
CONTINUOUS
 62
     4
 10
20550.719858
 20
6497.6372500000098
 30
0.0
 11
20550.719858
 21
5697.6372500000089
 31
0.0
  0
LINE
  5
33C2
  8
SUNPOU
  6
CONTINUOUS
 62
     4
 10
23280.719858
 20
6497.6372500000098
 30
0.0
 11
23280.719858
 21
5697.6372500000089
 31
0.0
  0
LINE
  5
33C3
  8
SUNPOU
  6
CONTINUOUS
 62
     4
 10
20550.719858
 20
5777.6372500000089
 30
0.0
 11
23280.719858
 21
5777.6372500000089
 31
0.0
  0
LINE
  5
33C4
  8
SUNPOU
  6
CONTINUOUS
 62
     4
 10
20456.719858
 20
6234.9848270000057
 30
0.0
 11
20456.719858
 21
5297.6372500000089
 31
0.0
  0
LINE
  5
33C5
  8
SUNPOU
  6
CONTINUOUS
 62
     4
 10
23374.719858
 20
6234.9848270000057
 30
0.0
 11
23374.719858
 21
5297.6372500000089
 31
0.0
  0
LINE
  5
33C6
  8
SUNPOU
  6
CONTINUOUS
 62
     4
 10
20456.719858
 20
5377.6372500000098
 30
0.0
 11
23374.719858
 21
5377.6372500000098
 31
0.0
  0
LINE
  5
33C7
  8
SUNPOU
  6
CONTINUOUS
 62
     4
 10
20456.719858
 20
6234.9848270000057
 30
0.0
 11
20456.719858
 21
5297.6372500000089
 31
0.0
  0
LINE
  5
33C8
  8
SUNPOU
  6
CONTINUOUS
 62
     4
 10
20414.219858
 20
6497.6372500000098
 30
0.0
 11
20414.219858
 21
5297.6372500000089
 31
0.0
  0
LINE
  5
33C9
  8
SUNPOU
  6
CONTINUOUS
 62
     4
 10
20456.719858
 20
5377.6372500000098
 30
0.0
 11
20696.719858
 21
5377.6372500000098
 31
0.0
  0
LINE
  5
33CA
  8
SUNPOU
  6
CONTINUOUS
 62
     4
 10
20414.219858
 20
5377.6372500000098
 30
0.0
 11
20174.219857999989
 21
5377.6372500000098
 31
0.0
  0
LINE
  5
33CB
  8
SUNPOU
  6
CONTINUOUS
 62
     4
 10
20456.719858
 20
5377.6372500000098
 30
0.0
 11
20414.219858
 21
5377.6372500000098
 31
0.0
  0
LINE
  5
33CC
  8
SUNPOU
  6
CONTINUOUS
 62
     4
 10
20414.219858
 20
6497.6372500000098
 30
0.0
 11
20414.219858
 21
4897.6374150000092
 31
0.0
  0
LINE
  5
33CD
  8
SUNPOU
  6
CONTINUOUS
 62
     4
 10
23417.219858
 20
6497.6372500000098
 30
0.0
 11
23417.219858
 21
4897.6374150000092
 31
0.0
  0
LINE
  5
33CE
  8
SUNPOU
  6
CONTINUOUS
 62
     4
 10
20414.219858
 20
4977.6374150000102
 30
0.0
 11
23417.219858
 21
4977.6374150000102
 31
0.0
  0
TEXT
  5
33CF
  8
0
  6
CONTINUOUS
 62
     7
 10
21649.053191333329
 20
5057.6374150000056
 30
0.0
 40
160.0
  1
3003
  0
TEXT
  5
33D0
  8
0
  6
CONTINUOUS
 62
     7
 10
19848.18086774115
 20
5457.6372500000089
 30
0.0
 40
160.0
  1
42.5
  0
TEXT
  5
33D1
  8
0
  6
CONTINUOUS
 62
     7
 10
21649.053191333329
 20
5457.6372500000089
 30
0.0
 40
160.0
  1
2918
  0
TEXT
  5
33D2
  8
0
  6
CONTINUOUS
 62
     7
 10
21107.719858
 20
5857.6372500000089
 30
0.0
 40
160.0
  1
有効開口巾 2730
  0
TEXT
  5
33D3
  8
0
  6
CONTINUOUS
 62
     7
 10
23503.25884825884
 20
5457.6372500000089
 30
0.0
 40
160.0
  1
42.5
  0
TEXT
  5
33D8
  8
0
  6
CONTINUOUS
 62
     7
 10
19126.716228999991
 20
6870.5536791666746
 30
0.0
 40
160.0
  1
2348.5 (2588.5)
 50
90.0
  0
TEXT
  5
33D9
  8
0
  6
CONTINUOUS
 62
     7
 10
19526.71853799999
 20
6741.6163232912786
 30
0.0
 40
160.0
  1
有効開口高サ 1891.5
 50
90.0
  0
TEXT
  5
33DA
  8
0
  6
CONTINUOUS
 62
     7
 10
13408.55661033332
 20
5457.6372500000034
 30
0.0
 40
160.0
  1
2918
  0
TEXT
  5
33DB
  8
0
  6
CONTINUOUS
 62
     7
 10
10532.473276999999
 20
5457.6372500000034
 30
0.0
 40
160.0
  1
2567.5
  0
TEXT
  5
33DC
  8
0
  6
CONTINUOUS
 62
     7
 10
9009.0495679036922
 20
5457.6372500000034
 30
0.0
 40
160.0
  1
42.5
  0
TEXT
  5
33DD
  8
0
  6
CONTINUOUS
 62
     7
 10
15315.04191430981
 20
5457.6372500000034
 30
0.0
 40
160.0
  1
42.5
  0
TEXT
  5
33DE
  8
0
  6
CONTINUOUS
 62
     7
 10
12004.80661033332
 20
5057.6374150000047
 30
0.0
 40
160.0
  1
5570.5
  0
TEXT
  5
33DF
  8
0
  6
CONTINUOUS
 62
     7
 10
9012.8899436666597
 20
9905.638761000002
 30
0.0
 40
160.0
  1
180
  0
TEXT
  5
33E0
  8
0
  6
CONTINUOUS
 62
     7
 10
12004.80661033332
 20
9905.638761000002
 30
0.0
 40
160.0
  1
5570.5
  0
TEXT
  5
33E1
  8
0
  6
CONTINUOUS
 62
     7
 10
15393.38994366666
 20
9905.638761000002
 30
0.0
 40
160.0
  1
150
  0
TEXT
  5
33E2
  8
0
  6
CONTINUOUS
 62
     7
 10
12003.13994366666
 20
10305.637111
 30
0.0
 40
160.0
  1
5900.5
  0
TEXT
  5
33E3
  8
0
  6
CONTINUOUS
 62
     7
 10
8436.2248590000017
 20
6976.970418333337
 30
0.0
 40
160.0
  1
2156（2396）
 50
90.0
  0
TEXT
  5
33E4
  8
0
  6
CONTINUOUS
 62
     7
 10
16186.72169299999
 20
6833.220418333337
 30
0.0
 40
160.0
  1
2348.5（2588.5）
 50
90.0
  0
TEXT
  5
33E5
  8
0
  6
CONTINUOUS
 62
     7
 10
19853.907878471189
 20
20606.936151000031
 30
0.0
 40
160.0
  1
42.5
  0
TEXT
  5
33E6
  8
0
  6
CONTINUOUS
 62
     7
 10
23497.531837528779
 20
20606.936151000031
 30
0.0
 40
160.0
  1
42.5
  0
TEXT
  5
33E7
  8
0
  6
CONTINUOUS
 62
     7
 10
21391.886524666661
 20
20606.936151000031
 30
0.0
 40
160.0
  1
701
  0
TEXT
  5
33E8
  8
0
  6
CONTINUOUS
 62
     7
 10
22092.886524666661
 20
20606.936151000031
 30
0.0
 40
160.0
  1
701
  0
TEXT
  5
33E9
  8
0
  6
CONTINUOUS
 62
     7
 10
22782.387019416659
 20
20606.936151000031
 30
0.0
 40
160.0
  1
758
  0
TEXT
  5
33EA
  8
0
  6
CONTINUOUS
 62
     7
 10
24787.219461999979
 20
13652.8814316032
 30
0.0
 40
160.0
  1
42.5
 50
90.0
  0
TEXT
  5
33EB
  8
0
  6
CONTINUOUS
 62
     7
 10
24787.219461999979
 20
19890.488494396792
 30
0.0
 40
160.0
  1
42.5
 50
90.0
  0
TEXT
  5
33EC
  8
0
  6
CONTINUOUS
 62
     7
 10
25187.21946199999
 20
16625.018296333339
 30
0.0
 40
160.0
  1
5570.5
 50
90.0
  0
TEXT
  5
33ED
  8
0
  6
CONTINUOUS
 62
     7
 10
24787.219461999979
 20
15461.26829633333
 30
0.0
 40
160.0
  1
2918
 50
90.0
  0
TEXT
  5
33EE
  8
0
  6
CONTINUOUS
 62
     7
 10
24787.219461999979
 20
18070.684963
 30
0.0
 40
160.0
  1
2567.5
 50
90.0
  0
TEXT
  5
33EF
  8
0
  6
CONTINUOUS
 62
     7
 10
24387.219461999979
 20
18823.101629666671
 30
0.0
 40
160.0
  1
701
 50
90.0
  0
TEXT
  5
33F0
  8
0
  6
CONTINUOUS
 62
     7
 10
24387.219461999979
 20
18122.101629666671
 30
0.0
 40
160.0
  1
701
 50
90.0
  0
TEXT
  5
33F1
  8
0
  6
CONTINUOUS
 62
     7
 10
24387.219461999979
 20
17352.601629666671
 30
0.0
 40
160.0
  1
758
 50
90.0
  0
TEXT
  5
33F2
  8
0
  6
CONTINUOUS
 62
     7
 10
24387.219461999979
 20
16594.601629666671
 30
0.0
 40
160.0
  1
758
 50
90.0
  0
TEXT
  5
33F3
  8
0
  6
CONTINUOUS
 62
     7
 10
24387.219461999979
 20
15905.22188541668
 30
0.0
 40
160.0
  1
701
 50
90.0
  0
TEXT
  5
33F4
  8
0
  6
CONTINUOUS
 62
     7
 10
24387.219461999979
 20
15204.22188541668
 30
0.0
 40
160.0
  1
701
 50
90.0
  0
TEXT
  5
33F5
  8
0
  6
CONTINUOUS
 62
     7
 10
24387.219461999979
 20
14434.60162966666
 30
0.0
 40
160.0
  1
758
 50
90.0
  0
TEXT
  5
33F6
  8
0
  6
CONTINUOUS
 62
     7
 10
21649.053191333329
 20
12977.486878999989
 30
0.0
 40
160.0
  1
3003
  0
TEXT
  5
33F7
  8
0
  6
CONTINUOUS
 62
     7
 10
20574.773530382081
 20
13377.486879
 30
0.0
 40
160.0
  1
42.5
  0
TEXT
  5
33F8
  8
0
  6
CONTINUOUS
 62
     7
 10
22776.666185617909
 20
13377.486879
 30
0.0
 40
160.0
  1
42.5
  0
TEXT
  5
33F9
  8
0
  6
CONTINUOUS
 62
     7
 10
23492.773530382081
 20
13377.486879
 30
0.0
 40
160.0
  1
42.5
  0
TEXT
  5
33FA
  8
0
  6
CONTINUOUS
 62
     7
 10
19858.666185617902
 20
13377.486879
 30
0.0
 40
160.0
  1
42.5
  0
TEXT
  5
33FB
  8
0
  6
CONTINUOUS
 62
     7
 10
24747.219461999979
 20
19056.312930643209
 30
0.0
 40
160.0
  1
407.5
 50
90.0
  0
TEXT
  5
33FC
  8
0
  6
CONTINUOUS
 62
     7
 10
20622.386524666661
 20
20606.936151000031
 30
0.0
 40
160.0
  1
758
  0
TEXT
  5
33FD
  8
0
  6
CONTINUOUS
 62
     7
 10
9886.3401113901982
 20
18070.684963
 30
0.0
 40
160.0
  1
2567.5
 50
90.0
  0
TEXT
  5
33FE
  8
0
  6
CONTINUOUS
 62
     7
 10
9886.3401113901964
 20
20065.89014780768
 30
0.0
 40
160.0
  1
222.5
 50
90.0
  0
TEXT
  5
33FF
  8
0
  6
CONTINUOUS
 62
     7
 10
10286.340111390189
 20
20123.59753866668
 30
0.0
 40
160.0
  1
10
 50
90.0
  0
TEXT
  5
3400
  8
0
  6
CONTINUOUS
 62
     7
 10
9886.3401113902
 20
15461.26829633331
 30
0.0
 40
160.0
  1
2918
 50
90.0
  0
TEXT
  5
3401
  8
0
  6
CONTINUOUS
 62
     7
 10
9886.3401113902
 20
13460.98195270263
 30
0.0
 40
160.0
  1
192.5
 50
90.0
  0
ARC
  5
3407
  8
0
  6
BYBLOCK
 62
     0
 10
9966.3401113902019
 20
14268.934962999991
 30
0.0
 40
15.0
 50
90.0
 51
270.0
  0
ARC
  5
3408
  8
0
  6
BYBLOCK
 62
     0
 10
9966.3401113902019
 20
14268.934962999991
 30
0.0
 40
15.0
 50
270.0
 51
90.0
  0
ARC
  5
3409
  8
0
  6
BYBLOCK
 62
     0
 10
9966.3401113902019
 20
14076.439648
 30
0.0
 40
15.0
 50
270.0
 51
90.0
  0
ARC
  5
340A
  8
0
  6
BYBLOCK
 62
     0
 10
9966.3401113902019
 20
14076.439648
 30
0.0
 40
15.0
 50
90.0
 51
270.0
  0
ARC
  5
340B
  8
0
  6
BYBLOCK
 62
     0
 10
9966.3401113902019
 20
17186.934963
 30
0.0
 40
15.0
 50
270.0
 51
90.0
  0
ARC
  5
340C
  8
0
  6
BYBLOCK
 62
     0
 10
9966.3401113902019
 20
17186.934963
 30
0.0
 40
15.0
 50
90.0
 51
270.0
  0
ARC
  5
340D
  8
0
  6
BYBLOCK
 62
     0
 10
9966.3401113902019
 20
14268.934962999991
 30
0.0
 40
15.0
 50
90.0
 51
270.0
  0
ARC
  5
340E
  8
0
  6
BYBLOCK
 62
     0
 10
9966.3401113902019
 20
14268.934962999991
 30
0.0
 40
15.0
 50
270.0
 51
90.0
  0
ARC
  5
340F
  8
0
  6
BYBLOCK
 62
     0
 10
10366.340111390189
 20
19966.930872000001
 30
0.0
 40
15.0
 50
270.0
 51
90.0
  0
ARC
  5
3410
  8
0
  6
BYBLOCK
 62
     0
 10
10366.340111390189
 20
19966.930872000001
 30
0.0
 40
15.0
 50
90.0
 51
270.0
  0
ARC
  5
3411
  8
0
  6
BYBLOCK
 62
     0
 10
10366.340111390189
 20
19976.930872000001
 30
0.0
 40
15.0
 50
90.0
 51
270.0
  0
ARC
  5
3412
  8
0
  6
BYBLOCK
 62
     0
 10
10366.340111390189
 20
19976.930872000001
 30
0.0
 40
15.0
 50
270.0
 51
90.0
  0
ARC
  5
3413
  8
0
  6
BYBLOCK
 62
     0
 10
9966.3401113902
 20
19754.434963
 30
0.0
 40
15.0
 50
270.0
 51
90.0
  0
ARC
  5
3414
  8
0
  6
BYBLOCK
 62
     0
 10
9966.3401113902
 20
19754.434963
 30
0.0
 40
15.0
 50
90.0
 51
270.0
  0
ARC
  5
3415
  8
0
  6
BYBLOCK
 62
     0
 10
9966.3401113902
 20
19976.930872000001
 30
0.0
 40
15.0
 50
90.0
 51
270.0
  0
ARC
  5
3416
  8
0
  6
BYBLOCK
 62
     0
 10
9966.3401113902
 20
19976.930872000001
 30
0.0
 40
15.0
 50
270.0
 51
90.0
  0
ARC
  5
3417
  8
0
  6
BYBLOCK
 62
     0
 10
9966.3401113902
 20
17186.934963
 30
0.0
 40
15.0
 50
90.0
 51
270.0
  0
ARC
  5
3418
  8
0
  6
BYBLOCK
 62
     0
 10
9966.3401113902
 20
17186.934963
 30
0.0
 40
15.0
 50
270.0
 51
90.0
  0
ARC
  5
3419
  8
0
  6
BYBLOCK
 62
     0
 10
9966.3401113902
 20
19754.434963
 30
0.0
 40
15.0
 50
270.0
 51
90.0
  0
ARC
  5
341A
  8
0
  6
BYBLOCK
 62
     0
 10
9966.3401113902
 20
19754.434963
 30
0.0
 40
15.0
 50
90.0
 51
270.0
  0
ARC
  5
341B
  8
0
  6
BYBLOCK
 62
     0
 10
20456.719858
 20
20526.936151000031
 30
0.0
 40
15.0
 50
0.0
 51
180.0
  0
ARC
  5
341C
  8
0
  6
BYBLOCK
 62
     0
 10
20456.719858
 20
20526.936151000031
 30
0.0
 40
15.0
 50
180.0
 51
0.0
  0
ARC
  5
341D
  8
0
  6
BYBLOCK
 62
     0
 10
21214.719857999989
 20
20526.936151000031
 30
0.0
 40
15.0
 50
180.0
 51
0.0
  0
ARC
  5
341E
  8
0
  6
BYBLOCK
 62
     0
 10
21214.719857999989
 20
20526.936151000031
 30
0.0
 40
15.0
 50
0.0
 51
180.0
  0
ARC
  5
341F
  8
0
  6
BYBLOCK
 62
     0
 10
24467.219461999979
 20
19346.934962999989
 30
0.0
 40
15.0
 50
90.0
 51
270.0
  0
ARC
  5
3420
  8
0
  6
BYBLOCK
 62
     0
 10
24467.219461999979
 20
19346.934962999989
 30
0.0
 40
15.0
 50
270.0
 51
90.0
  0
ARC
  5
3421
  8
0
  6
BYBLOCK
 62
     0
 10
24467.219461999979
 20
19754.434963
 30
0.0
 40
15.0
 50
270.0
 51
90.0
  0
ARC
  5
3422
  8
0
  6
BYBLOCK
 62
     0
 10
24467.219461999979
 20
19754.434963
 30
0.0
 40
15.0
 50
90.0
 51
270.0
  0
ARC
  5
3423
  8
0
  6
BYBLOCK
 62
     0
 10
20456.719858
 20
13297.486879
 30
0.0
 40
15.0
 50
0.0
 51
180.0
  0
ARC
  5
3424
  8
0
  6
BYBLOCK
 62
     0
 10
20456.719858
 20
13297.486879
 30
0.0
 40
15.0
 50
180.0
 51
0.0
  0
ARC
  5
3425
  8
0
  6
BYBLOCK
 62
     0
 10
20414.217615000001
 20
13297.486879
 30
0.0
 40
15.0
 50
180.0
 51
0.0
  0
ARC
  5
3426
  8
0
  6
BYBLOCK
 62
     0
 10
20414.217615000001
 20
13297.486879
 30
0.0
 40
15.0
 50
0.0
 51
180.0
  0
ARC
  5
3427
  8
0
  6
BYBLOCK
 62
     0
 10
23374.719858
 20
13297.486879
 30
0.0
 40
15.0
 50
180.0
 51
0.0
  0
ARC
  5
3428
  8
0
  6
BYBLOCK
 62
     0
 10
23374.719858
 20
13297.486879
 30
0.0
 40
15.0
 50
0.0
 51
180.0
  0
ARC
  5
3429
  8
0
  6
BYBLOCK
 62
     0
 10
23417.222100999988
 20
13297.486879
 30
0.0
 40
15.0
 50
0.0
 51
180.0
  0
ARC
  5
342A
  8
0
  6
BYBLOCK
 62
     0
 10
23417.222100999988
 20
13297.486879
 30
0.0
 40
15.0
 50
180.0
 51
0.0
  0
ARC
  5
342B
  8
0
  6
BYBLOCK
 62
     0
 10
23374.719858
 20
13297.486879
 30
0.0
 40
15.0
 50
0.0
 51
180.0
  0
ARC
  5
342C
  8
0
  6
BYBLOCK
 62
     0
 10
23374.719858
 20
13297.486879
 30
0.0
 40
15.0
 50
180.0
 51
0.0
  0
ARC
  5
342D
  8
0
  6
BYBLOCK
 62
     0
 10
23332.21761499999
 20
13297.486879
 30
0.0
 40
15.0
 50
180.0
 51
0.0
  0
ARC
  5
342E
  8
0
  6
BYBLOCK
 62
     0
 10
23332.21761499999
 20
13297.486879
 30
0.0
 40
15.0
 50
0.0
 51
180.0
  0
ARC
  5
342F
  8
0
  6
BYBLOCK
 62
     0
 10
20456.719858
 20
13297.486879
 30
0.0
 40
15.0
 50
180.0
 51
0.0
  0
ARC
  5
3430
  8
0
  6
BYBLOCK
 62
     0
 10
20456.719858
 20
13297.486879
 30
0.0
 40
15.0
 50
0.0
 51
180.0
  0
ARC
  5
3431
  8
0
  6
BYBLOCK
 62
     0
 10
20499.222100999981
 20
13297.486879
 30
0.0
 40
15.0
 50
0.0
 51
180.0
  0
ARC
  5
3432
  8
0
  6
BYBLOCK
 62
     0
 10
20499.222100999981
 20
13297.486879
 30
0.0
 40
15.0
 50
180.0
 51
0.0
  0
ARC
  5
3433
  8
0
  6
BYBLOCK
 62
     0
 10
20414.217615000001
 20
12897.486878999989
 30
0.0
 40
15.0
 50
0.0
 51
180.0
  0
ARC
  5
3434
  8
0
  6
BYBLOCK
 62
     0
 10
20414.217615000001
 20
12897.486878999989
 30
0.0
 40
15.0
 50
180.0
 51
0.0
  0
ARC
  5
3435
  8
0
  6
BYBLOCK
 62
     0
 10
23417.222100999988
 20
12897.486878999989
 30
0.0
 40
15.0
 50
180.0
 51
0.0
  0
ARC
  5
3436
  8
0
  6
BYBLOCK
 62
     0
 10
23417.222100999988
 20
12897.486878999989
 30
0.0
 40
15.0
 50
0.0
 51
180.0
  0
ARC
  5
3437
  8
0
  6
BYBLOCK
 62
     0
 10
24467.219461999979
 20
15026.934963
 30
0.0
 40
15.0
 50
270.0
 51
90.0
  0
ARC
  5
3438
  8
0
  6
BYBLOCK
 62
     0
 10
24467.219461999979
 20
15026.934963
 30
0.0
 40
15.0
 50
90.0
 51
270.0
  0
ARC
  5
3439
  8
0
  6
BYBLOCK
 62
     0
 10
24467.219461999979
 20
14268.934962999991
 30
0.0
 40
15.0
 50
90.0
 51
270.0
  0
ARC
  5
343A
  8
0
  6
BYBLOCK
 62
     0
 10
24467.219461999979
 20
14268.934962999991
 30
0.0
 40
15.0
 50
270.0
 51
90.0
  0
ARC
  5
343B
  8
0
  6
BYBLOCK
 62
     0
 10
24467.219461999979
 20
15728.17547450002
 30
0.0
 40
15.0
 50
270.0
 51
90.0
  0
ARC
  5
343C
  8
0
  6
BYBLOCK
 62
     0
 10
24467.219461999979
 20
15728.17547450002
 30
0.0
 40
15.0
 50
90.0
 51
270.0
  0
ARC
  5
343D
  8
0
  6
BYBLOCK
 62
     0
 10
24467.219461999979
 20
15026.934963
 30
0.0
 40
15.0
 50
90.0
 51
270.0
  0
ARC
  5
343E
  8
0
  6
BYBLOCK
 62
     0
 10
24467.219461999979
 20
15026.934963
 30
0.0
 40
15.0
 50
270.0
 51
90.0
  0
ARC
  5
343F
  8
0
  6
BYBLOCK
 62
     0
 10
24467.219461999979
 20
16428.934963
 30
0.0
 40
15.0
 50
270.0
 51
90.0
  0
ARC
  5
3440
  8
0
  6
BYBLOCK
 62
     0
 10
24467.219461999979
 20
16428.934963
 30
0.0
 40
15.0
 50
90.0
 51
270.0
  0
ARC
  5
3441
  8
0
  6
BYBLOCK
 62
     0
 10
24467.219461999979
 20
15728.17547450002
 30
0.0
 40
15.0
 50
90.0
 51
270.0
  0
ARC
  5
3442
  8
0
  6
BYBLOCK
 62
     0
 10
24467.219461999979
 20
15728.17547450002
 30
0.0
 40
15.0
 50
270.0
 51
90.0
  0
ARC
  5
3443
  8
0
  6
BYBLOCK
 62
     0
 10
24467.219461999979
 20
17186.934963
 30
0.0
 40
15.0
 50
270.0
 51
90.0
  0
ARC
  5
3444
  8
0
  6
BYBLOCK
 62
     0
 10
24467.219461999979
 20
17186.934963
 30
0.0
 40
15.0
 50
90.0
 51
270.0
  0
ARC
  5
3445
  8
0
  6
BYBLOCK
 62
     0
 10
24467.219461999979
 20
16428.934963
 30
0.0
 40
15.0
 50
90.0
 51
270.0
  0
ARC
  5
3446
  8
0
  6
BYBLOCK
 62
     0
 10
24467.219461999979
 20
16428.934963
 30
0.0
 40
15.0
 50
270.0
 51
90.0
  0
ARC
  5
3447
  8
0
  6
BYBLOCK
 62
     0
 10
24467.219461999979
 20
17944.934963
 30
0.0
 40
15.0
 50
270.0
 51
90.0
  0
ARC
  5
3448
  8
0
  6
BYBLOCK
 62
     0
 10
24467.219461999979
 20
17944.934963
 30
0.0
 40
15.0
 50
90.0
 51
270.0
  0
ARC
  5
3449
  8
0
  6
BYBLOCK
 62
     0
 10
24467.219461999979
 20
17186.934963
 30
0.0
 40
15.0
 50
90.0
 51
270.0
  0
ARC
  5
344A
  8
0
  6
BYBLOCK
 62
     0
 10
24467.219461999979
 20
17186.934963
 30
0.0
 40
15.0
 50
270.0
 51
90.0
  0
ARC
  5
344B
  8
0
  6
BYBLOCK
 62
     0
 10
24467.219461999979
 20
18645.934963
 30
0.0
 40
15.0
 50
270.0
 51
90.0
  0
ARC
  5
344C
  8
0
  6
BYBLOCK
 62
     0
 10
24467.219461999979
 20
18645.934963
 30
0.0
 40
15.0
 50
90.0
 51
270.0
  0
ARC
  5
344D
  8
0
  6
BYBLOCK
 62
     0
 10
24467.219461999979
 20
17944.934963
 30
0.0
 40
15.0
 50
90.0
 51
270.0
  0
ARC
  5
344E
  8
0
  6
BYBLOCK
 62
     0
 10
24467.219461999979
 20
17944.934963
 30
0.0
 40
15.0
 50
270.0
 51
90.0
  0
ARC
  5
344F
  8
0
  6
BYBLOCK
 62
     0
 10
24467.219461999979
 20
19346.934962999989
 30
0.0
 40
15.0
 50
270.0
 51
90.0
  0
ARC
  5
3450
  8
0
  6
BYBLOCK
 62
     0
 10
24467.219461999979
 20
19346.934962999989
 30
0.0
 40
15.0
 50
90.0
 51
270.0
  0
ARC
  5
3451
  8
0
  6
BYBLOCK
 62
     0
 10
24467.219461999979
 20
18645.934963
 30
0.0
 40
15.0
 50
90.0
 51
270.0
  0
ARC
  5
3452
  8
0
  6
BYBLOCK
 62
     0
 10
24467.219461999979
 20
18645.934963
 30
0.0
 40
15.0
 50
270.0
 51
90.0
  0
ARC
  5
3453
  8
0
  6
BYBLOCK
 62
     0
 10
24867.219461999979
 20
17186.934963
 30
0.0
 40
15.0
 50
90.0
 51
270.0
  0
ARC
  5
3454
  8
0
  6
BYBLOCK
 62
     0
 10
24867.219461999979
 20
17186.934963
 30
0.0
 40
15.0
 50
270.0
 51
90.0
  0
ARC
  5
3455
  8
0
  6
BYBLOCK
 62
     0
 10
24867.219461999979
 20
19754.434962999982
 30
0.0
 40
15.0
 50
270.0
 51
90.0
  0
ARC
  5
3456
  8
0
  6
BYBLOCK
 62
     0
 10
24867.219461999979
 20
19754.434962999982
 30
0.0
 40
15.0
 50
90.0
 51
270.0
  0
ARC
  5
3457
  8
0
  6
BYBLOCK
 62
     0
 10
24867.219461999979
 20
14268.934962999991
 30
0.0
 40
15.0
 50
90.0
 51
270.0
  0
ARC
  5
3458
  8
0
  6
BYBLOCK
 62
     0
 10
24867.219461999979
 20
14268.934962999991
 30
0.0
 40
15.0
 50
270.0
 51
90.0
  0
ARC
  5
3459
  8
0
  6
BYBLOCK
 62
     0
 10
24867.219461999979
 20
17186.934963
 30
0.0
 40
15.0
 50
270.0
 51
90.0
  0
ARC
  5
345A
  8
0
  6
BYBLOCK
 62
     0
 10
24867.219461999979
 20
17186.934963
 30
0.0
 40
15.0
 50
90.0
 51
270.0
  0
ARC
  5
345B
  8
0
  6
BYBLOCK
 62
     0
 10
25267.21946199999
 20
19796.932258000001
 30
0.0
 40
15.0
 50
270.0
 51
90.0
  0
ARC
  5
345C
  8
0
  6
BYBLOCK
 62
     0
 10
25267.21946199999
 20
19796.932258000001
 30
0.0
 40
15.0
 50
90.0
 51
270.0
  0
ARC
  5
345D
  8
0
  6
BYBLOCK
 62
     0
 10
25267.21946199999
 20
14226.437668
 30
0.0
 40
15.0
 50
90.0
 51
270.0
  0
ARC
  5
345E
  8
0
  6
BYBLOCK
 62
     0
 10
25267.21946199999
 20
14226.437668
 30
0.0
 40
15.0
 50
270.0
 51
90.0
  0
ARC
  5
345F
  8
0
  6
BYBLOCK
 62
     0
 10
24867.219461999979
 20
19754.434962999982
 30
0.0
 40
15.0
 50
270.0
 51
90.0
  0
ARC
  5
3460
  8
0
  6
BYBLOCK
 62
     0
 10
24867.219461999979
 20
19754.434962999982
 30
0.0
 40
15.0
 50
90.0
 51
270.0
  0
ARC
  5
3461
  8
0
  6
BYBLOCK
 62
     0
 10
24867.219461999979
 20
19796.932258000001
 30
0.0
 40
15.0
 50
90.0
 51
270.0
  0
ARC
  5
3462
  8
0
  6
BYBLOCK
 62
     0
 10
24867.219461999979
 20
19796.932258000001
 30
0.0
 40
15.0
 50
270.0
 51
90.0
  0
ARC
  5
3463
  8
0
  6
BYBLOCK
 62
     0
 10
24867.219461999979
 20
14268.934962999991
 30
0.0
 40
15.0
 50
90.0
 51
270.0
  0
ARC
  5
3464
  8
0
  6
BYBLOCK
 62
     0
 10
24867.219461999979
 20
14268.934962999991
 30
0.0
 40
15.0
 50
270.0
 51
90.0
  0
ARC
  5
3465
  8
0
  6
BYBLOCK
 62
     0
 10
24867.219461999979
 20
14226.437668
 30
0.0
 40
15.0
 50
270.0
 51
90.0
  0
ARC
  5
3466
  8
0
  6
BYBLOCK
 62
     0
 10
24867.219461999979
 20
14226.437668
 30
0.0
 40
15.0
 50
90.0
 51
270.0
  0
ARC
  5
3467
  8
0
  6
BYBLOCK
 62
     0
 10
22616.719858
 20
20526.936151000031
 30
0.0
 40
15.0
 50
0.0
 51
180.0
  0
ARC
  5
3468
  8
0
  6
BYBLOCK
 62
     0
 10
22616.719858
 20
20526.936151000031
 30
0.0
 40
15.0
 50
180.0
 51
0.0
  0
ARC
  5
3469
  8
0
  6
BYBLOCK
 62
     0
 10
23374.720847500001
 20
20526.936151000031
 30
0.0
 40
15.0
 50
180.0
 51
0.0
  0
ARC
  5
346A
  8
0
  6
BYBLOCK
 62
     0
 10
23374.720847500001
 20
20526.936151000031
 30
0.0
 40
15.0
 50
0.0
 51
180.0
  0
ARC
  5
346B
  8
0
  6
BYBLOCK
 62
     0
 10
21915.719858
 20
20526.936151000031
 30
0.0
 40
15.0
 50
0.0
 51
180.0
  0
ARC
  5
346C
  8
0
  6
BYBLOCK
 62
     0
 10
21915.719858
 20
20526.936151000031
 30
0.0
 40
15.0
 50
180.0
 51
0.0
  0
ARC
  5
346D
  8
0
  6
BYBLOCK
 62
     0
 10
22616.719858
 20
20526.936151000031
 30
0.0
 40
15.0
 50
180.0
 51
0.0
  0
ARC
  5
346E
  8
0
  6
BYBLOCK
 62
     0
 10
22616.719858
 20
20526.936151000031
 30
0.0
 40
15.0
 50
0.0
 51
180.0
  0
ARC
  5
346F
  8
0
  6
BYBLOCK
 62
     0
 10
21214.719857999989
 20
20526.936151000031
 30
0.0
 40
15.0
 50
0.0
 51
180.0
  0
ARC
  5
3470
  8
0
  6
BYBLOCK
 62
     0
 10
21214.719857999989
 20
20526.936151000031
 30
0.0
 40
15.0
 50
180.0
 51
0.0
  0
ARC
  5
3471
  8
0
  6
BYBLOCK
 62
     0
 10
21915.719858
 20
20526.936151000031
 30
0.0
 40
15.0
 50
180.0
 51
0.0
  0
ARC
  5
3472
  8
0
  6
BYBLOCK
 62
     0
 10
21915.719858
 20
20526.936151000031
 30
0.0
 40
15.0
 50
0.0
 51
180.0
  0
ARC
  5
3473
  8
0
  6
BYBLOCK
 62
     0
 10
23374.719858
 20
20526.936151000031
 30
0.0
 40
15.0
 50
180.0
 51
0.0
  0
ARC
  5
3474
  8
0
  6
BYBLOCK
 62
     0
 10
23374.719858
 20
20526.936151000031
 30
0.0
 40
15.0
 50
0.0
 51
180.0
  0
ARC
  5
3475
  8
0
  6
BYBLOCK
 62
     0
 10
23417.21616299999
 20
20526.936151000031
 30
0.0
 40
15.0
 50
0.0
 51
180.0
  0
ARC
  5
3476
  8
0
  6
BYBLOCK
 62
     0
 10
23417.21616299999
 20
20526.936151000031
 30
0.0
 40
15.0
 50
180.0
 51
0.0
  0
ARC
  5
3477
  8
0
  6
BYBLOCK
 62
     0
 10
20456.719858
 20
20526.936151000031
 30
0.0
 40
15.0
 50
0.0
 51
180.0
  0
ARC
  5
3478
  8
0
  6
BYBLOCK
 62
     0
 10
20456.719858
 20
20526.936151000031
 30
0.0
 40
15.0
 50
180.0
 51
0.0
  0
ARC
  5
3479
  8
0
  6
BYBLOCK
 62
     0
 10
20414.223552999989
 20
20526.936151000031
 30
0.0
 40
15.0
 50
180.0
 51
0.0
  0
ARC
  5
347A
  8
0
  6
BYBLOCK
 62
     0
 10
20414.223552999989
 20
20526.936151000031
 30
0.0
 40
15.0
 50
0.0
 51
180.0
  0
ARC
  5
347B
  8
0
  6
BYBLOCK
 62
     0
 10
16266.72169299999
 20
6677.6370850000039
 30
0.0
 40
15.0
 50
90.0
 51
270.0
  0
ARC
  5
347C
  8
0
  6
BYBLOCK
 62
     0
 10
16266.72169299999
 20
6677.6370850000039
 30
0.0
 40
15.0
 50
270.0
 51
90.0
  0
ARC
  5
347D
  8
0
  6
BYBLOCK
 62
     0
 10
16266.72169299999
 20
9026.1370850000021
 30
0.0
 40
15.0
 50
270.0
 51
90.0
  0
ARC
  5
347E
  8
0
  6
BYBLOCK
 62
     0
 10
16266.72169299999
 20
9026.1370850000021
 30
0.0
 40
15.0
 50
90.0
 51
270.0
  0
ARC
  5
347F
  8
0
  6
BYBLOCK
 62
     0
 10
8516.2248590000054
 20
6677.6370850000039
 30
0.0
 40
15.0
 50
90.0
 51
270.0
  0
ARC
  5
3480
  8
0
  6
BYBLOCK
 62
     0
 10
8516.2248590000054
 20
6677.6370850000039
 30
0.0
 40
15.0
 50
270.0
 51
90.0
  0
ARC
  5
3481
  8
0
  6
BYBLOCK
 62
     0
 10
8516.2248590000054
 20
8833.6370850000058
 30
0.0
 40
15.0
 50
270.0
 51
90.0
  0
ARC
  5
3482
  8
0
  6
BYBLOCK
 62
     0
 10
8516.2248590000054
 20
8833.6370850000058
 30
0.0
 40
15.0
 50
90.0
 51
270.0
  0
ARC
  5
3483
  8
0
  6
BYBLOCK
 62
     0
 10
9426.2232769999955
 20
10225.637111
 30
0.0
 40
15.0
 50
0.0
 51
180.0
  0
ARC
  5
3484
  8
0
  6
BYBLOCK
 62
     0
 10
9426.2232769999955
 20
10225.637111
 30
0.0
 40
15.0
 50
180.0
 51
0.0
  0
ARC
  5
3485
  8
0
  6
BYBLOCK
 62
     0
 10
15326.723276999999
 20
10225.637111
 30
0.0
 40
15.0
 50
180.0
 51
0.0
  0
ARC
  5
3486
  8
0
  6
BYBLOCK
 62
     0
 10
15326.723276999999
 20
10225.637111
 30
0.0
 40
15.0
 50
0.0
 51
180.0
  0
ARC
  5
3487
  8
0
  6
BYBLOCK
 62
     0
 10
15176.72327699999
 20
9825.638761000002
 30
0.0
 40
15.0
 50
180.0
 51
0.0
  0
ARC
  5
3488
  8
0
  6
BYBLOCK
 62
     0
 10
15176.72327699999
 20
9825.638761000002
 30
0.0
 40
15.0
 50
0.0
 51
180.0
  0
ARC
  5
3489
  8
0
  6
BYBLOCK
 62
     0
 10
15326.723276999999
 20
9825.638761000002
 30
0.0
 40
15.0
 50
0.0
 51
180.0
  0
ARC
  5
348A
  8
0
  6
BYBLOCK
 62
     0
 10
15326.723276999999
 20
9825.638761000002
 30
0.0
 40
15.0
 50
180.0
 51
0.0
  0
ARC
  5
348B
  8
0
  6
BYBLOCK
 62
     0
 10
9606.2232769999955
 20
9825.638761000002
 30
0.0
 40
15.0
 50
0.0
 51
180.0
  0
ARC
  5
348C
  8
0
  6
BYBLOCK
 62
     0
 10
9606.2232769999955
 20
9825.638761000002
 30
0.0
 40
15.0
 50
180.0
 51
0.0
  0
ARC
  5
348D
  8
0
  6
BYBLOCK
 62
     0
 10
15176.72327699999
 20
9825.638761000002
 30
0.0
 40
15.0
 50
180.0
 51
0.0
  0
ARC
  5
348E
  8
0
  6
BYBLOCK
 62
     0
 10
15176.72327699999
 20
9825.638761000002
 30
0.0
 40
15.0
 50
0.0
 51
180.0
  0
ARC
  5
348F
  8
0
  6
BYBLOCK
 62
     0
 10
9426.2232769999955
 20
9825.638761000002
 30
0.0
 40
15.0
 50
180.0
 51
0.0
  0
ARC
  5
3490
  8
0
  6
BYBLOCK
 62
     0
 10
9426.2232769999955
 20
9825.638761000002
 30
0.0
 40
15.0
 50
0.0
 51
180.0
  0
ARC
  5
3491
  8
0
  6
BYBLOCK
 62
     0
 10
9606.2232769999955
 20
9825.638761000002
 30
0.0
 40
15.0
 50
0.0
 51
180.0
  0
ARC
  5
3492
  8
0
  6
BYBLOCK
 62
     0
 10
9606.2232769999955
 20
9825.638761000002
 30
0.0
 40
15.0
 50
180.0
 51
0.0
  0
ARC
  5
3493
  8
0
  6
BYBLOCK
 62
     0
 10
9606.2232769999955
 20
4977.6374150000038
 30
0.0
 40
15.0
 50
0.0
 51
180.0
  0
ARC
  5
3494
  8
0
  6
BYBLOCK
 62
     0
 10
9606.2232769999955
 20
4977.6374150000038
 30
0.0
 40
15.0
 50
180.0
 51
0.0
  0
ARC
  5
3495
  8
0
  6
BYBLOCK
 62
     0
 10
15176.72327699999
 20
4977.6374150000038
 30
0.0
 40
15.0
 50
180.0
 51
0.0
  0
ARC
  5
3496
  8
0
  6
BYBLOCK
 62
     0
 10
15176.72327699999
 20
4977.6374150000038
 30
0.0
 40
15.0
 50
0.0
 51
180.0
  0
ARC
  5
3497
  8
0
  6
BYBLOCK
 62
     0
 10
15134.223276999999
 20
5377.6372500000034
 30
0.0
 40
15.0
 50
180.0
 51
0.0
  0
ARC
  5
3498
  8
0
  6
BYBLOCK
 62
     0
 10
15134.223276999999
 20
5377.6372500000034
 30
0.0
 40
15.0
 50
0.0
 51
180.0
  0
ARC
  5
3499
  8
0
  6
BYBLOCK
 62
     0
 10
15176.72327699999
 20
5377.6372500000034
 30
0.0
 40
15.0
 50
0.0
 51
180.0
  0
ARC
  5
349A
  8
0
  6
BYBLOCK
 62
     0
 10
15176.72327699999
 20
5377.6372500000034
 30
0.0
 40
15.0
 50
180.0
 51
0.0
  0
ARC
  5
349B
  8
0
  6
BYBLOCK
 62
     0
 10
9648.7232769999955
 20
5377.6372500000034
 30
0.0
 40
15.0
 50
0.0
 51
180.0
  0
ARC
  5
349C
  8
0
  6
BYBLOCK
 62
     0
 10
9648.7232769999955
 20
5377.6372500000034
 30
0.0
 40
15.0
 50
180.0
 51
0.0
  0
ARC
  5
349D
  8
0
  6
BYBLOCK
 62
     0
 10
9606.2232769999955
 20
5377.6372500000034
 30
0.0
 40
15.0
 50
180.0
 51
0.0
  0
ARC
  5
349E
  8
0
  6
BYBLOCK
 62
     0
 10
9606.2232769999955
 20
5377.6372500000034
 30
0.0
 40
15.0
 50
0.0
 51
180.0
  0
ARC
  5
349F
  8
0
  6
BYBLOCK
 62
     0
 10
12216.223276999999
 20
5377.6372500000034
 30
0.0
 40
15.0
 50
180.0
 51
0.0
  0
ARC
  5
34A0
  8
0
  6
BYBLOCK
 62
     0
 10
12216.223276999999
 20
5377.6372500000034
 30
0.0
 40
15.0
 50
0.0
 51
180.0
  0
ARC
  5
34A1
  8
0
  6
BYBLOCK
 62
     0
 10
9648.7232769999955
 20
5377.6372500000034
 30
0.0
 40
15.0
 50
0.0
 51
180.0
  0
ARC
  5
34A2
  8
0
  6
BYBLOCK
 62
     0
 10
9648.7232769999955
 20
5377.6372500000034
 30
0.0
 40
15.0
 50
180.0
 51
0.0
  0
ARC
  5
34A3
  8
0
  6
BYBLOCK
 62
     0
 10
12216.223276999999
 20
5377.6372500000034
 30
0.0
 40
15.0
 50
0.0
 51
180.0
  0
ARC
  5
34A4
  8
0
  6
BYBLOCK
 62
     0
 10
12216.223276999999
 20
5377.6372500000034
 30
0.0
 40
15.0
 50
180.0
 51
0.0
  0
ARC
  5
34A5
  8
0
  6
BYBLOCK
 62
     0
 10
15134.223276999999
 20
5377.6372500000034
 30
0.0
 40
15.0
 50
180.0
 51
0.0
  0
ARC
  5
34A6
  8
0
  6
BYBLOCK
 62
     0
 10
15134.223276999999
 20
5377.6372500000034
 30
0.0
 40
15.0
 50
0.0
 51
180.0
  0
ARC
  5
34A7
  8
0
  6
BYBLOCK
 62
     0
 10
19606.71853799999
 20
6677.6370850000039
 30
0.0
 40
15.0
 50
90.0
 51
270.0
  0
ARC
  5
34A8
  8
0
  6
BYBLOCK
 62
     0
 10
19606.71853799999
 20
6677.6370850000039
 30
0.0
 40
15.0
 50
270.0
 51
90.0
  0
ARC
  5
34A9
  8
0
  6
BYBLOCK
 62
     0
 10
19606.71853799999
 20
8569.1370850000021
 30
0.0
 40
15.0
 50
270.0
 51
90.0
  0
ARC
  5
34AA
  8
0
  6
BYBLOCK
 62
     0
 10
19606.71853799999
 20
8569.1370850000021
 30
0.0
 40
15.0
 50
90.0
 51
270.0
  0
ARC
  5
34AB
  8
0
  6
BYBLOCK
 62
     0
 10
19206.716228999991
 20
6677.6370850000039
 30
0.0
 40
15.0
 50
90.0
 51
270.0
  0
ARC
  5
34AC
  8
0
  6
BYBLOCK
 62
     0
 10
19206.716228999991
 20
6677.6370850000039
 30
0.0
 40
15.0
 50
270.0
 51
90.0
  0
ARC
  5
34AD
  8
0
  6
BYBLOCK
 62
     0
 10
19206.716229000001
 20
9026.1369400000021
 30
0.0
 40
15.0
 50
270.0
 51
90.0
  0
ARC
  5
34AE
  8
0
  6
BYBLOCK
 62
     0
 10
19206.716229000001
 20
9026.1369400000021
 30
0.0
 40
15.0
 50
90.0
 51
270.0
  0
ARC
  5
34BF
  8
0
  6
BYBLOCK
 62
     0
 10
23374.719858
 20
5377.6372500000098
 30
0.0
 40
15.0
 50
180.0
 51
0.0
  0
ARC
  5
34C0
  8
0
  6
BYBLOCK
 62
     0
 10
23374.719858
 20
5377.6372500000098
 30
0.0
 40
15.0
 50
0.0
 51
180.0
  0
ARC
  5
34C1
  8
0
  6
BYBLOCK
 62
     0
 10
23417.219858
 20
5377.6372500000098
 30
0.0
 40
15.0
 50
0.0
 51
180.0
  0
ARC
  5
34C2
  8
0
  6
BYBLOCK
 62
     0
 10
23417.219858
 20
5377.6372500000098
 30
0.0
 40
15.0
 50
180.0
 51
0.0
  0
ARC
  5
34C3
  8
0
  6
BYBLOCK
 62
     0
 10
20550.719858
 20
5777.6372500000089
 30
0.0
 40
15.0
 50
0.0
 51
180.0
  0
ARC
  5
34C4
  8
0
  6
BYBLOCK
 62
     0
 10
20550.719858
 20
5777.6372500000089
 30
0.0
 40
15.0
 50
180.0
 51
0.0
  0
ARC
  5
34C5
  8
0
  6
BYBLOCK
 62
     0
 10
23280.719858
 20
5777.6372500000089
 30
0.0
 40
15.0
 50
180.0
 51
0.0
  0
ARC
  5
34C6
  8
0
  6
BYBLOCK
 62
     0
 10
23280.719858
 20
5777.6372500000089
 30
0.0
 40
15.0
 50
0.0
 51
180.0
  0
ARC
  5
34C7
  8
0
  6
BYBLOCK
 62
     0
 10
20456.719858
 20
5377.6372500000098
 30
0.0
 40
15.0
 50
0.0
 51
180.0
  0
ARC
  5
34C8
  8
0
  6
BYBLOCK
 62
     0
 10
20456.719858
 20
5377.6372500000098
 30
0.0
 40
15.0
 50
180.0
 51
0.0
  0
ARC
  5
34C9
  8
0
  6
BYBLOCK
 62
     0
 10
23374.719858
 20
5377.6372500000098
 30
0.0
 40
15.0
 50
180.0
 51
0.0
  0
ARC
  5
34CA
  8
0
  6
BYBLOCK
 62
     0
 10
23374.719858
 20
5377.6372500000098
 30
0.0
 40
15.0
 50
0.0
 51
180.0
  0
ARC
  5
34CB
  8
0
  6
BYBLOCK
 62
     0
 10
20456.719858
 20
5377.6372500000098
 30
0.0
 40
15.0
 50
0.0
 51
180.0
  0
ARC
  5
34CC
  8
0
  6
BYBLOCK
 62
     0
 10
20456.719858
 20
5377.6372500000098
 30
0.0
 40
15.0
 50
180.0
 51
0.0
  0
ARC
  5
34CD
  8
0
  6
BYBLOCK
 62
     0
 10
20414.219858
 20
5377.6372500000098
 30
0.0
 40
15.0
 50
180.0
 51
0.0
  0
ARC
  5
34CE
  8
0
  6
BYBLOCK
 62
     0
 10
20414.219858
 20
5377.6372500000098
 30
0.0
 40
15.0
 50
0.0
 51
180.0
  0
ARC
  5
34CF
  8
0
  6
BYBLOCK
 62
     0
 10
20414.219858
 20
4977.6374150000102
 30
0.0
 40
15.0
 50
0.0
 51
180.0
  0
ARC
  5
34D0
  8
0
  6
BYBLOCK
 62
     0
 10
20414.219858
 20
4977.6374150000102
 30
0.0
 40
15.0
 50
180.0
 51
0.0
  0
ARC
  5
34D1
  8
0
  6
BYBLOCK
 62
     0
 10
23417.219858
 20
4977.6374150000102
 30
0.0
 40
15.0
 50
180.0
 51
0.0
  0
ARC
  5
34D2
  8
0
  6
BYBLOCK
 62
     0
 10
23417.219858
 20
4977.6374150000102
 30
0.0
 40
15.0
 50
0.0
 51
180.0
  0
TEXT
  5
35D8
  8
0
  6
CONTINUOUS
 62
     7
 10
21649.05319133334
 20
9905.1369529999993
 30
0.0
 40
160.0
  1
3003
  0
TEXT
  5
35D9
  8
0
  6
CONTINUOUS
 62
     7
 10
21635.719858
 20
10305.094723
 30
0.0
 40
160.0
  1
3089
  0
LINE
  5
35DA
  8
0-1
  6
CONTINUOUS
 62
     3
 10
20499.216163000008
 20
8762.1374540000015
 30
0.0
 11
23332.219593999991
 21
8762.1374540000015
 31
0.0
  0
LINE
  5
35DB
  8
0-1
  6
CONTINUOUS
 62
     3
 10
20371.219463000019
 20
8699.9513730000017
 30
0.0
 11
20371.219463000019
 21
9025.6371109999982
 31
0.0
  0
LINE
  5
35DC
  8
0-1
  6
CONTINUOUS
 62
     3
 10
23460.218274999988
 20
8895.6371770000005
 30
0.0
 11
20371.219463000019
 21
8895.6371770000005
 31
0.0
  0
LINE
  5
35DD
  8
0-1
  6
CONTINUOUS
 62
     3
 10
23460.218274999988
 20
9025.6371109999982
 30
0.0
 11
23460.218274999988
 21
8699.9513730000017
 31
0.0
  0
LINE
  5
35DE
  8
0-1
  6
CONTINUOUS
 62
     3
 10
20371.219463000019
 20
9025.6371109999982
 30
0.0
 11
23460.218274999988
 21
9025.6371109999982
 31
0.0
  0
LINE
  5
35DF
  8
0-1
  6
CONTINUOUS
 62
     3
 10
23460.218274999988
 20
8699.9513730000017
 30
0.0
 11
23417.218142999998
 21
8699.9513730000017
 31
0.0
  0
LINE
  5
35E0
  8
0-1
  6
CONTINUOUS
 62
     3
 10
20371.219463000019
 20
8699.9513730000017
 30
0.0
 11
20414.21761500002
 21
8699.9513730000017
 31
0.0
  0
LINE
  5
35E1
  8
0-1
  6
CONTINUOUS
 62
     3
 10
20525.219119000019
 20
8771.1378310000091
 30
0.0
 11
20802.64864900001
 21
8771.1378310000091
 31
0.0
  0
LINE
  5
35E2
  8
0-1
  6
CONTINUOUS
 62
     3
 10
20525.219119000019
 20
8813.1372760000031
 30
0.0
 11
20834.645587000021
 21
8813.1372760000031
 31
0.0
  0
LINE
  5
35E3
  8
0-1
  6
CONTINUOUS
 62
     3
 10
20520.218856
 20
8776.1376000000055
 30
0.0
 11
20520.218856
 21
8808.1380020000051
 31
0.0
  0
LINE
  5
35E4
  8
0-1
  6
CONTINUOUS
 62
     3
 10
20499.216163000008
 20
8822.137158000005
 30
0.0
 11
23332.219593999991
 21
8822.137158000005
 31
0.0
  0
LINE
  5
35E5
  8
0-1
  6
CONTINUOUS
 62
     3
 10
20806.182089000009
 20
8772.6016850000051
 30
0.0
 11
20838.182987
 21
8804.6020870000048
 31
0.0
  0
LINE
  5
35E6
  8
0-1
  6
CONTINUOUS
 62
     3
 10
20520.218856
 20
8804.7376840000088
 30
0.0
 11
20838.31165499999
 21
8804.7376840000088
 31
0.0
  0
LINE
  5
35E7
  8
0-1
  6
CONTINUOUS
 62
     3
 10
20520.218856
 20
8796.337597000007
 30
0.0
 11
20829.91849700001
 21
8796.337597000007
 31
0.0
  0
LINE
  5
35E8
  8
0-1
  6
CONTINUOUS
 62
     3
 10
20520.218856
 20
8787.9380050000054
 30
0.0
 11
20821.519399000012
 21
8787.9380050000054
 31
0.0
  0
LINE
  5
35E9
  8
0-1
  6
CONTINUOUS
 62
     3
 10
20520.218856
 20
8779.5379180000054
 30
0.0
 11
20813.11634300002
 21
8779.5379180000054
 31
0.0
  0
LINE
  5
35EA
  8
0-1
  6
CONTINUOUS
 62
     3
 10
23311.21888199999
 20
8804.7376840000088
 30
0.0
 11
22993.12608200001
 21
8804.7376840000088
 31
0.0
  0
LINE
  5
35EB
  8
0-1
  6
CONTINUOUS
 62
     3
 10
23311.21888199999
 20
8796.337597000007
 30
0.0
 11
23001.521219999999
 21
8796.337597000007
 31
0.0
  0
LINE
  5
35EC
  8
0-1
  6
CONTINUOUS
 62
     3
 10
23311.21888199999
 20
8787.9380050000054
 30
0.0
 11
23009.920317
 21
8787.9380050000054
 31
0.0
  0
LINE
  5
35ED
  8
0-1
  6
CONTINUOUS
 62
     3
 10
23311.21888199999
 20
8779.5379180000054
 30
0.0
 11
23018.319415000002
 21
8779.5379180000054
 31
0.0
  0
LINE
  5
35EE
  8
0-1
  6
CONTINUOUS
 62
     3
 10
23306.218617999999
 20
8813.1372760000031
 30
0.0
 11
22996.79214999999
 21
8813.1372760000031
 31
0.0
  0
LINE
  5
35EF
  8
0-1
  6
CONTINUOUS
 62
     3
 10
23306.218617999999
 20
8771.1378310000091
 30
0.0
 11
23028.789088999991
 21
8771.1378310000091
 31
0.0
  0
LINE
  5
35F0
  8
0-1
  6
CONTINUOUS
 62
     3
 10
23311.21888199999
 20
8776.1376000000055
 30
0.0
 11
23311.21888199999
 21
8808.1380020000051
 31
0.0
  0
LINE
  5
35F1
  8
0-1
  6
CONTINUOUS
 62
     3
 10
23025.253668000008
 20
8772.6016850000051
 30
0.0
 11
22993.256730000008
 21
8804.6020870000048
 31
0.0
  0
ARC
  5
35F2
  8
0-1
  6
CONTINUOUS
 62
     3
 10
20525.219119000019
 20
8808.1380020000051
 30
0.0
 40
5.0
 50
90.0
 51
180.0
  0
ARC
  5
35F3
  8
0-1
  6
CONTINUOUS
 62
     3
 10
20525.219119000019
 20
8776.1376000000055
 30
0.0
 40
5.0
 50
180.0
 51
269.9999850001808
  0
ARC
  5
35F4
  8
0-1
  6
CONTINUOUS
 62
     3
 10
20802.64864900001
 20
8776.1376000000055
 30
0.0
 40
5.0
 50
269.9999850001808
 51
314.99998500027471
  0
ARC
  5
35F5
  8
0-1
  6
CONTINUOUS
 62
     3
 10
20834.645587000021
 20
8808.1380020000051
 30
0.0
 40
5.0
 50
314.99998500027471
 51
90.0
  0
ARC
  5
35F6
  8
0-1
  6
CONTINUOUS
 62
     3
 10
23306.218617999999
 20
8776.1376000000055
 30
0.0
 40
5.0
 50
269.9999850001808
 51
0.0
  0
ARC
  5
35F7
  8
0-1
  6
CONTINUOUS
 62
     3
 10
23306.218617999999
 20
8808.1380020000051
 30
0.0
 40
5.0
 50
0.0
 51
90.0
  0
ARC
  5
35F8
  8
0-1
  6
CONTINUOUS
 62
     3
 10
22996.79214999999
 20
8808.1380020000051
 30
0.0
 40
5.0
 50
90.0
 51
224.99998499997989
  0
ARC
  5
35F9
  8
0-1
  6
CONTINUOUS
 62
     3
 10
23028.789088999991
 20
8776.1376000000055
 30
0.0
 40
5.0
 50
224.99998499997989
 51
269.9999850001808
  0
LINE
  5
35FA
  8
SUNPOU
  6
CONTINUOUS
 62
     4
 10
23417.220121999992
 20
9105.637111
 30
0.0
 11
23417.220121999992
 21
9905.1369529999993
 31
0.0
  0
LINE
  5
35FB
  8
SUNPOU
  6
CONTINUOUS
 62
     4
 10
23417.220121999992
 20
9825.1369529999993
 30
0.0
 11
23177.220121999992
 21
9825.1369529999993
 31
0.0
  0
LINE
  5
35FC
  8
SUNPOU
  6
CONTINUOUS
 62
     4
 10
23457.222232999971
 20
9825.1369529999993
 30
0.0
 11
23697.222232999971
 21
9825.1369529999993
 31
0.0
  0
LINE
  5
35FD
  8
SUNPOU
  6
CONTINUOUS
 62
     4
 10
23417.220121999992
 20
9825.1369529999993
 30
0.0
 11
23457.222232999971
 21
9825.1369529999993
 31
0.0
  0
LINE
  5
35FE
  8
SUNPOU
  6
CONTINUOUS
 62
     4
 10
20371.217483000029
 20
9105.637111
 30
0.0
 11
20371.217483000029
 21
10305.094723
 31
0.0
  0
LINE
  5
35FF
  8
SUNPOU
  6
CONTINUOUS
 62
     4
 10
23460.222232999979
 20
9105.637111
 30
0.0
 11
23460.222232999979
 21
10305.094723
 31
0.0
  0
LINE
  5
3600
  8
SUNPOU
  6
CONTINUOUS
 62
     4
 10
20371.217483000029
 20
10225.094723
 30
0.0
 11
23457.222232999971
 21
10225.094723
 31
0.0
  0
LINE
  5
3601
  8
SUNPOU
  6
CONTINUOUS
 62
     4
 10
20414.219594000009
 20
9105.637111
 30
0.0
 11
20414.219594000009
 21
9905.1369529999993
 31
0.0
  0
LINE
  5
3602
  8
SUNPOU
  6
CONTINUOUS
 62
     4
 10
23417.220121999992
 20
9105.637111
 30
0.0
 11
23417.220121999992
 21
9905.1369529999993
 31
0.0
  0
LINE
  5
3603
  8
SUNPOU
  6
CONTINUOUS
 62
     4
 10
20414.219594000009
 20
9825.1369529999993
 30
0.0
 11
23417.220121999992
 21
9825.1369529999993
 31
0.0
  0
LINE
  5
3604
  8
SUNPOU
  6
CONTINUOUS
 62
     4
 10
20414.219594000009
 20
9105.637111
 30
0.0
 11
20414.219594000009
 21
9905.1369529999993
 31
0.0
  0
LINE
  5
3605
  8
SUNPOU
  6
CONTINUOUS
 62
     4
 10
20371.217483000029
 20
9105.637111
 30
0.0
 11
20371.217483000029
 21
9905.1369529999993
 31
0.0
  0
LINE
  5
3606
  8
SUNPOU
  6
CONTINUOUS
 62
     4
 10
20414.219594000009
 20
9825.1369529999993
 30
0.0
 11
20654.219594000009
 21
9825.1369529999993
 31
0.0
  0
LINE
  5
3607
  8
SUNPOU
  6
CONTINUOUS
 62
     4
 10
20374.217483000019
 20
9825.1369529999993
 30
0.0
 11
20134.217483000019
 21
9825.1369529999993
 31
0.0
  0
LINE
  5
3608
  8
SUNPOU
  6
CONTINUOUS
 62
     4
 10
20414.219594000009
 20
9825.1369529999993
 30
0.0
 11
20374.217483000019
 21
9825.1369529999993
 31
0.0
  0
TEXT
  5
3609
  8
0
  6
CONTINUOUS
 62
     7
 10
20014.217483000019
 20
9905.1369529999993
 30
0.0
 40
160.0
  1
43
  0
TEXT
  5
360A
  8
0
  6
CONTINUOUS
 62
     7
 10
23577.222232999971
 20
9905.1369529999993
 30
0.0
 40
160.0
  1
43
  0
ARC
  5
360B
  8
0
  6
BYBLOCK
 62
     0
 10
23417.220121999992
 20
9825.1369529999993
 30
0.0
 40
15.0
 50
180.0
 51
0.0
  0
ARC
  5
360C
  8
0
  6
BYBLOCK
 62
     0
 10
23417.220121999992
 20
9825.1369529999993
 30
0.0
 40
15.0
 50
0.0
 51
180.0
  0
ARC
  5
360D
  8
0
  6
BYBLOCK
 62
     0
 10
23460.222232999979
 20
9825.1369529999993
 30
0.0
 40
15.0
 50
0.0
 51
180.0
  0
ARC
  5
360E
  8
0
  6
BYBLOCK
 62
     0
 10
23460.222232999979
 20
9825.1369529999993
 30
0.0
 40
15.0
 50
180.0
 51
0.0
  0
ARC
  5
360F
  8
0
  6
BYBLOCK
 62
     0
 10
20371.217483000029
 20
10225.094723
 30
0.0
 40
15.0
 50
0.0
 51
180.0
  0
ARC
  5
3610
  8
0
  6
BYBLOCK
 62
     0
 10
20371.217483000029
 20
10225.094723
 30
0.0
 40
15.0
 50
180.0
 51
0.0
  0
ARC
  5
3611
  8
0
  6
BYBLOCK
 62
     0
 10
23460.222232999979
 20
10225.094723
 30
0.0
 40
15.0
 50
180.0
 51
0.0
  0
ARC
  5
3612
  8
0
  6
BYBLOCK
 62
     0
 10
23460.222232999979
 20
10225.094723
 30
0.0
 40
15.0
 50
0.0
 51
180.0
  0
ARC
  5
3613
  8
0
  6
BYBLOCK
 62
     0
 10
20414.219594000009
 20
9825.1369529999993
 30
0.0
 40
15.0
 50
0.0
 51
180.0
  0
ARC
  5
3614
  8
0
  6
BYBLOCK
 62
     0
 10
20414.219594000009
 20
9825.1369529999993
 30
0.0
 40
15.0
 50
180.0
 51
0.0
  0
ARC
  5
3615
  8
0
  6
BYBLOCK
 62
     0
 10
23417.220121999992
 20
9825.1369529999993
 30
0.0
 40
15.0
 50
180.0
 51
0.0
  0
ARC
  5
3616
  8
0
  6
BYBLOCK
 62
     0
 10
23417.220121999992
 20
9825.1369529999993
 30
0.0
 40
15.0
 50
0.0
 51
180.0
  0
ARC
  5
3617
  8
0
  6
BYBLOCK
 62
     0
 10
20414.219594000009
 20
9825.1369529999993
 30
0.0
 40
15.0
 50
0.0
 51
180.0
  0
ARC
  5
3618
  8
0
  6
BYBLOCK
 62
     0
 10
20414.219594000009
 20
9825.1369529999993
 30
0.0
 40
15.0
 50
180.0
 51
0.0
  0
ARC
  5
3619
  8
0
  6
BYBLOCK
 62
     0
 10
20371.217483000029
 20
9825.1369529999993
 30
0.0
 40
15.0
 50
180.0
 51
0.0
  0
ARC
  5
361A
  8
0
  6
BYBLOCK
 62
     0
 10
20371.217483000029
 20
9825.1369529999993
 30
0.0
 40
15.0
 50
0.0
 51
180.0
  0
LINE
  5
3628
  8
SUNPOU
  6
CONTINUOUS
 62
     4
 10
10810.338996390161
 20
13996.43370899999
 30
0.0
 11
10810.338996390161
 21
12817.48390899999
 31
0.0
  0
LINE
  5
3629
  8
SUNPOU
  6
CONTINUOUS
 62
     4
 10
13899.33582839018
 20
13996.43370899999
 30
0.0
 11
13899.33582839018
 21
12817.48390899999
 31
0.0
  0
LINE
  5
362A
  8
SUNPOU
  6
CONTINUOUS
 62
     4
 10
10810.338996390161
 20
12897.48390899999
 30
0.0
 11
13899.33582839018
 21
12897.48390899999
 31
0.0
  0
TEXT
  5
362B
  8
0
  6
CONTINUOUS
 62
     7
 10
11552.170745723501
 20
12977.48390899999
 30
0.0
 40
160.0
  1
ケラバ外寸 3089
  0
ARC
  5
362C
  8
0
  6
BYBLOCK
 62
     0
 10
10810.338996390161
 20
12897.48390899999
 30
0.0
 40
15.0
 50
0.0
 51
180.0
  0
ARC
  5
362D
  8
0
  6
BYBLOCK
 62
     0
 10
10810.338996390161
 20
12897.48390899999
 30
0.0
 40
15.0
 50
180.0
 51
0.0
  0
ARC
  5
362E
  8
0
  6
BYBLOCK
 62
     0
 10
13899.33582839018
 20
12897.48390899999
 30
0.0
 40
15.0
 50
180.0
 51
0.0
  0
ARC
  5
362F
  8
0
  6
BYBLOCK
 62
     0
 10
13899.33582839018
 20
12897.48390899999
 30
0.0
 40
15.0
 50
0.0
 51
180.0
  0
TEXT
  5
3685
  8
NAME
 10
24033.053546554002
 20
1076.0
 30
0.0
 40
360.0
  1
H
 41
0.6700000000000002
  7
00
  0
TEXT
  5
3686
  8
NAME
 10
23657.221561973671
 20
1076.0
 30
0.0
 40
360.0
  1
（ ）
  7
01
  0
TEXT
  5
3687
  8
NAME
 10
24557.214549256722
 20
1076.0
 30
0.0
 40
360.0
  1
型（単棟）
  7
01
  0
TEXT
  5
3688
  8
NAME
 10
21933.552716388989
 20
1876.0
 30
0.0
 40
360.0
  1
ヨドガレージ ラヴィージュ
 41
0.75
  7
01
  0
TEXT
  5
3689
  8
NAME
 10
21816.08951584838
 20
1076.6369801169251
 30
0.0
 40
360.0
  1
VGC-3055
 41
0.6700000000000002
  0
LINE
  5
368A
  8
NAME
  6
CONTINUOUS
 10
26067.886878884288
 20
2236.0
 30
0.0
 11
26067.886878884288
 21
1876.0
 31
0.0
  0
LINE
  5
368B
  8
NAME
  6
CONTINUOUS
 10
26167.886878884288
 20
2236.0
 30
0.0
 11
26167.886878884288
 21
1876.0
 31
0.0
  0
LINE
  5
368C
  8
NAME
  6
CONTINUOUS
 10
26267.88687888431
 20
2236.0
 30
0.0
 11
26267.88687888431
 21
1876.0
 31
0.0
  0
LINE
  5
368D
  8
NAME
  6
CONTINUOUS
 10
26007.886878884288
 20
2236.0
 30
0.0
 11
26327.886878884288
 21
2236.0
 31
0.0
  0
LINE
  5
368E
  8
NAME
  6
CONTINUOUS
 10
26327.886878884288
 20
1876.0
 30
0.0
 11
26007.886878884288
 21
1876.0
 31
0.0
  0
TEXT
  5
3728
  8
FILENAME
  6
CONTINUOUS
 10
28756.38095238095
 20
348.0
 30
0.0
 40
200.0
  1
＜VGC-3055-1-A_0.DXF ＞
  7
FILENAME
 72
     2
 11
32764.0
 21
348.0
 31
0.0
  0
LINE
  5
372E
  8
WAKUSEN-01
 10
868.00000000000193
 20
827.99999999999955
 30
0.0
 11
32764.000000000011
 21
827.99999999999943
 31
0.0
  0
LINE
  5
372F
  8
WAKUSEN-01
 10
868.00000000000193
 20
827.99999999999955
 30
0.0
 11
868.00000000000193
 21
22484.000000000011
 31
0.0
  0
LINE
  5
3730
  8
WAKUSEN-01
 10
32764.000000000011
 20
827.99999999999943
 30
0.0
 11
32764.000000000011
 21
22484.000000000011
 31
0.0
  0
LINE
  5
3731
  8
WAKUSEN-01
 10
20560.0
 20
827.99999999999716
 30
0.0
 11
20560.0
 21
2484.0
 31
0.0
  0
LINE
  5
3732
  8
WAKUSEN-02
 10
26868.0
 20
827.99999999999261
 30
0.0
 11
26868.0
 21
2484.0
 31
0.0
  0
ENDSEC
  0
EOF
