  0
SECTION
  2
HEADER
  9
$ACADVER
  1
AC1009
  9
$INSBASE
 10
0.0
 20
0.0
 30
0.0
  9
$EXTMIN
 10
867.99324330406671
 20
327.38164749855792
 30
-0.0000000000000053
  9
$EXTMAX
 10
32765.33210850941
 20
22484.553276491992
 30
0.0000000000000099
  9
$LIMMIN
 10
0.0
 20
0.0
  9
$LIMMAX
 10
33600.0
 20
23760.0
  9
$ORTHOMODE
 70
     1
  9
$REGENMODE
 70
     1
  9
$FILLMODE
 70
     1
  9
$QTEXTMODE
 70
     0
  9
$MIRRTEXT
 70
     1
  9
$DRAGMODE
 70
     2
  9
$LTSCALE
 40
80.0
  9
$OSMODE
 70
  3071
  9
$ATTMODE
 70
     1
  9
$TEXTSIZE
 40
0.2
  9
$TRACEWID
 40
0.05
  9
$TEXTSTYLE
  7
00
  9
$CLAYER
  8
0
  9
$CELTYPE
  6
BYLAYER
  9
$CECOLOR
 62
   256
  9
$DIMSCALE
 40
80.0
  9
$DIMASZ
 40
3.0
  9
$DIMEXO
 40
1.0
  9
$DIMDLI
 40
0.38
  9
$DIMRND
 40
0.5
  9
$DIMDLE
 40
0.0
  9
$DIMEXE
 40
1.0
  9
$DIMTP
 40
0.0
  9
$DIMTM
 40
0.0
  9
$DIMTXT
 40
2.0
  9
$DIMCEN
 40
0.09
  9
$DIMTSZ
 40
0.0
  9
$DIMTOL
 70
     0
  9
$DIMLIM
 70
     0
  9
$DIMTIH
 70
     0
  9
$DIMTOH
 70
     0
  9
$DIMSE1
 70
     0
  9
$DIMSE2
 70
     0
  9
$DIMTAD
 70
     1
  9
$DIMZIN
 70
     8
  9
$DIMBLK
  1
DOTSMALL
  9
$DIMASO
 70
     1
  9
$DIMSHO
 70
     1
  9
$DIMPOST
  1

  9
$DIMAPOST
  1

  9
$DIMALT
 70
     0
  9
$DIMALTD
 70
     2
  9
$DIMALTF
 40
25.399999999999999
  9
$DIMLFAC
 40
1.0
  9
$DIMTOFL
 70
     1
  9
$DIMTVP
 40
0.0
  9
$DIMTIX
 70
     0
  9
$DIMSOXD
 70
     0
  9
$DIMSAH
 70
     0
  9
$DIMBLK1
  1

  9
$DIMBLK2
  1

  9
$DIMSTYLE
  2
SUNPOU
  9
$DIMCLRD
 70
     4
  9
$DIMCLRE
 70
     4
  9
$DIMCLRT
 70
     7
  9
$DIMTFAC
 40
1.0
  9
$DIMGAP
 40
1.0
  9
$LUNITS
 70
     2
  9
$LUPREC
 70
     4
  9
$SKETCHINC
 40
0.1
  9
$FILLETRAD
 40
0.0
  9
$AUNITS
 70
     0
  9
$AUPREC
 70
     0
  9
$MENU
  1
acad
  9
$ELEVATION
 40
0.0
  9
$PELEVATION
 40
0.0
  9
$THICKNESS
 40
0.0
  9
$LIMCHECK
 70
     0
  9
$BLIPMODE
 70
     1
  9
$CHAMFERA
 40
0.0
  9
$CHAMFERB
 40
0.0
  9
$SKPOLY
 70
     0
  9
$TDCREATE
 40
2311940.0750512271
  9
$TDUPDATE
 40
2458942.4466488771
  9
$TDINDWG
 40
0.044510706
  9
$TDUSRTIMER
 40
0.0445101505
  9
$USRTIMER
 70
     1
  9
$ANGBASE
 50
0.0
  9
$ANGDIR
 70
     0
  9
$PDMODE
 70
     0
  9
$PDSIZE
 40
0.0
  9
$PLINEWID
 40
0.0
  9
$COORDS
 70
     1
  9
$SPLFRAME
 70
     0
  9
$SPLINETYPE
 70
     6
  9
$SPLINESEGS
 70
     8
  9
$ATTDIA
 70
     1
  9
$ATTREQ
 70
     1
  9
$HANDLING
 70
     1
  9
$HANDSEED
  5
3FA0
  9
$SURFTAB1
 70
     6
  9
$SURFTAB2
 70
     6
  9
$SURFTYPE
 70
     6
  9
$SURFU
 70
     6
  9
$SURFV
 70
     6
  9
$UCSNAME
  2

  9
$UCSORG
 10
0.0
 20
0.0
 30
0.0
  9
$UCSXDIR
 10
1.0
 20
0.0
 30
0.0
  9
$UCSYDIR
 10
0.0
 20
1.0
 30
0.0
  9
$PUCSNAME
  2

  9
$PUCSORG
 10
0.0
 20
0.0
 30
0.0
  9
$PUCSXDIR
 10
1.0
 20
0.0
 30
0.0
  9
$PUCSYDIR
 10
0.0
 20
1.0
 30
0.0
  9
$USERI1
 70
     0
  9
$USERI2
 70
     0
  9
$USERI3
 70
     0
  9
$USERI4
 70
     0
  9
$USERI5
 70
     0
  9
$USERR1
 40
0.0
  9
$USERR2
 40
0.0
  9
$USERR3
 40
0.0
  9
$USERR4
 40
0.0
  9
$USERR5
 40
0.0
  9
$WORLDVIEW
 70
     1
  9
$SHADEDGE
 70
     3
  9
$SHADEDIF
 70
    70
  9
$TILEMODE
 70
     1
  9
$MAXACTVP
 70
    16
  9
$PLIMCHECK
 70
     0
  9
$PEXTMIN
 10
1.0000000000000000E+020
 20
1.0000000000000000E+020
 30
1.0000000000000000E+020
  9
$PEXTMAX
 10
-1.0000000000000000E+020
 20
-1.0000000000000000E+020
 30
-1.0000000000000000E+020
  9
$PLIMMIN
 10
0.0
 20
0.0
  9
$PLIMMAX
 10
12.0
 20
9.0
  9
$UNITMODE
 70
     0
  9
$VISRETAIN
 70
     0
  9
$PLINEGEN
 70
     1
  9
$PSLTSCALE
 70
     0
  0
ENDSEC
  0
SECTION
  2
TABLES
  0
TABLE
  2
VPORT
 70
     1
  0
VPORT
  2
*ACTIVE
 70
     0
 10
0.0
 20
0.0
 11
1.0
 21
1.0
 12
16800.0
 22
11880.0
 13
0.0
 23
0.0
 14
1.0
 24
1.0
 15
0.0
 25
0.0
 16
0.0
 26
0.0
 36
1.0
 17
0.0
 27
0.0
 37
0.0
 40
23981.023255813951
 41
2.195652173913043
 42
50.0
 43
0.0
 44
0.0
 50
0.0
 51
0.0
 71
     0
 72
 10000
 73
     1
 74
     1
 75
     0
 76
     0
 77
     0
 78
     0
  0
ENDTAB
  0
TABLE
  2
LTYPE
 70
     3
  0
LTYPE
  2
CONTINUOUS
 70
     0
  3
Solid line
 72
    65
 73
     0
 40
0.0
  0
LTYPE
  2
DASHED3
 70
     0
  3
------  ------  ------  ------  
 72
    65
 73
     2
 40
5.0
 49
3.75
 49
-1.25
  0
LTYPE
  2
CENTER2
 70
     0
  3
----------  --  ----------  --  
 72
    65
 73
     4
 40
20.0
 49
12.5
 49
-2.5
 49
2.5
 49
-2.5
  0
ENDTAB
  0
TABLE
  2
LAYER
 70
    17
  0
LAYER
  2
0
 70
     0
 62
     7
  6
CONTINUOUS
  0
LAYER
  2
SUNPOU
 70
     0
 62
     4
  6
CONTINUOUS
  0
LAYER
  2
0-1
 70
     0
 62
     7
  6
CONTINUOUS
  0
LAYER
  2
0-2
 70
     0
 62
     7
  6
CONTINUOUS
  0
LAYER
  2
0-5
 70
     0
 62
     7
  6
CONTINUOUS
  0
LAYER
  2
0-0
 70
     0
 62
     7
  6
CONTINUOUS
  0
LAYER
  2
0-6
 70
     0
 62
     7
  6
CONTINUOUS
  0
LAYER
  2
2-0
 70
     0
 62
     7
  6
CONTINUOUS
  0
LAYER
  2
YODOROGO
 70
     0
 62
   130
  6
CONTINUOUS
  0
LAYER
  2
WAKUSEN-01
 70
     0
 62
    50
  6
CONTINUOUS
  0
LAYER
  2
WAKUSEN-02
 70
     0
 62
   130
  6
CONTINUOUS
  0
LAYER
  2
WAKUMOJI-01
 70
     0
 62
   130
  6
CONTINUOUS
  0
LAYER
  2
FILENAME
 70
     0
 62
     7
  6
CONTINUOUS
  0
LAYER
  2
NAME
 70
     0
 62
    20
  6
CONTINUOUS
  0
LAYER
  2
0-4
 70
     0
 62
     7
  6
CONTINUOUS
  0
ENDTAB
  0
TABLE
  2
STYLE
 70
     5
  0
STYLE
  2
STANDARD
 70
     0
 40
0.0
 41
1.0
 50
0.0
 71
     0
 42
0.0
  3
txt
  4
BIGFONT
  0
STYLE
  2
00
 70
     0
 40
0.0
 41
0.6666666666666666
 50
0.0
 71
     0
 42
0.2
  3
ROMANS
  4
BIGFONT
  0
STYLE
  2
01
 70
     0
 40
3.0
 41
1.0
 50
0.0
 71
     0
 42
0.2
  3
ROMANS
  4
BIGFONT
  0
STYLE
  2
WAKUMOJI
 70
     0
 40
3.0
 41
1.0
 50
0.0
 71
     0
 42
3.0
  3
SIMPLEX
  4
BIGFONT
  0
STYLE
  2
FILENAME
 70
     0
 40
200.0
 41
1.0
 50
0.0
 71
     0
 42
200.0
  3
romans
  4
bigfont
  0
ENDTAB
  0
TABLE
  2
VIEW
 70
     0
  0
ENDTAB
  0
TABLE
  2
UCS
 70
     0
  0
ENDTAB
  0
TABLE
  2
APPID
 70
    13
  0
APPID
  2
ACAD
 70
     0
  0
APPID
  2
ACADANNOTATIVE
 70
     0
  0
APPID
  2
ACAD_PSEXT
 70
     0
  0
APPID
  2
DCO15
 70
     0
  0
APPID
  2
ACAD_MLEADERVER
 70
     0
  0
APPID
  2
AUTOCAD_POSTSCRIPT_FIGURE
 70
     0
  0
APPID
  2
ACAD_EXEMPT_FROM_CAD_STANDARDS
 70
     0
  0
APPID
  2
ACAD_DSTYLE_DIMJAG
 70
     0
  0
APPID
  2
ACAD_DSTYLE_DIMTALN
 70
     0
  0
APPID
  2
ACAD_DSTYLE_DIM_LINETYPE
 70
     0
  0
APPID
  2
ACAD_DSTYLE_DIM_EXT1_LINETYPE
 70
     0
  0
APPID
  2
ACAD_DSTYLE_DIM_EXT2_LINETYPE
 70
     0
  0
APPID
  2
ACAD_NAV_VCDISPLAY
 70
     0
  0
ENDTAB
  0
TABLE
  2
DIMSTYLE
 70
     2
  0
DIMSTYLE
  2
SUNPOU
 70
     0
  3

  4

  5

  6

  7

 40
80.0
 41
3.0
 42
1.0
 43
0.38
 44
1.0
 45
0.5
 46
0.0
 47
0.0
 48
0.0
140
2.0
141
0.09
142
0.0
143
25.399999999999999
144
1.0
145
0.0
146
1.0
147
1.0
 71
     0
 72
     0
 73
     0
 74
     0
 75
     0
 76
     0
 77
     1
 78
     8
170
     0
171
     2
172
     1
173
     0
174
     0
175
     0
176
     4
177
     4
178
     7
  0
ENDTAB
  0
ENDSEC
  0
SECTION
  2
BLOCKS
  0
BLOCK
  8
0
  2
$MODEL_SPACE
 70
     0
 10
0.0
 20
0.0
 30
0.0
  3
$MODEL_SPACE
  1

  0
ENDBLK
  5
341B
  8
0
  0
BLOCK
 67
     1
  8
0
  2
$PAPER_SPACE
 70
     0
 10
0.0
 20
0.0
 30
0.0
  3
$PAPER_SPACE
  1

  0
ENDBLK
  5
3417
 67
     1
  8
0
  0
BLOCK
  8
0
  2
_DOTSMALL
 70
     0
 10
0.0
 20
0.0
 30
0.0
  3
_DOTSMALL
  1

  0
POLYLINE
  5
344A
  8
0
  6
BYBLOCK
 62
     0
 66
     1
 10
0.0
 20
0.0
 30
0.0
 70
     1
 40
0.5
 41
0.5
  0
VERTEX
  5
3F68
  8
0
  6
BYBLOCK
 62
     0
 10
-0.0625
 20
0.0
 30
0.0
 42
1.0
  0
VERTEX
  5
3F69
  8
0
  6
BYBLOCK
 62
     0
 10
0.0625
 20
0.0
 30
0.0
 42
1.0
  0
SEQEND
  5
3F6A
  8
0
  6
BYBLOCK
 62
     0
  0
ENDBLK
  5
344E
  8
0
  0
ENDSEC
  0
SECTION
  2
ENTITIES
  0
LINE
  5
344F
  8
0-1
  6
CONTINUOUS
 62
     3
 10
9149.6604854999914
 20
17358.229145000001
 30
0.0
 11
13576.553472499991
 21
17358.229145000001
 31
0.0
  0
LINE
  5
3450
  8
0-1
  6
CONTINUOUS
 62
     3
 10
9199.6601154999935
 20
14245.731546999979
 30
0.0
 11
9199.6601154999935
 21
20056.230887999969
 31
0.0
  0
LINE
  5
3451
  8
0-1
  6
CONTINUOUS
 62
     3
 10
9064.1620684999907
 20
14213.73164
 30
0.0
 11
9064.1620684999907
 21
20104.230254999991
 31
0.0
  0
LINE
  5
3452
  8
0-1
  6
CONTINUOUS
 62
     3
 10
9137.6606034999859
 20
20104.230254999991
 30
0.0
 11
13946.161356500001
 21
20104.230254999999
 31
0.0
  0
LINE
  5
3453
  8
0-1
  6
CONTINUOUS
 62
     3
 10
11634.19045549998
 20
18491.779742999999
 30
0.0
 11
11760.93210149999
 21
18707.272115
 31
0.0
  0
LINE
  5
3454
  8
0-1
  6
CONTINUOUS
 62
     3
 10
12369.40840049999
 20
17769.318804999992
 30
0.0
 11
12496.151036499979
 21
17984.809197999992
 31
0.0
  0
LINE
  5
3455
  8
0-1
  6
CONTINUOUS
 62
     3
 10
12369.40840049999
 20
17769.318804999992
 30
0.0
 11
11760.93210149999
 21
18707.272115
 31
0.0
  0
LINE
  5
3456
  8
0-1
  6
CONTINUOUS
 62
     3
 10
9149.6604854999914
 20
17279.228537999988
 30
0.0
 11
13723.36749049999
 21
17279.228537999988
 31
0.0
  0
LINE
  5
3457
  8
0-1
  6
CONTINUOUS
 62
     3
 10
9107.1612104999913
 20
14369.732550000001
 30
0.0
 11
13976.6597595
 21
14369.732550000001
 31
0.0
  0
LINE
  5
3458
  8
0-1
  6
CONTINUOUS
 62
     3
 10
9149.6604854999914
 20
14448.731177999991
 30
0.0
 11
13934.16048549999
 21
14448.731177999991
 31
0.0
  0
LINE
  5
3459
  8
0-1
  6
CONTINUOUS
 62
     3
 10
9064.1620684999907
 20
14213.73164
 30
0.0
 11
14019.6608815
 21
14213.73164
 31
0.0
  0
LINE
  5
345A
  8
0-1
  6
CONTINUOUS
 62
     3
 10
9064.1620684999907
 20
14245.731546999979
 30
0.0
 11
14019.6608815
 21
14245.731546999979
 31
0.0
  0
LINE
  5
345B
  8
0-1
  6
CONTINUOUS
 62
     3
 10
9149.6604854999914
 20
14369.732550000001
 30
0.0
 11
9149.6604854999914
 21
19631.67363999999
 31
0.0
  0
LINE
  5
345C
  8
0-1
  6
CONTINUOUS
 62
     3
 10
9107.1612104999913
 20
14369.732550000001
 30
0.0
 11
9107.1612104999913
 21
19651.251078999991
 31
0.0
  0
LINE
  5
345D
  8
0-1
  6
CONTINUOUS
 62
     3
 10
9219.6622004999936
 20
14406.230913999991
 30
0.0
 11
11997.661738499981
 21
17324.230914
 31
0.0
  0
LINE
  5
345E
  8
0-1
  6
CONTINUOUS
 62
     3
 10
11997.661738499981
 20
14406.230913999991
 30
0.0
 11
9219.6622004999936
 21
17324.230914
 31
0.0
  0
LINE
  5
345F
  8
0-1
  6
CONTINUOUS
 62
     3
 10
13864.160749500001
 20
14406.230913999991
 30
0.0
 11
12137.66022149998
 21
17324.230914
 31
0.0
  0
LINE
  5
3460
  8
0-1
  6
CONTINUOUS
 62
     3
 10
13976.6597595
 20
14369.732550000001
 30
0.0
 11
13976.6597595
 21
17134.557401999991
 31
0.0
  0
LINE
  5
3461
  8
0-1
  6
CONTINUOUS
 62
     3
 10
13934.16048549999
 20
14369.732550000001
 30
0.0
 11
13934.16048549999
 21
17158.834218
 31
0.0
  0
LINE
  5
3462
  8
0-1
  6
CONTINUOUS
 62
     3
 10
14019.6608815
 20
14213.73164
 30
0.0
 11
14019.6608815
 21
20104.230254999991
 31
0.0
  0
LINE
  5
3463
  8
0-1
  6
CONTINUOUS
 62
     3
 10
13884.159865499991
 20
14245.731546999979
 30
0.0
 11
13884.159865499991
 21
20056.230887999969
 31
0.0
  0
LINE
  5
3464
  8
0-1
  6
CONTINUOUS
 62
     3
 10
11634.19045549998
 20
18491.779742999999
 30
0.0
 11
8915.9654494999868
 21
19739.325798999991
 31
0.0
  0
LINE
  5
3465
  8
0-1
  6
CONTINUOUS
 62
     3
 10
10865.800727499991
 20
18845.73943999999
 30
0.0
 11
9219.6622004999936
 21
17324.230914
 31
0.0
  0
LINE
  5
3466
  8
0-1
  6
CONTINUOUS
 62
     3
 10
9860.3270284999799
 20
19308.913135999988
 30
0.0
 11
11997.661738499981
 21
17324.230914
 31
0.0
  0
LINE
  5
3467
  8
0-1
  6
CONTINUOUS
 62
     3
 10
9082.1608414999882
 20
20056.230887999969
 30
0.0
 11
14001.66012949998
 21
20056.230887999969
 31
0.0
  0
LINE
  5
3468
  8
0-1
  6
CONTINUOUS
 62
     3
 10
9082.1608414999882
 20
20074.228671000001
 30
0.0
 11
9132.663309499987
 21
20074.228671000001
 31
0.0
  0
LINE
  5
3469
  8
0-1
  6
CONTINUOUS
 62
     3
 10
9082.1608414999882
 20
20096.731837999989
 30
0.0
 11
9064.1620684999907
 21
20096.731837999989
 31
0.0
  0
LINE
  5
346A
  8
0-1
  6
CONTINUOUS
 62
     3
 10
9132.663309499987
 20
20114.230781999991
 30
0.0
 11
9069.1623324999964
 21
20114.230781999991
 31
0.0
  0
LINE
  5
346B
  8
0-1
  6
CONTINUOUS
 62
     3
 10
9064.1620684999907
 20
20109.230518
 30
0.0
 11
9064.1620684999907
 21
20074.228671000001
 31
0.0
  0
LINE
  5
346C
  8
0-1
  6
CONTINUOUS
 62
     3
 10
9137.6606034999877
 20
20079.230913999989
 30
0.0
 11
9137.6606034999877
 21
20109.230518
 31
0.0
  0
LINE
  5
346D
  8
0-1
  6
CONTINUOUS
 62
     3
 10
9082.1608414999882
 20
19661.386213999991
 30
0.0
 11
9082.1608414999882
 21
20096.731837999989
 31
0.0
  0
LINE
  5
346E
  8
0-1
  6
CONTINUOUS
 62
     3
 10
13951.16162049999
 20
20114.230781999991
 30
0.0
 11
14014.6606175
 21
20114.230781999991
 31
0.0
  0
LINE
  5
346F
  8
0-1
  6
CONTINUOUS
 62
     3
 10
14019.6608815
 20
20109.230518
 30
0.0
 11
14019.6608815
 21
20074.228671000001
 31
0.0
  0
LINE
  5
3470
  8
0-1
  6
CONTINUOUS
 62
     3
 10
14001.66012949998
 20
20074.228671000001
 30
0.0
 11
13951.16162049999
 21
20074.228671000001
 31
0.0
  0
LINE
  5
3471
  8
0-1
  6
CONTINUOUS
 62
     3
 10
13946.161356500001
 20
20079.230913999989
 30
0.0
 11
13946.161356500001
 21
20109.230518
 31
0.0
  0
LINE
  5
3472
  8
0-1
  6
CONTINUOUS
 62
     3
 10
14001.66012949998
 20
20096.731837999989
 30
0.0
 11
14019.6608815
 21
20096.731837999989
 31
0.0
  0
LINE
  5
3473
  8
0-1
  6
CONTINUOUS
 62
     3
 10
14001.66012949998
 20
17121.995376999999
 30
0.0
 11
14001.66012949998
 21
20096.731837999989
 31
0.0
  0
LINE
  5
3474
  8
0-1
  6
CONTINUOUS
 62
     3
 10
12010.66024749998
 20
14448.731177999991
 30
0.0
 11
12010.66024749998
 21
17279.228537999988
 31
0.0
  0
LINE
  5
3475
  8
0-1
  6
CONTINUOUS
 62
     3
 10
12124.66171249999
 20
14448.731177999991
 30
0.0
 11
12124.66171249999
 21
17279.228537999988
 31
0.0
  0
LINE
  5
3476
  8
0-1
  6
CONTINUOUS
 62
     3
 10
12067.66048549998
 20
14448.731177999991
 30
0.0
 11
12067.66048549998
 21
14369.732550000001
 31
0.0
  0
LINE
  5
3477
  8
0-1
  6
CONTINUOUS
 62
     3
 10
12067.66048549998
 20
14448.731177999991
 30
0.0
 11
12067.66048549998
 21
17279.228537999988
 31
0.0
  0
LINE
  5
3478
  8
0-1
  6
CONTINUOUS
 62
     3
 10
12124.66171249999
 20
17358.229145000001
 30
0.0
 11
12124.66171249999
 21
18146.59129199999
 31
0.0
  0
LINE
  5
3479
  8
0-1
  6
CONTINUOUS
 62
     3
 10
12010.66024749998
 20
17358.229145000001
 30
0.0
 11
12010.66024749998
 21
18322.321075
 31
0.0
  0
LINE
  5
347A
  8
0-1
  6
CONTINUOUS
 62
     3
 10
12067.66048549998
 20
17358.229145000001
 30
0.0
 11
12067.66048549998
 21
18234.454203999991
 31
0.0
  0
LINE
  5
347B
  8
0-1
  6
CONTINUOUS
 62
     3
 10
12067.66048549998
 20
17279.228537999988
 30
0.0
 11
12067.66048549998
 21
17358.229145000001
 31
0.0
  0
LINE
  5
347C
  8
0-1
  6
CONTINUOUS
 62
     3
 10
12324.16155449999
 20
17839.067142
 30
0.0
 11
12324.16155449999
 21
20056.230887999969
 31
0.0
  0
LINE
  5
347D
  8
0-1
  6
CONTINUOUS
 62
     3
 10
12361.15974649999
 20
17782.031272999971
 30
0.0
 11
12361.15974649999
 21
20056.230887999969
 31
0.0
  0
LINE
  5
347E
  8
0-1
  6
CONTINUOUS
 62
     3
 10
12524.161224499991
 20
17968.81072899999
 30
0.0
 11
12524.161224499991
 21
20056.230887999969
 31
0.0
  0
LINE
  5
347F
  8
0-1
  6
CONTINUOUS
 62
     3
 10
12561.160406499979
 20
17947.679368000001
 30
0.0
 11
12561.160406499979
 21
20056.230887999969
 31
0.0
  0
LINE
  5
3480
  8
0-1
  6
CONTINUOUS
 62
     3
 10
12724.160894499981
 20
17854.578649999981
 30
0.0
 11
12724.160894499981
 21
20056.230887999969
 31
0.0
  0
LINE
  5
3481
  8
0-1
  6
CONTINUOUS
 62
     3
 10
12761.16106549998
 20
17833.447288999989
 30
0.0
 11
12761.16106549998
 21
20056.230887999969
 31
0.0
  0
LINE
  5
3482
  8
0-1
  6
CONTINUOUS
 62
     3
 10
12924.16155449996
 20
17740.348550999981
 30
0.0
 11
12924.16155449996
 21
20056.230887999969
 31
0.0
  0
LINE
  5
3483
  8
0-1
  6
CONTINUOUS
 62
     3
 10
12961.15974649999
 20
17719.217189999981
 30
0.0
 11
12961.15974649999
 21
20056.230887999969
 31
0.0
  0
LINE
  5
3484
  8
0-1
  6
CONTINUOUS
 62
     3
 10
13124.161224499991
 20
17626.118450999991
 30
0.0
 11
13124.161224499991
 21
20056.230887999969
 31
0.0
  0
LINE
  5
3485
  8
0-1
  6
CONTINUOUS
 62
     3
 10
13161.160406499979
 20
17595.484345000001
 30
0.0
 11
13161.160406499979
 21
20056.230887999969
 31
0.0
  0
LINE
  5
3486
  8
0-1
  6
CONTINUOUS
 62
     3
 10
13324.16089449999
 20
17502.38362700001
 30
0.0
 11
13324.16089449999
 21
20056.230887999969
 31
0.0
  0
LINE
  5
3487
  8
0-1
  6
CONTINUOUS
 62
     3
 10
13361.16205549999
 20
17481.252265999981
 30
0.0
 11
13361.16205549999
 21
20056.230887999969
 31
0.0
  0
LINE
  5
3488
  8
0-1
  6
CONTINUOUS
 62
     3
 10
13524.16155449998
 20
17388.151548000009
 30
0.0
 11
13524.16155449998
 21
20056.230887999969
 31
0.0
  0
LINE
  5
3489
  8
0-1
  6
CONTINUOUS
 62
     3
 10
13561.15974649999
 20
17367.020186999991
 30
0.0
 11
13561.15974649999
 21
20056.230887999969
 31
0.0
  0
LINE
  5
348A
  8
0-1
  6
CONTINUOUS
 62
     3
 10
13732.660340500001
 20
17273.923428999991
 30
0.0
 11
13732.660340500001
 21
20056.230887999969
 31
0.0
  0
LINE
  5
348B
  8
0-1
  6
CONTINUOUS
 62
     3
 10
13769.6595225
 20
17252.790088000009
 30
0.0
 11
13769.6595225
 21
20056.230887999969
 31
0.0
  0
LINE
  5
348C
  8
0-1
  6
CONTINUOUS
 62
     3
 10
12124.15990449998
 20
17751.172557999991
 30
0.0
 11
12124.15990449998
 21
20056.230887999969
 31
0.0
  0
LINE
  5
348D
  8
0-1
  6
CONTINUOUS
 62
     3
 10
12161.16106549998
 20
18090.327436
 30
0.0
 11
12161.16106549998
 21
20056.230887999969
 31
0.0
  0
LINE
  5
348E
  8
0-1
  6
CONTINUOUS
 62
     3
 10
10124.16221449998
 20
19187.376632999982
 30
0.0
 11
10124.16221449998
 21
20056.230887999969
 31
0.0
  0
LINE
  5
348F
  8
0-1
  6
CONTINUOUS
 62
     3
 10
10524.16056449998
 20
19003.11512599999
 30
0.0
 11
10524.16056449998
 21
20056.230887999969
 31
0.0
  0
LINE
  5
3490
  8
0-1
  6
CONTINUOUS
 62
     3
 10
10561.15875649999
 20
18986.073449999982
 30
0.0
 11
10561.15875649999
 21
20056.230887999969
 31
0.0
  0
LINE
  5
3491
  8
0-1
  6
CONTINUOUS
 62
     3
 10
10724.16023449999
 20
18910.984371999992
 30
0.0
 11
10724.16023449999
 21
20056.230887999969
 31
0.0
  0
LINE
  5
3492
  8
0-1
  6
CONTINUOUS
 62
     3
 10
10761.160406499979
 20
18893.942695999991
 30
0.0
 11
10761.160406499979
 21
20056.230887999969
 31
0.0
  0
LINE
  5
3493
  8
0-1
  6
CONTINUOUS
 62
     3
 10
10161.15941649997
 20
19170.33297799998
 30
0.0
 11
10161.15941649997
 21
20056.230887999969
 31
0.0
  0
LINE
  5
3494
  8
0-1
  6
CONTINUOUS
 62
     3
 10
10324.159904499969
 20
19095.245879999991
 30
0.0
 11
10324.159904499969
 21
20056.230887999969
 31
0.0
  0
LINE
  5
3495
  8
0-1
  6
CONTINUOUS
 62
     3
 10
10361.16106549998
 20
19078.200245
 30
0.0
 11
10361.16106549998
 21
20056.230887999969
 31
0.0
  0
LINE
  5
3496
  8
0-1
  6
CONTINUOUS
 62
     3
 10
11761.15974649999
 20
18706.91975999999
 30
0.0
 11
11761.15974649999
 21
20056.230887999969
 31
0.0
  0
LINE
  5
3497
  8
0-1
  6
CONTINUOUS
 62
     3
 10
11724.16155449998
 20
18644.752978999979
 30
0.0
 11
11724.16155449998
 21
20056.230887999969
 31
0.0
  0
LINE
  5
3498
  8
0-1
  6
CONTINUOUS
 62
     3
 10
11561.16106549998
 20
18525.42363999999
 30
0.0
 11
11561.16106549998
 21
20056.230887999969
 31
0.0
  0
LINE
  5
3499
  8
0-1
  6
CONTINUOUS
 62
     3
 10
11524.15990449998
 20
18542.465315999991
 30
0.0
 11
11524.15990449998
 21
20056.230887999969
 31
0.0
  0
LINE
  5
349A
  8
0-1
  6
CONTINUOUS
 62
     3
 10
11361.160406499979
 20
18617.55043499999
 30
0.0
 11
11361.160406499979
 21
20056.230887999969
 31
0.0
  0
LINE
  5
349B
  8
0-1
  6
CONTINUOUS
 62
     3
 10
11324.16221449998
 20
18634.59607
 30
0.0
 11
11324.16221449998
 21
20056.230887999969
 31
0.0
  0
LINE
  5
349C
  8
0-1
  6
CONTINUOUS
 62
     3
 10
11161.160736499991
 20
18709.683167999981
 30
0.0
 11
11161.160736499991
 21
20056.230887999969
 31
0.0
  0
LINE
  5
349D
  8
0-1
  6
CONTINUOUS
 62
     3
 10
11124.16056449998
 20
18726.72682299999
 30
0.0
 11
11124.16056449998
 21
20056.230887999969
 31
0.0
  0
LINE
  5
349E
  8
0-1
  6
CONTINUOUS
 62
     3
 10
10961.16106549998
 20
18801.81392199999
 30
0.0
 11
10961.16106549998
 21
20056.230887999969
 31
0.0
  0
LINE
  5
349F
  8
0-1
  6
CONTINUOUS
 62
     3
 10
10924.15990449998
 20
18818.857576999992
 30
0.0
 11
10924.15990449998
 21
20056.230887999969
 31
0.0
  0
LINE
  5
34A0
  8
0-1
  6
CONTINUOUS
 62
     3
 10
11924.16221449998
 20
18455.659467000001
 30
0.0
 11
11924.16221449998
 21
20056.230887999969
 31
0.0
  0
LINE
  5
34A1
  8
0-1
  6
CONTINUOUS
 62
     3
 10
11961.160406499979
 20
18398.62161899999
 30
0.0
 11
11961.160406499979
 21
20056.230887999969
 31
0.0
  0
LINE
  5
34A2
  8
0-1
  6
CONTINUOUS
 62
     3
 10
9724.1599044999784
 20
19371.634181999991
 30
0.0
 11
9724.1599044999784
 21
20056.230887999969
 31
0.0
  0
LINE
  5
34A3
  8
0-1
  6
CONTINUOUS
 62
     3
 10
9761.1610654999877
 20
19354.59250599999
 30
0.0
 11
9761.1610654999877
 21
20056.230887999969
 31
0.0
  0
LINE
  5
34A4
  8
0-1
  6
CONTINUOUS
 62
     3
 10
9924.1605644999927
 20
19279.507387000001
 30
0.0
 11
9924.1605644999927
 21
20056.230887999969
 31
0.0
  0
LINE
  5
34A5
  8
0-1
  6
CONTINUOUS
 62
     3
 10
9961.15875649999
 20
19262.463731999978
 30
0.0
 11
9961.15875649999
 21
20056.230887999969
 31
0.0
  0
LINE
  5
34A6
  8
0-1
  6
CONTINUOUS
 62
     3
 10
9524.1612244999869
 20
19463.764936
 30
0.0
 11
9524.1612244999869
 21
20056.230887999969
 31
0.0
  0
LINE
  5
34A7
  8
0-1
  6
CONTINUOUS
 62
     3
 10
9561.1594164999879
 20
19446.723259999999
 30
0.0
 11
9561.1594164999879
 21
20056.230887999969
 31
0.0
  0
LINE
  5
34A8
  8
0-1
  6
CONTINUOUS
 62
     3
 10
9314.1614484999936
 20
19555.89568999999
 30
0.0
 11
9314.1614484999936
 21
20056.230887999969
 31
0.0
  0
LINE
  5
34A9
  8
0-1
  6
CONTINUOUS
 62
     3
 10
9351.1606304999914
 20
19538.850054999992
 30
0.0
 11
9351.1606304999914
 21
20056.230887999969
 31
0.0
  0
LINE
  5
34AA
  8
0-1
  6
CONTINUOUS
 62
     3
 10
14094.7528895
 20
17067.111245
 30
0.0
 11
12496.151036499979
 21
17984.809197999992
 31
0.0
  0
LINE
  5
34AB
  8
0-1
  6
CONTINUOUS
 62
     3
 10
12137.66022149998
 20
17324.230914
 30
0.0
 11
12553.09485749998
 21
17952.285706999992
 31
0.0
  0
LINE
  5
34AC
  8
0-1
  6
CONTINUOUS
 62
     3
 10
12137.66022149998
 20
14406.230913999991
 30
0.0
 11
13808.761942499999
 21
17230.455180000001
 31
0.0
  0
LINE
  5
34AD
  8
0-1
  6
CONTINUOUS
 62
     3
 10
11982.65995749998
 20
20056.230887999969
 30
0.0
 11
11982.65995749998
 21
20104.230254999991
 31
0.0
  0
LINE
  5
34AE
  8
0-1
  6
CONTINUOUS
 62
     3
 10
12067.66048549998
 20
14369.732550000001
 30
0.0
 11
12067.66048549998
 21
14213.73164
 31
0.0
  0
LINE
  5
34AF
  8
0-6
  6
CONTINUOUS
 62
     6
 10
10942.04683449999
 20
17512.057534
 30
0.0
 11
10880.89752649999
 21
17683.32653799999
 31
0.0
  0
LINE
  5
34B0
  8
0-6
  6
CONTINUOUS
 62
     6
 10
10777.903174499979
 20
19831.953411999992
 30
0.0
 11
10921.80724649999
 21
20344.23104599999
 31
0.0
  0
LINE
  5
34B1
  8
0-6
  6
CONTINUOUS
 62
     6
 10
10364.75884049999
 20
19937.730966999981
 30
0.0
 11
10070.82903449999
 21
20344.23104599999
 31
0.0
  0
LINE
  5
34B2
  8
0-6
  6
CONTINUOUS
 62
     6
 10
10921.80724649999
 20
20344.23104599999
 30
0.0
 11
11439.494905499991
 21
20344.23104599999
 31
0.0
  0
LINE
  5
34B3
  8
0-6
  6
CONTINUOUS
 62
     6
 10
10311.492965499971
 20
20234.13220199999
 30
0.0
 11
10102.29942149998
 21
20596.465262999991
 31
0.0
  0
LINE
  5
34B4
  8
0-6
  6
CONTINUOUS
 62
     6
 10
10028.29313949997
 20
20724.650967999991
 30
0.0
 11
9832.2356804999908
 21
21064.231442
 31
0.0
  0
LINE
  5
34B5
  8
0-6
  6
CONTINUOUS
 62
     6
 10
9832.2356804999908
 20
21064.231442
 30
0.0
 11
10674.673259499979
 21
21064.231442
 31
0.0
  0
LINE
  5
34B6
  8
0-6
  6
CONTINUOUS
 62
     6
 10
9260.8302484999967
 20
20344.23104599999
 30
0.0
 11
10070.82903449999
 21
20344.23104599999
 31
0.0
  0
LINE
  5
34B7
  8
0-6
  6
CONTINUOUS
 62
     6
 10
10080.32676449998
 20
17683.32653799999
 30
0.0
 11
10880.89752649999
 21
17683.32653799999
 31
0.0
  0
LINE
  5
34B8
  8
0-6
  6
CONTINUOUS
 62
     6
 10
9314.1891614999913
 20
18470.347494999991
 30
0.0
 11
9844.1890034999869
 21
18470.347494999991
 31
0.0
  0
LINE
  5
34B9
  8
0-6
  6
CONTINUOUS
 62
     6
 10
9960.0432974999821
 20
14600.62161799999
 30
0.0
 11
10042.92969949997
 21
14787.558023
 31
0.0
  0
LINE
  5
34BA
  8
0-6
  6
CONTINUOUS
 62
     6
 10
10042.92969949997
 20
14787.558023
 30
0.0
 11
10842.92838049999
 21
14787.558023
 31
0.0
  0
LINE
  5
34BB
  8
0-6
  6
CONTINUOUS
 62
     6
 10
10950.453849499991
 20
13413.73098
 30
0.0
 11
11813.03303049999
 21
13413.73098
 31
0.0
  0
LINE
  5
34BC
  8
0-6
  6
CONTINUOUS
 62
     6
 10
10544.341756499991
 20
14077.26263899999
 30
0.0
 11
10950.453849499991
 21
13413.73098
 31
0.0
  0
LINE
  5
34BD
  8
0-6
  6
CONTINUOUS
 62
     6
 10
7333.7629714999894
 20
13013.73262899998
 30
0.0
 11
8413.7625754999899
 21
13013.73262899998
 31
0.0
  0
LINE
  5
34BE
  8
0-6
  6
CONTINUOUS
 62
     6
 10
8972.2698864999911
 20
14804.00188399999
 30
0.0
 11
8413.7625754999899
 21
13013.73262899998
 31
0.0
  0
LINE
  5
34BF
  8
0-6
  6
CONTINUOUS
 62
     6
 10
9215.1469184999914
 20
18691.141017999991
 30
0.0
 11
9314.1891614999913
 21
18470.347494999991
 31
0.0
  0
LINE
  5
34C0
  8
0-6
  6
CONTINUOUS
 62
     6
 10
10342.82379549998
 20
16810.844749
 30
0.0
 11
11222.821750499979
 21
16810.844749
 31
0.0
  0
LINE
  5
34C1
  8
0-6
  6
CONTINUOUS
 62
     6
 10
10131.55670549999
 20
16608.783411
 30
0.0
 11
10342.82379549998
 21
16810.844749
 31
0.0
  0
LINE
  5
34C2
  8
0-6
  6
CONTINUOUS
 62
     6
 10
12010.66024749998
 20
15600.599750999991
 30
0.0
 11
11745.47206149999
 21
15969.560240000001
 31
0.0
  0
LINE
  5
34C3
  8
0-6
  6
CONTINUOUS
 62
     6
 10
11499.23380649998
 20
15969.560240000001
 30
0.0
 11
11745.47206149999
 21
15969.560240000001
 31
0.0
  0
LINE
  5
34C4
  8
0-6
  6
CONTINUOUS
 62
     6
 10
14906.4614115
 20
20989.89656099999
 30
0.0
 11
16581.460752499988
 21
20989.89656099999
 31
0.0
  0
LINE
  5
34C5
  8
0-6
  6
CONTINUOUS
 62
     6
 10
14127.568358500001
 20
20229.553575999991
 30
0.0
 11
14906.4614115
 21
20989.89656099999
 31
0.0
  0
LINE
  5
34C6
  8
0-6
  6
CONTINUOUS
 62
     6
 10
8997.7126384999901
 20
14796.01848499999
 30
0.0
 11
9020.162359499991
 21
14956.66631599999
 31
0.0
  0
LINE
  5
34C7
  8
0-6
  6
CONTINUOUS
 62
     6
 10
9020.162359499991
 20
14956.66631599999
 30
0.0
 11
8946.8241644999907
 21
14811.98330199999
 31
0.0
  0
LINE
  5
34C8
  8
0-6
  6
CONTINUOUS
 62
     6
 10
9020.162359499991
 20
14956.66631599999
 30
0.0
 11
8997.7126384999901
 21
14796.01848499999
 31
0.0
  0
LINE
  5
34C9
  8
0-6
  6
CONTINUOUS
 62
     6
 10
8997.7126384999901
 20
14796.01848499999
 30
0.0
 11
8946.8241644999907
 21
14811.98330199999
 31
0.0
  0
LINE
  5
34CA
  8
0-6
  6
CONTINUOUS
 62
     6
 10
8946.8241644999907
 20
14811.98330199999
 30
0.0
 11
9020.162359499991
 21
14956.66631599999
 31
0.0
  0
LINE
  5
34CB
  8
0-6
  6
CONTINUOUS
 62
     6
 10
8946.8241644999907
 20
14811.98330199999
 30
0.0
 11
8997.7126384999901
 21
14796.01848499999
 31
0.0
  0
LINE
  5
34CC
  8
0-6
  6
CONTINUOUS
 62
     6
 10
9935.8921814999885
 20
14611.932586999999
 30
0.0
 11
9892.1695644999872
 21
14455.730755
 31
0.0
  0
LINE
  5
34CD
  8
0-6
  6
CONTINUOUS
 62
     6
 10
9892.1695644999872
 20
14455.730755
 30
0.0
 11
9984.1914444999911
 21
14589.309659
 31
0.0
  0
LINE
  5
34CE
  8
0-6
  6
CONTINUOUS
 62
     6
 10
9892.1695644999872
 20
14455.730755
 30
0.0
 11
9935.8921814999885
 21
14611.932586999999
 31
0.0
  0
LINE
  5
34CF
  8
0-6
  6
CONTINUOUS
 62
     6
 10
9935.8921814999885
 20
14611.932586999999
 30
0.0
 11
9984.1914444999911
 21
14589.309659
 31
0.0
  0
LINE
  5
34D0
  8
0-6
  6
CONTINUOUS
 62
     6
 10
9984.1914444999911
 20
14589.309659
 30
0.0
 11
9892.1695644999872
 21
14455.730755
 31
0.0
  0
LINE
  5
34D1
  8
0-6
  6
CONTINUOUS
 62
     6
 10
9984.1914444999911
 20
14589.309659
 30
0.0
 11
9935.8921814999885
 21
14611.932586999999
 31
0.0
  0
LINE
  5
34D2
  8
0-6
  6
CONTINUOUS
 62
     6
 10
10567.085435499979
 20
14091.18360299999
 30
0.0
 11
10460.81596949999
 21
14213.73164
 31
0.0
  0
LINE
  5
34D3
  8
0-6
  6
CONTINUOUS
 62
     6
 10
10460.81596949999
 20
14213.73164
 30
0.0
 11
10521.598077499981
 21
14063.341674999991
 31
0.0
  0
LINE
  5
34D4
  8
0-6
  6
CONTINUOUS
 62
     6
 10
10460.81596949999
 20
14213.73164
 30
0.0
 11
10567.085435499979
 21
14091.18360299999
 31
0.0
  0
LINE
  5
34D5
  8
0-6
  6
CONTINUOUS
 62
     6
 10
10567.085435499979
 20
14091.18360299999
 30
0.0
 11
10521.598077499981
 21
14063.341674999991
 31
0.0
  0
LINE
  5
34D6
  8
0-6
  6
CONTINUOUS
 62
     6
 10
10521.598077499981
 20
14063.341674999991
 30
0.0
 11
10460.81596949999
 21
14213.73164
 31
0.0
  0
LINE
  5
34D7
  8
0-6
  6
CONTINUOUS
 62
     6
 10
10521.598077499981
 20
14063.341674999991
 30
0.0
 11
10567.085435499979
 21
14091.18360299999
 31
0.0
  0
LINE
  5
34D8
  8
0-6
  6
CONTINUOUS
 62
     6
 10
11938.28212049998
 20
15745.765767000001
 30
0.0
 11
12010.66024749998
 21
15600.599750999991
 31
0.0
  0
LINE
  5
34D9
  8
0-6
  6
CONTINUOUS
 62
     6
 10
12010.66024749998
 20
15600.599750999991
 30
0.0
 11
11895.11376849999
 21
15714.442854000001
 31
0.0
  0
LINE
  5
34DA
  8
0-6
  6
CONTINUOUS
 62
     6
 10
12010.66024749998
 20
15600.599750999991
 30
0.0
 11
11938.28212049998
 21
15745.765767000001
 31
0.0
  0
LINE
  5
34DB
  8
0-6
  6
CONTINUOUS
 62
     6
 10
11938.28212049998
 20
15745.765767000001
 30
0.0
 11
11895.11376849999
 21
15714.442854000001
 31
0.0
  0
LINE
  5
34DC
  8
0-6
  6
CONTINUOUS
 62
     6
 10
11895.11376849999
 20
15714.442854000001
 30
0.0
 11
12010.66024749998
 21
15600.599750999991
 31
0.0
  0
LINE
  5
34DD
  8
0-6
  6
CONTINUOUS
 62
     6
 10
11895.11376849999
 20
15714.442854000001
 30
0.0
 11
11938.28212049998
 21
15745.765767000001
 31
0.0
  0
LINE
  5
34DE
  8
0-6
  6
CONTINUOUS
 62
     6
 10
10113.12441849999
 20
16628.056003999991
 30
0.0
 11
10015.928076499969
 21
16498.193646
 31
0.0
  0
LINE
  5
34DF
  8
0-6
  6
CONTINUOUS
 62
     6
 10
10015.928076499969
 20
16498.193646
 30
0.0
 11
10149.98800349999
 21
16589.51081800001
 31
0.0
  0
LINE
  5
34E0
  8
0-6
  6
CONTINUOUS
 62
     6
 10
10015.928076499969
 20
16498.193646
 30
0.0
 11
10113.12441849999
 21
16628.056003999991
 31
0.0
  0
LINE
  5
34E1
  8
0-6
  6
CONTINUOUS
 62
     6
 10
10113.12441849999
 20
16628.056003999991
 30
0.0
 11
10149.98800349999
 21
16589.51081800001
 31
0.0
  0
LINE
  5
34E2
  8
0-6
  6
CONTINUOUS
 62
     6
 10
10149.98800349999
 20
16589.51081800001
 30
0.0
 11
10015.928076499969
 21
16498.193646
 31
0.0
  0
LINE
  5
34E3
  8
0-6
  6
CONTINUOUS
 62
     6
 10
10149.98800349999
 20
16589.51081800001
 30
0.0
 11
10113.12441849999
 21
16628.056003999991
 31
0.0
  0
LINE
  5
34E4
  8
0-6
  6
CONTINUOUS
 62
     6
 10
9239.4781714999863
 20
18702.054103999992
 30
0.0
 11
9149.6604854999914
 21
18837.124574999991
 31
0.0
  0
LINE
  5
34E5
  8
0-6
  6
CONTINUOUS
 62
     6
 10
9149.6604854999914
 20
18837.124574999991
 30
0.0
 11
9190.814676499991
 21
18680.223973
 31
0.0
  0
LINE
  5
34E6
  8
0-6
  6
CONTINUOUS
 62
     6
 10
9149.6604854999914
 20
18837.124574999991
 30
0.0
 11
9239.4781714999863
 21
18702.054103999992
 31
0.0
  0
LINE
  5
34E7
  8
0-6
  6
CONTINUOUS
 62
     6
 10
9239.4781714999863
 20
18702.054103999992
 30
0.0
 11
9190.814676499991
 21
18680.223973
 31
0.0
  0
LINE
  5
34E8
  8
0-6
  6
CONTINUOUS
 62
     6
 10
9190.814676499991
 20
18680.223973
 30
0.0
 11
9149.6604854999914
 21
18837.124574999991
 31
0.0
  0
LINE
  5
34E9
  8
0-6
  6
CONTINUOUS
 62
     6
 10
9190.814676499991
 20
18680.223973
 30
0.0
 11
9239.4781714999863
 21
18702.054103999992
 31
0.0
  0
LINE
  5
34EA
  8
0-6
  6
CONTINUOUS
 62
     6
 10
10967.68456949999
 20
17519.393629999991
 30
0.0
 11
10986.049553499981
 21
17358.229145000001
 31
0.0
  0
LINE
  5
34EB
  8
0-6
  6
CONTINUOUS
 62
     6
 10
10986.049553499981
 20
17358.229145000001
 30
0.0
 11
10916.40810949998
 21
17504.725397999999
 31
0.0
  0
LINE
  5
34EC
  8
0-6
  6
CONTINUOUS
 62
     6
 10
10986.049553499981
 20
17358.229145000001
 30
0.0
 11
10967.68456949999
 21
17519.393629999991
 31
0.0
  0
LINE
  5
34ED
  8
0-6
  6
CONTINUOUS
 62
     6
 10
10967.68456949999
 20
17519.393629999991
 30
0.0
 11
10916.40810949998
 21
17504.725397999999
 31
0.0
  0
LINE
  5
34EE
  8
0-6
  6
CONTINUOUS
 62
     6
 10
10916.40810949998
 20
17504.725397999999
 30
0.0
 11
10986.049553499981
 21
17358.229145000001
 31
0.0
  0
LINE
  5
34EF
  8
0-6
  6
CONTINUOUS
 62
     6
 10
10916.40810949998
 20
17504.725397999999
 30
0.0
 11
10967.68456949999
 21
17519.393629999991
 31
0.0
  0
LINE
  5
34F0
  8
0-6
  6
CONTINUOUS
 62
     6
 10
10258.062789499971
 20
20059.90685399999
 30
0.0
 11
10364.75884049999
 21
19937.730966999981
 31
0.0
  0
LINE
  5
34F1
  8
0-6
  6
CONTINUOUS
 62
     6
 10
10364.75884049999
 20
19937.730966999981
 30
0.0
 11
10303.454140499991
 21
20087.907144000001
 31
0.0
  0
LINE
  5
34F2
  8
0-6
  6
CONTINUOUS
 62
     6
 10
10364.75884049999
 20
19937.730966999981
 30
0.0
 11
10258.062789499971
 21
20059.90685399999
 31
0.0
  0
LINE
  5
34F3
  8
0-6
  6
CONTINUOUS
 62
     6
 10
10258.062789499971
 20
20059.90685399999
 30
0.0
 11
10303.454140499991
 21
20087.907144000001
 31
0.0
  0
LINE
  5
34F4
  8
0-6
  6
CONTINUOUS
 62
     6
 10
10303.454140499991
 20
20087.907144000001
 30
0.0
 11
10364.75884049999
 21
19937.730966999981
 31
0.0
  0
LINE
  5
34F5
  8
0-6
  6
CONTINUOUS
 62
     6
 10
10303.454140499991
 20
20087.907144000001
 30
0.0
 11
10258.062789499971
 21
20059.90685399999
 31
0.0
  0
LINE
  5
34F6
  8
0-6
  6
CONTINUOUS
 62
     6
 10
10752.01503049999
 20
19838.353195999978
 30
0.0
 11
10739.516349499991
 21
19676.628506999961
 31
0.0
  0
LINE
  5
34F7
  8
0-6
  6
CONTINUOUS
 62
     6
 10
10739.516349499991
 20
19676.628506999961
 30
0.0
 11
10803.79230849998
 21
19825.557588
 31
0.0
  0
LINE
  5
34F8
  8
0-6
  6
CONTINUOUS
 62
     6
 10
10739.516349499991
 20
19676.628506999961
 30
0.0
 11
10752.01503049999
 21
19838.353195999978
 31
0.0
  0
LINE
  5
34F9
  8
0-6
  6
CONTINUOUS
 62
     6
 10
10752.01503049999
 20
19838.353195999978
 30
0.0
 11
10803.79230849998
 21
19825.557588
 31
0.0
  0
LINE
  5
34FA
  8
0-6
  6
CONTINUOUS
 62
     6
 10
10803.79230849998
 20
19825.557588
 30
0.0
 11
10739.516349499991
 21
19676.628506999961
 31
0.0
  0
LINE
  5
34FB
  8
0-6
  6
CONTINUOUS
 62
     6
 10
10803.79230849998
 20
19825.557588
 30
0.0
 11
10752.01503049999
 21
19838.353195999978
 31
0.0
  0
LINE
  5
34FC
  8
0-6
  6
CONTINUOUS
 62
     6
 10
10289.840990499981
 20
20221.63550199999
 30
0.0
 11
10386.49296549998
 21
20104.230254999991
 31
0.0
  0
LINE
  5
34FD
  8
0-6
  6
CONTINUOUS
 62
     6
 10
10386.49296549998
 20
20104.230254999991
 30
0.0
 11
10333.14197049999
 21
20246.634841999989
 31
0.0
  0
LINE
  5
34FE
  8
0-6
  6
CONTINUOUS
 62
     6
 10
10386.49296549998
 20
20104.230254999991
 30
0.0
 11
10289.840990499981
 21
20221.63550199999
 31
0.0
  0
LINE
  5
34FF
  8
0-6
  6
CONTINUOUS
 62
     6
 10
10289.840990499981
 20
20221.63550199999
 30
0.0
 11
10333.14197049999
 21
20246.634841999989
 31
0.0
  0
LINE
  5
3500
  8
0-6
  6
CONTINUOUS
 62
     6
 10
10333.14197049999
 20
20246.634841999989
 30
0.0
 11
10386.49296549998
 21
20104.230254999991
 31
0.0
  0
LINE
  5
3501
  8
0-6
  6
CONTINUOUS
 62
     6
 10
10333.14197049999
 20
20246.634841999989
 30
0.0
 11
10289.840990499981
 21
20221.63550199999
 31
0.0
  0
LINE
  5
3502
  8
0-6
  6
CONTINUOUS
 62
     6
 10
14108.347233499981
 20
20248.036340999992
 30
0.0
 11
14016.6608815
 21
20114.230781999991
 31
0.0
  0
LINE
  5
3503
  8
0-6
  6
CONTINUOUS
 62
     6
 10
14016.6608815
 20
20114.230781999991
 30
0.0
 11
14146.78750449998
 21
20211.068831000001
 31
0.0
  0
LINE
  5
3504
  8
0-6
  6
CONTINUOUS
 62
     6
 10
14016.6608815
 20
20114.230781999991
 30
0.0
 11
14108.347233499981
 21
20248.036340999992
 31
0.0
  0
LINE
  5
3505
  8
0-6
  6
CONTINUOUS
 62
     6
 10
14108.347233499981
 20
20248.036340999992
 30
0.0
 11
14146.78750449998
 21
20211.068831000001
 31
0.0
  0
LINE
  5
3506
  8
0-6
  6
CONTINUOUS
 62
     6
 10
14146.78750449998
 20
20211.068831000001
 30
0.0
 11
14016.6608815
 21
20114.230781999991
 31
0.0
  0
LINE
  5
3507
  8
0-6
  6
CONTINUOUS
 62
     6
 10
14146.78750449998
 20
20211.068831000001
 30
0.0
 11
14108.347233499981
 21
20248.036340999992
 31
0.0
  0
LINE
  5
3508
  8
0-0
  6
DASHED3
 62
     6
 10
9149.6604854999914
 20
19852.730438999992
 30
0.0
 11
13934.16048549999
 21
19852.730438999992
 31
0.0
  0
LINE
  5
3509
  8
0-0
  6
DASHED3
 62
     6
 10
9107.1612104999913
 20
19651.251078999991
 30
0.0
 11
9107.1612104999913
 21
19937.730966999981
 31
0.0
  0
LINE
  5
350A
  8
0-0
  6
DASHED3
 62
     6
 10
9149.6604854999914
 20
19631.67363999999
 30
0.0
 11
9149.6604854999914
 21
19937.730966999981
 31
0.0
  0
LINE
  5
350B
  8
0-0
  6
DASHED3
 62
     6
 10
9107.1612104999913
 20
19937.730966999981
 30
0.0
 11
13976.6597595
 21
19937.730966999981
 31
0.0
  0
LINE
  5
350C
  8
0-0
  6
DASHED3
 62
     6
 10
13864.160749500001
 20
17324.230914
 30
0.0
 11
12137.66022149998
 21
19891.730914
 31
0.0
  0
LINE
  5
350D
  8
0-0
  6
DASHED3
 62
     6
 10
13723.36749049999
 20
17279.228537999988
 30
0.0
 11
13934.16048549999
 21
17279.228537999988
 31
0.0
  0
LINE
  5
350E
  8
0-0
  6
DASHED3
 62
     6
 10
13576.553472499991
 20
17358.229145000001
 30
0.0
 11
13934.16048549999
 21
17358.229145000001
 31
0.0
  0
LINE
  5
350F
  8
0-0
  6
DASHED3
 62
     6
 10
13934.16048549999
 20
17158.834218
 30
0.0
 11
13934.16048549999
 21
19937.730966999981
 31
0.0
  0
LINE
  5
3510
  8
0-0
  6
DASHED3
 62
     6
 10
13976.6597595
 20
17134.557401999991
 30
0.0
 11
13976.6597595
 21
19937.730966999981
 31
0.0
  0
LINE
  5
3511
  8
0-0
  6
DASHED3
 62
     6
 10
11997.661738499981
 20
19891.730914
 30
0.0
 11
10865.800727499991
 21
18845.73943999999
 31
0.0
  0
LINE
  5
3512
  8
0-0
  6
DASHED3
 62
     6
 10
9219.6622004999936
 20
19891.730914
 30
0.0
 11
9860.3270284999799
 21
19308.913135999988
 31
0.0
  0
LINE
  5
3513
  8
0-0
  6
DASHED3
 62
     6
 10
12553.09485749998
 20
17952.285706999992
 30
0.0
 11
13864.160749500001
 21
19891.730914
 31
0.0
  0
LINE
  5
3514
  8
0-0
  6
DASHED3
 62
     6
 10
13808.761942499999
 20
17230.455180000001
 30
0.0
 11
13864.160749500001
 21
17324.230914
 31
0.0
  0
LINE
  5
3515
  8
0-0
  6
CENTER2
 62
     6
 10
13934.16048549999
 20
21134.229199000009
 30
0.0
 11
13934.16048549999
 21
20184.230518
 31
0.0
  0
LINE
  5
3516
  8
0-0
  6
CENTER2
 62
     6
 10
12067.66048549998
 20
21134.229199000009
 30
0.0
 11
12067.66048549998
 21
20184.230518
 31
0.0
  0
LINE
  5
3517
  8
0-0
  6
CENTER2
 62
     6
 10
7820.1588954999879
 20
19891.730914
 30
0.0
 11
9466.6615804999947
 21
19891.730914
 31
0.0
  0
LINE
  5
3518
  8
0-0
  6
CENTER2
 62
     6
 10
9149.6604854999914
 20
21134.229199000009
 30
0.0
 11
9149.6604854999914
 21
20184.230518
 31
0.0
  0
LINE
  5
3519
  8
0-0
  6
CENTER2
 62
     6
 10
7820.1588954999879
 20
17324.230914
 30
0.0
 11
9466.6615804999947
 21
17324.230914
 31
0.0
  0
LINE
  5
351A
  8
0-0
  6
CENTER2
 62
     6
 10
7820.1588954999879
 20
14406.230913999991
 30
0.0
 11
9466.6615804999947
 21
14406.230913999991
 31
0.0
  0
LINE
  5
351B
  8
0-0
  6
CENTER2
 62
     6
 10
13608.66225349999
 20
17324.230914
 30
0.0
 11
14232.92427649998
 21
17324.230914
 31
0.0
  0
LINE
  5
351C
  8
0-0
  6
CENTER2
 62
     6
 10
13608.66225349999
 20
14406.230913999991
 30
0.0
 11
14232.92427649998
 21
14406.230913999991
 31
0.0
  0
LINE
  5
351D
  8
0-0
  6
DASHED3
 62
     6
 10
12010.66024749998
 20
18322.321075
 30
0.0
 11
12010.66024749998
 21
19852.730438999992
 31
0.0
  0
LINE
  5
351E
  8
0-0
  6
DASHED3
 62
     6
 10
12067.66048549998
 20
18234.454203999991
 30
0.0
 11
12067.66048549998
 21
19852.730438999992
 31
0.0
  0
LINE
  5
351F
  8
0-0
  6
DASHED3
 62
     6
 10
12124.66171249999
 20
18146.59129199999
 30
0.0
 11
12124.66171249999
 21
19852.730438999992
 31
0.0
  0
ARC
  5
3520
  8
0-1
  6
CONTINUOUS
 62
     3
 10
9069.1623324999964
 20
20109.230518
 30
0.0
 40
5.0
 50
90.0
 51
180.0
  0
ARC
  5
3521
  8
0-1
  6
CONTINUOUS
 62
     3
 10
9132.663309499987
 20
20109.230518
 30
0.0
 40
5.0
 50
0.0
 51
90.0
  0
ARC
  5
3522
  8
0-1
  6
CONTINUOUS
 62
     3
 10
9132.663309499987
 20
20079.230913999989
 30
0.0
 40
5.0
 50
269.9999850001808
 51
0.0
  0
ARC
  5
3523
  8
0-1
  6
CONTINUOUS
 62
     3
 10
13951.16162049999
 20
20079.230913999989
 30
0.0
 40
5.0
 50
180.0
 51
269.9999850001808
  0
ARC
  5
3524
  8
0-1
  6
CONTINUOUS
 62
     3
 10
13951.16162049999
 20
20109.230518
 30
0.0
 40
5.0
 50
90.0
 51
180.0
  0
ARC
  5
3525
  8
0-1
  6
CONTINUOUS
 62
     3
 10
14014.6606175
 20
20109.230518
 30
0.0
 40
5.0
 50
0.0
 51
90.0
  0
CIRCLE
  5
3526
  8
0-5
  6
CONTINUOUS
 62
     4
 10
12067.66048549998
 20
21334.22788000002
 30
0.0
 40
199.9999949999999
  0
CIRCLE
  5
3527
  8
0-5
  6
CONTINUOUS
 62
     4
 10
9149.6604854999914
 20
21334.22788000002
 30
0.0
 40
199.9999949999999
  0
CIRCLE
  5
3528
  8
0-5
  6
CONTINUOUS
 62
     4
 10
7620.159225499985
 20
19891.730914
 30
0.0
 40
199.9999949999999
  0
CIRCLE
  5
3529
  8
0-5
  6
CONTINUOUS
 62
     4
 10
7620.159225499985
 20
17324.230914
 30
0.0
 40
199.9999949999999
  0
CIRCLE
  5
352A
  8
0-5
  6
CONTINUOUS
 62
     4
 10
7620.159225499985
 20
14406.230913999991
 30
0.0
 40
199.9999949999999
  0
CIRCLE
  5
352B
  8
0-5
  6
CONTINUOUS
 62
     4
 10
13934.16048549999
 20
21334.227880000031
 30
0.0
 40
199.9999949999999
  0
CIRCLE
  5
352C
  8
0-5
  6
CONTINUOUS
 62
     4
 10
15128.716677999981
 20
1375.9993629999999
 30
0.0
 40
20.0
  0
ARC
  5
352D
  8
0-5
  6
CONTINUOUS
 62
     4
 10
15128.716677999981
 20
1375.9993629999999
 30
0.0
 40
20.0
 50
180.0
 51
0.0
  0
ARC
  5
352E
  8
0-5
  6
CONTINUOUS
 62
     4
 10
15128.716677999981
 20
1375.9993629999999
 30
0.0
 40
20.0
 50
0.0
 51
179.99998499999839
  0
CIRCLE
  5
352F
  8
0-5
  6
CONTINUOUS
 62
     4
 10
15128.716677999981
 20
1775.9991979999991
 30
0.0
 40
20.0
  0
ARC
  5
3530
  8
0-5
  6
CONTINUOUS
 62
     4
 10
15128.716677999981
 20
1775.9991979999991
 30
0.0
 40
20.0
 50
180.0
 51
0.0
  0
ARC
  5
3531
  8
0-5
  6
CONTINUOUS
 62
     4
 10
15128.716677999981
 20
1775.9991979999991
 30
0.0
 40
20.0
 50
0.0
 51
179.99998499999839
  0
TEXT
  5
3532
  8
0-5
  6
CONTINUOUS
 62
     7
 10
13883.691669499991
 20
21244.16176400004
 30
0.0
 40
160.0
  1
3
 72
     4
 11
13937.025002833319
 21
21324.16176400004
 31
0.0
  0
TEXT
  5
3533
  8
0-5
  6
CONTINUOUS
 62
     7
 10
12017.19265949998
 20
21244.16176400004
 30
0.0
 40
160.0
  1
2
 72
     4
 11
12070.52599283332
 21
21324.16176400004
 31
0.0
  0
TEXT
  5
3534
  8
0-5
  6
CONTINUOUS
 62
     7
 10
9099.1936484999896
 20
21244.16176400004
 30
0.0
 40
160.0
  1
1
 72
     4
 11
9125.8603151666557
 21
21324.16176400004
 31
0.0
  0
TEXT
  5
3535
  8
0-5
  6
CONTINUOUS
 62
     7
 10
7567.5851914999848
 20
19804.396534
 30
0.0
 40
160.0
  1
C
 72
     4
 11
7620.9185248333179
 21
19884.396534
 31
0.0
  0
TEXT
  5
3536
  8
0-5
  6
CONTINUOUS
 62
     7
 10
7567.5851914999848
 20
17236.894553999991
 30
0.0
 40
160.0
  1
B
 72
     4
 11
7620.9185248333179
 21
17316.894553999991
 31
0.0
  0
TEXT
  5
3537
  8
0-5
  6
CONTINUOUS
 62
     7
 10
7567.5851914999848
 20
14318.896534
 30
0.0
 40
160.0
  1
A
 72
     4
 11
7620.9185248333179
 21
14398.896534
 31
0.0
  0
TEXT
  5
3538
  8
0-5
  6
CONTINUOUS
 62
     7
 10
16666.318623999981
 20
1655.9994209999991
 30
0.0
 40
160.0
  1
H
  0
TEXT
  5
3539
  8
0-5
  6
CONTINUOUS
 62
     7
 10
15176.14792299999
 20
1655.9994209999991
 30
0.0
 40
160.0
  1
（ ）内寸法ハ、  タ イプヲ示ス。
  0
TEXT
  5
353A
  8
0-5
  6
CONTINUOUS
 62
     7
 10
15288.716216999999
 20
1255.999585999999
 30
0.0
 40
160.0
  1
有効高サハ、基礎高サヲ含ミマセン。
  0
TEXT
  5
353B
  8
0-6
  6
CONTINUOUS
 62
     7
 10
11001.80751049999
 20
20424.229330999991
 30
0.0
 40
160.0
  1
屋根
 72
     4
 11
11172.47417716666
 21
20504.229330999991
 31
0.0
  0
TEXT
  5
353C
  8
0-6
  6
CONTINUOUS
 62
     7
 10
9912.2359444999656
 20
21144.231705999991
 30
0.0
 40
160.0
  1
鼻隠し後
 72
     4
 11
10274.90261116663
 21
21224.231705999991
 31
0.0
  0
TEXT
  5
353D
  8
0-6
  6
CONTINUOUS
 62
     7
 10
9350.8306184999892
 20
20424.229330999991
 30
0.0
 40
160.0
  1
桁（後）
 72
     4
 11
9670.830618499991
 21
20504.229330999991
 31
0.0
  0
TEXT
  5
353E
  8
0-6
  6
CONTINUOUS
 62
     7
 10
10160.89713049999
 20
17763.326801999989
 30
0.0
 40
160.0
  1
桁（中）
 72
     4
 11
10480.89713049999
 21
17843.326801999989
 31
0.0
  0
TEXT
  5
353F
  8
0-6
  6
CONTINUOUS
 62
     7
 10
10122.928973499969
 20
14867.557296999999
 30
0.0
 40
160.0
  1
桁（前）
 72
     4
 11
10442.928973499969
 21
14947.557296999999
 31
0.0
  0
TEXT
  5
3540
  8
0-6
  6
CONTINUOUS
 62
     7
 10
11030.45411349998
 20
13493.731244000001
 30
0.0
 40
160.0
  1
鼻隠し前
 72
     4
 11
11393.12078016665
 21
13573.731244000001
 31
0.0
  0
TEXT
  5
3541
  8
0-6
  6
CONTINUOUS
 62
     7
 10
7413.7632354999923
 20
13093.730914
 30
0.0
 40
160.0
  1
ケラバ 左
 72
     4
 11
7829.7632354999923
 21
13173.730914
 31
0.0
  0
TEXT
  5
3542
  8
0-6
  6
CONTINUOUS
 62
     7
 10
9404.1855724999878
 20
18550.347758999989
 30
0.0
 40
160.0
  1
上枠
 72
     4
 11
9574.8522391666556
 21
18630.347758999989
 31
0.0
  0
TEXT
  5
3543
  8
0-6
  6
CONTINUOUS
 62
     7
 10
10422.822079499971
 20
16890.845013000009
 30
0.0
 40
160.0
  1
ブレース
 72
     4
 11
10785.48874616664
 21
16976.178346333341
 31
0.0
  0
TEXT
  5
3544
  8
0-6
  6
CONTINUOUS
 62
     7
 10
11515.47476649997
 20
16049.560503999999
 30
0.0
 40
160.0
  1
梁
 72
     4
 11
11590.14143316664
 21
16129.560503999999
 31
0.0
  0
TEXT
  5
3545
  8
0-6
  6
CONTINUOUS
 62
     7
 10
14986.46167549999
 20
21069.896823999981
 30
0.0
 40
160.0
  1
鼻隠しコーナー後
 72
     4
 11
15733.128342166659
 21
21149.896823999981
 31
0.0
  0
TEXT
  5
3546
  8
2-0
  6
CONTINUOUS
 62
     7
 10
10221.275416499981
 20
12148.90618911071
 30
0.0
 40
160.0
  1
小 屋 伏 図
 50
359.99980699999981
 72
     4
 11
10722.60901930931
 21
12228.90450037622
 31
0.0
  0
TEXT
  5
354E
  8
2-0
  6
CONTINUOUS
 62
     7
 10
12074.10120444693
 20
12176.099869376219
 30
0.0
 40
160.0
  1
1
 72
     4
 11
12100.7678711136
 21
12256.099869376219
 31
0.0
  0
TEXT
  5
354F
  8
2-0
  6
CONTINUOUS
 62
     7
 10
12317.189921697631
 20
12096.101337376231
 30
0.0
 40
160.0
  1
80
 72
     4
 11
12437.189921697631
 21
12176.101337376231
 31
0.0
  0
TEXT
  5
3550
  8
2-0
  6
CONTINUOUS
 62
     7
 10
11575.103170446941
 20
12148.90450037622
 30
0.0
 40
160.0
  1
(S=  /   )
 72
     4
 11
12135.103170446941
 21
12228.90450037622
 31
0.0
  0
LINE
  5
3551
  8
0-1
  6
CONTINUOUS
 62
     3
 10
8789.3756595000086
 20
8526.8256480000018
 30
0.0
 11
14319.874076499989
 21
8526.8256480000018
 31
0.0
  0
LINE
  5
3552
  8
0-1
  6
CONTINUOUS
 62
     3
 10
8079.3748015000074
 20
6515.7797690000016
 30
0.0
 11
14352.373878500001
 21
6515.7797690000016
 31
0.0
  0
LINE
  5
3553
  8
0-1
  6
CONTINUOUS
 62
     3
 10
8884.3747355000087
 20
6665.7797690000016
 30
0.0
 11
11306.8740105
 21
6665.7797690000016
 31
0.0
  0
LINE
  5
3554
  8
0-1
  6
CONTINUOUS
 62
     3
 10
8761.8738785000005
 20
6615.7796040000021
 30
0.0
 11
14352.373878500001
 21
6615.7796040000021
 31
0.0
  0
LINE
  5
3555
  8
0-1
  6
CONTINUOUS
 62
     3
 10
8884.3747355000087
 20
8526.8256480000018
 30
0.0
 11
8884.3747355000087
 21
6615.7796040000021
 31
0.0
  0
LINE
  5
3556
  8
0-1
  6
CONTINUOUS
 62
     3
 10
8769.3746035000058
 20
8648.7936849999969
 30
0.0
 11
8769.3746035000058
 21
6615.7796040000021
 31
0.0
  0
LINE
  5
3557
  8
0-1
  6
CONTINUOUS
 62
     3
 10
8789.3756595000086
 20
8649.4489060000051
 30
0.0
 11
8789.3756595000086
 21
6615.7796040000021
 31
0.0
  0
LINE
  5
3558
  8
0-1
  6
CONTINUOUS
 62
     3
 10
8761.8738785000005
 20
6515.7797690000016
 30
0.0
 11
8761.8738785000005
 21
6615.7796040000021
 31
0.0
  0
LINE
  5
3559
  8
0-1
  6
CONTINUOUS
 62
     3
 10
14415.00776049999
 20
8833.2689810000029
 30
0.0
 11
14410.747836500001
 21
8963.198642000003
 31
0.0
  0
LINE
  5
355A
  8
0-1
  6
CONTINUOUS
 62
     3
 10
11451.873746499999
 20
6665.7797690000016
 30
0.0
 11
14224.874010499991
 21
6665.7797690000016
 31
0.0
  0
LINE
  5
355B
  8
0-1
  6
CONTINUOUS
 62
     3
 10
10915.373732499969
 20
6665.7797690000016
 30
0.0
 11
10915.373732499969
 21
8526.8256480000018
 31
0.0
  0
LINE
  5
355C
  8
0-1
  6
CONTINUOUS
 62
     3
 10
10782.3748285
 20
6665.7797690000016
 30
0.0
 11
10782.3748285
 21
8526.8256480000018
 31
0.0
  0
LINE
  5
355D
  8
0-1
  6
CONTINUOUS
 62
     3
 10
10767.373046500001
 20
6665.7797690000016
 30
0.0
 11
10767.373046500001
 21
8526.8256480000018
 31
0.0
  0
LINE
  5
355E
  8
0-1
  6
CONTINUOUS
 62
     3
 10
10965.37538249998
 20
6665.7797690000016
 30
0.0
 11
10965.37538249998
 21
8526.8256480000018
 31
0.0
  0
LINE
  5
355F
  8
0-1
  6
CONTINUOUS
 62
     3
 10
10985.374458499989
 20
6665.7797690000016
 30
0.0
 11
10985.374458499989
 21
8526.8256480000018
 31
0.0
  0
LINE
  5
3560
  8
0-1
  6
CONTINUOUS
 62
     3
 10
11035.3751185
 20
6665.7797690000016
 30
0.0
 11
11035.3751185
 21
8526.8256480000018
 31
0.0
  0
LINE
  5
3561
  8
0-1
  6
CONTINUOUS
 62
     3
 10
11168.3740235
 20
6665.7797690000016
 30
0.0
 11
11168.3740235
 21
8526.8256480000018
 31
0.0
  0
LINE
  5
3562
  8
0-1
  6
CONTINUOUS
 62
     3
 10
11183.3728355
 20
6665.7797690000016
 30
0.0
 11
11183.3728355
 21
8526.8256480000018
 31
0.0
  0
LINE
  5
3563
  8
0-1
  6
CONTINUOUS
 62
     3
 10
11451.873746499999
 20
8526.8256480000018
 30
0.0
 11
11451.873746499999
 21
6615.7796040000021
 31
0.0
  0
LINE
  5
3564
  8
0-1
  6
CONTINUOUS
 62
     3
 10
11306.8740105
 20
8526.8256480000018
 30
0.0
 11
11306.8740105
 21
6615.7796040000021
 31
0.0
  0
LINE
  5
3565
  8
0-1
  6
CONTINUOUS
 62
     3
 10
11575.372941499991
 20
6665.7797690000016
 30
0.0
 11
11575.372941499991
 21
8526.8256480000018
 31
0.0
  0
LINE
  5
3566
  8
0-1
  6
CONTINUOUS
 62
     3
 10
11590.374722500001
 20
6665.7797690000016
 30
0.0
 11
11590.374722500001
 21
8526.8256480000018
 31
0.0
  0
LINE
  5
3567
  8
0-1
  6
CONTINUOUS
 62
     3
 10
11723.373627499999
 20
6665.7797690000016
 30
0.0
 11
11723.373627499999
 21
8526.8256480000018
 31
0.0
  0
LINE
  5
3568
  8
0-1
  6
CONTINUOUS
 62
     3
 10
11773.37428749999
 20
6665.7797690000016
 30
0.0
 11
11773.37428749999
 21
8526.8256480000018
 31
0.0
  0
LINE
  5
3569
  8
0-1
  6
CONTINUOUS
 62
     3
 10
11793.373363500001
 20
6665.7797690000016
 30
0.0
 11
11793.373363500001
 21
8526.8256480000018
 31
0.0
  0
LINE
  5
356A
  8
0-1
  6
CONTINUOUS
 62
     3
 10
9565.3737324999875
 20
6665.7797690000016
 30
0.0
 11
9565.3737324999875
 21
8526.8256480000018
 31
0.0
  0
LINE
  5
356B
  8
0-1
  6
CONTINUOUS
 62
     3
 10
9585.3757785000034
 20
6665.7797690000016
 30
0.0
 11
9585.3757785000034
 21
8526.8256480000018
 31
0.0
  0
LINE
  5
356C
  8
0-1
  6
CONTINUOUS
 62
     3
 10
9515.3730734999917
 20
6665.7797690000016
 30
0.0
 11
9515.3730734999917
 21
8526.8256480000018
 31
0.0
  0
LINE
  5
356D
  8
0-1
  6
CONTINUOUS
 62
     3
 10
9635.3734695000021
 20
6665.7797690000016
 30
0.0
 11
9635.3734695000021
 21
8526.8256480000018
 31
0.0
  0
LINE
  5
356E
  8
0-1
  6
CONTINUOUS
 62
     3
 10
9768.3733635000044
 20
6665.7797690000016
 30
0.0
 11
9768.3733635000044
 21
8526.8256480000018
 31
0.0
  0
LINE
  5
356F
  8
0-1
  6
CONTINUOUS
 62
     3
 10
9783.375145500002
 20
6665.7797690000016
 30
0.0
 11
9783.375145500002
 21
8526.8256480000018
 31
0.0
  0
LINE
  5
3570
  8
0-1
  6
CONTINUOUS
 62
     3
 10
9372.8743925000072
 20
6665.7797690000016
 30
0.0
 11
9372.8743925000072
 21
8526.8256480000018
 31
0.0
  0
LINE
  5
3571
  8
0-1
  6
CONTINUOUS
 62
     3
 10
9357.8755805000092
 20
6665.7797690000016
 30
0.0
 11
9357.8755805000092
 21
8526.8256480000018
 31
0.0
  0
LINE
  5
3572
  8
0-1
  6
CONTINUOUS
 62
     3
 10
10067.37370649998
 20
6665.7797690000016
 30
0.0
 11
10067.37370649998
 21
8526.8256480000018
 31
0.0
  0
LINE
  5
3573
  8
0-1
  6
CONTINUOUS
 62
     3
 10
10082.37251849998
 20
6665.7797690000016
 30
0.0
 11
10082.37251849998
 21
8526.8256480000018
 31
0.0
  0
LINE
  5
3574
  8
0-1
  6
CONTINUOUS
 62
     3
 10
10483.3744855
 20
6665.7797690000016
 30
0.0
 11
10483.3744855
 21
8526.8256480000018
 31
0.0
  0
LINE
  5
3575
  8
0-1
  6
CONTINUOUS
 62
     3
 10
10468.37270349999
 20
6665.7797690000016
 30
0.0
 11
10468.37270349999
 21
8526.8256480000018
 31
0.0
  0
LINE
  5
3576
  8
0-1
  6
CONTINUOUS
 62
     3
 10
10335.372809499981
 20
6665.7797690000016
 30
0.0
 11
10335.372809499981
 21
8526.8256480000018
 31
0.0
  0
LINE
  5
3577
  8
0-1
  6
CONTINUOUS
 62
     3
 10
10215.3743925
 20
6665.7797690000016
 30
0.0
 11
10215.3743925
 21
8526.8256480000018
 31
0.0
  0
LINE
  5
3578
  8
0-1
  6
CONTINUOUS
 62
     3
 10
10285.37511849998
 20
6665.7797690000016
 30
0.0
 11
10285.37511849998
 21
8526.8256480000018
 31
0.0
  0
LINE
  5
3579
  8
0-1
  6
CONTINUOUS
 62
     3
 10
10265.37307349999
 20
6665.7797690000016
 30
0.0
 11
10265.37307349999
 21
8526.8256480000018
 31
0.0
  0
LINE
  5
357A
  8
0-1
  6
CONTINUOUS
 62
     3
 10
10606.874669500001
 20
8526.8256480000018
 30
0.0
 11
10606.874669500001
 21
6665.7797690000016
 31
0.0
  0
LINE
  5
357B
  8
0-1
  6
CONTINUOUS
 62
     3
 10
10643.8728625
 20
8526.8256480000018
 30
0.0
 11
10643.8728625
 21
6665.7797690000016
 31
0.0
  0
LINE
  5
357C
  8
0-1
  6
CONTINUOUS
 62
     3
 10
9197.3742345000101
 20
8526.8256480000018
 30
0.0
 11
9197.3742345000101
 21
6665.7797690000016
 31
0.0
  0
LINE
  5
357D
  8
0-1
  6
CONTINUOUS
 62
     3
 10
9234.3744055000116
 20
8526.8256480000018
 30
0.0
 11
9234.3744055000116
 21
6665.7797690000016
 31
0.0
  0
LINE
  5
357E
  8
0-1
  6
CONTINUOUS
 62
     3
 10
9906.8753295000079
 20
8526.8256480000018
 30
0.0
 11
9906.8753295000079
 21
6665.7797690000016
 31
0.0
  0
LINE
  5
357F
  8
0-1
  6
CONTINUOUS
 62
     3
 10
9943.8735214999961
 20
8526.8256480000018
 30
0.0
 11
9943.8735214999961
 21
6665.7797690000016
 31
0.0
  0
LINE
  5
3580
  8
0-1
  6
CONTINUOUS
 62
     3
 10
11379.373878500001
 20
8734.0614480000004
 30
0.0
 11
11375.1129645
 21
8863.9911090000023
 31
0.0
  0
LINE
  5
3581
  8
0-1
  6
CONTINUOUS
 62
     3
 10
11379.373878500001
 20
8734.0614480000004
 30
0.0
 11
11379.373878500001
 21
8526.8256480000018
 31
0.0
  0
LINE
  5
3582
  8
0-1
  6
CONTINUOUS
 62
     3
 10
14224.874010499991
 20
8526.8256480000018
 30
0.0
 11
14224.874010499991
 21
6615.7796040000021
 31
0.0
  0
LINE
  5
3583
  8
0-1
  6
CONTINUOUS
 62
     3
 10
14339.8731525
 20
8830.805470000003
 30
0.0
 11
14339.8731525
 21
6615.7796040000021
 31
0.0
  0
LINE
  5
3584
  8
0-1
  6
CONTINUOUS
 62
     3
 10
14319.874076499989
 20
8830.149260000002
 30
0.0
 11
14319.874076499989
 21
6615.7796040000021
 31
0.0
  0
LINE
  5
3585
  8
0-1
  6
CONTINUOUS
 62
     3
 10
12814.87423449999
 20
8526.8256480000018
 30
0.0
 11
12814.87423449999
 21
6665.7797690000016
 31
0.0
  0
LINE
  5
3586
  8
0-1
  6
CONTINUOUS
 62
     3
 10
12851.87341649999
 20
8526.8256480000018
 30
0.0
 11
12851.87341649999
 21
6665.7797690000016
 31
0.0
  0
LINE
  5
3587
  8
0-1
  6
CONTINUOUS
 62
     3
 10
13524.874670499999
 20
8526.8256480000018
 30
0.0
 11
13524.874670499999
 21
6665.7797690000016
 31
0.0
  0
LINE
  5
3588
  8
0-1
  6
CONTINUOUS
 62
     3
 10
13561.8728625
 20
8526.8256480000018
 30
0.0
 11
13561.8728625
 21
6665.7797690000016
 31
0.0
  0
LINE
  5
3589
  8
0-1
  6
CONTINUOUS
 62
     3
 10
12114.8729145
 20
8526.8256480000018
 30
0.0
 11
12114.8729145
 21
6665.7797690000016
 31
0.0
  0
LINE
  5
358A
  8
0-1
  6
CONTINUOUS
 62
     3
 10
12151.87407649998
 20
8526.8256480000018
 30
0.0
 11
12151.87407649998
 21
6665.7797690000016
 31
0.0
  0
LINE
  5
358B
  8
0-1
  6
CONTINUOUS
 62
     3
 10
12493.372703499999
 20
6665.7797690000016
 30
0.0
 11
12493.372703499999
 21
8526.8256480000018
 31
0.0
  0
LINE
  5
358C
  8
0-1
  6
CONTINUOUS
 62
     3
 10
12473.37362749999
 20
6665.7797690000016
 30
0.0
 11
12473.37362749999
 21
8526.8256480000018
 31
0.0
  0
LINE
  5
358D
  8
0-1
  6
CONTINUOUS
 62
     3
 10
12543.373363500001
 20
6665.7797690000016
 30
0.0
 11
12543.373363500001
 21
8526.8256480000018
 31
0.0
  0
LINE
  5
358E
  8
0-1
  6
CONTINUOUS
 62
     3
 10
12423.37296749999
 20
6665.7797690000016
 30
0.0
 11
12423.37296749999
 21
8526.8256480000018
 31
0.0
  0
LINE
  5
358F
  8
0-1
  6
CONTINUOUS
 62
     3
 10
12290.373073500001
 20
6665.7797690000016
 30
0.0
 11
12290.373073500001
 21
8526.8256480000018
 31
0.0
  0
LINE
  5
3590
  8
0-1
  6
CONTINUOUS
 62
     3
 10
12275.374260500001
 20
6665.7797690000016
 30
0.0
 11
12275.374260500001
 21
8526.8256480000018
 31
0.0
  0
LINE
  5
3591
  8
0-1
  6
CONTINUOUS
 62
     3
 10
12676.37325749999
 20
6665.7797690000016
 30
0.0
 11
12676.37325749999
 21
8526.8256480000018
 31
0.0
  0
LINE
  5
3592
  8
0-1
  6
CONTINUOUS
 62
     3
 10
12691.375039500001
 20
6665.7797690000016
 30
0.0
 11
12691.375039500001
 21
8526.8256480000018
 31
0.0
  0
LINE
  5
3593
  8
0-1
  6
CONTINUOUS
 62
     3
 10
13391.37437949999
 20
6665.7797690000016
 30
0.0
 11
13391.37437949999
 21
8526.8256480000018
 31
0.0
  0
LINE
  5
3594
  8
0-1
  6
CONTINUOUS
 62
     3
 10
13376.3725985
 20
6665.7797690000016
 30
0.0
 11
13376.3725985
 21
8526.8256480000018
 31
0.0
  0
LINE
  5
3595
  8
0-1
  6
CONTINUOUS
 62
     3
 10
12975.37360149999
 20
6665.7797690000016
 30
0.0
 11
12975.37360149999
 21
8526.8256480000018
 31
0.0
  0
LINE
  5
3596
  8
0-1
  6
CONTINUOUS
 62
     3
 10
12990.3743925
 20
6665.7797690000016
 30
0.0
 11
12990.3743925
 21
8526.8256480000018
 31
0.0
  0
LINE
  5
3597
  8
0-1
  6
CONTINUOUS
 62
     3
 10
13123.375277499999
 20
6665.7797690000016
 30
0.0
 11
13123.375277499999
 21
8526.8256480000018
 31
0.0
  0
LINE
  5
3598
  8
0-1
  6
CONTINUOUS
 62
     3
 10
13243.372703499999
 20
6665.7797690000016
 30
0.0
 11
13243.372703499999
 21
8526.8256480000018
 31
0.0
  0
LINE
  5
3599
  8
0-1
  6
CONTINUOUS
 62
     3
 10
13173.3729675
 20
6665.7797690000016
 30
0.0
 11
13173.3729675
 21
8526.8256480000018
 31
0.0
  0
LINE
  5
359A
  8
0-1
  6
CONTINUOUS
 62
     3
 10
13193.37501349999
 20
6665.7797690000016
 30
0.0
 11
13193.37501349999
 21
8526.8256480000018
 31
0.0
  0
LINE
  5
359B
  8
0-1
  6
CONTINUOUS
 62
     3
 10
13903.374459500001
 20
6665.7797690000016
 30
0.0
 11
13903.374459500001
 21
8526.8256480000018
 31
0.0
  0
LINE
  5
359C
  8
0-1
  6
CONTINUOUS
 62
     3
 10
13883.375383500001
 20
6665.7797690000016
 30
0.0
 11
13883.375383500001
 21
8526.8256480000018
 31
0.0
  0
LINE
  5
359D
  8
0-1
  6
CONTINUOUS
 62
     3
 10
13953.37511949999
 20
6665.7797690000016
 30
0.0
 11
13953.37511949999
 21
8526.8256480000018
 31
0.0
  0
LINE
  5
359E
  8
0-1
  6
CONTINUOUS
 62
     3
 10
13833.374723499999
 20
6665.7797690000016
 30
0.0
 11
13833.374723499999
 21
8526.8256480000018
 31
0.0
  0
LINE
  5
359F
  8
0-1
  6
CONTINUOUS
 62
     3
 10
13700.3748285
 20
6665.7797690000016
 30
0.0
 11
13700.3748285
 21
8526.8256480000018
 31
0.0
  0
LINE
  5
35A0
  8
0-1
  6
CONTINUOUS
 62
     3
 10
13685.373047499999
 20
6665.7797690000016
 30
0.0
 11
13685.373047499999
 21
8526.8256480000018
 31
0.0
  0
LINE
  5
35A1
  8
0-1
  6
CONTINUOUS
 62
     3
 10
14086.37501349999
 20
6665.7797690000016
 30
0.0
 11
14086.37501349999
 21
8526.8256480000018
 31
0.0
  0
LINE
  5
35A2
  8
0-1
  6
CONTINUOUS
 62
     3
 10
14101.373825499981
 20
6665.7797690000016
 30
0.0
 11
14101.373825499981
 21
8526.8256480000018
 31
0.0
  0
LINE
  5
35A3
  8
0-1
  6
CONTINUOUS
 62
     3
 10
11991.372730499999
 20
6665.7797690000016
 30
0.0
 11
11991.372730499999
 21
8526.8256480000018
 31
0.0
  0
LINE
  5
35A4
  8
0-1
  6
CONTINUOUS
 62
     3
 10
11976.373917499999
 20
6665.7797690000016
 30
0.0
 11
11976.373917499999
 21
8526.8256480000018
 31
0.0
  0
LINE
  5
35A5
  8
0-1
  6
CONTINUOUS
 62
     3
 10
11843.37501349999
 20
6665.7797690000016
 30
0.0
 11
11843.37501349999
 21
8526.8256480000018
 31
0.0
  0
LINE
  5
35A6
  8
0-1
  6
CONTINUOUS
 62
     3
 10
14352.373878500001
 20
6615.7796040000021
 30
0.0
 11
14352.373878500001
 21
6515.7797690000016
 31
0.0
  0
LINE
  5
35A7
  8
0-1
  6
CONTINUOUS
 62
     3
 10
8592.0621965000137
 20
8691.0049390000022
 30
0.0
 11
8590.9477275000136
 21
8724.9873349999998
 31
0.0
  0
LINE
  5
35A8
  8
0-1
  6
CONTINUOUS
 62
     3
 10
8593.8477225000097
 20
8728.0833020000027
 30
0.0
 11
14424.215490500001
 21
8918.6159240000015
 31
0.0
  0
LINE
  5
35A9
  8
0-1
  6
CONTINUOUS
 62
     3
 10
14425.52692149999
 20
8878.6375670000016
 30
0.0
 11
8595.1601425000081
 21
8688.1049450000046
 31
0.0
  0
LINE
  5
35AA
  8
0-1
  6
CONTINUOUS
 62
     3
 10
8592.4234584999995
 20
8680.0106930000056
 30
0.0
 11
8592.4204895000057
 21
8680.0760170000012
 31
0.0
  0
LINE
  5
35AB
  8
0-1
  6
CONTINUOUS
 62
     3
 10
8592.4204895000057
 20
8680.0760170000012
 30
0.0
 11
8593.4716135000053
 21
8648.0286010000054
 31
0.0
  0
LINE
  5
35AC
  8
0-1
  6
CONTINUOUS
 62
     3
 10
8598.6322185000045
 20
8643.1956070000069
 30
0.0
 11
14447.971693499991
 21
8834.3497980000029
 31
0.0
  0
LINE
  5
35AD
  8
0-1
  6
CONTINUOUS
 62
     3
 10
14443.710779499999
 20
8964.2794590000049
 30
0.0
 11
8594.3732845000068
 21
8773.1252680000016
 31
0.0
  0
LINE
  5
35AE
  8
0-1
  6
CONTINUOUS
 62
     3
 10
8589.5383105000055
 20
8767.963673000002
 30
0.0
 11
8590.5884445000029
 21
8735.981581
 31
0.0
  0
LINE
  5
35AF
  8
0-1
  6
CONTINUOUS
 62
     3
 10
8593.6844115000058
 20
8733.0815860000002
 30
0.0
 11
14424.05317049999
 21
8923.614209000003
 31
0.0
  0
LINE
  5
35B0
  8
0-1
  6
CONTINUOUS
 62
     3
 10
14425.689242500001
 20
8873.6412620000028
 30
0.0
 11
8595.3224635000097
 21
8683.1076500000017
 31
0.0
  0
LINE
  5
35B1
  8
0-1
  6
CONTINUOUS
 62
     3
 10
8606.8650365000067
 20
8773.5350280000057
 30
0.0
 11
8611.1259495000049
 21
8643.6043770000033
 31
0.0
  0
LINE
  5
35B2
  8
0-5
  6
CONTINUOUS
 62
     4
 10
17222.747439499992
 20
6723.6262510000033
 30
0.0
 11
17342.745856499991
 21
6515.7797690000016
 31
0.0
  0
LINE
  5
35B3
  8
0-5
  6
CONTINUOUS
 62
     4
 10
14432.374142500001
 20
6515.7797690000016
 30
0.0
 11
19665.119536499999
 21
6515.7797690000016
 31
0.0
  0
LINE
  5
35B4
  8
0-5
  6
CONTINUOUS
 62
     4
 10
17342.745856499991
 20
6515.7797690000016
 30
0.0
 11
17462.748231499991
 21
6723.6262510000033
 31
0.0
  0
LINE
  5
35B5
  8
0-5
  6
CONTINUOUS
 62
     4
 10
17462.748231499991
 20
6723.6262510000033
 30
0.0
 11
17222.747439499992
 21
6723.6262510000033
 31
0.0
  0
LINE
  5
35B6
  8
0-5
  6
CONTINUOUS
 62
     4
 10
14432.374142500001
 20
6615.7796040000021
 30
0.0
 11
16149.8340905
 21
6615.7796040000021
 31
0.0
  0
LINE
  5
35B7
  8
0-5
  6
CONTINUOUS
 62
     4
 10
16177.460251500001
 20
6823.6255910000036
 30
0.0
 11
15937.4584705
 21
6823.6255910000036
 31
0.0
  0
LINE
  5
35B8
  8
0-5
  6
CONTINUOUS
 62
     4
 10
16057.457876500001
 20
6615.7796040000021
 30
0.0
 11
16177.460251500001
 21
6823.6255910000036
 31
0.0
  0
LINE
  5
35B9
  8
0-5
  6
CONTINUOUS
 62
     4
 10
15937.4584705
 20
6823.6255910000036
 30
0.0
 11
16057.457876500001
 21
6615.7796040000021
 31
0.0
  0
LINE
  5
35BA
  8
2-0
  6
CENTER2
 62
     6
 10
8811.8738785000005
 20
6253.1263570000046
 30
0.0
 11
8811.8738785000005
 21
7310.2694489999967
 31
0.0
  0
LINE
  5
35BB
  8
2-0
  6
CENTER2
 62
     6
 10
11379.373878500001
 20
6253.1263570000046
 30
0.0
 11
11379.373878500001
 21
7310.2694489999967
 31
0.0
  0
LINE
  5
35BC
  8
2-0
  6
CENTER2
 62
     6
 10
14297.373878500001
 20
6253.1263570000046
 30
0.0
 11
14297.373878500001
 21
7310.2694489999967
 31
0.0
  0
ARC
  5
35BD
  8
0-1
  6
CONTINUOUS
 62
     3
 10
8595.2650575000062
 20
8730.6309420000034
 30
0.0
 40
2.5
 50
271.87799100002047
 51
91.877991000020657
  0
ARC
  5
35BE
  8
0-1
  6
CONTINUOUS
 62
     3
 10
8596.7397985000061
 20
8685.6562800000029
 30
0.0
 40
2.5
 50
271.87799100002047
 51
91.877991000020657
  0
ARC
  5
35BF
  8
0-1
  6
CONTINUOUS
 62
     3
 10
8593.9457085000067
 20
8725.0853210000023
 30
0.0
 40
3.0
 50
91.877991000020657
 51
181.87799100002039
  0
ARC
  5
35C0
  8
0-1
  6
CONTINUOUS
 62
     3
 10
14424.871701499989
 20
8898.6267460000035
 30
0.0
 40
20.0
 50
271.87799100002047
 51
91.877991000020657
  0
ARC
  5
35C1
  8
0-1
  6
CONTINUOUS
 62
     3
 10
8595.0601775000068
 20
8691.1039149999979
 30
0.0
 40
3.0
 50
181.87799100002039
 51
271.87799100002047
  0
ARC
  5
35C2
  8
0-1
  6
CONTINUOUS
 62
     3
 10
8595.4204495000085
 20
8680.1096690000049
 30
0.0
 40
3.0
 50
91.877991000020657
 51
181.87799100002039
  0
ARC
  5
35C3
  8
0-1
  6
CONTINUOUS
 62
     3
 10
8598.4689085000082
 20
8648.1919120000057
 30
0.0
 40
5.0
 50
181.87799100002039
 51
271.87799100002047
  0
ARC
  5
35C4
  8
0-1
  6
CONTINUOUS
 62
     3
 10
14419.873416500001
 20
8898.4634360000018
 30
0.0
 40
69.999999000000003
 50
293.66478000018742
 51
70.091202000197327
  0
ARC
  5
35C5
  8
0-1
  6
CONTINUOUS
 62
     3
 10
8594.5356045000062
 20
8768.1279730000024
 30
0.0
 40
5.0
 50
91.877991000020657
 51
181.87799100002039
  0
ARC
  5
35C6
  8
0-1
  6
CONTINUOUS
 62
     3
 10
8593.5854355000029
 20
8736.0795670000025
 30
0.0
 40
3.0
 50
181.87799100002039
 51
271.87799100002047
  0
ARC
  5
35C7
  8
0-1
  6
CONTINUOUS
 62
     3
 10
14424.871701499989
 20
8898.6267460000035
 30
0.0
 40
24.999998999999999
 50
271.87799100002047
 51
91.877991000020657
  0
TEXT
  5
35C8
  8
0-0
  6
CONTINUOUS
 62
     7
 10
17222.747439499992
 20
6803.6260200000024
 30
0.0
 40
160.0
  1
G.L
 72
     4
 11
17382.747439499992
 21
6883.6260200000042
 31
0.0
  0
TEXT
  5
35C9
  8
0-0
  6
CONTINUOUS
 62
     7
 10
15598.366937499981
 20
6903.6258549999966
 30
0.0
 40
160.0
  1
布基礎天端
 72
     4
 11
16057.033604166651
 21
6983.6258549999984
 31
0.0
  0
TEXT
  5
35CA
  8
2-0
  6
CONTINUOUS
 62
     7
 10
9898.7830575000098
 20
3638.6597025833762
 30
0.0
 40
160.0
  1
側 面 立 面 図
 72
     4
 11
10544.11639083334
 21
3718.6597025833762
 31
0.0
  0
TEXT
  5
35CB
  8
2-0
  6
CONTINUOUS
 62
     7
 10
11895.60857597094
 20
3665.855071583379
 30
0.0
 40
160.0
  1
1
 72
     4
 11
11922.27524263761
 21
3745.855071583379
 31
0.0
  0
TEXT
  5
35CC
  8
2-0
  6
CONTINUOUS
 62
     7
 10
12138.69729322165
 20
3585.8565395833748
 30
0.0
 40
160.0
  1
80
 72
     4
 11
12258.69729322165
 21
3665.8565395833748
 31
0.0
  0
TEXT
  5
35CD
  8
2-0
  6
CONTINUOUS
 62
     7
 10
11396.61054197096
 20
3638.6597025833762
 30
0.0
 40
160.0
  1
(S=  /   )
 72
     4
 11
11956.61054197096
 21
3718.6597025833762
 31
0.0
  0
LINE
  5
35CE
  8
0-1
  6
CONTINUOUS
 62
     3
 10
9064.3743395000256
 20
6665.7797690000016
 30
0.0
 11
9064.3743395000256
 21
8526.8256480000018
 31
0.0
  0
LINE
  5
35CF
  8
0-1
  6
CONTINUOUS
 62
     3
 10
9049.3755275000221
 20
6665.7797690000016
 30
0.0
 11
9049.3755275000221
 21
8526.8256480000018
 31
0.0
  0
LINE
  5
35D0
  8
0-5
  6
CONTINUOUS
 62
     4
 10
14297.373878500001
 20
4835.7801650000047
 30
0.0
 11
14297.373878500001
 21
4675.7806270000037
 31
0.0
  0
LINE
  5
35D1
  8
0-5
  6
CONTINUOUS
 62
     4
 10
11379.373878500001
 20
4835.7801650000047
 30
0.0
 11
11379.373878500001
 21
4675.7806270000037
 31
0.0
  0
LINE
  5
35D2
  8
0-5
  6
CONTINUOUS
 62
     4
 10
8811.8738785000005
 20
4835.7801650000047
 30
0.0
 11
8811.8738785000005
 21
4675.7806270000037
 31
0.0
  0
CIRCLE
  5
35D3
  8
0-5
  6
CONTINUOUS
 62
     4
 10
11379.373878500001
 20
4475.7794720000047
 30
0.0
 40
199.9999949999999
  0
CIRCLE
  5
35D4
  8
0-5
  6
CONTINUOUS
 62
     4
 10
14297.373878500001
 20
4475.7794720000047
 30
0.0
 40
199.9999949999999
  0
CIRCLE
  5
35D5
  8
0-5
  6
CONTINUOUS
 62
     4
 10
8811.8738785000005
 20
4475.7794720000047
 30
0.0
 40
199.9999949999999
  0
TEXT
  5
35D6
  8
0-5
  6
CONTINUOUS
 62
     7
 10
14250.417718499981
 20
4392.5686760000062
 30
0.0
 40
160.0
  1
A
 72
     4
 11
14303.75105183332
 21
4472.5686760000071
 31
0.0
  0
TEXT
  5
35D7
  8
0-5
  6
CONTINUOUS
 62
     7
 10
11332.417718499981
 20
4392.5686760000062
 30
0.0
 40
160.0
  1
B
 72
     4
 11
11385.75105183332
 21
4472.5686760000071
 31
0.0
  0
TEXT
  5
35D8
  8
0-5
  6
CONTINUOUS
 62
     7
 10
8764.9177185000062
 20
4392.5686760000062
 30
0.0
 40
160.0
  1
C
 72
     4
 11
8818.2510518333402
 21
4472.5686760000071
 31
0.0
  0
LINE
  5
35E3
  8
0-1
  6
CONTINUOUS
 62
     3
 10
24629.619139499991
 20
6615.7796039999957
 30
0.0
 11
24529.619798499989
 21
6615.7796039999957
 31
0.0
  0
LINE
  5
35E4
  8
0-1
  6
CONTINUOUS
 62
     3
 10
24529.619798499989
 20
6615.7796039999957
 30
0.0
 11
24529.619798499989
 21
6515.7797690000016
 31
0.0
  0
LINE
  5
35E5
  8
0-1
  6
CONTINUOUS
 62
     3
 10
24629.619139499991
 20
6515.7797690000016
 30
0.0
 11
24629.619139499991
 21
6615.7796039999957
 31
0.0
  0
LINE
  5
35E6
  8
0-1
  6
CONTINUOUS
 62
     3
 10
24602.119666499999
 20
8964.2799530000029
 30
0.0
 11
24602.119666499999
 21
6615.7796039999957
 31
0.0
  0
LINE
  5
35E7
  8
0-1
  6
CONTINUOUS
 62
     3
 10
24622.118743499988
 20
8834.2790299999979
 30
0.0
 11
24622.118743499988
 21
6615.7796039999957
 31
0.0
  0
LINE
  5
35E8
  8
0-1
  6
CONTINUOUS
 62
     3
 10
24492.119798499982
 20
8523.7796629999975
 30
0.0
 11
24492.119798499982
 21
6515.7797690000016
 31
0.0
  0
LINE
  5
35E9
  8
0-1
  6
CONTINUOUS
 62
     3
 10
24537.120194499981
 20
8834.2790299999979
 30
0.0
 11
24537.120194499981
 21
6615.7796039999957
 31
0.0
  0
LINE
  5
35F2
  8
0-1
  6
CONTINUOUS
 62
     3
 10
22755.616763500009
 20
8834.2790299999979
 30
0.0
 11
22755.616763500009
 21
6515.7797690000016
 31
0.0
  0
LINE
  5
35F3
  8
0-1
  6
CONTINUOUS
 62
     3
 10
22800.61715950002
 20
8523.7796629999975
 30
0.0
 11
22800.61715950002
 21
6515.7797690000016
 31
0.0
  0
LINE
  5
35F6
  8
0-1
  6
CONTINUOUS
 62
     3
 10
22800.61715950002
 20
8455.2393269999993
 30
0.0
 11
24492.119798499982
 21
8455.2393269999993
 31
0.0
  0
LINE
  5
35F7
  8
0-1
  6
CONTINUOUS
 62
     3
 10
22800.61715950002
 20
7100.7804619999988
 30
0.0
 11
24492.119798499982
 21
7100.7804619999988
 31
0.0
  0
LINE
  5
35F8
  8
0-1
  6
CONTINUOUS
 62
     3
 10
22800.61715950002
 20
7165.7794390000035
 30
0.0
 11
24492.119798499982
 21
7165.7794390000035
 31
0.0
  0
LINE
  5
35F9
  8
0-1
  6
CONTINUOUS
 62
     3
 10
22800.61715950002
 20
7230.7799009999972
 30
0.0
 11
24492.119798499982
 21
7230.7799009999972
 31
0.0
  0
LINE
  5
35FA
  8
0-1
  6
CONTINUOUS
 62
     3
 10
22800.61715950002
 20
7295.7798679999978
 30
0.0
 11
24492.119798499982
 21
7295.7798679999978
 31
0.0
  0
LINE
  5
35FB
  8
0-1
  6
CONTINUOUS
 62
     3
 10
22800.61715950002
 20
7360.7798349999975
 30
0.0
 11
24492.119798499982
 21
7360.7798349999975
 31
0.0
  0
LINE
  5
35FC
  8
0-1
  6
CONTINUOUS
 62
     3
 10
22800.61715950002
 20
7425.7798019999982
 30
0.0
 11
24492.119798499982
 21
7425.7798019999982
 31
0.0
  0
LINE
  5
35FD
  8
0-1
  6
CONTINUOUS
 62
     3
 10
22800.61715950002
 20
7490.7802640000027
 30
0.0
 11
24492.119798499982
 21
7490.7802640000027
 31
0.0
  0
LINE
  5
35FE
  8
0-1
  6
CONTINUOUS
 62
     3
 10
22800.61715950002
 20
7555.7792409999929
 30
0.0
 11
24492.119798499982
 21
7555.7792409999929
 31
0.0
  0
LINE
  5
35FF
  8
0-1
  6
CONTINUOUS
 62
     3
 10
22800.61715950002
 20
7620.7797029999929
 30
0.0
 11
24492.119798499982
 21
7620.7797029999929
 31
0.0
  0
LINE
  5
3600
  8
0-1
  6
CONTINUOUS
 62
     3
 10
22800.61715950002
 20
7685.7796699999981
 30
0.0
 11
24492.119798499982
 21
7685.7796699999981
 31
0.0
  0
LINE
  5
3601
  8
0-1
  6
CONTINUOUS
 62
     3
 10
22800.61715950002
 20
7750.7801319999971
 30
0.0
 11
24492.119798499982
 21
7750.7801319999971
 31
0.0
  0
LINE
  5
3602
  8
0-1
  6
CONTINUOUS
 62
     3
 10
22800.61715950002
 20
7815.7791089999973
 30
0.0
 11
24492.119798499982
 21
7815.7791089999973
 31
0.0
  0
LINE
  5
3603
  8
0-1
  6
CONTINUOUS
 62
     3
 10
22800.61715950002
 20
7880.7795709999973
 30
0.0
 11
24492.119798499982
 21
7880.7795709999973
 31
0.0
  0
LINE
  5
3604
  8
0-1
  6
CONTINUOUS
 62
     3
 10
22800.61715950002
 20
7945.7795379999998
 30
0.0
 11
24492.119798499982
 21
7945.7795379999998
 31
0.0
  0
LINE
  5
3605
  8
0-1
  6
CONTINUOUS
 62
     3
 10
22800.61715950002
 20
8010.7795050000004
 30
0.0
 11
24492.119798499982
 21
8010.7795050000004
 31
0.0
  0
LINE
  5
3606
  8
0-1
  6
CONTINUOUS
 62
     3
 10
22800.61715950002
 20
8075.7799670000022
 30
0.0
 11
24492.119798499982
 21
8075.7799670000022
 31
0.0
  0
LINE
  5
3607
  8
0-1
  6
CONTINUOUS
 62
     3
 10
22800.61715950002
 20
8140.7799339999992
 30
0.0
 11
24492.119798499982
 21
8140.7799339999992
 31
0.0
  0
LINE
  5
3608
  8
0-1
  6
CONTINUOUS
 62
     3
 10
22800.61715950002
 20
8205.7803959999983
 30
0.0
 11
24492.119798499982
 21
8205.7803959999983
 31
0.0
  0
LINE
  5
3609
  8
0-1
  6
CONTINUOUS
 62
     3
 10
22800.61715950002
 20
8270.7793729999976
 30
0.0
 11
24492.119798499982
 21
8270.7793729999976
 31
0.0
  0
LINE
  5
360A
  8
0-1
  6
CONTINUOUS
 62
     3
 10
22800.61715950002
 20
8335.779835000003
 30
0.0
 11
24492.119798499982
 21
8335.779835000003
 31
0.0
  0
LINE
  5
360B
  8
0-1
  6
CONTINUOUS
 62
     3
 10
22800.61715950002
 20
8400.7798019999973
 30
0.0
 11
24492.119798499982
 21
8400.7798019999973
 31
0.0
  0
LINE
  5
360C
  8
0-1
  6
CONTINUOUS
 62
     3
 10
22800.61715950002
 20
6580.7792409999956
 30
0.0
 11
24492.119798499982
 21
6580.7792409999956
 31
0.0
  0
LINE
  5
360D
  8
0-1
  6
CONTINUOUS
 62
     3
 10
22800.61715950002
 20
6645.7801979999967
 30
0.0
 11
24492.119798499982
 21
6645.7801979999967
 31
0.0
  0
LINE
  5
360E
  8
0-1
  6
CONTINUOUS
 62
     3
 10
22800.61715950002
 20
6710.7791749999997
 30
0.0
 11
24492.119798499982
 21
6710.7791749999997
 31
0.0
  0
LINE
  5
360F
  8
0-1
  6
CONTINUOUS
 62
     3
 10
22800.61715950002
 20
6775.7801319999971
 30
0.0
 11
24492.119798499982
 21
6775.7801319999971
 31
0.0
  0
LINE
  5
3610
  8
0-1
  6
CONTINUOUS
 62
     3
 10
22800.61715950002
 20
6840.7796040000012
 30
0.0
 11
24492.119798499982
 21
6840.7796040000012
 31
0.0
  0
LINE
  5
3611
  8
0-1
  6
CONTINUOUS
 62
     3
 10
22800.61715950002
 20
6905.779571
 30
0.0
 11
24492.119798499982
 21
6905.779571
 31
0.0
  0
LINE
  5
3612
  8
0-1
  6
CONTINUOUS
 62
     3
 10
22800.61715950002
 20
6970.7795379999989
 30
0.0
 11
24492.119798499982
 21
6970.7795379999989
 31
0.0
  0
LINE
  5
3613
  8
0-1
  6
CONTINUOUS
 62
     3
 10
22800.61715950002
 20
7035.7790099999966
 30
0.0
 11
24492.119798499982
 21
7035.7790099999966
 31
0.0
  0
LINE
  5
3615
  8
0-1
  6
CONTINUOUS
 62
     3
 10
22755.616763500009
 20
8523.7796629999975
 30
0.0
 11
24537.120194499981
 21
8523.7796629999975
 31
0.0
  0
LINE
  5
3616
  8
0-1
  6
CONTINUOUS
 62
     3
 10
19745.117820499989
 20
6515.7797690000016
 30
0.0
 11
24629.619139499991
 21
6515.7797690000016
 31
0.0
  0
LINE
  5
3620
  8
0-1
  6
CONTINUOUS
 62
     3
 10
22670.618215499991
 20
8834.2790299999979
 30
0.0
 11
22670.618215499991
 21
6515.7797690000016
 31
0.0
  0
LINE
  5
3621
  8
0-1
  6
CONTINUOUS
 62
     3
 10
22625.61979949996
 20
8523.7796629999975
 30
0.0
 11
22625.61979949996
 21
6515.7797690000016
 31
0.0
  0
LINE
  5
362C
  8
0-1
  6
CONTINUOUS
 62
     3
 10
19845.119139499991
 20
6615.7796039999957
 30
0.0
 11
19845.119139499991
 21
6515.7797690000016
 31
0.0
  0
LINE
  5
362D
  8
0-1
  6
CONTINUOUS
 62
     3
 10
19745.117820499989
 20
6515.7797690000016
 30
0.0
 11
19745.117820499989
 21
6615.7796039999957
 31
0.0
  0
LINE
  5
362E
  8
0-1
  6
CONTINUOUS
 62
     3
 10
19745.117820499989
 20
6615.7796039999957
 30
0.0
 11
19845.119139499991
 21
6615.7796039999957
 31
0.0
  0
LINE
  5
362F
  8
0-1
  6
CONTINUOUS
 62
     3
 10
19882.619139499991
 20
8523.7796629999975
 30
0.0
 11
19882.619139499991
 21
6515.7797690000016
 31
0.0
  0
LINE
  5
3630
  8
0-1
  6
CONTINUOUS
 62
     3
 10
19837.616764499991
 20
8834.2790299999979
 30
0.0
 11
19837.616764499991
 21
6615.7796039999957
 31
0.0
  0
LINE
  5
3631
  8
0-1
  6
CONTINUOUS
 62
     3
 10
19772.619271499982
 20
8964.2799530000029
 30
0.0
 11
19772.619271499982
 21
6615.7796039999957
 31
0.0
  0
LINE
  5
3632
  8
0-1
  6
CONTINUOUS
 62
     3
 10
19752.616236499991
 20
8834.2790299999979
 30
0.0
 11
19752.616236499991
 21
6615.7796039999957
 31
0.0
  0
LINE
  5
3633
  8
0-1
  6
CONTINUOUS
 62
     3
 10
19837.616764499991
 20
8523.7796629999975
 30
0.0
 11
22670.618215499991
 21
8523.7796629999975
 31
0.0
  0
LINE
  5
3635
  8
0-1
  6
CONTINUOUS
 62
     3
 10
19882.619139499991
 20
7035.7790099999966
 30
0.0
 11
22625.61979949996
 21
7035.7790099999966
 31
0.0
  0
LINE
  5
3636
  8
0-1
  6
CONTINUOUS
 62
     3
 10
19882.619139499991
 20
6970.7795379999989
 30
0.0
 11
22625.61979949996
 21
6970.7795379999989
 31
0.0
  0
LINE
  5
3637
  8
0-1
  6
CONTINUOUS
 62
     3
 10
19882.619139499991
 20
6905.779571
 30
0.0
 11
22625.61979949996
 21
6905.779571
 31
0.0
  0
LINE
  5
3638
  8
0-1
  6
CONTINUOUS
 62
     3
 10
19882.619139499991
 20
6840.7796040000012
 30
0.0
 11
22625.61979949996
 21
6840.7796040000012
 31
0.0
  0
LINE
  5
3639
  8
0-1
  6
CONTINUOUS
 62
     3
 10
19882.619139499991
 20
6775.7801319999971
 30
0.0
 11
22625.61979949996
 21
6775.7801319999971
 31
0.0
  0
LINE
  5
363A
  8
0-1
  6
CONTINUOUS
 62
     3
 10
19882.619139499991
 20
6710.7791749999997
 30
0.0
 11
22625.61979949996
 21
6710.7791749999997
 31
0.0
  0
LINE
  5
363B
  8
0-1
  6
CONTINUOUS
 62
     3
 10
19882.619139499991
 20
6645.7801979999967
 30
0.0
 11
22625.61979949996
 21
6645.7801979999967
 31
0.0
  0
LINE
  5
363C
  8
0-1
  6
CONTINUOUS
 62
     3
 10
19882.619139499991
 20
6580.7792409999956
 30
0.0
 11
22625.61979949996
 21
6580.7792409999956
 31
0.0
  0
LINE
  5
363D
  8
0-1
  6
CONTINUOUS
 62
     3
 10
19882.619139499991
 20
8400.7798019999973
 30
0.0
 11
22625.61979949996
 21
8400.7798019999973
 31
0.0
  0
LINE
  5
363E
  8
0-1
  6
CONTINUOUS
 62
     3
 10
19882.619139499991
 20
8335.779835000003
 30
0.0
 11
22625.61979949996
 21
8335.779835000003
 31
0.0
  0
LINE
  5
363F
  8
0-1
  6
CONTINUOUS
 62
     3
 10
19882.619139499991
 20
8270.7793729999976
 30
0.0
 11
22625.61979949996
 21
8270.7793729999976
 31
0.0
  0
LINE
  5
3640
  8
0-1
  6
CONTINUOUS
 62
     3
 10
19882.619139499991
 20
8205.7803959999983
 30
0.0
 11
22625.61979949996
 21
8205.7803959999983
 31
0.0
  0
LINE
  5
3641
  8
0-1
  6
CONTINUOUS
 62
     3
 10
19882.619139499991
 20
8140.7799339999992
 30
0.0
 11
22625.61979949996
 21
8140.7799339999992
 31
0.0
  0
LINE
  5
3642
  8
0-1
  6
CONTINUOUS
 62
     3
 10
19882.619139499991
 20
8075.7799670000022
 30
0.0
 11
22625.61979949996
 21
8075.7799670000022
 31
0.0
  0
LINE
  5
3643
  8
0-1
  6
CONTINUOUS
 62
     3
 10
19882.619139499991
 20
8010.7795050000004
 30
0.0
 11
22625.61979949996
 21
8010.7795050000004
 31
0.0
  0
LINE
  5
3644
  8
0-1
  6
CONTINUOUS
 62
     3
 10
19882.619139499991
 20
7945.7795379999998
 30
0.0
 11
22625.61979949996
 21
7945.7795379999998
 31
0.0
  0
LINE
  5
3645
  8
0-1
  6
CONTINUOUS
 62
     3
 10
19882.619139499991
 20
7880.7795709999973
 30
0.0
 11
22625.61979949996
 21
7880.7795709999973
 31
0.0
  0
LINE
  5
3646
  8
0-1
  6
CONTINUOUS
 62
     3
 10
19882.619139499991
 20
7815.7791089999973
 30
0.0
 11
22625.61979949996
 21
7815.7791089999973
 31
0.0
  0
LINE
  5
3647
  8
0-1
  6
CONTINUOUS
 62
     3
 10
19882.619139499991
 20
7750.7801319999971
 30
0.0
 11
22625.61979949996
 21
7750.7801319999971
 31
0.0
  0
LINE
  5
3648
  8
0-1
  6
CONTINUOUS
 62
     3
 10
19882.619139499991
 20
7685.7796699999981
 30
0.0
 11
22625.61979949996
 21
7685.7796699999981
 31
0.0
  0
LINE
  5
3649
  8
0-1
  6
CONTINUOUS
 62
     3
 10
19882.619139499991
 20
7620.7797029999929
 30
0.0
 11
22625.61979949996
 21
7620.7797029999929
 31
0.0
  0
LINE
  5
364A
  8
0-1
  6
CONTINUOUS
 62
     3
 10
19882.619139499991
 20
7555.7792409999929
 30
0.0
 11
22625.61979949996
 21
7555.7792409999929
 31
0.0
  0
LINE
  5
364B
  8
0-1
  6
CONTINUOUS
 62
     3
 10
19882.619139499991
 20
7490.7802640000027
 30
0.0
 11
22625.61979949996
 21
7490.7802640000027
 31
0.0
  0
LINE
  5
364C
  8
0-1
  6
CONTINUOUS
 62
     3
 10
19882.619139499991
 20
7425.7798019999982
 30
0.0
 11
22625.61979949996
 21
7425.7798019999982
 31
0.0
  0
LINE
  5
364D
  8
0-1
  6
CONTINUOUS
 62
     3
 10
19882.619139499991
 20
7360.7798349999975
 30
0.0
 11
22625.61979949996
 21
7360.7798349999975
 31
0.0
  0
LINE
  5
364E
  8
0-1
  6
CONTINUOUS
 62
     3
 10
19882.619139499991
 20
7295.7798679999978
 30
0.0
 11
22625.61979949996
 21
7295.7798679999978
 31
0.0
  0
LINE
  5
364F
  8
0-1
  6
CONTINUOUS
 62
     3
 10
19882.619139499991
 20
7230.7799009999972
 30
0.0
 11
22625.61979949996
 21
7230.7799009999972
 31
0.0
  0
LINE
  5
3650
  8
0-1
  6
CONTINUOUS
 62
     3
 10
19882.619139499991
 20
7165.7794390000035
 30
0.0
 11
22625.61979949996
 21
7165.7794390000035
 31
0.0
  0
LINE
  5
3651
  8
0-1
  6
CONTINUOUS
 62
     3
 10
19882.619139499991
 20
7100.7804619999988
 30
0.0
 11
22625.61979949996
 21
7100.7804619999988
 31
0.0
  0
LINE
  5
3652
  8
0-1
  6
CONTINUOUS
 62
     3
 10
19882.619139499991
 20
8455.2393269999993
 30
0.0
 11
22625.61979949996
 21
8455.2393269999993
 31
0.0
  0
LINE
  5
3658
  8
0-2
  6
CONTINUOUS
 62
     4
 10
21617.80949
 20
7263.0054729999974
 30
0.0
 11
21517.810150000001
 21
7263.0054729999974
 31
0.0
  0
LINE
  5
3659
  8
0-2
  6
CONTINUOUS
 62
     4
 10
20890.425489000001
 20
7263.0054729999974
 30
0.0
 11
20990.422849999992
 21
7263.0054729999974
 31
0.0
  0
LINE
  5
365A
  8
0-5
  6
CONTINUOUS
 62
     4
 10
22713.118479499979
 20
4835.7796699999972
 30
0.0
 11
22713.118479499979
 21
4675.7796369999969
 31
0.0
  0
LINE
  5
365B
  8
0-5
  6
CONTINUOUS
 62
     4
 10
19795.11847949999
 20
4835.7796699999972
 30
0.0
 11
19795.11847949999
 21
4675.7796369999969
 31
0.0
  0
LINE
  5
365C
  8
2-0
  6
CENTER2
 62
     6
 10
24579.618479500001
 20
6253.1273459999966
 30
0.0
 11
24579.618479500001
 21
7290.2693829999998
 31
0.0
  0
LINE
  5
365D
  8
2-0
  6
CENTER2
 62
     6
 10
22713.118479499979
 20
6253.1273459999966
 30
0.0
 11
22713.118479499979
 21
7290.2693829999998
 31
0.0
  0
LINE
  5
365E
  8
2-0
  6
CENTER2
 62
     6
 10
19795.11847949999
 20
6253.1273459999966
 30
0.0
 11
19795.11847949999
 21
7290.2693829999998
 31
0.0
  0
CIRCLE
  5
366F
  8
0-5
  6
CONTINUOUS
 62
     4
 10
22713.118479499979
 20
4475.7799669999986
 30
0.0
 40
199.9999949999999
  0
CIRCLE
  5
3670
  8
0-5
  6
CONTINUOUS
 62
     4
 10
19795.11847949999
 20
4475.7799669999986
 30
0.0
 40
199.9999949999999
  0
TEXT
  5
3671
  8
0-5
  6
CONTINUOUS
 62
     7
 10
19176.9425405
 20
7245.1400157419948
 30
0.0
 40
160.0
  1
(2131.5)
 50
90.0
 72
     4
 11
19096.9425405
 21
7698.4733490753279
 31
0.0
  0
TEXT
  5
3672
  8
0-5
  6
CONTINUOUS
 62
     7
 10
22666.190032499992
 20
4389.2500129999971
 30
0.0
 40
160.0
  1
2
 72
     4
 11
22719.52336583332
 21
4469.2500129999971
 31
0.0
  0
TEXT
  5
3673
  8
0-5
  6
CONTINUOUS
 62
     7
 10
19748.18607349999
 20
4389.2500129999971
 30
0.0
 40
160.0
  1
1
 72
     4
 11
19774.852740166662
 21
4469.2500129999971
 31
0.0
  0
CIRCLE
  5
3674
  8
0-4
  6
CONTINUOUS
 62
     4
 10
21254.11847949999
 20
7001.8357099999976
 30
0.0
 40
18.487504999999981
  0
LINE
  5
3675
  8
SUNPOU
  6
CONTINUOUS
 10
19512.618479499979
 20
5315.7797690000016
 30
0.0
 11
19154.663472778881
 21
5315.7797690000016
 31
0.0
  0
LINE
  5
3676
  8
SUNPOU
  6
CONTINUOUS
 10
24862.122438499991
 20
5315.7797690000016
 30
0.0
 11
25220.07744522109
 21
5315.7797690000016
 31
0.0
  0
LINE
  5
3677
  8
0-5
  6
CONTINUOUS
 62
     4
 10
24622.11847949999
 20
4835.7796699999972
 30
0.0
 11
24622.11847949999
 21
4675.7796369999969
 31
0.0
  0
CIRCLE
  5
3678
  8
0-5
  6
CONTINUOUS
 62
     4
 10
24622.11847949999
 20
4475.7799669999986
 30
0.0
 40
199.9999949999999
  0
TEXT
  5
3679
  8
0-5
  6
CONTINUOUS
 62
     7
 10
24575.190032499999
 20
4389.2500129999971
 30
0.0
 40
160.0
  1
3
 72
     4
 11
24628.523365833331
 21
4469.2500129999971
 31
0.0
  0
TEXT
  5
367A
  8
2-0
  6
CONTINUOUS
 62
     7
 10
20869.334735499979
 20
3638.6581370000022
 30
0.0
 40
160.0
  1
正 面 立 面 図
 50
0.000139
 72
     4
 11
21514.667874750801
 21
3718.6597025833762
 31
0.0
  0
TEXT
  5
367B
  8
2-0
  6
CONTINUOUS
 62
     7
 10
22866.16005988844
 20
3665.855071583379
 30
0.0
 40
160.0
  1
1
 72
     4
 11
22892.826726555111
 21
3745.855071583379
 31
0.0
  0
TEXT
  5
367C
  8
2-0
  6
CONTINUOUS
 62
     7
 10
23109.248777139121
 20
3585.8565395833748
 30
0.0
 40
160.0
  1
80
 72
     4
 11
23229.248777139121
 21
3665.8565395833748
 31
0.0
  0
TEXT
  5
367D
  8
2-0
  6
CONTINUOUS
 62
     7
 10
22367.16202588844
 20
3638.6597025833762
 30
0.0
 40
160.0
  1
(S=  /   )
 72
     4
 11
22927.16202588844
 21
3718.6597025833762
 31
0.0
  0
LINE
  5
367E
  8
0-5
  6
CONTINUOUS
 62
     4
 10
17222.749419499982
 20
6723.625261000001
 30
0.0
 11
17342.745856499991
 21
6515.7797690000016
 31
0.0
  0
LINE
  5
367F
  8
0-5
  6
CONTINUOUS
 62
     4
 10
17342.745856499991
 20
6515.7797690000016
 30
0.0
 11
17462.746252499979
 21
6723.625261000001
 31
0.0
  0
LINE
  5
3680
  8
0-5
  6
CONTINUOUS
 62
     4
 10
17462.746252499979
 20
6723.625261000001
 30
0.0
 11
17222.749419499982
 21
6723.625261000001
 31
0.0
  0
TEXT
  5
3681
  8
0-5
  6
CONTINUOUS
 62
     7
 10
17222.749419499982
 20
6803.6260190000021
 30
0.0
 40
160.0
  1
G.L
 72
     4
 11
17382.749419499982
 21
6883.6260190000021
 31
0.0
  0
TEXT
  5
3682
  8
2-0
  6
CONTINUOUS
 62
     7
 10
21106.442382500009
 20
12154.23951899999
 30
0.0
 40
160.0
  1
平　面　図
 50
359.99978700000008
 72
     4
 11
21559.775993407369
 21
12228.90450037622
 31
0.0
  0
TEXT
  5
3683
  8
2-0
  6
CONTINUOUS
 62
     7
 10
22911.268178544989
 20
12176.09986937623
 30
0.0
 40
160.0
  1
1
 72
     4
 11
22937.934845211661
 21
12256.09986937623
 31
0.0
  0
TEXT
  5
3684
  8
2-0
  6
CONTINUOUS
 62
     7
 10
23154.356895795681
 20
12096.101337376231
 30
0.0
 40
160.0
  1
80
 72
     4
 11
23274.356895795681
 21
12176.101337376231
 31
0.0
  0
TEXT
  5
3685
  8
2-0
  6
CONTINUOUS
 62
     7
 10
22412.270144544978
 20
12148.90450037622
 30
0.0
 40
160.0
  1
(S=  /   )
 72
     4
 11
22972.270144544978
 21
12228.90450037622
 31
0.0
  0
LINE
  5
3686
  8
2-0
  6
CONTINUOUS
 62
     6
 10
22896.459563499979
 20
13766.229791999989
 30
0.0
 11
23896.452965499961
 21
13766.229791999989
 31
0.0
  0
LINE
  5
3687
  8
2-0
  6
CONTINUOUS
 62
     6
 10
24364.393342499981
 20
14236.650506
 30
0.0
 11
23896.452965499961
 21
13766.229791999989
 31
0.0
  0
LINE
  5
3688
  8
2-0
  6
CONTINUOUS
 62
     6
 10
24325.75313949999
 20
17428.25815300001
 30
0.0
 11
24021.057721500001
 21
17531.911684000021
 31
0.0
  0
LINE
  5
3689
  8
2-0
  6
CONTINUOUS
 62
     6
 10
24480.77517849996
 20
16938.636109000021
 30
0.0
 11
24021.057721500001
 21
16694.722797999999
 31
0.0
  0
LINE
  5
368A
  8
2-0
  6
CONTINUOUS
 62
     6
 10
23101.054686499981
 20
16694.722797999999
 30
0.0
 11
24021.057721500001
 21
16694.722797999999
 31
0.0
  0
LINE
  5
368B
  8
2-0
  6
CONTINUOUS
 62
     6
 10
22821.063659499981
 20
17531.911684000021
 30
0.0
 11
24021.057721500001
 21
17531.911684000021
 31
0.0
  0
LINE
  5
368C
  8
2-0
  6
CONTINUOUS
 62
     6
 10
24396.952463499991
 20
14558.334151999979
 30
0.0
 11
24021.057721500001
 21
14739.277986999999
 31
0.0
  0
LINE
  5
368D
  8
2-0
  6
CONTINUOUS
 62
     6
 10
23501.056005499991
 20
14739.277986999999
 30
0.0
 11
24021.057721500001
 21
14739.277986999999
 31
0.0
  0
LINE
  5
368E
  8
2-0
  6
CONTINUOUS
 62
     4
 10
22713.118479499979
 20
20014.231442000018
 30
0.0
 11
22713.118479499979
 21
20744.228406999999
 31
0.0
  0
LINE
  5
368F
  8
2-0
  6
CONTINUOUS
 62
     3
 10
24592.119139499991
 20
19825.228987999999
 30
0.0
 11
24592.119139499991
 21
19819.23302600002
 31
0.0
  0
LINE
  5
3690
  8
2-0
  6
CONTINUOUS
 62
     3
 10
24592.119139499991
 20
19819.23302600002
 30
0.0
 11
24622.116763499991
 21
19819.23302600002
 31
0.0
  0
LINE
  5
3691
  8
2-0
  6
CONTINUOUS
 62
     3
 10
24622.116763499991
 20
19849.23263000001
 30
0.0
 11
24541.114863499992
 21
19849.23263000001
 31
0.0
  0
LINE
  5
3692
  8
2-0
  6
CONTINUOUS
 62
     3
 10
24592.119139499991
 20
19808.935570000001
 30
0.0
 11
24622.116763499991
 21
19808.935570000001
 31
0.0
  0
LINE
  5
3693
  8
2-0
  6
CONTINUOUS
 62
     3
 10
24592.119139499991
 20
19826.93731200002
 30
0.0
 11
24592.119139499991
 21
19808.935570000001
 31
0.0
  0
LINE
  5
3694
  8
2-0
  6
CONTINUOUS
 62
     3
 10
24617.1164995
 20
19826.93731200002
 30
0.0
 11
24592.119139499991
 21
19826.93731200002
 31
0.0
  0
LINE
  5
3695
  8
2-0
  6
CONTINUOUS
 62
     3
 10
24617.1164995
 20
19821.929130000019
 30
0.0
 11
24617.1164995
 21
19826.93731200002
 31
0.0
  0
LINE
  5
3696
  8
2-0
  6
CONTINUOUS
 62
     3
 10
24610.1149425
 20
19821.929130000019
 30
0.0
 11
24617.1164995
 21
19821.929130000019
 31
0.0
  0
LINE
  5
3697
  8
2-0
  6
CONTINUOUS
 62
     3
 10
24509.818674499991
 20
19922.229357000011
 30
0.0
 11
24509.818674499991
 21
19929.234873000001
 31
0.0
  0
LINE
  5
3698
  8
2-0
  6
CONTINUOUS
 62
     3
 10
24509.818674499991
 20
19929.234873000001
 30
0.0
 11
24514.818938499971
 21
19929.234873000001
 31
0.0
  0
LINE
  5
3699
  8
2-0
  6
CONTINUOUS
 62
     3
 10
24514.818938499971
 20
19929.234873000001
 30
0.0
 11
24514.818938499971
 21
19904.22563600001
 31
0.0
  0
LINE
  5
369A
  8
2-0
  6
CONTINUOUS
 62
     3
 10
24514.818938499971
 20
19904.22563600001
 30
0.0
 11
24496.81719649996
 21
19904.22563600001
 31
0.0
  0
LINE
  5
369B
  8
2-0
  6
CONTINUOUS
 62
     3
 10
24496.81719649996
 20
19904.22563600001
 30
0.0
 11
24496.81719649996
 21
19934.229199000009
 31
0.0
  0
LINE
  5
369C
  8
2-0
  6
CONTINUOUS
 62
     3
 10
24507.114652499989
 20
19934.229199000009
 30
0.0
 11
24622.116763499991
 21
19934.229199000009
 31
0.0
  0
LINE
  5
369D
  8
2-0
  6
CONTINUOUS
 62
     3
 10
24507.114652499989
 20
19904.22563600001
 30
0.0
 11
24507.114652499989
 21
19934.229199000009
 31
0.0
  0
LINE
  5
369E
  8
2-0
  6
CONTINUOUS
 62
     3
 10
24513.116552499989
 20
19904.22563600001
 30
0.0
 11
24507.114652499989
 21
19904.22563600001
 31
0.0
  0
LINE
  5
369F
  8
2-0
  6
CONTINUOUS
 62
     3
 10
24610.1149425
 20
19468.632307499978
 30
0.0
 11
24617.1164995
 21
19468.632307499978
 31
0.0
  0
LINE
  5
36A0
  8
2-0
  6
CONTINUOUS
 62
     3
 10
24617.1164995
 20
19468.632307499978
 30
0.0
 11
24617.1164995
 21
19473.632571499991
 31
0.0
  0
LINE
  5
36A1
  8
2-0
  6
CONTINUOUS
 62
     3
 10
24617.1164995
 20
19473.632571499991
 30
0.0
 11
24592.119139499991
 21
19473.632571499991
 31
0.0
  0
LINE
  5
36A2
  8
2-0
  6
CONTINUOUS
 62
     3
 10
24592.119139499991
 20
19473.632571499991
 30
0.0
 11
24592.119139499991
 21
19455.6367675
 31
0.0
  0
LINE
  5
36A3
  8
2-0
  6
CONTINUOUS
 62
     3
 10
24592.119139499991
 20
19455.6367675
 30
0.0
 11
24622.116763499991
 21
19455.6367675
 31
0.0
  0
LINE
  5
36A4
  8
2-0
  6
CONTINUOUS
 62
     3
 10
24592.119139499991
 20
19471.728274499968
 30
0.0
 11
24592.119139499991
 21
19465.730333499989
 31
0.0
  0
LINE
  5
36A5
  8
2-0
  6
CONTINUOUS
 62
     3
 10
24592.119139499991
 20
19465.730333499989
 30
0.0
 11
24622.116763499991
 21
19465.730333499989
 31
0.0
  0
LINE
  5
36A6
  8
2-0
  6
CONTINUOUS
 62
     3
 10
24622.116763499991
 20
19465.730333499989
 30
0.0
 11
24622.116763499991
 21
19502.7314945
 31
0.0
  0
LINE
  5
36A7
  8
2-0
  6
CONTINUOUS
 62
     3
 10
24592.119139499991
 20
19502.7314945
 30
0.0
 11
24622.116763499991
 21
19502.7314945
 31
0.0
  0
LINE
  5
36A8
  8
2-0
  6
CONTINUOUS
 62
     3
 10
24592.119139499991
 20
19496.727614499981
 30
0.0
 11
24592.119139499991
 21
19502.7314945
 31
0.0
  0
LINE
  5
36A9
  8
2-0
  6
CONTINUOUS
 62
     3
 10
24592.119139499991
 20
19512.827039499982
 30
0.0
 11
24622.116763499991
 21
19512.827039499982
 31
0.0
  0
LINE
  5
36AA
  8
2-0
  6
CONTINUOUS
 62
     3
 10
24592.119139499991
 20
19494.8252975
 30
0.0
 11
24592.119139499991
 21
19512.827039499982
 31
0.0
  0
LINE
  5
36AB
  8
2-0
  6
CONTINUOUS
 62
     3
 10
24617.1164995
 20
19494.8252975
 30
0.0
 11
24592.119139499991
 21
19494.8252975
 31
0.0
  0
LINE
  5
36AC
  8
2-0
  6
CONTINUOUS
 62
     3
 10
24617.1164995
 20
19499.825561500002
 30
0.0
 11
24617.1164995
 21
19494.8252975
 31
0.0
  0
LINE
  5
36AD
  8
2-0
  6
CONTINUOUS
 62
     3
 10
24610.1149425
 20
19499.825561500002
 30
0.0
 11
24617.1164995
 21
19499.825561500002
 31
0.0
  0
LINE
  5
36AE
  8
2-0
  6
CONTINUOUS
 62
     3
 10
24610.1149425
 20
18767.631318
 30
0.0
 11
24617.1164995
 21
18767.631318
 31
0.0
  0
LINE
  5
36AF
  8
2-0
  6
CONTINUOUS
 62
     3
 10
24617.1164995
 20
18767.631318
 30
0.0
 11
24617.1164995
 21
18772.63752
 31
0.0
  0
LINE
  5
36B0
  8
2-0
  6
CONTINUOUS
 62
     3
 10
24617.1164995
 20
18772.63752
 30
0.0
 11
24592.119139499991
 21
18772.63752
 31
0.0
  0
LINE
  5
36B1
  8
2-0
  6
CONTINUOUS
 62
     3
 10
24592.119139499991
 20
18772.63752
 30
0.0
 11
24592.119139499991
 21
18754.635778
 31
0.0
  0
LINE
  5
36B2
  8
2-0
  6
CONTINUOUS
 62
     3
 10
24592.119139499991
 20
18754.635778
 30
0.0
 11
24622.116763499991
 21
18754.635778
 31
0.0
  0
LINE
  5
36B3
  8
2-0
  6
CONTINUOUS
 62
     3
 10
24592.119139499991
 20
18770.72728499999
 30
0.0
 11
24592.119139499991
 21
18764.731323
 31
0.0
  0
LINE
  5
36B4
  8
2-0
  6
CONTINUOUS
 62
     3
 10
24592.119139499991
 20
18764.731323
 30
0.0
 11
24622.116763499991
 21
18764.731323
 31
0.0
  0
LINE
  5
36B5
  8
2-0
  6
CONTINUOUS
 62
     3
 10
24622.116763499991
 20
18764.731323
 30
0.0
 11
24622.116763499991
 21
18801.730505
 31
0.0
  0
LINE
  5
36B6
  8
2-0
  6
CONTINUOUS
 62
     3
 10
24592.119139499991
 20
18801.730505
 30
0.0
 11
24622.116763499991
 21
18801.730505
 31
0.0
  0
LINE
  5
36B7
  8
2-0
  6
CONTINUOUS
 62
     3
 10
24592.119139499991
 20
18795.73454300001
 30
0.0
 11
24592.119139499991
 21
18801.730505
 31
0.0
  0
LINE
  5
36B8
  8
2-0
  6
CONTINUOUS
 62
     3
 10
24592.119139499991
 20
18811.82605
 30
0.0
 11
24622.116763499991
 21
18811.82605
 31
0.0
  0
LINE
  5
36B9
  8
2-0
  6
CONTINUOUS
 62
     3
 10
24592.119139499991
 20
18793.824307999988
 30
0.0
 11
24592.119139499991
 21
18811.82605
 31
0.0
  0
LINE
  5
36BA
  8
2-0
  6
CONTINUOUS
 62
     3
 10
24617.1164995
 20
18793.824307999988
 30
0.0
 11
24592.119139499991
 21
18793.824307999988
 31
0.0
  0
LINE
  5
36BB
  8
2-0
  6
CONTINUOUS
 62
     3
 10
24617.1164995
 20
18798.83051
 30
0.0
 11
24617.1164995
 21
18793.824307999988
 31
0.0
  0
LINE
  5
36BC
  8
2-0
  6
CONTINUOUS
 62
     3
 10
24610.1149425
 20
18798.83051
 30
0.0
 11
24617.1164995
 21
18798.83051
 31
0.0
  0
LINE
  5
36BD
  8
2-0
  6
CONTINUOUS
 62
     3
 10
24610.1149425
 20
18097.824572000001
 30
0.0
 11
24617.1164995
 21
18097.824572000001
 31
0.0
  0
LINE
  5
36BE
  8
2-0
  6
CONTINUOUS
 62
     3
 10
24617.1164995
 20
18097.824572000001
 30
0.0
 11
24617.1164995
 21
18092.836185
 31
0.0
  0
LINE
  5
36BF
  8
2-0
  6
CONTINUOUS
 62
     3
 10
24617.1164995
 20
18092.836185
 30
0.0
 11
24592.119139499991
 21
18092.836185
 31
0.0
  0
LINE
  5
36C0
  8
2-0
  6
CONTINUOUS
 62
     3
 10
24592.119139499991
 20
18092.836185
 30
0.0
 11
24592.119139499991
 21
18110.831988000002
 31
0.0
  0
LINE
  5
36C1
  8
2-0
  6
CONTINUOUS
 62
     3
 10
24592.119139499991
 20
18110.831988000002
 30
0.0
 11
24622.116763499991
 21
18110.831988000002
 31
0.0
  0
LINE
  5
36C2
  8
2-0
  6
CONTINUOUS
 62
     3
 10
24592.119139499991
 20
18094.734542999991
 30
0.0
 11
24592.119139499991
 21
18100.730504999989
 31
0.0
  0
LINE
  5
36C3
  8
2-0
  6
CONTINUOUS
 62
     3
 10
24592.119139499991
 20
18100.730504999989
 30
0.0
 11
24622.116763499991
 21
18100.730504999989
 31
0.0
  0
LINE
  5
36C4
  8
2-0
  6
CONTINUOUS
 62
     3
 10
24622.116763499991
 20
18100.730504999989
 30
0.0
 11
24622.116763499991
 21
18063.731323
 31
0.0
  0
LINE
  5
36C5
  8
2-0
  6
CONTINUOUS
 62
     3
 10
24592.119139499991
 20
18063.731323
 30
0.0
 11
24622.116763499991
 21
18063.731323
 31
0.0
  0
LINE
  5
36C6
  8
2-0
  6
CONTINUOUS
 62
     3
 10
24592.119139499991
 20
18069.733224
 30
0.0
 11
24592.119139499991
 21
18063.731323
 31
0.0
  0
LINE
  5
36C7
  8
2-0
  6
CONTINUOUS
 62
     3
 10
24592.119139499991
 20
18053.641716999991
 30
0.0
 11
24622.116763499991
 21
18053.641716999991
 31
0.0
  0
LINE
  5
36C8
  8
2-0
  6
CONTINUOUS
 62
     3
 10
24592.119139499991
 20
18071.63752
 30
0.0
 11
24592.119139499991
 21
18053.641716999991
 31
0.0
  0
LINE
  5
36C9
  8
2-0
  6
CONTINUOUS
 62
     3
 10
24617.1164995
 20
18071.63752
 30
0.0
 11
24592.119139499991
 21
18071.63752
 31
0.0
  0
LINE
  5
36CA
  8
2-0
  6
CONTINUOUS
 62
     3
 10
24617.1164995
 20
18066.637256999998
 30
0.0
 11
24617.1164995
 21
18071.63752
 31
0.0
  0
LINE
  5
36CB
  8
2-0
  6
CONTINUOUS
 62
     3
 10
24610.1149425
 20
18066.637256999998
 30
0.0
 11
24617.1164995
 21
18066.637256999998
 31
0.0
  0
LINE
  5
36CC
  8
2-0
  6
CONTINUOUS
 62
     3
 10
24619.230625499989
 20
17346.728143
 30
0.0
 11
24619.230625499989
 21
17366.72919799999
 31
0.0
  0
LINE
  5
36CD
  8
2-0
  6
CONTINUOUS
 62
     3
 10
24619.230625499989
 20
17366.72919799999
 30
0.0
 11
24534.23405649999
 21
17366.72919799999
 31
0.0
  0
LINE
  5
36CE
  8
2-0
  6
CONTINUOUS
 62
     3
 10
24610.1149425
 20
17393.335908000001
 30
0.0
 11
24617.1164995
 21
17393.335908000001
 31
0.0
  0
LINE
  5
36CF
  8
2-0
  6
CONTINUOUS
 62
     3
 10
24617.1164995
 20
17393.335908000001
 30
0.0
 11
24617.1164995
 21
17388.341582000001
 31
0.0
  0
LINE
  5
36D0
  8
2-0
  6
CONTINUOUS
 62
     3
 10
24617.1164995
 20
17388.341582000001
 30
0.0
 11
24592.119139499991
 21
17388.341582000001
 31
0.0
  0
LINE
  5
36D1
  8
2-0
  6
CONTINUOUS
 62
     3
 10
24592.119139499991
 20
17388.341582000001
 30
0.0
 11
24592.119139499991
 21
17406.33738600001
 31
0.0
  0
LINE
  5
36D2
  8
2-0
  6
CONTINUOUS
 62
     3
 10
24592.119139499991
 20
17406.33738600001
 30
0.0
 11
24622.116763499991
 21
17406.33738600001
 31
0.0
  0
LINE
  5
36D3
  8
2-0
  6
CONTINUOUS
 62
     3
 10
24592.119139499991
 20
17396.728802000001
 30
0.0
 11
24592.119139499991
 21
17390.726901999991
 31
0.0
  0
LINE
  5
36D4
  8
2-0
  6
CONTINUOUS
 62
     3
 10
24622.116763499991
 20
17396.728802000001
 30
0.0
 11
24592.119139499991
 21
17396.728802000001
 31
0.0
  0
LINE
  5
36D5
  8
2-0
  6
CONTINUOUS
 62
     3
 10
24622.116763499991
 20
17406.33738600001
 30
0.0
 11
24622.116763499991
 21
18053.641716999991
 31
0.0
  0
LINE
  5
36D6
  8
2-0
  6
CONTINUOUS
 62
     3
 10
24622.116763499991
 20
18110.831988000002
 30
0.0
 11
24622.116763499991
 21
18754.635778
 31
0.0
  0
LINE
  5
36D7
  8
2-0
  6
CONTINUOUS
 62
     3
 10
24622.116763499991
 20
17251.72708700001
 30
0.0
 11
24592.119139499991
 21
17251.72708700001
 31
0.0
  0
LINE
  5
36D8
  8
2-0
  6
CONTINUOUS
 62
     3
 10
24592.119139499991
 20
17251.72708700001
 30
0.0
 11
24592.119139499991
 21
17257.728986999999
 31
0.0
  0
LINE
  5
36D9
  8
2-0
  6
CONTINUOUS
 62
     3
 10
24534.23405649999
 20
17281.732629999991
 30
0.0
 11
24619.230625499989
 21
17281.732629999991
 31
0.0
  0
LINE
  5
36DA
  8
2-0
  6
CONTINUOUS
 62
     3
 10
24619.230625499989
 20
17281.732629999991
 30
0.0
 11
24619.230625499989
 21
17301.727747000012
 31
0.0
  0
LINE
  5
36DB
  8
2-0
  6
CONTINUOUS
 62
     3
 10
24592.119139499991
 20
17242.118504000009
 30
0.0
 11
24622.116763499991
 21
17242.118504000009
 31
0.0
  0
LINE
  5
36DC
  8
2-0
  6
CONTINUOUS
 62
     3
 10
24592.119139499991
 20
17260.114306999982
 30
0.0
 11
24592.119139499991
 21
17242.118504000009
 31
0.0
  0
LINE
  5
36DD
  8
2-0
  6
CONTINUOUS
 62
     3
 10
24617.1164995
 20
17260.114306999982
 30
0.0
 11
24592.119139499991
 21
17260.114306999982
 31
0.0
  0
LINE
  5
36DE
  8
2-0
  6
CONTINUOUS
 62
     3
 10
24617.1164995
 20
17255.114043000009
 30
0.0
 11
24617.1164995
 21
17260.114306999982
 31
0.0
  0
LINE
  5
36DF
  8
2-0
  6
CONTINUOUS
 62
     3
 10
24610.1149425
 20
17255.114043000009
 30
0.0
 11
24617.1164995
 21
17255.114043000009
 31
0.0
  0
LINE
  5
36E0
  8
2-0
  6
CONTINUOUS
 62
     3
 10
24610.1149425
 20
16550.631812499989
 30
0.0
 11
24617.1164995
 21
16550.631812499989
 31
0.0
  0
LINE
  5
36E1
  8
2-0
  6
CONTINUOUS
 62
     3
 10
24617.1164995
 20
16550.631812499989
 30
0.0
 11
24617.1164995
 21
16555.632076499991
 31
0.0
  0
LINE
  5
36E2
  8
2-0
  6
CONTINUOUS
 62
     3
 10
24617.1164995
 20
16555.632076499991
 30
0.0
 11
24592.119139499991
 21
16555.632076499991
 31
0.0
  0
LINE
  5
36E3
  8
2-0
  6
CONTINUOUS
 62
     3
 10
24592.119139499991
 20
16555.632076499991
 30
0.0
 11
24592.119139499991
 21
16537.630334499991
 31
0.0
  0
LINE
  5
36E4
  8
2-0
  6
CONTINUOUS
 62
     3
 10
24592.119139499991
 20
16537.630334499991
 30
0.0
 11
24622.116763499991
 21
16537.630334499991
 31
0.0
  0
LINE
  5
36E5
  8
2-0
  6
CONTINUOUS
 62
     3
 10
24592.119139499991
 20
16553.727779500001
 30
0.0
 11
24592.119139499991
 21
16547.7308285
 31
0.0
  0
LINE
  5
36E6
  8
2-0
  6
CONTINUOUS
 62
     3
 10
24592.119139499991
 20
16547.7308285
 30
0.0
 11
24622.116763499991
 21
16547.7308285
 31
0.0
  0
LINE
  5
36E7
  8
2-0
  6
CONTINUOUS
 62
     3
 10
24622.116763499991
 20
16547.7308285
 30
0.0
 11
24622.116763499991
 21
16584.7309995
 31
0.0
  0
LINE
  5
36E8
  8
2-0
  6
CONTINUOUS
 62
     3
 10
24592.119139499991
 20
16584.7309995
 30
0.0
 11
24622.116763499991
 21
16584.7309995
 31
0.0
  0
LINE
  5
36E9
  8
2-0
  6
CONTINUOUS
 62
     3
 10
24592.119139499991
 20
16578.7281095
 30
0.0
 11
24592.119139499991
 21
16584.7309995
 31
0.0
  0
LINE
  5
36EA
  8
2-0
  6
CONTINUOUS
 62
     3
 10
24592.119139499991
 20
16594.8265445
 30
0.0
 11
24622.116763499991
 21
16594.8265445
 31
0.0
  0
LINE
  5
36EB
  8
2-0
  6
CONTINUOUS
 62
     3
 10
24592.119139499991
 20
16576.818863500001
 30
0.0
 11
24592.119139499991
 21
16594.8265445
 31
0.0
  0
LINE
  5
36EC
  8
2-0
  6
CONTINUOUS
 62
     3
 10
24617.1164995
 20
16576.818863500001
 30
0.0
 11
24592.119139499991
 21
16576.818863500001
 31
0.0
  0
LINE
  5
36ED
  8
2-0
  6
CONTINUOUS
 62
     3
 10
24617.1164995
 20
16581.825066500001
 30
0.0
 11
24617.1164995
 21
16576.818863500001
 31
0.0
  0
LINE
  5
36EE
  8
2-0
  6
CONTINUOUS
 62
     3
 10
24610.1149425
 20
16581.825066500001
 30
0.0
 11
24617.1164995
 21
16581.825066500001
 31
0.0
  0
LINE
  5
36EF
  8
2-0
  6
CONTINUOUS
 62
     3
 10
24610.1149425
 20
15881.065083
 30
0.0
 11
24617.1164995
 21
15881.065083
 31
0.0
  0
LINE
  5
36F0
  8
2-0
  6
CONTINUOUS
 62
     3
 10
24617.1164995
 20
15881.065083
 30
0.0
 11
24617.1164995
 21
15876.070758000011
 31
0.0
  0
LINE
  5
36F1
  8
2-0
  6
CONTINUOUS
 62
     3
 10
24617.1164995
 20
15876.070758000011
 30
0.0
 11
24592.119139499991
 21
15876.070758000011
 31
0.0
  0
LINE
  5
36F2
  8
2-0
  6
CONTINUOUS
 62
     3
 10
24592.119139499991
 20
15876.070758000011
 30
0.0
 11
24592.119139499991
 21
15894.06656100002
 31
0.0
  0
LINE
  5
36F3
  8
2-0
  6
CONTINUOUS
 62
     3
 10
24592.119139499991
 20
15894.06656100002
 30
0.0
 11
24622.116763499991
 21
15894.06656100002
 31
0.0
  0
LINE
  5
36F4
  8
2-0
  6
CONTINUOUS
 62
     3
 10
24592.119139499991
 20
15877.969116
 30
0.0
 11
24592.119139499991
 21
15883.97101600001
 31
0.0
  0
LINE
  5
36F5
  8
2-0
  6
CONTINUOUS
 62
     3
 10
24592.119139499991
 20
15883.97101600001
 30
0.0
 11
24622.116763499991
 21
15883.97101600001
 31
0.0
  0
LINE
  5
36F6
  8
2-0
  6
CONTINUOUS
 62
     3
 10
24622.116763499991
 20
15846.971835
 30
0.0
 11
24622.116763499991
 21
15883.97101600001
 31
0.0
  0
LINE
  5
36F7
  8
2-0
  6
CONTINUOUS
 62
     3
 10
24592.119139499991
 20
15846.971835
 30
0.0
 11
24622.116763499991
 21
15846.971835
 31
0.0
  0
LINE
  5
36F8
  8
2-0
  6
CONTINUOUS
 62
     3
 10
24592.119139499991
 20
15852.96878600001
 30
0.0
 11
24592.119139499991
 21
15846.971835
 31
0.0
  0
LINE
  5
36F9
  8
2-0
  6
CONTINUOUS
 62
     3
 10
24592.119139499991
 20
15836.870351
 30
0.0
 11
24622.116763499991
 21
15836.870351
 31
0.0
  0
LINE
  5
36FA
  8
2-0
  6
CONTINUOUS
 62
     3
 10
24592.119139499991
 20
15854.878032000001
 30
0.0
 11
24592.119139499991
 21
15836.870351
 31
0.0
  0
LINE
  5
36FB
  8
2-0
  6
CONTINUOUS
 62
     3
 10
24617.1164995
 20
15854.878032000001
 30
0.0
 11
24592.119139499991
 21
15854.878032000001
 31
0.0
  0
LINE
  5
36FC
  8
2-0
  6
CONTINUOUS
 62
     3
 10
24617.1164995
 20
15849.87776800002
 30
0.0
 11
24617.1164995
 21
15854.878032000001
 31
0.0
  0
LINE
  5
36FD
  8
2-0
  6
CONTINUOUS
 62
     3
 10
24610.1149425
 20
15849.87776800002
 30
0.0
 11
24617.1164995
 21
15849.87776800002
 31
0.0
  0
LINE
  5
36FE
  8
2-0
  6
CONTINUOUS
 62
     3
 10
24622.116763499991
 20
17242.118504000009
 30
0.0
 11
24622.116763499991
 21
16594.8265445
 31
0.0
  0
LINE
  5
36FF
  8
2-0
  6
CONTINUOUS
 62
     3
 10
24622.116763499991
 20
17396.728802000001
 30
0.0
 11
24622.116763499991
 21
17251.72708700001
 31
0.0
  0
LINE
  5
3700
  8
2-0
  6
CONTINUOUS
 62
     3
 10
24534.23405649999
 20
17366.72919799999
 30
0.0
 11
24534.23405649999
 21
17281.732629999991
 31
0.0
  0
LINE
  5
3701
  8
2-0
  6
CONTINUOUS
 62
     6
 10
22996.025389499981
 20
19135.176463499982
 30
0.0
 11
24021.057721500001
 21
19135.176463499982
 31
0.0
  0
LINE
  5
3702
  8
2-0
  6
CONTINUOUS
 62
     3
 10
24610.1149425
 20
15148.636761
 30
0.0
 11
24617.1164995
 21
15148.636761
 31
0.0
  0
LINE
  5
3703
  8
2-0
  6
CONTINUOUS
 62
     3
 10
24617.1164995
 20
15148.636761
 30
0.0
 11
24617.1164995
 21
15153.631087
 31
0.0
  0
LINE
  5
3704
  8
2-0
  6
CONTINUOUS
 62
     3
 10
24617.1164995
 20
15153.631087
 30
0.0
 11
24592.119139499991
 21
15153.631087
 31
0.0
  0
LINE
  5
3705
  8
2-0
  6
CONTINUOUS
 62
     3
 10
24592.119139499991
 20
15153.631087
 30
0.0
 11
24592.119139499991
 21
15135.635283
 31
0.0
  0
LINE
  5
3706
  8
2-0
  6
CONTINUOUS
 62
     3
 10
24592.119139499991
 20
15135.635283
 30
0.0
 11
24622.116763499991
 21
15135.635283
 31
0.0
  0
LINE
  5
3707
  8
2-0
  6
CONTINUOUS
 62
     3
 10
24592.119139499991
 20
15151.73371800001
 30
0.0
 11
24592.119139499991
 21
15145.730828000011
 31
0.0
  0
LINE
  5
3708
  8
2-0
  6
CONTINUOUS
 62
     3
 10
24592.119139499991
 20
15145.730828000011
 30
0.0
 11
24622.116763499991
 21
15145.730828000011
 31
0.0
  0
LINE
  5
3709
  8
2-0
  6
CONTINUOUS
 62
     3
 10
24622.116763499991
 20
15145.730828000011
 30
0.0
 11
24622.116763499991
 21
15182.730999999991
 31
0.0
  0
LINE
  5
370A
  8
2-0
  6
CONTINUOUS
 62
     3
 10
24592.119139499991
 20
15182.730999999991
 30
0.0
 11
24622.116763499991
 21
15182.730999999991
 31
0.0
  0
LINE
  5
370B
  8
2-0
  6
CONTINUOUS
 62
     3
 10
24592.119139499991
 20
15176.734048
 30
0.0
 11
24592.119139499991
 21
15182.730999999991
 31
0.0
  0
LINE
  5
370C
  8
2-0
  6
CONTINUOUS
 62
     3
 10
24592.119139499991
 20
15192.831493000011
 30
0.0
 11
24622.116763499991
 21
15192.831493000011
 31
0.0
  0
LINE
  5
370D
  8
2-0
  6
CONTINUOUS
 62
     3
 10
24592.119139499991
 20
15174.82480200001
 30
0.0
 11
24592.119139499991
 21
15192.831493000011
 31
0.0
  0
LINE
  5
370E
  8
2-0
  6
CONTINUOUS
 62
     3
 10
24617.1164995
 20
15174.82480200001
 30
0.0
 11
24592.119139499991
 21
15174.82480200001
 31
0.0
  0
LINE
  5
370F
  8
2-0
  6
CONTINUOUS
 62
     3
 10
24617.1164995
 20
15179.83001500001
 30
0.0
 11
24617.1164995
 21
15174.82480200001
 31
0.0
  0
LINE
  5
3710
  8
2-0
  6
CONTINUOUS
 62
     3
 10
24610.1149425
 20
15179.83001500001
 30
0.0
 11
24617.1164995
 21
15179.83001500001
 31
0.0
  0
LINE
  5
3711
  8
2-0
  6
CONTINUOUS
 62
     3
 10
24592.119139499991
 20
14472.732840999999
 30
0.0
 11
24592.119139499991
 21
14478.737709999999
 31
0.0
  0
LINE
  5
3712
  8
2-0
  6
CONTINUOUS
 62
     3
 10
24592.119139499991
 20
14478.737709999999
 30
0.0
 11
24622.116763499991
 21
14478.737709999999
 31
0.0
  0
LINE
  5
3713
  8
2-0
  6
CONTINUOUS
 62
     3
 10
24622.116763499991
 20
14478.737709999999
 30
0.0
 11
24622.116763499991
 21
14363.733619000001
 31
0.0
  0
LINE
  5
3714
  8
2-0
  6
CONTINUOUS
 62
     3
 10
24622.116763499991
 20
14363.733619000001
 30
0.0
 11
24537.118215499991
 21
14363.733619000001
 31
0.0
  0
LINE
  5
3715
  8
2-0
  6
CONTINUOUS
 62
     3
 10
24537.118215499991
 20
14363.733619000001
 30
0.0
 11
24537.118215499991
 21
14448.729198000001
 31
0.0
  0
LINE
  5
3716
  8
2-0
  6
CONTINUOUS
 62
     3
 10
24537.118215499991
 20
14448.729198000001
 30
0.0
 11
24569.117133499982
 21
14448.729198000001
 31
0.0
  0
LINE
  5
3717
  8
2-0
  6
CONTINUOUS
 62
     3
 10
24610.1149425
 20
14475.767443000001
 30
0.0
 11
24617.1164995
 21
14475.767443000001
 31
0.0
  0
LINE
  5
3718
  8
2-0
  6
CONTINUOUS
 62
     3
 10
24617.1164995
 20
14475.767443000001
 30
0.0
 11
24617.1164995
 21
14470.77014799998
 31
0.0
  0
LINE
  5
3719
  8
2-0
  6
CONTINUOUS
 62
     3
 10
24617.1164995
 20
14470.77014799998
 30
0.0
 11
24592.119139499991
 21
14470.77014799998
 31
0.0
  0
LINE
  5
371A
  8
2-0
  6
CONTINUOUS
 62
     3
 10
24592.119139499991
 20
14470.77014799998
 30
0.0
 11
24592.119139499991
 21
14488.768921000001
 31
0.0
  0
LINE
  5
371B
  8
2-0
  6
CONTINUOUS
 62
     3
 10
24592.119139499991
 20
14488.768921000001
 30
0.0
 11
24622.116763499991
 21
14488.768921000001
 31
0.0
  0
LINE
  5
371C
  8
2-0
  6
CENTER2
 62
     6
 10
24579.618479500001
 20
14166.236060999991
 30
0.0
 11
24579.618479500001
 21
15322.10481900002
 31
0.0
  0
LINE
  5
371D
  8
2-0
  6
CONTINUOUS
 62
     3
 10
24622.116763499991
 20
18811.82605
 30
0.0
 11
24622.116763499991
 21
19455.6367675
 31
0.0
  0
LINE
  5
371E
  8
2-0
  6
CONTINUOUS
 62
     6
 10
25314.621646499982
 20
20664.232102000031
 30
0.0
 11
26514.615708499961
 21
20664.232102000031
 31
0.0
  0
LINE
  5
371F
  8
2-0
  6
CONTINUOUS
 62
     3
 10
22785.620327500001
 20
19934.229199000009
 30
0.0
 11
22785.620327500001
 21
19904.22563600001
 31
0.0
  0
LINE
  5
3720
  8
2-0
  6
CONTINUOUS
 62
     3
 10
22785.620327500001
 20
19904.22563600001
 30
0.0
 11
22779.622385499981
 21
19904.22563600001
 31
0.0
  0
LINE
  5
3721
  8
2-0
  6
CONTINUOUS
 62
     3
 10
22795.236828500001
 20
19904.22563600001
 30
0.0
 11
22795.236828500001
 21
19934.229199000009
 31
0.0
  0
LINE
  5
3722
  8
2-0
  6
CONTINUOUS
 62
     3
 10
22777.235086499979
 20
19904.22563600001
 30
0.0
 11
22795.236828500001
 21
19904.22563600001
 31
0.0
  0
LINE
  5
3723
  8
2-0
  6
CONTINUOUS
 62
     3
 10
22777.235086499979
 20
19929.234873000001
 30
0.0
 11
22777.235086499979
 21
19904.22563600001
 31
0.0
  0
LINE
  5
3724
  8
2-0
  6
CONTINUOUS
 62
     3
 10
22782.235350499988
 20
19929.234873000001
 30
0.0
 11
22777.235086499979
 21
19929.234873000001
 31
0.0
  0
LINE
  5
3725
  8
2-0
  6
CONTINUOUS
 62
     3
 10
22782.235350499988
 20
19922.229357000011
 30
0.0
 11
22782.235350499988
 21
19929.234873000001
 31
0.0
  0
LINE
  5
3726
  8
2-0
  6
CONTINUOUS
 62
     3
 10
22755.61874350001
 20
19931.337122000001
 30
0.0
 11
22755.61874350001
 21
19846.338574000009
 31
0.0
  0
LINE
  5
3727
  8
2-0
  6
CONTINUOUS
 62
     3
 10
22735.621646499989
 20
19931.337122000001
 30
0.0
 11
22755.61874350001
 21
19931.337122000001
 31
0.0
  0
LINE
  5
3728
  8
2-0
  6
CONTINUOUS
 62
     3
 10
22644.007547500001
 20
19922.229357000011
 30
0.0
 11
22644.007547500001
 21
19929.234873000001
 31
0.0
  0
LINE
  5
3729
  8
2-0
  6
CONTINUOUS
 62
     3
 10
22644.007547500001
 20
19929.234873000001
 30
0.0
 11
22649.007811499981
 21
19929.234873000001
 31
0.0
  0
LINE
  5
372A
  8
2-0
  6
CONTINUOUS
 62
     3
 10
22649.007811499981
 20
19929.234873000001
 30
0.0
 11
22649.007811499981
 21
19904.22563600001
 31
0.0
  0
LINE
  5
372B
  8
2-0
  6
CONTINUOUS
 62
     3
 10
22649.007811499981
 20
19904.22563600001
 30
0.0
 11
22631.006069499988
 21
19904.22563600001
 31
0.0
  0
LINE
  5
372C
  8
2-0
  6
CONTINUOUS
 62
     3
 10
22631.006069499988
 20
19904.22563600001
 30
0.0
 11
22631.006069499988
 21
19934.229199000009
 31
0.0
  0
LINE
  5
372D
  8
2-0
  6
CONTINUOUS
 62
     3
 10
22670.626133499991
 20
19931.337122000001
 30
0.0
 11
22690.6212505
 21
19931.337122000001
 31
0.0
  0
LINE
  5
372E
  8
2-0
  6
CONTINUOUS
 62
     3
 10
22670.626133499991
 20
19846.338574000009
 30
0.0
 11
22670.626133499991
 21
19931.337122000001
 31
0.0
  0
LINE
  5
372F
  8
2-0
  6
CONTINUOUS
 62
     3
 10
22640.628509500009
 20
19904.22563600001
 30
0.0
 11
22646.624470499992
 21
19904.22563600001
 31
0.0
  0
LINE
  5
3730
  8
2-0
  6
CONTINUOUS
 62
     3
 10
22640.628509500009
 20
19934.229199000009
 30
0.0
 11
22640.628509500009
 21
19904.22563600001
 31
0.0
  0
LINE
  5
3731
  8
2-0
  6
CONTINUOUS
 62
     3
 10
22755.61874350001
 20
19846.338574000009
 30
0.0
 11
22670.626133499991
 21
19846.338574000009
 31
0.0
  0
LINE
  5
3732
  8
2-0
  6
CONTINUOUS
 62
     3
 10
22785.620327500001
 20
19934.229199000009
 30
0.0
 11
22640.628509500009
 21
19934.229199000009
 31
0.0
  0
LINE
  5
3733
  8
2-0
  6
CONTINUOUS
 62
     6
 10
24452.588813499991
 20
19377.330971499989
 30
0.0
 11
24021.057721500001
 21
19135.176463499982
 31
0.0
  0
LINE
  5
3734
  8
2-0
  6
CONTINUOUS
 62
     6
 10
24774.15764749996
 20
20076.908939000012
 30
0.0
 11
25314.621646499982
 21
20664.232102000031
 31
0.0
  0
LINE
  5
3735
  8
2-0
  6
CONTINUOUS
 62
     3
 10
24622.116763499991
 20
16537.630334499991
 30
0.0
 11
24622.116763499991
 21
15894.06656100002
 31
0.0
  0
LINE
  5
3736
  8
2-0
  6
CONTINUOUS
 62
     6
 10
24439.531908499979
 20
19400.590315500001
 30
0.0
 11
24592.119139499991
 21
19455.6367675
 31
0.0
  0
LINE
  5
3737
  8
2-0
  6
CONTINUOUS
 62
     6
 10
24592.119139499991
 20
19455.6367675
 30
0.0
 11
24465.637799499989
 21
19354.07756749999
 31
0.0
  0
LINE
  5
3738
  8
2-0
  6
CONTINUOUS
 62
     6
 10
24439.531908499979
 20
19400.590315500001
 30
0.0
 11
24465.637799499989
 21
19354.07756749999
 31
0.0
  0
LINE
  5
3739
  8
2-0
  6
CONTINUOUS
 62
     6
 10
24465.637799499989
 20
19354.07756749999
 30
0.0
 11
24592.119139499991
 21
19455.6367675
 31
0.0
  0
LINE
  5
373A
  8
2-0
  6
CONTINUOUS
 62
     6
 10
24592.119139499991
 20
19455.6367675
 30
0.0
 11
24439.531908499979
 21
19400.590315500001
 31
0.0
  0
LINE
  5
373B
  8
2-0
  6
CONTINUOUS
 62
     6
 10
24439.531908499979
 20
19400.590315500001
 30
0.0
 11
24592.119139499991
 21
19455.6367675
 31
0.0
  0
LINE
  5
373C
  8
2-0
  6
CONTINUOUS
 62
     6
 10
24465.637799499989
 20
19354.07756749999
 30
0.0
 11
24592.119139499991
 21
19455.6367675
 31
0.0
  0
LINE
  5
373D
  8
2-0
  6
CONTINUOUS
 62
     6
 10
24465.637799499989
 20
19354.07756749999
 30
0.0
 11
24439.531908499979
 21
19400.590315500001
 31
0.0
  0
LINE
  5
373E
  8
2-0
  6
CONTINUOUS
 62
     6
 10
24793.77467649999
 20
20058.847812000022
 30
0.0
 11
24665.812656499991
 21
19959.165194000008
 31
0.0
  0
LINE
  5
373F
  8
2-0
  6
CONTINUOUS
 62
     6
 10
24665.812656499991
 20
19959.165194000008
 30
0.0
 11
24754.52676149999
 21
20094.962149000021
 31
0.0
  0
LINE
  5
3740
  8
2-0
  6
CONTINUOUS
 62
     6
 10
24793.77467649999
 20
20058.847812000022
 30
0.0
 11
24754.52676149999
 21
20094.962149000021
 31
0.0
  0
LINE
  5
3741
  8
2-0
  6
CONTINUOUS
 62
     6
 10
24754.52676149999
 20
20094.962149000021
 30
0.0
 11
24665.812656499991
 21
19959.165194000008
 31
0.0
  0
LINE
  5
3742
  8
2-0
  6
CONTINUOUS
 62
     6
 10
24665.812656499991
 20
19959.165194000008
 30
0.0
 11
24793.77467649999
 21
20058.847812000022
 31
0.0
  0
LINE
  5
3743
  8
2-0
  6
CONTINUOUS
 62
     6
 10
24793.77467649999
 20
20058.847812000022
 30
0.0
 11
24665.812656499991
 21
19959.165194000008
 31
0.0
  0
LINE
  5
3744
  8
2-0
  6
CONTINUOUS
 62
     6
 10
24754.52676149999
 20
20094.962149000021
 30
0.0
 11
24665.812656499991
 21
19959.165194000008
 31
0.0
  0
LINE
  5
3745
  8
2-0
  6
CONTINUOUS
 62
     6
 10
24754.52676149999
 20
20094.962149000021
 30
0.0
 11
24793.77467649999
 21
20058.847812000022
 31
0.0
  0
LINE
  5
3746
  8
2-0
  6
CONTINUOUS
 62
     4
 10
22713.118479499979
 20
20014.231442000018
 30
0.0
 11
22713.118479499979
 21
20744.228406999999
 31
0.0
  0
LINE
  5
3747
  8
2-0
  6
CONTINUOUS
 62
     6
 10
24345.479042499988
 20
14255.46088099999
 30
0.0
 11
24477.225901500002
 21
14350.087808
 31
0.0
  0
LINE
  5
3748
  8
2-0
  6
CONTINUOUS
 62
     6
 10
24477.225901500002
 20
14350.087808
 30
0.0
 11
24383.295765499988
 21
14217.84903799998
 31
0.0
  0
LINE
  5
3749
  8
2-0
  6
CONTINUOUS
 62
     6
 10
24345.479042499988
 20
14255.46088099999
 30
0.0
 11
24383.295765499988
 21
14217.84903799998
 31
0.0
  0
LINE
  5
374A
  8
2-0
  6
CONTINUOUS
 62
     6
 10
24383.295765499988
 20
14217.84903799998
 30
0.0
 11
24477.225901500002
 21
14350.087808
 31
0.0
  0
LINE
  5
374B
  8
2-0
  6
CONTINUOUS
 62
     6
 10
24477.225901500002
 20
14350.087808
 30
0.0
 11
24345.479042499988
 21
14255.46088099999
 31
0.0
  0
LINE
  5
374C
  8
2-0
  6
CONTINUOUS
 62
     6
 10
24345.479042499988
 20
14255.46088099999
 30
0.0
 11
24477.225901500002
 21
14350.087808
 31
0.0
  0
LINE
  5
374D
  8
2-0
  6
CONTINUOUS
 62
     6
 10
24383.295765499988
 20
14217.84903799998
 30
0.0
 11
24477.225901500002
 21
14350.087808
 31
0.0
  0
LINE
  5
374E
  8
2-0
  6
CONTINUOUS
 62
     6
 10
24383.295765499988
 20
14217.84903799998
 30
0.0
 11
24345.479042499988
 21
14255.46088099999
 31
0.0
  0
LINE
  5
374F
  8
2-0
  6
CONTINUOUS
 62
     6
 10
24408.51483149999
 20
14582.365507999981
 30
0.0
 11
24541.114863499992
 21
14488.937179999981
 31
0.0
  0
LINE
  5
3750
  8
2-0
  6
CONTINUOUS
 62
     6
 10
24541.114863499992
 20
14488.937179999981
 30
0.0
 11
24385.382177499981
 21
14534.312694
 31
0.0
  0
LINE
  5
3751
  8
2-0
  6
CONTINUOUS
 62
     6
 10
24408.51483149999
 20
14582.365507999981
 30
0.0
 11
24385.382177499981
 21
14534.312694
 31
0.0
  0
LINE
  5
3752
  8
2-0
  6
CONTINUOUS
 62
     6
 10
24385.382177499981
 20
14534.312694
 30
0.0
 11
24541.114863499992
 21
14488.937179999981
 31
0.0
  0
LINE
  5
3753
  8
2-0
  6
CONTINUOUS
 62
     6
 10
24541.114863499992
 20
14488.937179999981
 30
0.0
 11
24408.51483149999
 21
14582.365507999981
 31
0.0
  0
LINE
  5
3754
  8
2-0
  6
CONTINUOUS
 62
     6
 10
24408.51483149999
 20
14582.365507999981
 30
0.0
 11
24541.114863499992
 21
14488.937179999981
 31
0.0
  0
LINE
  5
3755
  8
2-0
  6
CONTINUOUS
 62
     6
 10
24385.382177499981
 20
14534.312694
 30
0.0
 11
24541.114863499992
 21
14488.937179999981
 31
0.0
  0
LINE
  5
3756
  8
2-0
  6
CONTINUOUS
 62
     6
 10
24385.382177499981
 20
14534.312694
 30
0.0
 11
24408.51483149999
 21
14582.365507999981
 31
0.0
  0
LINE
  5
3757
  8
2-0
  6
CONTINUOUS
 62
     6
 10
24468.278477499982
 20
16962.186441000009
 30
0.0
 11
24622.116763499991
 21
17013.620272000011
 31
0.0
  0
LINE
  5
3758
  8
2-0
  6
CONTINUOUS
 62
     6
 10
24622.116763499991
 20
17013.620272000011
 30
0.0
 11
24493.281776499989
 21
16915.079837000008
 31
0.0
  0
LINE
  5
3759
  8
2-0
  6
CONTINUOUS
 62
     6
 10
24468.278477499982
 20
16962.186441000009
 30
0.0
 11
24493.281776499989
 21
16915.079837000008
 31
0.0
  0
LINE
  5
375A
  8
2-0
  6
CONTINUOUS
 62
     6
 10
24493.281776499989
 20
16915.079837000008
 30
0.0
 11
24622.116763499991
 21
17013.620272000011
 31
0.0
  0
LINE
  5
375B
  8
2-0
  6
CONTINUOUS
 62
     6
 10
24622.116763499991
 20
17013.620272000011
 30
0.0
 11
24468.278477499982
 21
16962.186441000009
 31
0.0
  0
LINE
  5
375C
  8
2-0
  6
CONTINUOUS
 62
     6
 10
24468.278477499982
 20
16962.186441000009
 30
0.0
 11
24622.116763499991
 21
17013.620272000011
 31
0.0
  0
LINE
  5
375D
  8
2-0
  6
CONTINUOUS
 62
     6
 10
24493.281776499989
 20
16915.079837000008
 30
0.0
 11
24622.116763499991
 21
17013.620272000011
 31
0.0
  0
LINE
  5
375E
  8
2-0
  6
CONTINUOUS
 62
     6
 10
24493.281776499989
 20
16915.079837000008
 30
0.0
 11
24468.278477499982
 21
16962.186441000009
 31
0.0
  0
LINE
  5
375F
  8
2-0
  6
CONTINUOUS
 62
     6
 10
24334.34227049999
 20
17453.504933000011
 30
0.0
 11
24477.225901500002
 21
17376.729304000011
 31
0.0
  0
LINE
  5
3760
  8
2-0
  6
CONTINUOUS
 62
     6
 10
24477.225901500002
 20
17376.729304000011
 30
0.0
 11
24317.164008499989
 21
17403.011373000008
 31
0.0
  0
LINE
  5
3761
  8
2-0
  6
CONTINUOUS
 62
     6
 10
24334.34227049999
 20
17453.504933000011
 30
0.0
 11
24317.164008499989
 21
17403.011373000008
 31
0.0
  0
LINE
  5
3762
  8
2-0
  6
CONTINUOUS
 62
     6
 10
24317.164008499989
 20
17403.011373000008
 30
0.0
 11
24477.225901500002
 21
17376.729304000011
 31
0.0
  0
LINE
  5
3763
  8
2-0
  6
CONTINUOUS
 62
     6
 10
24477.225901500002
 20
17376.729304000011
 30
0.0
 11
24334.34227049999
 21
17453.504933000011
 31
0.0
  0
LINE
  5
3764
  8
2-0
  6
CONTINUOUS
 62
     6
 10
24334.34227049999
 20
17453.504933000011
 30
0.0
 11
24477.225901500002
 21
17376.729304000011
 31
0.0
  0
LINE
  5
3765
  8
2-0
  6
CONTINUOUS
 62
     6
 10
24317.164008499989
 20
17403.011373000008
 30
0.0
 11
24477.225901500002
 21
17376.729304000011
 31
0.0
  0
LINE
  5
3766
  8
2-0
  6
CONTINUOUS
 62
     6
 10
24317.164008499989
 20
17403.011373000008
 30
0.0
 11
24334.34227049999
 21
17453.504933000011
 31
0.0
  0
LINE
  5
3767
  8
2-0
  6
CONTINUOUS
 62
     3
 10
21973.619060499979
 20
19934.229199000009
 30
0.0
 11
21936.61789849999
 21
19934.229199000009
 31
0.0
  0
LINE
  5
3768
  8
2-0
  6
CONTINUOUS
 62
     3
 10
21973.619060499979
 20
19904.22563600001
 30
0.0
 11
21973.619060499979
 21
19934.229199000009
 31
0.0
  0
LINE
  5
3769
  8
2-0
  6
CONTINUOUS
 62
     3
 10
21967.619139499981
 20
19904.22563600001
 30
0.0
 11
21973.619060499979
 21
19904.22563600001
 31
0.0
  0
LINE
  5
376A
  8
2-0
  6
CONTINUOUS
 62
     3
 10
21983.716584499991
 20
19904.22563600001
 30
0.0
 11
21983.716584499991
 21
19934.229199000009
 31
0.0
  0
LINE
  5
376B
  8
2-0
  6
CONTINUOUS
 62
     3
 10
21965.712863499979
 20
19904.22563600001
 30
0.0
 11
21983.716584499991
 21
19904.22563600001
 31
0.0
  0
LINE
  5
376C
  8
2-0
  6
CONTINUOUS
 62
     3
 10
21965.712863499979
 20
19929.234873000001
 30
0.0
 11
21965.712863499979
 21
19904.22563600001
 31
0.0
  0
LINE
  5
376D
  8
2-0
  6
CONTINUOUS
 62
     3
 10
21970.713127499988
 20
19929.234873000001
 30
0.0
 11
21965.712863499979
 21
19929.234873000001
 31
0.0
  0
LINE
  5
376E
  8
2-0
  6
CONTINUOUS
 62
     3
 10
21970.713127499988
 20
19922.229357000011
 30
0.0
 11
21970.713127499988
 21
19929.234873000001
 31
0.0
  0
LINE
  5
376F
  8
2-0
  6
CONTINUOUS
 62
     3
 10
21939.523832499981
 20
19922.229357000011
 30
0.0
 11
21939.523832499981
 21
19929.234873000001
 31
0.0
  0
LINE
  5
3770
  8
2-0
  6
CONTINUOUS
 62
     3
 10
21939.523832499981
 20
19929.234873000001
 30
0.0
 11
21944.52409649999
 21
19929.234873000001
 31
0.0
  0
LINE
  5
3771
  8
2-0
  6
CONTINUOUS
 62
     3
 10
21944.52409649999
 20
19929.234873000001
 30
0.0
 11
21944.52409649999
 21
19904.22563600001
 31
0.0
  0
LINE
  5
3772
  8
2-0
  6
CONTINUOUS
 62
     3
 10
21944.52409649999
 20
19904.22563600001
 30
0.0
 11
21926.52433349999
 21
19904.22563600001
 31
0.0
  0
LINE
  5
3773
  8
2-0
  6
CONTINUOUS
 62
     3
 10
21926.52433349999
 20
19904.22563600001
 30
0.0
 11
21926.52433349999
 21
19934.229199000009
 31
0.0
  0
LINE
  5
3774
  8
2-0
  6
CONTINUOUS
 62
     3
 10
21942.617819499981
 20
19904.22563600001
 30
0.0
 11
21936.61789849999
 21
19904.22563600001
 31
0.0
  0
LINE
  5
3775
  8
2-0
  6
CONTINUOUS
 62
     3
 10
21936.61789849999
 20
19904.22563600001
 30
0.0
 11
21936.61789849999
 21
19934.229199000009
 31
0.0
  0
LINE
  5
3776
  8
2-0
  6
CONTINUOUS
 62
     3
 10
19782.6197995
 20
19825.228987999999
 30
0.0
 11
19782.6197995
 21
19819.23302600002
 31
0.0
  0
LINE
  5
3777
  8
2-0
  6
CONTINUOUS
 62
     3
 10
19782.6197995
 20
19819.23302600002
 30
0.0
 11
19752.622174499989
 21
19819.23302600002
 31
0.0
  0
LINE
  5
3778
  8
2-0
  6
CONTINUOUS
 62
     3
 10
19752.622174499989
 20
19819.23302600002
 30
0.0
 11
19752.622174499989
 21
19934.229199000009
 31
0.0
  0
LINE
  5
3779
  8
2-0
  6
CONTINUOUS
 62
     3
 10
19752.622174499989
 20
19849.23263000001
 30
0.0
 11
19833.620115499991
 21
19849.23263000001
 31
0.0
  0
LINE
  5
377A
  8
2-0
  6
CONTINUOUS
 62
     3
 10
19782.6197995
 20
19808.935570000001
 30
0.0
 11
19752.622174499989
 21
19808.935570000001
 31
0.0
  0
LINE
  5
377B
  8
2-0
  6
CONTINUOUS
 62
     3
 10
19782.6197995
 20
19826.93731200002
 30
0.0
 11
19782.6197995
 21
19808.935570000001
 31
0.0
  0
LINE
  5
377C
  8
2-0
  6
CONTINUOUS
 62
     3
 10
19757.626397499989
 20
19826.93731200002
 30
0.0
 11
19782.6197995
 21
19826.93731200002
 31
0.0
  0
LINE
  5
377D
  8
2-0
  6
CONTINUOUS
 62
     3
 10
19757.626397499989
 20
19821.929130000019
 30
0.0
 11
19757.626397499989
 21
19826.93731200002
 31
0.0
  0
LINE
  5
377E
  8
2-0
  6
CONTINUOUS
 62
     3
 10
19764.623995499969
 20
19821.929130000019
 30
0.0
 11
19757.626397499989
 21
19821.929130000019
 31
0.0
  0
LINE
  5
377F
  8
2-0
  6
CONTINUOUS
 62
     3
 10
19864.918284499981
 20
19922.229357000011
 30
0.0
 11
19864.918284499981
 21
19929.234873000001
 31
0.0
  0
LINE
  5
3780
  8
2-0
  6
CONTINUOUS
 62
     3
 10
19864.918284499981
 20
19929.234873000001
 30
0.0
 11
19859.916040499978
 21
19929.234873000001
 31
0.0
  0
LINE
  5
3781
  8
2-0
  6
CONTINUOUS
 62
     3
 10
19859.916040499978
 20
19929.234873000001
 30
0.0
 11
19859.916040499978
 21
19904.22563600001
 31
0.0
  0
LINE
  5
3782
  8
2-0
  6
CONTINUOUS
 62
     3
 10
19859.916040499978
 20
19904.22563600001
 30
0.0
 11
19877.923721499981
 21
19904.22563600001
 31
0.0
  0
LINE
  5
3783
  8
2-0
  6
CONTINUOUS
 62
     3
 10
19877.923721499981
 20
19904.22563600001
 30
0.0
 11
19877.923721499981
 21
19934.229199000009
 31
0.0
  0
LINE
  5
3784
  8
2-0
  6
CONTINUOUS
 62
     3
 10
19867.624285499991
 20
19934.229199000009
 30
0.0
 11
19752.622174499989
 21
19934.229199000009
 31
0.0
  0
LINE
  5
3785
  8
2-0
  6
CONTINUOUS
 62
     3
 10
19867.624285499991
 20
19904.22563600001
 30
0.0
 11
19867.624285499991
 21
19934.229199000009
 31
0.0
  0
LINE
  5
3786
  8
2-0
  6
CONTINUOUS
 62
     3
 10
19861.620406499991
 20
19904.22563600001
 30
0.0
 11
19867.624285499991
 21
19904.22563600001
 31
0.0
  0
LINE
  5
3787
  8
2-0
  6
CONTINUOUS
 62
     3
 10
20568.70817799999
 20
19922.229357000011
 30
0.0
 11
20568.70817799999
 21
19929.234873000001
 31
0.0
  0
LINE
  5
3788
  8
2-0
  6
CONTINUOUS
 62
     3
 10
20568.70817799999
 20
19929.234873000001
 30
0.0
 11
20563.707913999991
 21
19929.234873000001
 31
0.0
  0
LINE
  5
3789
  8
2-0
  6
CONTINUOUS
 62
     3
 10
20563.707913999991
 20
19929.234873000001
 30
0.0
 11
20563.707913999991
 21
19904.22563600001
 31
0.0
  0
LINE
  5
378A
  8
2-0
  6
CONTINUOUS
 62
     3
 10
20563.707913999991
 20
19904.22563600001
 30
0.0
 11
20581.71361499999
 21
19904.22563600001
 31
0.0
  0
LINE
  5
378B
  8
2-0
  6
CONTINUOUS
 62
     3
 10
20581.71361499999
 20
19904.22563600001
 30
0.0
 11
20581.71361499999
 21
19934.229199000009
 31
0.0
  0
LINE
  5
378C
  8
2-0
  6
CONTINUOUS
 62
     3
 10
20565.616169999979
 20
19904.22563600001
 30
0.0
 11
20571.61806999999
 21
19904.22563600001
 31
0.0
  0
LINE
  5
378D
  8
2-0
  6
CONTINUOUS
 62
     3
 10
20571.61806999999
 20
19904.22563600001
 30
0.0
 11
20571.61806999999
 21
19934.229199000009
 31
0.0
  0
LINE
  5
378E
  8
2-0
  6
CONTINUOUS
 62
     3
 10
20534.618888999968
 20
19934.229199000009
 30
0.0
 11
20571.61806999999
 21
19934.229199000009
 31
0.0
  0
LINE
  5
378F
  8
2-0
  6
CONTINUOUS
 62
     3
 10
20534.618888999968
 20
19904.22563600001
 30
0.0
 11
20534.618888999968
 21
19934.229199000009
 31
0.0
  0
LINE
  5
3790
  8
2-0
  6
CONTINUOUS
 62
     3
 10
20540.61287099999
 20
19904.22563600001
 30
0.0
 11
20534.618888999968
 21
19904.22563600001
 31
0.0
  0
LINE
  5
3791
  8
2-0
  6
CONTINUOUS
 62
     3
 10
20524.523343999979
 20
19904.22563600001
 30
0.0
 11
20524.523343999979
 21
19934.229199000009
 31
0.0
  0
LINE
  5
3792
  8
2-0
  6
CONTINUOUS
 62
     3
 10
20542.519146999992
 20
19904.22563600001
 30
0.0
 11
20524.523343999979
 21
19904.22563600001
 31
0.0
  0
LINE
  5
3793
  8
2-0
  6
CONTINUOUS
 62
     3
 10
20542.519146999992
 20
19929.234873000001
 30
0.0
 11
20542.519146999992
 21
19904.22563600001
 31
0.0
  0
LINE
  5
3794
  8
2-0
  6
CONTINUOUS
 62
     3
 10
20537.518882999979
 20
19929.234873000001
 30
0.0
 11
20542.519146999992
 21
19929.234873000001
 31
0.0
  0
LINE
  5
3795
  8
2-0
  6
CONTINUOUS
 62
     3
 10
20537.518882999979
 20
19922.229357000011
 30
0.0
 11
20537.518882999979
 21
19929.234873000001
 31
0.0
  0
LINE
  5
3796
  8
2-0
  6
CONTINUOUS
 62
     3
 10
21238.517893999979
 20
19922.229357000011
 30
0.0
 11
21238.517893999979
 21
19929.234873000001
 31
0.0
  0
LINE
  5
3797
  8
2-0
  6
CONTINUOUS
 62
     3
 10
21238.517893999979
 20
19929.234873000001
 30
0.0
 11
21243.518156999991
 21
19929.234873000001
 31
0.0
  0
LINE
  5
3798
  8
2-0
  6
CONTINUOUS
 62
     3
 10
21243.518156999991
 20
19929.234873000001
 30
0.0
 11
21243.518156999991
 21
19904.22563600001
 31
0.0
  0
LINE
  5
3799
  8
2-0
  6
CONTINUOUS
 62
     3
 10
21243.518156999991
 20
19904.22563600001
 30
0.0
 11
21225.524333999969
 21
19904.22563600001
 31
0.0
  0
LINE
  5
379A
  8
2-0
  6
CONTINUOUS
 62
     3
 10
21225.524333999969
 20
19904.22563600001
 30
0.0
 11
21225.524333999969
 21
19934.229199000009
 31
0.0
  0
LINE
  5
379B
  8
2-0
  6
CONTINUOUS
 62
     3
 10
21241.61583999998
 20
19904.22563600001
 30
0.0
 11
21235.61789899999
 21
19904.22563600001
 31
0.0
  0
LINE
  5
379C
  8
2-0
  6
CONTINUOUS
 62
     3
 10
21235.61789899999
 20
19904.22563600001
 30
0.0
 11
21235.61789899999
 21
19934.229199000009
 31
0.0
  0
LINE
  5
379D
  8
2-0
  6
CONTINUOUS
 62
     3
 10
21272.61905999999
 20
19934.229199000009
 30
0.0
 11
21235.61789899999
 21
19934.229199000009
 31
0.0
  0
LINE
  5
379E
  8
2-0
  6
CONTINUOUS
 62
     3
 10
21272.61905999999
 20
19904.22563600001
 30
0.0
 11
21272.61905999999
 21
19934.229199000009
 31
0.0
  0
LINE
  5
379F
  8
2-0
  6
CONTINUOUS
 62
     3
 10
21266.613200999978
 20
19904.22563600001
 30
0.0
 11
21272.61905999999
 21
19904.22563600001
 31
0.0
  0
LINE
  5
37A0
  8
2-0
  6
CONTINUOUS
 62
     3
 10
21282.712624999978
 20
19904.22563600001
 30
0.0
 11
21282.712624999978
 21
19934.229199000009
 31
0.0
  0
LINE
  5
37A1
  8
2-0
  6
CONTINUOUS
 62
     3
 10
21264.716821999991
 20
19904.22563600001
 30
0.0
 11
21282.712624999978
 21
19904.22563600001
 31
0.0
  0
LINE
  5
37A2
  8
2-0
  6
CONTINUOUS
 62
     3
 10
21264.716821999991
 20
19929.234873000001
 30
0.0
 11
21264.716821999991
 21
19904.22563600001
 31
0.0
  0
LINE
  5
37A3
  8
2-0
  6
CONTINUOUS
 62
     3
 10
21269.707187999989
 20
19929.234873000001
 30
0.0
 11
21264.716821999991
 21
19929.234873000001
 31
0.0
  0
LINE
  5
37A4
  8
2-0
  6
CONTINUOUS
 62
     3
 10
21269.707187999989
 20
19922.229357000011
 30
0.0
 11
21269.707187999989
 21
19929.234873000001
 31
0.0
  0
LINE
  5
37A5
  8
2-0
  6
CONTINUOUS
 62
     3
 10
20581.71361499999
 20
19934.229199000009
 30
0.0
 11
21225.524333999969
 21
19934.229199000009
 31
0.0
  0
LINE
  5
37A6
  8
2-0
  6
CONTINUOUS
 62
     3
 10
19877.923721499981
 20
19934.229199000009
 30
0.0
 11
20524.523343999979
 21
19934.229199000009
 31
0.0
  0
LINE
  5
37A7
  8
2-0
  6
CONTINUOUS
 62
     3
 10
21926.52433349999
 20
19934.229199000009
 30
0.0
 11
21282.712624999978
 21
19934.229199000009
 31
0.0
  0
LINE
  5
37A8
  8
2-0
  6
CONTINUOUS
 62
     3
 10
19782.6197995
 20
19825.228987999999
 30
0.0
 11
19782.6197995
 21
19819.23302600002
 31
0.0
  0
LINE
  5
37A9
  8
2-0
  6
CONTINUOUS
 62
     3
 10
19782.6197995
 20
19819.23302600002
 30
0.0
 11
19752.622174499989
 21
19819.23302600002
 31
0.0
  0
LINE
  5
37AA
  8
2-0
  6
CONTINUOUS
 62
     3
 10
19752.622174499989
 20
19819.23302600002
 30
0.0
 11
19752.622174499989
 21
19934.229199000009
 31
0.0
  0
LINE
  5
37AB
  8
2-0
  6
CONTINUOUS
 62
     3
 10
19752.622174499989
 20
19849.23263000001
 30
0.0
 11
19833.620115499991
 21
19849.23263000001
 31
0.0
  0
LINE
  5
37AC
  8
2-0
  6
CONTINUOUS
 62
     3
 10
19782.6197995
 20
19808.935570000001
 30
0.0
 11
19752.622174499989
 21
19808.935570000001
 31
0.0
  0
LINE
  5
37AD
  8
2-0
  6
CONTINUOUS
 62
     3
 10
19782.6197995
 20
19826.93731200002
 30
0.0
 11
19782.6197995
 21
19808.935570000001
 31
0.0
  0
LINE
  5
37AE
  8
2-0
  6
CONTINUOUS
 62
     3
 10
19757.626397499989
 20
19826.93731200002
 30
0.0
 11
19782.6197995
 21
19826.93731200002
 31
0.0
  0
LINE
  5
37AF
  8
2-0
  6
CONTINUOUS
 62
     3
 10
19757.626397499989
 20
19821.929130000019
 30
0.0
 11
19757.626397499989
 21
19826.93731200002
 31
0.0
  0
LINE
  5
37B0
  8
2-0
  6
CONTINUOUS
 62
     3
 10
19764.623995499969
 20
19821.929130000019
 30
0.0
 11
19757.626397499989
 21
19821.929130000019
 31
0.0
  0
LINE
  5
37B1
  8
2-0
  6
CONTINUOUS
 62
     3
 10
19764.623995499969
 20
19468.632307499978
 30
0.0
 11
19757.626397499989
 21
19468.632307499978
 31
0.0
  0
LINE
  5
37B2
  8
2-0
  6
CONTINUOUS
 62
     3
 10
19757.626397499989
 20
19468.632307499978
 30
0.0
 11
19757.626397499989
 21
19473.632571499991
 31
0.0
  0
LINE
  5
37B3
  8
2-0
  6
CONTINUOUS
 62
     3
 10
19757.626397499989
 20
19473.632571499991
 30
0.0
 11
19782.6197995
 21
19473.632571499991
 31
0.0
  0
LINE
  5
37B4
  8
2-0
  6
CONTINUOUS
 62
     3
 10
19782.6197995
 20
19473.632571499991
 30
0.0
 11
19782.6197995
 21
19455.636767499989
 31
0.0
  0
LINE
  5
37B5
  8
2-0
  6
CONTINUOUS
 62
     3
 10
19782.6197995
 20
19455.636767499989
 30
0.0
 11
19752.622174499989
 21
19455.636767499989
 31
0.0
  0
LINE
  5
37B6
  8
2-0
  6
CONTINUOUS
 62
     3
 10
19782.6197995
 20
19471.728274499968
 30
0.0
 11
19782.6197995
 21
19465.730333499989
 31
0.0
  0
LINE
  5
37B7
  8
2-0
  6
CONTINUOUS
 62
     3
 10
19782.6197995
 20
19465.730333499989
 30
0.0
 11
19752.622174499989
 21
19465.730333499989
 31
0.0
  0
LINE
  5
37B8
  8
2-0
  6
CONTINUOUS
 62
     3
 10
19752.622174499989
 20
19465.730333499989
 30
0.0
 11
19752.622174499989
 21
19502.7314945
 31
0.0
  0
LINE
  5
37B9
  8
2-0
  6
CONTINUOUS
 62
     3
 10
19782.6197995
 20
19502.7314945
 30
0.0
 11
19752.622174499989
 21
19502.7314945
 31
0.0
  0
LINE
  5
37BA
  8
2-0
  6
CONTINUOUS
 62
     3
 10
19782.6197995
 20
19496.727614499981
 30
0.0
 11
19782.6197995
 21
19502.7314945
 31
0.0
  0
LINE
  5
37BB
  8
2-0
  6
CONTINUOUS
 62
     3
 10
19782.6197995
 20
19512.827039499982
 30
0.0
 11
19752.622174499989
 21
19512.827039499982
 31
0.0
  0
LINE
  5
37BC
  8
2-0
  6
CONTINUOUS
 62
     3
 10
19782.6197995
 20
19494.8252975
 30
0.0
 11
19782.6197995
 21
19512.827039499982
 31
0.0
  0
LINE
  5
37BD
  8
2-0
  6
CONTINUOUS
 62
     3
 10
19757.626397499989
 20
19494.8252975
 30
0.0
 11
19782.6197995
 21
19494.8252975
 31
0.0
  0
LINE
  5
37BE
  8
2-0
  6
CONTINUOUS
 62
     3
 10
19757.626397499989
 20
19499.825561500002
 30
0.0
 11
19757.626397499989
 21
19494.8252975
 31
0.0
  0
LINE
  5
37BF
  8
2-0
  6
CONTINUOUS
 62
     3
 10
19764.623995499969
 20
19499.825561500002
 30
0.0
 11
19757.626397499989
 21
19499.825561500002
 31
0.0
  0
LINE
  5
37C0
  8
2-0
  6
CONTINUOUS
 62
     3
 10
19764.623995499969
 20
18767.631317999989
 30
0.0
 11
19757.626397499989
 21
18767.631317999989
 31
0.0
  0
LINE
  5
37C1
  8
2-0
  6
CONTINUOUS
 62
     3
 10
19757.626397499989
 20
18767.631317999989
 30
0.0
 11
19757.626397499989
 21
18772.63752
 31
0.0
  0
LINE
  5
37C2
  8
2-0
  6
CONTINUOUS
 62
     3
 10
19757.626397499989
 20
18772.63752
 30
0.0
 11
19782.6197995
 21
18772.63752
 31
0.0
  0
LINE
  5
37C3
  8
2-0
  6
CONTINUOUS
 62
     3
 10
19782.6197995
 20
18772.63752
 30
0.0
 11
19782.6197995
 21
18754.635778
 31
0.0
  0
LINE
  5
37C4
  8
2-0
  6
CONTINUOUS
 62
     3
 10
19782.6197995
 20
18754.635778
 30
0.0
 11
19752.622174499989
 21
18754.635778
 31
0.0
  0
LINE
  5
37C5
  8
2-0
  6
CONTINUOUS
 62
     3
 10
19782.6197995
 20
18770.72728499999
 30
0.0
 11
19782.6197995
 21
18764.731322999989
 31
0.0
  0
LINE
  5
37C6
  8
2-0
  6
CONTINUOUS
 62
     3
 10
19782.6197995
 20
18764.731322999989
 30
0.0
 11
19752.622174499989
 21
18764.731322999989
 31
0.0
  0
LINE
  5
37C7
  8
2-0
  6
CONTINUOUS
 62
     3
 10
19752.622174499989
 20
18764.731322999989
 30
0.0
 11
19752.622174499989
 21
18801.730505
 31
0.0
  0
LINE
  5
37C8
  8
2-0
  6
CONTINUOUS
 62
     3
 10
19782.6197995
 20
18801.730505
 30
0.0
 11
19752.622174499989
 21
18801.730505
 31
0.0
  0
LINE
  5
37C9
  8
2-0
  6
CONTINUOUS
 62
     3
 10
19782.6197995
 20
18795.73454300001
 30
0.0
 11
19782.6197995
 21
18801.730505
 31
0.0
  0
LINE
  5
37CA
  8
2-0
  6
CONTINUOUS
 62
     3
 10
19782.6197995
 20
18811.82605
 30
0.0
 11
19752.622174499989
 21
18811.82605
 31
0.0
  0
LINE
  5
37CB
  8
2-0
  6
CONTINUOUS
 62
     3
 10
19782.6197995
 20
18793.824307999988
 30
0.0
 11
19782.6197995
 21
18811.82605
 31
0.0
  0
LINE
  5
37CC
  8
2-0
  6
CONTINUOUS
 62
     3
 10
19757.626397499989
 20
18793.824307999988
 30
0.0
 11
19782.6197995
 21
18793.824307999988
 31
0.0
  0
LINE
  5
37CD
  8
2-0
  6
CONTINUOUS
 62
     3
 10
19757.626397499989
 20
18798.83051
 30
0.0
 11
19757.626397499989
 21
18793.824307999988
 31
0.0
  0
LINE
  5
37CE
  8
2-0
  6
CONTINUOUS
 62
     3
 10
19764.623995499969
 20
18798.83051
 30
0.0
 11
19757.626397499989
 21
18798.83051
 31
0.0
  0
LINE
  5
37CF
  8
2-0
  6
CONTINUOUS
 62
     3
 10
19764.623995499969
 20
18097.824572000001
 30
0.0
 11
19757.626397499989
 21
18097.824572000001
 31
0.0
  0
LINE
  5
37D0
  8
2-0
  6
CONTINUOUS
 62
     3
 10
19757.626397499989
 20
18097.824572000001
 30
0.0
 11
19757.626397499989
 21
18092.836185
 31
0.0
  0
LINE
  5
37D1
  8
2-0
  6
CONTINUOUS
 62
     3
 10
19757.626397499989
 20
18092.836185
 30
0.0
 11
19782.6197995
 21
18092.836185
 31
0.0
  0
LINE
  5
37D2
  8
2-0
  6
CONTINUOUS
 62
     3
 10
19782.6197995
 20
18092.836185
 30
0.0
 11
19782.6197995
 21
18110.831988000002
 31
0.0
  0
LINE
  5
37D3
  8
2-0
  6
CONTINUOUS
 62
     3
 10
19782.6197995
 20
18110.831988000002
 30
0.0
 11
19752.622174499989
 21
18110.831988000002
 31
0.0
  0
LINE
  5
37D4
  8
2-0
  6
CONTINUOUS
 62
     3
 10
19782.6197995
 20
18094.734542999991
 30
0.0
 11
19782.6197995
 21
18100.730504999981
 31
0.0
  0
LINE
  5
37D5
  8
2-0
  6
CONTINUOUS
 62
     3
 10
19782.6197995
 20
18100.730504999981
 30
0.0
 11
19752.622174499989
 21
18100.730504999981
 31
0.0
  0
LINE
  5
37D6
  8
2-0
  6
CONTINUOUS
 62
     3
 10
19752.622174499989
 20
18100.730504999981
 30
0.0
 11
19752.622174499989
 21
18063.731323
 31
0.0
  0
LINE
  5
37D7
  8
2-0
  6
CONTINUOUS
 62
     3
 10
19782.6197995
 20
18063.731323
 30
0.0
 11
19752.622174499989
 21
18063.731323
 31
0.0
  0
LINE
  5
37D8
  8
2-0
  6
CONTINUOUS
 62
     3
 10
19782.6197995
 20
18069.733223999981
 30
0.0
 11
19782.6197995
 21
18063.731323
 31
0.0
  0
LINE
  5
37D9
  8
2-0
  6
CONTINUOUS
 62
     3
 10
19782.6197995
 20
18053.641716999991
 30
0.0
 11
19752.622174499989
 21
18053.641716999991
 31
0.0
  0
LINE
  5
37DA
  8
2-0
  6
CONTINUOUS
 62
     3
 10
19782.6197995
 20
18071.63752
 30
0.0
 11
19782.6197995
 21
18053.641716999991
 31
0.0
  0
LINE
  5
37DB
  8
2-0
  6
CONTINUOUS
 62
     3
 10
19757.626397499989
 20
18071.63752
 30
0.0
 11
19782.6197995
 21
18071.63752
 31
0.0
  0
LINE
  5
37DC
  8
2-0
  6
CONTINUOUS
 62
     3
 10
19757.626397499989
 20
18066.637256999998
 30
0.0
 11
19757.626397499989
 21
18071.63752
 31
0.0
  0
LINE
  5
37DD
  8
2-0
  6
CONTINUOUS
 62
     3
 10
19764.623995499969
 20
18066.637256999998
 30
0.0
 11
19757.626397499989
 21
18066.637256999998
 31
0.0
  0
LINE
  5
37DE
  8
2-0
  6
CONTINUOUS
 62
     3
 10
19755.508312499991
 20
17346.728143
 30
0.0
 11
19755.508312499991
 21
17366.72919799999
 31
0.0
  0
LINE
  5
37DF
  8
2-0
  6
CONTINUOUS
 62
     3
 10
19755.508312499991
 20
17366.72919799999
 30
0.0
 11
19840.508840499991
 21
17366.72919799999
 31
0.0
  0
LINE
  5
37E0
  8
2-0
  6
CONTINUOUS
 62
     3
 10
19764.623995499969
 20
17393.335908000001
 30
0.0
 11
19757.626397499989
 21
17393.335908000001
 31
0.0
  0
LINE
  5
37E1
  8
2-0
  6
CONTINUOUS
 62
     3
 10
19757.626397499989
 20
17393.335908000001
 30
0.0
 11
19757.626397499989
 21
17388.341582000001
 31
0.0
  0
LINE
  5
37E2
  8
2-0
  6
CONTINUOUS
 62
     3
 10
19757.626397499989
 20
17388.341582000001
 30
0.0
 11
19782.6197995
 21
17388.341582000001
 31
0.0
  0
LINE
  5
37E3
  8
2-0
  6
CONTINUOUS
 62
     3
 10
19782.6197995
 20
17388.341582000001
 30
0.0
 11
19782.6197995
 21
17406.33738600001
 31
0.0
  0
LINE
  5
37E4
  8
2-0
  6
CONTINUOUS
 62
     3
 10
19782.6197995
 20
17406.33738600001
 30
0.0
 11
19752.622174499989
 21
17406.33738600001
 31
0.0
  0
LINE
  5
37E5
  8
2-0
  6
CONTINUOUS
 62
     3
 10
19782.6197995
 20
17396.728802000001
 30
0.0
 11
19782.6197995
 21
17390.726901999991
 31
0.0
  0
LINE
  5
37E6
  8
2-0
  6
CONTINUOUS
 62
     3
 10
19752.622174499989
 20
17396.728802000001
 30
0.0
 11
19782.6197995
 21
17396.728802000001
 31
0.0
  0
LINE
  5
37E7
  8
2-0
  6
CONTINUOUS
 62
     3
 10
19752.622174499989
 20
17406.33738600001
 30
0.0
 11
19752.622174499989
 21
18053.641716999991
 31
0.0
  0
LINE
  5
37E8
  8
2-0
  6
CONTINUOUS
 62
     3
 10
19752.622174499989
 20
18110.831988000002
 30
0.0
 11
19752.622174499989
 21
18754.635778
 31
0.0
  0
LINE
  5
37E9
  8
2-0
  6
CONTINUOUS
 62
     3
 10
19752.622174499989
 20
17251.72708700001
 30
0.0
 11
19782.6197995
 21
17251.72708700001
 31
0.0
  0
LINE
  5
37EA
  8
2-0
  6
CONTINUOUS
 62
     3
 10
19782.6197995
 20
17251.72708700001
 30
0.0
 11
19782.6197995
 21
17257.728986999999
 31
0.0
  0
LINE
  5
37EB
  8
2-0
  6
CONTINUOUS
 62
     3
 10
19840.508840499991
 20
17281.732629999991
 30
0.0
 11
19755.508312499991
 21
17281.732629999991
 31
0.0
  0
LINE
  5
37EC
  8
2-0
  6
CONTINUOUS
 62
     3
 10
19755.508312499991
 20
17281.732629999991
 30
0.0
 11
19755.508312499991
 21
17301.727747000012
 31
0.0
  0
LINE
  5
37ED
  8
2-0
  6
CONTINUOUS
 62
     3
 10
19782.6197995
 20
17242.118504000009
 30
0.0
 11
19752.622174499989
 21
17242.118504000009
 31
0.0
  0
LINE
  5
37EE
  8
2-0
  6
CONTINUOUS
 62
     3
 10
19782.6197995
 20
17260.114306999982
 30
0.0
 11
19782.6197995
 21
17242.118504000009
 31
0.0
  0
LINE
  5
37EF
  8
2-0
  6
CONTINUOUS
 62
     3
 10
19757.626397499989
 20
17260.114306999982
 30
0.0
 11
19782.6197995
 21
17260.114306999982
 31
0.0
  0
LINE
  5
37F0
  8
2-0
  6
CONTINUOUS
 62
     3
 10
19757.626397499989
 20
17255.114043000009
 30
0.0
 11
19757.626397499989
 21
17260.114306999982
 31
0.0
  0
LINE
  5
37F1
  8
2-0
  6
CONTINUOUS
 62
     3
 10
19764.623995499969
 20
17255.114043000009
 30
0.0
 11
19757.626397499989
 21
17255.114043000009
 31
0.0
  0
LINE
  5
37F2
  8
2-0
  6
CONTINUOUS
 62
     3
 10
19764.623995499969
 20
16550.631812499989
 30
0.0
 11
19757.626397499989
 21
16550.631812499989
 31
0.0
  0
LINE
  5
37F3
  8
2-0
  6
CONTINUOUS
 62
     3
 10
19757.626397499989
 20
16550.631812499989
 30
0.0
 11
19757.626397499989
 21
16555.632076499991
 31
0.0
  0
LINE
  5
37F4
  8
2-0
  6
CONTINUOUS
 62
     3
 10
19757.626397499989
 20
16555.632076499991
 30
0.0
 11
19782.6197995
 21
16555.632076499991
 31
0.0
  0
LINE
  5
37F5
  8
2-0
  6
CONTINUOUS
 62
     3
 10
19782.6197995
 20
16555.632076499991
 30
0.0
 11
19782.6197995
 21
16537.630334499991
 31
0.0
  0
LINE
  5
37F6
  8
2-0
  6
CONTINUOUS
 62
     3
 10
19782.6197995
 20
16537.630334499991
 30
0.0
 11
19752.622174499989
 21
16537.630334499991
 31
0.0
  0
LINE
  5
37F7
  8
2-0
  6
CONTINUOUS
 62
     3
 10
19782.6197995
 20
16553.727779500001
 30
0.0
 11
19782.6197995
 21
16547.7308285
 31
0.0
  0
LINE
  5
37F8
  8
2-0
  6
CONTINUOUS
 62
     3
 10
19782.6197995
 20
16547.7308285
 30
0.0
 11
19752.622174499989
 21
16547.7308285
 31
0.0
  0
LINE
  5
37F9
  8
2-0
  6
CONTINUOUS
 62
     3
 10
19752.622174499989
 20
16547.7308285
 30
0.0
 11
19752.622174499989
 21
16584.7309995
 31
0.0
  0
LINE
  5
37FA
  8
2-0
  6
CONTINUOUS
 62
     3
 10
19782.6197995
 20
16584.7309995
 30
0.0
 11
19752.622174499989
 21
16584.7309995
 31
0.0
  0
LINE
  5
37FB
  8
2-0
  6
CONTINUOUS
 62
     3
 10
19782.6197995
 20
16578.7281095
 30
0.0
 11
19782.6197995
 21
16584.7309995
 31
0.0
  0
LINE
  5
37FC
  8
2-0
  6
CONTINUOUS
 62
     3
 10
19782.6197995
 20
16594.8265445
 30
0.0
 11
19752.622174499989
 21
16594.8265445
 31
0.0
  0
LINE
  5
37FD
  8
2-0
  6
CONTINUOUS
 62
     3
 10
19782.6197995
 20
16576.818863500001
 30
0.0
 11
19782.6197995
 21
16594.8265445
 31
0.0
  0
LINE
  5
37FE
  8
2-0
  6
CONTINUOUS
 62
     3
 10
19757.626397499989
 20
16576.818863500001
 30
0.0
 11
19782.6197995
 21
16576.818863500001
 31
0.0
  0
LINE
  5
37FF
  8
2-0
  6
CONTINUOUS
 62
     3
 10
19757.626397499989
 20
16581.825066500001
 30
0.0
 11
19757.626397499989
 21
16576.818863500001
 31
0.0
  0
LINE
  5
3800
  8
2-0
  6
CONTINUOUS
 62
     3
 10
19764.623995499969
 20
16581.825066500001
 30
0.0
 11
19757.626397499989
 21
16581.825066500001
 31
0.0
  0
LINE
  5
3801
  8
2-0
  6
CONTINUOUS
 62
     3
 10
19764.623995499969
 20
15881.065083
 30
0.0
 11
19757.626397499989
 21
15881.065083
 31
0.0
  0
LINE
  5
3802
  8
2-0
  6
CONTINUOUS
 62
     3
 10
19757.626397499989
 20
15881.065083
 30
0.0
 11
19757.626397499989
 21
15876.070758000011
 31
0.0
  0
LINE
  5
3803
  8
2-0
  6
CONTINUOUS
 62
     3
 10
19757.626397499989
 20
15876.070758000011
 30
0.0
 11
19782.6197995
 21
15876.070758000011
 31
0.0
  0
LINE
  5
3804
  8
2-0
  6
CONTINUOUS
 62
     3
 10
19782.6197995
 20
15876.070758000011
 30
0.0
 11
19782.6197995
 21
15894.066561000011
 31
0.0
  0
LINE
  5
3805
  8
2-0
  6
CONTINUOUS
 62
     3
 10
19782.6197995
 20
15894.066561000011
 30
0.0
 11
19752.622174499989
 21
15894.066561000011
 31
0.0
  0
LINE
  5
3806
  8
2-0
  6
CONTINUOUS
 62
     3
 10
19782.6197995
 20
15877.969116
 30
0.0
 11
19782.6197995
 21
15883.97101600001
 31
0.0
  0
LINE
  5
3807
  8
2-0
  6
CONTINUOUS
 62
     3
 10
19782.6197995
 20
15883.97101600001
 30
0.0
 11
19752.622174499989
 21
15883.97101600001
 31
0.0
  0
LINE
  5
3808
  8
2-0
  6
CONTINUOUS
 62
     3
 10
19752.622174499989
 20
15846.971835
 30
0.0
 11
19752.622174499989
 21
15883.97101600001
 31
0.0
  0
LINE
  5
3809
  8
2-0
  6
CONTINUOUS
 62
     3
 10
19782.6197995
 20
15846.971835
 30
0.0
 11
19752.622174499989
 21
15846.971835
 31
0.0
  0
LINE
  5
380A
  8
2-0
  6
CONTINUOUS
 62
     3
 10
19782.6197995
 20
15852.968785999999
 30
0.0
 11
19782.6197995
 21
15846.971835
 31
0.0
  0
LINE
  5
380B
  8
2-0
  6
CONTINUOUS
 62
     3
 10
19782.6197995
 20
15836.870351
 30
0.0
 11
19752.622174499989
 21
15836.870351
 31
0.0
  0
LINE
  5
380C
  8
2-0
  6
CONTINUOUS
 62
     3
 10
19782.6197995
 20
15854.878032000001
 30
0.0
 11
19782.6197995
 21
15836.870351
 31
0.0
  0
LINE
  5
380D
  8
2-0
  6
CONTINUOUS
 62
     3
 10
19757.626397499989
 20
15854.878032000001
 30
0.0
 11
19782.6197995
 21
15854.878032000001
 31
0.0
  0
LINE
  5
380E
  8
2-0
  6
CONTINUOUS
 62
     3
 10
19757.626397499989
 20
15849.87776800002
 30
0.0
 11
19757.626397499989
 21
15854.878032000001
 31
0.0
  0
LINE
  5
380F
  8
2-0
  6
CONTINUOUS
 62
     3
 10
19764.623995499969
 20
15849.87776800002
 30
0.0
 11
19757.626397499989
 21
15849.87776800002
 31
0.0
  0
LINE
  5
3810
  8
2-0
  6
CONTINUOUS
 62
     3
 10
19752.622174499989
 20
17242.118504000009
 30
0.0
 11
19752.622174499989
 21
16594.8265445
 31
0.0
  0
LINE
  5
3811
  8
2-0
  6
CONTINUOUS
 62
     3
 10
19752.622174499989
 20
17396.728802000001
 30
0.0
 11
19752.622174499989
 21
17251.72708700001
 31
0.0
  0
LINE
  5
3812
  8
2-0
  6
CONTINUOUS
 62
     3
 10
19840.508840499991
 20
17366.72919799999
 30
0.0
 11
19840.508840499991
 21
17281.732629999991
 31
0.0
  0
LINE
  5
3813
  8
2-0
  6
CONTINUOUS
 62
     3
 10
19764.623995499969
 20
15148.636761
 30
0.0
 11
19757.626397499989
 21
15148.636761
 31
0.0
  0
LINE
  5
3814
  8
2-0
  6
CONTINUOUS
 62
     3
 10
19757.626397499989
 20
15148.636761
 30
0.0
 11
19757.626397499989
 21
15153.631087000011
 31
0.0
  0
LINE
  5
3815
  8
2-0
  6
CONTINUOUS
 62
     3
 10
19757.626397499989
 20
15153.631087000011
 30
0.0
 11
19782.6197995
 21
15153.631087000011
 31
0.0
  0
LINE
  5
3816
  8
2-0
  6
CONTINUOUS
 62
     3
 10
19782.6197995
 20
15153.631087000011
 30
0.0
 11
19782.6197995
 21
15135.635283000011
 31
0.0
  0
LINE
  5
3817
  8
2-0
  6
CONTINUOUS
 62
     3
 10
19782.6197995
 20
15135.635283000011
 30
0.0
 11
19752.622174499989
 21
15135.635283000011
 31
0.0
  0
LINE
  5
3818
  8
2-0
  6
CONTINUOUS
 62
     3
 10
19782.6197995
 20
15151.73371800001
 30
0.0
 11
19782.6197995
 21
15145.730828000011
 31
0.0
  0
LINE
  5
3819
  8
2-0
  6
CONTINUOUS
 62
     3
 10
19782.6197995
 20
15145.730828000011
 30
0.0
 11
19752.622174499989
 21
15145.730828000011
 31
0.0
  0
LINE
  5
381A
  8
2-0
  6
CONTINUOUS
 62
     3
 10
19752.622174499989
 20
15145.730828000011
 30
0.0
 11
19752.622174499989
 21
15182.730999999991
 31
0.0
  0
LINE
  5
381B
  8
2-0
  6
CONTINUOUS
 62
     3
 10
19782.6197995
 20
15182.730999999991
 30
0.0
 11
19752.622174499989
 21
15182.730999999991
 31
0.0
  0
LINE
  5
381C
  8
2-0
  6
CONTINUOUS
 62
     3
 10
19782.6197995
 20
15176.734048
 30
0.0
 11
19782.6197995
 21
15182.730999999991
 31
0.0
  0
LINE
  5
381D
  8
2-0
  6
CONTINUOUS
 62
     3
 10
19782.6197995
 20
15192.831493000011
 30
0.0
 11
19752.622174499989
 21
15192.831493000011
 31
0.0
  0
LINE
  5
381E
  8
2-0
  6
CONTINUOUS
 62
     3
 10
19782.6197995
 20
15174.82480200001
 30
0.0
 11
19782.6197995
 21
15192.831493000011
 31
0.0
  0
LINE
  5
381F
  8
2-0
  6
CONTINUOUS
 62
     3
 10
19757.626397499989
 20
15174.82480200001
 30
0.0
 11
19782.6197995
 21
15174.82480200001
 31
0.0
  0
LINE
  5
3820
  8
2-0
  6
CONTINUOUS
 62
     3
 10
19757.626397499989
 20
15179.83001500001
 30
0.0
 11
19757.626397499989
 21
15174.82480200001
 31
0.0
  0
LINE
  5
3821
  8
2-0
  6
CONTINUOUS
 62
     3
 10
19764.623995499969
 20
15179.83001500001
 30
0.0
 11
19757.626397499989
 21
15179.83001500001
 31
0.0
  0
LINE
  5
3822
  8
2-0
  6
CONTINUOUS
 62
     3
 10
19782.6197995
 20
14472.732840999999
 30
0.0
 11
19782.6197995
 21
14478.737709999999
 31
0.0
  0
LINE
  5
3823
  8
2-0
  6
CONTINUOUS
 62
     3
 10
19782.6197995
 20
14478.737709999999
 30
0.0
 11
19752.622174499989
 21
14478.737709999999
 31
0.0
  0
LINE
  5
3824
  8
2-0
  6
CONTINUOUS
 62
     3
 10
19752.622174499989
 20
14478.737709999999
 30
0.0
 11
19752.622174499989
 21
14363.733619000001
 31
0.0
  0
LINE
  5
3825
  8
2-0
  6
CONTINUOUS
 62
     3
 10
19752.622174499989
 20
14363.733619000001
 30
0.0
 11
19837.620722499982
 21
14363.733619000001
 31
0.0
  0
LINE
  5
3826
  8
2-0
  6
CONTINUOUS
 62
     3
 10
19837.620722499982
 20
14363.733619000001
 30
0.0
 11
19837.620722499982
 21
14448.729198000001
 31
0.0
  0
LINE
  5
3827
  8
2-0
  6
CONTINUOUS
 62
     3
 10
19837.620722499982
 20
14448.729198000001
 30
0.0
 11
19805.623784499981
 21
14448.729198000001
 31
0.0
  0
LINE
  5
3828
  8
2-0
  6
CONTINUOUS
 62
     3
 10
19764.623995499969
 20
14475.767443000001
 30
0.0
 11
19757.626397499989
 21
14475.767443000001
 31
0.0
  0
LINE
  5
3829
  8
2-0
  6
CONTINUOUS
 62
     3
 10
19757.626397499989
 20
14475.767443000001
 30
0.0
 11
19757.626397499989
 21
14470.77014799998
 31
0.0
  0
LINE
  5
382A
  8
2-0
  6
CONTINUOUS
 62
     3
 10
19757.626397499989
 20
14470.77014799998
 30
0.0
 11
19782.6197995
 21
14470.77014799998
 31
0.0
  0
LINE
  5
382B
  8
2-0
  6
CONTINUOUS
 62
     3
 10
19782.6197995
 20
14470.77014799998
 30
0.0
 11
19782.6197995
 21
14488.768921000001
 31
0.0
  0
LINE
  5
382C
  8
2-0
  6
CONTINUOUS
 62
     3
 10
19782.6197995
 20
14488.768921000001
 30
0.0
 11
19752.622174499989
 21
14488.768921000001
 31
0.0
  0
LINE
  5
382D
  8
2-0
  6
CONTINUOUS
 62
     3
 10
19752.622174499989
 20
15192.831493000011
 30
0.0
 11
19752.622174499989
 21
15836.870351
 31
0.0
  0
LINE
  5
382E
  8
2-0
  6
CONTINUOUS
 62
     3
 10
19752.622174499989
 20
18811.82605
 30
0.0
 11
19752.622174499989
 21
19455.636767499989
 31
0.0
  0
LINE
  5
382F
  8
2-0
  6
CONTINUOUS
 62
     3
 10
19752.622174499989
 20
16537.630334499991
 30
0.0
 11
19752.622174499989
 21
15894.066561000011
 31
0.0
  0
LINE
  5
3830
  8
2-0
  6
CONTINUOUS
 62
     3
 10
24622.116763499991
 20
19819.23302600002
 30
0.0
 11
24622.116763499991
 21
19934.229199000009
 31
0.0
  0
LINE
  5
3831
  8
2-0
  6
CENTER2
 62
     6
 10
18465.6639025
 20
19891.730914
 30
0.0
 11
25472.11808349999
 21
19891.730914
 31
0.0
  0
LINE
  5
3832
  8
2-0
  6
CENTER2
 62
     6
 10
18465.6639025
 20
17324.230914
 30
0.0
 11
25472.11808349999
 21
17324.230914
 31
0.0
  0
LINE
  5
3833
  8
2-0
  6
CENTER2
 62
     6
 10
18465.6639025
 20
14406.230913999991
 30
0.0
 11
25472.11808349999
 21
14406.230913999991
 31
0.0
  0
LINE
  5
3834
  8
2-0
  6
CONTINUOUS
 62
     3
 10
19752.622174499989
 20
19849.23263000001
 30
0.0
 11
24541.114863499992
 21
19849.23263000001
 31
0.0
  0
LINE
  5
3835
  8
2-0
  6
CONTINUOUS
 62
     3
 10
19752.622174499989
 20
14488.768921000001
 30
0.0
 11
19752.622174499989
 21
15135.635283000011
 31
0.0
  0
LINE
  5
3836
  8
2-0
  6
CENTER2
 62
     6
 10
19795.11847949999
 20
21134.229199000009
 30
0.0
 11
19795.11847949999
 21
13780.467479999999
 31
0.0
  0
LINE
  5
3837
  8
2-0
  6
CENTER2
 62
     6
 10
24579.618479500001
 20
21134.229199000009
 30
0.0
 11
24579.618479500001
 21
13780.467479999999
 31
0.0
  0
LINE
  5
3838
  8
2-0
  6
CONTINUOUS
 62
     3
 10
24622.116763499991
 20
19808.935570000001
 30
0.0
 11
24622.116763499991
 21
19512.827039499982
 31
0.0
  0
LINE
  5
3839
  8
2-0
  6
CONTINUOUS
 62
     3
 10
19752.622174499989
 20
19808.935570000001
 30
0.0
 11
19752.622174499989
 21
19512.827039499982
 31
0.0
  0
LINE
  5
383A
  8
2-0
  6
CENTER2
 62
     6
 10
22713.118479499979
 20
21134.229199000009
 30
0.0
 11
22713.118479499979
 21
14214.82631299999
 31
0.0
  0
LINE
  5
383B
  8
2-0
  6
CONTINUOUS
 62
     3
 10
19833.620115499991
 20
14448.729198000001
 30
0.0
 11
19833.620115499991
 21
19934.229199000009
 31
0.0
  0
LINE
  5
383C
  8
2-0
  6
CONTINUOUS
 62
     3
 10
24541.114863499992
 20
14448.729198000001
 30
0.0
 11
24541.114863499992
 21
19934.229199000009
 31
0.0
  0
CIRCLE
  5
383D
  8
2-0
  6
CONTINUOUS
 62
     4
 10
18265.666212499978
 20
19891.730914
 30
0.0
 40
200.00001
  0
CIRCLE
  5
383E
  8
2-0
  6
CONTINUOUS
 62
     4
 10
18265.666212499978
 20
17324.230914
 30
0.0
 40
200.00001
  0
CIRCLE
  5
383F
  8
2-0
  6
CONTINUOUS
 62
     4
 10
18265.666212499978
 20
14406.230913999991
 30
0.0
 40
200.00001
  0
CIRCLE
  5
3840
  8
2-0
  6
CONTINUOUS
 62
     4
 10
22713.118479499979
 20
21334.233818000012
 30
0.0
 40
200.00001
  0
CIRCLE
  5
3841
  8
2-0
  6
CONTINUOUS
 62
     4
 10
19795.11847949999
 20
21334.233818000012
 30
0.0
 40
200.00001
  0
TEXT
  5
3842
  8
2-0
  6
CONTINUOUS
 62
     7
 10
22976.463786499979
 20
13846.232035999999
 30
0.0
 40
160.0
  1
前柱（右）
 50
0.000213
 72
     4
 11
23392.463489092999
 21
13926.23358250079
 31
0.0
  0
TEXT
  5
3843
  8
2-0
  6
CONTINUOUS
 62
     7
 10
23181.058909499989
 20
16774.72405200003
 30
0.0
 40
160.0
  1
壁パネル
 50
359.99982299999999
 72
     4
 11
23543.72582330355
 21
16854.722931637891
 31
0.0
  0
TEXT
  5
3844
  8
2-0
  6
CONTINUOUS
 62
     7
 10
22901.056005499991
 20
17611.911948000012
 30
0.0
 40
160.0
  1
中柱（左右）
 50
0.000354
 72
     4
 11
23418.3888445462
 21
17691.915144324659
 31
0.0
  0
TEXT
  5
3845
  8
2-0
  6
CONTINUOUS
 62
     7
 10
23581.058249499991
 20
14819.273302
 30
0.0
 40
160.0
  1
下枠
 50
0.001063
 72
     4
 11
23751.723431909279
 21
14899.276468339291
 31
0.0
  0
TEXT
  5
3846
  8
2-0
  6
CONTINUOUS
 62
     7
 10
23076.0236735
 20
19215.1806865
 30
0.0
 40
160.0
  1
間柱（側）
 72
     4
 11
23497.357006833328
 21
19295.1806865
 31
0.0
  0
TEXT
  5
3847
  8
2-0
  6
CONTINUOUS
 62
     7
 10
25394.613992499999
 20
20744.228406999999
 30
0.0
 40
160.0
  1
後柱（左右）
 50
0.000354
 72
     4
 11
25906.613498212981
 21
20824.231570372842
 31
0.0
  0
TEXT
  5
3848
  8
2-0
  6
CONTINUOUS
 62
     7
 10
18217.666845499982
 20
19797.250472000022
 30
0.0
 40
160.0
  1
C
 72
     4
 11
18271.000178833321
 21
19877.250472000022
 31
0.0
  0
TEXT
  5
3849
  8
2-0
  6
CONTINUOUS
 62
     7
 10
18217.887561499982
 20
17253.836832000019
 30
0.0
 40
160.0
  1
B
 72
     4
 11
18271.22089483331
 21
17333.836832000019
 31
0.0
  0
TEXT
  5
384A
  8
2-0
  6
CONTINUOUS
 62
     7
 10
18217.930121500001
 20
14317.62370299999
 30
0.0
 40
160.0
  1
A
 72
     4
 11
18271.26345483333
 21
14397.62370299999
 31
0.0
  0
TEXT
  5
384B
  8
2-0
  6
CONTINUOUS
 62
     7
 10
22661.486696499989
 20
21238.708189000012
 30
0.0
 40
160.0
  1
2
 72
     4
 11
22714.820029833321
 21
21318.708189000012
 31
0.0
  0
TEXT
  5
384C
  8
2-0
  6
CONTINUOUS
 62
     7
 10
19750.911870499978
 20
21245.466266000029
 30
0.0
 40
160.0
  1
1
 72
     4
 11
19777.57853716665
 21
21325.466266000029
 31
0.0
  0
LINE
  5
384D
  8
2-0
  6
CONTINUOUS
 62
     3
 10
23840.11906049999
 20
19934.229199000009
 30
0.0
 11
23803.11789849999
 21
19934.229199000009
 31
0.0
  0
LINE
  5
384E
  8
2-0
  6
CONTINUOUS
 62
     3
 10
23840.11906049999
 20
19904.22563600001
 30
0.0
 11
23840.11906049999
 21
19934.229199000009
 31
0.0
  0
LINE
  5
384F
  8
2-0
  6
CONTINUOUS
 62
     3
 10
23834.119139499981
 20
19904.22563600001
 30
0.0
 11
23840.11906049999
 21
19904.22563600001
 31
0.0
  0
LINE
  5
3850
  8
2-0
  6
CONTINUOUS
 62
     3
 10
23850.216584499991
 20
19904.22563600001
 30
0.0
 11
23850.216584499991
 21
19934.229199000009
 31
0.0
  0
LINE
  5
3851
  8
2-0
  6
CONTINUOUS
 62
     3
 10
23832.21286349999
 20
19904.22563600001
 30
0.0
 11
23850.216584499991
 21
19904.22563600001
 31
0.0
  0
LINE
  5
3852
  8
2-0
  6
CONTINUOUS
 62
     3
 10
23832.21286349999
 20
19929.234873000001
 30
0.0
 11
23832.21286349999
 21
19904.22563600001
 31
0.0
  0
LINE
  5
3853
  8
2-0
  6
CONTINUOUS
 62
     3
 10
23837.213127499988
 20
19929.234873000001
 30
0.0
 11
23832.21286349999
 21
19929.234873000001
 31
0.0
  0
LINE
  5
3854
  8
2-0
  6
CONTINUOUS
 62
     3
 10
23837.213127499988
 20
19922.229357000011
 30
0.0
 11
23837.213127499988
 21
19929.234873000001
 31
0.0
  0
LINE
  5
3855
  8
2-0
  6
CONTINUOUS
 62
     3
 10
23806.023832499981
 20
19922.229357000011
 30
0.0
 11
23806.023832499981
 21
19929.234873000001
 31
0.0
  0
LINE
  5
3856
  8
2-0
  6
CONTINUOUS
 62
     3
 10
23806.023832499981
 20
19929.234873000001
 30
0.0
 11
23811.02409649999
 21
19929.234873000001
 31
0.0
  0
LINE
  5
3857
  8
2-0
  6
CONTINUOUS
 62
     3
 10
23811.02409649999
 20
19929.234873000001
 30
0.0
 11
23811.02409649999
 21
19904.22563600001
 31
0.0
  0
LINE
  5
3858
  8
2-0
  6
CONTINUOUS
 62
     3
 10
23811.02409649999
 20
19904.22563600001
 30
0.0
 11
23793.02433349999
 21
19904.22563600001
 31
0.0
  0
LINE
  5
3859
  8
2-0
  6
CONTINUOUS
 62
     3
 10
23793.02433349999
 20
19904.22563600001
 30
0.0
 11
23793.02433349999
 21
19934.229199000009
 31
0.0
  0
LINE
  5
385A
  8
2-0
  6
CONTINUOUS
 62
     3
 10
23809.117819499988
 20
19904.22563600001
 30
0.0
 11
23803.11789849999
 21
19904.22563600001
 31
0.0
  0
LINE
  5
385B
  8
2-0
  6
CONTINUOUS
 62
     3
 10
23803.11789849999
 20
19904.22563600001
 30
0.0
 11
23803.11789849999
 21
19934.229199000009
 31
0.0
  0
LINE
  5
385C
  8
2-0
  6
CONTINUOUS
 62
     3
 10
23105.01789399999
 20
19922.229357000011
 30
0.0
 11
23105.01789399999
 21
19929.234873000001
 31
0.0
  0
LINE
  5
385D
  8
2-0
  6
CONTINUOUS
 62
     3
 10
23105.01789399999
 20
19929.234873000001
 30
0.0
 11
23110.018156999991
 21
19929.234873000001
 31
0.0
  0
LINE
  5
385E
  8
2-0
  6
CONTINUOUS
 62
     3
 10
23110.018156999991
 20
19929.234873000001
 30
0.0
 11
23110.018156999991
 21
19904.22563600001
 31
0.0
  0
LINE
  5
385F
  8
2-0
  6
CONTINUOUS
 62
     3
 10
23110.018156999991
 20
19904.22563600001
 30
0.0
 11
23092.02433399998
 21
19904.22563600001
 31
0.0
  0
LINE
  5
3860
  8
2-0
  6
CONTINUOUS
 62
     3
 10
23092.02433399998
 20
19904.22563600001
 30
0.0
 11
23092.02433399998
 21
19934.229199000009
 31
0.0
  0
LINE
  5
3861
  8
2-0
  6
CONTINUOUS
 62
     3
 10
23108.11583999998
 20
19904.22563600001
 30
0.0
 11
23102.117898999979
 21
19904.22563600001
 31
0.0
  0
LINE
  5
3862
  8
2-0
  6
CONTINUOUS
 62
     3
 10
23102.117898999979
 20
19904.22563600001
 30
0.0
 11
23102.117898999979
 21
19934.229199000009
 31
0.0
  0
LINE
  5
3863
  8
2-0
  6
CONTINUOUS
 62
     3
 10
23139.11905999999
 20
19934.229199000009
 30
0.0
 11
23102.117898999979
 21
19934.229199000009
 31
0.0
  0
LINE
  5
3864
  8
2-0
  6
CONTINUOUS
 62
     3
 10
23139.11905999999
 20
19904.22563600001
 30
0.0
 11
23139.11905999999
 21
19934.229199000009
 31
0.0
  0
LINE
  5
3865
  8
2-0
  6
CONTINUOUS
 62
     3
 10
23133.113200999989
 20
19904.22563600001
 30
0.0
 11
23139.11905999999
 21
19904.22563600001
 31
0.0
  0
LINE
  5
3866
  8
2-0
  6
CONTINUOUS
 62
     3
 10
23149.212624999989
 20
19904.22563600001
 30
0.0
 11
23149.212624999989
 21
19934.229199000009
 31
0.0
  0
LINE
  5
3867
  8
2-0
  6
CONTINUOUS
 62
     3
 10
23131.216821999991
 20
19904.22563600001
 30
0.0
 11
23149.212624999989
 21
19904.22563600001
 31
0.0
  0
LINE
  5
3868
  8
2-0
  6
CONTINUOUS
 62
     3
 10
23131.216821999991
 20
19929.234873000001
 30
0.0
 11
23131.216821999991
 21
19904.22563600001
 31
0.0
  0
LINE
  5
3869
  8
2-0
  6
CONTINUOUS
 62
     3
 10
23136.207187999978
 20
19929.234873000001
 30
0.0
 11
23131.216821999991
 21
19929.234873000001
 31
0.0
  0
LINE
  5
386A
  8
2-0
  6
CONTINUOUS
 62
     3
 10
23136.207187999978
 20
19922.229357000011
 30
0.0
 11
23136.207187999978
 21
19929.234873000001
 31
0.0
  0
LINE
  5
386B
  8
2-0
  6
CONTINUOUS
 62
     3
 10
22795.236828500001
 20
19934.22919900003
 30
0.0
 11
23092.02433399998
 21
19934.229199000009
 31
0.0
  0
LINE
  5
386C
  8
2-0
  6
CONTINUOUS
 62
     3
 10
24497.50210949999
 20
19934.229199000009
 30
0.0
 11
23850.216584499991
 21
19934.229199000009
 31
0.0
  0
LINE
  5
386D
  8
2-0
  6
CONTINUOUS
 62
     3
 10
23793.02433349999
 20
19934.229199000009
 30
0.0
 11
23149.212624999989
 21
19934.229199000009
 31
0.0
  0
LINE
  5
386E
  8
2-0
  6
CONTINUOUS
 62
     3
 10
22631.690982500011
 20
19934.229199000009
 30
0.0
 11
21983.716584499991
 21
19934.229199000009
 31
0.0
  0
LINE
  5
386F
  8
2-0
  6
CONTINUOUS
 62
     3
 10
24622.116763499991
 20
15836.870351
 30
0.0
 11
24622.116763499991
 21
15192.831493000011
 31
0.0
  0
LINE
  5
3870
  8
2-0
  6
CONTINUOUS
 62
     3
 10
24622.116763499991
 20
15135.635283
 30
0.0
 11
24622.116763499991
 21
14488.768921000001
 31
0.0
  0
CIRCLE
  5
3871
  8
2-0
  6
CONTINUOUS
 62
     4
 10
24579.618479500001
 20
21334.233818000012
 30
0.0
 40
200.00001
  0
TEXT
  5
3872
  8
2-0
  6
CONTINUOUS
 62
     7
 10
24527.9866965
 20
21238.708189000012
 30
0.0
 40
160.0
  1
3
 72
     4
 11
24581.320029833329
 21
21318.708189000012
 31
0.0
  0
LINE
  5
3873
  8
SUNPOU
  6
CONTINUOUS
 10
8589.3738785000023
 20
9763.7812800000029
 30
0.0
 11
8114.0847658597704
 21
9763.7812800000029
 31
0.0
  0
LINE
  5
3874
  8
0-6
  6
CONTINUOUS
 62
     6
 10
22645.408056999979
 20
19810.47167700002
 30
0.0
 11
22332.85197
 21
19284.07809600003
 31
0.0
  0
LINE
  5
3875
  8
0-6
  6
CONTINUOUS
 62
     6
 10
21307.815678999999
 20
19284.07809600003
 30
0.0
 11
22332.85197
 21
19284.07809600003
 31
0.0
  0
LINE
  5
3876
  8
0-6
  6
CONTINUOUS
 62
     6
 10
21310.836424000008
 20
18686.378297000021
 30
0.0
 11
22335.876675
 21
18686.378297000021
 31
0.0
  0
LINE
  5
3877
  8
0-6
  6
CONTINUOUS
 62
     6
 10
20669.405100999978
 20
19766.65305400002
 30
0.0
 11
21310.836424000008
 21
18686.378297000021
 31
0.0
  0
LINE
  5
3878
  8
0-6
  6
CONTINUOUS
 62
     6
 10
20692.337823000002
 20
19780.268183
 30
0.0
 11
20587.718286999989
 21
19904.227616000011
 31
0.0
  0
LINE
  5
3879
  8
0-6
  6
CONTINUOUS
 62
     6
 10
20587.718286999989
 20
19904.227616000011
 30
0.0
 11
20646.476336999989
 21
19753.037925000011
 31
0.0
  0
LINE
  5
387A
  8
0-6
  6
CONTINUOUS
 62
     6
 10
20587.718286999989
 20
19904.227616000011
 30
0.0
 11
20692.337823000002
 21
19780.268183
 31
0.0
  0
LINE
  5
387B
  8
0-6
  6
CONTINUOUS
 62
     6
 10
20692.337823000002
 20
19780.268183
 30
0.0
 11
20646.476336999989
 21
19753.037925000011
 31
0.0
  0
LINE
  5
387C
  8
0-6
  6
CONTINUOUS
 62
     6
 10
20646.476336999989
 20
19753.037925000011
 30
0.0
 11
20587.718286999989
 21
19904.227616000011
 31
0.0
  0
LINE
  5
387D
  8
0-6
  6
CONTINUOUS
 62
     6
 10
20646.476336999989
 20
19753.037925000011
 30
0.0
 11
20692.337823000002
 21
19780.268183
 31
0.0
  0
LINE
  5
387E
  8
0-6
  6
CONTINUOUS
 62
     6
 10
22540.792479
 20
19686.51026500003
 30
0.0
 11
22645.408056999979
 21
19810.47167700002
 31
0.0
  0
LINE
  5
387F
  8
0-6
  6
CONTINUOUS
 62
     6
 10
22645.408056999979
 20
19810.47167700002
 30
0.0
 11
22586.650007
 21
19659.28198600002
 31
0.0
  0
LINE
  5
3880
  8
0-6
  6
CONTINUOUS
 62
     6
 10
22645.408056999979
 20
19810.47167700002
 30
0.0
 11
22540.792479
 21
19686.51026500003
 31
0.0
  0
LINE
  5
3881
  8
0-6
  6
CONTINUOUS
 62
     6
 10
22540.792479
 20
19686.51026500003
 30
0.0
 11
22586.650007
 21
19659.28198600002
 31
0.0
  0
LINE
  5
3882
  8
0-6
  6
CONTINUOUS
 62
     6
 10
22586.650007
 20
19659.28198600002
 30
0.0
 11
22645.408056999979
 21
19810.47167700002
 31
0.0
  0
LINE
  5
3883
  8
0-6
  6
CONTINUOUS
 62
     6
 10
22586.650007
 20
19659.28198600002
 30
0.0
 11
22540.792479
 21
19686.51026500003
 31
0.0
  0
TEXT
  5
3884
  8
0-6
  6
CONTINUOUS
 62
     7
 10
21387.811984
 20
19364.07836000001
 30
0.0
 40
160.0
  1
後柱（中）
 72
     4
 11
21803.811984
 21
19444.07836000001
 31
0.0
  0
TEXT
  5
3885
  8
0-6
  6
CONTINUOUS
 62
     7
 10
21390.836687999988
 20
18766.37856100003
 30
0.0
 40
160.0
  1
間柱（後）
 72
     4
 11
21812.170021333321
 21
18846.37856100003
 31
0.0
  0
LINE
  5
3886
  8
0-6
  6
CONTINUOUS
 62
     6
 10
21384.875632499989
 20
14880.000709000011
 30
0.0
 11
22408.650970499992
 21
14880.000709000011
 31
0.0
  0
LINE
  5
3887
  8
0-6
  6
CONTINUOUS
 62
     6
 10
22670.61847949999
 20
14448.730913999991
 30
0.0
 11
22408.650970499992
 21
14880.000709000011
 31
0.0
  0
LINE
  5
3888
  8
0-6
  6
CONTINUOUS
 62
     6
 10
22610.344118499979
 20
14599.32279
 30
0.0
 11
22670.61847949999
 21
14448.730913999991
 31
0.0
  0
LINE
  5
3889
  8
0-6
  6
CONTINUOUS
 62
     6
 10
22670.61847949999
 20
14448.730913999991
 30
0.0
 11
22564.759764499991
 21
14571.635263
 31
0.0
  0
LINE
  5
388A
  8
0-6
  6
CONTINUOUS
 62
     6
 10
22670.61847949999
 20
14448.730913999991
 30
0.0
 11
22610.344118499979
 21
14599.32279
 31
0.0
  0
LINE
  5
388B
  8
0-6
  6
CONTINUOUS
 62
     6
 10
22610.344118499979
 20
14599.32279
 30
0.0
 11
22564.759764499991
 21
14571.635263
 31
0.0
  0
LINE
  5
388C
  8
0-6
  6
CONTINUOUS
 62
     6
 10
22564.759764499991
 20
14571.635263
 30
0.0
 11
22670.61847949999
 21
14448.730913999991
 31
0.0
  0
LINE
  5
388D
  8
0-6
  6
CONTINUOUS
 62
     6
 10
22564.759764499991
 20
14571.635263
 30
0.0
 11
22610.344118499979
 21
14599.32279
 31
0.0
  0
TEXT
  5
388E
  8
0-6
  6
CONTINUOUS
 62
     7
 10
21464.873916499979
 20
14960.000972999989
 30
0.0
 40
160.0
  1
前柱（中）
 72
     4
 11
21880.873916499979
 21
15040.000972999989
 31
0.0
  0
LINE
  5
388F
  8
0-2
  6
CONTINUOUS
 62
     4
 10
24010.05849950001
 20
7263.0054729999974
 30
0.0
 11
23910.059159500011
 21
7263.0054729999974
 31
0.0
  0
LINE
  5
3890
  8
0-2
  6
CONTINUOUS
 62
     4
 10
23282.674498500011
 20
7263.0054729999974
 30
0.0
 11
23382.671859499998
 21
7263.0054729999974
 31
0.0
  0
CIRCLE
  5
3891
  8
0-4
  6
CONTINUOUS
 62
     4
 10
23646.367489000011
 20
7001.8357099999976
 30
0.0
 40
18.487504999999981
  0
LINE
  5
3892
  8
SUNPOU
  6
CONTINUOUS
 10
8220.1620244999885
 20
20114.226823000001
 30
0.0
 11
8220.1620244999885
 21
20911.19409077847
 31
0.0
  0
LINE
  5
3893
  8
SUNPOU
  6
CONTINUOUS
 10
8220.1620244999885
 20
14213.735599000011
 30
0.0
 11
8220.1620244999885
 21
13538.309483189631
 31
0.0
  0
LINE
  5
3896
  8
WAKUSEN-01
 10
868.00000000000193
 20
22484.000000000011
 30
0.0
 11
32764.000000000011
 21
22484.000000000011
 31
0.0
  0
LINE
  5
3899
  8
WAKUSEN-01
 10
20560.0
 20
2484.0
 30
0.0
 11
32764.0
 21
2484.0
 31
0.0
  0
LINE
  5
389A
  8
WAKUSEN-02
 10
20560.0
 20
1655.9999999999991
 30
0.0
 11
26868.0
 21
1655.9999999999991
 31
0.0
  0
TEXT
  5
389B
  8
WAKUMOJI-01
 10
20670.260259962761
 20
2125.9030093393221
 30
0.0
 40
240.0
  1
名　称
  7
WAKUMOJI
  0
TEXT
  5
389C
  8
WAKUMOJI-01
 10
20656.505485091919
 20
1319.12897497982
 30
0.0
 40
240.0
  1
機種名
  7
WAKUMOJI
  0
LINE
  5
389F
  8
YODOROGO
 10
29977.604341291921
 20
1995.7494964292871
 30
0.0
 11
29829.604341291921
 21
1995.7494964292871
 31
0.0
1001
AUTOCAD_POSTSCRIPT_FIGURE
1002
{
1000
PSFILL
1000
Grayscale
1000
Grayscale
1070
    25
1002
}
  0
LINE
  5
38A0
  8
YODOROGO
 10
29829.604341291921
 20
1947.749496429288
 30
0.0
 11
29977.604341291921
 21
1947.749496429288
 31
0.0
1001
AUTOCAD_POSTSCRIPT_FIGURE
1002
{
1000
PSFILL
1000
Grayscale
1000
Grayscale
1070
    25
1002
}
  0
LINE
  5
38A1
  8
YODOROGO
 10
29977.604341291921
 20
1907.7494964292871
 30
0.0
 11
29829.604341291921
 21
1907.7494964292871
 31
0.0
1001
AUTOCAD_POSTSCRIPT_FIGURE
1002
{
1000
PSFILL
1000
Grayscale
1000
Grayscale
1070
    25
1002
}
  0
LINE
  5
38A2
  8
YODOROGO
 10
29829.604341291921
 20
1859.749496429288
 30
0.0
 11
29977.604341291921
 21
1859.749496429288
 31
0.0
1001
AUTOCAD_POSTSCRIPT_FIGURE
1002
{
1000
PSFILL
1000
Grayscale
1000
Grayscale
1070
    25
1002
}
  0
LINE
  5
38A3
  8
YODOROGO
 10
29977.604341291921
 20
1819.7494964292871
 30
0.0
 11
29829.604341291921
 21
1819.7494964292871
 31
0.0
1001
AUTOCAD_POSTSCRIPT_FIGURE
1002
{
1000
PSFILL
1000
Grayscale
1000
Grayscale
1070
    25
1002
}
  0
LINE
  5
38A4
  8
YODOROGO
 10
29921.60434129191
 20
1707.749496429288
 30
0.0
 11
29977.604341291921
 21
1707.749496429288
 31
0.0
1001
AUTOCAD_POSTSCRIPT_FIGURE
1002
{
1000
PSFILL
1000
Grayscale
1000
Grayscale
1070
    25
1002
}
  0
LINE
  5
38A5
  8
YODOROGO
 10
29737.604341291921
 20
1427.749496429288
 30
0.0
 11
29937.604341291932
 21
1481.3393349155101
 31
0.0
  0
LINE
  5
38A6
  8
YODOROGO
 10
29949.60434129191
 20
1707.749496429288
 30
0.0
 11
29885.604341291921
 21
1707.749496429288
 31
0.0
  0
ARC
  5
38A7
  8
YODOROGO
 10
30254.34774982791
 20
1807.864609233261
 30
0.0
 40
381.88686420564721
 50
213.96111677667841
 51
264.47872074317792
  0
ARC
  5
38A8
  8
YODOROGO
 10
30254.347749827921
 20
1807.864609233302
 30
0.0
 40
381.8868642056816
 50
208.14114420486601
 51
212.9210361185994
  0
LINE
  5
38A9
  8
YODOROGO
 10
29771.409872985321
 20
1556.807661346234
 30
0.0
 11
29933.78413250855
 21
1600.3157130570869
 31
0.0
  0
LINE
  5
38AA
  8
YODOROGO
 10
29737.604341291921
 20
1427.749496429288
 30
0.0
 11
29937.604341291932
 21
1481.3393349155101
 31
0.0
  0
LINE
  5
38AB
  8
YODOROGO
 10
29949.60434129191
 20
1707.749496429288
 30
0.0
 11
29885.604341291921
 21
1707.749496429288
 31
0.0
  0
ARC
  5
38AC
  8
YODOROGO
 10
30254.34774982791
 20
1807.864609233261
 30
0.0
 40
381.88686420564721
 50
213.96111677667841
 51
264.47872074317792
  0
LINE
  5
38AD
  8
YODOROGO
 10
28793.60434129191
 20
1819.7494964292871
 30
0.0
 11
28433.60434129191
 21
1819.7494964292871
 31
0.0
  0
LINE
  5
38AE
  8
YODOROGO
 10
28513.60434129191
 20
1427.749496429288
 30
0.0
 11
28793.60434129191
 21
1427.749496429288
 31
0.0
  0
LINE
  5
38AF
  8
YODOROGO
 10
28729.604341291921
 20
1923.7494964292871
 30
0.0
 11
28497.60434129191
 21
1923.7494964292871
 31
0.0
  0
LINE
  5
38B0
  8
YODOROGO
 10
28585.604341291921
 20
2027.749496429288
 30
0.0
 11
28657.604341291921
 21
2027.749496429288
 31
0.0
  0
LINE
  5
38B1
  8
YODOROGO
 10
28433.60434129191
 20
1707.749496429288
 30
0.0
 11
28433.60434129191
 21
1507.749496429288
 31
0.0
  0
LINE
  5
38B2
  8
YODOROGO
 10
28497.60434129191
 20
1563.7494964292871
 30
0.0
 11
28497.60434129191
 21
1707.749496429288
 31
0.0
  0
LINE
  5
38B3
  8
YODOROGO
 10
28585.604341291921
 20
1747.74949642929
 30
0.0
 11
28585.604341291921
 21
1547.749496429288
 31
0.0
  0
LINE
  5
38B4
  8
YODOROGO
 10
27857.604341291921
 20
1683.749496429288
 30
0.0
 11
27777.604341291921
 21
1619.9724140445701
 31
0.0
  0
LINE
  5
38B5
  8
YODOROGO
 10
27937.604341291921
 20
1619.9724140445701
 30
0.0
 11
27857.604341291921
 21
1683.749496429288
 31
0.0
  0
LINE
  5
38B6
  8
YODOROGO
 10
27857.604341291921
 20
1707.749496429288
 30
0.0
 11
27937.604341291921
 21
1643.9724140445701
 31
0.0
  0
LINE
  5
38B7
  8
YODOROGO
 10
27777.604341291921
 20
1643.9724140445701
 30
0.0
 11
27857.604341291921
 21
1707.749496429288
 31
0.0
  0
LINE
  5
38B8
  8
YODOROGO
 10
28040.913204016892
 20
1659.749496429288
 30
0.0
 11
28040.913204016892
 21
1683.7494964292871
 31
0.0
  0
LINE
  5
38B9
  8
YODOROGO
 10
27977.604341291921
 20
1683.7494964292871
 30
0.0
 11
27977.604341291921
 21
1667.749496429285
 31
0.0
  0
LINE
  5
38BA
  8
YODOROGO
 10
28098.135520230931
 20
1707.749496429288
 30
0.0
 11
28098.135520230931
 21
1655.5036372746561
 31
0.0
1001
AUTOCAD_POSTSCRIPT_FIGURE
1002
{
1000
PSFILL
1000
Grayscale
1000
Grayscale
1070
   100
1002
}
  0
LINE
  5
38BB
  8
YODOROGO
 10
28082.135520230921
 20
1655.5036372746561
 30
0.0
 11
28082.135520230921
 21
1707.749496429288
 31
0.0
1001
AUTOCAD_POSTSCRIPT_FIGURE
1002
{
1000
PSFILL
1000
Grayscale
1000
Grayscale
1070
   100
1002
}
  0
LINE
  5
38BC
  8
YODOROGO
 10
27809.604341291921
 20
1608.771904043258
 30
0.0
 11
27809.604341291921
 21
1632.771904043258
 31
0.0
  0
LINE
  5
38BD
  8
YODOROGO
 10
27905.604341291921
 20
1608.771904043258
 30
0.0
 11
27809.604341291921
 21
1608.771904043258
 31
0.0
  0
LINE
  5
38BE
  8
YODOROGO
 10
27905.604341291921
 20
1632.771904043258
 30
0.0
 11
27905.604341291921
 21
1608.771904043258
 31
0.0
  0
LINE
  5
38BF
  8
YODOROGO
 10
27809.604341291921
 20
1632.771904043258
 30
0.0
 11
27905.604341291921
 21
1632.771904043258
 31
0.0
  0
LINE
  5
38C0
  8
YODOROGO
 10
27824.509588915738
 20
1568.5028573704751
 30
0.0
 11
27785.604341291921
 21
1475.7494964292871
 31
0.0
1001
AUTOCAD_POSTSCRIPT_FIGURE
1002
{
1000
PSFILL
1000
Grayscale
1000
Grayscale
1070
   100
1002
}
  0
LINE
  5
38C1
  8
YODOROGO
 10
27777.604341291921
 20
1568.5028573704751
 30
0.0
 11
27824.509588915738
 21
1568.5028573704751
 31
0.0
1001
AUTOCAD_POSTSCRIPT_FIGURE
1002
{
1000
PSFILL
1000
Grayscale
1000
Grayscale
1070
   100
1002
}
  0
LINE
  5
38C2
  8
YODOROGO
 10
27777.604341291921
 20
1588.5028573704751
 30
0.0
 11
27777.604341291921
 21
1568.5028573704751
 31
0.0
1001
AUTOCAD_POSTSCRIPT_FIGURE
1002
{
1000
PSFILL
1000
Grayscale
1000
Grayscale
1070
   100
1002
}
  0
LINE
  5
38C3
  8
YODOROGO
 10
27937.604341291921
 20
1588.5028573704751
 30
0.0
 11
27777.604341291921
 21
1588.5028573704751
 31
0.0
1001
AUTOCAD_POSTSCRIPT_FIGURE
1002
{
1000
PSFILL
1000
Grayscale
1000
Grayscale
1070
   100
1002
}
  0
LINE
  5
38C4
  8
YODOROGO
 10
27937.604341291921
 20
1568.5028573704751
 30
0.0
 11
27937.604341291921
 21
1588.5028573704751
 31
0.0
1001
AUTOCAD_POSTSCRIPT_FIGURE
1002
{
1000
PSFILL
1000
Grayscale
1000
Grayscale
1070
   100
1002
}
  0
LINE
  5
38C5
  8
YODOROGO
 10
27844.509588915738
 20
1568.5028573704751
 30
0.0
 11
27937.604341291921
 21
1568.5028573704751
 31
0.0
1001
AUTOCAD_POSTSCRIPT_FIGURE
1002
{
1000
PSFILL
1000
Grayscale
1000
Grayscale
1070
   100
1002
}
  0
LINE
  5
38C6
  8
YODOROGO
 10
27815.546718284771
 20
1495.7494964292871
 30
0.0
 11
27844.509588915738
 21
1568.5028573704751
 31
0.0
1001
AUTOCAD_POSTSCRIPT_FIGURE
1002
{
1000
PSFILL
1000
Grayscale
1000
Grayscale
1070
   100
1002
}
  0
LINE
  5
38C7
  8
YODOROGO
 10
27902.054790808648
 20
1495.7494964292871
 30
0.0
 11
27815.546718284771
 21
1495.7494964292871
 31
0.0
1001
AUTOCAD_POSTSCRIPT_FIGURE
1002
{
1000
PSFILL
1000
Grayscale
1000
Grayscale
1070
   100
1002
}
  0
LINE
  5
38C8
  8
YODOROGO
 10
27885.065004790951
 20
1536.2338106976929
 30
0.0
 11
27902.054790808648
 21
1495.7494964292871
 31
0.0
1001
AUTOCAD_POSTSCRIPT_FIGURE
1002
{
1000
PSFILL
1000
Grayscale
1000
Grayscale
1070
   100
1002
}
  0
LINE
  5
38C9
  8
YODOROGO
 10
27901.065004790951
 20
1536.2338106976929
 30
0.0
 11
27885.065004790951
 21
1536.2338106976929
 31
0.0
1001
AUTOCAD_POSTSCRIPT_FIGURE
1002
{
1000
PSFILL
1000
Grayscale
1000
Grayscale
1070
   100
1002
}
  0
LINE
  5
38CA
  8
YODOROGO
 10
27929.604341291921
 20
1475.7494964292871
 30
0.0
 11
27901.065004790951
 21
1536.2338106976929
 31
0.0
1001
AUTOCAD_POSTSCRIPT_FIGURE
1002
{
1000
PSFILL
1000
Grayscale
1000
Grayscale
1070
   100
1002
}
  0
LINE
  5
38CB
  8
YODOROGO
 10
27785.604341291921
 20
1475.7494964292871
 30
0.0
 11
27929.604341291921
 21
1475.7494964292871
 31
0.0
1001
AUTOCAD_POSTSCRIPT_FIGURE
1002
{
1000
PSFILL
1000
Grayscale
1000
Grayscale
1070
   100
1002
}
  0
LINE
  5
38CC
  8
YODOROGO
 10
27777.604341291921
 20
1619.9724140445701
 30
0.0
 11
27777.604341291921
 21
1643.9724140445701
 31
0.0
  0
LINE
  5
38CD
  8
YODOROGO
 10
27937.604341291921
 20
1643.9724140445701
 30
0.0
 11
27937.604341291921
 21
1619.9724140445701
 31
0.0
  0
ARC
  5
38CE
  8
YODOROGO
 10
28225.940442146959
 20
1600.877765325326
 30
0.0
 40
175.9999999999998
 50
280.3644312771313
 51
3.5414836592180561
  0
ARC
  5
38CF
  8
YODOROGO
 10
28235.756030759301
 20
1633.5978069619041
 30
0.0
 40
111.9999999999982
 50
281.24905825041549
 51
348.75094174958321
  0
LINE
  5
38D0
  8
YODOROGO
 10
28257.604341291921
 20
1523.7494964292871
 30
0.0
 11
28257.604341291921
 21
1427.749496429288
 31
0.0
  0
LINE
  5
38D1
  8
YODOROGO
 10
28020.088903736909
 20
1610.650565061914
 30
0.0
 11
28040.913204016892
 21
1659.749496429288
 31
0.0
  0
LINE
  5
38D2
  8
YODOROGO
 10
28041.604341291921
 20
1583.120489948401
 30
0.0
 11
28020.088903736909
 21
1610.650565061914
 31
0.0
  0
LINE
  5
38D3
  8
YODOROGO
 10
28041.604341291921
 20
1563.120489948398
 30
0.0
 11
28041.604341291921
 21
1583.120489948401
 31
0.0
  0
LINE
  5
38D4
  8
YODOROGO
 10
28017.604341291921
 20
1585.2370637495301
 30
0.0
 11
28041.604341291921
 21
1563.120489948398
 31
0.0
  0
LINE
  5
38D5
  8
YODOROGO
 10
28017.604341291921
 20
1475.7494964292871
 30
0.0
 11
28017.604341291921
 21
1585.2370637495301
 31
0.0
  0
LINE
  5
38D6
  8
YODOROGO
 10
28001.604341291921
 20
1475.7494964292871
 30
0.0
 11
28017.604341291921
 21
1475.7494964292871
 31
0.0
  0
LINE
  5
38D7
  8
YODOROGO
 10
28001.604341291921
 20
1580.0053496897469
 30
0.0
 11
28001.604341291921
 21
1475.7494964292871
 31
0.0
  0
LINE
  5
38D8
  8
YODOROGO
 10
27977.604341291921
 20
1532.7680790334291
 30
0.0
 11
28001.604341291921
 21
1580.0053496897469
 31
0.0
  0
LINE
  5
38D9
  8
YODOROGO
 10
27977.604341291921
 20
1556.76807903343
 30
0.0
 11
27977.604341291921
 21
1532.7680790334291
 31
0.0
  0
LINE
  5
38DA
  8
YODOROGO
 10
28025.828774291349
 20
1667.749496429285
 30
0.0
 11
27977.604341291921
 21
1556.76807903343
 31
0.0
  0
LINE
  5
38DB
  8
YODOROGO
 10
27977.604341291921
 20
1667.749496429285
 30
0.0
 11
28025.828774291349
 21
1667.749496429285
 31
0.0
  0
LINE
  5
38DC
  8
YODOROGO
 10
28050.135520230899
 20
1655.5036372746561
 30
0.0
 11
28082.135520230921
 21
1655.5036372746561
 31
0.0
1001
AUTOCAD_POSTSCRIPT_FIGURE
1002
{
1000
PSFILL
1000
Grayscale
1000
Grayscale
1070
   100
1002
}
  0
LINE
  5
38DD
  8
YODOROGO
 10
28050.135520230899
 20
1631.5036372746561
 30
0.0
 11
28050.135520230899
 21
1655.5036372746561
 31
0.0
1001
AUTOCAD_POSTSCRIPT_FIGURE
1002
{
1000
PSFILL
1000
Grayscale
1000
Grayscale
1070
   100
1002
}
  0
LINE
  5
38DE
  8
YODOROGO
 10
28082.135520230921
 20
1631.5036372746561
 30
0.0
 11
28050.135520230899
 21
1631.5036372746561
 31
0.0
1001
AUTOCAD_POSTSCRIPT_FIGURE
1002
{
1000
PSFILL
1000
Grayscale
1000
Grayscale
1070
   100
1002
}
  0
LINE
  5
38DF
  8
YODOROGO
 10
28082.135520230921
 20
1499.749496429288
 30
0.0
 11
28082.135520230921
 21
1631.5036372746561
 31
0.0
1001
AUTOCAD_POSTSCRIPT_FIGURE
1002
{
1000
PSFILL
1000
Grayscale
1000
Grayscale
1070
   100
1002
}
  0
LINE
  5
38E0
  8
YODOROGO
 10
28050.135520230921
 20
1499.749496429288
 30
0.0
 11
28082.135520230921
 21
1499.749496429288
 31
0.0
1001
AUTOCAD_POSTSCRIPT_FIGURE
1002
{
1000
PSFILL
1000
Grayscale
1000
Grayscale
1070
   100
1002
}
  0
LINE
  5
38E1
  8
YODOROGO
 10
28050.135520230921
 20
1475.7494964292871
 30
0.0
 11
28050.135520230921
 21
1499.749496429288
 31
0.0
1001
AUTOCAD_POSTSCRIPT_FIGURE
1002
{
1000
PSFILL
1000
Grayscale
1000
Grayscale
1070
   100
1002
}
  0
LINE
  5
38E2
  8
YODOROGO
 10
28137.604341291921
 20
1475.7494964292871
 30
0.0
 11
28050.135520230921
 21
1475.7494964292871
 31
0.0
1001
AUTOCAD_POSTSCRIPT_FIGURE
1002
{
1000
PSFILL
1000
Grayscale
1000
Grayscale
1070
   100
1002
}
  0
LINE
  5
38E3
  8
YODOROGO
 10
28137.604341291921
 20
1499.749496429288
 30
0.0
 11
28137.604341291921
 21
1475.7494964292871
 31
0.0
1001
AUTOCAD_POSTSCRIPT_FIGURE
1002
{
1000
PSFILL
1000
Grayscale
1000
Grayscale
1070
   100
1002
}
  0
LINE
  5
38E4
  8
YODOROGO
 10
28098.135520230931
 20
1499.749496429288
 30
0.0
 11
28137.604341291921
 21
1499.749496429288
 31
0.0
1001
AUTOCAD_POSTSCRIPT_FIGURE
1002
{
1000
PSFILL
1000
Grayscale
1000
Grayscale
1070
   100
1002
}
  0
LINE
  5
38E5
  8
YODOROGO
 10
28098.135520230931
 20
1631.5036372746561
 30
0.0
 11
28098.135520230931
 21
1499.749496429288
 31
0.0
1001
AUTOCAD_POSTSCRIPT_FIGURE
1002
{
1000
PSFILL
1000
Grayscale
1000
Grayscale
1070
   100
1002
}
  0
LINE
  5
38E6
  8
YODOROGO
 10
28137.604341291921
 20
1631.5036372746561
 30
0.0
 11
28098.135520230931
 21
1631.5036372746561
 31
0.0
1001
AUTOCAD_POSTSCRIPT_FIGURE
1002
{
1000
PSFILL
1000
Grayscale
1000
Grayscale
1070
   100
1002
}
  0
LINE
  5
38E7
  8
YODOROGO
 10
28137.604341291921
 20
1655.5036372746561
 30
0.0
 11
28137.604341291921
 21
1631.5036372746561
 31
0.0
1001
AUTOCAD_POSTSCRIPT_FIGURE
1002
{
1000
PSFILL
1000
Grayscale
1000
Grayscale
1070
   100
1002
}
  0
LINE
  5
38E8
  8
YODOROGO
 10
28098.135520230931
 20
1655.5036372746561
 30
0.0
 11
28137.604341291921
 21
1655.5036372746561
 31
0.0
1001
AUTOCAD_POSTSCRIPT_FIGURE
1002
{
1000
PSFILL
1000
Grayscale
1000
Grayscale
1070
   100
1002
}
  0
LINE
  5
38E9
  8
YODOROGO
 10
28401.60434129191
 20
1667.749496429288
 30
0.0
 11
28345.604341291921
 21
1667.749496429288
 31
0.0
  0
LINE
  5
38EA
  8
YODOROGO
 10
28401.60434129191
 20
1611.749496429288
 30
0.0
 11
28401.60434129191
 21
1667.749496429288
 31
0.0
  0
LINE
  5
38EB
  8
YODOROGO
 10
28345.604341291921
 20
1667.749496429288
 30
0.0
 11
28345.604341291921
 21
1611.749496429288
 31
0.0
  0
ARC
  5
38EC
  8
YODOROGO
 10
28513.60434129191
 20
1507.749496429288
 30
0.0
 40
80.0
 50
180.0
 51
270.0
  0
ARC
  5
38ED
  8
YODOROGO
 10
28537.604341291921
 20
1563.7494964292871
 30
0.0
 40
40.0
 50
180.0
 51
270.0
  0
LINE
  5
38EE
  8
YODOROGO
 10
28561.604341291932
 20
1523.7494964292871
 30
0.0
 11
28537.604341291921
 21
1523.7494964292871
 31
0.0
  0
ARC
  5
38EF
  8
YODOROGO
 10
28561.604341291932
 20
1547.749496429285
 30
0.0
 40
23.999999999996358
 50
270.0
 51
0.0000000000054281
  0
LINE
  5
38F0
  8
YODOROGO
 10
27801.604341291921
 20
1890.786580793706
 30
0.0
 11
27777.604341291921
 21
1843.776747951672
 31
0.0
1001
AUTOCAD_POSTSCRIPT_FIGURE
1002
{
1000
PSFILL
1000
Grayscale
1000
Grayscale
1070
   100
1002
}
  0
LINE
  5
38F1
  8
YODOROGO
 10
27801.604341291921
 20
1747.749496429286
 30
0.0
 11
27801.604341291921
 21
1890.786580793706
 31
0.0
1001
AUTOCAD_POSTSCRIPT_FIGURE
1002
{
1000
PSFILL
1000
Grayscale
1000
Grayscale
1070
   100
1002
}
  0
LINE
  5
38F2
  8
YODOROGO
 10
27817.604341291921
 20
1747.749496429286
 30
0.0
 11
27801.604341291921
 21
1747.749496429286
 31
0.0
1001
AUTOCAD_POSTSCRIPT_FIGURE
1002
{
1000
PSFILL
1000
Grayscale
1000
Grayscale
1070
   100
1002
}
  0
LINE
  5
38F3
  8
YODOROGO
 10
27817.604341291921
 20
1893.7713320852661
 30
0.0
 11
27817.604341291921
 21
1747.749496429286
 31
0.0
1001
AUTOCAD_POSTSCRIPT_FIGURE
1002
{
1000
PSFILL
1000
Grayscale
1000
Grayscale
1070
   100
1002
}
  0
LINE
  5
38F4
  8
YODOROGO
 10
27841.604341291921
 20
1867.6547582841361
 30
0.0
 11
27817.604341291921
 21
1893.7713320852661
 31
0.0
1001
AUTOCAD_POSTSCRIPT_FIGURE
1002
{
1000
PSFILL
1000
Grayscale
1000
Grayscale
1070
   100
1002
}
  0
LINE
  5
38F5
  8
YODOROGO
 10
27841.604341291921
 20
1883.6547582841361
 30
0.0
 11
27841.604341291921
 21
1867.6547582841361
 31
0.0
1001
AUTOCAD_POSTSCRIPT_FIGURE
1002
{
1000
PSFILL
1000
Grayscale
1000
Grayscale
1070
   100
1002
}
  0
LINE
  5
38F6
  8
YODOROGO
 10
27817.604341291921
 20
1917.7713320852649
 30
0.0
 11
27841.604341291921
 21
1883.6547582841361
 31
0.0
1001
AUTOCAD_POSTSCRIPT_FIGURE
1002
{
1000
PSFILL
1000
Grayscale
1000
Grayscale
1070
   100
1002
}
  0
LINE
  5
38F7
  8
YODOROGO
 10
27817.604341291921
 20
1939.749496429288
 30
0.0
 11
27817.604341291921
 21
1917.7713320852649
 31
0.0
1001
AUTOCAD_POSTSCRIPT_FIGURE
1002
{
1000
PSFILL
1000
Grayscale
1000
Grayscale
1070
   100
1002
}
  0
LINE
  5
38F8
  8
YODOROGO
 10
27889.604341291921
 20
1939.749496429288
 30
0.0
 11
27817.604341291921
 21
1939.749496429288
 31
0.0
1001
AUTOCAD_POSTSCRIPT_FIGURE
1002
{
1000
PSFILL
1000
Grayscale
1000
Grayscale
1070
   100
1002
}
  0
LINE
  5
38F9
  8
YODOROGO
 10
27889.604341291921
 20
1900.5683489363
 30
0.0
 11
27889.604341291921
 21
1939.749496429288
 31
0.0
1001
AUTOCAD_POSTSCRIPT_FIGURE
1002
{
1000
PSFILL
1000
Grayscale
1000
Grayscale
1070
   100
1002
}
  0
LINE
  5
38FA
  8
YODOROGO
 10
27857.604341291921
 20
1900.5683489363
 30
0.0
 11
27889.604341291921
 21
1900.5683489363
 31
0.0
1001
AUTOCAD_POSTSCRIPT_FIGURE
1002
{
1000
PSFILL
1000
Grayscale
1000
Grayscale
1070
   100
1002
}
  0
LINE
  5
38FB
  8
YODOROGO
 10
27857.604341291921
 20
1884.568348936298
 30
0.0
 11
27857.604341291921
 21
1900.5683489363
 31
0.0
1001
AUTOCAD_POSTSCRIPT_FIGURE
1002
{
1000
PSFILL
1000
Grayscale
1000
Grayscale
1070
   100
1002
}
  0
LINE
  5
38FC
  8
YODOROGO
 10
27889.604341291921
 20
1884.568348936298
 30
0.0
 11
27857.604341291921
 21
1884.568348936298
 31
0.0
1001
AUTOCAD_POSTSCRIPT_FIGURE
1002
{
1000
PSFILL
1000
Grayscale
1000
Grayscale
1070
   100
1002
}
  0
LINE
  5
38FD
  8
YODOROGO
 10
27889.604341291921
 20
1879.6191779644371
 30
0.0
 11
27889.604341291921
 21
1884.568348936298
 31
0.0
1001
AUTOCAD_POSTSCRIPT_FIGURE
1002
{
1000
PSFILL
1000
Grayscale
1000
Grayscale
1070
   100
1002
}
  0
LINE
  5
38FE
  8
YODOROGO
 10
27849.604341291921
 20
1812.974981161417
 30
0.0
 11
27889.604341291921
 21
1879.6191779644371
 31
0.0
1001
AUTOCAD_POSTSCRIPT_FIGURE
1002
{
1000
PSFILL
1000
Grayscale
1000
Grayscale
1070
   100
1002
}
  0
LINE
  5
38FF
  8
YODOROGO
 10
27849.604341291921
 20
1796.9749811614161
 30
0.0
 11
27849.604341291921
 21
1812.974981161417
 31
0.0
1001
AUTOCAD_POSTSCRIPT_FIGURE
1002
{
1000
PSFILL
1000
Grayscale
1000
Grayscale
1070
   100
1002
}
  0
LINE
  5
3900
  8
YODOROGO
 10
27889.604341291921
 20
1847.6191779644359
 30
0.0
 11
27849.604341291921
 21
1796.9749811614161
 31
0.0
1001
AUTOCAD_POSTSCRIPT_FIGURE
1002
{
1000
PSFILL
1000
Grayscale
1000
Grayscale
1070
   100
1002
}
  0
LINE
  5
3901
  8
YODOROGO
 10
27889.604341291921
 20
1747.749496429286
 30
0.0
 11
27889.604341291921
 21
1847.6191779644359
 31
0.0
1001
AUTOCAD_POSTSCRIPT_FIGURE
1002
{
1000
PSFILL
1000
Grayscale
1000
Grayscale
1070
   100
1002
}
  0
LINE
  5
3902
  8
YODOROGO
 10
27905.604341291921
 20
1747.749496429286
 30
0.0
 11
27889.604341291921
 21
1747.749496429286
 31
0.0
1001
AUTOCAD_POSTSCRIPT_FIGURE
1002
{
1000
PSFILL
1000
Grayscale
1000
Grayscale
1070
   100
1002
}
  0
LINE
  5
3903
  8
YODOROGO
 10
27905.604341291921
 20
1849.409012158806
 30
0.0
 11
27905.604341291921
 21
1747.749496429286
 31
0.0
1001
AUTOCAD_POSTSCRIPT_FIGURE
1002
{
1000
PSFILL
1000
Grayscale
1000
Grayscale
1070
   100
1002
}
  0
LINE
  5
3904
  8
YODOROGO
 10
27937.604341291921
 20
1796.9749811614161
 30
0.0
 11
27905.604341291921
 21
1849.409012158806
 31
0.0
1001
AUTOCAD_POSTSCRIPT_FIGURE
1002
{
1000
PSFILL
1000
Grayscale
1000
Grayscale
1070
   100
1002
}
  0
LINE
  5
3905
  8
YODOROGO
 10
27937.604341291921
 20
1812.974981161417
 30
0.0
 11
27937.604341291921
 21
1796.9749811614161
 31
0.0
1001
AUTOCAD_POSTSCRIPT_FIGURE
1002
{
1000
PSFILL
1000
Grayscale
1000
Grayscale
1070
   100
1002
}
  0
LINE
  5
3906
  8
YODOROGO
 10
27905.604341291921
 20
1881.4090121588081
 30
0.0
 11
27937.604341291921
 21
1812.974981161417
 31
0.0
1001
AUTOCAD_POSTSCRIPT_FIGURE
1002
{
1000
PSFILL
1000
Grayscale
1000
Grayscale
1070
   100
1002
}
  0
LINE
  5
3907
  8
YODOROGO
 10
27905.604341291921
 20
1884.5683489363
 30
0.0
 11
27905.604341291921
 21
1881.4090121588081
 31
0.0
1001
AUTOCAD_POSTSCRIPT_FIGURE
1002
{
1000
PSFILL
1000
Grayscale
1000
Grayscale
1070
   100
1002
}
  0
LINE
  5
3908
  8
YODOROGO
 10
27937.604341291921
 20
1884.568348936298
 30
0.0
 11
27905.604341291921
 21
1884.5683489363
 31
0.0
1001
AUTOCAD_POSTSCRIPT_FIGURE
1002
{
1000
PSFILL
1000
Grayscale
1000
Grayscale
1070
   100
1002
}
  0
LINE
  5
3909
  8
YODOROGO
 10
27937.604341291921
 20
1900.5683489363
 30
0.0
 11
27937.604341291921
 21
1884.568348936298
 31
0.0
1001
AUTOCAD_POSTSCRIPT_FIGURE
1002
{
1000
PSFILL
1000
Grayscale
1000
Grayscale
1070
   100
1002
}
  0
LINE
  5
390A
  8
YODOROGO
 10
27905.604341291921
 20
1900.5683489363
 30
0.0
 11
27937.604341291921
 21
1900.5683489363
 31
0.0
1001
AUTOCAD_POSTSCRIPT_FIGURE
1002
{
1000
PSFILL
1000
Grayscale
1000
Grayscale
1070
   100
1002
}
  0
LINE
  5
390B
  8
YODOROGO
 10
27905.604341291921
 20
1939.749496429288
 30
0.0
 11
27905.604341291921
 21
1900.5683489363
 31
0.0
1001
AUTOCAD_POSTSCRIPT_FIGURE
1002
{
1000
PSFILL
1000
Grayscale
1000
Grayscale
1070
   100
1002
}
  0
LINE
  5
390C
  8
YODOROGO
 10
27937.604341291921
 20
1939.749496429288
 30
0.0
 11
27905.604341291921
 21
1939.749496429288
 31
0.0
1001
AUTOCAD_POSTSCRIPT_FIGURE
1002
{
1000
PSFILL
1000
Grayscale
1000
Grayscale
1070
   100
1002
}
  0
LINE
  5
390D
  8
YODOROGO
 10
27937.604341291921
 20
1955.7494964292871
 30
0.0
 11
27937.604341291921
 21
1939.749496429288
 31
0.0
1001
AUTOCAD_POSTSCRIPT_FIGURE
1002
{
1000
PSFILL
1000
Grayscale
1000
Grayscale
1070
   100
1002
}
  0
LINE
  5
390E
  8
YODOROGO
 10
27905.604341291921
 20
1955.7494964292871
 30
0.0
 11
27937.604341291921
 21
1955.7494964292871
 31
0.0
1001
AUTOCAD_POSTSCRIPT_FIGURE
1002
{
1000
PSFILL
1000
Grayscale
1000
Grayscale
1070
   100
1002
}
  0
LINE
  5
390F
  8
YODOROGO
 10
27905.604341291921
 20
1979.749496429288
 30
0.0
 11
27905.604341291921
 21
1955.7494964292871
 31
0.0
1001
AUTOCAD_POSTSCRIPT_FIGURE
1002
{
1000
PSFILL
1000
Grayscale
1000
Grayscale
1070
   100
1002
}
  0
LINE
  5
3910
  8
YODOROGO
 10
27889.604341291921
 20
1979.749496429288
 30
0.0
 11
27905.604341291921
 21
1979.749496429288
 31
0.0
1001
AUTOCAD_POSTSCRIPT_FIGURE
1002
{
1000
PSFILL
1000
Grayscale
1000
Grayscale
1070
   100
1002
}
  0
LINE
  5
3911
  8
YODOROGO
 10
27889.604341291921
 20
1955.7494964292871
 30
0.0
 11
27889.604341291921
 21
1979.749496429288
 31
0.0
1001
AUTOCAD_POSTSCRIPT_FIGURE
1002
{
1000
PSFILL
1000
Grayscale
1000
Grayscale
1070
   100
1002
}
  0
LINE
  5
3912
  8
YODOROGO
 10
27865.604341291921
 20
1955.7494964292871
 30
0.0
 11
27889.604341291921
 21
1955.7494964292871
 31
0.0
1001
AUTOCAD_POSTSCRIPT_FIGURE
1002
{
1000
PSFILL
1000
Grayscale
1000
Grayscale
1070
   100
1002
}
  0
LINE
  5
3913
  8
YODOROGO
 10
27865.604341291921
 20
1979.749496429288
 30
0.0
 11
27865.604341291921
 21
1955.7494964292871
 31
0.0
1001
AUTOCAD_POSTSCRIPT_FIGURE
1002
{
1000
PSFILL
1000
Grayscale
1000
Grayscale
1070
   100
1002
}
  0
LINE
  5
3914
  8
YODOROGO
 10
27849.604341291921
 20
1979.749496429288
 30
0.0
 11
27865.604341291921
 21
1979.749496429288
 31
0.0
1001
AUTOCAD_POSTSCRIPT_FIGURE
1002
{
1000
PSFILL
1000
Grayscale
1000
Grayscale
1070
   100
1002
}
  0
LINE
  5
3915
  8
YODOROGO
 10
27849.604341291921
 20
1955.7494964292871
 30
0.0
 11
27849.604341291921
 21
1979.749496429288
 31
0.0
1001
AUTOCAD_POSTSCRIPT_FIGURE
1002
{
1000
PSFILL
1000
Grayscale
1000
Grayscale
1070
   100
1002
}
  0
LINE
  5
3916
  8
YODOROGO
 10
27817.604341291921
 20
1955.7494964292871
 30
0.0
 11
27849.604341291921
 21
1955.7494964292871
 31
0.0
1001
AUTOCAD_POSTSCRIPT_FIGURE
1002
{
1000
PSFILL
1000
Grayscale
1000
Grayscale
1070
   100
1002
}
  0
LINE
  5
3917
  8
YODOROGO
 10
27817.604341291921
 20
1979.749496429288
 30
0.0
 11
27817.604341291921
 21
1955.7494964292871
 31
0.0
1001
AUTOCAD_POSTSCRIPT_FIGURE
1002
{
1000
PSFILL
1000
Grayscale
1000
Grayscale
1070
   100
1002
}
  0
LINE
  5
3918
  8
YODOROGO
 10
27801.604341291921
 20
1979.749496429288
 30
0.0
 11
27817.604341291921
 21
1979.749496429288
 31
0.0
1001
AUTOCAD_POSTSCRIPT_FIGURE
1002
{
1000
PSFILL
1000
Grayscale
1000
Grayscale
1070
   100
1002
}
  0
LINE
  5
3919
  8
YODOROGO
 10
27801.604341291921
 20
1955.7494964292871
 30
0.0
 11
27801.604341291921
 21
1979.749496429288
 31
0.0
1001
AUTOCAD_POSTSCRIPT_FIGURE
1002
{
1000
PSFILL
1000
Grayscale
1000
Grayscale
1070
   100
1002
}
  0
LINE
  5
391A
  8
YODOROGO
 10
27777.604341291921
 20
1955.7494964292871
 30
0.0
 11
27801.604341291921
 21
1955.7494964292871
 31
0.0
1001
AUTOCAD_POSTSCRIPT_FIGURE
1002
{
1000
PSFILL
1000
Grayscale
1000
Grayscale
1070
   100
1002
}
  0
LINE
  5
391B
  8
YODOROGO
 10
27777.604341291921
 20
1939.749496429288
 30
0.0
 11
27777.604341291921
 21
1955.7494964292871
 31
0.0
1001
AUTOCAD_POSTSCRIPT_FIGURE
1002
{
1000
PSFILL
1000
Grayscale
1000
Grayscale
1070
   100
1002
}
  0
LINE
  5
391C
  8
YODOROGO
 10
27801.604341291921
 20
1939.749496429288
 30
0.0
 11
27777.604341291921
 21
1939.749496429288
 31
0.0
1001
AUTOCAD_POSTSCRIPT_FIGURE
1002
{
1000
PSFILL
1000
Grayscale
1000
Grayscale
1070
   100
1002
}
  0
LINE
  5
391D
  8
YODOROGO
 10
27801.604341291921
 20
1914.7865807937051
 30
0.0
 11
27801.604341291921
 21
1939.749496429288
 31
0.0
1001
AUTOCAD_POSTSCRIPT_FIGURE
1002
{
1000
PSFILL
1000
Grayscale
1000
Grayscale
1070
   100
1002
}
  0
LINE
  5
391E
  8
YODOROGO
 10
27777.604341291921
 20
1859.776747951671
 30
0.0
 11
27801.604341291921
 21
1914.7865807937051
 31
0.0
1001
AUTOCAD_POSTSCRIPT_FIGURE
1002
{
1000
PSFILL
1000
Grayscale
1000
Grayscale
1070
   100
1002
}
  0
LINE
  5
391F
  8
YODOROGO
 10
27777.604341291921
 20
1843.776747951672
 30
0.0
 11
27777.604341291921
 21
1859.776747951671
 31
0.0
1001
AUTOCAD_POSTSCRIPT_FIGURE
1002
{
1000
PSFILL
1000
Grayscale
1000
Grayscale
1070
   100
1002
}
  0
LINE
  5
3920
  8
YODOROGO
 10
28257.604341291921
 20
1867.7494964292871
 30
0.0
 11
28401.60434129191
 21
1824.877625640306
 31
0.0
1001
AUTOCAD_POSTSCRIPT_FIGURE
1002
{
1000
PSFILL
1000
Grayscale
1000
Grayscale
1070
   100
1002
}
  0
LINE
  5
3921
  8
YODOROGO
 10
28401.60434129191
 20
1752.877625640306
 30
0.0
 11
28257.604341291921
 21
1795.7494964292871
 31
0.0
1001
AUTOCAD_POSTSCRIPT_FIGURE
1002
{
1000
PSFILL
1000
Grayscale
1000
Grayscale
1070
   100
1002
}
  0
LINE
  5
3922
  8
YODOROGO
 10
28401.60434129191
 20
1984.877625640306
 30
0.0
 11
28257.604341291921
 21
2027.749496429288
 31
0.0
1001
AUTOCAD_POSTSCRIPT_FIGURE
1002
{
1000
PSFILL
1000
Grayscale
1000
Grayscale
1070
   100
1002
}
  0
LINE
  5
3923
  8
YODOROGO
 10
28257.604341291921
 20
1959.749496429288
 30
0.0
 11
28401.60434129191
 21
1916.8776256403071
 31
0.0
1001
AUTOCAD_POSTSCRIPT_FIGURE
1002
{
1000
PSFILL
1000
Grayscale
1000
Grayscale
1070
   100
1002
}
  0
LINE
  5
3924
  8
YODOROGO
 10
28257.604341291921
 20
1795.7494964292871
 30
0.0
 11
28257.604341291921
 21
1867.7494964292871
 31
0.0
1001
AUTOCAD_POSTSCRIPT_FIGURE
1002
{
1000
PSFILL
1000
Grayscale
1000
Grayscale
1070
   100
1002
}
  0
LINE
  5
3925
  8
YODOROGO
 10
28257.604341291921
 20
2027.749496429288
 30
0.0
 11
28257.604341291921
 21
1959.749496429288
 31
0.0
1001
AUTOCAD_POSTSCRIPT_FIGURE
1002
{
1000
PSFILL
1000
Grayscale
1000
Grayscale
1070
   100
1002
}
  0
LINE
  5
3926
  8
YODOROGO
 10
28080.236320206739
 20
1939.749496429288
 30
0.0
 11
28129.60434129191
 21
1747.749496429286
 31
0.0
1001
AUTOCAD_POSTSCRIPT_FIGURE
1002
{
1000
PSFILL
1000
Grayscale
1000
Grayscale
1070
   100
1002
}
  0
LINE
  5
3927
  8
YODOROGO
 10
27977.604341291921
 20
1939.749496429288
 30
0.0
 11
28080.236320206739
 21
1939.749496429288
 31
0.0
1001
AUTOCAD_POSTSCRIPT_FIGURE
1002
{
1000
PSFILL
1000
Grayscale
1000
Grayscale
1070
   100
1002
}
  0
LINE
  5
3928
  8
YODOROGO
 10
27977.604341291921
 20
1955.7494964292871
 30
0.0
 11
27977.604341291921
 21
1939.749496429288
 31
0.0
1001
AUTOCAD_POSTSCRIPT_FIGURE
1002
{
1000
PSFILL
1000
Grayscale
1000
Grayscale
1070
   100
1002
}
  0
LINE
  5
3929
  8
YODOROGO
 10
28076.60687851991
 20
1955.7494964292871
 30
0.0
 11
27977.604341291921
 21
1955.7494964292871
 31
0.0
1001
AUTOCAD_POSTSCRIPT_FIGURE
1002
{
1000
PSFILL
1000
Grayscale
1000
Grayscale
1070
   100
1002
}
  0
LINE
  5
392A
  8
YODOROGO
 10
28071.162715989711
 20
1979.749496429288
 30
0.0
 11
28076.60687851991
 21
1955.7494964292871
 31
0.0
1001
AUTOCAD_POSTSCRIPT_FIGURE
1002
{
1000
PSFILL
1000
Grayscale
1000
Grayscale
1070
   100
1002
}
  0
LINE
  5
392B
  8
YODOROGO
 10
28091.162715989711
 20
1979.749496429288
 30
0.0
 11
28071.162715989711
 21
1979.749496429288
 31
0.0
1001
AUTOCAD_POSTSCRIPT_FIGURE
1002
{
1000
PSFILL
1000
Grayscale
1000
Grayscale
1070
   100
1002
}
  0
LINE
  5
392C
  8
YODOROGO
 10
28095.806878519939
 20
1955.7494964292871
 30
0.0
 11
28091.162715989711
 21
1979.749496429288
 31
0.0
1001
AUTOCAD_POSTSCRIPT_FIGURE
1002
{
1000
PSFILL
1000
Grayscale
1000
Grayscale
1070
   100
1002
}
  0
LINE
  5
392D
  8
YODOROGO
 10
28121.604341291921
 20
1955.7494964292871
 30
0.0
 11
28095.806878519939
 21
1955.7494964292871
 31
0.0
1001
AUTOCAD_POSTSCRIPT_FIGURE
1002
{
1000
PSFILL
1000
Grayscale
1000
Grayscale
1070
   100
1002
}
  0
LINE
  5
392E
  8
YODOROGO
 10
28121.604341291921
 20
1979.749496429288
 30
0.0
 11
28121.604341291921
 21
1955.7494964292871
 31
0.0
1001
AUTOCAD_POSTSCRIPT_FIGURE
1002
{
1000
PSFILL
1000
Grayscale
1000
Grayscale
1070
   100
1002
}
  0
LINE
  5
392F
  8
YODOROGO
 10
28137.604341291921
 20
1979.749496429288
 30
0.0
 11
28121.604341291921
 21
1979.749496429288
 31
0.0
1001
AUTOCAD_POSTSCRIPT_FIGURE
1002
{
1000
PSFILL
1000
Grayscale
1000
Grayscale
1070
   100
1002
}
  0
LINE
  5
3930
  8
YODOROGO
 10
28137.604341291921
 20
1955.7494964292871
 30
0.0
 11
28137.604341291921
 21
1979.749496429288
 31
0.0
1001
AUTOCAD_POSTSCRIPT_FIGURE
1002
{
1000
PSFILL
1000
Grayscale
1000
Grayscale
1070
   100
1002
}
  0
LINE
  5
3931
  8
YODOROGO
 10
28137.604341291921
 20
1939.749496429288
 30
0.0
 11
28137.604341291921
 21
1955.7494964292871
 31
0.0
1001
AUTOCAD_POSTSCRIPT_FIGURE
1002
{
1000
PSFILL
1000
Grayscale
1000
Grayscale
1070
   100
1002
}
  0
LINE
  5
3932
  8
YODOROGO
 10
28098.902986873411
 20
1939.749496429288
 30
0.0
 11
28137.604341291921
 21
1939.749496429288
 31
0.0
1001
AUTOCAD_POSTSCRIPT_FIGURE
1002
{
1000
PSFILL
1000
Grayscale
1000
Grayscale
1070
   100
1002
}
  0
LINE
  5
3933
  8
YODOROGO
 10
28137.604341291921
 20
1747.749496429286
 30
0.0
 11
28098.902986873411
 21
1939.749496429288
 31
0.0
1001
AUTOCAD_POSTSCRIPT_FIGURE
1002
{
1000
PSFILL
1000
Grayscale
1000
Grayscale
1070
   100
1002
}
  0
LINE
  5
3934
  8
YODOROGO
 10
28129.60434129191
 20
1747.749496429286
 30
0.0
 11
28137.604341291921
 21
1747.749496429286
 31
0.0
1001
AUTOCAD_POSTSCRIPT_FIGURE
1002
{
1000
PSFILL
1000
Grayscale
1000
Grayscale
1070
   100
1002
}
  0
LINE
  5
3935
  8
YODOROGO
 10
28078.06921993379
 20
1775.7407762987939
 30
0.0
 11
27977.604341291921
 21
1747.749496429286
 31
0.0
  0
LINE
  5
3936
  8
YODOROGO
 10
28078.06921993379
 20
1798.6689795290731
 30
0.0
 11
28078.06921993379
 21
1775.7407762987939
 31
0.0
  0
LINE
  5
3937
  8
YODOROGO
 10
28033.83678061287
 20
1786.816933133767
 30
0.0
 11
28078.06921993379
 21
1798.6689795290731
 31
0.0
  0
LINE
  5
3938
  8
YODOROGO
 10
28033.83678061287
 20
1872.5683489362989
 30
0.0
 11
28033.83678061287
 21
1786.816933133767
 31
0.0
  0
LINE
  5
3939
  8
YODOROGO
 10
28078.06921993379
 20
1872.5683489362989
 30
0.0
 11
28033.83678061287
 21
1872.5683489362989
 31
0.0
  0
LINE
  5
393A
  8
YODOROGO
 10
28078.06921993379
 20
1892.568348936298
 30
0.0
 11
28078.06921993379
 21
1872.5683489362989
 31
0.0
  0
LINE
  5
393B
  8
YODOROGO
 10
27977.604341291921
 20
1892.568348936298
 30
0.0
 11
28078.06921993379
 21
1892.568348936298
 31
0.0
  0
LINE
  5
393C
  8
YODOROGO
 10
27977.604341291921
 20
1872.5683489362989
 30
0.0
 11
27977.604341291921
 21
1892.568348936298
 31
0.0
  0
LINE
  5
393D
  8
YODOROGO
 10
28021.836780612852
 20
1872.5683489362989
 30
0.0
 11
27977.604341291921
 21
1872.5683489362989
 31
0.0
  0
LINE
  5
393E
  8
YODOROGO
 10
28021.836780612852
 20
1784.673339594317
 30
0.0
 11
28021.836780612852
 21
1872.5683489362989
 31
0.0
  0
LINE
  5
393F
  8
YODOROGO
 10
27977.604341291921
 20
1771.749496429286
 30
0.0
 11
28021.836780612852
 21
1784.673339594317
 31
0.0
  0
LINE
  5
3940
  8
YODOROGO
 10
27977.604341291921
 20
1747.749496429286
 30
0.0
 11
27977.604341291921
 21
1771.749496429286
 31
0.0
  0
LINE
  5
3941
  8
YODOROGO
 10
28001.604341291921
 20
1707.749496429288
 30
0.0
 11
28001.604341291921
 21
1683.7494964292871
 31
0.0
  0
LINE
  5
3942
  8
YODOROGO
 10
28017.604341291921
 20
1707.749496429288
 30
0.0
 11
28001.604341291921
 21
1707.749496429288
 31
0.0
  0
LINE
  5
3943
  8
YODOROGO
 10
28017.604341291921
 20
1683.7494964292871
 30
0.0
 11
28017.604341291921
 21
1707.749496429288
 31
0.0
  0
LINE
  5
3944
  8
YODOROGO
 10
28040.913204016892
 20
1683.7494964292871
 30
0.0
 11
28017.604341291921
 21
1683.7494964292871
 31
0.0
  0
LINE
  5
3945
  8
YODOROGO
 10
28001.604341291921
 20
1683.7494964292871
 30
0.0
 11
27977.604341291921
 21
1683.7494964292871
 31
0.0
  0
LINE
  5
3946
  8
YODOROGO
 10
28082.135520230921
 20
1707.749496429288
 30
0.0
 11
28098.135520230931
 21
1707.749496429288
 31
0.0
1001
AUTOCAD_POSTSCRIPT_FIGURE
1002
{
1000
PSFILL
1000
Grayscale
1000
Grayscale
1070
   100
1002
}
  0
LINE
  5
3947
  8
YODOROGO
 10
28401.60434129191
 20
1824.877625640306
 30
0.0
 11
28401.60434129191
 21
1752.877625640306
 31
0.0
1001
AUTOCAD_POSTSCRIPT_FIGURE
1002
{
1000
PSFILL
1000
Grayscale
1000
Grayscale
1070
   100
1002
}
  0
LINE
  5
3948
  8
YODOROGO
 10
28401.60434129191
 20
1916.8776256403071
 30
0.0
 11
28401.60434129191
 21
1984.877625640306
 31
0.0
1001
AUTOCAD_POSTSCRIPT_FIGURE
1002
{
1000
PSFILL
1000
Grayscale
1000
Grayscale
1070
   100
1002
}
  0
LINE
  5
3949
  8
YODOROGO
 10
28433.60434129191
 20
1819.7494964292871
 30
0.0
 11
28433.60434129191
 21
1747.74949642929
 31
0.0
  0
LINE
  5
394A
  8
YODOROGO
 10
28497.60434129191
 20
1707.749496429288
 30
0.0
 11
28433.60434129191
 21
1707.749496429288
 31
0.0
  0
LINE
  5
394B
  8
YODOROGO
 10
28433.60434129191
 20
1747.74949642929
 30
0.0
 11
28585.604341291921
 21
1747.74949642929
 31
0.0
  0
LINE
  5
394C
  8
YODOROGO
 10
28497.60434129191
 20
1867.7494964292871
 30
0.0
 11
28433.60434129191
 21
1867.7494964292871
 31
0.0
  0
LINE
  5
394D
  8
YODOROGO
 10
28497.60434129191
 20
1923.7494964292871
 30
0.0
 11
28497.60434129191
 21
1867.7494964292871
 31
0.0
  0
LINE
  5
394E
  8
YODOROGO
 10
28585.604341291921
 20
1987.7494964292871
 30
0.0
 11
28585.604341291921
 21
2027.749496429288
 31
0.0
  0
LINE
  5
394F
  8
YODOROGO
 10
28433.60434129191
 20
1987.7494964292871
 30
0.0
 11
28585.604341291921
 21
1987.7494964292871
 31
0.0
  0
LINE
  5
3950
  8
YODOROGO
 10
28433.60434129191
 20
1867.7494964292871
 30
0.0
 11
28433.60434129191
 21
1987.7494964292871
 31
0.0
  0
LINE
  5
3951
  8
YODOROGO
 10
29001.60434129191
 20
2027.749496429288
 30
0.0
 11
29001.60434129191
 21
1619.749496429288
 31
0.0
  0
LINE
  5
3952
  8
YODOROGO
 10
29073.604341291921
 20
1579.749496429288
 30
0.0
 11
29073.604341291921
 21
2027.749496429288
 31
0.0
  0
LINE
  5
3953
  8
YODOROGO
 10
29261.604341291921
 20
1491.749496429286
 30
0.0
 11
29261.604341291921
 21
2007.749496429288
 31
0.0
  0
LINE
  5
3954
  8
YODOROGO
 10
29197.604341291921
 20
2007.749496429288
 30
0.0
 11
29197.604341291921
 21
1491.749496429286
 31
0.0
  0
LINE
  5
3955
  8
YODOROGO
 10
29385.604341291921
 20
2027.749496429288
 30
0.0
 11
29385.604341291921
 21
1427.749496429288
 31
0.0
  0
LINE
  5
3956
  8
YODOROGO
 10
29457.604341291921
 20
1427.749496429288
 30
0.0
 11
29457.604341291921
 21
2027.749496429288
 31
0.0
  0
LINE
  5
3957
  8
YODOROGO
 10
28657.604341291921
 20
1667.749496429288
 30
0.0
 11
28657.604341291921
 21
1747.74949642929
 31
0.0
  0
LINE
  5
3958
  8
YODOROGO
 10
29885.604341291921
 20
1707.749496429288
 30
0.0
 11
29885.604341291921
 21
1667.749496429288
 31
0.0
  0
LINE
  5
3959
  8
YODOROGO
 10
29885.604341291921
 20
1707.749496429288
 30
0.0
 11
29885.604341291921
 21
1667.749496429288
 31
0.0
  0
ARC
  5
395A
  8
YODOROGO
 10
28906.911576186842
 20
1618.217864442272
 30
0.0
 40
94.705151178741644
 50
274.05244162907098
 51
0.9266642149310712
  0
ARC
  5
395B
  8
YODOROGO
 10
28909.186170719819
 20
1592.61072861044
 30
0.0
 40
164.92042356085511
 50
271.5351210653775
 51
355.52727750585052
  0
LINE
  5
395C
  8
YODOROGO
 10
28913.604341291921
 20
1523.7494964292871
 30
0.0
 11
28913.604341291921
 21
1427.749496429288
 31
0.0
  0
LINE
  5
395D
  8
YODOROGO
 10
28793.60434129191
 20
1667.749496429288
 30
0.0
 11
28657.604341291921
 21
1667.749496429288
 31
0.0
  0
LINE
  5
395E
  8
YODOROGO
 10
28793.60434129191
 20
1603.7494964292871
 30
0.0
 11
28793.60434129191
 21
1667.749496429288
 31
0.0
  0
LINE
  5
395F
  8
YODOROGO
 10
28657.604341291921
 20
1603.7494964292871
 30
0.0
 11
28793.60434129191
 21
1603.7494964292871
 31
0.0
  0
LINE
  5
3960
  8
YODOROGO
 10
28657.604341291921
 20
1523.7494964292871
 30
0.0
 11
28657.604341291921
 21
1603.7494964292871
 31
0.0
  0
LINE
  5
3961
  8
YODOROGO
 10
28793.60434129191
 20
1523.7494964292871
 30
0.0
 11
28657.604341291921
 21
1523.7494964292871
 31
0.0
  0
LINE
  5
3962
  8
YODOROGO
 10
28793.60434129191
 20
1427.749496429288
 30
0.0
 11
28793.60434129191
 21
1523.7494964292871
 31
0.0
  0
LINE
  5
3963
  8
YODOROGO
 10
29197.604341291921
 20
1491.749496429286
 30
0.0
 11
29261.604341291921
 21
1491.749496429286
 31
0.0
  0
LINE
  5
3964
  8
YODOROGO
 10
29385.604341291921
 20
1427.749496429288
 30
0.0
 11
29457.604341291921
 21
1427.749496429288
 31
0.0
  0
LINE
  5
3965
  8
YODOROGO
 10
29737.604341291921
 20
1528.4414521705639
 30
0.0
 11
29737.604341291921
 21
1427.749496429288
 31
0.0
  0
LINE
  5
3966
  8
YODOROGO
 10
29617.604341291921
 20
1427.749496429288
 30
0.0
 11
29737.604341291921
 21
1528.4414521705639
 31
0.0
  0
LINE
  5
3967
  8
YODOROGO
 10
29617.604341291921
 20
1547.749496429288
 30
0.0
 11
29617.604341291921
 21
1427.749496429288
 31
0.0
  0
LINE
  5
3968
  8
YODOROGO
 10
29712.94462869945
 20
1627.749496429288
 30
0.0
 11
29617.604341291921
 21
1547.749496429288
 31
0.0
  0
LINE
  5
3969
  8
YODOROGO
 10
29617.604341291921
 20
1627.749496429288
 30
0.0
 11
29712.94462869945
 21
1627.749496429288
 31
0.0
  0
LINE
  5
396A
  8
YODOROGO
 10
29617.604341291921
 20
1667.749496429288
 30
0.0
 11
29617.604341291921
 21
1627.749496429288
 31
0.0
  0
LINE
  5
396B
  8
YODOROGO
 10
29885.604341291921
 20
1667.749496429288
 30
0.0
 11
29617.604341291921
 21
1667.749496429288
 31
0.0
  0
LINE
  5
396C
  8
YODOROGO
 10
29917.604341291921
 20
1627.749496429288
 30
0.0
 11
29777.604341291921
 21
1627.749496429288
 31
0.0
  0
LINE
  5
396D
  8
YODOROGO
 10
29777.604341291921
 20
1562.0054374176559
 30
0.0
 11
29771.409872985321
 21
1556.807661346234
 31
0.0
  0
LINE
  5
396E
  8
YODOROGO
 10
29777.604341291921
 20
1627.749496429288
 30
0.0
 11
29777.604341291921
 21
1562.0054374176559
 31
0.0
  0
LINE
  5
396F
  8
YODOROGO
 10
29737.604341291921
 20
1528.4414521705639
 30
0.0
 11
29737.604341291921
 21
1427.749496429288
 31
0.0
  0
LINE
  5
3970
  8
YODOROGO
 10
29617.604341291921
 20
1427.749496429288
 30
0.0
 11
29737.604341291921
 21
1528.4414521705639
 31
0.0
  0
LINE
  5
3971
  8
YODOROGO
 10
29617.604341291921
 20
1547.749496429288
 30
0.0
 11
29617.604341291921
 21
1427.749496429288
 31
0.0
  0
LINE
  5
3972
  8
YODOROGO
 10
29712.94462869945
 20
1627.749496429288
 30
0.0
 11
29617.604341291921
 21
1547.749496429288
 31
0.0
  0
LINE
  5
3973
  8
YODOROGO
 10
29617.604341291921
 20
1627.749496429288
 30
0.0
 11
29712.94462869945
 21
1627.749496429288
 31
0.0
  0
LINE
  5
3974
  8
YODOROGO
 10
29617.604341291921
 20
1667.749496429288
 30
0.0
 11
29617.604341291921
 21
1627.749496429288
 31
0.0
  0
LINE
  5
3975
  8
YODOROGO
 10
29885.604341291921
 20
1667.749496429288
 30
0.0
 11
29617.604341291921
 21
1667.749496429288
 31
0.0
  0
LINE
  5
3976
  8
YODOROGO
 10
28793.60434129191
 20
1747.74949642929
 30
0.0
 11
28793.60434129191
 21
1819.7494964292871
 31
0.0
  0
LINE
  5
3977
  8
YODOROGO
 10
28657.604341291921
 20
1747.74949642929
 30
0.0
 11
28793.60434129191
 21
1747.74949642929
 31
0.0
  0
LINE
  5
3978
  8
YODOROGO
 10
28729.604341291921
 20
1867.7494964292871
 30
0.0
 11
28729.604341291921
 21
1923.7494964292871
 31
0.0
  0
LINE
  5
3979
  8
YODOROGO
 10
28793.60434129191
 20
1867.7494964292871
 30
0.0
 11
28729.604341291921
 21
1867.7494964292871
 31
0.0
  0
LINE
  5
397A
  8
YODOROGO
 10
28793.60434129191
 20
1947.749496429288
 30
0.0
 11
28793.60434129191
 21
1867.7494964292871
 31
0.0
  0
ARC
  5
397B
  8
YODOROGO
 10
28753.60434129191
 20
1947.749496429288
 30
0.0
 40
40.0
 50
0.0
 51
90.0
  0
LINE
  5
397C
  8
YODOROGO
 10
28657.604341291921
 20
1987.7494964292871
 30
0.0
 11
28753.60434129191
 21
1987.7494964292871
 31
0.0
  0
LINE
  5
397D
  8
YODOROGO
 10
28657.604341291921
 20
2027.749496429288
 30
0.0
 11
28657.604341291921
 21
1987.7494964292871
 31
0.0
  0
LINE
  5
397E
  8
YODOROGO
 10
29073.604341291921
 20
2027.749496429288
 30
0.0
 11
29001.60434129191
 21
2027.749496429288
 31
0.0
  0
LINE
  5
397F
  8
YODOROGO
 10
29261.604341291921
 20
2007.749496429288
 30
0.0
 11
29197.604341291921
 21
2007.749496429288
 31
0.0
  0
LINE
  5
3980
  8
YODOROGO
 10
29457.604341291921
 20
2027.749496429288
 30
0.0
 11
29385.604341291921
 21
2027.749496429288
 31
0.0
  0
LINE
  5
3981
  8
YODOROGO
 10
29673.604341291921
 20
1707.749496429288
 30
0.0
 11
29673.604341291921
 21
1771.7494964292871
 31
0.0
1001
AUTOCAD_POSTSCRIPT_FIGURE
1002
{
1000
PSFILL
1000
Grayscale
1000
Grayscale
1070
    25
1002
}
  0
LINE
  5
3982
  8
YODOROGO
 10
29617.604341291921
 20
1707.749496429288
 30
0.0
 11
29673.604341291921
 21
1707.749496429288
 31
0.0
1001
AUTOCAD_POSTSCRIPT_FIGURE
1002
{
1000
PSFILL
1000
Grayscale
1000
Grayscale
1070
    25
1002
}
  0
LINE
  5
3983
  8
YODOROGO
 10
29617.604341291921
 20
1819.7494964292871
 30
0.0
 11
29617.604341291921
 21
1707.749496429288
 31
0.0
1001
AUTOCAD_POSTSCRIPT_FIGURE
1002
{
1000
PSFILL
1000
Grayscale
1000
Grayscale
1070
    25
1002
}
  0
LINE
  5
3984
  8
YODOROGO
 10
29765.604341291921
 20
1819.7494964292871
 30
0.0
 11
29617.604341291921
 21
1819.7494964292871
 31
0.0
1001
AUTOCAD_POSTSCRIPT_FIGURE
1002
{
1000
PSFILL
1000
Grayscale
1000
Grayscale
1070
    25
1002
}
  0
LINE
  5
3985
  8
YODOROGO
 10
29765.604341291921
 20
1859.749496429288
 30
0.0
 11
29765.604341291921
 21
1819.7494964292871
 31
0.0
1001
AUTOCAD_POSTSCRIPT_FIGURE
1002
{
1000
PSFILL
1000
Grayscale
1000
Grayscale
1070
    25
1002
}
  0
LINE
  5
3986
  8
YODOROGO
 10
29617.604341291921
 20
1859.749496429288
 30
0.0
 11
29765.604341291921
 21
1859.749496429288
 31
0.0
1001
AUTOCAD_POSTSCRIPT_FIGURE
1002
{
1000
PSFILL
1000
Grayscale
1000
Grayscale
1070
    25
1002
}
  0
LINE
  5
3987
  8
YODOROGO
 10
29617.604341291921
 20
1907.7494964292871
 30
0.0
 11
29617.604341291921
 21
1859.749496429288
 31
0.0
1001
AUTOCAD_POSTSCRIPT_FIGURE
1002
{
1000
PSFILL
1000
Grayscale
1000
Grayscale
1070
    25
1002
}
  0
LINE
  5
3988
  8
YODOROGO
 10
29765.604341291921
 20
1907.7494964292871
 30
0.0
 11
29617.604341291921
 21
1907.7494964292871
 31
0.0
1001
AUTOCAD_POSTSCRIPT_FIGURE
1002
{
1000
PSFILL
1000
Grayscale
1000
Grayscale
1070
    25
1002
}
  0
LINE
  5
3989
  8
YODOROGO
 10
29765.604341291921
 20
1947.749496429288
 30
0.0
 11
29765.604341291921
 21
1907.7494964292871
 31
0.0
1001
AUTOCAD_POSTSCRIPT_FIGURE
1002
{
1000
PSFILL
1000
Grayscale
1000
Grayscale
1070
    25
1002
}
  0
LINE
  5
398A
  8
YODOROGO
 10
29617.604341291921
 20
1947.749496429288
 30
0.0
 11
29765.604341291921
 21
1947.749496429288
 31
0.0
1001
AUTOCAD_POSTSCRIPT_FIGURE
1002
{
1000
PSFILL
1000
Grayscale
1000
Grayscale
1070
    25
1002
}
  0
LINE
  5
398B
  8
YODOROGO
 10
29617.604341291921
 20
2027.749496429288
 30
0.0
 11
29617.604341291921
 21
1947.749496429288
 31
0.0
1001
AUTOCAD_POSTSCRIPT_FIGURE
1002
{
1000
PSFILL
1000
Grayscale
1000
Grayscale
1070
    25
1002
}
  0
LINE
  5
398C
  8
YODOROGO
 10
29665.604341291921
 20
2027.749496429288
 30
0.0
 11
29617.604341291921
 21
2027.749496429288
 31
0.0
1001
AUTOCAD_POSTSCRIPT_FIGURE
1002
{
1000
PSFILL
1000
Grayscale
1000
Grayscale
1070
    25
1002
}
  0
LINE
  5
398D
  8
YODOROGO
 10
29665.604341291921
 20
1995.7494964292871
 30
0.0
 11
29665.604341291921
 21
2027.749496429288
 31
0.0
1001
AUTOCAD_POSTSCRIPT_FIGURE
1002
{
1000
PSFILL
1000
Grayscale
1000
Grayscale
1070
    25
1002
}
  0
LINE
  5
398E
  8
YODOROGO
 10
29765.604341291921
 20
1995.7494964292871
 30
0.0
 11
29665.604341291921
 21
1995.7494964292871
 31
0.0
1001
AUTOCAD_POSTSCRIPT_FIGURE
1002
{
1000
PSFILL
1000
Grayscale
1000
Grayscale
1070
    25
1002
}
  0
LINE
  5
398F
  8
YODOROGO
 10
29765.604341291921
 20
2027.749496429288
 30
0.0
 11
29765.604341291921
 21
1995.7494964292871
 31
0.0
1001
AUTOCAD_POSTSCRIPT_FIGURE
1002
{
1000
PSFILL
1000
Grayscale
1000
Grayscale
1070
    25
1002
}
  0
LINE
  5
3990
  8
YODOROGO
 10
29829.604341291921
 20
2027.749496429288
 30
0.0
 11
29765.604341291921
 21
2027.749496429288
 31
0.0
1001
AUTOCAD_POSTSCRIPT_FIGURE
1002
{
1000
PSFILL
1000
Grayscale
1000
Grayscale
1070
    25
1002
}
  0
LINE
  5
3991
  8
YODOROGO
 10
29829.604341291921
 20
1995.7494964292871
 30
0.0
 11
29829.604341291921
 21
2027.749496429288
 31
0.0
1001
AUTOCAD_POSTSCRIPT_FIGURE
1002
{
1000
PSFILL
1000
Grayscale
1000
Grayscale
1070
    25
1002
}
  0
LINE
  5
3992
  8
YODOROGO
 10
29829.604341291921
 20
1907.7494964292871
 30
0.0
 11
29829.604341291921
 21
1947.749496429288
 31
0.0
1001
AUTOCAD_POSTSCRIPT_FIGURE
1002
{
1000
PSFILL
1000
Grayscale
1000
Grayscale
1070
    25
1002
}
  0
LINE
  5
3993
  8
YODOROGO
 10
29829.604341291921
 20
1819.7494964292871
 30
0.0
 11
29829.604341291921
 21
1859.749496429288
 31
0.0
1001
AUTOCAD_POSTSCRIPT_FIGURE
1002
{
1000
PSFILL
1000
Grayscale
1000
Grayscale
1070
    25
1002
}
  0
LINE
  5
3994
  8
YODOROGO
 10
29921.60434129191
 20
1771.7494964292871
 30
0.0
 11
29921.60434129191
 21
1707.749496429288
 31
0.0
1001
AUTOCAD_POSTSCRIPT_FIGURE
1002
{
1000
PSFILL
1000
Grayscale
1000
Grayscale
1070
    25
1002
}
  0
LINE
  5
3995
  8
YODOROGO
 10
29829.604341291921
 20
1771.7494964292871
 30
0.0
 11
29921.60434129191
 21
1771.7494964292871
 31
0.0
1001
AUTOCAD_POSTSCRIPT_FIGURE
1002
{
1000
PSFILL
1000
Grayscale
1000
Grayscale
1070
    25
1002
}
  0
LINE
  5
3996
  8
YODOROGO
 10
29829.604341291921
 20
1707.749496429288
 30
0.0
 11
29829.604341291921
 21
1771.7494964292871
 31
0.0
1001
AUTOCAD_POSTSCRIPT_FIGURE
1002
{
1000
PSFILL
1000
Grayscale
1000
Grayscale
1070
    25
1002
}
  0
LINE
  5
3997
  8
YODOROGO
 10
29765.604341291921
 20
1707.749496429288
 30
0.0
 11
29829.604341291921
 21
1707.749496429288
 31
0.0
1001
AUTOCAD_POSTSCRIPT_FIGURE
1002
{
1000
PSFILL
1000
Grayscale
1000
Grayscale
1070
    25
1002
}
  0
LINE
  5
3998
  8
YODOROGO
 10
29765.604341291921
 20
1771.7494964292871
 30
0.0
 11
29765.604341291921
 21
1707.749496429288
 31
0.0
1001
AUTOCAD_POSTSCRIPT_FIGURE
1002
{
1000
PSFILL
1000
Grayscale
1000
Grayscale
1070
    25
1002
}
  0
LINE
  5
3999
  8
YODOROGO
 10
29673.604341291921
 20
1771.7494964292871
 30
0.0
 11
29765.604341291921
 21
1771.7494964292871
 31
0.0
1001
AUTOCAD_POSTSCRIPT_FIGURE
1002
{
1000
PSFILL
1000
Grayscale
1000
Grayscale
1070
    25
1002
}
  0
ARC
  5
399A
  8
YODOROGO
 10
31059.517893357912
 20
1602.6807375155761
 30
0.0
 40
178.22128111072141
 50
281.02627495425338
 51
357.77113575573799
  0
LINE
  5
399B
  8
YODOROGO
 10
31413.604341291921
 20
1907.7494964292871
 30
0.0
 11
31165.604341291921
 21
1907.7494964292871
 31
0.0
  0
LINE
  5
399C
  8
YODOROGO
 10
31413.604341291921
 20
2027.749496429288
 30
0.0
 11
31165.604341291921
 21
2027.749496429288
 31
0.0
  0
LINE
  5
399D
  8
YODOROGO
 10
31165.604341291921
 20
1963.749496429286
 30
0.0
 11
31413.604341291921
 21
1963.749496429286
 31
0.0
  0
LINE
  5
399E
  8
YODOROGO
 10
30791.604341291921
 20
1563.7494964292871
 30
0.0
 11
30791.604341291921
 21
1755.7494964292871
 31
0.0
  0
LINE
  5
399F
  8
YODOROGO
 10
30763.604341291921
 20
1691.749496429288
 30
0.0
 11
30763.604341291921
 21
1563.7494964292871
 31
0.0
  0
LINE
  5
39A0
  8
YODOROGO
 10
30723.604341291921
 20
1491.749496429288
 30
0.0
 11
30723.604341291921
 21
1691.749496429288
 31
0.0
  0
LINE
  5
39A1
  8
YODOROGO
 10
30899.604341291932
 20
1691.749496429288
 30
0.0
 11
30899.604341291932
 21
1491.749496429288
 31
0.0
  0
LINE
  5
39A2
  8
YODOROGO
 10
30859.604341291932
 20
1563.7494964292871
 30
0.0
 11
30859.604341291932
 21
1691.749496429288
 31
0.0
  0
LINE
  5
39A3
  8
YODOROGO
 10
30831.604341291921
 20
1755.7494964292871
 30
0.0
 11
30831.604341291921
 21
1563.7494964292871
 31
0.0
  0
LINE
  5
39A4
  8
YODOROGO
 10
30973.604341291921
 20
2027.749496429288
 30
0.0
 11
30973.604341291921
 21
1467.749496429288
 31
0.0
  0
LINE
  5
39A5
  8
YODOROGO
 10
30645.604341291921
 20
1427.749496429288
 30
0.0
 11
30645.604341291921
 21
2027.749496429288
 31
0.0
  0
LINE
  5
39A6
  8
YODOROGO
 10
30697.604341291932
 20
1963.749496429286
 30
0.0
 11
30697.604341291932
 21
1427.749496429288
 31
0.0
  0
LINE
  5
39A7
  8
YODOROGO
 10
30925.604341291921
 20
1547.749496429288
 30
0.0
 11
30925.604341291921
 21
1963.749496429286
 31
0.0
  0
LINE
  5
39A8
  8
YODOROGO
 10
30381.604341291932
 20
1627.749496429288
 30
0.0
 11
30381.604341291932
 21
1679.749496429288
 31
0.0
  0
LINE
  5
39A9
  8
YODOROGO
 10
30617.604341291921
 20
1679.749496429288
 30
0.0
 11
30617.604341291921
 21
1627.749496429288
 31
0.0
  0
LINE
  5
39AA
  8
YODOROGO
 10
31165.604341291921
 20
1907.7494964292871
 30
0.0
 11
31165.604341291921
 21
1635.7494964292871
 31
0.0
  0
LINE
  5
39AB
  8
YODOROGO
 10
29949.60434129191
 20
1667.749496429288
 30
0.0
 11
29949.60434129191
 21
1707.749496429288
 31
0.0
  0
LINE
  5
39AC
  8
YODOROGO
 10
29949.60434129191
 20
1667.749496429288
 30
0.0
 11
29949.60434129191
 21
1707.749496429288
 31
0.0
  0
ARC
  5
39AD
  8
YODOROGO
 10
30537.604341291921
 20
1507.749496429288
 30
0.0
 40
80.0
 50
270.0
 51
0.0
  0
LINE
  5
39AE
  8
YODOROGO
 10
30569.604341291921
 20
1599.7494964292871
 30
0.0
 11
30617.604341291921
 21
1599.7494964292871
 31
0.0
  0
LINE
  5
39AF
  8
YODOROGO
 10
30617.604341291921
 20
1627.749496429288
 30
0.0
 11
30529.604341291939
 21
1627.749496429288
 31
0.0
  0
LINE
  5
39B0
  8
YODOROGO
 10
30217.604341291921
 20
1667.749496429288
 30
0.0
 11
29949.60434129191
 21
1667.749496429288
 31
0.0
  0
LINE
  5
39B1
  8
YODOROGO
 10
30217.604341291921
 20
1627.749496429288
 30
0.0
 11
30217.604341291921
 21
1667.749496429288
 31
0.0
  0
LINE
  5
39B2
  8
YODOROGO
 10
30017.604341291921
 20
1627.749496429288
 30
0.0
 11
30217.604341291921
 21
1627.749496429288
 31
0.0
  0
ARC
  5
39B3
  8
YODOROGO
 10
30230.05882870136
 20
1868.885714952901
 30
0.0
 40
321.37763628522822
 50
228.6181454618993
 51
245.660289248906
  0
LINE
  5
39B4
  8
YODOROGO
 10
30105.604341291921
 20
1603.7494964292871
 30
0.0
 11
30097.60434129195
 21
1576.0728158699001
 31
0.0
  0
LINE
  5
39B5
  8
YODOROGO
 10
30189.604341291921
 20
1603.7494964292871
 30
0.0
 11
30105.604341291921
 21
1603.7494964292871
 31
0.0
  0
LINE
  5
39B6
  8
YODOROGO
 10
30177.604341291921
 20
1551.817722473427
 30
0.0
 11
30189.604341291921
 21
1603.7494964292871
 31
0.0
  0
ARC
  5
39B7
  8
YODOROGO
 10
30230.05882870045
 20
1868.885714953002
 30
0.0
 40
321.37763628529081
 50
260.60629297969911
 51
267.77903556555862
  0
LINE
  5
39B8
  8
YODOROGO
 10
30217.604341291921
 20
1427.749496429285
 30
0.0
 11
30217.604341291921
 21
1547.749496429288
 31
0.0
  0
LINE
  5
39B9
  8
YODOROGO
 10
29937.604341291932
 20
1481.3393349155101
 30
0.0
 11
29937.604341291921
 21
1594.531090531141
 31
0.0
  0
LINE
  5
39BA
  8
YODOROGO
 10
30217.604341291921
 20
1667.749496429288
 30
0.0
 11
29949.60434129191
 21
1667.749496429288
 31
0.0
  0
LINE
  5
39BB
  8
YODOROGO
 10
30217.604341291921
 20
1627.749496429288
 30
0.0
 11
30217.604341291921
 21
1667.749496429288
 31
0.0
  0
LINE
  5
39BC
  8
YODOROGO
 10
30017.604341291921
 20
1627.749496429288
 30
0.0
 11
30217.604341291921
 21
1627.749496429288
 31
0.0
  0
ARC
  5
39BD
  8
YODOROGO
 10
30230.05882870136
 20
1868.885714952901
 30
0.0
 40
321.37763628522822
 50
228.6181454618993
 51
245.660289248906
  0
LINE
  5
39BE
  8
YODOROGO
 10
30105.604341291921
 20
1603.7494964292871
 30
0.0
 11
30097.60434129195
 21
1576.0728158699001
 31
0.0
  0
LINE
  5
39BF
  8
YODOROGO
 10
30189.604341291921
 20
1603.7494964292871
 30
0.0
 11
30105.604341291921
 21
1603.7494964292871
 31
0.0
  0
LINE
  5
39C0
  8
YODOROGO
 10
30177.604341291921
 20
1551.817722473427
 30
0.0
 11
30189.604341291921
 21
1603.7494964292871
 31
0.0
  0
ARC
  5
39C1
  8
YODOROGO
 10
30230.05882870045
 20
1868.885714953002
 30
0.0
 40
321.37763628529081
 50
260.60629297969911
 51
267.77903556555862
  0
LINE
  5
39C2
  8
YODOROGO
 10
30217.604341291921
 20
1427.749496429285
 30
0.0
 11
30217.604341291921
 21
1547.749496429288
 31
0.0
  0
LINE
  5
39C3
  8
YODOROGO
 10
29937.604341291932
 20
1481.3393349155101
 30
0.0
 11
29937.604341291921
 21
1594.531090531141
 31
0.0
  0
LINE
  5
39C4
  8
YODOROGO
 10
30433.604341291921
 20
1573.749496429288
 30
0.0
 11
30381.604341291932
 21
1573.749496429288
 31
0.0
  0
LINE
  5
39C5
  8
YODOROGO
 10
30433.604341291921
 20
1601.749496429285
 30
0.0
 11
30433.604341291921
 21
1573.749496429288
 31
0.0
  0
LINE
  5
39C6
  8
YODOROGO
 10
30381.604341291932
 20
1601.749496429285
 30
0.0
 11
30433.604341291921
 21
1601.749496429285
 31
0.0
  0
LINE
  5
39C7
  8
YODOROGO
 10
30381.604341291932
 20
1573.749496429288
 30
0.0
 11
30381.604341291932
 21
1601.749496429285
 31
0.0
  0
LINE
  5
39C8
  8
YODOROGO
 10
30429.604341291921
 20
1577.7494964292871
 30
0.0
 11
30385.604341291921
 21
1577.7494964292871
 31
0.0
  0
LINE
  5
39C9
  8
YODOROGO
 10
30429.604341291921
 20
1597.749496429288
 30
0.0
 11
30429.604341291921
 21
1577.7494964292871
 31
0.0
  0
LINE
  5
39CA
  8
YODOROGO
 10
30385.604341291921
 20
1597.749496429288
 30
0.0
 11
30429.604341291921
 21
1597.749496429288
 31
0.0
  0
LINE
  5
39CB
  8
YODOROGO
 10
30385.604341291921
 20
1577.7494964292871
 30
0.0
 11
30385.604341291921
 21
1597.749496429288
 31
0.0
  0
LINE
  5
39CC
  8
YODOROGO
 10
30425.604341291921
 20
1581.749496429286
 30
0.0
 11
30389.604341291921
 21
1581.749496429286
 31
0.0
  0
LINE
  5
39CD
  8
YODOROGO
 10
30425.604341291921
 20
1593.749496429288
 30
0.0
 11
30425.604341291921
 21
1581.749496429286
 31
0.0
  0
LINE
  5
39CE
  8
YODOROGO
 10
30389.604341291921
 20
1593.749496429288
 30
0.0
 11
30425.604341291921
 21
1593.749496429288
 31
0.0
  0
LINE
  5
39CF
  8
YODOROGO
 10
30389.604341291921
 20
1581.749496429286
 30
0.0
 11
30389.604341291921
 21
1593.749496429288
 31
0.0
  0
LINE
  5
39D0
  8
YODOROGO
 10
30421.604341291932
 20
1585.7494964292871
 30
0.0
 11
30393.604341291921
 21
1585.7494964292871
 31
0.0
  0
LINE
  5
39D1
  8
YODOROGO
 10
30421.604341291932
 20
1589.749496429288
 30
0.0
 11
30421.604341291932
 21
1585.7494964292871
 31
0.0
  0
LINE
  5
39D2
  8
YODOROGO
 10
30393.604341291921
 20
1589.749496429288
 30
0.0
 11
30421.604341291932
 21
1589.749496429288
 31
0.0
  0
LINE
  5
39D3
  8
YODOROGO
 10
30393.604341291921
 20
1585.7494964292871
 30
0.0
 11
30393.604341291921
 21
1589.749496429288
 31
0.0
  0
LINE
  5
39D4
  8
YODOROGO
 10
30465.604341291921
 20
1627.749496429288
 30
0.0
 11
30381.604341291932
 21
1627.749496429288
 31
0.0
  0
LINE
  5
39D5
  8
YODOROGO
 10
30465.604341291921
 20
1547.749496429288
 30
0.0
 11
30465.604341291921
 21
1627.749496429288
 31
0.0
  0
LINE
  5
39D6
  8
YODOROGO
 10
30381.604341291932
 20
1547.749496429288
 30
0.0
 11
30465.604341291921
 21
1547.749496429288
 31
0.0
  0
LINE
  5
39D7
  8
YODOROGO
 10
30381.604341291932
 20
1427.749496429288
 30
0.0
 11
30381.604341291932
 21
1547.749496429288
 31
0.0
  0
LINE
  5
39D8
  8
YODOROGO
 10
30537.604341291921
 20
1427.749496429288
 30
0.0
 11
30381.604341291932
 21
1427.749496429288
 31
0.0
  0
LINE
  5
39D9
  8
YODOROGO
 10
30569.604341291921
 20
1571.749496429285
 30
0.0
 11
30569.604341291921
 21
1599.7494964292871
 31
0.0
  0
ARC
  5
39DA
  8
YODOROGO
 10
30545.604341291921
 20
1571.749496429291
 30
0.0
 40
24.000000000003752
 50
270.0
 51
359.99999999998772
  0
LINE
  5
39DB
  8
YODOROGO
 10
30529.604341291939
 20
1547.749496429288
 30
0.0
 11
30545.604341291921
 21
1547.749496429288
 31
0.0
  0
LINE
  5
39DC
  8
YODOROGO
 10
30529.604341291939
 20
1627.749496429288
 30
0.0
 11
30529.604341291939
 21
1547.749496429288
 31
0.0
  0
LINE
  5
39DD
  8
YODOROGO
 10
30899.604341291932
 20
1547.749496429288
 30
0.0
 11
30925.604341291921
 21
1547.749496429288
 31
0.0
  0
LINE
  5
39DE
  8
YODOROGO
 10
30933.604341291921
 20
1427.749496429288
 30
0.0
 11
30899.604341291932
 21
1427.749496429288
 31
0.0
  0
LINE
  5
39DF
  8
YODOROGO
 10
30763.604341291921
 20
1563.7494964292871
 30
0.0
 11
30791.604341291921
 21
1563.7494964292871
 31
0.0
  0
LINE
  5
39E0
  8
YODOROGO
 10
30899.604341291932
 20
1491.749496429288
 30
0.0
 11
30723.604341291921
 21
1491.749496429288
 31
0.0
  0
LINE
  5
39E1
  8
YODOROGO
 10
30831.604341291921
 20
1563.7494964292871
 30
0.0
 11
30859.604341291932
 21
1563.7494964292871
 31
0.0
  0
LINE
  5
39E2
  8
YODOROGO
 10
30899.604341291932
 20
1427.749496429288
 30
0.0
 11
30899.604341291932
 21
1547.749496429288
 31
0.0
  0
LINE
  5
39E3
  8
YODOROGO
 10
30697.604341291932
 20
1427.749496429288
 30
0.0
 11
30645.604341291921
 21
1427.749496429288
 31
0.0
  0
LINE
  5
39E4
  8
YODOROGO
 10
30617.604341291921
 20
1599.7494964292871
 30
0.0
 11
30617.604341291921
 21
1507.749496429288
 31
0.0
  0
ARC
  5
39E5
  8
YODOROGO
 10
30933.604341291921
 20
1467.749496429288
 30
0.0
 40
40.0
 50
270.0
 51
0.0
  0
LINE
  5
39E6
  8
YODOROGO
 10
31093.604341291921
 20
1523.7494964292871
 30
0.0
 11
31093.604341291921
 21
1427.749496429288
 31
0.0
  0
ARC
  5
39E7
  8
YODOROGO
 10
31039.721395566768
 20
1637.5313901097329
 30
0.0
 40
125.8955565916754
 50
295.34052442160112
 51
359.18902303418679
  0
LINE
  5
39E8
  8
YODOROGO
 10
30617.604341291921
 20
1859.749496429288
 30
0.0
 11
30497.604341291921
 21
1939.749496429288
 31
0.0
  0
LINE
  5
39E9
  8
YODOROGO
 10
30497.604341291921
 20
2027.749496429288
 30
0.0
 11
30617.604341291921
 21
1947.749496429288
 31
0.0
  0
LINE
  5
39EA
  8
YODOROGO
 10
30529.604341291939
 20
1679.749496429288
 30
0.0
 11
30617.604341291921
 21
1679.749496429288
 31
0.0
  0
LINE
  5
39EB
  8
YODOROGO
 10
30617.604341291921
 20
1735.7494964292871
 30
0.0
 11
30529.604341291939
 21
1735.7494964292871
 31
0.0
  0
LINE
  5
39EC
  8
YODOROGO
 10
30381.604341291932
 20
1795.7494964292871
 30
0.0
 11
30617.604341291921
 21
1795.7494964292871
 31
0.0
  0
LINE
  5
39ED
  8
YODOROGO
 10
30081.604341291921
 20
2027.749496429288
 30
0.0
 11
30021.604341291921
 21
2027.749496429288
 31
0.0
  0
LINE
  5
39EE
  8
YODOROGO
 10
30081.604341291921
 20
1827.7494964292871
 30
0.0
 11
30081.604341291921
 21
2027.749496429288
 31
0.0
  0
LINE
  5
39EF
  8
YODOROGO
 10
30021.604341291921
 20
1827.7494964292871
 30
0.0
 11
30081.604341291921
 21
1827.7494964292871
 31
0.0
  0
LINE
  5
39F0
  8
YODOROGO
 10
30021.604341291921
 20
2027.749496429288
 30
0.0
 11
30021.604341291921
 21
1827.7494964292871
 31
0.0
  0
LINE
  5
39F1
  8
YODOROGO
 10
30161.604341291921
 20
2027.749496429288
 30
0.0
 11
30217.604341291921
 21
2027.749496429288
 31
0.0
  0
LINE
  5
39F2
  8
YODOROGO
 10
30161.604341291921
 20
1811.749496429288
 30
0.0
 11
30161.604341291921
 21
2027.749496429288
 31
0.0
  0
ARC
  5
39F3
  8
YODOROGO
 10
30121.604341291921
 20
1811.749496429288
 30
0.0
 40
40.0
 50
270.0
 51
0.0
  0
LINE
  5
39F4
  8
YODOROGO
 10
30021.604341291921
 20
1771.7494964292871
 30
0.0
 11
30121.604341291921
 21
1771.7494964292871
 31
0.0
  0
LINE
  5
39F5
  8
YODOROGO
 10
30021.604341291921
 20
1707.749496429288
 30
0.0
 11
30021.604341291921
 21
1771.7494964292871
 31
0.0
  0
LINE
  5
39F6
  8
YODOROGO
 10
30137.604341291921
 20
1707.749496429288
 30
0.0
 11
30021.604341291921
 21
1707.749496429288
 31
0.0
  0
ARC
  5
39F7
  8
YODOROGO
 10
30137.604341291921
 20
1787.7494964292871
 30
0.0
 40
80.0
 50
270.0
 51
0.0
  0
LINE
  5
39F8
  8
YODOROGO
 10
30217.604341291921
 20
2027.749496429288
 30
0.0
 11
30217.604341291921
 21
1787.7494964292871
 31
0.0
  0
LINE
  5
39F9
  8
YODOROGO
 10
29977.604341291921
 20
1947.749496429288
 30
0.0
 11
29977.604341291921
 21
1995.7494964292871
 31
0.0
1001
AUTOCAD_POSTSCRIPT_FIGURE
1002
{
1000
PSFILL
1000
Grayscale
1000
Grayscale
1070
    25
1002
}
  0
LINE
  5
39FA
  8
YODOROGO
 10
29977.604341291921
 20
1859.749496429288
 30
0.0
 11
29977.604341291921
 21
1907.7494964292871
 31
0.0
1001
AUTOCAD_POSTSCRIPT_FIGURE
1002
{
1000
PSFILL
1000
Grayscale
1000
Grayscale
1070
    25
1002
}
  0
LINE
  5
39FB
  8
YODOROGO
 10
29977.604341291921
 20
1707.749496429288
 30
0.0
 11
29977.604341291921
 21
1819.7494964292871
 31
0.0
1001
AUTOCAD_POSTSCRIPT_FIGURE
1002
{
1000
PSFILL
1000
Grayscale
1000
Grayscale
1070
    25
1002
}
  0
LINE
  5
39FC
  8
YODOROGO
 10
30381.604341291932
 20
1907.7494964292871
 30
0.0
 11
30497.604341291921
 21
2027.749496429288
 31
0.0
  0
LINE
  5
39FD
  8
YODOROGO
 10
30381.604341291932
 20
1819.7494964292871
 30
0.0
 11
30381.604341291932
 21
1907.7494964292871
 31
0.0
  0
LINE
  5
39FE
  8
YODOROGO
 10
30497.604341291921
 20
1939.749496429288
 30
0.0
 11
30381.604341291932
 21
1819.7494964292871
 31
0.0
  0
LINE
  5
39FF
  8
YODOROGO
 10
30465.604341291921
 20
1679.749496429288
 30
0.0
 11
30465.604341291921
 21
1735.7494964292871
 31
0.0
  0
LINE
  5
3A00
  8
YODOROGO
 10
30381.604341291932
 20
1679.749496429288
 30
0.0
 11
30465.604341291921
 21
1679.749496429288
 31
0.0
  0
LINE
  5
3A01
  8
YODOROGO
 10
30529.604341291939
 20
1735.7494964292871
 30
0.0
 11
30529.604341291939
 21
1679.749496429288
 31
0.0
  0
LINE
  5
3A02
  8
YODOROGO
 10
30381.604341291932
 20
1735.7494964292871
 30
0.0
 11
30381.604341291932
 21
1795.7494964292871
 31
0.0
  0
LINE
  5
3A03
  8
YODOROGO
 10
30465.604341291921
 20
1735.7494964292871
 30
0.0
 11
30381.604341291932
 21
1735.7494964292871
 31
0.0
  0
LINE
  5
3A04
  8
YODOROGO
 10
30645.604341291921
 20
2027.749496429288
 30
0.0
 11
30973.604341291921
 21
2027.749496429288
 31
0.0
  0
LINE
  5
3A05
  8
YODOROGO
 10
30925.604341291921
 20
1963.749496429286
 30
0.0
 11
30697.604341291932
 21
1963.749496429286
 31
0.0
  0
LINE
  5
3A06
  8
YODOROGO
 10
30873.604341291921
 20
1819.7494964292871
 30
0.0
 11
30899.604341291932
 21
1819.7494964292871
 31
0.0
  0
LINE
  5
3A07
  8
YODOROGO
 10
30899.604341291932
 20
1939.749496429288
 30
0.0
 11
30873.604341291921
 21
1819.7494964292871
 31
0.0
  0
LINE
  5
3A08
  8
YODOROGO
 10
30851.604341291939
 20
1939.749496429288
 30
0.0
 11
30899.604341291932
 21
1939.749496429288
 31
0.0
  0
LINE
  5
3A09
  8
YODOROGO
 10
30825.604341291921
 20
1819.7494964292871
 30
0.0
 11
30851.604341291939
 21
1939.749496429288
 31
0.0
  0
LINE
  5
3A0A
  8
YODOROGO
 10
30797.604341291921
 20
1819.7494964292871
 30
0.0
 11
30825.604341291921
 21
1819.7494964292871
 31
0.0
  0
LINE
  5
3A0B
  8
YODOROGO
 10
30771.604341291939
 20
1939.749496429288
 30
0.0
 11
30797.604341291921
 21
1819.7494964292871
 31
0.0
  0
LINE
  5
3A0C
  8
YODOROGO
 10
30723.604341291921
 20
1939.749496429288
 30
0.0
 11
30771.604341291939
 21
1939.749496429288
 31
0.0
  0
LINE
  5
3A0D
  8
YODOROGO
 10
30749.604341291921
 20
1819.7494964292871
 30
0.0
 11
30723.604341291921
 21
1939.749496429288
 31
0.0
  0
LINE
  5
3A0E
  8
YODOROGO
 10
30723.604341291921
 20
1819.7494964292871
 30
0.0
 11
30749.604341291921
 21
1819.7494964292871
 31
0.0
  0
LINE
  5
3A0F
  8
YODOROGO
 10
30723.604341291921
 20
1755.7494964292871
 30
0.0
 11
30723.604341291921
 21
1819.7494964292871
 31
0.0
  0
LINE
  5
3A10
  8
YODOROGO
 10
30899.604341291932
 20
1755.7494964292871
 30
0.0
 11
30723.604341291921
 21
1755.7494964292871
 31
0.0
  0
LINE
  5
3A11
  8
YODOROGO
 10
30899.604341291932
 20
1819.7494964292871
 30
0.0
 11
30899.604341291932
 21
1755.7494964292871
 31
0.0
  0
LINE
  5
3A12
  8
YODOROGO
 10
30617.604341291921
 20
1947.749496429288
 30
0.0
 11
30617.604341291921
 21
1859.749496429288
 31
0.0
  0
LINE
  5
3A13
  8
YODOROGO
 10
30791.604341291921
 20
1755.7494964292871
 30
0.0
 11
30831.604341291921
 21
1755.7494964292871
 31
0.0
  0
LINE
  5
3A14
  8
YODOROGO
 10
30723.604341291921
 20
1691.749496429288
 30
0.0
 11
30763.604341291921
 21
1691.749496429288
 31
0.0
  0
LINE
  5
3A15
  8
YODOROGO
 10
30859.604341291932
 20
1691.749496429288
 30
0.0
 11
30899.604341291932
 21
1691.749496429288
 31
0.0
  0
LINE
  5
3A16
  8
YODOROGO
 10
30617.604341291921
 20
1795.7494964292871
 30
0.0
 11
30617.604341291921
 21
1735.7494964292871
 31
0.0
  0
LINE
  5
3A17
  8
YODOROGO
 10
31165.604341291921
 20
2027.749496429288
 30
0.0
 11
31165.604341291921
 21
1963.749496429286
 31
0.0
  0
LINE
  5
3A18
  8
YODOROGO
 10
31533.604341291921
 20
1595.7494964292871
 30
0.0
 11
31533.60434129191
 21
1811.749496429288
 31
0.0
  0
LINE
  5
3A19
  8
YODOROGO
 10
31461.60434129191
 20
1987.7494964292871
 30
0.0
 11
31461.60434129191
 21
1635.7494964292871
 31
0.0
  0
LINE
  5
3A1A
  8
YODOROGO
 10
31653.604341291921
 20
1427.749496429288
 30
0.0
 11
31653.60434129191
 21
1811.749496429288
 31
0.0
  0
LINE
  5
3A1B
  8
YODOROGO
 10
31589.604341291921
 20
1811.749496429288
 30
0.0
 11
31589.604341291921
 21
1427.749496429288
 31
0.0
  0
LINE
  5
3A1C
  8
YODOROGO
 10
31237.604341291921
 20
1595.7494964292871
 30
0.0
 11
31237.604341291921
 21
1707.749496429288
 31
0.0
  0
ARC
  5
3A1D
  8
YODOROGO
 10
31353.914865116069
 20
1607.790351288558
 30
0.0
 40
180.0924485759885
 50
268.62849102169793
 51
356.16638457330322
  0
LINE
  5
3A1E
  8
YODOROGO
 10
31349.604341291939
 20
1527.749496429288
 30
0.0
 11
31349.604341291939
 21
1427.749496429288
 31
0.0
  0
ARC
  5
3A1F
  8
YODOROGO
 10
31351.518075724562
 20
1637.838957017655
 30
0.0
 40
110.1060929836122
 50
269.00410209305932
 51
358.91264455492478
  0
LINE
  5
3A20
  8
YODOROGO
 10
31589.604341291921
 20
1427.749496429288
 30
0.0
 11
31653.604341291921
 21
1427.749496429288
 31
0.0
  0
LINE
  5
3A21
  8
YODOROGO
 10
31533.60434129191
 20
1811.749496429288
 30
0.0
 11
31589.604341291921
 21
1811.749496429288
 31
0.0
  0
LINE
  5
3A22
  8
YODOROGO
 10
31621.604341291939
 20
1987.7494964292871
 30
0.0
 11
31461.60434129191
 21
1987.7494964292871
 31
0.0
  0
LINE
  5
3A23
  8
YODOROGO
 10
31533.60434129191
 20
1915.7494964292871
 30
0.0
 11
31661.604341291939
 21
1915.7494964292871
 31
0.0
  0
LINE
  5
3A24
  8
YODOROGO
 10
31701.604341291939
 20
1875.7494964292871
 30
0.0
 11
31533.60434129191
 21
1875.7494964292871
 31
0.0
  0
LINE
  5
3A25
  8
YODOROGO
 10
31237.604341291921
 20
1779.749496429288
 30
0.0
 11
31349.604341291939
 21
1779.749496429288
 31
0.0
  0
LINE
  5
3A26
  8
YODOROGO
 10
31237.604341291921
 20
1835.7494964292871
 30
0.0
 11
31237.604341291921
 21
1779.749496429288
 31
0.0
  0
LINE
  5
3A27
  8
YODOROGO
 10
31349.604341291939
 20
1835.7494964292871
 30
0.0
 11
31237.604341291921
 21
1835.7494964292871
 31
0.0
  0
LINE
  5
3A28
  8
YODOROGO
 10
31349.604341291939
 20
1779.749496429288
 30
0.0
 11
31349.604341291939
 21
1835.7494964292871
 31
0.0
  0
LINE
  5
3A29
  8
YODOROGO
 10
31533.60434129191
 20
1875.7494964292871
 30
0.0
 11
31533.60434129191
 21
1915.7494964292871
 31
0.0
  0
LINE
  5
3A2A
  8
YODOROGO
 10
31413.604341291921
 20
1707.749496429288
 30
0.0
 11
31413.604341291921
 21
1907.7494964292871
 31
0.0
  0
LINE
  5
3A2B
  8
YODOROGO
 10
31237.604341291921
 20
1707.749496429288
 30
0.0
 11
31413.604341291921
 21
1707.749496429288
 31
0.0
  0
LINE
  5
3A2C
  8
YODOROGO
 10
31413.604341291921
 20
1963.749496429286
 30
0.0
 11
31413.604341291921
 21
2027.749496429288
 31
0.0
  0
ARC
  5
3A2D
  8
YODOROGO
 10
31621.604341291939
 20
2003.749496429285
 30
0.0
 40
15.999999999994539
 50
270.0
 51
0.0000000000081422
  0
LINE
  5
3A2E
  8
YODOROGO
 10
31637.604341291921
 20
2027.749496429288
 30
0.0
 11
31637.604341291921
 21
2003.7494964292871
 31
0.0
  0
LINE
  5
3A2F
  8
YODOROGO
 10
31701.604341291939
 20
2027.749496429288
 30
0.0
 11
31637.604341291921
 21
2027.749496429288
 31
0.0
  0
LINE
  5
3A30
  8
YODOROGO
 10
31701.604341291939
 20
1955.7494964292871
 30
0.0
 11
31701.604341291939
 21
2027.749496429288
 31
0.0
  0
ARC
  5
3A31
  8
YODOROGO
 10
31661.604341291939
 20
1955.7494964292871
 30
0.0
 40
40.0
 50
270.0
 51
0.0
  0
LINE
  5
3A32
  8
YODOROGO
 10
31701.604341291939
 20
1811.749496429288
 30
0.0
 11
31701.604341291939
 21
1875.7494964292871
 31
0.0
  0
LINE
  5
3A33
  8
YODOROGO
 10
31653.60434129191
 20
1811.749496429288
 30
0.0
 11
31701.604341291939
 21
1811.749496429288
 31
0.0
  0
LINE
  5
3A37
  8
SUNPOU
  6
CONTINUOUS
 62
     4
 10
14019.66048549998
 20
20194.226823000001
 30
0.0
 11
14019.66048549998
 21
20744.232102000031
 31
0.0
  0
LINE
  5
3A38
  8
SUNPOU
  6
CONTINUOUS
 62
     4
 10
13934.16048549998
 20
20664.232102000031
 30
0.0
 11
13694.16048549998
 21
20664.232102000031
 31
0.0
  0
LINE
  5
3A39
  8
SUNPOU
  6
CONTINUOUS
 62
     4
 10
14016.66048549998
 20
20664.232102000031
 30
0.0
 11
14256.66048549998
 21
20664.232102000031
 31
0.0
  0
LINE
  5
3A3A
  8
SUNPOU
  6
CONTINUOUS
 62
     4
 10
13934.16048549998
 20
20664.232102000031
 30
0.0
 11
14016.66048549998
 21
20664.232102000031
 31
0.0
  0
LINE
  5
3A3B
  8
SUNPOU
  6
CONTINUOUS
 62
     4
 10
12067.66048549998
 20
20664.232102000031
 30
0.0
 11
13934.16048549998
 21
20664.232102000031
 31
0.0
  0
LINE
  5
3A3C
  8
SUNPOU
  6
CONTINUOUS
 62
     4
 10
9064.1604854999969
 20
20194.226823000001
 30
0.0
 11
9064.1604854999969
 21
20744.232102000031
 31
0.0
  0
LINE
  5
3A3D
  8
SUNPOU
  6
CONTINUOUS
 62
     4
 10
9149.6604854999987
 20
20664.232102000031
 30
0.0
 11
9389.6604854999969
 21
20664.232102000031
 31
0.0
  0
LINE
  5
3A3E
  8
SUNPOU
  6
CONTINUOUS
 62
     4
 10
9067.1604854999969
 20
20664.232102000031
 30
0.0
 11
8827.1604854999969
 21
20664.232102000031
 31
0.0
  0
LINE
  5
3A3F
  8
SUNPOU
  6
CONTINUOUS
 62
     4
 10
9149.6604854999987
 20
20664.232102000031
 30
0.0
 11
9067.1604854999969
 21
20664.232102000031
 31
0.0
  0
LINE
  5
3A40
  8
SUNPOU
  6
CONTINUOUS
 62
     4
 10
12067.660485500001
 20
20664.232102000031
 30
0.0
 11
9149.6604854999987
 21
20664.232102000031
 31
0.0
  0
LINE
  5
3A41
  8
SUNPOU
  6
CONTINUOUS
 62
     4
 10
8987.1574454999864
 20
14213.735599
 30
0.0
 11
8140.1620244999867
 21
14213.735599
 31
0.0
  0
LINE
  5
3A42
  8
SUNPOU
  6
CONTINUOUS
 62
     4
 10
8220.1620244999885
 20
14406.230913999991
 30
0.0
 11
8220.1620244999885
 21
14213.735599
 31
0.0
  0
LINE
  5
3A43
  8
SUNPOU
  6
CONTINUOUS
 62
     4
 10
8220.1620244999885
 20
17324.230914
 30
0.0
 11
8220.1620244999885
 21
14406.230913999991
 31
0.0
  0
LINE
  5
3A44
  8
SUNPOU
  6
CONTINUOUS
 62
     4
 10
8987.1574454999864
 20
20104.226823000012
 30
0.0
 11
8540.1620244999904
 21
20104.226823000012
 31
0.0
  0
LINE
  5
3A45
  8
SUNPOU
  6
CONTINUOUS
 62
     4
 10
8987.1618004999873
 20
20114.226823000001
 30
0.0
 11
8540.1620244999904
 21
20114.226823000001
 31
0.0
  0
LINE
  5
3A46
  8
SUNPOU
  6
CONTINUOUS
 62
     4
 10
8620.1620244999885
 20
20104.226823000012
 30
0.0
 11
8620.1620244999885
 21
19864.22682299999
 31
0.0
  0
LINE
  5
3A47
  8
SUNPOU
  6
CONTINUOUS
 62
     4
 10
8620.1620244999885
 20
20114.226823000001
 30
0.0
 11
8620.1620244999885
 21
20354.226823000012
 31
0.0
  0
LINE
  5
3A48
  8
SUNPOU
  6
CONTINUOUS
 62
     4
 10
8620.1620244999885
 20
20104.226823000012
 30
0.0
 11
8620.1620244999885
 21
20114.226823000001
 31
0.0
  0
LINE
  5
3A49
  8
SUNPOU
  6
CONTINUOUS
 62
     4
 10
8987.1618004999873
 20
20114.226823000001
 30
0.0
 11
8140.1620244999867
 21
20114.226823000001
 31
0.0
  0
LINE
  5
3A4A
  8
SUNPOU
  6
CONTINUOUS
 62
     4
 10
8220.1620244999885
 20
19891.730914
 30
0.0
 11
8220.1620244999885
 21
20114.226823000001
 31
0.0
  0
LINE
  5
3A4B
  8
SUNPOU
  6
CONTINUOUS
 62
     4
 10
8220.1620244999885
 20
17324.230914
 30
0.0
 11
8220.1620244999885
 21
19891.730914
 31
0.0
  0
LINE
  5
3A4C
  8
SUNPOU
  6
CONTINUOUS
 62
     4
 10
22713.118479499979
 20
20014.229199000009
 30
0.0
 11
22713.118479499979
 21
20744.232102000031
 31
0.0
  0
LINE
  5
3A4D
  8
SUNPOU
  6
CONTINUOUS
 62
     4
 10
23120.61847949999
 20
20014.229199000009
 30
0.0
 11
23120.61847949999
 21
20744.232102000031
 31
0.0
  0
LINE
  5
3A4E
  8
SUNPOU
  6
CONTINUOUS
 62
     4
 10
22713.118479499979
 20
20664.232102000031
 30
0.0
 11
23120.61847949999
 21
20664.232102000031
 31
0.0
  0
LINE
  5
3A4F
  8
SUNPOU
  6
CONTINUOUS
 62
     4
 10
23120.61847949999
 20
20014.229199000009
 30
0.0
 11
23120.61847949999
 21
20744.232102000031
 31
0.0
  0
LINE
  5
3A50
  8
SUNPOU
  6
CONTINUOUS
 62
     4
 10
23821.61847949999
 20
20014.229199000009
 30
0.0
 11
23821.61847949999
 21
20744.232102000031
 31
0.0
  0
LINE
  5
3A51
  8
SUNPOU
  6
CONTINUOUS
 62
     4
 10
23120.61847949999
 20
20664.232102000031
 30
0.0
 11
23821.61847949999
 21
20664.232102000031
 31
0.0
  0
LINE
  5
3A52
  8
SUNPOU
  6
CONTINUOUS
 62
     4
 10
20553.118479500001
 20
20014.229199000009
 30
0.0
 11
20553.118479500001
 21
20744.232102000031
 31
0.0
  0
LINE
  5
3A53
  8
SUNPOU
  6
CONTINUOUS
 62
     4
 10
19795.11847949999
 20
20014.229199000009
 30
0.0
 11
19795.11847949999
 21
20744.232102000031
 31
0.0
  0
LINE
  5
3A54
  8
SUNPOU
  6
CONTINUOUS
 62
     4
 10
20553.118479500001
 20
20664.232102000031
 30
0.0
 11
19795.11847949999
 21
20664.232102000031
 31
0.0
  0
LINE
  5
3A55
  8
SUNPOU
  6
CONTINUOUS
 62
     4
 10
24702.11676349998
 20
19484.230914
 30
0.0
 11
25752.11808349999
 21
19484.230914
 31
0.0
  0
LINE
  5
3A56
  8
SUNPOU
  6
CONTINUOUS
 62
     4
 10
25552.11808349999
 20
19891.730914
 30
0.0
 11
25752.11808349999
 21
19891.730914
 31
0.0
  0
LINE
  5
3A57
  8
SUNPOU
  6
CONTINUOUS
 62
     4
 10
25672.11808349999
 20
19484.230914
 30
0.0
 11
25672.11808349999
 21
19891.730914
 31
0.0
  0
LINE
  5
3A58
  8
SUNPOU
  6
CONTINUOUS
 62
     4
 10
19795.11847949999
 20
13700.467479999999
 30
0.0
 11
19795.11847949999
 21
13354.78283
 31
0.0
  0
LINE
  5
3A59
  8
SUNPOU
  6
CONTINUOUS
 62
     4
 10
19752.616236499991
 20
14283.733619000001
 30
0.0
 11
19752.616236499991
 21
13354.78283
 31
0.0
  0
LINE
  5
3A5A
  8
SUNPOU
  6
CONTINUOUS
 62
     4
 10
19795.11847949999
 20
13434.78283
 30
0.0
 11
20035.118479500001
 21
13434.78283
 31
0.0
  0
LINE
  5
3A5B
  8
SUNPOU
  6
CONTINUOUS
 62
     4
 10
19752.616236499991
 20
13434.78283
 30
0.0
 11
19512.616236499991
 21
13434.78283
 31
0.0
  0
LINE
  5
3A5C
  8
SUNPOU
  6
CONTINUOUS
 62
     4
 10
19795.11847949999
 20
13434.78283
 30
0.0
 11
19752.616236499991
 21
13434.78283
 31
0.0
  0
LINE
  5
3A5D
  8
SUNPOU
  6
CONTINUOUS
 62
     4
 10
24579.618479500001
 20
13700.467479999999
 30
0.0
 11
24579.618479500001
 21
13354.78283
 31
0.0
  0
LINE
  5
3A5E
  8
SUNPOU
  6
CONTINUOUS
 62
     4
 10
24622.1207225
 20
14283.733619000001
 30
0.0
 11
24622.1207225
 21
13354.78283
 31
0.0
  0
LINE
  5
3A5F
  8
SUNPOU
  6
CONTINUOUS
 62
     4
 10
24579.618479500001
 20
13434.78283
 30
0.0
 11
24339.618479500001
 21
13434.78283
 31
0.0
  0
LINE
  5
3A60
  8
SUNPOU
  6
CONTINUOUS
 62
     4
 10
24622.1207225
 20
13434.78283
 30
0.0
 11
24862.1207225
 21
13434.78283
 31
0.0
  0
LINE
  5
3A61
  8
SUNPOU
  6
CONTINUOUS
 62
     4
 10
24579.618479500001
 20
13434.78283
 30
0.0
 11
24622.1207225
 21
13434.78283
 31
0.0
  0
LINE
  5
3A62
  8
2-0
  6
CONTINUOUS
 62
     3
 10
22670.61847949999
 20
14363.730913999991
 30
0.0
 11
22755.61847949999
 21
14363.730913999991
 31
0.0
  0
LINE
  5
3A63
  8
2-0
  6
CONTINUOUS
 62
     3
 10
22755.61847949999
 20
14363.730913999991
 30
0.0
 11
22755.61847949999
 21
14448.730913999991
 31
0.0
  0
LINE
  5
3A64
  8
2-0
  6
CONTINUOUS
 62
     3
 10
22755.61847949999
 20
14448.730913999991
 30
0.0
 11
22670.61847949999
 21
14448.730913999991
 31
0.0
  0
LINE
  5
3A65
  8
2-0
  6
CONTINUOUS
 62
     3
 10
22670.61847949999
 20
14448.730913999991
 30
0.0
 11
22670.61847949999
 21
14363.730913999991
 31
0.0
  0
LINE
  5
3A66
  8
SUNPOU
  6
CONTINUOUS
 62
     4
 10
24579.618479500001
 20
13700.467479999999
 30
0.0
 11
24579.618479500001
 21
13354.78283
 31
0.0
  0
LINE
  5
3A67
  8
SUNPOU
  6
CONTINUOUS
 62
     4
 10
24537.116236499991
 20
14283.733619000001
 30
0.0
 11
24537.116236499991
 21
13354.78283
 31
0.0
  0
LINE
  5
3A68
  8
SUNPOU
  6
CONTINUOUS
 62
     4
 10
24579.618479500001
 20
13434.78283
 30
0.0
 11
24819.618479500001
 21
13434.78283
 31
0.0
  0
LINE
  5
3A69
  8
SUNPOU
  6
CONTINUOUS
 62
     4
 10
24537.116236499991
 20
13434.78283
 30
0.0
 11
24297.116236499991
 21
13434.78283
 31
0.0
  0
LINE
  5
3A6A
  8
SUNPOU
  6
CONTINUOUS
 62
     4
 10
24579.618479500001
 20
13434.78283
 30
0.0
 11
24537.116236499991
 21
13434.78283
 31
0.0
  0
LINE
  5
3A6B
  8
SUNPOU
  6
CONTINUOUS
 62
     4
 10
19795.11847949999
 20
13700.467479999999
 30
0.0
 11
19795.11847949999
 21
13354.78283
 31
0.0
  0
LINE
  5
3A6C
  8
SUNPOU
  6
CONTINUOUS
 62
     4
 10
19837.620722499982
 20
14283.733619000001
 30
0.0
 11
19837.620722499982
 21
13354.78283
 31
0.0
  0
LINE
  5
3A6D
  8
SUNPOU
  6
CONTINUOUS
 62
     4
 10
19795.11847949999
 20
13434.78283
 30
0.0
 11
19555.11847949999
 21
13434.78283
 31
0.0
  0
LINE
  5
3A6E
  8
SUNPOU
  6
CONTINUOUS
 62
     4
 10
19837.620722499982
 20
13434.78283
 30
0.0
 11
20077.620722499982
 21
13434.78283
 31
0.0
  0
LINE
  5
3A6F
  8
SUNPOU
  6
CONTINUOUS
 62
     4
 10
19795.11847949999
 20
13434.78283
 30
0.0
 11
19837.620722499982
 21
13434.78283
 31
0.0
  0
LINE
  5
3A70
  8
SUNPOU
  6
CONTINUOUS
 62
     4
 10
19752.616236499991
 20
14283.733619000001
 30
0.0
 11
19752.616236499991
 21
12954.78283
 31
0.0
  0
LINE
  5
3A71
  8
SUNPOU
  6
CONTINUOUS
 62
     4
 10
24622.1207225
 20
14283.733619000001
 30
0.0
 11
24622.1207225
 21
12954.78283
 31
0.0
  0
LINE
  5
3A72
  8
SUNPOU
  6
CONTINUOUS
 62
     4
 10
19752.616236499991
 20
13034.78283
 30
0.0
 11
24622.1207225
 21
13034.78283
 31
0.0
  0
LINE
  5
3A73
  8
SUNPOU
  6
CONTINUOUS
 62
     4
 10
24702.116763499991
 20
15164.230913999991
 30
0.0
 11
25752.11808349999
 21
15164.230913999991
 31
0.0
  0
LINE
  5
3A74
  8
SUNPOU
  6
CONTINUOUS
 62
     4
 10
25552.11808349999
 20
14406.230913999991
 30
0.0
 11
25752.11808349999
 21
14406.230913999991
 31
0.0
  0
LINE
  5
3A75
  8
SUNPOU
  6
CONTINUOUS
 62
     4
 10
25672.11808349999
 20
15164.230913999991
 30
0.0
 11
25672.11808349999
 21
14406.230913999991
 31
0.0
  0
LINE
  5
3A76
  8
SUNPOU
  6
CONTINUOUS
 62
     4
 10
24702.116763499991
 20
15865.471425500011
 30
0.0
 11
25752.11808349999
 21
15865.471425500011
 31
0.0
  0
LINE
  5
3A77
  8
SUNPOU
  6
CONTINUOUS
 62
     4
 10
24702.116763499991
 20
15164.230913999991
 30
0.0
 11
25752.11808349999
 21
15164.230913999991
 31
0.0
  0
LINE
  5
3A78
  8
SUNPOU
  6
CONTINUOUS
 62
     4
 10
25672.11808349999
 20
15865.471425500011
 30
0.0
 11
25672.11808349999
 21
15164.230913999991
 31
0.0
  0
LINE
  5
3A79
  8
SUNPOU
  6
CONTINUOUS
 62
     4
 10
24702.116763499991
 20
16566.230914
 30
0.0
 11
25752.11808349999
 21
16566.230914
 31
0.0
  0
LINE
  5
3A7A
  8
SUNPOU
  6
CONTINUOUS
 62
     4
 10
24702.116763499991
 20
15865.471425500011
 30
0.0
 11
25752.11808349999
 21
15865.471425500011
 31
0.0
  0
LINE
  5
3A7B
  8
SUNPOU
  6
CONTINUOUS
 62
     4
 10
25672.11808349999
 20
16566.230914
 30
0.0
 11
25672.11808349999
 21
15865.471425500011
 31
0.0
  0
LINE
  5
3A7C
  8
SUNPOU
  6
CONTINUOUS
 62
     4
 10
25552.11808349999
 20
17324.230914
 30
0.0
 11
25752.11808349999
 21
17324.230914
 31
0.0
  0
LINE
  5
3A7D
  8
SUNPOU
  6
CONTINUOUS
 62
     4
 10
24702.116763499991
 20
16566.230914
 30
0.0
 11
25752.11808349999
 21
16566.230914
 31
0.0
  0
LINE
  5
3A7E
  8
SUNPOU
  6
CONTINUOUS
 62
     4
 10
25672.11808349999
 20
17324.230914
 30
0.0
 11
25672.11808349999
 21
16566.230914
 31
0.0
  0
LINE
  5
3A7F
  8
SUNPOU
  6
CONTINUOUS
 62
     4
 10
24702.116763499991
 20
18082.230914
 30
0.0
 11
25752.11808349999
 21
18082.230914
 31
0.0
  0
LINE
  5
3A80
  8
SUNPOU
  6
CONTINUOUS
 62
     4
 10
25552.11808349999
 20
17324.230914
 30
0.0
 11
25752.11808349999
 21
17324.230914
 31
0.0
  0
LINE
  5
3A81
  8
SUNPOU
  6
CONTINUOUS
 62
     4
 10
25672.11808349999
 20
18082.230914
 30
0.0
 11
25672.11808349999
 21
17324.230914
 31
0.0
  0
LINE
  5
3A82
  8
SUNPOU
  6
CONTINUOUS
 62
     4
 10
24702.116763499991
 20
18783.230914
 30
0.0
 11
25752.11808349999
 21
18783.230914
 31
0.0
  0
LINE
  5
3A83
  8
SUNPOU
  6
CONTINUOUS
 62
     4
 10
24702.116763499991
 20
18082.230914
 30
0.0
 11
25752.11808349999
 21
18082.230914
 31
0.0
  0
LINE
  5
3A84
  8
SUNPOU
  6
CONTINUOUS
 62
     4
 10
25672.11808349999
 20
18783.230914
 30
0.0
 11
25672.11808349999
 21
18082.230914
 31
0.0
  0
LINE
  5
3A85
  8
SUNPOU
  6
CONTINUOUS
 62
     4
 10
24702.116763499991
 20
19484.230914
 30
0.0
 11
25752.11808349999
 21
19484.230914
 31
0.0
  0
LINE
  5
3A86
  8
SUNPOU
  6
CONTINUOUS
 62
     4
 10
24702.116763499991
 20
18783.230914
 30
0.0
 11
25752.11808349999
 21
18783.230914
 31
0.0
  0
LINE
  5
3A87
  8
SUNPOU
  6
CONTINUOUS
 62
     4
 10
25672.11808349999
 20
19484.230914
 30
0.0
 11
25672.11808349999
 21
18783.230914
 31
0.0
  0
LINE
  5
3A88
  8
SUNPOU
  6
CONTINUOUS
 62
     4
 10
25552.11808349999
 20
17324.230914
 30
0.0
 11
26152.11808349999
 21
17324.230914
 31
0.0
  0
LINE
  5
3A89
  8
SUNPOU
  6
CONTINUOUS
 62
     4
 10
25552.11808349999
 20
19891.730914
 30
0.0
 11
26152.11808349999
 21
19891.730914
 31
0.0
  0
LINE
  5
3A8A
  8
SUNPOU
  6
CONTINUOUS
 62
     4
 10
26072.11808349999
 20
17324.230914
 30
0.0
 11
26072.11808349999
 21
19891.730914
 31
0.0
  0
LINE
  5
3A8B
  8
SUNPOU
  6
CONTINUOUS
 62
     4
 10
25552.11808349999
 20
14406.230913999991
 30
0.0
 11
26152.11808349999
 21
14406.230913999991
 31
0.0
  0
LINE
  5
3A8C
  8
SUNPOU
  6
CONTINUOUS
 62
     4
 10
25552.11808349999
 20
17324.230914
 30
0.0
 11
26152.11808349999
 21
17324.230914
 31
0.0
  0
LINE
  5
3A8D
  8
SUNPOU
  6
CONTINUOUS
 62
     4
 10
26072.11808349999
 20
14406.230913999991
 30
0.0
 11
26072.11808349999
 21
17324.230914
 31
0.0
  0
LINE
  5
3A8E
  8
SUNPOU
  6
CONTINUOUS
 62
     4
 10
24702.116763499991
 20
19934.228209000001
 30
0.0
 11
26552.11808349999
 21
19934.228209000001
 31
0.0
  0
LINE
  5
3A8F
  8
SUNPOU
  6
CONTINUOUS
 62
     4
 10
24702.116763499991
 20
14363.733619000001
 30
0.0
 11
26552.11808349999
 21
14363.733619000001
 31
0.0
  0
LINE
  5
3A90
  8
SUNPOU
  6
CONTINUOUS
 62
     4
 10
26472.11808349999
 20
19934.228209000001
 30
0.0
 11
26472.11808349999
 21
14363.733619000001
 31
0.0
  0
LINE
  5
3A91
  8
SUNPOU
  6
CONTINUOUS
 62
     4
 10
25552.11808349999
 20
19891.730914
 30
0.0
 11
26152.11808349999
 21
19891.730914
 31
0.0
  0
LINE
  5
3A92
  8
SUNPOU
  6
CONTINUOUS
 62
     4
 10
24702.116763499991
 20
19934.228209000001
 30
0.0
 11
26152.11808349999
 21
19934.228209000001
 31
0.0
  0
LINE
  5
3A93
  8
SUNPOU
  6
CONTINUOUS
 62
     4
 10
26072.11808349999
 20
19891.730914
 30
0.0
 11
26072.11808349999
 21
19651.730914
 31
0.0
  0
LINE
  5
3A94
  8
SUNPOU
  6
CONTINUOUS
 62
     4
 10
26072.11808349999
 20
19934.228209000001
 30
0.0
 11
26072.11808349999
 21
20174.228209000001
 31
0.0
  0
LINE
  5
3A95
  8
SUNPOU
  6
CONTINUOUS
 62
     4
 10
26072.11808349999
 20
19891.730914
 30
0.0
 11
26072.11808349999
 21
19934.228209000001
 31
0.0
  0
LINE
  5
3A96
  8
SUNPOU
  6
CONTINUOUS
 62
     4
 10
25552.11808349999
 20
14406.230913999991
 30
0.0
 11
26152.11808349999
 21
14406.230913999991
 31
0.0
  0
LINE
  5
3A97
  8
SUNPOU
  6
CONTINUOUS
 62
     4
 10
24702.116763499991
 20
14363.733619000001
 30
0.0
 11
26152.11808349999
 21
14363.733619000001
 31
0.0
  0
LINE
  5
3A98
  8
SUNPOU
  6
CONTINUOUS
 62
     4
 10
26072.11808349999
 20
14406.230913999991
 30
0.0
 11
26072.11808349999
 21
14646.230913999991
 31
0.0
  0
LINE
  5
3A99
  8
SUNPOU
  6
CONTINUOUS
 62
     4
 10
26072.11808349999
 20
14363.733619000001
 30
0.0
 11
26072.11808349999
 21
14123.733619000001
 31
0.0
  0
LINE
  5
3A9A
  8
SUNPOU
  6
CONTINUOUS
 62
     4
 10
26072.11808349999
 20
14406.230913999991
 30
0.0
 11
26072.11808349999
 21
14363.733619000001
 31
0.0
  0
LINE
  5
3A9B
  8
SUNPOU
  6
CONTINUOUS
 62
     4
 10
23821.61847949999
 20
20014.229199000009
 30
0.0
 11
23821.61847949999
 21
20744.232102000031
 31
0.0
  0
LINE
  5
3A9C
  8
SUNPOU
  6
CONTINUOUS
 62
     4
 10
24579.619469000008
 20
20014.229199000009
 30
0.0
 11
24579.619469000008
 21
20744.232102000031
 31
0.0
  0
LINE
  5
3A9D
  8
SUNPOU
  6
CONTINUOUS
 62
     4
 10
23821.61847949999
 20
20664.232102000031
 30
0.0
 11
24579.619469000008
 21
20664.232102000031
 31
0.0
  0
LINE
  5
3A9E
  8
SUNPOU
  6
CONTINUOUS
 62
     4
 10
24579.618479500001
 20
20014.229199000009
 30
0.0
 11
24579.618479500001
 21
20744.232102000031
 31
0.0
  0
LINE
  5
3A9F
  8
SUNPOU
  6
CONTINUOUS
 62
     4
 10
24622.11478449999
 20
20014.229199000009
 30
0.0
 11
24622.11478449999
 21
20744.232102000031
 31
0.0
  0
LINE
  5
3AA0
  8
SUNPOU
  6
CONTINUOUS
 62
     4
 10
24579.618479500001
 20
20664.232102000031
 30
0.0
 11
24339.618479500001
 21
20664.232102000031
 31
0.0
  0
LINE
  5
3AA1
  8
SUNPOU
  6
CONTINUOUS
 62
     4
 10
24622.11478449999
 20
20664.232102000031
 30
0.0
 11
24862.114784500001
 21
20664.232102000031
 31
0.0
  0
LINE
  5
3AA2
  8
SUNPOU
  6
CONTINUOUS
 62
     4
 10
24579.618479500001
 20
20664.232102000031
 30
0.0
 11
24622.11478449999
 21
20664.232102000031
 31
0.0
  0
LINE
  5
3AA3
  8
SUNPOU
  6
CONTINUOUS
 62
     4
 10
19795.11847949999
 20
20014.229199000009
 30
0.0
 11
19795.11847949999
 21
20744.232102000031
 31
0.0
  0
LINE
  5
3AA4
  8
SUNPOU
  6
CONTINUOUS
 62
     4
 10
19752.622174499989
 20
20014.229199000009
 30
0.0
 11
19752.622174499989
 21
20744.232102000031
 31
0.0
  0
LINE
  5
3AA5
  8
SUNPOU
  6
CONTINUOUS
 62
     4
 10
19795.11847949999
 20
20664.232102000031
 30
0.0
 11
20035.118479500001
 21
20664.232102000031
 31
0.0
  0
LINE
  5
3AA6
  8
SUNPOU
  6
CONTINUOUS
 62
     4
 10
19752.622174499989
 20
20664.232102000031
 30
0.0
 11
19512.622174499978
 21
20664.232102000031
 31
0.0
  0
LINE
  5
3AA7
  8
SUNPOU
  6
CONTINUOUS
 62
     4
 10
19795.11847949999
 20
20664.232102000031
 30
0.0
 11
19752.622174499989
 21
20664.232102000031
 31
0.0
  0
LINE
  5
3AA8
  8
SUNPOU
  6
CONTINUOUS
 62
     4
 10
21955.11847949999
 20
20014.229199000009
 30
0.0
 11
21955.11847949999
 21
20744.232102000031
 31
0.0
  0
LINE
  5
3AA9
  8
SUNPOU
  6
CONTINUOUS
 62
     4
 10
22713.119469000001
 20
20014.229199000009
 30
0.0
 11
22713.119469000001
 21
20744.232102000031
 31
0.0
  0
LINE
  5
3AAA
  8
SUNPOU
  6
CONTINUOUS
 62
     4
 10
21955.11847949999
 20
20664.232102000031
 30
0.0
 11
22713.119469000001
 21
20664.232102000031
 31
0.0
  0
LINE
  5
3AAB
  8
SUNPOU
  6
CONTINUOUS
 62
     4
 10
21254.11847949999
 20
20014.229199000009
 30
0.0
 11
21254.11847949999
 21
20744.232102000031
 31
0.0
  0
LINE
  5
3AAC
  8
SUNPOU
  6
CONTINUOUS
 62
     4
 10
21955.11847949999
 20
20014.229199000009
 30
0.0
 11
21955.11847949999
 21
20744.232102000031
 31
0.0
  0
LINE
  5
3AAD
  8
SUNPOU
  6
CONTINUOUS
 62
     4
 10
21254.11847949999
 20
20664.232102000031
 30
0.0
 11
21955.11847949999
 21
20664.232102000031
 31
0.0
  0
LINE
  5
3AAE
  8
SUNPOU
  6
CONTINUOUS
 62
     4
 10
20553.118479500001
 20
20014.229199000009
 30
0.0
 11
20553.118479500001
 21
20744.232102000031
 31
0.0
  0
LINE
  5
3AAF
  8
SUNPOU
  6
CONTINUOUS
 62
     4
 10
21254.11847949999
 20
20014.229199000009
 30
0.0
 11
21254.11847949999
 21
20744.232102000031
 31
0.0
  0
LINE
  5
3AB0
  8
SUNPOU
  6
CONTINUOUS
 62
     4
 10
20553.118479500001
 20
20664.232102000031
 30
0.0
 11
21254.11847949999
 21
20664.232102000031
 31
0.0
  0
LINE
  5
3AB1
  8
SUNPOU
  6
CONTINUOUS
 62
     4
 10
8769.3738785000023
 20
8722.9653796838102
 30
0.0
 11
8769.3738785000023
 21
9843.7812800000029
 31
0.0
  0
LINE
  5
3AB2
  8
SUNPOU
  6
CONTINUOUS
 62
     4
 10
8589.3738785000023
 20
8852.7796040000067
 30
0.0
 11
8589.3738785000023
 21
9843.7812800000029
 31
0.0
  0
LINE
  5
3AB3
  8
SUNPOU
  6
CONTINUOUS
 62
     4
 10
8769.3738785000023
 20
9763.7812800000029
 30
0.0
 11
8589.3738785000023
 21
9763.7812800000029
 31
0.0
  0
LINE
  5
3AB4
  8
SUNPOU
  6
CONTINUOUS
 62
     4
 10
19665.1178205
 20
6615.7796039999957
 30
0.0
 11
18865.119139499991
 21
6615.7796039999957
 31
0.0
  0
LINE
  5
3AB5
  8
SUNPOU
  6
CONTINUOUS
 62
     4
 10
19665.1178205
 20
8507.2796039999957
 30
0.0
 11
18865.119139499991
 21
8507.2796039999957
 31
0.0
  0
LINE
  5
3AB6
  8
SUNPOU
  6
CONTINUOUS
 62
     4
 10
18945.119139499991
 20
6615.7796039999957
 30
0.0
 11
18945.119139499991
 21
8507.2796039999957
 31
0.0
  0
LINE
  5
3AB7
  8
SUNPOU
  6
CONTINUOUS
 62
     4
 10
19665.1178205
 20
6615.7796039999957
 30
0.0
 11
18465.116830499981
 21
6615.7796039999957
 31
0.0
  0
LINE
  5
3AB8
  8
SUNPOU
  6
CONTINUOUS
 62
     4
 10
19632.618084499969
 20
8964.2791089999973
 30
0.0
 11
18465.116830499988
 21
8964.2791089999973
 31
0.0
  0
LINE
  5
3AB9
  8
SUNPOU
  6
CONTINUOUS
 62
     4
 10
18545.116830499981
 20
6615.7796039999957
 30
0.0
 11
18545.116830499988
 21
8964.2791089999973
 31
0.0
  0
LINE
  5
3ACA
  8
SUNPOU
  6
CONTINUOUS
 62
     4
 10
19889.118479499979
 20
6435.7797690000007
 30
0.0
 11
19889.118479499979
 21
5635.7797689999989
 31
0.0
  0
LINE
  5
3ACB
  8
SUNPOU
  6
CONTINUOUS
 62
     4
 10
22619.11847949999
 20
6435.7797690000007
 30
0.0
 11
22619.11847949999
 21
5635.7797689999989
 31
0.0
  0
LINE
  5
3ACC
  8
SUNPOU
  6
CONTINUOUS
 62
     4
 10
19889.118479499979
 20
5715.7797689999998
 30
0.0
 11
22619.11847949999
 21
5715.7797689999998
 31
0.0
  0
LINE
  5
3ACD
  8
SUNPOU
  6
CONTINUOUS
 62
     4
 10
22807.11847949999
 20
6435.7797690000007
 30
0.0
 11
22807.11847949999
 21
5635.7797689999989
 31
0.0
  0
LINE
  5
3ACE
  8
SUNPOU
  6
CONTINUOUS
 62
     4
 10
24485.61847949999
 20
6435.7797690000007
 30
0.0
 11
24485.61847949999
 21
5635.7797689999989
 31
0.0
  0
LINE
  5
3ACF
  8
SUNPOU
  6
CONTINUOUS
 62
     4
 10
22807.11847949999
 20
5715.7797689999998
 30
0.0
 11
24485.61847949999
 21
5715.7797689999998
 31
0.0
  0
LINE
  5
3AD0
  8
SUNPOU
  6
CONTINUOUS
 62
     4
 10
22713.118479499979
 20
6173.1273459999966
 30
0.0
 11
22713.118479499979
 21
5235.7797689999998
 31
0.0
  0
LINE
  5
3AD1
  8
SUNPOU
  6
CONTINUOUS
 62
     4
 10
24579.618479500001
 20
6173.1273459999966
 30
0.0
 11
24579.618479500001
 21
5235.7797689999998
 31
0.0
  0
LINE
  5
3AD2
  8
SUNPOU
  6
CONTINUOUS
 62
     4
 10
22713.118479499979
 20
5315.7797690000016
 30
0.0
 11
24579.618479500001
 21
5315.7797690000016
 31
0.0
  0
LINE
  5
3AD3
  8
SUNPOU
  6
CONTINUOUS
 62
     4
 10
19795.11847949999
 20
6173.1273459999966
 30
0.0
 11
19795.11847949999
 21
5235.7797689999998
 31
0.0
  0
LINE
  5
3AD4
  8
SUNPOU
  6
CONTINUOUS
 62
     4
 10
22713.118479499979
 20
6173.1273459999966
 30
0.0
 11
22713.118479499979
 21
5235.7797689999998
 31
0.0
  0
LINE
  5
3AD5
  8
SUNPOU
  6
CONTINUOUS
 62
     4
 10
19795.11847949999
 20
5315.7797690000016
 30
0.0
 11
22713.118479499979
 21
5315.7797690000016
 31
0.0
  0
LINE
  5
3AD6
  8
SUNPOU
  6
CONTINUOUS
 62
     4
 10
24579.622438499991
 20
6173.1273459999966
 30
0.0
 11
24579.622438499991
 21
5235.7797689999998
 31
0.0
  0
LINE
  5
3AD7
  8
SUNPOU
  6
CONTINUOUS
 62
     4
 10
24622.122438499991
 20
6435.7797690000007
 30
0.0
 11
24622.122438499991
 21
5235.7797689999998
 31
0.0
  0
LINE
  5
3AD8
  8
SUNPOU
  6
CONTINUOUS
 62
     4
 10
24579.622438499991
 20
5315.7797690000016
 30
0.0
 11
24339.622438499991
 21
5315.7797690000016
 31
0.0
  0
LINE
  5
3AD9
  8
SUNPOU
  6
CONTINUOUS
 62
     4
 10
24622.122438499991
 20
5315.7797690000016
 30
0.0
 11
24862.122438499991
 21
5315.7797690000016
 31
0.0
  0
LINE
  5
3ADA
  8
SUNPOU
  6
CONTINUOUS
 62
     4
 10
24579.622438499991
 20
5315.7797690000016
 30
0.0
 11
24622.122438499991
 21
5315.7797690000016
 31
0.0
  0
LINE
  5
3ADB
  8
SUNPOU
  6
CONTINUOUS
 62
     4
 10
19795.11847949999
 20
6173.1273459999966
 30
0.0
 11
19795.11847949999
 21
5235.7797689999998
 31
0.0
  0
LINE
  5
3ADC
  8
SUNPOU
  6
CONTINUOUS
 62
     4
 10
19752.618479499979
 20
6435.7797690000007
 30
0.0
 11
19752.618479499979
 21
5235.7797689999998
 31
0.0
  0
LINE
  5
3ADD
  8
SUNPOU
  6
CONTINUOUS
 62
     4
 10
19795.11847949999
 20
5315.7797690000016
 30
0.0
 11
20035.118479500001
 21
5315.7797690000016
 31
0.0
  0
LINE
  5
3ADE
  8
SUNPOU
  6
CONTINUOUS
 62
     4
 10
19752.618479499979
 20
5315.7797690000016
 30
0.0
 11
19512.618479499979
 21
5315.7797690000016
 31
0.0
  0
LINE
  5
3ADF
  8
SUNPOU
  6
CONTINUOUS
 62
     4
 10
19795.11847949999
 20
5315.7797690000016
 30
0.0
 11
19752.618479499979
 21
5315.7797690000016
 31
0.0
  0
LINE
  5
3AE0
  8
SUNPOU
  6
CONTINUOUS
 62
     4
 10
19752.618479499979
 20
6435.7797690000007
 30
0.0
 11
19752.618479499979
 21
4835.7799339999983
 31
0.0
  0
LINE
  5
3AE1
  8
SUNPOU
  6
CONTINUOUS
 62
     4
 10
24622.11847949999
 20
6435.7797690000007
 30
0.0
 11
24622.11847949999
 21
4835.7799339999983
 31
0.0
  0
LINE
  5
3AE2
  8
SUNPOU
  6
CONTINUOUS
 62
     4
 10
19752.618479499979
 20
4915.7799339999983
 30
0.0
 11
24622.11847949999
 21
4915.7799339999983
 31
0.0
  0
LINE
  5
3AE3
  8
SUNPOU
  6
CONTINUOUS
 62
     4
 10
14432.373878500001
 20
6615.7796040000021
 30
0.0
 11
15509.87229449999
 21
6615.7796040000021
 31
0.0
  0
LINE
  5
3AE4
  8
SUNPOU
  6
CONTINUOUS
 62
     4
 10
14524.679158099359
 20
8964.279604000003
 30
0.0
 11
15509.87229449999
 21
8964.279604000003
 31
0.0
  0
LINE
  5
3AE5
  8
SUNPOU
  6
CONTINUOUS
 62
     4
 10
15429.87229449999
 20
6615.7796040000021
 30
0.0
 11
15429.87229449999
 21
8964.279604000003
 31
0.0
  0
LINE
  5
3AE6
  8
SUNPOU
  6
CONTINUOUS
 62
     4
 10
8681.8738785000005
 20
6615.7796040000021
 30
0.0
 11
7599.3754605000086
 21
6615.7796040000021
 31
0.0
  0
LINE
  5
3AE7
  8
SUNPOU
  6
CONTINUOUS
 62
     4
 10
8509.3758565000026
 20
8771.7796040000067
 30
0.0
 11
7599.3754605000086
 21
8771.7796040000067
 31
0.0
  0
LINE
  5
3AE8
  8
SUNPOU
  6
CONTINUOUS
 62
     4
 10
7679.3754605000104
 20
6615.7796040000021
 30
0.0
 11
7679.3754605000104
 21
8771.7796040000067
 31
0.0
  0
LINE
  5
3AE9
  8
SUNPOU
  6
CONTINUOUS
 62
     4
 10
8589.3738785000023
 20
8852.7796040000067
 30
0.0
 11
8589.3738785000023
 21
10243.779630000001
 31
0.0
  0
LINE
  5
3AEA
  8
SUNPOU
  6
CONTINUOUS
 62
     4
 10
14489.873878500001
 20
8984.6694274124347
 30
0.0
 11
14489.873878500001
 21
10243.779630000001
 31
0.0
  0
LINE
  5
3AEB
  8
SUNPOU
  6
CONTINUOUS
 62
     4
 10
8589.3738785000023
 20
10163.779630000001
 30
0.0
 11
14489.873878500001
 21
10163.779630000001
 31
0.0
  0
LINE
  5
3AEC
  8
SUNPOU
  6
CONTINUOUS
 62
     4
 10
14339.873878500001
 20
8910.6896680000063
 30
0.0
 11
14339.873878500001
 21
9843.7812800000029
 31
0.0
  0
LINE
  5
3AED
  8
SUNPOU
  6
CONTINUOUS
 62
     4
 10
14489.873878500001
 20
8984.6694274124347
 30
0.0
 11
14489.873878500001
 21
9843.7812800000029
 31
0.0
  0
LINE
  5
3AEE
  8
SUNPOU
  6
CONTINUOUS
 62
     4
 10
14339.873878500001
 20
9763.7812800000029
 30
0.0
 11
14099.873878500001
 21
9763.7812800000029
 31
0.0
  0
LINE
  5
3AEF
  8
SUNPOU
  6
CONTINUOUS
 62
     4
 10
14489.873878500001
 20
9763.7812800000029
 30
0.0
 11
14729.873878500001
 21
9763.7812800000029
 31
0.0
  0
LINE
  5
3AF0
  8
SUNPOU
  6
CONTINUOUS
 62
     4
 10
14339.873878500001
 20
9763.7812800000029
 30
0.0
 11
14489.873878500001
 21
9763.7812800000029
 31
0.0
  0
LINE
  5
3AF1
  8
SUNPOU
  6
CONTINUOUS
 62
     4
 10
8769.3738785000023
 20
8722.9653796838102
 30
0.0
 11
8769.3738785000023
 21
9843.7812800000029
 31
0.0
  0
LINE
  5
3AF2
  8
SUNPOU
  6
CONTINUOUS
 62
     4
 10
14339.873878500001
 20
8910.6896680000063
 30
0.0
 11
14339.873878500001
 21
9843.7812800000029
 31
0.0
  0
LINE
  5
3AF3
  8
SUNPOU
  6
CONTINUOUS
 62
     4
 10
8769.3738785000023
 20
9763.7812800000029
 30
0.0
 11
14339.873878500001
 21
9763.7812800000029
 31
0.0
  0
LINE
  5
3AF4
  8
SUNPOU
  6
CONTINUOUS
 62
     4
 10
8769.3738785000023
 20
6535.7796040000076
 30
0.0
 11
8769.3738785000023
 21
4835.7799340000038
 31
0.0
  0
LINE
  5
3AF5
  8
SUNPOU
  6
CONTINUOUS
 62
     4
 10
14339.873878500001
 20
6535.7796040000076
 30
0.0
 11
14339.873878500001
 21
4835.7799340000038
 31
0.0
  0
LINE
  5
3AF6
  8
SUNPOU
  6
CONTINUOUS
 62
     4
 10
8769.3738785000023
 20
4915.7799340000047
 30
0.0
 11
14339.873878500001
 21
4915.7799340000047
 31
0.0
  0
LINE
  5
3AF7
  8
SUNPOU
  6
CONTINUOUS
 62
     4
 10
14297.373878500001
 20
6173.1273460000039
 30
0.0
 11
14297.373878500001
 21
5235.7797690000043
 31
0.0
  0
LINE
  5
3AF8
  8
SUNPOU
  6
CONTINUOUS
 62
     4
 10
14339.873878500001
 20
6535.7796040000076
 30
0.0
 11
14339.873878500001
 21
5235.7797690000043
 31
0.0
  0
LINE
  5
3AF9
  8
SUNPOU
  6
CONTINUOUS
 62
     4
 10
14297.373878500001
 20
5315.7797690000052
 30
0.0
 11
14057.373878500001
 21
5315.7797690000052
 31
0.0
  0
LINE
  5
3AFA
  8
SUNPOU
  6
CONTINUOUS
 62
     4
 10
14339.873878500001
 20
5315.7797690000052
 30
0.0
 11
14579.873878500001
 21
5315.7797690000052
 31
0.0
  0
LINE
  5
3AFB
  8
SUNPOU
  6
CONTINUOUS
 62
     4
 10
14297.373878500001
 20
5315.7797690000052
 30
0.0
 11
14339.873878500001
 21
5315.7797690000052
 31
0.0
  0
LINE
  5
3AFC
  8
SUNPOU
  6
CONTINUOUS
 62
     4
 10
8811.8738785000005
 20
6173.1273460000039
 30
0.0
 11
8811.8738785000005
 21
5235.7797690000043
 31
0.0
  0
LINE
  5
3AFD
  8
SUNPOU
  6
CONTINUOUS
 62
     4
 10
8769.3738785000023
 20
6535.7796040000076
 30
0.0
 11
8769.3738785000023
 21
5235.7797690000043
 31
0.0
  0
LINE
  5
3AFE
  8
SUNPOU
  6
CONTINUOUS
 62
     4
 10
8811.8738785000005
 20
5315.7797690000052
 30
0.0
 11
9051.8738785000023
 21
5315.7797690000052
 31
0.0
  0
LINE
  5
3AFF
  8
SUNPOU
  6
CONTINUOUS
 62
     4
 10
8769.3738785000023
 20
5315.7797690000052
 30
0.0
 11
8529.3738785000023
 21
5315.7797690000052
 31
0.0
  0
LINE
  5
3B00
  8
SUNPOU
  6
CONTINUOUS
 62
     4
 10
8811.8738785000005
 20
5315.7797690000052
 30
0.0
 11
8769.3738785000023
 21
5315.7797690000052
 31
0.0
  0
LINE
  5
3B01
  8
SUNPOU
  6
CONTINUOUS
 62
     4
 10
11379.373878500001
 20
6173.1273460000039
 30
0.0
 11
11379.373878500001
 21
5235.7797690000043
 31
0.0
  0
LINE
  5
3B02
  8
SUNPOU
  6
CONTINUOUS
 62
     4
 10
8811.8738785000005
 20
6173.1273460000039
 30
0.0
 11
8811.8738785000005
 21
5235.7797690000043
 31
0.0
  0
LINE
  5
3B03
  8
SUNPOU
  6
CONTINUOUS
 62
     4
 10
11379.373878500001
 20
5315.7797690000052
 30
0.0
 11
8811.8738785000005
 21
5315.7797690000052
 31
0.0
  0
LINE
  5
3B04
  8
SUNPOU
  6
CONTINUOUS
 62
     4
 10
11379.373878500001
 20
6173.1273460000039
 30
0.0
 11
11379.373878500001
 21
5235.7797690000043
 31
0.0
  0
LINE
  5
3B05
  8
SUNPOU
  6
CONTINUOUS
 62
     4
 10
14297.373878500001
 20
6173.1273460000039
 30
0.0
 11
14297.373878500001
 21
5235.7797690000043
 31
0.0
  0
LINE
  5
3B06
  8
SUNPOU
  6
CONTINUOUS
 62
     4
 10
11379.373878500001
 20
5315.7797690000052
 30
0.0
 11
14297.373878500001
 21
5315.7797690000052
 31
0.0
  0
TEXT
  5
3B07
  8
0
  6
CONTINUOUS
 62
     7
 10
12571.707211833331
 20
5395.7797690000043
 30
0.0
 40
160.0
  1
2918
  0
TEXT
  5
3B08
  8
0
  6
CONTINUOUS
 62
     7
 10
9695.6238785000023
 20
5395.7797690000043
 30
0.0
 40
160.0
  1
2567.5
  0
TEXT
  5
3B09
  8
0
  6
CONTINUOUS
 62
     7
 10
8172.2001694036962
 20
5395.7797690000043
 30
0.0
 40
160.0
  1
42.5
  0
TEXT
  5
3B0A
  8
0
  6
CONTINUOUS
 62
     7
 10
14478.192515809809
 20
5395.7797690000043
 30
0.0
 40
160.0
  1
42.5
  0
TEXT
  5
3B0B
  8
0
  6
CONTINUOUS
 62
     7
 10
11167.957211833331
 20
4995.7799340000047
 30
0.0
 40
160.0
  1
5570.5
  0
TEXT
  5
3B0C
  8
0
  6
CONTINUOUS
 62
     7
 10
11167.957211833331
 20
9843.7812800000029
 30
0.0
 40
160.0
  1
5570.5
  0
TEXT
  5
3B0D
  8
0
  6
CONTINUOUS
 62
     7
 10
14556.54054516667
 20
9843.7812800000029
 30
0.0
 40
160.0
  1
150
  0
TEXT
  5
3B0E
  8
0
  6
CONTINUOUS
 62
     7
 10
11166.29054516667
 20
10243.779630000001
 30
0.0
 40
160.0
  1
5900.5
  0
TEXT
  5
3B0F
  8
0
  6
CONTINUOUS
 62
     7
 10
7599.3754605000086
 20
6915.112937333337
 30
0.0
 40
160.0
  1
2156（2396）
 50
90.0
  0
TEXT
  5
3B10
  8
0
  6
CONTINUOUS
 62
     7
 10
15349.87229449999
 20
6771.362937333337
 30
0.0
 40
160.0
  1
2348.5（2588.5）
 50
90.0
  0
TEXT
  5
3B11
  8
0
  6
CONTINUOUS
 62
     7
 10
21787.368479499979
 20
4995.7799339999983
 30
0.0
 40
160.0
  1
4869.5
  0
TEXT
  5
3B12
  8
0
  6
CONTINUOUS
 62
     7
 10
19186.57948924115
 20
5395.7797689999998
 30
0.0
 40
160.0
  1
42.5
  0
TEXT
  5
3B13
  8
0
  6
CONTINUOUS
 62
     7
 10
24708.161428758849
 20
5395.7797689999998
 30
0.0
 40
160.0
  1
42.5
  0
TEXT
  5
3B14
  8
0
  6
CONTINUOUS
 62
     7
 10
20987.451812833318
 20
5395.7797689999998
 30
0.0
 40
160.0
  1
2918
  0
TEXT
  5
3B15
  8
0
  6
CONTINUOUS
 62
     7
 10
23273.035146166661
 20
5395.7797689999998
 30
0.0
 40
160.0
  1
1866.5
  0
TEXT
  5
3B16
  8
0
  6
CONTINUOUS
 62
     7
 10
23182.36847949999
 20
6062.446435666664
 30
0.0
 40
160.0
  1
有効開口巾
  0
TEXT
  5
3B17
  8
0
  6
CONTINUOUS
 62
     7
 10
23273.035146166661
 20
5795.7797690000007
 30
0.0
 40
160.0
  1
1678.5
  0
TEXT
  5
3B18
  8
0
  6
CONTINUOUS
 62
     7
 10
20446.11847949999
 20
5795.7797690000007
 30
0.0
 40
160.0
  1
有効開口巾 2730
  0
TEXT
  5
3B1D
  8
0
  6
CONTINUOUS
 62
     7
 10
18465.116830499981
 20
6771.3626898333332
 30
0.0
 40
160.0
  1
2348.5（2588.5）
 50
90.0
  0
TEXT
  5
3B1E
  8
0
  6
CONTINUOUS
 62
     7
 10
18865.119139499991
 20
6679.7588422912713
 30
0.0
 40
160.0
  1
有効開口高サ 1891.5
 50
90.0
  0
TEXT
  5
3B1F
  8
0
  6
CONTINUOUS
 62
     7
 10
8128.4205078486357
 20
9843.7812800000029
 30
0.0
 40
160.0
  1
180
  0
TEXT
  5
3B20
  8
0
  6
CONTINUOUS
 62
     7
 10
20730.285146166661
 20
20744.232102000031
 30
0.0
 40
160.0
  1
701
  0
TEXT
  5
3B21
  8
0
  6
CONTINUOUS
 62
     7
 10
21431.285146166661
 20
20744.232102000031
 30
0.0
 40
160.0
  1
701
  0
TEXT
  5
3B22
  8
0
  6
CONTINUOUS
 62
     7
 10
22120.785640916671
 20
20744.232102000031
 30
0.0
 40
160.0
  1
758
  0
TEXT
  5
3B23
  8
0
  6
CONTINUOUS
 62
     7
 10
19192.30649997119
 20
20744.232102000031
 30
0.0
 40
160.0
  1
42.5
  0
TEXT
  5
3B24
  8
0
  6
CONTINUOUS
 62
     7
 10
24702.43045902879
 20
20744.232102000031
 30
0.0
 40
160.0
  1
42.5
  0
TEXT
  5
3B25
  8
0
  6
CONTINUOUS
 62
     7
 10
23987.285640916671
 20
20744.232102000031
 30
0.0
 40
160.0
  1
758
  0
TEXT
  5
3B26
  8
0
  6
CONTINUOUS
 62
     7
 10
25992.11808349999
 20
13790.1773826032
 30
0.0
 40
160.0
  1
42.5
 50
90.0
  0
TEXT
  5
3B27
  8
0
  6
CONTINUOUS
 62
     7
 10
25992.11808349999
 20
20027.784445396788
 30
0.0
 40
160.0
  1
42.5
 50
90.0
  0
TEXT
  5
3B28
  8
0
  6
CONTINUOUS
 62
     7
 10
26392.11808349999
 20
16762.314247333339
 30
0.0
 40
160.0
  1
5570.5
 50
90.0
  0
TEXT
  5
3B29
  8
0
  6
CONTINUOUS
 62
     7
 10
25992.11808349999
 20
15598.56424733333
 30
0.0
 40
160.0
  1
2918
 50
90.0
  0
TEXT
  5
3B2A
  8
0
  6
CONTINUOUS
 62
     7
 10
25992.11808349999
 20
18207.980914
 30
0.0
 40
160.0
  1
2567.5
 50
90.0
  0
TEXT
  5
3B2B
  8
0
  6
CONTINUOUS
 62
     7
 10
25592.11808349999
 20
18960.397580666671
 30
0.0
 40
160.0
  1
701
 50
90.0
  0
TEXT
  5
3B2C
  8
0
  6
CONTINUOUS
 62
     7
 10
25592.11808349999
 20
18259.397580666671
 30
0.0
 40
160.0
  1
701
 50
90.0
  0
TEXT
  5
3B2D
  8
0
  6
CONTINUOUS
 62
     7
 10
25592.11808349999
 20
17489.897580666671
 30
0.0
 40
160.0
  1
758
 50
90.0
  0
TEXT
  5
3B2E
  8
0
  6
CONTINUOUS
 62
     7
 10
25592.11808349999
 20
16731.897580666671
 30
0.0
 40
160.0
  1
758
 50
90.0
  0
TEXT
  5
3B2F
  8
0
  6
CONTINUOUS
 62
     7
 10
25592.11808349999
 20
16042.51783641668
 30
0.0
 40
160.0
  1
701
 50
90.0
  0
TEXT
  5
3B30
  8
0
  6
CONTINUOUS
 62
     7
 10
25592.11808349999
 20
15341.51783641668
 30
0.0
 40
160.0
  1
701
 50
90.0
  0
TEXT
  5
3B31
  8
0
  6
CONTINUOUS
 62
     7
 10
25592.11808349999
 20
14571.89758066666
 30
0.0
 40
160.0
  1
758
 50
90.0
  0
TEXT
  5
3B32
  8
0
  6
CONTINUOUS
 62
     7
 10
21787.368479500001
 20
13114.78283
 30
0.0
 40
160.0
  1
4869.5
  0
TEXT
  5
3B33
  8
0
  6
CONTINUOUS
 62
     7
 10
19913.172151882081
 20
13514.78283
 30
0.0
 40
160.0
  1
42.5
  0
TEXT
  5
3B34
  8
0
  6
CONTINUOUS
 62
     7
 10
23981.564807117891
 20
13514.78283
 30
0.0
 40
160.0
  1
42.5
  0
TEXT
  5
3B35
  8
0
  6
CONTINUOUS
 62
     7
 10
24697.672151882089
 20
13514.78283
 30
0.0
 40
160.0
  1
42.5
  0
TEXT
  5
3B36
  8
0
  6
CONTINUOUS
 62
     7
 10
19197.06480711788
 20
13514.78283
 30
0.0
 40
160.0
  1
42.5
  0
TEXT
  5
3B37
  8
0
  6
CONTINUOUS
 62
     7
 10
25952.11808349999
 20
19193.608881643198
 30
0.0
 40
160.0
  1
407.5
 50
90.0
  0
TEXT
  5
3B38
  8
0
  6
CONTINUOUS
 62
     7
 10
19960.785146166661
 20
20744.232102000031
 30
0.0
 40
160.0
  1
758
  0
TEXT
  5
3B39
  8
0
  6
CONTINUOUS
 62
     7
 10
23297.785146166661
 20
20424.232102000031
 30
0.0
 40
160.0
  1
701
  0
TEXT
  5
3B3A
  8
0
  6
CONTINUOUS
 62
     7
 10
22813.951812833329
 20
20744.232102000031
 30
0.0
 40
160.0
  1
407.5
  0
TEXT
  5
3B3B
  8
0
  6
CONTINUOUS
 62
     7
 10
8140.1620244999867
 20
18207.980914
 30
0.0
 40
160.0
  1
2567.5
 50
90.0
  0
TEXT
  5
3B3C
  8
0
  6
CONTINUOUS
 62
     7
 10
8140.1620244999822
 20
20203.186098807681
 30
0.0
 40
160.0
  1
222.5
 50
90.0
  0
TEXT
  5
3B3D
  8
0
  6
CONTINUOUS
 62
     7
 10
8540.1620244999904
 20
20260.89348966668
 30
0.0
 40
160.0
  1
10
 50
90.0
  0
TEXT
  5
3B3E
  8
0
  6
CONTINUOUS
 62
     7
 10
8140.162024499984
 20
15598.56424733333
 30
0.0
 40
160.0
  1
2918
 50
90.0
  0
TEXT
  5
3B3F
  8
0
  6
CONTINUOUS
 62
     7
 10
8140.1620244999795
 20
13598.27790370263
 30
0.0
 40
160.0
  1
192.5
 50
90.0
  0
TEXT
  5
3B40
  8
0
  6
CONTINUOUS
 62
     7
 10
10341.993818833331
 20
20744.232102000031
 30
0.0
 40
160.0
  1
2918
  0
TEXT
  5
3B41
  8
0
  6
CONTINUOUS
 62
     7
 10
8533.1637794767357
 20
20744.232102000031
 30
0.0
 40
160.0
  1
85.5
  0
TEXT
  5
3B42
  8
0
  6
CONTINUOUS
 62
     7
 10
12627.57715216665
 20
20744.232102000031
 30
0.0
 40
160.0
  1
1866.5
  0
TEXT
  5
3B43
  8
0
  6
CONTINUOUS
 62
     7
 10
14070.65719152324
 20
20744.232102000031
 30
0.0
 40
160.0
  1
85.5
  0
ARC
  5
3B49
  8
0
  6
BYBLOCK
 62
     0
 10
13934.16048549998
 20
20664.232102000031
 30
0.0
 40
15.0
 50
180.0
 51
0.0
  0
ARC
  5
3B4A
  8
0
  6
BYBLOCK
 62
     0
 10
13934.16048549998
 20
20664.232102000031
 30
0.0
 40
15.0
 50
0.0
 51
180.0
  0
ARC
  5
3B4B
  8
0
  6
BYBLOCK
 62
     0
 10
14019.66048549998
 20
20664.232102000031
 30
0.0
 40
15.0
 50
0.0
 51
180.0
  0
ARC
  5
3B4C
  8
0
  6
BYBLOCK
 62
     0
 10
14019.66048549998
 20
20664.232102000031
 30
0.0
 40
15.0
 50
180.0
 51
0.0
  0
ARC
  5
3B4D
  8
0
  6
BYBLOCK
 62
     0
 10
12067.66048549998
 20
20664.232102000031
 30
0.0
 40
15.0
 50
0.0
 51
180.0
  0
ARC
  5
3B4E
  8
0
  6
BYBLOCK
 62
     0
 10
12067.66048549998
 20
20664.232102000031
 30
0.0
 40
15.0
 50
180.0
 51
0.0
  0
ARC
  5
3B4F
  8
0
  6
BYBLOCK
 62
     0
 10
13934.16048549998
 20
20664.232102000031
 30
0.0
 40
15.0
 50
180.0
 51
0.0
  0
ARC
  5
3B50
  8
0
  6
BYBLOCK
 62
     0
 10
13934.16048549998
 20
20664.232102000031
 30
0.0
 40
15.0
 50
0.0
 51
180.0
  0
ARC
  5
3B51
  8
0
  6
BYBLOCK
 62
     0
 10
9149.6604854999987
 20
20664.232102000031
 30
0.0
 40
15.0
 50
0.0
 51
180.0
  0
ARC
  5
3B52
  8
0
  6
BYBLOCK
 62
     0
 10
9149.6604854999987
 20
20664.232102000031
 30
0.0
 40
15.0
 50
180.0
 51
0.0
  0
ARC
  5
3B53
  8
0
  6
BYBLOCK
 62
     0
 10
9064.1604854999969
 20
20664.232102000031
 30
0.0
 40
15.0
 50
180.0
 51
0.0
  0
ARC
  5
3B54
  8
0
  6
BYBLOCK
 62
     0
 10
9064.1604854999969
 20
20664.232102000031
 30
0.0
 40
15.0
 50
0.0
 51
180.0
  0
ARC
  5
3B55
  8
0
  6
BYBLOCK
 62
     0
 10
12067.660485500001
 20
20664.232102000031
 30
0.0
 40
15.0
 50
180.0
 51
0.0
  0
ARC
  5
3B56
  8
0
  6
BYBLOCK
 62
     0
 10
12067.660485500001
 20
20664.232102000031
 30
0.0
 40
15.0
 50
0.0
 51
180.0
  0
ARC
  5
3B57
  8
0
  6
BYBLOCK
 62
     0
 10
9149.6604854999987
 20
20664.232102000031
 30
0.0
 40
15.0
 50
0.0
 51
180.0
  0
ARC
  5
3B58
  8
0
  6
BYBLOCK
 62
     0
 10
9149.6604854999987
 20
20664.232102000031
 30
0.0
 40
15.0
 50
180.0
 51
0.0
  0
ARC
  5
3B59
  8
0
  6
BYBLOCK
 62
     0
 10
8220.1620244999885
 20
14406.230913999991
 30
0.0
 40
15.0
 50
270.0
 51
90.0
  0
ARC
  5
3B5A
  8
0
  6
BYBLOCK
 62
     0
 10
8220.1620244999885
 20
14406.230913999991
 30
0.0
 40
15.0
 50
90.0
 51
270.0
  0
ARC
  5
3B5B
  8
0
  6
BYBLOCK
 62
     0
 10
8220.1620244999885
 20
14213.735599
 30
0.0
 40
15.0
 50
90.0
 51
270.0
  0
ARC
  5
3B5C
  8
0
  6
BYBLOCK
 62
     0
 10
8220.1620244999885
 20
14213.735599
 30
0.0
 40
15.0
 50
270.0
 51
90.0
  0
ARC
  5
3B5D
  8
0
  6
BYBLOCK
 62
     0
 10
8220.1620244999885
 20
17324.230914
 30
0.0
 40
15.0
 50
270.0
 51
90.0
  0
ARC
  5
3B5E
  8
0
  6
BYBLOCK
 62
     0
 10
8220.1620244999885
 20
17324.230914
 30
0.0
 40
15.0
 50
90.0
 51
270.0
  0
ARC
  5
3B5F
  8
0
  6
BYBLOCK
 62
     0
 10
8220.1620244999885
 20
14406.230913999991
 30
0.0
 40
15.0
 50
90.0
 51
270.0
  0
ARC
  5
3B60
  8
0
  6
BYBLOCK
 62
     0
 10
8220.1620244999885
 20
14406.230913999991
 30
0.0
 40
15.0
 50
270.0
 51
90.0
  0
ARC
  5
3B61
  8
0
  6
BYBLOCK
 62
     0
 10
8620.1620244999885
 20
20104.226823000012
 30
0.0
 40
15.0
 50
270.0
 51
90.0
  0
ARC
  5
3B62
  8
0
  6
BYBLOCK
 62
     0
 10
8620.1620244999885
 20
20104.226823000012
 30
0.0
 40
15.0
 50
90.0
 51
270.0
  0
ARC
  5
3B63
  8
0
  6
BYBLOCK
 62
     0
 10
8620.1620244999885
 20
20114.226823000001
 30
0.0
 40
15.0
 50
90.0
 51
270.0
  0
ARC
  5
3B64
  8
0
  6
BYBLOCK
 62
     0
 10
8620.1620244999885
 20
20114.226823000001
 30
0.0
 40
15.0
 50
270.0
 51
90.0
  0
ARC
  5
3B65
  8
0
  6
BYBLOCK
 62
     0
 10
8220.1620244999885
 20
19891.730914
 30
0.0
 40
15.0
 50
90.0
 51
270.0
  0
ARC
  5
3B66
  8
0
  6
BYBLOCK
 62
     0
 10
8220.1620244999885
 20
19891.730914
 30
0.0
 40
15.0
 50
270.0
 51
90.0
  0
ARC
  5
3B67
  8
0
  6
BYBLOCK
 62
     0
 10
8220.1620244999885
 20
20114.226823000001
 30
0.0
 40
15.0
 50
270.0
 51
90.0
  0
ARC
  5
3B68
  8
0
  6
BYBLOCK
 62
     0
 10
8220.1620244999885
 20
20114.226823000001
 30
0.0
 40
15.0
 50
90.0
 51
270.0
  0
ARC
  5
3B69
  8
0
  6
BYBLOCK
 62
     0
 10
8220.1620244999885
 20
17324.230914
 30
0.0
 40
15.0
 50
90.0
 51
270.0
  0
ARC
  5
3B6A
  8
0
  6
BYBLOCK
 62
     0
 10
8220.1620244999885
 20
17324.230914
 30
0.0
 40
15.0
 50
270.0
 51
90.0
  0
ARC
  5
3B6B
  8
0
  6
BYBLOCK
 62
     0
 10
8220.1620244999885
 20
19891.730914
 30
0.0
 40
15.0
 50
270.0
 51
90.0
  0
ARC
  5
3B6C
  8
0
  6
BYBLOCK
 62
     0
 10
8220.1620244999885
 20
19891.730914
 30
0.0
 40
15.0
 50
90.0
 51
270.0
  0
ARC
  5
3B6D
  8
0
  6
BYBLOCK
 62
     0
 10
22713.118479499979
 20
20664.232102000031
 30
0.0
 40
15.0
 50
0.0
 51
180.0
  0
ARC
  5
3B6E
  8
0
  6
BYBLOCK
 62
     0
 10
22713.118479499979
 20
20664.232102000031
 30
0.0
 40
15.0
 50
180.0
 51
0.0
  0
ARC
  5
3B6F
  8
0
  6
BYBLOCK
 62
     0
 10
23120.61847949999
 20
20664.232102000031
 30
0.0
 40
15.0
 50
180.0
 51
0.0
  0
ARC
  5
3B70
  8
0
  6
BYBLOCK
 62
     0
 10
23120.61847949999
 20
20664.232102000031
 30
0.0
 40
15.0
 50
0.0
 51
180.0
  0
ARC
  5
3B71
  8
0
  6
BYBLOCK
 62
     0
 10
23120.61847949999
 20
20664.232102000031
 30
0.0
 40
15.0
 50
0.0
 51
180.0
  0
ARC
  5
3B72
  8
0
  6
BYBLOCK
 62
     0
 10
23120.61847949999
 20
20664.232102000031
 30
0.0
 40
15.0
 50
180.0
 51
0.0
  0
ARC
  5
3B73
  8
0
  6
BYBLOCK
 62
     0
 10
23821.61847949999
 20
20664.232102000031
 30
0.0
 40
15.0
 50
180.0
 51
0.0
  0
ARC
  5
3B74
  8
0
  6
BYBLOCK
 62
     0
 10
23821.61847949999
 20
20664.232102000031
 30
0.0
 40
15.0
 50
0.0
 51
180.0
  0
ARC
  5
3B75
  8
0
  6
BYBLOCK
 62
     0
 10
20553.118479500001
 20
20664.232102000031
 30
0.0
 40
15.0
 50
180.0
 51
0.0
  0
ARC
  5
3B76
  8
0
  6
BYBLOCK
 62
     0
 10
20553.118479500001
 20
20664.232102000031
 30
0.0
 40
15.0
 50
0.0
 51
180.0
  0
ARC
  5
3B77
  8
0
  6
BYBLOCK
 62
     0
 10
19795.11847949999
 20
20664.232102000031
 30
0.0
 40
15.0
 50
0.0
 51
180.0
  0
ARC
  5
3B78
  8
0
  6
BYBLOCK
 62
     0
 10
19795.11847949999
 20
20664.232102000031
 30
0.0
 40
15.0
 50
180.0
 51
0.0
  0
ARC
  5
3B79
  8
0
  6
BYBLOCK
 62
     0
 10
25672.11808349999
 20
19484.230914
 30
0.0
 40
15.0
 50
90.0
 51
270.0
  0
ARC
  5
3B7A
  8
0
  6
BYBLOCK
 62
     0
 10
25672.11808349999
 20
19484.230914
 30
0.0
 40
15.0
 50
270.0
 51
90.0
  0
ARC
  5
3B7B
  8
0
  6
BYBLOCK
 62
     0
 10
25672.11808349999
 20
19891.730914
 30
0.0
 40
15.0
 50
270.0
 51
90.0
  0
ARC
  5
3B7C
  8
0
  6
BYBLOCK
 62
     0
 10
25672.11808349999
 20
19891.730914
 30
0.0
 40
15.0
 50
90.0
 51
270.0
  0
ARC
  5
3B7D
  8
0
  6
BYBLOCK
 62
     0
 10
19795.11847949999
 20
13434.78283
 30
0.0
 40
15.0
 50
0.0
 51
180.0
  0
ARC
  5
3B7E
  8
0
  6
BYBLOCK
 62
     0
 10
19795.11847949999
 20
13434.78283
 30
0.0
 40
15.0
 50
180.0
 51
0.0
  0
ARC
  5
3B7F
  8
0
  6
BYBLOCK
 62
     0
 10
19752.616236499991
 20
13434.78283
 30
0.0
 40
15.0
 50
180.0
 51
0.0
  0
ARC
  5
3B80
  8
0
  6
BYBLOCK
 62
     0
 10
19752.616236499991
 20
13434.78283
 30
0.0
 40
15.0
 50
0.0
 51
180.0
  0
ARC
  5
3B81
  8
0
  6
BYBLOCK
 62
     0
 10
24579.618479500001
 20
13434.78283
 30
0.0
 40
15.0
 50
180.0
 51
0.0
  0
ARC
  5
3B82
  8
0
  6
BYBLOCK
 62
     0
 10
24579.618479500001
 20
13434.78283
 30
0.0
 40
15.0
 50
0.0
 51
180.0
  0
ARC
  5
3B83
  8
0
  6
BYBLOCK
 62
     0
 10
24622.1207225
 20
13434.78283
 30
0.0
 40
15.0
 50
0.0
 51
180.0
  0
ARC
  5
3B84
  8
0
  6
BYBLOCK
 62
     0
 10
24622.1207225
 20
13434.78283
 30
0.0
 40
15.0
 50
180.0
 51
0.0
  0
ARC
  5
3B85
  8
0
  6
BYBLOCK
 62
     0
 10
24579.618479500001
 20
13434.78283
 30
0.0
 40
15.0
 50
0.0
 51
180.0
  0
ARC
  5
3B86
  8
0
  6
BYBLOCK
 62
     0
 10
24579.618479500001
 20
13434.78283
 30
0.0
 40
15.0
 50
180.0
 51
0.0
  0
ARC
  5
3B87
  8
0
  6
BYBLOCK
 62
     0
 10
24537.116236499991
 20
13434.78283
 30
0.0
 40
15.0
 50
180.0
 51
0.0
  0
ARC
  5
3B88
  8
0
  6
BYBLOCK
 62
     0
 10
24537.116236499991
 20
13434.78283
 30
0.0
 40
15.0
 50
0.0
 51
180.0
  0
ARC
  5
3B89
  8
0
  6
BYBLOCK
 62
     0
 10
19795.11847949999
 20
13434.78283
 30
0.0
 40
15.0
 50
180.0
 51
0.0
  0
ARC
  5
3B8A
  8
0
  6
BYBLOCK
 62
     0
 10
19795.11847949999
 20
13434.78283
 30
0.0
 40
15.0
 50
0.0
 51
180.0
  0
ARC
  5
3B8B
  8
0
  6
BYBLOCK
 62
     0
 10
19837.620722499982
 20
13434.78283
 30
0.0
 40
15.0
 50
0.0
 51
180.0
  0
ARC
  5
3B8C
  8
0
  6
BYBLOCK
 62
     0
 10
19837.620722499982
 20
13434.78283
 30
0.0
 40
15.0
 50
180.0
 51
0.0
  0
ARC
  5
3B8D
  8
0
  6
BYBLOCK
 62
     0
 10
19752.616236499991
 20
13034.78283
 30
0.0
 40
15.0
 50
0.0
 51
180.0
  0
ARC
  5
3B8E
  8
0
  6
BYBLOCK
 62
     0
 10
19752.616236499991
 20
13034.78283
 30
0.0
 40
15.0
 50
180.0
 51
0.0
  0
ARC
  5
3B8F
  8
0
  6
BYBLOCK
 62
     0
 10
24622.1207225
 20
13034.78283
 30
0.0
 40
15.0
 50
180.0
 51
0.0
  0
ARC
  5
3B90
  8
0
  6
BYBLOCK
 62
     0
 10
24622.1207225
 20
13034.78283
 30
0.0
 40
15.0
 50
0.0
 51
180.0
  0
ARC
  5
3B91
  8
0
  6
BYBLOCK
 62
     0
 10
25672.11808349999
 20
15164.230913999991
 30
0.0
 40
15.0
 50
270.0
 51
90.0
  0
ARC
  5
3B92
  8
0
  6
BYBLOCK
 62
     0
 10
25672.11808349999
 20
15164.230913999991
 30
0.0
 40
15.0
 50
90.0
 51
270.0
  0
ARC
  5
3B93
  8
0
  6
BYBLOCK
 62
     0
 10
25672.11808349999
 20
14406.230913999991
 30
0.0
 40
15.0
 50
90.0
 51
270.0
  0
ARC
  5
3B94
  8
0
  6
BYBLOCK
 62
     0
 10
25672.11808349999
 20
14406.230913999991
 30
0.0
 40
15.0
 50
270.0
 51
90.0
  0
ARC
  5
3B95
  8
0
  6
BYBLOCK
 62
     0
 10
25672.11808349999
 20
15865.471425500011
 30
0.0
 40
15.0
 50
270.0
 51
90.0
  0
ARC
  5
3B96
  8
0
  6
BYBLOCK
 62
     0
 10
25672.11808349999
 20
15865.471425500011
 30
0.0
 40
15.0
 50
90.0
 51
270.0
  0
ARC
  5
3B97
  8
0
  6
BYBLOCK
 62
     0
 10
25672.11808349999
 20
15164.230913999991
 30
0.0
 40
15.0
 50
90.0
 51
270.0
  0
ARC
  5
3B98
  8
0
  6
BYBLOCK
 62
     0
 10
25672.11808349999
 20
15164.230913999991
 30
0.0
 40
15.0
 50
270.0
 51
90.0
  0
ARC
  5
3B99
  8
0
  6
BYBLOCK
 62
     0
 10
25672.11808349999
 20
16566.230914
 30
0.0
 40
15.0
 50
270.0
 51
90.0
  0
ARC
  5
3B9A
  8
0
  6
BYBLOCK
 62
     0
 10
25672.11808349999
 20
16566.230914
 30
0.0
 40
15.0
 50
90.0
 51
270.0
  0
ARC
  5
3B9B
  8
0
  6
BYBLOCK
 62
     0
 10
25672.11808349999
 20
15865.471425500011
 30
0.0
 40
15.0
 50
90.0
 51
270.0
  0
ARC
  5
3B9C
  8
0
  6
BYBLOCK
 62
     0
 10
25672.11808349999
 20
15865.471425500011
 30
0.0
 40
15.0
 50
270.0
 51
90.0
  0
ARC
  5
3B9D
  8
0
  6
BYBLOCK
 62
     0
 10
25672.11808349999
 20
17324.230914
 30
0.0
 40
15.0
 50
270.0
 51
90.0
  0
ARC
  5
3B9E
  8
0
  6
BYBLOCK
 62
     0
 10
25672.11808349999
 20
17324.230914
 30
0.0
 40
15.0
 50
90.0
 51
270.0
  0
ARC
  5
3B9F
  8
0
  6
BYBLOCK
 62
     0
 10
25672.11808349999
 20
16566.230914
 30
0.0
 40
15.0
 50
90.0
 51
270.0
  0
ARC
  5
3BA0
  8
0
  6
BYBLOCK
 62
     0
 10
25672.11808349999
 20
16566.230914
 30
0.0
 40
15.0
 50
270.0
 51
90.0
  0
ARC
  5
3BA1
  8
0
  6
BYBLOCK
 62
     0
 10
25672.11808349999
 20
18082.230914
 30
0.0
 40
15.0
 50
270.0
 51
90.0
  0
ARC
  5
3BA2
  8
0
  6
BYBLOCK
 62
     0
 10
25672.11808349999
 20
18082.230914
 30
0.0
 40
15.0
 50
90.0
 51
270.0
  0
ARC
  5
3BA3
  8
0
  6
BYBLOCK
 62
     0
 10
25672.11808349999
 20
17324.230914
 30
0.0
 40
15.0
 50
90.0
 51
270.0
  0
ARC
  5
3BA4
  8
0
  6
BYBLOCK
 62
     0
 10
25672.11808349999
 20
17324.230914
 30
0.0
 40
15.0
 50
270.0
 51
90.0
  0
ARC
  5
3BA5
  8
0
  6
BYBLOCK
 62
     0
 10
25672.11808349999
 20
18783.230914
 30
0.0
 40
15.0
 50
270.0
 51
90.0
  0
ARC
  5
3BA6
  8
0
  6
BYBLOCK
 62
     0
 10
25672.11808349999
 20
18783.230914
 30
0.0
 40
15.0
 50
90.0
 51
270.0
  0
ARC
  5
3BA7
  8
0
  6
BYBLOCK
 62
     0
 10
25672.11808349999
 20
18082.230914
 30
0.0
 40
15.0
 50
90.0
 51
270.0
  0
ARC
  5
3BA8
  8
0
  6
BYBLOCK
 62
     0
 10
25672.11808349999
 20
18082.230914
 30
0.0
 40
15.0
 50
270.0
 51
90.0
  0
ARC
  5
3BA9
  8
0
  6
BYBLOCK
 62
     0
 10
25672.11808349999
 20
19484.230914
 30
0.0
 40
15.0
 50
270.0
 51
90.0
  0
ARC
  5
3BAA
  8
0
  6
BYBLOCK
 62
     0
 10
25672.11808349999
 20
19484.230914
 30
0.0
 40
15.0
 50
90.0
 51
270.0
  0
ARC
  5
3BAB
  8
0
  6
BYBLOCK
 62
     0
 10
25672.11808349999
 20
18783.230914
 30
0.0
 40
15.0
 50
90.0
 51
270.0
  0
ARC
  5
3BAC
  8
0
  6
BYBLOCK
 62
     0
 10
25672.11808349999
 20
18783.230914
 30
0.0
 40
15.0
 50
270.0
 51
90.0
  0
ARC
  5
3BAD
  8
0
  6
BYBLOCK
 62
     0
 10
26072.11808349999
 20
17324.230914
 30
0.0
 40
15.0
 50
90.0
 51
270.0
  0
ARC
  5
3BAE
  8
0
  6
BYBLOCK
 62
     0
 10
26072.11808349999
 20
17324.230914
 30
0.0
 40
15.0
 50
270.0
 51
90.0
  0
ARC
  5
3BAF
  8
0
  6
BYBLOCK
 62
     0
 10
26072.11808349999
 20
19891.730914
 30
0.0
 40
15.0
 50
270.0
 51
90.0
  0
ARC
  5
3BB0
  8
0
  6
BYBLOCK
 62
     0
 10
26072.11808349999
 20
19891.730914
 30
0.0
 40
15.0
 50
90.0
 51
270.0
  0
ARC
  5
3BB1
  8
0
  6
BYBLOCK
 62
     0
 10
26072.11808349999
 20
14406.230913999991
 30
0.0
 40
15.0
 50
90.0
 51
270.0
  0
ARC
  5
3BB2
  8
0
  6
BYBLOCK
 62
     0
 10
26072.11808349999
 20
14406.230913999991
 30
0.0
 40
15.0
 50
270.0
 51
90.0
  0
ARC
  5
3BB3
  8
0
  6
BYBLOCK
 62
     0
 10
26072.11808349999
 20
17324.230914
 30
0.0
 40
15.0
 50
270.0
 51
90.0
  0
ARC
  5
3BB4
  8
0
  6
BYBLOCK
 62
     0
 10
26072.11808349999
 20
17324.230914
 30
0.0
 40
15.0
 50
90.0
 51
270.0
  0
ARC
  5
3BB5
  8
0
  6
BYBLOCK
 62
     0
 10
26472.11808349999
 20
19934.228209000001
 30
0.0
 40
15.0
 50
270.0
 51
90.0
  0
ARC
  5
3BB6
  8
0
  6
BYBLOCK
 62
     0
 10
26472.11808349999
 20
19934.228209000001
 30
0.0
 40
15.0
 50
90.0
 51
270.0
  0
ARC
  5
3BB7
  8
0
  6
BYBLOCK
 62
     0
 10
26472.11808349999
 20
14363.733619000001
 30
0.0
 40
15.0
 50
90.0
 51
270.0
  0
ARC
  5
3BB8
  8
0
  6
BYBLOCK
 62
     0
 10
26472.11808349999
 20
14363.733619000001
 30
0.0
 40
15.0
 50
270.0
 51
90.0
  0
ARC
  5
3BB9
  8
0
  6
BYBLOCK
 62
     0
 10
26072.11808349999
 20
19891.730914
 30
0.0
 40
15.0
 50
270.0
 51
90.0
  0
ARC
  5
3BBA
  8
0
  6
BYBLOCK
 62
     0
 10
26072.11808349999
 20
19891.730914
 30
0.0
 40
15.0
 50
90.0
 51
270.0
  0
ARC
  5
3BBB
  8
0
  6
BYBLOCK
 62
     0
 10
26072.11808349999
 20
19934.228209000001
 30
0.0
 40
15.0
 50
90.0
 51
270.0
  0
ARC
  5
3BBC
  8
0
  6
BYBLOCK
 62
     0
 10
26072.11808349999
 20
19934.228209000001
 30
0.0
 40
15.0
 50
270.0
 51
90.0
  0
ARC
  5
3BBD
  8
0
  6
BYBLOCK
 62
     0
 10
26072.11808349999
 20
14406.230913999991
 30
0.0
 40
15.0
 50
90.0
 51
270.0
  0
ARC
  5
3BBE
  8
0
  6
BYBLOCK
 62
     0
 10
26072.11808349999
 20
14406.230913999991
 30
0.0
 40
15.0
 50
270.0
 51
90.0
  0
ARC
  5
3BBF
  8
0
  6
BYBLOCK
 62
     0
 10
26072.11808349999
 20
14363.733619000001
 30
0.0
 40
15.0
 50
270.0
 51
90.0
  0
ARC
  5
3BC0
  8
0
  6
BYBLOCK
 62
     0
 10
26072.11808349999
 20
14363.733619000001
 30
0.0
 40
15.0
 50
90.0
 51
270.0
  0
ARC
  5
3BC1
  8
0
  6
BYBLOCK
 62
     0
 10
23821.61847949999
 20
20664.232102000031
 30
0.0
 40
15.0
 50
0.0
 51
180.0
  0
ARC
  5
3BC2
  8
0
  6
BYBLOCK
 62
     0
 10
23821.61847949999
 20
20664.232102000031
 30
0.0
 40
15.0
 50
180.0
 51
0.0
  0
ARC
  5
3BC3
  8
0
  6
BYBLOCK
 62
     0
 10
24579.619469000008
 20
20664.232102000031
 30
0.0
 40
15.0
 50
180.0
 51
0.0
  0
ARC
  5
3BC4
  8
0
  6
BYBLOCK
 62
     0
 10
24579.619469000008
 20
20664.232102000031
 30
0.0
 40
15.0
 50
0.0
 51
180.0
  0
ARC
  5
3BC5
  8
0
  6
BYBLOCK
 62
     0
 10
24579.618479500001
 20
20664.232102000031
 30
0.0
 40
15.0
 50
180.0
 51
0.0
  0
ARC
  5
3BC6
  8
0
  6
BYBLOCK
 62
     0
 10
24579.618479500001
 20
20664.232102000031
 30
0.0
 40
15.0
 50
0.0
 51
180.0
  0
ARC
  5
3BC7
  8
0
  6
BYBLOCK
 62
     0
 10
24622.11478449999
 20
20664.232102000031
 30
0.0
 40
15.0
 50
0.0
 51
180.0
  0
ARC
  5
3BC8
  8
0
  6
BYBLOCK
 62
     0
 10
24622.11478449999
 20
20664.232102000031
 30
0.0
 40
15.0
 50
180.0
 51
0.0
  0
ARC
  5
3BC9
  8
0
  6
BYBLOCK
 62
     0
 10
19795.11847949999
 20
20664.232102000031
 30
0.0
 40
15.0
 50
0.0
 51
180.0
  0
ARC
  5
3BCA
  8
0
  6
BYBLOCK
 62
     0
 10
19795.11847949999
 20
20664.232102000031
 30
0.0
 40
15.0
 50
180.0
 51
0.0
  0
ARC
  5
3BCB
  8
0
  6
BYBLOCK
 62
     0
 10
19752.622174499989
 20
20664.232102000031
 30
0.0
 40
15.0
 50
180.0
 51
0.0
  0
ARC
  5
3BCC
  8
0
  6
BYBLOCK
 62
     0
 10
19752.622174499989
 20
20664.232102000031
 30
0.0
 40
15.0
 50
0.0
 51
180.0
  0
ARC
  5
3BCD
  8
0
  6
BYBLOCK
 62
     0
 10
21955.11847949999
 20
20664.232102000031
 30
0.0
 40
15.0
 50
0.0
 51
180.0
  0
ARC
  5
3BCE
  8
0
  6
BYBLOCK
 62
     0
 10
21955.11847949999
 20
20664.232102000031
 30
0.0
 40
15.0
 50
180.0
 51
0.0
  0
ARC
  5
3BCF
  8
0
  6
BYBLOCK
 62
     0
 10
22713.119469000001
 20
20664.232102000031
 30
0.0
 40
15.0
 50
180.0
 51
0.0
  0
ARC
  5
3BD0
  8
0
  6
BYBLOCK
 62
     0
 10
22713.119469000001
 20
20664.232102000031
 30
0.0
 40
15.0
 50
0.0
 51
180.0
  0
ARC
  5
3BD1
  8
0
  6
BYBLOCK
 62
     0
 10
21254.11847949999
 20
20664.232102000031
 30
0.0
 40
15.0
 50
0.0
 51
180.0
  0
ARC
  5
3BD2
  8
0
  6
BYBLOCK
 62
     0
 10
21254.11847949999
 20
20664.232102000031
 30
0.0
 40
15.0
 50
180.0
 51
0.0
  0
ARC
  5
3BD3
  8
0
  6
BYBLOCK
 62
     0
 10
21955.11847949999
 20
20664.232102000031
 30
0.0
 40
15.0
 50
180.0
 51
0.0
  0
ARC
  5
3BD4
  8
0
  6
BYBLOCK
 62
     0
 10
21955.11847949999
 20
20664.232102000031
 30
0.0
 40
15.0
 50
0.0
 51
180.0
  0
ARC
  5
3BD5
  8
0
  6
BYBLOCK
 62
     0
 10
20553.118479500001
 20
20664.232102000031
 30
0.0
 40
15.0
 50
0.0
 51
180.0
  0
ARC
  5
3BD6
  8
0
  6
BYBLOCK
 62
     0
 10
20553.118479500001
 20
20664.232102000031
 30
0.0
 40
15.0
 50
180.0
 51
0.0
  0
ARC
  5
3BD7
  8
0
  6
BYBLOCK
 62
     0
 10
21254.11847949999
 20
20664.232102000031
 30
0.0
 40
15.0
 50
180.0
 51
0.0
  0
ARC
  5
3BD8
  8
0
  6
BYBLOCK
 62
     0
 10
21254.11847949999
 20
20664.232102000031
 30
0.0
 40
15.0
 50
0.0
 51
180.0
  0
ARC
  5
3BD9
  8
0
  6
BYBLOCK
 62
     0
 10
8769.3738785000023
 20
9763.7812800000029
 30
0.0
 40
15.0
 50
180.0
 51
0.0
  0
ARC
  5
3BDA
  8
0
  6
BYBLOCK
 62
     0
 10
8769.3738785000023
 20
9763.7812800000029
 30
0.0
 40
15.0
 50
0.0
 51
180.0
  0
ARC
  5
3BDB
  8
0
  6
BYBLOCK
 62
     0
 10
8589.3738785000023
 20
9763.7812800000029
 30
0.0
 40
15.0
 50
0.0
 51
180.0
  0
ARC
  5
3BDC
  8
0
  6
BYBLOCK
 62
     0
 10
8589.3738785000023
 20
9763.7812800000029
 30
0.0
 40
15.0
 50
180.0
 51
0.0
  0
ARC
  5
3BDD
  8
0
  6
BYBLOCK
 62
     0
 10
18945.119139499991
 20
6615.7796039999957
 30
0.0
 40
15.0
 50
90.0
 51
270.0
  0
ARC
  5
3BDE
  8
0
  6
BYBLOCK
 62
     0
 10
18945.119139499991
 20
6615.7796039999957
 30
0.0
 40
15.0
 50
270.0
 51
90.0
  0
ARC
  5
3BDF
  8
0
  6
BYBLOCK
 62
     0
 10
18945.119139499991
 20
8507.2796039999957
 30
0.0
 40
15.0
 50
270.0
 51
90.0
  0
ARC
  5
3BE0
  8
0
  6
BYBLOCK
 62
     0
 10
18945.119139499991
 20
8507.2796039999957
 30
0.0
 40
15.0
 50
90.0
 51
270.0
  0
ARC
  5
3BE1
  8
0
  6
BYBLOCK
 62
     0
 10
18545.116830499981
 20
6615.7796039999957
 30
0.0
 40
15.0
 50
90.0
 51
270.0
  0
ARC
  5
3BE2
  8
0
  6
BYBLOCK
 62
     0
 10
18545.116830499981
 20
6615.7796039999957
 30
0.0
 40
15.0
 50
270.0
 51
90.0
  0
ARC
  5
3BE3
  8
0
  6
BYBLOCK
 62
     0
 10
18545.116830499988
 20
8964.2791089999973
 30
0.0
 40
15.0
 50
270.0
 51
90.0
  0
ARC
  5
3BE4
  8
0
  6
BYBLOCK
 62
     0
 10
18545.116830499988
 20
8964.2791089999973
 30
0.0
 40
15.0
 50
90.0
 51
270.0
  0
ARC
  5
3BF5
  8
0
  6
BYBLOCK
 62
     0
 10
19889.118479499979
 20
5715.7797689999998
 30
0.0
 40
15.0
 50
0.0
 51
180.0
  0
ARC
  5
3BF6
  8
0
  6
BYBLOCK
 62
     0
 10
19889.118479499979
 20
5715.7797689999998
 30
0.0
 40
15.0
 50
180.0
 51
0.0
  0
ARC
  5
3BF7
  8
0
  6
BYBLOCK
 62
     0
 10
22619.11847949999
 20
5715.7797689999998
 30
0.0
 40
15.0
 50
180.0
 51
0.0
  0
ARC
  5
3BF8
  8
0
  6
BYBLOCK
 62
     0
 10
22619.11847949999
 20
5715.7797689999998
 30
0.0
 40
15.0
 50
0.0
 51
180.0
  0
ARC
  5
3BF9
  8
0
  6
BYBLOCK
 62
     0
 10
22807.11847949999
 20
5715.7797689999998
 30
0.0
 40
15.0
 50
0.0
 51
180.0
  0
ARC
  5
3BFA
  8
0
  6
BYBLOCK
 62
     0
 10
22807.11847949999
 20
5715.7797689999998
 30
0.0
 40
15.0
 50
180.0
 51
0.0
  0
ARC
  5
3BFB
  8
0
  6
BYBLOCK
 62
     0
 10
24485.61847949999
 20
5715.7797689999998
 30
0.0
 40
15.0
 50
180.0
 51
0.0
  0
ARC
  5
3BFC
  8
0
  6
BYBLOCK
 62
     0
 10
24485.61847949999
 20
5715.7797689999998
 30
0.0
 40
15.0
 50
0.0
 51
180.0
  0
ARC
  5
3BFD
  8
0
  6
BYBLOCK
 62
     0
 10
22713.118479499979
 20
5315.7797690000016
 30
0.0
 40
15.0
 50
0.0
 51
180.0
  0
ARC
  5
3BFE
  8
0
  6
BYBLOCK
 62
     0
 10
22713.118479499979
 20
5315.7797690000016
 30
0.0
 40
15.0
 50
180.0
 51
0.0
  0
ARC
  5
3BFF
  8
0
  6
BYBLOCK
 62
     0
 10
24579.618479500001
 20
5315.7797690000016
 30
0.0
 40
15.0
 50
180.0
 51
0.0
  0
ARC
  5
3C00
  8
0
  6
BYBLOCK
 62
     0
 10
24579.618479500001
 20
5315.7797690000016
 30
0.0
 40
15.0
 50
0.0
 51
180.0
  0
ARC
  5
3C01
  8
0
  6
BYBLOCK
 62
     0
 10
19795.11847949999
 20
5315.7797690000016
 30
0.0
 40
15.0
 50
0.0
 51
180.0
  0
ARC
  5
3C02
  8
0
  6
BYBLOCK
 62
     0
 10
19795.11847949999
 20
5315.7797690000016
 30
0.0
 40
15.0
 50
180.0
 51
0.0
  0
ARC
  5
3C03
  8
0
  6
BYBLOCK
 62
     0
 10
22713.118479499979
 20
5315.7797690000016
 30
0.0
 40
15.0
 50
180.0
 51
0.0
  0
ARC
  5
3C04
  8
0
  6
BYBLOCK
 62
     0
 10
22713.118479499979
 20
5315.7797690000016
 30
0.0
 40
15.0
 50
0.0
 51
180.0
  0
ARC
  5
3C05
  8
0
  6
BYBLOCK
 62
     0
 10
24579.622438499991
 20
5315.7797690000016
 30
0.0
 40
15.0
 50
180.0
 51
0.0
  0
ARC
  5
3C06
  8
0
  6
BYBLOCK
 62
     0
 10
24579.622438499991
 20
5315.7797690000016
 30
0.0
 40
15.0
 50
0.0
 51
180.0
  0
ARC
  5
3C07
  8
0
  6
BYBLOCK
 62
     0
 10
24622.122438499991
 20
5315.7797690000016
 30
0.0
 40
15.0
 50
0.0
 51
180.0
  0
ARC
  5
3C08
  8
0
  6
BYBLOCK
 62
     0
 10
24622.122438499991
 20
5315.7797690000016
 30
0.0
 40
15.0
 50
180.0
 51
0.0
  0
ARC
  5
3C09
  8
0
  6
BYBLOCK
 62
     0
 10
19795.11847949999
 20
5315.7797690000016
 30
0.0
 40
15.0
 50
0.0
 51
180.0
  0
ARC
  5
3C0A
  8
0
  6
BYBLOCK
 62
     0
 10
19795.11847949999
 20
5315.7797690000016
 30
0.0
 40
15.0
 50
180.0
 51
0.0
  0
ARC
  5
3C0B
  8
0
  6
BYBLOCK
 62
     0
 10
19752.618479499979
 20
5315.7797690000016
 30
0.0
 40
15.0
 50
180.0
 51
0.0
  0
ARC
  5
3C0C
  8
0
  6
BYBLOCK
 62
     0
 10
19752.618479499979
 20
5315.7797690000016
 30
0.0
 40
15.0
 50
0.0
 51
180.0
  0
ARC
  5
3C0D
  8
0
  6
BYBLOCK
 62
     0
 10
19752.618479499979
 20
4915.7799339999983
 30
0.0
 40
15.0
 50
0.0
 51
180.0
  0
ARC
  5
3C0E
  8
0
  6
BYBLOCK
 62
     0
 10
19752.618479499979
 20
4915.7799339999983
 30
0.0
 40
15.0
 50
180.0
 51
0.0
  0
ARC
  5
3C0F
  8
0
  6
BYBLOCK
 62
     0
 10
24622.11847949999
 20
4915.7799339999983
 30
0.0
 40
15.0
 50
180.0
 51
0.0
  0
ARC
  5
3C10
  8
0
  6
BYBLOCK
 62
     0
 10
24622.11847949999
 20
4915.7799339999983
 30
0.0
 40
15.0
 50
0.0
 51
180.0
  0
ARC
  5
3C11
  8
0
  6
BYBLOCK
 62
     0
 10
15429.87229449999
 20
6615.7796040000021
 30
0.0
 40
15.0
 50
90.0
 51
270.0
  0
ARC
  5
3C12
  8
0
  6
BYBLOCK
 62
     0
 10
15429.87229449999
 20
6615.7796040000021
 30
0.0
 40
15.0
 50
270.0
 51
90.0
  0
ARC
  5
3C13
  8
0
  6
BYBLOCK
 62
     0
 10
15429.87229449999
 20
8964.279604000003
 30
0.0
 40
15.0
 50
270.0
 51
90.0
  0
ARC
  5
3C14
  8
0
  6
BYBLOCK
 62
     0
 10
15429.87229449999
 20
8964.279604000003
 30
0.0
 40
15.0
 50
90.0
 51
270.0
  0
ARC
  5
3C15
  8
0
  6
BYBLOCK
 62
     0
 10
7679.3754605000104
 20
6615.7796040000021
 30
0.0
 40
15.0
 50
90.0
 51
270.0
  0
ARC
  5
3C16
  8
0
  6
BYBLOCK
 62
     0
 10
7679.3754605000104
 20
6615.7796040000021
 30
0.0
 40
15.0
 50
270.0
 51
90.0
  0
ARC
  5
3C17
  8
0
  6
BYBLOCK
 62
     0
 10
7679.3754605000104
 20
8771.7796040000067
 30
0.0
 40
15.0
 50
270.0
 51
90.0
  0
ARC
  5
3C18
  8
0
  6
BYBLOCK
 62
     0
 10
7679.3754605000104
 20
8771.7796040000067
 30
0.0
 40
15.0
 50
90.0
 51
270.0
  0
ARC
  5
3C19
  8
0
  6
BYBLOCK
 62
     0
 10
8589.3738785000023
 20
10163.779630000001
 30
0.0
 40
15.0
 50
0.0
 51
180.0
  0
ARC
  5
3C1A
  8
0
  6
BYBLOCK
 62
     0
 10
8589.3738785000023
 20
10163.779630000001
 30
0.0
 40
15.0
 50
180.0
 51
0.0
  0
ARC
  5
3C1B
  8
0
  6
BYBLOCK
 62
     0
 10
14489.873878500001
 20
10163.779630000001
 30
0.0
 40
15.0
 50
180.0
 51
0.0
  0
ARC
  5
3C1C
  8
0
  6
BYBLOCK
 62
     0
 10
14489.873878500001
 20
10163.779630000001
 30
0.0
 40
15.0
 50
0.0
 51
180.0
  0
ARC
  5
3C1D
  8
0
  6
BYBLOCK
 62
     0
 10
14339.873878500001
 20
9763.7812800000029
 30
0.0
 40
15.0
 50
180.0
 51
0.0
  0
ARC
  5
3C1E
  8
0
  6
BYBLOCK
 62
     0
 10
14339.873878500001
 20
9763.7812800000029
 30
0.0
 40
15.0
 50
0.0
 51
180.0
  0
ARC
  5
3C1F
  8
0
  6
BYBLOCK
 62
     0
 10
14489.873878500001
 20
9763.7812800000029
 30
0.0
 40
15.0
 50
0.0
 51
180.0
  0
ARC
  5
3C20
  8
0
  6
BYBLOCK
 62
     0
 10
14489.873878500001
 20
9763.7812800000029
 30
0.0
 40
15.0
 50
180.0
 51
0.0
  0
ARC
  5
3C21
  8
0
  6
BYBLOCK
 62
     0
 10
8769.3738785000023
 20
9763.7812800000029
 30
0.0
 40
15.0
 50
0.0
 51
180.0
  0
ARC
  5
3C22
  8
0
  6
BYBLOCK
 62
     0
 10
8769.3738785000023
 20
9763.7812800000029
 30
0.0
 40
15.0
 50
180.0
 51
0.0
  0
ARC
  5
3C23
  8
0
  6
BYBLOCK
 62
     0
 10
14339.873878500001
 20
9763.7812800000029
 30
0.0
 40
15.0
 50
180.0
 51
0.0
  0
ARC
  5
3C24
  8
0
  6
BYBLOCK
 62
     0
 10
14339.873878500001
 20
9763.7812800000029
 30
0.0
 40
15.0
 50
0.0
 51
180.0
  0
ARC
  5
3C25
  8
0
  6
BYBLOCK
 62
     0
 10
8769.3738785000023
 20
4915.7799340000047
 30
0.0
 40
15.0
 50
0.0
 51
180.0
  0
ARC
  5
3C26
  8
0
  6
BYBLOCK
 62
     0
 10
8769.3738785000023
 20
4915.7799340000047
 30
0.0
 40
15.0
 50
180.0
 51
0.0
  0
ARC
  5
3C27
  8
0
  6
BYBLOCK
 62
     0
 10
14339.873878500001
 20
4915.7799340000047
 30
0.0
 40
15.0
 50
180.0
 51
0.0
  0
ARC
  5
3C28
  8
0
  6
BYBLOCK
 62
     0
 10
14339.873878500001
 20
4915.7799340000047
 30
0.0
 40
15.0
 50
0.0
 51
180.0
  0
ARC
  5
3C29
  8
0
  6
BYBLOCK
 62
     0
 10
14297.373878500001
 20
5315.7797690000052
 30
0.0
 40
15.0
 50
180.0
 51
0.0
  0
ARC
  5
3C2A
  8
0
  6
BYBLOCK
 62
     0
 10
14297.373878500001
 20
5315.7797690000052
 30
0.0
 40
15.0
 50
0.0
 51
180.0
  0
ARC
  5
3C2B
  8
0
  6
BYBLOCK
 62
     0
 10
14339.873878500001
 20
5315.7797690000052
 30
0.0
 40
15.0
 50
0.0
 51
180.0
  0
ARC
  5
3C2C
  8
0
  6
BYBLOCK
 62
     0
 10
14339.873878500001
 20
5315.7797690000052
 30
0.0
 40
15.0
 50
180.0
 51
0.0
  0
ARC
  5
3C2D
  8
0
  6
BYBLOCK
 62
     0
 10
8811.8738785000005
 20
5315.7797690000052
 30
0.0
 40
15.0
 50
0.0
 51
180.0
  0
ARC
  5
3C2E
  8
0
  6
BYBLOCK
 62
     0
 10
8811.8738785000005
 20
5315.7797690000052
 30
0.0
 40
15.0
 50
180.0
 51
0.0
  0
ARC
  5
3C2F
  8
0
  6
BYBLOCK
 62
     0
 10
8769.3738785000023
 20
5315.7797690000052
 30
0.0
 40
15.0
 50
180.0
 51
0.0
  0
ARC
  5
3C30
  8
0
  6
BYBLOCK
 62
     0
 10
8769.3738785000023
 20
5315.7797690000052
 30
0.0
 40
15.0
 50
0.0
 51
180.0
  0
ARC
  5
3C31
  8
0
  6
BYBLOCK
 62
     0
 10
11379.373878500001
 20
5315.7797690000052
 30
0.0
 40
15.0
 50
180.0
 51
0.0
  0
ARC
  5
3C32
  8
0
  6
BYBLOCK
 62
     0
 10
11379.373878500001
 20
5315.7797690000052
 30
0.0
 40
15.0
 50
0.0
 51
180.0
  0
ARC
  5
3C33
  8
0
  6
BYBLOCK
 62
     0
 10
8811.8738785000005
 20
5315.7797690000052
 30
0.0
 40
15.0
 50
0.0
 51
180.0
  0
ARC
  5
3C34
  8
0
  6
BYBLOCK
 62
     0
 10
8811.8738785000005
 20
5315.7797690000052
 30
0.0
 40
15.0
 50
180.0
 51
0.0
  0
ARC
  5
3C35
  8
0
  6
BYBLOCK
 62
     0
 10
11379.373878500001
 20
5315.7797690000052
 30
0.0
 40
15.0
 50
0.0
 51
180.0
  0
ARC
  5
3C36
  8
0
  6
BYBLOCK
 62
     0
 10
11379.373878500001
 20
5315.7797690000052
 30
0.0
 40
15.0
 50
180.0
 51
0.0
  0
ARC
  5
3C37
  8
0
  6
BYBLOCK
 62
     0
 10
14297.373878500001
 20
5315.7797690000052
 30
0.0
 40
15.0
 50
180.0
 51
0.0
  0
ARC
  5
3C38
  8
0
  6
BYBLOCK
 62
     0
 10
14297.373878500001
 20
5315.7797690000052
 30
0.0
 40
15.0
 50
0.0
 51
180.0
  0
LINE
  5
3D5E
  8
0-1
  6
CONTINUOUS
 62
     3
 10
24516.121461499992
 20
8714.279623999988
 30
0.0
 11
24516.121461499992
 21
8746.279530999991
 31
0.0
  0
LINE
  5
3D5F
  8
0-1
  6
CONTINUOUS
 62
     3
 10
24665.120854500001
 20
8638.0929019999912
 30
0.0
 11
24622.118743499981
 21
8638.0929019999912
 31
0.0
  0
LINE
  5
3D60
  8
0-1
  6
CONTINUOUS
 62
     3
 10
24665.120854500001
 20
8964.2799529999938
 30
0.0
 11
24665.120854500001
 21
8638.0929019999912
 31
0.0
  0
LINE
  5
3D61
  8
0-1
  6
CONTINUOUS
 62
     3
 10
24230.154268500009
 20
8710.7442029999875
 30
0.0
 11
24198.155351500001
 21
8742.7441109999891
 31
0.0
  0
LINE
  5
3D62
  8
0-1
  6
CONTINUOUS
 62
     3
 10
24511.121197499979
 20
8751.2797949999931
 30
0.0
 11
24201.690771500002
 21
8751.2797949999931
 31
0.0
  0
LINE
  5
3D63
  8
0-1
  6
CONTINUOUS
 62
     3
 10
24516.121461499992
 20
8742.8806979999936
 30
0.0
 11
24198.024702499992
 21
8742.8806979999936
 31
0.0
  0
LINE
  5
3D64
  8
0-1
  6
CONTINUOUS
 62
     3
 10
24511.121197499979
 20
8709.2793599999914
 30
0.0
 11
24233.691668499989
 21
8709.2793599999914
 31
0.0
  0
LINE
  5
3D65
  8
0-1
  6
CONTINUOUS
 62
     3
 10
24516.121461499992
 20
8717.6794469999913
 30
0.0
 11
24223.220015499988
 21
8717.6794469999913
 31
0.0
  0
LINE
  5
3D66
  8
0-1
  6
CONTINUOUS
 62
     3
 10
24516.121461499992
 20
8726.0795339999859
 30
0.0
 11
24214.820917500001
 21
8726.0795339999859
 31
0.0
  0
LINE
  5
3D67
  8
0-1
  6
CONTINUOUS
 62
     3
 10
24516.121461499992
 20
8734.4806109999863
 30
0.0
 11
24206.419841499988
 21
8734.4806109999863
 31
0.0
  0
LINE
  5
3D68
  8
0-1
  6
CONTINUOUS
 62
     3
 10
23062.584669500018
 20
8710.7442029999875
 30
0.0
 11
23094.581607500018
 21
8742.7441109999891
 31
0.0
  0
LINE
  5
3D69
  8
0-1
  6
CONTINUOUS
 62
     3
 10
22776.619455500018
 20
8714.279623999988
 30
0.0
 11
22776.619455500018
 21
8746.279530999991
 31
0.0
  0
LINE
  5
3D6A
  8
0-1
  6
CONTINUOUS
 62
     3
 10
22776.619455500018
 20
8717.6794469999913
 30
0.0
 11
23069.516943499999
 21
8717.6794469999913
 31
0.0
  0
LINE
  5
3D6B
  8
0-1
  6
CONTINUOUS
 62
     3
 10
22776.619455500018
 20
8726.0795339999859
 30
0.0
 11
23077.918020500008
 21
8726.0795339999859
 31
0.0
  0
LINE
  5
3D6C
  8
0-1
  6
CONTINUOUS
 62
     3
 10
22781.619719499999
 20
8709.2793599999914
 30
0.0
 11
23059.04726950001
 21
8709.2793599999914
 31
0.0
  0
LINE
  5
3D6D
  8
0-1
  6
CONTINUOUS
 62
     3
 10
22776.619455500018
 20
8734.4806109999863
 30
0.0
 11
23086.317117500021
 21
8734.4806109999863
 31
0.0
  0
LINE
  5
3D6E
  8
0-1
  6
CONTINUOUS
 62
     3
 10
22776.619455500018
 20
8742.8806979999936
 30
0.0
 11
23094.714235500021
 21
8742.8806979999936
 31
0.0
  0
LINE
  5
3D6F
  8
0-1
  6
CONTINUOUS
 62
     3
 10
22781.619719499999
 20
8751.2797949999931
 30
0.0
 11
23091.04816650003
 21
8751.2797949999931
 31
0.0
  0
LINE
  5
3D70
  8
0-1
  6
CONTINUOUS
 62
     3
 10
24665.120854500001
 20
8834.2790299999888
 30
0.0
 11
22713.118479500001
 21
8834.2790299999888
 31
0.0
  0
LINE
  5
3D71
  8
0-1
  6
CONTINUOUS
 62
     3
 10
22755.616763500009
 20
8760.2796759999947
 30
0.0
 11
24537.120194499988
 21
8760.2796759999947
 31
0.0
  0
LINE
  5
3D72
  8
0-1
  6
CONTINUOUS
 62
     3
 10
22755.616763500009
 20
8700.2794779999895
 30
0.0
 11
24537.120194499988
 21
8700.2794779999895
 31
0.0
  0
LINE
  5
3D73
  8
0-1
  6
CONTINUOUS
 62
     3
 10
22713.118479500001
 20
8964.2799529999938
 30
0.0
 11
24665.120854500001
 21
8964.2799529999938
 31
0.0
  0
LINE
  5
3D74
  8
0-1
  6
CONTINUOUS
 62
     3
 10
22649.617503500001
 20
8714.279623999988
 30
0.0
 11
22649.617503500001
 21
8746.279530999991
 31
0.0
  0
LINE
  5
3D75
  8
0-1
  6
CONTINUOUS
 62
     3
 10
22363.656248499989
 20
8710.7442029999875
 30
0.0
 11
22331.655351500001
 21
8742.7441109999891
 31
0.0
  0
LINE
  5
3D76
  8
0-1
  6
CONTINUOUS
 62
     3
 10
22649.617503500001
 20
8742.8806979999936
 30
0.0
 11
22331.524703499981
 21
8742.8806979999936
 31
0.0
  0
LINE
  5
3D77
  8
0-1
  6
CONTINUOUS
 62
     3
 10
22649.617503500001
 20
8734.4806109999863
 30
0.0
 11
22339.919841499988
 21
8734.4806109999863
 31
0.0
  0
LINE
  5
3D78
  8
0-1
  6
CONTINUOUS
 62
     3
 10
22649.617503500001
 20
8726.0795339999859
 30
0.0
 11
22348.318938500001
 21
8726.0795339999859
 31
0.0
  0
LINE
  5
3D79
  8
0-1
  6
CONTINUOUS
 62
     3
 10
22649.617503500001
 20
8717.6794469999913
 30
0.0
 11
22356.71803649998
 21
8717.6794469999913
 31
0.0
  0
LINE
  5
3D7A
  8
0-1
  6
CONTINUOUS
 62
     3
 10
22644.619218499989
 20
8751.2797949999931
 30
0.0
 11
22335.188792500001
 21
8751.2797949999931
 31
0.0
  0
LINE
  5
3D7B
  8
0-1
  6
CONTINUOUS
 62
     3
 10
22644.619218499989
 20
8709.2793599999914
 30
0.0
 11
22367.191669499989
 21
8709.2793599999914
 31
0.0
  0
LINE
  5
3D7C
  8
0-1
  6
CONTINUOUS
 62
     3
 10
19863.617740500002
 20
8709.2793599999914
 30
0.0
 11
20141.04727049997
 21
8709.2793599999914
 31
0.0
  0
LINE
  5
3D7D
  8
0-1
  6
CONTINUOUS
 62
     3
 10
19858.619456500001
 20
8714.279623999988
 30
0.0
 11
19858.619456500001
 21
8746.279530999991
 31
0.0
  0
LINE
  5
3D7E
  8
0-1
  6
CONTINUOUS
 62
     3
 10
19709.61808449998
 20
8638.0929019999912
 30
0.0
 11
19752.616236499998
 21
8638.0929019999912
 31
0.0
  0
LINE
  5
3D7F
  8
0-1
  6
CONTINUOUS
 62
     3
 10
19709.61808449998
 20
8638.0929019999912
 30
0.0
 11
19709.61808449998
 21
8964.2799529999938
 31
0.0
  0
LINE
  5
3D80
  8
0-1
  6
CONTINUOUS
 62
     3
 10
19863.617740500002
 20
8751.2797949999931
 30
0.0
 11
20173.048167500001
 21
8751.2797949999931
 31
0.0
  0
LINE
  5
3D81
  8
0-1
  6
CONTINUOUS
 62
     3
 10
20144.580710499999
 20
8710.7442029999875
 30
0.0
 11
20176.581608500001
 21
8742.7441109999891
 31
0.0
  0
LINE
  5
3D82
  8
0-1
  6
CONTINUOUS
 62
     3
 10
19858.619456500001
 20
8742.8806979999936
 30
0.0
 11
20176.714235500011
 21
8742.8806979999936
 31
0.0
  0
LINE
  5
3D83
  8
0-1
  6
CONTINUOUS
 62
     3
 10
19858.619456500001
 20
8734.4806109999863
 30
0.0
 11
20168.317118499999
 21
8734.4806109999863
 31
0.0
  0
LINE
  5
3D84
  8
0-1
  6
CONTINUOUS
 62
     3
 10
19858.619456500001
 20
8726.0795339999859
 30
0.0
 11
20159.918020500008
 21
8726.0795339999859
 31
0.0
  0
LINE
  5
3D85
  8
0-1
  6
CONTINUOUS
 62
     3
 10
19858.619456500001
 20
8717.6794469999913
 30
0.0
 11
20151.518923499982
 21
8717.6794469999913
 31
0.0
  0
LINE
  5
3D86
  8
0-1
  6
CONTINUOUS
 62
     3
 10
19837.616764499999
 20
8700.2794779999895
 30
0.0
 11
22670.618215499991
 21
8700.2794779999895
 31
0.0
  0
LINE
  5
3D87
  8
0-1
  6
CONTINUOUS
 62
     3
 10
19837.616764499999
 20
8760.2796759999947
 30
0.0
 11
22670.618215499991
 21
8760.2796759999947
 31
0.0
  0
LINE
  5
3D88
  8
0-1
  6
CONTINUOUS
 62
     3
 10
19709.61808449998
 20
8964.2799529999938
 30
0.0
 11
22713.118479500001
 21
8964.2799529999938
 31
0.0
  0
LINE
  5
3D89
  8
0-1
  6
CONTINUOUS
 62
     3
 10
22713.118479500001
 20
8834.2790299999888
 30
0.0
 11
19709.61808449998
 21
8834.2790299999888
 31
0.0
  0
LINE
  5
3D8A
  8
0-1
  6
CONTINUOUS
 62
     3
 10
22713.118479500001
 20
8834.2790299999888
 30
0.0
 11
22713.118479500001
 21
8964.2799529999938
 31
0.0
  0
LINE
  5
3D8B
  8
0-1
  6
CONTINUOUS
 62
     3
 10
22713.118479500001
 20
8834.2790299999888
 30
0.0
 11
22713.118479500001
 21
8964.2799529999938
 31
0.0
  0
ARC
  5
3D8C
  8
0-1
  6
CONTINUOUS
 62
     3
 10
24511.121197499979
 20
8746.279530999991
 30
0.0
 40
5.0
 50
0.0
 51
90.0
  0
ARC
  5
3D8D
  8
0-1
  6
CONTINUOUS
 62
     3
 10
24511.121197499979
 20
8714.279623999988
 30
0.0
 40
5.0
 50
269.9999850001808
 51
0.0
  0
ARC
  5
3D8E
  8
0-1
  6
CONTINUOUS
 62
     3
 10
24201.690771500002
 20
8746.279530999991
 30
0.0
 40
5.0
 50
90.0
 51
224.99998499997989
  0
ARC
  5
3D8F
  8
0-1
  6
CONTINUOUS
 62
     3
 10
24233.691668499989
 20
8714.279623999988
 30
0.0
 40
5.0
 50
224.99998499997989
 51
269.9999850001808
  0
ARC
  5
3D90
  8
0-1
  6
CONTINUOUS
 62
     3
 10
23091.04816650003
 20
8746.279530999991
 30
0.0
 40
5.0
 50
314.99998500027471
 51
90.0
  0
ARC
  5
3D91
  8
0-1
  6
CONTINUOUS
 62
     3
 10
23059.04726950001
 20
8714.279623999988
 30
0.0
 40
5.0
 50
269.9999850001808
 51
314.99998500027471
  0
ARC
  5
3D92
  8
0-1
  6
CONTINUOUS
 62
     3
 10
22781.619719499999
 20
8714.279623999988
 30
0.0
 40
5.0
 50
180.0
 51
269.9999850001808
  0
ARC
  5
3D93
  8
0-1
  6
CONTINUOUS
 62
     3
 10
22781.619719499999
 20
8746.279530999991
 30
0.0
 40
5.0
 50
90.0
 51
180.0
  0
ARC
  5
3D94
  8
0-1
  6
CONTINUOUS
 62
     3
 10
22644.619218499989
 20
8714.279623999988
 30
0.0
 40
5.0
 50
269.9999850001808
 51
0.0
  0
ARC
  5
3D95
  8
0-1
  6
CONTINUOUS
 62
     3
 10
22644.619218499989
 20
8746.279530999991
 30
0.0
 40
5.0
 50
0.0
 51
90.0
  0
ARC
  5
3D96
  8
0-1
  6
CONTINUOUS
 62
     3
 10
22335.188792500001
 20
8746.279530999991
 30
0.0
 40
5.0
 50
90.0
 51
224.99998499997989
  0
ARC
  5
3D97
  8
0-1
  6
CONTINUOUS
 62
     3
 10
22367.191669499989
 20
8714.279623999988
 30
0.0
 40
5.0
 50
224.99998499997989
 51
269.9999850001808
  0
ARC
  5
3D98
  8
0-1
  6
CONTINUOUS
 62
     3
 10
20173.048167500001
 20
8746.279530999991
 30
0.0
 40
5.0
 50
314.99998500027471
 51
90.0
  0
ARC
  5
3D99
  8
0-1
  6
CONTINUOUS
 62
     3
 10
19863.617740500002
 20
8746.279530999991
 30
0.0
 40
5.0
 50
90.0
 51
180.0
  0
ARC
  5
3D9A
  8
0-1
  6
CONTINUOUS
 62
     3
 10
19863.617740500002
 20
8714.279623999988
 30
0.0
 40
5.0
 50
180.0
 51
269.9999850001808
  0
ARC
  5
3D9B
  8
0-1
  6
CONTINUOUS
 62
     3
 10
20141.04727049997
 20
8714.279623999988
 30
0.0
 40
5.0
 50
269.9999850001808
 51
314.99998500027471
  0
LINE
  5
3D9C
  8
SUNPOU
  6
CONTINUOUS
 62
     4
 10
19709.616104499979
 20
9044.2799529999938
 30
0.0
 11
19709.616104499979
 21
10243.73756499999
 31
0.0
  0
LINE
  5
3D9D
  8
SUNPOU
  6
CONTINUOUS
 62
     4
 10
24665.120854500001
 20
9044.2799529999938
 30
0.0
 11
24665.120854500001
 21
10243.73756499999
 31
0.0
  0
LINE
  5
3D9E
  8
SUNPOU
  6
CONTINUOUS
 62
     4
 10
19712.616104499979
 20
10163.73756499999
 30
0.0
 11
24662.120854500001
 21
10163.73756499999
 31
0.0
  0
LINE
  5
3D9F
  8
SUNPOU
  6
CONTINUOUS
 62
     4
 10
19752.618215499981
 20
9044.2799529999938
 30
0.0
 11
19752.618215499981
 21
9843.7797949999913
 31
0.0
  0
LINE
  5
3DA0
  8
SUNPOU
  6
CONTINUOUS
 62
     4
 10
24622.118743499981
 20
9044.2799529999938
 30
0.0
 11
24622.118743499981
 21
9843.7797949999913
 31
0.0
  0
LINE
  5
3DA1
  8
SUNPOU
  6
CONTINUOUS
 62
     4
 10
19752.618215499981
 20
9763.7797949999913
 30
0.0
 11
24622.118743499981
 21
9763.7797949999913
 31
0.0
  0
LINE
  5
3DA2
  8
SUNPOU
  6
CONTINUOUS
 62
     4
 10
19752.618215499981
 20
9044.2799529999938
 30
0.0
 11
19752.618215499981
 21
9843.7797949999913
 31
0.0
  0
LINE
  5
3DA3
  8
SUNPOU
  6
CONTINUOUS
 62
     4
 10
19709.616104499979
 20
9044.2799529999938
 30
0.0
 11
19709.616104499979
 21
9843.7797949999913
 31
0.0
  0
LINE
  5
3DA4
  8
SUNPOU
  6
CONTINUOUS
 62
     4
 10
19752.618215499981
 20
9763.7797949999913
 30
0.0
 11
19992.618215499981
 21
9763.7797949999913
 31
0.0
  0
LINE
  5
3DA5
  8
SUNPOU
  6
CONTINUOUS
 62
     4
 10
19712.616104499979
 20
9763.7797949999913
 30
0.0
 11
19472.616104500001
 21
9763.7797949999913
 31
0.0
  0
LINE
  5
3DA6
  8
SUNPOU
  6
CONTINUOUS
 62
     4
 10
19752.618215499981
 20
9763.7797949999913
 30
0.0
 11
19712.616104499979
 21
9763.7797949999913
 31
0.0
  0
LINE
  5
3DA7
  8
SUNPOU
  6
CONTINUOUS
 62
     4
 10
24622.118743499981
 20
9044.2799529999938
 30
0.0
 11
24622.118743499981
 21
9843.7797949999913
 31
0.0
  0
LINE
  5
3DA8
  8
SUNPOU
  6
CONTINUOUS
 62
     4
 10
24665.120854500001
 20
9044.2799529999938
 30
0.0
 11
24665.120854500001
 21
9843.7797949999913
 31
0.0
  0
LINE
  5
3DA9
  8
SUNPOU
  6
CONTINUOUS
 62
     4
 10
24622.118743499981
 20
9763.7797949999913
 30
0.0
 11
24382.118743499981
 21
9763.7797949999913
 31
0.0
  0
LINE
  5
3DAA
  8
SUNPOU
  6
CONTINUOUS
 62
     4
 10
24662.120854500001
 20
9763.7797949999913
 30
0.0
 11
24902.120854500001
 21
9763.7797949999913
 31
0.0
  0
LINE
  5
3DAB
  8
SUNPOU
  6
CONTINUOUS
 62
     4
 10
24622.118743499981
 20
9763.7797949999913
 30
0.0
 11
24662.120854500001
 21
9763.7797949999913
 31
0.0
  0
TEXT
  5
3DAC
  8
0
  6
CONTINUOUS
 62
     7
 10
24782.120854500001
 20
9843.7797949999913
 30
0.0
 40
160.0
  1
43
  0
TEXT
  5
3DAD
  8
0
  6
CONTINUOUS
 62
     7
 10
19352.616104500001
 20
9843.7797949999913
 30
0.0
 40
160.0
  1
43
  0
TEXT
  5
3DAE
  8
0
  6
CONTINUOUS
 62
     7
 10
21787.368479500001
 20
9843.7797949999913
 30
0.0
 40
160.0
  1
4869.5
  0
TEXT
  5
3DAF
  8
0
  6
CONTINUOUS
 62
     7
 10
21787.368479500001
 20
10243.73756499999
 30
0.0
 40
160.0
  1
4955.5
  0
ARC
  5
3DB0
  8
0
  6
BYBLOCK
 62
     0
 10
19709.616104499979
 20
10163.73756499999
 30
0.0
 40
15.0
 50
0.0
 51
180.0
  0
ARC
  5
3DB1
  8
0
  6
BYBLOCK
 62
     0
 10
19709.616104499979
 20
10163.73756499999
 30
0.0
 40
15.0
 50
180.0
 51
0.0
  0
ARC
  5
3DB2
  8
0
  6
BYBLOCK
 62
     0
 10
24665.120854500001
 20
10163.73756499999
 30
0.0
 40
15.0
 50
180.0
 51
0.0
  0
ARC
  5
3DB3
  8
0
  6
BYBLOCK
 62
     0
 10
24665.120854500001
 20
10163.73756499999
 30
0.0
 40
15.0
 50
0.0
 51
180.0
  0
ARC
  5
3DB4
  8
0
  6
BYBLOCK
 62
     0
 10
19752.618215499981
 20
9763.7797949999913
 30
0.0
 40
15.0
 50
0.0
 51
180.0
  0
ARC
  5
3DB5
  8
0
  6
BYBLOCK
 62
     0
 10
19752.618215499981
 20
9763.7797949999913
 30
0.0
 40
15.0
 50
180.0
 51
0.0
  0
ARC
  5
3DB6
  8
0
  6
BYBLOCK
 62
     0
 10
24622.118743499981
 20
9763.7797949999913
 30
0.0
 40
15.0
 50
180.0
 51
0.0
  0
ARC
  5
3DB7
  8
0
  6
BYBLOCK
 62
     0
 10
24622.118743499981
 20
9763.7797949999913
 30
0.0
 40
15.0
 50
0.0
 51
180.0
  0
ARC
  5
3DB8
  8
0
  6
BYBLOCK
 62
     0
 10
19752.618215499981
 20
9763.7797949999913
 30
0.0
 40
15.0
 50
0.0
 51
180.0
  0
ARC
  5
3DB9
  8
0
  6
BYBLOCK
 62
     0
 10
19752.618215499981
 20
9763.7797949999913
 30
0.0
 40
15.0
 50
180.0
 51
0.0
  0
ARC
  5
3DBA
  8
0
  6
BYBLOCK
 62
     0
 10
19709.616104499979
 20
9763.7797949999913
 30
0.0
 40
15.0
 50
180.0
 51
0.0
  0
ARC
  5
3DBB
  8
0
  6
BYBLOCK
 62
     0
 10
19709.616104499979
 20
9763.7797949999913
 30
0.0
 40
15.0
 50
0.0
 51
180.0
  0
ARC
  5
3DBC
  8
0
  6
BYBLOCK
 62
     0
 10
24622.118743499981
 20
9763.7797949999913
 30
0.0
 40
15.0
 50
180.0
 51
0.0
  0
ARC
  5
3DBD
  8
0
  6
BYBLOCK
 62
     0
 10
24622.118743499981
 20
9763.7797949999913
 30
0.0
 40
15.0
 50
0.0
 51
180.0
  0
ARC
  5
3DBE
  8
0
  6
BYBLOCK
 62
     0
 10
24665.120854500001
 20
9763.7797949999913
 30
0.0
 40
15.0
 50
0.0
 51
180.0
  0
ARC
  5
3DBF
  8
0
  6
BYBLOCK
 62
     0
 10
24665.120854500001
 20
9763.7797949999913
 30
0.0
 40
15.0
 50
180.0
 51
0.0
  0
LINE
  5
3DCD
  8
SUNPOU
  6
CONTINUOUS
 62
     4
 10
9064.1600894999792
 20
14133.73164
 30
0.0
 11
9064.1600894999792
 21
12935.787238000001
 31
0.0
  0
LINE
  5
3DCE
  8
SUNPOU
  6
CONTINUOUS
 62
     4
 10
14019.660881499971
 20
14133.73164
 30
0.0
 11
14019.660881499971
 21
12935.787238000001
 31
0.0
  0
LINE
  5
3DCF
  8
SUNPOU
  6
CONTINUOUS
 62
     4
 10
9064.1600894999792
 20
13015.787238000001
 30
0.0
 11
14019.660881499971
 21
13015.787238000001
 31
0.0
  0
TEXT
  5
3DD0
  8
0
  6
CONTINUOUS
 62
     7
 10
10619.243818833311
 20
13095.78723800001
 30
0.0
 40
160.0
  1
ケラバ外寸 4955.5
  0
ARC
  5
3DD1
  8
0
  6
BYBLOCK
 62
     0
 10
9064.1600894999792
 20
13015.787238000001
 30
0.0
 40
15.0
 50
0.0
 51
180.0
  0
ARC
  5
3DD2
  8
0
  6
BYBLOCK
 62
     0
 10
9064.1600894999792
 20
13015.787238000001
 30
0.0
 40
15.0
 50
180.0
 51
0.0
  0
ARC
  5
3DD3
  8
0
  6
BYBLOCK
 62
     0
 10
14019.660881499971
 20
13015.787238000001
 30
0.0
 40
15.0
 50
180.0
 51
0.0
  0
ARC
  5
3DD4
  8
0
  6
BYBLOCK
 62
     0
 10
14019.660881499971
 20
13015.787238000001
 30
0.0
 40
15.0
 50
0.0
 51
180.0
  0
TEXT
  5
3E2A
  8
NAME
 10
21933.552716389011
 20
1876.0
 30
0.0
 40
360.0
  1
ヨドガレージ ラヴィージュ
 41
0.75
  7
01
  0
LINE
  5
3E2B
  8
NAME
  6
CONTINUOUS
 10
26067.886878884299
 20
2236.0
 30
0.0
 11
26067.886878884299
 21
1876.0
 31
0.0
  0
LINE
  5
3E2C
  8
NAME
  6
CONTINUOUS
 10
26167.886878884299
 20
2236.0
 30
0.0
 11
26167.886878884299
 21
1876.0
 31
0.0
  0
LINE
  5
3E2D
  8
NAME
  6
CONTINUOUS
 10
26267.88687888431
 20
2236.0
 30
0.0
 11
26267.88687888431
 21
1876.0
 31
0.0
  0
LINE
  5
3E2E
  8
NAME
  6
CONTINUOUS
 10
26007.886878884299
 20
2236.0
 30
0.0
 11
26327.886878884299
 21
2236.0
 31
0.0
  0
LINE
  5
3E2F
  8
NAME
  6
CONTINUOUS
 10
26327.886878884299
 20
1876.0
 30
0.0
 11
26007.886878884299
 21
1876.0
 31
0.0
  0
TEXT
  5
3EB6
  8
NAME
 10
25530.092913773511
 20
1076.0
 30
0.0
 40
360.0
  1
型（単棟）
 41
0.6
  7
01
  0
TEXT
  5
3EB7
  8
NAME
 10
21583.547829600931
 20
1076.6369801169251
 30
0.0
 40
360.0
  1
VGC-3055（H）+1955（H）
 41
0.55
  0
TEXT
  5
3F51
  8
FILENAME
  6
CONTINUOUS
 10
27746.857142857141
 20
348.0
 30
0.0
 40
200.0
  1
＜VGC-3055+1955-1-A_0.DXF ＞
  7
FILENAME
 72
     2
 11
32764.0
 21
348.0
 31
0.0
  0
LINE
  5
3F57
  8
WAKUSEN-01
 10
868.00000000000193
 20
827.99999999999955
 30
0.0
 11
32764.000000000011
 21
827.99999999999943
 31
0.0
  0
LINE
  5
3F58
  8
WAKUSEN-01
 10
868.00000000000193
 20
827.99999999999955
 30
0.0
 11
868.00000000000193
 21
22484.000000000011
 31
0.0
  0
LINE
  5
3F59
  8
WAKUSEN-01
 10
32764.000000000011
 20
827.99999999999943
 30
0.0
 11
32764.000000000011
 21
22484.000000000011
 31
0.0
  0
LINE
  5
3F5A
  8
WAKUSEN-01
 10
20560.0
 20
827.99999999999716
 30
0.0
 11
20560.0
 21
2484.0
 31
0.0
  0
LINE
  5
3F5B
  8
WAKUSEN-02
 10
26868.0
 20
827.99999999999261
 30
0.0
 11
26868.0
 21
2484.0
 31
0.0
  0
ENDSEC
  0
EOF
