  0
SECTION
  2
HEADER
  9
$ACADVER
  1
AC1009
  9
$INSBASE
 10
0.0
 20
0.0
 30
0.0
  9
$EXTMIN
 10
867.99324330406671
 20
327.38164749855792
 30
-0.0000000000000053
  9
$EXTMAX
 10
32765.33210850941
 20
22484.553276491992
 30
0.0000000000000099
  9
$LIMMIN
 10
0.0
 20
0.0
  9
$LIMMAX
 10
33600.0
 20
23760.0
  9
$ORTHOMODE
 70
     1
  9
$REGENMODE
 70
     1
  9
$FILLMODE
 70
     1
  9
$QTEXTMODE
 70
     0
  9
$MIRRTEXT
 70
     1
  9
$DRAGMODE
 70
     2
  9
$LTSCALE
 40
80.0
  9
$OSMODE
 70
  3071
  9
$ATTMODE
 70
     1
  9
$TEXTSIZE
 40
0.2
  9
$TRACEWID
 40
0.05
  9
$TEXTSTYLE
  7
00
  9
$CLAYER
  8
0
  9
$CELTYPE
  6
BYLAYER
  9
$CECOLOR
 62
   256
  9
$DIMSCALE
 40
80.0
  9
$DIMASZ
 40
3.0
  9
$DIMEXO
 40
1.0
  9
$DIMDLI
 40
0.38
  9
$DIMRND
 40
0.5
  9
$DIMDLE
 40
0.0
  9
$DIMEXE
 40
1.0
  9
$DIMTP
 40
0.0
  9
$DIMTM
 40
0.0
  9
$DIMTXT
 40
2.0
  9
$DIMCEN
 40
0.09
  9
$DIMTSZ
 40
0.0
  9
$DIMTOL
 70
     0
  9
$DIMLIM
 70
     0
  9
$DIMTIH
 70
     0
  9
$DIMTOH
 70
     0
  9
$DIMSE1
 70
     0
  9
$DIMSE2
 70
     0
  9
$DIMTAD
 70
     1
  9
$DIMZIN
 70
     8
  9
$DIMBLK
  1
DOTSMALL
  9
$DIMASO
 70
     1
  9
$DIMSHO
 70
     1
  9
$DIMPOST
  1

  9
$DIMAPOST
  1

  9
$DIMALT
 70
     0
  9
$DIMALTD
 70
     2
  9
$DIMALTF
 40
25.399999999999999
  9
$DIMLFAC
 40
1.0
  9
$DIMTOFL
 70
     1
  9
$DIMTVP
 40
0.0
  9
$DIMTIX
 70
     0
  9
$DIMSOXD
 70
     0
  9
$DIMSAH
 70
     0
  9
$DIMBLK1
  1

  9
$DIMBLK2
  1

  9
$DIMSTYLE
  2
SUNPOU
  9
$DIMCLRD
 70
     4
  9
$DIMCLRE
 70
     4
  9
$DIMCLRT
 70
     7
  9
$DIMTFAC
 40
1.0
  9
$DIMGAP
 40
1.0
  9
$LUNITS
 70
     2
  9
$LUPREC
 70
     4
  9
$SKETCHINC
 40
0.1
  9
$FILLETRAD
 40
0.0
  9
$AUNITS
 70
     0
  9
$AUPREC
 70
     0
  9
$MENU
  1
acad
  9
$ELEVATION
 40
0.0
  9
$PELEVATION
 40
0.0
  9
$THICKNESS
 40
0.0
  9
$LIMCHECK
 70
     0
  9
$BLIPMODE
 70
     1
  9
$CHAMFERA
 40
0.0
  9
$CHAMFERB
 40
0.0
  9
$SKPOLY
 70
     0
  9
$TDCREATE
 40
2440588.749988426
  9
$TDUPDATE
 40
2458942.446782894
  9
$TDINDWG
 40
0.0490141667
  9
$TDUSRTIMER
 40
0.0490132407
  9
$USRTIMER
 70
     1
  9
$ANGBASE
 50
0.0
  9
$ANGDIR
 70
     0
  9
$PDMODE
 70
     0
  9
$PDSIZE
 40
0.0
  9
$PLINEWID
 40
0.0
  9
$COORDS
 70
     1
  9
$SPLFRAME
 70
     0
  9
$SPLINETYPE
 70
     6
  9
$SPLINESEGS
 70
     8
  9
$ATTDIA
 70
     1
  9
$ATTREQ
 70
     1
  9
$HANDLING
 70
     1
  9
$HANDSEED
  5
3F0E
  9
$SURFTAB1
 70
     6
  9
$SURFTAB2
 70
     6
  9
$SURFTYPE
 70
     6
  9
$SURFU
 70
     6
  9
$SURFV
 70
     6
  9
$UCSNAME
  2

  9
$UCSORG
 10
0.0
 20
0.0
 30
0.0
  9
$UCSXDIR
 10
1.0
 20
0.0
 30
0.0
  9
$UCSYDIR
 10
0.0
 20
1.0
 30
0.0
  9
$PUCSNAME
  2

  9
$PUCSORG
 10
0.0
 20
0.0
 30
0.0
  9
$PUCSXDIR
 10
1.0
 20
0.0
 30
0.0
  9
$PUCSYDIR
 10
0.0
 20
1.0
 30
0.0
  9
$USERI1
 70
     0
  9
$USERI2
 70
     0
  9
$USERI3
 70
     0
  9
$USERI4
 70
     0
  9
$USERI5
 70
     0
  9
$USERR1
 40
0.0
  9
$USERR2
 40
0.0
  9
$USERR3
 40
0.0
  9
$USERR4
 40
0.0
  9
$USERR5
 40
0.0
  9
$WORLDVIEW
 70
     1
  9
$SHADEDGE
 70
     3
  9
$SHADEDIF
 70
    70
  9
$TILEMODE
 70
     1
  9
$MAXACTVP
 70
    16
  9
$PLIMCHECK
 70
     0
  9
$PEXTMIN
 10
1.0000000000000000E+020
 20
1.0000000000000000E+020
 30
1.0000000000000000E+020
  9
$PEXTMAX
 10
-1.0000000000000000E+020
 20
-1.0000000000000000E+020
 30
-1.0000000000000000E+020
  9
$PLIMMIN
 10
0.0
 20
0.0
  9
$PLIMMAX
 10
12.0
 20
9.0
  9
$UNITMODE
 70
     0
  9
$VISRETAIN
 70
     0
  9
$PLINEGEN
 70
     1
  9
$PSLTSCALE
 70
     0
  0
ENDSEC
  0
SECTION
  2
TABLES
  0
TABLE
  2
VPORT
 70
     1
  0
VPORT
  2
*ACTIVE
 70
     0
 10
0.0
 20
0.0
 11
1.0
 21
1.0
 12
16800.0
 22
11880.0
 13
0.0
 23
0.0
 14
1.0
 24
1.0
 15
0.0
 25
0.0
 16
0.0
 26
0.0
 36
1.0
 17
0.0
 27
0.0
 37
0.0
 40
23981.023255813951
 41
2.195652173913043
 42
50.0
 43
0.0
 44
0.0
 50
0.0
 51
0.0
 71
     0
 72
 10000
 73
     1
 74
     1
 75
     0
 76
     0
 77
     0
 78
     0
  0
ENDTAB
  0
TABLE
  2
LTYPE
 70
     3
  0
LTYPE
  2
CONTINUOUS
 70
     0
  3
Solid line
 72
    65
 73
     0
 40
0.0
  0
LTYPE
  2
DASHED3
 70
     0
  3
------  ------  ------  ------  
 72
    65
 73
     2
 40
5.0
 49
3.75
 49
-1.25
  0
LTYPE
  2
CENTER2
 70
     0
  3
----------  --  ----------  --  
 72
    65
 73
     4
 40
20.0
 49
12.5
 49
-2.5
 49
2.5
 49
-2.5
  0
ENDTAB
  0
TABLE
  2
LAYER
 70
    18
  0
LAYER
  2
0
 70
     0
 62
     7
  6
CONTINUOUS
  0
LAYER
  2
SUNPOU
 70
     0
 62
     4
  6
CONTINUOUS
  0
LAYER
  2
0-1
 70
     0
 62
     7
  6
CONTINUOUS
  0
LAYER
  2
0-2
 70
     0
 62
     7
  6
CONTINUOUS
  0
LAYER
  2
0-6
 70
     0
 62
     7
  6
CONTINUOUS
  0
LAYER
  2
2-0
 70
     0
 62
     7
  6
CONTINUOUS
  0
LAYER
  2
0-8
 70
     0
 62
     7
  6
CONTINUOUS
  0
LAYER
  2
YODOROGO
 70
     0
 62
   130
  6
CONTINUOUS
  0
LAYER
  2
WAKUSEN-01
 70
     0
 62
    50
  6
CONTINUOUS
  0
LAYER
  2
WAKUSEN-02
 70
     0
 62
   130
  6
CONTINUOUS
  0
LAYER
  2
WAKUMOJI-01
 70
     0
 62
   130
  6
CONTINUOUS
  0
LAYER
  2
FILENAME
 70
     0
 62
     7
  6
CONTINUOUS
  0
LAYER
  2
NAME
 70
     0
 62
    20
  6
CONTINUOUS
  0
LAYER
  2
0-4
 70
     0
 62
     7
  6
CONTINUOUS
  0
LAYER
  2
0-5
 70
     0
 62
     7
  6
CONTINUOUS
  0
LAYER
  2
0-0
 70
     0
 62
     7
  6
CONTINUOUS
  0
ENDTAB
  0
TABLE
  2
STYLE
 70
     6
  0
STYLE
  2
STANDARD
 70
     0
 40
0.0
 41
1.0
 50
0.0
 71
     0
 42
0.0
  3
txt
  4
BIGFONT
  0
STYLE
  2
00
 70
     0
 40
0.0
 41
0.6666666666666666
 50
0.0
 71
     0
 42
0.2
  3
ROMANS
  4
BIGFONT
  0
STYLE
  2
01
 70
     0
 40
3.0
 41
1.0
 50
0.0
 71
     0
 42
0.2
  3
ROMANS
  4
BIGFONT
  0
STYLE
  2
WAKUMOJI
 70
     0
 40
3.0
 41
1.0
 50
0.0
 71
     0
 42
3.0
  3
SIMPLEX
  4
BIGFONT
  0
STYLE
  2
FILENAME
 70
     0
 40
200.0
 41
1.0
 50
0.0
 71
     0
 42
200.0
  3
romans
  4
bigfont
  0
ENDTAB
  0
TABLE
  2
VIEW
 70
     0
  0
ENDTAB
  0
TABLE
  2
UCS
 70
     0
  0
ENDTAB
  0
TABLE
  2
APPID
 70
    13
  0
APPID
  2
ACAD
 70
     0
  0
APPID
  2
ACADANNOTATIVE
 70
     0
  0
APPID
  2
ACAD_PSEXT
 70
     0
  0
APPID
  2
DCO15
 70
     0
  0
APPID
  2
ACAD_MLEADERVER
 70
     0
  0
APPID
  2
AUTOCAD_POSTSCRIPT_FIGURE
 70
     0
  0
APPID
  2
ACAD_EXEMPT_FROM_CAD_STANDARDS
 70
     0
  0
APPID
  2
ACAD_DSTYLE_DIMJAG
 70
     0
  0
APPID
  2
ACAD_DSTYLE_DIMTALN
 70
     0
  0
APPID
  2
ACAD_DSTYLE_DIM_LINETYPE
 70
     0
  0
APPID
  2
ACAD_DSTYLE_DIM_EXT1_LINETYPE
 70
     0
  0
APPID
  2
ACAD_DSTYLE_DIM_EXT2_LINETYPE
 70
     0
  0
APPID
  2
ACAD_NAV_VCDISPLAY
 70
     0
  0
ENDTAB
  0
TABLE
  2
DIMSTYLE
 70
     3
  0
DIMSTYLE
  2
SUNPOU
 70
     0
  3

  4

  5

  6

  7

 40
80.0
 41
3.0
 42
1.0
 43
0.38
 44
1.0
 45
0.5
 46
0.0
 47
0.0
 48
0.0
140
2.0
141
0.09
142
0.0
143
25.399999999999999
144
1.0
145
0.0
146
1.0
147
1.0
 71
     0
 72
     0
 73
     0
 74
     0
 75
     0
 76
     0
 77
     1
 78
     8
170
     0
171
     2
172
     1
173
     0
174
     0
175
     0
176
     4
177
     4
178
     7
  0
ENDTAB
  0
ENDSEC
  0
SECTION
  2
BLOCKS
  0
BLOCK
  8
0
  2
$MODEL_SPACE
 70
     0
 10
0.0
 20
0.0
 30
0.0
  3
$MODEL_SPACE
  1

  0
ENDBLK
  5
3E64
  8
0
  0
BLOCK
 67
     1
  8
0
  2
$PAPER_SPACE
 70
     0
 10
0.0
 20
0.0
 30
0.0
  3
$PAPER_SPACE
  1

  0
ENDBLK
  5
3E60
 67
     1
  8
0
  0
BLOCK
  8
0
  2
_DOTSMALL
 70
     0
 10
0.0
 20
0.0
 30
0.0
  3
_DOTSMALL
  1

  0
POLYLINE
  5
33BB
  8
0
  6
BYBLOCK
 62
     0
 66
     1
 10
0.0
 20
0.0
 30
0.0
 70
     1
 40
0.5
 41
0.5
  0
VERTEX
  5
3ECB
  8
0
  6
BYBLOCK
 62
     0
 10
-0.0625
 20
0.0
 30
0.0
 42
1.0
  0
VERTEX
  5
3ECC
  8
0
  6
BYBLOCK
 62
     0
 10
0.0625
 20
0.0
 30
0.0
 42
1.0
  0
SEQEND
  5
3ECD
  8
0
  6
BYBLOCK
 62
     0
  0
ENDBLK
  5
33BF
  8
0
  0
ENDSEC
  0
SECTION
  2
ENTITIES
  0
LINE
  5
33C0
  8
0-2
  6
CONTINUOUS
 62
     3
 10
8651.5882179999735
 20
17109.534060999991
 30
0.0
 11
13078.48021499997
 21
17109.534060999991
 31
0.0
  0
LINE
  5
33C1
  8
0-2
  6
CONTINUOUS
 62
     3
 10
8701.5888379999742
 20
14347.535472999991
 30
0.0
 11
8701.5888379999742
 21
19807.537781999999
 31
0.0
  0
LINE
  5
33C2
  8
0-2
  6
CONTINUOUS
 62
     3
 10
8566.0878219999686
 20
14315.534574999991
 30
0.0
 11
8566.0878219999686
 21
19855.537148999989
 31
0.0
  0
LINE
  5
33C3
  8
0-2
  6
CONTINUOUS
 62
     3
 10
8639.5873469999751
 20
19855.537148999989
 30
0.0
 11
13448.08908899997
 21
19855.537148999989
 31
0.0
  0
LINE
  5
33C4
  8
0-2
  6
CONTINUOUS
 62
     3
 10
11136.117197999951
 20
18233.583891999999
 30
0.0
 11
11262.859833999961
 21
18449.076263999988
 31
0.0
  0
LINE
  5
33C5
  8
0-2
  6
CONTINUOUS
 62
     3
 10
11871.335142999949
 20
17511.120975000002
 30
0.0
 11
11998.078768999971
 21
17726.613346999991
 31
0.0
  0
LINE
  5
33C6
  8
0-2
  6
CONTINUOUS
 62
     3
 10
11871.335142999949
 20
17511.120975000002
 30
0.0
 11
11262.859833999961
 21
18449.076263999988
 31
0.0
  0
LINE
  5
33C7
  8
0-2
  6
CONTINUOUS
 62
     3
 10
8651.5882179999735
 20
17030.533454
 30
0.0
 11
13225.29522299997
 21
17030.533454
 31
0.0
  0
LINE
  5
33C8
  8
0-2
  6
CONTINUOUS
 62
     3
 10
8609.0879539999714
 20
14471.535485999981
 30
0.0
 11
13478.58749199997
 21
14471.535485999981
 31
0.0
  0
LINE
  5
33C9
  8
0-2
  6
CONTINUOUS
 62
     3
 10
8651.5882179999735
 20
14550.53510299998
 30
0.0
 11
13436.08821799997
 21
14550.53510299998
 31
0.0
  0
LINE
  5
33CA
  8
0-2
  6
CONTINUOUS
 62
     3
 10
8566.0878219999686
 20
14315.534574999991
 30
0.0
 11
13521.58861399996
 21
14315.534574999991
 31
0.0
  0
LINE
  5
33CB
  8
0-2
  6
CONTINUOUS
 62
     3
 10
8566.0878219999686
 20
14347.535472999991
 30
0.0
 11
13521.58861399996
 21
14347.535472999991
 31
0.0
  0
LINE
  5
33CC
  8
0-2
  6
CONTINUOUS
 62
     3
 10
8651.5882179999735
 20
14471.535485999981
 30
0.0
 11
8651.5882179999735
 21
19382.97657599999
 31
0.0
  0
LINE
  5
33CD
  8
0-2
  6
CONTINUOUS
 62
     3
 10
8609.0879539999714
 20
14471.535485999981
 30
0.0
 11
8609.0879539999714
 21
19402.554014999991
 31
0.0
  0
LINE
  5
33CE
  8
0-2
  6
CONTINUOUS
 62
     3
 10
8721.5879539999733
 20
14508.03582899998
 30
0.0
 11
11499.58848199997
 21
17075.535829
 31
0.0
  0
LINE
  5
33CF
  8
0-2
  6
CONTINUOUS
 62
     3
 10
11499.58848199997
 20
14508.03582899998
 30
0.0
 11
8721.5879539999733
 21
17075.535829
 31
0.0
  0
LINE
  5
33D0
  8
0-2
  6
CONTINUOUS
 62
     3
 10
13366.08848199997
 20
14508.03582899998
 30
0.0
 11
11639.58795399995
 21
17075.535829
 31
0.0
  0
LINE
  5
33D1
  8
0-2
  6
CONTINUOUS
 62
     3
 10
13478.58749199997
 20
14471.535485999981
 30
0.0
 11
13478.58749199997
 21
16885.862318
 31
0.0
  0
LINE
  5
33D2
  8
0-2
  6
CONTINUOUS
 62
     3
 10
13436.08821799997
 20
14471.535485999981
 30
0.0
 11
13436.08821799997
 21
16910.139134000001
 31
0.0
  0
LINE
  5
33D3
  8
0-2
  6
CONTINUOUS
 62
     3
 10
13521.58861399996
 20
14315.534574999991
 30
0.0
 11
13521.58861399996
 21
19855.537148999989
 31
0.0
  0
LINE
  5
33D4
  8
0-2
  6
CONTINUOUS
 62
     3
 10
13386.08858799997
 20
14347.535472999991
 30
0.0
 11
13386.08858799997
 21
19807.537781999999
 31
0.0
  0
LINE
  5
33D5
  8
0-2
  6
CONTINUOUS
 62
     3
 10
11136.117197999951
 20
18233.583891999999
 30
0.0
 11
8417.8931819999762
 21
19490.632694
 31
0.0
  0
LINE
  5
33D6
  8
0-2
  6
CONTINUOUS
 62
     3
 10
13622.78453399994
 20
16803.506427
 30
0.0
 11
11998.078768999971
 21
17726.613346999991
 31
0.0
  0
LINE
  5
33D7
  8
0-2
  6
CONTINUOUS
 62
     3
 10
10367.72746999996
 20
18587.543588999979
 30
0.0
 11
8721.5879539999733
 21
17075.535829
 31
0.0
  0
LINE
  5
33D8
  8
0-2
  6
CONTINUOUS
 62
     3
 10
9362.2547609999729
 20
19060.216070999992
 30
0.0
 11
11499.58848199997
 21
17075.535829
 31
0.0
  0
LINE
  5
33D9
  8
0-2
  6
CONTINUOUS
 62
     3
 10
8584.0885739999685
 20
19807.537781999999
 30
0.0
 11
13503.58885199995
 21
19807.537781999999
 31
0.0
  0
LINE
  5
33DA
  8
0-2
  6
CONTINUOUS
 62
     3
 10
8584.0885739999685
 20
19825.533586000001
 30
0.0
 11
8634.5900519999759
 21
19825.533586000001
 31
0.0
  0
LINE
  5
33DB
  8
0-2
  6
CONTINUOUS
 62
     3
 10
8584.0885739999685
 20
19848.038733000001
 30
0.0
 11
8566.0878219999686
 21
19848.038733000001
 31
0.0
  0
LINE
  5
33DC
  8
0-2
  6
CONTINUOUS
 62
     3
 10
8634.5900519999759
 20
19865.537677
 30
0.0
 11
8571.0880859999743
 21
19865.537677
 31
0.0
  0
LINE
  5
33DD
  8
0-2
  6
CONTINUOUS
 62
     3
 10
8566.0878219999686
 20
19860.537412999991
 30
0.0
 11
8566.0878219999686
 21
19825.533586000001
 31
0.0
  0
LINE
  5
33DE
  8
0-2
  6
CONTINUOUS
 62
     3
 10
8639.5873469999751
 20
19830.53385
 30
0.0
 11
8639.5873469999751
 21
19860.537412999991
 31
0.0
  0
LINE
  5
33DF
  8
0-2
  6
CONTINUOUS
 62
     3
 10
8584.0885739999685
 20
19412.689149999998
 30
0.0
 11
8584.0885739999685
 21
19848.038733000001
 31
0.0
  0
LINE
  5
33E0
  8
0-2
  6
CONTINUOUS
 62
     3
 10
13453.089352999959
 20
19865.537677
 30
0.0
 11
13516.588349999951
 21
19865.537677
 31
0.0
  0
LINE
  5
33E1
  8
0-2
  6
CONTINUOUS
 62
     3
 10
13521.58861399996
 20
19860.537412999991
 30
0.0
 11
13521.58861399996
 21
19825.533586000001
 31
0.0
  0
LINE
  5
33E2
  8
0-2
  6
CONTINUOUS
 62
     3
 10
13503.58885199995
 20
19825.533586000001
 30
0.0
 11
13453.089352999959
 21
19825.533586000001
 31
0.0
  0
LINE
  5
33E3
  8
0-2
  6
CONTINUOUS
 62
     3
 10
13448.08908899997
 20
19830.53385
 30
0.0
 11
13448.08908899997
 21
19860.537412999991
 31
0.0
  0
LINE
  5
33E4
  8
0-2
  6
CONTINUOUS
 62
     3
 10
13503.58885199995
 20
19848.038733000001
 30
0.0
 11
13521.58861399996
 21
19848.038733000001
 31
0.0
  0
LINE
  5
33E5
  8
0-2
  6
CONTINUOUS
 62
     3
 10
13503.58885199995
 20
16873.300292999989
 30
0.0
 11
13503.58885199995
 21
19848.038733000001
 31
0.0
  0
LINE
  5
33E6
  8
0-2
  6
CONTINUOUS
 62
     3
 10
11512.58698999996
 20
14550.53510299998
 30
0.0
 11
11512.58698999996
 21
17030.533454
 31
0.0
  0
LINE
  5
33E7
  8
0-2
  6
CONTINUOUS
 62
     3
 10
11626.58845499997
 20
14550.53510299998
 30
0.0
 11
11626.58845499997
 21
17030.533454
 31
0.0
  0
LINE
  5
33E8
  8
0-2
  6
CONTINUOUS
 62
     3
 10
11569.58821799997
 20
14550.53510299998
 30
0.0
 11
11569.58821799997
 21
14471.535485999981
 31
0.0
  0
LINE
  5
33E9
  8
0-2
  6
CONTINUOUS
 62
     3
 10
11569.58821799997
 20
14550.53510299998
 30
0.0
 11
11569.58821799997
 21
17030.533454
 31
0.0
  0
LINE
  5
33EA
  8
0-2
  6
CONTINUOUS
 62
     3
 10
11626.58845499997
 20
17109.534060999991
 30
0.0
 11
11626.58845499997
 21
17888.395442000001
 31
0.0
  0
LINE
  5
33EB
  8
0-2
  6
CONTINUOUS
 62
     3
 10
11512.58698999996
 20
17109.534060999991
 30
0.0
 11
11512.58698999996
 21
18064.125223999999
 31
0.0
  0
LINE
  5
33EC
  8
0-2
  6
CONTINUOUS
 62
     3
 10
11569.58821799997
 20
17109.534060999991
 30
0.0
 11
11569.58821799997
 21
17976.258354000001
 31
0.0
  0
LINE
  5
33ED
  8
0-2
  6
CONTINUOUS
 62
     3
 10
11569.58821799997
 20
17030.533454
 30
0.0
 11
11569.58821799997
 21
17109.534060999991
 31
0.0
  0
LINE
  5
33EE
  8
0-2
  6
CONTINUOUS
 62
     3
 10
11826.08829699996
 20
17580.871291999989
 30
0.0
 11
11826.08829699996
 21
19807.537781999999
 31
0.0
  0
LINE
  5
33EF
  8
0-2
  6
CONTINUOUS
 62
     3
 10
11863.087478999971
 20
17523.833443
 30
0.0
 11
11863.087478999971
 21
19807.537781999999
 31
0.0
  0
LINE
  5
33F0
  8
0-2
  6
CONTINUOUS
 62
     3
 10
12026.088956999971
 20
17710.614877999978
 30
0.0
 11
12026.088956999971
 21
19807.537781999999
 31
0.0
  0
LINE
  5
33F1
  8
0-2
  6
CONTINUOUS
 62
     3
 10
12063.08714899997
 20
17689.48351699999
 30
0.0
 11
12063.08714899997
 21
19807.537781999999
 31
0.0
  0
LINE
  5
33F2
  8
0-2
  6
CONTINUOUS
 62
     3
 10
12226.087636999961
 20
17596.382798999999
 30
0.0
 11
12226.087636999961
 21
19807.537781999999
 31
0.0
  0
LINE
  5
33F3
  8
0-2
  6
CONTINUOUS
 62
     3
 10
12263.087808999961
 20
17575.249458999999
 30
0.0
 11
12263.087808999961
 21
19807.537781999999
 31
0.0
  0
LINE
  5
33F4
  8
0-2
  6
CONTINUOUS
 62
     3
 10
12426.08829699996
 20
17482.150721000002
 30
0.0
 11
12426.08829699996
 21
19807.537781999999
 31
0.0
  0
LINE
  5
33F5
  8
0-2
  6
CONTINUOUS
 62
     3
 10
12463.08648899995
 20
17461.021338999992
 30
0.0
 11
12463.08648899995
 21
19807.537781999999
 31
0.0
  0
LINE
  5
33F6
  8
0-2
  6
CONTINUOUS
 62
     3
 10
12626.088956999971
 20
17367.920621000001
 30
0.0
 11
12626.088956999971
 21
19807.537781999999
 31
0.0
  0
LINE
  5
33F7
  8
0-2
  6
CONTINUOUS
 62
     3
 10
12663.087148999961
 20
17346.789260000001
 30
0.0
 11
12663.087148999961
 21
19807.537781999999
 31
0.0
  0
LINE
  5
33F8
  8
0-2
  6
CONTINUOUS
 62
     3
 10
12826.087636999961
 20
17253.688543
 30
0.0
 11
12826.087636999961
 21
19807.537781999999
 31
0.0
  0
LINE
  5
33F9
  8
0-2
  6
CONTINUOUS
 62
     3
 10
12863.08879799997
 20
17232.557182
 30
0.0
 11
12863.08879799997
 21
19807.537781999999
 31
0.0
  0
LINE
  5
33FA
  8
0-2
  6
CONTINUOUS
 62
     3
 10
13026.08829699996
 20
17139.456463999999
 30
0.0
 11
13026.08829699996
 21
19807.537781999999
 31
0.0
  0
LINE
  5
33FB
  8
0-2
  6
CONTINUOUS
 62
     3
 10
13063.08648899997
 20
17118.325102999999
 30
0.0
 11
13063.08648899997
 21
19807.537781999999
 31
0.0
  0
LINE
  5
33FC
  8
0-2
  6
CONTINUOUS
 62
     3
 10
13234.588072999961
 20
17025.228343999999
 30
0.0
 11
13234.588072999961
 21
19807.537781999999
 31
0.0
  0
LINE
  5
33FD
  8
0-2
  6
CONTINUOUS
 62
     3
 10
13271.587254999949
 20
17004.093024000002
 30
0.0
 11
13271.587254999949
 21
19807.537781999999
 31
0.0
  0
LINE
  5
33FE
  8
0-2
  6
CONTINUOUS
 62
     3
 10
11663.087808999961
 20
17832.131584999981
 30
0.0
 11
11663.087808999961
 21
19807.537781999999
 31
0.0
  0
LINE
  5
33FF
  8
0-2
  6
CONTINUOUS
 62
     3
 10
9626.0889569999708
 20
18938.68352799999
 30
0.0
 11
9626.0889569999708
 21
19807.537781999999
 31
0.0
  0
LINE
  5
3400
  8
0-2
  6
CONTINUOUS
 62
     3
 10
10026.087306999971
 20
18744.919274999989
 30
0.0
 11
10026.087306999971
 21
19807.537781999999
 31
0.0
  0
LINE
  5
3401
  8
0-2
  6
CONTINUOUS
 62
     3
 10
10063.087478999971
 20
18727.873640999991
 30
0.0
 11
10063.087478999971
 21
19807.537781999999
 31
0.0
  0
LINE
  5
3402
  8
0-2
  6
CONTINUOUS
 62
     3
 10
10226.088956999971
 20
18652.786542000002
 30
0.0
 11
10226.088956999971
 21
19807.537781999999
 31
0.0
  0
LINE
  5
3403
  8
0-2
  6
CONTINUOUS
 62
     3
 10
10263.087148999961
 20
18635.742886999979
 30
0.0
 11
10263.087148999961
 21
19807.537781999999
 31
0.0
  0
LINE
  5
3404
  8
0-2
  6
CONTINUOUS
 62
     3
 10
9663.0871489999681
 20
18921.637892999988
 30
0.0
 11
9663.0871489999681
 21
19807.537781999999
 31
0.0
  0
LINE
  5
3405
  8
0-2
  6
CONTINUOUS
 62
     3
 10
9826.0876369999696
 20
18846.552774
 30
0.0
 11
9826.0876369999696
 21
19807.537781999999
 31
0.0
  0
LINE
  5
3406
  8
0-2
  6
CONTINUOUS
 62
     3
 10
9863.0887979999643
 20
18829.507139999991
 30
0.0
 11
9863.0887979999643
 21
19807.537781999999
 31
0.0
  0
LINE
  5
3407
  8
0-2
  6
CONTINUOUS
 62
     3
 10
11263.087478999971
 20
18448.72193
 30
0.0
 11
11263.087478999971
 21
19807.537781999999
 31
0.0
  0
LINE
  5
3408
  8
0-2
  6
CONTINUOUS
 62
     3
 10
11226.08829699994
 20
18386.553169999981
 30
0.0
 11
11226.08829699994
 21
19807.537781999999
 31
0.0
  0
LINE
  5
3409
  8
0-2
  6
CONTINUOUS
 62
     3
 10
11063.087808999961
 20
18267.223830999999
 30
0.0
 11
11063.087808999961
 21
19807.537781999999
 31
0.0
  0
LINE
  5
340A
  8
0-2
  6
CONTINUOUS
 62
     3
 10
11026.086646999969
 20
18284.26946499999
 30
0.0
 11
11026.086646999969
 21
19807.537781999999
 31
0.0
  0
LINE
  5
340B
  8
0-2
  6
CONTINUOUS
 62
     3
 10
10863.08813899997
 20
18359.354585000001
 30
0.0
 11
10863.08813899997
 21
19807.537781999999
 31
0.0
  0
LINE
  5
340C
  8
0-2
  6
CONTINUOUS
 62
     3
 10
10826.088956999971
 20
18376.400218999999
 30
0.0
 11
10826.088956999971
 21
19807.537781999999
 31
0.0
  0
LINE
  5
340D
  8
0-2
  6
CONTINUOUS
 62
     3
 10
10663.08648899997
 20
18451.485337999991
 30
0.0
 11
10663.08648899997
 21
19807.537781999999
 31
0.0
  0
LINE
  5
340E
  8
0-2
  6
CONTINUOUS
 62
     3
 10
10626.08829699996
 20
18468.530973000001
 30
0.0
 11
10626.08829699996
 21
19807.537781999999
 31
0.0
  0
LINE
  5
340F
  8
0-2
  6
CONTINUOUS
 62
     3
 10
10463.08879799997
 20
18543.616092
 30
0.0
 11
10463.08879799997
 21
19807.537781999999
 31
0.0
  0
LINE
  5
3410
  8
0-2
  6
CONTINUOUS
 62
     3
 10
10426.086646999969
 20
18560.661726999999
 30
0.0
 11
10426.086646999969
 21
19807.537781999999
 31
0.0
  0
LINE
  5
3411
  8
0-2
  6
CONTINUOUS
 62
     3
 10
11426.088956999971
 20
18197.461636999979
 30
0.0
 11
11426.088956999971
 21
19807.537781999999
 31
0.0
  0
LINE
  5
3412
  8
0-2
  6
CONTINUOUS
 62
     3
 10
11463.08714899997
 20
18140.425768000001
 30
0.0
 11
11463.08714899997
 21
19807.537781999999
 31
0.0
  0
LINE
  5
3413
  8
0-2
  6
CONTINUOUS
 62
     3
 10
9226.0876369999678
 20
19122.939096999991
 30
0.0
 11
9226.0876369999678
 21
19807.537781999999
 31
0.0
  0
LINE
  5
3414
  8
0-2
  6
CONTINUOUS
 62
     3
 10
9263.0878089999605
 20
19105.895442000001
 30
0.0
 11
9263.0878089999605
 21
19807.537781999999
 31
0.0
  0
LINE
  5
3415
  8
0-2
  6
CONTINUOUS
 62
     3
 10
9426.0873069999689
 20
19030.814281999988
 30
0.0
 11
9426.0873069999689
 21
19807.537781999999
 31
0.0
  0
LINE
  5
3416
  8
0-2
  6
CONTINUOUS
 62
     3
 10
9463.0874789999707
 20
19013.76864699999
 30
0.0
 11
9463.0874789999707
 21
19807.537781999999
 31
0.0
  0
LINE
  5
3417
  8
0-2
  6
CONTINUOUS
 62
     3
 10
9026.0879669999722
 20
19215.07182999999
 30
0.0
 11
9026.0879669999722
 21
19807.537781999999
 31
0.0
  0
LINE
  5
3418
  8
0-2
  6
CONTINUOUS
 62
     3
 10
9063.0871489999663
 20
19198.026195999999
 30
0.0
 11
9063.0871489999663
 21
19807.537781999999
 31
0.0
  0
LINE
  5
3419
  8
0-2
  6
CONTINUOUS
 62
     3
 10
8816.0881909999734
 20
19307.202583999999
 30
0.0
 11
8816.0881909999734
 21
19807.537781999999
 31
0.0
  0
LINE
  5
341A
  8
0-2
  6
CONTINUOUS
 62
     3
 10
8853.0883629999735
 20
19290.156949
 30
0.0
 11
8853.0883629999735
 21
19807.537781999999
 31
0.0
  0
LINE
  5
341B
  8
0-2
  6
CONTINUOUS
 62
     3
 10
13305.20937799997
 20
16984.889713999979
 30
0.0
 11
11639.58795399995
 21
14508.03582899998
 31
0.0
  0
LINE
  5
341C
  8
0-2
  6
CONTINUOUS
 62
     3
 10
11569.58821799997
 20
14471.535485999981
 30
0.0
 11
11569.58821799997
 21
14315.534574999991
 31
0.0
  0
LINE
  5
341D
  8
0-2
  6
CONTINUOUS
 62
     3
 10
11484.586699999971
 20
19807.537781999999
 30
0.0
 11
11484.586699999971
 21
19855.537148999989
 31
0.0
  0
LINE
  5
341E
  8
0-6
  6
CONTINUOUS
 62
     6
 10
10443.97456699997
 20
17263.362450000001
 30
0.0
 11
10382.824268999961
 21
17425.130688000001
 31
0.0
  0
LINE
  5
341F
  8
0-6
  6
CONTINUOUS
 62
     6
 10
10279.83090699997
 20
19583.260307
 30
0.0
 11
10423.73398899996
 21
20095.53596099999
 31
0.0
  0
LINE
  5
3420
  8
0-6
  6
CONTINUOUS
 62
     6
 10
9866.6855839999625
 20
19689.033902999989
 30
0.0
 11
9572.7557769999676
 21
20095.53596099999
 31
0.0
  0
LINE
  5
3421
  8
0-6
  6
CONTINUOUS
 62
     6
 10
10423.73398899996
 20
20095.53596099999
 30
0.0
 11
10941.42164799997
 21
20095.53596099999
 31
0.0
  0
LINE
  5
3422
  8
0-6
  6
CONTINUOUS
 62
     6
 10
9813.4197079999685
 20
19985.439096999991
 30
0.0
 11
9604.226163999967
 21
20347.772156999981
 31
0.0
  0
LINE
  5
3423
  8
0-6
  6
CONTINUOUS
 62
     6
 10
9530.2198819999558
 20
20475.957862999989
 30
0.0
 11
9334.1634129999675
 21
20815.534378
 31
0.0
  0
LINE
  5
3424
  8
0-6
  6
CONTINUOUS
 62
     6
 10
9334.1634129999675
 20
20815.534378
 30
0.0
 11
10176.600991999951
 21
20815.534378
 31
0.0
  0
LINE
  5
3425
  8
0-6
  6
CONTINUOUS
 62
     6
 10
8762.7589709999775
 20
20095.53596099999
 30
0.0
 11
9572.7557769999676
 21
20095.53596099999
 31
0.0
  0
LINE
  5
3426
  8
0-6
  6
CONTINUOUS
 62
     6
 10
9582.2535079999707
 20
17425.130688000001
 30
0.0
 11
10382.824268999961
 21
17425.130688000001
 31
0.0
  0
LINE
  5
3427
  8
0-6
  6
CONTINUOUS
 62
     6
 10
8816.1159039999748
 20
18242.307629999999
 30
0.0
 11
9346.1157459999722
 21
18242.307629999999
 31
0.0
  0
LINE
  5
3428
  8
0-6
  6
CONTINUOUS
 62
     6
 10
9461.9710299999679
 20
14702.42455399999
 30
0.0
 11
9544.8564419999584
 21
14879.363821999999
 31
0.0
  0
LINE
  5
3429
  8
0-6
  6
CONTINUOUS
 62
     6
 10
9544.8564419999584
 20
14879.363821999999
 30
0.0
 11
10344.856112999971
 21
14879.363821999999
 31
0.0
  0
LINE
  5
342A
  8
0-6
  6
CONTINUOUS
 62
     6
 10
10452.381581999971
 20
13515.53490499998
 30
0.0
 11
11314.95977299997
 21
13515.53490499998
 31
0.0
  0
LINE
  5
342B
  8
0-6
  6
CONTINUOUS
 62
     6
 10
10046.26948899996
 20
14179.06656399997
 30
0.0
 11
10452.381581999971
 21
13515.53490499998
 31
0.0
  0
LINE
  5
342C
  8
0-6
  6
CONTINUOUS
 62
     6
 10
6835.6892189999708
 20
13115.53556499998
 30
0.0
 11
7915.6883279999747
 21
13115.53556499998
 31
0.0
  0
LINE
  5
342D
  8
0-6
  6
CONTINUOUS
 62
     6
 10
8474.1966289999764
 20
14895.80768299999
 30
0.0
 11
7915.6883279999747
 21
13115.53556499998
 31
0.0
  0
LINE
  5
342E
  8
0-6
  6
CONTINUOUS
 62
     6
 10
8717.0736609999731
 20
18463.097194000002
 30
0.0
 11
8816.1159039999748
 21
18242.307629999999
 31
0.0
  0
LINE
  5
342F
  8
0-6
  6
CONTINUOUS
 62
     6
 10
9952.3304449999596
 20
16562.149664999979
 30
0.0
 11
10832.32938899997
 21
16562.149664999979
 31
0.0
  0
LINE
  5
3430
  8
0-6
  6
CONTINUOUS
 62
     6
 10
9741.0643449999625
 20
16360.08832599999
 30
0.0
 11
9952.3304449999596
 21
16562.149664999979
 31
0.0
  0
LINE
  5
3431
  8
0-6
  6
CONTINUOUS
 62
     6
 10
11512.58698999996
 20
15701.906315999981
 30
0.0
 11
11247.399793999961
 21
16070.86581499999
 31
0.0
  0
LINE
  5
3432
  8
0-6
  6
CONTINUOUS
 62
     6
 10
11001.16054899996
 20
16070.86581499999
 30
0.0
 11
11247.399793999961
 21
16070.86581499999
 31
0.0
  0
LINE
  5
3433
  8
0-6
  6
CONTINUOUS
 62
     6
 10
14408.390133999959
 20
20741.203454999992
 30
0.0
 11
16083.38848499997
 21
20741.203454999992
 31
0.0
  0
LINE
  5
3434
  8
0-6
  6
CONTINUOUS
 62
     6
 10
13629.49609099997
 20
19980.858490999992
 30
0.0
 11
14408.390133999959
 21
20741.203454999992
 31
0.0
  0
LINE
  5
3435
  8
0-6
  6
CONTINUOUS
 62
     6
 10
8499.6393809999718
 20
14887.82428499999
 30
0.0
 11
8522.0881119999685
 21
15048.471125
 31
0.0
  0
LINE
  5
3436
  8
0-6
  6
CONTINUOUS
 62
     6
 10
8522.0881119999685
 20
15048.471125
 30
0.0
 11
8448.7518969999692
 21
14903.789101999981
 31
0.0
  0
LINE
  5
3437
  8
0-6
  6
CONTINUOUS
 62
     6
 10
8522.0881119999685
 20
15048.471125
 30
0.0
 11
8499.6393809999718
 21
14887.82428499999
 31
0.0
  0
LINE
  5
3438
  8
0-6
  6
CONTINUOUS
 62
     6
 10
8499.6393809999718
 20
14887.82428499999
 30
0.0
 11
8448.7518969999692
 21
14903.789101999981
 31
0.0
  0
LINE
  5
3439
  8
0-6
  6
CONTINUOUS
 62
     6
 10
8448.7518969999692
 20
14903.789101999981
 30
0.0
 11
8522.0881119999685
 21
15048.471125
 31
0.0
  0
LINE
  5
343A
  8
0-6
  6
CONTINUOUS
 62
     6
 10
8448.7518969999692
 20
14903.789101999981
 30
0.0
 11
8499.6393809999718
 21
14887.82428499999
 31
0.0
  0
LINE
  5
343B
  8
0-6
  6
CONTINUOUS
 62
     6
 10
9437.8209039999601
 20
14713.736512999991
 30
0.0
 11
9394.0963069999598
 21
14557.535670999971
 31
0.0
  0
LINE
  5
343C
  8
0-6
  6
CONTINUOUS
 62
     6
 10
9394.0963069999598
 20
14557.535670999971
 30
0.0
 11
9486.1191769999605
 21
14691.11259499999
 31
0.0
  0
LINE
  5
343D
  8
0-6
  6
CONTINUOUS
 62
     6
 10
9394.0963069999598
 20
14557.535670999971
 30
0.0
 11
9437.8209039999601
 21
14713.736512999991
 31
0.0
  0
LINE
  5
343E
  8
0-6
  6
CONTINUOUS
 62
     6
 10
9437.8209039999601
 20
14713.736512999991
 30
0.0
 11
9486.1191769999605
 21
14691.11259499999
 31
0.0
  0
LINE
  5
343F
  8
0-6
  6
CONTINUOUS
 62
     6
 10
9486.1191769999605
 20
14691.11259499999
 30
0.0
 11
9394.0963069999598
 21
14557.535670999971
 31
0.0
  0
LINE
  5
3440
  8
0-6
  6
CONTINUOUS
 62
     6
 10
9486.1191769999605
 20
14691.11259499999
 30
0.0
 11
9437.8209039999601
 21
14713.736512999991
 31
0.0
  0
LINE
  5
3441
  8
0-6
  6
CONTINUOUS
 62
     6
 10
10069.01316799997
 20
14192.987528999991
 30
0.0
 11
9962.7427129999687
 21
14315.534574999991
 31
0.0
  0
LINE
  5
3442
  8
0-6
  6
CONTINUOUS
 62
     6
 10
9962.7427129999687
 20
14315.534574999991
 30
0.0
 11
10023.524819999961
 21
14165.145599999991
 31
0.0
  0
LINE
  5
3443
  8
0-6
  6
CONTINUOUS
 62
     6
 10
9962.7427129999687
 20
14315.534574999991
 30
0.0
 11
10069.01316799997
 21
14192.987528999991
 31
0.0
  0
LINE
  5
3444
  8
0-6
  6
CONTINUOUS
 62
     6
 10
10069.01316799997
 20
14192.987528999991
 30
0.0
 11
10023.524819999961
 21
14165.145599999991
 31
0.0
  0
LINE
  5
3445
  8
0-6
  6
CONTINUOUS
 62
     6
 10
10023.524819999961
 20
14165.145599999991
 30
0.0
 11
9962.7427129999687
 21
14315.534574999991
 31
0.0
  0
LINE
  5
3446
  8
0-6
  6
CONTINUOUS
 62
     6
 10
10023.524819999961
 20
14165.145599999991
 30
0.0
 11
10069.01316799997
 21
14192.987528999991
 31
0.0
  0
LINE
  5
3447
  8
0-6
  6
CONTINUOUS
 62
     6
 10
9722.6340369999707
 20
16379.360919000001
 30
0.0
 11
9625.4367049999728
 21
16249.49856199999
 31
0.0
  0
LINE
  5
3448
  8
0-6
  6
CONTINUOUS
 62
     6
 10
9625.4367049999728
 20
16249.49856199999
 30
0.0
 11
9759.4956419999617
 21
16340.815732999999
 31
0.0
  0
LINE
  5
3449
  8
0-6
  6
CONTINUOUS
 62
     6
 10
9625.4367049999728
 20
16249.49856199999
 30
0.0
 11
9722.6340369999707
 21
16379.360919000001
 31
0.0
  0
LINE
  5
344A
  8
0-6
  6
CONTINUOUS
 62
     6
 10
9722.6340369999707
 20
16379.360919000001
 30
0.0
 11
9759.4956419999617
 21
16340.815732999999
 31
0.0
  0
LINE
  5
344B
  8
0-6
  6
CONTINUOUS
 62
     6
 10
9759.4956419999617
 20
16340.815732999999
 30
0.0
 11
9625.4367049999728
 21
16249.49856199999
 31
0.0
  0
LINE
  5
344C
  8
0-6
  6
CONTINUOUS
 62
     6
 10
9759.4956419999617
 20
16340.815732999999
 30
0.0
 11
9722.6340369999707
 21
16379.360919000001
 31
0.0
  0
LINE
  5
344D
  8
0-6
  6
CONTINUOUS
 62
     6
 10
8741.404913999977
 20
18474.012259999981
 30
0.0
 11
8651.5882179999735
 21
18609.084709999988
 31
0.0
  0
LINE
  5
344E
  8
0-6
  6
CONTINUOUS
 62
     6
 10
8651.5882179999735
 20
18609.084709999988
 30
0.0
 11
8692.7424089999768
 21
18452.188066999988
 31
0.0
  0
LINE
  5
344F
  8
0-6
  6
CONTINUOUS
 62
     6
 10
8651.5882179999735
 20
18609.084709999988
 30
0.0
 11
8741.404913999977
 21
18474.012259999981
 31
0.0
  0
LINE
  5
3450
  8
0-6
  6
CONTINUOUS
 62
     6
 10
8741.404913999977
 20
18474.012259999981
 30
0.0
 11
8692.7424089999768
 21
18452.188066999988
 31
0.0
  0
LINE
  5
3451
  8
0-6
  6
CONTINUOUS
 62
     6
 10
8692.7424089999768
 20
18452.188066999988
 30
0.0
 11
8651.5882179999735
 21
18609.084709999988
 31
0.0
  0
LINE
  5
3452
  8
0-6
  6
CONTINUOUS
 62
     6
 10
8692.7424089999768
 20
18452.188066999988
 30
0.0
 11
8741.404913999977
 21
18474.012259999981
 31
0.0
  0
LINE
  5
3453
  8
0-6
  6
CONTINUOUS
 62
     6
 10
11440.208862999971
 20
15847.069362
 30
0.0
 11
11512.58698999996
 21
15701.906315999981
 31
0.0
  0
LINE
  5
3454
  8
0-6
  6
CONTINUOUS
 62
     6
 10
11512.58698999996
 20
15701.906315999981
 30
0.0
 11
11397.041500999971
 21
15815.747439999999
 31
0.0
  0
LINE
  5
3455
  8
0-6
  6
CONTINUOUS
 62
     6
 10
11512.58698999996
 20
15701.906315999981
 30
0.0
 11
11440.208862999971
 21
15847.069362
 31
0.0
  0
LINE
  5
3456
  8
0-6
  6
CONTINUOUS
 62
     6
 10
11440.208862999971
 20
15847.069362
 30
0.0
 11
11397.041500999971
 21
15815.747439999999
 31
0.0
  0
LINE
  5
3457
  8
0-6
  6
CONTINUOUS
 62
     6
 10
11397.041500999971
 20
15815.747439999999
 30
0.0
 11
11512.58698999996
 21
15701.906315999981
 31
0.0
  0
LINE
  5
3458
  8
0-6
  6
CONTINUOUS
 62
     6
 10
11397.041500999971
 20
15815.747439999999
 30
0.0
 11
11440.208862999971
 21
15847.069362
 31
0.0
  0
LINE
  5
3459
  8
0-6
  6
CONTINUOUS
 62
     6
 10
10469.61131199997
 20
17270.696565999991
 30
0.0
 11
10487.977285999959
 21
17109.534060999991
 31
0.0
  0
LINE
  5
345A
  8
0-6
  6
CONTINUOUS
 62
     6
 10
10487.977285999959
 20
17109.534060999991
 30
0.0
 11
10418.33584199996
 21
17256.030312999981
 31
0.0
  0
LINE
  5
345B
  8
0-6
  6
CONTINUOUS
 62
     6
 10
10487.977285999959
 20
17109.534060999991
 30
0.0
 11
10469.61131199997
 21
17270.696565999991
 31
0.0
  0
LINE
  5
345C
  8
0-6
  6
CONTINUOUS
 62
     6
 10
10469.61131199997
 20
17270.696565999991
 30
0.0
 11
10418.33584199996
 21
17256.030312999981
 31
0.0
  0
LINE
  5
345D
  8
0-6
  6
CONTINUOUS
 62
     6
 10
10418.33584199996
 20
17256.030312999981
 30
0.0
 11
10487.977285999959
 21
17109.534060999991
 31
0.0
  0
LINE
  5
345E
  8
0-6
  6
CONTINUOUS
 62
     6
 10
10418.33584199996
 20
17256.030312999981
 30
0.0
 11
10469.61131199997
 21
17270.696565999991
 31
0.0
  0
LINE
  5
345F
  8
0-6
  6
CONTINUOUS
 62
     6
 10
9759.9885419999737
 20
19811.20978899999
 30
0.0
 11
9866.6855839999625
 21
19689.033902999989
 31
0.0
  0
LINE
  5
3460
  8
0-6
  6
CONTINUOUS
 62
     6
 10
9866.6855839999625
 20
19689.033902999989
 30
0.0
 11
9805.3818729999603
 21
19839.214038999991
 31
0.0
  0
LINE
  5
3461
  8
0-6
  6
CONTINUOUS
 62
     6
 10
9866.6855839999625
 20
19689.033902999989
 30
0.0
 11
9759.9885419999737
 21
19811.20978899999
 31
0.0
  0
LINE
  5
3462
  8
0-6
  6
CONTINUOUS
 62
     6
 10
9759.9885419999737
 20
19811.20978899999
 30
0.0
 11
9805.3818729999603
 21
19839.214038999991
 31
0.0
  0
LINE
  5
3463
  8
0-6
  6
CONTINUOUS
 62
     6
 10
9805.3818729999603
 20
19839.214038999991
 30
0.0
 11
9866.6855839999625
 21
19689.033902999989
 31
0.0
  0
LINE
  5
3464
  8
0-6
  6
CONTINUOUS
 62
     6
 10
9805.3818729999603
 20
19839.214038999991
 30
0.0
 11
9759.9885419999737
 21
19811.20978899999
 31
0.0
  0
LINE
  5
3465
  8
0-6
  6
CONTINUOUS
 62
     6
 10
10253.94177299996
 20
19589.660090000001
 30
0.0
 11
10241.444081999971
 21
19427.93144299999
 31
0.0
  0
LINE
  5
3466
  8
0-6
  6
CONTINUOUS
 62
     6
 10
10241.444081999971
 20
19427.93144299999
 30
0.0
 11
10305.71806099997
 21
19576.864482000001
 31
0.0
  0
LINE
  5
3467
  8
0-6
  6
CONTINUOUS
 62
     6
 10
10241.444081999971
 20
19427.93144299999
 30
0.0
 11
10253.94177299996
 21
19589.660090000001
 31
0.0
  0
LINE
  5
3468
  8
0-6
  6
CONTINUOUS
 62
     6
 10
10253.94177299996
 20
19589.660090000001
 30
0.0
 11
10305.71806099997
 21
19576.864482000001
 31
0.0
  0
LINE
  5
3469
  8
0-6
  6
CONTINUOUS
 62
     6
 10
10305.71806099997
 20
19576.864482000001
 30
0.0
 11
10241.444081999971
 21
19427.93144299999
 31
0.0
  0
LINE
  5
346A
  8
0-6
  6
CONTINUOUS
 62
     6
 10
10305.71806099997
 20
19576.864482000001
 30
0.0
 11
10253.94177299996
 21
19589.660090000001
 31
0.0
  0
LINE
  5
346B
  8
0-6
  6
CONTINUOUS
 62
     6
 10
9791.7687229999683
 20
19972.940416999991
 30
0.0
 11
9888.4197079999722
 21
19855.537148999989
 31
0.0
  0
LINE
  5
346C
  8
0-6
  6
CONTINUOUS
 62
     6
 10
9888.4197079999722
 20
19855.537148999989
 30
0.0
 11
9835.0697029999592
 21
19997.937776999999
 31
0.0
  0
LINE
  5
346D
  8
0-6
  6
CONTINUOUS
 62
     6
 10
9888.4197079999722
 20
19855.537148999989
 30
0.0
 11
9791.7687229999683
 21
19972.940416999991
 31
0.0
  0
LINE
  5
346E
  8
0-6
  6
CONTINUOUS
 62
     6
 10
9791.7687229999683
 20
19972.940416999991
 30
0.0
 11
9835.0697029999592
 21
19997.937776999999
 31
0.0
  0
LINE
  5
346F
  8
0-6
  6
CONTINUOUS
 62
     6
 10
9835.0697029999592
 20
19997.937776999999
 30
0.0
 11
9888.4197079999722
 21
19855.537148999989
 31
0.0
  0
LINE
  5
3470
  8
0-6
  6
CONTINUOUS
 62
     6
 10
9835.0697029999592
 20
19997.937776999999
 30
0.0
 11
9791.7687229999683
 21
19972.940416999991
 31
0.0
  0
LINE
  5
3471
  8
0-6
  6
CONTINUOUS
 62
     6
 10
13610.27595599995
 20
19999.343235
 30
0.0
 11
13518.58861399996
 21
19865.537677
 31
0.0
  0
LINE
  5
3472
  8
0-6
  6
CONTINUOUS
 62
     6
 10
13518.58861399996
 20
19865.537677
 30
0.0
 11
13648.71523699996
 21
19962.375725999998
 31
0.0
  0
LINE
  5
3473
  8
0-6
  6
CONTINUOUS
 62
     6
 10
13518.58861399996
 20
19865.537677
 30
0.0
 11
13610.27595599995
 21
19999.343235
 31
0.0
  0
LINE
  5
3474
  8
0-6
  6
CONTINUOUS
 62
     6
 10
13610.27595599995
 20
19999.343235
 30
0.0
 11
13648.71523699996
 21
19962.375725999998
 31
0.0
  0
LINE
  5
3475
  8
0-6
  6
CONTINUOUS
 62
     6
 10
13648.71523699996
 20
19962.375725999998
 30
0.0
 11
13518.58861399996
 21
19865.537677
 31
0.0
  0
LINE
  5
3476
  8
0-6
  6
CONTINUOUS
 62
     6
 10
13648.71523699996
 20
19962.375725999998
 30
0.0
 11
13610.27595599995
 21
19999.343235
 31
0.0
  0
LINE
  5
3477
  8
2-0
  6
DASHED3
 62
     6
 10
8651.5882179999735
 20
19604.033374999999
 30
0.0
 11
13436.08821799997
 21
19604.033374999999
 31
0.0
  0
LINE
  5
3478
  8
2-0
  6
DASHED3
 62
     6
 10
8609.0879539999714
 20
19402.554014999991
 30
0.0
 11
8609.0879539999714
 21
19689.033902999989
 31
0.0
  0
LINE
  5
3479
  8
2-0
  6
DASHED3
 62
     6
 10
8651.5882179999735
 20
19382.97657599999
 30
0.0
 11
8651.5882179999735
 21
19689.033902999989
 31
0.0
  0
LINE
  5
347A
  8
2-0
  6
DASHED3
 62
     6
 10
8609.0879539999714
 20
19689.033902999989
 30
0.0
 11
13478.58749199997
 21
19689.033902999989
 31
0.0
  0
LINE
  5
347B
  8
2-0
  6
DASHED3
 62
     6
 10
13366.08848199997
 20
17075.535829
 30
0.0
 11
11639.58795399995
 21
19643.035829
 31
0.0
  0
LINE
  5
347C
  8
2-0
  6
DASHED3
 62
     6
 10
13225.29522299997
 20
17030.533454
 30
0.0
 11
13436.08821799997
 21
17030.533454
 31
0.0
  0
LINE
  5
347D
  8
2-0
  6
DASHED3
 62
     6
 10
13078.48021499997
 20
17109.534060999991
 30
0.0
 11
13436.08821799997
 21
17109.534060999991
 31
0.0
  0
LINE
  5
347E
  8
2-0
  6
DASHED3
 62
     6
 10
13436.08821799997
 20
16910.139134000001
 30
0.0
 11
13436.08821799997
 21
19689.033902999989
 31
0.0
  0
LINE
  5
347F
  8
2-0
  6
DASHED3
 62
     6
 10
13478.58749199997
 20
16885.862318
 30
0.0
 11
13478.58749199997
 21
19689.033902999989
 31
0.0
  0
LINE
  5
3480
  8
2-0
  6
DASHED3
 62
     6
 10
11499.58848199997
 20
19643.035829
 30
0.0
 11
10367.72746999996
 21
18587.543588999979
 31
0.0
  0
LINE
  5
3481
  8
2-0
  6
DASHED3
 62
     6
 10
8721.5879539999733
 20
19643.035829
 30
0.0
 11
9362.2547609999729
 21
19060.216070999992
 31
0.0
  0
LINE
  5
3482
  8
2-0
  6
CONTINUOUS
 62
     3
 10
11626.58845499997
 20
17888.395442000001
 30
0.0
 11
11626.58845499997
 21
19807.537781999999
 31
0.0
  0
LINE
  5
3483
  8
2-0
  6
DASHED3
 62
     6
 10
13366.08848199997
 20
17075.535829
 30
0.0
 11
13305.20937799997
 21
16984.889713999979
 31
0.0
  0
LINE
  5
3484
  8
0-8
  6
CONTINUOUS
 62
     6
 10
13436.08821799997
 20
20885.538073000022
 30
0.0
 11
13436.08821799997
 21
19935.537412999991
 31
0.0
  0
LINE
  5
3485
  8
2-0
  6
CENTER2
 62
     6
 10
11569.58821799997
 20
20885.538073000022
 30
0.0
 11
11569.58821799997
 21
19935.537412999991
 31
0.0
  0
LINE
  5
3486
  8
2-0
  6
CENTER2
 62
     6
 10
7322.0866279999764
 20
19643.035829
 30
0.0
 11
8978.5884289999685
 21
19643.035829
 31
0.0
  0
LINE
  5
3487
  8
2-0
  6
CENTER2
 62
     6
 10
8651.5882179999735
 20
20885.538073000022
 30
0.0
 11
8651.5882179999735
 21
19935.537412999991
 31
0.0
  0
LINE
  5
3488
  8
2-0
  6
CENTER2
 62
     6
 10
7322.0866279999764
 20
17075.535829
 30
0.0
 11
8978.5884289999685
 21
17075.535829
 31
0.0
  0
LINE
  5
3489
  8
2-0
  6
CENTER2
 62
     6
 10
7322.0866279999764
 20
14508.03582899998
 30
0.0
 11
8978.5884289999685
 21
14508.03582899998
 31
0.0
  0
LINE
  5
348A
  8
2-0
  6
CENTER2
 62
     6
 10
13110.589985999961
 20
17075.535829
 30
0.0
 11
13734.85200899994
 21
17075.535829
 31
0.0
  0
LINE
  5
348B
  8
2-0
  6
CENTER2
 62
     6
 10
13110.589985999961
 20
14508.03582899998
 30
0.0
 11
13734.85200899994
 21
14508.03582899998
 31
0.0
  0
LINE
  5
348C
  8
2-0
  6
DASHED3
 62
     6
 10
11512.58698999996
 20
18064.125223999999
 30
0.0
 11
11512.58698999996
 21
19604.033374999999
 31
0.0
  0
LINE
  5
348D
  8
2-0
  6
DASHED3
 62
     6
 10
11569.58821799997
 20
17976.258354000001
 30
0.0
 11
11569.58821799997
 21
19604.033374999999
 31
0.0
  0
LINE
  5
348E
  8
2-0
  6
DASHED3
 62
     6
 10
11626.087636999961
 20
17889.167453999991
 30
0.0
 11
11626.087636999961
 21
19604.033374999999
 31
0.0
  0
LINE
  5
348F
  8
2-0
  6
DASHED3
 62
     6
 10
13366.08848199997
 20
19643.035829
 30
0.0
 11
12055.021599999949
 21
17694.089856999992
 31
0.0
  0
LINE
  5
3490
  8
2-0
  6
CONTINUOUS
 62
     3
 10
12055.021599999949
 20
17694.089856999992
 30
0.0
 11
11639.58795399995
 21
17075.535829
 31
0.0
  0
CIRCLE
  5
3491
  8
0-1
  6
CONTINUOUS
 62
     4
 10
11569.58821799997
 20
21085.538733000001
 30
0.0
 40
199.9999949999999
  0
CIRCLE
  5
3492
  8
0-1
  6
CONTINUOUS
 62
     4
 10
8651.5882179999735
 20
21085.538733000001
 30
0.0
 40
199.9999949999999
  0
CIRCLE
  5
3493
  8
0-1
  6
CONTINUOUS
 62
     4
 10
7122.0869579999744
 20
19643.035829
 30
0.0
 40
199.9999949999999
  0
CIRCLE
  5
3494
  8
0-1
  6
CONTINUOUS
 62
     4
 10
7122.0869579999744
 20
17075.535829
 30
0.0
 40
199.9999949999999
  0
CIRCLE
  5
3495
  8
0-1
  6
CONTINUOUS
 62
     4
 10
7122.0869579999744
 20
14508.03582899998
 30
0.0
 40
199.9999949999999
  0
CIRCLE
  5
3496
  8
0-1
  6
CONTINUOUS
 62
     4
 10
13436.08821799997
 20
21085.540712000031
 30
0.0
 40
199.9999949999999
  0
CIRCLE
  5
3497
  8
0-1
  6
CONTINUOUS
 62
     4
 10
15128.71370900002
 20
1375.999734
 30
0.0
 40
20.0
  0
ARC
  5
3498
  8
0-1
  6
CONTINUOUS
 62
     4
 10
15128.71370900002
 20
1375.999734
 30
0.0
 40
20.0
 50
180.0
 51
0.0
  0
ARC
  5
3499
  8
0-1
  6
CONTINUOUS
 62
     4
 10
15128.71370900002
 20
1375.999734
 30
0.0
 40
20.0
 50
0.0
 51
179.9999849999983
  0
CIRCLE
  5
349A
  8
0-1
  6
CONTINUOUS
 62
     4
 10
15128.71370900002
 20
1775.999816999999
 30
0.0
 40
20.0
  0
ARC
  5
349B
  8
0-1
  6
CONTINUOUS
 62
     4
 10
15128.71370900002
 20
1775.999816999999
 30
0.0
 40
20.0
 50
180.0
 51
0.0
  0
ARC
  5
349C
  8
0-1
  6
CONTINUOUS
 62
     4
 10
15128.71370900002
 20
1775.999816999999
 30
0.0
 40
20.0
 50
0.0
 51
179.9999849999983
  0
ARC
  5
349D
  8
0-2
  6
CONTINUOUS
 62
     3
 10
8571.0880859999743
 20
19860.537412999991
 30
0.0
 40
5.0
 50
90.0
 51
180.0
  0
ARC
  5
349E
  8
0-2
  6
CONTINUOUS
 62
     3
 10
8634.5900519999759
 20
19860.537412999991
 30
0.0
 40
5.0
 50
0.0
 51
90.0
  0
ARC
  5
349F
  8
0-2
  6
CONTINUOUS
 62
     3
 10
8634.5900519999759
 20
19830.53385
 30
0.0
 40
5.0
 50
269.9999850001808
 51
0.0
  0
ARC
  5
34A0
  8
0-2
  6
CONTINUOUS
 62
     3
 10
13453.089352999959
 20
19830.53385
 30
0.0
 40
5.0
 50
180.0
 51
269.9999850001808
  0
ARC
  5
34A1
  8
0-2
  6
CONTINUOUS
 62
     3
 10
13453.089352999959
 20
19860.537412999991
 30
0.0
 40
5.0
 50
90.0
 51
180.0
  0
ARC
  5
34A2
  8
0-2
  6
CONTINUOUS
 62
     3
 10
13516.588349999951
 20
19860.537412999991
 30
0.0
 40
5.0
 50
0.0
 51
90.0
  0
TEXT
  5
34A3
  8
0-1
  6
CONTINUOUS
 62
     7
 10
13389.28448099995
 20
20996.080329000011
 30
0.0
 40
160.0
  1
3
 72
     4
 11
13442.617814333291
 21
21076.080329000011
 31
0.0
  0
TEXT
  5
34A4
  8
0-1
  6
CONTINUOUS
 62
     7
 10
11522.78447999996
 20
20996.080329000011
 30
0.0
 40
160.0
  1
2
 72
     4
 11
11576.117813333291
 21
21076.080329000011
 31
0.0
  0
TEXT
  5
34A5
  8
0-1
  6
CONTINUOUS
 62
     7
 10
8604.7844799999766
 20
20996.080329000011
 30
0.0
 40
160.0
  1
1
 72
     4
 11
8631.4511466666409
 21
21076.080329000011
 31
0.0
  0
TEXT
  5
34A6
  8
0-1
  6
CONTINUOUS
 62
     7
 10
7075.2832199999712
 20
19553.577425999982
 30
0.0
 40
160.0
  1
C
 72
     4
 11
7128.6165533333051
 21
19633.577425999982
 31
0.0
  0
TEXT
  5
34A7
  8
0-1
  6
CONTINUOUS
 62
     7
 10
7075.2832199999712
 20
16986.075445999992
 30
0.0
 40
160.0
  1
B
 72
     4
 11
7128.6165533333051
 21
17066.075445999992
 31
0.0
  0
TEXT
  5
34A8
  8
0-1
  6
CONTINUOUS
 62
     7
 10
7075.2832199999712
 20
14418.575445999981
 30
0.0
 40
160.0
  1
A
 72
     4
 11
7128.6165533333051
 21
14498.575445999981
 31
0.0
  0
TEXT
  5
34A9
  8
0-1
  6
CONTINUOUS
 62
     7
 10
16686.21674399999
 20
1655.9997920000001
 30
0.0
 40
160.0
  1
H
  0
TEXT
  5
34AA
  8
0-1
  6
CONTINUOUS
 62
     7
 10
15176.145943
 20
1655.9997920000001
 30
0.0
 40
160.0
  1
（ ）内寸法ハ、  タ イプヲ示ス。
  0
TEXT
  5
34AB
  8
0-1
  6
CONTINUOUS
 62
     7
 10
15288.714237
 20
1255.9997100000001
 30
0.0
 40
160.0
  1
有効高サハ、基礎高サヲ含ミマセン。
  0
TEXT
  5
34AC
  8
0-6
  6
CONTINUOUS
 62
     7
 10
10503.734252999961
 20
20175.536224999989
 30
0.0
 40
160.0
  1
屋根
 72
     4
 11
10674.40091966663
 21
20255.536224999989
 31
0.0
  0
TEXT
  5
34AD
  8
0-6
  6
CONTINUOUS
 62
     7
 10
9414.1636769999768
 20
20895.534641999999
 30
0.0
 40
160.0
  1
鼻隠し後
 72
     4
 11
9776.8303436666429
 21
20975.534641999999
 31
0.0
  0
TEXT
  5
34AE
  8
0-6
  6
CONTINUOUS
 62
     7
 10
8852.7583509999713
 20
20175.536224999989
 30
0.0
 40
160.0
  1
桁（後）
 72
     4
 11
9172.7583509999713
 21
20255.536224999989
 31
0.0
  0
TEXT
  5
34AF
  8
0-6
  6
CONTINUOUS
 62
     7
 10
9662.8238729999575
 20
17505.130952
 30
0.0
 40
160.0
  1
桁（中）
 72
     4
 11
9982.8238729999557
 21
17585.130952
 31
0.0
  0
TEXT
  5
34B0
  8
0-6
  6
CONTINUOUS
 62
     7
 10
9624.8557169999604
 20
14959.36408599999
 30
0.0
 40
160.0
  1
桁（前）
 72
     4
 11
9944.8557169999604
 21
15039.36408599999
 31
0.0
  0
TEXT
  5
34B1
  8
0-6
  6
CONTINUOUS
 62
     7
 10
10532.381845999949
 20
13595.53516899999
 30
0.0
 40
160.0
  1
鼻隠し前
 72
     4
 11
10895.048512666621
 21
13675.53516899999
 31
0.0
  0
TEXT
  5
34B2
  8
0-6
  6
CONTINUOUS
 62
     7
 10
6915.6889879999699
 20
13195.535829
 30
0.0
 40
160.0
  1
ケラバ 左
 72
     4
 11
7331.688987999969
 21
13275.535829
 31
0.0
  0
TEXT
  5
34B3
  8
0-6
  6
CONTINUOUS
 62
     7
 10
8906.1133049999735
 20
18322.305915000001
 30
0.0
 40
160.0
  1
上枠
 72
     4
 11
9076.7799716666377
 21
18402.305915000001
 31
0.0
  0
TEXT
  5
34B4
  8
0-6
  6
CONTINUOUS
 62
     7
 10
10032.33169899996
 20
16642.149928999981
 30
0.0
 40
160.0
  1
ブレース
 72
     4
 11
10394.99836566663
 21
16727.48326233331
 31
0.0
  0
TEXT
  5
34B5
  8
0-6
  6
CONTINUOUS
 62
     7
 10
11017.401509999971
 20
16150.864099
 30
0.0
 40
160.0
  1
梁
 72
     4
 11
11092.06817666664
 21
16230.864099
 31
0.0
  0
TEXT
  5
34B6
  8
0-6
  6
CONTINUOUS
 62
     7
 10
14488.389408999959
 20
20821.201738999989
 30
0.0
 40
160.0
  1
鼻隠しコーナー後
 72
     4
 11
15235.056075666629
 21
20901.201738999989
 31
0.0
  0
TEXT
  5
34B7
  8
2-0
  6
CONTINUOUS
 62
     7
 10
9828.7530589999551
 20
12250.71676059604
 30
0.0
 40
160.0
  1
小 屋 伏 図
 50
359.99961300000001
 72
     4
 11
10330.086932675789
 21
12330.713374376221
 31
0.0
  0
TEXT
  5
34BF
  8
2-0
  6
CONTINUOUS
 62
     7
 10
11681.57911781342
 20
12277.90874337622
 30
0.0
 40
160.0
  1
1
 72
     4
 11
11708.24578448009
 21
12357.90874337622
 31
0.0
  0
TEXT
  5
34C0
  8
2-0
  6
CONTINUOUS
 62
     7
 10
11924.6678350641
 20
12197.91021137622
 30
0.0
 40
160.0
  1
80
 72
     4
 11
12044.6678350641
 21
12277.91021137622
 31
0.0
  0
TEXT
  5
34C1
  8
2-0
  6
CONTINUOUS
 62
     7
 10
11182.58108381342
 20
12250.713374376221
 30
0.0
 40
160.0
  1
(S=  /   )
 72
     4
 11
11742.58108381342
 21
12330.713374376221
 31
0.0
  0
LINE
  5
34C2
  8
0-4
  6
CONTINUOUS
 62
     4
 10
14264.29067299999
 20
6267.088643000001
 30
0.0
 11
19167.046927999971
 21
6267.088643000001
 31
0.0
  0
LINE
  5
34C3
  8
0-1
  6
CONTINUOUS
 62
     3
 10
8971.7892219999976
 20
8278.1340270000055
 30
0.0
 11
14151.791596999999
 21
8278.1340270000055
 31
0.0
  0
LINE
  5
34C4
  8
0-1
  6
CONTINUOUS
 62
     3
 10
8261.7893540000005
 20
6267.088643000001
 30
0.0
 11
14184.29040899999
 21
6267.088643000001
 31
0.0
  0
LINE
  5
34C5
  8
0-1
  6
CONTINUOUS
 62
     3
 10
8944.2904090000011
 20
6367.0884780000006
 30
0.0
 11
14184.29040899999
 21
6367.0884780000006
 31
0.0
  0
LINE
  5
34C6
  8
0-1
  6
CONTINUOUS
 62
     3
 10
8951.7911349999977
 20
8400.1159209999969
 30
0.0
 11
8951.7911349999977
 21
6367.0884780000006
 31
0.0
  0
LINE
  5
34C7
  8
0-1
  6
CONTINUOUS
 62
     3
 10
8971.7892219999976
 20
8400.8166700000038
 30
0.0
 11
8971.7892219999976
 21
6367.0884780000006
 31
0.0
  0
LINE
  5
34C8
  8
0-1
  6
CONTINUOUS
 62
     3
 10
8944.2904090000011
 20
6267.088643000001
 30
0.0
 11
8944.2904090000011
 21
6367.0884780000006
 31
0.0
  0
LINE
  5
34C9
  8
0-1
  6
CONTINUOUS
 62
     3
 10
14247.070775
 20
8585.0128540000005
 30
0.0
 11
14242.518872000001
 21
8714.9336070000008
 31
0.0
  0
LINE
  5
34CA
  8
0-1
  6
CONTINUOUS
 62
     3
 10
11634.290277
 20
6417.088643000001
 30
0.0
 11
14056.790541
 21
6417.088643000001
 31
0.0
  0
LINE
  5
34CB
  8
0-1
  6
CONTINUOUS
 62
     3
 10
11147.789934
 20
6417.088643000001
 30
0.0
 11
11147.789934
 21
8278.1340270000055
 31
0.0
  0
LINE
  5
34CC
  8
0-1
  6
CONTINUOUS
 62
     3
 10
11167.79098999999
 20
6417.088643000001
 30
0.0
 11
11167.79098999999
 21
8278.1340270000055
 31
0.0
  0
LINE
  5
34CD
  8
0-1
  6
CONTINUOUS
 62
     3
 10
11097.791252999999
 20
6417.088643000001
 30
0.0
 11
11097.791252999999
 21
8278.1340270000055
 31
0.0
  0
LINE
  5
34CE
  8
0-1
  6
CONTINUOUS
 62
     3
 10
11217.78967
 20
6417.088643000001
 30
0.0
 11
11217.78967
 21
8278.1340270000055
 31
0.0
  0
LINE
  5
34CF
  8
0-1
  6
CONTINUOUS
 62
     3
 10
11350.788574
 20
6417.088643000001
 30
0.0
 11
11350.788574
 21
8278.1340270000055
 31
0.0
  0
LINE
  5
34D0
  8
0-1
  6
CONTINUOUS
 62
     3
 10
11365.790356
 20
6417.088643000001
 30
0.0
 11
11365.790356
 21
8278.1340270000055
 31
0.0
  0
LINE
  5
34D1
  8
0-1
  6
CONTINUOUS
 62
     3
 10
10964.789378999991
 20
6417.088643000001
 30
0.0
 11
10964.789378999991
 21
8278.1340270000055
 31
0.0
  0
LINE
  5
34D2
  8
0-1
  6
CONTINUOUS
 62
     3
 10
10949.79056699998
 20
6417.088643000001
 30
0.0
 11
10949.79056699998
 21
8278.1340270000055
 31
0.0
  0
LINE
  5
34D3
  8
0-1
  6
CONTINUOUS
 62
     3
 10
9066.7882980000031
 20
8278.1340270000055
 30
0.0
 11
9066.7882980000031
 21
6367.0884780000006
 31
0.0
  0
LINE
  5
34D4
  8
0-1
  6
CONTINUOUS
 62
     3
 10
11634.290277
 20
8278.1340270000055
 30
0.0
 11
11634.290277
 21
6367.0884780000006
 31
0.0
  0
LINE
  5
34D5
  8
0-1
  6
CONTINUOUS
 62
     3
 10
11489.290541
 20
8278.1340270000055
 30
0.0
 11
11489.290541
 21
6367.0884780000006
 31
0.0
  0
LINE
  5
34D6
  8
0-1
  6
CONTINUOUS
 62
     3
 10
9747.7902640000011
 20
6417.088643000001
 30
0.0
 11
9747.7902640000011
 21
8278.1340270000055
 31
0.0
  0
LINE
  5
34D7
  8
0-1
  6
CONTINUOUS
 62
     3
 10
9767.7903299999907
 20
6417.088643000001
 30
0.0
 11
9767.7903299999907
 21
8278.1340270000055
 31
0.0
  0
LINE
  5
34D8
  8
0-1
  6
CONTINUOUS
 62
     3
 10
9697.7905939999964
 20
6417.088643000001
 30
0.0
 11
9697.7905939999964
 21
8278.1340270000055
 31
0.0
  0
LINE
  5
34D9
  8
0-1
  6
CONTINUOUS
 62
     3
 10
9817.7900000000027
 20
6417.088643000001
 30
0.0
 11
9817.7900000000027
 21
8278.1340270000055
 31
0.0
  0
LINE
  5
34DA
  8
0-1
  6
CONTINUOUS
 62
     3
 10
9950.7908840000055
 20
6417.088643000001
 30
0.0
 11
9950.7908840000055
 21
8278.1340270000055
 31
0.0
  0
LINE
  5
34DB
  8
0-1
  6
CONTINUOUS
 62
     3
 10
9965.7896960000016
 20
6417.088643000001
 30
0.0
 11
9965.7896960000016
 21
8278.1340270000055
 31
0.0
  0
LINE
  5
34DC
  8
0-1
  6
CONTINUOUS
 62
     3
 10
9564.7897090000024
 20
6417.088643000001
 30
0.0
 11
9564.7897090000024
 21
8278.1340270000055
 31
0.0
  0
LINE
  5
34DD
  8
0-1
  6
CONTINUOUS
 62
     3
 10
9549.7889180000002
 20
6417.088643000001
 30
0.0
 11
9549.7889180000002
 21
8278.1340270000055
 31
0.0
  0
LINE
  5
34DE
  8
0-1
  6
CONTINUOUS
 62
     3
 10
10249.790236999999
 20
6417.088643000001
 30
0.0
 11
10249.790236999999
 21
8278.1340270000055
 31
0.0
  0
LINE
  5
34DF
  8
0-1
  6
CONTINUOUS
 62
     3
 10
10264.789049999999
 20
6417.088643000001
 30
0.0
 11
10264.789049999999
 21
8278.1340270000055
 31
0.0
  0
LINE
  5
34E0
  8
0-1
  6
CONTINUOUS
 62
     3
 10
10665.79101599999
 20
6417.088643000001
 30
0.0
 11
10665.79101599999
 21
8278.1340270000055
 31
0.0
  0
LINE
  5
34E1
  8
0-1
  6
CONTINUOUS
 62
     3
 10
10650.79022399998
 20
6417.088643000001
 30
0.0
 11
10650.79022399998
 21
8278.1340270000055
 31
0.0
  0
LINE
  5
34E2
  8
0-1
  6
CONTINUOUS
 62
     3
 10
10517.789339999979
 20
6417.088643000001
 30
0.0
 11
10517.789339999979
 21
8278.1340270000055
 31
0.0
  0
LINE
  5
34E3
  8
0-1
  6
CONTINUOUS
 62
     3
 10
10397.789934
 20
6417.088643000001
 30
0.0
 11
10397.789934
 21
8278.1340270000055
 31
0.0
  0
LINE
  5
34E4
  8
0-1
  6
CONTINUOUS
 62
     3
 10
10467.78967
 20
6417.088643000001
 30
0.0
 11
10467.78967
 21
8278.1340270000055
 31
0.0
  0
LINE
  5
34E5
  8
0-1
  6
CONTINUOUS
 62
     3
 10
10447.79059399998
 20
6417.088643000001
 30
0.0
 11
10447.79059399998
 21
8278.1340270000055
 31
0.0
  0
LINE
  5
34E6
  8
0-1
  6
CONTINUOUS
 62
     3
 10
10789.29021099999
 20
8278.1340270000055
 30
0.0
 11
10789.29021099999
 21
6417.088643000001
 31
0.0
  0
LINE
  5
34E7
  8
0-1
  6
CONTINUOUS
 62
     3
 10
10826.29038199999
 20
8278.1340270000055
 30
0.0
 11
10826.29038199999
 21
6417.088643000001
 31
0.0
  0
LINE
  5
34E8
  8
0-1
  6
CONTINUOUS
 62
     3
 10
9389.2895510000017
 20
8278.1340270000055
 30
0.0
 11
9389.2895510000017
 21
6417.088643000001
 31
0.0
  0
LINE
  5
34E9
  8
0-1
  6
CONTINUOUS
 62
     3
 10
9426.2907120000018
 20
8278.1340270000055
 30
0.0
 11
9426.2907120000018
 21
6417.088643000001
 31
0.0
  0
LINE
  5
34EA
  8
0-1
  6
CONTINUOUS
 62
     3
 10
10089.288891
 20
8278.1340270000055
 30
0.0
 11
10089.288891
 21
6417.088643000001
 31
0.0
  0
LINE
  5
34EB
  8
0-1
  6
CONTINUOUS
 62
     3
 10
10126.291042000001
 20
8278.1340270000055
 30
0.0
 11
10126.291042000001
 21
6417.088643000001
 31
0.0
  0
LINE
  5
34EC
  8
0-1
  6
CONTINUOUS
 62
     3
 10
9066.7882980000031
 20
6417.088643000001
 30
0.0
 11
11489.290541
 21
6417.088643000001
 31
0.0
  0
LINE
  5
34ED
  8
0-1
  6
CONTINUOUS
 62
     3
 10
11561.79040899999
 20
8491.2470170000033
 30
0.0
 11
11557.236525999981
 21
8621.1657910000013
 31
0.0
  0
LINE
  5
34EE
  8
0-1
  6
CONTINUOUS
 62
     3
 10
11561.79040899999
 20
8491.2470170000033
 30
0.0
 11
11561.79040899999
 21
8278.1340270000055
 31
0.0
  0
LINE
  5
34EF
  8
0-1
  6
CONTINUOUS
 62
     3
 10
14056.790541
 20
8278.1340270000055
 30
0.0
 11
14056.790541
 21
6367.0884780000006
 31
0.0
  0
LINE
  5
34F0
  8
0-1
  6
CONTINUOUS
 62
     3
 10
14171.790673
 20
8582.3751450000018
 30
0.0
 11
14171.790673
 21
6367.0884780000006
 31
0.0
  0
LINE
  5
34F1
  8
0-1
  6
CONTINUOUS
 62
     3
 10
14151.791596999999
 20
8581.6743959999967
 30
0.0
 11
14151.791596999999
 21
6367.0884780000006
 31
0.0
  0
LINE
  5
34F2
  8
0-1
  6
CONTINUOUS
 62
     3
 10
12997.288785999999
 20
8278.1340270000055
 30
0.0
 11
12997.288785999999
 21
6417.088643000001
 31
0.0
  0
LINE
  5
34F3
  8
0-1
  6
CONTINUOUS
 62
     3
 10
13034.28994699999
 20
8278.1340270000055
 30
0.0
 11
13034.28994699999
 21
6417.088643000001
 31
0.0
  0
LINE
  5
34F4
  8
0-1
  6
CONTINUOUS
 62
     3
 10
13697.29109499999
 20
8278.1340270000055
 30
0.0
 11
13697.29109499999
 21
6417.088643000001
 31
0.0
  0
LINE
  5
34F5
  8
0-1
  6
CONTINUOUS
 62
     3
 10
13734.289287
 20
8278.1340270000055
 30
0.0
 11
13734.289287
 21
6417.088643000001
 31
0.0
  0
LINE
  5
34F6
  8
0-1
  6
CONTINUOUS
 62
     3
 10
12297.289445
 20
8278.1340270000055
 30
0.0
 11
12297.289445
 21
6417.088643000001
 31
0.0
  0
LINE
  5
34F7
  8
0-1
  6
CONTINUOUS
 62
     3
 10
12334.289617
 20
8278.1340270000055
 30
0.0
 11
12334.289617
 21
6417.088643000001
 31
0.0
  0
LINE
  5
34F8
  8
0-1
  6
CONTINUOUS
 62
     3
 10
12675.789234
 20
6417.088643000001
 30
0.0
 11
12675.789234
 21
8278.1340270000055
 31
0.0
  0
LINE
  5
34F9
  8
0-1
  6
CONTINUOUS
 62
     3
 10
12655.790157999991
 20
6417.088643000001
 30
0.0
 11
12655.790157999991
 21
8278.1340270000055
 31
0.0
  0
LINE
  5
34FA
  8
0-1
  6
CONTINUOUS
 62
     3
 10
12725.790884
 20
6417.088643000001
 30
0.0
 11
12725.790884
 21
8278.1340270000055
 31
0.0
  0
LINE
  5
34FB
  8
0-1
  6
CONTINUOUS
 62
     3
 10
12605.78949799998
 20
6417.088643000001
 30
0.0
 11
12605.78949799998
 21
8278.1340270000055
 31
0.0
  0
LINE
  5
34FC
  8
0-1
  6
CONTINUOUS
 62
     3
 10
12472.790594
 20
6417.088643000001
 30
0.0
 11
12472.790594
 21
8278.1340270000055
 31
0.0
  0
LINE
  5
34FD
  8
0-1
  6
CONTINUOUS
 62
     3
 10
12457.789801999979
 20
6417.088643000001
 30
0.0
 11
12457.789801999979
 21
8278.1340270000055
 31
0.0
  0
LINE
  5
34FE
  8
0-1
  6
CONTINUOUS
 62
     3
 10
12858.789789
 20
6417.088643000001
 30
0.0
 11
12858.789789
 21
8278.1340270000055
 31
0.0
  0
LINE
  5
34FF
  8
0-1
  6
CONTINUOUS
 62
     3
 10
12873.788601
 20
6417.088643000001
 30
0.0
 11
12873.788601
 21
8278.1340270000055
 31
0.0
  0
LINE
  5
3500
  8
0-1
  6
CONTINUOUS
 62
     3
 10
13573.79091
 20
6417.088643000001
 30
0.0
 11
13573.79091
 21
8278.1340270000055
 31
0.0
  0
LINE
  5
3501
  8
0-1
  6
CONTINUOUS
 62
     3
 10
13558.789128999981
 20
6417.088643000001
 30
0.0
 11
13558.789128999981
 21
8278.1340270000055
 31
0.0
  0
LINE
  5
3502
  8
0-1
  6
CONTINUOUS
 62
     3
 10
13157.790132
 20
6417.088643000001
 30
0.0
 11
13157.790132
 21
8278.1340270000055
 31
0.0
  0
LINE
  5
3503
  8
0-1
  6
CONTINUOUS
 62
     3
 10
13172.788944
 20
6417.088643000001
 30
0.0
 11
13172.788944
 21
8278.1340270000055
 31
0.0
  0
LINE
  5
3504
  8
0-1
  6
CONTINUOUS
 62
     3
 10
13305.788838
 20
6417.088643000001
 30
0.0
 11
13305.788838
 21
8278.1340270000055
 31
0.0
  0
LINE
  5
3505
  8
0-1
  6
CONTINUOUS
 62
     3
 10
13425.789234
 20
6417.088643000001
 30
0.0
 11
13425.789234
 21
8278.1340270000055
 31
0.0
  0
LINE
  5
3506
  8
0-1
  6
CONTINUOUS
 62
     3
 10
13355.789498
 20
6417.088643000001
 30
0.0
 11
13355.789498
 21
8278.1340270000055
 31
0.0
  0
LINE
  5
3507
  8
0-1
  6
CONTINUOUS
 62
     3
 10
13375.788574
 20
6417.088643000001
 30
0.0
 11
13375.788574
 21
8278.1340270000055
 31
0.0
  0
LINE
  5
3508
  8
0-1
  6
CONTINUOUS
 62
     3
 10
12173.789261
 20
6417.088643000001
 30
0.0
 11
12173.789261
 21
8278.1340270000055
 31
0.0
  0
LINE
  5
3509
  8
0-1
  6
CONTINUOUS
 62
     3
 10
12158.789459
 20
6417.088643000001
 30
0.0
 11
12158.789459
 21
8278.1340270000055
 31
0.0
  0
LINE
  5
350A
  8
0-1
  6
CONTINUOUS
 62
     3
 10
11757.79046199999
 20
6417.088643000001
 30
0.0
 11
11757.79046199999
 21
8278.1340270000055
 31
0.0
  0
LINE
  5
350B
  8
0-1
  6
CONTINUOUS
 62
     3
 10
11772.79125299999
 20
6417.088643000001
 30
0.0
 11
11772.79125299999
 21
8278.1340270000055
 31
0.0
  0
LINE
  5
350C
  8
0-1
  6
CONTINUOUS
 62
     3
 10
11905.790158
 20
6417.088643000001
 30
0.0
 11
11905.790158
 21
8278.1340270000055
 31
0.0
  0
LINE
  5
350D
  8
0-1
  6
CONTINUOUS
 62
     3
 10
12025.789564000001
 20
6417.088643000001
 30
0.0
 11
12025.789564000001
 21
8278.1340270000055
 31
0.0
  0
LINE
  5
350E
  8
0-1
  6
CONTINUOUS
 62
     3
 10
11955.789828000001
 20
6417.088643000001
 30
0.0
 11
11955.789828000001
 21
8278.1340270000055
 31
0.0
  0
LINE
  5
350F
  8
0-1
  6
CONTINUOUS
 62
     3
 10
11975.78989399999
 20
6417.088643000001
 30
0.0
 11
11975.78989399999
 21
8278.1340270000055
 31
0.0
  0
LINE
  5
3510
  8
0-1
  6
CONTINUOUS
 62
     3
 10
14184.29040899999
 20
6367.0884780000006
 30
0.0
 11
14184.29040899999
 21
6267.088643000001
 31
0.0
  0
LINE
  5
3511
  8
0-1
  6
CONTINUOUS
 62
     3
 10
8774.6628230000024
 20
8441.9391889999988
 30
0.0
 11
8773.4701630000018
 21
8475.9166359999981
 31
0.0
  0
LINE
  5
3512
  8
0-1
  6
CONTINUOUS
 62
     3
 10
8776.364219000001
 20
8479.0205209999967
 30
0.0
 11
14256.08847199999
 21
8670.3805820000016
 31
0.0
  0
LINE
  5
3513
  8
0-1
  6
CONTINUOUS
 62
     3
 10
14257.487991999989
 20
8630.4071740000036
 30
0.0
 11
8777.7647290000023
 21
8439.0451330000033
 31
0.0
  0
LINE
  5
3514
  8
0-1
  6
CONTINUOUS
 62
     3
 10
8775.0478390000062
 20
8430.9449430000077
 30
0.0
 11
8775.0448700000015
 21
8431.0102670000033
 31
0.0
  0
LINE
  5
3515
  8
0-1
  6
CONTINUOUS
 62
     3
 10
8775.0448700000015
 20
8431.0102670000033
 30
0.0
 11
8776.1682470000032
 21
8398.9658199999994
 31
0.0
  0
LINE
  5
3516
  8
0-1
  6
CONTINUOUS
 62
     3
 10
8781.3397390000009
 20
8394.142722999999
 30
0.0
 11
14280.03173899998
 21
8586.1679030000032
 31
0.0
  0
LINE
  5
3517
  8
0-1
  6
CONTINUOUS
 62
     3
 10
14275.47983599999
 20
8716.0876660000031
 30
0.0
 11
8776.7878360000013
 21
8524.0634770000015
 31
0.0
  0
LINE
  5
3518
  8
0-1
  6
CONTINUOUS
 62
     3
 10
8771.9647390000027
 20
8518.890994000003
 30
0.0
 11
8773.0851470000016
 21
8486.9118720000006
 31
0.0
  0
LINE
  5
3519
  8
0-1
  6
CONTINUOUS
 62
     3
 10
8776.1900220000007
 20
8484.0178160000032
 30
0.0
 11
14255.91229499998
 21
8675.3778770000008
 31
0.0
  0
LINE
  5
351A
  8
0-1
  6
CONTINUOUS
 62
     3
 10
14257.66317899999
 20
8625.4098790000025
 30
0.0
 11
8777.9399160000012
 21
8434.0478379999968
 31
0.0
  0
LINE
  5
351B
  8
0-1
  6
CONTINUOUS
 62
     3
 10
8789.2795880000049
 20
8524.500949999996
 30
0.0
 11
8793.8324809999995
 21
8394.5801969999975
 31
0.0
  0
LINE
  5
351C
  8
0-5
  6
CONTINUOUS
 62
     4
 10
8994.2904090000029
 20
4587.0885440000002
 30
0.0
 11
8994.2904090000029
 21
4427.0885109999999
 31
0.0
  0
LINE
  5
351D
  8
0-5
  6
CONTINUOUS
 62
     4
 10
11561.79040899999
 20
4587.0885440000002
 30
0.0
 11
11561.79040899999
 21
4427.0885109999999
 31
0.0
  0
LINE
  5
351E
  8
0-5
  6
CONTINUOUS
 62
     4
 10
14129.29040899999
 20
4587.0885440000002
 30
0.0
 11
14129.29040899999
 21
4427.0885109999999
 31
0.0
  0
LINE
  5
351F
  8
2-0
  6
CENTER2
 62
     6
 10
8994.2904090000029
 20
6004.4352299999982
 30
0.0
 11
8994.2904090000029
 21
7061.5783230000015
 31
0.0
  0
LINE
  5
3520
  8
2-0
  6
CENTER2
 62
     6
 10
11561.79040899999
 20
6004.4352299999982
 30
0.0
 11
11561.79040899999
 21
7061.5783230000015
 31
0.0
  0
LINE
  5
3521
  8
2-0
  6
CENTER2
 62
     6
 10
14129.29040899999
 20
6004.4352299999982
 30
0.0
 11
14129.29040899999
 21
7061.5783230000015
 31
0.0
  0
ARC
  5
3522
  8
0-1
  6
CONTINUOUS
 62
     3
 10
8779.3513129999974
 20
8436.5994379999975
 30
0.0
 40
2.5
 50
272.00698899981808
 51
92.006988999818205
  0
ARC
  5
3523
  8
0-1
  6
CONTINUOUS
 62
     3
 10
8777.7766060000085
 20
8481.5731100000048
 30
0.0
 40
2.5
 50
272.00698899981808
 51
92.006988999818205
  0
ARC
  5
3524
  8
0-1
  6
CONTINUOUS
 62
     3
 10
8776.4691340000081
 20
8476.0215500000031
 30
0.0
 40
3.0
 50
92.006988999818205
 51
182.00698899997451
  0
ARC
  5
3525
  8
0-1
  6
CONTINUOUS
 62
     3
 10
14256.787241999989
 20
8650.3933829999987
 30
0.0
 40
20.0
 50
272.00698899981808
 51
92.006988999818205
  0
ARC
  5
3526
  8
0-1
  6
CONTINUOUS
 62
     3
 10
8777.6598139999987
 20
8442.0441040000005
 30
0.0
 40
3.0
 50
182.00698899997451
 51
272.00698899981808
  0
ARC
  5
3527
  8
0-1
  6
CONTINUOUS
 62
     3
 10
8778.0448300000044
 20
8431.0508469999986
 30
0.0
 40
3.0
 50
92.006988999818205
 51
182.00698899997451
  0
ARC
  5
3528
  8
0-1
  6
CONTINUOUS
 62
     3
 10
8781.1655409999985
 20
8399.1400180000037
 30
0.0
 40
5.0
 50
182.00698899997451
 51
272.00698899981808
  0
ARC
  5
3529
  8
0-1
  6
CONTINUOUS
 62
     3
 10
14251.790936999991
 20
8650.2191850000017
 30
0.0
 40
69.999999000000003
 50
293.7937770000417
 51
70.22019999997768
  0
ARC
  5
352A
  8
0-1
  6
CONTINUOUS
 62
     3
 10
8776.9620340000056
 20
8519.0661819999968
 30
0.0
 40
5.0
 50
92.006988999818205
 51
182.00698899997451
  0
ARC
  5
352B
  8
0-1
  6
CONTINUOUS
 62
     3
 10
8776.0831280000002
 20
8487.0157970000037
 30
0.0
 40
3.0
 50
182.00698899997451
 51
272.00698899981808
  0
ARC
  5
352C
  8
0-1
  6
CONTINUOUS
 62
     3
 10
14256.787241999989
 20
8650.3933829999987
 30
0.0
 40
24.999998999999999
 50
272.00698899981808
 51
92.006988999818205
  0
CIRCLE
  5
352D
  8
0-5
  6
CONTINUOUS
 62
     4
 10
8994.2904090000029
 20
4227.0878509999993
 30
0.0
 40
199.9999949999999
  0
CIRCLE
  5
352E
  8
0-5
  6
CONTINUOUS
 62
     4
 10
14129.29040899999
 20
4227.0878509999993
 30
0.0
 40
199.9999949999999
  0
CIRCLE
  5
352F
  8
0-5
  6
CONTINUOUS
 62
     4
 10
11561.79040899999
 20
4227.0878509999993
 30
0.0
 40
199.9999949999999
  0
TEXT
  5
3530
  8
0-5
  6
CONTINUOUS
 62
     7
 10
8940.0944328542064
 20
4139.8339066382023
 30
0.0
 40
160.0
  1
C
 72
     4
 11
8993.4277661875421
 21
4219.8339066382032
 31
0.0
  0
TEXT
  5
3531
  8
0-5
  6
CONTINUOUS
 62
     7
 10
11507.59344185418
 20
4139.8339066382023
 30
0.0
 40
160.0
  1
B
 72
     4
 11
11560.92677518752
 21
4219.8339066382032
 31
0.0
  0
TEXT
  5
3532
  8
0-5
  6
CONTINUOUS
 62
     7
 10
14075.092452854189
 20
4139.8339066382023
 30
0.0
 40
160.0
  1
A
 72
     4
 11
14128.42578618753
 21
4219.8339066382032
 31
0.0
  0
TEXT
  5
3533
  8
2-0
  6
CONTINUOUS
 62
     7
 10
10092.842126999991
 20
3479.9210370000019
 30
0.0
 40
160.0
  1
側 面 立 面 図
 72
     4
 11
10738.17546033333
 21
3559.9210370000019
 31
0.0
  0
TEXT
  5
3534
  8
2-0
  6
CONTINUOUS
 62
     7
 10
12089.66764547094
 20
3507.116406000001
 30
0.0
 40
160.0
  1
1
 72
     4
 11
12116.334312137609
 21
3587.1164060000019
 31
0.0
  0
TEXT
  5
3535
  8
2-0
  6
CONTINUOUS
 62
     7
 10
12332.75636272165
 20
3427.1178740000009
 30
0.0
 40
160.0
  1
80
 72
     4
 11
12452.75636272165
 21
3507.1178740000009
 31
0.0
  0
TEXT
  5
3536
  8
2-0
  6
CONTINUOUS
 62
     7
 10
11590.66961147095
 20
3479.9210370000019
 30
0.0
 40
160.0
  1
(S=  /   )
 72
     4
 11
12150.66961147095
 21
3559.9210370000019
 31
0.0
  0
LINE
  5
3537
  8
0-1
  6
CONTINUOUS
 62
     3
 10
9256.2886660000131
 20
6417.088643000001
 30
0.0
 11
9256.2886660000131
 21
8278.1340270000055
 31
0.0
  0
LINE
  5
3538
  8
0-1
  6
CONTINUOUS
 62
     3
 10
9241.2878750000127
 20
6417.088643000001
 30
0.0
 11
9241.2878750000127
 21
8278.1340270000055
 31
0.0
  0
LINE
  5
3539
  8
0-1
  6
CONTINUOUS
 62
     3
 10
13882.29096299999
 20
6417.088643000001
 30
0.0
 11
13882.29096299999
 21
8278.1340270000055
 31
0.0
  0
LINE
  5
353A
  8
0-1
  6
CONTINUOUS
 62
     3
 10
13867.28918199999
 20
6417.088643000001
 30
0.0
 11
13867.28918199999
 21
8278.1340270000055
 31
0.0
  0
LINE
  5
353B
  8
0-5
  6
CONTINUOUS
 62
     4
 10
14264.29067300001
 20
6367.0884780000006
 30
0.0
 11
15981.75062100001
 21
6367.0884780000006
 31
0.0
  0
LINE
  5
353C
  8
0-5
  6
CONTINUOUS
 62
     4
 10
16009.37678200001
 20
6574.9344650000003
 30
0.0
 11
15769.37500099998
 21
6574.9344650000003
 31
0.0
  0
LINE
  5
353D
  8
0-5
  6
CONTINUOUS
 62
     4
 10
15889.37440700001
 20
6367.0884780000006
 30
0.0
 11
16009.37678200001
 21
6574.9344650000003
 31
0.0
  0
LINE
  5
353E
  8
0-5
  6
CONTINUOUS
 62
     4
 10
15769.37500099998
 20
6574.9344650000003
 30
0.0
 11
15889.37440700001
 21
6367.0884780000006
 31
0.0
  0
TEXT
  5
353F
  8
0-0
  6
CONTINUOUS
 62
     7
 10
15430.283467999991
 20
6654.9347289999978
 30
0.0
 40
160.0
  1
布基礎天端
 72
     4
 11
15888.95013466666
 21
6734.9347289999987
 31
0.0
  0
LINE
  5
3540
  8
0-5
  6
CONTINUOUS
 62
     4
 10
16724.674830999971
 20
6474.9351249999991
 30
0.0
 11
16844.67324799997
 21
6267.088643000001
 31
0.0
  0
LINE
  5
3541
  8
0-5
  6
CONTINUOUS
 62
     4
 10
16844.67324799997
 20
6267.088643000001
 30
0.0
 11
16964.675622999981
 21
6474.9351249999991
 31
0.0
  0
LINE
  5
3542
  8
0-5
  6
CONTINUOUS
 62
     4
 10
16964.675622999981
 20
6474.9351249999991
 30
0.0
 11
16724.674830999971
 21
6474.9351249999991
 31
0.0
  0
TEXT
  5
3543
  8
0-0
  6
CONTINUOUS
 62
     7
 10
16724.674830999971
 20
6554.9348940000036
 30
0.0
 40
160.0
  1
G.L
 72
     4
 11
16884.674830999971
 21
6634.9348940000036
 31
0.0
  0
LINE
  5
3544
  8
0-1
  6
CONTINUOUS
 62
     3
 10
24018.048852999971
 20
8465.5884979999973
 30
0.0
 11
24018.048852999971
 21
8497.5884050000004
 31
0.0
  0
LINE
  5
3545
  8
0-1
  6
CONTINUOUS
 62
     3
 10
24167.04824599998
 20
8389.4017760000006
 30
0.0
 11
24124.04613499996
 21
8389.4017760000006
 31
0.0
  0
LINE
  5
3546
  8
0-1
  6
CONTINUOUS
 62
     3
 10
24167.04824599998
 20
8715.5888270000032
 30
0.0
 11
24167.04824599998
 21
8389.4017760000006
 31
0.0
  0
LINE
  5
3547
  8
0-1
  6
CONTINUOUS
 62
     3
 10
23732.081659999989
 20
8462.0530769999987
 30
0.0
 11
23700.082742999981
 21
8494.0529849999984
 31
0.0
  0
LINE
  5
3548
  8
0-1
  6
CONTINUOUS
 62
     3
 10
24013.048588999962
 20
8502.5886689999988
 30
0.0
 11
23703.618162999988
 21
8502.5886689999988
 31
0.0
  0
LINE
  5
3549
  8
0-1
  6
CONTINUOUS
 62
     3
 10
24018.048852999971
 20
8494.189572000003
 30
0.0
 11
23699.952093999971
 21
8494.189572000003
 31
0.0
  0
LINE
  5
354A
  8
0-1
  6
CONTINUOUS
 62
     3
 10
24013.048588999962
 20
8460.5882340000007
 30
0.0
 11
23735.619059999972
 21
8460.5882340000007
 31
0.0
  0
LINE
  5
354B
  8
0-1
  6
CONTINUOUS
 62
     3
 10
24018.048852999971
 20
8468.9883209999989
 30
0.0
 11
23725.147406999971
 21
8468.9883209999989
 31
0.0
  0
LINE
  5
354C
  8
0-1
  6
CONTINUOUS
 62
     3
 10
24018.048852999971
 20
8477.3884079999971
 30
0.0
 11
23716.748308999981
 21
8477.3884079999971
 31
0.0
  0
LINE
  5
354D
  8
0-1
  6
CONTINUOUS
 62
     3
 10
24018.048852999971
 20
8485.7894849999975
 30
0.0
 11
23708.347232999971
 21
8485.7894849999975
 31
0.0
  0
LINE
  5
354E
  8
0-1
  6
CONTINUOUS
 62
     3
 10
24131.546530999982
 20
6367.0884779999951
 30
0.0
 11
24031.547189999968
 21
6367.0884779999951
 31
0.0
  0
LINE
  5
354F
  8
0-1
  6
CONTINUOUS
 62
     3
 10
24031.547189999968
 20
6367.0884779999951
 30
0.0
 11
24031.547189999968
 21
6267.088643000001
 31
0.0
  0
LINE
  5
3550
  8
0-1
  6
CONTINUOUS
 62
     3
 10
24131.546530999982
 20
6267.088643000001
 30
0.0
 11
24131.546530999982
 21
6367.0884779999951
 31
0.0
  0
LINE
  5
3551
  8
0-1
  6
CONTINUOUS
 62
     3
 10
24104.047057999971
 20
8715.5888270000032
 30
0.0
 11
24104.047057999971
 21
6367.0884779999951
 31
0.0
  0
LINE
  5
3552
  8
0-1
  6
CONTINUOUS
 62
     3
 10
24124.04613499996
 20
8585.5879039999982
 30
0.0
 11
24124.04613499996
 21
6367.0884779999951
 31
0.0
  0
LINE
  5
3553
  8
0-1
  6
CONTINUOUS
 62
     3
 10
23994.047189999961
 20
8275.0885369999942
 30
0.0
 11
23994.047189999961
 21
6267.088643000001
 31
0.0
  0
LINE
  5
3554
  8
0-1
  6
CONTINUOUS
 62
     3
 10
24039.047585999971
 20
8585.5879039999982
 30
0.0
 11
24039.047585999971
 21
6367.0884779999951
 31
0.0
  0
LINE
  5
3555
  8
0-1
  6
CONTINUOUS
 62
     3
 10
22564.512061000001
 20
8462.0530769999987
 30
0.0
 11
22596.508999000001
 21
8494.0529849999984
 31
0.0
  0
LINE
  5
3556
  8
0-1
  6
CONTINUOUS
 62
     3
 10
22278.546847000001
 20
8465.5884979999973
 30
0.0
 11
22278.546847000001
 21
8497.5884050000004
 31
0.0
  0
LINE
  5
3557
  8
0-1
  6
CONTINUOUS
 62
     3
 10
22278.546847000001
 20
8468.9883209999989
 30
0.0
 11
22571.444334999971
 21
8468.9883209999989
 31
0.0
  0
LINE
  5
3558
  8
0-1
  6
CONTINUOUS
 62
     3
 10
22278.546847000001
 20
8477.3884079999971
 30
0.0
 11
22579.845411999991
 21
8477.3884079999971
 31
0.0
  0
LINE
  5
3559
  8
0-1
  6
CONTINUOUS
 62
     3
 10
22283.547110999989
 20
8460.5882340000007
 30
0.0
 11
22560.974660999989
 21
8460.5882340000007
 31
0.0
  0
LINE
  5
355A
  8
0-1
  6
CONTINUOUS
 62
     3
 10
22278.546847000001
 20
8485.7894849999975
 30
0.0
 11
22588.244509
 21
8485.7894849999975
 31
0.0
  0
LINE
  5
355B
  8
0-1
  6
CONTINUOUS
 62
     3
 10
22278.546847000001
 20
8494.189572000003
 30
0.0
 11
22596.641627000001
 21
8494.189572000003
 31
0.0
  0
LINE
  5
355C
  8
0-1
  6
CONTINUOUS
 62
     3
 10
22283.547110999989
 20
8502.5886689999988
 30
0.0
 11
22592.975558000009
 21
8502.5886689999988
 31
0.0
  0
LINE
  5
355D
  8
0-1
  6
CONTINUOUS
 62
     3
 10
22257.544154999989
 20
8585.5879039999982
 30
0.0
 11
22257.544154999989
 21
6267.088643000001
 31
0.0
  0
LINE
  5
355E
  8
0-1
  6
CONTINUOUS
 62
     3
 10
22302.54455100001
 20
8275.0885369999942
 30
0.0
 11
22302.54455100001
 21
6267.088643000001
 31
0.0
  0
LINE
  5
355F
  8
0-1
  6
CONTINUOUS
 62
     3
 10
24167.04824599998
 20
8585.5879039999982
 30
0.0
 11
22215.04587099998
 21
8585.5879039999982
 31
0.0
  0
LINE
  5
3560
  8
0-1
  6
CONTINUOUS
 62
     3
 10
22257.544154999989
 20
8511.5885500000004
 30
0.0
 11
24039.047585999971
 21
8511.5885500000004
 31
0.0
  0
LINE
  5
3561
  8
0-1
  6
CONTINUOUS
 62
     3
 10
22302.54455100001
 20
8206.5482009999978
 30
0.0
 11
23994.047189999961
 21
8206.5482009999978
 31
0.0
  0
LINE
  5
3562
  8
0-1
  6
CONTINUOUS
 62
     3
 10
22302.54455100001
 20
6852.0893359999973
 30
0.0
 11
23994.047189999961
 21
6852.0893359999973
 31
0.0
  0
LINE
  5
3563
  8
0-1
  6
CONTINUOUS
 62
     3
 10
22302.54455100001
 20
6917.0883130000002
 30
0.0
 11
23994.047189999961
 21
6917.0883130000002
 31
0.0
  0
LINE
  5
3564
  8
0-1
  6
CONTINUOUS
 62
     3
 10
22302.54455100001
 20
6982.0887749999983
 30
0.0
 11
23994.047189999961
 21
6982.0887749999983
 31
0.0
  0
LINE
  5
3565
  8
0-1
  6
CONTINUOUS
 62
     3
 10
22302.54455100001
 20
7047.0887419999972
 30
0.0
 11
23994.047189999961
 21
7047.0887419999972
 31
0.0
  0
LINE
  5
3566
  8
0-1
  6
CONTINUOUS
 62
     3
 10
22302.54455100001
 20
7112.0887089999969
 30
0.0
 11
23994.047189999961
 21
7112.0887089999969
 31
0.0
  0
LINE
  5
3567
  8
0-1
  6
CONTINUOUS
 62
     3
 10
22302.54455100001
 20
7177.0886759999976
 30
0.0
 11
23994.047189999961
 21
7177.0886759999976
 31
0.0
  0
LINE
  5
3568
  8
0-1
  6
CONTINUOUS
 62
     3
 10
22302.54455100001
 20
7242.089138000003
 30
0.0
 11
23994.047189999961
 21
7242.089138000003
 31
0.0
  0
LINE
  5
3569
  8
0-1
  6
CONTINUOUS
 62
     3
 10
22302.54455100001
 20
7307.0881149999977
 30
0.0
 11
23994.047189999961
 21
7307.0881149999977
 31
0.0
  0
LINE
  5
356A
  8
0-1
  6
CONTINUOUS
 62
     3
 10
22302.54455100001
 20
7372.0885769999977
 30
0.0
 11
23994.047189999961
 21
7372.0885769999977
 31
0.0
  0
LINE
  5
356B
  8
0-1
  6
CONTINUOUS
 62
     3
 10
22302.54455100001
 20
7437.0885439999984
 30
0.0
 11
23994.047189999961
 21
7437.0885439999984
 31
0.0
  0
LINE
  5
356C
  8
0-1
  6
CONTINUOUS
 62
     3
 10
22302.54455100001
 20
7502.0890059999974
 30
0.0
 11
23994.047189999961
 21
7502.0890059999974
 31
0.0
  0
LINE
  5
356D
  8
0-1
  6
CONTINUOUS
 62
     3
 10
22302.54455100001
 20
7567.0879829999967
 30
0.0
 11
23994.047189999961
 21
7567.0879829999967
 31
0.0
  0
LINE
  5
356E
  8
0-1
  6
CONTINUOUS
 62
     3
 10
22302.54455100001
 20
7632.0884449999976
 30
0.0
 11
23994.047189999961
 21
7632.0884449999976
 31
0.0
  0
LINE
  5
356F
  8
0-1
  6
CONTINUOUS
 62
     3
 10
22302.54455100001
 20
7697.0884119999992
 30
0.0
 11
23994.047189999961
 21
7697.0884119999992
 31
0.0
  0
LINE
  5
3570
  8
0-1
  6
CONTINUOUS
 62
     3
 10
22302.54455100001
 20
7762.0883789999989
 30
0.0
 11
23994.047189999961
 21
7762.0883789999989
 31
0.0
  0
LINE
  5
3571
  8
0-1
  6
CONTINUOUS
 62
     3
 10
22302.54455100001
 20
7827.0888410000007
 30
0.0
 11
23994.047189999961
 21
7827.0888410000007
 31
0.0
  0
LINE
  5
3572
  8
0-1
  6
CONTINUOUS
 62
     3
 10
22302.54455100001
 20
7892.0888079999977
 30
0.0
 11
23994.047189999961
 21
7892.0888079999977
 31
0.0
  0
LINE
  5
3573
  8
0-1
  6
CONTINUOUS
 62
     3
 10
22302.54455100001
 20
7957.0892699999968
 30
0.0
 11
23994.047189999961
 21
7957.0892699999968
 31
0.0
  0
LINE
  5
3574
  8
0-1
  6
CONTINUOUS
 62
     3
 10
22302.54455100001
 20
8022.0882469999933
 30
0.0
 11
23994.047189999961
 21
8022.0882469999933
 31
0.0
  0
LINE
  5
3575
  8
0-1
  6
CONTINUOUS
 62
     3
 10
22302.54455100001
 20
8087.0887089999969
 30
0.0
 11
23994.047189999961
 21
8087.0887089999969
 31
0.0
  0
LINE
  5
3576
  8
0-1
  6
CONTINUOUS
 62
     3
 10
22302.54455100001
 20
8152.0886759999976
 30
0.0
 11
23994.047189999961
 21
8152.0886759999976
 31
0.0
  0
LINE
  5
3577
  8
0-1
  6
CONTINUOUS
 62
     3
 10
22302.54455100001
 20
6332.0881149999968
 30
0.0
 11
23994.047189999961
 21
6332.0881149999968
 31
0.0
  0
LINE
  5
3578
  8
0-1
  6
CONTINUOUS
 62
     3
 10
22302.54455100001
 20
6397.0890719999979
 30
0.0
 11
23994.047189999961
 21
6397.0890719999979
 31
0.0
  0
LINE
  5
3579
  8
0-1
  6
CONTINUOUS
 62
     3
 10
22302.54455100001
 20
6462.088048999999
 30
0.0
 11
23994.047189999961
 21
6462.088048999999
 31
0.0
  0
LINE
  5
357A
  8
0-1
  6
CONTINUOUS
 62
     3
 10
22302.54455100001
 20
6527.0890059999974
 30
0.0
 11
23994.047189999961
 21
6527.0890059999974
 31
0.0
  0
LINE
  5
357B
  8
0-1
  6
CONTINUOUS
 62
     3
 10
22302.54455100001
 20
6592.0884779999988
 30
0.0
 11
23994.047189999961
 21
6592.0884779999988
 31
0.0
  0
LINE
  5
357C
  8
0-1
  6
CONTINUOUS
 62
     3
 10
22302.54455100001
 20
6657.0884450000012
 30
0.0
 11
23994.047189999961
 21
6657.0884450000012
 31
0.0
  0
LINE
  5
357D
  8
0-1
  6
CONTINUOUS
 62
     3
 10
22302.54455100001
 20
6722.0884119999992
 30
0.0
 11
23994.047189999961
 21
6722.0884119999992
 31
0.0
  0
LINE
  5
357E
  8
0-1
  6
CONTINUOUS
 62
     3
 10
22302.54455100001
 20
6787.0878839999987
 30
0.0
 11
23994.047189999961
 21
6787.0878839999987
 31
0.0
  0
LINE
  5
357F
  8
0-1
  6
CONTINUOUS
 62
     3
 10
22257.544154999989
 20
8451.5883519999988
 30
0.0
 11
24039.047585999971
 21
8451.5883519999988
 31
0.0
  0
LINE
  5
3580
  8
0-1
  6
CONTINUOUS
 62
     3
 10
22257.544154999989
 20
8275.0885369999942
 30
0.0
 11
24039.047585999971
 21
8275.0885369999942
 31
0.0
  0
LINE
  5
3581
  8
0-1
  6
CONTINUOUS
 62
     3
 10
19247.045211999979
 20
6267.088643000001
 30
0.0
 11
24131.546530999982
 21
6267.088643000001
 31
0.0
  0
LINE
  5
3582
  8
0-1
  6
CONTINUOUS
 62
     3
 10
22215.04587099998
 20
8715.5888270000032
 30
0.0
 11
24167.04824599998
 21
8715.5888270000032
 31
0.0
  0
LINE
  5
3583
  8
0-1
  6
CONTINUOUS
 62
     3
 10
22151.544894999981
 20
8465.5884979999973
 30
0.0
 11
22151.544894999981
 21
8497.5884050000004
 31
0.0
  0
LINE
  5
3584
  8
0-1
  6
CONTINUOUS
 62
     3
 10
21865.583639999972
 20
8462.0530769999987
 30
0.0
 11
21833.582742999981
 21
8494.0529849999984
 31
0.0
  0
LINE
  5
3585
  8
0-1
  6
CONTINUOUS
 62
     3
 10
22151.544894999981
 20
8494.189572000003
 30
0.0
 11
21833.452094999961
 21
8494.189572000003
 31
0.0
  0
LINE
  5
3586
  8
0-1
  6
CONTINUOUS
 62
     3
 10
22151.544894999981
 20
8485.7894849999975
 30
0.0
 11
21841.84723299996
 21
8485.7894849999975
 31
0.0
  0
LINE
  5
3587
  8
0-1
  6
CONTINUOUS
 62
     3
 10
22151.544894999981
 20
8477.3884079999971
 30
0.0
 11
21850.24632999998
 21
8477.3884079999971
 31
0.0
  0
LINE
  5
3588
  8
0-1
  6
CONTINUOUS
 62
     3
 10
22151.544894999981
 20
8468.9883209999989
 30
0.0
 11
21858.64542799996
 21
8468.9883209999989
 31
0.0
  0
LINE
  5
3589
  8
0-1
  6
CONTINUOUS
 62
     3
 10
22146.546609999968
 20
8502.5886689999988
 30
0.0
 11
21837.11618399998
 21
8502.5886689999988
 31
0.0
  0
LINE
  5
358A
  8
0-1
  6
CONTINUOUS
 62
     3
 10
22146.546609999968
 20
8460.5882340000007
 30
0.0
 11
21869.119060999968
 21
8460.5882340000007
 31
0.0
  0
LINE
  5
358B
  8
0-1
  6
CONTINUOUS
 62
     3
 10
22172.545606999971
 20
8585.5879039999982
 30
0.0
 11
22172.545606999971
 21
6267.088643000001
 31
0.0
  0
LINE
  5
358C
  8
0-1
  6
CONTINUOUS
 62
     3
 10
22127.547190999961
 20
8275.0885369999942
 30
0.0
 11
22127.547190999961
 21
6267.088643000001
 31
0.0
  0
LINE
  5
358D
  8
0-1
  6
CONTINUOUS
 62
     3
 10
19365.545131999981
 20
8460.5882340000007
 30
0.0
 11
19642.97466199995
 21
8460.5882340000007
 31
0.0
  0
LINE
  5
358E
  8
0-1
  6
CONTINUOUS
 62
     3
 10
19360.54684799998
 20
8465.5884979999973
 30
0.0
 11
19360.54684799998
 21
8497.5884050000004
 31
0.0
  0
LINE
  5
358F
  8
0-1
  6
CONTINUOUS
 62
     3
 10
19211.545475999959
 20
8389.4017760000006
 30
0.0
 11
19254.543627999981
 21
8389.4017760000006
 31
0.0
  0
LINE
  5
3590
  8
0-1
  6
CONTINUOUS
 62
     3
 10
19211.545475999959
 20
8389.4017760000006
 30
0.0
 11
19211.545475999959
 21
8715.5888270000032
 31
0.0
  0
LINE
  5
3591
  8
0-1
  6
CONTINUOUS
 62
     3
 10
19365.545131999981
 20
8502.5886689999988
 30
0.0
 11
19674.97555899998
 21
8502.5886689999988
 31
0.0
  0
LINE
  5
3592
  8
0-1
  6
CONTINUOUS
 62
     3
 10
19646.508101999982
 20
8462.0530769999987
 30
0.0
 11
19678.50899999998
 21
8494.0529849999984
 31
0.0
  0
LINE
  5
3593
  8
0-1
  6
CONTINUOUS
 62
     3
 10
19360.54684799998
 20
8494.189572000003
 30
0.0
 11
19678.641626999979
 21
8494.189572000003
 31
0.0
  0
LINE
  5
3594
  8
0-1
  6
CONTINUOUS
 62
     3
 10
19360.54684799998
 20
8485.7894849999975
 30
0.0
 11
19670.244509999971
 21
8485.7894849999975
 31
0.0
  0
LINE
  5
3595
  8
0-1
  6
CONTINUOUS
 62
     3
 10
19360.54684799998
 20
8477.3884079999971
 30
0.0
 11
19661.845411999991
 21
8477.3884079999971
 31
0.0
  0
LINE
  5
3596
  8
0-1
  6
CONTINUOUS
 62
     3
 10
19360.54684799998
 20
8468.9883209999989
 30
0.0
 11
19653.446314999961
 21
8468.9883209999989
 31
0.0
  0
LINE
  5
3597
  8
0-1
  6
CONTINUOUS
 62
     3
 10
19347.046530999982
 20
6367.0884779999951
 30
0.0
 11
19347.046530999982
 21
6267.088643000001
 31
0.0
  0
LINE
  5
3598
  8
0-1
  6
CONTINUOUS
 62
     3
 10
19247.045211999979
 20
6267.088643000001
 30
0.0
 11
19247.045211999979
 21
6367.0884779999951
 31
0.0
  0
LINE
  5
3599
  8
0-1
  6
CONTINUOUS
 62
     3
 10
19247.045211999979
 20
6367.0884779999951
 30
0.0
 11
19347.046530999982
 21
6367.0884779999951
 31
0.0
  0
LINE
  5
359A
  8
0-1
  6
CONTINUOUS
 62
     3
 10
19384.546530999982
 20
8275.0885369999942
 30
0.0
 11
19384.546530999982
 21
6267.088643000001
 31
0.0
  0
LINE
  5
359B
  8
0-1
  6
CONTINUOUS
 62
     3
 10
19339.544155999982
 20
8585.5879039999982
 30
0.0
 11
19339.544155999982
 21
6367.0884779999951
 31
0.0
  0
LINE
  5
359C
  8
0-1
  6
CONTINUOUS
 62
     3
 10
19274.546662999961
 20
8715.5888270000032
 30
0.0
 11
19274.546662999961
 21
6367.0884779999951
 31
0.0
  0
LINE
  5
359D
  8
0-1
  6
CONTINUOUS
 62
     3
 10
19254.543627999981
 20
8585.5879039999982
 30
0.0
 11
19254.543627999981
 21
6367.0884779999951
 31
0.0
  0
LINE
  5
359E
  8
0-1
  6
CONTINUOUS
 62
     3
 10
19339.544155999982
 20
8275.0885369999942
 30
0.0
 11
22172.545606999971
 21
8275.0885369999942
 31
0.0
  0
LINE
  5
359F
  8
0-1
  6
CONTINUOUS
 62
     3
 10
19339.544155999982
 20
8451.5883519999988
 30
0.0
 11
22172.545606999971
 21
8451.5883519999988
 31
0.0
  0
LINE
  5
35A0
  8
0-1
  6
CONTINUOUS
 62
     3
 10
19384.546530999982
 20
6787.0878839999987
 30
0.0
 11
22127.547190999961
 21
6787.0878839999987
 31
0.0
  0
LINE
  5
35A1
  8
0-1
  6
CONTINUOUS
 62
     3
 10
19384.546530999982
 20
6722.0884119999992
 30
0.0
 11
22127.547190999961
 21
6722.0884119999992
 31
0.0
  0
LINE
  5
35A2
  8
0-1
  6
CONTINUOUS
 62
     3
 10
19384.546530999982
 20
6657.0884450000012
 30
0.0
 11
22127.547190999961
 21
6657.0884450000012
 31
0.0
  0
LINE
  5
35A3
  8
0-1
  6
CONTINUOUS
 62
     3
 10
19384.546530999982
 20
6592.0884779999988
 30
0.0
 11
22127.547190999961
 21
6592.0884779999988
 31
0.0
  0
LINE
  5
35A4
  8
0-1
  6
CONTINUOUS
 62
     3
 10
19384.546530999982
 20
6527.0890059999974
 30
0.0
 11
22127.547190999961
 21
6527.0890059999974
 31
0.0
  0
LINE
  5
35A5
  8
0-1
  6
CONTINUOUS
 62
     3
 10
19384.546530999982
 20
6462.088048999999
 30
0.0
 11
22127.547190999961
 21
6462.088048999999
 31
0.0
  0
LINE
  5
35A6
  8
0-1
  6
CONTINUOUS
 62
     3
 10
19384.546530999982
 20
6397.0890719999979
 30
0.0
 11
22127.547190999961
 21
6397.0890719999979
 31
0.0
  0
LINE
  5
35A7
  8
0-1
  6
CONTINUOUS
 62
     3
 10
19384.546530999982
 20
6332.0881149999968
 30
0.0
 11
22127.547190999961
 21
6332.0881149999968
 31
0.0
  0
LINE
  5
35A8
  8
0-1
  6
CONTINUOUS
 62
     3
 10
19384.546530999982
 20
8152.0886759999976
 30
0.0
 11
22127.547190999961
 21
8152.0886759999976
 31
0.0
  0
LINE
  5
35A9
  8
0-1
  6
CONTINUOUS
 62
     3
 10
19384.546530999982
 20
8087.0887089999969
 30
0.0
 11
22127.547190999961
 21
8087.0887089999969
 31
0.0
  0
LINE
  5
35AA
  8
0-1
  6
CONTINUOUS
 62
     3
 10
19384.546530999982
 20
8022.0882469999933
 30
0.0
 11
22127.547190999961
 21
8022.0882469999933
 31
0.0
  0
LINE
  5
35AB
  8
0-1
  6
CONTINUOUS
 62
     3
 10
19384.546530999982
 20
7957.0892699999968
 30
0.0
 11
22127.547190999961
 21
7957.0892699999968
 31
0.0
  0
LINE
  5
35AC
  8
0-1
  6
CONTINUOUS
 62
     3
 10
19384.546530999982
 20
7892.0888079999977
 30
0.0
 11
22127.547190999961
 21
7892.0888079999977
 31
0.0
  0
LINE
  5
35AD
  8
0-1
  6
CONTINUOUS
 62
     3
 10
19384.546530999982
 20
7827.0888410000007
 30
0.0
 11
22127.547190999961
 21
7827.0888410000007
 31
0.0
  0
LINE
  5
35AE
  8
0-1
  6
CONTINUOUS
 62
     3
 10
19384.546530999982
 20
7762.0883789999989
 30
0.0
 11
22127.547190999961
 21
7762.0883789999989
 31
0.0
  0
LINE
  5
35AF
  8
0-1
  6
CONTINUOUS
 62
     3
 10
19384.546530999982
 20
7697.0884119999992
 30
0.0
 11
22127.547190999961
 21
7697.0884119999992
 31
0.0
  0
LINE
  5
35B0
  8
0-1
  6
CONTINUOUS
 62
     3
 10
19384.546530999982
 20
7632.0884449999976
 30
0.0
 11
22127.547190999961
 21
7632.0884449999976
 31
0.0
  0
LINE
  5
35B1
  8
0-1
  6
CONTINUOUS
 62
     3
 10
19384.546530999982
 20
7567.0879829999967
 30
0.0
 11
22127.547190999961
 21
7567.0879829999967
 31
0.0
  0
LINE
  5
35B2
  8
0-1
  6
CONTINUOUS
 62
     3
 10
19384.546530999982
 20
7502.0890059999974
 30
0.0
 11
22127.547190999961
 21
7502.0890059999974
 31
0.0
  0
LINE
  5
35B3
  8
0-1
  6
CONTINUOUS
 62
     3
 10
19384.546530999982
 20
7437.0885439999984
 30
0.0
 11
22127.547190999961
 21
7437.0885439999984
 31
0.0
  0
LINE
  5
35B4
  8
0-1
  6
CONTINUOUS
 62
     3
 10
19384.546530999982
 20
7372.0885769999977
 30
0.0
 11
22127.547190999961
 21
7372.0885769999977
 31
0.0
  0
LINE
  5
35B5
  8
0-1
  6
CONTINUOUS
 62
     3
 10
19384.546530999982
 20
7307.0881149999977
 30
0.0
 11
22127.547190999961
 21
7307.0881149999977
 31
0.0
  0
LINE
  5
35B6
  8
0-1
  6
CONTINUOUS
 62
     3
 10
19384.546530999982
 20
7242.089138000003
 30
0.0
 11
22127.547190999961
 21
7242.089138000003
 31
0.0
  0
LINE
  5
35B7
  8
0-1
  6
CONTINUOUS
 62
     3
 10
19384.546530999982
 20
7177.0886759999976
 30
0.0
 11
22127.547190999961
 21
7177.0886759999976
 31
0.0
  0
LINE
  5
35B8
  8
0-1
  6
CONTINUOUS
 62
     3
 10
19384.546530999982
 20
7112.0887089999969
 30
0.0
 11
22127.547190999961
 21
7112.0887089999969
 31
0.0
  0
LINE
  5
35B9
  8
0-1
  6
CONTINUOUS
 62
     3
 10
19384.546530999982
 20
7047.0887419999972
 30
0.0
 11
22127.547190999961
 21
7047.0887419999972
 31
0.0
  0
LINE
  5
35BA
  8
0-1
  6
CONTINUOUS
 62
     3
 10
19384.546530999982
 20
6982.0887749999983
 30
0.0
 11
22127.547190999961
 21
6982.0887749999983
 31
0.0
  0
LINE
  5
35BB
  8
0-1
  6
CONTINUOUS
 62
     3
 10
19384.546530999982
 20
6917.0883130000002
 30
0.0
 11
22127.547190999961
 21
6917.0883130000002
 31
0.0
  0
LINE
  5
35BC
  8
0-1
  6
CONTINUOUS
 62
     3
 10
19384.546530999982
 20
6852.0893359999973
 30
0.0
 11
22127.547190999961
 21
6852.0893359999973
 31
0.0
  0
LINE
  5
35BD
  8
0-1
  6
CONTINUOUS
 62
     3
 10
19384.546530999982
 20
8206.5482009999978
 30
0.0
 11
22127.547190999961
 21
8206.5482009999978
 31
0.0
  0
LINE
  5
35BE
  8
0-1
  6
CONTINUOUS
 62
     3
 10
19339.544155999982
 20
8511.5885500000004
 30
0.0
 11
22172.545606999971
 21
8511.5885500000004
 31
0.0
  0
LINE
  5
35BF
  8
0-1
  6
CONTINUOUS
 62
     3
 10
19211.545475999959
 20
8715.5888270000032
 30
0.0
 11
22215.04587099998
 21
8715.5888270000032
 31
0.0
  0
LINE
  5
35C0
  8
0-1
  6
CONTINUOUS
 62
     3
 10
22215.04587099998
 20
8585.5879039999982
 30
0.0
 11
19211.545475999959
 21
8585.5879039999982
 31
0.0
  0
LINE
  5
35C1
  8
0-1
  6
CONTINUOUS
 62
     3
 10
22215.04587099998
 20
8585.5879039999982
 30
0.0
 11
22215.04587099998
 21
8715.5888270000032
 31
0.0
  0
LINE
  5
35C2
  8
0-1
  6
CONTINUOUS
 62
     3
 10
22215.04587099998
 20
8585.5879039999982
 30
0.0
 11
22215.04587099998
 21
8715.5888270000032
 31
0.0
  0
LINE
  5
35C3
  8
0-2
  6
CONTINUOUS
 62
     4
 10
21119.73688149999
 20
7014.3143469999986
 30
0.0
 11
21019.737541499981
 21
7014.3143469999986
 31
0.0
  0
LINE
  5
35C4
  8
0-2
  6
CONTINUOUS
 62
     4
 10
20392.352880499991
 20
7014.3143469999986
 30
0.0
 11
20492.350241499989
 21
7014.3143469999986
 31
0.0
  0
LINE
  5
35C5
  8
0-5
  6
CONTINUOUS
 62
     4
 10
22215.04587099998
 20
4587.0885439999929
 30
0.0
 11
22215.04587099998
 21
4427.0885109999999
 31
0.0
  0
LINE
  5
35C6
  8
0-5
  6
CONTINUOUS
 62
     4
 10
19297.04587099998
 20
4587.0885439999929
 30
0.0
 11
19297.04587099998
 21
4427.0885109999999
 31
0.0
  0
LINE
  5
35C7
  8
2-0
  6
CENTER2
 62
     6
 10
24081.54587099998
 20
6004.4362199999978
 30
0.0
 11
24081.54587099998
 21
7041.5782569999992
 31
0.0
  0
LINE
  5
35C8
  8
2-0
  6
CENTER2
 62
     6
 10
22215.04587099998
 20
6004.4362199999978
 30
0.0
 11
22215.04587099998
 21
7041.5782569999992
 31
0.0
  0
LINE
  5
35C9
  8
2-0
  6
CENTER2
 62
     6
 10
19297.04587099998
 20
6004.4362199999978
 30
0.0
 11
19297.04587099998
 21
7041.5782569999992
 31
0.0
  0
ARC
  5
35CA
  8
0-1
  6
CONTINUOUS
 62
     3
 10
24013.048588999962
 20
8497.5884050000004
 30
0.0
 40
5.0
 50
0.0
 51
90.0
  0
ARC
  5
35CB
  8
0-1
  6
CONTINUOUS
 62
     3
 10
24013.048588999962
 20
8465.5884979999973
 30
0.0
 40
5.0
 50
269.9999850001808
 51
0.0
  0
ARC
  5
35CC
  8
0-1
  6
CONTINUOUS
 62
     3
 10
23703.618162999988
 20
8497.5884050000004
 30
0.0
 40
5.0
 50
90.0
 51
224.9999849999798
  0
ARC
  5
35CD
  8
0-1
  6
CONTINUOUS
 62
     3
 10
23735.619059999972
 20
8465.5884979999973
 30
0.0
 40
5.0
 50
224.9999849999798
 51
269.9999850001808
  0
ARC
  5
35CE
  8
0-1
  6
CONTINUOUS
 62
     3
 10
22592.975558000009
 20
8497.5884050000004
 30
0.0
 40
5.0
 50
314.99998500027471
 51
90.0
  0
ARC
  5
35CF
  8
0-1
  6
CONTINUOUS
 62
     3
 10
22560.974660999989
 20
8465.5884979999973
 30
0.0
 40
5.0
 50
269.9999850001808
 51
314.99998500027471
  0
ARC
  5
35D0
  8
0-1
  6
CONTINUOUS
 62
     3
 10
22283.547110999989
 20
8465.5884979999973
 30
0.0
 40
5.0
 50
180.0
 51
269.9999850001808
  0
ARC
  5
35D1
  8
0-1
  6
CONTINUOUS
 62
     3
 10
22283.547110999989
 20
8497.5884050000004
 30
0.0
 40
5.0
 50
90.0
 51
180.0
  0
ARC
  5
35D2
  8
0-1
  6
CONTINUOUS
 62
     3
 10
22146.546609999968
 20
8465.5884979999973
 30
0.0
 40
5.0
 50
269.9999850001808
 51
0.0
  0
ARC
  5
35D3
  8
0-1
  6
CONTINUOUS
 62
     3
 10
22146.546609999968
 20
8497.5884050000004
 30
0.0
 40
5.0
 50
0.0
 51
90.0
  0
ARC
  5
35D4
  8
0-1
  6
CONTINUOUS
 62
     3
 10
21837.11618399998
 20
8497.5884050000004
 30
0.0
 40
5.0
 50
90.0
 51
224.9999849999798
  0
ARC
  5
35D5
  8
0-1
  6
CONTINUOUS
 62
     3
 10
21869.119060999968
 20
8465.5884979999973
 30
0.0
 40
5.0
 50
224.9999849999798
 51
269.9999850001808
  0
ARC
  5
35D6
  8
0-1
  6
CONTINUOUS
 62
     3
 10
19674.97555899998
 20
8497.5884050000004
 30
0.0
 40
5.0
 50
314.99998500027471
 51
90.0
  0
ARC
  5
35D7
  8
0-1
  6
CONTINUOUS
 62
     3
 10
19365.545131999981
 20
8497.5884050000004
 30
0.0
 40
5.0
 50
90.0
 51
180.0
  0
ARC
  5
35D8
  8
0-1
  6
CONTINUOUS
 62
     3
 10
19365.545131999981
 20
8465.5884979999973
 30
0.0
 40
5.0
 50
180.0
 51
269.9999850001808
  0
ARC
  5
35D9
  8
0-1
  6
CONTINUOUS
 62
     3
 10
19642.97466199995
 20
8465.5884979999973
 30
0.0
 40
5.0
 50
269.9999850001808
 51
314.99998500027471
  0
CIRCLE
  5
35DA
  8
0-5
  6
CONTINUOUS
 62
     4
 10
22215.04587099998
 20
4227.0888409999989
 30
0.0
 40
199.9999949999999
  0
CIRCLE
  5
35DB
  8
0-5
  6
CONTINUOUS
 62
     4
 10
19297.04587099998
 20
4227.0888409999989
 30
0.0
 40
199.9999949999999
  0
TEXT
  5
35DC
  8
0-5
  6
CONTINUOUS
 62
     7
 10
18678.869931999991
 20
6996.4488897419951
 30
0.0
 40
160.0
  1
(2131.5)
 50
90.0
 72
     4
 11
18598.869931999991
 21
7449.7822230753281
 31
0.0
  0
TEXT
  5
35DD
  8
0-5
  6
CONTINUOUS
 62
     7
 10
22168.11742399996
 20
4140.5588870000001
 30
0.0
 40
160.0
  1
2
 72
     4
 11
22221.450757333299
 21
4220.5588869999992
 31
0.0
  0
TEXT
  5
35DE
  8
0-5
  6
CONTINUOUS
 62
     7
 10
19250.113464999969
 20
4140.5588870000001
 30
0.0
 40
160.0
  1
1
 72
     4
 11
19276.780131666641
 21
4220.5588869999992
 31
0.0
  0
CIRCLE
  5
35DF
  8
0-4
  6
CONTINUOUS
 62
     4
 10
20756.04587099998
 20
6753.144583999996
 30
0.0
 40
18.487504999999981
  0
LINE
  5
35E0
  8
SUNPOU
  6
CONTINUOUS
 10
19014.54587099998
 20
5067.088643000001
 30
0.0
 11
18656.590864278871
 21
5067.088643000001
 31
0.0
  0
LINE
  5
35E1
  8
SUNPOU
  6
CONTINUOUS
 10
24364.049829999989
 20
5067.088643000001
 30
0.0
 11
24722.00483672108
 21
5067.088643000001
 31
0.0
  0
LINE
  5
35E2
  8
0-5
  6
CONTINUOUS
 62
     4
 10
24124.045870999969
 20
4587.0885439999929
 30
0.0
 11
24124.045870999969
 21
4427.0885109999999
 31
0.0
  0
CIRCLE
  5
35E3
  8
0-5
  6
CONTINUOUS
 62
     4
 10
24124.045870999969
 20
4227.0888409999989
 30
0.0
 40
199.9999949999999
  0
TEXT
  5
35E4
  8
0-5
  6
CONTINUOUS
 62
     7
 10
24077.117423999971
 20
4140.5588870000001
 30
0.0
 40
160.0
  1
3
 72
     4
 11
24130.45075733331
 21
4220.5588869999992
 31
0.0
  0
TEXT
  5
35E5
  8
2-0
  6
CONTINUOUS
 62
     7
 10
20371.26212699998
 20
3389.967011000002
 30
0.0
 40
160.0
  1
正 面 立 面 図
 50
0.000139
 72
     4
 11
21016.595266250799
 21
3469.968576583376
 31
0.0
  0
TEXT
  5
35E6
  8
2-0
  6
CONTINUOUS
 62
     7
 10
22368.08745138843
 20
3417.1639455833761
 30
0.0
 40
160.0
  1
1
 72
     4
 11
22394.754118055102
 21
3497.163945583377
 31
0.0
  0
TEXT
  5
35E7
  8
2-0
  6
CONTINUOUS
 62
     7
 10
22611.176168639118
 20
3337.165413583376
 30
0.0
 40
160.0
  1
80
 72
     4
 11
22731.176168639118
 21
3417.165413583376
 31
0.0
  0
TEXT
  5
35E8
  8
2-0
  6
CONTINUOUS
 62
     7
 10
21869.089417388412
 20
3389.968576583376
 30
0.0
 40
160.0
  1
(S=  /   )
 72
     4
 11
22429.089417388412
 21
3469.968576583376
 31
0.0
  0
LINE
  5
35E9
  8
0-5
  6
CONTINUOUS
 62
     4
 10
16724.676810999961
 20
6474.9341350000013
 30
0.0
 11
16844.67324799997
 21
6267.088643000001
 31
0.0
  0
LINE
  5
35EA
  8
0-5
  6
CONTINUOUS
 62
     4
 10
16844.67324799997
 20
6267.088643000001
 30
0.0
 11
16964.673643999969
 21
6474.9341350000013
 31
0.0
  0
LINE
  5
35EB
  8
0-5
  6
CONTINUOUS
 62
     4
 10
16964.673643999969
 20
6474.9341350000013
 30
0.0
 11
16724.676810999961
 21
6474.9341350000013
 31
0.0
  0
TEXT
  5
35EC
  8
0-5
  6
CONTINUOUS
 62
     7
 10
16724.676810999968
 20
6554.9348929999987
 30
0.0
 40
160.0
  1
G.L
 72
     4
 11
16884.676810999968
 21
6634.9348929999987
 31
0.0
  0
TEXT
  5
35ED
  8
2-0
  6
CONTINUOUS
 62
     7
 10
20608.369773999981
 20
12256.04839299999
 30
0.0
 40
160.0
  1
平　面　図
 50
359.99978700000008
 72
     4
 11
21061.703384907349
 21
12330.713374376221
 31
0.0
  0
TEXT
  5
35EE
  8
2-0
  6
CONTINUOUS
 62
     7
 10
22413.19557004498
 20
12277.908743376231
 30
0.0
 40
160.0
  1
1
 72
     4
 11
22439.862236711651
 21
12357.908743376231
 31
0.0
  0
TEXT
  5
35EF
  8
2-0
  6
CONTINUOUS
 62
     7
 10
22656.284287295672
 20
12197.91021137622
 30
0.0
 40
160.0
  1
80
 72
     4
 11
22776.284287295672
 21
12277.91021137622
 31
0.0
  0
TEXT
  5
35F0
  8
2-0
  6
CONTINUOUS
 62
     7
 10
21914.19753604498
 20
12250.713374376221
 30
0.0
 40
160.0
  1
(S=  /   )
 72
     4
 11
22474.19753604498
 21
12330.713374376221
 31
0.0
  0
LINE
  5
35F1
  8
2-0
  6
CONTINUOUS
 62
     6
 10
22398.38695499998
 20
13868.038666
 30
0.0
 11
23398.380356999951
 21
13868.038666
 31
0.0
  0
LINE
  5
35F2
  8
2-0
  6
CONTINUOUS
 62
     6
 10
23866.320733999972
 20
14338.45938
 30
0.0
 11
23398.380356999951
 21
13868.038666
 31
0.0
  0
LINE
  5
35F3
  8
2-0
  6
CONTINUOUS
 62
     6
 10
23827.680530999969
 20
17179.567027000001
 30
0.0
 11
23522.985112999992
 21
17283.220558000019
 31
0.0
  0
LINE
  5
35F4
  8
2-0
  6
CONTINUOUS
 62
     6
 10
23982.702569999961
 20
16689.944983000001
 30
0.0
 11
23522.985112999992
 21
16446.031672000001
 31
0.0
  0
LINE
  5
35F5
  8
2-0
  6
CONTINUOUS
 62
     6
 10
22602.982077999961
 20
16446.031672000001
 30
0.0
 11
23522.985112999992
 21
16446.031672000001
 31
0.0
  0
LINE
  5
35F6
  8
2-0
  6
CONTINUOUS
 62
     6
 10
22322.991050999961
 20
17283.220558000019
 30
0.0
 11
23522.985112999992
 21
17283.220558000019
 31
0.0
  0
LINE
  5
35F7
  8
2-0
  6
CONTINUOUS
 62
     6
 10
23898.879854999981
 20
14660.14302599998
 30
0.0
 11
23522.985112999992
 21
14841.086861
 31
0.0
  0
LINE
  5
35F8
  8
2-0
  6
CONTINUOUS
 62
     6
 10
23002.983396999982
 20
14841.086861
 30
0.0
 11
23522.985112999992
 21
14841.086861
 31
0.0
  0
LINE
  5
35F9
  8
2-0
  6
CONTINUOUS
 62
     4
 10
22215.04587099998
 20
19765.540316000021
 30
0.0
 11
22215.04587099998
 21
20495.537281000012
 31
0.0
  0
LINE
  5
35FA
  8
2-0
  6
CONTINUOUS
 62
     3
 10
24094.04653099996
 20
19576.537862000001
 30
0.0
 11
24094.04653099996
 21
19570.5419
 31
0.0
  0
LINE
  5
35FB
  8
2-0
  6
CONTINUOUS
 62
     3
 10
24094.04653099996
 20
19570.5419
 30
0.0
 11
24124.04415499997
 21
19570.5419
 31
0.0
  0
LINE
  5
35FC
  8
2-0
  6
CONTINUOUS
 62
     3
 10
24124.04415499997
 20
19600.541504000001
 30
0.0
 11
24043.04225499996
 21
19600.541504000001
 31
0.0
  0
LINE
  5
35FD
  8
2-0
  6
CONTINUOUS
 62
     3
 10
24094.04653099996
 20
19560.244444
 30
0.0
 11
24124.04415499997
 21
19560.244444
 31
0.0
  0
LINE
  5
35FE
  8
2-0
  6
CONTINUOUS
 62
     3
 10
24094.04653099996
 20
19578.246186000011
 30
0.0
 11
24094.04653099996
 21
19560.244444
 31
0.0
  0
LINE
  5
35FF
  8
2-0
  6
CONTINUOUS
 62
     3
 10
24119.04389099999
 20
19578.246186000011
 30
0.0
 11
24094.04653099996
 21
19578.246186000011
 31
0.0
  0
LINE
  5
3600
  8
2-0
  6
CONTINUOUS
 62
     3
 10
24119.04389099999
 20
19573.238004000021
 30
0.0
 11
24119.04389099999
 21
19578.246186000011
 31
0.0
  0
LINE
  5
3601
  8
2-0
  6
CONTINUOUS
 62
     3
 10
24112.042333999991
 20
19573.238004000021
 30
0.0
 11
24119.04389099999
 21
19573.238004000021
 31
0.0
  0
LINE
  5
3602
  8
2-0
  6
CONTINUOUS
 62
     3
 10
24011.746065999982
 20
19673.538230999999
 30
0.0
 11
24011.746065999982
 21
19680.543747000011
 31
0.0
  0
LINE
  5
3603
  8
2-0
  6
CONTINUOUS
 62
     3
 10
24011.746065999982
 20
19680.543747000011
 30
0.0
 11
24016.746329999969
 21
19680.543747000011
 31
0.0
  0
LINE
  5
3604
  8
2-0
  6
CONTINUOUS
 62
     3
 10
24016.746329999969
 20
19680.543747000011
 30
0.0
 11
24016.746329999969
 21
19655.534510000001
 31
0.0
  0
LINE
  5
3605
  8
2-0
  6
CONTINUOUS
 62
     3
 10
24016.746329999969
 20
19655.534510000001
 30
0.0
 11
23998.744587999961
 21
19655.534510000001
 31
0.0
  0
LINE
  5
3606
  8
2-0
  6
CONTINUOUS
 62
     3
 10
23998.744587999961
 20
19655.534510000001
 30
0.0
 11
23998.744587999961
 21
19685.538073000022
 31
0.0
  0
LINE
  5
3607
  8
2-0
  6
CONTINUOUS
 62
     3
 10
24009.042043999969
 20
19685.538073000022
 30
0.0
 11
24124.04415499997
 21
19685.538073000022
 31
0.0
  0
LINE
  5
3608
  8
2-0
  6
CONTINUOUS
 62
     3
 10
24009.042043999969
 20
19655.534510000001
 30
0.0
 11
24009.042043999969
 21
19685.538073000022
 31
0.0
  0
LINE
  5
3609
  8
2-0
  6
CONTINUOUS
 62
     3
 10
24015.043943999972
 20
19655.534510000001
 30
0.0
 11
24009.042043999969
 21
19655.534510000001
 31
0.0
  0
LINE
  5
360A
  8
2-0
  6
CONTINUOUS
 62
     3
 10
24112.042333999991
 20
19219.941181499991
 30
0.0
 11
24119.04389099999
 21
19219.941181499991
 31
0.0
  0
LINE
  5
360B
  8
2-0
  6
CONTINUOUS
 62
     3
 10
24119.04389099999
 20
19219.941181499991
 30
0.0
 11
24119.04389099999
 21
19224.941445500001
 31
0.0
  0
LINE
  5
360C
  8
2-0
  6
CONTINUOUS
 62
     3
 10
24119.04389099999
 20
19224.941445500001
 30
0.0
 11
24094.04653099996
 21
19224.941445500001
 31
0.0
  0
LINE
  5
360D
  8
2-0
  6
CONTINUOUS
 62
     3
 10
24094.04653099996
 20
19224.941445500001
 30
0.0
 11
24094.04653099996
 21
19206.945641499991
 31
0.0
  0
LINE
  5
360E
  8
2-0
  6
CONTINUOUS
 62
     3
 10
24094.04653099996
 20
19206.945641499991
 30
0.0
 11
24124.04415499997
 21
19206.945641499991
 31
0.0
  0
LINE
  5
360F
  8
2-0
  6
CONTINUOUS
 62
     3
 10
24094.04653099996
 20
19223.037148499981
 30
0.0
 11
24094.04653099996
 21
19217.039207500002
 31
0.0
  0
LINE
  5
3610
  8
2-0
  6
CONTINUOUS
 62
     3
 10
24094.04653099996
 20
19217.039207500002
 30
0.0
 11
24124.04415499997
 21
19217.039207500002
 31
0.0
  0
LINE
  5
3611
  8
2-0
  6
CONTINUOUS
 62
     3
 10
24124.04415499997
 20
19217.039207500002
 30
0.0
 11
24124.04415499997
 21
19254.040368499991
 31
0.0
  0
LINE
  5
3612
  8
2-0
  6
CONTINUOUS
 62
     3
 10
24094.04653099996
 20
19254.040368499991
 30
0.0
 11
24124.04415499997
 21
19254.040368499991
 31
0.0
  0
LINE
  5
3613
  8
2-0
  6
CONTINUOUS
 62
     3
 10
24094.04653099996
 20
19248.036488499991
 30
0.0
 11
24094.04653099996
 21
19254.040368499991
 31
0.0
  0
LINE
  5
3614
  8
2-0
  6
CONTINUOUS
 62
     3
 10
24094.04653099996
 20
19264.135913499991
 30
0.0
 11
24124.04415499997
 21
19264.135913499991
 31
0.0
  0
LINE
  5
3615
  8
2-0
  6
CONTINUOUS
 62
     3
 10
24094.04653099996
 20
19246.134171500002
 30
0.0
 11
24094.04653099996
 21
19264.135913499991
 31
0.0
  0
LINE
  5
3616
  8
2-0
  6
CONTINUOUS
 62
     3
 10
24119.04389099999
 20
19246.134171500002
 30
0.0
 11
24094.04653099996
 21
19246.134171500002
 31
0.0
  0
LINE
  5
3617
  8
2-0
  6
CONTINUOUS
 62
     3
 10
24119.04389099999
 20
19251.1344355
 30
0.0
 11
24119.04389099999
 21
19246.134171500002
 31
0.0
  0
LINE
  5
3618
  8
2-0
  6
CONTINUOUS
 62
     3
 10
24112.042333999991
 20
19251.1344355
 30
0.0
 11
24119.04389099999
 21
19251.1344355
 31
0.0
  0
LINE
  5
3619
  8
2-0
  6
CONTINUOUS
 62
     3
 10
24112.042333999991
 20
18518.940191999998
 30
0.0
 11
24119.04389099999
 21
18518.940191999998
 31
0.0
  0
LINE
  5
361A
  8
2-0
  6
CONTINUOUS
 62
     3
 10
24119.04389099999
 20
18518.940191999998
 30
0.0
 11
24119.04389099999
 21
18523.946393999991
 31
0.0
  0
LINE
  5
361B
  8
2-0
  6
CONTINUOUS
 62
     3
 10
24119.04389099999
 20
18523.946393999991
 30
0.0
 11
24094.04653099996
 21
18523.946393999991
 31
0.0
  0
LINE
  5
361C
  8
2-0
  6
CONTINUOUS
 62
     3
 10
24094.04653099996
 20
18523.946393999991
 30
0.0
 11
24094.04653099996
 21
18505.944651999998
 31
0.0
  0
LINE
  5
361D
  8
2-0
  6
CONTINUOUS
 62
     3
 10
24094.04653099996
 20
18505.944651999998
 30
0.0
 11
24124.04415499997
 21
18505.944651999998
 31
0.0
  0
LINE
  5
361E
  8
2-0
  6
CONTINUOUS
 62
     3
 10
24094.04653099996
 20
18522.036158999981
 30
0.0
 11
24094.04653099996
 21
18516.040196999991
 31
0.0
  0
LINE
  5
361F
  8
2-0
  6
CONTINUOUS
 62
     3
 10
24094.04653099996
 20
18516.040196999991
 30
0.0
 11
24124.04415499997
 21
18516.040196999991
 31
0.0
  0
LINE
  5
3620
  8
2-0
  6
CONTINUOUS
 62
     3
 10
24124.04415499997
 20
18516.040196999991
 30
0.0
 11
24124.04415499997
 21
18553.039379000002
 31
0.0
  0
LINE
  5
3621
  8
2-0
  6
CONTINUOUS
 62
     3
 10
24094.04653099996
 20
18553.039379000002
 30
0.0
 11
24124.04415499997
 21
18553.039379000002
 31
0.0
  0
LINE
  5
3622
  8
2-0
  6
CONTINUOUS
 62
     3
 10
24094.04653099996
 20
18547.043416999979
 30
0.0
 11
24094.04653099996
 21
18553.039379000002
 31
0.0
  0
LINE
  5
3623
  8
2-0
  6
CONTINUOUS
 62
     3
 10
24094.04653099996
 20
18563.134924000002
 30
0.0
 11
24124.04415499997
 21
18563.134924000002
 31
0.0
  0
LINE
  5
3624
  8
2-0
  6
CONTINUOUS
 62
     3
 10
24094.04653099996
 20
18545.133182000001
 30
0.0
 11
24094.04653099996
 21
18563.134924000002
 31
0.0
  0
LINE
  5
3625
  8
2-0
  6
CONTINUOUS
 62
     3
 10
24119.04389099999
 20
18545.133182000001
 30
0.0
 11
24094.04653099996
 21
18545.133182000001
 31
0.0
  0
LINE
  5
3626
  8
2-0
  6
CONTINUOUS
 62
     3
 10
24119.04389099999
 20
18550.139383999991
 30
0.0
 11
24119.04389099999
 21
18545.133182000001
 31
0.0
  0
LINE
  5
3627
  8
2-0
  6
CONTINUOUS
 62
     3
 10
24112.042333999991
 20
18550.139383999991
 30
0.0
 11
24119.04389099999
 21
18550.139383999991
 31
0.0
  0
LINE
  5
3628
  8
2-0
  6
CONTINUOUS
 62
     3
 10
24112.042333999991
 20
17849.133446
 30
0.0
 11
24119.04389099999
 21
17849.133446
 31
0.0
  0
LINE
  5
3629
  8
2-0
  6
CONTINUOUS
 62
     3
 10
24119.04389099999
 20
17849.133446
 30
0.0
 11
24119.04389099999
 21
17844.145058999991
 31
0.0
  0
LINE
  5
362A
  8
2-0
  6
CONTINUOUS
 62
     3
 10
24119.04389099999
 20
17844.145058999991
 30
0.0
 11
24094.04653099996
 21
17844.145058999991
 31
0.0
  0
LINE
  5
362B
  8
2-0
  6
CONTINUOUS
 62
     3
 10
24094.04653099996
 20
17844.145058999991
 30
0.0
 11
24094.04653099996
 21
17862.140862000011
 31
0.0
  0
LINE
  5
362C
  8
2-0
  6
CONTINUOUS
 62
     3
 10
24094.04653099996
 20
17862.140862000011
 30
0.0
 11
24124.04415499997
 21
17862.140862000011
 31
0.0
  0
LINE
  5
362D
  8
2-0
  6
CONTINUOUS
 62
     3
 10
24094.04653099996
 20
17846.043417000012
 30
0.0
 11
24094.04653099996
 21
17852.039379000002
 31
0.0
  0
LINE
  5
362E
  8
2-0
  6
CONTINUOUS
 62
     3
 10
24094.04653099996
 20
17852.039379000002
 30
0.0
 11
24124.04415499997
 21
17852.039379000002
 31
0.0
  0
LINE
  5
362F
  8
2-0
  6
CONTINUOUS
 62
     3
 10
24124.04415499997
 20
17852.039379000002
 30
0.0
 11
24124.04415499997
 21
17815.040196999991
 31
0.0
  0
LINE
  5
3630
  8
2-0
  6
CONTINUOUS
 62
     3
 10
24094.04653099996
 20
17815.040196999991
 30
0.0
 11
24124.04415499997
 21
17815.040196999991
 31
0.0
  0
LINE
  5
3631
  8
2-0
  6
CONTINUOUS
 62
     3
 10
24094.04653099996
 20
17821.042098000002
 30
0.0
 11
24094.04653099996
 21
17815.040196999991
 31
0.0
  0
LINE
  5
3632
  8
2-0
  6
CONTINUOUS
 62
     3
 10
24094.04653099996
 20
17804.950591000012
 30
0.0
 11
24124.04415499997
 21
17804.950591000012
 31
0.0
  0
LINE
  5
3633
  8
2-0
  6
CONTINUOUS
 62
     3
 10
24094.04653099996
 20
17822.946393999991
 30
0.0
 11
24094.04653099996
 21
17804.950591000012
 31
0.0
  0
LINE
  5
3634
  8
2-0
  6
CONTINUOUS
 62
     3
 10
24119.04389099999
 20
17822.946393999991
 30
0.0
 11
24094.04653099996
 21
17822.946393999991
 31
0.0
  0
LINE
  5
3635
  8
2-0
  6
CONTINUOUS
 62
     3
 10
24119.04389099999
 20
17817.946131000012
 30
0.0
 11
24119.04389099999
 21
17822.946393999991
 31
0.0
  0
LINE
  5
3636
  8
2-0
  6
CONTINUOUS
 62
     3
 10
24112.042333999991
 20
17817.946131000012
 30
0.0
 11
24119.04389099999
 21
17817.946131000012
 31
0.0
  0
LINE
  5
3637
  8
2-0
  6
CONTINUOUS
 62
     3
 10
24121.158016999969
 20
17098.037016999999
 30
0.0
 11
24121.158016999969
 21
17118.038071999988
 31
0.0
  0
LINE
  5
3638
  8
2-0
  6
CONTINUOUS
 62
     3
 10
24121.158016999969
 20
17118.038071999988
 30
0.0
 11
24036.161447999981
 21
17118.038071999988
 31
0.0
  0
LINE
  5
3639
  8
2-0
  6
CONTINUOUS
 62
     3
 10
24112.042333999991
 20
17144.64478200001
 30
0.0
 11
24119.04389099999
 21
17144.64478200001
 31
0.0
  0
LINE
  5
363A
  8
2-0
  6
CONTINUOUS
 62
     3
 10
24119.04389099999
 20
17144.64478200001
 30
0.0
 11
24119.04389099999
 21
17139.65045600001
 31
0.0
  0
LINE
  5
363B
  8
2-0
  6
CONTINUOUS
 62
     3
 10
24119.04389099999
 20
17139.65045600001
 30
0.0
 11
24094.04653099996
 21
17139.65045600001
 31
0.0
  0
LINE
  5
363C
  8
2-0
  6
CONTINUOUS
 62
     3
 10
24094.04653099996
 20
17139.65045600001
 30
0.0
 11
24094.04653099996
 21
17157.646260000001
 31
0.0
  0
LINE
  5
363D
  8
2-0
  6
CONTINUOUS
 62
     3
 10
24094.04653099996
 20
17157.646260000001
 30
0.0
 11
24124.04415499997
 21
17157.646260000001
 31
0.0
  0
LINE
  5
363E
  8
2-0
  6
CONTINUOUS
 62
     3
 10
24094.04653099996
 20
17148.037676
 30
0.0
 11
24094.04653099996
 21
17142.035776000001
 31
0.0
  0
LINE
  5
363F
  8
2-0
  6
CONTINUOUS
 62
     3
 10
24124.04415499997
 20
17148.037676
 30
0.0
 11
24094.04653099996
 21
17148.037676
 31
0.0
  0
LINE
  5
3640
  8
2-0
  6
CONTINUOUS
 62
     3
 10
24124.04415499997
 20
17157.646260000001
 30
0.0
 11
24124.04415499997
 21
17804.950591000012
 31
0.0
  0
LINE
  5
3641
  8
2-0
  6
CONTINUOUS
 62
     3
 10
24124.04415499997
 20
17862.140862000011
 30
0.0
 11
24124.04415499997
 21
18505.944651999998
 31
0.0
  0
LINE
  5
3642
  8
2-0
  6
CONTINUOUS
 62
     3
 10
24124.04415499997
 20
17003.035961000009
 30
0.0
 11
24094.04653099996
 21
17003.035961000009
 31
0.0
  0
LINE
  5
3643
  8
2-0
  6
CONTINUOUS
 62
     3
 10
24094.04653099996
 20
17003.035961000009
 30
0.0
 11
24094.04653099996
 21
17009.037861000012
 31
0.0
  0
LINE
  5
3644
  8
2-0
  6
CONTINUOUS
 62
     3
 10
24036.161447999981
 20
17033.041504000012
 30
0.0
 11
24121.158016999969
 21
17033.041504000012
 31
0.0
  0
LINE
  5
3645
  8
2-0
  6
CONTINUOUS
 62
     3
 10
24121.158016999969
 20
17033.041504000012
 30
0.0
 11
24121.158016999969
 21
17053.03662100001
 31
0.0
  0
LINE
  5
3646
  8
2-0
  6
CONTINUOUS
 62
     3
 10
24094.04653099996
 20
16993.427378000011
 30
0.0
 11
24124.04415499997
 21
16993.427378000011
 31
0.0
  0
LINE
  5
3647
  8
2-0
  6
CONTINUOUS
 62
     3
 10
24094.04653099996
 20
17011.423180999991
 30
0.0
 11
24094.04653099996
 21
16993.427378000011
 31
0.0
  0
LINE
  5
3648
  8
2-0
  6
CONTINUOUS
 62
     3
 10
24119.04389099999
 20
17011.423180999991
 30
0.0
 11
24094.04653099996
 21
17011.423180999991
 31
0.0
  0
LINE
  5
3649
  8
2-0
  6
CONTINUOUS
 62
     3
 10
24119.04389099999
 20
17006.422917000011
 30
0.0
 11
24119.04389099999
 21
17011.423180999991
 31
0.0
  0
LINE
  5
364A
  8
2-0
  6
CONTINUOUS
 62
     3
 10
24112.042333999991
 20
17006.422917000011
 30
0.0
 11
24119.04389099999
 21
17006.422917000011
 31
0.0
  0
LINE
  5
364B
  8
2-0
  6
CONTINUOUS
 62
     3
 10
24112.042333999991
 20
16301.94068649998
 30
0.0
 11
24119.04389099999
 21
16301.94068649998
 31
0.0
  0
LINE
  5
364C
  8
2-0
  6
CONTINUOUS
 62
     3
 10
24119.04389099999
 20
16301.94068649998
 30
0.0
 11
24119.04389099999
 21
16306.94095049998
 31
0.0
  0
LINE
  5
364D
  8
2-0
  6
CONTINUOUS
 62
     3
 10
24119.04389099999
 20
16306.94095049998
 30
0.0
 11
24094.04653099996
 21
16306.94095049998
 31
0.0
  0
LINE
  5
364E
  8
2-0
  6
CONTINUOUS
 62
     3
 10
24094.04653099996
 20
16306.94095049998
 30
0.0
 11
24094.04653099996
 21
16288.9392085
 31
0.0
  0
LINE
  5
364F
  8
2-0
  6
CONTINUOUS
 62
     3
 10
24094.04653099996
 20
16288.9392085
 30
0.0
 11
24124.04415499997
 21
16288.9392085
 31
0.0
  0
LINE
  5
3650
  8
2-0
  6
CONTINUOUS
 62
     3
 10
24094.04653099996
 20
16305.036653499999
 30
0.0
 11
24094.04653099996
 21
16299.0397025
 31
0.0
  0
LINE
  5
3651
  8
2-0
  6
CONTINUOUS
 62
     3
 10
24094.04653099996
 20
16299.0397025
 30
0.0
 11
24124.04415499997
 21
16299.0397025
 31
0.0
  0
LINE
  5
3652
  8
2-0
  6
CONTINUOUS
 62
     3
 10
24124.04415499997
 20
16299.0397025
 30
0.0
 11
24124.04415499997
 21
16336.0398735
 31
0.0
  0
LINE
  5
3653
  8
2-0
  6
CONTINUOUS
 62
     3
 10
24094.04653099996
 20
16336.0398735
 30
0.0
 11
24124.04415499997
 21
16336.0398735
 31
0.0
  0
LINE
  5
3654
  8
2-0
  6
CONTINUOUS
 62
     3
 10
24094.04653099996
 20
16330.0369835
 30
0.0
 11
24094.04653099996
 21
16336.0398735
 31
0.0
  0
LINE
  5
3655
  8
2-0
  6
CONTINUOUS
 62
     3
 10
24094.04653099996
 20
16346.135418499989
 30
0.0
 11
24124.04415499997
 21
16346.135418499989
 31
0.0
  0
LINE
  5
3656
  8
2-0
  6
CONTINUOUS
 62
     3
 10
24094.04653099996
 20
16328.127737500001
 30
0.0
 11
24094.04653099996
 21
16346.135418499989
 31
0.0
  0
LINE
  5
3657
  8
2-0
  6
CONTINUOUS
 62
     3
 10
24119.04389099999
 20
16328.127737500001
 30
0.0
 11
24094.04653099996
 21
16328.127737500001
 31
0.0
  0
LINE
  5
3658
  8
2-0
  6
CONTINUOUS
 62
     3
 10
24119.04389099999
 20
16333.133940499991
 30
0.0
 11
24119.04389099999
 21
16328.127737500001
 31
0.0
  0
LINE
  5
3659
  8
2-0
  6
CONTINUOUS
 62
     3
 10
24112.042333999991
 20
16333.133940499991
 30
0.0
 11
24119.04389099999
 21
16333.133940499991
 31
0.0
  0
LINE
  5
365A
  8
2-0
  6
CONTINUOUS
 62
     3
 10
24112.042333999991
 20
15632.373957
 30
0.0
 11
24119.04389099999
 21
15632.373957
 31
0.0
  0
LINE
  5
365B
  8
2-0
  6
CONTINUOUS
 62
     3
 10
24119.04389099999
 20
15632.373957
 30
0.0
 11
24119.04389099999
 21
15627.379632
 31
0.0
  0
LINE
  5
365C
  8
2-0
  6
CONTINUOUS
 62
     3
 10
24119.04389099999
 20
15627.379632
 30
0.0
 11
24094.04653099996
 21
15627.379632
 31
0.0
  0
LINE
  5
365D
  8
2-0
  6
CONTINUOUS
 62
     3
 10
24094.04653099996
 20
15627.379632
 30
0.0
 11
24094.04653099996
 21
15645.375435000011
 31
0.0
  0
LINE
  5
365E
  8
2-0
  6
CONTINUOUS
 62
     3
 10
24094.04653099996
 20
15645.375435000011
 30
0.0
 11
24124.04415499997
 21
15645.375435000011
 31
0.0
  0
LINE
  5
365F
  8
2-0
  6
CONTINUOUS
 62
     3
 10
24094.04653099996
 20
15629.277990000001
 30
0.0
 11
24094.04653099996
 21
15635.27989000002
 31
0.0
  0
LINE
  5
3660
  8
2-0
  6
CONTINUOUS
 62
     3
 10
24094.04653099996
 20
15635.27989000002
 30
0.0
 11
24124.04415499997
 21
15635.27989000002
 31
0.0
  0
LINE
  5
3661
  8
2-0
  6
CONTINUOUS
 62
     3
 10
24124.04415499997
 20
15598.280709000001
 30
0.0
 11
24124.04415499997
 21
15635.27989000002
 31
0.0
  0
LINE
  5
3662
  8
2-0
  6
CONTINUOUS
 62
     3
 10
24094.04653099996
 20
15598.280709000001
 30
0.0
 11
24124.04415499997
 21
15598.280709000001
 31
0.0
  0
LINE
  5
3663
  8
2-0
  6
CONTINUOUS
 62
     3
 10
24094.04653099996
 20
15604.27766
 30
0.0
 11
24094.04653099996
 21
15598.280709000001
 31
0.0
  0
LINE
  5
3664
  8
2-0
  6
CONTINUOUS
 62
     3
 10
24094.04653099996
 20
15588.179225
 30
0.0
 11
24124.04415499997
 21
15588.179225
 31
0.0
  0
LINE
  5
3665
  8
2-0
  6
CONTINUOUS
 62
     3
 10
24094.04653099996
 20
15606.186906000001
 30
0.0
 11
24094.04653099996
 21
15588.179225
 31
0.0
  0
LINE
  5
3666
  8
2-0
  6
CONTINUOUS
 62
     3
 10
24119.04389099999
 20
15606.186906000001
 30
0.0
 11
24094.04653099996
 21
15606.186906000001
 31
0.0
  0
LINE
  5
3667
  8
2-0
  6
CONTINUOUS
 62
     3
 10
24119.04389099999
 20
15601.186642000001
 30
0.0
 11
24119.04389099999
 21
15606.186906000001
 31
0.0
  0
LINE
  5
3668
  8
2-0
  6
CONTINUOUS
 62
     3
 10
24112.042333999991
 20
15601.186642000001
 30
0.0
 11
24119.04389099999
 21
15601.186642000001
 31
0.0
  0
LINE
  5
3669
  8
2-0
  6
CONTINUOUS
 62
     3
 10
24124.04415499997
 20
16993.427378000011
 30
0.0
 11
24124.04415499997
 21
16346.135418499989
 31
0.0
  0
LINE
  5
366A
  8
2-0
  6
CONTINUOUS
 62
     3
 10
24124.04415499997
 20
17148.037676
 30
0.0
 11
24124.04415499997
 21
17003.035961000009
 31
0.0
  0
LINE
  5
366B
  8
2-0
  6
CONTINUOUS
 62
     3
 10
24036.161447999981
 20
17118.038071999988
 30
0.0
 11
24036.161447999981
 21
17033.041504000012
 31
0.0
  0
LINE
  5
366C
  8
2-0
  6
CONTINUOUS
 62
     6
 10
22497.952780999971
 20
18886.485337499991
 30
0.0
 11
23522.985112999992
 21
18886.485337499991
 31
0.0
  0
LINE
  5
366D
  8
2-0
  6
CONTINUOUS
 62
     3
 10
24094.04653099996
 20
14574.541714999999
 30
0.0
 11
24094.04653099996
 21
14580.546584
 31
0.0
  0
LINE
  5
366E
  8
2-0
  6
CONTINUOUS
 62
     3
 10
24094.04653099996
 20
14580.546584
 30
0.0
 11
24124.04415499997
 21
14580.546584
 31
0.0
  0
LINE
  5
366F
  8
2-0
  6
CONTINUOUS
 62
     3
 10
24124.04415499997
 20
14580.546584
 30
0.0
 11
24124.04415499997
 21
14465.542493000001
 31
0.0
  0
LINE
  5
3670
  8
2-0
  6
CONTINUOUS
 62
     3
 10
24124.04415499997
 20
14465.542493000001
 30
0.0
 11
24039.04560699996
 21
14465.542493000001
 31
0.0
  0
LINE
  5
3671
  8
2-0
  6
CONTINUOUS
 62
     3
 10
24039.04560699996
 20
14465.542493000001
 30
0.0
 11
24039.04560699996
 21
14550.538071999999
 31
0.0
  0
LINE
  5
3672
  8
2-0
  6
CONTINUOUS
 62
     3
 10
24039.04560699996
 20
14550.538071999999
 30
0.0
 11
24071.044524999968
 21
14550.538071999999
 31
0.0
  0
LINE
  5
3673
  8
2-0
  6
CONTINUOUS
 62
     3
 10
24112.042333999991
 20
14577.576316999999
 30
0.0
 11
24119.04389099999
 21
14577.576316999999
 31
0.0
  0
LINE
  5
3674
  8
2-0
  6
CONTINUOUS
 62
     3
 10
24119.04389099999
 20
14577.576316999999
 30
0.0
 11
24119.04389099999
 21
14572.57902199998
 31
0.0
  0
LINE
  5
3675
  8
2-0
  6
CONTINUOUS
 62
     3
 10
24119.04389099999
 20
14572.57902199998
 30
0.0
 11
24094.04653099996
 21
14572.57902199998
 31
0.0
  0
LINE
  5
3676
  8
2-0
  6
CONTINUOUS
 62
     3
 10
24094.04653099996
 20
14572.57902199998
 30
0.0
 11
24094.04653099996
 21
14590.57779499999
 31
0.0
  0
LINE
  5
3677
  8
2-0
  6
CONTINUOUS
 62
     3
 10
24094.04653099996
 20
14590.57779499999
 30
0.0
 11
24124.04415499997
 21
14590.57779499999
 31
0.0
  0
LINE
  5
3678
  8
2-0
  6
CENTER2
 62
     6
 10
24081.54587099998
 20
14268.044934999991
 30
0.0
 11
24081.54587099998
 21
15073.41369300001
 31
0.0
  0
LINE
  5
3679
  8
2-0
  6
CONTINUOUS
 62
     3
 10
24124.04415499997
 20
18563.134924000002
 30
0.0
 11
24124.04415499997
 21
19206.945641499991
 31
0.0
  0
LINE
  5
367A
  8
2-0
  6
CONTINUOUS
 62
     6
 10
24816.549037999968
 20
20415.540976000011
 30
0.0
 11
26016.543099999959
 21
20415.540976000011
 31
0.0
  0
LINE
  5
367B
  8
2-0
  6
CONTINUOUS
 62
     3
 10
22287.547718999991
 20
19685.538073000022
 30
0.0
 11
22287.547718999991
 21
19655.534510000001
 31
0.0
  0
LINE
  5
367C
  8
2-0
  6
CONTINUOUS
 62
     3
 10
22287.547718999991
 20
19655.534510000001
 30
0.0
 11
22281.54977699996
 21
19655.534510000001
 31
0.0
  0
LINE
  5
367D
  8
2-0
  6
CONTINUOUS
 62
     3
 10
22297.164219999999
 20
19655.534510000001
 30
0.0
 11
22297.164219999999
 21
19685.538073000022
 31
0.0
  0
LINE
  5
367E
  8
2-0
  6
CONTINUOUS
 62
     3
 10
22279.16247799998
 20
19655.534510000001
 30
0.0
 11
22297.164219999999
 21
19655.534510000001
 31
0.0
  0
LINE
  5
367F
  8
2-0
  6
CONTINUOUS
 62
     3
 10
22279.16247799998
 20
19680.543747000011
 30
0.0
 11
22279.16247799998
 21
19655.534510000001
 31
0.0
  0
LINE
  5
3680
  8
2-0
  6
CONTINUOUS
 62
     3
 10
22284.162741999971
 20
19680.543747000011
 30
0.0
 11
22279.16247799998
 21
19680.543747000011
 31
0.0
  0
LINE
  5
3681
  8
2-0
  6
CONTINUOUS
 62
     3
 10
22284.162741999971
 20
19673.538230999999
 30
0.0
 11
22284.162741999971
 21
19680.543747000011
 31
0.0
  0
LINE
  5
3682
  8
2-0
  6
CONTINUOUS
 62
     3
 10
22257.54613499999
 20
19682.645996000021
 30
0.0
 11
22257.54613499999
 21
19597.647448000022
 31
0.0
  0
LINE
  5
3683
  8
2-0
  6
CONTINUOUS
 62
     3
 10
22237.549038000001
 20
19682.645996000021
 30
0.0
 11
22257.54613499999
 21
19682.645996000021
 31
0.0
  0
LINE
  5
3684
  8
2-0
  6
CONTINUOUS
 62
     3
 10
22145.934938999992
 20
19673.538230999999
 30
0.0
 11
22145.934938999992
 21
19680.543747000011
 31
0.0
  0
LINE
  5
3685
  8
2-0
  6
CONTINUOUS
 62
     3
 10
22145.934938999992
 20
19680.543747000011
 30
0.0
 11
22150.935202999961
 21
19680.543747000011
 31
0.0
  0
LINE
  5
3686
  8
2-0
  6
CONTINUOUS
 62
     3
 10
22150.935202999961
 20
19680.543747000011
 30
0.0
 11
22150.935202999961
 21
19655.534510000001
 31
0.0
  0
LINE
  5
3687
  8
2-0
  6
CONTINUOUS
 62
     3
 10
22150.935202999961
 20
19655.534510000001
 30
0.0
 11
22132.933460999961
 21
19655.534510000001
 31
0.0
  0
LINE
  5
3688
  8
2-0
  6
CONTINUOUS
 62
     3
 10
22132.933460999961
 20
19655.534510000001
 30
0.0
 11
22132.933460999961
 21
19685.538073000022
 31
0.0
  0
LINE
  5
3689
  8
2-0
  6
CONTINUOUS
 62
     3
 10
22172.553524999988
 20
19682.645996000021
 30
0.0
 11
22192.54864199998
 21
19682.645996000021
 31
0.0
  0
LINE
  5
368A
  8
2-0
  6
CONTINUOUS
 62
     3
 10
22172.553524999988
 20
19597.647448000022
 30
0.0
 11
22172.553524999988
 21
19682.645996000021
 31
0.0
  0
LINE
  5
368B
  8
2-0
  6
CONTINUOUS
 62
     3
 10
22142.555900999989
 20
19655.534510000001
 30
0.0
 11
22148.551861999971
 21
19655.534510000001
 31
0.0
  0
LINE
  5
368C
  8
2-0
  6
CONTINUOUS
 62
     3
 10
22142.555900999989
 20
19685.538073000022
 30
0.0
 11
22142.555900999989
 21
19655.534510000001
 31
0.0
  0
LINE
  5
368D
  8
2-0
  6
CONTINUOUS
 62
     3
 10
22257.54613499999
 20
19597.647448000022
 30
0.0
 11
22172.553524999988
 21
19597.647448000022
 31
0.0
  0
LINE
  5
368E
  8
2-0
  6
CONTINUOUS
 62
     3
 10
22287.547718999991
 20
19685.538073000022
 30
0.0
 11
22142.555900999989
 21
19685.538073000022
 31
0.0
  0
LINE
  5
368F
  8
2-0
  6
CONTINUOUS
 62
     6
 10
23954.51620499996
 20
19128.639845500002
 30
0.0
 11
23522.985112999992
 21
18886.485337499991
 31
0.0
  0
LINE
  5
3690
  8
2-0
  6
CONTINUOUS
 62
     6
 10
24276.085038999961
 20
19828.217813000021
 30
0.0
 11
24816.549037999968
 21
20415.540976000011
 31
0.0
  0
LINE
  5
3691
  8
2-0
  6
CONTINUOUS
 62
     3
 10
24124.04415499997
 20
16288.9392085
 30
0.0
 11
24124.04415499997
 21
15645.375435000011
 31
0.0
  0
LINE
  5
3692
  8
2-0
  6
CONTINUOUS
 62
     6
 10
23941.45929999998
 20
19151.8991895
 30
0.0
 11
24094.04653099996
 21
19206.945641499991
 31
0.0
  0
LINE
  5
3693
  8
2-0
  6
CONTINUOUS
 62
     6
 10
24094.04653099996
 20
19206.945641499991
 30
0.0
 11
23967.565190999969
 21
19105.386441499992
 31
0.0
  0
LINE
  5
3694
  8
2-0
  6
CONTINUOUS
 62
     6
 10
23941.45929999998
 20
19151.8991895
 30
0.0
 11
23967.565190999969
 21
19105.386441499992
 31
0.0
  0
LINE
  5
3695
  8
2-0
  6
CONTINUOUS
 62
     6
 10
23967.565190999969
 20
19105.386441499992
 30
0.0
 11
24094.04653099996
 21
19206.945641499991
 31
0.0
  0
LINE
  5
3696
  8
2-0
  6
CONTINUOUS
 62
     6
 10
24094.04653099996
 20
19206.945641499991
 30
0.0
 11
23941.45929999998
 21
19151.8991895
 31
0.0
  0
LINE
  5
3697
  8
2-0
  6
CONTINUOUS
 62
     6
 10
23941.45929999998
 20
19151.8991895
 30
0.0
 11
24094.04653099996
 21
19206.945641499991
 31
0.0
  0
LINE
  5
3698
  8
2-0
  6
CONTINUOUS
 62
     6
 10
23967.565190999969
 20
19105.386441499992
 30
0.0
 11
24094.04653099996
 21
19206.945641499991
 31
0.0
  0
LINE
  5
3699
  8
2-0
  6
CONTINUOUS
 62
     6
 10
23967.565190999969
 20
19105.386441499992
 30
0.0
 11
23941.45929999998
 21
19151.8991895
 31
0.0
  0
LINE
  5
369A
  8
2-0
  6
CONTINUOUS
 62
     6
 10
24295.70206799998
 20
19810.15668600002
 30
0.0
 11
24167.740047999981
 21
19710.47406800001
 31
0.0
  0
LINE
  5
369B
  8
2-0
  6
CONTINUOUS
 62
     6
 10
24167.740047999981
 20
19710.47406800001
 30
0.0
 11
24256.454152999981
 21
19846.271023000001
 31
0.0
  0
LINE
  5
369C
  8
2-0
  6
CONTINUOUS
 62
     6
 10
24295.70206799998
 20
19810.15668600002
 30
0.0
 11
24256.454152999981
 21
19846.271023000001
 31
0.0
  0
LINE
  5
369D
  8
2-0
  6
CONTINUOUS
 62
     6
 10
24256.454152999981
 20
19846.271023000001
 30
0.0
 11
24167.740047999981
 21
19710.47406800001
 31
0.0
  0
LINE
  5
369E
  8
2-0
  6
CONTINUOUS
 62
     6
 10
24167.740047999981
 20
19710.47406800001
 30
0.0
 11
24295.70206799998
 21
19810.15668600002
 31
0.0
  0
LINE
  5
369F
  8
2-0
  6
CONTINUOUS
 62
     6
 10
24295.70206799998
 20
19810.15668600002
 30
0.0
 11
24167.740047999981
 21
19710.47406800001
 31
0.0
  0
LINE
  5
36A0
  8
2-0
  6
CONTINUOUS
 62
     6
 10
24256.454152999981
 20
19846.271023000001
 30
0.0
 11
24167.740047999981
 21
19710.47406800001
 31
0.0
  0
LINE
  5
36A1
  8
2-0
  6
CONTINUOUS
 62
     6
 10
24256.454152999981
 20
19846.271023000001
 30
0.0
 11
24295.70206799998
 21
19810.15668600002
 31
0.0
  0
LINE
  5
36A2
  8
2-0
  6
CONTINUOUS
 62
     4
 10
22215.04587099998
 20
19765.540316000021
 30
0.0
 11
22215.04587099998
 21
20495.537281000012
 31
0.0
  0
LINE
  5
36A3
  8
2-0
  6
CONTINUOUS
 62
     6
 10
23847.406433999971
 20
14357.26975499999
 30
0.0
 11
23979.153292999988
 21
14451.896682000001
 31
0.0
  0
LINE
  5
36A4
  8
2-0
  6
CONTINUOUS
 62
     6
 10
23979.153292999988
 20
14451.896682000001
 30
0.0
 11
23885.223156999971
 21
14319.657911999981
 31
0.0
  0
LINE
  5
36A5
  8
2-0
  6
CONTINUOUS
 62
     6
 10
23847.406433999971
 20
14357.26975499999
 30
0.0
 11
23885.223156999971
 21
14319.657911999981
 31
0.0
  0
LINE
  5
36A6
  8
2-0
  6
CONTINUOUS
 62
     6
 10
23885.223156999971
 20
14319.657911999981
 30
0.0
 11
23979.153292999988
 21
14451.896682000001
 31
0.0
  0
LINE
  5
36A7
  8
2-0
  6
CONTINUOUS
 62
     6
 10
23979.153292999988
 20
14451.896682000001
 30
0.0
 11
23847.406433999971
 21
14357.26975499999
 31
0.0
  0
LINE
  5
36A8
  8
2-0
  6
CONTINUOUS
 62
     6
 10
23847.406433999971
 20
14357.26975499999
 30
0.0
 11
23979.153292999988
 21
14451.896682000001
 31
0.0
  0
LINE
  5
36A9
  8
2-0
  6
CONTINUOUS
 62
     6
 10
23885.223156999971
 20
14319.657911999981
 30
0.0
 11
23979.153292999988
 21
14451.896682000001
 31
0.0
  0
LINE
  5
36AA
  8
2-0
  6
CONTINUOUS
 62
     6
 10
23885.223156999971
 20
14319.657911999981
 30
0.0
 11
23847.406433999971
 21
14357.26975499999
 31
0.0
  0
LINE
  5
36AB
  8
2-0
  6
CONTINUOUS
 62
     6
 10
23910.442222999969
 20
14684.17438199999
 30
0.0
 11
24043.04225499996
 21
14590.746053999979
 31
0.0
  0
LINE
  5
36AC
  8
2-0
  6
CONTINUOUS
 62
     6
 10
24043.04225499996
 20
14590.746053999979
 30
0.0
 11
23887.309568999961
 21
14636.121568
 31
0.0
  0
LINE
  5
36AD
  8
2-0
  6
CONTINUOUS
 62
     6
 10
23910.442222999969
 20
14684.17438199999
 30
0.0
 11
23887.309568999961
 21
14636.121568
 31
0.0
  0
LINE
  5
36AE
  8
2-0
  6
CONTINUOUS
 62
     6
 10
23887.309568999961
 20
14636.121568
 30
0.0
 11
24043.04225499996
 21
14590.746053999979
 31
0.0
  0
LINE
  5
36AF
  8
2-0
  6
CONTINUOUS
 62
     6
 10
24043.04225499996
 20
14590.746053999979
 30
0.0
 11
23910.442222999969
 21
14684.17438199999
 31
0.0
  0
LINE
  5
36B0
  8
2-0
  6
CONTINUOUS
 62
     6
 10
23910.442222999969
 20
14684.17438199999
 30
0.0
 11
24043.04225499996
 21
14590.746053999979
 31
0.0
  0
LINE
  5
36B1
  8
2-0
  6
CONTINUOUS
 62
     6
 10
23887.309568999961
 20
14636.121568
 30
0.0
 11
24043.04225499996
 21
14590.746053999979
 31
0.0
  0
LINE
  5
36B2
  8
2-0
  6
CONTINUOUS
 62
     6
 10
23887.309568999961
 20
14636.121568
 30
0.0
 11
23910.442222999969
 21
14684.17438199999
 31
0.0
  0
LINE
  5
36B3
  8
2-0
  6
CONTINUOUS
 62
     6
 10
23970.205868999969
 20
16713.495315000011
 30
0.0
 11
24124.04415499997
 21
16764.92914600002
 31
0.0
  0
LINE
  5
36B4
  8
2-0
  6
CONTINUOUS
 62
     6
 10
24124.04415499997
 20
16764.92914600002
 30
0.0
 11
23995.209167999961
 21
16666.388711000011
 31
0.0
  0
LINE
  5
36B5
  8
2-0
  6
CONTINUOUS
 62
     6
 10
23970.205868999969
 20
16713.495315000011
 30
0.0
 11
23995.209167999961
 21
16666.388711000011
 31
0.0
  0
LINE
  5
36B6
  8
2-0
  6
CONTINUOUS
 62
     6
 10
23995.209167999961
 20
16666.388711000011
 30
0.0
 11
24124.04415499997
 21
16764.92914600002
 31
0.0
  0
LINE
  5
36B7
  8
2-0
  6
CONTINUOUS
 62
     6
 10
24124.04415499997
 20
16764.92914600002
 30
0.0
 11
23970.205868999969
 21
16713.495315000011
 31
0.0
  0
LINE
  5
36B8
  8
2-0
  6
CONTINUOUS
 62
     6
 10
23970.205868999969
 20
16713.495315000011
 30
0.0
 11
24124.04415499997
 21
16764.92914600002
 31
0.0
  0
LINE
  5
36B9
  8
2-0
  6
CONTINUOUS
 62
     6
 10
23995.209167999961
 20
16666.388711000011
 30
0.0
 11
24124.04415499997
 21
16764.92914600002
 31
0.0
  0
LINE
  5
36BA
  8
2-0
  6
CONTINUOUS
 62
     6
 10
23995.209167999961
 20
16666.388711000011
 30
0.0
 11
23970.205868999969
 21
16713.495315000011
 31
0.0
  0
LINE
  5
36BB
  8
2-0
  6
CONTINUOUS
 62
     6
 10
23836.269661999981
 20
17204.81380700002
 30
0.0
 11
23979.153292999988
 21
17128.038177999999
 31
0.0
  0
LINE
  5
36BC
  8
2-0
  6
CONTINUOUS
 62
     6
 10
23979.153292999988
 20
17128.038177999999
 30
0.0
 11
23819.091399999968
 21
17154.320247000011
 31
0.0
  0
LINE
  5
36BD
  8
2-0
  6
CONTINUOUS
 62
     6
 10
23836.269661999981
 20
17204.81380700002
 30
0.0
 11
23819.091399999968
 21
17154.320247000011
 31
0.0
  0
LINE
  5
36BE
  8
2-0
  6
CONTINUOUS
 62
     6
 10
23819.091399999968
 20
17154.320247000011
 30
0.0
 11
23979.153292999988
 21
17128.038177999999
 31
0.0
  0
LINE
  5
36BF
  8
2-0
  6
CONTINUOUS
 62
     6
 10
23979.153292999988
 20
17128.038177999999
 30
0.0
 11
23836.269661999981
 21
17204.81380700002
 31
0.0
  0
LINE
  5
36C0
  8
2-0
  6
CONTINUOUS
 62
     6
 10
23836.269661999981
 20
17204.81380700002
 30
0.0
 11
23979.153292999988
 21
17128.038177999999
 31
0.0
  0
LINE
  5
36C1
  8
2-0
  6
CONTINUOUS
 62
     6
 10
23819.091399999968
 20
17154.320247000011
 30
0.0
 11
23979.153292999988
 21
17128.038177999999
 31
0.0
  0
LINE
  5
36C2
  8
2-0
  6
CONTINUOUS
 62
     6
 10
23819.091399999968
 20
17154.320247000011
 30
0.0
 11
23836.269661999981
 21
17204.81380700002
 31
0.0
  0
LINE
  5
36C3
  8
2-0
  6
CONTINUOUS
 62
     3
 10
21475.546451999959
 20
19685.538073000022
 30
0.0
 11
21438.54528999998
 21
19685.538073000022
 31
0.0
  0
LINE
  5
36C4
  8
2-0
  6
CONTINUOUS
 62
     3
 10
21475.546451999959
 20
19655.534510000001
 30
0.0
 11
21475.546451999959
 21
19685.538073000022
 31
0.0
  0
LINE
  5
36C5
  8
2-0
  6
CONTINUOUS
 62
     3
 10
21469.546530999949
 20
19655.534510000001
 30
0.0
 11
21475.546451999959
 21
19655.534510000001
 31
0.0
  0
LINE
  5
36C6
  8
2-0
  6
CONTINUOUS
 62
     3
 10
21485.643975999981
 20
19655.534510000001
 30
0.0
 11
21485.643975999981
 21
19685.538073000022
 31
0.0
  0
LINE
  5
36C7
  8
2-0
  6
CONTINUOUS
 62
     3
 10
21467.640254999991
 20
19655.534510000001
 30
0.0
 11
21485.643975999981
 21
19655.534510000001
 31
0.0
  0
LINE
  5
36C8
  8
2-0
  6
CONTINUOUS
 62
     3
 10
21467.640254999991
 20
19680.543747000011
 30
0.0
 11
21467.640254999991
 21
19655.534510000001
 31
0.0
  0
LINE
  5
36C9
  8
2-0
  6
CONTINUOUS
 62
     3
 10
21472.640518999971
 20
19680.543747000011
 30
0.0
 11
21467.640254999991
 21
19680.543747000011
 31
0.0
  0
LINE
  5
36CA
  8
2-0
  6
CONTINUOUS
 62
     3
 10
21472.640518999971
 20
19673.538230999999
 30
0.0
 11
21472.640518999971
 21
19680.543747000011
 31
0.0
  0
LINE
  5
36CB
  8
2-0
  6
CONTINUOUS
 62
     3
 10
21441.45122399996
 20
19673.538230999999
 30
0.0
 11
21441.45122399996
 21
19680.543747000011
 31
0.0
  0
LINE
  5
36CC
  8
2-0
  6
CONTINUOUS
 62
     3
 10
21441.45122399996
 20
19680.543747000011
 30
0.0
 11
21446.451487999981
 21
19680.543747000011
 31
0.0
  0
LINE
  5
36CD
  8
2-0
  6
CONTINUOUS
 62
     3
 10
21446.451487999981
 20
19680.543747000011
 30
0.0
 11
21446.451487999981
 21
19655.534510000001
 31
0.0
  0
LINE
  5
36CE
  8
2-0
  6
CONTINUOUS
 62
     3
 10
21446.451487999981
 20
19655.534510000001
 30
0.0
 11
21428.451724999992
 21
19655.534510000001
 31
0.0
  0
LINE
  5
36CF
  8
2-0
  6
CONTINUOUS
 62
     3
 10
21428.451724999992
 20
19655.534510000001
 30
0.0
 11
21428.451724999992
 21
19685.538073000022
 31
0.0
  0
LINE
  5
36D0
  8
2-0
  6
CONTINUOUS
 62
     3
 10
21444.545210999971
 20
19655.534510000001
 30
0.0
 11
21438.54528999998
 21
19655.534510000001
 31
0.0
  0
LINE
  5
36D1
  8
2-0
  6
CONTINUOUS
 62
     3
 10
21438.54528999998
 20
19655.534510000001
 30
0.0
 11
21438.54528999998
 21
19685.538073000022
 31
0.0
  0
LINE
  5
36D2
  8
2-0
  6
CONTINUOUS
 62
     3
 10
19284.547190999969
 20
19576.537862000001
 30
0.0
 11
19284.547190999969
 21
19570.5419
 31
0.0
  0
LINE
  5
36D3
  8
2-0
  6
CONTINUOUS
 62
     3
 10
19284.547190999969
 20
19570.5419
 30
0.0
 11
19254.549565999969
 21
19570.5419
 31
0.0
  0
LINE
  5
36D4
  8
2-0
  6
CONTINUOUS
 62
     3
 10
19254.549565999969
 20
19570.5419
 30
0.0
 11
19254.549565999969
 21
19685.538073000022
 31
0.0
  0
LINE
  5
36D5
  8
2-0
  6
CONTINUOUS
 62
     3
 10
19254.549565999969
 20
19600.541504000001
 30
0.0
 11
19335.547506999981
 21
19600.541504000001
 31
0.0
  0
LINE
  5
36D6
  8
2-0
  6
CONTINUOUS
 62
     3
 10
19284.547190999969
 20
19560.244444
 30
0.0
 11
19254.549565999969
 21
19560.244444
 31
0.0
  0
LINE
  5
36D7
  8
2-0
  6
CONTINUOUS
 62
     3
 10
19284.547190999969
 20
19578.246186000011
 30
0.0
 11
19284.547190999969
 21
19560.244444
 31
0.0
  0
LINE
  5
36D8
  8
2-0
  6
CONTINUOUS
 62
     3
 10
19259.553788999969
 20
19578.246186000011
 30
0.0
 11
19284.547190999969
 21
19578.246186000011
 31
0.0
  0
LINE
  5
36D9
  8
2-0
  6
CONTINUOUS
 62
     3
 10
19259.553788999969
 20
19573.238004000021
 30
0.0
 11
19259.553788999969
 21
19578.246186000011
 31
0.0
  0
LINE
  5
36DA
  8
2-0
  6
CONTINUOUS
 62
     3
 10
19266.551386999949
 20
19573.238004000021
 30
0.0
 11
19259.553788999969
 21
19573.238004000021
 31
0.0
  0
LINE
  5
36DB
  8
2-0
  6
CONTINUOUS
 62
     3
 10
19366.84567599995
 20
19673.538230999999
 30
0.0
 11
19366.84567599995
 21
19680.543747000011
 31
0.0
  0
LINE
  5
36DC
  8
2-0
  6
CONTINUOUS
 62
     3
 10
19366.84567599995
 20
19680.543747000011
 30
0.0
 11
19361.843431999969
 21
19680.543747000011
 31
0.0
  0
LINE
  5
36DD
  8
2-0
  6
CONTINUOUS
 62
     3
 10
19361.843431999969
 20
19680.543747000011
 30
0.0
 11
19361.843431999969
 21
19655.534510000001
 31
0.0
  0
LINE
  5
36DE
  8
2-0
  6
CONTINUOUS
 62
     3
 10
19361.843431999969
 20
19655.534510000001
 30
0.0
 11
19379.851112999939
 21
19655.534510000001
 31
0.0
  0
LINE
  5
36DF
  8
2-0
  6
CONTINUOUS
 62
     3
 10
19379.851112999939
 20
19655.534510000001
 30
0.0
 11
19379.851112999939
 21
19685.538073000022
 31
0.0
  0
LINE
  5
36E0
  8
2-0
  6
CONTINUOUS
 62
     3
 10
19369.551676999981
 20
19685.538073000022
 30
0.0
 11
19254.549565999969
 21
19685.538073000022
 31
0.0
  0
LINE
  5
36E1
  8
2-0
  6
CONTINUOUS
 62
     3
 10
19369.551676999981
 20
19655.534510000001
 30
0.0
 11
19369.551676999981
 21
19685.538073000022
 31
0.0
  0
LINE
  5
36E2
  8
2-0
  6
CONTINUOUS
 62
     3
 10
19363.547797999981
 20
19655.534510000001
 30
0.0
 11
19369.551676999981
 21
19655.534510000001
 31
0.0
  0
LINE
  5
36E3
  8
2-0
  6
CONTINUOUS
 62
     3
 10
20070.63556949998
 20
19673.538230999999
 30
0.0
 11
20070.63556949998
 21
19680.543747000011
 31
0.0
  0
LINE
  5
36E4
  8
2-0
  6
CONTINUOUS
 62
     3
 10
20070.63556949998
 20
19680.543747000011
 30
0.0
 11
20065.635305499982
 21
19680.543747000011
 31
0.0
  0
LINE
  5
36E5
  8
2-0
  6
CONTINUOUS
 62
     3
 10
20065.635305499982
 20
19680.543747000011
 30
0.0
 11
20065.635305499982
 21
19655.534510000001
 31
0.0
  0
LINE
  5
36E6
  8
2-0
  6
CONTINUOUS
 62
     3
 10
20065.635305499982
 20
19655.534510000001
 30
0.0
 11
20083.641006499969
 21
19655.534510000001
 31
0.0
  0
LINE
  5
36E7
  8
2-0
  6
CONTINUOUS
 62
     3
 10
20083.641006499969
 20
19655.534510000001
 30
0.0
 11
20083.641006499969
 21
19685.538073000022
 31
0.0
  0
LINE
  5
36E8
  8
2-0
  6
CONTINUOUS
 62
     3
 10
20067.543561499959
 20
19655.534510000001
 30
0.0
 11
20073.545461499969
 21
19655.534510000001
 31
0.0
  0
LINE
  5
36E9
  8
2-0
  6
CONTINUOUS
 62
     3
 10
20073.545461499969
 20
19655.534510000001
 30
0.0
 11
20073.545461499969
 21
19685.538073000022
 31
0.0
  0
LINE
  5
36EA
  8
2-0
  6
CONTINUOUS
 62
     3
 10
20036.546280499959
 20
19685.538073000022
 30
0.0
 11
20073.545461499969
 21
19685.538073000022
 31
0.0
  0
LINE
  5
36EB
  8
2-0
  6
CONTINUOUS
 62
     3
 10
20036.546280499959
 20
19655.534510000001
 30
0.0
 11
20036.546280499959
 21
19685.538073000022
 31
0.0
  0
LINE
  5
36EC
  8
2-0
  6
CONTINUOUS
 62
     3
 10
20042.540262499981
 20
19655.534510000001
 30
0.0
 11
20036.546280499959
 21
19655.534510000001
 31
0.0
  0
LINE
  5
36ED
  8
2-0
  6
CONTINUOUS
 62
     3
 10
20026.450735499981
 20
19655.534510000001
 30
0.0
 11
20026.450735499981
 21
19685.538073000022
 31
0.0
  0
LINE
  5
36EE
  8
2-0
  6
CONTINUOUS
 62
     3
 10
20044.446538499971
 20
19655.534510000001
 30
0.0
 11
20026.450735499981
 21
19655.534510000001
 31
0.0
  0
LINE
  5
36EF
  8
2-0
  6
CONTINUOUS
 62
     3
 10
20044.446538499971
 20
19680.543747000011
 30
0.0
 11
20044.446538499971
 21
19655.534510000001
 31
0.0
  0
LINE
  5
36F0
  8
2-0
  6
CONTINUOUS
 62
     3
 10
20039.446274499969
 20
19680.543747000011
 30
0.0
 11
20044.446538499971
 21
19680.543747000011
 31
0.0
  0
LINE
  5
36F1
  8
2-0
  6
CONTINUOUS
 62
     3
 10
20039.446274499969
 20
19673.538230999999
 30
0.0
 11
20039.446274499969
 21
19680.543747000011
 31
0.0
  0
LINE
  5
36F2
  8
2-0
  6
CONTINUOUS
 62
     3
 10
20740.44528549998
 20
19673.538230999999
 30
0.0
 11
20740.44528549998
 21
19680.543747000011
 31
0.0
  0
LINE
  5
36F3
  8
2-0
  6
CONTINUOUS
 62
     3
 10
20740.44528549998
 20
19680.543747000011
 30
0.0
 11
20745.445548499982
 21
19680.543747000011
 31
0.0
  0
LINE
  5
36F4
  8
2-0
  6
CONTINUOUS
 62
     3
 10
20745.445548499982
 20
19680.543747000011
 30
0.0
 11
20745.445548499982
 21
19655.534510000001
 31
0.0
  0
LINE
  5
36F5
  8
2-0
  6
CONTINUOUS
 62
     3
 10
20745.445548499982
 20
19655.534510000001
 30
0.0
 11
20727.45172549997
 21
19655.534510000001
 31
0.0
  0
LINE
  5
36F6
  8
2-0
  6
CONTINUOUS
 62
     3
 10
20727.45172549997
 20
19655.534510000001
 30
0.0
 11
20727.45172549997
 21
19685.538073000022
 31
0.0
  0
LINE
  5
36F7
  8
2-0
  6
CONTINUOUS
 62
     3
 10
20743.543231499971
 20
19655.534510000001
 30
0.0
 11
20737.54529049998
 21
19655.534510000001
 31
0.0
  0
LINE
  5
36F8
  8
2-0
  6
CONTINUOUS
 62
     3
 10
20737.54529049998
 20
19655.534510000001
 30
0.0
 11
20737.54529049998
 21
19685.538073000022
 31
0.0
  0
LINE
  5
36F9
  8
2-0
  6
CONTINUOUS
 62
     3
 10
20774.54645149998
 20
19685.538073000022
 30
0.0
 11
20737.54529049998
 21
19685.538073000022
 31
0.0
  0
LINE
  5
36FA
  8
2-0
  6
CONTINUOUS
 62
     3
 10
20774.54645149998
 20
19655.534510000001
 30
0.0
 11
20774.54645149998
 21
19685.538073000022
 31
0.0
  0
LINE
  5
36FB
  8
2-0
  6
CONTINUOUS
 62
     3
 10
20768.54059249998
 20
19655.534510000001
 30
0.0
 11
20774.54645149998
 21
19655.534510000001
 31
0.0
  0
LINE
  5
36FC
  8
2-0
  6
CONTINUOUS
 62
     3
 10
20784.640016499969
 20
19655.534510000001
 30
0.0
 11
20784.640016499969
 21
19685.538073000022
 31
0.0
  0
LINE
  5
36FD
  8
2-0
  6
CONTINUOUS
 62
     3
 10
20766.644213499982
 20
19655.534510000001
 30
0.0
 11
20784.640016499969
 21
19655.534510000001
 31
0.0
  0
LINE
  5
36FE
  8
2-0
  6
CONTINUOUS
 62
     3
 10
20766.644213499982
 20
19680.543747000011
 30
0.0
 11
20766.644213499982
 21
19655.534510000001
 31
0.0
  0
LINE
  5
36FF
  8
2-0
  6
CONTINUOUS
 62
     3
 10
20771.63457949998
 20
19680.543747000011
 30
0.0
 11
20766.644213499982
 21
19680.543747000011
 31
0.0
  0
LINE
  5
3700
  8
2-0
  6
CONTINUOUS
 62
     3
 10
20771.63457949998
 20
19673.538230999999
 30
0.0
 11
20771.63457949998
 21
19680.543747000011
 31
0.0
  0
LINE
  5
3701
  8
2-0
  6
CONTINUOUS
 62
     3
 10
20083.641006499969
 20
19685.538073000022
 30
0.0
 11
20727.45172549997
 21
19685.538073000022
 31
0.0
  0
LINE
  5
3702
  8
2-0
  6
CONTINUOUS
 62
     3
 10
19379.851112999939
 20
19685.538073000022
 30
0.0
 11
20026.450735499981
 21
19685.538073000022
 31
0.0
  0
LINE
  5
3703
  8
2-0
  6
CONTINUOUS
 62
     3
 10
21428.451724999992
 20
19685.538073000022
 30
0.0
 11
20784.640016499969
 21
19685.538073000022
 31
0.0
  0
LINE
  5
3704
  8
2-0
  6
CONTINUOUS
 62
     3
 10
19284.547190999969
 20
19576.537862000001
 30
0.0
 11
19284.547190999969
 21
19570.5419
 31
0.0
  0
LINE
  5
3705
  8
2-0
  6
CONTINUOUS
 62
     3
 10
19284.547190999969
 20
19570.5419
 30
0.0
 11
19254.549565999969
 21
19570.5419
 31
0.0
  0
LINE
  5
3706
  8
2-0
  6
CONTINUOUS
 62
     3
 10
19254.549565999969
 20
19570.5419
 30
0.0
 11
19254.549565999969
 21
19685.538073000022
 31
0.0
  0
LINE
  5
3707
  8
2-0
  6
CONTINUOUS
 62
     3
 10
19254.549565999969
 20
19600.541504000001
 30
0.0
 11
19335.547506999981
 21
19600.541504000001
 31
0.0
  0
LINE
  5
3708
  8
2-0
  6
CONTINUOUS
 62
     3
 10
19284.547190999969
 20
19560.244444
 30
0.0
 11
19254.549565999969
 21
19560.244444
 31
0.0
  0
LINE
  5
3709
  8
2-0
  6
CONTINUOUS
 62
     3
 10
19284.547190999969
 20
19578.246186000011
 30
0.0
 11
19284.547190999969
 21
19560.244444
 31
0.0
  0
LINE
  5
370A
  8
2-0
  6
CONTINUOUS
 62
     3
 10
19259.553788999969
 20
19578.246186000011
 30
0.0
 11
19284.547190999969
 21
19578.246186000011
 31
0.0
  0
LINE
  5
370B
  8
2-0
  6
CONTINUOUS
 62
     3
 10
19259.553788999969
 20
19573.238004000021
 30
0.0
 11
19259.553788999969
 21
19578.246186000011
 31
0.0
  0
LINE
  5
370C
  8
2-0
  6
CONTINUOUS
 62
     3
 10
19266.551386999949
 20
19573.238004000021
 30
0.0
 11
19259.553788999969
 21
19573.238004000021
 31
0.0
  0
LINE
  5
370D
  8
2-0
  6
CONTINUOUS
 62
     3
 10
19266.551386999949
 20
19219.941181499991
 30
0.0
 11
19259.553788999969
 21
19219.941181499991
 31
0.0
  0
LINE
  5
370E
  8
2-0
  6
CONTINUOUS
 62
     3
 10
19259.553788999969
 20
19219.941181499991
 30
0.0
 11
19259.553788999969
 21
19224.941445500001
 31
0.0
  0
LINE
  5
370F
  8
2-0
  6
CONTINUOUS
 62
     3
 10
19259.553788999969
 20
19224.941445500001
 30
0.0
 11
19284.547190999969
 21
19224.941445500001
 31
0.0
  0
LINE
  5
3710
  8
2-0
  6
CONTINUOUS
 62
     3
 10
19284.547190999969
 20
19224.941445500001
 30
0.0
 11
19284.547190999969
 21
19206.945641499991
 31
0.0
  0
LINE
  5
3711
  8
2-0
  6
CONTINUOUS
 62
     3
 10
19284.547190999969
 20
19206.945641499991
 30
0.0
 11
19254.549565999969
 21
19206.945641499991
 31
0.0
  0
LINE
  5
3712
  8
2-0
  6
CONTINUOUS
 62
     3
 10
19284.547190999969
 20
19223.037148499981
 30
0.0
 11
19284.547190999969
 21
19217.039207500002
 31
0.0
  0
LINE
  5
3713
  8
2-0
  6
CONTINUOUS
 62
     3
 10
19284.547190999969
 20
19217.039207500002
 30
0.0
 11
19254.549565999969
 21
19217.039207500002
 31
0.0
  0
LINE
  5
3714
  8
2-0
  6
CONTINUOUS
 62
     3
 10
19254.549565999969
 20
19217.039207500002
 30
0.0
 11
19254.549565999969
 21
19254.040368499991
 31
0.0
  0
LINE
  5
3715
  8
2-0
  6
CONTINUOUS
 62
     3
 10
19284.547190999969
 20
19254.040368499991
 30
0.0
 11
19254.549565999969
 21
19254.040368499991
 31
0.0
  0
LINE
  5
3716
  8
2-0
  6
CONTINUOUS
 62
     3
 10
19284.547190999969
 20
19248.036488499991
 30
0.0
 11
19284.547190999969
 21
19254.040368499991
 31
0.0
  0
LINE
  5
3717
  8
2-0
  6
CONTINUOUS
 62
     3
 10
19284.547190999969
 20
19264.135913499991
 30
0.0
 11
19254.549565999969
 21
19264.135913499991
 31
0.0
  0
LINE
  5
3718
  8
2-0
  6
CONTINUOUS
 62
     3
 10
19284.547190999969
 20
19246.134171500002
 30
0.0
 11
19284.547190999969
 21
19264.135913499991
 31
0.0
  0
LINE
  5
3719
  8
2-0
  6
CONTINUOUS
 62
     3
 10
19259.553788999969
 20
19246.134171500002
 30
0.0
 11
19284.547190999969
 21
19246.134171500002
 31
0.0
  0
LINE
  5
371A
  8
2-0
  6
CONTINUOUS
 62
     3
 10
19259.553788999969
 20
19251.134435499978
 30
0.0
 11
19259.553788999969
 21
19246.134171500002
 31
0.0
  0
LINE
  5
371B
  8
2-0
  6
CONTINUOUS
 62
     3
 10
19266.551386999949
 20
19251.134435499978
 30
0.0
 11
19259.553788999969
 21
19251.134435499978
 31
0.0
  0
LINE
  5
371C
  8
2-0
  6
CONTINUOUS
 62
     3
 10
19266.551386999949
 20
18518.940191999998
 30
0.0
 11
19259.553788999969
 21
18518.940191999998
 31
0.0
  0
LINE
  5
371D
  8
2-0
  6
CONTINUOUS
 62
     3
 10
19259.553788999969
 20
18518.940191999998
 30
0.0
 11
19259.553788999969
 21
18523.946393999991
 31
0.0
  0
LINE
  5
371E
  8
2-0
  6
CONTINUOUS
 62
     3
 10
19259.553788999969
 20
18523.946393999991
 30
0.0
 11
19284.547190999969
 21
18523.946393999991
 31
0.0
  0
LINE
  5
371F
  8
2-0
  6
CONTINUOUS
 62
     3
 10
19284.547190999969
 20
18523.946393999991
 30
0.0
 11
19284.547190999969
 21
18505.944651999998
 31
0.0
  0
LINE
  5
3720
  8
2-0
  6
CONTINUOUS
 62
     3
 10
19284.547190999969
 20
18505.944651999998
 30
0.0
 11
19254.549565999969
 21
18505.944651999998
 31
0.0
  0
LINE
  5
3721
  8
2-0
  6
CONTINUOUS
 62
     3
 10
19284.547190999969
 20
18522.036158999981
 30
0.0
 11
19284.547190999969
 21
18516.040196999991
 31
0.0
  0
LINE
  5
3722
  8
2-0
  6
CONTINUOUS
 62
     3
 10
19284.547190999969
 20
18516.040196999991
 30
0.0
 11
19254.549565999969
 21
18516.040196999991
 31
0.0
  0
LINE
  5
3723
  8
2-0
  6
CONTINUOUS
 62
     3
 10
19254.549565999969
 20
18516.040196999991
 30
0.0
 11
19254.549565999969
 21
18553.039379000002
 31
0.0
  0
LINE
  5
3724
  8
2-0
  6
CONTINUOUS
 62
     3
 10
19284.547190999969
 20
18553.039379000002
 30
0.0
 11
19254.549565999969
 21
18553.039379000002
 31
0.0
  0
LINE
  5
3725
  8
2-0
  6
CONTINUOUS
 62
     3
 10
19284.547190999969
 20
18547.043416999979
 30
0.0
 11
19284.547190999969
 21
18553.039379000002
 31
0.0
  0
LINE
  5
3726
  8
2-0
  6
CONTINUOUS
 62
     3
 10
19284.547190999969
 20
18563.134924000002
 30
0.0
 11
19254.549565999969
 21
18563.134924000002
 31
0.0
  0
LINE
  5
3727
  8
2-0
  6
CONTINUOUS
 62
     3
 10
19284.547190999969
 20
18545.133182000001
 30
0.0
 11
19284.547190999969
 21
18563.134924000002
 31
0.0
  0
LINE
  5
3728
  8
2-0
  6
CONTINUOUS
 62
     3
 10
19259.553788999969
 20
18545.133182000001
 30
0.0
 11
19284.547190999969
 21
18545.133182000001
 31
0.0
  0
LINE
  5
3729
  8
2-0
  6
CONTINUOUS
 62
     3
 10
19259.553788999969
 20
18550.139383999991
 30
0.0
 11
19259.553788999969
 21
18545.133182000001
 31
0.0
  0
LINE
  5
372A
  8
2-0
  6
CONTINUOUS
 62
     3
 10
19266.551386999949
 20
18550.139383999991
 30
0.0
 11
19259.553788999969
 21
18550.139383999991
 31
0.0
  0
LINE
  5
372B
  8
2-0
  6
CONTINUOUS
 62
     3
 10
19266.551386999949
 20
17849.133446
 30
0.0
 11
19259.553788999969
 21
17849.133446
 31
0.0
  0
LINE
  5
372C
  8
2-0
  6
CONTINUOUS
 62
     3
 10
19259.553788999969
 20
17849.133446
 30
0.0
 11
19259.553788999969
 21
17844.145058999991
 31
0.0
  0
LINE
  5
372D
  8
2-0
  6
CONTINUOUS
 62
     3
 10
19259.553788999969
 20
17844.145058999991
 30
0.0
 11
19284.547190999969
 21
17844.145058999991
 31
0.0
  0
LINE
  5
372E
  8
2-0
  6
CONTINUOUS
 62
     3
 10
19284.547190999969
 20
17844.145058999991
 30
0.0
 11
19284.547190999969
 21
17862.140862
 31
0.0
  0
LINE
  5
372F
  8
2-0
  6
CONTINUOUS
 62
     3
 10
19284.547190999969
 20
17862.140862
 30
0.0
 11
19254.549565999969
 21
17862.140862
 31
0.0
  0
LINE
  5
3730
  8
2-0
  6
CONTINUOUS
 62
     3
 10
19284.547190999969
 20
17846.04341699999
 30
0.0
 11
19284.547190999969
 21
17852.039378999991
 31
0.0
  0
LINE
  5
3731
  8
2-0
  6
CONTINUOUS
 62
     3
 10
19284.547190999969
 20
17852.039378999991
 30
0.0
 11
19254.549565999969
 21
17852.039378999991
 31
0.0
  0
LINE
  5
3732
  8
2-0
  6
CONTINUOUS
 62
     3
 10
19254.549565999969
 20
17852.039378999991
 30
0.0
 11
19254.549565999969
 21
17815.040196999991
 31
0.0
  0
LINE
  5
3733
  8
2-0
  6
CONTINUOUS
 62
     3
 10
19284.547190999969
 20
17815.040196999991
 30
0.0
 11
19254.549565999969
 21
17815.040196999991
 31
0.0
  0
LINE
  5
3734
  8
2-0
  6
CONTINUOUS
 62
     3
 10
19284.547190999969
 20
17821.042097999991
 30
0.0
 11
19284.547190999969
 21
17815.040196999991
 31
0.0
  0
LINE
  5
3735
  8
2-0
  6
CONTINUOUS
 62
     3
 10
19284.547190999969
 20
17804.950591000001
 30
0.0
 11
19254.549565999969
 21
17804.950591000001
 31
0.0
  0
LINE
  5
3736
  8
2-0
  6
CONTINUOUS
 62
     3
 10
19284.547190999969
 20
17822.946393999991
 30
0.0
 11
19284.547190999969
 21
17804.950591000001
 31
0.0
  0
LINE
  5
3737
  8
2-0
  6
CONTINUOUS
 62
     3
 10
19259.553788999969
 20
17822.946393999991
 30
0.0
 11
19284.547190999969
 21
17822.946393999991
 31
0.0
  0
LINE
  5
3738
  8
2-0
  6
CONTINUOUS
 62
     3
 10
19259.553788999969
 20
17817.946131000001
 30
0.0
 11
19259.553788999969
 21
17822.946393999991
 31
0.0
  0
LINE
  5
3739
  8
2-0
  6
CONTINUOUS
 62
     3
 10
19266.551386999949
 20
17817.946131000001
 30
0.0
 11
19259.553788999969
 21
17817.946131000001
 31
0.0
  0
LINE
  5
373A
  8
2-0
  6
CONTINUOUS
 62
     3
 10
19257.435703999981
 20
17098.037016999999
 30
0.0
 11
19257.435703999981
 21
17118.038071999988
 31
0.0
  0
LINE
  5
373B
  8
2-0
  6
CONTINUOUS
 62
     3
 10
19257.435703999981
 20
17118.038071999988
 30
0.0
 11
19342.43623199996
 21
17118.038071999988
 31
0.0
  0
LINE
  5
373C
  8
2-0
  6
CONTINUOUS
 62
     3
 10
19266.551386999949
 20
17144.64478200001
 30
0.0
 11
19259.553788999969
 21
17144.64478200001
 31
0.0
  0
LINE
  5
373D
  8
2-0
  6
CONTINUOUS
 62
     3
 10
19259.553788999969
 20
17144.64478200001
 30
0.0
 11
19259.553788999969
 21
17139.65045600001
 31
0.0
  0
LINE
  5
373E
  8
2-0
  6
CONTINUOUS
 62
     3
 10
19259.553788999969
 20
17139.65045600001
 30
0.0
 11
19284.547190999969
 21
17139.65045600001
 31
0.0
  0
LINE
  5
373F
  8
2-0
  6
CONTINUOUS
 62
     3
 10
19284.547190999969
 20
17139.65045600001
 30
0.0
 11
19284.547190999969
 21
17157.646260000001
 31
0.0
  0
LINE
  5
3740
  8
2-0
  6
CONTINUOUS
 62
     3
 10
19284.547190999969
 20
17157.646260000001
 30
0.0
 11
19254.549565999969
 21
17157.646260000001
 31
0.0
  0
LINE
  5
3741
  8
2-0
  6
CONTINUOUS
 62
     3
 10
19284.547190999969
 20
17148.037676
 30
0.0
 11
19284.547190999969
 21
17142.035776000001
 31
0.0
  0
LINE
  5
3742
  8
2-0
  6
CONTINUOUS
 62
     3
 10
19254.549565999969
 20
17148.037676
 30
0.0
 11
19284.547190999969
 21
17148.037676
 31
0.0
  0
LINE
  5
3743
  8
2-0
  6
CONTINUOUS
 62
     3
 10
19254.549565999969
 20
17157.646260000001
 30
0.0
 11
19254.549565999969
 21
17804.950591000001
 31
0.0
  0
LINE
  5
3744
  8
2-0
  6
CONTINUOUS
 62
     3
 10
19254.549565999969
 20
17862.140862
 30
0.0
 11
19254.549565999969
 21
18505.944651999998
 31
0.0
  0
LINE
  5
3745
  8
2-0
  6
CONTINUOUS
 62
     3
 10
19254.549565999969
 20
17003.035961000009
 30
0.0
 11
19284.547190999969
 21
17003.035961000009
 31
0.0
  0
LINE
  5
3746
  8
2-0
  6
CONTINUOUS
 62
     3
 10
19284.547190999969
 20
17003.035961000009
 30
0.0
 11
19284.547190999969
 21
17009.037861000012
 31
0.0
  0
LINE
  5
3747
  8
2-0
  6
CONTINUOUS
 62
     3
 10
19342.43623199996
 20
17033.041504000012
 30
0.0
 11
19257.435703999981
 21
17033.041504000012
 31
0.0
  0
LINE
  5
3748
  8
2-0
  6
CONTINUOUS
 62
     3
 10
19257.435703999981
 20
17033.041504000012
 30
0.0
 11
19257.435703999981
 21
17053.03662100001
 31
0.0
  0
LINE
  5
3749
  8
2-0
  6
CONTINUOUS
 62
     3
 10
19284.547190999969
 20
16993.427378000011
 30
0.0
 11
19254.549565999969
 21
16993.427378000011
 31
0.0
  0
LINE
  5
374A
  8
2-0
  6
CONTINUOUS
 62
     3
 10
19284.547190999969
 20
17011.423180999991
 30
0.0
 11
19284.547190999969
 21
16993.427378000011
 31
0.0
  0
LINE
  5
374B
  8
2-0
  6
CONTINUOUS
 62
     3
 10
19259.553788999969
 20
17011.423180999991
 30
0.0
 11
19284.547190999969
 21
17011.423180999991
 31
0.0
  0
LINE
  5
374C
  8
2-0
  6
CONTINUOUS
 62
     3
 10
19259.553788999969
 20
17006.422917000011
 30
0.0
 11
19259.553788999969
 21
17011.423180999991
 31
0.0
  0
LINE
  5
374D
  8
2-0
  6
CONTINUOUS
 62
     3
 10
19266.551386999949
 20
17006.422917000011
 30
0.0
 11
19259.553788999969
 21
17006.422917000011
 31
0.0
  0
LINE
  5
374E
  8
2-0
  6
CONTINUOUS
 62
     3
 10
19266.551386999949
 20
16301.94068649998
 30
0.0
 11
19259.553788999969
 21
16301.94068649998
 31
0.0
  0
LINE
  5
374F
  8
2-0
  6
CONTINUOUS
 62
     3
 10
19259.553788999969
 20
16301.94068649998
 30
0.0
 11
19259.553788999969
 21
16306.94095049998
 31
0.0
  0
LINE
  5
3750
  8
2-0
  6
CONTINUOUS
 62
     3
 10
19259.553788999969
 20
16306.94095049998
 30
0.0
 11
19284.547190999969
 21
16306.94095049998
 31
0.0
  0
LINE
  5
3751
  8
2-0
  6
CONTINUOUS
 62
     3
 10
19284.547190999969
 20
16306.94095049998
 30
0.0
 11
19284.547190999969
 21
16288.9392085
 31
0.0
  0
LINE
  5
3752
  8
2-0
  6
CONTINUOUS
 62
     3
 10
19284.547190999969
 20
16288.9392085
 30
0.0
 11
19254.549565999969
 21
16288.9392085
 31
0.0
  0
LINE
  5
3753
  8
2-0
  6
CONTINUOUS
 62
     3
 10
19284.547190999969
 20
16305.036653499999
 30
0.0
 11
19284.547190999969
 21
16299.0397025
 31
0.0
  0
LINE
  5
3754
  8
2-0
  6
CONTINUOUS
 62
     3
 10
19284.547190999969
 20
16299.0397025
 30
0.0
 11
19254.549565999969
 21
16299.0397025
 31
0.0
  0
LINE
  5
3755
  8
2-0
  6
CONTINUOUS
 62
     3
 10
19254.549565999969
 20
16299.0397025
 30
0.0
 11
19254.549565999969
 21
16336.0398735
 31
0.0
  0
LINE
  5
3756
  8
2-0
  6
CONTINUOUS
 62
     3
 10
19284.547190999969
 20
16336.0398735
 30
0.0
 11
19254.549565999969
 21
16336.0398735
 31
0.0
  0
LINE
  5
3757
  8
2-0
  6
CONTINUOUS
 62
     3
 10
19284.547190999969
 20
16330.0369835
 30
0.0
 11
19284.547190999969
 21
16336.0398735
 31
0.0
  0
LINE
  5
3758
  8
2-0
  6
CONTINUOUS
 62
     3
 10
19284.547190999969
 20
16346.135418499989
 30
0.0
 11
19254.549565999969
 21
16346.135418499989
 31
0.0
  0
LINE
  5
3759
  8
2-0
  6
CONTINUOUS
 62
     3
 10
19284.547190999969
 20
16328.127737500001
 30
0.0
 11
19284.547190999969
 21
16346.135418499989
 31
0.0
  0
LINE
  5
375A
  8
2-0
  6
CONTINUOUS
 62
     3
 10
19259.553788999969
 20
16328.127737500001
 30
0.0
 11
19284.547190999969
 21
16328.127737500001
 31
0.0
  0
LINE
  5
375B
  8
2-0
  6
CONTINUOUS
 62
     3
 10
19259.553788999969
 20
16333.133940499991
 30
0.0
 11
19259.553788999969
 21
16328.127737500001
 31
0.0
  0
LINE
  5
375C
  8
2-0
  6
CONTINUOUS
 62
     3
 10
19266.551386999949
 20
16333.133940499991
 30
0.0
 11
19259.553788999969
 21
16333.133940499991
 31
0.0
  0
LINE
  5
375D
  8
2-0
  6
CONTINUOUS
 62
     3
 10
19266.551386999949
 20
15632.373957
 30
0.0
 11
19259.553788999969
 21
15632.373957
 31
0.0
  0
LINE
  5
375E
  8
2-0
  6
CONTINUOUS
 62
     3
 10
19259.553788999969
 20
15632.373957
 30
0.0
 11
19259.553788999969
 21
15627.379632
 31
0.0
  0
LINE
  5
375F
  8
2-0
  6
CONTINUOUS
 62
     3
 10
19259.553788999969
 20
15627.379632
 30
0.0
 11
19284.547190999969
 21
15627.379632
 31
0.0
  0
LINE
  5
3760
  8
2-0
  6
CONTINUOUS
 62
     3
 10
19284.547190999969
 20
15627.379632
 30
0.0
 11
19284.547190999969
 21
15645.375435000011
 31
0.0
  0
LINE
  5
3761
  8
2-0
  6
CONTINUOUS
 62
     3
 10
19284.547190999969
 20
15645.375435000011
 30
0.0
 11
19254.549565999969
 21
15645.375435000011
 31
0.0
  0
LINE
  5
3762
  8
2-0
  6
CONTINUOUS
 62
     3
 10
19284.547190999969
 20
15629.277990000001
 30
0.0
 11
19284.547190999969
 21
15635.27989000002
 31
0.0
  0
LINE
  5
3763
  8
2-0
  6
CONTINUOUS
 62
     3
 10
19284.547190999969
 20
15635.27989000002
 30
0.0
 11
19254.549565999969
 21
15635.27989000002
 31
0.0
  0
LINE
  5
3764
  8
2-0
  6
CONTINUOUS
 62
     3
 10
19254.549565999969
 20
15598.280709000001
 30
0.0
 11
19254.549565999969
 21
15635.27989000002
 31
0.0
  0
LINE
  5
3765
  8
2-0
  6
CONTINUOUS
 62
     3
 10
19284.547190999969
 20
15598.280709000001
 30
0.0
 11
19254.549565999969
 21
15598.280709000001
 31
0.0
  0
LINE
  5
3766
  8
2-0
  6
CONTINUOUS
 62
     3
 10
19284.547190999969
 20
15604.27766
 30
0.0
 11
19284.547190999969
 21
15598.280709000001
 31
0.0
  0
LINE
  5
3767
  8
2-0
  6
CONTINUOUS
 62
     3
 10
19284.547190999969
 20
15588.179225
 30
0.0
 11
19254.549565999969
 21
15588.179225
 31
0.0
  0
LINE
  5
3768
  8
2-0
  6
CONTINUOUS
 62
     3
 10
19284.547190999969
 20
15606.186906000001
 30
0.0
 11
19284.547190999969
 21
15588.179225
 31
0.0
  0
LINE
  5
3769
  8
2-0
  6
CONTINUOUS
 62
     3
 10
19259.553788999969
 20
15606.186906000001
 30
0.0
 11
19284.547190999969
 21
15606.186906000001
 31
0.0
  0
LINE
  5
376A
  8
2-0
  6
CONTINUOUS
 62
     3
 10
19259.553788999969
 20
15601.186642000001
 30
0.0
 11
19259.553788999969
 21
15606.186906000001
 31
0.0
  0
LINE
  5
376B
  8
2-0
  6
CONTINUOUS
 62
     3
 10
19266.551386999949
 20
15601.186642000001
 30
0.0
 11
19259.553788999969
 21
15601.186642000001
 31
0.0
  0
LINE
  5
376C
  8
2-0
  6
CONTINUOUS
 62
     3
 10
19254.549565999969
 20
16993.427378000011
 30
0.0
 11
19254.549565999969
 21
16346.135418499989
 31
0.0
  0
LINE
  5
376D
  8
2-0
  6
CONTINUOUS
 62
     3
 10
19254.549565999969
 20
17148.037676
 30
0.0
 11
19254.549565999969
 21
17003.035961000009
 31
0.0
  0
LINE
  5
376E
  8
2-0
  6
CONTINUOUS
 62
     3
 10
19342.43623199996
 20
17118.038071999988
 30
0.0
 11
19342.43623199996
 21
17033.041504000012
 31
0.0
  0
LINE
  5
376F
  8
2-0
  6
CONTINUOUS
 62
     3
 10
19284.547190999969
 20
14574.541714999999
 30
0.0
 11
19284.547190999969
 21
14580.546584
 31
0.0
  0
LINE
  5
3770
  8
2-0
  6
CONTINUOUS
 62
     3
 10
19284.547190999969
 20
14580.546584
 30
0.0
 11
19254.549565999969
 21
14580.546584
 31
0.0
  0
LINE
  5
3771
  8
2-0
  6
CONTINUOUS
 62
     3
 10
19254.549565999969
 20
14580.546584
 30
0.0
 11
19254.549565999969
 21
14465.542493000001
 31
0.0
  0
LINE
  5
3772
  8
2-0
  6
CONTINUOUS
 62
     3
 10
19254.549565999969
 20
14465.542493000001
 30
0.0
 11
19339.548113999961
 21
14465.542493000001
 31
0.0
  0
LINE
  5
3773
  8
2-0
  6
CONTINUOUS
 62
     3
 10
19339.548113999961
 20
14465.542493000001
 30
0.0
 11
19339.548113999961
 21
14550.538071999999
 31
0.0
  0
LINE
  5
3774
  8
2-0
  6
CONTINUOUS
 62
     3
 10
19339.548113999961
 20
14550.538071999999
 30
0.0
 11
19307.551175999939
 21
14550.538071999999
 31
0.0
  0
LINE
  5
3775
  8
2-0
  6
CONTINUOUS
 62
     3
 10
19266.551386999949
 20
14577.576316999999
 30
0.0
 11
19259.553788999969
 21
14577.576316999999
 31
0.0
  0
LINE
  5
3776
  8
2-0
  6
CONTINUOUS
 62
     3
 10
19259.553788999969
 20
14577.576316999999
 30
0.0
 11
19259.553788999969
 21
14572.57902199998
 31
0.0
  0
LINE
  5
3777
  8
2-0
  6
CONTINUOUS
 62
     3
 10
19259.553788999969
 20
14572.57902199998
 30
0.0
 11
19284.547190999969
 21
14572.57902199998
 31
0.0
  0
LINE
  5
3778
  8
2-0
  6
CONTINUOUS
 62
     3
 10
19284.547190999969
 20
14572.57902199998
 30
0.0
 11
19284.547190999969
 21
14590.57779499999
 31
0.0
  0
LINE
  5
3779
  8
2-0
  6
CONTINUOUS
 62
     3
 10
19284.547190999969
 20
14590.57779499999
 30
0.0
 11
19254.549565999969
 21
14590.57779499999
 31
0.0
  0
LINE
  5
377A
  8
2-0
  6
CONTINUOUS
 62
     3
 10
19254.549565999969
 20
14590.57779499999
 30
0.0
 11
19254.549565999969
 21
14887.179225
 31
0.0
  0
LINE
  5
377B
  8
2-0
  6
CONTINUOUS
 62
     3
 10
19254.549565999969
 20
18563.134924000002
 30
0.0
 11
19254.549565999969
 21
19206.945641499991
 31
0.0
  0
LINE
  5
377C
  8
2-0
  6
CONTINUOUS
 62
     3
 10
19254.549565999969
 20
16288.9392085
 30
0.0
 11
19254.549565999969
 21
15645.375435000011
 31
0.0
  0
LINE
  5
377D
  8
2-0
  6
CONTINUOUS
 62
     3
 10
24124.04415499997
 20
19570.5419
 30
0.0
 11
24124.04415499997
 21
19685.538073000022
 31
0.0
  0
LINE
  5
377E
  8
2-0
  6
CENTER2
 62
     6
 10
17967.59129399998
 20
19643.039787999991
 30
0.0
 11
24974.045474999992
 21
19643.039787999991
 31
0.0
  0
LINE
  5
377F
  8
2-0
  6
CENTER2
 62
     6
 10
17967.59129399998
 20
17075.53978799998
 30
0.0
 11
24974.045474999992
 21
17075.53978799998
 31
0.0
  0
LINE
  5
3780
  8
2-0
  6
CENTER2
 62
     6
 10
17967.59129399998
 20
14508.039787999989
 30
0.0
 11
24974.045474999992
 21
14508.039787999989
 31
0.0
  0
LINE
  5
3781
  8
2-0
  6
CONTINUOUS
 62
     3
 10
19254.549565999969
 20
19600.541504000001
 30
0.0
 11
24043.04225499996
 21
19600.541504000001
 31
0.0
  0
LINE
  5
3782
  8
2-0
  6
CENTER2
 62
     6
 10
19297.04587099998
 20
20885.538073000022
 30
0.0
 11
19297.04587099998
 21
13882.276354
 31
0.0
  0
LINE
  5
3783
  8
2-0
  6
CENTER2
 62
     6
 10
24081.54587099998
 20
20885.538073000022
 30
0.0
 11
24081.54587099998
 21
13882.276354
 31
0.0
  0
LINE
  5
3784
  8
2-0
  6
CONTINUOUS
 62
     3
 10
24124.04415499997
 20
19560.244444
 30
0.0
 11
24124.04415499997
 21
19264.135913499991
 31
0.0
  0
LINE
  5
3785
  8
2-0
  6
CONTINUOUS
 62
     3
 10
19254.549565999969
 20
19560.244444
 30
0.0
 11
19254.549565999969
 21
19264.135913499991
 31
0.0
  0
LINE
  5
3786
  8
2-0
  6
CENTER2
 62
     6
 10
22215.04587099998
 20
20885.538073000022
 30
0.0
 11
22215.04587099998
 21
14316.635186999991
 31
0.0
  0
LINE
  5
3787
  8
2-0
  6
CONTINUOUS
 62
     3
 10
19335.547506999981
 20
14550.538071999999
 30
0.0
 11
19335.547506999981
 21
19685.538073000022
 31
0.0
  0
LINE
  5
3788
  8
2-0
  6
CONTINUOUS
 62
     3
 10
24043.04225499996
 20
14550.538071999999
 30
0.0
 11
24043.04225499996
 21
19685.538073000022
 31
0.0
  0
CIRCLE
  5
3789
  8
2-0
  6
CONTINUOUS
 62
     4
 10
17767.59360399998
 20
19643.039787999991
 30
0.0
 40
200.00001
  0
CIRCLE
  5
378A
  8
2-0
  6
CONTINUOUS
 62
     4
 10
17767.59360399998
 20
17075.53978799998
 30
0.0
 40
200.00001
  0
CIRCLE
  5
378B
  8
2-0
  6
CONTINUOUS
 62
     4
 10
17767.59360399998
 20
14508.039787999989
 30
0.0
 40
200.00001
  0
CIRCLE
  5
378C
  8
2-0
  6
CONTINUOUS
 62
     4
 10
22215.04587099998
 20
21085.542692000021
 30
0.0
 40
200.00001
  0
CIRCLE
  5
378D
  8
2-0
  6
CONTINUOUS
 62
     4
 10
19297.04587099998
 20
21085.542692000021
 30
0.0
 40
200.00001
  0
TEXT
  5
378E
  8
2-0
  6
CONTINUOUS
 62
     7
 10
22478.391177999969
 20
13948.04091
 30
0.0
 40
160.0
  1
前柱（右）
 50
0.000213
 72
     4
 11
22894.39088059299
 21
14028.042456500791
 31
0.0
  0
TEXT
  5
378F
  8
2-0
  6
CONTINUOUS
 62
     7
 10
22682.986300999972
 20
16526.032926000022
 30
0.0
 40
160.0
  1
壁パネル
 50
359.99982299999999
 72
     4
 11
23045.653214803529
 21
16606.031805637889
 31
0.0
  0
TEXT
  5
3790
  8
2-0
  6
CONTINUOUS
 62
     7
 10
22402.983396999982
 20
17363.220822000021
 30
0.0
 40
160.0
  1
中柱（左右）
 50
0.000354
 72
     4
 11
22920.31623604619
 21
17443.224018324669
 31
0.0
  0
TEXT
  5
3791
  8
2-0
  6
CONTINUOUS
 62
     7
 10
23082.98564099997
 20
14921.082175999991
 30
0.0
 40
160.0
  1
下枠
 50
0.001063
 72
     4
 11
23253.650823409269
 21
15001.08534233928
 31
0.0
  0
TEXT
  5
3792
  8
2-0
  6
CONTINUOUS
 62
     7
 10
22577.951064999979
 20
18966.489560499991
 30
0.0
 40
160.0
  1
間柱（側）
 72
     4
 11
22999.284398333311
 21
19046.489560499991
 31
0.0
  0
TEXT
  5
3793
  8
2-0
  6
CONTINUOUS
 62
     7
 10
24896.541383999971
 20
20495.537281000012
 30
0.0
 40
160.0
  1
後柱（左右）
 50
0.000354
 72
     4
 11
25408.54088971296
 21
20575.540444372851
 31
0.0
  0
TEXT
  5
3794
  8
2-0
  6
CONTINUOUS
 62
     7
 10
17719.594236999968
 20
19548.55934600002
 30
0.0
 40
160.0
  1
C
 72
     4
 11
17772.927570333301
 21
19628.55934600002
 31
0.0
  0
TEXT
  5
3795
  8
2-0
  6
CONTINUOUS
 62
     7
 10
17719.814952999979
 20
17005.145706000021
 30
0.0
 40
160.0
  1
B
 72
     4
 11
17773.148286333311
 21
17085.145706000021
 31
0.0
  0
TEXT
  5
3796
  8
2-0
  6
CONTINUOUS
 62
     7
 10
17719.857512999981
 20
14419.432577
 30
0.0
 40
160.0
  1
A
 72
     4
 11
17773.190846333309
 21
14499.432577
 31
0.0
  0
TEXT
  5
3797
  8
2-0
  6
CONTINUOUS
 62
     7
 10
22163.41408799998
 20
20990.017063000021
 30
0.0
 40
160.0
  1
2
 72
     4
 11
22216.747421333312
 21
21070.017063000021
 31
0.0
  0
TEXT
  5
3798
  8
2-0
  6
CONTINUOUS
 62
     7
 10
19252.839261999969
 20
20996.775140000031
 30
0.0
 40
160.0
  1
1
 72
     4
 11
19279.50592866664
 21
21076.775140000031
 31
0.0
  0
LINE
  5
3799
  8
2-0
  6
CONTINUOUS
 62
     3
 10
23342.04645199998
 20
19685.538073000022
 30
0.0
 11
23305.045289999969
 21
19685.538073000022
 31
0.0
  0
LINE
  5
379A
  8
2-0
  6
CONTINUOUS
 62
     3
 10
23342.04645199998
 20
19655.534510000001
 30
0.0
 11
23342.04645199998
 21
19685.538073000022
 31
0.0
  0
LINE
  5
379B
  8
2-0
  6
CONTINUOUS
 62
     3
 10
23336.04653099996
 20
19655.534510000001
 30
0.0
 11
23342.04645199998
 21
19655.534510000001
 31
0.0
  0
LINE
  5
379C
  8
2-0
  6
CONTINUOUS
 62
     3
 10
23352.143975999981
 20
19655.534510000001
 30
0.0
 11
23352.143975999981
 21
19685.538073000022
 31
0.0
  0
LINE
  5
379D
  8
2-0
  6
CONTINUOUS
 62
     3
 10
23334.140254999969
 20
19655.534510000001
 30
0.0
 11
23352.143975999981
 21
19655.534510000001
 31
0.0
  0
LINE
  5
379E
  8
2-0
  6
CONTINUOUS
 62
     3
 10
23334.140254999969
 20
19680.543747000011
 30
0.0
 11
23334.140254999969
 21
19655.534510000001
 31
0.0
  0
LINE
  5
379F
  8
2-0
  6
CONTINUOUS
 62
     3
 10
23339.14051899996
 20
19680.543747000011
 30
0.0
 11
23334.140254999969
 21
19680.543747000011
 31
0.0
  0
LINE
  5
37A0
  8
2-0
  6
CONTINUOUS
 62
     3
 10
23339.14051899996
 20
19673.538230999999
 30
0.0
 11
23339.14051899996
 21
19680.543747000011
 31
0.0
  0
LINE
  5
37A1
  8
2-0
  6
CONTINUOUS
 62
     3
 10
23307.95122399996
 20
19673.538230999999
 30
0.0
 11
23307.95122399996
 21
19680.543747000011
 31
0.0
  0
LINE
  5
37A2
  8
2-0
  6
CONTINUOUS
 62
     3
 10
23307.95122399996
 20
19680.543747000011
 30
0.0
 11
23312.95148799997
 21
19680.543747000011
 31
0.0
  0
LINE
  5
37A3
  8
2-0
  6
CONTINUOUS
 62
     3
 10
23312.95148799997
 20
19680.543747000011
 30
0.0
 11
23312.95148799997
 21
19655.534510000001
 31
0.0
  0
LINE
  5
37A4
  8
2-0
  6
CONTINUOUS
 62
     3
 10
23312.95148799997
 20
19655.534510000001
 30
0.0
 11
23294.951724999981
 21
19655.534510000001
 31
0.0
  0
LINE
  5
37A5
  8
2-0
  6
CONTINUOUS
 62
     3
 10
23294.951724999981
 20
19655.534510000001
 30
0.0
 11
23294.951724999981
 21
19685.538073000022
 31
0.0
  0
LINE
  5
37A6
  8
2-0
  6
CONTINUOUS
 62
     3
 10
23311.045210999971
 20
19655.534510000001
 30
0.0
 11
23305.045289999969
 21
19655.534510000001
 31
0.0
  0
LINE
  5
37A7
  8
2-0
  6
CONTINUOUS
 62
     3
 10
23305.045289999969
 20
19655.534510000001
 30
0.0
 11
23305.045289999969
 21
19685.538073000022
 31
0.0
  0
LINE
  5
37A8
  8
2-0
  6
CONTINUOUS
 62
     3
 10
22606.945285499962
 20
19673.538230999999
 30
0.0
 11
22606.945285499962
 21
19680.543747000011
 31
0.0
  0
LINE
  5
37A9
  8
2-0
  6
CONTINUOUS
 62
     3
 10
22606.945285499962
 20
19680.543747000011
 30
0.0
 11
22611.945548499982
 21
19680.543747000011
 31
0.0
  0
LINE
  5
37AA
  8
2-0
  6
CONTINUOUS
 62
     3
 10
22611.945548499982
 20
19680.543747000011
 30
0.0
 11
22611.945548499982
 21
19655.534510000001
 31
0.0
  0
LINE
  5
37AB
  8
2-0
  6
CONTINUOUS
 62
     3
 10
22611.945548499982
 20
19655.534510000001
 30
0.0
 11
22593.951725499959
 21
19655.534510000001
 31
0.0
  0
LINE
  5
37AC
  8
2-0
  6
CONTINUOUS
 62
     3
 10
22593.951725499959
 20
19655.534510000001
 30
0.0
 11
22593.951725499959
 21
19685.538073000022
 31
0.0
  0
LINE
  5
37AD
  8
2-0
  6
CONTINUOUS
 62
     3
 10
22610.04323149996
 20
19655.534510000001
 30
0.0
 11
22604.04529049998
 21
19655.534510000001
 31
0.0
  0
LINE
  5
37AE
  8
2-0
  6
CONTINUOUS
 62
     3
 10
22604.04529049998
 20
19655.534510000001
 30
0.0
 11
22604.04529049998
 21
19685.538073000022
 31
0.0
  0
LINE
  5
37AF
  8
2-0
  6
CONTINUOUS
 62
     3
 10
22641.046451499969
 20
19685.538073000022
 30
0.0
 11
22604.04529049998
 21
19685.538073000022
 31
0.0
  0
LINE
  5
37B0
  8
2-0
  6
CONTINUOUS
 62
     3
 10
22641.046451499969
 20
19655.534510000001
 30
0.0
 11
22641.046451499969
 21
19685.538073000022
 31
0.0
  0
LINE
  5
37B1
  8
2-0
  6
CONTINUOUS
 62
     3
 10
22635.040592499969
 20
19655.534510000001
 30
0.0
 11
22641.046451499969
 21
19655.534510000001
 31
0.0
  0
LINE
  5
37B2
  8
2-0
  6
CONTINUOUS
 62
     3
 10
22651.140016499969
 20
19655.534510000001
 30
0.0
 11
22651.140016499969
 21
19685.538073000022
 31
0.0
  0
LINE
  5
37B3
  8
2-0
  6
CONTINUOUS
 62
     3
 10
22633.14421349996
 20
19655.534510000001
 30
0.0
 11
22651.140016499969
 21
19655.534510000001
 31
0.0
  0
LINE
  5
37B4
  8
2-0
  6
CONTINUOUS
 62
     3
 10
22633.14421349996
 20
19680.543747000011
 30
0.0
 11
22633.14421349996
 21
19655.534510000001
 31
0.0
  0
LINE
  5
37B5
  8
2-0
  6
CONTINUOUS
 62
     3
 10
22638.13457949998
 20
19680.543747000011
 30
0.0
 11
22633.14421349996
 21
19680.543747000011
 31
0.0
  0
LINE
  5
37B6
  8
2-0
  6
CONTINUOUS
 62
     3
 10
22638.13457949998
 20
19673.538230999999
 30
0.0
 11
22638.13457949998
 21
19680.543747000011
 31
0.0
  0
LINE
  5
37B7
  8
2-0
  6
CONTINUOUS
 62
     3
 10
22296.664219999999
 20
19685.538073000022
 30
0.0
 11
22593.951725499959
 21
19685.538073000022
 31
0.0
  0
LINE
  5
37B8
  8
2-0
  6
CONTINUOUS
 62
     3
 10
23999.429500999981
 20
19685.538073000022
 30
0.0
 11
23352.143975999981
 21
19685.538073000022
 31
0.0
  0
LINE
  5
37B9
  8
2-0
  6
CONTINUOUS
 62
     3
 10
23294.951724999981
 20
19685.538073000022
 30
0.0
 11
22651.140016499969
 21
19685.538073000022
 31
0.0
  0
LINE
  5
37BA
  8
2-0
  6
CONTINUOUS
 62
     3
 10
22133.618373999991
 20
19685.538073000022
 30
0.0
 11
21485.643975999981
 21
19685.538073000022
 31
0.0
  0
LINE
  5
37BB
  8
2-0
  6
CONTINUOUS
 62
     3
 10
24124.04415499997
 20
15588.179225
 30
0.0
 11
24124.04415499997
 21
14944.375435000011
 31
0.0
  0
CIRCLE
  5
37BC
  8
2-0
  6
CONTINUOUS
 62
     4
 10
24081.54587099998
 20
21085.542692000021
 30
0.0
 40
200.00001
  0
TEXT
  5
37BD
  8
2-0
  6
CONTINUOUS
 62
     7
 10
24029.91408799999
 20
20990.017063000021
 30
0.0
 40
160.0
  1
3
 72
     4
 11
24083.247421333319
 21
21070.017063000021
 31
0.0
  0
LINE
  5
37BE
  8
SUNPOU
  6
CONTINUOUS
 10
8771.7904090000011
 20
9515.0901529999974
 30
0.0
 11
8296.501296359771
 21
9515.0901529999974
 31
0.0
  0
LINE
  5
37BF
  8
0-6
  6
CONTINUOUS
 62
     6
 10
22147.333468999961
 20
19561.78253
 30
0.0
 11
21834.775402999981
 21
19035.388949
 31
0.0
  0
LINE
  5
37C0
  8
0-6
  6
CONTINUOUS
 62
     6
 10
20809.739111999959
 20
19035.388949
 30
0.0
 11
21834.775402999981
 21
19035.388949
 31
0.0
  0
LINE
  5
37C1
  8
0-6
  6
CONTINUOUS
 62
     6
 10
20812.761835999969
 20
18437.691129000032
 30
0.0
 11
21837.802086999989
 21
18437.691129000032
 31
0.0
  0
LINE
  5
37C2
  8
0-6
  6
CONTINUOUS
 62
     6
 10
20171.328532999982
 20
19517.965886000031
 30
0.0
 11
20812.761835999969
 21
18437.691129000032
 31
0.0
  0
LINE
  5
37C3
  8
0-6
  6
CONTINUOUS
 62
     6
 10
20194.259275999972
 20
19531.579036000021
 30
0.0
 11
20089.64171899997
 21
19655.540448000022
 31
0.0
  0
LINE
  5
37C4
  8
0-6
  6
CONTINUOUS
 62
     6
 10
20089.64171899997
 20
19655.540448000022
 30
0.0
 11
20148.399768999981
 21
19504.348778
 31
0.0
  0
LINE
  5
37C5
  8
0-6
  6
CONTINUOUS
 62
     6
 10
20089.64171899997
 20
19655.540448000022
 30
0.0
 11
20194.259275999972
 21
19531.579036000021
 31
0.0
  0
LINE
  5
37C6
  8
0-6
  6
CONTINUOUS
 62
     6
 10
20194.259275999972
 20
19531.579036000021
 30
0.0
 11
20148.399768999981
 21
19504.348778
 31
0.0
  0
LINE
  5
37C7
  8
0-6
  6
CONTINUOUS
 62
     6
 10
20148.399768999981
 20
19504.348778
 30
0.0
 11
20089.64171899997
 21
19655.540448000022
 31
0.0
  0
LINE
  5
37C8
  8
0-6
  6
CONTINUOUS
 62
     6
 10
20148.399768999981
 20
19504.348778
 30
0.0
 11
20194.259275999972
 21
19531.579036000021
 31
0.0
  0
LINE
  5
37C9
  8
0-6
  6
CONTINUOUS
 62
     6
 10
22042.715911999989
 20
19437.823097000011
 30
0.0
 11
22147.333468999961
 21
19561.78253
 31
0.0
  0
LINE
  5
37CA
  8
0-6
  6
CONTINUOUS
 62
     6
 10
22147.333468999961
 20
19561.78253
 30
0.0
 11
22088.57343899996
 21
19410.592839000019
 31
0.0
  0
LINE
  5
37CB
  8
0-6
  6
CONTINUOUS
 62
     6
 10
22147.333468999961
 20
19561.78253
 30
0.0
 11
22042.715911999989
 21
19437.823097000011
 31
0.0
  0
LINE
  5
37CC
  8
0-6
  6
CONTINUOUS
 62
     6
 10
22042.715911999989
 20
19437.823097000011
 30
0.0
 11
22088.57343899996
 21
19410.592839000019
 31
0.0
  0
LINE
  5
37CD
  8
0-6
  6
CONTINUOUS
 62
     6
 10
22088.57343899996
 20
19410.592839000019
 30
0.0
 11
22147.333468999961
 21
19561.78253
 31
0.0
  0
LINE
  5
37CE
  8
0-6
  6
CONTINUOUS
 62
     6
 10
22088.57343899996
 20
19410.592839000019
 30
0.0
 11
22042.715911999989
 21
19437.823097000011
 31
0.0
  0
TEXT
  5
37CF
  8
0-6
  6
CONTINUOUS
 62
     7
 10
20889.735415999989
 20
19115.391192000021
 30
0.0
 40
160.0
  1
後柱（中）
 72
     4
 11
21305.735415999989
 21
19195.391192000021
 31
0.0
  0
TEXT
  5
37D0
  8
0-6
  6
CONTINUOUS
 62
     7
 10
20892.760120999988
 20
18517.69139300003
 30
0.0
 40
160.0
  1
間柱（後）
 72
     4
 11
21314.093454333321
 21
18597.69139300003
 31
0.0
  0
LINE
  5
37D1
  8
0-6
  6
CONTINUOUS
 62
     6
 10
20886.80275999998
 20
14981.807604
 30
0.0
 11
21910.58007699997
 21
14981.807604
 31
0.0
  0
LINE
  5
37D2
  8
0-6
  6
CONTINUOUS
 62
     6
 10
22172.547586999961
 20
14550.539788
 30
0.0
 11
21910.58007699997
 21
14981.807604
 31
0.0
  0
LINE
  5
37D3
  8
0-6
  6
CONTINUOUS
 62
     6
 10
22112.273225999968
 20
14701.131664
 30
0.0
 11
22172.547586999961
 21
14550.539788
 31
0.0
  0
LINE
  5
37D4
  8
0-6
  6
CONTINUOUS
 62
     6
 10
22172.547586999961
 20
14550.539788
 30
0.0
 11
22066.68887199997
 21
14673.444138000001
 31
0.0
  0
LINE
  5
37D5
  8
0-6
  6
CONTINUOUS
 62
     6
 10
22172.547586999961
 20
14550.539788
 30
0.0
 11
22112.273225999968
 21
14701.131664
 31
0.0
  0
LINE
  5
37D6
  8
0-6
  6
CONTINUOUS
 62
     6
 10
22112.273225999968
 20
14701.131664
 30
0.0
 11
22066.68887199997
 21
14673.444138000001
 31
0.0
  0
LINE
  5
37D7
  8
0-6
  6
CONTINUOUS
 62
     6
 10
22066.68887199997
 20
14673.444138000001
 30
0.0
 11
22172.547586999961
 21
14550.539788
 31
0.0
  0
LINE
  5
37D8
  8
0-6
  6
CONTINUOUS
 62
     6
 10
22066.68887199997
 20
14673.444138000001
 30
0.0
 11
22112.273225999968
 21
14701.131664
 31
0.0
  0
TEXT
  5
37D9
  8
0-6
  6
CONTINUOUS
 62
     7
 10
20966.805002999961
 20
15061.808858
 30
0.0
 40
160.0
  1
前柱（中）
 72
     4
 11
21382.805002999961
 21
15141.808858
 31
0.0
  0
LINE
  5
37DA
  8
0-2
  6
CONTINUOUS
 62
     4
 10
23511.985891
 20
7014.3143469999986
 30
0.0
 11
23411.986550999991
 21
7014.3143469999986
 31
0.0
  0
LINE
  5
37DB
  8
0-2
  6
CONTINUOUS
 62
     4
 10
22784.601890000002
 20
7014.3143469999986
 30
0.0
 11
22884.599251
 21
7014.3143469999986
 31
0.0
  0
CIRCLE
  5
37DC
  8
0-4
  6
CONTINUOUS
 62
     4
 10
23148.294880499991
 20
6753.144583999996
 30
0.0
 40
18.487504999999981
  0
LINE
  5
37DD
  8
SUNPOU
  6
CONTINUOUS
 10
7722.0884419999793
 20
19865.531738000001
 30
0.0
 11
7722.0884419999793
 21
20662.49900577846
 31
0.0
  0
LINE
  5
37DE
  8
SUNPOU
  6
CONTINUOUS
 10
7722.0884419999793
 20
14277.547350000001
 30
0.0
 11
7722.0884419999793
 21
13602.12123418961
 31
0.0
  0
LINE
  5
37E1
  8
WAKUSEN-01
 10
868.00000000000193
 20
22484.000000000011
 30
0.0
 11
32764.000000000011
 21
22484.000000000011
 31
0.0
  0
LINE
  5
37E4
  8
WAKUSEN-01
 10
20560.0
 20
2484.0
 30
0.0
 11
32764.0
 21
2484.0
 31
0.0
  0
LINE
  5
37E5
  8
WAKUSEN-02
 10
20560.0
 20
1655.999999999998
 30
0.0
 11
26868.0
 21
1655.999999999998
 31
0.0
  0
TEXT
  5
37E6
  8
WAKUMOJI-01
 10
20670.260259962761
 20
2125.9030093393221
 30
0.0
 40
240.0
  1
名　称
  7
WAKUMOJI
  0
TEXT
  5
37E7
  8
WAKUMOJI-01
 10
20656.505485091919
 20
1319.12897497982
 30
0.0
 40
240.0
  1
機種名
  7
WAKUMOJI
  0
LINE
  5
37EA
  8
YODOROGO
 10
29977.604341291921
 20
1995.7494964292871
 30
0.0
 11
29829.604341291921
 21
1995.7494964292871
 31
0.0
1001
AUTOCAD_POSTSCRIPT_FIGURE
1002
{
1000
PSFILL
1000
Grayscale
1000
Grayscale
1070
    25
1002
}
  0
LINE
  5
37EB
  8
YODOROGO
 10
29829.604341291921
 20
1947.749496429288
 30
0.0
 11
29977.604341291921
 21
1947.749496429288
 31
0.0
1001
AUTOCAD_POSTSCRIPT_FIGURE
1002
{
1000
PSFILL
1000
Grayscale
1000
Grayscale
1070
    25
1002
}
  0
LINE
  5
37EC
  8
YODOROGO
 10
29977.604341291921
 20
1907.7494964292871
 30
0.0
 11
29829.604341291921
 21
1907.7494964292871
 31
0.0
1001
AUTOCAD_POSTSCRIPT_FIGURE
1002
{
1000
PSFILL
1000
Grayscale
1000
Grayscale
1070
    25
1002
}
  0
LINE
  5
37ED
  8
YODOROGO
 10
29829.604341291921
 20
1859.7494964292871
 30
0.0
 11
29977.604341291921
 21
1859.7494964292871
 31
0.0
1001
AUTOCAD_POSTSCRIPT_FIGURE
1002
{
1000
PSFILL
1000
Grayscale
1000
Grayscale
1070
    25
1002
}
  0
LINE
  5
37EE
  8
YODOROGO
 10
29977.604341291921
 20
1819.7494964292871
 30
0.0
 11
29829.604341291921
 21
1819.7494964292871
 31
0.0
1001
AUTOCAD_POSTSCRIPT_FIGURE
1002
{
1000
PSFILL
1000
Grayscale
1000
Grayscale
1070
    25
1002
}
  0
LINE
  5
37EF
  8
YODOROGO
 10
29921.60434129191
 20
1707.749496429288
 30
0.0
 11
29977.604341291921
 21
1707.749496429288
 31
0.0
1001
AUTOCAD_POSTSCRIPT_FIGURE
1002
{
1000
PSFILL
1000
Grayscale
1000
Grayscale
1070
    25
1002
}
  0
LINE
  5
37F0
  8
YODOROGO
 10
29737.604341291921
 20
1427.749496429288
 30
0.0
 11
29937.604341291932
 21
1481.3393349155101
 31
0.0
  0
LINE
  5
37F1
  8
YODOROGO
 10
29949.60434129191
 20
1707.749496429288
 30
0.0
 11
29885.604341291921
 21
1707.749496429288
 31
0.0
  0
ARC
  5
37F2
  8
YODOROGO
 10
30254.34774982791
 20
1807.864609233261
 30
0.0
 40
381.88686420564721
 50
213.96111677667841
 51
264.47872074317792
  0
ARC
  5
37F3
  8
YODOROGO
 10
30254.347749827921
 20
1807.864609233302
 30
0.0
 40
381.8868642056816
 50
208.14114420486601
 51
212.9210361185994
  0
LINE
  5
37F4
  8
YODOROGO
 10
29771.409872985321
 20
1556.807661346234
 30
0.0
 11
29933.78413250855
 21
1600.315713057086
 31
0.0
  0
LINE
  5
37F5
  8
YODOROGO
 10
29737.604341291921
 20
1427.749496429288
 30
0.0
 11
29937.604341291932
 21
1481.3393349155101
 31
0.0
  0
LINE
  5
37F6
  8
YODOROGO
 10
29949.60434129191
 20
1707.749496429288
 30
0.0
 11
29885.604341291921
 21
1707.749496429288
 31
0.0
  0
ARC
  5
37F7
  8
YODOROGO
 10
30254.34774982791
 20
1807.864609233261
 30
0.0
 40
381.88686420564721
 50
213.96111677667841
 51
264.47872074317792
  0
LINE
  5
37F8
  8
YODOROGO
 10
28793.60434129191
 20
1819.7494964292871
 30
0.0
 11
28433.60434129191
 21
1819.7494964292871
 31
0.0
  0
LINE
  5
37F9
  8
YODOROGO
 10
28513.60434129191
 20
1427.749496429288
 30
0.0
 11
28793.60434129191
 21
1427.749496429288
 31
0.0
  0
LINE
  5
37FA
  8
YODOROGO
 10
28729.604341291921
 20
1923.7494964292871
 30
0.0
 11
28497.60434129191
 21
1923.7494964292871
 31
0.0
  0
LINE
  5
37FB
  8
YODOROGO
 10
28585.604341291921
 20
2027.749496429288
 30
0.0
 11
28657.604341291921
 21
2027.749496429288
 31
0.0
  0
LINE
  5
37FC
  8
YODOROGO
 10
28433.60434129191
 20
1707.749496429288
 30
0.0
 11
28433.60434129191
 21
1507.749496429288
 31
0.0
  0
LINE
  5
37FD
  8
YODOROGO
 10
28497.60434129191
 20
1563.7494964292871
 30
0.0
 11
28497.60434129191
 21
1707.749496429288
 31
0.0
  0
LINE
  5
37FE
  8
YODOROGO
 10
28585.604341291921
 20
1747.74949642929
 30
0.0
 11
28585.604341291921
 21
1547.749496429288
 31
0.0
  0
LINE
  5
37FF
  8
YODOROGO
 10
27857.604341291921
 20
1683.749496429288
 30
0.0
 11
27777.604341291921
 21
1619.9724140445701
 31
0.0
  0
LINE
  5
3800
  8
YODOROGO
 10
27937.604341291921
 20
1619.9724140445701
 30
0.0
 11
27857.604341291921
 21
1683.749496429288
 31
0.0
  0
LINE
  5
3801
  8
YODOROGO
 10
27857.604341291921
 20
1707.749496429288
 30
0.0
 11
27937.604341291921
 21
1643.9724140445701
 31
0.0
  0
LINE
  5
3802
  8
YODOROGO
 10
27777.604341291921
 20
1643.9724140445701
 30
0.0
 11
27857.604341291921
 21
1707.749496429288
 31
0.0
  0
LINE
  5
3803
  8
YODOROGO
 10
28040.913204016892
 20
1659.749496429288
 30
0.0
 11
28040.913204016892
 21
1683.7494964292871
 31
0.0
  0
LINE
  5
3804
  8
YODOROGO
 10
27977.604341291921
 20
1683.7494964292871
 30
0.0
 11
27977.604341291921
 21
1667.749496429285
 31
0.0
  0
LINE
  5
3805
  8
YODOROGO
 10
28098.135520230931
 20
1707.749496429288
 30
0.0
 11
28098.135520230931
 21
1655.5036372746561
 31
0.0
1001
AUTOCAD_POSTSCRIPT_FIGURE
1002
{
1000
PSFILL
1000
Grayscale
1000
Grayscale
1070
   100
1002
}
  0
LINE
  5
3806
  8
YODOROGO
 10
28082.135520230921
 20
1655.5036372746561
 30
0.0
 11
28082.135520230921
 21
1707.749496429288
 31
0.0
1001
AUTOCAD_POSTSCRIPT_FIGURE
1002
{
1000
PSFILL
1000
Grayscale
1000
Grayscale
1070
   100
1002
}
  0
LINE
  5
3807
  8
YODOROGO
 10
27809.604341291921
 20
1608.771904043258
 30
0.0
 11
27809.604341291921
 21
1632.771904043258
 31
0.0
  0
LINE
  5
3808
  8
YODOROGO
 10
27905.604341291921
 20
1608.771904043258
 30
0.0
 11
27809.604341291921
 21
1608.771904043258
 31
0.0
  0
LINE
  5
3809
  8
YODOROGO
 10
27905.604341291921
 20
1632.771904043258
 30
0.0
 11
27905.604341291921
 21
1608.771904043258
 31
0.0
  0
LINE
  5
380A
  8
YODOROGO
 10
27809.604341291921
 20
1632.771904043258
 30
0.0
 11
27905.604341291921
 21
1632.771904043258
 31
0.0
  0
LINE
  5
380B
  8
YODOROGO
 10
27824.509588915738
 20
1568.5028573704751
 30
0.0
 11
27785.604341291921
 21
1475.7494964292871
 31
0.0
1001
AUTOCAD_POSTSCRIPT_FIGURE
1002
{
1000
PSFILL
1000
Grayscale
1000
Grayscale
1070
   100
1002
}
  0
LINE
  5
380C
  8
YODOROGO
 10
27777.604341291921
 20
1568.5028573704751
 30
0.0
 11
27824.509588915738
 21
1568.5028573704751
 31
0.0
1001
AUTOCAD_POSTSCRIPT_FIGURE
1002
{
1000
PSFILL
1000
Grayscale
1000
Grayscale
1070
   100
1002
}
  0
LINE
  5
380D
  8
YODOROGO
 10
27777.604341291921
 20
1588.5028573704751
 30
0.0
 11
27777.604341291921
 21
1568.5028573704751
 31
0.0
1001
AUTOCAD_POSTSCRIPT_FIGURE
1002
{
1000
PSFILL
1000
Grayscale
1000
Grayscale
1070
   100
1002
}
  0
LINE
  5
380E
  8
YODOROGO
 10
27937.604341291921
 20
1588.5028573704751
 30
0.0
 11
27777.604341291921
 21
1588.5028573704751
 31
0.0
1001
AUTOCAD_POSTSCRIPT_FIGURE
1002
{
1000
PSFILL
1000
Grayscale
1000
Grayscale
1070
   100
1002
}
  0
LINE
  5
380F
  8
YODOROGO
 10
27937.604341291921
 20
1568.5028573704751
 30
0.0
 11
27937.604341291921
 21
1588.5028573704751
 31
0.0
1001
AUTOCAD_POSTSCRIPT_FIGURE
1002
{
1000
PSFILL
1000
Grayscale
1000
Grayscale
1070
   100
1002
}
  0
LINE
  5
3810
  8
YODOROGO
 10
27844.509588915738
 20
1568.5028573704751
 30
0.0
 11
27937.604341291921
 21
1568.5028573704751
 31
0.0
1001
AUTOCAD_POSTSCRIPT_FIGURE
1002
{
1000
PSFILL
1000
Grayscale
1000
Grayscale
1070
   100
1002
}
  0
LINE
  5
3811
  8
YODOROGO
 10
27815.546718284771
 20
1495.7494964292871
 30
0.0
 11
27844.509588915738
 21
1568.5028573704751
 31
0.0
1001
AUTOCAD_POSTSCRIPT_FIGURE
1002
{
1000
PSFILL
1000
Grayscale
1000
Grayscale
1070
   100
1002
}
  0
LINE
  5
3812
  8
YODOROGO
 10
27902.054790808648
 20
1495.7494964292871
 30
0.0
 11
27815.546718284771
 21
1495.7494964292871
 31
0.0
1001
AUTOCAD_POSTSCRIPT_FIGURE
1002
{
1000
PSFILL
1000
Grayscale
1000
Grayscale
1070
   100
1002
}
  0
LINE
  5
3813
  8
YODOROGO
 10
27885.065004790951
 20
1536.233810697692
 30
0.0
 11
27902.054790808648
 21
1495.7494964292871
 31
0.0
1001
AUTOCAD_POSTSCRIPT_FIGURE
1002
{
1000
PSFILL
1000
Grayscale
1000
Grayscale
1070
   100
1002
}
  0
LINE
  5
3814
  8
YODOROGO
 10
27901.065004790951
 20
1536.233810697692
 30
0.0
 11
27885.065004790951
 21
1536.233810697692
 31
0.0
1001
AUTOCAD_POSTSCRIPT_FIGURE
1002
{
1000
PSFILL
1000
Grayscale
1000
Grayscale
1070
   100
1002
}
  0
LINE
  5
3815
  8
YODOROGO
 10
27929.604341291921
 20
1475.7494964292871
 30
0.0
 11
27901.065004790951
 21
1536.233810697692
 31
0.0
1001
AUTOCAD_POSTSCRIPT_FIGURE
1002
{
1000
PSFILL
1000
Grayscale
1000
Grayscale
1070
   100
1002
}
  0
LINE
  5
3816
  8
YODOROGO
 10
27785.604341291921
 20
1475.7494964292871
 30
0.0
 11
27929.604341291921
 21
1475.7494964292871
 31
0.0
1001
AUTOCAD_POSTSCRIPT_FIGURE
1002
{
1000
PSFILL
1000
Grayscale
1000
Grayscale
1070
   100
1002
}
  0
LINE
  5
3817
  8
YODOROGO
 10
27777.604341291921
 20
1619.9724140445701
 30
0.0
 11
27777.604341291921
 21
1643.9724140445701
 31
0.0
  0
LINE
  5
3818
  8
YODOROGO
 10
27937.604341291921
 20
1643.9724140445701
 30
0.0
 11
27937.604341291921
 21
1619.9724140445701
 31
0.0
  0
ARC
  5
3819
  8
YODOROGO
 10
28225.940442146959
 20
1600.877765325326
 30
0.0
 40
175.9999999999998
 50
280.3644312771313
 51
3.5414836592180561
  0
ARC
  5
381A
  8
YODOROGO
 10
28235.756030759301
 20
1633.5978069619041
 30
0.0
 40
111.9999999999982
 50
281.24905825041549
 51
348.75094174958332
  0
LINE
  5
381B
  8
YODOROGO
 10
28257.604341291921
 20
1523.7494964292871
 30
0.0
 11
28257.604341291921
 21
1427.749496429288
 31
0.0
  0
LINE
  5
381C
  8
YODOROGO
 10
28020.088903736909
 20
1610.650565061914
 30
0.0
 11
28040.913204016892
 21
1659.749496429288
 31
0.0
  0
LINE
  5
381D
  8
YODOROGO
 10
28041.604341291921
 20
1583.120489948401
 30
0.0
 11
28020.088903736909
 21
1610.650565061914
 31
0.0
  0
LINE
  5
381E
  8
YODOROGO
 10
28041.604341291921
 20
1563.120489948398
 30
0.0
 11
28041.604341291921
 21
1583.120489948401
 31
0.0
  0
LINE
  5
381F
  8
YODOROGO
 10
28017.604341291921
 20
1585.2370637495301
 30
0.0
 11
28041.604341291921
 21
1563.120489948398
 31
0.0
  0
LINE
  5
3820
  8
YODOROGO
 10
28017.604341291921
 20
1475.7494964292871
 30
0.0
 11
28017.604341291921
 21
1585.2370637495301
 31
0.0
  0
LINE
  5
3821
  8
YODOROGO
 10
28001.604341291921
 20
1475.7494964292871
 30
0.0
 11
28017.604341291921
 21
1475.7494964292871
 31
0.0
  0
LINE
  5
3822
  8
YODOROGO
 10
28001.604341291921
 20
1580.0053496897469
 30
0.0
 11
28001.604341291921
 21
1475.7494964292871
 31
0.0
  0
LINE
  5
3823
  8
YODOROGO
 10
27977.604341291921
 20
1532.7680790334291
 30
0.0
 11
28001.604341291921
 21
1580.0053496897469
 31
0.0
  0
LINE
  5
3824
  8
YODOROGO
 10
27977.604341291921
 20
1556.76807903343
 30
0.0
 11
27977.604341291921
 21
1532.7680790334291
 31
0.0
  0
LINE
  5
3825
  8
YODOROGO
 10
28025.828774291349
 20
1667.749496429285
 30
0.0
 11
27977.604341291921
 21
1556.76807903343
 31
0.0
  0
LINE
  5
3826
  8
YODOROGO
 10
27977.604341291921
 20
1667.749496429285
 30
0.0
 11
28025.828774291349
 21
1667.749496429285
 31
0.0
  0
LINE
  5
3827
  8
YODOROGO
 10
28050.135520230899
 20
1655.5036372746561
 30
0.0
 11
28082.135520230921
 21
1655.5036372746561
 31
0.0
1001
AUTOCAD_POSTSCRIPT_FIGURE
1002
{
1000
PSFILL
1000
Grayscale
1000
Grayscale
1070
   100
1002
}
  0
LINE
  5
3828
  8
YODOROGO
 10
28050.135520230899
 20
1631.5036372746561
 30
0.0
 11
28050.135520230899
 21
1655.5036372746561
 31
0.0
1001
AUTOCAD_POSTSCRIPT_FIGURE
1002
{
1000
PSFILL
1000
Grayscale
1000
Grayscale
1070
   100
1002
}
  0
LINE
  5
3829
  8
YODOROGO
 10
28082.135520230921
 20
1631.5036372746561
 30
0.0
 11
28050.135520230899
 21
1631.5036372746561
 31
0.0
1001
AUTOCAD_POSTSCRIPT_FIGURE
1002
{
1000
PSFILL
1000
Grayscale
1000
Grayscale
1070
   100
1002
}
  0
LINE
  5
382A
  8
YODOROGO
 10
28082.135520230921
 20
1499.749496429288
 30
0.0
 11
28082.135520230921
 21
1631.5036372746561
 31
0.0
1001
AUTOCAD_POSTSCRIPT_FIGURE
1002
{
1000
PSFILL
1000
Grayscale
1000
Grayscale
1070
   100
1002
}
  0
LINE
  5
382B
  8
YODOROGO
 10
28050.135520230921
 20
1499.749496429288
 30
0.0
 11
28082.135520230921
 21
1499.749496429288
 31
0.0
1001
AUTOCAD_POSTSCRIPT_FIGURE
1002
{
1000
PSFILL
1000
Grayscale
1000
Grayscale
1070
   100
1002
}
  0
LINE
  5
382C
  8
YODOROGO
 10
28050.135520230921
 20
1475.7494964292871
 30
0.0
 11
28050.135520230921
 21
1499.749496429288
 31
0.0
1001
AUTOCAD_POSTSCRIPT_FIGURE
1002
{
1000
PSFILL
1000
Grayscale
1000
Grayscale
1070
   100
1002
}
  0
LINE
  5
382D
  8
YODOROGO
 10
28137.604341291921
 20
1475.7494964292871
 30
0.0
 11
28050.135520230921
 21
1475.7494964292871
 31
0.0
1001
AUTOCAD_POSTSCRIPT_FIGURE
1002
{
1000
PSFILL
1000
Grayscale
1000
Grayscale
1070
   100
1002
}
  0
LINE
  5
382E
  8
YODOROGO
 10
28137.604341291921
 20
1499.749496429288
 30
0.0
 11
28137.604341291921
 21
1475.7494964292871
 31
0.0
1001
AUTOCAD_POSTSCRIPT_FIGURE
1002
{
1000
PSFILL
1000
Grayscale
1000
Grayscale
1070
   100
1002
}
  0
LINE
  5
382F
  8
YODOROGO
 10
28098.135520230931
 20
1499.749496429288
 30
0.0
 11
28137.604341291921
 21
1499.749496429288
 31
0.0
1001
AUTOCAD_POSTSCRIPT_FIGURE
1002
{
1000
PSFILL
1000
Grayscale
1000
Grayscale
1070
   100
1002
}
  0
LINE
  5
3830
  8
YODOROGO
 10
28098.135520230931
 20
1631.5036372746561
 30
0.0
 11
28098.135520230931
 21
1499.749496429288
 31
0.0
1001
AUTOCAD_POSTSCRIPT_FIGURE
1002
{
1000
PSFILL
1000
Grayscale
1000
Grayscale
1070
   100
1002
}
  0
LINE
  5
3831
  8
YODOROGO
 10
28137.604341291921
 20
1631.5036372746561
 30
0.0
 11
28098.135520230931
 21
1631.5036372746561
 31
0.0
1001
AUTOCAD_POSTSCRIPT_FIGURE
1002
{
1000
PSFILL
1000
Grayscale
1000
Grayscale
1070
   100
1002
}
  0
LINE
  5
3832
  8
YODOROGO
 10
28137.604341291921
 20
1655.5036372746561
 30
0.0
 11
28137.604341291921
 21
1631.5036372746561
 31
0.0
1001
AUTOCAD_POSTSCRIPT_FIGURE
1002
{
1000
PSFILL
1000
Grayscale
1000
Grayscale
1070
   100
1002
}
  0
LINE
  5
3833
  8
YODOROGO
 10
28098.135520230931
 20
1655.5036372746561
 30
0.0
 11
28137.604341291921
 21
1655.5036372746561
 31
0.0
1001
AUTOCAD_POSTSCRIPT_FIGURE
1002
{
1000
PSFILL
1000
Grayscale
1000
Grayscale
1070
   100
1002
}
  0
LINE
  5
3834
  8
YODOROGO
 10
28401.60434129191
 20
1667.749496429288
 30
0.0
 11
28345.604341291921
 21
1667.749496429288
 31
0.0
  0
LINE
  5
3835
  8
YODOROGO
 10
28401.60434129191
 20
1611.7494964292871
 30
0.0
 11
28401.60434129191
 21
1667.749496429288
 31
0.0
  0
LINE
  5
3836
  8
YODOROGO
 10
28345.604341291921
 20
1667.749496429288
 30
0.0
 11
28345.604341291921
 21
1611.7494964292871
 31
0.0
  0
ARC
  5
3837
  8
YODOROGO
 10
28513.60434129191
 20
1507.749496429288
 30
0.0
 40
80.0
 50
180.0
 51
270.0
  0
ARC
  5
3838
  8
YODOROGO
 10
28537.604341291921
 20
1563.7494964292871
 30
0.0
 40
40.0
 50
180.0
 51
270.0
  0
LINE
  5
3839
  8
YODOROGO
 10
28561.604341291932
 20
1523.7494964292871
 30
0.0
 11
28537.604341291921
 21
1523.7494964292871
 31
0.0
  0
ARC
  5
383A
  8
YODOROGO
 10
28561.604341291932
 20
1547.749496429285
 30
0.0
 40
23.999999999996358
 50
270.0
 51
0.0000000000054281
  0
LINE
  5
383B
  8
YODOROGO
 10
27801.604341291921
 20
1890.7865807937051
 30
0.0
 11
27777.604341291921
 21
1843.776747951672
 31
0.0
1001
AUTOCAD_POSTSCRIPT_FIGURE
1002
{
1000
PSFILL
1000
Grayscale
1000
Grayscale
1070
   100
1002
}
  0
LINE
  5
383C
  8
YODOROGO
 10
27801.604341291921
 20
1747.749496429286
 30
0.0
 11
27801.604341291921
 21
1890.7865807937051
 31
0.0
1001
AUTOCAD_POSTSCRIPT_FIGURE
1002
{
1000
PSFILL
1000
Grayscale
1000
Grayscale
1070
   100
1002
}
  0
LINE
  5
383D
  8
YODOROGO
 10
27817.604341291921
 20
1747.749496429286
 30
0.0
 11
27801.604341291921
 21
1747.749496429286
 31
0.0
1001
AUTOCAD_POSTSCRIPT_FIGURE
1002
{
1000
PSFILL
1000
Grayscale
1000
Grayscale
1070
   100
1002
}
  0
LINE
  5
383E
  8
YODOROGO
 10
27817.604341291921
 20
1893.7713320852661
 30
0.0
 11
27817.604341291921
 21
1747.749496429286
 31
0.0
1001
AUTOCAD_POSTSCRIPT_FIGURE
1002
{
1000
PSFILL
1000
Grayscale
1000
Grayscale
1070
   100
1002
}
  0
LINE
  5
383F
  8
YODOROGO
 10
27841.604341291921
 20
1867.6547582841361
 30
0.0
 11
27817.604341291921
 21
1893.7713320852661
 31
0.0
1001
AUTOCAD_POSTSCRIPT_FIGURE
1002
{
1000
PSFILL
1000
Grayscale
1000
Grayscale
1070
   100
1002
}
  0
LINE
  5
3840
  8
YODOROGO
 10
27841.604341291921
 20
1883.6547582841361
 30
0.0
 11
27841.604341291921
 21
1867.6547582841361
 31
0.0
1001
AUTOCAD_POSTSCRIPT_FIGURE
1002
{
1000
PSFILL
1000
Grayscale
1000
Grayscale
1070
   100
1002
}
  0
LINE
  5
3841
  8
YODOROGO
 10
27817.604341291921
 20
1917.7713320852649
 30
0.0
 11
27841.604341291921
 21
1883.6547582841361
 31
0.0
1001
AUTOCAD_POSTSCRIPT_FIGURE
1002
{
1000
PSFILL
1000
Grayscale
1000
Grayscale
1070
   100
1002
}
  0
LINE
  5
3842
  8
YODOROGO
 10
27817.604341291921
 20
1939.749496429288
 30
0.0
 11
27817.604341291921
 21
1917.7713320852649
 31
0.0
1001
AUTOCAD_POSTSCRIPT_FIGURE
1002
{
1000
PSFILL
1000
Grayscale
1000
Grayscale
1070
   100
1002
}
  0
LINE
  5
3843
  8
YODOROGO
 10
27889.604341291921
 20
1939.749496429288
 30
0.0
 11
27817.604341291921
 21
1939.749496429288
 31
0.0
1001
AUTOCAD_POSTSCRIPT_FIGURE
1002
{
1000
PSFILL
1000
Grayscale
1000
Grayscale
1070
   100
1002
}
  0
LINE
  5
3844
  8
YODOROGO
 10
27889.604341291921
 20
1900.5683489363
 30
0.0
 11
27889.604341291921
 21
1939.749496429288
 31
0.0
1001
AUTOCAD_POSTSCRIPT_FIGURE
1002
{
1000
PSFILL
1000
Grayscale
1000
Grayscale
1070
   100
1002
}
  0
LINE
  5
3845
  8
YODOROGO
 10
27857.604341291921
 20
1900.5683489363
 30
0.0
 11
27889.604341291921
 21
1900.5683489363
 31
0.0
1001
AUTOCAD_POSTSCRIPT_FIGURE
1002
{
1000
PSFILL
1000
Grayscale
1000
Grayscale
1070
   100
1002
}
  0
LINE
  5
3846
  8
YODOROGO
 10
27857.604341291921
 20
1884.568348936298
 30
0.0
 11
27857.604341291921
 21
1900.5683489363
 31
0.0
1001
AUTOCAD_POSTSCRIPT_FIGURE
1002
{
1000
PSFILL
1000
Grayscale
1000
Grayscale
1070
   100
1002
}
  0
LINE
  5
3847
  8
YODOROGO
 10
27889.604341291921
 20
1884.568348936298
 30
0.0
 11
27857.604341291921
 21
1884.568348936298
 31
0.0
1001
AUTOCAD_POSTSCRIPT_FIGURE
1002
{
1000
PSFILL
1000
Grayscale
1000
Grayscale
1070
   100
1002
}
  0
LINE
  5
3848
  8
YODOROGO
 10
27889.604341291921
 20
1879.6191779644371
 30
0.0
 11
27889.604341291921
 21
1884.568348936298
 31
0.0
1001
AUTOCAD_POSTSCRIPT_FIGURE
1002
{
1000
PSFILL
1000
Grayscale
1000
Grayscale
1070
   100
1002
}
  0
LINE
  5
3849
  8
YODOROGO
 10
27849.604341291921
 20
1812.974981161417
 30
0.0
 11
27889.604341291921
 21
1879.6191779644371
 31
0.0
1001
AUTOCAD_POSTSCRIPT_FIGURE
1002
{
1000
PSFILL
1000
Grayscale
1000
Grayscale
1070
   100
1002
}
  0
LINE
  5
384A
  8
YODOROGO
 10
27849.604341291921
 20
1796.9749811614149
 30
0.0
 11
27849.604341291921
 21
1812.974981161417
 31
0.0
1001
AUTOCAD_POSTSCRIPT_FIGURE
1002
{
1000
PSFILL
1000
Grayscale
1000
Grayscale
1070
   100
1002
}
  0
LINE
  5
384B
  8
YODOROGO
 10
27889.604341291921
 20
1847.6191779644359
 30
0.0
 11
27849.604341291921
 21
1796.9749811614149
 31
0.0
1001
AUTOCAD_POSTSCRIPT_FIGURE
1002
{
1000
PSFILL
1000
Grayscale
1000
Grayscale
1070
   100
1002
}
  0
LINE
  5
384C
  8
YODOROGO
 10
27889.604341291921
 20
1747.749496429286
 30
0.0
 11
27889.604341291921
 21
1847.6191779644359
 31
0.0
1001
AUTOCAD_POSTSCRIPT_FIGURE
1002
{
1000
PSFILL
1000
Grayscale
1000
Grayscale
1070
   100
1002
}
  0
LINE
  5
384D
  8
YODOROGO
 10
27905.604341291921
 20
1747.749496429286
 30
0.0
 11
27889.604341291921
 21
1747.749496429286
 31
0.0
1001
AUTOCAD_POSTSCRIPT_FIGURE
1002
{
1000
PSFILL
1000
Grayscale
1000
Grayscale
1070
   100
1002
}
  0
LINE
  5
384E
  8
YODOROGO
 10
27905.604341291921
 20
1849.409012158806
 30
0.0
 11
27905.604341291921
 21
1747.749496429286
 31
0.0
1001
AUTOCAD_POSTSCRIPT_FIGURE
1002
{
1000
PSFILL
1000
Grayscale
1000
Grayscale
1070
   100
1002
}
  0
LINE
  5
384F
  8
YODOROGO
 10
27937.604341291921
 20
1796.9749811614149
 30
0.0
 11
27905.604341291921
 21
1849.409012158806
 31
0.0
1001
AUTOCAD_POSTSCRIPT_FIGURE
1002
{
1000
PSFILL
1000
Grayscale
1000
Grayscale
1070
   100
1002
}
  0
LINE
  5
3850
  8
YODOROGO
 10
27937.604341291921
 20
1812.974981161417
 30
0.0
 11
27937.604341291921
 21
1796.9749811614149
 31
0.0
1001
AUTOCAD_POSTSCRIPT_FIGURE
1002
{
1000
PSFILL
1000
Grayscale
1000
Grayscale
1070
   100
1002
}
  0
LINE
  5
3851
  8
YODOROGO
 10
27905.604341291921
 20
1881.4090121588081
 30
0.0
 11
27937.604341291921
 21
1812.974981161417
 31
0.0
1001
AUTOCAD_POSTSCRIPT_FIGURE
1002
{
1000
PSFILL
1000
Grayscale
1000
Grayscale
1070
   100
1002
}
  0
LINE
  5
3852
  8
YODOROGO
 10
27905.604341291921
 20
1884.5683489363
 30
0.0
 11
27905.604341291921
 21
1881.4090121588081
 31
0.0
1001
AUTOCAD_POSTSCRIPT_FIGURE
1002
{
1000
PSFILL
1000
Grayscale
1000
Grayscale
1070
   100
1002
}
  0
LINE
  5
3853
  8
YODOROGO
 10
27937.604341291921
 20
1884.568348936298
 30
0.0
 11
27905.604341291921
 21
1884.5683489363
 31
0.0
1001
AUTOCAD_POSTSCRIPT_FIGURE
1002
{
1000
PSFILL
1000
Grayscale
1000
Grayscale
1070
   100
1002
}
  0
LINE
  5
3854
  8
YODOROGO
 10
27937.604341291921
 20
1900.5683489363
 30
0.0
 11
27937.604341291921
 21
1884.568348936298
 31
0.0
1001
AUTOCAD_POSTSCRIPT_FIGURE
1002
{
1000
PSFILL
1000
Grayscale
1000
Grayscale
1070
   100
1002
}
  0
LINE
  5
3855
  8
YODOROGO
 10
27905.604341291921
 20
1900.5683489363
 30
0.0
 11
27937.604341291921
 21
1900.5683489363
 31
0.0
1001
AUTOCAD_POSTSCRIPT_FIGURE
1002
{
1000
PSFILL
1000
Grayscale
1000
Grayscale
1070
   100
1002
}
  0
LINE
  5
3856
  8
YODOROGO
 10
27905.604341291921
 20
1939.749496429288
 30
0.0
 11
27905.604341291921
 21
1900.5683489363
 31
0.0
1001
AUTOCAD_POSTSCRIPT_FIGURE
1002
{
1000
PSFILL
1000
Grayscale
1000
Grayscale
1070
   100
1002
}
  0
LINE
  5
3857
  8
YODOROGO
 10
27937.604341291921
 20
1939.749496429288
 30
0.0
 11
27905.604341291921
 21
1939.749496429288
 31
0.0
1001
AUTOCAD_POSTSCRIPT_FIGURE
1002
{
1000
PSFILL
1000
Grayscale
1000
Grayscale
1070
   100
1002
}
  0
LINE
  5
3858
  8
YODOROGO
 10
27937.604341291921
 20
1955.7494964292871
 30
0.0
 11
27937.604341291921
 21
1939.749496429288
 31
0.0
1001
AUTOCAD_POSTSCRIPT_FIGURE
1002
{
1000
PSFILL
1000
Grayscale
1000
Grayscale
1070
   100
1002
}
  0
LINE
  5
3859
  8
YODOROGO
 10
27905.604341291921
 20
1955.7494964292871
 30
0.0
 11
27937.604341291921
 21
1955.7494964292871
 31
0.0
1001
AUTOCAD_POSTSCRIPT_FIGURE
1002
{
1000
PSFILL
1000
Grayscale
1000
Grayscale
1070
   100
1002
}
  0
LINE
  5
385A
  8
YODOROGO
 10
27905.604341291921
 20
1979.749496429288
 30
0.0
 11
27905.604341291921
 21
1955.7494964292871
 31
0.0
1001
AUTOCAD_POSTSCRIPT_FIGURE
1002
{
1000
PSFILL
1000
Grayscale
1000
Grayscale
1070
   100
1002
}
  0
LINE
  5
385B
  8
YODOROGO
 10
27889.604341291921
 20
1979.749496429288
 30
0.0
 11
27905.604341291921
 21
1979.749496429288
 31
0.0
1001
AUTOCAD_POSTSCRIPT_FIGURE
1002
{
1000
PSFILL
1000
Grayscale
1000
Grayscale
1070
   100
1002
}
  0
LINE
  5
385C
  8
YODOROGO
 10
27889.604341291921
 20
1955.7494964292871
 30
0.0
 11
27889.604341291921
 21
1979.749496429288
 31
0.0
1001
AUTOCAD_POSTSCRIPT_FIGURE
1002
{
1000
PSFILL
1000
Grayscale
1000
Grayscale
1070
   100
1002
}
  0
LINE
  5
385D
  8
YODOROGO
 10
27865.604341291921
 20
1955.7494964292871
 30
0.0
 11
27889.604341291921
 21
1955.7494964292871
 31
0.0
1001
AUTOCAD_POSTSCRIPT_FIGURE
1002
{
1000
PSFILL
1000
Grayscale
1000
Grayscale
1070
   100
1002
}
  0
LINE
  5
385E
  8
YODOROGO
 10
27865.604341291921
 20
1979.749496429288
 30
0.0
 11
27865.604341291921
 21
1955.7494964292871
 31
0.0
1001
AUTOCAD_POSTSCRIPT_FIGURE
1002
{
1000
PSFILL
1000
Grayscale
1000
Grayscale
1070
   100
1002
}
  0
LINE
  5
385F
  8
YODOROGO
 10
27849.604341291921
 20
1979.749496429288
 30
0.0
 11
27865.604341291921
 21
1979.749496429288
 31
0.0
1001
AUTOCAD_POSTSCRIPT_FIGURE
1002
{
1000
PSFILL
1000
Grayscale
1000
Grayscale
1070
   100
1002
}
  0
LINE
  5
3860
  8
YODOROGO
 10
27849.604341291921
 20
1955.7494964292871
 30
0.0
 11
27849.604341291921
 21
1979.749496429288
 31
0.0
1001
AUTOCAD_POSTSCRIPT_FIGURE
1002
{
1000
PSFILL
1000
Grayscale
1000
Grayscale
1070
   100
1002
}
  0
LINE
  5
3861
  8
YODOROGO
 10
27817.604341291921
 20
1955.7494964292871
 30
0.0
 11
27849.604341291921
 21
1955.7494964292871
 31
0.0
1001
AUTOCAD_POSTSCRIPT_FIGURE
1002
{
1000
PSFILL
1000
Grayscale
1000
Grayscale
1070
   100
1002
}
  0
LINE
  5
3862
  8
YODOROGO
 10
27817.604341291921
 20
1979.749496429288
 30
0.0
 11
27817.604341291921
 21
1955.7494964292871
 31
0.0
1001
AUTOCAD_POSTSCRIPT_FIGURE
1002
{
1000
PSFILL
1000
Grayscale
1000
Grayscale
1070
   100
1002
}
  0
LINE
  5
3863
  8
YODOROGO
 10
27801.604341291921
 20
1979.749496429288
 30
0.0
 11
27817.604341291921
 21
1979.749496429288
 31
0.0
1001
AUTOCAD_POSTSCRIPT_FIGURE
1002
{
1000
PSFILL
1000
Grayscale
1000
Grayscale
1070
   100
1002
}
  0
LINE
  5
3864
  8
YODOROGO
 10
27801.604341291921
 20
1955.7494964292871
 30
0.0
 11
27801.604341291921
 21
1979.749496429288
 31
0.0
1001
AUTOCAD_POSTSCRIPT_FIGURE
1002
{
1000
PSFILL
1000
Grayscale
1000
Grayscale
1070
   100
1002
}
  0
LINE
  5
3865
  8
YODOROGO
 10
27777.604341291921
 20
1955.7494964292871
 30
0.0
 11
27801.604341291921
 21
1955.7494964292871
 31
0.0
1001
AUTOCAD_POSTSCRIPT_FIGURE
1002
{
1000
PSFILL
1000
Grayscale
1000
Grayscale
1070
   100
1002
}
  0
LINE
  5
3866
  8
YODOROGO
 10
27777.604341291921
 20
1939.749496429288
 30
0.0
 11
27777.604341291921
 21
1955.7494964292871
 31
0.0
1001
AUTOCAD_POSTSCRIPT_FIGURE
1002
{
1000
PSFILL
1000
Grayscale
1000
Grayscale
1070
   100
1002
}
  0
LINE
  5
3867
  8
YODOROGO
 10
27801.604341291921
 20
1939.749496429288
 30
0.0
 11
27777.604341291921
 21
1939.749496429288
 31
0.0
1001
AUTOCAD_POSTSCRIPT_FIGURE
1002
{
1000
PSFILL
1000
Grayscale
1000
Grayscale
1070
   100
1002
}
  0
LINE
  5
3868
  8
YODOROGO
 10
27801.604341291921
 20
1914.7865807937051
 30
0.0
 11
27801.604341291921
 21
1939.749496429288
 31
0.0
1001
AUTOCAD_POSTSCRIPT_FIGURE
1002
{
1000
PSFILL
1000
Grayscale
1000
Grayscale
1070
   100
1002
}
  0
LINE
  5
3869
  8
YODOROGO
 10
27777.604341291921
 20
1859.776747951671
 30
0.0
 11
27801.604341291921
 21
1914.7865807937051
 31
0.0
1001
AUTOCAD_POSTSCRIPT_FIGURE
1002
{
1000
PSFILL
1000
Grayscale
1000
Grayscale
1070
   100
1002
}
  0
LINE
  5
386A
  8
YODOROGO
 10
27777.604341291921
 20
1843.776747951672
 30
0.0
 11
27777.604341291921
 21
1859.776747951671
 31
0.0
1001
AUTOCAD_POSTSCRIPT_FIGURE
1002
{
1000
PSFILL
1000
Grayscale
1000
Grayscale
1070
   100
1002
}
  0
LINE
  5
386B
  8
YODOROGO
 10
28257.604341291921
 20
1867.7494964292871
 30
0.0
 11
28401.60434129191
 21
1824.877625640306
 31
0.0
1001
AUTOCAD_POSTSCRIPT_FIGURE
1002
{
1000
PSFILL
1000
Grayscale
1000
Grayscale
1070
   100
1002
}
  0
LINE
  5
386C
  8
YODOROGO
 10
28401.60434129191
 20
1752.877625640306
 30
0.0
 11
28257.604341291921
 21
1795.7494964292871
 31
0.0
1001
AUTOCAD_POSTSCRIPT_FIGURE
1002
{
1000
PSFILL
1000
Grayscale
1000
Grayscale
1070
   100
1002
}
  0
LINE
  5
386D
  8
YODOROGO
 10
28401.60434129191
 20
1984.877625640305
 30
0.0
 11
28257.604341291921
 21
2027.749496429288
 31
0.0
1001
AUTOCAD_POSTSCRIPT_FIGURE
1002
{
1000
PSFILL
1000
Grayscale
1000
Grayscale
1070
   100
1002
}
  0
LINE
  5
386E
  8
YODOROGO
 10
28257.604341291921
 20
1959.749496429288
 30
0.0
 11
28401.60434129191
 21
1916.8776256403071
 31
0.0
1001
AUTOCAD_POSTSCRIPT_FIGURE
1002
{
1000
PSFILL
1000
Grayscale
1000
Grayscale
1070
   100
1002
}
  0
LINE
  5
386F
  8
YODOROGO
 10
28257.604341291921
 20
1795.7494964292871
 30
0.0
 11
28257.604341291921
 21
1867.7494964292871
 31
0.0
1001
AUTOCAD_POSTSCRIPT_FIGURE
1002
{
1000
PSFILL
1000
Grayscale
1000
Grayscale
1070
   100
1002
}
  0
LINE
  5
3870
  8
YODOROGO
 10
28257.604341291921
 20
2027.749496429288
 30
0.0
 11
28257.604341291921
 21
1959.749496429288
 31
0.0
1001
AUTOCAD_POSTSCRIPT_FIGURE
1002
{
1000
PSFILL
1000
Grayscale
1000
Grayscale
1070
   100
1002
}
  0
LINE
  5
3871
  8
YODOROGO
 10
28080.236320206739
 20
1939.749496429288
 30
0.0
 11
28129.60434129191
 21
1747.749496429286
 31
0.0
1001
AUTOCAD_POSTSCRIPT_FIGURE
1002
{
1000
PSFILL
1000
Grayscale
1000
Grayscale
1070
   100
1002
}
  0
LINE
  5
3872
  8
YODOROGO
 10
27977.604341291921
 20
1939.749496429288
 30
0.0
 11
28080.236320206739
 21
1939.749496429288
 31
0.0
1001
AUTOCAD_POSTSCRIPT_FIGURE
1002
{
1000
PSFILL
1000
Grayscale
1000
Grayscale
1070
   100
1002
}
  0
LINE
  5
3873
  8
YODOROGO
 10
27977.604341291921
 20
1955.7494964292871
 30
0.0
 11
27977.604341291921
 21
1939.749496429288
 31
0.0
1001
AUTOCAD_POSTSCRIPT_FIGURE
1002
{
1000
PSFILL
1000
Grayscale
1000
Grayscale
1070
   100
1002
}
  0
LINE
  5
3874
  8
YODOROGO
 10
28076.60687851991
 20
1955.7494964292871
 30
0.0
 11
27977.604341291921
 21
1955.7494964292871
 31
0.0
1001
AUTOCAD_POSTSCRIPT_FIGURE
1002
{
1000
PSFILL
1000
Grayscale
1000
Grayscale
1070
   100
1002
}
  0
LINE
  5
3875
  8
YODOROGO
 10
28071.162715989711
 20
1979.749496429288
 30
0.0
 11
28076.60687851991
 21
1955.7494964292871
 31
0.0
1001
AUTOCAD_POSTSCRIPT_FIGURE
1002
{
1000
PSFILL
1000
Grayscale
1000
Grayscale
1070
   100
1002
}
  0
LINE
  5
3876
  8
YODOROGO
 10
28091.162715989711
 20
1979.749496429288
 30
0.0
 11
28071.162715989711
 21
1979.749496429288
 31
0.0
1001
AUTOCAD_POSTSCRIPT_FIGURE
1002
{
1000
PSFILL
1000
Grayscale
1000
Grayscale
1070
   100
1002
}
  0
LINE
  5
3877
  8
YODOROGO
 10
28095.806878519939
 20
1955.7494964292871
 30
0.0
 11
28091.162715989711
 21
1979.749496429288
 31
0.0
1001
AUTOCAD_POSTSCRIPT_FIGURE
1002
{
1000
PSFILL
1000
Grayscale
1000
Grayscale
1070
   100
1002
}
  0
LINE
  5
3878
  8
YODOROGO
 10
28121.604341291921
 20
1955.7494964292871
 30
0.0
 11
28095.806878519939
 21
1955.7494964292871
 31
0.0
1001
AUTOCAD_POSTSCRIPT_FIGURE
1002
{
1000
PSFILL
1000
Grayscale
1000
Grayscale
1070
   100
1002
}
  0
LINE
  5
3879
  8
YODOROGO
 10
28121.604341291921
 20
1979.749496429288
 30
0.0
 11
28121.604341291921
 21
1955.7494964292871
 31
0.0
1001
AUTOCAD_POSTSCRIPT_FIGURE
1002
{
1000
PSFILL
1000
Grayscale
1000
Grayscale
1070
   100
1002
}
  0
LINE
  5
387A
  8
YODOROGO
 10
28137.604341291921
 20
1979.749496429288
 30
0.0
 11
28121.604341291921
 21
1979.749496429288
 31
0.0
1001
AUTOCAD_POSTSCRIPT_FIGURE
1002
{
1000
PSFILL
1000
Grayscale
1000
Grayscale
1070
   100
1002
}
  0
LINE
  5
387B
  8
YODOROGO
 10
28137.604341291921
 20
1955.7494964292871
 30
0.0
 11
28137.604341291921
 21
1979.749496429288
 31
0.0
1001
AUTOCAD_POSTSCRIPT_FIGURE
1002
{
1000
PSFILL
1000
Grayscale
1000
Grayscale
1070
   100
1002
}
  0
LINE
  5
387C
  8
YODOROGO
 10
28137.604341291921
 20
1939.749496429288
 30
0.0
 11
28137.604341291921
 21
1955.7494964292871
 31
0.0
1001
AUTOCAD_POSTSCRIPT_FIGURE
1002
{
1000
PSFILL
1000
Grayscale
1000
Grayscale
1070
   100
1002
}
  0
LINE
  5
387D
  8
YODOROGO
 10
28098.902986873411
 20
1939.749496429288
 30
0.0
 11
28137.604341291921
 21
1939.749496429288
 31
0.0
1001
AUTOCAD_POSTSCRIPT_FIGURE
1002
{
1000
PSFILL
1000
Grayscale
1000
Grayscale
1070
   100
1002
}
  0
LINE
  5
387E
  8
YODOROGO
 10
28137.604341291921
 20
1747.749496429286
 30
0.0
 11
28098.902986873411
 21
1939.749496429288
 31
0.0
1001
AUTOCAD_POSTSCRIPT_FIGURE
1002
{
1000
PSFILL
1000
Grayscale
1000
Grayscale
1070
   100
1002
}
  0
LINE
  5
387F
  8
YODOROGO
 10
28129.60434129191
 20
1747.749496429286
 30
0.0
 11
28137.604341291921
 21
1747.749496429286
 31
0.0
1001
AUTOCAD_POSTSCRIPT_FIGURE
1002
{
1000
PSFILL
1000
Grayscale
1000
Grayscale
1070
   100
1002
}
  0
LINE
  5
3880
  8
YODOROGO
 10
28078.069219933801
 20
1775.7407762987939
 30
0.0
 11
27977.604341291921
 21
1747.749496429286
 31
0.0
  0
LINE
  5
3881
  8
YODOROGO
 10
28078.069219933801
 20
1798.6689795290731
 30
0.0
 11
28078.069219933801
 21
1775.7407762987939
 31
0.0
  0
LINE
  5
3882
  8
YODOROGO
 10
28033.83678061287
 20
1786.816933133767
 30
0.0
 11
28078.069219933801
 21
1798.6689795290731
 31
0.0
  0
LINE
  5
3883
  8
YODOROGO
 10
28033.83678061287
 20
1872.5683489362989
 30
0.0
 11
28033.83678061287
 21
1786.816933133767
 31
0.0
  0
LINE
  5
3884
  8
YODOROGO
 10
28078.069219933801
 20
1872.5683489362989
 30
0.0
 11
28033.83678061287
 21
1872.5683489362989
 31
0.0
  0
LINE
  5
3885
  8
YODOROGO
 10
28078.069219933801
 20
1892.568348936298
 30
0.0
 11
28078.069219933801
 21
1872.5683489362989
 31
0.0
  0
LINE
  5
3886
  8
YODOROGO
 10
27977.604341291921
 20
1892.568348936298
 30
0.0
 11
28078.069219933801
 21
1892.568348936298
 31
0.0
  0
LINE
  5
3887
  8
YODOROGO
 10
27977.604341291921
 20
1872.5683489362989
 30
0.0
 11
27977.604341291921
 21
1892.568348936298
 31
0.0
  0
LINE
  5
3888
  8
YODOROGO
 10
28021.836780612852
 20
1872.5683489362989
 30
0.0
 11
27977.604341291921
 21
1872.5683489362989
 31
0.0
  0
LINE
  5
3889
  8
YODOROGO
 10
28021.836780612852
 20
1784.673339594317
 30
0.0
 11
28021.836780612852
 21
1872.5683489362989
 31
0.0
  0
LINE
  5
388A
  8
YODOROGO
 10
27977.604341291921
 20
1771.749496429286
 30
0.0
 11
28021.836780612852
 21
1784.673339594317
 31
0.0
  0
LINE
  5
388B
  8
YODOROGO
 10
27977.604341291921
 20
1747.749496429286
 30
0.0
 11
27977.604341291921
 21
1771.749496429286
 31
0.0
  0
LINE
  5
388C
  8
YODOROGO
 10
28001.604341291921
 20
1707.749496429288
 30
0.0
 11
28001.604341291921
 21
1683.7494964292871
 31
0.0
  0
LINE
  5
388D
  8
YODOROGO
 10
28017.604341291921
 20
1707.749496429288
 30
0.0
 11
28001.604341291921
 21
1707.749496429288
 31
0.0
  0
LINE
  5
388E
  8
YODOROGO
 10
28017.604341291921
 20
1683.7494964292871
 30
0.0
 11
28017.604341291921
 21
1707.749496429288
 31
0.0
  0
LINE
  5
388F
  8
YODOROGO
 10
28040.913204016892
 20
1683.7494964292871
 30
0.0
 11
28017.604341291921
 21
1683.7494964292871
 31
0.0
  0
LINE
  5
3890
  8
YODOROGO
 10
28001.604341291921
 20
1683.7494964292871
 30
0.0
 11
27977.604341291921
 21
1683.7494964292871
 31
0.0
  0
LINE
  5
3891
  8
YODOROGO
 10
28082.135520230921
 20
1707.749496429288
 30
0.0
 11
28098.135520230931
 21
1707.749496429288
 31
0.0
1001
AUTOCAD_POSTSCRIPT_FIGURE
1002
{
1000
PSFILL
1000
Grayscale
1000
Grayscale
1070
   100
1002
}
  0
LINE
  5
3892
  8
YODOROGO
 10
28401.60434129191
 20
1824.877625640306
 30
0.0
 11
28401.60434129191
 21
1752.877625640306
 31
0.0
1001
AUTOCAD_POSTSCRIPT_FIGURE
1002
{
1000
PSFILL
1000
Grayscale
1000
Grayscale
1070
   100
1002
}
  0
LINE
  5
3893
  8
YODOROGO
 10
28401.60434129191
 20
1916.8776256403071
 30
0.0
 11
28401.60434129191
 21
1984.877625640305
 31
0.0
1001
AUTOCAD_POSTSCRIPT_FIGURE
1002
{
1000
PSFILL
1000
Grayscale
1000
Grayscale
1070
   100
1002
}
  0
LINE
  5
3894
  8
YODOROGO
 10
28433.60434129191
 20
1819.7494964292871
 30
0.0
 11
28433.60434129191
 21
1747.74949642929
 31
0.0
  0
LINE
  5
3895
  8
YODOROGO
 10
28497.60434129191
 20
1707.749496429288
 30
0.0
 11
28433.60434129191
 21
1707.749496429288
 31
0.0
  0
LINE
  5
3896
  8
YODOROGO
 10
28433.60434129191
 20
1747.74949642929
 30
0.0
 11
28585.604341291921
 21
1747.74949642929
 31
0.0
  0
LINE
  5
3897
  8
YODOROGO
 10
28497.60434129191
 20
1867.7494964292871
 30
0.0
 11
28433.60434129191
 21
1867.7494964292871
 31
0.0
  0
LINE
  5
3898
  8
YODOROGO
 10
28497.60434129191
 20
1923.7494964292871
 30
0.0
 11
28497.60434129191
 21
1867.7494964292871
 31
0.0
  0
LINE
  5
3899
  8
YODOROGO
 10
28585.604341291921
 20
1987.7494964292871
 30
0.0
 11
28585.604341291921
 21
2027.749496429288
 31
0.0
  0
LINE
  5
389A
  8
YODOROGO
 10
28433.60434129191
 20
1987.7494964292871
 30
0.0
 11
28585.604341291921
 21
1987.7494964292871
 31
0.0
  0
LINE
  5
389B
  8
YODOROGO
 10
28433.60434129191
 20
1867.7494964292871
 30
0.0
 11
28433.60434129191
 21
1987.7494964292871
 31
0.0
  0
LINE
  5
389C
  8
YODOROGO
 10
29001.60434129191
 20
2027.749496429288
 30
0.0
 11
29001.60434129191
 21
1619.749496429288
 31
0.0
  0
LINE
  5
389D
  8
YODOROGO
 10
29073.604341291921
 20
1579.749496429288
 30
0.0
 11
29073.604341291921
 21
2027.749496429288
 31
0.0
  0
LINE
  5
389E
  8
YODOROGO
 10
29261.604341291921
 20
1491.749496429286
 30
0.0
 11
29261.604341291921
 21
2007.749496429288
 31
0.0
  0
LINE
  5
389F
  8
YODOROGO
 10
29197.604341291921
 20
2007.749496429288
 30
0.0
 11
29197.604341291921
 21
1491.749496429286
 31
0.0
  0
LINE
  5
38A0
  8
YODOROGO
 10
29385.604341291921
 20
2027.749496429288
 30
0.0
 11
29385.604341291921
 21
1427.749496429288
 31
0.0
  0
LINE
  5
38A1
  8
YODOROGO
 10
29457.604341291921
 20
1427.749496429288
 30
0.0
 11
29457.604341291921
 21
2027.749496429288
 31
0.0
  0
LINE
  5
38A2
  8
YODOROGO
 10
28657.604341291921
 20
1667.749496429288
 30
0.0
 11
28657.604341291921
 21
1747.74949642929
 31
0.0
  0
LINE
  5
38A3
  8
YODOROGO
 10
29885.604341291921
 20
1707.749496429288
 30
0.0
 11
29885.604341291921
 21
1667.749496429288
 31
0.0
  0
LINE
  5
38A4
  8
YODOROGO
 10
29885.604341291921
 20
1707.749496429288
 30
0.0
 11
29885.604341291921
 21
1667.749496429288
 31
0.0
  0
ARC
  5
38A5
  8
YODOROGO
 10
28906.911576186842
 20
1618.217864442272
 30
0.0
 40
94.705151178741616
 50
274.05244162907093
 51
0.9266642149310712
  0
ARC
  5
38A6
  8
YODOROGO
 10
28909.186170719819
 20
1592.61072861044
 30
0.0
 40
164.92042356085511
 50
271.5351210653775
 51
355.52727750585052
  0
LINE
  5
38A7
  8
YODOROGO
 10
28913.604341291921
 20
1523.7494964292871
 30
0.0
 11
28913.604341291921
 21
1427.749496429288
 31
0.0
  0
LINE
  5
38A8
  8
YODOROGO
 10
28793.60434129191
 20
1667.749496429288
 30
0.0
 11
28657.604341291921
 21
1667.749496429288
 31
0.0
  0
LINE
  5
38A9
  8
YODOROGO
 10
28793.60434129191
 20
1603.7494964292871
 30
0.0
 11
28793.60434129191
 21
1667.749496429288
 31
0.0
  0
LINE
  5
38AA
  8
YODOROGO
 10
28657.604341291921
 20
1603.7494964292871
 30
0.0
 11
28793.60434129191
 21
1603.7494964292871
 31
0.0
  0
LINE
  5
38AB
  8
YODOROGO
 10
28657.604341291921
 20
1523.7494964292871
 30
0.0
 11
28657.604341291921
 21
1603.7494964292871
 31
0.0
  0
LINE
  5
38AC
  8
YODOROGO
 10
28793.60434129191
 20
1523.7494964292871
 30
0.0
 11
28657.604341291921
 21
1523.7494964292871
 31
0.0
  0
LINE
  5
38AD
  8
YODOROGO
 10
28793.60434129191
 20
1427.749496429288
 30
0.0
 11
28793.60434129191
 21
1523.7494964292871
 31
0.0
  0
LINE
  5
38AE
  8
YODOROGO
 10
29197.604341291921
 20
1491.749496429286
 30
0.0
 11
29261.604341291921
 21
1491.749496429286
 31
0.0
  0
LINE
  5
38AF
  8
YODOROGO
 10
29385.604341291921
 20
1427.749496429288
 30
0.0
 11
29457.604341291921
 21
1427.749496429288
 31
0.0
  0
LINE
  5
38B0
  8
YODOROGO
 10
29737.604341291921
 20
1528.4414521705639
 30
0.0
 11
29737.604341291921
 21
1427.749496429288
 31
0.0
  0
LINE
  5
38B1
  8
YODOROGO
 10
29617.604341291921
 20
1427.749496429288
 30
0.0
 11
29737.604341291921
 21
1528.4414521705639
 31
0.0
  0
LINE
  5
38B2
  8
YODOROGO
 10
29617.604341291921
 20
1547.749496429288
 30
0.0
 11
29617.604341291921
 21
1427.749496429288
 31
0.0
  0
LINE
  5
38B3
  8
YODOROGO
 10
29712.94462869945
 20
1627.749496429288
 30
0.0
 11
29617.604341291921
 21
1547.749496429288
 31
0.0
  0
LINE
  5
38B4
  8
YODOROGO
 10
29617.604341291921
 20
1627.749496429288
 30
0.0
 11
29712.94462869945
 21
1627.749496429288
 31
0.0
  0
LINE
  5
38B5
  8
YODOROGO
 10
29617.604341291921
 20
1667.749496429288
 30
0.0
 11
29617.604341291921
 21
1627.749496429288
 31
0.0
  0
LINE
  5
38B6
  8
YODOROGO
 10
29885.604341291921
 20
1667.749496429288
 30
0.0
 11
29617.604341291921
 21
1667.749496429288
 31
0.0
  0
LINE
  5
38B7
  8
YODOROGO
 10
29917.604341291921
 20
1627.749496429288
 30
0.0
 11
29777.604341291921
 21
1627.749496429288
 31
0.0
  0
LINE
  5
38B8
  8
YODOROGO
 10
29777.604341291921
 20
1562.0054374176559
 30
0.0
 11
29771.409872985321
 21
1556.807661346234
 31
0.0
  0
LINE
  5
38B9
  8
YODOROGO
 10
29777.604341291921
 20
1627.749496429288
 30
0.0
 11
29777.604341291921
 21
1562.0054374176559
 31
0.0
  0
LINE
  5
38BA
  8
YODOROGO
 10
29737.604341291921
 20
1528.4414521705639
 30
0.0
 11
29737.604341291921
 21
1427.749496429288
 31
0.0
  0
LINE
  5
38BB
  8
YODOROGO
 10
29617.604341291921
 20
1427.749496429288
 30
0.0
 11
29737.604341291921
 21
1528.4414521705639
 31
0.0
  0
LINE
  5
38BC
  8
YODOROGO
 10
29617.604341291921
 20
1547.749496429288
 30
0.0
 11
29617.604341291921
 21
1427.749496429288
 31
0.0
  0
LINE
  5
38BD
  8
YODOROGO
 10
29712.94462869945
 20
1627.749496429288
 30
0.0
 11
29617.604341291921
 21
1547.749496429288
 31
0.0
  0
LINE
  5
38BE
  8
YODOROGO
 10
29617.604341291921
 20
1627.749496429288
 30
0.0
 11
29712.94462869945
 21
1627.749496429288
 31
0.0
  0
LINE
  5
38BF
  8
YODOROGO
 10
29617.604341291921
 20
1667.749496429288
 30
0.0
 11
29617.604341291921
 21
1627.749496429288
 31
0.0
  0
LINE
  5
38C0
  8
YODOROGO
 10
29885.604341291921
 20
1667.749496429288
 30
0.0
 11
29617.604341291921
 21
1667.749496429288
 31
0.0
  0
LINE
  5
38C1
  8
YODOROGO
 10
28793.60434129191
 20
1747.74949642929
 30
0.0
 11
28793.60434129191
 21
1819.7494964292871
 31
0.0
  0
LINE
  5
38C2
  8
YODOROGO
 10
28657.604341291921
 20
1747.74949642929
 30
0.0
 11
28793.60434129191
 21
1747.74949642929
 31
0.0
  0
LINE
  5
38C3
  8
YODOROGO
 10
28729.604341291921
 20
1867.7494964292871
 30
0.0
 11
28729.604341291921
 21
1923.7494964292871
 31
0.0
  0
LINE
  5
38C4
  8
YODOROGO
 10
28793.60434129191
 20
1867.7494964292871
 30
0.0
 11
28729.604341291921
 21
1867.7494964292871
 31
0.0
  0
LINE
  5
38C5
  8
YODOROGO
 10
28793.60434129191
 20
1947.749496429288
 30
0.0
 11
28793.60434129191
 21
1867.7494964292871
 31
0.0
  0
ARC
  5
38C6
  8
YODOROGO
 10
28753.60434129191
 20
1947.749496429288
 30
0.0
 40
40.0
 50
0.0
 51
90.0
  0
LINE
  5
38C7
  8
YODOROGO
 10
28657.604341291921
 20
1987.7494964292871
 30
0.0
 11
28753.60434129191
 21
1987.7494964292871
 31
0.0
  0
LINE
  5
38C8
  8
YODOROGO
 10
28657.604341291921
 20
2027.749496429288
 30
0.0
 11
28657.604341291921
 21
1987.7494964292871
 31
0.0
  0
LINE
  5
38C9
  8
YODOROGO
 10
29073.604341291921
 20
2027.749496429288
 30
0.0
 11
29001.60434129191
 21
2027.749496429288
 31
0.0
  0
LINE
  5
38CA
  8
YODOROGO
 10
29261.604341291921
 20
2007.749496429288
 30
0.0
 11
29197.604341291921
 21
2007.749496429288
 31
0.0
  0
LINE
  5
38CB
  8
YODOROGO
 10
29457.604341291921
 20
2027.749496429288
 30
0.0
 11
29385.604341291921
 21
2027.749496429288
 31
0.0
  0
LINE
  5
38CC
  8
YODOROGO
 10
29673.604341291921
 20
1707.749496429288
 30
0.0
 11
29673.604341291921
 21
1771.7494964292871
 31
0.0
1001
AUTOCAD_POSTSCRIPT_FIGURE
1002
{
1000
PSFILL
1000
Grayscale
1000
Grayscale
1070
    25
1002
}
  0
LINE
  5
38CD
  8
YODOROGO
 10
29617.604341291921
 20
1707.749496429288
 30
0.0
 11
29673.604341291921
 21
1707.749496429288
 31
0.0
1001
AUTOCAD_POSTSCRIPT_FIGURE
1002
{
1000
PSFILL
1000
Grayscale
1000
Grayscale
1070
    25
1002
}
  0
LINE
  5
38CE
  8
YODOROGO
 10
29617.604341291921
 20
1819.7494964292871
 30
0.0
 11
29617.604341291921
 21
1707.749496429288
 31
0.0
1001
AUTOCAD_POSTSCRIPT_FIGURE
1002
{
1000
PSFILL
1000
Grayscale
1000
Grayscale
1070
    25
1002
}
  0
LINE
  5
38CF
  8
YODOROGO
 10
29765.604341291921
 20
1819.7494964292871
 30
0.0
 11
29617.604341291921
 21
1819.7494964292871
 31
0.0
1001
AUTOCAD_POSTSCRIPT_FIGURE
1002
{
1000
PSFILL
1000
Grayscale
1000
Grayscale
1070
    25
1002
}
  0
LINE
  5
38D0
  8
YODOROGO
 10
29765.604341291921
 20
1859.7494964292871
 30
0.0
 11
29765.604341291921
 21
1819.7494964292871
 31
0.0
1001
AUTOCAD_POSTSCRIPT_FIGURE
1002
{
1000
PSFILL
1000
Grayscale
1000
Grayscale
1070
    25
1002
}
  0
LINE
  5
38D1
  8
YODOROGO
 10
29617.604341291921
 20
1859.7494964292871
 30
0.0
 11
29765.604341291921
 21
1859.7494964292871
 31
0.0
1001
AUTOCAD_POSTSCRIPT_FIGURE
1002
{
1000
PSFILL
1000
Grayscale
1000
Grayscale
1070
    25
1002
}
  0
LINE
  5
38D2
  8
YODOROGO
 10
29617.604341291921
 20
1907.7494964292871
 30
0.0
 11
29617.604341291921
 21
1859.7494964292871
 31
0.0
1001
AUTOCAD_POSTSCRIPT_FIGURE
1002
{
1000
PSFILL
1000
Grayscale
1000
Grayscale
1070
    25
1002
}
  0
LINE
  5
38D3
  8
YODOROGO
 10
29765.604341291921
 20
1907.7494964292871
 30
0.0
 11
29617.604341291921
 21
1907.7494964292871
 31
0.0
1001
AUTOCAD_POSTSCRIPT_FIGURE
1002
{
1000
PSFILL
1000
Grayscale
1000
Grayscale
1070
    25
1002
}
  0
LINE
  5
38D4
  8
YODOROGO
 10
29765.604341291921
 20
1947.749496429288
 30
0.0
 11
29765.604341291921
 21
1907.7494964292871
 31
0.0
1001
AUTOCAD_POSTSCRIPT_FIGURE
1002
{
1000
PSFILL
1000
Grayscale
1000
Grayscale
1070
    25
1002
}
  0
LINE
  5
38D5
  8
YODOROGO
 10
29617.604341291921
 20
1947.749496429288
 30
0.0
 11
29765.604341291921
 21
1947.749496429288
 31
0.0
1001
AUTOCAD_POSTSCRIPT_FIGURE
1002
{
1000
PSFILL
1000
Grayscale
1000
Grayscale
1070
    25
1002
}
  0
LINE
  5
38D6
  8
YODOROGO
 10
29617.604341291921
 20
2027.749496429288
 30
0.0
 11
29617.604341291921
 21
1947.749496429288
 31
0.0
1001
AUTOCAD_POSTSCRIPT_FIGURE
1002
{
1000
PSFILL
1000
Grayscale
1000
Grayscale
1070
    25
1002
}
  0
LINE
  5
38D7
  8
YODOROGO
 10
29665.604341291921
 20
2027.749496429288
 30
0.0
 11
29617.604341291921
 21
2027.749496429288
 31
0.0
1001
AUTOCAD_POSTSCRIPT_FIGURE
1002
{
1000
PSFILL
1000
Grayscale
1000
Grayscale
1070
    25
1002
}
  0
LINE
  5
38D8
  8
YODOROGO
 10
29665.604341291921
 20
1995.7494964292871
 30
0.0
 11
29665.604341291921
 21
2027.749496429288
 31
0.0
1001
AUTOCAD_POSTSCRIPT_FIGURE
1002
{
1000
PSFILL
1000
Grayscale
1000
Grayscale
1070
    25
1002
}
  0
LINE
  5
38D9
  8
YODOROGO
 10
29765.604341291921
 20
1995.7494964292871
 30
0.0
 11
29665.604341291921
 21
1995.7494964292871
 31
0.0
1001
AUTOCAD_POSTSCRIPT_FIGURE
1002
{
1000
PSFILL
1000
Grayscale
1000
Grayscale
1070
    25
1002
}
  0
LINE
  5
38DA
  8
YODOROGO
 10
29765.604341291921
 20
2027.749496429288
 30
0.0
 11
29765.604341291921
 21
1995.7494964292871
 31
0.0
1001
AUTOCAD_POSTSCRIPT_FIGURE
1002
{
1000
PSFILL
1000
Grayscale
1000
Grayscale
1070
    25
1002
}
  0
LINE
  5
38DB
  8
YODOROGO
 10
29829.604341291921
 20
2027.749496429288
 30
0.0
 11
29765.604341291921
 21
2027.749496429288
 31
0.0
1001
AUTOCAD_POSTSCRIPT_FIGURE
1002
{
1000
PSFILL
1000
Grayscale
1000
Grayscale
1070
    25
1002
}
  0
LINE
  5
38DC
  8
YODOROGO
 10
29829.604341291921
 20
1995.7494964292871
 30
0.0
 11
29829.604341291921
 21
2027.749496429288
 31
0.0
1001
AUTOCAD_POSTSCRIPT_FIGURE
1002
{
1000
PSFILL
1000
Grayscale
1000
Grayscale
1070
    25
1002
}
  0
LINE
  5
38DD
  8
YODOROGO
 10
29829.604341291921
 20
1907.7494964292871
 30
0.0
 11
29829.604341291921
 21
1947.749496429288
 31
0.0
1001
AUTOCAD_POSTSCRIPT_FIGURE
1002
{
1000
PSFILL
1000
Grayscale
1000
Grayscale
1070
    25
1002
}
  0
LINE
  5
38DE
  8
YODOROGO
 10
29829.604341291921
 20
1819.7494964292871
 30
0.0
 11
29829.604341291921
 21
1859.7494964292871
 31
0.0
1001
AUTOCAD_POSTSCRIPT_FIGURE
1002
{
1000
PSFILL
1000
Grayscale
1000
Grayscale
1070
    25
1002
}
  0
LINE
  5
38DF
  8
YODOROGO
 10
29921.60434129191
 20
1771.7494964292871
 30
0.0
 11
29921.60434129191
 21
1707.749496429288
 31
0.0
1001
AUTOCAD_POSTSCRIPT_FIGURE
1002
{
1000
PSFILL
1000
Grayscale
1000
Grayscale
1070
    25
1002
}
  0
LINE
  5
38E0
  8
YODOROGO
 10
29829.604341291921
 20
1771.7494964292871
 30
0.0
 11
29921.60434129191
 21
1771.7494964292871
 31
0.0
1001
AUTOCAD_POSTSCRIPT_FIGURE
1002
{
1000
PSFILL
1000
Grayscale
1000
Grayscale
1070
    25
1002
}
  0
LINE
  5
38E1
  8
YODOROGO
 10
29829.604341291921
 20
1707.749496429288
 30
0.0
 11
29829.604341291921
 21
1771.7494964292871
 31
0.0
1001
AUTOCAD_POSTSCRIPT_FIGURE
1002
{
1000
PSFILL
1000
Grayscale
1000
Grayscale
1070
    25
1002
}
  0
LINE
  5
38E2
  8
YODOROGO
 10
29765.604341291921
 20
1707.749496429288
 30
0.0
 11
29829.604341291921
 21
1707.749496429288
 31
0.0
1001
AUTOCAD_POSTSCRIPT_FIGURE
1002
{
1000
PSFILL
1000
Grayscale
1000
Grayscale
1070
    25
1002
}
  0
LINE
  5
38E3
  8
YODOROGO
 10
29765.604341291921
 20
1771.7494964292871
 30
0.0
 11
29765.604341291921
 21
1707.749496429288
 31
0.0
1001
AUTOCAD_POSTSCRIPT_FIGURE
1002
{
1000
PSFILL
1000
Grayscale
1000
Grayscale
1070
    25
1002
}
  0
LINE
  5
38E4
  8
YODOROGO
 10
29673.604341291921
 20
1771.7494964292871
 30
0.0
 11
29765.604341291921
 21
1771.7494964292871
 31
0.0
1001
AUTOCAD_POSTSCRIPT_FIGURE
1002
{
1000
PSFILL
1000
Grayscale
1000
Grayscale
1070
    25
1002
}
  0
ARC
  5
38E5
  8
YODOROGO
 10
31059.517893357912
 20
1602.6807375155761
 30
0.0
 40
178.22128111072141
 50
281.02627495425338
 51
357.77113575573799
  0
LINE
  5
38E6
  8
YODOROGO
 10
31413.604341291921
 20
1907.7494964292871
 30
0.0
 11
31165.604341291921
 21
1907.7494964292871
 31
0.0
  0
LINE
  5
38E7
  8
YODOROGO
 10
31413.604341291921
 20
2027.749496429288
 30
0.0
 11
31165.604341291921
 21
2027.749496429288
 31
0.0
  0
LINE
  5
38E8
  8
YODOROGO
 10
31165.604341291921
 20
1963.749496429286
 30
0.0
 11
31413.604341291921
 21
1963.749496429286
 31
0.0
  0
LINE
  5
38E9
  8
YODOROGO
 10
30791.604341291921
 20
1563.7494964292871
 30
0.0
 11
30791.604341291921
 21
1755.7494964292871
 31
0.0
  0
LINE
  5
38EA
  8
YODOROGO
 10
30763.604341291921
 20
1691.749496429288
 30
0.0
 11
30763.604341291921
 21
1563.7494964292871
 31
0.0
  0
LINE
  5
38EB
  8
YODOROGO
 10
30723.604341291921
 20
1491.749496429288
 30
0.0
 11
30723.604341291921
 21
1691.749496429288
 31
0.0
  0
LINE
  5
38EC
  8
YODOROGO
 10
30899.604341291932
 20
1691.749496429288
 30
0.0
 11
30899.604341291932
 21
1491.749496429288
 31
0.0
  0
LINE
  5
38ED
  8
YODOROGO
 10
30859.604341291932
 20
1563.7494964292871
 30
0.0
 11
30859.604341291932
 21
1691.749496429288
 31
0.0
  0
LINE
  5
38EE
  8
YODOROGO
 10
30831.604341291921
 20
1755.7494964292871
 30
0.0
 11
30831.604341291921
 21
1563.7494964292871
 31
0.0
  0
LINE
  5
38EF
  8
YODOROGO
 10
30973.604341291921
 20
2027.749496429288
 30
0.0
 11
30973.604341291921
 21
1467.749496429288
 31
0.0
  0
LINE
  5
38F0
  8
YODOROGO
 10
30645.604341291921
 20
1427.749496429288
 30
0.0
 11
30645.604341291921
 21
2027.749496429288
 31
0.0
  0
LINE
  5
38F1
  8
YODOROGO
 10
30697.604341291932
 20
1963.749496429286
 30
0.0
 11
30697.604341291932
 21
1427.749496429288
 31
0.0
  0
LINE
  5
38F2
  8
YODOROGO
 10
30925.604341291921
 20
1547.749496429288
 30
0.0
 11
30925.604341291921
 21
1963.749496429286
 31
0.0
  0
LINE
  5
38F3
  8
YODOROGO
 10
30381.604341291932
 20
1627.749496429288
 30
0.0
 11
30381.604341291932
 21
1679.749496429288
 31
0.0
  0
LINE
  5
38F4
  8
YODOROGO
 10
30617.604341291921
 20
1679.749496429288
 30
0.0
 11
30617.604341291921
 21
1627.749496429288
 31
0.0
  0
LINE
  5
38F5
  8
YODOROGO
 10
31165.604341291921
 20
1907.7494964292871
 30
0.0
 11
31165.604341291921
 21
1635.7494964292871
 31
0.0
  0
LINE
  5
38F6
  8
YODOROGO
 10
29949.60434129191
 20
1667.749496429288
 30
0.0
 11
29949.60434129191
 21
1707.749496429288
 31
0.0
  0
LINE
  5
38F7
  8
YODOROGO
 10
29949.60434129191
 20
1667.749496429288
 30
0.0
 11
29949.60434129191
 21
1707.749496429288
 31
0.0
  0
ARC
  5
38F8
  8
YODOROGO
 10
30537.604341291921
 20
1507.749496429288
 30
0.0
 40
80.0
 50
270.0
 51
0.0
  0
LINE
  5
38F9
  8
YODOROGO
 10
30569.604341291921
 20
1599.7494964292871
 30
0.0
 11
30617.604341291921
 21
1599.7494964292871
 31
0.0
  0
LINE
  5
38FA
  8
YODOROGO
 10
30617.604341291921
 20
1627.749496429288
 30
0.0
 11
30529.604341291939
 21
1627.749496429288
 31
0.0
  0
LINE
  5
38FB
  8
YODOROGO
 10
30217.604341291921
 20
1667.749496429288
 30
0.0
 11
29949.60434129191
 21
1667.749496429288
 31
0.0
  0
LINE
  5
38FC
  8
YODOROGO
 10
30217.604341291921
 20
1627.749496429288
 30
0.0
 11
30217.604341291921
 21
1667.749496429288
 31
0.0
  0
LINE
  5
38FD
  8
YODOROGO
 10
30017.604341291921
 20
1627.749496429288
 30
0.0
 11
30217.604341291921
 21
1627.749496429288
 31
0.0
  0
ARC
  5
38FE
  8
YODOROGO
 10
30230.05882870136
 20
1868.885714952901
 30
0.0
 40
321.37763628522822
 50
228.61814546189939
 51
245.660289248906
  0
LINE
  5
38FF
  8
YODOROGO
 10
30105.604341291921
 20
1603.7494964292871
 30
0.0
 11
30097.60434129195
 21
1576.0728158699001
 31
0.0
  0
LINE
  5
3900
  8
YODOROGO
 10
30189.604341291921
 20
1603.7494964292871
 30
0.0
 11
30105.604341291921
 21
1603.7494964292871
 31
0.0
  0
LINE
  5
3901
  8
YODOROGO
 10
30177.604341291921
 20
1551.817722473427
 30
0.0
 11
30189.604341291921
 21
1603.7494964292871
 31
0.0
  0
ARC
  5
3902
  8
YODOROGO
 10
30230.05882870045
 20
1868.8857149530011
 30
0.0
 40
321.37763628529081
 50
260.60629297969911
 51
267.77903556555862
  0
LINE
  5
3903
  8
YODOROGO
 10
30217.604341291921
 20
1427.749496429285
 30
0.0
 11
30217.604341291921
 21
1547.749496429288
 31
0.0
  0
LINE
  5
3904
  8
YODOROGO
 10
29937.604341291932
 20
1481.3393349155101
 30
0.0
 11
29937.604341291921
 21
1594.5310905311401
 31
0.0
  0
LINE
  5
3905
  8
YODOROGO
 10
30217.604341291921
 20
1667.749496429288
 30
0.0
 11
29949.60434129191
 21
1667.749496429288
 31
0.0
  0
LINE
  5
3906
  8
YODOROGO
 10
30217.604341291921
 20
1627.749496429288
 30
0.0
 11
30217.604341291921
 21
1667.749496429288
 31
0.0
  0
LINE
  5
3907
  8
YODOROGO
 10
30017.604341291921
 20
1627.749496429288
 30
0.0
 11
30217.604341291921
 21
1627.749496429288
 31
0.0
  0
ARC
  5
3908
  8
YODOROGO
 10
30230.05882870136
 20
1868.885714952901
 30
0.0
 40
321.37763628522822
 50
228.61814546189939
 51
245.660289248906
  0
LINE
  5
3909
  8
YODOROGO
 10
30105.604341291921
 20
1603.7494964292871
 30
0.0
 11
30097.60434129195
 21
1576.0728158699001
 31
0.0
  0
LINE
  5
390A
  8
YODOROGO
 10
30189.604341291921
 20
1603.7494964292871
 30
0.0
 11
30105.604341291921
 21
1603.7494964292871
 31
0.0
  0
LINE
  5
390B
  8
YODOROGO
 10
30177.604341291921
 20
1551.817722473427
 30
0.0
 11
30189.604341291921
 21
1603.7494964292871
 31
0.0
  0
ARC
  5
390C
  8
YODOROGO
 10
30230.05882870045
 20
1868.8857149530011
 30
0.0
 40
321.37763628529081
 50
260.60629297969911
 51
267.77903556555862
  0
LINE
  5
390D
  8
YODOROGO
 10
30217.604341291921
 20
1427.749496429285
 30
0.0
 11
30217.604341291921
 21
1547.749496429288
 31
0.0
  0
LINE
  5
390E
  8
YODOROGO
 10
29937.604341291932
 20
1481.3393349155101
 30
0.0
 11
29937.604341291921
 21
1594.5310905311401
 31
0.0
  0
LINE
  5
390F
  8
YODOROGO
 10
30433.604341291921
 20
1573.749496429288
 30
0.0
 11
30381.604341291932
 21
1573.749496429288
 31
0.0
  0
LINE
  5
3910
  8
YODOROGO
 10
30433.604341291921
 20
1601.749496429285
 30
0.0
 11
30433.604341291921
 21
1573.749496429288
 31
0.0
  0
LINE
  5
3911
  8
YODOROGO
 10
30381.604341291932
 20
1601.749496429285
 30
0.0
 11
30433.604341291921
 21
1601.749496429285
 31
0.0
  0
LINE
  5
3912
  8
YODOROGO
 10
30381.604341291932
 20
1573.749496429288
 30
0.0
 11
30381.604341291932
 21
1601.749496429285
 31
0.0
  0
LINE
  5
3913
  8
YODOROGO
 10
30429.604341291921
 20
1577.7494964292871
 30
0.0
 11
30385.604341291921
 21
1577.7494964292871
 31
0.0
  0
LINE
  5
3914
  8
YODOROGO
 10
30429.604341291921
 20
1597.749496429288
 30
0.0
 11
30429.604341291921
 21
1577.7494964292871
 31
0.0
  0
LINE
  5
3915
  8
YODOROGO
 10
30385.604341291921
 20
1597.749496429288
 30
0.0
 11
30429.604341291921
 21
1597.749496429288
 31
0.0
  0
LINE
  5
3916
  8
YODOROGO
 10
30385.604341291921
 20
1577.7494964292871
 30
0.0
 11
30385.604341291921
 21
1597.749496429288
 31
0.0
  0
LINE
  5
3917
  8
YODOROGO
 10
30425.604341291921
 20
1581.749496429286
 30
0.0
 11
30389.604341291921
 21
1581.749496429286
 31
0.0
  0
LINE
  5
3918
  8
YODOROGO
 10
30425.604341291921
 20
1593.7494964292871
 30
0.0
 11
30425.604341291921
 21
1581.749496429286
 31
0.0
  0
LINE
  5
3919
  8
YODOROGO
 10
30389.604341291921
 20
1593.7494964292871
 30
0.0
 11
30425.604341291921
 21
1593.7494964292871
 31
0.0
  0
LINE
  5
391A
  8
YODOROGO
 10
30389.604341291921
 20
1581.749496429286
 30
0.0
 11
30389.604341291921
 21
1593.7494964292871
 31
0.0
  0
LINE
  5
391B
  8
YODOROGO
 10
30421.604341291932
 20
1585.7494964292871
 30
0.0
 11
30393.604341291921
 21
1585.7494964292871
 31
0.0
  0
LINE
  5
391C
  8
YODOROGO
 10
30421.604341291932
 20
1589.749496429288
 30
0.0
 11
30421.604341291932
 21
1585.7494964292871
 31
0.0
  0
LINE
  5
391D
  8
YODOROGO
 10
30393.604341291921
 20
1589.749496429288
 30
0.0
 11
30421.604341291932
 21
1589.749496429288
 31
0.0
  0
LINE
  5
391E
  8
YODOROGO
 10
30393.604341291921
 20
1585.7494964292871
 30
0.0
 11
30393.604341291921
 21
1589.749496429288
 31
0.0
  0
LINE
  5
391F
  8
YODOROGO
 10
30465.604341291921
 20
1627.749496429288
 30
0.0
 11
30381.604341291932
 21
1627.749496429288
 31
0.0
  0
LINE
  5
3920
  8
YODOROGO
 10
30465.604341291921
 20
1547.749496429288
 30
0.0
 11
30465.604341291921
 21
1627.749496429288
 31
0.0
  0
LINE
  5
3921
  8
YODOROGO
 10
30381.604341291932
 20
1547.749496429288
 30
0.0
 11
30465.604341291921
 21
1547.749496429288
 31
0.0
  0
LINE
  5
3922
  8
YODOROGO
 10
30381.604341291932
 20
1427.749496429288
 30
0.0
 11
30381.604341291932
 21
1547.749496429288
 31
0.0
  0
LINE
  5
3923
  8
YODOROGO
 10
30537.604341291921
 20
1427.749496429288
 30
0.0
 11
30381.604341291932
 21
1427.749496429288
 31
0.0
  0
LINE
  5
3924
  8
YODOROGO
 10
30569.604341291921
 20
1571.749496429285
 30
0.0
 11
30569.604341291921
 21
1599.7494964292871
 31
0.0
  0
ARC
  5
3925
  8
YODOROGO
 10
30545.604341291921
 20
1571.749496429291
 30
0.0
 40
24.000000000003752
 50
270.0
 51
359.99999999998772
  0
LINE
  5
3926
  8
YODOROGO
 10
30529.604341291939
 20
1547.749496429288
 30
0.0
 11
30545.604341291921
 21
1547.749496429288
 31
0.0
  0
LINE
  5
3927
  8
YODOROGO
 10
30529.604341291939
 20
1627.749496429288
 30
0.0
 11
30529.604341291939
 21
1547.749496429288
 31
0.0
  0
LINE
  5
3928
  8
YODOROGO
 10
30899.604341291932
 20
1547.749496429288
 30
0.0
 11
30925.604341291921
 21
1547.749496429288
 31
0.0
  0
LINE
  5
3929
  8
YODOROGO
 10
30933.604341291921
 20
1427.749496429288
 30
0.0
 11
30899.604341291932
 21
1427.749496429288
 31
0.0
  0
LINE
  5
392A
  8
YODOROGO
 10
30763.604341291921
 20
1563.7494964292871
 30
0.0
 11
30791.604341291921
 21
1563.7494964292871
 31
0.0
  0
LINE
  5
392B
  8
YODOROGO
 10
30899.604341291932
 20
1491.749496429288
 30
0.0
 11
30723.604341291921
 21
1491.749496429288
 31
0.0
  0
LINE
  5
392C
  8
YODOROGO
 10
30831.604341291921
 20
1563.7494964292871
 30
0.0
 11
30859.604341291932
 21
1563.7494964292871
 31
0.0
  0
LINE
  5
392D
  8
YODOROGO
 10
30899.604341291932
 20
1427.749496429288
 30
0.0
 11
30899.604341291932
 21
1547.749496429288
 31
0.0
  0
LINE
  5
392E
  8
YODOROGO
 10
30697.604341291932
 20
1427.749496429288
 30
0.0
 11
30645.604341291921
 21
1427.749496429288
 31
0.0
  0
LINE
  5
392F
  8
YODOROGO
 10
30617.604341291921
 20
1599.7494964292871
 30
0.0
 11
30617.604341291921
 21
1507.749496429288
 31
0.0
  0
ARC
  5
3930
  8
YODOROGO
 10
30933.604341291921
 20
1467.749496429288
 30
0.0
 40
40.0
 50
270.0
 51
0.0
  0
LINE
  5
3931
  8
YODOROGO
 10
31093.604341291921
 20
1523.7494964292871
 30
0.0
 11
31093.604341291921
 21
1427.749496429288
 31
0.0
  0
ARC
  5
3932
  8
YODOROGO
 10
31039.721395566768
 20
1637.5313901097329
 30
0.0
 40
125.8955565916754
 50
295.34052442160117
 51
359.18902303418679
  0
LINE
  5
3933
  8
YODOROGO
 10
30617.604341291921
 20
1859.7494964292871
 30
0.0
 11
30497.604341291921
 21
1939.749496429288
 31
0.0
  0
LINE
  5
3934
  8
YODOROGO
 10
30497.604341291921
 20
2027.749496429288
 30
0.0
 11
30617.604341291921
 21
1947.749496429288
 31
0.0
  0
LINE
  5
3935
  8
YODOROGO
 10
30529.604341291939
 20
1679.749496429288
 30
0.0
 11
30617.604341291921
 21
1679.749496429288
 31
0.0
  0
LINE
  5
3936
  8
YODOROGO
 10
30617.604341291921
 20
1735.7494964292871
 30
0.0
 11
30529.604341291939
 21
1735.7494964292871
 31
0.0
  0
LINE
  5
3937
  8
YODOROGO
 10
30381.604341291932
 20
1795.7494964292871
 30
0.0
 11
30617.604341291921
 21
1795.7494964292871
 31
0.0
  0
LINE
  5
3938
  8
YODOROGO
 10
30081.604341291921
 20
2027.749496429288
 30
0.0
 11
30021.604341291921
 21
2027.749496429288
 31
0.0
  0
LINE
  5
3939
  8
YODOROGO
 10
30081.604341291921
 20
1827.7494964292871
 30
0.0
 11
30081.604341291921
 21
2027.749496429288
 31
0.0
  0
LINE
  5
393A
  8
YODOROGO
 10
30021.604341291921
 20
1827.7494964292871
 30
0.0
 11
30081.604341291921
 21
1827.7494964292871
 31
0.0
  0
LINE
  5
393B
  8
YODOROGO
 10
30021.604341291921
 20
2027.749496429288
 30
0.0
 11
30021.604341291921
 21
1827.7494964292871
 31
0.0
  0
LINE
  5
393C
  8
YODOROGO
 10
30161.604341291921
 20
2027.749496429288
 30
0.0
 11
30217.604341291921
 21
2027.749496429288
 31
0.0
  0
LINE
  5
393D
  8
YODOROGO
 10
30161.604341291921
 20
1811.7494964292871
 30
0.0
 11
30161.604341291921
 21
2027.749496429288
 31
0.0
  0
ARC
  5
393E
  8
YODOROGO
 10
30121.604341291921
 20
1811.7494964292871
 30
0.0
 40
40.0
 50
270.0
 51
0.0
  0
LINE
  5
393F
  8
YODOROGO
 10
30021.604341291921
 20
1771.7494964292871
 30
0.0
 11
30121.604341291921
 21
1771.7494964292871
 31
0.0
  0
LINE
  5
3940
  8
YODOROGO
 10
30021.604341291921
 20
1707.749496429288
 30
0.0
 11
30021.604341291921
 21
1771.7494964292871
 31
0.0
  0
LINE
  5
3941
  8
YODOROGO
 10
30137.604341291921
 20
1707.749496429288
 30
0.0
 11
30021.604341291921
 21
1707.749496429288
 31
0.0
  0
ARC
  5
3942
  8
YODOROGO
 10
30137.604341291921
 20
1787.7494964292871
 30
0.0
 40
80.0
 50
270.0
 51
0.0
  0
LINE
  5
3943
  8
YODOROGO
 10
30217.604341291921
 20
2027.749496429288
 30
0.0
 11
30217.604341291921
 21
1787.7494964292871
 31
0.0
  0
LINE
  5
3944
  8
YODOROGO
 10
29977.604341291921
 20
1947.749496429288
 30
0.0
 11
29977.604341291921
 21
1995.7494964292871
 31
0.0
1001
AUTOCAD_POSTSCRIPT_FIGURE
1002
{
1000
PSFILL
1000
Grayscale
1000
Grayscale
1070
    25
1002
}
  0
LINE
  5
3945
  8
YODOROGO
 10
29977.604341291921
 20
1859.7494964292871
 30
0.0
 11
29977.604341291921
 21
1907.7494964292871
 31
0.0
1001
AUTOCAD_POSTSCRIPT_FIGURE
1002
{
1000
PSFILL
1000
Grayscale
1000
Grayscale
1070
    25
1002
}
  0
LINE
  5
3946
  8
YODOROGO
 10
29977.604341291921
 20
1707.749496429288
 30
0.0
 11
29977.604341291921
 21
1819.7494964292871
 31
0.0
1001
AUTOCAD_POSTSCRIPT_FIGURE
1002
{
1000
PSFILL
1000
Grayscale
1000
Grayscale
1070
    25
1002
}
  0
LINE
  5
3947
  8
YODOROGO
 10
30381.604341291932
 20
1907.7494964292871
 30
0.0
 11
30497.604341291921
 21
2027.749496429288
 31
0.0
  0
LINE
  5
3948
  8
YODOROGO
 10
30381.604341291932
 20
1819.7494964292871
 30
0.0
 11
30381.604341291932
 21
1907.7494964292871
 31
0.0
  0
LINE
  5
3949
  8
YODOROGO
 10
30497.604341291921
 20
1939.749496429288
 30
0.0
 11
30381.604341291932
 21
1819.7494964292871
 31
0.0
  0
LINE
  5
394A
  8
YODOROGO
 10
30465.604341291921
 20
1679.749496429288
 30
0.0
 11
30465.604341291921
 21
1735.7494964292871
 31
0.0
  0
LINE
  5
394B
  8
YODOROGO
 10
30381.604341291932
 20
1679.749496429288
 30
0.0
 11
30465.604341291921
 21
1679.749496429288
 31
0.0
  0
LINE
  5
394C
  8
YODOROGO
 10
30529.604341291939
 20
1735.7494964292871
 30
0.0
 11
30529.604341291939
 21
1679.749496429288
 31
0.0
  0
LINE
  5
394D
  8
YODOROGO
 10
30381.604341291932
 20
1735.7494964292871
 30
0.0
 11
30381.604341291932
 21
1795.7494964292871
 31
0.0
  0
LINE
  5
394E
  8
YODOROGO
 10
30465.604341291921
 20
1735.7494964292871
 30
0.0
 11
30381.604341291932
 21
1735.7494964292871
 31
0.0
  0
LINE
  5
394F
  8
YODOROGO
 10
30645.604341291921
 20
2027.749496429288
 30
0.0
 11
30973.604341291921
 21
2027.749496429288
 31
0.0
  0
LINE
  5
3950
  8
YODOROGO
 10
30925.604341291921
 20
1963.749496429286
 30
0.0
 11
30697.604341291932
 21
1963.749496429286
 31
0.0
  0
LINE
  5
3951
  8
YODOROGO
 10
30873.604341291921
 20
1819.7494964292871
 30
0.0
 11
30899.604341291932
 21
1819.7494964292871
 31
0.0
  0
LINE
  5
3952
  8
YODOROGO
 10
30899.604341291932
 20
1939.749496429288
 30
0.0
 11
30873.604341291921
 21
1819.7494964292871
 31
0.0
  0
LINE
  5
3953
  8
YODOROGO
 10
30851.604341291939
 20
1939.749496429288
 30
0.0
 11
30899.604341291932
 21
1939.749496429288
 31
0.0
  0
LINE
  5
3954
  8
YODOROGO
 10
30825.604341291921
 20
1819.7494964292871
 30
0.0
 11
30851.604341291939
 21
1939.749496429288
 31
0.0
  0
LINE
  5
3955
  8
YODOROGO
 10
30797.604341291921
 20
1819.7494964292871
 30
0.0
 11
30825.604341291921
 21
1819.7494964292871
 31
0.0
  0
LINE
  5
3956
  8
YODOROGO
 10
30771.604341291939
 20
1939.749496429288
 30
0.0
 11
30797.604341291921
 21
1819.7494964292871
 31
0.0
  0
LINE
  5
3957
  8
YODOROGO
 10
30723.604341291921
 20
1939.749496429288
 30
0.0
 11
30771.604341291939
 21
1939.749496429288
 31
0.0
  0
LINE
  5
3958
  8
YODOROGO
 10
30749.604341291921
 20
1819.7494964292871
 30
0.0
 11
30723.604341291921
 21
1939.749496429288
 31
0.0
  0
LINE
  5
3959
  8
YODOROGO
 10
30723.604341291921
 20
1819.7494964292871
 30
0.0
 11
30749.604341291921
 21
1819.7494964292871
 31
0.0
  0
LINE
  5
395A
  8
YODOROGO
 10
30723.604341291921
 20
1755.7494964292871
 30
0.0
 11
30723.604341291921
 21
1819.7494964292871
 31
0.0
  0
LINE
  5
395B
  8
YODOROGO
 10
30899.604341291932
 20
1755.7494964292871
 30
0.0
 11
30723.604341291921
 21
1755.7494964292871
 31
0.0
  0
LINE
  5
395C
  8
YODOROGO
 10
30899.604341291932
 20
1819.7494964292871
 30
0.0
 11
30899.604341291932
 21
1755.7494964292871
 31
0.0
  0
LINE
  5
395D
  8
YODOROGO
 10
30617.604341291921
 20
1947.749496429288
 30
0.0
 11
30617.604341291921
 21
1859.7494964292871
 31
0.0
  0
LINE
  5
395E
  8
YODOROGO
 10
30791.604341291921
 20
1755.7494964292871
 30
0.0
 11
30831.604341291921
 21
1755.7494964292871
 31
0.0
  0
LINE
  5
395F
  8
YODOROGO
 10
30723.604341291921
 20
1691.749496429288
 30
0.0
 11
30763.604341291921
 21
1691.749496429288
 31
0.0
  0
LINE
  5
3960
  8
YODOROGO
 10
30859.604341291932
 20
1691.749496429288
 30
0.0
 11
30899.604341291932
 21
1691.749496429288
 31
0.0
  0
LINE
  5
3961
  8
YODOROGO
 10
30617.604341291921
 20
1795.7494964292871
 30
0.0
 11
30617.604341291921
 21
1735.7494964292871
 31
0.0
  0
LINE
  5
3962
  8
YODOROGO
 10
31165.604341291921
 20
2027.749496429288
 30
0.0
 11
31165.604341291921
 21
1963.749496429286
 31
0.0
  0
LINE
  5
3963
  8
YODOROGO
 10
31533.604341291921
 20
1595.7494964292871
 30
0.0
 11
31533.60434129191
 21
1811.7494964292871
 31
0.0
  0
LINE
  5
3964
  8
YODOROGO
 10
31461.60434129191
 20
1987.7494964292871
 30
0.0
 11
31461.60434129191
 21
1635.7494964292871
 31
0.0
  0
LINE
  5
3965
  8
YODOROGO
 10
31653.604341291921
 20
1427.749496429288
 30
0.0
 11
31653.60434129191
 21
1811.7494964292871
 31
0.0
  0
LINE
  5
3966
  8
YODOROGO
 10
31589.604341291921
 20
1811.7494964292871
 30
0.0
 11
31589.604341291921
 21
1427.749496429288
 31
0.0
  0
LINE
  5
3967
  8
YODOROGO
 10
31237.604341291921
 20
1595.7494964292871
 30
0.0
 11
31237.604341291921
 21
1707.749496429288
 31
0.0
  0
ARC
  5
3968
  8
YODOROGO
 10
31353.914865116069
 20
1607.790351288558
 30
0.0
 40
180.09244857598841
 50
268.62849102169793
 51
356.16638457330322
  0
LINE
  5
3969
  8
YODOROGO
 10
31349.604341291939
 20
1527.749496429288
 30
0.0
 11
31349.604341291939
 21
1427.749496429288
 31
0.0
  0
ARC
  5
396A
  8
YODOROGO
 10
31351.518075724562
 20
1637.838957017655
 30
0.0
 40
110.1060929836122
 50
269.00410209305932
 51
358.91264455492478
  0
LINE
  5
396B
  8
YODOROGO
 10
31589.604341291921
 20
1427.749496429288
 30
0.0
 11
31653.604341291921
 21
1427.749496429288
 31
0.0
  0
LINE
  5
396C
  8
YODOROGO
 10
31533.60434129191
 20
1811.7494964292871
 30
0.0
 11
31589.604341291921
 21
1811.7494964292871
 31
0.0
  0
LINE
  5
396D
  8
YODOROGO
 10
31621.604341291939
 20
1987.7494964292871
 30
0.0
 11
31461.60434129191
 21
1987.7494964292871
 31
0.0
  0
LINE
  5
396E
  8
YODOROGO
 10
31533.60434129191
 20
1915.7494964292871
 30
0.0
 11
31661.604341291939
 21
1915.7494964292871
 31
0.0
  0
LINE
  5
396F
  8
YODOROGO
 10
31701.604341291939
 20
1875.7494964292871
 30
0.0
 11
31533.60434129191
 21
1875.7494964292871
 31
0.0
  0
LINE
  5
3970
  8
YODOROGO
 10
31237.604341291921
 20
1779.7494964292871
 30
0.0
 11
31349.604341291939
 21
1779.7494964292871
 31
0.0
  0
LINE
  5
3971
  8
YODOROGO
 10
31237.604341291921
 20
1835.7494964292871
 30
0.0
 11
31237.604341291921
 21
1779.7494964292871
 31
0.0
  0
LINE
  5
3972
  8
YODOROGO
 10
31349.604341291939
 20
1835.7494964292871
 30
0.0
 11
31237.604341291921
 21
1835.7494964292871
 31
0.0
  0
LINE
  5
3973
  8
YODOROGO
 10
31349.604341291939
 20
1779.7494964292871
 30
0.0
 11
31349.604341291939
 21
1835.7494964292871
 31
0.0
  0
LINE
  5
3974
  8
YODOROGO
 10
31533.60434129191
 20
1875.7494964292871
 30
0.0
 11
31533.60434129191
 21
1915.7494964292871
 31
0.0
  0
LINE
  5
3975
  8
YODOROGO
 10
31413.604341291921
 20
1707.749496429288
 30
0.0
 11
31413.604341291921
 21
1907.7494964292871
 31
0.0
  0
LINE
  5
3976
  8
YODOROGO
 10
31237.604341291921
 20
1707.749496429288
 30
0.0
 11
31413.604341291921
 21
1707.749496429288
 31
0.0
  0
LINE
  5
3977
  8
YODOROGO
 10
31413.604341291921
 20
1963.749496429286
 30
0.0
 11
31413.604341291921
 21
2027.749496429288
 31
0.0
  0
ARC
  5
3978
  8
YODOROGO
 10
31621.604341291939
 20
2003.749496429285
 30
0.0
 40
15.999999999994539
 50
270.0
 51
0.0000000000081422
  0
LINE
  5
3979
  8
YODOROGO
 10
31637.604341291921
 20
2027.749496429288
 30
0.0
 11
31637.604341291921
 21
2003.7494964292871
 31
0.0
  0
LINE
  5
397A
  8
YODOROGO
 10
31701.604341291939
 20
2027.749496429288
 30
0.0
 11
31637.604341291921
 21
2027.749496429288
 31
0.0
  0
LINE
  5
397B
  8
YODOROGO
 10
31701.604341291939
 20
1955.7494964292871
 30
0.0
 11
31701.604341291939
 21
2027.749496429288
 31
0.0
  0
ARC
  5
397C
  8
YODOROGO
 10
31661.604341291939
 20
1955.7494964292871
 30
0.0
 40
40.0
 50
270.0
 51
0.0
  0
LINE
  5
397D
  8
YODOROGO
 10
31701.604341291939
 20
1811.7494964292871
 30
0.0
 11
31701.604341291939
 21
1875.7494964292871
 31
0.0
  0
LINE
  5
397E
  8
YODOROGO
 10
31653.60434129191
 20
1811.7494964292871
 30
0.0
 11
31701.604341291939
 21
1811.7494964292871
 31
0.0
  0
LINE
  5
397F
  8
SUNPOU
  6
CONTINUOUS
 62
     4
 10
8566.0878219999686
 20
14235.534574999991
 30
0.0
 11
8566.0878219999686
 21
13037.59017299999
 31
0.0
  0
LINE
  5
3980
  8
SUNPOU
  6
CONTINUOUS
 62
     4
 10
13521.58861399996
 20
14235.534574999991
 30
0.0
 11
13521.58861399996
 21
13037.59017299999
 31
0.0
  0
LINE
  5
3981
  8
SUNPOU
  6
CONTINUOUS
 62
     4
 10
8566.0878219999686
 20
13117.59017299999
 30
0.0
 11
13521.58861399996
 21
13117.59017299999
 31
0.0
  0
LINE
  5
3982
  8
SUNPOU
  6
CONTINUOUS
 62
     4
 10
8489.083862999978
 20
14315.534574999991
 30
0.0
 11
7642.0884419999793
 21
14315.534574999991
 31
0.0
  0
LINE
  5
3983
  8
SUNPOU
  6
CONTINUOUS
 62
     4
 10
7722.0884419999793
 20
14508.03582899998
 30
0.0
 11
7722.0884419999793
 21
14315.534574999991
 31
0.0
  0
LINE
  5
3984
  8
SUNPOU
  6
CONTINUOUS
 62
     4
 10
7722.0884419999829
 20
17075.535829
 30
0.0
 11
7722.0884419999829
 21
14508.035828999989
 31
0.0
  0
LINE
  5
3985
  8
SUNPOU
  6
CONTINUOUS
 62
     4
 10
8489.083862999978
 20
19855.531738000009
 30
0.0
 11
8042.0884419999747
 21
19855.531738000009
 31
0.0
  0
LINE
  5
3986
  8
SUNPOU
  6
CONTINUOUS
 62
     4
 10
8489.0882179999735
 20
19865.531738000001
 30
0.0
 11
8042.0884419999747
 21
19865.531738000001
 31
0.0
  0
LINE
  5
3987
  8
SUNPOU
  6
CONTINUOUS
 62
     4
 10
8122.0884419999793
 20
19855.531738000009
 30
0.0
 11
8122.0884419999793
 21
19615.531738000009
 31
0.0
  0
LINE
  5
3988
  8
SUNPOU
  6
CONTINUOUS
 62
     4
 10
8122.0884419999793
 20
19865.531738000001
 30
0.0
 11
8122.0884419999793
 21
20105.531738000031
 31
0.0
  0
LINE
  5
3989
  8
SUNPOU
  6
CONTINUOUS
 62
     4
 10
8122.0884419999793
 20
19855.531738000009
 30
0.0
 11
8122.0884419999793
 21
19865.531738000001
 31
0.0
  0
LINE
  5
398A
  8
SUNPOU
  6
CONTINUOUS
 62
     4
 10
8489.0882179999735
 20
19865.531738000001
 30
0.0
 11
7642.0884419999747
 21
19865.531738000001
 31
0.0
  0
LINE
  5
398B
  8
SUNPOU
  6
CONTINUOUS
 62
     4
 10
7722.0884419999793
 20
19643.035829
 30
0.0
 11
7722.0884419999793
 21
19865.531738000001
 31
0.0
  0
LINE
  5
398C
  8
SUNPOU
  6
CONTINUOUS
 62
     4
 10
7722.0884419999793
 20
17075.535829
 30
0.0
 11
7722.0884419999793
 21
19643.035829
 31
0.0
  0
LINE
  5
398D
  8
SUNPOU
  6
CONTINUOUS
 62
     4
 10
13521.588217999961
 20
19945.535697000021
 30
0.0
 11
13521.588217999961
 21
20495.540976000011
 31
0.0
  0
LINE
  5
398E
  8
SUNPOU
  6
CONTINUOUS
 62
     4
 10
13436.08821799997
 20
20415.540976000011
 30
0.0
 11
13196.08821799997
 21
20415.540976000011
 31
0.0
  0
LINE
  5
398F
  8
SUNPOU
  6
CONTINUOUS
 62
     4
 10
13518.588217999961
 20
20415.540976000011
 30
0.0
 11
13758.588217999961
 21
20415.540976000011
 31
0.0
  0
LINE
  5
3990
  8
SUNPOU
  6
CONTINUOUS
 62
     4
 10
13436.08821799997
 20
20415.540976000011
 30
0.0
 11
13518.588217999961
 21
20415.540976000011
 31
0.0
  0
LINE
  5
3991
  8
SUNPOU
  6
CONTINUOUS
 62
     4
 10
11569.58821799997
 20
20415.540976000011
 30
0.0
 11
13436.08821799997
 21
20415.540976000011
 31
0.0
  0
LINE
  5
3992
  8
SUNPOU
  6
CONTINUOUS
 62
     4
 10
8566.0882179999735
 20
19945.535697000021
 30
0.0
 11
8566.0882179999735
 21
20495.540976000011
 31
0.0
  0
LINE
  5
3993
  8
SUNPOU
  6
CONTINUOUS
 62
     4
 10
8651.5882179999735
 20
20415.540976000011
 30
0.0
 11
8891.5882179999735
 21
20415.540976000011
 31
0.0
  0
LINE
  5
3994
  8
SUNPOU
  6
CONTINUOUS
 62
     4
 10
8569.0882179999735
 20
20415.540976000011
 30
0.0
 11
8329.0882179999735
 21
20415.540976000011
 31
0.0
  0
LINE
  5
3995
  8
SUNPOU
  6
CONTINUOUS
 62
     4
 10
8651.5882179999735
 20
20415.540976000011
 30
0.0
 11
8569.0882179999735
 21
20415.540976000011
 31
0.0
  0
LINE
  5
3996
  8
SUNPOU
  6
CONTINUOUS
 62
     4
 10
11569.58821799997
 20
20415.540976000011
 30
0.0
 11
8651.5882179999735
 21
20415.540976000011
 31
0.0
  0
LINE
  5
3997
  8
SUNPOU
  6
CONTINUOUS
 62
     4
 10
22215.04587099998
 20
19765.538073000022
 30
0.0
 11
22215.04587099998
 21
20495.540976000011
 31
0.0
  0
LINE
  5
3998
  8
SUNPOU
  6
CONTINUOUS
 62
     4
 10
22622.545870999969
 20
19765.538073000022
 30
0.0
 11
22622.545870999969
 21
20495.540976000011
 31
0.0
  0
LINE
  5
3999
  8
SUNPOU
  6
CONTINUOUS
 62
     4
 10
22215.04587099998
 20
20415.540976000011
 30
0.0
 11
22622.545870999969
 21
20415.540976000011
 31
0.0
  0
LINE
  5
399A
  8
SUNPOU
  6
CONTINUOUS
 62
     4
 10
22622.545870999969
 20
19765.538073000022
 30
0.0
 11
22622.545870999969
 21
20495.540976000011
 31
0.0
  0
LINE
  5
399B
  8
SUNPOU
  6
CONTINUOUS
 62
     4
 10
23323.545870999969
 20
19765.538073000022
 30
0.0
 11
23323.545870999969
 21
20495.540976000011
 31
0.0
  0
LINE
  5
399C
  8
SUNPOU
  6
CONTINUOUS
 62
     4
 10
22622.545870999969
 20
20415.540976000011
 30
0.0
 11
23323.545870999969
 21
20415.540976000011
 31
0.0
  0
LINE
  5
399D
  8
SUNPOU
  6
CONTINUOUS
 62
     4
 10
20055.04587099998
 20
19765.538073000022
 30
0.0
 11
20055.04587099998
 21
20495.540976000011
 31
0.0
  0
LINE
  5
399E
  8
SUNPOU
  6
CONTINUOUS
 62
     4
 10
19297.04587099998
 20
19765.538073000022
 30
0.0
 11
19297.04587099998
 21
20495.540976000011
 31
0.0
  0
LINE
  5
399F
  8
SUNPOU
  6
CONTINUOUS
 62
     4
 10
20055.04587099998
 20
20415.540976000011
 30
0.0
 11
19297.04587099998
 21
20415.540976000011
 31
0.0
  0
LINE
  5
39A0
  8
SUNPOU
  6
CONTINUOUS
 62
     4
 10
24204.04415499997
 20
14915.66004375
 30
0.0
 11
25254.045474999992
 21
14915.66004375
 31
0.0
  0
LINE
  5
39A1
  8
SUNPOU
  6
CONTINUOUS
 62
     4
 10
25054.045474999992
 20
14508.16004375
 30
0.0
 11
25254.045474999992
 21
14508.16004375
 31
0.0
  0
LINE
  5
39A2
  8
SUNPOU
  6
CONTINUOUS
 62
     4
 10
25174.045474999992
 20
14915.66004375
 30
0.0
 11
25174.045474999992
 21
14508.16004375
 31
0.0
  0
LINE
  5
39A3
  8
SUNPOU
  6
CONTINUOUS
 62
     4
 10
24204.04415499997
 20
19235.539787999998
 30
0.0
 11
25254.045474999992
 21
19235.539787999998
 31
0.0
  0
LINE
  5
39A4
  8
SUNPOU
  6
CONTINUOUS
 62
     4
 10
25054.045474999992
 20
19643.039787999991
 30
0.0
 11
25254.045474999992
 21
19643.039787999991
 31
0.0
  0
LINE
  5
39A5
  8
SUNPOU
  6
CONTINUOUS
 62
     4
 10
25174.045474999992
 20
19235.539787999998
 30
0.0
 11
25174.045474999992
 21
19643.039787999991
 31
0.0
  0
LINE
  5
39A6
  8
SUNPOU
  6
CONTINUOUS
 62
     4
 10
19297.04587099998
 20
13802.276354
 30
0.0
 11
19297.04587099998
 21
13456.591703999989
 31
0.0
  0
LINE
  5
39A7
  8
SUNPOU
  6
CONTINUOUS
 62
     4
 10
19254.549565999969
 20
14385.542493000001
 30
0.0
 11
19254.549565999969
 21
13456.591703999989
 31
0.0
  0
LINE
  5
39A8
  8
SUNPOU
  6
CONTINUOUS
 62
     4
 10
19297.04587099998
 20
13536.59170399998
 30
0.0
 11
19537.04587099998
 21
13536.59170399998
 31
0.0
  0
LINE
  5
39A9
  8
SUNPOU
  6
CONTINUOUS
 62
     4
 10
19254.549565999969
 20
13536.59170399998
 30
0.0
 11
19014.549565999969
 21
13536.59170399998
 31
0.0
  0
LINE
  5
39AA
  8
SUNPOU
  6
CONTINUOUS
 62
     4
 10
19297.04587099998
 20
13536.59170399998
 30
0.0
 11
19254.549565999969
 21
13536.59170399998
 31
0.0
  0
LINE
  5
39AB
  8
SUNPOU
  6
CONTINUOUS
 62
     4
 10
24081.54587099998
 20
13802.276354
 30
0.0
 11
24081.54587099998
 21
13456.591703999989
 31
0.0
  0
LINE
  5
39AC
  8
SUNPOU
  6
CONTINUOUS
 62
     4
 10
24124.04415499997
 20
14385.542493000001
 30
0.0
 11
24124.04415499997
 21
13456.591703999989
 31
0.0
  0
LINE
  5
39AD
  8
SUNPOU
  6
CONTINUOUS
 62
     4
 10
24081.54587099998
 20
13536.59170399998
 30
0.0
 11
23841.54587099998
 21
13536.59170399998
 31
0.0
  0
LINE
  5
39AE
  8
SUNPOU
  6
CONTINUOUS
 62
     4
 10
24124.04415499997
 20
13536.59170399998
 30
0.0
 11
24364.04415499997
 21
13536.59170399998
 31
0.0
  0
LINE
  5
39AF
  8
SUNPOU
  6
CONTINUOUS
 62
     4
 10
24081.54587099998
 20
13536.59170399998
 30
0.0
 11
24124.04415499997
 21
13536.59170399998
 31
0.0
  0
LINE
  5
39B0
  8
2-0
  6
CONTINUOUS
 62
     3
 10
22172.54587099998
 20
14465.539788
 30
0.0
 11
22257.54587099998
 21
14465.539788
 31
0.0
  0
LINE
  5
39B1
  8
2-0
  6
CONTINUOUS
 62
     3
 10
22257.54587099998
 20
14465.539788
 30
0.0
 11
22257.54587099998
 21
14550.539788
 31
0.0
  0
LINE
  5
39B2
  8
2-0
  6
CONTINUOUS
 62
     3
 10
22257.54587099998
 20
14550.539788
 30
0.0
 11
22172.54587099998
 21
14550.539788
 31
0.0
  0
LINE
  5
39B3
  8
2-0
  6
CONTINUOUS
 62
     3
 10
22172.54587099998
 20
14550.539788
 30
0.0
 11
22172.54587099998
 21
14465.539788
 31
0.0
  0
LINE
  5
39B4
  8
SUNPOU
  6
CONTINUOUS
 62
     4
 10
24081.54587099998
 20
13802.276354
 30
0.0
 11
24081.54587099998
 21
13456.591703999989
 31
0.0
  0
LINE
  5
39B5
  8
SUNPOU
  6
CONTINUOUS
 62
     4
 10
24039.043627999981
 20
14385.542493000001
 30
0.0
 11
24039.043627999981
 21
13456.591703999989
 31
0.0
  0
LINE
  5
39B6
  8
SUNPOU
  6
CONTINUOUS
 62
     4
 10
24081.54587099998
 20
13536.59170399998
 30
0.0
 11
24321.54587099998
 21
13536.59170399998
 31
0.0
  0
LINE
  5
39B7
  8
SUNPOU
  6
CONTINUOUS
 62
     4
 10
24039.043627999981
 20
13536.59170399998
 30
0.0
 11
23799.043627999981
 21
13536.59170399998
 31
0.0
  0
LINE
  5
39B8
  8
SUNPOU
  6
CONTINUOUS
 62
     4
 10
24081.54587099998
 20
13536.59170399998
 30
0.0
 11
24039.043627999981
 21
13536.59170399998
 31
0.0
  0
LINE
  5
39B9
  8
SUNPOU
  6
CONTINUOUS
 62
     4
 10
19297.04587099998
 20
13802.276354
 30
0.0
 11
19297.04587099998
 21
13456.591703999989
 31
0.0
  0
LINE
  5
39BA
  8
SUNPOU
  6
CONTINUOUS
 62
     4
 10
19339.548113999961
 20
14385.542493000001
 30
0.0
 11
19339.548113999961
 21
13456.591703999989
 31
0.0
  0
LINE
  5
39BB
  8
SUNPOU
  6
CONTINUOUS
 62
     4
 10
19297.04587099998
 20
13536.59170399998
 30
0.0
 11
19057.04587099998
 21
13536.59170399998
 31
0.0
  0
LINE
  5
39BC
  8
SUNPOU
  6
CONTINUOUS
 62
     4
 10
19339.548113999961
 20
13536.59170399998
 30
0.0
 11
19579.548113999961
 21
13536.59170399998
 31
0.0
  0
LINE
  5
39BD
  8
SUNPOU
  6
CONTINUOUS
 62
     4
 10
19297.04587099998
 20
13536.59170399998
 30
0.0
 11
19339.548113999961
 21
13536.59170399998
 31
0.0
  0
LINE
  5
39BE
  8
SUNPOU
  6
CONTINUOUS
 62
     4
 10
19254.549565999969
 20
14385.542493000001
 30
0.0
 11
19254.549565999969
 21
13056.591704
 31
0.0
  0
LINE
  5
39BF
  8
SUNPOU
  6
CONTINUOUS
 62
     4
 10
24124.04415499997
 20
14385.542493000001
 30
0.0
 11
24124.04415499997
 21
13056.591704
 31
0.0
  0
LINE
  5
39C0
  8
SUNPOU
  6
CONTINUOUS
 62
     4
 10
19254.549565999969
 20
13136.591704
 30
0.0
 11
24124.04415499997
 21
13136.591704
 31
0.0
  0
LINE
  5
39C1
  8
SUNPOU
  6
CONTINUOUS
 62
     4
 10
24204.04415499997
 20
15616.7802995
 30
0.0
 11
25254.045474999992
 21
15616.7802995
 31
0.0
  0
LINE
  5
39C2
  8
SUNPOU
  6
CONTINUOUS
 62
     4
 10
24204.04415499997
 20
14915.539788
 30
0.0
 11
25254.045474999992
 21
14915.539788
 31
0.0
  0
LINE
  5
39C3
  8
SUNPOU
  6
CONTINUOUS
 62
     4
 10
25174.045474999992
 20
15616.7802995
 30
0.0
 11
25174.045474999992
 21
14915.539788
 31
0.0
  0
LINE
  5
39C4
  8
SUNPOU
  6
CONTINUOUS
 62
     4
 10
24204.04415499997
 20
16317.539788
 30
0.0
 11
25254.045474999992
 21
16317.539788
 31
0.0
  0
LINE
  5
39C5
  8
SUNPOU
  6
CONTINUOUS
 62
     4
 10
24204.04415499997
 20
15616.7802995
 30
0.0
 11
25254.045474999992
 21
15616.7802995
 31
0.0
  0
LINE
  5
39C6
  8
SUNPOU
  6
CONTINUOUS
 62
     4
 10
25174.045474999992
 20
16317.539788
 30
0.0
 11
25174.045474999992
 21
15616.7802995
 31
0.0
  0
LINE
  5
39C7
  8
SUNPOU
  6
CONTINUOUS
 62
     4
 10
25054.045474999992
 20
17075.53978799998
 30
0.0
 11
25254.045474999992
 21
17075.53978799998
 31
0.0
  0
LINE
  5
39C8
  8
SUNPOU
  6
CONTINUOUS
 62
     4
 10
24204.04415499997
 20
16317.539788
 30
0.0
 11
25254.045474999992
 21
16317.539788
 31
0.0
  0
LINE
  5
39C9
  8
SUNPOU
  6
CONTINUOUS
 62
     4
 10
25174.045474999992
 20
17075.53978799998
 30
0.0
 11
25174.045474999992
 21
16317.539788
 31
0.0
  0
LINE
  5
39CA
  8
SUNPOU
  6
CONTINUOUS
 62
     4
 10
24204.04415499997
 20
17833.539787999991
 30
0.0
 11
25254.045474999992
 21
17833.539787999991
 31
0.0
  0
LINE
  5
39CB
  8
SUNPOU
  6
CONTINUOUS
 62
     4
 10
25054.045474999992
 20
17075.53978799998
 30
0.0
 11
25254.045474999992
 21
17075.53978799998
 31
0.0
  0
LINE
  5
39CC
  8
SUNPOU
  6
CONTINUOUS
 62
     4
 10
25174.045474999992
 20
17833.539787999991
 30
0.0
 11
25174.045474999992
 21
17075.53978799998
 31
0.0
  0
LINE
  5
39CD
  8
SUNPOU
  6
CONTINUOUS
 62
     4
 10
24204.04415499997
 20
18534.539787999998
 30
0.0
 11
25254.045474999992
 21
18534.539787999998
 31
0.0
  0
LINE
  5
39CE
  8
SUNPOU
  6
CONTINUOUS
 62
     4
 10
24204.04415499997
 20
17833.539787999991
 30
0.0
 11
25254.045474999992
 21
17833.539787999991
 31
0.0
  0
LINE
  5
39CF
  8
SUNPOU
  6
CONTINUOUS
 62
     4
 10
25174.045474999992
 20
18534.539787999998
 30
0.0
 11
25174.045474999992
 21
17833.539787999991
 31
0.0
  0
LINE
  5
39D0
  8
SUNPOU
  6
CONTINUOUS
 62
     4
 10
24204.04415499997
 20
19235.539787999998
 30
0.0
 11
25254.045474999992
 21
19235.539787999998
 31
0.0
  0
LINE
  5
39D1
  8
SUNPOU
  6
CONTINUOUS
 62
     4
 10
24204.04415499997
 20
18534.539787999998
 30
0.0
 11
25254.045474999992
 21
18534.539787999998
 31
0.0
  0
LINE
  5
39D2
  8
SUNPOU
  6
CONTINUOUS
 62
     4
 10
25174.045474999992
 20
19235.539787999998
 30
0.0
 11
25174.045474999992
 21
18534.539787999998
 31
0.0
  0
LINE
  5
39D3
  8
SUNPOU
  6
CONTINUOUS
 62
     4
 10
25054.045474999992
 20
17075.53978799998
 30
0.0
 11
25654.045474999992
 21
17075.53978799998
 31
0.0
  0
LINE
  5
39D4
  8
SUNPOU
  6
CONTINUOUS
 62
     4
 10
25054.045474999992
 20
19643.039787999991
 30
0.0
 11
25654.045474999992
 21
19643.039787999991
 31
0.0
  0
LINE
  5
39D5
  8
SUNPOU
  6
CONTINUOUS
 62
     4
 10
25574.045474999992
 20
17075.53978799998
 30
0.0
 11
25574.045474999992
 21
19643.039787999991
 31
0.0
  0
LINE
  5
39D6
  8
SUNPOU
  6
CONTINUOUS
 62
     4
 10
25054.045474999992
 20
14508.039787999989
 30
0.0
 11
25654.045474999992
 21
14508.039787999989
 31
0.0
  0
LINE
  5
39D7
  8
SUNPOU
  6
CONTINUOUS
 62
     4
 10
25054.045474999992
 20
17075.53978799998
 30
0.0
 11
25654.045474999992
 21
17075.53978799998
 31
0.0
  0
LINE
  5
39D8
  8
SUNPOU
  6
CONTINUOUS
 62
     4
 10
25574.045474999992
 20
14508.039787999989
 30
0.0
 11
25574.045474999992
 21
17075.53978799998
 31
0.0
  0
LINE
  5
39D9
  8
SUNPOU
  6
CONTINUOUS
 62
     4
 10
24204.04415499997
 20
19685.537082999988
 30
0.0
 11
26054.045474999992
 21
19685.537082999988
 31
0.0
  0
LINE
  5
39DA
  8
SUNPOU
  6
CONTINUOUS
 62
     4
 10
24204.04415499997
 20
14465.542493000001
 30
0.0
 11
26054.045474999992
 21
14465.542493000001
 31
0.0
  0
LINE
  5
39DB
  8
SUNPOU
  6
CONTINUOUS
 62
     4
 10
25974.045474999992
 20
19685.537082999988
 30
0.0
 11
25974.045474999992
 21
14465.542493000001
 31
0.0
  0
LINE
  5
39DC
  8
SUNPOU
  6
CONTINUOUS
 62
     4
 10
25054.045474999992
 20
19643.039787999991
 30
0.0
 11
25654.045474999992
 21
19643.039787999991
 31
0.0
  0
LINE
  5
39DD
  8
SUNPOU
  6
CONTINUOUS
 62
     4
 10
24204.04415499997
 20
19685.537082999988
 30
0.0
 11
25654.045474999992
 21
19685.537082999988
 31
0.0
  0
LINE
  5
39DE
  8
SUNPOU
  6
CONTINUOUS
 62
     4
 10
25574.045474999992
 20
19643.039787999991
 30
0.0
 11
25574.045474999992
 21
19403.039787999991
 31
0.0
  0
LINE
  5
39DF
  8
SUNPOU
  6
CONTINUOUS
 62
     4
 10
25574.045474999992
 20
19685.537082999988
 30
0.0
 11
25574.045474999992
 21
19925.537082999999
 31
0.0
  0
LINE
  5
39E0
  8
SUNPOU
  6
CONTINUOUS
 62
     4
 10
25574.045474999992
 20
19643.039787999991
 30
0.0
 11
25574.045474999992
 21
19685.537082999988
 31
0.0
  0
LINE
  5
39E1
  8
SUNPOU
  6
CONTINUOUS
 62
     4
 10
25054.045474999992
 20
14508.039787999989
 30
0.0
 11
25654.045474999992
 21
14508.039787999989
 31
0.0
  0
LINE
  5
39E2
  8
SUNPOU
  6
CONTINUOUS
 62
     4
 10
24204.04415499997
 20
14465.542493000001
 30
0.0
 11
25654.045474999992
 21
14465.542493000001
 31
0.0
  0
LINE
  5
39E3
  8
SUNPOU
  6
CONTINUOUS
 62
     4
 10
25574.045474999992
 20
14508.039787999989
 30
0.0
 11
25574.045474999992
 21
14748.03978799998
 31
0.0
  0
LINE
  5
39E4
  8
SUNPOU
  6
CONTINUOUS
 62
     4
 10
25574.045474999992
 20
14465.542493000001
 30
0.0
 11
25574.045474999992
 21
14225.542493000001
 31
0.0
  0
LINE
  5
39E5
  8
SUNPOU
  6
CONTINUOUS
 62
     4
 10
25574.045474999992
 20
14508.039787999989
 30
0.0
 11
25574.045474999992
 21
14465.542493000001
 31
0.0
  0
LINE
  5
39E6
  8
SUNPOU
  6
CONTINUOUS
 62
     4
 10
23323.545870999969
 20
19765.538073000022
 30
0.0
 11
23323.545870999969
 21
20495.540976000011
 31
0.0
  0
LINE
  5
39E7
  8
SUNPOU
  6
CONTINUOUS
 62
     4
 10
24081.546860499991
 20
19765.538073000022
 30
0.0
 11
24081.546860499991
 21
20495.540976000011
 31
0.0
  0
LINE
  5
39E8
  8
SUNPOU
  6
CONTINUOUS
 62
     4
 10
23323.545870999969
 20
20415.540976000011
 30
0.0
 11
24081.546860499991
 21
20415.540976000011
 31
0.0
  0
LINE
  5
39E9
  8
SUNPOU
  6
CONTINUOUS
 62
     4
 10
24081.54587099998
 20
19765.538073000022
 30
0.0
 11
24081.54587099998
 21
20495.540976000011
 31
0.0
  0
LINE
  5
39EA
  8
SUNPOU
  6
CONTINUOUS
 62
     4
 10
24124.042175999981
 20
19765.538073000022
 30
0.0
 11
24124.042175999981
 21
20495.540976000011
 31
0.0
  0
LINE
  5
39EB
  8
SUNPOU
  6
CONTINUOUS
 62
     4
 10
24081.54587099998
 20
20415.540976000011
 30
0.0
 11
23841.54587099998
 21
20415.540976000011
 31
0.0
  0
LINE
  5
39EC
  8
SUNPOU
  6
CONTINUOUS
 62
     4
 10
24124.042175999981
 20
20415.540976000011
 30
0.0
 11
24364.042175999981
 21
20415.540976000011
 31
0.0
  0
LINE
  5
39ED
  8
SUNPOU
  6
CONTINUOUS
 62
     4
 10
24081.54587099998
 20
20415.540976000011
 30
0.0
 11
24124.042175999981
 21
20415.540976000011
 31
0.0
  0
LINE
  5
39EE
  8
SUNPOU
  6
CONTINUOUS
 62
     4
 10
19297.04587099998
 20
19765.538073000022
 30
0.0
 11
19297.04587099998
 21
20495.540976000011
 31
0.0
  0
LINE
  5
39EF
  8
SUNPOU
  6
CONTINUOUS
 62
     4
 10
19254.549565999969
 20
19765.538073000022
 30
0.0
 11
19254.549565999969
 21
20495.540976000011
 31
0.0
  0
LINE
  5
39F0
  8
SUNPOU
  6
CONTINUOUS
 62
     4
 10
19297.04587099998
 20
20415.540976000011
 30
0.0
 11
19537.04587099998
 21
20415.540976000011
 31
0.0
  0
LINE
  5
39F1
  8
SUNPOU
  6
CONTINUOUS
 62
     4
 10
19254.549565999969
 20
20415.540976000011
 30
0.0
 11
19014.549565999969
 21
20415.540976000011
 31
0.0
  0
LINE
  5
39F2
  8
SUNPOU
  6
CONTINUOUS
 62
     4
 10
19297.04587099998
 20
20415.540976000011
 30
0.0
 11
19254.549565999969
 21
20415.540976000011
 31
0.0
  0
LINE
  5
39F3
  8
SUNPOU
  6
CONTINUOUS
 62
     4
 10
21457.04587099998
 20
19765.538073000022
 30
0.0
 11
21457.04587099998
 21
20495.540976000011
 31
0.0
  0
LINE
  5
39F4
  8
SUNPOU
  6
CONTINUOUS
 62
     4
 10
22215.046860499991
 20
19765.538073000022
 30
0.0
 11
22215.046860499991
 21
20495.540976000011
 31
0.0
  0
LINE
  5
39F5
  8
SUNPOU
  6
CONTINUOUS
 62
     4
 10
21457.04587099998
 20
20415.540976000011
 30
0.0
 11
22215.046860499991
 21
20415.540976000011
 31
0.0
  0
LINE
  5
39F6
  8
SUNPOU
  6
CONTINUOUS
 62
     4
 10
20756.04587099998
 20
19765.538073000022
 30
0.0
 11
20756.04587099998
 21
20495.540976000011
 31
0.0
  0
LINE
  5
39F7
  8
SUNPOU
  6
CONTINUOUS
 62
     4
 10
21457.04587099998
 20
19765.538073000022
 30
0.0
 11
21457.04587099998
 21
20495.540976000011
 31
0.0
  0
LINE
  5
39F8
  8
SUNPOU
  6
CONTINUOUS
 62
     4
 10
20756.04587099998
 20
20415.540976000011
 30
0.0
 11
21457.04587099998
 21
20415.540976000011
 31
0.0
  0
LINE
  5
39F9
  8
SUNPOU
  6
CONTINUOUS
 62
     4
 10
20055.04587099998
 20
19765.538073000022
 30
0.0
 11
20055.04587099998
 21
20495.540976000011
 31
0.0
  0
LINE
  5
39FA
  8
SUNPOU
  6
CONTINUOUS
 62
     4
 10
20756.04587099998
 20
19765.538073000022
 30
0.0
 11
20756.04587099998
 21
20495.540976000011
 31
0.0
  0
LINE
  5
39FB
  8
SUNPOU
  6
CONTINUOUS
 62
     4
 10
20055.04587099998
 20
20415.540976000011
 30
0.0
 11
20756.04587099998
 21
20415.540976000011
 31
0.0
  0
LINE
  5
39FC
  8
SUNPOU
  6
CONTINUOUS
 62
     4
 10
19167.045211999979
 20
6367.0884779999951
 30
0.0
 11
18367.04653099996
 21
6367.0884779999969
 31
0.0
  0
LINE
  5
39FD
  8
SUNPOU
  6
CONTINUOUS
 62
     4
 10
19167.045211999979
 20
8258.588477999996
 30
0.0
 11
18367.046530999982
 21
8258.588477999996
 31
0.0
  0
LINE
  5
39FE
  8
SUNPOU
  6
CONTINUOUS
 62
     4
 10
18447.04653099996
 20
6367.0884779999951
 30
0.0
 11
18447.046530999982
 21
8258.588477999996
 31
0.0
  0
LINE
  5
39FF
  8
SUNPOU
  6
CONTINUOUS
 62
     4
 10
19167.045211999979
 20
6367.0884779999951
 30
0.0
 11
17967.044221999939
 21
6367.0884779999969
 31
0.0
  0
LINE
  5
3A00
  8
SUNPOU
  6
CONTINUOUS
 62
     4
 10
19134.545475999959
 20
8715.5879829999976
 30
0.0
 11
17967.044221999939
 21
8715.5879829999976
 31
0.0
  0
LINE
  5
3A01
  8
SUNPOU
  6
CONTINUOUS
 62
     4
 10
18047.044221999939
 20
6367.0884779999969
 30
0.0
 11
18047.044221999939
 21
8715.5879829999976
 31
0.0
  0
LINE
  5
3A02
  8
SUNPOU
  6
CONTINUOUS
 62
     4
 10
19211.543495999958
 20
8795.5888270000032
 30
0.0
 11
19211.543495999958
 21
9995.0464389999997
 31
0.0
  0
LINE
  5
3A03
  8
SUNPOU
  6
CONTINUOUS
 62
     4
 10
24167.04824599998
 20
8795.5888270000032
 30
0.0
 11
24167.04824599998
 21
9995.0464389999997
 31
0.0
  0
LINE
  5
3A04
  8
SUNPOU
  6
CONTINUOUS
 62
     4
 10
19214.543495999958
 20
9915.0464390000016
 30
0.0
 11
24164.04824599998
 21
9915.0464390000016
 31
0.0
  0
LINE
  5
3A05
  8
SUNPOU
  6
CONTINUOUS
 62
     4
 10
19254.54560699996
 20
8795.5888270000032
 30
0.0
 11
19254.54560699996
 21
9595.0886689999988
 31
0.0
  0
LINE
  5
3A06
  8
SUNPOU
  6
CONTINUOUS
 62
     4
 10
24124.04613499996
 20
8795.5888270000032
 30
0.0
 11
24124.04613499996
 21
9595.0886689999988
 31
0.0
  0
LINE
  5
3A07
  8
SUNPOU
  6
CONTINUOUS
 62
     4
 10
19254.54560699996
 20
9515.0886689999988
 30
0.0
 11
24124.04613499996
 21
9515.0886689999988
 31
0.0
  0
LINE
  5
3A08
  8
SUNPOU
  6
CONTINUOUS
 62
     4
 10
19254.54560699996
 20
8795.5888270000032
 30
0.0
 11
19254.54560699996
 21
9595.0886689999988
 31
0.0
  0
LINE
  5
3A09
  8
SUNPOU
  6
CONTINUOUS
 62
     4
 10
19211.543495999958
 20
8795.5888270000032
 30
0.0
 11
19211.543495999958
 21
9595.0886689999988
 31
0.0
  0
LINE
  5
3A0A
  8
SUNPOU
  6
CONTINUOUS
 62
     4
 10
19254.54560699996
 20
9515.0886689999988
 30
0.0
 11
19494.54560699996
 21
9515.0886689999988
 31
0.0
  0
LINE
  5
3A0B
  8
SUNPOU
  6
CONTINUOUS
 62
     4
 10
19214.543495999958
 20
9515.0886689999988
 30
0.0
 11
18974.54349599998
 21
9515.0886689999988
 31
0.0
  0
LINE
  5
3A0C
  8
SUNPOU
  6
CONTINUOUS
 62
     4
 10
19254.54560699996
 20
9515.0886689999988
 30
0.0
 11
19214.543495999958
 21
9515.0886689999988
 31
0.0
  0
LINE
  5
3A0D
  8
SUNPOU
  6
CONTINUOUS
 62
     4
 10
24124.04613499996
 20
8795.5888270000032
 30
0.0
 11
24124.04613499996
 21
9595.0886689999988
 31
0.0
  0
LINE
  5
3A0E
  8
SUNPOU
  6
CONTINUOUS
 62
     4
 10
24167.04824599998
 20
8795.5888270000032
 30
0.0
 11
24167.04824599998
 21
9595.0886689999988
 31
0.0
  0
LINE
  5
3A0F
  8
SUNPOU
  6
CONTINUOUS
 62
     4
 10
24124.04613499996
 20
9515.0886689999988
 30
0.0
 11
23884.04613499996
 21
9515.0886689999988
 31
0.0
  0
LINE
  5
3A10
  8
SUNPOU
  6
CONTINUOUS
 62
     4
 10
24164.04824599998
 20
9515.0886689999988
 30
0.0
 11
24404.04824599998
 21
9515.0886689999988
 31
0.0
  0
LINE
  5
3A11
  8
SUNPOU
  6
CONTINUOUS
 62
     4
 10
24124.04613499996
 20
9515.0886689999988
 30
0.0
 11
24164.04824599998
 21
9515.0886689999988
 31
0.0
  0
LINE
  5
3A12
  8
SUNPOU
  6
CONTINUOUS
 62
     4
 10
19391.04587099998
 20
6187.088643000001
 30
0.0
 11
19391.04587099998
 21
5387.0886430000019
 31
0.0
  0
LINE
  5
3A13
  8
SUNPOU
  6
CONTINUOUS
 62
     4
 10
22121.04587099998
 20
6187.088643000001
 30
0.0
 11
22121.04587099998
 21
5387.0886430000019
 31
0.0
  0
LINE
  5
3A14
  8
SUNPOU
  6
CONTINUOUS
 62
     4
 10
19391.04587099998
 20
5467.088643000001
 30
0.0
 11
22121.04587099998
 21
5467.088643000001
 31
0.0
  0
LINE
  5
3A15
  8
SUNPOU
  6
CONTINUOUS
 62
     4
 10
22309.04587099998
 20
6187.088643000001
 30
0.0
 11
22309.04587099998
 21
5387.0886430000019
 31
0.0
  0
LINE
  5
3A16
  8
SUNPOU
  6
CONTINUOUS
 62
     4
 10
23987.54587099998
 20
6187.088643000001
 30
0.0
 11
23987.54587099998
 21
5387.0886430000019
 31
0.0
  0
LINE
  5
3A17
  8
SUNPOU
  6
CONTINUOUS
 62
     4
 10
22309.04587099998
 20
5467.088643000001
 30
0.0
 11
23987.54587099998
 21
5467.088643000001
 31
0.0
  0
LINE
  5
3A18
  8
SUNPOU
  6
CONTINUOUS
 62
     4
 10
22215.04587099998
 20
5924.4362199999969
 30
0.0
 11
22215.04587099998
 21
4987.088643000001
 31
0.0
  0
LINE
  5
3A19
  8
SUNPOU
  6
CONTINUOUS
 62
     4
 10
24081.54587099998
 20
5924.4362199999969
 30
0.0
 11
24081.54587099998
 21
4987.088643000001
 31
0.0
  0
LINE
  5
3A1A
  8
SUNPOU
  6
CONTINUOUS
 62
     4
 10
22215.04587099998
 20
5067.088643000001
 30
0.0
 11
24081.54587099998
 21
5067.088643000001
 31
0.0
  0
LINE
  5
3A1B
  8
SUNPOU
  6
CONTINUOUS
 62
     4
 10
19297.04587099998
 20
5924.4362199999969
 30
0.0
 11
19297.04587099998
 21
4987.088643000001
 31
0.0
  0
LINE
  5
3A1C
  8
SUNPOU
  6
CONTINUOUS
 62
     4
 10
22215.04587099998
 20
5924.4362199999969
 30
0.0
 11
22215.04587099998
 21
4987.088643000001
 31
0.0
  0
LINE
  5
3A1D
  8
SUNPOU
  6
CONTINUOUS
 62
     4
 10
19297.04587099998
 20
5067.088643000001
 30
0.0
 11
22215.04587099998
 21
5067.088643000001
 31
0.0
  0
LINE
  5
3A1E
  8
SUNPOU
  6
CONTINUOUS
 62
     4
 10
24081.549829999982
 20
5924.4362199999969
 30
0.0
 11
24081.549829999982
 21
4987.088643000001
 31
0.0
  0
LINE
  5
3A1F
  8
SUNPOU
  6
CONTINUOUS
 62
     4
 10
24124.049829999989
 20
6187.088643000001
 30
0.0
 11
24124.049829999989
 21
4987.088643000001
 31
0.0
  0
LINE
  5
3A20
  8
SUNPOU
  6
CONTINUOUS
 62
     4
 10
24081.549829999982
 20
5067.088643000001
 30
0.0
 11
23841.549829999982
 21
5067.088643000001
 31
0.0
  0
LINE
  5
3A21
  8
SUNPOU
  6
CONTINUOUS
 62
     4
 10
24124.049829999989
 20
5067.088643000001
 30
0.0
 11
24364.049829999989
 21
5067.088643000001
 31
0.0
  0
LINE
  5
3A22
  8
SUNPOU
  6
CONTINUOUS
 62
     4
 10
24081.549829999982
 20
5067.088643000001
 30
0.0
 11
24124.049829999989
 21
5067.088643000001
 31
0.0
  0
LINE
  5
3A23
  8
SUNPOU
  6
CONTINUOUS
 62
     4
 10
19297.04587099998
 20
5924.4362199999969
 30
0.0
 11
19297.04587099998
 21
4987.088643000001
 31
0.0
  0
LINE
  5
3A24
  8
SUNPOU
  6
CONTINUOUS
 62
     4
 10
19254.54587099998
 20
6187.088643000001
 30
0.0
 11
19254.54587099998
 21
4987.088643000001
 31
0.0
  0
LINE
  5
3A25
  8
SUNPOU
  6
CONTINUOUS
 62
     4
 10
19297.04587099998
 20
5067.088643000001
 30
0.0
 11
19537.04587099998
 21
5067.088643000001
 31
0.0
  0
LINE
  5
3A26
  8
SUNPOU
  6
CONTINUOUS
 62
     4
 10
19254.54587099998
 20
5067.088643000001
 30
0.0
 11
19014.54587099998
 21
5067.088643000001
 31
0.0
  0
LINE
  5
3A27
  8
SUNPOU
  6
CONTINUOUS
 62
     4
 10
19297.04587099998
 20
5067.088643000001
 30
0.0
 11
19254.54587099998
 21
5067.088643000001
 31
0.0
  0
LINE
  5
3A28
  8
SUNPOU
  6
CONTINUOUS
 62
     4
 10
19254.54587099998
 20
6187.088643000001
 30
0.0
 11
19254.54587099998
 21
4587.0888079999977
 31
0.0
  0
LINE
  5
3A29
  8
SUNPOU
  6
CONTINUOUS
 62
     4
 10
24124.045870999969
 20
6187.088643000001
 30
0.0
 11
24124.045870999969
 21
4587.0888079999977
 31
0.0
  0
LINE
  5
3A2A
  8
SUNPOU
  6
CONTINUOUS
 62
     4
 10
19254.54587099998
 20
4667.0888079999986
 30
0.0
 11
24124.045870999969
 21
4667.0888079999986
 31
0.0
  0
LINE
  5
3A2B
  8
SUNPOU
  6
CONTINUOUS
 62
     4
 10
14264.290408999999
 20
6367.0884780000006
 30
0.0
 11
15341.788825
 21
6367.0884780000006
 31
0.0
  0
LINE
  5
3A2C
  8
SUNPOU
  6
CONTINUOUS
 62
     4
 10
14356.59568859938
 20
8716.0884780000033
 30
0.0
 11
15341.788825
 21
8716.0884780000033
 31
0.0
  0
LINE
  5
3A2D
  8
SUNPOU
  6
CONTINUOUS
 62
     4
 10
15261.788825
 20
6367.0884780000006
 30
0.0
 11
15261.788825
 21
8716.0884780000033
 31
0.0
  0
LINE
  5
3A2E
  8
SUNPOU
  6
CONTINUOUS
 62
     4
 10
8864.2904090000047
 20
6367.0884780000006
 30
0.0
 11
7781.7900129999998
 21
6367.0884780000006
 31
0.0
  0
LINE
  5
3A2F
  8
SUNPOU
  6
CONTINUOUS
 62
     4
 10
8691.7904089999975
 20
8522.5884780000015
 30
0.0
 11
7781.7900129999998
 21
8522.5884780000015
 31
0.0
  0
LINE
  5
3A30
  8
SUNPOU
  6
CONTINUOUS
 62
     4
 10
7861.7900130000007
 20
6367.0884780000006
 30
0.0
 11
7861.7900130000007
 21
8522.5884780000015
 31
0.0
  0
LINE
  5
3A31
  8
SUNPOU
  6
CONTINUOUS
 62
     4
 10
14171.79040899999
 20
8661.9985410000008
 30
0.0
 11
14171.79040899999
 21
9595.0901529999992
 31
0.0
  0
LINE
  5
3A32
  8
SUNPOU
  6
CONTINUOUS
 62
     4
 10
14321.79040899999
 20
8735.9783004124274
 30
0.0
 11
14321.79040899999
 21
9595.0901529999992
 31
0.0
  0
LINE
  5
3A33
  8
SUNPOU
  6
CONTINUOUS
 62
     4
 10
14171.79040899999
 20
9515.0901529999974
 30
0.0
 11
13931.79040899999
 21
9515.0901529999974
 31
0.0
  0
LINE
  5
3A34
  8
SUNPOU
  6
CONTINUOUS
 62
     4
 10
14321.79040899999
 20
9515.0901529999974
 30
0.0
 11
14561.79040899999
 21
9515.0901529999974
 31
0.0
  0
LINE
  5
3A35
  8
SUNPOU
  6
CONTINUOUS
 62
     4
 10
14171.79040899999
 20
9515.0901529999974
 30
0.0
 11
14321.79040899999
 21
9515.0901529999974
 31
0.0
  0
LINE
  5
3A36
  8
SUNPOU
  6
CONTINUOUS
 62
     4
 10
8771.7904090000011
 20
8604.088477000003
 30
0.0
 11
8771.7904090000011
 21
9995.088502999999
 31
0.0
  0
LINE
  5
3A37
  8
SUNPOU
  6
CONTINUOUS
 62
     4
 10
14321.79040899999
 20
8735.9783004124274
 30
0.0
 11
14321.79040899999
 21
9995.088502999999
 31
0.0
  0
LINE
  5
3A38
  8
SUNPOU
  6
CONTINUOUS
 62
     4
 10
8771.7904090000011
 20
9915.088502999999
 30
0.0
 11
14321.79040899999
 21
9915.088502999999
 31
0.0
  0
LINE
  5
3A39
  8
SUNPOU
  6
CONTINUOUS
 62
     4
 10
8951.7904090000011
 20
8474.2742526838028
 30
0.0
 11
8951.7904090000011
 21
9595.0901529999992
 31
0.0
  0
LINE
  5
3A3A
  8
SUNPOU
  6
CONTINUOUS
 62
     4
 10
14171.79040899999
 20
8661.9985410000008
 30
0.0
 11
14171.79040899999
 21
9595.0901529999992
 31
0.0
  0
LINE
  5
3A3B
  8
SUNPOU
  6
CONTINUOUS
 62
     4
 10
8951.7904090000011
 20
9515.0901529999974
 30
0.0
 11
14171.79040899999
 21
9515.0901529999974
 31
0.0
  0
LINE
  5
3A3C
  8
SUNPOU
  6
CONTINUOUS
 62
     4
 10
8771.7904090000011
 20
8604.088477000003
 30
0.0
 11
8771.7904090000011
 21
9595.0901529999992
 31
0.0
  0
LINE
  5
3A3D
  8
SUNPOU
  6
CONTINUOUS
 62
     4
 10
8951.7904090000011
 20
8474.2742526838028
 30
0.0
 11
8951.7904090000011
 21
9595.0901529999992
 31
0.0
  0
LINE
  5
3A3E
  8
SUNPOU
  6
CONTINUOUS
 62
     4
 10
8771.7904090000011
 20
9515.0901529999974
 30
0.0
 11
8951.7904090000011
 21
9515.0901529999974
 31
0.0
  0
LINE
  5
3A3F
  8
SUNPOU
  6
CONTINUOUS
 62
     4
 10
14129.28842999999
 20
5924.4362189999974
 30
0.0
 11
14129.28842999999
 21
4987.0886419999961
 31
0.0
  0
LINE
  5
3A40
  8
SUNPOU
  6
CONTINUOUS
 62
     4
 10
14171.788430000001
 20
6287.0884770000011
 30
0.0
 11
14171.788430000001
 21
4987.0886419999961
 31
0.0
  0
LINE
  5
3A41
  8
SUNPOU
  6
CONTINUOUS
 62
     4
 10
14129.28842999999
 20
5067.0886419999961
 30
0.0
 11
13889.28842999999
 21
5067.0886419999961
 31
0.0
  0
LINE
  5
3A42
  8
SUNPOU
  6
CONTINUOUS
 62
     4
 10
14171.788430000001
 20
5067.0886419999961
 30
0.0
 11
14411.788429999981
 21
5067.0886419999961
 31
0.0
  0
LINE
  5
3A43
  8
SUNPOU
  6
CONTINUOUS
 62
     4
 10
14129.28842999999
 20
5067.0886419999961
 30
0.0
 11
14171.788430000001
 21
5067.0886419999961
 31
0.0
  0
LINE
  5
3A44
  8
SUNPOU
  6
CONTINUOUS
 62
     4
 10
11561.79040899999
 20
5924.43523
 30
0.0
 11
11561.79040899999
 21
4987.088643000001
 31
0.0
  0
LINE
  5
3A45
  8
SUNPOU
  6
CONTINUOUS
 62
     4
 10
14129.29040899999
 20
5924.43523
 30
0.0
 11
14129.29040899999
 21
4987.088643000001
 31
0.0
  0
LINE
  5
3A46
  8
SUNPOU
  6
CONTINUOUS
 62
     4
 10
11561.79040899999
 20
5067.088643000001
 30
0.0
 11
14129.29040899999
 21
5067.088643000001
 31
0.0
  0
LINE
  5
3A47
  8
SUNPOU
  6
CONTINUOUS
 62
     4
 10
8951.7904090000011
 20
6287.0884770000011
 30
0.0
 11
8951.7904090000011
 21
4587.0888069999992
 31
0.0
  0
LINE
  5
3A48
  8
SUNPOU
  6
CONTINUOUS
 62
     4
 10
14171.788430000001
 20
6287.0884770000011
 30
0.0
 11
14171.788430000001
 21
4587.0888069999992
 31
0.0
  0
LINE
  5
3A49
  8
SUNPOU
  6
CONTINUOUS
 62
     4
 10
8951.7904090000011
 20
4667.0888069999983
 30
0.0
 11
14171.788430000001
 21
4667.0888069999983
 31
0.0
  0
LINE
  5
3A4A
  8
SUNPOU
  6
CONTINUOUS
 62
     4
 10
8994.2904090000029
 20
5924.4362189999974
 30
0.0
 11
8994.2904090000029
 21
4987.0886419999961
 31
0.0
  0
LINE
  5
3A4B
  8
SUNPOU
  6
CONTINUOUS
 62
     4
 10
8951.7904090000011
 20
6287.0884770000011
 30
0.0
 11
8951.7904090000011
 21
4987.0886419999961
 31
0.0
  0
LINE
  5
3A4C
  8
SUNPOU
  6
CONTINUOUS
 62
     4
 10
8994.2904090000029
 20
5067.0886419999961
 30
0.0
 11
9234.2904089999993
 21
5067.0886419999961
 31
0.0
  0
LINE
  5
3A4D
  8
SUNPOU
  6
CONTINUOUS
 62
     4
 10
8951.7904090000011
 20
5067.0886419999961
 30
0.0
 11
8711.7904089999975
 21
5067.0886419999961
 31
0.0
  0
LINE
  5
3A4E
  8
SUNPOU
  6
CONTINUOUS
 62
     4
 10
8994.2904090000029
 20
5067.0886419999961
 30
0.0
 11
8951.7904090000011
 21
5067.0886419999961
 31
0.0
  0
LINE
  5
3A4F
  8
SUNPOU
  6
CONTINUOUS
 62
     4
 10
11561.79040899999
 20
5924.4362189999974
 30
0.0
 11
11561.79040899999
 21
4987.0886419999961
 31
0.0
  0
LINE
  5
3A50
  8
SUNPOU
  6
CONTINUOUS
 62
     4
 10
8994.2904090000029
 20
5924.4362189999974
 30
0.0
 11
8994.2904090000029
 21
4987.0886419999961
 31
0.0
  0
LINE
  5
3A51
  8
SUNPOU
  6
CONTINUOUS
 62
     4
 10
11561.79040899999
 20
5067.0886419999961
 30
0.0
 11
8994.2904090000029
 21
5067.0886419999961
 31
0.0
  0
TEXT
  5
3A52
  8
0
  6
CONTINUOUS
 62
     7
 10
9878.0404090000047
 20
5147.0886419999961
 30
0.0
 40
160.0
  1
2567.5
  0
TEXT
  5
3A53
  8
0
  6
CONTINUOUS
 62
     7
 10
8354.6166999036941
 20
5147.0886419999961
 30
0.0
 40
160.0
  1
42.5
  0
TEXT
  5
3A54
  8
0
  6
CONTINUOUS
 62
     7
 10
11281.78941949999
 20
4747.0888069999992
 30
0.0
 40
160.0
  1
5220
  0
TEXT
  5
3A55
  8
0
  6
CONTINUOUS
 62
     7
 10
12445.54040899999
 20
5147.088643
 30
0.0
 40
160.0
  1
2567.5
  0
TEXT
  5
3A56
  8
0
  6
CONTINUOUS
 62
     7
 10
14288.962139096289
 20
5147.0886419999961
 30
0.0
 40
160.0
  1
42.5
  0
TEXT
  5
3A57
  8
0
  6
CONTINUOUS
 62
     7
 10
8358.4570756666672
 20
9595.0901529999992
 30
0.0
 40
160.0
  1
180
  0
TEXT
  5
3A58
  8
0
  6
CONTINUOUS
 62
     7
 10
11281.79040899999
 20
9595.0901529999992
 30
0.0
 40
160.0
  1
5220
  0
TEXT
  5
3A59
  8
0
  6
CONTINUOUS
 62
     7
 10
11266.790408999999
 20
9995.088502999999
 30
0.0
 40
160.0
  1
5550
  0
TEXT
  5
3A5A
  8
0
  6
CONTINUOUS
 62
     7
 10
14388.457075666671
 20
9595.0901529999992
 30
0.0
 40
160.0
  1
150
  0
TEXT
  5
3A5B
  8
0
  6
CONTINUOUS
 62
     7
 10
7781.7900129999998
 20
6452.8384780000006
 30
0.0
 40
160.0
  1
2155.5（2395.5）
 50
90.0
  0
TEXT
  5
3A5C
  8
0
  6
CONTINUOUS
 62
     7
 10
15181.788824999991
 20
6736.2551446666657
 30
0.0
 40
160.0
  1
2349（2589）
 50
90.0
  0
TEXT
  5
3A5D
  8
0
  6
CONTINUOUS
 62
     7
 10
21289.295870999991
 20
4747.0888079999986
 30
0.0
 40
160.0
  1
4869.5
  0
TEXT
  5
3A5E
  8
0
  6
CONTINUOUS
 62
     7
 10
18688.506880741141
 20
5147.088643
 30
0.0
 40
160.0
  1
42.5
  0
TEXT
  5
3A5F
  8
0
  6
CONTINUOUS
 62
     7
 10
24210.088820258828
 20
5147.088643
 30
0.0
 40
160.0
  1
42.5
  0
TEXT
  5
3A60
  8
0
  6
CONTINUOUS
 62
     7
 10
20489.379204333301
 20
5147.088643
 30
0.0
 40
160.0
  1
2918
  0
TEXT
  5
3A61
  8
0
  6
CONTINUOUS
 62
     7
 10
22774.962537666652
 20
5147.088643
 30
0.0
 40
160.0
  1
1866.5
  0
TEXT
  5
3A62
  8
0
  6
CONTINUOUS
 62
     7
 10
22684.295870999991
 20
5813.755309666667
 30
0.0
 40
160.0
  1
有効開口巾
  0
TEXT
  5
3A63
  8
0
  6
CONTINUOUS
 62
     7
 10
22774.962537666652
 20
5547.088643000001
 30
0.0
 40
160.0
  1
1678.5
  0
TEXT
  5
3A64
  8
0
  6
CONTINUOUS
 62
     7
 10
19948.04587099998
 20
5547.088643000001
 30
0.0
 40
160.0
  1
有効開口巾 2730
  0
TEXT
  5
3A65
  8
0
  6
CONTINUOUS
 62
     7
 10
24284.04824599998
 20
9595.0886689999988
 30
0.0
 40
160.0
  1
43
  0
TEXT
  5
3A66
  8
0
  6
CONTINUOUS
 62
     7
 10
18854.54349599998
 20
9595.0886689999988
 30
0.0
 40
160.0
  1
43
  0
TEXT
  5
3A67
  8
0
  6
CONTINUOUS
 62
     7
 10
21289.295870999991
 20
9595.0886689999988
 30
0.0
 40
160.0
  1
4869.5
  0
TEXT
  5
3A68
  8
0
  6
CONTINUOUS
 62
     7
 10
21289.295870999991
 20
9995.0464389999997
 30
0.0
 40
160.0
  1
4955.5
  0
TEXT
  5
3A69
  8
0
  6
CONTINUOUS
 62
     7
 10
17967.044221999939
 20
6522.6715638333326
 30
0.0
 40
160.0
  1
2348.5（2588.5）
 50
90.0
  0
TEXT
  5
3A6A
  8
0
  6
CONTINUOUS
 62
     7
 10
18367.046530999982
 20
6431.0677162912707
 30
0.0
 40
160.0
  1
有効開口高サ 1891.5
 50
90.0
  0
TEXT
  5
3A6B
  8
0
  6
CONTINUOUS
 62
     7
 10
20232.212537666641
 20
20495.540976000011
 30
0.0
 40
160.0
  1
701
  0
TEXT
  5
3A6C
  8
0
  6
CONTINUOUS
 62
     7
 10
20933.212537666652
 20
20495.540976000011
 30
0.0
 40
160.0
  1
701
  0
TEXT
  5
3A6D
  8
0
  6
CONTINUOUS
 62
     7
 10
21622.713032416661
 20
20495.540976000011
 30
0.0
 40
160.0
  1
758
  0
TEXT
  5
3A6E
  8
0
  6
CONTINUOUS
 62
     7
 10
18694.233891471169
 20
20495.540976000011
 30
0.0
 40
160.0
  1
42.5
  0
TEXT
  5
3A6F
  8
0
  6
CONTINUOUS
 62
     7
 10
24204.357850528781
 20
20495.540976000011
 30
0.0
 40
160.0
  1
42.5
  0
TEXT
  5
3A70
  8
0
  6
CONTINUOUS
 62
     7
 10
23489.213032416639
 20
20495.540976000011
 30
0.0
 40
160.0
  1
758
  0
TEXT
  5
3A71
  8
0
  6
CONTINUOUS
 62
     7
 10
25494.045474999992
 20
13891.98625660321
 30
0.0
 40
160.0
  1
42.5
 50
90.0
  0
TEXT
  5
3A72
  8
0
  6
CONTINUOUS
 62
     7
 10
25494.045474999992
 20
19779.09331939679
 30
0.0
 40
160.0
  1
42.5
 50
90.0
  0
TEXT
  5
3A73
  8
0
  6
CONTINUOUS
 62
     7
 10
25894.045474999959
 20
16795.539787999998
 30
0.0
 40
160.0
  1
5220
 50
90.0
  0
TEXT
  5
3A74
  8
0
  6
CONTINUOUS
 62
     7
 10
25494.045474999959
 20
15391.789788
 30
0.0
 40
160.0
  1
2567.5
 50
90.0
  0
TEXT
  5
3A75
  8
0
  6
CONTINUOUS
 62
     7
 10
25494.045474999959
 20
17959.289787999998
 30
0.0
 40
160.0
  1
2567.5
 50
90.0
  0
TEXT
  5
3A76
  8
0
  6
CONTINUOUS
 62
     7
 10
25094.04547499997
 20
18711.70645466667
 30
0.0
 40
160.0
  1
701
 50
90.0
  0
TEXT
  5
3A77
  8
0
  6
CONTINUOUS
 62
     7
 10
25094.04547499997
 20
18010.706454666659
 30
0.0
 40
160.0
  1
701
 50
90.0
  0
TEXT
  5
3A78
  8
0
  6
CONTINUOUS
 62
     7
 10
25094.04547499997
 20
17241.20645466667
 30
0.0
 40
160.0
  1
758
 50
90.0
  0
TEXT
  5
3A79
  8
0
  6
CONTINUOUS
 62
     7
 10
25094.04547499997
 20
16483.206454666659
 30
0.0
 40
160.0
  1
758
 50
90.0
  0
TEXT
  5
3A7A
  8
0
  6
CONTINUOUS
 62
     7
 10
25094.04547499997
 20
15793.826710416681
 30
0.0
 40
160.0
  1
701
 50
90.0
  0
TEXT
  5
3A7B
  8
0
  6
CONTINUOUS
 62
     7
 10
25094.04547499997
 20
15092.826710416681
 30
0.0
 40
160.0
  1
701
 50
90.0
  0
TEXT
  5
3A7C
  8
0
  6
CONTINUOUS
 62
     7
 10
21289.29686049997
 20
13216.591704
 30
0.0
 40
160.0
  1
4869.5
  0
TEXT
  5
3A7D
  8
0
  6
CONTINUOUS
 62
     7
 10
19415.099543382061
 20
13616.59170399998
 30
0.0
 40
160.0
  1
42.5
  0
TEXT
  5
3A7E
  8
0
  6
CONTINUOUS
 62
     7
 10
23483.492198617882
 20
13616.59170399998
 30
0.0
 40
160.0
  1
42.5
  0
TEXT
  5
3A7F
  8
0
  6
CONTINUOUS
 62
     7
 10
24199.599543382072
 20
13616.59170399998
 30
0.0
 40
160.0
  1
42.5
  0
TEXT
  5
3A80
  8
0
  6
CONTINUOUS
 62
     7
 10
18698.992198617889
 20
13616.59170399998
 30
0.0
 40
160.0
  1
42.5
  0
TEXT
  5
3A81
  8
0
  6
CONTINUOUS
 62
     7
 10
25454.045474999992
 20
18944.917755643201
 30
0.0
 40
160.0
  1
407.5
 50
90.0
  0
TEXT
  5
3A82
  8
0
  6
CONTINUOUS
 62
     7
 10
25454.045474999992
 20
14580.98045795355
 30
0.0
 40
160.0
  1
407.5
 50
90.0
  0
TEXT
  5
3A83
  8
0
  6
CONTINUOUS
 62
     7
 10
19462.71253766663
 20
20495.540976000011
 30
0.0
 40
160.0
  1
758
  0
TEXT
  5
3A84
  8
0
  6
CONTINUOUS
 62
     7
 10
22799.712537666652
 20
20175.540976000011
 30
0.0
 40
160.0
  1
701
  0
TEXT
  5
3A85
  8
0
  6
CONTINUOUS
 62
     7
 10
22315.879204333291
 20
20495.540976000011
 30
0.0
 40
160.0
  1
407.5
  0
TEXT
  5
3A86
  8
0
  6
CONTINUOUS
 62
     7
 10
9843.9215513333038
 20
20495.540976000011
 30
0.0
 40
160.0
  1
2918
  0
TEXT
  5
3A87
  8
0
  6
CONTINUOUS
 62
     7
 10
8035.0915119767069
 20
20495.540976000011
 30
0.0
 40
160.0
  1
85.5
  0
TEXT
  5
3A88
  8
0
  6
CONTINUOUS
 62
     7
 10
12129.50488466663
 20
20495.540976000011
 30
0.0
 40
160.0
  1
1866.5
  0
TEXT
  5
3A89
  8
0
  6
CONTINUOUS
 62
     7
 10
13572.58492402324
 20
20495.540976000011
 30
0.0
 40
160.0
  1
85.5
  0
TEXT
  5
3A8A
  8
0
  6
CONTINUOUS
 62
     7
 10
7642.0884419999747
 20
17959.285829
 30
0.0
 40
160.0
  1
2567.5
 50
90.0
  0
TEXT
  5
3A8B
  8
0
  6
CONTINUOUS
 62
     7
 10
7642.0884419999729
 20
19954.491013807681
 30
0.0
 40
160.0
  1
222.5
 50
90.0
  0
TEXT
  5
3A8C
  8
0
  6
CONTINUOUS
 62
     7
 10
8042.0884419999747
 20
20012.198404666691
 30
0.0
 40
160.0
  1
10
 50
90.0
  0
TEXT
  5
3A8D
  8
0
  6
CONTINUOUS
 62
     7
 10
7642.0884419999747
 20
15391.785828999989
 30
0.0
 40
160.0
  1
2567.5
 50
90.0
  0
TEXT
  5
3A8E
  8
0
  6
CONTINUOUS
 62
     7
 10
7642.0884419999729
 20
13662.08965470262
 30
0.0
 40
160.0
  1
192.5
 50
90.0
  0
TEXT
  5
3A8F
  8
0
  6
CONTINUOUS
 62
     7
 10
10121.1715513333
 20
13197.590173000001
 30
0.0
 40
160.0
  1
ケラバ外寸 4955.5
  0
ARC
  5
3A90
  8
0
  6
BYBLOCK
 62
     0
 10
8566.0878219999686
 20
13117.59017299999
 30
0.0
 40
15.0
 50
0.0
 51
180.0
  0
ARC
  5
3A91
  8
0
  6
BYBLOCK
 62
     0
 10
8566.0878219999686
 20
13117.59017299999
 30
0.0
 40
15.0
 50
180.0
 51
0.0
  0
ARC
  5
3A92
  8
0
  6
BYBLOCK
 62
     0
 10
13521.58861399996
 20
13117.59017299999
 30
0.0
 40
15.0
 50
180.0
 51
0.0
  0
ARC
  5
3A93
  8
0
  6
BYBLOCK
 62
     0
 10
13521.58861399996
 20
13117.59017299999
 30
0.0
 40
15.0
 50
0.0
 51
180.0
  0
ARC
  5
3A94
  8
0
  6
BYBLOCK
 62
     0
 10
7722.0884419999793
 20
14508.03582899998
 30
0.0
 40
15.0
 50
270.0
 51
90.0
  0
ARC
  5
3A95
  8
0
  6
BYBLOCK
 62
     0
 10
7722.0884419999793
 20
14508.03582899998
 30
0.0
 40
15.0
 50
90.0
 51
270.0
  0
ARC
  5
3A96
  8
0
  6
BYBLOCK
 62
     0
 10
7722.0884419999793
 20
14315.534574999991
 30
0.0
 40
15.0
 50
90.0
 51
270.0
  0
ARC
  5
3A97
  8
0
  6
BYBLOCK
 62
     0
 10
7722.0884419999793
 20
14315.534574999991
 30
0.0
 40
15.0
 50
270.0
 51
90.0
  0
ARC
  5
3A98
  8
0
  6
BYBLOCK
 62
     0
 10
7722.0884419999829
 20
17075.535829
 30
0.0
 40
15.0
 50
270.0
 51
90.0
  0
ARC
  5
3A99
  8
0
  6
BYBLOCK
 62
     0
 10
7722.0884419999829
 20
17075.535829
 30
0.0
 40
15.0
 50
90.0
 51
270.0
  0
ARC
  5
3A9A
  8
0
  6
BYBLOCK
 62
     0
 10
7722.0884419999829
 20
14508.035828999989
 30
0.0
 40
15.0
 50
90.0
 51
270.0
  0
ARC
  5
3A9B
  8
0
  6
BYBLOCK
 62
     0
 10
7722.0884419999829
 20
14508.035828999989
 30
0.0
 40
15.0
 50
270.0
 51
90.0
  0
ARC
  5
3A9C
  8
0
  6
BYBLOCK
 62
     0
 10
8122.0884419999793
 20
19855.531738000009
 30
0.0
 40
15.0
 50
270.0
 51
90.0
  0
ARC
  5
3A9D
  8
0
  6
BYBLOCK
 62
     0
 10
8122.0884419999793
 20
19855.531738000009
 30
0.0
 40
15.0
 50
90.0
 51
270.0
  0
ARC
  5
3A9E
  8
0
  6
BYBLOCK
 62
     0
 10
8122.0884419999793
 20
19865.531738000001
 30
0.0
 40
15.0
 50
90.0
 51
270.0
  0
ARC
  5
3A9F
  8
0
  6
BYBLOCK
 62
     0
 10
8122.0884419999793
 20
19865.531738000001
 30
0.0
 40
15.0
 50
270.0
 51
90.0
  0
ARC
  5
3AA0
  8
0
  6
BYBLOCK
 62
     0
 10
7722.0884419999793
 20
19643.035829
 30
0.0
 40
15.0
 50
90.0
 51
270.0
  0
ARC
  5
3AA1
  8
0
  6
BYBLOCK
 62
     0
 10
7722.0884419999793
 20
19643.035829
 30
0.0
 40
15.0
 50
270.0
 51
90.0
  0
ARC
  5
3AA2
  8
0
  6
BYBLOCK
 62
     0
 10
7722.0884419999793
 20
19865.531738000001
 30
0.0
 40
15.0
 50
270.0
 51
90.0
  0
ARC
  5
3AA3
  8
0
  6
BYBLOCK
 62
     0
 10
7722.0884419999793
 20
19865.531738000001
 30
0.0
 40
15.0
 50
90.0
 51
270.0
  0
ARC
  5
3AA4
  8
0
  6
BYBLOCK
 62
     0
 10
7722.0884419999793
 20
17075.535829
 30
0.0
 40
15.0
 50
90.0
 51
270.0
  0
ARC
  5
3AA5
  8
0
  6
BYBLOCK
 62
     0
 10
7722.0884419999793
 20
17075.535829
 30
0.0
 40
15.0
 50
270.0
 51
90.0
  0
ARC
  5
3AA6
  8
0
  6
BYBLOCK
 62
     0
 10
7722.0884419999793
 20
19643.035829
 30
0.0
 40
15.0
 50
270.0
 51
90.0
  0
ARC
  5
3AA7
  8
0
  6
BYBLOCK
 62
     0
 10
7722.0884419999793
 20
19643.035829
 30
0.0
 40
15.0
 50
90.0
 51
270.0
  0
ARC
  5
3AA8
  8
0
  6
BYBLOCK
 62
     0
 10
13436.08821799997
 20
20415.540976000011
 30
0.0
 40
15.0
 50
180.0
 51
0.0
  0
ARC
  5
3AA9
  8
0
  6
BYBLOCK
 62
     0
 10
13436.08821799997
 20
20415.540976000011
 30
0.0
 40
15.0
 50
0.0
 51
180.0
  0
ARC
  5
3AAA
  8
0
  6
BYBLOCK
 62
     0
 10
13521.588217999961
 20
20415.540976000011
 30
0.0
 40
15.0
 50
0.0
 51
180.0
  0
ARC
  5
3AAB
  8
0
  6
BYBLOCK
 62
     0
 10
13521.588217999961
 20
20415.540976000011
 30
0.0
 40
15.0
 50
180.0
 51
0.0
  0
ARC
  5
3AAC
  8
0
  6
BYBLOCK
 62
     0
 10
11569.58821799997
 20
20415.540976000011
 30
0.0
 40
15.0
 50
0.0
 51
180.0
  0
ARC
  5
3AAD
  8
0
  6
BYBLOCK
 62
     0
 10
11569.58821799997
 20
20415.540976000011
 30
0.0
 40
15.0
 50
180.0
 51
0.0
  0
ARC
  5
3AAE
  8
0
  6
BYBLOCK
 62
     0
 10
13436.08821799997
 20
20415.540976000011
 30
0.0
 40
15.0
 50
180.0
 51
0.0
  0
ARC
  5
3AAF
  8
0
  6
BYBLOCK
 62
     0
 10
13436.08821799997
 20
20415.540976000011
 30
0.0
 40
15.0
 50
0.0
 51
180.0
  0
ARC
  5
3AB0
  8
0
  6
BYBLOCK
 62
     0
 10
8651.5882179999735
 20
20415.540976000011
 30
0.0
 40
15.0
 50
0.0
 51
180.0
  0
ARC
  5
3AB1
  8
0
  6
BYBLOCK
 62
     0
 10
8651.5882179999735
 20
20415.540976000011
 30
0.0
 40
15.0
 50
180.0
 51
0.0
  0
ARC
  5
3AB2
  8
0
  6
BYBLOCK
 62
     0
 10
8566.0882179999735
 20
20415.540976000011
 30
0.0
 40
15.0
 50
180.0
 51
0.0
  0
ARC
  5
3AB3
  8
0
  6
BYBLOCK
 62
     0
 10
8566.0882179999735
 20
20415.540976000011
 30
0.0
 40
15.0
 50
0.0
 51
180.0
  0
ARC
  5
3AB4
  8
0
  6
BYBLOCK
 62
     0
 10
11569.58821799997
 20
20415.540976000011
 30
0.0
 40
15.0
 50
180.0
 51
0.0
  0
ARC
  5
3AB5
  8
0
  6
BYBLOCK
 62
     0
 10
11569.58821799997
 20
20415.540976000011
 30
0.0
 40
15.0
 50
0.0
 51
180.0
  0
ARC
  5
3AB6
  8
0
  6
BYBLOCK
 62
     0
 10
8651.5882179999735
 20
20415.540976000011
 30
0.0
 40
15.0
 50
0.0
 51
180.0
  0
ARC
  5
3AB7
  8
0
  6
BYBLOCK
 62
     0
 10
8651.5882179999735
 20
20415.540976000011
 30
0.0
 40
15.0
 50
180.0
 51
0.0
  0
ARC
  5
3AB8
  8
0
  6
BYBLOCK
 62
     0
 10
22215.04587099998
 20
20415.540976000011
 30
0.0
 40
15.0
 50
0.0
 51
180.0
  0
ARC
  5
3AB9
  8
0
  6
BYBLOCK
 62
     0
 10
22215.04587099998
 20
20415.540976000011
 30
0.0
 40
15.0
 50
180.0
 51
0.0
  0
ARC
  5
3ABA
  8
0
  6
BYBLOCK
 62
     0
 10
22622.545870999969
 20
20415.540976000011
 30
0.0
 40
15.0
 50
180.0
 51
0.0
  0
ARC
  5
3ABB
  8
0
  6
BYBLOCK
 62
     0
 10
22622.545870999969
 20
20415.540976000011
 30
0.0
 40
15.0
 50
0.0
 51
180.0
  0
ARC
  5
3ABC
  8
0
  6
BYBLOCK
 62
     0
 10
22622.545870999969
 20
20415.540976000011
 30
0.0
 40
15.0
 50
0.0
 51
180.0
  0
ARC
  5
3ABD
  8
0
  6
BYBLOCK
 62
     0
 10
22622.545870999969
 20
20415.540976000011
 30
0.0
 40
15.0
 50
180.0
 51
0.0
  0
ARC
  5
3ABE
  8
0
  6
BYBLOCK
 62
     0
 10
23323.545870999969
 20
20415.540976000011
 30
0.0
 40
15.0
 50
180.0
 51
0.0
  0
ARC
  5
3ABF
  8
0
  6
BYBLOCK
 62
     0
 10
23323.545870999969
 20
20415.540976000011
 30
0.0
 40
15.0
 50
0.0
 51
180.0
  0
ARC
  5
3AC0
  8
0
  6
BYBLOCK
 62
     0
 10
20055.04587099998
 20
20415.540976000011
 30
0.0
 40
15.0
 50
180.0
 51
0.0
  0
ARC
  5
3AC1
  8
0
  6
BYBLOCK
 62
     0
 10
20055.04587099998
 20
20415.540976000011
 30
0.0
 40
15.0
 50
0.0
 51
180.0
  0
ARC
  5
3AC2
  8
0
  6
BYBLOCK
 62
     0
 10
19297.04587099998
 20
20415.540976000011
 30
0.0
 40
15.0
 50
0.0
 51
180.0
  0
ARC
  5
3AC3
  8
0
  6
BYBLOCK
 62
     0
 10
19297.04587099998
 20
20415.540976000011
 30
0.0
 40
15.0
 50
180.0
 51
0.0
  0
ARC
  5
3AC4
  8
0
  6
BYBLOCK
 62
     0
 10
25174.045474999992
 20
14915.66004375
 30
0.0
 40
15.0
 50
270.0
 51
90.0
  0
ARC
  5
3AC5
  8
0
  6
BYBLOCK
 62
     0
 10
25174.045474999992
 20
14915.66004375
 30
0.0
 40
15.0
 50
90.0
 51
270.0
  0
ARC
  5
3AC6
  8
0
  6
BYBLOCK
 62
     0
 10
25174.045474999992
 20
14508.16004375
 30
0.0
 40
15.0
 50
90.0
 51
270.0
  0
ARC
  5
3AC7
  8
0
  6
BYBLOCK
 62
     0
 10
25174.045474999992
 20
14508.16004375
 30
0.0
 40
15.0
 50
270.0
 51
90.0
  0
ARC
  5
3AC8
  8
0
  6
BYBLOCK
 62
     0
 10
25174.045474999992
 20
19235.539787999998
 30
0.0
 40
15.0
 50
90.0
 51
270.0
  0
ARC
  5
3AC9
  8
0
  6
BYBLOCK
 62
     0
 10
25174.045474999992
 20
19235.539787999998
 30
0.0
 40
15.0
 50
270.0
 51
90.0
  0
ARC
  5
3ACA
  8
0
  6
BYBLOCK
 62
     0
 10
25174.045474999992
 20
19643.039787999991
 30
0.0
 40
15.0
 50
270.0
 51
90.0
  0
ARC
  5
3ACB
  8
0
  6
BYBLOCK
 62
     0
 10
25174.045474999992
 20
19643.039787999991
 30
0.0
 40
15.0
 50
90.0
 51
270.0
  0
ARC
  5
3ACC
  8
0
  6
BYBLOCK
 62
     0
 10
19297.04587099998
 20
13536.59170399998
 30
0.0
 40
15.0
 50
0.0
 51
180.0
  0
ARC
  5
3ACD
  8
0
  6
BYBLOCK
 62
     0
 10
19297.04587099998
 20
13536.59170399998
 30
0.0
 40
15.0
 50
180.0
 51
0.0
  0
ARC
  5
3ACE
  8
0
  6
BYBLOCK
 62
     0
 10
19254.549565999969
 20
13536.59170399998
 30
0.0
 40
15.0
 50
180.0
 51
0.0
  0
ARC
  5
3ACF
  8
0
  6
BYBLOCK
 62
     0
 10
19254.549565999969
 20
13536.59170399998
 30
0.0
 40
15.0
 50
0.0
 51
180.0
  0
ARC
  5
3AD0
  8
0
  6
BYBLOCK
 62
     0
 10
24081.54587099998
 20
13536.59170399998
 30
0.0
 40
15.0
 50
180.0
 51
0.0
  0
ARC
  5
3AD1
  8
0
  6
BYBLOCK
 62
     0
 10
24081.54587099998
 20
13536.59170399998
 30
0.0
 40
15.0
 50
0.0
 51
180.0
  0
ARC
  5
3AD2
  8
0
  6
BYBLOCK
 62
     0
 10
24124.04415499997
 20
13536.59170399998
 30
0.0
 40
15.0
 50
0.0
 51
180.0
  0
ARC
  5
3AD3
  8
0
  6
BYBLOCK
 62
     0
 10
24124.04415499997
 20
13536.59170399998
 30
0.0
 40
15.0
 50
180.0
 51
0.0
  0
ARC
  5
3AD4
  8
0
  6
BYBLOCK
 62
     0
 10
24081.54587099998
 20
13536.59170399998
 30
0.0
 40
15.0
 50
0.0
 51
180.0
  0
ARC
  5
3AD5
  8
0
  6
BYBLOCK
 62
     0
 10
24081.54587099998
 20
13536.59170399998
 30
0.0
 40
15.0
 50
180.0
 51
0.0
  0
ARC
  5
3AD6
  8
0
  6
BYBLOCK
 62
     0
 10
24039.043627999981
 20
13536.59170399998
 30
0.0
 40
15.0
 50
180.0
 51
0.0
  0
ARC
  5
3AD7
  8
0
  6
BYBLOCK
 62
     0
 10
24039.043627999981
 20
13536.59170399998
 30
0.0
 40
15.0
 50
0.0
 51
180.0
  0
ARC
  5
3AD8
  8
0
  6
BYBLOCK
 62
     0
 10
19297.04587099998
 20
13536.59170399998
 30
0.0
 40
15.0
 50
180.0
 51
0.0
  0
ARC
  5
3AD9
  8
0
  6
BYBLOCK
 62
     0
 10
19297.04587099998
 20
13536.59170399998
 30
0.0
 40
15.0
 50
0.0
 51
180.0
  0
ARC
  5
3ADA
  8
0
  6
BYBLOCK
 62
     0
 10
19339.548113999961
 20
13536.59170399998
 30
0.0
 40
15.0
 50
0.0
 51
180.0
  0
ARC
  5
3ADB
  8
0
  6
BYBLOCK
 62
     0
 10
19339.548113999961
 20
13536.59170399998
 30
0.0
 40
15.0
 50
180.0
 51
0.0
  0
ARC
  5
3ADC
  8
0
  6
BYBLOCK
 62
     0
 10
19254.549565999969
 20
13136.591704
 30
0.0
 40
15.0
 50
0.0
 51
180.0
  0
ARC
  5
3ADD
  8
0
  6
BYBLOCK
 62
     0
 10
19254.549565999969
 20
13136.591704
 30
0.0
 40
15.0
 50
180.0
 51
0.0
  0
ARC
  5
3ADE
  8
0
  6
BYBLOCK
 62
     0
 10
24124.04415499997
 20
13136.591704
 30
0.0
 40
15.0
 50
180.0
 51
0.0
  0
ARC
  5
3ADF
  8
0
  6
BYBLOCK
 62
     0
 10
24124.04415499997
 20
13136.591704
 30
0.0
 40
15.0
 50
0.0
 51
180.0
  0
ARC
  5
3AE0
  8
0
  6
BYBLOCK
 62
     0
 10
25174.045474999992
 20
15616.7802995
 30
0.0
 40
15.0
 50
270.0
 51
90.0
  0
ARC
  5
3AE1
  8
0
  6
BYBLOCK
 62
     0
 10
25174.045474999992
 20
15616.7802995
 30
0.0
 40
15.0
 50
90.0
 51
270.0
  0
ARC
  5
3AE2
  8
0
  6
BYBLOCK
 62
     0
 10
25174.045474999992
 20
14915.539788
 30
0.0
 40
15.0
 50
90.0
 51
270.0
  0
ARC
  5
3AE3
  8
0
  6
BYBLOCK
 62
     0
 10
25174.045474999992
 20
14915.539788
 30
0.0
 40
15.0
 50
270.0
 51
90.0
  0
ARC
  5
3AE4
  8
0
  6
BYBLOCK
 62
     0
 10
25174.045474999992
 20
16317.539788
 30
0.0
 40
15.0
 50
270.0
 51
90.0
  0
ARC
  5
3AE5
  8
0
  6
BYBLOCK
 62
     0
 10
25174.045474999992
 20
16317.539788
 30
0.0
 40
15.0
 50
90.0
 51
270.0
  0
ARC
  5
3AE6
  8
0
  6
BYBLOCK
 62
     0
 10
25174.045474999992
 20
15616.7802995
 30
0.0
 40
15.0
 50
90.0
 51
270.0
  0
ARC
  5
3AE7
  8
0
  6
BYBLOCK
 62
     0
 10
25174.045474999992
 20
15616.7802995
 30
0.0
 40
15.0
 50
270.0
 51
90.0
  0
ARC
  5
3AE8
  8
0
  6
BYBLOCK
 62
     0
 10
25174.045474999992
 20
17075.53978799998
 30
0.0
 40
15.0
 50
270.0
 51
90.0
  0
ARC
  5
3AE9
  8
0
  6
BYBLOCK
 62
     0
 10
25174.045474999992
 20
17075.53978799998
 30
0.0
 40
15.0
 50
90.0
 51
270.0
  0
ARC
  5
3AEA
  8
0
  6
BYBLOCK
 62
     0
 10
25174.045474999992
 20
16317.539788
 30
0.0
 40
15.0
 50
90.0
 51
270.0
  0
ARC
  5
3AEB
  8
0
  6
BYBLOCK
 62
     0
 10
25174.045474999992
 20
16317.539788
 30
0.0
 40
15.0
 50
270.0
 51
90.0
  0
ARC
  5
3AEC
  8
0
  6
BYBLOCK
 62
     0
 10
25174.045474999992
 20
17833.539787999991
 30
0.0
 40
15.0
 50
270.0
 51
90.0
  0
ARC
  5
3AED
  8
0
  6
BYBLOCK
 62
     0
 10
25174.045474999992
 20
17833.539787999991
 30
0.0
 40
15.0
 50
90.0
 51
270.0
  0
ARC
  5
3AEE
  8
0
  6
BYBLOCK
 62
     0
 10
25174.045474999992
 20
17075.53978799998
 30
0.0
 40
15.0
 50
90.0
 51
270.0
  0
ARC
  5
3AEF
  8
0
  6
BYBLOCK
 62
     0
 10
25174.045474999992
 20
17075.53978799998
 30
0.0
 40
15.0
 50
270.0
 51
90.0
  0
ARC
  5
3AF0
  8
0
  6
BYBLOCK
 62
     0
 10
25174.045474999992
 20
18534.539787999998
 30
0.0
 40
15.0
 50
270.0
 51
90.0
  0
ARC
  5
3AF1
  8
0
  6
BYBLOCK
 62
     0
 10
25174.045474999992
 20
18534.539787999998
 30
0.0
 40
15.0
 50
90.0
 51
270.0
  0
ARC
  5
3AF2
  8
0
  6
BYBLOCK
 62
     0
 10
25174.045474999992
 20
17833.539787999991
 30
0.0
 40
15.0
 50
90.0
 51
270.0
  0
ARC
  5
3AF3
  8
0
  6
BYBLOCK
 62
     0
 10
25174.045474999992
 20
17833.539787999991
 30
0.0
 40
15.0
 50
270.0
 51
90.0
  0
ARC
  5
3AF4
  8
0
  6
BYBLOCK
 62
     0
 10
25174.045474999992
 20
19235.539787999998
 30
0.0
 40
15.0
 50
270.0
 51
90.0
  0
ARC
  5
3AF5
  8
0
  6
BYBLOCK
 62
     0
 10
25174.045474999992
 20
19235.539787999998
 30
0.0
 40
15.0
 50
90.0
 51
270.0
  0
ARC
  5
3AF6
  8
0
  6
BYBLOCK
 62
     0
 10
25174.045474999992
 20
18534.539787999998
 30
0.0
 40
15.0
 50
90.0
 51
270.0
  0
ARC
  5
3AF7
  8
0
  6
BYBLOCK
 62
     0
 10
25174.045474999992
 20
18534.539787999998
 30
0.0
 40
15.0
 50
270.0
 51
90.0
  0
ARC
  5
3AF8
  8
0
  6
BYBLOCK
 62
     0
 10
25574.045474999992
 20
17075.53978799998
 30
0.0
 40
15.0
 50
90.0
 51
270.0
  0
ARC
  5
3AF9
  8
0
  6
BYBLOCK
 62
     0
 10
25574.045474999992
 20
17075.53978799998
 30
0.0
 40
15.0
 50
270.0
 51
90.0
  0
ARC
  5
3AFA
  8
0
  6
BYBLOCK
 62
     0
 10
25574.045474999992
 20
19643.039787999991
 30
0.0
 40
15.0
 50
270.0
 51
90.0
  0
ARC
  5
3AFB
  8
0
  6
BYBLOCK
 62
     0
 10
25574.045474999992
 20
19643.039787999991
 30
0.0
 40
15.0
 50
90.0
 51
270.0
  0
ARC
  5
3AFC
  8
0
  6
BYBLOCK
 62
     0
 10
25574.045474999992
 20
14508.039787999989
 30
0.0
 40
15.0
 50
90.0
 51
270.0
  0
ARC
  5
3AFD
  8
0
  6
BYBLOCK
 62
     0
 10
25574.045474999992
 20
14508.039787999989
 30
0.0
 40
15.0
 50
270.0
 51
90.0
  0
ARC
  5
3AFE
  8
0
  6
BYBLOCK
 62
     0
 10
25574.045474999992
 20
17075.53978799998
 30
0.0
 40
15.0
 50
270.0
 51
90.0
  0
ARC
  5
3AFF
  8
0
  6
BYBLOCK
 62
     0
 10
25574.045474999992
 20
17075.53978799998
 30
0.0
 40
15.0
 50
90.0
 51
270.0
  0
ARC
  5
3B00
  8
0
  6
BYBLOCK
 62
     0
 10
25974.045474999992
 20
19685.537082999988
 30
0.0
 40
15.0
 50
270.0
 51
90.0
  0
ARC
  5
3B01
  8
0
  6
BYBLOCK
 62
     0
 10
25974.045474999992
 20
19685.537082999988
 30
0.0
 40
15.0
 50
90.0
 51
270.0
  0
ARC
  5
3B02
  8
0
  6
BYBLOCK
 62
     0
 10
25974.045474999992
 20
14465.542493000001
 30
0.0
 40
15.0
 50
90.0
 51
270.0
  0
ARC
  5
3B03
  8
0
  6
BYBLOCK
 62
     0
 10
25974.045474999992
 20
14465.542493000001
 30
0.0
 40
15.0
 50
270.0
 51
90.0
  0
ARC
  5
3B04
  8
0
  6
BYBLOCK
 62
     0
 10
25574.045474999992
 20
19643.039787999991
 30
0.0
 40
15.0
 50
270.0
 51
90.0
  0
ARC
  5
3B05
  8
0
  6
BYBLOCK
 62
     0
 10
25574.045474999992
 20
19643.039787999991
 30
0.0
 40
15.0
 50
90.0
 51
270.0
  0
ARC
  5
3B06
  8
0
  6
BYBLOCK
 62
     0
 10
25574.045474999992
 20
19685.537082999988
 30
0.0
 40
15.0
 50
90.0
 51
270.0
  0
ARC
  5
3B07
  8
0
  6
BYBLOCK
 62
     0
 10
25574.045474999992
 20
19685.537082999988
 30
0.0
 40
15.0
 50
270.0
 51
90.0
  0
ARC
  5
3B08
  8
0
  6
BYBLOCK
 62
     0
 10
25574.045474999992
 20
14508.039787999989
 30
0.0
 40
15.0
 50
90.0
 51
270.0
  0
ARC
  5
3B09
  8
0
  6
BYBLOCK
 62
     0
 10
25574.045474999992
 20
14508.039787999989
 30
0.0
 40
15.0
 50
270.0
 51
90.0
  0
ARC
  5
3B0A
  8
0
  6
BYBLOCK
 62
     0
 10
25574.045474999992
 20
14465.542493000001
 30
0.0
 40
15.0
 50
270.0
 51
90.0
  0
ARC
  5
3B0B
  8
0
  6
BYBLOCK
 62
     0
 10
25574.045474999992
 20
14465.542493000001
 30
0.0
 40
15.0
 50
90.0
 51
270.0
  0
ARC
  5
3B0C
  8
0
  6
BYBLOCK
 62
     0
 10
23323.545870999969
 20
20415.540976000011
 30
0.0
 40
15.0
 50
0.0
 51
180.0
  0
ARC
  5
3B0D
  8
0
  6
BYBLOCK
 62
     0
 10
23323.545870999969
 20
20415.540976000011
 30
0.0
 40
15.0
 50
180.0
 51
0.0
  0
ARC
  5
3B0E
  8
0
  6
BYBLOCK
 62
     0
 10
24081.546860499991
 20
20415.540976000011
 30
0.0
 40
15.0
 50
180.0
 51
0.0
  0
ARC
  5
3B0F
  8
0
  6
BYBLOCK
 62
     0
 10
24081.546860499991
 20
20415.540976000011
 30
0.0
 40
15.0
 50
0.0
 51
180.0
  0
ARC
  5
3B10
  8
0
  6
BYBLOCK
 62
     0
 10
24081.54587099998
 20
20415.540976000011
 30
0.0
 40
15.0
 50
180.0
 51
0.0
  0
ARC
  5
3B11
  8
0
  6
BYBLOCK
 62
     0
 10
24081.54587099998
 20
20415.540976000011
 30
0.0
 40
15.0
 50
0.0
 51
180.0
  0
ARC
  5
3B12
  8
0
  6
BYBLOCK
 62
     0
 10
24124.042175999981
 20
20415.540976000011
 30
0.0
 40
15.0
 50
0.0
 51
180.0
  0
ARC
  5
3B13
  8
0
  6
BYBLOCK
 62
     0
 10
24124.042175999981
 20
20415.540976000011
 30
0.0
 40
15.0
 50
180.0
 51
0.0
  0
ARC
  5
3B14
  8
0
  6
BYBLOCK
 62
     0
 10
19297.04587099998
 20
20415.540976000011
 30
0.0
 40
15.0
 50
0.0
 51
180.0
  0
ARC
  5
3B15
  8
0
  6
BYBLOCK
 62
     0
 10
19297.04587099998
 20
20415.540976000011
 30
0.0
 40
15.0
 50
180.0
 51
0.0
  0
ARC
  5
3B16
  8
0
  6
BYBLOCK
 62
     0
 10
19254.549565999969
 20
20415.540976000011
 30
0.0
 40
15.0
 50
180.0
 51
0.0
  0
ARC
  5
3B17
  8
0
  6
BYBLOCK
 62
     0
 10
19254.549565999969
 20
20415.540976000011
 30
0.0
 40
15.0
 50
0.0
 51
180.0
  0
ARC
  5
3B18
  8
0
  6
BYBLOCK
 62
     0
 10
21457.04587099998
 20
20415.540976000011
 30
0.0
 40
15.0
 50
0.0
 51
180.0
  0
ARC
  5
3B19
  8
0
  6
BYBLOCK
 62
     0
 10
21457.04587099998
 20
20415.540976000011
 30
0.0
 40
15.0
 50
180.0
 51
0.0
  0
ARC
  5
3B1A
  8
0
  6
BYBLOCK
 62
     0
 10
22215.046860499991
 20
20415.540976000011
 30
0.0
 40
15.0
 50
180.0
 51
0.0
  0
ARC
  5
3B1B
  8
0
  6
BYBLOCK
 62
     0
 10
22215.046860499991
 20
20415.540976000011
 30
0.0
 40
15.0
 50
0.0
 51
180.0
  0
ARC
  5
3B1C
  8
0
  6
BYBLOCK
 62
     0
 10
20756.04587099998
 20
20415.540976000011
 30
0.0
 40
15.0
 50
0.0
 51
180.0
  0
ARC
  5
3B1D
  8
0
  6
BYBLOCK
 62
     0
 10
20756.04587099998
 20
20415.540976000011
 30
0.0
 40
15.0
 50
180.0
 51
0.0
  0
ARC
  5
3B1E
  8
0
  6
BYBLOCK
 62
     0
 10
21457.04587099998
 20
20415.540976000011
 30
0.0
 40
15.0
 50
180.0
 51
0.0
  0
ARC
  5
3B1F
  8
0
  6
BYBLOCK
 62
     0
 10
21457.04587099998
 20
20415.540976000011
 30
0.0
 40
15.0
 50
0.0
 51
180.0
  0
ARC
  5
3B20
  8
0
  6
BYBLOCK
 62
     0
 10
20055.04587099998
 20
20415.540976000011
 30
0.0
 40
15.0
 50
0.0
 51
180.0
  0
ARC
  5
3B21
  8
0
  6
BYBLOCK
 62
     0
 10
20055.04587099998
 20
20415.540976000011
 30
0.0
 40
15.0
 50
180.0
 51
0.0
  0
ARC
  5
3B22
  8
0
  6
BYBLOCK
 62
     0
 10
20756.04587099998
 20
20415.540976000011
 30
0.0
 40
15.0
 50
180.0
 51
0.0
  0
ARC
  5
3B23
  8
0
  6
BYBLOCK
 62
     0
 10
20756.04587099998
 20
20415.540976000011
 30
0.0
 40
15.0
 50
0.0
 51
180.0
  0
ARC
  5
3B24
  8
0
  6
BYBLOCK
 62
     0
 10
18447.04653099996
 20
6367.0884779999951
 30
0.0
 40
15.0
 50
90.0
 51
270.0
  0
ARC
  5
3B25
  8
0
  6
BYBLOCK
 62
     0
 10
18447.04653099996
 20
6367.0884779999951
 30
0.0
 40
15.0
 50
270.0
 51
90.0
  0
ARC
  5
3B26
  8
0
  6
BYBLOCK
 62
     0
 10
18447.046530999982
 20
8258.588477999996
 30
0.0
 40
15.0
 50
270.0
 51
90.0
  0
ARC
  5
3B27
  8
0
  6
BYBLOCK
 62
     0
 10
18447.046530999982
 20
8258.588477999996
 30
0.0
 40
15.0
 50
90.0
 51
270.0
  0
ARC
  5
3B28
  8
0
  6
BYBLOCK
 62
     0
 10
18047.044221999939
 20
6367.0884779999969
 30
0.0
 40
15.0
 50
90.0
 51
270.0
  0
ARC
  5
3B29
  8
0
  6
BYBLOCK
 62
     0
 10
18047.044221999939
 20
6367.0884779999969
 30
0.0
 40
15.0
 50
270.0
 51
90.0
  0
ARC
  5
3B2A
  8
0
  6
BYBLOCK
 62
     0
 10
18047.044221999939
 20
8715.5879829999976
 30
0.0
 40
15.0
 50
270.0
 51
90.0
  0
ARC
  5
3B2B
  8
0
  6
BYBLOCK
 62
     0
 10
18047.044221999939
 20
8715.5879829999976
 30
0.0
 40
15.0
 50
90.0
 51
270.0
  0
ARC
  5
3B2C
  8
0
  6
BYBLOCK
 62
     0
 10
19211.543495999958
 20
9915.0464390000016
 30
0.0
 40
15.0
 50
0.0
 51
180.0
  0
ARC
  5
3B2D
  8
0
  6
BYBLOCK
 62
     0
 10
19211.543495999958
 20
9915.0464390000016
 30
0.0
 40
15.0
 50
180.0
 51
0.0
  0
ARC
  5
3B2E
  8
0
  6
BYBLOCK
 62
     0
 10
24167.04824599998
 20
9915.0464390000016
 30
0.0
 40
15.0
 50
180.0
 51
0.0
  0
ARC
  5
3B2F
  8
0
  6
BYBLOCK
 62
     0
 10
24167.04824599998
 20
9915.0464390000016
 30
0.0
 40
15.0
 50
0.0
 51
180.0
  0
ARC
  5
3B30
  8
0
  6
BYBLOCK
 62
     0
 10
19254.54560699996
 20
9515.0886689999988
 30
0.0
 40
15.0
 50
0.0
 51
180.0
  0
ARC
  5
3B31
  8
0
  6
BYBLOCK
 62
     0
 10
19254.54560699996
 20
9515.0886689999988
 30
0.0
 40
15.0
 50
180.0
 51
0.0
  0
ARC
  5
3B32
  8
0
  6
BYBLOCK
 62
     0
 10
24124.04613499996
 20
9515.0886689999988
 30
0.0
 40
15.0
 50
180.0
 51
0.0
  0
ARC
  5
3B33
  8
0
  6
BYBLOCK
 62
     0
 10
24124.04613499996
 20
9515.0886689999988
 30
0.0
 40
15.0
 50
0.0
 51
180.0
  0
ARC
  5
3B34
  8
0
  6
BYBLOCK
 62
     0
 10
19254.54560699996
 20
9515.0886689999988
 30
0.0
 40
15.0
 50
0.0
 51
180.0
  0
ARC
  5
3B35
  8
0
  6
BYBLOCK
 62
     0
 10
19254.54560699996
 20
9515.0886689999988
 30
0.0
 40
15.0
 50
180.0
 51
0.0
  0
ARC
  5
3B36
  8
0
  6
BYBLOCK
 62
     0
 10
19211.543495999958
 20
9515.0886689999988
 30
0.0
 40
15.0
 50
180.0
 51
0.0
  0
ARC
  5
3B37
  8
0
  6
BYBLOCK
 62
     0
 10
19211.543495999958
 20
9515.0886689999988
 30
0.0
 40
15.0
 50
0.0
 51
180.0
  0
ARC
  5
3B38
  8
0
  6
BYBLOCK
 62
     0
 10
24124.04613499996
 20
9515.0886689999988
 30
0.0
 40
15.0
 50
180.0
 51
0.0
  0
ARC
  5
3B39
  8
0
  6
BYBLOCK
 62
     0
 10
24124.04613499996
 20
9515.0886689999988
 30
0.0
 40
15.0
 50
0.0
 51
180.0
  0
ARC
  5
3B3A
  8
0
  6
BYBLOCK
 62
     0
 10
24167.04824599998
 20
9515.0886689999988
 30
0.0
 40
15.0
 50
0.0
 51
180.0
  0
ARC
  5
3B3B
  8
0
  6
BYBLOCK
 62
     0
 10
24167.04824599998
 20
9515.0886689999988
 30
0.0
 40
15.0
 50
180.0
 51
0.0
  0
ARC
  5
3B3C
  8
0
  6
BYBLOCK
 62
     0
 10
19391.04587099998
 20
5467.088643000001
 30
0.0
 40
15.0
 50
0.0
 51
180.0
  0
ARC
  5
3B3D
  8
0
  6
BYBLOCK
 62
     0
 10
19391.04587099998
 20
5467.088643000001
 30
0.0
 40
15.0
 50
180.0
 51
0.0
  0
ARC
  5
3B3E
  8
0
  6
BYBLOCK
 62
     0
 10
22121.04587099998
 20
5467.088643000001
 30
0.0
 40
15.0
 50
180.0
 51
0.0
  0
ARC
  5
3B3F
  8
0
  6
BYBLOCK
 62
     0
 10
22121.04587099998
 20
5467.088643000001
 30
0.0
 40
15.0
 50
0.0
 51
180.0
  0
ARC
  5
3B40
  8
0
  6
BYBLOCK
 62
     0
 10
22309.04587099998
 20
5467.088643000001
 30
0.0
 40
15.0
 50
0.0
 51
180.0
  0
ARC
  5
3B41
  8
0
  6
BYBLOCK
 62
     0
 10
22309.04587099998
 20
5467.088643000001
 30
0.0
 40
15.0
 50
180.0
 51
0.0
  0
ARC
  5
3B42
  8
0
  6
BYBLOCK
 62
     0
 10
23987.54587099998
 20
5467.088643000001
 30
0.0
 40
15.0
 50
180.0
 51
0.0
  0
ARC
  5
3B43
  8
0
  6
BYBLOCK
 62
     0
 10
23987.54587099998
 20
5467.088643000001
 30
0.0
 40
15.0
 50
0.0
 51
180.0
  0
ARC
  5
3B44
  8
0
  6
BYBLOCK
 62
     0
 10
22215.04587099998
 20
5067.088643000001
 30
0.0
 40
15.0
 50
0.0
 51
180.0
  0
ARC
  5
3B45
  8
0
  6
BYBLOCK
 62
     0
 10
22215.04587099998
 20
5067.088643000001
 30
0.0
 40
15.0
 50
180.0
 51
0.0
  0
ARC
  5
3B46
  8
0
  6
BYBLOCK
 62
     0
 10
24081.54587099998
 20
5067.088643000001
 30
0.0
 40
15.0
 50
180.0
 51
0.0
  0
ARC
  5
3B47
  8
0
  6
BYBLOCK
 62
     0
 10
24081.54587099998
 20
5067.088643000001
 30
0.0
 40
15.0
 50
0.0
 51
180.0
  0
ARC
  5
3B48
  8
0
  6
BYBLOCK
 62
     0
 10
19297.04587099998
 20
5067.088643000001
 30
0.0
 40
15.0
 50
0.0
 51
180.0
  0
ARC
  5
3B49
  8
0
  6
BYBLOCK
 62
     0
 10
19297.04587099998
 20
5067.088643000001
 30
0.0
 40
15.0
 50
180.0
 51
0.0
  0
ARC
  5
3B4A
  8
0
  6
BYBLOCK
 62
     0
 10
22215.04587099998
 20
5067.088643000001
 30
0.0
 40
15.0
 50
180.0
 51
0.0
  0
ARC
  5
3B4B
  8
0
  6
BYBLOCK
 62
     0
 10
22215.04587099998
 20
5067.088643000001
 30
0.0
 40
15.0
 50
0.0
 51
180.0
  0
ARC
  5
3B4C
  8
0
  6
BYBLOCK
 62
     0
 10
24081.549829999982
 20
5067.088643000001
 30
0.0
 40
15.0
 50
180.0
 51
0.0
  0
ARC
  5
3B4D
  8
0
  6
BYBLOCK
 62
     0
 10
24081.549829999982
 20
5067.088643000001
 30
0.0
 40
15.0
 50
0.0
 51
180.0
  0
ARC
  5
3B4E
  8
0
  6
BYBLOCK
 62
     0
 10
24124.049829999989
 20
5067.088643000001
 30
0.0
 40
15.0
 50
0.0
 51
180.0
  0
ARC
  5
3B4F
  8
0
  6
BYBLOCK
 62
     0
 10
24124.049829999989
 20
5067.088643000001
 30
0.0
 40
15.0
 50
180.0
 51
0.0
  0
ARC
  5
3B50
  8
0
  6
BYBLOCK
 62
     0
 10
19297.04587099998
 20
5067.088643000001
 30
0.0
 40
15.0
 50
0.0
 51
180.0
  0
ARC
  5
3B51
  8
0
  6
BYBLOCK
 62
     0
 10
19297.04587099998
 20
5067.088643000001
 30
0.0
 40
15.0
 50
180.0
 51
0.0
  0
ARC
  5
3B52
  8
0
  6
BYBLOCK
 62
     0
 10
19254.54587099998
 20
5067.088643000001
 30
0.0
 40
15.0
 50
180.0
 51
0.0
  0
ARC
  5
3B53
  8
0
  6
BYBLOCK
 62
     0
 10
19254.54587099998
 20
5067.088643000001
 30
0.0
 40
15.0
 50
0.0
 51
180.0
  0
ARC
  5
3B54
  8
0
  6
BYBLOCK
 62
     0
 10
19254.54587099998
 20
4667.0888079999986
 30
0.0
 40
15.0
 50
0.0
 51
180.0
  0
ARC
  5
3B55
  8
0
  6
BYBLOCK
 62
     0
 10
19254.54587099998
 20
4667.0888079999986
 30
0.0
 40
15.0
 50
180.0
 51
0.0
  0
ARC
  5
3B56
  8
0
  6
BYBLOCK
 62
     0
 10
24124.045870999969
 20
4667.0888079999986
 30
0.0
 40
15.0
 50
180.0
 51
0.0
  0
ARC
  5
3B57
  8
0
  6
BYBLOCK
 62
     0
 10
24124.045870999969
 20
4667.0888079999986
 30
0.0
 40
15.0
 50
0.0
 51
180.0
  0
ARC
  5
3B58
  8
0
  6
BYBLOCK
 62
     0
 10
15261.788825
 20
6367.0884780000006
 30
0.0
 40
15.0
 50
90.0
 51
270.0
  0
ARC
  5
3B59
  8
0
  6
BYBLOCK
 62
     0
 10
15261.788825
 20
6367.0884780000006
 30
0.0
 40
15.0
 50
270.0
 51
90.0
  0
ARC
  5
3B5A
  8
0
  6
BYBLOCK
 62
     0
 10
15261.788825
 20
8716.0884780000033
 30
0.0
 40
15.0
 50
270.0
 51
90.0
  0
ARC
  5
3B5B
  8
0
  6
BYBLOCK
 62
     0
 10
15261.788825
 20
8716.0884780000033
 30
0.0
 40
15.0
 50
90.0
 51
270.0
  0
ARC
  5
3B5C
  8
0
  6
BYBLOCK
 62
     0
 10
7861.7900130000007
 20
6367.0884780000006
 30
0.0
 40
15.0
 50
90.0
 51
270.0
  0
ARC
  5
3B5D
  8
0
  6
BYBLOCK
 62
     0
 10
7861.7900130000007
 20
6367.0884780000006
 30
0.0
 40
15.0
 50
270.0
 51
90.0
  0
ARC
  5
3B5E
  8
0
  6
BYBLOCK
 62
     0
 10
7861.7900130000007
 20
8522.5884780000015
 30
0.0
 40
15.0
 50
270.0
 51
90.0
  0
ARC
  5
3B5F
  8
0
  6
BYBLOCK
 62
     0
 10
7861.7900130000007
 20
8522.5884780000015
 30
0.0
 40
15.0
 50
90.0
 51
270.0
  0
ARC
  5
3B60
  8
0
  6
BYBLOCK
 62
     0
 10
14171.79040899999
 20
9515.0901529999974
 30
0.0
 40
15.0
 50
180.0
 51
0.0
  0
ARC
  5
3B61
  8
0
  6
BYBLOCK
 62
     0
 10
14171.79040899999
 20
9515.0901529999974
 30
0.0
 40
15.0
 50
0.0
 51
180.0
  0
ARC
  5
3B62
  8
0
  6
BYBLOCK
 62
     0
 10
14321.79040899999
 20
9515.0901529999974
 30
0.0
 40
15.0
 50
0.0
 51
180.0
  0
ARC
  5
3B63
  8
0
  6
BYBLOCK
 62
     0
 10
14321.79040899999
 20
9515.0901529999974
 30
0.0
 40
15.0
 50
180.0
 51
0.0
  0
ARC
  5
3B64
  8
0
  6
BYBLOCK
 62
     0
 10
8771.7904090000011
 20
9915.088502999999
 30
0.0
 40
15.0
 50
0.0
 51
180.0
  0
ARC
  5
3B65
  8
0
  6
BYBLOCK
 62
     0
 10
8771.7904090000011
 20
9915.088502999999
 30
0.0
 40
15.0
 50
180.0
 51
0.0
  0
ARC
  5
3B66
  8
0
  6
BYBLOCK
 62
     0
 10
14321.79040899999
 20
9915.088502999999
 30
0.0
 40
15.0
 50
180.0
 51
0.0
  0
ARC
  5
3B67
  8
0
  6
BYBLOCK
 62
     0
 10
14321.79040899999
 20
9915.088502999999
 30
0.0
 40
15.0
 50
0.0
 51
180.0
  0
ARC
  5
3B68
  8
0
  6
BYBLOCK
 62
     0
 10
8951.7904090000011
 20
9515.0901529999974
 30
0.0
 40
15.0
 50
0.0
 51
180.0
  0
ARC
  5
3B69
  8
0
  6
BYBLOCK
 62
     0
 10
8951.7904090000011
 20
9515.0901529999974
 30
0.0
 40
15.0
 50
180.0
 51
0.0
  0
ARC
  5
3B6A
  8
0
  6
BYBLOCK
 62
     0
 10
14171.79040899999
 20
9515.0901529999974
 30
0.0
 40
15.0
 50
180.0
 51
0.0
  0
ARC
  5
3B6B
  8
0
  6
BYBLOCK
 62
     0
 10
14171.79040899999
 20
9515.0901529999974
 30
0.0
 40
15.0
 50
0.0
 51
180.0
  0
ARC
  5
3B6C
  8
0
  6
BYBLOCK
 62
     0
 10
8771.7904090000011
 20
9515.0901529999974
 30
0.0
 40
15.0
 50
0.0
 51
180.0
  0
ARC
  5
3B6D
  8
0
  6
BYBLOCK
 62
     0
 10
8771.7904090000011
 20
9515.0901529999974
 30
0.0
 40
15.0
 50
180.0
 51
0.0
  0
ARC
  5
3B6E
  8
0
  6
BYBLOCK
 62
     0
 10
8951.7904090000011
 20
9515.0901529999974
 30
0.0
 40
15.0
 50
180.0
 51
0.0
  0
ARC
  5
3B6F
  8
0
  6
BYBLOCK
 62
     0
 10
8951.7904090000011
 20
9515.0901529999974
 30
0.0
 40
15.0
 50
0.0
 51
180.0
  0
ARC
  5
3B70
  8
0
  6
BYBLOCK
 62
     0
 10
14129.28842999999
 20
5067.0886419999961
 30
0.0
 40
15.0
 50
180.0
 51
0.0
  0
ARC
  5
3B71
  8
0
  6
BYBLOCK
 62
     0
 10
14129.28842999999
 20
5067.0886419999961
 30
0.0
 40
15.0
 50
0.0
 51
180.0
  0
ARC
  5
3B72
  8
0
  6
BYBLOCK
 62
     0
 10
14171.788430000001
 20
5067.0886419999961
 30
0.0
 40
15.0
 50
0.0
 51
180.0
  0
ARC
  5
3B73
  8
0
  6
BYBLOCK
 62
     0
 10
14171.788430000001
 20
5067.0886419999961
 30
0.0
 40
15.0
 50
180.0
 51
0.0
  0
ARC
  5
3B74
  8
0
  6
BYBLOCK
 62
     0
 10
11561.79040899999
 20
5067.088643000001
 30
0.0
 40
15.0
 50
0.0
 51
180.0
  0
ARC
  5
3B75
  8
0
  6
BYBLOCK
 62
     0
 10
11561.79040899999
 20
5067.088643000001
 30
0.0
 40
15.0
 50
180.0
 51
0.0
  0
ARC
  5
3B76
  8
0
  6
BYBLOCK
 62
     0
 10
14129.29040899999
 20
5067.088643000001
 30
0.0
 40
15.0
 50
180.0
 51
0.0
  0
ARC
  5
3B77
  8
0
  6
BYBLOCK
 62
     0
 10
14129.29040899999
 20
5067.088643000001
 30
0.0
 40
15.0
 50
0.0
 51
180.0
  0
ARC
  5
3B78
  8
0
  6
BYBLOCK
 62
     0
 10
8951.7904090000011
 20
4667.0888069999983
 30
0.0
 40
15.0
 50
0.0
 51
180.0
  0
ARC
  5
3B79
  8
0
  6
BYBLOCK
 62
     0
 10
8951.7904090000011
 20
4667.0888069999983
 30
0.0
 40
15.0
 50
180.0
 51
0.0
  0
ARC
  5
3B7A
  8
0
  6
BYBLOCK
 62
     0
 10
14171.788430000001
 20
4667.0888069999983
 30
0.0
 40
15.0
 50
180.0
 51
0.0
  0
ARC
  5
3B7B
  8
0
  6
BYBLOCK
 62
     0
 10
14171.788430000001
 20
4667.0888069999983
 30
0.0
 40
15.0
 50
0.0
 51
180.0
  0
ARC
  5
3B7C
  8
0
  6
BYBLOCK
 62
     0
 10
8994.2904090000029
 20
5067.0886419999961
 30
0.0
 40
15.0
 50
0.0
 51
180.0
  0
ARC
  5
3B7D
  8
0
  6
BYBLOCK
 62
     0
 10
8994.2904090000029
 20
5067.0886419999961
 30
0.0
 40
15.0
 50
180.0
 51
0.0
  0
ARC
  5
3B7E
  8
0
  6
BYBLOCK
 62
     0
 10
8951.7904090000011
 20
5067.0886419999961
 30
0.0
 40
15.0
 50
180.0
 51
0.0
  0
ARC
  5
3B7F
  8
0
  6
BYBLOCK
 62
     0
 10
8951.7904090000011
 20
5067.0886419999961
 30
0.0
 40
15.0
 50
0.0
 51
180.0
  0
ARC
  5
3B80
  8
0
  6
BYBLOCK
 62
     0
 10
11561.79040899999
 20
5067.0886419999961
 30
0.0
 40
15.0
 50
180.0
 51
0.0
  0
ARC
  5
3B81
  8
0
  6
BYBLOCK
 62
     0
 10
11561.79040899999
 20
5067.0886419999961
 30
0.0
 40
15.0
 50
0.0
 51
180.0
  0
ARC
  5
3B82
  8
0
  6
BYBLOCK
 62
     0
 10
8994.2904090000029
 20
5067.0886419999961
 30
0.0
 40
15.0
 50
0.0
 51
180.0
  0
ARC
  5
3B83
  8
0
  6
BYBLOCK
 62
     0
 10
8994.2904090000029
 20
5067.0886419999961
 30
0.0
 40
15.0
 50
180.0
 51
0.0
  0
TEXT
  5
3C9A
  8
NAME
 10
21933.552716388989
 20
1876.0
 30
0.0
 40
360.0
  1
ヨドガレージ ラヴィージュ
 41
0.75
  7
01
  0
LINE
  5
3C9B
  8
NAME
  6
CONTINUOUS
 10
26067.886878884288
 20
2236.0
 30
0.0
 11
26067.886878884288
 21
1876.0
 31
0.0
  0
LINE
  5
3C9C
  8
NAME
  6
CONTINUOUS
 10
26167.886878884288
 20
2236.0
 30
0.0
 11
26167.886878884288
 21
1876.0
 31
0.0
  0
LINE
  5
3C9D
  8
NAME
  6
CONTINUOUS
 10
26267.88687888431
 20
2236.0
 30
0.0
 11
26267.88687888431
 21
1876.0
 31
0.0
  0
LINE
  5
3C9E
  8
NAME
  6
CONTINUOUS
 10
26007.886878884288
 20
2236.0
 30
0.0
 11
26327.886878884288
 21
2236.0
 31
0.0
  0
LINE
  5
3C9F
  8
NAME
  6
CONTINUOUS
 10
26327.886878884288
 20
1876.0
 30
0.0
 11
26007.886878884288
 21
1876.0
 31
0.0
  0
TEXT
  5
3CEA
  8
NAME
 10
25530.092913773511
 20
1076.0
 30
0.0
 40
360.0
  1
型（単棟）
 41
0.6
  7
01
  0
TEXT
  5
3CEB
  8
NAME
 10
21583.547829600931
 20
1076.6369801169251
 30
0.0
 40
360.0
  1
VGC-3052（H）+1952（H）
 41
0.55
  0
LINE
  5
3D48
  8
2-0
  6
CONTINUOUS
 62
     3
 10
24112.042333999991
 20
14931.373957
 30
0.0
 11
24119.04389099999
 21
14931.373957
 31
0.0
  0
LINE
  5
3D49
  8
2-0
  6
CONTINUOUS
 62
     3
 10
24119.04389099999
 20
14931.373957
 30
0.0
 11
24119.04389099999
 21
14926.379632
 31
0.0
  0
LINE
  5
3D4A
  8
2-0
  6
CONTINUOUS
 62
     3
 10
24119.04389099999
 20
14926.379632
 30
0.0
 11
24094.04653099996
 21
14926.379632
 31
0.0
  0
LINE
  5
3D4B
  8
2-0
  6
CONTINUOUS
 62
     3
 10
24094.04653099996
 20
14926.379632
 30
0.0
 11
24094.04653099996
 21
14944.375435000011
 31
0.0
  0
LINE
  5
3D4C
  8
2-0
  6
CONTINUOUS
 62
     3
 10
24094.04653099996
 20
14944.375435000011
 30
0.0
 11
24124.04415499997
 21
14944.375435000011
 31
0.0
  0
LINE
  5
3D4D
  8
2-0
  6
CONTINUOUS
 62
     3
 10
24094.04653099996
 20
14928.277990000001
 30
0.0
 11
24094.04653099996
 21
14934.27989000002
 31
0.0
  0
LINE
  5
3D4E
  8
2-0
  6
CONTINUOUS
 62
     3
 10
24094.04653099996
 20
14934.27989000002
 30
0.0
 11
24124.04415499997
 21
14934.27989000002
 31
0.0
  0
LINE
  5
3D4F
  8
2-0
  6
CONTINUOUS
 62
     3
 10
24124.04415499997
 20
14897.28070900001
 30
0.0
 11
24124.04415499997
 21
14934.27989000002
 31
0.0
  0
LINE
  5
3D50
  8
2-0
  6
CONTINUOUS
 62
     3
 10
24094.04653099996
 20
14897.28070900001
 30
0.0
 11
24124.04415499997
 21
14897.28070900001
 31
0.0
  0
LINE
  5
3D51
  8
2-0
  6
CONTINUOUS
 62
     3
 10
24094.04653099996
 20
14903.27766
 30
0.0
 11
24094.04653099996
 21
14897.28070900001
 31
0.0
  0
LINE
  5
3D52
  8
2-0
  6
CONTINUOUS
 62
     3
 10
24094.04653099996
 20
14887.179225
 30
0.0
 11
24124.04415499997
 21
14887.179225
 31
0.0
  0
LINE
  5
3D53
  8
2-0
  6
CONTINUOUS
 62
     3
 10
24094.04653099996
 20
14905.186906000001
 30
0.0
 11
24094.04653099996
 21
14887.179225
 31
0.0
  0
LINE
  5
3D54
  8
2-0
  6
CONTINUOUS
 62
     3
 10
24119.04389099999
 20
14905.186906000001
 30
0.0
 11
24094.04653099996
 21
14905.186906000001
 31
0.0
  0
LINE
  5
3D55
  8
2-0
  6
CONTINUOUS
 62
     3
 10
24119.04389099999
 20
14900.186642000001
 30
0.0
 11
24119.04389099999
 21
14905.186906000001
 31
0.0
  0
LINE
  5
3D56
  8
2-0
  6
CONTINUOUS
 62
     3
 10
24112.042333999991
 20
14900.186642000001
 30
0.0
 11
24119.04389099999
 21
14900.186642000001
 31
0.0
  0
LINE
  5
3D57
  8
2-0
  6
CONTINUOUS
 62
     3
 10
19266.551386999949
 20
14931.373957
 30
0.0
 11
19259.553788999969
 21
14931.373957
 31
0.0
  0
LINE
  5
3D58
  8
2-0
  6
CONTINUOUS
 62
     3
 10
19259.553788999969
 20
14931.373957
 30
0.0
 11
19259.553788999969
 21
14926.379632
 31
0.0
  0
LINE
  5
3D59
  8
2-0
  6
CONTINUOUS
 62
     3
 10
19259.553788999969
 20
14926.379632
 30
0.0
 11
19284.547190999969
 21
14926.379632
 31
0.0
  0
LINE
  5
3D5A
  8
2-0
  6
CONTINUOUS
 62
     3
 10
19284.547190999969
 20
14926.379632
 30
0.0
 11
19284.547190999969
 21
14944.375435000011
 31
0.0
  0
LINE
  5
3D5B
  8
2-0
  6
CONTINUOUS
 62
     3
 10
19284.547190999969
 20
14944.375435000011
 30
0.0
 11
19254.549565999969
 21
14944.375435000011
 31
0.0
  0
LINE
  5
3D5C
  8
2-0
  6
CONTINUOUS
 62
     3
 10
19284.547190999969
 20
14928.277990000001
 30
0.0
 11
19284.547190999969
 21
14934.27989000002
 31
0.0
  0
LINE
  5
3D5D
  8
2-0
  6
CONTINUOUS
 62
     3
 10
19284.547190999969
 20
14934.27989000002
 30
0.0
 11
19254.549565999969
 21
14934.27989000002
 31
0.0
  0
LINE
  5
3D5E
  8
2-0
  6
CONTINUOUS
 62
     3
 10
19254.549565999969
 20
14897.28070900001
 30
0.0
 11
19254.549565999969
 21
14934.27989000002
 31
0.0
  0
LINE
  5
3D5F
  8
2-0
  6
CONTINUOUS
 62
     3
 10
19284.547190999969
 20
14897.28070900001
 30
0.0
 11
19254.549565999969
 21
14897.28070900001
 31
0.0
  0
LINE
  5
3D60
  8
2-0
  6
CONTINUOUS
 62
     3
 10
19284.547190999969
 20
14903.27766
 30
0.0
 11
19284.547190999969
 21
14897.28070900001
 31
0.0
  0
LINE
  5
3D61
  8
2-0
  6
CONTINUOUS
 62
     3
 10
19284.547190999969
 20
14887.179225
 30
0.0
 11
19254.549565999969
 21
14887.179225
 31
0.0
  0
LINE
  5
3D62
  8
2-0
  6
CONTINUOUS
 62
     3
 10
19284.547190999969
 20
14905.186906000001
 30
0.0
 11
19284.547190999969
 21
14887.179225
 31
0.0
  0
LINE
  5
3D63
  8
2-0
  6
CONTINUOUS
 62
     3
 10
19259.553788999969
 20
14905.186906000001
 30
0.0
 11
19284.547190999969
 21
14905.186906000001
 31
0.0
  0
LINE
  5
3D64
  8
2-0
  6
CONTINUOUS
 62
     3
 10
19259.553788999969
 20
14900.186642000001
 30
0.0
 11
19259.553788999969
 21
14905.186906000001
 31
0.0
  0
LINE
  5
3D65
  8
2-0
  6
CONTINUOUS
 62
     3
 10
19266.551386999949
 20
14900.186642000001
 30
0.0
 11
19259.553788999969
 21
14900.186642000001
 31
0.0
  0
LINE
  5
3D66
  8
2-0
  6
CONTINUOUS
 62
     3
 10
19254.549565999969
 20
14944.375435000011
 30
0.0
 11
19254.549565999969
 21
15588.179225
 31
0.0
  0
LINE
  5
3D69
  8
2-0
  6
CONTINUOUS
 62
     3
 10
19254.549565999969
 20
14897.28070900001
 30
0.0
 11
19254.549565999969
 21
14934.27989000002
 31
0.0
  0
LINE
  5
3D6A
  8
2-0
  6
CONTINUOUS
 62
     3
 10
24124.04415499997
 20
14934.27989000002
 30
0.0
 11
24124.04415499997
 21
14897.28070900001
 31
0.0
  0
LINE
  5
3D6B
  8
2-0
  6
CONTINUOUS
 62
     3
 10
24124.04415499997
 20
14887.179225
 30
0.0
 11
24124.04415499997
 21
14590.57779499999
 31
0.0
  0
TEXT
  5
3E93
  8
FILENAME
  6
CONTINUOUS
 10
27746.857142857141
 20
348.0
 30
0.0
 40
200.0
  1
＜VGC-3052+1952-1-A_0.DXF ＞
  7
FILENAME
 72
     2
 11
32764.0
 21
348.0
 31
0.0
  0
LINE
  5
3E98
  8
WAKUSEN-01
 10
868.00000000000193
 20
827.99999999999955
 30
0.0
 11
32764.000000000011
 21
827.99999999999943
 31
0.0
  0
LINE
  5
3E99
  8
WAKUSEN-01
 10
868.00000000000193
 20
827.99999999999955
 30
0.0
 11
868.00000000000193
 21
22484.000000000011
 31
0.0
  0
LINE
  5
3E9A
  8
WAKUSEN-01
 10
32764.000000000011
 20
827.99999999999943
 30
0.0
 11
32764.000000000011
 21
22484.000000000011
 31
0.0
  0
LINE
  5
3E9B
  8
WAKUSEN-01
 10
20560.0
 20
827.99999999999716
 30
0.0
 11
20560.0
 21
2484.0
 31
0.0
  0
LINE
  5
3E9C
  8
WAKUSEN-02
 10
26868.0
 20
827.99999999999261
 30
0.0
 11
26868.0
 21
2484.0
 31
0.0
  0
ENDSEC
  0
EOF
