  0
SECTION
  2
HEADER
  9
$ACADVER
  1
AC1009
  9
$INSBASE
 10
0.0
 20
0.0
 30
0.0
  9
$EXTMIN
 10
867.99324330406671
 20
327.38164749855792
 30
-0.000000000000013
  9
$EXTMAX
 10
32765.33210850941
 20
22484.553276491992
 30
0.0000000000000023
  9
$LIMMIN
 10
0.0
 20
0.0
  9
$LIMMAX
 10
33600.0
 20
23760.0
  9
$ORTHOMODE
 70
     1
  9
$REGENMODE
 70
     1
  9
$FILLMODE
 70
     1
  9
$QTEXTMODE
 70
     0
  9
$MIRRTEXT
 70
     1
  9
$DRAGMODE
 70
     2
  9
$LTSCALE
 40
80.0
  9
$OSMODE
 70
  3071
  9
$ATTMODE
 70
     1
  9
$TEXTSIZE
 40
0.2
  9
$TRACEWID
 40
0.05
  9
$TEXTSTYLE
  7
00
  9
$CLAYER
  8
0
  9
$CELTYPE
  6
BYLAYER
  9
$CECOLOR
 62
   256
  9
$DIMSCALE
 40
80.0
  9
$DIMASZ
 40
3.0
  9
$DIMEXO
 40
1.0
  9
$DIMDLI
 40
0.38
  9
$DIMRND
 40
0.5
  9
$DIMDLE
 40
0.0
  9
$DIMEXE
 40
1.0
  9
$DIMTP
 40
0.0
  9
$DIMTM
 40
0.0
  9
$DIMTXT
 40
2.0
  9
$DIMCEN
 40
0.09
  9
$DIMTSZ
 40
0.0
  9
$DIMTOL
 70
     0
  9
$DIMLIM
 70
     0
  9
$DIMTIH
 70
     0
  9
$DIMTOH
 70
     0
  9
$DIMSE1
 70
     0
  9
$DIMSE2
 70
     0
  9
$DIMTAD
 70
     1
  9
$DIMZIN
 70
     8
  9
$DIMBLK
  1
DOTSMALL
  9
$DIMASO
 70
     1
  9
$DIMSHO
 70
     1
  9
$DIMPOST
  1

  9
$DIMAPOST
  1

  9
$DIMALT
 70
     0
  9
$DIMALTD
 70
     2
  9
$DIMALTF
 40
25.399999999999999
  9
$DIMLFAC
 40
1.0
  9
$DIMTOFL
 70
     1
  9
$DIMTVP
 40
0.0
  9
$DIMTIX
 70
     0
  9
$DIMSOXD
 70
     0
  9
$DIMSAH
 70
     0
  9
$DIMBLK1
  1

  9
$DIMBLK2
  1

  9
$DIMSTYLE
  2
SUNPOU
  9
$DIMCLRD
 70
     4
  9
$DIMCLRE
 70
     4
  9
$DIMCLRT
 70
     7
  9
$DIMTFAC
 40
1.0
  9
$DIMGAP
 40
1.0
  9
$LUNITS
 70
     2
  9
$LUPREC
 70
     4
  9
$SKETCHINC
 40
0.1
  9
$FILLETRAD
 40
0.0
  9
$AUNITS
 70
     0
  9
$AUPREC
 70
     0
  9
$MENU
  1
acad
  9
$ELEVATION
 40
0.0
  9
$PELEVATION
 40
0.0
  9
$THICKNESS
 40
0.0
  9
$LIMCHECK
 70
     0
  9
$BLIPMODE
 70
     1
  9
$CHAMFERA
 40
0.0
  9
$CHAMFERB
 40
0.0
  9
$SKPOLY
 70
     0
  9
$TDCREATE
 40
2454568.2879973152
  9
$TDUPDATE
 40
2458942.4242144329
  9
$TDINDWG
 40
0.0366285301
  9
$TDUSRTIMER
 40
0.0366270833
  9
$USRTIMER
 70
     1
  9
$ANGBASE
 50
0.0
  9
$ANGDIR
 70
     0
  9
$PDMODE
 70
     0
  9
$PDSIZE
 40
0.0
  9
$PLINEWID
 40
0.0
  9
$COORDS
 70
     1
  9
$SPLFRAME
 70
     0
  9
$SPLINETYPE
 70
     6
  9
$SPLINESEGS
 70
     8
  9
$ATTDIA
 70
     1
  9
$ATTREQ
 70
     1
  9
$HANDLING
 70
     1
  9
$HANDSEED
  5
3BA2
  9
$SURFTAB1
 70
     6
  9
$SURFTAB2
 70
     6
  9
$SURFTYPE
 70
     6
  9
$SURFU
 70
     6
  9
$SURFV
 70
     6
  9
$UCSNAME
  2

  9
$UCSORG
 10
0.0
 20
0.0
 30
0.0
  9
$UCSXDIR
 10
1.0
 20
0.0
 30
0.0
  9
$UCSYDIR
 10
0.0
 20
1.0
 30
0.0
  9
$PUCSNAME
  2

  9
$PUCSORG
 10
0.0
 20
0.0
 30
0.0
  9
$PUCSXDIR
 10
1.0
 20
0.0
 30
0.0
  9
$PUCSYDIR
 10
0.0
 20
1.0
 30
0.0
  9
$USERI1
 70
     0
  9
$USERI2
 70
     0
  9
$USERI3
 70
     0
  9
$USERI4
 70
     0
  9
$USERI5
 70
     0
  9
$USERR1
 40
0.0
  9
$USERR2
 40
0.0
  9
$USERR3
 40
0.0
  9
$USERR4
 40
0.0
  9
$USERR5
 40
0.0
  9
$WORLDVIEW
 70
     1
  9
$SHADEDGE
 70
     3
  9
$SHADEDIF
 70
    70
  9
$TILEMODE
 70
     1
  9
$MAXACTVP
 70
    16
  9
$PLIMCHECK
 70
     0
  9
$PEXTMIN
 10
1.0000000000000000E+020
 20
1.0000000000000000E+020
 30
1.0000000000000000E+020
  9
$PEXTMAX
 10
-1.0000000000000000E+020
 20
-1.0000000000000000E+020
 30
-1.0000000000000000E+020
  9
$PLIMMIN
 10
0.0
 20
0.0
  9
$PLIMMAX
 10
12.0
 20
9.0
  9
$UNITMODE
 70
     0
  9
$VISRETAIN
 70
     0
  9
$PLINEGEN
 70
     1
  9
$PSLTSCALE
 70
     0
  0
ENDSEC
  0
SECTION
  2
TABLES
  0
TABLE
  2
VPORT
 70
     1
  0
VPORT
  2
*ACTIVE
 70
     0
 10
0.0
 20
0.0
 11
1.0
 21
1.0
 12
16800.0
 22
11880.0
 13
0.0
 23
0.0
 14
1.0
 24
1.0
 15
0.0
 25
0.0
 16
0.0
 26
0.0
 36
1.0
 17
0.0
 27
0.0
 37
0.0
 40
23981.023255813951
 41
2.195652173913043
 42
50.0
 43
0.0
 44
0.0
 50
0.0
 51
0.0
 71
     0
 72
 10000
 73
     1
 74
     1
 75
     0
 76
     0
 77
     0
 78
     0
  0
ENDTAB
  0
TABLE
  2
LTYPE
 70
     3
  0
LTYPE
  2
CONTINUOUS
 70
     0
  3
Solid line
 72
    65
 73
     0
 40
0.0
  0
LTYPE
  2
DASHED3
 70
     0
  3
------  ------  ------  ------  
 72
    65
 73
     2
 40
5.0
 49
3.75
 49
-1.25
  0
LTYPE
  2
CENTER2
 70
     0
  3
----------  --  ----------  --  
 72
    65
 73
     4
 40
20.0
 49
12.5
 49
-2.5
 49
2.5
 49
-2.5
  0
ENDTAB
  0
TABLE
  2
LAYER
 70
    16
  0
LAYER
  2
0
 70
     0
 62
     7
  6
CONTINUOUS
  0
LAYER
  2
SUNPOU
 70
     0
 62
     4
  6
CONTINUOUS
  0
LAYER
  2
0-1
 70
     0
 62
     7
  6
CONTINUOUS
  0
LAYER
  2
0-2
 70
     0
 62
     7
  6
CONTINUOUS
  0
LAYER
  2
0-5
 70
     0
 62
     7
  6
CONTINUOUS
  0
LAYER
  2
0-6
 70
     0
 62
     7
  6
CONTINUOUS
  0
LAYER
  2
2-0
 70
     0
 62
     7
  6
CONTINUOUS
  0
LAYER
  2
YODOROGO
 70
     0
 62
   130
  6
CONTINUOUS
  0
LAYER
  2
WAKUSEN-01
 70
     0
 62
    50
  6
CONTINUOUS
  0
LAYER
  2
WAKUSEN-02
 70
     0
 62
   130
  6
CONTINUOUS
  0
LAYER
  2
WAKUMOJI-01
 70
     0
 62
   130
  6
CONTINUOUS
  0
LAYER
  2
FILENAME
 70
     0
 62
     7
  6
CONTINUOUS
  0
LAYER
  2
NAME
 70
     0
 62
    20
  6
CONTINUOUS
  0
LAYER
  2
0-4
 70
     0
 62
     7
  6
CONTINUOUS
  0
ENDTAB
  0
TABLE
  2
STYLE
 70
     5
  0
STYLE
  2
STANDARD
 70
     0
 40
0.0
 41
1.0
 50
0.0
 71
     0
 42
0.0
  3
txt
  4
BIGFONT
  0
STYLE
  2
00
 70
     0
 40
0.0
 41
0.6666666666666666
 50
0.0
 71
     0
 42
0.2
  3
ROMANS
  4
BIGFONT
  0
STYLE
  2
01
 70
     0
 40
3.0
 41
1.0
 50
0.0
 71
     0
 42
0.2
  3
ROMANS
  4
BIGFONT
  0
STYLE
  2
WAKUMOJI
 70
     0
 40
3.0
 41
1.0
 50
0.0
 71
     0
 42
3.0
  3
SIMPLEX
  4
BIGFONT
  0
STYLE
  2
FILENAME
 70
     0
 40
200.0
 41
1.0
 50
0.0
 71
     0
 42
200.0
  3
romans
  4
bigfont
  0
ENDTAB
  0
TABLE
  2
VIEW
 70
     0
  0
ENDTAB
  0
TABLE
  2
UCS
 70
     0
  0
ENDTAB
  0
TABLE
  2
APPID
 70
    13
  0
APPID
  2
ACAD
 70
     0
  0
APPID
  2
ACADANNOTATIVE
 70
     0
  0
APPID
  2
ACAD_PSEXT
 70
     0
  0
APPID
  2
DCO15
 70
     0
  0
APPID
  2
ACAD_MLEADERVER
 70
     0
  0
APPID
  2
AUTOCAD_POSTSCRIPT_FIGURE
 70
     0
  0
APPID
  2
ACAD_EXEMPT_FROM_CAD_STANDARDS
 70
     0
  0
APPID
  2
ACAD_DSTYLE_DIMJAG
 70
     0
  0
APPID
  2
ACAD_DSTYLE_DIMTALN
 70
     0
  0
APPID
  2
ACAD_DSTYLE_DIM_LINETYPE
 70
     0
  0
APPID
  2
ACAD_DSTYLE_DIM_EXT1_LINETYPE
 70
     0
  0
APPID
  2
ACAD_DSTYLE_DIM_EXT2_LINETYPE
 70
     0
  0
APPID
  2
ACAD_NAV_VCDISPLAY
 70
     0
  0
ENDTAB
  0
TABLE
  2
DIMSTYLE
 70
     2
  0
DIMSTYLE
  2
SUNPOU
 70
     0
  3

  4

  5

  6

  7

 40
80.0
 41
3.0
 42
1.0
 43
0.38
 44
1.0
 45
0.5
 46
0.0
 47
0.0
 48
0.0
140
2.0
141
0.09
142
0.0
143
25.399999999999999
144
1.0
145
0.0
146
1.0
147
1.0
 71
     0
 72
     0
 73
     0
 74
     0
 75
     0
 76
     0
 77
     1
 78
     8
170
     0
171
     2
172
     1
173
     0
174
     0
175
     0
176
     4
177
     4
178
     7
  0
ENDTAB
  0
ENDSEC
  0
SECTION
  2
BLOCKS
  0
BLOCK
  8
0
  2
$MODEL_SPACE
 70
     0
 10
0.0
 20
0.0
 30
0.0
  3
$MODEL_SPACE
  1

  0
ENDBLK
  5
317D
  8
0
  0
BLOCK
 67
     1
  8
0
  2
$PAPER_SPACE
 70
     0
 10
0.0
 20
0.0
 30
0.0
  3
$PAPER_SPACE
  1

  0
ENDBLK
  5
3179
 67
     1
  8
0
  0
BLOCK
  8
0
  2
_DOTSMALL
 70
     0
 10
0.0
 20
0.0
 30
0.0
  3
_DOTSMALL
  1

  0
POLYLINE
  5
31AB
  8
0
  6
BYBLOCK
 62
     0
 66
     1
 10
0.0
 20
0.0
 30
0.0
 70
     1
 40
0.5
 41
0.5
  0
VERTEX
  5
3B6A
  8
0
  6
BYBLOCK
 62
     0
 10
-0.0625
 20
0.0
 30
0.0
 42
1.0
  0
VERTEX
  5
3B6B
  8
0
  6
BYBLOCK
 62
     0
 10
0.0625
 20
0.0
 30
0.0
 42
1.0
  0
SEQEND
  5
3B6C
  8
0
  6
BYBLOCK
 62
     0
  0
ENDBLK
  5
31AF
  8
0
  0
ENDSEC
  0
SECTION
  2
ENTITIES
  0
LINE
  5
31B0
  8
0-1
  6
CONTINUOUS
 62
     3
 10
11815.12934199998
 20
16784.488442999991
 30
0.0
 11
14382.62934199998
 21
16784.488442999991
 31
0.0
  0
LINE
  5
31B1
  8
0-1
  6
CONTINUOUS
 62
     3
 10
14332.629712
 20
13321.486886000001
 30
0.0
 11
14332.629712
 21
19832.988205000001
 31
0.0
  0
LINE
  5
31B2
  8
0-1
  6
CONTINUOUS
 62
     3
 10
11865.128972999981
 20
13321.486886000001
 30
0.0
 11
11865.128972999981
 21
19832.988205000001
 31
0.0
  0
LINE
  5
31B3
  8
0-1
  6
CONTINUOUS
 62
     3
 10
11729.630925999991
 20
13289.486978000001
 30
0.0
 11
11729.630925999991
 21
19880.987571999991
 31
0.0
  0
LINE
  5
31B4
  8
0-1
  6
CONTINUOUS
 62
     3
 10
14468.12775899999
 20
13289.486978000001
 30
0.0
 11
14468.12775899999
 21
19880.987571999991
 31
0.0
  0
LINE
  5
31B5
  8
0-1
  6
CONTINUOUS
 62
     3
 10
11803.130450999981
 20
19880.987571999991
 30
0.0
 11
14394.628234
 21
19880.987571999991
 31
0.0
  0
LINE
  5
31B6
  8
0-1
  6
CONTINUOUS
 62
     3
 10
12975.86757099999
 20
18239.746941999991
 30
0.0
 11
13154.06383299998
 21
18415.090717999981
 31
0.0
  0
LINE
  5
31B7
  8
0-1
  6
CONTINUOUS
 62
     3
 10
13499.04641299998
 20
17351.610197000002
 30
0.0
 11
13677.24267599998
 21
17526.957932000001
 31
0.0
  0
LINE
  5
31B8
  8
0-1
  6
CONTINUOUS
 62
     3
 10
13499.04641299998
 20
17351.610197000002
 30
0.0
 11
13154.06383299998
 21
18415.090717999981
 31
0.0
  0
LINE
  5
31B9
  8
0-1
  6
CONTINUOUS
 62
     3
 10
11815.12934199998
 20
16705.487834999982
 30
0.0
 11
14382.62934199998
 21
16705.487834999982
 31
0.0
  0
LINE
  5
31BA
  8
0-1
  6
CONTINUOUS
 62
     3
 10
11772.62907799998
 20
13445.486899
 30
0.0
 11
14425.127627
 21
13445.486899
 31
0.0
  0
LINE
  5
31BB
  8
0-1
  6
CONTINUOUS
 62
     3
 10
11815.12934199998
 20
13524.485526999981
 30
0.0
 11
14382.62934199998
 21
13524.485526999981
 31
0.0
  0
LINE
  5
31BC
  8
0-1
  6
CONTINUOUS
 62
     3
 10
11729.630925999991
 20
13289.486978000001
 30
0.0
 11
14468.12775899999
 21
13289.486978000001
 31
0.0
  0
LINE
  5
31BD
  8
0-1
  6
CONTINUOUS
 62
     3
 10
11729.630925999991
 20
13321.486886000001
 30
0.0
 11
14468.12775899999
 21
13321.486886000001
 31
0.0
  0
LINE
  5
31BE
  8
0-1
  6
CONTINUOUS
 62
     3
 10
14382.62934199998
 20
13445.486899
 30
0.0
 11
14382.62934199998
 21
16822.144823999992
 31
0.0
  0
LINE
  5
31BF
  8
0-1
  6
CONTINUOUS
 62
     3
 10
14425.127627
 20
13445.486899
 30
0.0
 11
14425.127627
 21
16779.709885
 31
0.0
  0
LINE
  5
31C0
  8
0-1
  6
CONTINUOUS
 62
     3
 10
12975.86757099999
 20
18239.746941999991
 30
0.0
 11
11476.26347399999
 21
19737.038959999991
 31
0.0
  0
LINE
  5
31C1
  8
0-1
  6
CONTINUOUS
 62
     3
 10
11815.12934199998
 20
13445.486899
 30
0.0
 11
11815.12934199998
 21
19398.693705999991
 31
0.0
  0
LINE
  5
31C2
  8
0-1
  6
CONTINUOUS
 62
     3
 10
11772.62907799998
 20
13445.486899
 30
0.0
 11
11772.62907799998
 21
19441.124687
 31
0.0
  0
LINE
  5
31C3
  8
0-1
  6
CONTINUOUS
 62
     3
 10
14734.439281999979
 20
16470.875293000001
 30
0.0
 11
13677.24267599998
 21
17526.957932000001
 31
0.0
  0
LINE
  5
31C4
  8
0-1
  6
CONTINUOUS
 62
     3
 10
13028.62965899998
 20
18291.665755000002
 30
0.0
 11
13028.62965899998
 21
19832.988205000001
 31
0.0
  0
LINE
  5
31C5
  8
0-1
  6
CONTINUOUS
 62
     3
 10
12991.628496999971
 20
18255.258449000001
 30
0.0
 11
12991.628496999971
 21
19832.988205000001
 31
0.0
  0
LINE
  5
31C6
  8
0-1
  6
CONTINUOUS
 62
     3
 10
13196.629420999991
 20
18283.870411
 30
0.0
 11
13196.629420999991
 21
19832.988205000001
 31
0.0
  0
LINE
  5
31C7
  8
0-1
  6
CONTINUOUS
 62
     3
 10
13159.63023899998
 20
18397.930271000001
 30
0.0
 11
13159.63023899998
 21
19832.988205000001
 31
0.0
  0
LINE
  5
31C8
  8
0-1
  6
CONTINUOUS
 62
     3
 10
13327.12918399999
 20
17881.576808999991
 30
0.0
 11
13327.12918399999
 21
19832.988205000001
 31
0.0
  0
LINE
  5
31C9
  8
0-1
  6
CONTINUOUS
 62
     3
 10
13364.128365999961
 20
17767.516948
 30
0.0
 11
13364.128365999961
 21
19832.988205000001
 31
0.0
  0
LINE
  5
31CA
  8
0-1
  6
CONTINUOUS
 62
     3
 10
12861.13071499999
 20
18354.305640999992
 30
0.0
 11
12861.13071499999
 21
19832.988205000001
 31
0.0
  0
LINE
  5
31CB
  8
0-1
  6
CONTINUOUS
 62
     3
 10
12824.129552999981
 20
18391.247416999999
 30
0.0
 11
12824.129552999981
 21
19832.988205000001
 31
0.0
  0
LINE
  5
31CC
  8
0-1
  6
CONTINUOUS
 62
     3
 10
13531.62928899999
 20
17383.672459000001
 30
0.0
 11
13531.62928899999
 21
19832.988205000001
 31
0.0
  0
LINE
  5
31CD
  8
0-1
  6
CONTINUOUS
 62
     3
 10
13494.63010799997
 20
17365.223345999999
 30
0.0
 11
13494.63010799997
 21
19832.988205000001
 31
0.0
  0
LINE
  5
31CE
  8
0-1
  6
CONTINUOUS
 62
     3
 10
13829.62997599998
 20
17374.806194999979
 30
0.0
 11
13829.62997599998
 21
19832.988205000001
 31
0.0
  0
LINE
  5
31CF
  8
0-1
  6
CONTINUOUS
 62
     3
 10
13866.629156999979
 20
17337.862440000001
 30
0.0
 11
13866.629156999979
 21
19832.988205000001
 31
0.0
  0
LINE
  5
31D0
  8
0-1
  6
CONTINUOUS
 62
     3
 10
13699.13021299998
 20
17505.104047000001
 30
0.0
 11
13699.13021299998
 21
19832.988205000001
 31
0.0
  0
LINE
  5
31D1
  8
0-1
  6
CONTINUOUS
 62
     3
 10
13662.12905199998
 20
17512.083828999981
 30
0.0
 11
13662.12905199998
 21
19832.988205000001
 31
0.0
  0
LINE
  5
31D2
  8
0-1
  6
CONTINUOUS
 62
     3
 10
13997.12891999999
 20
17207.564588000001
 30
0.0
 11
13997.12891999999
 21
19832.988205000001
 31
0.0
  0
LINE
  5
31D3
  8
0-1
  6
CONTINUOUS
 62
     3
 10
14034.13008099999
 20
17170.618854
 30
0.0
 11
14034.13008099999
 21
19832.988205000001
 31
0.0
  0
LINE
  5
31D4
  8
0-1
  6
CONTINUOUS
 62
     3
 10
14201.62902499998
 20
17003.377247
 30
0.0
 11
14201.62902499998
 21
19832.988205000001
 31
0.0
  0
LINE
  5
31D5
  8
0-1
  6
CONTINUOUS
 62
     3
 10
14164.62984399997
 20
17040.321002000001
 30
0.0
 11
14164.62984399997
 21
19832.988205000001
 31
0.0
  0
LINE
  5
31D6
  8
0-1
  6
CONTINUOUS
 62
     3
 10
12023.63005499998
 20
19190.513674999991
 30
0.0
 11
12023.63005499998
 21
19832.988205000001
 31
0.0
  0
LINE
  5
31D7
  8
0-1
  6
CONTINUOUS
 62
     3
 10
11986.628892999979
 20
19227.457429999991
 30
0.0
 11
11986.628892999979
 21
19832.988205000001
 31
0.0
  0
LINE
  5
31D8
  8
0-1
  6
CONTINUOUS
 62
     3
 10
12154.12981699999
 20
19060.215823999999
 30
0.0
 11
12154.12981699999
 21
19832.988205000001
 31
0.0
  0
LINE
  5
31D9
  8
0-1
  6
CONTINUOUS
 62
     3
 10
12191.12899899998
 20
19023.270088999991
 30
0.0
 11
12191.12899899998
 21
19832.988205000001
 31
0.0
  0
LINE
  5
31DA
  8
0-1
  6
CONTINUOUS
 62
     3
 10
12526.12886699999
 20
18688.786875000002
 30
0.0
 11
12526.12886699999
 21
19832.988205000001
 31
0.0
  0
LINE
  5
31DB
  8
0-1
  6
CONTINUOUS
 62
     3
 10
12489.131664999981
 20
18725.730629999991
 30
0.0
 11
12489.131664999981
 21
19832.988205000001
 31
0.0
  0
LINE
  5
31DC
  8
0-1
  6
CONTINUOUS
 62
     3
 10
12321.62876099998
 20
18892.972237000002
 30
0.0
 11
12321.62876099998
 21
19832.988205000001
 31
0.0
  0
LINE
  5
31DD
  8
0-1
  6
CONTINUOUS
 62
     3
 10
12358.62992299998
 20
18856.028481999991
 30
0.0
 11
12358.62992299998
 21
19832.988205000001
 31
0.0
  0
LINE
  5
31DE
  8
0-1
  6
CONTINUOUS
 62
     3
 10
12693.63176999998
 20
18521.545268000002
 30
0.0
 11
12693.63176999998
 21
19832.988205000001
 31
0.0
  0
LINE
  5
31DF
  8
0-1
  6
CONTINUOUS
 62
     3
 10
12656.630608999991
 20
18558.489023999999
 30
0.0
 11
12656.630608999991
 21
19832.988205000001
 31
0.0
  0
LINE
  5
31E0
  8
0-1
  6
CONTINUOUS
 62
     3
 10
12824.129552999981
 20
18391.247416999999
 30
0.0
 11
12824.129552999981
 21
19832.988205000001
 31
0.0
  0
LINE
  5
31E1
  8
0-1
  6
CONTINUOUS
 62
     3
 10
12861.13071499999
 20
18354.305640999992
 30
0.0
 11
12861.13071499999
 21
19832.988205000001
 31
0.0
  0
LINE
  5
31E2
  8
0-1
  6
CONTINUOUS
 62
     3
 10
11885.129077999971
 20
16750.486251999992
 30
0.0
 11
14312.62960599998
 21
13481.986252000001
 31
0.0
  0
LINE
  5
31E3
  8
0-1
  6
CONTINUOUS
 62
     3
 10
11885.129077999971
 20
13481.986252000001
 30
0.0
 11
14312.62960599998
 21
16750.486251999992
 31
0.0
  0
LINE
  5
31E4
  8
0-1
  6
CONTINUOUS
 62
     3
 10
13184.05749899999
 20
18322.635322999991
 30
0.0
 11
11885.129077999971
 21
16750.486251999992
 31
0.0
  0
LINE
  5
31E5
  8
0-1
  6
CONTINUOUS
 62
     3
 10
13028.62965899998
 20
18293.261246999991
 30
0.0
 11
13299.103159999981
 21
17967.976856000001
 31
0.0
  0
LINE
  5
31E6
  8
0-1
  6
CONTINUOUS
 62
     3
 10
13670.95572499998
 20
17520.767976999981
 30
0.0
 11
14312.62960599998
 21
16750.486251999992
 31
0.0
  0
LINE
  5
31E7
  8
0-1
  6
CONTINUOUS
 62
     3
 10
11747.62870899999
 20
19463.093384
 30
0.0
 11
11747.62870899999
 21
19873.487175999991
 31
0.0
  0
LINE
  5
31E8
  8
0-1
  6
CONTINUOUS
 62
     3
 10
14450.12799599999
 20
16757.741186999981
 30
0.0
 11
14450.12799599999
 21
19873.487175999991
 31
0.0
  0
LINE
  5
31E9
  8
0-1
  6
CONTINUOUS
 62
     3
 10
11747.62870899999
 20
19832.988205000001
 30
0.0
 11
14450.12799599999
 21
19832.988205000001
 31
0.0
  0
LINE
  5
31EA
  8
0-1
  6
CONTINUOUS
 62
     3
 10
11803.130450999981
 20
19855.988232
 30
0.0
 11
11803.130450999981
 21
19885.985855999999
 31
0.0
  0
LINE
  5
31EB
  8
0-1
  6
CONTINUOUS
 62
     3
 10
11729.630925999991
 20
19885.985855999999
 30
0.0
 11
11729.630925999991
 21
19850.987968000001
 31
0.0
  0
LINE
  5
31EC
  8
0-1
  6
CONTINUOUS
 62
     3
 10
11798.13018699999
 20
19890.98611999999
 30
0.0
 11
11734.62920999999
 21
19890.98611999999
 31
0.0
  0
LINE
  5
31ED
  8
0-1
  6
CONTINUOUS
 62
     3
 10
11747.62870899999
 20
19873.487175999991
 30
0.0
 11
11729.630925999991
 21
19873.487175999991
 31
0.0
  0
LINE
  5
31EE
  8
0-1
  6
CONTINUOUS
 62
     3
 10
11747.62870899999
 20
19850.987968000001
 30
0.0
 11
11798.13018699999
 21
19850.987968000001
 31
0.0
  0
LINE
  5
31EF
  8
0-1
  6
CONTINUOUS
 62
     3
 10
14450.12799599999
 20
19873.487175999991
 30
0.0
 11
14468.12775899999
 21
19873.487175999991
 31
0.0
  0
LINE
  5
31F0
  8
0-1
  6
CONTINUOUS
 62
     3
 10
14394.628234
 20
19855.988232
 30
0.0
 11
14394.628234
 21
19885.985855999999
 31
0.0
  0
LINE
  5
31F1
  8
0-1
  6
CONTINUOUS
 62
     3
 10
14450.12799599999
 20
19850.987968000001
 30
0.0
 11
14399.62849799996
 21
19850.987968000001
 31
0.0
  0
LINE
  5
31F2
  8
0-1
  6
CONTINUOUS
 62
     3
 10
14468.12775899999
 20
19885.985855999999
 30
0.0
 11
14468.12775899999
 21
19850.987968000001
 31
0.0
  0
LINE
  5
31F3
  8
0-1
  6
CONTINUOUS
 62
     3
 10
14399.62849799996
 20
19890.98611999999
 30
0.0
 11
14463.12749499999
 21
19890.98611999999
 31
0.0
  0
LINE
  5
31F4
  8
0-6
  6
CONTINUOUS
 62
     6
 10
13433.001755999991
 20
16938.316830999989
 30
0.0
 11
13371.852446999979
 21
17110.08517499996
 31
0.0
  0
LINE
  5
31F5
  8
0-6
  6
CONTINUOUS
 62
     6
 10
13396.521207999949
 20
19290.150762999991
 30
0.0
 11
13629.90842799999
 21
20120.986383999982
 31
0.0
  0
LINE
  5
31F6
  8
0-6
  6
CONTINUOUS
 62
     6
 10
12953.906790999979
 20
19714.486304999991
 30
0.0
 11
12659.975994999981
 21
20120.986383999982
 31
0.0
  0
LINE
  5
31F7
  8
0-6
  6
CONTINUOUS
 62
     6
 10
13629.90842799999
 20
20120.986383999982
 30
0.0
 11
14181.84175799999
 21
20120.986383999982
 31
0.0
  0
LINE
  5
31F8
  8
0-6
  6
CONTINUOUS
 62
     6
 10
12900.63794599999
 20
20010.889520000001
 30
0.0
 11
12728.817788137259
 21
20365.98744000003
 31
0.0
  0
LINE
  5
31F9
  8
0-6
  6
CONTINUOUS
 62
     6
 10
12649.43695960289
 20
20515.987440000001
 30
0.0
 11
12421.38462099999
 21
20910.988496000002
 31
0.0
  0
LINE
  5
31FA
  8
0-6
  6
CONTINUOUS
 62
     6
 10
12421.38462099999
 20
20910.988496000002
 30
0.0
 11
13263.820219999971
 21
20910.988496000002
 31
0.0
  0
LINE
  5
31FB
  8
0-6
  6
CONTINUOUS
 62
     6
 10
11859.97731499998
 20
20120.986383999982
 30
0.0
 11
12659.975994999981
 21
20120.986383999982
 31
0.0
  0
LINE
  5
31FC
  8
0-6
  6
CONTINUOUS
 62
     6
 10
12571.279705999979
 20
17110.08517499996
 30
0.0
 11
13371.852446999979
 21
17110.08517499996
 31
0.0
  0
LINE
  5
31FD
  8
0-6
  6
CONTINUOUS
 62
     6
 10
12640.34510999998
 20
15999.300519999981
 30
0.0
 11
12851.613188999971
 21
16201.359878999991
 31
0.0
  0
LINE
  5
31FE
  8
0-6
  6
CONTINUOUS
 62
     6
 10
12851.613188999971
 20
16201.359878999991
 30
0.0
 11
13731.61213299999
 21
16201.359878999991
 31
0.0
  0
LINE
  5
31FF
  8
0-6
  6
CONTINUOUS
 62
     6
 10
11979.659007999981
 20
17568.555535
 30
0.0
 11
12499.656764999991
 21
17568.555535
 31
0.0
  0
LINE
  5
3200
  8
0-6
  6
CONTINUOUS
 62
     6
 10
12621.85244699999
 20
13676.376956999989
 30
0.0
 11
12704.73884899999
 21
13863.815669999991
 31
0.0
  0
LINE
  5
3201
  8
0-6
  6
CONTINUOUS
 62
     6
 10
12704.73884899999
 20
13863.815669999991
 30
0.0
 11
13504.739508999981
 21
13863.815669999991
 31
0.0
  0
LINE
  5
3202
  8
0-6
  6
CONTINUOUS
 62
     6
 10
13451.910116999979
 20
12489.487308
 30
0.0
 11
14323.986103999991
 21
12489.487308
 31
0.0
  0
LINE
  5
3203
  8
0-6
  6
CONTINUOUS
 62
     6
 10
13045.79604399999
 20
13153.018967
 30
0.0
 11
13451.910116999979
 21
12489.487308
 31
0.0
  0
LINE
  5
3204
  8
0-6
  6
CONTINUOUS
 62
     6
 10
9970.9959749999925
 20
11999.486186
 30
0.0
 11
11050.99557899998
 21
11999.486186
 31
0.0
  0
LINE
  5
3205
  8
0-6
  6
CONTINUOUS
 62
     6
 10
11637.736763999979
 20
13880.25854099999
 30
0.0
 11
11050.99557899998
 21
11999.486186
 31
0.0
  0
LINE
  5
3206
  8
0-6
  6
CONTINUOUS
 62
     6
 10
11880.61577599997
 20
17789.345098999998
 30
0.0
 11
11979.659007999981
 21
17568.555535
 31
0.0
  0
LINE
  5
3207
  8
0-6
  6
CONTINUOUS
 62
     6
 10
14576.036225999969
 20
20006.30891399999
 30
0.0
 11
15502.78348099998
 21
20910.988496000002
 31
0.0
  0
LINE
  5
3208
  8
0-6
  6
CONTINUOUS
 62
     6
 10
15502.78348099998
 20
20910.988496000002
 30
0.0
 11
17177.782821000001
 21
20910.988496000002
 31
0.0
  0
LINE
  5
3209
  8
0-6
  6
CONTINUOUS
 62
     6
 10
11663.17951599998
 20
13872.27712199999
 30
0.0
 11
11685.62923699999
 21
14032.922972999981
 31
0.0
  0
LINE
  5
320A
  8
0-6
  6
CONTINUOUS
 62
     6
 10
11685.62923699999
 20
14032.922972999981
 30
0.0
 11
11612.29203199999
 21
13888.241939999991
 31
0.0
  0
LINE
  5
320B
  8
0-6
  6
CONTINUOUS
 62
     6
 10
11685.62923699999
 20
14032.922972999981
 30
0.0
 11
11663.17951599998
 21
13872.27712199999
 31
0.0
  0
LINE
  5
320C
  8
0-6
  6
CONTINUOUS
 62
     6
 10
11663.17951599998
 20
13872.27712199999
 30
0.0
 11
11612.29203199999
 21
13888.241939999991
 31
0.0
  0
LINE
  5
320D
  8
0-6
  6
CONTINUOUS
 62
     6
 10
11612.29203199999
 20
13888.241939999991
 30
0.0
 11
11685.62923699999
 21
14032.922972999981
 31
0.0
  0
LINE
  5
320E
  8
0-6
  6
CONTINUOUS
 62
     6
 10
11612.29203199999
 20
13888.241939999991
 30
0.0
 11
11663.17951599998
 21
13872.27712199999
 31
0.0
  0
LINE
  5
320F
  8
0-6
  6
CONTINUOUS
 62
     6
 10
13068.54071199998
 20
13166.93993199999
 30
0.0
 11
12962.27025699998
 21
13289.486978000001
 31
0.0
  0
LINE
  5
3210
  8
0-6
  6
CONTINUOUS
 62
     6
 10
12962.27025699998
 20
13289.486978000001
 30
0.0
 11
13023.051374999961
 21
13139.098002999999
 31
0.0
  0
LINE
  5
3211
  8
0-6
  6
CONTINUOUS
 62
     6
 10
12962.27025699998
 20
13289.486978000001
 30
0.0
 11
13068.54071199998
 21
13166.93993199999
 31
0.0
  0
LINE
  5
3212
  8
0-6
  6
CONTINUOUS
 62
     6
 10
13068.54071199998
 20
13166.93993199999
 30
0.0
 11
13023.051374999961
 21
13139.098002999999
 31
0.0
  0
LINE
  5
3213
  8
0-6
  6
CONTINUOUS
 62
     6
 10
13023.051374999961
 20
13139.098002999999
 30
0.0
 11
12962.27025699998
 21
13289.486978000001
 31
0.0
  0
LINE
  5
3214
  8
0-6
  6
CONTINUOUS
 62
     6
 10
13023.051374999961
 20
13139.098002999999
 30
0.0
 11
13068.54071199998
 21
13166.93993199999
 31
0.0
  0
LINE
  5
3215
  8
0-6
  6
CONTINUOUS
 62
     6
 10
12597.70231999998
 20
13687.688915000001
 30
0.0
 11
12553.97871399999
 21
13531.486093999991
 31
0.0
  0
LINE
  5
3216
  8
0-6
  6
CONTINUOUS
 62
     6
 10
12553.97871399999
 20
13531.486093999991
 30
0.0
 11
12646.00059399999
 21
13665.064997999991
 31
0.0
  0
LINE
  5
3217
  8
0-6
  6
CONTINUOUS
 62
     6
 10
12553.97871399999
 20
13531.486093999991
 30
0.0
 11
12597.70231999998
 21
13687.688915000001
 31
0.0
  0
LINE
  5
3218
  8
0-6
  6
CONTINUOUS
 62
     6
 10
12597.70231999998
 20
13687.688915000001
 30
0.0
 11
12646.00059399999
 21
13665.064997999991
 31
0.0
  0
LINE
  5
3219
  8
0-6
  6
CONTINUOUS
 62
     6
 10
12646.00059399999
 20
13665.064997999991
 30
0.0
 11
12553.97871399999
 21
13531.486093999991
 31
0.0
  0
LINE
  5
321A
  8
0-6
  6
CONTINUOUS
 62
     6
 10
12646.00059399999
 20
13665.064997999991
 30
0.0
 11
12597.70231999998
 21
13687.688915000001
 31
0.0
  0
LINE
  5
321B
  8
0-6
  6
CONTINUOUS
 62
     6
 10
12621.913811999981
 20
16018.571134
 30
0.0
 11
12524.71549099999
 21
15888.710756
 31
0.0
  0
LINE
  5
321C
  8
0-6
  6
CONTINUOUS
 62
     6
 10
12524.71549099999
 20
15888.710756
 30
0.0
 11
12658.77640699999
 21
15980.02990699998
 31
0.0
  0
LINE
  5
321D
  8
0-6
  6
CONTINUOUS
 62
     6
 10
12524.71549099999
 20
15888.710756
 30
0.0
 11
12621.913811999981
 21
16018.571134
 31
0.0
  0
LINE
  5
321E
  8
0-6
  6
CONTINUOUS
 62
     6
 10
12621.913811999981
 20
16018.571134
 30
0.0
 11
12658.77640699999
 21
15980.02990699998
 31
0.0
  0
LINE
  5
321F
  8
0-6
  6
CONTINUOUS
 62
     6
 10
12658.77640699999
 20
15980.02990699998
 30
0.0
 11
12524.71549099999
 21
15888.710756
 31
0.0
  0
LINE
  5
3220
  8
0-6
  6
CONTINUOUS
 62
     6
 10
12658.77640699999
 20
15980.02990699998
 30
0.0
 11
12621.913811999981
 21
16018.571134
 31
0.0
  0
LINE
  5
3221
  8
0-6
  6
CONTINUOUS
 62
     6
 10
11904.94801799999
 20
17800.258184999991
 30
0.0
 11
11815.12934199998
 21
17935.330635999992
 31
0.0
  0
LINE
  5
3222
  8
0-6
  6
CONTINUOUS
 62
     6
 10
11815.12934199998
 20
17935.330635999992
 30
0.0
 11
11856.28353299998
 21
17778.432013000001
 31
0.0
  0
LINE
  5
3223
  8
0-6
  6
CONTINUOUS
 62
     6
 10
11815.12934199998
 20
17935.330635999992
 30
0.0
 11
11904.94801799999
 21
17800.258184999991
 31
0.0
  0
LINE
  5
3224
  8
0-6
  6
CONTINUOUS
 62
     6
 10
11904.94801799999
 20
17800.258184999991
 30
0.0
 11
11856.28353299998
 21
17778.432013000001
 31
0.0
  0
LINE
  5
3225
  8
0-6
  6
CONTINUOUS
 62
     6
 10
11856.28353299998
 20
17778.432013000001
 30
0.0
 11
11815.12934199998
 21
17935.330635999992
 31
0.0
  0
LINE
  5
3226
  8
0-6
  6
CONTINUOUS
 62
     6
 10
11856.28353299998
 20
17778.432013000001
 30
0.0
 11
11904.94801799999
 21
17800.258184999991
 31
0.0
  0
LINE
  5
3227
  8
0-6
  6
CONTINUOUS
 62
     6
 10
13458.64047999998
 20
16945.650947999991
 30
0.0
 11
13477.00249499999
 21
16784.488442999991
 31
0.0
  0
LINE
  5
3228
  8
0-6
  6
CONTINUOUS
 62
     6
 10
13477.00249499999
 20
16784.488442999991
 30
0.0
 11
13407.363030999981
 21
16930.982714999991
 31
0.0
  0
LINE
  5
3229
  8
0-6
  6
CONTINUOUS
 62
     6
 10
13477.00249499999
 20
16784.488442999991
 30
0.0
 11
13458.64047999998
 21
16945.650947999991
 31
0.0
  0
LINE
  5
322A
  8
0-6
  6
CONTINUOUS
 62
     6
 10
13458.64047999998
 20
16945.650947999991
 30
0.0
 11
13407.363030999981
 21
16930.982714999991
 31
0.0
  0
LINE
  5
322B
  8
0-6
  6
CONTINUOUS
 62
     6
 10
13407.363030999981
 20
16930.982714999991
 30
0.0
 11
13477.00249499999
 21
16784.488442999991
 31
0.0
  0
LINE
  5
322C
  8
0-6
  6
CONTINUOUS
 62
     6
 10
13407.363030999981
 20
16930.982714999991
 30
0.0
 11
13458.64047999998
 21
16945.650947999991
 31
0.0
  0
LINE
  5
322D
  8
0-6
  6
CONTINUOUS
 62
     6
 10
13409.02186699999
 20
19451.875451999978
 30
0.0
 11
13396.521207999949
 21
19290.150762999991
 31
0.0
  0
LINE
  5
322E
  8
0-6
  6
CONTINUOUS
 62
     6
 10
13396.521207999949
 20
19290.150762999991
 30
0.0
 11
13460.79815499998
 21
19439.079843999982
 31
0.0
  0
LINE
  5
322F
  8
0-6
  6
CONTINUOUS
 62
     6
 10
13396.521207999949
 20
19290.150762999991
 30
0.0
 11
13409.02186699999
 21
19451.875451999978
 31
0.0
  0
LINE
  5
3230
  8
0-6
  6
CONTINUOUS
 62
     6
 10
13409.02186699999
 20
19451.875451999978
 30
0.0
 11
13460.79815499998
 21
19439.079843999982
 31
0.0
  0
LINE
  5
3231
  8
0-6
  6
CONTINUOUS
 62
     6
 10
13460.79815499998
 20
19439.079843999982
 30
0.0
 11
13396.521207999949
 21
19290.150762999991
 31
0.0
  0
LINE
  5
3232
  8
0-6
  6
CONTINUOUS
 62
     6
 10
13460.79815499998
 20
19439.079843999982
 30
0.0
 11
13409.02186699999
 21
19451.875451999978
 31
0.0
  0
LINE
  5
3233
  8
0-6
  6
CONTINUOUS
 62
     6
 10
12878.98993099998
 20
19998.392819000001
 30
0.0
 11
12975.637945999981
 21
19880.987571999991
 31
0.0
  0
LINE
  5
3234
  8
0-6
  6
CONTINUOUS
 62
     6
 10
12975.637945999981
 20
19880.987571999991
 30
0.0
 11
12922.28992099999
 21
20023.392158999999
 31
0.0
  0
LINE
  5
3235
  8
0-6
  6
CONTINUOUS
 62
     6
 10
12975.637945999981
 20
19880.987571999991
 30
0.0
 11
12878.98993099998
 21
19998.392819000001
 31
0.0
  0
LINE
  5
3236
  8
0-6
  6
CONTINUOUS
 62
     6
 10
12878.98993099998
 20
19998.392819000001
 30
0.0
 11
12922.28992099999
 21
20023.392158999999
 31
0.0
  0
LINE
  5
3237
  8
0-6
  6
CONTINUOUS
 62
     6
 10
12922.28992099999
 20
20023.392158999999
 30
0.0
 11
12975.637945999981
 21
19880.987571999991
 31
0.0
  0
LINE
  5
3238
  8
0-6
  6
CONTINUOUS
 62
     6
 10
12922.28992099999
 20
20023.392158999999
 30
0.0
 11
12878.98993099998
 21
19998.392819000001
 31
0.0
  0
LINE
  5
3239
  8
0-6
  6
CONTINUOUS
 62
     6
 10
12838.94426999998
 20
19828.92425399999
 30
0.0
 11
12953.906790999979
 21
19714.486304999991
 31
0.0
  0
LINE
  5
323A
  8
0-6
  6
CONTINUOUS
 62
     6
 10
12953.906790999979
 20
19714.486304999991
 30
0.0
 11
12882.27593199998
 21
19860.022491
 31
0.0
  0
LINE
  5
323B
  8
0-6
  6
CONTINUOUS
 62
     6
 10
12953.906790999979
 20
19714.486304999991
 30
0.0
 11
12838.94426999998
 21
19828.92425399999
 31
0.0
  0
LINE
  5
323C
  8
0-6
  6
CONTINUOUS
 62
     6
 10
12838.94426999998
 20
19828.92425399999
 30
0.0
 11
12882.27593199998
 21
19860.022491
 31
0.0
  0
LINE
  5
323D
  8
0-6
  6
CONTINUOUS
 62
     6
 10
12882.27593199998
 20
19860.022491
 30
0.0
 11
12953.906790999979
 21
19714.486304999991
 31
0.0
  0
LINE
  5
323E
  8
0-6
  6
CONTINUOUS
 62
     6
 10
12882.27593199998
 20
19860.022491
 30
0.0
 11
12838.94426999998
 21
19828.92425399999
 31
0.0
  0
LINE
  5
323F
  8
0-6
  6
CONTINUOUS
 62
     6
 10
14556.81509999998
 20
20024.793657999991
 30
0.0
 11
14465.12775899999
 21
19890.98611999999
 31
0.0
  0
LINE
  5
3240
  8
0-6
  6
CONTINUOUS
 62
     6
 10
14465.12775899999
 20
19890.98611999999
 30
0.0
 11
14595.25537199998
 21
19987.82614899999
 31
0.0
  0
LINE
  5
3241
  8
0-6
  6
CONTINUOUS
 62
     6
 10
14465.12775899999
 20
19890.98611999999
 30
0.0
 11
14556.81509999998
 21
20024.793657999991
 31
0.0
  0
LINE
  5
3242
  8
0-6
  6
CONTINUOUS
 62
     6
 10
14556.81509999998
 20
20024.793657999991
 30
0.0
 11
14595.25537199998
 21
19987.82614899999
 31
0.0
  0
LINE
  5
3243
  8
0-6
  6
CONTINUOUS
 62
     6
 10
14595.25537199998
 20
19987.82614899999
 30
0.0
 11
14465.12775899999
 21
19890.98611999999
 31
0.0
  0
LINE
  5
3244
  8
0-6
  6
CONTINUOUS
 62
     6
 10
14595.25537199998
 20
19987.82614899999
 30
0.0
 11
14556.81509999998
 21
20024.793657999991
 31
0.0
  0
LINE
  5
3245
  8
2-0
  6
DASHED3
 62
     6
 10
11815.12934199998
 20
19629.487756999992
 30
0.0
 11
14382.62934199998
 21
19629.487756999992
 31
0.0
  0
LINE
  5
3246
  8
2-0
  6
DASHED3
 62
     6
 10
11772.62907799998
 20
19441.124687
 30
0.0
 11
11772.62907799998
 21
19714.486304999991
 31
0.0
  0
LINE
  5
3247
  8
2-0
  6
DASHED3
 62
     6
 10
11815.12934199998
 20
19398.693705999991
 30
0.0
 11
11815.12934199998
 21
19714.486304999991
 31
0.0
  0
LINE
  5
3248
  8
2-0
  6
DASHED3
 62
     6
 10
11772.62907799998
 20
19714.486304999991
 30
0.0
 11
14425.127627
 21
19714.486304999991
 31
0.0
  0
LINE
  5
3249
  8
2-0
  6
DASHED3
 62
     6
 10
14382.62934199998
 20
16822.144823999992
 30
0.0
 11
14382.62934199998
 21
19714.486304999991
 31
0.0
  0
LINE
  5
324A
  8
2-0
  6
DASHED3
 62
     6
 10
14425.127627
 20
16779.709885
 30
0.0
 11
14425.127627
 21
19714.486304999991
 31
0.0
  0
LINE
  5
324B
  8
2-0
  6
DASHED3
 62
     6
 10
11885.129077999971
 20
19668.486251999992
 30
0.0
 11
13029.358121999971
 21
18292.382341
 31
0.0
  0
LINE
  5
324C
  8
2-0
  6
DASHED3
 62
     6
 10
14312.62960599998
 20
19668.486251999992
 30
0.0
 11
13184.05749899999
 21
18322.635322999991
 31
0.0
  0
LINE
  5
324D
  8
2-0
  6
DASHED3
 62
     6
 10
13299.103159999981
 20
17967.976856000001
 30
0.0
 11
13670.95572499998
 21
17520.767976999981
 31
0.0
  0
LINE
  5
324E
  8
2-0
  6
CENTER2
 62
     6
 10
14382.62934199998
 20
20910.988496000002
 30
0.0
 11
14382.62934199998
 21
19960.985855999981
 31
0.0
  0
LINE
  5
324F
  8
2-0
  6
CENTER2
 62
     6
 10
10485.629236999979
 20
19668.486251999992
 30
0.0
 11
12132.129447999991
 21
19668.486251999992
 31
0.0
  0
LINE
  5
3250
  8
2-0
  6
CENTER2
 62
     6
 10
11815.12934199998
 20
20910.988496000002
 30
0.0
 11
11815.12934199998
 21
19960.985855999981
 31
0.0
  0
LINE
  5
3251
  8
2-0
  6
CENTER2
 62
     6
 10
10485.629236999979
 20
16750.486251999992
 30
0.0
 11
12132.129447999991
 21
16750.486251999992
 31
0.0
  0
LINE
  5
3252
  8
2-0
  6
CENTER2
 62
     6
 10
10485.629236999979
 20
13481.986252000001
 30
0.0
 11
12132.129447999991
 21
13481.986252000001
 31
0.0
  0
ARC
  5
3253
  8
0-1
  6
CONTINUOUS
 62
     3
 10
11798.13018699999
 20
19855.988232
 30
0.0
 40
5.0
 50
269.9999850001808
 51
0.0
  0
ARC
  5
3254
  8
0-1
  6
CONTINUOUS
 62
     3
 10
11798.13018699999
 20
19885.985855999999
 30
0.0
 40
5.0
 50
0.0
 51
90.0
  0
ARC
  5
3255
  8
0-1
  6
CONTINUOUS
 62
     3
 10
11734.62920999999
 20
19885.985855999999
 30
0.0
 40
5.0
 50
90.0
 51
180.0
  0
ARC
  5
3256
  8
0-1
  6
CONTINUOUS
 62
     3
 10
14463.12749499999
 20
19885.985855999999
 30
0.0
 40
5.0
 50
0.0
 51
90.0
  0
ARC
  5
3257
  8
0-1
  6
CONTINUOUS
 62
     3
 10
14399.62849799996
 20
19885.985855999999
 30
0.0
 40
5.0
 50
90.0
 51
180.0
  0
ARC
  5
3258
  8
0-1
  6
CONTINUOUS
 62
     3
 10
14399.62849799996
 20
19855.988232
 30
0.0
 40
5.0
 50
180.0
 51
269.9999850001808
  0
CIRCLE
  5
3259
  8
0-5
  6
CONTINUOUS
 62
     4
 10
14382.62934199998
 20
21110.987175999991
 30
0.0
 40
199.9999949999999
  0
CIRCLE
  5
325A
  8
0-5
  6
CONTINUOUS
 62
     4
 10
11815.12934199998
 20
21110.987175999991
 30
0.0
 40
199.9999949999999
  0
CIRCLE
  5
325B
  8
0-5
  6
CONTINUOUS
 62
     4
 10
10285.63055599998
 20
19668.486251999992
 30
0.0
 40
199.9999949999999
  0
CIRCLE
  5
325C
  8
0-5
  6
CONTINUOUS
 62
     4
 10
10285.63055599998
 20
16750.486251999992
 30
0.0
 40
199.9999949999999
  0
CIRCLE
  5
325D
  8
0-5
  6
CONTINUOUS
 62
     4
 10
10285.63055599998
 20
13481.986252000001
 30
0.0
 40
199.9999949999999
  0
CIRCLE
  5
325E
  8
0-5
  6
CONTINUOUS
 62
     4
 10
15128.715689000001
 20
1375.999857999999
 30
0.0
 40
20.0
  0
ARC
  5
325F
  8
0-5
  6
CONTINUOUS
 62
     4
 10
15128.715689000001
 20
1375.999857999999
 30
0.0
 40
20.0
 50
180.0
 51
0.0
  0
ARC
  5
3260
  8
0-5
  6
CONTINUOUS
 62
     4
 10
15128.715689000001
 20
1375.999857999999
 30
0.0
 40
20.0
 50
0.0
 51
179.99998499999839
  0
CIRCLE
  5
3261
  8
0-5
  6
CONTINUOUS
 62
     4
 10
15128.715689000001
 20
1775.9999399999981
 30
0.0
 40
20.0
  0
ARC
  5
3262
  8
0-5
  6
CONTINUOUS
 62
     4
 10
15128.715689000001
 20
1775.9999399999981
 30
0.0
 40
20.0
 50
180.0
 51
0.0
  0
ARC
  5
3263
  8
0-5
  6
CONTINUOUS
 62
     4
 10
15128.715689000001
 20
1775.9999399999981
 30
0.0
 40
20.0
 50
0.0
 51
179.99998499999839
  0
TEXT
  5
3264
  8
0-5
  6
CONTINUOUS
 62
     7
 10
14334.273661999991
 20
21023.573615000001
 30
0.0
 40
160.0
  1
2
 72
     4
 11
14387.60699533333
 21
21103.573615000001
 31
0.0
  0
TEXT
  5
3265
  8
0-5
  6
CONTINUOUS
 62
     7
 10
11759.16637199996
 20
21017.057039999989
 30
0.0
 40
160.0
  1
1
 72
     4
 11
11785.833038666629
 21
21097.057039999989
 31
0.0
  0
TEXT
  5
3266
  8
0-5
  6
CONTINUOUS
 62
     7
 10
10240.66183299998
 20
19583.921217999999
 30
0.0
 40
160.0
  1
C
 72
     4
 11
10293.99516633332
 21
19663.921217999999
 31
0.0
  0
TEXT
  5
3267
  8
0-5
  6
CONTINUOUS
 62
     7
 10
10240.66183299998
 20
16665.921217999981
 30
0.0
 40
160.0
  1
B
 72
     4
 11
10293.99516633332
 21
16745.921217999981
 31
0.0
  0
TEXT
  5
3268
  8
0-5
  6
CONTINUOUS
 62
     7
 10
10240.66183299998
 20
13397.42022899999
 30
0.0
 40
160.0
  1
A
 72
     4
 11
10293.99516633332
 21
13477.42022899999
 31
0.0
  0
TEXT
  5
3269
  8
0-5
  6
CONTINUOUS
 62
     7
 10
16643.256256764402
 20
1656.000039
 30
0.0
 40
160.0
  1
H
  0
TEXT
  5
326A
  8
0-5
  6
CONTINUOUS
 62
     7
 10
15176.14495399999
 20
1656.000039
 30
0.0
 40
160.0
  1
（ ）内寸法ハ、  タ イプヲ示ス。
  0
TEXT
  5
326B
  8
0-5
  6
CONTINUOUS
 62
     7
 10
15288.714237
 20
1255.999957
 30
0.0
 40
160.0
  1
有効高サハ、基礎高サヲ含ミマセン。
  0
TEXT
  5
326C
  8
0-6
  6
CONTINUOUS
 62
     7
 10
13709.90869199999
 20
20200.986647999991
 30
0.0
 40
160.0
  1
屋根
 72
     4
 11
13880.57535866666
 21
20280.986647999991
 31
0.0
  0
TEXT
  5
326D
  8
0-6
  6
CONTINUOUS
 62
     7
 10
12501.38488499997
 20
20990.98876
 30
0.0
 40
160.0
  1
鼻隠し後
 72
     4
 11
12864.05155166664
 21
21070.98876
 31
0.0
  0
TEXT
  5
326E
  8
0-6
  6
CONTINUOUS
 62
     7
 10
11939.97559899999
 20
20200.986647999991
 30
0.0
 40
160.0
  1
桁（後）
 72
     4
 11
12259.97559899999
 21
20280.986647999991
 31
0.0
  0
TEXT
  5
326F
  8
0-6
  6
CONTINUOUS
 62
     7
 10
12651.852050999991
 20
17190.085438999999
 30
0.0
 40
160.0
  1
桁（中）
 72
     4
 11
12971.852050999991
 21
17270.085438999999
 31
0.0
  0
TEXT
  5
3270
  8
0-6
  6
CONTINUOUS
 62
     7
 10
12931.61345299998
 20
16281.360142999991
 30
0.0
 40
160.0
  1
ブレース
 72
     4
 11
13294.28011966665
 21
16366.69347633333
 31
0.0
  0
TEXT
  5
3271
  8
0-6
  6
CONTINUOUS
 62
     7
 10
12784.73713299999
 20
13943.81593399998
 30
0.0
 40
160.0
  1
桁（前）
 72
     4
 11
13104.73713299999
 21
14023.81593399998
 31
0.0
  0
TEXT
  5
3272
  8
0-6
  6
CONTINUOUS
 62
     7
 10
13531.908400999981
 20
12569.48658199999
 30
0.0
 40
160.0
  1
鼻隠し前
 72
     4
 11
13894.57506766665
 21
12649.48658199999
 31
0.0
  0
TEXT
  5
3273
  8
0-6
  6
CONTINUOUS
 62
     7
 10
10050.99623899998
 20
12079.48644999998
 30
0.0
 40
160.0
  1
ケラバ 左
 72
     4
 11
10466.99623899998
 21
12159.48644999998
 31
0.0
  0
TEXT
  5
3274
  8
0-6
  6
CONTINUOUS
 62
     7
 10
12059.655312999979
 20
17648.555799000002
 30
0.0
 40
160.0
  1
上枠
 72
     4
 11
12230.321979666651
 21
17728.555799000002
 31
0.0
  0
TEXT
  5
3275
  8
0-6
  6
CONTINUOUS
 62
     7
 10
15582.783744999981
 20
20990.98876
 30
0.0
 40
160.0
  1
鼻隠しコーナー後
 72
     4
 11
16329.45041166665
 21
21070.98876
 31
0.0
  0
TEXT
  5
3276
  8
2-0
  6
CONTINUOUS
 62
     7
 10
11881.74410099998
 20
11245.77449488648
 30
0.0
 40
160.0
  1
小 屋 伏 図
 50
359.99961300000001
 72
     4
 11
12383.077974675811
 21
11325.77110866666
 31
0.0
  0
TEXT
  5
327E
  8
2-0
  6
CONTINUOUS
 62
     7
 10
13734.570159813429
 20
11272.96647766667
 30
0.0
 40
160.0
  1
1
 72
     4
 11
13761.236826480101
 21
11352.96647766667
 31
0.0
  0
TEXT
  5
327F
  8
2-0
  6
CONTINUOUS
 62
     7
 10
13977.658877064119
 20
11192.967945666671
 30
0.0
 40
160.0
  1
80
 72
     4
 11
14097.658877064119
 21
11272.967945666671
 31
0.0
  0
TEXT
  5
3280
  8
2-0
  6
CONTINUOUS
 62
     7
 10
13235.57212581344
 20
11245.77110866666
 30
0.0
 40
160.0
  1
(S=  /   )
 72
     4
 11
13795.57212581344
 21
11325.77110866666
 31
0.0
  0
LINE
  5
3281
  8
0-1
  6
CONTINUOUS
 62
     3
 10
21475.013169999998
 20
8149.1884330000021
 30
0.0
 11
23957.51660099997
 21
8149.1884330000021
 31
0.0
  0
LINE
  5
3288
  8
0-1
  6
CONTINUOUS
 62
     3
 10
24050.015545999991
 20
6241.1883740000012
 30
0.0
 11
23950.016204999989
 21
6241.1883740000012
 31
0.0
  0
LINE
  5
3289
  8
0-1
  6
CONTINUOUS
 62
     3
 10
23950.016204999989
 20
6241.1883740000012
 30
0.0
 11
23950.016204999989
 21
6141.1885390000007
 31
0.0
  0
LINE
  5
328A
  8
0-1
  6
CONTINUOUS
 62
     3
 10
24050.015545999991
 20
6141.1885390000007
 30
0.0
 11
24050.015545999991
 21
6241.1883740000012
 31
0.0
  0
LINE
  5
328B
  8
0-1
  6
CONTINUOUS
 62
     3
 10
23957.51660099997
 20
8459.1884659999978
 30
0.0
 11
23957.51660099997
 21
6241.1883740000012
 31
0.0
  0
LINE
  5
328C
  8
0-1
  6
CONTINUOUS
 62
     3
 10
23912.518184999979
 20
8149.1884330000021
 30
0.0
 11
23912.518184999979
 21
6141.1885390000007
 31
0.0
  0
LINE
  5
328D
  8
0-1
  6
CONTINUOUS
 62
     3
 10
24022.518052999982
 20
8589.1883999999973
 30
0.0
 11
24022.518052999982
 21
6241.1883740000012
 31
0.0
  0
LINE
  5
328E
  8
0-1
  6
CONTINUOUS
 62
     3
 10
24042.515149999988
 20
8459.1884659999978
 30
0.0
 11
24042.515149999988
 21
6241.1883740000012
 31
0.0
  0
LINE
  5
3290
  8
0-1
  6
CONTINUOUS
 62
     3
 10
21382.514225999999
 20
6241.1883740000012
 30
0.0
 11
21482.513565999991
 21
6241.1883740000012
 31
0.0
  0
LINE
  5
3291
  8
0-1
  6
CONTINUOUS
 62
     3
 10
21482.513565999991
 20
6241.1883740000012
 30
0.0
 11
21482.513565999991
 21
6141.1885390000007
 31
0.0
  0
LINE
  5
3292
  8
0-1
  6
CONTINUOUS
 62
     3
 10
21382.514225999999
 20
6141.1885390000007
 30
0.0
 11
21382.514225999999
 21
6241.1883740000012
 31
0.0
  0
LINE
  5
3293
  8
0-1
  6
CONTINUOUS
 62
     3
 10
21520.015545999991
 20
8149.1884330000021
 30
0.0
 11
21520.015545999991
 21
6141.1885390000007
 31
0.0
  0
LINE
  5
3294
  8
0-1
  6
CONTINUOUS
 62
     3
 10
21475.013169999998
 20
8459.1884659999978
 30
0.0
 11
21475.013169999998
 21
6241.1883740000012
 31
0.0
  0
LINE
  5
3295
  8
0-1
  6
CONTINUOUS
 62
     3
 10
21410.013697999999
 20
8589.1883999999973
 30
0.0
 11
21410.013697999999
 21
6241.1883740000012
 31
0.0
  0
LINE
  5
3296
  8
0-1
  6
CONTINUOUS
 62
     3
 10
21390.014621999992
 20
8459.1884659999978
 30
0.0
 11
21390.014621999992
 21
6241.1883740000012
 31
0.0
  0
LINE
  5
3297
  8
0-1
  6
CONTINUOUS
 62
     3
 10
21520.015545999991
 20
6661.1892650000009
 30
0.0
 11
23912.518184999979
 21
6661.1892650000009
 31
0.0
  0
LINE
  5
3298
  8
0-1
  6
CONTINUOUS
 62
     3
 10
21520.015545999991
 20
6596.1888030000027
 30
0.0
 11
23912.518184999979
 21
6596.1888030000027
 31
0.0
  0
LINE
  5
3299
  8
0-1
  6
CONTINUOUS
 62
     3
 10
21520.015545999991
 20
6531.1888360000012
 30
0.0
 11
23912.518184999979
 21
6531.1888360000012
 31
0.0
  0
LINE
  5
329A
  8
0-1
  6
CONTINUOUS
 62
     3
 10
21520.015545999991
 20
6466.1883740000012
 30
0.0
 11
23912.518184999979
 21
6466.1883740000012
 31
0.0
  0
LINE
  5
329B
  8
0-1
  6
CONTINUOUS
 62
     3
 10
21520.015545999991
 20
6401.1889020000053
 30
0.0
 11
23912.518184999979
 21
6401.1889020000053
 31
0.0
  0
LINE
  5
329C
  8
0-1
  6
CONTINUOUS
 62
     3
 10
21520.015545999991
 20
6336.1889350000019
 30
0.0
 11
23912.518184999979
 21
6336.1889350000019
 31
0.0
  0
LINE
  5
329D
  8
0-1
  6
CONTINUOUS
 62
     3
 10
21520.015545999991
 20
6271.1889680000022
 30
0.0
 11
23912.518184999979
 21
6271.1889680000022
 31
0.0
  0
LINE
  5
329E
  8
0-1
  6
CONTINUOUS
 62
     3
 10
21520.015545999991
 20
6206.1885060000022
 30
0.0
 11
23912.518184999979
 21
6206.1885060000022
 31
0.0
  0
LINE
  5
329F
  8
0-1
  6
CONTINUOUS
 62
     3
 10
21520.015545999991
 20
8026.1885720000018
 30
0.0
 11
23912.518184999979
 21
8026.1885720000018
 31
0.0
  0
LINE
  5
32A0
  8
0-1
  6
CONTINUOUS
 62
     3
 10
21520.015545999991
 20
7961.1886050000021
 30
0.0
 11
23912.518184999979
 21
7961.1886050000021
 31
0.0
  0
LINE
  5
32A1
  8
0-1
  6
CONTINUOUS
 62
     3
 10
21520.015545999991
 20
7896.1891330000026
 30
0.0
 11
23912.518184999979
 21
7896.1891330000026
 31
0.0
  0
LINE
  5
32A2
  8
0-1
  6
CONTINUOUS
 62
     3
 10
21520.015545999991
 20
7831.1891659999974
 30
0.0
 11
23912.518184999979
 21
7831.1891659999974
 31
0.0
  0
LINE
  5
32A3
  8
0-1
  6
CONTINUOUS
 62
     3
 10
21520.015545999991
 20
7766.189199000004
 30
0.0
 11
23912.518184999979
 21
7766.189199000004
 31
0.0
  0
LINE
  5
32A4
  8
0-1
  6
CONTINUOUS
 62
     3
 10
21520.015545999991
 20
7701.1887369999977
 30
0.0
 11
23912.518184999979
 21
7701.1887369999977
 31
0.0
  0
LINE
  5
32A5
  8
0-1
  6
CONTINUOUS
 62
     3
 10
21520.015545999991
 20
7636.1887699999979
 30
0.0
 11
23912.518184999979
 21
7636.1887699999979
 31
0.0
  0
LINE
  5
32A6
  8
0-1
  6
CONTINUOUS
 62
     3
 10
21520.015545999991
 20
7571.1892980000011
 30
0.0
 11
23912.518184999979
 21
7571.1892980000011
 31
0.0
  0
LINE
  5
32A7
  8
0-1
  6
CONTINUOUS
 62
     3
 10
21520.015545999991
 20
7506.1893309999978
 30
0.0
 11
23912.518184999979
 21
7506.1893309999978
 31
0.0
  0
LINE
  5
32A8
  8
0-1
  6
CONTINUOUS
 62
     3
 10
21520.015545999991
 20
7441.1888690000023
 30
0.0
 11
23912.518184999979
 21
7441.1888690000023
 31
0.0
  0
LINE
  5
32A9
  8
0-1
  6
CONTINUOUS
 62
     3
 10
21520.015545999991
 20
7376.188901999999
 30
0.0
 11
23912.518184999979
 21
7376.188901999999
 31
0.0
  0
LINE
  5
32AA
  8
0-1
  6
CONTINUOUS
 62
     3
 10
21520.015545999991
 20
7311.1889350000029
 30
0.0
 11
23912.518184999979
 21
7311.1889350000029
 31
0.0
  0
LINE
  5
32AB
  8
0-1
  6
CONTINUOUS
 62
     3
 10
21520.015545999991
 20
7246.1884730000029
 30
0.0
 11
23912.518184999979
 21
7246.1884730000029
 31
0.0
  0
LINE
  5
32AC
  8
0-1
  6
CONTINUOUS
 62
     3
 10
21520.015545999991
 20
7181.1885060000013
 30
0.0
 11
23912.518184999979
 21
7181.1885060000013
 31
0.0
  0
LINE
  5
32AD
  8
0-1
  6
CONTINUOUS
 62
     3
 10
21520.015545999991
 20
7116.1890340000009
 30
0.0
 11
23912.518184999979
 21
7116.1890340000009
 31
0.0
  0
LINE
  5
32AE
  8
0-1
  6
CONTINUOUS
 62
     3
 10
21520.015545999991
 20
7051.1890670000012
 30
0.0
 11
23912.518184999979
 21
7051.1890670000012
 31
0.0
  0
LINE
  5
32AF
  8
0-1
  6
CONTINUOUS
 62
     3
 10
21520.015545999991
 20
6986.1890999999996
 30
0.0
 11
23912.518184999979
 21
6986.1890999999996
 31
0.0
  0
LINE
  5
32B0
  8
0-1
  6
CONTINUOUS
 62
     3
 10
21520.015545999991
 20
6921.1886380000024
 30
0.0
 11
23912.518184999979
 21
6921.1886380000024
 31
0.0
  0
LINE
  5
32B1
  8
0-1
  6
CONTINUOUS
 62
     3
 10
21520.015545999991
 20
6856.1886710000017
 30
0.0
 11
23912.518184999979
 21
6856.1886710000017
 31
0.0
  0
LINE
  5
32B2
  8
0-1
  6
CONTINUOUS
 62
     3
 10
21520.015545999991
 20
6791.1891990000031
 30
0.0
 11
23912.518184999979
 21
6791.1891990000031
 31
0.0
  0
LINE
  5
32B3
  8
0-1
  6
CONTINUOUS
 62
     3
 10
21520.015545999991
 20
6726.1892319999997
 30
0.0
 11
23912.518184999979
 21
6726.1892319999997
 31
0.0
  0
LINE
  5
32B4
  8
0-1
  6
CONTINUOUS
 62
     3
 10
21520.015545999991
 20
8080.6485920000023
 30
0.0
 11
23912.518184999979
 21
8080.6485920000023
 31
0.0
  0
LINE
  5
32B5
  8
0-1
  6
CONTINUOUS
 62
     3
 10
21382.514225999999
 20
6141.1885390000007
 30
0.0
 11
24050.015545999991
 21
6141.1885390000007
 31
0.0
  0
LINE
  5
32C7
  8
0-2
  6
CONTINUOUS
 62
     4
 10
23079.956884999981
 20
6888.4152330000024
 30
0.0
 11
22979.957544999968
 21
6888.4152330000024
 31
0.0
  0
LINE
  5
32C8
  8
0-2
  6
CONTINUOUS
 62
     4
 10
22352.572884999969
 20
6888.4152330000024
 30
0.0
 11
22452.572224999982
 21
6888.4152330000024
 31
0.0
  0
LINE
  5
32C9
  8
0-5
  6
CONTINUOUS
 62
     4
 10
24000.01686499998
 20
4461.1889350000001
 30
0.0
 11
24000.01686499998
 21
4301.1893970000001
 31
0.0
  0
LINE
  5
32CA
  8
0-5
  6
CONTINUOUS
 62
     4
 10
18860.143844999991
 20
6349.0350210000024
 30
0.0
 11
18980.14226099999
 21
6141.1885390000007
 31
0.0
  0
LINE
  5
32CB
  8
0-5
  6
CONTINUOUS
 62
     4
 10
16409.765163000011
 20
6141.1885390000007
 30
0.0
 11
21302.515941999969
 21
6141.1885390000007
 31
0.0
  0
LINE
  5
32CC
  8
0-5
  6
CONTINUOUS
 62
     4
 10
18980.14226099999
 20
6141.1885390000007
 30
0.0
 11
19100.142656999989
 21
6349.0350210000024
 31
0.0
  0
LINE
  5
32CD
  8
0-5
  6
CONTINUOUS
 62
     4
 10
19100.142656999989
 20
6349.0350210000024
 30
0.0
 11
18860.143844999991
 21
6349.0350210000024
 31
0.0
  0
LINE
  5
32CE
  8
0-5
  6
CONTINUOUS
 62
     4
 10
21432.516864999969
 20
4461.1889350000001
 30
0.0
 11
21432.516864999969
 21
4301.1893970000001
 31
0.0
  0
LINE
  5
32CF
  8
2-0
  6
CENTER2
 62
     6
 10
24000.01686499998
 20
5878.536116000002
 30
0.0
 11
24000.01686499998
 21
6915.6791430000021
 31
0.0
  0
LINE
  5
32D0
  8
2-0
  6
CENTER2
 62
     6
 10
21432.516864999969
 20
5878.536116000002
 30
0.0
 11
21432.516864999969
 21
6915.6791430000021
 31
0.0
  0
CIRCLE
  5
32D9
  8
0-5
  6
CONTINUOUS
 62
     4
 10
24000.01686499998
 20
4101.1882420000011
 30
0.0
 40
199.9999949999999
  0
CIRCLE
  5
32DA
  8
0-5
  6
CONTINUOUS
 62
     4
 10
21432.516864999969
 20
4101.1882420000011
 30
0.0
 40
199.9999949999999
  0
TEXT
  5
32DB
  8
0-5
  6
CONTINUOUS
 62
     7
 10
23948.103989999989
 20
4011.7132600000009
 30
0.0
 40
160.0
  1
2
 72
     4
 11
24001.437323333321
 21
4091.7132600000009
 31
0.0
  0
TEXT
  5
32DC
  8
0-5
  6
CONTINUOUS
 62
     7
 10
18860.143844999991
 20
6429.0347900000006
 30
0.0
 40
160.0
  1
G.L
 72
     4
 11
19020.143844999991
 21
6509.0347900000006
 31
0.0
  0
TEXT
  5
32DD
  8
0-5
  6
CONTINUOUS
 62
     7
 10
21380.603991
 20
4011.7132600000009
 30
0.0
 40
160.0
  1
1
 72
     4
 11
21407.270657666671
 21
4091.7132600000009
 31
0.0
  0
TEXT
  5
32DE
  8
2-0
  6
CONTINUOUS
 62
     7
 10
21480.974978999999
 20
11251.104441999991
 30
0.0
 40
160.0
  1
平　面　図
 72
     4
 11
21934.308312333331
 21
11325.77110866666
 31
0.0
  0
TEXT
  5
32DF
  8
2-0
  6
CONTINUOUS
 62
     7
 10
21373.172375999999
 20
3292.802588999999
 30
0.0
 40
160.0
  1
正 面 立 面 図
 72
     4
 11
22018.505709333331
 21
3372.802588999999
 31
0.0
  0
CIRCLE
  5
32E0
  8
0-4
  6
CONTINUOUS
 62
     4
 10
22716.26686499998
 20
6627.2449749999987
 30
0.0
 40
18.487504999999981
  0
TEXT
  5
32E1
  8
2-0
  6
CONTINUOUS
 62
     7
 10
23369.997894470969
 20
3319.9979579999999
 30
0.0
 40
160.0
  1
1
 72
     4
 11
23396.66456113763
 21
3399.9979579999999
 31
0.0
  0
TEXT
  5
32E2
  8
2-0
  6
CONTINUOUS
 62
     7
 10
23613.08661172165
 20
3239.9994259999989
 30
0.0
 40
160.0
  1
80
 72
     4
 11
23733.08661172165
 21
3319.9994259999989
 31
0.0
  0
TEXT
  5
32E3
  8
2-0
  6
CONTINUOUS
 62
     7
 10
22870.999860470962
 20
3292.802588999999
 30
0.0
 40
160.0
  1
(S=  /   )
 72
     4
 11
23430.999860470962
 21
3372.802588999999
 31
0.0
  0
TEXT
  5
32E4
  8
2-0
  6
CONTINUOUS
 62
     7
 10
23285.800497470969
 20
11272.96647766667
 30
0.0
 40
160.0
  1
1
 72
     4
 11
23312.467164137641
 21
11352.96647766667
 31
0.0
  0
TEXT
  5
32E5
  8
2-0
  6
CONTINUOUS
 62
     7
 10
23528.88921472165
 20
11192.967945666671
 30
0.0
 40
160.0
  1
80
 72
     4
 11
23648.88921472165
 21
11272.967945666671
 31
0.0
  0
TEXT
  5
32E6
  8
2-0
  6
CONTINUOUS
 62
     7
 10
22786.802463470962
 20
11245.77110866666
 30
0.0
 40
160.0
  1
(S=  /   )
 72
     4
 11
23346.802463470962
 21
11325.77110866666
 31
0.0
  0
LINE
  5
32E7
  8
2-0
  6
CONTINUOUS
 62
     6
 10
22316.857948999961
 20
12841.98512999999
 30
0.0
 11
23316.851350999939
 21
12841.98512999999
 31
0.0
  0
LINE
  5
32E8
  8
2-0
  6
CONTINUOUS
 62
     6
 10
23784.79172799996
 20
13312.405844000001
 30
0.0
 11
23316.851350999939
 21
12841.98512999999
 31
0.0
  0
LINE
  5
32E9
  8
2-0
  6
CONTINUOUS
 62
     6
 10
23746.151524999968
 20
16854.513491000002
 30
0.0
 11
23441.45610699998
 21
16958.16702200002
 31
0.0
  0
LINE
  5
32EA
  8
2-0
  6
CONTINUOUS
 62
     6
 10
23901.173563999939
 20
16364.89144700002
 30
0.0
 11
23441.45610699998
 21
16120.978136000011
 31
0.0
  0
LINE
  5
32EB
  8
2-0
  6
CONTINUOUS
 62
     6
 10
22521.453071999971
 20
16120.978136000011
 30
0.0
 11
23441.45610699998
 21
16120.978136000011
 31
0.0
  0
LINE
  5
32EC
  8
2-0
  6
CONTINUOUS
 62
     6
 10
22241.462044999971
 20
16958.16702200002
 30
0.0
 11
23441.45610699998
 21
16958.16702200002
 31
0.0
  0
LINE
  5
32ED
  8
2-0
  6
CONTINUOUS
 62
     6
 10
23817.35084899998
 20
13634.08948999998
 30
0.0
 11
23441.45610699998
 21
13815.033325
 31
0.0
  0
LINE
  5
32EE
  8
2-0
  6
CONTINUOUS
 62
     6
 10
22921.454390999981
 20
13815.033325
 30
0.0
 11
23441.45610699998
 21
13815.033325
 31
0.0
  0
LINE
  5
32EF
  8
2-0
  6
CONTINUOUS
 62
     4
 10
21432.516864999969
 20
19790.986780000021
 30
0.0
 11
21432.516864999969
 21
20520.983745000001
 31
0.0
  0
LINE
  5
32F0
  8
2-0
  6
CONTINUOUS
 62
     3
 10
24012.517524999981
 20
19601.984326000009
 30
0.0
 11
24012.517524999981
 21
19595.988364000012
 31
0.0
  0
LINE
  5
32F1
  8
2-0
  6
CONTINUOUS
 62
     3
 10
24012.517524999981
 20
19595.988364000012
 30
0.0
 11
24042.51514899997
 21
19595.988364000012
 31
0.0
  0
LINE
  5
32F2
  8
2-0
  6
CONTINUOUS
 62
     3
 10
24042.51514899997
 20
19625.987968000001
 30
0.0
 11
23961.51324899996
 21
19625.987968000001
 31
0.0
  0
LINE
  5
32F3
  8
2-0
  6
CONTINUOUS
 62
     3
 10
24012.517524999981
 20
19585.690908
 30
0.0
 11
24042.51514899997
 21
19585.690908
 31
0.0
  0
LINE
  5
32F4
  8
2-0
  6
CONTINUOUS
 62
     3
 10
24012.517524999981
 20
19603.692650000001
 30
0.0
 11
24012.517524999981
 21
19585.690908
 31
0.0
  0
LINE
  5
32F5
  8
2-0
  6
CONTINUOUS
 62
     3
 10
24037.51488499996
 20
19603.692650000001
 30
0.0
 11
24012.517524999981
 21
19603.692650000001
 31
0.0
  0
LINE
  5
32F6
  8
2-0
  6
CONTINUOUS
 62
     3
 10
24037.51488499996
 20
19598.68446800001
 30
0.0
 11
24037.51488499996
 21
19603.692650000001
 31
0.0
  0
LINE
  5
32F7
  8
2-0
  6
CONTINUOUS
 62
     3
 10
24030.51332799999
 20
19598.68446800001
 30
0.0
 11
24037.51488499996
 21
19598.68446800001
 31
0.0
  0
LINE
  5
32F8
  8
2-0
  6
CONTINUOUS
 62
     3
 10
23930.217059999981
 20
19698.984695000021
 30
0.0
 11
23930.217059999981
 21
19705.990211000011
 31
0.0
  0
LINE
  5
32F9
  8
2-0
  6
CONTINUOUS
 62
     3
 10
23930.217059999981
 20
19705.990211000011
 30
0.0
 11
23935.217323999961
 21
19705.990211000011
 31
0.0
  0
LINE
  5
32FA
  8
2-0
  6
CONTINUOUS
 62
     3
 10
23935.217323999961
 20
19705.990211000011
 30
0.0
 11
23935.217323999961
 21
19680.980973999998
 31
0.0
  0
LINE
  5
32FB
  8
2-0
  6
CONTINUOUS
 62
     3
 10
23935.217323999961
 20
19680.980973999998
 30
0.0
 11
23917.21558199995
 21
19680.980973999998
 31
0.0
  0
LINE
  5
32FC
  8
2-0
  6
CONTINUOUS
 62
     3
 10
23917.21558199995
 20
19680.980973999998
 30
0.0
 11
23917.21558199995
 21
19710.984537000011
 31
0.0
  0
LINE
  5
32FD
  8
2-0
  6
CONTINUOUS
 62
     3
 10
23927.513037999968
 20
19710.984537000011
 30
0.0
 11
24042.51514899997
 21
19710.984537000011
 31
0.0
  0
LINE
  5
32FE
  8
2-0
  6
CONTINUOUS
 62
     3
 10
23927.513037999968
 20
19680.980973999998
 30
0.0
 11
23927.513037999968
 21
19710.984537000011
 31
0.0
  0
LINE
  5
32FF
  8
2-0
  6
CONTINUOUS
 62
     3
 10
23933.514937999971
 20
19680.980973999998
 30
0.0
 11
23927.513037999968
 21
19680.980973999998
 31
0.0
  0
LINE
  5
3300
  8
2-0
  6
CONTINUOUS
 62
     3
 10
24030.51332799999
 20
18894.887645499992
 30
0.0
 11
24037.51488499996
 21
18894.887645499992
 31
0.0
  0
LINE
  5
3301
  8
2-0
  6
CONTINUOUS
 62
     3
 10
24037.51488499996
 20
18894.887645499992
 30
0.0
 11
24037.51488499996
 21
18899.887909500001
 31
0.0
  0
LINE
  5
3302
  8
2-0
  6
CONTINUOUS
 62
     3
 10
24037.51488499996
 20
18899.887909500001
 30
0.0
 11
24012.517524999981
 21
18899.887909500001
 31
0.0
  0
LINE
  5
3303
  8
2-0
  6
CONTINUOUS
 62
     3
 10
24012.517524999981
 20
18899.887909500001
 30
0.0
 11
24012.517524999981
 21
18881.892105499999
 31
0.0
  0
LINE
  5
3304
  8
2-0
  6
CONTINUOUS
 62
     3
 10
24012.517524999981
 20
18881.892105499999
 30
0.0
 11
24042.51514899997
 21
18881.892105499999
 31
0.0
  0
LINE
  5
3305
  8
2-0
  6
CONTINUOUS
 62
     3
 10
24012.517524999981
 20
18897.98361249996
 30
0.0
 11
24012.517524999981
 21
18891.985671499999
 31
0.0
  0
LINE
  5
3306
  8
2-0
  6
CONTINUOUS
 62
     3
 10
24012.517524999981
 20
18891.985671499999
 30
0.0
 11
24042.51514899997
 21
18891.985671499999
 31
0.0
  0
LINE
  5
3307
  8
2-0
  6
CONTINUOUS
 62
     3
 10
24042.51514899997
 20
18891.985671499999
 30
0.0
 11
24042.51514899997
 21
18928.986832499992
 31
0.0
  0
LINE
  5
3308
  8
2-0
  6
CONTINUOUS
 62
     3
 10
24012.517524999981
 20
18928.986832499992
 30
0.0
 11
24042.51514899997
 21
18928.986832499992
 31
0.0
  0
LINE
  5
3309
  8
2-0
  6
CONTINUOUS
 62
     3
 10
24012.517524999981
 20
18922.982952499991
 30
0.0
 11
24012.517524999981
 21
18928.986832499992
 31
0.0
  0
LINE
  5
330A
  8
2-0
  6
CONTINUOUS
 62
     3
 10
24012.517524999981
 20
18939.082377499992
 30
0.0
 11
24042.51514899997
 21
18939.082377499992
 31
0.0
  0
LINE
  5
330B
  8
2-0
  6
CONTINUOUS
 62
     3
 10
24012.517524999981
 20
18921.080635499999
 30
0.0
 11
24012.517524999981
 21
18939.082377499992
 31
0.0
  0
LINE
  5
330C
  8
2-0
  6
CONTINUOUS
 62
     3
 10
24037.51488499996
 20
18921.080635499999
 30
0.0
 11
24012.517524999981
 21
18921.080635499999
 31
0.0
  0
LINE
  5
330D
  8
2-0
  6
CONTINUOUS
 62
     3
 10
24037.51488499996
 20
18926.080899500001
 30
0.0
 11
24037.51488499996
 21
18921.080635499999
 31
0.0
  0
LINE
  5
330E
  8
2-0
  6
CONTINUOUS
 62
     3
 10
24030.51332799999
 20
18926.080899500001
 30
0.0
 11
24037.51488499996
 21
18926.080899500001
 31
0.0
  0
LINE
  5
330F
  8
2-0
  6
CONTINUOUS
 62
     3
 10
24030.51332799999
 20
18193.886655999999
 30
0.0
 11
24037.51488499996
 21
18193.886655999999
 31
0.0
  0
LINE
  5
3310
  8
2-0
  6
CONTINUOUS
 62
     3
 10
24037.51488499996
 20
18193.886655999999
 30
0.0
 11
24037.51488499996
 21
18198.892857999999
 31
0.0
  0
LINE
  5
3311
  8
2-0
  6
CONTINUOUS
 62
     3
 10
24037.51488499996
 20
18198.892857999999
 30
0.0
 11
24012.517524999981
 21
18198.892857999999
 31
0.0
  0
LINE
  5
3312
  8
2-0
  6
CONTINUOUS
 62
     3
 10
24012.517524999981
 20
18198.892857999999
 30
0.0
 11
24012.517524999981
 21
18180.89111600001
 31
0.0
  0
LINE
  5
3313
  8
2-0
  6
CONTINUOUS
 62
     3
 10
24012.517524999981
 20
18180.89111600001
 30
0.0
 11
24042.51514899997
 21
18180.89111600001
 31
0.0
  0
LINE
  5
3314
  8
2-0
  6
CONTINUOUS
 62
     3
 10
24012.517524999981
 20
18196.982622999989
 30
0.0
 11
24012.517524999981
 21
18190.986660999999
 31
0.0
  0
LINE
  5
3315
  8
2-0
  6
CONTINUOUS
 62
     3
 10
24012.517524999981
 20
18190.986660999999
 30
0.0
 11
24042.51514899997
 21
18190.986660999999
 31
0.0
  0
LINE
  5
3316
  8
2-0
  6
CONTINUOUS
 62
     3
 10
24042.51514899997
 20
18190.986660999999
 30
0.0
 11
24042.51514899997
 21
18227.985842999991
 31
0.0
  0
LINE
  5
3317
  8
2-0
  6
CONTINUOUS
 62
     3
 10
24012.517524999981
 20
18227.985842999991
 30
0.0
 11
24042.51514899997
 21
18227.985842999991
 31
0.0
  0
LINE
  5
3318
  8
2-0
  6
CONTINUOUS
 62
     3
 10
24012.517524999981
 20
18221.989881000001
 30
0.0
 11
24012.517524999981
 21
18227.985842999991
 31
0.0
  0
LINE
  5
3319
  8
2-0
  6
CONTINUOUS
 62
     3
 10
24012.517524999981
 20
18238.08138800001
 30
0.0
 11
24042.51514899997
 21
18238.08138800001
 31
0.0
  0
LINE
  5
331A
  8
2-0
  6
CONTINUOUS
 62
     3
 10
24012.517524999981
 20
18220.079645999998
 30
0.0
 11
24012.517524999981
 21
18238.08138800001
 31
0.0
  0
LINE
  5
331B
  8
2-0
  6
CONTINUOUS
 62
     3
 10
24037.51488499996
 20
18220.079645999998
 30
0.0
 11
24012.517524999981
 21
18220.079645999998
 31
0.0
  0
LINE
  5
331C
  8
2-0
  6
CONTINUOUS
 62
     3
 10
24037.51488499996
 20
18225.085847999992
 30
0.0
 11
24037.51488499996
 21
18220.079645999998
 31
0.0
  0
LINE
  5
331D
  8
2-0
  6
CONTINUOUS
 62
     3
 10
24030.51332799999
 20
18225.085847999992
 30
0.0
 11
24037.51488499996
 21
18225.085847999992
 31
0.0
  0
LINE
  5
331E
  8
2-0
  6
CONTINUOUS
 62
     3
 10
24030.51332799999
 20
17524.07991
 30
0.0
 11
24037.51488499996
 21
17524.07991
 31
0.0
  0
LINE
  5
331F
  8
2-0
  6
CONTINUOUS
 62
     3
 10
24037.51488499996
 20
17524.07991
 30
0.0
 11
24037.51488499996
 21
17519.091522999999
 31
0.0
  0
LINE
  5
3320
  8
2-0
  6
CONTINUOUS
 62
     3
 10
24037.51488499996
 20
17519.091522999999
 30
0.0
 11
24012.517524999981
 21
17519.091522999999
 31
0.0
  0
LINE
  5
3321
  8
2-0
  6
CONTINUOUS
 62
     3
 10
24012.517524999981
 20
17519.091522999999
 30
0.0
 11
24012.517524999981
 21
17537.087326000001
 31
0.0
  0
LINE
  5
3322
  8
2-0
  6
CONTINUOUS
 62
     3
 10
24012.517524999981
 20
17537.087326000001
 30
0.0
 11
24042.51514899997
 21
17537.087326000001
 31
0.0
  0
LINE
  5
3323
  8
2-0
  6
CONTINUOUS
 62
     3
 10
24012.517524999981
 20
17520.989881000001
 30
0.0
 11
24012.517524999981
 21
17526.985842999999
 31
0.0
  0
LINE
  5
3324
  8
2-0
  6
CONTINUOUS
 62
     3
 10
24012.517524999981
 20
17526.985842999999
 30
0.0
 11
24042.51514899997
 21
17526.985842999999
 31
0.0
  0
LINE
  5
3325
  8
2-0
  6
CONTINUOUS
 62
     3
 10
24042.51514899997
 20
17526.985842999999
 30
0.0
 11
24042.51514899997
 21
17489.98666100001
 31
0.0
  0
LINE
  5
3326
  8
2-0
  6
CONTINUOUS
 62
     3
 10
24012.517524999981
 20
17489.98666100001
 30
0.0
 11
24042.51514899997
 21
17489.98666100001
 31
0.0
  0
LINE
  5
3327
  8
2-0
  6
CONTINUOUS
 62
     3
 10
24012.517524999981
 20
17495.988561999991
 30
0.0
 11
24012.517524999981
 21
17489.98666100001
 31
0.0
  0
LINE
  5
3328
  8
2-0
  6
CONTINUOUS
 62
     3
 10
24012.517524999981
 20
17479.897055000001
 30
0.0
 11
24042.51514899997
 21
17479.897055000001
 31
0.0
  0
LINE
  5
3329
  8
2-0
  6
CONTINUOUS
 62
     3
 10
24012.517524999981
 20
17497.892857999988
 30
0.0
 11
24012.517524999981
 21
17479.897055000001
 31
0.0
  0
LINE
  5
332A
  8
2-0
  6
CONTINUOUS
 62
     3
 10
24037.51488499996
 20
17497.892857999988
 30
0.0
 11
24012.517524999981
 21
17497.892857999988
 31
0.0
  0
LINE
  5
332B
  8
2-0
  6
CONTINUOUS
 62
     3
 10
24037.51488499996
 20
17492.892595000001
 30
0.0
 11
24037.51488499996
 21
17497.892857999988
 31
0.0
  0
LINE
  5
332C
  8
2-0
  6
CONTINUOUS
 62
     3
 10
24030.51332799999
 20
17492.892595000001
 30
0.0
 11
24037.51488499996
 21
17492.892595000001
 31
0.0
  0
LINE
  5
332D
  8
2-0
  6
CONTINUOUS
 62
     3
 10
24039.629010999972
 20
16772.983480999999
 30
0.0
 11
24039.629010999972
 21
16792.984536
 31
0.0
  0
LINE
  5
332E
  8
2-0
  6
CONTINUOUS
 62
     3
 10
24039.629010999972
 20
16792.984536
 30
0.0
 11
23954.632441999958
 21
16792.984536
 31
0.0
  0
LINE
  5
332F
  8
2-0
  6
CONTINUOUS
 62
     3
 10
24030.51332799999
 20
16819.591246
 30
0.0
 11
24037.51488499996
 21
16819.591246
 31
0.0
  0
LINE
  5
3330
  8
2-0
  6
CONTINUOUS
 62
     3
 10
24037.51488499996
 20
16819.591246
 30
0.0
 11
24037.51488499996
 21
16814.596920000011
 31
0.0
  0
LINE
  5
3331
  8
2-0
  6
CONTINUOUS
 62
     3
 10
24037.51488499996
 20
16814.596920000011
 30
0.0
 11
24012.517524999981
 21
16814.596920000011
 31
0.0
  0
LINE
  5
3332
  8
2-0
  6
CONTINUOUS
 62
     3
 10
24012.517524999981
 20
16814.596920000011
 30
0.0
 11
24012.517524999981
 21
16832.592723999991
 31
0.0
  0
LINE
  5
3333
  8
2-0
  6
CONTINUOUS
 62
     3
 10
24012.517524999981
 20
16832.592723999991
 30
0.0
 11
24042.51514899997
 21
16832.592723999991
 31
0.0
  0
LINE
  5
3334
  8
2-0
  6
CONTINUOUS
 62
     3
 10
24012.517524999981
 20
16822.98413999999
 30
0.0
 11
24012.517524999981
 21
16816.982240000001
 31
0.0
  0
LINE
  5
3335
  8
2-0
  6
CONTINUOUS
 62
     3
 10
24042.51514899997
 20
16822.98413999999
 30
0.0
 11
24012.517524999981
 21
16822.98413999999
 31
0.0
  0
LINE
  5
3336
  8
2-0
  6
CONTINUOUS
 62
     3
 10
24042.51514899997
 20
16832.592723999991
 30
0.0
 11
24042.51514899997
 21
17479.897055000001
 31
0.0
  0
LINE
  5
3337
  8
2-0
  6
CONTINUOUS
 62
     3
 10
24042.51514899997
 20
17537.087326000001
 30
0.0
 11
24042.51514899997
 21
18180.89111600001
 31
0.0
  0
LINE
  5
3338
  8
2-0
  6
CONTINUOUS
 62
     3
 10
24042.51514899997
 20
16677.982424999991
 30
0.0
 11
24012.517524999981
 21
16677.982424999991
 31
0.0
  0
LINE
  5
3339
  8
2-0
  6
CONTINUOUS
 62
     3
 10
24012.517524999981
 20
16677.982424999991
 30
0.0
 11
24012.517524999981
 21
16683.984325000001
 31
0.0
  0
LINE
  5
333A
  8
2-0
  6
CONTINUOUS
 62
     3
 10
23954.632441999958
 20
16707.987968000001
 30
0.0
 11
24039.629010999972
 21
16707.987968000001
 31
0.0
  0
LINE
  5
333B
  8
2-0
  6
CONTINUOUS
 62
     3
 10
24039.629010999972
 20
16707.987968000001
 30
0.0
 11
24039.629010999972
 21
16727.983085000011
 31
0.0
  0
LINE
  5
333C
  8
2-0
  6
CONTINUOUS
 62
     3
 10
24012.517524999981
 20
16668.373842000012
 30
0.0
 11
24042.51514899997
 21
16668.373842000012
 31
0.0
  0
LINE
  5
333D
  8
2-0
  6
CONTINUOUS
 62
     3
 10
24012.517524999981
 20
16686.369644999992
 30
0.0
 11
24012.517524999981
 21
16668.373842000012
 31
0.0
  0
LINE
  5
333E
  8
2-0
  6
CONTINUOUS
 62
     3
 10
24037.51488499996
 20
16686.369644999992
 30
0.0
 11
24012.517524999981
 21
16686.369644999992
 31
0.0
  0
LINE
  5
333F
  8
2-0
  6
CONTINUOUS
 62
     3
 10
24037.51488499996
 20
16681.369381000011
 30
0.0
 11
24037.51488499996
 21
16686.369644999992
 31
0.0
  0
LINE
  5
3340
  8
2-0
  6
CONTINUOUS
 62
     3
 10
24030.51332799999
 20
16681.369381000011
 30
0.0
 11
24037.51488499996
 21
16681.369381000011
 31
0.0
  0
LINE
  5
3341
  8
2-0
  6
CONTINUOUS
 62
     3
 10
24030.51332799999
 20
15976.887150499981
 30
0.0
 11
24037.51488499996
 21
15976.887150499981
 31
0.0
  0
LINE
  5
3342
  8
2-0
  6
CONTINUOUS
 62
     3
 10
24037.51488499996
 20
15976.887150499981
 30
0.0
 11
24037.51488499996
 21
15981.88741449999
 31
0.0
  0
LINE
  5
3343
  8
2-0
  6
CONTINUOUS
 62
     3
 10
24037.51488499996
 20
15981.88741449999
 30
0.0
 11
24012.517524999981
 21
15981.88741449999
 31
0.0
  0
LINE
  5
3344
  8
2-0
  6
CONTINUOUS
 62
     3
 10
24012.517524999981
 20
15981.88741449999
 30
0.0
 11
24012.517524999981
 21
15963.885672500001
 31
0.0
  0
LINE
  5
3345
  8
2-0
  6
CONTINUOUS
 62
     3
 10
24012.517524999981
 20
15963.885672500001
 30
0.0
 11
24042.51514899997
 21
15963.885672500001
 31
0.0
  0
LINE
  5
3346
  8
2-0
  6
CONTINUOUS
 62
     3
 10
24012.517524999981
 20
15979.9831175
 30
0.0
 11
24012.517524999981
 21
15973.986166500001
 31
0.0
  0
LINE
  5
3347
  8
2-0
  6
CONTINUOUS
 62
     3
 10
24012.517524999981
 20
15973.986166500001
 30
0.0
 11
24042.51514899997
 21
15973.986166500001
 31
0.0
  0
LINE
  5
3348
  8
2-0
  6
CONTINUOUS
 62
     3
 10
24042.51514899997
 20
15973.986166500001
 30
0.0
 11
24042.51514899997
 21
16010.9863375
 31
0.0
  0
LINE
  5
3349
  8
2-0
  6
CONTINUOUS
 62
     3
 10
24012.517524999981
 20
16010.9863375
 30
0.0
 11
24042.51514899997
 21
16010.9863375
 31
0.0
  0
LINE
  5
334A
  8
2-0
  6
CONTINUOUS
 62
     3
 10
24012.517524999981
 20
16004.983447500001
 30
0.0
 11
24012.517524999981
 21
16010.9863375
 31
0.0
  0
LINE
  5
334B
  8
2-0
  6
CONTINUOUS
 62
     3
 10
24012.517524999981
 20
16021.081882500001
 30
0.0
 11
24042.51514899997
 21
16021.081882500001
 31
0.0
  0
LINE
  5
334C
  8
2-0
  6
CONTINUOUS
 62
     3
 10
24012.517524999981
 20
16003.074201499991
 30
0.0
 11
24012.517524999981
 21
16021.081882500001
 31
0.0
  0
LINE
  5
334D
  8
2-0
  6
CONTINUOUS
 62
     3
 10
24037.51488499996
 20
16003.074201499991
 30
0.0
 11
24012.517524999981
 21
16003.074201499991
 31
0.0
  0
LINE
  5
334E
  8
2-0
  6
CONTINUOUS
 62
     3
 10
24037.51488499996
 20
16008.0804045
 30
0.0
 11
24037.51488499996
 21
16003.074201499991
 31
0.0
  0
LINE
  5
334F
  8
2-0
  6
CONTINUOUS
 62
     3
 10
24030.51332799999
 20
16008.0804045
 30
0.0
 11
24037.51488499996
 21
16008.0804045
 31
0.0
  0
LINE
  5
3350
  8
2-0
  6
CONTINUOUS
 62
     3
 10
24030.51332799999
 20
15307.320421
 30
0.0
 11
24037.51488499996
 21
15307.320421
 31
0.0
  0
LINE
  5
3351
  8
2-0
  6
CONTINUOUS
 62
     3
 10
24037.51488499996
 20
15307.320421
 30
0.0
 11
24037.51488499996
 21
15302.326096000001
 31
0.0
  0
LINE
  5
3352
  8
2-0
  6
CONTINUOUS
 62
     3
 10
24037.51488499996
 20
15302.326096000001
 30
0.0
 11
24012.517524999981
 21
15302.326096000001
 31
0.0
  0
LINE
  5
3353
  8
2-0
  6
CONTINUOUS
 62
     3
 10
24012.517524999981
 20
15302.326096000001
 30
0.0
 11
24012.517524999981
 21
15320.32189900001
 31
0.0
  0
LINE
  5
3354
  8
2-0
  6
CONTINUOUS
 62
     3
 10
24012.517524999981
 20
15320.32189900001
 30
0.0
 11
24042.51514899997
 21
15320.32189900001
 31
0.0
  0
LINE
  5
3355
  8
2-0
  6
CONTINUOUS
 62
     3
 10
24012.517524999981
 20
15304.22445400001
 30
0.0
 11
24012.517524999981
 21
15310.226354
 31
0.0
  0
LINE
  5
3356
  8
2-0
  6
CONTINUOUS
 62
     3
 10
24012.517524999981
 20
15310.226354
 30
0.0
 11
24042.51514899997
 21
15310.226354
 31
0.0
  0
LINE
  5
3357
  8
2-0
  6
CONTINUOUS
 62
     3
 10
24042.51514899997
 20
15273.22717300001
 30
0.0
 11
24042.51514899997
 21
15310.226354
 31
0.0
  0
LINE
  5
3358
  8
2-0
  6
CONTINUOUS
 62
     3
 10
24012.517524999981
 20
15273.22717300001
 30
0.0
 11
24042.51514899997
 21
15273.22717300001
 31
0.0
  0
LINE
  5
3359
  8
2-0
  6
CONTINUOUS
 62
     3
 10
24012.517524999981
 20
15279.224124
 30
0.0
 11
24012.517524999981
 21
15273.22717300001
 31
0.0
  0
LINE
  5
335A
  8
2-0
  6
CONTINUOUS
 62
     3
 10
24012.517524999981
 20
15263.12568899999
 30
0.0
 11
24042.51514899997
 21
15263.12568899999
 31
0.0
  0
LINE
  5
335B
  8
2-0
  6
CONTINUOUS
 62
     3
 10
24012.517524999981
 20
15281.13336999999
 30
0.0
 11
24012.517524999981
 21
15263.12568899999
 31
0.0
  0
LINE
  5
335C
  8
2-0
  6
CONTINUOUS
 62
     3
 10
24037.51488499996
 20
15281.13336999999
 30
0.0
 11
24012.517524999981
 21
15281.13336999999
 31
0.0
  0
LINE
  5
335D
  8
2-0
  6
CONTINUOUS
 62
     3
 10
24037.51488499996
 20
15276.133106000019
 30
0.0
 11
24037.51488499996
 21
15281.13336999999
 31
0.0
  0
LINE
  5
335E
  8
2-0
  6
CONTINUOUS
 62
     3
 10
24030.51332799999
 20
15276.133106000019
 30
0.0
 11
24037.51488499996
 21
15276.133106000019
 31
0.0
  0
LINE
  5
335F
  8
2-0
  6
CONTINUOUS
 62
     3
 10
24042.51514899997
 20
16668.373842000012
 30
0.0
 11
24042.51514899997
 21
16021.081882500001
 31
0.0
  0
LINE
  5
3360
  8
2-0
  6
CONTINUOUS
 62
     3
 10
24042.51514899997
 20
16822.98413999999
 30
0.0
 11
24042.51514899997
 21
16677.982424999991
 31
0.0
  0
LINE
  5
3361
  8
2-0
  6
CONTINUOUS
 62
     3
 10
23954.632441999958
 20
16792.984536
 30
0.0
 11
23954.632441999958
 21
16707.987968000001
 31
0.0
  0
LINE
  5
3362
  8
2-0
  6
CONTINUOUS
 62
     6
 10
22416.423774999981
 20
18561.431801499992
 30
0.0
 11
23441.45610699998
 21
18561.431801499992
 31
0.0
  0
LINE
  5
3363
  8
2-0
  6
CONTINUOUS
 62
     3
 10
24030.51332799999
 20
14574.892099000001
 30
0.0
 11
24037.51488499996
 21
14574.892099000001
 31
0.0
  0
LINE
  5
3364
  8
2-0
  6
CONTINUOUS
 62
     3
 10
24037.51488499996
 20
14574.892099000001
 30
0.0
 11
24037.51488499996
 21
14579.886425000001
 31
0.0
  0
LINE
  5
3365
  8
2-0
  6
CONTINUOUS
 62
     3
 10
24037.51488499996
 20
14579.886425000001
 30
0.0
 11
24012.517524999981
 21
14579.886425000001
 31
0.0
  0
LINE
  5
3366
  8
2-0
  6
CONTINUOUS
 62
     3
 10
24012.517524999981
 20
14579.886425000001
 30
0.0
 11
24012.517524999981
 21
14561.890621
 31
0.0
  0
LINE
  5
3367
  8
2-0
  6
CONTINUOUS
 62
     3
 10
24012.517524999981
 20
14561.890621
 30
0.0
 11
24042.51514899997
 21
14561.890621
 31
0.0
  0
LINE
  5
3368
  8
2-0
  6
CONTINUOUS
 62
     3
 10
24012.517524999981
 20
14577.989056
 30
0.0
 11
24012.517524999981
 21
14571.98616600001
 31
0.0
  0
LINE
  5
3369
  8
2-0
  6
CONTINUOUS
 62
     3
 10
24012.517524999981
 20
14571.98616600001
 30
0.0
 11
24042.51514899997
 21
14571.98616600001
 31
0.0
  0
LINE
  5
336A
  8
2-0
  6
CONTINUOUS
 62
     3
 10
24042.51514899997
 20
14571.98616600001
 30
0.0
 11
24042.51514899997
 21
14608.986337999981
 31
0.0
  0
LINE
  5
336B
  8
2-0
  6
CONTINUOUS
 62
     3
 10
24012.517524999981
 20
14608.986337999981
 30
0.0
 11
24042.51514899997
 21
14608.986337999981
 31
0.0
  0
LINE
  5
336C
  8
2-0
  6
CONTINUOUS
 62
     3
 10
24012.517524999981
 20
14602.98938599999
 30
0.0
 11
24012.517524999981
 21
14608.986337999981
 31
0.0
  0
LINE
  5
336D
  8
2-0
  6
CONTINUOUS
 62
     3
 10
24012.517524999981
 20
14619.086831000001
 30
0.0
 11
24042.51514899997
 21
14619.086831000001
 31
0.0
  0
LINE
  5
336E
  8
2-0
  6
CONTINUOUS
 62
     3
 10
24012.517524999981
 20
14601.08014
 30
0.0
 11
24012.517524999981
 21
14619.086831000001
 31
0.0
  0
LINE
  5
336F
  8
2-0
  6
CONTINUOUS
 62
     3
 10
24037.51488499996
 20
14601.08014
 30
0.0
 11
24012.517524999981
 21
14601.08014
 31
0.0
  0
LINE
  5
3370
  8
2-0
  6
CONTINUOUS
 62
     3
 10
24037.51488499996
 20
14606.085353
 30
0.0
 11
24037.51488499996
 21
14601.08014
 31
0.0
  0
LINE
  5
3371
  8
2-0
  6
CONTINUOUS
 62
     3
 10
24030.51332799999
 20
14606.085353
 30
0.0
 11
24037.51488499996
 21
14606.085353
 31
0.0
  0
LINE
  5
3372
  8
2-0
  6
CONTINUOUS
 62
     3
 10
24012.517524999981
 20
13548.488179
 30
0.0
 11
24012.517524999981
 21
13554.493047999989
 31
0.0
  0
LINE
  5
3373
  8
2-0
  6
CONTINUOUS
 62
     3
 10
24012.517524999981
 20
13554.493047999989
 30
0.0
 11
24042.51514899997
 21
13554.493047999989
 31
0.0
  0
LINE
  5
3374
  8
2-0
  6
CONTINUOUS
 62
     3
 10
24042.51514899997
 20
13554.493047999989
 30
0.0
 11
24042.51514899997
 21
13439.488957
 31
0.0
  0
LINE
  5
3375
  8
2-0
  6
CONTINUOUS
 62
     3
 10
24042.51514899997
 20
13439.488957
 30
0.0
 11
23957.516600999981
 21
13439.488957
 31
0.0
  0
LINE
  5
3376
  8
2-0
  6
CONTINUOUS
 62
     3
 10
23957.516600999981
 20
13439.488957
 30
0.0
 11
23957.516600999981
 21
13524.484536
 31
0.0
  0
LINE
  5
3377
  8
2-0
  6
CONTINUOUS
 62
     3
 10
23957.516600999981
 20
13524.484536
 30
0.0
 11
23989.51551899996
 21
13524.484536
 31
0.0
  0
LINE
  5
3378
  8
2-0
  6
CONTINUOUS
 62
     3
 10
24030.51332799999
 20
13551.522781
 30
0.0
 11
24037.51488499996
 21
13551.522781
 31
0.0
  0
LINE
  5
3379
  8
2-0
  6
CONTINUOUS
 62
     3
 10
24037.51488499996
 20
13551.522781
 30
0.0
 11
24037.51488499996
 21
13546.52548599998
 31
0.0
  0
LINE
  5
337A
  8
2-0
  6
CONTINUOUS
 62
     3
 10
24037.51488499996
 20
13546.52548599998
 30
0.0
 11
24012.517524999981
 21
13546.52548599998
 31
0.0
  0
LINE
  5
337B
  8
2-0
  6
CONTINUOUS
 62
     3
 10
24012.517524999981
 20
13546.52548599998
 30
0.0
 11
24012.517524999981
 21
13564.524259
 31
0.0
  0
LINE
  5
337C
  8
2-0
  6
CONTINUOUS
 62
     3
 10
24012.517524999981
 20
13564.524259
 30
0.0
 11
24042.51514899997
 21
13564.524259
 31
0.0
  0
LINE
  5
337D
  8
2-0
  6
CENTER2
 62
     6
 10
24000.01686499998
 20
13241.99139899999
 30
0.0
 11
24000.01686499998
 21
14748.360157000019
 31
0.0
  0
LINE
  5
337E
  8
2-0
  6
CONTINUOUS
 62
     3
 10
24042.51514899997
 20
18238.08138800001
 30
0.0
 11
24042.51514899997
 21
18881.892105499999
 31
0.0
  0
LINE
  5
337F
  8
2-0
  6
CONTINUOUS
 62
     6
 10
24735.020031999971
 20
20440.987440000012
 30
0.0
 11
25935.014093999951
 21
20440.987440000012
 31
0.0
  0
LINE
  5
3380
  8
2-0
  6
CONTINUOUS
 62
     6
 10
23872.98719899997
 20
18803.586309499991
 30
0.0
 11
23441.45610699998
 21
18561.431801499992
 31
0.0
  0
LINE
  5
3381
  8
2-0
  6
CONTINUOUS
 62
     6
 10
24194.556032999961
 20
19853.664277000022
 30
0.0
 11
24735.020031999971
 21
20440.987440000012
 31
0.0
  0
LINE
  5
3382
  8
2-0
  6
CONTINUOUS
 62
     3
 10
24042.51514899997
 20
15963.885672500001
 30
0.0
 11
24042.51514899997
 21
15320.32189900001
 31
0.0
  0
LINE
  5
3383
  8
2-0
  6
CONTINUOUS
 62
     6
 10
23859.93029399998
 20
18826.84565349999
 30
0.0
 11
24012.517524999981
 21
18881.892105499999
 31
0.0
  0
LINE
  5
3384
  8
2-0
  6
CONTINUOUS
 62
     6
 10
24012.517524999981
 20
18881.892105499999
 30
0.0
 11
23886.036184999972
 21
18780.332905499981
 31
0.0
  0
LINE
  5
3385
  8
2-0
  6
CONTINUOUS
 62
     6
 10
23859.93029399998
 20
18826.84565349999
 30
0.0
 11
23886.036184999972
 21
18780.332905499981
 31
0.0
  0
LINE
  5
3386
  8
2-0
  6
CONTINUOUS
 62
     6
 10
23886.036184999972
 20
18780.332905499981
 30
0.0
 11
24012.517524999981
 21
18881.892105499999
 31
0.0
  0
LINE
  5
3387
  8
2-0
  6
CONTINUOUS
 62
     6
 10
24012.517524999981
 20
18881.892105499999
 30
0.0
 11
23859.93029399998
 21
18826.84565349999
 31
0.0
  0
LINE
  5
3388
  8
2-0
  6
CONTINUOUS
 62
     6
 10
23859.93029399998
 20
18826.84565349999
 30
0.0
 11
24012.517524999981
 21
18881.892105499999
 31
0.0
  0
LINE
  5
3389
  8
2-0
  6
CONTINUOUS
 62
     6
 10
23886.036184999972
 20
18780.332905499981
 30
0.0
 11
24012.517524999981
 21
18881.892105499999
 31
0.0
  0
LINE
  5
338A
  8
2-0
  6
CONTINUOUS
 62
     6
 10
23886.036184999972
 20
18780.332905499981
 30
0.0
 11
23859.93029399998
 21
18826.84565349999
 31
0.0
  0
LINE
  5
338B
  8
2-0
  6
CONTINUOUS
 62
     6
 10
24214.173061999962
 20
19835.603150000021
 30
0.0
 11
24086.211041999981
 21
19735.920532000011
 31
0.0
  0
LINE
  5
338C
  8
2-0
  6
CONTINUOUS
 62
     6
 10
24086.211041999981
 20
19735.920532000011
 30
0.0
 11
24174.925146999962
 21
19871.717487000009
 31
0.0
  0
LINE
  5
338D
  8
2-0
  6
CONTINUOUS
 62
     6
 10
24214.173061999962
 20
19835.603150000021
 30
0.0
 11
24174.925146999962
 21
19871.717487000009
 31
0.0
  0
LINE
  5
338E
  8
2-0
  6
CONTINUOUS
 62
     6
 10
24174.925146999962
 20
19871.717487000009
 30
0.0
 11
24086.211041999981
 21
19735.920532000011
 31
0.0
  0
LINE
  5
338F
  8
2-0
  6
CONTINUOUS
 62
     6
 10
24086.211041999981
 20
19735.920532000011
 30
0.0
 11
24214.173061999962
 21
19835.603150000021
 31
0.0
  0
LINE
  5
3390
  8
2-0
  6
CONTINUOUS
 62
     6
 10
24214.173061999962
 20
19835.603150000021
 30
0.0
 11
24086.211041999981
 21
19735.920532000011
 31
0.0
  0
LINE
  5
3391
  8
2-0
  6
CONTINUOUS
 62
     6
 10
24174.925146999962
 20
19871.717487000009
 30
0.0
 11
24086.211041999981
 21
19735.920532000011
 31
0.0
  0
LINE
  5
3392
  8
2-0
  6
CONTINUOUS
 62
     6
 10
24174.925146999962
 20
19871.717487000009
 30
0.0
 11
24214.173061999962
 21
19835.603150000021
 31
0.0
  0
LINE
  5
3393
  8
2-0
  6
CONTINUOUS
 62
     4
 10
21432.516864999969
 20
19790.986780000021
 30
0.0
 11
21432.516864999969
 21
20520.983745000001
 31
0.0
  0
LINE
  5
3394
  8
2-0
  6
CONTINUOUS
 62
     6
 10
23765.877427999989
 20
13331.216218999991
 30
0.0
 11
23897.624286999981
 21
13425.843145999999
 31
0.0
  0
LINE
  5
3395
  8
2-0
  6
CONTINUOUS
 62
     6
 10
23897.624286999981
 20
13425.843145999999
 30
0.0
 11
23803.69415099996
 21
13293.60437599999
 31
0.0
  0
LINE
  5
3396
  8
2-0
  6
CONTINUOUS
 62
     6
 10
23765.877427999989
 20
13331.216218999991
 30
0.0
 11
23803.69415099996
 21
13293.60437599999
 31
0.0
  0
LINE
  5
3397
  8
2-0
  6
CONTINUOUS
 62
     6
 10
23803.69415099996
 20
13293.60437599999
 30
0.0
 11
23897.624286999981
 21
13425.843145999999
 31
0.0
  0
LINE
  5
3398
  8
2-0
  6
CONTINUOUS
 62
     6
 10
23897.624286999981
 20
13425.843145999999
 30
0.0
 11
23765.877427999989
 21
13331.216218999991
 31
0.0
  0
LINE
  5
3399
  8
2-0
  6
CONTINUOUS
 62
     6
 10
23765.877427999989
 20
13331.216218999991
 30
0.0
 11
23897.624286999981
 21
13425.843145999999
 31
0.0
  0
LINE
  5
339A
  8
2-0
  6
CONTINUOUS
 62
     6
 10
23803.69415099996
 20
13293.60437599999
 30
0.0
 11
23897.624286999981
 21
13425.843145999999
 31
0.0
  0
LINE
  5
339B
  8
2-0
  6
CONTINUOUS
 62
     6
 10
23803.69415099996
 20
13293.60437599999
 30
0.0
 11
23765.877427999989
 21
13331.216218999991
 31
0.0
  0
LINE
  5
339C
  8
2-0
  6
CONTINUOUS
 62
     6
 10
23828.913216999968
 20
13658.120845999991
 30
0.0
 11
23961.51324899996
 21
13564.692517999991
 31
0.0
  0
LINE
  5
339D
  8
2-0
  6
CONTINUOUS
 62
     6
 10
23961.51324899996
 20
13564.692517999991
 30
0.0
 11
23805.78056299996
 21
13610.068031999999
 31
0.0
  0
LINE
  5
339E
  8
2-0
  6
CONTINUOUS
 62
     6
 10
23828.913216999968
 20
13658.120845999991
 30
0.0
 11
23805.78056299996
 21
13610.068031999999
 31
0.0
  0
LINE
  5
339F
  8
2-0
  6
CONTINUOUS
 62
     6
 10
23805.78056299996
 20
13610.068031999999
 30
0.0
 11
23961.51324899996
 21
13564.692517999991
 31
0.0
  0
LINE
  5
33A0
  8
2-0
  6
CONTINUOUS
 62
     6
 10
23961.51324899996
 20
13564.692517999991
 30
0.0
 11
23828.913216999968
 21
13658.120845999991
 31
0.0
  0
LINE
  5
33A1
  8
2-0
  6
CONTINUOUS
 62
     6
 10
23828.913216999968
 20
13658.120845999991
 30
0.0
 11
23961.51324899996
 21
13564.692517999991
 31
0.0
  0
LINE
  5
33A2
  8
2-0
  6
CONTINUOUS
 62
     6
 10
23805.78056299996
 20
13610.068031999999
 30
0.0
 11
23961.51324899996
 21
13564.692517999991
 31
0.0
  0
LINE
  5
33A3
  8
2-0
  6
CONTINUOUS
 62
     6
 10
23805.78056299996
 20
13610.068031999999
 30
0.0
 11
23828.913216999968
 21
13658.120845999991
 31
0.0
  0
LINE
  5
33A4
  8
2-0
  6
CONTINUOUS
 62
     6
 10
23888.676862999961
 20
16388.441779000019
 30
0.0
 11
24042.51514899997
 21
16439.875610000021
 31
0.0
  0
LINE
  5
33A5
  8
2-0
  6
CONTINUOUS
 62
     6
 10
24042.51514899997
 20
16439.875610000021
 30
0.0
 11
23913.68016199995
 21
16341.33517500002
 31
0.0
  0
LINE
  5
33A6
  8
2-0
  6
CONTINUOUS
 62
     6
 10
23888.676862999961
 20
16388.441779000019
 30
0.0
 11
23913.68016199995
 21
16341.33517500002
 31
0.0
  0
LINE
  5
33A7
  8
2-0
  6
CONTINUOUS
 62
     6
 10
23913.68016199995
 20
16341.33517500002
 30
0.0
 11
24042.51514899997
 21
16439.875610000021
 31
0.0
  0
LINE
  5
33A8
  8
2-0
  6
CONTINUOUS
 62
     6
 10
24042.51514899997
 20
16439.875610000021
 30
0.0
 11
23888.676862999961
 21
16388.441779000019
 31
0.0
  0
LINE
  5
33A9
  8
2-0
  6
CONTINUOUS
 62
     6
 10
23888.676862999961
 20
16388.441779000019
 30
0.0
 11
24042.51514899997
 21
16439.875610000021
 31
0.0
  0
LINE
  5
33AA
  8
2-0
  6
CONTINUOUS
 62
     6
 10
23913.68016199995
 20
16341.33517500002
 30
0.0
 11
24042.51514899997
 21
16439.875610000021
 31
0.0
  0
LINE
  5
33AB
  8
2-0
  6
CONTINUOUS
 62
     6
 10
23913.68016199995
 20
16341.33517500002
 30
0.0
 11
23888.676862999961
 21
16388.441779000019
 31
0.0
  0
LINE
  5
33AC
  8
2-0
  6
CONTINUOUS
 62
     6
 10
23754.740655999969
 20
16879.76027100001
 30
0.0
 11
23897.624286999981
 21
16802.984641999999
 31
0.0
  0
LINE
  5
33AD
  8
2-0
  6
CONTINUOUS
 62
     6
 10
23897.624286999981
 20
16802.984641999999
 30
0.0
 11
23737.562393999971
 21
16829.266711000011
 31
0.0
  0
LINE
  5
33AE
  8
2-0
  6
CONTINUOUS
 62
     6
 10
23754.740655999969
 20
16879.76027100001
 30
0.0
 11
23737.562393999971
 21
16829.266711000011
 31
0.0
  0
LINE
  5
33AF
  8
2-0
  6
CONTINUOUS
 62
     6
 10
23737.562393999971
 20
16829.266711000011
 30
0.0
 11
23897.624286999981
 21
16802.984641999999
 31
0.0
  0
LINE
  5
33B0
  8
2-0
  6
CONTINUOUS
 62
     6
 10
23897.624286999981
 20
16802.984641999999
 30
0.0
 11
23754.740655999969
 21
16879.76027100001
 31
0.0
  0
LINE
  5
33B1
  8
2-0
  6
CONTINUOUS
 62
     6
 10
23754.740655999969
 20
16879.76027100001
 30
0.0
 11
23897.624286999981
 21
16802.984641999999
 31
0.0
  0
LINE
  5
33B2
  8
2-0
  6
CONTINUOUS
 62
     6
 10
23737.562393999971
 20
16829.266711000011
 30
0.0
 11
23897.624286999981
 21
16802.984641999999
 31
0.0
  0
LINE
  5
33B3
  8
2-0
  6
CONTINUOUS
 62
     6
 10
23737.562393999971
 20
16829.266711000011
 30
0.0
 11
23754.740655999969
 21
16879.76027100001
 31
0.0
  0
LINE
  5
33B4
  8
2-0
  6
CONTINUOUS
 62
     3
 10
21420.018184999972
 20
19601.984326000009
 30
0.0
 11
21420.018184999972
 21
19595.988364000012
 31
0.0
  0
LINE
  5
33B5
  8
2-0
  6
CONTINUOUS
 62
     3
 10
21420.018184999972
 20
19595.988364000012
 30
0.0
 11
21390.020559999972
 21
19595.988364000012
 31
0.0
  0
LINE
  5
33B6
  8
2-0
  6
CONTINUOUS
 62
     3
 10
21390.020559999972
 20
19595.988364000012
 30
0.0
 11
21390.020559999972
 21
19710.984537000011
 31
0.0
  0
LINE
  5
33B7
  8
2-0
  6
CONTINUOUS
 62
     3
 10
21390.020559999972
 20
19625.987968000001
 30
0.0
 11
21471.01850099998
 21
19625.987968000001
 31
0.0
  0
LINE
  5
33B8
  8
2-0
  6
CONTINUOUS
 62
     3
 10
21420.018184999972
 20
19585.690908
 30
0.0
 11
21390.020559999972
 21
19585.690908
 31
0.0
  0
LINE
  5
33B9
  8
2-0
  6
CONTINUOUS
 62
     3
 10
21420.018184999972
 20
19603.692650000001
 30
0.0
 11
21420.018184999972
 21
19585.690908
 31
0.0
  0
LINE
  5
33BA
  8
2-0
  6
CONTINUOUS
 62
     3
 10
21395.024782999972
 20
19603.692650000001
 30
0.0
 11
21420.018184999972
 21
19603.692650000001
 31
0.0
  0
LINE
  5
33BB
  8
2-0
  6
CONTINUOUS
 62
     3
 10
21395.024782999972
 20
19598.68446800001
 30
0.0
 11
21395.024782999972
 21
19603.692650000001
 31
0.0
  0
LINE
  5
33BC
  8
2-0
  6
CONTINUOUS
 62
     3
 10
21402.022380999959
 20
19598.68446800001
 30
0.0
 11
21395.024782999972
 21
19598.68446800001
 31
0.0
  0
LINE
  5
33BD
  8
2-0
  6
CONTINUOUS
 62
     3
 10
21502.31666999996
 20
19698.984695000021
 30
0.0
 11
21502.31666999996
 21
19705.990211000011
 31
0.0
  0
LINE
  5
33BE
  8
2-0
  6
CONTINUOUS
 62
     3
 10
21502.31666999996
 20
19705.990211000011
 30
0.0
 11
21497.314425999972
 21
19705.990211000011
 31
0.0
  0
LINE
  5
33BF
  8
2-0
  6
CONTINUOUS
 62
     3
 10
21497.314425999972
 20
19705.990211000011
 30
0.0
 11
21497.314425999972
 21
19680.980973999998
 31
0.0
  0
LINE
  5
33C0
  8
2-0
  6
CONTINUOUS
 62
     3
 10
21497.314425999972
 20
19680.980973999998
 30
0.0
 11
21515.322106999971
 21
19680.980973999998
 31
0.0
  0
LINE
  5
33C1
  8
2-0
  6
CONTINUOUS
 62
     3
 10
21515.322106999971
 20
19680.980973999998
 30
0.0
 11
21515.322106999971
 21
19710.984537000011
 31
0.0
  0
LINE
  5
33C2
  8
2-0
  6
CONTINUOUS
 62
     3
 10
21505.022670999981
 20
19710.984537000011
 30
0.0
 11
21390.020559999972
 21
19710.984537000011
 31
0.0
  0
LINE
  5
33C3
  8
2-0
  6
CONTINUOUS
 62
     3
 10
21505.022670999981
 20
19680.980973999998
 30
0.0
 11
21505.022670999981
 21
19710.984537000011
 31
0.0
  0
LINE
  5
33C4
  8
2-0
  6
CONTINUOUS
 62
     3
 10
21499.01879199997
 20
19680.980973999998
 30
0.0
 11
21505.022670999981
 21
19680.980973999998
 31
0.0
  0
LINE
  5
33C5
  8
2-0
  6
CONTINUOUS
 62
     3
 10
21420.018184999972
 20
19601.984326000009
 30
0.0
 11
21420.018184999972
 21
19595.988364000012
 31
0.0
  0
LINE
  5
33C6
  8
2-0
  6
CONTINUOUS
 62
     3
 10
21420.018184999972
 20
19595.988364000012
 30
0.0
 11
21390.020559999972
 21
19595.988364000012
 31
0.0
  0
LINE
  5
33C7
  8
2-0
  6
CONTINUOUS
 62
     3
 10
21390.020559999972
 20
19595.988364000012
 30
0.0
 11
21390.020559999972
 21
19710.984537000011
 31
0.0
  0
LINE
  5
33C8
  8
2-0
  6
CONTINUOUS
 62
     3
 10
21390.020559999972
 20
19625.987968000001
 30
0.0
 11
21471.01850099998
 21
19625.987968000001
 31
0.0
  0
LINE
  5
33C9
  8
2-0
  6
CONTINUOUS
 62
     3
 10
21420.018184999972
 20
19585.690908
 30
0.0
 11
21390.020559999972
 21
19585.690908
 31
0.0
  0
LINE
  5
33CA
  8
2-0
  6
CONTINUOUS
 62
     3
 10
21420.018184999972
 20
19603.692650000001
 30
0.0
 11
21420.018184999972
 21
19585.690908
 31
0.0
  0
LINE
  5
33CB
  8
2-0
  6
CONTINUOUS
 62
     3
 10
21395.024782999972
 20
19603.692650000001
 30
0.0
 11
21420.018184999972
 21
19603.692650000001
 31
0.0
  0
LINE
  5
33CC
  8
2-0
  6
CONTINUOUS
 62
     3
 10
21395.024782999972
 20
19598.68446800001
 30
0.0
 11
21395.024782999972
 21
19603.692650000001
 31
0.0
  0
LINE
  5
33CD
  8
2-0
  6
CONTINUOUS
 62
     3
 10
21402.022380999959
 20
19598.68446800001
 30
0.0
 11
21395.024782999972
 21
19598.68446800001
 31
0.0
  0
LINE
  5
33CE
  8
2-0
  6
CONTINUOUS
 62
     3
 10
21402.022380999959
 20
18894.887645499992
 30
0.0
 11
21395.024782999972
 21
18894.887645499992
 31
0.0
  0
LINE
  5
33CF
  8
2-0
  6
CONTINUOUS
 62
     3
 10
21395.024782999972
 20
18894.887645499992
 30
0.0
 11
21395.024782999972
 21
18899.887909500001
 31
0.0
  0
LINE
  5
33D0
  8
2-0
  6
CONTINUOUS
 62
     3
 10
21395.024782999972
 20
18899.887909500001
 30
0.0
 11
21420.018184999972
 21
18899.887909500001
 31
0.0
  0
LINE
  5
33D1
  8
2-0
  6
CONTINUOUS
 62
     3
 10
21420.018184999972
 20
18899.887909500001
 30
0.0
 11
21420.018184999972
 21
18881.892105499981
 31
0.0
  0
LINE
  5
33D2
  8
2-0
  6
CONTINUOUS
 62
     3
 10
21420.018184999972
 20
18881.892105499981
 30
0.0
 11
21390.020559999972
 21
18881.892105499981
 31
0.0
  0
LINE
  5
33D3
  8
2-0
  6
CONTINUOUS
 62
     3
 10
21420.018184999972
 20
18897.98361249996
 30
0.0
 11
21420.018184999972
 21
18891.985671499991
 31
0.0
  0
LINE
  5
33D4
  8
2-0
  6
CONTINUOUS
 62
     3
 10
21420.018184999972
 20
18891.985671499991
 30
0.0
 11
21390.020559999972
 21
18891.985671499991
 31
0.0
  0
LINE
  5
33D5
  8
2-0
  6
CONTINUOUS
 62
     3
 10
21390.020559999972
 20
18891.985671499991
 30
0.0
 11
21390.020559999972
 21
18928.986832499992
 31
0.0
  0
LINE
  5
33D6
  8
2-0
  6
CONTINUOUS
 62
     3
 10
21420.018184999972
 20
18928.986832499992
 30
0.0
 11
21390.020559999972
 21
18928.986832499992
 31
0.0
  0
LINE
  5
33D7
  8
2-0
  6
CONTINUOUS
 62
     3
 10
21420.018184999972
 20
18922.982952499991
 30
0.0
 11
21420.018184999972
 21
18928.986832499992
 31
0.0
  0
LINE
  5
33D8
  8
2-0
  6
CONTINUOUS
 62
     3
 10
21420.018184999972
 20
18939.082377499981
 30
0.0
 11
21390.020559999972
 21
18939.082377499981
 31
0.0
  0
LINE
  5
33D9
  8
2-0
  6
CONTINUOUS
 62
     3
 10
21420.018184999972
 20
18921.080635499999
 30
0.0
 11
21420.018184999972
 21
18939.082377499981
 31
0.0
  0
LINE
  5
33DA
  8
2-0
  6
CONTINUOUS
 62
     3
 10
21395.024782999972
 20
18921.080635499999
 30
0.0
 11
21420.018184999972
 21
18921.080635499999
 31
0.0
  0
LINE
  5
33DB
  8
2-0
  6
CONTINUOUS
 62
     3
 10
21395.024782999972
 20
18926.080899499979
 30
0.0
 11
21395.024782999972
 21
18921.080635499999
 31
0.0
  0
LINE
  5
33DC
  8
2-0
  6
CONTINUOUS
 62
     3
 10
21402.022380999959
 20
18926.080899499979
 30
0.0
 11
21395.024782999972
 21
18926.080899499979
 31
0.0
  0
LINE
  5
33DD
  8
2-0
  6
CONTINUOUS
 62
     3
 10
21402.022380999959
 20
18193.886655999999
 30
0.0
 11
21395.024782999972
 21
18193.886655999999
 31
0.0
  0
LINE
  5
33DE
  8
2-0
  6
CONTINUOUS
 62
     3
 10
21395.024782999972
 20
18193.886655999999
 30
0.0
 11
21395.024782999972
 21
18198.892857999999
 31
0.0
  0
LINE
  5
33DF
  8
2-0
  6
CONTINUOUS
 62
     3
 10
21395.024782999972
 20
18198.892857999999
 30
0.0
 11
21420.018184999972
 21
18198.892857999999
 31
0.0
  0
LINE
  5
33E0
  8
2-0
  6
CONTINUOUS
 62
     3
 10
21420.018184999972
 20
18198.892857999999
 30
0.0
 11
21420.018184999972
 21
18180.891115999992
 31
0.0
  0
LINE
  5
33E1
  8
2-0
  6
CONTINUOUS
 62
     3
 10
21420.018184999972
 20
18180.891115999992
 30
0.0
 11
21390.020559999972
 21
18180.891115999992
 31
0.0
  0
LINE
  5
33E2
  8
2-0
  6
CONTINUOUS
 62
     3
 10
21420.018184999972
 20
18196.982622999982
 30
0.0
 11
21420.018184999972
 21
18190.986660999992
 31
0.0
  0
LINE
  5
33E3
  8
2-0
  6
CONTINUOUS
 62
     3
 10
21420.018184999972
 20
18190.986660999992
 30
0.0
 11
21390.020559999972
 21
18190.986660999992
 31
0.0
  0
LINE
  5
33E4
  8
2-0
  6
CONTINUOUS
 62
     3
 10
21390.020559999972
 20
18190.986660999992
 30
0.0
 11
21390.020559999972
 21
18227.985842999991
 31
0.0
  0
LINE
  5
33E5
  8
2-0
  6
CONTINUOUS
 62
     3
 10
21420.018184999972
 20
18227.985842999991
 30
0.0
 11
21390.020559999972
 21
18227.985842999991
 31
0.0
  0
LINE
  5
33E6
  8
2-0
  6
CONTINUOUS
 62
     3
 10
21420.018184999972
 20
18221.989881000001
 30
0.0
 11
21420.018184999972
 21
18227.985842999991
 31
0.0
  0
LINE
  5
33E7
  8
2-0
  6
CONTINUOUS
 62
     3
 10
21420.018184999972
 20
18238.081387999999
 30
0.0
 11
21390.020559999972
 21
18238.081387999999
 31
0.0
  0
LINE
  5
33E8
  8
2-0
  6
CONTINUOUS
 62
     3
 10
21420.018184999972
 20
18220.079645999991
 30
0.0
 11
21420.018184999972
 21
18238.081387999999
 31
0.0
  0
LINE
  5
33E9
  8
2-0
  6
CONTINUOUS
 62
     3
 10
21395.024782999972
 20
18220.079645999991
 30
0.0
 11
21420.018184999972
 21
18220.079645999991
 31
0.0
  0
LINE
  5
33EA
  8
2-0
  6
CONTINUOUS
 62
     3
 10
21395.024782999972
 20
18225.085847999992
 30
0.0
 11
21395.024782999972
 21
18220.079645999991
 31
0.0
  0
LINE
  5
33EB
  8
2-0
  6
CONTINUOUS
 62
     3
 10
21402.022380999959
 20
18225.085847999992
 30
0.0
 11
21395.024782999972
 21
18225.085847999992
 31
0.0
  0
LINE
  5
33EC
  8
2-0
  6
CONTINUOUS
 62
     3
 10
21402.022380999959
 20
17524.079909999989
 30
0.0
 11
21395.024782999972
 21
17524.079909999989
 31
0.0
  0
LINE
  5
33ED
  8
2-0
  6
CONTINUOUS
 62
     3
 10
21395.024782999972
 20
17524.079909999989
 30
0.0
 11
21395.024782999972
 21
17519.091522999999
 31
0.0
  0
LINE
  5
33EE
  8
2-0
  6
CONTINUOUS
 62
     3
 10
21395.024782999972
 20
17519.091522999999
 30
0.0
 11
21420.018184999972
 21
17519.091522999999
 31
0.0
  0
LINE
  5
33EF
  8
2-0
  6
CONTINUOUS
 62
     3
 10
21420.018184999972
 20
17519.091522999999
 30
0.0
 11
21420.018184999972
 21
17537.08732599999
 31
0.0
  0
LINE
  5
33F0
  8
2-0
  6
CONTINUOUS
 62
     3
 10
21420.018184999972
 20
17537.08732599999
 30
0.0
 11
21390.020559999972
 21
17537.08732599999
 31
0.0
  0
LINE
  5
33F1
  8
2-0
  6
CONTINUOUS
 62
     3
 10
21420.018184999972
 20
17520.989881000001
 30
0.0
 11
21420.018184999972
 21
17526.985842999991
 31
0.0
  0
LINE
  5
33F2
  8
2-0
  6
CONTINUOUS
 62
     3
 10
21420.018184999972
 20
17526.985842999991
 30
0.0
 11
21390.020559999972
 21
17526.985842999991
 31
0.0
  0
LINE
  5
33F3
  8
2-0
  6
CONTINUOUS
 62
     3
 10
21390.020559999972
 20
17526.985842999991
 30
0.0
 11
21390.020559999972
 21
17489.986660999992
 31
0.0
  0
LINE
  5
33F4
  8
2-0
  6
CONTINUOUS
 62
     3
 10
21420.018184999972
 20
17489.986660999992
 30
0.0
 11
21390.020559999972
 21
17489.986660999992
 31
0.0
  0
LINE
  5
33F5
  8
2-0
  6
CONTINUOUS
 62
     3
 10
21420.018184999972
 20
17495.988561999991
 30
0.0
 11
21420.018184999972
 21
17489.986660999992
 31
0.0
  0
LINE
  5
33F6
  8
2-0
  6
CONTINUOUS
 62
     3
 10
21420.018184999972
 20
17479.897055000001
 30
0.0
 11
21390.020559999972
 21
17479.897055000001
 31
0.0
  0
LINE
  5
33F7
  8
2-0
  6
CONTINUOUS
 62
     3
 10
21420.018184999972
 20
17497.892857999981
 30
0.0
 11
21420.018184999972
 21
17479.897055000001
 31
0.0
  0
LINE
  5
33F8
  8
2-0
  6
CONTINUOUS
 62
     3
 10
21395.024782999972
 20
17497.892857999981
 30
0.0
 11
21420.018184999972
 21
17497.892857999981
 31
0.0
  0
LINE
  5
33F9
  8
2-0
  6
CONTINUOUS
 62
     3
 10
21395.024782999972
 20
17492.892595000001
 30
0.0
 11
21395.024782999972
 21
17497.892857999981
 31
0.0
  0
LINE
  5
33FA
  8
2-0
  6
CONTINUOUS
 62
     3
 10
21402.022380999959
 20
17492.892595000001
 30
0.0
 11
21395.024782999972
 21
17492.892595000001
 31
0.0
  0
LINE
  5
33FB
  8
2-0
  6
CONTINUOUS
 62
     3
 10
21392.906697999981
 20
16772.983480999999
 30
0.0
 11
21392.906697999981
 21
16792.984536
 31
0.0
  0
LINE
  5
33FC
  8
2-0
  6
CONTINUOUS
 62
     3
 10
21392.906697999981
 20
16792.984536
 30
0.0
 11
21477.907225999981
 21
16792.984536
 31
0.0
  0
LINE
  5
33FD
  8
2-0
  6
CONTINUOUS
 62
     3
 10
21402.022380999959
 20
16819.591246
 30
0.0
 11
21395.024782999972
 21
16819.591246
 31
0.0
  0
LINE
  5
33FE
  8
2-0
  6
CONTINUOUS
 62
     3
 10
21395.024782999972
 20
16819.591246
 30
0.0
 11
21395.024782999972
 21
16814.596920000011
 31
0.0
  0
LINE
  5
33FF
  8
2-0
  6
CONTINUOUS
 62
     3
 10
21395.024782999972
 20
16814.596920000011
 30
0.0
 11
21420.018184999972
 21
16814.596920000011
 31
0.0
  0
LINE
  5
3400
  8
2-0
  6
CONTINUOUS
 62
     3
 10
21420.018184999972
 20
16814.596920000011
 30
0.0
 11
21420.018184999972
 21
16832.592723999991
 31
0.0
  0
LINE
  5
3401
  8
2-0
  6
CONTINUOUS
 62
     3
 10
21420.018184999972
 20
16832.592723999991
 30
0.0
 11
21390.020559999972
 21
16832.592723999991
 31
0.0
  0
LINE
  5
3402
  8
2-0
  6
CONTINUOUS
 62
     3
 10
21420.018184999972
 20
16822.98413999999
 30
0.0
 11
21420.018184999972
 21
16816.982240000001
 31
0.0
  0
LINE
  5
3403
  8
2-0
  6
CONTINUOUS
 62
     3
 10
21390.020559999972
 20
16822.98413999999
 30
0.0
 11
21420.018184999972
 21
16822.98413999999
 31
0.0
  0
LINE
  5
3404
  8
2-0
  6
CONTINUOUS
 62
     3
 10
21390.020559999972
 20
16832.592723999991
 30
0.0
 11
21390.020559999972
 21
17479.897055000001
 31
0.0
  0
LINE
  5
3405
  8
2-0
  6
CONTINUOUS
 62
     3
 10
21390.020559999972
 20
17537.08732599999
 30
0.0
 11
21390.020559999972
 21
18180.891115999992
 31
0.0
  0
LINE
  5
3406
  8
2-0
  6
CONTINUOUS
 62
     3
 10
21390.020559999972
 20
16677.982424999991
 30
0.0
 11
21420.018184999972
 21
16677.982424999991
 31
0.0
  0
LINE
  5
3407
  8
2-0
  6
CONTINUOUS
 62
     3
 10
21420.018184999972
 20
16677.982424999991
 30
0.0
 11
21420.018184999972
 21
16683.984325000001
 31
0.0
  0
LINE
  5
3408
  8
2-0
  6
CONTINUOUS
 62
     3
 10
21477.907225999981
 20
16707.987968000001
 30
0.0
 11
21392.906697999981
 21
16707.987968000001
 31
0.0
  0
LINE
  5
3409
  8
2-0
  6
CONTINUOUS
 62
     3
 10
21392.906697999981
 20
16707.987968000001
 30
0.0
 11
21392.906697999981
 21
16727.983085000011
 31
0.0
  0
LINE
  5
340A
  8
2-0
  6
CONTINUOUS
 62
     3
 10
21420.018184999972
 20
16668.373842000012
 30
0.0
 11
21390.020559999972
 21
16668.373842000012
 31
0.0
  0
LINE
  5
340B
  8
2-0
  6
CONTINUOUS
 62
     3
 10
21420.018184999972
 20
16686.369644999992
 30
0.0
 11
21420.018184999972
 21
16668.373842000012
 31
0.0
  0
LINE
  5
340C
  8
2-0
  6
CONTINUOUS
 62
     3
 10
21395.024782999972
 20
16686.369644999992
 30
0.0
 11
21420.018184999972
 21
16686.369644999992
 31
0.0
  0
LINE
  5
340D
  8
2-0
  6
CONTINUOUS
 62
     3
 10
21395.024782999972
 20
16681.369381000011
 30
0.0
 11
21395.024782999972
 21
16686.369644999992
 31
0.0
  0
LINE
  5
340E
  8
2-0
  6
CONTINUOUS
 62
     3
 10
21402.022380999959
 20
16681.369381000011
 30
0.0
 11
21395.024782999972
 21
16681.369381000011
 31
0.0
  0
LINE
  5
340F
  8
2-0
  6
CONTINUOUS
 62
     3
 10
21402.022380999959
 20
15976.887150499981
 30
0.0
 11
21395.024782999972
 21
15976.887150499981
 31
0.0
  0
LINE
  5
3410
  8
2-0
  6
CONTINUOUS
 62
     3
 10
21395.024782999972
 20
15976.887150499981
 30
0.0
 11
21395.024782999972
 21
15981.88741449999
 31
0.0
  0
LINE
  5
3411
  8
2-0
  6
CONTINUOUS
 62
     3
 10
21395.024782999972
 20
15981.88741449999
 30
0.0
 11
21420.018184999972
 21
15981.88741449999
 31
0.0
  0
LINE
  5
3412
  8
2-0
  6
CONTINUOUS
 62
     3
 10
21420.018184999972
 20
15981.88741449999
 30
0.0
 11
21420.018184999972
 21
15963.88567249999
 31
0.0
  0
LINE
  5
3413
  8
2-0
  6
CONTINUOUS
 62
     3
 10
21420.018184999972
 20
15963.88567249999
 30
0.0
 11
21390.020559999972
 21
15963.88567249999
 31
0.0
  0
LINE
  5
3414
  8
2-0
  6
CONTINUOUS
 62
     3
 10
21420.018184999972
 20
15979.9831175
 30
0.0
 11
21420.018184999972
 21
15973.986166500001
 31
0.0
  0
LINE
  5
3415
  8
2-0
  6
CONTINUOUS
 62
     3
 10
21420.018184999972
 20
15973.986166500001
 30
0.0
 11
21390.020559999972
 21
15973.986166500001
 31
0.0
  0
LINE
  5
3416
  8
2-0
  6
CONTINUOUS
 62
     3
 10
21390.020559999972
 20
15973.986166500001
 30
0.0
 11
21390.020559999972
 21
16010.9863375
 31
0.0
  0
LINE
  5
3417
  8
2-0
  6
CONTINUOUS
 62
     3
 10
21420.018184999972
 20
16010.9863375
 30
0.0
 11
21390.020559999972
 21
16010.9863375
 31
0.0
  0
LINE
  5
3418
  8
2-0
  6
CONTINUOUS
 62
     3
 10
21420.018184999972
 20
16004.983447500001
 30
0.0
 11
21420.018184999972
 21
16010.9863375
 31
0.0
  0
LINE
  5
3419
  8
2-0
  6
CONTINUOUS
 62
     3
 10
21420.018184999972
 20
16021.08188249999
 30
0.0
 11
21390.020559999972
 21
16021.08188249999
 31
0.0
  0
LINE
  5
341A
  8
2-0
  6
CONTINUOUS
 62
     3
 10
21420.018184999972
 20
16003.074201499991
 30
0.0
 11
21420.018184999972
 21
16021.08188249999
 31
0.0
  0
LINE
  5
341B
  8
2-0
  6
CONTINUOUS
 62
     3
 10
21395.024782999972
 20
16003.074201499991
 30
0.0
 11
21420.018184999972
 21
16003.074201499991
 31
0.0
  0
LINE
  5
341C
  8
2-0
  6
CONTINUOUS
 62
     3
 10
21395.024782999972
 20
16008.0804045
 30
0.0
 11
21395.024782999972
 21
16003.074201499991
 31
0.0
  0
LINE
  5
341D
  8
2-0
  6
CONTINUOUS
 62
     3
 10
21402.022380999959
 20
16008.0804045
 30
0.0
 11
21395.024782999972
 21
16008.0804045
 31
0.0
  0
LINE
  5
341E
  8
2-0
  6
CONTINUOUS
 62
     3
 10
21402.022380999959
 20
15307.320421
 30
0.0
 11
21395.024782999972
 21
15307.320421
 31
0.0
  0
LINE
  5
341F
  8
2-0
  6
CONTINUOUS
 62
     3
 10
21395.024782999972
 20
15307.320421
 30
0.0
 11
21395.024782999972
 21
15302.326096000001
 31
0.0
  0
LINE
  5
3420
  8
2-0
  6
CONTINUOUS
 62
     3
 10
21395.024782999972
 20
15302.326096000001
 30
0.0
 11
21420.018184999972
 21
15302.326096000001
 31
0.0
  0
LINE
  5
3421
  8
2-0
  6
CONTINUOUS
 62
     3
 10
21420.018184999972
 20
15302.326096000001
 30
0.0
 11
21420.018184999972
 21
15320.32189900001
 31
0.0
  0
LINE
  5
3422
  8
2-0
  6
CONTINUOUS
 62
     3
 10
21420.018184999972
 20
15320.32189900001
 30
0.0
 11
21390.020559999972
 21
15320.32189900001
 31
0.0
  0
LINE
  5
3423
  8
2-0
  6
CONTINUOUS
 62
     3
 10
21420.018184999972
 20
15304.22445399999
 30
0.0
 11
21420.018184999972
 21
15310.226354
 31
0.0
  0
LINE
  5
3424
  8
2-0
  6
CONTINUOUS
 62
     3
 10
21420.018184999972
 20
15310.226354
 30
0.0
 11
21390.020559999972
 21
15310.226354
 31
0.0
  0
LINE
  5
3425
  8
2-0
  6
CONTINUOUS
 62
     3
 10
21390.020559999972
 20
15273.22717300001
 30
0.0
 11
21390.020559999972
 21
15310.226354
 31
0.0
  0
LINE
  5
3426
  8
2-0
  6
CONTINUOUS
 62
     3
 10
21420.018184999972
 20
15273.22717300001
 30
0.0
 11
21390.020559999972
 21
15273.22717300001
 31
0.0
  0
LINE
  5
3427
  8
2-0
  6
CONTINUOUS
 62
     3
 10
21420.018184999972
 20
15279.224124
 30
0.0
 11
21420.018184999972
 21
15273.22717300001
 31
0.0
  0
LINE
  5
3428
  8
2-0
  6
CONTINUOUS
 62
     3
 10
21420.018184999972
 20
15263.12568899999
 30
0.0
 11
21390.020559999972
 21
15263.12568899999
 31
0.0
  0
LINE
  5
3429
  8
2-0
  6
CONTINUOUS
 62
     3
 10
21420.018184999972
 20
15281.13336999999
 30
0.0
 11
21420.018184999972
 21
15263.12568899999
 31
0.0
  0
LINE
  5
342A
  8
2-0
  6
CONTINUOUS
 62
     3
 10
21395.024782999972
 20
15281.13336999999
 30
0.0
 11
21420.018184999972
 21
15281.13336999999
 31
0.0
  0
LINE
  5
342B
  8
2-0
  6
CONTINUOUS
 62
     3
 10
21395.024782999972
 20
15276.133106000019
 30
0.0
 11
21395.024782999972
 21
15281.13336999999
 31
0.0
  0
LINE
  5
342C
  8
2-0
  6
CONTINUOUS
 62
     3
 10
21402.022380999959
 20
15276.133106000019
 30
0.0
 11
21395.024782999972
 21
15276.133106000019
 31
0.0
  0
LINE
  5
342D
  8
2-0
  6
CONTINUOUS
 62
     3
 10
21390.020559999972
 20
16668.373842000012
 30
0.0
 11
21390.020559999972
 21
16021.08188249999
 31
0.0
  0
LINE
  5
342E
  8
2-0
  6
CONTINUOUS
 62
     3
 10
21390.020559999972
 20
16822.98413999999
 30
0.0
 11
21390.020559999972
 21
16677.982424999991
 31
0.0
  0
LINE
  5
342F
  8
2-0
  6
CONTINUOUS
 62
     3
 10
21477.907225999981
 20
16792.984536
 30
0.0
 11
21477.907225999981
 21
16707.987968000001
 31
0.0
  0
LINE
  5
3430
  8
2-0
  6
CONTINUOUS
 62
     3
 10
21402.022380999959
 20
14574.892099000001
 30
0.0
 11
21395.024782999972
 21
14574.892099000001
 31
0.0
  0
LINE
  5
3431
  8
2-0
  6
CONTINUOUS
 62
     3
 10
21395.024782999972
 20
14574.892099000001
 30
0.0
 11
21395.024782999972
 21
14579.88642500001
 31
0.0
  0
LINE
  5
3432
  8
2-0
  6
CONTINUOUS
 62
     3
 10
21395.024782999972
 20
14579.88642500001
 30
0.0
 11
21420.018184999972
 21
14579.88642500001
 31
0.0
  0
LINE
  5
3433
  8
2-0
  6
CONTINUOUS
 62
     3
 10
21420.018184999972
 20
14579.88642500001
 30
0.0
 11
21420.018184999972
 21
14561.890621
 31
0.0
  0
LINE
  5
3434
  8
2-0
  6
CONTINUOUS
 62
     3
 10
21420.018184999972
 20
14561.890621
 30
0.0
 11
21390.020559999972
 21
14561.890621
 31
0.0
  0
LINE
  5
3435
  8
2-0
  6
CONTINUOUS
 62
     3
 10
21420.018184999972
 20
14577.989056
 30
0.0
 11
21420.018184999972
 21
14571.98616600001
 31
0.0
  0
LINE
  5
3436
  8
2-0
  6
CONTINUOUS
 62
     3
 10
21420.018184999972
 20
14571.98616600001
 30
0.0
 11
21390.020559999972
 21
14571.98616600001
 31
0.0
  0
LINE
  5
3437
  8
2-0
  6
CONTINUOUS
 62
     3
 10
21390.020559999972
 20
14571.98616600001
 30
0.0
 11
21390.020559999972
 21
14608.986337999981
 31
0.0
  0
LINE
  5
3438
  8
2-0
  6
CONTINUOUS
 62
     3
 10
21420.018184999972
 20
14608.986337999981
 30
0.0
 11
21390.020559999972
 21
14608.986337999981
 31
0.0
  0
LINE
  5
3439
  8
2-0
  6
CONTINUOUS
 62
     3
 10
21420.018184999972
 20
14602.989385999999
 30
0.0
 11
21420.018184999972
 21
14608.986337999981
 31
0.0
  0
LINE
  5
343A
  8
2-0
  6
CONTINUOUS
 62
     3
 10
21420.018184999972
 20
14619.086831000001
 30
0.0
 11
21390.020559999972
 21
14619.086831000001
 31
0.0
  0
LINE
  5
343B
  8
2-0
  6
CONTINUOUS
 62
     3
 10
21420.018184999972
 20
14601.08014
 30
0.0
 11
21420.018184999972
 21
14619.086831000001
 31
0.0
  0
LINE
  5
343C
  8
2-0
  6
CONTINUOUS
 62
     3
 10
21395.024782999972
 20
14601.08014
 30
0.0
 11
21420.018184999972
 21
14601.08014
 31
0.0
  0
LINE
  5
343D
  8
2-0
  6
CONTINUOUS
 62
     3
 10
21395.024782999972
 20
14606.085353
 30
0.0
 11
21395.024782999972
 21
14601.08014
 31
0.0
  0
LINE
  5
343E
  8
2-0
  6
CONTINUOUS
 62
     3
 10
21402.022380999959
 20
14606.085353
 30
0.0
 11
21395.024782999972
 21
14606.085353
 31
0.0
  0
LINE
  5
343F
  8
2-0
  6
CONTINUOUS
 62
     3
 10
21420.018184999972
 20
13548.488179
 30
0.0
 11
21420.018184999972
 21
13554.493047999989
 31
0.0
  0
LINE
  5
3440
  8
2-0
  6
CONTINUOUS
 62
     3
 10
21420.018184999972
 20
13554.493047999989
 30
0.0
 11
21390.020559999972
 21
13554.493047999989
 31
0.0
  0
LINE
  5
3441
  8
2-0
  6
CONTINUOUS
 62
     3
 10
21390.020559999972
 20
13554.493047999989
 30
0.0
 11
21390.020559999972
 21
13439.488957
 31
0.0
  0
LINE
  5
3442
  8
2-0
  6
CONTINUOUS
 62
     3
 10
21390.020559999972
 20
13439.488957
 30
0.0
 11
21475.019107999971
 21
13439.488957
 31
0.0
  0
LINE
  5
3443
  8
2-0
  6
CONTINUOUS
 62
     3
 10
21475.019107999971
 20
13439.488957
 30
0.0
 11
21475.019107999971
 21
13524.484536
 31
0.0
  0
LINE
  5
3444
  8
2-0
  6
CONTINUOUS
 62
     3
 10
21475.019107999971
 20
13524.484536
 30
0.0
 11
21443.02216999996
 21
13524.484536
 31
0.0
  0
LINE
  5
3445
  8
2-0
  6
CONTINUOUS
 62
     3
 10
21402.022380999959
 20
13551.522781
 30
0.0
 11
21395.024782999972
 21
13551.522781
 31
0.0
  0
LINE
  5
3446
  8
2-0
  6
CONTINUOUS
 62
     3
 10
21395.024782999972
 20
13551.522781
 30
0.0
 11
21395.024782999972
 21
13546.52548599998
 31
0.0
  0
LINE
  5
3447
  8
2-0
  6
CONTINUOUS
 62
     3
 10
21395.024782999972
 20
13546.52548599998
 30
0.0
 11
21420.018184999972
 21
13546.52548599998
 31
0.0
  0
LINE
  5
3448
  8
2-0
  6
CONTINUOUS
 62
     3
 10
21420.018184999972
 20
13546.52548599998
 30
0.0
 11
21420.018184999972
 21
13564.524259
 31
0.0
  0
LINE
  5
3449
  8
2-0
  6
CONTINUOUS
 62
     3
 10
21420.018184999972
 20
13564.524259
 30
0.0
 11
21390.020559999972
 21
13564.524259
 31
0.0
  0
LINE
  5
344A
  8
2-0
  6
CONTINUOUS
 62
     3
 10
21390.020559999972
 20
14619.086831000001
 30
0.0
 11
21390.020559999972
 21
15263.12568899999
 31
0.0
  0
LINE
  5
344B
  8
2-0
  6
CONTINUOUS
 62
     3
 10
21390.020559999972
 20
18238.081387999999
 30
0.0
 11
21390.020559999972
 21
18881.892105499981
 31
0.0
  0
LINE
  5
344C
  8
2-0
  6
CONTINUOUS
 62
     3
 10
21481.022987999972
 20
18166.984997999982
 30
0.0
 11
21434.019318999981
 21
18166.984997999982
 31
0.0
  0
LINE
  5
344D
  8
2-0
  6
CONTINUOUS
 62
     3
 10
21434.019318999981
 20
18251.985526
 30
0.0
 11
21481.022987999972
 21
18251.985526
 31
0.0
  0
LINE
  5
344E
  8
2-0
  6
CONTINUOUS
 62
     3
 10
21434.019318999981
 20
18166.984997999982
 30
0.0
 11
21434.019318999981
 21
18191.988297
 31
0.0
  0
LINE
  5
344F
  8
2-0
  6
CONTINUOUS
 62
     3
 10
21434.019318999981
 20
18226.984206000001
 30
0.0
 11
21434.019318999981
 21
18251.985526
 31
0.0
  0
LINE
  5
3450
  8
2-0
  6
CONTINUOUS
 62
     3
 10
21481.022987999972
 20
18251.985526
 30
0.0
 11
21481.022987999972
 21
18166.984997999982
 31
0.0
  0
LINE
  5
3451
  8
2-0
  6
CONTINUOUS
 62
     3
 10
21390.020559999972
 20
15963.88567249999
 30
0.0
 11
21390.020559999972
 21
15320.32189900001
 31
0.0
  0
LINE
  5
3452
  8
2-0
  6
CONTINUOUS
 62
     3
 10
21481.022987999972
 20
15248.987967999999
 30
0.0
 11
21434.019318999981
 21
15248.987967999999
 31
0.0
  0
LINE
  5
3453
  8
2-0
  6
CONTINUOUS
 62
     3
 10
21434.019318999981
 20
15333.984535999991
 30
0.0
 11
21481.022987999972
 21
15333.984535999991
 31
0.0
  0
LINE
  5
3454
  8
2-0
  6
CONTINUOUS
 62
     3
 10
21434.019318999981
 20
15248.987967999999
 30
0.0
 11
21434.019318999981
 21
15273.983349
 31
0.0
  0
LINE
  5
3455
  8
2-0
  6
CONTINUOUS
 62
     3
 10
21434.019318999981
 20
15308.98321700001
 30
0.0
 11
21434.019318999981
 21
15333.984535999991
 31
0.0
  0
LINE
  5
3456
  8
2-0
  6
CONTINUOUS
 62
     3
 10
21481.022987999972
 20
15333.984535999991
 30
0.0
 11
21481.022987999972
 21
15248.987967999999
 31
0.0
  0
LINE
  5
3457
  8
2-0
  6
CONTINUOUS
 62
     3
 10
24042.51514899997
 20
19595.988364000012
 30
0.0
 11
24042.51514899997
 21
19710.984537000011
 31
0.0
  0
LINE
  5
3458
  8
2-0
  6
CENTER2
 62
     6
 10
20103.062287999968
 20
19668.486251999992
 30
0.0
 11
24892.51646899998
 21
19668.486251999992
 31
0.0
  0
LINE
  5
3459
  8
2-0
  6
CENTER2
 62
     6
 10
20103.062287999968
 20
16750.486251999992
 30
0.0
 11
24892.51646899998
 21
16750.486251999992
 31
0.0
  0
LINE
  5
345A
  8
2-0
  6
CENTER2
 62
     6
 10
20103.062287999968
 20
13481.986252000001
 30
0.0
 11
24892.51646899998
 21
13481.986252000001
 31
0.0
  0
LINE
  5
345B
  8
2-0
  6
CONTINUOUS
 62
     3
 10
21390.020559999972
 20
19625.987968000001
 30
0.0
 11
23961.51324899996
 21
19625.987968000001
 31
0.0
  0
LINE
  5
345C
  8
2-0
  6
CONTINUOUS
 62
     3
 10
21390.020559999972
 20
13918.02398200001
 30
0.0
 11
21390.020559999972
 21
14561.890621
 31
0.0
  0
LINE
  5
345D
  8
2-0
  6
CENTER2
 62
     6
 10
21432.516864999969
 20
20910.984537000018
 30
0.0
 11
21432.516864999969
 21
12856.222818
 31
0.0
  0
LINE
  5
345E
  8
2-0
  6
CENTER2
 62
     6
 10
24000.01686499998
 20
20910.984537000018
 30
0.0
 11
24000.01686499998
 21
12856.222818
 31
0.0
  0
LINE
  5
345F
  8
2-0
  6
CONTINUOUS
 62
     3
 10
24042.51514899997
 20
19585.690908
 30
0.0
 11
24042.51514899997
 21
18939.082377499992
 31
0.0
  0
LINE
  5
3460
  8
2-0
  6
CONTINUOUS
 62
     3
 10
21390.020559999972
 20
19585.690908
 30
0.0
 11
21390.020559999972
 21
18939.082377499981
 31
0.0
  0
LINE
  5
3461
  8
2-0
  6
CONTINUOUS
 62
     3
 10
21402.022380999959
 20
13873.89259400001
 30
0.0
 11
21395.024782999972
 21
13873.89259400001
 31
0.0
  0
LINE
  5
3462
  8
2-0
  6
CONTINUOUS
 62
     3
 10
21395.024782999972
 20
13873.89259400001
 30
0.0
 11
21395.024782999972
 21
13878.886920000001
 31
0.0
  0
LINE
  5
3463
  8
2-0
  6
CONTINUOUS
 62
     3
 10
21395.024782999972
 20
13878.886920000001
 30
0.0
 11
21420.018184999972
 21
13878.886920000001
 31
0.0
  0
LINE
  5
3464
  8
2-0
  6
CONTINUOUS
 62
     3
 10
21420.018184999972
 20
13878.886920000001
 30
0.0
 11
21420.018184999972
 21
13860.89111600001
 31
0.0
  0
LINE
  5
3465
  8
2-0
  6
CONTINUOUS
 62
     3
 10
21420.018184999972
 20
13860.89111600001
 30
0.0
 11
21390.020559999972
 21
13860.89111600001
 31
0.0
  0
LINE
  5
3466
  8
2-0
  6
CONTINUOUS
 62
     3
 10
21420.018184999972
 20
13876.988562
 30
0.0
 11
21420.018184999972
 21
13870.986661000001
 31
0.0
  0
LINE
  5
3467
  8
2-0
  6
CONTINUOUS
 62
     3
 10
21420.018184999972
 20
13870.986661000001
 30
0.0
 11
21390.020559999972
 21
13870.986661000001
 31
0.0
  0
LINE
  5
3468
  8
2-0
  6
CONTINUOUS
 62
     3
 10
21390.020559999972
 20
13870.986661000001
 30
0.0
 11
21390.020559999972
 21
13907.98584299998
 31
0.0
  0
LINE
  5
3469
  8
2-0
  6
CONTINUOUS
 62
     3
 10
21420.018184999972
 20
13907.98584299998
 30
0.0
 11
21390.020559999972
 21
13907.98584299998
 31
0.0
  0
LINE
  5
346A
  8
2-0
  6
CONTINUOUS
 62
     3
 10
21420.018184999972
 20
13901.98988100001
 30
0.0
 11
21420.018184999972
 21
13907.98584299998
 31
0.0
  0
LINE
  5
346B
  8
2-0
  6
CONTINUOUS
 62
     3
 10
21420.018184999972
 20
13918.087326000001
 30
0.0
 11
21390.020559999972
 21
13918.087326000001
 31
0.0
  0
LINE
  5
346C
  8
2-0
  6
CONTINUOUS
 62
     3
 10
21420.018184999972
 20
13900.07964599998
 30
0.0
 11
21420.018184999972
 21
13918.087326000001
 31
0.0
  0
LINE
  5
346D
  8
2-0
  6
CONTINUOUS
 62
     3
 10
21395.024782999972
 20
13900.07964599998
 30
0.0
 11
21420.018184999972
 21
13900.07964599998
 31
0.0
  0
LINE
  5
346E
  8
2-0
  6
CONTINUOUS
 62
     3
 10
21395.024782999972
 20
13905.085848000001
 30
0.0
 11
21395.024782999972
 21
13900.07964599998
 31
0.0
  0
LINE
  5
346F
  8
2-0
  6
CONTINUOUS
 62
     3
 10
21402.022380999959
 20
13905.085848000001
 30
0.0
 11
21395.024782999972
 21
13905.085848000001
 31
0.0
  0
LINE
  5
3470
  8
2-0
  6
CONTINUOUS
 62
     3
 10
21390.020559999972
 20
13564.524259
 30
0.0
 11
21390.020559999972
 21
13860.89111600001
 31
0.0
  0
LINE
  5
3471
  8
2-0
  6
CONTINUOUS
 62
     3
 10
21471.01850099998
 20
13524.484536
 30
0.0
 11
21471.01850099998
 21
19710.984537000011
 31
0.0
  0
LINE
  5
3472
  8
2-0
  6
CONTINUOUS
 62
     3
 10
24030.51332799999
 20
13873.89259400001
 30
0.0
 11
24037.51488499996
 21
13873.89259400001
 31
0.0
  0
LINE
  5
3473
  8
2-0
  6
CONTINUOUS
 62
     3
 10
24037.51488499996
 20
13873.89259400001
 30
0.0
 11
24037.51488499996
 21
13878.886920000001
 31
0.0
  0
LINE
  5
3474
  8
2-0
  6
CONTINUOUS
 62
     3
 10
24037.51488499996
 20
13878.886920000001
 30
0.0
 11
24012.517524999981
 21
13878.886920000001
 31
0.0
  0
LINE
  5
3475
  8
2-0
  6
CONTINUOUS
 62
     3
 10
24012.517524999981
 20
13878.886920000001
 30
0.0
 11
24012.517524999981
 21
13860.89111600001
 31
0.0
  0
LINE
  5
3476
  8
2-0
  6
CONTINUOUS
 62
     3
 10
24012.517524999981
 20
13860.89111600001
 30
0.0
 11
24042.51514899997
 21
13860.89111600001
 31
0.0
  0
LINE
  5
3477
  8
2-0
  6
CONTINUOUS
 62
     3
 10
24012.517524999981
 20
13876.988562
 30
0.0
 11
24012.517524999981
 21
13870.986661000001
 31
0.0
  0
LINE
  5
3478
  8
2-0
  6
CONTINUOUS
 62
     3
 10
24012.517524999981
 20
13870.986661000001
 30
0.0
 11
24042.51514899997
 21
13870.986661000001
 31
0.0
  0
LINE
  5
3479
  8
2-0
  6
CONTINUOUS
 62
     3
 10
24042.51514899997
 20
13870.986661000001
 30
0.0
 11
24042.51514899997
 21
13907.98584299998
 31
0.0
  0
LINE
  5
347A
  8
2-0
  6
CONTINUOUS
 62
     3
 10
24012.517524999981
 20
13907.98584299998
 30
0.0
 11
24042.51514899997
 21
13907.98584299998
 31
0.0
  0
LINE
  5
347B
  8
2-0
  6
CONTINUOUS
 62
     3
 10
24012.517524999981
 20
13901.98988100002
 30
0.0
 11
24012.517524999981
 21
13907.98584299998
 31
0.0
  0
LINE
  5
347C
  8
2-0
  6
CONTINUOUS
 62
     3
 10
24012.517524999981
 20
13918.087326000001
 30
0.0
 11
24042.51514899997
 21
13918.087326000001
 31
0.0
  0
LINE
  5
347D
  8
2-0
  6
CONTINUOUS
 62
     3
 10
24012.517524999981
 20
13900.07964599998
 30
0.0
 11
24012.517524999981
 21
13918.087326000001
 31
0.0
  0
LINE
  5
347E
  8
2-0
  6
CONTINUOUS
 62
     3
 10
24037.51488499996
 20
13900.07964599998
 30
0.0
 11
24012.517524999981
 21
13900.07964599998
 31
0.0
  0
LINE
  5
347F
  8
2-0
  6
CONTINUOUS
 62
     3
 10
24037.51488499996
 20
13905.085848000001
 30
0.0
 11
24037.51488499996
 21
13900.07964599998
 31
0.0
  0
LINE
  5
3480
  8
2-0
  6
CONTINUOUS
 62
     3
 10
24030.51332799999
 20
13905.085848000001
 30
0.0
 11
24037.51488499996
 21
13905.085848000001
 31
0.0
  0
LINE
  5
3481
  8
2-0
  6
CONTINUOUS
 62
     3
 10
24042.51514899997
 20
13564.524259
 30
0.0
 11
24042.51514899997
 21
13860.89111600001
 31
0.0
  0
LINE
  5
3482
  8
2-0
  6
CONTINUOUS
 62
     3
 10
23961.51324899996
 20
13524.484536
 30
0.0
 11
23961.51324899996
 21
19710.984537000011
 31
0.0
  0
CIRCLE
  5
3483
  8
2-0
  6
CONTINUOUS
 62
     4
 10
19903.06459799995
 20
19668.486251999992
 30
0.0
 40
200.00001
  0
CIRCLE
  5
3484
  8
2-0
  6
CONTINUOUS
 62
     4
 10
19903.06459799995
 20
16750.486251999992
 30
0.0
 40
200.00001
  0
CIRCLE
  5
3485
  8
2-0
  6
CONTINUOUS
 62
     4
 10
19903.06459799995
 20
13481.986252000001
 30
0.0
 40
200.00001
  0
CIRCLE
  5
3486
  8
2-0
  6
CONTINUOUS
 62
     4
 10
21432.516864999969
 20
21110.989156000011
 30
0.0
 40
200.00001
  0
TEXT
  5
3487
  8
2-0
  6
CONTINUOUS
 62
     7
 10
22396.862171999979
 20
12921.987374
 30
0.0
 40
160.0
  1
前柱（右）
 50
0.000213
 72
     4
 11
22812.861874593
 21
13001.988920500789
 31
0.0
  0
TEXT
  5
3488
  8
2-0
  6
CONTINUOUS
 62
     7
 10
22601.457294999978
 20
16200.97939000001
 30
0.0
 40
160.0
  1
壁パネル
 50
359.99982299999999
 72
     4
 11
22964.12420880354
 21
16280.978269637881
 31
0.0
  0
TEXT
  5
3489
  8
2-0
  6
CONTINUOUS
 62
     7
 10
22321.454390999981
 20
17038.167286000022
 30
0.0
 40
160.0
  1
中柱（左右）
 50
0.000354
 72
     4
 11
22838.78723004619
 21
17118.170482324669
 31
0.0
  0
TEXT
  5
348A
  8
2-0
  6
CONTINUOUS
 62
     7
 10
23001.456634999951
 20
13895.02863999999
 30
0.0
 40
160.0
  1
下枠
 50
0.001063
 72
     4
 11
23172.12181740925
 21
13975.031806339281
 31
0.0
  0
TEXT
  5
348B
  8
2-0
  6
CONTINUOUS
 62
     7
 10
22496.42205899999
 20
18641.436024499992
 30
0.0
 40
160.0
  1
間柱（側）
 72
     4
 11
22917.755392333322
 21
18721.436024499992
 31
0.0
  0
TEXT
  5
348C
  8
2-0
  6
CONTINUOUS
 62
     7
 10
24815.012377999981
 20
20520.983745000009
 30
0.0
 40
160.0
  1
後柱（左右）
 50
0.000354
 72
     4
 11
25327.011883712959
 21
20600.986908372841
 31
0.0
  0
TEXT
  5
348D
  8
2-0
  6
CONTINUOUS
 62
     7
 10
19855.065230999971
 20
19574.005810000021
 30
0.0
 40
160.0
  1
C
 72
     4
 11
19908.3985643333
 21
19654.005810000021
 31
0.0
  0
TEXT
  5
348E
  8
2-0
  6
CONTINUOUS
 62
     7
 10
19855.285946999971
 20
16680.092170000022
 30
0.0
 40
160.0
  1
B
 72
     4
 11
19908.6192803333
 21
16760.092170000022
 31
0.0
  0
TEXT
  5
348F
  8
2-0
  6
CONTINUOUS
 62
     7
 10
19855.32850699998
 20
13393.379040999989
 30
0.0
 40
160.0
  1
A
 72
     4
 11
19908.661840333309
 21
13473.379040999989
 31
0.0
  0
TEXT
  5
3490
  8
2-0
  6
CONTINUOUS
 62
     7
 10
21388.310255999972
 20
21022.221604000009
 30
0.0
 40
160.0
  1
1
 72
     4
 11
21414.976922666639
 21
21102.221604000009
 31
0.0
  0
LINE
  5
3491
  8
2-0
  6
CONTINUOUS
 62
     3
 10
23260.517445999962
 20
19710.984537000011
 30
0.0
 11
23223.516283999968
 21
19710.984537000011
 31
0.0
  0
LINE
  5
3492
  8
2-0
  6
CONTINUOUS
 62
     3
 10
23260.517445999962
 20
19680.980973999998
 30
0.0
 11
23260.517445999962
 21
19710.984537000011
 31
0.0
  0
LINE
  5
3493
  8
2-0
  6
CONTINUOUS
 62
     3
 10
23254.517524999959
 20
19680.980973999998
 30
0.0
 11
23260.517445999962
 21
19680.980973999998
 31
0.0
  0
LINE
  5
3494
  8
2-0
  6
CONTINUOUS
 62
     3
 10
23270.614969999981
 20
19680.980973999998
 30
0.0
 11
23270.614969999981
 21
19710.984537000011
 31
0.0
  0
LINE
  5
3495
  8
2-0
  6
CONTINUOUS
 62
     3
 10
23252.61124899998
 20
19680.980973999998
 30
0.0
 11
23270.614969999981
 21
19680.980973999998
 31
0.0
  0
LINE
  5
3496
  8
2-0
  6
CONTINUOUS
 62
     3
 10
23252.61124899998
 20
19705.990211000011
 30
0.0
 11
23252.61124899998
 21
19680.980973999998
 31
0.0
  0
LINE
  5
3497
  8
2-0
  6
CONTINUOUS
 62
     3
 10
23257.611512999989
 20
19705.990211000011
 30
0.0
 11
23252.61124899998
 21
19705.990211000011
 31
0.0
  0
LINE
  5
3498
  8
2-0
  6
CONTINUOUS
 62
     3
 10
23257.611512999989
 20
19698.984695000021
 30
0.0
 11
23257.611512999989
 21
19705.990211000011
 31
0.0
  0
LINE
  5
3499
  8
2-0
  6
CONTINUOUS
 62
     3
 10
23226.42221799996
 20
19698.984695000021
 30
0.0
 11
23226.42221799996
 21
19705.990211000011
 31
0.0
  0
LINE
  5
349A
  8
2-0
  6
CONTINUOUS
 62
     3
 10
23226.42221799996
 20
19705.990211000011
 30
0.0
 11
23231.42248199998
 21
19705.990211000011
 31
0.0
  0
LINE
  5
349B
  8
2-0
  6
CONTINUOUS
 62
     3
 10
23231.42248199998
 20
19705.990211000011
 30
0.0
 11
23231.42248199998
 21
19680.980973999998
 31
0.0
  0
LINE
  5
349C
  8
2-0
  6
CONTINUOUS
 62
     3
 10
23231.42248199998
 20
19680.980973999998
 30
0.0
 11
23213.42271899998
 21
19680.980973999998
 31
0.0
  0
LINE
  5
349D
  8
2-0
  6
CONTINUOUS
 62
     3
 10
23213.42271899998
 20
19680.980973999998
 30
0.0
 11
23213.42271899998
 21
19710.984537000011
 31
0.0
  0
LINE
  5
349E
  8
2-0
  6
CONTINUOUS
 62
     3
 10
23229.516204999989
 20
19680.980973999998
 30
0.0
 11
23223.516283999968
 21
19680.980973999998
 31
0.0
  0
LINE
  5
349F
  8
2-0
  6
CONTINUOUS
 62
     3
 10
23223.516283999968
 20
19680.980973999998
 30
0.0
 11
23223.516283999968
 21
19710.984537000011
 31
0.0
  0
LINE
  5
34A0
  8
2-0
  6
CONTINUOUS
 62
     3
 10
22525.416279499961
 20
19698.984695000021
 30
0.0
 11
22525.416279499961
 21
19705.990211000011
 31
0.0
  0
LINE
  5
34A1
  8
2-0
  6
CONTINUOUS
 62
     3
 10
22525.416279499961
 20
19705.990211000011
 30
0.0
 11
22530.416542499981
 21
19705.990211000011
 31
0.0
  0
LINE
  5
34A2
  8
2-0
  6
CONTINUOUS
 62
     3
 10
22530.416542499981
 20
19705.990211000011
 30
0.0
 11
22530.416542499981
 21
19680.980973999998
 31
0.0
  0
LINE
  5
34A3
  8
2-0
  6
CONTINUOUS
 62
     3
 10
22530.416542499981
 20
19680.980973999998
 30
0.0
 11
22512.422719499958
 21
19680.980973999998
 31
0.0
  0
LINE
  5
34A4
  8
2-0
  6
CONTINUOUS
 62
     3
 10
22512.422719499958
 20
19680.980973999998
 30
0.0
 11
22512.422719499958
 21
19710.984537000011
 31
0.0
  0
LINE
  5
34A5
  8
2-0
  6
CONTINUOUS
 62
     3
 10
22528.514225499959
 20
19680.980973999998
 30
0.0
 11
22522.516284499961
 21
19680.980973999998
 31
0.0
  0
LINE
  5
34A6
  8
2-0
  6
CONTINUOUS
 62
     3
 10
22522.516284499961
 20
19680.980973999998
 30
0.0
 11
22522.516284499961
 21
19710.984537000011
 31
0.0
  0
LINE
  5
34A7
  8
2-0
  6
CONTINUOUS
 62
     3
 10
22559.51744549998
 20
19710.984537000011
 30
0.0
 11
22522.516284499961
 21
19710.984537000011
 31
0.0
  0
LINE
  5
34A8
  8
2-0
  6
CONTINUOUS
 62
     3
 10
22559.51744549998
 20
19680.980973999998
 30
0.0
 11
22559.51744549998
 21
19710.984537000011
 31
0.0
  0
LINE
  5
34A9
  8
2-0
  6
CONTINUOUS
 62
     3
 10
22553.51158649999
 20
19680.980973999998
 30
0.0
 11
22559.51744549998
 21
19680.980973999998
 31
0.0
  0
LINE
  5
34AA
  8
2-0
  6
CONTINUOUS
 62
     3
 10
22569.611010499972
 20
19680.980973999998
 30
0.0
 11
22569.611010499972
 21
19710.984537000011
 31
0.0
  0
LINE
  5
34AB
  8
2-0
  6
CONTINUOUS
 62
     3
 10
22551.61520749997
 20
19680.980973999998
 30
0.0
 11
22569.611010499972
 21
19680.980973999998
 31
0.0
  0
LINE
  5
34AC
  8
2-0
  6
CONTINUOUS
 62
     3
 10
22551.61520749997
 20
19705.990211000011
 30
0.0
 11
22551.61520749997
 21
19680.980973999998
 31
0.0
  0
LINE
  5
34AD
  8
2-0
  6
CONTINUOUS
 62
     3
 10
22556.605573499961
 20
19705.990211000011
 30
0.0
 11
22551.61520749997
 21
19705.990211000011
 31
0.0
  0
LINE
  5
34AE
  8
2-0
  6
CONTINUOUS
 62
     3
 10
22556.605573499961
 20
19698.984695000021
 30
0.0
 11
22556.605573499961
 21
19705.990211000011
 31
0.0
  0
LINE
  5
34AF
  8
2-0
  6
CONTINUOUS
 62
     3
 10
21868.61002099999
 20
19710.984537000011
 30
0.0
 11
22512.422719499958
 21
19710.984537000011
 31
0.0
  0
LINE
  5
34B0
  8
2-0
  6
CONTINUOUS
 62
     3
 10
23917.90049499998
 20
19710.984537000011
 30
0.0
 11
23270.614969999981
 21
19710.984537000011
 31
0.0
  0
LINE
  5
34B1
  8
2-0
  6
CONTINUOUS
 62
     3
 10
23213.42271899998
 20
19710.984537000011
 30
0.0
 11
22569.611010499972
 21
19710.984537000011
 31
0.0
  0
LINE
  5
34B2
  8
2-0
  6
CONTINUOUS
 62
     3
 10
21855.60854299998
 20
19698.984695000021
 30
0.0
 11
21855.60854299998
 21
19705.990211000011
 31
0.0
  0
LINE
  5
34B3
  8
2-0
  6
CONTINUOUS
 62
     3
 10
21855.60854299998
 20
19705.990211000011
 30
0.0
 11
21850.608278999971
 21
19705.990211000011
 31
0.0
  0
LINE
  5
34B4
  8
2-0
  6
CONTINUOUS
 62
     3
 10
21850.608278999971
 20
19705.990211000011
 30
0.0
 11
21850.608278999971
 21
19680.980973999998
 31
0.0
  0
LINE
  5
34B5
  8
2-0
  6
CONTINUOUS
 62
     3
 10
21850.608278999971
 20
19680.980973999998
 30
0.0
 11
21868.61002099999
 21
19680.980973999998
 31
0.0
  0
LINE
  5
34B6
  8
2-0
  6
CONTINUOUS
 62
     3
 10
21868.61002099999
 20
19680.980973999998
 30
0.0
 11
21868.61002099999
 21
19710.984537000011
 31
0.0
  0
LINE
  5
34B7
  8
2-0
  6
CONTINUOUS
 62
     3
 10
21852.510595999989
 20
19680.980973999998
 30
0.0
 11
21858.514475999971
 21
19680.980973999998
 31
0.0
  0
LINE
  5
34B8
  8
2-0
  6
CONTINUOUS
 62
     3
 10
21858.514475999971
 20
19680.980973999998
 30
0.0
 11
21858.514475999971
 21
19710.984537000011
 31
0.0
  0
LINE
  5
34B9
  8
2-0
  6
CONTINUOUS
 62
     3
 10
21821.51925399997
 20
19710.984537000011
 30
0.0
 11
21858.514475999971
 21
19710.984537000011
 31
0.0
  0
LINE
  5
34BA
  8
2-0
  6
CONTINUOUS
 62
     3
 10
21821.51925399997
 20
19680.980973999998
 30
0.0
 11
21821.51925399997
 21
19710.984537000011
 31
0.0
  0
LINE
  5
34BB
  8
2-0
  6
CONTINUOUS
 62
     3
 10
21827.513235999981
 20
19680.980973999998
 30
0.0
 11
21821.51925399997
 21
19680.980973999998
 31
0.0
  0
LINE
  5
34BC
  8
2-0
  6
CONTINUOUS
 62
     3
 10
21811.423708999981
 20
19680.980973999998
 30
0.0
 11
21811.423708999981
 21
19710.984537000011
 31
0.0
  0
LINE
  5
34BD
  8
2-0
  6
CONTINUOUS
 62
     3
 10
21829.419511999989
 20
19680.980973999998
 30
0.0
 11
21811.423708999981
 21
19680.980973999998
 31
0.0
  0
LINE
  5
34BE
  8
2-0
  6
CONTINUOUS
 62
     3
 10
21829.419511999989
 20
19705.990211000011
 30
0.0
 11
21829.419511999989
 21
19680.980973999998
 31
0.0
  0
LINE
  5
34BF
  8
2-0
  6
CONTINUOUS
 62
     3
 10
21824.421227999988
 20
19705.990211000011
 30
0.0
 11
21829.419511999989
 21
19705.990211000011
 31
0.0
  0
LINE
  5
34C0
  8
2-0
  6
CONTINUOUS
 62
     3
 10
21824.421227999988
 20
19698.984695000021
 30
0.0
 11
21824.421227999988
 21
19705.990211000011
 31
0.0
  0
LINE
  5
34C1
  8
2-0
  6
CONTINUOUS
 62
     3
 10
21515.322106999971
 20
19710.984537000011
 30
0.0
 11
21811.423708999981
 21
19710.984537000011
 31
0.0
  0
LINE
  5
34C2
  8
2-0
  6
CONTINUOUS
 62
     3
 10
24042.51514899997
 20
15263.12568899999
 30
0.0
 11
24042.51514899997
 21
14619.086831000001
 31
0.0
  0
LINE
  5
34C3
  8
2-0
  6
CONTINUOUS
 62
     3
 10
24042.51514899997
 20
14561.890621
 30
0.0
 11
24042.51514899997
 21
13918.087326000001
 31
0.0
  0
CIRCLE
  5
34C4
  8
2-0
  6
CONTINUOUS
 62
     4
 10
24000.01686499998
 20
21110.989156000011
 30
0.0
 40
200.00001
  0
TEXT
  5
34C5
  8
2-0
  6
CONTINUOUS
 62
     7
 10
23948.38508199999
 20
21015.463527000022
 30
0.0
 40
160.0
  1
2
 72
     4
 11
24001.718415333318
 21
21095.463527000022
 31
0.0
  0
LINE
  5
34C6
  8
0-1
  6
CONTINUOUS
 62
     3
 10
10492.267393
 20
6291.1885389999989
 30
0.0
 11
10492.267393
 21
8152.234418
 31
0.0
  0
LINE
  5
34C7
  8
0-1
  6
CONTINUOUS
 62
     3
 10
10512.26844899999
 20
6291.1885389999989
 30
0.0
 11
10512.26844899999
 21
8152.234418
 31
0.0
  0
LINE
  5
34C8
  8
0-1
  6
CONTINUOUS
 62
     3
 10
10442.267723000001
 20
6291.1885389999989
 30
0.0
 11
10442.267723000001
 21
8152.234418
 31
0.0
  0
LINE
  5
34C9
  8
0-1
  6
CONTINUOUS
 62
     3
 10
10562.267129
 20
6291.1885389999989
 30
0.0
 11
10562.267129
 21
8152.234418
 31
0.0
  0
LINE
  5
34CA
  8
0-1
  6
CONTINUOUS
 62
     3
 10
10695.268012999981
 20
6291.1885389999989
 30
0.0
 11
10695.268012999981
 21
8152.234418
 31
0.0
  0
LINE
  5
34CB
  8
0-1
  6
CONTINUOUS
 62
     3
 10
10710.267814999999
 20
6291.1885389999989
 30
0.0
 11
10710.267814999999
 21
8152.234418
 31
0.0
  0
LINE
  5
34CC
  8
0-1
  6
CONTINUOUS
 62
     3
 10
10309.267828000009
 20
6291.1885389999989
 30
0.0
 11
10309.267828000009
 21
8152.234418
 31
0.0
  0
LINE
  5
34CD
  8
0-1
  6
CONTINUOUS
 62
     3
 10
10294.268026000011
 20
6291.1885389999989
 30
0.0
 11
10294.268026000011
 21
8152.234418
 31
0.0
  0
LINE
  5
34CE
  8
0-1
  6
CONTINUOUS
 62
     3
 10
11570.767512
 20
8152.234418
 30
0.0
 11
11570.767512
 21
6291.1885389999989
 31
0.0
  0
LINE
  5
34CF
  8
0-1
  6
CONTINUOUS
 62
     3
 10
11533.769319999999
 20
8152.234418
 30
0.0
 11
11533.769319999999
 21
6291.1885389999989
 31
0.0
  0
LINE
  5
34D0
  8
0-1
  6
CONTINUOUS
 62
     3
 10
10870.768171
 20
8152.234418
 30
0.0
 11
10870.768171
 21
6291.1885389999989
 31
0.0
  0
LINE
  5
34D1
  8
0-1
  6
CONTINUOUS
 62
     3
 10
10833.76799999998
 20
8152.234418
 30
0.0
 11
10833.76799999998
 21
6291.1885389999989
 31
0.0
  0
LINE
  5
34D2
  8
0-1
  6
CONTINUOUS
 62
     3
 10
12270.76685199999
 20
8152.234418
 30
0.0
 11
12270.76685199999
 21
6291.1885389999989
 31
0.0
  0
LINE
  5
34D3
  8
0-1
  6
CONTINUOUS
 62
     3
 10
12233.768659999991
 20
8152.234418
 30
0.0
 11
12233.768659999991
 21
6291.1885389999989
 31
0.0
  0
LINE
  5
34D4
  8
0-1
  6
CONTINUOUS
 62
     3
 10
11892.26706299999
 20
6291.1885389999989
 30
0.0
 11
11892.26706299999
 21
8152.234418
 31
0.0
  0
LINE
  5
34D5
  8
0-1
  6
CONTINUOUS
 62
     3
 10
11912.268119
 20
6291.1885389999989
 30
0.0
 11
11912.268119
 21
8152.234418
 31
0.0
  0
LINE
  5
34D6
  8
0-1
  6
CONTINUOUS
 62
     3
 10
11842.268383000001
 20
6291.1885389999989
 30
0.0
 11
11842.268383000001
 21
8152.234418
 31
0.0
  0
LINE
  5
34D7
  8
0-1
  6
CONTINUOUS
 62
     3
 10
11962.26778900001
 20
6291.1885389999989
 30
0.0
 11
11962.26778900001
 21
8152.234418
 31
0.0
  0
LINE
  5
34D8
  8
0-1
  6
CONTINUOUS
 62
     3
 10
12095.26768299998
 20
6291.1885389999989
 30
0.0
 11
12095.26768299998
 21
8152.234418
 31
0.0
  0
LINE
  5
34D9
  8
0-1
  6
CONTINUOUS
 62
     3
 10
12110.267485
 20
6291.1885389999989
 30
0.0
 11
12110.267485
 21
8152.234418
 31
0.0
  0
LINE
  5
34DA
  8
0-1
  6
CONTINUOUS
 62
     3
 10
11709.26749799999
 20
6291.1885389999989
 30
0.0
 11
11709.26749799999
 21
8152.234418
 31
0.0
  0
LINE
  5
34DB
  8
0-1
  6
CONTINUOUS
 62
     3
 10
11694.268685999999
 20
6291.1885389999989
 30
0.0
 11
11694.268685999999
 21
8152.234418
 31
0.0
  0
LINE
  5
34DC
  8
0-1
  6
CONTINUOUS
 62
     3
 10
10994.267366
 20
6291.1885389999989
 30
0.0
 11
10994.267366
 21
8152.234418
 31
0.0
  0
LINE
  5
34DD
  8
0-1
  6
CONTINUOUS
 62
     3
 10
11009.268157999981
 20
6291.1885389999989
 30
0.0
 11
11009.268157999981
 21
8152.234418
 31
0.0
  0
LINE
  5
34DE
  8
0-1
  6
CONTINUOUS
 62
     3
 10
11410.268144999991
 20
6291.1885389999989
 30
0.0
 11
11410.268144999991
 21
8152.234418
 31
0.0
  0
LINE
  5
34DF
  8
0-1
  6
CONTINUOUS
 62
     3
 10
11395.267352999999
 20
6291.1885389999989
 30
0.0
 11
11395.267352999999
 21
8152.234418
 31
0.0
  0
LINE
  5
34E0
  8
0-1
  6
CONTINUOUS
 62
     3
 10
11262.26844899999
 20
6291.1885389999989
 30
0.0
 11
11262.26844899999
 21
8152.234418
 31
0.0
  0
LINE
  5
34E1
  8
0-1
  6
CONTINUOUS
 62
     3
 10
11142.26706299999
 20
6291.1885389999989
 30
0.0
 11
11142.26706299999
 21
8152.234418
 31
0.0
  0
LINE
  5
34E2
  8
0-1
  6
CONTINUOUS
 62
     3
 10
11212.269768
 20
6291.1885389999989
 30
0.0
 11
11212.269768
 21
8152.234418
 31
0.0
  0
LINE
  5
34E3
  8
0-1
  6
CONTINUOUS
 62
     3
 10
11192.26871300001
 20
6291.1885389999989
 30
0.0
 11
11192.26871300001
 21
8152.234418
 31
0.0
  0
LINE
  5
34E4
  8
0-1
  6
CONTINUOUS
 62
     3
 10
12394.267036999991
 20
6291.1885389999989
 30
0.0
 11
12394.267036999991
 21
8152.234418
 31
0.0
  0
LINE
  5
34E5
  8
0-1
  6
CONTINUOUS
 62
     3
 10
12409.267828
 20
6291.1885389999989
 30
0.0
 11
12409.267828
 21
8152.234418
 31
0.0
  0
LINE
  5
34E6
  8
0-1
  6
CONTINUOUS
 62
     3
 10
12542.26871300001
 20
6291.1885389999989
 30
0.0
 11
12542.26871300001
 21
8152.234418
 31
0.0
  0
LINE
  5
34E7
  8
0-1
  6
CONTINUOUS
 62
     3
 10
12810.267814999999
 20
6291.1885389999989
 30
0.0
 11
12810.267814999999
 21
8152.234418
 31
0.0
  0
LINE
  5
34E8
  8
0-1
  6
CONTINUOUS
 62
     3
 10
12795.269002999999
 20
6291.1885389999989
 30
0.0
 11
12795.269002999999
 21
8152.234418
 31
0.0
  0
LINE
  5
34E9
  8
0-1
  6
CONTINUOUS
 62
     3
 10
12662.26811899998
 20
6291.1885389999989
 30
0.0
 11
12662.26811899998
 21
8152.234418
 31
0.0
  0
LINE
  5
34EA
  8
0-1
  6
CONTINUOUS
 62
     3
 10
12612.26844899999
 20
6291.1885389999989
 30
0.0
 11
12612.26844899999
 21
8152.234418
 31
0.0
  0
LINE
  5
34EB
  8
0-1
  6
CONTINUOUS
 62
     3
 10
12592.269372000001
 20
6291.1885389999989
 30
0.0
 11
12592.269372000001
 21
8152.234418
 31
0.0
  0
LINE
  5
34EC
  8
0-1
  6
CONTINUOUS
 62
     3
 10
13420.268343
 20
6291.1885389999989
 30
0.0
 11
13420.268343
 21
8152.234418
 31
0.0
  0
LINE
  5
34ED
  8
0-1
  6
CONTINUOUS
 62
     3
 10
13400.269267
 20
6291.1885389999989
 30
0.0
 11
13400.269267
 21
8152.234418
 31
0.0
  0
LINE
  5
34EE
  8
0-1
  6
CONTINUOUS
 62
     3
 10
13470.26900299999
 20
6291.1885389999989
 30
0.0
 11
13470.26900299999
 21
8152.234418
 31
0.0
  0
LINE
  5
34EF
  8
0-1
  6
CONTINUOUS
 62
     3
 10
13350.268607000011
 20
6291.1885389999989
 30
0.0
 11
13350.268607000011
 21
8152.234418
 31
0.0
  0
LINE
  5
34F0
  8
0-1
  6
CONTINUOUS
 62
     3
 10
13217.268712999999
 20
6291.1885389999989
 30
0.0
 11
13217.268712999999
 21
8152.234418
 31
0.0
  0
LINE
  5
34F1
  8
0-1
  6
CONTINUOUS
 62
     3
 10
13202.26693099998
 20
6291.1885389999989
 30
0.0
 11
13202.26693099998
 21
8152.234418
 31
0.0
  0
LINE
  5
34F2
  8
0-1
  6
CONTINUOUS
 62
     3
 10
13603.268897
 20
6291.1885389999989
 30
0.0
 11
13603.268897
 21
8152.234418
 31
0.0
  0
LINE
  5
34F3
  8
0-1
  6
CONTINUOUS
 62
     3
 10
13618.26771
 20
6291.1885389999989
 30
0.0
 11
13618.26771
 21
8152.234418
 31
0.0
  0
LINE
  5
34F4
  8
0-1
  6
CONTINUOUS
 62
     3
 10
15718.26771
 20
6291.1885389999989
 30
0.0
 11
15718.26771
 21
8152.234418
 31
0.0
  0
LINE
  5
34F5
  8
0-1
  6
CONTINUOUS
 62
     3
 10
15703.268897000011
 20
6291.1885389999989
 30
0.0
 11
15703.268897000011
 21
8152.234418
 31
0.0
  0
LINE
  5
34F6
  8
0-1
  6
CONTINUOUS
 62
     3
 10
15302.267920999981
 20
6291.1885389999989
 30
0.0
 11
15302.267920999981
 21
8152.234418
 31
0.0
  0
LINE
  5
34F7
  8
0-1
  6
CONTINUOUS
 62
     3
 10
15317.267723000001
 20
6291.1885389999989
 30
0.0
 11
15317.267723000001
 21
8152.234418
 31
0.0
  0
LINE
  5
34F8
  8
0-1
  6
CONTINUOUS
 62
     3
 10
15450.268607000011
 20
6291.1885389999989
 30
0.0
 11
15450.268607000011
 21
8152.234418
 31
0.0
  0
LINE
  5
34F9
  8
0-1
  6
CONTINUOUS
 62
     3
 10
15570.26801300001
 20
6291.1885389999989
 30
0.0
 11
15570.26801300001
 21
8152.234418
 31
0.0
  0
LINE
  5
34FA
  8
0-1
  6
CONTINUOUS
 62
     3
 10
15500.269267000011
 20
6291.1885389999989
 30
0.0
 11
15500.269267000011
 21
8152.234418
 31
0.0
  0
LINE
  5
34FB
  8
0-1
  6
CONTINUOUS
 62
     3
 10
15520.268343000011
 20
6291.1885389999989
 30
0.0
 11
15520.268343000011
 21
8152.234418
 31
0.0
  0
LINE
  5
34FC
  8
0-1
  6
CONTINUOUS
 62
     3
 10
14820.26900299999
 20
6291.1885389999989
 30
0.0
 11
14820.26900299999
 21
8152.234418
 31
0.0
  0
LINE
  5
34FD
  8
0-1
  6
CONTINUOUS
 62
     3
 10
14800.267947
 20
6291.1885389999989
 30
0.0
 11
14800.267947
 21
8152.234418
 31
0.0
  0
LINE
  5
34FE
  8
0-1
  6
CONTINUOUS
 62
     3
 10
14870.267683
 20
6291.1885389999989
 30
0.0
 11
14870.267683
 21
8152.234418
 31
0.0
  0
LINE
  5
34FF
  8
0-1
  6
CONTINUOUS
 62
     3
 10
14750.269266999991
 20
6291.1885389999989
 30
0.0
 11
14750.269266999991
 21
8152.234418
 31
0.0
  0
LINE
  5
3500
  8
0-1
  6
CONTINUOUS
 62
     3
 10
14617.268383000001
 20
6291.1885389999989
 30
0.0
 11
14617.268383000001
 21
8152.234418
 31
0.0
  0
LINE
  5
3501
  8
0-1
  6
CONTINUOUS
 62
     3
 10
14602.26858099998
 20
6291.1885389999989
 30
0.0
 11
14602.26858099998
 21
8152.234418
 31
0.0
  0
LINE
  5
3502
  8
0-1
  6
CONTINUOUS
 62
     3
 10
15003.26658800001
 20
6291.1885389999989
 30
0.0
 11
15003.26658800001
 21
8152.234418
 31
0.0
  0
LINE
  5
3503
  8
0-1
  6
CONTINUOUS
 62
     3
 10
15018.26836900001
 20
6291.1885389999989
 30
0.0
 11
15018.26836900001
 21
8152.234418
 31
0.0
  0
LINE
  5
3504
  8
0-1
  6
CONTINUOUS
 62
     3
 10
14318.26902900001
 20
6291.1885389999989
 30
0.0
 11
14318.26902900001
 21
8152.234418
 31
0.0
  0
LINE
  5
3505
  8
0-1
  6
CONTINUOUS
 62
     3
 10
14303.267248
 20
6291.1885389999989
 30
0.0
 11
14303.267248
 21
8152.234418
 31
0.0
  0
LINE
  5
3506
  8
0-1
  6
CONTINUOUS
 62
     3
 10
13902.26924
 20
6291.1885389999989
 30
0.0
 11
13902.26924
 21
8152.234418
 31
0.0
  0
LINE
  5
3507
  8
0-1
  6
CONTINUOUS
 62
     3
 10
13917.268053
 20
6291.1885389999989
 30
0.0
 11
13917.268053
 21
8152.234418
 31
0.0
  0
LINE
  5
3508
  8
0-1
  6
CONTINUOUS
 62
     3
 10
14050.266957000011
 20
6291.1885389999989
 30
0.0
 11
14050.266957000011
 21
8152.234418
 31
0.0
  0
LINE
  5
3509
  8
0-1
  6
CONTINUOUS
 62
     3
 10
14170.268343
 20
6291.1885389999989
 30
0.0
 11
14170.268343
 21
8152.234418
 31
0.0
  0
LINE
  5
350A
  8
0-1
  6
CONTINUOUS
 62
     3
 10
14100.268606999991
 20
6291.1885389999989
 30
0.0
 11
14100.268606999991
 21
8152.234418
 31
0.0
  0
LINE
  5
350B
  8
0-1
  6
CONTINUOUS
 62
     3
 10
14120.267683
 20
6291.1885389999989
 30
0.0
 11
14120.267683
 21
8152.234418
 31
0.0
  0
LINE
  5
350C
  8
0-1
  6
CONTINUOUS
 62
     3
 10
13778.76905600001
 20
8152.234418
 30
0.0
 11
13778.76905600001
 21
6291.1885389999989
 31
0.0
  0
LINE
  5
350D
  8
0-1
  6
CONTINUOUS
 62
     3
 10
13741.767894000001
 20
8152.234418
 30
0.0
 11
13741.767894000001
 21
6291.1885389999989
 31
0.0
  0
LINE
  5
350E
  8
0-1
  6
CONTINUOUS
 62
     3
 10
15178.766745999999
 20
8152.234418
 30
0.0
 11
15178.766745999999
 21
6291.1885389999989
 31
0.0
  0
LINE
  5
350F
  8
0-1
  6
CONTINUOUS
 62
     3
 10
15141.767563999991
 20
8152.234418
 30
0.0
 11
15141.767563999991
 21
6291.1885389999989
 31
0.0
  0
LINE
  5
3510
  8
0-1
  6
CONTINUOUS
 62
     3
 10
14478.76839599999
 20
8152.234418
 30
0.0
 11
14478.76839599999
 21
6291.1885389999989
 31
0.0
  0
LINE
  5
3511
  8
0-1
  6
CONTINUOUS
 62
     3
 10
14441.768223999999
 20
8152.234418
 30
0.0
 11
14441.768223999999
 21
6291.1885389999989
 31
0.0
  0
LINE
  5
3512
  8
0-1
  6
CONTINUOUS
 62
     3
 10
15878.76905599999
 20
8152.234418
 30
0.0
 11
15878.76905599999
 21
6291.1885389999989
 31
0.0
  0
LINE
  5
3513
  8
0-1
  6
CONTINUOUS
 62
     3
 10
15841.767894000001
 20
8152.234418
 30
0.0
 11
15841.767894000001
 21
6291.1885389999989
 31
0.0
  0
LINE
  5
3514
  8
0-1
  6
CONTINUOUS
 62
     3
 10
16329.767868000001
 20
6241.1883740000003
 30
0.0
 11
16329.767868000001
 21
6141.1885389999979
 31
0.0
  0
LINE
  5
3515
  8
0-1
  6
CONTINUOUS
 62
     3
 10
16297.267077
 20
8455.5174490000027
 30
0.0
 11
16297.267077
 21
6241.1883740000012
 31
0.0
  0
LINE
  5
3516
  8
0-1
  6
CONTINUOUS
 62
     3
 10
16317.267868000001
 20
8456.0984380000027
 30
0.0
 11
16317.267868000001
 21
6241.1883740000012
 31
0.0
  0
LINE
  5
3517
  8
0-1
  6
CONTINUOUS
 62
     3
 10
16202.26799999998
 20
8152.234418
 30
0.0
 11
16202.26799999998
 21
6241.1883740000012
 31
0.0
  0
LINE
  5
3518
  8
0-1
  6
CONTINUOUS
 62
     3
 10
13006.267868000001
 20
8356.9898809999977
 30
0.0
 11
13006.267868000001
 21
8152.234418
 31
0.0
  0
LINE
  5
3519
  8
0-1
  6
CONTINUOUS
 62
     3
 10
12933.768
 20
8152.234418
 30
0.0
 11
12933.768
 21
6241.1883740000012
 31
0.0
  0
LINE
  5
351A
  8
0-1
  6
CONTINUOUS
 62
     3
 10
13078.76674599999
 20
8152.234418
 30
0.0
 11
13078.76674599999
 21
6241.1883740000012
 31
0.0
  0
LINE
  5
351B
  8
0-1
  6
CONTINUOUS
 62
     3
 10
13078.76674599999
 20
6291.1885389999989
 30
0.0
 11
16202.26799999998
 21
6291.1885389999989
 31
0.0
  0
LINE
  5
351C
  8
0-1
  6
CONTINUOUS
 62
     3
 10
10038.267868000001
 20
6141.1885389999979
 30
0.0
 11
10038.267868000001
 21
6241.1883740000003
 31
0.0
  0
LINE
  5
351D
  8
0-1
  6
CONTINUOUS
 62
     3
 10
10065.76766999999
 20
8268.9908770000002
 30
0.0
 11
10065.76766999999
 21
6241.1883740000012
 31
0.0
  0
LINE
  5
351E
  8
0-1
  6
CONTINUOUS
 62
     3
 10
10045.767868000001
 20
8268.3741496838065
 30
0.0
 11
10045.767868000001
 21
6241.1883740000012
 31
0.0
  0
LINE
  5
351F
  8
0-1
  6
CONTINUOUS
 62
     3
 10
10160.766747
 20
8152.234418
 30
0.0
 11
10160.766747
 21
6241.1883740000012
 31
0.0
  0
LINE
  5
3520
  8
0-1
  6
CONTINUOUS
 62
     3
 10
10038.267868000001
 20
6241.1883740000003
 30
0.0
 11
16329.767868000001
 21
6241.1883740000003
 31
0.0
  0
LINE
  5
3521
  8
0-1
  6
CONTINUOUS
 62
     3
 10
10160.766747
 20
6291.1885389999989
 30
0.0
 11
12933.768
 21
6291.1885389999989
 31
0.0
  0
LINE
  5
3522
  8
0-1
  6
CONTINUOUS
 62
     3
 10
9355.7668129999984
 20
6141.1885389999979
 30
0.0
 11
16329.767868000001
 21
6141.1885389999979
 31
0.0
  0
LINE
  5
3523
  8
0-1
  6
CONTINUOUS
 62
     3
 10
10065.76766999999
 20
8152.234418
 30
0.0
 11
16297.267077
 21
8152.234418
 31
0.0
  0
LINE
  5
3524
  8
0-1
  6
CONTINUOUS
 62
     3
 10
9871.4660440000007
 20
8303.1736990000027
 30
0.0
 11
16402.957533000001
 21
8498.6897600000029
 31
0.0
  0
LINE
  5
3525
  8
0-1
  6
CONTINUOUS
 62
     3
 10
16401.457058
 20
8548.6686450000016
 30
0.0
 11
9869.9665589999986
 21
8353.1515949999957
 31
0.0
  0
LINE
  5
3526
  8
0-1
  6
CONTINUOUS
 62
     3
 10
9866.8765310000035
 20
8356.0604969999968
 30
0.0
 11
9865.9164640000017
 21
8388.0460529999982
 31
0.0
  0
LINE
  5
3527
  8
0-1
  6
CONTINUOUS
 62
     3
 10
9870.7652949999992
 20
8393.1932959999976
 30
0.0
 11
16421.22651
 21
8589.2804479999977
 31
0.0
  0
LINE
  5
3528
  8
0-1
  6
CONTINUOUS
 62
     3
 10
16425.131109999991
 20
8459.3389099999968
 30
0.0
 11
9874.6659359999994
 21
8263.2522529999969
 31
0.0
  0
LINE
  5
3529
  8
0-1
  6
CONTINUOUS
 62
     3
 10
9869.5181980000016
 20
8268.099599000001
 30
0.0
 11
9868.5591210000039
 21
8300.0856499999973
 31
0.0
  0
LINE
  5
352A
  8
0-1
  6
CONTINUOUS
 62
     3
 10
9868.2275520000003
 20
8311.0803909999977
 30
0.0
 11
9867.2071099999994
 21
8345.0647660000031
 31
0.0
  0
LINE
  5
352B
  8
0-1
  6
CONTINUOUS
 62
     3
 10
9870.1160130000044
 20
8348.1538049999981
 30
0.0
 11
16401.608490999992
 21
8543.6713500000023
 31
0.0
  0
LINE
  5
352C
  8
0-1
  6
CONTINUOUS
 62
     3
 10
16402.808078999991
 20
8503.6880439999986
 30
0.0
 11
9871.3175809999993
 21
8308.1719840000005
 31
0.0
  0
LINE
  5
352D
  8
0-1
  6
CONTINUOUS
 62
     3
 10
13006.267868000001
 20
8356.9898809999977
 30
0.0
 11
13002.365247
 21
8486.9314190000005
 31
0.0
  0
LINE
  5
352E
  8
0-1
  6
CONTINUOUS
 62
     3
 10
16392.164207999991
 20
8458.3481609999981
 30
0.0
 11
16388.262577000001
 21
8588.2896989999972
 31
0.0
  0
LINE
  5
352F
  8
0-1
  6
CONTINUOUS
 62
     3
 10
9883.2580369999996
 20
8393.5684149999979
 30
0.0
 11
9887.1606580000007
 21
8263.6273720000008
 31
0.0
  0
LINE
  5
3530
  8
0-5
  6
CONTINUOUS
 62
     4
 10
18034.852856000001
 20
6241.1883740000012
 30
0.0
 11
18154.85325199999
 21
6449.0353509999986
 31
0.0
  0
LINE
  5
3531
  8
0-5
  6
CONTINUOUS
 62
     4
 10
17914.854438999992
 20
6449.0353509999986
 30
0.0
 11
18034.852856000001
 21
6241.1883740000012
 31
0.0
  0
LINE
  5
3532
  8
0-5
  6
CONTINUOUS
 62
     4
 10
18154.85325199999
 20
6449.0353509999986
 30
0.0
 11
17914.854438999992
 21
6449.0353509999986
 31
0.0
  0
LINE
  5
3533
  8
0-5
  6
CONTINUOUS
 62
     4
 10
16409.765163000011
 20
6241.1883740000003
 30
0.0
 11
18127.231048999991
 21
6241.1883740000012
 31
0.0
  0
LINE
  5
3534
  8
0-5
  6
CONTINUOUS
 62
     4
 10
16274.767868000001
 20
4461.1889349999992
 30
0.0
 11
16274.767868000001
 21
4301.1893969999992
 31
0.0
  0
LINE
  5
3535
  8
0-5
  6
CONTINUOUS
 62
     4
 10
13006.267868000001
 20
4461.1889349999992
 30
0.0
 11
13006.267868000001
 21
4301.1893969999992
 31
0.0
  0
LINE
  5
3536
  8
0-5
  6
CONTINUOUS
 62
     4
 10
10088.267868000001
 20
4461.1889349999992
 30
0.0
 11
10088.267868000001
 21
4301.1893969999992
 31
0.0
  0
LINE
  5
3537
  8
2-0
  6
CENTER2
 62
     6
 10
16274.767868000001
 20
5878.5361159999993
 30
0.0
 11
16274.767868000001
 21
6935.6787139999979
 31
0.0
  0
LINE
  5
3538
  8
2-0
  6
CENTER2
 62
     6
 10
13006.267868000001
 20
5878.5361159999993
 30
0.0
 11
13006.267868000001
 21
6935.6787139999979
 31
0.0
  0
LINE
  5
3539
  8
2-0
  6
CENTER2
 62
     6
 10
10088.267868000001
 20
5878.5361159999993
 30
0.0
 11
10088.267868000001
 21
6935.6787139999979
 31
0.0
  0
ARC
  5
353A
  8
0-1
  6
CONTINUOUS
 62
     3
 10
16402.207294999989
 20
8523.6801919999998
 30
0.0
 40
24.999998999999999
 50
271.71998600002598
 51
91.719986000025997
  0
ARC
  5
353B
  8
0-1
  6
CONTINUOUS
 62
     3
 10
9869.8764910000027
 20
8356.1505649999999
 30
0.0
 40
3.0
 50
181.71998600002601
 51
271.71998600002598
  0
ARC
  5
353C
  8
0-1
  6
CONTINUOUS
 62
     3
 10
9870.9137590000046
 20
8388.1955069999967
 30
0.0
 40
5.0
 50
91.719986000025997
 51
181.71998600002601
  0
ARC
  5
353D
  8
0-1
  6
CONTINUOUS
 62
     3
 10
16397.210000999981
 20
8523.529749000003
 30
0.0
 40
69.999999000000003
 50
293.50677499975183
 51
69.933196999864222
  0
ARC
  5
353E
  8
0-1
  6
CONTINUOUS
 62
     3
 10
9874.5174720000032
 20
8268.250043
 30
0.0
 40
5.0
 50
181.71998600002601
 51
271.71998600002598
  0
ARC
  5
353F
  8
0-1
  6
CONTINUOUS
 62
     3
 10
9871.5561130000042
 20
8300.1752229999984
 30
0.0
 40
3.0
 50
91.719986000025997
 51
181.71998600002601
  0
ARC
  5
3540
  8
0-1
  6
CONTINUOUS
 62
     3
 10
9871.5402760000015
 20
8350.6979809999975
 30
0.0
 40
2.5
 50
271.71998600002598
 51
91.719986000025997
  0
ARC
  5
3541
  8
0-1
  6
CONTINUOUS
 62
     3
 10
9872.8903079999982
 20
8305.7178749999985
 30
0.0
 40
2.5
 50
271.71998600002598
 51
91.719986000025997
  0
ARC
  5
3542
  8
0-1
  6
CONTINUOUS
 62
     3
 10
9870.2060810000003
 20
8345.1553289999974
 30
0.0
 40
3.0
 50
91.719986000025997
 51
181.71998600002601
  0
ARC
  5
3543
  8
0-1
  6
CONTINUOUS
 62
     3
 10
16402.207294999989
 20
8523.6801919999998
 30
0.0
 40
20.0
 50
271.71998600002598
 51
91.719986000025997
  0
ARC
  5
3544
  8
0-1
  6
CONTINUOUS
 62
     3
 10
9871.2265229999975
 20
8311.1699640000006
 30
0.0
 40
3.0
 50
181.71998600002601
 51
271.71998600002598
  0
CIRCLE
  5
3545
  8
0-5
  6
CONTINUOUS
 62
     4
 10
13006.267868000001
 20
4101.1882420000002
 30
0.0
 40
199.9999949999999
  0
CIRCLE
  5
3546
  8
0-5
  6
CONTINUOUS
 62
     4
 10
16274.767868000001
 20
4101.1882420000002
 30
0.0
 40
199.9999949999999
  0
CIRCLE
  5
3547
  8
0-5
  6
CONTINUOUS
 62
     4
 10
10088.267868000001
 20
4101.1882420000002
 30
0.0
 40
199.9999949999999
  0
TEXT
  5
3548
  8
0-5
  6
CONTINUOUS
 62
     7
 10
17575.760926999999
 20
6529.0346250000011
 30
0.0
 40
160.0
  1
布基礎天端
 72
     4
 11
18034.427593666671
 21
6609.0346250000011
 31
0.0
  0
TEXT
  5
3549
  8
0-5
  6
CONTINUOUS
 62
     7
 10
16227.81170799999
 20
4017.977445999999
 30
0.0
 40
160.0
  1
A
 72
     4
 11
16281.14504133333
 21
4097.9774459999999
 31
0.0
  0
TEXT
  5
354A
  8
0-5
  6
CONTINUOUS
 62
     7
 10
12959.31170799999
 20
4017.977445999999
 30
0.0
 40
160.0
  1
B
 72
     4
 11
13012.64504133333
 21
4097.9774459999999
 31
0.0
  0
TEXT
  5
354B
  8
0-5
  6
CONTINUOUS
 62
     7
 10
10041.311707999979
 20
4017.977445999999
 30
0.0
 40
160.0
  1
C
 72
     4
 11
10094.64504133332
 21
4097.9774459999999
 31
0.0
  0
TEXT
  5
354C
  8
2-0
  6
CONTINUOUS
 62
     7
 10
11688.234123999981
 20
3264.0669070000022
 30
0.0
 40
160.0
  1
側 面 立 面 図
 50
0.000139
 72
     4
 11
12333.56726325081
 21
3344.0684725833762
 31
0.0
  0
TEXT
  5
354D
  8
2-0
  6
CONTINUOUS
 62
     7
 10
13685.059448388431
 20
3291.2638415833758
 30
0.0
 40
160.0
  1
1
 72
     4
 11
13711.7261150551
 21
3371.2638415833749
 31
0.0
  0
TEXT
  5
354E
  8
2-0
  6
CONTINUOUS
 62
     7
 10
13928.148165639141
 20
3211.265309583373
 30
0.0
 40
160.0
  1
80
 72
     4
 11
14048.148165639141
 21
3291.265309583373
 31
0.0
  0
TEXT
  5
354F
  8
2-0
  6
CONTINUOUS
 62
     7
 10
13186.06141438843
 20
3264.0684725833762
 30
0.0
 40
160.0
  1
(S=  /   )
 72
     4
 11
13746.06141438843
 21
3344.0684725833762
 31
0.0
  0
LINE
  5
3550
  8
0-1
  6
CONTINUOUS
 62
     3
 10
16002.27023099999
 20
6291.1885389999989
 30
0.0
 11
16002.27023099999
 21
8152.234418
 31
0.0
  0
LINE
  5
3551
  8
0-1
  6
CONTINUOUS
 62
     3
 10
16017.270033000001
 20
6291.1885389999989
 30
0.0
 11
16017.270033000001
 21
8152.234418
 31
0.0
  0
LINE
  5
3552
  8
SUNPOU
  6
CONTINUOUS
 10
21150.01686499998
 20
4941.1885390000061
 30
0.0
 11
20792.061858278881
 21
4941.1885390000061
 31
0.0
  0
LINE
  5
3553
  8
SUNPOU
  6
CONTINUOUS
 10
24282.516864999991
 20
4941.1885390000061
 30
0.0
 11
24640.471871721082
 21
4941.1885390000061
 31
0.0
  0
TEXT
  5
3554
  8
0-5
  6
CONTINUOUS
 62
     7
 10
20814.338945999989
 20
6870.5487857420012
 30
0.0
 40
160.0
  1
(2131.5)
 50
90.0
 72
     4
 11
20734.338945999989
 21
7323.8821190753342
 31
0.0
  0
LINE
  5
3555
  8
0-6
  6
CONTINUOUS
 62
     6
 10
22273.15235649997
 20
18999.666309
 30
0.0
 11
23298.19260649999
 21
18999.666309
 31
0.0
  0
LINE
  5
3556
  8
0-6
  6
CONTINUOUS
 62
     6
 10
21973.227578499969
 20
19557.019561000008
 30
0.0
 11
21868.612000499968
 21
19680.980973999998
 31
0.0
  0
LINE
  5
3557
  8
0-6
  6
CONTINUOUS
 62
     6
 10
21868.612000499968
 20
19680.980973999998
 30
0.0
 11
21927.370050500002
 21
19529.78930400002
 31
0.0
  0
LINE
  5
3558
  8
0-6
  6
CONTINUOUS
 62
     6
 10
21868.612000499968
 20
19680.980973999998
 30
0.0
 11
21973.227578499969
 21
19557.019561000008
 31
0.0
  0
LINE
  5
3559
  8
0-6
  6
CONTINUOUS
 62
     6
 10
21973.227578499969
 20
19557.019561000008
 30
0.0
 11
21927.370050500002
 21
19529.78930400002
 31
0.0
  0
LINE
  5
355A
  8
0-6
  6
CONTINUOUS
 62
     6
 10
21927.370050500002
 20
19529.78930400002
 30
0.0
 11
21868.612000499968
 21
19680.980973999998
 31
0.0
  0
LINE
  5
355B
  8
0-6
  6
CONTINUOUS
 62
     6
 10
21927.370050500002
 20
19529.78930400002
 30
0.0
 11
21973.227578499969
 21
19557.019561000008
 31
0.0
  0
LINE
  5
355C
  8
0-6
  6
CONTINUOUS
 62
     6
 10
21950.298814499991
 20
19543.406412000011
 30
0.0
 11
22273.15235649997
 21
18999.666309
 31
0.0
  0
TEXT
  5
355D
  8
0-6
  6
CONTINUOUS
 62
     7
 10
22353.152620499979
 20
19079.668553000021
 30
0.0
 40
160.0
  1
間柱（後）
 72
     4
 11
22774.485953833311
 21
19159.668553000021
 31
0.0
  0
LINE
  5
355E
  8
SUNPOU
  6
CONTINUOUS
 10
9865.7678679999972
 20
9389.1900499999956
 30
0.0
 11
9390.4787553597725
 21
9389.1900499999956
 31
0.0
  0
LINE
  5
355F
  8
SUNPOU
  6
CONTINUOUS
 10
10885.631050999969
 20
19890.982161000022
 30
0.0
 11
10885.631050999969
 21
20687.949428778458
 31
0.0
  0
LINE
  5
3560
  8
SUNPOU
  6
CONTINUOUS
 10
10885.631050999969
 20
13289.490937
 30
0.0
 11
10885.631050999969
 21
12614.06482118961
 31
0.0
  0
LINE
  5
3563
  8
WAKUSEN-01
 10
868.00000000000193
 20
22484.000000000011
 30
0.0
 11
32764.000000000011
 21
22484.000000000011
 31
0.0
  0
LINE
  5
3566
  8
WAKUSEN-01
 10
20560.0
 20
2484.0
 30
0.0
 11
32764.0
 21
2484.0
 31
0.0
  0
LINE
  5
3567
  8
WAKUSEN-02
 10
20560.0
 20
1655.9999999999991
 30
0.0
 11
26868.0
 21
1655.9999999999991
 31
0.0
  0
TEXT
  5
3568
  8
WAKUMOJI-01
 10
20670.260259962761
 20
2125.9030093393221
 30
0.0
 40
240.0
  1
名　称
  7
WAKUMOJI
  0
TEXT
  5
3569
  8
WAKUMOJI-01
 10
20656.505485091919
 20
1319.12897497982
 30
0.0
 40
240.0
  1
機種名
  7
WAKUMOJI
  0
LINE
  5
356C
  8
YODOROGO
 10
29977.604341291921
 20
1995.7494964292871
 30
0.0
 11
29829.604341291921
 21
1995.7494964292871
 31
0.0
1001
AUTOCAD_POSTSCRIPT_FIGURE
1002
{
1000
PSFILL
1000
Grayscale
1000
Grayscale
1070
    25
1002
}
  0
LINE
  5
356D
  8
YODOROGO
 10
29829.604341291921
 20
1947.749496429288
 30
0.0
 11
29977.604341291921
 21
1947.749496429288
 31
0.0
1001
AUTOCAD_POSTSCRIPT_FIGURE
1002
{
1000
PSFILL
1000
Grayscale
1000
Grayscale
1070
    25
1002
}
  0
LINE
  5
356E
  8
YODOROGO
 10
29977.604341291921
 20
1907.7494964292871
 30
0.0
 11
29829.604341291921
 21
1907.7494964292871
 31
0.0
1001
AUTOCAD_POSTSCRIPT_FIGURE
1002
{
1000
PSFILL
1000
Grayscale
1000
Grayscale
1070
    25
1002
}
  0
LINE
  5
356F
  8
YODOROGO
 10
29829.604341291921
 20
1859.749496429288
 30
0.0
 11
29977.604341291921
 21
1859.749496429288
 31
0.0
1001
AUTOCAD_POSTSCRIPT_FIGURE
1002
{
1000
PSFILL
1000
Grayscale
1000
Grayscale
1070
    25
1002
}
  0
LINE
  5
3570
  8
YODOROGO
 10
29977.604341291921
 20
1819.7494964292871
 30
0.0
 11
29829.604341291921
 21
1819.7494964292871
 31
0.0
1001
AUTOCAD_POSTSCRIPT_FIGURE
1002
{
1000
PSFILL
1000
Grayscale
1000
Grayscale
1070
    25
1002
}
  0
LINE
  5
3571
  8
YODOROGO
 10
29921.60434129191
 20
1707.749496429288
 30
0.0
 11
29977.604341291921
 21
1707.749496429288
 31
0.0
1001
AUTOCAD_POSTSCRIPT_FIGURE
1002
{
1000
PSFILL
1000
Grayscale
1000
Grayscale
1070
    25
1002
}
  0
LINE
  5
3572
  8
YODOROGO
 10
29737.604341291921
 20
1427.749496429288
 30
0.0
 11
29937.604341291932
 21
1481.3393349155101
 31
0.0
  0
LINE
  5
3573
  8
YODOROGO
 10
29949.60434129191
 20
1707.749496429288
 30
0.0
 11
29885.604341291921
 21
1707.749496429288
 31
0.0
  0
ARC
  5
3574
  8
YODOROGO
 10
30254.34774982791
 20
1807.864609233261
 30
0.0
 40
381.88686420564721
 50
213.96111677667841
 51
264.47872074317792
  0
ARC
  5
3575
  8
YODOROGO
 10
30254.347749827921
 20
1807.864609233302
 30
0.0
 40
381.8868642056816
 50
208.14114420486601
 51
212.9210361185994
  0
LINE
  5
3576
  8
YODOROGO
 10
29771.409872985321
 20
1556.807661346234
 30
0.0
 11
29933.78413250855
 21
1600.3157130570869
 31
0.0
  0
LINE
  5
3577
  8
YODOROGO
 10
29737.604341291921
 20
1427.749496429288
 30
0.0
 11
29937.604341291932
 21
1481.3393349155101
 31
0.0
  0
LINE
  5
3578
  8
YODOROGO
 10
29949.60434129191
 20
1707.749496429288
 30
0.0
 11
29885.604341291921
 21
1707.749496429288
 31
0.0
  0
ARC
  5
3579
  8
YODOROGO
 10
30254.34774982791
 20
1807.864609233261
 30
0.0
 40
381.88686420564721
 50
213.96111677667841
 51
264.47872074317792
  0
LINE
  5
357A
  8
YODOROGO
 10
28793.60434129191
 20
1819.7494964292871
 30
0.0
 11
28433.60434129191
 21
1819.7494964292871
 31
0.0
  0
LINE
  5
357B
  8
YODOROGO
 10
28513.60434129191
 20
1427.749496429288
 30
0.0
 11
28793.60434129191
 21
1427.749496429288
 31
0.0
  0
LINE
  5
357C
  8
YODOROGO
 10
28729.604341291921
 20
1923.7494964292871
 30
0.0
 11
28497.60434129191
 21
1923.7494964292871
 31
0.0
  0
LINE
  5
357D
  8
YODOROGO
 10
28585.604341291921
 20
2027.749496429288
 30
0.0
 11
28657.604341291921
 21
2027.749496429288
 31
0.0
  0
LINE
  5
357E
  8
YODOROGO
 10
28433.60434129191
 20
1707.749496429288
 30
0.0
 11
28433.60434129191
 21
1507.749496429288
 31
0.0
  0
LINE
  5
357F
  8
YODOROGO
 10
28497.60434129191
 20
1563.7494964292871
 30
0.0
 11
28497.60434129191
 21
1707.749496429288
 31
0.0
  0
LINE
  5
3580
  8
YODOROGO
 10
28585.604341291921
 20
1747.74949642929
 30
0.0
 11
28585.604341291921
 21
1547.749496429288
 31
0.0
  0
LINE
  5
3581
  8
YODOROGO
 10
27857.604341291921
 20
1683.749496429288
 30
0.0
 11
27777.604341291921
 21
1619.9724140445701
 31
0.0
  0
LINE
  5
3582
  8
YODOROGO
 10
27937.604341291921
 20
1619.9724140445701
 30
0.0
 11
27857.604341291921
 21
1683.749496429288
 31
0.0
  0
LINE
  5
3583
  8
YODOROGO
 10
27857.604341291921
 20
1707.749496429288
 30
0.0
 11
27937.604341291921
 21
1643.9724140445701
 31
0.0
  0
LINE
  5
3584
  8
YODOROGO
 10
27777.604341291921
 20
1643.9724140445701
 30
0.0
 11
27857.604341291921
 21
1707.749496429288
 31
0.0
  0
LINE
  5
3585
  8
YODOROGO
 10
28040.913204016892
 20
1659.749496429288
 30
0.0
 11
28040.913204016892
 21
1683.7494964292871
 31
0.0
  0
LINE
  5
3586
  8
YODOROGO
 10
27977.604341291921
 20
1683.7494964292871
 30
0.0
 11
27977.604341291921
 21
1667.749496429285
 31
0.0
  0
LINE
  5
3587
  8
YODOROGO
 10
28098.135520230931
 20
1707.749496429288
 30
0.0
 11
28098.135520230931
 21
1655.5036372746561
 31
0.0
1001
AUTOCAD_POSTSCRIPT_FIGURE
1002
{
1000
PSFILL
1000
Grayscale
1000
Grayscale
1070
   100
1002
}
  0
LINE
  5
3588
  8
YODOROGO
 10
28082.135520230921
 20
1655.5036372746561
 30
0.0
 11
28082.135520230921
 21
1707.749496429288
 31
0.0
1001
AUTOCAD_POSTSCRIPT_FIGURE
1002
{
1000
PSFILL
1000
Grayscale
1000
Grayscale
1070
   100
1002
}
  0
LINE
  5
3589
  8
YODOROGO
 10
27809.604341291921
 20
1608.771904043258
 30
0.0
 11
27809.604341291921
 21
1632.771904043258
 31
0.0
  0
LINE
  5
358A
  8
YODOROGO
 10
27905.604341291921
 20
1608.771904043258
 30
0.0
 11
27809.604341291921
 21
1608.771904043258
 31
0.0
  0
LINE
  5
358B
  8
YODOROGO
 10
27905.604341291921
 20
1632.771904043258
 30
0.0
 11
27905.604341291921
 21
1608.771904043258
 31
0.0
  0
LINE
  5
358C
  8
YODOROGO
 10
27809.604341291921
 20
1632.771904043258
 30
0.0
 11
27905.604341291921
 21
1632.771904043258
 31
0.0
  0
LINE
  5
358D
  8
YODOROGO
 10
27824.509588915738
 20
1568.5028573704751
 30
0.0
 11
27785.604341291921
 21
1475.7494964292871
 31
0.0
1001
AUTOCAD_POSTSCRIPT_FIGURE
1002
{
1000
PSFILL
1000
Grayscale
1000
Grayscale
1070
   100
1002
}
  0
LINE
  5
358E
  8
YODOROGO
 10
27777.604341291921
 20
1568.5028573704751
 30
0.0
 11
27824.509588915738
 21
1568.5028573704751
 31
0.0
1001
AUTOCAD_POSTSCRIPT_FIGURE
1002
{
1000
PSFILL
1000
Grayscale
1000
Grayscale
1070
   100
1002
}
  0
LINE
  5
358F
  8
YODOROGO
 10
27777.604341291921
 20
1588.5028573704751
 30
0.0
 11
27777.604341291921
 21
1568.5028573704751
 31
0.0
1001
AUTOCAD_POSTSCRIPT_FIGURE
1002
{
1000
PSFILL
1000
Grayscale
1000
Grayscale
1070
   100
1002
}
  0
LINE
  5
3590
  8
YODOROGO
 10
27937.604341291921
 20
1588.5028573704751
 30
0.0
 11
27777.604341291921
 21
1588.5028573704751
 31
0.0
1001
AUTOCAD_POSTSCRIPT_FIGURE
1002
{
1000
PSFILL
1000
Grayscale
1000
Grayscale
1070
   100
1002
}
  0
LINE
  5
3591
  8
YODOROGO
 10
27937.604341291921
 20
1568.5028573704751
 30
0.0
 11
27937.604341291921
 21
1588.5028573704751
 31
0.0
1001
AUTOCAD_POSTSCRIPT_FIGURE
1002
{
1000
PSFILL
1000
Grayscale
1000
Grayscale
1070
   100
1002
}
  0
LINE
  5
3592
  8
YODOROGO
 10
27844.509588915738
 20
1568.5028573704751
 30
0.0
 11
27937.604341291921
 21
1568.5028573704751
 31
0.0
1001
AUTOCAD_POSTSCRIPT_FIGURE
1002
{
1000
PSFILL
1000
Grayscale
1000
Grayscale
1070
   100
1002
}
  0
LINE
  5
3593
  8
YODOROGO
 10
27815.546718284771
 20
1495.7494964292871
 30
0.0
 11
27844.509588915738
 21
1568.5028573704751
 31
0.0
1001
AUTOCAD_POSTSCRIPT_FIGURE
1002
{
1000
PSFILL
1000
Grayscale
1000
Grayscale
1070
   100
1002
}
  0
LINE
  5
3594
  8
YODOROGO
 10
27902.054790808648
 20
1495.7494964292871
 30
0.0
 11
27815.546718284771
 21
1495.7494964292871
 31
0.0
1001
AUTOCAD_POSTSCRIPT_FIGURE
1002
{
1000
PSFILL
1000
Grayscale
1000
Grayscale
1070
   100
1002
}
  0
LINE
  5
3595
  8
YODOROGO
 10
27885.065004790951
 20
1536.2338106976929
 30
0.0
 11
27902.054790808648
 21
1495.7494964292871
 31
0.0
1001
AUTOCAD_POSTSCRIPT_FIGURE
1002
{
1000
PSFILL
1000
Grayscale
1000
Grayscale
1070
   100
1002
}
  0
LINE
  5
3596
  8
YODOROGO
 10
27901.065004790951
 20
1536.2338106976929
 30
0.0
 11
27885.065004790951
 21
1536.2338106976929
 31
0.0
1001
AUTOCAD_POSTSCRIPT_FIGURE
1002
{
1000
PSFILL
1000
Grayscale
1000
Grayscale
1070
   100
1002
}
  0
LINE
  5
3597
  8
YODOROGO
 10
27929.604341291921
 20
1475.7494964292871
 30
0.0
 11
27901.065004790951
 21
1536.2338106976929
 31
0.0
1001
AUTOCAD_POSTSCRIPT_FIGURE
1002
{
1000
PSFILL
1000
Grayscale
1000
Grayscale
1070
   100
1002
}
  0
LINE
  5
3598
  8
YODOROGO
 10
27785.604341291921
 20
1475.7494964292871
 30
0.0
 11
27929.604341291921
 21
1475.7494964292871
 31
0.0
1001
AUTOCAD_POSTSCRIPT_FIGURE
1002
{
1000
PSFILL
1000
Grayscale
1000
Grayscale
1070
   100
1002
}
  0
LINE
  5
3599
  8
YODOROGO
 10
27777.604341291921
 20
1619.9724140445701
 30
0.0
 11
27777.604341291921
 21
1643.9724140445701
 31
0.0
  0
LINE
  5
359A
  8
YODOROGO
 10
27937.604341291921
 20
1643.9724140445701
 30
0.0
 11
27937.604341291921
 21
1619.9724140445701
 31
0.0
  0
ARC
  5
359B
  8
YODOROGO
 10
28225.940442146959
 20
1600.877765325326
 30
0.0
 40
175.9999999999998
 50
280.3644312771313
 51
3.5414836592180561
  0
ARC
  5
359C
  8
YODOROGO
 10
28235.756030759301
 20
1633.5978069619041
 30
0.0
 40
111.9999999999982
 50
281.24905825041549
 51
348.75094174958321
  0
LINE
  5
359D
  8
YODOROGO
 10
28257.604341291921
 20
1523.7494964292871
 30
0.0
 11
28257.604341291921
 21
1427.749496429288
 31
0.0
  0
LINE
  5
359E
  8
YODOROGO
 10
28020.088903736909
 20
1610.650565061914
 30
0.0
 11
28040.913204016892
 21
1659.749496429288
 31
0.0
  0
LINE
  5
359F
  8
YODOROGO
 10
28041.604341291921
 20
1583.120489948401
 30
0.0
 11
28020.088903736909
 21
1610.650565061914
 31
0.0
  0
LINE
  5
35A0
  8
YODOROGO
 10
28041.604341291921
 20
1563.120489948398
 30
0.0
 11
28041.604341291921
 21
1583.120489948401
 31
0.0
  0
LINE
  5
35A1
  8
YODOROGO
 10
28017.604341291921
 20
1585.2370637495301
 30
0.0
 11
28041.604341291921
 21
1563.120489948398
 31
0.0
  0
LINE
  5
35A2
  8
YODOROGO
 10
28017.604341291921
 20
1475.7494964292871
 30
0.0
 11
28017.604341291921
 21
1585.2370637495301
 31
0.0
  0
LINE
  5
35A3
  8
YODOROGO
 10
28001.604341291921
 20
1475.7494964292871
 30
0.0
 11
28017.604341291921
 21
1475.7494964292871
 31
0.0
  0
LINE
  5
35A4
  8
YODOROGO
 10
28001.604341291921
 20
1580.0053496897469
 30
0.0
 11
28001.604341291921
 21
1475.7494964292871
 31
0.0
  0
LINE
  5
35A5
  8
YODOROGO
 10
27977.604341291921
 20
1532.7680790334291
 30
0.0
 11
28001.604341291921
 21
1580.0053496897469
 31
0.0
  0
LINE
  5
35A6
  8
YODOROGO
 10
27977.604341291921
 20
1556.76807903343
 30
0.0
 11
27977.604341291921
 21
1532.7680790334291
 31
0.0
  0
LINE
  5
35A7
  8
YODOROGO
 10
28025.828774291349
 20
1667.749496429285
 30
0.0
 11
27977.604341291921
 21
1556.76807903343
 31
0.0
  0
LINE
  5
35A8
  8
YODOROGO
 10
27977.604341291921
 20
1667.749496429285
 30
0.0
 11
28025.828774291349
 21
1667.749496429285
 31
0.0
  0
LINE
  5
35A9
  8
YODOROGO
 10
28050.135520230899
 20
1655.5036372746561
 30
0.0
 11
28082.135520230921
 21
1655.5036372746561
 31
0.0
1001
AUTOCAD_POSTSCRIPT_FIGURE
1002
{
1000
PSFILL
1000
Grayscale
1000
Grayscale
1070
   100
1002
}
  0
LINE
  5
35AA
  8
YODOROGO
 10
28050.135520230899
 20
1631.5036372746561
 30
0.0
 11
28050.135520230899
 21
1655.5036372746561
 31
0.0
1001
AUTOCAD_POSTSCRIPT_FIGURE
1002
{
1000
PSFILL
1000
Grayscale
1000
Grayscale
1070
   100
1002
}
  0
LINE
  5
35AB
  8
YODOROGO
 10
28082.135520230921
 20
1631.5036372746561
 30
0.0
 11
28050.135520230899
 21
1631.5036372746561
 31
0.0
1001
AUTOCAD_POSTSCRIPT_FIGURE
1002
{
1000
PSFILL
1000
Grayscale
1000
Grayscale
1070
   100
1002
}
  0
LINE
  5
35AC
  8
YODOROGO
 10
28082.135520230921
 20
1499.749496429288
 30
0.0
 11
28082.135520230921
 21
1631.5036372746561
 31
0.0
1001
AUTOCAD_POSTSCRIPT_FIGURE
1002
{
1000
PSFILL
1000
Grayscale
1000
Grayscale
1070
   100
1002
}
  0
LINE
  5
35AD
  8
YODOROGO
 10
28050.135520230921
 20
1499.749496429288
 30
0.0
 11
28082.135520230921
 21
1499.749496429288
 31
0.0
1001
AUTOCAD_POSTSCRIPT_FIGURE
1002
{
1000
PSFILL
1000
Grayscale
1000
Grayscale
1070
   100
1002
}
  0
LINE
  5
35AE
  8
YODOROGO
 10
28050.135520230921
 20
1475.7494964292871
 30
0.0
 11
28050.135520230921
 21
1499.749496429288
 31
0.0
1001
AUTOCAD_POSTSCRIPT_FIGURE
1002
{
1000
PSFILL
1000
Grayscale
1000
Grayscale
1070
   100
1002
}
  0
LINE
  5
35AF
  8
YODOROGO
 10
28137.604341291921
 20
1475.7494964292871
 30
0.0
 11
28050.135520230921
 21
1475.7494964292871
 31
0.0
1001
AUTOCAD_POSTSCRIPT_FIGURE
1002
{
1000
PSFILL
1000
Grayscale
1000
Grayscale
1070
   100
1002
}
  0
LINE
  5
35B0
  8
YODOROGO
 10
28137.604341291921
 20
1499.749496429288
 30
0.0
 11
28137.604341291921
 21
1475.7494964292871
 31
0.0
1001
AUTOCAD_POSTSCRIPT_FIGURE
1002
{
1000
PSFILL
1000
Grayscale
1000
Grayscale
1070
   100
1002
}
  0
LINE
  5
35B1
  8
YODOROGO
 10
28098.135520230931
 20
1499.749496429288
 30
0.0
 11
28137.604341291921
 21
1499.749496429288
 31
0.0
1001
AUTOCAD_POSTSCRIPT_FIGURE
1002
{
1000
PSFILL
1000
Grayscale
1000
Grayscale
1070
   100
1002
}
  0
LINE
  5
35B2
  8
YODOROGO
 10
28098.135520230931
 20
1631.5036372746561
 30
0.0
 11
28098.135520230931
 21
1499.749496429288
 31
0.0
1001
AUTOCAD_POSTSCRIPT_FIGURE
1002
{
1000
PSFILL
1000
Grayscale
1000
Grayscale
1070
   100
1002
}
  0
LINE
  5
35B3
  8
YODOROGO
 10
28137.604341291921
 20
1631.5036372746561
 30
0.0
 11
28098.135520230931
 21
1631.5036372746561
 31
0.0
1001
AUTOCAD_POSTSCRIPT_FIGURE
1002
{
1000
PSFILL
1000
Grayscale
1000
Grayscale
1070
   100
1002
}
  0
LINE
  5
35B4
  8
YODOROGO
 10
28137.604341291921
 20
1655.5036372746561
 30
0.0
 11
28137.604341291921
 21
1631.5036372746561
 31
0.0
1001
AUTOCAD_POSTSCRIPT_FIGURE
1002
{
1000
PSFILL
1000
Grayscale
1000
Grayscale
1070
   100
1002
}
  0
LINE
  5
35B5
  8
YODOROGO
 10
28098.135520230931
 20
1655.5036372746561
 30
0.0
 11
28137.604341291921
 21
1655.5036372746561
 31
0.0
1001
AUTOCAD_POSTSCRIPT_FIGURE
1002
{
1000
PSFILL
1000
Grayscale
1000
Grayscale
1070
   100
1002
}
  0
LINE
  5
35B6
  8
YODOROGO
 10
28401.60434129191
 20
1667.749496429288
 30
0.0
 11
28345.604341291921
 21
1667.749496429288
 31
0.0
  0
LINE
  5
35B7
  8
YODOROGO
 10
28401.60434129191
 20
1611.749496429288
 30
0.0
 11
28401.60434129191
 21
1667.749496429288
 31
0.0
  0
LINE
  5
35B8
  8
YODOROGO
 10
28345.604341291921
 20
1667.749496429288
 30
0.0
 11
28345.604341291921
 21
1611.749496429288
 31
0.0
  0
ARC
  5
35B9
  8
YODOROGO
 10
28513.60434129191
 20
1507.749496429288
 30
0.0
 40
80.0
 50
180.0
 51
270.0
  0
ARC
  5
35BA
  8
YODOROGO
 10
28537.604341291921
 20
1563.7494964292871
 30
0.0
 40
40.0
 50
180.0
 51
270.0
  0
LINE
  5
35BB
  8
YODOROGO
 10
28561.604341291932
 20
1523.7494964292871
 30
0.0
 11
28537.604341291921
 21
1523.7494964292871
 31
0.0
  0
ARC
  5
35BC
  8
YODOROGO
 10
28561.604341291932
 20
1547.749496429285
 30
0.0
 40
23.999999999996358
 50
270.0
 51
0.0000000000054281
  0
LINE
  5
35BD
  8
YODOROGO
 10
27801.604341291921
 20
1890.786580793706
 30
0.0
 11
27777.604341291921
 21
1843.776747951672
 31
0.0
1001
AUTOCAD_POSTSCRIPT_FIGURE
1002
{
1000
PSFILL
1000
Grayscale
1000
Grayscale
1070
   100
1002
}
  0
LINE
  5
35BE
  8
YODOROGO
 10
27801.604341291921
 20
1747.749496429286
 30
0.0
 11
27801.604341291921
 21
1890.786580793706
 31
0.0
1001
AUTOCAD_POSTSCRIPT_FIGURE
1002
{
1000
PSFILL
1000
Grayscale
1000
Grayscale
1070
   100
1002
}
  0
LINE
  5
35BF
  8
YODOROGO
 10
27817.604341291921
 20
1747.749496429286
 30
0.0
 11
27801.604341291921
 21
1747.749496429286
 31
0.0
1001
AUTOCAD_POSTSCRIPT_FIGURE
1002
{
1000
PSFILL
1000
Grayscale
1000
Grayscale
1070
   100
1002
}
  0
LINE
  5
35C0
  8
YODOROGO
 10
27817.604341291921
 20
1893.7713320852661
 30
0.0
 11
27817.604341291921
 21
1747.749496429286
 31
0.0
1001
AUTOCAD_POSTSCRIPT_FIGURE
1002
{
1000
PSFILL
1000
Grayscale
1000
Grayscale
1070
   100
1002
}
  0
LINE
  5
35C1
  8
YODOROGO
 10
27841.604341291921
 20
1867.6547582841361
 30
0.0
 11
27817.604341291921
 21
1893.7713320852661
 31
0.0
1001
AUTOCAD_POSTSCRIPT_FIGURE
1002
{
1000
PSFILL
1000
Grayscale
1000
Grayscale
1070
   100
1002
}
  0
LINE
  5
35C2
  8
YODOROGO
 10
27841.604341291921
 20
1883.6547582841361
 30
0.0
 11
27841.604341291921
 21
1867.6547582841361
 31
0.0
1001
AUTOCAD_POSTSCRIPT_FIGURE
1002
{
1000
PSFILL
1000
Grayscale
1000
Grayscale
1070
   100
1002
}
  0
LINE
  5
35C3
  8
YODOROGO
 10
27817.604341291921
 20
1917.7713320852649
 30
0.0
 11
27841.604341291921
 21
1883.6547582841361
 31
0.0
1001
AUTOCAD_POSTSCRIPT_FIGURE
1002
{
1000
PSFILL
1000
Grayscale
1000
Grayscale
1070
   100
1002
}
  0
LINE
  5
35C4
  8
YODOROGO
 10
27817.604341291921
 20
1939.749496429288
 30
0.0
 11
27817.604341291921
 21
1917.7713320852649
 31
0.0
1001
AUTOCAD_POSTSCRIPT_FIGURE
1002
{
1000
PSFILL
1000
Grayscale
1000
Grayscale
1070
   100
1002
}
  0
LINE
  5
35C5
  8
YODOROGO
 10
27889.604341291921
 20
1939.749496429288
 30
0.0
 11
27817.604341291921
 21
1939.749496429288
 31
0.0
1001
AUTOCAD_POSTSCRIPT_FIGURE
1002
{
1000
PSFILL
1000
Grayscale
1000
Grayscale
1070
   100
1002
}
  0
LINE
  5
35C6
  8
YODOROGO
 10
27889.604341291921
 20
1900.5683489363
 30
0.0
 11
27889.604341291921
 21
1939.749496429288
 31
0.0
1001
AUTOCAD_POSTSCRIPT_FIGURE
1002
{
1000
PSFILL
1000
Grayscale
1000
Grayscale
1070
   100
1002
}
  0
LINE
  5
35C7
  8
YODOROGO
 10
27857.604341291921
 20
1900.5683489363
 30
0.0
 11
27889.604341291921
 21
1900.5683489363
 31
0.0
1001
AUTOCAD_POSTSCRIPT_FIGURE
1002
{
1000
PSFILL
1000
Grayscale
1000
Grayscale
1070
   100
1002
}
  0
LINE
  5
35C8
  8
YODOROGO
 10
27857.604341291921
 20
1884.568348936298
 30
0.0
 11
27857.604341291921
 21
1900.5683489363
 31
0.0
1001
AUTOCAD_POSTSCRIPT_FIGURE
1002
{
1000
PSFILL
1000
Grayscale
1000
Grayscale
1070
   100
1002
}
  0
LINE
  5
35C9
  8
YODOROGO
 10
27889.604341291921
 20
1884.568348936298
 30
0.0
 11
27857.604341291921
 21
1884.568348936298
 31
0.0
1001
AUTOCAD_POSTSCRIPT_FIGURE
1002
{
1000
PSFILL
1000
Grayscale
1000
Grayscale
1070
   100
1002
}
  0
LINE
  5
35CA
  8
YODOROGO
 10
27889.604341291921
 20
1879.6191779644371
 30
0.0
 11
27889.604341291921
 21
1884.568348936298
 31
0.0
1001
AUTOCAD_POSTSCRIPT_FIGURE
1002
{
1000
PSFILL
1000
Grayscale
1000
Grayscale
1070
   100
1002
}
  0
LINE
  5
35CB
  8
YODOROGO
 10
27849.604341291921
 20
1812.974981161417
 30
0.0
 11
27889.604341291921
 21
1879.6191779644371
 31
0.0
1001
AUTOCAD_POSTSCRIPT_FIGURE
1002
{
1000
PSFILL
1000
Grayscale
1000
Grayscale
1070
   100
1002
}
  0
LINE
  5
35CC
  8
YODOROGO
 10
27849.604341291921
 20
1796.9749811614161
 30
0.0
 11
27849.604341291921
 21
1812.974981161417
 31
0.0
1001
AUTOCAD_POSTSCRIPT_FIGURE
1002
{
1000
PSFILL
1000
Grayscale
1000
Grayscale
1070
   100
1002
}
  0
LINE
  5
35CD
  8
YODOROGO
 10
27889.604341291921
 20
1847.6191779644359
 30
0.0
 11
27849.604341291921
 21
1796.9749811614161
 31
0.0
1001
AUTOCAD_POSTSCRIPT_FIGURE
1002
{
1000
PSFILL
1000
Grayscale
1000
Grayscale
1070
   100
1002
}
  0
LINE
  5
35CE
  8
YODOROGO
 10
27889.604341291921
 20
1747.749496429286
 30
0.0
 11
27889.604341291921
 21
1847.6191779644359
 31
0.0
1001
AUTOCAD_POSTSCRIPT_FIGURE
1002
{
1000
PSFILL
1000
Grayscale
1000
Grayscale
1070
   100
1002
}
  0
LINE
  5
35CF
  8
YODOROGO
 10
27905.604341291921
 20
1747.749496429286
 30
0.0
 11
27889.604341291921
 21
1747.749496429286
 31
0.0
1001
AUTOCAD_POSTSCRIPT_FIGURE
1002
{
1000
PSFILL
1000
Grayscale
1000
Grayscale
1070
   100
1002
}
  0
LINE
  5
35D0
  8
YODOROGO
 10
27905.604341291921
 20
1849.409012158806
 30
0.0
 11
27905.604341291921
 21
1747.749496429286
 31
0.0
1001
AUTOCAD_POSTSCRIPT_FIGURE
1002
{
1000
PSFILL
1000
Grayscale
1000
Grayscale
1070
   100
1002
}
  0
LINE
  5
35D1
  8
YODOROGO
 10
27937.604341291921
 20
1796.9749811614161
 30
0.0
 11
27905.604341291921
 21
1849.409012158806
 31
0.0
1001
AUTOCAD_POSTSCRIPT_FIGURE
1002
{
1000
PSFILL
1000
Grayscale
1000
Grayscale
1070
   100
1002
}
  0
LINE
  5
35D2
  8
YODOROGO
 10
27937.604341291921
 20
1812.974981161417
 30
0.0
 11
27937.604341291921
 21
1796.9749811614161
 31
0.0
1001
AUTOCAD_POSTSCRIPT_FIGURE
1002
{
1000
PSFILL
1000
Grayscale
1000
Grayscale
1070
   100
1002
}
  0
LINE
  5
35D3
  8
YODOROGO
 10
27905.604341291921
 20
1881.4090121588081
 30
0.0
 11
27937.604341291921
 21
1812.974981161417
 31
0.0
1001
AUTOCAD_POSTSCRIPT_FIGURE
1002
{
1000
PSFILL
1000
Grayscale
1000
Grayscale
1070
   100
1002
}
  0
LINE
  5
35D4
  8
YODOROGO
 10
27905.604341291921
 20
1884.5683489363
 30
0.0
 11
27905.604341291921
 21
1881.4090121588081
 31
0.0
1001
AUTOCAD_POSTSCRIPT_FIGURE
1002
{
1000
PSFILL
1000
Grayscale
1000
Grayscale
1070
   100
1002
}
  0
LINE
  5
35D5
  8
YODOROGO
 10
27937.604341291921
 20
1884.568348936298
 30
0.0
 11
27905.604341291921
 21
1884.5683489363
 31
0.0
1001
AUTOCAD_POSTSCRIPT_FIGURE
1002
{
1000
PSFILL
1000
Grayscale
1000
Grayscale
1070
   100
1002
}
  0
LINE
  5
35D6
  8
YODOROGO
 10
27937.604341291921
 20
1900.5683489363
 30
0.0
 11
27937.604341291921
 21
1884.568348936298
 31
0.0
1001
AUTOCAD_POSTSCRIPT_FIGURE
1002
{
1000
PSFILL
1000
Grayscale
1000
Grayscale
1070
   100
1002
}
  0
LINE
  5
35D7
  8
YODOROGO
 10
27905.604341291921
 20
1900.5683489363
 30
0.0
 11
27937.604341291921
 21
1900.5683489363
 31
0.0
1001
AUTOCAD_POSTSCRIPT_FIGURE
1002
{
1000
PSFILL
1000
Grayscale
1000
Grayscale
1070
   100
1002
}
  0
LINE
  5
35D8
  8
YODOROGO
 10
27905.604341291921
 20
1939.749496429288
 30
0.0
 11
27905.604341291921
 21
1900.5683489363
 31
0.0
1001
AUTOCAD_POSTSCRIPT_FIGURE
1002
{
1000
PSFILL
1000
Grayscale
1000
Grayscale
1070
   100
1002
}
  0
LINE
  5
35D9
  8
YODOROGO
 10
27937.604341291921
 20
1939.749496429288
 30
0.0
 11
27905.604341291921
 21
1939.749496429288
 31
0.0
1001
AUTOCAD_POSTSCRIPT_FIGURE
1002
{
1000
PSFILL
1000
Grayscale
1000
Grayscale
1070
   100
1002
}
  0
LINE
  5
35DA
  8
YODOROGO
 10
27937.604341291921
 20
1955.7494964292871
 30
0.0
 11
27937.604341291921
 21
1939.749496429288
 31
0.0
1001
AUTOCAD_POSTSCRIPT_FIGURE
1002
{
1000
PSFILL
1000
Grayscale
1000
Grayscale
1070
   100
1002
}
  0
LINE
  5
35DB
  8
YODOROGO
 10
27905.604341291921
 20
1955.7494964292871
 30
0.0
 11
27937.604341291921
 21
1955.7494964292871
 31
0.0
1001
AUTOCAD_POSTSCRIPT_FIGURE
1002
{
1000
PSFILL
1000
Grayscale
1000
Grayscale
1070
   100
1002
}
  0
LINE
  5
35DC
  8
YODOROGO
 10
27905.604341291921
 20
1979.749496429288
 30
0.0
 11
27905.604341291921
 21
1955.7494964292871
 31
0.0
1001
AUTOCAD_POSTSCRIPT_FIGURE
1002
{
1000
PSFILL
1000
Grayscale
1000
Grayscale
1070
   100
1002
}
  0
LINE
  5
35DD
  8
YODOROGO
 10
27889.604341291921
 20
1979.749496429288
 30
0.0
 11
27905.604341291921
 21
1979.749496429288
 31
0.0
1001
AUTOCAD_POSTSCRIPT_FIGURE
1002
{
1000
PSFILL
1000
Grayscale
1000
Grayscale
1070
   100
1002
}
  0
LINE
  5
35DE
  8
YODOROGO
 10
27889.604341291921
 20
1955.7494964292871
 30
0.0
 11
27889.604341291921
 21
1979.749496429288
 31
0.0
1001
AUTOCAD_POSTSCRIPT_FIGURE
1002
{
1000
PSFILL
1000
Grayscale
1000
Grayscale
1070
   100
1002
}
  0
LINE
  5
35DF
  8
YODOROGO
 10
27865.604341291921
 20
1955.7494964292871
 30
0.0
 11
27889.604341291921
 21
1955.7494964292871
 31
0.0
1001
AUTOCAD_POSTSCRIPT_FIGURE
1002
{
1000
PSFILL
1000
Grayscale
1000
Grayscale
1070
   100
1002
}
  0
LINE
  5
35E0
  8
YODOROGO
 10
27865.604341291921
 20
1979.749496429288
 30
0.0
 11
27865.604341291921
 21
1955.7494964292871
 31
0.0
1001
AUTOCAD_POSTSCRIPT_FIGURE
1002
{
1000
PSFILL
1000
Grayscale
1000
Grayscale
1070
   100
1002
}
  0
LINE
  5
35E1
  8
YODOROGO
 10
27849.604341291921
 20
1979.749496429288
 30
0.0
 11
27865.604341291921
 21
1979.749496429288
 31
0.0
1001
AUTOCAD_POSTSCRIPT_FIGURE
1002
{
1000
PSFILL
1000
Grayscale
1000
Grayscale
1070
   100
1002
}
  0
LINE
  5
35E2
  8
YODOROGO
 10
27849.604341291921
 20
1955.7494964292871
 30
0.0
 11
27849.604341291921
 21
1979.749496429288
 31
0.0
1001
AUTOCAD_POSTSCRIPT_FIGURE
1002
{
1000
PSFILL
1000
Grayscale
1000
Grayscale
1070
   100
1002
}
  0
LINE
  5
35E3
  8
YODOROGO
 10
27817.604341291921
 20
1955.7494964292871
 30
0.0
 11
27849.604341291921
 21
1955.7494964292871
 31
0.0
1001
AUTOCAD_POSTSCRIPT_FIGURE
1002
{
1000
PSFILL
1000
Grayscale
1000
Grayscale
1070
   100
1002
}
  0
LINE
  5
35E4
  8
YODOROGO
 10
27817.604341291921
 20
1979.749496429288
 30
0.0
 11
27817.604341291921
 21
1955.7494964292871
 31
0.0
1001
AUTOCAD_POSTSCRIPT_FIGURE
1002
{
1000
PSFILL
1000
Grayscale
1000
Grayscale
1070
   100
1002
}
  0
LINE
  5
35E5
  8
YODOROGO
 10
27801.604341291921
 20
1979.749496429288
 30
0.0
 11
27817.604341291921
 21
1979.749496429288
 31
0.0
1001
AUTOCAD_POSTSCRIPT_FIGURE
1002
{
1000
PSFILL
1000
Grayscale
1000
Grayscale
1070
   100
1002
}
  0
LINE
  5
35E6
  8
YODOROGO
 10
27801.604341291921
 20
1955.7494964292871
 30
0.0
 11
27801.604341291921
 21
1979.749496429288
 31
0.0
1001
AUTOCAD_POSTSCRIPT_FIGURE
1002
{
1000
PSFILL
1000
Grayscale
1000
Grayscale
1070
   100
1002
}
  0
LINE
  5
35E7
  8
YODOROGO
 10
27777.604341291921
 20
1955.7494964292871
 30
0.0
 11
27801.604341291921
 21
1955.7494964292871
 31
0.0
1001
AUTOCAD_POSTSCRIPT_FIGURE
1002
{
1000
PSFILL
1000
Grayscale
1000
Grayscale
1070
   100
1002
}
  0
LINE
  5
35E8
  8
YODOROGO
 10
27777.604341291921
 20
1939.749496429288
 30
0.0
 11
27777.604341291921
 21
1955.7494964292871
 31
0.0
1001
AUTOCAD_POSTSCRIPT_FIGURE
1002
{
1000
PSFILL
1000
Grayscale
1000
Grayscale
1070
   100
1002
}
  0
LINE
  5
35E9
  8
YODOROGO
 10
27801.604341291921
 20
1939.749496429288
 30
0.0
 11
27777.604341291921
 21
1939.749496429288
 31
0.0
1001
AUTOCAD_POSTSCRIPT_FIGURE
1002
{
1000
PSFILL
1000
Grayscale
1000
Grayscale
1070
   100
1002
}
  0
LINE
  5
35EA
  8
YODOROGO
 10
27801.604341291921
 20
1914.7865807937051
 30
0.0
 11
27801.604341291921
 21
1939.749496429288
 31
0.0
1001
AUTOCAD_POSTSCRIPT_FIGURE
1002
{
1000
PSFILL
1000
Grayscale
1000
Grayscale
1070
   100
1002
}
  0
LINE
  5
35EB
  8
YODOROGO
 10
27777.604341291921
 20
1859.776747951671
 30
0.0
 11
27801.604341291921
 21
1914.7865807937051
 31
0.0
1001
AUTOCAD_POSTSCRIPT_FIGURE
1002
{
1000
PSFILL
1000
Grayscale
1000
Grayscale
1070
   100
1002
}
  0
LINE
  5
35EC
  8
YODOROGO
 10
27777.604341291921
 20
1843.776747951672
 30
0.0
 11
27777.604341291921
 21
1859.776747951671
 31
0.0
1001
AUTOCAD_POSTSCRIPT_FIGURE
1002
{
1000
PSFILL
1000
Grayscale
1000
Grayscale
1070
   100
1002
}
  0
LINE
  5
35ED
  8
YODOROGO
 10
28257.604341291921
 20
1867.7494964292871
 30
0.0
 11
28401.60434129191
 21
1824.877625640306
 31
0.0
1001
AUTOCAD_POSTSCRIPT_FIGURE
1002
{
1000
PSFILL
1000
Grayscale
1000
Grayscale
1070
   100
1002
}
  0
LINE
  5
35EE
  8
YODOROGO
 10
28401.60434129191
 20
1752.877625640306
 30
0.0
 11
28257.604341291921
 21
1795.7494964292871
 31
0.0
1001
AUTOCAD_POSTSCRIPT_FIGURE
1002
{
1000
PSFILL
1000
Grayscale
1000
Grayscale
1070
   100
1002
}
  0
LINE
  5
35EF
  8
YODOROGO
 10
28401.60434129191
 20
1984.877625640306
 30
0.0
 11
28257.604341291921
 21
2027.749496429288
 31
0.0
1001
AUTOCAD_POSTSCRIPT_FIGURE
1002
{
1000
PSFILL
1000
Grayscale
1000
Grayscale
1070
   100
1002
}
  0
LINE
  5
35F0
  8
YODOROGO
 10
28257.604341291921
 20
1959.749496429288
 30
0.0
 11
28401.60434129191
 21
1916.8776256403071
 31
0.0
1001
AUTOCAD_POSTSCRIPT_FIGURE
1002
{
1000
PSFILL
1000
Grayscale
1000
Grayscale
1070
   100
1002
}
  0
LINE
  5
35F1
  8
YODOROGO
 10
28257.604341291921
 20
1795.7494964292871
 30
0.0
 11
28257.604341291921
 21
1867.7494964292871
 31
0.0
1001
AUTOCAD_POSTSCRIPT_FIGURE
1002
{
1000
PSFILL
1000
Grayscale
1000
Grayscale
1070
   100
1002
}
  0
LINE
  5
35F2
  8
YODOROGO
 10
28257.604341291921
 20
2027.749496429288
 30
0.0
 11
28257.604341291921
 21
1959.749496429288
 31
0.0
1001
AUTOCAD_POSTSCRIPT_FIGURE
1002
{
1000
PSFILL
1000
Grayscale
1000
Grayscale
1070
   100
1002
}
  0
LINE
  5
35F3
  8
YODOROGO
 10
28080.236320206739
 20
1939.749496429288
 30
0.0
 11
28129.60434129191
 21
1747.749496429286
 31
0.0
1001
AUTOCAD_POSTSCRIPT_FIGURE
1002
{
1000
PSFILL
1000
Grayscale
1000
Grayscale
1070
   100
1002
}
  0
LINE
  5
35F4
  8
YODOROGO
 10
27977.604341291921
 20
1939.749496429288
 30
0.0
 11
28080.236320206739
 21
1939.749496429288
 31
0.0
1001
AUTOCAD_POSTSCRIPT_FIGURE
1002
{
1000
PSFILL
1000
Grayscale
1000
Grayscale
1070
   100
1002
}
  0
LINE
  5
35F5
  8
YODOROGO
 10
27977.604341291921
 20
1955.7494964292871
 30
0.0
 11
27977.604341291921
 21
1939.749496429288
 31
0.0
1001
AUTOCAD_POSTSCRIPT_FIGURE
1002
{
1000
PSFILL
1000
Grayscale
1000
Grayscale
1070
   100
1002
}
  0
LINE
  5
35F6
  8
YODOROGO
 10
28076.60687851991
 20
1955.7494964292871
 30
0.0
 11
27977.604341291921
 21
1955.7494964292871
 31
0.0
1001
AUTOCAD_POSTSCRIPT_FIGURE
1002
{
1000
PSFILL
1000
Grayscale
1000
Grayscale
1070
   100
1002
}
  0
LINE
  5
35F7
  8
YODOROGO
 10
28071.162715989711
 20
1979.749496429288
 30
0.0
 11
28076.60687851991
 21
1955.7494964292871
 31
0.0
1001
AUTOCAD_POSTSCRIPT_FIGURE
1002
{
1000
PSFILL
1000
Grayscale
1000
Grayscale
1070
   100
1002
}
  0
LINE
  5
35F8
  8
YODOROGO
 10
28091.162715989711
 20
1979.749496429288
 30
0.0
 11
28071.162715989711
 21
1979.749496429288
 31
0.0
1001
AUTOCAD_POSTSCRIPT_FIGURE
1002
{
1000
PSFILL
1000
Grayscale
1000
Grayscale
1070
   100
1002
}
  0
LINE
  5
35F9
  8
YODOROGO
 10
28095.806878519939
 20
1955.7494964292871
 30
0.0
 11
28091.162715989711
 21
1979.749496429288
 31
0.0
1001
AUTOCAD_POSTSCRIPT_FIGURE
1002
{
1000
PSFILL
1000
Grayscale
1000
Grayscale
1070
   100
1002
}
  0
LINE
  5
35FA
  8
YODOROGO
 10
28121.604341291921
 20
1955.7494964292871
 30
0.0
 11
28095.806878519939
 21
1955.7494964292871
 31
0.0
1001
AUTOCAD_POSTSCRIPT_FIGURE
1002
{
1000
PSFILL
1000
Grayscale
1000
Grayscale
1070
   100
1002
}
  0
LINE
  5
35FB
  8
YODOROGO
 10
28121.604341291921
 20
1979.749496429288
 30
0.0
 11
28121.604341291921
 21
1955.7494964292871
 31
0.0
1001
AUTOCAD_POSTSCRIPT_FIGURE
1002
{
1000
PSFILL
1000
Grayscale
1000
Grayscale
1070
   100
1002
}
  0
LINE
  5
35FC
  8
YODOROGO
 10
28137.604341291921
 20
1979.749496429288
 30
0.0
 11
28121.604341291921
 21
1979.749496429288
 31
0.0
1001
AUTOCAD_POSTSCRIPT_FIGURE
1002
{
1000
PSFILL
1000
Grayscale
1000
Grayscale
1070
   100
1002
}
  0
LINE
  5
35FD
  8
YODOROGO
 10
28137.604341291921
 20
1955.7494964292871
 30
0.0
 11
28137.604341291921
 21
1979.749496429288
 31
0.0
1001
AUTOCAD_POSTSCRIPT_FIGURE
1002
{
1000
PSFILL
1000
Grayscale
1000
Grayscale
1070
   100
1002
}
  0
LINE
  5
35FE
  8
YODOROGO
 10
28137.604341291921
 20
1939.749496429288
 30
0.0
 11
28137.604341291921
 21
1955.7494964292871
 31
0.0
1001
AUTOCAD_POSTSCRIPT_FIGURE
1002
{
1000
PSFILL
1000
Grayscale
1000
Grayscale
1070
   100
1002
}
  0
LINE
  5
35FF
  8
YODOROGO
 10
28098.902986873411
 20
1939.749496429288
 30
0.0
 11
28137.604341291921
 21
1939.749496429288
 31
0.0
1001
AUTOCAD_POSTSCRIPT_FIGURE
1002
{
1000
PSFILL
1000
Grayscale
1000
Grayscale
1070
   100
1002
}
  0
LINE
  5
3600
  8
YODOROGO
 10
28137.604341291921
 20
1747.749496429286
 30
0.0
 11
28098.902986873411
 21
1939.749496429288
 31
0.0
1001
AUTOCAD_POSTSCRIPT_FIGURE
1002
{
1000
PSFILL
1000
Grayscale
1000
Grayscale
1070
   100
1002
}
  0
LINE
  5
3601
  8
YODOROGO
 10
28129.60434129191
 20
1747.749496429286
 30
0.0
 11
28137.604341291921
 21
1747.749496429286
 31
0.0
1001
AUTOCAD_POSTSCRIPT_FIGURE
1002
{
1000
PSFILL
1000
Grayscale
1000
Grayscale
1070
   100
1002
}
  0
LINE
  5
3602
  8
YODOROGO
 10
28078.06921993379
 20
1775.7407762987939
 30
0.0
 11
27977.604341291921
 21
1747.749496429286
 31
0.0
  0
LINE
  5
3603
  8
YODOROGO
 10
28078.06921993379
 20
1798.6689795290731
 30
0.0
 11
28078.06921993379
 21
1775.7407762987939
 31
0.0
  0
LINE
  5
3604
  8
YODOROGO
 10
28033.83678061287
 20
1786.816933133767
 30
0.0
 11
28078.06921993379
 21
1798.6689795290731
 31
0.0
  0
LINE
  5
3605
  8
YODOROGO
 10
28033.83678061287
 20
1872.5683489362989
 30
0.0
 11
28033.83678061287
 21
1786.816933133767
 31
0.0
  0
LINE
  5
3606
  8
YODOROGO
 10
28078.06921993379
 20
1872.5683489362989
 30
0.0
 11
28033.83678061287
 21
1872.5683489362989
 31
0.0
  0
LINE
  5
3607
  8
YODOROGO
 10
28078.06921993379
 20
1892.568348936298
 30
0.0
 11
28078.06921993379
 21
1872.5683489362989
 31
0.0
  0
LINE
  5
3608
  8
YODOROGO
 10
27977.604341291921
 20
1892.568348936298
 30
0.0
 11
28078.06921993379
 21
1892.568348936298
 31
0.0
  0
LINE
  5
3609
  8
YODOROGO
 10
27977.604341291921
 20
1872.5683489362989
 30
0.0
 11
27977.604341291921
 21
1892.568348936298
 31
0.0
  0
LINE
  5
360A
  8
YODOROGO
 10
28021.836780612852
 20
1872.5683489362989
 30
0.0
 11
27977.604341291921
 21
1872.5683489362989
 31
0.0
  0
LINE
  5
360B
  8
YODOROGO
 10
28021.836780612852
 20
1784.673339594317
 30
0.0
 11
28021.836780612852
 21
1872.5683489362989
 31
0.0
  0
LINE
  5
360C
  8
YODOROGO
 10
27977.604341291921
 20
1771.749496429286
 30
0.0
 11
28021.836780612852
 21
1784.673339594317
 31
0.0
  0
LINE
  5
360D
  8
YODOROGO
 10
27977.604341291921
 20
1747.749496429286
 30
0.0
 11
27977.604341291921
 21
1771.749496429286
 31
0.0
  0
LINE
  5
360E
  8
YODOROGO
 10
28001.604341291921
 20
1707.749496429288
 30
0.0
 11
28001.604341291921
 21
1683.7494964292871
 31
0.0
  0
LINE
  5
360F
  8
YODOROGO
 10
28017.604341291921
 20
1707.749496429288
 30
0.0
 11
28001.604341291921
 21
1707.749496429288
 31
0.0
  0
LINE
  5
3610
  8
YODOROGO
 10
28017.604341291921
 20
1683.7494964292871
 30
0.0
 11
28017.604341291921
 21
1707.749496429288
 31
0.0
  0
LINE
  5
3611
  8
YODOROGO
 10
28040.913204016892
 20
1683.7494964292871
 30
0.0
 11
28017.604341291921
 21
1683.7494964292871
 31
0.0
  0
LINE
  5
3612
  8
YODOROGO
 10
28001.604341291921
 20
1683.7494964292871
 30
0.0
 11
27977.604341291921
 21
1683.7494964292871
 31
0.0
  0
LINE
  5
3613
  8
YODOROGO
 10
28082.135520230921
 20
1707.749496429288
 30
0.0
 11
28098.135520230931
 21
1707.749496429288
 31
0.0
1001
AUTOCAD_POSTSCRIPT_FIGURE
1002
{
1000
PSFILL
1000
Grayscale
1000
Grayscale
1070
   100
1002
}
  0
LINE
  5
3614
  8
YODOROGO
 10
28401.60434129191
 20
1824.877625640306
 30
0.0
 11
28401.60434129191
 21
1752.877625640306
 31
0.0
1001
AUTOCAD_POSTSCRIPT_FIGURE
1002
{
1000
PSFILL
1000
Grayscale
1000
Grayscale
1070
   100
1002
}
  0
LINE
  5
3615
  8
YODOROGO
 10
28401.60434129191
 20
1916.8776256403071
 30
0.0
 11
28401.60434129191
 21
1984.877625640306
 31
0.0
1001
AUTOCAD_POSTSCRIPT_FIGURE
1002
{
1000
PSFILL
1000
Grayscale
1000
Grayscale
1070
   100
1002
}
  0
LINE
  5
3616
  8
YODOROGO
 10
28433.60434129191
 20
1819.7494964292871
 30
0.0
 11
28433.60434129191
 21
1747.74949642929
 31
0.0
  0
LINE
  5
3617
  8
YODOROGO
 10
28497.60434129191
 20
1707.749496429288
 30
0.0
 11
28433.60434129191
 21
1707.749496429288
 31
0.0
  0
LINE
  5
3618
  8
YODOROGO
 10
28433.60434129191
 20
1747.74949642929
 30
0.0
 11
28585.604341291921
 21
1747.74949642929
 31
0.0
  0
LINE
  5
3619
  8
YODOROGO
 10
28497.60434129191
 20
1867.7494964292871
 30
0.0
 11
28433.60434129191
 21
1867.7494964292871
 31
0.0
  0
LINE
  5
361A
  8
YODOROGO
 10
28497.60434129191
 20
1923.7494964292871
 30
0.0
 11
28497.60434129191
 21
1867.7494964292871
 31
0.0
  0
LINE
  5
361B
  8
YODOROGO
 10
28585.604341291921
 20
1987.7494964292871
 30
0.0
 11
28585.604341291921
 21
2027.749496429288
 31
0.0
  0
LINE
  5
361C
  8
YODOROGO
 10
28433.60434129191
 20
1987.7494964292871
 30
0.0
 11
28585.604341291921
 21
1987.7494964292871
 31
0.0
  0
LINE
  5
361D
  8
YODOROGO
 10
28433.60434129191
 20
1867.7494964292871
 30
0.0
 11
28433.60434129191
 21
1987.7494964292871
 31
0.0
  0
LINE
  5
361E
  8
YODOROGO
 10
29001.60434129191
 20
2027.749496429288
 30
0.0
 11
29001.60434129191
 21
1619.749496429288
 31
0.0
  0
LINE
  5
361F
  8
YODOROGO
 10
29073.604341291921
 20
1579.749496429288
 30
0.0
 11
29073.604341291921
 21
2027.749496429288
 31
0.0
  0
LINE
  5
3620
  8
YODOROGO
 10
29261.604341291921
 20
1491.749496429286
 30
0.0
 11
29261.604341291921
 21
2007.749496429288
 31
0.0
  0
LINE
  5
3621
  8
YODOROGO
 10
29197.604341291921
 20
2007.749496429288
 30
0.0
 11
29197.604341291921
 21
1491.749496429286
 31
0.0
  0
LINE
  5
3622
  8
YODOROGO
 10
29385.604341291921
 20
2027.749496429288
 30
0.0
 11
29385.604341291921
 21
1427.749496429288
 31
0.0
  0
LINE
  5
3623
  8
YODOROGO
 10
29457.604341291921
 20
1427.749496429288
 30
0.0
 11
29457.604341291921
 21
2027.749496429288
 31
0.0
  0
LINE
  5
3624
  8
YODOROGO
 10
28657.604341291921
 20
1667.749496429288
 30
0.0
 11
28657.604341291921
 21
1747.74949642929
 31
0.0
  0
LINE
  5
3625
  8
YODOROGO
 10
29885.604341291921
 20
1707.749496429288
 30
0.0
 11
29885.604341291921
 21
1667.749496429288
 31
0.0
  0
LINE
  5
3626
  8
YODOROGO
 10
29885.604341291921
 20
1707.749496429288
 30
0.0
 11
29885.604341291921
 21
1667.749496429288
 31
0.0
  0
ARC
  5
3627
  8
YODOROGO
 10
28906.911576186842
 20
1618.217864442272
 30
0.0
 40
94.705151178741644
 50
274.05244162907098
 51
0.9266642149310712
  0
ARC
  5
3628
  8
YODOROGO
 10
28909.186170719819
 20
1592.61072861044
 30
0.0
 40
164.92042356085511
 50
271.5351210653775
 51
355.52727750585052
  0
LINE
  5
3629
  8
YODOROGO
 10
28913.604341291921
 20
1523.7494964292871
 30
0.0
 11
28913.604341291921
 21
1427.749496429288
 31
0.0
  0
LINE
  5
362A
  8
YODOROGO
 10
28793.60434129191
 20
1667.749496429288
 30
0.0
 11
28657.604341291921
 21
1667.749496429288
 31
0.0
  0
LINE
  5
362B
  8
YODOROGO
 10
28793.60434129191
 20
1603.7494964292871
 30
0.0
 11
28793.60434129191
 21
1667.749496429288
 31
0.0
  0
LINE
  5
362C
  8
YODOROGO
 10
28657.604341291921
 20
1603.7494964292871
 30
0.0
 11
28793.60434129191
 21
1603.7494964292871
 31
0.0
  0
LINE
  5
362D
  8
YODOROGO
 10
28657.604341291921
 20
1523.7494964292871
 30
0.0
 11
28657.604341291921
 21
1603.7494964292871
 31
0.0
  0
LINE
  5
362E
  8
YODOROGO
 10
28793.60434129191
 20
1523.7494964292871
 30
0.0
 11
28657.604341291921
 21
1523.7494964292871
 31
0.0
  0
LINE
  5
362F
  8
YODOROGO
 10
28793.60434129191
 20
1427.749496429288
 30
0.0
 11
28793.60434129191
 21
1523.7494964292871
 31
0.0
  0
LINE
  5
3630
  8
YODOROGO
 10
29197.604341291921
 20
1491.749496429286
 30
0.0
 11
29261.604341291921
 21
1491.749496429286
 31
0.0
  0
LINE
  5
3631
  8
YODOROGO
 10
29385.604341291921
 20
1427.749496429288
 30
0.0
 11
29457.604341291921
 21
1427.749496429288
 31
0.0
  0
LINE
  5
3632
  8
YODOROGO
 10
29737.604341291921
 20
1528.4414521705639
 30
0.0
 11
29737.604341291921
 21
1427.749496429288
 31
0.0
  0
LINE
  5
3633
  8
YODOROGO
 10
29617.604341291921
 20
1427.749496429288
 30
0.0
 11
29737.604341291921
 21
1528.4414521705639
 31
0.0
  0
LINE
  5
3634
  8
YODOROGO
 10
29617.604341291921
 20
1547.749496429288
 30
0.0
 11
29617.604341291921
 21
1427.749496429288
 31
0.0
  0
LINE
  5
3635
  8
YODOROGO
 10
29712.94462869945
 20
1627.749496429288
 30
0.0
 11
29617.604341291921
 21
1547.749496429288
 31
0.0
  0
LINE
  5
3636
  8
YODOROGO
 10
29617.604341291921
 20
1627.749496429288
 30
0.0
 11
29712.94462869945
 21
1627.749496429288
 31
0.0
  0
LINE
  5
3637
  8
YODOROGO
 10
29617.604341291921
 20
1667.749496429288
 30
0.0
 11
29617.604341291921
 21
1627.749496429288
 31
0.0
  0
LINE
  5
3638
  8
YODOROGO
 10
29885.604341291921
 20
1667.749496429288
 30
0.0
 11
29617.604341291921
 21
1667.749496429288
 31
0.0
  0
LINE
  5
3639
  8
YODOROGO
 10
29917.604341291921
 20
1627.749496429288
 30
0.0
 11
29777.604341291921
 21
1627.749496429288
 31
0.0
  0
LINE
  5
363A
  8
YODOROGO
 10
29777.604341291921
 20
1562.0054374176559
 30
0.0
 11
29771.409872985321
 21
1556.807661346234
 31
0.0
  0
LINE
  5
363B
  8
YODOROGO
 10
29777.604341291921
 20
1627.749496429288
 30
0.0
 11
29777.604341291921
 21
1562.0054374176559
 31
0.0
  0
LINE
  5
363C
  8
YODOROGO
 10
29737.604341291921
 20
1528.4414521705639
 30
0.0
 11
29737.604341291921
 21
1427.749496429288
 31
0.0
  0
LINE
  5
363D
  8
YODOROGO
 10
29617.604341291921
 20
1427.749496429288
 30
0.0
 11
29737.604341291921
 21
1528.4414521705639
 31
0.0
  0
LINE
  5
363E
  8
YODOROGO
 10
29617.604341291921
 20
1547.749496429288
 30
0.0
 11
29617.604341291921
 21
1427.749496429288
 31
0.0
  0
LINE
  5
363F
  8
YODOROGO
 10
29712.94462869945
 20
1627.749496429288
 30
0.0
 11
29617.604341291921
 21
1547.749496429288
 31
0.0
  0
LINE
  5
3640
  8
YODOROGO
 10
29617.604341291921
 20
1627.749496429288
 30
0.0
 11
29712.94462869945
 21
1627.749496429288
 31
0.0
  0
LINE
  5
3641
  8
YODOROGO
 10
29617.604341291921
 20
1667.749496429288
 30
0.0
 11
29617.604341291921
 21
1627.749496429288
 31
0.0
  0
LINE
  5
3642
  8
YODOROGO
 10
29885.604341291921
 20
1667.749496429288
 30
0.0
 11
29617.604341291921
 21
1667.749496429288
 31
0.0
  0
LINE
  5
3643
  8
YODOROGO
 10
28793.60434129191
 20
1747.74949642929
 30
0.0
 11
28793.60434129191
 21
1819.7494964292871
 31
0.0
  0
LINE
  5
3644
  8
YODOROGO
 10
28657.604341291921
 20
1747.74949642929
 30
0.0
 11
28793.60434129191
 21
1747.74949642929
 31
0.0
  0
LINE
  5
3645
  8
YODOROGO
 10
28729.604341291921
 20
1867.7494964292871
 30
0.0
 11
28729.604341291921
 21
1923.7494964292871
 31
0.0
  0
LINE
  5
3646
  8
YODOROGO
 10
28793.60434129191
 20
1867.7494964292871
 30
0.0
 11
28729.604341291921
 21
1867.7494964292871
 31
0.0
  0
LINE
  5
3647
  8
YODOROGO
 10
28793.60434129191
 20
1947.749496429288
 30
0.0
 11
28793.60434129191
 21
1867.7494964292871
 31
0.0
  0
ARC
  5
3648
  8
YODOROGO
 10
28753.60434129191
 20
1947.749496429288
 30
0.0
 40
40.0
 50
0.0
 51
90.0
  0
LINE
  5
3649
  8
YODOROGO
 10
28657.604341291921
 20
1987.7494964292871
 30
0.0
 11
28753.60434129191
 21
1987.7494964292871
 31
0.0
  0
LINE
  5
364A
  8
YODOROGO
 10
28657.604341291921
 20
2027.749496429288
 30
0.0
 11
28657.604341291921
 21
1987.7494964292871
 31
0.0
  0
LINE
  5
364B
  8
YODOROGO
 10
29073.604341291921
 20
2027.749496429288
 30
0.0
 11
29001.60434129191
 21
2027.749496429288
 31
0.0
  0
LINE
  5
364C
  8
YODOROGO
 10
29261.604341291921
 20
2007.749496429288
 30
0.0
 11
29197.604341291921
 21
2007.749496429288
 31
0.0
  0
LINE
  5
364D
  8
YODOROGO
 10
29457.604341291921
 20
2027.749496429288
 30
0.0
 11
29385.604341291921
 21
2027.749496429288
 31
0.0
  0
LINE
  5
364E
  8
YODOROGO
 10
29673.604341291921
 20
1707.749496429288
 30
0.0
 11
29673.604341291921
 21
1771.7494964292871
 31
0.0
1001
AUTOCAD_POSTSCRIPT_FIGURE
1002
{
1000
PSFILL
1000
Grayscale
1000
Grayscale
1070
    25
1002
}
  0
LINE
  5
364F
  8
YODOROGO
 10
29617.604341291921
 20
1707.749496429288
 30
0.0
 11
29673.604341291921
 21
1707.749496429288
 31
0.0
1001
AUTOCAD_POSTSCRIPT_FIGURE
1002
{
1000
PSFILL
1000
Grayscale
1000
Grayscale
1070
    25
1002
}
  0
LINE
  5
3650
  8
YODOROGO
 10
29617.604341291921
 20
1819.7494964292871
 30
0.0
 11
29617.604341291921
 21
1707.749496429288
 31
0.0
1001
AUTOCAD_POSTSCRIPT_FIGURE
1002
{
1000
PSFILL
1000
Grayscale
1000
Grayscale
1070
    25
1002
}
  0
LINE
  5
3651
  8
YODOROGO
 10
29765.604341291921
 20
1819.7494964292871
 30
0.0
 11
29617.604341291921
 21
1819.7494964292871
 31
0.0
1001
AUTOCAD_POSTSCRIPT_FIGURE
1002
{
1000
PSFILL
1000
Grayscale
1000
Grayscale
1070
    25
1002
}
  0
LINE
  5
3652
  8
YODOROGO
 10
29765.604341291921
 20
1859.749496429288
 30
0.0
 11
29765.604341291921
 21
1819.7494964292871
 31
0.0
1001
AUTOCAD_POSTSCRIPT_FIGURE
1002
{
1000
PSFILL
1000
Grayscale
1000
Grayscale
1070
    25
1002
}
  0
LINE
  5
3653
  8
YODOROGO
 10
29617.604341291921
 20
1859.749496429288
 30
0.0
 11
29765.604341291921
 21
1859.749496429288
 31
0.0
1001
AUTOCAD_POSTSCRIPT_FIGURE
1002
{
1000
PSFILL
1000
Grayscale
1000
Grayscale
1070
    25
1002
}
  0
LINE
  5
3654
  8
YODOROGO
 10
29617.604341291921
 20
1907.7494964292871
 30
0.0
 11
29617.604341291921
 21
1859.749496429288
 31
0.0
1001
AUTOCAD_POSTSCRIPT_FIGURE
1002
{
1000
PSFILL
1000
Grayscale
1000
Grayscale
1070
    25
1002
}
  0
LINE
  5
3655
  8
YODOROGO
 10
29765.604341291921
 20
1907.7494964292871
 30
0.0
 11
29617.604341291921
 21
1907.7494964292871
 31
0.0
1001
AUTOCAD_POSTSCRIPT_FIGURE
1002
{
1000
PSFILL
1000
Grayscale
1000
Grayscale
1070
    25
1002
}
  0
LINE
  5
3656
  8
YODOROGO
 10
29765.604341291921
 20
1947.749496429288
 30
0.0
 11
29765.604341291921
 21
1907.7494964292871
 31
0.0
1001
AUTOCAD_POSTSCRIPT_FIGURE
1002
{
1000
PSFILL
1000
Grayscale
1000
Grayscale
1070
    25
1002
}
  0
LINE
  5
3657
  8
YODOROGO
 10
29617.604341291921
 20
1947.749496429288
 30
0.0
 11
29765.604341291921
 21
1947.749496429288
 31
0.0
1001
AUTOCAD_POSTSCRIPT_FIGURE
1002
{
1000
PSFILL
1000
Grayscale
1000
Grayscale
1070
    25
1002
}
  0
LINE
  5
3658
  8
YODOROGO
 10
29617.604341291921
 20
2027.749496429288
 30
0.0
 11
29617.604341291921
 21
1947.749496429288
 31
0.0
1001
AUTOCAD_POSTSCRIPT_FIGURE
1002
{
1000
PSFILL
1000
Grayscale
1000
Grayscale
1070
    25
1002
}
  0
LINE
  5
3659
  8
YODOROGO
 10
29665.604341291921
 20
2027.749496429288
 30
0.0
 11
29617.604341291921
 21
2027.749496429288
 31
0.0
1001
AUTOCAD_POSTSCRIPT_FIGURE
1002
{
1000
PSFILL
1000
Grayscale
1000
Grayscale
1070
    25
1002
}
  0
LINE
  5
365A
  8
YODOROGO
 10
29665.604341291921
 20
1995.7494964292871
 30
0.0
 11
29665.604341291921
 21
2027.749496429288
 31
0.0
1001
AUTOCAD_POSTSCRIPT_FIGURE
1002
{
1000
PSFILL
1000
Grayscale
1000
Grayscale
1070
    25
1002
}
  0
LINE
  5
365B
  8
YODOROGO
 10
29765.604341291921
 20
1995.7494964292871
 30
0.0
 11
29665.604341291921
 21
1995.7494964292871
 31
0.0
1001
AUTOCAD_POSTSCRIPT_FIGURE
1002
{
1000
PSFILL
1000
Grayscale
1000
Grayscale
1070
    25
1002
}
  0
LINE
  5
365C
  8
YODOROGO
 10
29765.604341291921
 20
2027.749496429288
 30
0.0
 11
29765.604341291921
 21
1995.7494964292871
 31
0.0
1001
AUTOCAD_POSTSCRIPT_FIGURE
1002
{
1000
PSFILL
1000
Grayscale
1000
Grayscale
1070
    25
1002
}
  0
LINE
  5
365D
  8
YODOROGO
 10
29829.604341291921
 20
2027.749496429288
 30
0.0
 11
29765.604341291921
 21
2027.749496429288
 31
0.0
1001
AUTOCAD_POSTSCRIPT_FIGURE
1002
{
1000
PSFILL
1000
Grayscale
1000
Grayscale
1070
    25
1002
}
  0
LINE
  5
365E
  8
YODOROGO
 10
29829.604341291921
 20
1995.7494964292871
 30
0.0
 11
29829.604341291921
 21
2027.749496429288
 31
0.0
1001
AUTOCAD_POSTSCRIPT_FIGURE
1002
{
1000
PSFILL
1000
Grayscale
1000
Grayscale
1070
    25
1002
}
  0
LINE
  5
365F
  8
YODOROGO
 10
29829.604341291921
 20
1907.7494964292871
 30
0.0
 11
29829.604341291921
 21
1947.749496429288
 31
0.0
1001
AUTOCAD_POSTSCRIPT_FIGURE
1002
{
1000
PSFILL
1000
Grayscale
1000
Grayscale
1070
    25
1002
}
  0
LINE
  5
3660
  8
YODOROGO
 10
29829.604341291921
 20
1819.7494964292871
 30
0.0
 11
29829.604341291921
 21
1859.749496429288
 31
0.0
1001
AUTOCAD_POSTSCRIPT_FIGURE
1002
{
1000
PSFILL
1000
Grayscale
1000
Grayscale
1070
    25
1002
}
  0
LINE
  5
3661
  8
YODOROGO
 10
29921.60434129191
 20
1771.7494964292871
 30
0.0
 11
29921.60434129191
 21
1707.749496429288
 31
0.0
1001
AUTOCAD_POSTSCRIPT_FIGURE
1002
{
1000
PSFILL
1000
Grayscale
1000
Grayscale
1070
    25
1002
}
  0
LINE
  5
3662
  8
YODOROGO
 10
29829.604341291921
 20
1771.7494964292871
 30
0.0
 11
29921.60434129191
 21
1771.7494964292871
 31
0.0
1001
AUTOCAD_POSTSCRIPT_FIGURE
1002
{
1000
PSFILL
1000
Grayscale
1000
Grayscale
1070
    25
1002
}
  0
LINE
  5
3663
  8
YODOROGO
 10
29829.604341291921
 20
1707.749496429288
 30
0.0
 11
29829.604341291921
 21
1771.7494964292871
 31
0.0
1001
AUTOCAD_POSTSCRIPT_FIGURE
1002
{
1000
PSFILL
1000
Grayscale
1000
Grayscale
1070
    25
1002
}
  0
LINE
  5
3664
  8
YODOROGO
 10
29765.604341291921
 20
1707.749496429288
 30
0.0
 11
29829.604341291921
 21
1707.749496429288
 31
0.0
1001
AUTOCAD_POSTSCRIPT_FIGURE
1002
{
1000
PSFILL
1000
Grayscale
1000
Grayscale
1070
    25
1002
}
  0
LINE
  5
3665
  8
YODOROGO
 10
29765.604341291921
 20
1771.7494964292871
 30
0.0
 11
29765.604341291921
 21
1707.749496429288
 31
0.0
1001
AUTOCAD_POSTSCRIPT_FIGURE
1002
{
1000
PSFILL
1000
Grayscale
1000
Grayscale
1070
    25
1002
}
  0
LINE
  5
3666
  8
YODOROGO
 10
29673.604341291921
 20
1771.7494964292871
 30
0.0
 11
29765.604341291921
 21
1771.7494964292871
 31
0.0
1001
AUTOCAD_POSTSCRIPT_FIGURE
1002
{
1000
PSFILL
1000
Grayscale
1000
Grayscale
1070
    25
1002
}
  0
ARC
  5
3667
  8
YODOROGO
 10
31059.517893357912
 20
1602.6807375155761
 30
0.0
 40
178.22128111072141
 50
281.02627495425338
 51
357.77113575573799
  0
LINE
  5
3668
  8
YODOROGO
 10
31413.604341291921
 20
1907.7494964292871
 30
0.0
 11
31165.604341291921
 21
1907.7494964292871
 31
0.0
  0
LINE
  5
3669
  8
YODOROGO
 10
31413.604341291921
 20
2027.749496429288
 30
0.0
 11
31165.604341291921
 21
2027.749496429288
 31
0.0
  0
LINE
  5
366A
  8
YODOROGO
 10
31165.604341291921
 20
1963.749496429286
 30
0.0
 11
31413.604341291921
 21
1963.749496429286
 31
0.0
  0
LINE
  5
366B
  8
YODOROGO
 10
30791.604341291921
 20
1563.7494964292871
 30
0.0
 11
30791.604341291921
 21
1755.7494964292871
 31
0.0
  0
LINE
  5
366C
  8
YODOROGO
 10
30763.604341291921
 20
1691.749496429288
 30
0.0
 11
30763.604341291921
 21
1563.7494964292871
 31
0.0
  0
LINE
  5
366D
  8
YODOROGO
 10
30723.604341291921
 20
1491.749496429288
 30
0.0
 11
30723.604341291921
 21
1691.749496429288
 31
0.0
  0
LINE
  5
366E
  8
YODOROGO
 10
30899.604341291932
 20
1691.749496429288
 30
0.0
 11
30899.604341291932
 21
1491.749496429288
 31
0.0
  0
LINE
  5
366F
  8
YODOROGO
 10
30859.604341291932
 20
1563.7494964292871
 30
0.0
 11
30859.604341291932
 21
1691.749496429288
 31
0.0
  0
LINE
  5
3670
  8
YODOROGO
 10
30831.604341291921
 20
1755.7494964292871
 30
0.0
 11
30831.604341291921
 21
1563.7494964292871
 31
0.0
  0
LINE
  5
3671
  8
YODOROGO
 10
30973.604341291921
 20
2027.749496429288
 30
0.0
 11
30973.604341291921
 21
1467.749496429288
 31
0.0
  0
LINE
  5
3672
  8
YODOROGO
 10
30645.604341291921
 20
1427.749496429288
 30
0.0
 11
30645.604341291921
 21
2027.749496429288
 31
0.0
  0
LINE
  5
3673
  8
YODOROGO
 10
30697.604341291932
 20
1963.749496429286
 30
0.0
 11
30697.604341291932
 21
1427.749496429288
 31
0.0
  0
LINE
  5
3674
  8
YODOROGO
 10
30925.604341291921
 20
1547.749496429288
 30
0.0
 11
30925.604341291921
 21
1963.749496429286
 31
0.0
  0
LINE
  5
3675
  8
YODOROGO
 10
30381.604341291932
 20
1627.749496429288
 30
0.0
 11
30381.604341291932
 21
1679.749496429288
 31
0.0
  0
LINE
  5
3676
  8
YODOROGO
 10
30617.604341291921
 20
1679.749496429288
 30
0.0
 11
30617.604341291921
 21
1627.749496429288
 31
0.0
  0
LINE
  5
3677
  8
YODOROGO
 10
31165.604341291921
 20
1907.7494964292871
 30
0.0
 11
31165.604341291921
 21
1635.7494964292871
 31
0.0
  0
LINE
  5
3678
  8
YODOROGO
 10
29949.60434129191
 20
1667.749496429288
 30
0.0
 11
29949.60434129191
 21
1707.749496429288
 31
0.0
  0
LINE
  5
3679
  8
YODOROGO
 10
29949.60434129191
 20
1667.749496429288
 30
0.0
 11
29949.60434129191
 21
1707.749496429288
 31
0.0
  0
ARC
  5
367A
  8
YODOROGO
 10
30537.604341291921
 20
1507.749496429288
 30
0.0
 40
80.0
 50
270.0
 51
0.0
  0
LINE
  5
367B
  8
YODOROGO
 10
30569.604341291921
 20
1599.7494964292871
 30
0.0
 11
30617.604341291921
 21
1599.7494964292871
 31
0.0
  0
LINE
  5
367C
  8
YODOROGO
 10
30617.604341291921
 20
1627.749496429288
 30
0.0
 11
30529.604341291939
 21
1627.749496429288
 31
0.0
  0
LINE
  5
367D
  8
YODOROGO
 10
30217.604341291921
 20
1667.749496429288
 30
0.0
 11
29949.60434129191
 21
1667.749496429288
 31
0.0
  0
LINE
  5
367E
  8
YODOROGO
 10
30217.604341291921
 20
1627.749496429288
 30
0.0
 11
30217.604341291921
 21
1667.749496429288
 31
0.0
  0
LINE
  5
367F
  8
YODOROGO
 10
30017.604341291921
 20
1627.749496429288
 30
0.0
 11
30217.604341291921
 21
1627.749496429288
 31
0.0
  0
ARC
  5
3680
  8
YODOROGO
 10
30230.05882870136
 20
1868.885714952901
 30
0.0
 40
321.37763628522822
 50
228.6181454618993
 51
245.660289248906
  0
LINE
  5
3681
  8
YODOROGO
 10
30105.604341291921
 20
1603.7494964292871
 30
0.0
 11
30097.60434129195
 21
1576.0728158699001
 31
0.0
  0
LINE
  5
3682
  8
YODOROGO
 10
30189.604341291921
 20
1603.7494964292871
 30
0.0
 11
30105.604341291921
 21
1603.7494964292871
 31
0.0
  0
LINE
  5
3683
  8
YODOROGO
 10
30177.604341291921
 20
1551.817722473427
 30
0.0
 11
30189.604341291921
 21
1603.7494964292871
 31
0.0
  0
ARC
  5
3684
  8
YODOROGO
 10
30230.05882870045
 20
1868.885714953002
 30
0.0
 40
321.37763628529081
 50
260.60629297969911
 51
267.77903556555862
  0
LINE
  5
3685
  8
YODOROGO
 10
30217.604341291921
 20
1427.749496429285
 30
0.0
 11
30217.604341291921
 21
1547.749496429288
 31
0.0
  0
LINE
  5
3686
  8
YODOROGO
 10
29937.604341291932
 20
1481.3393349155101
 30
0.0
 11
29937.604341291921
 21
1594.531090531141
 31
0.0
  0
LINE
  5
3687
  8
YODOROGO
 10
30217.604341291921
 20
1667.749496429288
 30
0.0
 11
29949.60434129191
 21
1667.749496429288
 31
0.0
  0
LINE
  5
3688
  8
YODOROGO
 10
30217.604341291921
 20
1627.749496429288
 30
0.0
 11
30217.604341291921
 21
1667.749496429288
 31
0.0
  0
LINE
  5
3689
  8
YODOROGO
 10
30017.604341291921
 20
1627.749496429288
 30
0.0
 11
30217.604341291921
 21
1627.749496429288
 31
0.0
  0
ARC
  5
368A
  8
YODOROGO
 10
30230.05882870136
 20
1868.885714952901
 30
0.0
 40
321.37763628522822
 50
228.6181454618993
 51
245.660289248906
  0
LINE
  5
368B
  8
YODOROGO
 10
30105.604341291921
 20
1603.7494964292871
 30
0.0
 11
30097.60434129195
 21
1576.0728158699001
 31
0.0
  0
LINE
  5
368C
  8
YODOROGO
 10
30189.604341291921
 20
1603.7494964292871
 30
0.0
 11
30105.604341291921
 21
1603.7494964292871
 31
0.0
  0
LINE
  5
368D
  8
YODOROGO
 10
30177.604341291921
 20
1551.817722473427
 30
0.0
 11
30189.604341291921
 21
1603.7494964292871
 31
0.0
  0
ARC
  5
368E
  8
YODOROGO
 10
30230.05882870045
 20
1868.885714953002
 30
0.0
 40
321.37763628529081
 50
260.60629297969911
 51
267.77903556555862
  0
LINE
  5
368F
  8
YODOROGO
 10
30217.604341291921
 20
1427.749496429285
 30
0.0
 11
30217.604341291921
 21
1547.749496429288
 31
0.0
  0
LINE
  5
3690
  8
YODOROGO
 10
29937.604341291932
 20
1481.3393349155101
 30
0.0
 11
29937.604341291921
 21
1594.531090531141
 31
0.0
  0
LINE
  5
3691
  8
YODOROGO
 10
30433.604341291921
 20
1573.749496429288
 30
0.0
 11
30381.604341291932
 21
1573.749496429288
 31
0.0
  0
LINE
  5
3692
  8
YODOROGO
 10
30433.604341291921
 20
1601.749496429285
 30
0.0
 11
30433.604341291921
 21
1573.749496429288
 31
0.0
  0
LINE
  5
3693
  8
YODOROGO
 10
30381.604341291932
 20
1601.749496429285
 30
0.0
 11
30433.604341291921
 21
1601.749496429285
 31
0.0
  0
LINE
  5
3694
  8
YODOROGO
 10
30381.604341291932
 20
1573.749496429288
 30
0.0
 11
30381.604341291932
 21
1601.749496429285
 31
0.0
  0
LINE
  5
3695
  8
YODOROGO
 10
30429.604341291921
 20
1577.7494964292871
 30
0.0
 11
30385.604341291921
 21
1577.7494964292871
 31
0.0
  0
LINE
  5
3696
  8
YODOROGO
 10
30429.604341291921
 20
1597.749496429288
 30
0.0
 11
30429.604341291921
 21
1577.7494964292871
 31
0.0
  0
LINE
  5
3697
  8
YODOROGO
 10
30385.604341291921
 20
1597.749496429288
 30
0.0
 11
30429.604341291921
 21
1597.749496429288
 31
0.0
  0
LINE
  5
3698
  8
YODOROGO
 10
30385.604341291921
 20
1577.7494964292871
 30
0.0
 11
30385.604341291921
 21
1597.749496429288
 31
0.0
  0
LINE
  5
3699
  8
YODOROGO
 10
30425.604341291921
 20
1581.749496429286
 30
0.0
 11
30389.604341291921
 21
1581.749496429286
 31
0.0
  0
LINE
  5
369A
  8
YODOROGO
 10
30425.604341291921
 20
1593.749496429288
 30
0.0
 11
30425.604341291921
 21
1581.749496429286
 31
0.0
  0
LINE
  5
369B
  8
YODOROGO
 10
30389.604341291921
 20
1593.749496429288
 30
0.0
 11
30425.604341291921
 21
1593.749496429288
 31
0.0
  0
LINE
  5
369C
  8
YODOROGO
 10
30389.604341291921
 20
1581.749496429286
 30
0.0
 11
30389.604341291921
 21
1593.749496429288
 31
0.0
  0
LINE
  5
369D
  8
YODOROGO
 10
30421.604341291932
 20
1585.7494964292871
 30
0.0
 11
30393.604341291921
 21
1585.7494964292871
 31
0.0
  0
LINE
  5
369E
  8
YODOROGO
 10
30421.604341291932
 20
1589.749496429288
 30
0.0
 11
30421.604341291932
 21
1585.7494964292871
 31
0.0
  0
LINE
  5
369F
  8
YODOROGO
 10
30393.604341291921
 20
1589.749496429288
 30
0.0
 11
30421.604341291932
 21
1589.749496429288
 31
0.0
  0
LINE
  5
36A0
  8
YODOROGO
 10
30393.604341291921
 20
1585.7494964292871
 30
0.0
 11
30393.604341291921
 21
1589.749496429288
 31
0.0
  0
LINE
  5
36A1
  8
YODOROGO
 10
30465.604341291921
 20
1627.749496429288
 30
0.0
 11
30381.604341291932
 21
1627.749496429288
 31
0.0
  0
LINE
  5
36A2
  8
YODOROGO
 10
30465.604341291921
 20
1547.749496429288
 30
0.0
 11
30465.604341291921
 21
1627.749496429288
 31
0.0
  0
LINE
  5
36A3
  8
YODOROGO
 10
30381.604341291932
 20
1547.749496429288
 30
0.0
 11
30465.604341291921
 21
1547.749496429288
 31
0.0
  0
LINE
  5
36A4
  8
YODOROGO
 10
30381.604341291932
 20
1427.749496429288
 30
0.0
 11
30381.604341291932
 21
1547.749496429288
 31
0.0
  0
LINE
  5
36A5
  8
YODOROGO
 10
30537.604341291921
 20
1427.749496429288
 30
0.0
 11
30381.604341291932
 21
1427.749496429288
 31
0.0
  0
LINE
  5
36A6
  8
YODOROGO
 10
30569.604341291921
 20
1571.749496429285
 30
0.0
 11
30569.604341291921
 21
1599.7494964292871
 31
0.0
  0
ARC
  5
36A7
  8
YODOROGO
 10
30545.604341291921
 20
1571.749496429291
 30
0.0
 40
24.000000000003752
 50
270.0
 51
359.99999999998772
  0
LINE
  5
36A8
  8
YODOROGO
 10
30529.604341291939
 20
1547.749496429288
 30
0.0
 11
30545.604341291921
 21
1547.749496429288
 31
0.0
  0
LINE
  5
36A9
  8
YODOROGO
 10
30529.604341291939
 20
1627.749496429288
 30
0.0
 11
30529.604341291939
 21
1547.749496429288
 31
0.0
  0
LINE
  5
36AA
  8
YODOROGO
 10
30899.604341291932
 20
1547.749496429288
 30
0.0
 11
30925.604341291921
 21
1547.749496429288
 31
0.0
  0
LINE
  5
36AB
  8
YODOROGO
 10
30933.604341291921
 20
1427.749496429288
 30
0.0
 11
30899.604341291932
 21
1427.749496429288
 31
0.0
  0
LINE
  5
36AC
  8
YODOROGO
 10
30763.604341291921
 20
1563.7494964292871
 30
0.0
 11
30791.604341291921
 21
1563.7494964292871
 31
0.0
  0
LINE
  5
36AD
  8
YODOROGO
 10
30899.604341291932
 20
1491.749496429288
 30
0.0
 11
30723.604341291921
 21
1491.749496429288
 31
0.0
  0
LINE
  5
36AE
  8
YODOROGO
 10
30831.604341291921
 20
1563.7494964292871
 30
0.0
 11
30859.604341291932
 21
1563.7494964292871
 31
0.0
  0
LINE
  5
36AF
  8
YODOROGO
 10
30899.604341291932
 20
1427.749496429288
 30
0.0
 11
30899.604341291932
 21
1547.749496429288
 31
0.0
  0
LINE
  5
36B0
  8
YODOROGO
 10
30697.604341291932
 20
1427.749496429288
 30
0.0
 11
30645.604341291921
 21
1427.749496429288
 31
0.0
  0
LINE
  5
36B1
  8
YODOROGO
 10
30617.604341291921
 20
1599.7494964292871
 30
0.0
 11
30617.604341291921
 21
1507.749496429288
 31
0.0
  0
ARC
  5
36B2
  8
YODOROGO
 10
30933.604341291921
 20
1467.749496429288
 30
0.0
 40
40.0
 50
270.0
 51
0.0
  0
LINE
  5
36B3
  8
YODOROGO
 10
31093.604341291921
 20
1523.7494964292871
 30
0.0
 11
31093.604341291921
 21
1427.749496429288
 31
0.0
  0
ARC
  5
36B4
  8
YODOROGO
 10
31039.721395566768
 20
1637.5313901097329
 30
0.0
 40
125.8955565916754
 50
295.34052442160112
 51
359.18902303418679
  0
LINE
  5
36B5
  8
YODOROGO
 10
30617.604341291921
 20
1859.749496429288
 30
0.0
 11
30497.604341291921
 21
1939.749496429288
 31
0.0
  0
LINE
  5
36B6
  8
YODOROGO
 10
30497.604341291921
 20
2027.749496429288
 30
0.0
 11
30617.604341291921
 21
1947.749496429288
 31
0.0
  0
LINE
  5
36B7
  8
YODOROGO
 10
30529.604341291939
 20
1679.749496429288
 30
0.0
 11
30617.604341291921
 21
1679.749496429288
 31
0.0
  0
LINE
  5
36B8
  8
YODOROGO
 10
30617.604341291921
 20
1735.7494964292871
 30
0.0
 11
30529.604341291939
 21
1735.7494964292871
 31
0.0
  0
LINE
  5
36B9
  8
YODOROGO
 10
30381.604341291932
 20
1795.7494964292871
 30
0.0
 11
30617.604341291921
 21
1795.7494964292871
 31
0.0
  0
LINE
  5
36BA
  8
YODOROGO
 10
30081.604341291921
 20
2027.749496429288
 30
0.0
 11
30021.604341291921
 21
2027.749496429288
 31
0.0
  0
LINE
  5
36BB
  8
YODOROGO
 10
30081.604341291921
 20
1827.7494964292871
 30
0.0
 11
30081.604341291921
 21
2027.749496429288
 31
0.0
  0
LINE
  5
36BC
  8
YODOROGO
 10
30021.604341291921
 20
1827.7494964292871
 30
0.0
 11
30081.604341291921
 21
1827.7494964292871
 31
0.0
  0
LINE
  5
36BD
  8
YODOROGO
 10
30021.604341291921
 20
2027.749496429288
 30
0.0
 11
30021.604341291921
 21
1827.7494964292871
 31
0.0
  0
LINE
  5
36BE
  8
YODOROGO
 10
30161.604341291921
 20
2027.749496429288
 30
0.0
 11
30217.604341291921
 21
2027.749496429288
 31
0.0
  0
LINE
  5
36BF
  8
YODOROGO
 10
30161.604341291921
 20
1811.749496429288
 30
0.0
 11
30161.604341291921
 21
2027.749496429288
 31
0.0
  0
ARC
  5
36C0
  8
YODOROGO
 10
30121.604341291921
 20
1811.749496429288
 30
0.0
 40
40.0
 50
270.0
 51
0.0
  0
LINE
  5
36C1
  8
YODOROGO
 10
30021.604341291921
 20
1771.7494964292871
 30
0.0
 11
30121.604341291921
 21
1771.7494964292871
 31
0.0
  0
LINE
  5
36C2
  8
YODOROGO
 10
30021.604341291921
 20
1707.749496429288
 30
0.0
 11
30021.604341291921
 21
1771.7494964292871
 31
0.0
  0
LINE
  5
36C3
  8
YODOROGO
 10
30137.604341291921
 20
1707.749496429288
 30
0.0
 11
30021.604341291921
 21
1707.749496429288
 31
0.0
  0
ARC
  5
36C4
  8
YODOROGO
 10
30137.604341291921
 20
1787.7494964292871
 30
0.0
 40
80.0
 50
270.0
 51
0.0
  0
LINE
  5
36C5
  8
YODOROGO
 10
30217.604341291921
 20
2027.749496429288
 30
0.0
 11
30217.604341291921
 21
1787.7494964292871
 31
0.0
  0
LINE
  5
36C6
  8
YODOROGO
 10
29977.604341291921
 20
1947.749496429288
 30
0.0
 11
29977.604341291921
 21
1995.7494964292871
 31
0.0
1001
AUTOCAD_POSTSCRIPT_FIGURE
1002
{
1000
PSFILL
1000
Grayscale
1000
Grayscale
1070
    25
1002
}
  0
LINE
  5
36C7
  8
YODOROGO
 10
29977.604341291921
 20
1859.749496429288
 30
0.0
 11
29977.604341291921
 21
1907.7494964292871
 31
0.0
1001
AUTOCAD_POSTSCRIPT_FIGURE
1002
{
1000
PSFILL
1000
Grayscale
1000
Grayscale
1070
    25
1002
}
  0
LINE
  5
36C8
  8
YODOROGO
 10
29977.604341291921
 20
1707.749496429288
 30
0.0
 11
29977.604341291921
 21
1819.7494964292871
 31
0.0
1001
AUTOCAD_POSTSCRIPT_FIGURE
1002
{
1000
PSFILL
1000
Grayscale
1000
Grayscale
1070
    25
1002
}
  0
LINE
  5
36C9
  8
YODOROGO
 10
30381.604341291932
 20
1907.7494964292871
 30
0.0
 11
30497.604341291921
 21
2027.749496429288
 31
0.0
  0
LINE
  5
36CA
  8
YODOROGO
 10
30381.604341291932
 20
1819.7494964292871
 30
0.0
 11
30381.604341291932
 21
1907.7494964292871
 31
0.0
  0
LINE
  5
36CB
  8
YODOROGO
 10
30497.604341291921
 20
1939.749496429288
 30
0.0
 11
30381.604341291932
 21
1819.7494964292871
 31
0.0
  0
LINE
  5
36CC
  8
YODOROGO
 10
30465.604341291921
 20
1679.749496429288
 30
0.0
 11
30465.604341291921
 21
1735.7494964292871
 31
0.0
  0
LINE
  5
36CD
  8
YODOROGO
 10
30381.604341291932
 20
1679.749496429288
 30
0.0
 11
30465.604341291921
 21
1679.749496429288
 31
0.0
  0
LINE
  5
36CE
  8
YODOROGO
 10
30529.604341291939
 20
1735.7494964292871
 30
0.0
 11
30529.604341291939
 21
1679.749496429288
 31
0.0
  0
LINE
  5
36CF
  8
YODOROGO
 10
30381.604341291932
 20
1735.7494964292871
 30
0.0
 11
30381.604341291932
 21
1795.7494964292871
 31
0.0
  0
LINE
  5
36D0
  8
YODOROGO
 10
30465.604341291921
 20
1735.7494964292871
 30
0.0
 11
30381.604341291932
 21
1735.7494964292871
 31
0.0
  0
LINE
  5
36D1
  8
YODOROGO
 10
30645.604341291921
 20
2027.749496429288
 30
0.0
 11
30973.604341291921
 21
2027.749496429288
 31
0.0
  0
LINE
  5
36D2
  8
YODOROGO
 10
30925.604341291921
 20
1963.749496429286
 30
0.0
 11
30697.604341291932
 21
1963.749496429286
 31
0.0
  0
LINE
  5
36D3
  8
YODOROGO
 10
30873.604341291921
 20
1819.7494964292871
 30
0.0
 11
30899.604341291932
 21
1819.7494964292871
 31
0.0
  0
LINE
  5
36D4
  8
YODOROGO
 10
30899.604341291932
 20
1939.749496429288
 30
0.0
 11
30873.604341291921
 21
1819.7494964292871
 31
0.0
  0
LINE
  5
36D5
  8
YODOROGO
 10
30851.604341291939
 20
1939.749496429288
 30
0.0
 11
30899.604341291932
 21
1939.749496429288
 31
0.0
  0
LINE
  5
36D6
  8
YODOROGO
 10
30825.604341291921
 20
1819.7494964292871
 30
0.0
 11
30851.604341291939
 21
1939.749496429288
 31
0.0
  0
LINE
  5
36D7
  8
YODOROGO
 10
30797.604341291921
 20
1819.7494964292871
 30
0.0
 11
30825.604341291921
 21
1819.7494964292871
 31
0.0
  0
LINE
  5
36D8
  8
YODOROGO
 10
30771.604341291939
 20
1939.749496429288
 30
0.0
 11
30797.604341291921
 21
1819.7494964292871
 31
0.0
  0
LINE
  5
36D9
  8
YODOROGO
 10
30723.604341291921
 20
1939.749496429288
 30
0.0
 11
30771.604341291939
 21
1939.749496429288
 31
0.0
  0
LINE
  5
36DA
  8
YODOROGO
 10
30749.604341291921
 20
1819.7494964292871
 30
0.0
 11
30723.604341291921
 21
1939.749496429288
 31
0.0
  0
LINE
  5
36DB
  8
YODOROGO
 10
30723.604341291921
 20
1819.7494964292871
 30
0.0
 11
30749.604341291921
 21
1819.7494964292871
 31
0.0
  0
LINE
  5
36DC
  8
YODOROGO
 10
30723.604341291921
 20
1755.7494964292871
 30
0.0
 11
30723.604341291921
 21
1819.7494964292871
 31
0.0
  0
LINE
  5
36DD
  8
YODOROGO
 10
30899.604341291932
 20
1755.7494964292871
 30
0.0
 11
30723.604341291921
 21
1755.7494964292871
 31
0.0
  0
LINE
  5
36DE
  8
YODOROGO
 10
30899.604341291932
 20
1819.7494964292871
 30
0.0
 11
30899.604341291932
 21
1755.7494964292871
 31
0.0
  0
LINE
  5
36DF
  8
YODOROGO
 10
30617.604341291921
 20
1947.749496429288
 30
0.0
 11
30617.604341291921
 21
1859.749496429288
 31
0.0
  0
LINE
  5
36E0
  8
YODOROGO
 10
30791.604341291921
 20
1755.7494964292871
 30
0.0
 11
30831.604341291921
 21
1755.7494964292871
 31
0.0
  0
LINE
  5
36E1
  8
YODOROGO
 10
30723.604341291921
 20
1691.749496429288
 30
0.0
 11
30763.604341291921
 21
1691.749496429288
 31
0.0
  0
LINE
  5
36E2
  8
YODOROGO
 10
30859.604341291932
 20
1691.749496429288
 30
0.0
 11
30899.604341291932
 21
1691.749496429288
 31
0.0
  0
LINE
  5
36E3
  8
YODOROGO
 10
30617.604341291921
 20
1795.7494964292871
 30
0.0
 11
30617.604341291921
 21
1735.7494964292871
 31
0.0
  0
LINE
  5
36E4
  8
YODOROGO
 10
31165.604341291921
 20
2027.749496429288
 30
0.0
 11
31165.604341291921
 21
1963.749496429286
 31
0.0
  0
LINE
  5
36E5
  8
YODOROGO
 10
31533.604341291921
 20
1595.7494964292871
 30
0.0
 11
31533.60434129191
 21
1811.749496429288
 31
0.0
  0
LINE
  5
36E6
  8
YODOROGO
 10
31461.60434129191
 20
1987.7494964292871
 30
0.0
 11
31461.60434129191
 21
1635.7494964292871
 31
0.0
  0
LINE
  5
36E7
  8
YODOROGO
 10
31653.604341291921
 20
1427.749496429288
 30
0.0
 11
31653.60434129191
 21
1811.749496429288
 31
0.0
  0
LINE
  5
36E8
  8
YODOROGO
 10
31589.604341291921
 20
1811.749496429288
 30
0.0
 11
31589.604341291921
 21
1427.749496429288
 31
0.0
  0
LINE
  5
36E9
  8
YODOROGO
 10
31237.604341291921
 20
1595.7494964292871
 30
0.0
 11
31237.604341291921
 21
1707.749496429288
 31
0.0
  0
ARC
  5
36EA
  8
YODOROGO
 10
31353.914865116069
 20
1607.790351288558
 30
0.0
 40
180.0924485759885
 50
268.62849102169793
 51
356.16638457330322
  0
LINE
  5
36EB
  8
YODOROGO
 10
31349.604341291939
 20
1527.749496429288
 30
0.0
 11
31349.604341291939
 21
1427.749496429288
 31
0.0
  0
ARC
  5
36EC
  8
YODOROGO
 10
31351.518075724562
 20
1637.838957017655
 30
0.0
 40
110.1060929836122
 50
269.00410209305932
 51
358.91264455492478
  0
LINE
  5
36ED
  8
YODOROGO
 10
31589.604341291921
 20
1427.749496429288
 30
0.0
 11
31653.604341291921
 21
1427.749496429288
 31
0.0
  0
LINE
  5
36EE
  8
YODOROGO
 10
31533.60434129191
 20
1811.749496429288
 30
0.0
 11
31589.604341291921
 21
1811.749496429288
 31
0.0
  0
LINE
  5
36EF
  8
YODOROGO
 10
31621.604341291939
 20
1987.7494964292871
 30
0.0
 11
31461.60434129191
 21
1987.7494964292871
 31
0.0
  0
LINE
  5
36F0
  8
YODOROGO
 10
31533.60434129191
 20
1915.7494964292871
 30
0.0
 11
31661.604341291939
 21
1915.7494964292871
 31
0.0
  0
LINE
  5
36F1
  8
YODOROGO
 10
31701.604341291939
 20
1875.7494964292871
 30
0.0
 11
31533.60434129191
 21
1875.7494964292871
 31
0.0
  0
LINE
  5
36F2
  8
YODOROGO
 10
31237.604341291921
 20
1779.749496429288
 30
0.0
 11
31349.604341291939
 21
1779.749496429288
 31
0.0
  0
LINE
  5
36F3
  8
YODOROGO
 10
31237.604341291921
 20
1835.7494964292871
 30
0.0
 11
31237.604341291921
 21
1779.749496429288
 31
0.0
  0
LINE
  5
36F4
  8
YODOROGO
 10
31349.604341291939
 20
1835.7494964292871
 30
0.0
 11
31237.604341291921
 21
1835.7494964292871
 31
0.0
  0
LINE
  5
36F5
  8
YODOROGO
 10
31349.604341291939
 20
1779.749496429288
 30
0.0
 11
31349.604341291939
 21
1835.7494964292871
 31
0.0
  0
LINE
  5
36F6
  8
YODOROGO
 10
31533.60434129191
 20
1875.7494964292871
 30
0.0
 11
31533.60434129191
 21
1915.7494964292871
 31
0.0
  0
LINE
  5
36F7
  8
YODOROGO
 10
31413.604341291921
 20
1707.749496429288
 30
0.0
 11
31413.604341291921
 21
1907.7494964292871
 31
0.0
  0
LINE
  5
36F8
  8
YODOROGO
 10
31237.604341291921
 20
1707.749496429288
 30
0.0
 11
31413.604341291921
 21
1707.749496429288
 31
0.0
  0
LINE
  5
36F9
  8
YODOROGO
 10
31413.604341291921
 20
1963.749496429286
 30
0.0
 11
31413.604341291921
 21
2027.749496429288
 31
0.0
  0
ARC
  5
36FA
  8
YODOROGO
 10
31621.604341291939
 20
2003.749496429285
 30
0.0
 40
15.999999999994539
 50
270.0
 51
0.0000000000081422
  0
LINE
  5
36FB
  8
YODOROGO
 10
31637.604341291921
 20
2027.749496429288
 30
0.0
 11
31637.604341291921
 21
2003.7494964292871
 31
0.0
  0
LINE
  5
36FC
  8
YODOROGO
 10
31701.604341291939
 20
2027.749496429288
 30
0.0
 11
31637.604341291921
 21
2027.749496429288
 31
0.0
  0
LINE
  5
36FD
  8
YODOROGO
 10
31701.604341291939
 20
1955.7494964292871
 30
0.0
 11
31701.604341291939
 21
2027.749496429288
 31
0.0
  0
ARC
  5
36FE
  8
YODOROGO
 10
31661.604341291939
 20
1955.7494964292871
 30
0.0
 40
40.0
 50
270.0
 51
0.0
  0
LINE
  5
36FF
  8
YODOROGO
 10
31701.604341291939
 20
1811.749496429288
 30
0.0
 11
31701.604341291939
 21
1875.7494964292871
 31
0.0
  0
LINE
  5
3700
  8
YODOROGO
 10
31653.60434129191
 20
1811.749496429288
 30
0.0
 11
31701.604341291939
 21
1811.749496429288
 31
0.0
  0
LINE
  5
3705
  8
SUNPOU
  6
CONTINUOUS
 62
     4
 10
11815.12934199998
 20
20440.987440000012
 30
0.0
 11
12055.12934199998
 21
20440.987440000012
 31
0.0
  0
LINE
  5
3709
  8
SUNPOU
  6
CONTINUOUS
 62
     4
 10
14382.62934199998
 20
20440.987440000012
 30
0.0
 11
14142.62934199998
 21
20440.987440000012
 31
0.0
  0
LINE
  5
370C
  8
SUNPOU
  6
CONTINUOUS
 62
     4
 10
14382.62934199998
 20
20515.987175499999
 30
0.0
 11
14382.62934199998
 21
20520.987440000012
 31
0.0
  0
LINE
  5
370D
  8
SUNPOU
  6
CONTINUOUS
 62
     4
 10
11815.12934199998
 20
20440.987440000012
 30
0.0
 11
14382.62934199998
 21
20440.987440000012
 31
0.0
  0
LINE
  5
370E
  8
SUNPOU
  6
CONTINUOUS
 62
     4
 10
11652.62647199998
 20
13289.490937
 30
0.0
 11
10805.631050999969
 21
13289.490937
 31
0.0
  0
LINE
  5
370F
  8
SUNPOU
  6
CONTINUOUS
 62
     4
 10
10885.631050999969
 20
13481.986252000001
 30
0.0
 11
10885.631050999969
 21
13721.986252000001
 31
0.0
  0
LINE
  5
3710
  8
SUNPOU
  6
CONTINUOUS
 62
     4
 10
10885.631050999969
 20
13289.490937
 30
0.0
 11
10885.631050999969
 21
13049.490937
 31
0.0
  0
LINE
  5
3711
  8
SUNPOU
  6
CONTINUOUS
 62
     4
 10
10885.631050999969
 20
13481.986252000001
 30
0.0
 11
10885.631050999969
 21
13289.490937
 31
0.0
  0
LINE
  5
3712
  8
SUNPOU
  6
CONTINUOUS
 62
     4
 10
10885.63105099998
 20
16750.486251999992
 30
0.0
 11
10885.63105099998
 21
13481.986252000001
 31
0.0
  0
LINE
  5
3713
  8
SUNPOU
  6
CONTINUOUS
 62
     4
 10
11652.62647199998
 20
19860.982161000022
 30
0.0
 11
11205.63105099998
 21
19860.982161000022
 31
0.0
  0
LINE
  5
3714
  8
SUNPOU
  6
CONTINUOUS
 62
     4
 10
11652.630826999981
 20
19890.982161000022
 30
0.0
 11
11205.63105099998
 21
19890.982161000022
 31
0.0
  0
LINE
  5
3715
  8
SUNPOU
  6
CONTINUOUS
 62
     4
 10
11285.63105099998
 20
19860.982161000022
 30
0.0
 11
11285.63105099998
 21
19620.982161000022
 31
0.0
  0
LINE
  5
3716
  8
SUNPOU
  6
CONTINUOUS
 62
     4
 10
11285.63105099998
 20
19890.982161000022
 30
0.0
 11
11285.63105099998
 21
20130.982161000022
 31
0.0
  0
LINE
  5
3717
  8
SUNPOU
  6
CONTINUOUS
 62
     4
 10
11285.63105099998
 20
19860.982161000022
 30
0.0
 11
11285.63105099998
 21
19890.982161000022
 31
0.0
  0
LINE
  5
3718
  8
SUNPOU
  6
CONTINUOUS
 62
     4
 10
11652.630826999981
 20
19890.982161000022
 30
0.0
 11
10805.631050999969
 21
19890.982161000022
 31
0.0
  0
LINE
  5
3719
  8
SUNPOU
  6
CONTINUOUS
 62
     4
 10
10885.631050999969
 20
19668.486251999992
 30
0.0
 11
10885.631050999969
 21
19428.486251999992
 31
0.0
  0
LINE
  5
371A
  8
SUNPOU
  6
CONTINUOUS
 62
     4
 10
10885.631050999969
 20
19890.982161000022
 30
0.0
 11
10885.631050999969
 21
20130.982161000022
 31
0.0
  0
LINE
  5
371B
  8
SUNPOU
  6
CONTINUOUS
 62
     4
 10
10885.631050999969
 20
19668.486251999992
 30
0.0
 11
10885.631050999969
 21
19890.982161000022
 31
0.0
  0
LINE
  5
371C
  8
SUNPOU
  6
CONTINUOUS
 62
     4
 10
10885.631050999969
 20
16750.486251999992
 30
0.0
 11
10885.631050999969
 21
19668.486251999992
 31
0.0
  0
LINE
  5
371D
  8
SUNPOU
  6
CONTINUOUS
 62
     4
 10
21302.514225999999
 20
6241.1883740000012
 30
0.0
 11
20502.515544999991
 21
6241.1883740000012
 31
0.0
  0
LINE
  5
371E
  8
SUNPOU
  6
CONTINUOUS
 62
     4
 10
21302.514225999999
 20
8132.6883740000021
 30
0.0
 11
20502.515544999991
 21
8132.6883740000021
 31
0.0
  0
LINE
  5
371F
  8
SUNPOU
  6
CONTINUOUS
 62
     4
 10
20582.515544999991
 20
6241.1883740000012
 30
0.0
 11
20582.515544999991
 21
8132.6883740000021
 31
0.0
  0
LINE
  5
3720
  8
SUNPOU
  6
CONTINUOUS
 62
     4
 10
21302.514225999999
 20
6241.1883740000012
 30
0.0
 11
20102.513235999981
 21
6241.1883740000012
 31
0.0
  0
LINE
  5
3721
  8
SUNPOU
  6
CONTINUOUS
 62
     4
 10
21270.016469999999
 20
8589.1883999999973
 30
0.0
 11
20102.513235999992
 21
8589.1883999999973
 31
0.0
  0
LINE
  5
3722
  8
SUNPOU
  6
CONTINUOUS
 62
     4
 10
20182.513235999981
 20
6241.1883740000012
 30
0.0
 11
20182.513235999992
 21
8589.1883999999973
 31
0.0
  0
LINE
  5
3733
  8
SUNPOU
  6
CONTINUOUS
 62
     4
 10
24000.01686499998
 20
5798.536116000002
 30
0.0
 11
24000.01686499998
 21
4861.1885390000061
 31
0.0
  0
LINE
  5
3734
  8
SUNPOU
  6
CONTINUOUS
 62
     4
 10
24042.51686499998
 20
6061.1885390000061
 30
0.0
 11
24042.51686499998
 21
4861.1885390000061
 31
0.0
  0
LINE
  5
3735
  8
SUNPOU
  6
CONTINUOUS
 62
     4
 10
24000.01686499998
 20
4941.1885390000061
 30
0.0
 11
23760.016864999991
 21
4941.1885390000061
 31
0.0
  0
LINE
  5
3736
  8
SUNPOU
  6
CONTINUOUS
 62
     4
 10
24042.51686499998
 20
4941.1885390000061
 30
0.0
 11
24282.516864999991
 21
4941.1885390000061
 31
0.0
  0
LINE
  5
3737
  8
SUNPOU
  6
CONTINUOUS
 62
     4
 10
24000.01686499998
 20
4941.1885390000061
 30
0.0
 11
24042.51686499998
 21
4941.1885390000061
 31
0.0
  0
LINE
  5
3738
  8
SUNPOU
  6
CONTINUOUS
 62
     4
 10
21526.51686499998
 20
6061.1885390000061
 30
0.0
 11
21526.51686499998
 21
5261.1885390000061
 31
0.0
  0
LINE
  5
3739
  8
SUNPOU
  6
CONTINUOUS
 62
     4
 10
23906.016864999969
 20
6061.1885390000061
 30
0.0
 11
23906.016864999969
 21
5261.1885390000061
 31
0.0
  0
LINE
  5
373A
  8
SUNPOU
  6
CONTINUOUS
 62
     4
 10
21526.51686499998
 20
5341.1885390000079
 30
0.0
 11
23906.016864999969
 21
5341.1885390000079
 31
0.0
  0
LINE
  5
373B
  8
SUNPOU
  6
CONTINUOUS
 62
     4
 10
21432.516864999969
 20
5798.536116000002
 30
0.0
 11
21432.516864999969
 21
4861.1885390000061
 31
0.0
  0
LINE
  5
373C
  8
SUNPOU
  6
CONTINUOUS
 62
     4
 10
24000.01686499998
 20
5798.536116000002
 30
0.0
 11
24000.01686499998
 21
4861.1885390000061
 31
0.0
  0
LINE
  5
373D
  8
SUNPOU
  6
CONTINUOUS
 62
     4
 10
21432.516864999969
 20
4941.1885390000061
 30
0.0
 11
24000.01686499998
 21
4941.1885390000061
 31
0.0
  0
LINE
  5
373E
  8
SUNPOU
  6
CONTINUOUS
 62
     4
 10
21432.516864999969
 20
5798.536116000002
 30
0.0
 11
21432.516864999969
 21
4861.1885390000061
 31
0.0
  0
LINE
  5
373F
  8
SUNPOU
  6
CONTINUOUS
 62
     4
 10
21390.01686499998
 20
6061.1885390000061
 30
0.0
 11
21390.01686499998
 21
4861.1885390000061
 31
0.0
  0
LINE
  5
3740
  8
SUNPOU
  6
CONTINUOUS
 62
     4
 10
21432.516864999969
 20
4941.1885390000061
 30
0.0
 11
21672.516864999969
 21
4941.1885390000061
 31
0.0
  0
LINE
  5
3741
  8
SUNPOU
  6
CONTINUOUS
 62
     4
 10
21390.01686499998
 20
4941.1885390000061
 30
0.0
 11
21150.01686499998
 21
4941.1885390000061
 31
0.0
  0
LINE
  5
3742
  8
SUNPOU
  6
CONTINUOUS
 62
     4
 10
21432.516864999969
 20
4941.1885390000061
 30
0.0
 11
21390.01686499998
 21
4941.1885390000061
 31
0.0
  0
LINE
  5
3743
  8
SUNPOU
  6
CONTINUOUS
 62
     4
 10
21390.01686499998
 20
6061.1885390000061
 30
0.0
 11
21390.01686499998
 21
4461.1887040000038
 31
0.0
  0
LINE
  5
3744
  8
SUNPOU
  6
CONTINUOUS
 62
     4
 10
24042.51686499998
 20
6061.1885390000061
 30
0.0
 11
24042.51686499998
 21
4461.1887040000038
 31
0.0
  0
LINE
  5
3745
  8
SUNPOU
  6
CONTINUOUS
 62
     4
 10
21390.01686499998
 20
4541.1887040000038
 30
0.0
 11
24042.51686499998
 21
4541.1887040000038
 31
0.0
  0
LINE
  5
3746
  8
SUNPOU
  6
CONTINUOUS
 62
     4
 10
9865.7678679999972
 20
8478.188374000003
 30
0.0
 11
9865.7678679999972
 21
9869.1883999999955
 31
0.0
  0
LINE
  5
3747
  8
SUNPOU
  6
CONTINUOUS
 62
     4
 10
16467.267867999992
 20
8610.0781974124311
 30
0.0
 11
16467.267867999992
 21
9869.1883999999955
 31
0.0
  0
LINE
  5
3748
  8
SUNPOU
  6
CONTINUOUS
 62
     4
 10
9865.7678679999972
 20
9789.1883999999955
 30
0.0
 11
16467.267867999992
 21
9789.1883999999955
 31
0.0
  0
LINE
  5
3749
  8
SUNPOU
  6
CONTINUOUS
 62
     4
 10
16317.267868000001
 20
8536.0984380000027
 30
0.0
 11
16317.267868000001
 21
9469.1900499999992
 31
0.0
  0
LINE
  5
374A
  8
SUNPOU
  6
CONTINUOUS
 62
     4
 10
16467.267867999992
 20
8610.0781974124311
 30
0.0
 11
16467.267867999992
 21
9469.1900499999992
 31
0.0
  0
LINE
  5
374B
  8
SUNPOU
  6
CONTINUOUS
 62
     4
 10
16317.267868000001
 20
9389.1900499999992
 30
0.0
 11
16077.267868000001
 21
9389.1900499999992
 31
0.0
  0
LINE
  5
374C
  8
SUNPOU
  6
CONTINUOUS
 62
     4
 10
16467.267867999992
 20
9389.1900499999992
 30
0.0
 11
16707.267867999992
 21
9389.1900499999992
 31
0.0
  0
LINE
  5
374D
  8
SUNPOU
  6
CONTINUOUS
 62
     4
 10
16317.267868000001
 20
9389.1900499999992
 30
0.0
 11
16467.267867999992
 21
9389.1900499999992
 31
0.0
  0
LINE
  5
374E
  8
SUNPOU
  6
CONTINUOUS
 62
     4
 10
10045.767868000001
 20
8348.3741496838065
 30
0.0
 11
10045.767868000001
 21
9469.1900499999992
 31
0.0
  0
LINE
  5
374F
  8
SUNPOU
  6
CONTINUOUS
 62
     4
 10
16317.267868000001
 20
8536.0984380000027
 30
0.0
 11
16317.267868000001
 21
9469.1900499999992
 31
0.0
  0
LINE
  5
3750
  8
SUNPOU
  6
CONTINUOUS
 62
     4
 10
10045.767868000001
 20
9389.1900499999992
 30
0.0
 11
16317.267868000001
 21
9389.1900499999992
 31
0.0
  0
LINE
  5
3751
  8
SUNPOU
  6
CONTINUOUS
 62
     4
 10
9865.7678679999972
 20
8478.188374000003
 30
0.0
 11
9865.7678679999972
 21
9469.1900499999956
 31
0.0
  0
LINE
  5
3752
  8
SUNPOU
  6
CONTINUOUS
 62
     4
 10
10045.767868000001
 20
8348.3741496838065
 30
0.0
 11
10045.767868000001
 21
9469.1900499999956
 31
0.0
  0
LINE
  5
3753
  8
SUNPOU
  6
CONTINUOUS
 62
     4
 10
9865.7678679999972
 20
9389.1900499999956
 30
0.0
 11
9625.7678680000045
 21
9389.1900499999956
 31
0.0
  0
LINE
  5
3754
  8
SUNPOU
  6
CONTINUOUS
 62
     4
 10
10045.767868000001
 20
9389.1900499999956
 30
0.0
 11
10285.767868000001
 21
9389.1900499999956
 31
0.0
  0
LINE
  5
3755
  8
SUNPOU
  6
CONTINUOUS
 62
     4
 10
9865.7678679999972
 20
9389.1900499999956
 30
0.0
 11
10045.767868000001
 21
9389.1900499999956
 31
0.0
  0
LINE
  5
3756
  8
SUNPOU
  6
CONTINUOUS
 62
     4
 10
16409.767867999992
 20
6241.1883740000003
 30
0.0
 11
17487.268263999991
 21
6241.1883740000012
 31
0.0
  0
LINE
  5
3757
  8
SUNPOU
  6
CONTINUOUS
 62
     4
 10
16502.075127599379
 20
8589.1883739999994
 30
0.0
 11
17487.268263999991
 21
8589.1883739999994
 31
0.0
  0
LINE
  5
3758
  8
SUNPOU
  6
CONTINUOUS
 62
     4
 10
17407.268263999991
 20
6241.1883740000012
 30
0.0
 11
17407.268263999991
 21
8589.1883739999994
 31
0.0
  0
LINE
  5
3759
  8
SUNPOU
  6
CONTINUOUS
 62
     4
 10
9958.2678680000008
 20
6241.1883740000003
 30
0.0
 11
8875.767472000005
 21
6241.1883740000012
 31
0.0
  0
LINE
  5
375A
  8
SUNPOU
  6
CONTINUOUS
 62
     4
 10
9785.7678680000008
 20
8398.188374000003
 30
0.0
 11
8875.767472000005
 21
8398.188374000003
 31
0.0
  0
LINE
  5
375B
  8
SUNPOU
  6
CONTINUOUS
 62
     4
 10
8955.7674720000032
 20
6241.1883740000012
 30
0.0
 11
8955.7674720000032
 21
8398.188374000003
 31
0.0
  0
LINE
  5
375C
  8
SUNPOU
  6
CONTINUOUS
 62
     4
 10
10045.767868000001
 20
6161.1883740000012
 30
0.0
 11
10045.767868000001
 21
4461.1887040000001
 31
0.0
  0
LINE
  5
375D
  8
SUNPOU
  6
CONTINUOUS
 62
     4
 10
16317.267868000001
 20
6161.1883740000012
 30
0.0
 11
16317.267868000001
 21
4461.1887040000001
 31
0.0
  0
LINE
  5
375E
  8
SUNPOU
  6
CONTINUOUS
 62
     4
 10
10045.767868000001
 20
4541.1887040000001
 30
0.0
 11
16317.267868000001
 21
4541.1887040000001
 31
0.0
  0
LINE
  5
375F
  8
SUNPOU
  6
CONTINUOUS
 62
     4
 10
16274.767868000001
 20
5798.5361160000011
 30
0.0
 11
16274.767868000001
 21
4861.1885389999989
 31
0.0
  0
LINE
  5
3760
  8
SUNPOU
  6
CONTINUOUS
 62
     4
 10
16317.267868000001
 20
6161.1883740000012
 30
0.0
 11
16317.267868000001
 21
4861.1885389999989
 31
0.0
  0
LINE
  5
3761
  8
SUNPOU
  6
CONTINUOUS
 62
     4
 10
16274.767868000001
 20
4941.1885389999979
 30
0.0
 11
16034.767868000001
 21
4941.1885389999979
 31
0.0
  0
LINE
  5
3762
  8
SUNPOU
  6
CONTINUOUS
 62
     4
 10
16317.267868000001
 20
4941.1885389999979
 30
0.0
 11
16557.267867999999
 21
4941.1885389999979
 31
0.0
  0
LINE
  5
3763
  8
SUNPOU
  6
CONTINUOUS
 62
     4
 10
16274.767868000001
 20
4941.1885389999979
 30
0.0
 11
16317.267868000001
 21
4941.1885389999979
 31
0.0
  0
LINE
  5
3764
  8
SUNPOU
  6
CONTINUOUS
 62
     4
 10
10088.267868000001
 20
5798.5361160000011
 30
0.0
 11
10088.267868000001
 21
4861.1885389999989
 31
0.0
  0
LINE
  5
3765
  8
SUNPOU
  6
CONTINUOUS
 62
     4
 10
10045.767868000001
 20
6161.1883740000012
 30
0.0
 11
10045.767868000001
 21
4861.1885389999989
 31
0.0
  0
LINE
  5
3766
  8
SUNPOU
  6
CONTINUOUS
 62
     4
 10
10088.267868000001
 20
4941.1885389999979
 30
0.0
 11
10328.267868000001
 21
4941.1885389999979
 31
0.0
  0
LINE
  5
3767
  8
SUNPOU
  6
CONTINUOUS
 62
     4
 10
10045.767868000001
 20
4941.1885389999979
 30
0.0
 11
9805.7678680000008
 21
4941.1885389999979
 31
0.0
  0
LINE
  5
3768
  8
SUNPOU
  6
CONTINUOUS
 62
     4
 10
10088.267868000001
 20
4941.1885389999979
 30
0.0
 11
10045.767868000001
 21
4941.1885389999979
 31
0.0
  0
LINE
  5
3769
  8
SUNPOU
  6
CONTINUOUS
 62
     4
 10
13006.267868000001
 20
5798.5361160000011
 30
0.0
 11
13006.267868000001
 21
4861.1885389999989
 31
0.0
  0
LINE
  5
376A
  8
SUNPOU
  6
CONTINUOUS
 62
     4
 10
10088.267868000001
 20
5798.5361160000011
 30
0.0
 11
10088.267868000001
 21
4861.1885389999989
 31
0.0
  0
LINE
  5
376B
  8
SUNPOU
  6
CONTINUOUS
 62
     4
 10
13006.267868000001
 20
4941.1885389999979
 30
0.0
 11
10088.267868000001
 21
4941.1885389999979
 31
0.0
  0
LINE
  5
376C
  8
SUNPOU
  6
CONTINUOUS
 62
     4
 10
13006.267868000001
 20
5798.5361160000011
 30
0.0
 11
13006.267868000001
 21
4861.1885389999989
 31
0.0
  0
LINE
  5
376D
  8
SUNPOU
  6
CONTINUOUS
 62
     4
 10
16274.767868000001
 20
5798.5361160000011
 30
0.0
 11
16274.767868000001
 21
4861.1885389999989
 31
0.0
  0
LINE
  5
376E
  8
SUNPOU
  6
CONTINUOUS
 62
     4
 10
13006.267868000001
 20
4941.1885389999979
 30
0.0
 11
16274.767868000001
 21
4941.1885389999979
 31
0.0
  0
LINE
  5
376F
  8
SUNPOU
  6
CONTINUOUS
 62
     4
 10
21432.516864999969
 20
12776.222818
 30
0.0
 11
21432.516864999969
 21
12430.538167999999
 31
0.0
  0
LINE
  5
3770
  8
SUNPOU
  6
CONTINUOUS
 62
     4
 10
21390.014621999992
 20
13359.488957
 30
0.0
 11
21390.014621999992
 21
12430.538167999999
 31
0.0
  0
LINE
  5
3771
  8
SUNPOU
  6
CONTINUOUS
 62
     4
 10
21432.516864999969
 20
12510.538167999999
 30
0.0
 11
21672.516864999969
 21
12510.538167999999
 31
0.0
  0
LINE
  5
3772
  8
SUNPOU
  6
CONTINUOUS
 62
     4
 10
21390.014621999992
 20
12510.538167999999
 30
0.0
 11
21150.014621999992
 21
12510.538167999999
 31
0.0
  0
LINE
  5
3773
  8
SUNPOU
  6
CONTINUOUS
 62
     4
 10
21432.516864999969
 20
12510.538167999999
 30
0.0
 11
21390.014621999992
 21
12510.538167999999
 31
0.0
  0
LINE
  5
3774
  8
SUNPOU
  6
CONTINUOUS
 62
     4
 10
24000.01686499998
 20
12776.222818
 30
0.0
 11
24000.01686499998
 21
12430.538167999999
 31
0.0
  0
LINE
  5
3775
  8
SUNPOU
  6
CONTINUOUS
 62
     4
 10
24042.519107999971
 20
13359.488957
 30
0.0
 11
24042.519107999971
 21
12430.538167999999
 31
0.0
  0
LINE
  5
3776
  8
SUNPOU
  6
CONTINUOUS
 62
     4
 10
24000.01686499998
 20
12510.538167999999
 30
0.0
 11
23760.016864999991
 21
12510.538167999999
 31
0.0
  0
LINE
  5
3777
  8
SUNPOU
  6
CONTINUOUS
 62
     4
 10
24042.519107999971
 20
12510.538167999999
 30
0.0
 11
24282.519107999971
 21
12510.538167999999
 31
0.0
  0
LINE
  5
3778
  8
SUNPOU
  6
CONTINUOUS
 62
     4
 10
24000.01686499998
 20
12510.538167999999
 30
0.0
 11
24042.519107999971
 21
12510.538167999999
 31
0.0
  0
LINE
  5
3779
  8
SUNPOU
  6
CONTINUOUS
 62
     4
 10
24000.01686499998
 20
12776.222818
 30
0.0
 11
24000.01686499998
 21
12430.538167999999
 31
0.0
  0
LINE
  5
377A
  8
SUNPOU
  6
CONTINUOUS
 62
     4
 10
23957.514621999981
 20
13359.488957
 30
0.0
 11
23957.514621999981
 21
12430.538167999999
 31
0.0
  0
LINE
  5
377B
  8
SUNPOU
  6
CONTINUOUS
 62
     4
 10
24000.01686499998
 20
12510.538167999999
 30
0.0
 11
24240.01686499998
 21
12510.538167999999
 31
0.0
  0
LINE
  5
377C
  8
SUNPOU
  6
CONTINUOUS
 62
     4
 10
23957.514621999981
 20
12510.538167999999
 30
0.0
 11
23717.51462199997
 21
12510.538167999999
 31
0.0
  0
LINE
  5
377D
  8
SUNPOU
  6
CONTINUOUS
 62
     4
 10
24000.01686499998
 20
12510.538167999999
 30
0.0
 11
23957.514621999981
 21
12510.538167999999
 31
0.0
  0
LINE
  5
377E
  8
SUNPOU
  6
CONTINUOUS
 62
     4
 10
21432.516864999969
 20
12776.222818
 30
0.0
 11
21432.516864999969
 21
12430.538167999999
 31
0.0
  0
LINE
  5
377F
  8
SUNPOU
  6
CONTINUOUS
 62
     4
 10
21475.019107999971
 20
13359.488957
 30
0.0
 11
21475.019107999971
 21
12430.538167999999
 31
0.0
  0
LINE
  5
3780
  8
SUNPOU
  6
CONTINUOUS
 62
     4
 10
21432.516864999969
 20
12510.538167999999
 30
0.0
 11
21192.516864999969
 21
12510.538167999999
 31
0.0
  0
LINE
  5
3781
  8
SUNPOU
  6
CONTINUOUS
 62
     4
 10
21475.019107999971
 20
12510.538167999999
 30
0.0
 11
21715.019107999971
 21
12510.538167999999
 31
0.0
  0
LINE
  5
3782
  8
SUNPOU
  6
CONTINUOUS
 62
     4
 10
21432.516864999969
 20
12510.538167999999
 30
0.0
 11
21475.019107999971
 21
12510.538167999999
 31
0.0
  0
LINE
  5
3783
  8
SUNPOU
  6
CONTINUOUS
 62
     4
 10
21390.014621999992
 20
13359.488957
 30
0.0
 11
21390.014621999992
 21
12030.538167999999
 31
0.0
  0
LINE
  5
3784
  8
SUNPOU
  6
CONTINUOUS
 62
     4
 10
24042.519107999971
 20
13359.488957
 30
0.0
 11
24042.519107999971
 21
12030.538167999999
 31
0.0
  0
LINE
  5
3785
  8
SUNPOU
  6
CONTINUOUS
 62
     4
 10
21390.014621999992
 20
12110.538167999999
 30
0.0
 11
24042.519107999971
 21
12110.538167999999
 31
0.0
  0
LINE
  5
3786
  8
SUNPOU
  6
CONTINUOUS
 62
     4
 10
24122.51514899997
 20
13889.486252000001
 30
0.0
 11
25172.516468999969
 21
13889.486252000001
 31
0.0
  0
LINE
  5
3787
  8
SUNPOU
  6
CONTINUOUS
 62
     4
 10
24972.51646899998
 20
13481.986252000001
 30
0.0
 11
25172.516468999969
 21
13481.986252000001
 31
0.0
  0
LINE
  5
3788
  8
SUNPOU
  6
CONTINUOUS
 62
     4
 10
25092.516468999969
 20
13889.486252000001
 30
0.0
 11
25092.516468999969
 21
13481.986252000001
 31
0.0
  0
LINE
  5
3789
  8
SUNPOU
  6
CONTINUOUS
 62
     4
 10
24122.51514899997
 20
14590.486252000001
 30
0.0
 11
25172.516468999969
 21
14590.486252000001
 31
0.0
  0
LINE
  5
378A
  8
SUNPOU
  6
CONTINUOUS
 62
     4
 10
24122.51514899997
 20
13889.486252000001
 30
0.0
 11
25172.516468999969
 21
13889.486252000001
 31
0.0
  0
LINE
  5
378B
  8
SUNPOU
  6
CONTINUOUS
 62
     4
 10
25092.516468999969
 20
14590.486252000001
 30
0.0
 11
25092.516468999969
 21
13889.486252000001
 31
0.0
  0
LINE
  5
378C
  8
SUNPOU
  6
CONTINUOUS
 62
     4
 10
24122.51514899997
 20
15291.72676350001
 30
0.0
 11
25172.516468999969
 21
15291.72676350001
 31
0.0
  0
LINE
  5
378D
  8
SUNPOU
  6
CONTINUOUS
 62
     4
 10
24122.51514899997
 20
14590.486252000001
 30
0.0
 11
25172.516468999969
 21
14590.486252000001
 31
0.0
  0
LINE
  5
378E
  8
SUNPOU
  6
CONTINUOUS
 62
     4
 10
25092.516468999969
 20
15291.72676350001
 30
0.0
 11
25092.516468999969
 21
14590.486252000001
 31
0.0
  0
LINE
  5
378F
  8
SUNPOU
  6
CONTINUOUS
 62
     4
 10
24122.51514899997
 20
15992.486252000001
 30
0.0
 11
25172.516468999969
 21
15992.486252000001
 31
0.0
  0
LINE
  5
3790
  8
SUNPOU
  6
CONTINUOUS
 62
     4
 10
24122.51514899997
 20
15291.72676350001
 30
0.0
 11
25172.516468999969
 21
15291.72676350001
 31
0.0
  0
LINE
  5
3791
  8
SUNPOU
  6
CONTINUOUS
 62
     4
 10
25092.516468999969
 20
15992.486252000001
 30
0.0
 11
25092.516468999969
 21
15291.72676350001
 31
0.0
  0
LINE
  5
3792
  8
SUNPOU
  6
CONTINUOUS
 62
     4
 10
24972.51646899998
 20
16750.486251999992
 30
0.0
 11
25172.516468999969
 21
16750.486251999992
 31
0.0
  0
LINE
  5
3793
  8
SUNPOU
  6
CONTINUOUS
 62
     4
 10
24122.51514899997
 20
15992.486252000001
 30
0.0
 11
25172.516468999969
 21
15992.486252000001
 31
0.0
  0
LINE
  5
3794
  8
SUNPOU
  6
CONTINUOUS
 62
     4
 10
25092.516468999969
 20
16750.486251999992
 30
0.0
 11
25092.516468999969
 21
15992.486252000001
 31
0.0
  0
LINE
  5
3795
  8
SUNPOU
  6
CONTINUOUS
 62
     4
 10
24122.51514899997
 20
17508.486251999992
 30
0.0
 11
25172.516468999969
 21
17508.486251999992
 31
0.0
  0
LINE
  5
3796
  8
SUNPOU
  6
CONTINUOUS
 62
     4
 10
24972.51646899998
 20
16750.486251999992
 30
0.0
 11
25172.516468999969
 21
16750.486251999992
 31
0.0
  0
LINE
  5
3797
  8
SUNPOU
  6
CONTINUOUS
 62
     4
 10
25092.516468999969
 20
17508.486251999992
 30
0.0
 11
25092.516468999969
 21
16750.486251999992
 31
0.0
  0
LINE
  5
3798
  8
SUNPOU
  6
CONTINUOUS
 62
     4
 10
24122.51514899997
 20
18209.486251999992
 30
0.0
 11
25172.516468999969
 21
18209.486251999992
 31
0.0
  0
LINE
  5
3799
  8
SUNPOU
  6
CONTINUOUS
 62
     4
 10
24122.51514899997
 20
17508.486251999992
 30
0.0
 11
25172.516468999969
 21
17508.486251999992
 31
0.0
  0
LINE
  5
379A
  8
SUNPOU
  6
CONTINUOUS
 62
     4
 10
25092.516468999969
 20
18209.486251999992
 30
0.0
 11
25092.516468999969
 21
17508.486251999992
 31
0.0
  0
LINE
  5
379B
  8
SUNPOU
  6
CONTINUOUS
 62
     4
 10
24122.51514899997
 20
18910.486251999999
 30
0.0
 11
25172.516468999969
 21
18910.486251999992
 31
0.0
  0
LINE
  5
379C
  8
SUNPOU
  6
CONTINUOUS
 62
     4
 10
24122.51514899997
 20
18209.486251999992
 30
0.0
 11
25172.516468999969
 21
18209.486251999992
 31
0.0
  0
LINE
  5
379D
  8
SUNPOU
  6
CONTINUOUS
 62
     4
 10
25092.516468999969
 20
18910.486251999992
 30
0.0
 11
25092.516468999969
 21
18209.486251999992
 31
0.0
  0
LINE
  5
379E
  8
SUNPOU
  6
CONTINUOUS
 62
     4
 10
24972.51646899998
 20
19668.486251999992
 30
0.0
 11
25172.516468999969
 21
19668.486251999992
 31
0.0
  0
LINE
  5
379F
  8
SUNPOU
  6
CONTINUOUS
 62
     4
 10
24122.51514899997
 20
18910.486251999999
 30
0.0
 11
25172.516468999969
 21
18910.486251999992
 31
0.0
  0
LINE
  5
37A0
  8
SUNPOU
  6
CONTINUOUS
 62
     4
 10
25092.516468999969
 20
19668.486251999992
 30
0.0
 11
25092.516468999969
 21
18910.486251999992
 31
0.0
  0
LINE
  5
37A1
  8
SUNPOU
  6
CONTINUOUS
 62
     4
 10
24972.51646899998
 20
16750.486251999992
 30
0.0
 11
25572.516468999969
 21
16750.486251999992
 31
0.0
  0
LINE
  5
37A2
  8
SUNPOU
  6
CONTINUOUS
 62
     4
 10
24972.51646899998
 20
19668.486251999992
 30
0.0
 11
25572.516468999969
 21
19668.486251999992
 31
0.0
  0
LINE
  5
37A3
  8
SUNPOU
  6
CONTINUOUS
 62
     4
 10
25492.516468999969
 20
16750.486251999992
 30
0.0
 11
25492.516468999969
 21
19668.486251999992
 31
0.0
  0
LINE
  5
37A4
  8
SUNPOU
  6
CONTINUOUS
 62
     4
 10
24972.51646899998
 20
13481.986252000001
 30
0.0
 11
25572.516468999969
 21
13481.986252000001
 31
0.0
  0
LINE
  5
37A5
  8
SUNPOU
  6
CONTINUOUS
 62
     4
 10
24972.51646899998
 20
16750.486251999992
 30
0.0
 11
25572.516468999969
 21
16750.486251999992
 31
0.0
  0
LINE
  5
37A6
  8
SUNPOU
  6
CONTINUOUS
 62
     4
 10
25492.516468999969
 20
13481.986252000001
 30
0.0
 11
25492.516468999969
 21
16750.486251999992
 31
0.0
  0
LINE
  5
37A7
  8
SUNPOU
  6
CONTINUOUS
 62
     4
 10
24122.51514899997
 20
19710.983547
 30
0.0
 11
25972.516468999969
 21
19710.983546999982
 31
0.0
  0
LINE
  5
37A8
  8
SUNPOU
  6
CONTINUOUS
 62
     4
 10
24122.51514899997
 20
13439.488957
 30
0.0
 11
25972.516468999969
 21
13439.488957
 31
0.0
  0
LINE
  5
37A9
  8
SUNPOU
  6
CONTINUOUS
 62
     4
 10
25892.516468999969
 20
19710.983546999982
 30
0.0
 11
25892.516468999969
 21
13439.488957
 31
0.0
  0
LINE
  5
37AA
  8
SUNPOU
  6
CONTINUOUS
 62
     4
 10
24972.51646899998
 20
19668.486251999992
 30
0.0
 11
25572.516468999969
 21
19668.486251999992
 31
0.0
  0
LINE
  5
37AB
  8
SUNPOU
  6
CONTINUOUS
 62
     4
 10
24122.51514899997
 20
19710.983547
 30
0.0
 11
25572.516468999969
 21
19710.983546999982
 31
0.0
  0
LINE
  5
37AC
  8
SUNPOU
  6
CONTINUOUS
 62
     4
 10
25492.516468999969
 20
19668.486251999992
 30
0.0
 11
25492.516468999969
 21
19428.486251999992
 31
0.0
  0
LINE
  5
37AD
  8
SUNPOU
  6
CONTINUOUS
 62
     4
 10
25492.516468999969
 20
19710.983546999982
 30
0.0
 11
25492.516468999969
 21
19950.983546999982
 31
0.0
  0
LINE
  5
37AE
  8
SUNPOU
  6
CONTINUOUS
 62
     4
 10
25492.516468999969
 20
19668.486251999992
 30
0.0
 11
25492.516468999969
 21
19710.983546999982
 31
0.0
  0
LINE
  5
37AF
  8
SUNPOU
  6
CONTINUOUS
 62
     4
 10
24972.51646899998
 20
13481.986252000001
 30
0.0
 11
25572.516468999969
 21
13481.986252000001
 31
0.0
  0
LINE
  5
37B0
  8
SUNPOU
  6
CONTINUOUS
 62
     4
 10
24122.51514899997
 20
13439.488957
 30
0.0
 11
25572.516468999969
 21
13439.488957
 31
0.0
  0
LINE
  5
37B1
  8
SUNPOU
  6
CONTINUOUS
 62
     4
 10
25492.516468999969
 20
13481.986252000001
 30
0.0
 11
25492.516468999969
 21
13721.986252000001
 31
0.0
  0
LINE
  5
37B2
  8
SUNPOU
  6
CONTINUOUS
 62
     4
 10
25492.516468999969
 20
13439.488957
 30
0.0
 11
25492.516468999969
 21
13199.488957
 31
0.0
  0
LINE
  5
37B3
  8
SUNPOU
  6
CONTINUOUS
 62
     4
 10
25492.516468999969
 20
13481.986252000001
 30
0.0
 11
25492.516468999969
 21
13439.488957
 31
0.0
  0
LINE
  5
37B4
  8
SUNPOU
  6
CONTINUOUS
 62
     4
 10
21432.516864999969
 20
19790.984537000018
 30
0.0
 11
21432.516864999969
 21
20520.987440000012
 31
0.0
  0
LINE
  5
37B5
  8
SUNPOU
  6
CONTINUOUS
 62
     4
 10
21840.01686499998
 20
19790.984537000018
 30
0.0
 11
21840.01686499998
 21
20520.987440000012
 31
0.0
  0
LINE
  5
37B6
  8
SUNPOU
  6
CONTINUOUS
 62
     4
 10
21432.516864999969
 20
20440.987440000012
 30
0.0
 11
21192.516864999969
 21
20440.987440000012
 31
0.0
  0
LINE
  5
37B7
  8
SUNPOU
  6
CONTINUOUS
 62
     4
 10
21840.01686499998
 20
20440.987440000012
 30
0.0
 11
22080.01686499998
 21
20440.987440000012
 31
0.0
  0
LINE
  5
37B8
  8
SUNPOU
  6
CONTINUOUS
 62
     4
 10
21432.516864999969
 20
20440.987440000012
 30
0.0
 11
21840.01686499998
 21
20440.987440000012
 31
0.0
  0
LINE
  5
37B9
  8
SUNPOU
  6
CONTINUOUS
 62
     4
 10
23242.016864999991
 20
19790.984537000018
 30
0.0
 11
23242.016864999991
 21
20520.987440000012
 31
0.0
  0
LINE
  5
37BA
  8
SUNPOU
  6
CONTINUOUS
 62
     4
 10
24000.017854500002
 20
19790.984537000018
 30
0.0
 11
24000.017854500002
 21
20520.987440000012
 31
0.0
  0
LINE
  5
37BB
  8
SUNPOU
  6
CONTINUOUS
 62
     4
 10
23242.016864999991
 20
20440.987440000012
 30
0.0
 11
24000.017854500002
 21
20440.987440000012
 31
0.0
  0
LINE
  5
37BC
  8
SUNPOU
  6
CONTINUOUS
 62
     4
 10
22541.01686499998
 20
19790.984537000018
 30
0.0
 11
22541.01686499998
 21
20520.987440000012
 31
0.0
  0
LINE
  5
37BD
  8
SUNPOU
  6
CONTINUOUS
 62
     4
 10
23242.016864999991
 20
19790.984537000018
 30
0.0
 11
23242.016864999991
 21
20520.987440000012
 31
0.0
  0
LINE
  5
37BE
  8
SUNPOU
  6
CONTINUOUS
 62
     4
 10
22541.01686499998
 20
20440.987440000012
 30
0.0
 11
23242.016864999991
 21
20440.987440000012
 31
0.0
  0
LINE
  5
37BF
  8
SUNPOU
  6
CONTINUOUS
 62
     4
 10
21840.01686499998
 20
19790.984537000018
 30
0.0
 11
21840.01686499998
 21
20520.987440000012
 31
0.0
  0
LINE
  5
37C0
  8
SUNPOU
  6
CONTINUOUS
 62
     4
 10
22541.01686499998
 20
19790.984537000018
 30
0.0
 11
22541.01686499998
 21
20520.987440000012
 31
0.0
  0
LINE
  5
37C1
  8
SUNPOU
  6
CONTINUOUS
 62
     4
 10
21840.01686499998
 20
20440.987440000012
 30
0.0
 11
22541.01686499998
 21
20440.987440000012
 31
0.0
  0
LINE
  5
37C2
  8
SUNPOU
  6
CONTINUOUS
 62
     4
 10
24000.01686499998
 20
19790.984537000018
 30
0.0
 11
24000.01686499998
 21
20520.987440000012
 31
0.0
  0
LINE
  5
37C3
  8
SUNPOU
  6
CONTINUOUS
 62
     4
 10
24042.51316999998
 20
19790.984537000018
 30
0.0
 11
24042.51316999998
 21
20520.987440000012
 31
0.0
  0
LINE
  5
37C4
  8
SUNPOU
  6
CONTINUOUS
 62
     4
 10
24000.01686499998
 20
20440.987440000012
 30
0.0
 11
23760.016864999991
 21
20440.987440000012
 31
0.0
  0
LINE
  5
37C5
  8
SUNPOU
  6
CONTINUOUS
 62
     4
 10
24042.51316999998
 20
20440.987440000012
 30
0.0
 11
24282.51316999998
 21
20440.987440000012
 31
0.0
  0
LINE
  5
37C6
  8
SUNPOU
  6
CONTINUOUS
 62
     4
 10
24000.01686499998
 20
20440.987440000012
 30
0.0
 11
24042.51316999998
 21
20440.987440000012
 31
0.0
  0
LINE
  5
37C7
  8
SUNPOU
  6
CONTINUOUS
 62
     4
 10
21432.516864999969
 20
19790.984537000018
 30
0.0
 11
21432.516864999969
 21
20520.987440000012
 31
0.0
  0
LINE
  5
37C8
  8
SUNPOU
  6
CONTINUOUS
 62
     4
 10
21390.020559999972
 20
19790.984537000018
 30
0.0
 11
21390.020559999972
 21
20520.987440000012
 31
0.0
  0
LINE
  5
37C9
  8
SUNPOU
  6
CONTINUOUS
 62
     4
 10
21432.516864999969
 20
20440.987440000012
 30
0.0
 11
21672.516864999969
 21
20440.987440000012
 31
0.0
  0
LINE
  5
37CA
  8
SUNPOU
  6
CONTINUOUS
 62
     4
 10
21390.020559999972
 20
20440.987440000012
 30
0.0
 11
21150.020559999972
 21
20440.987440000012
 31
0.0
  0
LINE
  5
37CB
  8
SUNPOU
  6
CONTINUOUS
 62
     4
 10
21432.516864999969
 20
20440.987440000012
 30
0.0
 11
21390.020559999972
 21
20440.987440000012
 31
0.0
  0
TEXT
  5
37CC
  8
0
  6
CONTINUOUS
 62
     7
 10
20829.704885471168
 20
20520.987440000012
 30
0.0
 40
160.0
  1
42.5
  0
TEXT
  5
37CD
  8
0
  6
CONTINUOUS
 62
     7
 10
24122.82884452878
 20
20520.987440000012
 30
0.0
 40
160.0
  1
42.5
  0
TEXT
  5
37CE
  8
0
  6
CONTINUOUS
 62
     7
 10
22017.183531666651
 20
20200.987440000012
 30
0.0
 40
160.0
  1
701
  0
TEXT
  5
37CF
  8
0
  6
CONTINUOUS
 62
     7
 10
22718.183531666651
 20
20520.987440000012
 30
0.0
 40
160.0
  1
701
  0
TEXT
  5
37D0
  8
0
  6
CONTINUOUS
 62
     7
 10
23407.684026416649
 20
20520.987440000012
 30
0.0
 40
160.0
  1
758
  0
TEXT
  5
37D1
  8
0
  6
CONTINUOUS
 62
     7
 10
21533.350198333319
 20
20520.987440000012
 30
0.0
 40
160.0
  1
407.5
  0
TEXT
  5
37D2
  8
0
  6
CONTINUOUS
 62
     7
 10
25412.516468999969
 20
12865.93272060321
 30
0.0
 40
160.0
  1
42.5
 50
90.0
  0
TEXT
  5
37D3
  8
0
  6
CONTINUOUS
 62
     7
 10
25412.516468999969
 20
19804.539783396791
 30
0.0
 40
160.0
  1
42.5
 50
90.0
  0
TEXT
  5
37D4
  8
0
  6
CONTINUOUS
 62
     7
 10
25812.516468999969
 20
16201.90291866667
 30
0.0
 40
160.0
  1
6271.5
 50
90.0
  0
TEXT
  5
37D5
  8
0
  6
CONTINUOUS
 62
     7
 10
25412.516468999969
 20
14716.236252000001
 30
0.0
 40
160.0
  1
3268.5
 50
90.0
  0
TEXT
  5
37D6
  8
0
  6
CONTINUOUS
 62
     7
 10
25412.516468999969
 20
17942.819585333331
 30
0.0
 40
160.0
  1
2918
 50
90.0
  0
TEXT
  5
37D7
  8
0
  6
CONTINUOUS
 62
     7
 10
25012.51646899998
 20
19076.15291866667
 30
0.0
 40
160.0
  1
758
 50
90.0
  0
TEXT
  5
37D8
  8
0
  6
CONTINUOUS
 62
     7
 10
25012.51646899998
 20
18386.652918666659
 30
0.0
 40
160.0
  1
701
 50
90.0
  0
TEXT
  5
37D9
  8
0
  6
CONTINUOUS
 62
     7
 10
25012.51646899998
 20
17685.65291866667
 30
0.0
 40
160.0
  1
701
 50
90.0
  0
TEXT
  5
37DA
  8
0
  6
CONTINUOUS
 62
     7
 10
25012.51646899998
 20
16916.15291866667
 30
0.0
 40
160.0
  1
758
 50
90.0
  0
TEXT
  5
37DB
  8
0
  6
CONTINUOUS
 62
     7
 10
25012.51646899998
 20
16158.15291866667
 30
0.0
 40
160.0
  1
758
 50
90.0
  0
TEXT
  5
37DC
  8
0
  6
CONTINUOUS
 62
     7
 10
25012.51646899998
 20
15468.773174416679
 30
0.0
 40
160.0
  1
701
 50
90.0
  0
TEXT
  5
37DD
  8
0
  6
CONTINUOUS
 62
     7
 10
25012.51646899998
 20
14767.773174416679
 30
0.0
 40
160.0
  1
701
 50
90.0
  0
TEXT
  5
37DE
  8
0
  6
CONTINUOUS
 62
     7
 10
25012.51646899998
 20
14066.65291866667
 30
0.0
 40
160.0
  1
701
 50
90.0
  0
TEXT
  5
37DF
  8
0
  6
CONTINUOUS
 62
     7
 10
25372.516468999969
 20
13554.80666620354
 30
0.0
 40
160.0
  1
407.5
 50
90.0
  0
TEXT
  5
37E0
  8
0
  6
CONTINUOUS
 62
     7
 10
22316.26686499998
 20
12190.538167999999
 30
0.0
 40
160.0
  1
2652.5
  0
TEXT
  5
37E1
  8
0
  6
CONTINUOUS
 62
     7
 10
21550.57053738206
 20
12590.538167999999
 30
0.0
 40
160.0
  1
42.5
  0
TEXT
  5
37E2
  8
0
  6
CONTINUOUS
 62
     7
 10
23401.963192617881
 20
12590.538167999999
 30
0.0
 40
160.0
  1
42.5
  0
TEXT
  5
37E3
  8
0
  6
CONTINUOUS
 62
     7
 10
24118.070537382071
 20
12590.538167999999
 30
0.0
 40
160.0
  1
42.5
  0
TEXT
  5
37E4
  8
0
  6
CONTINUOUS
 62
     7
 10
20834.463192617881
 20
12590.538167999999
 30
0.0
 40
160.0
  1
42.5
  0
TEXT
  5
37E5
  8
0
  6
CONTINUOUS
 62
     7
 10
14240.517868000001
 20
5021.1885389999989
 30
0.0
 40
160.0
  1
3268.5
  0
TEXT
  5
37E6
  8
0
  6
CONTINUOUS
 62
     7
 10
11280.60120133332
 20
5021.1885389999989
 30
0.0
 40
160.0
  1
2918
  0
TEXT
  5
37E7
  8
0
  6
CONTINUOUS
 62
     7
 10
9448.5941589036938
 20
5021.1885389999989
 30
0.0
 40
160.0
  1
42.5
  0
TEXT
  5
37E8
  8
0
  6
CONTINUOUS
 62
     7
 10
16455.58650530982
 20
5021.1885389999989
 30
0.0
 40
160.0
  1
42.5
  0
TEXT
  5
37E9
  8
0
  6
CONTINUOUS
 62
     7
 10
12808.18453466666
 20
4621.1887040000001
 30
0.0
 40
160.0
  1
6271.5
  0
TEXT
  5
37EA
  8
0
  6
CONTINUOUS
 62
     7
 10
8875.767472000005
 20
6541.0217073333351
 30
0.0
 40
160.0
  1
2157（2397）
 50
90.0
  0
TEXT
  5
37EB
  8
0
  6
CONTINUOUS
 62
     7
 10
17327.268263999991
 20
6609.8550406666691
 30
0.0
 40
160.0
  1
2348（2588）
 50
90.0
  0
TEXT
  5
37EC
  8
0
  6
CONTINUOUS
 62
     7
 10
9452.4345346666632
 20
9469.1900499999956
 30
0.0
 40
160.0
  1
180
  0
TEXT
  5
37ED
  8
0
  6
CONTINUOUS
 62
     7
 10
12808.18453466666
 20
9469.1900499999992
 30
0.0
 40
160.0
  1
6271.5
  0
TEXT
  5
37EE
  8
0
  6
CONTINUOUS
 62
     7
 10
16533.934534666671
 20
9469.1900499999992
 30
0.0
 40
160.0
  1
150
  0
TEXT
  5
37EF
  8
0
  6
CONTINUOUS
 62
     7
 10
12806.517868000001
 20
9869.1883999999955
 30
0.0
 40
160.0
  1
6601.5
  0
TEXT
  5
37F0
  8
0
  6
CONTINUOUS
 62
     7
 10
22316.26686499998
 20
4621.1887040000047
 30
0.0
 40
160.0
  1
2652.5
  0
TEXT
  5
37F1
  8
0
  6
CONTINUOUS
 62
     7
 10
20823.97787474114
 20
5021.1885390000061
 30
0.0
 40
160.0
  1
42.5
  0
TEXT
  5
37F2
  8
0
  6
CONTINUOUS
 62
     7
 10
22316.26686499998
 20
5021.1885390000061
 30
0.0
 40
160.0
  1
2567.5
  0
TEXT
  5
37F3
  8
0
  6
CONTINUOUS
 62
     7
 10
21788.26686499998
 20
5421.1885390000061
 30
0.0
 40
160.0
  1
有効開口巾 2379.5
  0
TEXT
  5
37F4
  8
0
  6
CONTINUOUS
 62
     7
 10
24128.55585525883
 20
5021.1885390000061
 30
0.0
 40
160.0
  1
42.5
  0
TEXT
  5
37F9
  8
0
  6
CONTINUOUS
 62
     7
 10
20102.513235999981
 20
6647.1883870000029
 30
0.0
 40
160.0
  1
2348 (2588)
 50
90.0
  0
TEXT
  5
37FA
  8
0
  6
CONTINUOUS
 62
     7
 10
20502.51554499998
 20
6305.1676122912768
 30
0.0
 40
160.0
  1
有効開口高サ 1891.5
 50
90.0
  0
TEXT
  5
37FB
  8
0
  6
CONTINUOUS
 62
     7
 10
10805.631050999969
 20
17942.819585333331
 30
0.0
 40
160.0
  1
2918
 50
90.0
  0
TEXT
  5
37FC
  8
0
  6
CONTINUOUS
 62
     7
 10
10805.631050999969
 20
19979.941436807669
 30
0.0
 40
160.0
  1
222.5
 50
90.0
  0
TEXT
  5
37FD
  8
0
  6
CONTINUOUS
 62
     7
 10
11205.63105099998
 20
20010.982161000022
 30
0.0
 40
160.0
  1
30
 50
90.0
  0
TEXT
  5
37FE
  8
0
  6
CONTINUOUS
 62
     7
 10
10805.631050999969
 20
14716.236252000001
 30
0.0
 40
160.0
  1
3268.5
 50
90.0
  0
TEXT
  5
37FF
  8
0
  6
CONTINUOUS
 62
     7
 10
10805.631050999969
 20
12674.03324170262
 30
0.0
 40
160.0
  1
192.5
 50
90.0
  0
TEXT
  5
3800
  8
0
  6
CONTINUOUS
 62
     7
 10
12698.87934199998
 20
20520.987440000012
 30
0.0
 40
160.0
  1
2567.5
  0
ARC
  5
3808
  8
0
  6
BYBLOCK
 62
     0
 10
11815.12934199998
 20
20440.987440000012
 30
0.0
 40
15.0
 50
0.0
 51
180.0
  0
ARC
  5
3809
  8
0
  6
BYBLOCK
 62
     0
 10
11815.12934199998
 20
20440.987440000012
 30
0.0
 40
15.0
 50
180.0
 51
0.0
  0
ARC
  5
380C
  8
0
  6
BYBLOCK
 62
     0
 10
14382.62934199998
 20
20440.987440000012
 30
0.0
 40
15.0
 50
180.0
 51
0.0
  0
ARC
  5
380D
  8
0
  6
BYBLOCK
 62
     0
 10
14382.62934199998
 20
20440.987440000012
 30
0.0
 40
15.0
 50
0.0
 51
180.0
  0
ARC
  5
3810
  8
0
  6
BYBLOCK
 62
     0
 10
11815.12934199998
 20
20440.987440000012
 30
0.0
 40
15.0
 50
0.0
 51
180.0
  0
ARC
  5
3811
  8
0
  6
BYBLOCK
 62
     0
 10
11815.12934199998
 20
20440.987440000012
 30
0.0
 40
15.0
 50
180.0
 51
0.0
  0
ARC
  5
3812
  8
0
  6
BYBLOCK
 62
     0
 10
14382.62934199998
 20
20440.987440000012
 30
0.0
 40
15.0
 50
180.0
 51
0.0
  0
ARC
  5
3813
  8
0
  6
BYBLOCK
 62
     0
 10
14382.62934199998
 20
20440.987440000012
 30
0.0
 40
15.0
 50
0.0
 51
180.0
  0
ARC
  5
3814
  8
0
  6
BYBLOCK
 62
     0
 10
10885.631050999969
 20
13481.986252000001
 30
0.0
 40
15.0
 50
90.0
 51
270.0
  0
ARC
  5
3815
  8
0
  6
BYBLOCK
 62
     0
 10
10885.631050999969
 20
13481.986252000001
 30
0.0
 40
15.0
 50
270.0
 51
90.0
  0
ARC
  5
3816
  8
0
  6
BYBLOCK
 62
     0
 10
10885.631050999969
 20
13289.490937
 30
0.0
 40
15.0
 50
270.0
 51
90.0
  0
ARC
  5
3817
  8
0
  6
BYBLOCK
 62
     0
 10
10885.631050999969
 20
13289.490937
 30
0.0
 40
15.0
 50
90.0
 51
270.0
  0
ARC
  5
3818
  8
0
  6
BYBLOCK
 62
     0
 10
10885.63105099998
 20
16750.486251999992
 30
0.0
 40
15.0
 50
270.0
 51
90.0
  0
ARC
  5
3819
  8
0
  6
BYBLOCK
 62
     0
 10
10885.63105099998
 20
16750.486251999992
 30
0.0
 40
15.0
 50
90.0
 51
270.0
  0
ARC
  5
381A
  8
0
  6
BYBLOCK
 62
     0
 10
10885.63105099998
 20
13481.986252000001
 30
0.0
 40
15.0
 50
90.0
 51
270.0
  0
ARC
  5
381B
  8
0
  6
BYBLOCK
 62
     0
 10
10885.63105099998
 20
13481.986252000001
 30
0.0
 40
15.0
 50
270.0
 51
90.0
  0
ARC
  5
381C
  8
0
  6
BYBLOCK
 62
     0
 10
11285.63105099998
 20
19860.982161000022
 30
0.0
 40
15.0
 50
270.0
 51
90.0
  0
ARC
  5
381D
  8
0
  6
BYBLOCK
 62
     0
 10
11285.63105099998
 20
19860.982161000022
 30
0.0
 40
15.0
 50
90.0
 51
270.0
  0
ARC
  5
381E
  8
0
  6
BYBLOCK
 62
     0
 10
11285.63105099998
 20
19890.982161000022
 30
0.0
 40
15.0
 50
90.0
 51
270.0
  0
ARC
  5
381F
  8
0
  6
BYBLOCK
 62
     0
 10
11285.63105099998
 20
19890.982161000022
 30
0.0
 40
15.0
 50
270.0
 51
90.0
  0
ARC
  5
3820
  8
0
  6
BYBLOCK
 62
     0
 10
10885.631050999969
 20
19668.486251999992
 30
0.0
 40
15.0
 50
270.0
 51
90.0
  0
ARC
  5
3821
  8
0
  6
BYBLOCK
 62
     0
 10
10885.631050999969
 20
19668.486251999992
 30
0.0
 40
15.0
 50
90.0
 51
270.0
  0
ARC
  5
3822
  8
0
  6
BYBLOCK
 62
     0
 10
10885.631050999969
 20
19890.982161000022
 30
0.0
 40
15.0
 50
90.0
 51
270.0
  0
ARC
  5
3823
  8
0
  6
BYBLOCK
 62
     0
 10
10885.631050999969
 20
19890.982161000022
 30
0.0
 40
15.0
 50
270.0
 51
90.0
  0
ARC
  5
3824
  8
0
  6
BYBLOCK
 62
     0
 10
10885.631050999969
 20
16750.486251999992
 30
0.0
 40
15.0
 50
90.0
 51
270.0
  0
ARC
  5
3825
  8
0
  6
BYBLOCK
 62
     0
 10
10885.631050999969
 20
16750.486251999992
 30
0.0
 40
15.0
 50
270.0
 51
90.0
  0
ARC
  5
3826
  8
0
  6
BYBLOCK
 62
     0
 10
10885.631050999969
 20
19668.486251999992
 30
0.0
 40
15.0
 50
270.0
 51
90.0
  0
ARC
  5
3827
  8
0
  6
BYBLOCK
 62
     0
 10
10885.631050999969
 20
19668.486251999992
 30
0.0
 40
15.0
 50
90.0
 51
270.0
  0
ARC
  5
3828
  8
0
  6
BYBLOCK
 62
     0
 10
20582.515544999991
 20
6241.1883740000012
 30
0.0
 40
15.0
 50
90.0
 51
270.0
  0
ARC
  5
3829
  8
0
  6
BYBLOCK
 62
     0
 10
20582.515544999991
 20
6241.1883740000012
 30
0.0
 40
15.0
 50
270.0
 51
90.0
  0
ARC
  5
382A
  8
0
  6
BYBLOCK
 62
     0
 10
20582.515544999991
 20
8132.6883740000021
 30
0.0
 40
15.0
 50
270.0
 51
90.0
  0
ARC
  5
382B
  8
0
  6
BYBLOCK
 62
     0
 10
20582.515544999991
 20
8132.6883740000021
 30
0.0
 40
15.0
 50
90.0
 51
270.0
  0
ARC
  5
382C
  8
0
  6
BYBLOCK
 62
     0
 10
20182.513235999981
 20
6241.1883740000012
 30
0.0
 40
15.0
 50
90.0
 51
270.0
  0
ARC
  5
382D
  8
0
  6
BYBLOCK
 62
     0
 10
20182.513235999981
 20
6241.1883740000012
 30
0.0
 40
15.0
 50
270.0
 51
90.0
  0
ARC
  5
382E
  8
0
  6
BYBLOCK
 62
     0
 10
20182.513235999992
 20
8589.1883999999973
 30
0.0
 40
15.0
 50
270.0
 51
90.0
  0
ARC
  5
382F
  8
0
  6
BYBLOCK
 62
     0
 10
20182.513235999992
 20
8589.1883999999973
 30
0.0
 40
15.0
 50
90.0
 51
270.0
  0
ARC
  5
3840
  8
0
  6
BYBLOCK
 62
     0
 10
24000.01686499998
 20
4941.1885390000061
 30
0.0
 40
15.0
 50
180.0
 51
0.0
  0
ARC
  5
3841
  8
0
  6
BYBLOCK
 62
     0
 10
24000.01686499998
 20
4941.1885390000061
 30
0.0
 40
15.0
 50
0.0
 51
180.0
  0
ARC
  5
3842
  8
0
  6
BYBLOCK
 62
     0
 10
24042.51686499998
 20
4941.1885390000061
 30
0.0
 40
15.0
 50
0.0
 51
180.0
  0
ARC
  5
3843
  8
0
  6
BYBLOCK
 62
     0
 10
24042.51686499998
 20
4941.1885390000061
 30
0.0
 40
15.0
 50
180.0
 51
0.0
  0
ARC
  5
3844
  8
0
  6
BYBLOCK
 62
     0
 10
21526.51686499998
 20
5341.1885390000079
 30
0.0
 40
15.0
 50
0.0
 51
180.0
  0
ARC
  5
3845
  8
0
  6
BYBLOCK
 62
     0
 10
21526.51686499998
 20
5341.1885390000079
 30
0.0
 40
15.0
 50
180.0
 51
0.0
  0
ARC
  5
3846
  8
0
  6
BYBLOCK
 62
     0
 10
23906.016864999969
 20
5341.1885390000079
 30
0.0
 40
15.0
 50
180.0
 51
0.0
  0
ARC
  5
3847
  8
0
  6
BYBLOCK
 62
     0
 10
23906.016864999969
 20
5341.1885390000079
 30
0.0
 40
15.0
 50
0.0
 51
180.0
  0
ARC
  5
3848
  8
0
  6
BYBLOCK
 62
     0
 10
21432.516864999969
 20
4941.1885390000061
 30
0.0
 40
15.0
 50
0.0
 51
180.0
  0
ARC
  5
3849
  8
0
  6
BYBLOCK
 62
     0
 10
21432.516864999969
 20
4941.1885390000061
 30
0.0
 40
15.0
 50
180.0
 51
0.0
  0
ARC
  5
384A
  8
0
  6
BYBLOCK
 62
     0
 10
24000.01686499998
 20
4941.1885390000061
 30
0.0
 40
15.0
 50
180.0
 51
0.0
  0
ARC
  5
384B
  8
0
  6
BYBLOCK
 62
     0
 10
24000.01686499998
 20
4941.1885390000061
 30
0.0
 40
15.0
 50
0.0
 51
180.0
  0
ARC
  5
384C
  8
0
  6
BYBLOCK
 62
     0
 10
21432.516864999969
 20
4941.1885390000061
 30
0.0
 40
15.0
 50
0.0
 51
180.0
  0
ARC
  5
384D
  8
0
  6
BYBLOCK
 62
     0
 10
21432.516864999969
 20
4941.1885390000061
 30
0.0
 40
15.0
 50
180.0
 51
0.0
  0
ARC
  5
384E
  8
0
  6
BYBLOCK
 62
     0
 10
21390.01686499998
 20
4941.1885390000061
 30
0.0
 40
15.0
 50
180.0
 51
0.0
  0
ARC
  5
384F
  8
0
  6
BYBLOCK
 62
     0
 10
21390.01686499998
 20
4941.1885390000061
 30
0.0
 40
15.0
 50
0.0
 51
180.0
  0
ARC
  5
3850
  8
0
  6
BYBLOCK
 62
     0
 10
21390.01686499998
 20
4541.1887040000038
 30
0.0
 40
15.0
 50
0.0
 51
180.0
  0
ARC
  5
3851
  8
0
  6
BYBLOCK
 62
     0
 10
21390.01686499998
 20
4541.1887040000038
 30
0.0
 40
15.0
 50
180.0
 51
0.0
  0
ARC
  5
3852
  8
0
  6
BYBLOCK
 62
     0
 10
24042.51686499998
 20
4541.1887040000038
 30
0.0
 40
15.0
 50
180.0
 51
0.0
  0
ARC
  5
3853
  8
0
  6
BYBLOCK
 62
     0
 10
24042.51686499998
 20
4541.1887040000038
 30
0.0
 40
15.0
 50
0.0
 51
180.0
  0
ARC
  5
3854
  8
0
  6
BYBLOCK
 62
     0
 10
9865.7678679999972
 20
9789.1883999999955
 30
0.0
 40
15.0
 50
0.0
 51
180.0
  0
ARC
  5
3855
  8
0
  6
BYBLOCK
 62
     0
 10
9865.7678679999972
 20
9789.1883999999955
 30
0.0
 40
15.0
 50
180.0
 51
0.0
  0
ARC
  5
3856
  8
0
  6
BYBLOCK
 62
     0
 10
16467.267867999992
 20
9789.1883999999955
 30
0.0
 40
15.0
 50
180.0
 51
0.0
  0
ARC
  5
3857
  8
0
  6
BYBLOCK
 62
     0
 10
16467.267867999992
 20
9789.1883999999955
 30
0.0
 40
15.0
 50
0.0
 51
180.0
  0
ARC
  5
3858
  8
0
  6
BYBLOCK
 62
     0
 10
16317.267868000001
 20
9389.1900499999992
 30
0.0
 40
15.0
 50
180.0
 51
0.0
  0
ARC
  5
3859
  8
0
  6
BYBLOCK
 62
     0
 10
16317.267868000001
 20
9389.1900499999992
 30
0.0
 40
15.0
 50
0.0
 51
180.0
  0
ARC
  5
385A
  8
0
  6
BYBLOCK
 62
     0
 10
16467.267867999992
 20
9389.1900499999992
 30
0.0
 40
15.0
 50
0.0
 51
180.0
  0
ARC
  5
385B
  8
0
  6
BYBLOCK
 62
     0
 10
16467.267867999992
 20
9389.1900499999992
 30
0.0
 40
15.0
 50
180.0
 51
0.0
  0
ARC
  5
385C
  8
0
  6
BYBLOCK
 62
     0
 10
10045.767868000001
 20
9389.1900499999992
 30
0.0
 40
15.0
 50
0.0
 51
180.0
  0
ARC
  5
385D
  8
0
  6
BYBLOCK
 62
     0
 10
10045.767868000001
 20
9389.1900499999992
 30
0.0
 40
15.0
 50
180.0
 51
0.0
  0
ARC
  5
385E
  8
0
  6
BYBLOCK
 62
     0
 10
16317.267868000001
 20
9389.1900499999992
 30
0.0
 40
15.0
 50
180.0
 51
0.0
  0
ARC
  5
385F
  8
0
  6
BYBLOCK
 62
     0
 10
16317.267868000001
 20
9389.1900499999992
 30
0.0
 40
15.0
 50
0.0
 51
180.0
  0
ARC
  5
3860
  8
0
  6
BYBLOCK
 62
     0
 10
9865.7678679999972
 20
9389.1900499999956
 30
0.0
 40
15.0
 50
180.0
 51
0.0
  0
ARC
  5
3861
  8
0
  6
BYBLOCK
 62
     0
 10
9865.7678679999972
 20
9389.1900499999956
 30
0.0
 40
15.0
 50
0.0
 51
180.0
  0
ARC
  5
3862
  8
0
  6
BYBLOCK
 62
     0
 10
10045.767868000001
 20
9389.1900499999956
 30
0.0
 40
15.0
 50
0.0
 51
180.0
  0
ARC
  5
3863
  8
0
  6
BYBLOCK
 62
     0
 10
10045.767868000001
 20
9389.1900499999956
 30
0.0
 40
15.0
 50
180.0
 51
0.0
  0
ARC
  5
3864
  8
0
  6
BYBLOCK
 62
     0
 10
17407.268263999991
 20
6241.1883740000012
 30
0.0
 40
15.0
 50
90.0
 51
270.0
  0
ARC
  5
3865
  8
0
  6
BYBLOCK
 62
     0
 10
17407.268263999991
 20
6241.1883740000012
 30
0.0
 40
15.0
 50
270.0
 51
90.0
  0
ARC
  5
3866
  8
0
  6
BYBLOCK
 62
     0
 10
17407.268263999991
 20
8589.1883739999994
 30
0.0
 40
15.0
 50
270.0
 51
90.0
  0
ARC
  5
3867
  8
0
  6
BYBLOCK
 62
     0
 10
17407.268263999991
 20
8589.1883739999994
 30
0.0
 40
15.0
 50
90.0
 51
270.0
  0
ARC
  5
3868
  8
0
  6
BYBLOCK
 62
     0
 10
8955.7674720000032
 20
6241.1883740000012
 30
0.0
 40
15.0
 50
90.0
 51
270.0
  0
ARC
  5
3869
  8
0
  6
BYBLOCK
 62
     0
 10
8955.7674720000032
 20
6241.1883740000012
 30
0.0
 40
15.0
 50
270.0
 51
90.0
  0
ARC
  5
386A
  8
0
  6
BYBLOCK
 62
     0
 10
8955.7674720000032
 20
8398.188374000003
 30
0.0
 40
15.0
 50
270.0
 51
90.0
  0
ARC
  5
386B
  8
0
  6
BYBLOCK
 62
     0
 10
8955.7674720000032
 20
8398.188374000003
 30
0.0
 40
15.0
 50
90.0
 51
270.0
  0
ARC
  5
386C
  8
0
  6
BYBLOCK
 62
     0
 10
10045.767868000001
 20
4541.1887040000001
 30
0.0
 40
15.0
 50
0.0
 51
180.0
  0
ARC
  5
386D
  8
0
  6
BYBLOCK
 62
     0
 10
10045.767868000001
 20
4541.1887040000001
 30
0.0
 40
15.0
 50
180.0
 51
0.0
  0
ARC
  5
386E
  8
0
  6
BYBLOCK
 62
     0
 10
16317.267868000001
 20
4541.1887040000001
 30
0.0
 40
15.0
 50
180.0
 51
0.0
  0
ARC
  5
386F
  8
0
  6
BYBLOCK
 62
     0
 10
16317.267868000001
 20
4541.1887040000001
 30
0.0
 40
15.0
 50
0.0
 51
180.0
  0
ARC
  5
3870
  8
0
  6
BYBLOCK
 62
     0
 10
16274.767868000001
 20
4941.1885389999979
 30
0.0
 40
15.0
 50
180.0
 51
0.0
  0
ARC
  5
3871
  8
0
  6
BYBLOCK
 62
     0
 10
16274.767868000001
 20
4941.1885389999979
 30
0.0
 40
15.0
 50
0.0
 51
180.0
  0
ARC
  5
3872
  8
0
  6
BYBLOCK
 62
     0
 10
16317.267868000001
 20
4941.1885389999979
 30
0.0
 40
15.0
 50
0.0
 51
180.0
  0
ARC
  5
3873
  8
0
  6
BYBLOCK
 62
     0
 10
16317.267868000001
 20
4941.1885389999979
 30
0.0
 40
15.0
 50
180.0
 51
0.0
  0
ARC
  5
3874
  8
0
  6
BYBLOCK
 62
     0
 10
10088.267868000001
 20
4941.1885389999979
 30
0.0
 40
15.0
 50
0.0
 51
180.0
  0
ARC
  5
3875
  8
0
  6
BYBLOCK
 62
     0
 10
10088.267868000001
 20
4941.1885389999979
 30
0.0
 40
15.0
 50
180.0
 51
0.0
  0
ARC
  5
3876
  8
0
  6
BYBLOCK
 62
     0
 10
10045.767868000001
 20
4941.1885389999979
 30
0.0
 40
15.0
 50
180.0
 51
0.0
  0
ARC
  5
3877
  8
0
  6
BYBLOCK
 62
     0
 10
10045.767868000001
 20
4941.1885389999979
 30
0.0
 40
15.0
 50
0.0
 51
180.0
  0
ARC
  5
3878
  8
0
  6
BYBLOCK
 62
     0
 10
13006.267868000001
 20
4941.1885389999979
 30
0.0
 40
15.0
 50
180.0
 51
0.0
  0
ARC
  5
3879
  8
0
  6
BYBLOCK
 62
     0
 10
13006.267868000001
 20
4941.1885389999979
 30
0.0
 40
15.0
 50
0.0
 51
180.0
  0
ARC
  5
387A
  8
0
  6
BYBLOCK
 62
     0
 10
10088.267868000001
 20
4941.1885389999979
 30
0.0
 40
15.0
 50
0.0
 51
180.0
  0
ARC
  5
387B
  8
0
  6
BYBLOCK
 62
     0
 10
10088.267868000001
 20
4941.1885389999979
 30
0.0
 40
15.0
 50
180.0
 51
0.0
  0
ARC
  5
387C
  8
0
  6
BYBLOCK
 62
     0
 10
13006.267868000001
 20
4941.1885389999979
 30
0.0
 40
15.0
 50
0.0
 51
180.0
  0
ARC
  5
387D
  8
0
  6
BYBLOCK
 62
     0
 10
13006.267868000001
 20
4941.1885389999979
 30
0.0
 40
15.0
 50
180.0
 51
0.0
  0
ARC
  5
387E
  8
0
  6
BYBLOCK
 62
     0
 10
16274.767868000001
 20
4941.1885389999979
 30
0.0
 40
15.0
 50
180.0
 51
0.0
  0
ARC
  5
387F
  8
0
  6
BYBLOCK
 62
     0
 10
16274.767868000001
 20
4941.1885389999979
 30
0.0
 40
15.0
 50
0.0
 51
180.0
  0
ARC
  5
3880
  8
0
  6
BYBLOCK
 62
     0
 10
21432.516864999969
 20
12510.538167999999
 30
0.0
 40
15.0
 50
0.0
 51
180.0
  0
ARC
  5
3881
  8
0
  6
BYBLOCK
 62
     0
 10
21432.516864999969
 20
12510.538167999999
 30
0.0
 40
15.0
 50
180.0
 51
0.0
  0
ARC
  5
3882
  8
0
  6
BYBLOCK
 62
     0
 10
21390.014621999992
 20
12510.538167999999
 30
0.0
 40
15.0
 50
180.0
 51
0.0
  0
ARC
  5
3883
  8
0
  6
BYBLOCK
 62
     0
 10
21390.014621999992
 20
12510.538167999999
 30
0.0
 40
15.0
 50
0.0
 51
180.0
  0
ARC
  5
3884
  8
0
  6
BYBLOCK
 62
     0
 10
24000.01686499998
 20
12510.538167999999
 30
0.0
 40
15.0
 50
180.0
 51
0.0
  0
ARC
  5
3885
  8
0
  6
BYBLOCK
 62
     0
 10
24000.01686499998
 20
12510.538167999999
 30
0.0
 40
15.0
 50
0.0
 51
180.0
  0
ARC
  5
3886
  8
0
  6
BYBLOCK
 62
     0
 10
24042.519107999971
 20
12510.538167999999
 30
0.0
 40
15.0
 50
0.0
 51
180.0
  0
ARC
  5
3887
  8
0
  6
BYBLOCK
 62
     0
 10
24042.519107999971
 20
12510.538167999999
 30
0.0
 40
15.0
 50
180.0
 51
0.0
  0
ARC
  5
3888
  8
0
  6
BYBLOCK
 62
     0
 10
24000.01686499998
 20
12510.538167999999
 30
0.0
 40
15.0
 50
0.0
 51
180.0
  0
ARC
  5
3889
  8
0
  6
BYBLOCK
 62
     0
 10
24000.01686499998
 20
12510.538167999999
 30
0.0
 40
15.0
 50
180.0
 51
0.0
  0
ARC
  5
388A
  8
0
  6
BYBLOCK
 62
     0
 10
23957.514621999981
 20
12510.538167999999
 30
0.0
 40
15.0
 50
180.0
 51
0.0
  0
ARC
  5
388B
  8
0
  6
BYBLOCK
 62
     0
 10
23957.514621999981
 20
12510.538167999999
 30
0.0
 40
15.0
 50
0.0
 51
180.0
  0
ARC
  5
388C
  8
0
  6
BYBLOCK
 62
     0
 10
21432.516864999969
 20
12510.538167999999
 30
0.0
 40
15.0
 50
180.0
 51
0.0
  0
ARC
  5
388D
  8
0
  6
BYBLOCK
 62
     0
 10
21432.516864999969
 20
12510.538167999999
 30
0.0
 40
15.0
 50
0.0
 51
180.0
  0
ARC
  5
388E
  8
0
  6
BYBLOCK
 62
     0
 10
21475.019107999971
 20
12510.538167999999
 30
0.0
 40
15.0
 50
0.0
 51
180.0
  0
ARC
  5
388F
  8
0
  6
BYBLOCK
 62
     0
 10
21475.019107999971
 20
12510.538167999999
 30
0.0
 40
15.0
 50
180.0
 51
0.0
  0
ARC
  5
3890
  8
0
  6
BYBLOCK
 62
     0
 10
21390.014621999992
 20
12110.538167999999
 30
0.0
 40
15.0
 50
0.0
 51
180.0
  0
ARC
  5
3891
  8
0
  6
BYBLOCK
 62
     0
 10
21390.014621999992
 20
12110.538167999999
 30
0.0
 40
15.0
 50
180.0
 51
0.0
  0
ARC
  5
3892
  8
0
  6
BYBLOCK
 62
     0
 10
24042.519107999971
 20
12110.538167999999
 30
0.0
 40
15.0
 50
180.0
 51
0.0
  0
ARC
  5
3893
  8
0
  6
BYBLOCK
 62
     0
 10
24042.519107999971
 20
12110.538167999999
 30
0.0
 40
15.0
 50
0.0
 51
180.0
  0
ARC
  5
3894
  8
0
  6
BYBLOCK
 62
     0
 10
25092.516468999969
 20
13889.486252000001
 30
0.0
 40
15.0
 50
270.0
 51
90.0
  0
ARC
  5
3895
  8
0
  6
BYBLOCK
 62
     0
 10
25092.516468999969
 20
13889.486252000001
 30
0.0
 40
15.0
 50
90.0
 51
270.0
  0
ARC
  5
3896
  8
0
  6
BYBLOCK
 62
     0
 10
25092.516468999969
 20
13481.986252000001
 30
0.0
 40
15.0
 50
90.0
 51
270.0
  0
ARC
  5
3897
  8
0
  6
BYBLOCK
 62
     0
 10
25092.516468999969
 20
13481.986252000001
 30
0.0
 40
15.0
 50
270.0
 51
90.0
  0
ARC
  5
3898
  8
0
  6
BYBLOCK
 62
     0
 10
25092.516468999969
 20
14590.486252000001
 30
0.0
 40
15.0
 50
270.0
 51
90.0
  0
ARC
  5
3899
  8
0
  6
BYBLOCK
 62
     0
 10
25092.516468999969
 20
14590.486252000001
 30
0.0
 40
15.0
 50
90.0
 51
270.0
  0
ARC
  5
389A
  8
0
  6
BYBLOCK
 62
     0
 10
25092.516468999969
 20
13889.486252000001
 30
0.0
 40
15.0
 50
90.0
 51
270.0
  0
ARC
  5
389B
  8
0
  6
BYBLOCK
 62
     0
 10
25092.516468999969
 20
13889.486252000001
 30
0.0
 40
15.0
 50
270.0
 51
90.0
  0
ARC
  5
389C
  8
0
  6
BYBLOCK
 62
     0
 10
25092.516468999969
 20
15291.72676350001
 30
0.0
 40
15.0
 50
270.0
 51
90.0
  0
ARC
  5
389D
  8
0
  6
BYBLOCK
 62
     0
 10
25092.516468999969
 20
15291.72676350001
 30
0.0
 40
15.0
 50
90.0
 51
270.0
  0
ARC
  5
389E
  8
0
  6
BYBLOCK
 62
     0
 10
25092.516468999969
 20
14590.486252000001
 30
0.0
 40
15.0
 50
90.0
 51
270.0
  0
ARC
  5
389F
  8
0
  6
BYBLOCK
 62
     0
 10
25092.516468999969
 20
14590.486252000001
 30
0.0
 40
15.0
 50
270.0
 51
90.0
  0
ARC
  5
38A0
  8
0
  6
BYBLOCK
 62
     0
 10
25092.516468999969
 20
15992.486252000001
 30
0.0
 40
15.0
 50
270.0
 51
90.0
  0
ARC
  5
38A1
  8
0
  6
BYBLOCK
 62
     0
 10
25092.516468999969
 20
15992.486252000001
 30
0.0
 40
15.0
 50
90.0
 51
270.0
  0
ARC
  5
38A2
  8
0
  6
BYBLOCK
 62
     0
 10
25092.516468999969
 20
15291.72676350001
 30
0.0
 40
15.0
 50
90.0
 51
270.0
  0
ARC
  5
38A3
  8
0
  6
BYBLOCK
 62
     0
 10
25092.516468999969
 20
15291.72676350001
 30
0.0
 40
15.0
 50
270.0
 51
90.0
  0
ARC
  5
38A4
  8
0
  6
BYBLOCK
 62
     0
 10
25092.516468999969
 20
16750.486251999992
 30
0.0
 40
15.0
 50
270.0
 51
90.0
  0
ARC
  5
38A5
  8
0
  6
BYBLOCK
 62
     0
 10
25092.516468999969
 20
16750.486251999992
 30
0.0
 40
15.0
 50
90.0
 51
270.0
  0
ARC
  5
38A6
  8
0
  6
BYBLOCK
 62
     0
 10
25092.516468999969
 20
15992.486252000001
 30
0.0
 40
15.0
 50
90.0
 51
270.0
  0
ARC
  5
38A7
  8
0
  6
BYBLOCK
 62
     0
 10
25092.516468999969
 20
15992.486252000001
 30
0.0
 40
15.0
 50
270.0
 51
90.0
  0
ARC
  5
38A8
  8
0
  6
BYBLOCK
 62
     0
 10
25092.516468999969
 20
17508.486251999992
 30
0.0
 40
15.0
 50
270.0
 51
90.0
  0
ARC
  5
38A9
  8
0
  6
BYBLOCK
 62
     0
 10
25092.516468999969
 20
17508.486251999992
 30
0.0
 40
15.0
 50
90.0
 51
270.0
  0
ARC
  5
38AA
  8
0
  6
BYBLOCK
 62
     0
 10
25092.516468999969
 20
16750.486251999992
 30
0.0
 40
15.0
 50
90.0
 51
270.0
  0
ARC
  5
38AB
  8
0
  6
BYBLOCK
 62
     0
 10
25092.516468999969
 20
16750.486251999992
 30
0.0
 40
15.0
 50
270.0
 51
90.0
  0
ARC
  5
38AC
  8
0
  6
BYBLOCK
 62
     0
 10
25092.516468999969
 20
18209.486251999992
 30
0.0
 40
15.0
 50
270.0
 51
90.0
  0
ARC
  5
38AD
  8
0
  6
BYBLOCK
 62
     0
 10
25092.516468999969
 20
18209.486251999992
 30
0.0
 40
15.0
 50
90.0
 51
270.0
  0
ARC
  5
38AE
  8
0
  6
BYBLOCK
 62
     0
 10
25092.516468999969
 20
17508.486251999992
 30
0.0
 40
15.0
 50
90.0
 51
270.0
  0
ARC
  5
38AF
  8
0
  6
BYBLOCK
 62
     0
 10
25092.516468999969
 20
17508.486251999992
 30
0.0
 40
15.0
 50
270.0
 51
90.0
  0
ARC
  5
38B0
  8
0
  6
BYBLOCK
 62
     0
 10
25092.516468999969
 20
18910.486251999992
 30
0.0
 40
15.0
 50
270.0
 51
90.0
  0
ARC
  5
38B1
  8
0
  6
BYBLOCK
 62
     0
 10
25092.516468999969
 20
18910.486251999992
 30
0.0
 40
15.0
 50
90.0
 51
270.0
  0
ARC
  5
38B2
  8
0
  6
BYBLOCK
 62
     0
 10
25092.516468999969
 20
18209.486251999992
 30
0.0
 40
15.0
 50
90.0
 51
270.0
  0
ARC
  5
38B3
  8
0
  6
BYBLOCK
 62
     0
 10
25092.516468999969
 20
18209.486251999992
 30
0.0
 40
15.0
 50
270.0
 51
90.0
  0
ARC
  5
38B4
  8
0
  6
BYBLOCK
 62
     0
 10
25092.516468999969
 20
19668.486251999992
 30
0.0
 40
15.0
 50
270.0
 51
90.0
  0
ARC
  5
38B5
  8
0
  6
BYBLOCK
 62
     0
 10
25092.516468999969
 20
19668.486251999992
 30
0.0
 40
15.0
 50
90.0
 51
270.0
  0
ARC
  5
38B6
  8
0
  6
BYBLOCK
 62
     0
 10
25092.516468999969
 20
18910.486251999992
 30
0.0
 40
15.0
 50
90.0
 51
270.0
  0
ARC
  5
38B7
  8
0
  6
BYBLOCK
 62
     0
 10
25092.516468999969
 20
18910.486251999992
 30
0.0
 40
15.0
 50
270.0
 51
90.0
  0
ARC
  5
38B8
  8
0
  6
BYBLOCK
 62
     0
 10
25492.516468999969
 20
16750.486251999992
 30
0.0
 40
15.0
 50
90.0
 51
270.0
  0
ARC
  5
38B9
  8
0
  6
BYBLOCK
 62
     0
 10
25492.516468999969
 20
16750.486251999992
 30
0.0
 40
15.0
 50
270.0
 51
90.0
  0
ARC
  5
38BA
  8
0
  6
BYBLOCK
 62
     0
 10
25492.516468999969
 20
19668.486251999992
 30
0.0
 40
15.0
 50
270.0
 51
90.0
  0
ARC
  5
38BB
  8
0
  6
BYBLOCK
 62
     0
 10
25492.516468999969
 20
19668.486251999992
 30
0.0
 40
15.0
 50
90.0
 51
270.0
  0
ARC
  5
38BC
  8
0
  6
BYBLOCK
 62
     0
 10
25492.516468999969
 20
13481.986252000001
 30
0.0
 40
15.0
 50
90.0
 51
270.0
  0
ARC
  5
38BD
  8
0
  6
BYBLOCK
 62
     0
 10
25492.516468999969
 20
13481.986252000001
 30
0.0
 40
15.0
 50
270.0
 51
90.0
  0
ARC
  5
38BE
  8
0
  6
BYBLOCK
 62
     0
 10
25492.516468999969
 20
16750.486251999992
 30
0.0
 40
15.0
 50
270.0
 51
90.0
  0
ARC
  5
38BF
  8
0
  6
BYBLOCK
 62
     0
 10
25492.516468999969
 20
16750.486251999992
 30
0.0
 40
15.0
 50
90.0
 51
270.0
  0
ARC
  5
38C0
  8
0
  6
BYBLOCK
 62
     0
 10
25892.516468999969
 20
19710.983546999982
 30
0.0
 40
15.0
 50
270.0
 51
90.0
  0
ARC
  5
38C1
  8
0
  6
BYBLOCK
 62
     0
 10
25892.516468999969
 20
19710.983546999982
 30
0.0
 40
15.0
 50
90.0
 51
270.0
  0
ARC
  5
38C2
  8
0
  6
BYBLOCK
 62
     0
 10
25892.516468999969
 20
13439.488957
 30
0.0
 40
15.0
 50
90.0
 51
270.0
  0
ARC
  5
38C3
  8
0
  6
BYBLOCK
 62
     0
 10
25892.516468999969
 20
13439.488957
 30
0.0
 40
15.0
 50
270.0
 51
90.0
  0
ARC
  5
38C4
  8
0
  6
BYBLOCK
 62
     0
 10
25492.516468999969
 20
19668.486251999992
 30
0.0
 40
15.0
 50
270.0
 51
90.0
  0
ARC
  5
38C5
  8
0
  6
BYBLOCK
 62
     0
 10
25492.516468999969
 20
19668.486251999992
 30
0.0
 40
15.0
 50
90.0
 51
270.0
  0
ARC
  5
38C6
  8
0
  6
BYBLOCK
 62
     0
 10
25492.516468999969
 20
19710.983546999982
 30
0.0
 40
15.0
 50
90.0
 51
270.0
  0
ARC
  5
38C7
  8
0
  6
BYBLOCK
 62
     0
 10
25492.516468999969
 20
19710.983546999982
 30
0.0
 40
15.0
 50
270.0
 51
90.0
  0
ARC
  5
38C8
  8
0
  6
BYBLOCK
 62
     0
 10
25492.516468999969
 20
13481.986252000001
 30
0.0
 40
15.0
 50
90.0
 51
270.0
  0
ARC
  5
38C9
  8
0
  6
BYBLOCK
 62
     0
 10
25492.516468999969
 20
13481.986252000001
 30
0.0
 40
15.0
 50
270.0
 51
90.0
  0
ARC
  5
38CA
  8
0
  6
BYBLOCK
 62
     0
 10
25492.516468999969
 20
13439.488957
 30
0.0
 40
15.0
 50
270.0
 51
90.0
  0
ARC
  5
38CB
  8
0
  6
BYBLOCK
 62
     0
 10
25492.516468999969
 20
13439.488957
 30
0.0
 40
15.0
 50
90.0
 51
270.0
  0
ARC
  5
38CC
  8
0
  6
BYBLOCK
 62
     0
 10
21432.516864999969
 20
20440.987440000012
 30
0.0
 40
15.0
 50
180.0
 51
0.0
  0
ARC
  5
38CD
  8
0
  6
BYBLOCK
 62
     0
 10
21432.516864999969
 20
20440.987440000012
 30
0.0
 40
15.0
 50
0.0
 51
180.0
  0
ARC
  5
38CE
  8
0
  6
BYBLOCK
 62
     0
 10
21840.01686499998
 20
20440.987440000012
 30
0.0
 40
15.0
 50
0.0
 51
180.0
  0
ARC
  5
38CF
  8
0
  6
BYBLOCK
 62
     0
 10
21840.01686499998
 20
20440.987440000012
 30
0.0
 40
15.0
 50
180.0
 51
0.0
  0
ARC
  5
38D0
  8
0
  6
BYBLOCK
 62
     0
 10
23242.016864999991
 20
20440.987440000012
 30
0.0
 40
15.0
 50
0.0
 51
180.0
  0
ARC
  5
38D1
  8
0
  6
BYBLOCK
 62
     0
 10
23242.016864999991
 20
20440.987440000012
 30
0.0
 40
15.0
 50
180.0
 51
0.0
  0
ARC
  5
38D2
  8
0
  6
BYBLOCK
 62
     0
 10
24000.017854500002
 20
20440.987440000012
 30
0.0
 40
15.0
 50
180.0
 51
0.0
  0
ARC
  5
38D3
  8
0
  6
BYBLOCK
 62
     0
 10
24000.017854500002
 20
20440.987440000012
 30
0.0
 40
15.0
 50
0.0
 51
180.0
  0
ARC
  5
38D4
  8
0
  6
BYBLOCK
 62
     0
 10
22541.01686499998
 20
20440.987440000012
 30
0.0
 40
15.0
 50
0.0
 51
180.0
  0
ARC
  5
38D5
  8
0
  6
BYBLOCK
 62
     0
 10
22541.01686499998
 20
20440.987440000012
 30
0.0
 40
15.0
 50
180.0
 51
0.0
  0
ARC
  5
38D6
  8
0
  6
BYBLOCK
 62
     0
 10
23242.016864999991
 20
20440.987440000012
 30
0.0
 40
15.0
 50
180.0
 51
0.0
  0
ARC
  5
38D7
  8
0
  6
BYBLOCK
 62
     0
 10
23242.016864999991
 20
20440.987440000012
 30
0.0
 40
15.0
 50
0.0
 51
180.0
  0
ARC
  5
38D8
  8
0
  6
BYBLOCK
 62
     0
 10
21840.01686499998
 20
20440.987440000012
 30
0.0
 40
15.0
 50
0.0
 51
180.0
  0
ARC
  5
38D9
  8
0
  6
BYBLOCK
 62
     0
 10
21840.01686499998
 20
20440.987440000012
 30
0.0
 40
15.0
 50
180.0
 51
0.0
  0
ARC
  5
38DA
  8
0
  6
BYBLOCK
 62
     0
 10
22541.01686499998
 20
20440.987440000012
 30
0.0
 40
15.0
 50
180.0
 51
0.0
  0
ARC
  5
38DB
  8
0
  6
BYBLOCK
 62
     0
 10
22541.01686499998
 20
20440.987440000012
 30
0.0
 40
15.0
 50
0.0
 51
180.0
  0
ARC
  5
38DC
  8
0
  6
BYBLOCK
 62
     0
 10
24000.01686499998
 20
20440.987440000012
 30
0.0
 40
15.0
 50
180.0
 51
0.0
  0
ARC
  5
38DD
  8
0
  6
BYBLOCK
 62
     0
 10
24000.01686499998
 20
20440.987440000012
 30
0.0
 40
15.0
 50
0.0
 51
180.0
  0
ARC
  5
38DE
  8
0
  6
BYBLOCK
 62
     0
 10
24042.51316999998
 20
20440.987440000012
 30
0.0
 40
15.0
 50
0.0
 51
180.0
  0
ARC
  5
38DF
  8
0
  6
BYBLOCK
 62
     0
 10
24042.51316999998
 20
20440.987440000012
 30
0.0
 40
15.0
 50
180.0
 51
0.0
  0
ARC
  5
38E0
  8
0
  6
BYBLOCK
 62
     0
 10
21432.516864999969
 20
20440.987440000012
 30
0.0
 40
15.0
 50
0.0
 51
180.0
  0
ARC
  5
38E1
  8
0
  6
BYBLOCK
 62
     0
 10
21432.516864999969
 20
20440.987440000012
 30
0.0
 40
15.0
 50
180.0
 51
0.0
  0
ARC
  5
38E2
  8
0
  6
BYBLOCK
 62
     0
 10
21390.020559999972
 20
20440.987440000012
 30
0.0
 40
15.0
 50
180.0
 51
0.0
  0
ARC
  5
38E3
  8
0
  6
BYBLOCK
 62
     0
 10
21390.020559999972
 20
20440.987440000012
 30
0.0
 40
15.0
 50
0.0
 51
180.0
  0
LINE
  5
39E8
  8
0-1
  6
CONTINUOUS
 62
     3
 10
21475.013169999991
 20
8325.6887430000024
 30
0.0
 11
23957.516600999981
 21
8325.6887430000024
 31
0.0
  0
LINE
  5
39E9
  8
0-1
  6
CONTINUOUS
 62
     3
 10
21347.016469999999
 20
8263.5026620000008
 30
0.0
 11
21347.016469999999
 21
8589.1883999999955
 31
0.0
  0
LINE
  5
39EA
  8
0-1
  6
CONTINUOUS
 62
     3
 10
24085.515281999978
 20
8459.188465999996
 30
0.0
 11
21347.016469999999
 21
8459.188465999996
 31
0.0
  0
LINE
  5
39EB
  8
0-1
  6
CONTINUOUS
 62
     3
 10
24085.515281999978
 20
8589.1883999999955
 30
0.0
 11
24085.515281999978
 21
8263.5026620000008
 31
0.0
  0
LINE
  5
39EC
  8
0-1
  6
CONTINUOUS
 62
     3
 10
21347.016469999999
 20
8589.1883999999955
 30
0.0
 11
24085.515281999978
 21
8589.1883999999955
 31
0.0
  0
LINE
  5
39ED
  8
0-1
  6
CONTINUOUS
 62
     3
 10
24085.515281999978
 20
8263.5026620000008
 30
0.0
 11
24042.515149999988
 21
8263.5026620000008
 31
0.0
  0
LINE
  5
39EE
  8
0-1
  6
CONTINUOUS
 62
     3
 10
21347.016469999999
 20
8263.5026620000008
 30
0.0
 11
21390.014621999999
 21
8263.5026620000008
 31
0.0
  0
LINE
  5
39EF
  8
0-1
  6
CONTINUOUS
 62
     3
 10
21501.016125999999
 20
8334.6891200000046
 30
0.0
 11
21778.445656
 21
8334.6891200000046
 31
0.0
  0
LINE
  5
39F0
  8
0-1
  6
CONTINUOUS
 62
     3
 10
21501.016125999999
 20
8376.6885650000004
 30
0.0
 11
21810.442594
 21
8376.6885650000004
 31
0.0
  0
LINE
  5
39F1
  8
0-1
  6
CONTINUOUS
 62
     3
 10
21496.01586299999
 20
8339.6888890000009
 30
0.0
 11
21496.01586299999
 21
8371.6892910000024
 31
0.0
  0
LINE
  5
39F2
  8
0-1
  6
CONTINUOUS
 62
     3
 10
21475.013169999991
 20
8385.6884470000005
 30
0.0
 11
23957.516600999981
 21
8385.6884470000005
 31
0.0
  0
LINE
  5
39F3
  8
0-1
  6
CONTINUOUS
 62
     3
 10
21781.979095999999
 20
8336.1529739999987
 30
0.0
 11
21813.979993999979
 21
8368.153376000002
 31
0.0
  0
LINE
  5
39F4
  8
0-1
  6
CONTINUOUS
 62
     3
 10
21496.01586299999
 20
8368.2889730000024
 30
0.0
 11
21814.108661999981
 21
8368.2889730000024
 31
0.0
  0
LINE
  5
39F5
  8
0-1
  6
CONTINUOUS
 62
     3
 10
21496.01586299999
 20
8359.8888860000006
 30
0.0
 11
21805.715503999989
 21
8359.8888860000006
 31
0.0
  0
LINE
  5
39F6
  8
0-1
  6
CONTINUOUS
 62
     3
 10
21496.01586299999
 20
8351.4892940000027
 30
0.0
 11
21797.316406000002
 21
8351.4892940000027
 31
0.0
  0
LINE
  5
39F7
  8
0-1
  6
CONTINUOUS
 62
     3
 10
21496.01586299999
 20
8343.0892070000027
 30
0.0
 11
21788.913349999999
 21
8343.0892070000027
 31
0.0
  0
LINE
  5
39F8
  8
0-1
  6
CONTINUOUS
 62
     3
 10
23936.515888999969
 20
8368.2889730000024
 30
0.0
 11
23618.423089
 21
8368.2889730000024
 31
0.0
  0
LINE
  5
39F9
  8
0-1
  6
CONTINUOUS
 62
     3
 10
23936.515888999969
 20
8359.8888860000006
 30
0.0
 11
23626.818226999989
 21
8359.8888860000006
 31
0.0
  0
LINE
  5
39FA
  8
0-1
  6
CONTINUOUS
 62
     3
 10
23936.515888999969
 20
8351.4892940000027
 30
0.0
 11
23635.217323999979
 21
8351.4892940000027
 31
0.0
  0
LINE
  5
39FB
  8
0-1
  6
CONTINUOUS
 62
     3
 10
23936.515888999969
 20
8343.0892070000027
 30
0.0
 11
23643.616421999981
 21
8343.0892070000027
 31
0.0
  0
LINE
  5
39FC
  8
0-1
  6
CONTINUOUS
 62
     3
 10
23931.515624999989
 20
8376.6885650000004
 30
0.0
 11
23622.089156999969
 21
8376.6885650000004
 31
0.0
  0
LINE
  5
39FD
  8
0-1
  6
CONTINUOUS
 62
     3
 10
23931.515624999989
 20
8334.6891200000046
 30
0.0
 11
23654.086095999981
 21
8334.6891200000046
 31
0.0
  0
LINE
  5
39FE
  8
0-1
  6
CONTINUOUS
 62
     3
 10
23936.515888999969
 20
8339.6888890000009
 30
0.0
 11
23936.515888999969
 21
8371.6892910000024
 31
0.0
  0
LINE
  5
39FF
  8
0-1
  6
CONTINUOUS
 62
     3
 10
23650.550674999991
 20
8336.1529739999987
 30
0.0
 11
23618.553736999991
 21
8368.153376000002
 31
0.0
  0
ARC
  5
3A00
  8
0-1
  6
CONTINUOUS
 62
     3
 10
21501.016125999999
 20
8371.6892910000024
 30
0.0
 40
5.0
 50
90.0
 51
180.0
  0
ARC
  5
3A01
  8
0-1
  6
CONTINUOUS
 62
     3
 10
21501.016125999999
 20
8339.6888890000009
 30
0.0
 40
5.0
 50
180.0
 51
269.9999850001808
  0
ARC
  5
3A02
  8
0-1
  6
CONTINUOUS
 62
     3
 10
21778.445656
 20
8339.6888890000009
 30
0.0
 40
5.0
 50
269.9999850001808
 51
314.99998500027471
  0
ARC
  5
3A03
  8
0-1
  6
CONTINUOUS
 62
     3
 10
21810.442594
 20
8371.6892910000024
 30
0.0
 40
5.0
 50
314.99998500027471
 51
90.0
  0
ARC
  5
3A04
  8
0-1
  6
CONTINUOUS
 62
     3
 10
23931.515624999989
 20
8339.6888890000009
 30
0.0
 40
5.0
 50
269.9999850001808
 51
0.0
  0
ARC
  5
3A05
  8
0-1
  6
CONTINUOUS
 62
     3
 10
23931.515624999989
 20
8371.6892910000024
 30
0.0
 40
5.0
 50
0.0
 51
90.0
  0
ARC
  5
3A06
  8
0-1
  6
CONTINUOUS
 62
     3
 10
23622.089156999969
 20
8371.6892910000024
 30
0.0
 40
5.0
 50
90.0
 51
224.99998499997989
  0
ARC
  5
3A07
  8
0-1
  6
CONTINUOUS
 62
     3
 10
23654.086095999981
 20
8339.6888890000009
 30
0.0
 40
5.0
 50
224.99998499997989
 51
269.9999850001808
  0
LINE
  5
3A08
  8
SUNPOU
  6
CONTINUOUS
 62
     4
 10
24042.517128999971
 20
8669.1883999999955
 30
0.0
 11
24042.517128999971
 21
9468.6882419999965
 31
0.0
  0
LINE
  5
3A09
  8
SUNPOU
  6
CONTINUOUS
 62
     4
 10
24042.517128999971
 20
9388.6882419999965
 30
0.0
 11
23802.517128999971
 21
9388.6882419999965
 31
0.0
  0
LINE
  5
3A0A
  8
SUNPOU
  6
CONTINUOUS
 62
     4
 10
24082.519239999961
 20
9388.6882419999965
 30
0.0
 11
24322.519239999961
 21
9388.6882419999965
 31
0.0
  0
LINE
  5
3A0B
  8
SUNPOU
  6
CONTINUOUS
 62
     4
 10
24042.517128999971
 20
9388.6882419999965
 30
0.0
 11
24082.519239999961
 21
9388.6882419999965
 31
0.0
  0
LINE
  5
3A0C
  8
SUNPOU
  6
CONTINUOUS
 62
     4
 10
21347.014490000009
 20
8669.1883999999955
 30
0.0
 11
21347.014490000009
 21
9868.6460119999992
 31
0.0
  0
LINE
  5
3A0D
  8
SUNPOU
  6
CONTINUOUS
 62
     4
 10
24085.519239999961
 20
8669.1883999999955
 30
0.0
 11
24085.519239999961
 21
9868.6460119999992
 31
0.0
  0
LINE
  5
3A0E
  8
SUNPOU
  6
CONTINUOUS
 62
     4
 10
21347.014490000009
 20
9788.6460119999992
 30
0.0
 11
24082.519239999961
 21
9788.6460119999992
 31
0.0
  0
LINE
  5
3A0F
  8
SUNPOU
  6
CONTINUOUS
 62
     4
 10
21390.016600999999
 20
8669.1883999999955
 30
0.0
 11
21390.016600999999
 21
9468.6882419999965
 31
0.0
  0
LINE
  5
3A10
  8
SUNPOU
  6
CONTINUOUS
 62
     4
 10
24042.517128999971
 20
8669.1883999999955
 30
0.0
 11
24042.517128999971
 21
9468.6882419999965
 31
0.0
  0
LINE
  5
3A11
  8
SUNPOU
  6
CONTINUOUS
 62
     4
 10
21390.016600999999
 20
9388.6882419999965
 30
0.0
 11
24042.517128999971
 21
9388.6882419999965
 31
0.0
  0
LINE
  5
3A12
  8
SUNPOU
  6
CONTINUOUS
 62
     4
 10
21390.016600999999
 20
8669.1883999999955
 30
0.0
 11
21390.016600999999
 21
9468.6882419999965
 31
0.0
  0
LINE
  5
3A13
  8
SUNPOU
  6
CONTINUOUS
 62
     4
 10
21347.014490000009
 20
8669.1883999999955
 30
0.0
 11
21347.014490000009
 21
9468.6882419999965
 31
0.0
  0
LINE
  5
3A14
  8
SUNPOU
  6
CONTINUOUS
 62
     4
 10
21390.016600999999
 20
9388.6882419999965
 30
0.0
 11
21630.016600999999
 21
9388.6882419999965
 31
0.0
  0
LINE
  5
3A15
  8
SUNPOU
  6
CONTINUOUS
 62
     4
 10
21350.014490000009
 20
9388.6882419999965
 30
0.0
 11
21110.014490000009
 21
9388.6882419999965
 31
0.0
  0
LINE
  5
3A16
  8
SUNPOU
  6
CONTINUOUS
 62
     4
 10
21390.016600999999
 20
9388.6882419999965
 30
0.0
 11
21350.014490000009
 21
9388.6882419999965
 31
0.0
  0
TEXT
  5
3A17
  8
0
  6
CONTINUOUS
 62
     7
 10
20990.014490000009
 20
9468.6882419999965
 30
0.0
 40
160.0
  1
43
  0
TEXT
  5
3A18
  8
0
  6
CONTINUOUS
 62
     7
 10
22316.26686499998
 20
9468.6882419999965
 30
0.0
 40
160.0
  1
2652.5
  0
TEXT
  5
3A19
  8
0
  6
CONTINUOUS
 62
     7
 10
22316.26686499998
 20
9868.6460119999992
 30
0.0
 40
160.0
  1
2738.5
  0
TEXT
  5
3A1A
  8
0
  6
CONTINUOUS
 62
     7
 10
24202.519239999961
 20
9468.6882419999965
 30
0.0
 40
160.0
  1
43
  0
ARC
  5
3A1B
  8
0
  6
BYBLOCK
 62
     0
 10
24042.517128999971
 20
9388.6882419999965
 30
0.0
 40
15.0
 50
180.0
 51
0.0
  0
ARC
  5
3A1C
  8
0
  6
BYBLOCK
 62
     0
 10
24042.517128999971
 20
9388.6882419999965
 30
0.0
 40
15.0
 50
0.0
 51
180.0
  0
ARC
  5
3A1D
  8
0
  6
BYBLOCK
 62
     0
 10
24085.519239999961
 20
9388.6882419999965
 30
0.0
 40
15.0
 50
0.0
 51
180.0
  0
ARC
  5
3A1E
  8
0
  6
BYBLOCK
 62
     0
 10
24085.519239999961
 20
9388.6882419999965
 30
0.0
 40
15.0
 50
180.0
 51
0.0
  0
ARC
  5
3A1F
  8
0
  6
BYBLOCK
 62
     0
 10
21347.014490000009
 20
9788.6460119999992
 30
0.0
 40
15.0
 50
0.0
 51
180.0
  0
ARC
  5
3A20
  8
0
  6
BYBLOCK
 62
     0
 10
21347.014490000009
 20
9788.6460119999992
 30
0.0
 40
15.0
 50
180.0
 51
0.0
  0
ARC
  5
3A21
  8
0
  6
BYBLOCK
 62
     0
 10
24085.519239999961
 20
9788.6460119999992
 30
0.0
 40
15.0
 50
180.0
 51
0.0
  0
ARC
  5
3A22
  8
0
  6
BYBLOCK
 62
     0
 10
24085.519239999961
 20
9788.6460119999992
 30
0.0
 40
15.0
 50
0.0
 51
180.0
  0
ARC
  5
3A23
  8
0
  6
BYBLOCK
 62
     0
 10
21390.016600999999
 20
9388.6882419999965
 30
0.0
 40
15.0
 50
0.0
 51
180.0
  0
ARC
  5
3A24
  8
0
  6
BYBLOCK
 62
     0
 10
21390.016600999999
 20
9388.6882419999965
 30
0.0
 40
15.0
 50
180.0
 51
0.0
  0
ARC
  5
3A25
  8
0
  6
BYBLOCK
 62
     0
 10
24042.517128999971
 20
9388.6882419999965
 30
0.0
 40
15.0
 50
180.0
 51
0.0
  0
ARC
  5
3A26
  8
0
  6
BYBLOCK
 62
     0
 10
24042.517128999971
 20
9388.6882419999965
 30
0.0
 40
15.0
 50
0.0
 51
180.0
  0
ARC
  5
3A27
  8
0
  6
BYBLOCK
 62
     0
 10
21390.016600999999
 20
9388.6882419999965
 30
0.0
 40
15.0
 50
0.0
 51
180.0
  0
ARC
  5
3A28
  8
0
  6
BYBLOCK
 62
     0
 10
21390.016600999999
 20
9388.6882419999965
 30
0.0
 40
15.0
 50
180.0
 51
0.0
  0
ARC
  5
3A29
  8
0
  6
BYBLOCK
 62
     0
 10
21347.014490000009
 20
9388.6882419999965
 30
0.0
 40
15.0
 50
180.0
 51
0.0
  0
ARC
  5
3A2A
  8
0
  6
BYBLOCK
 62
     0
 10
21347.014490000009
 20
9388.6882419999965
 30
0.0
 40
15.0
 50
0.0
 51
180.0
  0
LINE
  5
3A37
  8
SUNPOU
  6
CONTINUOUS
 62
     4
 10
11729.62894699999
 20
13209.486978000001
 30
0.0
 11
11729.62894699999
 21
12030.537178
 31
0.0
  0
LINE
  5
3A38
  8
SUNPOU
  6
CONTINUOUS
 62
     4
 10
14468.12973799998
 20
13209.486978000001
 30
0.0
 11
14468.12973799998
 21
12030.537178
 31
0.0
  0
LINE
  5
3A39
  8
SUNPOU
  6
CONTINUOUS
 62
     4
 10
11729.62894699999
 20
12110.537178
 30
0.0
 11
14468.12973799998
 21
12110.537178
 31
0.0
  0
TEXT
  5
3A3A
  8
0
  6
CONTINUOUS
 62
     7
 10
12176.21267583332
 20
12190.537178
 30
0.0
 40
160.0
  1
ケラバ外寸 2738.5
  0
ARC
  5
3A3B
  8
0
  6
BYBLOCK
 62
     0
 10
11729.62894699999
 20
12110.537178
 30
0.0
 40
15.0
 50
0.0
 51
180.0
  0
ARC
  5
3A3C
  8
0
  6
BYBLOCK
 62
     0
 10
11729.62894699999
 20
12110.537178
 30
0.0
 40
15.0
 50
180.0
 51
0.0
  0
ARC
  5
3A3D
  8
0
  6
BYBLOCK
 62
     0
 10
14468.12973799998
 20
12110.537178
 30
0.0
 40
15.0
 50
180.0
 51
0.0
  0
ARC
  5
3A3E
  8
0
  6
BYBLOCK
 62
     0
 10
14468.12973799998
 20
12110.537178
 30
0.0
 40
15.0
 50
0.0
 51
180.0
  0
LINE
  5
3A4F
  8
SUNPOU
  6
CONTINUOUS
 62
     4
 10
11729.62835299998
 20
19970.982161
 30
0.0
 11
11729.62835299998
 21
20520.987440000012
 31
0.0
  0
LINE
  5
3A50
  8
SUNPOU
  6
CONTINUOUS
 62
     4
 10
11729.62835299998
 20
20440.987440000012
 30
0.0
 11
11492.62835299998
 21
20440.987440000012
 31
0.0
  0
LINE
  5
3A51
  8
SUNPOU
  6
CONTINUOUS
 62
     4
 10
11815.128352999989
 20
20440.987440000012
 30
0.0
 11
11729.62835299998
 21
20440.987440000012
 31
0.0
  0
LINE
  5
3A52
  8
SUNPOU
  6
CONTINUOUS
 62
     4
 10
14468.12835299998
 20
19970.982161
 30
0.0
 11
14468.12835299998
 21
20520.987440000012
 31
0.0
  0
LINE
  5
3A53
  8
SUNPOU
  6
CONTINUOUS
 62
     4
 10
14465.12835299998
 20
20440.987440000012
 30
0.0
 11
14705.128352999989
 21
20440.987440000012
 31
0.0
  0
LINE
  5
3A54
  8
SUNPOU
  6
CONTINUOUS
 62
     4
 10
14382.628352999989
 20
20440.987440000012
 30
0.0
 11
14465.12835299998
 21
20440.987440000012
 31
0.0
  0
TEXT
  5
3A55
  8
0
  6
CONTINUOUS
 62
     7
 10
14519.125059023239
 20
20520.987440000012
 30
0.0
 40
160.0
  1
85.5
  0
TEXT
  5
3A56
  8
0
  6
CONTINUOUS
 62
     7
 10
11198.63164697671
 20
20520.987440000012
 30
0.0
 40
160.0
  1
85.5
  0
ARC
  5
3A57
  8
0
  6
BYBLOCK
 62
     0
 10
11729.62835299998
 20
20440.987440000012
 30
0.0
 40
15.0
 50
180.0
 51
0.0
  0
ARC
  5
3A58
  8
0
  6
BYBLOCK
 62
     0
 10
11729.62835299998
 20
20440.987440000012
 30
0.0
 40
15.0
 50
0.0
 51
180.0
  0
ARC
  5
3A59
  8
0
  6
BYBLOCK
 62
     0
 10
14468.12835299998
 20
20440.987440000012
 30
0.0
 40
15.0
 50
0.0
 51
180.0
  0
ARC
  5
3A5A
  8
0
  6
BYBLOCK
 62
     0
 10
14468.12835299998
 20
20440.987440000012
 30
0.0
 40
15.0
 50
180.0
 51
0.0
  0
TEXT
  5
3AB0
  8
NAME
 10
24033.053546554009
 20
1076.0
 30
0.0
 40
360.0
  1
H
 41
0.6700000000000002
  7
00
  0
TEXT
  5
3AB1
  8
NAME
 10
23657.221561973682
 20
1076.0
 30
0.0
 40
360.0
  1
（ ）
  7
01
  0
TEXT
  5
3AB2
  8
NAME
 10
24557.214549256729
 20
1076.0
 30
0.0
 40
360.0
  1
型（単棟）
  7
01
  0
TEXT
  5
3AB3
  8
NAME
 10
21933.552716389011
 20
1876.0
 30
0.0
 40
360.0
  1
ヨドガレージ ラヴィージュ
 41
0.75
  7
01
  0
TEXT
  5
3AB4
  8
NAME
 10
21816.089515848391
 20
1076.6369801169251
 30
0.0
 40
360.0
  1
VGC-2662
 41
0.6700000000000002
  0
LINE
  5
3AB5
  8
NAME
  6
CONTINUOUS
 10
26067.886878884299
 20
2236.0
 30
0.0
 11
26067.886878884299
 21
1876.0
 31
0.0
  0
LINE
  5
3AB6
  8
NAME
  6
CONTINUOUS
 10
26167.886878884299
 20
2236.0
 30
0.0
 11
26167.886878884299
 21
1876.0
 31
0.0
  0
LINE
  5
3AB7
  8
NAME
  6
CONTINUOUS
 10
26267.88687888431
 20
2236.0
 30
0.0
 11
26267.88687888431
 21
1876.0
 31
0.0
  0
LINE
  5
3AB8
  8
NAME
  6
CONTINUOUS
 10
26007.886878884299
 20
2236.0
 30
0.0
 11
26327.886878884299
 21
2236.0
 31
0.0
  0
LINE
  5
3AB9
  8
NAME
  6
CONTINUOUS
 10
26327.886878884299
 20
1876.0
 30
0.0
 11
26007.886878884299
 21
1876.0
 31
0.0
  0
TEXT
  5
3B53
  8
FILENAME
  6
CONTINUOUS
 10
28756.38095238095
 20
348.0
 30
0.0
 40
200.0
  1
＜VGC-2662-1-A_0.DXF ＞
  7
FILENAME
 72
     2
 11
32764.0
 21
348.0
 31
0.0
  0
LINE
  5
3B59
  8
WAKUSEN-01
 10
868.00000000000193
 20
827.99999999999955
 30
0.0
 11
32764.000000000011
 21
827.99999999999943
 31
0.0
  0
LINE
  5
3B5A
  8
WAKUSEN-01
 10
868.00000000000193
 20
827.99999999999955
 30
0.0
 11
868.00000000000193
 21
22484.000000000011
 31
0.0
  0
LINE
  5
3B5B
  8
WAKUSEN-01
 10
32764.000000000011
 20
827.99999999999943
 30
0.0
 11
32764.000000000011
 21
22484.000000000011
 31
0.0
  0
LINE
  5
3B5C
  8
WAKUSEN-01
 10
20560.0
 20
827.99999999999716
 30
0.0
 11
20560.0
 21
2484.0
 31
0.0
  0
LINE
  5
3B5D
  8
WAKUSEN-02
 10
26868.0
 20
827.99999999999261
 30
0.0
 11
26868.0
 21
2484.0
 31
0.0
  0
ENDSEC
  0
EOF
