  0
SECTION
  2
HEADER
  9
$ACADVER
  1
AC1009
  9
$INSBASE
 10
0.0
 20
0.0
 30
0.0
  9
$EXTMIN
 10
867.99324330406671
 20
327.38164749855792
 30
-0.000000000000013
  9
$EXTMAX
 10
32765.33210850941
 20
22484.553276491992
 30
0.0000000000000023
  9
$LIMMIN
 10
0.0
 20
0.0
  9
$LIMMAX
 10
33600.0
 20
23760.0
  9
$ORTHOMODE
 70
     1
  9
$REGENMODE
 70
     1
  9
$FILLMODE
 70
     1
  9
$QTEXTMODE
 70
     0
  9
$MIRRTEXT
 70
     1
  9
$DRAGMODE
 70
     2
  9
$LTSCALE
 40
80.0
  9
$OSMODE
 70
  3071
  9
$ATTMODE
 70
     1
  9
$TEXTSIZE
 40
0.2
  9
$TRACEWID
 40
0.05
  9
$TEXTSTYLE
  7
00
  9
$CLAYER
  8
0
  9
$CELTYPE
  6
BYLAYER
  9
$CECOLOR
 62
   256
  9
$DIMSCALE
 40
80.0
  9
$DIMASZ
 40
3.0
  9
$DIMEXO
 40
1.0
  9
$DIMDLI
 40
0.38
  9
$DIMRND
 40
0.5
  9
$DIMDLE
 40
0.0
  9
$DIMEXE
 40
1.0
  9
$DIMTP
 40
0.0
  9
$DIMTM
 40
0.0
  9
$DIMTXT
 40
2.0
  9
$DIMCEN
 40
0.09
  9
$DIMTSZ
 40
0.0
  9
$DIMTOL
 70
     0
  9
$DIMLIM
 70
     0
  9
$DIMTIH
 70
     0
  9
$DIMTOH
 70
     0
  9
$DIMSE1
 70
     0
  9
$DIMSE2
 70
     0
  9
$DIMTAD
 70
     1
  9
$DIMZIN
 70
     8
  9
$DIMBLK
  1
DOTSMALL
  9
$DIMASO
 70
     1
  9
$DIMSHO
 70
     1
  9
$DIMPOST
  1

  9
$DIMAPOST
  1

  9
$DIMALT
 70
     0
  9
$DIMALTD
 70
     2
  9
$DIMALTF
 40
25.399999999999999
  9
$DIMLFAC
 40
1.0
  9
$DIMTOFL
 70
     1
  9
$DIMTVP
 40
0.0
  9
$DIMTIX
 70
     0
  9
$DIMSOXD
 70
     0
  9
$DIMSAH
 70
     0
  9
$DIMBLK1
  1

  9
$DIMBLK2
  1

  9
$DIMSTYLE
  2
SUNPOU
  9
$DIMCLRD
 70
     4
  9
$DIMCLRE
 70
     4
  9
$DIMCLRT
 70
     7
  9
$DIMTFAC
 40
1.0
  9
$DIMGAP
 40
1.0
  9
$LUNITS
 70
     2
  9
$LUPREC
 70
     4
  9
$SKETCHINC
 40
0.1
  9
$FILLETRAD
 40
0.0
  9
$AUNITS
 70
     0
  9
$AUPREC
 70
     0
  9
$MENU
  1
acad
  9
$ELEVATION
 40
0.0
  9
$PELEVATION
 40
0.0
  9
$THICKNESS
 40
0.0
  9
$LIMCHECK
 70
     0
  9
$BLIPMODE
 70
     1
  9
$CHAMFERA
 40
0.0
  9
$CHAMFERB
 40
0.0
  9
$SKPOLY
 70
     0
  9
$TDCREATE
 40
2311940.0750508918
  9
$TDUPDATE
 40
2458942.4469230562
  9
$TDINDWG
 40
0.0807580671
  9
$TDUSRTIMER
 40
0.0807575
  9
$USRTIMER
 70
     1
  9
$ANGBASE
 50
0.0
  9
$ANGDIR
 70
     0
  9
$PDMODE
 70
     0
  9
$PDSIZE
 40
0.0
  9
$PLINEWID
 40
0.0
  9
$COORDS
 70
     1
  9
$SPLFRAME
 70
     0
  9
$SPLINETYPE
 70
     6
  9
$SPLINESEGS
 70
     8
  9
$ATTDIA
 70
     1
  9
$ATTREQ
 70
     1
  9
$HANDLING
 70
     1
  9
$HANDSEED
  5
4170
  9
$SURFTAB1
 70
     6
  9
$SURFTAB2
 70
     6
  9
$SURFTYPE
 70
     6
  9
$SURFU
 70
     6
  9
$SURFV
 70
     6
  9
$UCSNAME
  2

  9
$UCSORG
 10
0.0
 20
0.0
 30
0.0
  9
$UCSXDIR
 10
1.0
 20
0.0
 30
0.0
  9
$UCSYDIR
 10
0.0
 20
1.0
 30
0.0
  9
$PUCSNAME
  2

  9
$PUCSORG
 10
0.0
 20
0.0
 30
0.0
  9
$PUCSXDIR
 10
1.0
 20
0.0
 30
0.0
  9
$PUCSYDIR
 10
0.0
 20
1.0
 30
0.0
  9
$USERI1
 70
     0
  9
$USERI2
 70
     0
  9
$USERI3
 70
     0
  9
$USERI4
 70
     0
  9
$USERI5
 70
     0
  9
$USERR1
 40
0.0
  9
$USERR2
 40
0.0
  9
$USERR3
 40
0.0
  9
$USERR4
 40
0.0
  9
$USERR5
 40
0.0
  9
$WORLDVIEW
 70
     1
  9
$SHADEDGE
 70
     3
  9
$SHADEDIF
 70
    70
  9
$TILEMODE
 70
     1
  9
$MAXACTVP
 70
    16
  9
$PLIMCHECK
 70
     0
  9
$PEXTMIN
 10
1.0000000000000000E+020
 20
1.0000000000000000E+020
 30
1.0000000000000000E+020
  9
$PEXTMAX
 10
-1.0000000000000000E+020
 20
-1.0000000000000000E+020
 30
-1.0000000000000000E+020
  9
$PLIMMIN
 10
0.0
 20
0.0
  9
$PLIMMAX
 10
12.0
 20
9.0
  9
$UNITMODE
 70
     0
  9
$VISRETAIN
 70
     0
  9
$PLINEGEN
 70
     1
  9
$PSLTSCALE
 70
     0
  0
ENDSEC
  0
SECTION
  2
TABLES
  0
TABLE
  2
VPORT
 70
     1
  0
VPORT
  2
*ACTIVE
 70
     0
 10
0.0
 20
0.0
 11
1.0
 21
1.0
 12
16800.0
 22
11880.0
 13
0.0
 23
0.0
 14
1.0
 24
1.0
 15
0.0
 25
0.0
 16
0.0
 26
0.0
 36
1.0
 17
0.0
 27
0.0
 37
0.0
 40
23981.023255813951
 41
2.195652173913043
 42
50.0
 43
0.0
 44
0.0
 50
0.0
 51
0.0
 71
     0
 72
 10000
 73
     1
 74
     1
 75
     0
 76
     0
 77
     0
 78
     0
  0
ENDTAB
  0
TABLE
  2
LTYPE
 70
     3
  0
LTYPE
  2
CONTINUOUS
 70
     0
  3
Solid line
 72
    65
 73
     0
 40
0.0
  0
LTYPE
  2
DASHED3
 70
     0
  3
------  ------  ------  ------  
 72
    65
 73
     2
 40
5.0
 49
3.75
 49
-1.25
  0
LTYPE
  2
CENTER2
 70
     0
  3
----------  --  ----------  --  
 72
    65
 73
     4
 40
20.0
 49
12.5
 49
-2.5
 49
2.5
 49
-2.5
  0
ENDTAB
  0
TABLE
  2
LAYER
 70
    16
  0
LAYER
  2
0
 70
     0
 62
     7
  6
CONTINUOUS
  0
LAYER
  2
SUNPOU
 70
     0
 62
     4
  6
CONTINUOUS
  0
LAYER
  2
0-1
 70
     0
 62
     7
  6
CONTINUOUS
  0
LAYER
  2
2-0
 70
     0
 62
     7
  6
CONTINUOUS
  0
LAYER
  2
0-2
 70
     0
 62
     7
  6
CONTINUOUS
  0
LAYER
  2
0-6
 70
     0
 62
     7
  6
CONTINUOUS
  0
LAYER
  2
YODOROGO
 70
     0
 62
   130
  6
CONTINUOUS
  0
LAYER
  2
WAKUSEN-01
 70
     0
 62
    50
  6
CONTINUOUS
  0
LAYER
  2
WAKUSEN-02
 70
     0
 62
   130
  6
CONTINUOUS
  0
LAYER
  2
WAKUMOJI-01
 70
     0
 62
   130
  6
CONTINUOUS
  0
LAYER
  2
FILENAME
 70
     0
 62
     7
  6
CONTINUOUS
  0
LAYER
  2
NAME
 70
     0
 62
    20
  6
CONTINUOUS
  0
LAYER
  2
0-4
 70
     0
 62
     7
  6
CONTINUOUS
  0
LAYER
  2
0-5
 70
     0
 62
     7
  6
CONTINUOUS
  0
ENDTAB
  0
TABLE
  2
STYLE
 70
     5
  0
STYLE
  2
STANDARD
 70
     0
 40
0.0
 41
1.0
 50
0.0
 71
     0
 42
0.0
  3
txt
  4
BIGFONT
  0
STYLE
  2
00
 70
     0
 40
0.0
 41
0.6666666666666666
 50
0.0
 71
     0
 42
0.2
  3
ROMANS
  4
BIGFONT
  0
STYLE
  2
01
 70
     0
 40
3.0
 41
1.0
 50
0.0
 71
     0
 42
0.2
  3
ROMANS
  4
BIGFONT
  0
STYLE
  2
WAKUMOJI
 70
     0
 40
3.0
 41
1.0
 50
0.0
 71
     0
 42
3.0
  3
SIMPLEX
  4
BIGFONT
  0
STYLE
  2
FILENAME
 70
     0
 40
200.0
 41
1.0
 50
0.0
 71
     0
 42
200.0
  3
romans
  4
bigfont
  0
ENDTAB
  0
TABLE
  2
VIEW
 70
     0
  0
ENDTAB
  0
TABLE
  2
UCS
 70
     0
  0
ENDTAB
  0
TABLE
  2
APPID
 70
    13
  0
APPID
  2
ACAD
 70
     0
  0
APPID
  2
ACADANNOTATIVE
 70
     0
  0
APPID
  2
ACAD_PSEXT
 70
     0
  0
APPID
  2
DCO15
 70
     0
  0
APPID
  2
ACAD_MLEADERVER
 70
     0
  0
APPID
  2
AUTOCAD_POSTSCRIPT_FIGURE
 70
     0
  0
APPID
  2
ACAD_EXEMPT_FROM_CAD_STANDARDS
 70
     0
  0
APPID
  2
ACAD_DSTYLE_DIMJAG
 70
     0
  0
APPID
  2
ACAD_DSTYLE_DIMTALN
 70
     0
  0
APPID
  2
ACAD_DSTYLE_DIM_LINETYPE
 70
     0
  0
APPID
  2
ACAD_DSTYLE_DIM_EXT1_LINETYPE
 70
     0
  0
APPID
  2
ACAD_DSTYLE_DIM_EXT2_LINETYPE
 70
     0
  0
APPID
  2
ACAD_NAV_VCDISPLAY
 70
     0
  0
ENDTAB
  0
TABLE
  2
DIMSTYLE
 70
     2
  0
DIMSTYLE
  2
SUNPOU
 70
     0
  3

  4

  5

  6

  7

 40
80.0
 41
3.0
 42
1.0
 43
0.38
 44
1.0
 45
0.5
 46
0.0
 47
0.0
 48
0.0
140
2.0
141
0.09
142
0.0
143
25.399999999999999
144
1.0
145
0.0
146
1.0
147
1.0
 71
     0
 72
     0
 73
     0
 74
     0
 75
     0
 76
     0
 77
     1
 78
     8
170
     0
171
     2
172
     1
173
     0
174
     0
175
     0
176
     4
177
     4
178
     7
  0
ENDTAB
  0
ENDSEC
  0
SECTION
  2
BLOCKS
  0
BLOCK
  8
0
  2
$MODEL_SPACE
 70
     0
 10
0.0
 20
0.0
 30
0.0
  3
$MODEL_SPACE
  1

  0
ENDBLK
  5
35AD
  8
0
  0
BLOCK
 67
     1
  8
0
  2
$PAPER_SPACE
 70
     0
 10
0.0
 20
0.0
 30
0.0
  3
$PAPER_SPACE
  1

  0
ENDBLK
  5
35A9
 67
     1
  8
0
  0
BLOCK
  8
0
  2
_DOTSMALL
 70
     0
 10
0.0
 20
0.0
 30
0.0
  3
_DOTSMALL
  1

  0
POLYLINE
  5
35DB
  8
0
  6
BYBLOCK
 62
     0
 66
     1
 10
0.0
 20
0.0
 30
0.0
 70
     1
 40
0.5
 41
0.5
  0
VERTEX
  5
4138
  8
0
  6
BYBLOCK
 62
     0
 10
-0.0625
 20
0.0
 30
0.0
 42
1.0
  0
VERTEX
  5
4139
  8
0
  6
BYBLOCK
 62
     0
 10
0.0625
 20
0.0
 30
0.0
 42
1.0
  0
SEQEND
  5
413A
  8
0
  6
BYBLOCK
 62
     0
  0
ENDBLK
  5
35DF
  8
0
  0
ENDSEC
  0
SECTION
  2
ENTITIES
  0
LINE
  5
35E0
  8
0-2
  6
CONTINUOUS
 62
     3
 10
9899.3640599999835
 20
17007.731124999991
 30
0.0
 11
13802.26016199998
 21
17007.731124999991
 31
0.0
  0
LINE
  5
35E1
  8
0-2
  6
CONTINUOUS
 62
     3
 10
9949.3627009999836
 20
13544.72956800001
 30
0.0
 11
9949.3627009999836
 21
20056.230887999998
 31
0.0
  0
LINE
  5
35E2
  8
0-2
  6
CONTINUOUS
 62
     3
 10
9813.8616849999926
 20
13512.72966000001
 30
0.0
 11
9813.8616849999926
 21
20104.230253999991
 31
0.0
  0
LINE
  5
35E3
  8
0-2
  6
CONTINUOUS
 62
     3
 10
9988.8640339999911
 20
19404.747567999999
 30
0.0
 11
9988.8640339999911
 21
20056.230887999998
 31
0.0
  0
LINE
  5
35E4
  8
0-2
  6
CONTINUOUS
 62
     3
 10
10025.864204999991
 20
19383.616207999999
 30
0.0
 11
10025.864204999991
 21
20056.230887999998
 31
0.0
  0
LINE
  5
35E5
  8
0-2
  6
CONTINUOUS
 62
     3
 10
9887.3661579999844
 20
20104.230253999991
 30
0.0
 11
14345.36394099998
 21
20104.230253999991
 31
0.0
  0
LINE
  5
35E6
  8
0-2
  6
CONTINUOUS
 62
     3
 10
12084.65960199998
 20
18213.144685999989
 30
0.0
 11
12246.896985999971
 21
18403.352668
 31
0.0
  0
LINE
  5
35E7
  8
0-2
  6
CONTINUOUS
 62
     3
 10
12683.25414399998
 20
17373.989149000001
 30
0.0
 11
12845.492517999979
 21
17564.195151
 31
0.0
  0
LINE
  5
35E8
  8
0-2
  6
CONTINUOUS
 62
     3
 10
12683.25414399998
 20
17373.989149000001
 30
0.0
 11
12246.896985999971
 21
18403.352668
 31
0.0
  0
LINE
  5
35E9
  8
0-2
  6
CONTINUOUS
 62
     3
 10
9899.3640599999835
 20
16928.730517999989
 30
0.0
 11
13940.575063999981
 21
16928.730517999989
 31
0.0
  0
LINE
  5
35EA
  8
0-2
  6
CONTINUOUS
 62
     3
 10
9856.8628059999883
 20
13668.730571
 30
0.0
 11
14375.862343999979
 21
13668.730571
 31
0.0
  0
LINE
  5
35EB
  8
0-2
  6
CONTINUOUS
 62
     3
 10
9899.3640599999835
 20
13747.730188
 30
0.0
 11
14333.364059999971
 21
13747.730188
 31
0.0
  0
LINE
  5
35EC
  8
0-2
  6
CONTINUOUS
 62
     3
 10
9813.8616849999926
 20
13512.72966000001
 30
0.0
 11
14418.863465999981
 21
13512.72966000001
 31
0.0
  0
LINE
  5
35ED
  8
0-2
  6
CONTINUOUS
 62
     3
 10
9813.8616849999926
 20
13544.72956800001
 30
0.0
 11
14418.863465999981
 21
13544.72956800001
 31
0.0
  0
LINE
  5
35EE
  8
0-2
  6
CONTINUOUS
 62
     3
 10
9899.3640599999835
 20
13668.730571
 30
0.0
 11
9899.3640599999835
 21
19455.866655999991
 31
0.0
  0
LINE
  5
35EF
  8
0-2
  6
CONTINUOUS
 62
     3
 10
9856.8628059999883
 20
13668.730571
 30
0.0
 11
9856.8628059999883
 21
19480.141492999999
 31
0.0
  0
LINE
  5
35F0
  8
0-2
  6
CONTINUOUS
 62
     3
 10
10188.865682999991
 20
19290.517468999991
 30
0.0
 11
10188.865682999991
 21
20056.230887999998
 31
0.0
  0
LINE
  5
35F1
  8
0-2
  6
CONTINUOUS
 62
     3
 10
10225.86189599998
 20
19269.386107999992
 30
0.0
 11
10225.86189599998
 21
20056.230887999998
 31
0.0
  0
LINE
  5
35F2
  8
0-2
  6
CONTINUOUS
 62
     3
 10
10398.362159999981
 20
19176.28538999999
 30
0.0
 11
10398.362159999981
 21
20056.230887999998
 31
0.0
  0
LINE
  5
35F3
  8
0-2
  6
CONTINUOUS
 62
     3
 10
10798.36446899998
 20
18947.823211999988
 30
0.0
 11
10798.36446899998
 21
20056.230887999998
 31
0.0
  0
LINE
  5
35F4
  8
0-2
  6
CONTINUOUS
 62
     3
 10
10835.36068199997
 20
18926.691851999989
 30
0.0
 11
10835.36068199997
 21
20056.230887999998
 31
0.0
  0
LINE
  5
35F5
  8
0-2
  6
CONTINUOUS
 62
     3
 10
10998.362159999981
 20
18833.591133999991
 30
0.0
 11
10998.362159999981
 21
20056.230887999998
 31
0.0
  0
LINE
  5
35F6
  8
0-2
  6
CONTINUOUS
 62
     3
 10
11035.36233099998
 20
18812.457793000001
 30
0.0
 11
11035.36233099998
 21
20056.230887999998
 31
0.0
  0
LINE
  5
35F7
  8
0-2
  6
CONTINUOUS
 62
     3
 10
10435.36134199998
 20
19155.154030000002
 30
0.0
 11
10435.36134199998
 21
20056.230887999998
 31
0.0
  0
LINE
  5
35F8
  8
0-2
  6
CONTINUOUS
 62
     3
 10
10598.362819999969
 20
19062.053311999982
 30
0.0
 11
10598.362819999969
 21
20056.230887999998
 31
0.0
  0
LINE
  5
35F9
  8
0-2
  6
CONTINUOUS
 62
     3
 10
10635.36299099998
 20
19040.919970999999
 30
0.0
 11
10635.36299099998
 21
20056.230887999998
 31
0.0
  0
LINE
  5
35FA
  8
0-2
  6
CONTINUOUS
 62
     3
 10
9969.3618169999863
 20
13705.230913999991
 30
0.0
 11
12396.861354999981
 21
16973.730914
 31
0.0
  0
LINE
  5
35FB
  8
0-2
  6
CONTINUOUS
 62
     3
 10
12396.861354999981
 20
13705.230913999991
 30
0.0
 11
9969.3618169999863
 21
16973.730914
 31
0.0
  0
LINE
  5
35FC
  8
0-2
  6
CONTINUOUS
 62
     3
 10
14263.361353999981
 20
13705.230913999991
 30
0.0
 11
12536.86280699998
 21
16973.730914
 31
0.0
  0
LINE
  5
35FD
  8
0-2
  6
CONTINUOUS
 62
     3
 10
14375.862343999979
 20
13668.730571
 30
0.0
 11
14375.862343999979
 21
16684.968640999981
 31
0.0
  0
LINE
  5
35FE
  8
0-2
  6
CONTINUOUS
 62
     3
 10
14333.364059999971
 20
13668.730571
 30
0.0
 11
14333.364059999971
 21
16709.241496999992
 31
0.0
  0
LINE
  5
35FF
  8
0-2
  6
CONTINUOUS
 62
     3
 10
14418.863465999981
 20
13512.72966000001
 30
0.0
 11
14418.863465999981
 21
20104.230253999991
 31
0.0
  0
LINE
  5
3600
  8
0-2
  6
CONTINUOUS
 62
     3
 10
14283.362449999981
 20
13544.72956800001
 30
0.0
 11
14283.362449999981
 21
20056.230887999998
 31
0.0
  0
LINE
  5
3601
  8
0-2
  6
CONTINUOUS
 62
     3
 10
12035.362660999979
 20
18241.30135799999
 30
0.0
 11
12035.362660999979
 21
20056.230887999998
 31
0.0
  0
LINE
  5
3602
  8
0-2
  6
CONTINUOUS
 62
     3
 10
11998.36446899998
 20
18262.436677999991
 30
0.0
 11
11998.36446899998
 21
20056.230887999998
 31
0.0
  0
LINE
  5
3603
  8
0-2
  6
CONTINUOUS
 62
     3
 10
11835.36299099998
 20
18355.531458000001
 30
0.0
 11
11835.36299099998
 21
20056.230887999998
 31
0.0
  0
LINE
  5
3604
  8
0-2
  6
CONTINUOUS
 62
     3
 10
11798.361829999971
 20
18376.664798000002
 30
0.0
 11
11798.361829999971
 21
20056.230887999998
 31
0.0
  0
LINE
  5
3605
  8
0-2
  6
CONTINUOUS
 62
     3
 10
11635.362330999949
 20
18469.763535999991
 30
0.0
 11
11635.362330999949
 21
20056.230887999998
 31
0.0
  0
LINE
  5
3606
  8
0-2
  6
CONTINUOUS
 62
     3
 10
11598.362159999981
 20
18490.898855999982
 30
0.0
 11
11598.362159999981
 21
20056.230887999998
 31
0.0
  0
LINE
  5
3607
  8
0-2
  6
CONTINUOUS
 62
     3
 10
11435.362660999979
 20
18583.995614999989
 30
0.0
 11
11435.362660999979
 21
20056.230887999998
 31
0.0
  0
LINE
  5
3608
  8
0-2
  6
CONTINUOUS
 62
     3
 10
11398.364468999969
 20
18605.128956
 30
0.0
 11
11398.364468999969
 21
20056.230887999998
 31
0.0
  0
LINE
  5
3609
  8
0-2
  6
CONTINUOUS
 62
     3
 10
11235.362990999971
 20
18698.225714
 30
0.0
 11
11235.362990999971
 21
20056.230887999998
 31
0.0
  0
LINE
  5
360A
  8
0-2
  6
CONTINUOUS
 62
     3
 10
11198.36380899998
 20
18719.359055000001
 30
0.0
 11
11198.36380899998
 21
20056.230887999998
 31
0.0
  0
LINE
  5
360B
  8
0-2
  6
CONTINUOUS
 62
     3
 10
12198.362159999981
 20
18346.449425999988
 30
0.0
 11
12198.362159999981
 21
20056.230887999998
 31
0.0
  0
LINE
  5
360C
  8
0-2
  6
CONTINUOUS
 62
     3
 10
12235.36233099998
 20
18389.828596999982
 30
0.0
 11
12235.36233099998
 21
20056.230887999998
 31
0.0
  0
LINE
  5
360D
  8
0-2
  6
CONTINUOUS
 62
     3
 10
12598.36347999998
 20
17574.249125999992
 30
0.0
 11
12598.36347999998
 21
20056.230887999998
 31
0.0
  0
LINE
  5
360E
  8
0-2
  6
CONTINUOUS
 62
     3
 10
12635.361671999961
 20
17486.966213
 30
0.0
 11
12635.361671999961
 21
20056.230887999998
 31
0.0
  0
LINE
  5
360F
  8
0-2
  6
CONTINUOUS
 62
     3
 10
12798.36314999997
 20
17508.942827999999
 30
0.0
 11
12798.36314999997
 21
20056.230887999998
 31
0.0
  0
LINE
  5
3610
  8
0-2
  6
CONTINUOUS
 62
     3
 10
12835.362330999969
 20
17552.320018999992
 30
0.0
 11
12835.362330999969
 21
20056.230887999998
 31
0.0
  0
LINE
  5
3611
  8
0-2
  6
CONTINUOUS
 62
     3
 10
12998.36281999998
 20
17476.884525000001
 30
0.0
 11
12998.36281999998
 21
20056.230887999998
 31
0.0
  0
LINE
  5
3612
  8
0-2
  6
CONTINUOUS
 62
     3
 10
13035.36299099998
 20
17455.749205
 30
0.0
 11
13035.36299099998
 21
20056.230887999998
 31
0.0
  0
LINE
  5
3613
  8
0-2
  6
CONTINUOUS
 62
     3
 10
13198.36347999998
 20
17362.652445999989
 30
0.0
 11
13198.36347999998
 21
20056.230887999998
 31
0.0
  0
LINE
  5
3614
  8
0-2
  6
CONTINUOUS
 62
     3
 10
13235.362660999959
 20
17341.519105999982
 30
0.0
 11
13235.362660999959
 21
20056.230887999998
 31
0.0
  0
LINE
  5
3615
  8
0-2
  6
CONTINUOUS
 62
     3
 10
13398.36116999998
 20
17238.420260999988
 30
0.0
 11
13398.36116999998
 21
20056.230887999998
 31
0.0
  0
LINE
  5
3616
  8
0-2
  6
CONTINUOUS
 62
     3
 10
13435.364310999979
 20
17217.286920999992
 30
0.0
 11
13435.364310999979
 21
20056.230887999998
 31
0.0
  0
LINE
  5
3617
  8
0-2
  6
CONTINUOUS
 62
     3
 10
13598.36281999998
 20
17124.190161999992
 30
0.0
 11
13598.36281999998
 21
20056.230887999998
 31
0.0
  0
LINE
  5
3618
  8
0-2
  6
CONTINUOUS
 62
     3
 10
13635.36398099998
 20
17103.054842000001
 30
0.0
 11
13635.36398099998
 21
20056.230887999998
 31
0.0
  0
LINE
  5
3619
  8
0-2
  6
CONTINUOUS
 62
     3
 10
13798.363479999971
 20
17009.956103999979
 30
0.0
 11
13798.363479999971
 21
20056.230887999998
 31
0.0
  0
LINE
  5
361A
  8
0-2
  6
CONTINUOUS
 62
     3
 10
13835.362660999979
 20
16988.82474299995
 30
0.0
 11
13835.362660999979
 21
20056.230887999998
 31
0.0
  0
LINE
  5
361B
  8
0-2
  6
CONTINUOUS
 62
     3
 10
13998.362159999981
 20
16895.726004
 30
0.0
 11
13998.362159999981
 21
20056.230887999998
 31
0.0
  0
LINE
  5
361C
  8
0-2
  6
CONTINUOUS
 62
     3
 10
14035.36233099998
 20
16874.594644000001
 30
0.0
 11
14035.36233099998
 21
20056.230887999998
 31
0.0
  0
LINE
  5
361D
  8
0-2
  6
CONTINUOUS
 62
     3
 10
12084.65960199998
 20
18213.144685999989
 30
0.0
 11
9665.6670449999874
 21
19589.343615000002
 31
0.0
  0
LINE
  5
361E
  8
0-2
  6
CONTINUOUS
 62
     3
 10
12396.861354999981
 20
16973.730914
 30
0.0
 11
10732.38909499997
 21
18985.503348999991
 31
0.0
  0
LINE
  5
361F
  8
0-2
  6
CONTINUOUS
 62
     3
 10
11350.014727999969
 20
18632.741259999992
 30
0.0
 11
9969.3618169999863
 21
16973.730914
 31
0.0
  0
LINE
  5
3620
  8
0-2
  6
CONTINUOUS
 62
     3
 10
9831.8634269999875
 20
20056.230887999998
 30
0.0
 11
14400.862713999981
 21
20056.230887999998
 31
0.0
  0
LINE
  5
3621
  8
0-2
  6
CONTINUOUS
 62
     3
 10
9831.8634269999875
 20
20074.230650000009
 30
0.0
 11
9882.3629249999885
 21
20074.230650000009
 31
0.0
  0
LINE
  5
3622
  8
0-2
  6
CONTINUOUS
 62
     3
 10
9831.8634269999875
 20
20096.729857999999
 30
0.0
 11
9813.8616849999926
 21
20096.729857999999
 31
0.0
  0
LINE
  5
3623
  8
0-2
  6
CONTINUOUS
 62
     3
 10
9882.3629249999885
 20
20114.230781999991
 30
0.0
 11
9818.861948999991
 21
20114.230781999991
 31
0.0
  0
LINE
  5
3624
  8
0-2
  6
CONTINUOUS
 62
     3
 10
9813.8616849999926
 20
20109.230518
 30
0.0
 11
9813.8616849999926
 21
20074.230650000009
 31
0.0
  0
LINE
  5
3625
  8
0-2
  6
CONTINUOUS
 62
     3
 10
9887.3661579999844
 20
20079.230913999989
 30
0.0
 11
9887.3661579999844
 21
20109.230518
 31
0.0
  0
LINE
  5
3626
  8
0-2
  6
CONTINUOUS
 62
     3
 10
9831.8634269999875
 20
19492.705496999992
 30
0.0
 11
9831.8634269999875
 21
20096.729857999999
 31
0.0
  0
LINE
  5
3627
  8
0-2
  6
CONTINUOUS
 62
     3
 10
14350.364204999971
 20
20114.230781999991
 30
0.0
 11
14413.864191999981
 21
20114.230781999991
 31
0.0
  0
LINE
  5
3628
  8
0-2
  6
CONTINUOUS
 62
     3
 10
14418.863465999981
 20
20109.230518
 30
0.0
 11
14418.863465999981
 21
20074.230650000009
 31
0.0
  0
LINE
  5
3629
  8
0-2
  6
CONTINUOUS
 62
     3
 10
14400.862713999981
 20
20074.230650000009
 30
0.0
 11
14350.364204999971
 21
20074.230650000009
 31
0.0
  0
LINE
  5
362A
  8
0-2
  6
CONTINUOUS
 62
     3
 10
14345.36394099998
 20
20079.230913999989
 30
0.0
 11
14345.36394099998
 21
20109.230518
 31
0.0
  0
LINE
  5
362B
  8
0-2
  6
CONTINUOUS
 62
     3
 10
14400.862713999981
 20
20096.729857999999
 30
0.0
 11
14418.863465999981
 21
20096.729857999999
 31
0.0
  0
LINE
  5
362C
  8
0-2
  6
CONTINUOUS
 62
     3
 10
14400.862713999981
 20
16672.402656999999
 30
0.0
 11
14400.862713999981
 21
20096.729857999999
 31
0.0
  0
LINE
  5
362D
  8
0-2
  6
CONTINUOUS
 62
     3
 10
12409.864811999971
 20
13747.730188
 30
0.0
 11
12409.864811999971
 21
16928.730517999989
 31
0.0
  0
LINE
  5
362E
  8
0-2
  6
CONTINUOUS
 62
     3
 10
12523.861327999961
 20
13747.730188
 30
0.0
 11
12523.861327999961
 21
16928.730517999989
 31
0.0
  0
LINE
  5
362F
  8
0-2
  6
CONTINUOUS
 62
     3
 10
12466.86405999998
 20
13747.730188
 30
0.0
 11
12466.86405999998
 21
13668.730571
 31
0.0
  0
LINE
  5
3630
  8
0-2
  6
CONTINUOUS
 62
     3
 10
12466.86405999998
 20
13747.730188
 30
0.0
 11
12466.86405999998
 21
16928.730517999989
 31
0.0
  0
LINE
  5
3631
  8
0-2
  6
CONTINUOUS
 62
     3
 10
12523.861327999961
 20
17007.731124999991
 30
0.0
 11
12523.861327999961
 21
17749.994743999989
 31
0.0
  0
LINE
  5
3632
  8
0-2
  6
CONTINUOUS
 62
     3
 10
12409.864811999971
 20
17007.731124999991
 30
0.0
 11
12409.864811999971
 21
18018.918281999999
 31
0.0
  0
LINE
  5
3633
  8
0-2
  6
CONTINUOUS
 62
     3
 10
12466.86405999998
 20
17007.731124999991
 30
0.0
 11
12466.86405999998
 21
17884.455523000001
 31
0.0
  0
LINE
  5
3634
  8
0-2
  6
CONTINUOUS
 62
     3
 10
12466.86405999998
 20
16928.730517999989
 30
0.0
 11
12466.86405999998
 21
17007.731124999991
 31
0.0
  0
LINE
  5
3635
  8
0-2
  6
CONTINUOUS
 62
     3
 10
14206.86292499997
 20
16781.493925999981
 30
0.0
 11
14206.86292499997
 21
20056.230887999998
 31
0.0
  0
LINE
  5
3636
  8
0-2
  6
CONTINUOUS
 62
     3
 10
14243.86408599997
 20
16760.360584999991
 30
0.0
 11
14243.86408599997
 21
20056.230887999998
 31
0.0
  0
LINE
  5
3637
  8
0-2
  6
CONTINUOUS
 62
     3
 10
12398.361829999971
 20
18046.049564000001
 30
0.0
 11
12398.361829999971
 21
20056.230887999998
 31
0.0
  0
LINE
  5
3638
  8
0-2
  6
CONTINUOUS
 62
     3
 10
12435.362990999971
 20
17958.764671000001
 30
0.0
 11
12435.362990999971
 21
20056.230887999998
 31
0.0
  0
LINE
  5
3639
  8
0-2
  6
CONTINUOUS
 62
     3
 10
12536.86280699998
 20
16973.730914
 30
0.0
 11
12868.73602499998
 21
17545.484740999989
 31
0.0
  0
LINE
  5
363A
  8
0-2
  6
CONTINUOUS
 62
     3
 10
14172.378720999959
 20
16801.190135999968
 30
0.0
 11
12536.86280699998
 21
13705.230913999991
 31
0.0
  0
LINE
  5
363B
  8
0-2
  6
CONTINUOUS
 62
     3
 10
14563.486063999981
 20
16577.805422999991
 30
0.0
 11
12845.492517999979
 21
17564.195151
 31
0.0
  0
LINE
  5
363C
  8
0-2
  6
CONTINUOUS
 62
     3
 10
12381.862542999979
 20
20056.230887999998
 30
0.0
 11
12381.862542999979
 21
20104.230253999991
 31
0.0
  0
LINE
  5
363D
  8
0-2
  6
CONTINUOUS
 62
     3
 10
12466.86405999998
 20
13668.730571
 30
0.0
 11
12466.86405999998
 21
13512.72966000001
 31
0.0
  0
LINE
  5
363E
  8
0-6
  6
CONTINUOUS
 62
     6
 10
11527.531025999981
 20
17161.55951399999
 30
0.0
 11
11466.38369699997
 21
17333.327857999979
 31
0.0
  0
LINE
  5
363F
  8
0-6
  6
CONTINUOUS
 62
     6
 10
11579.68342299998
 20
19831.957371
 30
0.0
 11
11723.586504999959
 21
20344.231046000001
 31
0.0
  0
LINE
  5
3640
  8
0-6
  6
CONTINUOUS
 62
     6
 10
11112.17161099998
 20
19937.730967
 30
0.0
 11
10818.243784999981
 21
20344.231046000001
 31
0.0
  0
LINE
  5
3641
  8
0-6
  6
CONTINUOUS
 62
     6
 10
11723.586504999959
 20
20344.231046000001
 30
0.0
 11
12241.276142999979
 21
20344.231046000001
 31
0.0
  0
LINE
  5
3642
  8
0-6
  6
CONTINUOUS
 62
     6
 10
11113.27222399998
 20
20234.134182000002
 30
0.0
 11
10904.07966899997
 21
20596.465262999998
 31
0.0
  0
LINE
  5
3643
  8
0-6
  6
CONTINUOUS
 62
     6
 10
10830.072397999969
 20
20724.648988000001
 30
0.0
 11
10634.018897999969
 21
21064.231442
 31
0.0
  0
LINE
  5
3644
  8
0-6
  6
CONTINUOUS
 62
     6
 10
10634.018897999969
 20
21064.231442
 30
0.0
 11
11476.453507999981
 21
21064.231442
 31
0.0
  0
LINE
  5
3645
  8
0-6
  6
CONTINUOUS
 62
     6
 10
10008.74433899999
 20
20344.231046000001
 30
0.0
 11
10818.243784999981
 21
20344.231046000001
 31
0.0
  0
LINE
  5
3646
  8
0-6
  6
CONTINUOUS
 62
     6
 10
10665.810955999979
 20
17333.327857999979
 30
0.0
 11
11466.38369699997
 21
17333.327857999979
 31
0.0
  0
LINE
  5
3647
  8
0-6
  6
CONTINUOUS
 62
     6
 10
10063.89075699999
 20
18259.212042999989
 30
0.0
 11
10588.497888999969
 21
18259.212042999989
 31
0.0
  0
LINE
  5
3648
  8
0-6
  6
CONTINUOUS
 62
     6
 10
10701.078058999979
 20
13899.62062900001
 30
0.0
 11
10783.963471999979
 21
14087.05934199999
 31
0.0
  0
LINE
  5
3649
  8
0-6
  6
CONTINUOUS
 62
     6
 10
10783.963471999979
 20
14087.05934199999
 30
0.0
 11
11583.964130999981
 21
14087.05934199999
 31
0.0
  0
LINE
  5
364A
  8
0-6
  6
CONTINUOUS
 62
     6
 10
11776.94937699997
 20
12712.729990000011
 30
0.0
 11
12639.52756799998
 21
12712.729990000011
 31
0.0
  0
LINE
  5
364B
  8
0-6
  6
CONTINUOUS
 62
     6
 10
11370.83629399997
 20
13376.261649
 30
0.0
 11
11776.94937699997
 21
12712.729990000011
 31
0.0
  0
LINE
  5
364C
  8
0-6
  6
CONTINUOUS
 62
     6
 10
8083.4645669999891
 20
12312.729660000001
 30
0.0
 11
9163.4651609999873
 21
12312.729660000001
 31
0.0
  0
LINE
  5
364D
  8
0-6
  6
CONTINUOUS
 62
     6
 10
9721.9724719999904
 20
14103.50320299998
 30
0.0
 11
9163.4651609999873
 21
12312.729660000001
 31
0.0
  0
LINE
  5
364E
  8
0-6
  6
CONTINUOUS
 62
     6
 10
9964.8495039999871
 20
18480.003585999999
 30
0.0
 11
10063.89075699999
 21
18259.212042999989
 31
0.0
  0
LINE
  5
364F
  8
0-6
  6
CONTINUOUS
 62
     6
 10
10937.468208999981
 20
16435.217729999978
 30
0.0
 11
11817.466163999979
 21
16435.217729999978
 31
0.0
  0
LINE
  5
3650
  8
0-6
  6
CONTINUOUS
 62
     6
 10
10726.201118999979
 20
16233.15639099998
 30
0.0
 11
10937.468208999981
 21
16435.217729999978
 31
0.0
  0
LINE
  5
3651
  8
0-6
  6
CONTINUOUS
 62
     6
 10
12409.864811999971
 20
14900.10205999999
 30
0.0
 11
12144.673656999979
 21
15269.06254899998
 31
0.0
  0
LINE
  5
3652
  8
0-6
  6
CONTINUOUS
 62
     6
 10
11898.438370999969
 20
15269.06254899998
 30
0.0
 11
12144.673656999979
 21
15269.06254899998
 31
0.0
  0
LINE
  5
3653
  8
0-6
  6
CONTINUOUS
 62
     6
 10
15305.663006999959
 20
20989.896560000001
 30
0.0
 11
16980.66333599998
 21
20989.896560000001
 31
0.0
  0
LINE
  5
3654
  8
0-6
  6
CONTINUOUS
 62
     6
 10
14526.77094299995
 20
20229.553575999998
 30
0.0
 11
15305.663006999959
 21
20989.896560000001
 31
0.0
  0
LINE
  5
3655
  8
0-6
  6
CONTINUOUS
 62
     6
 10
9747.4152239999876
 20
14095.52079399998
 30
0.0
 11
9769.8619749999907
 21
14256.166644999979
 31
0.0
  0
LINE
  5
3656
  8
0-6
  6
CONTINUOUS
 62
     6
 10
9769.8619749999907
 20
14256.166644999979
 30
0.0
 11
9696.5267499999827
 21
14111.48561199998
 31
0.0
  0
LINE
  5
3657
  8
0-6
  6
CONTINUOUS
 62
     6
 10
9769.8619749999907
 20
14256.166644999979
 30
0.0
 11
9747.4152239999876
 21
14095.52079399998
 31
0.0
  0
LINE
  5
3658
  8
0-6
  6
CONTINUOUS
 62
     6
 10
9747.4152239999876
 20
14095.52079399998
 30
0.0
 11
9696.5267499999827
 21
14111.48561199998
 31
0.0
  0
LINE
  5
3659
  8
0-6
  6
CONTINUOUS
 62
     6
 10
9696.5267499999827
 20
14111.48561199998
 30
0.0
 11
9769.8619749999907
 21
14256.166644999979
 31
0.0
  0
LINE
  5
365A
  8
0-6
  6
CONTINUOUS
 62
     6
 10
9696.5267499999827
 20
14111.48561199998
 30
0.0
 11
9747.4152239999876
 21
14095.52079399998
 31
0.0
  0
LINE
  5
365B
  8
0-6
  6
CONTINUOUS
 62
     6
 10
11393.579972999971
 20
13390.18261400001
 30
0.0
 11
11287.30951799998
 21
13512.72966000001
 31
0.0
  0
LINE
  5
365C
  8
0-6
  6
CONTINUOUS
 62
     6
 10
11287.30951799998
 20
13512.72966000001
 30
0.0
 11
11348.091625999959
 21
13362.341675000011
 31
0.0
  0
LINE
  5
365D
  8
0-6
  6
CONTINUOUS
 62
     6
 10
11287.30951799998
 20
13512.72966000001
 30
0.0
 11
11393.579972999971
 21
13390.18261400001
 31
0.0
  0
LINE
  5
365E
  8
0-6
  6
CONTINUOUS
 62
     6
 10
11393.579972999971
 20
13390.18261400001
 30
0.0
 11
11348.091625999959
 21
13362.341675000011
 31
0.0
  0
LINE
  5
365F
  8
0-6
  6
CONTINUOUS
 62
     6
 10
11348.091625999959
 20
13362.341675000011
 30
0.0
 11
11287.30951799998
 21
13512.72966000001
 31
0.0
  0
LINE
  5
3660
  8
0-6
  6
CONTINUOUS
 62
     6
 10
11348.091625999959
 20
13362.341675000011
 30
0.0
 11
11393.579972999971
 21
13390.18261400001
 31
0.0
  0
LINE
  5
3661
  8
0-6
  6
CONTINUOUS
 62
     6
 10
10676.93090199998
 20
13910.93258700001
 30
0.0
 11
10633.204325999979
 21
13754.73075600001
 31
0.0
  0
LINE
  5
3662
  8
0-6
  6
CONTINUOUS
 62
     6
 10
10633.204325999979
 20
13754.73075600001
 30
0.0
 11
10725.22719599998
 21
13888.307680000011
 31
0.0
  0
LINE
  5
3663
  8
0-6
  6
CONTINUOUS
 62
     6
 10
10633.204325999979
 20
13754.73075600001
 30
0.0
 11
10676.93090199998
 21
13910.93258700001
 31
0.0
  0
LINE
  5
3664
  8
0-6
  6
CONTINUOUS
 62
     6
 10
10676.93090199998
 20
13910.93258700001
 30
0.0
 11
10725.22719599998
 21
13888.307680000011
 31
0.0
  0
LINE
  5
3665
  8
0-6
  6
CONTINUOUS
 62
     6
 10
10725.22719599998
 20
13888.307680000011
 30
0.0
 11
10633.204325999979
 21
13754.73075600001
 31
0.0
  0
LINE
  5
3666
  8
0-6
  6
CONTINUOUS
 62
     6
 10
10725.22719599998
 20
13888.307680000011
 30
0.0
 11
10676.93090199998
 21
13910.93258700001
 31
0.0
  0
LINE
  5
3667
  8
0-6
  6
CONTINUOUS
 62
     6
 10
12337.48371599997
 20
15045.26609599999
 30
0.0
 11
12409.864811999971
 21
14900.10205999999
 31
0.0
  0
LINE
  5
3668
  8
0-6
  6
CONTINUOUS
 62
     6
 10
12409.864811999971
 20
14900.10205999999
 30
0.0
 11
12294.31635399997
 21
15013.94516299998
 31
0.0
  0
LINE
  5
3669
  8
0-6
  6
CONTINUOUS
 62
     6
 10
12409.864811999971
 20
14900.10205999999
 30
0.0
 11
12337.48371599997
 21
15045.26609599999
 31
0.0
  0
LINE
  5
366A
  8
0-6
  6
CONTINUOUS
 62
     6
 10
12337.48371599997
 20
15045.26609599999
 30
0.0
 11
12294.31635399997
 21
15013.94516299998
 31
0.0
  0
LINE
  5
366B
  8
0-6
  6
CONTINUOUS
 62
     6
 10
12294.31635399997
 20
15013.94516299998
 30
0.0
 11
12409.864811999971
 21
14900.10205999999
 31
0.0
  0
LINE
  5
366C
  8
0-6
  6
CONTINUOUS
 62
     6
 10
12294.31635399997
 20
15013.94516299998
 30
0.0
 11
12337.48371599997
 21
15045.26609599999
 31
0.0
  0
LINE
  5
366D
  8
0-6
  6
CONTINUOUS
 62
     6
 10
9989.1807569999874
 20
18490.918652
 30
0.0
 11
9899.3640599999835
 21
18625.991101999982
 31
0.0
  0
LINE
  5
366E
  8
0-6
  6
CONTINUOUS
 62
     6
 10
9899.3640599999835
 20
18625.991101999982
 30
0.0
 11
9940.5182509999886
 21
18469.088521000001
 31
0.0
  0
LINE
  5
366F
  8
0-6
  6
CONTINUOUS
 62
     6
 10
9899.3640599999835
 20
18625.991101999982
 30
0.0
 11
9989.1807569999874
 21
18490.918652
 31
0.0
  0
LINE
  5
3670
  8
0-6
  6
CONTINUOUS
 62
     6
 10
9989.1807569999874
 20
18490.918652
 30
0.0
 11
9940.5182509999886
 21
18469.088521000001
 31
0.0
  0
LINE
  5
3671
  8
0-6
  6
CONTINUOUS
 62
     6
 10
9940.5182509999886
 20
18469.088521000001
 30
0.0
 11
9899.3640599999835
 21
18625.991101999982
 31
0.0
  0
LINE
  5
3672
  8
0-6
  6
CONTINUOUS
 62
     6
 10
9940.5182509999886
 20
18469.088521000001
 30
0.0
 11
9989.1807569999874
 21
18490.918652
 31
0.0
  0
LINE
  5
3673
  8
0-6
  6
CONTINUOUS
 62
     6
 10
10707.768831999971
 20
16252.42898399998
 30
0.0
 11
10610.57248999997
 21
16122.567616999981
 31
0.0
  0
LINE
  5
3674
  8
0-6
  6
CONTINUOUS
 62
     6
 10
10610.57248999997
 20
16122.567616999981
 30
0.0
 11
10744.631426999969
 21
16213.88676799998
 31
0.0
  0
LINE
  5
3675
  8
0-6
  6
CONTINUOUS
 62
     6
 10
10610.57248999997
 20
16122.567616999981
 30
0.0
 11
10707.768831999971
 21
16252.42898399998
 31
0.0
  0
LINE
  5
3676
  8
0-6
  6
CONTINUOUS
 62
     6
 10
10707.768831999971
 20
16252.42898399998
 30
0.0
 11
10744.631426999969
 21
16213.88676799998
 31
0.0
  0
LINE
  5
3677
  8
0-6
  6
CONTINUOUS
 62
     6
 10
10744.631426999969
 20
16213.88676799998
 30
0.0
 11
10610.57248999997
 21
16122.567616999981
 31
0.0
  0
LINE
  5
3678
  8
0-6
  6
CONTINUOUS
 62
     6
 10
10744.631426999969
 20
16213.88676799998
 30
0.0
 11
10707.768831999971
 21
16252.42898399998
 31
0.0
  0
LINE
  5
3679
  8
0-6
  6
CONTINUOUS
 62
     6
 10
11553.16975099997
 20
17168.895609999989
 30
0.0
 11
11571.533744999981
 21
17007.731124999991
 31
0.0
  0
LINE
  5
367A
  8
0-6
  6
CONTINUOUS
 62
     6
 10
11571.533744999981
 20
17007.731124999991
 30
0.0
 11
11501.892300999971
 21
17154.227376999981
 31
0.0
  0
LINE
  5
367B
  8
0-6
  6
CONTINUOUS
 62
     6
 10
11571.533744999981
 20
17007.731124999991
 30
0.0
 11
11553.16975099997
 21
17168.895609999989
 31
0.0
  0
LINE
  5
367C
  8
0-6
  6
CONTINUOUS
 62
     6
 10
11553.16975099997
 20
17168.895609999989
 30
0.0
 11
11501.892300999971
 21
17154.227376999981
 31
0.0
  0
LINE
  5
367D
  8
0-6
  6
CONTINUOUS
 62
     6
 10
11501.892300999971
 20
17154.227376999981
 30
0.0
 11
11571.533744999981
 21
17007.731124999991
 31
0.0
  0
LINE
  5
367E
  8
0-6
  6
CONTINUOUS
 62
     6
 10
11501.892300999971
 20
17154.227376999981
 30
0.0
 11
11553.16975099997
 21
17168.895609999989
 31
0.0
  0
LINE
  5
367F
  8
0-6
  6
CONTINUOUS
 62
     6
 10
11005.476549999979
 20
20059.906854000001
 30
0.0
 11
11112.17161099998
 21
19937.730967
 31
0.0
  0
LINE
  5
3680
  8
0-6
  6
CONTINUOUS
 62
     6
 10
11112.17161099998
 20
19937.730967
 30
0.0
 11
11050.868889999971
 21
20087.907144000001
 31
0.0
  0
LINE
  5
3681
  8
0-6
  6
CONTINUOUS
 62
     6
 10
11112.17161099998
 20
19937.730967
 30
0.0
 11
11005.476549999979
 21
20059.906854000001
 31
0.0
  0
LINE
  5
3682
  8
0-6
  6
CONTINUOUS
 62
     6
 10
11005.476549999979
 20
20059.906854000001
 30
0.0
 11
11050.868889999971
 21
20087.907144000001
 31
0.0
  0
LINE
  5
3683
  8
0-6
  6
CONTINUOUS
 62
     6
 10
11050.868889999971
 20
20087.907144000001
 30
0.0
 11
11112.17161099998
 21
19937.730967
 31
0.0
  0
LINE
  5
3684
  8
0-6
  6
CONTINUOUS
 62
     6
 10
11050.868889999971
 20
20087.907144000001
 30
0.0
 11
11005.476549999979
 21
20059.906854000001
 31
0.0
  0
LINE
  5
3685
  8
0-6
  6
CONTINUOUS
 62
     6
 10
11091.62321899997
 20
20221.635501000012
 30
0.0
 11
11188.273213999981
 21
20104.230253999991
 31
0.0
  0
LINE
  5
3686
  8
0-6
  6
CONTINUOUS
 62
     6
 10
11188.273213999981
 20
20104.230253999991
 30
0.0
 11
11134.924197999981
 21
20246.634840999988
 31
0.0
  0
LINE
  5
3687
  8
0-6
  6
CONTINUOUS
 62
     6
 10
11188.273213999981
 20
20104.230253999991
 30
0.0
 11
11091.62321899997
 21
20221.635501000012
 31
0.0
  0
LINE
  5
3688
  8
0-6
  6
CONTINUOUS
 62
     6
 10
11091.62321899997
 20
20221.635501000012
 30
0.0
 11
11134.924197999981
 21
20246.634840999988
 31
0.0
  0
LINE
  5
3689
  8
0-6
  6
CONTINUOUS
 62
     6
 10
11134.924197999981
 20
20246.634840999988
 30
0.0
 11
11188.273213999981
 21
20104.230253999991
 31
0.0
  0
LINE
  5
368A
  8
0-6
  6
CONTINUOUS
 62
     6
 10
11134.924197999981
 20
20246.634840999988
 30
0.0
 11
11091.62321899997
 21
20221.635501000012
 31
0.0
  0
LINE
  5
368B
  8
0-6
  6
CONTINUOUS
 62
     6
 10
11553.797257999981
 20
19838.353194999989
 30
0.0
 11
11541.29560799998
 21
19676.628507000001
 31
0.0
  0
LINE
  5
368C
  8
0-6
  6
CONTINUOUS
 62
     6
 10
11541.29560799998
 20
19676.628507000001
 30
0.0
 11
11605.571566999981
 21
19825.557586999981
 31
0.0
  0
LINE
  5
368D
  8
0-6
  6
CONTINUOUS
 62
     6
 10
11541.29560799998
 20
19676.628507000001
 30
0.0
 11
11553.797257999981
 21
19838.353194999989
 31
0.0
  0
LINE
  5
368E
  8
0-6
  6
CONTINUOUS
 62
     6
 10
11553.797257999981
 20
19838.353194999989
 30
0.0
 11
11605.571566999981
 21
19825.557586999981
 31
0.0
  0
LINE
  5
368F
  8
0-6
  6
CONTINUOUS
 62
     6
 10
11605.571566999981
 20
19825.557586999981
 30
0.0
 11
11541.29560799998
 21
19676.628507000001
 31
0.0
  0
LINE
  5
3690
  8
0-6
  6
CONTINUOUS
 62
     6
 10
11605.571566999981
 20
19825.557586999981
 30
0.0
 11
11553.797257999981
 21
19838.353194999989
 31
0.0
  0
LINE
  5
3691
  8
0-6
  6
CONTINUOUS
 62
     6
 10
14507.549817999959
 20
20248.040300000001
 30
0.0
 11
14415.863465999981
 21
20114.230781999991
 31
0.0
  0
LINE
  5
3692
  8
0-6
  6
CONTINUOUS
 62
     6
 10
14415.863465999981
 20
20114.230781999991
 30
0.0
 11
14545.991078999979
 21
20211.068831000001
 31
0.0
  0
LINE
  5
3693
  8
0-6
  6
CONTINUOUS
 62
     6
 10
14415.863465999981
 20
20114.230781999991
 30
0.0
 11
14507.549817999959
 21
20248.040300000001
 31
0.0
  0
LINE
  5
3694
  8
0-6
  6
CONTINUOUS
 62
     6
 10
14507.549817999959
 20
20248.040300000001
 30
0.0
 11
14545.991078999979
 21
20211.068831000001
 31
0.0
  0
LINE
  5
3695
  8
0-6
  6
CONTINUOUS
 62
     6
 10
14545.991078999979
 20
20211.068831000001
 30
0.0
 11
14415.863465999981
 21
20114.230781999991
 31
0.0
  0
LINE
  5
3696
  8
0-6
  6
CONTINUOUS
 62
     6
 10
14545.991078999979
 20
20211.068831000001
 30
0.0
 11
14507.549817999959
 21
20248.040300000001
 31
0.0
  0
LINE
  5
3697
  8
2-0
  6
DASHED3
 62
     6
 10
9899.3640599999835
 20
19852.73043900001
 30
0.0
 11
14333.364059999971
 21
19852.73043900001
 31
0.0
  0
LINE
  5
3698
  8
2-0
  6
DASHED3
 62
     6
 10
9856.8628059999883
 20
19480.141492999999
 30
0.0
 11
9856.8628059999883
 21
19937.730967
 31
0.0
  0
LINE
  5
3699
  8
2-0
  6
DASHED3
 62
     6
 10
9899.3640599999835
 20
19455.866655999991
 30
0.0
 11
9899.3640599999835
 21
19937.730967
 31
0.0
  0
LINE
  5
369A
  8
2-0
  6
DASHED3
 62
     6
 10
9856.8628059999883
 20
19937.730967
 30
0.0
 11
14375.862343999979
 21
19937.730967
 31
0.0
  0
LINE
  5
369B
  8
2-0
  6
DASHED3
 62
     6
 10
13940.575063999981
 20
16928.730517999989
 30
0.0
 11
14333.364059999971
 21
16928.730517999989
 31
0.0
  0
LINE
  5
369C
  8
2-0
  6
DASHED3
 62
     6
 10
13802.26016199998
 20
17007.731124999991
 30
0.0
 11
14333.364059999971
 21
17007.731124999991
 31
0.0
  0
LINE
  5
369D
  8
2-0
  6
DASHED3
 62
     6
 10
14333.364059999971
 20
16709.241496999992
 30
0.0
 11
14333.364059999971
 21
19937.730967
 31
0.0
  0
LINE
  5
369E
  8
2-0
  6
DASHED3
 62
     6
 10
14375.862343999979
 20
16684.968640999981
 30
0.0
 11
14375.862343999979
 21
19937.730967
 31
0.0
  0
LINE
  5
369F
  8
2-0
  6
DASHED3
 62
     6
 10
12396.861354999981
 20
19891.730914
 30
0.0
 11
11350.014727999969
 21
18632.741259999992
 31
0.0
  0
LINE
  5
36A0
  8
2-0
  6
DASHED3
 62
     6
 10
12536.86280699998
 20
19891.730914
 30
0.0
 11
14263.361353999981
 21
16973.730914
 31
0.0
  0
LINE
  5
36A1
  8
2-0
  6
DASHED3
 62
     6
 10
10732.38909499997
 20
18985.503348999991
 30
0.0
 11
9969.3618169999863
 21
19891.730914
 31
0.0
  0
LINE
  5
36A2
  8
2-0
  6
DASHED3
 62
     6
 10
12868.73602499998
 20
17545.484740999989
 30
0.0
 11
14263.361353999981
 21
19891.730914
 31
0.0
  0
LINE
  5
36A3
  8
2-0
  6
DASHED3
 62
     6
 10
14263.361353999981
 20
16973.730914
 30
0.0
 11
14172.378720999959
 21
16801.190135999968
 31
0.0
  0
LINE
  5
36A4
  8
2-0
  6
CENTER2
 62
     6
 10
14333.364059999971
 20
21134.229199000009
 30
0.0
 11
14333.364059999971
 21
20184.230518000011
 31
0.0
  0
LINE
  5
36A5
  8
2-0
  6
CENTER2
 62
     6
 10
12466.86405999998
 20
21134.229199000009
 30
0.0
 11
12466.86405999998
 21
20184.230518000011
 31
0.0
  0
LINE
  5
36A6
  8
2-0
  6
CENTER2
 62
     6
 10
8569.8606609999897
 20
19891.730914
 30
0.0
 11
9866.3644959999874
 21
19891.730914
 31
0.0
  0
LINE
  5
36A7
  8
2-0
  6
CENTER2
 62
     6
 10
9899.3640599999835
 20
21134.229199000009
 30
0.0
 11
9899.3640599999835
 21
20184.230518000011
 31
0.0
  0
LINE
  5
36A8
  8
2-0
  6
CENTER2
 62
     6
 10
8569.8606609999897
 20
16973.730914
 30
0.0
 11
9866.3644959999874
 21
16973.730914
 31
0.0
  0
LINE
  5
36A9
  8
2-0
  6
CENTER2
 62
     6
 10
8569.8606609999897
 20
13705.230913999991
 30
0.0
 11
9866.3644959999874
 21
13705.230913999991
 31
0.0
  0
LINE
  5
36AA
  8
2-0
  6
CENTER2
 62
     6
 10
14007.863848999979
 20
16973.730914
 30
0.0
 11
14632.12982999998
 21
16973.730914
 31
0.0
  0
LINE
  5
36AB
  8
2-0
  6
CENTER2
 62
     6
 10
14007.863848999979
 20
13705.230913999991
 30
0.0
 11
14632.12982999998
 21
13705.230913999991
 31
0.0
  0
LINE
  5
36AC
  8
2-0
  6
DASHED3
 62
     6
 10
12409.864811999971
 20
18018.918281999999
 30
0.0
 11
12409.864811999971
 21
19852.73043900001
 31
0.0
  0
LINE
  5
36AD
  8
2-0
  6
DASHED3
 62
     6
 10
12466.86405999998
 20
17884.455523000001
 30
0.0
 11
12466.86405999998
 21
19852.73043900001
 31
0.0
  0
LINE
  5
36AE
  8
2-0
  6
DASHED3
 62
     6
 10
12523.861327999961
 20
17749.994743999989
 30
0.0
 11
12523.861327999961
 21
19852.73043900001
 31
0.0
  0
CIRCLE
  5
36AF
  8
0-1
  6
CONTINUOUS
 62
     4
 10
12466.86405999998
 20
21334.227879000009
 30
0.0
 40
199.9999949999999
  0
CIRCLE
  5
36B0
  8
0-1
  6
CONTINUOUS
 62
     4
 10
9899.3640599999835
 20
21334.227879000009
 30
0.0
 40
199.9999949999999
  0
CIRCLE
  5
36B1
  8
0-1
  6
CONTINUOUS
 62
     4
 10
8369.862474999989
 20
19891.730914
 30
0.0
 40
199.9999949999999
  0
CIRCLE
  5
36B2
  8
0-1
  6
CONTINUOUS
 62
     4
 10
8369.862474999989
 20
16973.730914
 30
0.0
 40
199.9999949999999
  0
CIRCLE
  5
36B3
  8
0-1
  6
CONTINUOUS
 62
     4
 10
8369.862474999989
 20
13705.230913999991
 30
0.0
 40
199.9999949999999
  0
CIRCLE
  5
36B4
  8
0-1
  6
CONTINUOUS
 62
     4
 10
14333.364059999971
 20
21334.227879000031
 30
0.0
 40
199.9999949999999
  0
ARC
  5
36B5
  8
0-2
  6
CONTINUOUS
 62
     3
 10
9818.861948999991
 20
20109.230518
 30
0.0
 40
5.0
 50
90.0
 51
180.0
  0
ARC
  5
36B6
  8
0-2
  6
CONTINUOUS
 62
     3
 10
9882.3629249999885
 20
20109.230518
 30
0.0
 40
5.0
 50
0.0
 51
90.0
  0
ARC
  5
36B7
  8
0-2
  6
CONTINUOUS
 62
     3
 10
9882.3629249999885
 20
20079.230913999989
 30
0.0
 40
5.0
 50
269.9999850001808
 51
0.0
  0
ARC
  5
36B8
  8
0-2
  6
CONTINUOUS
 62
     3
 10
14350.364204999971
 20
20079.230913999989
 30
0.0
 40
5.0
 50
180.0
 51
269.9999850001808
  0
ARC
  5
36B9
  8
0-2
  6
CONTINUOUS
 62
     3
 10
14350.364204999971
 20
20109.230518
 30
0.0
 40
5.0
 50
90.0
 51
180.0
  0
ARC
  5
36BA
  8
0-2
  6
CONTINUOUS
 62
     3
 10
14413.864191999981
 20
20109.230518
 30
0.0
 40
5.0
 50
0.0
 51
90.0
  0
TEXT
  5
36BB
  8
0-1
  6
CONTINUOUS
 62
     7
 10
14280.531697999961
 20
21249.672743000021
 30
0.0
 40
160.0
  1
3
 72
     4
 11
14333.8650313333
 21
21329.672743000021
 31
0.0
  0
TEXT
  5
36BC
  8
0-1
  6
CONTINUOUS
 62
     7
 10
12414.031698999979
 20
21249.67274300001
 30
0.0
 40
160.0
  1
2
 72
     4
 11
12467.36503233331
 21
21329.67274300001
 31
0.0
  0
TEXT
  5
36BD
  8
0-1
  6
CONTINUOUS
 62
     7
 10
9843.8563799999847
 20
21243.191799000011
 30
0.0
 40
160.0
  1
1
 72
     4
 11
9870.5230466666508
 21
21323.191799000011
 31
0.0
  0
TEXT
  5
36BE
  8
0-1
  6
CONTINUOUS
 62
     7
 10
8319.1640349999871
 20
19804.556874999991
 30
0.0
 40
160.0
  1
C
 72
     4
 11
8372.4973683333228
 21
19884.556874999991
 31
0.0
  0
TEXT
  5
36BF
  8
0-1
  6
CONTINUOUS
 62
     7
 10
8319.1640349999871
 20
16886.558853999992
 30
0.0
 40
160.0
  1
B
 72
     4
 11
8372.4973683333228
 21
16966.558853999992
 31
0.0
  0
TEXT
  5
36C0
  8
0-1
  6
CONTINUOUS
 62
     7
 10
8319.1640349999871
 20
13618.055885000011
 30
0.0
 40
160.0
  1
A
 72
     4
 11
8372.4973683333228
 21
13698.055885000011
 31
0.0
  0
TEXT
  5
36C1
  8
0-6
  6
CONTINUOUS
 62
     7
 10
11803.58775899998
 20
20424.231309999999
 30
0.0
 40
160.0
  1
屋根
 72
     4
 11
11974.25442566665
 21
20504.231309999999
 31
0.0
  0
TEXT
  5
36C2
  8
0-6
  6
CONTINUOUS
 62
     7
 10
10714.015202999981
 20
21144.229726000001
 30
0.0
 40
160.0
  1
鼻隠し後
 72
     4
 11
11076.681869666651
 21
21224.229726000001
 31
0.0
  0
TEXT
  5
36C3
  8
0-6
  6
CONTINUOUS
 62
     7
 10
10098.241408999969
 20
20424.231309999999
 30
0.0
 40
160.0
  1
桁（後）
 72
     4
 11
10418.241408999969
 21
20504.231309999999
 31
0.0
  0
TEXT
  5
36C4
  8
0-6
  6
CONTINUOUS
 62
     7
 10
10746.384290999969
 20
17413.326142000002
 30
0.0
 40
160.0
  1
桁（中）
 72
     4
 11
11066.384290999969
 21
17493.326142000002
 31
0.0
  0
TEXT
  5
36C5
  8
0-6
  6
CONTINUOUS
 62
     7
 10
10863.964724999971
 20
14167.059605999981
 30
0.0
 40
160.0
  1
桁（前）
 72
     4
 11
11183.964724999971
 21
14247.059605999981
 31
0.0
  0
TEXT
  5
36C6
  8
0-6
  6
CONTINUOUS
 62
     7
 10
11856.94766199998
 20
12792.73124400001
 30
0.0
 40
160.0
  1
鼻隠し前
 72
     4
 11
12219.61432866665
 21
12872.73124400001
 31
0.0
  0
TEXT
  5
36C7
  8
0-6
  6
CONTINUOUS
 62
     7
 10
8163.4658209999861
 20
12392.72992399999
 30
0.0
 40
160.0
  1
ケラバ 左
 72
     4
 11
8579.465820999987
 21
12472.72992399999
 31
0.0
  0
TEXT
  5
36C8
  8
0-6
  6
CONTINUOUS
 62
     7
 10
10143.892010999971
 20
18339.212307000002
 30
0.0
 40
160.0
  1
上枠
 72
     4
 11
10314.558677666641
 21
18419.212307000002
 31
0.0
  0
TEXT
  5
36C9
  8
0-6
  6
CONTINUOUS
 62
     7
 10
11017.466493999969
 20
16515.21898399997
 30
0.0
 40
160.0
  1
ブレース
 72
     4
 11
11380.133160666641
 21
16600.552317333309
 31
0.0
  0
TEXT
  5
36CA
  8
0-6
  6
CONTINUOUS
 62
     7
 10
11914.67735199997
 20
15349.06281299998
 30
0.0
 40
160.0
  1
梁
 72
     4
 11
11989.344018666639
 21
15429.06281299998
 31
0.0
  0
TEXT
  5
36CB
  8
0-6
  6
CONTINUOUS
 62
     7
 10
15385.66326999997
 20
21069.896823999999
 30
0.0
 40
160.0
  1
鼻隠しコーナー後
 72
     4
 11
16132.32993666664
 21
21149.896823999999
 31
0.0
  0
TEXT
  5
36CC
  8
2-0
  6
CONTINUOUS
 62
     7
 10
11031.966466999969
 20
11447.90618911071
 30
0.0
 40
160.0
  1
小 屋 伏 図
 50
359.99980699999981
 72
     4
 11
11533.3000698093
 21
11527.90450037622
 31
0.0
  0
TEXT
  5
36D4
  8
2-0
  6
CONTINUOUS
 62
     7
 10
12884.792254946929
 20
11475.09986937623
 30
0.0
 40
160.0
  1
1
 72
     4
 11
12911.458921613599
 21
11555.09986937623
 31
0.0
  0
TEXT
  5
36D5
  8
2-0
  6
CONTINUOUS
 62
     7
 10
13127.880972197619
 20
11395.101337376231
 30
0.0
 40
160.0
  1
80
 72
     4
 11
13247.880972197619
 21
11475.101337376231
 31
0.0
  0
TEXT
  5
36D6
  8
2-0
  6
CONTINUOUS
 62
     7
 10
12385.79422094692
 20
11447.90450037622
 30
0.0
 40
160.0
  1
(S=  /   )
 72
     4
 11
12945.79422094692
 21
11527.90450037622
 31
0.0
  0
LINE
  5
36D7
  8
0-4
  6
CONTINUOUS
 62
     4
 10
17611.93860899999
 20
6384.4362370000017
 30
0.0
 11
17731.940983999979
 21
6176.5902500000011
 31
0.0
  0
LINE
  5
36D8
  8
0-4
  6
CONTINUOUS
 62
     4
 10
15426.53135600001
 20
6176.5902500000002
 30
0.0
 11
20064.820470999992
 21
6176.5902500000011
 31
0.0
  0
LINE
  5
36D9
  8
0-4
  6
CONTINUOUS
 62
     4
 10
17731.940983999979
 20
6176.5902500000011
 30
0.0
 11
17851.939400999989
 21
6384.4362370000017
 31
0.0
  0
LINE
  5
36DA
  8
0-4
  6
CONTINUOUS
 62
     4
 10
17851.939400999989
 20
6384.4362370000017
 30
0.0
 11
17611.93860899999
 21
6384.4362370000017
 31
0.0
  0
TEXT
  5
36DB
  8
0-4
  6
CONTINUOUS
 62
     7
 10
17611.93860899999
 20
6464.4365009999983
 30
0.0
 40
160.0
  1
G.L
 72
     4
 11
17771.93860899999
 21
6544.4365009999992
 31
0.0
  0
TEXT
  5
36DC
  8
2-0
  6
CONTINUOUS
 62
     7
 10
21330.895296999999
 20
11453.23951899999
 30
0.0
 40
160.0
  1
平　面　図
 50
359.99978700000008
 72
     4
 11
21784.228907907371
 21
11527.90450037622
 31
0.0
  0
TEXT
  5
36DD
  8
2-0
  6
CONTINUOUS
 62
     7
 10
23135.72109304498
 20
11475.09986937623
 30
0.0
 40
160.0
  1
1
 72
     4
 11
23162.387759711652
 21
11555.09986937623
 31
0.0
  0
TEXT
  5
36DE
  8
2-0
  6
CONTINUOUS
 62
     7
 10
23378.80981029569
 20
11395.101337376231
 30
0.0
 40
160.0
  1
80
 72
     4
 11
23498.80981029569
 21
11475.101337376231
 31
0.0
  0
TEXT
  5
36DF
  8
2-0
  6
CONTINUOUS
 62
     7
 10
22636.723059044991
 20
11447.90450037622
 30
0.0
 40
160.0
  1
(S=  /   )
 72
     4
 11
23196.723059044991
 21
11527.90450037622
 31
0.0
  0
LINE
  5
36E0
  8
0-1
  6
CONTINUOUS
 62
     3
 10
9509.0335860000068
 20
6326.5902500000011
 30
0.0
 11
9509.0335860000068
 21
8187.6361290000032
 31
0.0
  0
LINE
  5
36E1
  8
0-1
  6
CONTINUOUS
 62
     3
 10
9529.0346419999969
 20
6326.5902500000011
 30
0.0
 11
9529.0346419999969
 21
8187.6361290000032
 31
0.0
  0
LINE
  5
36E2
  8
0-1
  6
CONTINUOUS
 62
     3
 10
9459.0339160000131
 20
6326.5902500000011
 30
0.0
 11
9459.0339160000131
 21
8187.6361290000032
 31
0.0
  0
LINE
  5
36E3
  8
0-1
  6
CONTINUOUS
 62
     3
 10
9579.0333220000066
 20
6326.5902500000011
 30
0.0
 11
9579.0333220000066
 21
8187.6361290000032
 31
0.0
  0
LINE
  5
36E4
  8
0-1
  6
CONTINUOUS
 62
     3
 10
9712.0342059999984
 20
6326.5902500000011
 30
0.0
 11
9712.0342059999984
 21
8187.6361290000032
 31
0.0
  0
LINE
  5
36E5
  8
0-1
  6
CONTINUOUS
 62
     3
 10
9727.0340080000115
 20
6326.5902500000011
 30
0.0
 11
9727.0340080000115
 21
8187.6361290000032
 31
0.0
  0
LINE
  5
36E6
  8
0-1
  6
CONTINUOUS
 62
     3
 10
9326.0340210000086
 20
6326.5902500000011
 30
0.0
 11
9326.0340210000086
 21
8187.6361290000032
 31
0.0
  0
LINE
  5
36E7
  8
0-1
  6
CONTINUOUS
 62
     3
 10
9311.0342190000083
 20
6326.5902500000011
 30
0.0
 11
9311.0342190000083
 21
8187.6361290000032
 31
0.0
  0
LINE
  5
36E8
  8
0-1
  6
CONTINUOUS
 62
     3
 10
10587.533705000011
 20
8187.6361290000032
 30
0.0
 11
10587.533705000011
 21
6326.5902500000011
 31
0.0
  0
LINE
  5
36E9
  8
0-1
  6
CONTINUOUS
 62
     3
 10
10550.535513000001
 20
8187.6361290000032
 30
0.0
 11
10550.535513000001
 21
6326.5902500000011
 31
0.0
  0
LINE
  5
36EA
  8
0-1
  6
CONTINUOUS
 62
     3
 10
9887.5343640000083
 20
8187.6361290000032
 30
0.0
 11
9887.5343640000083
 21
6326.5902500000011
 31
0.0
  0
LINE
  5
36EB
  8
0-1
  6
CONTINUOUS
 62
     3
 10
9850.534192999994
 20
8187.6361290000032
 30
0.0
 11
9850.534192999994
 21
6326.5902500000011
 31
0.0
  0
LINE
  5
36EC
  8
0-1
  6
CONTINUOUS
 62
     3
 10
11287.53304499998
 20
8187.6361290000032
 30
0.0
 11
11287.53304499998
 21
6326.5902500000011
 31
0.0
  0
LINE
  5
36ED
  8
0-1
  6
CONTINUOUS
 62
     3
 10
11250.534852999999
 20
8187.6361290000032
 30
0.0
 11
11250.534852999999
 21
6326.5902500000011
 31
0.0
  0
LINE
  5
36EE
  8
0-1
  6
CONTINUOUS
 62
     3
 10
10909.033255999981
 20
6326.5902500000011
 30
0.0
 11
10909.033255999981
 21
8187.6361290000032
 31
0.0
  0
LINE
  5
36EF
  8
0-1
  6
CONTINUOUS
 62
     3
 10
10929.034312
 20
6326.5902500000011
 30
0.0
 11
10929.034312
 21
8187.6361290000032
 31
0.0
  0
LINE
  5
36F0
  8
0-1
  6
CONTINUOUS
 62
     3
 10
10859.034575999989
 20
6326.5902500000011
 30
0.0
 11
10859.034575999989
 21
8187.6361290000032
 31
0.0
  0
LINE
  5
36F1
  8
0-1
  6
CONTINUOUS
 62
     3
 10
10979.03398200001
 20
6326.5902500000011
 30
0.0
 11
10979.03398200001
 21
8187.6361290000032
 31
0.0
  0
LINE
  5
36F2
  8
0-1
  6
CONTINUOUS
 62
     3
 10
11112.03387599999
 20
6326.5902500000011
 30
0.0
 11
11112.03387599999
 21
8187.6361290000032
 31
0.0
  0
LINE
  5
36F3
  8
0-1
  6
CONTINUOUS
 62
     3
 10
11127.033678
 20
6326.5902500000011
 30
0.0
 11
11127.033678
 21
8187.6361290000032
 31
0.0
  0
LINE
  5
36F4
  8
0-1
  6
CONTINUOUS
 62
     3
 10
10726.033691000001
 20
6326.5902500000011
 30
0.0
 11
10726.033691000001
 21
8187.6361290000032
 31
0.0
  0
LINE
  5
36F5
  8
0-1
  6
CONTINUOUS
 62
     3
 10
10711.034879000001
 20
6326.5902500000011
 30
0.0
 11
10711.034879000001
 21
8187.6361290000032
 31
0.0
  0
LINE
  5
36F6
  8
0-1
  6
CONTINUOUS
 62
     3
 10
10011.03355899999
 20
6326.5902500000011
 30
0.0
 11
10011.03355899999
 21
8187.6361290000032
 31
0.0
  0
LINE
  5
36F7
  8
0-1
  6
CONTINUOUS
 62
     3
 10
10026.03435099998
 20
6326.5902500000011
 30
0.0
 11
10026.03435099998
 21
8187.6361290000032
 31
0.0
  0
LINE
  5
36F8
  8
0-1
  6
CONTINUOUS
 62
     3
 10
10427.034337999999
 20
6326.5902500000011
 30
0.0
 11
10427.034337999999
 21
8187.6361290000032
 31
0.0
  0
LINE
  5
36F9
  8
0-1
  6
CONTINUOUS
 62
     3
 10
10412.033546000001
 20
6326.5902500000011
 30
0.0
 11
10412.033546000001
 21
8187.6361290000032
 31
0.0
  0
LINE
  5
36FA
  8
0-1
  6
CONTINUOUS
 62
     3
 10
10279.034642000001
 20
6326.5902500000011
 30
0.0
 11
10279.034642000001
 21
8187.6361290000032
 31
0.0
  0
LINE
  5
36FB
  8
0-1
  6
CONTINUOUS
 62
     3
 10
10159.033256000001
 20
6326.5902500000011
 30
0.0
 11
10159.033256000001
 21
8187.6361290000032
 31
0.0
  0
LINE
  5
36FC
  8
0-1
  6
CONTINUOUS
 62
     3
 10
10229.035961000011
 20
6326.5902500000011
 30
0.0
 11
10229.035961000011
 21
8187.6361290000032
 31
0.0
  0
LINE
  5
36FD
  8
0-1
  6
CONTINUOUS
 62
     3
 10
10209.034906000001
 20
6326.5902500000011
 30
0.0
 11
10209.034906000001
 21
8187.6361290000032
 31
0.0
  0
LINE
  5
36FE
  8
0-1
  6
CONTINUOUS
 62
     3
 10
11411.033229999999
 20
6326.5902500000011
 30
0.0
 11
11411.033229999999
 21
8187.6361290000032
 31
0.0
  0
LINE
  5
36FF
  8
0-1
  6
CONTINUOUS
 62
     3
 10
11426.03402099999
 20
6326.5902500000011
 30
0.0
 11
11426.03402099999
 21
8187.6361290000032
 31
0.0
  0
LINE
  5
3700
  8
0-1
  6
CONTINUOUS
 62
     3
 10
11559.034906000001
 20
6326.5902500000011
 30
0.0
 11
11559.034906000001
 21
8187.6361290000032
 31
0.0
  0
LINE
  5
3701
  8
0-1
  6
CONTINUOUS
 62
     3
 10
11827.034008000001
 20
6326.5902500000011
 30
0.0
 11
11827.034008000001
 21
8187.6361290000032
 31
0.0
  0
LINE
  5
3702
  8
0-1
  6
CONTINUOUS
 62
     3
 10
11812.035196000001
 20
6326.5902500000011
 30
0.0
 11
11812.035196000001
 21
8187.6361290000032
 31
0.0
  0
LINE
  5
3703
  8
0-1
  6
CONTINUOUS
 62
     3
 10
11679.034311999991
 20
6326.5902500000011
 30
0.0
 11
11679.034311999991
 21
8187.6361290000032
 31
0.0
  0
LINE
  5
3704
  8
0-1
  6
CONTINUOUS
 62
     3
 10
11629.034642000001
 20
6326.5902500000011
 30
0.0
 11
11629.034642000001
 21
8187.6361290000032
 31
0.0
  0
LINE
  5
3705
  8
0-1
  6
CONTINUOUS
 62
     3
 10
11609.035565
 20
6326.5902500000011
 30
0.0
 11
11609.035565
 21
8187.6361290000032
 31
0.0
  0
LINE
  5
3706
  8
0-1
  6
CONTINUOUS
 62
     3
 10
12437.034535999999
 20
6326.5902500000011
 30
0.0
 11
12437.034535999999
 21
8187.6361290000032
 31
0.0
  0
LINE
  5
3707
  8
0-1
  6
CONTINUOUS
 62
     3
 10
12417.03545999999
 20
6326.5902500000011
 30
0.0
 11
12417.03545999999
 21
8187.6361290000032
 31
0.0
  0
LINE
  5
3708
  8
0-1
  6
CONTINUOUS
 62
     3
 10
12487.035196000001
 20
6326.5902500000011
 30
0.0
 11
12487.035196000001
 21
8187.6361290000032
 31
0.0
  0
LINE
  5
3709
  8
0-1
  6
CONTINUOUS
 62
     3
 10
12367.03480000001
 20
6326.5902500000011
 30
0.0
 11
12367.03480000001
 21
8187.6361290000032
 31
0.0
  0
LINE
  5
370A
  8
0-1
  6
CONTINUOUS
 62
     3
 10
12234.03490599999
 20
6326.5902500000011
 30
0.0
 11
12234.03490599999
 21
8187.6361290000032
 31
0.0
  0
LINE
  5
370B
  8
0-1
  6
CONTINUOUS
 62
     3
 10
12219.03312399999
 20
6326.5902500000011
 30
0.0
 11
12219.03312399999
 21
8187.6361290000032
 31
0.0
  0
LINE
  5
370C
  8
0-1
  6
CONTINUOUS
 62
     3
 10
12620.03508999999
 20
6326.5902500000011
 30
0.0
 11
12620.03508999999
 21
8187.6361290000032
 31
0.0
  0
LINE
  5
370D
  8
0-1
  6
CONTINUOUS
 62
     3
 10
12635.03390300001
 20
6326.5902500000011
 30
0.0
 11
12635.03390300001
 21
8187.6361290000032
 31
0.0
  0
LINE
  5
370E
  8
0-1
  6
CONTINUOUS
 62
     3
 10
14735.03390300001
 20
6326.5902500000011
 30
0.0
 11
14735.03390300001
 21
8187.6361290000032
 31
0.0
  0
LINE
  5
370F
  8
0-1
  6
CONTINUOUS
 62
     3
 10
14720.03509000001
 20
6326.5902500000011
 30
0.0
 11
14720.03509000001
 21
8187.6361290000032
 31
0.0
  0
LINE
  5
3710
  8
0-1
  6
CONTINUOUS
 62
     3
 10
14319.03411399998
 20
6326.5902500000011
 30
0.0
 11
14319.03411399998
 21
8187.6361290000032
 31
0.0
  0
LINE
  5
3711
  8
0-1
  6
CONTINUOUS
 62
     3
 10
14334.033916
 20
6326.5902500000011
 30
0.0
 11
14334.033916
 21
8187.6361290000032
 31
0.0
  0
LINE
  5
3712
  8
0-1
  6
CONTINUOUS
 62
     3
 10
14467.03480000001
 20
6326.5902500000011
 30
0.0
 11
14467.03480000001
 21
8187.6361290000032
 31
0.0
  0
LINE
  5
3713
  8
0-1
  6
CONTINUOUS
 62
     3
 10
14587.034206
 20
6326.5902500000011
 30
0.0
 11
14587.034206
 21
8187.6361290000032
 31
0.0
  0
LINE
  5
3714
  8
0-1
  6
CONTINUOUS
 62
     3
 10
14517.035459999999
 20
6326.5902500000011
 30
0.0
 11
14517.035459999999
 21
8187.6361290000032
 31
0.0
  0
LINE
  5
3715
  8
0-1
  6
CONTINUOUS
 62
     3
 10
14537.034535999999
 20
6326.5902500000011
 30
0.0
 11
14537.034535999999
 21
8187.6361290000032
 31
0.0
  0
LINE
  5
3716
  8
0-1
  6
CONTINUOUS
 62
     3
 10
13837.035196000001
 20
6326.5902500000011
 30
0.0
 11
13837.035196000001
 21
8187.6361290000032
 31
0.0
  0
LINE
  5
3717
  8
0-1
  6
CONTINUOUS
 62
     3
 10
13817.034140000011
 20
6326.5902500000011
 30
0.0
 11
13817.034140000011
 21
8187.6361290000032
 31
0.0
  0
LINE
  5
3718
  8
0-1
  6
CONTINUOUS
 62
     3
 10
13887.03387600001
 20
6326.5902500000011
 30
0.0
 11
13887.03387600001
 21
8187.6361290000032
 31
0.0
  0
LINE
  5
3719
  8
0-1
  6
CONTINUOUS
 62
     3
 10
13767.03545999999
 20
6326.5902500000011
 30
0.0
 11
13767.03545999999
 21
8187.6361290000032
 31
0.0
  0
LINE
  5
371A
  8
0-1
  6
CONTINUOUS
 62
     3
 10
13634.034575999989
 20
6326.5902500000011
 30
0.0
 11
13634.034575999989
 21
8187.6361290000032
 31
0.0
  0
LINE
  5
371B
  8
0-1
  6
CONTINUOUS
 62
     3
 10
13619.034773999991
 20
6326.5902500000011
 30
0.0
 11
13619.034773999991
 21
8187.6361290000032
 31
0.0
  0
LINE
  5
371C
  8
0-1
  6
CONTINUOUS
 62
     3
 10
14020.032781000011
 20
6326.5902500000011
 30
0.0
 11
14020.032781000011
 21
8187.6361290000032
 31
0.0
  0
LINE
  5
371D
  8
0-1
  6
CONTINUOUS
 62
     3
 10
14035.03456200001
 20
6326.5902500000011
 30
0.0
 11
14035.03456200001
 21
8187.6361290000032
 31
0.0
  0
LINE
  5
371E
  8
0-1
  6
CONTINUOUS
 62
     3
 10
13335.035222
 20
6326.5902500000011
 30
0.0
 11
13335.035222
 21
8187.6361290000032
 31
0.0
  0
LINE
  5
371F
  8
0-1
  6
CONTINUOUS
 62
     3
 10
13320.033441
 20
6326.5902500000011
 30
0.0
 11
13320.033441
 21
8187.6361290000032
 31
0.0
  0
LINE
  5
3720
  8
0-1
  6
CONTINUOUS
 62
     3
 10
12919.03543299999
 20
6326.5902500000011
 30
0.0
 11
12919.03543299999
 21
8187.6361290000032
 31
0.0
  0
LINE
  5
3721
  8
0-1
  6
CONTINUOUS
 62
     3
 10
12934.03424599999
 20
6326.5902500000011
 30
0.0
 11
12934.03424599999
 21
8187.6361290000032
 31
0.0
  0
LINE
  5
3722
  8
0-1
  6
CONTINUOUS
 62
     3
 10
13067.03315000001
 20
6326.5902500000011
 30
0.0
 11
13067.03315000001
 21
8187.6361290000032
 31
0.0
  0
LINE
  5
3723
  8
0-1
  6
CONTINUOUS
 62
     3
 10
13187.03453599999
 20
6326.5902500000011
 30
0.0
 11
13187.03453599999
 21
8187.6361290000032
 31
0.0
  0
LINE
  5
3724
  8
0-1
  6
CONTINUOUS
 62
     3
 10
13117.03479999999
 20
6326.5902500000011
 30
0.0
 11
13117.03479999999
 21
8187.6361290000032
 31
0.0
  0
LINE
  5
3725
  8
0-1
  6
CONTINUOUS
 62
     3
 10
13137.03387600001
 20
6326.5902500000011
 30
0.0
 11
13137.03387600001
 21
8187.6361290000032
 31
0.0
  0
LINE
  5
3726
  8
0-1
  6
CONTINUOUS
 62
     3
 10
12795.53524899999
 20
8187.6361290000032
 30
0.0
 11
12795.53524899999
 21
6326.5902500000011
 31
0.0
  0
LINE
  5
3727
  8
0-1
  6
CONTINUOUS
 62
     3
 10
12758.534087
 20
8187.6361290000032
 30
0.0
 11
12758.534087
 21
6326.5902500000011
 31
0.0
  0
LINE
  5
3728
  8
0-1
  6
CONTINUOUS
 62
     3
 10
14195.532939000001
 20
8187.6361290000032
 30
0.0
 11
14195.532939000001
 21
6326.5902500000011
 31
0.0
  0
LINE
  5
3729
  8
0-1
  6
CONTINUOUS
 62
     3
 10
14158.533756999999
 20
8187.6361290000032
 30
0.0
 11
14158.533756999999
 21
6326.5902500000011
 31
0.0
  0
LINE
  5
372A
  8
0-1
  6
CONTINUOUS
 62
     3
 10
13495.53458899999
 20
8187.6361290000032
 30
0.0
 11
13495.53458899999
 21
6326.5902500000011
 31
0.0
  0
LINE
  5
372B
  8
0-1
  6
CONTINUOUS
 62
     3
 10
13458.534417000001
 20
8187.6361290000032
 30
0.0
 11
13458.534417000001
 21
6326.5902500000011
 31
0.0
  0
LINE
  5
372C
  8
0-1
  6
CONTINUOUS
 62
     3
 10
14895.53524899998
 20
8187.6361290000032
 30
0.0
 11
14895.53524899998
 21
6326.5902500000011
 31
0.0
  0
LINE
  5
372D
  8
0-1
  6
CONTINUOUS
 62
     3
 10
14858.534087
 20
8187.6361290000032
 30
0.0
 11
14858.534087
 21
6326.5902500000011
 31
0.0
  0
LINE
  5
372E
  8
0-1
  6
CONTINUOUS
 62
     3
 10
15346.534061
 20
6276.5900850000025
 30
0.0
 11
15346.534061
 21
6176.5902500000002
 31
0.0
  0
LINE
  5
372F
  8
0-1
  6
CONTINUOUS
 62
     3
 10
15314.033269999991
 20
8490.9191600000013
 30
0.0
 11
15314.033269999991
 21
6276.5900850000025
 31
0.0
  0
LINE
  5
3730
  8
0-1
  6
CONTINUOUS
 62
     3
 10
15334.034061
 20
8491.5001490000031
 30
0.0
 11
15334.034061
 21
6276.5900850000025
 31
0.0
  0
LINE
  5
3731
  8
0-1
  6
CONTINUOUS
 62
     3
 10
15219.03419299999
 20
8187.6361290000032
 30
0.0
 11
15219.03419299999
 21
6276.5900850000025
 31
0.0
  0
LINE
  5
3732
  8
0-1
  6
CONTINUOUS
 62
     3
 10
12023.034061
 20
8392.3915919999999
 30
0.0
 11
12023.034061
 21
8187.6361290000032
 31
0.0
  0
LINE
  5
3733
  8
0-1
  6
CONTINUOUS
 62
     3
 10
11950.534193
 20
8187.6361290000032
 30
0.0
 11
11950.534193
 21
6276.5900850000025
 31
0.0
  0
LINE
  5
3734
  8
0-1
  6
CONTINUOUS
 62
     3
 10
12095.53293899999
 20
8187.6361290000032
 30
0.0
 11
12095.53293899999
 21
6276.5900850000025
 31
0.0
  0
LINE
  5
3735
  8
0-1
  6
CONTINUOUS
 62
     3
 10
12095.53293899999
 20
6326.5902500000011
 30
0.0
 11
15219.03419299999
 21
6326.5902500000011
 31
0.0
  0
LINE
  5
3736
  8
0-1
  6
CONTINUOUS
 62
     3
 10
9055.0340609999967
 20
6176.5902500000002
 30
0.0
 11
9055.0340609999967
 21
6276.5900850000025
 31
0.0
  0
LINE
  5
3737
  8
0-1
  6
CONTINUOUS
 62
     3
 10
9082.5338630000006
 20
8304.3925880000043
 30
0.0
 11
9082.5338630000006
 21
6276.5900850000025
 31
0.0
  0
LINE
  5
3738
  8
0-1
  6
CONTINUOUS
 62
     3
 10
9062.5340609999967
 20
8303.7758606838124
 30
0.0
 11
9062.5340609999967
 21
6276.5900850000025
 31
0.0
  0
LINE
  5
3739
  8
0-1
  6
CONTINUOUS
 62
     3
 10
9177.5329400000046
 20
8187.6361290000032
 30
0.0
 11
9177.5329400000046
 21
6276.5900850000025
 31
0.0
  0
LINE
  5
373A
  8
0-1
  6
CONTINUOUS
 62
     3
 10
9055.0340609999967
 20
6276.5900850000025
 30
0.0
 11
15346.534061
 21
6276.5900850000025
 31
0.0
  0
LINE
  5
373B
  8
0-1
  6
CONTINUOUS
 62
     3
 10
9177.5329400000046
 20
6326.5902500000011
 30
0.0
 11
11950.534193
 21
6326.5902500000011
 31
0.0
  0
LINE
  5
373C
  8
0-1
  6
CONTINUOUS
 62
     3
 10
8372.5330059999978
 20
6176.5902500000011
 30
0.0
 11
15346.534061
 21
6176.5902500000002
 31
0.0
  0
LINE
  5
373D
  8
0-1
  6
CONTINUOUS
 62
     3
 10
9082.5338630000006
 20
8187.6361290000032
 30
0.0
 11
15314.033269999991
 21
8187.6361290000032
 31
0.0
  0
LINE
  5
373E
  8
0-1
  6
CONTINUOUS
 62
     3
 10
8888.2322370000002
 20
8338.5754100000013
 30
0.0
 11
15419.723725999989
 21
8534.0914710000015
 31
0.0
  0
LINE
  5
373F
  8
0-1
  6
CONTINUOUS
 62
     3
 10
15418.223250999999
 20
8584.0703560000038
 30
0.0
 11
8886.7327519999981
 21
8388.553305999998
 31
0.0
  0
LINE
  5
3740
  8
0-1
  6
CONTINUOUS
 62
     3
 10
8883.642724000003
 20
8391.4622080000008
 30
0.0
 11
8882.6826569999976
 21
8423.4477640000005
 31
0.0
  0
LINE
  5
3741
  8
0-1
  6
CONTINUOUS
 62
     3
 10
8887.5314879999987
 20
8428.5950069999999
 30
0.0
 11
15437.992703
 21
8624.682159
 31
0.0
  0
LINE
  5
3742
  8
0-1
  6
CONTINUOUS
 62
     3
 10
15441.897303
 20
8494.7406210000008
 30
0.0
 11
8891.4321290000007
 21
8298.6539639999974
 31
0.0
  0
LINE
  5
3743
  8
0-1
  6
CONTINUOUS
 62
     3
 10
8886.2843910000029
 20
8303.5013100000033
 30
0.0
 11
8885.3253140000033
 21
8335.4873609999977
 31
0.0
  0
LINE
  5
3744
  8
0-1
  6
CONTINUOUS
 62
     3
 10
8884.9937449999998
 20
8346.4821019999981
 30
0.0
 11
8883.9733030000007
 21
8380.4664770000054
 31
0.0
  0
LINE
  5
3745
  8
0-1
  6
CONTINUOUS
 62
     3
 10
8886.882206000002
 20
8383.5555159999967
 30
0.0
 11
15418.374683999989
 21
8579.0730610000028
 31
0.0
  0
LINE
  5
3746
  8
0-1
  6
CONTINUOUS
 62
     3
 10
15419.574272
 20
8539.0897550000045
 30
0.0
 11
8888.0837740000006
 21
8343.5736950000028
 31
0.0
  0
LINE
  5
3747
  8
0-1
  6
CONTINUOUS
 62
     3
 10
12023.034061
 20
8392.3915919999999
 30
0.0
 11
12019.13143999999
 21
8522.3331300000027
 31
0.0
  0
LINE
  5
3748
  8
0-1
  6
CONTINUOUS
 62
     3
 10
15408.930401
 20
8493.7498720000003
 30
0.0
 11
15405.02876999999
 21
8623.6914100000049
 31
0.0
  0
LINE
  5
3749
  8
0-1
  6
CONTINUOUS
 62
     3
 10
8900.0242299999973
 20
8428.9701260000002
 30
0.0
 11
8903.9268509999984
 21
8299.0290830000049
 31
0.0
  0
LINE
  5
374A
  8
0-5
  6
CONTINUOUS
 62
     4
 10
17051.61904899999
 20
6276.5900850000025
 30
0.0
 11
17171.619444999989
 21
6484.4370620000009
 31
0.0
  0
LINE
  5
374B
  8
0-5
  6
CONTINUOUS
 62
     4
 10
16931.620631999991
 20
6484.4370620000009
 30
0.0
 11
17051.61904899999
 21
6276.5900850000025
 31
0.0
  0
LINE
  5
374C
  8
0-5
  6
CONTINUOUS
 62
     4
 10
17171.619444999989
 20
6484.4370620000009
 30
0.0
 11
16931.620631999991
 21
6484.4370620000009
 31
0.0
  0
LINE
  5
374D
  8
0-5
  6
CONTINUOUS
 62
     4
 10
15426.53135600001
 20
6276.5900850000025
 30
0.0
 11
17143.99724199999
 21
6276.5900850000025
 31
0.0
  0
LINE
  5
374E
  8
0-5
  6
CONTINUOUS
 62
     4
 10
15291.534061
 20
4496.5906459999997
 30
0.0
 11
15291.534061
 21
4336.5911079999987
 31
0.0
  0
LINE
  5
374F
  8
0-5
  6
CONTINUOUS
 62
     4
 10
12023.034061
 20
4496.5906459999997
 30
0.0
 11
12023.034061
 21
4336.5911079999987
 31
0.0
  0
LINE
  5
3750
  8
0-5
  6
CONTINUOUS
 62
     4
 10
9105.0340609999967
 20
4496.5906459999997
 30
0.0
 11
9105.0340609999967
 21
4336.5911079999987
 31
0.0
  0
LINE
  5
3751
  8
2-0
  6
CENTER2
 62
     6
 10
15291.534061
 20
5913.9378270000043
 30
0.0
 11
15291.534061
 21
6971.0804250000019
 31
0.0
  0
LINE
  5
3752
  8
2-0
  6
CENTER2
 62
     6
 10
12023.034061
 20
5913.9378270000043
 30
0.0
 11
12023.034061
 21
6971.0804250000019
 31
0.0
  0
LINE
  5
3753
  8
2-0
  6
CENTER2
 62
     6
 10
9105.0340609999967
 20
5913.9378270000043
 30
0.0
 11
9105.0340609999967
 21
6971.0804250000019
 31
0.0
  0
ARC
  5
3754
  8
0-1
  6
CONTINUOUS
 62
     3
 10
15418.973487999991
 20
8559.0819030000021
 30
0.0
 40
24.999998999999999
 50
271.71998600002598
 51
91.719986000025997
  0
ARC
  5
3755
  8
0-1
  6
CONTINUOUS
 62
     3
 10
8886.6426839999986
 20
8391.552276000004
 30
0.0
 40
3.0
 50
181.7199859999738
 51
271.71998600002598
  0
ARC
  5
3756
  8
0-1
  6
CONTINUOUS
 62
     3
 10
8887.6799519999968
 20
8423.5972180000026
 30
0.0
 40
5.0
 50
91.719986000025997
 51
181.7199859999738
  0
ARC
  5
3757
  8
0-1
  6
CONTINUOUS
 62
     3
 10
15413.976193999981
 20
8558.9314600000016
 30
0.0
 40
69.999999000000003
 50
293.50677499977832
 51
69.933196999913747
  0
ARC
  5
3758
  8
0-1
  6
CONTINUOUS
 62
     3
 10
8891.2836650000027
 20
8303.6517540000023
 30
0.0
 40
5.0
 50
181.7199859999738
 51
271.71998600002598
  0
ARC
  5
3759
  8
0-1
  6
CONTINUOUS
 62
     3
 10
8888.3223060000018
 20
8335.5769340000006
 30
0.0
 40
3.0
 50
91.719986000025997
 51
181.7199859999738
  0
ARC
  5
375A
  8
0-1
  6
CONTINUOUS
 62
     3
 10
8888.3064689999974
 20
8386.0996919999998
 30
0.0
 40
2.5
 50
271.71998600002598
 51
91.719986000025997
  0
ARC
  5
375B
  8
0-1
  6
CONTINUOUS
 62
     3
 10
8889.6565009999977
 20
8341.1195860000007
 30
0.0
 40
2.5
 50
271.71998600002598
 51
91.719986000025997
  0
ARC
  5
375C
  8
0-1
  6
CONTINUOUS
 62
     3
 10
8886.9722739999997
 20
8380.5570399999979
 30
0.0
 40
3.0
 50
91.719986000025997
 51
181.7199859999738
  0
ARC
  5
375D
  8
0-1
  6
CONTINUOUS
 62
     3
 10
15418.973487999991
 20
8559.0819030000021
 30
0.0
 40
20.0
 50
271.71998600002598
 51
91.719986000025997
  0
ARC
  5
375E
  8
0-1
  6
CONTINUOUS
 62
     3
 10
8887.992715999997
 20
8346.5716750000029
 30
0.0
 40
3.0
 50
181.7199859999738
 51
271.71998600002598
  0
CIRCLE
  5
375F
  8
0-5
  6
CONTINUOUS
 62
     4
 10
12023.034061
 20
4136.5899530000006
 30
0.0
 40
199.9999949999999
  0
CIRCLE
  5
3760
  8
0-5
  6
CONTINUOUS
 62
     4
 10
15291.534061
 20
4136.5899530000006
 30
0.0
 40
199.9999949999999
  0
CIRCLE
  5
3761
  8
0-5
  6
CONTINUOUS
 62
     4
 10
9105.0340609999967
 20
4136.5899530000006
 30
0.0
 40
199.9999949999999
  0
TEXT
  5
3762
  8
0-5
  6
CONTINUOUS
 62
     7
 10
16592.527119999992
 20
6564.4363360000034
 30
0.0
 40
160.0
  1
布基礎天端
 72
     4
 11
17051.193786666659
 21
6644.4363360000016
 31
0.0
  0
TEXT
  5
3763
  8
0-5
  6
CONTINUOUS
 62
     7
 10
15244.577901000001
 20
4053.3791570000012
 30
0.0
 40
160.0
  1
A
 72
     4
 11
15297.911234333331
 21
4133.3791570000012
 31
0.0
  0
TEXT
  5
3764
  8
0-5
  6
CONTINUOUS
 62
     7
 10
11976.07790099999
 20
4053.3791570000012
 30
0.0
 40
160.0
  1
B
 72
     4
 11
12029.411234333331
 21
4133.3791570000012
 31
0.0
  0
TEXT
  5
3765
  8
0-5
  6
CONTINUOUS
 62
     7
 10
9058.0779010000024
 20
4053.3791570000012
 30
0.0
 40
160.0
  1
C
 72
     4
 11
9111.4112343333363
 21
4133.3791570000012
 31
0.0
  0
TEXT
  5
3766
  8
2-0
  6
CONTINUOUS
 62
     7
 10
10705.000317
 20
3299.4686180000022
 30
0.0
 40
160.0
  1
側 面 立 面 図
 50
0.000139
 72
     4
 11
11350.333456250821
 21
3379.4701835833762
 31
0.0
  0
TEXT
  5
3767
  8
2-0
  6
CONTINUOUS
 62
     7
 10
12701.825641388439
 20
3326.6655525833762
 30
0.0
 40
160.0
  1
1
 72
     4
 11
12728.492308055111
 21
3406.6655525833762
 31
0.0
  0
TEXT
  5
3768
  8
2-0
  6
CONTINUOUS
 62
     7
 10
12944.91435863914
 20
3246.6670205833748
 30
0.0
 40
160.0
  1
80
 72
     4
 11
13064.91435863914
 21
3326.6670205833748
 31
0.0
  0
TEXT
  5
3769
  8
2-0
  6
CONTINUOUS
 62
     7
 10
12202.827607388441
 20
3299.4701835833762
 30
0.0
 40
160.0
  1
(S=  /   )
 72
     4
 11
12762.827607388441
 21
3379.4701835833762
 31
0.0
  0
LINE
  5
376A
  8
0-1
  6
CONTINUOUS
 62
     3
 10
15019.03642399998
 20
6326.5902500000011
 30
0.0
 11
15019.03642399998
 21
8187.6361290000032
 31
0.0
  0
LINE
  5
376B
  8
0-1
  6
CONTINUOUS
 62
     3
 10
15034.036225999989
 20
6326.5902500000011
 30
0.0
 11
15034.036225999989
 21
8187.6361290000032
 31
0.0
  0
LINE
  5
3776
  8
0-1
  6
CONTINUOUS
 62
     3
 10
24678.822053999989
 20
6276.5900849999962
 30
0.0
 11
24578.82271299999
 21
6276.5900849999962
 31
0.0
  0
LINE
  5
3777
  8
0-1
  6
CONTINUOUS
 62
     3
 10
24578.82271299999
 20
6276.5900849999962
 30
0.0
 11
24578.82271299999
 21
6176.5902500000002
 31
0.0
  0
LINE
  5
3778
  8
0-1
  6
CONTINUOUS
 62
     3
 10
24678.822053999989
 20
6176.5902500000002
 30
0.0
 11
24678.822053999989
 21
6276.5900849999962
 31
0.0
  0
LINE
  5
3779
  8
0-1
  6
CONTINUOUS
 62
     3
 10
24651.322580999989
 20
8625.0904339999979
 30
0.0
 11
24651.322580999989
 21
6276.5900849999962
 31
0.0
  0
LINE
  5
377A
  8
0-1
  6
CONTINUOUS
 62
     3
 10
24671.321657999979
 20
8495.0895109999983
 30
0.0
 11
24671.321657999979
 21
6276.5900849999962
 31
0.0
  0
LINE
  5
377B
  8
0-1
  6
CONTINUOUS
 62
     3
 10
24541.32271299998
 20
8184.5901439999952
 30
0.0
 11
24541.32271299998
 21
6176.5902500000002
 31
0.0
  0
LINE
  5
377C
  8
0-1
  6
CONTINUOUS
 62
     3
 10
24586.32310899999
 20
8495.0895109999983
 30
0.0
 11
24586.32310899999
 21
6276.5900849999962
 31
0.0
  0
LINE
  5
3785
  8
0-1
  6
CONTINUOUS
 62
     3
 10
22804.819678000011
 20
8495.0895109999983
 30
0.0
 11
22804.819678000011
 21
6176.5902500000002
 31
0.0
  0
LINE
  5
3786
  8
0-1
  6
CONTINUOUS
 62
     3
 10
22849.820074000021
 20
8184.5901439999952
 30
0.0
 11
22849.820074000021
 21
6176.5902500000002
 31
0.0
  0
LINE
  5
3789
  8
0-1
  6
CONTINUOUS
 62
     3
 10
22849.820074000021
 20
8116.049807999997
 30
0.0
 11
24541.32271299998
 21
8116.049807999997
 31
0.0
  0
LINE
  5
378A
  8
0-1
  6
CONTINUOUS
 62
     3
 10
22849.820074000021
 20
6761.5909429999983
 30
0.0
 11
24541.32271299998
 21
6761.5909429999983
 31
0.0
  0
LINE
  5
378B
  8
0-1
  6
CONTINUOUS
 62
     3
 10
22849.820074000021
 20
6826.5899200000003
 30
0.0
 11
24541.32271299998
 21
6826.5899200000003
 31
0.0
  0
LINE
  5
378C
  8
0-1
  6
CONTINUOUS
 62
     3
 10
22849.820074000021
 20
6891.5903819999958
 30
0.0
 11
24541.32271299998
 21
6891.5903819999958
 31
0.0
  0
LINE
  5
378D
  8
0-1
  6
CONTINUOUS
 62
     3
 10
22849.820074000021
 20
6956.5903489999973
 30
0.0
 11
24541.32271299998
 21
6956.5903489999973
 31
0.0
  0
LINE
  5
378E
  8
0-1
  6
CONTINUOUS
 62
     3
 10
22849.820074000021
 20
7021.590315999998
 30
0.0
 11
24541.32271299998
 21
7021.590315999998
 31
0.0
  0
LINE
  5
378F
  8
0-1
  6
CONTINUOUS
 62
     3
 10
22849.820074000021
 20
7086.5902829999959
 30
0.0
 11
24541.32271299998
 21
7086.5902829999959
 31
0.0
  0
LINE
  5
3790
  8
0-1
  6
CONTINUOUS
 62
     3
 10
22849.820074000021
 20
7151.5907450000004
 30
0.0
 11
24541.32271299998
 21
7151.5907450000004
 31
0.0
  0
LINE
  5
3791
  8
0-1
  6
CONTINUOUS
 62
     3
 10
22849.820074000021
 20
7216.5897219999979
 30
0.0
 11
24541.32271299998
 21
7216.5897219999979
 31
0.0
  0
LINE
  5
3792
  8
0-1
  6
CONTINUOUS
 62
     3
 10
22849.820074000021
 20
7281.5901839999979
 30
0.0
 11
24541.32271299998
 21
7281.5901839999979
 31
0.0
  0
LINE
  5
3793
  8
0-1
  6
CONTINUOUS
 62
     3
 10
22849.820074000021
 20
7346.5901509999949
 30
0.0
 11
24541.32271299998
 21
7346.5901509999949
 31
0.0
  0
LINE
  5
3794
  8
0-1
  6
CONTINUOUS
 62
     3
 10
22849.820074000021
 20
7411.5906129999948
 30
0.0
 11
24541.32271299998
 21
7411.5906129999948
 31
0.0
  0
LINE
  5
3795
  8
0-1
  6
CONTINUOUS
 62
     3
 10
22849.820074000021
 20
7476.5895899999969
 30
0.0
 11
24541.32271299998
 21
7476.5895899999969
 31
0.0
  0
LINE
  5
3796
  8
0-1
  6
CONTINUOUS
 62
     3
 10
22849.820074000021
 20
7541.5900519999977
 30
0.0
 11
24541.32271299998
 21
7541.5900519999977
 31
0.0
  0
LINE
  5
3797
  8
0-1
  6
CONTINUOUS
 62
     3
 10
22849.820074000021
 20
7606.5900189999984
 30
0.0
 11
24541.32271299998
 21
7606.5900189999984
 31
0.0
  0
LINE
  5
3798
  8
0-1
  6
CONTINUOUS
 62
     3
 10
22849.820074000021
 20
7671.589985999999
 30
0.0
 11
24541.32271299998
 21
7671.589985999999
 31
0.0
  0
LINE
  5
3799
  8
0-1
  6
CONTINUOUS
 62
     3
 10
22849.820074000021
 20
7736.5904480000008
 30
0.0
 11
24541.32271299998
 21
7736.5904480000008
 31
0.0
  0
LINE
  5
379A
  8
0-1
  6
CONTINUOUS
 62
     3
 10
22849.820074000021
 20
7801.5904149999978
 30
0.0
 11
24541.32271299998
 21
7801.5904149999978
 31
0.0
  0
LINE
  5
379B
  8
0-1
  6
CONTINUOUS
 62
     3
 10
22849.820074000021
 20
7866.5908769999969
 30
0.0
 11
24541.32271299998
 21
7866.5908769999969
 31
0.0
  0
LINE
  5
379C
  8
0-1
  6
CONTINUOUS
 62
     3
 10
22849.820074000021
 20
7931.5898539999944
 30
0.0
 11
24541.32271299998
 21
7931.5898539999944
 31
0.0
  0
LINE
  5
379D
  8
0-1
  6
CONTINUOUS
 62
     3
 10
22849.820074000021
 20
7996.5903159999989
 30
0.0
 11
24541.32271299998
 21
7996.5903159999989
 31
0.0
  0
LINE
  5
379E
  8
0-1
  6
CONTINUOUS
 62
     3
 10
22849.820074000021
 20
8061.5902829999986
 30
0.0
 11
24541.32271299998
 21
8061.5902829999986
 31
0.0
  0
LINE
  5
379F
  8
0-1
  6
CONTINUOUS
 62
     3
 10
22849.820074000021
 20
6241.5897219999961
 30
0.0
 11
24541.32271299998
 21
6241.5897219999961
 31
0.0
  0
LINE
  5
37A0
  8
0-1
  6
CONTINUOUS
 62
     3
 10
22849.820074000021
 20
6306.5906789999972
 30
0.0
 11
24541.32271299998
 21
6306.5906789999972
 31
0.0
  0
LINE
  5
37A1
  8
0-1
  6
CONTINUOUS
 62
     3
 10
22849.820074000021
 20
6371.5896559999974
 30
0.0
 11
24541.32271299998
 21
6371.5896559999974
 31
0.0
  0
LINE
  5
37A2
  8
0-1
  6
CONTINUOUS
 62
     3
 10
22849.820074000021
 20
6436.5906129999967
 30
0.0
 11
24541.32271299998
 21
6436.5906129999967
 31
0.0
  0
LINE
  5
37A3
  8
0-1
  6
CONTINUOUS
 62
     3
 10
22849.820074000021
 20
6501.590084999998
 30
0.0
 11
24541.32271299998
 21
6501.590084999998
 31
0.0
  0
LINE
  5
37A4
  8
0-1
  6
CONTINUOUS
 62
     3
 10
22849.820074000021
 20
6566.5900519999977
 30
0.0
 11
24541.32271299998
 21
6566.5900519999977
 31
0.0
  0
LINE
  5
37A5
  8
0-1
  6
CONTINUOUS
 62
     3
 10
22849.820074000021
 20
6631.5900189999984
 30
0.0
 11
24541.32271299998
 21
6631.5900189999984
 31
0.0
  0
LINE
  5
37A6
  8
0-1
  6
CONTINUOUS
 62
     3
 10
22849.820074000021
 20
6696.589490999997
 30
0.0
 11
24541.32271299998
 21
6696.589490999997
 31
0.0
  0
LINE
  5
37A8
  8
0-1
  6
CONTINUOUS
 62
     3
 10
22804.819678000011
 20
8184.5901439999952
 30
0.0
 11
24586.32310899999
 21
8184.5901439999952
 31
0.0
  0
LINE
  5
37A9
  8
0-1
  6
CONTINUOUS
 62
     3
 10
20144.820735000001
 20
6176.5902500000002
 30
0.0
 11
24678.822053999989
 21
6176.5902500000002
 31
0.0
  0
LINE
  5
37B3
  8
0-1
  6
CONTINUOUS
 62
     3
 10
22719.821129999989
 20
8495.0895109999983
 30
0.0
 11
22719.821129999989
 21
6176.5902500000002
 31
0.0
  0
LINE
  5
37B4
  8
0-1
  6
CONTINUOUS
 62
     3
 10
22674.822713999962
 20
8184.5901439999952
 30
0.0
 11
22674.822713999962
 21
6176.5902500000002
 31
0.0
  0
LINE
  5
37BF
  8
0-1
  6
CONTINUOUS
 62
     3
 10
20244.822054
 20
6276.5900849999962
 30
0.0
 11
20244.822054
 21
6176.5902500000002
 31
0.0
  0
LINE
  5
37C0
  8
0-1
  6
CONTINUOUS
 62
     3
 10
20144.820735000001
 20
6176.5902500000002
 30
0.0
 11
20144.820735000001
 21
6276.5900849999962
 31
0.0
  0
LINE
  5
37C1
  8
0-1
  6
CONTINUOUS
 62
     3
 10
20144.820735000001
 20
6276.5900849999962
 30
0.0
 11
20244.822054
 21
6276.5900849999962
 31
0.0
  0
LINE
  5
37C2
  8
0-1
  6
CONTINUOUS
 62
     3
 10
20282.322054
 20
8184.5901439999952
 30
0.0
 11
20282.322054
 21
6176.5902500000002
 31
0.0
  0
LINE
  5
37C3
  8
0-1
  6
CONTINUOUS
 62
     3
 10
20237.319679
 20
8495.0895109999983
 30
0.0
 11
20237.319679
 21
6276.5900849999962
 31
0.0
  0
LINE
  5
37C4
  8
0-1
  6
CONTINUOUS
 62
     3
 10
20172.32218599999
 20
8625.0904339999979
 30
0.0
 11
20172.32218599999
 21
6276.5900849999962
 31
0.0
  0
LINE
  5
37C5
  8
0-1
  6
CONTINUOUS
 62
     3
 10
20152.319151
 20
8495.0895109999983
 30
0.0
 11
20152.319151
 21
6276.5900849999962
 31
0.0
  0
LINE
  5
37C6
  8
0-1
  6
CONTINUOUS
 62
     3
 10
20237.319679
 20
8184.5901439999952
 30
0.0
 11
22719.821129999989
 21
8184.5901439999952
 31
0.0
  0
LINE
  5
37C8
  8
0-1
  6
CONTINUOUS
 62
     3
 10
20282.322054
 20
6696.589490999997
 30
0.0
 11
22674.822713999962
 21
6696.589490999997
 31
0.0
  0
LINE
  5
37C9
  8
0-1
  6
CONTINUOUS
 62
     3
 10
20282.322054
 20
6631.5900189999984
 30
0.0
 11
22674.822713999962
 21
6631.5900189999984
 31
0.0
  0
LINE
  5
37CA
  8
0-1
  6
CONTINUOUS
 62
     3
 10
20282.322054
 20
6566.5900519999977
 30
0.0
 11
22674.822713999962
 21
6566.5900519999977
 31
0.0
  0
LINE
  5
37CB
  8
0-1
  6
CONTINUOUS
 62
     3
 10
20282.322054
 20
6501.590084999998
 30
0.0
 11
22674.822713999962
 21
6501.590084999998
 31
0.0
  0
LINE
  5
37CC
  8
0-1
  6
CONTINUOUS
 62
     3
 10
20282.322054
 20
6436.5906129999967
 30
0.0
 11
22674.822713999962
 21
6436.5906129999967
 31
0.0
  0
LINE
  5
37CD
  8
0-1
  6
CONTINUOUS
 62
     3
 10
20282.322054
 20
6371.5896559999974
 30
0.0
 11
22674.822713999962
 21
6371.5896559999974
 31
0.0
  0
LINE
  5
37CE
  8
0-1
  6
CONTINUOUS
 62
     3
 10
20282.322054
 20
6306.5906789999972
 30
0.0
 11
22674.822713999962
 21
6306.5906789999972
 31
0.0
  0
LINE
  5
37CF
  8
0-1
  6
CONTINUOUS
 62
     3
 10
20282.322054
 20
6241.5897219999961
 30
0.0
 11
22674.822713999962
 21
6241.5897219999961
 31
0.0
  0
LINE
  5
37D0
  8
0-1
  6
CONTINUOUS
 62
     3
 10
20282.322054
 20
8061.5902829999986
 30
0.0
 11
22674.822713999962
 21
8061.5902829999986
 31
0.0
  0
LINE
  5
37D1
  8
0-1
  6
CONTINUOUS
 62
     3
 10
20282.322054
 20
7996.5903159999989
 30
0.0
 11
22674.822713999962
 21
7996.5903159999989
 31
0.0
  0
LINE
  5
37D2
  8
0-1
  6
CONTINUOUS
 62
     3
 10
20282.322054
 20
7931.5898539999944
 30
0.0
 11
22674.822713999962
 21
7931.5898539999944
 31
0.0
  0
LINE
  5
37D3
  8
0-1
  6
CONTINUOUS
 62
     3
 10
20282.322054
 20
7866.5908769999969
 30
0.0
 11
22674.822713999962
 21
7866.5908769999969
 31
0.0
  0
LINE
  5
37D4
  8
0-1
  6
CONTINUOUS
 62
     3
 10
20282.322054
 20
7801.5904149999978
 30
0.0
 11
22674.822713999962
 21
7801.5904149999978
 31
0.0
  0
LINE
  5
37D5
  8
0-1
  6
CONTINUOUS
 62
     3
 10
20282.322054
 20
7736.5904480000008
 30
0.0
 11
22674.822713999962
 21
7736.5904480000008
 31
0.0
  0
LINE
  5
37D6
  8
0-1
  6
CONTINUOUS
 62
     3
 10
20282.322054
 20
7671.589985999999
 30
0.0
 11
22674.822713999962
 21
7671.589985999999
 31
0.0
  0
LINE
  5
37D7
  8
0-1
  6
CONTINUOUS
 62
     3
 10
20282.322054
 20
7606.5900189999984
 30
0.0
 11
22674.822713999962
 21
7606.5900189999984
 31
0.0
  0
LINE
  5
37D8
  8
0-1
  6
CONTINUOUS
 62
     3
 10
20282.322054
 20
7541.5900519999977
 30
0.0
 11
22674.822713999962
 21
7541.5900519999977
 31
0.0
  0
LINE
  5
37D9
  8
0-1
  6
CONTINUOUS
 62
     3
 10
20282.322054
 20
7476.5895899999969
 30
0.0
 11
22674.822713999962
 21
7476.5895899999969
 31
0.0
  0
LINE
  5
37DA
  8
0-1
  6
CONTINUOUS
 62
     3
 10
20282.322054
 20
7411.5906129999948
 30
0.0
 11
22674.822713999962
 21
7411.5906129999948
 31
0.0
  0
LINE
  5
37DB
  8
0-1
  6
CONTINUOUS
 62
     3
 10
20282.322054
 20
7346.5901509999949
 30
0.0
 11
22674.822713999962
 21
7346.5901509999949
 31
0.0
  0
LINE
  5
37DC
  8
0-1
  6
CONTINUOUS
 62
     3
 10
20282.322054
 20
7281.5901839999979
 30
0.0
 11
22674.822713999962
 21
7281.5901839999979
 31
0.0
  0
LINE
  5
37DD
  8
0-1
  6
CONTINUOUS
 62
     3
 10
20282.322054
 20
7216.5897219999979
 30
0.0
 11
22674.822713999962
 21
7216.5897219999979
 31
0.0
  0
LINE
  5
37DE
  8
0-1
  6
CONTINUOUS
 62
     3
 10
20282.322054
 20
7151.5907450000004
 30
0.0
 11
22674.822713999962
 21
7151.5907450000004
 31
0.0
  0
LINE
  5
37DF
  8
0-1
  6
CONTINUOUS
 62
     3
 10
20282.322054
 20
7086.5902829999959
 30
0.0
 11
22674.822713999962
 21
7086.5902829999959
 31
0.0
  0
LINE
  5
37E0
  8
0-1
  6
CONTINUOUS
 62
     3
 10
20282.322054
 20
7021.590315999998
 30
0.0
 11
22674.822713999962
 21
7021.590315999998
 31
0.0
  0
LINE
  5
37E1
  8
0-1
  6
CONTINUOUS
 62
     3
 10
20282.322054
 20
6956.5903489999973
 30
0.0
 11
22674.822713999962
 21
6956.5903489999973
 31
0.0
  0
LINE
  5
37E2
  8
0-1
  6
CONTINUOUS
 62
     3
 10
20282.322054
 20
6891.5903819999958
 30
0.0
 11
22674.822713999962
 21
6891.5903819999958
 31
0.0
  0
LINE
  5
37E3
  8
0-1
  6
CONTINUOUS
 62
     3
 10
20282.322054
 20
6826.5899200000003
 30
0.0
 11
22674.822713999962
 21
6826.5899200000003
 31
0.0
  0
LINE
  5
37E4
  8
0-1
  6
CONTINUOUS
 62
     3
 10
20282.322054
 20
6761.5909429999983
 30
0.0
 11
22674.822713999962
 21
6761.5909429999983
 31
0.0
  0
LINE
  5
37E5
  8
0-1
  6
CONTINUOUS
 62
     3
 10
20282.322054
 20
8116.049807999997
 30
0.0
 11
22674.822713999962
 21
8116.049807999997
 31
0.0
  0
LINE
  5
37EB
  8
0-2
  6
CONTINUOUS
 62
     4
 10
21842.262404500008
 20
6923.8159539999951
 30
0.0
 11
21742.263064499999
 21
6923.8159539999951
 31
0.0
  0
LINE
  5
37EC
  8
0-2
  6
CONTINUOUS
 62
     4
 10
21114.878403499999
 20
6923.8159539999951
 30
0.0
 11
21214.875764500001
 21
6923.8159539999951
 31
0.0
  0
LINE
  5
37ED
  8
0-5
  6
CONTINUOUS
 62
     4
 10
22762.321393999991
 20
4496.5901509999949
 30
0.0
 11
22762.321393999991
 21
4336.5901179999992
 31
0.0
  0
LINE
  5
37EE
  8
0-5
  6
CONTINUOUS
 62
     4
 10
20194.821393999991
 20
4496.5901509999949
 30
0.0
 11
20194.821393999991
 21
4336.5901179999992
 31
0.0
  0
LINE
  5
37EF
  8
2-0
  6
CENTER2
 62
     6
 10
24628.821393999991
 20
5913.9378269999979
 30
0.0
 11
24628.821393999991
 21
6951.0798639999966
 31
0.0
  0
LINE
  5
37F0
  8
2-0
  6
CENTER2
 62
     6
 10
22762.321393999991
 20
5913.9378269999979
 30
0.0
 11
22762.321393999991
 21
6951.0798639999966
 31
0.0
  0
LINE
  5
37F1
  8
2-0
  6
CENTER2
 62
     6
 10
20194.821393999991
 20
5913.9378269999979
 30
0.0
 11
20194.821393999991
 21
6951.0798639999966
 31
0.0
  0
CIRCLE
  5
3802
  8
0-5
  6
CONTINUOUS
 62
     4
 10
22762.321393999991
 20
4136.5904479999972
 30
0.0
 40
199.9999949999999
  0
CIRCLE
  5
3803
  8
0-5
  6
CONTINUOUS
 62
     4
 10
20194.821393999991
 20
4136.5904479999972
 30
0.0
 40
199.9999949999999
  0
TEXT
  5
3804
  8
0-5
  6
CONTINUOUS
 62
     7
 10
19576.645455000002
 20
6905.9504967419953
 30
0.0
 40
160.0
  1
(2131.5)
 50
90.0
 72
     4
 11
19496.645455000002
 21
7359.2838300753283
 31
0.0
  0
TEXT
  5
3805
  8
0-5
  6
CONTINUOUS
 62
     7
 10
22715.392946999989
 20
4050.0604939999939
 30
0.0
 40
160.0
  1
2
 72
     4
 11
22768.726280333321
 21
4130.0604939999939
 31
0.0
  0
TEXT
  5
3806
  8
0-5
  6
CONTINUOUS
 62
     7
 10
20147.888987999992
 20
4050.0604939999939
 30
0.0
 40
160.0
  1
1
 72
     4
 11
20174.555654666648
 21
4130.0604939999939
 31
0.0
  0
CIRCLE
  5
3807
  8
0-4
  6
CONTINUOUS
 62
     4
 10
21478.571393999991
 20
6662.6461909999962
 30
0.0
 40
18.487504999999981
  0
LINE
  5
3808
  8
SUNPOU
  6
CONTINUOUS
 10
19912.321393999991
 20
4976.5902500000002
 30
0.0
 11
19554.366387278878
 21
4976.5902500000002
 31
0.0
  0
LINE
  5
3809
  8
SUNPOU
  6
CONTINUOUS
 10
24911.325353
 20
4976.5902500000002
 30
0.0
 11
25269.280359721091
 21
4976.5902500000002
 31
0.0
  0
LINE
  5
380A
  8
0-5
  6
CONTINUOUS
 62
     4
 10
24671.321393999991
 20
4496.5901509999949
 30
0.0
 11
24671.321393999991
 21
4336.5901179999992
 31
0.0
  0
CIRCLE
  5
380B
  8
0-5
  6
CONTINUOUS
 62
     4
 10
24671.321393999991
 20
4136.5904479999972
 30
0.0
 40
199.9999949999999
  0
TEXT
  5
380C
  8
0-5
  6
CONTINUOUS
 62
     7
 10
24624.392946999989
 20
4050.0604939999939
 30
0.0
 40
160.0
  1
3
 72
     4
 11
24677.726280333321
 21
4130.0604939999939
 31
0.0
  0
TEXT
  5
380D
  8
2-0
  6
CONTINUOUS
 62
     7
 10
21093.787649999998
 20
3299.4686180000022
 30
0.0
 40
160.0
  1
正 面 立 面 図
 50
0.000139
 72
     4
 11
21739.120789250821
 21
3379.4701835833762
 31
0.0
  0
TEXT
  5
380E
  8
2-0
  6
CONTINUOUS
 62
     7
 10
23090.61297438843
 20
3326.6655525833762
 30
0.0
 40
160.0
  1
1
 72
     4
 11
23117.279641055098
 21
3406.6655525833762
 31
0.0
  0
TEXT
  5
380F
  8
2-0
  6
CONTINUOUS
 62
     7
 10
23333.701691639129
 20
3246.6670205833748
 30
0.0
 40
160.0
  1
80
 72
     4
 11
23453.701691639129
 21
3326.6670205833748
 31
0.0
  0
TEXT
  5
3810
  8
2-0
  6
CONTINUOUS
 62
     7
 10
22591.614940388441
 20
3299.4701835833762
 30
0.0
 40
160.0
  1
(S=  /   )
 72
     4
 11
23151.614940388441
 21
3379.4701835833762
 31
0.0
  0
LINE
  5
3811
  8
2-0
  6
CONTINUOUS
 62
     6
 10
22945.662477999991
 20
13065.229792
 30
0.0
 11
23945.655879999958
 21
13065.229792
 31
0.0
  0
LINE
  5
3812
  8
2-0
  6
CONTINUOUS
 62
     6
 10
24413.59625699999
 20
13535.650506
 30
0.0
 11
23945.655879999958
 21
13065.229792
 31
0.0
  0
LINE
  5
3813
  8
2-0
  6
CONTINUOUS
 62
     6
 10
24374.956053999991
 20
17077.75815300001
 30
0.0
 11
24070.260635999992
 21
17181.411684000021
 31
0.0
  0
LINE
  5
3814
  8
2-0
  6
CONTINUOUS
 62
     6
 10
24529.978092999962
 20
16588.136109000021
 30
0.0
 11
24070.260635999992
 21
16344.222798000001
 31
0.0
  0
LINE
  5
3815
  8
2-0
  6
CONTINUOUS
 62
     6
 10
23150.25760099999
 20
16344.222798000001
 30
0.0
 11
24070.260635999992
 21
16344.222798000001
 31
0.0
  0
LINE
  5
3816
  8
2-0
  6
CONTINUOUS
 62
     6
 10
22870.26657399999
 20
17181.411684000021
 30
0.0
 11
24070.260635999992
 21
17181.411684000021
 31
0.0
  0
LINE
  5
3817
  8
2-0
  6
CONTINUOUS
 62
     6
 10
24446.155377999981
 20
13857.334151999979
 30
0.0
 11
24070.260635999992
 21
14038.277986999999
 31
0.0
  0
LINE
  5
3818
  8
2-0
  6
CONTINUOUS
 62
     6
 10
23550.258919999989
 20
14038.277986999999
 30
0.0
 11
24070.260635999992
 21
14038.277986999999
 31
0.0
  0
LINE
  5
3819
  8
2-0
  6
CONTINUOUS
 62
     4
 10
22762.321393999991
 20
20014.231442000018
 30
0.0
 11
22762.321393999991
 21
20744.228406999999
 31
0.0
  0
LINE
  5
381A
  8
2-0
  6
CONTINUOUS
 62
     3
 10
24641.322053999971
 20
19825.228987999999
 30
0.0
 11
24641.322053999971
 21
19819.23302600002
 31
0.0
  0
LINE
  5
381B
  8
2-0
  6
CONTINUOUS
 62
     3
 10
24641.322053999971
 20
19819.23302600002
 30
0.0
 11
24671.319677999982
 21
19819.23302600002
 31
0.0
  0
LINE
  5
381C
  8
2-0
  6
CONTINUOUS
 62
     3
 10
24671.319677999982
 20
19849.23263000001
 30
0.0
 11
24590.317777999971
 21
19849.23263000001
 31
0.0
  0
LINE
  5
381D
  8
2-0
  6
CONTINUOUS
 62
     3
 10
24641.322053999971
 20
19808.935570000001
 30
0.0
 11
24671.319677999982
 21
19808.935570000001
 31
0.0
  0
LINE
  5
381E
  8
2-0
  6
CONTINUOUS
 62
     3
 10
24641.322053999971
 20
19826.93731200002
 30
0.0
 11
24641.322053999971
 21
19808.935570000001
 31
0.0
  0
LINE
  5
381F
  8
2-0
  6
CONTINUOUS
 62
     3
 10
24666.319414000001
 20
19826.93731200002
 30
0.0
 11
24641.322053999971
 21
19826.93731200002
 31
0.0
  0
LINE
  5
3820
  8
2-0
  6
CONTINUOUS
 62
     3
 10
24666.319414000001
 20
19821.929130000019
 30
0.0
 11
24666.319414000001
 21
19826.93731200002
 31
0.0
  0
LINE
  5
3821
  8
2-0
  6
CONTINUOUS
 62
     3
 10
24659.317856999998
 20
19821.929130000019
 30
0.0
 11
24666.319414000001
 21
19821.929130000019
 31
0.0
  0
LINE
  5
3822
  8
2-0
  6
CONTINUOUS
 62
     3
 10
24559.021588999982
 20
19922.229357000011
 30
0.0
 11
24559.021588999982
 21
19929.234873000001
 31
0.0
  0
LINE
  5
3823
  8
2-0
  6
CONTINUOUS
 62
     3
 10
24559.021588999982
 20
19929.234873000001
 30
0.0
 11
24564.02185299998
 21
19929.234873000001
 31
0.0
  0
LINE
  5
3824
  8
2-0
  6
CONTINUOUS
 62
     3
 10
24564.02185299998
 20
19929.234873000001
 30
0.0
 11
24564.02185299998
 21
19904.22563600001
 31
0.0
  0
LINE
  5
3825
  8
2-0
  6
CONTINUOUS
 62
     3
 10
24564.02185299998
 20
19904.22563600001
 30
0.0
 11
24546.02011099998
 21
19904.22563600001
 31
0.0
  0
LINE
  5
3826
  8
2-0
  6
CONTINUOUS
 62
     3
 10
24546.02011099998
 20
19904.22563600001
 30
0.0
 11
24546.02011099998
 21
19934.229199000009
 31
0.0
  0
LINE
  5
3827
  8
2-0
  6
CONTINUOUS
 62
     3
 10
24556.317566999991
 20
19934.229199000009
 30
0.0
 11
24671.319677999982
 21
19934.229199000009
 31
0.0
  0
LINE
  5
3828
  8
2-0
  6
CONTINUOUS
 62
     3
 10
24556.317566999991
 20
19904.22563600001
 30
0.0
 11
24556.317566999991
 21
19934.229199000009
 31
0.0
  0
LINE
  5
3829
  8
2-0
  6
CONTINUOUS
 62
     3
 10
24562.31946699999
 20
19904.22563600001
 30
0.0
 11
24556.317566999991
 21
19904.22563600001
 31
0.0
  0
LINE
  5
382A
  8
2-0
  6
CONTINUOUS
 62
     3
 10
24659.317856999998
 20
19118.132307499989
 30
0.0
 11
24666.319414000001
 21
19118.132307499989
 31
0.0
  0
LINE
  5
382B
  8
2-0
  6
CONTINUOUS
 62
     3
 10
24666.319414000001
 20
19118.132307499989
 30
0.0
 11
24666.319414000001
 21
19123.132571499991
 31
0.0
  0
LINE
  5
382C
  8
2-0
  6
CONTINUOUS
 62
     3
 10
24666.319414000001
 20
19123.132571499991
 30
0.0
 11
24641.322053999971
 21
19123.132571499991
 31
0.0
  0
LINE
  5
382D
  8
2-0
  6
CONTINUOUS
 62
     3
 10
24641.322053999971
 20
19123.132571499991
 30
0.0
 11
24641.322053999971
 21
19105.1367675
 31
0.0
  0
LINE
  5
382E
  8
2-0
  6
CONTINUOUS
 62
     3
 10
24641.322053999971
 20
19105.1367675
 30
0.0
 11
24671.319677999982
 21
19105.1367675
 31
0.0
  0
LINE
  5
382F
  8
2-0
  6
CONTINUOUS
 62
     3
 10
24641.322053999971
 20
19121.22827449995
 30
0.0
 11
24641.322053999971
 21
19115.230333499989
 31
0.0
  0
LINE
  5
3830
  8
2-0
  6
CONTINUOUS
 62
     3
 10
24641.322053999971
 20
19115.230333499989
 30
0.0
 11
24671.319677999982
 21
19115.230333499989
 31
0.0
  0
LINE
  5
3831
  8
2-0
  6
CONTINUOUS
 62
     3
 10
24671.319677999982
 20
19115.230333499989
 30
0.0
 11
24671.319677999982
 21
19152.2314945
 31
0.0
  0
LINE
  5
3832
  8
2-0
  6
CONTINUOUS
 62
     3
 10
24641.322053999971
 20
19152.2314945
 30
0.0
 11
24671.319677999982
 21
19152.2314945
 31
0.0
  0
LINE
  5
3833
  8
2-0
  6
CONTINUOUS
 62
     3
 10
24641.322053999971
 20
19146.227614499981
 30
0.0
 11
24641.322053999971
 21
19152.2314945
 31
0.0
  0
LINE
  5
3834
  8
2-0
  6
CONTINUOUS
 62
     3
 10
24641.322053999971
 20
19162.327039499982
 30
0.0
 11
24671.319677999982
 21
19162.327039499982
 31
0.0
  0
LINE
  5
3835
  8
2-0
  6
CONTINUOUS
 62
     3
 10
24641.322053999971
 20
19144.3252975
 30
0.0
 11
24641.322053999971
 21
19162.327039499982
 31
0.0
  0
LINE
  5
3836
  8
2-0
  6
CONTINUOUS
 62
     3
 10
24666.319414000001
 20
19144.3252975
 30
0.0
 11
24641.322053999971
 21
19144.3252975
 31
0.0
  0
LINE
  5
3837
  8
2-0
  6
CONTINUOUS
 62
     3
 10
24666.319414000001
 20
19149.325561500002
 30
0.0
 11
24666.319414000001
 21
19144.3252975
 31
0.0
  0
LINE
  5
3838
  8
2-0
  6
CONTINUOUS
 62
     3
 10
24659.317856999998
 20
19149.325561500002
 30
0.0
 11
24666.319414000001
 21
19149.325561500002
 31
0.0
  0
LINE
  5
3839
  8
2-0
  6
CONTINUOUS
 62
     3
 10
24659.317856999998
 20
18417.131317999989
 30
0.0
 11
24666.319414000001
 21
18417.131317999989
 31
0.0
  0
LINE
  5
383A
  8
2-0
  6
CONTINUOUS
 62
     3
 10
24666.319414000001
 20
18417.131317999989
 30
0.0
 11
24666.319414000001
 21
18422.13752
 31
0.0
  0
LINE
  5
383B
  8
2-0
  6
CONTINUOUS
 62
     3
 10
24666.319414000001
 20
18422.13752
 30
0.0
 11
24641.322053999971
 21
18422.13752
 31
0.0
  0
LINE
  5
383C
  8
2-0
  6
CONTINUOUS
 62
     3
 10
24641.322053999971
 20
18422.13752
 30
0.0
 11
24641.322053999971
 21
18404.135778
 31
0.0
  0
LINE
  5
383D
  8
2-0
  6
CONTINUOUS
 62
     3
 10
24641.322053999971
 20
18404.135778
 30
0.0
 11
24671.319677999982
 21
18404.135778
 31
0.0
  0
LINE
  5
383E
  8
2-0
  6
CONTINUOUS
 62
     3
 10
24641.322053999971
 20
18420.22728499999
 30
0.0
 11
24641.322053999971
 21
18414.231323
 31
0.0
  0
LINE
  5
383F
  8
2-0
  6
CONTINUOUS
 62
     3
 10
24641.322053999971
 20
18414.231323
 30
0.0
 11
24671.319677999982
 21
18414.231323
 31
0.0
  0
LINE
  5
3840
  8
2-0
  6
CONTINUOUS
 62
     3
 10
24671.319677999982
 20
18414.231323
 30
0.0
 11
24671.319677999982
 21
18451.230504999989
 31
0.0
  0
LINE
  5
3841
  8
2-0
  6
CONTINUOUS
 62
     3
 10
24641.322053999971
 20
18451.230504999989
 30
0.0
 11
24671.319677999982
 21
18451.230504999989
 31
0.0
  0
LINE
  5
3842
  8
2-0
  6
CONTINUOUS
 62
     3
 10
24641.322053999971
 20
18445.23454300001
 30
0.0
 11
24641.322053999971
 21
18451.230504999989
 31
0.0
  0
LINE
  5
3843
  8
2-0
  6
CONTINUOUS
 62
     3
 10
24641.322053999971
 20
18461.32605
 30
0.0
 11
24671.319677999982
 21
18461.32605
 31
0.0
  0
LINE
  5
3844
  8
2-0
  6
CONTINUOUS
 62
     3
 10
24641.322053999971
 20
18443.324307999988
 30
0.0
 11
24641.322053999971
 21
18461.32605
 31
0.0
  0
LINE
  5
3845
  8
2-0
  6
CONTINUOUS
 62
     3
 10
24666.319414000001
 20
18443.324307999988
 30
0.0
 11
24641.322053999971
 21
18443.324307999988
 31
0.0
  0
LINE
  5
3846
  8
2-0
  6
CONTINUOUS
 62
     3
 10
24666.319414000001
 20
18448.33051
 30
0.0
 11
24666.319414000001
 21
18443.324307999988
 31
0.0
  0
LINE
  5
3847
  8
2-0
  6
CONTINUOUS
 62
     3
 10
24659.317856999998
 20
18448.33051
 30
0.0
 11
24666.319414000001
 21
18448.33051
 31
0.0
  0
LINE
  5
3848
  8
2-0
  6
CONTINUOUS
 62
     3
 10
24659.317856999998
 20
17747.324572000001
 30
0.0
 11
24666.319414000001
 21
17747.324572000001
 31
0.0
  0
LINE
  5
3849
  8
2-0
  6
CONTINUOUS
 62
     3
 10
24666.319414000001
 20
17747.324572000001
 30
0.0
 11
24666.319414000001
 21
17742.336185
 31
0.0
  0
LINE
  5
384A
  8
2-0
  6
CONTINUOUS
 62
     3
 10
24666.319414000001
 20
17742.336185
 30
0.0
 11
24641.322053999971
 21
17742.336185
 31
0.0
  0
LINE
  5
384B
  8
2-0
  6
CONTINUOUS
 62
     3
 10
24641.322053999971
 20
17742.336185
 30
0.0
 11
24641.322053999971
 21
17760.331988000002
 31
0.0
  0
LINE
  5
384C
  8
2-0
  6
CONTINUOUS
 62
     3
 10
24641.322053999971
 20
17760.331988000002
 30
0.0
 11
24671.319677999982
 21
17760.331988000002
 31
0.0
  0
LINE
  5
384D
  8
2-0
  6
CONTINUOUS
 62
     3
 10
24641.322053999971
 20
17744.234542999991
 30
0.0
 11
24641.322053999971
 21
17750.230504999989
 31
0.0
  0
LINE
  5
384E
  8
2-0
  6
CONTINUOUS
 62
     3
 10
24641.322053999971
 20
17750.230504999989
 30
0.0
 11
24671.319677999982
 21
17750.230504999989
 31
0.0
  0
LINE
  5
384F
  8
2-0
  6
CONTINUOUS
 62
     3
 10
24671.319677999982
 20
17750.230504999989
 30
0.0
 11
24671.319677999982
 21
17713.231323
 31
0.0
  0
LINE
  5
3850
  8
2-0
  6
CONTINUOUS
 62
     3
 10
24641.322053999971
 20
17713.231323
 30
0.0
 11
24671.319677999982
 21
17713.231323
 31
0.0
  0
LINE
  5
3851
  8
2-0
  6
CONTINUOUS
 62
     3
 10
24641.322053999971
 20
17719.233223999989
 30
0.0
 11
24641.322053999971
 21
17713.231323
 31
0.0
  0
LINE
  5
3852
  8
2-0
  6
CONTINUOUS
 62
     3
 10
24641.322053999971
 20
17703.141716999991
 30
0.0
 11
24671.319677999982
 21
17703.141716999991
 31
0.0
  0
LINE
  5
3853
  8
2-0
  6
CONTINUOUS
 62
     3
 10
24641.322053999971
 20
17721.13752
 30
0.0
 11
24641.322053999971
 21
17703.141716999991
 31
0.0
  0
LINE
  5
3854
  8
2-0
  6
CONTINUOUS
 62
     3
 10
24666.319414000001
 20
17721.13752
 30
0.0
 11
24641.322053999971
 21
17721.13752
 31
0.0
  0
LINE
  5
3855
  8
2-0
  6
CONTINUOUS
 62
     3
 10
24666.319414000001
 20
17716.137256999991
 30
0.0
 11
24666.319414000001
 21
17721.13752
 31
0.0
  0
LINE
  5
3856
  8
2-0
  6
CONTINUOUS
 62
     3
 10
24659.317856999998
 20
17716.137256999991
 30
0.0
 11
24666.319414000001
 21
17716.137256999991
 31
0.0
  0
LINE
  5
3857
  8
2-0
  6
CONTINUOUS
 62
     3
 10
24668.43353999998
 20
16996.228143
 30
0.0
 11
24668.43353999998
 21
17016.229198000001
 31
0.0
  0
LINE
  5
3858
  8
2-0
  6
CONTINUOUS
 62
     3
 10
24668.43353999998
 20
17016.229198000001
 30
0.0
 11
24583.436970999988
 21
17016.229198000001
 31
0.0
  0
LINE
  5
3859
  8
2-0
  6
CONTINUOUS
 62
     3
 10
24659.317856999998
 20
17042.835908000001
 30
0.0
 11
24666.319414000001
 21
17042.835908000001
 31
0.0
  0
LINE
  5
385A
  8
2-0
  6
CONTINUOUS
 62
     3
 10
24666.319414000001
 20
17042.835908000001
 30
0.0
 11
24666.319414000001
 21
17037.841582000001
 31
0.0
  0
LINE
  5
385B
  8
2-0
  6
CONTINUOUS
 62
     3
 10
24666.319414000001
 20
17037.841582000001
 30
0.0
 11
24641.322053999971
 21
17037.841582000001
 31
0.0
  0
LINE
  5
385C
  8
2-0
  6
CONTINUOUS
 62
     3
 10
24641.322053999971
 20
17037.841582000001
 30
0.0
 11
24641.322053999971
 21
17055.83738600001
 31
0.0
  0
LINE
  5
385D
  8
2-0
  6
CONTINUOUS
 62
     3
 10
24641.322053999971
 20
17055.83738600001
 30
0.0
 11
24671.319677999982
 21
17055.83738600001
 31
0.0
  0
LINE
  5
385E
  8
2-0
  6
CONTINUOUS
 62
     3
 10
24641.322053999971
 20
17046.228802000001
 30
0.0
 11
24641.322053999971
 21
17040.226901999991
 31
0.0
  0
LINE
  5
385F
  8
2-0
  6
CONTINUOUS
 62
     3
 10
24671.319677999982
 20
17046.228802000001
 30
0.0
 11
24641.322053999971
 21
17046.228802000001
 31
0.0
  0
LINE
  5
3860
  8
2-0
  6
CONTINUOUS
 62
     3
 10
24671.319677999982
 20
17055.83738600001
 30
0.0
 11
24671.319677999982
 21
17703.141716999991
 31
0.0
  0
LINE
  5
3861
  8
2-0
  6
CONTINUOUS
 62
     3
 10
24671.319677999982
 20
17760.331988000002
 30
0.0
 11
24671.319677999982
 21
18404.135778
 31
0.0
  0
LINE
  5
3862
  8
2-0
  6
CONTINUOUS
 62
     3
 10
24671.319677999982
 20
16901.22708700001
 30
0.0
 11
24641.322053999971
 21
16901.22708700001
 31
0.0
  0
LINE
  5
3863
  8
2-0
  6
CONTINUOUS
 62
     3
 10
24641.322053999971
 20
16901.22708700001
 30
0.0
 11
24641.322053999971
 21
16907.22898700001
 31
0.0
  0
LINE
  5
3864
  8
2-0
  6
CONTINUOUS
 62
     3
 10
24583.436970999988
 20
16931.232629999991
 30
0.0
 11
24668.43353999998
 21
16931.232629999991
 31
0.0
  0
LINE
  5
3865
  8
2-0
  6
CONTINUOUS
 62
     3
 10
24668.43353999998
 20
16931.232629999991
 30
0.0
 11
24668.43353999998
 21
16951.227747000012
 31
0.0
  0
LINE
  5
3866
  8
2-0
  6
CONTINUOUS
 62
     3
 10
24641.322053999971
 20
16891.618503999998
 30
0.0
 11
24671.319677999982
 21
16891.618503999998
 31
0.0
  0
LINE
  5
3867
  8
2-0
  6
CONTINUOUS
 62
     3
 10
24641.322053999971
 20
16909.614306999982
 30
0.0
 11
24641.322053999971
 21
16891.618503999998
 31
0.0
  0
LINE
  5
3868
  8
2-0
  6
CONTINUOUS
 62
     3
 10
24666.319414000001
 20
16909.614306999982
 30
0.0
 11
24641.322053999971
 21
16909.614306999982
 31
0.0
  0
LINE
  5
3869
  8
2-0
  6
CONTINUOUS
 62
     3
 10
24666.319414000001
 20
16904.614043000009
 30
0.0
 11
24666.319414000001
 21
16909.614306999982
 31
0.0
  0
LINE
  5
386A
  8
2-0
  6
CONTINUOUS
 62
     3
 10
24659.317856999998
 20
16904.614043000009
 30
0.0
 11
24666.319414000001
 21
16904.614043000009
 31
0.0
  0
LINE
  5
386B
  8
2-0
  6
CONTINUOUS
 62
     3
 10
24659.317856999998
 20
16200.131812499991
 30
0.0
 11
24666.319414000001
 21
16200.131812499991
 31
0.0
  0
LINE
  5
386C
  8
2-0
  6
CONTINUOUS
 62
     3
 10
24666.319414000001
 20
16200.131812499991
 30
0.0
 11
24666.319414000001
 21
16205.13207649998
 31
0.0
  0
LINE
  5
386D
  8
2-0
  6
CONTINUOUS
 62
     3
 10
24666.319414000001
 20
16205.13207649998
 30
0.0
 11
24641.322053999971
 21
16205.13207649998
 31
0.0
  0
LINE
  5
386E
  8
2-0
  6
CONTINUOUS
 62
     3
 10
24641.322053999971
 20
16205.13207649998
 30
0.0
 11
24641.322053999971
 21
16187.130334499991
 31
0.0
  0
LINE
  5
386F
  8
2-0
  6
CONTINUOUS
 62
     3
 10
24641.322053999971
 20
16187.130334499991
 30
0.0
 11
24671.319677999982
 21
16187.130334499991
 31
0.0
  0
LINE
  5
3870
  8
2-0
  6
CONTINUOUS
 62
     3
 10
24641.322053999971
 20
16203.227779500001
 30
0.0
 11
24641.322053999971
 21
16197.2308285
 31
0.0
  0
LINE
  5
3871
  8
2-0
  6
CONTINUOUS
 62
     3
 10
24641.322053999971
 20
16197.2308285
 30
0.0
 11
24671.319677999982
 21
16197.2308285
 31
0.0
  0
LINE
  5
3872
  8
2-0
  6
CONTINUOUS
 62
     3
 10
24671.319677999982
 20
16197.2308285
 30
0.0
 11
24671.319677999982
 21
16234.2309995
 31
0.0
  0
LINE
  5
3873
  8
2-0
  6
CONTINUOUS
 62
     3
 10
24641.322053999971
 20
16234.2309995
 30
0.0
 11
24671.319677999982
 21
16234.2309995
 31
0.0
  0
LINE
  5
3874
  8
2-0
  6
CONTINUOUS
 62
     3
 10
24641.322053999971
 20
16228.228109499991
 30
0.0
 11
24641.322053999971
 21
16234.2309995
 31
0.0
  0
LINE
  5
3875
  8
2-0
  6
CONTINUOUS
 62
     3
 10
24641.322053999971
 20
16244.3265445
 30
0.0
 11
24671.319677999982
 21
16244.3265445
 31
0.0
  0
LINE
  5
3876
  8
2-0
  6
CONTINUOUS
 62
     3
 10
24641.322053999971
 20
16226.318863500001
 30
0.0
 11
24641.322053999971
 21
16244.3265445
 31
0.0
  0
LINE
  5
3877
  8
2-0
  6
CONTINUOUS
 62
     3
 10
24666.319414000001
 20
16226.318863500001
 30
0.0
 11
24641.322053999971
 21
16226.318863500001
 31
0.0
  0
LINE
  5
3878
  8
2-0
  6
CONTINUOUS
 62
     3
 10
24666.319414000001
 20
16231.3250665
 30
0.0
 11
24666.319414000001
 21
16226.318863500001
 31
0.0
  0
LINE
  5
3879
  8
2-0
  6
CONTINUOUS
 62
     3
 10
24659.317856999998
 20
16231.3250665
 30
0.0
 11
24666.319414000001
 21
16231.3250665
 31
0.0
  0
LINE
  5
387A
  8
2-0
  6
CONTINUOUS
 62
     3
 10
24659.317856999998
 20
15530.565083
 30
0.0
 11
24666.319414000001
 21
15530.565083
 31
0.0
  0
LINE
  5
387B
  8
2-0
  6
CONTINUOUS
 62
     3
 10
24666.319414000001
 20
15530.565083
 30
0.0
 11
24666.319414000001
 21
15525.570758000011
 31
0.0
  0
LINE
  5
387C
  8
2-0
  6
CONTINUOUS
 62
     3
 10
24666.319414000001
 20
15525.570758000011
 30
0.0
 11
24641.322053999971
 21
15525.570758000011
 31
0.0
  0
LINE
  5
387D
  8
2-0
  6
CONTINUOUS
 62
     3
 10
24641.322053999971
 20
15525.570758000011
 30
0.0
 11
24641.322053999971
 21
15543.566561000011
 31
0.0
  0
LINE
  5
387E
  8
2-0
  6
CONTINUOUS
 62
     3
 10
24641.322053999971
 20
15543.566561000011
 30
0.0
 11
24671.319677999982
 21
15543.566561000011
 31
0.0
  0
LINE
  5
387F
  8
2-0
  6
CONTINUOUS
 62
     3
 10
24641.322053999971
 20
15527.469116
 30
0.0
 11
24641.322053999971
 21
15533.47101600001
 31
0.0
  0
LINE
  5
3880
  8
2-0
  6
CONTINUOUS
 62
     3
 10
24641.322053999971
 20
15533.47101600001
 30
0.0
 11
24671.319677999982
 21
15533.47101600001
 31
0.0
  0
LINE
  5
3881
  8
2-0
  6
CONTINUOUS
 62
     3
 10
24671.319677999982
 20
15496.471835
 30
0.0
 11
24671.319677999982
 21
15533.47101600001
 31
0.0
  0
LINE
  5
3882
  8
2-0
  6
CONTINUOUS
 62
     3
 10
24641.322053999971
 20
15496.471835
 30
0.0
 11
24671.319677999982
 21
15496.471835
 31
0.0
  0
LINE
  5
3883
  8
2-0
  6
CONTINUOUS
 62
     3
 10
24641.322053999971
 20
15502.46878600001
 30
0.0
 11
24641.322053999971
 21
15496.471835
 31
0.0
  0
LINE
  5
3884
  8
2-0
  6
CONTINUOUS
 62
     3
 10
24641.322053999971
 20
15486.370351
 30
0.0
 11
24671.319677999982
 21
15486.370351
 31
0.0
  0
LINE
  5
3885
  8
2-0
  6
CONTINUOUS
 62
     3
 10
24641.322053999971
 20
15504.378032000001
 30
0.0
 11
24641.322053999971
 21
15486.370351
 31
0.0
  0
LINE
  5
3886
  8
2-0
  6
CONTINUOUS
 62
     3
 10
24666.319414000001
 20
15504.378032000001
 30
0.0
 11
24641.322053999971
 21
15504.378032000001
 31
0.0
  0
LINE
  5
3887
  8
2-0
  6
CONTINUOUS
 62
     3
 10
24666.319414000001
 20
15499.377768000009
 30
0.0
 11
24666.319414000001
 21
15504.378032000001
 31
0.0
  0
LINE
  5
3888
  8
2-0
  6
CONTINUOUS
 62
     3
 10
24659.317856999998
 20
15499.377768000009
 30
0.0
 11
24666.319414000001
 21
15499.377768000009
 31
0.0
  0
LINE
  5
3889
  8
2-0
  6
CONTINUOUS
 62
     3
 10
24671.319677999982
 20
16891.618503999998
 30
0.0
 11
24671.319677999982
 21
16244.3265445
 31
0.0
  0
LINE
  5
388A
  8
2-0
  6
CONTINUOUS
 62
     3
 10
24671.319677999982
 20
17046.228802000001
 30
0.0
 11
24671.319677999982
 21
16901.22708700001
 31
0.0
  0
LINE
  5
388B
  8
2-0
  6
CONTINUOUS
 62
     3
 10
24583.436970999988
 20
17016.229198000001
 30
0.0
 11
24583.436970999988
 21
16931.232629999991
 31
0.0
  0
LINE
  5
388C
  8
2-0
  6
CONTINUOUS
 62
     6
 10
23045.228303999971
 20
18784.676463499982
 30
0.0
 11
24070.260635999992
 21
18784.676463499982
 31
0.0
  0
LINE
  5
388D
  8
2-0
  6
CONTINUOUS
 62
     3
 10
24659.317856999998
 20
14798.136761
 30
0.0
 11
24666.319414000001
 21
14798.136761
 31
0.0
  0
LINE
  5
388E
  8
2-0
  6
CONTINUOUS
 62
     3
 10
24666.319414000001
 20
14798.136761
 30
0.0
 11
24666.319414000001
 21
14803.131087
 31
0.0
  0
LINE
  5
388F
  8
2-0
  6
CONTINUOUS
 62
     3
 10
24666.319414000001
 20
14803.131087
 30
0.0
 11
24641.322053999971
 21
14803.131087
 31
0.0
  0
LINE
  5
3890
  8
2-0
  6
CONTINUOUS
 62
     3
 10
24641.322053999971
 20
14803.131087
 30
0.0
 11
24641.322053999971
 21
14785.135283
 31
0.0
  0
LINE
  5
3891
  8
2-0
  6
CONTINUOUS
 62
     3
 10
24641.322053999971
 20
14785.135283
 30
0.0
 11
24671.319677999982
 21
14785.135283
 31
0.0
  0
LINE
  5
3892
  8
2-0
  6
CONTINUOUS
 62
     3
 10
24641.322053999971
 20
14801.23371800001
 30
0.0
 11
24641.322053999971
 21
14795.230828000011
 31
0.0
  0
LINE
  5
3893
  8
2-0
  6
CONTINUOUS
 62
     3
 10
24641.322053999971
 20
14795.230828000011
 30
0.0
 11
24671.319677999982
 21
14795.230828000011
 31
0.0
  0
LINE
  5
3894
  8
2-0
  6
CONTINUOUS
 62
     3
 10
24671.319677999982
 20
14795.230828000011
 30
0.0
 11
24671.319677999982
 21
14832.230999999991
 31
0.0
  0
LINE
  5
3895
  8
2-0
  6
CONTINUOUS
 62
     3
 10
24641.322053999971
 20
14832.230999999991
 30
0.0
 11
24671.319677999982
 21
14832.230999999991
 31
0.0
  0
LINE
  5
3896
  8
2-0
  6
CONTINUOUS
 62
     3
 10
24641.322053999971
 20
14826.23404799998
 30
0.0
 11
24641.322053999971
 21
14832.230999999991
 31
0.0
  0
LINE
  5
3897
  8
2-0
  6
CONTINUOUS
 62
     3
 10
24641.322053999971
 20
14842.331493000011
 30
0.0
 11
24671.319677999982
 21
14842.331493000011
 31
0.0
  0
LINE
  5
3898
  8
2-0
  6
CONTINUOUS
 62
     3
 10
24641.322053999971
 20
14824.32480200001
 30
0.0
 11
24641.322053999971
 21
14842.331493000011
 31
0.0
  0
LINE
  5
3899
  8
2-0
  6
CONTINUOUS
 62
     3
 10
24666.319414000001
 20
14824.32480200001
 30
0.0
 11
24641.322053999971
 21
14824.32480200001
 31
0.0
  0
LINE
  5
389A
  8
2-0
  6
CONTINUOUS
 62
     3
 10
24666.319414000001
 20
14829.33001500001
 30
0.0
 11
24666.319414000001
 21
14824.32480200001
 31
0.0
  0
LINE
  5
389B
  8
2-0
  6
CONTINUOUS
 62
     3
 10
24659.317856999998
 20
14829.33001500001
 30
0.0
 11
24666.319414000001
 21
14829.33001500001
 31
0.0
  0
LINE
  5
389C
  8
2-0
  6
CONTINUOUS
 62
     3
 10
24641.322053999971
 20
13771.73284099999
 30
0.0
 11
24641.322053999971
 21
13777.73770999999
 31
0.0
  0
LINE
  5
389D
  8
2-0
  6
CONTINUOUS
 62
     3
 10
24641.322053999971
 20
13777.73770999999
 30
0.0
 11
24671.319677999982
 21
13777.73770999999
 31
0.0
  0
LINE
  5
389E
  8
2-0
  6
CONTINUOUS
 62
     3
 10
24671.319677999982
 20
13777.73770999999
 30
0.0
 11
24671.319677999982
 21
13662.733619000001
 31
0.0
  0
LINE
  5
389F
  8
2-0
  6
CONTINUOUS
 62
     3
 10
24671.319677999982
 20
13662.733619000001
 30
0.0
 11
24586.321129999978
 21
13662.733619000001
 31
0.0
  0
LINE
  5
38A0
  8
2-0
  6
CONTINUOUS
 62
     3
 10
24586.321129999978
 20
13662.733619000001
 30
0.0
 11
24586.321129999978
 21
13747.729198000001
 31
0.0
  0
LINE
  5
38A1
  8
2-0
  6
CONTINUOUS
 62
     3
 10
24586.321129999978
 20
13747.729198000001
 30
0.0
 11
24618.32004799999
 21
13747.729198000001
 31
0.0
  0
LINE
  5
38A2
  8
2-0
  6
CONTINUOUS
 62
     3
 10
24659.317856999998
 20
13774.767443000001
 30
0.0
 11
24666.319414000001
 21
13774.767443000001
 31
0.0
  0
LINE
  5
38A3
  8
2-0
  6
CONTINUOUS
 62
     3
 10
24666.319414000001
 20
13774.767443000001
 30
0.0
 11
24666.319414000001
 21
13769.77014799998
 31
0.0
  0
LINE
  5
38A4
  8
2-0
  6
CONTINUOUS
 62
     3
 10
24666.319414000001
 20
13769.77014799998
 30
0.0
 11
24641.322053999971
 21
13769.77014799998
 31
0.0
  0
LINE
  5
38A5
  8
2-0
  6
CONTINUOUS
 62
     3
 10
24641.322053999971
 20
13769.77014799998
 30
0.0
 11
24641.322053999971
 21
13787.768921000001
 31
0.0
  0
LINE
  5
38A6
  8
2-0
  6
CONTINUOUS
 62
     3
 10
24641.322053999971
 20
13787.768921000001
 30
0.0
 11
24671.319677999982
 21
13787.768921000001
 31
0.0
  0
LINE
  5
38A7
  8
2-0
  6
CENTER2
 62
     6
 10
24628.821393999991
 20
13465.236060999991
 30
0.0
 11
24628.821393999991
 21
14971.60481900002
 31
0.0
  0
LINE
  5
38A8
  8
2-0
  6
CONTINUOUS
 62
     3
 10
24671.319677999982
 20
18461.32605
 30
0.0
 11
24671.319677999982
 21
19105.1367675
 31
0.0
  0
LINE
  5
38A9
  8
2-0
  6
CONTINUOUS
 62
     6
 10
25363.82456099999
 20
20664.232102000031
 30
0.0
 11
26563.81862299997
 21
20664.232102000031
 31
0.0
  0
LINE
  5
38AA
  8
2-0
  6
CONTINUOUS
 62
     3
 10
22834.823241999991
 20
19934.229199000009
 30
0.0
 11
22834.823241999991
 21
19904.22563600001
 31
0.0
  0
LINE
  5
38AB
  8
2-0
  6
CONTINUOUS
 62
     3
 10
22834.823241999991
 20
19904.22563600001
 30
0.0
 11
22828.82529999996
 21
19904.22563600001
 31
0.0
  0
LINE
  5
38AC
  8
2-0
  6
CONTINUOUS
 62
     3
 10
22844.439742999992
 20
19904.22563600001
 30
0.0
 11
22844.439742999992
 21
19934.229199000009
 31
0.0
  0
LINE
  5
38AD
  8
2-0
  6
CONTINUOUS
 62
     3
 10
22826.438000999991
 20
19904.22563600001
 30
0.0
 11
22844.439742999992
 21
19904.22563600001
 31
0.0
  0
LINE
  5
38AE
  8
2-0
  6
CONTINUOUS
 62
     3
 10
22826.438000999991
 20
19929.234873000001
 30
0.0
 11
22826.438000999991
 21
19904.22563600001
 31
0.0
  0
LINE
  5
38AF
  8
2-0
  6
CONTINUOUS
 62
     3
 10
22831.438265000001
 20
19929.234873000001
 30
0.0
 11
22826.438000999991
 21
19929.234873000001
 31
0.0
  0
LINE
  5
38B0
  8
2-0
  6
CONTINUOUS
 62
     3
 10
22831.438265000001
 20
19922.229357000011
 30
0.0
 11
22831.438265000001
 21
19929.234873000001
 31
0.0
  0
LINE
  5
38B1
  8
2-0
  6
CONTINUOUS
 62
     3
 10
22804.821658000001
 20
19931.337122000001
 30
0.0
 11
22804.821658000001
 21
19846.338574000009
 31
0.0
  0
LINE
  5
38B2
  8
2-0
  6
CONTINUOUS
 62
     3
 10
22784.824561000001
 20
19931.337122000001
 30
0.0
 11
22804.821658000001
 21
19931.337122000001
 31
0.0
  0
LINE
  5
38B3
  8
2-0
  6
CONTINUOUS
 62
     3
 10
22693.210461999988
 20
19922.229357000011
 30
0.0
 11
22693.210461999988
 21
19929.234873000001
 31
0.0
  0
LINE
  5
38B4
  8
2-0
  6
CONTINUOUS
 62
     3
 10
22693.210461999988
 20
19929.234873000001
 30
0.0
 11
22698.21072599999
 21
19929.234873000001
 31
0.0
  0
LINE
  5
38B5
  8
2-0
  6
CONTINUOUS
 62
     3
 10
22698.21072599999
 20
19929.234873000001
 30
0.0
 11
22698.21072599999
 21
19904.22563600001
 31
0.0
  0
LINE
  5
38B6
  8
2-0
  6
CONTINUOUS
 62
     3
 10
22698.21072599999
 20
19904.22563600001
 30
0.0
 11
22680.20898399999
 21
19904.22563600001
 31
0.0
  0
LINE
  5
38B7
  8
2-0
  6
CONTINUOUS
 62
     3
 10
22680.20898399999
 20
19904.22563600001
 30
0.0
 11
22680.20898399999
 21
19934.229199000009
 31
0.0
  0
LINE
  5
38B8
  8
2-0
  6
CONTINUOUS
 62
     3
 10
22719.829047999981
 20
19931.337122000001
 30
0.0
 11
22739.824165000002
 21
19931.337122000001
 31
0.0
  0
LINE
  5
38B9
  8
2-0
  6
CONTINUOUS
 62
     3
 10
22719.829047999981
 20
19846.338574000009
 30
0.0
 11
22719.829047999981
 21
19931.337122000001
 31
0.0
  0
LINE
  5
38BA
  8
2-0
  6
CONTINUOUS
 62
     3
 10
22689.831424000011
 20
19904.22563600001
 30
0.0
 11
22695.82738499999
 21
19904.22563600001
 31
0.0
  0
LINE
  5
38BB
  8
2-0
  6
CONTINUOUS
 62
     3
 10
22689.831424000011
 20
19934.229199000009
 30
0.0
 11
22689.831424000011
 21
19904.22563600001
 31
0.0
  0
LINE
  5
38BC
  8
2-0
  6
CONTINUOUS
 62
     3
 10
22804.821658000001
 20
19846.338574000009
 30
0.0
 11
22719.829047999981
 21
19846.338574000009
 31
0.0
  0
LINE
  5
38BD
  8
2-0
  6
CONTINUOUS
 62
     3
 10
22834.823241999991
 20
19934.229199000009
 30
0.0
 11
22689.831424000011
 21
19934.229199000009
 31
0.0
  0
LINE
  5
38BE
  8
2-0
  6
CONTINUOUS
 62
     6
 10
24501.791727999971
 20
19026.830971499989
 30
0.0
 11
24070.260635999992
 21
18784.676463499982
 31
0.0
  0
LINE
  5
38BF
  8
2-0
  6
CONTINUOUS
 62
     6
 10
24823.360561999962
 20
20076.908939000012
 30
0.0
 11
25363.82456099999
 21
20664.232102000031
 31
0.0
  0
LINE
  5
38C0
  8
2-0
  6
CONTINUOUS
 62
     3
 10
24671.319677999982
 20
16187.130334499991
 30
0.0
 11
24671.319677999982
 21
15543.566561000011
 31
0.0
  0
LINE
  5
38C1
  8
2-0
  6
CONTINUOUS
 62
     6
 10
24488.734822999992
 20
19050.090315500001
 30
0.0
 11
24641.322053999971
 21
19105.1367675
 31
0.0
  0
LINE
  5
38C2
  8
2-0
  6
CONTINUOUS
 62
     6
 10
24641.322053999971
 20
19105.1367675
 30
0.0
 11
24514.840713999991
 21
19003.57756749999
 31
0.0
  0
LINE
  5
38C3
  8
2-0
  6
CONTINUOUS
 62
     6
 10
24488.734822999992
 20
19050.090315500001
 30
0.0
 11
24514.840713999991
 21
19003.57756749999
 31
0.0
  0
LINE
  5
38C4
  8
2-0
  6
CONTINUOUS
 62
     6
 10
24514.840713999991
 20
19003.57756749999
 30
0.0
 11
24641.322053999971
 21
19105.1367675
 31
0.0
  0
LINE
  5
38C5
  8
2-0
  6
CONTINUOUS
 62
     6
 10
24641.322053999971
 20
19105.1367675
 30
0.0
 11
24488.734822999992
 21
19050.090315500001
 31
0.0
  0
LINE
  5
38C6
  8
2-0
  6
CONTINUOUS
 62
     6
 10
24488.734822999992
 20
19050.090315500001
 30
0.0
 11
24641.322053999971
 21
19105.1367675
 31
0.0
  0
LINE
  5
38C7
  8
2-0
  6
CONTINUOUS
 62
     6
 10
24514.840713999991
 20
19003.57756749999
 30
0.0
 11
24641.322053999971
 21
19105.1367675
 31
0.0
  0
LINE
  5
38C8
  8
2-0
  6
CONTINUOUS
 62
     6
 10
24514.840713999991
 20
19003.57756749999
 30
0.0
 11
24488.734822999992
 21
19050.090315500001
 31
0.0
  0
LINE
  5
38C9
  8
2-0
  6
CONTINUOUS
 62
     6
 10
24842.977590999992
 20
20058.847812000022
 30
0.0
 11
24715.015570999982
 21
19959.165194000008
 31
0.0
  0
LINE
  5
38CA
  8
2-0
  6
CONTINUOUS
 62
     6
 10
24715.015570999982
 20
19959.165194000008
 30
0.0
 11
24803.729675999992
 21
20094.962149000021
 31
0.0
  0
LINE
  5
38CB
  8
2-0
  6
CONTINUOUS
 62
     6
 10
24842.977590999992
 20
20058.847812000022
 30
0.0
 11
24803.729675999992
 21
20094.962149000021
 31
0.0
  0
LINE
  5
38CC
  8
2-0
  6
CONTINUOUS
 62
     6
 10
24803.729675999992
 20
20094.962149000021
 30
0.0
 11
24715.015570999982
 21
19959.165194000008
 31
0.0
  0
LINE
  5
38CD
  8
2-0
  6
CONTINUOUS
 62
     6
 10
24715.015570999982
 20
19959.165194000008
 30
0.0
 11
24842.977590999992
 21
20058.847812000022
 31
0.0
  0
LINE
  5
38CE
  8
2-0
  6
CONTINUOUS
 62
     6
 10
24842.977590999992
 20
20058.847812000022
 30
0.0
 11
24715.015570999982
 21
19959.165194000008
 31
0.0
  0
LINE
  5
38CF
  8
2-0
  6
CONTINUOUS
 62
     6
 10
24803.729675999992
 20
20094.962149000021
 30
0.0
 11
24715.015570999982
 21
19959.165194000008
 31
0.0
  0
LINE
  5
38D0
  8
2-0
  6
CONTINUOUS
 62
     6
 10
24803.729675999992
 20
20094.962149000021
 30
0.0
 11
24842.977590999992
 21
20058.847812000022
 31
0.0
  0
LINE
  5
38D1
  8
2-0
  6
CONTINUOUS
 62
     4
 10
22762.321393999991
 20
20014.231442000018
 30
0.0
 11
22762.321393999991
 21
20744.228406999999
 31
0.0
  0
LINE
  5
38D2
  8
2-0
  6
CONTINUOUS
 62
     6
 10
24394.68195699999
 20
13554.46088099999
 30
0.0
 11
24526.428815999981
 21
13649.087808
 31
0.0
  0
LINE
  5
38D3
  8
2-0
  6
CONTINUOUS
 62
     6
 10
24526.428815999981
 20
13649.087808
 30
0.0
 11
24432.49867999999
 21
13516.84903799998
 31
0.0
  0
LINE
  5
38D4
  8
2-0
  6
CONTINUOUS
 62
     6
 10
24394.68195699999
 20
13554.46088099999
 30
0.0
 11
24432.49867999999
 21
13516.84903799998
 31
0.0
  0
LINE
  5
38D5
  8
2-0
  6
CONTINUOUS
 62
     6
 10
24432.49867999999
 20
13516.84903799998
 30
0.0
 11
24526.428815999981
 21
13649.087808
 31
0.0
  0
LINE
  5
38D6
  8
2-0
  6
CONTINUOUS
 62
     6
 10
24526.428815999981
 20
13649.087808
 30
0.0
 11
24394.68195699999
 21
13554.46088099999
 31
0.0
  0
LINE
  5
38D7
  8
2-0
  6
CONTINUOUS
 62
     6
 10
24394.68195699999
 20
13554.46088099999
 30
0.0
 11
24526.428815999981
 21
13649.087808
 31
0.0
  0
LINE
  5
38D8
  8
2-0
  6
CONTINUOUS
 62
     6
 10
24432.49867999999
 20
13516.84903799998
 30
0.0
 11
24526.428815999981
 21
13649.087808
 31
0.0
  0
LINE
  5
38D9
  8
2-0
  6
CONTINUOUS
 62
     6
 10
24432.49867999999
 20
13516.84903799998
 30
0.0
 11
24394.68195699999
 21
13554.46088099999
 31
0.0
  0
LINE
  5
38DA
  8
2-0
  6
CONTINUOUS
 62
     6
 10
24457.717745999991
 20
13881.365507999981
 30
0.0
 11
24590.317777999971
 21
13787.937179999981
 31
0.0
  0
LINE
  5
38DB
  8
2-0
  6
CONTINUOUS
 62
     6
 10
24590.317777999971
 20
13787.937179999981
 30
0.0
 11
24434.58509199999
 21
13833.312694
 31
0.0
  0
LINE
  5
38DC
  8
2-0
  6
CONTINUOUS
 62
     6
 10
24457.717745999991
 20
13881.365507999981
 30
0.0
 11
24434.58509199999
 21
13833.312694
 31
0.0
  0
LINE
  5
38DD
  8
2-0
  6
CONTINUOUS
 62
     6
 10
24434.58509199999
 20
13833.312694
 30
0.0
 11
24590.317777999971
 21
13787.937179999981
 31
0.0
  0
LINE
  5
38DE
  8
2-0
  6
CONTINUOUS
 62
     6
 10
24590.317777999971
 20
13787.937179999981
 30
0.0
 11
24457.717745999991
 21
13881.365507999981
 31
0.0
  0
LINE
  5
38DF
  8
2-0
  6
CONTINUOUS
 62
     6
 10
24457.717745999991
 20
13881.365507999981
 30
0.0
 11
24590.317777999971
 21
13787.937179999981
 31
0.0
  0
LINE
  5
38E0
  8
2-0
  6
CONTINUOUS
 62
     6
 10
24434.58509199999
 20
13833.312694
 30
0.0
 11
24590.317777999971
 21
13787.937179999981
 31
0.0
  0
LINE
  5
38E1
  8
2-0
  6
CONTINUOUS
 62
     6
 10
24434.58509199999
 20
13833.312694
 30
0.0
 11
24457.717745999991
 21
13881.365507999981
 31
0.0
  0
LINE
  5
38E2
  8
2-0
  6
CONTINUOUS
 62
     6
 10
24517.481391999991
 20
16611.686441000009
 30
0.0
 11
24671.319677999982
 21
16663.120272000011
 31
0.0
  0
LINE
  5
38E3
  8
2-0
  6
CONTINUOUS
 62
     6
 10
24671.319677999982
 20
16663.120272000011
 30
0.0
 11
24542.48469099998
 21
16564.579837000008
 31
0.0
  0
LINE
  5
38E4
  8
2-0
  6
CONTINUOUS
 62
     6
 10
24517.481391999991
 20
16611.686441000009
 30
0.0
 11
24542.48469099998
 21
16564.579837000008
 31
0.0
  0
LINE
  5
38E5
  8
2-0
  6
CONTINUOUS
 62
     6
 10
24542.48469099998
 20
16564.579837000008
 30
0.0
 11
24671.319677999982
 21
16663.120272000011
 31
0.0
  0
LINE
  5
38E6
  8
2-0
  6
CONTINUOUS
 62
     6
 10
24671.319677999982
 20
16663.120272000011
 30
0.0
 11
24517.481391999991
 21
16611.686441000009
 31
0.0
  0
LINE
  5
38E7
  8
2-0
  6
CONTINUOUS
 62
     6
 10
24517.481391999991
 20
16611.686441000009
 30
0.0
 11
24671.319677999982
 21
16663.120272000011
 31
0.0
  0
LINE
  5
38E8
  8
2-0
  6
CONTINUOUS
 62
     6
 10
24542.48469099998
 20
16564.579837000008
 30
0.0
 11
24671.319677999982
 21
16663.120272000011
 31
0.0
  0
LINE
  5
38E9
  8
2-0
  6
CONTINUOUS
 62
     6
 10
24542.48469099998
 20
16564.579837000008
 30
0.0
 11
24517.481391999991
 21
16611.686441000009
 31
0.0
  0
LINE
  5
38EA
  8
2-0
  6
CONTINUOUS
 62
     6
 10
24383.545184999992
 20
17103.004933000011
 30
0.0
 11
24526.428815999981
 21
17026.229304000011
 31
0.0
  0
LINE
  5
38EB
  8
2-0
  6
CONTINUOUS
 62
     6
 10
24526.428815999981
 20
17026.229304000011
 30
0.0
 11
24366.36692299999
 21
17052.511373000019
 31
0.0
  0
LINE
  5
38EC
  8
2-0
  6
CONTINUOUS
 62
     6
 10
24383.545184999992
 20
17103.004933000011
 30
0.0
 11
24366.36692299999
 21
17052.511373000019
 31
0.0
  0
LINE
  5
38ED
  8
2-0
  6
CONTINUOUS
 62
     6
 10
24366.36692299999
 20
17052.511373000019
 30
0.0
 11
24526.428815999981
 21
17026.229304000011
 31
0.0
  0
LINE
  5
38EE
  8
2-0
  6
CONTINUOUS
 62
     6
 10
24526.428815999981
 20
17026.229304000011
 30
0.0
 11
24383.545184999992
 21
17103.004933000011
 31
0.0
  0
LINE
  5
38EF
  8
2-0
  6
CONTINUOUS
 62
     6
 10
24383.545184999992
 20
17103.004933000011
 30
0.0
 11
24526.428815999981
 21
17026.229304000011
 31
0.0
  0
LINE
  5
38F0
  8
2-0
  6
CONTINUOUS
 62
     6
 10
24366.36692299999
 20
17052.511373000019
 30
0.0
 11
24526.428815999981
 21
17026.229304000011
 31
0.0
  0
LINE
  5
38F1
  8
2-0
  6
CONTINUOUS
 62
     6
 10
24366.36692299999
 20
17052.511373000019
 30
0.0
 11
24383.545184999992
 21
17103.004933000011
 31
0.0
  0
LINE
  5
38F2
  8
2-0
  6
CONTINUOUS
 62
     3
 10
22022.82197499997
 20
19934.229199000009
 30
0.0
 11
21985.820812999991
 21
19934.229199000009
 31
0.0
  0
LINE
  5
38F3
  8
2-0
  6
CONTINUOUS
 62
     3
 10
22022.82197499997
 20
19904.22563600001
 30
0.0
 11
22022.82197499997
 21
19934.229199000009
 31
0.0
  0
LINE
  5
38F4
  8
2-0
  6
CONTINUOUS
 62
     3
 10
22016.82205399996
 20
19904.22563600001
 30
0.0
 11
22022.82197499997
 21
19904.22563600001
 31
0.0
  0
LINE
  5
38F5
  8
2-0
  6
CONTINUOUS
 62
     3
 10
22032.919498999981
 20
19904.22563600001
 30
0.0
 11
22032.919498999981
 21
19934.229199000009
 31
0.0
  0
LINE
  5
38F6
  8
2-0
  6
CONTINUOUS
 62
     3
 10
22014.915777999991
 20
19904.22563600001
 30
0.0
 11
22032.919498999981
 21
19904.22563600001
 31
0.0
  0
LINE
  5
38F7
  8
2-0
  6
CONTINUOUS
 62
     3
 10
22014.915777999991
 20
19929.234873000001
 30
0.0
 11
22014.915777999991
 21
19904.22563600001
 31
0.0
  0
LINE
  5
38F8
  8
2-0
  6
CONTINUOUS
 62
     3
 10
22019.916041999979
 20
19929.234873000001
 30
0.0
 11
22014.915777999991
 21
19929.234873000001
 31
0.0
  0
LINE
  5
38F9
  8
2-0
  6
CONTINUOUS
 62
     3
 10
22019.916041999979
 20
19922.229357000011
 30
0.0
 11
22019.916041999979
 21
19929.234873000001
 31
0.0
  0
LINE
  5
38FA
  8
2-0
  6
CONTINUOUS
 62
     3
 10
21988.726746999972
 20
19922.229357000011
 30
0.0
 11
21988.726746999972
 21
19929.234873000001
 31
0.0
  0
LINE
  5
38FB
  8
2-0
  6
CONTINUOUS
 62
     3
 10
21988.726746999972
 20
19929.234873000001
 30
0.0
 11
21993.727010999992
 21
19929.234873000001
 31
0.0
  0
LINE
  5
38FC
  8
2-0
  6
CONTINUOUS
 62
     3
 10
21993.727010999992
 20
19929.234873000001
 30
0.0
 11
21993.727010999992
 21
19904.22563600001
 31
0.0
  0
LINE
  5
38FD
  8
2-0
  6
CONTINUOUS
 62
     3
 10
21993.727010999992
 20
19904.22563600001
 30
0.0
 11
21975.727247999981
 21
19904.22563600001
 31
0.0
  0
LINE
  5
38FE
  8
2-0
  6
CONTINUOUS
 62
     3
 10
21975.727247999981
 20
19904.22563600001
 30
0.0
 11
21975.727247999981
 21
19934.229199000009
 31
0.0
  0
LINE
  5
38FF
  8
2-0
  6
CONTINUOUS
 62
     3
 10
21991.820733999979
 20
19904.22563600001
 30
0.0
 11
21985.820812999991
 21
19904.22563600001
 31
0.0
  0
LINE
  5
3900
  8
2-0
  6
CONTINUOUS
 62
     3
 10
21985.820812999991
 20
19904.22563600001
 30
0.0
 11
21985.820812999991
 21
19934.229199000009
 31
0.0
  0
LINE
  5
3901
  8
2-0
  6
CONTINUOUS
 62
     3
 10
20182.322714000002
 20
19825.228987999999
 30
0.0
 11
20182.322714000002
 21
19819.23302600002
 31
0.0
  0
LINE
  5
3902
  8
2-0
  6
CONTINUOUS
 62
     3
 10
20182.322714000002
 20
19819.23302600002
 30
0.0
 11
20152.325089000002
 21
19819.23302600002
 31
0.0
  0
LINE
  5
3903
  8
2-0
  6
CONTINUOUS
 62
     3
 10
20152.325089000002
 20
19819.23302600002
 30
0.0
 11
20152.325089000002
 21
19934.229199000009
 31
0.0
  0
LINE
  5
3904
  8
2-0
  6
CONTINUOUS
 62
     3
 10
20152.325089000002
 20
19849.23263000001
 30
0.0
 11
20233.323029999981
 21
19849.23263000001
 31
0.0
  0
LINE
  5
3905
  8
2-0
  6
CONTINUOUS
 62
     3
 10
20182.322714000002
 20
19808.935570000001
 30
0.0
 11
20152.325089000002
 21
19808.935570000001
 31
0.0
  0
LINE
  5
3906
  8
2-0
  6
CONTINUOUS
 62
     3
 10
20182.322714000002
 20
19826.93731200002
 30
0.0
 11
20182.322714000002
 21
19808.935570000001
 31
0.0
  0
LINE
  5
3907
  8
2-0
  6
CONTINUOUS
 62
     3
 10
20157.329312000002
 20
19826.93731200002
 30
0.0
 11
20182.322714000002
 21
19826.93731200002
 31
0.0
  0
LINE
  5
3908
  8
2-0
  6
CONTINUOUS
 62
     3
 10
20157.329312000002
 20
19821.929130000019
 30
0.0
 11
20157.329312000002
 21
19826.93731200002
 31
0.0
  0
LINE
  5
3909
  8
2-0
  6
CONTINUOUS
 62
     3
 10
20164.326909999982
 20
19821.929130000019
 30
0.0
 11
20157.329312000002
 21
19821.929130000019
 31
0.0
  0
LINE
  5
390A
  8
2-0
  6
CONTINUOUS
 62
     3
 10
20264.621198999968
 20
19922.229357000011
 30
0.0
 11
20264.621198999968
 21
19929.234873000001
 31
0.0
  0
LINE
  5
390B
  8
2-0
  6
CONTINUOUS
 62
     3
 10
20264.621198999968
 20
19929.234873000001
 30
0.0
 11
20259.618955000002
 21
19929.234873000001
 31
0.0
  0
LINE
  5
390C
  8
2-0
  6
CONTINUOUS
 62
     3
 10
20259.618955000002
 20
19929.234873000001
 30
0.0
 11
20259.618955000002
 21
19904.22563600001
 31
0.0
  0
LINE
  5
390D
  8
2-0
  6
CONTINUOUS
 62
     3
 10
20259.618955000002
 20
19904.22563600001
 30
0.0
 11
20277.62663599999
 21
19904.22563600001
 31
0.0
  0
LINE
  5
390E
  8
2-0
  6
CONTINUOUS
 62
     3
 10
20277.62663599999
 20
19904.22563600001
 30
0.0
 11
20277.62663599999
 21
19934.229199000009
 31
0.0
  0
LINE
  5
390F
  8
2-0
  6
CONTINUOUS
 62
     3
 10
20267.327199999989
 20
19934.229199000009
 30
0.0
 11
20152.325089000002
 21
19934.229199000009
 31
0.0
  0
LINE
  5
3910
  8
2-0
  6
CONTINUOUS
 62
     3
 10
20267.327199999989
 20
19904.22563600001
 30
0.0
 11
20267.327199999989
 21
19934.229199000009
 31
0.0
  0
LINE
  5
3911
  8
2-0
  6
CONTINUOUS
 62
     3
 10
20261.323320999989
 20
19904.22563600001
 30
0.0
 11
20267.327199999989
 21
19904.22563600001
 31
0.0
  0
LINE
  5
3912
  8
2-0
  6
CONTINUOUS
 62
     3
 10
21287.720808499991
 20
19922.229357000011
 30
0.0
 11
21287.720808499991
 21
19929.234873000001
 31
0.0
  0
LINE
  5
3913
  8
2-0
  6
CONTINUOUS
 62
     3
 10
21287.720808499991
 20
19929.234873000001
 30
0.0
 11
21292.721071499978
 21
19929.234873000001
 31
0.0
  0
LINE
  5
3914
  8
2-0
  6
CONTINUOUS
 62
     3
 10
21292.721071499978
 20
19929.234873000001
 30
0.0
 11
21292.721071499978
 21
19904.22563600001
 31
0.0
  0
LINE
  5
3915
  8
2-0
  6
CONTINUOUS
 62
     3
 10
21292.721071499978
 20
19904.22563600001
 30
0.0
 11
21274.727248499981
 21
19904.22563600001
 31
0.0
  0
LINE
  5
3916
  8
2-0
  6
CONTINUOUS
 62
     3
 10
21274.727248499981
 20
19904.22563600001
 30
0.0
 11
21274.727248499981
 21
19934.229199000009
 31
0.0
  0
LINE
  5
3917
  8
2-0
  6
CONTINUOUS
 62
     3
 10
21290.818754499971
 20
19904.22563600001
 30
0.0
 11
21284.820813499991
 21
19904.22563600001
 31
0.0
  0
LINE
  5
3918
  8
2-0
  6
CONTINUOUS
 62
     3
 10
21284.820813499991
 20
19904.22563600001
 30
0.0
 11
21284.820813499991
 21
19934.229199000009
 31
0.0
  0
LINE
  5
3919
  8
2-0
  6
CONTINUOUS
 62
     3
 10
21321.821974499991
 20
19934.229199000009
 30
0.0
 11
21284.820813499991
 21
19934.229199000009
 31
0.0
  0
LINE
  5
391A
  8
2-0
  6
CONTINUOUS
 62
     3
 10
21321.821974499991
 20
19904.22563600001
 30
0.0
 11
21321.821974499991
 21
19934.229199000009
 31
0.0
  0
LINE
  5
391B
  8
2-0
  6
CONTINUOUS
 62
     3
 10
21315.816115500002
 20
19904.22563600001
 30
0.0
 11
21321.821974499991
 21
19904.22563600001
 31
0.0
  0
LINE
  5
391C
  8
2-0
  6
CONTINUOUS
 62
     3
 10
21331.915539500002
 20
19904.22563600001
 30
0.0
 11
21331.915539500002
 21
19934.229199000009
 31
0.0
  0
LINE
  5
391D
  8
2-0
  6
CONTINUOUS
 62
     3
 10
21313.919736499989
 20
19904.22563600001
 30
0.0
 11
21331.915539500002
 21
19904.22563600001
 31
0.0
  0
LINE
  5
391E
  8
2-0
  6
CONTINUOUS
 62
     3
 10
21313.919736499989
 20
19929.234873000001
 30
0.0
 11
21313.919736499989
 21
19904.22563600001
 31
0.0
  0
LINE
  5
391F
  8
2-0
  6
CONTINUOUS
 62
     3
 10
21318.910102499991
 20
19929.234873000001
 30
0.0
 11
21313.919736499989
 21
19929.234873000001
 31
0.0
  0
LINE
  5
3920
  8
2-0
  6
CONTINUOUS
 62
     3
 10
21318.910102499991
 20
19922.229357000011
 30
0.0
 11
21318.910102499991
 21
19929.234873000001
 31
0.0
  0
LINE
  5
3921
  8
2-0
  6
CONTINUOUS
 62
     3
 10
20630.914550000001
 20
19934.22919900003
 30
0.0
 11
21274.727248499981
 21
19934.229199000009
 31
0.0
  0
LINE
  5
3922
  8
2-0
  6
CONTINUOUS
 62
     3
 10
21975.727247999981
 20
19934.229199000009
 30
0.0
 11
21331.915539500002
 21
19934.229199000009
 31
0.0
  0
LINE
  5
3923
  8
2-0
  6
CONTINUOUS
 62
     3
 10
20182.322714000002
 20
19825.228987999999
 30
0.0
 11
20182.322714000002
 21
19819.23302600002
 31
0.0
  0
LINE
  5
3924
  8
2-0
  6
CONTINUOUS
 62
     3
 10
20182.322714000002
 20
19819.23302600002
 30
0.0
 11
20152.325089000002
 21
19819.23302600002
 31
0.0
  0
LINE
  5
3925
  8
2-0
  6
CONTINUOUS
 62
     3
 10
20152.325089000002
 20
19819.23302600002
 30
0.0
 11
20152.325089000002
 21
19934.229199000009
 31
0.0
  0
LINE
  5
3926
  8
2-0
  6
CONTINUOUS
 62
     3
 10
20152.325089000002
 20
19849.23263000001
 30
0.0
 11
20233.323029999981
 21
19849.23263000001
 31
0.0
  0
LINE
  5
3927
  8
2-0
  6
CONTINUOUS
 62
     3
 10
20182.322714000002
 20
19808.935570000001
 30
0.0
 11
20152.325089000002
 21
19808.935570000001
 31
0.0
  0
LINE
  5
3928
  8
2-0
  6
CONTINUOUS
 62
     3
 10
20182.322714000002
 20
19826.93731200002
 30
0.0
 11
20182.322714000002
 21
19808.935570000001
 31
0.0
  0
LINE
  5
3929
  8
2-0
  6
CONTINUOUS
 62
     3
 10
20157.329312000002
 20
19826.93731200002
 30
0.0
 11
20182.322714000002
 21
19826.93731200002
 31
0.0
  0
LINE
  5
392A
  8
2-0
  6
CONTINUOUS
 62
     3
 10
20157.329312000002
 20
19821.929130000019
 30
0.0
 11
20157.329312000002
 21
19826.93731200002
 31
0.0
  0
LINE
  5
392B
  8
2-0
  6
CONTINUOUS
 62
     3
 10
20164.326909999982
 20
19821.929130000019
 30
0.0
 11
20157.329312000002
 21
19821.929130000019
 31
0.0
  0
LINE
  5
392C
  8
2-0
  6
CONTINUOUS
 62
     3
 10
20164.326909999982
 20
19118.132307499989
 30
0.0
 11
20157.329312000002
 21
19118.132307499989
 31
0.0
  0
LINE
  5
392D
  8
2-0
  6
CONTINUOUS
 62
     3
 10
20157.329312000002
 20
19118.132307499989
 30
0.0
 11
20157.329312000002
 21
19123.132571499991
 31
0.0
  0
LINE
  5
392E
  8
2-0
  6
CONTINUOUS
 62
     3
 10
20157.329312000002
 20
19123.132571499991
 30
0.0
 11
20182.322714000002
 21
19123.132571499991
 31
0.0
  0
LINE
  5
392F
  8
2-0
  6
CONTINUOUS
 62
     3
 10
20182.322714000002
 20
19123.132571499991
 30
0.0
 11
20182.322714000002
 21
19105.136767499989
 31
0.0
  0
LINE
  5
3930
  8
2-0
  6
CONTINUOUS
 62
     3
 10
20182.322714000002
 20
19105.136767499989
 30
0.0
 11
20152.325089000002
 21
19105.136767499989
 31
0.0
  0
LINE
  5
3931
  8
2-0
  6
CONTINUOUS
 62
     3
 10
20182.322714000002
 20
19121.22827449995
 30
0.0
 11
20182.322714000002
 21
19115.230333499989
 31
0.0
  0
LINE
  5
3932
  8
2-0
  6
CONTINUOUS
 62
     3
 10
20182.322714000002
 20
19115.230333499989
 30
0.0
 11
20152.325089000002
 21
19115.230333499989
 31
0.0
  0
LINE
  5
3933
  8
2-0
  6
CONTINUOUS
 62
     3
 10
20152.325089000002
 20
19115.230333499989
 30
0.0
 11
20152.325089000002
 21
19152.2314945
 31
0.0
  0
LINE
  5
3934
  8
2-0
  6
CONTINUOUS
 62
     3
 10
20182.322714000002
 20
19152.2314945
 30
0.0
 11
20152.325089000002
 21
19152.2314945
 31
0.0
  0
LINE
  5
3935
  8
2-0
  6
CONTINUOUS
 62
     3
 10
20182.322714000002
 20
19146.227614499981
 30
0.0
 11
20182.322714000002
 21
19152.2314945
 31
0.0
  0
LINE
  5
3936
  8
2-0
  6
CONTINUOUS
 62
     3
 10
20182.322714000002
 20
19162.327039499982
 30
0.0
 11
20152.325089000002
 21
19162.327039499982
 31
0.0
  0
LINE
  5
3937
  8
2-0
  6
CONTINUOUS
 62
     3
 10
20182.322714000002
 20
19144.3252975
 30
0.0
 11
20182.322714000002
 21
19162.327039499982
 31
0.0
  0
LINE
  5
3938
  8
2-0
  6
CONTINUOUS
 62
     3
 10
20157.329312000002
 20
19144.3252975
 30
0.0
 11
20182.322714000002
 21
19144.3252975
 31
0.0
  0
LINE
  5
3939
  8
2-0
  6
CONTINUOUS
 62
     3
 10
20157.329312000002
 20
19149.325561500002
 30
0.0
 11
20157.329312000002
 21
19144.3252975
 31
0.0
  0
LINE
  5
393A
  8
2-0
  6
CONTINUOUS
 62
     3
 10
20164.326909999982
 20
19149.325561500002
 30
0.0
 11
20157.329312000002
 21
19149.325561500002
 31
0.0
  0
LINE
  5
393B
  8
2-0
  6
CONTINUOUS
 62
     3
 10
20164.326909999982
 20
18417.131317999989
 30
0.0
 11
20157.329312000002
 21
18417.131317999989
 31
0.0
  0
LINE
  5
393C
  8
2-0
  6
CONTINUOUS
 62
     3
 10
20157.329312000002
 20
18417.131317999989
 30
0.0
 11
20157.329312000002
 21
18422.13752
 31
0.0
  0
LINE
  5
393D
  8
2-0
  6
CONTINUOUS
 62
     3
 10
20157.329312000002
 20
18422.13752
 30
0.0
 11
20182.322714000002
 21
18422.13752
 31
0.0
  0
LINE
  5
393E
  8
2-0
  6
CONTINUOUS
 62
     3
 10
20182.322714000002
 20
18422.13752
 30
0.0
 11
20182.322714000002
 21
18404.135778
 31
0.0
  0
LINE
  5
393F
  8
2-0
  6
CONTINUOUS
 62
     3
 10
20182.322714000002
 20
18404.135778
 30
0.0
 11
20152.325089000002
 21
18404.135778
 31
0.0
  0
LINE
  5
3940
  8
2-0
  6
CONTINUOUS
 62
     3
 10
20182.322714000002
 20
18420.22728499999
 30
0.0
 11
20182.322714000002
 21
18414.231322999989
 31
0.0
  0
LINE
  5
3941
  8
2-0
  6
CONTINUOUS
 62
     3
 10
20182.322714000002
 20
18414.231322999989
 30
0.0
 11
20152.325089000002
 21
18414.231322999989
 31
0.0
  0
LINE
  5
3942
  8
2-0
  6
CONTINUOUS
 62
     3
 10
20152.325089000002
 20
18414.231322999989
 30
0.0
 11
20152.325089000002
 21
18451.230504999989
 31
0.0
  0
LINE
  5
3943
  8
2-0
  6
CONTINUOUS
 62
     3
 10
20182.322714000002
 20
18451.230504999989
 30
0.0
 11
20152.325089000002
 21
18451.230504999989
 31
0.0
  0
LINE
  5
3944
  8
2-0
  6
CONTINUOUS
 62
     3
 10
20182.322714000002
 20
18445.23454300001
 30
0.0
 11
20182.322714000002
 21
18451.230504999989
 31
0.0
  0
LINE
  5
3945
  8
2-0
  6
CONTINUOUS
 62
     3
 10
20182.322714000002
 20
18461.32605
 30
0.0
 11
20152.325089000002
 21
18461.32605
 31
0.0
  0
LINE
  5
3946
  8
2-0
  6
CONTINUOUS
 62
     3
 10
20182.322714000002
 20
18443.324307999988
 30
0.0
 11
20182.322714000002
 21
18461.32605
 31
0.0
  0
LINE
  5
3947
  8
2-0
  6
CONTINUOUS
 62
     3
 10
20157.329312000002
 20
18443.324307999988
 30
0.0
 11
20182.322714000002
 21
18443.324307999988
 31
0.0
  0
LINE
  5
3948
  8
2-0
  6
CONTINUOUS
 62
     3
 10
20157.329312000002
 20
18448.330509999989
 30
0.0
 11
20157.329312000002
 21
18443.324307999988
 31
0.0
  0
LINE
  5
3949
  8
2-0
  6
CONTINUOUS
 62
     3
 10
20164.326909999982
 20
18448.330509999989
 30
0.0
 11
20157.329312000002
 21
18448.330509999989
 31
0.0
  0
LINE
  5
394A
  8
2-0
  6
CONTINUOUS
 62
     3
 10
20164.326909999982
 20
17747.324572000001
 30
0.0
 11
20157.329312000002
 21
17747.324572000001
 31
0.0
  0
LINE
  5
394B
  8
2-0
  6
CONTINUOUS
 62
     3
 10
20157.329312000002
 20
17747.324572000001
 30
0.0
 11
20157.329312000002
 21
17742.336185
 31
0.0
  0
LINE
  5
394C
  8
2-0
  6
CONTINUOUS
 62
     3
 10
20157.329312000002
 20
17742.336185
 30
0.0
 11
20182.322714000002
 21
17742.336185
 31
0.0
  0
LINE
  5
394D
  8
2-0
  6
CONTINUOUS
 62
     3
 10
20182.322714000002
 20
17742.336185
 30
0.0
 11
20182.322714000002
 21
17760.331988000002
 31
0.0
  0
LINE
  5
394E
  8
2-0
  6
CONTINUOUS
 62
     3
 10
20182.322714000002
 20
17760.331988000002
 30
0.0
 11
20152.325089000002
 21
17760.331988000002
 31
0.0
  0
LINE
  5
394F
  8
2-0
  6
CONTINUOUS
 62
     3
 10
20182.322714000002
 20
17744.234542999991
 30
0.0
 11
20182.322714000002
 21
17750.230504999981
 31
0.0
  0
LINE
  5
3950
  8
2-0
  6
CONTINUOUS
 62
     3
 10
20182.322714000002
 20
17750.230504999981
 30
0.0
 11
20152.325089000002
 21
17750.230504999981
 31
0.0
  0
LINE
  5
3951
  8
2-0
  6
CONTINUOUS
 62
     3
 10
20152.325089000002
 20
17750.230504999981
 30
0.0
 11
20152.325089000002
 21
17713.231323
 31
0.0
  0
LINE
  5
3952
  8
2-0
  6
CONTINUOUS
 62
     3
 10
20182.322714000002
 20
17713.231323
 30
0.0
 11
20152.325089000002
 21
17713.231323
 31
0.0
  0
LINE
  5
3953
  8
2-0
  6
CONTINUOUS
 62
     3
 10
20182.322714000002
 20
17719.233223999989
 30
0.0
 11
20182.322714000002
 21
17713.231323
 31
0.0
  0
LINE
  5
3954
  8
2-0
  6
CONTINUOUS
 62
     3
 10
20182.322714000002
 20
17703.141716999991
 30
0.0
 11
20152.325089000002
 21
17703.141716999991
 31
0.0
  0
LINE
  5
3955
  8
2-0
  6
CONTINUOUS
 62
     3
 10
20182.322714000002
 20
17721.13752
 30
0.0
 11
20182.322714000002
 21
17703.141716999991
 31
0.0
  0
LINE
  5
3956
  8
2-0
  6
CONTINUOUS
 62
     3
 10
20157.329312000002
 20
17721.13752
 30
0.0
 11
20182.322714000002
 21
17721.13752
 31
0.0
  0
LINE
  5
3957
  8
2-0
  6
CONTINUOUS
 62
     3
 10
20157.329312000002
 20
17716.137256999991
 30
0.0
 11
20157.329312000002
 21
17721.13752
 31
0.0
  0
LINE
  5
3958
  8
2-0
  6
CONTINUOUS
 62
     3
 10
20164.326909999982
 20
17716.137256999991
 30
0.0
 11
20157.329312000002
 21
17716.137256999991
 31
0.0
  0
LINE
  5
3959
  8
2-0
  6
CONTINUOUS
 62
     3
 10
20155.211226999989
 20
16996.228143
 30
0.0
 11
20155.211226999989
 21
17016.229198000001
 31
0.0
  0
LINE
  5
395A
  8
2-0
  6
CONTINUOUS
 62
     3
 10
20155.211226999989
 20
17016.229198000001
 30
0.0
 11
20240.211754999978
 21
17016.229198000001
 31
0.0
  0
LINE
  5
395B
  8
2-0
  6
CONTINUOUS
 62
     3
 10
20164.326909999982
 20
17042.835908000001
 30
0.0
 11
20157.329312000002
 21
17042.835908000001
 31
0.0
  0
LINE
  5
395C
  8
2-0
  6
CONTINUOUS
 62
     3
 10
20157.329312000002
 20
17042.835908000001
 30
0.0
 11
20157.329312000002
 21
17037.841582000001
 31
0.0
  0
LINE
  5
395D
  8
2-0
  6
CONTINUOUS
 62
     3
 10
20157.329312000002
 20
17037.841582000001
 30
0.0
 11
20182.322714000002
 21
17037.841582000001
 31
0.0
  0
LINE
  5
395E
  8
2-0
  6
CONTINUOUS
 62
     3
 10
20182.322714000002
 20
17037.841582000001
 30
0.0
 11
20182.322714000002
 21
17055.83738600001
 31
0.0
  0
LINE
  5
395F
  8
2-0
  6
CONTINUOUS
 62
     3
 10
20182.322714000002
 20
17055.83738600001
 30
0.0
 11
20152.325089000002
 21
17055.83738600001
 31
0.0
  0
LINE
  5
3960
  8
2-0
  6
CONTINUOUS
 62
     3
 10
20182.322714000002
 20
17046.228802000001
 30
0.0
 11
20182.322714000002
 21
17040.226901999991
 31
0.0
  0
LINE
  5
3961
  8
2-0
  6
CONTINUOUS
 62
     3
 10
20152.325089000002
 20
17046.228802000001
 30
0.0
 11
20182.322714000002
 21
17046.228802000001
 31
0.0
  0
LINE
  5
3962
  8
2-0
  6
CONTINUOUS
 62
     3
 10
20152.325089000002
 20
17055.83738600001
 30
0.0
 11
20152.325089000002
 21
17703.141716999991
 31
0.0
  0
LINE
  5
3963
  8
2-0
  6
CONTINUOUS
 62
     3
 10
20152.325089000002
 20
17760.331988000002
 30
0.0
 11
20152.325089000002
 21
18404.135778
 31
0.0
  0
LINE
  5
3964
  8
2-0
  6
CONTINUOUS
 62
     3
 10
20152.325089000002
 20
16901.22708700001
 30
0.0
 11
20182.322714000002
 21
16901.22708700001
 31
0.0
  0
LINE
  5
3965
  8
2-0
  6
CONTINUOUS
 62
     3
 10
20182.322714000002
 20
16901.22708700001
 30
0.0
 11
20182.322714000002
 21
16907.22898700001
 31
0.0
  0
LINE
  5
3966
  8
2-0
  6
CONTINUOUS
 62
     3
 10
20240.211754999978
 20
16931.232629999991
 30
0.0
 11
20155.211226999989
 21
16931.232629999991
 31
0.0
  0
LINE
  5
3967
  8
2-0
  6
CONTINUOUS
 62
     3
 10
20155.211226999989
 20
16931.232629999991
 30
0.0
 11
20155.211226999989
 21
16951.227747000012
 31
0.0
  0
LINE
  5
3968
  8
2-0
  6
CONTINUOUS
 62
     3
 10
20182.322714000002
 20
16891.618503999998
 30
0.0
 11
20152.325089000002
 21
16891.618503999998
 31
0.0
  0
LINE
  5
3969
  8
2-0
  6
CONTINUOUS
 62
     3
 10
20182.322714000002
 20
16909.614306999982
 30
0.0
 11
20182.322714000002
 21
16891.618503999998
 31
0.0
  0
LINE
  5
396A
  8
2-0
  6
CONTINUOUS
 62
     3
 10
20157.329312000002
 20
16909.614306999982
 30
0.0
 11
20182.322714000002
 21
16909.614306999982
 31
0.0
  0
LINE
  5
396B
  8
2-0
  6
CONTINUOUS
 62
     3
 10
20157.329312000002
 20
16904.614043000009
 30
0.0
 11
20157.329312000002
 21
16909.614306999982
 31
0.0
  0
LINE
  5
396C
  8
2-0
  6
CONTINUOUS
 62
     3
 10
20164.326909999982
 20
16904.614043000009
 30
0.0
 11
20157.329312000002
 21
16904.614043000009
 31
0.0
  0
LINE
  5
396D
  8
2-0
  6
CONTINUOUS
 62
     3
 10
20164.326909999982
 20
16200.131812499991
 30
0.0
 11
20157.329312000002
 21
16200.131812499991
 31
0.0
  0
LINE
  5
396E
  8
2-0
  6
CONTINUOUS
 62
     3
 10
20157.329312000002
 20
16200.131812499991
 30
0.0
 11
20157.329312000002
 21
16205.13207649998
 31
0.0
  0
LINE
  5
396F
  8
2-0
  6
CONTINUOUS
 62
     3
 10
20157.329312000002
 20
16205.13207649998
 30
0.0
 11
20182.322714000002
 21
16205.13207649998
 31
0.0
  0
LINE
  5
3970
  8
2-0
  6
CONTINUOUS
 62
     3
 10
20182.322714000002
 20
16205.13207649998
 30
0.0
 11
20182.322714000002
 21
16187.130334499991
 31
0.0
  0
LINE
  5
3971
  8
2-0
  6
CONTINUOUS
 62
     3
 10
20182.322714000002
 20
16187.130334499991
 30
0.0
 11
20152.325089000002
 21
16187.130334499991
 31
0.0
  0
LINE
  5
3972
  8
2-0
  6
CONTINUOUS
 62
     3
 10
20182.322714000002
 20
16203.227779500001
 30
0.0
 11
20182.322714000002
 21
16197.2308285
 31
0.0
  0
LINE
  5
3973
  8
2-0
  6
CONTINUOUS
 62
     3
 10
20182.322714000002
 20
16197.2308285
 30
0.0
 11
20152.325089000002
 21
16197.2308285
 31
0.0
  0
LINE
  5
3974
  8
2-0
  6
CONTINUOUS
 62
     3
 10
20152.325089000002
 20
16197.2308285
 30
0.0
 11
20152.325089000002
 21
16234.2309995
 31
0.0
  0
LINE
  5
3975
  8
2-0
  6
CONTINUOUS
 62
     3
 10
20182.322714000002
 20
16234.2309995
 30
0.0
 11
20152.325089000002
 21
16234.2309995
 31
0.0
  0
LINE
  5
3976
  8
2-0
  6
CONTINUOUS
 62
     3
 10
20182.322714000002
 20
16228.228109499991
 30
0.0
 11
20182.322714000002
 21
16234.2309995
 31
0.0
  0
LINE
  5
3977
  8
2-0
  6
CONTINUOUS
 62
     3
 10
20182.322714000002
 20
16244.3265445
 30
0.0
 11
20152.325089000002
 21
16244.3265445
 31
0.0
  0
LINE
  5
3978
  8
2-0
  6
CONTINUOUS
 62
     3
 10
20182.322714000002
 20
16226.318863500001
 30
0.0
 11
20182.322714000002
 21
16244.3265445
 31
0.0
  0
LINE
  5
3979
  8
2-0
  6
CONTINUOUS
 62
     3
 10
20157.329312000002
 20
16226.318863500001
 30
0.0
 11
20182.322714000002
 21
16226.318863500001
 31
0.0
  0
LINE
  5
397A
  8
2-0
  6
CONTINUOUS
 62
     3
 10
20157.329312000002
 20
16231.3250665
 30
0.0
 11
20157.329312000002
 21
16226.318863500001
 31
0.0
  0
LINE
  5
397B
  8
2-0
  6
CONTINUOUS
 62
     3
 10
20164.326909999982
 20
16231.3250665
 30
0.0
 11
20157.329312000002
 21
16231.3250665
 31
0.0
  0
LINE
  5
397C
  8
2-0
  6
CONTINUOUS
 62
     3
 10
20164.326909999982
 20
15530.565083
 30
0.0
 11
20157.329312000002
 21
15530.565083
 31
0.0
  0
LINE
  5
397D
  8
2-0
  6
CONTINUOUS
 62
     3
 10
20157.329312000002
 20
15530.565083
 30
0.0
 11
20157.329312000002
 21
15525.570758000011
 31
0.0
  0
LINE
  5
397E
  8
2-0
  6
CONTINUOUS
 62
     3
 10
20157.329312000002
 20
15525.570758000011
 30
0.0
 11
20182.322714000002
 21
15525.570758000011
 31
0.0
  0
LINE
  5
397F
  8
2-0
  6
CONTINUOUS
 62
     3
 10
20182.322714000002
 20
15525.570758000011
 30
0.0
 11
20182.322714000002
 21
15543.566561000011
 31
0.0
  0
LINE
  5
3980
  8
2-0
  6
CONTINUOUS
 62
     3
 10
20182.322714000002
 20
15543.566561000011
 30
0.0
 11
20152.325089000002
 21
15543.566561000011
 31
0.0
  0
LINE
  5
3981
  8
2-0
  6
CONTINUOUS
 62
     3
 10
20182.322714000002
 20
15527.469116
 30
0.0
 11
20182.322714000002
 21
15533.47101600001
 31
0.0
  0
LINE
  5
3982
  8
2-0
  6
CONTINUOUS
 62
     3
 10
20182.322714000002
 20
15533.47101600001
 30
0.0
 11
20152.325089000002
 21
15533.47101600001
 31
0.0
  0
LINE
  5
3983
  8
2-0
  6
CONTINUOUS
 62
     3
 10
20152.325089000002
 20
15496.471835
 30
0.0
 11
20152.325089000002
 21
15533.47101600001
 31
0.0
  0
LINE
  5
3984
  8
2-0
  6
CONTINUOUS
 62
     3
 10
20182.322714000002
 20
15496.471835
 30
0.0
 11
20152.325089000002
 21
15496.471835
 31
0.0
  0
LINE
  5
3985
  8
2-0
  6
CONTINUOUS
 62
     3
 10
20182.322714000002
 20
15502.468785999999
 30
0.0
 11
20182.322714000002
 21
15496.471835
 31
0.0
  0
LINE
  5
3986
  8
2-0
  6
CONTINUOUS
 62
     3
 10
20182.322714000002
 20
15486.370351
 30
0.0
 11
20152.325089000002
 21
15486.370351
 31
0.0
  0
LINE
  5
3987
  8
2-0
  6
CONTINUOUS
 62
     3
 10
20182.322714000002
 20
15504.378032000001
 30
0.0
 11
20182.322714000002
 21
15486.370351
 31
0.0
  0
LINE
  5
3988
  8
2-0
  6
CONTINUOUS
 62
     3
 10
20157.329312000002
 20
15504.378032000001
 30
0.0
 11
20182.322714000002
 21
15504.378032000001
 31
0.0
  0
LINE
  5
3989
  8
2-0
  6
CONTINUOUS
 62
     3
 10
20157.329312000002
 20
15499.377768000009
 30
0.0
 11
20157.329312000002
 21
15504.378032000001
 31
0.0
  0
LINE
  5
398A
  8
2-0
  6
CONTINUOUS
 62
     3
 10
20164.326909999982
 20
15499.377768000009
 30
0.0
 11
20157.329312000002
 21
15499.377768000009
 31
0.0
  0
LINE
  5
398B
  8
2-0
  6
CONTINUOUS
 62
     3
 10
20152.325089000002
 20
16891.618503999998
 30
0.0
 11
20152.325089000002
 21
16244.3265445
 31
0.0
  0
LINE
  5
398C
  8
2-0
  6
CONTINUOUS
 62
     3
 10
20152.325089000002
 20
17046.228802000001
 30
0.0
 11
20152.325089000002
 21
16901.22708700001
 31
0.0
  0
LINE
  5
398D
  8
2-0
  6
CONTINUOUS
 62
     3
 10
20240.211754999978
 20
17016.229198000001
 30
0.0
 11
20240.211754999978
 21
16931.232629999991
 31
0.0
  0
LINE
  5
398E
  8
2-0
  6
CONTINUOUS
 62
     3
 10
20164.326909999982
 20
14798.136761
 30
0.0
 11
20157.329312000002
 21
14798.136761
 31
0.0
  0
LINE
  5
398F
  8
2-0
  6
CONTINUOUS
 62
     3
 10
20157.329312000002
 20
14798.136761
 30
0.0
 11
20157.329312000002
 21
14803.131087000011
 31
0.0
  0
LINE
  5
3990
  8
2-0
  6
CONTINUOUS
 62
     3
 10
20157.329312000002
 20
14803.131087000011
 30
0.0
 11
20182.322714000002
 21
14803.131087000011
 31
0.0
  0
LINE
  5
3991
  8
2-0
  6
CONTINUOUS
 62
     3
 10
20182.322714000002
 20
14803.131087000011
 30
0.0
 11
20182.322714000002
 21
14785.135283000011
 31
0.0
  0
LINE
  5
3992
  8
2-0
  6
CONTINUOUS
 62
     3
 10
20182.322714000002
 20
14785.135283000011
 30
0.0
 11
20152.325089000002
 21
14785.135283000011
 31
0.0
  0
LINE
  5
3993
  8
2-0
  6
CONTINUOUS
 62
     3
 10
20182.322714000002
 20
14801.23371800001
 30
0.0
 11
20182.322714000002
 21
14795.230828000011
 31
0.0
  0
LINE
  5
3994
  8
2-0
  6
CONTINUOUS
 62
     3
 10
20182.322714000002
 20
14795.230828000011
 30
0.0
 11
20152.325089000002
 21
14795.230828000011
 31
0.0
  0
LINE
  5
3995
  8
2-0
  6
CONTINUOUS
 62
     3
 10
20152.325089000002
 20
14795.230828000011
 30
0.0
 11
20152.325089000002
 21
14832.231
 31
0.0
  0
LINE
  5
3996
  8
2-0
  6
CONTINUOUS
 62
     3
 10
20182.322714000002
 20
14832.231
 30
0.0
 11
20152.325089000002
 21
14832.231
 31
0.0
  0
LINE
  5
3997
  8
2-0
  6
CONTINUOUS
 62
     3
 10
20182.322714000002
 20
14826.234047999989
 30
0.0
 11
20182.322714000002
 21
14832.231
 31
0.0
  0
LINE
  5
3998
  8
2-0
  6
CONTINUOUS
 62
     3
 10
20182.322714000002
 20
14842.331493000011
 30
0.0
 11
20152.325089000002
 21
14842.331493000011
 31
0.0
  0
LINE
  5
3999
  8
2-0
  6
CONTINUOUS
 62
     3
 10
20182.322714000002
 20
14824.32480200001
 30
0.0
 11
20182.322714000002
 21
14842.331493000011
 31
0.0
  0
LINE
  5
399A
  8
2-0
  6
CONTINUOUS
 62
     3
 10
20157.329312000002
 20
14824.32480200001
 30
0.0
 11
20182.322714000002
 21
14824.32480200001
 31
0.0
  0
LINE
  5
399B
  8
2-0
  6
CONTINUOUS
 62
     3
 10
20157.329312000002
 20
14829.33001500001
 30
0.0
 11
20157.329312000002
 21
14824.32480200001
 31
0.0
  0
LINE
  5
399C
  8
2-0
  6
CONTINUOUS
 62
     3
 10
20164.326909999982
 20
14829.33001500001
 30
0.0
 11
20157.329312000002
 21
14829.33001500001
 31
0.0
  0
LINE
  5
399D
  8
2-0
  6
CONTINUOUS
 62
     3
 10
20182.322714000002
 20
13771.73284099999
 30
0.0
 11
20182.322714000002
 21
13777.73770999999
 31
0.0
  0
LINE
  5
399E
  8
2-0
  6
CONTINUOUS
 62
     3
 10
20182.322714000002
 20
13777.73770999999
 30
0.0
 11
20152.325089000002
 21
13777.73770999999
 31
0.0
  0
LINE
  5
399F
  8
2-0
  6
CONTINUOUS
 62
     3
 10
20152.325089000002
 20
13777.73770999999
 30
0.0
 11
20152.325089000002
 21
13662.733619000001
 31
0.0
  0
LINE
  5
39A0
  8
2-0
  6
CONTINUOUS
 62
     3
 10
20152.325089000002
 20
13662.733619000001
 30
0.0
 11
20237.32363699999
 21
13662.733619000001
 31
0.0
  0
LINE
  5
39A1
  8
2-0
  6
CONTINUOUS
 62
     3
 10
20237.32363699999
 20
13662.733619000001
 30
0.0
 11
20237.32363699999
 21
13747.729198000001
 31
0.0
  0
LINE
  5
39A2
  8
2-0
  6
CONTINUOUS
 62
     3
 10
20237.32363699999
 20
13747.729198000001
 30
0.0
 11
20205.326698999968
 21
13747.729198000001
 31
0.0
  0
LINE
  5
39A3
  8
2-0
  6
CONTINUOUS
 62
     3
 10
20164.326909999982
 20
13774.767443000001
 30
0.0
 11
20157.329312000002
 21
13774.767443000001
 31
0.0
  0
LINE
  5
39A4
  8
2-0
  6
CONTINUOUS
 62
     3
 10
20157.329312000002
 20
13774.767443000001
 30
0.0
 11
20157.329312000002
 21
13769.77014799998
 31
0.0
  0
LINE
  5
39A5
  8
2-0
  6
CONTINUOUS
 62
     3
 10
20157.329312000002
 20
13769.77014799998
 30
0.0
 11
20182.322714000002
 21
13769.77014799998
 31
0.0
  0
LINE
  5
39A6
  8
2-0
  6
CONTINUOUS
 62
     3
 10
20182.322714000002
 20
13769.77014799998
 30
0.0
 11
20182.322714000002
 21
13787.768921000001
 31
0.0
  0
LINE
  5
39A7
  8
2-0
  6
CONTINUOUS
 62
     3
 10
20182.322714000002
 20
13787.768921000001
 30
0.0
 11
20152.325089000002
 21
13787.768921000001
 31
0.0
  0
LINE
  5
39A8
  8
2-0
  6
CONTINUOUS
 62
     3
 10
20152.325089000002
 20
14842.331493000011
 30
0.0
 11
20152.325089000002
 21
15486.370351
 31
0.0
  0
LINE
  5
39A9
  8
2-0
  6
CONTINUOUS
 62
     3
 10
20152.325089000002
 20
18461.32605
 30
0.0
 11
20152.325089000002
 21
19105.136767499989
 31
0.0
  0
LINE
  5
39AA
  8
2-0
  6
CONTINUOUS
 62
     3
 10
20152.325089000002
 20
16187.130334499991
 30
0.0
 11
20152.325089000002
 21
15543.566561000011
 31
0.0
  0
LINE
  5
39AB
  8
2-0
  6
CONTINUOUS
 62
     3
 10
24671.319677999982
 20
19819.23302600002
 30
0.0
 11
24671.319677999982
 21
19934.229199000009
 31
0.0
  0
LINE
  5
39AC
  8
2-0
  6
CENTER2
 62
     6
 10
18865.366816999991
 20
19891.730914
 30
0.0
 11
25521.320997999988
 21
19891.730914
 31
0.0
  0
LINE
  5
39AD
  8
2-0
  6
CENTER2
 62
     6
 10
18865.366816999991
 20
16973.730914
 30
0.0
 11
25521.320997999988
 21
16973.730914
 31
0.0
  0
LINE
  5
39AE
  8
2-0
  6
CENTER2
 62
     6
 10
18865.366816999991
 20
13705.230913999991
 30
0.0
 11
25521.320997999988
 21
13705.230913999991
 31
0.0
  0
LINE
  5
39AF
  8
2-0
  6
CONTINUOUS
 62
     3
 10
20617.913071999999
 20
19922.229357000011
 30
0.0
 11
20617.913071999999
 21
19929.234873000001
 31
0.0
  0
LINE
  5
39B0
  8
2-0
  6
CONTINUOUS
 62
     3
 10
20617.913071999999
 20
19929.234873000001
 30
0.0
 11
20612.91280799999
 21
19929.234873000001
 31
0.0
  0
LINE
  5
39B1
  8
2-0
  6
CONTINUOUS
 62
     3
 10
20612.91280799999
 20
19929.234873000001
 30
0.0
 11
20612.91280799999
 21
19904.22563600001
 31
0.0
  0
LINE
  5
39B2
  8
2-0
  6
CONTINUOUS
 62
     3
 10
20612.91280799999
 20
19904.22563600001
 30
0.0
 11
20630.914550000001
 21
19904.22563600001
 31
0.0
  0
LINE
  5
39B3
  8
2-0
  6
CONTINUOUS
 62
     3
 10
20630.914550000001
 20
19904.22563600001
 30
0.0
 11
20630.914550000001
 21
19934.229199000009
 31
0.0
  0
LINE
  5
39B4
  8
2-0
  6
CONTINUOUS
 62
     3
 10
20614.815125000001
 20
19904.22563600001
 30
0.0
 11
20620.81900499999
 21
19904.22563600001
 31
0.0
  0
LINE
  5
39B5
  8
2-0
  6
CONTINUOUS
 62
     3
 10
20620.81900499999
 20
19904.22563600001
 30
0.0
 11
20620.81900499999
 21
19934.229199000009
 31
0.0
  0
LINE
  5
39B6
  8
2-0
  6
CONTINUOUS
 62
     3
 10
20583.823782999982
 20
19934.229199000009
 30
0.0
 11
20620.81900499999
 21
19934.229199000009
 31
0.0
  0
LINE
  5
39B7
  8
2-0
  6
CONTINUOUS
 62
     3
 10
20583.823782999982
 20
19904.22563600001
 30
0.0
 11
20583.823782999982
 21
19934.229199000009
 31
0.0
  0
LINE
  5
39B8
  8
2-0
  6
CONTINUOUS
 62
     3
 10
20589.817765
 20
19904.22563600001
 30
0.0
 11
20583.823782999982
 21
19904.22563600001
 31
0.0
  0
LINE
  5
39B9
  8
2-0
  6
CONTINUOUS
 62
     3
 10
20573.728238
 20
19904.22563600001
 30
0.0
 11
20573.728238
 21
19934.229199000009
 31
0.0
  0
LINE
  5
39BA
  8
2-0
  6
CONTINUOUS
 62
     3
 10
20591.724041000001
 20
19904.22563600001
 30
0.0
 11
20573.728238
 21
19904.22563600001
 31
0.0
  0
LINE
  5
39BB
  8
2-0
  6
CONTINUOUS
 62
     3
 10
20591.724041000001
 20
19929.234873000001
 30
0.0
 11
20591.724041000001
 21
19904.22563600001
 31
0.0
  0
LINE
  5
39BC
  8
2-0
  6
CONTINUOUS
 62
     3
 10
20586.725757
 20
19929.234873000001
 30
0.0
 11
20591.724041000001
 21
19929.234873000001
 31
0.0
  0
LINE
  5
39BD
  8
2-0
  6
CONTINUOUS
 62
     3
 10
20586.725757
 20
19922.229357000011
 30
0.0
 11
20586.725757
 21
19929.234873000001
 31
0.0
  0
LINE
  5
39BE
  8
2-0
  6
CONTINUOUS
 62
     3
 10
20277.62663599999
 20
19934.229199000009
 30
0.0
 11
20573.728238
 21
19934.229199000009
 31
0.0
  0
LINE
  5
39BF
  8
2-0
  6
CONTINUOUS
 62
     3
 10
20152.325089000002
 20
19849.23263000001
 30
0.0
 11
24590.317777999971
 21
19849.23263000001
 31
0.0
  0
LINE
  5
39C0
  8
2-0
  6
CONTINUOUS
 62
     3
 10
20152.325089000002
 20
14141.268644000011
 30
0.0
 11
20152.325089000002
 21
14785.135283000011
 31
0.0
  0
LINE
  5
39C1
  8
2-0
  6
CENTER2
 62
     6
 10
20194.821393999991
 20
21134.229199000009
 30
0.0
 11
20194.821393999991
 21
13079.46747999999
 31
0.0
  0
LINE
  5
39C2
  8
2-0
  6
CENTER2
 62
     6
 10
24628.821393999991
 20
21134.229199000009
 30
0.0
 11
24628.821393999991
 21
13079.46747999999
 31
0.0
  0
LINE
  5
39C3
  8
2-0
  6
CONTINUOUS
 62
     3
 10
24671.319677999982
 20
19808.935570000001
 30
0.0
 11
24671.319677999982
 21
19162.327039499982
 31
0.0
  0
LINE
  5
39C4
  8
2-0
  6
CONTINUOUS
 62
     3
 10
20152.325089000002
 20
19808.935570000001
 30
0.0
 11
20152.325089000002
 21
19162.327039499982
 31
0.0
  0
LINE
  5
39C5
  8
2-0
  6
CENTER2
 62
     6
 10
22762.321393999991
 20
21134.229199000009
 30
0.0
 11
22762.321393999991
 21
13513.82631299999
 31
0.0
  0
LINE
  5
39C6
  8
2-0
  6
CONTINUOUS
 62
     3
 10
20164.326909999982
 20
14097.13725600002
 30
0.0
 11
20157.329312000002
 21
14097.13725600002
 31
0.0
  0
LINE
  5
39C7
  8
2-0
  6
CONTINUOUS
 62
     3
 10
20157.329312000002
 20
14097.13725600002
 30
0.0
 11
20157.329312000002
 21
14102.131582000011
 31
0.0
  0
LINE
  5
39C8
  8
2-0
  6
CONTINUOUS
 62
     3
 10
20157.329312000002
 20
14102.131582000011
 30
0.0
 11
20182.322714000002
 21
14102.131582000011
 31
0.0
  0
LINE
  5
39C9
  8
2-0
  6
CONTINUOUS
 62
     3
 10
20182.322714000002
 20
14102.131582000011
 30
0.0
 11
20182.322714000002
 21
14084.135778000011
 31
0.0
  0
LINE
  5
39CA
  8
2-0
  6
CONTINUOUS
 62
     3
 10
20182.322714000002
 20
14084.135778000011
 30
0.0
 11
20152.325089000002
 21
14084.135778000011
 31
0.0
  0
LINE
  5
39CB
  8
2-0
  6
CONTINUOUS
 62
     3
 10
20182.322714000002
 20
14100.23322400002
 30
0.0
 11
20182.322714000002
 21
14094.231323000011
 31
0.0
  0
LINE
  5
39CC
  8
2-0
  6
CONTINUOUS
 62
     3
 10
20182.322714000002
 20
14094.231323000011
 30
0.0
 11
20152.325089000002
 21
14094.231323000011
 31
0.0
  0
LINE
  5
39CD
  8
2-0
  6
CONTINUOUS
 62
     3
 10
20152.325089000002
 20
14094.231323000011
 30
0.0
 11
20152.325089000002
 21
14131.230505
 31
0.0
  0
LINE
  5
39CE
  8
2-0
  6
CONTINUOUS
 62
     3
 10
20182.322714000002
 20
14131.230505
 30
0.0
 11
20152.325089000002
 21
14131.230505
 31
0.0
  0
LINE
  5
39CF
  8
2-0
  6
CONTINUOUS
 62
     3
 10
20182.322714000002
 20
14125.23454300002
 30
0.0
 11
20182.322714000002
 21
14131.230505
 31
0.0
  0
LINE
  5
39D0
  8
2-0
  6
CONTINUOUS
 62
     3
 10
20182.322714000002
 20
14141.331988
 30
0.0
 11
20152.325089000002
 21
14141.331988
 31
0.0
  0
LINE
  5
39D1
  8
2-0
  6
CONTINUOUS
 62
     3
 10
20182.322714000002
 20
14123.324307999999
 30
0.0
 11
20182.322714000002
 21
14141.331988
 31
0.0
  0
LINE
  5
39D2
  8
2-0
  6
CONTINUOUS
 62
     3
 10
20157.329312000002
 20
14123.324307999999
 30
0.0
 11
20182.322714000002
 21
14123.324307999999
 31
0.0
  0
LINE
  5
39D3
  8
2-0
  6
CONTINUOUS
 62
     3
 10
20157.329312000002
 20
14128.330510000011
 30
0.0
 11
20157.329312000002
 21
14123.324307999999
 31
0.0
  0
LINE
  5
39D4
  8
2-0
  6
CONTINUOUS
 62
     3
 10
20164.326909999982
 20
14128.330510000011
 30
0.0
 11
20157.329312000002
 21
14128.330510000011
 31
0.0
  0
LINE
  5
39D5
  8
2-0
  6
CONTINUOUS
 62
     3
 10
20152.325089000002
 20
13787.768921000001
 30
0.0
 11
20152.325089000002
 21
14084.135778000011
 31
0.0
  0
LINE
  5
39D6
  8
2-0
  6
CONTINUOUS
 62
     3
 10
20233.323029999981
 20
13747.729198000001
 30
0.0
 11
20233.323029999981
 21
19934.229199000009
 31
0.0
  0
LINE
  5
39D7
  8
2-0
  6
CONTINUOUS
 62
     3
 10
24659.317856999998
 20
14097.137256000011
 30
0.0
 11
24666.319414000001
 21
14097.137256000011
 31
0.0
  0
LINE
  5
39D8
  8
2-0
  6
CONTINUOUS
 62
     3
 10
24666.319414000001
 20
14097.137256000011
 30
0.0
 11
24666.319414000001
 21
14102.131582000011
 31
0.0
  0
LINE
  5
39D9
  8
2-0
  6
CONTINUOUS
 62
     3
 10
24666.319414000001
 20
14102.131582000011
 30
0.0
 11
24641.322053999971
 21
14102.131582000011
 31
0.0
  0
LINE
  5
39DA
  8
2-0
  6
CONTINUOUS
 62
     3
 10
24641.322053999971
 20
14102.131582000011
 30
0.0
 11
24641.322053999971
 21
14084.135778000011
 31
0.0
  0
LINE
  5
39DB
  8
2-0
  6
CONTINUOUS
 62
     3
 10
24641.322053999971
 20
14084.135778000011
 30
0.0
 11
24671.319677999982
 21
14084.135778000011
 31
0.0
  0
LINE
  5
39DC
  8
2-0
  6
CONTINUOUS
 62
     3
 10
24641.322053999971
 20
14100.233224000011
 30
0.0
 11
24641.322053999971
 21
14094.231322999991
 31
0.0
  0
LINE
  5
39DD
  8
2-0
  6
CONTINUOUS
 62
     3
 10
24641.322053999971
 20
14094.231322999991
 30
0.0
 11
24671.319677999982
 21
14094.231322999991
 31
0.0
  0
LINE
  5
39DE
  8
2-0
  6
CONTINUOUS
 62
     3
 10
24671.319677999982
 20
14094.231322999991
 30
0.0
 11
24671.319677999982
 21
14131.230505
 31
0.0
  0
LINE
  5
39DF
  8
2-0
  6
CONTINUOUS
 62
     3
 10
24641.322053999971
 20
14131.230505
 30
0.0
 11
24671.319677999982
 21
14131.230505
 31
0.0
  0
LINE
  5
39E0
  8
2-0
  6
CONTINUOUS
 62
     3
 10
24641.322053999971
 20
14125.23454300002
 30
0.0
 11
24641.322053999971
 21
14131.230505
 31
0.0
  0
LINE
  5
39E1
  8
2-0
  6
CONTINUOUS
 62
     3
 10
24641.322053999971
 20
14141.331988
 30
0.0
 11
24671.319677999982
 21
14141.331988
 31
0.0
  0
LINE
  5
39E2
  8
2-0
  6
CONTINUOUS
 62
     3
 10
24641.322053999971
 20
14123.32430799999
 30
0.0
 11
24641.322053999971
 21
14141.331988
 31
0.0
  0
LINE
  5
39E3
  8
2-0
  6
CONTINUOUS
 62
     3
 10
24666.319414000001
 20
14123.32430799999
 30
0.0
 11
24641.322053999971
 21
14123.32430799999
 31
0.0
  0
LINE
  5
39E4
  8
2-0
  6
CONTINUOUS
 62
     3
 10
24666.319414000001
 20
14128.330509999991
 30
0.0
 11
24666.319414000001
 21
14123.32430799999
 31
0.0
  0
LINE
  5
39E5
  8
2-0
  6
CONTINUOUS
 62
     3
 10
24659.317856999998
 20
14128.330509999991
 30
0.0
 11
24666.319414000001
 21
14128.330509999991
 31
0.0
  0
LINE
  5
39E6
  8
2-0
  6
CONTINUOUS
 62
     3
 10
24671.319677999982
 20
13787.768921000001
 30
0.0
 11
24671.319677999982
 21
14084.135778000011
 31
0.0
  0
LINE
  5
39E7
  8
2-0
  6
CONTINUOUS
 62
     3
 10
24590.317777999971
 20
13747.729198000001
 30
0.0
 11
24590.317777999971
 21
19934.229199000009
 31
0.0
  0
LINE
  5
39E8
  8
2-0
  6
CONTINUOUS
 62
     3
 10
22719.829047999981
 20
19091.233619499999
 30
0.0
 11
22804.821658000001
 21
19091.233619499999
 31
0.0
  0
LINE
  5
39E9
  8
2-0
  6
CONTINUOUS
 62
     3
 10
22804.821658000001
 20
19176.228208500001
 30
0.0
 11
22719.829047999981
 21
19176.228208500001
 31
0.0
  0
LINE
  5
39EA
  8
2-0
  6
CONTINUOUS
 62
     3
 10
22719.829047999981
 20
19176.228208500001
 30
0.0
 11
22719.829047999981
 21
19091.233619499999
 31
0.0
  0
LINE
  5
39EB
  8
2-0
  6
CONTINUOUS
 62
     3
 10
22804.821658000001
 20
19091.233619499999
 30
0.0
 11
22804.821658000001
 21
19176.228208500001
 31
0.0
  0
CIRCLE
  5
39EC
  8
2-0
  6
CONTINUOUS
 62
     4
 10
18665.369126999991
 20
19891.730914
 30
0.0
 40
200.00001
  0
CIRCLE
  5
39ED
  8
2-0
  6
CONTINUOUS
 62
     4
 10
18665.369126999991
 20
16973.730914
 30
0.0
 40
200.00001
  0
CIRCLE
  5
39EE
  8
2-0
  6
CONTINUOUS
 62
     4
 10
18665.369126999991
 20
13705.230913999991
 30
0.0
 40
200.00001
  0
CIRCLE
  5
39EF
  8
2-0
  6
CONTINUOUS
 62
     4
 10
22762.321393999991
 20
21334.233818000012
 30
0.0
 40
200.00001
  0
CIRCLE
  5
39F0
  8
2-0
  6
CONTINUOUS
 62
     4
 10
20194.821393999991
 20
21334.233818000012
 30
0.0
 40
200.00001
  0
TEXT
  5
39F1
  8
2-0
  6
CONTINUOUS
 62
     7
 10
23025.666700999991
 20
13145.232035999999
 30
0.0
 40
160.0
  1
前柱（右）
 50
0.000213
 72
     4
 11
23441.666403593012
 21
13225.23358250079
 31
0.0
  0
TEXT
  5
39F2
  8
2-0
  6
CONTINUOUS
 62
     7
 10
23230.261824000001
 20
16424.22405200002
 30
0.0
 40
160.0
  1
壁パネル
 50
359.99982299999999
 72
     4
 11
23592.928737803551
 21
16504.222931637891
 31
0.0
  0
TEXT
  5
39F3
  8
2-0
  6
CONTINUOUS
 62
     7
 10
22950.258919999989
 20
17261.411948000012
 30
0.0
 40
160.0
  1
中柱（左右）
 50
0.000354
 72
     4
 11
23467.591759046201
 21
17341.415144324659
 31
0.0
  0
TEXT
  5
39F4
  8
2-0
  6
CONTINUOUS
 62
     7
 10
23630.261163999989
 20
14118.273302
 30
0.0
 40
160.0
  1
下枠
 50
0.001063
 72
     4
 11
23800.926346409291
 21
14198.276468339291
 31
0.0
  0
TEXT
  5
39F5
  8
2-0
  6
CONTINUOUS
 62
     7
 10
23125.22658799999
 20
18864.680686499989
 30
0.0
 40
160.0
  1
間柱（側）
 72
     4
 11
23546.559921333319
 21
18944.680686499989
 31
0.0
  0
TEXT
  5
39F6
  8
2-0
  6
CONTINUOUS
 62
     7
 10
25443.816906999979
 20
20744.228406999999
 30
0.0
 40
160.0
  1
後柱（左右）
 50
0.000354
 72
     4
 11
25955.816412712971
 21
20824.231570372842
 31
0.0
  0
TEXT
  5
39F7
  8
2-0
  6
CONTINUOUS
 62
     7
 10
18617.36975999998
 20
19797.250472000022
 30
0.0
 40
160.0
  1
C
 72
     4
 11
18670.703093333312
 21
19877.250472000022
 31
0.0
  0
TEXT
  5
39F8
  8
2-0
  6
CONTINUOUS
 62
     7
 10
18617.590475999979
 20
16903.336832000019
 30
0.0
 40
160.0
  1
B
 72
     4
 11
18670.923809333319
 21
16983.336832000019
 31
0.0
  0
TEXT
  5
39F9
  8
2-0
  6
CONTINUOUS
 62
     7
 10
18617.633035999981
 20
13616.62370299999
 30
0.0
 40
160.0
  1
A
 72
     4
 11
18670.96636933331
 21
13696.62370299999
 31
0.0
  0
TEXT
  5
39FA
  8
2-0
  6
CONTINUOUS
 62
     7
 10
22710.689611000002
 20
21238.708189000012
 30
0.0
 40
160.0
  1
2
 72
     4
 11
22764.02294433333
 21
21318.708189000012
 31
0.0
  0
TEXT
  5
39FB
  8
2-0
  6
CONTINUOUS
 62
     7
 10
20150.61478499998
 20
21245.466266000029
 30
0.0
 40
160.0
  1
1
 72
     4
 11
20177.281451666651
 21
21325.466266000029
 31
0.0
  0
LINE
  5
39FC
  8
2-0
  6
CONTINUOUS
 62
     3
 10
23889.321974999992
 20
19934.229199000009
 30
0.0
 11
23852.320812999991
 21
19934.229199000009
 31
0.0
  0
LINE
  5
39FD
  8
2-0
  6
CONTINUOUS
 62
     3
 10
23889.321974999992
 20
19904.22563600001
 30
0.0
 11
23889.321974999992
 21
19934.229199000009
 31
0.0
  0
LINE
  5
39FE
  8
2-0
  6
CONTINUOUS
 62
     3
 10
23883.322053999971
 20
19904.22563600001
 30
0.0
 11
23889.321974999992
 21
19904.22563600001
 31
0.0
  0
LINE
  5
39FF
  8
2-0
  6
CONTINUOUS
 62
     3
 10
23899.419498999981
 20
19904.22563600001
 30
0.0
 11
23899.419498999981
 21
19934.229199000009
 31
0.0
  0
LINE
  5
3A00
  8
2-0
  6
CONTINUOUS
 62
     3
 10
23881.415777999991
 20
19904.22563600001
 30
0.0
 11
23899.419498999981
 21
19904.22563600001
 31
0.0
  0
LINE
  5
3A01
  8
2-0
  6
CONTINUOUS
 62
     3
 10
23881.415777999991
 20
19929.234873000001
 30
0.0
 11
23881.415777999991
 21
19904.22563600001
 31
0.0
  0
LINE
  5
3A02
  8
2-0
  6
CONTINUOUS
 62
     3
 10
23886.41604199999
 20
19929.234873000001
 30
0.0
 11
23881.415777999991
 21
19929.234873000001
 31
0.0
  0
LINE
  5
3A03
  8
2-0
  6
CONTINUOUS
 62
     3
 10
23886.41604199999
 20
19922.229357000011
 30
0.0
 11
23886.41604199999
 21
19929.234873000001
 31
0.0
  0
LINE
  5
3A04
  8
2-0
  6
CONTINUOUS
 62
     3
 10
23855.226746999972
 20
19922.229357000011
 30
0.0
 11
23855.226746999972
 21
19929.234873000001
 31
0.0
  0
LINE
  5
3A05
  8
2-0
  6
CONTINUOUS
 62
     3
 10
23855.226746999972
 20
19929.234873000001
 30
0.0
 11
23860.227010999992
 21
19929.234873000001
 31
0.0
  0
LINE
  5
3A06
  8
2-0
  6
CONTINUOUS
 62
     3
 10
23860.227010999992
 20
19929.234873000001
 30
0.0
 11
23860.227010999992
 21
19904.22563600001
 31
0.0
  0
LINE
  5
3A07
  8
2-0
  6
CONTINUOUS
 62
     3
 10
23860.227010999992
 20
19904.22563600001
 30
0.0
 11
23842.227247999988
 21
19904.22563600001
 31
0.0
  0
LINE
  5
3A08
  8
2-0
  6
CONTINUOUS
 62
     3
 10
23842.227247999988
 20
19904.22563600001
 30
0.0
 11
23842.227247999988
 21
19934.229199000009
 31
0.0
  0
LINE
  5
3A09
  8
2-0
  6
CONTINUOUS
 62
     3
 10
23858.32073399999
 20
19904.22563600001
 30
0.0
 11
23852.320812999991
 21
19904.22563600001
 31
0.0
  0
LINE
  5
3A0A
  8
2-0
  6
CONTINUOUS
 62
     3
 10
23852.320812999991
 20
19904.22563600001
 30
0.0
 11
23852.320812999991
 21
19934.229199000009
 31
0.0
  0
LINE
  5
3A0B
  8
2-0
  6
CONTINUOUS
 62
     3
 10
24546.705023999992
 20
19934.229199000009
 30
0.0
 11
23899.419498999981
 21
19934.229199000009
 31
0.0
  0
LINE
  5
3A0C
  8
2-0
  6
CONTINUOUS
 62
     3
 10
23842.227247999988
 20
19934.229199000009
 30
0.0
 11
23198.414550000009
 21
19934.22919900003
 31
0.0
  0
LINE
  5
3A0D
  8
2-0
  6
CONTINUOUS
 62
     3
 10
23185.413071999988
 20
19922.229357000011
 30
0.0
 11
23185.413071999988
 21
19929.234873000001
 31
0.0
  0
LINE
  5
3A0E
  8
2-0
  6
CONTINUOUS
 62
     3
 10
23185.413071999988
 20
19929.234873000001
 30
0.0
 11
23180.41280799999
 21
19929.234873000001
 31
0.0
  0
LINE
  5
3A0F
  8
2-0
  6
CONTINUOUS
 62
     3
 10
23180.41280799999
 20
19929.234873000001
 30
0.0
 11
23180.41280799999
 21
19904.22563600001
 31
0.0
  0
LINE
  5
3A10
  8
2-0
  6
CONTINUOUS
 62
     3
 10
23180.41280799999
 20
19904.22563600001
 30
0.0
 11
23198.414550000001
 21
19904.22563600001
 31
0.0
  0
LINE
  5
3A11
  8
2-0
  6
CONTINUOUS
 62
     3
 10
23198.414550000001
 20
19904.22563600001
 30
0.0
 11
23198.414550000001
 21
19934.229199000009
 31
0.0
  0
LINE
  5
3A12
  8
2-0
  6
CONTINUOUS
 62
     3
 10
23182.315125000001
 20
19904.22563600001
 30
0.0
 11
23188.31900499999
 21
19904.22563600001
 31
0.0
  0
LINE
  5
3A13
  8
2-0
  6
CONTINUOUS
 62
     3
 10
23188.31900499999
 20
19904.22563600001
 30
0.0
 11
23188.31900499999
 21
19934.229199000009
 31
0.0
  0
LINE
  5
3A14
  8
2-0
  6
CONTINUOUS
 62
     3
 10
23151.323782999989
 20
19934.229199000009
 30
0.0
 11
23188.31900499999
 21
19934.229199000009
 31
0.0
  0
LINE
  5
3A15
  8
2-0
  6
CONTINUOUS
 62
     3
 10
23151.323782999989
 20
19904.22563600001
 30
0.0
 11
23151.323782999989
 21
19934.229199000009
 31
0.0
  0
LINE
  5
3A16
  8
2-0
  6
CONTINUOUS
 62
     3
 10
23157.317765
 20
19904.22563600001
 30
0.0
 11
23151.323782999989
 21
19904.22563600001
 31
0.0
  0
LINE
  5
3A17
  8
2-0
  6
CONTINUOUS
 62
     3
 10
23141.228238
 20
19904.22563600001
 30
0.0
 11
23141.228238
 21
19934.229199000009
 31
0.0
  0
LINE
  5
3A18
  8
2-0
  6
CONTINUOUS
 62
     3
 10
23159.224041000001
 20
19904.22563600001
 30
0.0
 11
23141.228238
 21
19904.22563600001
 31
0.0
  0
LINE
  5
3A19
  8
2-0
  6
CONTINUOUS
 62
     3
 10
23159.224041000001
 20
19929.234873000001
 30
0.0
 11
23159.224041000001
 21
19904.22563600001
 31
0.0
  0
LINE
  5
3A1A
  8
2-0
  6
CONTINUOUS
 62
     3
 10
23154.225756999989
 20
19929.234873000001
 30
0.0
 11
23159.224041000001
 21
19929.234873000001
 31
0.0
  0
LINE
  5
3A1B
  8
2-0
  6
CONTINUOUS
 62
     3
 10
23154.225756999989
 20
19922.229357000011
 30
0.0
 11
23154.225756999989
 21
19929.234873000001
 31
0.0
  0
LINE
  5
3A1C
  8
2-0
  6
CONTINUOUS
 62
     3
 10
22845.12663599999
 20
19934.229199000009
 30
0.0
 11
23141.228238
 21
19934.229199000009
 31
0.0
  0
LINE
  5
3A1D
  8
2-0
  6
CONTINUOUS
 62
     3
 10
22680.893897000002
 20
19934.229199000009
 30
0.0
 11
22032.919498999981
 21
19934.229199000009
 31
0.0
  0
LINE
  5
3A1E
  8
2-0
  6
CONTINUOUS
 62
     3
 10
24671.319677999982
 20
15486.370351
 30
0.0
 11
24671.319677999982
 21
14842.331493000011
 31
0.0
  0
LINE
  5
3A1F
  8
2-0
  6
CONTINUOUS
 62
     3
 10
24671.319677999982
 20
14785.135283
 30
0.0
 11
24671.319677999982
 21
14141.331988
 31
0.0
  0
CIRCLE
  5
3A20
  8
2-0
  6
CONTINUOUS
 62
     4
 10
24628.821393999991
 20
21334.233818000012
 30
0.0
 40
200.00001
  0
TEXT
  5
3A21
  8
2-0
  6
CONTINUOUS
 62
     7
 10
24577.189611000002
 20
21238.708189000012
 30
0.0
 40
160.0
  1
3
 72
     4
 11
24630.52294433333
 21
21318.708189000012
 31
0.0
  0
LINE
  5
3A22
  8
SUNPOU
  6
CONTINUOUS
 10
8882.5340609999967
 20
9424.5917609999997
 30
0.0
 11
8407.2449483597666
 21
9424.5917609999997
 31
0.0
  0
LINE
  5
3A23
  8
0-6
  6
CONTINUOUS
 62
     6
 10
22719.82211999999
 20
13747.730913999991
 30
0.0
 11
22457.854610999992
 21
14178.999720000011
 31
0.0
  0
LINE
  5
3A24
  8
0-6
  6
CONTINUOUS
 62
     6
 10
21468.617912999991
 20
14178.999720000011
 30
0.0
 11
22457.854610999992
 21
14178.999720000011
 31
0.0
  0
LINE
  5
3A25
  8
0-6
  6
CONTINUOUS
 62
     6
 10
22659.54775899999
 20
13898.32279
 30
0.0
 11
22719.82211999999
 21
13747.730913999991
 31
0.0
  0
LINE
  5
3A26
  8
0-6
  6
CONTINUOUS
 62
     6
 10
22719.82211999999
 20
13747.730913999991
 30
0.0
 11
22613.963404999991
 21
13870.634274
 31
0.0
  0
LINE
  5
3A27
  8
0-6
  6
CONTINUOUS
 62
     6
 10
22719.82211999999
 20
13747.730913999991
 30
0.0
 11
22659.54775899999
 21
13898.32279
 31
0.0
  0
LINE
  5
3A28
  8
0-6
  6
CONTINUOUS
 62
     6
 10
22659.54775899999
 20
13898.32279
 30
0.0
 11
22613.963404999991
 21
13870.634274
 31
0.0
  0
LINE
  5
3A29
  8
0-6
  6
CONTINUOUS
 62
     6
 10
22613.963404999991
 20
13870.634274
 30
0.0
 11
22719.82211999999
 21
13747.730913999991
 31
0.0
  0
LINE
  5
3A2A
  8
0-6
  6
CONTINUOUS
 62
     6
 10
22613.963404999991
 20
13870.634274
 30
0.0
 11
22659.54775899999
 21
13898.32279
 31
0.0
  0
TEXT
  5
3A2B
  8
0-6
  6
CONTINUOUS
 62
     7
 10
21548.618176999989
 20
14258.99899400001
 30
0.0
 40
160.0
  1
前柱（中）
 72
     4
 11
21964.618176999989
 21
14338.99899400001
 31
0.0
  0
LINE
  5
3A2C
  8
0-6
  6
CONTINUOUS
 62
     6
 10
22694.607011999979
 20
19810.47365600002
 30
0.0
 11
22382.050925999989
 21
19284.07809600003
 31
0.0
  0
LINE
  5
3A2D
  8
0-6
  6
CONTINUOUS
 62
     6
 10
21357.01265499998
 20
19284.07809600003
 30
0.0
 11
22382.050925999989
 21
19284.07809600003
 31
0.0
  0
LINE
  5
3A2E
  8
0-6
  6
CONTINUOUS
 62
     6
 10
22719.82211999999
 20
19096.228724000011
 30
0.0
 11
22104.09781499999
 21
18082.582583000021
 31
0.0
  0
LINE
  5
3A2F
  8
0-6
  6
CONTINUOUS
 62
     6
 10
21212.841348000002
 20
18082.582583000021
 30
0.0
 11
22104.09781499999
 21
18082.582583000021
 31
0.0
  0
LINE
  5
3A30
  8
0-6
  6
CONTINUOUS
 62
     6
 10
21360.035379999968
 20
18686.37631700002
 30
0.0
 11
22385.075629999981
 21
18686.37631700002
 31
0.0
  0
LINE
  5
3A31
  8
0-6
  6
CONTINUOUS
 62
     6
 10
20718.604055999971
 20
19766.65305300002
 30
0.0
 11
21360.035379999968
 21
18686.37631700002
 31
0.0
  0
LINE
  5
3A32
  8
0-6
  6
CONTINUOUS
 62
     6
 10
22659.54775899999
 20
18945.634868000001
 30
0.0
 11
22719.82211999999
 21
19096.228724000011
 31
0.0
  0
LINE
  5
3A33
  8
0-6
  6
CONTINUOUS
 62
     6
 10
22719.82211999999
 20
19096.228724000011
 30
0.0
 11
22613.963404999991
 21
18973.324374
 31
0.0
  0
LINE
  5
3A34
  8
0-6
  6
CONTINUOUS
 62
     6
 10
22719.82211999999
 20
19096.228724000011
 30
0.0
 11
22659.54775899999
 21
18945.634868000001
 31
0.0
  0
LINE
  5
3A35
  8
0-6
  6
CONTINUOUS
 62
     6
 10
22659.54775899999
 20
18945.634868000001
 30
0.0
 11
22613.963404999991
 21
18973.324374
 31
0.0
  0
LINE
  5
3A36
  8
0-6
  6
CONTINUOUS
 62
     6
 10
22613.963404999991
 20
18973.324374
 30
0.0
 11
22719.82211999999
 21
19096.228724000011
 31
0.0
  0
LINE
  5
3A37
  8
0-6
  6
CONTINUOUS
 62
     6
 10
22613.963404999991
 20
18973.324374
 30
0.0
 11
22659.54775899999
 21
18945.634868000001
 31
0.0
  0
LINE
  5
3A38
  8
0-6
  6
CONTINUOUS
 62
     6
 10
20741.53479999999
 20
19780.268182000011
 30
0.0
 11
20636.917242999989
 21
19904.227615
 31
0.0
  0
LINE
  5
3A39
  8
0-6
  6
CONTINUOUS
 62
     6
 10
20636.917242999989
 20
19904.227615
 30
0.0
 11
20695.675292999989
 21
19753.037925000011
 31
0.0
  0
LINE
  5
3A3A
  8
0-6
  6
CONTINUOUS
 62
     6
 10
20636.917242999989
 20
19904.227615
 30
0.0
 11
20741.53479999999
 21
19780.268182000011
 31
0.0
  0
LINE
  5
3A3B
  8
0-6
  6
CONTINUOUS
 62
     6
 10
20741.53479999999
 20
19780.268182000011
 30
0.0
 11
20695.675292999989
 21
19753.037925000011
 31
0.0
  0
LINE
  5
3A3C
  8
0-6
  6
CONTINUOUS
 62
     6
 10
20695.675292999989
 20
19753.037925000011
 30
0.0
 11
20636.917242999989
 21
19904.227615
 31
0.0
  0
LINE
  5
3A3D
  8
0-6
  6
CONTINUOUS
 62
     6
 10
20695.675292999989
 20
19753.037925000011
 30
0.0
 11
20741.53479999999
 21
19780.268182000011
 31
0.0
  0
LINE
  5
3A3E
  8
0-6
  6
CONTINUOUS
 62
     6
 10
22589.989454999992
 20
19686.51026400003
 30
0.0
 11
22694.607011999979
 21
19810.47365600002
 31
0.0
  0
LINE
  5
3A3F
  8
0-6
  6
CONTINUOUS
 62
     6
 10
22694.607011999979
 20
19810.47365600002
 30
0.0
 11
22635.846982999981
 21
19659.283966000021
 31
0.0
  0
LINE
  5
3A40
  8
0-6
  6
CONTINUOUS
 62
     6
 10
22694.607011999979
 20
19810.47365600002
 30
0.0
 11
22589.989454999992
 21
19686.51026400003
 31
0.0
  0
LINE
  5
3A41
  8
0-6
  6
CONTINUOUS
 62
     6
 10
22589.989454999992
 20
19686.51026400003
 30
0.0
 11
22635.846982999981
 21
19659.283966000021
 31
0.0
  0
LINE
  5
3A42
  8
0-6
  6
CONTINUOUS
 62
     6
 10
22635.846982999981
 20
19659.283966000021
 30
0.0
 11
22694.607011999979
 21
19810.47365600002
 31
0.0
  0
LINE
  5
3A43
  8
0-6
  6
CONTINUOUS
 62
     6
 10
22635.846982999981
 20
19659.283966000021
 30
0.0
 11
22589.989454999992
 21
19686.51026400003
 31
0.0
  0
TEXT
  5
3A44
  8
0-6
  6
CONTINUOUS
 62
     7
 10
21437.012918999972
 20
19364.078360000021
 30
0.0
 40
160.0
  1
後柱（中）
 72
     4
 11
21853.012918999972
 21
19444.078360000021
 31
0.0
  0
TEXT
  5
3A45
  8
0-6
  6
CONTINUOUS
 62
     7
 10
21292.841611999989
 20
18162.582847000042
 30
0.0
 40
160.0
  1
梁補助柱
 72
     4
 11
21655.508278666661
 21
18242.582847000042
 31
0.0
  0
TEXT
  5
3A46
  8
0-6
  6
CONTINUOUS
 62
     7
 10
21440.035643999981
 20
18766.376581000011
 30
0.0
 40
160.0
  1
間柱（後）
 72
     4
 11
21861.36897733331
 21
18846.376581000011
 31
0.0
  0
LINE
  5
3A47
  8
0-2
  6
CONTINUOUS
 62
     4
 10
24059.261414000011
 20
6923.8159539999951
 30
0.0
 11
23959.262073999998
 21
6923.8159539999951
 31
0.0
  0
LINE
  5
3A48
  8
0-2
  6
CONTINUOUS
 62
     4
 10
23331.877413000009
 20
6923.8159539999951
 30
0.0
 11
23431.874774000011
 21
6923.8159539999951
 31
0.0
  0
CIRCLE
  5
3A49
  8
0-4
  6
CONTINUOUS
 62
     4
 10
23695.570403500002
 20
6662.6461909999962
 30
0.0
 40
18.487504999999981
  0
LINE
  5
3A4A
  8
SUNPOU
  6
CONTINUOUS
 10
8969.8624749999908
 20
20114.226823000001
 30
0.0
 11
8969.8624749999908
 21
20911.19409077847
 31
0.0
  0
LINE
  5
3A4B
  8
SUNPOU
  6
CONTINUOUS
 10
8969.8624749999908
 20
13512.735599
 30
0.0
 11
8969.8624749999908
 21
12837.30948318962
 31
0.0
  0
CIRCLE
  5
3A4C
  8
0-5
  6
CONTINUOUS
 62
     4
 10
15128.714697999991
 20
1375.999982
 30
0.0
 40
20.0
  0
ARC
  5
3A4D
  8
0-5
  6
CONTINUOUS
 62
     4
 10
15128.714697999991
 20
1375.999982
 30
0.0
 40
20.0
 50
180.0
 51
0.0
  0
ARC
  5
3A4E
  8
0-5
  6
CONTINUOUS
 62
     4
 10
15128.714697999991
 20
1375.999982
 30
0.0
 40
20.0
 50
0.0
 51
179.99998499999839
  0
CIRCLE
  5
3A4F
  8
0-5
  6
CONTINUOUS
 62
     4
 10
15128.714697999991
 20
1775.999941
 30
0.0
 40
20.0
  0
ARC
  5
3A50
  8
0-5
  6
CONTINUOUS
 62
     4
 10
15128.714697999991
 20
1775.999941
 30
0.0
 40
20.0
 50
180.0
 51
0.0
  0
ARC
  5
3A51
  8
0-5
  6
CONTINUOUS
 62
     4
 10
15128.714697999991
 20
1775.999941
 30
0.0
 40
20.0
 50
0.0
 51
179.99998499999839
  0
TEXT
  5
3A52
  8
0-5
  6
CONTINUOUS
 62
     7
 10
16669.776841999981
 20
1655.999793
 30
0.0
 40
160.0
  1
H
  0
TEXT
  5
3A53
  8
0-5
  6
CONTINUOUS
 62
     7
 10
15176.145943
 20
1655.999793
 30
0.0
 40
160.0
  1
（ ）内寸法ハ、  タ イプヲ示ス。
  0
TEXT
  5
3A54
  8
0-5
  6
CONTINUOUS
 62
     7
 10
15288.712256999979
 20
1255.9999580000001
 30
0.0
 40
160.0
  1
有効高サハ、基礎高サヲ含ミマセン。
  0
LINE
  5
3A57
  8
WAKUSEN-01
 10
868.00000000000193
 20
22484.000000000011
 30
0.0
 11
32764.000000000011
 21
22484.000000000011
 31
0.0
  0
LINE
  5
3A5A
  8
WAKUSEN-01
 10
20560.0
 20
2484.0
 30
0.0
 11
32764.0
 21
2484.0
 31
0.0
  0
LINE
  5
3A5B
  8
WAKUSEN-02
 10
20560.0
 20
1655.9999999999991
 30
0.0
 11
26868.0
 21
1655.9999999999991
 31
0.0
  0
TEXT
  5
3A5C
  8
WAKUMOJI-01
 10
20670.260259962761
 20
2125.9030093393221
 30
0.0
 40
240.0
  1
名　称
  7
WAKUMOJI
  0
TEXT
  5
3A5D
  8
WAKUMOJI-01
 10
20656.505485091919
 20
1319.12897497982
 30
0.0
 40
240.0
  1
機種名
  7
WAKUMOJI
  0
LINE
  5
3A60
  8
YODOROGO
 10
29977.604341291921
 20
1995.7494964292871
 30
0.0
 11
29829.604341291921
 21
1995.7494964292871
 31
0.0
1001
AUTOCAD_POSTSCRIPT_FIGURE
1002
{
1000
PSFILL
1000
Grayscale
1000
Grayscale
1070
    25
1002
}
  0
LINE
  5
3A61
  8
YODOROGO
 10
29829.604341291921
 20
1947.749496429288
 30
0.0
 11
29977.604341291921
 21
1947.749496429288
 31
0.0
1001
AUTOCAD_POSTSCRIPT_FIGURE
1002
{
1000
PSFILL
1000
Grayscale
1000
Grayscale
1070
    25
1002
}
  0
LINE
  5
3A62
  8
YODOROGO
 10
29977.604341291921
 20
1907.7494964292871
 30
0.0
 11
29829.604341291921
 21
1907.7494964292871
 31
0.0
1001
AUTOCAD_POSTSCRIPT_FIGURE
1002
{
1000
PSFILL
1000
Grayscale
1000
Grayscale
1070
    25
1002
}
  0
LINE
  5
3A63
  8
YODOROGO
 10
29829.604341291921
 20
1859.749496429288
 30
0.0
 11
29977.604341291921
 21
1859.749496429288
 31
0.0
1001
AUTOCAD_POSTSCRIPT_FIGURE
1002
{
1000
PSFILL
1000
Grayscale
1000
Grayscale
1070
    25
1002
}
  0
LINE
  5
3A64
  8
YODOROGO
 10
29977.604341291921
 20
1819.7494964292871
 30
0.0
 11
29829.604341291921
 21
1819.7494964292871
 31
0.0
1001
AUTOCAD_POSTSCRIPT_FIGURE
1002
{
1000
PSFILL
1000
Grayscale
1000
Grayscale
1070
    25
1002
}
  0
LINE
  5
3A65
  8
YODOROGO
 10
29921.60434129191
 20
1707.749496429288
 30
0.0
 11
29977.604341291921
 21
1707.749496429288
 31
0.0
1001
AUTOCAD_POSTSCRIPT_FIGURE
1002
{
1000
PSFILL
1000
Grayscale
1000
Grayscale
1070
    25
1002
}
  0
LINE
  5
3A66
  8
YODOROGO
 10
29737.604341291921
 20
1427.749496429288
 30
0.0
 11
29937.604341291932
 21
1481.3393349155101
 31
0.0
  0
LINE
  5
3A67
  8
YODOROGO
 10
29949.60434129191
 20
1707.749496429288
 30
0.0
 11
29885.604341291921
 21
1707.749496429288
 31
0.0
  0
ARC
  5
3A68
  8
YODOROGO
 10
30254.34774982791
 20
1807.864609233261
 30
0.0
 40
381.88686420564721
 50
213.96111677667841
 51
264.47872074317792
  0
ARC
  5
3A69
  8
YODOROGO
 10
30254.347749827921
 20
1807.864609233302
 30
0.0
 40
381.8868642056816
 50
208.14114420486601
 51
212.9210361185994
  0
LINE
  5
3A6A
  8
YODOROGO
 10
29771.409872985321
 20
1556.807661346234
 30
0.0
 11
29933.78413250855
 21
1600.3157130570869
 31
0.0
  0
LINE
  5
3A6B
  8
YODOROGO
 10
29737.604341291921
 20
1427.749496429288
 30
0.0
 11
29937.604341291932
 21
1481.3393349155101
 31
0.0
  0
LINE
  5
3A6C
  8
YODOROGO
 10
29949.60434129191
 20
1707.749496429288
 30
0.0
 11
29885.604341291921
 21
1707.749496429288
 31
0.0
  0
ARC
  5
3A6D
  8
YODOROGO
 10
30254.34774982791
 20
1807.864609233261
 30
0.0
 40
381.88686420564721
 50
213.96111677667841
 51
264.47872074317792
  0
LINE
  5
3A6E
  8
YODOROGO
 10
28793.60434129191
 20
1819.7494964292871
 30
0.0
 11
28433.60434129191
 21
1819.7494964292871
 31
0.0
  0
LINE
  5
3A6F
  8
YODOROGO
 10
28513.60434129191
 20
1427.749496429288
 30
0.0
 11
28793.60434129191
 21
1427.749496429288
 31
0.0
  0
LINE
  5
3A70
  8
YODOROGO
 10
28729.604341291921
 20
1923.7494964292871
 30
0.0
 11
28497.60434129191
 21
1923.7494964292871
 31
0.0
  0
LINE
  5
3A71
  8
YODOROGO
 10
28585.604341291921
 20
2027.749496429288
 30
0.0
 11
28657.604341291921
 21
2027.749496429288
 31
0.0
  0
LINE
  5
3A72
  8
YODOROGO
 10
28433.60434129191
 20
1707.749496429288
 30
0.0
 11
28433.60434129191
 21
1507.749496429288
 31
0.0
  0
LINE
  5
3A73
  8
YODOROGO
 10
28497.60434129191
 20
1563.7494964292871
 30
0.0
 11
28497.60434129191
 21
1707.749496429288
 31
0.0
  0
LINE
  5
3A74
  8
YODOROGO
 10
28585.604341291921
 20
1747.74949642929
 30
0.0
 11
28585.604341291921
 21
1547.749496429288
 31
0.0
  0
LINE
  5
3A75
  8
YODOROGO
 10
27857.604341291921
 20
1683.749496429288
 30
0.0
 11
27777.604341291921
 21
1619.9724140445701
 31
0.0
  0
LINE
  5
3A76
  8
YODOROGO
 10
27937.604341291921
 20
1619.9724140445701
 30
0.0
 11
27857.604341291921
 21
1683.749496429288
 31
0.0
  0
LINE
  5
3A77
  8
YODOROGO
 10
27857.604341291921
 20
1707.749496429288
 30
0.0
 11
27937.604341291921
 21
1643.9724140445701
 31
0.0
  0
LINE
  5
3A78
  8
YODOROGO
 10
27777.604341291921
 20
1643.9724140445701
 30
0.0
 11
27857.604341291921
 21
1707.749496429288
 31
0.0
  0
LINE
  5
3A79
  8
YODOROGO
 10
28040.913204016892
 20
1659.749496429288
 30
0.0
 11
28040.913204016892
 21
1683.7494964292871
 31
0.0
  0
LINE
  5
3A7A
  8
YODOROGO
 10
27977.604341291921
 20
1683.7494964292871
 30
0.0
 11
27977.604341291921
 21
1667.749496429285
 31
0.0
  0
LINE
  5
3A7B
  8
YODOROGO
 10
28098.135520230931
 20
1707.749496429288
 30
0.0
 11
28098.135520230931
 21
1655.5036372746561
 31
0.0
1001
AUTOCAD_POSTSCRIPT_FIGURE
1002
{
1000
PSFILL
1000
Grayscale
1000
Grayscale
1070
   100
1002
}
  0
LINE
  5
3A7C
  8
YODOROGO
 10
28082.135520230921
 20
1655.5036372746561
 30
0.0
 11
28082.135520230921
 21
1707.749496429288
 31
0.0
1001
AUTOCAD_POSTSCRIPT_FIGURE
1002
{
1000
PSFILL
1000
Grayscale
1000
Grayscale
1070
   100
1002
}
  0
LINE
  5
3A7D
  8
YODOROGO
 10
27809.604341291921
 20
1608.771904043258
 30
0.0
 11
27809.604341291921
 21
1632.771904043258
 31
0.0
  0
LINE
  5
3A7E
  8
YODOROGO
 10
27905.604341291921
 20
1608.771904043258
 30
0.0
 11
27809.604341291921
 21
1608.771904043258
 31
0.0
  0
LINE
  5
3A7F
  8
YODOROGO
 10
27905.604341291921
 20
1632.771904043258
 30
0.0
 11
27905.604341291921
 21
1608.771904043258
 31
0.0
  0
LINE
  5
3A80
  8
YODOROGO
 10
27809.604341291921
 20
1632.771904043258
 30
0.0
 11
27905.604341291921
 21
1632.771904043258
 31
0.0
  0
LINE
  5
3A81
  8
YODOROGO
 10
27824.509588915738
 20
1568.5028573704751
 30
0.0
 11
27785.604341291921
 21
1475.7494964292871
 31
0.0
1001
AUTOCAD_POSTSCRIPT_FIGURE
1002
{
1000
PSFILL
1000
Grayscale
1000
Grayscale
1070
   100
1002
}
  0
LINE
  5
3A82
  8
YODOROGO
 10
27777.604341291921
 20
1568.5028573704751
 30
0.0
 11
27824.509588915738
 21
1568.5028573704751
 31
0.0
1001
AUTOCAD_POSTSCRIPT_FIGURE
1002
{
1000
PSFILL
1000
Grayscale
1000
Grayscale
1070
   100
1002
}
  0
LINE
  5
3A83
  8
YODOROGO
 10
27777.604341291921
 20
1588.5028573704751
 30
0.0
 11
27777.604341291921
 21
1568.5028573704751
 31
0.0
1001
AUTOCAD_POSTSCRIPT_FIGURE
1002
{
1000
PSFILL
1000
Grayscale
1000
Grayscale
1070
   100
1002
}
  0
LINE
  5
3A84
  8
YODOROGO
 10
27937.604341291921
 20
1588.5028573704751
 30
0.0
 11
27777.604341291921
 21
1588.5028573704751
 31
0.0
1001
AUTOCAD_POSTSCRIPT_FIGURE
1002
{
1000
PSFILL
1000
Grayscale
1000
Grayscale
1070
   100
1002
}
  0
LINE
  5
3A85
  8
YODOROGO
 10
27937.604341291921
 20
1568.5028573704751
 30
0.0
 11
27937.604341291921
 21
1588.5028573704751
 31
0.0
1001
AUTOCAD_POSTSCRIPT_FIGURE
1002
{
1000
PSFILL
1000
Grayscale
1000
Grayscale
1070
   100
1002
}
  0
LINE
  5
3A86
  8
YODOROGO
 10
27844.509588915738
 20
1568.5028573704751
 30
0.0
 11
27937.604341291921
 21
1568.5028573704751
 31
0.0
1001
AUTOCAD_POSTSCRIPT_FIGURE
1002
{
1000
PSFILL
1000
Grayscale
1000
Grayscale
1070
   100
1002
}
  0
LINE
  5
3A87
  8
YODOROGO
 10
27815.546718284771
 20
1495.7494964292871
 30
0.0
 11
27844.509588915738
 21
1568.5028573704751
 31
0.0
1001
AUTOCAD_POSTSCRIPT_FIGURE
1002
{
1000
PSFILL
1000
Grayscale
1000
Grayscale
1070
   100
1002
}
  0
LINE
  5
3A88
  8
YODOROGO
 10
27902.054790808648
 20
1495.7494964292871
 30
0.0
 11
27815.546718284771
 21
1495.7494964292871
 31
0.0
1001
AUTOCAD_POSTSCRIPT_FIGURE
1002
{
1000
PSFILL
1000
Grayscale
1000
Grayscale
1070
   100
1002
}
  0
LINE
  5
3A89
  8
YODOROGO
 10
27885.065004790951
 20
1536.2338106976929
 30
0.0
 11
27902.054790808648
 21
1495.7494964292871
 31
0.0
1001
AUTOCAD_POSTSCRIPT_FIGURE
1002
{
1000
PSFILL
1000
Grayscale
1000
Grayscale
1070
   100
1002
}
  0
LINE
  5
3A8A
  8
YODOROGO
 10
27901.065004790951
 20
1536.2338106976929
 30
0.0
 11
27885.065004790951
 21
1536.2338106976929
 31
0.0
1001
AUTOCAD_POSTSCRIPT_FIGURE
1002
{
1000
PSFILL
1000
Grayscale
1000
Grayscale
1070
   100
1002
}
  0
LINE
  5
3A8B
  8
YODOROGO
 10
27929.604341291921
 20
1475.7494964292871
 30
0.0
 11
27901.065004790951
 21
1536.2338106976929
 31
0.0
1001
AUTOCAD_POSTSCRIPT_FIGURE
1002
{
1000
PSFILL
1000
Grayscale
1000
Grayscale
1070
   100
1002
}
  0
LINE
  5
3A8C
  8
YODOROGO
 10
27785.604341291921
 20
1475.7494964292871
 30
0.0
 11
27929.604341291921
 21
1475.7494964292871
 31
0.0
1001
AUTOCAD_POSTSCRIPT_FIGURE
1002
{
1000
PSFILL
1000
Grayscale
1000
Grayscale
1070
   100
1002
}
  0
LINE
  5
3A8D
  8
YODOROGO
 10
27777.604341291921
 20
1619.9724140445701
 30
0.0
 11
27777.604341291921
 21
1643.9724140445701
 31
0.0
  0
LINE
  5
3A8E
  8
YODOROGO
 10
27937.604341291921
 20
1643.9724140445701
 30
0.0
 11
27937.604341291921
 21
1619.9724140445701
 31
0.0
  0
ARC
  5
3A8F
  8
YODOROGO
 10
28225.940442146959
 20
1600.877765325326
 30
0.0
 40
175.9999999999998
 50
280.3644312771313
 51
3.5414836592180561
  0
ARC
  5
3A90
  8
YODOROGO
 10
28235.756030759301
 20
1633.5978069619041
 30
0.0
 40
111.9999999999982
 50
281.24905825041549
 51
348.75094174958321
  0
LINE
  5
3A91
  8
YODOROGO
 10
28257.604341291921
 20
1523.7494964292871
 30
0.0
 11
28257.604341291921
 21
1427.749496429288
 31
0.0
  0
LINE
  5
3A92
  8
YODOROGO
 10
28020.088903736909
 20
1610.650565061914
 30
0.0
 11
28040.913204016892
 21
1659.749496429288
 31
0.0
  0
LINE
  5
3A93
  8
YODOROGO
 10
28041.604341291921
 20
1583.120489948401
 30
0.0
 11
28020.088903736909
 21
1610.650565061914
 31
0.0
  0
LINE
  5
3A94
  8
YODOROGO
 10
28041.604341291921
 20
1563.120489948398
 30
0.0
 11
28041.604341291921
 21
1583.120489948401
 31
0.0
  0
LINE
  5
3A95
  8
YODOROGO
 10
28017.604341291921
 20
1585.2370637495301
 30
0.0
 11
28041.604341291921
 21
1563.120489948398
 31
0.0
  0
LINE
  5
3A96
  8
YODOROGO
 10
28017.604341291921
 20
1475.7494964292871
 30
0.0
 11
28017.604341291921
 21
1585.2370637495301
 31
0.0
  0
LINE
  5
3A97
  8
YODOROGO
 10
28001.604341291921
 20
1475.7494964292871
 30
0.0
 11
28017.604341291921
 21
1475.7494964292871
 31
0.0
  0
LINE
  5
3A98
  8
YODOROGO
 10
28001.604341291921
 20
1580.0053496897469
 30
0.0
 11
28001.604341291921
 21
1475.7494964292871
 31
0.0
  0
LINE
  5
3A99
  8
YODOROGO
 10
27977.604341291921
 20
1532.7680790334291
 30
0.0
 11
28001.604341291921
 21
1580.0053496897469
 31
0.0
  0
LINE
  5
3A9A
  8
YODOROGO
 10
27977.604341291921
 20
1556.76807903343
 30
0.0
 11
27977.604341291921
 21
1532.7680790334291
 31
0.0
  0
LINE
  5
3A9B
  8
YODOROGO
 10
28025.828774291349
 20
1667.749496429285
 30
0.0
 11
27977.604341291921
 21
1556.76807903343
 31
0.0
  0
LINE
  5
3A9C
  8
YODOROGO
 10
27977.604341291921
 20
1667.749496429285
 30
0.0
 11
28025.828774291349
 21
1667.749496429285
 31
0.0
  0
LINE
  5
3A9D
  8
YODOROGO
 10
28050.135520230899
 20
1655.5036372746561
 30
0.0
 11
28082.135520230921
 21
1655.5036372746561
 31
0.0
1001
AUTOCAD_POSTSCRIPT_FIGURE
1002
{
1000
PSFILL
1000
Grayscale
1000
Grayscale
1070
   100
1002
}
  0
LINE
  5
3A9E
  8
YODOROGO
 10
28050.135520230899
 20
1631.5036372746561
 30
0.0
 11
28050.135520230899
 21
1655.5036372746561
 31
0.0
1001
AUTOCAD_POSTSCRIPT_FIGURE
1002
{
1000
PSFILL
1000
Grayscale
1000
Grayscale
1070
   100
1002
}
  0
LINE
  5
3A9F
  8
YODOROGO
 10
28082.135520230921
 20
1631.5036372746561
 30
0.0
 11
28050.135520230899
 21
1631.5036372746561
 31
0.0
1001
AUTOCAD_POSTSCRIPT_FIGURE
1002
{
1000
PSFILL
1000
Grayscale
1000
Grayscale
1070
   100
1002
}
  0
LINE
  5
3AA0
  8
YODOROGO
 10
28082.135520230921
 20
1499.749496429288
 30
0.0
 11
28082.135520230921
 21
1631.5036372746561
 31
0.0
1001
AUTOCAD_POSTSCRIPT_FIGURE
1002
{
1000
PSFILL
1000
Grayscale
1000
Grayscale
1070
   100
1002
}
  0
LINE
  5
3AA1
  8
YODOROGO
 10
28050.135520230921
 20
1499.749496429288
 30
0.0
 11
28082.135520230921
 21
1499.749496429288
 31
0.0
1001
AUTOCAD_POSTSCRIPT_FIGURE
1002
{
1000
PSFILL
1000
Grayscale
1000
Grayscale
1070
   100
1002
}
  0
LINE
  5
3AA2
  8
YODOROGO
 10
28050.135520230921
 20
1475.7494964292871
 30
0.0
 11
28050.135520230921
 21
1499.749496429288
 31
0.0
1001
AUTOCAD_POSTSCRIPT_FIGURE
1002
{
1000
PSFILL
1000
Grayscale
1000
Grayscale
1070
   100
1002
}
  0
LINE
  5
3AA3
  8
YODOROGO
 10
28137.604341291921
 20
1475.7494964292871
 30
0.0
 11
28050.135520230921
 21
1475.7494964292871
 31
0.0
1001
AUTOCAD_POSTSCRIPT_FIGURE
1002
{
1000
PSFILL
1000
Grayscale
1000
Grayscale
1070
   100
1002
}
  0
LINE
  5
3AA4
  8
YODOROGO
 10
28137.604341291921
 20
1499.749496429288
 30
0.0
 11
28137.604341291921
 21
1475.7494964292871
 31
0.0
1001
AUTOCAD_POSTSCRIPT_FIGURE
1002
{
1000
PSFILL
1000
Grayscale
1000
Grayscale
1070
   100
1002
}
  0
LINE
  5
3AA5
  8
YODOROGO
 10
28098.135520230931
 20
1499.749496429288
 30
0.0
 11
28137.604341291921
 21
1499.749496429288
 31
0.0
1001
AUTOCAD_POSTSCRIPT_FIGURE
1002
{
1000
PSFILL
1000
Grayscale
1000
Grayscale
1070
   100
1002
}
  0
LINE
  5
3AA6
  8
YODOROGO
 10
28098.135520230931
 20
1631.5036372746561
 30
0.0
 11
28098.135520230931
 21
1499.749496429288
 31
0.0
1001
AUTOCAD_POSTSCRIPT_FIGURE
1002
{
1000
PSFILL
1000
Grayscale
1000
Grayscale
1070
   100
1002
}
  0
LINE
  5
3AA7
  8
YODOROGO
 10
28137.604341291921
 20
1631.5036372746561
 30
0.0
 11
28098.135520230931
 21
1631.5036372746561
 31
0.0
1001
AUTOCAD_POSTSCRIPT_FIGURE
1002
{
1000
PSFILL
1000
Grayscale
1000
Grayscale
1070
   100
1002
}
  0
LINE
  5
3AA8
  8
YODOROGO
 10
28137.604341291921
 20
1655.5036372746561
 30
0.0
 11
28137.604341291921
 21
1631.5036372746561
 31
0.0
1001
AUTOCAD_POSTSCRIPT_FIGURE
1002
{
1000
PSFILL
1000
Grayscale
1000
Grayscale
1070
   100
1002
}
  0
LINE
  5
3AA9
  8
YODOROGO
 10
28098.135520230931
 20
1655.5036372746561
 30
0.0
 11
28137.604341291921
 21
1655.5036372746561
 31
0.0
1001
AUTOCAD_POSTSCRIPT_FIGURE
1002
{
1000
PSFILL
1000
Grayscale
1000
Grayscale
1070
   100
1002
}
  0
LINE
  5
3AAA
  8
YODOROGO
 10
28401.60434129191
 20
1667.749496429288
 30
0.0
 11
28345.604341291921
 21
1667.749496429288
 31
0.0
  0
LINE
  5
3AAB
  8
YODOROGO
 10
28401.60434129191
 20
1611.749496429288
 30
0.0
 11
28401.60434129191
 21
1667.749496429288
 31
0.0
  0
LINE
  5
3AAC
  8
YODOROGO
 10
28345.604341291921
 20
1667.749496429288
 30
0.0
 11
28345.604341291921
 21
1611.749496429288
 31
0.0
  0
ARC
  5
3AAD
  8
YODOROGO
 10
28513.60434129191
 20
1507.749496429288
 30
0.0
 40
80.0
 50
180.0
 51
270.0
  0
ARC
  5
3AAE
  8
YODOROGO
 10
28537.604341291921
 20
1563.7494964292871
 30
0.0
 40
40.0
 50
180.0
 51
270.0
  0
LINE
  5
3AAF
  8
YODOROGO
 10
28561.604341291932
 20
1523.7494964292871
 30
0.0
 11
28537.604341291921
 21
1523.7494964292871
 31
0.0
  0
ARC
  5
3AB0
  8
YODOROGO
 10
28561.604341291932
 20
1547.749496429285
 30
0.0
 40
23.999999999996358
 50
270.0
 51
0.0000000000054281
  0
LINE
  5
3AB1
  8
YODOROGO
 10
27801.604341291921
 20
1890.786580793706
 30
0.0
 11
27777.604341291921
 21
1843.776747951672
 31
0.0
1001
AUTOCAD_POSTSCRIPT_FIGURE
1002
{
1000
PSFILL
1000
Grayscale
1000
Grayscale
1070
   100
1002
}
  0
LINE
  5
3AB2
  8
YODOROGO
 10
27801.604341291921
 20
1747.749496429286
 30
0.0
 11
27801.604341291921
 21
1890.786580793706
 31
0.0
1001
AUTOCAD_POSTSCRIPT_FIGURE
1002
{
1000
PSFILL
1000
Grayscale
1000
Grayscale
1070
   100
1002
}
  0
LINE
  5
3AB3
  8
YODOROGO
 10
27817.604341291921
 20
1747.749496429286
 30
0.0
 11
27801.604341291921
 21
1747.749496429286
 31
0.0
1001
AUTOCAD_POSTSCRIPT_FIGURE
1002
{
1000
PSFILL
1000
Grayscale
1000
Grayscale
1070
   100
1002
}
  0
LINE
  5
3AB4
  8
YODOROGO
 10
27817.604341291921
 20
1893.7713320852661
 30
0.0
 11
27817.604341291921
 21
1747.749496429286
 31
0.0
1001
AUTOCAD_POSTSCRIPT_FIGURE
1002
{
1000
PSFILL
1000
Grayscale
1000
Grayscale
1070
   100
1002
}
  0
LINE
  5
3AB5
  8
YODOROGO
 10
27841.604341291921
 20
1867.6547582841361
 30
0.0
 11
27817.604341291921
 21
1893.7713320852661
 31
0.0
1001
AUTOCAD_POSTSCRIPT_FIGURE
1002
{
1000
PSFILL
1000
Grayscale
1000
Grayscale
1070
   100
1002
}
  0
LINE
  5
3AB6
  8
YODOROGO
 10
27841.604341291921
 20
1883.6547582841361
 30
0.0
 11
27841.604341291921
 21
1867.6547582841361
 31
0.0
1001
AUTOCAD_POSTSCRIPT_FIGURE
1002
{
1000
PSFILL
1000
Grayscale
1000
Grayscale
1070
   100
1002
}
  0
LINE
  5
3AB7
  8
YODOROGO
 10
27817.604341291921
 20
1917.7713320852649
 30
0.0
 11
27841.604341291921
 21
1883.6547582841361
 31
0.0
1001
AUTOCAD_POSTSCRIPT_FIGURE
1002
{
1000
PSFILL
1000
Grayscale
1000
Grayscale
1070
   100
1002
}
  0
LINE
  5
3AB8
  8
YODOROGO
 10
27817.604341291921
 20
1939.749496429288
 30
0.0
 11
27817.604341291921
 21
1917.7713320852649
 31
0.0
1001
AUTOCAD_POSTSCRIPT_FIGURE
1002
{
1000
PSFILL
1000
Grayscale
1000
Grayscale
1070
   100
1002
}
  0
LINE
  5
3AB9
  8
YODOROGO
 10
27889.604341291921
 20
1939.749496429288
 30
0.0
 11
27817.604341291921
 21
1939.749496429288
 31
0.0
1001
AUTOCAD_POSTSCRIPT_FIGURE
1002
{
1000
PSFILL
1000
Grayscale
1000
Grayscale
1070
   100
1002
}
  0
LINE
  5
3ABA
  8
YODOROGO
 10
27889.604341291921
 20
1900.5683489363
 30
0.0
 11
27889.604341291921
 21
1939.749496429288
 31
0.0
1001
AUTOCAD_POSTSCRIPT_FIGURE
1002
{
1000
PSFILL
1000
Grayscale
1000
Grayscale
1070
   100
1002
}
  0
LINE
  5
3ABB
  8
YODOROGO
 10
27857.604341291921
 20
1900.5683489363
 30
0.0
 11
27889.604341291921
 21
1900.5683489363
 31
0.0
1001
AUTOCAD_POSTSCRIPT_FIGURE
1002
{
1000
PSFILL
1000
Grayscale
1000
Grayscale
1070
   100
1002
}
  0
LINE
  5
3ABC
  8
YODOROGO
 10
27857.604341291921
 20
1884.568348936298
 30
0.0
 11
27857.604341291921
 21
1900.5683489363
 31
0.0
1001
AUTOCAD_POSTSCRIPT_FIGURE
1002
{
1000
PSFILL
1000
Grayscale
1000
Grayscale
1070
   100
1002
}
  0
LINE
  5
3ABD
  8
YODOROGO
 10
27889.604341291921
 20
1884.568348936298
 30
0.0
 11
27857.604341291921
 21
1884.568348936298
 31
0.0
1001
AUTOCAD_POSTSCRIPT_FIGURE
1002
{
1000
PSFILL
1000
Grayscale
1000
Grayscale
1070
   100
1002
}
  0
LINE
  5
3ABE
  8
YODOROGO
 10
27889.604341291921
 20
1879.6191779644371
 30
0.0
 11
27889.604341291921
 21
1884.568348936298
 31
0.0
1001
AUTOCAD_POSTSCRIPT_FIGURE
1002
{
1000
PSFILL
1000
Grayscale
1000
Grayscale
1070
   100
1002
}
  0
LINE
  5
3ABF
  8
YODOROGO
 10
27849.604341291921
 20
1812.974981161417
 30
0.0
 11
27889.604341291921
 21
1879.6191779644371
 31
0.0
1001
AUTOCAD_POSTSCRIPT_FIGURE
1002
{
1000
PSFILL
1000
Grayscale
1000
Grayscale
1070
   100
1002
}
  0
LINE
  5
3AC0
  8
YODOROGO
 10
27849.604341291921
 20
1796.9749811614161
 30
0.0
 11
27849.604341291921
 21
1812.974981161417
 31
0.0
1001
AUTOCAD_POSTSCRIPT_FIGURE
1002
{
1000
PSFILL
1000
Grayscale
1000
Grayscale
1070
   100
1002
}
  0
LINE
  5
3AC1
  8
YODOROGO
 10
27889.604341291921
 20
1847.6191779644359
 30
0.0
 11
27849.604341291921
 21
1796.9749811614161
 31
0.0
1001
AUTOCAD_POSTSCRIPT_FIGURE
1002
{
1000
PSFILL
1000
Grayscale
1000
Grayscale
1070
   100
1002
}
  0
LINE
  5
3AC2
  8
YODOROGO
 10
27889.604341291921
 20
1747.749496429286
 30
0.0
 11
27889.604341291921
 21
1847.6191779644359
 31
0.0
1001
AUTOCAD_POSTSCRIPT_FIGURE
1002
{
1000
PSFILL
1000
Grayscale
1000
Grayscale
1070
   100
1002
}
  0
LINE
  5
3AC3
  8
YODOROGO
 10
27905.604341291921
 20
1747.749496429286
 30
0.0
 11
27889.604341291921
 21
1747.749496429286
 31
0.0
1001
AUTOCAD_POSTSCRIPT_FIGURE
1002
{
1000
PSFILL
1000
Grayscale
1000
Grayscale
1070
   100
1002
}
  0
LINE
  5
3AC4
  8
YODOROGO
 10
27905.604341291921
 20
1849.409012158806
 30
0.0
 11
27905.604341291921
 21
1747.749496429286
 31
0.0
1001
AUTOCAD_POSTSCRIPT_FIGURE
1002
{
1000
PSFILL
1000
Grayscale
1000
Grayscale
1070
   100
1002
}
  0
LINE
  5
3AC5
  8
YODOROGO
 10
27937.604341291921
 20
1796.9749811614161
 30
0.0
 11
27905.604341291921
 21
1849.409012158806
 31
0.0
1001
AUTOCAD_POSTSCRIPT_FIGURE
1002
{
1000
PSFILL
1000
Grayscale
1000
Grayscale
1070
   100
1002
}
  0
LINE
  5
3AC6
  8
YODOROGO
 10
27937.604341291921
 20
1812.974981161417
 30
0.0
 11
27937.604341291921
 21
1796.9749811614161
 31
0.0
1001
AUTOCAD_POSTSCRIPT_FIGURE
1002
{
1000
PSFILL
1000
Grayscale
1000
Grayscale
1070
   100
1002
}
  0
LINE
  5
3AC7
  8
YODOROGO
 10
27905.604341291921
 20
1881.4090121588081
 30
0.0
 11
27937.604341291921
 21
1812.974981161417
 31
0.0
1001
AUTOCAD_POSTSCRIPT_FIGURE
1002
{
1000
PSFILL
1000
Grayscale
1000
Grayscale
1070
   100
1002
}
  0
LINE
  5
3AC8
  8
YODOROGO
 10
27905.604341291921
 20
1884.5683489363
 30
0.0
 11
27905.604341291921
 21
1881.4090121588081
 31
0.0
1001
AUTOCAD_POSTSCRIPT_FIGURE
1002
{
1000
PSFILL
1000
Grayscale
1000
Grayscale
1070
   100
1002
}
  0
LINE
  5
3AC9
  8
YODOROGO
 10
27937.604341291921
 20
1884.568348936298
 30
0.0
 11
27905.604341291921
 21
1884.5683489363
 31
0.0
1001
AUTOCAD_POSTSCRIPT_FIGURE
1002
{
1000
PSFILL
1000
Grayscale
1000
Grayscale
1070
   100
1002
}
  0
LINE
  5
3ACA
  8
YODOROGO
 10
27937.604341291921
 20
1900.5683489363
 30
0.0
 11
27937.604341291921
 21
1884.568348936298
 31
0.0
1001
AUTOCAD_POSTSCRIPT_FIGURE
1002
{
1000
PSFILL
1000
Grayscale
1000
Grayscale
1070
   100
1002
}
  0
LINE
  5
3ACB
  8
YODOROGO
 10
27905.604341291921
 20
1900.5683489363
 30
0.0
 11
27937.604341291921
 21
1900.5683489363
 31
0.0
1001
AUTOCAD_POSTSCRIPT_FIGURE
1002
{
1000
PSFILL
1000
Grayscale
1000
Grayscale
1070
   100
1002
}
  0
LINE
  5
3ACC
  8
YODOROGO
 10
27905.604341291921
 20
1939.749496429288
 30
0.0
 11
27905.604341291921
 21
1900.5683489363
 31
0.0
1001
AUTOCAD_POSTSCRIPT_FIGURE
1002
{
1000
PSFILL
1000
Grayscale
1000
Grayscale
1070
   100
1002
}
  0
LINE
  5
3ACD
  8
YODOROGO
 10
27937.604341291921
 20
1939.749496429288
 30
0.0
 11
27905.604341291921
 21
1939.749496429288
 31
0.0
1001
AUTOCAD_POSTSCRIPT_FIGURE
1002
{
1000
PSFILL
1000
Grayscale
1000
Grayscale
1070
   100
1002
}
  0
LINE
  5
3ACE
  8
YODOROGO
 10
27937.604341291921
 20
1955.7494964292871
 30
0.0
 11
27937.604341291921
 21
1939.749496429288
 31
0.0
1001
AUTOCAD_POSTSCRIPT_FIGURE
1002
{
1000
PSFILL
1000
Grayscale
1000
Grayscale
1070
   100
1002
}
  0
LINE
  5
3ACF
  8
YODOROGO
 10
27905.604341291921
 20
1955.7494964292871
 30
0.0
 11
27937.604341291921
 21
1955.7494964292871
 31
0.0
1001
AUTOCAD_POSTSCRIPT_FIGURE
1002
{
1000
PSFILL
1000
Grayscale
1000
Grayscale
1070
   100
1002
}
  0
LINE
  5
3AD0
  8
YODOROGO
 10
27905.604341291921
 20
1979.749496429288
 30
0.0
 11
27905.604341291921
 21
1955.7494964292871
 31
0.0
1001
AUTOCAD_POSTSCRIPT_FIGURE
1002
{
1000
PSFILL
1000
Grayscale
1000
Grayscale
1070
   100
1002
}
  0
LINE
  5
3AD1
  8
YODOROGO
 10
27889.604341291921
 20
1979.749496429288
 30
0.0
 11
27905.604341291921
 21
1979.749496429288
 31
0.0
1001
AUTOCAD_POSTSCRIPT_FIGURE
1002
{
1000
PSFILL
1000
Grayscale
1000
Grayscale
1070
   100
1002
}
  0
LINE
  5
3AD2
  8
YODOROGO
 10
27889.604341291921
 20
1955.7494964292871
 30
0.0
 11
27889.604341291921
 21
1979.749496429288
 31
0.0
1001
AUTOCAD_POSTSCRIPT_FIGURE
1002
{
1000
PSFILL
1000
Grayscale
1000
Grayscale
1070
   100
1002
}
  0
LINE
  5
3AD3
  8
YODOROGO
 10
27865.604341291921
 20
1955.7494964292871
 30
0.0
 11
27889.604341291921
 21
1955.7494964292871
 31
0.0
1001
AUTOCAD_POSTSCRIPT_FIGURE
1002
{
1000
PSFILL
1000
Grayscale
1000
Grayscale
1070
   100
1002
}
  0
LINE
  5
3AD4
  8
YODOROGO
 10
27865.604341291921
 20
1979.749496429288
 30
0.0
 11
27865.604341291921
 21
1955.7494964292871
 31
0.0
1001
AUTOCAD_POSTSCRIPT_FIGURE
1002
{
1000
PSFILL
1000
Grayscale
1000
Grayscale
1070
   100
1002
}
  0
LINE
  5
3AD5
  8
YODOROGO
 10
27849.604341291921
 20
1979.749496429288
 30
0.0
 11
27865.604341291921
 21
1979.749496429288
 31
0.0
1001
AUTOCAD_POSTSCRIPT_FIGURE
1002
{
1000
PSFILL
1000
Grayscale
1000
Grayscale
1070
   100
1002
}
  0
LINE
  5
3AD6
  8
YODOROGO
 10
27849.604341291921
 20
1955.7494964292871
 30
0.0
 11
27849.604341291921
 21
1979.749496429288
 31
0.0
1001
AUTOCAD_POSTSCRIPT_FIGURE
1002
{
1000
PSFILL
1000
Grayscale
1000
Grayscale
1070
   100
1002
}
  0
LINE
  5
3AD7
  8
YODOROGO
 10
27817.604341291921
 20
1955.7494964292871
 30
0.0
 11
27849.604341291921
 21
1955.7494964292871
 31
0.0
1001
AUTOCAD_POSTSCRIPT_FIGURE
1002
{
1000
PSFILL
1000
Grayscale
1000
Grayscale
1070
   100
1002
}
  0
LINE
  5
3AD8
  8
YODOROGO
 10
27817.604341291921
 20
1979.749496429288
 30
0.0
 11
27817.604341291921
 21
1955.7494964292871
 31
0.0
1001
AUTOCAD_POSTSCRIPT_FIGURE
1002
{
1000
PSFILL
1000
Grayscale
1000
Grayscale
1070
   100
1002
}
  0
LINE
  5
3AD9
  8
YODOROGO
 10
27801.604341291921
 20
1979.749496429288
 30
0.0
 11
27817.604341291921
 21
1979.749496429288
 31
0.0
1001
AUTOCAD_POSTSCRIPT_FIGURE
1002
{
1000
PSFILL
1000
Grayscale
1000
Grayscale
1070
   100
1002
}
  0
LINE
  5
3ADA
  8
YODOROGO
 10
27801.604341291921
 20
1955.7494964292871
 30
0.0
 11
27801.604341291921
 21
1979.749496429288
 31
0.0
1001
AUTOCAD_POSTSCRIPT_FIGURE
1002
{
1000
PSFILL
1000
Grayscale
1000
Grayscale
1070
   100
1002
}
  0
LINE
  5
3ADB
  8
YODOROGO
 10
27777.604341291921
 20
1955.7494964292871
 30
0.0
 11
27801.604341291921
 21
1955.7494964292871
 31
0.0
1001
AUTOCAD_POSTSCRIPT_FIGURE
1002
{
1000
PSFILL
1000
Grayscale
1000
Grayscale
1070
   100
1002
}
  0
LINE
  5
3ADC
  8
YODOROGO
 10
27777.604341291921
 20
1939.749496429288
 30
0.0
 11
27777.604341291921
 21
1955.7494964292871
 31
0.0
1001
AUTOCAD_POSTSCRIPT_FIGURE
1002
{
1000
PSFILL
1000
Grayscale
1000
Grayscale
1070
   100
1002
}
  0
LINE
  5
3ADD
  8
YODOROGO
 10
27801.604341291921
 20
1939.749496429288
 30
0.0
 11
27777.604341291921
 21
1939.749496429288
 31
0.0
1001
AUTOCAD_POSTSCRIPT_FIGURE
1002
{
1000
PSFILL
1000
Grayscale
1000
Grayscale
1070
   100
1002
}
  0
LINE
  5
3ADE
  8
YODOROGO
 10
27801.604341291921
 20
1914.7865807937051
 30
0.0
 11
27801.604341291921
 21
1939.749496429288
 31
0.0
1001
AUTOCAD_POSTSCRIPT_FIGURE
1002
{
1000
PSFILL
1000
Grayscale
1000
Grayscale
1070
   100
1002
}
  0
LINE
  5
3ADF
  8
YODOROGO
 10
27777.604341291921
 20
1859.776747951671
 30
0.0
 11
27801.604341291921
 21
1914.7865807937051
 31
0.0
1001
AUTOCAD_POSTSCRIPT_FIGURE
1002
{
1000
PSFILL
1000
Grayscale
1000
Grayscale
1070
   100
1002
}
  0
LINE
  5
3AE0
  8
YODOROGO
 10
27777.604341291921
 20
1843.776747951672
 30
0.0
 11
27777.604341291921
 21
1859.776747951671
 31
0.0
1001
AUTOCAD_POSTSCRIPT_FIGURE
1002
{
1000
PSFILL
1000
Grayscale
1000
Grayscale
1070
   100
1002
}
  0
LINE
  5
3AE1
  8
YODOROGO
 10
28257.604341291921
 20
1867.7494964292871
 30
0.0
 11
28401.60434129191
 21
1824.877625640306
 31
0.0
1001
AUTOCAD_POSTSCRIPT_FIGURE
1002
{
1000
PSFILL
1000
Grayscale
1000
Grayscale
1070
   100
1002
}
  0
LINE
  5
3AE2
  8
YODOROGO
 10
28401.60434129191
 20
1752.877625640306
 30
0.0
 11
28257.604341291921
 21
1795.7494964292871
 31
0.0
1001
AUTOCAD_POSTSCRIPT_FIGURE
1002
{
1000
PSFILL
1000
Grayscale
1000
Grayscale
1070
   100
1002
}
  0
LINE
  5
3AE3
  8
YODOROGO
 10
28401.60434129191
 20
1984.877625640306
 30
0.0
 11
28257.604341291921
 21
2027.749496429288
 31
0.0
1001
AUTOCAD_POSTSCRIPT_FIGURE
1002
{
1000
PSFILL
1000
Grayscale
1000
Grayscale
1070
   100
1002
}
  0
LINE
  5
3AE4
  8
YODOROGO
 10
28257.604341291921
 20
1959.749496429288
 30
0.0
 11
28401.60434129191
 21
1916.8776256403071
 31
0.0
1001
AUTOCAD_POSTSCRIPT_FIGURE
1002
{
1000
PSFILL
1000
Grayscale
1000
Grayscale
1070
   100
1002
}
  0
LINE
  5
3AE5
  8
YODOROGO
 10
28257.604341291921
 20
1795.7494964292871
 30
0.0
 11
28257.604341291921
 21
1867.7494964292871
 31
0.0
1001
AUTOCAD_POSTSCRIPT_FIGURE
1002
{
1000
PSFILL
1000
Grayscale
1000
Grayscale
1070
   100
1002
}
  0
LINE
  5
3AE6
  8
YODOROGO
 10
28257.604341291921
 20
2027.749496429288
 30
0.0
 11
28257.604341291921
 21
1959.749496429288
 31
0.0
1001
AUTOCAD_POSTSCRIPT_FIGURE
1002
{
1000
PSFILL
1000
Grayscale
1000
Grayscale
1070
   100
1002
}
  0
LINE
  5
3AE7
  8
YODOROGO
 10
28080.236320206739
 20
1939.749496429288
 30
0.0
 11
28129.60434129191
 21
1747.749496429286
 31
0.0
1001
AUTOCAD_POSTSCRIPT_FIGURE
1002
{
1000
PSFILL
1000
Grayscale
1000
Grayscale
1070
   100
1002
}
  0
LINE
  5
3AE8
  8
YODOROGO
 10
27977.604341291921
 20
1939.749496429288
 30
0.0
 11
28080.236320206739
 21
1939.749496429288
 31
0.0
1001
AUTOCAD_POSTSCRIPT_FIGURE
1002
{
1000
PSFILL
1000
Grayscale
1000
Grayscale
1070
   100
1002
}
  0
LINE
  5
3AE9
  8
YODOROGO
 10
27977.604341291921
 20
1955.7494964292871
 30
0.0
 11
27977.604341291921
 21
1939.749496429288
 31
0.0
1001
AUTOCAD_POSTSCRIPT_FIGURE
1002
{
1000
PSFILL
1000
Grayscale
1000
Grayscale
1070
   100
1002
}
  0
LINE
  5
3AEA
  8
YODOROGO
 10
28076.60687851991
 20
1955.7494964292871
 30
0.0
 11
27977.604341291921
 21
1955.7494964292871
 31
0.0
1001
AUTOCAD_POSTSCRIPT_FIGURE
1002
{
1000
PSFILL
1000
Grayscale
1000
Grayscale
1070
   100
1002
}
  0
LINE
  5
3AEB
  8
YODOROGO
 10
28071.162715989711
 20
1979.749496429288
 30
0.0
 11
28076.60687851991
 21
1955.7494964292871
 31
0.0
1001
AUTOCAD_POSTSCRIPT_FIGURE
1002
{
1000
PSFILL
1000
Grayscale
1000
Grayscale
1070
   100
1002
}
  0
LINE
  5
3AEC
  8
YODOROGO
 10
28091.162715989711
 20
1979.749496429288
 30
0.0
 11
28071.162715989711
 21
1979.749496429288
 31
0.0
1001
AUTOCAD_POSTSCRIPT_FIGURE
1002
{
1000
PSFILL
1000
Grayscale
1000
Grayscale
1070
   100
1002
}
  0
LINE
  5
3AED
  8
YODOROGO
 10
28095.806878519939
 20
1955.7494964292871
 30
0.0
 11
28091.162715989711
 21
1979.749496429288
 31
0.0
1001
AUTOCAD_POSTSCRIPT_FIGURE
1002
{
1000
PSFILL
1000
Grayscale
1000
Grayscale
1070
   100
1002
}
  0
LINE
  5
3AEE
  8
YODOROGO
 10
28121.604341291921
 20
1955.7494964292871
 30
0.0
 11
28095.806878519939
 21
1955.7494964292871
 31
0.0
1001
AUTOCAD_POSTSCRIPT_FIGURE
1002
{
1000
PSFILL
1000
Grayscale
1000
Grayscale
1070
   100
1002
}
  0
LINE
  5
3AEF
  8
YODOROGO
 10
28121.604341291921
 20
1979.749496429288
 30
0.0
 11
28121.604341291921
 21
1955.7494964292871
 31
0.0
1001
AUTOCAD_POSTSCRIPT_FIGURE
1002
{
1000
PSFILL
1000
Grayscale
1000
Grayscale
1070
   100
1002
}
  0
LINE
  5
3AF0
  8
YODOROGO
 10
28137.604341291921
 20
1979.749496429288
 30
0.0
 11
28121.604341291921
 21
1979.749496429288
 31
0.0
1001
AUTOCAD_POSTSCRIPT_FIGURE
1002
{
1000
PSFILL
1000
Grayscale
1000
Grayscale
1070
   100
1002
}
  0
LINE
  5
3AF1
  8
YODOROGO
 10
28137.604341291921
 20
1955.7494964292871
 30
0.0
 11
28137.604341291921
 21
1979.749496429288
 31
0.0
1001
AUTOCAD_POSTSCRIPT_FIGURE
1002
{
1000
PSFILL
1000
Grayscale
1000
Grayscale
1070
   100
1002
}
  0
LINE
  5
3AF2
  8
YODOROGO
 10
28137.604341291921
 20
1939.749496429288
 30
0.0
 11
28137.604341291921
 21
1955.7494964292871
 31
0.0
1001
AUTOCAD_POSTSCRIPT_FIGURE
1002
{
1000
PSFILL
1000
Grayscale
1000
Grayscale
1070
   100
1002
}
  0
LINE
  5
3AF3
  8
YODOROGO
 10
28098.902986873411
 20
1939.749496429288
 30
0.0
 11
28137.604341291921
 21
1939.749496429288
 31
0.0
1001
AUTOCAD_POSTSCRIPT_FIGURE
1002
{
1000
PSFILL
1000
Grayscale
1000
Grayscale
1070
   100
1002
}
  0
LINE
  5
3AF4
  8
YODOROGO
 10
28137.604341291921
 20
1747.749496429286
 30
0.0
 11
28098.902986873411
 21
1939.749496429288
 31
0.0
1001
AUTOCAD_POSTSCRIPT_FIGURE
1002
{
1000
PSFILL
1000
Grayscale
1000
Grayscale
1070
   100
1002
}
  0
LINE
  5
3AF5
  8
YODOROGO
 10
28129.60434129191
 20
1747.749496429286
 30
0.0
 11
28137.604341291921
 21
1747.749496429286
 31
0.0
1001
AUTOCAD_POSTSCRIPT_FIGURE
1002
{
1000
PSFILL
1000
Grayscale
1000
Grayscale
1070
   100
1002
}
  0
LINE
  5
3AF6
  8
YODOROGO
 10
28078.06921993379
 20
1775.7407762987939
 30
0.0
 11
27977.604341291921
 21
1747.749496429286
 31
0.0
  0
LINE
  5
3AF7
  8
YODOROGO
 10
28078.06921993379
 20
1798.6689795290731
 30
0.0
 11
28078.06921993379
 21
1775.7407762987939
 31
0.0
  0
LINE
  5
3AF8
  8
YODOROGO
 10
28033.83678061287
 20
1786.816933133767
 30
0.0
 11
28078.06921993379
 21
1798.6689795290731
 31
0.0
  0
LINE
  5
3AF9
  8
YODOROGO
 10
28033.83678061287
 20
1872.5683489362989
 30
0.0
 11
28033.83678061287
 21
1786.816933133767
 31
0.0
  0
LINE
  5
3AFA
  8
YODOROGO
 10
28078.06921993379
 20
1872.5683489362989
 30
0.0
 11
28033.83678061287
 21
1872.5683489362989
 31
0.0
  0
LINE
  5
3AFB
  8
YODOROGO
 10
28078.06921993379
 20
1892.568348936298
 30
0.0
 11
28078.06921993379
 21
1872.5683489362989
 31
0.0
  0
LINE
  5
3AFC
  8
YODOROGO
 10
27977.604341291921
 20
1892.568348936298
 30
0.0
 11
28078.06921993379
 21
1892.568348936298
 31
0.0
  0
LINE
  5
3AFD
  8
YODOROGO
 10
27977.604341291921
 20
1872.5683489362989
 30
0.0
 11
27977.604341291921
 21
1892.568348936298
 31
0.0
  0
LINE
  5
3AFE
  8
YODOROGO
 10
28021.836780612852
 20
1872.5683489362989
 30
0.0
 11
27977.604341291921
 21
1872.5683489362989
 31
0.0
  0
LINE
  5
3AFF
  8
YODOROGO
 10
28021.836780612852
 20
1784.673339594317
 30
0.0
 11
28021.836780612852
 21
1872.5683489362989
 31
0.0
  0
LINE
  5
3B00
  8
YODOROGO
 10
27977.604341291921
 20
1771.749496429286
 30
0.0
 11
28021.836780612852
 21
1784.673339594317
 31
0.0
  0
LINE
  5
3B01
  8
YODOROGO
 10
27977.604341291921
 20
1747.749496429286
 30
0.0
 11
27977.604341291921
 21
1771.749496429286
 31
0.0
  0
LINE
  5
3B02
  8
YODOROGO
 10
28001.604341291921
 20
1707.749496429288
 30
0.0
 11
28001.604341291921
 21
1683.7494964292871
 31
0.0
  0
LINE
  5
3B03
  8
YODOROGO
 10
28017.604341291921
 20
1707.749496429288
 30
0.0
 11
28001.604341291921
 21
1707.749496429288
 31
0.0
  0
LINE
  5
3B04
  8
YODOROGO
 10
28017.604341291921
 20
1683.7494964292871
 30
0.0
 11
28017.604341291921
 21
1707.749496429288
 31
0.0
  0
LINE
  5
3B05
  8
YODOROGO
 10
28040.913204016892
 20
1683.7494964292871
 30
0.0
 11
28017.604341291921
 21
1683.7494964292871
 31
0.0
  0
LINE
  5
3B06
  8
YODOROGO
 10
28001.604341291921
 20
1683.7494964292871
 30
0.0
 11
27977.604341291921
 21
1683.7494964292871
 31
0.0
  0
LINE
  5
3B07
  8
YODOROGO
 10
28082.135520230921
 20
1707.749496429288
 30
0.0
 11
28098.135520230931
 21
1707.749496429288
 31
0.0
1001
AUTOCAD_POSTSCRIPT_FIGURE
1002
{
1000
PSFILL
1000
Grayscale
1000
Grayscale
1070
   100
1002
}
  0
LINE
  5
3B08
  8
YODOROGO
 10
28401.60434129191
 20
1824.877625640306
 30
0.0
 11
28401.60434129191
 21
1752.877625640306
 31
0.0
1001
AUTOCAD_POSTSCRIPT_FIGURE
1002
{
1000
PSFILL
1000
Grayscale
1000
Grayscale
1070
   100
1002
}
  0
LINE
  5
3B09
  8
YODOROGO
 10
28401.60434129191
 20
1916.8776256403071
 30
0.0
 11
28401.60434129191
 21
1984.877625640306
 31
0.0
1001
AUTOCAD_POSTSCRIPT_FIGURE
1002
{
1000
PSFILL
1000
Grayscale
1000
Grayscale
1070
   100
1002
}
  0
LINE
  5
3B0A
  8
YODOROGO
 10
28433.60434129191
 20
1819.7494964292871
 30
0.0
 11
28433.60434129191
 21
1747.74949642929
 31
0.0
  0
LINE
  5
3B0B
  8
YODOROGO
 10
28497.60434129191
 20
1707.749496429288
 30
0.0
 11
28433.60434129191
 21
1707.749496429288
 31
0.0
  0
LINE
  5
3B0C
  8
YODOROGO
 10
28433.60434129191
 20
1747.74949642929
 30
0.0
 11
28585.604341291921
 21
1747.74949642929
 31
0.0
  0
LINE
  5
3B0D
  8
YODOROGO
 10
28497.60434129191
 20
1867.7494964292871
 30
0.0
 11
28433.60434129191
 21
1867.7494964292871
 31
0.0
  0
LINE
  5
3B0E
  8
YODOROGO
 10
28497.60434129191
 20
1923.7494964292871
 30
0.0
 11
28497.60434129191
 21
1867.7494964292871
 31
0.0
  0
LINE
  5
3B0F
  8
YODOROGO
 10
28585.604341291921
 20
1987.7494964292871
 30
0.0
 11
28585.604341291921
 21
2027.749496429288
 31
0.0
  0
LINE
  5
3B10
  8
YODOROGO
 10
28433.60434129191
 20
1987.7494964292871
 30
0.0
 11
28585.604341291921
 21
1987.7494964292871
 31
0.0
  0
LINE
  5
3B11
  8
YODOROGO
 10
28433.60434129191
 20
1867.7494964292871
 30
0.0
 11
28433.60434129191
 21
1987.7494964292871
 31
0.0
  0
LINE
  5
3B12
  8
YODOROGO
 10
29001.60434129191
 20
2027.749496429288
 30
0.0
 11
29001.60434129191
 21
1619.749496429288
 31
0.0
  0
LINE
  5
3B13
  8
YODOROGO
 10
29073.604341291921
 20
1579.749496429288
 30
0.0
 11
29073.604341291921
 21
2027.749496429288
 31
0.0
  0
LINE
  5
3B14
  8
YODOROGO
 10
29261.604341291921
 20
1491.749496429286
 30
0.0
 11
29261.604341291921
 21
2007.749496429288
 31
0.0
  0
LINE
  5
3B15
  8
YODOROGO
 10
29197.604341291921
 20
2007.749496429288
 30
0.0
 11
29197.604341291921
 21
1491.749496429286
 31
0.0
  0
LINE
  5
3B16
  8
YODOROGO
 10
29385.604341291921
 20
2027.749496429288
 30
0.0
 11
29385.604341291921
 21
1427.749496429288
 31
0.0
  0
LINE
  5
3B17
  8
YODOROGO
 10
29457.604341291921
 20
1427.749496429288
 30
0.0
 11
29457.604341291921
 21
2027.749496429288
 31
0.0
  0
LINE
  5
3B18
  8
YODOROGO
 10
28657.604341291921
 20
1667.749496429288
 30
0.0
 11
28657.604341291921
 21
1747.74949642929
 31
0.0
  0
LINE
  5
3B19
  8
YODOROGO
 10
29885.604341291921
 20
1707.749496429288
 30
0.0
 11
29885.604341291921
 21
1667.749496429288
 31
0.0
  0
LINE
  5
3B1A
  8
YODOROGO
 10
29885.604341291921
 20
1707.749496429288
 30
0.0
 11
29885.604341291921
 21
1667.749496429288
 31
0.0
  0
ARC
  5
3B1B
  8
YODOROGO
 10
28906.911576186842
 20
1618.217864442272
 30
0.0
 40
94.705151178741644
 50
274.05244162907098
 51
0.9266642149310712
  0
ARC
  5
3B1C
  8
YODOROGO
 10
28909.186170719819
 20
1592.61072861044
 30
0.0
 40
164.92042356085511
 50
271.5351210653775
 51
355.52727750585052
  0
LINE
  5
3B1D
  8
YODOROGO
 10
28913.604341291921
 20
1523.7494964292871
 30
0.0
 11
28913.604341291921
 21
1427.749496429288
 31
0.0
  0
LINE
  5
3B1E
  8
YODOROGO
 10
28793.60434129191
 20
1667.749496429288
 30
0.0
 11
28657.604341291921
 21
1667.749496429288
 31
0.0
  0
LINE
  5
3B1F
  8
YODOROGO
 10
28793.60434129191
 20
1603.7494964292871
 30
0.0
 11
28793.60434129191
 21
1667.749496429288
 31
0.0
  0
LINE
  5
3B20
  8
YODOROGO
 10
28657.604341291921
 20
1603.7494964292871
 30
0.0
 11
28793.60434129191
 21
1603.7494964292871
 31
0.0
  0
LINE
  5
3B21
  8
YODOROGO
 10
28657.604341291921
 20
1523.7494964292871
 30
0.0
 11
28657.604341291921
 21
1603.7494964292871
 31
0.0
  0
LINE
  5
3B22
  8
YODOROGO
 10
28793.60434129191
 20
1523.7494964292871
 30
0.0
 11
28657.604341291921
 21
1523.7494964292871
 31
0.0
  0
LINE
  5
3B23
  8
YODOROGO
 10
28793.60434129191
 20
1427.749496429288
 30
0.0
 11
28793.60434129191
 21
1523.7494964292871
 31
0.0
  0
LINE
  5
3B24
  8
YODOROGO
 10
29197.604341291921
 20
1491.749496429286
 30
0.0
 11
29261.604341291921
 21
1491.749496429286
 31
0.0
  0
LINE
  5
3B25
  8
YODOROGO
 10
29385.604341291921
 20
1427.749496429288
 30
0.0
 11
29457.604341291921
 21
1427.749496429288
 31
0.0
  0
LINE
  5
3B26
  8
YODOROGO
 10
29737.604341291921
 20
1528.4414521705639
 30
0.0
 11
29737.604341291921
 21
1427.749496429288
 31
0.0
  0
LINE
  5
3B27
  8
YODOROGO
 10
29617.604341291921
 20
1427.749496429288
 30
0.0
 11
29737.604341291921
 21
1528.4414521705639
 31
0.0
  0
LINE
  5
3B28
  8
YODOROGO
 10
29617.604341291921
 20
1547.749496429288
 30
0.0
 11
29617.604341291921
 21
1427.749496429288
 31
0.0
  0
LINE
  5
3B29
  8
YODOROGO
 10
29712.94462869945
 20
1627.749496429288
 30
0.0
 11
29617.604341291921
 21
1547.749496429288
 31
0.0
  0
LINE
  5
3B2A
  8
YODOROGO
 10
29617.604341291921
 20
1627.749496429288
 30
0.0
 11
29712.94462869945
 21
1627.749496429288
 31
0.0
  0
LINE
  5
3B2B
  8
YODOROGO
 10
29617.604341291921
 20
1667.749496429288
 30
0.0
 11
29617.604341291921
 21
1627.749496429288
 31
0.0
  0
LINE
  5
3B2C
  8
YODOROGO
 10
29885.604341291921
 20
1667.749496429288
 30
0.0
 11
29617.604341291921
 21
1667.749496429288
 31
0.0
  0
LINE
  5
3B2D
  8
YODOROGO
 10
29917.604341291921
 20
1627.749496429288
 30
0.0
 11
29777.604341291921
 21
1627.749496429288
 31
0.0
  0
LINE
  5
3B2E
  8
YODOROGO
 10
29777.604341291921
 20
1562.0054374176559
 30
0.0
 11
29771.409872985321
 21
1556.807661346234
 31
0.0
  0
LINE
  5
3B2F
  8
YODOROGO
 10
29777.604341291921
 20
1627.749496429288
 30
0.0
 11
29777.604341291921
 21
1562.0054374176559
 31
0.0
  0
LINE
  5
3B30
  8
YODOROGO
 10
29737.604341291921
 20
1528.4414521705639
 30
0.0
 11
29737.604341291921
 21
1427.749496429288
 31
0.0
  0
LINE
  5
3B31
  8
YODOROGO
 10
29617.604341291921
 20
1427.749496429288
 30
0.0
 11
29737.604341291921
 21
1528.4414521705639
 31
0.0
  0
LINE
  5
3B32
  8
YODOROGO
 10
29617.604341291921
 20
1547.749496429288
 30
0.0
 11
29617.604341291921
 21
1427.749496429288
 31
0.0
  0
LINE
  5
3B33
  8
YODOROGO
 10
29712.94462869945
 20
1627.749496429288
 30
0.0
 11
29617.604341291921
 21
1547.749496429288
 31
0.0
  0
LINE
  5
3B34
  8
YODOROGO
 10
29617.604341291921
 20
1627.749496429288
 30
0.0
 11
29712.94462869945
 21
1627.749496429288
 31
0.0
  0
LINE
  5
3B35
  8
YODOROGO
 10
29617.604341291921
 20
1667.749496429288
 30
0.0
 11
29617.604341291921
 21
1627.749496429288
 31
0.0
  0
LINE
  5
3B36
  8
YODOROGO
 10
29885.604341291921
 20
1667.749496429288
 30
0.0
 11
29617.604341291921
 21
1667.749496429288
 31
0.0
  0
LINE
  5
3B37
  8
YODOROGO
 10
28793.60434129191
 20
1747.74949642929
 30
0.0
 11
28793.60434129191
 21
1819.7494964292871
 31
0.0
  0
LINE
  5
3B38
  8
YODOROGO
 10
28657.604341291921
 20
1747.74949642929
 30
0.0
 11
28793.60434129191
 21
1747.74949642929
 31
0.0
  0
LINE
  5
3B39
  8
YODOROGO
 10
28729.604341291921
 20
1867.7494964292871
 30
0.0
 11
28729.604341291921
 21
1923.7494964292871
 31
0.0
  0
LINE
  5
3B3A
  8
YODOROGO
 10
28793.60434129191
 20
1867.7494964292871
 30
0.0
 11
28729.604341291921
 21
1867.7494964292871
 31
0.0
  0
LINE
  5
3B3B
  8
YODOROGO
 10
28793.60434129191
 20
1947.749496429288
 30
0.0
 11
28793.60434129191
 21
1867.7494964292871
 31
0.0
  0
ARC
  5
3B3C
  8
YODOROGO
 10
28753.60434129191
 20
1947.749496429288
 30
0.0
 40
40.0
 50
0.0
 51
90.0
  0
LINE
  5
3B3D
  8
YODOROGO
 10
28657.604341291921
 20
1987.7494964292871
 30
0.0
 11
28753.60434129191
 21
1987.7494964292871
 31
0.0
  0
LINE
  5
3B3E
  8
YODOROGO
 10
28657.604341291921
 20
2027.749496429288
 30
0.0
 11
28657.604341291921
 21
1987.7494964292871
 31
0.0
  0
LINE
  5
3B3F
  8
YODOROGO
 10
29073.604341291921
 20
2027.749496429288
 30
0.0
 11
29001.60434129191
 21
2027.749496429288
 31
0.0
  0
LINE
  5
3B40
  8
YODOROGO
 10
29261.604341291921
 20
2007.749496429288
 30
0.0
 11
29197.604341291921
 21
2007.749496429288
 31
0.0
  0
LINE
  5
3B41
  8
YODOROGO
 10
29457.604341291921
 20
2027.749496429288
 30
0.0
 11
29385.604341291921
 21
2027.749496429288
 31
0.0
  0
LINE
  5
3B42
  8
YODOROGO
 10
29673.604341291921
 20
1707.749496429288
 30
0.0
 11
29673.604341291921
 21
1771.7494964292871
 31
0.0
1001
AUTOCAD_POSTSCRIPT_FIGURE
1002
{
1000
PSFILL
1000
Grayscale
1000
Grayscale
1070
    25
1002
}
  0
LINE
  5
3B43
  8
YODOROGO
 10
29617.604341291921
 20
1707.749496429288
 30
0.0
 11
29673.604341291921
 21
1707.749496429288
 31
0.0
1001
AUTOCAD_POSTSCRIPT_FIGURE
1002
{
1000
PSFILL
1000
Grayscale
1000
Grayscale
1070
    25
1002
}
  0
LINE
  5
3B44
  8
YODOROGO
 10
29617.604341291921
 20
1819.7494964292871
 30
0.0
 11
29617.604341291921
 21
1707.749496429288
 31
0.0
1001
AUTOCAD_POSTSCRIPT_FIGURE
1002
{
1000
PSFILL
1000
Grayscale
1000
Grayscale
1070
    25
1002
}
  0
LINE
  5
3B45
  8
YODOROGO
 10
29765.604341291921
 20
1819.7494964292871
 30
0.0
 11
29617.604341291921
 21
1819.7494964292871
 31
0.0
1001
AUTOCAD_POSTSCRIPT_FIGURE
1002
{
1000
PSFILL
1000
Grayscale
1000
Grayscale
1070
    25
1002
}
  0
LINE
  5
3B46
  8
YODOROGO
 10
29765.604341291921
 20
1859.749496429288
 30
0.0
 11
29765.604341291921
 21
1819.7494964292871
 31
0.0
1001
AUTOCAD_POSTSCRIPT_FIGURE
1002
{
1000
PSFILL
1000
Grayscale
1000
Grayscale
1070
    25
1002
}
  0
LINE
  5
3B47
  8
YODOROGO
 10
29617.604341291921
 20
1859.749496429288
 30
0.0
 11
29765.604341291921
 21
1859.749496429288
 31
0.0
1001
AUTOCAD_POSTSCRIPT_FIGURE
1002
{
1000
PSFILL
1000
Grayscale
1000
Grayscale
1070
    25
1002
}
  0
LINE
  5
3B48
  8
YODOROGO
 10
29617.604341291921
 20
1907.7494964292871
 30
0.0
 11
29617.604341291921
 21
1859.749496429288
 31
0.0
1001
AUTOCAD_POSTSCRIPT_FIGURE
1002
{
1000
PSFILL
1000
Grayscale
1000
Grayscale
1070
    25
1002
}
  0
LINE
  5
3B49
  8
YODOROGO
 10
29765.604341291921
 20
1907.7494964292871
 30
0.0
 11
29617.604341291921
 21
1907.7494964292871
 31
0.0
1001
AUTOCAD_POSTSCRIPT_FIGURE
1002
{
1000
PSFILL
1000
Grayscale
1000
Grayscale
1070
    25
1002
}
  0
LINE
  5
3B4A
  8
YODOROGO
 10
29765.604341291921
 20
1947.749496429288
 30
0.0
 11
29765.604341291921
 21
1907.7494964292871
 31
0.0
1001
AUTOCAD_POSTSCRIPT_FIGURE
1002
{
1000
PSFILL
1000
Grayscale
1000
Grayscale
1070
    25
1002
}
  0
LINE
  5
3B4B
  8
YODOROGO
 10
29617.604341291921
 20
1947.749496429288
 30
0.0
 11
29765.604341291921
 21
1947.749496429288
 31
0.0
1001
AUTOCAD_POSTSCRIPT_FIGURE
1002
{
1000
PSFILL
1000
Grayscale
1000
Grayscale
1070
    25
1002
}
  0
LINE
  5
3B4C
  8
YODOROGO
 10
29617.604341291921
 20
2027.749496429288
 30
0.0
 11
29617.604341291921
 21
1947.749496429288
 31
0.0
1001
AUTOCAD_POSTSCRIPT_FIGURE
1002
{
1000
PSFILL
1000
Grayscale
1000
Grayscale
1070
    25
1002
}
  0
LINE
  5
3B4D
  8
YODOROGO
 10
29665.604341291921
 20
2027.749496429288
 30
0.0
 11
29617.604341291921
 21
2027.749496429288
 31
0.0
1001
AUTOCAD_POSTSCRIPT_FIGURE
1002
{
1000
PSFILL
1000
Grayscale
1000
Grayscale
1070
    25
1002
}
  0
LINE
  5
3B4E
  8
YODOROGO
 10
29665.604341291921
 20
1995.7494964292871
 30
0.0
 11
29665.604341291921
 21
2027.749496429288
 31
0.0
1001
AUTOCAD_POSTSCRIPT_FIGURE
1002
{
1000
PSFILL
1000
Grayscale
1000
Grayscale
1070
    25
1002
}
  0
LINE
  5
3B4F
  8
YODOROGO
 10
29765.604341291921
 20
1995.7494964292871
 30
0.0
 11
29665.604341291921
 21
1995.7494964292871
 31
0.0
1001
AUTOCAD_POSTSCRIPT_FIGURE
1002
{
1000
PSFILL
1000
Grayscale
1000
Grayscale
1070
    25
1002
}
  0
LINE
  5
3B50
  8
YODOROGO
 10
29765.604341291921
 20
2027.749496429288
 30
0.0
 11
29765.604341291921
 21
1995.7494964292871
 31
0.0
1001
AUTOCAD_POSTSCRIPT_FIGURE
1002
{
1000
PSFILL
1000
Grayscale
1000
Grayscale
1070
    25
1002
}
  0
LINE
  5
3B51
  8
YODOROGO
 10
29829.604341291921
 20
2027.749496429288
 30
0.0
 11
29765.604341291921
 21
2027.749496429288
 31
0.0
1001
AUTOCAD_POSTSCRIPT_FIGURE
1002
{
1000
PSFILL
1000
Grayscale
1000
Grayscale
1070
    25
1002
}
  0
LINE
  5
3B52
  8
YODOROGO
 10
29829.604341291921
 20
1995.7494964292871
 30
0.0
 11
29829.604341291921
 21
2027.749496429288
 31
0.0
1001
AUTOCAD_POSTSCRIPT_FIGURE
1002
{
1000
PSFILL
1000
Grayscale
1000
Grayscale
1070
    25
1002
}
  0
LINE
  5
3B53
  8
YODOROGO
 10
29829.604341291921
 20
1907.7494964292871
 30
0.0
 11
29829.604341291921
 21
1947.749496429288
 31
0.0
1001
AUTOCAD_POSTSCRIPT_FIGURE
1002
{
1000
PSFILL
1000
Grayscale
1000
Grayscale
1070
    25
1002
}
  0
LINE
  5
3B54
  8
YODOROGO
 10
29829.604341291921
 20
1819.7494964292871
 30
0.0
 11
29829.604341291921
 21
1859.749496429288
 31
0.0
1001
AUTOCAD_POSTSCRIPT_FIGURE
1002
{
1000
PSFILL
1000
Grayscale
1000
Grayscale
1070
    25
1002
}
  0
LINE
  5
3B55
  8
YODOROGO
 10
29921.60434129191
 20
1771.7494964292871
 30
0.0
 11
29921.60434129191
 21
1707.749496429288
 31
0.0
1001
AUTOCAD_POSTSCRIPT_FIGURE
1002
{
1000
PSFILL
1000
Grayscale
1000
Grayscale
1070
    25
1002
}
  0
LINE
  5
3B56
  8
YODOROGO
 10
29829.604341291921
 20
1771.7494964292871
 30
0.0
 11
29921.60434129191
 21
1771.7494964292871
 31
0.0
1001
AUTOCAD_POSTSCRIPT_FIGURE
1002
{
1000
PSFILL
1000
Grayscale
1000
Grayscale
1070
    25
1002
}
  0
LINE
  5
3B57
  8
YODOROGO
 10
29829.604341291921
 20
1707.749496429288
 30
0.0
 11
29829.604341291921
 21
1771.7494964292871
 31
0.0
1001
AUTOCAD_POSTSCRIPT_FIGURE
1002
{
1000
PSFILL
1000
Grayscale
1000
Grayscale
1070
    25
1002
}
  0
LINE
  5
3B58
  8
YODOROGO
 10
29765.604341291921
 20
1707.749496429288
 30
0.0
 11
29829.604341291921
 21
1707.749496429288
 31
0.0
1001
AUTOCAD_POSTSCRIPT_FIGURE
1002
{
1000
PSFILL
1000
Grayscale
1000
Grayscale
1070
    25
1002
}
  0
LINE
  5
3B59
  8
YODOROGO
 10
29765.604341291921
 20
1771.7494964292871
 30
0.0
 11
29765.604341291921
 21
1707.749496429288
 31
0.0
1001
AUTOCAD_POSTSCRIPT_FIGURE
1002
{
1000
PSFILL
1000
Grayscale
1000
Grayscale
1070
    25
1002
}
  0
LINE
  5
3B5A
  8
YODOROGO
 10
29673.604341291921
 20
1771.7494964292871
 30
0.0
 11
29765.604341291921
 21
1771.7494964292871
 31
0.0
1001
AUTOCAD_POSTSCRIPT_FIGURE
1002
{
1000
PSFILL
1000
Grayscale
1000
Grayscale
1070
    25
1002
}
  0
ARC
  5
3B5B
  8
YODOROGO
 10
31059.517893357912
 20
1602.6807375155761
 30
0.0
 40
178.22128111072141
 50
281.02627495425338
 51
357.77113575573799
  0
LINE
  5
3B5C
  8
YODOROGO
 10
31413.604341291921
 20
1907.7494964292871
 30
0.0
 11
31165.604341291921
 21
1907.7494964292871
 31
0.0
  0
LINE
  5
3B5D
  8
YODOROGO
 10
31413.604341291921
 20
2027.749496429288
 30
0.0
 11
31165.604341291921
 21
2027.749496429288
 31
0.0
  0
LINE
  5
3B5E
  8
YODOROGO
 10
31165.604341291921
 20
1963.749496429286
 30
0.0
 11
31413.604341291921
 21
1963.749496429286
 31
0.0
  0
LINE
  5
3B5F
  8
YODOROGO
 10
30791.604341291921
 20
1563.7494964292871
 30
0.0
 11
30791.604341291921
 21
1755.7494964292871
 31
0.0
  0
LINE
  5
3B60
  8
YODOROGO
 10
30763.604341291921
 20
1691.749496429288
 30
0.0
 11
30763.604341291921
 21
1563.7494964292871
 31
0.0
  0
LINE
  5
3B61
  8
YODOROGO
 10
30723.604341291921
 20
1491.749496429288
 30
0.0
 11
30723.604341291921
 21
1691.749496429288
 31
0.0
  0
LINE
  5
3B62
  8
YODOROGO
 10
30899.604341291932
 20
1691.749496429288
 30
0.0
 11
30899.604341291932
 21
1491.749496429288
 31
0.0
  0
LINE
  5
3B63
  8
YODOROGO
 10
30859.604341291932
 20
1563.7494964292871
 30
0.0
 11
30859.604341291932
 21
1691.749496429288
 31
0.0
  0
LINE
  5
3B64
  8
YODOROGO
 10
30831.604341291921
 20
1755.7494964292871
 30
0.0
 11
30831.604341291921
 21
1563.7494964292871
 31
0.0
  0
LINE
  5
3B65
  8
YODOROGO
 10
30973.604341291921
 20
2027.749496429288
 30
0.0
 11
30973.604341291921
 21
1467.749496429288
 31
0.0
  0
LINE
  5
3B66
  8
YODOROGO
 10
30645.604341291921
 20
1427.749496429288
 30
0.0
 11
30645.604341291921
 21
2027.749496429288
 31
0.0
  0
LINE
  5
3B67
  8
YODOROGO
 10
30697.604341291932
 20
1963.749496429286
 30
0.0
 11
30697.604341291932
 21
1427.749496429288
 31
0.0
  0
LINE
  5
3B68
  8
YODOROGO
 10
30925.604341291921
 20
1547.749496429288
 30
0.0
 11
30925.604341291921
 21
1963.749496429286
 31
0.0
  0
LINE
  5
3B69
  8
YODOROGO
 10
30381.604341291932
 20
1627.749496429288
 30
0.0
 11
30381.604341291932
 21
1679.749496429288
 31
0.0
  0
LINE
  5
3B6A
  8
YODOROGO
 10
30617.604341291921
 20
1679.749496429288
 30
0.0
 11
30617.604341291921
 21
1627.749496429288
 31
0.0
  0
LINE
  5
3B6B
  8
YODOROGO
 10
31165.604341291921
 20
1907.7494964292871
 30
0.0
 11
31165.604341291921
 21
1635.7494964292871
 31
0.0
  0
LINE
  5
3B6C
  8
YODOROGO
 10
29949.60434129191
 20
1667.749496429288
 30
0.0
 11
29949.60434129191
 21
1707.749496429288
 31
0.0
  0
LINE
  5
3B6D
  8
YODOROGO
 10
29949.60434129191
 20
1667.749496429288
 30
0.0
 11
29949.60434129191
 21
1707.749496429288
 31
0.0
  0
ARC
  5
3B6E
  8
YODOROGO
 10
30537.604341291921
 20
1507.749496429288
 30
0.0
 40
80.0
 50
270.0
 51
0.0
  0
LINE
  5
3B6F
  8
YODOROGO
 10
30569.604341291921
 20
1599.7494964292871
 30
0.0
 11
30617.604341291921
 21
1599.7494964292871
 31
0.0
  0
LINE
  5
3B70
  8
YODOROGO
 10
30617.604341291921
 20
1627.749496429288
 30
0.0
 11
30529.604341291939
 21
1627.749496429288
 31
0.0
  0
LINE
  5
3B71
  8
YODOROGO
 10
30217.604341291921
 20
1667.749496429288
 30
0.0
 11
29949.60434129191
 21
1667.749496429288
 31
0.0
  0
LINE
  5
3B72
  8
YODOROGO
 10
30217.604341291921
 20
1627.749496429288
 30
0.0
 11
30217.604341291921
 21
1667.749496429288
 31
0.0
  0
LINE
  5
3B73
  8
YODOROGO
 10
30017.604341291921
 20
1627.749496429288
 30
0.0
 11
30217.604341291921
 21
1627.749496429288
 31
0.0
  0
ARC
  5
3B74
  8
YODOROGO
 10
30230.05882870136
 20
1868.885714952901
 30
0.0
 40
321.37763628522822
 50
228.6181454618993
 51
245.660289248906
  0
LINE
  5
3B75
  8
YODOROGO
 10
30105.604341291921
 20
1603.7494964292871
 30
0.0
 11
30097.60434129195
 21
1576.0728158699001
 31
0.0
  0
LINE
  5
3B76
  8
YODOROGO
 10
30189.604341291921
 20
1603.7494964292871
 30
0.0
 11
30105.604341291921
 21
1603.7494964292871
 31
0.0
  0
LINE
  5
3B77
  8
YODOROGO
 10
30177.604341291921
 20
1551.817722473427
 30
0.0
 11
30189.604341291921
 21
1603.7494964292871
 31
0.0
  0
ARC
  5
3B78
  8
YODOROGO
 10
30230.05882870045
 20
1868.885714953002
 30
0.0
 40
321.37763628529081
 50
260.60629297969911
 51
267.77903556555862
  0
LINE
  5
3B79
  8
YODOROGO
 10
30217.604341291921
 20
1427.749496429285
 30
0.0
 11
30217.604341291921
 21
1547.749496429288
 31
0.0
  0
LINE
  5
3B7A
  8
YODOROGO
 10
29937.604341291932
 20
1481.3393349155101
 30
0.0
 11
29937.604341291921
 21
1594.531090531141
 31
0.0
  0
LINE
  5
3B7B
  8
YODOROGO
 10
30217.604341291921
 20
1667.749496429288
 30
0.0
 11
29949.60434129191
 21
1667.749496429288
 31
0.0
  0
LINE
  5
3B7C
  8
YODOROGO
 10
30217.604341291921
 20
1627.749496429288
 30
0.0
 11
30217.604341291921
 21
1667.749496429288
 31
0.0
  0
LINE
  5
3B7D
  8
YODOROGO
 10
30017.604341291921
 20
1627.749496429288
 30
0.0
 11
30217.604341291921
 21
1627.749496429288
 31
0.0
  0
ARC
  5
3B7E
  8
YODOROGO
 10
30230.05882870136
 20
1868.885714952901
 30
0.0
 40
321.37763628522822
 50
228.6181454618993
 51
245.660289248906
  0
LINE
  5
3B7F
  8
YODOROGO
 10
30105.604341291921
 20
1603.7494964292871
 30
0.0
 11
30097.60434129195
 21
1576.0728158699001
 31
0.0
  0
LINE
  5
3B80
  8
YODOROGO
 10
30189.604341291921
 20
1603.7494964292871
 30
0.0
 11
30105.604341291921
 21
1603.7494964292871
 31
0.0
  0
LINE
  5
3B81
  8
YODOROGO
 10
30177.604341291921
 20
1551.817722473427
 30
0.0
 11
30189.604341291921
 21
1603.7494964292871
 31
0.0
  0
ARC
  5
3B82
  8
YODOROGO
 10
30230.05882870045
 20
1868.885714953002
 30
0.0
 40
321.37763628529081
 50
260.60629297969911
 51
267.77903556555862
  0
LINE
  5
3B83
  8
YODOROGO
 10
30217.604341291921
 20
1427.749496429285
 30
0.0
 11
30217.604341291921
 21
1547.749496429288
 31
0.0
  0
LINE
  5
3B84
  8
YODOROGO
 10
29937.604341291932
 20
1481.3393349155101
 30
0.0
 11
29937.604341291921
 21
1594.531090531141
 31
0.0
  0
LINE
  5
3B85
  8
YODOROGO
 10
30433.604341291921
 20
1573.749496429288
 30
0.0
 11
30381.604341291932
 21
1573.749496429288
 31
0.0
  0
LINE
  5
3B86
  8
YODOROGO
 10
30433.604341291921
 20
1601.749496429285
 30
0.0
 11
30433.604341291921
 21
1573.749496429288
 31
0.0
  0
LINE
  5
3B87
  8
YODOROGO
 10
30381.604341291932
 20
1601.749496429285
 30
0.0
 11
30433.604341291921
 21
1601.749496429285
 31
0.0
  0
LINE
  5
3B88
  8
YODOROGO
 10
30381.604341291932
 20
1573.749496429288
 30
0.0
 11
30381.604341291932
 21
1601.749496429285
 31
0.0
  0
LINE
  5
3B89
  8
YODOROGO
 10
30429.604341291921
 20
1577.7494964292871
 30
0.0
 11
30385.604341291921
 21
1577.7494964292871
 31
0.0
  0
LINE
  5
3B8A
  8
YODOROGO
 10
30429.604341291921
 20
1597.749496429288
 30
0.0
 11
30429.604341291921
 21
1577.7494964292871
 31
0.0
  0
LINE
  5
3B8B
  8
YODOROGO
 10
30385.604341291921
 20
1597.749496429288
 30
0.0
 11
30429.604341291921
 21
1597.749496429288
 31
0.0
  0
LINE
  5
3B8C
  8
YODOROGO
 10
30385.604341291921
 20
1577.7494964292871
 30
0.0
 11
30385.604341291921
 21
1597.749496429288
 31
0.0
  0
LINE
  5
3B8D
  8
YODOROGO
 10
30425.604341291921
 20
1581.749496429286
 30
0.0
 11
30389.604341291921
 21
1581.749496429286
 31
0.0
  0
LINE
  5
3B8E
  8
YODOROGO
 10
30425.604341291921
 20
1593.749496429288
 30
0.0
 11
30425.604341291921
 21
1581.749496429286
 31
0.0
  0
LINE
  5
3B8F
  8
YODOROGO
 10
30389.604341291921
 20
1593.749496429288
 30
0.0
 11
30425.604341291921
 21
1593.749496429288
 31
0.0
  0
LINE
  5
3B90
  8
YODOROGO
 10
30389.604341291921
 20
1581.749496429286
 30
0.0
 11
30389.604341291921
 21
1593.749496429288
 31
0.0
  0
LINE
  5
3B91
  8
YODOROGO
 10
30421.604341291932
 20
1585.7494964292871
 30
0.0
 11
30393.604341291921
 21
1585.7494964292871
 31
0.0
  0
LINE
  5
3B92
  8
YODOROGO
 10
30421.604341291932
 20
1589.749496429288
 30
0.0
 11
30421.604341291932
 21
1585.7494964292871
 31
0.0
  0
LINE
  5
3B93
  8
YODOROGO
 10
30393.604341291921
 20
1589.749496429288
 30
0.0
 11
30421.604341291932
 21
1589.749496429288
 31
0.0
  0
LINE
  5
3B94
  8
YODOROGO
 10
30393.604341291921
 20
1585.7494964292871
 30
0.0
 11
30393.604341291921
 21
1589.749496429288
 31
0.0
  0
LINE
  5
3B95
  8
YODOROGO
 10
30465.604341291921
 20
1627.749496429288
 30
0.0
 11
30381.604341291932
 21
1627.749496429288
 31
0.0
  0
LINE
  5
3B96
  8
YODOROGO
 10
30465.604341291921
 20
1547.749496429288
 30
0.0
 11
30465.604341291921
 21
1627.749496429288
 31
0.0
  0
LINE
  5
3B97
  8
YODOROGO
 10
30381.604341291932
 20
1547.749496429288
 30
0.0
 11
30465.604341291921
 21
1547.749496429288
 31
0.0
  0
LINE
  5
3B98
  8
YODOROGO
 10
30381.604341291932
 20
1427.749496429288
 30
0.0
 11
30381.604341291932
 21
1547.749496429288
 31
0.0
  0
LINE
  5
3B99
  8
YODOROGO
 10
30537.604341291921
 20
1427.749496429288
 30
0.0
 11
30381.604341291932
 21
1427.749496429288
 31
0.0
  0
LINE
  5
3B9A
  8
YODOROGO
 10
30569.604341291921
 20
1571.749496429285
 30
0.0
 11
30569.604341291921
 21
1599.7494964292871
 31
0.0
  0
ARC
  5
3B9B
  8
YODOROGO
 10
30545.604341291921
 20
1571.749496429291
 30
0.0
 40
24.000000000003752
 50
270.0
 51
359.99999999998772
  0
LINE
  5
3B9C
  8
YODOROGO
 10
30529.604341291939
 20
1547.749496429288
 30
0.0
 11
30545.604341291921
 21
1547.749496429288
 31
0.0
  0
LINE
  5
3B9D
  8
YODOROGO
 10
30529.604341291939
 20
1627.749496429288
 30
0.0
 11
30529.604341291939
 21
1547.749496429288
 31
0.0
  0
LINE
  5
3B9E
  8
YODOROGO
 10
30899.604341291932
 20
1547.749496429288
 30
0.0
 11
30925.604341291921
 21
1547.749496429288
 31
0.0
  0
LINE
  5
3B9F
  8
YODOROGO
 10
30933.604341291921
 20
1427.749496429288
 30
0.0
 11
30899.604341291932
 21
1427.749496429288
 31
0.0
  0
LINE
  5
3BA0
  8
YODOROGO
 10
30763.604341291921
 20
1563.7494964292871
 30
0.0
 11
30791.604341291921
 21
1563.7494964292871
 31
0.0
  0
LINE
  5
3BA1
  8
YODOROGO
 10
30899.604341291932
 20
1491.749496429288
 30
0.0
 11
30723.604341291921
 21
1491.749496429288
 31
0.0
  0
LINE
  5
3BA2
  8
YODOROGO
 10
30831.604341291921
 20
1563.7494964292871
 30
0.0
 11
30859.604341291932
 21
1563.7494964292871
 31
0.0
  0
LINE
  5
3BA3
  8
YODOROGO
 10
30899.604341291932
 20
1427.749496429288
 30
0.0
 11
30899.604341291932
 21
1547.749496429288
 31
0.0
  0
LINE
  5
3BA4
  8
YODOROGO
 10
30697.604341291932
 20
1427.749496429288
 30
0.0
 11
30645.604341291921
 21
1427.749496429288
 31
0.0
  0
LINE
  5
3BA5
  8
YODOROGO
 10
30617.604341291921
 20
1599.7494964292871
 30
0.0
 11
30617.604341291921
 21
1507.749496429288
 31
0.0
  0
ARC
  5
3BA6
  8
YODOROGO
 10
30933.604341291921
 20
1467.749496429288
 30
0.0
 40
40.0
 50
270.0
 51
0.0
  0
LINE
  5
3BA7
  8
YODOROGO
 10
31093.604341291921
 20
1523.7494964292871
 30
0.0
 11
31093.604341291921
 21
1427.749496429288
 31
0.0
  0
ARC
  5
3BA8
  8
YODOROGO
 10
31039.721395566768
 20
1637.5313901097329
 30
0.0
 40
125.8955565916754
 50
295.34052442160112
 51
359.18902303418679
  0
LINE
  5
3BA9
  8
YODOROGO
 10
30617.604341291921
 20
1859.749496429288
 30
0.0
 11
30497.604341291921
 21
1939.749496429288
 31
0.0
  0
LINE
  5
3BAA
  8
YODOROGO
 10
30497.604341291921
 20
2027.749496429288
 30
0.0
 11
30617.604341291921
 21
1947.749496429288
 31
0.0
  0
LINE
  5
3BAB
  8
YODOROGO
 10
30529.604341291939
 20
1679.749496429288
 30
0.0
 11
30617.604341291921
 21
1679.749496429288
 31
0.0
  0
LINE
  5
3BAC
  8
YODOROGO
 10
30617.604341291921
 20
1735.7494964292871
 30
0.0
 11
30529.604341291939
 21
1735.7494964292871
 31
0.0
  0
LINE
  5
3BAD
  8
YODOROGO
 10
30381.604341291932
 20
1795.7494964292871
 30
0.0
 11
30617.604341291921
 21
1795.7494964292871
 31
0.0
  0
LINE
  5
3BAE
  8
YODOROGO
 10
30081.604341291921
 20
2027.749496429288
 30
0.0
 11
30021.604341291921
 21
2027.749496429288
 31
0.0
  0
LINE
  5
3BAF
  8
YODOROGO
 10
30081.604341291921
 20
1827.7494964292871
 30
0.0
 11
30081.604341291921
 21
2027.749496429288
 31
0.0
  0
LINE
  5
3BB0
  8
YODOROGO
 10
30021.604341291921
 20
1827.7494964292871
 30
0.0
 11
30081.604341291921
 21
1827.7494964292871
 31
0.0
  0
LINE
  5
3BB1
  8
YODOROGO
 10
30021.604341291921
 20
2027.749496429288
 30
0.0
 11
30021.604341291921
 21
1827.7494964292871
 31
0.0
  0
LINE
  5
3BB2
  8
YODOROGO
 10
30161.604341291921
 20
2027.749496429288
 30
0.0
 11
30217.604341291921
 21
2027.749496429288
 31
0.0
  0
LINE
  5
3BB3
  8
YODOROGO
 10
30161.604341291921
 20
1811.749496429288
 30
0.0
 11
30161.604341291921
 21
2027.749496429288
 31
0.0
  0
ARC
  5
3BB4
  8
YODOROGO
 10
30121.604341291921
 20
1811.749496429288
 30
0.0
 40
40.0
 50
270.0
 51
0.0
  0
LINE
  5
3BB5
  8
YODOROGO
 10
30021.604341291921
 20
1771.7494964292871
 30
0.0
 11
30121.604341291921
 21
1771.7494964292871
 31
0.0
  0
LINE
  5
3BB6
  8
YODOROGO
 10
30021.604341291921
 20
1707.749496429288
 30
0.0
 11
30021.604341291921
 21
1771.7494964292871
 31
0.0
  0
LINE
  5
3BB7
  8
YODOROGO
 10
30137.604341291921
 20
1707.749496429288
 30
0.0
 11
30021.604341291921
 21
1707.749496429288
 31
0.0
  0
ARC
  5
3BB8
  8
YODOROGO
 10
30137.604341291921
 20
1787.7494964292871
 30
0.0
 40
80.0
 50
270.0
 51
0.0
  0
LINE
  5
3BB9
  8
YODOROGO
 10
30217.604341291921
 20
2027.749496429288
 30
0.0
 11
30217.604341291921
 21
1787.7494964292871
 31
0.0
  0
LINE
  5
3BBA
  8
YODOROGO
 10
29977.604341291921
 20
1947.749496429288
 30
0.0
 11
29977.604341291921
 21
1995.7494964292871
 31
0.0
1001
AUTOCAD_POSTSCRIPT_FIGURE
1002
{
1000
PSFILL
1000
Grayscale
1000
Grayscale
1070
    25
1002
}
  0
LINE
  5
3BBB
  8
YODOROGO
 10
29977.604341291921
 20
1859.749496429288
 30
0.0
 11
29977.604341291921
 21
1907.7494964292871
 31
0.0
1001
AUTOCAD_POSTSCRIPT_FIGURE
1002
{
1000
PSFILL
1000
Grayscale
1000
Grayscale
1070
    25
1002
}
  0
LINE
  5
3BBC
  8
YODOROGO
 10
29977.604341291921
 20
1707.749496429288
 30
0.0
 11
29977.604341291921
 21
1819.7494964292871
 31
0.0
1001
AUTOCAD_POSTSCRIPT_FIGURE
1002
{
1000
PSFILL
1000
Grayscale
1000
Grayscale
1070
    25
1002
}
  0
LINE
  5
3BBD
  8
YODOROGO
 10
30381.604341291932
 20
1907.7494964292871
 30
0.0
 11
30497.604341291921
 21
2027.749496429288
 31
0.0
  0
LINE
  5
3BBE
  8
YODOROGO
 10
30381.604341291932
 20
1819.7494964292871
 30
0.0
 11
30381.604341291932
 21
1907.7494964292871
 31
0.0
  0
LINE
  5
3BBF
  8
YODOROGO
 10
30497.604341291921
 20
1939.749496429288
 30
0.0
 11
30381.604341291932
 21
1819.7494964292871
 31
0.0
  0
LINE
  5
3BC0
  8
YODOROGO
 10
30465.604341291921
 20
1679.749496429288
 30
0.0
 11
30465.604341291921
 21
1735.7494964292871
 31
0.0
  0
LINE
  5
3BC1
  8
YODOROGO
 10
30381.604341291932
 20
1679.749496429288
 30
0.0
 11
30465.604341291921
 21
1679.749496429288
 31
0.0
  0
LINE
  5
3BC2
  8
YODOROGO
 10
30529.604341291939
 20
1735.7494964292871
 30
0.0
 11
30529.604341291939
 21
1679.749496429288
 31
0.0
  0
LINE
  5
3BC3
  8
YODOROGO
 10
30381.604341291932
 20
1735.7494964292871
 30
0.0
 11
30381.604341291932
 21
1795.7494964292871
 31
0.0
  0
LINE
  5
3BC4
  8
YODOROGO
 10
30465.604341291921
 20
1735.7494964292871
 30
0.0
 11
30381.604341291932
 21
1735.7494964292871
 31
0.0
  0
LINE
  5
3BC5
  8
YODOROGO
 10
30645.604341291921
 20
2027.749496429288
 30
0.0
 11
30973.604341291921
 21
2027.749496429288
 31
0.0
  0
LINE
  5
3BC6
  8
YODOROGO
 10
30925.604341291921
 20
1963.749496429286
 30
0.0
 11
30697.604341291932
 21
1963.749496429286
 31
0.0
  0
LINE
  5
3BC7
  8
YODOROGO
 10
30873.604341291921
 20
1819.7494964292871
 30
0.0
 11
30899.604341291932
 21
1819.7494964292871
 31
0.0
  0
LINE
  5
3BC8
  8
YODOROGO
 10
30899.604341291932
 20
1939.749496429288
 30
0.0
 11
30873.604341291921
 21
1819.7494964292871
 31
0.0
  0
LINE
  5
3BC9
  8
YODOROGO
 10
30851.604341291939
 20
1939.749496429288
 30
0.0
 11
30899.604341291932
 21
1939.749496429288
 31
0.0
  0
LINE
  5
3BCA
  8
YODOROGO
 10
30825.604341291921
 20
1819.7494964292871
 30
0.0
 11
30851.604341291939
 21
1939.749496429288
 31
0.0
  0
LINE
  5
3BCB
  8
YODOROGO
 10
30797.604341291921
 20
1819.7494964292871
 30
0.0
 11
30825.604341291921
 21
1819.7494964292871
 31
0.0
  0
LINE
  5
3BCC
  8
YODOROGO
 10
30771.604341291939
 20
1939.749496429288
 30
0.0
 11
30797.604341291921
 21
1819.7494964292871
 31
0.0
  0
LINE
  5
3BCD
  8
YODOROGO
 10
30723.604341291921
 20
1939.749496429288
 30
0.0
 11
30771.604341291939
 21
1939.749496429288
 31
0.0
  0
LINE
  5
3BCE
  8
YODOROGO
 10
30749.604341291921
 20
1819.7494964292871
 30
0.0
 11
30723.604341291921
 21
1939.749496429288
 31
0.0
  0
LINE
  5
3BCF
  8
YODOROGO
 10
30723.604341291921
 20
1819.7494964292871
 30
0.0
 11
30749.604341291921
 21
1819.7494964292871
 31
0.0
  0
LINE
  5
3BD0
  8
YODOROGO
 10
30723.604341291921
 20
1755.7494964292871
 30
0.0
 11
30723.604341291921
 21
1819.7494964292871
 31
0.0
  0
LINE
  5
3BD1
  8
YODOROGO
 10
30899.604341291932
 20
1755.7494964292871
 30
0.0
 11
30723.604341291921
 21
1755.7494964292871
 31
0.0
  0
LINE
  5
3BD2
  8
YODOROGO
 10
30899.604341291932
 20
1819.7494964292871
 30
0.0
 11
30899.604341291932
 21
1755.7494964292871
 31
0.0
  0
LINE
  5
3BD3
  8
YODOROGO
 10
30617.604341291921
 20
1947.749496429288
 30
0.0
 11
30617.604341291921
 21
1859.749496429288
 31
0.0
  0
LINE
  5
3BD4
  8
YODOROGO
 10
30791.604341291921
 20
1755.7494964292871
 30
0.0
 11
30831.604341291921
 21
1755.7494964292871
 31
0.0
  0
LINE
  5
3BD5
  8
YODOROGO
 10
30723.604341291921
 20
1691.749496429288
 30
0.0
 11
30763.604341291921
 21
1691.749496429288
 31
0.0
  0
LINE
  5
3BD6
  8
YODOROGO
 10
30859.604341291932
 20
1691.749496429288
 30
0.0
 11
30899.604341291932
 21
1691.749496429288
 31
0.0
  0
LINE
  5
3BD7
  8
YODOROGO
 10
30617.604341291921
 20
1795.7494964292871
 30
0.0
 11
30617.604341291921
 21
1735.7494964292871
 31
0.0
  0
LINE
  5
3BD8
  8
YODOROGO
 10
31165.604341291921
 20
2027.749496429288
 30
0.0
 11
31165.604341291921
 21
1963.749496429286
 31
0.0
  0
LINE
  5
3BD9
  8
YODOROGO
 10
31533.604341291921
 20
1595.7494964292871
 30
0.0
 11
31533.60434129191
 21
1811.749496429288
 31
0.0
  0
LINE
  5
3BDA
  8
YODOROGO
 10
31461.60434129191
 20
1987.7494964292871
 30
0.0
 11
31461.60434129191
 21
1635.7494964292871
 31
0.0
  0
LINE
  5
3BDB
  8
YODOROGO
 10
31653.604341291921
 20
1427.749496429288
 30
0.0
 11
31653.60434129191
 21
1811.749496429288
 31
0.0
  0
LINE
  5
3BDC
  8
YODOROGO
 10
31589.604341291921
 20
1811.749496429288
 30
0.0
 11
31589.604341291921
 21
1427.749496429288
 31
0.0
  0
LINE
  5
3BDD
  8
YODOROGO
 10
31237.604341291921
 20
1595.7494964292871
 30
0.0
 11
31237.604341291921
 21
1707.749496429288
 31
0.0
  0
ARC
  5
3BDE
  8
YODOROGO
 10
31353.914865116069
 20
1607.790351288558
 30
0.0
 40
180.0924485759885
 50
268.62849102169793
 51
356.16638457330322
  0
LINE
  5
3BDF
  8
YODOROGO
 10
31349.604341291939
 20
1527.749496429288
 30
0.0
 11
31349.604341291939
 21
1427.749496429288
 31
0.0
  0
ARC
  5
3BE0
  8
YODOROGO
 10
31351.518075724562
 20
1637.838957017655
 30
0.0
 40
110.1060929836122
 50
269.00410209305932
 51
358.91264455492478
  0
LINE
  5
3BE1
  8
YODOROGO
 10
31589.604341291921
 20
1427.749496429288
 30
0.0
 11
31653.604341291921
 21
1427.749496429288
 31
0.0
  0
LINE
  5
3BE2
  8
YODOROGO
 10
31533.60434129191
 20
1811.749496429288
 30
0.0
 11
31589.604341291921
 21
1811.749496429288
 31
0.0
  0
LINE
  5
3BE3
  8
YODOROGO
 10
31621.604341291939
 20
1987.7494964292871
 30
0.0
 11
31461.60434129191
 21
1987.7494964292871
 31
0.0
  0
LINE
  5
3BE4
  8
YODOROGO
 10
31533.60434129191
 20
1915.7494964292871
 30
0.0
 11
31661.604341291939
 21
1915.7494964292871
 31
0.0
  0
LINE
  5
3BE5
  8
YODOROGO
 10
31701.604341291939
 20
1875.7494964292871
 30
0.0
 11
31533.60434129191
 21
1875.7494964292871
 31
0.0
  0
LINE
  5
3BE6
  8
YODOROGO
 10
31237.604341291921
 20
1779.749496429288
 30
0.0
 11
31349.604341291939
 21
1779.749496429288
 31
0.0
  0
LINE
  5
3BE7
  8
YODOROGO
 10
31237.604341291921
 20
1835.7494964292871
 30
0.0
 11
31237.604341291921
 21
1779.749496429288
 31
0.0
  0
LINE
  5
3BE8
  8
YODOROGO
 10
31349.604341291939
 20
1835.7494964292871
 30
0.0
 11
31237.604341291921
 21
1835.7494964292871
 31
0.0
  0
LINE
  5
3BE9
  8
YODOROGO
 10
31349.604341291939
 20
1779.749496429288
 30
0.0
 11
31349.604341291939
 21
1835.7494964292871
 31
0.0
  0
LINE
  5
3BEA
  8
YODOROGO
 10
31533.60434129191
 20
1875.7494964292871
 30
0.0
 11
31533.60434129191
 21
1915.7494964292871
 31
0.0
  0
LINE
  5
3BEB
  8
YODOROGO
 10
31413.604341291921
 20
1707.749496429288
 30
0.0
 11
31413.604341291921
 21
1907.7494964292871
 31
0.0
  0
LINE
  5
3BEC
  8
YODOROGO
 10
31237.604341291921
 20
1707.749496429288
 30
0.0
 11
31413.604341291921
 21
1707.749496429288
 31
0.0
  0
LINE
  5
3BED
  8
YODOROGO
 10
31413.604341291921
 20
1963.749496429286
 30
0.0
 11
31413.604341291921
 21
2027.749496429288
 31
0.0
  0
ARC
  5
3BEE
  8
YODOROGO
 10
31621.604341291939
 20
2003.749496429285
 30
0.0
 40
15.999999999994539
 50
270.0
 51
0.0000000000081422
  0
LINE
  5
3BEF
  8
YODOROGO
 10
31637.604341291921
 20
2027.749496429288
 30
0.0
 11
31637.604341291921
 21
2003.7494964292871
 31
0.0
  0
LINE
  5
3BF0
  8
YODOROGO
 10
31701.604341291939
 20
2027.749496429288
 30
0.0
 11
31637.604341291921
 21
2027.749496429288
 31
0.0
  0
LINE
  5
3BF1
  8
YODOROGO
 10
31701.604341291939
 20
1955.7494964292871
 30
0.0
 11
31701.604341291939
 21
2027.749496429288
 31
0.0
  0
ARC
  5
3BF2
  8
YODOROGO
 10
31661.604341291939
 20
1955.7494964292871
 30
0.0
 40
40.0
 50
270.0
 51
0.0
  0
LINE
  5
3BF3
  8
YODOROGO
 10
31701.604341291939
 20
1811.749496429288
 30
0.0
 11
31701.604341291939
 21
1875.7494964292871
 31
0.0
  0
LINE
  5
3BF4
  8
YODOROGO
 10
31653.60434129191
 20
1811.749496429288
 30
0.0
 11
31701.604341291939
 21
1811.749496429288
 31
0.0
  0
LINE
  5
3BF8
  8
SUNPOU
  6
CONTINUOUS
 62
     4
 10
14418.86405999998
 20
20194.226823000001
 30
0.0
 11
14418.86405999998
 21
20744.232102000031
 31
0.0
  0
LINE
  5
3BF9
  8
SUNPOU
  6
CONTINUOUS
 62
     4
 10
14333.364059999971
 20
20664.232102000031
 30
0.0
 11
14093.364059999971
 21
20664.232102000031
 31
0.0
  0
LINE
  5
3BFA
  8
SUNPOU
  6
CONTINUOUS
 62
     4
 10
14415.86405999998
 20
20664.232102000031
 30
0.0
 11
14655.86405999998
 21
20664.232102000031
 31
0.0
  0
LINE
  5
3BFB
  8
SUNPOU
  6
CONTINUOUS
 62
     4
 10
14333.364059999971
 20
20664.232102000031
 30
0.0
 11
14415.86405999998
 21
20664.232102000031
 31
0.0
  0
LINE
  5
3BFC
  8
SUNPOU
  6
CONTINUOUS
 62
     4
 10
12466.86405999998
 20
20589.234345000041
 30
0.0
 11
12466.86405999998
 21
20584.232102000031
 31
0.0
  0
LINE
  5
3BFD
  8
SUNPOU
  6
CONTINUOUS
 62
     4
 10
12466.86405999998
 20
20664.232102000031
 30
0.0
 11
14333.364059999971
 21
20664.232102000031
 31
0.0
  0
LINE
  5
3BFE
  8
SUNPOU
  6
CONTINUOUS
 62
     4
 10
9813.8640599999835
 20
20194.226823000001
 30
0.0
 11
9813.8640599999835
 21
20744.232102000031
 31
0.0
  0
LINE
  5
3BFF
  8
SUNPOU
  6
CONTINUOUS
 62
     4
 10
9899.3640599999835
 20
20664.232102000031
 30
0.0
 11
10139.36405999998
 21
20664.232102000031
 31
0.0
  0
LINE
  5
3C00
  8
SUNPOU
  6
CONTINUOUS
 62
     4
 10
9816.8640599999835
 20
20664.232102000031
 30
0.0
 11
9576.8640599999835
 21
20664.232102000031
 31
0.0
  0
LINE
  5
3C01
  8
SUNPOU
  6
CONTINUOUS
 62
     4
 10
9899.3640599999835
 20
20664.232102000031
 30
0.0
 11
9816.8640599999835
 21
20664.232102000031
 31
0.0
  0
LINE
  5
3C02
  8
SUNPOU
  6
CONTINUOUS
 62
     4
 10
12466.86405999998
 20
20589.234345000041
 30
0.0
 11
12466.86405999998
 21
20584.232102000031
 31
0.0
  0
LINE
  5
3C03
  8
SUNPOU
  6
CONTINUOUS
 62
     4
 10
12466.86405999998
 20
20664.232102000031
 30
0.0
 11
9899.3640599999835
 21
20664.232102000031
 31
0.0
  0
LINE
  5
3C04
  8
SUNPOU
  6
CONTINUOUS
 62
     4
 10
9736.8578959999923
 20
13512.735599
 30
0.0
 11
8889.8624749999926
 21
13512.735599
 31
0.0
  0
LINE
  5
3C05
  8
SUNPOU
  6
CONTINUOUS
 62
     4
 10
8969.8624749999908
 20
13705.230913999991
 30
0.0
 11
8969.8624749999908
 21
13512.735599
 31
0.0
  0
LINE
  5
3C06
  8
SUNPOU
  6
CONTINUOUS
 62
     4
 10
8969.8624749999908
 20
16973.730914
 30
0.0
 11
8969.8624749999908
 21
13705.230913999991
 31
0.0
  0
LINE
  5
3C07
  8
SUNPOU
  6
CONTINUOUS
 62
     4
 10
9736.8578959999886
 20
20104.226823000012
 30
0.0
 11
9289.8624749999908
 21
20104.226823000012
 31
0.0
  0
LINE
  5
3C08
  8
SUNPOU
  6
CONTINUOUS
 62
     4
 10
9736.8622509999896
 20
20114.226823000001
 30
0.0
 11
9289.8624749999908
 21
20114.226823000001
 31
0.0
  0
LINE
  5
3C09
  8
SUNPOU
  6
CONTINUOUS
 62
     4
 10
9369.862474999989
 20
20104.226823000012
 30
0.0
 11
9369.862474999989
 21
19864.22682299999
 31
0.0
  0
LINE
  5
3C0A
  8
SUNPOU
  6
CONTINUOUS
 62
     4
 10
9369.862474999989
 20
20114.226823000001
 30
0.0
 11
9369.862474999989
 21
20354.226823000012
 31
0.0
  0
LINE
  5
3C0B
  8
SUNPOU
  6
CONTINUOUS
 62
     4
 10
9369.862474999989
 20
20104.226823000012
 30
0.0
 11
9369.862474999989
 21
20114.226823000001
 31
0.0
  0
LINE
  5
3C0C
  8
SUNPOU
  6
CONTINUOUS
 62
     4
 10
9736.8622509999896
 20
20114.226823000001
 30
0.0
 11
8889.8624749999926
 21
20114.226823000001
 31
0.0
  0
LINE
  5
3C0D
  8
SUNPOU
  6
CONTINUOUS
 62
     4
 10
8969.8624749999908
 20
19891.730914
 30
0.0
 11
8969.8624749999908
 21
20114.226823000001
 31
0.0
  0
LINE
  5
3C0E
  8
SUNPOU
  6
CONTINUOUS
 62
     4
 10
8969.8624749999908
 20
16973.730914
 30
0.0
 11
8969.8624749999908
 21
19891.730914
 31
0.0
  0
LINE
  5
3C0F
  8
SUNPOU
  6
CONTINUOUS
 62
     4
 10
20194.821393999991
 20
12999.46747999999
 30
0.0
 11
20194.821393999991
 21
12653.782829999989
 31
0.0
  0
LINE
  5
3C10
  8
SUNPOU
  6
CONTINUOUS
 62
     4
 10
20152.319151
 20
13582.733619000001
 30
0.0
 11
20152.319151
 21
12653.782829999989
 31
0.0
  0
LINE
  5
3C11
  8
SUNPOU
  6
CONTINUOUS
 62
     4
 10
20194.821393999991
 20
12733.782829999989
 30
0.0
 11
20434.821393999991
 21
12733.782829999989
 31
0.0
  0
LINE
  5
3C12
  8
SUNPOU
  6
CONTINUOUS
 62
     4
 10
20152.319151
 20
12733.782829999989
 30
0.0
 11
19912.319151
 21
12733.782829999989
 31
0.0
  0
LINE
  5
3C13
  8
SUNPOU
  6
CONTINUOUS
 62
     4
 10
20194.821393999991
 20
12733.782829999989
 30
0.0
 11
20152.319151
 21
12733.782829999989
 31
0.0
  0
LINE
  5
3C14
  8
SUNPOU
  6
CONTINUOUS
 62
     4
 10
24628.821393999991
 20
12999.46747999999
 30
0.0
 11
24628.821393999991
 21
12653.782829999989
 31
0.0
  0
LINE
  5
3C15
  8
SUNPOU
  6
CONTINUOUS
 62
     4
 10
24671.32363699999
 20
13582.733619000001
 30
0.0
 11
24671.32363699999
 21
12653.782829999989
 31
0.0
  0
LINE
  5
3C16
  8
SUNPOU
  6
CONTINUOUS
 62
     4
 10
24628.821393999991
 20
12733.782829999989
 30
0.0
 11
24388.821393999991
 21
12733.782829999989
 31
0.0
  0
LINE
  5
3C17
  8
SUNPOU
  6
CONTINUOUS
 62
     4
 10
24671.32363699999
 20
12733.782829999989
 30
0.0
 11
24911.32363699999
 21
12733.782829999989
 31
0.0
  0
LINE
  5
3C18
  8
SUNPOU
  6
CONTINUOUS
 62
     4
 10
24628.821393999991
 20
12733.782829999989
 30
0.0
 11
24671.32363699999
 21
12733.782829999989
 31
0.0
  0
LINE
  5
3C19
  8
2-0
  6
CONTINUOUS
 62
     3
 10
22719.821393999991
 20
13662.730913999991
 30
0.0
 11
22804.821393999991
 21
13662.730913999991
 31
0.0
  0
LINE
  5
3C1A
  8
2-0
  6
CONTINUOUS
 62
     3
 10
22804.821393999991
 20
13662.730913999991
 30
0.0
 11
22804.821393999991
 21
13747.730913999991
 31
0.0
  0
LINE
  5
3C1B
  8
2-0
  6
CONTINUOUS
 62
     3
 10
22804.821393999991
 20
13747.730913999991
 30
0.0
 11
22719.821393999991
 21
13747.730913999991
 31
0.0
  0
LINE
  5
3C1C
  8
2-0
  6
CONTINUOUS
 62
     3
 10
22719.821393999991
 20
13747.730913999991
 30
0.0
 11
22719.821393999991
 21
13662.730913999991
 31
0.0
  0
LINE
  5
3C1D
  8
SUNPOU
  6
CONTINUOUS
 62
     4
 10
24628.821393999991
 20
12999.46747999999
 30
0.0
 11
24628.821393999991
 21
12653.782829999989
 31
0.0
  0
LINE
  5
3C1E
  8
SUNPOU
  6
CONTINUOUS
 62
     4
 10
24586.319150999982
 20
13582.733619000001
 30
0.0
 11
24586.319150999982
 21
12653.782829999989
 31
0.0
  0
LINE
  5
3C1F
  8
SUNPOU
  6
CONTINUOUS
 62
     4
 10
24628.821393999991
 20
12733.782829999989
 30
0.0
 11
24868.821393999991
 21
12733.782829999989
 31
0.0
  0
LINE
  5
3C20
  8
SUNPOU
  6
CONTINUOUS
 62
     4
 10
24586.319150999982
 20
12733.782829999989
 30
0.0
 11
24346.319150999982
 21
12733.782829999989
 31
0.0
  0
LINE
  5
3C21
  8
SUNPOU
  6
CONTINUOUS
 62
     4
 10
24628.821393999991
 20
12733.782829999989
 30
0.0
 11
24586.319150999982
 21
12733.782829999989
 31
0.0
  0
LINE
  5
3C22
  8
SUNPOU
  6
CONTINUOUS
 62
     4
 10
20194.821393999991
 20
12999.46747999999
 30
0.0
 11
20194.821393999991
 21
12653.782829999989
 31
0.0
  0
LINE
  5
3C23
  8
SUNPOU
  6
CONTINUOUS
 62
     4
 10
20237.32363699999
 20
13582.733619000001
 30
0.0
 11
20237.32363699999
 21
12653.782829999989
 31
0.0
  0
LINE
  5
3C24
  8
SUNPOU
  6
CONTINUOUS
 62
     4
 10
20194.821393999991
 20
12733.782829999989
 30
0.0
 11
19954.821393999991
 21
12733.782829999989
 31
0.0
  0
LINE
  5
3C25
  8
SUNPOU
  6
CONTINUOUS
 62
     4
 10
20237.32363699999
 20
12733.782829999989
 30
0.0
 11
20477.32363699999
 21
12733.782829999989
 31
0.0
  0
LINE
  5
3C26
  8
SUNPOU
  6
CONTINUOUS
 62
     4
 10
20194.821393999991
 20
12733.782829999989
 30
0.0
 11
20237.32363699999
 21
12733.782829999989
 31
0.0
  0
LINE
  5
3C27
  8
SUNPOU
  6
CONTINUOUS
 62
     4
 10
20152.319151
 20
13582.733619000001
 30
0.0
 11
20152.319151
 21
12253.78283
 31
0.0
  0
LINE
  5
3C28
  8
SUNPOU
  6
CONTINUOUS
 62
     4
 10
24671.32363699999
 20
13582.733619000001
 30
0.0
 11
24671.32363699999
 21
12253.78283
 31
0.0
  0
LINE
  5
3C29
  8
SUNPOU
  6
CONTINUOUS
 62
     4
 10
20152.319151
 20
12333.782829999989
 30
0.0
 11
24671.32363699999
 21
12333.782829999989
 31
0.0
  0
LINE
  5
3C2A
  8
SUNPOU
  6
CONTINUOUS
 62
     4
 10
24751.319677999982
 20
14112.730913999991
 30
0.0
 11
25801.320997999988
 21
14112.730913999991
 31
0.0
  0
LINE
  5
3C2B
  8
SUNPOU
  6
CONTINUOUS
 62
     4
 10
25601.320997999988
 20
13705.230913999991
 30
0.0
 11
25801.320997999988
 21
13705.230913999991
 31
0.0
  0
LINE
  5
3C2C
  8
SUNPOU
  6
CONTINUOUS
 62
     4
 10
25721.320997999988
 20
14112.730913999991
 30
0.0
 11
25721.320997999988
 21
13705.230913999991
 31
0.0
  0
LINE
  5
3C2D
  8
SUNPOU
  6
CONTINUOUS
 62
     4
 10
24751.319677999982
 20
14813.730913999991
 30
0.0
 11
25801.320997999988
 21
14813.730913999991
 31
0.0
  0
LINE
  5
3C2E
  8
SUNPOU
  6
CONTINUOUS
 62
     4
 10
24751.319677999982
 20
14112.730913999991
 30
0.0
 11
25801.320997999988
 21
14112.730913999991
 31
0.0
  0
LINE
  5
3C2F
  8
SUNPOU
  6
CONTINUOUS
 62
     4
 10
25721.320997999988
 20
14813.730913999991
 30
0.0
 11
25721.320997999988
 21
14112.730913999991
 31
0.0
  0
LINE
  5
3C30
  8
SUNPOU
  6
CONTINUOUS
 62
     4
 10
24751.319677999982
 20
15514.971425500011
 30
0.0
 11
25801.320997999988
 21
15514.971425500011
 31
0.0
  0
LINE
  5
3C31
  8
SUNPOU
  6
CONTINUOUS
 62
     4
 10
24751.319677999982
 20
14813.730913999991
 30
0.0
 11
25801.320997999988
 21
14813.730913999991
 31
0.0
  0
LINE
  5
3C32
  8
SUNPOU
  6
CONTINUOUS
 62
     4
 10
25721.320997999988
 20
15514.971425500011
 30
0.0
 11
25721.320997999988
 21
14813.730913999991
 31
0.0
  0
LINE
  5
3C33
  8
SUNPOU
  6
CONTINUOUS
 62
     4
 10
24751.319677999982
 20
16215.730913999991
 30
0.0
 11
25801.320997999988
 21
16215.730913999991
 31
0.0
  0
LINE
  5
3C34
  8
SUNPOU
  6
CONTINUOUS
 62
     4
 10
24751.319677999982
 20
15514.971425500011
 30
0.0
 11
25801.320997999988
 21
15514.971425500011
 31
0.0
  0
LINE
  5
3C35
  8
SUNPOU
  6
CONTINUOUS
 62
     4
 10
25721.320997999988
 20
16215.730913999991
 30
0.0
 11
25721.320997999988
 21
15514.971425500011
 31
0.0
  0
LINE
  5
3C36
  8
SUNPOU
  6
CONTINUOUS
 62
     4
 10
25601.320997999988
 20
16973.730914
 30
0.0
 11
25801.320997999988
 21
16973.730914
 31
0.0
  0
LINE
  5
3C37
  8
SUNPOU
  6
CONTINUOUS
 62
     4
 10
24751.319677999982
 20
16215.730913999991
 30
0.0
 11
25801.320997999988
 21
16215.730913999991
 31
0.0
  0
LINE
  5
3C38
  8
SUNPOU
  6
CONTINUOUS
 62
     4
 10
25721.320997999988
 20
16973.730914
 30
0.0
 11
25721.320997999988
 21
16215.730913999991
 31
0.0
  0
LINE
  5
3C39
  8
SUNPOU
  6
CONTINUOUS
 62
     4
 10
24751.319677999982
 20
17731.730914
 30
0.0
 11
25801.320997999988
 21
17731.730914
 31
0.0
  0
LINE
  5
3C3A
  8
SUNPOU
  6
CONTINUOUS
 62
     4
 10
25601.320997999988
 20
16973.730914
 30
0.0
 11
25801.320997999988
 21
16973.730914
 31
0.0
  0
LINE
  5
3C3B
  8
SUNPOU
  6
CONTINUOUS
 62
     4
 10
25721.320997999988
 20
17731.730914
 30
0.0
 11
25721.320997999988
 21
16973.730914
 31
0.0
  0
LINE
  5
3C3C
  8
SUNPOU
  6
CONTINUOUS
 62
     4
 10
24751.319677999982
 20
18432.730914
 30
0.0
 11
25801.320997999988
 21
18432.730914
 31
0.0
  0
LINE
  5
3C3D
  8
SUNPOU
  6
CONTINUOUS
 62
     4
 10
24751.319677999982
 20
17731.730914
 30
0.0
 11
25801.320997999988
 21
17731.730914
 31
0.0
  0
LINE
  5
3C3E
  8
SUNPOU
  6
CONTINUOUS
 62
     4
 10
25721.320997999988
 20
18432.730914
 30
0.0
 11
25721.320997999988
 21
17731.730914
 31
0.0
  0
LINE
  5
3C3F
  8
SUNPOU
  6
CONTINUOUS
 62
     4
 10
24751.319677999982
 20
19133.730914
 30
0.0
 11
25801.320997999988
 21
19133.730914
 31
0.0
  0
LINE
  5
3C40
  8
SUNPOU
  6
CONTINUOUS
 62
     4
 10
24751.319677999982
 20
18432.730914
 30
0.0
 11
25801.320997999988
 21
18432.730914
 31
0.0
  0
LINE
  5
3C41
  8
SUNPOU
  6
CONTINUOUS
 62
     4
 10
25721.320997999988
 20
19133.730914
 30
0.0
 11
25721.320997999988
 21
18432.730914
 31
0.0
  0
LINE
  5
3C42
  8
SUNPOU
  6
CONTINUOUS
 62
     4
 10
25601.320997999988
 20
19891.730914
 30
0.0
 11
25801.320997999988
 21
19891.730914
 31
0.0
  0
LINE
  5
3C43
  8
SUNPOU
  6
CONTINUOUS
 62
     4
 10
24751.319677999982
 20
19133.730914
 30
0.0
 11
25801.320997999988
 21
19133.730914
 31
0.0
  0
LINE
  5
3C44
  8
SUNPOU
  6
CONTINUOUS
 62
     4
 10
25721.320997999988
 20
19891.730914
 30
0.0
 11
25721.320997999988
 21
19133.730914
 31
0.0
  0
LINE
  5
3C45
  8
SUNPOU
  6
CONTINUOUS
 62
     4
 10
25601.320997999988
 20
16973.730914
 30
0.0
 11
26201.320997999988
 21
16973.730914
 31
0.0
  0
LINE
  5
3C46
  8
SUNPOU
  6
CONTINUOUS
 62
     4
 10
25601.320997999988
 20
19891.730914
 30
0.0
 11
26201.320997999988
 21
19891.730914
 31
0.0
  0
LINE
  5
3C47
  8
SUNPOU
  6
CONTINUOUS
 62
     4
 10
26121.320997999988
 20
16973.730914
 30
0.0
 11
26121.320997999988
 21
19891.730914
 31
0.0
  0
LINE
  5
3C48
  8
SUNPOU
  6
CONTINUOUS
 62
     4
 10
25601.320997999988
 20
13705.230913999991
 30
0.0
 11
26201.320997999988
 21
13705.230913999991
 31
0.0
  0
LINE
  5
3C49
  8
SUNPOU
  6
CONTINUOUS
 62
     4
 10
25601.320997999988
 20
16973.730914
 30
0.0
 11
26201.320997999988
 21
16973.730914
 31
0.0
  0
LINE
  5
3C4A
  8
SUNPOU
  6
CONTINUOUS
 62
     4
 10
26121.320997999988
 20
13705.230913999991
 30
0.0
 11
26121.320997999988
 21
16973.730914
 31
0.0
  0
LINE
  5
3C4B
  8
SUNPOU
  6
CONTINUOUS
 62
     4
 10
24751.319677999982
 20
19934.228209000001
 30
0.0
 11
26601.320997999988
 21
19934.228209000001
 31
0.0
  0
LINE
  5
3C4C
  8
SUNPOU
  6
CONTINUOUS
 62
     4
 10
24751.319677999982
 20
13662.733619000001
 30
0.0
 11
26601.320997999988
 21
13662.733619000001
 31
0.0
  0
LINE
  5
3C4D
  8
SUNPOU
  6
CONTINUOUS
 62
     4
 10
26521.320997999988
 20
19934.228209000001
 30
0.0
 11
26521.320997999988
 21
13662.733619000001
 31
0.0
  0
LINE
  5
3C4E
  8
SUNPOU
  6
CONTINUOUS
 62
     4
 10
25601.320997999988
 20
19891.730914
 30
0.0
 11
26201.320997999988
 21
19891.730914
 31
0.0
  0
LINE
  5
3C4F
  8
SUNPOU
  6
CONTINUOUS
 62
     4
 10
24751.319677999982
 20
19934.228209000001
 30
0.0
 11
26201.320997999988
 21
19934.228209000001
 31
0.0
  0
LINE
  5
3C50
  8
SUNPOU
  6
CONTINUOUS
 62
     4
 10
26121.320997999988
 20
19891.730914
 30
0.0
 11
26121.320997999988
 21
19651.730914
 31
0.0
  0
LINE
  5
3C51
  8
SUNPOU
  6
CONTINUOUS
 62
     4
 10
26121.320997999988
 20
19934.228209000001
 30
0.0
 11
26121.320997999988
 21
20174.228209000001
 31
0.0
  0
LINE
  5
3C52
  8
SUNPOU
  6
CONTINUOUS
 62
     4
 10
26121.320997999988
 20
19891.730914
 30
0.0
 11
26121.320997999988
 21
19934.228209000001
 31
0.0
  0
LINE
  5
3C53
  8
SUNPOU
  6
CONTINUOUS
 62
     4
 10
25601.320997999988
 20
13705.230913999991
 30
0.0
 11
26201.320997999988
 21
13705.230913999991
 31
0.0
  0
LINE
  5
3C54
  8
SUNPOU
  6
CONTINUOUS
 62
     4
 10
24751.319677999982
 20
13662.733619000001
 30
0.0
 11
26201.320997999988
 21
13662.733619000001
 31
0.0
  0
LINE
  5
3C55
  8
SUNPOU
  6
CONTINUOUS
 62
     4
 10
26121.320997999988
 20
13705.230913999991
 30
0.0
 11
26121.320997999988
 21
13945.230913999991
 31
0.0
  0
LINE
  5
3C56
  8
SUNPOU
  6
CONTINUOUS
 62
     4
 10
26121.320997999988
 20
13662.733619000001
 30
0.0
 11
26121.320997999988
 21
13422.733619000001
 31
0.0
  0
LINE
  5
3C57
  8
SUNPOU
  6
CONTINUOUS
 62
     4
 10
26121.320997999988
 20
13705.230913999991
 30
0.0
 11
26121.320997999988
 21
13662.733619000001
 31
0.0
  0
LINE
  5
3C58
  8
SUNPOU
  6
CONTINUOUS
 62
     4
 10
22762.321393999991
 20
20014.229199000009
 30
0.0
 11
22762.321393999991
 21
20744.232102000031
 31
0.0
  0
LINE
  5
3C59
  8
SUNPOU
  6
CONTINUOUS
 62
     4
 10
23169.821393999991
 20
20014.229199000009
 30
0.0
 11
23169.821393999991
 21
20744.232102000031
 31
0.0
  0
LINE
  5
3C5A
  8
SUNPOU
  6
CONTINUOUS
 62
     4
 10
22762.321393999991
 20
20664.232102000031
 30
0.0
 11
23169.821393999991
 21
20664.232102000031
 31
0.0
  0
LINE
  5
3C5B
  8
SUNPOU
  6
CONTINUOUS
 62
     4
 10
23870.821393999991
 20
20014.229199000009
 30
0.0
 11
23870.821393999991
 21
20744.232102000031
 31
0.0
  0
LINE
  5
3C5C
  8
SUNPOU
  6
CONTINUOUS
 62
     4
 10
24628.822383499999
 20
20014.229199000009
 30
0.0
 11
24628.822383499999
 21
20744.232102000031
 31
0.0
  0
LINE
  5
3C5D
  8
SUNPOU
  6
CONTINUOUS
 62
     4
 10
23870.821393999991
 20
20664.232102000031
 30
0.0
 11
24628.822383499999
 21
20664.232102000031
 31
0.0
  0
LINE
  5
3C5E
  8
SUNPOU
  6
CONTINUOUS
 62
     4
 10
23169.821393999991
 20
20014.229199000009
 30
0.0
 11
23169.821393999991
 21
20744.232102000031
 31
0.0
  0
LINE
  5
3C5F
  8
SUNPOU
  6
CONTINUOUS
 62
     4
 10
23870.821393999991
 20
20014.229199000009
 30
0.0
 11
23870.821393999991
 21
20744.232102000031
 31
0.0
  0
LINE
  5
3C60
  8
SUNPOU
  6
CONTINUOUS
 62
     4
 10
23169.821393999991
 20
20664.232102000031
 30
0.0
 11
23870.821393999991
 21
20664.232102000031
 31
0.0
  0
LINE
  5
3C61
  8
SUNPOU
  6
CONTINUOUS
 62
     4
 10
24628.821393999991
 20
20014.229199000009
 30
0.0
 11
24628.821393999991
 21
20744.232102000031
 31
0.0
  0
LINE
  5
3C62
  8
SUNPOU
  6
CONTINUOUS
 62
     4
 10
24671.317698999988
 20
20014.229199000009
 30
0.0
 11
24671.317698999988
 21
20744.232102000031
 31
0.0
  0
LINE
  5
3C63
  8
SUNPOU
  6
CONTINUOUS
 62
     4
 10
24628.821393999991
 20
20664.232102000031
 30
0.0
 11
24388.821393999991
 21
20664.232102000031
 31
0.0
  0
LINE
  5
3C64
  8
SUNPOU
  6
CONTINUOUS
 62
     4
 10
24671.317698999988
 20
20664.232102000031
 30
0.0
 11
24911.317698999988
 21
20664.232102000031
 31
0.0
  0
LINE
  5
3C65
  8
SUNPOU
  6
CONTINUOUS
 62
     4
 10
24628.821393999991
 20
20664.232102000031
 30
0.0
 11
24671.317698999988
 21
20664.232102000031
 31
0.0
  0
LINE
  5
3C66
  8
SUNPOU
  6
CONTINUOUS
 62
     4
 10
20194.821393999991
 20
20014.229199000009
 30
0.0
 11
20194.821393999991
 21
20744.232102000031
 31
0.0
  0
LINE
  5
3C67
  8
SUNPOU
  6
CONTINUOUS
 62
     4
 10
20602.321393999991
 20
20014.229199000009
 30
0.0
 11
20602.321393999991
 21
20744.232102000031
 31
0.0
  0
LINE
  5
3C68
  8
SUNPOU
  6
CONTINUOUS
 62
     4
 10
20194.821393999991
 20
20664.232102000031
 30
0.0
 11
20602.321393999991
 21
20664.232102000031
 31
0.0
  0
LINE
  5
3C69
  8
SUNPOU
  6
CONTINUOUS
 62
     4
 10
20194.821393999991
 20
20014.229199000009
 30
0.0
 11
20194.821393999991
 21
20744.232102000031
 31
0.0
  0
LINE
  5
3C6A
  8
SUNPOU
  6
CONTINUOUS
 62
     4
 10
20152.325089000002
 20
20014.229199000009
 30
0.0
 11
20152.325089000002
 21
20744.232102000031
 31
0.0
  0
LINE
  5
3C6B
  8
SUNPOU
  6
CONTINUOUS
 62
     4
 10
20194.821393999991
 20
20664.232102000031
 30
0.0
 11
20434.821393999991
 21
20664.232102000031
 31
0.0
  0
LINE
  5
3C6C
  8
SUNPOU
  6
CONTINUOUS
 62
     4
 10
20152.325089000002
 20
20664.232102000031
 30
0.0
 11
19912.325088999991
 21
20664.232102000031
 31
0.0
  0
LINE
  5
3C6D
  8
SUNPOU
  6
CONTINUOUS
 62
     4
 10
20194.821393999991
 20
20664.232102000031
 30
0.0
 11
20152.325089000002
 21
20664.232102000031
 31
0.0
  0
LINE
  5
3C6E
  8
SUNPOU
  6
CONTINUOUS
 62
     4
 10
22004.321393999991
 20
20014.229199000009
 30
0.0
 11
22004.321393999991
 21
20744.232102000031
 31
0.0
  0
LINE
  5
3C6F
  8
SUNPOU
  6
CONTINUOUS
 62
     4
 10
22762.322383499992
 20
20014.229199000009
 30
0.0
 11
22762.322383499992
 21
20744.232102000031
 31
0.0
  0
LINE
  5
3C70
  8
SUNPOU
  6
CONTINUOUS
 62
     4
 10
22004.321393999991
 20
20664.232102000031
 30
0.0
 11
22762.322383499992
 21
20664.232102000031
 31
0.0
  0
LINE
  5
3C71
  8
SUNPOU
  6
CONTINUOUS
 62
     4
 10
21303.321393999991
 20
20014.229199000009
 30
0.0
 11
21303.321393999991
 21
20744.232102000031
 31
0.0
  0
LINE
  5
3C72
  8
SUNPOU
  6
CONTINUOUS
 62
     4
 10
22004.321393999991
 20
20014.229199000009
 30
0.0
 11
22004.321393999991
 21
20744.232102000031
 31
0.0
  0
LINE
  5
3C73
  8
SUNPOU
  6
CONTINUOUS
 62
     4
 10
21303.321393999991
 20
20664.232102000031
 30
0.0
 11
22004.321393999991
 21
20664.232102000031
 31
0.0
  0
LINE
  5
3C74
  8
SUNPOU
  6
CONTINUOUS
 62
     4
 10
20602.321393999991
 20
20014.229199000009
 30
0.0
 11
20602.321393999991
 21
20744.232102000031
 31
0.0
  0
LINE
  5
3C75
  8
SUNPOU
  6
CONTINUOUS
 62
     4
 10
21303.321393999991
 20
20014.229199000009
 30
0.0
 11
21303.321393999991
 21
20744.232102000031
 31
0.0
  0
LINE
  5
3C76
  8
SUNPOU
  6
CONTINUOUS
 62
     4
 10
20602.321393999991
 20
20664.232102000031
 30
0.0
 11
21303.321393999991
 21
20664.232102000031
 31
0.0
  0
LINE
  5
3C77
  8
SUNPOU
  6
CONTINUOUS
 62
     4
 10
20064.820735000001
 20
6276.5900849999962
 30
0.0
 11
19264.822053999989
 21
6276.5900849999962
 31
0.0
  0
LINE
  5
3C78
  8
SUNPOU
  6
CONTINUOUS
 62
     4
 10
20064.820735000001
 20
8168.0900849999953
 30
0.0
 11
19264.822053999989
 21
8168.0900849999953
 31
0.0
  0
LINE
  5
3C79
  8
SUNPOU
  6
CONTINUOUS
 62
     4
 10
19344.822053999989
 20
6276.5900849999962
 30
0.0
 11
19344.822053999989
 21
8168.0900849999953
 31
0.0
  0
LINE
  5
3C7A
  8
SUNPOU
  6
CONTINUOUS
 62
     4
 10
20064.820735000001
 20
6276.5900849999962
 30
0.0
 11
18864.819744999979
 21
6276.5900849999962
 31
0.0
  0
LINE
  5
3C7B
  8
SUNPOU
  6
CONTINUOUS
 62
     4
 10
20032.320998999981
 20
8624.5900850000016
 30
0.0
 11
18864.819744999979
 21
8624.5900850000016
 31
0.0
  0
LINE
  5
3C7C
  8
SUNPOU
  6
CONTINUOUS
 62
     4
 10
18944.819744999979
 20
6276.5900849999962
 30
0.0
 11
18944.819744999979
 21
8624.5900850000016
 31
0.0
  0
LINE
  5
3C8D
  8
SUNPOU
  6
CONTINUOUS
 62
     4
 10
20288.821393999991
 20
6096.5902499999984
 30
0.0
 11
20288.821393999991
 21
5296.5902499999984
 31
0.0
  0
LINE
  5
3C8E
  8
SUNPOU
  6
CONTINUOUS
 62
     4
 10
22668.321393999991
 20
6096.5902499999984
 30
0.0
 11
22668.321393999991
 21
5296.5902499999984
 31
0.0
  0
LINE
  5
3C8F
  8
SUNPOU
  6
CONTINUOUS
 62
     4
 10
20288.821393999991
 20
5376.5902499999984
 30
0.0
 11
22668.321393999991
 21
5376.5902499999984
 31
0.0
  0
LINE
  5
3C90
  8
SUNPOU
  6
CONTINUOUS
 62
     4
 10
22856.321393999991
 20
6096.5902499999984
 30
0.0
 11
22856.321393999991
 21
5296.5902499999984
 31
0.0
  0
LINE
  5
3C91
  8
SUNPOU
  6
CONTINUOUS
 62
     4
 10
24534.821393999991
 20
6096.5902499999984
 30
0.0
 11
24534.821393999991
 21
5296.5902499999984
 31
0.0
  0
LINE
  5
3C92
  8
SUNPOU
  6
CONTINUOUS
 62
     4
 10
22856.321393999991
 20
5376.5902499999984
 30
0.0
 11
24534.821393999991
 21
5376.5902499999984
 31
0.0
  0
LINE
  5
3C93
  8
SUNPOU
  6
CONTINUOUS
 62
     4
 10
22762.321393999991
 20
5833.9378269999979
 30
0.0
 11
22762.321393999991
 21
4896.5902499999993
 31
0.0
  0
LINE
  5
3C94
  8
SUNPOU
  6
CONTINUOUS
 62
     4
 10
24628.821393999991
 20
5833.9378269999979
 30
0.0
 11
24628.821393999991
 21
4896.5902499999993
 31
0.0
  0
LINE
  5
3C95
  8
SUNPOU
  6
CONTINUOUS
 62
     4
 10
22762.321393999991
 20
4976.5902500000002
 30
0.0
 11
24628.821393999991
 21
4976.5902500000002
 31
0.0
  0
LINE
  5
3C96
  8
SUNPOU
  6
CONTINUOUS
 62
     4
 10
20194.821393999991
 20
5833.9378269999979
 30
0.0
 11
20194.821393999991
 21
4896.5902499999993
 31
0.0
  0
LINE
  5
3C97
  8
SUNPOU
  6
CONTINUOUS
 62
     4
 10
22762.321393999991
 20
5833.9378269999979
 30
0.0
 11
22762.321393999991
 21
4896.5902499999993
 31
0.0
  0
LINE
  5
3C98
  8
SUNPOU
  6
CONTINUOUS
 62
     4
 10
20194.821393999991
 20
4976.5902500000002
 30
0.0
 11
22762.321393999991
 21
4976.5902500000002
 31
0.0
  0
LINE
  5
3C99
  8
SUNPOU
  6
CONTINUOUS
 62
     4
 10
24628.825353
 20
5833.9378269999979
 30
0.0
 11
24628.825353
 21
4896.5902499999993
 31
0.0
  0
LINE
  5
3C9A
  8
SUNPOU
  6
CONTINUOUS
 62
     4
 10
24671.325353
 20
6096.5902499999984
 30
0.0
 11
24671.325353
 21
4896.5902499999993
 31
0.0
  0
LINE
  5
3C9B
  8
SUNPOU
  6
CONTINUOUS
 62
     4
 10
24628.825353
 20
4976.5902500000002
 30
0.0
 11
24388.825353
 21
4976.5902500000002
 31
0.0
  0
LINE
  5
3C9C
  8
SUNPOU
  6
CONTINUOUS
 62
     4
 10
24671.325353
 20
4976.5902500000002
 30
0.0
 11
24911.325353
 21
4976.5902500000002
 31
0.0
  0
LINE
  5
3C9D
  8
SUNPOU
  6
CONTINUOUS
 62
     4
 10
24628.825353
 20
4976.5902500000002
 30
0.0
 11
24671.325353
 21
4976.5902500000002
 31
0.0
  0
LINE
  5
3C9E
  8
SUNPOU
  6
CONTINUOUS
 62
     4
 10
20194.821393999991
 20
5833.9378269999979
 30
0.0
 11
20194.821393999991
 21
4896.5902499999993
 31
0.0
  0
LINE
  5
3C9F
  8
SUNPOU
  6
CONTINUOUS
 62
     4
 10
20152.321393999991
 20
6096.5902499999984
 30
0.0
 11
20152.321393999991
 21
4896.5902499999993
 31
0.0
  0
LINE
  5
3CA0
  8
SUNPOU
  6
CONTINUOUS
 62
     4
 10
20194.821393999991
 20
4976.5902500000002
 30
0.0
 11
20434.821393999991
 21
4976.5902500000002
 31
0.0
  0
LINE
  5
3CA1
  8
SUNPOU
  6
CONTINUOUS
 62
     4
 10
20152.321393999991
 20
4976.5902500000002
 30
0.0
 11
19912.321393999991
 21
4976.5902500000002
 31
0.0
  0
LINE
  5
3CA2
  8
SUNPOU
  6
CONTINUOUS
 62
     4
 10
20194.821393999991
 20
4976.5902500000002
 30
0.0
 11
20152.321393999991
 21
4976.5902500000002
 31
0.0
  0
LINE
  5
3CA3
  8
SUNPOU
  6
CONTINUOUS
 62
     4
 10
20152.321393999991
 20
6096.5902499999984
 30
0.0
 11
20152.321393999991
 21
4496.5904149999969
 31
0.0
  0
LINE
  5
3CA4
  8
SUNPOU
  6
CONTINUOUS
 62
     4
 10
24671.321393999991
 20
6096.5902499999984
 30
0.0
 11
24671.321393999991
 21
4496.5904149999969
 31
0.0
  0
LINE
  5
3CA5
  8
SUNPOU
  6
CONTINUOUS
 62
     4
 10
20152.321393999991
 20
4576.5904149999969
 30
0.0
 11
24671.321393999991
 21
4576.5904149999969
 31
0.0
  0
LINE
  5
3CA6
  8
SUNPOU
  6
CONTINUOUS
 62
     4
 10
8882.5340609999967
 20
8513.5900850000016
 30
0.0
 11
8882.5340609999967
 21
9904.5901109999977
 31
0.0
  0
LINE
  5
3CA7
  8
SUNPOU
  6
CONTINUOUS
 62
     4
 10
15484.034061
 20
8645.4799084124334
 30
0.0
 11
15484.034061
 21
9904.5901109999977
 31
0.0
  0
LINE
  5
3CA8
  8
SUNPOU
  6
CONTINUOUS
 62
     4
 10
8882.5340609999967
 20
9824.5901109999995
 30
0.0
 11
15484.034061
 21
9824.5901109999995
 31
0.0
  0
LINE
  5
3CA9
  8
SUNPOU
  6
CONTINUOUS
 62
     4
 10
15334.034061
 20
8571.5001490000031
 30
0.0
 11
15334.034061
 21
9504.5917609999997
 31
0.0
  0
LINE
  5
3CAA
  8
SUNPOU
  6
CONTINUOUS
 62
     4
 10
15484.034061
 20
8645.4799084124334
 30
0.0
 11
15484.034061
 21
9504.5917609999997
 31
0.0
  0
LINE
  5
3CAB
  8
SUNPOU
  6
CONTINUOUS
 62
     4
 10
15334.034061
 20
9424.5917609999997
 30
0.0
 11
15094.034061
 21
9424.5917609999997
 31
0.0
  0
LINE
  5
3CAC
  8
SUNPOU
  6
CONTINUOUS
 62
     4
 10
15484.034061
 20
9424.5917609999997
 30
0.0
 11
15724.034061
 21
9424.5917609999997
 31
0.0
  0
LINE
  5
3CAD
  8
SUNPOU
  6
CONTINUOUS
 62
     4
 10
15334.034061
 20
9424.5917609999997
 30
0.0
 11
15484.034061
 21
9424.5917609999997
 31
0.0
  0
LINE
  5
3CAE
  8
SUNPOU
  6
CONTINUOUS
 62
     4
 10
9062.5340609999967
 20
8383.7758606838106
 30
0.0
 11
9062.5340609999967
 21
9504.5917609999997
 31
0.0
  0
LINE
  5
3CAF
  8
SUNPOU
  6
CONTINUOUS
 62
     4
 10
15334.034061
 20
8571.5001490000031
 30
0.0
 11
15334.034061
 21
9504.5917609999997
 31
0.0
  0
LINE
  5
3CB0
  8
SUNPOU
  6
CONTINUOUS
 62
     4
 10
9062.5340609999967
 20
9424.5917609999997
 30
0.0
 11
15334.034061
 21
9424.5917609999997
 31
0.0
  0
LINE
  5
3CB1
  8
SUNPOU
  6
CONTINUOUS
 62
     4
 10
8882.5340609999967
 20
8513.5900850000016
 30
0.0
 11
8882.5340609999967
 21
9504.5917609999997
 31
0.0
  0
LINE
  5
3CB2
  8
SUNPOU
  6
CONTINUOUS
 62
     4
 10
9062.5340609999967
 20
8383.7758606838106
 30
0.0
 11
9062.5340609999967
 21
9504.5917609999997
 31
0.0
  0
LINE
  5
3CB3
  8
SUNPOU
  6
CONTINUOUS
 62
     4
 10
8882.5340609999967
 20
9424.5917609999997
 30
0.0
 11
9062.5340609999967
 21
9424.5917609999997
 31
0.0
  0
LINE
  5
3CB4
  8
SUNPOU
  6
CONTINUOUS
 62
     4
 10
15426.534061
 20
6276.5900850000025
 30
0.0
 11
16504.034456999991
 21
6276.5900850000025
 31
0.0
  0
LINE
  5
3CB5
  8
SUNPOU
  6
CONTINUOUS
 62
     4
 10
15518.84132059936
 20
8624.5900850000016
 30
0.0
 11
16504.034457000002
 21
8624.5900850000016
 31
0.0
  0
LINE
  5
3CB6
  8
SUNPOU
  6
CONTINUOUS
 62
     4
 10
16424.034456999991
 20
6276.5900850000025
 30
0.0
 11
16424.034457000002
 21
8624.5900850000016
 31
0.0
  0
LINE
  5
3CB7
  8
SUNPOU
  6
CONTINUOUS
 62
     4
 10
8975.0340609999967
 20
6276.5900850000025
 30
0.0
 11
7892.5336650000027
 21
6276.5900850000025
 31
0.0
  0
LINE
  5
3CB8
  8
SUNPOU
  6
CONTINUOUS
 62
     4
 10
8802.5340609999967
 20
8433.5900850000016
 30
0.0
 11
7892.5336650000027
 21
8433.5900850000016
 31
0.0
  0
LINE
  5
3CB9
  8
SUNPOU
  6
CONTINUOUS
 62
     4
 10
7972.5336650000027
 20
6276.5900850000025
 30
0.0
 11
7972.5336650000027
 21
8433.5900850000016
 31
0.0
  0
LINE
  5
3CBA
  8
SUNPOU
  6
CONTINUOUS
 62
     4
 10
9062.5340609999967
 20
6196.5900850000025
 30
0.0
 11
9062.5340609999967
 21
4496.5904150000006
 31
0.0
  0
LINE
  5
3CBB
  8
SUNPOU
  6
CONTINUOUS
 62
     4
 10
15334.034061
 20
6196.5900850000025
 30
0.0
 11
15334.034061
 21
4496.5904150000006
 31
0.0
  0
LINE
  5
3CBC
  8
SUNPOU
  6
CONTINUOUS
 62
     4
 10
9062.5340609999967
 20
4576.5904150000006
 30
0.0
 11
15334.034061
 21
4576.5904150000006
 31
0.0
  0
LINE
  5
3CBD
  8
SUNPOU
  6
CONTINUOUS
 62
     4
 10
15291.534061
 20
5833.9378270000034
 30
0.0
 11
15291.534061
 21
4896.5902500000011
 31
0.0
  0
LINE
  5
3CBE
  8
SUNPOU
  6
CONTINUOUS
 62
     4
 10
15334.034061
 20
6196.5900850000025
 30
0.0
 11
15334.034061
 21
4896.5902500000011
 31
0.0
  0
LINE
  5
3CBF
  8
SUNPOU
  6
CONTINUOUS
 62
     4
 10
15291.534061
 20
4976.5902500000002
 30
0.0
 11
15051.53406099998
 21
4976.5902500000002
 31
0.0
  0
LINE
  5
3CC0
  8
SUNPOU
  6
CONTINUOUS
 62
     4
 10
15334.034061
 20
4976.5902500000002
 30
0.0
 11
15574.034061
 21
4976.5902500000002
 31
0.0
  0
LINE
  5
3CC1
  8
SUNPOU
  6
CONTINUOUS
 62
     4
 10
15291.534061
 20
4976.5902500000002
 30
0.0
 11
15334.034061
 21
4976.5902500000002
 31
0.0
  0
LINE
  5
3CC2
  8
SUNPOU
  6
CONTINUOUS
 62
     4
 10
9105.0340609999967
 20
5833.9378270000034
 30
0.0
 11
9105.0340609999967
 21
4896.5902500000011
 31
0.0
  0
LINE
  5
3CC3
  8
SUNPOU
  6
CONTINUOUS
 62
     4
 10
9062.5340609999967
 20
6196.5900850000025
 30
0.0
 11
9062.5340609999967
 21
4896.5902500000011
 31
0.0
  0
LINE
  5
3CC4
  8
SUNPOU
  6
CONTINUOUS
 62
     4
 10
9105.0340609999967
 20
4976.5902500000002
 30
0.0
 11
9345.0340609999985
 21
4976.5902500000002
 31
0.0
  0
LINE
  5
3CC5
  8
SUNPOU
  6
CONTINUOUS
 62
     4
 10
9062.5340609999967
 20
4976.5902500000002
 30
0.0
 11
8822.5340609999967
 21
4976.5902500000002
 31
0.0
  0
LINE
  5
3CC6
  8
SUNPOU
  6
CONTINUOUS
 62
     4
 10
9105.0340609999967
 20
4976.5902500000002
 30
0.0
 11
9062.5340609999967
 21
4976.5902500000002
 31
0.0
  0
LINE
  5
3CC7
  8
SUNPOU
  6
CONTINUOUS
 62
     4
 10
12023.034061
 20
5833.9378270000034
 30
0.0
 11
12023.034061
 21
4896.5902500000011
 31
0.0
  0
LINE
  5
3CC8
  8
SUNPOU
  6
CONTINUOUS
 62
     4
 10
9105.0340609999967
 20
5833.9378270000034
 30
0.0
 11
9105.0340609999967
 21
4896.5902500000011
 31
0.0
  0
LINE
  5
3CC9
  8
SUNPOU
  6
CONTINUOUS
 62
     4
 10
12023.034061
 20
4976.5902500000002
 30
0.0
 11
9105.0340609999967
 21
4976.5902500000002
 31
0.0
  0
LINE
  5
3CCA
  8
SUNPOU
  6
CONTINUOUS
 62
     4
 10
12023.034061
 20
5833.9378270000034
 30
0.0
 11
12023.034061
 21
4896.590250000002
 31
0.0
  0
LINE
  5
3CCB
  8
SUNPOU
  6
CONTINUOUS
 62
     4
 10
15291.534061
 20
5833.9378270000034
 30
0.0
 11
15291.534061
 21
4896.590250000002
 31
0.0
  0
LINE
  5
3CCC
  8
SUNPOU
  6
CONTINUOUS
 62
     4
 10
12023.034061
 20
4976.590250000002
 30
0.0
 11
15291.534061
 21
4976.590250000002
 31
0.0
  0
TEXT
  5
3CCD
  8
0
  6
CONTINUOUS
 62
     7
 10
13257.284061
 20
5056.590250000002
 30
0.0
 40
160.0
  1
3268.5
  0
TEXT
  5
3CCE
  8
0
  6
CONTINUOUS
 62
     7
 10
10297.367394333331
 20
5056.5902500000011
 30
0.0
 40
160.0
  1
2918
  0
TEXT
  5
3CCF
  8
0
  6
CONTINUOUS
 62
     7
 10
8465.3603519036915
 20
5056.5902500000011
 30
0.0
 40
160.0
  1
42.5
  0
TEXT
  5
3CD0
  8
0
  6
CONTINUOUS
 62
     7
 10
15472.35269830982
 20
5056.5902500000011
 30
0.0
 40
160.0
  1
42.5
  0
TEXT
  5
3CD1
  8
0
  6
CONTINUOUS
 62
     7
 10
11824.950727666661
 20
4656.5904150000006
 30
0.0
 40
160.0
  1
6271.5
  0
TEXT
  5
3CD2
  8
0
  6
CONTINUOUS
 62
     7
 10
7892.5336650000008
 20
6576.4234183333374
 30
0.0
 40
160.0
  1
2157（2397）
 50
90.0
  0
TEXT
  5
3CD3
  8
0
  6
CONTINUOUS
 62
     7
 10
16344.034456999991
 20
6645.2567516666686
 30
0.0
 40
160.0
  1
2348（2588）
 50
90.0
  0
TEXT
  5
3CD4
  8
0
  6
CONTINUOUS
 62
     7
 10
8469.2007276666645
 20
9504.5917609999997
 30
0.0
 40
160.0
  1
180
  0
TEXT
  5
3CD5
  8
0
  6
CONTINUOUS
 62
     7
 10
11824.950727666661
 20
9504.5917609999997
 30
0.0
 40
160.0
  1
6271.5
  0
TEXT
  5
3CD6
  8
0
  6
CONTINUOUS
 62
     7
 10
15550.700727666661
 20
9504.5917609999997
 30
0.0
 40
160.0
  1
150
  0
TEXT
  5
3CD7
  8
0
  6
CONTINUOUS
 62
     7
 10
11823.284061
 20
9904.5901109999977
 30
0.0
 40
160.0
  1
6601.5
  0
TEXT
  5
3CD8
  8
0
  6
CONTINUOUS
 62
     7
 10
22145.15472733332
 20
4656.5904149999969
 30
0.0
 40
160.0
  1
4519
  0
TEXT
  5
3CD9
  8
0
  6
CONTINUOUS
 62
     7
 10
19586.282403741141
 20
5056.5902499999993
 30
0.0
 40
160.0
  1
42.5
  0
TEXT
  5
3CDA
  8
0
  6
CONTINUOUS
 62
     7
 10
24757.36434325884
 20
5056.5902499999993
 30
0.0
 40
160.0
  1
42.5
  0
TEXT
  5
3CDB
  8
0
  6
CONTINUOUS
 62
     7
 10
21078.571393999991
 20
5056.5902499999993
 30
0.0
 40
160.0
  1
2567.5
  0
TEXT
  5
3CDC
  8
0
  6
CONTINUOUS
 62
     7
 10
23322.238060666648
 20
5056.5902499999993
 30
0.0
 40
160.0
  1
1866.5
  0
TEXT
  5
3CDD
  8
0
  6
CONTINUOUS
 62
     7
 10
23231.571393999991
 20
5723.2569166666672
 30
0.0
 40
160.0
  1
有効開口巾
  0
TEXT
  5
3CDE
  8
0
  6
CONTINUOUS
 62
     7
 10
23322.238060666648
 20
5456.5902499999984
 30
0.0
 40
160.0
  1
1678.5
  0
TEXT
  5
3CDF
  8
0
  6
CONTINUOUS
 62
     7
 10
20550.571393999991
 20
5456.5902499999984
 30
0.0
 40
160.0
  1
有効開口巾 2379.5
  0
TEXT
  5
3CE4
  8
0
  6
CONTINUOUS
 62
     7
 10
18864.819744999979
 20
6645.2567516666686
 30
0.0
 40
160.0
  1
2348（2588）
 50
90.0
  0
TEXT
  5
3CE5
  8
0
  6
CONTINUOUS
 62
     7
 10
19264.822053999989
 20
6340.5693232912718
 30
0.0
 40
160.0
  1
有効開口高サ 1891.5
 50
90.0
  0
TEXT
  5
3CE6
  8
0
  6
CONTINUOUS
 62
     7
 10
20779.488060666648
 20
20424.232102000031
 30
0.0
 40
160.0
  1
701
  0
TEXT
  5
3CE7
  8
0
  6
CONTINUOUS
 62
     7
 10
21480.488060666648
 20
20744.232102000031
 30
0.0
 40
160.0
  1
701
  0
TEXT
  5
3CE8
  8
0
  6
CONTINUOUS
 62
     7
 10
22169.988555416669
 20
20744.232102000031
 30
0.0
 40
160.0
  1
758
  0
TEXT
  5
3CE9
  8
0
  6
CONTINUOUS
 62
     7
 10
19592.009414471191
 20
20744.232102000031
 30
0.0
 40
160.0
  1
42.5
  0
TEXT
  5
3CEA
  8
0
  6
CONTINUOUS
 62
     7
 10
20295.654727333309
 20
20744.232102000031
 30
0.0
 40
160.0
  1
407.5
  0
TEXT
  5
3CEB
  8
0
  6
CONTINUOUS
 62
     7
 10
24751.633373528799
 20
20744.232102000031
 30
0.0
 40
160.0
  1
42.5
  0
TEXT
  5
3CEC
  8
0
  6
CONTINUOUS
 62
     7
 10
23346.988060666648
 20
20424.232102000031
 30
0.0
 40
160.0
  1
701
  0
TEXT
  5
3CED
  8
0
  6
CONTINUOUS
 62
     7
 10
24036.488555416661
 20
20744.232102000031
 30
0.0
 40
160.0
  1
758
  0
TEXT
  5
3CEE
  8
0
  6
CONTINUOUS
 62
     7
 10
22863.154727333331
 20
20744.232102000031
 30
0.0
 40
160.0
  1
407.5
  0
TEXT
  5
3CEF
  8
0
  6
CONTINUOUS
 62
     7
 10
26041.320997999988
 20
13089.1773826032
 30
0.0
 40
160.0
  1
42.5
 50
90.0
  0
TEXT
  5
3CF0
  8
0
  6
CONTINUOUS
 62
     7
 10
26041.320997999988
 20
20027.784445396788
 30
0.0
 40
160.0
  1
42.5
 50
90.0
  0
TEXT
  5
3CF1
  8
0
  6
CONTINUOUS
 62
     7
 10
26441.320997999981
 20
16425.147580666671
 30
0.0
 40
160.0
  1
6271.5
 50
90.0
  0
TEXT
  5
3CF2
  8
0
  6
CONTINUOUS
 62
     7
 10
26041.320997999981
 20
14939.480913999991
 30
0.0
 40
160.0
  1
3268.5
 50
90.0
  0
TEXT
  5
3CF3
  8
0
  6
CONTINUOUS
 62
     7
 10
26041.320997999981
 20
18166.064247333321
 30
0.0
 40
160.0
  1
2918
 50
90.0
  0
TEXT
  5
3CF4
  8
0
  6
CONTINUOUS
 62
     7
 10
25641.320997999988
 20
19299.397580666671
 30
0.0
 40
160.0
  1
758
 50
90.0
  0
TEXT
  5
3CF5
  8
0
  6
CONTINUOUS
 62
     7
 10
25641.320997999988
 20
18609.897580666671
 30
0.0
 40
160.0
  1
701
 50
90.0
  0
TEXT
  5
3CF6
  8
0
  6
CONTINUOUS
 62
     7
 10
25641.320997999988
 20
17908.897580666671
 30
0.0
 40
160.0
  1
701
 50
90.0
  0
TEXT
  5
3CF7
  8
0
  6
CONTINUOUS
 62
     7
 10
25641.320997999988
 20
17139.397580666671
 30
0.0
 40
160.0
  1
758
 50
90.0
  0
TEXT
  5
3CF8
  8
0
  6
CONTINUOUS
 62
     7
 10
25641.320997999988
 20
16381.39758066666
 30
0.0
 40
160.0
  1
758
 50
90.0
  0
TEXT
  5
3CF9
  8
0
  6
CONTINUOUS
 62
     7
 10
25641.320997999988
 20
15692.01783641668
 30
0.0
 40
160.0
  1
701
 50
90.0
  0
TEXT
  5
3CFA
  8
0
  6
CONTINUOUS
 62
     7
 10
25641.320997999988
 20
14991.01783641668
 30
0.0
 40
160.0
  1
701
 50
90.0
  0
TEXT
  5
3CFB
  8
0
  6
CONTINUOUS
 62
     7
 10
25641.320997999988
 20
14289.89758066666
 30
0.0
 40
160.0
  1
701
 50
90.0
  0
TEXT
  5
3CFC
  8
0
  6
CONTINUOUS
 62
     7
 10
26001.320997999999
 20
13778.051328203541
 30
0.0
 40
160.0
  1
407.5
 50
90.0
  0
TEXT
  5
3CFD
  8
0
  6
CONTINUOUS
 62
     7
 10
22145.154727333331
 20
12413.782829999989
 30
0.0
 40
160.0
  1
4519
  0
TEXT
  5
3CFE
  8
0
  6
CONTINUOUS
 62
     7
 10
20312.87506638209
 20
12813.78283
 30
0.0
 40
160.0
  1
42.5
  0
TEXT
  5
3CFF
  8
0
  6
CONTINUOUS
 62
     7
 10
24030.7677216179
 20
12813.78283
 30
0.0
 40
160.0
  1
42.5
  0
TEXT
  5
3D00
  8
0
  6
CONTINUOUS
 62
     7
 10
24746.87506638209
 20
12813.78283
 30
0.0
 40
160.0
  1
42.5
  0
TEXT
  5
3D01
  8
0
  6
CONTINUOUS
 62
     7
 10
19596.7677216179
 20
12813.78283
 30
0.0
 40
160.0
  1
42.5
  0
TEXT
  5
3D02
  8
0
  6
CONTINUOUS
 62
     7
 10
8889.8624749999926
 20
18166.064247333321
 30
0.0
 40
160.0
  1
2918
 50
90.0
  0
TEXT
  5
3D03
  8
0
  6
CONTINUOUS
 62
     7
 10
8889.8624749999854
 20
20203.186098807681
 30
0.0
 40
160.0
  1
222.5
 50
90.0
  0
TEXT
  5
3D04
  8
0
  6
CONTINUOUS
 62
     7
 10
9289.8624749999908
 20
20260.89348966668
 30
0.0
 40
160.0
  1
10
 50
90.0
  0
TEXT
  5
3D05
  8
0
  6
CONTINUOUS
 62
     7
 10
8889.8624749999926
 20
14939.480913999991
 30
0.0
 40
160.0
  1
3268.5
 50
90.0
  0
TEXT
  5
3D06
  8
0
  6
CONTINUOUS
 62
     7
 10
8889.8624749999926
 20
12897.27790370263
 30
0.0
 40
160.0
  1
192.5
 50
90.0
  0
TEXT
  5
3D07
  8
0
  6
CONTINUOUS
 62
     7
 10
10938.72922204725
 20
20744.232102000031
 30
0.0
 40
160.0
  1
2567.5
  0
TEXT
  5
3D08
  8
0
  6
CONTINUOUS
 62
     7
 10
9282.8673539767242
 20
20744.232102000031
 30
0.0
 40
160.0
  1
85.5
  0
TEXT
  5
3D09
  8
0
  6
CONTINUOUS
 62
     7
 10
13026.78072666664
 20
20744.232102000031
 30
0.0
 40
160.0
  1
1866.5
  0
TEXT
  5
3D0A
  8
0
  6
CONTINUOUS
 62
     7
 10
14469.86076602325
 20
20744.232102000031
 30
0.0
 40
160.0
  1
85.5
  0
ARC
  5
3D10
  8
0
  6
BYBLOCK
 62
     0
 10
14333.364059999971
 20
20664.232102000031
 30
0.0
 40
15.0
 50
180.0
 51
0.0
  0
ARC
  5
3D11
  8
0
  6
BYBLOCK
 62
     0
 10
14333.364059999971
 20
20664.232102000031
 30
0.0
 40
15.0
 50
0.0
 51
180.0
  0
ARC
  5
3D12
  8
0
  6
BYBLOCK
 62
     0
 10
14418.86405999998
 20
20664.232102000031
 30
0.0
 40
15.0
 50
0.0
 51
180.0
  0
ARC
  5
3D13
  8
0
  6
BYBLOCK
 62
     0
 10
14418.86405999998
 20
20664.232102000031
 30
0.0
 40
15.0
 50
180.0
 51
0.0
  0
ARC
  5
3D14
  8
0
  6
BYBLOCK
 62
     0
 10
12466.86405999998
 20
20664.232102000031
 30
0.0
 40
15.0
 50
0.0
 51
180.0
  0
ARC
  5
3D15
  8
0
  6
BYBLOCK
 62
     0
 10
12466.86405999998
 20
20664.232102000031
 30
0.0
 40
15.0
 50
180.0
 51
0.0
  0
ARC
  5
3D16
  8
0
  6
BYBLOCK
 62
     0
 10
14333.364059999971
 20
20664.232102000031
 30
0.0
 40
15.0
 50
180.0
 51
0.0
  0
ARC
  5
3D17
  8
0
  6
BYBLOCK
 62
     0
 10
14333.364059999971
 20
20664.232102000031
 30
0.0
 40
15.0
 50
0.0
 51
180.0
  0
ARC
  5
3D18
  8
0
  6
BYBLOCK
 62
     0
 10
9899.3640599999835
 20
20664.232102000031
 30
0.0
 40
15.0
 50
0.0
 51
180.0
  0
ARC
  5
3D19
  8
0
  6
BYBLOCK
 62
     0
 10
9899.3640599999835
 20
20664.232102000031
 30
0.0
 40
15.0
 50
180.0
 51
0.0
  0
ARC
  5
3D1A
  8
0
  6
BYBLOCK
 62
     0
 10
9813.8640599999835
 20
20664.232102000031
 30
0.0
 40
15.0
 50
180.0
 51
0.0
  0
ARC
  5
3D1B
  8
0
  6
BYBLOCK
 62
     0
 10
9813.8640599999835
 20
20664.232102000031
 30
0.0
 40
15.0
 50
0.0
 51
180.0
  0
ARC
  5
3D1C
  8
0
  6
BYBLOCK
 62
     0
 10
12466.86405999998
 20
20664.232102000031
 30
0.0
 40
15.0
 50
180.0
 51
0.0
  0
ARC
  5
3D1D
  8
0
  6
BYBLOCK
 62
     0
 10
12466.86405999998
 20
20664.232102000031
 30
0.0
 40
15.0
 50
0.0
 51
180.0
  0
ARC
  5
3D1E
  8
0
  6
BYBLOCK
 62
     0
 10
9899.3640599999835
 20
20664.232102000031
 30
0.0
 40
15.0
 50
0.0
 51
180.0
  0
ARC
  5
3D1F
  8
0
  6
BYBLOCK
 62
     0
 10
9899.3640599999835
 20
20664.232102000031
 30
0.0
 40
15.0
 50
180.0
 51
0.0
  0
ARC
  5
3D20
  8
0
  6
BYBLOCK
 62
     0
 10
8969.8624749999908
 20
13705.230913999991
 30
0.0
 40
15.0
 50
270.0
 51
90.0
  0
ARC
  5
3D21
  8
0
  6
BYBLOCK
 62
     0
 10
8969.8624749999908
 20
13705.230913999991
 30
0.0
 40
15.0
 50
90.0
 51
270.0
  0
ARC
  5
3D22
  8
0
  6
BYBLOCK
 62
     0
 10
8969.8624749999908
 20
13512.735599
 30
0.0
 40
15.0
 50
90.0
 51
270.0
  0
ARC
  5
3D23
  8
0
  6
BYBLOCK
 62
     0
 10
8969.8624749999908
 20
13512.735599
 30
0.0
 40
15.0
 50
270.0
 51
90.0
  0
ARC
  5
3D24
  8
0
  6
BYBLOCK
 62
     0
 10
8969.8624749999908
 20
16973.730914
 30
0.0
 40
15.0
 50
270.0
 51
90.0
  0
ARC
  5
3D25
  8
0
  6
BYBLOCK
 62
     0
 10
8969.8624749999908
 20
16973.730914
 30
0.0
 40
15.0
 50
90.0
 51
270.0
  0
ARC
  5
3D26
  8
0
  6
BYBLOCK
 62
     0
 10
8969.8624749999908
 20
13705.230913999991
 30
0.0
 40
15.0
 50
90.0
 51
270.0
  0
ARC
  5
3D27
  8
0
  6
BYBLOCK
 62
     0
 10
8969.8624749999908
 20
13705.230913999991
 30
0.0
 40
15.0
 50
270.0
 51
90.0
  0
ARC
  5
3D28
  8
0
  6
BYBLOCK
 62
     0
 10
9369.862474999989
 20
20104.226823000012
 30
0.0
 40
15.0
 50
270.0
 51
90.0
  0
ARC
  5
3D29
  8
0
  6
BYBLOCK
 62
     0
 10
9369.862474999989
 20
20104.226823000012
 30
0.0
 40
15.0
 50
90.0
 51
270.0
  0
ARC
  5
3D2A
  8
0
  6
BYBLOCK
 62
     0
 10
9369.862474999989
 20
20114.226823000001
 30
0.0
 40
15.0
 50
90.0
 51
270.0
  0
ARC
  5
3D2B
  8
0
  6
BYBLOCK
 62
     0
 10
9369.862474999989
 20
20114.226823000001
 30
0.0
 40
15.0
 50
270.0
 51
90.0
  0
ARC
  5
3D2C
  8
0
  6
BYBLOCK
 62
     0
 10
8969.8624749999908
 20
19891.730914
 30
0.0
 40
15.0
 50
90.0
 51
270.0
  0
ARC
  5
3D2D
  8
0
  6
BYBLOCK
 62
     0
 10
8969.8624749999908
 20
19891.730914
 30
0.0
 40
15.0
 50
270.0
 51
90.0
  0
ARC
  5
3D2E
  8
0
  6
BYBLOCK
 62
     0
 10
8969.8624749999908
 20
20114.226823000001
 30
0.0
 40
15.0
 50
270.0
 51
90.0
  0
ARC
  5
3D2F
  8
0
  6
BYBLOCK
 62
     0
 10
8969.8624749999908
 20
20114.226823000001
 30
0.0
 40
15.0
 50
90.0
 51
270.0
  0
ARC
  5
3D30
  8
0
  6
BYBLOCK
 62
     0
 10
8969.8624749999908
 20
16973.730914
 30
0.0
 40
15.0
 50
90.0
 51
270.0
  0
ARC
  5
3D31
  8
0
  6
BYBLOCK
 62
     0
 10
8969.8624749999908
 20
16973.730914
 30
0.0
 40
15.0
 50
270.0
 51
90.0
  0
ARC
  5
3D32
  8
0
  6
BYBLOCK
 62
     0
 10
8969.8624749999908
 20
19891.730914
 30
0.0
 40
15.0
 50
270.0
 51
90.0
  0
ARC
  5
3D33
  8
0
  6
BYBLOCK
 62
     0
 10
8969.8624749999908
 20
19891.730914
 30
0.0
 40
15.0
 50
90.0
 51
270.0
  0
ARC
  5
3D34
  8
0
  6
BYBLOCK
 62
     0
 10
20194.821393999991
 20
12733.782829999989
 30
0.0
 40
15.0
 50
0.0
 51
180.0
  0
ARC
  5
3D35
  8
0
  6
BYBLOCK
 62
     0
 10
20194.821393999991
 20
12733.782829999989
 30
0.0
 40
15.0
 50
180.0
 51
0.0
  0
ARC
  5
3D36
  8
0
  6
BYBLOCK
 62
     0
 10
20152.319151
 20
12733.782829999989
 30
0.0
 40
15.0
 50
180.0
 51
0.0
  0
ARC
  5
3D37
  8
0
  6
BYBLOCK
 62
     0
 10
20152.319151
 20
12733.782829999989
 30
0.0
 40
15.0
 50
0.0
 51
180.0
  0
ARC
  5
3D38
  8
0
  6
BYBLOCK
 62
     0
 10
24628.821393999991
 20
12733.782829999989
 30
0.0
 40
15.0
 50
180.0
 51
0.0
  0
ARC
  5
3D39
  8
0
  6
BYBLOCK
 62
     0
 10
24628.821393999991
 20
12733.782829999989
 30
0.0
 40
15.0
 50
0.0
 51
180.0
  0
ARC
  5
3D3A
  8
0
  6
BYBLOCK
 62
     0
 10
24671.32363699999
 20
12733.782829999989
 30
0.0
 40
15.0
 50
0.0
 51
180.0
  0
ARC
  5
3D3B
  8
0
  6
BYBLOCK
 62
     0
 10
24671.32363699999
 20
12733.782829999989
 30
0.0
 40
15.0
 50
180.0
 51
0.0
  0
ARC
  5
3D3C
  8
0
  6
BYBLOCK
 62
     0
 10
24628.821393999991
 20
12733.782829999989
 30
0.0
 40
15.0
 50
0.0
 51
180.0
  0
ARC
  5
3D3D
  8
0
  6
BYBLOCK
 62
     0
 10
24628.821393999991
 20
12733.782829999989
 30
0.0
 40
15.0
 50
180.0
 51
0.0
  0
ARC
  5
3D3E
  8
0
  6
BYBLOCK
 62
     0
 10
24586.319150999982
 20
12733.782829999989
 30
0.0
 40
15.0
 50
180.0
 51
0.0
  0
ARC
  5
3D3F
  8
0
  6
BYBLOCK
 62
     0
 10
24586.319150999982
 20
12733.782829999989
 30
0.0
 40
15.0
 50
0.0
 51
180.0
  0
ARC
  5
3D40
  8
0
  6
BYBLOCK
 62
     0
 10
20194.821393999991
 20
12733.782829999989
 30
0.0
 40
15.0
 50
180.0
 51
0.0
  0
ARC
  5
3D41
  8
0
  6
BYBLOCK
 62
     0
 10
20194.821393999991
 20
12733.782829999989
 30
0.0
 40
15.0
 50
0.0
 51
180.0
  0
ARC
  5
3D42
  8
0
  6
BYBLOCK
 62
     0
 10
20237.32363699999
 20
12733.782829999989
 30
0.0
 40
15.0
 50
0.0
 51
180.0
  0
ARC
  5
3D43
  8
0
  6
BYBLOCK
 62
     0
 10
20237.32363699999
 20
12733.782829999989
 30
0.0
 40
15.0
 50
180.0
 51
0.0
  0
ARC
  5
3D44
  8
0
  6
BYBLOCK
 62
     0
 10
20152.319151
 20
12333.782829999989
 30
0.0
 40
15.0
 50
0.0
 51
180.0
  0
ARC
  5
3D45
  8
0
  6
BYBLOCK
 62
     0
 10
20152.319151
 20
12333.782829999989
 30
0.0
 40
15.0
 50
180.0
 51
0.0
  0
ARC
  5
3D46
  8
0
  6
BYBLOCK
 62
     0
 10
24671.32363699999
 20
12333.782829999989
 30
0.0
 40
15.0
 50
180.0
 51
0.0
  0
ARC
  5
3D47
  8
0
  6
BYBLOCK
 62
     0
 10
24671.32363699999
 20
12333.782829999989
 30
0.0
 40
15.0
 50
0.0
 51
180.0
  0
ARC
  5
3D48
  8
0
  6
BYBLOCK
 62
     0
 10
25721.320997999988
 20
14112.730913999991
 30
0.0
 40
15.0
 50
270.0
 51
90.0
  0
ARC
  5
3D49
  8
0
  6
BYBLOCK
 62
     0
 10
25721.320997999988
 20
14112.730913999991
 30
0.0
 40
15.0
 50
90.0
 51
270.0
  0
ARC
  5
3D4A
  8
0
  6
BYBLOCK
 62
     0
 10
25721.320997999988
 20
13705.230913999991
 30
0.0
 40
15.0
 50
90.0
 51
270.0
  0
ARC
  5
3D4B
  8
0
  6
BYBLOCK
 62
     0
 10
25721.320997999988
 20
13705.230913999991
 30
0.0
 40
15.0
 50
270.0
 51
90.0
  0
ARC
  5
3D4C
  8
0
  6
BYBLOCK
 62
     0
 10
25721.320997999988
 20
14813.730913999991
 30
0.0
 40
15.0
 50
270.0
 51
90.0
  0
ARC
  5
3D4D
  8
0
  6
BYBLOCK
 62
     0
 10
25721.320997999988
 20
14813.730913999991
 30
0.0
 40
15.0
 50
90.0
 51
270.0
  0
ARC
  5
3D4E
  8
0
  6
BYBLOCK
 62
     0
 10
25721.320997999988
 20
14112.730913999991
 30
0.0
 40
15.0
 50
90.0
 51
270.0
  0
ARC
  5
3D4F
  8
0
  6
BYBLOCK
 62
     0
 10
25721.320997999988
 20
14112.730913999991
 30
0.0
 40
15.0
 50
270.0
 51
90.0
  0
ARC
  5
3D50
  8
0
  6
BYBLOCK
 62
     0
 10
25721.320997999988
 20
15514.971425500011
 30
0.0
 40
15.0
 50
270.0
 51
90.0
  0
ARC
  5
3D51
  8
0
  6
BYBLOCK
 62
     0
 10
25721.320997999988
 20
15514.971425500011
 30
0.0
 40
15.0
 50
90.0
 51
270.0
  0
ARC
  5
3D52
  8
0
  6
BYBLOCK
 62
     0
 10
25721.320997999988
 20
14813.730913999991
 30
0.0
 40
15.0
 50
90.0
 51
270.0
  0
ARC
  5
3D53
  8
0
  6
BYBLOCK
 62
     0
 10
25721.320997999988
 20
14813.730913999991
 30
0.0
 40
15.0
 50
270.0
 51
90.0
  0
ARC
  5
3D54
  8
0
  6
BYBLOCK
 62
     0
 10
25721.320997999988
 20
16215.730913999991
 30
0.0
 40
15.0
 50
270.0
 51
90.0
  0
ARC
  5
3D55
  8
0
  6
BYBLOCK
 62
     0
 10
25721.320997999988
 20
16215.730913999991
 30
0.0
 40
15.0
 50
90.0
 51
270.0
  0
ARC
  5
3D56
  8
0
  6
BYBLOCK
 62
     0
 10
25721.320997999988
 20
15514.971425500011
 30
0.0
 40
15.0
 50
90.0
 51
270.0
  0
ARC
  5
3D57
  8
0
  6
BYBLOCK
 62
     0
 10
25721.320997999988
 20
15514.971425500011
 30
0.0
 40
15.0
 50
270.0
 51
90.0
  0
ARC
  5
3D58
  8
0
  6
BYBLOCK
 62
     0
 10
25721.320997999988
 20
16973.730914
 30
0.0
 40
15.0
 50
270.0
 51
90.0
  0
ARC
  5
3D59
  8
0
  6
BYBLOCK
 62
     0
 10
25721.320997999988
 20
16973.730914
 30
0.0
 40
15.0
 50
90.0
 51
270.0
  0
ARC
  5
3D5A
  8
0
  6
BYBLOCK
 62
     0
 10
25721.320997999988
 20
16215.730913999991
 30
0.0
 40
15.0
 50
90.0
 51
270.0
  0
ARC
  5
3D5B
  8
0
  6
BYBLOCK
 62
     0
 10
25721.320997999988
 20
16215.730913999991
 30
0.0
 40
15.0
 50
270.0
 51
90.0
  0
ARC
  5
3D5C
  8
0
  6
BYBLOCK
 62
     0
 10
25721.320997999988
 20
17731.730914
 30
0.0
 40
15.0
 50
270.0
 51
90.0
  0
ARC
  5
3D5D
  8
0
  6
BYBLOCK
 62
     0
 10
25721.320997999988
 20
17731.730914
 30
0.0
 40
15.0
 50
90.0
 51
270.0
  0
ARC
  5
3D5E
  8
0
  6
BYBLOCK
 62
     0
 10
25721.320997999988
 20
16973.730914
 30
0.0
 40
15.0
 50
90.0
 51
270.0
  0
ARC
  5
3D5F
  8
0
  6
BYBLOCK
 62
     0
 10
25721.320997999988
 20
16973.730914
 30
0.0
 40
15.0
 50
270.0
 51
90.0
  0
ARC
  5
3D60
  8
0
  6
BYBLOCK
 62
     0
 10
25721.320997999988
 20
18432.730914
 30
0.0
 40
15.0
 50
270.0
 51
90.0
  0
ARC
  5
3D61
  8
0
  6
BYBLOCK
 62
     0
 10
25721.320997999988
 20
18432.730914
 30
0.0
 40
15.0
 50
90.0
 51
270.0
  0
ARC
  5
3D62
  8
0
  6
BYBLOCK
 62
     0
 10
25721.320997999988
 20
17731.730914
 30
0.0
 40
15.0
 50
90.0
 51
270.0
  0
ARC
  5
3D63
  8
0
  6
BYBLOCK
 62
     0
 10
25721.320997999988
 20
17731.730914
 30
0.0
 40
15.0
 50
270.0
 51
90.0
  0
ARC
  5
3D64
  8
0
  6
BYBLOCK
 62
     0
 10
25721.320997999988
 20
19133.730914
 30
0.0
 40
15.0
 50
270.0
 51
90.0
  0
ARC
  5
3D65
  8
0
  6
BYBLOCK
 62
     0
 10
25721.320997999988
 20
19133.730914
 30
0.0
 40
15.0
 50
90.0
 51
270.0
  0
ARC
  5
3D66
  8
0
  6
BYBLOCK
 62
     0
 10
25721.320997999988
 20
18432.730914
 30
0.0
 40
15.0
 50
90.0
 51
270.0
  0
ARC
  5
3D67
  8
0
  6
BYBLOCK
 62
     0
 10
25721.320997999988
 20
18432.730914
 30
0.0
 40
15.0
 50
270.0
 51
90.0
  0
ARC
  5
3D68
  8
0
  6
BYBLOCK
 62
     0
 10
25721.320997999988
 20
19891.730914
 30
0.0
 40
15.0
 50
270.0
 51
90.0
  0
ARC
  5
3D69
  8
0
  6
BYBLOCK
 62
     0
 10
25721.320997999988
 20
19891.730914
 30
0.0
 40
15.0
 50
90.0
 51
270.0
  0
ARC
  5
3D6A
  8
0
  6
BYBLOCK
 62
     0
 10
25721.320997999988
 20
19133.730914
 30
0.0
 40
15.0
 50
90.0
 51
270.0
  0
ARC
  5
3D6B
  8
0
  6
BYBLOCK
 62
     0
 10
25721.320997999988
 20
19133.730914
 30
0.0
 40
15.0
 50
270.0
 51
90.0
  0
ARC
  5
3D6C
  8
0
  6
BYBLOCK
 62
     0
 10
26121.320997999988
 20
16973.730914
 30
0.0
 40
15.0
 50
90.0
 51
270.0
  0
ARC
  5
3D6D
  8
0
  6
BYBLOCK
 62
     0
 10
26121.320997999988
 20
16973.730914
 30
0.0
 40
15.0
 50
270.0
 51
90.0
  0
ARC
  5
3D6E
  8
0
  6
BYBLOCK
 62
     0
 10
26121.320997999988
 20
19891.730914
 30
0.0
 40
15.0
 50
270.0
 51
90.0
  0
ARC
  5
3D6F
  8
0
  6
BYBLOCK
 62
     0
 10
26121.320997999988
 20
19891.730914
 30
0.0
 40
15.0
 50
90.0
 51
270.0
  0
ARC
  5
3D70
  8
0
  6
BYBLOCK
 62
     0
 10
26121.320997999988
 20
13705.230913999991
 30
0.0
 40
15.0
 50
90.0
 51
270.0
  0
ARC
  5
3D71
  8
0
  6
BYBLOCK
 62
     0
 10
26121.320997999988
 20
13705.230913999991
 30
0.0
 40
15.0
 50
270.0
 51
90.0
  0
ARC
  5
3D72
  8
0
  6
BYBLOCK
 62
     0
 10
26121.320997999988
 20
16973.730914
 30
0.0
 40
15.0
 50
270.0
 51
90.0
  0
ARC
  5
3D73
  8
0
  6
BYBLOCK
 62
     0
 10
26121.320997999988
 20
16973.730914
 30
0.0
 40
15.0
 50
90.0
 51
270.0
  0
ARC
  5
3D74
  8
0
  6
BYBLOCK
 62
     0
 10
26521.320997999988
 20
19934.228209000001
 30
0.0
 40
15.0
 50
270.0
 51
90.0
  0
ARC
  5
3D75
  8
0
  6
BYBLOCK
 62
     0
 10
26521.320997999988
 20
19934.228209000001
 30
0.0
 40
15.0
 50
90.0
 51
270.0
  0
ARC
  5
3D76
  8
0
  6
BYBLOCK
 62
     0
 10
26521.320997999988
 20
13662.733619000001
 30
0.0
 40
15.0
 50
90.0
 51
270.0
  0
ARC
  5
3D77
  8
0
  6
BYBLOCK
 62
     0
 10
26521.320997999988
 20
13662.733619000001
 30
0.0
 40
15.0
 50
270.0
 51
90.0
  0
ARC
  5
3D78
  8
0
  6
BYBLOCK
 62
     0
 10
26121.320997999988
 20
19891.730914
 30
0.0
 40
15.0
 50
270.0
 51
90.0
  0
ARC
  5
3D79
  8
0
  6
BYBLOCK
 62
     0
 10
26121.320997999988
 20
19891.730914
 30
0.0
 40
15.0
 50
90.0
 51
270.0
  0
ARC
  5
3D7A
  8
0
  6
BYBLOCK
 62
     0
 10
26121.320997999988
 20
19934.228209000001
 30
0.0
 40
15.0
 50
90.0
 51
270.0
  0
ARC
  5
3D7B
  8
0
  6
BYBLOCK
 62
     0
 10
26121.320997999988
 20
19934.228209000001
 30
0.0
 40
15.0
 50
270.0
 51
90.0
  0
ARC
  5
3D7C
  8
0
  6
BYBLOCK
 62
     0
 10
26121.320997999988
 20
13705.230913999991
 30
0.0
 40
15.0
 50
90.0
 51
270.0
  0
ARC
  5
3D7D
  8
0
  6
BYBLOCK
 62
     0
 10
26121.320997999988
 20
13705.230913999991
 30
0.0
 40
15.0
 50
270.0
 51
90.0
  0
ARC
  5
3D7E
  8
0
  6
BYBLOCK
 62
     0
 10
26121.320997999988
 20
13662.733619000001
 30
0.0
 40
15.0
 50
270.0
 51
90.0
  0
ARC
  5
3D7F
  8
0
  6
BYBLOCK
 62
     0
 10
26121.320997999988
 20
13662.733619000001
 30
0.0
 40
15.0
 50
90.0
 51
270.0
  0
ARC
  5
3D80
  8
0
  6
BYBLOCK
 62
     0
 10
22762.321393999991
 20
20664.232102000031
 30
0.0
 40
15.0
 50
0.0
 51
180.0
  0
ARC
  5
3D81
  8
0
  6
BYBLOCK
 62
     0
 10
22762.321393999991
 20
20664.232102000031
 30
0.0
 40
15.0
 50
180.0
 51
0.0
  0
ARC
  5
3D82
  8
0
  6
BYBLOCK
 62
     0
 10
23169.821393999991
 20
20664.232102000031
 30
0.0
 40
15.0
 50
180.0
 51
0.0
  0
ARC
  5
3D83
  8
0
  6
BYBLOCK
 62
     0
 10
23169.821393999991
 20
20664.232102000031
 30
0.0
 40
15.0
 50
0.0
 51
180.0
  0
ARC
  5
3D84
  8
0
  6
BYBLOCK
 62
     0
 10
23870.821393999991
 20
20664.232102000031
 30
0.0
 40
15.0
 50
0.0
 51
180.0
  0
ARC
  5
3D85
  8
0
  6
BYBLOCK
 62
     0
 10
23870.821393999991
 20
20664.232102000031
 30
0.0
 40
15.0
 50
180.0
 51
0.0
  0
ARC
  5
3D86
  8
0
  6
BYBLOCK
 62
     0
 10
24628.822383499999
 20
20664.232102000031
 30
0.0
 40
15.0
 50
180.0
 51
0.0
  0
ARC
  5
3D87
  8
0
  6
BYBLOCK
 62
     0
 10
24628.822383499999
 20
20664.232102000031
 30
0.0
 40
15.0
 50
0.0
 51
180.0
  0
ARC
  5
3D88
  8
0
  6
BYBLOCK
 62
     0
 10
23169.821393999991
 20
20664.232102000031
 30
0.0
 40
15.0
 50
0.0
 51
180.0
  0
ARC
  5
3D89
  8
0
  6
BYBLOCK
 62
     0
 10
23169.821393999991
 20
20664.232102000031
 30
0.0
 40
15.0
 50
180.0
 51
0.0
  0
ARC
  5
3D8A
  8
0
  6
BYBLOCK
 62
     0
 10
23870.821393999991
 20
20664.232102000031
 30
0.0
 40
15.0
 50
180.0
 51
0.0
  0
ARC
  5
3D8B
  8
0
  6
BYBLOCK
 62
     0
 10
23870.821393999991
 20
20664.232102000031
 30
0.0
 40
15.0
 50
0.0
 51
180.0
  0
ARC
  5
3D8C
  8
0
  6
BYBLOCK
 62
     0
 10
24628.821393999991
 20
20664.232102000031
 30
0.0
 40
15.0
 50
180.0
 51
0.0
  0
ARC
  5
3D8D
  8
0
  6
BYBLOCK
 62
     0
 10
24628.821393999991
 20
20664.232102000031
 30
0.0
 40
15.0
 50
0.0
 51
180.0
  0
ARC
  5
3D8E
  8
0
  6
BYBLOCK
 62
     0
 10
24671.317698999988
 20
20664.232102000031
 30
0.0
 40
15.0
 50
0.0
 51
180.0
  0
ARC
  5
3D8F
  8
0
  6
BYBLOCK
 62
     0
 10
24671.317698999988
 20
20664.232102000031
 30
0.0
 40
15.0
 50
180.0
 51
0.0
  0
ARC
  5
3D90
  8
0
  6
BYBLOCK
 62
     0
 10
20194.821393999991
 20
20664.232102000031
 30
0.0
 40
15.0
 50
0.0
 51
180.0
  0
ARC
  5
3D91
  8
0
  6
BYBLOCK
 62
     0
 10
20194.821393999991
 20
20664.232102000031
 30
0.0
 40
15.0
 50
180.0
 51
0.0
  0
ARC
  5
3D92
  8
0
  6
BYBLOCK
 62
     0
 10
20602.321393999991
 20
20664.232102000031
 30
0.0
 40
15.0
 50
180.0
 51
0.0
  0
ARC
  5
3D93
  8
0
  6
BYBLOCK
 62
     0
 10
20602.321393999991
 20
20664.232102000031
 30
0.0
 40
15.0
 50
0.0
 51
180.0
  0
ARC
  5
3D94
  8
0
  6
BYBLOCK
 62
     0
 10
20194.821393999991
 20
20664.232102000031
 30
0.0
 40
15.0
 50
0.0
 51
180.0
  0
ARC
  5
3D95
  8
0
  6
BYBLOCK
 62
     0
 10
20194.821393999991
 20
20664.232102000031
 30
0.0
 40
15.0
 50
180.0
 51
0.0
  0
ARC
  5
3D96
  8
0
  6
BYBLOCK
 62
     0
 10
20152.325089000002
 20
20664.232102000031
 30
0.0
 40
15.0
 50
180.0
 51
0.0
  0
ARC
  5
3D97
  8
0
  6
BYBLOCK
 62
     0
 10
20152.325089000002
 20
20664.232102000031
 30
0.0
 40
15.0
 50
0.0
 51
180.0
  0
ARC
  5
3D98
  8
0
  6
BYBLOCK
 62
     0
 10
22004.321393999991
 20
20664.232102000031
 30
0.0
 40
15.0
 50
0.0
 51
180.0
  0
ARC
  5
3D99
  8
0
  6
BYBLOCK
 62
     0
 10
22004.321393999991
 20
20664.232102000031
 30
0.0
 40
15.0
 50
180.0
 51
0.0
  0
ARC
  5
3D9A
  8
0
  6
BYBLOCK
 62
     0
 10
22762.322383499992
 20
20664.232102000031
 30
0.0
 40
15.0
 50
180.0
 51
0.0
  0
ARC
  5
3D9B
  8
0
  6
BYBLOCK
 62
     0
 10
22762.322383499992
 20
20664.232102000031
 30
0.0
 40
15.0
 50
0.0
 51
180.0
  0
ARC
  5
3D9C
  8
0
  6
BYBLOCK
 62
     0
 10
21303.321393999991
 20
20664.232102000031
 30
0.0
 40
15.0
 50
0.0
 51
180.0
  0
ARC
  5
3D9D
  8
0
  6
BYBLOCK
 62
     0
 10
21303.321393999991
 20
20664.232102000031
 30
0.0
 40
15.0
 50
180.0
 51
0.0
  0
ARC
  5
3D9E
  8
0
  6
BYBLOCK
 62
     0
 10
22004.321393999991
 20
20664.232102000031
 30
0.0
 40
15.0
 50
180.0
 51
0.0
  0
ARC
  5
3D9F
  8
0
  6
BYBLOCK
 62
     0
 10
22004.321393999991
 20
20664.232102000031
 30
0.0
 40
15.0
 50
0.0
 51
180.0
  0
ARC
  5
3DA0
  8
0
  6
BYBLOCK
 62
     0
 10
20602.321393999991
 20
20664.232102000031
 30
0.0
 40
15.0
 50
0.0
 51
180.0
  0
ARC
  5
3DA1
  8
0
  6
BYBLOCK
 62
     0
 10
20602.321393999991
 20
20664.232102000031
 30
0.0
 40
15.0
 50
180.0
 51
0.0
  0
ARC
  5
3DA2
  8
0
  6
BYBLOCK
 62
     0
 10
21303.321393999991
 20
20664.232102000031
 30
0.0
 40
15.0
 50
180.0
 51
0.0
  0
ARC
  5
3DA3
  8
0
  6
BYBLOCK
 62
     0
 10
21303.321393999991
 20
20664.232102000031
 30
0.0
 40
15.0
 50
0.0
 51
180.0
  0
ARC
  5
3DA4
  8
0
  6
BYBLOCK
 62
     0
 10
19344.822053999989
 20
6276.5900849999962
 30
0.0
 40
15.0
 50
90.0
 51
270.0
  0
ARC
  5
3DA5
  8
0
  6
BYBLOCK
 62
     0
 10
19344.822053999989
 20
6276.5900849999962
 30
0.0
 40
15.0
 50
270.0
 51
90.0
  0
ARC
  5
3DA6
  8
0
  6
BYBLOCK
 62
     0
 10
19344.822053999989
 20
8168.0900849999953
 30
0.0
 40
15.0
 50
270.0
 51
90.0
  0
ARC
  5
3DA7
  8
0
  6
BYBLOCK
 62
     0
 10
19344.822053999989
 20
8168.0900849999953
 30
0.0
 40
15.0
 50
90.0
 51
270.0
  0
ARC
  5
3DA8
  8
0
  6
BYBLOCK
 62
     0
 10
18944.819744999979
 20
6276.5900849999962
 30
0.0
 40
15.0
 50
90.0
 51
270.0
  0
ARC
  5
3DA9
  8
0
  6
BYBLOCK
 62
     0
 10
18944.819744999979
 20
6276.5900849999962
 30
0.0
 40
15.0
 50
270.0
 51
90.0
  0
ARC
  5
3DAA
  8
0
  6
BYBLOCK
 62
     0
 10
18944.819744999979
 20
8624.5900850000016
 30
0.0
 40
15.0
 50
270.0
 51
90.0
  0
ARC
  5
3DAB
  8
0
  6
BYBLOCK
 62
     0
 10
18944.819744999979
 20
8624.5900850000016
 30
0.0
 40
15.0
 50
90.0
 51
270.0
  0
ARC
  5
3DBC
  8
0
  6
BYBLOCK
 62
     0
 10
20288.821393999991
 20
5376.5902499999984
 30
0.0
 40
15.0
 50
0.0
 51
180.0
  0
ARC
  5
3DBD
  8
0
  6
BYBLOCK
 62
     0
 10
20288.821393999991
 20
5376.5902499999984
 30
0.0
 40
15.0
 50
180.0
 51
0.0
  0
ARC
  5
3DBE
  8
0
  6
BYBLOCK
 62
     0
 10
22668.321393999991
 20
5376.5902499999984
 30
0.0
 40
15.0
 50
180.0
 51
0.0
  0
ARC
  5
3DBF
  8
0
  6
BYBLOCK
 62
     0
 10
22668.321393999991
 20
5376.5902499999984
 30
0.0
 40
15.0
 50
0.0
 51
180.0
  0
ARC
  5
3DC0
  8
0
  6
BYBLOCK
 62
     0
 10
22856.321393999991
 20
5376.5902499999984
 30
0.0
 40
15.0
 50
0.0
 51
180.0
  0
ARC
  5
3DC1
  8
0
  6
BYBLOCK
 62
     0
 10
22856.321393999991
 20
5376.5902499999984
 30
0.0
 40
15.0
 50
180.0
 51
0.0
  0
ARC
  5
3DC2
  8
0
  6
BYBLOCK
 62
     0
 10
24534.821393999991
 20
5376.5902499999984
 30
0.0
 40
15.0
 50
180.0
 51
0.0
  0
ARC
  5
3DC3
  8
0
  6
BYBLOCK
 62
     0
 10
24534.821393999991
 20
5376.5902499999984
 30
0.0
 40
15.0
 50
0.0
 51
180.0
  0
ARC
  5
3DC4
  8
0
  6
BYBLOCK
 62
     0
 10
22762.321393999991
 20
4976.5902500000002
 30
0.0
 40
15.0
 50
0.0
 51
180.0
  0
ARC
  5
3DC5
  8
0
  6
BYBLOCK
 62
     0
 10
22762.321393999991
 20
4976.5902500000002
 30
0.0
 40
15.0
 50
180.0
 51
0.0
  0
ARC
  5
3DC6
  8
0
  6
BYBLOCK
 62
     0
 10
24628.821393999991
 20
4976.5902500000002
 30
0.0
 40
15.0
 50
180.0
 51
0.0
  0
ARC
  5
3DC7
  8
0
  6
BYBLOCK
 62
     0
 10
24628.821393999991
 20
4976.5902500000002
 30
0.0
 40
15.0
 50
0.0
 51
180.0
  0
ARC
  5
3DC8
  8
0
  6
BYBLOCK
 62
     0
 10
20194.821393999991
 20
4976.5902500000002
 30
0.0
 40
15.0
 50
0.0
 51
180.0
  0
ARC
  5
3DC9
  8
0
  6
BYBLOCK
 62
     0
 10
20194.821393999991
 20
4976.5902500000002
 30
0.0
 40
15.0
 50
180.0
 51
0.0
  0
ARC
  5
3DCA
  8
0
  6
BYBLOCK
 62
     0
 10
22762.321393999991
 20
4976.5902500000002
 30
0.0
 40
15.0
 50
180.0
 51
0.0
  0
ARC
  5
3DCB
  8
0
  6
BYBLOCK
 62
     0
 10
22762.321393999991
 20
4976.5902500000002
 30
0.0
 40
15.0
 50
0.0
 51
180.0
  0
ARC
  5
3DCC
  8
0
  6
BYBLOCK
 62
     0
 10
24628.825353
 20
4976.5902500000002
 30
0.0
 40
15.0
 50
180.0
 51
0.0
  0
ARC
  5
3DCD
  8
0
  6
BYBLOCK
 62
     0
 10
24628.825353
 20
4976.5902500000002
 30
0.0
 40
15.0
 50
0.0
 51
180.0
  0
ARC
  5
3DCE
  8
0
  6
BYBLOCK
 62
     0
 10
24671.325353
 20
4976.5902500000002
 30
0.0
 40
15.0
 50
0.0
 51
180.0
  0
ARC
  5
3DCF
  8
0
  6
BYBLOCK
 62
     0
 10
24671.325353
 20
4976.5902500000002
 30
0.0
 40
15.0
 50
180.0
 51
0.0
  0
ARC
  5
3DD0
  8
0
  6
BYBLOCK
 62
     0
 10
20194.821393999991
 20
4976.5902500000002
 30
0.0
 40
15.0
 50
0.0
 51
180.0
  0
ARC
  5
3DD1
  8
0
  6
BYBLOCK
 62
     0
 10
20194.821393999991
 20
4976.5902500000002
 30
0.0
 40
15.0
 50
180.0
 51
0.0
  0
ARC
  5
3DD2
  8
0
  6
BYBLOCK
 62
     0
 10
20152.321393999991
 20
4976.5902500000002
 30
0.0
 40
15.0
 50
180.0
 51
0.0
  0
ARC
  5
3DD3
  8
0
  6
BYBLOCK
 62
     0
 10
20152.321393999991
 20
4976.5902500000002
 30
0.0
 40
15.0
 50
0.0
 51
180.0
  0
ARC
  5
3DD4
  8
0
  6
BYBLOCK
 62
     0
 10
20152.321393999991
 20
4576.5904149999969
 30
0.0
 40
15.0
 50
0.0
 51
180.0
  0
ARC
  5
3DD5
  8
0
  6
BYBLOCK
 62
     0
 10
20152.321393999991
 20
4576.5904149999969
 30
0.0
 40
15.0
 50
180.0
 51
0.0
  0
ARC
  5
3DD6
  8
0
  6
BYBLOCK
 62
     0
 10
24671.321393999991
 20
4576.5904149999969
 30
0.0
 40
15.0
 50
180.0
 51
0.0
  0
ARC
  5
3DD7
  8
0
  6
BYBLOCK
 62
     0
 10
24671.321393999991
 20
4576.5904149999969
 30
0.0
 40
15.0
 50
0.0
 51
180.0
  0
ARC
  5
3DD8
  8
0
  6
BYBLOCK
 62
     0
 10
8882.5340609999967
 20
9824.5901109999995
 30
0.0
 40
15.0
 50
0.0
 51
180.0
  0
ARC
  5
3DD9
  8
0
  6
BYBLOCK
 62
     0
 10
8882.5340609999967
 20
9824.5901109999995
 30
0.0
 40
15.0
 50
180.0
 51
0.0
  0
ARC
  5
3DDA
  8
0
  6
BYBLOCK
 62
     0
 10
15484.034061
 20
9824.5901109999995
 30
0.0
 40
15.0
 50
180.0
 51
0.0
  0
ARC
  5
3DDB
  8
0
  6
BYBLOCK
 62
     0
 10
15484.034061
 20
9824.5901109999995
 30
0.0
 40
15.0
 50
0.0
 51
180.0
  0
ARC
  5
3DDC
  8
0
  6
BYBLOCK
 62
     0
 10
15334.034061
 20
9424.5917609999997
 30
0.0
 40
15.0
 50
180.0
 51
0.0
  0
ARC
  5
3DDD
  8
0
  6
BYBLOCK
 62
     0
 10
15334.034061
 20
9424.5917609999997
 30
0.0
 40
15.0
 50
0.0
 51
180.0
  0
ARC
  5
3DDE
  8
0
  6
BYBLOCK
 62
     0
 10
15484.034061
 20
9424.5917609999997
 30
0.0
 40
15.0
 50
0.0
 51
180.0
  0
ARC
  5
3DDF
  8
0
  6
BYBLOCK
 62
     0
 10
15484.034061
 20
9424.5917609999997
 30
0.0
 40
15.0
 50
180.0
 51
0.0
  0
ARC
  5
3DE0
  8
0
  6
BYBLOCK
 62
     0
 10
9062.5340609999967
 20
9424.5917609999997
 30
0.0
 40
15.0
 50
0.0
 51
180.0
  0
ARC
  5
3DE1
  8
0
  6
BYBLOCK
 62
     0
 10
9062.5340609999967
 20
9424.5917609999997
 30
0.0
 40
15.0
 50
180.0
 51
0.0
  0
ARC
  5
3DE2
  8
0
  6
BYBLOCK
 62
     0
 10
15334.034061
 20
9424.5917609999997
 30
0.0
 40
15.0
 50
180.0
 51
0.0
  0
ARC
  5
3DE3
  8
0
  6
BYBLOCK
 62
     0
 10
15334.034061
 20
9424.5917609999997
 30
0.0
 40
15.0
 50
0.0
 51
180.0
  0
ARC
  5
3DE4
  8
0
  6
BYBLOCK
 62
     0
 10
8882.5340609999967
 20
9424.5917609999997
 30
0.0
 40
15.0
 50
0.0
 51
180.0
  0
ARC
  5
3DE5
  8
0
  6
BYBLOCK
 62
     0
 10
8882.5340609999967
 20
9424.5917609999997
 30
0.0
 40
15.0
 50
180.0
 51
0.0
  0
ARC
  5
3DE6
  8
0
  6
BYBLOCK
 62
     0
 10
9062.5340609999967
 20
9424.5917609999997
 30
0.0
 40
15.0
 50
180.0
 51
0.0
  0
ARC
  5
3DE7
  8
0
  6
BYBLOCK
 62
     0
 10
9062.5340609999967
 20
9424.5917609999997
 30
0.0
 40
15.0
 50
0.0
 51
180.0
  0
ARC
  5
3DE8
  8
0
  6
BYBLOCK
 62
     0
 10
16424.034456999991
 20
6276.5900850000025
 30
0.0
 40
15.0
 50
90.0
 51
270.0
  0
ARC
  5
3DE9
  8
0
  6
BYBLOCK
 62
     0
 10
16424.034456999991
 20
6276.5900850000025
 30
0.0
 40
15.0
 50
270.0
 51
90.0
  0
ARC
  5
3DEA
  8
0
  6
BYBLOCK
 62
     0
 10
16424.034457000002
 20
8624.5900850000016
 30
0.0
 40
15.0
 50
270.0
 51
90.0
  0
ARC
  5
3DEB
  8
0
  6
BYBLOCK
 62
     0
 10
16424.034457000002
 20
8624.5900850000016
 30
0.0
 40
15.0
 50
90.0
 51
270.0
  0
ARC
  5
3DEC
  8
0
  6
BYBLOCK
 62
     0
 10
7972.5336650000027
 20
6276.5900850000025
 30
0.0
 40
15.0
 50
90.0
 51
270.0
  0
ARC
  5
3DED
  8
0
  6
BYBLOCK
 62
     0
 10
7972.5336650000027
 20
6276.5900850000025
 30
0.0
 40
15.0
 50
270.0
 51
90.0
  0
ARC
  5
3DEE
  8
0
  6
BYBLOCK
 62
     0
 10
7972.5336650000027
 20
8433.5900850000016
 30
0.0
 40
15.0
 50
270.0
 51
90.0
  0
ARC
  5
3DEF
  8
0
  6
BYBLOCK
 62
     0
 10
7972.5336650000027
 20
8433.5900850000016
 30
0.0
 40
15.0
 50
90.0
 51
270.0
  0
ARC
  5
3DF0
  8
0
  6
BYBLOCK
 62
     0
 10
9062.5340609999967
 20
4576.5904150000006
 30
0.0
 40
15.0
 50
0.0
 51
180.0
  0
ARC
  5
3DF1
  8
0
  6
BYBLOCK
 62
     0
 10
9062.5340609999967
 20
4576.5904150000006
 30
0.0
 40
15.0
 50
180.0
 51
0.0
  0
ARC
  5
3DF2
  8
0
  6
BYBLOCK
 62
     0
 10
15334.034061
 20
4576.5904150000006
 30
0.0
 40
15.0
 50
180.0
 51
0.0
  0
ARC
  5
3DF3
  8
0
  6
BYBLOCK
 62
     0
 10
15334.034061
 20
4576.5904150000006
 30
0.0
 40
15.0
 50
0.0
 51
180.0
  0
ARC
  5
3DF4
  8
0
  6
BYBLOCK
 62
     0
 10
15291.534061
 20
4976.5902500000002
 30
0.0
 40
15.0
 50
180.0
 51
0.0
  0
ARC
  5
3DF5
  8
0
  6
BYBLOCK
 62
     0
 10
15291.534061
 20
4976.5902500000002
 30
0.0
 40
15.0
 50
0.0
 51
180.0
  0
ARC
  5
3DF6
  8
0
  6
BYBLOCK
 62
     0
 10
15334.034061
 20
4976.5902500000002
 30
0.0
 40
15.0
 50
0.0
 51
180.0
  0
ARC
  5
3DF7
  8
0
  6
BYBLOCK
 62
     0
 10
15334.034061
 20
4976.5902500000002
 30
0.0
 40
15.0
 50
180.0
 51
0.0
  0
ARC
  5
3DF8
  8
0
  6
BYBLOCK
 62
     0
 10
9105.0340609999967
 20
4976.5902500000002
 30
0.0
 40
15.0
 50
0.0
 51
180.0
  0
ARC
  5
3DF9
  8
0
  6
BYBLOCK
 62
     0
 10
9105.0340609999967
 20
4976.5902500000002
 30
0.0
 40
15.0
 50
180.0
 51
0.0
  0
ARC
  5
3DFA
  8
0
  6
BYBLOCK
 62
     0
 10
9062.5340609999967
 20
4976.5902500000002
 30
0.0
 40
15.0
 50
180.0
 51
0.0
  0
ARC
  5
3DFB
  8
0
  6
BYBLOCK
 62
     0
 10
9062.5340609999967
 20
4976.5902500000002
 30
0.0
 40
15.0
 50
0.0
 51
180.0
  0
ARC
  5
3DFC
  8
0
  6
BYBLOCK
 62
     0
 10
12023.034061
 20
4976.5902500000002
 30
0.0
 40
15.0
 50
180.0
 51
0.0
  0
ARC
  5
3DFD
  8
0
  6
BYBLOCK
 62
     0
 10
12023.034061
 20
4976.5902500000002
 30
0.0
 40
15.0
 50
0.0
 51
180.0
  0
ARC
  5
3DFE
  8
0
  6
BYBLOCK
 62
     0
 10
9105.0340609999967
 20
4976.5902500000002
 30
0.0
 40
15.0
 50
0.0
 51
180.0
  0
ARC
  5
3DFF
  8
0
  6
BYBLOCK
 62
     0
 10
9105.0340609999967
 20
4976.5902500000002
 30
0.0
 40
15.0
 50
180.0
 51
0.0
  0
ARC
  5
3E00
  8
0
  6
BYBLOCK
 62
     0
 10
12023.034061
 20
4976.590250000002
 30
0.0
 40
15.0
 50
0.0
 51
180.0
  0
ARC
  5
3E01
  8
0
  6
BYBLOCK
 62
     0
 10
12023.034061
 20
4976.590250000002
 30
0.0
 40
15.0
 50
180.0
 51
0.0
  0
ARC
  5
3E02
  8
0
  6
BYBLOCK
 62
     0
 10
15291.534061
 20
4976.590250000002
 30
0.0
 40
15.0
 50
180.0
 51
0.0
  0
ARC
  5
3E03
  8
0
  6
BYBLOCK
 62
     0
 10
15291.534061
 20
4976.590250000002
 30
0.0
 40
15.0
 50
0.0
 51
180.0
  0
LINE
  5
3F26
  8
0-1
  6
CONTINUOUS
 62
     3
 10
24565.32437599999
 20
8375.0901049999975
 30
0.0
 11
24565.32437599999
 21
8407.0900120000006
 31
0.0
  0
LINE
  5
3F27
  8
0-1
  6
CONTINUOUS
 62
     3
 10
24714.323768999999
 20
8298.9033830000008
 30
0.0
 11
24671.321657999979
 21
8298.9033830000008
 31
0.0
  0
LINE
  5
3F28
  8
0-1
  6
CONTINUOUS
 62
     3
 10
24714.323768999999
 20
8625.0904340000034
 30
0.0
 11
24714.323768999999
 21
8298.9033830000008
 31
0.0
  0
LINE
  5
3F29
  8
0-1
  6
CONTINUOUS
 62
     3
 10
24279.357183000011
 20
8371.554683999997
 30
0.0
 11
24247.358265999999
 21
8403.5545919999968
 31
0.0
  0
LINE
  5
3F2A
  8
0-1
  6
CONTINUOUS
 62
     3
 10
24560.32411199998
 20
8412.0902760000008
 30
0.0
 11
24250.89368600001
 21
8412.0902760000008
 31
0.0
  0
LINE
  5
3F2B
  8
0-1
  6
CONTINUOUS
 62
     3
 10
24565.32437599999
 20
8403.6911790000031
 30
0.0
 11
24247.227617
 21
8403.6911790000031
 31
0.0
  0
LINE
  5
3F2C
  8
0-1
  6
CONTINUOUS
 62
     3
 10
24560.32411199998
 20
8370.0898410000009
 30
0.0
 11
24282.894583000001
 21
8370.0898410000009
 31
0.0
  0
LINE
  5
3F2D
  8
0-1
  6
CONTINUOUS
 62
     3
 10
24565.32437599999
 20
8378.4899280000009
 30
0.0
 11
24272.42292999999
 21
8378.4899280000009
 31
0.0
  0
LINE
  5
3F2E
  8
0-1
  6
CONTINUOUS
 62
     3
 10
24565.32437599999
 20
8386.8900149999954
 30
0.0
 11
24264.02383200001
 21
8386.8900149999954
 31
0.0
  0
LINE
  5
3F2F
  8
0-1
  6
CONTINUOUS
 62
     3
 10
24565.32437599999
 20
8395.2910919999995
 30
0.0
 11
24255.62275599999
 21
8395.2910919999995
 31
0.0
  0
LINE
  5
3F30
  8
0-1
  6
CONTINUOUS
 62
     3
 10
23111.78758400002
 20
8371.554683999997
 30
0.0
 11
23143.78452200002
 21
8403.5545919999968
 31
0.0
  0
LINE
  5
3F31
  8
0-1
  6
CONTINUOUS
 62
     3
 10
22825.82237000002
 20
8375.0901049999975
 30
0.0
 11
22825.82237000002
 21
8407.0900120000006
 31
0.0
  0
LINE
  5
3F32
  8
0-1
  6
CONTINUOUS
 62
     3
 10
22825.82237000002
 20
8378.4899280000009
 30
0.0
 11
23118.719858
 21
8378.4899280000009
 31
0.0
  0
LINE
  5
3F33
  8
0-1
  6
CONTINUOUS
 62
     3
 10
22825.82237000002
 20
8386.8900149999954
 30
0.0
 11
23127.12093500001
 21
8386.8900149999954
 31
0.0
  0
LINE
  5
3F34
  8
0-1
  6
CONTINUOUS
 62
     3
 10
22830.822634
 20
8370.0898410000009
 30
0.0
 11
23108.250184000011
 21
8370.0898410000009
 31
0.0
  0
LINE
  5
3F35
  8
0-1
  6
CONTINUOUS
 62
     3
 10
22825.82237000002
 20
8395.2910919999995
 30
0.0
 11
23135.520032000019
 21
8395.2910919999995
 31
0.0
  0
LINE
  5
3F36
  8
0-1
  6
CONTINUOUS
 62
     3
 10
22825.82237000002
 20
8403.6911790000031
 30
0.0
 11
23143.917150000019
 21
8403.6911790000031
 31
0.0
  0
LINE
  5
3F37
  8
0-1
  6
CONTINUOUS
 62
     3
 10
22830.822634
 20
8412.0902760000008
 30
0.0
 11
23140.251081000031
 21
8412.0902760000008
 31
0.0
  0
LINE
  5
3F38
  8
0-1
  6
CONTINUOUS
 62
     3
 10
24714.32376900001
 20
8495.0895109999983
 30
0.0
 11
22762.321393999999
 21
8495.0895109999983
 31
0.0
  0
LINE
  5
3F39
  8
0-1
  6
CONTINUOUS
 62
     3
 10
22804.819678000011
 20
8421.0901570000005
 30
0.0
 11
24586.323109000001
 21
8421.0901570000005
 31
0.0
  0
LINE
  5
3F3A
  8
0-1
  6
CONTINUOUS
 62
     3
 10
22804.819678000011
 20
8361.089958999999
 30
0.0
 11
24586.323109000001
 21
8361.089958999999
 31
0.0
  0
LINE
  5
3F3B
  8
0-1
  6
CONTINUOUS
 62
     3
 10
22762.321393999999
 20
8625.0904340000034
 30
0.0
 11
24714.32376900001
 21
8625.0904340000034
 31
0.0
  0
LINE
  5
3F3C
  8
0-1
  6
CONTINUOUS
 62
     3
 10
22698.820417999999
 20
8375.0901049999975
 30
0.0
 11
22698.820417999999
 21
8407.0900120000006
 31
0.0
  0
LINE
  5
3F3D
  8
0-1
  6
CONTINUOUS
 62
     3
 10
22412.85916299999
 20
8371.554683999997
 30
0.0
 11
22380.858265999999
 21
8403.5545919999968
 31
0.0
  0
LINE
  5
3F3E
  8
0-1
  6
CONTINUOUS
 62
     3
 10
22698.820417999999
 20
8403.6911790000031
 30
0.0
 11
22380.727617999979
 21
8403.6911790000031
 31
0.0
  0
LINE
  5
3F3F
  8
0-1
  6
CONTINUOUS
 62
     3
 10
22698.820417999999
 20
8395.2910919999995
 30
0.0
 11
22389.12275599999
 21
8395.2910919999995
 31
0.0
  0
LINE
  5
3F40
  8
0-1
  6
CONTINUOUS
 62
     3
 10
22698.820417999999
 20
8386.8900149999954
 30
0.0
 11
22397.521852999998
 21
8386.8900149999954
 31
0.0
  0
LINE
  5
3F41
  8
0-1
  6
CONTINUOUS
 62
     3
 10
22698.820417999999
 20
8378.4899280000009
 30
0.0
 11
22405.920950999978
 21
8378.4899280000009
 31
0.0
  0
LINE
  5
3F42
  8
0-1
  6
CONTINUOUS
 62
     3
 10
22693.822133000001
 20
8412.0902760000008
 30
0.0
 11
22384.391706999999
 21
8412.0902760000008
 31
0.0
  0
LINE
  5
3F43
  8
0-1
  6
CONTINUOUS
 62
     3
 10
22693.822133000001
 20
8370.0898410000009
 30
0.0
 11
22416.394583999991
 21
8370.0898410000009
 31
0.0
  0
LINE
  5
3F44
  8
0-1
  6
CONTINUOUS
 62
     3
 10
20263.32065500001
 20
8370.0898410000009
 30
0.0
 11
20540.750184999972
 21
8370.0898410000009
 31
0.0
  0
LINE
  5
3F45
  8
0-1
  6
CONTINUOUS
 62
     3
 10
20258.322370999998
 20
8375.0901049999975
 30
0.0
 11
20258.322370999998
 21
8407.0900120000006
 31
0.0
  0
LINE
  5
3F46
  8
0-1
  6
CONTINUOUS
 62
     3
 10
20109.320998999981
 20
8298.9033830000008
 30
0.0
 11
20152.319151000011
 21
8298.9033830000008
 31
0.0
  0
LINE
  5
3F47
  8
0-1
  6
CONTINUOUS
 62
     3
 10
20109.320998999981
 20
8298.9033830000008
 30
0.0
 11
20109.320998999981
 21
8625.0904340000034
 31
0.0
  0
LINE
  5
3F48
  8
0-1
  6
CONTINUOUS
 62
     3
 10
20263.32065500001
 20
8412.0902760000008
 30
0.0
 11
20572.751081999999
 21
8412.0902760000008
 31
0.0
  0
LINE
  5
3F49
  8
0-1
  6
CONTINUOUS
 62
     3
 10
20544.283625
 20
8371.554683999997
 30
0.0
 11
20576.284522999991
 21
8403.5545919999968
 31
0.0
  0
LINE
  5
3F4A
  8
0-1
  6
CONTINUOUS
 62
     3
 10
20258.322370999998
 20
8403.6911790000031
 30
0.0
 11
20576.417150000001
 21
8403.6911790000031
 31
0.0
  0
LINE
  5
3F4B
  8
0-1
  6
CONTINUOUS
 62
     3
 10
20258.322370999998
 20
8395.2910919999995
 30
0.0
 11
20568.020033000012
 21
8395.2910919999995
 31
0.0
  0
LINE
  5
3F4C
  8
0-1
  6
CONTINUOUS
 62
     3
 10
20258.322370999998
 20
8386.8900149999954
 30
0.0
 11
20559.620935000021
 21
8386.8900149999954
 31
0.0
  0
LINE
  5
3F4D
  8
0-1
  6
CONTINUOUS
 62
     3
 10
20258.322370999998
 20
8378.4899280000009
 30
0.0
 11
20551.221838000001
 21
8378.4899280000009
 31
0.0
  0
LINE
  5
3F4E
  8
0-1
  6
CONTINUOUS
 62
     3
 10
20237.319679000011
 20
8361.089958999999
 30
0.0
 11
22719.821129999989
 21
8361.089958999999
 31
0.0
  0
LINE
  5
3F4F
  8
0-1
  6
CONTINUOUS
 62
     3
 10
20237.319679000011
 20
8421.0901570000005
 30
0.0
 11
22719.821129999989
 21
8421.0901570000005
 31
0.0
  0
LINE
  5
3F50
  8
0-1
  6
CONTINUOUS
 62
     3
 10
20109.320998999981
 20
8625.0904340000034
 30
0.0
 11
22762.321393999999
 21
8625.0904340000034
 31
0.0
  0
LINE
  5
3F51
  8
0-1
  6
CONTINUOUS
 62
     3
 10
22762.321393999999
 20
8495.0895109999983
 30
0.0
 11
20109.320998999981
 21
8495.0895109999983
 31
0.0
  0
LINE
  5
3F52
  8
0-1
  6
CONTINUOUS
 62
     3
 10
22762.321393999999
 20
8495.0895109999983
 30
0.0
 11
22762.321393999999
 21
8625.0904340000034
 31
0.0
  0
LINE
  5
3F53
  8
0-1
  6
CONTINUOUS
 62
     3
 10
22762.321393999999
 20
8495.0895109999983
 30
0.0
 11
22762.321393999999
 21
8625.0904340000034
 31
0.0
  0
ARC
  5
3F54
  8
0-1
  6
CONTINUOUS
 62
     3
 10
24560.32411199998
 20
8407.0900120000006
 30
0.0
 40
5.0
 50
0.0
 51
90.0
  0
ARC
  5
3F55
  8
0-1
  6
CONTINUOUS
 62
     3
 10
24560.32411199998
 20
8375.0901049999975
 30
0.0
 40
5.0
 50
269.9999850001808
 51
0.0
  0
ARC
  5
3F56
  8
0-1
  6
CONTINUOUS
 62
     3
 10
24250.89368600001
 20
8407.0900120000006
 30
0.0
 40
5.0
 50
90.0
 51
224.99998499997989
  0
ARC
  5
3F57
  8
0-1
  6
CONTINUOUS
 62
     3
 10
24282.894583000001
 20
8375.0901049999975
 30
0.0
 40
5.0
 50
224.99998499997989
 51
269.9999850001808
  0
ARC
  5
3F58
  8
0-1
  6
CONTINUOUS
 62
     3
 10
23140.251081000031
 20
8407.0900120000006
 30
0.0
 40
5.0
 50
314.99998500027471
 51
90.0
  0
ARC
  5
3F59
  8
0-1
  6
CONTINUOUS
 62
     3
 10
23108.250184000011
 20
8375.0901049999975
 30
0.0
 40
5.0
 50
269.9999850001808
 51
314.99998500027471
  0
ARC
  5
3F5A
  8
0-1
  6
CONTINUOUS
 62
     3
 10
22830.822634
 20
8375.0901049999975
 30
0.0
 40
5.0
 50
180.0
 51
269.9999850001808
  0
ARC
  5
3F5B
  8
0-1
  6
CONTINUOUS
 62
     3
 10
22830.822634
 20
8407.0900120000006
 30
0.0
 40
5.0
 50
90.0
 51
180.0
  0
ARC
  5
3F5C
  8
0-1
  6
CONTINUOUS
 62
     3
 10
22693.822133000001
 20
8375.0901049999975
 30
0.0
 40
5.0
 50
269.9999850001808
 51
0.0
  0
ARC
  5
3F5D
  8
0-1
  6
CONTINUOUS
 62
     3
 10
22693.822133000001
 20
8407.0900120000006
 30
0.0
 40
5.0
 50
0.0
 51
90.0
  0
ARC
  5
3F5E
  8
0-1
  6
CONTINUOUS
 62
     3
 10
22384.391706999999
 20
8407.0900120000006
 30
0.0
 40
5.0
 50
90.0
 51
224.99998499997989
  0
ARC
  5
3F5F
  8
0-1
  6
CONTINUOUS
 62
     3
 10
22416.394583999991
 20
8375.0901049999975
 30
0.0
 40
5.0
 50
224.99998499997989
 51
269.9999850001808
  0
ARC
  5
3F60
  8
0-1
  6
CONTINUOUS
 62
     3
 10
20572.751081999999
 20
8407.0900120000006
 30
0.0
 40
5.0
 50
314.99998500027471
 51
90.0
  0
ARC
  5
3F61
  8
0-1
  6
CONTINUOUS
 62
     3
 10
20263.32065500001
 20
8407.0900120000006
 30
0.0
 40
5.0
 50
90.0
 51
180.0
  0
ARC
  5
3F62
  8
0-1
  6
CONTINUOUS
 62
     3
 10
20263.32065500001
 20
8375.0901049999975
 30
0.0
 40
5.0
 50
180.0
 51
269.9999850001808
  0
ARC
  5
3F63
  8
0-1
  6
CONTINUOUS
 62
     3
 10
20540.750184999972
 20
8375.0901049999975
 30
0.0
 40
5.0
 50
269.9999850001808
 51
314.99998500027471
  0
LINE
  5
3F64
  8
SUNPOU
  6
CONTINUOUS
 62
     4
 10
20109.31901899998
 20
8705.0904340000034
 30
0.0
 11
20109.31901899998
 21
9904.5480460000017
 31
0.0
  0
LINE
  5
3F65
  8
SUNPOU
  6
CONTINUOUS
 62
     4
 10
24714.323768999999
 20
8705.0904340000034
 30
0.0
 11
24714.323768999999
 21
9904.5480460000017
 31
0.0
  0
LINE
  5
3F66
  8
SUNPOU
  6
CONTINUOUS
 62
     4
 10
20112.31901899998
 20
9824.5480459999999
 30
0.0
 11
24711.323768999999
 21
9824.5480459999999
 31
0.0
  0
LINE
  5
3F67
  8
SUNPOU
  6
CONTINUOUS
 62
     4
 10
20152.321129999978
 20
8705.0904340000034
 30
0.0
 11
20152.321129999978
 21
9504.5902760000008
 31
0.0
  0
LINE
  5
3F68
  8
SUNPOU
  6
CONTINUOUS
 62
     4
 10
24671.321657999979
 20
8705.0904340000034
 30
0.0
 11
24671.321657999979
 21
9504.5902760000008
 31
0.0
  0
LINE
  5
3F69
  8
SUNPOU
  6
CONTINUOUS
 62
     4
 10
20152.321129999978
 20
9424.5902760000008
 30
0.0
 11
24671.321657999979
 21
9424.5902760000008
 31
0.0
  0
LINE
  5
3F6A
  8
SUNPOU
  6
CONTINUOUS
 62
     4
 10
20152.321129999978
 20
8705.0904340000034
 30
0.0
 11
20152.321129999978
 21
9504.5902760000008
 31
0.0
  0
LINE
  5
3F6B
  8
SUNPOU
  6
CONTINUOUS
 62
     4
 10
20109.31901899998
 20
8705.0904340000034
 30
0.0
 11
20109.31901899998
 21
9504.5902760000008
 31
0.0
  0
LINE
  5
3F6C
  8
SUNPOU
  6
CONTINUOUS
 62
     4
 10
20152.321129999978
 20
9424.5902760000008
 30
0.0
 11
20392.321129999978
 21
9424.5902760000008
 31
0.0
  0
LINE
  5
3F6D
  8
SUNPOU
  6
CONTINUOUS
 62
     4
 10
20112.31901899998
 20
9424.5902760000008
 30
0.0
 11
19872.319018999999
 21
9424.5902760000008
 31
0.0
  0
LINE
  5
3F6E
  8
SUNPOU
  6
CONTINUOUS
 62
     4
 10
20152.321129999978
 20
9424.5902760000008
 30
0.0
 11
20112.31901899998
 21
9424.5902760000008
 31
0.0
  0
LINE
  5
3F6F
  8
SUNPOU
  6
CONTINUOUS
 62
     4
 10
24671.321657999979
 20
8705.0904340000034
 30
0.0
 11
24671.321657999979
 21
9504.5902760000008
 31
0.0
  0
LINE
  5
3F70
  8
SUNPOU
  6
CONTINUOUS
 62
     4
 10
24714.323768999999
 20
8705.0904340000034
 30
0.0
 11
24714.323768999999
 21
9504.5902760000008
 31
0.0
  0
LINE
  5
3F71
  8
SUNPOU
  6
CONTINUOUS
 62
     4
 10
24671.321657999979
 20
9424.5902760000008
 30
0.0
 11
24431.321657999979
 21
9424.5902760000008
 31
0.0
  0
LINE
  5
3F72
  8
SUNPOU
  6
CONTINUOUS
 62
     4
 10
24711.323768999999
 20
9424.5902760000008
 30
0.0
 11
24951.323768999999
 21
9424.5902760000008
 31
0.0
  0
LINE
  5
3F73
  8
SUNPOU
  6
CONTINUOUS
 62
     4
 10
24671.321657999979
 20
9424.5902760000008
 30
0.0
 11
24711.323768999999
 21
9424.5902760000008
 31
0.0
  0
TEXT
  5
3F74
  8
0
  6
CONTINUOUS
 62
     7
 10
24831.323768999999
 20
9504.5902760000008
 30
0.0
 40
160.0
  1
43
  0
TEXT
  5
3F75
  8
0
  6
CONTINUOUS
 62
     7
 10
19752.319018999999
 20
9504.5902760000008
 30
0.0
 40
160.0
  1
43
  0
TEXT
  5
3F76
  8
0
  6
CONTINUOUS
 62
     7
 10
22145.154727333331
 20
9504.5902760000008
 30
0.0
 40
160.0
  1
4519
  0
TEXT
  5
3F77
  8
0
  6
CONTINUOUS
 62
     7
 10
22118.48806066667
 20
9904.5480460000017
 30
0.0
 40
160.0
  1
4605
  0
ARC
  5
3F78
  8
0
  6
BYBLOCK
 62
     0
 10
20109.31901899998
 20
9824.5480459999999
 30
0.0
 40
15.0
 50
0.0
 51
180.0
  0
ARC
  5
3F79
  8
0
  6
BYBLOCK
 62
     0
 10
20109.31901899998
 20
9824.5480459999999
 30
0.0
 40
15.0
 50
180.0
 51
0.0
  0
ARC
  5
3F7A
  8
0
  6
BYBLOCK
 62
     0
 10
24714.323768999999
 20
9824.5480459999999
 30
0.0
 40
15.0
 50
180.0
 51
0.0
  0
ARC
  5
3F7B
  8
0
  6
BYBLOCK
 62
     0
 10
24714.323768999999
 20
9824.5480459999999
 30
0.0
 40
15.0
 50
0.0
 51
180.0
  0
ARC
  5
3F7C
  8
0
  6
BYBLOCK
 62
     0
 10
20152.321129999978
 20
9424.5902760000008
 30
0.0
 40
15.0
 50
0.0
 51
180.0
  0
ARC
  5
3F7D
  8
0
  6
BYBLOCK
 62
     0
 10
20152.321129999978
 20
9424.5902760000008
 30
0.0
 40
15.0
 50
180.0
 51
0.0
  0
ARC
  5
3F7E
  8
0
  6
BYBLOCK
 62
     0
 10
24671.321657999979
 20
9424.5902760000008
 30
0.0
 40
15.0
 50
180.0
 51
0.0
  0
ARC
  5
3F7F
  8
0
  6
BYBLOCK
 62
     0
 10
24671.321657999979
 20
9424.5902760000008
 30
0.0
 40
15.0
 50
0.0
 51
180.0
  0
ARC
  5
3F80
  8
0
  6
BYBLOCK
 62
     0
 10
20152.321129999978
 20
9424.5902760000008
 30
0.0
 40
15.0
 50
0.0
 51
180.0
  0
ARC
  5
3F81
  8
0
  6
BYBLOCK
 62
     0
 10
20152.321129999978
 20
9424.5902760000008
 30
0.0
 40
15.0
 50
180.0
 51
0.0
  0
ARC
  5
3F82
  8
0
  6
BYBLOCK
 62
     0
 10
20109.31901899998
 20
9424.5902760000008
 30
0.0
 40
15.0
 50
180.0
 51
0.0
  0
ARC
  5
3F83
  8
0
  6
BYBLOCK
 62
     0
 10
20109.31901899998
 20
9424.5902760000008
 30
0.0
 40
15.0
 50
0.0
 51
180.0
  0
ARC
  5
3F84
  8
0
  6
BYBLOCK
 62
     0
 10
24671.321657999979
 20
9424.5902760000008
 30
0.0
 40
15.0
 50
180.0
 51
0.0
  0
ARC
  5
3F85
  8
0
  6
BYBLOCK
 62
     0
 10
24671.321657999979
 20
9424.5902760000008
 30
0.0
 40
15.0
 50
0.0
 51
180.0
  0
ARC
  5
3F86
  8
0
  6
BYBLOCK
 62
     0
 10
24714.323768999999
 20
9424.5902760000008
 30
0.0
 40
15.0
 50
0.0
 51
180.0
  0
ARC
  5
3F87
  8
0
  6
BYBLOCK
 62
     0
 10
24714.323768999999
 20
9424.5902760000008
 30
0.0
 40
15.0
 50
180.0
 51
0.0
  0
LINE
  5
3F96
  8
SUNPOU
  6
CONTINUOUS
 62
     4
 10
9816.8631694999876
 20
13435.72966099999
 30
0.0
 11
9816.8631694999876
 21
12256.782829999989
 31
0.0
  0
LINE
  5
3F97
  8
SUNPOU
  6
CONTINUOUS
 62
     4
 10
14418.86198149998
 20
13432.72966099999
 30
0.0
 11
14418.86198149998
 21
12253.782829999989
 31
0.0
  0
LINE
  5
3F98
  8
SUNPOU
  6
CONTINUOUS
 62
     4
 10
9816.8631694999876
 20
12333.782829999989
 30
0.0
 11
14415.86198149998
 21
12333.782829999989
 31
0.0
  0
TEXT
  5
3F99
  8
0
  6
CONTINUOUS
 62
     7
 10
11300.36257549997
 20
12413.782829999989
 30
0.0
 40
160.0
  1
ケラバ外寸 4605
  0
ARC
  5
3F9A
  8
0
  6
BYBLOCK
 62
     0
 10
9816.8631694999876
 20
12336.782829999989
 30
0.0
 40
15.0
 50
0.0
 51
180.0
  0
ARC
  5
3F9B
  8
0
  6
BYBLOCK
 62
     0
 10
9816.8631694999876
 20
12336.782829999989
 30
0.0
 40
15.0
 50
180.0
 51
0.0
  0
ARC
  5
3F9C
  8
0
  6
BYBLOCK
 62
     0
 10
14418.86198149998
 20
12333.782829999989
 30
0.0
 40
15.0
 50
180.0
 51
0.0
  0
ARC
  5
3F9D
  8
0
  6
BYBLOCK
 62
     0
 10
14418.86198149998
 20
12333.782829999989
 30
0.0
 40
15.0
 50
0.0
 51
180.0
  0
TEXT
  5
4036
  8
NAME
 10
21933.552716389011
 20
1876.0
 30
0.0
 40
360.0
  1
ヨドガレージ ラヴィージュ
 41
0.75
  7
01
  0
LINE
  5
4037
  8
NAME
  6
CONTINUOUS
 10
26067.886878884299
 20
2236.0
 30
0.0
 11
26067.886878884299
 21
1876.0
 31
0.0
  0
LINE
  5
4038
  8
NAME
  6
CONTINUOUS
 10
26167.886878884299
 20
2236.0
 30
0.0
 11
26167.886878884299
 21
1876.0
 31
0.0
  0
LINE
  5
4039
  8
NAME
  6
CONTINUOUS
 10
26267.88687888431
 20
2236.0
 30
0.0
 11
26267.88687888431
 21
1876.0
 31
0.0
  0
LINE
  5
403A
  8
NAME
  6
CONTINUOUS
 10
26007.886878884299
 20
2236.0
 30
0.0
 11
26327.886878884299
 21
2236.0
 31
0.0
  0
LINE
  5
403B
  8
NAME
  6
CONTINUOUS
 10
26327.886878884299
 20
1876.0
 30
0.0
 11
26007.886878884299
 21
1876.0
 31
0.0
  0
TEXT
  5
4086
  8
NAME
 10
25530.0929137735
 20
1076.0
 30
0.0
 40
360.0
  1
型（単棟）
 41
0.6
  7
01
  0
TEXT
  5
4087
  8
NAME
 10
21583.547829600921
 20
1076.6369801169251
 30
0.0
 40
360.0
  1
VGC-2662（H）+1962（H）
 41
0.55
  0
TEXT
  5
4121
  8
FILENAME
  6
CONTINUOUS
 10
27746.857142857141
 20
348.0
 30
0.0
 40
200.0
  1
＜VGC-2662+1962-1-A_0.DXF ＞
  7
FILENAME
 72
     2
 11
32764.0
 21
348.0
 31
0.0
  0
LINE
  5
4127
  8
WAKUSEN-01
 10
868.00000000000193
 20
827.99999999999955
 30
0.0
 11
32764.000000000011
 21
827.99999999999943
 31
0.0
  0
LINE
  5
4128
  8
WAKUSEN-01
 10
868.00000000000193
 20
827.99999999999955
 30
0.0
 11
868.00000000000193
 21
22484.000000000011
 31
0.0
  0
LINE
  5
4129
  8
WAKUSEN-01
 10
32764.000000000011
 20
827.99999999999943
 30
0.0
 11
32764.000000000011
 21
22484.000000000011
 31
0.0
  0
LINE
  5
412A
  8
WAKUSEN-01
 10
20560.0
 20
827.99999999999716
 30
0.0
 11
20560.0
 21
2484.0
 31
0.0
  0
LINE
  5
412B
  8
WAKUSEN-02
 10
26868.0
 20
827.99999999999261
 30
0.0
 11
26868.0
 21
2484.0
 31
0.0
  0
ENDSEC
  0
EOF
