  0
SECTION
  2
HEADER
  9
$ACADVER
  1
AC1009
  9
$INSBASE
 10
0.0
 20
0.0
 30
0.0
  9
$EXTMIN
 10
867.99324330406671
 20
327.38164749855792
 30
-0.000000000000013
  9
$EXTMAX
 10
32765.33210850941
 20
22484.553276491992
 30
0.0000000000000023
  9
$LIMMIN
 10
0.0
 20
0.0
  9
$LIMMAX
 10
33600.0
 20
23760.0
  9
$ORTHOMODE
 70
     1
  9
$REGENMODE
 70
     1
  9
$FILLMODE
 70
     1
  9
$QTEXTMODE
 70
     0
  9
$MIRRTEXT
 70
     1
  9
$DRAGMODE
 70
     2
  9
$LTSCALE
 40
80.0
  9
$OSMODE
 70
  3071
  9
$ATTMODE
 70
     1
  9
$TEXTSIZE
 40
0.2
  9
$TRACEWID
 40
0.05
  9
$TEXTSTYLE
  7
00
  9
$CLAYER
  8
0
  9
$CELTYPE
  6
CONTINUOUS
  9
$CECOLOR
 62
   256
  9
$DIMSCALE
 40
80.0
  9
$DIMASZ
 40
3.0
  9
$DIMEXO
 40
1.0
  9
$DIMDLI
 40
0.38
  9
$DIMRND
 40
0.5
  9
$DIMDLE
 40
0.0
  9
$DIMEXE
 40
1.0
  9
$DIMTP
 40
0.0
  9
$DIMTM
 40
0.0
  9
$DIMTXT
 40
2.0
  9
$DIMCEN
 40
0.09
  9
$DIMTSZ
 40
0.0
  9
$DIMTOL
 70
     0
  9
$DIMLIM
 70
     0
  9
$DIMTIH
 70
     0
  9
$DIMTOH
 70
     0
  9
$DIMSE1
 70
     0
  9
$DIMSE2
 70
     0
  9
$DIMTAD
 70
     1
  9
$DIMZIN
 70
     8
  9
$DIMBLK
  1
DOTSMALL
  9
$DIMASO
 70
     1
  9
$DIMSHO
 70
     1
  9
$DIMPOST
  1

  9
$DIMAPOST
  1

  9
$DIMALT
 70
     0
  9
$DIMALTD
 70
     2
  9
$DIMALTF
 40
25.399999999999999
  9
$DIMLFAC
 40
1.0
  9
$DIMTOFL
 70
     1
  9
$DIMTVP
 40
0.0
  9
$DIMTIX
 70
     0
  9
$DIMSOXD
 70
     0
  9
$DIMSAH
 70
     0
  9
$DIMBLK1
  1

  9
$DIMBLK2
  1

  9
$DIMSTYLE
  2
SUNPOU
  9
$DIMCLRD
 70
     4
  9
$DIMCLRE
 70
     4
  9
$DIMCLRT
 70
     7
  9
$DIMTFAC
 40
1.0
  9
$DIMGAP
 40
1.0
  9
$LUNITS
 70
     2
  9
$LUPREC
 70
     4
  9
$SKETCHINC
 40
0.1
  9
$FILLETRAD
 40
0.0
  9
$AUNITS
 70
     0
  9
$AUPREC
 70
     0
  9
$MENU
  1
acad
  9
$ELEVATION
 40
0.0
  9
$PELEVATION
 40
0.0
  9
$THICKNESS
 40
0.0
  9
$LIMCHECK
 70
     0
  9
$BLIPMODE
 70
     1
  9
$CHAMFERA
 40
0.0
  9
$CHAMFERB
 40
0.0
  9
$SKPOLY
 70
     0
  9
$TDCREATE
 40
2454568.2611966431
  9
$TDUPDATE
 40
2458942.4229800701
  9
$TDINDWG
 40
0.0462337037
  9
$TDUSRTIMER
 40
0.0462335185
  9
$USRTIMER
 70
     1
  9
$ANGBASE
 50
0.0
  9
$ANGDIR
 70
     0
  9
$PDMODE
 70
     0
  9
$PDSIZE
 40
0.0
  9
$PLINEWID
 40
0.0
  9
$COORDS
 70
     1
  9
$SPLFRAME
 70
     0
  9
$SPLINETYPE
 70
     6
  9
$SPLINESEGS
 70
     8
  9
$ATTDIA
 70
     1
  9
$ATTREQ
 70
     1
  9
$HANDLING
 70
     1
  9
$HANDSEED
  5
4A49
  9
$SURFTAB1
 70
     6
  9
$SURFTAB2
 70
     6
  9
$SURFTYPE
 70
     6
  9
$SURFU
 70
     6
  9
$SURFV
 70
     6
  9
$UCSNAME
  2

  9
$UCSORG
 10
0.0
 20
0.0
 30
0.0
  9
$UCSXDIR
 10
1.0
 20
0.0
 30
0.0
  9
$UCSYDIR
 10
0.0
 20
1.0
 30
0.0
  9
$PUCSNAME
  2

  9
$PUCSORG
 10
0.0
 20
0.0
 30
0.0
  9
$PUCSXDIR
 10
1.0
 20
0.0
 30
0.0
  9
$PUCSYDIR
 10
0.0
 20
1.0
 30
0.0
  9
$USERI1
 70
     0
  9
$USERI2
 70
     0
  9
$USERI3
 70
     0
  9
$USERI4
 70
     0
  9
$USERI5
 70
     0
  9
$USERR1
 40
0.0
  9
$USERR2
 40
0.0
  9
$USERR3
 40
0.0
  9
$USERR4
 40
0.0
  9
$USERR5
 40
0.0
  9
$WORLDVIEW
 70
     1
  9
$SHADEDGE
 70
     3
  9
$SHADEDIF
 70
    70
  9
$TILEMODE
 70
     1
  9
$MAXACTVP
 70
    16
  9
$PLIMCHECK
 70
     0
  9
$PEXTMIN
 10
1.0000000000000000E+020
 20
1.0000000000000000E+020
 30
1.0000000000000000E+020
  9
$PEXTMAX
 10
-1.0000000000000000E+020
 20
-1.0000000000000000E+020
 30
-1.0000000000000000E+020
  9
$PLIMMIN
 10
0.0
 20
0.0
  9
$PLIMMAX
 10
12.0
 20
9.0
  9
$UNITMODE
 70
     0
  9
$VISRETAIN
 70
     0
  9
$PLINEGEN
 70
     1
  9
$PSLTSCALE
 70
     0
  0
ENDSEC
  0
SECTION
  2
TABLES
  0
TABLE
  2
VPORT
 70
     1
  0
VPORT
  2
*ACTIVE
 70
     0
 10
0.0
 20
0.0
 11
1.0
 21
1.0
 12
16800.0
 22
11880.0
 13
0.0
 23
0.0
 14
1.0
 24
1.0
 15
0.0
 25
0.0
 16
0.0
 26
0.0
 36
1.0
 17
0.0
 27
0.0
 37
0.0
 40
23981.023255813951
 41
2.195652173913043
 42
50.0
 43
0.0
 44
0.0
 50
0.0
 51
0.0
 71
     0
 72
 10000
 73
     1
 74
     1
 75
     0
 76
     0
 77
     0
 78
     0
  0
ENDTAB
  0
TABLE
  2
LTYPE
 70
     3
  0
LTYPE
  2
CONTINUOUS
 70
     0
  3
Solid line
 72
    65
 73
     0
 40
0.0
  0
LTYPE
  2
DASHED3
 70
     0
  3
------  ------  ------  ------  
 72
    65
 73
     2
 40
5.0
 49
3.75
 49
-1.25
  0
LTYPE
  2
CENTER2
 70
     0
  3
----------  --  ----------  --  
 72
    65
 73
     4
 40
20.0
 49
12.5
 49
-2.5
 49
2.5
 49
-2.5
  0
ENDTAB
  0
TABLE
  2
LAYER
 70
    16
  0
LAYER
  2
0
 70
     0
 62
     7
  6
CONTINUOUS
  0
LAYER
  2
SUNPOU
 70
     0
 62
     4
  6
CONTINUOUS
  0
LAYER
  2
0-1
 70
     0
 62
     7
  6
CONTINUOUS
  0
LAYER
  2
0-2
 70
     0
 62
     7
  6
CONTINUOUS
  0
LAYER
  2
0-5
 70
     0
 62
     7
  6
CONTINUOUS
  0
LAYER
  2
0-6
 70
     0
 62
     7
  6
CONTINUOUS
  0
LAYER
  2
2-0
 70
     0
 62
     7
  6
CONTINUOUS
  0
LAYER
  2
YODOROGO
 70
     0
 62
   130
  6
CONTINUOUS
  0
LAYER
  2
WAKUSEN-01
 70
     0
 62
    50
  6
CONTINUOUS
  0
LAYER
  2
WAKUSEN-02
 70
     0
 62
   130
  6
CONTINUOUS
  0
LAYER
  2
WAKUMOJI-01
 70
     0
 62
   130
  6
CONTINUOUS
  0
LAYER
  2
FILENAME
 70
     0
 62
     7
  6
CONTINUOUS
  0
LAYER
  2
NAME
 70
     0
 62
    20
  6
CONTINUOUS
  0
LAYER
  2
0-4
 70
     0
 62
     7
  6
CONTINUOUS
  0
ENDTAB
  0
TABLE
  2
STYLE
 70
     5
  0
STYLE
  2
STANDARD
 70
     0
 40
0.0
 41
1.0
 50
0.0
 71
     0
 42
0.0
  3
txt
  4
BIGFONT
  0
STYLE
  2
00
 70
     0
 40
0.0
 41
0.6666666666666666
 50
0.0
 71
     0
 42
0.2
  3
ROMANS
  4
BIGFONT
  0
STYLE
  2
01
 70
     0
 40
3.0
 41
1.0
 50
0.0
 71
     0
 42
0.2
  3
ROMANS
  4
BIGFONT
  0
STYLE
  2
WAKUMOJI
 70
     0
 40
3.0
 41
1.0
 50
0.0
 71
     0
 42
3.0
  3
SIMPLEX
  4
BIGFONT
  0
STYLE
  2
FILENAME
 70
     0
 40
200.0
 41
1.0
 50
0.0
 71
     0
 42
200.0
  3
romans
  4
bigfont
  0
ENDTAB
  0
TABLE
  2
VIEW
 70
     0
  0
ENDTAB
  0
TABLE
  2
UCS
 70
     0
  0
ENDTAB
  0
TABLE
  2
APPID
 70
    13
  0
APPID
  2
ACAD
 70
     0
  0
APPID
  2
ACADANNOTATIVE
 70
     0
  0
APPID
  2
ACAD_PSEXT
 70
     0
  0
APPID
  2
DCO15
 70
     0
  0
APPID
  2
ACAD_MLEADERVER
 70
     0
  0
APPID
  2
AUTOCAD_POSTSCRIPT_FIGURE
 70
     0
  0
APPID
  2
ACAD_EXEMPT_FROM_CAD_STANDARDS
 70
     0
  0
APPID
  2
ACAD_DSTYLE_DIMJAG
 70
     0
  0
APPID
  2
ACAD_DSTYLE_DIMTALN
 70
     0
  0
APPID
  2
ACAD_DSTYLE_DIM_LINETYPE
 70
     0
  0
APPID
  2
ACAD_DSTYLE_DIM_EXT1_LINETYPE
 70
     0
  0
APPID
  2
ACAD_DSTYLE_DIM_EXT2_LINETYPE
 70
     0
  0
APPID
  2
ACAD_NAV_VCDISPLAY
 70
     0
  0
ENDTAB
  0
TABLE
  2
DIMSTYLE
 70
     2
  0
DIMSTYLE
  2
SUNPOU
 70
     0
  3

  4

  5

  6

  7

 40
80.0
 41
3.0
 42
1.0
 43
0.38
 44
1.0
 45
0.5
 46
0.0
 47
0.0
 48
0.0
140
2.0
141
0.09
142
0.0
143
25.399999999999999
144
1.0
145
0.0
146
1.0
147
1.0
 71
     0
 72
     0
 73
     0
 74
     0
 75
     0
 76
     0
 77
     1
 78
     8
170
     0
171
     2
172
     1
173
     0
174
     0
175
     0
176
     4
177
     4
178
     7
  0
ENDTAB
  0
ENDSEC
  0
SECTION
  2
BLOCKS
  0
BLOCK
  8
0
  2
$MODEL_SPACE
 70
     0
 10
0.0
 20
0.0
 30
0.0
  3
$MODEL_SPACE
  1

  0
ENDBLK
  5
4052
  8
0
  0
BLOCK
 67
     1
  8
0
  2
$PAPER_SPACE
 70
     0
 10
0.0
 20
0.0
 30
0.0
  3
$PAPER_SPACE
  1

  0
ENDBLK
  5
404E
 67
     1
  8
0
  0
BLOCK
  8
0
  2
_DOTSMALL
 70
     0
 10
0.0
 20
0.0
 30
0.0
  3
_DOTSMALL
  1

  0
POLYLINE
  5
4080
  8
0
  6
BYBLOCK
 62
     0
 66
     1
 10
0.0
 20
0.0
 30
0.0
 70
     1
 40
0.5
 41
0.5
  0
VERTEX
  5
4A11
  8
0
  6
BYBLOCK
 62
     0
 10
-0.0625
 20
0.0
 30
0.0
 42
1.0
  0
VERTEX
  5
4A12
  8
0
  6
BYBLOCK
 62
     0
 10
0.0625
 20
0.0
 30
0.0
 42
1.0
  0
SEQEND
  5
4A13
  8
0
  6
BYBLOCK
 62
     0
  0
ENDBLK
  5
4084
  8
0
  0
ENDSEC
  0
SECTION
  2
ENTITIES
  0
LINE
  5
4085
  8
0-1
  6
CONTINUOUS
 62
     3
 10
11659.84792
 20
16784.488442999958
 30
0.0
 11
14227.347919999989
 21
16784.488442999958
 31
0.0
  0
LINE
  5
4086
  8
0-1
  6
CONTINUOUS
 62
     3
 10
14177.349279
 20
13671.986885999981
 30
0.0
 11
14177.349279
 21
19832.988205000001
 31
0.0
  0
LINE
  5
4087
  8
0-1
  6
CONTINUOUS
 62
     3
 10
11709.846561
 20
13671.986885999981
 30
0.0
 11
11709.846561
 21
19832.988205000001
 31
0.0
  0
LINE
  5
4088
  8
0-1
  6
CONTINUOUS
 62
     3
 10
11574.347524000001
 20
13639.986978000001
 30
0.0
 11
11574.347524000001
 21
19880.987571999969
 31
0.0
  0
LINE
  5
4089
  8
0-1
  6
CONTINUOUS
 62
     3
 10
14312.848316
 20
13639.986978000001
 30
0.0
 11
14312.848316
 21
19880.987571999969
 31
0.0
  0
LINE
  5
408A
  8
0-1
  6
CONTINUOUS
 62
     3
 10
11647.847049
 20
19880.987571999969
 30
0.0
 11
14239.348791
 21
19880.987571999969
 31
0.0
  0
LINE
  5
408B
  8
0-1
  6
CONTINUOUS
 62
     3
 10
11659.84792
 20
16705.487835999989
 30
0.0
 11
14227.347919999989
 21
16705.487835999989
 31
0.0
  0
LINE
  5
408C
  8
0-1
  6
CONTINUOUS
 62
     3
 10
11617.347656
 20
13795.986899
 30
0.0
 11
14269.849174000001
 21
13795.986899
 31
0.0
  0
LINE
  5
408D
  8
0-1
  6
CONTINUOUS
 62
     3
 10
11659.84792
 20
13874.987505999999
 30
0.0
 11
14227.347919999989
 21
13874.987505999999
 31
0.0
  0
LINE
  5
408E
  8
0-1
  6
CONTINUOUS
 62
     3
 10
11574.347524000001
 20
13639.986978000001
 30
0.0
 11
14312.848316
 21
13639.986978000001
 31
0.0
  0
LINE
  5
408F
  8
0-1
  6
CONTINUOUS
 62
     3
 10
11574.347524000001
 20
13671.986885999981
 30
0.0
 11
14312.848316
 21
13671.986885999981
 31
0.0
  0
LINE
  5
4090
  8
0-1
  6
CONTINUOUS
 62
     3
 10
14227.347919999989
 20
13795.986899
 30
0.0
 11
14227.347919999989
 21
16822.144824999999
 31
0.0
  0
LINE
  5
4091
  8
0-1
  6
CONTINUOUS
 62
     3
 10
14269.849174000001
 20
13795.986899
 30
0.0
 11
14269.849174000001
 21
16779.709885
 31
0.0
  0
LINE
  5
4092
  8
0-1
  6
CONTINUOUS
 62
     3
 10
11659.84792
 20
13795.986899
 30
0.0
 11
11659.84792
 21
19398.693705000002
 31
0.0
  0
LINE
  5
4093
  8
0-1
  6
CONTINUOUS
 62
     3
 10
11617.347656
 20
13795.986899
 30
0.0
 11
11617.347656
 21
19441.124685999999
 31
0.0
  0
LINE
  5
4094
  8
0-1
  6
CONTINUOUS
 62
     3
 10
11729.847655999991
 20
16750.486251999992
 30
0.0
 11
14157.348183999989
 21
13832.486252000001
 31
0.0
  0
LINE
  5
4095
  8
0-1
  6
CONTINUOUS
 62
     3
 10
14157.348183999989
 20
16750.486251999992
 30
0.0
 11
11729.847655999991
 21
13832.486252000001
 31
0.0
  0
LINE
  5
4096
  8
0-1
  6
CONTINUOUS
 62
     3
 10
14018.849186999991
 20
17030.320896999991
 30
0.0
 11
14018.849186999991
 21
19832.988205000001
 31
0.0
  0
LINE
  5
4097
  8
0-1
  6
CONTINUOUS
 62
     3
 10
14055.84836899999
 20
16993.377141000001
 30
0.0
 11
14055.84836899999
 21
19832.988205000001
 31
0.0
  0
LINE
  5
4098
  8
0-1
  6
CONTINUOUS
 62
     3
 10
13878.847668999981
 20
17170.618852999982
 30
0.0
 11
13878.847668999981
 21
19832.988205000001
 31
0.0
  0
LINE
  5
4099
  8
0-1
  6
CONTINUOUS
 62
     3
 10
13841.846508000001
 20
17207.564587999968
 30
0.0
 11
13841.846508000001
 21
19832.988205000001
 31
0.0
  0
LINE
  5
409A
  8
0-1
  6
CONTINUOUS
 62
     3
 10
13506.84762999998
 20
17512.083828999988
 30
0.0
 11
13506.84762999998
 21
19832.988205000001
 31
0.0
  0
LINE
  5
409B
  8
0-1
  6
CONTINUOUS
 62
     3
 10
13543.848791
 20
17505.104045999989
 30
0.0
 11
13543.848791
 21
19832.988205000001
 31
0.0
  0
LINE
  5
409C
  8
0-1
  6
CONTINUOUS
 62
     3
 10
13711.34773499999
 20
17337.862440000001
 30
0.0
 11
13711.34773499999
 21
19832.988205000001
 31
0.0
  0
LINE
  5
409D
  8
0-1
  6
CONTINUOUS
 62
     3
 10
13674.347563999991
 20
17374.806194999979
 30
0.0
 11
13674.347563999991
 21
19832.988205000001
 31
0.0
  0
LINE
  5
409E
  8
0-1
  6
CONTINUOUS
 62
     3
 10
13339.348685999999
 20
17365.223344999999
 30
0.0
 11
13339.348685999999
 21
19832.988205000001
 31
0.0
  0
LINE
  5
409F
  8
0-1
  6
CONTINUOUS
 62
     3
 10
13376.34687799998
 20
17383.672459000001
 30
0.0
 11
13376.34687799998
 21
19832.988205000001
 31
0.0
  0
LINE
  5
40A0
  8
0-1
  6
CONTINUOUS
 62
     3
 10
13208.846944000001
 20
17767.516947999989
 30
0.0
 11
13208.846944000001
 21
19832.988205000001
 31
0.0
  0
LINE
  5
40A1
  8
0-1
  6
CONTINUOUS
 62
     3
 10
13171.84776199999
 20
17881.576808000002
 30
0.0
 11
13171.84776199999
 21
19832.988205000001
 31
0.0
  0
LINE
  5
40A2
  8
0-1
  6
CONTINUOUS
 62
     3
 10
13004.348817999989
 20
18397.93027099999
 30
0.0
 11
13004.348817999989
 21
19832.988205000001
 31
0.0
  0
LINE
  5
40A3
  8
0-1
  6
CONTINUOUS
 62
     3
 10
13041.347998999991
 20
18283.870409999981
 30
0.0
 11
13041.347998999991
 21
19832.988205000001
 31
0.0
  0
LINE
  5
40A4
  8
0-1
  6
CONTINUOUS
 62
     3
 10
12836.346086
 20
18255.25844899999
 30
0.0
 11
12836.346086
 21
19832.988205000001
 31
0.0
  0
LINE
  5
40A5
  8
0-1
  6
CONTINUOUS
 62
     3
 10
12873.347246999991
 20
18291.665755000002
 30
0.0
 11
12873.347246999991
 21
19832.988205000001
 31
0.0
  0
LINE
  5
40A6
  8
0-1
  6
CONTINUOUS
 62
     3
 10
12705.84731299998
 20
18354.305640999992
 30
0.0
 11
12705.84731299998
 21
19832.988205000001
 31
0.0
  0
LINE
  5
40A7
  8
0-1
  6
CONTINUOUS
 62
     3
 10
12668.847142000001
 20
18391.247415999991
 30
0.0
 11
12668.847142000001
 21
19832.988205000001
 31
0.0
  0
LINE
  5
40A8
  8
0-1
  6
CONTINUOUS
 62
     3
 10
12501.346218000001
 20
18558.489022999991
 30
0.0
 11
12501.346218000001
 21
19832.988205000001
 31
0.0
  0
LINE
  5
40A9
  8
0-1
  6
CONTINUOUS
 62
     3
 10
12538.348368999999
 20
18521.545268000002
 30
0.0
 11
12538.348368999999
 21
19832.988205000001
 31
0.0
  0
LINE
  5
40AA
  8
0-1
  6
CONTINUOUS
 62
     3
 10
12668.847142000001
 20
18391.247415999991
 30
0.0
 11
12668.847142000001
 21
19832.988205000001
 31
0.0
  0
LINE
  5
40AB
  8
0-1
  6
CONTINUOUS
 62
     3
 10
12705.84731299998
 20
18354.305640999992
 30
0.0
 11
12705.84731299998
 21
19832.988205000001
 31
0.0
  0
LINE
  5
40AC
  8
0-1
  6
CONTINUOUS
 62
     3
 10
12203.348501
 20
18856.028481999991
 30
0.0
 11
12203.348501
 21
19832.988205000001
 31
0.0
  0
LINE
  5
40AD
  8
0-1
  6
CONTINUOUS
 62
     3
 10
12166.347339
 20
18892.972237000002
 30
0.0
 11
12166.347339
 21
19832.988205000001
 31
0.0
  0
LINE
  5
40AE
  8
0-1
  6
CONTINUOUS
 62
     3
 10
12333.847272999999
 20
18725.730629999991
 30
0.0
 11
12333.847272999999
 21
19832.988205000001
 31
0.0
  0
LINE
  5
40AF
  8
0-1
  6
CONTINUOUS
 62
     3
 10
12370.847444999979
 20
18688.786875000002
 30
0.0
 11
12370.847444999979
 21
19832.988205000001
 31
0.0
  0
LINE
  5
40B0
  8
0-1
  6
CONTINUOUS
 62
     3
 10
12035.846586999991
 20
19023.270087999961
 30
0.0
 11
12035.846586999991
 21
19832.988205000001
 31
0.0
  0
LINE
  5
40B1
  8
0-1
  6
CONTINUOUS
 62
     3
 10
11998.848395000001
 20
19060.215822999999
 30
0.0
 11
11998.848395000001
 21
19832.988205000001
 31
0.0
  0
LINE
  5
40B2
  8
0-1
  6
CONTINUOUS
 62
     3
 10
11831.34747099999
 20
19227.457429999991
 30
0.0
 11
11831.34747099999
 21
19832.988205000001
 31
0.0
  0
LINE
  5
40B3
  8
0-1
  6
CONTINUOUS
 62
     3
 10
11868.34764299999
 20
19190.513674999991
 30
0.0
 11
11868.34764299999
 21
19832.988205000001
 31
0.0
  0
LINE
  5
40B4
  8
0-1
  6
CONTINUOUS
 62
     3
 10
12820.584168999991
 20
18239.746940999961
 30
0.0
 11
11280.347485
 21
19777.605233999991
 31
0.0
  0
LINE
  5
40B5
  8
0-1
  6
CONTINUOUS
 62
     3
 10
13343.762021999981
 20
17351.610196000001
 30
0.0
 11
12998.781422
 21
18415.090717999981
 31
0.0
  0
LINE
  5
40B6
  8
0-1
  6
CONTINUOUS
 62
     3
 10
12820.584168999991
 20
18239.746940999961
 30
0.0
 11
12998.781422
 21
18415.090717999981
 31
0.0
  0
LINE
  5
40B7
  8
0-1
  6
CONTINUOUS
 62
     3
 10
13343.762021999981
 20
17351.610196000001
 30
0.0
 11
13521.961254
 21
17526.957932000001
 31
0.0
  0
LINE
  5
40B8
  8
0-1
  6
CONTINUOUS
 62
     3
 10
14713.263315
 20
16336.978677999999
 30
0.0
 11
13521.961254
 21
17526.957932000001
 31
0.0
  0
LINE
  5
40B9
  8
0-1
  6
CONTINUOUS
 62
     3
 10
11729.847655999991
 20
16750.486251999992
 30
0.0
 11
13028.77409699999
 21
18322.635322999999
 31
0.0
  0
LINE
  5
40BA
  8
0-1
  6
CONTINUOUS
 62
     3
 10
12874.07570999999
 20
18292.382339999989
 30
0.0
 11
13143.821738000001
 21
17967.976856000001
 31
0.0
  0
LINE
  5
40BB
  8
0-1
  6
CONTINUOUS
 62
     3
 10
13515.673312999999
 20
17520.767976999981
 30
0.0
 11
14157.348183999989
 21
16750.486251999992
 31
0.0
  0
LINE
  5
40BC
  8
0-1
  6
CONTINUOUS
 62
     3
 10
11592.346296999989
 20
19463.093382999981
 30
0.0
 11
11592.346296999989
 21
19873.487175999991
 31
0.0
  0
LINE
  5
40BD
  8
0-1
  6
CONTINUOUS
 62
     3
 10
14294.849543
 20
16757.741187999989
 30
0.0
 11
14294.849543
 21
19873.487175999991
 31
0.0
  0
LINE
  5
40BE
  8
0-1
  6
CONTINUOUS
 62
     3
 10
11592.346296999989
 20
19832.988205000001
 30
0.0
 11
14294.849543
 21
19832.988205000001
 31
0.0
  0
LINE
  5
40BF
  8
0-1
  6
CONTINUOUS
 62
     3
 10
11647.847049
 20
19855.988230999988
 30
0.0
 11
11647.847049
 21
19885.985855999988
 31
0.0
  0
LINE
  5
40C0
  8
0-1
  6
CONTINUOUS
 62
     3
 10
11574.347524000001
 20
19885.985855999988
 30
0.0
 11
11574.347524000001
 21
19850.987968000001
 31
0.0
  0
LINE
  5
40C1
  8
0-1
  6
CONTINUOUS
 62
     3
 10
11642.847775
 20
19890.986120000001
 30
0.0
 11
11579.347787999999
 21
19890.986120000001
 31
0.0
  0
LINE
  5
40C2
  8
0-1
  6
CONTINUOUS
 62
     3
 10
11592.346296999989
 20
19873.487175999991
 30
0.0
 11
11574.347524000001
 21
19873.487175999991
 31
0.0
  0
LINE
  5
40C3
  8
0-1
  6
CONTINUOUS
 62
     3
 10
11592.346296999989
 20
19850.987968000001
 30
0.0
 11
11642.847775
 21
19850.987968000001
 31
0.0
  0
LINE
  5
40C4
  8
0-1
  6
CONTINUOUS
 62
     3
 10
14294.849543
 20
19873.487175999991
 30
0.0
 11
14312.848316
 21
19873.487175999991
 31
0.0
  0
LINE
  5
40C5
  8
0-1
  6
CONTINUOUS
 62
     3
 10
14239.348791
 20
19855.988230999988
 30
0.0
 11
14239.348791
 21
19885.985855999988
 31
0.0
  0
LINE
  5
40C6
  8
0-1
  6
CONTINUOUS
 62
     3
 10
14294.849543
 20
19850.987968000001
 30
0.0
 11
14244.349055000001
 21
19850.987968000001
 31
0.0
  0
LINE
  5
40C7
  8
0-1
  6
CONTINUOUS
 62
     3
 10
14312.848316
 20
19885.985855999988
 30
0.0
 11
14312.848316
 21
19850.987968000001
 31
0.0
  0
LINE
  5
40C8
  8
0-1
  6
CONTINUOUS
 62
     3
 10
14244.349055000001
 20
19890.986120000001
 30
0.0
 11
14307.848051999999
 21
19890.986120000001
 31
0.0
  0
LINE
  5
40C9
  8
0-6
  6
CONTINUOUS
 62
     6
 10
13422.491435
 20
16938.31683199999
 30
0.0
 11
13361.34509599999
 21
17110.085174999978
 31
0.0
  0
LINE
  5
40CA
  8
0-6
  6
CONTINUOUS
 62
     6
 10
13309.493586000001
 20
19608.710728999991
 30
0.0
 11
13453.394689999999
 21
20120.986383999989
 31
0.0
  0
LINE
  5
40CB
  8
0-6
  6
CONTINUOUS
 62
     6
 10
12890.54926399999
 20
19714.486304999991
 30
0.0
 11
12596.623416
 21
20120.986383999989
 31
0.0
  0
LINE
  5
40CC
  8
0-6
  6
CONTINUOUS
 62
     6
 10
13453.394689999999
 20
20120.986383999989
 30
0.0
 11
14014.704074999991
 21
20120.986383999989
 31
0.0
  0
LINE
  5
40CD
  8
0-6
  6
CONTINUOUS
 62
     6
 10
12918.43177299998
 20
20010.889518999989
 30
0.0
 11
12746.61080108981
 21
20365.98744000003
 31
0.0
  0
LINE
  5
40CE
  8
0-6
  6
CONTINUOUS
 62
     6
 10
12667.22797759662
 20
20515.987440000001
 30
0.0
 11
12439.174488000001
 21
20910.988495000001
 31
0.0
  0
LINE
  5
40CF
  8
0-6
  6
CONTINUOUS
 62
     6
 10
12439.174488000001
 20
20910.988495000001
 30
0.0
 11
13281.61107699999
 21
20910.988495000001
 31
0.0
  0
LINE
  5
40D0
  8
0-6
  6
CONTINUOUS
 62
     6
 10
11796.621767000001
 20
20120.986383999989
 30
0.0
 11
12596.623416
 21
20120.986383999989
 31
0.0
  0
LINE
  5
40D1
  8
0-6
  6
CONTINUOUS
 62
     6
 10
12560.771365999981
 20
17110.085174999978
 30
0.0
 11
13361.34509599999
 21
17110.085174999978
 31
0.0
  0
LINE
  5
40D2
  8
0-6
  6
CONTINUOUS
 62
     6
 10
12353.213894
 20
16000.79703699998
 30
0.0
 11
12553.531275999991
 21
16192.385732999999
 31
0.0
  0
LINE
  5
40D3
  8
0-6
  6
CONTINUOUS
 62
     6
 10
12553.531275999991
 20
16192.385732999999
 30
0.0
 11
13433.531209999999
 21
16192.385732999999
 31
0.0
  0
LINE
  5
40D4
  8
0-6
  6
CONTINUOUS
 62
     6
 10
11824.375606999991
 20
18548.183649999992
 30
0.0
 11
12344.37435299999
 21
18548.183649999992
 31
0.0
  0
LINE
  5
40D5
  8
0-6
  6
CONTINUOUS
 62
     6
 10
12549.146642999969
 20
14026.876956
 30
0.0
 11
12632.033045
 21
14213.81534099998
 31
0.0
  0
LINE
  5
40D6
  8
0-6
  6
CONTINUOUS
 62
     6
 10
12632.033045
 20
14213.81534099998
 30
0.0
 11
13432.033705
 21
14213.81534099998
 31
0.0
  0
LINE
  5
40D7
  8
0-6
  6
CONTINUOUS
 62
     6
 10
13220.624089000001
 20
12839.987308
 30
0.0
 11
14092.705024999979
 21
12839.987308
 31
0.0
  0
LINE
  5
40D8
  8
0-6
  6
CONTINUOUS
 62
     6
 10
12814.51199599999
 20
13503.518966999991
 30
0.0
 11
13220.624089000001
 21
12839.987308
 31
0.0
  0
LINE
  5
40D9
  8
0-6
  6
CONTINUOUS
 62
     6
 10
9815.7145529999998
 20
12349.98618599998
 30
0.0
 11
10895.713168
 21
12349.98618599998
 31
0.0
  0
LINE
  5
40DA
  8
0-6
  6
CONTINUOUS
 62
     6
 10
11482.454352000001
 20
14230.25821199999
 30
0.0
 11
10895.713168
 21
12349.98618599998
 31
0.0
  0
LINE
  5
40DB
  8
0-6
  6
CONTINUOUS
 62
     6
 10
11725.33138499999
 20
18768.977172999981
 30
0.0
 11
11824.375606999991
 21
18548.183649999992
 31
0.0
  0
LINE
  5
40DC
  8
0-6
  6
CONTINUOUS
 62
     6
 10
14420.75777299999
 20
20006.308913000001
 30
0.0
 11
15347.505028
 21
20910.988495000001
 31
0.0
  0
LINE
  5
40DD
  8
0-6
  6
CONTINUOUS
 62
     6
 10
15347.505028
 20
20910.988495000001
 30
0.0
 11
17022.504367999991
 21
20910.988495000001
 31
0.0
  0
LINE
  5
40DE
  8
0-6
  6
CONTINUOUS
 62
     6
 10
11507.897105
 20
14222.27679299999
 30
0.0
 11
11530.34781499999
 21
14382.92363399999
 31
0.0
  0
LINE
  5
40DF
  8
0-6
  6
CONTINUOUS
 62
     6
 10
11530.34781499999
 20
14382.92363399999
 30
0.0
 11
11457.009620000001
 21
14238.241609999979
 31
0.0
  0
LINE
  5
40E0
  8
0-6
  6
CONTINUOUS
 62
     6
 10
11530.34781499999
 20
14382.92363399999
 30
0.0
 11
11507.897105
 21
14222.27679299999
 31
0.0
  0
LINE
  5
40E1
  8
0-6
  6
CONTINUOUS
 62
     6
 10
11507.897105
 20
14222.27679299999
 30
0.0
 11
11457.009620000001
 21
14238.241609999979
 31
0.0
  0
LINE
  5
40E2
  8
0-6
  6
CONTINUOUS
 62
     6
 10
11457.009620000001
 20
14238.241609999979
 30
0.0
 11
11530.34781499999
 21
14382.92363399999
 31
0.0
  0
LINE
  5
40E3
  8
0-6
  6
CONTINUOUS
 62
     6
 10
11457.009620000001
 20
14238.241609999979
 30
0.0
 11
11507.897105
 21
14222.27679299999
 31
0.0
  0
LINE
  5
40E4
  8
0-6
  6
CONTINUOUS
 62
     6
 10
12524.998496
 20
14038.189904999999
 30
0.0
 11
12481.27291
 21
13881.986093999991
 31
0.0
  0
LINE
  5
40E5
  8
0-6
  6
CONTINUOUS
 62
     6
 10
12481.27291
 20
13881.986093999991
 30
0.0
 11
12573.293799999999
 21
14015.564996999999
 31
0.0
  0
LINE
  5
40E6
  8
0-6
  6
CONTINUOUS
 62
     6
 10
12481.27291
 20
13881.986093999991
 30
0.0
 11
12524.998496
 21
14038.189904999999
 31
0.0
  0
LINE
  5
40E7
  8
0-6
  6
CONTINUOUS
 62
     6
 10
12524.998496
 20
14038.189904999999
 30
0.0
 11
12573.293799999999
 21
14015.564996999999
 31
0.0
  0
LINE
  5
40E8
  8
0-6
  6
CONTINUOUS
 62
     6
 10
12573.293799999999
 20
14015.564996999999
 30
0.0
 11
12481.27291
 21
13881.986093999991
 31
0.0
  0
LINE
  5
40E9
  8
0-6
  6
CONTINUOUS
 62
     6
 10
12573.293799999999
 20
14015.564996999999
 30
0.0
 11
12524.998496
 21
14038.189904999999
 31
0.0
  0
LINE
  5
40EA
  8
0-6
  6
CONTINUOUS
 62
     6
 10
12837.256664
 20
13517.439930999981
 30
0.0
 11
12730.98719899999
 21
13639.986978000001
 31
0.0
  0
LINE
  5
40EB
  8
0-6
  6
CONTINUOUS
 62
     6
 10
12730.98719899999
 20
13639.986978000001
 30
0.0
 11
12791.767327
 21
13489.598002000001
 31
0.0
  0
LINE
  5
40EC
  8
0-6
  6
CONTINUOUS
 62
     6
 10
12730.98719899999
 20
13639.986978000001
 30
0.0
 11
12837.256664
 21
13517.439930999981
 31
0.0
  0
LINE
  5
40ED
  8
0-6
  6
CONTINUOUS
 62
     6
 10
12837.256664
 20
13517.439930999981
 30
0.0
 11
12791.767327
 21
13489.598002000001
 31
0.0
  0
LINE
  5
40EE
  8
0-6
  6
CONTINUOUS
 62
     6
 10
12791.767327
 20
13489.598002000001
 30
0.0
 11
12730.98719899999
 21
13639.986978000001
 31
0.0
  0
LINE
  5
40EF
  8
0-6
  6
CONTINUOUS
 62
     6
 10
12791.767327
 20
13489.598002000001
 30
0.0
 11
12837.256664
 21
13517.439930999981
 31
0.0
  0
LINE
  5
40F0
  8
0-6
  6
CONTINUOUS
 62
     6
 10
12450.409245999999
 20
16130.65840499998
 30
0.0
 11
12353.213894
 21
16000.79703699998
 31
0.0
  0
LINE
  5
40F1
  8
0-6
  6
CONTINUOUS
 62
     6
 10
12353.213894
 20
16000.79703699998
 30
0.0
 11
12487.273819999989
 21
16092.116187999991
 31
0.0
  0
LINE
  5
40F2
  8
0-6
  6
CONTINUOUS
 62
     6
 10
12353.213894
 20
16000.79703699998
 30
0.0
 11
12450.409245999999
 21
16130.65840499998
 31
0.0
  0
LINE
  5
40F3
  8
0-6
  6
CONTINUOUS
 62
     6
 10
12450.409245999999
 20
16130.65840499998
 30
0.0
 11
12487.273819999989
 21
16092.116187999991
 31
0.0
  0
LINE
  5
40F4
  8
0-6
  6
CONTINUOUS
 62
     6
 10
12487.273819999989
 20
16092.116187999991
 30
0.0
 11
12353.213894
 21
16000.79703699998
 31
0.0
  0
LINE
  5
40F5
  8
0-6
  6
CONTINUOUS
 62
     6
 10
12487.273819999989
 20
16092.116187999991
 30
0.0
 11
12450.409245999999
 21
16130.65840499998
 31
0.0
  0
LINE
  5
40F6
  8
0-6
  6
CONTINUOUS
 62
     6
 10
13448.130160000001
 20
16945.650947999991
 30
0.0
 11
13466.497122999979
 21
16784.488442999958
 31
0.0
  0
LINE
  5
40F7
  8
0-6
  6
CONTINUOUS
 62
     6
 10
13466.497122999979
 20
16784.488442999958
 30
0.0
 11
13396.855680000001
 21
16930.982715999999
 31
0.0
  0
LINE
  5
40F8
  8
0-6
  6
CONTINUOUS
 62
     6
 10
13466.497122999979
 20
16784.488442999958
 30
0.0
 11
13448.130160000001
 21
16945.650947999991
 31
0.0
  0
LINE
  5
40F9
  8
0-6
  6
CONTINUOUS
 62
     6
 10
13448.130160000001
 20
16945.650947999991
 30
0.0
 11
13396.855680000001
 21
16930.982715999999
 31
0.0
  0
LINE
  5
40FA
  8
0-6
  6
CONTINUOUS
 62
     6
 10
13396.855680000001
 20
16930.982715999999
 30
0.0
 11
13466.497122999979
 21
16784.488442999958
 31
0.0
  0
LINE
  5
40FB
  8
0-6
  6
CONTINUOUS
 62
     6
 10
13396.855680000001
 20
16930.982715999999
 30
0.0
 11
13448.130160000001
 21
16945.650947999991
 31
0.0
  0
LINE
  5
40FC
  8
0-6
  6
CONTINUOUS
 62
     6
 10
11749.664617
 20
18779.890257999981
 30
0.0
 11
11659.84792
 21
18914.962708999989
 31
0.0
  0
LINE
  5
40FD
  8
0-6
  6
CONTINUOUS
 62
     6
 10
11659.84792
 20
18914.962708999989
 30
0.0
 11
11701.002111
 21
18758.062107000002
 31
0.0
  0
LINE
  5
40FE
  8
0-6
  6
CONTINUOUS
 62
     6
 10
11659.84792
 20
18914.962708999989
 30
0.0
 11
11749.664617
 21
18779.890257999981
 31
0.0
  0
LINE
  5
40FF
  8
0-6
  6
CONTINUOUS
 62
     6
 10
11749.664617
 20
18779.890257999981
 30
0.0
 11
11701.002111
 21
18758.062107000002
 31
0.0
  0
LINE
  5
4100
  8
0-6
  6
CONTINUOUS
 62
     6
 10
11701.002111
 20
18758.062107000002
 30
0.0
 11
11659.84792
 21
18914.962708999989
 31
0.0
  0
LINE
  5
4101
  8
0-6
  6
CONTINUOUS
 62
     6
 10
11701.002111
 20
18758.062107000002
 30
0.0
 11
11749.664617
 21
18779.890257999981
 31
0.0
  0
LINE
  5
4102
  8
0-6
  6
CONTINUOUS
 62
     6
 10
13283.604452999971
 20
19615.110512999981
 30
0.0
 11
13271.10379299998
 21
19453.38582399999
 31
0.0
  0
LINE
  5
4103
  8
0-6
  6
CONTINUOUS
 62
     6
 10
13271.10379299998
 20
19453.38582399999
 30
0.0
 11
13335.378761
 21
19602.314904999999
 31
0.0
  0
LINE
  5
4104
  8
0-6
  6
CONTINUOUS
 62
     6
 10
13271.10379299998
 20
19453.38582399999
 30
0.0
 11
13283.604452999971
 21
19615.110512999981
 31
0.0
  0
LINE
  5
4105
  8
0-6
  6
CONTINUOUS
 62
     6
 10
13283.604452999971
 20
19615.110512999981
 30
0.0
 11
13335.378761
 21
19602.314904999999
 31
0.0
  0
LINE
  5
4106
  8
0-6
  6
CONTINUOUS
 62
     6
 10
13335.378761
 20
19602.314904999999
 30
0.0
 11
13271.10379299998
 21
19453.38582399999
 31
0.0
  0
LINE
  5
4107
  8
0-6
  6
CONTINUOUS
 62
     6
 10
13335.378761
 20
19602.314904999999
 30
0.0
 11
13283.604452999971
 21
19615.110512999981
 31
0.0
  0
LINE
  5
4108
  8
0-6
  6
CONTINUOUS
 62
     6
 10
12896.781778
 20
19998.39281899999
 30
0.0
 11
12993.431773
 21
19880.987571999969
 31
0.0
  0
LINE
  5
4109
  8
0-6
  6
CONTINUOUS
 62
     6
 10
12993.431773
 20
19880.987571999969
 30
0.0
 11
12940.081766999991
 21
20023.392158999999
 31
0.0
  0
LINE
  5
410A
  8
0-6
  6
CONTINUOUS
 62
     6
 10
12993.431773
 20
19880.987571999969
 30
0.0
 11
12896.781778
 21
19998.39281899999
 31
0.0
  0
LINE
  5
410B
  8
0-6
  6
CONTINUOUS
 62
     6
 10
12896.781778
 20
19998.39281899999
 30
0.0
 11
12940.081766999991
 21
20023.392158999999
 31
0.0
  0
LINE
  5
410C
  8
0-6
  6
CONTINUOUS
 62
     6
 10
12940.081766999991
 20
20023.392158999999
 30
0.0
 11
12993.431773
 21
19880.987571999969
 31
0.0
  0
LINE
  5
410D
  8
0-6
  6
CONTINUOUS
 62
     6
 10
12940.081766999991
 20
20023.392158999999
 30
0.0
 11
12896.781778
 21
19998.39281899999
 31
0.0
  0
LINE
  5
410E
  8
0-6
  6
CONTINUOUS
 62
     6
 10
12783.85420199999
 20
19836.664171
 30
0.0
 11
12890.54926399999
 21
19714.486304999991
 31
0.0
  0
LINE
  5
410F
  8
0-6
  6
CONTINUOUS
 62
     6
 10
12890.54926399999
 20
19714.486304999991
 30
0.0
 11
12829.245553000001
 21
19864.66446099996
 31
0.0
  0
LINE
  5
4110
  8
0-6
  6
CONTINUOUS
 62
     6
 10
12890.54926399999
 20
19714.486304999991
 30
0.0
 11
12783.85420199999
 21
19836.664171
 31
0.0
  0
LINE
  5
4111
  8
0-6
  6
CONTINUOUS
 62
     6
 10
12783.85420199999
 20
19836.664171
 30
0.0
 11
12829.245553000001
 21
19864.66446099996
 31
0.0
  0
LINE
  5
4112
  8
0-6
  6
CONTINUOUS
 62
     6
 10
12829.245553000001
 20
19864.66446099996
 30
0.0
 11
12890.54926399999
 21
19714.486304999991
 31
0.0
  0
LINE
  5
4113
  8
0-6
  6
CONTINUOUS
 62
     6
 10
12829.245553000001
 20
19864.66446099996
 30
0.0
 11
12783.85420199999
 21
19836.664171
 31
0.0
  0
LINE
  5
4114
  8
0-6
  6
CONTINUOUS
 62
     6
 10
14401.53664699999
 20
20024.793657999991
 30
0.0
 11
14309.848316
 21
19890.986120000001
 31
0.0
  0
LINE
  5
4115
  8
0-6
  6
CONTINUOUS
 62
     6
 10
14309.848316
 20
19890.986120000001
 30
0.0
 11
14439.976919000001
 21
19987.826147999978
 31
0.0
  0
LINE
  5
4116
  8
0-6
  6
CONTINUOUS
 62
     6
 10
14309.848316
 20
19890.986120000001
 30
0.0
 11
14401.53664699999
 21
20024.793657999991
 31
0.0
  0
LINE
  5
4117
  8
0-6
  6
CONTINUOUS
 62
     6
 10
14401.53664699999
 20
20024.793657999991
 30
0.0
 11
14439.976919000001
 21
19987.826147999978
 31
0.0
  0
LINE
  5
4118
  8
0-6
  6
CONTINUOUS
 62
     6
 10
14439.976919000001
 20
19987.826147999978
 30
0.0
 11
14309.848316
 21
19890.986120000001
 31
0.0
  0
LINE
  5
4119
  8
0-6
  6
CONTINUOUS
 62
     6
 10
14439.976919000001
 20
19987.826147999978
 30
0.0
 11
14401.53664699999
 21
20024.793657999991
 31
0.0
  0
LINE
  5
411A
  8
2-0
  6
DASHED3
 62
     6
 10
11659.84792
 20
19629.487755999991
 30
0.0
 11
14227.347919999989
 21
19629.487755999991
 31
0.0
  0
LINE
  5
411B
  8
2-0
  6
DASHED3
 62
     6
 10
11617.347656
 20
19441.124685999999
 30
0.0
 11
11617.347656
 21
19714.486304999991
 31
0.0
  0
LINE
  5
411C
  8
2-0
  6
DASHED3
 62
     6
 10
11659.84792
 20
19398.693705000002
 30
0.0
 11
11659.84792
 21
19714.486304999991
 31
0.0
  0
LINE
  5
411D
  8
2-0
  6
DASHED3
 62
     6
 10
11617.347656
 20
19714.486304999991
 30
0.0
 11
14269.849174000001
 21
19714.486304999991
 31
0.0
  0
LINE
  5
411E
  8
2-0
  6
DASHED3
 62
     6
 10
14227.347919999989
 20
16822.144824999999
 30
0.0
 11
14227.347919999989
 21
19714.486304999991
 31
0.0
  0
LINE
  5
411F
  8
2-0
  6
DASHED3
 62
     6
 10
14269.849174000001
 20
16779.709885
 30
0.0
 11
14269.849174000001
 21
19714.486304999991
 31
0.0
  0
LINE
  5
4120
  8
2-0
  6
DASHED3
 62
     6
 10
13028.77409699999
 20
18322.635322999999
 30
0.0
 11
14157.348183999989
 21
19668.486251999992
 31
0.0
  0
LINE
  5
4121
  8
2-0
  6
DASHED3
 62
     6
 10
11729.847655999991
 20
19668.486251999992
 30
0.0
 11
12874.07570999999
 21
18292.382339999989
 31
0.0
  0
LINE
  5
4122
  8
2-0
  6
DASHED3
 62
     6
 10
13143.821738000001
 20
17967.976856000001
 30
0.0
 11
13515.673312999999
 21
17520.767976999981
 31
0.0
  0
LINE
  5
4123
  8
2-0
  6
CENTER2
 62
     6
 10
14227.347919999989
 20
20910.988495000001
 30
0.0
 11
14227.347919999989
 21
19960.985855999981
 31
0.0
  0
LINE
  5
4124
  8
2-0
  6
CENTER2
 62
     6
 10
10330.346825000001
 20
19668.486251999992
 30
0.0
 11
11976.847035999999
 21
19668.486251999992
 31
0.0
  0
LINE
  5
4125
  8
2-0
  6
CENTER2
 62
     6
 10
11659.84792
 20
20910.988495000001
 30
0.0
 11
11659.84792
 21
19960.985855999981
 31
0.0
  0
LINE
  5
4126
  8
2-0
  6
CENTER2
 62
     6
 10
10330.346825000001
 20
16750.486251999992
 30
0.0
 11
11976.847035999999
 21
16750.486251999992
 31
0.0
  0
LINE
  5
4127
  8
2-0
  6
CENTER2
 62
     6
 10
10330.346825000001
 20
13832.486252000001
 30
0.0
 11
11976.847035999999
 21
13832.486252000001
 31
0.0
  0
ARC
  5
4128
  8
0-1
  6
CONTINUOUS
 62
     3
 10
11642.847775
 20
19855.988230999988
 30
0.0
 40
5.0
 50
269.9999850001808
 51
0.0
  0
ARC
  5
4129
  8
0-1
  6
CONTINUOUS
 62
     3
 10
11642.847775
 20
19885.985855999988
 30
0.0
 40
5.0
 50
0.0
 51
90.0
  0
ARC
  5
412A
  8
0-1
  6
CONTINUOUS
 62
     3
 10
11579.347787999999
 20
19885.985855999988
 30
0.0
 40
5.0
 50
90.0
 51
180.0
  0
ARC
  5
412B
  8
0-1
  6
CONTINUOUS
 62
     3
 10
14307.848051999999
 20
19885.985855999988
 30
0.0
 40
5.0
 50
0.0
 51
90.0
  0
ARC
  5
412C
  8
0-1
  6
CONTINUOUS
 62
     3
 10
14244.349055000001
 20
19885.985855999988
 30
0.0
 40
5.0
 50
90.0
 51
180.0
  0
ARC
  5
412D
  8
0-1
  6
CONTINUOUS
 62
     3
 10
14244.349055000001
 20
19855.988230999988
 30
0.0
 40
5.0
 50
180.0
 51
269.9999850001808
  0
CIRCLE
  5
412E
  8
0-5
  6
CONTINUOUS
 62
     4
 10
14227.347919999989
 20
21110.987175999999
 30
0.0
 40
199.9999949999999
  0
CIRCLE
  5
412F
  8
0-5
  6
CONTINUOUS
 62
     4
 10
11659.84792
 20
21110.987175999999
 30
0.0
 40
199.9999949999999
  0
CIRCLE
  5
4130
  8
0-5
  6
CONTINUOUS
 62
     4
 10
10130.346165000001
 20
19668.486251999992
 30
0.0
 40
199.9999949999999
  0
CIRCLE
  5
4131
  8
0-5
  6
CONTINUOUS
 62
     4
 10
10130.346165000001
 20
16750.486251999992
 30
0.0
 40
199.9999949999999
  0
CIRCLE
  5
4132
  8
0-5
  6
CONTINUOUS
 62
     4
 10
10130.346165000001
 20
13832.486252000001
 30
0.0
 40
199.9999949999999
  0
CIRCLE
  5
4133
  8
0-5
  6
CONTINUOUS
 62
     4
 10
15128.71469899998
 20
1375.9999199999991
 30
0.0
 40
20.0
  0
ARC
  5
4134
  8
0-5
  6
CONTINUOUS
 62
     4
 10
15128.71469899998
 20
1375.9999199999991
 30
0.0
 40
20.0
 50
180.0
 51
0.0
  0
ARC
  5
4135
  8
0-5
  6
CONTINUOUS
 62
     4
 10
15128.71469899998
 20
1375.9999199999991
 30
0.0
 40
20.0
 50
0.0
 51
179.99998500000001
  0
CIRCLE
  5
4136
  8
0-5
  6
CONTINUOUS
 62
     4
 10
15128.71469899998
 20
1775.999941
 30
0.0
 40
20.0
  0
ARC
  5
4137
  8
0-5
  6
CONTINUOUS
 62
     4
 10
15128.71469899998
 20
1775.999941
 30
0.0
 40
20.0
 50
180.0
 51
0.0
  0
ARC
  5
4138
  8
0-5
  6
CONTINUOUS
 62
     4
 10
15128.71469899998
 20
1775.999941
 30
0.0
 40
20.0
 50
0.0
 51
179.99998500000001
  0
TEXT
  5
4139
  8
0-5
  6
CONTINUOUS
 62
     7
 10
14174.30672
 20
21019.636352000001
 30
0.0
 40
160.0
  1
2
 72
     4
 11
14227.640053333331
 21
21099.636352000001
 31
0.0
  0
TEXT
  5
413A
  8
0-5
  6
CONTINUOUS
 62
     7
 10
11611.644662999999
 20
21020.451914000001
 30
0.0
 40
160.0
  1
1
 72
     4
 11
11638.311329666671
 21
21100.451914000001
 31
0.0
  0
TEXT
  5
413B
  8
0-5
  6
CONTINUOUS
 62
     7
 10
10081.636150999981
 20
19576.654405000001
 30
0.0
 40
160.0
  1
C
 72
     4
 11
10134.96948433332
 21
19656.654405000001
 31
0.0
  0
TEXT
  5
413C
  8
0-5
  6
CONTINUOUS
 62
     7
 10
10081.636150999981
 20
16658.654405999991
 30
0.0
 40
160.0
  1
B
 72
     4
 11
10134.96948433332
 21
16738.654405999991
 31
0.0
  0
TEXT
  5
413D
  8
0-5
  6
CONTINUOUS
 62
     7
 10
10081.636150999981
 20
13740.653415999979
 30
0.0
 40
160.0
  1
A
 72
     4
 11
10134.96948433332
 21
13820.653415999979
 31
0.0
  0
TEXT
  5
413E
  8
0-5
  6
CONTINUOUS
 62
     7
 10
16617.709473524468
 20
1656.0000399999999
 30
0.0
 40
160.0
  1
H
  0
TEXT
  5
413F
  8
0-5
  6
CONTINUOUS
 62
     7
 10
15176.145943999991
 20
1656.0000399999999
 30
0.0
 40
160.0
  1
（ ）内寸法ハ、  タ イプヲ示ス。
  0
TEXT
  5
4140
  8
0-5
  6
CONTINUOUS
 62
     7
 10
15288.714237
 20
1255.999957
 30
0.0
 40
160.0
  1
有効高サハ、基礎高サヲ含ミマセン。
  0
TEXT
  5
4141
  8
0-6
  6
CONTINUOUS
 62
     7
 10
13533.394953000001
 20
20200.986647999991
 30
0.0
 40
160.0
  1
屋根
 72
     4
 11
13704.061619666671
 21
20280.986647999991
 31
0.0
  0
TEXT
  5
4142
  8
0-6
  6
CONTINUOUS
 62
     7
 10
12519.174752000001
 20
20990.988759
 30
0.0
 40
160.0
  1
鼻隠し後
 72
     4
 11
12881.841418666671
 21
21070.988759
 31
0.0
  0
TEXT
  5
4143
  8
0-6
  6
CONTINUOUS
 62
     7
 10
11876.622031000001
 20
20200.986647999991
 30
0.0
 40
160.0
  1
桁（後）
 72
     4
 11
12196.622031000001
 21
20280.986647999991
 31
0.0
  0
TEXT
  5
4144
  8
0-6
  6
CONTINUOUS
 62
     7
 10
12641.34370999999
 20
17190.085438999999
 30
0.0
 40
160.0
  1
桁（中）
 72
     4
 11
12961.34370999999
 21
17270.085438999999
 31
0.0
  0
TEXT
  5
4145
  8
0-6
  6
CONTINUOUS
 62
     7
 10
12633.531539999991
 20
16272.385006999981
 30
0.0
 40
160.0
  1
ブレース
 72
     4
 11
12996.198206666661
 21
16357.71834033332
 31
0.0
  0
TEXT
  5
4146
  8
0-6
  6
CONTINUOUS
 62
     7
 10
12712.032318999991
 20
14293.815604999991
 30
0.0
 40
160.0
  1
桁（前）
 72
     4
 11
13032.032318999991
 21
14373.815604999991
 31
0.0
  0
TEXT
  5
4147
  8
0-6
  6
CONTINUOUS
 62
     7
 10
13300.624352999979
 20
12919.987572
 30
0.0
 40
160.0
  1
鼻隠し前
 72
     4
 11
13663.291019666651
 21
12999.987572
 31
0.0
  0
TEXT
  5
4148
  8
0-6
  6
CONTINUOUS
 62
     7
 10
9895.7138279999908
 20
12429.98644999998
 30
0.0
 40
160.0
  1
ケラバ 左
 72
     4
 11
10311.713827999991
 21
12509.98644999998
 31
0.0
  0
TEXT
  5
4149
  8
0-6
  6
CONTINUOUS
 62
     7
 10
11904.372901999999
 20
18628.183913000001
 30
0.0
 40
160.0
  1
上枠
 72
     4
 11
12075.039568666671
 21
18708.183913000001
 31
0.0
  0
TEXT
  5
414A
  8
0-6
  6
CONTINUOUS
 62
     7
 10
15427.505291999991
 20
20990.988759
 30
0.0
 40
160.0
  1
鼻隠しコーナー後
 72
     4
 11
16174.17195866666
 21
21070.988759
 31
0.0
  0
TEXT
  5
4152
  8
2-0
  6
CONTINUOUS
 62
     7
 10
11730.63212419634
 20
11596.27110866666
 30
0.0
 40
160.0
  1
小 屋 伏 図
 72
     4
 11
12231.965457529681
 21
11676.27110866666
 31
0.0
  0
TEXT
  5
4153
  8
2-0
  6
CONTINUOUS
 62
     7
 10
13583.457642667299
 20
11623.46647766667
 30
0.0
 40
160.0
  1
1
 72
     4
 11
13610.124309333971
 21
11703.46647766667
 31
0.0
  0
TEXT
  5
4154
  8
2-0
  6
CONTINUOUS
 62
     7
 10
13826.546359918
 20
11543.467945666671
 30
0.0
 40
160.0
  1
80
 72
     4
 11
13946.546359918
 21
11623.467945666671
 31
0.0
  0
TEXT
  5
4155
  8
2-0
  6
CONTINUOUS
 62
     7
 10
13084.45960866729
 20
11596.27110866666
 30
0.0
 40
160.0
  1
(S=  /   )
 72
     4
 11
13644.45960866729
 21
11676.27110866666
 31
0.0
  0
LINE
  5
4156
  8
0-1
  6
CONTINUOUS
 62
     3
 10
9673.5677129999895
 20
8478.9693009999955
 30
0.0
 11
15554.567118999979
 21
8478.9693009999955
 31
0.0
  0
LINE
  5
4157
  8
0-1
  6
CONTINUOUS
 62
     3
 10
8963.567843999992
 20
6467.9239179999977
 30
0.0
 11
15587.066920999991
 21
6467.9239179999977
 31
0.0
  0
LINE
  5
4158
  8
0-1
  6
CONTINUOUS
 62
     3
 10
9768.56777899999
 20
6617.9239179999977
 30
0.0
 11
12541.567053000001
 21
6617.9239179999977
 31
0.0
  0
LINE
  5
4159
  8
0-1
  6
CONTINUOUS
 62
     3
 10
9646.0669209999924
 20
6567.9232579999998
 30
0.0
 11
15587.066920999991
 21
6567.9232579999998
 31
0.0
  0
LINE
  5
415A
  8
0-1
  6
CONTINUOUS
 62
     3
 10
9768.56777899999
 20
8478.9693009999955
 30
0.0
 11
9768.56777899999
 21
6567.9232579999998
 31
0.0
  0
LINE
  5
415B
  8
0-1
  6
CONTINUOUS
 62
     3
 10
9653.565666999988
 20
8601.0046419999962
 30
0.0
 11
9653.565666999988
 21
6567.9232579999998
 31
0.0
  0
LINE
  5
415C
  8
0-1
  6
CONTINUOUS
 62
     3
 10
9673.5677129999895
 20
8601.6222520000028
 30
0.0
 11
9673.5677129999895
 21
6567.9232579999998
 31
0.0
  0
LINE
  5
415D
  8
0-1
  6
CONTINUOUS
 62
     3
 10
9892.0669729999972
 20
6617.9239179999977
 30
0.0
 11
9892.0669729999972
 21
8478.9693009999955
 31
0.0
  0
LINE
  5
415E
  8
0-1
  6
CONTINUOUS
 62
     3
 10
9907.0667759999887
 20
6617.9239179999977
 30
0.0
 11
9907.0667759999887
 21
8478.9693009999955
 31
0.0
  0
LINE
  5
415F
  8
0-1
  6
CONTINUOUS
 62
     3
 10
10308.065772999969
 20
6617.9239179999977
 30
0.0
 11
10308.065772999969
 21
8478.9693009999955
 31
0.0
  0
LINE
  5
4160
  8
0-1
  6
CONTINUOUS
 62
     3
 10
10293.065970999971
 20
6617.9239179999977
 30
0.0
 11
10293.065970999971
 21
8478.9693009999955
 31
0.0
  0
LINE
  5
4161
  8
0-1
  6
CONTINUOUS
 62
     3
 10
10160.066075999979
 20
6617.9239179999977
 30
0.0
 11
10160.066075999979
 21
8478.9693009999955
 31
0.0
  0
LINE
  5
4162
  8
0-1
  6
CONTINUOUS
 62
     3
 10
10040.067659999981
 20
6617.9239179999977
 30
0.0
 11
10040.067659999981
 21
8478.9693009999955
 31
0.0
  0
LINE
  5
4163
  8
0-1
  6
CONTINUOUS
 62
     3
 10
10110.066405999991
 20
6617.9239179999977
 30
0.0
 11
10110.066405999991
 21
8478.9693009999955
 31
0.0
  0
LINE
  5
4164
  8
0-1
  6
CONTINUOUS
 62
     3
 10
10090.06633999999
 20
6617.9239179999977
 30
0.0
 11
10090.06633999999
 21
8478.9693009999955
 31
0.0
  0
LINE
  5
4165
  8
0-1
  6
CONTINUOUS
 62
     3
 10
9646.0669209999924
 20
6467.9239179999977
 30
0.0
 11
9646.0669209999924
 21
6567.9232579999998
 31
0.0
  0
LINE
  5
4166
  8
0-1
  6
CONTINUOUS
 62
     3
 10
15649.57807199998
 20
8785.4680609999978
 30
0.0
 11
15645.56459799999
 21
8915.4066299999977
 31
0.0
  0
LINE
  5
4167
  8
0-1
  6
CONTINUOUS
 62
     3
 10
12686.566789
 20
6617.9239179999977
 30
0.0
 11
15459.56705299999
 21
6617.9239179999977
 31
0.0
  0
LINE
  5
4168
  8
0-1
  6
CONTINUOUS
 62
     3
 10
12686.566789
 20
8478.9693009999955
 30
0.0
 11
12686.566789
 21
6567.9232579999998
 31
0.0
  0
LINE
  5
4169
  8
0-1
  6
CONTINUOUS
 62
     3
 10
12541.567053000001
 20
8478.9693009999955
 30
0.0
 11
12541.567053000001
 21
6567.9232579999998
 31
0.0
  0
LINE
  5
416A
  8
0-1
  6
CONTINUOUS
 62
     3
 10
12810.06697399999
 20
6617.9239179999977
 30
0.0
 11
12810.06697399999
 21
8478.9693009999955
 31
0.0
  0
LINE
  5
416B
  8
0-1
  6
CONTINUOUS
 62
     3
 10
12825.067766
 20
6617.9239179999977
 30
0.0
 11
12825.067766
 21
8478.9693009999955
 31
0.0
  0
LINE
  5
416C
  8
0-1
  6
CONTINUOUS
 62
     3
 10
12958.06667
 20
6617.9239179999977
 30
0.0
 11
12958.06667
 21
8478.9693009999955
 31
0.0
  0
LINE
  5
416D
  8
0-1
  6
CONTINUOUS
 62
     3
 10
13008.06832
 20
6617.9239179999977
 30
0.0
 11
13008.06832
 21
8478.9693009999955
 31
0.0
  0
LINE
  5
416E
  8
0-1
  6
CONTINUOUS
 62
     3
 10
13028.066405999991
 20
6617.9239179999977
 30
0.0
 11
13028.066405999991
 21
8478.9693009999955
 31
0.0
  0
LINE
  5
416F
  8
0-1
  6
CONTINUOUS
 62
     3
 10
12200.068426
 20
6617.9239179999977
 30
0.0
 11
12200.068426
 21
8478.9693009999955
 31
0.0
  0
LINE
  5
4170
  8
0-1
  6
CONTINUOUS
 62
     3
 10
12220.067501999991
 20
6617.9239179999977
 30
0.0
 11
12220.067501999991
 21
8478.9693009999955
 31
0.0
  0
LINE
  5
4171
  8
0-1
  6
CONTINUOUS
 62
     3
 10
12270.068162
 20
6617.9239179999977
 30
0.0
 11
12270.068162
 21
8478.9693009999955
 31
0.0
  0
LINE
  5
4172
  8
0-1
  6
CONTINUOUS
 62
     3
 10
12403.068056
 20
6617.9239179999977
 30
0.0
 11
12403.068056
 21
8478.9693009999955
 31
0.0
  0
LINE
  5
4173
  8
0-1
  6
CONTINUOUS
 62
     3
 10
12418.066867999991
 20
6617.9239179999977
 30
0.0
 11
12418.066867999991
 21
8478.9693009999955
 31
0.0
  0
LINE
  5
4174
  8
0-1
  6
CONTINUOUS
 62
     3
 10
12150.067766
 20
6617.9239179999977
 30
0.0
 11
12150.067766
 21
8478.9693009999955
 31
0.0
  0
LINE
  5
4175
  8
0-1
  6
CONTINUOUS
 62
     3
 10
12017.06787099999
 20
6617.9239179999977
 30
0.0
 11
12017.06787099999
 21
8478.9693009999955
 31
0.0
  0
LINE
  5
4176
  8
0-1
  6
CONTINUOUS
 62
     3
 10
12002.06707899998
 20
6617.9239179999977
 30
0.0
 11
12002.06707899998
 21
8478.9693009999955
 31
0.0
  0
LINE
  5
4177
  8
0-1
  6
CONTINUOUS
 62
     3
 10
10800.066775999991
 20
6617.9239179999977
 30
0.0
 11
10800.066775999991
 21
8478.9693009999955
 31
0.0
  0
LINE
  5
4178
  8
0-1
  6
CONTINUOUS
 62
     3
 10
10820.06882099999
 20
6617.9239179999977
 30
0.0
 11
10820.06882099999
 21
8478.9693009999955
 31
0.0
  0
LINE
  5
4179
  8
0-1
  6
CONTINUOUS
 62
     3
 10
10750.067106
 20
6617.9239179999977
 30
0.0
 11
10750.067106
 21
8478.9693009999955
 31
0.0
  0
LINE
  5
417A
  8
0-1
  6
CONTINUOUS
 62
     3
 10
10870.066511999999
 20
6617.9239179999977
 30
0.0
 11
10870.066511999999
 21
8478.9693009999955
 31
0.0
  0
LINE
  5
417B
  8
0-1
  6
CONTINUOUS
 62
     3
 10
11003.067395999989
 20
6617.9239179999977
 30
0.0
 11
11003.067395999989
 21
8478.9693009999955
 31
0.0
  0
LINE
  5
417C
  8
0-1
  6
CONTINUOUS
 62
     3
 10
11018.068187999999
 20
6617.9239179999977
 30
0.0
 11
11018.068187999999
 21
8478.9693009999955
 31
0.0
  0
LINE
  5
417D
  8
0-1
  6
CONTINUOUS
 62
     3
 10
10617.06622199999
 20
6617.9239179999977
 30
0.0
 11
10617.06622199999
 21
8478.9693009999955
 31
0.0
  0
LINE
  5
417E
  8
0-1
  6
CONTINUOUS
 62
     3
 10
10602.06740899999
 20
6617.9239179999977
 30
0.0
 11
10602.06740899999
 21
8478.9693009999955
 31
0.0
  0
LINE
  5
417F
  8
0-1
  6
CONTINUOUS
 62
     3
 10
11302.06675
 20
6617.9239179999977
 30
0.0
 11
11302.06675
 21
8478.9693009999955
 31
0.0
  0
LINE
  5
4180
  8
0-1
  6
CONTINUOUS
 62
     3
 10
11317.065561999991
 20
6617.9239179999977
 30
0.0
 11
11317.065561999991
 21
8478.9693009999955
 31
0.0
  0
LINE
  5
4181
  8
0-1
  6
CONTINUOUS
 62
     3
 10
11718.06752799999
 20
6617.9239179999977
 30
0.0
 11
11718.06752799999
 21
8478.9693009999955
 31
0.0
  0
LINE
  5
4182
  8
0-1
  6
CONTINUOUS
 62
     3
 10
11703.066735999981
 20
6617.9239179999977
 30
0.0
 11
11703.066735999981
 21
8478.9693009999955
 31
0.0
  0
LINE
  5
4183
  8
0-1
  6
CONTINUOUS
 62
     3
 10
11570.065851999991
 20
6617.9239179999977
 30
0.0
 11
11570.065851999991
 21
8478.9693009999955
 31
0.0
  0
LINE
  5
4184
  8
0-1
  6
CONTINUOUS
 62
     3
 10
11450.068425999991
 20
6617.9239179999977
 30
0.0
 11
11450.068425999991
 21
8478.9693009999955
 31
0.0
  0
LINE
  5
4185
  8
0-1
  6
CONTINUOUS
 62
     3
 10
11520.068162
 20
6617.9239179999977
 30
0.0
 11
11520.068162
 21
8478.9693009999955
 31
0.0
  0
LINE
  5
4186
  8
0-1
  6
CONTINUOUS
 62
     3
 10
11500.06809599999
 20
6617.9239179999977
 30
0.0
 11
11500.06809599999
 21
8478.9693009999955
 31
0.0
  0
LINE
  5
4187
  8
0-1
  6
CONTINUOUS
 62
     3
 10
11841.567713
 20
8478.9693009999955
 30
0.0
 11
11841.567713
 21
6617.9239179999977
 31
0.0
  0
LINE
  5
4188
  8
0-1
  6
CONTINUOUS
 62
     3
 10
11878.566894999991
 20
8478.9693009999955
 30
0.0
 11
11878.566894999991
 21
6617.9239179999977
 31
0.0
  0
LINE
  5
4189
  8
0-1
  6
CONTINUOUS
 62
     3
 10
10431.565956999981
 20
8478.9693009999955
 30
0.0
 11
10431.565956999981
 21
6617.9239179999977
 31
0.0
  0
LINE
  5
418A
  8
0-1
  6
CONTINUOUS
 62
     3
 10
10468.566128999981
 20
8478.9693009999955
 30
0.0
 11
10468.566128999981
 21
6617.9239179999977
 31
0.0
  0
LINE
  5
418B
  8
0-1
  6
CONTINUOUS
 62
     3
 10
11141.568373
 20
8478.9693009999955
 30
0.0
 11
11141.568373
 21
6617.9239179999977
 31
0.0
  0
LINE
  5
418C
  8
0-1
  6
CONTINUOUS
 62
     3
 10
11178.567555
 20
8478.9693009999955
 30
0.0
 11
11178.567555
 21
6617.9239179999977
 31
0.0
  0
LINE
  5
418D
  8
0-1
  6
CONTINUOUS
 62
     3
 10
12614.01545399998
 20
8692.0773429999954
 30
0.0
 11
12610.00296899999
 21
8822.0159119999971
 31
0.0
  0
LINE
  5
418E
  8
0-1
  6
CONTINUOUS
 62
     3
 10
12614.066920999991
 20
8692.0793229999981
 30
0.0
 11
12614.066920999991
 21
8478.9693009999955
 31
0.0
  0
LINE
  5
418F
  8
0-1
  6
CONTINUOUS
 62
     3
 10
15459.56705299999
 20
8478.9693009999955
 30
0.0
 11
15459.56705299999
 21
6567.9232579999998
 31
0.0
  0
LINE
  5
4190
  8
0-1
  6
CONTINUOUS
 62
     3
 10
15574.568173999991
 20
8783.1530139999977
 30
0.0
 11
15574.568173999991
 21
6567.9232579999998
 31
0.0
  0
LINE
  5
4191
  8
0-1
  6
CONTINUOUS
 62
     3
 10
15554.567118999979
 20
8782.5354040000002
 30
0.0
 11
15554.567118999979
 21
6567.9232579999998
 31
0.0
  0
LINE
  5
4192
  8
0-1
  6
CONTINUOUS
 62
     3
 10
14049.568267000001
 20
8478.9693009999955
 30
0.0
 11
14049.568267000001
 21
6617.9239179999977
 31
0.0
  0
LINE
  5
4193
  8
0-1
  6
CONTINUOUS
 62
     3
 10
14086.56843899999
 20
8478.9693009999955
 30
0.0
 11
14086.56843899999
 21
6617.9239179999977
 31
0.0
  0
LINE
  5
4194
  8
0-1
  6
CONTINUOUS
 62
     3
 10
14749.56760699999
 20
8478.9693009999955
 30
0.0
 11
14749.56760699999
 21
6617.9239179999977
 31
0.0
  0
LINE
  5
4195
  8
0-1
  6
CONTINUOUS
 62
     3
 10
14786.56678899999
 20
8478.9693009999955
 30
0.0
 11
14786.56678899999
 21
6617.9239179999977
 31
0.0
  0
LINE
  5
4196
  8
0-1
  6
CONTINUOUS
 62
     3
 10
13349.565957999999
 20
8478.9693009999955
 30
0.0
 11
13349.565957999999
 21
6617.9239179999977
 31
0.0
  0
LINE
  5
4197
  8
0-1
  6
CONTINUOUS
 62
     3
 10
13386.56711899999
 20
8478.9693009999955
 30
0.0
 11
13386.56711899999
 21
6617.9239179999977
 31
0.0
  0
LINE
  5
4198
  8
0-1
  6
CONTINUOUS
 62
     3
 10
13728.065747000001
 20
6617.9239179999977
 30
0.0
 11
13728.065747000001
 21
8478.9693009999955
 31
0.0
  0
LINE
  5
4199
  8
0-1
  6
CONTINUOUS
 62
     3
 10
13708.066669999989
 20
6617.9239179999977
 30
0.0
 11
13708.066669999989
 21
8478.9693009999955
 31
0.0
  0
LINE
  5
419A
  8
0-1
  6
CONTINUOUS
 62
     3
 10
13778.067395999989
 20
6617.9239179999977
 30
0.0
 11
13778.067395999989
 21
8478.9693009999955
 31
0.0
  0
LINE
  5
419B
  8
0-1
  6
CONTINUOUS
 62
     3
 10
13658.06799
 20
6617.9239179999977
 30
0.0
 11
13658.06799
 21
8478.9693009999955
 31
0.0
  0
LINE
  5
419C
  8
0-1
  6
CONTINUOUS
 62
     3
 10
13525.067106
 20
6617.9239179999977
 30
0.0
 11
13525.067106
 21
8478.9693009999955
 31
0.0
  0
LINE
  5
419D
  8
0-1
  6
CONTINUOUS
 62
     3
 10
13510.067303999989
 20
6617.9239179999977
 30
0.0
 11
13510.067303999989
 21
8478.9693009999955
 31
0.0
  0
LINE
  5
419E
  8
0-1
  6
CONTINUOUS
 62
     3
 10
13911.06828
 20
6617.9239179999977
 30
0.0
 11
13911.06828
 21
8478.9693009999955
 31
0.0
  0
LINE
  5
419F
  8
0-1
  6
CONTINUOUS
 62
     3
 10
13926.068081999991
 20
6617.9239179999977
 30
0.0
 11
13926.068081999991
 21
8478.9693009999955
 31
0.0
  0
LINE
  5
41A0
  8
0-1
  6
CONTINUOUS
 62
     3
 10
14626.06742299998
 20
6617.9239179999977
 30
0.0
 11
14626.06742299998
 21
8478.9693009999955
 31
0.0
  0
LINE
  5
41A1
  8
0-1
  6
CONTINUOUS
 62
     3
 10
14611.066630999991
 20
6617.9239179999977
 30
0.0
 11
14611.066630999991
 21
8478.9693009999955
 31
0.0
  0
LINE
  5
41A2
  8
0-1
  6
CONTINUOUS
 62
     3
 10
14210.066644
 20
6617.9239179999977
 30
0.0
 11
14210.066644
 21
8478.9693009999955
 31
0.0
  0
LINE
  5
41A3
  8
0-1
  6
CONTINUOUS
 62
     3
 10
14225.068425999991
 20
6617.9239179999977
 30
0.0
 11
14225.068425999991
 21
8478.9693009999955
 31
0.0
  0
LINE
  5
41A4
  8
0-1
  6
CONTINUOUS
 62
     3
 10
14358.06831999998
 20
6617.9239179999977
 30
0.0
 11
14358.06831999998
 21
8478.9693009999955
 31
0.0
  0
LINE
  5
41A5
  8
0-1
  6
CONTINUOUS
 62
     3
 10
14478.065747000001
 20
6617.9239179999977
 30
0.0
 11
14478.065747000001
 21
8478.9693009999955
 31
0.0
  0
LINE
  5
41A6
  8
0-1
  6
CONTINUOUS
 62
     3
 10
14408.06601099999
 20
6617.9239179999977
 30
0.0
 11
14408.06601099999
 21
8478.9693009999955
 31
0.0
  0
LINE
  5
41A7
  8
0-1
  6
CONTINUOUS
 62
     3
 10
14428.068056
 20
6617.9239179999977
 30
0.0
 11
14428.068056
 21
8478.9693009999955
 31
0.0
  0
LINE
  5
41A8
  8
0-1
  6
CONTINUOUS
 62
     3
 10
15128.067396
 20
6617.9239179999977
 30
0.0
 11
15128.067396
 21
8478.9693009999955
 31
0.0
  0
LINE
  5
41A9
  8
0-1
  6
CONTINUOUS
 62
     3
 10
15108.06831999998
 20
6617.9239179999977
 30
0.0
 11
15108.06831999998
 21
8478.9693009999955
 31
0.0
  0
LINE
  5
41AA
  8
0-1
  6
CONTINUOUS
 62
     3
 10
15178.06805599998
 20
6617.9239179999977
 30
0.0
 11
15178.06805599998
 21
8478.9693009999955
 31
0.0
  0
LINE
  5
41AB
  8
0-1
  6
CONTINUOUS
 62
     3
 10
15058.067660000001
 20
6617.9239179999977
 30
0.0
 11
15058.067660000001
 21
8478.9693009999955
 31
0.0
  0
LINE
  5
41AC
  8
0-1
  6
CONTINUOUS
 62
     3
 10
14925.067765999989
 20
6617.9239179999977
 30
0.0
 11
14925.067765999989
 21
8478.9693009999955
 31
0.0
  0
LINE
  5
41AD
  8
0-1
  6
CONTINUOUS
 62
     3
 10
14910.065984000001
 20
6617.9239179999977
 30
0.0
 11
14910.065984000001
 21
8478.9693009999955
 31
0.0
  0
LINE
  5
41AE
  8
0-1
  6
CONTINUOUS
 62
     3
 10
15321.068054999991
 20
6617.9239179999977
 30
0.0
 11
15321.068054999991
 21
8478.9693009999955
 31
0.0
  0
LINE
  5
41AF
  8
0-1
  6
CONTINUOUS
 62
     3
 10
15336.066867999991
 20
6617.9239179999977
 30
0.0
 11
15336.066867999991
 21
8478.9693009999955
 31
0.0
  0
LINE
  5
41B0
  8
0-1
  6
CONTINUOUS
 62
     3
 10
13226.065773
 20
6617.9239179999977
 30
0.0
 11
13226.065773
 21
8478.9693009999955
 31
0.0
  0
LINE
  5
41B1
  8
0-1
  6
CONTINUOUS
 62
     3
 10
13211.066961
 20
6617.9239179999977
 30
0.0
 11
13211.066961
 21
8478.9693009999955
 31
0.0
  0
LINE
  5
41B2
  8
0-1
  6
CONTINUOUS
 62
     3
 10
13078.06805599998
 20
6617.9239179999977
 30
0.0
 11
13078.06805599998
 21
8478.9693009999955
 31
0.0
  0
LINE
  5
41B3
  8
0-1
  6
CONTINUOUS
 62
     3
 10
15587.066920999991
 20
6567.9232579999998
 30
0.0
 11
15587.066920999991
 21
6467.9239179999977
 31
0.0
  0
LINE
  5
41B4
  8
0-1
  6
CONTINUOUS
 62
     3
 10
9476.0958879999871
 20
8643.5494449999951
 30
0.0
 11
9475.0487219999868
 21
8677.5348099999956
 31
0.0
  0
LINE
  5
41B5
  8
0-1
  6
CONTINUOUS
 62
     3
 10
9477.9546559999926
 20
8680.6248389999982
 30
0.0
 11
15658.94812299998
 21
8870.7981789999976
 31
0.0
  0
LINE
  5
41B6
  8
0-1
  6
CONTINUOUS
 62
     3
 10
15660.181362999991
 20
8830.8168519999981
 30
0.0
 11
9479.1878959999922
 21
8640.6435120000024
 31
0.0
  0
LINE
  5
41B7
  8
0-1
  6
CONTINUOUS
 62
     3
 10
9477.8012429999908
 20
8685.6231229999976
 30
0.0
 11
15658.79372099998
 21
8875.7954730000001
 31
0.0
  0
LINE
  5
41B8
  8
0-1
  6
CONTINUOUS
 62
     3
 10
15660.334775999991
 20
8825.818567999997
 30
0.0
 11
9479.3403189999863
 21
8635.6462179999962
 31
0.0
  0
LINE
  5
41B9
  8
0-1
  6
CONTINUOUS
 62
     3
 10
9476.4343849999877
 20
8632.5551990000004
 30
0.0
 11
9476.4343849999877
 21
8632.6205229999978
 31
0.0
  0
LINE
  5
41BA
  8
0-1
  6
CONTINUOUS
 62
     3
 10
9476.4343849999877
 20
8632.6205229999978
 30
0.0
 11
9477.4241449999918
 21
8600.5711280000032
 31
0.0
  0
LINE
  5
41BB
  8
0-1
  6
CONTINUOUS
 62
     3
 10
9482.5758419999911
 20
8595.7282360000008
 30
0.0
 11
15682.54200499999
 21
8786.4855330000028
 31
0.0
  0
LINE
  5
41BC
  8
0-1
  6
CONTINUOUS
 62
     3
 10
15678.53149999999
 20
8916.4250919999977
 30
0.0
 11
9478.5653369999909
 21
8725.6658149999967
 31
0.0
  0
LINE
  5
41BD
  8
0-1
  6
CONTINUOUS
 62
     3
 10
9473.7204649999876
 20
8720.5131280000005
 30
0.0
 11
9474.7092349999912
 21
8688.5290559999976
 31
0.0
  0
LINE
  5
41BE
  8
0-1
  6
CONTINUOUS
 62
     3
 10
9491.0600579999864
 20
8726.0508310000005
 30
0.0
 11
9495.0705629999884
 21
8596.1122620000006
 31
0.0
  0
LINE
  5
41BF
  8
0-5
  6
CONTINUOUS
 62
     4
 10
18457.442461999992
 20
6675.7694099999999
 30
0.0
 11
18577.438899000001
 21
6467.9239179999977
 31
0.0
  0
LINE
  5
41C0
  8
0-5
  6
CONTINUOUS
 62
     4
 10
15667.066196
 20
6467.9239179999977
 30
0.0
 11
20899.812579000001
 21
6467.9239179999977
 31
0.0
  0
LINE
  5
41C1
  8
0-5
  6
CONTINUOUS
 62
     4
 10
18577.438899000001
 20
6467.9239179999977
 30
0.0
 11
18697.439295
 21
6675.7694099999999
 31
0.0
  0
LINE
  5
41C2
  8
0-5
  6
CONTINUOUS
 62
     4
 10
18697.439295
 20
6675.7694099999999
 30
0.0
 11
18457.442461999992
 21
6675.7694099999999
 31
0.0
  0
LINE
  5
41C3
  8
2-0
  6
CENTER2
 62
     6
 10
9696.0669209999924
 20
6205.2705050000022
 30
0.0
 11
9696.0669209999924
 21
7262.4131029999999
 31
0.0
  0
LINE
  5
41C4
  8
2-0
  6
CENTER2
 62
     6
 10
12614.066920999991
 20
6205.2705050000022
 30
0.0
 11
12614.066920999991
 21
7262.4131029999999
 31
0.0
  0
LINE
  5
41C5
  8
2-0
  6
CENTER2
 62
     6
 10
15532.066920999991
 20
6205.2705050000022
 30
0.0
 11
15532.066920999991
 21
7262.4131029999999
 31
0.0
  0
ARC
  5
41C6
  8
0-1
  6
CONTINUOUS
 62
     3
 10
9480.7645819999907
 20
8638.1918779999978
 30
0.0
 40
2.5
 50
271.76798999988182
 51
91.767989999881877
  0
ARC
  5
41C7
  8
0-1
  6
CONTINUOUS
 62
     3
 10
9479.3769399999946
 20
8683.1695100000015
 30
0.0
 40
2.5
 50
271.76798999988182
 51
91.767989999881877
  0
ARC
  5
41C8
  8
0-1
  6
CONTINUOUS
 62
     3
 10
9478.0457129999886
 20
8677.6268579999978
 30
0.0
 40
3.0
 50
91.767989999881877
 51
181.7679900000058
  0
ARC
  5
41C9
  8
0-1
  6
CONTINUOUS
 62
     3
 10
15659.56474299999
 20
8850.8070199999984
 30
0.0
 40
20.0
 50
271.76798999988182
 51
91.767989999881877
  0
ARC
  5
41CA
  8
0-1
  6
CONTINUOUS
 62
     3
 10
9479.0958479999917
 20
8643.6434729999946
 30
0.0
 40
3.0
 50
181.7679900000058
 51
271.76798999988182
  0
ARC
  5
41CB
  8
0-1
  6
CONTINUOUS
 62
     3
 10
15659.56474299999
 20
8850.8070199999984
 30
0.0
 40
24.999998999999999
 50
271.76798999988182
 51
91.767989999881877
  0
ARC
  5
41CC
  8
0-1
  6
CONTINUOUS
 62
     3
 10
9479.4363249999915
 20
8632.6482369999976
 30
0.0
 40
3.0
 50
91.767989999881877
 51
181.7679900000058
  0
ARC
  5
41CD
  8
0-1
  6
CONTINUOUS
 62
     3
 10
9482.4214389999943
 20
8600.7255299999979
 30
0.0
 40
5.0
 50
181.7679900000058
 51
271.76798999988182
  0
ARC
  5
41CE
  8
0-1
  6
CONTINUOUS
 62
     3
 10
15654.567447999991
 20
8850.6526179999983
 30
0.0
 40
69.999999000000003
 50
293.5547790001263
 51
69.981200999909021
  0
ARC
  5
41CF
  8
0-1
  6
CONTINUOUS
 62
     3
 10
9478.7197399999877
 20
8720.6675300000006
 30
0.0
 40
5.0
 50
91.767989999881877
 51
181.7679900000058
  0
ARC
  5
41D0
  8
0-1
  6
CONTINUOUS
 62
     3
 10
9477.7062259999911
 20
8688.6211039999998
 30
0.0
 40
3.0
 50
181.7679900000058
 51
271.76798999988182
  0
TEXT
  5
41D1
  8
0-5
  6
CONTINUOUS
 62
     7
 10
18457.442461999992
 20
6755.7701679999973
 30
0.0
 40
160.0
  1
G.L
 72
     4
 11
18617.442461999992
 21
6835.7701679999982
 31
0.0
  0
TEXT
  5
41D2
  8
2-0
  6
CONTINUOUS
 62
     7
 10
11294.743520999989
 20
3506.7732069999979
 30
0.0
 40
160.0
  1
側 面 立 面 図
 72
     4
 11
11940.076854333331
 21
3586.7732069999979
 31
0.0
  0
TEXT
  5
41D3
  8
2-0
  6
CONTINUOUS
 62
     7
 10
13291.56903947094
 20
3533.9685759999988
 30
0.0
 40
160.0
  1
1
 72
     4
 11
13318.23570613761
 21
3613.9685759999988
 31
0.0
  0
TEXT
  5
41D4
  8
2-0
  6
CONTINUOUS
 62
     7
 10
13534.65775672165
 20
3453.9700439999988
 30
0.0
 40
160.0
  1
80
 72
     4
 11
13654.65775672165
 21
3533.9700439999988
 31
0.0
  0
TEXT
  5
41D5
  8
2-0
  6
CONTINUOUS
 62
     7
 10
12792.571005470951
 20
3506.7732069999979
 30
0.0
 40
160.0
  1
(S=  /   )
 72
     4
 11
13352.571005470951
 21
3586.7732069999979
 31
0.0
  0
TEXT
  5
41D6
  8
2-0
  6
CONTINUOUS
 62
     7
 10
21078.271616000009
 20
11601.604441999991
 30
0.0
 40
160.0
  1
平　面　図
 72
     4
 11
21531.604949333341
 21
11676.27110866666
 31
0.0
  0
TEXT
  5
41D7
  8
2-0
  6
CONTINUOUS
 62
     7
 10
22883.097134470969
 20
11623.46647766667
 30
0.0
 40
160.0
  1
1
 72
     4
 11
22909.76380113764
 21
11703.46647766667
 31
0.0
  0
TEXT
  5
41D8
  8
2-0
  6
CONTINUOUS
 62
     7
 10
23126.185851721671
 20
11543.467945666671
 30
0.0
 40
160.0
  1
80
 72
     4
 11
23246.185851721671
 21
11623.467945666671
 31
0.0
  0
TEXT
  5
41D9
  8
2-0
  6
CONTINUOUS
 62
     7
 10
22384.099100470969
 20
11596.27110866666
 30
0.0
 40
160.0
  1
(S=  /   )
 72
     4
 11
22944.099100470969
 21
11676.27110866666
 31
0.0
  0
LINE
  5
41DA
  8
2-0
  6
CONTINUOUS
 62
     6
 10
21914.154586000001
 20
13192.485129999999
 30
0.0
 11
22914.14798799995
 21
13192.485129999999
 31
0.0
  0
LINE
  5
41DB
  8
2-0
  6
CONTINUOUS
 62
     6
 10
23382.088365
 20
13662.905844000001
 30
0.0
 11
22914.14798799995
 21
13192.485129999999
 31
0.0
  0
LINE
  5
41DC
  8
2-0
  6
CONTINUOUS
 62
     6
 10
23343.448161999979
 20
16854.513491000002
 30
0.0
 11
23038.75274399999
 21
16958.16702200002
 31
0.0
  0
LINE
  5
41DD
  8
2-0
  6
CONTINUOUS
 62
     6
 10
23498.47020099996
 20
16364.89144700002
 30
0.0
 11
23038.75274399999
 21
16120.978136000011
 31
0.0
  0
LINE
  5
41DE
  8
2-0
  6
CONTINUOUS
 62
     6
 10
22118.749708999982
 20
16120.978136000011
 30
0.0
 11
23038.75274399999
 21
16120.978136000011
 31
0.0
  0
LINE
  5
41DF
  8
2-0
  6
CONTINUOUS
 62
     6
 10
21838.758681999989
 20
16958.16702200002
 30
0.0
 11
23038.75274399999
 21
16958.16702200002
 31
0.0
  0
LINE
  5
41E0
  8
2-0
  6
CONTINUOUS
 62
     6
 10
23414.647485999991
 20
13984.58948999998
 30
0.0
 11
23038.75274399999
 21
14165.533325
 31
0.0
  0
LINE
  5
41E1
  8
2-0
  6
CONTINUOUS
 62
     6
 10
22518.751027999991
 20
14165.533325
 30
0.0
 11
23038.75274399999
 21
14165.533325
 31
0.0
  0
LINE
  5
41E2
  8
2-0
  6
CONTINUOUS
 62
     4
 10
21029.813502000001
 20
19790.986780000021
 30
0.0
 11
21029.813502000001
 21
20520.983745000001
 31
0.0
  0
LINE
  5
41E3
  8
2-0
  6
CONTINUOUS
 62
     3
 10
23609.814161999991
 20
19601.984326000009
 30
0.0
 11
23609.814161999991
 21
19595.988364000012
 31
0.0
  0
LINE
  5
41E4
  8
2-0
  6
CONTINUOUS
 62
     3
 10
23609.814161999991
 20
19595.988364000012
 30
0.0
 11
23639.811785999991
 21
19595.988364000012
 31
0.0
  0
LINE
  5
41E5
  8
2-0
  6
CONTINUOUS
 62
     3
 10
23639.811785999991
 20
19625.987968000001
 30
0.0
 11
23558.809885999981
 21
19625.987968000001
 31
0.0
  0
LINE
  5
41E6
  8
2-0
  6
CONTINUOUS
 62
     3
 10
23609.814161999991
 20
19585.690908
 30
0.0
 11
23639.811785999991
 21
19585.690908
 31
0.0
  0
LINE
  5
41E7
  8
2-0
  6
CONTINUOUS
 62
     3
 10
23609.814161999991
 20
19603.692650000001
 30
0.0
 11
23609.814161999991
 21
19585.690908
 31
0.0
  0
LINE
  5
41E8
  8
2-0
  6
CONTINUOUS
 62
     3
 10
23634.811522
 20
19603.692650000001
 30
0.0
 11
23609.814161999991
 21
19603.692650000001
 31
0.0
  0
LINE
  5
41E9
  8
2-0
  6
CONTINUOUS
 62
     3
 10
23634.811522
 20
19598.68446800001
 30
0.0
 11
23634.811522
 21
19603.692650000001
 31
0.0
  0
LINE
  5
41EA
  8
2-0
  6
CONTINUOUS
 62
     3
 10
23627.809965
 20
19598.68446800001
 30
0.0
 11
23634.811522
 21
19598.68446800001
 31
0.0
  0
LINE
  5
41EB
  8
2-0
  6
CONTINUOUS
 62
     3
 10
23527.513696999991
 20
19698.984695000021
 30
0.0
 11
23527.513696999991
 21
19705.990211000011
 31
0.0
  0
LINE
  5
41EC
  8
2-0
  6
CONTINUOUS
 62
     3
 10
23527.513696999991
 20
19705.990211000011
 30
0.0
 11
23532.513960999961
 21
19705.990211000011
 31
0.0
  0
LINE
  5
41ED
  8
2-0
  6
CONTINUOUS
 62
     3
 10
23532.513960999961
 20
19705.990211000011
 30
0.0
 11
23532.513960999961
 21
19680.980973999998
 31
0.0
  0
LINE
  5
41EE
  8
2-0
  6
CONTINUOUS
 62
     3
 10
23532.513960999961
 20
19680.980973999998
 30
0.0
 11
23514.512218999971
 21
19680.980973999998
 31
0.0
  0
LINE
  5
41EF
  8
2-0
  6
CONTINUOUS
 62
     3
 10
23514.512218999971
 20
19680.980973999998
 30
0.0
 11
23514.512218999971
 21
19710.984537000011
 31
0.0
  0
LINE
  5
41F0
  8
2-0
  6
CONTINUOUS
 62
     3
 10
23524.80967499999
 20
19710.984537000011
 30
0.0
 11
23639.811785999991
 21
19710.984537000011
 31
0.0
  0
LINE
  5
41F1
  8
2-0
  6
CONTINUOUS
 62
     3
 10
23524.80967499999
 20
19680.980973999998
 30
0.0
 11
23524.80967499999
 21
19710.984537000011
 31
0.0
  0
LINE
  5
41F2
  8
2-0
  6
CONTINUOUS
 62
     3
 10
23530.811574999982
 20
19680.980973999998
 30
0.0
 11
23524.80967499999
 21
19680.980973999998
 31
0.0
  0
LINE
  5
41F3
  8
2-0
  6
CONTINUOUS
 62
     3
 10
23627.809965
 20
18894.887645499992
 30
0.0
 11
23634.811522
 21
18894.887645499992
 31
0.0
  0
LINE
  5
41F4
  8
2-0
  6
CONTINUOUS
 62
     3
 10
23634.811522
 20
18894.887645499992
 30
0.0
 11
23634.811522
 21
18899.887909500001
 31
0.0
  0
LINE
  5
41F5
  8
2-0
  6
CONTINUOUS
 62
     3
 10
23634.811522
 20
18899.887909500001
 30
0.0
 11
23609.814161999991
 21
18899.887909500001
 31
0.0
  0
LINE
  5
41F6
  8
2-0
  6
CONTINUOUS
 62
     3
 10
23609.814161999991
 20
18899.887909500001
 30
0.0
 11
23609.814161999991
 21
18881.892105499999
 31
0.0
  0
LINE
  5
41F7
  8
2-0
  6
CONTINUOUS
 62
     3
 10
23609.814161999991
 20
18881.892105499999
 30
0.0
 11
23639.811785999991
 21
18881.892105499999
 31
0.0
  0
LINE
  5
41F8
  8
2-0
  6
CONTINUOUS
 62
     3
 10
23609.814161999991
 20
18897.98361249996
 30
0.0
 11
23609.814161999991
 21
18891.985671499999
 31
0.0
  0
LINE
  5
41F9
  8
2-0
  6
CONTINUOUS
 62
     3
 10
23609.814161999991
 20
18891.985671499999
 30
0.0
 11
23639.811785999991
 21
18891.985671499999
 31
0.0
  0
LINE
  5
41FA
  8
2-0
  6
CONTINUOUS
 62
     3
 10
23639.811785999991
 20
18891.985671499999
 30
0.0
 11
23639.811785999991
 21
18928.986832499992
 31
0.0
  0
LINE
  5
41FB
  8
2-0
  6
CONTINUOUS
 62
     3
 10
23609.814161999991
 20
18928.986832499992
 30
0.0
 11
23639.811785999991
 21
18928.986832499992
 31
0.0
  0
LINE
  5
41FC
  8
2-0
  6
CONTINUOUS
 62
     3
 10
23609.814161999991
 20
18922.982952499991
 30
0.0
 11
23609.814161999991
 21
18928.986832499992
 31
0.0
  0
LINE
  5
41FD
  8
2-0
  6
CONTINUOUS
 62
     3
 10
23609.814161999991
 20
18939.082377499992
 30
0.0
 11
23639.811785999991
 21
18939.082377499992
 31
0.0
  0
LINE
  5
41FE
  8
2-0
  6
CONTINUOUS
 62
     3
 10
23609.814161999991
 20
18921.080635499999
 30
0.0
 11
23609.814161999991
 21
18939.082377499992
 31
0.0
  0
LINE
  5
41FF
  8
2-0
  6
CONTINUOUS
 62
     3
 10
23634.811522
 20
18921.080635499999
 30
0.0
 11
23609.814161999991
 21
18921.080635499999
 31
0.0
  0
LINE
  5
4200
  8
2-0
  6
CONTINUOUS
 62
     3
 10
23634.811522
 20
18926.080899500001
 30
0.0
 11
23634.811522
 21
18921.080635499999
 31
0.0
  0
LINE
  5
4201
  8
2-0
  6
CONTINUOUS
 62
     3
 10
23627.809965
 20
18926.080899500001
 30
0.0
 11
23634.811522
 21
18926.080899500001
 31
0.0
  0
LINE
  5
4202
  8
2-0
  6
CONTINUOUS
 62
     3
 10
23627.809965
 20
18193.886655999999
 30
0.0
 11
23634.811522
 21
18193.886655999999
 31
0.0
  0
LINE
  5
4203
  8
2-0
  6
CONTINUOUS
 62
     3
 10
23634.811522
 20
18193.886655999999
 30
0.0
 11
23634.811522
 21
18198.892857999999
 31
0.0
  0
LINE
  5
4204
  8
2-0
  6
CONTINUOUS
 62
     3
 10
23634.811522
 20
18198.892857999999
 30
0.0
 11
23609.814161999991
 21
18198.892857999999
 31
0.0
  0
LINE
  5
4205
  8
2-0
  6
CONTINUOUS
 62
     3
 10
23609.814161999991
 20
18198.892857999999
 30
0.0
 11
23609.814161999991
 21
18180.89111600001
 31
0.0
  0
LINE
  5
4206
  8
2-0
  6
CONTINUOUS
 62
     3
 10
23609.814161999991
 20
18180.89111600001
 30
0.0
 11
23639.811785999991
 21
18180.89111600001
 31
0.0
  0
LINE
  5
4207
  8
2-0
  6
CONTINUOUS
 62
     3
 10
23609.814161999991
 20
18196.982622999989
 30
0.0
 11
23609.814161999991
 21
18190.986660999999
 31
0.0
  0
LINE
  5
4208
  8
2-0
  6
CONTINUOUS
 62
     3
 10
23609.814161999991
 20
18190.986660999999
 30
0.0
 11
23639.811785999991
 21
18190.986660999999
 31
0.0
  0
LINE
  5
4209
  8
2-0
  6
CONTINUOUS
 62
     3
 10
23639.811785999991
 20
18190.986660999999
 30
0.0
 11
23639.811785999991
 21
18227.985842999991
 31
0.0
  0
LINE
  5
420A
  8
2-0
  6
CONTINUOUS
 62
     3
 10
23609.814161999991
 20
18227.985842999991
 30
0.0
 11
23639.811785999991
 21
18227.985842999991
 31
0.0
  0
LINE
  5
420B
  8
2-0
  6
CONTINUOUS
 62
     3
 10
23609.814161999991
 20
18221.989881000001
 30
0.0
 11
23609.814161999991
 21
18227.985842999991
 31
0.0
  0
LINE
  5
420C
  8
2-0
  6
CONTINUOUS
 62
     3
 10
23609.814161999991
 20
18238.08138800001
 30
0.0
 11
23639.811785999991
 21
18238.08138800001
 31
0.0
  0
LINE
  5
420D
  8
2-0
  6
CONTINUOUS
 62
     3
 10
23609.814161999991
 20
18220.079645999998
 30
0.0
 11
23609.814161999991
 21
18238.08138800001
 31
0.0
  0
LINE
  5
420E
  8
2-0
  6
CONTINUOUS
 62
     3
 10
23634.811522
 20
18220.079645999998
 30
0.0
 11
23609.814161999991
 21
18220.079645999998
 31
0.0
  0
LINE
  5
420F
  8
2-0
  6
CONTINUOUS
 62
     3
 10
23634.811522
 20
18225.085847999992
 30
0.0
 11
23634.811522
 21
18220.079645999998
 31
0.0
  0
LINE
  5
4210
  8
2-0
  6
CONTINUOUS
 62
     3
 10
23627.809965
 20
18225.085847999992
 30
0.0
 11
23634.811522
 21
18225.085847999992
 31
0.0
  0
LINE
  5
4211
  8
2-0
  6
CONTINUOUS
 62
     3
 10
23627.809965
 20
17524.07991
 30
0.0
 11
23634.811522
 21
17524.07991
 31
0.0
  0
LINE
  5
4212
  8
2-0
  6
CONTINUOUS
 62
     3
 10
23634.811522
 20
17524.07991
 30
0.0
 11
23634.811522
 21
17519.091522999999
 31
0.0
  0
LINE
  5
4213
  8
2-0
  6
CONTINUOUS
 62
     3
 10
23634.811522
 20
17519.091522999999
 30
0.0
 11
23609.814161999991
 21
17519.091522999999
 31
0.0
  0
LINE
  5
4214
  8
2-0
  6
CONTINUOUS
 62
     3
 10
23609.814161999991
 20
17519.091522999999
 30
0.0
 11
23609.814161999991
 21
17537.087326000001
 31
0.0
  0
LINE
  5
4215
  8
2-0
  6
CONTINUOUS
 62
     3
 10
23609.814161999991
 20
17537.087326000001
 30
0.0
 11
23639.811785999991
 21
17537.087326000001
 31
0.0
  0
LINE
  5
4216
  8
2-0
  6
CONTINUOUS
 62
     3
 10
23609.814161999991
 20
17520.989881000001
 30
0.0
 11
23609.814161999991
 21
17526.985842999999
 31
0.0
  0
LINE
  5
4217
  8
2-0
  6
CONTINUOUS
 62
     3
 10
23609.814161999991
 20
17526.985842999999
 30
0.0
 11
23639.811785999991
 21
17526.985842999999
 31
0.0
  0
LINE
  5
4218
  8
2-0
  6
CONTINUOUS
 62
     3
 10
23639.811785999991
 20
17526.985842999999
 30
0.0
 11
23639.811785999991
 21
17489.98666100001
 31
0.0
  0
LINE
  5
4219
  8
2-0
  6
CONTINUOUS
 62
     3
 10
23609.814161999991
 20
17489.98666100001
 30
0.0
 11
23639.811785999991
 21
17489.98666100001
 31
0.0
  0
LINE
  5
421A
  8
2-0
  6
CONTINUOUS
 62
     3
 10
23609.814161999991
 20
17495.988561999991
 30
0.0
 11
23609.814161999991
 21
17489.98666100001
 31
0.0
  0
LINE
  5
421B
  8
2-0
  6
CONTINUOUS
 62
     3
 10
23609.814161999991
 20
17479.897055000001
 30
0.0
 11
23639.811785999991
 21
17479.897055000001
 31
0.0
  0
LINE
  5
421C
  8
2-0
  6
CONTINUOUS
 62
     3
 10
23609.814161999991
 20
17497.892857999988
 30
0.0
 11
23609.814161999991
 21
17479.897055000001
 31
0.0
  0
LINE
  5
421D
  8
2-0
  6
CONTINUOUS
 62
     3
 10
23634.811522
 20
17497.892857999988
 30
0.0
 11
23609.814161999991
 21
17497.892857999988
 31
0.0
  0
LINE
  5
421E
  8
2-0
  6
CONTINUOUS
 62
     3
 10
23634.811522
 20
17492.892595000001
 30
0.0
 11
23634.811522
 21
17497.892857999988
 31
0.0
  0
LINE
  5
421F
  8
2-0
  6
CONTINUOUS
 62
     3
 10
23627.809965
 20
17492.892595000001
 30
0.0
 11
23634.811522
 21
17492.892595000001
 31
0.0
  0
LINE
  5
4220
  8
2-0
  6
CONTINUOUS
 62
     3
 10
23636.925648
 20
16772.983480999999
 30
0.0
 11
23636.925648
 21
16792.984536
 31
0.0
  0
LINE
  5
4221
  8
2-0
  6
CONTINUOUS
 62
     3
 10
23636.925648
 20
16792.984536
 30
0.0
 11
23551.92907899999
 21
16792.984536
 31
0.0
  0
LINE
  5
4222
  8
2-0
  6
CONTINUOUS
 62
     3
 10
23627.809965
 20
16819.591246
 30
0.0
 11
23634.811522
 21
16819.591246
 31
0.0
  0
LINE
  5
4223
  8
2-0
  6
CONTINUOUS
 62
     3
 10
23634.811522
 20
16819.591246
 30
0.0
 11
23634.811522
 21
16814.596920000011
 31
0.0
  0
LINE
  5
4224
  8
2-0
  6
CONTINUOUS
 62
     3
 10
23634.811522
 20
16814.596920000011
 30
0.0
 11
23609.814161999991
 21
16814.596920000011
 31
0.0
  0
LINE
  5
4225
  8
2-0
  6
CONTINUOUS
 62
     3
 10
23609.814161999991
 20
16814.596920000011
 30
0.0
 11
23609.814161999991
 21
16832.592723999991
 31
0.0
  0
LINE
  5
4226
  8
2-0
  6
CONTINUOUS
 62
     3
 10
23609.814161999991
 20
16832.592723999991
 30
0.0
 11
23639.811785999991
 21
16832.592723999991
 31
0.0
  0
LINE
  5
4227
  8
2-0
  6
CONTINUOUS
 62
     3
 10
23609.814161999991
 20
16822.98413999999
 30
0.0
 11
23609.814161999991
 21
16816.982240000001
 31
0.0
  0
LINE
  5
4228
  8
2-0
  6
CONTINUOUS
 62
     3
 10
23639.811785999991
 20
16822.98413999999
 30
0.0
 11
23609.814161999991
 21
16822.98413999999
 31
0.0
  0
LINE
  5
4229
  8
2-0
  6
CONTINUOUS
 62
     3
 10
23639.811785999991
 20
16832.592723999991
 30
0.0
 11
23639.811785999991
 21
17479.897055000001
 31
0.0
  0
LINE
  5
422A
  8
2-0
  6
CONTINUOUS
 62
     3
 10
23639.811785999991
 20
17537.087326000001
 30
0.0
 11
23639.811785999991
 21
18180.89111600001
 31
0.0
  0
LINE
  5
422B
  8
2-0
  6
CONTINUOUS
 62
     3
 10
23639.811785999991
 20
16677.982424999991
 30
0.0
 11
23609.814161999991
 21
16677.982424999991
 31
0.0
  0
LINE
  5
422C
  8
2-0
  6
CONTINUOUS
 62
     3
 10
23609.814161999991
 20
16677.982424999991
 30
0.0
 11
23609.814161999991
 21
16683.984325000001
 31
0.0
  0
LINE
  5
422D
  8
2-0
  6
CONTINUOUS
 62
     3
 10
23551.92907899999
 20
16707.987968000001
 30
0.0
 11
23636.925648
 21
16707.987968000001
 31
0.0
  0
LINE
  5
422E
  8
2-0
  6
CONTINUOUS
 62
     3
 10
23636.925648
 20
16707.987968000001
 30
0.0
 11
23636.925648
 21
16727.983085000011
 31
0.0
  0
LINE
  5
422F
  8
2-0
  6
CONTINUOUS
 62
     3
 10
23609.814161999991
 20
16668.373842000012
 30
0.0
 11
23639.811785999991
 21
16668.373842000012
 31
0.0
  0
LINE
  5
4230
  8
2-0
  6
CONTINUOUS
 62
     3
 10
23609.814161999991
 20
16686.369644999992
 30
0.0
 11
23609.814161999991
 21
16668.373842000012
 31
0.0
  0
LINE
  5
4231
  8
2-0
  6
CONTINUOUS
 62
     3
 10
23634.811522
 20
16686.369644999992
 30
0.0
 11
23609.814161999991
 21
16686.369644999992
 31
0.0
  0
LINE
  5
4232
  8
2-0
  6
CONTINUOUS
 62
     3
 10
23634.811522
 20
16681.369381000011
 30
0.0
 11
23634.811522
 21
16686.369644999992
 31
0.0
  0
LINE
  5
4233
  8
2-0
  6
CONTINUOUS
 62
     3
 10
23627.809965
 20
16681.369381000011
 30
0.0
 11
23634.811522
 21
16681.369381000011
 31
0.0
  0
LINE
  5
4234
  8
2-0
  6
CONTINUOUS
 62
     3
 10
23627.809965
 20
15976.887150499981
 30
0.0
 11
23634.811522
 21
15976.887150499981
 31
0.0
  0
LINE
  5
4235
  8
2-0
  6
CONTINUOUS
 62
     3
 10
23634.811522
 20
15976.887150499981
 30
0.0
 11
23634.811522
 21
15981.88741449999
 31
0.0
  0
LINE
  5
4236
  8
2-0
  6
CONTINUOUS
 62
     3
 10
23634.811522
 20
15981.88741449999
 30
0.0
 11
23609.814161999991
 21
15981.88741449999
 31
0.0
  0
LINE
  5
4237
  8
2-0
  6
CONTINUOUS
 62
     3
 10
23609.814161999991
 20
15981.88741449999
 30
0.0
 11
23609.814161999991
 21
15963.885672500001
 31
0.0
  0
LINE
  5
4238
  8
2-0
  6
CONTINUOUS
 62
     3
 10
23609.814161999991
 20
15963.885672500001
 30
0.0
 11
23639.811785999991
 21
15963.885672500001
 31
0.0
  0
LINE
  5
4239
  8
2-0
  6
CONTINUOUS
 62
     3
 10
23609.814161999991
 20
15979.9831175
 30
0.0
 11
23609.814161999991
 21
15973.986166500001
 31
0.0
  0
LINE
  5
423A
  8
2-0
  6
CONTINUOUS
 62
     3
 10
23609.814161999991
 20
15973.986166500001
 30
0.0
 11
23639.811785999991
 21
15973.986166500001
 31
0.0
  0
LINE
  5
423B
  8
2-0
  6
CONTINUOUS
 62
     3
 10
23639.811785999991
 20
15973.986166500001
 30
0.0
 11
23639.811785999991
 21
16010.9863375
 31
0.0
  0
LINE
  5
423C
  8
2-0
  6
CONTINUOUS
 62
     3
 10
23609.814161999991
 20
16010.9863375
 30
0.0
 11
23639.811785999991
 21
16010.9863375
 31
0.0
  0
LINE
  5
423D
  8
2-0
  6
CONTINUOUS
 62
     3
 10
23609.814161999991
 20
16004.983447500001
 30
0.0
 11
23609.814161999991
 21
16010.9863375
 31
0.0
  0
LINE
  5
423E
  8
2-0
  6
CONTINUOUS
 62
     3
 10
23609.814161999991
 20
16021.081882500001
 30
0.0
 11
23639.811785999991
 21
16021.081882500001
 31
0.0
  0
LINE
  5
423F
  8
2-0
  6
CONTINUOUS
 62
     3
 10
23609.814161999991
 20
16003.074201499991
 30
0.0
 11
23609.814161999991
 21
16021.081882500001
 31
0.0
  0
LINE
  5
4240
  8
2-0
  6
CONTINUOUS
 62
     3
 10
23634.811522
 20
16003.074201499991
 30
0.0
 11
23609.814161999991
 21
16003.074201499991
 31
0.0
  0
LINE
  5
4241
  8
2-0
  6
CONTINUOUS
 62
     3
 10
23634.811522
 20
16008.0804045
 30
0.0
 11
23634.811522
 21
16003.074201499991
 31
0.0
  0
LINE
  5
4242
  8
2-0
  6
CONTINUOUS
 62
     3
 10
23627.809965
 20
16008.0804045
 30
0.0
 11
23634.811522
 21
16008.0804045
 31
0.0
  0
LINE
  5
4243
  8
2-0
  6
CONTINUOUS
 62
     3
 10
23627.809965
 20
15307.320421
 30
0.0
 11
23634.811522
 21
15307.320421
 31
0.0
  0
LINE
  5
4244
  8
2-0
  6
CONTINUOUS
 62
     3
 10
23634.811522
 20
15307.320421
 30
0.0
 11
23634.811522
 21
15302.326096000001
 31
0.0
  0
LINE
  5
4245
  8
2-0
  6
CONTINUOUS
 62
     3
 10
23634.811522
 20
15302.326096000001
 30
0.0
 11
23609.814161999991
 21
15302.326096000001
 31
0.0
  0
LINE
  5
4246
  8
2-0
  6
CONTINUOUS
 62
     3
 10
23609.814161999991
 20
15302.326096000001
 30
0.0
 11
23609.814161999991
 21
15320.32189900001
 31
0.0
  0
LINE
  5
4247
  8
2-0
  6
CONTINUOUS
 62
     3
 10
23609.814161999991
 20
15320.32189900001
 30
0.0
 11
23639.811785999991
 21
15320.32189900001
 31
0.0
  0
LINE
  5
4248
  8
2-0
  6
CONTINUOUS
 62
     3
 10
23609.814161999991
 20
15304.22445400001
 30
0.0
 11
23609.814161999991
 21
15310.226354
 31
0.0
  0
LINE
  5
4249
  8
2-0
  6
CONTINUOUS
 62
     3
 10
23609.814161999991
 20
15310.226354
 30
0.0
 11
23639.811785999991
 21
15310.226354
 31
0.0
  0
LINE
  5
424A
  8
2-0
  6
CONTINUOUS
 62
     3
 10
23639.811785999991
 20
15273.22717300001
 30
0.0
 11
23639.811785999991
 21
15310.226354
 31
0.0
  0
LINE
  5
424B
  8
2-0
  6
CONTINUOUS
 62
     3
 10
23609.814161999991
 20
15273.22717300001
 30
0.0
 11
23639.811785999991
 21
15273.22717300001
 31
0.0
  0
LINE
  5
424C
  8
2-0
  6
CONTINUOUS
 62
     3
 10
23609.814161999991
 20
15279.224124
 30
0.0
 11
23609.814161999991
 21
15273.22717300001
 31
0.0
  0
LINE
  5
424D
  8
2-0
  6
CONTINUOUS
 62
     3
 10
23609.814161999991
 20
15263.12568899999
 30
0.0
 11
23639.811785999991
 21
15263.12568899999
 31
0.0
  0
LINE
  5
424E
  8
2-0
  6
CONTINUOUS
 62
     3
 10
23609.814161999991
 20
15281.13336999999
 30
0.0
 11
23609.814161999991
 21
15263.12568899999
 31
0.0
  0
LINE
  5
424F
  8
2-0
  6
CONTINUOUS
 62
     3
 10
23634.811522
 20
15281.13336999999
 30
0.0
 11
23609.814161999991
 21
15281.13336999999
 31
0.0
  0
LINE
  5
4250
  8
2-0
  6
CONTINUOUS
 62
     3
 10
23634.811522
 20
15276.133106000019
 30
0.0
 11
23634.811522
 21
15281.13336999999
 31
0.0
  0
LINE
  5
4251
  8
2-0
  6
CONTINUOUS
 62
     3
 10
23627.809965
 20
15276.133106000019
 30
0.0
 11
23634.811522
 21
15276.133106000019
 31
0.0
  0
LINE
  5
4252
  8
2-0
  6
CONTINUOUS
 62
     3
 10
23639.811785999991
 20
16668.373842000012
 30
0.0
 11
23639.811785999991
 21
16021.081882500001
 31
0.0
  0
LINE
  5
4253
  8
2-0
  6
CONTINUOUS
 62
     3
 10
23639.811785999991
 20
16822.98413999999
 30
0.0
 11
23639.811785999991
 21
16677.982424999991
 31
0.0
  0
LINE
  5
4254
  8
2-0
  6
CONTINUOUS
 62
     3
 10
23551.92907899999
 20
16792.984536
 30
0.0
 11
23551.92907899999
 21
16707.987968000001
 31
0.0
  0
LINE
  5
4255
  8
2-0
  6
CONTINUOUS
 62
     6
 10
22013.720411999991
 20
18561.431801499992
 30
0.0
 11
23038.75274399999
 21
18561.431801499992
 31
0.0
  0
LINE
  5
4256
  8
2-0
  6
CONTINUOUS
 62
     3
 10
23627.809965
 20
14574.892099000001
 30
0.0
 11
23634.811522
 21
14574.892099000001
 31
0.0
  0
LINE
  5
4257
  8
2-0
  6
CONTINUOUS
 62
     3
 10
23634.811522
 20
14574.892099000001
 30
0.0
 11
23634.811522
 21
14579.886425000001
 31
0.0
  0
LINE
  5
4258
  8
2-0
  6
CONTINUOUS
 62
     3
 10
23634.811522
 20
14579.886425000001
 30
0.0
 11
23609.814161999991
 21
14579.886425000001
 31
0.0
  0
LINE
  5
4259
  8
2-0
  6
CONTINUOUS
 62
     3
 10
23609.814161999991
 20
14579.886425000001
 30
0.0
 11
23609.814161999991
 21
14561.890621
 31
0.0
  0
LINE
  5
425A
  8
2-0
  6
CONTINUOUS
 62
     3
 10
23609.814161999991
 20
14561.890621
 30
0.0
 11
23639.811785999991
 21
14561.890621
 31
0.0
  0
LINE
  5
425B
  8
2-0
  6
CONTINUOUS
 62
     3
 10
23609.814161999991
 20
14577.989056
 30
0.0
 11
23609.814161999991
 21
14571.98616600001
 31
0.0
  0
LINE
  5
425C
  8
2-0
  6
CONTINUOUS
 62
     3
 10
23609.814161999991
 20
14571.98616600001
 30
0.0
 11
23639.811785999991
 21
14571.98616600001
 31
0.0
  0
LINE
  5
425D
  8
2-0
  6
CONTINUOUS
 62
     3
 10
23639.811785999991
 20
14571.98616600001
 30
0.0
 11
23639.811785999991
 21
14608.986337999981
 31
0.0
  0
LINE
  5
425E
  8
2-0
  6
CONTINUOUS
 62
     3
 10
23609.814161999991
 20
14608.986337999981
 30
0.0
 11
23639.811785999991
 21
14608.986337999981
 31
0.0
  0
LINE
  5
425F
  8
2-0
  6
CONTINUOUS
 62
     3
 10
23609.814161999991
 20
14602.98938599999
 30
0.0
 11
23609.814161999991
 21
14608.986337999981
 31
0.0
  0
LINE
  5
4260
  8
2-0
  6
CONTINUOUS
 62
     3
 10
23609.814161999991
 20
14619.086831000001
 30
0.0
 11
23639.811785999991
 21
14619.086831000001
 31
0.0
  0
LINE
  5
4261
  8
2-0
  6
CONTINUOUS
 62
     3
 10
23609.814161999991
 20
14601.08014
 30
0.0
 11
23609.814161999991
 21
14619.086831000001
 31
0.0
  0
LINE
  5
4262
  8
2-0
  6
CONTINUOUS
 62
     3
 10
23634.811522
 20
14601.08014
 30
0.0
 11
23609.814161999991
 21
14601.08014
 31
0.0
  0
LINE
  5
4263
  8
2-0
  6
CONTINUOUS
 62
     3
 10
23634.811522
 20
14606.085353
 30
0.0
 11
23634.811522
 21
14601.08014
 31
0.0
  0
LINE
  5
4264
  8
2-0
  6
CONTINUOUS
 62
     3
 10
23627.809965
 20
14606.085353
 30
0.0
 11
23634.811522
 21
14606.085353
 31
0.0
  0
LINE
  5
4265
  8
2-0
  6
CONTINUOUS
 62
     3
 10
23609.814161999991
 20
13898.988179
 30
0.0
 11
23609.814161999991
 21
13904.993047999989
 31
0.0
  0
LINE
  5
4266
  8
2-0
  6
CONTINUOUS
 62
     3
 10
23609.814161999991
 20
13904.993047999989
 30
0.0
 11
23639.811785999991
 21
13904.993047999989
 31
0.0
  0
LINE
  5
4267
  8
2-0
  6
CONTINUOUS
 62
     3
 10
23639.811785999991
 20
13904.993047999989
 30
0.0
 11
23639.811785999991
 21
13789.988957
 31
0.0
  0
LINE
  5
4268
  8
2-0
  6
CONTINUOUS
 62
     3
 10
23639.811785999991
 20
13789.988957
 30
0.0
 11
23554.813237999992
 21
13789.988957
 31
0.0
  0
LINE
  5
4269
  8
2-0
  6
CONTINUOUS
 62
     3
 10
23554.813237999992
 20
13789.988957
 30
0.0
 11
23554.813237999992
 21
13874.984536
 31
0.0
  0
LINE
  5
426A
  8
2-0
  6
CONTINUOUS
 62
     3
 10
23554.813237999992
 20
13874.984536
 30
0.0
 11
23586.812155999982
 21
13874.984536
 31
0.0
  0
LINE
  5
426B
  8
2-0
  6
CONTINUOUS
 62
     3
 10
23627.809965
 20
13902.022781
 30
0.0
 11
23634.811522
 21
13902.022781
 31
0.0
  0
LINE
  5
426C
  8
2-0
  6
CONTINUOUS
 62
     3
 10
23634.811522
 20
13902.022781
 30
0.0
 11
23634.811522
 21
13897.02548599998
 31
0.0
  0
LINE
  5
426D
  8
2-0
  6
CONTINUOUS
 62
     3
 10
23634.811522
 20
13897.02548599998
 30
0.0
 11
23609.814161999991
 21
13897.02548599998
 31
0.0
  0
LINE
  5
426E
  8
2-0
  6
CONTINUOUS
 62
     3
 10
23609.814161999991
 20
13897.02548599998
 30
0.0
 11
23609.814161999991
 21
13915.024258999991
 31
0.0
  0
LINE
  5
426F
  8
2-0
  6
CONTINUOUS
 62
     3
 10
23609.814161999991
 20
13915.024258999991
 30
0.0
 11
23639.811785999991
 21
13915.024258999991
 31
0.0
  0
LINE
  5
4270
  8
2-0
  6
CENTER2
 62
     6
 10
23597.313502000001
 20
13592.49139899999
 30
0.0
 11
23597.313502000001
 21
14748.360157000019
 31
0.0
  0
LINE
  5
4271
  8
2-0
  6
CONTINUOUS
 62
     3
 10
23639.811785999991
 20
18238.08138800001
 30
0.0
 11
23639.811785999991
 21
18881.892105499999
 31
0.0
  0
LINE
  5
4272
  8
2-0
  6
CONTINUOUS
 62
     6
 10
24332.316668999982
 20
20440.987440000012
 30
0.0
 11
25532.310730999961
 21
20440.987440000012
 31
0.0
  0
LINE
  5
4273
  8
2-0
  6
CONTINUOUS
 62
     6
 10
23470.283835999981
 20
18803.586309499991
 30
0.0
 11
23038.75274399999
 21
18561.431801499992
 31
0.0
  0
LINE
  5
4274
  8
2-0
  6
CONTINUOUS
 62
     6
 10
23791.85266999996
 20
19853.664277000022
 30
0.0
 11
24332.316668999982
 21
20440.987440000012
 31
0.0
  0
LINE
  5
4275
  8
2-0
  6
CONTINUOUS
 62
     3
 10
23639.811785999991
 20
15963.885672500001
 30
0.0
 11
23639.811785999991
 21
15320.32189900001
 31
0.0
  0
LINE
  5
4276
  8
2-0
  6
CONTINUOUS
 62
     6
 10
23457.22693099999
 20
18826.84565349999
 30
0.0
 11
23609.814161999991
 21
18881.892105499999
 31
0.0
  0
LINE
  5
4277
  8
2-0
  6
CONTINUOUS
 62
     6
 10
23609.814161999991
 20
18881.892105499999
 30
0.0
 11
23483.332821999989
 21
18780.332905499981
 31
0.0
  0
LINE
  5
4278
  8
2-0
  6
CONTINUOUS
 62
     6
 10
23457.22693099999
 20
18826.84565349999
 30
0.0
 11
23483.332821999989
 21
18780.332905499981
 31
0.0
  0
LINE
  5
4279
  8
2-0
  6
CONTINUOUS
 62
     6
 10
23483.332821999989
 20
18780.332905499981
 30
0.0
 11
23609.814161999991
 21
18881.892105499999
 31
0.0
  0
LINE
  5
427A
  8
2-0
  6
CONTINUOUS
 62
     6
 10
23609.814161999991
 20
18881.892105499999
 30
0.0
 11
23457.22693099999
 21
18826.84565349999
 31
0.0
  0
LINE
  5
427B
  8
2-0
  6
CONTINUOUS
 62
     6
 10
23457.22693099999
 20
18826.84565349999
 30
0.0
 11
23609.814161999991
 21
18881.892105499999
 31
0.0
  0
LINE
  5
427C
  8
2-0
  6
CONTINUOUS
 62
     6
 10
23483.332821999989
 20
18780.332905499981
 30
0.0
 11
23609.814161999991
 21
18881.892105499999
 31
0.0
  0
LINE
  5
427D
  8
2-0
  6
CONTINUOUS
 62
     6
 10
23483.332821999989
 20
18780.332905499981
 30
0.0
 11
23457.22693099999
 21
18826.84565349999
 31
0.0
  0
LINE
  5
427E
  8
2-0
  6
CONTINUOUS
 62
     6
 10
23811.46969899999
 20
19835.603150000021
 30
0.0
 11
23683.507678999991
 21
19735.920532000011
 31
0.0
  0
LINE
  5
427F
  8
2-0
  6
CONTINUOUS
 62
     6
 10
23683.507678999991
 20
19735.920532000011
 30
0.0
 11
23772.221783999979
 21
19871.717487000009
 31
0.0
  0
LINE
  5
4280
  8
2-0
  6
CONTINUOUS
 62
     6
 10
23811.46969899999
 20
19835.603150000021
 30
0.0
 11
23772.221783999979
 21
19871.717487000009
 31
0.0
  0
LINE
  5
4281
  8
2-0
  6
CONTINUOUS
 62
     6
 10
23772.221783999979
 20
19871.717487000009
 30
0.0
 11
23683.507678999991
 21
19735.920532000011
 31
0.0
  0
LINE
  5
4282
  8
2-0
  6
CONTINUOUS
 62
     6
 10
23683.507678999991
 20
19735.920532000011
 30
0.0
 11
23811.46969899999
 21
19835.603150000021
 31
0.0
  0
LINE
  5
4283
  8
2-0
  6
CONTINUOUS
 62
     6
 10
23811.46969899999
 20
19835.603150000021
 30
0.0
 11
23683.507678999991
 21
19735.920532000011
 31
0.0
  0
LINE
  5
4284
  8
2-0
  6
CONTINUOUS
 62
     6
 10
23772.221783999979
 20
19871.717487000009
 30
0.0
 11
23683.507678999991
 21
19735.920532000011
 31
0.0
  0
LINE
  5
4285
  8
2-0
  6
CONTINUOUS
 62
     6
 10
23772.221783999979
 20
19871.717487000009
 30
0.0
 11
23811.46969899999
 21
19835.603150000021
 31
0.0
  0
LINE
  5
4286
  8
2-0
  6
CONTINUOUS
 62
     4
 10
21029.813502000001
 20
19790.986780000021
 30
0.0
 11
21029.813502000001
 21
20520.983745000001
 31
0.0
  0
LINE
  5
4287
  8
2-0
  6
CONTINUOUS
 62
     6
 10
23363.174064999988
 20
13681.716218999991
 30
0.0
 11
23494.920923999991
 21
13776.343145999999
 31
0.0
  0
LINE
  5
4288
  8
2-0
  6
CONTINUOUS
 62
     6
 10
23494.920923999991
 20
13776.343145999999
 30
0.0
 11
23400.990787999988
 21
13644.10437599999
 31
0.0
  0
LINE
  5
4289
  8
2-0
  6
CONTINUOUS
 62
     6
 10
23363.174064999988
 20
13681.716218999991
 30
0.0
 11
23400.990787999988
 21
13644.10437599999
 31
0.0
  0
LINE
  5
428A
  8
2-0
  6
CONTINUOUS
 62
     6
 10
23400.990787999988
 20
13644.10437599999
 30
0.0
 11
23494.920923999991
 21
13776.343145999999
 31
0.0
  0
LINE
  5
428B
  8
2-0
  6
CONTINUOUS
 62
     6
 10
23494.920923999991
 20
13776.343145999999
 30
0.0
 11
23363.174064999988
 21
13681.716218999991
 31
0.0
  0
LINE
  5
428C
  8
2-0
  6
CONTINUOUS
 62
     6
 10
23363.174064999988
 20
13681.716218999991
 30
0.0
 11
23494.920923999991
 21
13776.343145999999
 31
0.0
  0
LINE
  5
428D
  8
2-0
  6
CONTINUOUS
 62
     6
 10
23400.990787999988
 20
13644.10437599999
 30
0.0
 11
23494.920923999991
 21
13776.343145999999
 31
0.0
  0
LINE
  5
428E
  8
2-0
  6
CONTINUOUS
 62
     6
 10
23400.990787999988
 20
13644.10437599999
 30
0.0
 11
23363.174064999988
 21
13681.716218999991
 31
0.0
  0
LINE
  5
428F
  8
2-0
  6
CONTINUOUS
 62
     6
 10
23426.20985399999
 20
14008.620845999991
 30
0.0
 11
23558.809885999981
 21
13915.192517999991
 31
0.0
  0
LINE
  5
4290
  8
2-0
  6
CONTINUOUS
 62
     6
 10
23558.809885999981
 20
13915.192517999991
 30
0.0
 11
23403.077199999982
 21
13960.568031999999
 31
0.0
  0
LINE
  5
4291
  8
2-0
  6
CONTINUOUS
 62
     6
 10
23426.20985399999
 20
14008.620845999991
 30
0.0
 11
23403.077199999982
 21
13960.568031999999
 31
0.0
  0
LINE
  5
4292
  8
2-0
  6
CONTINUOUS
 62
     6
 10
23403.077199999982
 20
13960.568031999999
 30
0.0
 11
23558.809885999981
 21
13915.192517999991
 31
0.0
  0
LINE
  5
4293
  8
2-0
  6
CONTINUOUS
 62
     6
 10
23558.809885999981
 20
13915.192517999991
 30
0.0
 11
23426.20985399999
 21
14008.620845999991
 31
0.0
  0
LINE
  5
4294
  8
2-0
  6
CONTINUOUS
 62
     6
 10
23426.20985399999
 20
14008.620845999991
 30
0.0
 11
23558.809885999981
 21
13915.192517999991
 31
0.0
  0
LINE
  5
4295
  8
2-0
  6
CONTINUOUS
 62
     6
 10
23403.077199999982
 20
13960.568031999999
 30
0.0
 11
23558.809885999981
 21
13915.192517999991
 31
0.0
  0
LINE
  5
4296
  8
2-0
  6
CONTINUOUS
 62
     6
 10
23403.077199999982
 20
13960.568031999999
 30
0.0
 11
23426.20985399999
 21
14008.620845999991
 31
0.0
  0
LINE
  5
4297
  8
2-0
  6
CONTINUOUS
 62
     6
 10
23485.973499999989
 20
16388.441779000019
 30
0.0
 11
23639.811785999991
 21
16439.875610000021
 31
0.0
  0
LINE
  5
4298
  8
2-0
  6
CONTINUOUS
 62
     6
 10
23639.811785999991
 20
16439.875610000021
 30
0.0
 11
23510.97679899996
 21
16341.33517500002
 31
0.0
  0
LINE
  5
4299
  8
2-0
  6
CONTINUOUS
 62
     6
 10
23485.973499999989
 20
16388.441779000019
 30
0.0
 11
23510.97679899996
 21
16341.33517500002
 31
0.0
  0
LINE
  5
429A
  8
2-0
  6
CONTINUOUS
 62
     6
 10
23510.97679899996
 20
16341.33517500002
 30
0.0
 11
23639.811785999991
 21
16439.875610000021
 31
0.0
  0
LINE
  5
429B
  8
2-0
  6
CONTINUOUS
 62
     6
 10
23639.811785999991
 20
16439.875610000021
 30
0.0
 11
23485.973499999989
 21
16388.441779000019
 31
0.0
  0
LINE
  5
429C
  8
2-0
  6
CONTINUOUS
 62
     6
 10
23485.973499999989
 20
16388.441779000019
 30
0.0
 11
23639.811785999991
 21
16439.875610000021
 31
0.0
  0
LINE
  5
429D
  8
2-0
  6
CONTINUOUS
 62
     6
 10
23510.97679899996
 20
16341.33517500002
 30
0.0
 11
23639.811785999991
 21
16439.875610000021
 31
0.0
  0
LINE
  5
429E
  8
2-0
  6
CONTINUOUS
 62
     6
 10
23510.97679899996
 20
16341.33517500002
 30
0.0
 11
23485.973499999989
 21
16388.441779000019
 31
0.0
  0
LINE
  5
429F
  8
2-0
  6
CONTINUOUS
 62
     6
 10
23352.037292999979
 20
16879.76027100001
 30
0.0
 11
23494.920923999991
 21
16802.984641999999
 31
0.0
  0
LINE
  5
42A0
  8
2-0
  6
CONTINUOUS
 62
     6
 10
23494.920923999991
 20
16802.984641999999
 30
0.0
 11
23334.859030999982
 21
16829.266711000011
 31
0.0
  0
LINE
  5
42A1
  8
2-0
  6
CONTINUOUS
 62
     6
 10
23352.037292999979
 20
16879.76027100001
 30
0.0
 11
23334.859030999982
 21
16829.266711000011
 31
0.0
  0
LINE
  5
42A2
  8
2-0
  6
CONTINUOUS
 62
     6
 10
23334.859030999982
 20
16829.266711000011
 30
0.0
 11
23494.920923999991
 21
16802.984641999999
 31
0.0
  0
LINE
  5
42A3
  8
2-0
  6
CONTINUOUS
 62
     6
 10
23494.920923999991
 20
16802.984641999999
 30
0.0
 11
23352.037292999979
 21
16879.76027100001
 31
0.0
  0
LINE
  5
42A4
  8
2-0
  6
CONTINUOUS
 62
     6
 10
23352.037292999979
 20
16879.76027100001
 30
0.0
 11
23494.920923999991
 21
16802.984641999999
 31
0.0
  0
LINE
  5
42A5
  8
2-0
  6
CONTINUOUS
 62
     6
 10
23334.859030999982
 20
16829.266711000011
 30
0.0
 11
23494.920923999991
 21
16802.984641999999
 31
0.0
  0
LINE
  5
42A6
  8
2-0
  6
CONTINUOUS
 62
     6
 10
23334.859030999982
 20
16829.266711000011
 30
0.0
 11
23352.037292999979
 21
16879.76027100001
 31
0.0
  0
LINE
  5
42A7
  8
2-0
  6
CONTINUOUS
 62
     3
 10
21017.314821999989
 20
19601.984326000009
 30
0.0
 11
21017.314821999989
 21
19595.988364000012
 31
0.0
  0
LINE
  5
42A8
  8
2-0
  6
CONTINUOUS
 62
     3
 10
21017.314821999989
 20
19595.988364000012
 30
0.0
 11
20987.317196999989
 21
19595.988364000012
 31
0.0
  0
LINE
  5
42A9
  8
2-0
  6
CONTINUOUS
 62
     3
 10
20987.317196999989
 20
19595.988364000012
 30
0.0
 11
20987.317196999989
 21
19710.984537000011
 31
0.0
  0
LINE
  5
42AA
  8
2-0
  6
CONTINUOUS
 62
     3
 10
20987.317196999989
 20
19625.987968000001
 30
0.0
 11
21068.315138000002
 21
19625.987968000001
 31
0.0
  0
LINE
  5
42AB
  8
2-0
  6
CONTINUOUS
 62
     3
 10
21017.314821999989
 20
19585.690908
 30
0.0
 11
20987.317196999989
 21
19585.690908
 31
0.0
  0
LINE
  5
42AC
  8
2-0
  6
CONTINUOUS
 62
     3
 10
21017.314821999989
 20
19603.692650000001
 30
0.0
 11
21017.314821999989
 21
19585.690908
 31
0.0
  0
LINE
  5
42AD
  8
2-0
  6
CONTINUOUS
 62
     3
 10
20992.321419999989
 20
19603.692650000001
 30
0.0
 11
21017.314821999989
 21
19603.692650000001
 31
0.0
  0
LINE
  5
42AE
  8
2-0
  6
CONTINUOUS
 62
     3
 10
20992.321419999989
 20
19598.68446800001
 30
0.0
 11
20992.321419999989
 21
19603.692650000001
 31
0.0
  0
LINE
  5
42AF
  8
2-0
  6
CONTINUOUS
 62
     3
 10
20999.31901799998
 20
19598.68446800001
 30
0.0
 11
20992.321419999989
 21
19598.68446800001
 31
0.0
  0
LINE
  5
42B0
  8
2-0
  6
CONTINUOUS
 62
     3
 10
21099.613306999989
 20
19698.984695000021
 30
0.0
 11
21099.613306999989
 21
19705.990211000011
 31
0.0
  0
LINE
  5
42B1
  8
2-0
  6
CONTINUOUS
 62
     3
 10
21099.613306999989
 20
19705.990211000011
 30
0.0
 11
21094.611062999989
 21
19705.990211000011
 31
0.0
  0
LINE
  5
42B2
  8
2-0
  6
CONTINUOUS
 62
     3
 10
21094.611062999989
 20
19705.990211000011
 30
0.0
 11
21094.611062999989
 21
19680.980973999998
 31
0.0
  0
LINE
  5
42B3
  8
2-0
  6
CONTINUOUS
 62
     3
 10
21094.611062999989
 20
19680.980973999998
 30
0.0
 11
21112.618743999981
 21
19680.980973999998
 31
0.0
  0
LINE
  5
42B4
  8
2-0
  6
CONTINUOUS
 62
     3
 10
21112.618743999981
 20
19680.980973999998
 30
0.0
 11
21112.618743999981
 21
19710.984537000011
 31
0.0
  0
LINE
  5
42B5
  8
2-0
  6
CONTINUOUS
 62
     3
 10
21102.319307999991
 20
19710.984537000011
 30
0.0
 11
20987.317196999989
 21
19710.984537000011
 31
0.0
  0
LINE
  5
42B6
  8
2-0
  6
CONTINUOUS
 62
     3
 10
21102.319307999991
 20
19680.980973999998
 30
0.0
 11
21102.319307999991
 21
19710.984537000011
 31
0.0
  0
LINE
  5
42B7
  8
2-0
  6
CONTINUOUS
 62
     3
 10
21096.315428999991
 20
19680.980973999998
 30
0.0
 11
21102.319307999991
 21
19680.980973999998
 31
0.0
  0
LINE
  5
42B8
  8
2-0
  6
CONTINUOUS
 62
     3
 10
21017.314821999989
 20
19601.984326000009
 30
0.0
 11
21017.314821999989
 21
19595.988364000012
 31
0.0
  0
LINE
  5
42B9
  8
2-0
  6
CONTINUOUS
 62
     3
 10
21017.314821999989
 20
19595.988364000012
 30
0.0
 11
20987.317196999989
 21
19595.988364000012
 31
0.0
  0
LINE
  5
42BA
  8
2-0
  6
CONTINUOUS
 62
     3
 10
20987.317196999989
 20
19595.988364000012
 30
0.0
 11
20987.317196999989
 21
19710.984537000011
 31
0.0
  0
LINE
  5
42BB
  8
2-0
  6
CONTINUOUS
 62
     3
 10
20987.317196999989
 20
19625.987968000001
 30
0.0
 11
21068.315138000002
 21
19625.987968000001
 31
0.0
  0
LINE
  5
42BC
  8
2-0
  6
CONTINUOUS
 62
     3
 10
21017.314821999989
 20
19585.690908
 30
0.0
 11
20987.317196999989
 21
19585.690908
 31
0.0
  0
LINE
  5
42BD
  8
2-0
  6
CONTINUOUS
 62
     3
 10
21017.314821999989
 20
19603.692650000001
 30
0.0
 11
21017.314821999989
 21
19585.690908
 31
0.0
  0
LINE
  5
42BE
  8
2-0
  6
CONTINUOUS
 62
     3
 10
20992.321419999989
 20
19603.692650000001
 30
0.0
 11
21017.314821999989
 21
19603.692650000001
 31
0.0
  0
LINE
  5
42BF
  8
2-0
  6
CONTINUOUS
 62
     3
 10
20992.321419999989
 20
19598.68446800001
 30
0.0
 11
20992.321419999989
 21
19603.692650000001
 31
0.0
  0
LINE
  5
42C0
  8
2-0
  6
CONTINUOUS
 62
     3
 10
20999.31901799998
 20
19598.68446800001
 30
0.0
 11
20992.321419999989
 21
19598.68446800001
 31
0.0
  0
LINE
  5
42C1
  8
2-0
  6
CONTINUOUS
 62
     3
 10
20999.31901799998
 20
18894.887645499992
 30
0.0
 11
20992.321419999989
 21
18894.887645499992
 31
0.0
  0
LINE
  5
42C2
  8
2-0
  6
CONTINUOUS
 62
     3
 10
20992.321419999989
 20
18894.887645499992
 30
0.0
 11
20992.321419999989
 21
18899.887909500001
 31
0.0
  0
LINE
  5
42C3
  8
2-0
  6
CONTINUOUS
 62
     3
 10
20992.321419999989
 20
18899.887909500001
 30
0.0
 11
21017.314821999989
 21
18899.887909500001
 31
0.0
  0
LINE
  5
42C4
  8
2-0
  6
CONTINUOUS
 62
     3
 10
21017.314821999989
 20
18899.887909500001
 30
0.0
 11
21017.314821999989
 21
18881.892105499981
 31
0.0
  0
LINE
  5
42C5
  8
2-0
  6
CONTINUOUS
 62
     3
 10
21017.314821999989
 20
18881.892105499981
 30
0.0
 11
20987.317196999989
 21
18881.892105499981
 31
0.0
  0
LINE
  5
42C6
  8
2-0
  6
CONTINUOUS
 62
     3
 10
21017.314821999989
 20
18897.98361249996
 30
0.0
 11
21017.314821999989
 21
18891.985671499991
 31
0.0
  0
LINE
  5
42C7
  8
2-0
  6
CONTINUOUS
 62
     3
 10
21017.314821999989
 20
18891.985671499991
 30
0.0
 11
20987.317196999989
 21
18891.985671499991
 31
0.0
  0
LINE
  5
42C8
  8
2-0
  6
CONTINUOUS
 62
     3
 10
20987.317196999989
 20
18891.985671499991
 30
0.0
 11
20987.317196999989
 21
18928.986832499992
 31
0.0
  0
LINE
  5
42C9
  8
2-0
  6
CONTINUOUS
 62
     3
 10
21017.314821999989
 20
18928.986832499992
 30
0.0
 11
20987.317196999989
 21
18928.986832499992
 31
0.0
  0
LINE
  5
42CA
  8
2-0
  6
CONTINUOUS
 62
     3
 10
21017.314821999989
 20
18922.982952499991
 30
0.0
 11
21017.314821999989
 21
18928.986832499992
 31
0.0
  0
LINE
  5
42CB
  8
2-0
  6
CONTINUOUS
 62
     3
 10
21017.314821999989
 20
18939.082377499981
 30
0.0
 11
20987.317196999989
 21
18939.082377499981
 31
0.0
  0
LINE
  5
42CC
  8
2-0
  6
CONTINUOUS
 62
     3
 10
21017.314821999989
 20
18921.080635499999
 30
0.0
 11
21017.314821999989
 21
18939.082377499981
 31
0.0
  0
LINE
  5
42CD
  8
2-0
  6
CONTINUOUS
 62
     3
 10
20992.321419999989
 20
18921.080635499999
 30
0.0
 11
21017.314821999989
 21
18921.080635499999
 31
0.0
  0
LINE
  5
42CE
  8
2-0
  6
CONTINUOUS
 62
     3
 10
20992.321419999989
 20
18926.080899499979
 30
0.0
 11
20992.321419999989
 21
18921.080635499999
 31
0.0
  0
LINE
  5
42CF
  8
2-0
  6
CONTINUOUS
 62
     3
 10
20999.31901799998
 20
18926.080899499979
 30
0.0
 11
20992.321419999989
 21
18926.080899499979
 31
0.0
  0
LINE
  5
42D0
  8
2-0
  6
CONTINUOUS
 62
     3
 10
20999.31901799998
 20
18193.886655999999
 30
0.0
 11
20992.321419999989
 21
18193.886655999999
 31
0.0
  0
LINE
  5
42D1
  8
2-0
  6
CONTINUOUS
 62
     3
 10
20992.321419999989
 20
18193.886655999999
 30
0.0
 11
20992.321419999989
 21
18198.892857999999
 31
0.0
  0
LINE
  5
42D2
  8
2-0
  6
CONTINUOUS
 62
     3
 10
20992.321419999989
 20
18198.892857999999
 30
0.0
 11
21017.314821999989
 21
18198.892857999999
 31
0.0
  0
LINE
  5
42D3
  8
2-0
  6
CONTINUOUS
 62
     3
 10
21017.314821999989
 20
18198.892857999999
 30
0.0
 11
21017.314821999989
 21
18180.891115999992
 31
0.0
  0
LINE
  5
42D4
  8
2-0
  6
CONTINUOUS
 62
     3
 10
21017.314821999989
 20
18180.891115999992
 30
0.0
 11
20987.317196999989
 21
18180.891115999992
 31
0.0
  0
LINE
  5
42D5
  8
2-0
  6
CONTINUOUS
 62
     3
 10
21017.314821999989
 20
18196.982622999982
 30
0.0
 11
21017.314821999989
 21
18190.986660999992
 31
0.0
  0
LINE
  5
42D6
  8
2-0
  6
CONTINUOUS
 62
     3
 10
21017.314821999989
 20
18190.986660999992
 30
0.0
 11
20987.317196999989
 21
18190.986660999992
 31
0.0
  0
LINE
  5
42D7
  8
2-0
  6
CONTINUOUS
 62
     3
 10
20987.317196999989
 20
18190.986660999992
 30
0.0
 11
20987.317196999989
 21
18227.985842999991
 31
0.0
  0
LINE
  5
42D8
  8
2-0
  6
CONTINUOUS
 62
     3
 10
21017.314821999989
 20
18227.985842999991
 30
0.0
 11
20987.317196999989
 21
18227.985842999991
 31
0.0
  0
LINE
  5
42D9
  8
2-0
  6
CONTINUOUS
 62
     3
 10
21017.314821999989
 20
18221.989881000001
 30
0.0
 11
21017.314821999989
 21
18227.985842999991
 31
0.0
  0
LINE
  5
42DA
  8
2-0
  6
CONTINUOUS
 62
     3
 10
21017.314821999989
 20
18238.081387999999
 30
0.0
 11
20987.317196999989
 21
18238.081387999999
 31
0.0
  0
LINE
  5
42DB
  8
2-0
  6
CONTINUOUS
 62
     3
 10
21017.314821999989
 20
18220.079645999991
 30
0.0
 11
21017.314821999989
 21
18238.081387999999
 31
0.0
  0
LINE
  5
42DC
  8
2-0
  6
CONTINUOUS
 62
     3
 10
20992.321419999989
 20
18220.079645999991
 30
0.0
 11
21017.314821999989
 21
18220.079645999991
 31
0.0
  0
LINE
  5
42DD
  8
2-0
  6
CONTINUOUS
 62
     3
 10
20992.321419999989
 20
18225.085847999992
 30
0.0
 11
20992.321419999989
 21
18220.079645999991
 31
0.0
  0
LINE
  5
42DE
  8
2-0
  6
CONTINUOUS
 62
     3
 10
20999.31901799998
 20
18225.085847999992
 30
0.0
 11
20992.321419999989
 21
18225.085847999992
 31
0.0
  0
LINE
  5
42DF
  8
2-0
  6
CONTINUOUS
 62
     3
 10
20999.31901799998
 20
17524.079909999989
 30
0.0
 11
20992.321419999989
 21
17524.079909999989
 31
0.0
  0
LINE
  5
42E0
  8
2-0
  6
CONTINUOUS
 62
     3
 10
20992.321419999989
 20
17524.079909999989
 30
0.0
 11
20992.321419999989
 21
17519.091522999999
 31
0.0
  0
LINE
  5
42E1
  8
2-0
  6
CONTINUOUS
 62
     3
 10
20992.321419999989
 20
17519.091522999999
 30
0.0
 11
21017.314821999989
 21
17519.091522999999
 31
0.0
  0
LINE
  5
42E2
  8
2-0
  6
CONTINUOUS
 62
     3
 10
21017.314821999989
 20
17519.091522999999
 30
0.0
 11
21017.314821999989
 21
17537.08732599999
 31
0.0
  0
LINE
  5
42E3
  8
2-0
  6
CONTINUOUS
 62
     3
 10
21017.314821999989
 20
17537.08732599999
 30
0.0
 11
20987.317196999989
 21
17537.08732599999
 31
0.0
  0
LINE
  5
42E4
  8
2-0
  6
CONTINUOUS
 62
     3
 10
21017.314821999989
 20
17520.989881000001
 30
0.0
 11
21017.314821999989
 21
17526.985842999991
 31
0.0
  0
LINE
  5
42E5
  8
2-0
  6
CONTINUOUS
 62
     3
 10
21017.314821999989
 20
17526.985842999991
 30
0.0
 11
20987.317196999989
 21
17526.985842999991
 31
0.0
  0
LINE
  5
42E6
  8
2-0
  6
CONTINUOUS
 62
     3
 10
20987.317196999989
 20
17526.985842999991
 30
0.0
 11
20987.317196999989
 21
17489.986660999992
 31
0.0
  0
LINE
  5
42E7
  8
2-0
  6
CONTINUOUS
 62
     3
 10
21017.314821999989
 20
17489.986660999992
 30
0.0
 11
20987.317196999989
 21
17489.986660999992
 31
0.0
  0
LINE
  5
42E8
  8
2-0
  6
CONTINUOUS
 62
     3
 10
21017.314821999989
 20
17495.988561999991
 30
0.0
 11
21017.314821999989
 21
17489.986660999992
 31
0.0
  0
LINE
  5
42E9
  8
2-0
  6
CONTINUOUS
 62
     3
 10
21017.314821999989
 20
17479.897055000001
 30
0.0
 11
20987.317196999989
 21
17479.897055000001
 31
0.0
  0
LINE
  5
42EA
  8
2-0
  6
CONTINUOUS
 62
     3
 10
21017.314821999989
 20
17497.892857999981
 30
0.0
 11
21017.314821999989
 21
17479.897055000001
 31
0.0
  0
LINE
  5
42EB
  8
2-0
  6
CONTINUOUS
 62
     3
 10
20992.321419999989
 20
17497.892857999981
 30
0.0
 11
21017.314821999989
 21
17497.892857999981
 31
0.0
  0
LINE
  5
42EC
  8
2-0
  6
CONTINUOUS
 62
     3
 10
20992.321419999989
 20
17492.892595000001
 30
0.0
 11
20992.321419999989
 21
17497.892857999981
 31
0.0
  0
LINE
  5
42ED
  8
2-0
  6
CONTINUOUS
 62
     3
 10
20999.31901799998
 20
17492.892595000001
 30
0.0
 11
20992.321419999989
 21
17492.892595000001
 31
0.0
  0
LINE
  5
42EE
  8
2-0
  6
CONTINUOUS
 62
     3
 10
20990.203334999991
 20
16772.983480999999
 30
0.0
 11
20990.203334999991
 21
16792.984536
 31
0.0
  0
LINE
  5
42EF
  8
2-0
  6
CONTINUOUS
 62
     3
 10
20990.203334999991
 20
16792.984536
 30
0.0
 11
21075.203862999999
 21
16792.984536
 31
0.0
  0
LINE
  5
42F0
  8
2-0
  6
CONTINUOUS
 62
     3
 10
20999.31901799998
 20
16819.591246
 30
0.0
 11
20992.321419999989
 21
16819.591246
 31
0.0
  0
LINE
  5
42F1
  8
2-0
  6
CONTINUOUS
 62
     3
 10
20992.321419999989
 20
16819.591246
 30
0.0
 11
20992.321419999989
 21
16814.596920000011
 31
0.0
  0
LINE
  5
42F2
  8
2-0
  6
CONTINUOUS
 62
     3
 10
20992.321419999989
 20
16814.596920000011
 30
0.0
 11
21017.314821999989
 21
16814.596920000011
 31
0.0
  0
LINE
  5
42F3
  8
2-0
  6
CONTINUOUS
 62
     3
 10
21017.314821999989
 20
16814.596920000011
 30
0.0
 11
21017.314821999989
 21
16832.592723999991
 31
0.0
  0
LINE
  5
42F4
  8
2-0
  6
CONTINUOUS
 62
     3
 10
21017.314821999989
 20
16832.592723999991
 30
0.0
 11
20987.317196999989
 21
16832.592723999991
 31
0.0
  0
LINE
  5
42F5
  8
2-0
  6
CONTINUOUS
 62
     3
 10
21017.314821999989
 20
16822.98413999999
 30
0.0
 11
21017.314821999989
 21
16816.982240000001
 31
0.0
  0
LINE
  5
42F6
  8
2-0
  6
CONTINUOUS
 62
     3
 10
20987.317196999989
 20
16822.98413999999
 30
0.0
 11
21017.314821999989
 21
16822.98413999999
 31
0.0
  0
LINE
  5
42F7
  8
2-0
  6
CONTINUOUS
 62
     3
 10
20987.317196999989
 20
16832.592723999991
 30
0.0
 11
20987.317196999989
 21
17479.897055000001
 31
0.0
  0
LINE
  5
42F8
  8
2-0
  6
CONTINUOUS
 62
     3
 10
20987.317196999989
 20
17537.08732599999
 30
0.0
 11
20987.317196999989
 21
18180.891115999992
 31
0.0
  0
LINE
  5
42F9
  8
2-0
  6
CONTINUOUS
 62
     3
 10
20987.317196999989
 20
16677.982424999991
 30
0.0
 11
21017.314821999989
 21
16677.982424999991
 31
0.0
  0
LINE
  5
42FA
  8
2-0
  6
CONTINUOUS
 62
     3
 10
21017.314821999989
 20
16677.982424999991
 30
0.0
 11
21017.314821999989
 21
16683.984325000001
 31
0.0
  0
LINE
  5
42FB
  8
2-0
  6
CONTINUOUS
 62
     3
 10
21075.203862999999
 20
16707.987968000001
 30
0.0
 11
20990.203334999991
 21
16707.987968000001
 31
0.0
  0
LINE
  5
42FC
  8
2-0
  6
CONTINUOUS
 62
     3
 10
20990.203334999991
 20
16707.987968000001
 30
0.0
 11
20990.203334999991
 21
16727.983085000011
 31
0.0
  0
LINE
  5
42FD
  8
2-0
  6
CONTINUOUS
 62
     3
 10
21017.314821999989
 20
16668.373842000012
 30
0.0
 11
20987.317196999989
 21
16668.373842000012
 31
0.0
  0
LINE
  5
42FE
  8
2-0
  6
CONTINUOUS
 62
     3
 10
21017.314821999989
 20
16686.369644999992
 30
0.0
 11
21017.314821999989
 21
16668.373842000012
 31
0.0
  0
LINE
  5
42FF
  8
2-0
  6
CONTINUOUS
 62
     3
 10
20992.321419999989
 20
16686.369644999992
 30
0.0
 11
21017.314821999989
 21
16686.369644999992
 31
0.0
  0
LINE
  5
4300
  8
2-0
  6
CONTINUOUS
 62
     3
 10
20992.321419999989
 20
16681.369381000011
 30
0.0
 11
20992.321419999989
 21
16686.369644999992
 31
0.0
  0
LINE
  5
4301
  8
2-0
  6
CONTINUOUS
 62
     3
 10
20999.31901799998
 20
16681.369381000011
 30
0.0
 11
20992.321419999989
 21
16681.369381000011
 31
0.0
  0
LINE
  5
4302
  8
2-0
  6
CONTINUOUS
 62
     3
 10
20999.31901799998
 20
15976.887150499981
 30
0.0
 11
20992.321419999989
 21
15976.887150499981
 31
0.0
  0
LINE
  5
4303
  8
2-0
  6
CONTINUOUS
 62
     3
 10
20992.321419999989
 20
15976.887150499981
 30
0.0
 11
20992.321419999989
 21
15981.88741449999
 31
0.0
  0
LINE
  5
4304
  8
2-0
  6
CONTINUOUS
 62
     3
 10
20992.321419999989
 20
15981.88741449999
 30
0.0
 11
21017.314821999989
 21
15981.88741449999
 31
0.0
  0
LINE
  5
4305
  8
2-0
  6
CONTINUOUS
 62
     3
 10
21017.314821999989
 20
15981.88741449999
 30
0.0
 11
21017.314821999989
 21
15963.88567249999
 31
0.0
  0
LINE
  5
4306
  8
2-0
  6
CONTINUOUS
 62
     3
 10
21017.314821999989
 20
15963.88567249999
 30
0.0
 11
20987.317196999989
 21
15963.88567249999
 31
0.0
  0
LINE
  5
4307
  8
2-0
  6
CONTINUOUS
 62
     3
 10
21017.314821999989
 20
15979.9831175
 30
0.0
 11
21017.314821999989
 21
15973.986166500001
 31
0.0
  0
LINE
  5
4308
  8
2-0
  6
CONTINUOUS
 62
     3
 10
21017.314821999989
 20
15973.986166500001
 30
0.0
 11
20987.317196999989
 21
15973.986166500001
 31
0.0
  0
LINE
  5
4309
  8
2-0
  6
CONTINUOUS
 62
     3
 10
20987.317196999989
 20
15973.986166500001
 30
0.0
 11
20987.317196999989
 21
16010.9863375
 31
0.0
  0
LINE
  5
430A
  8
2-0
  6
CONTINUOUS
 62
     3
 10
21017.314821999989
 20
16010.9863375
 30
0.0
 11
20987.317196999989
 21
16010.9863375
 31
0.0
  0
LINE
  5
430B
  8
2-0
  6
CONTINUOUS
 62
     3
 10
21017.314821999989
 20
16004.983447500001
 30
0.0
 11
21017.314821999989
 21
16010.9863375
 31
0.0
  0
LINE
  5
430C
  8
2-0
  6
CONTINUOUS
 62
     3
 10
21017.314821999989
 20
16021.08188249999
 30
0.0
 11
20987.317196999989
 21
16021.08188249999
 31
0.0
  0
LINE
  5
430D
  8
2-0
  6
CONTINUOUS
 62
     3
 10
21017.314821999989
 20
16003.074201499991
 30
0.0
 11
21017.314821999989
 21
16021.08188249999
 31
0.0
  0
LINE
  5
430E
  8
2-0
  6
CONTINUOUS
 62
     3
 10
20992.321419999989
 20
16003.074201499991
 30
0.0
 11
21017.314821999989
 21
16003.074201499991
 31
0.0
  0
LINE
  5
430F
  8
2-0
  6
CONTINUOUS
 62
     3
 10
20992.321419999989
 20
16008.0804045
 30
0.0
 11
20992.321419999989
 21
16003.074201499991
 31
0.0
  0
LINE
  5
4310
  8
2-0
  6
CONTINUOUS
 62
     3
 10
20999.31901799998
 20
16008.0804045
 30
0.0
 11
20992.321419999989
 21
16008.0804045
 31
0.0
  0
LINE
  5
4311
  8
2-0
  6
CONTINUOUS
 62
     3
 10
20999.31901799998
 20
15307.320421
 30
0.0
 11
20992.321419999989
 21
15307.320421
 31
0.0
  0
LINE
  5
4312
  8
2-0
  6
CONTINUOUS
 62
     3
 10
20992.321419999989
 20
15307.320421
 30
0.0
 11
20992.321419999989
 21
15302.326096000001
 31
0.0
  0
LINE
  5
4313
  8
2-0
  6
CONTINUOUS
 62
     3
 10
20992.321419999989
 20
15302.326096000001
 30
0.0
 11
21017.314821999989
 21
15302.326096000001
 31
0.0
  0
LINE
  5
4314
  8
2-0
  6
CONTINUOUS
 62
     3
 10
21017.314821999989
 20
15302.326096000001
 30
0.0
 11
21017.314821999989
 21
15320.32189900001
 31
0.0
  0
LINE
  5
4315
  8
2-0
  6
CONTINUOUS
 62
     3
 10
21017.314821999989
 20
15320.32189900001
 30
0.0
 11
20987.317196999989
 21
15320.32189900001
 31
0.0
  0
LINE
  5
4316
  8
2-0
  6
CONTINUOUS
 62
     3
 10
21017.314821999989
 20
15304.22445399999
 30
0.0
 11
21017.314821999989
 21
15310.226354
 31
0.0
  0
LINE
  5
4317
  8
2-0
  6
CONTINUOUS
 62
     3
 10
21017.314821999989
 20
15310.226354
 30
0.0
 11
20987.317196999989
 21
15310.226354
 31
0.0
  0
LINE
  5
4318
  8
2-0
  6
CONTINUOUS
 62
     3
 10
20987.317196999989
 20
15273.22717300001
 30
0.0
 11
20987.317196999989
 21
15310.226354
 31
0.0
  0
LINE
  5
4319
  8
2-0
  6
CONTINUOUS
 62
     3
 10
21017.314821999989
 20
15273.22717300001
 30
0.0
 11
20987.317196999989
 21
15273.22717300001
 31
0.0
  0
LINE
  5
431A
  8
2-0
  6
CONTINUOUS
 62
     3
 10
21017.314821999989
 20
15279.224124
 30
0.0
 11
21017.314821999989
 21
15273.22717300001
 31
0.0
  0
LINE
  5
431B
  8
2-0
  6
CONTINUOUS
 62
     3
 10
21017.314821999989
 20
15263.12568899999
 30
0.0
 11
20987.317196999989
 21
15263.12568899999
 31
0.0
  0
LINE
  5
431C
  8
2-0
  6
CONTINUOUS
 62
     3
 10
21017.314821999989
 20
15281.13336999999
 30
0.0
 11
21017.314821999989
 21
15263.12568899999
 31
0.0
  0
LINE
  5
431D
  8
2-0
  6
CONTINUOUS
 62
     3
 10
20992.321419999989
 20
15281.13336999999
 30
0.0
 11
21017.314821999989
 21
15281.13336999999
 31
0.0
  0
LINE
  5
431E
  8
2-0
  6
CONTINUOUS
 62
     3
 10
20992.321419999989
 20
15276.133106000019
 30
0.0
 11
20992.321419999989
 21
15281.13336999999
 31
0.0
  0
LINE
  5
431F
  8
2-0
  6
CONTINUOUS
 62
     3
 10
20999.31901799998
 20
15276.133106000019
 30
0.0
 11
20992.321419999989
 21
15276.133106000019
 31
0.0
  0
LINE
  5
4320
  8
2-0
  6
CONTINUOUS
 62
     3
 10
20987.317196999989
 20
16668.373842000012
 30
0.0
 11
20987.317196999989
 21
16021.08188249999
 31
0.0
  0
LINE
  5
4321
  8
2-0
  6
CONTINUOUS
 62
     3
 10
20987.317196999989
 20
16822.98413999999
 30
0.0
 11
20987.317196999989
 21
16677.982424999991
 31
0.0
  0
LINE
  5
4322
  8
2-0
  6
CONTINUOUS
 62
     3
 10
21075.203862999999
 20
16792.984536
 30
0.0
 11
21075.203862999999
 21
16707.987968000001
 31
0.0
  0
LINE
  5
4323
  8
2-0
  6
CONTINUOUS
 62
     3
 10
20999.31901799998
 20
14574.892099000001
 30
0.0
 11
20992.321419999989
 21
14574.892099000001
 31
0.0
  0
LINE
  5
4324
  8
2-0
  6
CONTINUOUS
 62
     3
 10
20992.321419999989
 20
14574.892099000001
 30
0.0
 11
20992.321419999989
 21
14579.88642500001
 31
0.0
  0
LINE
  5
4325
  8
2-0
  6
CONTINUOUS
 62
     3
 10
20992.321419999989
 20
14579.88642500001
 30
0.0
 11
21017.314821999989
 21
14579.88642500001
 31
0.0
  0
LINE
  5
4326
  8
2-0
  6
CONTINUOUS
 62
     3
 10
21017.314821999989
 20
14579.88642500001
 30
0.0
 11
21017.314821999989
 21
14561.890621
 31
0.0
  0
LINE
  5
4327
  8
2-0
  6
CONTINUOUS
 62
     3
 10
21017.314821999989
 20
14561.890621
 30
0.0
 11
20987.317196999989
 21
14561.890621
 31
0.0
  0
LINE
  5
4328
  8
2-0
  6
CONTINUOUS
 62
     3
 10
21017.314821999989
 20
14577.989056
 30
0.0
 11
21017.314821999989
 21
14571.98616600001
 31
0.0
  0
LINE
  5
4329
  8
2-0
  6
CONTINUOUS
 62
     3
 10
21017.314821999989
 20
14571.98616600001
 30
0.0
 11
20987.317196999989
 21
14571.98616600001
 31
0.0
  0
LINE
  5
432A
  8
2-0
  6
CONTINUOUS
 62
     3
 10
20987.317196999989
 20
14571.98616600001
 30
0.0
 11
20987.317196999989
 21
14608.986337999981
 31
0.0
  0
LINE
  5
432B
  8
2-0
  6
CONTINUOUS
 62
     3
 10
21017.314821999989
 20
14608.986337999981
 30
0.0
 11
20987.317196999989
 21
14608.986337999981
 31
0.0
  0
LINE
  5
432C
  8
2-0
  6
CONTINUOUS
 62
     3
 10
21017.314821999989
 20
14602.989385999999
 30
0.0
 11
21017.314821999989
 21
14608.986337999981
 31
0.0
  0
LINE
  5
432D
  8
2-0
  6
CONTINUOUS
 62
     3
 10
21017.314821999989
 20
14619.086831000001
 30
0.0
 11
20987.317196999989
 21
14619.086831000001
 31
0.0
  0
LINE
  5
432E
  8
2-0
  6
CONTINUOUS
 62
     3
 10
21017.314821999989
 20
14601.08014
 30
0.0
 11
21017.314821999989
 21
14619.086831000001
 31
0.0
  0
LINE
  5
432F
  8
2-0
  6
CONTINUOUS
 62
     3
 10
20992.321419999989
 20
14601.08014
 30
0.0
 11
21017.314821999989
 21
14601.08014
 31
0.0
  0
LINE
  5
4330
  8
2-0
  6
CONTINUOUS
 62
     3
 10
20992.321419999989
 20
14606.085353
 30
0.0
 11
20992.321419999989
 21
14601.08014
 31
0.0
  0
LINE
  5
4331
  8
2-0
  6
CONTINUOUS
 62
     3
 10
20999.31901799998
 20
14606.085353
 30
0.0
 11
20992.321419999989
 21
14606.085353
 31
0.0
  0
LINE
  5
4332
  8
2-0
  6
CONTINUOUS
 62
     3
 10
21017.314821999989
 20
13898.988179
 30
0.0
 11
21017.314821999989
 21
13904.993047999989
 31
0.0
  0
LINE
  5
4333
  8
2-0
  6
CONTINUOUS
 62
     3
 10
21017.314821999989
 20
13904.993047999989
 30
0.0
 11
20987.317196999989
 21
13904.993047999989
 31
0.0
  0
LINE
  5
4334
  8
2-0
  6
CONTINUOUS
 62
     3
 10
20987.317196999989
 20
13904.993047999989
 30
0.0
 11
20987.317196999989
 21
13789.988957
 31
0.0
  0
LINE
  5
4335
  8
2-0
  6
CONTINUOUS
 62
     3
 10
20987.317196999989
 20
13789.988957
 30
0.0
 11
21072.315744999989
 21
13789.988957
 31
0.0
  0
LINE
  5
4336
  8
2-0
  6
CONTINUOUS
 62
     3
 10
21072.315744999989
 20
13789.988957
 30
0.0
 11
21072.315744999989
 21
13874.984536
 31
0.0
  0
LINE
  5
4337
  8
2-0
  6
CONTINUOUS
 62
     3
 10
21072.315744999989
 20
13874.984536
 30
0.0
 11
21040.318806999981
 21
13874.984536
 31
0.0
  0
LINE
  5
4338
  8
2-0
  6
CONTINUOUS
 62
     3
 10
20999.31901799998
 20
13902.022781
 30
0.0
 11
20992.321419999989
 21
13902.022781
 31
0.0
  0
LINE
  5
4339
  8
2-0
  6
CONTINUOUS
 62
     3
 10
20992.321419999989
 20
13902.022781
 30
0.0
 11
20992.321419999989
 21
13897.02548599998
 31
0.0
  0
LINE
  5
433A
  8
2-0
  6
CONTINUOUS
 62
     3
 10
20992.321419999989
 20
13897.02548599998
 30
0.0
 11
21017.314821999989
 21
13897.02548599998
 31
0.0
  0
LINE
  5
433B
  8
2-0
  6
CONTINUOUS
 62
     3
 10
21017.314821999989
 20
13897.02548599998
 30
0.0
 11
21017.314821999989
 21
13915.024258999991
 31
0.0
  0
LINE
  5
433C
  8
2-0
  6
CONTINUOUS
 62
     3
 10
21017.314821999989
 20
13915.024258999991
 30
0.0
 11
20987.317196999989
 21
13915.024258999991
 31
0.0
  0
LINE
  5
433D
  8
2-0
  6
CONTINUOUS
 62
     3
 10
20987.317196999989
 20
14619.086831000001
 30
0.0
 11
20987.317196999989
 21
15263.12568899999
 31
0.0
  0
LINE
  5
433E
  8
2-0
  6
CONTINUOUS
 62
     3
 10
20987.317196999989
 20
18238.081387999999
 30
0.0
 11
20987.317196999989
 21
18881.892105499981
 31
0.0
  0
LINE
  5
433F
  8
2-0
  6
CONTINUOUS
 62
     3
 10
20987.317196999989
 20
15963.88567249999
 30
0.0
 11
20987.317196999989
 21
15320.32189900001
 31
0.0
  0
LINE
  5
4340
  8
2-0
  6
CONTINUOUS
 62
     3
 10
23639.811785999991
 20
19595.988364000012
 30
0.0
 11
23639.811785999991
 21
19710.984537000011
 31
0.0
  0
LINE
  5
4341
  8
2-0
  6
CENTER2
 62
     6
 10
19700.358924999979
 20
19668.486251999992
 30
0.0
 11
24489.813105999991
 21
19668.486251999992
 31
0.0
  0
LINE
  5
4342
  8
2-0
  6
CENTER2
 62
     6
 10
19700.358924999979
 20
16750.486251999992
 30
0.0
 11
24489.813105999991
 21
16750.486251999992
 31
0.0
  0
LINE
  5
4343
  8
2-0
  6
CENTER2
 62
     6
 10
19700.358924999979
 20
13832.486252000001
 30
0.0
 11
24489.813105999991
 21
13832.486252000001
 31
0.0
  0
LINE
  5
4344
  8
2-0
  6
CONTINUOUS
 62
     3
 10
20987.317196999989
 20
19625.987968000001
 30
0.0
 11
23558.809885999981
 21
19625.987968000001
 31
0.0
  0
LINE
  5
4345
  8
2-0
  6
CONTINUOUS
 62
     3
 10
20987.317196999989
 20
13915.024258999991
 30
0.0
 11
20987.317196999989
 21
14561.890621
 31
0.0
  0
LINE
  5
4346
  8
2-0
  6
CENTER2
 62
     6
 10
21029.813502000001
 20
20910.984537000018
 30
0.0
 11
21029.813502000001
 21
13206.722818
 31
0.0
  0
LINE
  5
4347
  8
2-0
  6
CENTER2
 62
     6
 10
23597.313502000001
 20
20910.984537000018
 30
0.0
 11
23597.313502000001
 21
13206.722818
 31
0.0
  0
LINE
  5
4348
  8
2-0
  6
CONTINUOUS
 62
     3
 10
23639.811785999991
 20
19585.690908
 30
0.0
 11
23639.811785999991
 21
18939.082377499992
 31
0.0
  0
LINE
  5
4349
  8
2-0
  6
CONTINUOUS
 62
     3
 10
20987.317196999989
 20
19585.690908
 30
0.0
 11
20987.317196999989
 21
18939.082377499981
 31
0.0
  0
LINE
  5
434A
  8
2-0
  6
CONTINUOUS
 62
     3
 10
21068.315138000002
 20
13874.984536
 30
0.0
 11
21068.315138000002
 21
19710.984537000011
 31
0.0
  0
LINE
  5
434B
  8
2-0
  6
CONTINUOUS
 62
     3
 10
23558.809885999981
 20
13874.984536
 30
0.0
 11
23558.809885999981
 21
19710.984537000011
 31
0.0
  0
CIRCLE
  5
434C
  8
2-0
  6
CONTINUOUS
 62
     4
 10
19500.361234999978
 20
19668.486251999992
 30
0.0
 40
200.00001
  0
CIRCLE
  5
434D
  8
2-0
  6
CONTINUOUS
 62
     4
 10
19500.361234999978
 20
16750.486251999992
 30
0.0
 40
200.00001
  0
CIRCLE
  5
434E
  8
2-0
  6
CONTINUOUS
 62
     4
 10
19500.361234999978
 20
13832.486252000001
 30
0.0
 40
200.00001
  0
CIRCLE
  5
434F
  8
2-0
  6
CONTINUOUS
 62
     4
 10
21029.813502000001
 20
21110.989156000011
 30
0.0
 40
200.00001
  0
TEXT
  5
4350
  8
2-0
  6
CONTINUOUS
 62
     7
 10
21994.15880899999
 20
13272.487373999989
 30
0.0
 40
160.0
  1
前柱（右）
 50
0.000213
 72
     4
 11
22410.15851159301
 21
13352.48892050078
 31
0.0
  0
TEXT
  5
4351
  8
2-0
  6
CONTINUOUS
 62
     7
 10
22198.753931999989
 20
16200.97939000001
 30
0.0
 40
160.0
  1
壁パネル
 50
359.99982299999999
 72
     4
 11
22561.42084580355
 21
16280.978269637881
 31
0.0
  0
TEXT
  5
4352
  8
2-0
  6
CONTINUOUS
 62
     7
 10
21918.751027999981
 20
17038.167286000022
 30
0.0
 40
160.0
  1
中柱（左右）
 50
0.000354
 72
     4
 11
22436.083867046189
 21
17118.170482324669
 31
0.0
  0
TEXT
  5
4353
  8
2-0
  6
CONTINUOUS
 62
     7
 10
22598.75327199998
 20
14245.52863999999
 30
0.0
 40
160.0
  1
下枠
 50
0.001063
 72
     4
 11
22769.418454409279
 21
14325.531806339281
 31
0.0
  0
TEXT
  5
4354
  8
2-0
  6
CONTINUOUS
 62
     7
 10
22093.718695999989
 20
18641.436024499992
 30
0.0
 40
160.0
  1
間柱（側）
 72
     4
 11
22515.052029333328
 21
18721.436024499992
 31
0.0
  0
TEXT
  5
4355
  8
2-0
  6
CONTINUOUS
 62
     7
 10
24412.309014999992
 20
20520.983745000009
 30
0.0
 40
160.0
  1
後柱（左右）
 50
0.000354
 72
     4
 11
24924.30852071297
 21
20600.986908372841
 31
0.0
  0
TEXT
  5
4356
  8
2-0
  6
CONTINUOUS
 62
     7
 10
19452.361867999982
 20
19574.005810000021
 30
0.0
 40
160.0
  1
C
 72
     4
 11
19505.69520133331
 21
19654.005810000021
 31
0.0
  0
TEXT
  5
4357
  8
2-0
  6
CONTINUOUS
 62
     7
 10
19452.582583999982
 20
16680.092170000022
 30
0.0
 40
160.0
  1
B
 72
     4
 11
19505.915917333321
 21
16760.092170000022
 31
0.0
  0
TEXT
  5
4358
  8
2-0
  6
CONTINUOUS
 62
     7
 10
19452.625143999991
 20
13743.879041
 30
0.0
 40
160.0
  1
A
 72
     4
 11
19505.958477333319
 21
13823.879041
 31
0.0
  0
TEXT
  5
4359
  8
2-0
  6
CONTINUOUS
 62
     7
 10
20985.606892999989
 20
21022.221604000009
 30
0.0
 40
160.0
  1
1
 72
     4
 11
21012.273559666661
 21
21102.221604000009
 31
0.0
  0
LINE
  5
435A
  8
2-0
  6
CONTINUOUS
 62
     3
 10
22857.814082999968
 20
19710.984537000011
 30
0.0
 11
22820.81292099999
 21
19710.984537000011
 31
0.0
  0
LINE
  5
435B
  8
2-0
  6
CONTINUOUS
 62
     3
 10
22857.814082999968
 20
19680.980973999998
 30
0.0
 11
22857.814082999968
 21
19710.984537000011
 31
0.0
  0
LINE
  5
435C
  8
2-0
  6
CONTINUOUS
 62
     3
 10
22851.81416199997
 20
19680.980973999998
 30
0.0
 11
22857.814082999968
 21
19680.980973999998
 31
0.0
  0
LINE
  5
435D
  8
2-0
  6
CONTINUOUS
 62
     3
 10
22867.911606999991
 20
19680.980973999998
 30
0.0
 11
22867.911606999991
 21
19710.984537000011
 31
0.0
  0
LINE
  5
435E
  8
2-0
  6
CONTINUOUS
 62
     3
 10
22849.907886000001
 20
19680.980973999998
 30
0.0
 11
22867.911606999991
 21
19680.980973999998
 31
0.0
  0
LINE
  5
435F
  8
2-0
  6
CONTINUOUS
 62
     3
 10
22849.907886000001
 20
19705.990211000011
 30
0.0
 11
22849.907886000001
 21
19680.980973999998
 31
0.0
  0
LINE
  5
4360
  8
2-0
  6
CONTINUOUS
 62
     3
 10
22854.908149999999
 20
19705.990211000011
 30
0.0
 11
22849.907886000001
 21
19705.990211000011
 31
0.0
  0
LINE
  5
4361
  8
2-0
  6
CONTINUOUS
 62
     3
 10
22854.908149999999
 20
19698.984695000021
 30
0.0
 11
22854.908149999999
 21
19705.990211000011
 31
0.0
  0
LINE
  5
4362
  8
2-0
  6
CONTINUOUS
 62
     3
 10
22823.718854999981
 20
19698.984695000021
 30
0.0
 11
22823.718854999981
 21
19705.990211000011
 31
0.0
  0
LINE
  5
4363
  8
2-0
  6
CONTINUOUS
 62
     3
 10
22823.718854999981
 20
19705.990211000011
 30
0.0
 11
22828.719119000001
 21
19705.990211000011
 31
0.0
  0
LINE
  5
4364
  8
2-0
  6
CONTINUOUS
 62
     3
 10
22828.719119000001
 20
19705.990211000011
 30
0.0
 11
22828.719119000001
 21
19680.980973999998
 31
0.0
  0
LINE
  5
4365
  8
2-0
  6
CONTINUOUS
 62
     3
 10
22828.719119000001
 20
19680.980973999998
 30
0.0
 11
22810.719355999991
 21
19680.980973999998
 31
0.0
  0
LINE
  5
4366
  8
2-0
  6
CONTINUOUS
 62
     3
 10
22810.719355999991
 20
19680.980973999998
 30
0.0
 11
22810.719355999991
 21
19710.984537000011
 31
0.0
  0
LINE
  5
4367
  8
2-0
  6
CONTINUOUS
 62
     3
 10
22826.812841999981
 20
19680.980973999998
 30
0.0
 11
22820.81292099999
 21
19680.980973999998
 31
0.0
  0
LINE
  5
4368
  8
2-0
  6
CONTINUOUS
 62
     3
 10
22820.81292099999
 20
19680.980973999998
 30
0.0
 11
22820.81292099999
 21
19710.984537000011
 31
0.0
  0
LINE
  5
4369
  8
2-0
  6
CONTINUOUS
 62
     3
 10
22122.71291649999
 20
19698.984695000021
 30
0.0
 11
22122.71291649999
 21
19705.990211000011
 31
0.0
  0
LINE
  5
436A
  8
2-0
  6
CONTINUOUS
 62
     3
 10
22122.71291649999
 20
19705.990211000011
 30
0.0
 11
22127.713179499999
 21
19705.990211000011
 31
0.0
  0
LINE
  5
436B
  8
2-0
  6
CONTINUOUS
 62
     3
 10
22127.713179499999
 20
19705.990211000011
 30
0.0
 11
22127.713179499999
 21
19680.980973999998
 31
0.0
  0
LINE
  5
436C
  8
2-0
  6
CONTINUOUS
 62
     3
 10
22127.713179499999
 20
19680.980973999998
 30
0.0
 11
22109.719356499991
 21
19680.980973999998
 31
0.0
  0
LINE
  5
436D
  8
2-0
  6
CONTINUOUS
 62
     3
 10
22109.719356499991
 20
19680.980973999998
 30
0.0
 11
22109.719356499991
 21
19710.984537000011
 31
0.0
  0
LINE
  5
436E
  8
2-0
  6
CONTINUOUS
 62
     3
 10
22125.81086249997
 20
19680.980973999998
 30
0.0
 11
22119.81292149999
 21
19680.980973999998
 31
0.0
  0
LINE
  5
436F
  8
2-0
  6
CONTINUOUS
 62
     3
 10
22119.81292149999
 20
19680.980973999998
 30
0.0
 11
22119.81292149999
 21
19710.984537000011
 31
0.0
  0
LINE
  5
4370
  8
2-0
  6
CONTINUOUS
 62
     3
 10
22156.814082500001
 20
19710.984537000011
 30
0.0
 11
22119.81292149999
 21
19710.984537000011
 31
0.0
  0
LINE
  5
4371
  8
2-0
  6
CONTINUOUS
 62
     3
 10
22156.814082500001
 20
19680.980973999998
 30
0.0
 11
22156.814082500001
 21
19710.984537000011
 31
0.0
  0
LINE
  5
4372
  8
2-0
  6
CONTINUOUS
 62
     3
 10
22150.8082235
 20
19680.980973999998
 30
0.0
 11
22156.814082500001
 21
19680.980973999998
 31
0.0
  0
LINE
  5
4373
  8
2-0
  6
CONTINUOUS
 62
     3
 10
22166.9076475
 20
19680.980973999998
 30
0.0
 11
22166.9076475
 21
19710.984537000011
 31
0.0
  0
LINE
  5
4374
  8
2-0
  6
CONTINUOUS
 62
     3
 10
22148.91184449998
 20
19680.980973999998
 30
0.0
 11
22166.9076475
 21
19680.980973999998
 31
0.0
  0
LINE
  5
4375
  8
2-0
  6
CONTINUOUS
 62
     3
 10
22148.91184449998
 20
19705.990211000011
 30
0.0
 11
22148.91184449998
 21
19680.980973999998
 31
0.0
  0
LINE
  5
4376
  8
2-0
  6
CONTINUOUS
 62
     3
 10
22153.9022105
 20
19705.990211000011
 30
0.0
 11
22148.91184449998
 21
19705.990211000011
 31
0.0
  0
LINE
  5
4377
  8
2-0
  6
CONTINUOUS
 62
     3
 10
22153.9022105
 20
19698.984695000021
 30
0.0
 11
22153.9022105
 21
19705.990211000011
 31
0.0
  0
LINE
  5
4378
  8
2-0
  6
CONTINUOUS
 62
     3
 10
21465.906658
 20
19710.984537000011
 30
0.0
 11
22109.719356499991
 21
19710.984537000011
 31
0.0
  0
LINE
  5
4379
  8
2-0
  6
CONTINUOUS
 62
     3
 10
23515.197132000001
 20
19710.984537000011
 30
0.0
 11
22867.911606999991
 21
19710.984537000011
 31
0.0
  0
LINE
  5
437A
  8
2-0
  6
CONTINUOUS
 62
     3
 10
22810.719355999991
 20
19710.984537000011
 30
0.0
 11
22166.9076475
 21
19710.984537000011
 31
0.0
  0
LINE
  5
437B
  8
2-0
  6
CONTINUOUS
 62
     3
 10
21452.905179999991
 20
19698.984695000021
 30
0.0
 11
21452.905179999991
 21
19705.990211000011
 31
0.0
  0
LINE
  5
437C
  8
2-0
  6
CONTINUOUS
 62
     3
 10
21452.905179999991
 20
19705.990211000011
 30
0.0
 11
21447.904915999981
 21
19705.990211000011
 31
0.0
  0
LINE
  5
437D
  8
2-0
  6
CONTINUOUS
 62
     3
 10
21447.904915999981
 20
19705.990211000011
 30
0.0
 11
21447.904915999981
 21
19680.980973999998
 31
0.0
  0
LINE
  5
437E
  8
2-0
  6
CONTINUOUS
 62
     3
 10
21447.904915999981
 20
19680.980973999998
 30
0.0
 11
21465.906658
 21
19680.980973999998
 31
0.0
  0
LINE
  5
437F
  8
2-0
  6
CONTINUOUS
 62
     3
 10
21465.906658
 20
19680.980973999998
 30
0.0
 11
21465.906658
 21
19710.984537000011
 31
0.0
  0
LINE
  5
4380
  8
2-0
  6
CONTINUOUS
 62
     3
 10
21449.80723300001
 20
19680.980973999998
 30
0.0
 11
21455.811113
 21
19680.980973999998
 31
0.0
  0
LINE
  5
4381
  8
2-0
  6
CONTINUOUS
 62
     3
 10
21455.811113
 20
19680.980973999998
 30
0.0
 11
21455.811113
 21
19710.984537000011
 31
0.0
  0
LINE
  5
4382
  8
2-0
  6
CONTINUOUS
 62
     3
 10
21418.815890999991
 20
19710.984537000011
 30
0.0
 11
21455.811113
 21
19710.984537000011
 31
0.0
  0
LINE
  5
4383
  8
2-0
  6
CONTINUOUS
 62
     3
 10
21418.815890999991
 20
19680.980973999998
 30
0.0
 11
21418.815890999991
 21
19710.984537000011
 31
0.0
  0
LINE
  5
4384
  8
2-0
  6
CONTINUOUS
 62
     3
 10
21424.809872999991
 20
19680.980973999998
 30
0.0
 11
21418.815890999991
 21
19680.980973999998
 31
0.0
  0
LINE
  5
4385
  8
2-0
  6
CONTINUOUS
 62
     3
 10
21408.720345999998
 20
19680.980973999998
 30
0.0
 11
21408.720345999998
 21
19710.984537000011
 31
0.0
  0
LINE
  5
4386
  8
2-0
  6
CONTINUOUS
 62
     3
 10
21426.716149
 20
19680.980973999998
 30
0.0
 11
21408.720345999998
 21
19680.980973999998
 31
0.0
  0
LINE
  5
4387
  8
2-0
  6
CONTINUOUS
 62
     3
 10
21426.716149
 20
19705.990211000011
 30
0.0
 11
21426.716149
 21
19680.980973999998
 31
0.0
  0
LINE
  5
4388
  8
2-0
  6
CONTINUOUS
 62
     3
 10
21421.717864999999
 20
19705.990211000011
 30
0.0
 11
21426.716149
 21
19705.990211000011
 31
0.0
  0
LINE
  5
4389
  8
2-0
  6
CONTINUOUS
 62
     3
 10
21421.717864999999
 20
19698.984695000021
 30
0.0
 11
21421.717864999999
 21
19705.990211000011
 31
0.0
  0
LINE
  5
438A
  8
2-0
  6
CONTINUOUS
 62
     3
 10
21112.618743999981
 20
19710.984537000011
 30
0.0
 11
21408.720345999998
 21
19710.984537000011
 31
0.0
  0
LINE
  5
438B
  8
2-0
  6
CONTINUOUS
 62
     3
 10
23639.811785999991
 20
15263.12568899999
 30
0.0
 11
23639.811785999991
 21
14619.086831000001
 31
0.0
  0
LINE
  5
438C
  8
2-0
  6
CONTINUOUS
 62
     3
 10
23639.811785999991
 20
14561.890621
 30
0.0
 11
23639.811785999991
 21
13915.024258999991
 31
0.0
  0
CIRCLE
  5
438D
  8
2-0
  6
CONTINUOUS
 62
     4
 10
23597.313502000001
 20
21110.989156000011
 30
0.0
 40
200.00001
  0
TEXT
  5
438E
  8
2-0
  6
CONTINUOUS
 62
     7
 10
23545.681719000011
 20
21015.463527000022
 30
0.0
 40
160.0
  1
2
 72
     4
 11
23599.01505233334
 21
21095.463527000022
 31
0.0
  0
LINE
  5
438F
  8
0-6
  6
CONTINUOUS
 62
     6
 10
21870.448993499991
 20
18999.666309
 30
0.0
 11
22895.4892435
 21
18999.666309
 31
0.0
  0
LINE
  5
4390
  8
0-6
  6
CONTINUOUS
 62
     6
 10
21570.524215499991
 20
19557.019561000008
 30
0.0
 11
21465.908637500001
 21
19680.980973999998
 31
0.0
  0
LINE
  5
4391
  8
0-6
  6
CONTINUOUS
 62
     6
 10
21465.908637500001
 20
19680.980973999998
 30
0.0
 11
21524.666687500001
 21
19529.78930400002
 31
0.0
  0
LINE
  5
4392
  8
0-6
  6
CONTINUOUS
 62
     6
 10
21465.908637500001
 20
19680.980973999998
 30
0.0
 11
21570.524215499991
 21
19557.019561000008
 31
0.0
  0
LINE
  5
4393
  8
0-6
  6
CONTINUOUS
 62
     6
 10
21570.524215499991
 20
19557.019561000008
 30
0.0
 11
21524.666687500001
 21
19529.78930400002
 31
0.0
  0
LINE
  5
4394
  8
0-6
  6
CONTINUOUS
 62
     6
 10
21524.666687500001
 20
19529.78930400002
 30
0.0
 11
21465.908637500001
 21
19680.980973999998
 31
0.0
  0
LINE
  5
4395
  8
0-6
  6
CONTINUOUS
 62
     6
 10
21524.666687500001
 20
19529.78930400002
 30
0.0
 11
21570.524215499991
 21
19557.019561000008
 31
0.0
  0
LINE
  5
4396
  8
0-6
  6
CONTINUOUS
 62
     6
 10
21547.595451500001
 20
19543.406412000011
 30
0.0
 11
21870.448993499991
 21
18999.666309
 31
0.0
  0
TEXT
  5
4397
  8
0-6
  6
CONTINUOUS
 62
     7
 10
21950.4492575
 20
19079.668553000021
 30
0.0
 40
160.0
  1
間柱（後）
 72
     4
 11
22371.782590833329
 21
19159.668553000021
 31
0.0
  0
LINE
  5
4398
  8
0-5
  6
CONTINUOUS
 62
     4
 10
15532.066920999991
 20
4787.9233240000003
 30
0.0
 11
15532.066920999991
 21
4627.9237860000003
 31
0.0
  0
LINE
  5
4399
  8
0-5
  6
CONTINUOUS
 62
     4
 10
12614.066920999991
 20
4787.9233240000003
 30
0.0
 11
12614.066920999991
 21
4627.9237860000003
 31
0.0
  0
LINE
  5
439A
  8
0-5
  6
CONTINUOUS
 62
     4
 10
9696.0669209999924
 20
4787.9233240000003
 30
0.0
 11
9696.0669209999924
 21
4627.9237860000003
 31
0.0
  0
CIRCLE
  5
439B
  8
0-5
  6
CONTINUOUS
 62
     4
 10
12614.066920999991
 20
4427.9226310000013
 30
0.0
 40
199.9999949999999
  0
CIRCLE
  5
439C
  8
0-5
  6
CONTINUOUS
 62
     4
 10
15532.066920999991
 20
4427.9226310000013
 30
0.0
 40
199.9999949999999
  0
CIRCLE
  5
439D
  8
0-5
  6
CONTINUOUS
 62
     4
 10
9696.0669209999924
 20
4427.9226310000013
 30
0.0
 40
199.9999949999999
  0
TEXT
  5
439E
  8
0-5
  6
CONTINUOUS
 62
     7
 10
15485.11076099998
 20
4344.7118350000001
 30
0.0
 40
160.0
  1
A
 72
     4
 11
15538.444094333319
 21
4424.7118350000001
 31
0.0
  0
TEXT
  5
439F
  8
0-5
  6
CONTINUOUS
 62
     7
 10
12567.110760999991
 20
4344.7118350000001
 30
0.0
 40
160.0
  1
B
 72
     4
 11
12620.444094333319
 21
4424.7118350000001
 31
0.0
  0
TEXT
  5
43A0
  8
0-5
  6
CONTINUOUS
 62
     7
 10
9649.1107609999963
 20
4344.7118350000001
 30
0.0
 40
160.0
  1
C
 72
     4
 11
9702.4440943333302
 21
4424.7118350000001
 31
0.0
  0
LINE
  5
43A1
  8
0-5
  6
CONTINUOUS
 62
     4
 10
17292.150917999981
 20
6567.9232579999989
 30
0.0
 11
17412.151313999981
 21
6775.7702349999954
 31
0.0
  0
LINE
  5
43A2
  8
0-5
  6
CONTINUOUS
 62
     4
 10
17172.152500999971
 20
6775.7702349999954
 30
0.0
 11
17292.150917999981
 21
6567.9232579999989
 31
0.0
  0
LINE
  5
43A3
  8
0-5
  6
CONTINUOUS
 62
     4
 10
17412.151313999981
 20
6775.7702349999954
 30
0.0
 11
17172.152500999971
 21
6775.7702349999954
 31
0.0
  0
LINE
  5
43A4
  8
0-5
  6
CONTINUOUS
 62
     4
 10
15667.064216000001
 20
6567.9232579999998
 30
0.0
 11
17384.529110999982
 21
6567.9232579999989
 31
0.0
  0
TEXT
  5
43A5
  8
0-5
  6
CONTINUOUS
 62
     7
 10
16833.058988999979
 20
6855.7695089999979
 30
0.0
 40
160.0
  1
布基礎天端
 72
     4
 11
17291.725655666651
 21
6935.7695089999979
 31
0.0
  0
LINE
  5
43A6
  8
0-1
  6
CONTINUOUS
 62
     3
 10
21072.309807000009
 20
8475.9238119999973
 30
0.0
 11
23554.813237999992
 21
8475.9238119999973
 31
0.0
  0
LINE
  5
43AD
  8
0-1
  6
CONTINUOUS
 62
     3
 10
23647.312182999991
 20
6567.9237529999991
 30
0.0
 11
23547.312841999999
 21
6567.9237529999991
 31
0.0
  0
LINE
  5
43AE
  8
0-1
  6
CONTINUOUS
 62
     3
 10
23547.312841999999
 20
6567.9237529999991
 30
0.0
 11
23547.312841999999
 21
6467.9239179999959
 31
0.0
  0
LINE
  5
43AF
  8
0-1
  6
CONTINUOUS
 62
     3
 10
23647.312182999991
 20
6467.9239179999959
 30
0.0
 11
23647.312182999991
 21
6567.9237529999991
 31
0.0
  0
LINE
  5
43B0
  8
0-1
  6
CONTINUOUS
 62
     3
 10
23554.813237999992
 20
8785.9238449999975
 30
0.0
 11
23554.813237999992
 21
6567.9237529999991
 31
0.0
  0
LINE
  5
43B1
  8
0-1
  6
CONTINUOUS
 62
     3
 10
23509.814822
 20
8475.9238119999973
 30
0.0
 11
23509.814822
 21
6467.9239179999959
 31
0.0
  0
LINE
  5
43B2
  8
0-1
  6
CONTINUOUS
 62
     3
 10
23619.814689999988
 20
8915.9237789999934
 30
0.0
 11
23619.814689999988
 21
6567.9237529999991
 31
0.0
  0
LINE
  5
43B3
  8
0-1
  6
CONTINUOUS
 62
     3
 10
23639.811786999999
 20
8785.9238449999975
 30
0.0
 11
23639.811786999999
 21
6567.9237529999991
 31
0.0
  0
LINE
  5
43B5
  8
0-1
  6
CONTINUOUS
 62
     3
 10
20979.81086300001
 20
6567.9237529999991
 30
0.0
 11
21079.810203000001
 21
6567.9237529999991
 31
0.0
  0
LINE
  5
43B6
  8
0-1
  6
CONTINUOUS
 62
     3
 10
21079.810203000001
 20
6567.9237529999991
 30
0.0
 11
21079.810203000001
 21
6467.9239179999959
 31
0.0
  0
LINE
  5
43B7
  8
0-1
  6
CONTINUOUS
 62
     3
 10
20979.81086300001
 20
6467.9239179999959
 30
0.0
 11
20979.81086300001
 21
6567.9237529999991
 31
0.0
  0
LINE
  5
43B8
  8
0-1
  6
CONTINUOUS
 62
     3
 10
21117.312182999998
 20
8475.9238119999973
 30
0.0
 11
21117.312182999998
 21
6467.9239179999959
 31
0.0
  0
LINE
  5
43B9
  8
0-1
  6
CONTINUOUS
 62
     3
 10
21072.309807000009
 20
8785.9238449999975
 30
0.0
 11
21072.309807000009
 21
6567.9237529999991
 31
0.0
  0
LINE
  5
43BA
  8
0-1
  6
CONTINUOUS
 62
     3
 10
21007.310334999998
 20
8915.9237789999934
 30
0.0
 11
21007.310334999998
 21
6567.9237529999991
 31
0.0
  0
LINE
  5
43BB
  8
0-1
  6
CONTINUOUS
 62
     3
 10
20987.311258999998
 20
8785.9238449999975
 30
0.0
 11
20987.311258999998
 21
6567.9237529999991
 31
0.0
  0
LINE
  5
43BC
  8
0-1
  6
CONTINUOUS
 62
     3
 10
21117.312182999998
 20
6987.9246439999988
 30
0.0
 11
23509.814822
 21
6987.9246439999988
 31
0.0
  0
LINE
  5
43BD
  8
0-1
  6
CONTINUOUS
 62
     3
 10
21117.312182999998
 20
6922.9241819999988
 30
0.0
 11
23509.814822
 21
6922.9241819999988
 31
0.0
  0
LINE
  5
43BE
  8
0-1
  6
CONTINUOUS
 62
     3
 10
21117.312182999998
 20
6857.9242150000009
 30
0.0
 11
23509.814822
 21
6857.9242150000009
 31
0.0
  0
LINE
  5
43BF
  8
0-1
  6
CONTINUOUS
 62
     3
 10
21117.312182999998
 20
6792.923753
 30
0.0
 11
23509.814822
 21
6792.923753
 31
0.0
  0
LINE
  5
43C0
  8
0-1
  6
CONTINUOUS
 62
     3
 10
21117.312182999998
 20
6727.9242810000032
 30
0.0
 11
23509.814822
 21
6727.9242810000032
 31
0.0
  0
LINE
  5
43C1
  8
0-1
  6
CONTINUOUS
 62
     3
 10
21117.312182999998
 20
6662.9243139999999
 30
0.0
 11
23509.814822
 21
6662.9243139999999
 31
0.0
  0
LINE
  5
43C2
  8
0-1
  6
CONTINUOUS
 62
     3
 10
21117.312182999998
 20
6597.9243470000001
 30
0.0
 11
23509.814822
 21
6597.9243470000001
 31
0.0
  0
LINE
  5
43C3
  8
0-1
  6
CONTINUOUS
 62
     3
 10
21117.312182999998
 20
6532.9238849999983
 30
0.0
 11
23509.814822
 21
6532.9238849999983
 31
0.0
  0
LINE
  5
43C4
  8
0-1
  6
CONTINUOUS
 62
     3
 10
21117.312182999998
 20
8352.9239510000007
 30
0.0
 11
23509.814822
 21
8352.9239510000007
 31
0.0
  0
LINE
  5
43C5
  8
0-1
  6
CONTINUOUS
 62
     3
 10
21117.312182999998
 20
8287.9239839999973
 30
0.0
 11
23509.814822
 21
8287.9239839999973
 31
0.0
  0
LINE
  5
43C6
  8
0-1
  6
CONTINUOUS
 62
     3
 10
21117.312182999998
 20
8222.9245120000032
 30
0.0
 11
23509.814822
 21
8222.9245120000032
 31
0.0
  0
LINE
  5
43C7
  8
0-1
  6
CONTINUOUS
 62
     3
 10
21117.312182999998
 20
8157.924544999998
 30
0.0
 11
23509.814822
 21
8157.924544999998
 31
0.0
  0
LINE
  5
43C8
  8
0-1
  6
CONTINUOUS
 62
     3
 10
21117.312182999998
 20
8092.924578000001
 30
0.0
 11
23509.814822
 21
8092.924578000001
 31
0.0
  0
LINE
  5
43C9
  8
0-1
  6
CONTINUOUS
 62
     3
 10
21117.312182999998
 20
8027.9241159999974
 30
0.0
 11
23509.814822
 21
8027.9241159999974
 31
0.0
  0
LINE
  5
43CA
  8
0-1
  6
CONTINUOUS
 62
     3
 10
21117.312182999998
 20
7962.9241489999986
 30
0.0
 11
23509.814822
 21
7962.9241489999986
 31
0.0
  0
LINE
  5
43CB
  8
0-1
  6
CONTINUOUS
 62
     3
 10
21117.312182999998
 20
7897.9246769999982
 30
0.0
 11
23509.814822
 21
7897.9246769999982
 31
0.0
  0
LINE
  5
43CC
  8
0-1
  6
CONTINUOUS
 62
     3
 10
21117.312182999998
 20
7832.9247099999948
 30
0.0
 11
23509.814822
 21
7832.9247099999948
 31
0.0
  0
LINE
  5
43CD
  8
0-1
  6
CONTINUOUS
 62
     3
 10
21117.312182999998
 20
7767.924248000003
 30
0.0
 11
23509.814822
 21
7767.924248000003
 31
0.0
  0
LINE
  5
43CE
  8
0-1
  6
CONTINUOUS
 62
     3
 10
21117.312182999998
 20
7702.9242809999978
 30
0.0
 11
23509.814822
 21
7702.9242809999978
 31
0.0
  0
LINE
  5
43CF
  8
0-1
  6
CONTINUOUS
 62
     3
 10
21117.312182999998
 20
7637.9243139999999
 30
0.0
 11
23509.814822
 21
7637.9243139999999
 31
0.0
  0
LINE
  5
43D0
  8
0-1
  6
CONTINUOUS
 62
     3
 10
21117.312182999998
 20
7572.923851999999
 30
0.0
 11
23509.814822
 21
7572.923851999999
 31
0.0
  0
LINE
  5
43D1
  8
0-1
  6
CONTINUOUS
 62
     3
 10
21117.312182999998
 20
7507.9238849999938
 30
0.0
 11
23509.814822
 21
7507.9238849999938
 31
0.0
  0
LINE
  5
43D2
  8
0-1
  6
CONTINUOUS
 62
     3
 10
21117.312182999998
 20
7442.9244129999997
 30
0.0
 11
23509.814822
 21
7442.9244129999997
 31
0.0
  0
LINE
  5
43D3
  8
0-1
  6
CONTINUOUS
 62
     3
 10
21117.312182999998
 20
7377.9244459999973
 30
0.0
 11
23509.814822
 21
7377.9244459999973
 31
0.0
  0
LINE
  5
43D4
  8
0-1
  6
CONTINUOUS
 62
     3
 10
21117.312182999998
 20
7312.9244789999966
 30
0.0
 11
23509.814822
 21
7312.9244789999966
 31
0.0
  0
LINE
  5
43D5
  8
0-1
  6
CONTINUOUS
 62
     3
 10
21117.312182999998
 20
7247.9240170000021
 30
0.0
 11
23509.814822
 21
7247.9240170000021
 31
0.0
  0
LINE
  5
43D6
  8
0-1
  6
CONTINUOUS
 62
     3
 10
21117.312182999998
 20
7182.9240499999978
 30
0.0
 11
23509.814822
 21
7182.9240499999978
 31
0.0
  0
LINE
  5
43D7
  8
0-1
  6
CONTINUOUS
 62
     3
 10
21117.312182999998
 20
7117.9245780000001
 30
0.0
 11
23509.814822
 21
7117.9245780000001
 31
0.0
  0
LINE
  5
43D8
  8
0-1
  6
CONTINUOUS
 62
     3
 10
21117.312182999998
 20
7052.9246109999985
 30
0.0
 11
23509.814822
 21
7052.9246109999985
 31
0.0
  0
LINE
  5
43D9
  8
0-1
  6
CONTINUOUS
 62
     3
 10
21117.312182999998
 20
8407.3839709999975
 30
0.0
 11
23509.814822
 21
8407.3839709999975
 31
0.0
  0
LINE
  5
43DA
  8
0-1
  6
CONTINUOUS
 62
     3
 10
20979.81086300001
 20
6467.9239179999959
 30
0.0
 11
23647.312182999991
 21
6467.9239179999959
 31
0.0
  0
LINE
  5
43EC
  8
0-2
  6
CONTINUOUS
 62
     4
 10
22677.25352200001
 20
7215.1506119999976
 30
0.0
 11
22577.254182000001
 21
7215.1506119999976
 31
0.0
  0
LINE
  5
43ED
  8
0-2
  6
CONTINUOUS
 62
     4
 10
21949.869521999979
 20
7215.1506119999976
 30
0.0
 11
22049.868861999988
 21
7215.1506119999976
 31
0.0
  0
LINE
  5
43EE
  8
0-5
  6
CONTINUOUS
 62
     4
 10
23597.313502000001
 20
4787.9243139999962
 30
0.0
 11
23597.313502000001
 21
4627.9247759999989
 31
0.0
  0
LINE
  5
43EF
  8
0-5
  6
CONTINUOUS
 62
     4
 10
21029.813502000001
 20
4787.9243139999962
 30
0.0
 11
21029.813502000001
 21
4627.9247759999989
 31
0.0
  0
LINE
  5
43F0
  8
2-0
  6
CENTER2
 62
     6
 10
23597.313502000001
 20
6205.2714950000009
 30
0.0
 11
23597.313502000001
 21
7242.414522
 31
0.0
  0
LINE
  5
43F1
  8
2-0
  6
CENTER2
 62
     6
 10
21029.813502000001
 20
6205.2714950000009
 30
0.0
 11
21029.813502000001
 21
7242.414522
 31
0.0
  0
CIRCLE
  5
43FA
  8
0-5
  6
CONTINUOUS
 62
     4
 10
23597.313502000001
 20
4427.9236209999972
 30
0.0
 40
199.9999949999999
  0
CIRCLE
  5
43FB
  8
0-5
  6
CONTINUOUS
 62
     4
 10
21029.813502000001
 20
4427.9236209999972
 30
0.0
 40
199.9999949999999
  0
TEXT
  5
43FC
  8
0-5
  6
CONTINUOUS
 62
     7
 10
23545.400626999999
 20
4338.4486389999984
 30
0.0
 40
160.0
  1
2
 72
     4
 11
23598.733960333331
 21
4418.4486389999984
 31
0.0
  0
TEXT
  5
43FD
  8
0-5
  6
CONTINUOUS
 62
     7
 10
20977.90062800001
 20
4338.4486389999984
 30
0.0
 40
160.0
  1
1
 72
     4
 11
21004.567294666671
 21
4418.4486389999984
 31
0.0
  0
CIRCLE
  5
43FE
  8
0-4
  6
CONTINUOUS
 62
     4
 10
22313.563502000001
 20
6953.9803539999957
 30
0.0
 40
18.487504999999981
  0
LINE
  5
43FF
  8
SUNPOU
  6
CONTINUOUS
 10
20747.31350199999
 20
5267.9239180000041
 30
0.0
 11
20389.358495278891
 21
5267.9239180000041
 31
0.0
  0
LINE
  5
4400
  8
SUNPOU
  6
CONTINUOUS
 10
23879.813502000001
 20
5267.9239180000041
 30
0.0
 11
24237.768508721081
 21
5267.9239180000041
 31
0.0
  0
TEXT
  5
4401
  8
0-5
  6
CONTINUOUS
 62
     7
 10
20411.635582999999
 20
7197.2841647419982
 30
0.0
 40
160.0
  1
(2131.5)
 50
90.0
 72
     4
 11
20331.635582999999
 21
7650.6174980753312
 31
0.0
  0
TEXT
  5
4402
  8
2-0
  6
CONTINUOUS
 62
     7
 10
20994.240102
 20
3506.7741969999988
 30
0.0
 40
160.0
  1
正 面 立 面 図
 72
     4
 11
21639.573435333328
 21
3586.7741969999988
 31
0.0
  0
TEXT
  5
4403
  8
2-0
  6
CONTINUOUS
 62
     7
 10
22991.065620470959
 20
3533.9695660000002
 30
0.0
 40
160.0
  1
1
 72
     4
 11
23017.732287137631
 21
3613.9695660000002
 31
0.0
  0
TEXT
  5
4404
  8
2-0
  6
CONTINUOUS
 62
     7
 10
23234.154337721651
 20
3453.9710340000001
 30
0.0
 40
160.0
  1
80
 72
     4
 11
23354.154337721651
 21
3533.9710340000001
 31
0.0
  0
TEXT
  5
4405
  8
2-0
  6
CONTINUOUS
 62
     7
 10
22492.067586470948
 20
3506.7741969999988
 30
0.0
 40
160.0
  1
(S=  /   )
 72
     4
 11
23052.067586470948
 21
3586.7741969999988
 31
0.0
  0
LINE
  5
4406
  8
SUNPOU
  6
CONTINUOUS
 10
9473.565666999988
 20
9715.9239439999983
 30
0.0
 11
8998.2765543597579
 21
9715.9239439999983
 31
0.0
  0
LINE
  5
4407
  8
SUNPOU
  6
CONTINUOUS
 10
10730.348639
 20
19890.982161000022
 30
0.0
 11
10730.348639
 21
20687.949428778458
 31
0.0
  0
LINE
  5
4408
  8
SUNPOU
  6
CONTINUOUS
 10
10730.348314000001
 20
13639.990937
 30
0.0
 11
10730.348314000001
 21
12964.56482118961
 31
0.0
  0
LINE
  5
440B
  8
WAKUSEN-01
 10
868.00000000000193
 20
22484.000000000011
 30
0.0
 11
32764.000000000011
 21
22484.000000000011
 31
0.0
  0
LINE
  5
440E
  8
WAKUSEN-01
 10
20560.0
 20
2484.0
 30
0.0
 11
32764.0
 21
2484.0
 31
0.0
  0
LINE
  5
440F
  8
WAKUSEN-02
 10
20560.0
 20
1655.9999999999991
 30
0.0
 11
26868.0
 21
1655.9999999999991
 31
0.0
  0
TEXT
  5
4410
  8
WAKUMOJI-01
 10
20670.260259962761
 20
2125.9030093393221
 30
0.0
 40
240.0
  1
名　称
  7
WAKUMOJI
  0
TEXT
  5
4411
  8
WAKUMOJI-01
 10
20656.505485091919
 20
1319.12897497982
 30
0.0
 40
240.0
  1
機種名
  7
WAKUMOJI
  0
LINE
  5
4414
  8
YODOROGO
 10
29977.604341291921
 20
1995.7494964292871
 30
0.0
 11
29829.604341291921
 21
1995.7494964292871
 31
0.0
1001
AUTOCAD_POSTSCRIPT_FIGURE
1002
{
1000
PSFILL
1000
Grayscale
1000
Grayscale
1070
    25
1002
}
  0
LINE
  5
4415
  8
YODOROGO
 10
29829.604341291921
 20
1947.749496429288
 30
0.0
 11
29977.604341291921
 21
1947.749496429288
 31
0.0
1001
AUTOCAD_POSTSCRIPT_FIGURE
1002
{
1000
PSFILL
1000
Grayscale
1000
Grayscale
1070
    25
1002
}
  0
LINE
  5
4416
  8
YODOROGO
 10
29977.604341291921
 20
1907.7494964292871
 30
0.0
 11
29829.604341291921
 21
1907.7494964292871
 31
0.0
1001
AUTOCAD_POSTSCRIPT_FIGURE
1002
{
1000
PSFILL
1000
Grayscale
1000
Grayscale
1070
    25
1002
}
  0
LINE
  5
4417
  8
YODOROGO
 10
29829.604341291921
 20
1859.749496429288
 30
0.0
 11
29977.604341291921
 21
1859.749496429288
 31
0.0
1001
AUTOCAD_POSTSCRIPT_FIGURE
1002
{
1000
PSFILL
1000
Grayscale
1000
Grayscale
1070
    25
1002
}
  0
LINE
  5
4418
  8
YODOROGO
 10
29977.604341291921
 20
1819.7494964292871
 30
0.0
 11
29829.604341291921
 21
1819.7494964292871
 31
0.0
1001
AUTOCAD_POSTSCRIPT_FIGURE
1002
{
1000
PSFILL
1000
Grayscale
1000
Grayscale
1070
    25
1002
}
  0
LINE
  5
4419
  8
YODOROGO
 10
29921.60434129191
 20
1707.749496429288
 30
0.0
 11
29977.604341291921
 21
1707.749496429288
 31
0.0
1001
AUTOCAD_POSTSCRIPT_FIGURE
1002
{
1000
PSFILL
1000
Grayscale
1000
Grayscale
1070
    25
1002
}
  0
LINE
  5
441A
  8
YODOROGO
 10
29737.604341291921
 20
1427.749496429288
 30
0.0
 11
29937.604341291932
 21
1481.3393349155101
 31
0.0
  0
LINE
  5
441B
  8
YODOROGO
 10
29949.60434129191
 20
1707.749496429288
 30
0.0
 11
29885.604341291921
 21
1707.749496429288
 31
0.0
  0
ARC
  5
441C
  8
YODOROGO
 10
30254.34774982791
 20
1807.864609233261
 30
0.0
 40
381.88686420564721
 50
213.96111677667841
 51
264.47872074317792
  0
ARC
  5
441D
  8
YODOROGO
 10
30254.347749827921
 20
1807.864609233302
 30
0.0
 40
381.8868642056816
 50
208.14114420486601
 51
212.9210361185994
  0
LINE
  5
441E
  8
YODOROGO
 10
29771.409872985321
 20
1556.807661346234
 30
0.0
 11
29933.78413250855
 21
1600.3157130570869
 31
0.0
  0
LINE
  5
441F
  8
YODOROGO
 10
29737.604341291921
 20
1427.749496429288
 30
0.0
 11
29937.604341291932
 21
1481.3393349155101
 31
0.0
  0
LINE
  5
4420
  8
YODOROGO
 10
29949.60434129191
 20
1707.749496429288
 30
0.0
 11
29885.604341291921
 21
1707.749496429288
 31
0.0
  0
ARC
  5
4421
  8
YODOROGO
 10
30254.34774982791
 20
1807.864609233261
 30
0.0
 40
381.88686420564721
 50
213.96111677667841
 51
264.47872074317792
  0
LINE
  5
4422
  8
YODOROGO
 10
28793.60434129191
 20
1819.7494964292871
 30
0.0
 11
28433.60434129191
 21
1819.7494964292871
 31
0.0
  0
LINE
  5
4423
  8
YODOROGO
 10
28513.60434129191
 20
1427.749496429288
 30
0.0
 11
28793.60434129191
 21
1427.749496429288
 31
0.0
  0
LINE
  5
4424
  8
YODOROGO
 10
28729.604341291921
 20
1923.7494964292871
 30
0.0
 11
28497.60434129191
 21
1923.7494964292871
 31
0.0
  0
LINE
  5
4425
  8
YODOROGO
 10
28585.604341291921
 20
2027.749496429288
 30
0.0
 11
28657.604341291921
 21
2027.749496429288
 31
0.0
  0
LINE
  5
4426
  8
YODOROGO
 10
28433.60434129191
 20
1707.749496429288
 30
0.0
 11
28433.60434129191
 21
1507.749496429288
 31
0.0
  0
LINE
  5
4427
  8
YODOROGO
 10
28497.60434129191
 20
1563.7494964292871
 30
0.0
 11
28497.60434129191
 21
1707.749496429288
 31
0.0
  0
LINE
  5
4428
  8
YODOROGO
 10
28585.604341291921
 20
1747.74949642929
 30
0.0
 11
28585.604341291921
 21
1547.749496429288
 31
0.0
  0
LINE
  5
4429
  8
YODOROGO
 10
27857.604341291921
 20
1683.749496429288
 30
0.0
 11
27777.604341291921
 21
1619.9724140445701
 31
0.0
  0
LINE
  5
442A
  8
YODOROGO
 10
27937.604341291921
 20
1619.9724140445701
 30
0.0
 11
27857.604341291921
 21
1683.749496429288
 31
0.0
  0
LINE
  5
442B
  8
YODOROGO
 10
27857.604341291921
 20
1707.749496429288
 30
0.0
 11
27937.604341291921
 21
1643.9724140445701
 31
0.0
  0
LINE
  5
442C
  8
YODOROGO
 10
27777.604341291921
 20
1643.9724140445701
 30
0.0
 11
27857.604341291921
 21
1707.749496429288
 31
0.0
  0
LINE
  5
442D
  8
YODOROGO
 10
28040.913204016892
 20
1659.749496429288
 30
0.0
 11
28040.913204016892
 21
1683.7494964292871
 31
0.0
  0
LINE
  5
442E
  8
YODOROGO
 10
27977.604341291921
 20
1683.7494964292871
 30
0.0
 11
27977.604341291921
 21
1667.749496429285
 31
0.0
  0
LINE
  5
442F
  8
YODOROGO
 10
28098.135520230931
 20
1707.749496429288
 30
0.0
 11
28098.135520230931
 21
1655.5036372746561
 31
0.0
1001
AUTOCAD_POSTSCRIPT_FIGURE
1002
{
1000
PSFILL
1000
Grayscale
1000
Grayscale
1070
   100
1002
}
  0
LINE
  5
4430
  8
YODOROGO
 10
28082.135520230921
 20
1655.5036372746561
 30
0.0
 11
28082.135520230921
 21
1707.749496429288
 31
0.0
1001
AUTOCAD_POSTSCRIPT_FIGURE
1002
{
1000
PSFILL
1000
Grayscale
1000
Grayscale
1070
   100
1002
}
  0
LINE
  5
4431
  8
YODOROGO
 10
27809.604341291921
 20
1608.771904043258
 30
0.0
 11
27809.604341291921
 21
1632.771904043258
 31
0.0
  0
LINE
  5
4432
  8
YODOROGO
 10
27905.604341291921
 20
1608.771904043258
 30
0.0
 11
27809.604341291921
 21
1608.771904043258
 31
0.0
  0
LINE
  5
4433
  8
YODOROGO
 10
27905.604341291921
 20
1632.771904043258
 30
0.0
 11
27905.604341291921
 21
1608.771904043258
 31
0.0
  0
LINE
  5
4434
  8
YODOROGO
 10
27809.604341291921
 20
1632.771904043258
 30
0.0
 11
27905.604341291921
 21
1632.771904043258
 31
0.0
  0
LINE
  5
4435
  8
YODOROGO
 10
27824.509588915738
 20
1568.5028573704751
 30
0.0
 11
27785.604341291921
 21
1475.7494964292871
 31
0.0
1001
AUTOCAD_POSTSCRIPT_FIGURE
1002
{
1000
PSFILL
1000
Grayscale
1000
Grayscale
1070
   100
1002
}
  0
LINE
  5
4436
  8
YODOROGO
 10
27777.604341291921
 20
1568.5028573704751
 30
0.0
 11
27824.509588915738
 21
1568.5028573704751
 31
0.0
1001
AUTOCAD_POSTSCRIPT_FIGURE
1002
{
1000
PSFILL
1000
Grayscale
1000
Grayscale
1070
   100
1002
}
  0
LINE
  5
4437
  8
YODOROGO
 10
27777.604341291921
 20
1588.5028573704751
 30
0.0
 11
27777.604341291921
 21
1568.5028573704751
 31
0.0
1001
AUTOCAD_POSTSCRIPT_FIGURE
1002
{
1000
PSFILL
1000
Grayscale
1000
Grayscale
1070
   100
1002
}
  0
LINE
  5
4438
  8
YODOROGO
 10
27937.604341291921
 20
1588.5028573704751
 30
0.0
 11
27777.604341291921
 21
1588.5028573704751
 31
0.0
1001
AUTOCAD_POSTSCRIPT_FIGURE
1002
{
1000
PSFILL
1000
Grayscale
1000
Grayscale
1070
   100
1002
}
  0
LINE
  5
4439
  8
YODOROGO
 10
27937.604341291921
 20
1568.5028573704751
 30
0.0
 11
27937.604341291921
 21
1588.5028573704751
 31
0.0
1001
AUTOCAD_POSTSCRIPT_FIGURE
1002
{
1000
PSFILL
1000
Grayscale
1000
Grayscale
1070
   100
1002
}
  0
LINE
  5
443A
  8
YODOROGO
 10
27844.509588915738
 20
1568.5028573704751
 30
0.0
 11
27937.604341291921
 21
1568.5028573704751
 31
0.0
1001
AUTOCAD_POSTSCRIPT_FIGURE
1002
{
1000
PSFILL
1000
Grayscale
1000
Grayscale
1070
   100
1002
}
  0
LINE
  5
443B
  8
YODOROGO
 10
27815.546718284771
 20
1495.7494964292871
 30
0.0
 11
27844.509588915738
 21
1568.5028573704751
 31
0.0
1001
AUTOCAD_POSTSCRIPT_FIGURE
1002
{
1000
PSFILL
1000
Grayscale
1000
Grayscale
1070
   100
1002
}
  0
LINE
  5
443C
  8
YODOROGO
 10
27902.054790808648
 20
1495.7494964292871
 30
0.0
 11
27815.546718284771
 21
1495.7494964292871
 31
0.0
1001
AUTOCAD_POSTSCRIPT_FIGURE
1002
{
1000
PSFILL
1000
Grayscale
1000
Grayscale
1070
   100
1002
}
  0
LINE
  5
443D
  8
YODOROGO
 10
27885.065004790951
 20
1536.2338106976929
 30
0.0
 11
27902.054790808648
 21
1495.7494964292871
 31
0.0
1001
AUTOCAD_POSTSCRIPT_FIGURE
1002
{
1000
PSFILL
1000
Grayscale
1000
Grayscale
1070
   100
1002
}
  0
LINE
  5
443E
  8
YODOROGO
 10
27901.065004790951
 20
1536.2338106976929
 30
0.0
 11
27885.065004790951
 21
1536.2338106976929
 31
0.0
1001
AUTOCAD_POSTSCRIPT_FIGURE
1002
{
1000
PSFILL
1000
Grayscale
1000
Grayscale
1070
   100
1002
}
  0
LINE
  5
443F
  8
YODOROGO
 10
27929.604341291921
 20
1475.7494964292871
 30
0.0
 11
27901.065004790951
 21
1536.2338106976929
 31
0.0
1001
AUTOCAD_POSTSCRIPT_FIGURE
1002
{
1000
PSFILL
1000
Grayscale
1000
Grayscale
1070
   100
1002
}
  0
LINE
  5
4440
  8
YODOROGO
 10
27785.604341291921
 20
1475.7494964292871
 30
0.0
 11
27929.604341291921
 21
1475.7494964292871
 31
0.0
1001
AUTOCAD_POSTSCRIPT_FIGURE
1002
{
1000
PSFILL
1000
Grayscale
1000
Grayscale
1070
   100
1002
}
  0
LINE
  5
4441
  8
YODOROGO
 10
27777.604341291921
 20
1619.9724140445701
 30
0.0
 11
27777.604341291921
 21
1643.9724140445701
 31
0.0
  0
LINE
  5
4442
  8
YODOROGO
 10
27937.604341291921
 20
1643.9724140445701
 30
0.0
 11
27937.604341291921
 21
1619.9724140445701
 31
0.0
  0
ARC
  5
4443
  8
YODOROGO
 10
28225.940442146959
 20
1600.877765325326
 30
0.0
 40
175.9999999999998
 50
280.3644312771313
 51
3.5414836592180561
  0
ARC
  5
4444
  8
YODOROGO
 10
28235.756030759301
 20
1633.5978069619041
 30
0.0
 40
111.9999999999982
 50
281.24905825041549
 51
348.75094174958321
  0
LINE
  5
4445
  8
YODOROGO
 10
28257.604341291921
 20
1523.7494964292871
 30
0.0
 11
28257.604341291921
 21
1427.749496429288
 31
0.0
  0
LINE
  5
4446
  8
YODOROGO
 10
28020.088903736909
 20
1610.650565061914
 30
0.0
 11
28040.913204016892
 21
1659.749496429288
 31
0.0
  0
LINE
  5
4447
  8
YODOROGO
 10
28041.604341291921
 20
1583.120489948401
 30
0.0
 11
28020.088903736909
 21
1610.650565061914
 31
0.0
  0
LINE
  5
4448
  8
YODOROGO
 10
28041.604341291921
 20
1563.120489948398
 30
0.0
 11
28041.604341291921
 21
1583.120489948401
 31
0.0
  0
LINE
  5
4449
  8
YODOROGO
 10
28017.604341291921
 20
1585.2370637495301
 30
0.0
 11
28041.604341291921
 21
1563.120489948398
 31
0.0
  0
LINE
  5
444A
  8
YODOROGO
 10
28017.604341291921
 20
1475.7494964292871
 30
0.0
 11
28017.604341291921
 21
1585.2370637495301
 31
0.0
  0
LINE
  5
444B
  8
YODOROGO
 10
28001.604341291921
 20
1475.7494964292871
 30
0.0
 11
28017.604341291921
 21
1475.7494964292871
 31
0.0
  0
LINE
  5
444C
  8
YODOROGO
 10
28001.604341291921
 20
1580.0053496897469
 30
0.0
 11
28001.604341291921
 21
1475.7494964292871
 31
0.0
  0
LINE
  5
444D
  8
YODOROGO
 10
27977.604341291921
 20
1532.7680790334291
 30
0.0
 11
28001.604341291921
 21
1580.0053496897469
 31
0.0
  0
LINE
  5
444E
  8
YODOROGO
 10
27977.604341291921
 20
1556.76807903343
 30
0.0
 11
27977.604341291921
 21
1532.7680790334291
 31
0.0
  0
LINE
  5
444F
  8
YODOROGO
 10
28025.828774291349
 20
1667.749496429285
 30
0.0
 11
27977.604341291921
 21
1556.76807903343
 31
0.0
  0
LINE
  5
4450
  8
YODOROGO
 10
27977.604341291921
 20
1667.749496429285
 30
0.0
 11
28025.828774291349
 21
1667.749496429285
 31
0.0
  0
LINE
  5
4451
  8
YODOROGO
 10
28050.135520230899
 20
1655.5036372746561
 30
0.0
 11
28082.135520230921
 21
1655.5036372746561
 31
0.0
1001
AUTOCAD_POSTSCRIPT_FIGURE
1002
{
1000
PSFILL
1000
Grayscale
1000
Grayscale
1070
   100
1002
}
  0
LINE
  5
4452
  8
YODOROGO
 10
28050.135520230899
 20
1631.5036372746561
 30
0.0
 11
28050.135520230899
 21
1655.5036372746561
 31
0.0
1001
AUTOCAD_POSTSCRIPT_FIGURE
1002
{
1000
PSFILL
1000
Grayscale
1000
Grayscale
1070
   100
1002
}
  0
LINE
  5
4453
  8
YODOROGO
 10
28082.135520230921
 20
1631.5036372746561
 30
0.0
 11
28050.135520230899
 21
1631.5036372746561
 31
0.0
1001
AUTOCAD_POSTSCRIPT_FIGURE
1002
{
1000
PSFILL
1000
Grayscale
1000
Grayscale
1070
   100
1002
}
  0
LINE
  5
4454
  8
YODOROGO
 10
28082.135520230921
 20
1499.749496429288
 30
0.0
 11
28082.135520230921
 21
1631.5036372746561
 31
0.0
1001
AUTOCAD_POSTSCRIPT_FIGURE
1002
{
1000
PSFILL
1000
Grayscale
1000
Grayscale
1070
   100
1002
}
  0
LINE
  5
4455
  8
YODOROGO
 10
28050.135520230921
 20
1499.749496429288
 30
0.0
 11
28082.135520230921
 21
1499.749496429288
 31
0.0
1001
AUTOCAD_POSTSCRIPT_FIGURE
1002
{
1000
PSFILL
1000
Grayscale
1000
Grayscale
1070
   100
1002
}
  0
LINE
  5
4456
  8
YODOROGO
 10
28050.135520230921
 20
1475.7494964292871
 30
0.0
 11
28050.135520230921
 21
1499.749496429288
 31
0.0
1001
AUTOCAD_POSTSCRIPT_FIGURE
1002
{
1000
PSFILL
1000
Grayscale
1000
Grayscale
1070
   100
1002
}
  0
LINE
  5
4457
  8
YODOROGO
 10
28137.604341291921
 20
1475.7494964292871
 30
0.0
 11
28050.135520230921
 21
1475.7494964292871
 31
0.0
1001
AUTOCAD_POSTSCRIPT_FIGURE
1002
{
1000
PSFILL
1000
Grayscale
1000
Grayscale
1070
   100
1002
}
  0
LINE
  5
4458
  8
YODOROGO
 10
28137.604341291921
 20
1499.749496429288
 30
0.0
 11
28137.604341291921
 21
1475.7494964292871
 31
0.0
1001
AUTOCAD_POSTSCRIPT_FIGURE
1002
{
1000
PSFILL
1000
Grayscale
1000
Grayscale
1070
   100
1002
}
  0
LINE
  5
4459
  8
YODOROGO
 10
28098.135520230931
 20
1499.749496429288
 30
0.0
 11
28137.604341291921
 21
1499.749496429288
 31
0.0
1001
AUTOCAD_POSTSCRIPT_FIGURE
1002
{
1000
PSFILL
1000
Grayscale
1000
Grayscale
1070
   100
1002
}
  0
LINE
  5
445A
  8
YODOROGO
 10
28098.135520230931
 20
1631.5036372746561
 30
0.0
 11
28098.135520230931
 21
1499.749496429288
 31
0.0
1001
AUTOCAD_POSTSCRIPT_FIGURE
1002
{
1000
PSFILL
1000
Grayscale
1000
Grayscale
1070
   100
1002
}
  0
LINE
  5
445B
  8
YODOROGO
 10
28137.604341291921
 20
1631.5036372746561
 30
0.0
 11
28098.135520230931
 21
1631.5036372746561
 31
0.0
1001
AUTOCAD_POSTSCRIPT_FIGURE
1002
{
1000
PSFILL
1000
Grayscale
1000
Grayscale
1070
   100
1002
}
  0
LINE
  5
445C
  8
YODOROGO
 10
28137.604341291921
 20
1655.5036372746561
 30
0.0
 11
28137.604341291921
 21
1631.5036372746561
 31
0.0
1001
AUTOCAD_POSTSCRIPT_FIGURE
1002
{
1000
PSFILL
1000
Grayscale
1000
Grayscale
1070
   100
1002
}
  0
LINE
  5
445D
  8
YODOROGO
 10
28098.135520230931
 20
1655.5036372746561
 30
0.0
 11
28137.604341291921
 21
1655.5036372746561
 31
0.0
1001
AUTOCAD_POSTSCRIPT_FIGURE
1002
{
1000
PSFILL
1000
Grayscale
1000
Grayscale
1070
   100
1002
}
  0
LINE
  5
445E
  8
YODOROGO
 10
28401.60434129191
 20
1667.749496429288
 30
0.0
 11
28345.604341291921
 21
1667.749496429288
 31
0.0
  0
LINE
  5
445F
  8
YODOROGO
 10
28401.60434129191
 20
1611.749496429288
 30
0.0
 11
28401.60434129191
 21
1667.749496429288
 31
0.0
  0
LINE
  5
4460
  8
YODOROGO
 10
28345.604341291921
 20
1667.749496429288
 30
0.0
 11
28345.604341291921
 21
1611.749496429288
 31
0.0
  0
ARC
  5
4461
  8
YODOROGO
 10
28513.60434129191
 20
1507.749496429288
 30
0.0
 40
80.0
 50
180.0
 51
270.0
  0
ARC
  5
4462
  8
YODOROGO
 10
28537.604341291921
 20
1563.7494964292871
 30
0.0
 40
40.0
 50
180.0
 51
270.0
  0
LINE
  5
4463
  8
YODOROGO
 10
28561.604341291932
 20
1523.7494964292871
 30
0.0
 11
28537.604341291921
 21
1523.7494964292871
 31
0.0
  0
ARC
  5
4464
  8
YODOROGO
 10
28561.604341291932
 20
1547.749496429285
 30
0.0
 40
23.999999999996358
 50
270.0
 51
0.0000000000054281
  0
LINE
  5
4465
  8
YODOROGO
 10
27801.604341291921
 20
1890.786580793706
 30
0.0
 11
27777.604341291921
 21
1843.776747951672
 31
0.0
1001
AUTOCAD_POSTSCRIPT_FIGURE
1002
{
1000
PSFILL
1000
Grayscale
1000
Grayscale
1070
   100
1002
}
  0
LINE
  5
4466
  8
YODOROGO
 10
27801.604341291921
 20
1747.749496429286
 30
0.0
 11
27801.604341291921
 21
1890.786580793706
 31
0.0
1001
AUTOCAD_POSTSCRIPT_FIGURE
1002
{
1000
PSFILL
1000
Grayscale
1000
Grayscale
1070
   100
1002
}
  0
LINE
  5
4467
  8
YODOROGO
 10
27817.604341291921
 20
1747.749496429286
 30
0.0
 11
27801.604341291921
 21
1747.749496429286
 31
0.0
1001
AUTOCAD_POSTSCRIPT_FIGURE
1002
{
1000
PSFILL
1000
Grayscale
1000
Grayscale
1070
   100
1002
}
  0
LINE
  5
4468
  8
YODOROGO
 10
27817.604341291921
 20
1893.7713320852661
 30
0.0
 11
27817.604341291921
 21
1747.749496429286
 31
0.0
1001
AUTOCAD_POSTSCRIPT_FIGURE
1002
{
1000
PSFILL
1000
Grayscale
1000
Grayscale
1070
   100
1002
}
  0
LINE
  5
4469
  8
YODOROGO
 10
27841.604341291921
 20
1867.6547582841361
 30
0.0
 11
27817.604341291921
 21
1893.7713320852661
 31
0.0
1001
AUTOCAD_POSTSCRIPT_FIGURE
1002
{
1000
PSFILL
1000
Grayscale
1000
Grayscale
1070
   100
1002
}
  0
LINE
  5
446A
  8
YODOROGO
 10
27841.604341291921
 20
1883.6547582841361
 30
0.0
 11
27841.604341291921
 21
1867.6547582841361
 31
0.0
1001
AUTOCAD_POSTSCRIPT_FIGURE
1002
{
1000
PSFILL
1000
Grayscale
1000
Grayscale
1070
   100
1002
}
  0
LINE
  5
446B
  8
YODOROGO
 10
27817.604341291921
 20
1917.7713320852649
 30
0.0
 11
27841.604341291921
 21
1883.6547582841361
 31
0.0
1001
AUTOCAD_POSTSCRIPT_FIGURE
1002
{
1000
PSFILL
1000
Grayscale
1000
Grayscale
1070
   100
1002
}
  0
LINE
  5
446C
  8
YODOROGO
 10
27817.604341291921
 20
1939.749496429288
 30
0.0
 11
27817.604341291921
 21
1917.7713320852649
 31
0.0
1001
AUTOCAD_POSTSCRIPT_FIGURE
1002
{
1000
PSFILL
1000
Grayscale
1000
Grayscale
1070
   100
1002
}
  0
LINE
  5
446D
  8
YODOROGO
 10
27889.604341291921
 20
1939.749496429288
 30
0.0
 11
27817.604341291921
 21
1939.749496429288
 31
0.0
1001
AUTOCAD_POSTSCRIPT_FIGURE
1002
{
1000
PSFILL
1000
Grayscale
1000
Grayscale
1070
   100
1002
}
  0
LINE
  5
446E
  8
YODOROGO
 10
27889.604341291921
 20
1900.5683489363
 30
0.0
 11
27889.604341291921
 21
1939.749496429288
 31
0.0
1001
AUTOCAD_POSTSCRIPT_FIGURE
1002
{
1000
PSFILL
1000
Grayscale
1000
Grayscale
1070
   100
1002
}
  0
LINE
  5
446F
  8
YODOROGO
 10
27857.604341291921
 20
1900.5683489363
 30
0.0
 11
27889.604341291921
 21
1900.5683489363
 31
0.0
1001
AUTOCAD_POSTSCRIPT_FIGURE
1002
{
1000
PSFILL
1000
Grayscale
1000
Grayscale
1070
   100
1002
}
  0
LINE
  5
4470
  8
YODOROGO
 10
27857.604341291921
 20
1884.568348936298
 30
0.0
 11
27857.604341291921
 21
1900.5683489363
 31
0.0
1001
AUTOCAD_POSTSCRIPT_FIGURE
1002
{
1000
PSFILL
1000
Grayscale
1000
Grayscale
1070
   100
1002
}
  0
LINE
  5
4471
  8
YODOROGO
 10
27889.604341291921
 20
1884.568348936298
 30
0.0
 11
27857.604341291921
 21
1884.568348936298
 31
0.0
1001
AUTOCAD_POSTSCRIPT_FIGURE
1002
{
1000
PSFILL
1000
Grayscale
1000
Grayscale
1070
   100
1002
}
  0
LINE
  5
4472
  8
YODOROGO
 10
27889.604341291921
 20
1879.6191779644371
 30
0.0
 11
27889.604341291921
 21
1884.568348936298
 31
0.0
1001
AUTOCAD_POSTSCRIPT_FIGURE
1002
{
1000
PSFILL
1000
Grayscale
1000
Grayscale
1070
   100
1002
}
  0
LINE
  5
4473
  8
YODOROGO
 10
27849.604341291921
 20
1812.974981161417
 30
0.0
 11
27889.604341291921
 21
1879.6191779644371
 31
0.0
1001
AUTOCAD_POSTSCRIPT_FIGURE
1002
{
1000
PSFILL
1000
Grayscale
1000
Grayscale
1070
   100
1002
}
  0
LINE
  5
4474
  8
YODOROGO
 10
27849.604341291921
 20
1796.9749811614161
 30
0.0
 11
27849.604341291921
 21
1812.974981161417
 31
0.0
1001
AUTOCAD_POSTSCRIPT_FIGURE
1002
{
1000
PSFILL
1000
Grayscale
1000
Grayscale
1070
   100
1002
}
  0
LINE
  5
4475
  8
YODOROGO
 10
27889.604341291921
 20
1847.6191779644359
 30
0.0
 11
27849.604341291921
 21
1796.9749811614161
 31
0.0
1001
AUTOCAD_POSTSCRIPT_FIGURE
1002
{
1000
PSFILL
1000
Grayscale
1000
Grayscale
1070
   100
1002
}
  0
LINE
  5
4476
  8
YODOROGO
 10
27889.604341291921
 20
1747.749496429286
 30
0.0
 11
27889.604341291921
 21
1847.6191779644359
 31
0.0
1001
AUTOCAD_POSTSCRIPT_FIGURE
1002
{
1000
PSFILL
1000
Grayscale
1000
Grayscale
1070
   100
1002
}
  0
LINE
  5
4477
  8
YODOROGO
 10
27905.604341291921
 20
1747.749496429286
 30
0.0
 11
27889.604341291921
 21
1747.749496429286
 31
0.0
1001
AUTOCAD_POSTSCRIPT_FIGURE
1002
{
1000
PSFILL
1000
Grayscale
1000
Grayscale
1070
   100
1002
}
  0
LINE
  5
4478
  8
YODOROGO
 10
27905.604341291921
 20
1849.409012158806
 30
0.0
 11
27905.604341291921
 21
1747.749496429286
 31
0.0
1001
AUTOCAD_POSTSCRIPT_FIGURE
1002
{
1000
PSFILL
1000
Grayscale
1000
Grayscale
1070
   100
1002
}
  0
LINE
  5
4479
  8
YODOROGO
 10
27937.604341291921
 20
1796.9749811614161
 30
0.0
 11
27905.604341291921
 21
1849.409012158806
 31
0.0
1001
AUTOCAD_POSTSCRIPT_FIGURE
1002
{
1000
PSFILL
1000
Grayscale
1000
Grayscale
1070
   100
1002
}
  0
LINE
  5
447A
  8
YODOROGO
 10
27937.604341291921
 20
1812.974981161417
 30
0.0
 11
27937.604341291921
 21
1796.9749811614161
 31
0.0
1001
AUTOCAD_POSTSCRIPT_FIGURE
1002
{
1000
PSFILL
1000
Grayscale
1000
Grayscale
1070
   100
1002
}
  0
LINE
  5
447B
  8
YODOROGO
 10
27905.604341291921
 20
1881.4090121588081
 30
0.0
 11
27937.604341291921
 21
1812.974981161417
 31
0.0
1001
AUTOCAD_POSTSCRIPT_FIGURE
1002
{
1000
PSFILL
1000
Grayscale
1000
Grayscale
1070
   100
1002
}
  0
LINE
  5
447C
  8
YODOROGO
 10
27905.604341291921
 20
1884.5683489363
 30
0.0
 11
27905.604341291921
 21
1881.4090121588081
 31
0.0
1001
AUTOCAD_POSTSCRIPT_FIGURE
1002
{
1000
PSFILL
1000
Grayscale
1000
Grayscale
1070
   100
1002
}
  0
LINE
  5
447D
  8
YODOROGO
 10
27937.604341291921
 20
1884.568348936298
 30
0.0
 11
27905.604341291921
 21
1884.5683489363
 31
0.0
1001
AUTOCAD_POSTSCRIPT_FIGURE
1002
{
1000
PSFILL
1000
Grayscale
1000
Grayscale
1070
   100
1002
}
  0
LINE
  5
447E
  8
YODOROGO
 10
27937.604341291921
 20
1900.5683489363
 30
0.0
 11
27937.604341291921
 21
1884.568348936298
 31
0.0
1001
AUTOCAD_POSTSCRIPT_FIGURE
1002
{
1000
PSFILL
1000
Grayscale
1000
Grayscale
1070
   100
1002
}
  0
LINE
  5
447F
  8
YODOROGO
 10
27905.604341291921
 20
1900.5683489363
 30
0.0
 11
27937.604341291921
 21
1900.5683489363
 31
0.0
1001
AUTOCAD_POSTSCRIPT_FIGURE
1002
{
1000
PSFILL
1000
Grayscale
1000
Grayscale
1070
   100
1002
}
  0
LINE
  5
4480
  8
YODOROGO
 10
27905.604341291921
 20
1939.749496429288
 30
0.0
 11
27905.604341291921
 21
1900.5683489363
 31
0.0
1001
AUTOCAD_POSTSCRIPT_FIGURE
1002
{
1000
PSFILL
1000
Grayscale
1000
Grayscale
1070
   100
1002
}
  0
LINE
  5
4481
  8
YODOROGO
 10
27937.604341291921
 20
1939.749496429288
 30
0.0
 11
27905.604341291921
 21
1939.749496429288
 31
0.0
1001
AUTOCAD_POSTSCRIPT_FIGURE
1002
{
1000
PSFILL
1000
Grayscale
1000
Grayscale
1070
   100
1002
}
  0
LINE
  5
4482
  8
YODOROGO
 10
27937.604341291921
 20
1955.7494964292871
 30
0.0
 11
27937.604341291921
 21
1939.749496429288
 31
0.0
1001
AUTOCAD_POSTSCRIPT_FIGURE
1002
{
1000
PSFILL
1000
Grayscale
1000
Grayscale
1070
   100
1002
}
  0
LINE
  5
4483
  8
YODOROGO
 10
27905.604341291921
 20
1955.7494964292871
 30
0.0
 11
27937.604341291921
 21
1955.7494964292871
 31
0.0
1001
AUTOCAD_POSTSCRIPT_FIGURE
1002
{
1000
PSFILL
1000
Grayscale
1000
Grayscale
1070
   100
1002
}
  0
LINE
  5
4484
  8
YODOROGO
 10
27905.604341291921
 20
1979.749496429288
 30
0.0
 11
27905.604341291921
 21
1955.7494964292871
 31
0.0
1001
AUTOCAD_POSTSCRIPT_FIGURE
1002
{
1000
PSFILL
1000
Grayscale
1000
Grayscale
1070
   100
1002
}
  0
LINE
  5
4485
  8
YODOROGO
 10
27889.604341291921
 20
1979.749496429288
 30
0.0
 11
27905.604341291921
 21
1979.749496429288
 31
0.0
1001
AUTOCAD_POSTSCRIPT_FIGURE
1002
{
1000
PSFILL
1000
Grayscale
1000
Grayscale
1070
   100
1002
}
  0
LINE
  5
4486
  8
YODOROGO
 10
27889.604341291921
 20
1955.7494964292871
 30
0.0
 11
27889.604341291921
 21
1979.749496429288
 31
0.0
1001
AUTOCAD_POSTSCRIPT_FIGURE
1002
{
1000
PSFILL
1000
Grayscale
1000
Grayscale
1070
   100
1002
}
  0
LINE
  5
4487
  8
YODOROGO
 10
27865.604341291921
 20
1955.7494964292871
 30
0.0
 11
27889.604341291921
 21
1955.7494964292871
 31
0.0
1001
AUTOCAD_POSTSCRIPT_FIGURE
1002
{
1000
PSFILL
1000
Grayscale
1000
Grayscale
1070
   100
1002
}
  0
LINE
  5
4488
  8
YODOROGO
 10
27865.604341291921
 20
1979.749496429288
 30
0.0
 11
27865.604341291921
 21
1955.7494964292871
 31
0.0
1001
AUTOCAD_POSTSCRIPT_FIGURE
1002
{
1000
PSFILL
1000
Grayscale
1000
Grayscale
1070
   100
1002
}
  0
LINE
  5
4489
  8
YODOROGO
 10
27849.604341291921
 20
1979.749496429288
 30
0.0
 11
27865.604341291921
 21
1979.749496429288
 31
0.0
1001
AUTOCAD_POSTSCRIPT_FIGURE
1002
{
1000
PSFILL
1000
Grayscale
1000
Grayscale
1070
   100
1002
}
  0
LINE
  5
448A
  8
YODOROGO
 10
27849.604341291921
 20
1955.7494964292871
 30
0.0
 11
27849.604341291921
 21
1979.749496429288
 31
0.0
1001
AUTOCAD_POSTSCRIPT_FIGURE
1002
{
1000
PSFILL
1000
Grayscale
1000
Grayscale
1070
   100
1002
}
  0
LINE
  5
448B
  8
YODOROGO
 10
27817.604341291921
 20
1955.7494964292871
 30
0.0
 11
27849.604341291921
 21
1955.7494964292871
 31
0.0
1001
AUTOCAD_POSTSCRIPT_FIGURE
1002
{
1000
PSFILL
1000
Grayscale
1000
Grayscale
1070
   100
1002
}
  0
LINE
  5
448C
  8
YODOROGO
 10
27817.604341291921
 20
1979.749496429288
 30
0.0
 11
27817.604341291921
 21
1955.7494964292871
 31
0.0
1001
AUTOCAD_POSTSCRIPT_FIGURE
1002
{
1000
PSFILL
1000
Grayscale
1000
Grayscale
1070
   100
1002
}
  0
LINE
  5
448D
  8
YODOROGO
 10
27801.604341291921
 20
1979.749496429288
 30
0.0
 11
27817.604341291921
 21
1979.749496429288
 31
0.0
1001
AUTOCAD_POSTSCRIPT_FIGURE
1002
{
1000
PSFILL
1000
Grayscale
1000
Grayscale
1070
   100
1002
}
  0
LINE
  5
448E
  8
YODOROGO
 10
27801.604341291921
 20
1955.7494964292871
 30
0.0
 11
27801.604341291921
 21
1979.749496429288
 31
0.0
1001
AUTOCAD_POSTSCRIPT_FIGURE
1002
{
1000
PSFILL
1000
Grayscale
1000
Grayscale
1070
   100
1002
}
  0
LINE
  5
448F
  8
YODOROGO
 10
27777.604341291921
 20
1955.7494964292871
 30
0.0
 11
27801.604341291921
 21
1955.7494964292871
 31
0.0
1001
AUTOCAD_POSTSCRIPT_FIGURE
1002
{
1000
PSFILL
1000
Grayscale
1000
Grayscale
1070
   100
1002
}
  0
LINE
  5
4490
  8
YODOROGO
 10
27777.604341291921
 20
1939.749496429288
 30
0.0
 11
27777.604341291921
 21
1955.7494964292871
 31
0.0
1001
AUTOCAD_POSTSCRIPT_FIGURE
1002
{
1000
PSFILL
1000
Grayscale
1000
Grayscale
1070
   100
1002
}
  0
LINE
  5
4491
  8
YODOROGO
 10
27801.604341291921
 20
1939.749496429288
 30
0.0
 11
27777.604341291921
 21
1939.749496429288
 31
0.0
1001
AUTOCAD_POSTSCRIPT_FIGURE
1002
{
1000
PSFILL
1000
Grayscale
1000
Grayscale
1070
   100
1002
}
  0
LINE
  5
4492
  8
YODOROGO
 10
27801.604341291921
 20
1914.7865807937051
 30
0.0
 11
27801.604341291921
 21
1939.749496429288
 31
0.0
1001
AUTOCAD_POSTSCRIPT_FIGURE
1002
{
1000
PSFILL
1000
Grayscale
1000
Grayscale
1070
   100
1002
}
  0
LINE
  5
4493
  8
YODOROGO
 10
27777.604341291921
 20
1859.776747951671
 30
0.0
 11
27801.604341291921
 21
1914.7865807937051
 31
0.0
1001
AUTOCAD_POSTSCRIPT_FIGURE
1002
{
1000
PSFILL
1000
Grayscale
1000
Grayscale
1070
   100
1002
}
  0
LINE
  5
4494
  8
YODOROGO
 10
27777.604341291921
 20
1843.776747951672
 30
0.0
 11
27777.604341291921
 21
1859.776747951671
 31
0.0
1001
AUTOCAD_POSTSCRIPT_FIGURE
1002
{
1000
PSFILL
1000
Grayscale
1000
Grayscale
1070
   100
1002
}
  0
LINE
  5
4495
  8
YODOROGO
 10
28257.604341291921
 20
1867.7494964292871
 30
0.0
 11
28401.60434129191
 21
1824.877625640306
 31
0.0
1001
AUTOCAD_POSTSCRIPT_FIGURE
1002
{
1000
PSFILL
1000
Grayscale
1000
Grayscale
1070
   100
1002
}
  0
LINE
  5
4496
  8
YODOROGO
 10
28401.60434129191
 20
1752.877625640306
 30
0.0
 11
28257.604341291921
 21
1795.7494964292871
 31
0.0
1001
AUTOCAD_POSTSCRIPT_FIGURE
1002
{
1000
PSFILL
1000
Grayscale
1000
Grayscale
1070
   100
1002
}
  0
LINE
  5
4497
  8
YODOROGO
 10
28401.60434129191
 20
1984.877625640306
 30
0.0
 11
28257.604341291921
 21
2027.749496429288
 31
0.0
1001
AUTOCAD_POSTSCRIPT_FIGURE
1002
{
1000
PSFILL
1000
Grayscale
1000
Grayscale
1070
   100
1002
}
  0
LINE
  5
4498
  8
YODOROGO
 10
28257.604341291921
 20
1959.749496429288
 30
0.0
 11
28401.60434129191
 21
1916.8776256403071
 31
0.0
1001
AUTOCAD_POSTSCRIPT_FIGURE
1002
{
1000
PSFILL
1000
Grayscale
1000
Grayscale
1070
   100
1002
}
  0
LINE
  5
4499
  8
YODOROGO
 10
28257.604341291921
 20
1795.7494964292871
 30
0.0
 11
28257.604341291921
 21
1867.7494964292871
 31
0.0
1001
AUTOCAD_POSTSCRIPT_FIGURE
1002
{
1000
PSFILL
1000
Grayscale
1000
Grayscale
1070
   100
1002
}
  0
LINE
  5
449A
  8
YODOROGO
 10
28257.604341291921
 20
2027.749496429288
 30
0.0
 11
28257.604341291921
 21
1959.749496429288
 31
0.0
1001
AUTOCAD_POSTSCRIPT_FIGURE
1002
{
1000
PSFILL
1000
Grayscale
1000
Grayscale
1070
   100
1002
}
  0
LINE
  5
449B
  8
YODOROGO
 10
28080.236320206739
 20
1939.749496429288
 30
0.0
 11
28129.60434129191
 21
1747.749496429286
 31
0.0
1001
AUTOCAD_POSTSCRIPT_FIGURE
1002
{
1000
PSFILL
1000
Grayscale
1000
Grayscale
1070
   100
1002
}
  0
LINE
  5
449C
  8
YODOROGO
 10
27977.604341291921
 20
1939.749496429288
 30
0.0
 11
28080.236320206739
 21
1939.749496429288
 31
0.0
1001
AUTOCAD_POSTSCRIPT_FIGURE
1002
{
1000
PSFILL
1000
Grayscale
1000
Grayscale
1070
   100
1002
}
  0
LINE
  5
449D
  8
YODOROGO
 10
27977.604341291921
 20
1955.7494964292871
 30
0.0
 11
27977.604341291921
 21
1939.749496429288
 31
0.0
1001
AUTOCAD_POSTSCRIPT_FIGURE
1002
{
1000
PSFILL
1000
Grayscale
1000
Grayscale
1070
   100
1002
}
  0
LINE
  5
449E
  8
YODOROGO
 10
28076.60687851991
 20
1955.7494964292871
 30
0.0
 11
27977.604341291921
 21
1955.7494964292871
 31
0.0
1001
AUTOCAD_POSTSCRIPT_FIGURE
1002
{
1000
PSFILL
1000
Grayscale
1000
Grayscale
1070
   100
1002
}
  0
LINE
  5
449F
  8
YODOROGO
 10
28071.162715989711
 20
1979.749496429288
 30
0.0
 11
28076.60687851991
 21
1955.7494964292871
 31
0.0
1001
AUTOCAD_POSTSCRIPT_FIGURE
1002
{
1000
PSFILL
1000
Grayscale
1000
Grayscale
1070
   100
1002
}
  0
LINE
  5
44A0
  8
YODOROGO
 10
28091.162715989711
 20
1979.749496429288
 30
0.0
 11
28071.162715989711
 21
1979.749496429288
 31
0.0
1001
AUTOCAD_POSTSCRIPT_FIGURE
1002
{
1000
PSFILL
1000
Grayscale
1000
Grayscale
1070
   100
1002
}
  0
LINE
  5
44A1
  8
YODOROGO
 10
28095.806878519939
 20
1955.7494964292871
 30
0.0
 11
28091.162715989711
 21
1979.749496429288
 31
0.0
1001
AUTOCAD_POSTSCRIPT_FIGURE
1002
{
1000
PSFILL
1000
Grayscale
1000
Grayscale
1070
   100
1002
}
  0
LINE
  5
44A2
  8
YODOROGO
 10
28121.604341291921
 20
1955.7494964292871
 30
0.0
 11
28095.806878519939
 21
1955.7494964292871
 31
0.0
1001
AUTOCAD_POSTSCRIPT_FIGURE
1002
{
1000
PSFILL
1000
Grayscale
1000
Grayscale
1070
   100
1002
}
  0
LINE
  5
44A3
  8
YODOROGO
 10
28121.604341291921
 20
1979.749496429288
 30
0.0
 11
28121.604341291921
 21
1955.7494964292871
 31
0.0
1001
AUTOCAD_POSTSCRIPT_FIGURE
1002
{
1000
PSFILL
1000
Grayscale
1000
Grayscale
1070
   100
1002
}
  0
LINE
  5
44A4
  8
YODOROGO
 10
28137.604341291921
 20
1979.749496429288
 30
0.0
 11
28121.604341291921
 21
1979.749496429288
 31
0.0
1001
AUTOCAD_POSTSCRIPT_FIGURE
1002
{
1000
PSFILL
1000
Grayscale
1000
Grayscale
1070
   100
1002
}
  0
LINE
  5
44A5
  8
YODOROGO
 10
28137.604341291921
 20
1955.7494964292871
 30
0.0
 11
28137.604341291921
 21
1979.749496429288
 31
0.0
1001
AUTOCAD_POSTSCRIPT_FIGURE
1002
{
1000
PSFILL
1000
Grayscale
1000
Grayscale
1070
   100
1002
}
  0
LINE
  5
44A6
  8
YODOROGO
 10
28137.604341291921
 20
1939.749496429288
 30
0.0
 11
28137.604341291921
 21
1955.7494964292871
 31
0.0
1001
AUTOCAD_POSTSCRIPT_FIGURE
1002
{
1000
PSFILL
1000
Grayscale
1000
Grayscale
1070
   100
1002
}
  0
LINE
  5
44A7
  8
YODOROGO
 10
28098.902986873411
 20
1939.749496429288
 30
0.0
 11
28137.604341291921
 21
1939.749496429288
 31
0.0
1001
AUTOCAD_POSTSCRIPT_FIGURE
1002
{
1000
PSFILL
1000
Grayscale
1000
Grayscale
1070
   100
1002
}
  0
LINE
  5
44A8
  8
YODOROGO
 10
28137.604341291921
 20
1747.749496429286
 30
0.0
 11
28098.902986873411
 21
1939.749496429288
 31
0.0
1001
AUTOCAD_POSTSCRIPT_FIGURE
1002
{
1000
PSFILL
1000
Grayscale
1000
Grayscale
1070
   100
1002
}
  0
LINE
  5
44A9
  8
YODOROGO
 10
28129.60434129191
 20
1747.749496429286
 30
0.0
 11
28137.604341291921
 21
1747.749496429286
 31
0.0
1001
AUTOCAD_POSTSCRIPT_FIGURE
1002
{
1000
PSFILL
1000
Grayscale
1000
Grayscale
1070
   100
1002
}
  0
LINE
  5
44AA
  8
YODOROGO
 10
28078.06921993379
 20
1775.7407762987939
 30
0.0
 11
27977.604341291921
 21
1747.749496429286
 31
0.0
  0
LINE
  5
44AB
  8
YODOROGO
 10
28078.06921993379
 20
1798.6689795290731
 30
0.0
 11
28078.06921993379
 21
1775.7407762987939
 31
0.0
  0
LINE
  5
44AC
  8
YODOROGO
 10
28033.83678061287
 20
1786.816933133767
 30
0.0
 11
28078.06921993379
 21
1798.6689795290731
 31
0.0
  0
LINE
  5
44AD
  8
YODOROGO
 10
28033.83678061287
 20
1872.5683489362989
 30
0.0
 11
28033.83678061287
 21
1786.816933133767
 31
0.0
  0
LINE
  5
44AE
  8
YODOROGO
 10
28078.06921993379
 20
1872.5683489362989
 30
0.0
 11
28033.83678061287
 21
1872.5683489362989
 31
0.0
  0
LINE
  5
44AF
  8
YODOROGO
 10
28078.06921993379
 20
1892.568348936298
 30
0.0
 11
28078.06921993379
 21
1872.5683489362989
 31
0.0
  0
LINE
  5
44B0
  8
YODOROGO
 10
27977.604341291921
 20
1892.568348936298
 30
0.0
 11
28078.06921993379
 21
1892.568348936298
 31
0.0
  0
LINE
  5
44B1
  8
YODOROGO
 10
27977.604341291921
 20
1872.5683489362989
 30
0.0
 11
27977.604341291921
 21
1892.568348936298
 31
0.0
  0
LINE
  5
44B2
  8
YODOROGO
 10
28021.836780612852
 20
1872.5683489362989
 30
0.0
 11
27977.604341291921
 21
1872.5683489362989
 31
0.0
  0
LINE
  5
44B3
  8
YODOROGO
 10
28021.836780612852
 20
1784.673339594317
 30
0.0
 11
28021.836780612852
 21
1872.5683489362989
 31
0.0
  0
LINE
  5
44B4
  8
YODOROGO
 10
27977.604341291921
 20
1771.749496429286
 30
0.0
 11
28021.836780612852
 21
1784.673339594317
 31
0.0
  0
LINE
  5
44B5
  8
YODOROGO
 10
27977.604341291921
 20
1747.749496429286
 30
0.0
 11
27977.604341291921
 21
1771.749496429286
 31
0.0
  0
LINE
  5
44B6
  8
YODOROGO
 10
28001.604341291921
 20
1707.749496429288
 30
0.0
 11
28001.604341291921
 21
1683.7494964292871
 31
0.0
  0
LINE
  5
44B7
  8
YODOROGO
 10
28017.604341291921
 20
1707.749496429288
 30
0.0
 11
28001.604341291921
 21
1707.749496429288
 31
0.0
  0
LINE
  5
44B8
  8
YODOROGO
 10
28017.604341291921
 20
1683.7494964292871
 30
0.0
 11
28017.604341291921
 21
1707.749496429288
 31
0.0
  0
LINE
  5
44B9
  8
YODOROGO
 10
28040.913204016892
 20
1683.7494964292871
 30
0.0
 11
28017.604341291921
 21
1683.7494964292871
 31
0.0
  0
LINE
  5
44BA
  8
YODOROGO
 10
28001.604341291921
 20
1683.7494964292871
 30
0.0
 11
27977.604341291921
 21
1683.7494964292871
 31
0.0
  0
LINE
  5
44BB
  8
YODOROGO
 10
28082.135520230921
 20
1707.749496429288
 30
0.0
 11
28098.135520230931
 21
1707.749496429288
 31
0.0
1001
AUTOCAD_POSTSCRIPT_FIGURE
1002
{
1000
PSFILL
1000
Grayscale
1000
Grayscale
1070
   100
1002
}
  0
LINE
  5
44BC
  8
YODOROGO
 10
28401.60434129191
 20
1824.877625640306
 30
0.0
 11
28401.60434129191
 21
1752.877625640306
 31
0.0
1001
AUTOCAD_POSTSCRIPT_FIGURE
1002
{
1000
PSFILL
1000
Grayscale
1000
Grayscale
1070
   100
1002
}
  0
LINE
  5
44BD
  8
YODOROGO
 10
28401.60434129191
 20
1916.8776256403071
 30
0.0
 11
28401.60434129191
 21
1984.877625640306
 31
0.0
1001
AUTOCAD_POSTSCRIPT_FIGURE
1002
{
1000
PSFILL
1000
Grayscale
1000
Grayscale
1070
   100
1002
}
  0
LINE
  5
44BE
  8
YODOROGO
 10
28433.60434129191
 20
1819.7494964292871
 30
0.0
 11
28433.60434129191
 21
1747.74949642929
 31
0.0
  0
LINE
  5
44BF
  8
YODOROGO
 10
28497.60434129191
 20
1707.749496429288
 30
0.0
 11
28433.60434129191
 21
1707.749496429288
 31
0.0
  0
LINE
  5
44C0
  8
YODOROGO
 10
28433.60434129191
 20
1747.74949642929
 30
0.0
 11
28585.604341291921
 21
1747.74949642929
 31
0.0
  0
LINE
  5
44C1
  8
YODOROGO
 10
28497.60434129191
 20
1867.7494964292871
 30
0.0
 11
28433.60434129191
 21
1867.7494964292871
 31
0.0
  0
LINE
  5
44C2
  8
YODOROGO
 10
28497.60434129191
 20
1923.7494964292871
 30
0.0
 11
28497.60434129191
 21
1867.7494964292871
 31
0.0
  0
LINE
  5
44C3
  8
YODOROGO
 10
28585.604341291921
 20
1987.7494964292871
 30
0.0
 11
28585.604341291921
 21
2027.749496429288
 31
0.0
  0
LINE
  5
44C4
  8
YODOROGO
 10
28433.60434129191
 20
1987.7494964292871
 30
0.0
 11
28585.604341291921
 21
1987.7494964292871
 31
0.0
  0
LINE
  5
44C5
  8
YODOROGO
 10
28433.60434129191
 20
1867.7494964292871
 30
0.0
 11
28433.60434129191
 21
1987.7494964292871
 31
0.0
  0
LINE
  5
44C6
  8
YODOROGO
 10
29001.60434129191
 20
2027.749496429288
 30
0.0
 11
29001.60434129191
 21
1619.749496429288
 31
0.0
  0
LINE
  5
44C7
  8
YODOROGO
 10
29073.604341291921
 20
1579.749496429288
 30
0.0
 11
29073.604341291921
 21
2027.749496429288
 31
0.0
  0
LINE
  5
44C8
  8
YODOROGO
 10
29261.604341291921
 20
1491.749496429286
 30
0.0
 11
29261.604341291921
 21
2007.749496429288
 31
0.0
  0
LINE
  5
44C9
  8
YODOROGO
 10
29197.604341291921
 20
2007.749496429288
 30
0.0
 11
29197.604341291921
 21
1491.749496429286
 31
0.0
  0
LINE
  5
44CA
  8
YODOROGO
 10
29385.604341291921
 20
2027.749496429288
 30
0.0
 11
29385.604341291921
 21
1427.749496429288
 31
0.0
  0
LINE
  5
44CB
  8
YODOROGO
 10
29457.604341291921
 20
1427.749496429288
 30
0.0
 11
29457.604341291921
 21
2027.749496429288
 31
0.0
  0
LINE
  5
44CC
  8
YODOROGO
 10
28657.604341291921
 20
1667.749496429288
 30
0.0
 11
28657.604341291921
 21
1747.74949642929
 31
0.0
  0
LINE
  5
44CD
  8
YODOROGO
 10
29885.604341291921
 20
1707.749496429288
 30
0.0
 11
29885.604341291921
 21
1667.749496429288
 31
0.0
  0
LINE
  5
44CE
  8
YODOROGO
 10
29885.604341291921
 20
1707.749496429288
 30
0.0
 11
29885.604341291921
 21
1667.749496429288
 31
0.0
  0
ARC
  5
44CF
  8
YODOROGO
 10
28906.911576186842
 20
1618.217864442272
 30
0.0
 40
94.705151178741644
 50
274.05244162907098
 51
0.9266642149310712
  0
ARC
  5
44D0
  8
YODOROGO
 10
28909.186170719819
 20
1592.61072861044
 30
0.0
 40
164.92042356085511
 50
271.5351210653775
 51
355.52727750585052
  0
LINE
  5
44D1
  8
YODOROGO
 10
28913.604341291921
 20
1523.7494964292871
 30
0.0
 11
28913.604341291921
 21
1427.749496429288
 31
0.0
  0
LINE
  5
44D2
  8
YODOROGO
 10
28793.60434129191
 20
1667.749496429288
 30
0.0
 11
28657.604341291921
 21
1667.749496429288
 31
0.0
  0
LINE
  5
44D3
  8
YODOROGO
 10
28793.60434129191
 20
1603.7494964292871
 30
0.0
 11
28793.60434129191
 21
1667.749496429288
 31
0.0
  0
LINE
  5
44D4
  8
YODOROGO
 10
28657.604341291921
 20
1603.7494964292871
 30
0.0
 11
28793.60434129191
 21
1603.7494964292871
 31
0.0
  0
LINE
  5
44D5
  8
YODOROGO
 10
28657.604341291921
 20
1523.7494964292871
 30
0.0
 11
28657.604341291921
 21
1603.7494964292871
 31
0.0
  0
LINE
  5
44D6
  8
YODOROGO
 10
28793.60434129191
 20
1523.7494964292871
 30
0.0
 11
28657.604341291921
 21
1523.7494964292871
 31
0.0
  0
LINE
  5
44D7
  8
YODOROGO
 10
28793.60434129191
 20
1427.749496429288
 30
0.0
 11
28793.60434129191
 21
1523.7494964292871
 31
0.0
  0
LINE
  5
44D8
  8
YODOROGO
 10
29197.604341291921
 20
1491.749496429286
 30
0.0
 11
29261.604341291921
 21
1491.749496429286
 31
0.0
  0
LINE
  5
44D9
  8
YODOROGO
 10
29385.604341291921
 20
1427.749496429288
 30
0.0
 11
29457.604341291921
 21
1427.749496429288
 31
0.0
  0
LINE
  5
44DA
  8
YODOROGO
 10
29737.604341291921
 20
1528.4414521705639
 30
0.0
 11
29737.604341291921
 21
1427.749496429288
 31
0.0
  0
LINE
  5
44DB
  8
YODOROGO
 10
29617.604341291921
 20
1427.749496429288
 30
0.0
 11
29737.604341291921
 21
1528.4414521705639
 31
0.0
  0
LINE
  5
44DC
  8
YODOROGO
 10
29617.604341291921
 20
1547.749496429288
 30
0.0
 11
29617.604341291921
 21
1427.749496429288
 31
0.0
  0
LINE
  5
44DD
  8
YODOROGO
 10
29712.94462869945
 20
1627.749496429288
 30
0.0
 11
29617.604341291921
 21
1547.749496429288
 31
0.0
  0
LINE
  5
44DE
  8
YODOROGO
 10
29617.604341291921
 20
1627.749496429288
 30
0.0
 11
29712.94462869945
 21
1627.749496429288
 31
0.0
  0
LINE
  5
44DF
  8
YODOROGO
 10
29617.604341291921
 20
1667.749496429288
 30
0.0
 11
29617.604341291921
 21
1627.749496429288
 31
0.0
  0
LINE
  5
44E0
  8
YODOROGO
 10
29885.604341291921
 20
1667.749496429288
 30
0.0
 11
29617.604341291921
 21
1667.749496429288
 31
0.0
  0
LINE
  5
44E1
  8
YODOROGO
 10
29917.604341291921
 20
1627.749496429288
 30
0.0
 11
29777.604341291921
 21
1627.749496429288
 31
0.0
  0
LINE
  5
44E2
  8
YODOROGO
 10
29777.604341291921
 20
1562.0054374176559
 30
0.0
 11
29771.409872985321
 21
1556.807661346234
 31
0.0
  0
LINE
  5
44E3
  8
YODOROGO
 10
29777.604341291921
 20
1627.749496429288
 30
0.0
 11
29777.604341291921
 21
1562.0054374176559
 31
0.0
  0
LINE
  5
44E4
  8
YODOROGO
 10
29737.604341291921
 20
1528.4414521705639
 30
0.0
 11
29737.604341291921
 21
1427.749496429288
 31
0.0
  0
LINE
  5
44E5
  8
YODOROGO
 10
29617.604341291921
 20
1427.749496429288
 30
0.0
 11
29737.604341291921
 21
1528.4414521705639
 31
0.0
  0
LINE
  5
44E6
  8
YODOROGO
 10
29617.604341291921
 20
1547.749496429288
 30
0.0
 11
29617.604341291921
 21
1427.749496429288
 31
0.0
  0
LINE
  5
44E7
  8
YODOROGO
 10
29712.94462869945
 20
1627.749496429288
 30
0.0
 11
29617.604341291921
 21
1547.749496429288
 31
0.0
  0
LINE
  5
44E8
  8
YODOROGO
 10
29617.604341291921
 20
1627.749496429288
 30
0.0
 11
29712.94462869945
 21
1627.749496429288
 31
0.0
  0
LINE
  5
44E9
  8
YODOROGO
 10
29617.604341291921
 20
1667.749496429288
 30
0.0
 11
29617.604341291921
 21
1627.749496429288
 31
0.0
  0
LINE
  5
44EA
  8
YODOROGO
 10
29885.604341291921
 20
1667.749496429288
 30
0.0
 11
29617.604341291921
 21
1667.749496429288
 31
0.0
  0
LINE
  5
44EB
  8
YODOROGO
 10
28793.60434129191
 20
1747.74949642929
 30
0.0
 11
28793.60434129191
 21
1819.7494964292871
 31
0.0
  0
LINE
  5
44EC
  8
YODOROGO
 10
28657.604341291921
 20
1747.74949642929
 30
0.0
 11
28793.60434129191
 21
1747.74949642929
 31
0.0
  0
LINE
  5
44ED
  8
YODOROGO
 10
28729.604341291921
 20
1867.7494964292871
 30
0.0
 11
28729.604341291921
 21
1923.7494964292871
 31
0.0
  0
LINE
  5
44EE
  8
YODOROGO
 10
28793.60434129191
 20
1867.7494964292871
 30
0.0
 11
28729.604341291921
 21
1867.7494964292871
 31
0.0
  0
LINE
  5
44EF
  8
YODOROGO
 10
28793.60434129191
 20
1947.749496429288
 30
0.0
 11
28793.60434129191
 21
1867.7494964292871
 31
0.0
  0
ARC
  5
44F0
  8
YODOROGO
 10
28753.60434129191
 20
1947.749496429288
 30
0.0
 40
40.0
 50
0.0
 51
90.0
  0
LINE
  5
44F1
  8
YODOROGO
 10
28657.604341291921
 20
1987.7494964292871
 30
0.0
 11
28753.60434129191
 21
1987.7494964292871
 31
0.0
  0
LINE
  5
44F2
  8
YODOROGO
 10
28657.604341291921
 20
2027.749496429288
 30
0.0
 11
28657.604341291921
 21
1987.7494964292871
 31
0.0
  0
LINE
  5
44F3
  8
YODOROGO
 10
29073.604341291921
 20
2027.749496429288
 30
0.0
 11
29001.60434129191
 21
2027.749496429288
 31
0.0
  0
LINE
  5
44F4
  8
YODOROGO
 10
29261.604341291921
 20
2007.749496429288
 30
0.0
 11
29197.604341291921
 21
2007.749496429288
 31
0.0
  0
LINE
  5
44F5
  8
YODOROGO
 10
29457.604341291921
 20
2027.749496429288
 30
0.0
 11
29385.604341291921
 21
2027.749496429288
 31
0.0
  0
LINE
  5
44F6
  8
YODOROGO
 10
29673.604341291921
 20
1707.749496429288
 30
0.0
 11
29673.604341291921
 21
1771.7494964292871
 31
0.0
1001
AUTOCAD_POSTSCRIPT_FIGURE
1002
{
1000
PSFILL
1000
Grayscale
1000
Grayscale
1070
    25
1002
}
  0
LINE
  5
44F7
  8
YODOROGO
 10
29617.604341291921
 20
1707.749496429288
 30
0.0
 11
29673.604341291921
 21
1707.749496429288
 31
0.0
1001
AUTOCAD_POSTSCRIPT_FIGURE
1002
{
1000
PSFILL
1000
Grayscale
1000
Grayscale
1070
    25
1002
}
  0
LINE
  5
44F8
  8
YODOROGO
 10
29617.604341291921
 20
1819.7494964292871
 30
0.0
 11
29617.604341291921
 21
1707.749496429288
 31
0.0
1001
AUTOCAD_POSTSCRIPT_FIGURE
1002
{
1000
PSFILL
1000
Grayscale
1000
Grayscale
1070
    25
1002
}
  0
LINE
  5
44F9
  8
YODOROGO
 10
29765.604341291921
 20
1819.7494964292871
 30
0.0
 11
29617.604341291921
 21
1819.7494964292871
 31
0.0
1001
AUTOCAD_POSTSCRIPT_FIGURE
1002
{
1000
PSFILL
1000
Grayscale
1000
Grayscale
1070
    25
1002
}
  0
LINE
  5
44FA
  8
YODOROGO
 10
29765.604341291921
 20
1859.749496429288
 30
0.0
 11
29765.604341291921
 21
1819.7494964292871
 31
0.0
1001
AUTOCAD_POSTSCRIPT_FIGURE
1002
{
1000
PSFILL
1000
Grayscale
1000
Grayscale
1070
    25
1002
}
  0
LINE
  5
44FB
  8
YODOROGO
 10
29617.604341291921
 20
1859.749496429288
 30
0.0
 11
29765.604341291921
 21
1859.749496429288
 31
0.0
1001
AUTOCAD_POSTSCRIPT_FIGURE
1002
{
1000
PSFILL
1000
Grayscale
1000
Grayscale
1070
    25
1002
}
  0
LINE
  5
44FC
  8
YODOROGO
 10
29617.604341291921
 20
1907.7494964292871
 30
0.0
 11
29617.604341291921
 21
1859.749496429288
 31
0.0
1001
AUTOCAD_POSTSCRIPT_FIGURE
1002
{
1000
PSFILL
1000
Grayscale
1000
Grayscale
1070
    25
1002
}
  0
LINE
  5
44FD
  8
YODOROGO
 10
29765.604341291921
 20
1907.7494964292871
 30
0.0
 11
29617.604341291921
 21
1907.7494964292871
 31
0.0
1001
AUTOCAD_POSTSCRIPT_FIGURE
1002
{
1000
PSFILL
1000
Grayscale
1000
Grayscale
1070
    25
1002
}
  0
LINE
  5
44FE
  8
YODOROGO
 10
29765.604341291921
 20
1947.749496429288
 30
0.0
 11
29765.604341291921
 21
1907.7494964292871
 31
0.0
1001
AUTOCAD_POSTSCRIPT_FIGURE
1002
{
1000
PSFILL
1000
Grayscale
1000
Grayscale
1070
    25
1002
}
  0
LINE
  5
44FF
  8
YODOROGO
 10
29617.604341291921
 20
1947.749496429288
 30
0.0
 11
29765.604341291921
 21
1947.749496429288
 31
0.0
1001
AUTOCAD_POSTSCRIPT_FIGURE
1002
{
1000
PSFILL
1000
Grayscale
1000
Grayscale
1070
    25
1002
}
  0
LINE
  5
4500
  8
YODOROGO
 10
29617.604341291921
 20
2027.749496429288
 30
0.0
 11
29617.604341291921
 21
1947.749496429288
 31
0.0
1001
AUTOCAD_POSTSCRIPT_FIGURE
1002
{
1000
PSFILL
1000
Grayscale
1000
Grayscale
1070
    25
1002
}
  0
LINE
  5
4501
  8
YODOROGO
 10
29665.604341291921
 20
2027.749496429288
 30
0.0
 11
29617.604341291921
 21
2027.749496429288
 31
0.0
1001
AUTOCAD_POSTSCRIPT_FIGURE
1002
{
1000
PSFILL
1000
Grayscale
1000
Grayscale
1070
    25
1002
}
  0
LINE
  5
4502
  8
YODOROGO
 10
29665.604341291921
 20
1995.7494964292871
 30
0.0
 11
29665.604341291921
 21
2027.749496429288
 31
0.0
1001
AUTOCAD_POSTSCRIPT_FIGURE
1002
{
1000
PSFILL
1000
Grayscale
1000
Grayscale
1070
    25
1002
}
  0
LINE
  5
4503
  8
YODOROGO
 10
29765.604341291921
 20
1995.7494964292871
 30
0.0
 11
29665.604341291921
 21
1995.7494964292871
 31
0.0
1001
AUTOCAD_POSTSCRIPT_FIGURE
1002
{
1000
PSFILL
1000
Grayscale
1000
Grayscale
1070
    25
1002
}
  0
LINE
  5
4504
  8
YODOROGO
 10
29765.604341291921
 20
2027.749496429288
 30
0.0
 11
29765.604341291921
 21
1995.7494964292871
 31
0.0
1001
AUTOCAD_POSTSCRIPT_FIGURE
1002
{
1000
PSFILL
1000
Grayscale
1000
Grayscale
1070
    25
1002
}
  0
LINE
  5
4505
  8
YODOROGO
 10
29829.604341291921
 20
2027.749496429288
 30
0.0
 11
29765.604341291921
 21
2027.749496429288
 31
0.0
1001
AUTOCAD_POSTSCRIPT_FIGURE
1002
{
1000
PSFILL
1000
Grayscale
1000
Grayscale
1070
    25
1002
}
  0
LINE
  5
4506
  8
YODOROGO
 10
29829.604341291921
 20
1995.7494964292871
 30
0.0
 11
29829.604341291921
 21
2027.749496429288
 31
0.0
1001
AUTOCAD_POSTSCRIPT_FIGURE
1002
{
1000
PSFILL
1000
Grayscale
1000
Grayscale
1070
    25
1002
}
  0
LINE
  5
4507
  8
YODOROGO
 10
29829.604341291921
 20
1907.7494964292871
 30
0.0
 11
29829.604341291921
 21
1947.749496429288
 31
0.0
1001
AUTOCAD_POSTSCRIPT_FIGURE
1002
{
1000
PSFILL
1000
Grayscale
1000
Grayscale
1070
    25
1002
}
  0
LINE
  5
4508
  8
YODOROGO
 10
29829.604341291921
 20
1819.7494964292871
 30
0.0
 11
29829.604341291921
 21
1859.749496429288
 31
0.0
1001
AUTOCAD_POSTSCRIPT_FIGURE
1002
{
1000
PSFILL
1000
Grayscale
1000
Grayscale
1070
    25
1002
}
  0
LINE
  5
4509
  8
YODOROGO
 10
29921.60434129191
 20
1771.7494964292871
 30
0.0
 11
29921.60434129191
 21
1707.749496429288
 31
0.0
1001
AUTOCAD_POSTSCRIPT_FIGURE
1002
{
1000
PSFILL
1000
Grayscale
1000
Grayscale
1070
    25
1002
}
  0
LINE
  5
450A
  8
YODOROGO
 10
29829.604341291921
 20
1771.7494964292871
 30
0.0
 11
29921.60434129191
 21
1771.7494964292871
 31
0.0
1001
AUTOCAD_POSTSCRIPT_FIGURE
1002
{
1000
PSFILL
1000
Grayscale
1000
Grayscale
1070
    25
1002
}
  0
LINE
  5
450B
  8
YODOROGO
 10
29829.604341291921
 20
1707.749496429288
 30
0.0
 11
29829.604341291921
 21
1771.7494964292871
 31
0.0
1001
AUTOCAD_POSTSCRIPT_FIGURE
1002
{
1000
PSFILL
1000
Grayscale
1000
Grayscale
1070
    25
1002
}
  0
LINE
  5
450C
  8
YODOROGO
 10
29765.604341291921
 20
1707.749496429288
 30
0.0
 11
29829.604341291921
 21
1707.749496429288
 31
0.0
1001
AUTOCAD_POSTSCRIPT_FIGURE
1002
{
1000
PSFILL
1000
Grayscale
1000
Grayscale
1070
    25
1002
}
  0
LINE
  5
450D
  8
YODOROGO
 10
29765.604341291921
 20
1771.7494964292871
 30
0.0
 11
29765.604341291921
 21
1707.749496429288
 31
0.0
1001
AUTOCAD_POSTSCRIPT_FIGURE
1002
{
1000
PSFILL
1000
Grayscale
1000
Grayscale
1070
    25
1002
}
  0
LINE
  5
450E
  8
YODOROGO
 10
29673.604341291921
 20
1771.7494964292871
 30
0.0
 11
29765.604341291921
 21
1771.7494964292871
 31
0.0
1001
AUTOCAD_POSTSCRIPT_FIGURE
1002
{
1000
PSFILL
1000
Grayscale
1000
Grayscale
1070
    25
1002
}
  0
ARC
  5
450F
  8
YODOROGO
 10
31059.517893357912
 20
1602.6807375155761
 30
0.0
 40
178.22128111072141
 50
281.02627495425338
 51
357.77113575573799
  0
LINE
  5
4510
  8
YODOROGO
 10
31413.604341291921
 20
1907.7494964292871
 30
0.0
 11
31165.604341291921
 21
1907.7494964292871
 31
0.0
  0
LINE
  5
4511
  8
YODOROGO
 10
31413.604341291921
 20
2027.749496429288
 30
0.0
 11
31165.604341291921
 21
2027.749496429288
 31
0.0
  0
LINE
  5
4512
  8
YODOROGO
 10
31165.604341291921
 20
1963.749496429286
 30
0.0
 11
31413.604341291921
 21
1963.749496429286
 31
0.0
  0
LINE
  5
4513
  8
YODOROGO
 10
30791.604341291921
 20
1563.7494964292871
 30
0.0
 11
30791.604341291921
 21
1755.7494964292871
 31
0.0
  0
LINE
  5
4514
  8
YODOROGO
 10
30763.604341291921
 20
1691.749496429288
 30
0.0
 11
30763.604341291921
 21
1563.7494964292871
 31
0.0
  0
LINE
  5
4515
  8
YODOROGO
 10
30723.604341291921
 20
1491.749496429288
 30
0.0
 11
30723.604341291921
 21
1691.749496429288
 31
0.0
  0
LINE
  5
4516
  8
YODOROGO
 10
30899.604341291932
 20
1691.749496429288
 30
0.0
 11
30899.604341291932
 21
1491.749496429288
 31
0.0
  0
LINE
  5
4517
  8
YODOROGO
 10
30859.604341291932
 20
1563.7494964292871
 30
0.0
 11
30859.604341291932
 21
1691.749496429288
 31
0.0
  0
LINE
  5
4518
  8
YODOROGO
 10
30831.604341291921
 20
1755.7494964292871
 30
0.0
 11
30831.604341291921
 21
1563.7494964292871
 31
0.0
  0
LINE
  5
4519
  8
YODOROGO
 10
30973.604341291921
 20
2027.749496429288
 30
0.0
 11
30973.604341291921
 21
1467.749496429288
 31
0.0
  0
LINE
  5
451A
  8
YODOROGO
 10
30645.604341291921
 20
1427.749496429288
 30
0.0
 11
30645.604341291921
 21
2027.749496429288
 31
0.0
  0
LINE
  5
451B
  8
YODOROGO
 10
30697.604341291932
 20
1963.749496429286
 30
0.0
 11
30697.604341291932
 21
1427.749496429288
 31
0.0
  0
LINE
  5
451C
  8
YODOROGO
 10
30925.604341291921
 20
1547.749496429288
 30
0.0
 11
30925.604341291921
 21
1963.749496429286
 31
0.0
  0
LINE
  5
451D
  8
YODOROGO
 10
30381.604341291932
 20
1627.749496429288
 30
0.0
 11
30381.604341291932
 21
1679.749496429288
 31
0.0
  0
LINE
  5
451E
  8
YODOROGO
 10
30617.604341291921
 20
1679.749496429288
 30
0.0
 11
30617.604341291921
 21
1627.749496429288
 31
0.0
  0
LINE
  5
451F
  8
YODOROGO
 10
31165.604341291921
 20
1907.7494964292871
 30
0.0
 11
31165.604341291921
 21
1635.7494964292871
 31
0.0
  0
LINE
  5
4520
  8
YODOROGO
 10
29949.60434129191
 20
1667.749496429288
 30
0.0
 11
29949.60434129191
 21
1707.749496429288
 31
0.0
  0
LINE
  5
4521
  8
YODOROGO
 10
29949.60434129191
 20
1667.749496429288
 30
0.0
 11
29949.60434129191
 21
1707.749496429288
 31
0.0
  0
ARC
  5
4522
  8
YODOROGO
 10
30537.604341291921
 20
1507.749496429288
 30
0.0
 40
80.0
 50
270.0
 51
0.0
  0
LINE
  5
4523
  8
YODOROGO
 10
30569.604341291921
 20
1599.7494964292871
 30
0.0
 11
30617.604341291921
 21
1599.7494964292871
 31
0.0
  0
LINE
  5
4524
  8
YODOROGO
 10
30617.604341291921
 20
1627.749496429288
 30
0.0
 11
30529.604341291939
 21
1627.749496429288
 31
0.0
  0
LINE
  5
4525
  8
YODOROGO
 10
30217.604341291921
 20
1667.749496429288
 30
0.0
 11
29949.60434129191
 21
1667.749496429288
 31
0.0
  0
LINE
  5
4526
  8
YODOROGO
 10
30217.604341291921
 20
1627.749496429288
 30
0.0
 11
30217.604341291921
 21
1667.749496429288
 31
0.0
  0
LINE
  5
4527
  8
YODOROGO
 10
30017.604341291921
 20
1627.749496429288
 30
0.0
 11
30217.604341291921
 21
1627.749496429288
 31
0.0
  0
ARC
  5
4528
  8
YODOROGO
 10
30230.05882870136
 20
1868.885714952901
 30
0.0
 40
321.37763628522822
 50
228.6181454618993
 51
245.660289248906
  0
LINE
  5
4529
  8
YODOROGO
 10
30105.604341291921
 20
1603.7494964292871
 30
0.0
 11
30097.60434129195
 21
1576.0728158699001
 31
0.0
  0
LINE
  5
452A
  8
YODOROGO
 10
30189.604341291921
 20
1603.7494964292871
 30
0.0
 11
30105.604341291921
 21
1603.7494964292871
 31
0.0
  0
LINE
  5
452B
  8
YODOROGO
 10
30177.604341291921
 20
1551.817722473427
 30
0.0
 11
30189.604341291921
 21
1603.7494964292871
 31
0.0
  0
ARC
  5
452C
  8
YODOROGO
 10
30230.05882870045
 20
1868.885714953002
 30
0.0
 40
321.37763628529081
 50
260.60629297969911
 51
267.77903556555862
  0
LINE
  5
452D
  8
YODOROGO
 10
30217.604341291921
 20
1427.749496429285
 30
0.0
 11
30217.604341291921
 21
1547.749496429288
 31
0.0
  0
LINE
  5
452E
  8
YODOROGO
 10
29937.604341291932
 20
1481.3393349155101
 30
0.0
 11
29937.604341291921
 21
1594.531090531141
 31
0.0
  0
LINE
  5
452F
  8
YODOROGO
 10
30217.604341291921
 20
1667.749496429288
 30
0.0
 11
29949.60434129191
 21
1667.749496429288
 31
0.0
  0
LINE
  5
4530
  8
YODOROGO
 10
30217.604341291921
 20
1627.749496429288
 30
0.0
 11
30217.604341291921
 21
1667.749496429288
 31
0.0
  0
LINE
  5
4531
  8
YODOROGO
 10
30017.604341291921
 20
1627.749496429288
 30
0.0
 11
30217.604341291921
 21
1627.749496429288
 31
0.0
  0
ARC
  5
4532
  8
YODOROGO
 10
30230.05882870136
 20
1868.885714952901
 30
0.0
 40
321.37763628522822
 50
228.6181454618993
 51
245.660289248906
  0
LINE
  5
4533
  8
YODOROGO
 10
30105.604341291921
 20
1603.7494964292871
 30
0.0
 11
30097.60434129195
 21
1576.0728158699001
 31
0.0
  0
LINE
  5
4534
  8
YODOROGO
 10
30189.604341291921
 20
1603.7494964292871
 30
0.0
 11
30105.604341291921
 21
1603.7494964292871
 31
0.0
  0
LINE
  5
4535
  8
YODOROGO
 10
30177.604341291921
 20
1551.817722473427
 30
0.0
 11
30189.604341291921
 21
1603.7494964292871
 31
0.0
  0
ARC
  5
4536
  8
YODOROGO
 10
30230.05882870045
 20
1868.885714953002
 30
0.0
 40
321.37763628529081
 50
260.60629297969911
 51
267.77903556555862
  0
LINE
  5
4537
  8
YODOROGO
 10
30217.604341291921
 20
1427.749496429285
 30
0.0
 11
30217.604341291921
 21
1547.749496429288
 31
0.0
  0
LINE
  5
4538
  8
YODOROGO
 10
29937.604341291932
 20
1481.3393349155101
 30
0.0
 11
29937.604341291921
 21
1594.531090531141
 31
0.0
  0
LINE
  5
4539
  8
YODOROGO
 10
30433.604341291921
 20
1573.749496429288
 30
0.0
 11
30381.604341291932
 21
1573.749496429288
 31
0.0
  0
LINE
  5
453A
  8
YODOROGO
 10
30433.604341291921
 20
1601.749496429285
 30
0.0
 11
30433.604341291921
 21
1573.749496429288
 31
0.0
  0
LINE
  5
453B
  8
YODOROGO
 10
30381.604341291932
 20
1601.749496429285
 30
0.0
 11
30433.604341291921
 21
1601.749496429285
 31
0.0
  0
LINE
  5
453C
  8
YODOROGO
 10
30381.604341291932
 20
1573.749496429288
 30
0.0
 11
30381.604341291932
 21
1601.749496429285
 31
0.0
  0
LINE
  5
453D
  8
YODOROGO
 10
30429.604341291921
 20
1577.7494964292871
 30
0.0
 11
30385.604341291921
 21
1577.7494964292871
 31
0.0
  0
LINE
  5
453E
  8
YODOROGO
 10
30429.604341291921
 20
1597.749496429288
 30
0.0
 11
30429.604341291921
 21
1577.7494964292871
 31
0.0
  0
LINE
  5
453F
  8
YODOROGO
 10
30385.604341291921
 20
1597.749496429288
 30
0.0
 11
30429.604341291921
 21
1597.749496429288
 31
0.0
  0
LINE
  5
4540
  8
YODOROGO
 10
30385.604341291921
 20
1577.7494964292871
 30
0.0
 11
30385.604341291921
 21
1597.749496429288
 31
0.0
  0
LINE
  5
4541
  8
YODOROGO
 10
30425.604341291921
 20
1581.749496429286
 30
0.0
 11
30389.604341291921
 21
1581.749496429286
 31
0.0
  0
LINE
  5
4542
  8
YODOROGO
 10
30425.604341291921
 20
1593.749496429288
 30
0.0
 11
30425.604341291921
 21
1581.749496429286
 31
0.0
  0
LINE
  5
4543
  8
YODOROGO
 10
30389.604341291921
 20
1593.749496429288
 30
0.0
 11
30425.604341291921
 21
1593.749496429288
 31
0.0
  0
LINE
  5
4544
  8
YODOROGO
 10
30389.604341291921
 20
1581.749496429286
 30
0.0
 11
30389.604341291921
 21
1593.749496429288
 31
0.0
  0
LINE
  5
4545
  8
YODOROGO
 10
30421.604341291932
 20
1585.7494964292871
 30
0.0
 11
30393.604341291921
 21
1585.7494964292871
 31
0.0
  0
LINE
  5
4546
  8
YODOROGO
 10
30421.604341291932
 20
1589.749496429288
 30
0.0
 11
30421.604341291932
 21
1585.7494964292871
 31
0.0
  0
LINE
  5
4547
  8
YODOROGO
 10
30393.604341291921
 20
1589.749496429288
 30
0.0
 11
30421.604341291932
 21
1589.749496429288
 31
0.0
  0
LINE
  5
4548
  8
YODOROGO
 10
30393.604341291921
 20
1585.7494964292871
 30
0.0
 11
30393.604341291921
 21
1589.749496429288
 31
0.0
  0
LINE
  5
4549
  8
YODOROGO
 10
30465.604341291921
 20
1627.749496429288
 30
0.0
 11
30381.604341291932
 21
1627.749496429288
 31
0.0
  0
LINE
  5
454A
  8
YODOROGO
 10
30465.604341291921
 20
1547.749496429288
 30
0.0
 11
30465.604341291921
 21
1627.749496429288
 31
0.0
  0
LINE
  5
454B
  8
YODOROGO
 10
30381.604341291932
 20
1547.749496429288
 30
0.0
 11
30465.604341291921
 21
1547.749496429288
 31
0.0
  0
LINE
  5
454C
  8
YODOROGO
 10
30381.604341291932
 20
1427.749496429288
 30
0.0
 11
30381.604341291932
 21
1547.749496429288
 31
0.0
  0
LINE
  5
454D
  8
YODOROGO
 10
30537.604341291921
 20
1427.749496429288
 30
0.0
 11
30381.604341291932
 21
1427.749496429288
 31
0.0
  0
LINE
  5
454E
  8
YODOROGO
 10
30569.604341291921
 20
1571.749496429285
 30
0.0
 11
30569.604341291921
 21
1599.7494964292871
 31
0.0
  0
ARC
  5
454F
  8
YODOROGO
 10
30545.604341291921
 20
1571.749496429291
 30
0.0
 40
24.000000000003752
 50
270.0
 51
359.99999999998772
  0
LINE
  5
4550
  8
YODOROGO
 10
30529.604341291939
 20
1547.749496429288
 30
0.0
 11
30545.604341291921
 21
1547.749496429288
 31
0.0
  0
LINE
  5
4551
  8
YODOROGO
 10
30529.604341291939
 20
1627.749496429288
 30
0.0
 11
30529.604341291939
 21
1547.749496429288
 31
0.0
  0
LINE
  5
4552
  8
YODOROGO
 10
30899.604341291932
 20
1547.749496429288
 30
0.0
 11
30925.604341291921
 21
1547.749496429288
 31
0.0
  0
LINE
  5
4553
  8
YODOROGO
 10
30933.604341291921
 20
1427.749496429288
 30
0.0
 11
30899.604341291932
 21
1427.749496429288
 31
0.0
  0
LINE
  5
4554
  8
YODOROGO
 10
30763.604341291921
 20
1563.7494964292871
 30
0.0
 11
30791.604341291921
 21
1563.7494964292871
 31
0.0
  0
LINE
  5
4555
  8
YODOROGO
 10
30899.604341291932
 20
1491.749496429288
 30
0.0
 11
30723.604341291921
 21
1491.749496429288
 31
0.0
  0
LINE
  5
4556
  8
YODOROGO
 10
30831.604341291921
 20
1563.7494964292871
 30
0.0
 11
30859.604341291932
 21
1563.7494964292871
 31
0.0
  0
LINE
  5
4557
  8
YODOROGO
 10
30899.604341291932
 20
1427.749496429288
 30
0.0
 11
30899.604341291932
 21
1547.749496429288
 31
0.0
  0
LINE
  5
4558
  8
YODOROGO
 10
30697.604341291932
 20
1427.749496429288
 30
0.0
 11
30645.604341291921
 21
1427.749496429288
 31
0.0
  0
LINE
  5
4559
  8
YODOROGO
 10
30617.604341291921
 20
1599.7494964292871
 30
0.0
 11
30617.604341291921
 21
1507.749496429288
 31
0.0
  0
ARC
  5
455A
  8
YODOROGO
 10
30933.604341291921
 20
1467.749496429288
 30
0.0
 40
40.0
 50
270.0
 51
0.0
  0
LINE
  5
455B
  8
YODOROGO
 10
31093.604341291921
 20
1523.7494964292871
 30
0.0
 11
31093.604341291921
 21
1427.749496429288
 31
0.0
  0
ARC
  5
455C
  8
YODOROGO
 10
31039.721395566768
 20
1637.5313901097329
 30
0.0
 40
125.8955565916754
 50
295.34052442160112
 51
359.18902303418679
  0
LINE
  5
455D
  8
YODOROGO
 10
30617.604341291921
 20
1859.749496429288
 30
0.0
 11
30497.604341291921
 21
1939.749496429288
 31
0.0
  0
LINE
  5
455E
  8
YODOROGO
 10
30497.604341291921
 20
2027.749496429288
 30
0.0
 11
30617.604341291921
 21
1947.749496429288
 31
0.0
  0
LINE
  5
455F
  8
YODOROGO
 10
30529.604341291939
 20
1679.749496429288
 30
0.0
 11
30617.604341291921
 21
1679.749496429288
 31
0.0
  0
LINE
  5
4560
  8
YODOROGO
 10
30617.604341291921
 20
1735.7494964292871
 30
0.0
 11
30529.604341291939
 21
1735.7494964292871
 31
0.0
  0
LINE
  5
4561
  8
YODOROGO
 10
30381.604341291932
 20
1795.7494964292871
 30
0.0
 11
30617.604341291921
 21
1795.7494964292871
 31
0.0
  0
LINE
  5
4562
  8
YODOROGO
 10
30081.604341291921
 20
2027.749496429288
 30
0.0
 11
30021.604341291921
 21
2027.749496429288
 31
0.0
  0
LINE
  5
4563
  8
YODOROGO
 10
30081.604341291921
 20
1827.7494964292871
 30
0.0
 11
30081.604341291921
 21
2027.749496429288
 31
0.0
  0
LINE
  5
4564
  8
YODOROGO
 10
30021.604341291921
 20
1827.7494964292871
 30
0.0
 11
30081.604341291921
 21
1827.7494964292871
 31
0.0
  0
LINE
  5
4565
  8
YODOROGO
 10
30021.604341291921
 20
2027.749496429288
 30
0.0
 11
30021.604341291921
 21
1827.7494964292871
 31
0.0
  0
LINE
  5
4566
  8
YODOROGO
 10
30161.604341291921
 20
2027.749496429288
 30
0.0
 11
30217.604341291921
 21
2027.749496429288
 31
0.0
  0
LINE
  5
4567
  8
YODOROGO
 10
30161.604341291921
 20
1811.749496429288
 30
0.0
 11
30161.604341291921
 21
2027.749496429288
 31
0.0
  0
ARC
  5
4568
  8
YODOROGO
 10
30121.604341291921
 20
1811.749496429288
 30
0.0
 40
40.0
 50
270.0
 51
0.0
  0
LINE
  5
4569
  8
YODOROGO
 10
30021.604341291921
 20
1771.7494964292871
 30
0.0
 11
30121.604341291921
 21
1771.7494964292871
 31
0.0
  0
LINE
  5
456A
  8
YODOROGO
 10
30021.604341291921
 20
1707.749496429288
 30
0.0
 11
30021.604341291921
 21
1771.7494964292871
 31
0.0
  0
LINE
  5
456B
  8
YODOROGO
 10
30137.604341291921
 20
1707.749496429288
 30
0.0
 11
30021.604341291921
 21
1707.749496429288
 31
0.0
  0
ARC
  5
456C
  8
YODOROGO
 10
30137.604341291921
 20
1787.7494964292871
 30
0.0
 40
80.0
 50
270.0
 51
0.0
  0
LINE
  5
456D
  8
YODOROGO
 10
30217.604341291921
 20
2027.749496429288
 30
0.0
 11
30217.604341291921
 21
1787.7494964292871
 31
0.0
  0
LINE
  5
456E
  8
YODOROGO
 10
29977.604341291921
 20
1947.749496429288
 30
0.0
 11
29977.604341291921
 21
1995.7494964292871
 31
0.0
1001
AUTOCAD_POSTSCRIPT_FIGURE
1002
{
1000
PSFILL
1000
Grayscale
1000
Grayscale
1070
    25
1002
}
  0
LINE
  5
456F
  8
YODOROGO
 10
29977.604341291921
 20
1859.749496429288
 30
0.0
 11
29977.604341291921
 21
1907.7494964292871
 31
0.0
1001
AUTOCAD_POSTSCRIPT_FIGURE
1002
{
1000
PSFILL
1000
Grayscale
1000
Grayscale
1070
    25
1002
}
  0
LINE
  5
4570
  8
YODOROGO
 10
29977.604341291921
 20
1707.749496429288
 30
0.0
 11
29977.604341291921
 21
1819.7494964292871
 31
0.0
1001
AUTOCAD_POSTSCRIPT_FIGURE
1002
{
1000
PSFILL
1000
Grayscale
1000
Grayscale
1070
    25
1002
}
  0
LINE
  5
4571
  8
YODOROGO
 10
30381.604341291932
 20
1907.7494964292871
 30
0.0
 11
30497.604341291921
 21
2027.749496429288
 31
0.0
  0
LINE
  5
4572
  8
YODOROGO
 10
30381.604341291932
 20
1819.7494964292871
 30
0.0
 11
30381.604341291932
 21
1907.7494964292871
 31
0.0
  0
LINE
  5
4573
  8
YODOROGO
 10
30497.604341291921
 20
1939.749496429288
 30
0.0
 11
30381.604341291932
 21
1819.7494964292871
 31
0.0
  0
LINE
  5
4574
  8
YODOROGO
 10
30465.604341291921
 20
1679.749496429288
 30
0.0
 11
30465.604341291921
 21
1735.7494964292871
 31
0.0
  0
LINE
  5
4575
  8
YODOROGO
 10
30381.604341291932
 20
1679.749496429288
 30
0.0
 11
30465.604341291921
 21
1679.749496429288
 31
0.0
  0
LINE
  5
4576
  8
YODOROGO
 10
30529.604341291939
 20
1735.7494964292871
 30
0.0
 11
30529.604341291939
 21
1679.749496429288
 31
0.0
  0
LINE
  5
4577
  8
YODOROGO
 10
30381.604341291932
 20
1735.7494964292871
 30
0.0
 11
30381.604341291932
 21
1795.7494964292871
 31
0.0
  0
LINE
  5
4578
  8
YODOROGO
 10
30465.604341291921
 20
1735.7494964292871
 30
0.0
 11
30381.604341291932
 21
1735.7494964292871
 31
0.0
  0
LINE
  5
4579
  8
YODOROGO
 10
30645.604341291921
 20
2027.749496429288
 30
0.0
 11
30973.604341291921
 21
2027.749496429288
 31
0.0
  0
LINE
  5
457A
  8
YODOROGO
 10
30925.604341291921
 20
1963.749496429286
 30
0.0
 11
30697.604341291932
 21
1963.749496429286
 31
0.0
  0
LINE
  5
457B
  8
YODOROGO
 10
30873.604341291921
 20
1819.7494964292871
 30
0.0
 11
30899.604341291932
 21
1819.7494964292871
 31
0.0
  0
LINE
  5
457C
  8
YODOROGO
 10
30899.604341291932
 20
1939.749496429288
 30
0.0
 11
30873.604341291921
 21
1819.7494964292871
 31
0.0
  0
LINE
  5
457D
  8
YODOROGO
 10
30851.604341291939
 20
1939.749496429288
 30
0.0
 11
30899.604341291932
 21
1939.749496429288
 31
0.0
  0
LINE
  5
457E
  8
YODOROGO
 10
30825.604341291921
 20
1819.7494964292871
 30
0.0
 11
30851.604341291939
 21
1939.749496429288
 31
0.0
  0
LINE
  5
457F
  8
YODOROGO
 10
30797.604341291921
 20
1819.7494964292871
 30
0.0
 11
30825.604341291921
 21
1819.7494964292871
 31
0.0
  0
LINE
  5
4580
  8
YODOROGO
 10
30771.604341291939
 20
1939.749496429288
 30
0.0
 11
30797.604341291921
 21
1819.7494964292871
 31
0.0
  0
LINE
  5
4581
  8
YODOROGO
 10
30723.604341291921
 20
1939.749496429288
 30
0.0
 11
30771.604341291939
 21
1939.749496429288
 31
0.0
  0
LINE
  5
4582
  8
YODOROGO
 10
30749.604341291921
 20
1819.7494964292871
 30
0.0
 11
30723.604341291921
 21
1939.749496429288
 31
0.0
  0
LINE
  5
4583
  8
YODOROGO
 10
30723.604341291921
 20
1819.7494964292871
 30
0.0
 11
30749.604341291921
 21
1819.7494964292871
 31
0.0
  0
LINE
  5
4584
  8
YODOROGO
 10
30723.604341291921
 20
1755.7494964292871
 30
0.0
 11
30723.604341291921
 21
1819.7494964292871
 31
0.0
  0
LINE
  5
4585
  8
YODOROGO
 10
30899.604341291932
 20
1755.7494964292871
 30
0.0
 11
30723.604341291921
 21
1755.7494964292871
 31
0.0
  0
LINE
  5
4586
  8
YODOROGO
 10
30899.604341291932
 20
1819.7494964292871
 30
0.0
 11
30899.604341291932
 21
1755.7494964292871
 31
0.0
  0
LINE
  5
4587
  8
YODOROGO
 10
30617.604341291921
 20
1947.749496429288
 30
0.0
 11
30617.604341291921
 21
1859.749496429288
 31
0.0
  0
LINE
  5
4588
  8
YODOROGO
 10
30791.604341291921
 20
1755.7494964292871
 30
0.0
 11
30831.604341291921
 21
1755.7494964292871
 31
0.0
  0
LINE
  5
4589
  8
YODOROGO
 10
30723.604341291921
 20
1691.749496429288
 30
0.0
 11
30763.604341291921
 21
1691.749496429288
 31
0.0
  0
LINE
  5
458A
  8
YODOROGO
 10
30859.604341291932
 20
1691.749496429288
 30
0.0
 11
30899.604341291932
 21
1691.749496429288
 31
0.0
  0
LINE
  5
458B
  8
YODOROGO
 10
30617.604341291921
 20
1795.7494964292871
 30
0.0
 11
30617.604341291921
 21
1735.7494964292871
 31
0.0
  0
LINE
  5
458C
  8
YODOROGO
 10
31165.604341291921
 20
2027.749496429288
 30
0.0
 11
31165.604341291921
 21
1963.749496429286
 31
0.0
  0
LINE
  5
458D
  8
YODOROGO
 10
31533.604341291921
 20
1595.7494964292871
 30
0.0
 11
31533.60434129191
 21
1811.749496429288
 31
0.0
  0
LINE
  5
458E
  8
YODOROGO
 10
31461.60434129191
 20
1987.7494964292871
 30
0.0
 11
31461.60434129191
 21
1635.7494964292871
 31
0.0
  0
LINE
  5
458F
  8
YODOROGO
 10
31653.604341291921
 20
1427.749496429288
 30
0.0
 11
31653.60434129191
 21
1811.749496429288
 31
0.0
  0
LINE
  5
4590
  8
YODOROGO
 10
31589.604341291921
 20
1811.749496429288
 30
0.0
 11
31589.604341291921
 21
1427.749496429288
 31
0.0
  0
LINE
  5
4591
  8
YODOROGO
 10
31237.604341291921
 20
1595.7494964292871
 30
0.0
 11
31237.604341291921
 21
1707.749496429288
 31
0.0
  0
ARC
  5
4592
  8
YODOROGO
 10
31353.914865116069
 20
1607.790351288558
 30
0.0
 40
180.0924485759885
 50
268.62849102169793
 51
356.16638457330322
  0
LINE
  5
4593
  8
YODOROGO
 10
31349.604341291939
 20
1527.749496429288
 30
0.0
 11
31349.604341291939
 21
1427.749496429288
 31
0.0
  0
ARC
  5
4594
  8
YODOROGO
 10
31351.518075724562
 20
1637.838957017655
 30
0.0
 40
110.1060929836122
 50
269.00410209305932
 51
358.91264455492478
  0
LINE
  5
4595
  8
YODOROGO
 10
31589.604341291921
 20
1427.749496429288
 30
0.0
 11
31653.604341291921
 21
1427.749496429288
 31
0.0
  0
LINE
  5
4596
  8
YODOROGO
 10
31533.60434129191
 20
1811.749496429288
 30
0.0
 11
31589.604341291921
 21
1811.749496429288
 31
0.0
  0
LINE
  5
4597
  8
YODOROGO
 10
31621.604341291939
 20
1987.7494964292871
 30
0.0
 11
31461.60434129191
 21
1987.7494964292871
 31
0.0
  0
LINE
  5
4598
  8
YODOROGO
 10
31533.60434129191
 20
1915.7494964292871
 30
0.0
 11
31661.604341291939
 21
1915.7494964292871
 31
0.0
  0
LINE
  5
4599
  8
YODOROGO
 10
31701.604341291939
 20
1875.7494964292871
 30
0.0
 11
31533.60434129191
 21
1875.7494964292871
 31
0.0
  0
LINE
  5
459A
  8
YODOROGO
 10
31237.604341291921
 20
1779.749496429288
 30
0.0
 11
31349.604341291939
 21
1779.749496429288
 31
0.0
  0
LINE
  5
459B
  8
YODOROGO
 10
31237.604341291921
 20
1835.7494964292871
 30
0.0
 11
31237.604341291921
 21
1779.749496429288
 31
0.0
  0
LINE
  5
459C
  8
YODOROGO
 10
31349.604341291939
 20
1835.7494964292871
 30
0.0
 11
31237.604341291921
 21
1835.7494964292871
 31
0.0
  0
LINE
  5
459D
  8
YODOROGO
 10
31349.604341291939
 20
1779.749496429288
 30
0.0
 11
31349.604341291939
 21
1835.7494964292871
 31
0.0
  0
LINE
  5
459E
  8
YODOROGO
 10
31533.60434129191
 20
1875.7494964292871
 30
0.0
 11
31533.60434129191
 21
1915.7494964292871
 31
0.0
  0
LINE
  5
459F
  8
YODOROGO
 10
31413.604341291921
 20
1707.749496429288
 30
0.0
 11
31413.604341291921
 21
1907.7494964292871
 31
0.0
  0
LINE
  5
45A0
  8
YODOROGO
 10
31237.604341291921
 20
1707.749496429288
 30
0.0
 11
31413.604341291921
 21
1707.749496429288
 31
0.0
  0
LINE
  5
45A1
  8
YODOROGO
 10
31413.604341291921
 20
1963.749496429286
 30
0.0
 11
31413.604341291921
 21
2027.749496429288
 31
0.0
  0
ARC
  5
45A2
  8
YODOROGO
 10
31621.604341291939
 20
2003.749496429285
 30
0.0
 40
15.999999999994539
 50
270.0
 51
0.0000000000081422
  0
LINE
  5
45A3
  8
YODOROGO
 10
31637.604341291921
 20
2027.749496429288
 30
0.0
 11
31637.604341291921
 21
2003.7494964292871
 31
0.0
  0
LINE
  5
45A4
  8
YODOROGO
 10
31701.604341291939
 20
2027.749496429288
 30
0.0
 11
31637.604341291921
 21
2027.749496429288
 31
0.0
  0
LINE
  5
45A5
  8
YODOROGO
 10
31701.604341291939
 20
1955.7494964292871
 30
0.0
 11
31701.604341291939
 21
2027.749496429288
 31
0.0
  0
ARC
  5
45A6
  8
YODOROGO
 10
31661.604341291939
 20
1955.7494964292871
 30
0.0
 40
40.0
 50
270.0
 51
0.0
  0
LINE
  5
45A7
  8
YODOROGO
 10
31701.604341291939
 20
1811.749496429288
 30
0.0
 11
31701.604341291939
 21
1875.7494964292871
 31
0.0
  0
LINE
  5
45A8
  8
YODOROGO
 10
31653.60434129191
 20
1811.749496429288
 30
0.0
 11
31701.604341291939
 21
1811.749496429288
 31
0.0
  0
LINE
  5
45AD
  8
SUNPOU
  6
CONTINUOUS
 62
     4
 10
11659.84198199998
 20
20440.987440000012
 30
0.0
 11
11899.841981999991
 21
20440.987440000012
 31
0.0
  0
LINE
  5
45B1
  8
SUNPOU
  6
CONTINUOUS
 62
     4
 10
14227.347919999989
 20
20440.987440000012
 30
0.0
 11
13987.347919999989
 21
20440.987440000012
 31
0.0
  0
LINE
  5
45B4
  8
SUNPOU
  6
CONTINUOUS
 62
     4
 10
14227.347919999989
 20
20440.987440000012
 30
0.0
 11
11659.84198199998
 21
20440.987440000012
 31
0.0
  0
LINE
  5
45B5
  8
SUNPOU
  6
CONTINUOUS
 62
     4
 10
11497.343734999989
 20
13639.990937
 30
0.0
 11
10650.348314000001
 21
13639.990937
 31
0.0
  0
LINE
  5
45B6
  8
SUNPOU
  6
CONTINUOUS
 62
     4
 10
10730.348314000001
 20
13832.486252000001
 30
0.0
 11
10730.348314000001
 21
14072.486252000001
 31
0.0
  0
LINE
  5
45B7
  8
SUNPOU
  6
CONTINUOUS
 62
     4
 10
10730.348314000001
 20
13639.990937
 30
0.0
 11
10730.348314000001
 21
13399.990937
 31
0.0
  0
LINE
  5
45B8
  8
SUNPOU
  6
CONTINUOUS
 62
     4
 10
10730.348314000001
 20
13832.486252000001
 30
0.0
 11
10730.348314000001
 21
13639.990937
 31
0.0
  0
LINE
  5
45B9
  8
SUNPOU
  6
CONTINUOUS
 62
     4
 10
10730.348639
 20
16750.486251999992
 30
0.0
 11
10730.348639
 21
13832.486252000001
 31
0.0
  0
LINE
  5
45BA
  8
SUNPOU
  6
CONTINUOUS
 62
     4
 10
11497.344059999999
 20
19860.982161000022
 30
0.0
 11
11050.348639
 21
19860.982161000022
 31
0.0
  0
LINE
  5
45BB
  8
SUNPOU
  6
CONTINUOUS
 62
     4
 10
11497.348415
 20
19890.982161000022
 30
0.0
 11
11050.348639
 21
19890.982161000022
 31
0.0
  0
LINE
  5
45BC
  8
SUNPOU
  6
CONTINUOUS
 62
     4
 10
11130.348639
 20
19860.982161000022
 30
0.0
 11
11130.348639
 21
19620.982161000022
 31
0.0
  0
LINE
  5
45BD
  8
SUNPOU
  6
CONTINUOUS
 62
     4
 10
11130.348639
 20
19890.982161000022
 30
0.0
 11
11130.348639
 21
20130.982161000022
 31
0.0
  0
LINE
  5
45BE
  8
SUNPOU
  6
CONTINUOUS
 62
     4
 10
11130.348639
 20
19860.982161000022
 30
0.0
 11
11130.348639
 21
19890.982161000022
 31
0.0
  0
LINE
  5
45BF
  8
SUNPOU
  6
CONTINUOUS
 62
     4
 10
11497.348415
 20
19890.982161000022
 30
0.0
 11
10650.348639
 21
19890.982161000022
 31
0.0
  0
LINE
  5
45C0
  8
SUNPOU
  6
CONTINUOUS
 62
     4
 10
10730.348639
 20
19668.486251999992
 30
0.0
 11
10730.348639
 21
19428.486251999992
 31
0.0
  0
LINE
  5
45C1
  8
SUNPOU
  6
CONTINUOUS
 62
     4
 10
10730.348639
 20
19890.982161000022
 30
0.0
 11
10730.348639
 21
20130.982161000022
 31
0.0
  0
LINE
  5
45C2
  8
SUNPOU
  6
CONTINUOUS
 62
     4
 10
10730.348639
 20
19668.486251999992
 30
0.0
 11
10730.348639
 21
19890.982161000022
 31
0.0
  0
LINE
  5
45C3
  8
SUNPOU
  6
CONTINUOUS
 62
     4
 10
10730.348639
 20
16750.486251999992
 30
0.0
 11
10730.348639
 21
19668.486251999992
 31
0.0
  0
LINE
  5
45C4
  8
SUNPOU
  6
CONTINUOUS
 62
     4
 10
20899.81086300001
 20
6567.9237529999991
 30
0.0
 11
20099.812182000001
 21
6567.9237529999991
 31
0.0
  0
LINE
  5
45C5
  8
SUNPOU
  6
CONTINUOUS
 62
     4
 10
20899.81086300001
 20
8459.4237529999973
 30
0.0
 11
20099.812182000001
 21
8459.4237530000028
 31
0.0
  0
LINE
  5
45C6
  8
SUNPOU
  6
CONTINUOUS
 62
     4
 10
20179.812182000001
 20
6567.9237529999991
 30
0.0
 11
20179.812182000001
 21
8459.4237530000028
 31
0.0
  0
LINE
  5
45C7
  8
SUNPOU
  6
CONTINUOUS
 62
     4
 10
20899.81086300001
 20
6567.9237529999991
 30
0.0
 11
19699.809872999991
 21
6567.9237529999991
 31
0.0
  0
LINE
  5
45C8
  8
SUNPOU
  6
CONTINUOUS
 62
     4
 10
20867.313107000009
 20
8916.4237789999952
 30
0.0
 11
19699.809872999991
 21
8916.4237789999952
 31
0.0
  0
LINE
  5
45C9
  8
SUNPOU
  6
CONTINUOUS
 62
     4
 10
19779.809872999991
 20
6567.9237529999991
 30
0.0
 11
19779.809872999991
 21
8916.4237789999952
 31
0.0
  0
LINE
  5
45DA
  8
SUNPOU
  6
CONTINUOUS
 62
     4
 10
23597.313502000001
 20
6125.2714950000009
 30
0.0
 11
23597.313502000001
 21
5187.9239180000041
 31
0.0
  0
LINE
  5
45DB
  8
SUNPOU
  6
CONTINUOUS
 62
     4
 10
23639.81350199999
 20
6387.9239180000041
 30
0.0
 11
23639.81350199999
 21
5187.9239180000041
 31
0.0
  0
LINE
  5
45DC
  8
SUNPOU
  6
CONTINUOUS
 62
     4
 10
23597.313502000001
 20
5267.9239180000041
 30
0.0
 11
23357.313502000001
 21
5267.9239180000041
 31
0.0
  0
LINE
  5
45DD
  8
SUNPOU
  6
CONTINUOUS
 62
     4
 10
23639.81350199999
 20
5267.9239180000041
 30
0.0
 11
23879.813502000001
 21
5267.9239180000041
 31
0.0
  0
LINE
  5
45DE
  8
SUNPOU
  6
CONTINUOUS
 62
     4
 10
23597.313502000001
 20
5267.9239180000041
 30
0.0
 11
23639.81350199999
 21
5267.9239180000041
 31
0.0
  0
LINE
  5
45DF
  8
SUNPOU
  6
CONTINUOUS
 62
     4
 10
21123.813502000001
 20
6387.9239180000041
 30
0.0
 11
21123.813502000001
 21
5587.9239180000041
 31
0.0
  0
LINE
  5
45E0
  8
SUNPOU
  6
CONTINUOUS
 62
     4
 10
23503.313502000001
 20
6387.9239180000041
 30
0.0
 11
23503.313502000001
 21
5587.9239180000041
 31
0.0
  0
LINE
  5
45E1
  8
SUNPOU
  6
CONTINUOUS
 62
     4
 10
21123.813502000001
 20
5667.9239180000041
 30
0.0
 11
23503.313502000001
 21
5667.9239180000041
 31
0.0
  0
LINE
  5
45E2
  8
SUNPOU
  6
CONTINUOUS
 62
     4
 10
21029.813502000001
 20
6125.2714950000009
 30
0.0
 11
21029.813502000001
 21
5187.9239180000041
 31
0.0
  0
LINE
  5
45E3
  8
SUNPOU
  6
CONTINUOUS
 62
     4
 10
23597.313502000001
 20
6125.2714950000009
 30
0.0
 11
23597.313502000001
 21
5187.9239180000041
 31
0.0
  0
LINE
  5
45E4
  8
SUNPOU
  6
CONTINUOUS
 62
     4
 10
21029.813502000001
 20
5267.9239180000041
 30
0.0
 11
23597.313502000001
 21
5267.9239180000041
 31
0.0
  0
LINE
  5
45E5
  8
SUNPOU
  6
CONTINUOUS
 62
     4
 10
21029.813502000001
 20
6125.2714950000009
 30
0.0
 11
21029.813502000001
 21
5187.9239180000041
 31
0.0
  0
LINE
  5
45E6
  8
SUNPOU
  6
CONTINUOUS
 62
     4
 10
20987.313502000001
 20
6387.9239180000041
 30
0.0
 11
20987.313502000001
 21
5187.9239180000041
 31
0.0
  0
LINE
  5
45E7
  8
SUNPOU
  6
CONTINUOUS
 62
     4
 10
21029.813502000001
 20
5267.9239180000041
 30
0.0
 11
21269.813502000001
 21
5267.9239180000041
 31
0.0
  0
LINE
  5
45E8
  8
SUNPOU
  6
CONTINUOUS
 62
     4
 10
20987.313502000001
 20
5267.9239180000041
 30
0.0
 11
20747.31350199999
 21
5267.9239180000041
 31
0.0
  0
LINE
  5
45E9
  8
SUNPOU
  6
CONTINUOUS
 62
     4
 10
21029.813502000001
 20
5267.9239180000041
 30
0.0
 11
20987.313502000001
 21
5267.9239180000041
 31
0.0
  0
LINE
  5
45EA
  8
SUNPOU
  6
CONTINUOUS
 62
     4
 10
20987.313502000001
 20
6387.9239180000041
 30
0.0
 11
20987.313502000001
 21
4787.9240829999999
 31
0.0
  0
LINE
  5
45EB
  8
SUNPOU
  6
CONTINUOUS
 62
     4
 10
23639.81350199999
 20
6387.9239180000041
 30
0.0
 11
23639.81350199999
 21
4787.9240829999999
 31
0.0
  0
LINE
  5
45EC
  8
SUNPOU
  6
CONTINUOUS
 62
     4
 10
20987.313502000001
 20
4867.9240830000008
 30
0.0
 11
23639.81350199999
 21
4867.9240830000008
 31
0.0
  0
LINE
  5
45ED
  8
SUNPOU
  6
CONTINUOUS
 62
     4
 10
9473.5669209999905
 20
8804.9222680000057
 30
0.0
 11
9473.5669209999905
 21
10195.922293999991
 31
0.0
  0
LINE
  5
45EE
  8
SUNPOU
  6
CONTINUOUS
 62
     4
 10
15724.566920999991
 20
8936.812091412432
 30
0.0
 11
15724.566920999991
 21
10195.922293999991
 31
0.0
  0
LINE
  5
45EF
  8
SUNPOU
  6
CONTINUOUS
 62
     4
 10
9473.5669209999905
 20
10115.922293999991
 30
0.0
 11
15724.566920999991
 21
10115.922293999991
 31
0.0
  0
LINE
  5
45F0
  8
SUNPOU
  6
CONTINUOUS
 62
     4
 10
15574.568173999991
 20
8863.1530139999977
 30
0.0
 11
15574.568173999991
 21
9795.9239440000001
 31
0.0
  0
LINE
  5
45F1
  8
SUNPOU
  6
CONTINUOUS
 62
     4
 10
15724.566920999991
 20
8936.812091412432
 30
0.0
 11
15724.566920999991
 21
9795.9239440000001
 31
0.0
  0
LINE
  5
45F2
  8
SUNPOU
  6
CONTINUOUS
 62
     4
 10
15574.568173999991
 20
9715.9239440000001
 30
0.0
 11
15334.568173999991
 21
9715.9239440000001
 31
0.0
  0
LINE
  5
45F3
  8
SUNPOU
  6
CONTINUOUS
 62
     4
 10
15724.566920999991
 20
9715.9239440000001
 30
0.0
 11
15964.566920999991
 21
9715.9239440000001
 31
0.0
  0
LINE
  5
45F4
  8
SUNPOU
  6
CONTINUOUS
 62
     4
 10
15574.568173999991
 20
9715.9239440000001
 30
0.0
 11
15724.566920999991
 21
9715.9239440000001
 31
0.0
  0
LINE
  5
45F5
  8
SUNPOU
  6
CONTINUOUS
 62
     4
 10
9653.565666999988
 20
8681.0046419999962
 30
0.0
 11
9653.565666999988
 21
9795.9239440000001
 31
0.0
  0
LINE
  5
45F6
  8
SUNPOU
  6
CONTINUOUS
 62
     4
 10
15574.568173999991
 20
8863.1530139999977
 30
0.0
 11
15574.568173999991
 21
9795.9239440000001
 31
0.0
  0
LINE
  5
45F7
  8
SUNPOU
  6
CONTINUOUS
 62
     4
 10
9653.565666999988
 20
9715.9239440000001
 30
0.0
 11
15574.568173999991
 21
9715.9239440000001
 31
0.0
  0
LINE
  5
45F8
  8
SUNPOU
  6
CONTINUOUS
 62
     4
 10
9473.5669209999905
 20
8804.9222680000057
 30
0.0
 11
9473.5669209999905
 21
9795.9239440000001
 31
0.0
  0
LINE
  5
45F9
  8
SUNPOU
  6
CONTINUOUS
 62
     4
 10
9653.565666999988
 20
8681.0046419999962
 30
0.0
 11
9653.565666999988
 21
9795.9239440000001
 31
0.0
  0
LINE
  5
45FA
  8
SUNPOU
  6
CONTINUOUS
 62
     4
 10
9473.5669209999905
 20
9715.9239439999983
 30
0.0
 11
9233.5669209999905
 21
9715.9239439999983
 31
0.0
  0
LINE
  5
45FB
  8
SUNPOU
  6
CONTINUOUS
 62
     4
 10
9653.565666999988
 20
9715.9239439999983
 30
0.0
 11
9893.5656669999898
 21
9715.9239439999983
 31
0.0
  0
LINE
  5
45FC
  8
SUNPOU
  6
CONTINUOUS
 62
     4
 10
9473.5669209999905
 20
9715.9239439999983
 30
0.0
 11
9653.565666999988
 21
9715.9239439999983
 31
0.0
  0
LINE
  5
45FD
  8
SUNPOU
  6
CONTINUOUS
 62
     4
 10
9566.0669209999924
 20
6567.9232579999998
 30
0.0
 11
8483.5685029999859
 21
6567.9232579999989
 31
0.0
  0
LINE
  5
45FE
  8
SUNPOU
  6
CONTINUOUS
 62
     4
 10
9393.5688989999835
 20
8724.4232579999989
 30
0.0
 11
8483.5685029999859
 21
8724.4232579999989
 31
0.0
  0
LINE
  5
45FF
  8
SUNPOU
  6
CONTINUOUS
 62
     4
 10
8563.5685029999859
 20
6567.9232579999989
 30
0.0
 11
8563.5685029999859
 21
8724.4232579999989
 31
0.0
  0
LINE
  5
4600
  8
SUNPOU
  6
CONTINUOUS
 62
     4
 10
15667.066920999991
 20
6567.9232579999998
 30
0.0
 11
16744.56632599996
 21
6567.9232579999989
 31
0.0
  0
LINE
  5
4601
  8
SUNPOU
  6
CONTINUOUS
 62
     4
 10
15759.373189599361
 20
8916.4232580000007
 30
0.0
 11
16744.56632599996
 21
8916.4232580000007
 31
0.0
  0
LINE
  5
4602
  8
SUNPOU
  6
CONTINUOUS
 62
     4
 10
16664.56632599996
 20
6567.9232579999989
 30
0.0
 11
16664.56632599996
 21
8916.4232580000007
 31
0.0
  0
LINE
  5
4603
  8
SUNPOU
  6
CONTINUOUS
 62
     4
 10
9653.5669209999924
 20
6487.9227630000032
 30
0.0
 11
9653.5669209999924
 21
4787.9230930000012
 31
0.0
  0
LINE
  5
4604
  8
SUNPOU
  6
CONTINUOUS
 62
     4
 10
15574.566920999991
 20
6487.9227630000032
 30
0.0
 11
15574.566920999991
 21
4787.9230930000012
 31
0.0
  0
LINE
  5
4605
  8
SUNPOU
  6
CONTINUOUS
 62
     4
 10
9653.5669209999924
 20
4867.9230930000012
 30
0.0
 11
15574.566920999991
 21
4867.9230930000012
 31
0.0
  0
LINE
  5
4606
  8
SUNPOU
  6
CONTINUOUS
 62
     4
 10
15532.066920999991
 20
6125.2705049999986
 30
0.0
 11
15532.066920999991
 21
5187.922928
 31
0.0
  0
LINE
  5
4607
  8
SUNPOU
  6
CONTINUOUS
 62
     4
 10
15574.566920999991
 20
6487.9227630000032
 30
0.0
 11
15574.566920999991
 21
5187.922928
 31
0.0
  0
LINE
  5
4608
  8
SUNPOU
  6
CONTINUOUS
 62
     4
 10
15532.066920999991
 20
5267.922928
 30
0.0
 11
15292.066920999991
 21
5267.922928
 31
0.0
  0
LINE
  5
4609
  8
SUNPOU
  6
CONTINUOUS
 62
     4
 10
15574.566920999991
 20
5267.922928
 30
0.0
 11
15814.566920999991
 21
5267.922928
 31
0.0
  0
LINE
  5
460A
  8
SUNPOU
  6
CONTINUOUS
 62
     4
 10
15532.066920999991
 20
5267.922928
 30
0.0
 11
15574.566920999991
 21
5267.922928
 31
0.0
  0
LINE
  5
460B
  8
SUNPOU
  6
CONTINUOUS
 62
     4
 10
9696.0669209999924
 20
6125.2705049999986
 30
0.0
 11
9696.0669209999924
 21
5187.922928
 31
0.0
  0
LINE
  5
460C
  8
SUNPOU
  6
CONTINUOUS
 62
     4
 10
9653.5669209999924
 20
6487.9227630000032
 30
0.0
 11
9653.5669209999924
 21
5187.922928
 31
0.0
  0
LINE
  5
460D
  8
SUNPOU
  6
CONTINUOUS
 62
     4
 10
9696.0669209999924
 20
5267.922928
 30
0.0
 11
9936.0669209999924
 21
5267.922928
 31
0.0
  0
LINE
  5
460E
  8
SUNPOU
  6
CONTINUOUS
 62
     4
 10
9653.5669209999924
 20
5267.922928
 30
0.0
 11
9413.5669209999905
 21
5267.922928
 31
0.0
  0
LINE
  5
460F
  8
SUNPOU
  6
CONTINUOUS
 62
     4
 10
9696.0669209999924
 20
5267.922928
 30
0.0
 11
9653.5669209999924
 21
5267.922928
 31
0.0
  0
LINE
  5
4610
  8
SUNPOU
  6
CONTINUOUS
 62
     4
 10
12614.066920999991
 20
6125.2705049999986
 30
0.0
 11
12614.066920999991
 21
5187.922928
 31
0.0
  0
LINE
  5
4611
  8
SUNPOU
  6
CONTINUOUS
 62
     4
 10
9696.0669209999924
 20
6125.2705049999986
 30
0.0
 11
9696.0669209999924
 21
5187.922928
 31
0.0
  0
LINE
  5
4612
  8
SUNPOU
  6
CONTINUOUS
 62
     4
 10
12614.066920999991
 20
5267.922928
 30
0.0
 11
9696.0669209999924
 21
5267.922928
 31
0.0
  0
LINE
  5
4613
  8
SUNPOU
  6
CONTINUOUS
 62
     4
 10
12614.066920999991
 20
6125.2705049999986
 30
0.0
 11
12614.066920999991
 21
5187.922928
 31
0.0
  0
LINE
  5
4614
  8
SUNPOU
  6
CONTINUOUS
 62
     4
 10
15532.066920999991
 20
6125.2705049999986
 30
0.0
 11
15532.066920999991
 21
5187.922928
 31
0.0
  0
LINE
  5
4615
  8
SUNPOU
  6
CONTINUOUS
 62
     4
 10
12614.066920999991
 20
5267.922928
 30
0.0
 11
15532.066920999991
 21
5267.922928
 31
0.0
  0
LINE
  5
4616
  8
SUNPOU
  6
CONTINUOUS
 62
     4
 10
21029.813502000001
 20
13126.722818
 30
0.0
 11
21029.813502000001
 21
12781.038167999999
 31
0.0
  0
LINE
  5
4617
  8
SUNPOU
  6
CONTINUOUS
 62
     4
 10
20987.311258999998
 20
13709.988957
 30
0.0
 11
20987.311258999998
 21
12781.038167999999
 31
0.0
  0
LINE
  5
4618
  8
SUNPOU
  6
CONTINUOUS
 62
     4
 10
21029.813502000001
 20
12861.038167999999
 30
0.0
 11
21269.813502000001
 21
12861.038167999999
 31
0.0
  0
LINE
  5
4619
  8
SUNPOU
  6
CONTINUOUS
 62
     4
 10
20987.311258999998
 20
12861.038167999999
 30
0.0
 11
20747.311258999998
 21
12861.038167999999
 31
0.0
  0
LINE
  5
461A
  8
SUNPOU
  6
CONTINUOUS
 62
     4
 10
21029.813502000001
 20
12861.038167999999
 30
0.0
 11
20987.311258999998
 21
12861.038167999999
 31
0.0
  0
LINE
  5
461B
  8
SUNPOU
  6
CONTINUOUS
 62
     4
 10
23597.313502000001
 20
13126.722818
 30
0.0
 11
23597.313502000001
 21
12781.038167999999
 31
0.0
  0
LINE
  5
461C
  8
SUNPOU
  6
CONTINUOUS
 62
     4
 10
23639.815744999989
 20
13709.988957
 30
0.0
 11
23639.815744999989
 21
12781.038167999999
 31
0.0
  0
LINE
  5
461D
  8
SUNPOU
  6
CONTINUOUS
 62
     4
 10
23597.313502000001
 20
12861.038167999999
 30
0.0
 11
23357.313502000001
 21
12861.038167999999
 31
0.0
  0
LINE
  5
461E
  8
SUNPOU
  6
CONTINUOUS
 62
     4
 10
23639.815744999989
 20
12861.038167999999
 30
0.0
 11
23879.815744999989
 21
12861.038167999999
 31
0.0
  0
LINE
  5
461F
  8
SUNPOU
  6
CONTINUOUS
 62
     4
 10
23597.313502000001
 20
12861.038167999999
 30
0.0
 11
23639.815744999989
 21
12861.038167999999
 31
0.0
  0
LINE
  5
4620
  8
SUNPOU
  6
CONTINUOUS
 62
     4
 10
23597.313502000001
 20
13126.722818
 30
0.0
 11
23597.313502000001
 21
12781.038167999999
 31
0.0
  0
LINE
  5
4621
  8
SUNPOU
  6
CONTINUOUS
 62
     4
 10
23554.811258999991
 20
13709.988957
 30
0.0
 11
23554.811258999991
 21
12781.038167999999
 31
0.0
  0
LINE
  5
4622
  8
SUNPOU
  6
CONTINUOUS
 62
     4
 10
23597.313502000001
 20
12861.038167999999
 30
0.0
 11
23837.313502000001
 21
12861.038167999999
 31
0.0
  0
LINE
  5
4623
  8
SUNPOU
  6
CONTINUOUS
 62
     4
 10
23554.811258999991
 20
12861.038167999999
 30
0.0
 11
23314.811258999991
 21
12861.038167999999
 31
0.0
  0
LINE
  5
4624
  8
SUNPOU
  6
CONTINUOUS
 62
     4
 10
23597.313502000001
 20
12861.038167999999
 30
0.0
 11
23554.811258999991
 21
12861.038167999999
 31
0.0
  0
LINE
  5
4625
  8
SUNPOU
  6
CONTINUOUS
 62
     4
 10
21029.813502000001
 20
13126.722818
 30
0.0
 11
21029.813502000001
 21
12781.038167999999
 31
0.0
  0
LINE
  5
4626
  8
SUNPOU
  6
CONTINUOUS
 62
     4
 10
21072.315744999989
 20
13709.988957
 30
0.0
 11
21072.315744999989
 21
12781.038167999999
 31
0.0
  0
LINE
  5
4627
  8
SUNPOU
  6
CONTINUOUS
 62
     4
 10
21029.813502000001
 20
12861.038167999999
 30
0.0
 11
20789.813502000001
 21
12861.038167999999
 31
0.0
  0
LINE
  5
4628
  8
SUNPOU
  6
CONTINUOUS
 62
     4
 10
21072.315744999989
 20
12861.038167999999
 30
0.0
 11
21312.315744999982
 21
12861.038167999999
 31
0.0
  0
LINE
  5
4629
  8
SUNPOU
  6
CONTINUOUS
 62
     4
 10
21029.813502000001
 20
12861.038167999999
 30
0.0
 11
21072.315744999989
 21
12861.038167999999
 31
0.0
  0
LINE
  5
462A
  8
SUNPOU
  6
CONTINUOUS
 62
     4
 10
20987.311258999998
 20
13709.988957
 30
0.0
 11
20987.311258999998
 21
12381.038167999999
 31
0.0
  0
LINE
  5
462B
  8
SUNPOU
  6
CONTINUOUS
 62
     4
 10
23639.815744999989
 20
13709.988957
 30
0.0
 11
23639.815744999989
 21
12381.038167999999
 31
0.0
  0
LINE
  5
462C
  8
SUNPOU
  6
CONTINUOUS
 62
     4
 10
20987.311258999998
 20
12461.038167999999
 30
0.0
 11
23639.815744999989
 21
12461.038167999999
 31
0.0
  0
LINE
  5
462D
  8
SUNPOU
  6
CONTINUOUS
 62
     4
 10
23719.811785999991
 20
14590.486252000001
 30
0.0
 11
24769.813105999991
 21
14590.486252000001
 31
0.0
  0
LINE
  5
462E
  8
SUNPOU
  6
CONTINUOUS
 62
     4
 10
24569.813105999991
 20
13832.486252000001
 30
0.0
 11
24769.813105999991
 21
13832.486252000001
 31
0.0
  0
LINE
  5
462F
  8
SUNPOU
  6
CONTINUOUS
 62
     4
 10
24689.813105999991
 20
14590.486252000001
 30
0.0
 11
24689.813105999991
 21
13832.486252000001
 31
0.0
  0
LINE
  5
4630
  8
SUNPOU
  6
CONTINUOUS
 62
     4
 10
23719.811785999991
 20
15291.72676350001
 30
0.0
 11
24769.813105999991
 21
15291.72676350001
 31
0.0
  0
LINE
  5
4631
  8
SUNPOU
  6
CONTINUOUS
 62
     4
 10
23719.811785999991
 20
14590.486252000001
 30
0.0
 11
24769.813105999991
 21
14590.486252000001
 31
0.0
  0
LINE
  5
4632
  8
SUNPOU
  6
CONTINUOUS
 62
     4
 10
24689.813105999991
 20
15291.72676350001
 30
0.0
 11
24689.813105999991
 21
14590.486252000001
 31
0.0
  0
LINE
  5
4633
  8
SUNPOU
  6
CONTINUOUS
 62
     4
 10
23719.811785999991
 20
15992.486252000001
 30
0.0
 11
24769.813105999991
 21
15992.486252000001
 31
0.0
  0
LINE
  5
4634
  8
SUNPOU
  6
CONTINUOUS
 62
     4
 10
23719.811785999991
 20
15291.72676350001
 30
0.0
 11
24769.813105999991
 21
15291.72676350001
 31
0.0
  0
LINE
  5
4635
  8
SUNPOU
  6
CONTINUOUS
 62
     4
 10
24689.813105999991
 20
15992.486252000001
 30
0.0
 11
24689.813105999991
 21
15291.72676350001
 31
0.0
  0
LINE
  5
4636
  8
SUNPOU
  6
CONTINUOUS
 62
     4
 10
24569.813105999991
 20
16750.486251999992
 30
0.0
 11
24769.813105999991
 21
16750.486251999992
 31
0.0
  0
LINE
  5
4637
  8
SUNPOU
  6
CONTINUOUS
 62
     4
 10
23719.811785999991
 20
15992.486252000001
 30
0.0
 11
24769.813105999991
 21
15992.486252000001
 31
0.0
  0
LINE
  5
4638
  8
SUNPOU
  6
CONTINUOUS
 62
     4
 10
24689.813105999991
 20
16750.486251999992
 30
0.0
 11
24689.813105999991
 21
15992.486252000001
 31
0.0
  0
LINE
  5
4639
  8
SUNPOU
  6
CONTINUOUS
 62
     4
 10
23719.811785999991
 20
17508.486251999992
 30
0.0
 11
24769.813105999991
 21
17508.486251999992
 31
0.0
  0
LINE
  5
463A
  8
SUNPOU
  6
CONTINUOUS
 62
     4
 10
24569.813105999991
 20
16750.486251999992
 30
0.0
 11
24769.813105999991
 21
16750.486251999992
 31
0.0
  0
LINE
  5
463B
  8
SUNPOU
  6
CONTINUOUS
 62
     4
 10
24689.813105999991
 20
17508.486251999992
 30
0.0
 11
24689.813105999991
 21
16750.486251999992
 31
0.0
  0
LINE
  5
463C
  8
SUNPOU
  6
CONTINUOUS
 62
     4
 10
23719.811785999991
 20
18209.486251999992
 30
0.0
 11
24769.813105999991
 21
18209.486251999992
 31
0.0
  0
LINE
  5
463D
  8
SUNPOU
  6
CONTINUOUS
 62
     4
 10
23719.811785999991
 20
17508.486251999992
 30
0.0
 11
24769.813105999991
 21
17508.486251999992
 31
0.0
  0
LINE
  5
463E
  8
SUNPOU
  6
CONTINUOUS
 62
     4
 10
24689.813105999991
 20
18209.486251999992
 30
0.0
 11
24689.813105999991
 21
17508.486251999992
 31
0.0
  0
LINE
  5
463F
  8
SUNPOU
  6
CONTINUOUS
 62
     4
 10
23719.811785999991
 20
18910.486251999999
 30
0.0
 11
24769.813105999991
 21
18910.486251999992
 31
0.0
  0
LINE
  5
4640
  8
SUNPOU
  6
CONTINUOUS
 62
     4
 10
23719.811785999991
 20
18209.486251999992
 30
0.0
 11
24769.813105999991
 21
18209.486251999992
 31
0.0
  0
LINE
  5
4641
  8
SUNPOU
  6
CONTINUOUS
 62
     4
 10
24689.813105999991
 20
18910.486251999992
 30
0.0
 11
24689.813105999991
 21
18209.486251999992
 31
0.0
  0
LINE
  5
4642
  8
SUNPOU
  6
CONTINUOUS
 62
     4
 10
24569.813105999991
 20
19668.486251999992
 30
0.0
 11
24769.813105999991
 21
19668.486251999992
 31
0.0
  0
LINE
  5
4643
  8
SUNPOU
  6
CONTINUOUS
 62
     4
 10
23719.811785999991
 20
18910.486251999999
 30
0.0
 11
24769.813105999991
 21
18910.486251999992
 31
0.0
  0
LINE
  5
4644
  8
SUNPOU
  6
CONTINUOUS
 62
     4
 10
24689.813105999991
 20
19668.486251999992
 30
0.0
 11
24689.813105999991
 21
18910.486251999992
 31
0.0
  0
LINE
  5
4645
  8
SUNPOU
  6
CONTINUOUS
 62
     4
 10
24569.813105999991
 20
16750.486251999992
 30
0.0
 11
25169.81310599998
 21
16750.486251999992
 31
0.0
  0
LINE
  5
4646
  8
SUNPOU
  6
CONTINUOUS
 62
     4
 10
24569.813105999991
 20
19668.486251999992
 30
0.0
 11
25169.81310599998
 21
19668.486251999992
 31
0.0
  0
LINE
  5
4647
  8
SUNPOU
  6
CONTINUOUS
 62
     4
 10
25089.81310599998
 20
16750.486251999992
 30
0.0
 11
25089.81310599998
 21
19668.486251999992
 31
0.0
  0
LINE
  5
4648
  8
SUNPOU
  6
CONTINUOUS
 62
     4
 10
24569.813105999991
 20
13832.486252000001
 30
0.0
 11
25169.81310599998
 21
13832.486252000001
 31
0.0
  0
LINE
  5
4649
  8
SUNPOU
  6
CONTINUOUS
 62
     4
 10
24569.813105999991
 20
16750.486251999992
 30
0.0
 11
25169.81310599998
 21
16750.486251999992
 31
0.0
  0
LINE
  5
464A
  8
SUNPOU
  6
CONTINUOUS
 62
     4
 10
25089.81310599998
 20
13832.486252000001
 30
0.0
 11
25089.81310599998
 21
16750.486251999992
 31
0.0
  0
LINE
  5
464B
  8
SUNPOU
  6
CONTINUOUS
 62
     4
 10
23719.811785999991
 20
19710.983547
 30
0.0
 11
25569.813105999991
 21
19710.983546999982
 31
0.0
  0
LINE
  5
464C
  8
SUNPOU
  6
CONTINUOUS
 62
     4
 10
23719.811785999991
 20
13789.988957
 30
0.0
 11
25569.813105999991
 21
13789.988957
 31
0.0
  0
LINE
  5
464D
  8
SUNPOU
  6
CONTINUOUS
 62
     4
 10
25489.81310599998
 20
19710.983546999982
 30
0.0
 11
25489.81310599998
 21
13789.988957
 31
0.0
  0
LINE
  5
464E
  8
SUNPOU
  6
CONTINUOUS
 62
     4
 10
24569.813105999991
 20
19668.486251999992
 30
0.0
 11
25169.81310599998
 21
19668.486251999992
 31
0.0
  0
LINE
  5
464F
  8
SUNPOU
  6
CONTINUOUS
 62
     4
 10
23719.811785999991
 20
19710.983547
 30
0.0
 11
25169.81310599998
 21
19710.983546999982
 31
0.0
  0
LINE
  5
4650
  8
SUNPOU
  6
CONTINUOUS
 62
     4
 10
25089.81310599998
 20
19668.486251999992
 30
0.0
 11
25089.81310599998
 21
19428.486251999992
 31
0.0
  0
LINE
  5
4651
  8
SUNPOU
  6
CONTINUOUS
 62
     4
 10
25089.81310599998
 20
19710.983546999982
 30
0.0
 11
25089.81310599998
 21
19950.983546999982
 31
0.0
  0
LINE
  5
4652
  8
SUNPOU
  6
CONTINUOUS
 62
     4
 10
25089.81310599998
 20
19668.486251999992
 30
0.0
 11
25089.81310599998
 21
19710.983546999982
 31
0.0
  0
LINE
  5
4653
  8
SUNPOU
  6
CONTINUOUS
 62
     4
 10
24569.813105999991
 20
13832.486252000001
 30
0.0
 11
25169.81310599998
 21
13832.486252000001
 31
0.0
  0
LINE
  5
4654
  8
SUNPOU
  6
CONTINUOUS
 62
     4
 10
23719.811785999991
 20
13789.988957
 30
0.0
 11
25169.81310599998
 21
13789.988957
 31
0.0
  0
LINE
  5
4655
  8
SUNPOU
  6
CONTINUOUS
 62
     4
 10
25089.81310599998
 20
13832.486252000001
 30
0.0
 11
25089.81310599998
 21
14072.486252000001
 31
0.0
  0
LINE
  5
4656
  8
SUNPOU
  6
CONTINUOUS
 62
     4
 10
25089.81310599998
 20
13789.988957
 30
0.0
 11
25089.81310599998
 21
13549.988957
 31
0.0
  0
LINE
  5
4657
  8
SUNPOU
  6
CONTINUOUS
 62
     4
 10
25089.81310599998
 20
13832.486252000001
 30
0.0
 11
25089.81310599998
 21
13789.988957
 31
0.0
  0
LINE
  5
4658
  8
SUNPOU
  6
CONTINUOUS
 62
     4
 10
21029.813502000001
 20
19790.984537000018
 30
0.0
 11
21029.813502000001
 21
20520.987440000012
 31
0.0
  0
LINE
  5
4659
  8
SUNPOU
  6
CONTINUOUS
 62
     4
 10
21437.313502000001
 20
19790.984537000018
 30
0.0
 11
21437.313502000001
 21
20520.987440000012
 31
0.0
  0
LINE
  5
465A
  8
SUNPOU
  6
CONTINUOUS
 62
     4
 10
21029.813502000001
 20
20440.987440000012
 30
0.0
 11
20789.813502000001
 21
20440.987440000012
 31
0.0
  0
LINE
  5
465B
  8
SUNPOU
  6
CONTINUOUS
 62
     4
 10
21437.313502000001
 20
20440.987440000012
 30
0.0
 11
21677.313502000001
 21
20440.987440000012
 31
0.0
  0
LINE
  5
465C
  8
SUNPOU
  6
CONTINUOUS
 62
     4
 10
21029.813502000001
 20
20440.987440000012
 30
0.0
 11
21437.313502000001
 21
20440.987440000012
 31
0.0
  0
LINE
  5
465D
  8
SUNPOU
  6
CONTINUOUS
 62
     4
 10
22839.313502000001
 20
19790.984537000018
 30
0.0
 11
22839.313502000001
 21
20520.987440000012
 31
0.0
  0
LINE
  5
465E
  8
SUNPOU
  6
CONTINUOUS
 62
     4
 10
23597.314491500001
 20
19790.984537000018
 30
0.0
 11
23597.314491500001
 21
20520.987440000012
 31
0.0
  0
LINE
  5
465F
  8
SUNPOU
  6
CONTINUOUS
 62
     4
 10
22839.313502000001
 20
20440.987440000012
 30
0.0
 11
23597.314491500001
 21
20440.987440000012
 31
0.0
  0
LINE
  5
4660
  8
SUNPOU
  6
CONTINUOUS
 62
     4
 10
22138.31350199999
 20
19790.984537000018
 30
0.0
 11
22138.31350199999
 21
20520.987440000012
 31
0.0
  0
LINE
  5
4661
  8
SUNPOU
  6
CONTINUOUS
 62
     4
 10
22839.313502000001
 20
19790.984537000018
 30
0.0
 11
22839.313502000001
 21
20520.987440000012
 31
0.0
  0
LINE
  5
4662
  8
SUNPOU
  6
CONTINUOUS
 62
     4
 10
22138.31350199999
 20
20440.987440000012
 30
0.0
 11
22839.313502000001
 21
20440.987440000012
 31
0.0
  0
LINE
  5
4663
  8
SUNPOU
  6
CONTINUOUS
 62
     4
 10
21437.313502000001
 20
19790.984537000018
 30
0.0
 11
21437.313502000001
 21
20520.987440000012
 31
0.0
  0
LINE
  5
4664
  8
SUNPOU
  6
CONTINUOUS
 62
     4
 10
22138.31350199999
 20
19790.984537000018
 30
0.0
 11
22138.31350199999
 21
20520.987440000012
 31
0.0
  0
LINE
  5
4665
  8
SUNPOU
  6
CONTINUOUS
 62
     4
 10
21437.313502000001
 20
20440.987440000012
 30
0.0
 11
22138.31350199999
 21
20440.987440000012
 31
0.0
  0
LINE
  5
4666
  8
SUNPOU
  6
CONTINUOUS
 62
     4
 10
23597.313502000001
 20
19790.984537000018
 30
0.0
 11
23597.313502000001
 21
20520.987440000012
 31
0.0
  0
LINE
  5
4667
  8
SUNPOU
  6
CONTINUOUS
 62
     4
 10
23639.809806999991
 20
19790.984537000018
 30
0.0
 11
23639.809806999991
 21
20520.987440000012
 31
0.0
  0
LINE
  5
4668
  8
SUNPOU
  6
CONTINUOUS
 62
     4
 10
23597.313502000001
 20
20440.987440000012
 30
0.0
 11
23357.313502000001
 21
20440.987440000012
 31
0.0
  0
LINE
  5
4669
  8
SUNPOU
  6
CONTINUOUS
 62
     4
 10
23639.809806999991
 20
20440.987440000012
 30
0.0
 11
23879.809806999991
 21
20440.987440000012
 31
0.0
  0
LINE
  5
466A
  8
SUNPOU
  6
CONTINUOUS
 62
     4
 10
23597.313502000001
 20
20440.987440000012
 30
0.0
 11
23639.809806999991
 21
20440.987440000012
 31
0.0
  0
LINE
  5
466B
  8
SUNPOU
  6
CONTINUOUS
 62
     4
 10
21029.813502000001
 20
19790.984537000018
 30
0.0
 11
21029.813502000001
 21
20520.987440000012
 31
0.0
  0
LINE
  5
466C
  8
SUNPOU
  6
CONTINUOUS
 62
     4
 10
20987.317196999989
 20
19790.984537000018
 30
0.0
 11
20987.317196999989
 21
20520.987440000012
 31
0.0
  0
LINE
  5
466D
  8
SUNPOU
  6
CONTINUOUS
 62
     4
 10
21029.813502000001
 20
20440.987440000012
 30
0.0
 11
21269.813502000001
 21
20440.987440000012
 31
0.0
  0
LINE
  5
466E
  8
SUNPOU
  6
CONTINUOUS
 62
     4
 10
20987.317196999989
 20
20440.987440000012
 30
0.0
 11
20747.317196999989
 21
20440.987440000012
 31
0.0
  0
LINE
  5
466F
  8
SUNPOU
  6
CONTINUOUS
 62
     4
 10
21029.813502000001
 20
20440.987440000012
 30
0.0
 11
20987.317196999989
 21
20440.987440000012
 31
0.0
  0
TEXT
  5
4670
  8
0
  6
CONTINUOUS
 62
     7
 10
20427.001522471179
 20
20520.987440000012
 30
0.0
 40
160.0
  1
42.5
  0
TEXT
  5
4671
  8
0
  6
CONTINUOUS
 62
     7
 10
23720.12548152879
 20
20520.987440000012
 30
0.0
 40
160.0
  1
42.5
  0
TEXT
  5
4672
  8
0
  6
CONTINUOUS
 62
     7
 10
21614.480168666661
 20
20200.987440000012
 30
0.0
 40
160.0
  1
701
  0
TEXT
  5
4673
  8
0
  6
CONTINUOUS
 62
     7
 10
22315.480168666661
 20
20520.987440000012
 30
0.0
 40
160.0
  1
701
  0
TEXT
  5
4674
  8
0
  6
CONTINUOUS
 62
     7
 10
23004.98066341666
 20
20520.987440000012
 30
0.0
 40
160.0
  1
758
  0
TEXT
  5
4675
  8
0
  6
CONTINUOUS
 62
     7
 10
21130.646835333329
 20
20520.987440000012
 30
0.0
 40
160.0
  1
407.5
  0
TEXT
  5
4676
  8
0
  6
CONTINUOUS
 62
     7
 10
25009.81310599998
 20
13216.43272060321
 30
0.0
 40
160.0
  1
42.5
 50
90.0
  0
TEXT
  5
4677
  8
0
  6
CONTINUOUS
 62
     7
 10
25009.81310599998
 20
19804.539783396791
 30
0.0
 40
160.0
  1
42.5
 50
90.0
  0
TEXT
  5
4678
  8
0
  6
CONTINUOUS
 62
     7
 10
25409.81310599998
 20
16483.819585333331
 30
0.0
 40
160.0
  1
5921
 50
90.0
  0
TEXT
  5
4679
  8
0
  6
CONTINUOUS
 62
     7
 10
25009.81310599998
 20
15024.819585333331
 30
0.0
 40
160.0
  1
2918
 50
90.0
  0
TEXT
  5
467A
  8
0
  6
CONTINUOUS
 62
     7
 10
25009.81310599998
 20
17942.819585333331
 30
0.0
 40
160.0
  1
2918
 50
90.0
  0
TEXT
  5
467B
  8
0
  6
CONTINUOUS
 62
     7
 10
24609.813105999991
 20
19076.15291866667
 30
0.0
 40
160.0
  1
758
 50
90.0
  0
TEXT
  5
467C
  8
0
  6
CONTINUOUS
 62
     7
 10
24609.813105999991
 20
18386.652918666659
 30
0.0
 40
160.0
  1
701
 50
90.0
  0
TEXT
  5
467D
  8
0
  6
CONTINUOUS
 62
     7
 10
24609.813105999991
 20
17685.65291866667
 30
0.0
 40
160.0
  1
701
 50
90.0
  0
TEXT
  5
467E
  8
0
  6
CONTINUOUS
 62
     7
 10
24609.813105999991
 20
16916.15291866667
 30
0.0
 40
160.0
  1
758
 50
90.0
  0
TEXT
  5
467F
  8
0
  6
CONTINUOUS
 62
     7
 10
24609.813105999991
 20
16158.15291866667
 30
0.0
 40
160.0
  1
758
 50
90.0
  0
TEXT
  5
4680
  8
0
  6
CONTINUOUS
 62
     7
 10
24609.813105999991
 20
15468.773174416679
 30
0.0
 40
160.0
  1
701
 50
90.0
  0
TEXT
  5
4681
  8
0
  6
CONTINUOUS
 62
     7
 10
24609.813105999991
 20
14767.773174416679
 30
0.0
 40
160.0
  1
701
 50
90.0
  0
TEXT
  5
4682
  8
0
  6
CONTINUOUS
 62
     7
 10
24609.813105999991
 20
13998.15291866667
 30
0.0
 40
160.0
  1
758
 50
90.0
  0
TEXT
  5
4683
  8
0
  6
CONTINUOUS
 62
     7
 10
21913.563502000001
 20
12541.038167999999
 30
0.0
 40
160.0
  1
2652.5
  0
TEXT
  5
4684
  8
0
  6
CONTINUOUS
 62
     7
 10
21147.867174382081
 20
12941.038167999999
 30
0.0
 40
160.0
  1
42.5
  0
TEXT
  5
4685
  8
0
  6
CONTINUOUS
 62
     7
 10
22999.259829617891
 20
12941.038167999999
 30
0.0
 40
160.0
  1
42.5
  0
TEXT
  5
4686
  8
0
  6
CONTINUOUS
 62
     7
 10
23715.367174382081
 20
12941.038167999999
 30
0.0
 40
160.0
  1
42.5
  0
TEXT
  5
4687
  8
0
  6
CONTINUOUS
 62
     7
 10
20431.759829617891
 20
12941.038167999999
 30
0.0
 40
160.0
  1
42.5
  0
TEXT
  5
4688
  8
0
  6
CONTINUOUS
 62
     7
 10
13806.400254333321
 20
5347.922928
 30
0.0
 40
160.0
  1
2918
  0
TEXT
  5
4689
  8
0
  6
CONTINUOUS
 62
     7
 10
10888.400254333321
 20
5347.922928
 30
0.0
 40
160.0
  1
2918
  0
TEXT
  5
468A
  8
0
  6
CONTINUOUS
 62
     7
 10
9056.3932119036836
 20
5347.922928
 30
0.0
 40
160.0
  1
42.5
  0
TEXT
  5
468B
  8
0
  6
CONTINUOUS
 62
     7
 10
15712.88555830981
 20
5347.922928
 30
0.0
 40
160.0
  1
42.5
  0
TEXT
  5
468C
  8
0
  6
CONTINUOUS
 62
     7
 10
12347.400254333321
 20
4947.9230930000012
 30
0.0
 40
160.0
  1
5921
  0
TEXT
  5
468D
  8
0
  6
CONTINUOUS
 62
     7
 10
16584.56632599996
 20
6723.5065913333337
 30
0.0
 40
160.0
  1
2348.5（2588.5）
 50
90.0
  0
TEXT
  5
468E
  8
0
  6
CONTINUOUS
 62
     7
 10
8483.5685029999859
 20
6654.1732579999998
 30
0.0
 40
160.0
  1
2156.5（2396.5）
 50
90.0
  0
TEXT
  5
468F
  8
0
  6
CONTINUOUS
 62
     7
 10
9060.2335876666566
 20
9795.9239440000001
 30
0.0
 40
160.0
  1
180
  0
TEXT
  5
4690
  8
0
  6
CONTINUOUS
 62
     7
 10
12347.400253833321
 20
9795.9239440000001
 30
0.0
 40
160.0
  1
5921
  0
TEXT
  5
4691
  8
0
  6
CONTINUOUS
 62
     7
 10
15791.23358766666
 20
9795.9239440000001
 30
0.0
 40
160.0
  1
150
  0
TEXT
  5
4692
  8
0
  6
CONTINUOUS
 62
     7
 10
12332.400254333321
 20
10195.922293999991
 30
0.0
 40
160.0
  1
6251
  0
TEXT
  5
4693
  8
0
  6
CONTINUOUS
 62
     7
 10
21913.563502000001
 20
4947.9240830000008
 30
0.0
 40
160.0
  1
2652.5
  0
TEXT
  5
4694
  8
0
  6
CONTINUOUS
 62
     7
 10
20421.274511741161
 20
5347.9239180000041
 30
0.0
 40
160.0
  1
42.5
  0
TEXT
  5
4695
  8
0
  6
CONTINUOUS
 62
     7
 10
21913.563502000001
 20
5347.9239180000041
 30
0.0
 40
160.0
  1
2567.5
  0
TEXT
  5
4696
  8
0
  6
CONTINUOUS
 62
     7
 10
21385.563502000001
 20
5747.923918000005
 30
0.0
 40
160.0
  1
有効開口巾 2379.5
  0
TEXT
  5
4697
  8
0
  6
CONTINUOUS
 62
     7
 10
23725.85249225884
 20
5347.9239180000041
 30
0.0
 40
160.0
  1
42.5
  0
TEXT
  5
469C
  8
0
  6
CONTINUOUS
 62
     7
 10
19699.809872999991
 20
6723.5070993333338
 30
0.0
 40
160.0
  1
2348.5（2588.5）
 50
90.0
  0
TEXT
  5
469D
  8
0
  6
CONTINUOUS
 62
     7
 10
20099.812182000001
 20
6631.9029912912747
 30
0.0
 40
160.0
  1
有効開口高サ 1891.5
 50
90.0
  0
TEXT
  5
469E
  8
0
  6
CONTINUOUS
 62
     7
 10
10650.348639
 20
17942.819585333331
 30
0.0
 40
160.0
  1
2918
 50
90.0
  0
TEXT
  5
469F
  8
0
  6
CONTINUOUS
 62
     7
 10
10650.348639
 20
19979.941436807669
 30
0.0
 40
160.0
  1
222.5
 50
90.0
  0
TEXT
  5
46A0
  8
0
  6
CONTINUOUS
 62
     7
 10
11050.348639
 20
20010.982161000022
 30
0.0
 40
160.0
  1
30
 50
90.0
  0
TEXT
  5
46A1
  8
0
  6
CONTINUOUS
 62
     7
 10
10650.348639
 20
15024.819585333331
 30
0.0
 40
160.0
  1
2918
 50
90.0
  0
TEXT
  5
46A2
  8
0
  6
CONTINUOUS
 62
     7
 10
10650.348314000001
 20
13024.53324170262
 30
0.0
 40
160.0
  1
192.5
 50
90.0
  0
TEXT
  5
46A3
  8
0
  6
CONTINUOUS
 62
     7
 10
12793.59495099999
 20
20520.987440000012
 30
0.0
 40
160.0
  1
2567.5
  0
ARC
  5
46AB
  8
0
  6
BYBLOCK
 62
     0
 10
11659.84198199998
 20
20440.987440000012
 30
0.0
 40
15.0
 50
0.0
 51
180.0
  0
ARC
  5
46AC
  8
0
  6
BYBLOCK
 62
     0
 10
11659.84198199998
 20
20440.987440000012
 30
0.0
 40
15.0
 50
180.0
 51
0.0
  0
ARC
  5
46AF
  8
0
  6
BYBLOCK
 62
     0
 10
14227.347919999989
 20
20440.987440000012
 30
0.0
 40
15.0
 50
180.0
 51
0.0
  0
ARC
  5
46B0
  8
0
  6
BYBLOCK
 62
     0
 10
14227.347919999989
 20
20440.987440000012
 30
0.0
 40
15.0
 50
0.0
 51
180.0
  0
ARC
  5
46B3
  8
0
  6
BYBLOCK
 62
     0
 10
14227.347919999989
 20
20440.987440000012
 30
0.0
 40
15.0
 50
180.0
 51
0.0
  0
ARC
  5
46B4
  8
0
  6
BYBLOCK
 62
     0
 10
14227.347919999989
 20
20440.987440000012
 30
0.0
 40
15.0
 50
0.0
 51
180.0
  0
ARC
  5
46B5
  8
0
  6
BYBLOCK
 62
     0
 10
11659.84198199998
 20
20440.987440000012
 30
0.0
 40
15.0
 50
0.0
 51
180.0
  0
ARC
  5
46B6
  8
0
  6
BYBLOCK
 62
     0
 10
11659.84198199998
 20
20440.987440000012
 30
0.0
 40
15.0
 50
180.0
 51
0.0
  0
ARC
  5
46B7
  8
0
  6
BYBLOCK
 62
     0
 10
10730.348314000001
 20
13832.486252000001
 30
0.0
 40
15.0
 50
90.0
 51
270.0
  0
ARC
  5
46B8
  8
0
  6
BYBLOCK
 62
     0
 10
10730.348314000001
 20
13832.486252000001
 30
0.0
 40
15.0
 50
270.0
 51
90.0
  0
ARC
  5
46B9
  8
0
  6
BYBLOCK
 62
     0
 10
10730.348314000001
 20
13639.990937
 30
0.0
 40
15.0
 50
270.0
 51
90.0
  0
ARC
  5
46BA
  8
0
  6
BYBLOCK
 62
     0
 10
10730.348314000001
 20
13639.990937
 30
0.0
 40
15.0
 50
90.0
 51
270.0
  0
ARC
  5
46BB
  8
0
  6
BYBLOCK
 62
     0
 10
10730.348639
 20
16750.486251999992
 30
0.0
 40
15.0
 50
270.0
 51
90.0
  0
ARC
  5
46BC
  8
0
  6
BYBLOCK
 62
     0
 10
10730.348639
 20
16750.486251999992
 30
0.0
 40
15.0
 50
90.0
 51
270.0
  0
ARC
  5
46BD
  8
0
  6
BYBLOCK
 62
     0
 10
10730.348639
 20
13832.486252000001
 30
0.0
 40
15.0
 50
90.0
 51
270.0
  0
ARC
  5
46BE
  8
0
  6
BYBLOCK
 62
     0
 10
10730.348639
 20
13832.486252000001
 30
0.0
 40
15.0
 50
270.0
 51
90.0
  0
ARC
  5
46BF
  8
0
  6
BYBLOCK
 62
     0
 10
11130.348639
 20
19860.982161000022
 30
0.0
 40
15.0
 50
270.0
 51
90.0
  0
ARC
  5
46C0
  8
0
  6
BYBLOCK
 62
     0
 10
11130.348639
 20
19860.982161000022
 30
0.0
 40
15.0
 50
90.0
 51
270.0
  0
ARC
  5
46C1
  8
0
  6
BYBLOCK
 62
     0
 10
11130.348639
 20
19890.982161000022
 30
0.0
 40
15.0
 50
90.0
 51
270.0
  0
ARC
  5
46C2
  8
0
  6
BYBLOCK
 62
     0
 10
11130.348639
 20
19890.982161000022
 30
0.0
 40
15.0
 50
270.0
 51
90.0
  0
ARC
  5
46C3
  8
0
  6
BYBLOCK
 62
     0
 10
10730.348639
 20
19668.486251999992
 30
0.0
 40
15.0
 50
270.0
 51
90.0
  0
ARC
  5
46C4
  8
0
  6
BYBLOCK
 62
     0
 10
10730.348639
 20
19668.486251999992
 30
0.0
 40
15.0
 50
90.0
 51
270.0
  0
ARC
  5
46C5
  8
0
  6
BYBLOCK
 62
     0
 10
10730.348639
 20
19890.982161000022
 30
0.0
 40
15.0
 50
90.0
 51
270.0
  0
ARC
  5
46C6
  8
0
  6
BYBLOCK
 62
     0
 10
10730.348639
 20
19890.982161000022
 30
0.0
 40
15.0
 50
270.0
 51
90.0
  0
ARC
  5
46C7
  8
0
  6
BYBLOCK
 62
     0
 10
10730.348639
 20
16750.486251999992
 30
0.0
 40
15.0
 50
90.0
 51
270.0
  0
ARC
  5
46C8
  8
0
  6
BYBLOCK
 62
     0
 10
10730.348639
 20
16750.486251999992
 30
0.0
 40
15.0
 50
270.0
 51
90.0
  0
ARC
  5
46C9
  8
0
  6
BYBLOCK
 62
     0
 10
10730.348639
 20
19668.486251999992
 30
0.0
 40
15.0
 50
270.0
 51
90.0
  0
ARC
  5
46CA
  8
0
  6
BYBLOCK
 62
     0
 10
10730.348639
 20
19668.486251999992
 30
0.0
 40
15.0
 50
90.0
 51
270.0
  0
ARC
  5
46CB
  8
0
  6
BYBLOCK
 62
     0
 10
20179.812182000001
 20
6567.9237529999991
 30
0.0
 40
15.0
 50
90.0
 51
270.0
  0
ARC
  5
46CC
  8
0
  6
BYBLOCK
 62
     0
 10
20179.812182000001
 20
6567.9237529999991
 30
0.0
 40
15.0
 50
270.0
 51
90.0
  0
ARC
  5
46CD
  8
0
  6
BYBLOCK
 62
     0
 10
20179.812182000001
 20
8459.4237530000028
 30
0.0
 40
15.0
 50
270.0
 51
90.0
  0
ARC
  5
46CE
  8
0
  6
BYBLOCK
 62
     0
 10
20179.812182000001
 20
8459.4237530000028
 30
0.0
 40
15.0
 50
90.0
 51
270.0
  0
ARC
  5
46CF
  8
0
  6
BYBLOCK
 62
     0
 10
19779.809872999991
 20
6567.9237529999991
 30
0.0
 40
15.0
 50
90.0
 51
270.0
  0
ARC
  5
46D0
  8
0
  6
BYBLOCK
 62
     0
 10
19779.809872999991
 20
6567.9237529999991
 30
0.0
 40
15.0
 50
270.0
 51
90.0
  0
ARC
  5
46D1
  8
0
  6
BYBLOCK
 62
     0
 10
19779.809872999991
 20
8916.4237789999952
 30
0.0
 40
15.0
 50
270.0
 51
90.0
  0
ARC
  5
46D2
  8
0
  6
BYBLOCK
 62
     0
 10
19779.809872999991
 20
8916.4237789999952
 30
0.0
 40
15.0
 50
90.0
 51
270.0
  0
ARC
  5
46E3
  8
0
  6
BYBLOCK
 62
     0
 10
23597.313502000001
 20
5267.9239180000041
 30
0.0
 40
15.0
 50
180.0
 51
0.0
  0
ARC
  5
46E4
  8
0
  6
BYBLOCK
 62
     0
 10
23597.313502000001
 20
5267.9239180000041
 30
0.0
 40
15.0
 50
0.0
 51
180.0
  0
ARC
  5
46E5
  8
0
  6
BYBLOCK
 62
     0
 10
23639.81350199999
 20
5267.9239180000041
 30
0.0
 40
15.0
 50
0.0
 51
180.0
  0
ARC
  5
46E6
  8
0
  6
BYBLOCK
 62
     0
 10
23639.81350199999
 20
5267.9239180000041
 30
0.0
 40
15.0
 50
180.0
 51
0.0
  0
ARC
  5
46E7
  8
0
  6
BYBLOCK
 62
     0
 10
21123.813502000001
 20
5667.9239180000041
 30
0.0
 40
15.0
 50
0.0
 51
180.0
  0
ARC
  5
46E8
  8
0
  6
BYBLOCK
 62
     0
 10
21123.813502000001
 20
5667.9239180000041
 30
0.0
 40
15.0
 50
180.0
 51
0.0
  0
ARC
  5
46E9
  8
0
  6
BYBLOCK
 62
     0
 10
23503.313502000001
 20
5667.9239180000041
 30
0.0
 40
15.0
 50
180.0
 51
0.0
  0
ARC
  5
46EA
  8
0
  6
BYBLOCK
 62
     0
 10
23503.313502000001
 20
5667.9239180000041
 30
0.0
 40
15.0
 50
0.0
 51
180.0
  0
ARC
  5
46EB
  8
0
  6
BYBLOCK
 62
     0
 10
21029.813502000001
 20
5267.9239180000041
 30
0.0
 40
15.0
 50
0.0
 51
180.0
  0
ARC
  5
46EC
  8
0
  6
BYBLOCK
 62
     0
 10
21029.813502000001
 20
5267.9239180000041
 30
0.0
 40
15.0
 50
180.0
 51
0.0
  0
ARC
  5
46ED
  8
0
  6
BYBLOCK
 62
     0
 10
23597.313502000001
 20
5267.9239180000041
 30
0.0
 40
15.0
 50
180.0
 51
0.0
  0
ARC
  5
46EE
  8
0
  6
BYBLOCK
 62
     0
 10
23597.313502000001
 20
5267.9239180000041
 30
0.0
 40
15.0
 50
0.0
 51
180.0
  0
ARC
  5
46EF
  8
0
  6
BYBLOCK
 62
     0
 10
21029.813502000001
 20
5267.9239180000041
 30
0.0
 40
15.0
 50
0.0
 51
180.0
  0
ARC
  5
46F0
  8
0
  6
BYBLOCK
 62
     0
 10
21029.813502000001
 20
5267.9239180000041
 30
0.0
 40
15.0
 50
180.0
 51
0.0
  0
ARC
  5
46F1
  8
0
  6
BYBLOCK
 62
     0
 10
20987.313502000001
 20
5267.9239180000041
 30
0.0
 40
15.0
 50
180.0
 51
0.0
  0
ARC
  5
46F2
  8
0
  6
BYBLOCK
 62
     0
 10
20987.313502000001
 20
5267.9239180000041
 30
0.0
 40
15.0
 50
0.0
 51
180.0
  0
ARC
  5
46F3
  8
0
  6
BYBLOCK
 62
     0
 10
20987.313502000001
 20
4867.9240830000008
 30
0.0
 40
15.0
 50
0.0
 51
180.0
  0
ARC
  5
46F4
  8
0
  6
BYBLOCK
 62
     0
 10
20987.313502000001
 20
4867.9240830000008
 30
0.0
 40
15.0
 50
180.0
 51
0.0
  0
ARC
  5
46F5
  8
0
  6
BYBLOCK
 62
     0
 10
23639.81350199999
 20
4867.9240830000008
 30
0.0
 40
15.0
 50
180.0
 51
0.0
  0
ARC
  5
46F6
  8
0
  6
BYBLOCK
 62
     0
 10
23639.81350199999
 20
4867.9240830000008
 30
0.0
 40
15.0
 50
0.0
 51
180.0
  0
ARC
  5
46F7
  8
0
  6
BYBLOCK
 62
     0
 10
9473.5669209999905
 20
10115.922293999991
 30
0.0
 40
15.0
 50
0.0
 51
180.0
  0
ARC
  5
46F8
  8
0
  6
BYBLOCK
 62
     0
 10
9473.5669209999905
 20
10115.922293999991
 30
0.0
 40
15.0
 50
180.0
 51
0.0
  0
ARC
  5
46F9
  8
0
  6
BYBLOCK
 62
     0
 10
15724.566920999991
 20
10115.922293999991
 30
0.0
 40
15.0
 50
180.0
 51
0.0
  0
ARC
  5
46FA
  8
0
  6
BYBLOCK
 62
     0
 10
15724.566920999991
 20
10115.922293999991
 30
0.0
 40
15.0
 50
0.0
 51
180.0
  0
ARC
  5
46FB
  8
0
  6
BYBLOCK
 62
     0
 10
15574.568173999991
 20
9715.9239440000001
 30
0.0
 40
15.0
 50
180.0
 51
0.0
  0
ARC
  5
46FC
  8
0
  6
BYBLOCK
 62
     0
 10
15574.568173999991
 20
9715.9239440000001
 30
0.0
 40
15.0
 50
0.0
 51
180.0
  0
ARC
  5
46FD
  8
0
  6
BYBLOCK
 62
     0
 10
15724.566920999991
 20
9715.9239440000001
 30
0.0
 40
15.0
 50
0.0
 51
180.0
  0
ARC
  5
46FE
  8
0
  6
BYBLOCK
 62
     0
 10
15724.566920999991
 20
9715.9239440000001
 30
0.0
 40
15.0
 50
180.0
 51
0.0
  0
ARC
  5
46FF
  8
0
  6
BYBLOCK
 62
     0
 10
9653.565666999988
 20
9715.9239440000001
 30
0.0
 40
15.0
 50
0.0
 51
180.0
  0
ARC
  5
4700
  8
0
  6
BYBLOCK
 62
     0
 10
9653.565666999988
 20
9715.9239440000001
 30
0.0
 40
15.0
 50
180.0
 51
0.0
  0
ARC
  5
4701
  8
0
  6
BYBLOCK
 62
     0
 10
15574.568173999991
 20
9715.9239440000001
 30
0.0
 40
15.0
 50
180.0
 51
0.0
  0
ARC
  5
4702
  8
0
  6
BYBLOCK
 62
     0
 10
15574.568173999991
 20
9715.9239440000001
 30
0.0
 40
15.0
 50
0.0
 51
180.0
  0
ARC
  5
4703
  8
0
  6
BYBLOCK
 62
     0
 10
9473.5669209999905
 20
9715.9239439999983
 30
0.0
 40
15.0
 50
180.0
 51
0.0
  0
ARC
  5
4704
  8
0
  6
BYBLOCK
 62
     0
 10
9473.5669209999905
 20
9715.9239439999983
 30
0.0
 40
15.0
 50
0.0
 51
180.0
  0
ARC
  5
4705
  8
0
  6
BYBLOCK
 62
     0
 10
9653.565666999988
 20
9715.9239439999983
 30
0.0
 40
15.0
 50
0.0
 51
180.0
  0
ARC
  5
4706
  8
0
  6
BYBLOCK
 62
     0
 10
9653.565666999988
 20
9715.9239439999983
 30
0.0
 40
15.0
 50
180.0
 51
0.0
  0
ARC
  5
4707
  8
0
  6
BYBLOCK
 62
     0
 10
8563.5685029999859
 20
6567.9232579999989
 30
0.0
 40
15.0
 50
90.0
 51
270.0
  0
ARC
  5
4708
  8
0
  6
BYBLOCK
 62
     0
 10
8563.5685029999859
 20
6567.9232579999989
 30
0.0
 40
15.0
 50
270.0
 51
90.0
  0
ARC
  5
4709
  8
0
  6
BYBLOCK
 62
     0
 10
8563.5685029999859
 20
8724.4232579999989
 30
0.0
 40
15.0
 50
270.0
 51
90.0
  0
ARC
  5
470A
  8
0
  6
BYBLOCK
 62
     0
 10
8563.5685029999859
 20
8724.4232579999989
 30
0.0
 40
15.0
 50
90.0
 51
270.0
  0
ARC
  5
470B
  8
0
  6
BYBLOCK
 62
     0
 10
16664.56632599996
 20
6567.9232579999989
 30
0.0
 40
15.0
 50
90.0
 51
270.0
  0
ARC
  5
470C
  8
0
  6
BYBLOCK
 62
     0
 10
16664.56632599996
 20
6567.9232579999989
 30
0.0
 40
15.0
 50
270.0
 51
90.0
  0
ARC
  5
470D
  8
0
  6
BYBLOCK
 62
     0
 10
16664.56632599996
 20
8916.4232580000007
 30
0.0
 40
15.0
 50
270.0
 51
90.0
  0
ARC
  5
470E
  8
0
  6
BYBLOCK
 62
     0
 10
16664.56632599996
 20
8916.4232580000007
 30
0.0
 40
15.0
 50
90.0
 51
270.0
  0
ARC
  5
470F
  8
0
  6
BYBLOCK
 62
     0
 10
9653.5669209999924
 20
4867.9230930000012
 30
0.0
 40
15.0
 50
0.0
 51
180.0
  0
ARC
  5
4710
  8
0
  6
BYBLOCK
 62
     0
 10
9653.5669209999924
 20
4867.9230930000012
 30
0.0
 40
15.0
 50
180.0
 51
0.0
  0
ARC
  5
4711
  8
0
  6
BYBLOCK
 62
     0
 10
15574.566920999991
 20
4867.9230930000012
 30
0.0
 40
15.0
 50
180.0
 51
0.0
  0
ARC
  5
4712
  8
0
  6
BYBLOCK
 62
     0
 10
15574.566920999991
 20
4867.9230930000012
 30
0.0
 40
15.0
 50
0.0
 51
180.0
  0
ARC
  5
4713
  8
0
  6
BYBLOCK
 62
     0
 10
15532.066920999991
 20
5267.922928
 30
0.0
 40
15.0
 50
180.0
 51
0.0
  0
ARC
  5
4714
  8
0
  6
BYBLOCK
 62
     0
 10
15532.066920999991
 20
5267.922928
 30
0.0
 40
15.0
 50
0.0
 51
180.0
  0
ARC
  5
4715
  8
0
  6
BYBLOCK
 62
     0
 10
15574.566920999991
 20
5267.922928
 30
0.0
 40
15.0
 50
0.0
 51
180.0
  0
ARC
  5
4716
  8
0
  6
BYBLOCK
 62
     0
 10
15574.566920999991
 20
5267.922928
 30
0.0
 40
15.0
 50
180.0
 51
0.0
  0
ARC
  5
4717
  8
0
  6
BYBLOCK
 62
     0
 10
9696.0669209999924
 20
5267.922928
 30
0.0
 40
15.0
 50
0.0
 51
180.0
  0
ARC
  5
4718
  8
0
  6
BYBLOCK
 62
     0
 10
9696.0669209999924
 20
5267.922928
 30
0.0
 40
15.0
 50
180.0
 51
0.0
  0
ARC
  5
4719
  8
0
  6
BYBLOCK
 62
     0
 10
9653.5669209999924
 20
5267.922928
 30
0.0
 40
15.0
 50
180.0
 51
0.0
  0
ARC
  5
471A
  8
0
  6
BYBLOCK
 62
     0
 10
9653.5669209999924
 20
5267.922928
 30
0.0
 40
15.0
 50
0.0
 51
180.0
  0
ARC
  5
471B
  8
0
  6
BYBLOCK
 62
     0
 10
12614.066920999991
 20
5267.922928
 30
0.0
 40
15.0
 50
180.0
 51
0.0
  0
ARC
  5
471C
  8
0
  6
BYBLOCK
 62
     0
 10
12614.066920999991
 20
5267.922928
 30
0.0
 40
15.0
 50
0.0
 51
180.0
  0
ARC
  5
471D
  8
0
  6
BYBLOCK
 62
     0
 10
9696.0669209999924
 20
5267.922928
 30
0.0
 40
15.0
 50
0.0
 51
180.0
  0
ARC
  5
471E
  8
0
  6
BYBLOCK
 62
     0
 10
9696.0669209999924
 20
5267.922928
 30
0.0
 40
15.0
 50
180.0
 51
0.0
  0
ARC
  5
471F
  8
0
  6
BYBLOCK
 62
     0
 10
12614.066920999991
 20
5267.922928
 30
0.0
 40
15.0
 50
0.0
 51
180.0
  0
ARC
  5
4720
  8
0
  6
BYBLOCK
 62
     0
 10
12614.066920999991
 20
5267.922928
 30
0.0
 40
15.0
 50
180.0
 51
0.0
  0
ARC
  5
4721
  8
0
  6
BYBLOCK
 62
     0
 10
15532.066920999991
 20
5267.922928
 30
0.0
 40
15.0
 50
180.0
 51
0.0
  0
ARC
  5
4722
  8
0
  6
BYBLOCK
 62
     0
 10
15532.066920999991
 20
5267.922928
 30
0.0
 40
15.0
 50
0.0
 51
180.0
  0
ARC
  5
4723
  8
0
  6
BYBLOCK
 62
     0
 10
21029.813502000001
 20
12861.038167999999
 30
0.0
 40
15.0
 50
0.0
 51
180.0
  0
ARC
  5
4724
  8
0
  6
BYBLOCK
 62
     0
 10
21029.813502000001
 20
12861.038167999999
 30
0.0
 40
15.0
 50
180.0
 51
0.0
  0
ARC
  5
4725
  8
0
  6
BYBLOCK
 62
     0
 10
20987.311258999998
 20
12861.038167999999
 30
0.0
 40
15.0
 50
180.0
 51
0.0
  0
ARC
  5
4726
  8
0
  6
BYBLOCK
 62
     0
 10
20987.311258999998
 20
12861.038167999999
 30
0.0
 40
15.0
 50
0.0
 51
180.0
  0
ARC
  5
4727
  8
0
  6
BYBLOCK
 62
     0
 10
23597.313502000001
 20
12861.038167999999
 30
0.0
 40
15.0
 50
180.0
 51
0.0
  0
ARC
  5
4728
  8
0
  6
BYBLOCK
 62
     0
 10
23597.313502000001
 20
12861.038167999999
 30
0.0
 40
15.0
 50
0.0
 51
180.0
  0
ARC
  5
4729
  8
0
  6
BYBLOCK
 62
     0
 10
23639.815744999989
 20
12861.038167999999
 30
0.0
 40
15.0
 50
0.0
 51
180.0
  0
ARC
  5
472A
  8
0
  6
BYBLOCK
 62
     0
 10
23639.815744999989
 20
12861.038167999999
 30
0.0
 40
15.0
 50
180.0
 51
0.0
  0
ARC
  5
472B
  8
0
  6
BYBLOCK
 62
     0
 10
23597.313502000001
 20
12861.038167999999
 30
0.0
 40
15.0
 50
0.0
 51
180.0
  0
ARC
  5
472C
  8
0
  6
BYBLOCK
 62
     0
 10
23597.313502000001
 20
12861.038167999999
 30
0.0
 40
15.0
 50
180.0
 51
0.0
  0
ARC
  5
472D
  8
0
  6
BYBLOCK
 62
     0
 10
23554.811258999991
 20
12861.038167999999
 30
0.0
 40
15.0
 50
180.0
 51
0.0
  0
ARC
  5
472E
  8
0
  6
BYBLOCK
 62
     0
 10
23554.811258999991
 20
12861.038167999999
 30
0.0
 40
15.0
 50
0.0
 51
180.0
  0
ARC
  5
472F
  8
0
  6
BYBLOCK
 62
     0
 10
21029.813502000001
 20
12861.038167999999
 30
0.0
 40
15.0
 50
180.0
 51
0.0
  0
ARC
  5
4730
  8
0
  6
BYBLOCK
 62
     0
 10
21029.813502000001
 20
12861.038167999999
 30
0.0
 40
15.0
 50
0.0
 51
180.0
  0
ARC
  5
4731
  8
0
  6
BYBLOCK
 62
     0
 10
21072.315744999989
 20
12861.038167999999
 30
0.0
 40
15.0
 50
0.0
 51
180.0
  0
ARC
  5
4732
  8
0
  6
BYBLOCK
 62
     0
 10
21072.315744999989
 20
12861.038167999999
 30
0.0
 40
15.0
 50
180.0
 51
0.0
  0
ARC
  5
4733
  8
0
  6
BYBLOCK
 62
     0
 10
20987.311258999998
 20
12461.038167999999
 30
0.0
 40
15.0
 50
0.0
 51
180.0
  0
ARC
  5
4734
  8
0
  6
BYBLOCK
 62
     0
 10
20987.311258999998
 20
12461.038167999999
 30
0.0
 40
15.0
 50
180.0
 51
0.0
  0
ARC
  5
4735
  8
0
  6
BYBLOCK
 62
     0
 10
23639.815744999989
 20
12461.038167999999
 30
0.0
 40
15.0
 50
180.0
 51
0.0
  0
ARC
  5
4736
  8
0
  6
BYBLOCK
 62
     0
 10
23639.815744999989
 20
12461.038167999999
 30
0.0
 40
15.0
 50
0.0
 51
180.0
  0
ARC
  5
4737
  8
0
  6
BYBLOCK
 62
     0
 10
24689.813105999991
 20
14590.486252000001
 30
0.0
 40
15.0
 50
270.0
 51
90.0
  0
ARC
  5
4738
  8
0
  6
BYBLOCK
 62
     0
 10
24689.813105999991
 20
14590.486252000001
 30
0.0
 40
15.0
 50
90.0
 51
270.0
  0
ARC
  5
4739
  8
0
  6
BYBLOCK
 62
     0
 10
24689.813105999991
 20
13832.486252000001
 30
0.0
 40
15.0
 50
90.0
 51
270.0
  0
ARC
  5
473A
  8
0
  6
BYBLOCK
 62
     0
 10
24689.813105999991
 20
13832.486252000001
 30
0.0
 40
15.0
 50
270.0
 51
90.0
  0
ARC
  5
473B
  8
0
  6
BYBLOCK
 62
     0
 10
24689.813105999991
 20
15291.72676350001
 30
0.0
 40
15.0
 50
270.0
 51
90.0
  0
ARC
  5
473C
  8
0
  6
BYBLOCK
 62
     0
 10
24689.813105999991
 20
15291.72676350001
 30
0.0
 40
15.0
 50
90.0
 51
270.0
  0
ARC
  5
473D
  8
0
  6
BYBLOCK
 62
     0
 10
24689.813105999991
 20
14590.486252000001
 30
0.0
 40
15.0
 50
90.0
 51
270.0
  0
ARC
  5
473E
  8
0
  6
BYBLOCK
 62
     0
 10
24689.813105999991
 20
14590.486252000001
 30
0.0
 40
15.0
 50
270.0
 51
90.0
  0
ARC
  5
473F
  8
0
  6
BYBLOCK
 62
     0
 10
24689.813105999991
 20
15992.486252000001
 30
0.0
 40
15.0
 50
270.0
 51
90.0
  0
ARC
  5
4740
  8
0
  6
BYBLOCK
 62
     0
 10
24689.813105999991
 20
15992.486252000001
 30
0.0
 40
15.0
 50
90.0
 51
270.0
  0
ARC
  5
4741
  8
0
  6
BYBLOCK
 62
     0
 10
24689.813105999991
 20
15291.72676350001
 30
0.0
 40
15.0
 50
90.0
 51
270.0
  0
ARC
  5
4742
  8
0
  6
BYBLOCK
 62
     0
 10
24689.813105999991
 20
15291.72676350001
 30
0.0
 40
15.0
 50
270.0
 51
90.0
  0
ARC
  5
4743
  8
0
  6
BYBLOCK
 62
     0
 10
24689.813105999991
 20
16750.486251999992
 30
0.0
 40
15.0
 50
270.0
 51
90.0
  0
ARC
  5
4744
  8
0
  6
BYBLOCK
 62
     0
 10
24689.813105999991
 20
16750.486251999992
 30
0.0
 40
15.0
 50
90.0
 51
270.0
  0
ARC
  5
4745
  8
0
  6
BYBLOCK
 62
     0
 10
24689.813105999991
 20
15992.486252000001
 30
0.0
 40
15.0
 50
90.0
 51
270.0
  0
ARC
  5
4746
  8
0
  6
BYBLOCK
 62
     0
 10
24689.813105999991
 20
15992.486252000001
 30
0.0
 40
15.0
 50
270.0
 51
90.0
  0
ARC
  5
4747
  8
0
  6
BYBLOCK
 62
     0
 10
24689.813105999991
 20
17508.486251999992
 30
0.0
 40
15.0
 50
270.0
 51
90.0
  0
ARC
  5
4748
  8
0
  6
BYBLOCK
 62
     0
 10
24689.813105999991
 20
17508.486251999992
 30
0.0
 40
15.0
 50
90.0
 51
270.0
  0
ARC
  5
4749
  8
0
  6
BYBLOCK
 62
     0
 10
24689.813105999991
 20
16750.486251999992
 30
0.0
 40
15.0
 50
90.0
 51
270.0
  0
ARC
  5
474A
  8
0
  6
BYBLOCK
 62
     0
 10
24689.813105999991
 20
16750.486251999992
 30
0.0
 40
15.0
 50
270.0
 51
90.0
  0
ARC
  5
474B
  8
0
  6
BYBLOCK
 62
     0
 10
24689.813105999991
 20
18209.486251999992
 30
0.0
 40
15.0
 50
270.0
 51
90.0
  0
ARC
  5
474C
  8
0
  6
BYBLOCK
 62
     0
 10
24689.813105999991
 20
18209.486251999992
 30
0.0
 40
15.0
 50
90.0
 51
270.0
  0
ARC
  5
474D
  8
0
  6
BYBLOCK
 62
     0
 10
24689.813105999991
 20
17508.486251999992
 30
0.0
 40
15.0
 50
90.0
 51
270.0
  0
ARC
  5
474E
  8
0
  6
BYBLOCK
 62
     0
 10
24689.813105999991
 20
17508.486251999992
 30
0.0
 40
15.0
 50
270.0
 51
90.0
  0
ARC
  5
474F
  8
0
  6
BYBLOCK
 62
     0
 10
24689.813105999991
 20
18910.486251999992
 30
0.0
 40
15.0
 50
270.0
 51
90.0
  0
ARC
  5
4750
  8
0
  6
BYBLOCK
 62
     0
 10
24689.813105999991
 20
18910.486251999992
 30
0.0
 40
15.0
 50
90.0
 51
270.0
  0
ARC
  5
4751
  8
0
  6
BYBLOCK
 62
     0
 10
24689.813105999991
 20
18209.486251999992
 30
0.0
 40
15.0
 50
90.0
 51
270.0
  0
ARC
  5
4752
  8
0
  6
BYBLOCK
 62
     0
 10
24689.813105999991
 20
18209.486251999992
 30
0.0
 40
15.0
 50
270.0
 51
90.0
  0
ARC
  5
4753
  8
0
  6
BYBLOCK
 62
     0
 10
24689.813105999991
 20
19668.486251999992
 30
0.0
 40
15.0
 50
270.0
 51
90.0
  0
ARC
  5
4754
  8
0
  6
BYBLOCK
 62
     0
 10
24689.813105999991
 20
19668.486251999992
 30
0.0
 40
15.0
 50
90.0
 51
270.0
  0
ARC
  5
4755
  8
0
  6
BYBLOCK
 62
     0
 10
24689.813105999991
 20
18910.486251999992
 30
0.0
 40
15.0
 50
90.0
 51
270.0
  0
ARC
  5
4756
  8
0
  6
BYBLOCK
 62
     0
 10
24689.813105999991
 20
18910.486251999992
 30
0.0
 40
15.0
 50
270.0
 51
90.0
  0
ARC
  5
4757
  8
0
  6
BYBLOCK
 62
     0
 10
25089.81310599998
 20
16750.486251999992
 30
0.0
 40
15.0
 50
90.0
 51
270.0
  0
ARC
  5
4758
  8
0
  6
BYBLOCK
 62
     0
 10
25089.81310599998
 20
16750.486251999992
 30
0.0
 40
15.0
 50
270.0
 51
90.0
  0
ARC
  5
4759
  8
0
  6
BYBLOCK
 62
     0
 10
25089.81310599998
 20
19668.486251999992
 30
0.0
 40
15.0
 50
270.0
 51
90.0
  0
ARC
  5
475A
  8
0
  6
BYBLOCK
 62
     0
 10
25089.81310599998
 20
19668.486251999992
 30
0.0
 40
15.0
 50
90.0
 51
270.0
  0
ARC
  5
475B
  8
0
  6
BYBLOCK
 62
     0
 10
25089.81310599998
 20
13832.486252000001
 30
0.0
 40
15.0
 50
90.0
 51
270.0
  0
ARC
  5
475C
  8
0
  6
BYBLOCK
 62
     0
 10
25089.81310599998
 20
13832.486252000001
 30
0.0
 40
15.0
 50
270.0
 51
90.0
  0
ARC
  5
475D
  8
0
  6
BYBLOCK
 62
     0
 10
25089.81310599998
 20
16750.486251999992
 30
0.0
 40
15.0
 50
270.0
 51
90.0
  0
ARC
  5
475E
  8
0
  6
BYBLOCK
 62
     0
 10
25089.81310599998
 20
16750.486251999992
 30
0.0
 40
15.0
 50
90.0
 51
270.0
  0
ARC
  5
475F
  8
0
  6
BYBLOCK
 62
     0
 10
25489.81310599998
 20
19710.983546999982
 30
0.0
 40
15.0
 50
270.0
 51
90.0
  0
ARC
  5
4760
  8
0
  6
BYBLOCK
 62
     0
 10
25489.81310599998
 20
19710.983546999982
 30
0.0
 40
15.0
 50
90.0
 51
270.0
  0
ARC
  5
4761
  8
0
  6
BYBLOCK
 62
     0
 10
25489.81310599998
 20
13789.988957
 30
0.0
 40
15.0
 50
90.0
 51
270.0
  0
ARC
  5
4762
  8
0
  6
BYBLOCK
 62
     0
 10
25489.81310599998
 20
13789.988957
 30
0.0
 40
15.0
 50
270.0
 51
90.0
  0
ARC
  5
4763
  8
0
  6
BYBLOCK
 62
     0
 10
25089.81310599998
 20
19668.486251999992
 30
0.0
 40
15.0
 50
270.0
 51
90.0
  0
ARC
  5
4764
  8
0
  6
BYBLOCK
 62
     0
 10
25089.81310599998
 20
19668.486251999992
 30
0.0
 40
15.0
 50
90.0
 51
270.0
  0
ARC
  5
4765
  8
0
  6
BYBLOCK
 62
     0
 10
25089.81310599998
 20
19710.983546999982
 30
0.0
 40
15.0
 50
90.0
 51
270.0
  0
ARC
  5
4766
  8
0
  6
BYBLOCK
 62
     0
 10
25089.81310599998
 20
19710.983546999982
 30
0.0
 40
15.0
 50
270.0
 51
90.0
  0
ARC
  5
4767
  8
0
  6
BYBLOCK
 62
     0
 10
25089.81310599998
 20
13832.486252000001
 30
0.0
 40
15.0
 50
90.0
 51
270.0
  0
ARC
  5
4768
  8
0
  6
BYBLOCK
 62
     0
 10
25089.81310599998
 20
13832.486252000001
 30
0.0
 40
15.0
 50
270.0
 51
90.0
  0
ARC
  5
4769
  8
0
  6
BYBLOCK
 62
     0
 10
25089.81310599998
 20
13789.988957
 30
0.0
 40
15.0
 50
270.0
 51
90.0
  0
ARC
  5
476A
  8
0
  6
BYBLOCK
 62
     0
 10
25089.81310599998
 20
13789.988957
 30
0.0
 40
15.0
 50
90.0
 51
270.0
  0
ARC
  5
476B
  8
0
  6
BYBLOCK
 62
     0
 10
21029.813502000001
 20
20440.987440000012
 30
0.0
 40
15.0
 50
180.0
 51
0.0
  0
ARC
  5
476C
  8
0
  6
BYBLOCK
 62
     0
 10
21029.813502000001
 20
20440.987440000012
 30
0.0
 40
15.0
 50
0.0
 51
180.0
  0
ARC
  5
476D
  8
0
  6
BYBLOCK
 62
     0
 10
21437.313502000001
 20
20440.987440000012
 30
0.0
 40
15.0
 50
0.0
 51
180.0
  0
ARC
  5
476E
  8
0
  6
BYBLOCK
 62
     0
 10
21437.313502000001
 20
20440.987440000012
 30
0.0
 40
15.0
 50
180.0
 51
0.0
  0
ARC
  5
476F
  8
0
  6
BYBLOCK
 62
     0
 10
22839.313502000001
 20
20440.987440000012
 30
0.0
 40
15.0
 50
0.0
 51
180.0
  0
ARC
  5
4770
  8
0
  6
BYBLOCK
 62
     0
 10
22839.313502000001
 20
20440.987440000012
 30
0.0
 40
15.0
 50
180.0
 51
0.0
  0
ARC
  5
4771
  8
0
  6
BYBLOCK
 62
     0
 10
23597.314491500001
 20
20440.987440000012
 30
0.0
 40
15.0
 50
180.0
 51
0.0
  0
ARC
  5
4772
  8
0
  6
BYBLOCK
 62
     0
 10
23597.314491500001
 20
20440.987440000012
 30
0.0
 40
15.0
 50
0.0
 51
180.0
  0
ARC
  5
4773
  8
0
  6
BYBLOCK
 62
     0
 10
22138.31350199999
 20
20440.987440000012
 30
0.0
 40
15.0
 50
0.0
 51
180.0
  0
ARC
  5
4774
  8
0
  6
BYBLOCK
 62
     0
 10
22138.31350199999
 20
20440.987440000012
 30
0.0
 40
15.0
 50
180.0
 51
0.0
  0
ARC
  5
4775
  8
0
  6
BYBLOCK
 62
     0
 10
22839.313502000001
 20
20440.987440000012
 30
0.0
 40
15.0
 50
180.0
 51
0.0
  0
ARC
  5
4776
  8
0
  6
BYBLOCK
 62
     0
 10
22839.313502000001
 20
20440.987440000012
 30
0.0
 40
15.0
 50
0.0
 51
180.0
  0
ARC
  5
4777
  8
0
  6
BYBLOCK
 62
     0
 10
21437.313502000001
 20
20440.987440000012
 30
0.0
 40
15.0
 50
0.0
 51
180.0
  0
ARC
  5
4778
  8
0
  6
BYBLOCK
 62
     0
 10
21437.313502000001
 20
20440.987440000012
 30
0.0
 40
15.0
 50
180.0
 51
0.0
  0
ARC
  5
4779
  8
0
  6
BYBLOCK
 62
     0
 10
22138.31350199999
 20
20440.987440000012
 30
0.0
 40
15.0
 50
180.0
 51
0.0
  0
ARC
  5
477A
  8
0
  6
BYBLOCK
 62
     0
 10
22138.31350199999
 20
20440.987440000012
 30
0.0
 40
15.0
 50
0.0
 51
180.0
  0
ARC
  5
477B
  8
0
  6
BYBLOCK
 62
     0
 10
23597.313502000001
 20
20440.987440000012
 30
0.0
 40
15.0
 50
180.0
 51
0.0
  0
ARC
  5
477C
  8
0
  6
BYBLOCK
 62
     0
 10
23597.313502000001
 20
20440.987440000012
 30
0.0
 40
15.0
 50
0.0
 51
180.0
  0
ARC
  5
477D
  8
0
  6
BYBLOCK
 62
     0
 10
23639.809806999991
 20
20440.987440000012
 30
0.0
 40
15.0
 50
0.0
 51
180.0
  0
ARC
  5
477E
  8
0
  6
BYBLOCK
 62
     0
 10
23639.809806999991
 20
20440.987440000012
 30
0.0
 40
15.0
 50
180.0
 51
0.0
  0
ARC
  5
477F
  8
0
  6
BYBLOCK
 62
     0
 10
21029.813502000001
 20
20440.987440000012
 30
0.0
 40
15.0
 50
0.0
 51
180.0
  0
ARC
  5
4780
  8
0
  6
BYBLOCK
 62
     0
 10
21029.813502000001
 20
20440.987440000012
 30
0.0
 40
15.0
 50
180.0
 51
0.0
  0
ARC
  5
4781
  8
0
  6
BYBLOCK
 62
     0
 10
20987.317196999989
 20
20440.987440000012
 30
0.0
 40
15.0
 50
180.0
 51
0.0
  0
ARC
  5
4782
  8
0
  6
BYBLOCK
 62
     0
 10
20987.317196999989
 20
20440.987440000012
 30
0.0
 40
15.0
 50
0.0
 51
180.0
  0
LINE
  5
4887
  8
0-1
  6
CONTINUOUS
 62
     3
 10
21072.309807000009
 20
8652.4241219999967
 30
0.0
 11
23554.813237999992
 21
8652.4241219999967
 31
0.0
  0
LINE
  5
4888
  8
0-1
  6
CONTINUOUS
 62
     3
 10
20944.31310700002
 20
8590.2380409999969
 30
0.0
 11
20944.31310700002
 21
8915.9237789999916
 31
0.0
  0
LINE
  5
4889
  8
0-1
  6
CONTINUOUS
 62
     3
 10
23682.811918999989
 20
8785.9238449999921
 30
0.0
 11
20944.31310700002
 21
8785.9238449999921
 31
0.0
  0
LINE
  5
488A
  8
0-1
  6
CONTINUOUS
 62
     3
 10
23682.811918999989
 20
8915.9237789999916
 30
0.0
 11
23682.811918999989
 21
8590.2380409999969
 31
0.0
  0
LINE
  5
488B
  8
0-1
  6
CONTINUOUS
 62
     3
 10
20944.31310700002
 20
8915.9237789999916
 30
0.0
 11
23682.811918999989
 21
8915.9237789999916
 31
0.0
  0
LINE
  5
488C
  8
0-1
  6
CONTINUOUS
 62
     3
 10
23682.811918999989
 20
8590.2380409999969
 30
0.0
 11
23639.81178700001
 21
8590.2380409999969
 31
0.0
  0
LINE
  5
488D
  8
0-1
  6
CONTINUOUS
 62
     3
 10
20944.31310700002
 20
8590.2380409999969
 30
0.0
 11
20987.31125900002
 21
8590.2380409999969
 31
0.0
  0
LINE
  5
488E
  8
0-1
  6
CONTINUOUS
 62
     3
 10
21098.31276300002
 20
8661.424498999997
 30
0.0
 11
21375.74229300001
 21
8661.424498999997
 31
0.0
  0
LINE
  5
488F
  8
0-1
  6
CONTINUOUS
 62
     3
 10
21098.31276300002
 20
8703.4239439999983
 30
0.0
 11
21407.739231000021
 21
8703.4239439999983
 31
0.0
  0
LINE
  5
4890
  8
0-1
  6
CONTINUOUS
 62
     3
 10
21093.3125
 20
8666.4242679999988
 30
0.0
 11
21093.3125
 21
8698.4246699999967
 31
0.0
  0
LINE
  5
4891
  8
0-1
  6
CONTINUOUS
 62
     3
 10
21072.309807000009
 20
8712.4238259999966
 30
0.0
 11
23554.813237999992
 21
8712.4238259999966
 31
0.0
  0
LINE
  5
4892
  8
0-1
  6
CONTINUOUS
 62
     3
 10
21379.27573300002
 20
8662.8883529999966
 30
0.0
 11
21411.276631000001
 21
8694.8887549999981
 31
0.0
  0
LINE
  5
4893
  8
0-1
  6
CONTINUOUS
 62
     3
 10
21093.3125
 20
8695.0243519999967
 30
0.0
 11
21411.405298999991
 21
8695.0243519999967
 31
0.0
  0
LINE
  5
4894
  8
0-1
  6
CONTINUOUS
 62
     3
 10
21093.3125
 20
8686.6242649999967
 30
0.0
 11
21403.01214100001
 21
8686.6242649999967
 31
0.0
  0
LINE
  5
4895
  8
0-1
  6
CONTINUOUS
 62
     3
 10
21093.3125
 20
8678.224672999997
 30
0.0
 11
21394.613043000008
 21
8678.224672999997
 31
0.0
  0
LINE
  5
4896
  8
0-1
  6
CONTINUOUS
 62
     3
 10
21093.3125
 20
8669.824585999997
 30
0.0
 11
21386.20998700002
 21
8669.824585999997
 31
0.0
  0
LINE
  5
4897
  8
0-1
  6
CONTINUOUS
 62
     3
 10
23533.812525999991
 20
8695.0243519999967
 30
0.0
 11
23215.71972600001
 21
8695.0243519999967
 31
0.0
  0
LINE
  5
4898
  8
0-1
  6
CONTINUOUS
 62
     3
 10
23533.812525999991
 20
8686.6242649999967
 30
0.0
 11
23224.11486400001
 21
8686.6242649999967
 31
0.0
  0
LINE
  5
4899
  8
0-1
  6
CONTINUOUS
 62
     3
 10
23533.812525999991
 20
8678.224672999997
 30
0.0
 11
23232.513961000001
 21
8678.224672999997
 31
0.0
  0
LINE
  5
489A
  8
0-1
  6
CONTINUOUS
 62
     3
 10
23533.812525999991
 20
8669.824585999997
 30
0.0
 11
23240.913058999999
 21
8669.824585999997
 31
0.0
  0
LINE
  5
489B
  8
0-1
  6
CONTINUOUS
 62
     3
 10
23528.81226200001
 20
8703.4239439999983
 30
0.0
 11
23219.385793999991
 21
8703.4239439999983
 31
0.0
  0
LINE
  5
489C
  8
0-1
  6
CONTINUOUS
 62
     3
 10
23528.81226200001
 20
8661.424498999997
 30
0.0
 11
23251.382732999991
 21
8661.424498999997
 31
0.0
  0
LINE
  5
489D
  8
0-1
  6
CONTINUOUS
 62
     3
 10
23533.812525999991
 20
8666.4242679999988
 30
0.0
 11
23533.812525999991
 21
8698.4246699999967
 31
0.0
  0
LINE
  5
489E
  8
0-1
  6
CONTINUOUS
 62
     3
 10
23247.847312000009
 20
8662.8883529999966
 30
0.0
 11
23215.850374000009
 21
8694.8887549999981
 31
0.0
  0
ARC
  5
489F
  8
0-1
  6
CONTINUOUS
 62
     3
 10
21098.31276300002
 20
8698.4246699999967
 30
0.0
 40
5.0
 50
90.0
 51
180.0
  0
ARC
  5
48A0
  8
0-1
  6
CONTINUOUS
 62
     3
 10
21098.31276300002
 20
8666.4242679999988
 30
0.0
 40
5.0
 50
180.0
 51
269.9999850001808
  0
ARC
  5
48A1
  8
0-1
  6
CONTINUOUS
 62
     3
 10
21375.74229300001
 20
8666.4242679999988
 30
0.0
 40
5.0
 50
269.9999850001808
 51
314.99998500027471
  0
ARC
  5
48A2
  8
0-1
  6
CONTINUOUS
 62
     3
 10
21407.739231000021
 20
8698.4246699999967
 30
0.0
 40
5.0
 50
314.99998500027471
 51
90.0
  0
ARC
  5
48A3
  8
0-1
  6
CONTINUOUS
 62
     3
 10
23528.81226200001
 20
8666.4242679999988
 30
0.0
 40
5.0
 50
269.9999850001808
 51
0.0
  0
ARC
  5
48A4
  8
0-1
  6
CONTINUOUS
 62
     3
 10
23528.81226200001
 20
8698.4246699999967
 30
0.0
 40
5.0
 50
0.0
 51
90.0
  0
ARC
  5
48A5
  8
0-1
  6
CONTINUOUS
 62
     3
 10
23219.385793999991
 20
8698.4246699999967
 30
0.0
 40
5.0
 50
90.0
 51
224.99998499997989
  0
ARC
  5
48A6
  8
0-1
  6
CONTINUOUS
 62
     3
 10
23251.382732999991
 20
8666.4242679999988
 30
0.0
 40
5.0
 50
224.99998499997989
 51
269.9999850001808
  0
LINE
  5
48A7
  8
SUNPOU
  6
CONTINUOUS
 62
     4
 10
23639.813765999988
 20
8995.9237789999916
 30
0.0
 11
23639.813765999988
 21
9795.4236209999908
 31
0.0
  0
LINE
  5
48A8
  8
SUNPOU
  6
CONTINUOUS
 62
     4
 10
23639.813765999988
 20
9715.4236209999926
 30
0.0
 11
23399.813765999988
 21
9715.4236209999926
 31
0.0
  0
LINE
  5
48A9
  8
SUNPOU
  6
CONTINUOUS
 62
     4
 10
23679.815876999972
 20
9715.4236209999926
 30
0.0
 11
23919.815876999972
 21
9715.4236209999926
 31
0.0
  0
LINE
  5
48AA
  8
SUNPOU
  6
CONTINUOUS
 62
     4
 10
23639.813765999988
 20
9715.4236209999926
 30
0.0
 11
23679.815876999972
 21
9715.4236209999926
 31
0.0
  0
LINE
  5
48AB
  8
SUNPOU
  6
CONTINUOUS
 62
     4
 10
20944.31112700003
 20
8995.9237789999916
 30
0.0
 11
20944.31112700003
 21
10195.38139099999
 31
0.0
  0
LINE
  5
48AC
  8
SUNPOU
  6
CONTINUOUS
 62
     4
 10
23682.815876999979
 20
8995.9237789999916
 30
0.0
 11
23682.815876999979
 21
10195.38139099999
 31
0.0
  0
LINE
  5
48AD
  8
SUNPOU
  6
CONTINUOUS
 62
     4
 10
20944.31112700003
 20
10115.38139099999
 30
0.0
 11
23679.815876999972
 21
10115.38139099999
 31
0.0
  0
LINE
  5
48AE
  8
SUNPOU
  6
CONTINUOUS
 62
     4
 10
20987.31323800001
 20
8995.9237789999916
 30
0.0
 11
20987.31323800001
 21
9795.4236209999908
 31
0.0
  0
LINE
  5
48AF
  8
SUNPOU
  6
CONTINUOUS
 62
     4
 10
23639.813765999988
 20
8995.9237789999916
 30
0.0
 11
23639.813765999988
 21
9795.4236209999908
 31
0.0
  0
LINE
  5
48B0
  8
SUNPOU
  6
CONTINUOUS
 62
     4
 10
20987.31323800001
 20
9715.4236209999926
 30
0.0
 11
23639.813765999988
 21
9715.4236209999926
 31
0.0
  0
LINE
  5
48B1
  8
SUNPOU
  6
CONTINUOUS
 62
     4
 10
20987.31323800001
 20
8995.9237789999916
 30
0.0
 11
20987.31323800001
 21
9795.4236209999908
 31
0.0
  0
LINE
  5
48B2
  8
SUNPOU
  6
CONTINUOUS
 62
     4
 10
20944.31112700003
 20
8995.9237789999916
 30
0.0
 11
20944.31112700003
 21
9795.4236209999908
 31
0.0
  0
LINE
  5
48B3
  8
SUNPOU
  6
CONTINUOUS
 62
     4
 10
20987.31323800001
 20
9715.4236209999926
 30
0.0
 11
21227.31323800001
 21
9715.4236209999926
 31
0.0
  0
LINE
  5
48B4
  8
SUNPOU
  6
CONTINUOUS
 62
     4
 10
20947.31112700003
 20
9715.4236209999926
 30
0.0
 11
20707.311127000019
 21
9715.4236209999926
 31
0.0
  0
LINE
  5
48B5
  8
SUNPOU
  6
CONTINUOUS
 62
     4
 10
20987.31323800001
 20
9715.4236209999926
 30
0.0
 11
20947.31112700003
 21
9715.4236209999926
 31
0.0
  0
TEXT
  5
48B6
  8
0
  6
CONTINUOUS
 62
     7
 10
20587.311127000019
 20
9795.4236209999908
 30
0.0
 40
160.0
  1
43
  0
TEXT
  5
48B7
  8
0
  6
CONTINUOUS
 62
     7
 10
21913.563502000001
 20
9795.4236209999908
 30
0.0
 40
160.0
  1
2652.5
  0
TEXT
  5
48B8
  8
0
  6
CONTINUOUS
 62
     7
 10
21913.563502000001
 20
10195.38139099999
 30
0.0
 40
160.0
  1
2738.5
  0
TEXT
  5
48B9
  8
0
  6
CONTINUOUS
 62
     7
 10
23799.815876999972
 20
9795.4236209999908
 30
0.0
 40
160.0
  1
43
  0
ARC
  5
48BA
  8
0
  6
BYBLOCK
 62
     0
 10
23639.813765999988
 20
9715.4236209999926
 30
0.0
 40
15.0
 50
180.0
 51
0.0
  0
ARC
  5
48BB
  8
0
  6
BYBLOCK
 62
     0
 10
23639.813765999988
 20
9715.4236209999926
 30
0.0
 40
15.0
 50
0.0
 51
180.0
  0
ARC
  5
48BC
  8
0
  6
BYBLOCK
 62
     0
 10
23682.815876999979
 20
9715.4236209999926
 30
0.0
 40
15.0
 50
0.0
 51
180.0
  0
ARC
  5
48BD
  8
0
  6
BYBLOCK
 62
     0
 10
23682.815876999979
 20
9715.4236209999926
 30
0.0
 40
15.0
 50
180.0
 51
0.0
  0
ARC
  5
48BE
  8
0
  6
BYBLOCK
 62
     0
 10
20944.31112700003
 20
10115.38139099999
 30
0.0
 40
15.0
 50
0.0
 51
180.0
  0
ARC
  5
48BF
  8
0
  6
BYBLOCK
 62
     0
 10
20944.31112700003
 20
10115.38139099999
 30
0.0
 40
15.0
 50
180.0
 51
0.0
  0
ARC
  5
48C0
  8
0
  6
BYBLOCK
 62
     0
 10
23682.815876999979
 20
10115.38139099999
 30
0.0
 40
15.0
 50
180.0
 51
0.0
  0
ARC
  5
48C1
  8
0
  6
BYBLOCK
 62
     0
 10
23682.815876999979
 20
10115.38139099999
 30
0.0
 40
15.0
 50
0.0
 51
180.0
  0
ARC
  5
48C2
  8
0
  6
BYBLOCK
 62
     0
 10
20987.31323800001
 20
9715.4236209999926
 30
0.0
 40
15.0
 50
0.0
 51
180.0
  0
ARC
  5
48C3
  8
0
  6
BYBLOCK
 62
     0
 10
20987.31323800001
 20
9715.4236209999926
 30
0.0
 40
15.0
 50
180.0
 51
0.0
  0
ARC
  5
48C4
  8
0
  6
BYBLOCK
 62
     0
 10
23639.813765999988
 20
9715.4236209999926
 30
0.0
 40
15.0
 50
180.0
 51
0.0
  0
ARC
  5
48C5
  8
0
  6
BYBLOCK
 62
     0
 10
23639.813765999988
 20
9715.4236209999926
 30
0.0
 40
15.0
 50
0.0
 51
180.0
  0
ARC
  5
48C6
  8
0
  6
BYBLOCK
 62
     0
 10
20987.31323800001
 20
9715.4236209999926
 30
0.0
 40
15.0
 50
0.0
 51
180.0
  0
ARC
  5
48C7
  8
0
  6
BYBLOCK
 62
     0
 10
20987.31323800001
 20
9715.4236209999926
 30
0.0
 40
15.0
 50
180.0
 51
0.0
  0
ARC
  5
48C8
  8
0
  6
BYBLOCK
 62
     0
 10
20944.31112700003
 20
9715.4236209999926
 30
0.0
 40
15.0
 50
180.0
 51
0.0
  0
ARC
  5
48C9
  8
0
  6
BYBLOCK
 62
     0
 10
20944.31112700003
 20
9715.4236209999926
 30
0.0
 40
15.0
 50
0.0
 51
180.0
  0
LINE
  5
48D6
  8
SUNPOU
  6
CONTINUOUS
 62
     4
 10
11574.347524500001
 20
13559.986978000001
 30
0.0
 11
11574.347524500001
 21
12381.037178
 31
0.0
  0
LINE
  5
48D7
  8
SUNPOU
  6
CONTINUOUS
 62
     4
 10
14312.848315499999
 20
13559.986978000001
 30
0.0
 11
14312.848315499999
 21
12381.037178
 31
0.0
  0
LINE
  5
48D8
  8
SUNPOU
  6
CONTINUOUS
 62
     4
 10
11574.347524500001
 20
12461.037178
 30
0.0
 11
14312.848315499999
 21
12461.037178
 31
0.0
  0
TEXT
  5
48D9
  8
0
  6
CONTINUOUS
 62
     7
 10
12020.93125333333
 20
12541.037178
 30
0.0
 40
160.0
  1
ケラバ外寸 2738.5
  0
ARC
  5
48DA
  8
0
  6
BYBLOCK
 62
     0
 10
11574.347524500001
 20
12461.037178
 30
0.0
 40
15.0
 50
0.0
 51
180.0
  0
ARC
  5
48DB
  8
0
  6
BYBLOCK
 62
     0
 10
11574.347524500001
 20
12461.037178
 30
0.0
 40
15.0
 50
180.0
 51
0.0
  0
ARC
  5
48DC
  8
0
  6
BYBLOCK
 62
     0
 10
14312.848315499999
 20
12461.037178
 30
0.0
 40
15.0
 50
180.0
 51
0.0
  0
ARC
  5
48DD
  8
0
  6
BYBLOCK
 62
     0
 10
14312.848315499999
 20
12461.037178
 30
0.0
 40
15.0
 50
0.0
 51
180.0
  0
LINE
  5
48EE
  8
SUNPOU
  6
CONTINUOUS
 62
     4
 10
11574.346930499991
 20
19970.982160999982
 30
0.0
 11
11574.346930499991
 21
20520.98743999999
 31
0.0
  0
LINE
  5
48EF
  8
SUNPOU
  6
CONTINUOUS
 62
     4
 10
11574.346930499991
 20
20440.98743999999
 30
0.0
 11
11337.346930499991
 21
20440.98743999999
 31
0.0
  0
LINE
  5
48F0
  8
SUNPOU
  6
CONTINUOUS
 62
     4
 10
11659.8469305
 20
20440.98743999999
 30
0.0
 11
11574.346930499991
 21
20440.98743999999
 31
0.0
  0
LINE
  5
48F1
  8
SUNPOU
  6
CONTINUOUS
 62
     4
 10
14312.846930499991
 20
19970.982160999982
 30
0.0
 11
14312.846930499991
 21
20520.98743999999
 31
0.0
  0
LINE
  5
48F2
  8
SUNPOU
  6
CONTINUOUS
 62
     4
 10
14309.846930499991
 20
20440.98743999999
 30
0.0
 11
14549.8469305
 21
20440.98743999999
 31
0.0
  0
LINE
  5
48F3
  8
SUNPOU
  6
CONTINUOUS
 62
     4
 10
14227.3469305
 20
20440.98743999999
 30
0.0
 11
14309.846930499991
 21
20440.98743999999
 31
0.0
  0
TEXT
  5
48F4
  8
0
  6
CONTINUOUS
 62
     7
 10
14363.84363652325
 20
20520.98743999999
 30
0.0
 40
160.0
  1
85.5
  0
TEXT
  5
48F5
  8
0
  6
CONTINUOUS
 62
     7
 10
11043.350224476721
 20
20520.98743999999
 30
0.0
 40
160.0
  1
85.5
  0
ARC
  5
48F6
  8
0
  6
BYBLOCK
 62
     0
 10
11574.346930499991
 20
20440.98743999999
 30
0.0
 40
15.0
 50
180.0
 51
0.0
  0
ARC
  5
48F7
  8
0
  6
BYBLOCK
 62
     0
 10
11574.346930499991
 20
20440.98743999999
 30
0.0
 40
15.0
 50
0.0
 51
180.0
  0
ARC
  5
48F8
  8
0
  6
BYBLOCK
 62
     0
 10
14312.846930499991
 20
20440.98743999999
 30
0.0
 40
15.0
 50
0.0
 51
180.0
  0
ARC
  5
48F9
  8
0
  6
BYBLOCK
 62
     0
 10
14312.846930499991
 20
20440.98743999999
 30
0.0
 40
15.0
 50
180.0
 51
0.0
  0
TEXT
  5
4958
  8
NAME
 10
24033.053546554009
 20
1076.0
 30
0.0
 40
360.0
  1
H
 41
0.6700000000000002
  7
00
  0
TEXT
  5
4959
  8
NAME
 10
23657.221561973682
 20
1076.0
 30
0.0
 40
360.0
  1
（ ）
  7
01
  0
TEXT
  5
495A
  8
NAME
 10
24557.214549256729
 20
1076.0
 30
0.0
 40
360.0
  1
型（単棟）
  7
01
  0
TEXT
  5
495B
  8
NAME
 10
21933.552716389011
 20
1876.0
 30
0.0
 40
360.0
  1
ヨドガレージ ラヴィージュ
 41
0.75
  7
01
  0
TEXT
  5
495C
  8
NAME
 10
21816.089515848391
 20
1076.6369801169251
 30
0.0
 40
360.0
  1
VGC-2659
 41
0.6700000000000002
  0
LINE
  5
495D
  8
NAME
  6
CONTINUOUS
 10
26067.886878884299
 20
2236.0
 30
0.0
 11
26067.886878884299
 21
1876.0
 31
0.0
  0
LINE
  5
495E
  8
NAME
  6
CONTINUOUS
 10
26167.886878884299
 20
2236.0
 30
0.0
 11
26167.886878884299
 21
1876.0
 31
0.0
  0
LINE
  5
495F
  8
NAME
  6
CONTINUOUS
 10
26267.88687888431
 20
2236.0
 30
0.0
 11
26267.88687888431
 21
1876.0
 31
0.0
  0
LINE
  5
4960
  8
NAME
  6
CONTINUOUS
 10
26007.886878884299
 20
2236.0
 30
0.0
 11
26327.886878884299
 21
2236.0
 31
0.0
  0
LINE
  5
4961
  8
NAME
  6
CONTINUOUS
 10
26327.886878884299
 20
1876.0
 30
0.0
 11
26007.886878884299
 21
1876.0
 31
0.0
  0
TEXT
  5
49FA
  8
FILENAME
  6
CONTINUOUS
 10
28756.38095238095
 20
348.0
 30
0.0
 40
200.0
  1
＜VGC-2659-1-A_0.DXF ＞
  7
FILENAME
 72
     2
 11
32764.0
 21
348.0
 31
0.0
  0
LINE
  5
4A00
  8
WAKUSEN-01
 10
868.00000000000193
 20
827.99999999999955
 30
0.0
 11
32764.000000000011
 21
827.99999999999943
 31
0.0
  0
LINE
  5
4A01
  8
WAKUSEN-01
 10
868.00000000000193
 20
827.99999999999955
 30
0.0
 11
868.00000000000193
 21
22484.000000000011
 31
0.0
  0
LINE
  5
4A02
  8
WAKUSEN-01
 10
32764.000000000011
 20
827.99999999999943
 30
0.0
 11
32764.000000000011
 21
22484.000000000011
 31
0.0
  0
LINE
  5
4A03
  8
WAKUSEN-01
 10
20560.0
 20
827.99999999999716
 30
0.0
 11
20560.0
 21
2484.0
 31
0.0
  0
LINE
  5
4A04
  8
WAKUSEN-02
 10
26868.0
 20
827.99999999999261
 30
0.0
 11
26868.0
 21
2484.0
 31
0.0
  0
ENDSEC
  0
EOF
