  0
SECTION
  2
HEADER
  9
$ACADVER
  1
AC1009
  9
$INSBASE
 10
0.0
 20
0.0
 30
0.0
  9
$EXTMIN
 10
867.99324330406671
 20
327.38164749855792
 30
-0.0000000000000053
  9
$EXTMAX
 10
32765.33210850941
 20
22484.553276491992
 30
0.0000000000000099
  9
$LIMMIN
 10
0.0
 20
0.0
  9
$LIMMAX
 10
33600.0
 20
23760.0
  9
$ORTHOMODE
 70
     1
  9
$REGENMODE
 70
     1
  9
$FILLMODE
 70
     1
  9
$QTEXTMODE
 70
     0
  9
$MIRRTEXT
 70
     1
  9
$DRAGMODE
 70
     2
  9
$LTSCALE
 40
80.0
  9
$OSMODE
 70
  3071
  9
$ATTMODE
 70
     1
  9
$TEXTSIZE
 40
0.2
  9
$TRACEWID
 40
0.05
  9
$TEXTSTYLE
  7
00
  9
$CLAYER
  8
0
  9
$CELTYPE
  6
BYLAYER
  9
$CECOLOR
 62
   256
  9
$DIMSCALE
 40
80.0
  9
$DIMASZ
 40
3.0
  9
$DIMEXO
 40
1.0
  9
$DIMDLI
 40
0.38
  9
$DIMRND
 40
0.5
  9
$DIMDLE
 40
0.0
  9
$DIMEXE
 40
1.0
  9
$DIMTP
 40
0.0
  9
$DIMTM
 40
0.0
  9
$DIMTXT
 40
2.0
  9
$DIMCEN
 40
0.09
  9
$DIMTSZ
 40
0.0
  9
$DIMTOL
 70
     0
  9
$DIMLIM
 70
     0
  9
$DIMTIH
 70
     0
  9
$DIMTOH
 70
     0
  9
$DIMSE1
 70
     0
  9
$DIMSE2
 70
     0
  9
$DIMTAD
 70
     1
  9
$DIMZIN
 70
     8
  9
$DIMBLK
  1
DOTSMALL
  9
$DIMASO
 70
     1
  9
$DIMSHO
 70
     1
  9
$DIMPOST
  1

  9
$DIMAPOST
  1

  9
$DIMALT
 70
     0
  9
$DIMALTD
 70
     2
  9
$DIMALTF
 40
25.399999999999999
  9
$DIMLFAC
 40
1.0
  9
$DIMTOFL
 70
     1
  9
$DIMTVP
 40
0.0
  9
$DIMTIX
 70
     0
  9
$DIMSOXD
 70
     0
  9
$DIMSAH
 70
     0
  9
$DIMBLK1
  1

  9
$DIMBLK2
  1

  9
$DIMSTYLE
  2
SUNPOU
  9
$DIMCLRD
 70
     4
  9
$DIMCLRE
 70
     4
  9
$DIMCLRT
 70
     7
  9
$DIMTFAC
 40
1.0
  9
$DIMGAP
 40
1.0
  9
$LUNITS
 70
     2
  9
$LUPREC
 70
     4
  9
$SKETCHINC
 40
0.1
  9
$FILLETRAD
 40
0.0
  9
$AUNITS
 70
     0
  9
$AUPREC
 70
     0
  9
$MENU
  1
acad
  9
$ELEVATION
 40
0.0
  9
$PELEVATION
 40
0.0
  9
$THICKNESS
 40
0.0
  9
$LIMCHECK
 70
     0
  9
$BLIPMODE
 70
     1
  9
$CHAMFERA
 40
0.0
  9
$CHAMFERB
 40
0.0
  9
$SKPOLY
 70
     0
  9
$TDCREATE
 40
2454569.4716690159
  9
$TDUPDATE
 40
2458942.447062871
  9
$TDINDWG
 40
0.0437933796
  9
$TDUSRTIMER
 40
0.0437924537
  9
$USRTIMER
 70
     1
  9
$ANGBASE
 50
0.0
  9
$ANGDIR
 70
     0
  9
$PDMODE
 70
     0
  9
$PDSIZE
 40
0.0
  9
$PLINEWID
 40
0.0
  9
$COORDS
 70
     1
  9
$SPLFRAME
 70
     0
  9
$SPLINETYPE
 70
     6
  9
$SPLINESEGS
 70
     8
  9
$ATTDIA
 70
     1
  9
$ATTREQ
 70
     1
  9
$HANDLING
 70
     1
  9
$HANDSEED
  5
3F3A
  9
$SURFTAB1
 70
     6
  9
$SURFTAB2
 70
     6
  9
$SURFTYPE
 70
     6
  9
$SURFU
 70
     6
  9
$SURFV
 70
     6
  9
$UCSNAME
  2

  9
$UCSORG
 10
0.0
 20
0.0
 30
0.0
  9
$UCSXDIR
 10
1.0
 20
0.0
 30
0.0
  9
$UCSYDIR
 10
0.0
 20
1.0
 30
0.0
  9
$PUCSNAME
  2

  9
$PUCSORG
 10
0.0
 20
0.0
 30
0.0
  9
$PUCSXDIR
 10
1.0
 20
0.0
 30
0.0
  9
$PUCSYDIR
 10
0.0
 20
1.0
 30
0.0
  9
$USERI1
 70
     0
  9
$USERI2
 70
     0
  9
$USERI3
 70
     0
  9
$USERI4
 70
     0
  9
$USERI5
 70
     0
  9
$USERR1
 40
0.0
  9
$USERR2
 40
0.0
  9
$USERR3
 40
0.0
  9
$USERR4
 40
0.0
  9
$USERR5
 40
0.0
  9
$WORLDVIEW
 70
     1
  9
$SHADEDGE
 70
     3
  9
$SHADEDIF
 70
    70
  9
$TILEMODE
 70
     1
  9
$MAXACTVP
 70
    16
  9
$PLIMCHECK
 70
     0
  9
$PEXTMIN
 10
1.0000000000000000E+020
 20
1.0000000000000000E+020
 30
1.0000000000000000E+020
  9
$PEXTMAX
 10
-1.0000000000000000E+020
 20
-1.0000000000000000E+020
 30
-1.0000000000000000E+020
  9
$PLIMMIN
 10
0.0
 20
0.0
  9
$PLIMMAX
 10
12.0
 20
9.0
  9
$UNITMODE
 70
     0
  9
$VISRETAIN
 70
     0
  9
$PLINEGEN
 70
     1
  9
$PSLTSCALE
 70
     0
  0
ENDSEC
  0
SECTION
  2
TABLES
  0
TABLE
  2
VPORT
 70
     1
  0
VPORT
  2
*ACTIVE
 70
     0
 10
0.0
 20
0.0
 11
1.0
 21
1.0
 12
16800.0
 22
11880.0
 13
0.0
 23
0.0
 14
1.0
 24
1.0
 15
0.0
 25
0.0
 16
0.0
 26
0.0
 36
1.0
 17
0.0
 27
0.0
 37
0.0
 40
23981.023255813951
 41
2.195652173913043
 42
50.0
 43
0.0
 44
0.0
 50
0.0
 51
0.0
 71
     0
 72
 10000
 73
     1
 74
     1
 75
     0
 76
     0
 77
     0
 78
     0
  0
ENDTAB
  0
TABLE
  2
LTYPE
 70
     3
  0
LTYPE
  2
CONTINUOUS
 70
     0
  3
Solid line
 72
    65
 73
     0
 40
0.0
  0
LTYPE
  2
DASHED3
 70
     0
  3
------  ------  ------  ------  
 72
    65
 73
     2
 40
5.0
 49
3.75
 49
-1.25
  0
LTYPE
  2
CENTER2
 70
     0
  3
----------  --  ----------  --  
 72
    65
 73
     4
 40
20.0
 49
12.5
 49
-2.5
 49
2.5
 49
-2.5
  0
ENDTAB
  0
TABLE
  2
LAYER
 70
    17
  0
LAYER
  2
0
 70
     0
 62
     7
  6
CONTINUOUS
  0
LAYER
  2
SUNPOU
 70
     0
 62
     4
  6
CONTINUOUS
  0
LAYER
  2
0-1
 70
     0
 62
     7
  6
CONTINUOUS
  0
LAYER
  2
0-2
 70
     0
 62
     7
  6
CONTINUOUS
  0
LAYER
  2
0-6
 70
     0
 62
     7
  6
CONTINUOUS
  0
LAYER
  2
0-0
 70
     0
 62
     7
  6
CONTINUOUS
  0
LAYER
  2
2-0
 70
     0
 62
     7
  6
CONTINUOUS
  0
LAYER
  2
YODOROGO
 70
     0
 62
   130
  6
CONTINUOUS
  0
LAYER
  2
WAKUSEN-01
 70
     0
 62
    50
  6
CONTINUOUS
  0
LAYER
  2
WAKUSEN-02
 70
     0
 62
   130
  6
CONTINUOUS
  0
LAYER
  2
WAKUMOJI-01
 70
     0
 62
   130
  6
CONTINUOUS
  0
LAYER
  2
FILENAME
 70
     0
 62
     7
  6
CONTINUOUS
  0
LAYER
  2
NAME
 70
     0
 62
    20
  6
CONTINUOUS
  0
LAYER
  2
0-4
 70
     0
 62
     7
  6
CONTINUOUS
  0
LAYER
  2
0-5
 70
     0
 62
     7
  6
CONTINUOUS
  0
ENDTAB
  0
TABLE
  2
STYLE
 70
     5
  0
STYLE
  2
STANDARD
 70
     0
 40
0.0
 41
1.0
 50
0.0
 71
     0
 42
0.0
  3
txt
  4
BIGFONT
  0
STYLE
  2
00
 70
     0
 40
0.0
 41
0.6666666666666666
 50
0.0
 71
     0
 42
0.2
  3
ROMANS
  4
BIGFONT
  0
STYLE
  2
01
 70
     0
 40
3.0
 41
1.0
 50
0.0
 71
     0
 42
0.2
  3
ROMANS
  4
BIGFONT
  0
STYLE
  2
WAKUMOJI
 70
     0
 40
3.0
 41
1.0
 50
0.0
 71
     0
 42
3.0
  3
SIMPLEX
  4
BIGFONT
  0
STYLE
  2
FILENAME
 70
     0
 40
200.0
 41
1.0
 50
0.0
 71
     0
 42
200.0
  3
romans
  4
bigfont
  0
ENDTAB
  0
TABLE
  2
VIEW
 70
     0
  0
ENDTAB
  0
TABLE
  2
UCS
 70
     0
  0
ENDTAB
  0
TABLE
  2
APPID
 70
    13
  0
APPID
  2
ACAD
 70
     0
  0
APPID
  2
ACADANNOTATIVE
 70
     0
  0
APPID
  2
ACAD_PSEXT
 70
     0
  0
APPID
  2
DCO15
 70
     0
  0
APPID
  2
ACAD_MLEADERVER
 70
     0
  0
APPID
  2
AUTOCAD_POSTSCRIPT_FIGURE
 70
     0
  0
APPID
  2
ACAD_EXEMPT_FROM_CAD_STANDARDS
 70
     0
  0
APPID
  2
ACAD_DSTYLE_DIMJAG
 70
     0
  0
APPID
  2
ACAD_DSTYLE_DIMTALN
 70
     0
  0
APPID
  2
ACAD_DSTYLE_DIM_LINETYPE
 70
     0
  0
APPID
  2
ACAD_DSTYLE_DIM_EXT1_LINETYPE
 70
     0
  0
APPID
  2
ACAD_DSTYLE_DIM_EXT2_LINETYPE
 70
     0
  0
APPID
  2
ACAD_NAV_VCDISPLAY
 70
     0
  0
ENDTAB
  0
TABLE
  2
DIMSTYLE
 70
     2
  0
DIMSTYLE
  2
SUNPOU
 70
     0
  3

  4

  5

  6

  7

 40
80.0
 41
3.0
 42
1.0
 43
0.38
 44
1.0
 45
0.5
 46
0.0
 47
0.0
 48
0.0
140
2.0
141
0.09
142
0.0
143
25.399999999999999
144
1.0
145
0.0
146
1.0
147
1.0
 71
     0
 72
     0
 73
     0
 74
     0
 75
     0
 76
     0
 77
     1
 78
     8
170
     0
171
     2
172
     1
173
     0
174
     0
175
     0
176
     4
177
     4
178
     7
  0
ENDTAB
  0
ENDSEC
  0
SECTION
  2
BLOCKS
  0
BLOCK
  8
0
  2
$MODEL_SPACE
 70
     0
 10
0.0
 20
0.0
 30
0.0
  3
$MODEL_SPACE
  1

  0
ENDBLK
  5
33E0
  8
0
  0
BLOCK
 67
     1
  8
0
  2
$PAPER_SPACE
 70
     0
 10
0.0
 20
0.0
 30
0.0
  3
$PAPER_SPACE
  1

  0
ENDBLK
  5
33DC
 67
     1
  8
0
  0
BLOCK
  8
0
  2
_DOTSMALL
 70
     0
 10
0.0
 20
0.0
 30
0.0
  3
_DOTSMALL
  1

  0
POLYLINE
  5
340F
  8
0
  6
BYBLOCK
 62
     0
 66
     1
 10
0.0
 20
0.0
 30
0.0
 70
     1
 40
0.5
 41
0.5
  0
VERTEX
  5
3F02
  8
0
  6
BYBLOCK
 62
     0
 10
-0.0625
 20
0.0
 30
0.0
 42
1.0
  0
VERTEX
  5
3F03
  8
0
  6
BYBLOCK
 62
     0
 10
0.0625
 20
0.0
 30
0.0
 42
1.0
  0
SEQEND
  5
3F04
  8
0
  6
BYBLOCK
 62
     0
  0
ENDBLK
  5
3413
  8
0
  0
ENDSEC
  0
SECTION
  2
ENTITIES
  0
LINE
  5
3414
  8
0-2
  6
CONTINUOUS
 62
     3
 10
10093.95568599999
 20
17007.731124999991
 30
0.0
 11
13875.502350000001
 21
17007.731124999991
 31
0.0
  0
LINE
  5
3415
  8
0-2
  6
CONTINUOUS
 62
     3
 10
10143.95630599998
 20
13895.230557999999
 30
0.0
 11
10143.95630599998
 21
20056.228908000001
 31
0.0
  0
LINE
  5
3416
  8
0-2
  6
CONTINUOUS
 62
     3
 10
10008.455289999991
 20
13863.23164
 30
0.0
 11
10008.455289999991
 21
20104.228275000001
 31
0.0
  0
LINE
  5
3417
  8
0-2
  6
CONTINUOUS
 62
     3
 10
10081.95481499999
 20
20104.228275000001
 30
0.0
 11
14539.95655699999
 21
20104.228275000001
 31
0.0
  0
LINE
  5
3418
  8
0-2
  6
CONTINUOUS
 62
     3
 10
12279.254198000001
 20
18213.142706999999
 30
0.0
 11
12441.490591999989
 21
18403.35068799998
 31
0.0
  0
LINE
  5
3419
  8
0-2
  6
CONTINUOUS
 62
     3
 10
12877.84873900001
 20
17373.985189999999
 30
0.0
 11
13040.086122999999
 21
17564.193170999992
 31
0.0
  0
LINE
  5
341A
  8
0-2
  6
CONTINUOUS
 62
     3
 10
12877.84873900001
 20
17373.985189999999
 30
0.0
 11
12441.490591999989
 21
18403.35068799998
 31
0.0
  0
LINE
  5
341B
  8
0-2
  6
CONTINUOUS
 62
     3
 10
10093.95568599999
 20
16928.728537999988
 30
0.0
 11
13996.27376799999
 21
16928.728537999988
 31
0.0
  0
LINE
  5
341C
  8
0-2
  6
CONTINUOUS
 62
     3
 10
10051.455422000001
 20
14019.231561000001
 30
0.0
 11
14570.45495999999
 21
14019.231561000001
 31
0.0
  0
LINE
  5
341D
  8
0-2
  6
CONTINUOUS
 62
     3
 10
10093.95568599999
 20
14098.230188999991
 30
0.0
 11
14527.95568599999
 21
14098.230188999991
 31
0.0
  0
LINE
  5
341E
  8
0-2
  6
CONTINUOUS
 62
     3
 10
10008.455289999991
 20
13863.23164
 30
0.0
 11
14613.456081
 21
13863.23164
 31
0.0
  0
LINE
  5
341F
  8
0-2
  6
CONTINUOUS
 62
     3
 10
10008.455289999991
 20
13895.230557999999
 30
0.0
 11
14613.456081
 21
13895.230557999999
 31
0.0
  0
LINE
  5
3420
  8
0-2
  6
CONTINUOUS
 62
     3
 10
10093.95568599999
 20
14019.231561000001
 30
0.0
 11
10093.95568599999
 21
19636.380935000001
 31
0.0
  0
LINE
  5
3421
  8
0-2
  6
CONTINUOUS
 62
     3
 10
10051.455422000001
 20
14019.231561000001
 30
0.0
 11
10051.455422000001
 21
19664.183273999992
 31
0.0
  0
LINE
  5
3422
  8
0-2
  6
CONTINUOUS
 62
     3
 10
10163.955422000001
 20
14055.730913999991
 30
0.0
 11
12591.45495999999
 21
16973.730914
 31
0.0
  0
LINE
  5
3423
  8
0-2
  6
CONTINUOUS
 62
     3
 10
12591.45495999999
 20
14055.730913999991
 30
0.0
 11
10163.955422000001
 21
16973.730914
 31
0.0
  0
LINE
  5
3424
  8
0-2
  6
CONTINUOUS
 62
     3
 10
14457.955948999999
 20
14055.730913999991
 30
0.0
 11
12731.455422000001
 21
16973.730914
 31
0.0
  0
LINE
  5
3425
  8
0-2
  6
CONTINUOUS
 62
     3
 10
14570.45495999999
 20
14019.231561000001
 30
0.0
 11
14570.45495999999
 21
16558.705048
 31
0.0
  0
LINE
  5
3426
  8
0-2
  6
CONTINUOUS
 62
     3
 10
14527.95568599999
 20
14019.231561000001
 30
0.0
 11
14527.95568599999
 21
16586.505407000001
 31
0.0
  0
LINE
  5
3427
  8
0-2
  6
CONTINUOUS
 62
     3
 10
14613.456081
 20
13863.23164
 30
0.0
 11
14613.456081
 21
20104.228275000001
 31
0.0
  0
LINE
  5
3428
  8
0-2
  6
CONTINUOUS
 62
     3
 10
14477.955065
 20
13895.230557999999
 30
0.0
 11
14477.955065
 21
20056.228908000001
 31
0.0
  0
LINE
  5
3429
  8
0-2
  6
CONTINUOUS
 62
     3
 10
12279.254198000001
 20
18213.142706999999
 30
0.0
 11
9860.2576809999937
 21
19789.247277999992
 31
0.0
  0
LINE
  5
342A
  8
0-2
  6
CONTINUOUS
 62
     3
 10
10163.955422000001
 20
16973.730914
 30
0.0
 11
11577.432709999979
 21
18672.220778999981
 31
0.0
  0
LINE
  5
342B
  8
0-2
  6
CONTINUOUS
 62
     3
 10
12591.45495999999
 20
16973.730914
 30
0.0
 11
10722.44993199999
 21
19231.482285999991
 31
0.0
  0
LINE
  5
342C
  8
0-2
  6
CONTINUOUS
 62
     3
 10
10026.456042
 20
19678.572393999992
 30
0.0
 11
10026.456042
 21
20096.731837999989
 31
0.0
  0
LINE
  5
342D
  8
0-2
  6
CONTINUOUS
 62
     3
 10
10026.456042
 20
20056.228908000008
 30
0.0
 11
14595.45631899999
 21
20056.228908000001
 31
0.0
  0
LINE
  5
342E
  8
0-2
  6
CONTINUOUS
 62
     3
 10
14595.45631899999
 20
16544.313947999981
 30
0.0
 11
14595.45631899999
 21
20096.731837999989
 31
0.0
  0
LINE
  5
342F
  8
0-2
  6
CONTINUOUS
 62
     3
 10
10081.95481499999
 20
20079.232892999979
 30
0.0
 11
10081.95481499999
 21
20109.228538999989
 31
0.0
  0
LINE
  5
3430
  8
0-2
  6
CONTINUOUS
 62
     3
 10
10008.455289999991
 20
20109.228538999989
 30
0.0
 11
10008.455289999991
 21
20074.230650000001
 31
0.0
  0
LINE
  5
3431
  8
0-2
  6
CONTINUOUS
 62
     3
 10
10076.954550999981
 20
20114.230781999991
 30
0.0
 11
10013.45555399998
 21
20114.230781999991
 31
0.0
  0
LINE
  5
3432
  8
0-2
  6
CONTINUOUS
 62
     3
 10
10026.456042
 20
20096.731837999989
 30
0.0
 11
10008.455289999991
 21
20096.731837999989
 31
0.0
  0
LINE
  5
3433
  8
0-2
  6
CONTINUOUS
 62
     3
 10
10026.456042
 20
20074.230650000001
 30
0.0
 11
10076.954550999981
 21
20074.230650000001
 31
0.0
  0
LINE
  5
3434
  8
0-2
  6
CONTINUOUS
 62
     3
 10
14595.45631899999
 20
20096.731837999989
 30
0.0
 11
14613.456081
 21
20096.731837999989
 31
0.0
  0
LINE
  5
3435
  8
0-2
  6
CONTINUOUS
 62
     3
 10
14539.95655699999
 20
20079.232892999979
 30
0.0
 11
14539.95655699999
 21
20109.228538999989
 31
0.0
  0
LINE
  5
3436
  8
0-2
  6
CONTINUOUS
 62
     3
 10
14595.45631899999
 20
20074.230650000001
 30
0.0
 11
14544.95385099998
 21
20074.230650000001
 31
0.0
  0
LINE
  5
3437
  8
0-2
  6
CONTINUOUS
 62
     3
 10
14613.456081
 20
20109.228538999989
 30
0.0
 11
14613.456081
 21
20074.230650000001
 31
0.0
  0
LINE
  5
3438
  8
0-2
  6
CONTINUOUS
 62
     3
 10
14544.95385099998
 20
20114.230781999991
 30
0.0
 11
14608.45581699998
 21
20114.230781999991
 31
0.0
  0
LINE
  5
3439
  8
0-2
  6
CONTINUOUS
 62
     3
 10
12604.45445899998
 20
14098.230188999991
 30
0.0
 11
12604.45445899998
 21
16928.728537999988
 31
0.0
  0
LINE
  5
343A
  8
0-2
  6
CONTINUOUS
 62
     3
 10
12718.454933999999
 20
14098.230188999991
 30
0.0
 11
12718.454933999999
 21
16928.728537999988
 31
0.0
  0
LINE
  5
343B
  8
0-2
  6
CONTINUOUS
 62
     3
 10
12661.45568599999
 20
14098.230188999991
 30
0.0
 11
12661.45568599999
 21
14019.231561000001
 31
0.0
  0
LINE
  5
343C
  8
0-2
  6
CONTINUOUS
 62
     3
 10
12661.45568599999
 20
14098.230188999991
 30
0.0
 11
12661.45568599999
 21
16928.728537999988
 31
0.0
  0
LINE
  5
343D
  8
0-2
  6
CONTINUOUS
 62
     3
 10
12718.454933999999
 20
17007.731124999991
 30
0.0
 11
12718.454933999999
 21
17749.992764999999
 31
0.0
  0
LINE
  5
343E
  8
0-2
  6
CONTINUOUS
 62
     3
 10
12604.45445899998
 20
17007.731124999991
 30
0.0
 11
12604.45445899998
 21
18018.918281999999
 31
0.0
  0
LINE
  5
343F
  8
0-2
  6
CONTINUOUS
 62
     3
 10
12661.45568599999
 20
17007.731124999991
 30
0.0
 11
12661.45568599999
 21
17884.457503000001
 31
0.0
  0
LINE
  5
3440
  8
0-2
  6
CONTINUOUS
 62
     3
 10
12661.45568599999
 20
16928.728537999988
 30
0.0
 11
12661.45568599999
 21
17007.731124999991
 31
0.0
  0
LINE
  5
3441
  8
0-2
  6
CONTINUOUS
 62
     3
 10
14401.455540000001
 20
16669.251262999991
 30
0.0
 11
14401.455540000001
 21
20056.228908000001
 31
0.0
  0
LINE
  5
3442
  8
0-2
  6
CONTINUOUS
 62
     3
 10
14438.45571199999
 20
16645.047688999981
 30
0.0
 11
14438.45571199999
 21
20056.228908000001
 31
0.0
  0
LINE
  5
3443
  8
0-2
  6
CONTINUOUS
 62
     3
 10
14229.953957
 20
16775.876051999981
 30
0.0
 11
14229.953957
 21
20056.228908000001
 31
0.0
  0
LINE
  5
3444
  8
0-2
  6
CONTINUOUS
 62
     3
 10
14192.95477599999
 20
16800.075666000001
 30
0.0
 11
14192.95477599999
 21
20056.228908000001
 31
0.0
  0
LINE
  5
3445
  8
0-2
  6
CONTINUOUS
 62
     3
 10
14029.956267
 20
16906.698476000001
 30
0.0
 11
14029.956267
 21
20056.228908000001
 31
0.0
  0
LINE
  5
3446
  8
0-2
  6
CONTINUOUS
 62
     3
 10
13992.95510499999
 20
16930.904029000001
 30
0.0
 11
13992.95510499999
 21
20056.228908000001
 31
0.0
  0
LINE
  5
3447
  8
0-2
  6
CONTINUOUS
 62
     3
 10
13829.955606999991
 20
17037.522878999989
 30
0.0
 11
13829.955606999991
 21
20056.228908000001
 31
0.0
  0
LINE
  5
3448
  8
0-2
  6
CONTINUOUS
 62
     3
 10
13792.955434999991
 20
17061.726452999999
 30
0.0
 11
13792.955434999991
 21
20056.228908000001
 31
0.0
  0
LINE
  5
3449
  8
0-2
  6
CONTINUOUS
 62
     3
 10
13629.953957
 20
17168.345302999991
 30
0.0
 11
13629.953957
 21
20056.228908000001
 31
0.0
  0
LINE
  5
344A
  8
0-2
  6
CONTINUOUS
 62
     3
 10
13592.955765000001
 20
17192.550856999991
 30
0.0
 11
13592.955765000001
 21
20056.228908000001
 31
0.0
  0
LINE
  5
344B
  8
0-2
  6
CONTINUOUS
 62
     3
 10
13429.95626699999
 20
17309.173771999991
 30
0.0
 11
13429.95626699999
 21
20056.228908000001
 31
0.0
  0
LINE
  5
344C
  8
0-2
  6
CONTINUOUS
 62
     3
 10
13392.955104999981
 20
17333.373386999989
 30
0.0
 11
13392.955104999981
 21
20056.228908000001
 31
0.0
  0
LINE
  5
344D
  8
0-2
  6
CONTINUOUS
 62
     3
 10
13229.95461699999
 20
17439.994215999999
 30
0.0
 11
13229.95461699999
 21
20056.228908000001
 31
0.0
  0
LINE
  5
344E
  8
0-2
  6
CONTINUOUS
 62
     3
 10
13192.955435
 20
17464.201749
 30
0.0
 11
13192.955435
 21
20056.228908000001
 31
0.0
  0
LINE
  5
344F
  8
0-2
  6
CONTINUOUS
 62
     3
 10
12992.955765000001
 20
17508.940848999991
 30
0.0
 11
12992.955765000001
 21
20056.228908000001
 31
0.0
  0
LINE
  5
3450
  8
0-2
  6
CONTINUOUS
 62
     3
 10
13029.953957
 20
17552.318038999991
 30
0.0
 11
13029.953957
 21
20056.228908000001
 31
0.0
  0
LINE
  5
3451
  8
0-2
  6
CONTINUOUS
 62
     3
 10
12792.95510500001
 20
17574.249125999992
 30
0.0
 11
12792.95510500001
 21
20056.228908000001
 31
0.0
  0
LINE
  5
3452
  8
0-2
  6
CONTINUOUS
 62
     3
 10
12829.95626699999
 20
17486.964232999999
 30
0.0
 11
12829.95626699999
 21
20056.228908000001
 31
0.0
  0
LINE
  5
3453
  8
0-2
  6
CONTINUOUS
 62
     3
 10
12629.954616999999
 20
17958.76467099999
 30
0.0
 11
12629.954616999999
 21
20056.228908000001
 31
0.0
  0
LINE
  5
3454
  8
0-2
  6
CONTINUOUS
 62
     3
 10
12592.956425
 20
18046.049563999979
 30
0.0
 11
12592.956425
 21
20056.228908000001
 31
0.0
  0
LINE
  5
3455
  8
0-2
  6
CONTINUOUS
 62
     3
 10
12392.954776
 20
18346.447446999999
 30
0.0
 11
12392.954776
 21
20056.228908000001
 31
0.0
  0
LINE
  5
3456
  8
0-2
  6
CONTINUOUS
 62
     3
 10
12429.954947
 20
18389.828596999989
 30
0.0
 11
12429.954947
 21
20056.228908000001
 31
0.0
  0
LINE
  5
3457
  8
0-2
  6
CONTINUOUS
 62
     3
 10
11992.955435
 20
18400.419020999991
 30
0.0
 11
11992.955435
 21
20056.228908000001
 31
0.0
  0
LINE
  5
3458
  8
0-2
  6
CONTINUOUS
 62
     3
 10
12029.955606999991
 20
18376.21544699998
 30
0.0
 11
12029.955606999991
 21
20056.228908000001
 31
0.0
  0
LINE
  5
3459
  8
0-2
  6
CONTINUOUS
 62
     3
 10
12192.955104999981
 20
18262.432719
 30
0.0
 11
12192.955104999981
 21
20056.228908000001
 31
0.0
  0
LINE
  5
345A
  8
0-2
  6
CONTINUOUS
 62
     3
 10
12229.95527699999
 20
18241.299379
 30
0.0
 11
12229.95527699999
 21
20056.228908000001
 31
0.0
  0
LINE
  5
345B
  8
0-2
  6
CONTINUOUS
 62
     3
 10
10829.955607
 20
19161.161867999999
 30
0.0
 11
10829.955607
 21
20056.228908000001
 31
0.0
  0
LINE
  5
345C
  8
0-2
  6
CONTINUOUS
 62
     3
 10
10792.955435
 20
19185.365441999998
 30
0.0
 11
10792.955435
 21
20056.228908000001
 31
0.0
  0
LINE
  5
345D
  8
0-2
  6
CONTINUOUS
 62
     3
 10
11029.955276999999
 20
19030.33746499999
 30
0.0
 11
11029.955276999999
 21
20056.228908000001
 31
0.0
  0
LINE
  5
345E
  8
0-2
  6
CONTINUOUS
 62
     3
 10
10992.95411600001
 20
19054.54301799996
 30
0.0
 11
10992.95411600001
 21
20056.228908000001
 31
0.0
  0
LINE
  5
345F
  8
0-2
  6
CONTINUOUS
 62
     3
 10
11192.955765000001
 20
18923.714656
 30
0.0
 11
11192.955765000001
 21
20056.228908000001
 31
0.0
  0
LINE
  5
3460
  8
0-2
  6
CONTINUOUS
 62
     3
 10
11229.953957
 20
18899.513061000001
 30
0.0
 11
11229.953957
 21
20056.228908000001
 31
0.0
  0
LINE
  5
3461
  8
0-2
  6
CONTINUOUS
 62
     3
 10
11392.955434999991
 20
18792.894210999999
 30
0.0
 11
11392.955434999991
 21
20056.228908000001
 31
0.0
  0
LINE
  5
3462
  8
0-2
  6
CONTINUOUS
 62
     3
 10
11429.955606999991
 20
18768.686677999991
 30
0.0
 11
11429.955606999991
 21
20056.228908000001
 31
0.0
  0
LINE
  5
3463
  8
0-2
  6
CONTINUOUS
 62
     3
 10
11592.95510499999
 20
18662.067827999948
 30
0.0
 11
11592.95510499999
 21
20056.228908000001
 31
0.0
  0
LINE
  5
3464
  8
0-2
  6
CONTINUOUS
 62
     3
 10
11629.955276999979
 20
18637.866234000001
 30
0.0
 11
11629.955276999979
 21
20056.228908000001
 31
0.0
  0
LINE
  5
3465
  8
0-2
  6
CONTINUOUS
 62
     3
 10
11792.955765000001
 20
18531.243425000001
 30
0.0
 11
11792.955765000001
 21
20056.228908000001
 31
0.0
  0
LINE
  5
3466
  8
0-2
  6
CONTINUOUS
 62
     3
 10
11829.954947
 20
18507.037870999979
 30
0.0
 11
11829.954947
 21
20056.228908000001
 31
0.0
  0
LINE
  5
3467
  8
0-2
  6
CONTINUOUS
 62
     3
 10
10629.953957
 20
19291.988250999999
 30
0.0
 11
10629.953957
 21
20056.228908000001
 31
0.0
  0
LINE
  5
3468
  8
0-2
  6
CONTINUOUS
 62
     3
 10
10592.955765000001
 20
19316.18984599999
 30
0.0
 11
10592.955765000001
 21
20056.228908000001
 31
0.0
  0
LINE
  5
3469
  8
0-2
  6
CONTINUOUS
 62
     3
 10
10220.454841000001
 20
19553.637058
 30
0.0
 11
10220.454841000001
 21
20056.228908000001
 31
0.0
  0
LINE
  5
346A
  8
0-2
  6
CONTINUOUS
 62
     3
 10
10183.456649
 20
19577.840631999999
 30
0.0
 11
10183.456649
 21
20056.228908000001
 31
0.0
  0
LINE
  5
346B
  8
0-2
  6
CONTINUOUS
 62
     3
 10
10420.456490999981
 20
19422.812654999991
 30
0.0
 11
10420.456490999981
 21
20056.228908000001
 31
0.0
  0
LINE
  5
346C
  8
0-2
  6
CONTINUOUS
 62
     3
 10
10383.45434
 20
19447.012269999988
 30
0.0
 11
10383.45434
 21
20056.228908000001
 31
0.0
  0
LINE
  5
346D
  8
0-2
  6
CONTINUOUS
 62
     3
 10
14758.08065899999
 20
16435.974896
 30
0.0
 11
13040.086122999999
 21
17564.193170999992
 31
0.0
  0
LINE
  5
346E
  8
0-2
  6
CONTINUOUS
 62
     3
 10
12731.455422000001
 20
16973.730914
 30
0.0
 11
13064.823177
 21
17548.012585999979
 31
0.0
  0
LINE
  5
346F
  8
0-2
  6
CONTINUOUS
 62
     3
 10
14312.464303000001
 20
16727.464945
 30
0.0
 11
12731.455422000001
 21
14055.730913999991
 31
0.0
  0
LINE
  5
3470
  8
0-2
  6
CONTINUOUS
 62
     3
 10
12661.45568599999
 20
14019.231561000001
 30
0.0
 11
12661.45568599999
 21
13863.23164
 31
0.0
  0
LINE
  5
3471
  8
0-2
  6
CONTINUOUS
 62
     3
 10
12576.454167999989
 20
20056.228908000001
 30
0.0
 11
12576.454167999989
 21
20104.228275000001
 31
0.0
  0
LINE
  5
3472
  8
0-6
  6
CONTINUOUS
 62
     6
 10
11745.542336
 20
17161.55951399999
 30
0.0
 11
11684.39500700001
 21
17333.325878
 31
0.0
  0
LINE
  5
3473
  8
0-6
  6
CONTINUOUS
 62
     6
 10
11786.77372900001
 20
19831.955391
 30
0.0
 11
11930.676812
 21
20344.231046000001
 31
0.0
  0
LINE
  5
3474
  8
0-6
  6
CONTINUOUS
 62
     6
 10
11333.234350000001
 20
19937.73294599996
 30
0.0
 11
11039.304543
 21
20344.231046000001
 31
0.0
  0
LINE
  5
3475
  8
0-6
  6
CONTINUOUS
 62
     6
 10
11930.676812
 20
20344.231046000001
 30
0.0
 11
12448.36644900001
 21
20344.231046000001
 31
0.0
  0
LINE
  5
3476
  8
0-6
  6
CONTINUOUS
 62
     6
 10
11279.96748400001
 20
20234.134181000001
 30
0.0
 11
11070.77492999999
 21
20666.463018999992
 31
0.0
  0
LINE
  5
3477
  8
0-6
  6
CONTINUOUS
 62
     6
 10
10996.76864800001
 20
20794.648723999991
 30
0.0
 11
10800.712179
 21
21134.233156999991
 31
0.0
  0
LINE
  5
3478
  8
0-6
  6
CONTINUOUS
 62
     6
 10
10800.712179
 20
21134.233156999991
 30
0.0
 11
11643.147779000001
 21
21134.233156999991
 31
0.0
  0
LINE
  5
3479
  8
0-6
  6
CONTINUOUS
 62
     6
 10
10229.804107
 20
20344.231046000001
 30
0.0
 11
11039.304543
 21
20344.231046000001
 31
0.0
  0
LINE
  5
347A
  8
0-6
  6
CONTINUOUS
 62
     6
 10
10883.824246
 20
17333.325878
 30
0.0
 11
11684.39500700001
 21
17333.325878
 31
0.0
  0
LINE
  5
347B
  8
0-6
  6
CONTINUOUS
 62
     6
 10
10258.48139299998
 20
18281.588520999991
 30
0.0
 11
10787.980905
 21
18281.588520999991
 31
0.0
  0
LINE
  5
347C
  8
0-6
  6
CONTINUOUS
 62
     6
 10
10957.11097300001
 20
14250.12161899999
 30
0.0
 11
11039.997375000001
 21
14437.058021999999
 31
0.0
  0
LINE
  5
347D
  8
0-6
  6
CONTINUOUS
 62
     6
 10
11039.997375000001
 20
14437.058021999999
 30
0.0
 11
11839.997045
 21
14437.058021999999
 31
0.0
  0
LINE
  5
347E
  8
0-6
  6
CONTINUOUS
 62
     6
 10
12044.308106
 20
13063.22999099998
 30
0.0
 11
12906.887287
 21
13063.22999099998
 31
0.0
  0
LINE
  5
347F
  8
0-6
  6
CONTINUOUS
 62
     6
 10
11638.195023
 20
13726.76164999998
 30
0.0
 11
12044.308106
 21
13063.22999099998
 31
0.0
  0
LINE
  5
3480
  8
0-6
  6
CONTINUOUS
 62
     6
 10
8249.8208339999946
 20
12573.23084799999
 30
0.0
 11
9329.8224179999961
 21
12573.23084799999
 31
0.0
  0
LINE
  5
3481
  8
0-6
  6
CONTINUOUS
 62
     6
 10
9916.5621179999944
 20
14453.50188299999
 30
0.0
 11
9329.8224179999961
 21
12573.23084799999
 31
0.0
  0
LINE
  5
3482
  8
0-6
  6
CONTINUOUS
 62
     6
 10
10159.44112999999
 20
18502.378085
 30
0.0
 11
10258.48139299998
 21
18281.588520999991
 31
0.0
  0
LINE
  5
3483
  8
0-6
  6
CONTINUOUS
 62
     6
 10
11187.196356
 20
16460.344748999989
 30
0.0
 11
12067.19827000001
 21
16460.344748999989
 31
0.0
  0
LINE
  5
3484
  8
0-6
  6
CONTINUOUS
 62
     6
 10
10975.931246000009
 20
16258.28538999999
 30
0.0
 11
11187.196356
 21
16460.344748999989
 31
0.0
  0
LINE
  5
3485
  8
0-6
  6
CONTINUOUS
 62
     6
 10
12604.45445899998
 20
15250.10173
 30
0.0
 11
12339.26726199999
 21
15619.06023899998
 31
0.0
  0
LINE
  5
3486
  8
0-6
  6
CONTINUOUS
 62
     6
 10
12093.028018000001
 20
15619.06023899998
 30
0.0
 11
12339.26726199999
 21
15619.06023899998
 31
0.0
  0
LINE
  5
3487
  8
0-6
  6
CONTINUOUS
 62
     6
 10
15500.257602
 20
20989.898539999991
 30
0.0
 11
17175.253972999999
 21
20989.898539999991
 31
0.0
  0
LINE
  5
3488
  8
0-6
  6
CONTINUOUS
 62
     6
 10
14721.36256899999
 20
20229.553575000002
 30
0.0
 11
15500.257602
 21
20989.898539999991
 31
0.0
  0
LINE
  5
3489
  8
0-6
  6
CONTINUOUS
 62
     6
 10
9942.0068499999979
 20
14445.52046399999
 30
0.0
 11
9964.4555799999962
 21
14606.16631499998
 31
0.0
  0
LINE
  5
348A
  8
0-6
  6
CONTINUOUS
 62
     6
 10
9964.4555799999962
 20
14606.16631499998
 30
0.0
 11
9891.1183759999967
 21
14461.485281999991
 31
0.0
  0
LINE
  5
348B
  8
0-6
  6
CONTINUOUS
 62
     6
 10
9964.4555799999962
 20
14606.16631499998
 30
0.0
 11
9942.0068499999979
 21
14445.52046399999
 31
0.0
  0
LINE
  5
348C
  8
0-6
  6
CONTINUOUS
 62
     6
 10
9942.0068499999979
 20
14445.52046399999
 30
0.0
 11
9891.1183759999967
 21
14461.485281999991
 31
0.0
  0
LINE
  5
348D
  8
0-6
  6
CONTINUOUS
 62
     6
 10
9891.1183759999967
 20
14461.485281999991
 30
0.0
 11
9964.4555799999962
 21
14606.16631499998
 31
0.0
  0
LINE
  5
348E
  8
0-6
  6
CONTINUOUS
 62
     6
 10
9891.1183759999967
 20
14461.485281999991
 30
0.0
 11
9942.0068499999979
 21
14445.52046399999
 31
0.0
  0
LINE
  5
348F
  8
0-6
  6
CONTINUOUS
 62
     6
 10
11660.939691999991
 20
13740.68261399999
 30
0.0
 11
11554.670226
 21
13863.23164
 31
0.0
  0
LINE
  5
3490
  8
0-6
  6
CONTINUOUS
 62
     6
 10
11554.670226
 20
13863.23164
 30
0.0
 11
11615.450355000001
 21
13712.840684999999
 31
0.0
  0
LINE
  5
3491
  8
0-6
  6
CONTINUOUS
 62
     6
 10
11554.670226
 20
13863.23164
 30
0.0
 11
11660.939691999991
 21
13740.68261399999
 31
0.0
  0
LINE
  5
3492
  8
0-6
  6
CONTINUOUS
 62
     6
 10
11660.939691999991
 20
13740.68261399999
 30
0.0
 11
11615.450355000001
 21
13712.840684999999
 31
0.0
  0
LINE
  5
3493
  8
0-6
  6
CONTINUOUS
 62
     6
 10
11615.450355000001
 20
13712.840684999999
 30
0.0
 11
11554.670226
 21
13863.23164
 31
0.0
  0
LINE
  5
3494
  8
0-6
  6
CONTINUOUS
 62
     6
 10
11615.450355000001
 20
13712.840684999999
 30
0.0
 11
11660.939691999991
 21
13740.68261399999
 31
0.0
  0
LINE
  5
3495
  8
0-6
  6
CONTINUOUS
 62
     6
 10
10932.960845999991
 20
14261.433577
 30
0.0
 11
10889.23724
 21
14105.230756000001
 31
0.0
  0
LINE
  5
3496
  8
0-6
  6
CONTINUOUS
 62
     6
 10
10889.23724
 20
14105.230756000001
 30
0.0
 11
10981.26010999999
 21
14238.808669999989
 31
0.0
  0
LINE
  5
3497
  8
0-6
  6
CONTINUOUS
 62
     6
 10
10889.23724
 20
14105.230756000001
 30
0.0
 11
10932.960845999991
 21
14261.433577
 31
0.0
  0
LINE
  5
3498
  8
0-6
  6
CONTINUOUS
 62
     6
 10
10932.960845999991
 20
14261.433577
 30
0.0
 11
10981.26010999999
 21
14238.808669999989
 31
0.0
  0
LINE
  5
3499
  8
0-6
  6
CONTINUOUS
 62
     6
 10
10981.26010999999
 20
14238.808669999989
 30
0.0
 11
10889.23724
 21
14105.230756000001
 31
0.0
  0
LINE
  5
349A
  8
0-6
  6
CONTINUOUS
 62
     6
 10
10981.26010999999
 20
14238.808669999989
 30
0.0
 11
10932.960845999991
 21
14261.433577
 31
0.0
  0
LINE
  5
349B
  8
0-6
  6
CONTINUOUS
 62
     6
 10
12532.075340999991
 20
15395.265766
 30
0.0
 11
12604.45445899998
 21
15250.10173
 31
0.0
  0
LINE
  5
349C
  8
0-6
  6
CONTINUOUS
 62
     6
 10
12604.45445899998
 20
15250.10173
 30
0.0
 11
12488.908969
 21
15363.94483399998
 31
0.0
  0
LINE
  5
349D
  8
0-6
  6
CONTINUOUS
 62
     6
 10
12604.45445899998
 20
15250.10173
 30
0.0
 11
12532.075340999991
 21
15395.265766
 31
0.0
  0
LINE
  5
349E
  8
0-6
  6
CONTINUOUS
 62
     6
 10
12532.075340999991
 20
15395.265766
 30
0.0
 11
12488.908969
 21
15363.94483399998
 31
0.0
  0
LINE
  5
349F
  8
0-6
  6
CONTINUOUS
 62
     6
 10
12488.908969
 20
15363.94483399998
 30
0.0
 11
12604.45445899998
 21
15250.10173
 31
0.0
  0
LINE
  5
34A0
  8
0-6
  6
CONTINUOUS
 62
     6
 10
12488.908969
 20
15363.94483399998
 30
0.0
 11
12532.075340999991
 21
15395.265766
 31
0.0
  0
LINE
  5
34A1
  8
0-6
  6
CONTINUOUS
 62
     6
 10
10183.77040299998
 20
18513.295129999991
 30
0.0
 11
10093.95568599999
 21
18648.36362099999
 31
0.0
  0
LINE
  5
34A2
  8
0-6
  6
CONTINUOUS
 62
     6
 10
10093.95568599999
 20
18648.36362099999
 30
0.0
 11
10135.10987699999
 21
18491.46499899996
 31
0.0
  0
LINE
  5
34A3
  8
0-6
  6
CONTINUOUS
 62
     6
 10
10093.95568599999
 20
18648.36362099999
 30
0.0
 11
10183.77040299998
 21
18513.295129999991
 31
0.0
  0
LINE
  5
34A4
  8
0-6
  6
CONTINUOUS
 62
     6
 10
10183.77040299998
 20
18513.295129999991
 30
0.0
 11
10135.10987699999
 21
18491.46499899996
 31
0.0
  0
LINE
  5
34A5
  8
0-6
  6
CONTINUOUS
 62
     6
 10
10135.10987699999
 20
18491.46499899996
 30
0.0
 11
10093.95568599999
 21
18648.36362099999
 31
0.0
  0
LINE
  5
34A6
  8
0-6
  6
CONTINUOUS
 62
     6
 10
10135.10987699999
 20
18491.46499899996
 30
0.0
 11
10183.77040299998
 21
18513.295129999991
 31
0.0
  0
LINE
  5
34A7
  8
0-6
  6
CONTINUOUS
 62
     6
 10
10957.499948000001
 20
16277.55699299998
 30
0.0
 11
10860.30261699999
 21
16147.694636
 31
0.0
  0
LINE
  5
34A8
  8
0-6
  6
CONTINUOUS
 62
     6
 10
10860.30261699999
 20
16147.694636
 30
0.0
 11
10994.361553000001
 21
16239.012796999999
 31
0.0
  0
LINE
  5
34A9
  8
0-6
  6
CONTINUOUS
 62
     6
 10
10860.30261699999
 20
16147.694636
 30
0.0
 11
10957.499948000001
 21
16277.55699299998
 31
0.0
  0
LINE
  5
34AA
  8
0-6
  6
CONTINUOUS
 62
     6
 10
10957.499948000001
 20
16277.55699299998
 30
0.0
 11
10994.361553000001
 21
16239.012796999999
 31
0.0
  0
LINE
  5
34AB
  8
0-6
  6
CONTINUOUS
 62
     6
 10
10994.361553000001
 20
16239.012796999999
 30
0.0
 11
10860.30261699999
 21
16147.694636
 31
0.0
  0
LINE
  5
34AC
  8
0-6
  6
CONTINUOUS
 62
     6
 10
10994.361553000001
 20
16239.012796999999
 30
0.0
 11
10957.499948000001
 21
16277.55699299998
 31
0.0
  0
LINE
  5
34AD
  8
0-6
  6
CONTINUOUS
 62
     6
 10
11771.18007099999
 20
17168.891650000001
 30
0.0
 11
11789.54604500001
 21
17007.731124999991
 31
0.0
  0
LINE
  5
34AE
  8
0-6
  6
CONTINUOUS
 62
     6
 10
11789.54604500001
 20
17007.731124999991
 30
0.0
 11
11719.904600999989
 21
17154.227376999988
 31
0.0
  0
LINE
  5
34AF
  8
0-6
  6
CONTINUOUS
 62
     6
 10
11789.54604500001
 20
17007.731124999991
 30
0.0
 11
11771.18007099999
 21
17168.891650000001
 31
0.0
  0
LINE
  5
34B0
  8
0-6
  6
CONTINUOUS
 62
     6
 10
11771.18007099999
 20
17168.891650000001
 30
0.0
 11
11719.904600999989
 21
17154.227376999988
 31
0.0
  0
LINE
  5
34B1
  8
0-6
  6
CONTINUOUS
 62
     6
 10
11719.904600999989
 20
17154.227376999988
 30
0.0
 11
11789.54604500001
 21
17007.731124999991
 31
0.0
  0
LINE
  5
34B2
  8
0-6
  6
CONTINUOUS
 62
     6
 10
11719.904600999989
 20
17154.227376999988
 30
0.0
 11
11771.18007099999
 21
17168.891650000001
 31
0.0
  0
LINE
  5
34B3
  8
0-6
  6
CONTINUOUS
 62
     6
 10
11216.29329999999
 20
20050.139909000001
 30
0.0
 11
11333.234350000001
 21
19937.73294599996
 31
0.0
  0
LINE
  5
34B4
  8
0-6
  6
CONTINUOUS
 62
     6
 10
11333.234350000001
 20
19937.73294599996
 30
0.0
 11
11259.072676000011
 21
20081.99234199999
 31
0.0
  0
LINE
  5
34B5
  8
0-6
  6
CONTINUOUS
 62
     6
 10
11333.234350000001
 20
19937.73294599996
 30
0.0
 11
11216.29329999999
 21
20050.139909000001
 31
0.0
  0
LINE
  5
34B6
  8
0-6
  6
CONTINUOUS
 62
     6
 10
11216.29329999999
 20
20050.139909000001
 30
0.0
 11
11259.072676000011
 21
20081.99234199999
 31
0.0
  0
LINE
  5
34B7
  8
0-6
  6
CONTINUOUS
 62
     6
 10
11259.072676000011
 20
20081.99234199999
 30
0.0
 11
11333.234350000001
 21
19937.73294599996
 31
0.0
  0
LINE
  5
34B8
  8
0-6
  6
CONTINUOUS
 62
     6
 10
11259.072676000011
 20
20081.99234199999
 30
0.0
 11
11216.29329999999
 21
20050.139909000001
 31
0.0
  0
LINE
  5
34B9
  8
0-6
  6
CONTINUOUS
 62
     6
 10
11258.31748900001
 20
20221.633522
 30
0.0
 11
11354.96748400001
 21
20104.228275000001
 31
0.0
  0
LINE
  5
34BA
  8
0-6
  6
CONTINUOUS
 62
     6
 10
11354.96748400001
 20
20104.228275000001
 30
0.0
 11
11301.61846899999
 21
20246.636820999989
 31
0.0
  0
LINE
  5
34BB
  8
0-6
  6
CONTINUOUS
 62
     6
 10
11354.96748400001
 20
20104.228275000001
 30
0.0
 11
11258.31748900001
 21
20221.633522
 31
0.0
  0
LINE
  5
34BC
  8
0-6
  6
CONTINUOUS
 62
     6
 10
11258.31748900001
 20
20221.633522
 30
0.0
 11
11301.61846899999
 21
20246.636820999989
 31
0.0
  0
LINE
  5
34BD
  8
0-6
  6
CONTINUOUS
 62
     6
 10
11301.61846899999
 20
20246.636820999989
 30
0.0
 11
11354.96748400001
 21
20104.228275000001
 31
0.0
  0
LINE
  5
34BE
  8
0-6
  6
CONTINUOUS
 62
     6
 10
11301.61846899999
 20
20246.636820999989
 30
0.0
 11
11258.31748900001
 21
20221.633522
 31
0.0
  0
LINE
  5
34BF
  8
0-6
  6
CONTINUOUS
 62
     6
 10
11760.885584999991
 20
19838.351215999999
 30
0.0
 11
11748.386904000001
 21
19676.630485999998
 31
0.0
  0
LINE
  5
34C0
  8
0-6
  6
CONTINUOUS
 62
     6
 10
11748.386904000001
 20
19676.630485999998
 30
0.0
 11
11812.660883
 21
19825.555607999999
 31
0.0
  0
LINE
  5
34C1
  8
0-6
  6
CONTINUOUS
 62
     6
 10
11748.386904000001
 20
19676.630485999998
 30
0.0
 11
11760.885584999991
 21
19838.351215999999
 31
0.0
  0
LINE
  5
34C2
  8
0-6
  6
CONTINUOUS
 62
     6
 10
11760.885584999991
 20
19838.351215999999
 30
0.0
 11
11812.660883
 21
19825.555607999999
 31
0.0
  0
LINE
  5
34C3
  8
0-6
  6
CONTINUOUS
 62
     6
 10
11812.660883
 20
19825.555607999999
 30
0.0
 11
11748.386904000001
 21
19676.630485999998
 31
0.0
  0
LINE
  5
34C4
  8
0-6
  6
CONTINUOUS
 62
     6
 10
11812.660883
 20
19825.555607999999
 30
0.0
 11
11760.885584999991
 21
19838.351215999999
 31
0.0
  0
LINE
  5
34C5
  8
0-6
  6
CONTINUOUS
 62
     6
 10
14702.143423
 20
20248.038319999989
 30
0.0
 11
14610.456081
 21
20114.230781999991
 31
0.0
  0
LINE
  5
34C6
  8
0-6
  6
CONTINUOUS
 62
     6
 10
14610.456081
 20
20114.230781999991
 30
0.0
 11
14740.58270499999
 21
20211.066850999989
 31
0.0
  0
LINE
  5
34C7
  8
0-6
  6
CONTINUOUS
 62
     6
 10
14610.456081
 20
20114.230781999991
 30
0.0
 11
14702.143423
 21
20248.038319999989
 31
0.0
  0
LINE
  5
34C8
  8
0-6
  6
CONTINUOUS
 62
     6
 10
14702.143423
 20
20248.038319999989
 30
0.0
 11
14740.58270499999
 21
20211.066850999989
 31
0.0
  0
LINE
  5
34C9
  8
0-6
  6
CONTINUOUS
 62
     6
 10
14740.58270499999
 20
20211.066850999989
 30
0.0
 11
14610.456081
 21
20114.230781999991
 31
0.0
  0
LINE
  5
34CA
  8
0-6
  6
CONTINUOUS
 62
     6
 10
14740.58270499999
 20
20211.066850999989
 30
0.0
 11
14702.143423
 21
20248.038319999989
 31
0.0
  0
LINE
  5
34CB
  8
0-0
  6
DASHED3
 62
     6
 10
10093.95568599999
 20
19852.732418
 30
0.0
 11
14527.95568599999
 21
19852.732418
 31
0.0
  0
LINE
  5
34CC
  8
0-0
  6
DASHED3
 62
     6
 10
10051.455422000001
 20
19664.183273999992
 30
0.0
 11
10051.455422000001
 21
19937.73294599996
 31
0.0
  0
LINE
  5
34CD
  8
0-0
  6
DASHED3
 62
     6
 10
10093.95568599999
 20
19636.380935000001
 30
0.0
 11
10093.95568599999
 21
19937.73294599996
 31
0.0
  0
LINE
  5
34CE
  8
0-0
  6
DASHED3
 62
     6
 10
10051.455422000001
 20
19937.73294599996
 30
0.0
 11
14570.45495999999
 21
19937.73294599996
 31
0.0
  0
LINE
  5
34CF
  8
0-0
  6
DASHED3
 62
     6
 10
14457.955948999999
 20
16973.730914
 30
0.0
 11
12731.455422000001
 21
19891.730914
 31
0.0
  0
LINE
  5
34D0
  8
0-0
  6
DASHED3
 62
     6
 10
13996.27376799999
 20
16928.728537999988
 30
0.0
 11
14527.95568599999
 21
16928.728537999988
 31
0.0
  0
LINE
  5
34D1
  8
0-0
  6
DASHED3
 62
     6
 10
13875.502350000001
 20
17007.731124999991
 30
0.0
 11
14527.95568599999
 21
17007.731124999991
 31
0.0
  0
LINE
  5
34D2
  8
0-0
  6
DASHED3
 62
     6
 10
14527.95568599999
 20
16586.505407000001
 30
0.0
 11
14527.95568599999
 21
19937.73294599996
 31
0.0
  0
LINE
  5
34D3
  8
0-0
  6
DASHED3
 62
     6
 10
14570.45495999999
 20
16558.705048
 30
0.0
 11
14570.45495999999
 21
19937.73294599996
 31
0.0
  0
LINE
  5
34D4
  8
0-0
  6
DASHED3
 62
     6
 10
10722.44993199999
 20
19231.482285999991
 30
0.0
 11
10163.955422000001
 21
19891.730914
 31
0.0
  0
LINE
  5
34D5
  8
0-0
  6
DASHED3
 62
     6
 10
11577.432709999979
 20
18672.220778999981
 30
0.0
 11
12591.45495999999
 21
19891.730914
 31
0.0
  0
LINE
  5
34D6
  8
0-0
  6
DASHED3
 62
     6
 10
14457.955948999999
 20
16973.730914
 30
0.0
 11
14312.464303000001
 21
16727.464945
 31
0.0
  0
LINE
  5
34D7
  8
0-0
  6
DASHED3
 62
     6
 10
13064.823177
 20
17548.012585999979
 30
0.0
 11
14457.955948999999
 21
19891.730914
 31
0.0
  0
LINE
  5
34D8
  8
0-0
  6
CENTER2
 62
     6
 10
14527.95568599999
 20
21134.229199000009
 30
0.0
 11
14527.95568599999
 21
20184.228539
 31
0.0
  0
LINE
  5
34D9
  8
0-0
  6
CENTER2
 62
     6
 10
12661.45568599999
 20
21134.229199000009
 30
0.0
 11
12661.45568599999
 21
20184.228539
 31
0.0
  0
LINE
  5
34DA
  8
0-0
  6
CENTER2
 62
     6
 10
8764.4544209999967
 20
19891.730914
 30
0.0
 11
10410.954801999969
 21
19891.730914
 31
0.0
  0
LINE
  5
34DB
  8
0-0
  6
CENTER2
 62
     6
 10
10093.95568599999
 20
21134.229199000009
 30
0.0
 11
10093.95568599999
 21
20184.228539
 31
0.0
  0
LINE
  5
34DC
  8
0-0
  6
CENTER2
 62
     6
 10
8764.4544209999967
 20
16973.730914
 30
0.0
 11
10410.954801999969
 21
16973.730914
 31
0.0
  0
LINE
  5
34DD
  8
0-0
  6
CENTER2
 62
     6
 10
8764.4544209999967
 20
14055.730913999991
 30
0.0
 11
10410.954801999969
 21
14055.730913999991
 31
0.0
  0
LINE
  5
34DE
  8
0-0
  6
CENTER2
 62
     6
 10
14202.455475000001
 20
16973.730914
 30
0.0
 11
14826.720465999981
 21
16973.730914
 31
0.0
  0
LINE
  5
34DF
  8
0-0
  6
CENTER2
 62
     6
 10
14202.455475000001
 20
14055.730913999991
 30
0.0
 11
14826.720465999981
 21
14055.730913999991
 31
0.0
  0
LINE
  5
34E0
  8
0-0
  6
DASHED3
 62
     6
 10
12604.45445899998
 20
18018.918281999999
 30
0.0
 11
12604.45445899998
 21
19852.732418
 31
0.0
  0
LINE
  5
34E1
  8
0-0
  6
DASHED3
 62
     6
 10
12661.45568599999
 20
17884.457503000001
 30
0.0
 11
12661.45568599999
 21
19852.732418
 31
0.0
  0
LINE
  5
34E2
  8
0-0
  6
DASHED3
 62
     6
 10
12718.454933999999
 20
17749.992764999999
 30
0.0
 11
12718.454933999999
 21
19852.732418
 31
0.0
  0
CIRCLE
  5
34E3
  8
0-1
  6
CONTINUOUS
 62
     4
 10
12661.45568599999
 20
21334.22788000002
 30
0.0
 40
199.9999949999999
  0
CIRCLE
  5
34E4
  8
0-1
  6
CONTINUOUS
 62
     4
 10
10093.95568599999
 20
21334.22788000002
 30
0.0
 40
199.9999949999999
  0
CIRCLE
  5
34E5
  8
0-1
  6
CONTINUOUS
 62
     4
 10
8564.4542559999973
 20
19891.730914
 30
0.0
 40
199.9999949999999
  0
CIRCLE
  5
34E6
  8
0-1
  6
CONTINUOUS
 62
     4
 10
8564.4542559999973
 20
16973.730914
 30
0.0
 40
199.9999949999999
  0
CIRCLE
  5
34E7
  8
0-1
  6
CONTINUOUS
 62
     4
 10
8564.4542559999973
 20
14055.730913999991
 30
0.0
 40
199.9999949999999
  0
CIRCLE
  5
34E8
  8
0-1
  6
CONTINUOUS
 62
     4
 10
14527.95568599999
 20
21334.229859000021
 30
0.0
 40
199.9999949999999
  0
ARC
  5
34E9
  8
0-2
  6
CONTINUOUS
 62
     3
 10
10076.954550999981
 20
20079.232892999979
 30
0.0
 40
5.0
 50
269.9999850001808
 51
0.0
  0
ARC
  5
34EA
  8
0-2
  6
CONTINUOUS
 62
     3
 10
10076.954550999981
 20
20109.228538999989
 30
0.0
 40
5.0
 50
0.0
 51
90.0
  0
ARC
  5
34EB
  8
0-2
  6
CONTINUOUS
 62
     3
 10
10013.45555399998
 20
20109.228538999989
 30
0.0
 40
5.0
 50
90.0
 51
180.0
  0
ARC
  5
34EC
  8
0-2
  6
CONTINUOUS
 62
     3
 10
14608.45581699998
 20
20109.228538999989
 30
0.0
 40
5.0
 50
0.0
 51
90.0
  0
ARC
  5
34ED
  8
0-2
  6
CONTINUOUS
 62
     3
 10
14544.95385099998
 20
20109.228538999989
 30
0.0
 40
5.0
 50
90.0
 51
180.0
  0
ARC
  5
34EE
  8
0-2
  6
CONTINUOUS
 62
     3
 10
14544.95385099998
 20
20079.232892999979
 30
0.0
 40
5.0
 50
180.0
 51
269.9999850001808
  0
TEXT
  5
34EF
  8
0-1
  6
CONTINUOUS
 62
     7
 10
14479.276353999991
 20
21240.353170000009
 30
0.0
 40
160.0
  1
3
 72
     4
 11
14532.60968733333
 21
21320.353170000009
 31
0.0
  0
TEXT
  5
34F0
  8
0-1
  6
CONTINUOUS
 62
     7
 10
12612.77734499999
 20
21240.351191000009
 30
0.0
 40
160.0
  1
2
 72
     4
 11
12666.110678333331
 21
21320.351191000009
 31
0.0
  0
TEXT
  5
34F1
  8
0-1
  6
CONTINUOUS
 62
     7
 10
10044.54888099999
 20
21245.557324000009
 30
0.0
 40
160.0
  1
1
 72
     4
 11
10071.215547666659
 21
21325.557324000009
 31
0.0
  0
TEXT
  5
34F2
  8
0-1
  6
CONTINUOUS
 62
     7
 10
8519.3504300000004
 20
19796.943646
 30
0.0
 40
160.0
  1
C
 72
     4
 11
8572.6837633333344
 21
19876.943646
 31
0.0
  0
TEXT
  5
34F3
  8
0-1
  6
CONTINUOUS
 62
     7
 10
8513.986429999999
 20
16881.188419999991
 30
0.0
 40
160.0
  1
B
 72
     4
 11
8567.319763333333
 21
16961.188419999991
 31
0.0
  0
TEXT
  5
34F4
  8
0-1
  6
CONTINUOUS
 62
     7
 10
8512.7804080000042
 20
13968.155032999999
 30
0.0
 40
160.0
  1
A
 72
     4
 11
8566.1137413333363
 21
14048.155032999999
 31
0.0
  0
TEXT
  5
34F5
  8
0-6
  6
CONTINUOUS
 62
     7
 10
12010.677074999991
 20
20424.231309999981
 30
0.0
 40
160.0
  1
屋根
 72
     4
 11
12181.34374166666
 21
20504.231309999981
 31
0.0
  0
TEXT
  5
34F6
  8
0-6
  6
CONTINUOUS
 62
     7
 10
10880.712443
 20
21214.229461999999
 30
0.0
 40
160.0
  1
鼻隠し後
 72
     4
 11
11243.37910966667
 21
21294.229461999999
 31
0.0
  0
TEXT
  5
34F7
  8
0-6
  6
CONTINUOUS
 62
     7
 10
10319.304147000001
 20
20424.231309999981
 30
0.0
 40
160.0
  1
桁（後）
 72
     4
 11
10639.304147000001
 21
20504.231309999981
 31
0.0
  0
TEXT
  5
34F8
  8
0-6
  6
CONTINUOUS
 62
     7
 10
10964.394610999991
 20
17413.326141999991
 30
0.0
 40
160.0
  1
桁（中）
 72
     4
 11
11284.394610999991
 21
17493.326141999991
 31
0.0
  0
TEXT
  5
34F9
  8
0-6
  6
CONTINUOUS
 62
     7
 10
11119.99664900001
 20
14517.05828599999
 30
0.0
 40
160.0
  1
桁（前）
 72
     4
 11
11439.99664900001
 21
14597.05828599999
 31
0.0
  0
TEXT
  5
34FA
  8
0-6
  6
CONTINUOUS
 62
     7
 10
12124.307381000001
 20
13143.230255
 30
0.0
 40
160.0
  1
鼻隠し前
 72
     4
 11
12486.97404766667
 21
13223.230255
 31
0.0
  0
TEXT
  5
34FB
  8
0-6
  6
CONTINUOUS
 62
     7
 10
8329.8210979999949
 20
12653.23111199999
 30
0.0
 40
160.0
  1
ケラバ 左
 72
     4
 11
8745.8210979999931
 21
12733.23111199999
 31
0.0
  0
TEXT
  5
34FC
  8
0-6
  6
CONTINUOUS
 62
     7
 10
10338.482646999981
 20
18361.588785
 30
0.0
 40
160.0
  1
上枠
 72
     4
 11
10509.14931366665
 21
18441.588785
 31
0.0
  0
TEXT
  5
34FD
  8
0-6
  6
CONTINUOUS
 62
     7
 10
11267.196620000001
 20
16540.345012999998
 30
0.0
 40
160.0
  1
ブレース
 72
     4
 11
11629.86328666667
 21
16625.67834633333
 31
0.0
  0
TEXT
  5
34FE
  8
0-6
  6
CONTINUOUS
 62
     7
 10
12109.267987999991
 20
15699.060503000001
 30
0.0
 40
160.0
  1
梁
 72
     4
 11
12183.93465466666
 21
15779.060503000001
 31
0.0
  0
TEXT
  5
34FF
  8
0-6
  6
CONTINUOUS
 62
     7
 10
15580.257866
 20
21069.898804
 30
0.0
 40
160.0
  1
鼻隠しコーナー後
 72
     4
 11
16326.92453266667
 21
21149.898804
 31
0.0
  0
TEXT
  5
3500
  8
2-0
  6
CONTINUOUS
 62
     7
 10
11124.547562
 20
11798.40618911071
 30
0.0
 40
160.0
  1
小 屋 伏 図
 50
359.99980699999981
 72
     4
 11
11625.881164809331
 21
11878.40450037622
 31
0.0
  0
TEXT
  5
3508
  8
2-0
  6
CONTINUOUS
 62
     7
 10
12977.373349946951
 20
11825.599869376219
 30
0.0
 40
160.0
  1
1
 72
     4
 11
13004.040016613621
 21
11905.599869376219
 31
0.0
  0
TEXT
  5
3509
  8
2-0
  6
CONTINUOUS
 62
     7
 10
13220.462067197641
 20
11745.601337376231
 30
0.0
 40
160.0
  1
80
 72
     4
 11
13340.462067197641
 21
11825.601337376231
 31
0.0
  0
TEXT
  5
350A
  8
2-0
  6
CONTINUOUS
 62
     7
 10
12478.375315946951
 20
11798.40450037622
 30
0.0
 40
160.0
  1
(S=  /   )
 72
     4
 11
13038.375315946951
 21
11878.40450037622
 31
0.0
  0
LINE
  5
350B
  8
0-1
  6
CONTINUOUS
 62
     4
 10
15006.15782100001
 20
6256.3200620000034
 30
0.0
 11
20259.413085999979
 21
6256.3200620000034
 31
0.0
  0
LINE
  5
350C
  8
0-1
  6
CONTINUOUS
 62
     3
 10
9012.6593379999977
 20
8267.3654449999976
 30
0.0
 11
14893.65874399998
 21
8267.3654449999976
 31
0.0
  0
LINE
  5
350D
  8
0-1
  6
CONTINUOUS
 62
     3
 10
8302.6594689999984
 20
6256.3200620000034
 30
0.0
 11
14926.158546000001
 21
6256.3200620000034
 31
0.0
  0
LINE
  5
350E
  8
0-1
  6
CONTINUOUS
 62
     3
 10
9107.6594040000018
 20
6406.320061999998
 30
0.0
 11
11880.658677999991
 21
6406.320061999998
 31
0.0
  0
LINE
  5
350F
  8
0-1
  6
CONTINUOUS
 62
     3
 10
8985.1585459999988
 20
6356.3194020000001
 30
0.0
 11
14926.158546000001
 21
6356.3194020000001
 31
0.0
  0
LINE
  5
3510
  8
0-1
  6
CONTINUOUS
 62
     3
 10
9107.6594040000018
 20
8267.3654449999976
 30
0.0
 11
9107.6594040000018
 21
6356.319402000001
 31
0.0
  0
LINE
  5
3511
  8
0-1
  6
CONTINUOUS
 62
     3
 10
8992.6572919999981
 20
8389.4007859999983
 30
0.0
 11
8992.6572919999981
 21
6356.319402000001
 31
0.0
  0
LINE
  5
3512
  8
0-1
  6
CONTINUOUS
 62
     3
 10
9012.6593379999977
 20
8390.0183960000031
 30
0.0
 11
9012.6593379999977
 21
6356.319402000001
 31
0.0
  0
LINE
  5
3513
  8
0-1
  6
CONTINUOUS
 62
     3
 10
9231.1585979999982
 20
6406.320061999998
 30
0.0
 11
9231.1585979999982
 21
8267.3654449999976
 31
0.0
  0
LINE
  5
3514
  8
0-1
  6
CONTINUOUS
 62
     3
 10
9246.158400999997
 20
6406.320061999998
 30
0.0
 11
9246.158400999997
 21
8267.3654449999976
 31
0.0
  0
LINE
  5
3515
  8
0-1
  6
CONTINUOUS
 62
     3
 10
9647.1573979999903
 20
6406.320061999998
 30
0.0
 11
9647.1573979999903
 21
8267.3654449999976
 31
0.0
  0
LINE
  5
3516
  8
0-1
  6
CONTINUOUS
 62
     3
 10
9632.1575959999864
 20
6406.320061999998
 30
0.0
 11
9632.1575959999864
 21
8267.3654449999976
 31
0.0
  0
LINE
  5
3517
  8
0-1
  6
CONTINUOUS
 62
     3
 10
9499.1577009999983
 20
6406.320061999998
 30
0.0
 11
9499.1577009999983
 21
8267.3654449999976
 31
0.0
  0
LINE
  5
3518
  8
0-1
  6
CONTINUOUS
 62
     3
 10
9379.1592849999979
 20
6406.320061999998
 30
0.0
 11
9379.1592849999979
 21
8267.3654449999976
 31
0.0
  0
LINE
  5
3519
  8
0-1
  6
CONTINUOUS
 62
     3
 10
9449.1580310000045
 20
6406.320061999998
 30
0.0
 11
9449.1580310000045
 21
8267.3654449999976
 31
0.0
  0
LINE
  5
351A
  8
0-1
  6
CONTINUOUS
 62
     3
 10
9429.1579649999985
 20
6406.320061999998
 30
0.0
 11
9429.1579649999985
 21
8267.3654449999976
 31
0.0
  0
LINE
  5
351B
  8
0-1
  6
CONTINUOUS
 62
     3
 10
8985.1585459999988
 20
6256.3200620000034
 30
0.0
 11
8985.1585459999988
 21
6356.3194020000001
 31
0.0
  0
LINE
  5
351C
  8
0-1
  6
CONTINUOUS
 62
     3
 10
14988.669696999979
 20
8573.8642049999962
 30
0.0
 11
14984.656222999991
 21
8703.8027740000016
 31
0.0
  0
LINE
  5
351D
  8
0-1
  6
CONTINUOUS
 62
     3
 10
12025.65841400001
 20
6406.320061999998
 30
0.0
 11
14798.658678
 21
6406.320061999998
 31
0.0
  0
LINE
  5
351E
  8
0-1
  6
CONTINUOUS
 62
     3
 10
12025.65841400001
 20
8267.3654449999976
 30
0.0
 11
12025.65841400001
 21
6356.319402000001
 31
0.0
  0
LINE
  5
351F
  8
0-1
  6
CONTINUOUS
 62
     3
 10
11880.658677999991
 20
8267.3654449999976
 30
0.0
 11
11880.658677999991
 21
6356.319402000001
 31
0.0
  0
LINE
  5
3520
  8
0-1
  6
CONTINUOUS
 62
     3
 10
12149.158599
 20
6406.320061999998
 30
0.0
 11
12149.158599
 21
8267.3654449999976
 31
0.0
  0
LINE
  5
3521
  8
0-1
  6
CONTINUOUS
 62
     3
 10
12164.15939100001
 20
6406.320061999998
 30
0.0
 11
12164.15939100001
 21
8267.3654449999976
 31
0.0
  0
LINE
  5
3522
  8
0-1
  6
CONTINUOUS
 62
     3
 10
12297.15829500001
 20
6406.320061999998
 30
0.0
 11
12297.15829500001
 21
8267.3654449999976
 31
0.0
  0
LINE
  5
3523
  8
0-1
  6
CONTINUOUS
 62
     3
 10
12347.15994500001
 20
6406.320061999998
 30
0.0
 11
12347.15994500001
 21
8267.3654449999976
 31
0.0
  0
LINE
  5
3524
  8
0-1
  6
CONTINUOUS
 62
     3
 10
12367.158031000001
 20
6406.320061999998
 30
0.0
 11
12367.158031000001
 21
8267.3654449999976
 31
0.0
  0
LINE
  5
3525
  8
0-1
  6
CONTINUOUS
 62
     3
 10
11539.16005100001
 20
6406.320061999998
 30
0.0
 11
11539.16005100001
 21
8267.3654449999976
 31
0.0
  0
LINE
  5
3526
  8
0-1
  6
CONTINUOUS
 62
     3
 10
11559.159127000001
 20
6406.320061999998
 30
0.0
 11
11559.159127000001
 21
8267.3654449999976
 31
0.0
  0
LINE
  5
3527
  8
0-1
  6
CONTINUOUS
 62
     3
 10
11609.159787000001
 20
6406.320061999998
 30
0.0
 11
11609.159787000001
 21
8267.3654449999976
 31
0.0
  0
LINE
  5
3528
  8
0-1
  6
CONTINUOUS
 62
     3
 10
11742.15968100001
 20
6406.320061999998
 30
0.0
 11
11742.15968100001
 21
8267.3654449999976
 31
0.0
  0
LINE
  5
3529
  8
0-1
  6
CONTINUOUS
 62
     3
 10
11757.15849300001
 20
6406.320061999998
 30
0.0
 11
11757.15849300001
 21
8267.3654449999976
 31
0.0
  0
LINE
  5
352A
  8
0-1
  6
CONTINUOUS
 62
     3
 10
11489.15939100001
 20
6406.320061999998
 30
0.0
 11
11489.15939100001
 21
8267.3654449999976
 31
0.0
  0
LINE
  5
352B
  8
0-1
  6
CONTINUOUS
 62
     3
 10
11356.159496
 20
6406.320061999998
 30
0.0
 11
11356.159496
 21
8267.3654449999976
 31
0.0
  0
LINE
  5
352C
  8
0-1
  6
CONTINUOUS
 62
     3
 10
11341.15870399999
 20
6406.320061999998
 30
0.0
 11
11341.15870399999
 21
8267.3654449999976
 31
0.0
  0
LINE
  5
352D
  8
0-1
  6
CONTINUOUS
 62
     3
 10
10139.15840100001
 20
6406.320061999998
 30
0.0
 11
10139.15840100001
 21
8267.3654449999976
 31
0.0
  0
LINE
  5
352E
  8
0-1
  6
CONTINUOUS
 62
     3
 10
10159.160445999991
 20
6406.320061999998
 30
0.0
 11
10159.160445999991
 21
8267.3654449999976
 31
0.0
  0
LINE
  5
352F
  8
0-1
  6
CONTINUOUS
 62
     3
 10
10089.15873100001
 20
6406.320061999998
 30
0.0
 11
10089.15873100001
 21
8267.3654449999976
 31
0.0
  0
LINE
  5
3530
  8
0-1
  6
CONTINUOUS
 62
     3
 10
10209.158137
 20
6406.320061999998
 30
0.0
 11
10209.158137
 21
8267.3654449999976
 31
0.0
  0
LINE
  5
3531
  8
0-1
  6
CONTINUOUS
 62
     3
 10
10342.15902100001
 20
6406.320061999998
 30
0.0
 11
10342.15902100001
 21
8267.3654449999976
 31
0.0
  0
LINE
  5
3532
  8
0-1
  6
CONTINUOUS
 62
     3
 10
10357.159813
 20
6406.320061999998
 30
0.0
 11
10357.159813
 21
8267.3654449999976
 31
0.0
  0
LINE
  5
3533
  8
0-1
  6
CONTINUOUS
 62
     3
 10
9956.1578470000004
 20
6406.320061999998
 30
0.0
 11
9956.1578470000004
 21
8267.3654449999976
 31
0.0
  0
LINE
  5
3534
  8
0-1
  6
CONTINUOUS
 62
     3
 10
9941.1590340000075
 20
6406.320061999998
 30
0.0
 11
9941.1590340000075
 21
8267.3654449999976
 31
0.0
  0
LINE
  5
3535
  8
0-1
  6
CONTINUOUS
 62
     3
 10
10641.158375000001
 20
6406.320061999998
 30
0.0
 11
10641.158375000001
 21
8267.3654449999976
 31
0.0
  0
LINE
  5
3536
  8
0-1
  6
CONTINUOUS
 62
     3
 10
10656.15718700001
 20
6406.320061999998
 30
0.0
 11
10656.15718700001
 21
8267.3654449999976
 31
0.0
  0
LINE
  5
3537
  8
0-1
  6
CONTINUOUS
 62
     3
 10
11057.159153000001
 20
6406.320061999998
 30
0.0
 11
11057.159153000001
 21
8267.3654449999976
 31
0.0
  0
LINE
  5
3538
  8
0-1
  6
CONTINUOUS
 62
     3
 10
11042.158361
 20
6406.320061999998
 30
0.0
 11
11042.158361
 21
8267.3654449999976
 31
0.0
  0
LINE
  5
3539
  8
0-1
  6
CONTINUOUS
 62
     3
 10
10909.157477000001
 20
6406.320061999998
 30
0.0
 11
10909.157477000001
 21
8267.3654449999976
 31
0.0
  0
LINE
  5
353A
  8
0-1
  6
CONTINUOUS
 62
     3
 10
10789.16005100001
 20
6406.320061999998
 30
0.0
 11
10789.16005100001
 21
8267.3654449999976
 31
0.0
  0
LINE
  5
353B
  8
0-1
  6
CONTINUOUS
 62
     3
 10
10859.15978700001
 20
6406.320061999998
 30
0.0
 11
10859.15978700001
 21
8267.3654449999976
 31
0.0
  0
LINE
  5
353C
  8
0-1
  6
CONTINUOUS
 62
     3
 10
10839.159721
 20
6406.320061999998
 30
0.0
 11
10839.159721
 21
8267.3654449999976
 31
0.0
  0
LINE
  5
353D
  8
0-1
  6
CONTINUOUS
 62
     3
 10
11180.65933800001
 20
8267.3654449999976
 30
0.0
 11
11180.65933800001
 21
6406.320061999998
 31
0.0
  0
LINE
  5
353E
  8
0-1
  6
CONTINUOUS
 62
     3
 10
11217.658520000001
 20
8267.3654449999976
 30
0.0
 11
11217.658520000001
 21
6406.320061999998
 31
0.0
  0
LINE
  5
353F
  8
0-1
  6
CONTINUOUS
 62
     3
 10
9770.6575819999907
 20
8267.3654449999976
 30
0.0
 11
9770.6575819999907
 21
6406.320061999998
 31
0.0
  0
LINE
  5
3540
  8
0-1
  6
CONTINUOUS
 62
     3
 10
9807.6577539999962
 20
8267.3654449999976
 30
0.0
 11
9807.6577539999962
 21
6406.320061999998
 31
0.0
  0
LINE
  5
3541
  8
0-1
  6
CONTINUOUS
 62
     3
 10
10480.65999800001
 20
8267.3654449999976
 30
0.0
 11
10480.65999800001
 21
6406.320061999998
 31
0.0
  0
LINE
  5
3542
  8
0-1
  6
CONTINUOUS
 62
     3
 10
10517.659180000001
 20
8267.3654449999976
 30
0.0
 11
10517.659180000001
 21
6406.320061999998
 31
0.0
  0
LINE
  5
3543
  8
0-1
  6
CONTINUOUS
 62
     3
 10
11953.10707899999
 20
8480.4734869999957
 30
0.0
 11
11949.094594
 21
8610.4120559999974
 31
0.0
  0
LINE
  5
3544
  8
0-1
  6
CONTINUOUS
 62
     3
 10
11953.158546000001
 20
8480.4754670000038
 30
0.0
 11
11953.158546000001
 21
8267.3654449999976
 31
0.0
  0
LINE
  5
3545
  8
0-1
  6
CONTINUOUS
 62
     3
 10
14798.658678
 20
8267.3654449999976
 30
0.0
 11
14798.658678
 21
6356.319402000001
 31
0.0
  0
LINE
  5
3546
  8
0-1
  6
CONTINUOUS
 62
     3
 10
14913.659798999999
 20
8571.549157999998
 30
0.0
 11
14913.659798999999
 21
6356.319402000001
 31
0.0
  0
LINE
  5
3547
  8
0-1
  6
CONTINUOUS
 62
     3
 10
14893.65874399998
 20
8570.9315480000005
 30
0.0
 11
14893.65874399998
 21
6356.319402000001
 31
0.0
  0
LINE
  5
3548
  8
0-1
  6
CONTINUOUS
 62
     3
 10
13388.659892
 20
8267.3654449999976
 30
0.0
 11
13388.659892
 21
6406.320061999998
 31
0.0
  0
LINE
  5
3549
  8
0-1
  6
CONTINUOUS
 62
     3
 10
13425.660063999991
 20
8267.3654449999976
 30
0.0
 11
13425.660063999991
 21
6406.320061999998
 31
0.0
  0
LINE
  5
354A
  8
0-1
  6
CONTINUOUS
 62
     3
 10
14088.659232
 20
8267.3654449999976
 30
0.0
 11
14088.659232
 21
6406.320061999998
 31
0.0
  0
LINE
  5
354B
  8
0-1
  6
CONTINUOUS
 62
     3
 10
14125.65841399999
 20
8267.3654449999976
 30
0.0
 11
14125.65841399999
 21
6406.320061999998
 31
0.0
  0
LINE
  5
354C
  8
0-1
  6
CONTINUOUS
 62
     3
 10
12688.657583
 20
8267.3654449999976
 30
0.0
 11
12688.657583
 21
6406.320061999998
 31
0.0
  0
LINE
  5
354D
  8
0-1
  6
CONTINUOUS
 62
     3
 10
12725.658744
 20
8267.3654449999976
 30
0.0
 11
12725.658744
 21
6406.320061999998
 31
0.0
  0
LINE
  5
354E
  8
0-1
  6
CONTINUOUS
 62
     3
 10
13067.157372000011
 20
6406.320061999998
 30
0.0
 11
13067.157372000011
 21
8267.3654449999976
 31
0.0
  0
LINE
  5
354F
  8
0-1
  6
CONTINUOUS
 62
     3
 10
13047.158294999999
 20
6406.320061999998
 30
0.0
 11
13047.158294999999
 21
8267.3654449999976
 31
0.0
  0
LINE
  5
3550
  8
0-1
  6
CONTINUOUS
 62
     3
 10
13117.15902099999
 20
6406.320061999998
 30
0.0
 11
13117.15902099999
 21
8267.3654449999976
 31
0.0
  0
LINE
  5
3551
  8
0-1
  6
CONTINUOUS
 62
     3
 10
12997.15961500001
 20
6406.320061999998
 30
0.0
 11
12997.15961500001
 21
8267.3654449999976
 31
0.0
  0
LINE
  5
3552
  8
0-1
  6
CONTINUOUS
 62
     3
 10
12864.15873100001
 20
6406.320061999998
 30
0.0
 11
12864.15873100001
 21
8267.3654449999976
 31
0.0
  0
LINE
  5
3553
  8
0-1
  6
CONTINUOUS
 62
     3
 10
12849.15892900001
 20
6406.320061999998
 30
0.0
 11
12849.15892900001
 21
8267.3654449999976
 31
0.0
  0
LINE
  5
3554
  8
0-1
  6
CONTINUOUS
 62
     3
 10
13250.159905
 20
6406.320061999998
 30
0.0
 11
13250.159905
 21
8267.3654449999976
 31
0.0
  0
LINE
  5
3555
  8
0-1
  6
CONTINUOUS
 62
     3
 10
13265.159707000001
 20
6406.320061999998
 30
0.0
 11
13265.159707000001
 21
8267.3654449999976
 31
0.0
  0
LINE
  5
3556
  8
0-1
  6
CONTINUOUS
 62
     3
 10
13965.15904799999
 20
6406.320061999998
 30
0.0
 11
13965.15904799999
 21
8267.3654449999976
 31
0.0
  0
LINE
  5
3557
  8
0-1
  6
CONTINUOUS
 62
     3
 10
13950.158256000001
 20
6406.320061999998
 30
0.0
 11
13950.158256000001
 21
8267.3654449999976
 31
0.0
  0
LINE
  5
3558
  8
0-1
  6
CONTINUOUS
 62
     3
 10
13549.15826900001
 20
6406.320061999998
 30
0.0
 11
13549.15826900001
 21
8267.3654449999976
 31
0.0
  0
LINE
  5
3559
  8
0-1
  6
CONTINUOUS
 62
     3
 10
13564.160051000001
 20
6406.320061999998
 30
0.0
 11
13564.160051000001
 21
8267.3654449999976
 31
0.0
  0
LINE
  5
355A
  8
0-1
  6
CONTINUOUS
 62
     3
 10
13697.15994499999
 20
6406.320061999998
 30
0.0
 11
13697.15994499999
 21
8267.3654449999976
 31
0.0
  0
LINE
  5
355B
  8
0-1
  6
CONTINUOUS
 62
     3
 10
13817.157372000011
 20
6406.320061999998
 30
0.0
 11
13817.157372000011
 21
8267.3654449999976
 31
0.0
  0
LINE
  5
355C
  8
0-1
  6
CONTINUOUS
 62
     3
 10
13747.157635999991
 20
6406.320061999998
 30
0.0
 11
13747.157635999991
 21
8267.3654449999976
 31
0.0
  0
LINE
  5
355D
  8
0-1
  6
CONTINUOUS
 62
     3
 10
13767.15968100001
 20
6406.320061999998
 30
0.0
 11
13767.15968100001
 21
8267.3654449999976
 31
0.0
  0
LINE
  5
355E
  8
0-1
  6
CONTINUOUS
 62
     3
 10
14467.159020999999
 20
6406.320061999998
 30
0.0
 11
14467.159020999999
 21
8267.3654449999976
 31
0.0
  0
LINE
  5
355F
  8
0-1
  6
CONTINUOUS
 62
     3
 10
14447.15994499999
 20
6406.320061999998
 30
0.0
 11
14447.15994499999
 21
8267.3654449999976
 31
0.0
  0
LINE
  5
3560
  8
0-1
  6
CONTINUOUS
 62
     3
 10
14517.159680999999
 20
6406.320061999998
 30
0.0
 11
14517.159680999999
 21
8267.3654449999976
 31
0.0
  0
LINE
  5
3561
  8
0-1
  6
CONTINUOUS
 62
     3
 10
14397.159285000011
 20
6406.320061999998
 30
0.0
 11
14397.159285000011
 21
8267.3654449999976
 31
0.0
  0
LINE
  5
3562
  8
0-1
  6
CONTINUOUS
 62
     3
 10
14264.15939100001
 20
6406.320061999998
 30
0.0
 11
14264.15939100001
 21
8267.3654449999976
 31
0.0
  0
LINE
  5
3563
  8
0-1
  6
CONTINUOUS
 62
     3
 10
14249.157609000011
 20
6406.320061999998
 30
0.0
 11
14249.157609000011
 21
8267.3654449999976
 31
0.0
  0
LINE
  5
3564
  8
0-1
  6
CONTINUOUS
 62
     3
 10
14660.159680000001
 20
6406.320061999998
 30
0.0
 11
14660.159680000001
 21
8267.3654449999976
 31
0.0
  0
LINE
  5
3565
  8
0-1
  6
CONTINUOUS
 62
     3
 10
14675.158493000001
 20
6406.320061999998
 30
0.0
 11
14675.158493000001
 21
8267.3654449999976
 31
0.0
  0
LINE
  5
3566
  8
0-1
  6
CONTINUOUS
 62
     3
 10
12565.15739800001
 20
6406.320061999998
 30
0.0
 11
12565.15739800001
 21
8267.3654449999976
 31
0.0
  0
LINE
  5
3567
  8
0-1
  6
CONTINUOUS
 62
     3
 10
12550.15858600001
 20
6406.320061999998
 30
0.0
 11
12550.15858600001
 21
8267.3654449999976
 31
0.0
  0
LINE
  5
3568
  8
0-1
  6
CONTINUOUS
 62
     3
 10
12417.159680999999
 20
6406.320061999998
 30
0.0
 11
12417.159680999999
 21
8267.3654449999976
 31
0.0
  0
LINE
  5
3569
  8
0-1
  6
CONTINUOUS
 62
     3
 10
14926.158546000001
 20
6356.3194020000001
 30
0.0
 11
14926.158546000001
 21
6256.3200620000034
 31
0.0
  0
LINE
  5
356A
  8
0-1
  6
CONTINUOUS
 62
     3
 10
8815.1875129999971
 20
8431.945588999999
 30
0.0
 11
8814.1403469999968
 21
8465.9309539999995
 31
0.0
  0
LINE
  5
356B
  8
0-1
  6
CONTINUOUS
 62
     3
 10
8817.046280999999
 20
8469.0209829999985
 30
0.0
 11
14998.039747999999
 21
8659.1943229999943
 31
0.0
  0
LINE
  5
356C
  8
0-1
  6
CONTINUOUS
 62
     3
 10
14999.272988000001
 20
8619.2129959999984
 30
0.0
 11
8818.2795209999986
 21
8429.0396560000008
 31
0.0
  0
LINE
  5
356D
  8
0-1
  6
CONTINUOUS
 62
     3
 10
8816.8928680000008
 20
8474.0192669999924
 30
0.0
 11
14997.88534599999
 21
8664.1916170000004
 31
0.0
  0
LINE
  5
356E
  8
0-1
  6
CONTINUOUS
 62
     3
 10
14999.426401000001
 20
8614.2147119999972
 30
0.0
 11
8818.4319439999908
 21
8424.0423619999983
 31
0.0
  0
LINE
  5
356F
  8
0-1
  6
CONTINUOUS
 62
     3
 10
8815.5260099999978
 20
8420.9513430000006
 30
0.0
 11
8815.5260099999978
 21
8421.0166670000017
 31
0.0
  0
LINE
  5
3570
  8
0-1
  6
CONTINUOUS
 62
     3
 10
8815.5260099999978
 20
8421.0166670000017
 30
0.0
 11
8816.5157699999982
 21
8388.9672720000017
 31
0.0
  0
LINE
  5
3571
  8
0-1
  6
CONTINUOUS
 62
     3
 10
8821.6674670000011
 20
8384.1243800000011
 30
0.0
 11
15021.63363
 21
8574.8816770000049
 31
0.0
  0
LINE
  5
3572
  8
0-1
  6
CONTINUOUS
 62
     3
 10
15017.623125
 20
8704.8212359999998
 30
0.0
 11
8817.6569619999991
 21
8514.0619590000006
 31
0.0
  0
LINE
  5
3573
  8
0-1
  6
CONTINUOUS
 62
     3
 10
8812.8120899999994
 20
8508.9092720000026
 30
0.0
 11
8813.8008599999976
 21
8476.9251999999979
 31
0.0
  0
LINE
  5
3574
  8
0-1
  6
CONTINUOUS
 62
     3
 10
8830.1516829999946
 20
8514.4469749999953
 30
0.0
 11
8834.1621879999984
 21
8384.5084060000008
 31
0.0
  0
LINE
  5
3575
  8
2-0
  6
CENTER2
 62
     6
 10
9035.1585460000006
 20
5993.6666490000034
 30
0.0
 11
9035.1585460000006
 21
7050.8092470000011
 31
0.0
  0
LINE
  5
3576
  8
2-0
  6
CENTER2
 62
     6
 10
11953.158546000001
 20
5993.6666490000034
 30
0.0
 11
11953.158546000001
 21
7050.8092470000011
 31
0.0
  0
LINE
  5
3577
  8
2-0
  6
CENTER2
 62
     6
 10
14871.158546000001
 20
5993.6666490000034
 30
0.0
 11
14871.158546000001
 21
7050.8092470000011
 31
0.0
  0
ARC
  5
3578
  8
0-1
  6
CONTINUOUS
 62
     3
 10
8819.8562069999989
 20
8426.5880219999981
 30
0.0
 40
2.5
 50
271.76798999988182
 51
91.767989999881877
  0
ARC
  5
3579
  8
0-1
  6
CONTINUOUS
 62
     3
 10
8818.4685649999974
 20
8471.5656540000018
 30
0.0
 40
2.5
 50
271.76798999988182
 51
91.767989999881877
  0
ARC
  5
357A
  8
0-1
  6
CONTINUOUS
 62
     3
 10
8817.1373379999968
 20
8466.0230019999981
 30
0.0
 40
3.0
 50
91.767989999881877
 51
181.7679899999863
  0
ARC
  5
357B
  8
0-1
  6
CONTINUOUS
 62
     3
 10
14998.656368
 20
8639.2031639999968
 30
0.0
 40
20.0
 50
271.76798999988182
 51
91.767989999881877
  0
ARC
  5
357C
  8
0-1
  6
CONTINUOUS
 62
     3
 10
8818.187473
 20
8432.0396169999949
 30
0.0
 40
3.0
 50
181.7679899999863
 51
271.76798999988182
  0
ARC
  5
357D
  8
0-1
  6
CONTINUOUS
 62
     3
 10
14998.656368
 20
8639.2031639999968
 30
0.0
 40
24.999998999999999
 50
271.76798999988182
 51
91.767989999881877
  0
ARC
  5
357E
  8
0-1
  6
CONTINUOUS
 62
     3
 10
8818.5279499999979
 20
8421.0443809999997
 30
0.0
 40
3.0
 50
91.767989999881877
 51
181.7679899999863
  0
ARC
  5
357F
  8
0-1
  6
CONTINUOUS
 62
     3
 10
8821.5130640000025
 20
8389.121674
 30
0.0
 40
5.0
 50
181.7679899999863
 51
271.76798999988182
  0
ARC
  5
3580
  8
0-1
  6
CONTINUOUS
 62
     3
 10
14993.659073000001
 20
8639.0487619999985
 30
0.0
 40
69.999999000000003
 50
293.55477900013489
 51
69.981200999902924
  0
ARC
  5
3581
  8
0-1
  6
CONTINUOUS
 62
     3
 10
8817.8113649999977
 20
8509.0636740000009
 30
0.0
 40
5.0
 50
91.767989999881877
 51
181.7679899999863
  0
ARC
  5
3582
  8
0-1
  6
CONTINUOUS
 62
     3
 10
8816.7978509999975
 20
8477.0172480000019
 30
0.0
 40
3.0
 50
181.7679899999863
 51
271.76798999988182
  0
TEXT
  5
3583
  8
2-0
  6
CONTINUOUS
 62
     7
 10
10633.83514600001
 20
3295.169351
 30
0.0
 40
160.0
  1
側 面 立 面 図
 72
     4
 11
11279.168479333341
 21
3375.169351
 31
0.0
  0
TEXT
  5
3584
  8
2-0
  6
CONTINUOUS
 62
     7
 10
12630.660664470959
 20
3322.3647200000019
 30
0.0
 40
160.0
  1
1
 72
     4
 11
12657.327331137631
 21
3402.3647200000009
 31
0.0
  0
TEXT
  5
3585
  8
2-0
  6
CONTINUOUS
 62
     7
 10
12873.749381721649
 20
3242.366188
 30
0.0
 40
160.0
  1
80
 72
     4
 11
12993.749381721649
 21
3322.366188
 31
0.0
  0
TEXT
  5
3586
  8
2-0
  6
CONTINUOUS
 62
     7
 10
12131.66263047095
 20
3295.169351
 30
0.0
 40
160.0
  1
(S=  /   )
 72
     4
 11
12691.66263047095
 21
3375.169351
 31
0.0
  0
LINE
  5
3587
  8
0-5
  6
CONTINUOUS
 62
     4
 10
14871.158546000001
 20
4576.3194679999997
 30
0.0
 11
14871.158546000001
 21
4416.3199300000024
 31
0.0
  0
LINE
  5
3588
  8
0-5
  6
CONTINUOUS
 62
     4
 10
11953.158546000001
 20
4576.3194679999997
 30
0.0
 11
11953.158546000001
 21
4416.3199300000024
 31
0.0
  0
LINE
  5
3589
  8
0-5
  6
CONTINUOUS
 62
     4
 10
9035.1585460000006
 20
4576.3194679999997
 30
0.0
 11
9035.1585460000006
 21
4416.3199300000024
 31
0.0
  0
CIRCLE
  5
358A
  8
0-5
  6
CONTINUOUS
 62
     4
 10
11953.158546000001
 20
4216.3187750000034
 30
0.0
 40
199.9999949999999
  0
CIRCLE
  5
358B
  8
0-5
  6
CONTINUOUS
 62
     4
 10
14871.158546000001
 20
4216.3187750000034
 30
0.0
 40
199.9999949999999
  0
CIRCLE
  5
358C
  8
0-5
  6
CONTINUOUS
 62
     4
 10
9035.1585460000006
 20
4216.3187750000034
 30
0.0
 40
199.9999949999999
  0
TEXT
  5
358D
  8
0-5
  6
CONTINUOUS
 62
     7
 10
14824.202385999981
 20
4133.1079790000003
 30
0.0
 40
160.0
  1
A
 72
     4
 11
14877.53571933332
 21
4213.1079790000013
 31
0.0
  0
TEXT
  5
358E
  8
0-5
  6
CONTINUOUS
 62
     7
 10
11906.202385999981
 20
4133.1079790000003
 30
0.0
 40
160.0
  1
B
 72
     4
 11
11959.53571933332
 21
4213.1079790000013
 31
0.0
  0
TEXT
  5
358F
  8
0-5
  6
CONTINUOUS
 62
     7
 10
8988.2023860000027
 20
4133.1079790000003
 30
0.0
 40
160.0
  1
C
 72
     4
 11
9041.5357193333366
 21
4213.1079790000013
 31
0.0
  0
LINE
  5
3590
  8
0-5
  6
CONTINUOUS
 62
     4
 10
16631.242542999989
 20
6356.319402000001
 30
0.0
 11
16751.242938999989
 21
6564.1663789999984
 31
0.0
  0
LINE
  5
3591
  8
0-5
  6
CONTINUOUS
 62
     4
 10
16511.244125999991
 20
6564.1663789999984
 30
0.0
 11
16631.242542999989
 21
6356.319402000001
 31
0.0
  0
LINE
  5
3592
  8
0-5
  6
CONTINUOUS
 62
     4
 10
16751.242938999989
 20
6564.1663789999984
 30
0.0
 11
16511.244125999991
 21
6564.1663789999984
 31
0.0
  0
LINE
  5
3593
  8
0-5
  6
CONTINUOUS
 62
     4
 10
15006.155840999991
 20
6356.3194020000001
 30
0.0
 11
16723.62073599999
 21
6356.319402000001
 31
0.0
  0
TEXT
  5
3594
  8
0-5
  6
CONTINUOUS
 62
     7
 10
16172.15061399998
 20
6644.165653
 30
0.0
 40
160.0
  1
布基礎天端
 72
     4
 11
16630.817280666652
 21
6724.165653
 31
0.0
  0
TEXT
  5
3595
  8
2-0
  6
CONTINUOUS
 62
     7
 10
21525.487913000012
 20
11803.73951899999
 30
0.0
 40
160.0
  1
平　面　図
 50
359.99978700000008
 72
     4
 11
21978.82152390738
 21
11878.40450037622
 31
0.0
  0
TEXT
  5
3596
  8
2-0
  6
CONTINUOUS
 62
     7
 10
23330.313709045
 20
11825.59986937623
 30
0.0
 40
160.0
  1
1
 72
     4
 11
23356.980375711672
 21
11905.59986937623
 31
0.0
  0
TEXT
  5
3597
  8
2-0
  6
CONTINUOUS
 62
     7
 10
23573.402426295688
 20
11745.601337376231
 30
0.0
 40
160.0
  1
80
 72
     4
 11
23693.402426295688
 21
11825.601337376231
 31
0.0
  0
TEXT
  5
3598
  8
2-0
  6
CONTINUOUS
 62
     7
 10
22831.315675044989
 20
11798.40450037622
 30
0.0
 40
160.0
  1
(S=  /   )
 72
     4
 11
23391.315675044989
 21
11878.40450037622
 31
0.0
  0
LINE
  5
3599
  8
2-0
  6
CONTINUOUS
 62
     6
 10
23140.255093999989
 20
13415.729792
 30
0.0
 11
24140.24849599996
 21
13415.729792
 31
0.0
  0
LINE
  5
359A
  8
2-0
  6
CONTINUOUS
 62
     6
 10
24608.188872999988
 20
13886.150506
 30
0.0
 11
24140.24849599996
 21
13415.729792
 31
0.0
  0
LINE
  5
359B
  8
2-0
  6
CONTINUOUS
 62
     6
 10
24569.54867
 20
17077.75815300001
 30
0.0
 11
24264.853252000001
 21
17181.411684000021
 31
0.0
  0
LINE
  5
359C
  8
2-0
  6
CONTINUOUS
 62
     6
 10
24724.57070899996
 20
16588.136109000021
 30
0.0
 11
24264.853252000001
 21
16344.222798000001
 31
0.0
  0
LINE
  5
359D
  8
2-0
  6
CONTINUOUS
 62
     6
 10
23344.850216999988
 20
16344.222798000001
 30
0.0
 11
24264.853252000001
 21
16344.222798000001
 31
0.0
  0
LINE
  5
359E
  8
2-0
  6
CONTINUOUS
 62
     6
 10
23064.859189999988
 20
17181.411684000021
 30
0.0
 11
24264.853252000001
 21
17181.411684000021
 31
0.0
  0
LINE
  5
359F
  8
2-0
  6
CONTINUOUS
 62
     6
 10
24640.747994000001
 20
14207.834151999979
 30
0.0
 11
24264.853252000001
 21
14388.777986999999
 31
0.0
  0
LINE
  5
35A0
  8
2-0
  6
CONTINUOUS
 62
     6
 10
23744.851535999991
 20
14388.777986999999
 30
0.0
 11
24264.853252000001
 21
14388.777986999999
 31
0.0
  0
LINE
  5
35A1
  8
2-0
  6
CONTINUOUS
 62
     4
 10
22956.91401
 20
20014.231442000018
 30
0.0
 11
22956.91401
 21
20744.228406999999
 31
0.0
  0
LINE
  5
35A2
  8
2-0
  6
CONTINUOUS
 62
     3
 10
24835.914669999991
 20
19825.228987999999
 30
0.0
 11
24835.914669999991
 21
19819.23302600002
 31
0.0
  0
LINE
  5
35A3
  8
2-0
  6
CONTINUOUS
 62
     3
 10
24835.914669999991
 20
19819.23302600002
 30
0.0
 11
24865.912294000002
 21
19819.23302600002
 31
0.0
  0
LINE
  5
35A4
  8
2-0
  6
CONTINUOUS
 62
     3
 10
24865.912294000002
 20
19849.23263000001
 30
0.0
 11
24784.910393999991
 21
19849.23263000001
 31
0.0
  0
LINE
  5
35A5
  8
2-0
  6
CONTINUOUS
 62
     3
 10
24835.914669999991
 20
19808.935570000001
 30
0.0
 11
24865.912294000002
 21
19808.935570000001
 31
0.0
  0
LINE
  5
35A6
  8
2-0
  6
CONTINUOUS
 62
     3
 10
24835.914669999991
 20
19826.93731200002
 30
0.0
 11
24835.914669999991
 21
19808.935570000001
 31
0.0
  0
LINE
  5
35A7
  8
2-0
  6
CONTINUOUS
 62
     3
 10
24860.91203000001
 20
19826.93731200002
 30
0.0
 11
24835.914669999991
 21
19826.93731200002
 31
0.0
  0
LINE
  5
35A8
  8
2-0
  6
CONTINUOUS
 62
     3
 10
24860.91203000001
 20
19821.929130000019
 30
0.0
 11
24860.91203000001
 21
19826.93731200002
 31
0.0
  0
LINE
  5
35A9
  8
2-0
  6
CONTINUOUS
 62
     3
 10
24853.910473
 20
19821.929130000019
 30
0.0
 11
24860.91203000001
 21
19821.929130000019
 31
0.0
  0
LINE
  5
35AA
  8
2-0
  6
CONTINUOUS
 62
     3
 10
24753.614205000002
 20
19922.229357000011
 30
0.0
 11
24753.614205000002
 21
19929.234873000001
 31
0.0
  0
LINE
  5
35AB
  8
2-0
  6
CONTINUOUS
 62
     3
 10
24753.614205000002
 20
19929.234873000001
 30
0.0
 11
24758.614468999978
 21
19929.234873000001
 31
0.0
  0
LINE
  5
35AC
  8
2-0
  6
CONTINUOUS
 62
     3
 10
24758.614468999978
 20
19929.234873000001
 30
0.0
 11
24758.614468999978
 21
19904.22563600001
 31
0.0
  0
LINE
  5
35AD
  8
2-0
  6
CONTINUOUS
 62
     3
 10
24758.614468999978
 20
19904.22563600001
 30
0.0
 11
24740.612726999982
 21
19904.22563600001
 31
0.0
  0
LINE
  5
35AE
  8
2-0
  6
CONTINUOUS
 62
     3
 10
24740.612726999982
 20
19904.22563600001
 30
0.0
 11
24740.612726999982
 21
19934.229199000009
 31
0.0
  0
LINE
  5
35AF
  8
2-0
  6
CONTINUOUS
 62
     3
 10
24750.910183
 20
19934.229199000009
 30
0.0
 11
24865.912294000002
 21
19934.229199000009
 31
0.0
  0
LINE
  5
35B0
  8
2-0
  6
CONTINUOUS
 62
     3
 10
24750.910183
 20
19904.22563600001
 30
0.0
 11
24750.910183
 21
19934.229199000009
 31
0.0
  0
LINE
  5
35B1
  8
2-0
  6
CONTINUOUS
 62
     3
 10
24756.912082999999
 20
19904.22563600001
 30
0.0
 11
24750.910183
 21
19904.22563600001
 31
0.0
  0
LINE
  5
35B2
  8
2-0
  6
CONTINUOUS
 62
     3
 10
24853.910473
 20
19118.132307499989
 30
0.0
 11
24860.91203000001
 21
19118.132307499989
 31
0.0
  0
LINE
  5
35B3
  8
2-0
  6
CONTINUOUS
 62
     3
 10
24860.91203000001
 20
19118.132307499989
 30
0.0
 11
24860.91203000001
 21
19123.132571499991
 31
0.0
  0
LINE
  5
35B4
  8
2-0
  6
CONTINUOUS
 62
     3
 10
24860.91203000001
 20
19123.132571499991
 30
0.0
 11
24835.914669999991
 21
19123.132571499991
 31
0.0
  0
LINE
  5
35B5
  8
2-0
  6
CONTINUOUS
 62
     3
 10
24835.914669999991
 20
19123.132571499991
 30
0.0
 11
24835.914669999991
 21
19105.1367675
 31
0.0
  0
LINE
  5
35B6
  8
2-0
  6
CONTINUOUS
 62
     3
 10
24835.914669999991
 20
19105.1367675
 30
0.0
 11
24865.912294000002
 21
19105.1367675
 31
0.0
  0
LINE
  5
35B7
  8
2-0
  6
CONTINUOUS
 62
     3
 10
24835.914669999991
 20
19121.22827449995
 30
0.0
 11
24835.914669999991
 21
19115.230333499989
 31
0.0
  0
LINE
  5
35B8
  8
2-0
  6
CONTINUOUS
 62
     3
 10
24835.914669999991
 20
19115.230333499989
 30
0.0
 11
24865.912294000002
 21
19115.230333499989
 31
0.0
  0
LINE
  5
35B9
  8
2-0
  6
CONTINUOUS
 62
     3
 10
24865.912294000002
 20
19115.230333499989
 30
0.0
 11
24865.912294000002
 21
19152.2314945
 31
0.0
  0
LINE
  5
35BA
  8
2-0
  6
CONTINUOUS
 62
     3
 10
24835.914669999991
 20
19152.2314945
 30
0.0
 11
24865.912294000002
 21
19152.2314945
 31
0.0
  0
LINE
  5
35BB
  8
2-0
  6
CONTINUOUS
 62
     3
 10
24835.914669999991
 20
19146.227614499981
 30
0.0
 11
24835.914669999991
 21
19152.2314945
 31
0.0
  0
LINE
  5
35BC
  8
2-0
  6
CONTINUOUS
 62
     3
 10
24835.914669999991
 20
19162.327039499982
 30
0.0
 11
24865.912294000002
 21
19162.327039499982
 31
0.0
  0
LINE
  5
35BD
  8
2-0
  6
CONTINUOUS
 62
     3
 10
24835.914669999991
 20
19144.3252975
 30
0.0
 11
24835.914669999991
 21
19162.327039499982
 31
0.0
  0
LINE
  5
35BE
  8
2-0
  6
CONTINUOUS
 62
     3
 10
24860.91203000001
 20
19144.3252975
 30
0.0
 11
24835.914669999991
 21
19144.3252975
 31
0.0
  0
LINE
  5
35BF
  8
2-0
  6
CONTINUOUS
 62
     3
 10
24860.91203000001
 20
19149.325561500002
 30
0.0
 11
24860.91203000001
 21
19144.3252975
 31
0.0
  0
LINE
  5
35C0
  8
2-0
  6
CONTINUOUS
 62
     3
 10
24853.910473
 20
19149.325561500002
 30
0.0
 11
24860.91203000001
 21
19149.325561500002
 31
0.0
  0
LINE
  5
35C1
  8
2-0
  6
CONTINUOUS
 62
     3
 10
24853.910473
 20
18417.131317999989
 30
0.0
 11
24860.91203000001
 21
18417.131317999989
 31
0.0
  0
LINE
  5
35C2
  8
2-0
  6
CONTINUOUS
 62
     3
 10
24860.91203000001
 20
18417.131317999989
 30
0.0
 11
24860.91203000001
 21
18422.13752
 31
0.0
  0
LINE
  5
35C3
  8
2-0
  6
CONTINUOUS
 62
     3
 10
24860.91203000001
 20
18422.13752
 30
0.0
 11
24835.914669999991
 21
18422.13752
 31
0.0
  0
LINE
  5
35C4
  8
2-0
  6
CONTINUOUS
 62
     3
 10
24835.914669999991
 20
18422.13752
 30
0.0
 11
24835.914669999991
 21
18404.135778
 31
0.0
  0
LINE
  5
35C5
  8
2-0
  6
CONTINUOUS
 62
     3
 10
24835.914669999991
 20
18404.135778
 30
0.0
 11
24865.912294000002
 21
18404.135778
 31
0.0
  0
LINE
  5
35C6
  8
2-0
  6
CONTINUOUS
 62
     3
 10
24835.914669999991
 20
18420.22728499999
 30
0.0
 11
24835.914669999991
 21
18414.231323
 31
0.0
  0
LINE
  5
35C7
  8
2-0
  6
CONTINUOUS
 62
     3
 10
24835.914669999991
 20
18414.231323
 30
0.0
 11
24865.912294000002
 21
18414.231323
 31
0.0
  0
LINE
  5
35C8
  8
2-0
  6
CONTINUOUS
 62
     3
 10
24865.912294000002
 20
18414.231323
 30
0.0
 11
24865.912294000002
 21
18451.230504999989
 31
0.0
  0
LINE
  5
35C9
  8
2-0
  6
CONTINUOUS
 62
     3
 10
24835.914669999991
 20
18451.230504999989
 30
0.0
 11
24865.912294000002
 21
18451.230504999989
 31
0.0
  0
LINE
  5
35CA
  8
2-0
  6
CONTINUOUS
 62
     3
 10
24835.914669999991
 20
18445.23454300001
 30
0.0
 11
24835.914669999991
 21
18451.230504999989
 31
0.0
  0
LINE
  5
35CB
  8
2-0
  6
CONTINUOUS
 62
     3
 10
24835.914669999991
 20
18461.32605
 30
0.0
 11
24865.912294000002
 21
18461.32605
 31
0.0
  0
LINE
  5
35CC
  8
2-0
  6
CONTINUOUS
 62
     3
 10
24835.914669999991
 20
18443.324307999988
 30
0.0
 11
24835.914669999991
 21
18461.32605
 31
0.0
  0
LINE
  5
35CD
  8
2-0
  6
CONTINUOUS
 62
     3
 10
24860.91203000001
 20
18443.324307999988
 30
0.0
 11
24835.914669999991
 21
18443.324307999988
 31
0.0
  0
LINE
  5
35CE
  8
2-0
  6
CONTINUOUS
 62
     3
 10
24860.91203000001
 20
18448.33051
 30
0.0
 11
24860.91203000001
 21
18443.324307999988
 31
0.0
  0
LINE
  5
35CF
  8
2-0
  6
CONTINUOUS
 62
     3
 10
24853.910473
 20
18448.33051
 30
0.0
 11
24860.91203000001
 21
18448.33051
 31
0.0
  0
LINE
  5
35D0
  8
2-0
  6
CONTINUOUS
 62
     3
 10
24853.910473
 20
17747.324572000001
 30
0.0
 11
24860.91203000001
 21
17747.324572000001
 31
0.0
  0
LINE
  5
35D1
  8
2-0
  6
CONTINUOUS
 62
     3
 10
24860.91203000001
 20
17747.324572000001
 30
0.0
 11
24860.91203000001
 21
17742.336185
 31
0.0
  0
LINE
  5
35D2
  8
2-0
  6
CONTINUOUS
 62
     3
 10
24860.91203000001
 20
17742.336185
 30
0.0
 11
24835.914669999991
 21
17742.336185
 31
0.0
  0
LINE
  5
35D3
  8
2-0
  6
CONTINUOUS
 62
     3
 10
24835.914669999991
 20
17742.336185
 30
0.0
 11
24835.914669999991
 21
17760.331988000002
 31
0.0
  0
LINE
  5
35D4
  8
2-0
  6
CONTINUOUS
 62
     3
 10
24835.914669999991
 20
17760.331988000002
 30
0.0
 11
24865.912294000002
 21
17760.331988000002
 31
0.0
  0
LINE
  5
35D5
  8
2-0
  6
CONTINUOUS
 62
     3
 10
24835.914669999991
 20
17744.234542999991
 30
0.0
 11
24835.914669999991
 21
17750.230504999989
 31
0.0
  0
LINE
  5
35D6
  8
2-0
  6
CONTINUOUS
 62
     3
 10
24835.914669999991
 20
17750.230504999989
 30
0.0
 11
24865.912294000002
 21
17750.230504999989
 31
0.0
  0
LINE
  5
35D7
  8
2-0
  6
CONTINUOUS
 62
     3
 10
24865.912294000002
 20
17750.230504999989
 30
0.0
 11
24865.912294000002
 21
17713.231323
 31
0.0
  0
LINE
  5
35D8
  8
2-0
  6
CONTINUOUS
 62
     3
 10
24835.914669999991
 20
17713.231323
 30
0.0
 11
24865.912294000002
 21
17713.231323
 31
0.0
  0
LINE
  5
35D9
  8
2-0
  6
CONTINUOUS
 62
     3
 10
24835.914669999991
 20
17719.233223999989
 30
0.0
 11
24835.914669999991
 21
17713.231323
 31
0.0
  0
LINE
  5
35DA
  8
2-0
  6
CONTINUOUS
 62
     3
 10
24835.914669999991
 20
17703.141716999991
 30
0.0
 11
24865.912294000002
 21
17703.141716999991
 31
0.0
  0
LINE
  5
35DB
  8
2-0
  6
CONTINUOUS
 62
     3
 10
24835.914669999991
 20
17721.13752
 30
0.0
 11
24835.914669999991
 21
17703.141716999991
 31
0.0
  0
LINE
  5
35DC
  8
2-0
  6
CONTINUOUS
 62
     3
 10
24860.91203000001
 20
17721.13752
 30
0.0
 11
24835.914669999991
 21
17721.13752
 31
0.0
  0
LINE
  5
35DD
  8
2-0
  6
CONTINUOUS
 62
     3
 10
24860.91203000001
 20
17716.137256999991
 30
0.0
 11
24860.91203000001
 21
17721.13752
 31
0.0
  0
LINE
  5
35DE
  8
2-0
  6
CONTINUOUS
 62
     3
 10
24853.910473
 20
17716.137256999991
 30
0.0
 11
24860.91203000001
 21
17716.137256999991
 31
0.0
  0
LINE
  5
35DF
  8
2-0
  6
CONTINUOUS
 62
     3
 10
24863.026156
 20
16996.228143
 30
0.0
 11
24863.026156
 21
17016.229198000001
 31
0.0
  0
LINE
  5
35E0
  8
2-0
  6
CONTINUOUS
 62
     3
 10
24863.026156
 20
17016.229198000001
 30
0.0
 11
24778.029587000001
 21
17016.229198000001
 31
0.0
  0
LINE
  5
35E1
  8
2-0
  6
CONTINUOUS
 62
     3
 10
24853.910473
 20
17042.835908000001
 30
0.0
 11
24860.91203000001
 21
17042.835908000001
 31
0.0
  0
LINE
  5
35E2
  8
2-0
  6
CONTINUOUS
 62
     3
 10
24860.91203000001
 20
17042.835908000001
 30
0.0
 11
24860.91203000001
 21
17037.841582000001
 31
0.0
  0
LINE
  5
35E3
  8
2-0
  6
CONTINUOUS
 62
     3
 10
24860.91203000001
 20
17037.841582000001
 30
0.0
 11
24835.914669999991
 21
17037.841582000001
 31
0.0
  0
LINE
  5
35E4
  8
2-0
  6
CONTINUOUS
 62
     3
 10
24835.914669999991
 20
17037.841582000001
 30
0.0
 11
24835.914669999991
 21
17055.83738600001
 31
0.0
  0
LINE
  5
35E5
  8
2-0
  6
CONTINUOUS
 62
     3
 10
24835.914669999991
 20
17055.83738600001
 30
0.0
 11
24865.912294000002
 21
17055.83738600001
 31
0.0
  0
LINE
  5
35E6
  8
2-0
  6
CONTINUOUS
 62
     3
 10
24835.914669999991
 20
17046.228802000001
 30
0.0
 11
24835.914669999991
 21
17040.226901999991
 31
0.0
  0
LINE
  5
35E7
  8
2-0
  6
CONTINUOUS
 62
     3
 10
24865.912294000002
 20
17046.228802000001
 30
0.0
 11
24835.914669999991
 21
17046.228802000001
 31
0.0
  0
LINE
  5
35E8
  8
2-0
  6
CONTINUOUS
 62
     3
 10
24865.912294000002
 20
17055.83738600001
 30
0.0
 11
24865.912294000002
 21
17703.141716999991
 31
0.0
  0
LINE
  5
35E9
  8
2-0
  6
CONTINUOUS
 62
     3
 10
24865.912294000002
 20
17760.331988000002
 30
0.0
 11
24865.912294000002
 21
18404.135778
 31
0.0
  0
LINE
  5
35EA
  8
2-0
  6
CONTINUOUS
 62
     3
 10
24865.912294000002
 20
16901.22708700001
 30
0.0
 11
24835.914669999991
 21
16901.22708700001
 31
0.0
  0
LINE
  5
35EB
  8
2-0
  6
CONTINUOUS
 62
     3
 10
24835.914669999991
 20
16901.22708700001
 30
0.0
 11
24835.914669999991
 21
16907.22898700001
 31
0.0
  0
LINE
  5
35EC
  8
2-0
  6
CONTINUOUS
 62
     3
 10
24778.029587000001
 20
16931.232629999991
 30
0.0
 11
24863.026156
 21
16931.232629999991
 31
0.0
  0
LINE
  5
35ED
  8
2-0
  6
CONTINUOUS
 62
     3
 10
24863.026156
 20
16931.232629999991
 30
0.0
 11
24863.026156
 21
16951.227747000012
 31
0.0
  0
LINE
  5
35EE
  8
2-0
  6
CONTINUOUS
 62
     3
 10
24835.914669999991
 20
16891.618503999998
 30
0.0
 11
24865.912294000002
 21
16891.618503999998
 31
0.0
  0
LINE
  5
35EF
  8
2-0
  6
CONTINUOUS
 62
     3
 10
24835.914669999991
 20
16909.614306999982
 30
0.0
 11
24835.914669999991
 21
16891.618503999998
 31
0.0
  0
LINE
  5
35F0
  8
2-0
  6
CONTINUOUS
 62
     3
 10
24860.91203000001
 20
16909.614306999982
 30
0.0
 11
24835.914669999991
 21
16909.614306999982
 31
0.0
  0
LINE
  5
35F1
  8
2-0
  6
CONTINUOUS
 62
     3
 10
24860.91203000001
 20
16904.614043000009
 30
0.0
 11
24860.91203000001
 21
16909.614306999982
 31
0.0
  0
LINE
  5
35F2
  8
2-0
  6
CONTINUOUS
 62
     3
 10
24853.910473
 20
16904.614043000009
 30
0.0
 11
24860.91203000001
 21
16904.614043000009
 31
0.0
  0
LINE
  5
35F3
  8
2-0
  6
CONTINUOUS
 62
     3
 10
24853.910473
 20
16200.131812499991
 30
0.0
 11
24860.91203000001
 21
16200.131812499991
 31
0.0
  0
LINE
  5
35F4
  8
2-0
  6
CONTINUOUS
 62
     3
 10
24860.91203000001
 20
16200.131812499991
 30
0.0
 11
24860.91203000001
 21
16205.13207649998
 31
0.0
  0
LINE
  5
35F5
  8
2-0
  6
CONTINUOUS
 62
     3
 10
24860.91203000001
 20
16205.13207649998
 30
0.0
 11
24835.914669999991
 21
16205.13207649998
 31
0.0
  0
LINE
  5
35F6
  8
2-0
  6
CONTINUOUS
 62
     3
 10
24835.914669999991
 20
16205.13207649998
 30
0.0
 11
24835.914669999991
 21
16187.130334499991
 31
0.0
  0
LINE
  5
35F7
  8
2-0
  6
CONTINUOUS
 62
     3
 10
24835.914669999991
 20
16187.130334499991
 30
0.0
 11
24865.912294000002
 21
16187.130334499991
 31
0.0
  0
LINE
  5
35F8
  8
2-0
  6
CONTINUOUS
 62
     3
 10
24835.914669999991
 20
16203.227779500001
 30
0.0
 11
24835.914669999991
 21
16197.2308285
 31
0.0
  0
LINE
  5
35F9
  8
2-0
  6
CONTINUOUS
 62
     3
 10
24835.914669999991
 20
16197.2308285
 30
0.0
 11
24865.912294000002
 21
16197.2308285
 31
0.0
  0
LINE
  5
35FA
  8
2-0
  6
CONTINUOUS
 62
     3
 10
24865.912294000002
 20
16197.2308285
 30
0.0
 11
24865.912294000002
 21
16234.2309995
 31
0.0
  0
LINE
  5
35FB
  8
2-0
  6
CONTINUOUS
 62
     3
 10
24835.914669999991
 20
16234.2309995
 30
0.0
 11
24865.912294000002
 21
16234.2309995
 31
0.0
  0
LINE
  5
35FC
  8
2-0
  6
CONTINUOUS
 62
     3
 10
24835.914669999991
 20
16228.228109499991
 30
0.0
 11
24835.914669999991
 21
16234.2309995
 31
0.0
  0
LINE
  5
35FD
  8
2-0
  6
CONTINUOUS
 62
     3
 10
24835.914669999991
 20
16244.3265445
 30
0.0
 11
24865.912294000002
 21
16244.3265445
 31
0.0
  0
LINE
  5
35FE
  8
2-0
  6
CONTINUOUS
 62
     3
 10
24835.914669999991
 20
16226.318863500001
 30
0.0
 11
24835.914669999991
 21
16244.3265445
 31
0.0
  0
LINE
  5
35FF
  8
2-0
  6
CONTINUOUS
 62
     3
 10
24860.91203000001
 20
16226.318863500001
 30
0.0
 11
24835.914669999991
 21
16226.318863500001
 31
0.0
  0
LINE
  5
3600
  8
2-0
  6
CONTINUOUS
 62
     3
 10
24860.91203000001
 20
16231.3250665
 30
0.0
 11
24860.91203000001
 21
16226.318863500001
 31
0.0
  0
LINE
  5
3601
  8
2-0
  6
CONTINUOUS
 62
     3
 10
24853.910473
 20
16231.3250665
 30
0.0
 11
24860.91203000001
 21
16231.3250665
 31
0.0
  0
LINE
  5
3602
  8
2-0
  6
CONTINUOUS
 62
     3
 10
24853.910473
 20
15530.565083
 30
0.0
 11
24860.91203000001
 21
15530.565083
 31
0.0
  0
LINE
  5
3603
  8
2-0
  6
CONTINUOUS
 62
     3
 10
24860.91203000001
 20
15530.565083
 30
0.0
 11
24860.91203000001
 21
15525.570758000011
 31
0.0
  0
LINE
  5
3604
  8
2-0
  6
CONTINUOUS
 62
     3
 10
24860.91203000001
 20
15525.570758000011
 30
0.0
 11
24835.914669999991
 21
15525.570758000011
 31
0.0
  0
LINE
  5
3605
  8
2-0
  6
CONTINUOUS
 62
     3
 10
24835.914669999991
 20
15525.570758000011
 30
0.0
 11
24835.914669999991
 21
15543.566561000011
 31
0.0
  0
LINE
  5
3606
  8
2-0
  6
CONTINUOUS
 62
     3
 10
24835.914669999991
 20
15543.566561000011
 30
0.0
 11
24865.912294000002
 21
15543.566561000011
 31
0.0
  0
LINE
  5
3607
  8
2-0
  6
CONTINUOUS
 62
     3
 10
24835.914669999991
 20
15527.469116
 30
0.0
 11
24835.914669999991
 21
15533.47101600001
 31
0.0
  0
LINE
  5
3608
  8
2-0
  6
CONTINUOUS
 62
     3
 10
24835.914669999991
 20
15533.47101600001
 30
0.0
 11
24865.912294000002
 21
15533.47101600001
 31
0.0
  0
LINE
  5
3609
  8
2-0
  6
CONTINUOUS
 62
     3
 10
24865.912294000002
 20
15496.471835
 30
0.0
 11
24865.912294000002
 21
15533.47101600001
 31
0.0
  0
LINE
  5
360A
  8
2-0
  6
CONTINUOUS
 62
     3
 10
24835.914669999991
 20
15496.471835
 30
0.0
 11
24865.912294000002
 21
15496.471835
 31
0.0
  0
LINE
  5
360B
  8
2-0
  6
CONTINUOUS
 62
     3
 10
24835.914669999991
 20
15502.46878600001
 30
0.0
 11
24835.914669999991
 21
15496.471835
 31
0.0
  0
LINE
  5
360C
  8
2-0
  6
CONTINUOUS
 62
     3
 10
24835.914669999991
 20
15486.370351
 30
0.0
 11
24865.912294000002
 21
15486.370351
 31
0.0
  0
LINE
  5
360D
  8
2-0
  6
CONTINUOUS
 62
     3
 10
24835.914669999991
 20
15504.378032000001
 30
0.0
 11
24835.914669999991
 21
15486.370351
 31
0.0
  0
LINE
  5
360E
  8
2-0
  6
CONTINUOUS
 62
     3
 10
24860.91203000001
 20
15504.378032000001
 30
0.0
 11
24835.914669999991
 21
15504.378032000001
 31
0.0
  0
LINE
  5
360F
  8
2-0
  6
CONTINUOUS
 62
     3
 10
24860.91203000001
 20
15499.377768000009
 30
0.0
 11
24860.91203000001
 21
15504.378032000001
 31
0.0
  0
LINE
  5
3610
  8
2-0
  6
CONTINUOUS
 62
     3
 10
24853.910473
 20
15499.377768000009
 30
0.0
 11
24860.91203000001
 21
15499.377768000009
 31
0.0
  0
LINE
  5
3611
  8
2-0
  6
CONTINUOUS
 62
     3
 10
24865.912294000002
 20
16891.618503999998
 30
0.0
 11
24865.912294000002
 21
16244.3265445
 31
0.0
  0
LINE
  5
3612
  8
2-0
  6
CONTINUOUS
 62
     3
 10
24865.912294000002
 20
17046.228802000001
 30
0.0
 11
24865.912294000002
 21
16901.22708700001
 31
0.0
  0
LINE
  5
3613
  8
2-0
  6
CONTINUOUS
 62
     3
 10
24778.029587000001
 20
17016.229198000001
 30
0.0
 11
24778.029587000001
 21
16931.232629999991
 31
0.0
  0
LINE
  5
3614
  8
2-0
  6
CONTINUOUS
 62
     6
 10
23239.820919999991
 20
18784.676463499982
 30
0.0
 11
24264.853252000001
 21
18784.676463499982
 31
0.0
  0
LINE
  5
3615
  8
2-0
  6
CONTINUOUS
 62
     3
 10
24853.910473
 20
14798.136761
 30
0.0
 11
24860.91203000001
 21
14798.136761
 31
0.0
  0
LINE
  5
3616
  8
2-0
  6
CONTINUOUS
 62
     3
 10
24860.91203000001
 20
14798.136761
 30
0.0
 11
24860.91203000001
 21
14803.131087
 31
0.0
  0
LINE
  5
3617
  8
2-0
  6
CONTINUOUS
 62
     3
 10
24860.91203000001
 20
14803.131087
 30
0.0
 11
24835.914669999991
 21
14803.131087
 31
0.0
  0
LINE
  5
3618
  8
2-0
  6
CONTINUOUS
 62
     3
 10
24835.914669999991
 20
14803.131087
 30
0.0
 11
24835.914669999991
 21
14785.135283
 31
0.0
  0
LINE
  5
3619
  8
2-0
  6
CONTINUOUS
 62
     3
 10
24835.914669999991
 20
14785.135283
 30
0.0
 11
24865.912294000002
 21
14785.135283
 31
0.0
  0
LINE
  5
361A
  8
2-0
  6
CONTINUOUS
 62
     3
 10
24835.914669999991
 20
14801.23371800001
 30
0.0
 11
24835.914669999991
 21
14795.230828000011
 31
0.0
  0
LINE
  5
361B
  8
2-0
  6
CONTINUOUS
 62
     3
 10
24835.914669999991
 20
14795.230828000011
 30
0.0
 11
24865.912294000002
 21
14795.230828000011
 31
0.0
  0
LINE
  5
361C
  8
2-0
  6
CONTINUOUS
 62
     3
 10
24865.912294000002
 20
14795.230828000011
 30
0.0
 11
24865.912294000002
 21
14832.230999999991
 31
0.0
  0
LINE
  5
361D
  8
2-0
  6
CONTINUOUS
 62
     3
 10
24835.914669999991
 20
14832.230999999991
 30
0.0
 11
24865.912294000002
 21
14832.230999999991
 31
0.0
  0
LINE
  5
361E
  8
2-0
  6
CONTINUOUS
 62
     3
 10
24835.914669999991
 20
14826.23404799998
 30
0.0
 11
24835.914669999991
 21
14832.230999999991
 31
0.0
  0
LINE
  5
361F
  8
2-0
  6
CONTINUOUS
 62
     3
 10
24835.914669999991
 20
14842.331493000011
 30
0.0
 11
24865.912294000002
 21
14842.331493000011
 31
0.0
  0
LINE
  5
3620
  8
2-0
  6
CONTINUOUS
 62
     3
 10
24835.914669999991
 20
14824.32480200001
 30
0.0
 11
24835.914669999991
 21
14842.331493000011
 31
0.0
  0
LINE
  5
3621
  8
2-0
  6
CONTINUOUS
 62
     3
 10
24860.91203000001
 20
14824.32480200001
 30
0.0
 11
24835.914669999991
 21
14824.32480200001
 31
0.0
  0
LINE
  5
3622
  8
2-0
  6
CONTINUOUS
 62
     3
 10
24860.91203000001
 20
14829.33001500001
 30
0.0
 11
24860.91203000001
 21
14824.32480200001
 31
0.0
  0
LINE
  5
3623
  8
2-0
  6
CONTINUOUS
 62
     3
 10
24853.910473
 20
14829.33001500001
 30
0.0
 11
24860.91203000001
 21
14829.33001500001
 31
0.0
  0
LINE
  5
3624
  8
2-0
  6
CONTINUOUS
 62
     3
 10
24835.914669999991
 20
14122.23284099999
 30
0.0
 11
24835.914669999991
 21
14128.237709999999
 31
0.0
  0
LINE
  5
3625
  8
2-0
  6
CONTINUOUS
 62
     3
 10
24835.914669999991
 20
14128.237709999999
 30
0.0
 11
24865.912294000002
 21
14128.237709999999
 31
0.0
  0
LINE
  5
3626
  8
2-0
  6
CONTINUOUS
 62
     3
 10
24865.912294000002
 20
14128.237709999999
 30
0.0
 11
24865.912294000002
 21
14013.233619000001
 31
0.0
  0
LINE
  5
3627
  8
2-0
  6
CONTINUOUS
 62
     3
 10
24865.912294000002
 20
14013.233619000001
 30
0.0
 11
24780.913745999991
 21
14013.233619000001
 31
0.0
  0
LINE
  5
3628
  8
2-0
  6
CONTINUOUS
 62
     3
 10
24780.913745999991
 20
14013.233619000001
 30
0.0
 11
24780.913745999991
 21
14098.229198000001
 31
0.0
  0
LINE
  5
3629
  8
2-0
  6
CONTINUOUS
 62
     3
 10
24780.913745999991
 20
14098.229198000001
 30
0.0
 11
24812.912663999989
 21
14098.229198000001
 31
0.0
  0
LINE
  5
362A
  8
2-0
  6
CONTINUOUS
 62
     3
 10
24853.910473
 20
14125.267443000001
 30
0.0
 11
24860.91203000001
 21
14125.267443000001
 31
0.0
  0
LINE
  5
362B
  8
2-0
  6
CONTINUOUS
 62
     3
 10
24860.91203000001
 20
14125.267443000001
 30
0.0
 11
24860.91203000001
 21
14120.270147999971
 31
0.0
  0
LINE
  5
362C
  8
2-0
  6
CONTINUOUS
 62
     3
 10
24860.91203000001
 20
14120.270147999971
 30
0.0
 11
24835.914669999991
 21
14120.270147999971
 31
0.0
  0
LINE
  5
362D
  8
2-0
  6
CONTINUOUS
 62
     3
 10
24835.914669999991
 20
14120.270147999971
 30
0.0
 11
24835.914669999991
 21
14138.268921000001
 31
0.0
  0
LINE
  5
362E
  8
2-0
  6
CONTINUOUS
 62
     3
 10
24835.914669999991
 20
14138.268921000001
 30
0.0
 11
24865.912294000002
 21
14138.268921000001
 31
0.0
  0
LINE
  5
362F
  8
2-0
  6
CENTER2
 62
     6
 10
24823.41401
 20
13815.736060999991
 30
0.0
 11
24823.41401
 21
14971.60481900002
 31
0.0
  0
LINE
  5
3630
  8
2-0
  6
CONTINUOUS
 62
     3
 10
24865.912294000002
 20
18461.32605
 30
0.0
 11
24865.912294000002
 21
19105.1367675
 31
0.0
  0
LINE
  5
3631
  8
2-0
  6
CONTINUOUS
 62
     6
 10
25558.417176999988
 20
20664.232102000031
 30
0.0
 11
26758.411238999961
 21
20664.232102000031
 31
0.0
  0
LINE
  5
3632
  8
2-0
  6
CONTINUOUS
 62
     3
 10
23029.415858000011
 20
19934.229199000009
 30
0.0
 11
23029.415858000011
 21
19904.22563600001
 31
0.0
  0
LINE
  5
3633
  8
2-0
  6
CONTINUOUS
 62
     3
 10
23029.415858000011
 20
19904.22563600001
 30
0.0
 11
23023.417915999991
 21
19904.22563600001
 31
0.0
  0
LINE
  5
3634
  8
2-0
  6
CONTINUOUS
 62
     3
 10
23039.032359000001
 20
19904.22563600001
 30
0.0
 11
23039.032359000001
 21
19934.229199000009
 31
0.0
  0
LINE
  5
3635
  8
2-0
  6
CONTINUOUS
 62
     3
 10
23021.030617
 20
19904.22563600001
 30
0.0
 11
23039.032359000001
 21
19904.22563600001
 31
0.0
  0
LINE
  5
3636
  8
2-0
  6
CONTINUOUS
 62
     3
 10
23021.030617
 20
19929.234873000001
 30
0.0
 11
23021.030617
 21
19904.22563600001
 31
0.0
  0
LINE
  5
3637
  8
2-0
  6
CONTINUOUS
 62
     3
 10
23026.03088100001
 20
19929.234873000001
 30
0.0
 11
23021.030617
 21
19929.234873000001
 31
0.0
  0
LINE
  5
3638
  8
2-0
  6
CONTINUOUS
 62
     3
 10
23026.03088100001
 20
19922.229357000011
 30
0.0
 11
23026.03088100001
 21
19929.234873000001
 31
0.0
  0
LINE
  5
3639
  8
2-0
  6
CONTINUOUS
 62
     3
 10
22999.41427400001
 20
19931.337122000001
 30
0.0
 11
22999.41427400001
 21
19846.338574000009
 31
0.0
  0
LINE
  5
363A
  8
2-0
  6
CONTINUOUS
 62
     3
 10
22979.417176999999
 20
19931.337122000001
 30
0.0
 11
22999.41427400001
 21
19931.337122000001
 31
0.0
  0
LINE
  5
363B
  8
2-0
  6
CONTINUOUS
 62
     3
 10
22887.803078000012
 20
19922.229357000011
 30
0.0
 11
22887.803078000012
 21
19929.234873000001
 31
0.0
  0
LINE
  5
363C
  8
2-0
  6
CONTINUOUS
 62
     3
 10
22887.803078000012
 20
19929.234873000001
 30
0.0
 11
22892.803341999988
 21
19929.234873000001
 31
0.0
  0
LINE
  5
363D
  8
2-0
  6
CONTINUOUS
 62
     3
 10
22892.803341999988
 20
19929.234873000001
 30
0.0
 11
22892.803341999988
 21
19904.22563600001
 31
0.0
  0
LINE
  5
363E
  8
2-0
  6
CONTINUOUS
 62
     3
 10
22892.803341999988
 20
19904.22563600001
 30
0.0
 11
22874.801599999992
 21
19904.22563600001
 31
0.0
  0
LINE
  5
363F
  8
2-0
  6
CONTINUOUS
 62
     3
 10
22874.801599999992
 20
19904.22563600001
 30
0.0
 11
22874.801599999992
 21
19934.229199000009
 31
0.0
  0
LINE
  5
3640
  8
2-0
  6
CONTINUOUS
 62
     3
 10
22914.421664000001
 20
19931.337122000001
 30
0.0
 11
22934.416781000011
 21
19931.337122000001
 31
0.0
  0
LINE
  5
3641
  8
2-0
  6
CONTINUOUS
 62
     3
 10
22914.421664000001
 20
19846.338574000009
 30
0.0
 11
22914.421664000001
 21
19931.337122000001
 31
0.0
  0
LINE
  5
3642
  8
2-0
  6
CONTINUOUS
 62
     3
 10
22884.424040000002
 20
19904.22563600001
 30
0.0
 11
22890.420000999991
 21
19904.22563600001
 31
0.0
  0
LINE
  5
3643
  8
2-0
  6
CONTINUOUS
 62
     3
 10
22884.424040000002
 20
19934.229199000009
 30
0.0
 11
22884.424040000002
 21
19904.22563600001
 31
0.0
  0
LINE
  5
3644
  8
2-0
  6
CONTINUOUS
 62
     3
 10
22999.41427400001
 20
19846.338574000009
 30
0.0
 11
22914.421664000001
 21
19846.338574000009
 31
0.0
  0
LINE
  5
3645
  8
2-0
  6
CONTINUOUS
 62
     3
 10
23029.415858000011
 20
19934.229199000009
 30
0.0
 11
22884.424040000002
 21
19934.229199000009
 31
0.0
  0
LINE
  5
3646
  8
2-0
  6
CONTINUOUS
 62
     6
 10
24696.384343999991
 20
19026.830971499989
 30
0.0
 11
24264.853252000001
 21
18784.676463499982
 31
0.0
  0
LINE
  5
3647
  8
2-0
  6
CONTINUOUS
 62
     6
 10
25017.95317799996
 20
20076.908939000012
 30
0.0
 11
25558.417176999988
 21
20664.232102000031
 31
0.0
  0
LINE
  5
3648
  8
2-0
  6
CONTINUOUS
 62
     3
 10
24865.912294000002
 20
16187.130334499991
 30
0.0
 11
24865.912294000002
 21
15543.566561000011
 31
0.0
  0
LINE
  5
3649
  8
2-0
  6
CONTINUOUS
 62
     6
 10
24683.327439000001
 20
19050.090315500001
 30
0.0
 11
24835.914669999991
 21
19105.1367675
 31
0.0
  0
LINE
  5
364A
  8
2-0
  6
CONTINUOUS
 62
     6
 10
24835.914669999991
 20
19105.1367675
 30
0.0
 11
24709.43333
 21
19003.57756749999
 31
0.0
  0
LINE
  5
364B
  8
2-0
  6
CONTINUOUS
 62
     6
 10
24683.327439000001
 20
19050.090315500001
 30
0.0
 11
24709.43333
 21
19003.57756749999
 31
0.0
  0
LINE
  5
364C
  8
2-0
  6
CONTINUOUS
 62
     6
 10
24709.43333
 20
19003.57756749999
 30
0.0
 11
24835.914669999991
 21
19105.1367675
 31
0.0
  0
LINE
  5
364D
  8
2-0
  6
CONTINUOUS
 62
     6
 10
24835.914669999991
 20
19105.1367675
 30
0.0
 11
24683.327439000001
 21
19050.090315500001
 31
0.0
  0
LINE
  5
364E
  8
2-0
  6
CONTINUOUS
 62
     6
 10
24683.327439000001
 20
19050.090315500001
 30
0.0
 11
24835.914669999991
 21
19105.1367675
 31
0.0
  0
LINE
  5
364F
  8
2-0
  6
CONTINUOUS
 62
     6
 10
24709.43333
 20
19003.57756749999
 30
0.0
 11
24835.914669999991
 21
19105.1367675
 31
0.0
  0
LINE
  5
3650
  8
2-0
  6
CONTINUOUS
 62
     6
 10
24709.43333
 20
19003.57756749999
 30
0.0
 11
24683.327439000001
 21
19050.090315500001
 31
0.0
  0
LINE
  5
3651
  8
2-0
  6
CONTINUOUS
 62
     6
 10
25037.570207000001
 20
20058.847812000022
 30
0.0
 11
24909.608187000002
 21
19959.165194000008
 31
0.0
  0
LINE
  5
3652
  8
2-0
  6
CONTINUOUS
 62
     6
 10
24909.608187000002
 20
19959.165194000008
 30
0.0
 11
24998.322292000001
 21
20094.962149000021
 31
0.0
  0
LINE
  5
3653
  8
2-0
  6
CONTINUOUS
 62
     6
 10
25037.570207000001
 20
20058.847812000022
 30
0.0
 11
24998.322292000001
 21
20094.962149000021
 31
0.0
  0
LINE
  5
3654
  8
2-0
  6
CONTINUOUS
 62
     6
 10
24998.322292000001
 20
20094.962149000021
 30
0.0
 11
24909.608187000002
 21
19959.165194000008
 31
0.0
  0
LINE
  5
3655
  8
2-0
  6
CONTINUOUS
 62
     6
 10
24909.608187000002
 20
19959.165194000008
 30
0.0
 11
25037.570207000001
 21
20058.847812000022
 31
0.0
  0
LINE
  5
3656
  8
2-0
  6
CONTINUOUS
 62
     6
 10
25037.570207000001
 20
20058.847812000022
 30
0.0
 11
24909.608187000002
 21
19959.165194000008
 31
0.0
  0
LINE
  5
3657
  8
2-0
  6
CONTINUOUS
 62
     6
 10
24998.322292000001
 20
20094.962149000021
 30
0.0
 11
24909.608187000002
 21
19959.165194000008
 31
0.0
  0
LINE
  5
3658
  8
2-0
  6
CONTINUOUS
 62
     6
 10
24998.322292000001
 20
20094.962149000021
 30
0.0
 11
25037.570207000001
 21
20058.847812000022
 31
0.0
  0
LINE
  5
3659
  8
2-0
  6
CONTINUOUS
 62
     4
 10
22956.91401
 20
20014.231442000018
 30
0.0
 11
22956.91401
 21
20744.228406999999
 31
0.0
  0
LINE
  5
365A
  8
2-0
  6
CONTINUOUS
 62
     6
 10
24589.274572999999
 20
13904.96088099999
 30
0.0
 11
24721.021432000001
 21
13999.587808
 31
0.0
  0
LINE
  5
365B
  8
2-0
  6
CONTINUOUS
 62
     6
 10
24721.021432000001
 20
13999.587808
 30
0.0
 11
24627.091295999991
 21
13867.34903799998
 31
0.0
  0
LINE
  5
365C
  8
2-0
  6
CONTINUOUS
 62
     6
 10
24589.274572999999
 20
13904.96088099999
 30
0.0
 11
24627.091295999991
 21
13867.34903799998
 31
0.0
  0
LINE
  5
365D
  8
2-0
  6
CONTINUOUS
 62
     6
 10
24627.091295999991
 20
13867.34903799998
 30
0.0
 11
24721.021432000001
 21
13999.587808
 31
0.0
  0
LINE
  5
365E
  8
2-0
  6
CONTINUOUS
 62
     6
 10
24721.021432000001
 20
13999.587808
 30
0.0
 11
24589.274572999999
 21
13904.96088099999
 31
0.0
  0
LINE
  5
365F
  8
2-0
  6
CONTINUOUS
 62
     6
 10
24589.274572999999
 20
13904.96088099999
 30
0.0
 11
24721.021432000001
 21
13999.587808
 31
0.0
  0
LINE
  5
3660
  8
2-0
  6
CONTINUOUS
 62
     6
 10
24627.091295999991
 20
13867.34903799998
 30
0.0
 11
24721.021432000001
 21
13999.587808
 31
0.0
  0
LINE
  5
3661
  8
2-0
  6
CONTINUOUS
 62
     6
 10
24627.091295999991
 20
13867.34903799998
 30
0.0
 11
24589.274572999999
 21
13904.96088099999
 31
0.0
  0
LINE
  5
3662
  8
2-0
  6
CONTINUOUS
 62
     6
 10
24652.310362
 20
14231.865507999981
 30
0.0
 11
24784.910393999991
 21
14138.437179999981
 31
0.0
  0
LINE
  5
3663
  8
2-0
  6
CONTINUOUS
 62
     6
 10
24784.910393999991
 20
14138.437179999981
 30
0.0
 11
24629.177707999988
 21
14183.812694
 31
0.0
  0
LINE
  5
3664
  8
2-0
  6
CONTINUOUS
 62
     6
 10
24652.310362
 20
14231.865507999981
 30
0.0
 11
24629.177707999988
 21
14183.812694
 31
0.0
  0
LINE
  5
3665
  8
2-0
  6
CONTINUOUS
 62
     6
 10
24629.177707999988
 20
14183.812694
 30
0.0
 11
24784.910393999991
 21
14138.437179999981
 31
0.0
  0
LINE
  5
3666
  8
2-0
  6
CONTINUOUS
 62
     6
 10
24784.910393999991
 20
14138.437179999981
 30
0.0
 11
24652.310362
 21
14231.865507999981
 31
0.0
  0
LINE
  5
3667
  8
2-0
  6
CONTINUOUS
 62
     6
 10
24652.310362
 20
14231.865507999981
 30
0.0
 11
24784.910393999991
 21
14138.437179999981
 31
0.0
  0
LINE
  5
3668
  8
2-0
  6
CONTINUOUS
 62
     6
 10
24629.177707999988
 20
14183.812694
 30
0.0
 11
24784.910393999991
 21
14138.437179999981
 31
0.0
  0
LINE
  5
3669
  8
2-0
  6
CONTINUOUS
 62
     6
 10
24629.177707999988
 20
14183.812694
 30
0.0
 11
24652.310362
 21
14231.865507999981
 31
0.0
  0
LINE
  5
366A
  8
2-0
  6
CONTINUOUS
 62
     6
 10
24712.074008
 20
16611.686441000009
 30
0.0
 11
24865.912294000002
 21
16663.120272000011
 31
0.0
  0
LINE
  5
366B
  8
2-0
  6
CONTINUOUS
 62
     6
 10
24865.912294000002
 20
16663.120272000011
 30
0.0
 11
24737.077306999981
 21
16564.579837000008
 31
0.0
  0
LINE
  5
366C
  8
2-0
  6
CONTINUOUS
 62
     6
 10
24712.074008
 20
16611.686441000009
 30
0.0
 11
24737.077306999981
 21
16564.579837000008
 31
0.0
  0
LINE
  5
366D
  8
2-0
  6
CONTINUOUS
 62
     6
 10
24737.077306999981
 20
16564.579837000008
 30
0.0
 11
24865.912294000002
 21
16663.120272000011
 31
0.0
  0
LINE
  5
366E
  8
2-0
  6
CONTINUOUS
 62
     6
 10
24865.912294000002
 20
16663.120272000011
 30
0.0
 11
24712.074008
 21
16611.686441000009
 31
0.0
  0
LINE
  5
366F
  8
2-0
  6
CONTINUOUS
 62
     6
 10
24712.074008
 20
16611.686441000009
 30
0.0
 11
24865.912294000002
 21
16663.120272000011
 31
0.0
  0
LINE
  5
3670
  8
2-0
  6
CONTINUOUS
 62
     6
 10
24737.077306999981
 20
16564.579837000008
 30
0.0
 11
24865.912294000002
 21
16663.120272000011
 31
0.0
  0
LINE
  5
3671
  8
2-0
  6
CONTINUOUS
 62
     6
 10
24737.077306999981
 20
16564.579837000008
 30
0.0
 11
24712.074008
 21
16611.686441000009
 31
0.0
  0
LINE
  5
3672
  8
2-0
  6
CONTINUOUS
 62
     6
 10
24578.137801000001
 20
17103.004933000011
 30
0.0
 11
24721.021432000001
 21
17026.229304000011
 31
0.0
  0
LINE
  5
3673
  8
2-0
  6
CONTINUOUS
 62
     6
 10
24721.021432000001
 20
17026.229304000011
 30
0.0
 11
24560.959538999999
 21
17052.511373000019
 31
0.0
  0
LINE
  5
3674
  8
2-0
  6
CONTINUOUS
 62
     6
 10
24578.137801000001
 20
17103.004933000011
 30
0.0
 11
24560.959538999999
 21
17052.511373000019
 31
0.0
  0
LINE
  5
3675
  8
2-0
  6
CONTINUOUS
 62
     6
 10
24560.959538999999
 20
17052.511373000019
 30
0.0
 11
24721.021432000001
 21
17026.229304000011
 31
0.0
  0
LINE
  5
3676
  8
2-0
  6
CONTINUOUS
 62
     6
 10
24721.021432000001
 20
17026.229304000011
 30
0.0
 11
24578.137801000001
 21
17103.004933000011
 31
0.0
  0
LINE
  5
3677
  8
2-0
  6
CONTINUOUS
 62
     6
 10
24578.137801000001
 20
17103.004933000011
 30
0.0
 11
24721.021432000001
 21
17026.229304000011
 31
0.0
  0
LINE
  5
3678
  8
2-0
  6
CONTINUOUS
 62
     6
 10
24560.959538999999
 20
17052.511373000019
 30
0.0
 11
24721.021432000001
 21
17026.229304000011
 31
0.0
  0
LINE
  5
3679
  8
2-0
  6
CONTINUOUS
 62
     6
 10
24560.959538999999
 20
17052.511373000019
 30
0.0
 11
24578.137801000001
 21
17103.004933000011
 31
0.0
  0
LINE
  5
367A
  8
2-0
  6
CONTINUOUS
 62
     3
 10
22217.41459099999
 20
19934.229199000009
 30
0.0
 11
22180.413429
 21
19934.229199000009
 31
0.0
  0
LINE
  5
367B
  8
2-0
  6
CONTINUOUS
 62
     3
 10
22217.41459099999
 20
19904.22563600001
 30
0.0
 11
22217.41459099999
 21
19934.229199000009
 31
0.0
  0
LINE
  5
367C
  8
2-0
  6
CONTINUOUS
 62
     3
 10
22211.41466999998
 20
19904.22563600001
 30
0.0
 11
22217.41459099999
 21
19904.22563600001
 31
0.0
  0
LINE
  5
367D
  8
2-0
  6
CONTINUOUS
 62
     3
 10
22227.512115000001
 20
19904.22563600001
 30
0.0
 11
22227.512115000001
 21
19934.229199000009
 31
0.0
  0
LINE
  5
367E
  8
2-0
  6
CONTINUOUS
 62
     3
 10
22209.508393999989
 20
19904.22563600001
 30
0.0
 11
22227.512115000001
 21
19904.22563600001
 31
0.0
  0
LINE
  5
367F
  8
2-0
  6
CONTINUOUS
 62
     3
 10
22209.508393999989
 20
19929.234873000001
 30
0.0
 11
22209.508393999989
 21
19904.22563600001
 31
0.0
  0
LINE
  5
3680
  8
2-0
  6
CONTINUOUS
 62
     3
 10
22214.508657999999
 20
19929.234873000001
 30
0.0
 11
22209.508393999989
 21
19929.234873000001
 31
0.0
  0
LINE
  5
3681
  8
2-0
  6
CONTINUOUS
 62
     3
 10
22214.508657999999
 20
19922.229357000011
 30
0.0
 11
22214.508657999999
 21
19929.234873000001
 31
0.0
  0
LINE
  5
3682
  8
2-0
  6
CONTINUOUS
 62
     3
 10
22183.319362999991
 20
19922.229357000011
 30
0.0
 11
22183.319362999991
 21
19929.234873000001
 31
0.0
  0
LINE
  5
3683
  8
2-0
  6
CONTINUOUS
 62
     3
 10
22183.319362999991
 20
19929.234873000001
 30
0.0
 11
22188.319627000001
 21
19929.234873000001
 31
0.0
  0
LINE
  5
3684
  8
2-0
  6
CONTINUOUS
 62
     3
 10
22188.319627000001
 20
19929.234873000001
 30
0.0
 11
22188.319627000001
 21
19904.22563600001
 31
0.0
  0
LINE
  5
3685
  8
2-0
  6
CONTINUOUS
 62
     3
 10
22188.319627000001
 20
19904.22563600001
 30
0.0
 11
22170.319864000001
 21
19904.22563600001
 31
0.0
  0
LINE
  5
3686
  8
2-0
  6
CONTINUOUS
 62
     3
 10
22170.319864000001
 20
19904.22563600001
 30
0.0
 11
22170.319864000001
 21
19934.229199000009
 31
0.0
  0
LINE
  5
3687
  8
2-0
  6
CONTINUOUS
 62
     3
 10
22186.413349999999
 20
19904.22563600001
 30
0.0
 11
22180.413429
 21
19904.22563600001
 31
0.0
  0
LINE
  5
3688
  8
2-0
  6
CONTINUOUS
 62
     3
 10
22180.413429
 20
19904.22563600001
 30
0.0
 11
22180.413429
 21
19934.229199000009
 31
0.0
  0
LINE
  5
3689
  8
2-0
  6
CONTINUOUS
 62
     3
 10
20376.91533
 20
19825.228987999999
 30
0.0
 11
20376.91533
 21
19819.23302600002
 31
0.0
  0
LINE
  5
368A
  8
2-0
  6
CONTINUOUS
 62
     3
 10
20376.91533
 20
19819.23302600002
 30
0.0
 11
20346.917705
 21
19819.23302600002
 31
0.0
  0
LINE
  5
368B
  8
2-0
  6
CONTINUOUS
 62
     3
 10
20346.917705
 20
19819.23302600002
 30
0.0
 11
20346.917705
 21
19934.229199000009
 31
0.0
  0
LINE
  5
368C
  8
2-0
  6
CONTINUOUS
 62
     3
 10
20346.917705
 20
19849.23263000001
 30
0.0
 11
20427.915646000001
 21
19849.23263000001
 31
0.0
  0
LINE
  5
368D
  8
2-0
  6
CONTINUOUS
 62
     3
 10
20376.91533
 20
19808.935570000001
 30
0.0
 11
20346.917705
 21
19808.935570000001
 31
0.0
  0
LINE
  5
368E
  8
2-0
  6
CONTINUOUS
 62
     3
 10
20376.91533
 20
19826.93731200002
 30
0.0
 11
20376.91533
 21
19808.935570000001
 31
0.0
  0
LINE
  5
368F
  8
2-0
  6
CONTINUOUS
 62
     3
 10
20351.921927999989
 20
19826.93731200002
 30
0.0
 11
20376.91533
 21
19826.93731200002
 31
0.0
  0
LINE
  5
3690
  8
2-0
  6
CONTINUOUS
 62
     3
 10
20351.921927999989
 20
19821.929130000019
 30
0.0
 11
20351.921927999989
 21
19826.93731200002
 31
0.0
  0
LINE
  5
3691
  8
2-0
  6
CONTINUOUS
 62
     3
 10
20358.919525999969
 20
19821.929130000019
 30
0.0
 11
20351.921927999989
 21
19821.929130000019
 31
0.0
  0
LINE
  5
3692
  8
2-0
  6
CONTINUOUS
 62
     3
 10
20459.213814999988
 20
19922.229357000011
 30
0.0
 11
20459.213814999988
 21
19929.234873000001
 31
0.0
  0
LINE
  5
3693
  8
2-0
  6
CONTINUOUS
 62
     3
 10
20459.213814999988
 20
19929.234873000001
 30
0.0
 11
20454.211571
 21
19929.234873000001
 31
0.0
  0
LINE
  5
3694
  8
2-0
  6
CONTINUOUS
 62
     3
 10
20454.211571
 20
19929.234873000001
 30
0.0
 11
20454.211571
 21
19904.22563600001
 31
0.0
  0
LINE
  5
3695
  8
2-0
  6
CONTINUOUS
 62
     3
 10
20454.211571
 20
19904.22563600001
 30
0.0
 11
20472.21925200001
 21
19904.22563600001
 31
0.0
  0
LINE
  5
3696
  8
2-0
  6
CONTINUOUS
 62
     3
 10
20472.21925200001
 20
19904.22563600001
 30
0.0
 11
20472.21925200001
 21
19934.229199000009
 31
0.0
  0
LINE
  5
3697
  8
2-0
  6
CONTINUOUS
 62
     3
 10
20461.919816000001
 20
19934.229199000009
 30
0.0
 11
20346.917705
 21
19934.229199000009
 31
0.0
  0
LINE
  5
3698
  8
2-0
  6
CONTINUOUS
 62
     3
 10
20461.919816000001
 20
19904.22563600001
 30
0.0
 11
20461.919816000001
 21
19934.229199000009
 31
0.0
  0
LINE
  5
3699
  8
2-0
  6
CONTINUOUS
 62
     3
 10
20455.915937000002
 20
19904.22563600001
 30
0.0
 11
20461.919816000001
 21
19904.22563600001
 31
0.0
  0
LINE
  5
369A
  8
2-0
  6
CONTINUOUS
 62
     3
 10
21513.5037085
 20
19922.229357000011
 30
0.0
 11
21513.5037085
 21
19929.234873000001
 31
0.0
  0
LINE
  5
369B
  8
2-0
  6
CONTINUOUS
 62
     3
 10
21513.5037085
 20
19929.234873000001
 30
0.0
 11
21508.503444499991
 21
19929.234873000001
 31
0.0
  0
LINE
  5
369C
  8
2-0
  6
CONTINUOUS
 62
     3
 10
21508.503444499991
 20
19929.234873000001
 30
0.0
 11
21508.503444499991
 21
19904.22563600001
 31
0.0
  0
LINE
  5
369D
  8
2-0
  6
CONTINUOUS
 62
     3
 10
21508.503444499991
 20
19904.22563600001
 30
0.0
 11
21526.5091455
 21
19904.22563600001
 31
0.0
  0
LINE
  5
369E
  8
2-0
  6
CONTINUOUS
 62
     3
 10
21526.5091455
 20
19904.22563600001
 30
0.0
 11
21526.5091455
 21
19934.229199000009
 31
0.0
  0
LINE
  5
369F
  8
2-0
  6
CONTINUOUS
 62
     3
 10
21510.411700500001
 20
19904.22563600001
 30
0.0
 11
21516.4136005
 21
19904.22563600001
 31
0.0
  0
LINE
  5
36A0
  8
2-0
  6
CONTINUOUS
 62
     3
 10
21516.4136005
 20
19904.22563600001
 30
0.0
 11
21516.4136005
 21
19934.229199000009
 31
0.0
  0
LINE
  5
36A1
  8
2-0
  6
CONTINUOUS
 62
     3
 10
21479.41441949999
 20
19934.229199000009
 30
0.0
 11
21516.4136005
 21
19934.229199000009
 31
0.0
  0
LINE
  5
36A2
  8
2-0
  6
CONTINUOUS
 62
     3
 10
21479.41441949999
 20
19904.22563600001
 30
0.0
 11
21479.41441949999
 21
19934.229199000009
 31
0.0
  0
LINE
  5
36A3
  8
2-0
  6
CONTINUOUS
 62
     3
 10
21485.408401500001
 20
19904.22563600001
 30
0.0
 11
21479.41441949999
 21
19904.22563600001
 31
0.0
  0
LINE
  5
36A4
  8
2-0
  6
CONTINUOUS
 62
     3
 10
21469.318874500001
 20
19904.22563600001
 30
0.0
 11
21469.318874500001
 21
19934.229199000009
 31
0.0
  0
LINE
  5
36A5
  8
2-0
  6
CONTINUOUS
 62
     3
 10
21487.314677499991
 20
19904.22563600001
 30
0.0
 11
21469.318874500001
 21
19904.22563600001
 31
0.0
  0
LINE
  5
36A6
  8
2-0
  6
CONTINUOUS
 62
     3
 10
21487.314677499991
 20
19929.234873000001
 30
0.0
 11
21487.314677499991
 21
19904.22563600001
 31
0.0
  0
LINE
  5
36A7
  8
2-0
  6
CONTINUOUS
 62
     3
 10
21482.3144135
 20
19929.234873000001
 30
0.0
 11
21487.314677499991
 21
19929.234873000001
 31
0.0
  0
LINE
  5
36A8
  8
2-0
  6
CONTINUOUS
 62
     3
 10
21482.3144135
 20
19922.229357000011
 30
0.0
 11
21482.3144135
 21
19929.234873000001
 31
0.0
  0
LINE
  5
36A9
  8
2-0
  6
CONTINUOUS
 62
     3
 10
20825.713036000001
 20
19934.229199000009
 30
0.0
 11
21469.318874500001
 21
19934.229199000009
 31
0.0
  0
LINE
  5
36AA
  8
2-0
  6
CONTINUOUS
 62
     3
 10
22170.319864000001
 20
19934.229199000009
 30
0.0
 11
21526.5091455
 21
19934.22919900003
 31
0.0
  0
LINE
  5
36AB
  8
2-0
  6
CONTINUOUS
 62
     3
 10
20376.91533
 20
19825.228987999999
 30
0.0
 11
20376.91533
 21
19819.23302600002
 31
0.0
  0
LINE
  5
36AC
  8
2-0
  6
CONTINUOUS
 62
     3
 10
20376.91533
 20
19819.23302600002
 30
0.0
 11
20346.917705
 21
19819.23302600002
 31
0.0
  0
LINE
  5
36AD
  8
2-0
  6
CONTINUOUS
 62
     3
 10
20346.917705
 20
19819.23302600002
 30
0.0
 11
20346.917705
 21
19934.229199000009
 31
0.0
  0
LINE
  5
36AE
  8
2-0
  6
CONTINUOUS
 62
     3
 10
20346.917705
 20
19849.23263000001
 30
0.0
 11
20427.915646000001
 21
19849.23263000001
 31
0.0
  0
LINE
  5
36AF
  8
2-0
  6
CONTINUOUS
 62
     3
 10
20376.91533
 20
19808.935570000001
 30
0.0
 11
20346.917705
 21
19808.935570000001
 31
0.0
  0
LINE
  5
36B0
  8
2-0
  6
CONTINUOUS
 62
     3
 10
20376.91533
 20
19826.93731200002
 30
0.0
 11
20376.91533
 21
19808.935570000001
 31
0.0
  0
LINE
  5
36B1
  8
2-0
  6
CONTINUOUS
 62
     3
 10
20351.921927999989
 20
19826.93731200002
 30
0.0
 11
20376.91533
 21
19826.93731200002
 31
0.0
  0
LINE
  5
36B2
  8
2-0
  6
CONTINUOUS
 62
     3
 10
20351.921927999989
 20
19821.929130000019
 30
0.0
 11
20351.921927999989
 21
19826.93731200002
 31
0.0
  0
LINE
  5
36B3
  8
2-0
  6
CONTINUOUS
 62
     3
 10
20358.919525999969
 20
19821.929130000019
 30
0.0
 11
20351.921927999989
 21
19821.929130000019
 31
0.0
  0
LINE
  5
36B4
  8
2-0
  6
CONTINUOUS
 62
     3
 10
20358.919525999969
 20
19118.132307499989
 30
0.0
 11
20351.921927999989
 21
19118.132307499989
 31
0.0
  0
LINE
  5
36B5
  8
2-0
  6
CONTINUOUS
 62
     3
 10
20351.921927999989
 20
19118.132307499989
 30
0.0
 11
20351.921927999989
 21
19123.132571499991
 31
0.0
  0
LINE
  5
36B6
  8
2-0
  6
CONTINUOUS
 62
     3
 10
20351.921927999989
 20
19123.132571499991
 30
0.0
 11
20376.91533
 21
19123.132571499991
 31
0.0
  0
LINE
  5
36B7
  8
2-0
  6
CONTINUOUS
 62
     3
 10
20376.91533
 20
19123.132571499991
 30
0.0
 11
20376.91533
 21
19105.136767499989
 31
0.0
  0
LINE
  5
36B8
  8
2-0
  6
CONTINUOUS
 62
     3
 10
20376.91533
 20
19105.136767499989
 30
0.0
 11
20346.917705
 21
19105.136767499989
 31
0.0
  0
LINE
  5
36B9
  8
2-0
  6
CONTINUOUS
 62
     3
 10
20376.91533
 20
19121.22827449995
 30
0.0
 11
20376.91533
 21
19115.230333499989
 31
0.0
  0
LINE
  5
36BA
  8
2-0
  6
CONTINUOUS
 62
     3
 10
20376.91533
 20
19115.230333499989
 30
0.0
 11
20346.917705
 21
19115.230333499989
 31
0.0
  0
LINE
  5
36BB
  8
2-0
  6
CONTINUOUS
 62
     3
 10
20346.917705
 20
19115.230333499989
 30
0.0
 11
20346.917705
 21
19152.2314945
 31
0.0
  0
LINE
  5
36BC
  8
2-0
  6
CONTINUOUS
 62
     3
 10
20376.91533
 20
19152.2314945
 30
0.0
 11
20346.917705
 21
19152.2314945
 31
0.0
  0
LINE
  5
36BD
  8
2-0
  6
CONTINUOUS
 62
     3
 10
20376.91533
 20
19146.227614499981
 30
0.0
 11
20376.91533
 21
19152.2314945
 31
0.0
  0
LINE
  5
36BE
  8
2-0
  6
CONTINUOUS
 62
     3
 10
20376.91533
 20
19162.327039499982
 30
0.0
 11
20346.917705
 21
19162.327039499982
 31
0.0
  0
LINE
  5
36BF
  8
2-0
  6
CONTINUOUS
 62
     3
 10
20376.91533
 20
19144.3252975
 30
0.0
 11
20376.91533
 21
19162.327039499982
 31
0.0
  0
LINE
  5
36C0
  8
2-0
  6
CONTINUOUS
 62
     3
 10
20351.921927999989
 20
19144.3252975
 30
0.0
 11
20376.91533
 21
19144.3252975
 31
0.0
  0
LINE
  5
36C1
  8
2-0
  6
CONTINUOUS
 62
     3
 10
20351.921927999989
 20
19149.325561500002
 30
0.0
 11
20351.921927999989
 21
19144.3252975
 31
0.0
  0
LINE
  5
36C2
  8
2-0
  6
CONTINUOUS
 62
     3
 10
20358.919525999969
 20
19149.325561500002
 30
0.0
 11
20351.921927999989
 21
19149.325561500002
 31
0.0
  0
LINE
  5
36C3
  8
2-0
  6
CONTINUOUS
 62
     3
 10
20358.919525999969
 20
18417.131317999989
 30
0.0
 11
20351.921927999989
 21
18417.131317999989
 31
0.0
  0
LINE
  5
36C4
  8
2-0
  6
CONTINUOUS
 62
     3
 10
20351.921927999989
 20
18417.131317999989
 30
0.0
 11
20351.921927999989
 21
18422.13752
 31
0.0
  0
LINE
  5
36C5
  8
2-0
  6
CONTINUOUS
 62
     3
 10
20351.921927999989
 20
18422.13752
 30
0.0
 11
20376.91533
 21
18422.13752
 31
0.0
  0
LINE
  5
36C6
  8
2-0
  6
CONTINUOUS
 62
     3
 10
20376.91533
 20
18422.13752
 30
0.0
 11
20376.91533
 21
18404.135778
 31
0.0
  0
LINE
  5
36C7
  8
2-0
  6
CONTINUOUS
 62
     3
 10
20376.91533
 20
18404.135778
 30
0.0
 11
20346.917705
 21
18404.135778
 31
0.0
  0
LINE
  5
36C8
  8
2-0
  6
CONTINUOUS
 62
     3
 10
20376.91533
 20
18420.22728499999
 30
0.0
 11
20376.91533
 21
18414.231322999989
 31
0.0
  0
LINE
  5
36C9
  8
2-0
  6
CONTINUOUS
 62
     3
 10
20376.91533
 20
18414.231322999989
 30
0.0
 11
20346.917705
 21
18414.231322999989
 31
0.0
  0
LINE
  5
36CA
  8
2-0
  6
CONTINUOUS
 62
     3
 10
20346.917705
 20
18414.231322999989
 30
0.0
 11
20346.917705
 21
18451.230504999989
 31
0.0
  0
LINE
  5
36CB
  8
2-0
  6
CONTINUOUS
 62
     3
 10
20376.91533
 20
18451.230504999989
 30
0.0
 11
20346.917705
 21
18451.230504999989
 31
0.0
  0
LINE
  5
36CC
  8
2-0
  6
CONTINUOUS
 62
     3
 10
20376.91533
 20
18445.23454300001
 30
0.0
 11
20376.91533
 21
18451.230504999989
 31
0.0
  0
LINE
  5
36CD
  8
2-0
  6
CONTINUOUS
 62
     3
 10
20376.91533
 20
18461.32605
 30
0.0
 11
20346.917705
 21
18461.32605
 31
0.0
  0
LINE
  5
36CE
  8
2-0
  6
CONTINUOUS
 62
     3
 10
20376.91533
 20
18443.324307999988
 30
0.0
 11
20376.91533
 21
18461.32605
 31
0.0
  0
LINE
  5
36CF
  8
2-0
  6
CONTINUOUS
 62
     3
 10
20351.921927999989
 20
18443.324307999988
 30
0.0
 11
20376.91533
 21
18443.324307999988
 31
0.0
  0
LINE
  5
36D0
  8
2-0
  6
CONTINUOUS
 62
     3
 10
20351.921927999989
 20
18448.330509999989
 30
0.0
 11
20351.921927999989
 21
18443.324307999988
 31
0.0
  0
LINE
  5
36D1
  8
2-0
  6
CONTINUOUS
 62
     3
 10
20358.919525999969
 20
18448.330509999989
 30
0.0
 11
20351.921927999989
 21
18448.330509999989
 31
0.0
  0
LINE
  5
36D2
  8
2-0
  6
CONTINUOUS
 62
     3
 10
20358.919525999969
 20
17747.324572000001
 30
0.0
 11
20351.921927999989
 21
17747.324572000001
 31
0.0
  0
LINE
  5
36D3
  8
2-0
  6
CONTINUOUS
 62
     3
 10
20351.921927999989
 20
17747.324572000001
 30
0.0
 11
20351.921927999989
 21
17742.336185
 31
0.0
  0
LINE
  5
36D4
  8
2-0
  6
CONTINUOUS
 62
     3
 10
20351.921927999989
 20
17742.336185
 30
0.0
 11
20376.91533
 21
17742.336185
 31
0.0
  0
LINE
  5
36D5
  8
2-0
  6
CONTINUOUS
 62
     3
 10
20376.91533
 20
17742.336185
 30
0.0
 11
20376.91533
 21
17760.331988000002
 31
0.0
  0
LINE
  5
36D6
  8
2-0
  6
CONTINUOUS
 62
     3
 10
20376.91533
 20
17760.331988000002
 30
0.0
 11
20346.917705
 21
17760.331988000002
 31
0.0
  0
LINE
  5
36D7
  8
2-0
  6
CONTINUOUS
 62
     3
 10
20376.91533
 20
17744.234542999991
 30
0.0
 11
20376.91533
 21
17750.230504999981
 31
0.0
  0
LINE
  5
36D8
  8
2-0
  6
CONTINUOUS
 62
     3
 10
20376.91533
 20
17750.230504999981
 30
0.0
 11
20346.917705
 21
17750.230504999981
 31
0.0
  0
LINE
  5
36D9
  8
2-0
  6
CONTINUOUS
 62
     3
 10
20346.917705
 20
17750.230504999981
 30
0.0
 11
20346.917705
 21
17713.231323
 31
0.0
  0
LINE
  5
36DA
  8
2-0
  6
CONTINUOUS
 62
     3
 10
20376.91533
 20
17713.231323
 30
0.0
 11
20346.917705
 21
17713.231323
 31
0.0
  0
LINE
  5
36DB
  8
2-0
  6
CONTINUOUS
 62
     3
 10
20376.91533
 20
17719.233223999989
 30
0.0
 11
20376.91533
 21
17713.231323
 31
0.0
  0
LINE
  5
36DC
  8
2-0
  6
CONTINUOUS
 62
     3
 10
20376.91533
 20
17703.141716999991
 30
0.0
 11
20346.917705
 21
17703.141716999991
 31
0.0
  0
LINE
  5
36DD
  8
2-0
  6
CONTINUOUS
 62
     3
 10
20376.91533
 20
17721.13752
 30
0.0
 11
20376.91533
 21
17703.141716999991
 31
0.0
  0
LINE
  5
36DE
  8
2-0
  6
CONTINUOUS
 62
     3
 10
20351.921927999989
 20
17721.13752
 30
0.0
 11
20376.91533
 21
17721.13752
 31
0.0
  0
LINE
  5
36DF
  8
2-0
  6
CONTINUOUS
 62
     3
 10
20351.921927999989
 20
17716.137256999991
 30
0.0
 11
20351.921927999989
 21
17721.13752
 31
0.0
  0
LINE
  5
36E0
  8
2-0
  6
CONTINUOUS
 62
     3
 10
20358.919525999969
 20
17716.137256999991
 30
0.0
 11
20351.921927999989
 21
17716.137256999991
 31
0.0
  0
LINE
  5
36E1
  8
2-0
  6
CONTINUOUS
 62
     3
 10
20349.803843000002
 20
16996.228143
 30
0.0
 11
20349.803843000002
 21
17016.229198000001
 31
0.0
  0
LINE
  5
36E2
  8
2-0
  6
CONTINUOUS
 62
     3
 10
20349.803843000002
 20
17016.229198000001
 30
0.0
 11
20434.804370999991
 21
17016.229198000001
 31
0.0
  0
LINE
  5
36E3
  8
2-0
  6
CONTINUOUS
 62
     3
 10
20358.919525999969
 20
17042.835908000001
 30
0.0
 11
20351.921927999989
 21
17042.835908000001
 31
0.0
  0
LINE
  5
36E4
  8
2-0
  6
CONTINUOUS
 62
     3
 10
20351.921927999989
 20
17042.835908000001
 30
0.0
 11
20351.921927999989
 21
17037.841582000001
 31
0.0
  0
LINE
  5
36E5
  8
2-0
  6
CONTINUOUS
 62
     3
 10
20351.921927999989
 20
17037.841582000001
 30
0.0
 11
20376.91533
 21
17037.841582000001
 31
0.0
  0
LINE
  5
36E6
  8
2-0
  6
CONTINUOUS
 62
     3
 10
20376.91533
 20
17037.841582000001
 30
0.0
 11
20376.91533
 21
17055.83738600001
 31
0.0
  0
LINE
  5
36E7
  8
2-0
  6
CONTINUOUS
 62
     3
 10
20376.91533
 20
17055.83738600001
 30
0.0
 11
20346.917705
 21
17055.83738600001
 31
0.0
  0
LINE
  5
36E8
  8
2-0
  6
CONTINUOUS
 62
     3
 10
20376.91533
 20
17046.228802000001
 30
0.0
 11
20376.91533
 21
17040.226901999991
 31
0.0
  0
LINE
  5
36E9
  8
2-0
  6
CONTINUOUS
 62
     3
 10
20346.917705
 20
17046.228802000001
 30
0.0
 11
20376.91533
 21
17046.228802000001
 31
0.0
  0
LINE
  5
36EA
  8
2-0
  6
CONTINUOUS
 62
     3
 10
20346.917705
 20
17055.83738600001
 30
0.0
 11
20346.917705
 21
17703.141716999991
 31
0.0
  0
LINE
  5
36EB
  8
2-0
  6
CONTINUOUS
 62
     3
 10
20346.917705
 20
17760.331988000002
 30
0.0
 11
20346.917705
 21
18404.135778
 31
0.0
  0
LINE
  5
36EC
  8
2-0
  6
CONTINUOUS
 62
     3
 10
20346.917705
 20
16901.22708700001
 30
0.0
 11
20376.91533
 21
16901.22708700001
 31
0.0
  0
LINE
  5
36ED
  8
2-0
  6
CONTINUOUS
 62
     3
 10
20376.91533
 20
16901.22708700001
 30
0.0
 11
20376.91533
 21
16907.22898700001
 31
0.0
  0
LINE
  5
36EE
  8
2-0
  6
CONTINUOUS
 62
     3
 10
20434.804370999991
 20
16931.232629999991
 30
0.0
 11
20349.803843000002
 21
16931.232629999991
 31
0.0
  0
LINE
  5
36EF
  8
2-0
  6
CONTINUOUS
 62
     3
 10
20349.803843000002
 20
16931.232629999991
 30
0.0
 11
20349.803843000002
 21
16951.227747000012
 31
0.0
  0
LINE
  5
36F0
  8
2-0
  6
CONTINUOUS
 62
     3
 10
20376.91533
 20
16891.618503999998
 30
0.0
 11
20346.917705
 21
16891.618503999998
 31
0.0
  0
LINE
  5
36F1
  8
2-0
  6
CONTINUOUS
 62
     3
 10
20376.91533
 20
16909.614306999982
 30
0.0
 11
20376.91533
 21
16891.618503999998
 31
0.0
  0
LINE
  5
36F2
  8
2-0
  6
CONTINUOUS
 62
     3
 10
20351.921927999989
 20
16909.614306999982
 30
0.0
 11
20376.91533
 21
16909.614306999982
 31
0.0
  0
LINE
  5
36F3
  8
2-0
  6
CONTINUOUS
 62
     3
 10
20351.921927999989
 20
16904.614043000009
 30
0.0
 11
20351.921927999989
 21
16909.614306999982
 31
0.0
  0
LINE
  5
36F4
  8
2-0
  6
CONTINUOUS
 62
     3
 10
20358.919525999969
 20
16904.614043000009
 30
0.0
 11
20351.921927999989
 21
16904.614043000009
 31
0.0
  0
LINE
  5
36F5
  8
2-0
  6
CONTINUOUS
 62
     3
 10
20358.919525999969
 20
16200.131812499991
 30
0.0
 11
20351.921927999989
 21
16200.131812499991
 31
0.0
  0
LINE
  5
36F6
  8
2-0
  6
CONTINUOUS
 62
     3
 10
20351.921927999989
 20
16200.131812499991
 30
0.0
 11
20351.921927999989
 21
16205.13207649998
 31
0.0
  0
LINE
  5
36F7
  8
2-0
  6
CONTINUOUS
 62
     3
 10
20351.921927999989
 20
16205.13207649998
 30
0.0
 11
20376.91533
 21
16205.13207649998
 31
0.0
  0
LINE
  5
36F8
  8
2-0
  6
CONTINUOUS
 62
     3
 10
20376.91533
 20
16205.13207649998
 30
0.0
 11
20376.91533
 21
16187.130334499991
 31
0.0
  0
LINE
  5
36F9
  8
2-0
  6
CONTINUOUS
 62
     3
 10
20376.91533
 20
16187.130334499991
 30
0.0
 11
20346.917705
 21
16187.130334499991
 31
0.0
  0
LINE
  5
36FA
  8
2-0
  6
CONTINUOUS
 62
     3
 10
20376.91533
 20
16203.227779500001
 30
0.0
 11
20376.91533
 21
16197.2308285
 31
0.0
  0
LINE
  5
36FB
  8
2-0
  6
CONTINUOUS
 62
     3
 10
20376.91533
 20
16197.2308285
 30
0.0
 11
20346.917705
 21
16197.2308285
 31
0.0
  0
LINE
  5
36FC
  8
2-0
  6
CONTINUOUS
 62
     3
 10
20346.917705
 20
16197.2308285
 30
0.0
 11
20346.917705
 21
16234.2309995
 31
0.0
  0
LINE
  5
36FD
  8
2-0
  6
CONTINUOUS
 62
     3
 10
20376.91533
 20
16234.2309995
 30
0.0
 11
20346.917705
 21
16234.2309995
 31
0.0
  0
LINE
  5
36FE
  8
2-0
  6
CONTINUOUS
 62
     3
 10
20376.91533
 20
16228.228109499991
 30
0.0
 11
20376.91533
 21
16234.2309995
 31
0.0
  0
LINE
  5
36FF
  8
2-0
  6
CONTINUOUS
 62
     3
 10
20376.91533
 20
16244.3265445
 30
0.0
 11
20346.917705
 21
16244.3265445
 31
0.0
  0
LINE
  5
3700
  8
2-0
  6
CONTINUOUS
 62
     3
 10
20376.91533
 20
16226.318863500001
 30
0.0
 11
20376.91533
 21
16244.3265445
 31
0.0
  0
LINE
  5
3701
  8
2-0
  6
CONTINUOUS
 62
     3
 10
20351.921927999989
 20
16226.318863500001
 30
0.0
 11
20376.91533
 21
16226.318863500001
 31
0.0
  0
LINE
  5
3702
  8
2-0
  6
CONTINUOUS
 62
     3
 10
20351.921927999989
 20
16231.3250665
 30
0.0
 11
20351.921927999989
 21
16226.318863500001
 31
0.0
  0
LINE
  5
3703
  8
2-0
  6
CONTINUOUS
 62
     3
 10
20358.919525999969
 20
16231.3250665
 30
0.0
 11
20351.921927999989
 21
16231.3250665
 31
0.0
  0
LINE
  5
3704
  8
2-0
  6
CONTINUOUS
 62
     3
 10
20358.919525999969
 20
15530.565083
 30
0.0
 11
20351.921927999989
 21
15530.565083
 31
0.0
  0
LINE
  5
3705
  8
2-0
  6
CONTINUOUS
 62
     3
 10
20351.921927999989
 20
15530.565083
 30
0.0
 11
20351.921927999989
 21
15525.570758000011
 31
0.0
  0
LINE
  5
3706
  8
2-0
  6
CONTINUOUS
 62
     3
 10
20351.921927999989
 20
15525.570758000011
 30
0.0
 11
20376.91533
 21
15525.570758000011
 31
0.0
  0
LINE
  5
3707
  8
2-0
  6
CONTINUOUS
 62
     3
 10
20376.91533
 20
15525.570758000011
 30
0.0
 11
20376.91533
 21
15543.566561000011
 31
0.0
  0
LINE
  5
3708
  8
2-0
  6
CONTINUOUS
 62
     3
 10
20376.91533
 20
15543.566561000011
 30
0.0
 11
20346.917705
 21
15543.566561000011
 31
0.0
  0
LINE
  5
3709
  8
2-0
  6
CONTINUOUS
 62
     3
 10
20376.91533
 20
15527.469116
 30
0.0
 11
20376.91533
 21
15533.47101600001
 31
0.0
  0
LINE
  5
370A
  8
2-0
  6
CONTINUOUS
 62
     3
 10
20376.91533
 20
15533.47101600001
 30
0.0
 11
20346.917705
 21
15533.47101600001
 31
0.0
  0
LINE
  5
370B
  8
2-0
  6
CONTINUOUS
 62
     3
 10
20346.917705
 20
15496.471835
 30
0.0
 11
20346.917705
 21
15533.47101600001
 31
0.0
  0
LINE
  5
370C
  8
2-0
  6
CONTINUOUS
 62
     3
 10
20376.91533
 20
15496.471835
 30
0.0
 11
20346.917705
 21
15496.471835
 31
0.0
  0
LINE
  5
370D
  8
2-0
  6
CONTINUOUS
 62
     3
 10
20376.91533
 20
15502.468785999999
 30
0.0
 11
20376.91533
 21
15496.471835
 31
0.0
  0
LINE
  5
370E
  8
2-0
  6
CONTINUOUS
 62
     3
 10
20376.91533
 20
15486.370351
 30
0.0
 11
20346.917705
 21
15486.370351
 31
0.0
  0
LINE
  5
370F
  8
2-0
  6
CONTINUOUS
 62
     3
 10
20376.91533
 20
15504.378032000001
 30
0.0
 11
20376.91533
 21
15486.370351
 31
0.0
  0
LINE
  5
3710
  8
2-0
  6
CONTINUOUS
 62
     3
 10
20351.921927999989
 20
15504.378032000001
 30
0.0
 11
20376.91533
 21
15504.378032000001
 31
0.0
  0
LINE
  5
3711
  8
2-0
  6
CONTINUOUS
 62
     3
 10
20351.921927999989
 20
15499.377768000009
 30
0.0
 11
20351.921927999989
 21
15504.378032000001
 31
0.0
  0
LINE
  5
3712
  8
2-0
  6
CONTINUOUS
 62
     3
 10
20358.919525999969
 20
15499.377768000009
 30
0.0
 11
20351.921927999989
 21
15499.377768000009
 31
0.0
  0
LINE
  5
3713
  8
2-0
  6
CONTINUOUS
 62
     3
 10
20346.917705
 20
16891.618503999998
 30
0.0
 11
20346.917705
 21
16244.3265445
 31
0.0
  0
LINE
  5
3714
  8
2-0
  6
CONTINUOUS
 62
     3
 10
20346.917705
 20
17046.228802000001
 30
0.0
 11
20346.917705
 21
16901.22708700001
 31
0.0
  0
LINE
  5
3715
  8
2-0
  6
CONTINUOUS
 62
     3
 10
20434.804370999991
 20
17016.229198000001
 30
0.0
 11
20434.804370999991
 21
16931.232629999991
 31
0.0
  0
LINE
  5
3716
  8
2-0
  6
CONTINUOUS
 62
     3
 10
20358.919525999969
 20
14798.136761
 30
0.0
 11
20351.921927999989
 21
14798.136761
 31
0.0
  0
LINE
  5
3717
  8
2-0
  6
CONTINUOUS
 62
     3
 10
20351.921927999989
 20
14798.136761
 30
0.0
 11
20351.921927999989
 21
14803.131087000011
 31
0.0
  0
LINE
  5
3718
  8
2-0
  6
CONTINUOUS
 62
     3
 10
20351.921927999989
 20
14803.131087000011
 30
0.0
 11
20376.91533
 21
14803.131087000011
 31
0.0
  0
LINE
  5
3719
  8
2-0
  6
CONTINUOUS
 62
     3
 10
20376.91533
 20
14803.131087000011
 30
0.0
 11
20376.91533
 21
14785.135283000011
 31
0.0
  0
LINE
  5
371A
  8
2-0
  6
CONTINUOUS
 62
     3
 10
20376.91533
 20
14785.135283000011
 30
0.0
 11
20346.917705
 21
14785.135283000011
 31
0.0
  0
LINE
  5
371B
  8
2-0
  6
CONTINUOUS
 62
     3
 10
20376.91533
 20
14801.23371800001
 30
0.0
 11
20376.91533
 21
14795.230828000011
 31
0.0
  0
LINE
  5
371C
  8
2-0
  6
CONTINUOUS
 62
     3
 10
20376.91533
 20
14795.230828000011
 30
0.0
 11
20346.917705
 21
14795.230828000011
 31
0.0
  0
LINE
  5
371D
  8
2-0
  6
CONTINUOUS
 62
     3
 10
20346.917705
 20
14795.230828000011
 30
0.0
 11
20346.917705
 21
14832.231
 31
0.0
  0
LINE
  5
371E
  8
2-0
  6
CONTINUOUS
 62
     3
 10
20376.91533
 20
14832.231
 30
0.0
 11
20346.917705
 21
14832.231
 31
0.0
  0
LINE
  5
371F
  8
2-0
  6
CONTINUOUS
 62
     3
 10
20376.91533
 20
14826.234047999989
 30
0.0
 11
20376.91533
 21
14832.231
 31
0.0
  0
LINE
  5
3720
  8
2-0
  6
CONTINUOUS
 62
     3
 10
20376.91533
 20
14842.331493000011
 30
0.0
 11
20346.917705
 21
14842.331493000011
 31
0.0
  0
LINE
  5
3721
  8
2-0
  6
CONTINUOUS
 62
     3
 10
20376.91533
 20
14824.32480200001
 30
0.0
 11
20376.91533
 21
14842.331493000011
 31
0.0
  0
LINE
  5
3722
  8
2-0
  6
CONTINUOUS
 62
     3
 10
20351.921927999989
 20
14824.32480200001
 30
0.0
 11
20376.91533
 21
14824.32480200001
 31
0.0
  0
LINE
  5
3723
  8
2-0
  6
CONTINUOUS
 62
     3
 10
20351.921927999989
 20
14829.33001500001
 30
0.0
 11
20351.921927999989
 21
14824.32480200001
 31
0.0
  0
LINE
  5
3724
  8
2-0
  6
CONTINUOUS
 62
     3
 10
20358.919525999969
 20
14829.33001500001
 30
0.0
 11
20351.921927999989
 21
14829.33001500001
 31
0.0
  0
LINE
  5
3725
  8
2-0
  6
CONTINUOUS
 62
     3
 10
20376.91533
 20
14122.23284099999
 30
0.0
 11
20376.91533
 21
14128.237709999999
 31
0.0
  0
LINE
  5
3726
  8
2-0
  6
CONTINUOUS
 62
     3
 10
20376.91533
 20
14128.237709999999
 30
0.0
 11
20346.917705
 21
14128.237709999999
 31
0.0
  0
LINE
  5
3727
  8
2-0
  6
CONTINUOUS
 62
     3
 10
20346.917705
 20
14128.237709999999
 30
0.0
 11
20346.917705
 21
14013.233619000001
 31
0.0
  0
LINE
  5
3728
  8
2-0
  6
CONTINUOUS
 62
     3
 10
20346.917705
 20
14013.233619000001
 30
0.0
 11
20431.916252999989
 21
14013.233619000001
 31
0.0
  0
LINE
  5
3729
  8
2-0
  6
CONTINUOUS
 62
     3
 10
20431.916252999989
 20
14013.233619000001
 30
0.0
 11
20431.916252999989
 21
14098.229198000001
 31
0.0
  0
LINE
  5
372A
  8
2-0
  6
CONTINUOUS
 62
     3
 10
20431.916252999989
 20
14098.229198000001
 30
0.0
 11
20399.919314999988
 21
14098.229198000001
 31
0.0
  0
LINE
  5
372B
  8
2-0
  6
CONTINUOUS
 62
     3
 10
20358.919525999969
 20
14125.267443000001
 30
0.0
 11
20351.921927999989
 21
14125.267443000001
 31
0.0
  0
LINE
  5
372C
  8
2-0
  6
CONTINUOUS
 62
     3
 10
20351.921927999989
 20
14125.267443000001
 30
0.0
 11
20351.921927999989
 21
14120.270147999971
 31
0.0
  0
LINE
  5
372D
  8
2-0
  6
CONTINUOUS
 62
     3
 10
20351.921927999989
 20
14120.270147999971
 30
0.0
 11
20376.91533
 21
14120.270147999971
 31
0.0
  0
LINE
  5
372E
  8
2-0
  6
CONTINUOUS
 62
     3
 10
20376.91533
 20
14120.270147999971
 30
0.0
 11
20376.91533
 21
14138.268921000001
 31
0.0
  0
LINE
  5
372F
  8
2-0
  6
CONTINUOUS
 62
     3
 10
20376.91533
 20
14138.268921000001
 30
0.0
 11
20346.917705
 21
14138.268921000001
 31
0.0
  0
LINE
  5
3730
  8
2-0
  6
CONTINUOUS
 62
     3
 10
20346.917705
 20
14842.331493000011
 30
0.0
 11
20346.917705
 21
15486.370351
 31
0.0
  0
LINE
  5
3731
  8
2-0
  6
CONTINUOUS
 62
     3
 10
20346.917705
 20
18461.32605
 30
0.0
 11
20346.917705
 21
19105.136767499989
 31
0.0
  0
LINE
  5
3732
  8
2-0
  6
CONTINUOUS
 62
     3
 10
20346.917705
 20
16187.130334499991
 30
0.0
 11
20346.917705
 21
15543.566561000011
 31
0.0
  0
LINE
  5
3733
  8
2-0
  6
CONTINUOUS
 62
     3
 10
24865.912294000002
 20
19819.23302600002
 30
0.0
 11
24865.912294000002
 21
19934.229199000009
 31
0.0
  0
LINE
  5
3734
  8
2-0
  6
CENTER2
 62
     6
 10
19059.959432999989
 20
19891.730914
 30
0.0
 11
25715.913614000001
 21
19891.730914
 31
0.0
  0
LINE
  5
3735
  8
2-0
  6
CENTER2
 62
     6
 10
19059.959432999989
 20
16973.730914
 30
0.0
 11
25715.913614000001
 21
16973.730914
 31
0.0
  0
LINE
  5
3736
  8
2-0
  6
CENTER2
 62
     6
 10
19059.959432999989
 20
14055.730913999991
 30
0.0
 11
25715.913614000001
 21
14055.730913999991
 31
0.0
  0
LINE
  5
3737
  8
2-0
  6
CONTINUOUS
 62
     3
 10
20812.505688000008
 20
19922.229357000011
 30
0.0
 11
20812.505688000008
 21
19929.234873000001
 31
0.0
  0
LINE
  5
3738
  8
2-0
  6
CONTINUOUS
 62
     3
 10
20812.505688000008
 20
19929.234873000001
 30
0.0
 11
20807.50542400001
 21
19929.234873000001
 31
0.0
  0
LINE
  5
3739
  8
2-0
  6
CONTINUOUS
 62
     3
 10
20807.50542400001
 20
19929.234873000001
 30
0.0
 11
20807.50542400001
 21
19904.22563600001
 31
0.0
  0
LINE
  5
373A
  8
2-0
  6
CONTINUOUS
 62
     3
 10
20807.50542400001
 20
19904.22563600001
 30
0.0
 11
20825.50716600001
 21
19904.22563600001
 31
0.0
  0
LINE
  5
373B
  8
2-0
  6
CONTINUOUS
 62
     3
 10
20825.50716600001
 20
19904.22563600001
 30
0.0
 11
20825.50716600001
 21
19934.229199000009
 31
0.0
  0
LINE
  5
373C
  8
2-0
  6
CONTINUOUS
 62
     3
 10
20809.40774100001
 20
19904.22563600001
 30
0.0
 11
20815.411620999999
 21
19904.22563600001
 31
0.0
  0
LINE
  5
373D
  8
2-0
  6
CONTINUOUS
 62
     3
 10
20815.411620999999
 20
19904.22563600001
 30
0.0
 11
20815.411620999999
 21
19934.229199000009
 31
0.0
  0
LINE
  5
373E
  8
2-0
  6
CONTINUOUS
 62
     3
 10
20778.416398999991
 20
19934.229199000009
 30
0.0
 11
20815.411620999999
 21
19934.229199000009
 31
0.0
  0
LINE
  5
373F
  8
2-0
  6
CONTINUOUS
 62
     3
 10
20778.416398999991
 20
19904.22563600001
 30
0.0
 11
20778.416398999991
 21
19934.229199000009
 31
0.0
  0
LINE
  5
3740
  8
2-0
  6
CONTINUOUS
 62
     3
 10
20784.410381000009
 20
19904.22563600001
 30
0.0
 11
20778.416398999991
 21
19904.22563600001
 31
0.0
  0
LINE
  5
3741
  8
2-0
  6
CONTINUOUS
 62
     3
 10
20768.320854000001
 20
19904.22563600001
 30
0.0
 11
20768.320854000001
 21
19934.229199000009
 31
0.0
  0
LINE
  5
3742
  8
2-0
  6
CONTINUOUS
 62
     3
 10
20786.31665700001
 20
19904.22563600001
 30
0.0
 11
20768.320854000001
 21
19904.22563600001
 31
0.0
  0
LINE
  5
3743
  8
2-0
  6
CONTINUOUS
 62
     3
 10
20786.31665700001
 20
19929.234873000001
 30
0.0
 11
20786.31665700001
 21
19904.22563600001
 31
0.0
  0
LINE
  5
3744
  8
2-0
  6
CONTINUOUS
 62
     3
 10
20781.318372999998
 20
19929.234873000001
 30
0.0
 11
20786.31665700001
 21
19929.234873000001
 31
0.0
  0
LINE
  5
3745
  8
2-0
  6
CONTINUOUS
 62
     3
 10
20781.318372999998
 20
19922.229357000011
 30
0.0
 11
20781.318372999998
 21
19929.234873000001
 31
0.0
  0
LINE
  5
3746
  8
2-0
  6
CONTINUOUS
 62
     3
 10
20472.21925200001
 20
19934.229199000009
 30
0.0
 11
20768.320854000001
 21
19934.229199000009
 31
0.0
  0
LINE
  5
3747
  8
2-0
  6
CONTINUOUS
 62
     3
 10
20346.917705
 20
19849.23263000001
 30
0.0
 11
24784.910393999991
 21
19849.23263000001
 31
0.0
  0
LINE
  5
3748
  8
2-0
  6
CONTINUOUS
 62
     3
 10
20346.917705
 20
14138.268921000001
 30
0.0
 11
20346.917705
 21
14785.135283000011
 31
0.0
  0
LINE
  5
3749
  8
2-0
  6
CENTER2
 62
     6
 10
20389.41401
 20
21134.229199000009
 30
0.0
 11
20389.41401
 21
13429.967479999999
 31
0.0
  0
LINE
  5
374A
  8
2-0
  6
CENTER2
 62
     6
 10
24823.41401
 20
21134.229199000009
 30
0.0
 11
24823.41401
 21
13429.967479999999
 31
0.0
  0
LINE
  5
374B
  8
2-0
  6
CONTINUOUS
 62
     3
 10
24865.912294000002
 20
19808.935570000001
 30
0.0
 11
24865.912294000002
 21
19162.327039499982
 31
0.0
  0
LINE
  5
374C
  8
2-0
  6
CONTINUOUS
 62
     3
 10
20346.917705
 20
19808.935570000001
 30
0.0
 11
20346.917705
 21
19162.327039499982
 31
0.0
  0
LINE
  5
374D
  8
2-0
  6
CENTER2
 62
     6
 10
22956.91401
 20
21134.229199000009
 30
0.0
 11
22956.91401
 21
13864.32631299999
 31
0.0
  0
LINE
  5
374E
  8
2-0
  6
CONTINUOUS
 62
     3
 10
20427.915646000001
 20
14098.229198000001
 30
0.0
 11
20427.915646000001
 21
19934.229199000009
 31
0.0
  0
LINE
  5
374F
  8
2-0
  6
CONTINUOUS
 62
     3
 10
24784.910393999991
 20
14098.229198000001
 30
0.0
 11
24784.910393999991
 21
19934.229199000009
 31
0.0
  0
CIRCLE
  5
3750
  8
2-0
  6
CONTINUOUS
 62
     4
 10
18859.961742999989
 20
19891.730914
 30
0.0
 40
200.00001
  0
CIRCLE
  5
3751
  8
2-0
  6
CONTINUOUS
 62
     4
 10
18859.961742999989
 20
16973.730914
 30
0.0
 40
200.00001
  0
CIRCLE
  5
3752
  8
2-0
  6
CONTINUOUS
 62
     4
 10
18859.961742999989
 20
14055.730913999991
 30
0.0
 40
200.00001
  0
CIRCLE
  5
3753
  8
2-0
  6
CONTINUOUS
 62
     4
 10
22956.91401
 20
21334.233818000012
 30
0.0
 40
200.00001
  0
CIRCLE
  5
3754
  8
2-0
  6
CONTINUOUS
 62
     4
 10
20389.41401
 20
21334.233818000012
 30
0.0
 40
200.00001
  0
TEXT
  5
3755
  8
2-0
  6
CONTINUOUS
 62
     7
 10
23220.259316999978
 20
13495.732035999999
 30
0.0
 40
160.0
  1
前柱（右）
 50
0.000213
 72
     4
 11
23636.25901959301
 21
13575.73358250079
 31
0.0
  0
TEXT
  5
3756
  8
2-0
  6
CONTINUOUS
 62
     7
 10
23424.854439999981
 20
16424.22405200002
 30
0.0
 40
160.0
  1
壁パネル
 50
359.99982299999999
 72
     4
 11
23787.521353803539
 21
16504.222931637891
 31
0.0
  0
TEXT
  5
3757
  8
2-0
  6
CONTINUOUS
 62
     7
 10
23144.851535999998
 20
17261.411948000012
 30
0.0
 40
160.0
  1
中柱（左右）
 50
0.000354
 72
     4
 11
23662.18437504621
 21
17341.415144324659
 31
0.0
  0
TEXT
  5
3758
  8
2-0
  6
CONTINUOUS
 62
     7
 10
23824.853779999979
 20
14468.773302
 30
0.0
 40
160.0
  1
下枠
 50
0.001063
 72
     4
 11
23995.518962409282
 21
14548.776468339291
 31
0.0
  0
TEXT
  5
3759
  8
2-0
  6
CONTINUOUS
 62
     7
 10
23319.819203999999
 20
18864.680686499989
 30
0.0
 40
160.0
  1
間柱（側）
 72
     4
 11
23741.152537333332
 21
18944.680686499989
 31
0.0
  0
TEXT
  5
375A
  8
2-0
  6
CONTINUOUS
 62
     7
 10
25638.409522999998
 20
20744.228406999999
 30
0.0
 40
160.0
  1
後柱（左右）
 50
0.000354
 72
     4
 11
26150.409028712991
 21
20824.231570372842
 31
0.0
  0
TEXT
  5
375B
  8
2-0
  6
CONTINUOUS
 62
     7
 10
18811.962375999981
 20
19797.250472000022
 30
0.0
 40
160.0
  1
C
 72
     4
 11
18865.295709333321
 21
19877.250472000022
 31
0.0
  0
TEXT
  5
375C
  8
2-0
  6
CONTINUOUS
 62
     7
 10
18812.183091999981
 20
16903.336832000019
 30
0.0
 40
160.0
  1
B
 72
     4
 11
18865.516425333321
 21
16983.336832000019
 31
0.0
  0
TEXT
  5
375D
  8
2-0
  6
CONTINUOUS
 62
     7
 10
18812.225652000008
 20
13967.12370299999
 30
0.0
 40
160.0
  1
A
 72
     4
 11
18865.55898533334
 21
14047.12370299999
 31
0.0
  0
TEXT
  5
375E
  8
2-0
  6
CONTINUOUS
 62
     7
 10
22905.282227
 20
21238.708189000012
 30
0.0
 40
160.0
  1
2
 72
     4
 11
22958.615560333332
 21
21318.708189000012
 31
0.0
  0
TEXT
  5
375F
  8
2-0
  6
CONTINUOUS
 62
     7
 10
20345.207400999981
 20
21245.466266000029
 30
0.0
 40
160.0
  1
1
 72
     4
 11
20371.874067666649
 21
21325.466266000029
 31
0.0
  0
LINE
  5
3760
  8
2-0
  6
CONTINUOUS
 62
     3
 10
24083.91459099999
 20
19934.229199000009
 30
0.0
 11
24046.913429
 21
19934.229199000009
 31
0.0
  0
LINE
  5
3761
  8
2-0
  6
CONTINUOUS
 62
     3
 10
24083.91459099999
 20
19904.22563600001
 30
0.0
 11
24083.91459099999
 21
19934.229199000009
 31
0.0
  0
LINE
  5
3762
  8
2-0
  6
CONTINUOUS
 62
     3
 10
24077.914669999991
 20
19904.22563600001
 30
0.0
 11
24083.91459099999
 21
19904.22563600001
 31
0.0
  0
LINE
  5
3763
  8
2-0
  6
CONTINUOUS
 62
     3
 10
24094.012115000001
 20
19904.22563600001
 30
0.0
 11
24094.012115000001
 21
19934.229199000009
 31
0.0
  0
LINE
  5
3764
  8
2-0
  6
CONTINUOUS
 62
     3
 10
24076.008394
 20
19904.22563600001
 30
0.0
 11
24094.012115000001
 21
19904.22563600001
 31
0.0
  0
LINE
  5
3765
  8
2-0
  6
CONTINUOUS
 62
     3
 10
24076.008394
 20
19929.234873000001
 30
0.0
 11
24076.008394
 21
19904.22563600001
 31
0.0
  0
LINE
  5
3766
  8
2-0
  6
CONTINUOUS
 62
     3
 10
24081.008657999992
 20
19929.234873000001
 30
0.0
 11
24076.008394
 21
19929.234873000001
 31
0.0
  0
LINE
  5
3767
  8
2-0
  6
CONTINUOUS
 62
     3
 10
24081.008657999992
 20
19922.229357000011
 30
0.0
 11
24081.008657999992
 21
19929.234873000001
 31
0.0
  0
LINE
  5
3768
  8
2-0
  6
CONTINUOUS
 62
     3
 10
24049.819362999991
 20
19922.229357000011
 30
0.0
 11
24049.819362999991
 21
19929.234873000001
 31
0.0
  0
LINE
  5
3769
  8
2-0
  6
CONTINUOUS
 62
     3
 10
24049.819362999991
 20
19929.234873000001
 30
0.0
 11
24054.819627000001
 21
19929.234873000001
 31
0.0
  0
LINE
  5
376A
  8
2-0
  6
CONTINUOUS
 62
     3
 10
24054.819627000001
 20
19929.234873000001
 30
0.0
 11
24054.819627000001
 21
19904.22563600001
 31
0.0
  0
LINE
  5
376B
  8
2-0
  6
CONTINUOUS
 62
     3
 10
24054.819627000001
 20
19904.22563600001
 30
0.0
 11
24036.819864000001
 21
19904.22563600001
 31
0.0
  0
LINE
  5
376C
  8
2-0
  6
CONTINUOUS
 62
     3
 10
24036.819864000001
 20
19904.22563600001
 30
0.0
 11
24036.819864000001
 21
19934.229199000009
 31
0.0
  0
LINE
  5
376D
  8
2-0
  6
CONTINUOUS
 62
     3
 10
24052.913349999992
 20
19904.22563600001
 30
0.0
 11
24046.913429
 21
19904.22563600001
 31
0.0
  0
LINE
  5
376E
  8
2-0
  6
CONTINUOUS
 62
     3
 10
24046.913429
 20
19904.22563600001
 30
0.0
 11
24046.913429
 21
19934.229199000009
 31
0.0
  0
LINE
  5
376F
  8
2-0
  6
CONTINUOUS
 62
     3
 10
24081.0037085
 20
19922.229357000011
 30
0.0
 11
24081.0037085
 21
19929.234873000001
 31
0.0
  0
LINE
  5
3770
  8
2-0
  6
CONTINUOUS
 62
     3
 10
24081.0037085
 20
19929.234873000001
 30
0.0
 11
24076.003444499998
 21
19929.234873000001
 31
0.0
  0
LINE
  5
3771
  8
2-0
  6
CONTINUOUS
 62
     3
 10
24076.003444499998
 20
19929.234873000001
 30
0.0
 11
24076.003444499998
 21
19904.22563600001
 31
0.0
  0
LINE
  5
3772
  8
2-0
  6
CONTINUOUS
 62
     3
 10
24076.003444499998
 20
19904.22563600001
 30
0.0
 11
24094.009145499989
 21
19904.22563600001
 31
0.0
  0
LINE
  5
3773
  8
2-0
  6
CONTINUOUS
 62
     3
 10
24094.009145499989
 20
19904.22563600001
 30
0.0
 11
24094.009145499989
 21
19934.229199000009
 31
0.0
  0
LINE
  5
3774
  8
2-0
  6
CONTINUOUS
 62
     3
 10
24077.911700499979
 20
19904.22563600001
 30
0.0
 11
24083.913600499989
 21
19904.22563600001
 31
0.0
  0
LINE
  5
3775
  8
2-0
  6
CONTINUOUS
 62
     3
 10
24083.913600499989
 20
19904.22563600001
 30
0.0
 11
24083.913600499989
 21
19934.229199000009
 31
0.0
  0
LINE
  5
3776
  8
2-0
  6
CONTINUOUS
 62
     3
 10
24046.914419499979
 20
19934.229199000009
 30
0.0
 11
24083.913600499989
 21
19934.229199000009
 31
0.0
  0
LINE
  5
3777
  8
2-0
  6
CONTINUOUS
 62
     3
 10
24046.914419499979
 20
19904.22563600001
 30
0.0
 11
24046.914419499979
 21
19934.229199000009
 31
0.0
  0
LINE
  5
3778
  8
2-0
  6
CONTINUOUS
 62
     3
 10
24052.908401500001
 20
19904.22563600001
 30
0.0
 11
24046.914419499979
 21
19904.22563600001
 31
0.0
  0
LINE
  5
3779
  8
2-0
  6
CONTINUOUS
 62
     3
 10
24036.818874500001
 20
19904.22563600001
 30
0.0
 11
24036.818874500001
 21
19934.229199000009
 31
0.0
  0
LINE
  5
377A
  8
2-0
  6
CONTINUOUS
 62
     3
 10
24054.814677499999
 20
19904.22563600001
 30
0.0
 11
24036.818874500001
 21
19904.22563600001
 31
0.0
  0
LINE
  5
377B
  8
2-0
  6
CONTINUOUS
 62
     3
 10
24054.814677499999
 20
19929.234873000001
 30
0.0
 11
24054.814677499999
 21
19904.22563600001
 31
0.0
  0
LINE
  5
377C
  8
2-0
  6
CONTINUOUS
 62
     3
 10
24049.8144135
 20
19929.234873000001
 30
0.0
 11
24054.814677499999
 21
19929.234873000001
 31
0.0
  0
LINE
  5
377D
  8
2-0
  6
CONTINUOUS
 62
     3
 10
24049.8144135
 20
19922.229357000011
 30
0.0
 11
24049.8144135
 21
19929.234873000001
 31
0.0
  0
LINE
  5
377E
  8
2-0
  6
CONTINUOUS
 62
     3
 10
23393.213036000008
 20
19934.229199000009
 30
0.0
 11
24036.818874500001
 21
19934.229199000009
 31
0.0
  0
LINE
  5
377F
  8
2-0
  6
CONTINUOUS
 62
     3
 10
24741.297640000001
 20
19934.229199000009
 30
0.0
 11
24094.012115000001
 21
19934.229199000009
 31
0.0
  0
LINE
  5
3780
  8
2-0
  6
CONTINUOUS
 62
     3
 10
24036.819864000001
 20
19934.229199000009
 30
0.0
 11
24094.009145499989
 21
19934.22919900003
 31
0.0
  0
LINE
  5
3781
  8
2-0
  6
CONTINUOUS
 62
     3
 10
23380.005688000001
 20
19922.229357000011
 30
0.0
 11
23380.005688000001
 21
19929.234873000001
 31
0.0
  0
LINE
  5
3782
  8
2-0
  6
CONTINUOUS
 62
     3
 10
23380.005688000001
 20
19929.234873000001
 30
0.0
 11
23375.005423999992
 21
19929.234873000001
 31
0.0
  0
LINE
  5
3783
  8
2-0
  6
CONTINUOUS
 62
     3
 10
23375.005423999992
 20
19929.234873000001
 30
0.0
 11
23375.005423999992
 21
19904.22563600001
 31
0.0
  0
LINE
  5
3784
  8
2-0
  6
CONTINUOUS
 62
     3
 10
23375.005423999992
 20
19904.22563600001
 30
0.0
 11
23393.00716600001
 21
19904.22563600001
 31
0.0
  0
LINE
  5
3785
  8
2-0
  6
CONTINUOUS
 62
     3
 10
23393.00716600001
 20
19904.22563600001
 30
0.0
 11
23393.00716600001
 21
19934.229199000009
 31
0.0
  0
LINE
  5
3786
  8
2-0
  6
CONTINUOUS
 62
     3
 10
23376.90774100001
 20
19904.22563600001
 30
0.0
 11
23382.911620999988
 21
19904.22563600001
 31
0.0
  0
LINE
  5
3787
  8
2-0
  6
CONTINUOUS
 62
     3
 10
23382.911620999988
 20
19904.22563600001
 30
0.0
 11
23382.911620999988
 21
19934.229199000009
 31
0.0
  0
LINE
  5
3788
  8
2-0
  6
CONTINUOUS
 62
     3
 10
23345.916399000002
 20
19934.229199000009
 30
0.0
 11
23382.911620999988
 21
19934.229199000009
 31
0.0
  0
LINE
  5
3789
  8
2-0
  6
CONTINUOUS
 62
     3
 10
23345.916399000002
 20
19904.22563600001
 30
0.0
 11
23345.916399000002
 21
19934.229199000009
 31
0.0
  0
LINE
  5
378A
  8
2-0
  6
CONTINUOUS
 62
     3
 10
23351.910381000002
 20
19904.22563600001
 30
0.0
 11
23345.916399000002
 21
19904.22563600001
 31
0.0
  0
LINE
  5
378B
  8
2-0
  6
CONTINUOUS
 62
     3
 10
23335.820854000009
 20
19904.22563600001
 30
0.0
 11
23335.820854000009
 21
19934.229199000009
 31
0.0
  0
LINE
  5
378C
  8
2-0
  6
CONTINUOUS
 62
     3
 10
23353.81665700001
 20
19904.22563600001
 30
0.0
 11
23335.820854000009
 21
19904.22563600001
 31
0.0
  0
LINE
  5
378D
  8
2-0
  6
CONTINUOUS
 62
     3
 10
23353.81665700001
 20
19929.234873000001
 30
0.0
 11
23353.81665700001
 21
19904.22563600001
 31
0.0
  0
LINE
  5
378E
  8
2-0
  6
CONTINUOUS
 62
     3
 10
23348.818373000009
 20
19929.234873000001
 30
0.0
 11
23353.81665700001
 21
19929.234873000001
 31
0.0
  0
LINE
  5
378F
  8
2-0
  6
CONTINUOUS
 62
     3
 10
23348.818373000009
 20
19922.229357000011
 30
0.0
 11
23348.818373000009
 21
19929.234873000001
 31
0.0
  0
LINE
  5
3790
  8
2-0
  6
CONTINUOUS
 62
     3
 10
23039.719251999992
 20
19934.229199000009
 30
0.0
 11
23335.820854000009
 21
19934.229199000009
 31
0.0
  0
LINE
  5
3791
  8
2-0
  6
CONTINUOUS
 62
     3
 10
22875.486513000011
 20
19934.229199000009
 30
0.0
 11
22227.512115000001
 21
19934.229199000009
 31
0.0
  0
LINE
  5
3792
  8
2-0
  6
CONTINUOUS
 62
     3
 10
24865.912294000002
 20
15486.370351
 30
0.0
 11
24865.912294000002
 21
14842.331493000011
 31
0.0
  0
LINE
  5
3793
  8
2-0
  6
CONTINUOUS
 62
     3
 10
24865.912294000002
 20
14785.135283
 30
0.0
 11
24865.912294000002
 21
14138.268921000001
 31
0.0
  0
CIRCLE
  5
3794
  8
2-0
  6
CONTINUOUS
 62
     4
 10
24823.41401
 20
21334.233818000012
 30
0.0
 40
200.00001
  0
TEXT
  5
3795
  8
2-0
  6
CONTINUOUS
 62
     7
 10
24771.782227
 20
21238.708189000012
 30
0.0
 40
160.0
  1
3
 72
     4
 11
24825.115560333332
 21
21318.708189000012
 31
0.0
  0
LINE
  5
37A0
  8
0-1
  6
CONTINUOUS
 62
     3
 10
24873.41466899998
 20
6356.3198969999958
 30
0.0
 11
24773.415327999988
 21
6356.3198969999958
 31
0.0
  0
LINE
  5
37A1
  8
0-1
  6
CONTINUOUS
 62
     3
 10
24773.415327999988
 20
6356.3198969999958
 30
0.0
 11
24773.415327999988
 21
6256.3200619999989
 31
0.0
  0
LINE
  5
37A2
  8
0-1
  6
CONTINUOUS
 62
     3
 10
24873.41466899998
 20
6256.3200619999989
 30
0.0
 11
24873.41466899998
 21
6356.3198969999958
 31
0.0
  0
LINE
  5
37A3
  8
0-1
  6
CONTINUOUS
 62
     3
 10
24845.915195999991
 20
8704.8202459999975
 30
0.0
 11
24845.915195999991
 21
6356.3198969999958
 31
0.0
  0
LINE
  5
37A4
  8
0-1
  6
CONTINUOUS
 62
     3
 10
24865.914272999991
 20
8574.8193229999979
 30
0.0
 11
24865.914272999991
 21
6356.3198969999958
 31
0.0
  0
LINE
  5
37A5
  8
0-1
  6
CONTINUOUS
 62
     3
 10
24735.91532799997
 20
8264.3199559999957
 30
0.0
 11
24735.91532799997
 21
6256.3200619999989
 31
0.0
  0
LINE
  5
37A6
  8
0-1
  6
CONTINUOUS
 62
     3
 10
24780.91572399998
 20
8574.8193229999979
 30
0.0
 11
24780.91572399998
 21
6356.3198969999958
 31
0.0
  0
LINE
  5
37AF
  8
0-1
  6
CONTINUOUS
 62
     3
 10
22999.412293000001
 20
8574.8193229999979
 30
0.0
 11
22999.412293000001
 21
6256.3200619999989
 31
0.0
  0
LINE
  5
37B0
  8
0-1
  6
CONTINUOUS
 62
     3
 10
23044.412689000012
 20
8264.3199559999957
 30
0.0
 11
23044.412689000012
 21
6256.3200619999989
 31
0.0
  0
LINE
  5
37B3
  8
0-1
  6
CONTINUOUS
 62
     3
 10
23044.412689000012
 20
8195.7796199999975
 30
0.0
 11
24735.91532799997
 21
8195.7796199999975
 31
0.0
  0
LINE
  5
37B4
  8
0-1
  6
CONTINUOUS
 62
     3
 10
23044.412689000012
 20
6841.3207549999979
 30
0.0
 11
24735.91532799997
 21
6841.3207549999979
 31
0.0
  0
LINE
  5
37B5
  8
0-1
  6
CONTINUOUS
 62
     3
 10
23044.412689000012
 20
6906.319731999999
 30
0.0
 11
24735.91532799997
 21
6906.319731999999
 31
0.0
  0
LINE
  5
37B6
  8
0-1
  6
CONTINUOUS
 62
     3
 10
23044.412689000012
 20
6971.3201939999963
 30
0.0
 11
24735.91532799997
 21
6971.3201939999963
 31
0.0
  0
LINE
  5
37B7
  8
0-1
  6
CONTINUOUS
 62
     3
 10
23044.412689000012
 20
7036.3201609999978
 30
0.0
 11
24735.91532799997
 21
7036.3201609999978
 31
0.0
  0
LINE
  5
37B8
  8
0-1
  6
CONTINUOUS
 62
     3
 10
23044.412689000012
 20
7101.3201279999967
 30
0.0
 11
24735.91532799997
 21
7101.3201279999967
 31
0.0
  0
LINE
  5
37B9
  8
0-1
  6
CONTINUOUS
 62
     3
 10
23044.412689000012
 20
7166.3200949999973
 30
0.0
 11
24735.91532799997
 21
7166.3200949999973
 31
0.0
  0
LINE
  5
37BA
  8
0-1
  6
CONTINUOUS
 62
     3
 10
23044.412689000012
 20
7231.320557
 30
0.0
 11
24735.91532799997
 21
7231.320557
 31
0.0
  0
LINE
  5
37BB
  8
0-1
  6
CONTINUOUS
 62
     3
 10
23044.412689000012
 20
7296.3195339999966
 30
0.0
 11
24735.91532799997
 21
7296.3195339999966
 31
0.0
  0
LINE
  5
37BC
  8
0-1
  6
CONTINUOUS
 62
     3
 10
23044.412689000012
 20
7361.3199959999947
 30
0.0
 11
24735.91532799997
 21
7361.3199959999947
 31
0.0
  0
LINE
  5
37BD
  8
0-1
  6
CONTINUOUS
 62
     3
 10
23044.412689000012
 20
7426.3199629999917
 30
0.0
 11
24735.91532799997
 21
7426.3199629999917
 31
0.0
  0
LINE
  5
37BE
  8
0-1
  6
CONTINUOUS
 62
     3
 10
23044.412689000012
 20
7491.3204249999953
 30
0.0
 11
24735.91532799997
 21
7491.3204249999953
 31
0.0
  0
LINE
  5
37BF
  8
0-1
  6
CONTINUOUS
 62
     3
 10
23044.412689000012
 20
7556.3194019999974
 30
0.0
 11
24735.91532799997
 21
7556.3194019999974
 31
0.0
  0
LINE
  5
37C0
  8
0-1
  6
CONTINUOUS
 62
     3
 10
23044.412689000012
 20
7621.3198639999973
 30
0.0
 11
24735.91532799997
 21
7621.3198639999973
 31
0.0
  0
LINE
  5
37C1
  8
0-1
  6
CONTINUOUS
 62
     3
 10
23044.412689000012
 20
7686.319830999998
 30
0.0
 11
24735.91532799997
 21
7686.319830999998
 31
0.0
  0
LINE
  5
37C2
  8
0-1
  6
CONTINUOUS
 62
     3
 10
23044.412689000012
 20
7751.3197979999968
 30
0.0
 11
24735.91532799997
 21
7751.3197979999968
 31
0.0
  0
LINE
  5
37C3
  8
0-1
  6
CONTINUOUS
 62
     3
 10
23044.412689000012
 20
7816.3202600000022
 30
0.0
 11
24735.91532799997
 21
7816.3202600000022
 31
0.0
  0
LINE
  5
37C4
  8
0-1
  6
CONTINUOUS
 62
     3
 10
23044.412689000012
 20
7881.3202269999929
 30
0.0
 11
24735.91532799997
 21
7881.3202269999929
 31
0.0
  0
LINE
  5
37C5
  8
0-1
  6
CONTINUOUS
 62
     3
 10
23044.412689000012
 20
7946.3206889999929
 30
0.0
 11
24735.91532799997
 21
7946.3206889999929
 31
0.0
  0
LINE
  5
37C6
  8
0-1
  6
CONTINUOUS
 62
     3
 10
23044.412689000012
 20
8011.3196659999958
 30
0.0
 11
24735.91532799997
 21
8011.3196659999958
 31
0.0
  0
LINE
  5
37C7
  8
0-1
  6
CONTINUOUS
 62
     3
 10
23044.412689000012
 20
8076.3201279999967
 30
0.0
 11
24735.91532799997
 21
8076.3201279999967
 31
0.0
  0
LINE
  5
37C8
  8
0-1
  6
CONTINUOUS
 62
     3
 10
23044.412689000012
 20
8141.3200949999973
 30
0.0
 11
24735.91532799997
 21
8141.3200949999973
 31
0.0
  0
LINE
  5
37C9
  8
0-1
  6
CONTINUOUS
 62
     3
 10
23044.412689000012
 20
6321.3195339999966
 30
0.0
 11
24735.91532799997
 21
6321.3195339999966
 31
0.0
  0
LINE
  5
37CA
  8
0-1
  6
CONTINUOUS
 62
     3
 10
23044.412689000012
 20
6386.3204909999977
 30
0.0
 11
24735.91532799997
 21
6386.3204909999977
 31
0.0
  0
LINE
  5
37CB
  8
0-1
  6
CONTINUOUS
 62
     3
 10
23044.412689000012
 20
6451.3194679999979
 30
0.0
 11
24735.91532799997
 21
6451.3194679999979
 31
0.0
  0
LINE
  5
37CC
  8
0-1
  6
CONTINUOUS
 62
     3
 10
23044.412689000012
 20
6516.3204249999962
 30
0.0
 11
24735.91532799997
 21
6516.3204249999962
 31
0.0
  0
LINE
  5
37CD
  8
0-1
  6
CONTINUOUS
 62
     3
 10
23044.412689000012
 20
6581.3198969999967
 30
0.0
 11
24735.91532799997
 21
6581.3198969999967
 31
0.0
  0
LINE
  5
37CE
  8
0-1
  6
CONTINUOUS
 62
     3
 10
23044.412689000012
 20
6646.3198639999973
 30
0.0
 11
24735.91532799997
 21
6646.3198639999973
 31
0.0
  0
LINE
  5
37CF
  8
0-1
  6
CONTINUOUS
 62
     3
 10
23044.412689000012
 20
6711.3198309999989
 30
0.0
 11
24735.91532799997
 21
6711.3198309999989
 31
0.0
  0
LINE
  5
37D0
  8
0-1
  6
CONTINUOUS
 62
     3
 10
23044.412689000012
 20
6776.3193029999984
 30
0.0
 11
24735.91532799997
 21
6776.3193029999984
 31
0.0
  0
LINE
  5
37D2
  8
0-1
  6
CONTINUOUS
 62
     3
 10
22999.412293000001
 20
8264.3199559999957
 30
0.0
 11
24780.91572399998
 21
8264.3199559999957
 31
0.0
  0
LINE
  5
37D3
  8
0-1
  6
CONTINUOUS
 62
     3
 10
20339.413349999999
 20
6256.3200619999989
 30
0.0
 11
24873.41466899998
 21
6256.3200619999989
 31
0.0
  0
LINE
  5
37DD
  8
0-1
  6
CONTINUOUS
 62
     3
 10
22914.413744999969
 20
8574.8193229999979
 30
0.0
 11
22914.413744999969
 21
6256.3200619999989
 31
0.0
  0
LINE
  5
37DE
  8
0-1
  6
CONTINUOUS
 62
     3
 10
22869.41532899997
 20
8264.3199559999957
 30
0.0
 11
22869.41532899997
 21
6256.3200619999989
 31
0.0
  0
LINE
  5
37E9
  8
0-1
  6
CONTINUOUS
 62
     3
 10
20439.414668999991
 20
6356.3198969999958
 30
0.0
 11
20439.414668999991
 21
6256.3200619999989
 31
0.0
  0
LINE
  5
37EA
  8
0-1
  6
CONTINUOUS
 62
     3
 10
20339.413349999999
 20
6256.3200619999989
 30
0.0
 11
20339.413349999999
 21
6356.3198969999958
 31
0.0
  0
LINE
  5
37EB
  8
0-1
  6
CONTINUOUS
 62
     3
 10
20339.413349999999
 20
6356.3198969999958
 30
0.0
 11
20439.414668999991
 21
6356.3198969999958
 31
0.0
  0
LINE
  5
37EC
  8
0-1
  6
CONTINUOUS
 62
     3
 10
20476.914668999991
 20
8264.3199559999957
 30
0.0
 11
20476.914668999991
 21
6256.3200619999989
 31
0.0
  0
LINE
  5
37ED
  8
0-1
  6
CONTINUOUS
 62
     3
 10
20431.912294000002
 20
8574.8193229999979
 30
0.0
 11
20431.912294000002
 21
6356.3198969999958
 31
0.0
  0
LINE
  5
37EE
  8
0-1
  6
CONTINUOUS
 62
     3
 10
20366.914800999992
 20
8704.8202459999975
 30
0.0
 11
20366.914800999992
 21
6356.3198969999958
 31
0.0
  0
LINE
  5
37EF
  8
0-1
  6
CONTINUOUS
 62
     3
 10
20346.91176599999
 20
8574.8193229999979
 30
0.0
 11
20346.91176599999
 21
6356.3198969999958
 31
0.0
  0
LINE
  5
37F0
  8
0-1
  6
CONTINUOUS
 62
     3
 10
20431.912294000002
 20
8264.3199559999957
 30
0.0
 11
22914.413744999969
 21
8264.3199559999957
 31
0.0
  0
LINE
  5
37F2
  8
0-1
  6
CONTINUOUS
 62
     3
 10
20476.914668999991
 20
6776.3193029999984
 30
0.0
 11
22869.41532899997
 21
6776.3193029999984
 31
0.0
  0
LINE
  5
37F3
  8
0-1
  6
CONTINUOUS
 62
     3
 10
20476.914668999991
 20
6711.3198309999989
 30
0.0
 11
22869.41532899997
 21
6711.3198309999989
 31
0.0
  0
LINE
  5
37F4
  8
0-1
  6
CONTINUOUS
 62
     3
 10
20476.914668999991
 20
6646.3198639999973
 30
0.0
 11
22869.41532899997
 21
6646.3198639999973
 31
0.0
  0
LINE
  5
37F5
  8
0-1
  6
CONTINUOUS
 62
     3
 10
20476.914668999991
 20
6581.3198969999967
 30
0.0
 11
22869.41532899997
 21
6581.3198969999967
 31
0.0
  0
LINE
  5
37F6
  8
0-1
  6
CONTINUOUS
 62
     3
 10
20476.914668999991
 20
6516.3204249999962
 30
0.0
 11
22869.41532899997
 21
6516.3204249999962
 31
0.0
  0
LINE
  5
37F7
  8
0-1
  6
CONTINUOUS
 62
     3
 10
20476.914668999991
 20
6451.3194679999979
 30
0.0
 11
22869.41532899997
 21
6451.3194679999979
 31
0.0
  0
LINE
  5
37F8
  8
0-1
  6
CONTINUOUS
 62
     3
 10
20476.914668999991
 20
6386.3204909999977
 30
0.0
 11
22869.41532899997
 21
6386.3204909999977
 31
0.0
  0
LINE
  5
37F9
  8
0-1
  6
CONTINUOUS
 62
     3
 10
20476.914668999991
 20
6321.3195339999966
 30
0.0
 11
22869.41532899997
 21
6321.3195339999966
 31
0.0
  0
LINE
  5
37FA
  8
0-1
  6
CONTINUOUS
 62
     3
 10
20476.914668999991
 20
8141.3200949999973
 30
0.0
 11
22869.41532899997
 21
8141.3200949999973
 31
0.0
  0
LINE
  5
37FB
  8
0-1
  6
CONTINUOUS
 62
     3
 10
20476.914668999991
 20
8076.3201279999967
 30
0.0
 11
22869.41532899997
 21
8076.3201279999967
 31
0.0
  0
LINE
  5
37FC
  8
0-1
  6
CONTINUOUS
 62
     3
 10
20476.914668999991
 20
8011.3196659999958
 30
0.0
 11
22869.41532899997
 21
8011.3196659999958
 31
0.0
  0
LINE
  5
37FD
  8
0-1
  6
CONTINUOUS
 62
     3
 10
20476.914668999991
 20
7946.3206889999929
 30
0.0
 11
22869.41532899997
 21
7946.3206889999929
 31
0.0
  0
LINE
  5
37FE
  8
0-1
  6
CONTINUOUS
 62
     3
 10
20476.914668999991
 20
7881.3202269999929
 30
0.0
 11
22869.41532899997
 21
7881.3202269999929
 31
0.0
  0
LINE
  5
37FF
  8
0-1
  6
CONTINUOUS
 62
     3
 10
20476.914668999991
 20
7816.3202600000022
 30
0.0
 11
22869.41532899997
 21
7816.3202600000022
 31
0.0
  0
LINE
  5
3800
  8
0-1
  6
CONTINUOUS
 62
     3
 10
20476.914668999991
 20
7751.3197979999968
 30
0.0
 11
22869.41532899997
 21
7751.3197979999968
 31
0.0
  0
LINE
  5
3801
  8
0-1
  6
CONTINUOUS
 62
     3
 10
20476.914668999991
 20
7686.319830999998
 30
0.0
 11
22869.41532899997
 21
7686.319830999998
 31
0.0
  0
LINE
  5
3802
  8
0-1
  6
CONTINUOUS
 62
     3
 10
20476.914668999991
 20
7621.3198639999973
 30
0.0
 11
22869.41532899997
 21
7621.3198639999973
 31
0.0
  0
LINE
  5
3803
  8
0-1
  6
CONTINUOUS
 62
     3
 10
20476.914668999991
 20
7556.3194019999974
 30
0.0
 11
22869.41532899997
 21
7556.3194019999974
 31
0.0
  0
LINE
  5
3804
  8
0-1
  6
CONTINUOUS
 62
     3
 10
20476.914668999991
 20
7491.3204249999953
 30
0.0
 11
22869.41532899997
 21
7491.3204249999953
 31
0.0
  0
LINE
  5
3805
  8
0-1
  6
CONTINUOUS
 62
     3
 10
20476.914668999991
 20
7426.3199629999917
 30
0.0
 11
22869.41532899997
 21
7426.3199629999917
 31
0.0
  0
LINE
  5
3806
  8
0-1
  6
CONTINUOUS
 62
     3
 10
20476.914668999991
 20
7361.3199959999947
 30
0.0
 11
22869.41532899997
 21
7361.3199959999947
 31
0.0
  0
LINE
  5
3807
  8
0-1
  6
CONTINUOUS
 62
     3
 10
20476.914668999991
 20
7296.3195339999966
 30
0.0
 11
22869.41532899997
 21
7296.3195339999966
 31
0.0
  0
LINE
  5
3808
  8
0-1
  6
CONTINUOUS
 62
     3
 10
20476.914668999991
 20
7231.320557
 30
0.0
 11
22869.41532899997
 21
7231.320557
 31
0.0
  0
LINE
  5
3809
  8
0-1
  6
CONTINUOUS
 62
     3
 10
20476.914668999991
 20
7166.3200949999973
 30
0.0
 11
22869.41532899997
 21
7166.3200949999973
 31
0.0
  0
LINE
  5
380A
  8
0-1
  6
CONTINUOUS
 62
     3
 10
20476.914668999991
 20
7101.3201279999967
 30
0.0
 11
22869.41532899997
 21
7101.3201279999967
 31
0.0
  0
LINE
  5
380B
  8
0-1
  6
CONTINUOUS
 62
     3
 10
20476.914668999991
 20
7036.3201609999978
 30
0.0
 11
22869.41532899997
 21
7036.3201609999978
 31
0.0
  0
LINE
  5
380C
  8
0-1
  6
CONTINUOUS
 62
     3
 10
20476.914668999991
 20
6971.3201939999963
 30
0.0
 11
22869.41532899997
 21
6971.3201939999963
 31
0.0
  0
LINE
  5
380D
  8
0-1
  6
CONTINUOUS
 62
     3
 10
20476.914668999991
 20
6906.319731999999
 30
0.0
 11
22869.41532899997
 21
6906.319731999999
 31
0.0
  0
LINE
  5
380E
  8
0-1
  6
CONTINUOUS
 62
     3
 10
20476.914668999991
 20
6841.3207549999979
 30
0.0
 11
22869.41532899997
 21
6841.3207549999979
 31
0.0
  0
LINE
  5
380F
  8
0-1
  6
CONTINUOUS
 62
     3
 10
20476.914668999991
 20
8195.7796199999975
 30
0.0
 11
22869.41532899997
 21
8195.7796199999975
 31
0.0
  0
LINE
  5
3815
  8
0-2
  6
CONTINUOUS
 62
     4
 10
22036.855019499992
 20
7003.5457659999956
 30
0.0
 11
21936.855679499979
 21
7003.5457659999956
 31
0.0
  0
LINE
  5
3816
  8
0-2
  6
CONTINUOUS
 62
     4
 10
21309.471018499989
 20
7003.5457659999956
 30
0.0
 11
21409.468379499998
 21
7003.5457659999956
 31
0.0
  0
LINE
  5
3817
  8
0-5
  6
CONTINUOUS
 62
     4
 10
22956.914008999989
 20
4576.3199629999954
 30
0.0
 11
22956.914008999989
 21
4416.3199299999978
 31
0.0
  0
LINE
  5
3818
  8
0-5
  6
CONTINUOUS
 62
     4
 10
20389.414008999978
 20
4576.3199629999954
 30
0.0
 11
20389.414008999978
 21
4416.3199299999978
 31
0.0
  0
LINE
  5
3819
  8
2-0
  6
CENTER2
 62
     6
 10
24823.414008999978
 20
5993.6676389999984
 30
0.0
 11
24823.414008999978
 21
7030.8096759999962
 31
0.0
  0
LINE
  5
381A
  8
2-0
  6
CENTER2
 62
     6
 10
22956.914008999989
 20
5993.6676389999984
 30
0.0
 11
22956.914008999989
 21
7030.8096759999962
 31
0.0
  0
LINE
  5
381B
  8
2-0
  6
CENTER2
 62
     6
 10
20389.414008999978
 20
5993.6676389999984
 30
0.0
 11
20389.414008999978
 21
7030.8096759999962
 31
0.0
  0
CIRCLE
  5
382C
  8
0-5
  6
CONTINUOUS
 62
     4
 10
22956.914008999989
 20
4216.3202599999968
 30
0.0
 40
199.9999949999999
  0
CIRCLE
  5
382D
  8
0-5
  6
CONTINUOUS
 62
     4
 10
20389.414008999978
 20
4216.3202599999968
 30
0.0
 40
199.9999949999999
  0
TEXT
  5
382E
  8
0-5
  6
CONTINUOUS
 62
     7
 10
19771.238069999989
 20
6985.6803087419958
 30
0.0
 40
160.0
  1
(2131.5)
 50
90.0
 72
     4
 11
19691.238069999989
 21
7439.0136420753288
 31
0.0
  0
TEXT
  5
382F
  8
0-5
  6
CONTINUOUS
 62
     7
 10
22909.985561999991
 20
4129.7903059999971
 30
0.0
 40
160.0
  1
2
 72
     4
 11
22963.318895333319
 21
4209.7903059999971
 31
0.0
  0
TEXT
  5
3830
  8
0-5
  6
CONTINUOUS
 62
     7
 10
20342.481602999989
 20
4129.7903059999971
 30
0.0
 40
160.0
  1
1
 72
     4
 11
20369.148269666661
 21
4209.7903059999971
 31
0.0
  0
CIRCLE
  5
3831
  8
0-4
  6
CONTINUOUS
 62
     4
 10
21673.164008999971
 20
6742.3760029999939
 30
0.0
 40
18.487504999999981
  0
LINE
  5
3832
  8
SUNPOU
  6
CONTINUOUS
 10
20106.914008999971
 20
5056.3200619999989
 30
0.0
 11
19748.95900227888
 21
5056.3200619999989
 31
0.0
  0
LINE
  5
3833
  8
SUNPOU
  6
CONTINUOUS
 10
25105.917967999991
 20
5056.3200619999989
 30
0.0
 11
25463.8729747211
 21
5056.3200619999989
 31
0.0
  0
LINE
  5
3834
  8
0-5
  6
CONTINUOUS
 62
     4
 10
24865.914008999989
 20
4576.3199629999954
 30
0.0
 11
24865.914008999989
 21
4416.3199299999978
 31
0.0
  0
CIRCLE
  5
3835
  8
0-5
  6
CONTINUOUS
 62
     4
 10
24865.914008999989
 20
4216.3202599999968
 30
0.0
 40
199.9999949999999
  0
TEXT
  5
3836
  8
0-5
  6
CONTINUOUS
 62
     7
 10
24818.98556199998
 20
4129.7903059999971
 30
0.0
 40
160.0
  1
3
 72
     4
 11
24872.318895333308
 21
4209.7903059999971
 31
0.0
  0
TEXT
  5
3837
  8
2-0
  6
CONTINUOUS
 62
     7
 10
21288.380264999982
 20
3379.1984300000008
 30
0.0
 40
160.0
  1
正 面 立 面 図
 50
0.000139
 72
     4
 11
21933.713404250801
 21
3459.1999955833762
 31
0.0
  0
TEXT
  5
3838
  8
2-0
  6
CONTINUOUS
 62
     7
 10
23285.205589388421
 20
3406.3953645833758
 30
0.0
 40
160.0
  1
1
 72
     4
 11
23311.872256055089
 21
3486.3953645833749
 31
0.0
  0
TEXT
  5
3839
  8
2-0
  6
CONTINUOUS
 62
     7
 10
23528.294306639109
 20
3326.3968325833748
 30
0.0
 40
160.0
  1
80
 72
     4
 11
23648.294306639109
 21
3406.3968325833748
 31
0.0
  0
TEXT
  5
383A
  8
2-0
  6
CONTINUOUS
 62
     7
 10
22786.207555388432
 20
3379.1999955833762
 30
0.0
 40
160.0
  1
(S=  /   )
 72
     4
 11
23346.207555388432
 21
3459.1999955833762
 31
0.0
  0
LINE
  5
383B
  8
0-5
  6
CONTINUOUS
 62
     4
 10
17466.54494899997
 20
6464.1655539999992
 30
0.0
 11
17586.541385999979
 21
6256.3200620000034
 31
0.0
  0
LINE
  5
383C
  8
0-5
  6
CONTINUOUS
 62
     4
 10
17586.541385999979
 20
6256.3200620000034
 30
0.0
 11
17706.541781999971
 21
6464.1655539999992
 31
0.0
  0
LINE
  5
383D
  8
0-5
  6
CONTINUOUS
 62
     4
 10
17706.541781999971
 20
6464.1655539999992
 30
0.0
 11
17466.54494899997
 21
6464.1655539999992
 31
0.0
  0
TEXT
  5
383E
  8
0-5
  6
CONTINUOUS
 62
     7
 10
17466.54494899997
 20
6544.1663119999967
 30
0.0
 40
160.0
  1
G.L
 72
     4
 11
17626.54494899997
 21
6624.1663119999967
 31
0.0
  0
LINE
  5
383F
  8
SUNPOU
  6
CONTINUOUS
 10
8812.6572919999944
 20
9504.3200880000004
 30
0.0
 11
8337.3681793597625
 21
9504.3200880000004
 31
0.0
  0
LINE
  5
3840
  8
0-2
  6
CONTINUOUS
 62
     4
 10
24253.854028999998
 20
7003.5457659999956
 30
0.0
 11
24153.854689
 21
7003.5457659999956
 31
0.0
  0
LINE
  5
3841
  8
0-2
  6
CONTINUOUS
 62
     4
 10
23526.470027999989
 20
7003.5457659999956
 30
0.0
 11
23626.467389000001
 21
7003.5457659999956
 31
0.0
  0
CIRCLE
  5
3842
  8
0-4
  6
CONTINUOUS
 62
     4
 10
23890.163018499989
 20
6742.3760029999939
 30
0.0
 40
18.487504999999981
  0
LINE
  5
3843
  8
0-6
  6
CONTINUOUS
 62
     6
 10
22889.202597000021
 20
19810.46969799999
 30
0.0
 11
22576.646510999992
 21
19284.074137000011
 31
0.0
  0
LINE
  5
3844
  8
0-6
  6
CONTINUOUS
 62
     6
 10
21551.608240000009
 20
19284.074137000011
 30
0.0
 11
22576.646510999992
 21
19284.074137000011
 31
0.0
  0
LINE
  5
3845
  8
0-6
  6
CONTINUOUS
 62
     6
 10
21554.630965000011
 20
18686.374338000001
 30
0.0
 11
22579.671215000009
 21
18686.374338000001
 31
0.0
  0
LINE
  5
3846
  8
0-6
  6
CONTINUOUS
 62
     6
 10
20913.19964100001
 20
19766.649095000012
 30
0.0
 11
21554.630965000011
 21
18686.374338000001
 31
0.0
  0
LINE
  5
3847
  8
0-6
  6
CONTINUOUS
 62
     6
 10
20936.128404999999
 20
19780.266203000021
 30
0.0
 11
20831.510848000009
 21
19904.227616
 31
0.0
  0
LINE
  5
3848
  8
0-6
  6
CONTINUOUS
 62
     6
 10
20831.510848000009
 20
19904.227616
 30
0.0
 11
20890.268897999998
 21
19753.035946000022
 31
0.0
  0
LINE
  5
3849
  8
0-6
  6
CONTINUOUS
 62
     6
 10
20831.510848000009
 20
19904.227616
 30
0.0
 11
20936.128404999999
 21
19780.266203000021
 31
0.0
  0
LINE
  5
384A
  8
0-6
  6
CONTINUOUS
 62
     6
 10
20936.128404999999
 20
19780.266203000021
 30
0.0
 11
20890.268897999998
 21
19753.035946000022
 31
0.0
  0
LINE
  5
384B
  8
0-6
  6
CONTINUOUS
 62
     6
 10
20890.268897999998
 20
19753.035946000022
 30
0.0
 11
20831.510848000009
 21
19904.227616
 31
0.0
  0
LINE
  5
384C
  8
0-6
  6
CONTINUOUS
 62
     6
 10
20890.268897999998
 20
19753.035946000022
 30
0.0
 11
20936.128404999999
 21
19780.266203000021
 31
0.0
  0
LINE
  5
384D
  8
0-6
  6
CONTINUOUS
 62
     6
 10
22784.585040000002
 20
19686.506306000021
 30
0.0
 11
22889.202597000021
 21
19810.46969799999
 31
0.0
  0
LINE
  5
384E
  8
0-6
  6
CONTINUOUS
 62
     6
 10
22889.202597000021
 20
19810.46969799999
 30
0.0
 11
22830.44454700001
 21
19659.280007000001
 31
0.0
  0
LINE
  5
384F
  8
0-6
  6
CONTINUOUS
 62
     6
 10
22889.202597000021
 20
19810.46969799999
 30
0.0
 11
22784.585040000002
 21
19686.506306000021
 31
0.0
  0
LINE
  5
3850
  8
0-6
  6
CONTINUOUS
 62
     6
 10
22784.585040000002
 20
19686.506306000021
 30
0.0
 11
22830.44454700001
 21
19659.280007000001
 31
0.0
  0
LINE
  5
3851
  8
0-6
  6
CONTINUOUS
 62
     6
 10
22830.44454700001
 20
19659.280007000001
 30
0.0
 11
22889.202597000021
 21
19810.46969799999
 31
0.0
  0
LINE
  5
3852
  8
0-6
  6
CONTINUOUS
 62
     6
 10
22830.44454700001
 20
19659.280007000001
 30
0.0
 11
22784.585040000002
 21
19686.506306000021
 31
0.0
  0
TEXT
  5
3853
  8
0-6
  6
CONTINUOUS
 62
     7
 10
21631.608504000011
 20
19364.074401000009
 30
0.0
 40
160.0
  1
後柱（中）
 72
     4
 11
22047.608504000011
 21
19444.074401000009
 31
0.0
  0
TEXT
  5
3854
  8
0-6
  6
CONTINUOUS
 62
     7
 10
21634.62924900002
 20
18766.374602000022
 30
0.0
 40
160.0
  1
間柱（後）
 72
     4
 11
22055.962582333352
 21
18846.374602000022
 31
0.0
  0
LINE
  5
3855
  8
0-6
  6
CONTINUOUS
 62
     6
 10
21628.66693900001
 20
14529.50070899998
 30
0.0
 11
22652.444256999999
 21
14529.50070899998
 31
0.0
  0
LINE
  5
3856
  8
0-6
  6
CONTINUOUS
 62
     6
 10
22914.411766000008
 20
14098.230913999991
 30
0.0
 11
22652.444256999999
 21
14529.50070899998
 31
0.0
  0
LINE
  5
3857
  8
0-6
  6
CONTINUOUS
 62
     6
 10
22854.137405000009
 20
14248.824769000001
 30
0.0
 11
22914.411766000008
 21
14098.230913999991
 31
0.0
  0
LINE
  5
3858
  8
0-6
  6
CONTINUOUS
 62
     6
 10
22914.411766000008
 20
14098.230913999991
 30
0.0
 11
22808.557010000011
 21
14221.136253000001
 31
0.0
  0
LINE
  5
3859
  8
0-6
  6
CONTINUOUS
 62
     6
 10
22914.411766000008
 20
14098.230913999991
 30
0.0
 11
22854.137405000009
 21
14248.824769000001
 31
0.0
  0
LINE
  5
385A
  8
0-6
  6
CONTINUOUS
 62
     6
 10
22854.137405000009
 20
14248.824769000001
 30
0.0
 11
22808.557010000011
 21
14221.136253000001
 31
0.0
  0
LINE
  5
385B
  8
0-6
  6
CONTINUOUS
 62
     6
 10
22808.557010000011
 20
14221.136253000001
 30
0.0
 11
22914.411766000008
 21
14098.230913999991
 31
0.0
  0
LINE
  5
385C
  8
0-6
  6
CONTINUOUS
 62
     6
 10
22808.557010000011
 20
14221.136253000001
 30
0.0
 11
22854.137405000009
 21
14248.824769000001
 31
0.0
  0
TEXT
  5
385D
  8
0-6
  6
CONTINUOUS
 62
     7
 10
21708.669183000002
 20
14609.500972999989
 30
0.0
 40
160.0
  1
前柱（中）
 72
     4
 11
22124.669183000002
 21
14689.500972999989
 31
0.0
  0
LINE
  5
385E
  8
SUNPOU
  6
CONTINUOUS
 10
9164.4562350000015
 20
20114.226823000001
 30
0.0
 11
9164.4562350000015
 21
20911.19409077847
 31
0.0
  0
LINE
  5
385F
  8
SUNPOU
  6
CONTINUOUS
 10
9164.4559099999969
 20
13863.235599
 30
0.0
 11
9164.4559099999969
 21
13187.80948318962
 31
0.0
  0
CIRCLE
  5
3860
  8
0-5
  6
CONTINUOUS
 62
     4
 10
15128.714697999991
 20
1375.999982
 30
0.0
 40
20.0
  0
ARC
  5
3861
  8
0-5
  6
CONTINUOUS
 62
     4
 10
15128.714697999991
 20
1375.999982
 30
0.0
 40
20.0
 50
180.0
 51
0.0
  0
ARC
  5
3862
  8
0-5
  6
CONTINUOUS
 62
     4
 10
15128.714697999991
 20
1375.999982
 30
0.0
 40
20.0
 50
0.0
 51
179.99998499999839
  0
CIRCLE
  5
3863
  8
0-5
  6
CONTINUOUS
 62
     4
 10
15128.714697999991
 20
1775.999941
 30
0.0
 40
20.0
  0
ARC
  5
3864
  8
0-5
  6
CONTINUOUS
 62
     4
 10
15128.714697999991
 20
1775.999941
 30
0.0
 40
20.0
 50
180.0
 51
0.0
  0
ARC
  5
3865
  8
0-5
  6
CONTINUOUS
 62
     4
 10
15128.714697999991
 20
1775.999941
 30
0.0
 40
20.0
 50
0.0
 51
179.99998499999839
  0
TEXT
  5
3866
  8
0-5
  6
CONTINUOUS
 62
     7
 10
16669.776841999981
 20
1655.999793
 30
0.0
 40
160.0
  1
H
  0
TEXT
  5
3867
  8
0-5
  6
CONTINUOUS
 62
     7
 10
15176.145943
 20
1655.999793
 30
0.0
 40
160.0
  1
（ ）内寸法ハ、  タ イプヲ示ス。
  0
TEXT
  5
3868
  8
0-5
  6
CONTINUOUS
 62
     7
 10
15288.712256999979
 20
1255.9999580000001
 30
0.0
 40
160.0
  1
有効高サハ、基礎高サヲ含ミマセン。
  0
LINE
  5
386B
  8
WAKUSEN-01
 10
868.00000000000193
 20
22484.000000000011
 30
0.0
 11
32764.000000000011
 21
22484.000000000011
 31
0.0
  0
LINE
  5
386E
  8
WAKUSEN-01
 10
20560.0
 20
2484.0
 30
0.0
 11
32764.0
 21
2484.0
 31
0.0
  0
LINE
  5
386F
  8
WAKUSEN-02
 10
20560.0
 20
1655.9999999999991
 30
0.0
 11
26868.0
 21
1655.9999999999991
 31
0.0
  0
TEXT
  5
3870
  8
WAKUMOJI-01
 10
20670.260259962761
 20
2125.9030093393221
 30
0.0
 40
240.0
  1
名　称
  7
WAKUMOJI
  0
TEXT
  5
3871
  8
WAKUMOJI-01
 10
20656.505485091919
 20
1319.12897497982
 30
0.0
 40
240.0
  1
機種名
  7
WAKUMOJI
  0
LINE
  5
3874
  8
YODOROGO
 10
29977.604341291921
 20
1995.7494964292871
 30
0.0
 11
29829.604341291921
 21
1995.7494964292871
 31
0.0
1001
AUTOCAD_POSTSCRIPT_FIGURE
1002
{
1000
PSFILL
1000
Grayscale
1000
Grayscale
1070
    25
1002
}
  0
LINE
  5
3875
  8
YODOROGO
 10
29829.604341291921
 20
1947.749496429288
 30
0.0
 11
29977.604341291921
 21
1947.749496429288
 31
0.0
1001
AUTOCAD_POSTSCRIPT_FIGURE
1002
{
1000
PSFILL
1000
Grayscale
1000
Grayscale
1070
    25
1002
}
  0
LINE
  5
3876
  8
YODOROGO
 10
29977.604341291921
 20
1907.7494964292871
 30
0.0
 11
29829.604341291921
 21
1907.7494964292871
 31
0.0
1001
AUTOCAD_POSTSCRIPT_FIGURE
1002
{
1000
PSFILL
1000
Grayscale
1000
Grayscale
1070
    25
1002
}
  0
LINE
  5
3877
  8
YODOROGO
 10
29829.604341291921
 20
1859.749496429288
 30
0.0
 11
29977.604341291921
 21
1859.749496429288
 31
0.0
1001
AUTOCAD_POSTSCRIPT_FIGURE
1002
{
1000
PSFILL
1000
Grayscale
1000
Grayscale
1070
    25
1002
}
  0
LINE
  5
3878
  8
YODOROGO
 10
29977.604341291921
 20
1819.7494964292871
 30
0.0
 11
29829.604341291921
 21
1819.7494964292871
 31
0.0
1001
AUTOCAD_POSTSCRIPT_FIGURE
1002
{
1000
PSFILL
1000
Grayscale
1000
Grayscale
1070
    25
1002
}
  0
LINE
  5
3879
  8
YODOROGO
 10
29921.60434129191
 20
1707.749496429288
 30
0.0
 11
29977.604341291921
 21
1707.749496429288
 31
0.0
1001
AUTOCAD_POSTSCRIPT_FIGURE
1002
{
1000
PSFILL
1000
Grayscale
1000
Grayscale
1070
    25
1002
}
  0
LINE
  5
387A
  8
YODOROGO
 10
29737.604341291921
 20
1427.749496429288
 30
0.0
 11
29937.604341291932
 21
1481.3393349155101
 31
0.0
  0
LINE
  5
387B
  8
YODOROGO
 10
29949.60434129191
 20
1707.749496429288
 30
0.0
 11
29885.604341291921
 21
1707.749496429288
 31
0.0
  0
ARC
  5
387C
  8
YODOROGO
 10
30254.34774982791
 20
1807.864609233261
 30
0.0
 40
381.88686420564721
 50
213.96111677667841
 51
264.47872074317792
  0
ARC
  5
387D
  8
YODOROGO
 10
30254.347749827921
 20
1807.864609233302
 30
0.0
 40
381.8868642056816
 50
208.14114420486601
 51
212.9210361185994
  0
LINE
  5
387E
  8
YODOROGO
 10
29771.409872985321
 20
1556.807661346234
 30
0.0
 11
29933.78413250855
 21
1600.3157130570869
 31
0.0
  0
LINE
  5
387F
  8
YODOROGO
 10
29737.604341291921
 20
1427.749496429288
 30
0.0
 11
29937.604341291932
 21
1481.3393349155101
 31
0.0
  0
LINE
  5
3880
  8
YODOROGO
 10
29949.60434129191
 20
1707.749496429288
 30
0.0
 11
29885.604341291921
 21
1707.749496429288
 31
0.0
  0
ARC
  5
3881
  8
YODOROGO
 10
30254.34774982791
 20
1807.864609233261
 30
0.0
 40
381.88686420564721
 50
213.96111677667841
 51
264.47872074317792
  0
LINE
  5
3882
  8
YODOROGO
 10
28793.60434129191
 20
1819.7494964292871
 30
0.0
 11
28433.60434129191
 21
1819.7494964292871
 31
0.0
  0
LINE
  5
3883
  8
YODOROGO
 10
28513.60434129191
 20
1427.749496429288
 30
0.0
 11
28793.60434129191
 21
1427.749496429288
 31
0.0
  0
LINE
  5
3884
  8
YODOROGO
 10
28729.604341291921
 20
1923.7494964292871
 30
0.0
 11
28497.60434129191
 21
1923.7494964292871
 31
0.0
  0
LINE
  5
3885
  8
YODOROGO
 10
28585.604341291921
 20
2027.749496429288
 30
0.0
 11
28657.604341291921
 21
2027.749496429288
 31
0.0
  0
LINE
  5
3886
  8
YODOROGO
 10
28433.60434129191
 20
1707.749496429288
 30
0.0
 11
28433.60434129191
 21
1507.749496429288
 31
0.0
  0
LINE
  5
3887
  8
YODOROGO
 10
28497.60434129191
 20
1563.7494964292871
 30
0.0
 11
28497.60434129191
 21
1707.749496429288
 31
0.0
  0
LINE
  5
3888
  8
YODOROGO
 10
28585.604341291921
 20
1747.74949642929
 30
0.0
 11
28585.604341291921
 21
1547.749496429288
 31
0.0
  0
LINE
  5
3889
  8
YODOROGO
 10
27857.604341291921
 20
1683.749496429288
 30
0.0
 11
27777.604341291921
 21
1619.9724140445701
 31
0.0
  0
LINE
  5
388A
  8
YODOROGO
 10
27937.604341291921
 20
1619.9724140445701
 30
0.0
 11
27857.604341291921
 21
1683.749496429288
 31
0.0
  0
LINE
  5
388B
  8
YODOROGO
 10
27857.604341291921
 20
1707.749496429288
 30
0.0
 11
27937.604341291921
 21
1643.9724140445701
 31
0.0
  0
LINE
  5
388C
  8
YODOROGO
 10
27777.604341291921
 20
1643.9724140445701
 30
0.0
 11
27857.604341291921
 21
1707.749496429288
 31
0.0
  0
LINE
  5
388D
  8
YODOROGO
 10
28040.913204016892
 20
1659.749496429288
 30
0.0
 11
28040.913204016892
 21
1683.7494964292871
 31
0.0
  0
LINE
  5
388E
  8
YODOROGO
 10
27977.604341291921
 20
1683.7494964292871
 30
0.0
 11
27977.604341291921
 21
1667.749496429285
 31
0.0
  0
LINE
  5
388F
  8
YODOROGO
 10
28098.135520230931
 20
1707.749496429288
 30
0.0
 11
28098.135520230931
 21
1655.5036372746561
 31
0.0
1001
AUTOCAD_POSTSCRIPT_FIGURE
1002
{
1000
PSFILL
1000
Grayscale
1000
Grayscale
1070
   100
1002
}
  0
LINE
  5
3890
  8
YODOROGO
 10
28082.135520230921
 20
1655.5036372746561
 30
0.0
 11
28082.135520230921
 21
1707.749496429288
 31
0.0
1001
AUTOCAD_POSTSCRIPT_FIGURE
1002
{
1000
PSFILL
1000
Grayscale
1000
Grayscale
1070
   100
1002
}
  0
LINE
  5
3891
  8
YODOROGO
 10
27809.604341291921
 20
1608.771904043258
 30
0.0
 11
27809.604341291921
 21
1632.771904043258
 31
0.0
  0
LINE
  5
3892
  8
YODOROGO
 10
27905.604341291921
 20
1608.771904043258
 30
0.0
 11
27809.604341291921
 21
1608.771904043258
 31
0.0
  0
LINE
  5
3893
  8
YODOROGO
 10
27905.604341291921
 20
1632.771904043258
 30
0.0
 11
27905.604341291921
 21
1608.771904043258
 31
0.0
  0
LINE
  5
3894
  8
YODOROGO
 10
27809.604341291921
 20
1632.771904043258
 30
0.0
 11
27905.604341291921
 21
1632.771904043258
 31
0.0
  0
LINE
  5
3895
  8
YODOROGO
 10
27824.509588915738
 20
1568.5028573704751
 30
0.0
 11
27785.604341291921
 21
1475.7494964292871
 31
0.0
1001
AUTOCAD_POSTSCRIPT_FIGURE
1002
{
1000
PSFILL
1000
Grayscale
1000
Grayscale
1070
   100
1002
}
  0
LINE
  5
3896
  8
YODOROGO
 10
27777.604341291921
 20
1568.5028573704751
 30
0.0
 11
27824.509588915738
 21
1568.5028573704751
 31
0.0
1001
AUTOCAD_POSTSCRIPT_FIGURE
1002
{
1000
PSFILL
1000
Grayscale
1000
Grayscale
1070
   100
1002
}
  0
LINE
  5
3897
  8
YODOROGO
 10
27777.604341291921
 20
1588.5028573704751
 30
0.0
 11
27777.604341291921
 21
1568.5028573704751
 31
0.0
1001
AUTOCAD_POSTSCRIPT_FIGURE
1002
{
1000
PSFILL
1000
Grayscale
1000
Grayscale
1070
   100
1002
}
  0
LINE
  5
3898
  8
YODOROGO
 10
27937.604341291921
 20
1588.5028573704751
 30
0.0
 11
27777.604341291921
 21
1588.5028573704751
 31
0.0
1001
AUTOCAD_POSTSCRIPT_FIGURE
1002
{
1000
PSFILL
1000
Grayscale
1000
Grayscale
1070
   100
1002
}
  0
LINE
  5
3899
  8
YODOROGO
 10
27937.604341291921
 20
1568.5028573704751
 30
0.0
 11
27937.604341291921
 21
1588.5028573704751
 31
0.0
1001
AUTOCAD_POSTSCRIPT_FIGURE
1002
{
1000
PSFILL
1000
Grayscale
1000
Grayscale
1070
   100
1002
}
  0
LINE
  5
389A
  8
YODOROGO
 10
27844.509588915738
 20
1568.5028573704751
 30
0.0
 11
27937.604341291921
 21
1568.5028573704751
 31
0.0
1001
AUTOCAD_POSTSCRIPT_FIGURE
1002
{
1000
PSFILL
1000
Grayscale
1000
Grayscale
1070
   100
1002
}
  0
LINE
  5
389B
  8
YODOROGO
 10
27815.546718284771
 20
1495.7494964292871
 30
0.0
 11
27844.509588915738
 21
1568.5028573704751
 31
0.0
1001
AUTOCAD_POSTSCRIPT_FIGURE
1002
{
1000
PSFILL
1000
Grayscale
1000
Grayscale
1070
   100
1002
}
  0
LINE
  5
389C
  8
YODOROGO
 10
27902.054790808648
 20
1495.7494964292871
 30
0.0
 11
27815.546718284771
 21
1495.7494964292871
 31
0.0
1001
AUTOCAD_POSTSCRIPT_FIGURE
1002
{
1000
PSFILL
1000
Grayscale
1000
Grayscale
1070
   100
1002
}
  0
LINE
  5
389D
  8
YODOROGO
 10
27885.065004790951
 20
1536.2338106976929
 30
0.0
 11
27902.054790808648
 21
1495.7494964292871
 31
0.0
1001
AUTOCAD_POSTSCRIPT_FIGURE
1002
{
1000
PSFILL
1000
Grayscale
1000
Grayscale
1070
   100
1002
}
  0
LINE
  5
389E
  8
YODOROGO
 10
27901.065004790951
 20
1536.2338106976929
 30
0.0
 11
27885.065004790951
 21
1536.2338106976929
 31
0.0
1001
AUTOCAD_POSTSCRIPT_FIGURE
1002
{
1000
PSFILL
1000
Grayscale
1000
Grayscale
1070
   100
1002
}
  0
LINE
  5
389F
  8
YODOROGO
 10
27929.604341291921
 20
1475.7494964292871
 30
0.0
 11
27901.065004790951
 21
1536.2338106976929
 31
0.0
1001
AUTOCAD_POSTSCRIPT_FIGURE
1002
{
1000
PSFILL
1000
Grayscale
1000
Grayscale
1070
   100
1002
}
  0
LINE
  5
38A0
  8
YODOROGO
 10
27785.604341291921
 20
1475.7494964292871
 30
0.0
 11
27929.604341291921
 21
1475.7494964292871
 31
0.0
1001
AUTOCAD_POSTSCRIPT_FIGURE
1002
{
1000
PSFILL
1000
Grayscale
1000
Grayscale
1070
   100
1002
}
  0
LINE
  5
38A1
  8
YODOROGO
 10
27777.604341291921
 20
1619.9724140445701
 30
0.0
 11
27777.604341291921
 21
1643.9724140445701
 31
0.0
  0
LINE
  5
38A2
  8
YODOROGO
 10
27937.604341291921
 20
1643.9724140445701
 30
0.0
 11
27937.604341291921
 21
1619.9724140445701
 31
0.0
  0
ARC
  5
38A3
  8
YODOROGO
 10
28225.940442146959
 20
1600.877765325326
 30
0.0
 40
175.9999999999998
 50
280.3644312771313
 51
3.5414836592180561
  0
ARC
  5
38A4
  8
YODOROGO
 10
28235.756030759301
 20
1633.5978069619041
 30
0.0
 40
111.9999999999982
 50
281.24905825041549
 51
348.75094174958321
  0
LINE
  5
38A5
  8
YODOROGO
 10
28257.604341291921
 20
1523.7494964292871
 30
0.0
 11
28257.604341291921
 21
1427.749496429288
 31
0.0
  0
LINE
  5
38A6
  8
YODOROGO
 10
28020.088903736909
 20
1610.650565061914
 30
0.0
 11
28040.913204016892
 21
1659.749496429288
 31
0.0
  0
LINE
  5
38A7
  8
YODOROGO
 10
28041.604341291921
 20
1583.120489948401
 30
0.0
 11
28020.088903736909
 21
1610.650565061914
 31
0.0
  0
LINE
  5
38A8
  8
YODOROGO
 10
28041.604341291921
 20
1563.120489948398
 30
0.0
 11
28041.604341291921
 21
1583.120489948401
 31
0.0
  0
LINE
  5
38A9
  8
YODOROGO
 10
28017.604341291921
 20
1585.2370637495301
 30
0.0
 11
28041.604341291921
 21
1563.120489948398
 31
0.0
  0
LINE
  5
38AA
  8
YODOROGO
 10
28017.604341291921
 20
1475.7494964292871
 30
0.0
 11
28017.604341291921
 21
1585.2370637495301
 31
0.0
  0
LINE
  5
38AB
  8
YODOROGO
 10
28001.604341291921
 20
1475.7494964292871
 30
0.0
 11
28017.604341291921
 21
1475.7494964292871
 31
0.0
  0
LINE
  5
38AC
  8
YODOROGO
 10
28001.604341291921
 20
1580.0053496897469
 30
0.0
 11
28001.604341291921
 21
1475.7494964292871
 31
0.0
  0
LINE
  5
38AD
  8
YODOROGO
 10
27977.604341291921
 20
1532.7680790334291
 30
0.0
 11
28001.604341291921
 21
1580.0053496897469
 31
0.0
  0
LINE
  5
38AE
  8
YODOROGO
 10
27977.604341291921
 20
1556.76807903343
 30
0.0
 11
27977.604341291921
 21
1532.7680790334291
 31
0.0
  0
LINE
  5
38AF
  8
YODOROGO
 10
28025.828774291349
 20
1667.749496429285
 30
0.0
 11
27977.604341291921
 21
1556.76807903343
 31
0.0
  0
LINE
  5
38B0
  8
YODOROGO
 10
27977.604341291921
 20
1667.749496429285
 30
0.0
 11
28025.828774291349
 21
1667.749496429285
 31
0.0
  0
LINE
  5
38B1
  8
YODOROGO
 10
28050.135520230899
 20
1655.5036372746561
 30
0.0
 11
28082.135520230921
 21
1655.5036372746561
 31
0.0
1001
AUTOCAD_POSTSCRIPT_FIGURE
1002
{
1000
PSFILL
1000
Grayscale
1000
Grayscale
1070
   100
1002
}
  0
LINE
  5
38B2
  8
YODOROGO
 10
28050.135520230899
 20
1631.5036372746561
 30
0.0
 11
28050.135520230899
 21
1655.5036372746561
 31
0.0
1001
AUTOCAD_POSTSCRIPT_FIGURE
1002
{
1000
PSFILL
1000
Grayscale
1000
Grayscale
1070
   100
1002
}
  0
LINE
  5
38B3
  8
YODOROGO
 10
28082.135520230921
 20
1631.5036372746561
 30
0.0
 11
28050.135520230899
 21
1631.5036372746561
 31
0.0
1001
AUTOCAD_POSTSCRIPT_FIGURE
1002
{
1000
PSFILL
1000
Grayscale
1000
Grayscale
1070
   100
1002
}
  0
LINE
  5
38B4
  8
YODOROGO
 10
28082.135520230921
 20
1499.749496429288
 30
0.0
 11
28082.135520230921
 21
1631.5036372746561
 31
0.0
1001
AUTOCAD_POSTSCRIPT_FIGURE
1002
{
1000
PSFILL
1000
Grayscale
1000
Grayscale
1070
   100
1002
}
  0
LINE
  5
38B5
  8
YODOROGO
 10
28050.135520230921
 20
1499.749496429288
 30
0.0
 11
28082.135520230921
 21
1499.749496429288
 31
0.0
1001
AUTOCAD_POSTSCRIPT_FIGURE
1002
{
1000
PSFILL
1000
Grayscale
1000
Grayscale
1070
   100
1002
}
  0
LINE
  5
38B6
  8
YODOROGO
 10
28050.135520230921
 20
1475.7494964292871
 30
0.0
 11
28050.135520230921
 21
1499.749496429288
 31
0.0
1001
AUTOCAD_POSTSCRIPT_FIGURE
1002
{
1000
PSFILL
1000
Grayscale
1000
Grayscale
1070
   100
1002
}
  0
LINE
  5
38B7
  8
YODOROGO
 10
28137.604341291921
 20
1475.7494964292871
 30
0.0
 11
28050.135520230921
 21
1475.7494964292871
 31
0.0
1001
AUTOCAD_POSTSCRIPT_FIGURE
1002
{
1000
PSFILL
1000
Grayscale
1000
Grayscale
1070
   100
1002
}
  0
LINE
  5
38B8
  8
YODOROGO
 10
28137.604341291921
 20
1499.749496429288
 30
0.0
 11
28137.604341291921
 21
1475.7494964292871
 31
0.0
1001
AUTOCAD_POSTSCRIPT_FIGURE
1002
{
1000
PSFILL
1000
Grayscale
1000
Grayscale
1070
   100
1002
}
  0
LINE
  5
38B9
  8
YODOROGO
 10
28098.135520230931
 20
1499.749496429288
 30
0.0
 11
28137.604341291921
 21
1499.749496429288
 31
0.0
1001
AUTOCAD_POSTSCRIPT_FIGURE
1002
{
1000
PSFILL
1000
Grayscale
1000
Grayscale
1070
   100
1002
}
  0
LINE
  5
38BA
  8
YODOROGO
 10
28098.135520230931
 20
1631.5036372746561
 30
0.0
 11
28098.135520230931
 21
1499.749496429288
 31
0.0
1001
AUTOCAD_POSTSCRIPT_FIGURE
1002
{
1000
PSFILL
1000
Grayscale
1000
Grayscale
1070
   100
1002
}
  0
LINE
  5
38BB
  8
YODOROGO
 10
28137.604341291921
 20
1631.5036372746561
 30
0.0
 11
28098.135520230931
 21
1631.5036372746561
 31
0.0
1001
AUTOCAD_POSTSCRIPT_FIGURE
1002
{
1000
PSFILL
1000
Grayscale
1000
Grayscale
1070
   100
1002
}
  0
LINE
  5
38BC
  8
YODOROGO
 10
28137.604341291921
 20
1655.5036372746561
 30
0.0
 11
28137.604341291921
 21
1631.5036372746561
 31
0.0
1001
AUTOCAD_POSTSCRIPT_FIGURE
1002
{
1000
PSFILL
1000
Grayscale
1000
Grayscale
1070
   100
1002
}
  0
LINE
  5
38BD
  8
YODOROGO
 10
28098.135520230931
 20
1655.5036372746561
 30
0.0
 11
28137.604341291921
 21
1655.5036372746561
 31
0.0
1001
AUTOCAD_POSTSCRIPT_FIGURE
1002
{
1000
PSFILL
1000
Grayscale
1000
Grayscale
1070
   100
1002
}
  0
LINE
  5
38BE
  8
YODOROGO
 10
28401.60434129191
 20
1667.749496429288
 30
0.0
 11
28345.604341291921
 21
1667.749496429288
 31
0.0
  0
LINE
  5
38BF
  8
YODOROGO
 10
28401.60434129191
 20
1611.749496429288
 30
0.0
 11
28401.60434129191
 21
1667.749496429288
 31
0.0
  0
LINE
  5
38C0
  8
YODOROGO
 10
28345.604341291921
 20
1667.749496429288
 30
0.0
 11
28345.604341291921
 21
1611.749496429288
 31
0.0
  0
ARC
  5
38C1
  8
YODOROGO
 10
28513.60434129191
 20
1507.749496429288
 30
0.0
 40
80.0
 50
180.0
 51
270.0
  0
ARC
  5
38C2
  8
YODOROGO
 10
28537.604341291921
 20
1563.7494964292871
 30
0.0
 40
40.0
 50
180.0
 51
270.0
  0
LINE
  5
38C3
  8
YODOROGO
 10
28561.604341291932
 20
1523.7494964292871
 30
0.0
 11
28537.604341291921
 21
1523.7494964292871
 31
0.0
  0
ARC
  5
38C4
  8
YODOROGO
 10
28561.604341291932
 20
1547.749496429285
 30
0.0
 40
23.999999999996358
 50
270.0
 51
0.0000000000054281
  0
LINE
  5
38C5
  8
YODOROGO
 10
27801.604341291921
 20
1890.786580793706
 30
0.0
 11
27777.604341291921
 21
1843.776747951672
 31
0.0
1001
AUTOCAD_POSTSCRIPT_FIGURE
1002
{
1000
PSFILL
1000
Grayscale
1000
Grayscale
1070
   100
1002
}
  0
LINE
  5
38C6
  8
YODOROGO
 10
27801.604341291921
 20
1747.749496429286
 30
0.0
 11
27801.604341291921
 21
1890.786580793706
 31
0.0
1001
AUTOCAD_POSTSCRIPT_FIGURE
1002
{
1000
PSFILL
1000
Grayscale
1000
Grayscale
1070
   100
1002
}
  0
LINE
  5
38C7
  8
YODOROGO
 10
27817.604341291921
 20
1747.749496429286
 30
0.0
 11
27801.604341291921
 21
1747.749496429286
 31
0.0
1001
AUTOCAD_POSTSCRIPT_FIGURE
1002
{
1000
PSFILL
1000
Grayscale
1000
Grayscale
1070
   100
1002
}
  0
LINE
  5
38C8
  8
YODOROGO
 10
27817.604341291921
 20
1893.7713320852661
 30
0.0
 11
27817.604341291921
 21
1747.749496429286
 31
0.0
1001
AUTOCAD_POSTSCRIPT_FIGURE
1002
{
1000
PSFILL
1000
Grayscale
1000
Grayscale
1070
   100
1002
}
  0
LINE
  5
38C9
  8
YODOROGO
 10
27841.604341291921
 20
1867.6547582841361
 30
0.0
 11
27817.604341291921
 21
1893.7713320852661
 31
0.0
1001
AUTOCAD_POSTSCRIPT_FIGURE
1002
{
1000
PSFILL
1000
Grayscale
1000
Grayscale
1070
   100
1002
}
  0
LINE
  5
38CA
  8
YODOROGO
 10
27841.604341291921
 20
1883.6547582841361
 30
0.0
 11
27841.604341291921
 21
1867.6547582841361
 31
0.0
1001
AUTOCAD_POSTSCRIPT_FIGURE
1002
{
1000
PSFILL
1000
Grayscale
1000
Grayscale
1070
   100
1002
}
  0
LINE
  5
38CB
  8
YODOROGO
 10
27817.604341291921
 20
1917.7713320852649
 30
0.0
 11
27841.604341291921
 21
1883.6547582841361
 31
0.0
1001
AUTOCAD_POSTSCRIPT_FIGURE
1002
{
1000
PSFILL
1000
Grayscale
1000
Grayscale
1070
   100
1002
}
  0
LINE
  5
38CC
  8
YODOROGO
 10
27817.604341291921
 20
1939.749496429288
 30
0.0
 11
27817.604341291921
 21
1917.7713320852649
 31
0.0
1001
AUTOCAD_POSTSCRIPT_FIGURE
1002
{
1000
PSFILL
1000
Grayscale
1000
Grayscale
1070
   100
1002
}
  0
LINE
  5
38CD
  8
YODOROGO
 10
27889.604341291921
 20
1939.749496429288
 30
0.0
 11
27817.604341291921
 21
1939.749496429288
 31
0.0
1001
AUTOCAD_POSTSCRIPT_FIGURE
1002
{
1000
PSFILL
1000
Grayscale
1000
Grayscale
1070
   100
1002
}
  0
LINE
  5
38CE
  8
YODOROGO
 10
27889.604341291921
 20
1900.5683489363
 30
0.0
 11
27889.604341291921
 21
1939.749496429288
 31
0.0
1001
AUTOCAD_POSTSCRIPT_FIGURE
1002
{
1000
PSFILL
1000
Grayscale
1000
Grayscale
1070
   100
1002
}
  0
LINE
  5
38CF
  8
YODOROGO
 10
27857.604341291921
 20
1900.5683489363
 30
0.0
 11
27889.604341291921
 21
1900.5683489363
 31
0.0
1001
AUTOCAD_POSTSCRIPT_FIGURE
1002
{
1000
PSFILL
1000
Grayscale
1000
Grayscale
1070
   100
1002
}
  0
LINE
  5
38D0
  8
YODOROGO
 10
27857.604341291921
 20
1884.568348936298
 30
0.0
 11
27857.604341291921
 21
1900.5683489363
 31
0.0
1001
AUTOCAD_POSTSCRIPT_FIGURE
1002
{
1000
PSFILL
1000
Grayscale
1000
Grayscale
1070
   100
1002
}
  0
LINE
  5
38D1
  8
YODOROGO
 10
27889.604341291921
 20
1884.568348936298
 30
0.0
 11
27857.604341291921
 21
1884.568348936298
 31
0.0
1001
AUTOCAD_POSTSCRIPT_FIGURE
1002
{
1000
PSFILL
1000
Grayscale
1000
Grayscale
1070
   100
1002
}
  0
LINE
  5
38D2
  8
YODOROGO
 10
27889.604341291921
 20
1879.6191779644371
 30
0.0
 11
27889.604341291921
 21
1884.568348936298
 31
0.0
1001
AUTOCAD_POSTSCRIPT_FIGURE
1002
{
1000
PSFILL
1000
Grayscale
1000
Grayscale
1070
   100
1002
}
  0
LINE
  5
38D3
  8
YODOROGO
 10
27849.604341291921
 20
1812.974981161417
 30
0.0
 11
27889.604341291921
 21
1879.6191779644371
 31
0.0
1001
AUTOCAD_POSTSCRIPT_FIGURE
1002
{
1000
PSFILL
1000
Grayscale
1000
Grayscale
1070
   100
1002
}
  0
LINE
  5
38D4
  8
YODOROGO
 10
27849.604341291921
 20
1796.9749811614161
 30
0.0
 11
27849.604341291921
 21
1812.974981161417
 31
0.0
1001
AUTOCAD_POSTSCRIPT_FIGURE
1002
{
1000
PSFILL
1000
Grayscale
1000
Grayscale
1070
   100
1002
}
  0
LINE
  5
38D5
  8
YODOROGO
 10
27889.604341291921
 20
1847.6191779644359
 30
0.0
 11
27849.604341291921
 21
1796.9749811614161
 31
0.0
1001
AUTOCAD_POSTSCRIPT_FIGURE
1002
{
1000
PSFILL
1000
Grayscale
1000
Grayscale
1070
   100
1002
}
  0
LINE
  5
38D6
  8
YODOROGO
 10
27889.604341291921
 20
1747.749496429286
 30
0.0
 11
27889.604341291921
 21
1847.6191779644359
 31
0.0
1001
AUTOCAD_POSTSCRIPT_FIGURE
1002
{
1000
PSFILL
1000
Grayscale
1000
Grayscale
1070
   100
1002
}
  0
LINE
  5
38D7
  8
YODOROGO
 10
27905.604341291921
 20
1747.749496429286
 30
0.0
 11
27889.604341291921
 21
1747.749496429286
 31
0.0
1001
AUTOCAD_POSTSCRIPT_FIGURE
1002
{
1000
PSFILL
1000
Grayscale
1000
Grayscale
1070
   100
1002
}
  0
LINE
  5
38D8
  8
YODOROGO
 10
27905.604341291921
 20
1849.409012158806
 30
0.0
 11
27905.604341291921
 21
1747.749496429286
 31
0.0
1001
AUTOCAD_POSTSCRIPT_FIGURE
1002
{
1000
PSFILL
1000
Grayscale
1000
Grayscale
1070
   100
1002
}
  0
LINE
  5
38D9
  8
YODOROGO
 10
27937.604341291921
 20
1796.9749811614161
 30
0.0
 11
27905.604341291921
 21
1849.409012158806
 31
0.0
1001
AUTOCAD_POSTSCRIPT_FIGURE
1002
{
1000
PSFILL
1000
Grayscale
1000
Grayscale
1070
   100
1002
}
  0
LINE
  5
38DA
  8
YODOROGO
 10
27937.604341291921
 20
1812.974981161417
 30
0.0
 11
27937.604341291921
 21
1796.9749811614161
 31
0.0
1001
AUTOCAD_POSTSCRIPT_FIGURE
1002
{
1000
PSFILL
1000
Grayscale
1000
Grayscale
1070
   100
1002
}
  0
LINE
  5
38DB
  8
YODOROGO
 10
27905.604341291921
 20
1881.4090121588081
 30
0.0
 11
27937.604341291921
 21
1812.974981161417
 31
0.0
1001
AUTOCAD_POSTSCRIPT_FIGURE
1002
{
1000
PSFILL
1000
Grayscale
1000
Grayscale
1070
   100
1002
}
  0
LINE
  5
38DC
  8
YODOROGO
 10
27905.604341291921
 20
1884.5683489363
 30
0.0
 11
27905.604341291921
 21
1881.4090121588081
 31
0.0
1001
AUTOCAD_POSTSCRIPT_FIGURE
1002
{
1000
PSFILL
1000
Grayscale
1000
Grayscale
1070
   100
1002
}
  0
LINE
  5
38DD
  8
YODOROGO
 10
27937.604341291921
 20
1884.568348936298
 30
0.0
 11
27905.604341291921
 21
1884.5683489363
 31
0.0
1001
AUTOCAD_POSTSCRIPT_FIGURE
1002
{
1000
PSFILL
1000
Grayscale
1000
Grayscale
1070
   100
1002
}
  0
LINE
  5
38DE
  8
YODOROGO
 10
27937.604341291921
 20
1900.5683489363
 30
0.0
 11
27937.604341291921
 21
1884.568348936298
 31
0.0
1001
AUTOCAD_POSTSCRIPT_FIGURE
1002
{
1000
PSFILL
1000
Grayscale
1000
Grayscale
1070
   100
1002
}
  0
LINE
  5
38DF
  8
YODOROGO
 10
27905.604341291921
 20
1900.5683489363
 30
0.0
 11
27937.604341291921
 21
1900.5683489363
 31
0.0
1001
AUTOCAD_POSTSCRIPT_FIGURE
1002
{
1000
PSFILL
1000
Grayscale
1000
Grayscale
1070
   100
1002
}
  0
LINE
  5
38E0
  8
YODOROGO
 10
27905.604341291921
 20
1939.749496429288
 30
0.0
 11
27905.604341291921
 21
1900.5683489363
 31
0.0
1001
AUTOCAD_POSTSCRIPT_FIGURE
1002
{
1000
PSFILL
1000
Grayscale
1000
Grayscale
1070
   100
1002
}
  0
LINE
  5
38E1
  8
YODOROGO
 10
27937.604341291921
 20
1939.749496429288
 30
0.0
 11
27905.604341291921
 21
1939.749496429288
 31
0.0
1001
AUTOCAD_POSTSCRIPT_FIGURE
1002
{
1000
PSFILL
1000
Grayscale
1000
Grayscale
1070
   100
1002
}
  0
LINE
  5
38E2
  8
YODOROGO
 10
27937.604341291921
 20
1955.7494964292871
 30
0.0
 11
27937.604341291921
 21
1939.749496429288
 31
0.0
1001
AUTOCAD_POSTSCRIPT_FIGURE
1002
{
1000
PSFILL
1000
Grayscale
1000
Grayscale
1070
   100
1002
}
  0
LINE
  5
38E3
  8
YODOROGO
 10
27905.604341291921
 20
1955.7494964292871
 30
0.0
 11
27937.604341291921
 21
1955.7494964292871
 31
0.0
1001
AUTOCAD_POSTSCRIPT_FIGURE
1002
{
1000
PSFILL
1000
Grayscale
1000
Grayscale
1070
   100
1002
}
  0
LINE
  5
38E4
  8
YODOROGO
 10
27905.604341291921
 20
1979.749496429288
 30
0.0
 11
27905.604341291921
 21
1955.7494964292871
 31
0.0
1001
AUTOCAD_POSTSCRIPT_FIGURE
1002
{
1000
PSFILL
1000
Grayscale
1000
Grayscale
1070
   100
1002
}
  0
LINE
  5
38E5
  8
YODOROGO
 10
27889.604341291921
 20
1979.749496429288
 30
0.0
 11
27905.604341291921
 21
1979.749496429288
 31
0.0
1001
AUTOCAD_POSTSCRIPT_FIGURE
1002
{
1000
PSFILL
1000
Grayscale
1000
Grayscale
1070
   100
1002
}
  0
LINE
  5
38E6
  8
YODOROGO
 10
27889.604341291921
 20
1955.7494964292871
 30
0.0
 11
27889.604341291921
 21
1979.749496429288
 31
0.0
1001
AUTOCAD_POSTSCRIPT_FIGURE
1002
{
1000
PSFILL
1000
Grayscale
1000
Grayscale
1070
   100
1002
}
  0
LINE
  5
38E7
  8
YODOROGO
 10
27865.604341291921
 20
1955.7494964292871
 30
0.0
 11
27889.604341291921
 21
1955.7494964292871
 31
0.0
1001
AUTOCAD_POSTSCRIPT_FIGURE
1002
{
1000
PSFILL
1000
Grayscale
1000
Grayscale
1070
   100
1002
}
  0
LINE
  5
38E8
  8
YODOROGO
 10
27865.604341291921
 20
1979.749496429288
 30
0.0
 11
27865.604341291921
 21
1955.7494964292871
 31
0.0
1001
AUTOCAD_POSTSCRIPT_FIGURE
1002
{
1000
PSFILL
1000
Grayscale
1000
Grayscale
1070
   100
1002
}
  0
LINE
  5
38E9
  8
YODOROGO
 10
27849.604341291921
 20
1979.749496429288
 30
0.0
 11
27865.604341291921
 21
1979.749496429288
 31
0.0
1001
AUTOCAD_POSTSCRIPT_FIGURE
1002
{
1000
PSFILL
1000
Grayscale
1000
Grayscale
1070
   100
1002
}
  0
LINE
  5
38EA
  8
YODOROGO
 10
27849.604341291921
 20
1955.7494964292871
 30
0.0
 11
27849.604341291921
 21
1979.749496429288
 31
0.0
1001
AUTOCAD_POSTSCRIPT_FIGURE
1002
{
1000
PSFILL
1000
Grayscale
1000
Grayscale
1070
   100
1002
}
  0
LINE
  5
38EB
  8
YODOROGO
 10
27817.604341291921
 20
1955.7494964292871
 30
0.0
 11
27849.604341291921
 21
1955.7494964292871
 31
0.0
1001
AUTOCAD_POSTSCRIPT_FIGURE
1002
{
1000
PSFILL
1000
Grayscale
1000
Grayscale
1070
   100
1002
}
  0
LINE
  5
38EC
  8
YODOROGO
 10
27817.604341291921
 20
1979.749496429288
 30
0.0
 11
27817.604341291921
 21
1955.7494964292871
 31
0.0
1001
AUTOCAD_POSTSCRIPT_FIGURE
1002
{
1000
PSFILL
1000
Grayscale
1000
Grayscale
1070
   100
1002
}
  0
LINE
  5
38ED
  8
YODOROGO
 10
27801.604341291921
 20
1979.749496429288
 30
0.0
 11
27817.604341291921
 21
1979.749496429288
 31
0.0
1001
AUTOCAD_POSTSCRIPT_FIGURE
1002
{
1000
PSFILL
1000
Grayscale
1000
Grayscale
1070
   100
1002
}
  0
LINE
  5
38EE
  8
YODOROGO
 10
27801.604341291921
 20
1955.7494964292871
 30
0.0
 11
27801.604341291921
 21
1979.749496429288
 31
0.0
1001
AUTOCAD_POSTSCRIPT_FIGURE
1002
{
1000
PSFILL
1000
Grayscale
1000
Grayscale
1070
   100
1002
}
  0
LINE
  5
38EF
  8
YODOROGO
 10
27777.604341291921
 20
1955.7494964292871
 30
0.0
 11
27801.604341291921
 21
1955.7494964292871
 31
0.0
1001
AUTOCAD_POSTSCRIPT_FIGURE
1002
{
1000
PSFILL
1000
Grayscale
1000
Grayscale
1070
   100
1002
}
  0
LINE
  5
38F0
  8
YODOROGO
 10
27777.604341291921
 20
1939.749496429288
 30
0.0
 11
27777.604341291921
 21
1955.7494964292871
 31
0.0
1001
AUTOCAD_POSTSCRIPT_FIGURE
1002
{
1000
PSFILL
1000
Grayscale
1000
Grayscale
1070
   100
1002
}
  0
LINE
  5
38F1
  8
YODOROGO
 10
27801.604341291921
 20
1939.749496429288
 30
0.0
 11
27777.604341291921
 21
1939.749496429288
 31
0.0
1001
AUTOCAD_POSTSCRIPT_FIGURE
1002
{
1000
PSFILL
1000
Grayscale
1000
Grayscale
1070
   100
1002
}
  0
LINE
  5
38F2
  8
YODOROGO
 10
27801.604341291921
 20
1914.7865807937051
 30
0.0
 11
27801.604341291921
 21
1939.749496429288
 31
0.0
1001
AUTOCAD_POSTSCRIPT_FIGURE
1002
{
1000
PSFILL
1000
Grayscale
1000
Grayscale
1070
   100
1002
}
  0
LINE
  5
38F3
  8
YODOROGO
 10
27777.604341291921
 20
1859.776747951671
 30
0.0
 11
27801.604341291921
 21
1914.7865807937051
 31
0.0
1001
AUTOCAD_POSTSCRIPT_FIGURE
1002
{
1000
PSFILL
1000
Grayscale
1000
Grayscale
1070
   100
1002
}
  0
LINE
  5
38F4
  8
YODOROGO
 10
27777.604341291921
 20
1843.776747951672
 30
0.0
 11
27777.604341291921
 21
1859.776747951671
 31
0.0
1001
AUTOCAD_POSTSCRIPT_FIGURE
1002
{
1000
PSFILL
1000
Grayscale
1000
Grayscale
1070
   100
1002
}
  0
LINE
  5
38F5
  8
YODOROGO
 10
28257.604341291921
 20
1867.7494964292871
 30
0.0
 11
28401.60434129191
 21
1824.877625640306
 31
0.0
1001
AUTOCAD_POSTSCRIPT_FIGURE
1002
{
1000
PSFILL
1000
Grayscale
1000
Grayscale
1070
   100
1002
}
  0
LINE
  5
38F6
  8
YODOROGO
 10
28401.60434129191
 20
1752.877625640306
 30
0.0
 11
28257.604341291921
 21
1795.7494964292871
 31
0.0
1001
AUTOCAD_POSTSCRIPT_FIGURE
1002
{
1000
PSFILL
1000
Grayscale
1000
Grayscale
1070
   100
1002
}
  0
LINE
  5
38F7
  8
YODOROGO
 10
28401.60434129191
 20
1984.877625640306
 30
0.0
 11
28257.604341291921
 21
2027.749496429288
 31
0.0
1001
AUTOCAD_POSTSCRIPT_FIGURE
1002
{
1000
PSFILL
1000
Grayscale
1000
Grayscale
1070
   100
1002
}
  0
LINE
  5
38F8
  8
YODOROGO
 10
28257.604341291921
 20
1959.749496429288
 30
0.0
 11
28401.60434129191
 21
1916.8776256403071
 31
0.0
1001
AUTOCAD_POSTSCRIPT_FIGURE
1002
{
1000
PSFILL
1000
Grayscale
1000
Grayscale
1070
   100
1002
}
  0
LINE
  5
38F9
  8
YODOROGO
 10
28257.604341291921
 20
1795.7494964292871
 30
0.0
 11
28257.604341291921
 21
1867.7494964292871
 31
0.0
1001
AUTOCAD_POSTSCRIPT_FIGURE
1002
{
1000
PSFILL
1000
Grayscale
1000
Grayscale
1070
   100
1002
}
  0
LINE
  5
38FA
  8
YODOROGO
 10
28257.604341291921
 20
2027.749496429288
 30
0.0
 11
28257.604341291921
 21
1959.749496429288
 31
0.0
1001
AUTOCAD_POSTSCRIPT_FIGURE
1002
{
1000
PSFILL
1000
Grayscale
1000
Grayscale
1070
   100
1002
}
  0
LINE
  5
38FB
  8
YODOROGO
 10
28080.236320206739
 20
1939.749496429288
 30
0.0
 11
28129.60434129191
 21
1747.749496429286
 31
0.0
1001
AUTOCAD_POSTSCRIPT_FIGURE
1002
{
1000
PSFILL
1000
Grayscale
1000
Grayscale
1070
   100
1002
}
  0
LINE
  5
38FC
  8
YODOROGO
 10
27977.604341291921
 20
1939.749496429288
 30
0.0
 11
28080.236320206739
 21
1939.749496429288
 31
0.0
1001
AUTOCAD_POSTSCRIPT_FIGURE
1002
{
1000
PSFILL
1000
Grayscale
1000
Grayscale
1070
   100
1002
}
  0
LINE
  5
38FD
  8
YODOROGO
 10
27977.604341291921
 20
1955.7494964292871
 30
0.0
 11
27977.604341291921
 21
1939.749496429288
 31
0.0
1001
AUTOCAD_POSTSCRIPT_FIGURE
1002
{
1000
PSFILL
1000
Grayscale
1000
Grayscale
1070
   100
1002
}
  0
LINE
  5
38FE
  8
YODOROGO
 10
28076.60687851991
 20
1955.7494964292871
 30
0.0
 11
27977.604341291921
 21
1955.7494964292871
 31
0.0
1001
AUTOCAD_POSTSCRIPT_FIGURE
1002
{
1000
PSFILL
1000
Grayscale
1000
Grayscale
1070
   100
1002
}
  0
LINE
  5
38FF
  8
YODOROGO
 10
28071.162715989711
 20
1979.749496429288
 30
0.0
 11
28076.60687851991
 21
1955.7494964292871
 31
0.0
1001
AUTOCAD_POSTSCRIPT_FIGURE
1002
{
1000
PSFILL
1000
Grayscale
1000
Grayscale
1070
   100
1002
}
  0
LINE
  5
3900
  8
YODOROGO
 10
28091.162715989711
 20
1979.749496429288
 30
0.0
 11
28071.162715989711
 21
1979.749496429288
 31
0.0
1001
AUTOCAD_POSTSCRIPT_FIGURE
1002
{
1000
PSFILL
1000
Grayscale
1000
Grayscale
1070
   100
1002
}
  0
LINE
  5
3901
  8
YODOROGO
 10
28095.806878519939
 20
1955.7494964292871
 30
0.0
 11
28091.162715989711
 21
1979.749496429288
 31
0.0
1001
AUTOCAD_POSTSCRIPT_FIGURE
1002
{
1000
PSFILL
1000
Grayscale
1000
Grayscale
1070
   100
1002
}
  0
LINE
  5
3902
  8
YODOROGO
 10
28121.604341291921
 20
1955.7494964292871
 30
0.0
 11
28095.806878519939
 21
1955.7494964292871
 31
0.0
1001
AUTOCAD_POSTSCRIPT_FIGURE
1002
{
1000
PSFILL
1000
Grayscale
1000
Grayscale
1070
   100
1002
}
  0
LINE
  5
3903
  8
YODOROGO
 10
28121.604341291921
 20
1979.749496429288
 30
0.0
 11
28121.604341291921
 21
1955.7494964292871
 31
0.0
1001
AUTOCAD_POSTSCRIPT_FIGURE
1002
{
1000
PSFILL
1000
Grayscale
1000
Grayscale
1070
   100
1002
}
  0
LINE
  5
3904
  8
YODOROGO
 10
28137.604341291921
 20
1979.749496429288
 30
0.0
 11
28121.604341291921
 21
1979.749496429288
 31
0.0
1001
AUTOCAD_POSTSCRIPT_FIGURE
1002
{
1000
PSFILL
1000
Grayscale
1000
Grayscale
1070
   100
1002
}
  0
LINE
  5
3905
  8
YODOROGO
 10
28137.604341291921
 20
1955.7494964292871
 30
0.0
 11
28137.604341291921
 21
1979.749496429288
 31
0.0
1001
AUTOCAD_POSTSCRIPT_FIGURE
1002
{
1000
PSFILL
1000
Grayscale
1000
Grayscale
1070
   100
1002
}
  0
LINE
  5
3906
  8
YODOROGO
 10
28137.604341291921
 20
1939.749496429288
 30
0.0
 11
28137.604341291921
 21
1955.7494964292871
 31
0.0
1001
AUTOCAD_POSTSCRIPT_FIGURE
1002
{
1000
PSFILL
1000
Grayscale
1000
Grayscale
1070
   100
1002
}
  0
LINE
  5
3907
  8
YODOROGO
 10
28098.902986873411
 20
1939.749496429288
 30
0.0
 11
28137.604341291921
 21
1939.749496429288
 31
0.0
1001
AUTOCAD_POSTSCRIPT_FIGURE
1002
{
1000
PSFILL
1000
Grayscale
1000
Grayscale
1070
   100
1002
}
  0
LINE
  5
3908
  8
YODOROGO
 10
28137.604341291921
 20
1747.749496429286
 30
0.0
 11
28098.902986873411
 21
1939.749496429288
 31
0.0
1001
AUTOCAD_POSTSCRIPT_FIGURE
1002
{
1000
PSFILL
1000
Grayscale
1000
Grayscale
1070
   100
1002
}
  0
LINE
  5
3909
  8
YODOROGO
 10
28129.60434129191
 20
1747.749496429286
 30
0.0
 11
28137.604341291921
 21
1747.749496429286
 31
0.0
1001
AUTOCAD_POSTSCRIPT_FIGURE
1002
{
1000
PSFILL
1000
Grayscale
1000
Grayscale
1070
   100
1002
}
  0
LINE
  5
390A
  8
YODOROGO
 10
28078.06921993379
 20
1775.7407762987939
 30
0.0
 11
27977.604341291921
 21
1747.749496429286
 31
0.0
  0
LINE
  5
390B
  8
YODOROGO
 10
28078.06921993379
 20
1798.6689795290731
 30
0.0
 11
28078.06921993379
 21
1775.7407762987939
 31
0.0
  0
LINE
  5
390C
  8
YODOROGO
 10
28033.83678061287
 20
1786.816933133767
 30
0.0
 11
28078.06921993379
 21
1798.6689795290731
 31
0.0
  0
LINE
  5
390D
  8
YODOROGO
 10
28033.83678061287
 20
1872.5683489362989
 30
0.0
 11
28033.83678061287
 21
1786.816933133767
 31
0.0
  0
LINE
  5
390E
  8
YODOROGO
 10
28078.06921993379
 20
1872.5683489362989
 30
0.0
 11
28033.83678061287
 21
1872.5683489362989
 31
0.0
  0
LINE
  5
390F
  8
YODOROGO
 10
28078.06921993379
 20
1892.568348936298
 30
0.0
 11
28078.06921993379
 21
1872.5683489362989
 31
0.0
  0
LINE
  5
3910
  8
YODOROGO
 10
27977.604341291921
 20
1892.568348936298
 30
0.0
 11
28078.06921993379
 21
1892.568348936298
 31
0.0
  0
LINE
  5
3911
  8
YODOROGO
 10
27977.604341291921
 20
1872.5683489362989
 30
0.0
 11
27977.604341291921
 21
1892.568348936298
 31
0.0
  0
LINE
  5
3912
  8
YODOROGO
 10
28021.836780612852
 20
1872.5683489362989
 30
0.0
 11
27977.604341291921
 21
1872.5683489362989
 31
0.0
  0
LINE
  5
3913
  8
YODOROGO
 10
28021.836780612852
 20
1784.673339594317
 30
0.0
 11
28021.836780612852
 21
1872.5683489362989
 31
0.0
  0
LINE
  5
3914
  8
YODOROGO
 10
27977.604341291921
 20
1771.749496429286
 30
0.0
 11
28021.836780612852
 21
1784.673339594317
 31
0.0
  0
LINE
  5
3915
  8
YODOROGO
 10
27977.604341291921
 20
1747.749496429286
 30
0.0
 11
27977.604341291921
 21
1771.749496429286
 31
0.0
  0
LINE
  5
3916
  8
YODOROGO
 10
28001.604341291921
 20
1707.749496429288
 30
0.0
 11
28001.604341291921
 21
1683.7494964292871
 31
0.0
  0
LINE
  5
3917
  8
YODOROGO
 10
28017.604341291921
 20
1707.749496429288
 30
0.0
 11
28001.604341291921
 21
1707.749496429288
 31
0.0
  0
LINE
  5
3918
  8
YODOROGO
 10
28017.604341291921
 20
1683.7494964292871
 30
0.0
 11
28017.604341291921
 21
1707.749496429288
 31
0.0
  0
LINE
  5
3919
  8
YODOROGO
 10
28040.913204016892
 20
1683.7494964292871
 30
0.0
 11
28017.604341291921
 21
1683.7494964292871
 31
0.0
  0
LINE
  5
391A
  8
YODOROGO
 10
28001.604341291921
 20
1683.7494964292871
 30
0.0
 11
27977.604341291921
 21
1683.7494964292871
 31
0.0
  0
LINE
  5
391B
  8
YODOROGO
 10
28082.135520230921
 20
1707.749496429288
 30
0.0
 11
28098.135520230931
 21
1707.749496429288
 31
0.0
1001
AUTOCAD_POSTSCRIPT_FIGURE
1002
{
1000
PSFILL
1000
Grayscale
1000
Grayscale
1070
   100
1002
}
  0
LINE
  5
391C
  8
YODOROGO
 10
28401.60434129191
 20
1824.877625640306
 30
0.0
 11
28401.60434129191
 21
1752.877625640306
 31
0.0
1001
AUTOCAD_POSTSCRIPT_FIGURE
1002
{
1000
PSFILL
1000
Grayscale
1000
Grayscale
1070
   100
1002
}
  0
LINE
  5
391D
  8
YODOROGO
 10
28401.60434129191
 20
1916.8776256403071
 30
0.0
 11
28401.60434129191
 21
1984.877625640306
 31
0.0
1001
AUTOCAD_POSTSCRIPT_FIGURE
1002
{
1000
PSFILL
1000
Grayscale
1000
Grayscale
1070
   100
1002
}
  0
LINE
  5
391E
  8
YODOROGO
 10
28433.60434129191
 20
1819.7494964292871
 30
0.0
 11
28433.60434129191
 21
1747.74949642929
 31
0.0
  0
LINE
  5
391F
  8
YODOROGO
 10
28497.60434129191
 20
1707.749496429288
 30
0.0
 11
28433.60434129191
 21
1707.749496429288
 31
0.0
  0
LINE
  5
3920
  8
YODOROGO
 10
28433.60434129191
 20
1747.74949642929
 30
0.0
 11
28585.604341291921
 21
1747.74949642929
 31
0.0
  0
LINE
  5
3921
  8
YODOROGO
 10
28497.60434129191
 20
1867.7494964292871
 30
0.0
 11
28433.60434129191
 21
1867.7494964292871
 31
0.0
  0
LINE
  5
3922
  8
YODOROGO
 10
28497.60434129191
 20
1923.7494964292871
 30
0.0
 11
28497.60434129191
 21
1867.7494964292871
 31
0.0
  0
LINE
  5
3923
  8
YODOROGO
 10
28585.604341291921
 20
1987.7494964292871
 30
0.0
 11
28585.604341291921
 21
2027.749496429288
 31
0.0
  0
LINE
  5
3924
  8
YODOROGO
 10
28433.60434129191
 20
1987.7494964292871
 30
0.0
 11
28585.604341291921
 21
1987.7494964292871
 31
0.0
  0
LINE
  5
3925
  8
YODOROGO
 10
28433.60434129191
 20
1867.7494964292871
 30
0.0
 11
28433.60434129191
 21
1987.7494964292871
 31
0.0
  0
LINE
  5
3926
  8
YODOROGO
 10
29001.60434129191
 20
2027.749496429288
 30
0.0
 11
29001.60434129191
 21
1619.749496429288
 31
0.0
  0
LINE
  5
3927
  8
YODOROGO
 10
29073.604341291921
 20
1579.749496429288
 30
0.0
 11
29073.604341291921
 21
2027.749496429288
 31
0.0
  0
LINE
  5
3928
  8
YODOROGO
 10
29261.604341291921
 20
1491.749496429286
 30
0.0
 11
29261.604341291921
 21
2007.749496429288
 31
0.0
  0
LINE
  5
3929
  8
YODOROGO
 10
29197.604341291921
 20
2007.749496429288
 30
0.0
 11
29197.604341291921
 21
1491.749496429286
 31
0.0
  0
LINE
  5
392A
  8
YODOROGO
 10
29385.604341291921
 20
2027.749496429288
 30
0.0
 11
29385.604341291921
 21
1427.749496429288
 31
0.0
  0
LINE
  5
392B
  8
YODOROGO
 10
29457.604341291921
 20
1427.749496429288
 30
0.0
 11
29457.604341291921
 21
2027.749496429288
 31
0.0
  0
LINE
  5
392C
  8
YODOROGO
 10
28657.604341291921
 20
1667.749496429288
 30
0.0
 11
28657.604341291921
 21
1747.74949642929
 31
0.0
  0
LINE
  5
392D
  8
YODOROGO
 10
29885.604341291921
 20
1707.749496429288
 30
0.0
 11
29885.604341291921
 21
1667.749496429288
 31
0.0
  0
LINE
  5
392E
  8
YODOROGO
 10
29885.604341291921
 20
1707.749496429288
 30
0.0
 11
29885.604341291921
 21
1667.749496429288
 31
0.0
  0
ARC
  5
392F
  8
YODOROGO
 10
28906.911576186842
 20
1618.217864442272
 30
0.0
 40
94.705151178741644
 50
274.05244162907098
 51
0.9266642149310712
  0
ARC
  5
3930
  8
YODOROGO
 10
28909.186170719819
 20
1592.61072861044
 30
0.0
 40
164.92042356085511
 50
271.5351210653775
 51
355.52727750585052
  0
LINE
  5
3931
  8
YODOROGO
 10
28913.604341291921
 20
1523.7494964292871
 30
0.0
 11
28913.604341291921
 21
1427.749496429288
 31
0.0
  0
LINE
  5
3932
  8
YODOROGO
 10
28793.60434129191
 20
1667.749496429288
 30
0.0
 11
28657.604341291921
 21
1667.749496429288
 31
0.0
  0
LINE
  5
3933
  8
YODOROGO
 10
28793.60434129191
 20
1603.7494964292871
 30
0.0
 11
28793.60434129191
 21
1667.749496429288
 31
0.0
  0
LINE
  5
3934
  8
YODOROGO
 10
28657.604341291921
 20
1603.7494964292871
 30
0.0
 11
28793.60434129191
 21
1603.7494964292871
 31
0.0
  0
LINE
  5
3935
  8
YODOROGO
 10
28657.604341291921
 20
1523.7494964292871
 30
0.0
 11
28657.604341291921
 21
1603.7494964292871
 31
0.0
  0
LINE
  5
3936
  8
YODOROGO
 10
28793.60434129191
 20
1523.7494964292871
 30
0.0
 11
28657.604341291921
 21
1523.7494964292871
 31
0.0
  0
LINE
  5
3937
  8
YODOROGO
 10
28793.60434129191
 20
1427.749496429288
 30
0.0
 11
28793.60434129191
 21
1523.7494964292871
 31
0.0
  0
LINE
  5
3938
  8
YODOROGO
 10
29197.604341291921
 20
1491.749496429286
 30
0.0
 11
29261.604341291921
 21
1491.749496429286
 31
0.0
  0
LINE
  5
3939
  8
YODOROGO
 10
29385.604341291921
 20
1427.749496429288
 30
0.0
 11
29457.604341291921
 21
1427.749496429288
 31
0.0
  0
LINE
  5
393A
  8
YODOROGO
 10
29737.604341291921
 20
1528.4414521705639
 30
0.0
 11
29737.604341291921
 21
1427.749496429288
 31
0.0
  0
LINE
  5
393B
  8
YODOROGO
 10
29617.604341291921
 20
1427.749496429288
 30
0.0
 11
29737.604341291921
 21
1528.4414521705639
 31
0.0
  0
LINE
  5
393C
  8
YODOROGO
 10
29617.604341291921
 20
1547.749496429288
 30
0.0
 11
29617.604341291921
 21
1427.749496429288
 31
0.0
  0
LINE
  5
393D
  8
YODOROGO
 10
29712.94462869945
 20
1627.749496429288
 30
0.0
 11
29617.604341291921
 21
1547.749496429288
 31
0.0
  0
LINE
  5
393E
  8
YODOROGO
 10
29617.604341291921
 20
1627.749496429288
 30
0.0
 11
29712.94462869945
 21
1627.749496429288
 31
0.0
  0
LINE
  5
393F
  8
YODOROGO
 10
29617.604341291921
 20
1667.749496429288
 30
0.0
 11
29617.604341291921
 21
1627.749496429288
 31
0.0
  0
LINE
  5
3940
  8
YODOROGO
 10
29885.604341291921
 20
1667.749496429288
 30
0.0
 11
29617.604341291921
 21
1667.749496429288
 31
0.0
  0
LINE
  5
3941
  8
YODOROGO
 10
29917.604341291921
 20
1627.749496429288
 30
0.0
 11
29777.604341291921
 21
1627.749496429288
 31
0.0
  0
LINE
  5
3942
  8
YODOROGO
 10
29777.604341291921
 20
1562.0054374176559
 30
0.0
 11
29771.409872985321
 21
1556.807661346234
 31
0.0
  0
LINE
  5
3943
  8
YODOROGO
 10
29777.604341291921
 20
1627.749496429288
 30
0.0
 11
29777.604341291921
 21
1562.0054374176559
 31
0.0
  0
LINE
  5
3944
  8
YODOROGO
 10
29737.604341291921
 20
1528.4414521705639
 30
0.0
 11
29737.604341291921
 21
1427.749496429288
 31
0.0
  0
LINE
  5
3945
  8
YODOROGO
 10
29617.604341291921
 20
1427.749496429288
 30
0.0
 11
29737.604341291921
 21
1528.4414521705639
 31
0.0
  0
LINE
  5
3946
  8
YODOROGO
 10
29617.604341291921
 20
1547.749496429288
 30
0.0
 11
29617.604341291921
 21
1427.749496429288
 31
0.0
  0
LINE
  5
3947
  8
YODOROGO
 10
29712.94462869945
 20
1627.749496429288
 30
0.0
 11
29617.604341291921
 21
1547.749496429288
 31
0.0
  0
LINE
  5
3948
  8
YODOROGO
 10
29617.604341291921
 20
1627.749496429288
 30
0.0
 11
29712.94462869945
 21
1627.749496429288
 31
0.0
  0
LINE
  5
3949
  8
YODOROGO
 10
29617.604341291921
 20
1667.749496429288
 30
0.0
 11
29617.604341291921
 21
1627.749496429288
 31
0.0
  0
LINE
  5
394A
  8
YODOROGO
 10
29885.604341291921
 20
1667.749496429288
 30
0.0
 11
29617.604341291921
 21
1667.749496429288
 31
0.0
  0
LINE
  5
394B
  8
YODOROGO
 10
28793.60434129191
 20
1747.74949642929
 30
0.0
 11
28793.60434129191
 21
1819.7494964292871
 31
0.0
  0
LINE
  5
394C
  8
YODOROGO
 10
28657.604341291921
 20
1747.74949642929
 30
0.0
 11
28793.60434129191
 21
1747.74949642929
 31
0.0
  0
LINE
  5
394D
  8
YODOROGO
 10
28729.604341291921
 20
1867.7494964292871
 30
0.0
 11
28729.604341291921
 21
1923.7494964292871
 31
0.0
  0
LINE
  5
394E
  8
YODOROGO
 10
28793.60434129191
 20
1867.7494964292871
 30
0.0
 11
28729.604341291921
 21
1867.7494964292871
 31
0.0
  0
LINE
  5
394F
  8
YODOROGO
 10
28793.60434129191
 20
1947.749496429288
 30
0.0
 11
28793.60434129191
 21
1867.7494964292871
 31
0.0
  0
ARC
  5
3950
  8
YODOROGO
 10
28753.60434129191
 20
1947.749496429288
 30
0.0
 40
40.0
 50
0.0
 51
90.0
  0
LINE
  5
3951
  8
YODOROGO
 10
28657.604341291921
 20
1987.7494964292871
 30
0.0
 11
28753.60434129191
 21
1987.7494964292871
 31
0.0
  0
LINE
  5
3952
  8
YODOROGO
 10
28657.604341291921
 20
2027.749496429288
 30
0.0
 11
28657.604341291921
 21
1987.7494964292871
 31
0.0
  0
LINE
  5
3953
  8
YODOROGO
 10
29073.604341291921
 20
2027.749496429288
 30
0.0
 11
29001.60434129191
 21
2027.749496429288
 31
0.0
  0
LINE
  5
3954
  8
YODOROGO
 10
29261.604341291921
 20
2007.749496429288
 30
0.0
 11
29197.604341291921
 21
2007.749496429288
 31
0.0
  0
LINE
  5
3955
  8
YODOROGO
 10
29457.604341291921
 20
2027.749496429288
 30
0.0
 11
29385.604341291921
 21
2027.749496429288
 31
0.0
  0
LINE
  5
3956
  8
YODOROGO
 10
29673.604341291921
 20
1707.749496429288
 30
0.0
 11
29673.604341291921
 21
1771.7494964292871
 31
0.0
1001
AUTOCAD_POSTSCRIPT_FIGURE
1002
{
1000
PSFILL
1000
Grayscale
1000
Grayscale
1070
    25
1002
}
  0
LINE
  5
3957
  8
YODOROGO
 10
29617.604341291921
 20
1707.749496429288
 30
0.0
 11
29673.604341291921
 21
1707.749496429288
 31
0.0
1001
AUTOCAD_POSTSCRIPT_FIGURE
1002
{
1000
PSFILL
1000
Grayscale
1000
Grayscale
1070
    25
1002
}
  0
LINE
  5
3958
  8
YODOROGO
 10
29617.604341291921
 20
1819.7494964292871
 30
0.0
 11
29617.604341291921
 21
1707.749496429288
 31
0.0
1001
AUTOCAD_POSTSCRIPT_FIGURE
1002
{
1000
PSFILL
1000
Grayscale
1000
Grayscale
1070
    25
1002
}
  0
LINE
  5
3959
  8
YODOROGO
 10
29765.604341291921
 20
1819.7494964292871
 30
0.0
 11
29617.604341291921
 21
1819.7494964292871
 31
0.0
1001
AUTOCAD_POSTSCRIPT_FIGURE
1002
{
1000
PSFILL
1000
Grayscale
1000
Grayscale
1070
    25
1002
}
  0
LINE
  5
395A
  8
YODOROGO
 10
29765.604341291921
 20
1859.749496429288
 30
0.0
 11
29765.604341291921
 21
1819.7494964292871
 31
0.0
1001
AUTOCAD_POSTSCRIPT_FIGURE
1002
{
1000
PSFILL
1000
Grayscale
1000
Grayscale
1070
    25
1002
}
  0
LINE
  5
395B
  8
YODOROGO
 10
29617.604341291921
 20
1859.749496429288
 30
0.0
 11
29765.604341291921
 21
1859.749496429288
 31
0.0
1001
AUTOCAD_POSTSCRIPT_FIGURE
1002
{
1000
PSFILL
1000
Grayscale
1000
Grayscale
1070
    25
1002
}
  0
LINE
  5
395C
  8
YODOROGO
 10
29617.604341291921
 20
1907.7494964292871
 30
0.0
 11
29617.604341291921
 21
1859.749496429288
 31
0.0
1001
AUTOCAD_POSTSCRIPT_FIGURE
1002
{
1000
PSFILL
1000
Grayscale
1000
Grayscale
1070
    25
1002
}
  0
LINE
  5
395D
  8
YODOROGO
 10
29765.604341291921
 20
1907.7494964292871
 30
0.0
 11
29617.604341291921
 21
1907.7494964292871
 31
0.0
1001
AUTOCAD_POSTSCRIPT_FIGURE
1002
{
1000
PSFILL
1000
Grayscale
1000
Grayscale
1070
    25
1002
}
  0
LINE
  5
395E
  8
YODOROGO
 10
29765.604341291921
 20
1947.749496429288
 30
0.0
 11
29765.604341291921
 21
1907.7494964292871
 31
0.0
1001
AUTOCAD_POSTSCRIPT_FIGURE
1002
{
1000
PSFILL
1000
Grayscale
1000
Grayscale
1070
    25
1002
}
  0
LINE
  5
395F
  8
YODOROGO
 10
29617.604341291921
 20
1947.749496429288
 30
0.0
 11
29765.604341291921
 21
1947.749496429288
 31
0.0
1001
AUTOCAD_POSTSCRIPT_FIGURE
1002
{
1000
PSFILL
1000
Grayscale
1000
Grayscale
1070
    25
1002
}
  0
LINE
  5
3960
  8
YODOROGO
 10
29617.604341291921
 20
2027.749496429288
 30
0.0
 11
29617.604341291921
 21
1947.749496429288
 31
0.0
1001
AUTOCAD_POSTSCRIPT_FIGURE
1002
{
1000
PSFILL
1000
Grayscale
1000
Grayscale
1070
    25
1002
}
  0
LINE
  5
3961
  8
YODOROGO
 10
29665.604341291921
 20
2027.749496429288
 30
0.0
 11
29617.604341291921
 21
2027.749496429288
 31
0.0
1001
AUTOCAD_POSTSCRIPT_FIGURE
1002
{
1000
PSFILL
1000
Grayscale
1000
Grayscale
1070
    25
1002
}
  0
LINE
  5
3962
  8
YODOROGO
 10
29665.604341291921
 20
1995.7494964292871
 30
0.0
 11
29665.604341291921
 21
2027.749496429288
 31
0.0
1001
AUTOCAD_POSTSCRIPT_FIGURE
1002
{
1000
PSFILL
1000
Grayscale
1000
Grayscale
1070
    25
1002
}
  0
LINE
  5
3963
  8
YODOROGO
 10
29765.604341291921
 20
1995.7494964292871
 30
0.0
 11
29665.604341291921
 21
1995.7494964292871
 31
0.0
1001
AUTOCAD_POSTSCRIPT_FIGURE
1002
{
1000
PSFILL
1000
Grayscale
1000
Grayscale
1070
    25
1002
}
  0
LINE
  5
3964
  8
YODOROGO
 10
29765.604341291921
 20
2027.749496429288
 30
0.0
 11
29765.604341291921
 21
1995.7494964292871
 31
0.0
1001
AUTOCAD_POSTSCRIPT_FIGURE
1002
{
1000
PSFILL
1000
Grayscale
1000
Grayscale
1070
    25
1002
}
  0
LINE
  5
3965
  8
YODOROGO
 10
29829.604341291921
 20
2027.749496429288
 30
0.0
 11
29765.604341291921
 21
2027.749496429288
 31
0.0
1001
AUTOCAD_POSTSCRIPT_FIGURE
1002
{
1000
PSFILL
1000
Grayscale
1000
Grayscale
1070
    25
1002
}
  0
LINE
  5
3966
  8
YODOROGO
 10
29829.604341291921
 20
1995.7494964292871
 30
0.0
 11
29829.604341291921
 21
2027.749496429288
 31
0.0
1001
AUTOCAD_POSTSCRIPT_FIGURE
1002
{
1000
PSFILL
1000
Grayscale
1000
Grayscale
1070
    25
1002
}
  0
LINE
  5
3967
  8
YODOROGO
 10
29829.604341291921
 20
1907.7494964292871
 30
0.0
 11
29829.604341291921
 21
1947.749496429288
 31
0.0
1001
AUTOCAD_POSTSCRIPT_FIGURE
1002
{
1000
PSFILL
1000
Grayscale
1000
Grayscale
1070
    25
1002
}
  0
LINE
  5
3968
  8
YODOROGO
 10
29829.604341291921
 20
1819.7494964292871
 30
0.0
 11
29829.604341291921
 21
1859.749496429288
 31
0.0
1001
AUTOCAD_POSTSCRIPT_FIGURE
1002
{
1000
PSFILL
1000
Grayscale
1000
Grayscale
1070
    25
1002
}
  0
LINE
  5
3969
  8
YODOROGO
 10
29921.60434129191
 20
1771.7494964292871
 30
0.0
 11
29921.60434129191
 21
1707.749496429288
 31
0.0
1001
AUTOCAD_POSTSCRIPT_FIGURE
1002
{
1000
PSFILL
1000
Grayscale
1000
Grayscale
1070
    25
1002
}
  0
LINE
  5
396A
  8
YODOROGO
 10
29829.604341291921
 20
1771.7494964292871
 30
0.0
 11
29921.60434129191
 21
1771.7494964292871
 31
0.0
1001
AUTOCAD_POSTSCRIPT_FIGURE
1002
{
1000
PSFILL
1000
Grayscale
1000
Grayscale
1070
    25
1002
}
  0
LINE
  5
396B
  8
YODOROGO
 10
29829.604341291921
 20
1707.749496429288
 30
0.0
 11
29829.604341291921
 21
1771.7494964292871
 31
0.0
1001
AUTOCAD_POSTSCRIPT_FIGURE
1002
{
1000
PSFILL
1000
Grayscale
1000
Grayscale
1070
    25
1002
}
  0
LINE
  5
396C
  8
YODOROGO
 10
29765.604341291921
 20
1707.749496429288
 30
0.0
 11
29829.604341291921
 21
1707.749496429288
 31
0.0
1001
AUTOCAD_POSTSCRIPT_FIGURE
1002
{
1000
PSFILL
1000
Grayscale
1000
Grayscale
1070
    25
1002
}
  0
LINE
  5
396D
  8
YODOROGO
 10
29765.604341291921
 20
1771.7494964292871
 30
0.0
 11
29765.604341291921
 21
1707.749496429288
 31
0.0
1001
AUTOCAD_POSTSCRIPT_FIGURE
1002
{
1000
PSFILL
1000
Grayscale
1000
Grayscale
1070
    25
1002
}
  0
LINE
  5
396E
  8
YODOROGO
 10
29673.604341291921
 20
1771.7494964292871
 30
0.0
 11
29765.604341291921
 21
1771.7494964292871
 31
0.0
1001
AUTOCAD_POSTSCRIPT_FIGURE
1002
{
1000
PSFILL
1000
Grayscale
1000
Grayscale
1070
    25
1002
}
  0
ARC
  5
396F
  8
YODOROGO
 10
31059.517893357912
 20
1602.6807375155761
 30
0.0
 40
178.22128111072141
 50
281.02627495425338
 51
357.77113575573799
  0
LINE
  5
3970
  8
YODOROGO
 10
31413.604341291921
 20
1907.7494964292871
 30
0.0
 11
31165.604341291921
 21
1907.7494964292871
 31
0.0
  0
LINE
  5
3971
  8
YODOROGO
 10
31413.604341291921
 20
2027.749496429288
 30
0.0
 11
31165.604341291921
 21
2027.749496429288
 31
0.0
  0
LINE
  5
3972
  8
YODOROGO
 10
31165.604341291921
 20
1963.749496429286
 30
0.0
 11
31413.604341291921
 21
1963.749496429286
 31
0.0
  0
LINE
  5
3973
  8
YODOROGO
 10
30791.604341291921
 20
1563.7494964292871
 30
0.0
 11
30791.604341291921
 21
1755.7494964292871
 31
0.0
  0
LINE
  5
3974
  8
YODOROGO
 10
30763.604341291921
 20
1691.749496429288
 30
0.0
 11
30763.604341291921
 21
1563.7494964292871
 31
0.0
  0
LINE
  5
3975
  8
YODOROGO
 10
30723.604341291921
 20
1491.749496429288
 30
0.0
 11
30723.604341291921
 21
1691.749496429288
 31
0.0
  0
LINE
  5
3976
  8
YODOROGO
 10
30899.604341291932
 20
1691.749496429288
 30
0.0
 11
30899.604341291932
 21
1491.749496429288
 31
0.0
  0
LINE
  5
3977
  8
YODOROGO
 10
30859.604341291932
 20
1563.7494964292871
 30
0.0
 11
30859.604341291932
 21
1691.749496429288
 31
0.0
  0
LINE
  5
3978
  8
YODOROGO
 10
30831.604341291921
 20
1755.7494964292871
 30
0.0
 11
30831.604341291921
 21
1563.7494964292871
 31
0.0
  0
LINE
  5
3979
  8
YODOROGO
 10
30973.604341291921
 20
2027.749496429288
 30
0.0
 11
30973.604341291921
 21
1467.749496429288
 31
0.0
  0
LINE
  5
397A
  8
YODOROGO
 10
30645.604341291921
 20
1427.749496429288
 30
0.0
 11
30645.604341291921
 21
2027.749496429288
 31
0.0
  0
LINE
  5
397B
  8
YODOROGO
 10
30697.604341291932
 20
1963.749496429286
 30
0.0
 11
30697.604341291932
 21
1427.749496429288
 31
0.0
  0
LINE
  5
397C
  8
YODOROGO
 10
30925.604341291921
 20
1547.749496429288
 30
0.0
 11
30925.604341291921
 21
1963.749496429286
 31
0.0
  0
LINE
  5
397D
  8
YODOROGO
 10
30381.604341291932
 20
1627.749496429288
 30
0.0
 11
30381.604341291932
 21
1679.749496429288
 31
0.0
  0
LINE
  5
397E
  8
YODOROGO
 10
30617.604341291921
 20
1679.749496429288
 30
0.0
 11
30617.604341291921
 21
1627.749496429288
 31
0.0
  0
LINE
  5
397F
  8
YODOROGO
 10
31165.604341291921
 20
1907.7494964292871
 30
0.0
 11
31165.604341291921
 21
1635.7494964292871
 31
0.0
  0
LINE
  5
3980
  8
YODOROGO
 10
29949.60434129191
 20
1667.749496429288
 30
0.0
 11
29949.60434129191
 21
1707.749496429288
 31
0.0
  0
LINE
  5
3981
  8
YODOROGO
 10
29949.60434129191
 20
1667.749496429288
 30
0.0
 11
29949.60434129191
 21
1707.749496429288
 31
0.0
  0
ARC
  5
3982
  8
YODOROGO
 10
30537.604341291921
 20
1507.749496429288
 30
0.0
 40
80.0
 50
270.0
 51
0.0
  0
LINE
  5
3983
  8
YODOROGO
 10
30569.604341291921
 20
1599.7494964292871
 30
0.0
 11
30617.604341291921
 21
1599.7494964292871
 31
0.0
  0
LINE
  5
3984
  8
YODOROGO
 10
30617.604341291921
 20
1627.749496429288
 30
0.0
 11
30529.604341291939
 21
1627.749496429288
 31
0.0
  0
LINE
  5
3985
  8
YODOROGO
 10
30217.604341291921
 20
1667.749496429288
 30
0.0
 11
29949.60434129191
 21
1667.749496429288
 31
0.0
  0
LINE
  5
3986
  8
YODOROGO
 10
30217.604341291921
 20
1627.749496429288
 30
0.0
 11
30217.604341291921
 21
1667.749496429288
 31
0.0
  0
LINE
  5
3987
  8
YODOROGO
 10
30017.604341291921
 20
1627.749496429288
 30
0.0
 11
30217.604341291921
 21
1627.749496429288
 31
0.0
  0
ARC
  5
3988
  8
YODOROGO
 10
30230.05882870136
 20
1868.885714952901
 30
0.0
 40
321.37763628522822
 50
228.6181454618993
 51
245.660289248906
  0
LINE
  5
3989
  8
YODOROGO
 10
30105.604341291921
 20
1603.7494964292871
 30
0.0
 11
30097.60434129195
 21
1576.0728158699001
 31
0.0
  0
LINE
  5
398A
  8
YODOROGO
 10
30189.604341291921
 20
1603.7494964292871
 30
0.0
 11
30105.604341291921
 21
1603.7494964292871
 31
0.0
  0
LINE
  5
398B
  8
YODOROGO
 10
30177.604341291921
 20
1551.817722473427
 30
0.0
 11
30189.604341291921
 21
1603.7494964292871
 31
0.0
  0
ARC
  5
398C
  8
YODOROGO
 10
30230.05882870045
 20
1868.885714953002
 30
0.0
 40
321.37763628529081
 50
260.60629297969911
 51
267.77903556555862
  0
LINE
  5
398D
  8
YODOROGO
 10
30217.604341291921
 20
1427.749496429285
 30
0.0
 11
30217.604341291921
 21
1547.749496429288
 31
0.0
  0
LINE
  5
398E
  8
YODOROGO
 10
29937.604341291932
 20
1481.3393349155101
 30
0.0
 11
29937.604341291921
 21
1594.531090531141
 31
0.0
  0
LINE
  5
398F
  8
YODOROGO
 10
30217.604341291921
 20
1667.749496429288
 30
0.0
 11
29949.60434129191
 21
1667.749496429288
 31
0.0
  0
LINE
  5
3990
  8
YODOROGO
 10
30217.604341291921
 20
1627.749496429288
 30
0.0
 11
30217.604341291921
 21
1667.749496429288
 31
0.0
  0
LINE
  5
3991
  8
YODOROGO
 10
30017.604341291921
 20
1627.749496429288
 30
0.0
 11
30217.604341291921
 21
1627.749496429288
 31
0.0
  0
ARC
  5
3992
  8
YODOROGO
 10
30230.05882870136
 20
1868.885714952901
 30
0.0
 40
321.37763628522822
 50
228.6181454618993
 51
245.660289248906
  0
LINE
  5
3993
  8
YODOROGO
 10
30105.604341291921
 20
1603.7494964292871
 30
0.0
 11
30097.60434129195
 21
1576.0728158699001
 31
0.0
  0
LINE
  5
3994
  8
YODOROGO
 10
30189.604341291921
 20
1603.7494964292871
 30
0.0
 11
30105.604341291921
 21
1603.7494964292871
 31
0.0
  0
LINE
  5
3995
  8
YODOROGO
 10
30177.604341291921
 20
1551.817722473427
 30
0.0
 11
30189.604341291921
 21
1603.7494964292871
 31
0.0
  0
ARC
  5
3996
  8
YODOROGO
 10
30230.05882870045
 20
1868.885714953002
 30
0.0
 40
321.37763628529081
 50
260.60629297969911
 51
267.77903556555862
  0
LINE
  5
3997
  8
YODOROGO
 10
30217.604341291921
 20
1427.749496429285
 30
0.0
 11
30217.604341291921
 21
1547.749496429288
 31
0.0
  0
LINE
  5
3998
  8
YODOROGO
 10
29937.604341291932
 20
1481.3393349155101
 30
0.0
 11
29937.604341291921
 21
1594.531090531141
 31
0.0
  0
LINE
  5
3999
  8
YODOROGO
 10
30433.604341291921
 20
1573.749496429288
 30
0.0
 11
30381.604341291932
 21
1573.749496429288
 31
0.0
  0
LINE
  5
399A
  8
YODOROGO
 10
30433.604341291921
 20
1601.749496429285
 30
0.0
 11
30433.604341291921
 21
1573.749496429288
 31
0.0
  0
LINE
  5
399B
  8
YODOROGO
 10
30381.604341291932
 20
1601.749496429285
 30
0.0
 11
30433.604341291921
 21
1601.749496429285
 31
0.0
  0
LINE
  5
399C
  8
YODOROGO
 10
30381.604341291932
 20
1573.749496429288
 30
0.0
 11
30381.604341291932
 21
1601.749496429285
 31
0.0
  0
LINE
  5
399D
  8
YODOROGO
 10
30429.604341291921
 20
1577.7494964292871
 30
0.0
 11
30385.604341291921
 21
1577.7494964292871
 31
0.0
  0
LINE
  5
399E
  8
YODOROGO
 10
30429.604341291921
 20
1597.749496429288
 30
0.0
 11
30429.604341291921
 21
1577.7494964292871
 31
0.0
  0
LINE
  5
399F
  8
YODOROGO
 10
30385.604341291921
 20
1597.749496429288
 30
0.0
 11
30429.604341291921
 21
1597.749496429288
 31
0.0
  0
LINE
  5
39A0
  8
YODOROGO
 10
30385.604341291921
 20
1577.7494964292871
 30
0.0
 11
30385.604341291921
 21
1597.749496429288
 31
0.0
  0
LINE
  5
39A1
  8
YODOROGO
 10
30425.604341291921
 20
1581.749496429286
 30
0.0
 11
30389.604341291921
 21
1581.749496429286
 31
0.0
  0
LINE
  5
39A2
  8
YODOROGO
 10
30425.604341291921
 20
1593.749496429288
 30
0.0
 11
30425.604341291921
 21
1581.749496429286
 31
0.0
  0
LINE
  5
39A3
  8
YODOROGO
 10
30389.604341291921
 20
1593.749496429288
 30
0.0
 11
30425.604341291921
 21
1593.749496429288
 31
0.0
  0
LINE
  5
39A4
  8
YODOROGO
 10
30389.604341291921
 20
1581.749496429286
 30
0.0
 11
30389.604341291921
 21
1593.749496429288
 31
0.0
  0
LINE
  5
39A5
  8
YODOROGO
 10
30421.604341291932
 20
1585.7494964292871
 30
0.0
 11
30393.604341291921
 21
1585.7494964292871
 31
0.0
  0
LINE
  5
39A6
  8
YODOROGO
 10
30421.604341291932
 20
1589.749496429288
 30
0.0
 11
30421.604341291932
 21
1585.7494964292871
 31
0.0
  0
LINE
  5
39A7
  8
YODOROGO
 10
30393.604341291921
 20
1589.749496429288
 30
0.0
 11
30421.604341291932
 21
1589.749496429288
 31
0.0
  0
LINE
  5
39A8
  8
YODOROGO
 10
30393.604341291921
 20
1585.7494964292871
 30
0.0
 11
30393.604341291921
 21
1589.749496429288
 31
0.0
  0
LINE
  5
39A9
  8
YODOROGO
 10
30465.604341291921
 20
1627.749496429288
 30
0.0
 11
30381.604341291932
 21
1627.749496429288
 31
0.0
  0
LINE
  5
39AA
  8
YODOROGO
 10
30465.604341291921
 20
1547.749496429288
 30
0.0
 11
30465.604341291921
 21
1627.749496429288
 31
0.0
  0
LINE
  5
39AB
  8
YODOROGO
 10
30381.604341291932
 20
1547.749496429288
 30
0.0
 11
30465.604341291921
 21
1547.749496429288
 31
0.0
  0
LINE
  5
39AC
  8
YODOROGO
 10
30381.604341291932
 20
1427.749496429288
 30
0.0
 11
30381.604341291932
 21
1547.749496429288
 31
0.0
  0
LINE
  5
39AD
  8
YODOROGO
 10
30537.604341291921
 20
1427.749496429288
 30
0.0
 11
30381.604341291932
 21
1427.749496429288
 31
0.0
  0
LINE
  5
39AE
  8
YODOROGO
 10
30569.604341291921
 20
1571.749496429285
 30
0.0
 11
30569.604341291921
 21
1599.7494964292871
 31
0.0
  0
ARC
  5
39AF
  8
YODOROGO
 10
30545.604341291921
 20
1571.749496429291
 30
0.0
 40
24.000000000003752
 50
270.0
 51
359.99999999998772
  0
LINE
  5
39B0
  8
YODOROGO
 10
30529.604341291939
 20
1547.749496429288
 30
0.0
 11
30545.604341291921
 21
1547.749496429288
 31
0.0
  0
LINE
  5
39B1
  8
YODOROGO
 10
30529.604341291939
 20
1627.749496429288
 30
0.0
 11
30529.604341291939
 21
1547.749496429288
 31
0.0
  0
LINE
  5
39B2
  8
YODOROGO
 10
30899.604341291932
 20
1547.749496429288
 30
0.0
 11
30925.604341291921
 21
1547.749496429288
 31
0.0
  0
LINE
  5
39B3
  8
YODOROGO
 10
30933.604341291921
 20
1427.749496429288
 30
0.0
 11
30899.604341291932
 21
1427.749496429288
 31
0.0
  0
LINE
  5
39B4
  8
YODOROGO
 10
30763.604341291921
 20
1563.7494964292871
 30
0.0
 11
30791.604341291921
 21
1563.7494964292871
 31
0.0
  0
LINE
  5
39B5
  8
YODOROGO
 10
30899.604341291932
 20
1491.749496429288
 30
0.0
 11
30723.604341291921
 21
1491.749496429288
 31
0.0
  0
LINE
  5
39B6
  8
YODOROGO
 10
30831.604341291921
 20
1563.7494964292871
 30
0.0
 11
30859.604341291932
 21
1563.7494964292871
 31
0.0
  0
LINE
  5
39B7
  8
YODOROGO
 10
30899.604341291932
 20
1427.749496429288
 30
0.0
 11
30899.604341291932
 21
1547.749496429288
 31
0.0
  0
LINE
  5
39B8
  8
YODOROGO
 10
30697.604341291932
 20
1427.749496429288
 30
0.0
 11
30645.604341291921
 21
1427.749496429288
 31
0.0
  0
LINE
  5
39B9
  8
YODOROGO
 10
30617.604341291921
 20
1599.7494964292871
 30
0.0
 11
30617.604341291921
 21
1507.749496429288
 31
0.0
  0
ARC
  5
39BA
  8
YODOROGO
 10
30933.604341291921
 20
1467.749496429288
 30
0.0
 40
40.0
 50
270.0
 51
0.0
  0
LINE
  5
39BB
  8
YODOROGO
 10
31093.604341291921
 20
1523.7494964292871
 30
0.0
 11
31093.604341291921
 21
1427.749496429288
 31
0.0
  0
ARC
  5
39BC
  8
YODOROGO
 10
31039.721395566768
 20
1637.5313901097329
 30
0.0
 40
125.8955565916754
 50
295.34052442160112
 51
359.18902303418679
  0
LINE
  5
39BD
  8
YODOROGO
 10
30617.604341291921
 20
1859.749496429288
 30
0.0
 11
30497.604341291921
 21
1939.749496429288
 31
0.0
  0
LINE
  5
39BE
  8
YODOROGO
 10
30497.604341291921
 20
2027.749496429288
 30
0.0
 11
30617.604341291921
 21
1947.749496429288
 31
0.0
  0
LINE
  5
39BF
  8
YODOROGO
 10
30529.604341291939
 20
1679.749496429288
 30
0.0
 11
30617.604341291921
 21
1679.749496429288
 31
0.0
  0
LINE
  5
39C0
  8
YODOROGO
 10
30617.604341291921
 20
1735.7494964292871
 30
0.0
 11
30529.604341291939
 21
1735.7494964292871
 31
0.0
  0
LINE
  5
39C1
  8
YODOROGO
 10
30381.604341291932
 20
1795.7494964292871
 30
0.0
 11
30617.604341291921
 21
1795.7494964292871
 31
0.0
  0
LINE
  5
39C2
  8
YODOROGO
 10
30081.604341291921
 20
2027.749496429288
 30
0.0
 11
30021.604341291921
 21
2027.749496429288
 31
0.0
  0
LINE
  5
39C3
  8
YODOROGO
 10
30081.604341291921
 20
1827.7494964292871
 30
0.0
 11
30081.604341291921
 21
2027.749496429288
 31
0.0
  0
LINE
  5
39C4
  8
YODOROGO
 10
30021.604341291921
 20
1827.7494964292871
 30
0.0
 11
30081.604341291921
 21
1827.7494964292871
 31
0.0
  0
LINE
  5
39C5
  8
YODOROGO
 10
30021.604341291921
 20
2027.749496429288
 30
0.0
 11
30021.604341291921
 21
1827.7494964292871
 31
0.0
  0
LINE
  5
39C6
  8
YODOROGO
 10
30161.604341291921
 20
2027.749496429288
 30
0.0
 11
30217.604341291921
 21
2027.749496429288
 31
0.0
  0
LINE
  5
39C7
  8
YODOROGO
 10
30161.604341291921
 20
1811.749496429288
 30
0.0
 11
30161.604341291921
 21
2027.749496429288
 31
0.0
  0
ARC
  5
39C8
  8
YODOROGO
 10
30121.604341291921
 20
1811.749496429288
 30
0.0
 40
40.0
 50
270.0
 51
0.0
  0
LINE
  5
39C9
  8
YODOROGO
 10
30021.604341291921
 20
1771.7494964292871
 30
0.0
 11
30121.604341291921
 21
1771.7494964292871
 31
0.0
  0
LINE
  5
39CA
  8
YODOROGO
 10
30021.604341291921
 20
1707.749496429288
 30
0.0
 11
30021.604341291921
 21
1771.7494964292871
 31
0.0
  0
LINE
  5
39CB
  8
YODOROGO
 10
30137.604341291921
 20
1707.749496429288
 30
0.0
 11
30021.604341291921
 21
1707.749496429288
 31
0.0
  0
ARC
  5
39CC
  8
YODOROGO
 10
30137.604341291921
 20
1787.7494964292871
 30
0.0
 40
80.0
 50
270.0
 51
0.0
  0
LINE
  5
39CD
  8
YODOROGO
 10
30217.604341291921
 20
2027.749496429288
 30
0.0
 11
30217.604341291921
 21
1787.7494964292871
 31
0.0
  0
LINE
  5
39CE
  8
YODOROGO
 10
29977.604341291921
 20
1947.749496429288
 30
0.0
 11
29977.604341291921
 21
1995.7494964292871
 31
0.0
1001
AUTOCAD_POSTSCRIPT_FIGURE
1002
{
1000
PSFILL
1000
Grayscale
1000
Grayscale
1070
    25
1002
}
  0
LINE
  5
39CF
  8
YODOROGO
 10
29977.604341291921
 20
1859.749496429288
 30
0.0
 11
29977.604341291921
 21
1907.7494964292871
 31
0.0
1001
AUTOCAD_POSTSCRIPT_FIGURE
1002
{
1000
PSFILL
1000
Grayscale
1000
Grayscale
1070
    25
1002
}
  0
LINE
  5
39D0
  8
YODOROGO
 10
29977.604341291921
 20
1707.749496429288
 30
0.0
 11
29977.604341291921
 21
1819.7494964292871
 31
0.0
1001
AUTOCAD_POSTSCRIPT_FIGURE
1002
{
1000
PSFILL
1000
Grayscale
1000
Grayscale
1070
    25
1002
}
  0
LINE
  5
39D1
  8
YODOROGO
 10
30381.604341291932
 20
1907.7494964292871
 30
0.0
 11
30497.604341291921
 21
2027.749496429288
 31
0.0
  0
LINE
  5
39D2
  8
YODOROGO
 10
30381.604341291932
 20
1819.7494964292871
 30
0.0
 11
30381.604341291932
 21
1907.7494964292871
 31
0.0
  0
LINE
  5
39D3
  8
YODOROGO
 10
30497.604341291921
 20
1939.749496429288
 30
0.0
 11
30381.604341291932
 21
1819.7494964292871
 31
0.0
  0
LINE
  5
39D4
  8
YODOROGO
 10
30465.604341291921
 20
1679.749496429288
 30
0.0
 11
30465.604341291921
 21
1735.7494964292871
 31
0.0
  0
LINE
  5
39D5
  8
YODOROGO
 10
30381.604341291932
 20
1679.749496429288
 30
0.0
 11
30465.604341291921
 21
1679.749496429288
 31
0.0
  0
LINE
  5
39D6
  8
YODOROGO
 10
30529.604341291939
 20
1735.7494964292871
 30
0.0
 11
30529.604341291939
 21
1679.749496429288
 31
0.0
  0
LINE
  5
39D7
  8
YODOROGO
 10
30381.604341291932
 20
1735.7494964292871
 30
0.0
 11
30381.604341291932
 21
1795.7494964292871
 31
0.0
  0
LINE
  5
39D8
  8
YODOROGO
 10
30465.604341291921
 20
1735.7494964292871
 30
0.0
 11
30381.604341291932
 21
1735.7494964292871
 31
0.0
  0
LINE
  5
39D9
  8
YODOROGO
 10
30645.604341291921
 20
2027.749496429288
 30
0.0
 11
30973.604341291921
 21
2027.749496429288
 31
0.0
  0
LINE
  5
39DA
  8
YODOROGO
 10
30925.604341291921
 20
1963.749496429286
 30
0.0
 11
30697.604341291932
 21
1963.749496429286
 31
0.0
  0
LINE
  5
39DB
  8
YODOROGO
 10
30873.604341291921
 20
1819.7494964292871
 30
0.0
 11
30899.604341291932
 21
1819.7494964292871
 31
0.0
  0
LINE
  5
39DC
  8
YODOROGO
 10
30899.604341291932
 20
1939.749496429288
 30
0.0
 11
30873.604341291921
 21
1819.7494964292871
 31
0.0
  0
LINE
  5
39DD
  8
YODOROGO
 10
30851.604341291939
 20
1939.749496429288
 30
0.0
 11
30899.604341291932
 21
1939.749496429288
 31
0.0
  0
LINE
  5
39DE
  8
YODOROGO
 10
30825.604341291921
 20
1819.7494964292871
 30
0.0
 11
30851.604341291939
 21
1939.749496429288
 31
0.0
  0
LINE
  5
39DF
  8
YODOROGO
 10
30797.604341291921
 20
1819.7494964292871
 30
0.0
 11
30825.604341291921
 21
1819.7494964292871
 31
0.0
  0
LINE
  5
39E0
  8
YODOROGO
 10
30771.604341291939
 20
1939.749496429288
 30
0.0
 11
30797.604341291921
 21
1819.7494964292871
 31
0.0
  0
LINE
  5
39E1
  8
YODOROGO
 10
30723.604341291921
 20
1939.749496429288
 30
0.0
 11
30771.604341291939
 21
1939.749496429288
 31
0.0
  0
LINE
  5
39E2
  8
YODOROGO
 10
30749.604341291921
 20
1819.7494964292871
 30
0.0
 11
30723.604341291921
 21
1939.749496429288
 31
0.0
  0
LINE
  5
39E3
  8
YODOROGO
 10
30723.604341291921
 20
1819.7494964292871
 30
0.0
 11
30749.604341291921
 21
1819.7494964292871
 31
0.0
  0
LINE
  5
39E4
  8
YODOROGO
 10
30723.604341291921
 20
1755.7494964292871
 30
0.0
 11
30723.604341291921
 21
1819.7494964292871
 31
0.0
  0
LINE
  5
39E5
  8
YODOROGO
 10
30899.604341291932
 20
1755.7494964292871
 30
0.0
 11
30723.604341291921
 21
1755.7494964292871
 31
0.0
  0
LINE
  5
39E6
  8
YODOROGO
 10
30899.604341291932
 20
1819.7494964292871
 30
0.0
 11
30899.604341291932
 21
1755.7494964292871
 31
0.0
  0
LINE
  5
39E7
  8
YODOROGO
 10
30617.604341291921
 20
1947.749496429288
 30
0.0
 11
30617.604341291921
 21
1859.749496429288
 31
0.0
  0
LINE
  5
39E8
  8
YODOROGO
 10
30791.604341291921
 20
1755.7494964292871
 30
0.0
 11
30831.604341291921
 21
1755.7494964292871
 31
0.0
  0
LINE
  5
39E9
  8
YODOROGO
 10
30723.604341291921
 20
1691.749496429288
 30
0.0
 11
30763.604341291921
 21
1691.749496429288
 31
0.0
  0
LINE
  5
39EA
  8
YODOROGO
 10
30859.604341291932
 20
1691.749496429288
 30
0.0
 11
30899.604341291932
 21
1691.749496429288
 31
0.0
  0
LINE
  5
39EB
  8
YODOROGO
 10
30617.604341291921
 20
1795.7494964292871
 30
0.0
 11
30617.604341291921
 21
1735.7494964292871
 31
0.0
  0
LINE
  5
39EC
  8
YODOROGO
 10
31165.604341291921
 20
2027.749496429288
 30
0.0
 11
31165.604341291921
 21
1963.749496429286
 31
0.0
  0
LINE
  5
39ED
  8
YODOROGO
 10
31533.604341291921
 20
1595.7494964292871
 30
0.0
 11
31533.60434129191
 21
1811.749496429288
 31
0.0
  0
LINE
  5
39EE
  8
YODOROGO
 10
31461.60434129191
 20
1987.7494964292871
 30
0.0
 11
31461.60434129191
 21
1635.7494964292871
 31
0.0
  0
LINE
  5
39EF
  8
YODOROGO
 10
31653.604341291921
 20
1427.749496429288
 30
0.0
 11
31653.60434129191
 21
1811.749496429288
 31
0.0
  0
LINE
  5
39F0
  8
YODOROGO
 10
31589.604341291921
 20
1811.749496429288
 30
0.0
 11
31589.604341291921
 21
1427.749496429288
 31
0.0
  0
LINE
  5
39F1
  8
YODOROGO
 10
31237.604341291921
 20
1595.7494964292871
 30
0.0
 11
31237.604341291921
 21
1707.749496429288
 31
0.0
  0
ARC
  5
39F2
  8
YODOROGO
 10
31353.914865116069
 20
1607.790351288558
 30
0.0
 40
180.0924485759885
 50
268.62849102169793
 51
356.16638457330322
  0
LINE
  5
39F3
  8
YODOROGO
 10
31349.604341291939
 20
1527.749496429288
 30
0.0
 11
31349.604341291939
 21
1427.749496429288
 31
0.0
  0
ARC
  5
39F4
  8
YODOROGO
 10
31351.518075724562
 20
1637.838957017655
 30
0.0
 40
110.1060929836122
 50
269.00410209305932
 51
358.91264455492478
  0
LINE
  5
39F5
  8
YODOROGO
 10
31589.604341291921
 20
1427.749496429288
 30
0.0
 11
31653.604341291921
 21
1427.749496429288
 31
0.0
  0
LINE
  5
39F6
  8
YODOROGO
 10
31533.60434129191
 20
1811.749496429288
 30
0.0
 11
31589.604341291921
 21
1811.749496429288
 31
0.0
  0
LINE
  5
39F7
  8
YODOROGO
 10
31621.604341291939
 20
1987.7494964292871
 30
0.0
 11
31461.60434129191
 21
1987.7494964292871
 31
0.0
  0
LINE
  5
39F8
  8
YODOROGO
 10
31533.60434129191
 20
1915.7494964292871
 30
0.0
 11
31661.604341291939
 21
1915.7494964292871
 31
0.0
  0
LINE
  5
39F9
  8
YODOROGO
 10
31701.604341291939
 20
1875.7494964292871
 30
0.0
 11
31533.60434129191
 21
1875.7494964292871
 31
0.0
  0
LINE
  5
39FA
  8
YODOROGO
 10
31237.604341291921
 20
1779.749496429288
 30
0.0
 11
31349.604341291939
 21
1779.749496429288
 31
0.0
  0
LINE
  5
39FB
  8
YODOROGO
 10
31237.604341291921
 20
1835.7494964292871
 30
0.0
 11
31237.604341291921
 21
1779.749496429288
 31
0.0
  0
LINE
  5
39FC
  8
YODOROGO
 10
31349.604341291939
 20
1835.7494964292871
 30
0.0
 11
31237.604341291921
 21
1835.7494964292871
 31
0.0
  0
LINE
  5
39FD
  8
YODOROGO
 10
31349.604341291939
 20
1779.749496429288
 30
0.0
 11
31349.604341291939
 21
1835.7494964292871
 31
0.0
  0
LINE
  5
39FE
  8
YODOROGO
 10
31533.60434129191
 20
1875.7494964292871
 30
0.0
 11
31533.60434129191
 21
1915.7494964292871
 31
0.0
  0
LINE
  5
39FF
  8
YODOROGO
 10
31413.604341291921
 20
1707.749496429288
 30
0.0
 11
31413.604341291921
 21
1907.7494964292871
 31
0.0
  0
LINE
  5
3A00
  8
YODOROGO
 10
31237.604341291921
 20
1707.749496429288
 30
0.0
 11
31413.604341291921
 21
1707.749496429288
 31
0.0
  0
LINE
  5
3A01
  8
YODOROGO
 10
31413.604341291921
 20
1963.749496429286
 30
0.0
 11
31413.604341291921
 21
2027.749496429288
 31
0.0
  0
ARC
  5
3A02
  8
YODOROGO
 10
31621.604341291939
 20
2003.749496429285
 30
0.0
 40
15.999999999994539
 50
270.0
 51
0.0000000000081422
  0
LINE
  5
3A03
  8
YODOROGO
 10
31637.604341291921
 20
2027.749496429288
 30
0.0
 11
31637.604341291921
 21
2003.7494964292871
 31
0.0
  0
LINE
  5
3A04
  8
YODOROGO
 10
31701.604341291939
 20
2027.749496429288
 30
0.0
 11
31637.604341291921
 21
2027.749496429288
 31
0.0
  0
LINE
  5
3A05
  8
YODOROGO
 10
31701.604341291939
 20
1955.7494964292871
 30
0.0
 11
31701.604341291939
 21
2027.749496429288
 31
0.0
  0
ARC
  5
3A06
  8
YODOROGO
 10
31661.604341291939
 20
1955.7494964292871
 30
0.0
 40
40.0
 50
270.0
 51
0.0
  0
LINE
  5
3A07
  8
YODOROGO
 10
31701.604341291939
 20
1811.749496429288
 30
0.0
 11
31701.604341291939
 21
1875.7494964292871
 31
0.0
  0
LINE
  5
3A08
  8
YODOROGO
 10
31653.60434129191
 20
1811.749496429288
 30
0.0
 11
31701.604341291939
 21
1811.749496429288
 31
0.0
  0
LINE
  5
3A0C
  8
SUNPOU
  6
CONTINUOUS
 62
     4
 10
10008.45568599999
 20
20194.226823000001
 30
0.0
 11
10008.45568599999
 21
20744.232102000031
 31
0.0
  0
LINE
  5
3A0D
  8
SUNPOU
  6
CONTINUOUS
 62
     4
 10
10093.955685999999
 20
20664.232102000031
 30
0.0
 11
10333.955685999999
 21
20664.232102000031
 31
0.0
  0
LINE
  5
3A0E
  8
SUNPOU
  6
CONTINUOUS
 62
     4
 10
10011.45568599999
 20
20664.232102000031
 30
0.0
 11
9771.4556859999957
 21
20664.232102000031
 31
0.0
  0
LINE
  5
3A0F
  8
SUNPOU
  6
CONTINUOUS
 62
     4
 10
10093.955685999999
 20
20664.232102000031
 30
0.0
 11
10011.45568599999
 21
20664.232102000031
 31
0.0
  0
LINE
  5
3A10
  8
SUNPOU
  6
CONTINUOUS
 62
     4
 10
12661.45568599999
 20
20664.232102000031
 30
0.0
 11
10093.955685999999
 21
20664.232102000031
 31
0.0
  0
LINE
  5
3A11
  8
SUNPOU
  6
CONTINUOUS
 62
     4
 10
14613.45568599999
 20
20194.226823000001
 30
0.0
 11
14613.45568599999
 21
20744.232102000031
 31
0.0
  0
LINE
  5
3A12
  8
SUNPOU
  6
CONTINUOUS
 62
     4
 10
14527.95568599999
 20
20664.232102000031
 30
0.0
 11
14287.95568599999
 21
20664.232102000031
 31
0.0
  0
LINE
  5
3A13
  8
SUNPOU
  6
CONTINUOUS
 62
     4
 10
14610.45568599999
 20
20664.232102000031
 30
0.0
 11
14850.45568599999
 21
20664.232102000031
 31
0.0
  0
LINE
  5
3A14
  8
SUNPOU
  6
CONTINUOUS
 62
     4
 10
14527.95568599999
 20
20664.232102000031
 30
0.0
 11
14610.45568599999
 21
20664.232102000031
 31
0.0
  0
LINE
  5
3A15
  8
SUNPOU
  6
CONTINUOUS
 62
     4
 10
12661.45568599999
 20
20664.232102000031
 30
0.0
 11
14527.95568599999
 21
20664.232102000031
 31
0.0
  0
LINE
  5
3A16
  8
SUNPOU
  6
CONTINUOUS
 62
     4
 10
9931.4513309999984
 20
13863.235599
 30
0.0
 11
9084.4559099999969
 21
13863.235599
 31
0.0
  0
LINE
  5
3A17
  8
SUNPOU
  6
CONTINUOUS
 62
     4
 10
9164.4559099999969
 20
14055.730913999991
 30
0.0
 11
9164.4559099999969
 21
13863.235599
 31
0.0
  0
LINE
  5
3A18
  8
SUNPOU
  6
CONTINUOUS
 62
     4
 10
9164.4562350000015
 20
16973.730914
 30
0.0
 11
9164.4562350000015
 21
14055.730913999991
 31
0.0
  0
LINE
  5
3A19
  8
SUNPOU
  6
CONTINUOUS
 62
     4
 10
9931.4516559999993
 20
20104.226823000012
 30
0.0
 11
9484.4562350000015
 21
20104.226823000012
 31
0.0
  0
LINE
  5
3A1A
  8
SUNPOU
  6
CONTINUOUS
 62
     4
 10
9931.4560110000002
 20
20114.226823000001
 30
0.0
 11
9484.4562350000015
 21
20114.226823000001
 31
0.0
  0
LINE
  5
3A1B
  8
SUNPOU
  6
CONTINUOUS
 62
     4
 10
9564.4562349999997
 20
20104.226823000012
 30
0.0
 11
9564.4562349999997
 21
19864.22682299999
 31
0.0
  0
LINE
  5
3A1C
  8
SUNPOU
  6
CONTINUOUS
 62
     4
 10
9564.4562349999997
 20
20114.226823000001
 30
0.0
 11
9564.4562349999997
 21
20354.226823000012
 31
0.0
  0
LINE
  5
3A1D
  8
SUNPOU
  6
CONTINUOUS
 62
     4
 10
9564.4562349999997
 20
20104.226823000012
 30
0.0
 11
9564.4562349999997
 21
20114.226823000001
 31
0.0
  0
LINE
  5
3A1E
  8
SUNPOU
  6
CONTINUOUS
 62
     4
 10
9931.4560110000002
 20
20114.226823000001
 30
0.0
 11
9084.4562350000015
 21
20114.226823000001
 31
0.0
  0
LINE
  5
3A1F
  8
SUNPOU
  6
CONTINUOUS
 62
     4
 10
9164.4562350000015
 20
19891.730914
 30
0.0
 11
9164.4562350000015
 21
20114.226823000001
 31
0.0
  0
LINE
  5
3A20
  8
SUNPOU
  6
CONTINUOUS
 62
     4
 10
9164.4562350000015
 20
16973.730914
 30
0.0
 11
9164.4562350000015
 21
19891.730914
 31
0.0
  0
LINE
  5
3A21
  8
SUNPOU
  6
CONTINUOUS
 62
     4
 10
20259.413349999999
 20
6356.3198969999958
 30
0.0
 11
19459.41466899998
 21
6356.3198969999958
 31
0.0
  0
LINE
  5
3A22
  8
SUNPOU
  6
CONTINUOUS
 62
     4
 10
20259.413349999999
 20
8247.8198969999976
 30
0.0
 11
19459.41466899998
 21
8247.8198969999976
 31
0.0
  0
LINE
  5
3A23
  8
SUNPOU
  6
CONTINUOUS
 62
     4
 10
19539.41466899998
 20
6356.3198969999958
 30
0.0
 11
19539.41466899998
 21
8247.8198969999976
 31
0.0
  0
LINE
  5
3A24
  8
SUNPOU
  6
CONTINUOUS
 62
     4
 10
20259.413349999999
 20
6356.3198969999958
 30
0.0
 11
19059.412359999958
 21
6356.3198969999958
 31
0.0
  0
LINE
  5
3A25
  8
SUNPOU
  6
CONTINUOUS
 62
     4
 10
20226.913613999968
 20
8704.8194019999955
 30
0.0
 11
19059.41235999998
 21
8704.8194019999955
 31
0.0
  0
LINE
  5
3A26
  8
SUNPOU
  6
CONTINUOUS
 62
     4
 10
19139.412359999958
 20
6356.3198969999958
 30
0.0
 11
19139.41235999998
 21
8704.8194019999955
 31
0.0
  0
LINE
  5
3A37
  8
SUNPOU
  6
CONTINUOUS
 62
     4
 10
20483.414008999989
 20
6176.3200619999989
 30
0.0
 11
20483.414008999989
 21
5376.3200619999989
 31
0.0
  0
LINE
  5
3A38
  8
SUNPOU
  6
CONTINUOUS
 62
     4
 10
22862.914008999978
 20
6176.3200619999989
 30
0.0
 11
22862.914008999978
 21
5376.3200619999989
 31
0.0
  0
LINE
  5
3A39
  8
SUNPOU
  6
CONTINUOUS
 62
     4
 10
20483.414008999989
 20
5456.3200619999989
 30
0.0
 11
22862.914008999978
 21
5456.3200619999989
 31
0.0
  0
LINE
  5
3A3A
  8
SUNPOU
  6
CONTINUOUS
 62
     4
 10
23050.914008999971
 20
6176.3200619999989
 30
0.0
 11
23050.914008999971
 21
5376.3200619999989
 31
0.0
  0
LINE
  5
3A3B
  8
SUNPOU
  6
CONTINUOUS
 62
     4
 10
24729.414008999989
 20
6176.3200619999989
 30
0.0
 11
24729.414008999989
 21
5376.3200619999989
 31
0.0
  0
LINE
  5
3A3C
  8
SUNPOU
  6
CONTINUOUS
 62
     4
 10
23050.914008999971
 20
5456.3200619999989
 30
0.0
 11
24729.414008999989
 21
5456.3200619999989
 31
0.0
  0
LINE
  5
3A3D
  8
SUNPOU
  6
CONTINUOUS
 62
     4
 10
22956.914008999989
 20
5913.6676389999984
 30
0.0
 11
22956.914008999989
 21
4976.3200619999989
 31
0.0
  0
LINE
  5
3A3E
  8
SUNPOU
  6
CONTINUOUS
 62
     4
 10
24823.414008999978
 20
5913.6676389999984
 30
0.0
 11
24823.414008999978
 21
4976.3200619999989
 31
0.0
  0
LINE
  5
3A3F
  8
SUNPOU
  6
CONTINUOUS
 62
     4
 10
22956.914008999989
 20
5056.3200619999989
 30
0.0
 11
24823.414008999978
 21
5056.3200619999989
 31
0.0
  0
LINE
  5
3A40
  8
SUNPOU
  6
CONTINUOUS
 62
     4
 10
20389.414008999978
 20
5913.6676389999984
 30
0.0
 11
20389.414008999978
 21
4976.3200619999989
 31
0.0
  0
LINE
  5
3A41
  8
SUNPOU
  6
CONTINUOUS
 62
     4
 10
22956.914008999989
 20
5913.6676389999984
 30
0.0
 11
22956.914008999989
 21
4976.3200619999989
 31
0.0
  0
LINE
  5
3A42
  8
SUNPOU
  6
CONTINUOUS
 62
     4
 10
20389.414008999978
 20
5056.3200619999989
 30
0.0
 11
22956.914008999989
 21
5056.3200619999989
 31
0.0
  0
LINE
  5
3A43
  8
SUNPOU
  6
CONTINUOUS
 62
     4
 10
24823.417968000002
 20
5913.6676389999984
 30
0.0
 11
24823.417968000002
 21
4976.3200619999989
 31
0.0
  0
LINE
  5
3A44
  8
SUNPOU
  6
CONTINUOUS
 62
     4
 10
24865.917967999991
 20
6176.3200619999989
 30
0.0
 11
24865.917967999991
 21
4976.3200619999989
 31
0.0
  0
LINE
  5
3A45
  8
SUNPOU
  6
CONTINUOUS
 62
     4
 10
24823.417968000002
 20
5056.3200619999989
 30
0.0
 11
24583.417968000002
 21
5056.3200619999989
 31
0.0
  0
LINE
  5
3A46
  8
SUNPOU
  6
CONTINUOUS
 62
     4
 10
24865.917967999991
 20
5056.3200619999989
 30
0.0
 11
25105.917967999991
 21
5056.3200619999989
 31
0.0
  0
LINE
  5
3A47
  8
SUNPOU
  6
CONTINUOUS
 62
     4
 10
24823.417968000002
 20
5056.3200619999989
 30
0.0
 11
24865.917967999991
 21
5056.3200619999989
 31
0.0
  0
LINE
  5
3A48
  8
SUNPOU
  6
CONTINUOUS
 62
     4
 10
20389.414008999978
 20
5913.6676389999984
 30
0.0
 11
20389.414008999978
 21
4976.3200619999989
 31
0.0
  0
LINE
  5
3A49
  8
SUNPOU
  6
CONTINUOUS
 62
     4
 10
20346.914008999989
 20
6176.3200619999989
 30
0.0
 11
20346.914008999989
 21
4976.3200619999989
 31
0.0
  0
LINE
  5
3A4A
  8
SUNPOU
  6
CONTINUOUS
 62
     4
 10
20389.414008999978
 20
5056.3200619999989
 30
0.0
 11
20629.414008999971
 21
5056.3200619999989
 31
0.0
  0
LINE
  5
3A4B
  8
SUNPOU
  6
CONTINUOUS
 62
     4
 10
20346.914008999989
 20
5056.3200619999989
 30
0.0
 11
20106.914008999971
 21
5056.3200619999989
 31
0.0
  0
LINE
  5
3A4C
  8
SUNPOU
  6
CONTINUOUS
 62
     4
 10
20389.414008999978
 20
5056.3200619999989
 30
0.0
 11
20346.914008999989
 21
5056.3200619999989
 31
0.0
  0
LINE
  5
3A4D
  8
SUNPOU
  6
CONTINUOUS
 62
     4
 10
20346.914008999989
 20
6176.3200619999989
 30
0.0
 11
20346.914008999989
 21
4576.320226999992
 31
0.0
  0
LINE
  5
3A4E
  8
SUNPOU
  6
CONTINUOUS
 62
     4
 10
24865.914008999989
 20
6176.3200619999989
 30
0.0
 11
24865.914008999989
 21
4576.320226999992
 31
0.0
  0
LINE
  5
3A4F
  8
SUNPOU
  6
CONTINUOUS
 62
     4
 10
20346.914008999989
 20
4656.3202269999974
 30
0.0
 11
24865.914008999989
 21
4656.3202269999974
 31
0.0
  0
LINE
  5
3A50
  8
SUNPOU
  6
CONTINUOUS
 62
     4
 10
20389.41401
 20
13349.967479999999
 30
0.0
 11
20389.41401
 21
13004.28283
 31
0.0
  0
LINE
  5
3A51
  8
SUNPOU
  6
CONTINUOUS
 62
     4
 10
20346.911767000001
 20
13933.233619000001
 30
0.0
 11
20346.911767000001
 21
13004.28283
 31
0.0
  0
LINE
  5
3A52
  8
SUNPOU
  6
CONTINUOUS
 62
     4
 10
20389.41401
 20
13084.28283
 30
0.0
 11
20629.41401
 21
13084.28283
 31
0.0
  0
LINE
  5
3A53
  8
SUNPOU
  6
CONTINUOUS
 62
     4
 10
20346.911767000001
 20
13084.28283
 30
0.0
 11
20106.911767000001
 21
13084.28283
 31
0.0
  0
LINE
  5
3A54
  8
SUNPOU
  6
CONTINUOUS
 62
     4
 10
20389.41401
 20
13084.28283
 30
0.0
 11
20346.911767000001
 21
13084.28283
 31
0.0
  0
LINE
  5
3A55
  8
SUNPOU
  6
CONTINUOUS
 62
     4
 10
24823.41401
 20
13349.967479999999
 30
0.0
 11
24823.41401
 21
13004.28283
 31
0.0
  0
LINE
  5
3A56
  8
SUNPOU
  6
CONTINUOUS
 62
     4
 10
24865.916252999989
 20
13933.233619000001
 30
0.0
 11
24865.916252999989
 21
13004.28283
 31
0.0
  0
LINE
  5
3A57
  8
SUNPOU
  6
CONTINUOUS
 62
     4
 10
24823.41401
 20
13084.28283
 30
0.0
 11
24583.41401
 21
13084.28283
 31
0.0
  0
LINE
  5
3A58
  8
SUNPOU
  6
CONTINUOUS
 62
     4
 10
24865.916252999989
 20
13084.28283
 30
0.0
 11
25105.916252999999
 21
13084.28283
 31
0.0
  0
LINE
  5
3A59
  8
SUNPOU
  6
CONTINUOUS
 62
     4
 10
24823.41401
 20
13084.28283
 30
0.0
 11
24865.916252999989
 21
13084.28283
 31
0.0
  0
LINE
  5
3A5A
  8
2-0
  6
CONTINUOUS
 62
     3
 10
22914.41401
 20
14013.230913999991
 30
0.0
 11
22999.41401
 21
14013.230913999991
 31
0.0
  0
LINE
  5
3A5B
  8
2-0
  6
CONTINUOUS
 62
     3
 10
22999.41401
 20
14013.230913999991
 30
0.0
 11
22999.41401
 21
14098.230913999991
 31
0.0
  0
LINE
  5
3A5C
  8
2-0
  6
CONTINUOUS
 62
     3
 10
22999.41401
 20
14098.230913999991
 30
0.0
 11
22914.41401
 21
14098.230913999991
 31
0.0
  0
LINE
  5
3A5D
  8
2-0
  6
CONTINUOUS
 62
     3
 10
22914.41401
 20
14098.230913999991
 30
0.0
 11
22914.41401
 21
14013.230913999991
 31
0.0
  0
LINE
  5
3A5E
  8
SUNPOU
  6
CONTINUOUS
 62
     4
 10
24823.41401
 20
13349.967479999999
 30
0.0
 11
24823.41401
 21
13004.28283
 31
0.0
  0
LINE
  5
3A5F
  8
SUNPOU
  6
CONTINUOUS
 62
     4
 10
24780.911767000001
 20
13933.233619000001
 30
0.0
 11
24780.911767000001
 21
13004.28283
 31
0.0
  0
LINE
  5
3A60
  8
SUNPOU
  6
CONTINUOUS
 62
     4
 10
24823.41401
 20
13084.28283
 30
0.0
 11
25063.41401
 21
13084.28283
 31
0.0
  0
LINE
  5
3A61
  8
SUNPOU
  6
CONTINUOUS
 62
     4
 10
24780.911767000001
 20
13084.28283
 30
0.0
 11
24540.911767000001
 21
13084.28283
 31
0.0
  0
LINE
  5
3A62
  8
SUNPOU
  6
CONTINUOUS
 62
     4
 10
24823.41401
 20
13084.28283
 30
0.0
 11
24780.911767000001
 21
13084.28283
 31
0.0
  0
LINE
  5
3A63
  8
SUNPOU
  6
CONTINUOUS
 62
     4
 10
20389.41401
 20
13349.967479999999
 30
0.0
 11
20389.41401
 21
13004.28283
 31
0.0
  0
LINE
  5
3A64
  8
SUNPOU
  6
CONTINUOUS
 62
     4
 10
20431.916252999989
 20
13933.233619000001
 30
0.0
 11
20431.916252999989
 21
13004.28283
 31
0.0
  0
LINE
  5
3A65
  8
SUNPOU
  6
CONTINUOUS
 62
     4
 10
20389.41401
 20
13084.28283
 30
0.0
 11
20149.41401
 21
13084.28283
 31
0.0
  0
LINE
  5
3A66
  8
SUNPOU
  6
CONTINUOUS
 62
     4
 10
20431.916252999989
 20
13084.28283
 30
0.0
 11
20671.916252999999
 21
13084.28283
 31
0.0
  0
LINE
  5
3A67
  8
SUNPOU
  6
CONTINUOUS
 62
     4
 10
20389.41401
 20
13084.28283
 30
0.0
 11
20431.916252999989
 21
13084.28283
 31
0.0
  0
LINE
  5
3A68
  8
SUNPOU
  6
CONTINUOUS
 62
     4
 10
20346.911767000001
 20
13933.233619000001
 30
0.0
 11
20346.911767000001
 21
12604.282829999989
 31
0.0
  0
LINE
  5
3A69
  8
SUNPOU
  6
CONTINUOUS
 62
     4
 10
24865.916252999989
 20
13933.233619000001
 30
0.0
 11
24865.916252999989
 21
12604.282829999989
 31
0.0
  0
LINE
  5
3A6A
  8
SUNPOU
  6
CONTINUOUS
 62
     4
 10
20346.911767000001
 20
12684.282829999989
 30
0.0
 11
24865.916252999989
 21
12684.282829999989
 31
0.0
  0
LINE
  5
3A6B
  8
SUNPOU
  6
CONTINUOUS
 62
     4
 10
24945.912294000002
 20
14813.730913999991
 30
0.0
 11
25995.913614000001
 21
14813.730913999991
 31
0.0
  0
LINE
  5
3A6C
  8
SUNPOU
  6
CONTINUOUS
 62
     4
 10
25795.913614000001
 20
14055.730913999991
 30
0.0
 11
25995.913614000001
 21
14055.730913999991
 31
0.0
  0
LINE
  5
3A6D
  8
SUNPOU
  6
CONTINUOUS
 62
     4
 10
25915.913614000001
 20
14813.730913999991
 30
0.0
 11
25915.913614000001
 21
14055.730913999991
 31
0.0
  0
LINE
  5
3A6E
  8
SUNPOU
  6
CONTINUOUS
 62
     4
 10
24945.912294000002
 20
15514.971425500011
 30
0.0
 11
25995.913614000001
 21
15514.971425500011
 31
0.0
  0
LINE
  5
3A6F
  8
SUNPOU
  6
CONTINUOUS
 62
     4
 10
24945.912294000002
 20
14813.730913999991
 30
0.0
 11
25995.913614000001
 21
14813.730913999991
 31
0.0
  0
LINE
  5
3A70
  8
SUNPOU
  6
CONTINUOUS
 62
     4
 10
25915.913614000001
 20
15514.971425500011
 30
0.0
 11
25915.913614000001
 21
14813.730913999991
 31
0.0
  0
LINE
  5
3A71
  8
SUNPOU
  6
CONTINUOUS
 62
     4
 10
24945.912294000002
 20
16215.730913999991
 30
0.0
 11
25995.913614000001
 21
16215.730913999991
 31
0.0
  0
LINE
  5
3A72
  8
SUNPOU
  6
CONTINUOUS
 62
     4
 10
24945.912294000002
 20
15514.971425500011
 30
0.0
 11
25995.913614000001
 21
15514.971425500011
 31
0.0
  0
LINE
  5
3A73
  8
SUNPOU
  6
CONTINUOUS
 62
     4
 10
25915.913614000001
 20
16215.730913999991
 30
0.0
 11
25915.913614000001
 21
15514.971425500011
 31
0.0
  0
LINE
  5
3A74
  8
SUNPOU
  6
CONTINUOUS
 62
     4
 10
25795.913614000001
 20
16973.730914
 30
0.0
 11
25995.913614000001
 21
16973.730914
 31
0.0
  0
LINE
  5
3A75
  8
SUNPOU
  6
CONTINUOUS
 62
     4
 10
24945.912294000002
 20
16215.730913999991
 30
0.0
 11
25995.913614000001
 21
16215.730913999991
 31
0.0
  0
LINE
  5
3A76
  8
SUNPOU
  6
CONTINUOUS
 62
     4
 10
25915.913614000001
 20
16973.730914
 30
0.0
 11
25915.913614000001
 21
16215.730913999991
 31
0.0
  0
LINE
  5
3A77
  8
SUNPOU
  6
CONTINUOUS
 62
     4
 10
24945.912294000002
 20
17731.730914
 30
0.0
 11
25995.913614000001
 21
17731.730914
 31
0.0
  0
LINE
  5
3A78
  8
SUNPOU
  6
CONTINUOUS
 62
     4
 10
25795.913614000001
 20
16973.730914
 30
0.0
 11
25995.913614000001
 21
16973.730914
 31
0.0
  0
LINE
  5
3A79
  8
SUNPOU
  6
CONTINUOUS
 62
     4
 10
25915.913614000001
 20
17731.730914
 30
0.0
 11
25915.913614000001
 21
16973.730914
 31
0.0
  0
LINE
  5
3A7A
  8
SUNPOU
  6
CONTINUOUS
 62
     4
 10
24945.912294000002
 20
18432.730914
 30
0.0
 11
25995.913614000001
 21
18432.730914
 31
0.0
  0
LINE
  5
3A7B
  8
SUNPOU
  6
CONTINUOUS
 62
     4
 10
24945.912294000002
 20
17731.730914
 30
0.0
 11
25995.913614000001
 21
17731.730914
 31
0.0
  0
LINE
  5
3A7C
  8
SUNPOU
  6
CONTINUOUS
 62
     4
 10
25915.913614000001
 20
18432.730914
 30
0.0
 11
25915.913614000001
 21
17731.730914
 31
0.0
  0
LINE
  5
3A7D
  8
SUNPOU
  6
CONTINUOUS
 62
     4
 10
24945.912294000002
 20
19133.730914
 30
0.0
 11
25995.913614000001
 21
19133.730914
 31
0.0
  0
LINE
  5
3A7E
  8
SUNPOU
  6
CONTINUOUS
 62
     4
 10
24945.912294000002
 20
18432.730914
 30
0.0
 11
25995.913614000001
 21
18432.730914
 31
0.0
  0
LINE
  5
3A7F
  8
SUNPOU
  6
CONTINUOUS
 62
     4
 10
25915.913614000001
 20
19133.730914
 30
0.0
 11
25915.913614000001
 21
18432.730914
 31
0.0
  0
LINE
  5
3A80
  8
SUNPOU
  6
CONTINUOUS
 62
     4
 10
25795.913614000001
 20
19891.730914
 30
0.0
 11
25995.913614000001
 21
19891.730914
 31
0.0
  0
LINE
  5
3A81
  8
SUNPOU
  6
CONTINUOUS
 62
     4
 10
24945.912294000002
 20
19133.730914
 30
0.0
 11
25995.913614000001
 21
19133.730914
 31
0.0
  0
LINE
  5
3A82
  8
SUNPOU
  6
CONTINUOUS
 62
     4
 10
25915.913614000001
 20
19891.730914
 30
0.0
 11
25915.913614000001
 21
19133.730914
 31
0.0
  0
LINE
  5
3A83
  8
SUNPOU
  6
CONTINUOUS
 62
     4
 10
25795.913614000001
 20
16973.730914
 30
0.0
 11
26395.913614000001
 21
16973.730914
 31
0.0
  0
LINE
  5
3A84
  8
SUNPOU
  6
CONTINUOUS
 62
     4
 10
25795.913614000001
 20
19891.730914
 30
0.0
 11
26395.913614000001
 21
19891.730914
 31
0.0
  0
LINE
  5
3A85
  8
SUNPOU
  6
CONTINUOUS
 62
     4
 10
26315.913614000001
 20
16973.730914
 30
0.0
 11
26315.913614000001
 21
19891.730914
 31
0.0
  0
LINE
  5
3A86
  8
SUNPOU
  6
CONTINUOUS
 62
     4
 10
25795.913614000001
 20
14055.730913999991
 30
0.0
 11
26395.913614000001
 21
14055.730913999991
 31
0.0
  0
LINE
  5
3A87
  8
SUNPOU
  6
CONTINUOUS
 62
     4
 10
25795.913614000001
 20
16973.730914
 30
0.0
 11
26395.913614000001
 21
16973.730914
 31
0.0
  0
LINE
  5
3A88
  8
SUNPOU
  6
CONTINUOUS
 62
     4
 10
26315.913614000001
 20
14055.730913999991
 30
0.0
 11
26315.913614000001
 21
16973.730914
 31
0.0
  0
LINE
  5
3A89
  8
SUNPOU
  6
CONTINUOUS
 62
     4
 10
24945.912294000002
 20
19934.228209000001
 30
0.0
 11
26795.913614000001
 21
19934.228209000001
 31
0.0
  0
LINE
  5
3A8A
  8
SUNPOU
  6
CONTINUOUS
 62
     4
 10
24945.912294000002
 20
14013.233619000001
 30
0.0
 11
26795.913614000001
 21
14013.233619000001
 31
0.0
  0
LINE
  5
3A8B
  8
SUNPOU
  6
CONTINUOUS
 62
     4
 10
26715.913614000001
 20
19934.228209000001
 30
0.0
 11
26715.913614000001
 21
14013.233619000001
 31
0.0
  0
LINE
  5
3A8C
  8
SUNPOU
  6
CONTINUOUS
 62
     4
 10
25795.913614000001
 20
19891.730914
 30
0.0
 11
26395.913614000001
 21
19891.730914
 31
0.0
  0
LINE
  5
3A8D
  8
SUNPOU
  6
CONTINUOUS
 62
     4
 10
24945.912294000002
 20
19934.228209000001
 30
0.0
 11
26395.913614000001
 21
19934.228209000001
 31
0.0
  0
LINE
  5
3A8E
  8
SUNPOU
  6
CONTINUOUS
 62
     4
 10
26315.913614000001
 20
19891.730914
 30
0.0
 11
26315.913614000001
 21
19651.730914
 31
0.0
  0
LINE
  5
3A8F
  8
SUNPOU
  6
CONTINUOUS
 62
     4
 10
26315.913614000001
 20
19934.228209000001
 30
0.0
 11
26315.913614000001
 21
20174.228209000001
 31
0.0
  0
LINE
  5
3A90
  8
SUNPOU
  6
CONTINUOUS
 62
     4
 10
26315.913614000001
 20
19891.730914
 30
0.0
 11
26315.913614000001
 21
19934.228209000001
 31
0.0
  0
LINE
  5
3A91
  8
SUNPOU
  6
CONTINUOUS
 62
     4
 10
25795.913614000001
 20
14055.730913999991
 30
0.0
 11
26395.913614000001
 21
14055.730913999991
 31
0.0
  0
LINE
  5
3A92
  8
SUNPOU
  6
CONTINUOUS
 62
     4
 10
24945.912294000002
 20
14013.233619000001
 30
0.0
 11
26395.913614000001
 21
14013.233619000001
 31
0.0
  0
LINE
  5
3A93
  8
SUNPOU
  6
CONTINUOUS
 62
     4
 10
26315.913614000001
 20
14055.730913999991
 30
0.0
 11
26315.913614000001
 21
14295.730913999991
 31
0.0
  0
LINE
  5
3A94
  8
SUNPOU
  6
CONTINUOUS
 62
     4
 10
26315.913614000001
 20
14013.233619000001
 30
0.0
 11
26315.913614000001
 21
13773.233619000001
 31
0.0
  0
LINE
  5
3A95
  8
SUNPOU
  6
CONTINUOUS
 62
     4
 10
26315.913614000001
 20
14055.730913999991
 30
0.0
 11
26315.913614000001
 21
14013.233619000001
 31
0.0
  0
LINE
  5
3A96
  8
SUNPOU
  6
CONTINUOUS
 62
     4
 10
22956.91401
 20
20014.229199000009
 30
0.0
 11
22956.91401
 21
20744.232102000031
 31
0.0
  0
LINE
  5
3A97
  8
SUNPOU
  6
CONTINUOUS
 62
     4
 10
23364.41401
 20
20014.229199000009
 30
0.0
 11
23364.41401
 21
20744.232102000031
 31
0.0
  0
LINE
  5
3A98
  8
SUNPOU
  6
CONTINUOUS
 62
     4
 10
22956.91401
 20
20664.232102000031
 30
0.0
 11
23364.41401
 21
20664.232102000031
 31
0.0
  0
LINE
  5
3A99
  8
SUNPOU
  6
CONTINUOUS
 62
     4
 10
24065.41401
 20
20014.229199000009
 30
0.0
 11
24065.41401
 21
20744.232102000031
 31
0.0
  0
LINE
  5
3A9A
  8
SUNPOU
  6
CONTINUOUS
 62
     4
 10
24823.414999500001
 20
20014.229199000009
 30
0.0
 11
24823.414999500001
 21
20744.232102000031
 31
0.0
  0
LINE
  5
3A9B
  8
SUNPOU
  6
CONTINUOUS
 62
     4
 10
24065.41401
 20
20664.232102000031
 30
0.0
 11
24823.414999500001
 21
20664.232102000031
 31
0.0
  0
LINE
  5
3A9C
  8
SUNPOU
  6
CONTINUOUS
 62
     4
 10
23364.41401
 20
20014.229199000009
 30
0.0
 11
23364.41401
 21
20744.232102000031
 31
0.0
  0
LINE
  5
3A9D
  8
SUNPOU
  6
CONTINUOUS
 62
     4
 10
24065.41401
 20
20014.229199000009
 30
0.0
 11
24065.41401
 21
20744.232102000031
 31
0.0
  0
LINE
  5
3A9E
  8
SUNPOU
  6
CONTINUOUS
 62
     4
 10
23364.41401
 20
20664.232102000031
 30
0.0
 11
24065.41401
 21
20664.232102000031
 31
0.0
  0
LINE
  5
3A9F
  8
SUNPOU
  6
CONTINUOUS
 62
     4
 10
24823.41401
 20
20014.229199000009
 30
0.0
 11
24823.41401
 21
20744.232102000031
 31
0.0
  0
LINE
  5
3AA0
  8
SUNPOU
  6
CONTINUOUS
 62
     4
 10
24865.910315000001
 20
20014.229199000009
 30
0.0
 11
24865.910315000001
 21
20744.232102000031
 31
0.0
  0
LINE
  5
3AA1
  8
SUNPOU
  6
CONTINUOUS
 62
     4
 10
24823.41401
 20
20664.232102000031
 30
0.0
 11
24583.41401
 21
20664.232102000031
 31
0.0
  0
LINE
  5
3AA2
  8
SUNPOU
  6
CONTINUOUS
 62
     4
 10
24865.910315000001
 20
20664.232102000031
 30
0.0
 11
25105.910315000001
 21
20664.232102000031
 31
0.0
  0
LINE
  5
3AA3
  8
SUNPOU
  6
CONTINUOUS
 62
     4
 10
24823.41401
 20
20664.232102000031
 30
0.0
 11
24865.910315000001
 21
20664.232102000031
 31
0.0
  0
LINE
  5
3AA4
  8
SUNPOU
  6
CONTINUOUS
 62
     4
 10
20389.41401
 20
20014.229199000009
 30
0.0
 11
20389.41401
 21
20744.232102000031
 31
0.0
  0
LINE
  5
3AA5
  8
SUNPOU
  6
CONTINUOUS
 62
     4
 10
20796.91401
 20
20014.229199000009
 30
0.0
 11
20796.91401
 21
20744.232102000031
 31
0.0
  0
LINE
  5
3AA6
  8
SUNPOU
  6
CONTINUOUS
 62
     4
 10
20389.41401
 20
20664.232102000031
 30
0.0
 11
20796.91401
 21
20664.232102000031
 31
0.0
  0
LINE
  5
3AA7
  8
SUNPOU
  6
CONTINUOUS
 62
     4
 10
20389.41401
 20
20014.229199000009
 30
0.0
 11
20389.41401
 21
20744.232102000031
 31
0.0
  0
LINE
  5
3AA8
  8
SUNPOU
  6
CONTINUOUS
 62
     4
 10
20346.917705
 20
20014.229199000009
 30
0.0
 11
20346.917705
 21
20744.232102000031
 31
0.0
  0
LINE
  5
3AA9
  8
SUNPOU
  6
CONTINUOUS
 62
     4
 10
20389.41401
 20
20664.232102000031
 30
0.0
 11
20629.41401
 21
20664.232102000031
 31
0.0
  0
LINE
  5
3AAA
  8
SUNPOU
  6
CONTINUOUS
 62
     4
 10
20346.917705
 20
20664.232102000031
 30
0.0
 11
20106.917705
 21
20664.232102000031
 31
0.0
  0
LINE
  5
3AAB
  8
SUNPOU
  6
CONTINUOUS
 62
     4
 10
20389.41401
 20
20664.232102000031
 30
0.0
 11
20346.917705
 21
20664.232102000031
 31
0.0
  0
LINE
  5
3AAC
  8
SUNPOU
  6
CONTINUOUS
 62
     4
 10
22198.91400999999
 20
20014.229199000009
 30
0.0
 11
22198.91400999999
 21
20744.232102000031
 31
0.0
  0
LINE
  5
3AAD
  8
SUNPOU
  6
CONTINUOUS
 62
     4
 10
22956.914999500012
 20
20014.229199000009
 30
0.0
 11
22956.914999500012
 21
20744.232102000031
 31
0.0
  0
LINE
  5
3AAE
  8
SUNPOU
  6
CONTINUOUS
 62
     4
 10
22198.91400999999
 20
20664.232102000031
 30
0.0
 11
22956.914999500012
 21
20664.232102000031
 31
0.0
  0
LINE
  5
3AAF
  8
SUNPOU
  6
CONTINUOUS
 62
     4
 10
21497.91401
 20
20014.229199000009
 30
0.0
 11
21497.91401
 21
20744.232102000031
 31
0.0
  0
LINE
  5
3AB0
  8
SUNPOU
  6
CONTINUOUS
 62
     4
 10
22198.91400999999
 20
20014.229199000009
 30
0.0
 11
22198.91400999999
 21
20744.232102000031
 31
0.0
  0
LINE
  5
3AB1
  8
SUNPOU
  6
CONTINUOUS
 62
     4
 10
21497.91401
 20
20664.232102000031
 30
0.0
 11
22198.91400999999
 21
20664.232102000031
 31
0.0
  0
LINE
  5
3AB2
  8
SUNPOU
  6
CONTINUOUS
 62
     4
 10
20796.91401
 20
20014.229199000009
 30
0.0
 11
20796.91401
 21
20744.232102000031
 31
0.0
  0
LINE
  5
3AB3
  8
SUNPOU
  6
CONTINUOUS
 62
     4
 10
21497.91401
 20
20014.229199000009
 30
0.0
 11
21497.91401
 21
20744.232102000031
 31
0.0
  0
LINE
  5
3AB4
  8
SUNPOU
  6
CONTINUOUS
 62
     4
 10
20796.91401
 20
20664.232102000031
 30
0.0
 11
21497.91401
 21
20664.232102000031
 31
0.0
  0
LINE
  5
3AB5
  8
SUNPOU
  6
CONTINUOUS
 62
     4
 10
8812.6585459999988
 20
8593.3184120000024
 30
0.0
 11
8812.6585459999988
 21
9984.3184379999984
 31
0.0
  0
LINE
  5
3AB6
  8
SUNPOU
  6
CONTINUOUS
 62
     4
 10
15063.658546000001
 20
8725.2082354124323
 30
0.0
 11
15063.658546000001
 21
9984.3184379999984
 31
0.0
  0
LINE
  5
3AB7
  8
SUNPOU
  6
CONTINUOUS
 62
     4
 10
8812.6585459999988
 20
9904.3184379999984
 30
0.0
 11
15063.658546000001
 21
9904.3184379999984
 31
0.0
  0
LINE
  5
3AB8
  8
SUNPOU
  6
CONTINUOUS
 62
     4
 10
14913.659798999999
 20
8651.5491579999998
 30
0.0
 11
14913.659798999999
 21
9584.3200880000004
 31
0.0
  0
LINE
  5
3AB9
  8
SUNPOU
  6
CONTINUOUS
 62
     4
 10
15063.658546000001
 20
8725.2082354124323
 30
0.0
 11
15063.658546000001
 21
9584.3200880000004
 31
0.0
  0
LINE
  5
3ABA
  8
SUNPOU
  6
CONTINUOUS
 62
     4
 10
14913.659798999999
 20
9504.3200880000004
 30
0.0
 11
14673.659798999999
 21
9504.3200880000004
 31
0.0
  0
LINE
  5
3ABB
  8
SUNPOU
  6
CONTINUOUS
 62
     4
 10
15063.658546000001
 20
9504.3200880000004
 30
0.0
 11
15303.658546000001
 21
9504.3200880000004
 31
0.0
  0
LINE
  5
3ABC
  8
SUNPOU
  6
CONTINUOUS
 62
     4
 10
14913.659798999999
 20
9504.3200880000004
 30
0.0
 11
15063.658546000001
 21
9504.3200880000004
 31
0.0
  0
LINE
  5
3ABD
  8
SUNPOU
  6
CONTINUOUS
 62
     4
 10
8992.6572919999981
 20
8469.4007859999983
 30
0.0
 11
8992.6572919999981
 21
9584.3200880000004
 31
0.0
  0
LINE
  5
3ABE
  8
SUNPOU
  6
CONTINUOUS
 62
     4
 10
14913.659798999999
 20
8651.5491579999998
 30
0.0
 11
14913.659798999999
 21
9584.3200880000004
 31
0.0
  0
LINE
  5
3ABF
  8
SUNPOU
  6
CONTINUOUS
 62
     4
 10
8992.6572919999981
 20
9504.3200880000004
 30
0.0
 11
14913.659798999999
 21
9504.3200880000004
 31
0.0
  0
LINE
  5
3AC0
  8
SUNPOU
  6
CONTINUOUS
 62
     4
 10
8812.6585459999988
 20
8593.3184120000024
 30
0.0
 11
8812.6585459999988
 21
9584.3200880000004
 31
0.0
  0
LINE
  5
3AC1
  8
SUNPOU
  6
CONTINUOUS
 62
     4
 10
8992.6572919999981
 20
8469.4007859999983
 30
0.0
 11
8992.6572919999981
 21
9584.3200880000004
 31
0.0
  0
LINE
  5
3AC2
  8
SUNPOU
  6
CONTINUOUS
 62
     4
 10
8812.6585459999988
 20
9504.3200880000004
 30
0.0
 11
8992.6572919999981
 21
9504.3200880000004
 31
0.0
  0
LINE
  5
3AC3
  8
SUNPOU
  6
CONTINUOUS
 62
     4
 10
8905.1585459999988
 20
6356.3194020000001
 30
0.0
 11
7822.660127999995
 21
6356.319402000001
 31
0.0
  0
LINE
  5
3AC4
  8
SUNPOU
  6
CONTINUOUS
 62
     4
 10
8732.6605239999917
 20
8512.819402000001
 30
0.0
 11
7822.660127999995
 21
8512.819402000001
 31
0.0
  0
LINE
  5
3AC5
  8
SUNPOU
  6
CONTINUOUS
 62
     4
 10
7902.6601279999977
 20
6356.319402000001
 30
0.0
 11
7902.6601279999977
 21
8512.819402000001
 31
0.0
  0
LINE
  5
3AC6
  8
SUNPOU
  6
CONTINUOUS
 62
     4
 10
15006.158546000001
 20
6356.3194020000001
 30
0.0
 11
16083.65795099999
 21
6356.319402000001
 31
0.0
  0
LINE
  5
3AC7
  8
SUNPOU
  6
CONTINUOUS
 62
     4
 10
15098.464814599371
 20
8704.8194019999955
 30
0.0
 11
16083.65795099999
 21
8704.8194019999955
 31
0.0
  0
LINE
  5
3AC8
  8
SUNPOU
  6
CONTINUOUS
 62
     4
 10
16003.65795099999
 20
6356.319402000001
 30
0.0
 11
16003.65795099999
 21
8704.8194019999955
 31
0.0
  0
LINE
  5
3AC9
  8
SUNPOU
  6
CONTINUOUS
 62
     4
 10
8992.6585460000006
 20
6276.3189070000053
 30
0.0
 11
8992.6585460000006
 21
4576.3192370000006
 31
0.0
  0
LINE
  5
3ACA
  8
SUNPOU
  6
CONTINUOUS
 62
     4
 10
14913.658546000001
 20
6276.3189070000053
 30
0.0
 11
14913.658546000001
 21
4576.3192370000006
 31
0.0
  0
LINE
  5
3ACB
  8
SUNPOU
  6
CONTINUOUS
 62
     4
 10
8992.6585460000006
 20
4656.3192370000006
 30
0.0
 11
14913.658546000001
 21
4656.3192370000006
 31
0.0
  0
LINE
  5
3ACC
  8
SUNPOU
  6
CONTINUOUS
 62
     4
 10
14871.158546000001
 20
5913.6666490000034
 30
0.0
 11
14871.158546000001
 21
4976.3190720000021
 31
0.0
  0
LINE
  5
3ACD
  8
SUNPOU
  6
CONTINUOUS
 62
     4
 10
14913.658546000001
 20
6276.3189070000053
 30
0.0
 11
14913.658546000001
 21
4976.3190720000021
 31
0.0
  0
LINE
  5
3ACE
  8
SUNPOU
  6
CONTINUOUS
 62
     4
 10
14871.158546000001
 20
5056.3190720000021
 30
0.0
 11
14631.15854599999
 21
5056.3190720000021
 31
0.0
  0
LINE
  5
3ACF
  8
SUNPOU
  6
CONTINUOUS
 62
     4
 10
14913.658546000001
 20
5056.3190720000021
 30
0.0
 11
15153.658546000001
 21
5056.3190720000021
 31
0.0
  0
LINE
  5
3AD0
  8
SUNPOU
  6
CONTINUOUS
 62
     4
 10
14871.158546000001
 20
5056.3190720000021
 30
0.0
 11
14913.658546000001
 21
5056.3190720000021
 31
0.0
  0
LINE
  5
3AD1
  8
SUNPOU
  6
CONTINUOUS
 62
     4
 10
9035.1585460000006
 20
5913.6666490000034
 30
0.0
 11
9035.1585460000006
 21
4976.3190720000021
 31
0.0
  0
LINE
  5
3AD2
  8
SUNPOU
  6
CONTINUOUS
 62
     4
 10
8992.6585460000006
 20
6276.3189070000053
 30
0.0
 11
8992.6585460000006
 21
4976.3190720000021
 31
0.0
  0
LINE
  5
3AD3
  8
SUNPOU
  6
CONTINUOUS
 62
     4
 10
9035.1585460000006
 20
5056.3190720000021
 30
0.0
 11
9275.1585459999988
 21
5056.3190720000021
 31
0.0
  0
LINE
  5
3AD4
  8
SUNPOU
  6
CONTINUOUS
 62
     4
 10
8992.6585460000006
 20
5056.3190720000021
 30
0.0
 11
8752.6585460000006
 21
5056.3190720000021
 31
0.0
  0
LINE
  5
3AD5
  8
SUNPOU
  6
CONTINUOUS
 62
     4
 10
9035.1585460000006
 20
5056.3190720000021
 30
0.0
 11
8992.6585460000006
 21
5056.3190720000021
 31
0.0
  0
LINE
  5
3AD6
  8
SUNPOU
  6
CONTINUOUS
 62
     4
 10
11953.158546000001
 20
5913.6666490000034
 30
0.0
 11
11953.158546000001
 21
4976.3190720000021
 31
0.0
  0
LINE
  5
3AD7
  8
SUNPOU
  6
CONTINUOUS
 62
     4
 10
9035.1585460000006
 20
5913.6666490000034
 30
0.0
 11
9035.1585460000006
 21
4976.3190720000021
 31
0.0
  0
LINE
  5
3AD8
  8
SUNPOU
  6
CONTINUOUS
 62
     4
 10
11953.158546000001
 20
5056.3190720000021
 30
0.0
 11
9035.1585460000006
 21
5056.3190720000021
 31
0.0
  0
LINE
  5
3AD9
  8
SUNPOU
  6
CONTINUOUS
 62
     4
 10
11953.158546000001
 20
5913.6666490000034
 30
0.0
 11
11953.158546000001
 21
4976.3190720000021
 31
0.0
  0
LINE
  5
3ADA
  8
SUNPOU
  6
CONTINUOUS
 62
     4
 10
14871.158546000001
 20
5913.6666490000034
 30
0.0
 11
14871.158546000001
 21
4976.3190720000021
 31
0.0
  0
LINE
  5
3ADB
  8
SUNPOU
  6
CONTINUOUS
 62
     4
 10
11953.158546000001
 20
5056.3190720000021
 30
0.0
 11
14871.158546000001
 21
5056.3190720000021
 31
0.0
  0
TEXT
  5
3ADC
  8
0
  6
CONTINUOUS
 62
     7
 10
13145.491879333331
 20
5136.3190720000021
 30
0.0
 40
160.0
  1
2918
  0
TEXT
  5
3ADD
  8
0
  6
CONTINUOUS
 62
     7
 10
10227.491879333331
 20
5136.3190720000021
 30
0.0
 40
160.0
  1
2918
  0
TEXT
  5
3ADE
  8
0
  6
CONTINUOUS
 62
     7
 10
8395.4848369036918
 20
5136.3190720000021
 30
0.0
 40
160.0
  1
42.5
  0
TEXT
  5
3ADF
  8
0
  6
CONTINUOUS
 62
     7
 10
15051.977183309809
 20
5136.3190720000021
 30
0.0
 40
160.0
  1
42.5
  0
TEXT
  5
3AE0
  8
0
  6
CONTINUOUS
 62
     7
 10
11686.491879333331
 20
4736.3192370000006
 30
0.0
 40
160.0
  1
5921
  0
TEXT
  5
3AE1
  8
0
  6
CONTINUOUS
 62
     7
 10
15923.65795099999
 20
6511.9027353333349
 30
0.0
 40
160.0
  1
2348.5（2588.5）
 50
90.0
  0
TEXT
  5
3AE2
  8
0
  6
CONTINUOUS
 62
     7
 10
7822.660127999995
 20
6442.5694020000019
 30
0.0
 40
160.0
  1
2156.5（2396.5）
 50
90.0
  0
TEXT
  5
3AE3
  8
0
  6
CONTINUOUS
 62
     7
 10
8399.3252126666648
 20
9584.3200880000004
 30
0.0
 40
160.0
  1
180
  0
TEXT
  5
3AE4
  8
0
  6
CONTINUOUS
 62
     7
 10
11686.491878833331
 20
9584.3200880000004
 30
0.0
 40
160.0
  1
5921
  0
TEXT
  5
3AE5
  8
0
  6
CONTINUOUS
 62
     7
 10
15130.325212666659
 20
9584.3200880000004
 30
0.0
 40
160.0
  1
150
  0
TEXT
  5
3AE6
  8
0
  6
CONTINUOUS
 62
     7
 10
11671.491879333331
 20
9984.3184379999984
 30
0.0
 40
160.0
  1
6251
  0
TEXT
  5
3AE7
  8
0
  6
CONTINUOUS
 62
     7
 10
20974.080676666668
 20
20424.232102000031
 30
0.0
 40
160.0
  1
701
  0
TEXT
  5
3AE8
  8
0
  6
CONTINUOUS
 62
     7
 10
21675.080676666668
 20
20744.232102000031
 30
0.0
 40
160.0
  1
701
  0
TEXT
  5
3AE9
  8
0
  6
CONTINUOUS
 62
     7
 10
22364.58117141667
 20
20744.232102000031
 30
0.0
 40
160.0
  1
758
  0
TEXT
  5
3AEA
  8
0
  6
CONTINUOUS
 62
     7
 10
19786.6020304712
 20
20744.232102000031
 30
0.0
 40
160.0
  1
42.5
  0
TEXT
  5
3AEB
  8
0
  6
CONTINUOUS
 62
     7
 10
20490.247343333322
 20
20744.232102000031
 30
0.0
 40
160.0
  1
407.5
  0
TEXT
  5
3AEC
  8
0
  6
CONTINUOUS
 62
     7
 10
24946.22598952879
 20
20744.232102000031
 30
0.0
 40
160.0
  1
42.5
  0
TEXT
  5
3AED
  8
0
  6
CONTINUOUS
 62
     7
 10
23541.580676666661
 20
20424.232102000031
 30
0.0
 40
160.0
  1
701
  0
TEXT
  5
3AEE
  8
0
  6
CONTINUOUS
 62
     7
 10
24231.08117141667
 20
20744.232102000031
 30
0.0
 40
160.0
  1
758
  0
TEXT
  5
3AEF
  8
0
  6
CONTINUOUS
 62
     7
 10
23057.747343333322
 20
20744.232102000031
 30
0.0
 40
160.0
  1
407.5
  0
TEXT
  5
3AF0
  8
0
  6
CONTINUOUS
 62
     7
 10
26235.913614000001
 20
13439.6773826032
 30
0.0
 40
160.0
  1
42.5
 50
90.0
  0
TEXT
  5
3AF1
  8
0
  6
CONTINUOUS
 62
     7
 10
26235.913614000001
 20
20027.784445396788
 30
0.0
 40
160.0
  1
42.5
 50
90.0
  0
TEXT
  5
3AF2
  8
0
  6
CONTINUOUS
 62
     7
 10
26635.91361399999
 20
16707.064247333339
 30
0.0
 40
160.0
  1
5921
 50
90.0
  0
TEXT
  5
3AF3
  8
0
  6
CONTINUOUS
 62
     7
 10
26235.91361399999
 20
15248.06424733333
 30
0.0
 40
160.0
  1
2918
 50
90.0
  0
TEXT
  5
3AF4
  8
0
  6
CONTINUOUS
 62
     7
 10
26235.91361399999
 20
18166.064247333321
 30
0.0
 40
160.0
  1
2918
 50
90.0
  0
TEXT
  5
3AF5
  8
0
  6
CONTINUOUS
 62
     7
 10
25835.91361399999
 20
19299.397580666671
 30
0.0
 40
160.0
  1
758
 50
90.0
  0
TEXT
  5
3AF6
  8
0
  6
CONTINUOUS
 62
     7
 10
25835.91361399999
 20
18609.897580666671
 30
0.0
 40
160.0
  1
701
 50
90.0
  0
TEXT
  5
3AF7
  8
0
  6
CONTINUOUS
 62
     7
 10
25835.91361399999
 20
17908.897580666671
 30
0.0
 40
160.0
  1
701
 50
90.0
  0
TEXT
  5
3AF8
  8
0
  6
CONTINUOUS
 62
     7
 10
25835.91361399999
 20
17139.397580666671
 30
0.0
 40
160.0
  1
758
 50
90.0
  0
TEXT
  5
3AF9
  8
0
  6
CONTINUOUS
 62
     7
 10
25835.91361399999
 20
16381.39758066666
 30
0.0
 40
160.0
  1
758
 50
90.0
  0
TEXT
  5
3AFA
  8
0
  6
CONTINUOUS
 62
     7
 10
25835.91361399999
 20
15692.01783641668
 30
0.0
 40
160.0
  1
701
 50
90.0
  0
TEXT
  5
3AFB
  8
0
  6
CONTINUOUS
 62
     7
 10
25835.91361399999
 20
14991.01783641668
 30
0.0
 40
160.0
  1
701
 50
90.0
  0
TEXT
  5
3AFC
  8
0
  6
CONTINUOUS
 62
     7
 10
25835.91361399999
 20
14221.39758066666
 30
0.0
 40
160.0
  1
758
 50
90.0
  0
TEXT
  5
3AFD
  8
0
  6
CONTINUOUS
 62
     7
 10
22339.74734333334
 20
12764.282829999989
 30
0.0
 40
160.0
  1
4519
  0
TEXT
  5
3AFE
  8
0
  6
CONTINUOUS
 62
     7
 10
20507.467682382081
 20
13164.28283
 30
0.0
 40
160.0
  1
42.5
  0
TEXT
  5
3AFF
  8
0
  6
CONTINUOUS
 62
     7
 10
24225.360337617909
 20
13164.28283
 30
0.0
 40
160.0
  1
42.5
  0
TEXT
  5
3B00
  8
0
  6
CONTINUOUS
 62
     7
 10
24941.467682382081
 20
13164.28283
 30
0.0
 40
160.0
  1
42.5
  0
TEXT
  5
3B01
  8
0
  6
CONTINUOUS
 62
     7
 10
19791.360337617902
 20
13164.28283
 30
0.0
 40
160.0
  1
42.5
  0
TEXT
  5
3B02
  8
0
  6
CONTINUOUS
 62
     7
 10
22339.747342333321
 20
4736.3202269999929
 30
0.0
 40
160.0
  1
4519
  0
TEXT
  5
3B03
  8
0
  6
CONTINUOUS
 62
     7
 10
19780.875018741121
 20
5136.3200619999989
 30
0.0
 40
160.0
  1
42.5
  0
TEXT
  5
3B04
  8
0
  6
CONTINUOUS
 62
     7
 10
24951.95695825883
 20
5136.3200619999989
 30
0.0
 40
160.0
  1
42.5
  0
TEXT
  5
3B05
  8
0
  6
CONTINUOUS
 62
     7
 10
21273.164008999971
 20
5136.3200619999989
 30
0.0
 40
160.0
  1
2567.5
  0
TEXT
  5
3B06
  8
0
  6
CONTINUOUS
 62
     7
 10
23516.830675666661
 20
5136.3200619999989
 30
0.0
 40
160.0
  1
1866.5
  0
TEXT
  5
3B07
  8
0
  6
CONTINUOUS
 62
     7
 10
23426.164008999989
 20
5802.9867286666649
 30
0.0
 40
160.0
  1
有効開口巾
  0
TEXT
  5
3B08
  8
0
  6
CONTINUOUS
 62
     7
 10
23516.830675666661
 20
5536.3200619999971
 30
0.0
 40
160.0
  1
1678.5
  0
TEXT
  5
3B09
  8
0
  6
CONTINUOUS
 62
     7
 10
20745.164008999989
 20
5536.3200619999971
 30
0.0
 40
160.0
  1
有効開口巾 2379.5
  0
TEXT
  5
3B0E
  8
0
  6
CONTINUOUS
 62
     7
 10
19059.412359999958
 20
6511.9029828333332
 30
0.0
 40
160.0
  1
2348.5（2588.5）
 50
90.0
  0
TEXT
  5
3B0F
  8
0
  6
CONTINUOUS
 62
     7
 10
19459.414668999969
 20
6420.2991352912723
 30
0.0
 40
160.0
  1
有効開口高サ 1891.5
 50
90.0
  0
TEXT
  5
3B10
  8
0
  6
CONTINUOUS
 62
     7
 10
9084.4562349999942
 20
18166.064247333321
 30
0.0
 40
160.0
  1
2918
 50
90.0
  0
TEXT
  5
3B11
  8
0
  6
CONTINUOUS
 62
     7
 10
9084.4562349999906
 20
20203.186098807681
 30
0.0
 40
160.0
  1
222.5
 50
90.0
  0
TEXT
  5
3B12
  8
0
  6
CONTINUOUS
 62
     7
 10
9484.4562350000015
 20
20260.89348966668
 30
0.0
 40
160.0
  1
10
 50
90.0
  0
TEXT
  5
3B13
  8
0
  6
CONTINUOUS
 62
     7
 10
9084.4562350000015
 20
15248.06424733333
 30
0.0
 40
160.0
  1
2918
 50
90.0
  0
TEXT
  5
3B14
  8
0
  6
CONTINUOUS
 62
     7
 10
9084.4559099999879
 20
13247.77790370263
 30
0.0
 40
160.0
  1
192.5
 50
90.0
  0
TEXT
  5
3B15
  8
0
  6
CONTINUOUS
 62
     7
 10
13221.37235266666
 20
20744.232102000031
 30
0.0
 40
160.0
  1
1866.5
  0
TEXT
  5
3B16
  8
0
  6
CONTINUOUS
 62
     7
 10
14664.45239202325
 20
20744.232102000031
 30
0.0
 40
160.0
  1
85.5
  0
TEXT
  5
3B17
  8
0
  6
CONTINUOUS
 62
     7
 10
11227.705685999999
 20
20744.232102000031
 30
0.0
 40
160.0
  1
2567.5
  0
TEXT
  5
3B18
  8
0
  6
CONTINUOUS
 62
     7
 10
9477.4589799767327
 20
20744.232102000031
 30
0.0
 40
160.0
  1
85.5
  0
ARC
  5
3B1E
  8
0
  6
BYBLOCK
 62
     0
 10
10093.955685999999
 20
20664.232102000031
 30
0.0
 40
15.0
 50
0.0
 51
180.0
  0
ARC
  5
3B1F
  8
0
  6
BYBLOCK
 62
     0
 10
10093.955685999999
 20
20664.232102000031
 30
0.0
 40
15.0
 50
180.0
 51
0.0
  0
ARC
  5
3B20
  8
0
  6
BYBLOCK
 62
     0
 10
10008.45568599999
 20
20664.232102000031
 30
0.0
 40
15.0
 50
180.0
 51
0.0
  0
ARC
  5
3B21
  8
0
  6
BYBLOCK
 62
     0
 10
10008.45568599999
 20
20664.232102000031
 30
0.0
 40
15.0
 50
0.0
 51
180.0
  0
ARC
  5
3B22
  8
0
  6
BYBLOCK
 62
     0
 10
12661.45568599999
 20
20664.232102000031
 30
0.0
 40
15.0
 50
180.0
 51
0.0
  0
ARC
  5
3B23
  8
0
  6
BYBLOCK
 62
     0
 10
12661.45568599999
 20
20664.232102000031
 30
0.0
 40
15.0
 50
0.0
 51
180.0
  0
ARC
  5
3B24
  8
0
  6
BYBLOCK
 62
     0
 10
10093.955685999999
 20
20664.232102000031
 30
0.0
 40
15.0
 50
0.0
 51
180.0
  0
ARC
  5
3B25
  8
0
  6
BYBLOCK
 62
     0
 10
10093.955685999999
 20
20664.232102000031
 30
0.0
 40
15.0
 50
180.0
 51
0.0
  0
ARC
  5
3B26
  8
0
  6
BYBLOCK
 62
     0
 10
14527.95568599999
 20
20664.232102000031
 30
0.0
 40
15.0
 50
180.0
 51
0.0
  0
ARC
  5
3B27
  8
0
  6
BYBLOCK
 62
     0
 10
14527.95568599999
 20
20664.232102000031
 30
0.0
 40
15.0
 50
0.0
 51
180.0
  0
ARC
  5
3B28
  8
0
  6
BYBLOCK
 62
     0
 10
14613.45568599999
 20
20664.232102000031
 30
0.0
 40
15.0
 50
0.0
 51
180.0
  0
ARC
  5
3B29
  8
0
  6
BYBLOCK
 62
     0
 10
14613.45568599999
 20
20664.232102000031
 30
0.0
 40
15.0
 50
180.0
 51
0.0
  0
ARC
  5
3B2A
  8
0
  6
BYBLOCK
 62
     0
 10
12661.45568599999
 20
20664.232102000031
 30
0.0
 40
15.0
 50
0.0
 51
180.0
  0
ARC
  5
3B2B
  8
0
  6
BYBLOCK
 62
     0
 10
12661.45568599999
 20
20664.232102000031
 30
0.0
 40
15.0
 50
180.0
 51
0.0
  0
ARC
  5
3B2C
  8
0
  6
BYBLOCK
 62
     0
 10
14527.95568599999
 20
20664.232102000031
 30
0.0
 40
15.0
 50
180.0
 51
0.0
  0
ARC
  5
3B2D
  8
0
  6
BYBLOCK
 62
     0
 10
14527.95568599999
 20
20664.232102000031
 30
0.0
 40
15.0
 50
0.0
 51
180.0
  0
ARC
  5
3B2E
  8
0
  6
BYBLOCK
 62
     0
 10
9164.4559099999969
 20
14055.730913999991
 30
0.0
 40
15.0
 50
270.0
 51
90.0
  0
ARC
  5
3B2F
  8
0
  6
BYBLOCK
 62
     0
 10
9164.4559099999969
 20
14055.730913999991
 30
0.0
 40
15.0
 50
90.0
 51
270.0
  0
ARC
  5
3B30
  8
0
  6
BYBLOCK
 62
     0
 10
9164.4559099999969
 20
13863.235599
 30
0.0
 40
15.0
 50
90.0
 51
270.0
  0
ARC
  5
3B31
  8
0
  6
BYBLOCK
 62
     0
 10
9164.4559099999969
 20
13863.235599
 30
0.0
 40
15.0
 50
270.0
 51
90.0
  0
ARC
  5
3B32
  8
0
  6
BYBLOCK
 62
     0
 10
9164.4562350000015
 20
16973.730914
 30
0.0
 40
15.0
 50
270.0
 51
90.0
  0
ARC
  5
3B33
  8
0
  6
BYBLOCK
 62
     0
 10
9164.4562350000015
 20
16973.730914
 30
0.0
 40
15.0
 50
90.0
 51
270.0
  0
ARC
  5
3B34
  8
0
  6
BYBLOCK
 62
     0
 10
9164.4562350000015
 20
14055.730913999991
 30
0.0
 40
15.0
 50
90.0
 51
270.0
  0
ARC
  5
3B35
  8
0
  6
BYBLOCK
 62
     0
 10
9164.4562350000015
 20
14055.730913999991
 30
0.0
 40
15.0
 50
270.0
 51
90.0
  0
ARC
  5
3B36
  8
0
  6
BYBLOCK
 62
     0
 10
9564.4562349999997
 20
20104.226823000012
 30
0.0
 40
15.0
 50
270.0
 51
90.0
  0
ARC
  5
3B37
  8
0
  6
BYBLOCK
 62
     0
 10
9564.4562349999997
 20
20104.226823000012
 30
0.0
 40
15.0
 50
90.0
 51
270.0
  0
ARC
  5
3B38
  8
0
  6
BYBLOCK
 62
     0
 10
9564.4562349999997
 20
20114.226823000001
 30
0.0
 40
15.0
 50
90.0
 51
270.0
  0
ARC
  5
3B39
  8
0
  6
BYBLOCK
 62
     0
 10
9564.4562349999997
 20
20114.226823000001
 30
0.0
 40
15.0
 50
270.0
 51
90.0
  0
ARC
  5
3B3A
  8
0
  6
BYBLOCK
 62
     0
 10
9164.4562350000015
 20
19891.730914
 30
0.0
 40
15.0
 50
90.0
 51
270.0
  0
ARC
  5
3B3B
  8
0
  6
BYBLOCK
 62
     0
 10
9164.4562350000015
 20
19891.730914
 30
0.0
 40
15.0
 50
270.0
 51
90.0
  0
ARC
  5
3B3C
  8
0
  6
BYBLOCK
 62
     0
 10
9164.4562350000015
 20
20114.226823000001
 30
0.0
 40
15.0
 50
270.0
 51
90.0
  0
ARC
  5
3B3D
  8
0
  6
BYBLOCK
 62
     0
 10
9164.4562350000015
 20
20114.226823000001
 30
0.0
 40
15.0
 50
90.0
 51
270.0
  0
ARC
  5
3B3E
  8
0
  6
BYBLOCK
 62
     0
 10
9164.4562350000015
 20
16973.730914
 30
0.0
 40
15.0
 50
90.0
 51
270.0
  0
ARC
  5
3B3F
  8
0
  6
BYBLOCK
 62
     0
 10
9164.4562350000015
 20
16973.730914
 30
0.0
 40
15.0
 50
270.0
 51
90.0
  0
ARC
  5
3B40
  8
0
  6
BYBLOCK
 62
     0
 10
9164.4562350000015
 20
19891.730914
 30
0.0
 40
15.0
 50
270.0
 51
90.0
  0
ARC
  5
3B41
  8
0
  6
BYBLOCK
 62
     0
 10
9164.4562350000015
 20
19891.730914
 30
0.0
 40
15.0
 50
90.0
 51
270.0
  0
ARC
  5
3B42
  8
0
  6
BYBLOCK
 62
     0
 10
19539.41466899998
 20
6356.3198969999958
 30
0.0
 40
15.0
 50
90.0
 51
270.0
  0
ARC
  5
3B43
  8
0
  6
BYBLOCK
 62
     0
 10
19539.41466899998
 20
6356.3198969999958
 30
0.0
 40
15.0
 50
270.0
 51
90.0
  0
ARC
  5
3B44
  8
0
  6
BYBLOCK
 62
     0
 10
19539.41466899998
 20
8247.8198969999976
 30
0.0
 40
15.0
 50
270.0
 51
90.0
  0
ARC
  5
3B45
  8
0
  6
BYBLOCK
 62
     0
 10
19539.41466899998
 20
8247.8198969999976
 30
0.0
 40
15.0
 50
90.0
 51
270.0
  0
ARC
  5
3B46
  8
0
  6
BYBLOCK
 62
     0
 10
19139.412359999958
 20
6356.3198969999958
 30
0.0
 40
15.0
 50
90.0
 51
270.0
  0
ARC
  5
3B47
  8
0
  6
BYBLOCK
 62
     0
 10
19139.412359999958
 20
6356.3198969999958
 30
0.0
 40
15.0
 50
270.0
 51
90.0
  0
ARC
  5
3B48
  8
0
  6
BYBLOCK
 62
     0
 10
19139.41235999998
 20
8704.8194019999955
 30
0.0
 40
15.0
 50
270.0
 51
90.0
  0
ARC
  5
3B49
  8
0
  6
BYBLOCK
 62
     0
 10
19139.41235999998
 20
8704.8194019999955
 30
0.0
 40
15.0
 50
90.0
 51
270.0
  0
ARC
  5
3B5A
  8
0
  6
BYBLOCK
 62
     0
 10
20483.414008999989
 20
5456.3200619999989
 30
0.0
 40
15.0
 50
0.0
 51
180.0
  0
ARC
  5
3B5B
  8
0
  6
BYBLOCK
 62
     0
 10
20483.414008999989
 20
5456.3200619999989
 30
0.0
 40
15.0
 50
180.0
 51
0.0
  0
ARC
  5
3B5C
  8
0
  6
BYBLOCK
 62
     0
 10
22862.914008999978
 20
5456.3200619999989
 30
0.0
 40
15.0
 50
180.0
 51
0.0
  0
ARC
  5
3B5D
  8
0
  6
BYBLOCK
 62
     0
 10
22862.914008999978
 20
5456.3200619999989
 30
0.0
 40
15.0
 50
0.0
 51
180.0
  0
ARC
  5
3B5E
  8
0
  6
BYBLOCK
 62
     0
 10
23050.914008999971
 20
5456.3200619999989
 30
0.0
 40
15.0
 50
0.0
 51
180.0
  0
ARC
  5
3B5F
  8
0
  6
BYBLOCK
 62
     0
 10
23050.914008999971
 20
5456.3200619999989
 30
0.0
 40
15.0
 50
180.0
 51
0.0
  0
ARC
  5
3B60
  8
0
  6
BYBLOCK
 62
     0
 10
24729.414008999989
 20
5456.3200619999989
 30
0.0
 40
15.0
 50
180.0
 51
0.0
  0
ARC
  5
3B61
  8
0
  6
BYBLOCK
 62
     0
 10
24729.414008999989
 20
5456.3200619999989
 30
0.0
 40
15.0
 50
0.0
 51
180.0
  0
ARC
  5
3B62
  8
0
  6
BYBLOCK
 62
     0
 10
22956.914008999989
 20
5056.3200619999989
 30
0.0
 40
15.0
 50
0.0
 51
180.0
  0
ARC
  5
3B63
  8
0
  6
BYBLOCK
 62
     0
 10
22956.914008999989
 20
5056.3200619999989
 30
0.0
 40
15.0
 50
180.0
 51
0.0
  0
ARC
  5
3B64
  8
0
  6
BYBLOCK
 62
     0
 10
24823.414008999978
 20
5056.3200619999989
 30
0.0
 40
15.0
 50
180.0
 51
0.0
  0
ARC
  5
3B65
  8
0
  6
BYBLOCK
 62
     0
 10
24823.414008999978
 20
5056.3200619999989
 30
0.0
 40
15.0
 50
0.0
 51
180.0
  0
ARC
  5
3B66
  8
0
  6
BYBLOCK
 62
     0
 10
20389.414008999978
 20
5056.3200619999989
 30
0.0
 40
15.0
 50
0.0
 51
180.0
  0
ARC
  5
3B67
  8
0
  6
BYBLOCK
 62
     0
 10
20389.414008999978
 20
5056.3200619999989
 30
0.0
 40
15.0
 50
180.0
 51
0.0
  0
ARC
  5
3B68
  8
0
  6
BYBLOCK
 62
     0
 10
22956.914008999989
 20
5056.3200619999989
 30
0.0
 40
15.0
 50
180.0
 51
0.0
  0
ARC
  5
3B69
  8
0
  6
BYBLOCK
 62
     0
 10
22956.914008999989
 20
5056.3200619999989
 30
0.0
 40
15.0
 50
0.0
 51
180.0
  0
ARC
  5
3B6A
  8
0
  6
BYBLOCK
 62
     0
 10
24823.417968000002
 20
5056.3200619999989
 30
0.0
 40
15.0
 50
180.0
 51
0.0
  0
ARC
  5
3B6B
  8
0
  6
BYBLOCK
 62
     0
 10
24823.417968000002
 20
5056.3200619999989
 30
0.0
 40
15.0
 50
0.0
 51
180.0
  0
ARC
  5
3B6C
  8
0
  6
BYBLOCK
 62
     0
 10
24865.917967999991
 20
5056.3200619999989
 30
0.0
 40
15.0
 50
0.0
 51
180.0
  0
ARC
  5
3B6D
  8
0
  6
BYBLOCK
 62
     0
 10
24865.917967999991
 20
5056.3200619999989
 30
0.0
 40
15.0
 50
180.0
 51
0.0
  0
ARC
  5
3B6E
  8
0
  6
BYBLOCK
 62
     0
 10
20389.414008999978
 20
5056.3200619999989
 30
0.0
 40
15.0
 50
0.0
 51
180.0
  0
ARC
  5
3B6F
  8
0
  6
BYBLOCK
 62
     0
 10
20389.414008999978
 20
5056.3200619999989
 30
0.0
 40
15.0
 50
180.0
 51
0.0
  0
ARC
  5
3B70
  8
0
  6
BYBLOCK
 62
     0
 10
20346.914008999989
 20
5056.3200619999989
 30
0.0
 40
15.0
 50
180.0
 51
0.0
  0
ARC
  5
3B71
  8
0
  6
BYBLOCK
 62
     0
 10
20346.914008999989
 20
5056.3200619999989
 30
0.0
 40
15.0
 50
0.0
 51
180.0
  0
ARC
  5
3B72
  8
0
  6
BYBLOCK
 62
     0
 10
20346.914008999989
 20
4656.3202269999974
 30
0.0
 40
15.0
 50
0.0
 51
180.0
  0
ARC
  5
3B73
  8
0
  6
BYBLOCK
 62
     0
 10
20346.914008999989
 20
4656.3202269999974
 30
0.0
 40
15.0
 50
180.0
 51
0.0
  0
ARC
  5
3B74
  8
0
  6
BYBLOCK
 62
     0
 10
24865.914008999989
 20
4656.3202269999974
 30
0.0
 40
15.0
 50
180.0
 51
0.0
  0
ARC
  5
3B75
  8
0
  6
BYBLOCK
 62
     0
 10
24865.914008999989
 20
4656.3202269999974
 30
0.0
 40
15.0
 50
0.0
 51
180.0
  0
ARC
  5
3B76
  8
0
  6
BYBLOCK
 62
     0
 10
20389.41401
 20
13084.28283
 30
0.0
 40
15.0
 50
0.0
 51
180.0
  0
ARC
  5
3B77
  8
0
  6
BYBLOCK
 62
     0
 10
20389.41401
 20
13084.28283
 30
0.0
 40
15.0
 50
180.0
 51
0.0
  0
ARC
  5
3B78
  8
0
  6
BYBLOCK
 62
     0
 10
20346.911767000001
 20
13084.28283
 30
0.0
 40
15.0
 50
180.0
 51
0.0
  0
ARC
  5
3B79
  8
0
  6
BYBLOCK
 62
     0
 10
20346.911767000001
 20
13084.28283
 30
0.0
 40
15.0
 50
0.0
 51
180.0
  0
ARC
  5
3B7A
  8
0
  6
BYBLOCK
 62
     0
 10
24823.41401
 20
13084.28283
 30
0.0
 40
15.0
 50
180.0
 51
0.0
  0
ARC
  5
3B7B
  8
0
  6
BYBLOCK
 62
     0
 10
24823.41401
 20
13084.28283
 30
0.0
 40
15.0
 50
0.0
 51
180.0
  0
ARC
  5
3B7C
  8
0
  6
BYBLOCK
 62
     0
 10
24865.916252999989
 20
13084.28283
 30
0.0
 40
15.0
 50
0.0
 51
180.0
  0
ARC
  5
3B7D
  8
0
  6
BYBLOCK
 62
     0
 10
24865.916252999989
 20
13084.28283
 30
0.0
 40
15.0
 50
180.0
 51
0.0
  0
ARC
  5
3B7E
  8
0
  6
BYBLOCK
 62
     0
 10
24823.41401
 20
13084.28283
 30
0.0
 40
15.0
 50
0.0
 51
180.0
  0
ARC
  5
3B7F
  8
0
  6
BYBLOCK
 62
     0
 10
24823.41401
 20
13084.28283
 30
0.0
 40
15.0
 50
180.0
 51
0.0
  0
ARC
  5
3B80
  8
0
  6
BYBLOCK
 62
     0
 10
24780.911767000001
 20
13084.28283
 30
0.0
 40
15.0
 50
180.0
 51
0.0
  0
ARC
  5
3B81
  8
0
  6
BYBLOCK
 62
     0
 10
24780.911767000001
 20
13084.28283
 30
0.0
 40
15.0
 50
0.0
 51
180.0
  0
ARC
  5
3B82
  8
0
  6
BYBLOCK
 62
     0
 10
20389.41401
 20
13084.28283
 30
0.0
 40
15.0
 50
180.0
 51
0.0
  0
ARC
  5
3B83
  8
0
  6
BYBLOCK
 62
     0
 10
20389.41401
 20
13084.28283
 30
0.0
 40
15.0
 50
0.0
 51
180.0
  0
ARC
  5
3B84
  8
0
  6
BYBLOCK
 62
     0
 10
20431.916252999989
 20
13084.28283
 30
0.0
 40
15.0
 50
0.0
 51
180.0
  0
ARC
  5
3B85
  8
0
  6
BYBLOCK
 62
     0
 10
20431.916252999989
 20
13084.28283
 30
0.0
 40
15.0
 50
180.0
 51
0.0
  0
ARC
  5
3B86
  8
0
  6
BYBLOCK
 62
     0
 10
20346.911767000001
 20
12684.282829999989
 30
0.0
 40
15.0
 50
0.0
 51
180.0
  0
ARC
  5
3B87
  8
0
  6
BYBLOCK
 62
     0
 10
20346.911767000001
 20
12684.282829999989
 30
0.0
 40
15.0
 50
180.0
 51
0.0
  0
ARC
  5
3B88
  8
0
  6
BYBLOCK
 62
     0
 10
24865.916252999989
 20
12684.282829999989
 30
0.0
 40
15.0
 50
180.0
 51
0.0
  0
ARC
  5
3B89
  8
0
  6
BYBLOCK
 62
     0
 10
24865.916252999989
 20
12684.282829999989
 30
0.0
 40
15.0
 50
0.0
 51
180.0
  0
ARC
  5
3B8A
  8
0
  6
BYBLOCK
 62
     0
 10
25915.913614000001
 20
14813.730913999991
 30
0.0
 40
15.0
 50
270.0
 51
90.0
  0
ARC
  5
3B8B
  8
0
  6
BYBLOCK
 62
     0
 10
25915.913614000001
 20
14813.730913999991
 30
0.0
 40
15.0
 50
90.0
 51
270.0
  0
ARC
  5
3B8C
  8
0
  6
BYBLOCK
 62
     0
 10
25915.913614000001
 20
14055.730913999991
 30
0.0
 40
15.0
 50
90.0
 51
270.0
  0
ARC
  5
3B8D
  8
0
  6
BYBLOCK
 62
     0
 10
25915.913614000001
 20
14055.730913999991
 30
0.0
 40
15.0
 50
270.0
 51
90.0
  0
ARC
  5
3B8E
  8
0
  6
BYBLOCK
 62
     0
 10
25915.913614000001
 20
15514.971425500011
 30
0.0
 40
15.0
 50
270.0
 51
90.0
  0
ARC
  5
3B8F
  8
0
  6
BYBLOCK
 62
     0
 10
25915.913614000001
 20
15514.971425500011
 30
0.0
 40
15.0
 50
90.0
 51
270.0
  0
ARC
  5
3B90
  8
0
  6
BYBLOCK
 62
     0
 10
25915.913614000001
 20
14813.730913999991
 30
0.0
 40
15.0
 50
90.0
 51
270.0
  0
ARC
  5
3B91
  8
0
  6
BYBLOCK
 62
     0
 10
25915.913614000001
 20
14813.730913999991
 30
0.0
 40
15.0
 50
270.0
 51
90.0
  0
ARC
  5
3B92
  8
0
  6
BYBLOCK
 62
     0
 10
25915.913614000001
 20
16215.730913999991
 30
0.0
 40
15.0
 50
270.0
 51
90.0
  0
ARC
  5
3B93
  8
0
  6
BYBLOCK
 62
     0
 10
25915.913614000001
 20
16215.730913999991
 30
0.0
 40
15.0
 50
90.0
 51
270.0
  0
ARC
  5
3B94
  8
0
  6
BYBLOCK
 62
     0
 10
25915.913614000001
 20
15514.971425500011
 30
0.0
 40
15.0
 50
90.0
 51
270.0
  0
ARC
  5
3B95
  8
0
  6
BYBLOCK
 62
     0
 10
25915.913614000001
 20
15514.971425500011
 30
0.0
 40
15.0
 50
270.0
 51
90.0
  0
ARC
  5
3B96
  8
0
  6
BYBLOCK
 62
     0
 10
25915.913614000001
 20
16973.730914
 30
0.0
 40
15.0
 50
270.0
 51
90.0
  0
ARC
  5
3B97
  8
0
  6
BYBLOCK
 62
     0
 10
25915.913614000001
 20
16973.730914
 30
0.0
 40
15.0
 50
90.0
 51
270.0
  0
ARC
  5
3B98
  8
0
  6
BYBLOCK
 62
     0
 10
25915.913614000001
 20
16215.730913999991
 30
0.0
 40
15.0
 50
90.0
 51
270.0
  0
ARC
  5
3B99
  8
0
  6
BYBLOCK
 62
     0
 10
25915.913614000001
 20
16215.730913999991
 30
0.0
 40
15.0
 50
270.0
 51
90.0
  0
ARC
  5
3B9A
  8
0
  6
BYBLOCK
 62
     0
 10
25915.913614000001
 20
17731.730914
 30
0.0
 40
15.0
 50
270.0
 51
90.0
  0
ARC
  5
3B9B
  8
0
  6
BYBLOCK
 62
     0
 10
25915.913614000001
 20
17731.730914
 30
0.0
 40
15.0
 50
90.0
 51
270.0
  0
ARC
  5
3B9C
  8
0
  6
BYBLOCK
 62
     0
 10
25915.913614000001
 20
16973.730914
 30
0.0
 40
15.0
 50
90.0
 51
270.0
  0
ARC
  5
3B9D
  8
0
  6
BYBLOCK
 62
     0
 10
25915.913614000001
 20
16973.730914
 30
0.0
 40
15.0
 50
270.0
 51
90.0
  0
ARC
  5
3B9E
  8
0
  6
BYBLOCK
 62
     0
 10
25915.913614000001
 20
18432.730914
 30
0.0
 40
15.0
 50
270.0
 51
90.0
  0
ARC
  5
3B9F
  8
0
  6
BYBLOCK
 62
     0
 10
25915.913614000001
 20
18432.730914
 30
0.0
 40
15.0
 50
90.0
 51
270.0
  0
ARC
  5
3BA0
  8
0
  6
BYBLOCK
 62
     0
 10
25915.913614000001
 20
17731.730914
 30
0.0
 40
15.0
 50
90.0
 51
270.0
  0
ARC
  5
3BA1
  8
0
  6
BYBLOCK
 62
     0
 10
25915.913614000001
 20
17731.730914
 30
0.0
 40
15.0
 50
270.0
 51
90.0
  0
ARC
  5
3BA2
  8
0
  6
BYBLOCK
 62
     0
 10
25915.913614000001
 20
19133.730914
 30
0.0
 40
15.0
 50
270.0
 51
90.0
  0
ARC
  5
3BA3
  8
0
  6
BYBLOCK
 62
     0
 10
25915.913614000001
 20
19133.730914
 30
0.0
 40
15.0
 50
90.0
 51
270.0
  0
ARC
  5
3BA4
  8
0
  6
BYBLOCK
 62
     0
 10
25915.913614000001
 20
18432.730914
 30
0.0
 40
15.0
 50
90.0
 51
270.0
  0
ARC
  5
3BA5
  8
0
  6
BYBLOCK
 62
     0
 10
25915.913614000001
 20
18432.730914
 30
0.0
 40
15.0
 50
270.0
 51
90.0
  0
ARC
  5
3BA6
  8
0
  6
BYBLOCK
 62
     0
 10
25915.913614000001
 20
19891.730914
 30
0.0
 40
15.0
 50
270.0
 51
90.0
  0
ARC
  5
3BA7
  8
0
  6
BYBLOCK
 62
     0
 10
25915.913614000001
 20
19891.730914
 30
0.0
 40
15.0
 50
90.0
 51
270.0
  0
ARC
  5
3BA8
  8
0
  6
BYBLOCK
 62
     0
 10
25915.913614000001
 20
19133.730914
 30
0.0
 40
15.0
 50
90.0
 51
270.0
  0
ARC
  5
3BA9
  8
0
  6
BYBLOCK
 62
     0
 10
25915.913614000001
 20
19133.730914
 30
0.0
 40
15.0
 50
270.0
 51
90.0
  0
ARC
  5
3BAA
  8
0
  6
BYBLOCK
 62
     0
 10
26315.913614000001
 20
16973.730914
 30
0.0
 40
15.0
 50
90.0
 51
270.0
  0
ARC
  5
3BAB
  8
0
  6
BYBLOCK
 62
     0
 10
26315.913614000001
 20
16973.730914
 30
0.0
 40
15.0
 50
270.0
 51
90.0
  0
ARC
  5
3BAC
  8
0
  6
BYBLOCK
 62
     0
 10
26315.913614000001
 20
19891.730914
 30
0.0
 40
15.0
 50
270.0
 51
90.0
  0
ARC
  5
3BAD
  8
0
  6
BYBLOCK
 62
     0
 10
26315.913614000001
 20
19891.730914
 30
0.0
 40
15.0
 50
90.0
 51
270.0
  0
ARC
  5
3BAE
  8
0
  6
BYBLOCK
 62
     0
 10
26315.913614000001
 20
14055.730913999991
 30
0.0
 40
15.0
 50
90.0
 51
270.0
  0
ARC
  5
3BAF
  8
0
  6
BYBLOCK
 62
     0
 10
26315.913614000001
 20
14055.730913999991
 30
0.0
 40
15.0
 50
270.0
 51
90.0
  0
ARC
  5
3BB0
  8
0
  6
BYBLOCK
 62
     0
 10
26315.913614000001
 20
16973.730914
 30
0.0
 40
15.0
 50
270.0
 51
90.0
  0
ARC
  5
3BB1
  8
0
  6
BYBLOCK
 62
     0
 10
26315.913614000001
 20
16973.730914
 30
0.0
 40
15.0
 50
90.0
 51
270.0
  0
ARC
  5
3BB2
  8
0
  6
BYBLOCK
 62
     0
 10
26715.913614000001
 20
19934.228209000001
 30
0.0
 40
15.0
 50
270.0
 51
90.0
  0
ARC
  5
3BB3
  8
0
  6
BYBLOCK
 62
     0
 10
26715.913614000001
 20
19934.228209000001
 30
0.0
 40
15.0
 50
90.0
 51
270.0
  0
ARC
  5
3BB4
  8
0
  6
BYBLOCK
 62
     0
 10
26715.913614000001
 20
14013.233619000001
 30
0.0
 40
15.0
 50
90.0
 51
270.0
  0
ARC
  5
3BB5
  8
0
  6
BYBLOCK
 62
     0
 10
26715.913614000001
 20
14013.233619000001
 30
0.0
 40
15.0
 50
270.0
 51
90.0
  0
ARC
  5
3BB6
  8
0
  6
BYBLOCK
 62
     0
 10
26315.913614000001
 20
19891.730914
 30
0.0
 40
15.0
 50
270.0
 51
90.0
  0
ARC
  5
3BB7
  8
0
  6
BYBLOCK
 62
     0
 10
26315.913614000001
 20
19891.730914
 30
0.0
 40
15.0
 50
90.0
 51
270.0
  0
ARC
  5
3BB8
  8
0
  6
BYBLOCK
 62
     0
 10
26315.913614000001
 20
19934.228209000001
 30
0.0
 40
15.0
 50
90.0
 51
270.0
  0
ARC
  5
3BB9
  8
0
  6
BYBLOCK
 62
     0
 10
26315.913614000001
 20
19934.228209000001
 30
0.0
 40
15.0
 50
270.0
 51
90.0
  0
ARC
  5
3BBA
  8
0
  6
BYBLOCK
 62
     0
 10
26315.913614000001
 20
14055.730913999991
 30
0.0
 40
15.0
 50
90.0
 51
270.0
  0
ARC
  5
3BBB
  8
0
  6
BYBLOCK
 62
     0
 10
26315.913614000001
 20
14055.730913999991
 30
0.0
 40
15.0
 50
270.0
 51
90.0
  0
ARC
  5
3BBC
  8
0
  6
BYBLOCK
 62
     0
 10
26315.913614000001
 20
14013.233619000001
 30
0.0
 40
15.0
 50
270.0
 51
90.0
  0
ARC
  5
3BBD
  8
0
  6
BYBLOCK
 62
     0
 10
26315.913614000001
 20
14013.233619000001
 30
0.0
 40
15.0
 50
90.0
 51
270.0
  0
ARC
  5
3BBE
  8
0
  6
BYBLOCK
 62
     0
 10
22956.91401
 20
20664.232102000031
 30
0.0
 40
15.0
 50
0.0
 51
180.0
  0
ARC
  5
3BBF
  8
0
  6
BYBLOCK
 62
     0
 10
22956.91401
 20
20664.232102000031
 30
0.0
 40
15.0
 50
180.0
 51
0.0
  0
ARC
  5
3BC0
  8
0
  6
BYBLOCK
 62
     0
 10
23364.41401
 20
20664.232102000031
 30
0.0
 40
15.0
 50
180.0
 51
0.0
  0
ARC
  5
3BC1
  8
0
  6
BYBLOCK
 62
     0
 10
23364.41401
 20
20664.232102000031
 30
0.0
 40
15.0
 50
0.0
 51
180.0
  0
ARC
  5
3BC2
  8
0
  6
BYBLOCK
 62
     0
 10
24065.41401
 20
20664.232102000031
 30
0.0
 40
15.0
 50
0.0
 51
180.0
  0
ARC
  5
3BC3
  8
0
  6
BYBLOCK
 62
     0
 10
24065.41401
 20
20664.232102000031
 30
0.0
 40
15.0
 50
180.0
 51
0.0
  0
ARC
  5
3BC4
  8
0
  6
BYBLOCK
 62
     0
 10
24823.414999500001
 20
20664.232102000031
 30
0.0
 40
15.0
 50
180.0
 51
0.0
  0
ARC
  5
3BC5
  8
0
  6
BYBLOCK
 62
     0
 10
24823.414999500001
 20
20664.232102000031
 30
0.0
 40
15.0
 50
0.0
 51
180.0
  0
ARC
  5
3BC6
  8
0
  6
BYBLOCK
 62
     0
 10
23364.41401
 20
20664.232102000031
 30
0.0
 40
15.0
 50
0.0
 51
180.0
  0
ARC
  5
3BC7
  8
0
  6
BYBLOCK
 62
     0
 10
23364.41401
 20
20664.232102000031
 30
0.0
 40
15.0
 50
180.0
 51
0.0
  0
ARC
  5
3BC8
  8
0
  6
BYBLOCK
 62
     0
 10
24065.41401
 20
20664.232102000031
 30
0.0
 40
15.0
 50
180.0
 51
0.0
  0
ARC
  5
3BC9
  8
0
  6
BYBLOCK
 62
     0
 10
24065.41401
 20
20664.232102000031
 30
0.0
 40
15.0
 50
0.0
 51
180.0
  0
ARC
  5
3BCA
  8
0
  6
BYBLOCK
 62
     0
 10
24823.41401
 20
20664.232102000031
 30
0.0
 40
15.0
 50
180.0
 51
0.0
  0
ARC
  5
3BCB
  8
0
  6
BYBLOCK
 62
     0
 10
24823.41401
 20
20664.232102000031
 30
0.0
 40
15.0
 50
0.0
 51
180.0
  0
ARC
  5
3BCC
  8
0
  6
BYBLOCK
 62
     0
 10
24865.910315000001
 20
20664.232102000031
 30
0.0
 40
15.0
 50
0.0
 51
180.0
  0
ARC
  5
3BCD
  8
0
  6
BYBLOCK
 62
     0
 10
24865.910315000001
 20
20664.232102000031
 30
0.0
 40
15.0
 50
180.0
 51
0.0
  0
ARC
  5
3BCE
  8
0
  6
BYBLOCK
 62
     0
 10
20389.41401
 20
20664.232102000031
 30
0.0
 40
15.0
 50
0.0
 51
180.0
  0
ARC
  5
3BCF
  8
0
  6
BYBLOCK
 62
     0
 10
20389.41401
 20
20664.232102000031
 30
0.0
 40
15.0
 50
180.0
 51
0.0
  0
ARC
  5
3BD0
  8
0
  6
BYBLOCK
 62
     0
 10
20796.91401
 20
20664.232102000031
 30
0.0
 40
15.0
 50
180.0
 51
0.0
  0
ARC
  5
3BD1
  8
0
  6
BYBLOCK
 62
     0
 10
20796.91401
 20
20664.232102000031
 30
0.0
 40
15.0
 50
0.0
 51
180.0
  0
ARC
  5
3BD2
  8
0
  6
BYBLOCK
 62
     0
 10
20389.41401
 20
20664.232102000031
 30
0.0
 40
15.0
 50
0.0
 51
180.0
  0
ARC
  5
3BD3
  8
0
  6
BYBLOCK
 62
     0
 10
20389.41401
 20
20664.232102000031
 30
0.0
 40
15.0
 50
180.0
 51
0.0
  0
ARC
  5
3BD4
  8
0
  6
BYBLOCK
 62
     0
 10
20346.917705
 20
20664.232102000031
 30
0.0
 40
15.0
 50
180.0
 51
0.0
  0
ARC
  5
3BD5
  8
0
  6
BYBLOCK
 62
     0
 10
20346.917705
 20
20664.232102000031
 30
0.0
 40
15.0
 50
0.0
 51
180.0
  0
ARC
  5
3BD6
  8
0
  6
BYBLOCK
 62
     0
 10
22198.91400999999
 20
20664.232102000031
 30
0.0
 40
15.0
 50
0.0
 51
180.0
  0
ARC
  5
3BD7
  8
0
  6
BYBLOCK
 62
     0
 10
22198.91400999999
 20
20664.232102000031
 30
0.0
 40
15.0
 50
180.0
 51
0.0
  0
ARC
  5
3BD8
  8
0
  6
BYBLOCK
 62
     0
 10
22956.914999500012
 20
20664.232102000031
 30
0.0
 40
15.0
 50
180.0
 51
0.0
  0
ARC
  5
3BD9
  8
0
  6
BYBLOCK
 62
     0
 10
22956.914999500012
 20
20664.232102000031
 30
0.0
 40
15.0
 50
0.0
 51
180.0
  0
ARC
  5
3BDA
  8
0
  6
BYBLOCK
 62
     0
 10
21497.91401
 20
20664.232102000031
 30
0.0
 40
15.0
 50
0.0
 51
180.0
  0
ARC
  5
3BDB
  8
0
  6
BYBLOCK
 62
     0
 10
21497.91401
 20
20664.232102000031
 30
0.0
 40
15.0
 50
180.0
 51
0.0
  0
ARC
  5
3BDC
  8
0
  6
BYBLOCK
 62
     0
 10
22198.91400999999
 20
20664.232102000031
 30
0.0
 40
15.0
 50
180.0
 51
0.0
  0
ARC
  5
3BDD
  8
0
  6
BYBLOCK
 62
     0
 10
22198.91400999999
 20
20664.232102000031
 30
0.0
 40
15.0
 50
0.0
 51
180.0
  0
ARC
  5
3BDE
  8
0
  6
BYBLOCK
 62
     0
 10
20796.91401
 20
20664.232102000031
 30
0.0
 40
15.0
 50
0.0
 51
180.0
  0
ARC
  5
3BDF
  8
0
  6
BYBLOCK
 62
     0
 10
20796.91401
 20
20664.232102000031
 30
0.0
 40
15.0
 50
180.0
 51
0.0
  0
ARC
  5
3BE0
  8
0
  6
BYBLOCK
 62
     0
 10
21497.91401
 20
20664.232102000031
 30
0.0
 40
15.0
 50
180.0
 51
0.0
  0
ARC
  5
3BE1
  8
0
  6
BYBLOCK
 62
     0
 10
21497.91401
 20
20664.232102000031
 30
0.0
 40
15.0
 50
0.0
 51
180.0
  0
ARC
  5
3BE2
  8
0
  6
BYBLOCK
 62
     0
 10
8812.6585459999988
 20
9904.3184379999984
 30
0.0
 40
15.0
 50
0.0
 51
180.0
  0
ARC
  5
3BE3
  8
0
  6
BYBLOCK
 62
     0
 10
8812.6585459999988
 20
9904.3184379999984
 30
0.0
 40
15.0
 50
180.0
 51
0.0
  0
ARC
  5
3BE4
  8
0
  6
BYBLOCK
 62
     0
 10
15063.658546000001
 20
9904.3184379999984
 30
0.0
 40
15.0
 50
180.0
 51
0.0
  0
ARC
  5
3BE5
  8
0
  6
BYBLOCK
 62
     0
 10
15063.658546000001
 20
9904.3184379999984
 30
0.0
 40
15.0
 50
0.0
 51
180.0
  0
ARC
  5
3BE6
  8
0
  6
BYBLOCK
 62
     0
 10
14913.659798999999
 20
9504.3200880000004
 30
0.0
 40
15.0
 50
180.0
 51
0.0
  0
ARC
  5
3BE7
  8
0
  6
BYBLOCK
 62
     0
 10
14913.659798999999
 20
9504.3200880000004
 30
0.0
 40
15.0
 50
0.0
 51
180.0
  0
ARC
  5
3BE8
  8
0
  6
BYBLOCK
 62
     0
 10
15063.658546000001
 20
9504.3200880000004
 30
0.0
 40
15.0
 50
0.0
 51
180.0
  0
ARC
  5
3BE9
  8
0
  6
BYBLOCK
 62
     0
 10
15063.658546000001
 20
9504.3200880000004
 30
0.0
 40
15.0
 50
180.0
 51
0.0
  0
ARC
  5
3BEA
  8
0
  6
BYBLOCK
 62
     0
 10
8992.6572919999981
 20
9504.3200880000004
 30
0.0
 40
15.0
 50
0.0
 51
180.0
  0
ARC
  5
3BEB
  8
0
  6
BYBLOCK
 62
     0
 10
8992.6572919999981
 20
9504.3200880000004
 30
0.0
 40
15.0
 50
180.0
 51
0.0
  0
ARC
  5
3BEC
  8
0
  6
BYBLOCK
 62
     0
 10
14913.659798999999
 20
9504.3200880000004
 30
0.0
 40
15.0
 50
180.0
 51
0.0
  0
ARC
  5
3BED
  8
0
  6
BYBLOCK
 62
     0
 10
14913.659798999999
 20
9504.3200880000004
 30
0.0
 40
15.0
 50
0.0
 51
180.0
  0
ARC
  5
3BEE
  8
0
  6
BYBLOCK
 62
     0
 10
8812.6585459999988
 20
9504.3200880000004
 30
0.0
 40
15.0
 50
0.0
 51
180.0
  0
ARC
  5
3BEF
  8
0
  6
BYBLOCK
 62
     0
 10
8812.6585459999988
 20
9504.3200880000004
 30
0.0
 40
15.0
 50
180.0
 51
0.0
  0
ARC
  5
3BF0
  8
0
  6
BYBLOCK
 62
     0
 10
8992.6572919999981
 20
9504.3200880000004
 30
0.0
 40
15.0
 50
180.0
 51
0.0
  0
ARC
  5
3BF1
  8
0
  6
BYBLOCK
 62
     0
 10
8992.6572919999981
 20
9504.3200880000004
 30
0.0
 40
15.0
 50
0.0
 51
180.0
  0
ARC
  5
3BF2
  8
0
  6
BYBLOCK
 62
     0
 10
7902.6601279999977
 20
6356.319402000001
 30
0.0
 40
15.0
 50
90.0
 51
270.0
  0
ARC
  5
3BF3
  8
0
  6
BYBLOCK
 62
     0
 10
7902.6601279999977
 20
6356.319402000001
 30
0.0
 40
15.0
 50
270.0
 51
90.0
  0
ARC
  5
3BF4
  8
0
  6
BYBLOCK
 62
     0
 10
7902.6601279999977
 20
8512.819402000001
 30
0.0
 40
15.0
 50
270.0
 51
90.0
  0
ARC
  5
3BF5
  8
0
  6
BYBLOCK
 62
     0
 10
7902.6601279999977
 20
8512.819402000001
 30
0.0
 40
15.0
 50
90.0
 51
270.0
  0
ARC
  5
3BF6
  8
0
  6
BYBLOCK
 62
     0
 10
16003.65795099999
 20
6356.319402000001
 30
0.0
 40
15.0
 50
90.0
 51
270.0
  0
ARC
  5
3BF7
  8
0
  6
BYBLOCK
 62
     0
 10
16003.65795099999
 20
6356.319402000001
 30
0.0
 40
15.0
 50
270.0
 51
90.0
  0
ARC
  5
3BF8
  8
0
  6
BYBLOCK
 62
     0
 10
16003.65795099999
 20
8704.8194019999955
 30
0.0
 40
15.0
 50
270.0
 51
90.0
  0
ARC
  5
3BF9
  8
0
  6
BYBLOCK
 62
     0
 10
16003.65795099999
 20
8704.8194019999955
 30
0.0
 40
15.0
 50
90.0
 51
270.0
  0
ARC
  5
3BFA
  8
0
  6
BYBLOCK
 62
     0
 10
8992.6585460000006
 20
4656.3192370000006
 30
0.0
 40
15.0
 50
0.0
 51
180.0
  0
ARC
  5
3BFB
  8
0
  6
BYBLOCK
 62
     0
 10
8992.6585460000006
 20
4656.3192370000006
 30
0.0
 40
15.0
 50
180.0
 51
0.0
  0
ARC
  5
3BFC
  8
0
  6
BYBLOCK
 62
     0
 10
14913.658546000001
 20
4656.3192370000006
 30
0.0
 40
15.0
 50
180.0
 51
0.0
  0
ARC
  5
3BFD
  8
0
  6
BYBLOCK
 62
     0
 10
14913.658546000001
 20
4656.3192370000006
 30
0.0
 40
15.0
 50
0.0
 51
180.0
  0
ARC
  5
3BFE
  8
0
  6
BYBLOCK
 62
     0
 10
14871.158546000001
 20
5056.3190720000021
 30
0.0
 40
15.0
 50
180.0
 51
0.0
  0
ARC
  5
3BFF
  8
0
  6
BYBLOCK
 62
     0
 10
14871.158546000001
 20
5056.3190720000021
 30
0.0
 40
15.0
 50
0.0
 51
180.0
  0
ARC
  5
3C00
  8
0
  6
BYBLOCK
 62
     0
 10
14913.658546000001
 20
5056.3190720000021
 30
0.0
 40
15.0
 50
0.0
 51
180.0
  0
ARC
  5
3C01
  8
0
  6
BYBLOCK
 62
     0
 10
14913.658546000001
 20
5056.3190720000021
 30
0.0
 40
15.0
 50
180.0
 51
0.0
  0
ARC
  5
3C02
  8
0
  6
BYBLOCK
 62
     0
 10
9035.1585460000006
 20
5056.3190720000021
 30
0.0
 40
15.0
 50
0.0
 51
180.0
  0
ARC
  5
3C03
  8
0
  6
BYBLOCK
 62
     0
 10
9035.1585460000006
 20
5056.3190720000021
 30
0.0
 40
15.0
 50
180.0
 51
0.0
  0
ARC
  5
3C04
  8
0
  6
BYBLOCK
 62
     0
 10
8992.6585460000006
 20
5056.3190720000021
 30
0.0
 40
15.0
 50
180.0
 51
0.0
  0
ARC
  5
3C05
  8
0
  6
BYBLOCK
 62
     0
 10
8992.6585460000006
 20
5056.3190720000021
 30
0.0
 40
15.0
 50
0.0
 51
180.0
  0
ARC
  5
3C06
  8
0
  6
BYBLOCK
 62
     0
 10
11953.158546000001
 20
5056.3190720000021
 30
0.0
 40
15.0
 50
180.0
 51
0.0
  0
ARC
  5
3C07
  8
0
  6
BYBLOCK
 62
     0
 10
11953.158546000001
 20
5056.3190720000021
 30
0.0
 40
15.0
 50
0.0
 51
180.0
  0
ARC
  5
3C08
  8
0
  6
BYBLOCK
 62
     0
 10
9035.1585460000006
 20
5056.3190720000021
 30
0.0
 40
15.0
 50
0.0
 51
180.0
  0
ARC
  5
3C09
  8
0
  6
BYBLOCK
 62
     0
 10
9035.1585460000006
 20
5056.3190720000021
 30
0.0
 40
15.0
 50
180.0
 51
0.0
  0
ARC
  5
3C0A
  8
0
  6
BYBLOCK
 62
     0
 10
11953.158546000001
 20
5056.3190720000021
 30
0.0
 40
15.0
 50
0.0
 51
180.0
  0
ARC
  5
3C0B
  8
0
  6
BYBLOCK
 62
     0
 10
11953.158546000001
 20
5056.3190720000021
 30
0.0
 40
15.0
 50
180.0
 51
0.0
  0
ARC
  5
3C0C
  8
0
  6
BYBLOCK
 62
     0
 10
14871.158546000001
 20
5056.3190720000021
 30
0.0
 40
15.0
 50
180.0
 51
0.0
  0
ARC
  5
3C0D
  8
0
  6
BYBLOCK
 62
     0
 10
14871.158546000001
 20
5056.3190720000021
 30
0.0
 40
15.0
 50
0.0
 51
180.0
  0
LINE
  5
3D33
  8
0-1
  6
CONTINUOUS
 62
     3
 10
24759.91699099998
 20
8454.8199169999989
 30
0.0
 11
24759.91699099998
 21
8486.8198239999983
 31
0.0
  0
LINE
  5
3D34
  8
0-1
  6
CONTINUOUS
 62
     3
 10
24908.916383999989
 20
8378.6331950000003
 30
0.0
 11
24865.914272999969
 21
8378.6331950000003
 31
0.0
  0
LINE
  5
3D35
  8
0-1
  6
CONTINUOUS
 62
     3
 10
24908.916383999989
 20
8704.8202460000011
 30
0.0
 11
24908.916383999989
 21
8378.6331950000003
 31
0.0
  0
LINE
  5
3D36
  8
0-1
  6
CONTINUOUS
 62
     3
 10
24473.949798000001
 20
8451.2844959999966
 30
0.0
 11
24441.95088099999
 21
8483.2844039999982
 31
0.0
  0
LINE
  5
3D37
  8
0-1
  6
CONTINUOUS
 62
     3
 10
24754.916726999971
 20
8491.8200880000004
 30
0.0
 11
24445.48630099999
 21
8491.8200880000004
 31
0.0
  0
LINE
  5
3D38
  8
0-1
  6
CONTINUOUS
 62
     3
 10
24759.91699099998
 20
8483.4209910000027
 30
0.0
 11
24441.82023199998
 21
8483.4209910000027
 31
0.0
  0
LINE
  5
3D39
  8
0-1
  6
CONTINUOUS
 62
     3
 10
24754.916726999971
 20
8449.8196530000005
 30
0.0
 11
24477.487197999981
 21
8449.8196530000005
 31
0.0
  0
LINE
  5
3D3A
  8
0-1
  6
CONTINUOUS
 62
     3
 10
24759.91699099998
 20
8458.2197400000023
 30
0.0
 11
24467.01554499998
 21
8458.2197400000023
 31
0.0
  0
LINE
  5
3D3B
  8
0-1
  6
CONTINUOUS
 62
     3
 10
24759.91699099998
 20
8466.6198269999968
 30
0.0
 11
24458.616446999989
 21
8466.6198269999968
 31
0.0
  0
LINE
  5
3D3C
  8
0-1
  6
CONTINUOUS
 62
     3
 10
24759.91699099998
 20
8475.0209039999972
 30
0.0
 11
24450.21537099998
 21
8475.0209039999972
 31
0.0
  0
LINE
  5
3D3D
  8
0-1
  6
CONTINUOUS
 62
     3
 10
23306.380199000021
 20
8451.2844959999966
 30
0.0
 11
23338.377137000021
 21
8483.2844039999982
 31
0.0
  0
LINE
  5
3D3E
  8
0-1
  6
CONTINUOUS
 62
     3
 10
23020.414985000021
 20
8454.8199169999989
 30
0.0
 11
23020.414985000021
 21
8486.8198239999983
 31
0.0
  0
LINE
  5
3D3F
  8
0-1
  6
CONTINUOUS
 62
     3
 10
23020.414985000021
 20
8458.2197400000023
 30
0.0
 11
23313.312473000002
 21
8458.2197400000023
 31
0.0
  0
LINE
  5
3D40
  8
0-1
  6
CONTINUOUS
 62
     3
 10
23020.414985000021
 20
8466.6198269999968
 30
0.0
 11
23321.713550000011
 21
8466.6198269999968
 31
0.0
  0
LINE
  5
3D41
  8
0-1
  6
CONTINUOUS
 62
     3
 10
23025.415249000001
 20
8449.8196530000005
 30
0.0
 11
23302.842798999998
 21
8449.8196530000005
 31
0.0
  0
LINE
  5
3D42
  8
0-1
  6
CONTINUOUS
 62
     3
 10
23020.414985000021
 20
8475.0209039999972
 30
0.0
 11
23330.112647000009
 21
8475.0209039999972
 31
0.0
  0
LINE
  5
3D43
  8
0-1
  6
CONTINUOUS
 62
     3
 10
23020.414985000021
 20
8483.4209910000027
 30
0.0
 11
23338.50976500001
 21
8483.4209910000027
 31
0.0
  0
LINE
  5
3D44
  8
0-1
  6
CONTINUOUS
 62
     3
 10
23025.415249000001
 20
8491.8200880000004
 30
0.0
 11
23334.843696000022
 21
8491.8200880000004
 31
0.0
  0
LINE
  5
3D45
  8
0-1
  6
CONTINUOUS
 62
     3
 10
24908.916384
 20
8574.8193229999979
 30
0.0
 11
22956.914009
 21
8574.8193229999979
 31
0.0
  0
LINE
  5
3D46
  8
0-1
  6
CONTINUOUS
 62
     3
 10
22999.412293000001
 20
8500.8199690000038
 30
0.0
 11
24780.91572399998
 21
8500.8199690000038
 31
0.0
  0
LINE
  5
3D47
  8
0-1
  6
CONTINUOUS
 62
     3
 10
22999.412293000001
 20
8440.8197709999986
 30
0.0
 11
24780.91572399998
 21
8440.8197709999986
 31
0.0
  0
LINE
  5
3D48
  8
0-1
  6
CONTINUOUS
 62
     3
 10
22956.914009
 20
8704.8202460000011
 30
0.0
 11
24908.916384
 21
8704.8202460000011
 31
0.0
  0
LINE
  5
3D49
  8
0-1
  6
CONTINUOUS
 62
     3
 10
22893.413033000001
 20
8454.8199169999989
 30
0.0
 11
22893.413033000001
 21
8486.8198239999983
 31
0.0
  0
LINE
  5
3D4A
  8
0-1
  6
CONTINUOUS
 62
     3
 10
22607.451777999981
 20
8451.2844959999966
 30
0.0
 11
22575.450881000001
 21
8483.2844039999982
 31
0.0
  0
LINE
  5
3D4B
  8
0-1
  6
CONTINUOUS
 62
     3
 10
22893.413033000001
 20
8483.4209910000027
 30
0.0
 11
22575.320232999969
 21
8483.4209910000027
 31
0.0
  0
LINE
  5
3D4C
  8
0-1
  6
CONTINUOUS
 62
     3
 10
22893.413033000001
 20
8475.0209039999972
 30
0.0
 11
22583.71537099998
 21
8475.0209039999972
 31
0.0
  0
LINE
  5
3D4D
  8
0-1
  6
CONTINUOUS
 62
     3
 10
22893.413033000001
 20
8466.6198269999968
 30
0.0
 11
22592.114467999989
 21
8466.6198269999968
 31
0.0
  0
LINE
  5
3D4E
  8
0-1
  6
CONTINUOUS
 62
     3
 10
22893.413033000001
 20
8458.2197400000023
 30
0.0
 11
22600.513565999969
 21
8458.2197400000023
 31
0.0
  0
LINE
  5
3D4F
  8
0-1
  6
CONTINUOUS
 62
     3
 10
22888.414747999981
 20
8491.8200880000004
 30
0.0
 11
22578.984321999989
 21
8491.8200880000004
 31
0.0
  0
LINE
  5
3D50
  8
0-1
  6
CONTINUOUS
 62
     3
 10
22888.414747999981
 20
8449.8196530000005
 30
0.0
 11
22610.987198999981
 21
8449.8196530000005
 31
0.0
  0
LINE
  5
3D51
  8
0-1
  6
CONTINUOUS
 62
     3
 10
20457.91326999999
 20
8449.8196530000005
 30
0.0
 11
20735.342799999959
 21
8449.8196530000005
 31
0.0
  0
LINE
  5
3D52
  8
0-1
  6
CONTINUOUS
 62
     3
 10
20452.914985999989
 20
8454.8199169999989
 30
0.0
 11
20452.914985999989
 21
8486.8198239999983
 31
0.0
  0
LINE
  5
3D53
  8
0-1
  6
CONTINUOUS
 62
     3
 10
20303.913613999968
 20
8378.6331950000003
 30
0.0
 11
20346.911766000001
 21
8378.6331950000003
 31
0.0
  0
LINE
  5
3D54
  8
0-1
  6
CONTINUOUS
 62
     3
 10
20303.913613999968
 20
8378.6331950000003
 30
0.0
 11
20303.913613999968
 21
8704.8202460000011
 31
0.0
  0
LINE
  5
3D55
  8
0-1
  6
CONTINUOUS
 62
     3
 10
20457.91326999999
 20
8491.8200880000004
 30
0.0
 11
20767.343697
 21
8491.8200880000004
 31
0.0
  0
LINE
  5
3D56
  8
0-1
  6
CONTINUOUS
 62
     3
 10
20738.876240000001
 20
8451.2844959999966
 30
0.0
 11
20770.877137999982
 21
8483.2844039999982
 31
0.0
  0
LINE
  5
3D57
  8
0-1
  6
CONTINUOUS
 62
     3
 10
20452.914985999989
 20
8483.4209910000027
 30
0.0
 11
20771.009764999992
 21
8483.4209910000027
 31
0.0
  0
LINE
  5
3D58
  8
0-1
  6
CONTINUOUS
 62
     3
 10
20452.914985999989
 20
8475.0209039999972
 30
0.0
 11
20762.612647999998
 21
8475.0209039999972
 31
0.0
  0
LINE
  5
3D59
  8
0-1
  6
CONTINUOUS
 62
     3
 10
20452.914985999989
 20
8466.6198269999968
 30
0.0
 11
20754.21355
 21
8466.6198269999968
 31
0.0
  0
LINE
  5
3D5A
  8
0-1
  6
CONTINUOUS
 62
     3
 10
20452.914985999989
 20
8458.2197400000023
 30
0.0
 11
20745.814452999992
 21
8458.2197400000023
 31
0.0
  0
LINE
  5
3D5B
  8
0-1
  6
CONTINUOUS
 62
     3
 10
20431.912294000002
 20
8440.8197709999986
 30
0.0
 11
22914.41374499998
 21
8440.8197709999986
 31
0.0
  0
LINE
  5
3D5C
  8
0-1
  6
CONTINUOUS
 62
     3
 10
20431.912294000002
 20
8500.8199690000038
 30
0.0
 11
22914.41374499998
 21
8500.8199690000038
 31
0.0
  0
LINE
  5
3D5D
  8
0-1
  6
CONTINUOUS
 62
     3
 10
20303.913613999968
 20
8704.8202460000011
 30
0.0
 11
22956.914009
 21
8704.8202460000011
 31
0.0
  0
LINE
  5
3D5E
  8
0-1
  6
CONTINUOUS
 62
     3
 10
22956.914009
 20
8574.8193229999979
 30
0.0
 11
20303.913613999968
 21
8574.8193229999979
 31
0.0
  0
LINE
  5
3D5F
  8
0-1
  6
CONTINUOUS
 62
     3
 10
22956.914009
 20
8574.8193229999979
 30
0.0
 11
22956.914009
 21
8704.8202460000011
 31
0.0
  0
LINE
  5
3D60
  8
0-1
  6
CONTINUOUS
 62
     3
 10
22956.914009
 20
8574.8193229999979
 30
0.0
 11
22956.914009
 21
8704.8202460000011
 31
0.0
  0
ARC
  5
3D61
  8
0-1
  6
CONTINUOUS
 62
     3
 10
24754.916726999971
 20
8486.8198239999983
 30
0.0
 40
5.0
 50
0.0
 51
90.0
  0
ARC
  5
3D62
  8
0-1
  6
CONTINUOUS
 62
     3
 10
24754.916726999971
 20
8454.8199169999989
 30
0.0
 40
5.0
 50
269.9999850001808
 51
0.0
  0
ARC
  5
3D63
  8
0-1
  6
CONTINUOUS
 62
     3
 10
24445.48630099999
 20
8486.8198239999983
 30
0.0
 40
5.0
 50
90.0
 51
224.99998499997989
  0
ARC
  5
3D64
  8
0-1
  6
CONTINUOUS
 62
     3
 10
24477.487197999981
 20
8454.8199169999989
 30
0.0
 40
5.0
 50
224.99998499997989
 51
269.9999850001808
  0
ARC
  5
3D65
  8
0-1
  6
CONTINUOUS
 62
     3
 10
23334.843696000022
 20
8486.8198239999983
 30
0.0
 40
5.0
 50
314.99998500027471
 51
90.0
  0
ARC
  5
3D66
  8
0-1
  6
CONTINUOUS
 62
     3
 10
23302.842798999998
 20
8454.8199169999989
 30
0.0
 40
5.0
 50
269.9999850001808
 51
314.99998500027471
  0
ARC
  5
3D67
  8
0-1
  6
CONTINUOUS
 62
     3
 10
23025.415249000001
 20
8454.8199169999989
 30
0.0
 40
5.0
 50
180.0
 51
269.9999850001808
  0
ARC
  5
3D68
  8
0-1
  6
CONTINUOUS
 62
     3
 10
23025.415249000001
 20
8486.8198239999983
 30
0.0
 40
5.0
 50
90.0
 51
180.0
  0
ARC
  5
3D69
  8
0-1
  6
CONTINUOUS
 62
     3
 10
22888.414747999981
 20
8454.8199169999989
 30
0.0
 40
5.0
 50
269.9999850001808
 51
0.0
  0
ARC
  5
3D6A
  8
0-1
  6
CONTINUOUS
 62
     3
 10
22888.414747999981
 20
8486.8198239999983
 30
0.0
 40
5.0
 50
0.0
 51
90.0
  0
ARC
  5
3D6B
  8
0-1
  6
CONTINUOUS
 62
     3
 10
22578.984321999989
 20
8486.8198239999983
 30
0.0
 40
5.0
 50
90.0
 51
224.99998499997989
  0
ARC
  5
3D6C
  8
0-1
  6
CONTINUOUS
 62
     3
 10
22610.987198999981
 20
8454.8199169999989
 30
0.0
 40
5.0
 50
224.99998499997989
 51
269.9999850001808
  0
ARC
  5
3D6D
  8
0-1
  6
CONTINUOUS
 62
     3
 10
20767.343697
 20
8486.8198239999983
 30
0.0
 40
5.0
 50
314.99998500027471
 51
90.0
  0
ARC
  5
3D6E
  8
0-1
  6
CONTINUOUS
 62
     3
 10
20457.91326999999
 20
8486.8198239999983
 30
0.0
 40
5.0
 50
90.0
 51
180.0
  0
ARC
  5
3D6F
  8
0-1
  6
CONTINUOUS
 62
     3
 10
20457.91326999999
 20
8454.8199169999989
 30
0.0
 40
5.0
 50
180.0
 51
269.9999850001808
  0
ARC
  5
3D70
  8
0-1
  6
CONTINUOUS
 62
     3
 10
20735.342799999959
 20
8454.8199169999989
 30
0.0
 40
5.0
 50
269.9999850001808
 51
314.99998500027471
  0
LINE
  5
3D71
  8
SUNPOU
  6
CONTINUOUS
 62
     4
 10
20303.911633999971
 20
8784.8202460000011
 30
0.0
 11
20303.911633999971
 21
9984.2778579999995
 31
0.0
  0
LINE
  5
3D72
  8
SUNPOU
  6
CONTINUOUS
 62
     4
 10
24908.916383999989
 20
8784.8202460000011
 30
0.0
 11
24908.916383999989
 21
9984.2778579999995
 31
0.0
  0
LINE
  5
3D73
  8
SUNPOU
  6
CONTINUOUS
 62
     4
 10
20306.911633999971
 20
9904.2778579999995
 30
0.0
 11
24905.916383999989
 21
9904.2778579999995
 31
0.0
  0
LINE
  5
3D74
  8
SUNPOU
  6
CONTINUOUS
 62
     4
 10
20346.913744999969
 20
8784.8202460000011
 30
0.0
 11
20346.913744999969
 21
9584.3200880000004
 31
0.0
  0
LINE
  5
3D75
  8
SUNPOU
  6
CONTINUOUS
 62
     4
 10
24865.914272999969
 20
8784.8202460000011
 30
0.0
 11
24865.914272999969
 21
9584.3200880000004
 31
0.0
  0
LINE
  5
3D76
  8
SUNPOU
  6
CONTINUOUS
 62
     4
 10
20346.913744999969
 20
9504.3200880000004
 30
0.0
 11
24865.914272999969
 21
9504.3200880000004
 31
0.0
  0
LINE
  5
3D77
  8
SUNPOU
  6
CONTINUOUS
 62
     4
 10
20346.913744999969
 20
8784.8202460000011
 30
0.0
 11
20346.913744999969
 21
9584.3200880000004
 31
0.0
  0
LINE
  5
3D78
  8
SUNPOU
  6
CONTINUOUS
 62
     4
 10
20303.911633999971
 20
8784.8202460000011
 30
0.0
 11
20303.911633999971
 21
9584.3200880000004
 31
0.0
  0
LINE
  5
3D79
  8
SUNPOU
  6
CONTINUOUS
 62
     4
 10
20346.913744999969
 20
9504.3200880000004
 30
0.0
 11
20586.913744999969
 21
9504.3200880000004
 31
0.0
  0
LINE
  5
3D7A
  8
SUNPOU
  6
CONTINUOUS
 62
     4
 10
20306.911633999971
 20
9504.3200880000004
 30
0.0
 11
20066.911633999989
 21
9504.3200880000004
 31
0.0
  0
LINE
  5
3D7B
  8
SUNPOU
  6
CONTINUOUS
 62
     4
 10
20346.913744999969
 20
9504.3200880000004
 30
0.0
 11
20306.911633999971
 21
9504.3200880000004
 31
0.0
  0
LINE
  5
3D7C
  8
SUNPOU
  6
CONTINUOUS
 62
     4
 10
24865.914272999969
 20
8784.8202460000011
 30
0.0
 11
24865.914272999969
 21
9584.3200880000004
 31
0.0
  0
LINE
  5
3D7D
  8
SUNPOU
  6
CONTINUOUS
 62
     4
 10
24908.916383999989
 20
8784.8202460000011
 30
0.0
 11
24908.916383999989
 21
9584.3200880000004
 31
0.0
  0
LINE
  5
3D7E
  8
SUNPOU
  6
CONTINUOUS
 62
     4
 10
24865.914272999969
 20
9504.3200880000004
 30
0.0
 11
24625.914272999969
 21
9504.3200880000004
 31
0.0
  0
LINE
  5
3D7F
  8
SUNPOU
  6
CONTINUOUS
 62
     4
 10
24905.916383999989
 20
9504.3200880000004
 30
0.0
 11
25145.916383999989
 21
9504.3200880000004
 31
0.0
  0
LINE
  5
3D80
  8
SUNPOU
  6
CONTINUOUS
 62
     4
 10
24865.914272999969
 20
9504.3200880000004
 30
0.0
 11
24905.916383999989
 21
9504.3200880000004
 31
0.0
  0
TEXT
  5
3D81
  8
0
  6
CONTINUOUS
 62
     7
 10
25025.916383999989
 20
9584.3200880000004
 30
0.0
 40
160.0
  1
43
  0
TEXT
  5
3D82
  8
0
  6
CONTINUOUS
 62
     7
 10
19946.911633999989
 20
9584.3200880000004
 30
0.0
 40
160.0
  1
43
  0
TEXT
  5
3D83
  8
0
  6
CONTINUOUS
 62
     7
 10
22339.747342333321
 20
9584.3200880000004
 30
0.0
 40
160.0
  1
4519
  0
TEXT
  5
3D84
  8
0
  6
CONTINUOUS
 62
     7
 10
22313.080675666661
 20
9984.2778579999995
 30
0.0
 40
160.0
  1
4605
  0
ARC
  5
3D85
  8
0
  6
BYBLOCK
 62
     0
 10
20303.911633999971
 20
9904.2778579999995
 30
0.0
 40
15.0
 50
0.0
 51
180.0
  0
ARC
  5
3D86
  8
0
  6
BYBLOCK
 62
     0
 10
20303.911633999971
 20
9904.2778579999995
 30
0.0
 40
15.0
 50
180.0
 51
0.0
  0
ARC
  5
3D87
  8
0
  6
BYBLOCK
 62
     0
 10
24908.916383999989
 20
9904.2778579999995
 30
0.0
 40
15.0
 50
180.0
 51
0.0
  0
ARC
  5
3D88
  8
0
  6
BYBLOCK
 62
     0
 10
24908.916383999989
 20
9904.2778579999995
 30
0.0
 40
15.0
 50
0.0
 51
180.0
  0
ARC
  5
3D89
  8
0
  6
BYBLOCK
 62
     0
 10
20346.913744999969
 20
9504.3200880000004
 30
0.0
 40
15.0
 50
0.0
 51
180.0
  0
ARC
  5
3D8A
  8
0
  6
BYBLOCK
 62
     0
 10
20346.913744999969
 20
9504.3200880000004
 30
0.0
 40
15.0
 50
180.0
 51
0.0
  0
ARC
  5
3D8B
  8
0
  6
BYBLOCK
 62
     0
 10
24865.914272999969
 20
9504.3200880000004
 30
0.0
 40
15.0
 50
180.0
 51
0.0
  0
ARC
  5
3D8C
  8
0
  6
BYBLOCK
 62
     0
 10
24865.914272999969
 20
9504.3200880000004
 30
0.0
 40
15.0
 50
0.0
 51
180.0
  0
ARC
  5
3D8D
  8
0
  6
BYBLOCK
 62
     0
 10
20346.913744999969
 20
9504.3200880000004
 30
0.0
 40
15.0
 50
0.0
 51
180.0
  0
ARC
  5
3D8E
  8
0
  6
BYBLOCK
 62
     0
 10
20346.913744999969
 20
9504.3200880000004
 30
0.0
 40
15.0
 50
180.0
 51
0.0
  0
ARC
  5
3D8F
  8
0
  6
BYBLOCK
 62
     0
 10
20303.911633999971
 20
9504.3200880000004
 30
0.0
 40
15.0
 50
180.0
 51
0.0
  0
ARC
  5
3D90
  8
0
  6
BYBLOCK
 62
     0
 10
20303.911633999971
 20
9504.3200880000004
 30
0.0
 40
15.0
 50
0.0
 51
180.0
  0
ARC
  5
3D91
  8
0
  6
BYBLOCK
 62
     0
 10
24865.914272999969
 20
9504.3200880000004
 30
0.0
 40
15.0
 50
180.0
 51
0.0
  0
ARC
  5
3D92
  8
0
  6
BYBLOCK
 62
     0
 10
24865.914272999969
 20
9504.3200880000004
 30
0.0
 40
15.0
 50
0.0
 51
180.0
  0
ARC
  5
3D93
  8
0
  6
BYBLOCK
 62
     0
 10
24908.916383999989
 20
9504.3200880000004
 30
0.0
 40
15.0
 50
0.0
 51
180.0
  0
ARC
  5
3D94
  8
0
  6
BYBLOCK
 62
     0
 10
24908.916383999989
 20
9504.3200880000004
 30
0.0
 40
15.0
 50
180.0
 51
0.0
  0
LINE
  5
3DA3
  8
SUNPOU
  6
CONTINUOUS
 62
     4
 10
10011.456279499989
 20
13786.22966099999
 30
0.0
 11
10011.456279499989
 21
12607.282829999989
 31
0.0
  0
LINE
  5
3DA4
  8
SUNPOU
  6
CONTINUOUS
 62
     4
 10
14613.455091499991
 20
13783.22966099999
 30
0.0
 11
14613.455091499991
 21
12604.282829999989
 31
0.0
  0
LINE
  5
3DA5
  8
SUNPOU
  6
CONTINUOUS
 62
     4
 10
10011.456279499989
 20
12684.282829999989
 30
0.0
 11
14610.455091499991
 21
12684.282829999989
 31
0.0
  0
TEXT
  5
3DA6
  8
0
  6
CONTINUOUS
 62
     7
 10
11494.95568549999
 20
12764.282829999989
 30
0.0
 40
160.0
  1
ケラバ外寸 4605
  0
ARC
  5
3DA7
  8
0
  6
BYBLOCK
 62
     0
 10
10011.456279499989
 20
12687.282829999989
 30
0.0
 40
15.0
 50
0.0
 51
180.0
  0
ARC
  5
3DA8
  8
0
  6
BYBLOCK
 62
     0
 10
10011.456279499989
 20
12687.282829999989
 30
0.0
 40
15.0
 50
180.0
 51
0.0
  0
ARC
  5
3DA9
  8
0
  6
BYBLOCK
 62
     0
 10
14613.455091499991
 20
12684.282829999989
 30
0.0
 40
15.0
 50
180.0
 51
0.0
  0
ARC
  5
3DAA
  8
0
  6
BYBLOCK
 62
     0
 10
14613.455091499991
 20
12684.282829999989
 30
0.0
 40
15.0
 50
0.0
 51
180.0
  0
TEXT
  5
3E00
  8
NAME
 10
21933.552716389011
 20
1876.0
 30
0.0
 40
360.0
  1
ヨドガレージ ラヴィージュ
 41
0.75
  7
01
  0
LINE
  5
3E01
  8
NAME
  6
CONTINUOUS
 10
26067.886878884299
 20
2236.0
 30
0.0
 11
26067.886878884299
 21
1876.0
 31
0.0
  0
LINE
  5
3E02
  8
NAME
  6
CONTINUOUS
 10
26167.886878884299
 20
2236.0
 30
0.0
 11
26167.886878884299
 21
1876.0
 31
0.0
  0
LINE
  5
3E03
  8
NAME
  6
CONTINUOUS
 10
26267.88687888431
 20
2236.0
 30
0.0
 11
26267.88687888431
 21
1876.0
 31
0.0
  0
LINE
  5
3E04
  8
NAME
  6
CONTINUOUS
 10
26007.886878884299
 20
2236.0
 30
0.0
 11
26327.886878884299
 21
2236.0
 31
0.0
  0
LINE
  5
3E05
  8
NAME
  6
CONTINUOUS
 10
26327.886878884299
 20
1876.0
 30
0.0
 11
26007.886878884299
 21
1876.0
 31
0.0
  0
TEXT
  5
3E50
  8
NAME
 10
25530.092913773489
 20
1076.0
 30
0.0
 40
360.0
  1
型（単棟）
 41
0.6
  7
01
  0
TEXT
  5
3E51
  8
NAME
 10
21583.547829600899
 20
1076.6369801169251
 30
0.0
 40
360.0
  1
VGC-2659（H）+1959（H）
 41
0.55
  0
TEXT
  5
3EEB
  8
FILENAME
  6
CONTINUOUS
 10
27746.857142857141
 20
348.0
 30
0.0
 40
200.0
  1
＜VGC-2659+1959-1-A_0.DXF ＞
  7
FILENAME
 72
     2
 11
32764.0
 21
348.0
 31
0.0
  0
LINE
  5
3EF1
  8
WAKUSEN-01
 10
868.00000000000193
 20
827.99999999999955
 30
0.0
 11
32764.000000000011
 21
827.99999999999943
 31
0.0
  0
LINE
  5
3EF2
  8
WAKUSEN-01
 10
868.00000000000193
 20
827.99999999999955
 30
0.0
 11
868.00000000000193
 21
22484.000000000011
 31
0.0
  0
LINE
  5
3EF3
  8
WAKUSEN-01
 10
32764.000000000011
 20
827.99999999999943
 30
0.0
 11
32764.000000000011
 21
22484.000000000011
 31
0.0
  0
LINE
  5
3EF4
  8
WAKUSEN-01
 10
20560.0
 20
827.99999999999716
 30
0.0
 11
20560.0
 21
2484.0
 31
0.0
  0
LINE
  5
3EF5
  8
WAKUSEN-02
 10
26868.0
 20
827.99999999999261
 30
0.0
 11
26868.0
 21
2484.0
 31
0.0
  0
ENDSEC
  0
EOF
