  0
SECTION
  2
HEADER
  9
$ACADVER
  1
AC1009
  9
$INSBASE
 10
0.0
 20
0.0
 30
0.0
  9
$EXTMIN
 10
867.99324330406671
 20
327.38164749855792
 30
-0.0000000000000053
  9
$EXTMAX
 10
32765.33210850941
 20
22484.553276491992
 30
0.0000000000000099
  9
$LIMMIN
 10
0.0
 20
0.0
  9
$LIMMAX
 10
33600.0
 20
23760.0
  9
$ORTHOMODE
 70
     1
  9
$REGENMODE
 70
     1
  9
$FILLMODE
 70
     1
  9
$QTEXTMODE
 70
     0
  9
$MIRRTEXT
 70
     1
  9
$DRAGMODE
 70
     2
  9
$LTSCALE
 40
80.0
  9
$OSMODE
 70
  3071
  9
$ATTMODE
 70
     1
  9
$TEXTSIZE
 40
0.2
  9
$TRACEWID
 40
0.05
  9
$TEXTSTYLE
  7
00
  9
$CLAYER
  8
0
  9
$CELTYPE
  6
BYLAYER
  9
$CECOLOR
 62
   256
  9
$DIMSCALE
 40
80.0
  9
$DIMASZ
 40
3.0
  9
$DIMEXO
 40
1.0
  9
$DIMDLI
 40
0.38
  9
$DIMRND
 40
0.5
  9
$DIMDLE
 40
0.0
  9
$DIMEXE
 40
1.0
  9
$DIMTP
 40
0.0
  9
$DIMTM
 40
0.0
  9
$DIMTXT
 40
2.0
  9
$DIMCEN
 40
0.09
  9
$DIMTSZ
 40
0.0
  9
$DIMTOL
 70
     0
  9
$DIMLIM
 70
     0
  9
$DIMTIH
 70
     0
  9
$DIMTOH
 70
     0
  9
$DIMSE1
 70
     0
  9
$DIMSE2
 70
     0
  9
$DIMTAD
 70
     1
  9
$DIMZIN
 70
     8
  9
$DIMBLK
  1
DOTSMALL
  9
$DIMASO
 70
     1
  9
$DIMSHO
 70
     1
  9
$DIMPOST
  1

  9
$DIMAPOST
  1

  9
$DIMALT
 70
     0
  9
$DIMALTD
 70
     2
  9
$DIMALTF
 40
25.399999999999999
  9
$DIMLFAC
 40
1.0
  9
$DIMTOFL
 70
     1
  9
$DIMTVP
 40
0.0
  9
$DIMTIX
 70
     0
  9
$DIMSOXD
 70
     0
  9
$DIMSAH
 70
     0
  9
$DIMBLK1
  1

  9
$DIMBLK2
  1

  9
$DIMSTYLE
  2
SUNPOU
  9
$DIMCLRD
 70
     4
  9
$DIMCLRE
 70
     4
  9
$DIMCLRT
 70
     7
  9
$DIMTFAC
 40
1.0
  9
$DIMGAP
 40
1.0
  9
$LUNITS
 70
     2
  9
$LUPREC
 70
     4
  9
$SKETCHINC
 40
0.1
  9
$FILLETRAD
 40
0.0
  9
$AUNITS
 70
     0
  9
$AUPREC
 70
     0
  9
$MENU
  1
acad
  9
$ELEVATION
 40
0.0
  9
$PELEVATION
 40
0.0
  9
$THICKNESS
 40
0.0
  9
$LIMCHECK
 70
     0
  9
$BLIPMODE
 70
     1
  9
$CHAMFERA
 40
0.0
  9
$CHAMFERB
 40
0.0
  9
$SKPOLY
 70
     0
  9
$TDCREATE
 40
2311940.0750512271
  9
$TDUPDATE
 40
2458942.4471914931
  9
$TDINDWG
 40
0.0544248495
  9
$TDUSRTIMER
 40
0.0544239468
  9
$USRTIMER
 70
     1
  9
$ANGBASE
 50
0.0
  9
$ANGDIR
 70
     0
  9
$PDMODE
 70
     0
  9
$PDSIZE
 40
0.0
  9
$PLINEWID
 40
0.0
  9
$COORDS
 70
     1
  9
$SPLFRAME
 70
     0
  9
$SPLINETYPE
 70
     6
  9
$SPLINESEGS
 70
     8
  9
$ATTDIA
 70
     1
  9
$ATTREQ
 70
     1
  9
$HANDLING
 70
     1
  9
$HANDSEED
  5
3D2A
  9
$SURFTAB1
 70
     6
  9
$SURFTAB2
 70
     6
  9
$SURFTYPE
 70
     6
  9
$SURFU
 70
     6
  9
$SURFV
 70
     6
  9
$UCSNAME
  2

  9
$UCSORG
 10
0.0
 20
0.0
 30
0.0
  9
$UCSXDIR
 10
1.0
 20
0.0
 30
0.0
  9
$UCSYDIR
 10
0.0
 20
1.0
 30
0.0
  9
$PUCSNAME
  2

  9
$PUCSORG
 10
0.0
 20
0.0
 30
0.0
  9
$PUCSXDIR
 10
1.0
 20
0.0
 30
0.0
  9
$PUCSYDIR
 10
0.0
 20
1.0
 30
0.0
  9
$USERI1
 70
     0
  9
$USERI2
 70
     0
  9
$USERI3
 70
     0
  9
$USERI4
 70
     0
  9
$USERI5
 70
     0
  9
$USERR1
 40
0.0
  9
$USERR2
 40
0.0
  9
$USERR3
 40
0.0
  9
$USERR4
 40
0.0
  9
$USERR5
 40
0.0
  9
$WORLDVIEW
 70
     1
  9
$SHADEDGE
 70
     3
  9
$SHADEDIF
 70
    70
  9
$TILEMODE
 70
     1
  9
$MAXACTVP
 70
    16
  9
$PLIMCHECK
 70
     0
  9
$PEXTMIN
 10
1.0000000000000000E+020
 20
1.0000000000000000E+020
 30
1.0000000000000000E+020
  9
$PEXTMAX
 10
-1.0000000000000000E+020
 20
-1.0000000000000000E+020
 30
-1.0000000000000000E+020
  9
$PLIMMIN
 10
0.0
 20
0.0
  9
$PLIMMAX
 10
12.0
 20
9.0
  9
$UNITMODE
 70
     0
  9
$VISRETAIN
 70
     0
  9
$PLINEGEN
 70
     1
  9
$PSLTSCALE
 70
     0
  0
ENDSEC
  0
SECTION
  2
TABLES
  0
TABLE
  2
VPORT
 70
     1
  0
VPORT
  2
*ACTIVE
 70
     0
 10
0.0
 20
0.0
 11
1.0
 21
1.0
 12
16800.0
 22
11880.0
 13
0.0
 23
0.0
 14
1.0
 24
1.0
 15
0.0
 25
0.0
 16
0.0
 26
0.0
 36
1.0
 17
0.0
 27
0.0
 37
0.0
 40
23981.023255813951
 41
2.195652173913043
 42
50.0
 43
0.0
 44
0.0
 50
0.0
 51
0.0
 71
     0
 72
 10000
 73
     1
 74
     1
 75
     0
 76
     0
 77
     0
 78
     0
  0
ENDTAB
  0
TABLE
  2
LTYPE
 70
     3
  0
LTYPE
  2
CONTINUOUS
 70
     0
  3
Solid line
 72
    65
 73
     0
 40
0.0
  0
LTYPE
  2
DASHED3
 70
     0
  3
------  ------  ------  ------  
 72
    65
 73
     2
 40
5.0
 49
3.75
 49
-1.25
  0
LTYPE
  2
CENTER2
 70
     0
  3
----------  --  ----------  --  
 72
    65
 73
     4
 40
20.0
 49
12.5
 49
-2.5
 49
2.5
 49
-2.5
  0
ENDTAB
  0
TABLE
  2
LAYER
 70
    18
  0
LAYER
  2
0
 70
     0
 62
     7
  6
CONTINUOUS
  0
LAYER
  2
SUNPOU
 70
     0
 62
     4
  6
CONTINUOUS
  0
LAYER
  2
0-1
 70
     0
 62
     7
  6
CONTINUOUS
  0
LAYER
  2
2-0
 70
     0
 62
     7
  6
CONTINUOUS
  0
LAYER
  2
0-2
 70
     0
 62
     7
  6
CONTINUOUS
  0
LAYER
  2
0-6
 70
     0
 62
     7
  6
CONTINUOUS
  0
LAYER
  2
0-7
 70
     0
 62
     7
  6
CONTINUOUS
  0
LAYER
  2
YODOROGO
 70
     0
 62
   130
  6
CONTINUOUS
  0
LAYER
  2
WAKUSEN-01
 70
     0
 62
    50
  6
CONTINUOUS
  0
LAYER
  2
WAKUSEN-02
 70
     0
 62
   130
  6
CONTINUOUS
  0
LAYER
  2
WAKUMOJI-01
 70
     0
 62
   130
  6
CONTINUOUS
  0
LAYER
  2
FILENAME
 70
     0
 62
     7
  6
CONTINUOUS
  0
LAYER
  2
NAME
 70
     0
 62
    20
  6
CONTINUOUS
  0
LAYER
  2
0-4
 70
     0
 62
     7
  6
CONTINUOUS
  0
LAYER
  2
0-5
 70
     0
 62
     7
  6
CONTINUOUS
  0
LAYER
  2
0-0
 70
     0
 62
     7
  6
CONTINUOUS
  0
ENDTAB
  0
TABLE
  2
STYLE
 70
     5
  0
STYLE
  2
STANDARD
 70
     0
 40
0.0
 41
1.0
 50
0.0
 71
     0
 42
0.0
  3
txt
  4
BIGFONT
  0
STYLE
  2
00
 70
     0
 40
0.0
 41
0.6666666666666666
 50
0.0
 71
     0
 42
0.2
  3
ROMANS
  4
BIGFONT
  0
STYLE
  2
01
 70
     0
 40
3.0
 41
1.0
 50
0.0
 71
     0
 42
0.2
  3
ROMANS
  4
BIGFONT
  0
STYLE
  2
WAKUMOJI
 70
     0
 40
3.0
 41
1.0
 50
0.0
 71
     0
 42
3.0
  3
SIMPLEX
  4
BIGFONT
  0
STYLE
  2
FILENAME
 70
     0
 40
200.0
 41
1.0
 50
0.0
 71
     0
 42
200.0
  3
romans
  4
bigfont
  0
ENDTAB
  0
TABLE
  2
VIEW
 70
     0
  0
ENDTAB
  0
TABLE
  2
UCS
 70
     0
  0
ENDTAB
  0
TABLE
  2
APPID
 70
    13
  0
APPID
  2
ACAD
 70
     0
  0
APPID
  2
ACADANNOTATIVE
 70
     0
  0
APPID
  2
ACAD_PSEXT
 70
     0
  0
APPID
  2
DCO15
 70
     0
  0
APPID
  2
ACAD_MLEADERVER
 70
     0
  0
APPID
  2
AUTOCAD_POSTSCRIPT_FIGURE
 70
     0
  0
APPID
  2
ACAD_EXEMPT_FROM_CAD_STANDARDS
 70
     0
  0
APPID
  2
ACAD_DSTYLE_DIMJAG
 70
     0
  0
APPID
  2
ACAD_DSTYLE_DIMTALN
 70
     0
  0
APPID
  2
ACAD_DSTYLE_DIM_LINETYPE
 70
     0
  0
APPID
  2
ACAD_DSTYLE_DIM_EXT1_LINETYPE
 70
     0
  0
APPID
  2
ACAD_DSTYLE_DIM_EXT2_LINETYPE
 70
     0
  0
APPID
  2
ACAD_NAV_VCDISPLAY
 70
     0
  0
ENDTAB
  0
TABLE
  2
DIMSTYLE
 70
     2
  0
DIMSTYLE
  2
SUNPOU
 70
     0
  3

  4

  5

  6

  7

 40
80.0
 41
3.0
 42
1.0
 43
0.38
 44
1.0
 45
0.5
 46
0.0
 47
0.0
 48
0.0
140
2.0
141
0.09
142
0.0
143
25.399999999999999
144
1.0
145
0.0
146
1.0
147
1.0
 71
     0
 72
     0
 73
     0
 74
     0
 75
     0
 76
     0
 77
     1
 78
     8
170
     0
171
     2
172
     1
173
     0
174
     0
175
     0
176
     4
177
     4
178
     7
  0
ENDTAB
  0
ENDSEC
  0
SECTION
  2
BLOCKS
  0
BLOCK
  8
0
  2
$MODEL_SPACE
 70
     0
 10
0.0
 20
0.0
 30
0.0
  3
$MODEL_SPACE
  1

  0
ENDBLK
  5
31E4
  8
0
  0
BLOCK
 67
     1
  8
0
  2
$PAPER_SPACE
 70
     0
 10
0.0
 20
0.0
 30
0.0
  3
$PAPER_SPACE
  1

  0
ENDBLK
  5
31E0
 67
     1
  8
0
  0
BLOCK
  8
0
  2
_DOTSMALL
 70
     0
 10
0.0
 20
0.0
 30
0.0
  3
_DOTSMALL
  1

  0
POLYLINE
  5
3214
  8
0
  6
BYBLOCK
 62
     0
 66
     1
 10
0.0
 20
0.0
 30
0.0
 70
     1
 40
0.5
 41
0.5
  0
VERTEX
  5
3CF2
  8
0
  6
BYBLOCK
 62
     0
 10
-0.0625
 20
0.0
 30
0.0
 42
1.0
  0
VERTEX
  5
3CF3
  8
0
  6
BYBLOCK
 62
     0
 10
0.0625
 20
0.0
 30
0.0
 42
1.0
  0
SEQEND
  5
3CF4
  8
0
  6
BYBLOCK
 62
     0
  0
ENDBLK
  5
3218
  8
0
  0
ENDSEC
  0
SECTION
  2
ENTITIES
  0
LINE
  5
3219
  8
0-2
  6
CONTINUOUS
 62
     3
 10
9850.1601554999852
 20
17358.231124999991
 30
0.0
 11
14012.6117235
 21
17358.231124999991
 31
0.0
  0
LINE
  5
321A
  8
0-2
  6
CONTINUOUS
 62
     3
 10
9900.1578064999903
 20
14245.731546999999
 30
0.0
 11
9900.1578064999903
 21
20056.230887999991
 31
0.0
  0
LINE
  5
321B
  8
0-2
  6
CONTINUOUS
 62
     3
 10
9764.6597594999876
 20
14213.731638999991
 30
0.0
 11
9764.6597594999876
 21
20104.230254999991
 31
0.0
  0
LINE
  5
321C
  8
0-2
  6
CONTINUOUS
 62
     3
 10
9838.1632434999883
 20
20104.230254999991
 30
0.0
 11
14296.16102649998
 21
20104.230254999999
 31
0.0
  0
LINE
  5
321D
  8
0-2
  6
CONTINUOUS
 62
     3
 10
11984.189136499979
 20
18491.781722
 30
0.0
 11
12110.92979249999
 21
18707.272115
 31
0.0
  0
LINE
  5
321E
  8
0-2
  6
CONTINUOUS
 62
     3
 10
12719.4080705
 20
17769.31880500001
 30
0.0
 11
12846.148727499991
 21
17984.809197999999
 31
0.0
  0
LINE
  5
321F
  8
0-2
  6
CONTINUOUS
 62
     3
 10
12719.4080705
 20
17769.31880500001
 30
0.0
 11
12110.92979249999
 21
18707.272115
 31
0.0
  0
LINE
  5
3220
  8
0-2
  6
CONTINUOUS
 62
     3
 10
9850.1601554999852
 20
17279.230518
 30
0.0
 11
14170.442751499981
 21
17279.230518
 31
0.0
  0
LINE
  5
3221
  8
0-2
  6
CONTINUOUS
 62
     3
 10
9807.6618714999822
 20
14369.73155999998
 30
0.0
 11
14326.658439500001
 21
14369.73155999998
 31
0.0
  0
LINE
  5
3222
  8
0-2
  6
CONTINUOUS
 62
     3
 10
9850.1601554999852
 20
14448.73018799999
 30
0.0
 11
14284.16015549998
 21
14448.73018799999
 31
0.0
  0
LINE
  5
3223
  8
0-2
  6
CONTINUOUS
 62
     3
 10
9764.6597594999876
 20
14213.731638999991
 30
0.0
 11
14369.66055149999
 21
14213.731638999991
 31
0.0
  0
LINE
  5
3224
  8
0-2
  6
CONTINUOUS
 62
     3
 10
9764.6597594999876
 20
14245.731546999999
 30
0.0
 11
14369.66055149999
 21
14245.731546999999
 31
0.0
  0
LINE
  5
3225
  8
0-2
  6
CONTINUOUS
 62
     3
 10
9850.1601554999852
 20
14369.73155999998
 30
0.0
 11
9850.1601554999852
 21
19615.696946
 31
0.0
  0
LINE
  5
3226
  8
0-2
  6
CONTINUOUS
 62
     3
 10
9807.6618714999822
 20
14369.73155999998
 30
0.0
 11
9807.6618714999822
 21
19638.18031800001
 31
0.0
  0
LINE
  5
3227
  8
0-2
  6
CONTINUOUS
 62
     3
 10
9920.1618714999859
 20
14406.230913999991
 30
0.0
 11
12347.658440499999
 21
17324.230914
 31
0.0
  0
LINE
  5
3228
  8
0-2
  6
CONTINUOUS
 62
     3
 10
12347.658440499999
 20
14406.230913999991
 30
0.0
 11
9920.1618714999859
 21
17324.230914
 31
0.0
  0
LINE
  5
3229
  8
0-2
  6
CONTINUOUS
 62
     3
 10
14214.158439500001
 20
14406.230913999991
 30
0.0
 11
12487.657912499981
 21
17324.230914
 31
0.0
  0
LINE
  5
322A
  8
0-2
  6
CONTINUOUS
 62
     3
 10
14326.658439500001
 20
14369.73155999998
 30
0.0
 11
14326.658439500001
 21
17196.589575999991
 31
0.0
  0
LINE
  5
322B
  8
0-2
  6
CONTINUOUS
 62
     3
 10
14284.16015549998
 20
14369.73155999998
 30
0.0
 11
14284.16015549998
 21
17219.07294799999
 31
0.0
  0
LINE
  5
322C
  8
0-2
  6
CONTINUOUS
 62
     3
 10
14369.66055149999
 20
14213.731638999991
 30
0.0
 11
14369.66055149999
 21
20104.230254999991
 31
0.0
  0
LINE
  5
322D
  8
0-2
  6
CONTINUOUS
 62
     3
 10
14234.1585455
 20
14245.731546999999
 30
0.0
 11
14234.1585455
 21
20056.230887999991
 31
0.0
  0
LINE
  5
322E
  8
0-2
  6
CONTINUOUS
 62
     3
 10
11984.189136499979
 20
18491.781722
 30
0.0
 11
9616.4661104999923
 21
19739.325798999998
 31
0.0
  0
LINE
  5
322F
  8
0-2
  6
CONTINUOUS
 62
     3
 10
9920.1618714999859
 20
17324.230914
 30
0.0
 11
11344.311734499979
 21
18830.28929700001
 31
0.0
  0
LINE
  5
3230
  8
0-2
  6
CONTINUOUS
 62
     3
 10
10521.6000575
 20
19265.518129
 30
0.0
 11
12347.658440499999
 21
17324.230914
 31
0.0
  0
LINE
  5
3231
  8
0-2
  6
CONTINUOUS
 62
     3
 10
9782.6595224999892
 20
20056.230887999991
 30
0.0
 11
14351.65880949999
 21
20056.230887999991
 31
0.0
  0
LINE
  5
3232
  8
0-2
  6
CONTINUOUS
 62
     3
 10
9782.6595224999874
 20
20074.230650000009
 30
0.0
 11
9833.1629794999881
 21
20074.230650000009
 31
0.0
  0
LINE
  5
3233
  8
0-2
  6
CONTINUOUS
 62
     3
 10
9782.6595224999874
 20
20096.731837999989
 30
0.0
 11
9764.6597594999876
 21
20096.731837999989
 31
0.0
  0
LINE
  5
3234
  8
0-2
  6
CONTINUOUS
 62
     3
 10
9833.1629794999881
 20
20114.230781999999
 30
0.0
 11
9769.6600234999878
 21
20114.230781999999
 31
0.0
  0
LINE
  5
3235
  8
0-2
  6
CONTINUOUS
 62
     3
 10
9764.6597594999876
 20
20109.230518
 30
0.0
 11
9764.6597594999876
 21
20074.230650000009
 31
0.0
  0
LINE
  5
3236
  8
0-2
  6
CONTINUOUS
 62
     3
 10
9838.1632434999883
 20
20079.230914
 30
0.0
 11
9838.1632434999883
 21
20109.230518
 31
0.0
  0
LINE
  5
3237
  8
0-2
  6
CONTINUOUS
 62
     3
 10
9782.6595224999874
 20
19649.81790799999
 30
0.0
 11
9782.6595224999874
 21
20096.731837999989
 31
0.0
  0
LINE
  5
3238
  8
0-2
  6
CONTINUOUS
 62
     3
 10
14301.16129049998
 20
20114.230781999999
 30
0.0
 11
14364.660287500001
 21
20114.230781999999
 31
0.0
  0
LINE
  5
3239
  8
0-2
  6
CONTINUOUS
 62
     3
 10
14369.66055149999
 20
20109.230518
 30
0.0
 11
14369.66055149999
 21
20074.230650000009
 31
0.0
  0
LINE
  5
323A
  8
0-2
  6
CONTINUOUS
 62
     3
 10
14351.65880949999
 20
20074.230650000009
 30
0.0
 11
14301.16129049998
 21
20074.230650000009
 31
0.0
  0
LINE
  5
323B
  8
0-2
  6
CONTINUOUS
 62
     3
 10
14296.16102649998
 20
20079.230914
 30
0.0
 11
14296.16102649998
 21
20109.230518
 31
0.0
  0
LINE
  5
323C
  8
0-2
  6
CONTINUOUS
 62
     3
 10
14351.65880949999
 20
20096.731837999989
 30
0.0
 11
14369.66055149999
 21
20096.731837999989
 31
0.0
  0
LINE
  5
323D
  8
0-2
  6
CONTINUOUS
 62
     3
 10
14351.65880949999
 20
17184.950006999989
 30
0.0
 11
14351.65880949999
 21
20096.731837999989
 31
0.0
  0
LINE
  5
323E
  8
0-2
  6
CONTINUOUS
 62
     3
 10
12360.65991849998
 20
14448.73018799999
 30
0.0
 11
12360.65991849998
 21
17279.230518
 31
0.0
  0
LINE
  5
323F
  8
0-2
  6
CONTINUOUS
 62
     3
 10
12474.656434500001
 20
14448.73018799999
 30
0.0
 11
12474.656434500001
 21
17279.230518
 31
0.0
  0
LINE
  5
3240
  8
0-2
  6
CONTINUOUS
 62
     3
 10
12417.66015549998
 20
14448.73018799999
 30
0.0
 11
12417.66015549998
 21
14369.73155999998
 31
0.0
  0
LINE
  5
3241
  8
0-2
  6
CONTINUOUS
 62
     3
 10
12417.66015549998
 20
14448.73018799999
 30
0.0
 11
12417.66015549998
 21
17279.230518
 31
0.0
  0
LINE
  5
3242
  8
0-2
  6
CONTINUOUS
 62
     3
 10
12474.656434500001
 20
17358.231124999991
 30
0.0
 11
12474.656434500001
 21
18146.593271999998
 31
0.0
  0
LINE
  5
3243
  8
0-2
  6
CONTINUOUS
 62
     3
 10
12360.65991849998
 20
17358.231124999991
 30
0.0
 11
12360.65991849998
 21
18322.321075
 31
0.0
  0
LINE
  5
3244
  8
0-2
  6
CONTINUOUS
 62
     3
 10
12417.66015549998
 20
17358.231124999991
 30
0.0
 11
12417.66015549998
 21
18234.456183999999
 31
0.0
  0
LINE
  5
3245
  8
0-2
  6
CONTINUOUS
 62
     3
 10
12417.66015549998
 20
17279.230518
 30
0.0
 11
12417.66015549998
 21
17358.231124999991
 31
0.0
  0
LINE
  5
3246
  8
0-2
  6
CONTINUOUS
 62
     3
 10
14512.8737325
 20
17098.076853999992
 30
0.0
 11
12846.148727499991
 21
17984.809197999999
 31
0.0
  0
LINE
  5
3247
  8
0-2
  6
CONTINUOUS
 62
     3
 10
14157.659020499979
 20
17285.992552999989
 30
0.0
 11
14157.659020499979
 21
20056.230887999991
 31
0.0
  0
LINE
  5
3248
  8
0-2
  6
CONTINUOUS
 62
     3
 10
14194.660181499979
 20
17266.419074000001
 30
0.0
 11
14194.660181499979
 21
20056.230887999991
 31
0.0
  0
LINE
  5
3249
  8
0-2
  6
CONTINUOUS
 62
     3
 10
13986.1613965
 20
17372.22434199999
 30
0.0
 11
13986.1613965
 21
20056.230887999991
 31
0.0
  0
LINE
  5
324A
  8
0-2
  6
CONTINUOUS
 62
     3
 10
13949.16023549999
 20
17391.797822
 30
0.0
 11
13949.16023549999
 21
20056.230887999991
 31
0.0
  0
LINE
  5
324B
  8
0-2
  6
CONTINUOUS
 62
     3
 10
13786.15875749999
 20
17478.02763
 30
0.0
 11
13786.15875749999
 21
20056.230887999991
 31
0.0
  0
LINE
  5
324C
  8
0-2
  6
CONTINUOUS
 62
     3
 10
13749.1595755
 20
17497.601109999981
 30
0.0
 11
13749.1595755
 21
20056.230887999991
 31
0.0
  0
LINE
  5
324D
  8
0-2
  6
CONTINUOUS
 62
     3
 10
13586.16007649998
 20
17593.33168499999
 30
0.0
 11
13586.16007649998
 21
20056.230887999991
 31
0.0
  0
LINE
  5
324E
  8
0-2
  6
CONTINUOUS
 62
     3
 10
13549.1589155
 20
17612.905165
 30
0.0
 11
13549.1589155
 21
20056.230887999991
 31
0.0
  0
LINE
  5
324F
  8
0-2
  6
CONTINUOUS
 62
     3
 10
13386.1613965
 20
17699.13497399999
 30
0.0
 11
13386.1613965
 21
20056.230887999991
 31
0.0
  0
LINE
  5
3250
  8
0-2
  6
CONTINUOUS
 62
     3
 10
13349.16023549999
 20
17718.70845300001
 30
0.0
 11
13349.16023549999
 21
20056.230887999991
 31
0.0
  0
LINE
  5
3251
  8
0-2
  6
CONTINUOUS
 62
     3
 10
13186.15875749999
 20
17804.938262
 30
0.0
 11
13186.15875749999
 21
20056.230887999991
 31
0.0
  0
LINE
  5
3252
  8
0-2
  6
CONTINUOUS
 62
     3
 10
13149.1615545
 20
17824.511741999999
 30
0.0
 11
13149.1615545
 21
20056.230887999991
 31
0.0
  0
LINE
  5
3253
  8
0-2
  6
CONTINUOUS
 62
     3
 10
12986.1600765
 20
17910.741550999999
 30
0.0
 11
12986.1600765
 21
20056.230887999991
 31
0.0
  0
LINE
  5
3254
  8
0-2
  6
CONTINUOUS
 62
     3
 10
12949.15891549998
 20
17930.315030999991
 30
0.0
 11
12949.15891549998
 21
20056.230887999991
 31
0.0
  0
LINE
  5
3255
  8
0-2
  6
CONTINUOUS
 62
     3
 10
12749.1622145
 20
17819.905402000011
 30
0.0
 11
12749.1622145
 21
20056.230887999991
 31
0.0
  0
LINE
  5
3256
  8
0-2
  6
CONTINUOUS
 62
     3
 10
12786.15743749998
 20
17882.812523000011
 30
0.0
 11
12786.15743749998
 21
20056.230887999991
 31
0.0
  0
LINE
  5
3257
  8
0-2
  6
CONTINUOUS
 62
     3
 10
12549.1615545
 20
18031.751500999992
 30
0.0
 11
12549.1615545
 21
20056.230887999991
 31
0.0
  0
LINE
  5
3258
  8
0-2
  6
CONTINUOUS
 62
     3
 10
12586.1607365
 20
17974.717612
 30
0.0
 11
12586.1607365
 21
20056.230887999991
 31
0.0
  0
LINE
  5
3259
  8
0-2
  6
CONTINUOUS
 62
     3
 10
12386.16205649999
 20
18283.013773999999
 30
0.0
 11
12386.16205649999
 21
20056.230887999991
 31
0.0
  0
LINE
  5
325A
  8
0-2
  6
CONTINUOUS
 62
     3
 10
12349.15891549998
 20
18340.047664000009
 30
0.0
 11
12349.15891549998
 21
20056.230887999991
 31
0.0
  0
LINE
  5
325B
  8
0-2
  6
CONTINUOUS
 62
     3
 10
12149.1602355
 20
18648.343826
 30
0.0
 11
12149.1602355
 21
20056.230887999991
 31
0.0
  0
LINE
  5
325C
  8
0-2
  6
CONTINUOUS
 62
     3
 10
12186.15743749998
 20
18591.309937000002
 30
0.0
 11
12186.15743749998
 21
20056.230887999991
 31
0.0
  0
LINE
  5
325D
  8
0-2
  6
CONTINUOUS
 62
     3
 10
11749.15891549998
 20
18616.117264000011
 30
0.0
 11
11749.15891549998
 21
20056.230887999991
 31
0.0
  0
LINE
  5
325E
  8
0-2
  6
CONTINUOUS
 62
     3
 10
11786.162056499999
 20
18596.543784000009
 30
0.0
 11
11786.162056499999
 21
20056.230887999991
 31
0.0
  0
LINE
  5
325F
  8
0-2
  6
CONTINUOUS
 62
     3
 10
11949.16155449998
 20
18510.313975000001
 30
0.0
 11
11949.16155449998
 21
20056.230887999991
 31
0.0
  0
LINE
  5
3260
  8
0-2
  6
CONTINUOUS
 62
     3
 10
11986.158757499979
 20
18495.135026
 30
0.0
 11
11986.158757499979
 21
20056.230887999991
 31
0.0
  0
LINE
  5
3261
  8
0-2
  6
CONTINUOUS
 62
     3
 10
10586.16205649999
 20
19231.365494999998
 30
0.0
 11
10586.16205649999
 21
20056.230887999991
 31
0.0
  0
LINE
  5
3262
  8
0-2
  6
CONTINUOUS
 62
     3
 10
10549.1589155
 20
19250.938975000001
 30
0.0
 11
10549.1589155
 21
20056.230887999991
 31
0.0
  0
LINE
  5
3263
  8
0-2
  6
CONTINUOUS
 62
     3
 10
10786.15875749999
 20
19125.560227000002
 30
0.0
 11
10786.15875749999
 21
20056.230887999991
 31
0.0
  0
LINE
  5
3264
  8
0-2
  6
CONTINUOUS
 62
     3
 10
10749.1615545
 20
19145.135686000009
 30
0.0
 11
10749.1615545
 21
20056.230887999991
 31
0.0
  0
LINE
  5
3265
  8
0-2
  6
CONTINUOUS
 62
     3
 10
10949.16023549999
 20
19039.330418000001
 30
0.0
 11
10949.16023549999
 21
20056.230887999991
 31
0.0
  0
LINE
  5
3266
  8
0-2
  6
CONTINUOUS
 62
     3
 10
10986.1613965
 20
19019.756937999999
 30
0.0
 11
10986.1613965
 21
20056.230887999991
 31
0.0
  0
LINE
  5
3267
  8
0-2
  6
CONTINUOUS
 62
     3
 10
11149.1589155
 20
18933.527129999991
 30
0.0
 11
11149.1589155
 21
20056.230887999991
 31
0.0
  0
LINE
  5
3268
  8
0-2
  6
CONTINUOUS
 62
     3
 10
11186.16205649999
 20
18913.95365000001
 30
0.0
 11
11186.16205649999
 21
20056.230887999991
 31
0.0
  0
LINE
  5
3269
  8
0-2
  6
CONTINUOUS
 62
     3
 10
11349.16155449998
 20
18827.723840999999
 30
0.0
 11
11349.16155449998
 21
20056.230887999991
 31
0.0
  0
LINE
  5
326A
  8
0-2
  6
CONTINUOUS
 62
     3
 10
11386.158757499999
 20
18808.150361
 30
0.0
 11
11386.158757499999
 21
20056.230887999991
 31
0.0
  0
LINE
  5
326B
  8
0-2
  6
CONTINUOUS
 62
     3
 10
11549.1602355
 20
18721.920552
 30
0.0
 11
11549.1602355
 21
20056.230887999991
 31
0.0
  0
LINE
  5
326C
  8
0-2
  6
CONTINUOUS
 62
     3
 10
11586.15743749998
 20
18702.347073000001
 30
0.0
 11
11586.15743749998
 21
20056.230887999991
 31
0.0
  0
LINE
  5
326D
  8
0-2
  6
CONTINUOUS
 62
     3
 10
10386.161396499991
 20
19337.168784000001
 30
0.0
 11
10386.161396499991
 21
20056.230887999991
 31
0.0
  0
LINE
  5
326E
  8
0-2
  6
CONTINUOUS
 62
     3
 10
10349.16023549999
 20
19356.74226399999
 30
0.0
 11
10349.16023549999
 21
20056.230887999991
 31
0.0
  0
LINE
  5
326F
  8
0-2
  6
CONTINUOUS
 62
     3
 10
9976.6632704999902
 20
19548.775361
 30
0.0
 11
9976.6632704999902
 21
20056.230887999991
 31
0.0
  0
LINE
  5
3270
  8
0-2
  6
CONTINUOUS
 62
     3
 10
9939.6601294999909
 20
19568.34884100001
 30
0.0
 11
9939.6601294999909
 21
20056.230887999991
 31
0.0
  0
LINE
  5
3271
  8
0-2
  6
CONTINUOUS
 62
     3
 10
10176.659971499979
 20
19442.97207299999
 30
0.0
 11
10176.659971499979
 21
20056.230887999991
 31
0.0
  0
LINE
  5
3272
  8
0-2
  6
CONTINUOUS
 62
     3
 10
10139.66276849998
 20
19462.545552
 30
0.0
 11
10139.66276849998
 21
20056.230887999991
 31
0.0
  0
LINE
  5
3273
  8
0-2
  6
CONTINUOUS
 62
     3
 10
12487.657912499981
 20
17324.230914
 30
0.0
 11
12904.283229500001
 21
17954.057377000008
 31
0.0
  0
LINE
  5
3274
  8
0-2
  6
CONTINUOUS
 62
     3
 10
14183.4956965
 20
17272.325957000001
 30
0.0
 11
12487.657912499981
 21
14406.230913999991
 31
0.0
  0
LINE
  5
3275
  8
0-2
  6
CONTINUOUS
 62
     3
 10
12417.66015549998
 20
14369.73155999998
 30
0.0
 11
12417.66015549998
 21
14213.731638999991
 31
0.0
  0
LINE
  5
3276
  8
0-2
  6
CONTINUOUS
 62
     3
 10
12332.6616075
 20
20056.230887999991
 30
0.0
 11
12332.6616075
 21
20104.230254999991
 31
0.0
  0
LINE
  5
3277
  8
0-6
  6
CONTINUOUS
 62
     6
 10
11542.56843849998
 20
17512.05951399999
 30
0.0
 11
11481.421109499979
 21
17683.328517999991
 31
0.0
  0
LINE
  5
3278
  8
0-6
  6
CONTINUOUS
 62
     6
 10
11534.6186915
 20
19831.955392
 30
0.0
 11
11678.519794499991
 21
20344.231046000001
 31
0.0
  0
LINE
  5
3279
  8
0-6
  6
CONTINUOUS
 62
     6
 10
11121.47336849999
 20
19937.730967
 30
0.0
 11
10827.54257249999
 21
20344.231046000001
 31
0.0
  0
LINE
  5
327A
  8
0-6
  6
CONTINUOUS
 62
     6
 10
11678.519794499991
 20
20344.231046000001
 30
0.0
 11
12196.2094325
 21
20344.231046000001
 31
0.0
  0
LINE
  5
327B
  8
0-6
  6
CONTINUOUS
 62
     6
 10
11068.206503499991
 20
20234.134182000002
 30
0.0
 11
10859.01691849999
 21
20596.465262999998
 31
0.0
  0
LINE
  5
327C
  8
0-6
  6
CONTINUOUS
 62
     6
 10
10785.01063649999
 20
20724.650968000009
 30
0.0
 11
10588.95119749999
 21
21064.231442
 31
0.0
  0
LINE
  5
327D
  8
0-6
  6
CONTINUOUS
 62
     6
 10
10588.95119749999
 20
21064.231442
 30
0.0
 11
11431.38679749999
 21
21064.231442
 31
0.0
  0
LINE
  5
327E
  8
0-6
  6
CONTINUOUS
 62
     6
 10
10018.047085499969
 20
20344.231046000001
 30
0.0
 11
10827.54257249999
 21
20344.231046000001
 31
0.0
  0
LINE
  5
327F
  8
0-6
  6
CONTINUOUS
 62
     6
 10
10680.8503485
 20
17683.328517999991
 30
0.0
 11
11481.421109499979
 21
17683.328517999991
 31
0.0
  0
LINE
  5
3280
  8
0-6
  6
CONTINUOUS
 62
     6
 10
10014.68784249999
 20
18511.646191
 30
0.0
 11
10544.18636449999
 21
18511.646191
 31
0.0
  0
LINE
  5
3281
  8
0-6
  6
CONTINUOUS
 62
     6
 10
10614.249445499991
 20
14600.62161799999
 30
0.0
 11
10697.1358475
 21
14787.559011999991
 31
0.0
  0
LINE
  5
3282
  8
0-6
  6
CONTINUOUS
 62
     6
 10
10697.1358475
 20
14787.559011999991
 30
0.0
 11
11497.136507499979
 21
14787.559011999991
 31
0.0
  0
LINE
  5
3283
  8
0-6
  6
CONTINUOUS
 62
     6
 10
11622.5568255
 20
13413.73098
 30
0.0
 11
12485.134026499991
 21
13413.73098
 31
0.0
  0
LINE
  5
3284
  8
0-6
  6
CONTINUOUS
 62
     6
 10
11216.44275249999
 20
14077.26263899999
 30
0.0
 11
11622.5568255
 21
13413.73098
 31
0.0
  0
LINE
  5
3285
  8
0-6
  6
CONTINUOUS
 62
     6
 10
8034.2626424999871
 20
13013.731639
 30
0.0
 11
9114.2602664999813
 21
13013.731639
 31
0.0
  0
LINE
  5
3286
  8
0-6
  6
CONTINUOUS
 62
     6
 10
9672.7695574999834
 20
14804.001883000001
 30
0.0
 11
9114.2602664999813
 21
13013.731639
 31
0.0
  0
LINE
  5
3287
  8
0-6
  6
CONTINUOUS
 62
     6
 10
9915.6485694999883
 20
18732.43773400001
 30
0.0
 11
10014.68784249999
 21
18511.646191
 31
0.0
  0
LINE
  5
3288
  8
0-6
  6
CONTINUOUS
 62
     6
 10
10943.4037955
 20
16810.846729000001
 30
0.0
 11
11823.40273949999
 21
16810.846729000001
 31
0.0
  0
LINE
  5
3289
  8
0-6
  6
CONTINUOUS
 62
     6
 10
10732.135715500001
 20
16608.785390000001
 30
0.0
 11
10943.4037955
 21
16810.846729000001
 31
0.0
  0
LINE
  5
328A
  8
0-6
  6
CONTINUOUS
 62
     6
 10
12360.65991849998
 20
15600.60173
 30
0.0
 11
12095.47173249998
 21
15969.560240000001
 31
0.0
  0
LINE
  5
328B
  8
0-6
  6
CONTINUOUS
 62
     6
 10
11849.235456500001
 20
15969.560240000001
 30
0.0
 11
12095.47173249998
 21
15969.560240000001
 31
0.0
  0
LINE
  5
328C
  8
0-6
  6
CONTINUOUS
 62
     6
 10
15256.46009249999
 20
20989.898539999998
 30
0.0
 11
16931.4594325
 21
20989.898539999998
 31
0.0
  0
LINE
  5
328D
  8
0-6
  6
CONTINUOUS
 62
     6
 10
14477.567038499999
 20
20229.553575999998
 30
0.0
 11
15256.46009249999
 21
20989.898539999998
 31
0.0
  0
LINE
  5
328E
  8
0-6
  6
CONTINUOUS
 62
     6
 10
9698.2103304999891
 20
14796.020465
 30
0.0
 11
9720.6620294999848
 21
14956.666314999989
 31
0.0
  0
LINE
  5
328F
  8
0-6
  6
CONTINUOUS
 62
     6
 10
9720.6620294999848
 20
14956.666314999989
 30
0.0
 11
9647.3228454999844
 21
14811.985282
 31
0.0
  0
LINE
  5
3290
  8
0-6
  6
CONTINUOUS
 62
     6
 10
9720.6620294999848
 20
14956.666314999989
 30
0.0
 11
9698.2103304999891
 21
14796.020465
 31
0.0
  0
LINE
  5
3291
  8
0-6
  6
CONTINUOUS
 62
     6
 10
9698.2103304999891
 20
14796.020465
 30
0.0
 11
9647.3228454999844
 21
14811.985282
 31
0.0
  0
LINE
  5
3292
  8
0-6
  6
CONTINUOUS
 62
     6
 10
9647.3228454999844
 20
14811.985282
 30
0.0
 11
9720.6620294999848
 21
14956.666314999989
 31
0.0
  0
LINE
  5
3293
  8
0-6
  6
CONTINUOUS
 62
     6
 10
9647.3228454999844
 20
14811.985282
 30
0.0
 11
9698.2103304999891
 21
14796.020465
 31
0.0
  0
LINE
  5
3294
  8
0-6
  6
CONTINUOUS
 62
     6
 10
11239.1874205
 20
14091.18360299999
 30
0.0
 11
11132.91894549998
 21
14213.731638999991
 31
0.0
  0
LINE
  5
3295
  8
0-6
  6
CONTINUOUS
 62
     6
 10
11132.91894549998
 20
14213.731638999991
 30
0.0
 11
11193.698083499979
 21
14063.341673999999
 31
0.0
  0
LINE
  5
3296
  8
0-6
  6
CONTINUOUS
 62
     6
 10
11132.91894549998
 20
14213.731638999991
 30
0.0
 11
11239.1874205
 21
14091.18360299999
 31
0.0
  0
LINE
  5
3297
  8
0-6
  6
CONTINUOUS
 62
     6
 10
11239.1874205
 20
14091.18360299999
 30
0.0
 11
11193.698083499979
 21
14063.341673999999
 31
0.0
  0
LINE
  5
3298
  8
0-6
  6
CONTINUOUS
 62
     6
 10
11193.698083499979
 20
14063.341673999999
 30
0.0
 11
11132.91894549998
 21
14213.731638999991
 31
0.0
  0
LINE
  5
3299
  8
0-6
  6
CONTINUOUS
 62
     6
 10
11193.698083499979
 20
14063.341673999999
 30
0.0
 11
11239.1874205
 21
14091.18360299999
 31
0.0
  0
LINE
  5
329A
  8
0-6
  6
CONTINUOUS
 62
     6
 10
10590.099318500001
 20
14611.933577
 30
0.0
 11
10546.375712499999
 21
14455.730755
 31
0.0
  0
LINE
  5
329B
  8
0-6
  6
CONTINUOUS
 62
     6
 10
10546.375712499999
 20
14455.730755
 30
0.0
 11
10638.395613500001
 21
14589.30866899998
 31
0.0
  0
LINE
  5
329C
  8
0-6
  6
CONTINUOUS
 62
     6
 10
10546.375712499999
 20
14455.730755
 30
0.0
 11
10590.099318500001
 21
14611.933577
 31
0.0
  0
LINE
  5
329D
  8
0-6
  6
CONTINUOUS
 62
     6
 10
10590.099318500001
 20
14611.933577
 30
0.0
 11
10638.395613500001
 21
14589.30866899998
 31
0.0
  0
LINE
  5
329E
  8
0-6
  6
CONTINUOUS
 62
     6
 10
10638.395613500001
 20
14589.30866899998
 30
0.0
 11
10546.375712499999
 21
14455.730755
 31
0.0
  0
LINE
  5
329F
  8
0-6
  6
CONTINUOUS
 62
     6
 10
10638.395613500001
 20
14589.30866899998
 30
0.0
 11
10590.099318500001
 21
14611.933577
 31
0.0
  0
LINE
  5
32A0
  8
0-6
  6
CONTINUOUS
 62
     6
 10
12288.2827805
 20
15745.765766
 30
0.0
 11
12360.65991849998
 21
15600.60173
 31
0.0
  0
LINE
  5
32A1
  8
0-6
  6
CONTINUOUS
 62
     6
 10
12360.65991849998
 20
15600.60173
 30
0.0
 11
12245.111459499991
 21
15714.444834
 31
0.0
  0
LINE
  5
32A2
  8
0-6
  6
CONTINUOUS
 62
     6
 10
12360.65991849998
 20
15600.60173
 30
0.0
 11
12288.2827805
 21
15745.765766
 31
0.0
  0
LINE
  5
32A3
  8
0-6
  6
CONTINUOUS
 62
     6
 10
12288.2827805
 20
15745.765766
 30
0.0
 11
12245.111459499991
 21
15714.444834
 31
0.0
  0
LINE
  5
32A4
  8
0-6
  6
CONTINUOUS
 62
     6
 10
12245.111459499991
 20
15714.444834
 30
0.0
 11
12360.65991849998
 21
15600.60173
 31
0.0
  0
LINE
  5
32A5
  8
0-6
  6
CONTINUOUS
 62
     6
 10
12245.111459499991
 20
15714.444834
 30
0.0
 11
12288.2827805
 21
15745.765766
 31
0.0
  0
LINE
  5
32A6
  8
0-6
  6
CONTINUOUS
 62
     6
 10
9939.9768524999836
 20
18743.352800000001
 30
0.0
 11
9850.1601554999852
 21
18878.423271
 31
0.0
  0
LINE
  5
32A7
  8
0-6
  6
CONTINUOUS
 62
     6
 10
9850.1601554999852
 20
18878.423271
 30
0.0
 11
9891.314347499987
 21
18721.524648999999
 31
0.0
  0
LINE
  5
32A8
  8
0-6
  6
CONTINUOUS
 62
     6
 10
9850.1601554999852
 20
18878.423271
 30
0.0
 11
9939.9768524999836
 21
18743.352800000001
 31
0.0
  0
LINE
  5
32A9
  8
0-6
  6
CONTINUOUS
 62
     6
 10
9939.9768524999836
 20
18743.352800000001
 30
0.0
 11
9891.314347499987
 21
18721.524648999999
 31
0.0
  0
LINE
  5
32AA
  8
0-6
  6
CONTINUOUS
 62
     6
 10
9891.314347499987
 20
18721.524648999999
 30
0.0
 11
9850.1601554999852
 21
18878.423271
 31
0.0
  0
LINE
  5
32AB
  8
0-6
  6
CONTINUOUS
 62
     6
 10
9891.314347499987
 20
18721.524648999999
 30
0.0
 11
9939.9768524999836
 21
18743.352800000001
 31
0.0
  0
LINE
  5
32AC
  8
0-6
  6
CONTINUOUS
 62
     6
 10
10713.7044185
 20
16628.056003999991
 30
0.0
 11
10616.506096499999
 21
16498.195626000001
 31
0.0
  0
LINE
  5
32AD
  8
0-6
  6
CONTINUOUS
 62
     6
 10
10616.506096499999
 20
16498.195626000001
 30
0.0
 11
10750.5670135
 21
16589.513787
 31
0.0
  0
LINE
  5
32AE
  8
0-6
  6
CONTINUOUS
 62
     6
 10
10616.506096499999
 20
16498.195626000001
 30
0.0
 11
10713.7044185
 21
16628.056003999991
 31
0.0
  0
LINE
  5
32AF
  8
0-6
  6
CONTINUOUS
 62
     6
 10
10713.7044185
 20
16628.056003999991
 30
0.0
 11
10750.5670135
 21
16589.513787
 31
0.0
  0
LINE
  5
32B0
  8
0-6
  6
CONTINUOUS
 62
     6
 10
10750.5670135
 20
16589.513787
 30
0.0
 11
10616.506096499999
 21
16498.195626000001
 31
0.0
  0
LINE
  5
32B1
  8
0-6
  6
CONTINUOUS
 62
     6
 10
10750.5670135
 20
16589.513787
 30
0.0
 11
10713.7044185
 21
16628.056003999991
 31
0.0
  0
LINE
  5
32B2
  8
0-6
  6
CONTINUOUS
 62
     6
 10
11568.207162500001
 20
17519.393629999991
 30
0.0
 11
11586.573136499999
 21
17358.231124999991
 31
0.0
  0
LINE
  5
32B3
  8
0-6
  6
CONTINUOUS
 62
     6
 10
11586.573136499999
 20
17358.231124999991
 30
0.0
 11
11516.933672499999
 21
17504.727376999981
 31
0.0
  0
LINE
  5
32B4
  8
0-6
  6
CONTINUOUS
 62
     6
 10
11586.573136499999
 20
17358.231124999991
 30
0.0
 11
11568.207162500001
 21
17519.393629999991
 31
0.0
  0
LINE
  5
32B5
  8
0-6
  6
CONTINUOUS
 62
     6
 10
11568.207162500001
 20
17519.393629999991
 30
0.0
 11
11516.933672499999
 21
17504.727376999981
 31
0.0
  0
LINE
  5
32B6
  8
0-6
  6
CONTINUOUS
 62
     6
 10
11516.933672499999
 20
17504.727376999981
 30
0.0
 11
11586.573136499999
 21
17358.231124999991
 31
0.0
  0
LINE
  5
32B7
  8
0-6
  6
CONTINUOUS
 62
     6
 10
11516.933672499999
 20
17504.727376999981
 30
0.0
 11
11568.207162500001
 21
17519.393629999991
 31
0.0
  0
LINE
  5
32B8
  8
0-6
  6
CONTINUOUS
 62
     6
 10
11014.775337499999
 20
20059.906854000001
 30
0.0
 11
11121.47336849999
 21
19937.730967
 31
0.0
  0
LINE
  5
32B9
  8
0-6
  6
CONTINUOUS
 62
     6
 10
11121.47336849999
 20
19937.730967
 30
0.0
 11
11060.1676785
 21
20087.907144000001
 31
0.0
  0
LINE
  5
32BA
  8
0-6
  6
CONTINUOUS
 62
     6
 10
11121.47336849999
 20
19937.730967
 30
0.0
 11
11014.775337499999
 21
20059.906854000001
 31
0.0
  0
LINE
  5
32BB
  8
0-6
  6
CONTINUOUS
 62
     6
 10
11014.775337499999
 20
20059.906854000001
 30
0.0
 11
11060.1676785
 21
20087.907144000001
 31
0.0
  0
LINE
  5
32BC
  8
0-6
  6
CONTINUOUS
 62
     6
 10
11060.1676785
 20
20087.907144000001
 30
0.0
 11
11121.47336849999
 21
19937.730967
 31
0.0
  0
LINE
  5
32BD
  8
0-6
  6
CONTINUOUS
 62
     6
 10
11060.1676785
 20
20087.907144000001
 30
0.0
 11
11014.775337499999
 21
20059.906854000001
 31
0.0
  0
LINE
  5
32BE
  8
0-6
  6
CONTINUOUS
 62
     6
 10
11046.5565085
 20
20221.635502000001
 30
0.0
 11
11143.20848249998
 21
20104.230254999991
 31
0.0
  0
LINE
  5
32BF
  8
0-6
  6
CONTINUOUS
 62
     6
 10
11143.20848249998
 20
20104.230254999991
 30
0.0
 11
11089.856497500001
 21
20246.634841999989
 31
0.0
  0
LINE
  5
32C0
  8
0-6
  6
CONTINUOUS
 62
     6
 10
11143.20848249998
 20
20104.230254999991
 30
0.0
 11
11046.5565085
 21
20221.635502000001
 31
0.0
  0
LINE
  5
32C1
  8
0-6
  6
CONTINUOUS
 62
     6
 10
11046.5565085
 20
20221.635502000001
 30
0.0
 11
11089.856497500001
 21
20246.634841999989
 31
0.0
  0
LINE
  5
32C2
  8
0-6
  6
CONTINUOUS
 62
     6
 10
11089.856497500001
 20
20246.634841999989
 30
0.0
 11
11143.20848249998
 21
20104.230254999991
 31
0.0
  0
LINE
  5
32C3
  8
0-6
  6
CONTINUOUS
 62
     6
 10
11089.856497500001
 20
20246.634841999989
 30
0.0
 11
11046.5565085
 21
20221.635502000001
 31
0.0
  0
LINE
  5
32C4
  8
0-6
  6
CONTINUOUS
 62
     6
 10
11508.73252749998
 20
19838.353196
 30
0.0
 11
11496.227908499979
 21
19676.628507000001
 31
0.0
  0
LINE
  5
32C5
  8
0-6
  6
CONTINUOUS
 62
     6
 10
11496.227908499979
 20
19676.628507000001
 30
0.0
 11
11560.5068355
 21
19825.557588
 31
0.0
  0
LINE
  5
32C6
  8
0-6
  6
CONTINUOUS
 62
     6
 10
11496.227908499979
 20
19676.628507000001
 30
0.0
 11
11508.73252749998
 21
19838.353196
 31
0.0
  0
LINE
  5
32C7
  8
0-6
  6
CONTINUOUS
 62
     6
 10
11508.73252749998
 20
19838.353196
 30
0.0
 11
11560.5068355
 21
19825.557588
 31
0.0
  0
LINE
  5
32C8
  8
0-6
  6
CONTINUOUS
 62
     6
 10
11560.5068355
 20
19825.557588
 30
0.0
 11
11496.227908499979
 21
19676.628507000001
 31
0.0
  0
LINE
  5
32C9
  8
0-6
  6
CONTINUOUS
 62
     6
 10
11560.5068355
 20
19825.557588
 30
0.0
 11
11508.73252749998
 21
19838.353196
 31
0.0
  0
LINE
  5
32CA
  8
0-6
  6
CONTINUOUS
 62
     6
 10
14458.34591349999
 20
20248.03832
 30
0.0
 11
14366.66055149999
 21
20114.230781999999
 31
0.0
  0
LINE
  5
32CB
  8
0-6
  6
CONTINUOUS
 62
     6
 10
14366.66055149999
 20
20114.230781999999
 30
0.0
 11
14496.7901435
 21
20211.070811000009
 31
0.0
  0
LINE
  5
32CC
  8
0-6
  6
CONTINUOUS
 62
     6
 10
14366.66055149999
 20
20114.230781999999
 30
0.0
 11
14458.34591349999
 21
20248.03832
 31
0.0
  0
LINE
  5
32CD
  8
0-6
  6
CONTINUOUS
 62
     6
 10
14458.34591349999
 20
20248.03832
 30
0.0
 11
14496.7901435
 21
20211.070811000009
 31
0.0
  0
LINE
  5
32CE
  8
0-6
  6
CONTINUOUS
 62
     6
 10
14496.7901435
 20
20211.070811000009
 30
0.0
 11
14366.66055149999
 21
20114.230781999999
 31
0.0
  0
LINE
  5
32CF
  8
0-6
  6
CONTINUOUS
 62
     6
 10
14496.7901435
 20
20211.070811000009
 30
0.0
 11
14458.34591349999
 21
20248.03832
 31
0.0
  0
LINE
  5
32D0
  8
2-0
  6
DASHED3
 62
     6
 10
9850.1601554999852
 20
19852.730438999992
 30
0.0
 11
14284.16015549998
 21
19852.730438999992
 31
0.0
  0
LINE
  5
32D1
  8
2-0
  6
DASHED3
 62
     6
 10
9807.6618714999822
 20
19638.18031800001
 30
0.0
 11
9807.6618714999822
 21
19937.730967
 31
0.0
  0
LINE
  5
32D2
  8
2-0
  6
DASHED3
 62
     6
 10
9850.1601554999852
 20
19615.696946
 30
0.0
 11
9850.1601554999852
 21
19937.730967
 31
0.0
  0
LINE
  5
32D3
  8
2-0
  6
DASHED3
 62
     6
 10
9807.6618714999822
 20
19937.730967
 30
0.0
 11
14326.658439500001
 21
19937.730967
 31
0.0
  0
LINE
  5
32D4
  8
2-0
  6
DASHED3
 62
     6
 10
14214.158439500001
 20
17324.230914
 30
0.0
 11
12487.657912499981
 21
19891.730914
 31
0.0
  0
LINE
  5
32D5
  8
0-7
  6
CONTINUOUS
 62
     6
 10
14170.442751499981
 20
17279.230518
 30
0.0
 11
14284.16015549998
 21
17279.230518
 31
0.0
  0
LINE
  5
32D6
  8
0-7
  6
CONTINUOUS
 62
     6
 10
14012.6117235
 20
17358.231124999991
 30
0.0
 11
14284.16015549998
 21
17358.231124999991
 31
0.0
  0
LINE
  5
32D7
  8
2-0
  6
DASHED3
 62
     6
 10
14284.16015549998
 20
17219.07294799999
 30
0.0
 11
14284.16015549998
 21
19937.730967
 31
0.0
  0
LINE
  5
32D8
  8
2-0
  6
DASHED3
 62
     6
 10
14326.658439500001
 20
17196.589575999991
 30
0.0
 11
14326.658439500001
 21
19937.730967
 31
0.0
  0
LINE
  5
32D9
  8
2-0
  6
DASHED3
 62
     6
 10
9920.1618714999859
 20
19891.730914
 30
0.0
 11
10521.6000575
 21
19265.518129
 31
0.0
  0
LINE
  5
32DA
  8
2-0
  6
DASHED3
 62
     6
 10
11344.311734499979
 20
18830.28929700001
 30
0.0
 11
12347.658440499999
 21
19891.730914
 31
0.0
  0
LINE
  5
32DB
  8
0-7
  6
CONTINUOUS
 62
     6
 10
14214.158439500001
 20
17324.230914
 30
0.0
 11
14183.4956965
 21
17272.325957000001
 31
0.0
  0
LINE
  5
32DC
  8
2-0
  6
DASHED3
 62
     6
 10
12904.283229500001
 20
17954.057377000008
 30
0.0
 11
14214.158439500001
 21
19891.730914
 31
0.0
  0
LINE
  5
32DD
  8
2-0
  6
CENTER2
 62
     6
 10
14284.16015549998
 20
21134.229199000009
 30
0.0
 11
14284.16015549998
 21
20184.230518
 31
0.0
  0
LINE
  5
32DE
  8
2-0
  6
CENTER2
 62
     6
 10
12417.66015549998
 20
21134.229199000009
 30
0.0
 11
12417.66015549998
 21
20184.230518
 31
0.0
  0
LINE
  5
32DF
  8
2-0
  6
CENTER2
 62
     6
 10
8520.6620154999855
 20
19891.730914
 30
0.0
 11
10167.15828149998
 21
19891.730914
 31
0.0
  0
LINE
  5
32E0
  8
2-0
  6
CENTER2
 62
     6
 10
9850.1601554999852
 20
21134.229199000009
 30
0.0
 11
9850.1601554999852
 21
20184.230518
 31
0.0
  0
LINE
  5
32E1
  8
2-0
  6
CENTER2
 62
     6
 10
8520.6620154999855
 20
17324.230914
 30
0.0
 11
10167.15828149998
 21
17324.230914
 31
0.0
  0
LINE
  5
32E2
  8
2-0
  6
CENTER2
 62
     6
 10
8520.6620154999855
 20
14406.230913999991
 30
0.0
 11
10167.15828149998
 21
14406.230913999991
 31
0.0
  0
LINE
  5
32E3
  8
2-0
  6
CENTER2
 62
     6
 10
13958.66192449998
 20
17324.230914
 30
0.0
 11
14582.92691549998
 21
17324.230914
 31
0.0
  0
LINE
  5
32E4
  8
2-0
  6
CENTER2
 62
     6
 10
13958.66192449998
 20
14406.230913999991
 30
0.0
 11
14582.92691549998
 21
14406.230913999991
 31
0.0
  0
LINE
  5
32E5
  8
2-0
  6
DASHED3
 62
     6
 10
12360.65991849998
 20
18322.321075
 30
0.0
 11
12360.65991849998
 21
19852.730438999992
 31
0.0
  0
LINE
  5
32E6
  8
2-0
  6
DASHED3
 62
     6
 10
12417.66015549998
 20
18234.456183999999
 30
0.0
 11
12417.66015549998
 21
19852.730438999992
 31
0.0
  0
LINE
  5
32E7
  8
2-0
  6
DASHED3
 62
     6
 10
12474.656434500001
 20
18146.593271999998
 30
0.0
 11
12474.656434500001
 21
19852.730438999992
 31
0.0
  0
CIRCLE
  5
32E8
  8
0-1
  6
CONTINUOUS
 62
     4
 10
12417.66015549998
 20
21334.22788000002
 30
0.0
 40
199.9999949999999
  0
CIRCLE
  5
32E9
  8
0-1
  6
CONTINUOUS
 62
     4
 10
9850.1601554999852
 20
21334.22788000002
 30
0.0
 40
199.9999949999999
  0
CIRCLE
  5
32EA
  8
0-1
  6
CONTINUOUS
 62
     4
 10
8320.6653154999894
 20
19891.730914
 30
0.0
 40
199.9999949999999
  0
CIRCLE
  5
32EB
  8
0-1
  6
CONTINUOUS
 62
     4
 10
8320.6653154999894
 20
17324.230914
 30
0.0
 40
199.9999949999999
  0
CIRCLE
  5
32EC
  8
0-1
  6
CONTINUOUS
 62
     4
 10
8320.6653154999894
 20
14406.230913999991
 30
0.0
 40
199.9999949999999
  0
CIRCLE
  5
32ED
  8
0-1
  6
CONTINUOUS
 62
     4
 10
14284.16015549998
 20
21334.229859000021
 30
0.0
 40
199.9999949999999
  0
ARC
  5
32EE
  8
0-2
  6
CONTINUOUS
 62
     3
 10
9769.6600234999878
 20
20109.230518
 30
0.0
 40
5.0
 50
90.0
 51
180.0
  0
ARC
  5
32EF
  8
0-2
  6
CONTINUOUS
 62
     3
 10
9833.1629794999881
 20
20109.230518
 30
0.0
 40
5.0
 50
0.0
 51
90.0
  0
ARC
  5
32F0
  8
0-2
  6
CONTINUOUS
 62
     3
 10
9833.1629794999881
 20
20079.230914
 30
0.0
 40
5.0
 50
269.9999850001808
 51
0.0
  0
ARC
  5
32F1
  8
0-2
  6
CONTINUOUS
 62
     3
 10
14301.16129049998
 20
20079.230914
 30
0.0
 40
5.0
 50
180.0
 51
269.9999850001808
  0
ARC
  5
32F2
  8
0-2
  6
CONTINUOUS
 62
     3
 10
14301.16129049998
 20
20109.230518
 30
0.0
 40
5.0
 50
90.0
 51
180.0
  0
ARC
  5
32F3
  8
0-2
  6
CONTINUOUS
 62
     3
 10
14364.660287500001
 20
20109.230518
 30
0.0
 40
5.0
 50
0.0
 51
90.0
  0
TEXT
  5
32F4
  8
0-1
  6
CONTINUOUS
 62
     7
 10
14234.18720849998
 20
21244.361695000011
 30
0.0
 40
160.0
  1
3
 72
     4
 11
14287.520541833321
 21
21324.361695000011
 31
0.0
  0
TEXT
  5
32F5
  8
0-1
  6
CONTINUOUS
 62
     7
 10
12369.291609499989
 20
21236.926623000021
 30
0.0
 40
160.0
  1
2
 72
     4
 11
12422.62494283333
 21
21316.926623000021
 31
0.0
  0
TEXT
  5
32F6
  8
0-1
  6
CONTINUOUS
 62
     7
 10
9796.9447574999922
 20
21245.826539000009
 30
0.0
 40
160.0
  1
1
 72
     4
 11
9823.6114241666583
 21
21325.826539000009
 31
0.0
  0
TEXT
  5
32F7
  8
0-1
  6
CONTINUOUS
 62
     7
 10
8276.4290134999919
 20
19802.329916999988
 30
0.0
 40
160.0
  1
C
 72
     4
 11
8329.7623468333259
 21
19882.329916999988
 31
0.0
  0
TEXT
  5
32F8
  8
0-1
  6
CONTINUOUS
 62
     7
 10
8276.4290134999919
 20
17234.829915999991
 30
0.0
 40
160.0
  1
B
 72
     4
 11
8329.7623468333259
 21
17314.829915999991
 31
0.0
  0
TEXT
  5
32F9
  8
0-1
  6
CONTINUOUS
 62
     7
 10
8276.4290134999919
 20
14316.831894999999
 30
0.0
 40
160.0
  1
A
 72
     4
 11
8329.7623468333259
 21
14396.831894999999
 31
0.0
  0
TEXT
  5
32FA
  8
0-6
  6
CONTINUOUS
 62
     7
 10
11758.52203849999
 20
20424.231309999999
 30
0.0
 40
160.0
  1
屋根
 72
     4
 11
11929.18870516666
 21
20504.231309999999
 31
0.0
  0
TEXT
  5
32FB
  8
0-6
  6
CONTINUOUS
 62
     7
 10
10668.951461500001
 20
21144.23170600001
 30
0.0
 40
160.0
  1
鼻隠し後
 72
     4
 11
11031.61812816667
 21
21224.23170600001
 31
0.0
  0
TEXT
  5
32FC
  8
0-6
  6
CONTINUOUS
 62
     7
 10
10107.5441565
 20
20424.231309999999
 30
0.0
 40
160.0
  1
桁（後）
 72
     4
 11
10427.5441565
 21
20504.231309999999
 31
0.0
  0
TEXT
  5
32FD
  8
0-6
  6
CONTINUOUS
 62
     7
 10
10761.4226925
 20
17763.326802000011
 30
0.0
 40
160.0
  1
桁（中）
 72
     4
 11
11081.4226925
 21
17843.326802000011
 31
0.0
  0
TEXT
  5
32FE
  8
0-6
  6
CONTINUOUS
 62
     7
 10
10777.1361115
 20
14867.55729699999
 30
0.0
 40
160.0
  1
桁（前）
 72
     4
 11
11097.1361115
 21
14947.55729699999
 31
0.0
  0
TEXT
  5
32FF
  8
0-6
  6
CONTINUOUS
 62
     7
 10
11702.555109499999
 20
13493.731244000001
 30
0.0
 40
160.0
  1
鼻隠し前
 72
     4
 11
12065.221776166671
 21
13573.731244000001
 31
0.0
  0
TEXT
  5
3300
  8
0-6
  6
CONTINUOUS
 62
     7
 10
8114.262906499991
 20
13093.72992399999
 30
0.0
 40
160.0
  1
ケラバ 左
 72
     4
 11
8530.2629064999892
 21
13173.72992399999
 31
0.0
  0
TEXT
  5
3301
  8
0-6
  6
CONTINUOUS
 62
     7
 10
10094.688106499971
 20
18591.646454999991
 30
0.0
 40
160.0
  1
上枠
 72
     4
 11
10265.35477316664
 21
18671.646454999991
 31
0.0
  0
TEXT
  5
3302
  8
0-6
  6
CONTINUOUS
 62
     7
 10
11023.400100499999
 20
16890.846992999999
 30
0.0
 40
160.0
  1
ブレース
 72
     4
 11
11386.066767166671
 21
16976.180326333331
 31
0.0
  0
TEXT
  5
3303
  8
0-6
  6
CONTINUOUS
 62
     7
 10
11865.47542749997
 20
16049.56149299999
 30
0.0
 40
160.0
  1
梁
 72
     4
 11
11940.14209416664
 21
16129.56149299999
 31
0.0
  0
TEXT
  5
3304
  8
0-6
  6
CONTINUOUS
 62
     7
 10
15336.46035549999
 20
21069.896823999999
 30
0.0
 40
160.0
  1
鼻隠しコーナー後
 72
     4
 11
16083.12702216666
 21
21149.896823999999
 31
0.0
  0
TEXT
  5
3305
  8
2-0
  6
CONTINUOUS
 62
     7
 10
11085.30360549997
 20
12148.90618911071
 30
0.0
 40
160.0
  1
小 屋 伏 図
 50
359.99980699999981
 72
     4
 11
11586.637208309299
 21
12228.90450037622
 31
0.0
  0
TEXT
  5
330D
  8
2-0
  6
CONTINUOUS
 62
     7
 10
12938.12939344694
 20
12176.09986937623
 30
0.0
 40
160.0
  1
1
 72
     4
 11
12964.796060113609
 21
12256.09986937623
 31
0.0
  0
TEXT
  5
330E
  8
2-0
  6
CONTINUOUS
 62
     7
 10
13181.21811069763
 20
12096.101337376231
 30
0.0
 40
160.0
  1
80
 72
     4
 11
13301.21811069763
 21
12176.101337376231
 31
0.0
  0
TEXT
  5
330F
  8
2-0
  6
CONTINUOUS
 62
     7
 10
12439.131359446939
 20
12148.90450037622
 30
0.0
 40
160.0
  1
(S=  /   )
 72
     4
 11
12999.131359446939
 21
12228.90450037622
 31
0.0
  0
LINE
  5
3310
  8
0-1
  6
CONTINUOUS
 62
     3
 10
8789.3756595000086
 20
8526.8256480000018
 30
0.0
 11
14319.874076499989
 21
8526.8256480000018
 31
0.0
  0
LINE
  5
3311
  8
0-1
  6
CONTINUOUS
 62
     3
 10
8079.3748015000074
 20
6515.7797690000016
 30
0.0
 11
14352.373878500001
 21
6515.7797690000016
 31
0.0
  0
LINE
  5
3312
  8
0-1
  6
CONTINUOUS
 62
     3
 10
8884.3747355000087
 20
6665.7797690000016
 30
0.0
 11
11306.8740105
 21
6665.7797690000016
 31
0.0
  0
LINE
  5
3313
  8
0-1
  6
CONTINUOUS
 62
     3
 10
8761.8738785000005
 20
6615.7796040000021
 30
0.0
 11
14352.373878500001
 21
6615.7796040000021
 31
0.0
  0
LINE
  5
3314
  8
0-1
  6
CONTINUOUS
 62
     3
 10
8884.3747355000087
 20
8526.8256480000018
 30
0.0
 11
8884.3747355000087
 21
6615.7796040000021
 31
0.0
  0
LINE
  5
3315
  8
0-1
  6
CONTINUOUS
 62
     3
 10
8769.3746035000058
 20
8648.7936849999969
 30
0.0
 11
8769.3746035000058
 21
6615.7796040000021
 31
0.0
  0
LINE
  5
3316
  8
0-1
  6
CONTINUOUS
 62
     3
 10
8789.3756595000086
 20
8649.4489060000051
 30
0.0
 11
8789.3756595000086
 21
6615.7796040000021
 31
0.0
  0
LINE
  5
3317
  8
0-1
  6
CONTINUOUS
 62
     3
 10
8761.8738785000005
 20
6515.7797690000016
 30
0.0
 11
8761.8738785000005
 21
6615.7796040000021
 31
0.0
  0
LINE
  5
3318
  8
0-1
  6
CONTINUOUS
 62
     3
 10
14415.00776049999
 20
8833.2689810000029
 30
0.0
 11
14410.747836500001
 21
8963.198642000003
 31
0.0
  0
LINE
  5
3319
  8
0-1
  6
CONTINUOUS
 62
     3
 10
11451.873746499999
 20
6665.7797690000016
 30
0.0
 11
14224.874010499991
 21
6665.7797690000016
 31
0.0
  0
LINE
  5
331A
  8
0-1
  6
CONTINUOUS
 62
     3
 10
10915.373732499969
 20
6665.7797690000016
 30
0.0
 11
10915.373732499969
 21
8526.8256480000018
 31
0.0
  0
LINE
  5
331B
  8
0-1
  6
CONTINUOUS
 62
     3
 10
10782.3748285
 20
6665.7797690000016
 30
0.0
 11
10782.3748285
 21
8526.8256480000018
 31
0.0
  0
LINE
  5
331C
  8
0-1
  6
CONTINUOUS
 62
     3
 10
10767.373046500001
 20
6665.7797690000016
 30
0.0
 11
10767.373046500001
 21
8526.8256480000018
 31
0.0
  0
LINE
  5
331D
  8
0-1
  6
CONTINUOUS
 62
     3
 10
10965.37538249998
 20
6665.7797690000016
 30
0.0
 11
10965.37538249998
 21
8526.8256480000018
 31
0.0
  0
LINE
  5
331E
  8
0-1
  6
CONTINUOUS
 62
     3
 10
10985.374458499989
 20
6665.7797690000016
 30
0.0
 11
10985.374458499989
 21
8526.8256480000018
 31
0.0
  0
LINE
  5
331F
  8
0-1
  6
CONTINUOUS
 62
     3
 10
11035.3751185
 20
6665.7797690000016
 30
0.0
 11
11035.3751185
 21
8526.8256480000018
 31
0.0
  0
LINE
  5
3320
  8
0-1
  6
CONTINUOUS
 62
     3
 10
11168.3740235
 20
6665.7797690000016
 30
0.0
 11
11168.3740235
 21
8526.8256480000018
 31
0.0
  0
LINE
  5
3321
  8
0-1
  6
CONTINUOUS
 62
     3
 10
11183.3728355
 20
6665.7797690000016
 30
0.0
 11
11183.3728355
 21
8526.8256480000018
 31
0.0
  0
LINE
  5
3322
  8
0-1
  6
CONTINUOUS
 62
     3
 10
11451.873746499999
 20
8526.8256480000018
 30
0.0
 11
11451.873746499999
 21
6615.7796040000021
 31
0.0
  0
LINE
  5
3323
  8
0-1
  6
CONTINUOUS
 62
     3
 10
11306.8740105
 20
8526.8256480000018
 30
0.0
 11
11306.8740105
 21
6615.7796040000021
 31
0.0
  0
LINE
  5
3324
  8
0-1
  6
CONTINUOUS
 62
     3
 10
11575.372941499991
 20
6665.7797690000016
 30
0.0
 11
11575.372941499991
 21
8526.8256480000018
 31
0.0
  0
LINE
  5
3325
  8
0-1
  6
CONTINUOUS
 62
     3
 10
11590.374722500001
 20
6665.7797690000016
 30
0.0
 11
11590.374722500001
 21
8526.8256480000018
 31
0.0
  0
LINE
  5
3326
  8
0-1
  6
CONTINUOUS
 62
     3
 10
11723.373627499999
 20
6665.7797690000016
 30
0.0
 11
11723.373627499999
 21
8526.8256480000018
 31
0.0
  0
LINE
  5
3327
  8
0-1
  6
CONTINUOUS
 62
     3
 10
11773.37428749999
 20
6665.7797690000016
 30
0.0
 11
11773.37428749999
 21
8526.8256480000018
 31
0.0
  0
LINE
  5
3328
  8
0-1
  6
CONTINUOUS
 62
     3
 10
11793.373363500001
 20
6665.7797690000016
 30
0.0
 11
11793.373363500001
 21
8526.8256480000018
 31
0.0
  0
LINE
  5
3329
  8
0-1
  6
CONTINUOUS
 62
     3
 10
9565.3737324999875
 20
6665.7797690000016
 30
0.0
 11
9565.3737324999875
 21
8526.8256480000018
 31
0.0
  0
LINE
  5
332A
  8
0-1
  6
CONTINUOUS
 62
     3
 10
9585.3757785000034
 20
6665.7797690000016
 30
0.0
 11
9585.3757785000034
 21
8526.8256480000018
 31
0.0
  0
LINE
  5
332B
  8
0-1
  6
CONTINUOUS
 62
     3
 10
9515.3730734999917
 20
6665.7797690000016
 30
0.0
 11
9515.3730734999917
 21
8526.8256480000018
 31
0.0
  0
LINE
  5
332C
  8
0-1
  6
CONTINUOUS
 62
     3
 10
9635.3734695000021
 20
6665.7797690000016
 30
0.0
 11
9635.3734695000021
 21
8526.8256480000018
 31
0.0
  0
LINE
  5
332D
  8
0-1
  6
CONTINUOUS
 62
     3
 10
9768.3733635000044
 20
6665.7797690000016
 30
0.0
 11
9768.3733635000044
 21
8526.8256480000018
 31
0.0
  0
LINE
  5
332E
  8
0-1
  6
CONTINUOUS
 62
     3
 10
9783.375145500002
 20
6665.7797690000016
 30
0.0
 11
9783.375145500002
 21
8526.8256480000018
 31
0.0
  0
LINE
  5
332F
  8
0-1
  6
CONTINUOUS
 62
     3
 10
9372.8743925000072
 20
6665.7797690000016
 30
0.0
 11
9372.8743925000072
 21
8526.8256480000018
 31
0.0
  0
LINE
  5
3330
  8
0-1
  6
CONTINUOUS
 62
     3
 10
9357.8755805000092
 20
6665.7797690000016
 30
0.0
 11
9357.8755805000092
 21
8526.8256480000018
 31
0.0
  0
LINE
  5
3331
  8
0-1
  6
CONTINUOUS
 62
     3
 10
10067.37370649998
 20
6665.7797690000016
 30
0.0
 11
10067.37370649998
 21
8526.8256480000018
 31
0.0
  0
LINE
  5
3332
  8
0-1
  6
CONTINUOUS
 62
     3
 10
10082.37251849998
 20
6665.7797690000016
 30
0.0
 11
10082.37251849998
 21
8526.8256480000018
 31
0.0
  0
LINE
  5
3333
  8
0-1
  6
CONTINUOUS
 62
     3
 10
10483.3744855
 20
6665.7797690000016
 30
0.0
 11
10483.3744855
 21
8526.8256480000018
 31
0.0
  0
LINE
  5
3334
  8
0-1
  6
CONTINUOUS
 62
     3
 10
10468.37270349999
 20
6665.7797690000016
 30
0.0
 11
10468.37270349999
 21
8526.8256480000018
 31
0.0
  0
LINE
  5
3335
  8
0-1
  6
CONTINUOUS
 62
     3
 10
10335.372809499981
 20
6665.7797690000016
 30
0.0
 11
10335.372809499981
 21
8526.8256480000018
 31
0.0
  0
LINE
  5
3336
  8
0-1
  6
CONTINUOUS
 62
     3
 10
10215.3743925
 20
6665.7797690000016
 30
0.0
 11
10215.3743925
 21
8526.8256480000018
 31
0.0
  0
LINE
  5
3337
  8
0-1
  6
CONTINUOUS
 62
     3
 10
10285.37511849998
 20
6665.7797690000016
 30
0.0
 11
10285.37511849998
 21
8526.8256480000018
 31
0.0
  0
LINE
  5
3338
  8
0-1
  6
CONTINUOUS
 62
     3
 10
10265.37307349999
 20
6665.7797690000016
 30
0.0
 11
10265.37307349999
 21
8526.8256480000018
 31
0.0
  0
LINE
  5
3339
  8
0-1
  6
CONTINUOUS
 62
     3
 10
10606.874669500001
 20
8526.8256480000018
 30
0.0
 11
10606.874669500001
 21
6665.7797690000016
 31
0.0
  0
LINE
  5
333A
  8
0-1
  6
CONTINUOUS
 62
     3
 10
10643.8728625
 20
8526.8256480000018
 30
0.0
 11
10643.8728625
 21
6665.7797690000016
 31
0.0
  0
LINE
  5
333B
  8
0-1
  6
CONTINUOUS
 62
     3
 10
9197.3742345000101
 20
8526.8256480000018
 30
0.0
 11
9197.3742345000101
 21
6665.7797690000016
 31
0.0
  0
LINE
  5
333C
  8
0-1
  6
CONTINUOUS
 62
     3
 10
9234.3744055000116
 20
8526.8256480000018
 30
0.0
 11
9234.3744055000116
 21
6665.7797690000016
 31
0.0
  0
LINE
  5
333D
  8
0-1
  6
CONTINUOUS
 62
     3
 10
9906.8753295000079
 20
8526.8256480000018
 30
0.0
 11
9906.8753295000079
 21
6665.7797690000016
 31
0.0
  0
LINE
  5
333E
  8
0-1
  6
CONTINUOUS
 62
     3
 10
9943.8735214999961
 20
8526.8256480000018
 30
0.0
 11
9943.8735214999961
 21
6665.7797690000016
 31
0.0
  0
LINE
  5
333F
  8
0-1
  6
CONTINUOUS
 62
     3
 10
11379.373878500001
 20
8734.0614480000004
 30
0.0
 11
11375.1129645
 21
8863.9911090000023
 31
0.0
  0
LINE
  5
3340
  8
0-1
  6
CONTINUOUS
 62
     3
 10
11379.373878500001
 20
8734.0614480000004
 30
0.0
 11
11379.373878500001
 21
8526.8256480000018
 31
0.0
  0
LINE
  5
3341
  8
0-1
  6
CONTINUOUS
 62
     3
 10
14224.874010499991
 20
8526.8256480000018
 30
0.0
 11
14224.874010499991
 21
6615.7796040000021
 31
0.0
  0
LINE
  5
3342
  8
0-1
  6
CONTINUOUS
 62
     3
 10
14339.8731525
 20
8830.805470000003
 30
0.0
 11
14339.8731525
 21
6615.7796040000021
 31
0.0
  0
LINE
  5
3343
  8
0-1
  6
CONTINUOUS
 62
     3
 10
14319.874076499989
 20
8830.149260000002
 30
0.0
 11
14319.874076499989
 21
6615.7796040000021
 31
0.0
  0
LINE
  5
3344
  8
0-1
  6
CONTINUOUS
 62
     3
 10
12814.87423449999
 20
8526.8256480000018
 30
0.0
 11
12814.87423449999
 21
6665.7797690000016
 31
0.0
  0
LINE
  5
3345
  8
0-1
  6
CONTINUOUS
 62
     3
 10
12851.87341649999
 20
8526.8256480000018
 30
0.0
 11
12851.87341649999
 21
6665.7797690000016
 31
0.0
  0
LINE
  5
3346
  8
0-1
  6
CONTINUOUS
 62
     3
 10
13524.874670499999
 20
8526.8256480000018
 30
0.0
 11
13524.874670499999
 21
6665.7797690000016
 31
0.0
  0
LINE
  5
3347
  8
0-1
  6
CONTINUOUS
 62
     3
 10
13561.8728625
 20
8526.8256480000018
 30
0.0
 11
13561.8728625
 21
6665.7797690000016
 31
0.0
  0
LINE
  5
3348
  8
0-1
  6
CONTINUOUS
 62
     3
 10
12114.8729145
 20
8526.8256480000018
 30
0.0
 11
12114.8729145
 21
6665.7797690000016
 31
0.0
  0
LINE
  5
3349
  8
0-1
  6
CONTINUOUS
 62
     3
 10
12151.87407649998
 20
8526.8256480000018
 30
0.0
 11
12151.87407649998
 21
6665.7797690000016
 31
0.0
  0
LINE
  5
334A
  8
0-1
  6
CONTINUOUS
 62
     3
 10
12493.372703499999
 20
6665.7797690000016
 30
0.0
 11
12493.372703499999
 21
8526.8256480000018
 31
0.0
  0
LINE
  5
334B
  8
0-1
  6
CONTINUOUS
 62
     3
 10
12473.37362749999
 20
6665.7797690000016
 30
0.0
 11
12473.37362749999
 21
8526.8256480000018
 31
0.0
  0
LINE
  5
334C
  8
0-1
  6
CONTINUOUS
 62
     3
 10
12543.373363500001
 20
6665.7797690000016
 30
0.0
 11
12543.373363500001
 21
8526.8256480000018
 31
0.0
  0
LINE
  5
334D
  8
0-1
  6
CONTINUOUS
 62
     3
 10
12423.37296749999
 20
6665.7797690000016
 30
0.0
 11
12423.37296749999
 21
8526.8256480000018
 31
0.0
  0
LINE
  5
334E
  8
0-1
  6
CONTINUOUS
 62
     3
 10
12290.373073500001
 20
6665.7797690000016
 30
0.0
 11
12290.373073500001
 21
8526.8256480000018
 31
0.0
  0
LINE
  5
334F
  8
0-1
  6
CONTINUOUS
 62
     3
 10
12275.374260500001
 20
6665.7797690000016
 30
0.0
 11
12275.374260500001
 21
8526.8256480000018
 31
0.0
  0
LINE
  5
3350
  8
0-1
  6
CONTINUOUS
 62
     3
 10
12676.37325749999
 20
6665.7797690000016
 30
0.0
 11
12676.37325749999
 21
8526.8256480000018
 31
0.0
  0
LINE
  5
3351
  8
0-1
  6
CONTINUOUS
 62
     3
 10
12691.375039500001
 20
6665.7797690000016
 30
0.0
 11
12691.375039500001
 21
8526.8256480000018
 31
0.0
  0
LINE
  5
3352
  8
0-1
  6
CONTINUOUS
 62
     3
 10
13391.37437949999
 20
6665.7797690000016
 30
0.0
 11
13391.37437949999
 21
8526.8256480000018
 31
0.0
  0
LINE
  5
3353
  8
0-1
  6
CONTINUOUS
 62
     3
 10
13376.3725985
 20
6665.7797690000016
 30
0.0
 11
13376.3725985
 21
8526.8256480000018
 31
0.0
  0
LINE
  5
3354
  8
0-1
  6
CONTINUOUS
 62
     3
 10
12975.37360149999
 20
6665.7797690000016
 30
0.0
 11
12975.37360149999
 21
8526.8256480000018
 31
0.0
  0
LINE
  5
3355
  8
0-1
  6
CONTINUOUS
 62
     3
 10
12990.3743925
 20
6665.7797690000016
 30
0.0
 11
12990.3743925
 21
8526.8256480000018
 31
0.0
  0
LINE
  5
3356
  8
0-1
  6
CONTINUOUS
 62
     3
 10
13123.375277499999
 20
6665.7797690000016
 30
0.0
 11
13123.375277499999
 21
8526.8256480000018
 31
0.0
  0
LINE
  5
3357
  8
0-1
  6
CONTINUOUS
 62
     3
 10
13243.372703499999
 20
6665.7797690000016
 30
0.0
 11
13243.372703499999
 21
8526.8256480000018
 31
0.0
  0
LINE
  5
3358
  8
0-1
  6
CONTINUOUS
 62
     3
 10
13173.3729675
 20
6665.7797690000016
 30
0.0
 11
13173.3729675
 21
8526.8256480000018
 31
0.0
  0
LINE
  5
3359
  8
0-1
  6
CONTINUOUS
 62
     3
 10
13193.37501349999
 20
6665.7797690000016
 30
0.0
 11
13193.37501349999
 21
8526.8256480000018
 31
0.0
  0
LINE
  5
335A
  8
0-1
  6
CONTINUOUS
 62
     3
 10
13903.374459500001
 20
6665.7797690000016
 30
0.0
 11
13903.374459500001
 21
8526.8256480000018
 31
0.0
  0
LINE
  5
335B
  8
0-1
  6
CONTINUOUS
 62
     3
 10
13883.375383500001
 20
6665.7797690000016
 30
0.0
 11
13883.375383500001
 21
8526.8256480000018
 31
0.0
  0
LINE
  5
335C
  8
0-1
  6
CONTINUOUS
 62
     3
 10
13953.37511949999
 20
6665.7797690000016
 30
0.0
 11
13953.37511949999
 21
8526.8256480000018
 31
0.0
  0
LINE
  5
335D
  8
0-1
  6
CONTINUOUS
 62
     3
 10
13833.374723499999
 20
6665.7797690000016
 30
0.0
 11
13833.374723499999
 21
8526.8256480000018
 31
0.0
  0
LINE
  5
335E
  8
0-1
  6
CONTINUOUS
 62
     3
 10
13700.3748285
 20
6665.7797690000016
 30
0.0
 11
13700.3748285
 21
8526.8256480000018
 31
0.0
  0
LINE
  5
335F
  8
0-1
  6
CONTINUOUS
 62
     3
 10
13685.373047499999
 20
6665.7797690000016
 30
0.0
 11
13685.373047499999
 21
8526.8256480000018
 31
0.0
  0
LINE
  5
3360
  8
0-1
  6
CONTINUOUS
 62
     3
 10
14086.37501349999
 20
6665.7797690000016
 30
0.0
 11
14086.37501349999
 21
8526.8256480000018
 31
0.0
  0
LINE
  5
3361
  8
0-1
  6
CONTINUOUS
 62
     3
 10
14101.373825499981
 20
6665.7797690000016
 30
0.0
 11
14101.373825499981
 21
8526.8256480000018
 31
0.0
  0
LINE
  5
3362
  8
0-1
  6
CONTINUOUS
 62
     3
 10
11991.372730499999
 20
6665.7797690000016
 30
0.0
 11
11991.372730499999
 21
8526.8256480000018
 31
0.0
  0
LINE
  5
3363
  8
0-1
  6
CONTINUOUS
 62
     3
 10
11976.373917499999
 20
6665.7797690000016
 30
0.0
 11
11976.373917499999
 21
8526.8256480000018
 31
0.0
  0
LINE
  5
3364
  8
0-1
  6
CONTINUOUS
 62
     3
 10
11843.37501349999
 20
6665.7797690000016
 30
0.0
 11
11843.37501349999
 21
8526.8256480000018
 31
0.0
  0
LINE
  5
3365
  8
0-1
  6
CONTINUOUS
 62
     3
 10
14352.373878500001
 20
6615.7796040000021
 30
0.0
 11
14352.373878500001
 21
6515.7797690000016
 31
0.0
  0
LINE
  5
3366
  8
0-1
  6
CONTINUOUS
 62
     3
 10
8592.0621965000137
 20
8691.0049390000022
 30
0.0
 11
8590.9477275000136
 21
8724.9873349999998
 31
0.0
  0
LINE
  5
3367
  8
0-1
  6
CONTINUOUS
 62
     3
 10
8593.8477225000097
 20
8728.0833020000027
 30
0.0
 11
14424.215490500001
 21
8918.6159240000015
 31
0.0
  0
LINE
  5
3368
  8
0-1
  6
CONTINUOUS
 62
     3
 10
14425.52692149999
 20
8878.6375670000016
 30
0.0
 11
8595.1601425000081
 21
8688.1049450000046
 31
0.0
  0
LINE
  5
3369
  8
0-1
  6
CONTINUOUS
 62
     3
 10
8592.4234584999995
 20
8680.0106930000056
 30
0.0
 11
8592.4204895000057
 21
8680.0760170000012
 31
0.0
  0
LINE
  5
336A
  8
0-1
  6
CONTINUOUS
 62
     3
 10
8592.4204895000057
 20
8680.0760170000012
 30
0.0
 11
8593.4716135000053
 21
8648.0286010000054
 31
0.0
  0
LINE
  5
336B
  8
0-1
  6
CONTINUOUS
 62
     3
 10
8598.6322185000045
 20
8643.1956070000069
 30
0.0
 11
14447.971693499991
 21
8834.3497980000029
 31
0.0
  0
LINE
  5
336C
  8
0-1
  6
CONTINUOUS
 62
     3
 10
14443.710779499999
 20
8964.2794590000049
 30
0.0
 11
8594.3732845000068
 21
8773.1252680000016
 31
0.0
  0
LINE
  5
336D
  8
0-1
  6
CONTINUOUS
 62
     3
 10
8589.5383105000055
 20
8767.963673000002
 30
0.0
 11
8590.5884445000029
 21
8735.981581
 31
0.0
  0
LINE
  5
336E
  8
0-1
  6
CONTINUOUS
 62
     3
 10
8593.6844115000058
 20
8733.0815860000002
 30
0.0
 11
14424.05317049999
 21
8923.614209000003
 31
0.0
  0
LINE
  5
336F
  8
0-1
  6
CONTINUOUS
 62
     3
 10
14425.689242500001
 20
8873.6412620000028
 30
0.0
 11
8595.3224635000097
 21
8683.1076500000017
 31
0.0
  0
LINE
  5
3370
  8
0-1
  6
CONTINUOUS
 62
     3
 10
8606.8650365000067
 20
8773.5350280000057
 30
0.0
 11
8611.1259495000049
 21
8643.6043770000033
 31
0.0
  0
LINE
  5
3371
  8
0-5
  6
CONTINUOUS
 62
     4
 10
17222.747439499992
 20
6723.6262510000033
 30
0.0
 11
17342.745856499991
 21
6515.7797690000016
 31
0.0
  0
LINE
  5
3372
  8
0-5
  6
CONTINUOUS
 62
     4
 10
14432.374142500001
 20
6515.7797690000016
 30
0.0
 11
20015.619536499999
 21
6515.7797690000016
 31
0.0
  0
LINE
  5
3373
  8
0-5
  6
CONTINUOUS
 62
     4
 10
17342.745856499991
 20
6515.7797690000016
 30
0.0
 11
17462.748231499991
 21
6723.6262510000033
 31
0.0
  0
LINE
  5
3374
  8
0-5
  6
CONTINUOUS
 62
     4
 10
17462.748231499991
 20
6723.6262510000033
 30
0.0
 11
17222.747439499992
 21
6723.6262510000033
 31
0.0
  0
LINE
  5
3375
  8
0-5
  6
CONTINUOUS
 62
     4
 10
14432.374142500001
 20
6615.7796040000021
 30
0.0
 11
16149.8340905
 21
6615.7796040000021
 31
0.0
  0
LINE
  5
3376
  8
0-5
  6
CONTINUOUS
 62
     4
 10
16177.460251500001
 20
6823.6255910000036
 30
0.0
 11
15937.4584705
 21
6823.6255910000036
 31
0.0
  0
LINE
  5
3377
  8
0-5
  6
CONTINUOUS
 62
     4
 10
16057.457876500001
 20
6615.7796040000021
 30
0.0
 11
16177.460251500001
 21
6823.6255910000036
 31
0.0
  0
LINE
  5
3378
  8
0-5
  6
CONTINUOUS
 62
     4
 10
15937.4584705
 20
6823.6255910000036
 30
0.0
 11
16057.457876500001
 21
6615.7796040000021
 31
0.0
  0
LINE
  5
3379
  8
2-0
  6
CENTER2
 62
     6
 10
8811.8738785000005
 20
6253.1263570000046
 30
0.0
 11
8811.8738785000005
 21
7310.2694489999967
 31
0.0
  0
LINE
  5
337A
  8
2-0
  6
CENTER2
 62
     6
 10
11379.373878500001
 20
6253.1263570000046
 30
0.0
 11
11379.373878500001
 21
7310.2694489999967
 31
0.0
  0
LINE
  5
337B
  8
2-0
  6
CENTER2
 62
     6
 10
14297.373878500001
 20
6253.1263570000046
 30
0.0
 11
14297.373878500001
 21
7310.2694489999967
 31
0.0
  0
ARC
  5
337C
  8
0-1
  6
CONTINUOUS
 62
     3
 10
8595.2650575000062
 20
8730.6309420000034
 30
0.0
 40
2.5
 50
271.87799100002047
 51
91.877991000020657
  0
ARC
  5
337D
  8
0-1
  6
CONTINUOUS
 62
     3
 10
8596.7397985000061
 20
8685.6562800000029
 30
0.0
 40
2.5
 50
271.87799100002047
 51
91.877991000020657
  0
ARC
  5
337E
  8
0-1
  6
CONTINUOUS
 62
     3
 10
8593.9457085000067
 20
8725.0853210000023
 30
0.0
 40
3.0
 50
91.877991000020657
 51
181.87799100002039
  0
ARC
  5
337F
  8
0-1
  6
CONTINUOUS
 62
     3
 10
14424.871701499989
 20
8898.6267460000035
 30
0.0
 40
20.0
 50
271.87799100002047
 51
91.877991000020657
  0
ARC
  5
3380
  8
0-1
  6
CONTINUOUS
 62
     3
 10
8595.0601775000068
 20
8691.1039149999979
 30
0.0
 40
3.0
 50
181.87799100002039
 51
271.87799100002047
  0
ARC
  5
3381
  8
0-1
  6
CONTINUOUS
 62
     3
 10
8595.4204495000085
 20
8680.1096690000049
 30
0.0
 40
3.0
 50
91.877991000020657
 51
181.87799100002039
  0
ARC
  5
3382
  8
0-1
  6
CONTINUOUS
 62
     3
 10
8598.4689085000082
 20
8648.1919120000057
 30
0.0
 40
5.0
 50
181.87799100002039
 51
271.87799100002047
  0
ARC
  5
3383
  8
0-1
  6
CONTINUOUS
 62
     3
 10
14419.873416500001
 20
8898.4634360000018
 30
0.0
 40
69.999999000000003
 50
293.66478000018742
 51
70.091202000197327
  0
ARC
  5
3384
  8
0-1
  6
CONTINUOUS
 62
     3
 10
8594.5356045000062
 20
8768.1279730000024
 30
0.0
 40
5.0
 50
91.877991000020657
 51
181.87799100002039
  0
ARC
  5
3385
  8
0-1
  6
CONTINUOUS
 62
     3
 10
8593.5854355000029
 20
8736.0795670000025
 30
0.0
 40
3.0
 50
181.87799100002039
 51
271.87799100002047
  0
ARC
  5
3386
  8
0-1
  6
CONTINUOUS
 62
     3
 10
14424.871701499989
 20
8898.6267460000035
 30
0.0
 40
24.999998999999999
 50
271.87799100002047
 51
91.877991000020657
  0
TEXT
  5
3387
  8
0-0
  6
CONTINUOUS
 62
     7
 10
17222.747439499992
 20
6803.6260200000024
 30
0.0
 40
160.0
  1
G.L
 72
     4
 11
17382.747439499992
 21
6883.6260200000042
 31
0.0
  0
TEXT
  5
3388
  8
0-0
  6
CONTINUOUS
 62
     7
 10
15598.366937499981
 20
6903.6258549999966
 30
0.0
 40
160.0
  1
布基礎天端
 72
     4
 11
16057.033604166651
 21
6983.6258549999984
 31
0.0
  0
TEXT
  5
3389
  8
2-0
  6
CONTINUOUS
 62
     7
 10
9898.7830575000098
 20
3638.6597025833762
 30
0.0
 40
160.0
  1
側 面 立 面 図
 72
     4
 11
10544.11639083334
 21
3718.6597025833762
 31
0.0
  0
TEXT
  5
338A
  8
2-0
  6
CONTINUOUS
 62
     7
 10
11895.60857597094
 20
3665.855071583379
 30
0.0
 40
160.0
  1
1
 72
     4
 11
11922.27524263761
 21
3745.855071583379
 31
0.0
  0
TEXT
  5
338B
  8
2-0
  6
CONTINUOUS
 62
     7
 10
12138.69729322165
 20
3585.8565395833748
 30
0.0
 40
160.0
  1
80
 72
     4
 11
12258.69729322165
 21
3665.8565395833748
 31
0.0
  0
TEXT
  5
338C
  8
2-0
  6
CONTINUOUS
 62
     7
 10
11396.61054197096
 20
3638.6597025833762
 30
0.0
 40
160.0
  1
(S=  /   )
 72
     4
 11
11956.61054197096
 21
3718.6597025833762
 31
0.0
  0
LINE
  5
338D
  8
0-1
  6
CONTINUOUS
 62
     3
 10
9064.3743395000256
 20
6665.7797690000016
 30
0.0
 11
9064.3743395000256
 21
8526.8256480000018
 31
0.0
  0
LINE
  5
338E
  8
0-1
  6
CONTINUOUS
 62
     3
 10
9049.3755275000221
 20
6665.7797690000016
 30
0.0
 11
9049.3755275000221
 21
8526.8256480000018
 31
0.0
  0
LINE
  5
338F
  8
0-5
  6
CONTINUOUS
 62
     4
 10
14297.373878500001
 20
4835.7801650000047
 30
0.0
 11
14297.373878500001
 21
4675.7806270000037
 31
0.0
  0
LINE
  5
3390
  8
0-5
  6
CONTINUOUS
 62
     4
 10
11379.373878500001
 20
4835.7801650000047
 30
0.0
 11
11379.373878500001
 21
4675.7806270000037
 31
0.0
  0
LINE
  5
3391
  8
0-5
  6
CONTINUOUS
 62
     4
 10
8811.8738785000005
 20
4835.7801650000047
 30
0.0
 11
8811.8738785000005
 21
4675.7806270000037
 31
0.0
  0
CIRCLE
  5
3392
  8
0-5
  6
CONTINUOUS
 62
     4
 10
11379.373878500001
 20
4475.7794720000047
 30
0.0
 40
199.9999949999999
  0
CIRCLE
  5
3393
  8
0-5
  6
CONTINUOUS
 62
     4
 10
14297.373878500001
 20
4475.7794720000047
 30
0.0
 40
199.9999949999999
  0
CIRCLE
  5
3394
  8
0-5
  6
CONTINUOUS
 62
     4
 10
8811.8738785000005
 20
4475.7794720000047
 30
0.0
 40
199.9999949999999
  0
TEXT
  5
3395
  8
0-5
  6
CONTINUOUS
 62
     7
 10
14250.417718499981
 20
4392.5686760000062
 30
0.0
 40
160.0
  1
A
 72
     4
 11
14303.75105183332
 21
4472.5686760000071
 31
0.0
  0
TEXT
  5
3396
  8
0-5
  6
CONTINUOUS
 62
     7
 10
11332.417718499981
 20
4392.5686760000062
 30
0.0
 40
160.0
  1
B
 72
     4
 11
11385.75105183332
 21
4472.5686760000071
 31
0.0
  0
TEXT
  5
3397
  8
0-5
  6
CONTINUOUS
 62
     7
 10
8764.9177185000062
 20
4392.5686760000062
 30
0.0
 40
160.0
  1
C
 72
     4
 11
8818.2510518333402
 21
4472.5686760000071
 31
0.0
  0
LINE
  5
33A2
  8
0-1
  6
CONTINUOUS
 62
     3
 10
24629.619139499991
 20
6615.7796039999957
 30
0.0
 11
24529.619798499989
 21
6615.7796039999957
 31
0.0
  0
LINE
  5
33A3
  8
0-1
  6
CONTINUOUS
 62
     3
 10
24529.619798499989
 20
6615.7796039999957
 30
0.0
 11
24529.619798499989
 21
6515.7797690000016
 31
0.0
  0
LINE
  5
33A4
  8
0-1
  6
CONTINUOUS
 62
     3
 10
24629.619139499991
 20
6515.7797690000016
 30
0.0
 11
24629.619139499991
 21
6615.7796039999957
 31
0.0
  0
LINE
  5
33A5
  8
0-1
  6
CONTINUOUS
 62
     3
 10
24602.119666499999
 20
8964.2799530000029
 30
0.0
 11
24602.119666499999
 21
6615.7796039999957
 31
0.0
  0
LINE
  5
33A6
  8
0-1
  6
CONTINUOUS
 62
     3
 10
24622.118743499988
 20
8834.2790299999979
 30
0.0
 11
24622.118743499988
 21
6615.7796039999957
 31
0.0
  0
LINE
  5
33A7
  8
0-1
  6
CONTINUOUS
 62
     3
 10
24492.119798499982
 20
8523.7796629999975
 30
0.0
 11
24492.119798499982
 21
6515.7797690000016
 31
0.0
  0
LINE
  5
33A8
  8
0-1
  6
CONTINUOUS
 62
     3
 10
24537.120194499981
 20
8834.2790299999979
 30
0.0
 11
24537.120194499981
 21
6615.7796039999957
 31
0.0
  0
LINE
  5
33B1
  8
0-1
  6
CONTINUOUS
 62
     3
 10
22755.616763500009
 20
8834.2790299999979
 30
0.0
 11
22755.616763500009
 21
6515.7797690000016
 31
0.0
  0
LINE
  5
33B2
  8
0-1
  6
CONTINUOUS
 62
     3
 10
22800.61715950002
 20
8523.7796629999975
 30
0.0
 11
22800.61715950002
 21
6515.7797690000016
 31
0.0
  0
LINE
  5
33B5
  8
0-1
  6
CONTINUOUS
 62
     3
 10
22800.61715950002
 20
8455.2393269999993
 30
0.0
 11
24492.119798499982
 21
8455.2393269999993
 31
0.0
  0
LINE
  5
33B6
  8
0-1
  6
CONTINUOUS
 62
     3
 10
22800.61715950002
 20
7100.7804619999988
 30
0.0
 11
24492.119798499982
 21
7100.7804619999988
 31
0.0
  0
LINE
  5
33B7
  8
0-1
  6
CONTINUOUS
 62
     3
 10
22800.61715950002
 20
7165.7794390000035
 30
0.0
 11
24492.119798499982
 21
7165.7794390000035
 31
0.0
  0
LINE
  5
33B8
  8
0-1
  6
CONTINUOUS
 62
     3
 10
22800.61715950002
 20
7230.7799009999972
 30
0.0
 11
24492.119798499982
 21
7230.7799009999972
 31
0.0
  0
LINE
  5
33B9
  8
0-1
  6
CONTINUOUS
 62
     3
 10
22800.61715950002
 20
7295.7798679999978
 30
0.0
 11
24492.119798499982
 21
7295.7798679999978
 31
0.0
  0
LINE
  5
33BA
  8
0-1
  6
CONTINUOUS
 62
     3
 10
22800.61715950002
 20
7360.7798349999975
 30
0.0
 11
24492.119798499982
 21
7360.7798349999975
 31
0.0
  0
LINE
  5
33BB
  8
0-1
  6
CONTINUOUS
 62
     3
 10
22800.61715950002
 20
7425.7798019999982
 30
0.0
 11
24492.119798499982
 21
7425.7798019999982
 31
0.0
  0
LINE
  5
33BC
  8
0-1
  6
CONTINUOUS
 62
     3
 10
22800.61715950002
 20
7490.7802640000027
 30
0.0
 11
24492.119798499982
 21
7490.7802640000027
 31
0.0
  0
LINE
  5
33BD
  8
0-1
  6
CONTINUOUS
 62
     3
 10
22800.61715950002
 20
7555.7792409999929
 30
0.0
 11
24492.119798499982
 21
7555.7792409999929
 31
0.0
  0
LINE
  5
33BE
  8
0-1
  6
CONTINUOUS
 62
     3
 10
22800.61715950002
 20
7620.7797029999929
 30
0.0
 11
24492.119798499982
 21
7620.7797029999929
 31
0.0
  0
LINE
  5
33BF
  8
0-1
  6
CONTINUOUS
 62
     3
 10
22800.61715950002
 20
7685.7796699999981
 30
0.0
 11
24492.119798499982
 21
7685.7796699999981
 31
0.0
  0
LINE
  5
33C0
  8
0-1
  6
CONTINUOUS
 62
     3
 10
22800.61715950002
 20
7750.7801319999971
 30
0.0
 11
24492.119798499982
 21
7750.7801319999971
 31
0.0
  0
LINE
  5
33C1
  8
0-1
  6
CONTINUOUS
 62
     3
 10
22800.61715950002
 20
7815.7791089999973
 30
0.0
 11
24492.119798499982
 21
7815.7791089999973
 31
0.0
  0
LINE
  5
33C2
  8
0-1
  6
CONTINUOUS
 62
     3
 10
22800.61715950002
 20
7880.7795709999973
 30
0.0
 11
24492.119798499982
 21
7880.7795709999973
 31
0.0
  0
LINE
  5
33C3
  8
0-1
  6
CONTINUOUS
 62
     3
 10
22800.61715950002
 20
7945.7795379999998
 30
0.0
 11
24492.119798499982
 21
7945.7795379999998
 31
0.0
  0
LINE
  5
33C4
  8
0-1
  6
CONTINUOUS
 62
     3
 10
22800.61715950002
 20
8010.7795050000004
 30
0.0
 11
24492.119798499982
 21
8010.7795050000004
 31
0.0
  0
LINE
  5
33C5
  8
0-1
  6
CONTINUOUS
 62
     3
 10
22800.61715950002
 20
8075.7799670000022
 30
0.0
 11
24492.119798499982
 21
8075.7799670000022
 31
0.0
  0
LINE
  5
33C6
  8
0-1
  6
CONTINUOUS
 62
     3
 10
22800.61715950002
 20
8140.7799339999992
 30
0.0
 11
24492.119798499982
 21
8140.7799339999992
 31
0.0
  0
LINE
  5
33C7
  8
0-1
  6
CONTINUOUS
 62
     3
 10
22800.61715950002
 20
8205.7803959999983
 30
0.0
 11
24492.119798499982
 21
8205.7803959999983
 31
0.0
  0
LINE
  5
33C8
  8
0-1
  6
CONTINUOUS
 62
     3
 10
22800.61715950002
 20
8270.7793729999976
 30
0.0
 11
24492.119798499982
 21
8270.7793729999976
 31
0.0
  0
LINE
  5
33C9
  8
0-1
  6
CONTINUOUS
 62
     3
 10
22800.61715950002
 20
8335.779835000003
 30
0.0
 11
24492.119798499982
 21
8335.779835000003
 31
0.0
  0
LINE
  5
33CA
  8
0-1
  6
CONTINUOUS
 62
     3
 10
22800.61715950002
 20
8400.7798019999973
 30
0.0
 11
24492.119798499982
 21
8400.7798019999973
 31
0.0
  0
LINE
  5
33CB
  8
0-1
  6
CONTINUOUS
 62
     3
 10
22800.61715950002
 20
6580.7792409999956
 30
0.0
 11
24492.119798499982
 21
6580.7792409999956
 31
0.0
  0
LINE
  5
33CC
  8
0-1
  6
CONTINUOUS
 62
     3
 10
22800.61715950002
 20
6645.7801979999967
 30
0.0
 11
24492.119798499982
 21
6645.7801979999967
 31
0.0
  0
LINE
  5
33CD
  8
0-1
  6
CONTINUOUS
 62
     3
 10
22800.61715950002
 20
6710.7791749999997
 30
0.0
 11
24492.119798499982
 21
6710.7791749999997
 31
0.0
  0
LINE
  5
33CE
  8
0-1
  6
CONTINUOUS
 62
     3
 10
22800.61715950002
 20
6775.7801319999971
 30
0.0
 11
24492.119798499982
 21
6775.7801319999971
 31
0.0
  0
LINE
  5
33CF
  8
0-1
  6
CONTINUOUS
 62
     3
 10
22800.61715950002
 20
6840.7796040000012
 30
0.0
 11
24492.119798499982
 21
6840.7796040000012
 31
0.0
  0
LINE
  5
33D0
  8
0-1
  6
CONTINUOUS
 62
     3
 10
22800.61715950002
 20
6905.779571
 30
0.0
 11
24492.119798499982
 21
6905.779571
 31
0.0
  0
LINE
  5
33D1
  8
0-1
  6
CONTINUOUS
 62
     3
 10
22800.61715950002
 20
6970.7795379999989
 30
0.0
 11
24492.119798499982
 21
6970.7795379999989
 31
0.0
  0
LINE
  5
33D2
  8
0-1
  6
CONTINUOUS
 62
     3
 10
22800.61715950002
 20
7035.7790099999966
 30
0.0
 11
24492.119798499982
 21
7035.7790099999966
 31
0.0
  0
LINE
  5
33D4
  8
0-1
  6
CONTINUOUS
 62
     3
 10
22755.616763500009
 20
8523.7796629999975
 30
0.0
 11
24537.120194499981
 21
8523.7796629999975
 31
0.0
  0
LINE
  5
33D5
  8
0-1
  6
CONTINUOUS
 62
     3
 10
20095.6178205
 20
6515.7797690000016
 30
0.0
 11
24629.619139499991
 21
6515.7797690000016
 31
0.0
  0
LINE
  5
33DF
  8
0-1
  6
CONTINUOUS
 62
     3
 10
22670.618215499991
 20
8834.2790299999979
 30
0.0
 11
22670.618215499991
 21
6515.7797690000016
 31
0.0
  0
LINE
  5
33E0
  8
0-1
  6
CONTINUOUS
 62
     3
 10
22625.61979949996
 20
8523.7796629999975
 30
0.0
 11
22625.61979949996
 21
6515.7797690000016
 31
0.0
  0
LINE
  5
33EB
  8
0-1
  6
CONTINUOUS
 62
     3
 10
20195.619139499999
 20
6615.7796039999957
 30
0.0
 11
20195.619139499999
 21
6515.7797690000016
 31
0.0
  0
LINE
  5
33EC
  8
0-1
  6
CONTINUOUS
 62
     3
 10
20095.6178205
 20
6515.7797690000016
 30
0.0
 11
20095.6178205
 21
6615.7796039999957
 31
0.0
  0
LINE
  5
33ED
  8
0-1
  6
CONTINUOUS
 62
     3
 10
20095.6178205
 20
6615.7796039999957
 30
0.0
 11
20195.619139499999
 21
6615.7796039999957
 31
0.0
  0
LINE
  5
33EE
  8
0-1
  6
CONTINUOUS
 62
     3
 10
20233.119139499991
 20
8523.7796629999975
 30
0.0
 11
20233.119139499991
 21
6515.7797690000016
 31
0.0
  0
LINE
  5
33EF
  8
0-1
  6
CONTINUOUS
 62
     3
 10
20188.116764499991
 20
8834.2790299999979
 30
0.0
 11
20188.116764499991
 21
6615.7796039999957
 31
0.0
  0
LINE
  5
33F0
  8
0-1
  6
CONTINUOUS
 62
     3
 10
20123.119271499982
 20
8964.2799530000029
 30
0.0
 11
20123.119271499982
 21
6615.7796039999957
 31
0.0
  0
LINE
  5
33F1
  8
0-1
  6
CONTINUOUS
 62
     3
 10
20103.116236500009
 20
8834.2790299999979
 30
0.0
 11
20103.116236500009
 21
6615.7796039999957
 31
0.0
  0
LINE
  5
33F2
  8
0-1
  6
CONTINUOUS
 62
     3
 10
20188.116764499991
 20
8523.7796629999975
 30
0.0
 11
22670.618215499991
 21
8523.7796629999975
 31
0.0
  0
LINE
  5
33F4
  8
0-1
  6
CONTINUOUS
 62
     3
 10
20233.119139499991
 20
7035.7790099999966
 30
0.0
 11
22625.61979949996
 21
7035.7790099999966
 31
0.0
  0
LINE
  5
33F5
  8
0-1
  6
CONTINUOUS
 62
     3
 10
20233.119139499991
 20
6970.7795379999989
 30
0.0
 11
22625.61979949996
 21
6970.7795379999989
 31
0.0
  0
LINE
  5
33F6
  8
0-1
  6
CONTINUOUS
 62
     3
 10
20233.119139499991
 20
6905.779571
 30
0.0
 11
22625.61979949996
 21
6905.779571
 31
0.0
  0
LINE
  5
33F7
  8
0-1
  6
CONTINUOUS
 62
     3
 10
20233.119139499991
 20
6840.7796040000012
 30
0.0
 11
22625.61979949996
 21
6840.7796040000012
 31
0.0
  0
LINE
  5
33F8
  8
0-1
  6
CONTINUOUS
 62
     3
 10
20233.119139499991
 20
6775.7801319999971
 30
0.0
 11
22625.61979949996
 21
6775.7801319999971
 31
0.0
  0
LINE
  5
33F9
  8
0-1
  6
CONTINUOUS
 62
     3
 10
20233.119139499991
 20
6710.7791749999997
 30
0.0
 11
22625.61979949996
 21
6710.7791749999997
 31
0.0
  0
LINE
  5
33FA
  8
0-1
  6
CONTINUOUS
 62
     3
 10
20233.119139499991
 20
6645.7801979999967
 30
0.0
 11
22625.61979949996
 21
6645.7801979999967
 31
0.0
  0
LINE
  5
33FB
  8
0-1
  6
CONTINUOUS
 62
     3
 10
20233.119139499991
 20
6580.7792409999956
 30
0.0
 11
22625.61979949996
 21
6580.7792409999956
 31
0.0
  0
LINE
  5
33FC
  8
0-1
  6
CONTINUOUS
 62
     3
 10
20233.119139499991
 20
8400.7798019999973
 30
0.0
 11
22625.61979949996
 21
8400.7798019999973
 31
0.0
  0
LINE
  5
33FD
  8
0-1
  6
CONTINUOUS
 62
     3
 10
20233.119139499991
 20
8335.779835000003
 30
0.0
 11
22625.61979949996
 21
8335.779835000003
 31
0.0
  0
LINE
  5
33FE
  8
0-1
  6
CONTINUOUS
 62
     3
 10
20233.119139499991
 20
8270.7793729999976
 30
0.0
 11
22625.61979949996
 21
8270.7793729999976
 31
0.0
  0
LINE
  5
33FF
  8
0-1
  6
CONTINUOUS
 62
     3
 10
20233.119139499991
 20
8205.7803959999983
 30
0.0
 11
22625.61979949996
 21
8205.7803959999983
 31
0.0
  0
LINE
  5
3400
  8
0-1
  6
CONTINUOUS
 62
     3
 10
20233.119139499991
 20
8140.7799339999992
 30
0.0
 11
22625.61979949996
 21
8140.7799339999992
 31
0.0
  0
LINE
  5
3401
  8
0-1
  6
CONTINUOUS
 62
     3
 10
20233.119139499991
 20
8075.7799670000022
 30
0.0
 11
22625.61979949996
 21
8075.7799670000022
 31
0.0
  0
LINE
  5
3402
  8
0-1
  6
CONTINUOUS
 62
     3
 10
20233.119139499991
 20
8010.7795050000004
 30
0.0
 11
22625.61979949996
 21
8010.7795050000004
 31
0.0
  0
LINE
  5
3403
  8
0-1
  6
CONTINUOUS
 62
     3
 10
20233.119139499991
 20
7945.7795379999998
 30
0.0
 11
22625.61979949996
 21
7945.7795379999998
 31
0.0
  0
LINE
  5
3404
  8
0-1
  6
CONTINUOUS
 62
     3
 10
20233.119139499991
 20
7880.7795709999973
 30
0.0
 11
22625.61979949996
 21
7880.7795709999973
 31
0.0
  0
LINE
  5
3405
  8
0-1
  6
CONTINUOUS
 62
     3
 10
20233.119139499991
 20
7815.7791089999973
 30
0.0
 11
22625.61979949996
 21
7815.7791089999973
 31
0.0
  0
LINE
  5
3406
  8
0-1
  6
CONTINUOUS
 62
     3
 10
20233.119139499991
 20
7750.7801319999971
 30
0.0
 11
22625.61979949996
 21
7750.7801319999971
 31
0.0
  0
LINE
  5
3407
  8
0-1
  6
CONTINUOUS
 62
     3
 10
20233.119139499991
 20
7685.7796699999981
 30
0.0
 11
22625.61979949996
 21
7685.7796699999981
 31
0.0
  0
LINE
  5
3408
  8
0-1
  6
CONTINUOUS
 62
     3
 10
20233.119139499991
 20
7620.7797029999929
 30
0.0
 11
22625.61979949996
 21
7620.7797029999929
 31
0.0
  0
LINE
  5
3409
  8
0-1
  6
CONTINUOUS
 62
     3
 10
20233.119139499991
 20
7555.7792409999929
 30
0.0
 11
22625.61979949996
 21
7555.7792409999929
 31
0.0
  0
LINE
  5
340A
  8
0-1
  6
CONTINUOUS
 62
     3
 10
20233.119139499991
 20
7490.7802640000027
 30
0.0
 11
22625.61979949996
 21
7490.7802640000027
 31
0.0
  0
LINE
  5
340B
  8
0-1
  6
CONTINUOUS
 62
     3
 10
20233.119139499991
 20
7425.7798019999982
 30
0.0
 11
22625.61979949996
 21
7425.7798019999982
 31
0.0
  0
LINE
  5
340C
  8
0-1
  6
CONTINUOUS
 62
     3
 10
20233.119139499991
 20
7360.7798349999975
 30
0.0
 11
22625.61979949996
 21
7360.7798349999975
 31
0.0
  0
LINE
  5
340D
  8
0-1
  6
CONTINUOUS
 62
     3
 10
20233.119139499991
 20
7295.7798679999978
 30
0.0
 11
22625.61979949996
 21
7295.7798679999978
 31
0.0
  0
LINE
  5
340E
  8
0-1
  6
CONTINUOUS
 62
     3
 10
20233.119139499991
 20
7230.7799009999972
 30
0.0
 11
22625.61979949996
 21
7230.7799009999972
 31
0.0
  0
LINE
  5
340F
  8
0-1
  6
CONTINUOUS
 62
     3
 10
20233.119139499991
 20
7165.7794390000035
 30
0.0
 11
22625.61979949996
 21
7165.7794390000035
 31
0.0
  0
LINE
  5
3410
  8
0-1
  6
CONTINUOUS
 62
     3
 10
20233.119139499991
 20
7100.7804619999988
 30
0.0
 11
22625.61979949996
 21
7100.7804619999988
 31
0.0
  0
LINE
  5
3411
  8
0-1
  6
CONTINUOUS
 62
     3
 10
20233.119139499991
 20
8455.2393269999993
 30
0.0
 11
22625.61979949996
 21
8455.2393269999993
 31
0.0
  0
LINE
  5
3417
  8
0-2
  6
CONTINUOUS
 62
     4
 10
21793.05949
 20
7263.0054729999974
 30
0.0
 11
21693.060150000001
 21
7263.0054729999974
 31
0.0
  0
LINE
  5
3418
  8
0-2
  6
CONTINUOUS
 62
     4
 10
21065.675489000001
 20
7263.0054729999974
 30
0.0
 11
21165.672849999992
 21
7263.0054729999974
 31
0.0
  0
LINE
  5
3419
  8
0-5
  6
CONTINUOUS
 62
     4
 10
22713.118479499979
 20
4835.7796699999972
 30
0.0
 11
22713.118479499979
 21
4675.7796369999969
 31
0.0
  0
LINE
  5
341A
  8
0-5
  6
CONTINUOUS
 62
     4
 10
20145.618479500001
 20
4835.7796699999972
 30
0.0
 11
20145.618479500001
 21
4675.7796369999969
 31
0.0
  0
LINE
  5
341B
  8
2-0
  6
CENTER2
 62
     6
 10
24579.618479500001
 20
6253.1273459999966
 30
0.0
 11
24579.618479500001
 21
7290.2693829999998
 31
0.0
  0
LINE
  5
341C
  8
2-0
  6
CENTER2
 62
     6
 10
22713.118479499979
 20
6253.1273459999966
 30
0.0
 11
22713.118479499979
 21
7290.2693829999998
 31
0.0
  0
LINE
  5
341D
  8
2-0
  6
CENTER2
 62
     6
 10
20145.618479500001
 20
6253.1273459999966
 30
0.0
 11
20145.618479500001
 21
7290.2693829999998
 31
0.0
  0
CIRCLE
  5
342E
  8
0-5
  6
CONTINUOUS
 62
     4
 10
22713.118479499979
 20
4475.7799669999986
 30
0.0
 40
199.9999949999999
  0
CIRCLE
  5
342F
  8
0-5
  6
CONTINUOUS
 62
     4
 10
20145.618479500001
 20
4475.7799669999986
 30
0.0
 40
199.9999949999999
  0
TEXT
  5
3430
  8
0-5
  6
CONTINUOUS
 62
     7
 10
19527.4425405
 20
7245.1400157419948
 30
0.0
 40
160.0
  1
(2131.5)
 50
90.0
 72
     4
 11
19447.4425405
 21
7698.4733490753279
 31
0.0
  0
TEXT
  5
3431
  8
0-5
  6
CONTINUOUS
 62
     7
 10
22666.190032499992
 20
4389.2500129999971
 30
0.0
 40
160.0
  1
2
 72
     4
 11
22719.52336583332
 21
4469.2500129999971
 31
0.0
  0
TEXT
  5
3432
  8
0-5
  6
CONTINUOUS
 62
     7
 10
20098.686073500001
 20
4389.2500129999971
 30
0.0
 40
160.0
  1
1
 72
     4
 11
20125.352740166662
 21
4469.2500129999971
 31
0.0
  0
CIRCLE
  5
3433
  8
0-4
  6
CONTINUOUS
 62
     4
 10
21429.36847949999
 20
7001.8357099999976
 30
0.0
 40
18.487504999999981
  0
LINE
  5
3434
  8
SUNPOU
  6
CONTINUOUS
 10
19863.118479499979
 20
5315.7797690000016
 30
0.0
 11
19505.163472778881
 21
5315.7797690000016
 31
0.0
  0
LINE
  5
3435
  8
SUNPOU
  6
CONTINUOUS
 10
24862.122438499991
 20
5315.7797690000016
 30
0.0
 11
25220.07744522109
 21
5315.7797690000016
 31
0.0
  0
LINE
  5
3436
  8
0-5
  6
CONTINUOUS
 62
     4
 10
24622.11847949999
 20
4835.7796699999972
 30
0.0
 11
24622.11847949999
 21
4675.7796369999969
 31
0.0
  0
CIRCLE
  5
3437
  8
0-5
  6
CONTINUOUS
 62
     4
 10
24622.11847949999
 20
4475.7799669999986
 30
0.0
 40
199.9999949999999
  0
TEXT
  5
3438
  8
0-5
  6
CONTINUOUS
 62
     7
 10
24575.190032499999
 20
4389.2500129999971
 30
0.0
 40
160.0
  1
3
 72
     4
 11
24628.523365833331
 21
4469.2500129999971
 31
0.0
  0
TEXT
  5
3439
  8
2-0
  6
CONTINUOUS
 62
     7
 10
21395.084735499979
 20
3638.6581370000022
 30
0.0
 40
160.0
  1
正 面 立 面 図
 50
0.000139
 72
     4
 11
22040.417874750801
 21
3718.6597025833762
 31
0.0
  0
TEXT
  5
343A
  8
2-0
  6
CONTINUOUS
 62
     7
 10
23391.91005988844
 20
3665.855071583379
 30
0.0
 40
160.0
  1
1
 72
     4
 11
23418.576726555111
 21
3745.855071583379
 31
0.0
  0
TEXT
  5
343B
  8
2-0
  6
CONTINUOUS
 62
     7
 10
23634.998777139121
 20
3585.8565395833748
 30
0.0
 40
160.0
  1
80
 72
     4
 11
23754.998777139121
 21
3665.8565395833748
 31
0.0
  0
TEXT
  5
343C
  8
2-0
  6
CONTINUOUS
 62
     7
 10
22892.912025888429
 20
3638.6597025833762
 30
0.0
 40
160.0
  1
(S=  /   )
 72
     4
 11
23452.912025888429
 21
3718.6597025833762
 31
0.0
  0
LINE
  5
343D
  8
0-5
  6
CONTINUOUS
 62
     4
 10
17222.749419499982
 20
6723.625261000001
 30
0.0
 11
17342.745856499991
 21
6515.7797690000016
 31
0.0
  0
LINE
  5
343E
  8
0-5
  6
CONTINUOUS
 62
     4
 10
17342.745856499991
 20
6515.7797690000016
 30
0.0
 11
17462.746252499979
 21
6723.625261000001
 31
0.0
  0
LINE
  5
343F
  8
0-5
  6
CONTINUOUS
 62
     4
 10
17462.746252499979
 20
6723.625261000001
 30
0.0
 11
17222.749419499982
 21
6723.625261000001
 31
0.0
  0
TEXT
  5
3440
  8
0-5
  6
CONTINUOUS
 62
     7
 10
17222.749419499982
 20
6803.6260190000021
 30
0.0
 40
160.0
  1
G.L
 72
     4
 11
17382.749419499982
 21
6883.6260190000021
 31
0.0
  0
LINE
  5
3441
  8
SUNPOU
  6
CONTINUOUS
 10
8589.3738785000023
 20
9763.7812800000029
 30
0.0
 11
8053.2482369121444
 21
9763.7812800000029
 31
0.0
  0
TEXT
  5
3442
  8
2-0
  6
CONTINUOUS
 62
     7
 10
21632.192382500001
 20
12154.23951899999
 30
0.0
 40
160.0
  1
平　面　図
 50
359.99978700000008
 72
     4
 11
22085.525993407369
 21
12228.90450037622
 31
0.0
  0
TEXT
  5
3443
  8
2-0
  6
CONTINUOUS
 62
     7
 10
23437.018178544989
 20
12176.09986937623
 30
0.0
 40
160.0
  1
1
 72
     4
 11
23463.684845211661
 21
12256.09986937623
 31
0.0
  0
TEXT
  5
3444
  8
2-0
  6
CONTINUOUS
 62
     7
 10
23680.106895795681
 20
12096.101337376231
 30
0.0
 40
160.0
  1
80
 72
     4
 11
23800.106895795681
 21
12176.101337376231
 31
0.0
  0
TEXT
  5
3445
  8
2-0
  6
CONTINUOUS
 62
     7
 10
22938.020144544978
 20
12148.90450037622
 30
0.0
 40
160.0
  1
(S=  /   )
 72
     4
 11
23498.020144544978
 21
12228.90450037622
 31
0.0
  0
LINE
  5
3446
  8
2-0
  6
CONTINUOUS
 62
     6
 10
22896.459563499979
 20
13766.229791999989
 30
0.0
 11
23896.452965499961
 21
13766.229791999989
 31
0.0
  0
LINE
  5
3447
  8
2-0
  6
CONTINUOUS
 62
     6
 10
24364.393342499981
 20
14236.650506
 30
0.0
 11
23896.452965499961
 21
13766.229791999989
 31
0.0
  0
LINE
  5
3448
  8
2-0
  6
CONTINUOUS
 62
     6
 10
24325.75313949999
 20
17428.25815300001
 30
0.0
 11
24021.057721500001
 21
17531.911684000021
 31
0.0
  0
LINE
  5
3449
  8
2-0
  6
CONTINUOUS
 62
     6
 10
24480.77517849996
 20
16938.636109000021
 30
0.0
 11
24021.057721500001
 21
16694.722797999999
 31
0.0
  0
LINE
  5
344A
  8
2-0
  6
CONTINUOUS
 62
     6
 10
23101.054686499981
 20
16694.722797999999
 30
0.0
 11
24021.057721500001
 21
16694.722797999999
 31
0.0
  0
LINE
  5
344B
  8
2-0
  6
CONTINUOUS
 62
     6
 10
22821.063659499981
 20
17531.911684000021
 30
0.0
 11
24021.057721500001
 21
17531.911684000021
 31
0.0
  0
LINE
  5
344C
  8
2-0
  6
CONTINUOUS
 62
     6
 10
24396.952463499991
 20
14558.334151999979
 30
0.0
 11
24021.057721500001
 21
14739.277986999999
 31
0.0
  0
LINE
  5
344D
  8
2-0
  6
CONTINUOUS
 62
     6
 10
23501.056005499991
 20
14739.277986999999
 30
0.0
 11
24021.057721500001
 21
14739.277986999999
 31
0.0
  0
LINE
  5
344E
  8
2-0
  6
CONTINUOUS
 62
     4
 10
22713.118479499979
 20
20014.231442000018
 30
0.0
 11
22713.118479499979
 21
20744.228406999999
 31
0.0
  0
LINE
  5
344F
  8
2-0
  6
CONTINUOUS
 62
     3
 10
24592.119139499991
 20
19825.228987999999
 30
0.0
 11
24592.119139499991
 21
19819.23302600002
 31
0.0
  0
LINE
  5
3450
  8
2-0
  6
CONTINUOUS
 62
     3
 10
24592.119139499991
 20
19819.23302600002
 30
0.0
 11
24622.116763499991
 21
19819.23302600002
 31
0.0
  0
LINE
  5
3451
  8
2-0
  6
CONTINUOUS
 62
     3
 10
24622.116763499991
 20
19849.23263000001
 30
0.0
 11
24541.114863499992
 21
19849.23263000001
 31
0.0
  0
LINE
  5
3452
  8
2-0
  6
CONTINUOUS
 62
     3
 10
24592.119139499991
 20
19808.935570000001
 30
0.0
 11
24622.116763499991
 21
19808.935570000001
 31
0.0
  0
LINE
  5
3453
  8
2-0
  6
CONTINUOUS
 62
     3
 10
24592.119139499991
 20
19826.93731200002
 30
0.0
 11
24592.119139499991
 21
19808.935570000001
 31
0.0
  0
LINE
  5
3454
  8
2-0
  6
CONTINUOUS
 62
     3
 10
24617.1164995
 20
19826.93731200002
 30
0.0
 11
24592.119139499991
 21
19826.93731200002
 31
0.0
  0
LINE
  5
3455
  8
2-0
  6
CONTINUOUS
 62
     3
 10
24617.1164995
 20
19821.929130000019
 30
0.0
 11
24617.1164995
 21
19826.93731200002
 31
0.0
  0
LINE
  5
3456
  8
2-0
  6
CONTINUOUS
 62
     3
 10
24610.1149425
 20
19821.929130000019
 30
0.0
 11
24617.1164995
 21
19821.929130000019
 31
0.0
  0
LINE
  5
3457
  8
2-0
  6
CONTINUOUS
 62
     3
 10
24509.818674499991
 20
19922.229357000011
 30
0.0
 11
24509.818674499991
 21
19929.234873000001
 31
0.0
  0
LINE
  5
3458
  8
2-0
  6
CONTINUOUS
 62
     3
 10
24509.818674499991
 20
19929.234873000001
 30
0.0
 11
24514.818938499971
 21
19929.234873000001
 31
0.0
  0
LINE
  5
3459
  8
2-0
  6
CONTINUOUS
 62
     3
 10
24514.818938499971
 20
19929.234873000001
 30
0.0
 11
24514.818938499971
 21
19904.22563600001
 31
0.0
  0
LINE
  5
345A
  8
2-0
  6
CONTINUOUS
 62
     3
 10
24514.818938499971
 20
19904.22563600001
 30
0.0
 11
24496.81719649996
 21
19904.22563600001
 31
0.0
  0
LINE
  5
345B
  8
2-0
  6
CONTINUOUS
 62
     3
 10
24496.81719649996
 20
19904.22563600001
 30
0.0
 11
24496.81719649996
 21
19934.229199000009
 31
0.0
  0
LINE
  5
345C
  8
2-0
  6
CONTINUOUS
 62
     3
 10
24507.114652499989
 20
19934.229199000009
 30
0.0
 11
24622.116763499991
 21
19934.229199000009
 31
0.0
  0
LINE
  5
345D
  8
2-0
  6
CONTINUOUS
 62
     3
 10
24507.114652499989
 20
19904.22563600001
 30
0.0
 11
24507.114652499989
 21
19934.229199000009
 31
0.0
  0
LINE
  5
345E
  8
2-0
  6
CONTINUOUS
 62
     3
 10
24513.116552499989
 20
19904.22563600001
 30
0.0
 11
24507.114652499989
 21
19904.22563600001
 31
0.0
  0
LINE
  5
345F
  8
2-0
  6
CONTINUOUS
 62
     3
 10
24610.1149425
 20
19468.632307499978
 30
0.0
 11
24617.1164995
 21
19468.632307499978
 31
0.0
  0
LINE
  5
3460
  8
2-0
  6
CONTINUOUS
 62
     3
 10
24617.1164995
 20
19468.632307499978
 30
0.0
 11
24617.1164995
 21
19473.632571499991
 31
0.0
  0
LINE
  5
3461
  8
2-0
  6
CONTINUOUS
 62
     3
 10
24617.1164995
 20
19473.632571499991
 30
0.0
 11
24592.119139499991
 21
19473.632571499991
 31
0.0
  0
LINE
  5
3462
  8
2-0
  6
CONTINUOUS
 62
     3
 10
24592.119139499991
 20
19473.632571499991
 30
0.0
 11
24592.119139499991
 21
19455.6367675
 31
0.0
  0
LINE
  5
3463
  8
2-0
  6
CONTINUOUS
 62
     3
 10
24592.119139499991
 20
19455.6367675
 30
0.0
 11
24622.116763499991
 21
19455.6367675
 31
0.0
  0
LINE
  5
3464
  8
2-0
  6
CONTINUOUS
 62
     3
 10
24592.119139499991
 20
19471.728274499968
 30
0.0
 11
24592.119139499991
 21
19465.730333499989
 31
0.0
  0
LINE
  5
3465
  8
2-0
  6
CONTINUOUS
 62
     3
 10
24592.119139499991
 20
19465.730333499989
 30
0.0
 11
24622.116763499991
 21
19465.730333499989
 31
0.0
  0
LINE
  5
3466
  8
2-0
  6
CONTINUOUS
 62
     3
 10
24622.116763499991
 20
19465.730333499989
 30
0.0
 11
24622.116763499991
 21
19502.7314945
 31
0.0
  0
LINE
  5
3467
  8
2-0
  6
CONTINUOUS
 62
     3
 10
24592.119139499991
 20
19502.7314945
 30
0.0
 11
24622.116763499991
 21
19502.7314945
 31
0.0
  0
LINE
  5
3468
  8
2-0
  6
CONTINUOUS
 62
     3
 10
24592.119139499991
 20
19496.727614499981
 30
0.0
 11
24592.119139499991
 21
19502.7314945
 31
0.0
  0
LINE
  5
3469
  8
2-0
  6
CONTINUOUS
 62
     3
 10
24592.119139499991
 20
19512.827039499982
 30
0.0
 11
24622.116763499991
 21
19512.827039499982
 31
0.0
  0
LINE
  5
346A
  8
2-0
  6
CONTINUOUS
 62
     3
 10
24592.119139499991
 20
19494.8252975
 30
0.0
 11
24592.119139499991
 21
19512.827039499982
 31
0.0
  0
LINE
  5
346B
  8
2-0
  6
CONTINUOUS
 62
     3
 10
24617.1164995
 20
19494.8252975
 30
0.0
 11
24592.119139499991
 21
19494.8252975
 31
0.0
  0
LINE
  5
346C
  8
2-0
  6
CONTINUOUS
 62
     3
 10
24617.1164995
 20
19499.825561500002
 30
0.0
 11
24617.1164995
 21
19494.8252975
 31
0.0
  0
LINE
  5
346D
  8
2-0
  6
CONTINUOUS
 62
     3
 10
24610.1149425
 20
19499.825561500002
 30
0.0
 11
24617.1164995
 21
19499.825561500002
 31
0.0
  0
LINE
  5
346E
  8
2-0
  6
CONTINUOUS
 62
     3
 10
24610.1149425
 20
18767.631318
 30
0.0
 11
24617.1164995
 21
18767.631318
 31
0.0
  0
LINE
  5
346F
  8
2-0
  6
CONTINUOUS
 62
     3
 10
24617.1164995
 20
18767.631318
 30
0.0
 11
24617.1164995
 21
18772.63752
 31
0.0
  0
LINE
  5
3470
  8
2-0
  6
CONTINUOUS
 62
     3
 10
24617.1164995
 20
18772.63752
 30
0.0
 11
24592.119139499991
 21
18772.63752
 31
0.0
  0
LINE
  5
3471
  8
2-0
  6
CONTINUOUS
 62
     3
 10
24592.119139499991
 20
18772.63752
 30
0.0
 11
24592.119139499991
 21
18754.635778
 31
0.0
  0
LINE
  5
3472
  8
2-0
  6
CONTINUOUS
 62
     3
 10
24592.119139499991
 20
18754.635778
 30
0.0
 11
24622.116763499991
 21
18754.635778
 31
0.0
  0
LINE
  5
3473
  8
2-0
  6
CONTINUOUS
 62
     3
 10
24592.119139499991
 20
18770.72728499999
 30
0.0
 11
24592.119139499991
 21
18764.731323
 31
0.0
  0
LINE
  5
3474
  8
2-0
  6
CONTINUOUS
 62
     3
 10
24592.119139499991
 20
18764.731323
 30
0.0
 11
24622.116763499991
 21
18764.731323
 31
0.0
  0
LINE
  5
3475
  8
2-0
  6
CONTINUOUS
 62
     3
 10
24622.116763499991
 20
18764.731323
 30
0.0
 11
24622.116763499991
 21
18801.730505
 31
0.0
  0
LINE
  5
3476
  8
2-0
  6
CONTINUOUS
 62
     3
 10
24592.119139499991
 20
18801.730505
 30
0.0
 11
24622.116763499991
 21
18801.730505
 31
0.0
  0
LINE
  5
3477
  8
2-0
  6
CONTINUOUS
 62
     3
 10
24592.119139499991
 20
18795.73454300001
 30
0.0
 11
24592.119139499991
 21
18801.730505
 31
0.0
  0
LINE
  5
3478
  8
2-0
  6
CONTINUOUS
 62
     3
 10
24592.119139499991
 20
18811.82605
 30
0.0
 11
24622.116763499991
 21
18811.82605
 31
0.0
  0
LINE
  5
3479
  8
2-0
  6
CONTINUOUS
 62
     3
 10
24592.119139499991
 20
18793.824307999988
 30
0.0
 11
24592.119139499991
 21
18811.82605
 31
0.0
  0
LINE
  5
347A
  8
2-0
  6
CONTINUOUS
 62
     3
 10
24617.1164995
 20
18793.824307999988
 30
0.0
 11
24592.119139499991
 21
18793.824307999988
 31
0.0
  0
LINE
  5
347B
  8
2-0
  6
CONTINUOUS
 62
     3
 10
24617.1164995
 20
18798.83051
 30
0.0
 11
24617.1164995
 21
18793.824307999988
 31
0.0
  0
LINE
  5
347C
  8
2-0
  6
CONTINUOUS
 62
     3
 10
24610.1149425
 20
18798.83051
 30
0.0
 11
24617.1164995
 21
18798.83051
 31
0.0
  0
LINE
  5
347D
  8
2-0
  6
CONTINUOUS
 62
     3
 10
24610.1149425
 20
18097.824572000001
 30
0.0
 11
24617.1164995
 21
18097.824572000001
 31
0.0
  0
LINE
  5
347E
  8
2-0
  6
CONTINUOUS
 62
     3
 10
24617.1164995
 20
18097.824572000001
 30
0.0
 11
24617.1164995
 21
18092.836185
 31
0.0
  0
LINE
  5
347F
  8
2-0
  6
CONTINUOUS
 62
     3
 10
24617.1164995
 20
18092.836185
 30
0.0
 11
24592.119139499991
 21
18092.836185
 31
0.0
  0
LINE
  5
3480
  8
2-0
  6
CONTINUOUS
 62
     3
 10
24592.119139499991
 20
18092.836185
 30
0.0
 11
24592.119139499991
 21
18110.831988000002
 31
0.0
  0
LINE
  5
3481
  8
2-0
  6
CONTINUOUS
 62
     3
 10
24592.119139499991
 20
18110.831988000002
 30
0.0
 11
24622.116763499991
 21
18110.831988000002
 31
0.0
  0
LINE
  5
3482
  8
2-0
  6
CONTINUOUS
 62
     3
 10
24592.119139499991
 20
18094.734542999991
 30
0.0
 11
24592.119139499991
 21
18100.730504999989
 31
0.0
  0
LINE
  5
3483
  8
2-0
  6
CONTINUOUS
 62
     3
 10
24592.119139499991
 20
18100.730504999989
 30
0.0
 11
24622.116763499991
 21
18100.730504999989
 31
0.0
  0
LINE
  5
3484
  8
2-0
  6
CONTINUOUS
 62
     3
 10
24622.116763499991
 20
18100.730504999989
 30
0.0
 11
24622.116763499991
 21
18063.731323
 31
0.0
  0
LINE
  5
3485
  8
2-0
  6
CONTINUOUS
 62
     3
 10
24592.119139499991
 20
18063.731323
 30
0.0
 11
24622.116763499991
 21
18063.731323
 31
0.0
  0
LINE
  5
3486
  8
2-0
  6
CONTINUOUS
 62
     3
 10
24592.119139499991
 20
18069.733224
 30
0.0
 11
24592.119139499991
 21
18063.731323
 31
0.0
  0
LINE
  5
3487
  8
2-0
  6
CONTINUOUS
 62
     3
 10
24592.119139499991
 20
18053.641716999991
 30
0.0
 11
24622.116763499991
 21
18053.641716999991
 31
0.0
  0
LINE
  5
3488
  8
2-0
  6
CONTINUOUS
 62
     3
 10
24592.119139499991
 20
18071.63752
 30
0.0
 11
24592.119139499991
 21
18053.641716999991
 31
0.0
  0
LINE
  5
3489
  8
2-0
  6
CONTINUOUS
 62
     3
 10
24617.1164995
 20
18071.63752
 30
0.0
 11
24592.119139499991
 21
18071.63752
 31
0.0
  0
LINE
  5
348A
  8
2-0
  6
CONTINUOUS
 62
     3
 10
24617.1164995
 20
18066.637256999998
 30
0.0
 11
24617.1164995
 21
18071.63752
 31
0.0
  0
LINE
  5
348B
  8
2-0
  6
CONTINUOUS
 62
     3
 10
24610.1149425
 20
18066.637256999998
 30
0.0
 11
24617.1164995
 21
18066.637256999998
 31
0.0
  0
LINE
  5
348C
  8
2-0
  6
CONTINUOUS
 62
     3
 10
24619.230625499989
 20
17346.728143
 30
0.0
 11
24619.230625499989
 21
17366.72919799999
 31
0.0
  0
LINE
  5
348D
  8
2-0
  6
CONTINUOUS
 62
     3
 10
24619.230625499989
 20
17366.72919799999
 30
0.0
 11
24534.23405649999
 21
17366.72919799999
 31
0.0
  0
LINE
  5
348E
  8
2-0
  6
CONTINUOUS
 62
     3
 10
24610.1149425
 20
17393.335908000001
 30
0.0
 11
24617.1164995
 21
17393.335908000001
 31
0.0
  0
LINE
  5
348F
  8
2-0
  6
CONTINUOUS
 62
     3
 10
24617.1164995
 20
17393.335908000001
 30
0.0
 11
24617.1164995
 21
17388.341582000001
 31
0.0
  0
LINE
  5
3490
  8
2-0
  6
CONTINUOUS
 62
     3
 10
24617.1164995
 20
17388.341582000001
 30
0.0
 11
24592.119139499991
 21
17388.341582000001
 31
0.0
  0
LINE
  5
3491
  8
2-0
  6
CONTINUOUS
 62
     3
 10
24592.119139499991
 20
17388.341582000001
 30
0.0
 11
24592.119139499991
 21
17406.33738600001
 31
0.0
  0
LINE
  5
3492
  8
2-0
  6
CONTINUOUS
 62
     3
 10
24592.119139499991
 20
17406.33738600001
 30
0.0
 11
24622.116763499991
 21
17406.33738600001
 31
0.0
  0
LINE
  5
3493
  8
2-0
  6
CONTINUOUS
 62
     3
 10
24592.119139499991
 20
17396.728802000001
 30
0.0
 11
24592.119139499991
 21
17390.726901999991
 31
0.0
  0
LINE
  5
3494
  8
2-0
  6
CONTINUOUS
 62
     3
 10
24622.116763499991
 20
17396.728802000001
 30
0.0
 11
24592.119139499991
 21
17396.728802000001
 31
0.0
  0
LINE
  5
3495
  8
2-0
  6
CONTINUOUS
 62
     3
 10
24622.116763499991
 20
17406.33738600001
 30
0.0
 11
24622.116763499991
 21
18053.641716999991
 31
0.0
  0
LINE
  5
3496
  8
2-0
  6
CONTINUOUS
 62
     3
 10
24622.116763499991
 20
18110.831988000002
 30
0.0
 11
24622.116763499991
 21
18754.635778
 31
0.0
  0
LINE
  5
3497
  8
2-0
  6
CONTINUOUS
 62
     3
 10
24622.116763499991
 20
17251.72708700001
 30
0.0
 11
24592.119139499991
 21
17251.72708700001
 31
0.0
  0
LINE
  5
3498
  8
2-0
  6
CONTINUOUS
 62
     3
 10
24592.119139499991
 20
17251.72708700001
 30
0.0
 11
24592.119139499991
 21
17257.728986999999
 31
0.0
  0
LINE
  5
3499
  8
2-0
  6
CONTINUOUS
 62
     3
 10
24534.23405649999
 20
17281.732629999991
 30
0.0
 11
24619.230625499989
 21
17281.732629999991
 31
0.0
  0
LINE
  5
349A
  8
2-0
  6
CONTINUOUS
 62
     3
 10
24619.230625499989
 20
17281.732629999991
 30
0.0
 11
24619.230625499989
 21
17301.727747000012
 31
0.0
  0
LINE
  5
349B
  8
2-0
  6
CONTINUOUS
 62
     3
 10
24592.119139499991
 20
17242.118504000009
 30
0.0
 11
24622.116763499991
 21
17242.118504000009
 31
0.0
  0
LINE
  5
349C
  8
2-0
  6
CONTINUOUS
 62
     3
 10
24592.119139499991
 20
17260.114306999982
 30
0.0
 11
24592.119139499991
 21
17242.118504000009
 31
0.0
  0
LINE
  5
349D
  8
2-0
  6
CONTINUOUS
 62
     3
 10
24617.1164995
 20
17260.114306999982
 30
0.0
 11
24592.119139499991
 21
17260.114306999982
 31
0.0
  0
LINE
  5
349E
  8
2-0
  6
CONTINUOUS
 62
     3
 10
24617.1164995
 20
17255.114043000009
 30
0.0
 11
24617.1164995
 21
17260.114306999982
 31
0.0
  0
LINE
  5
349F
  8
2-0
  6
CONTINUOUS
 62
     3
 10
24610.1149425
 20
17255.114043000009
 30
0.0
 11
24617.1164995
 21
17255.114043000009
 31
0.0
  0
LINE
  5
34A0
  8
2-0
  6
CONTINUOUS
 62
     3
 10
24610.1149425
 20
16550.631812499989
 30
0.0
 11
24617.1164995
 21
16550.631812499989
 31
0.0
  0
LINE
  5
34A1
  8
2-0
  6
CONTINUOUS
 62
     3
 10
24617.1164995
 20
16550.631812499989
 30
0.0
 11
24617.1164995
 21
16555.632076499991
 31
0.0
  0
LINE
  5
34A2
  8
2-0
  6
CONTINUOUS
 62
     3
 10
24617.1164995
 20
16555.632076499991
 30
0.0
 11
24592.119139499991
 21
16555.632076499991
 31
0.0
  0
LINE
  5
34A3
  8
2-0
  6
CONTINUOUS
 62
     3
 10
24592.119139499991
 20
16555.632076499991
 30
0.0
 11
24592.119139499991
 21
16537.630334499991
 31
0.0
  0
LINE
  5
34A4
  8
2-0
  6
CONTINUOUS
 62
     3
 10
24592.119139499991
 20
16537.630334499991
 30
0.0
 11
24622.116763499991
 21
16537.630334499991
 31
0.0
  0
LINE
  5
34A5
  8
2-0
  6
CONTINUOUS
 62
     3
 10
24592.119139499991
 20
16553.727779500001
 30
0.0
 11
24592.119139499991
 21
16547.7308285
 31
0.0
  0
LINE
  5
34A6
  8
2-0
  6
CONTINUOUS
 62
     3
 10
24592.119139499991
 20
16547.7308285
 30
0.0
 11
24622.116763499991
 21
16547.7308285
 31
0.0
  0
LINE
  5
34A7
  8
2-0
  6
CONTINUOUS
 62
     3
 10
24622.116763499991
 20
16547.7308285
 30
0.0
 11
24622.116763499991
 21
16584.7309995
 31
0.0
  0
LINE
  5
34A8
  8
2-0
  6
CONTINUOUS
 62
     3
 10
24592.119139499991
 20
16584.7309995
 30
0.0
 11
24622.116763499991
 21
16584.7309995
 31
0.0
  0
LINE
  5
34A9
  8
2-0
  6
CONTINUOUS
 62
     3
 10
24592.119139499991
 20
16578.7281095
 30
0.0
 11
24592.119139499991
 21
16584.7309995
 31
0.0
  0
LINE
  5
34AA
  8
2-0
  6
CONTINUOUS
 62
     3
 10
24592.119139499991
 20
16594.8265445
 30
0.0
 11
24622.116763499991
 21
16594.8265445
 31
0.0
  0
LINE
  5
34AB
  8
2-0
  6
CONTINUOUS
 62
     3
 10
24592.119139499991
 20
16576.818863500001
 30
0.0
 11
24592.119139499991
 21
16594.8265445
 31
0.0
  0
LINE
  5
34AC
  8
2-0
  6
CONTINUOUS
 62
     3
 10
24617.1164995
 20
16576.818863500001
 30
0.0
 11
24592.119139499991
 21
16576.818863500001
 31
0.0
  0
LINE
  5
34AD
  8
2-0
  6
CONTINUOUS
 62
     3
 10
24617.1164995
 20
16581.825066500001
 30
0.0
 11
24617.1164995
 21
16576.818863500001
 31
0.0
  0
LINE
  5
34AE
  8
2-0
  6
CONTINUOUS
 62
     3
 10
24610.1149425
 20
16581.825066500001
 30
0.0
 11
24617.1164995
 21
16581.825066500001
 31
0.0
  0
LINE
  5
34AF
  8
2-0
  6
CONTINUOUS
 62
     3
 10
24610.1149425
 20
15881.065083
 30
0.0
 11
24617.1164995
 21
15881.065083
 31
0.0
  0
LINE
  5
34B0
  8
2-0
  6
CONTINUOUS
 62
     3
 10
24617.1164995
 20
15881.065083
 30
0.0
 11
24617.1164995
 21
15876.070758000011
 31
0.0
  0
LINE
  5
34B1
  8
2-0
  6
CONTINUOUS
 62
     3
 10
24617.1164995
 20
15876.070758000011
 30
0.0
 11
24592.119139499991
 21
15876.070758000011
 31
0.0
  0
LINE
  5
34B2
  8
2-0
  6
CONTINUOUS
 62
     3
 10
24592.119139499991
 20
15876.070758000011
 30
0.0
 11
24592.119139499991
 21
15894.06656100002
 31
0.0
  0
LINE
  5
34B3
  8
2-0
  6
CONTINUOUS
 62
     3
 10
24592.119139499991
 20
15894.06656100002
 30
0.0
 11
24622.116763499991
 21
15894.06656100002
 31
0.0
  0
LINE
  5
34B4
  8
2-0
  6
CONTINUOUS
 62
     3
 10
24592.119139499991
 20
15877.969116
 30
0.0
 11
24592.119139499991
 21
15883.97101600001
 31
0.0
  0
LINE
  5
34B5
  8
2-0
  6
CONTINUOUS
 62
     3
 10
24592.119139499991
 20
15883.97101600001
 30
0.0
 11
24622.116763499991
 21
15883.97101600001
 31
0.0
  0
LINE
  5
34B6
  8
2-0
  6
CONTINUOUS
 62
     3
 10
24622.116763499991
 20
15846.971835
 30
0.0
 11
24622.116763499991
 21
15883.97101600001
 31
0.0
  0
LINE
  5
34B7
  8
2-0
  6
CONTINUOUS
 62
     3
 10
24592.119139499991
 20
15846.971835
 30
0.0
 11
24622.116763499991
 21
15846.971835
 31
0.0
  0
LINE
  5
34B8
  8
2-0
  6
CONTINUOUS
 62
     3
 10
24592.119139499991
 20
15852.96878600001
 30
0.0
 11
24592.119139499991
 21
15846.971835
 31
0.0
  0
LINE
  5
34B9
  8
2-0
  6
CONTINUOUS
 62
     3
 10
24592.119139499991
 20
15836.870351
 30
0.0
 11
24622.116763499991
 21
15836.870351
 31
0.0
  0
LINE
  5
34BA
  8
2-0
  6
CONTINUOUS
 62
     3
 10
24592.119139499991
 20
15854.878032000001
 30
0.0
 11
24592.119139499991
 21
15836.870351
 31
0.0
  0
LINE
  5
34BB
  8
2-0
  6
CONTINUOUS
 62
     3
 10
24617.1164995
 20
15854.878032000001
 30
0.0
 11
24592.119139499991
 21
15854.878032000001
 31
0.0
  0
LINE
  5
34BC
  8
2-0
  6
CONTINUOUS
 62
     3
 10
24617.1164995
 20
15849.87776800002
 30
0.0
 11
24617.1164995
 21
15854.878032000001
 31
0.0
  0
LINE
  5
34BD
  8
2-0
  6
CONTINUOUS
 62
     3
 10
24610.1149425
 20
15849.87776800002
 30
0.0
 11
24617.1164995
 21
15849.87776800002
 31
0.0
  0
LINE
  5
34BE
  8
2-0
  6
CONTINUOUS
 62
     3
 10
24622.116763499991
 20
17242.118504000009
 30
0.0
 11
24622.116763499991
 21
16594.8265445
 31
0.0
  0
LINE
  5
34BF
  8
2-0
  6
CONTINUOUS
 62
     3
 10
24622.116763499991
 20
17396.728802000001
 30
0.0
 11
24622.116763499991
 21
17251.72708700001
 31
0.0
  0
LINE
  5
34C0
  8
2-0
  6
CONTINUOUS
 62
     3
 10
24534.23405649999
 20
17366.72919799999
 30
0.0
 11
24534.23405649999
 21
17281.732629999991
 31
0.0
  0
LINE
  5
34C1
  8
2-0
  6
CONTINUOUS
 62
     3
 10
24610.1149425
 20
15148.636761
 30
0.0
 11
24617.1164995
 21
15148.636761
 31
0.0
  0
LINE
  5
34C2
  8
2-0
  6
CONTINUOUS
 62
     3
 10
24617.1164995
 20
15148.636761
 30
0.0
 11
24617.1164995
 21
15153.631087
 31
0.0
  0
LINE
  5
34C3
  8
2-0
  6
CONTINUOUS
 62
     3
 10
24617.1164995
 20
15153.631087
 30
0.0
 11
24592.119139499991
 21
15153.631087
 31
0.0
  0
LINE
  5
34C4
  8
2-0
  6
CONTINUOUS
 62
     3
 10
24592.119139499991
 20
15153.631087
 30
0.0
 11
24592.119139499991
 21
15135.635283
 31
0.0
  0
LINE
  5
34C5
  8
2-0
  6
CONTINUOUS
 62
     3
 10
24592.119139499991
 20
15135.635283
 30
0.0
 11
24622.116763499991
 21
15135.635283
 31
0.0
  0
LINE
  5
34C6
  8
2-0
  6
CONTINUOUS
 62
     3
 10
24592.119139499991
 20
15151.73371800001
 30
0.0
 11
24592.119139499991
 21
15145.730828000011
 31
0.0
  0
LINE
  5
34C7
  8
2-0
  6
CONTINUOUS
 62
     3
 10
24592.119139499991
 20
15145.730828000011
 30
0.0
 11
24622.116763499991
 21
15145.730828000011
 31
0.0
  0
LINE
  5
34C8
  8
2-0
  6
CONTINUOUS
 62
     3
 10
24622.116763499991
 20
15145.730828000011
 30
0.0
 11
24622.116763499991
 21
15182.730999999991
 31
0.0
  0
LINE
  5
34C9
  8
2-0
  6
CONTINUOUS
 62
     3
 10
24592.119139499991
 20
15182.730999999991
 30
0.0
 11
24622.116763499991
 21
15182.730999999991
 31
0.0
  0
LINE
  5
34CA
  8
2-0
  6
CONTINUOUS
 62
     3
 10
24592.119139499991
 20
15176.734048
 30
0.0
 11
24592.119139499991
 21
15182.730999999991
 31
0.0
  0
LINE
  5
34CB
  8
2-0
  6
CONTINUOUS
 62
     3
 10
24592.119139499991
 20
15192.831493000011
 30
0.0
 11
24622.116763499991
 21
15192.831493000011
 31
0.0
  0
LINE
  5
34CC
  8
2-0
  6
CONTINUOUS
 62
     3
 10
24592.119139499991
 20
15174.82480200001
 30
0.0
 11
24592.119139499991
 21
15192.831493000011
 31
0.0
  0
LINE
  5
34CD
  8
2-0
  6
CONTINUOUS
 62
     3
 10
24617.1164995
 20
15174.82480200001
 30
0.0
 11
24592.119139499991
 21
15174.82480200001
 31
0.0
  0
LINE
  5
34CE
  8
2-0
  6
CONTINUOUS
 62
     3
 10
24617.1164995
 20
15179.83001500001
 30
0.0
 11
24617.1164995
 21
15174.82480200001
 31
0.0
  0
LINE
  5
34CF
  8
2-0
  6
CONTINUOUS
 62
     3
 10
24610.1149425
 20
15179.83001500001
 30
0.0
 11
24617.1164995
 21
15179.83001500001
 31
0.0
  0
LINE
  5
34D0
  8
2-0
  6
CONTINUOUS
 62
     3
 10
24592.119139499991
 20
14472.732840999999
 30
0.0
 11
24592.119139499991
 21
14478.737709999999
 31
0.0
  0
LINE
  5
34D1
  8
2-0
  6
CONTINUOUS
 62
     3
 10
24592.119139499991
 20
14478.737709999999
 30
0.0
 11
24622.116763499991
 21
14478.737709999999
 31
0.0
  0
LINE
  5
34D2
  8
2-0
  6
CONTINUOUS
 62
     3
 10
24622.116763499991
 20
14478.737709999999
 30
0.0
 11
24622.116763499991
 21
14363.733619000001
 31
0.0
  0
LINE
  5
34D3
  8
2-0
  6
CONTINUOUS
 62
     3
 10
24622.116763499991
 20
14363.733619000001
 30
0.0
 11
24537.118215499991
 21
14363.733619000001
 31
0.0
  0
LINE
  5
34D4
  8
2-0
  6
CONTINUOUS
 62
     3
 10
24537.118215499991
 20
14363.733619000001
 30
0.0
 11
24537.118215499991
 21
14448.729198000001
 31
0.0
  0
LINE
  5
34D5
  8
2-0
  6
CONTINUOUS
 62
     3
 10
24537.118215499991
 20
14448.729198000001
 30
0.0
 11
24569.117133499982
 21
14448.729198000001
 31
0.0
  0
LINE
  5
34D6
  8
2-0
  6
CONTINUOUS
 62
     3
 10
24610.1149425
 20
14475.767443000001
 30
0.0
 11
24617.1164995
 21
14475.767443000001
 31
0.0
  0
LINE
  5
34D7
  8
2-0
  6
CONTINUOUS
 62
     3
 10
24617.1164995
 20
14475.767443000001
 30
0.0
 11
24617.1164995
 21
14470.77014799998
 31
0.0
  0
LINE
  5
34D8
  8
2-0
  6
CONTINUOUS
 62
     3
 10
24617.1164995
 20
14470.77014799998
 30
0.0
 11
24592.119139499991
 21
14470.77014799998
 31
0.0
  0
LINE
  5
34D9
  8
2-0
  6
CONTINUOUS
 62
     3
 10
24592.119139499991
 20
14470.77014799998
 30
0.0
 11
24592.119139499991
 21
14488.768921000001
 31
0.0
  0
LINE
  5
34DA
  8
2-0
  6
CONTINUOUS
 62
     3
 10
24592.119139499991
 20
14488.768921000001
 30
0.0
 11
24622.116763499991
 21
14488.768921000001
 31
0.0
  0
LINE
  5
34DB
  8
2-0
  6
CENTER2
 62
     6
 10
24579.618479500001
 20
14166.236060999991
 30
0.0
 11
24579.618479500001
 21
15322.10481900002
 31
0.0
  0
LINE
  5
34DC
  8
2-0
  6
CONTINUOUS
 62
     3
 10
24622.116763499991
 20
18811.82605
 30
0.0
 11
24622.116763499991
 21
19455.6367675
 31
0.0
  0
LINE
  5
34DD
  8
2-0
  6
CONTINUOUS
 62
     6
 10
25314.621646499982
 20
20664.232102000031
 30
0.0
 11
26514.615708499961
 21
20664.232102000031
 31
0.0
  0
LINE
  5
34DE
  8
2-0
  6
CONTINUOUS
 62
     3
 10
22785.620327500001
 20
19934.229199000009
 30
0.0
 11
22785.620327500001
 21
19904.22563600001
 31
0.0
  0
LINE
  5
34DF
  8
2-0
  6
CONTINUOUS
 62
     3
 10
22785.620327500001
 20
19904.22563600001
 30
0.0
 11
22779.622385499981
 21
19904.22563600001
 31
0.0
  0
LINE
  5
34E0
  8
2-0
  6
CONTINUOUS
 62
     3
 10
22795.236828500001
 20
19904.22563600001
 30
0.0
 11
22795.236828500001
 21
19934.229199000009
 31
0.0
  0
LINE
  5
34E1
  8
2-0
  6
CONTINUOUS
 62
     3
 10
22777.235086499979
 20
19904.22563600001
 30
0.0
 11
22795.236828500001
 21
19904.22563600001
 31
0.0
  0
LINE
  5
34E2
  8
2-0
  6
CONTINUOUS
 62
     3
 10
22777.235086499979
 20
19929.234873000001
 30
0.0
 11
22777.235086499979
 21
19904.22563600001
 31
0.0
  0
LINE
  5
34E3
  8
2-0
  6
CONTINUOUS
 62
     3
 10
22782.235350499988
 20
19929.234873000001
 30
0.0
 11
22777.235086499979
 21
19929.234873000001
 31
0.0
  0
LINE
  5
34E4
  8
2-0
  6
CONTINUOUS
 62
     3
 10
22782.235350499988
 20
19922.229357000011
 30
0.0
 11
22782.235350499988
 21
19929.234873000001
 31
0.0
  0
LINE
  5
34E5
  8
2-0
  6
CONTINUOUS
 62
     3
 10
22755.61874350001
 20
19931.337122000001
 30
0.0
 11
22755.61874350001
 21
19846.338574000009
 31
0.0
  0
LINE
  5
34E6
  8
2-0
  6
CONTINUOUS
 62
     3
 10
22735.621646499989
 20
19931.337122000001
 30
0.0
 11
22755.61874350001
 21
19931.337122000001
 31
0.0
  0
LINE
  5
34E7
  8
2-0
  6
CONTINUOUS
 62
     3
 10
22644.007547500001
 20
19922.229357000011
 30
0.0
 11
22644.007547500001
 21
19929.234873000001
 31
0.0
  0
LINE
  5
34E8
  8
2-0
  6
CONTINUOUS
 62
     3
 10
22644.007547500001
 20
19929.234873000001
 30
0.0
 11
22649.007811499981
 21
19929.234873000001
 31
0.0
  0
LINE
  5
34E9
  8
2-0
  6
CONTINUOUS
 62
     3
 10
22649.007811499981
 20
19929.234873000001
 30
0.0
 11
22649.007811499981
 21
19904.22563600001
 31
0.0
  0
LINE
  5
34EA
  8
2-0
  6
CONTINUOUS
 62
     3
 10
22649.007811499981
 20
19904.22563600001
 30
0.0
 11
22631.006069499988
 21
19904.22563600001
 31
0.0
  0
LINE
  5
34EB
  8
2-0
  6
CONTINUOUS
 62
     3
 10
22631.006069499988
 20
19904.22563600001
 30
0.0
 11
22631.006069499988
 21
19934.229199000009
 31
0.0
  0
LINE
  5
34EC
  8
2-0
  6
CONTINUOUS
 62
     3
 10
22670.626133499991
 20
19931.337122000001
 30
0.0
 11
22690.6212505
 21
19931.337122000001
 31
0.0
  0
LINE
  5
34ED
  8
2-0
  6
CONTINUOUS
 62
     3
 10
22670.626133499991
 20
19846.338574000009
 30
0.0
 11
22670.626133499991
 21
19931.337122000001
 31
0.0
  0
LINE
  5
34EE
  8
2-0
  6
CONTINUOUS
 62
     3
 10
22640.628509500009
 20
19904.22563600001
 30
0.0
 11
22646.624470499992
 21
19904.22563600001
 31
0.0
  0
LINE
  5
34EF
  8
2-0
  6
CONTINUOUS
 62
     3
 10
22640.628509500009
 20
19934.229199000009
 30
0.0
 11
22640.628509500009
 21
19904.22563600001
 31
0.0
  0
LINE
  5
34F0
  8
2-0
  6
CONTINUOUS
 62
     3
 10
22755.61874350001
 20
19846.338574000009
 30
0.0
 11
22670.626133499991
 21
19846.338574000009
 31
0.0
  0
LINE
  5
34F1
  8
2-0
  6
CONTINUOUS
 62
     3
 10
22785.620327500001
 20
19934.229199000009
 30
0.0
 11
22640.628509500009
 21
19934.229199000009
 31
0.0
  0
LINE
  5
34F2
  8
2-0
  6
CONTINUOUS
 62
     6
 10
24774.15764749996
 20
20076.908939000012
 30
0.0
 11
25314.621646499982
 21
20664.232102000031
 31
0.0
  0
LINE
  5
34F3
  8
2-0
  6
CONTINUOUS
 62
     3
 10
24622.116763499991
 20
16537.630334499991
 30
0.0
 11
24622.116763499991
 21
15894.06656100002
 31
0.0
  0
LINE
  5
34F4
  8
2-0
  6
CONTINUOUS
 62
     6
 10
24793.77467649999
 20
20058.847812000022
 30
0.0
 11
24665.812656499991
 21
19959.165194000008
 31
0.0
  0
LINE
  5
34F5
  8
2-0
  6
CONTINUOUS
 62
     6
 10
24665.812656499991
 20
19959.165194000008
 30
0.0
 11
24754.52676149999
 21
20094.962149000021
 31
0.0
  0
LINE
  5
34F6
  8
2-0
  6
CONTINUOUS
 62
     6
 10
24793.77467649999
 20
20058.847812000022
 30
0.0
 11
24754.52676149999
 21
20094.962149000021
 31
0.0
  0
LINE
  5
34F7
  8
2-0
  6
CONTINUOUS
 62
     6
 10
24754.52676149999
 20
20094.962149000021
 30
0.0
 11
24665.812656499991
 21
19959.165194000008
 31
0.0
  0
LINE
  5
34F8
  8
2-0
  6
CONTINUOUS
 62
     6
 10
24665.812656499991
 20
19959.165194000008
 30
0.0
 11
24793.77467649999
 21
20058.847812000022
 31
0.0
  0
LINE
  5
34F9
  8
2-0
  6
CONTINUOUS
 62
     6
 10
24793.77467649999
 20
20058.847812000022
 30
0.0
 11
24665.812656499991
 21
19959.165194000008
 31
0.0
  0
LINE
  5
34FA
  8
2-0
  6
CONTINUOUS
 62
     6
 10
24754.52676149999
 20
20094.962149000021
 30
0.0
 11
24665.812656499991
 21
19959.165194000008
 31
0.0
  0
LINE
  5
34FB
  8
2-0
  6
CONTINUOUS
 62
     6
 10
24754.52676149999
 20
20094.962149000021
 30
0.0
 11
24793.77467649999
 21
20058.847812000022
 31
0.0
  0
LINE
  5
34FC
  8
2-0
  6
CONTINUOUS
 62
     4
 10
22713.118479499979
 20
20014.231442000018
 30
0.0
 11
22713.118479499979
 21
20744.228406999999
 31
0.0
  0
LINE
  5
34FD
  8
2-0
  6
CONTINUOUS
 62
     6
 10
24345.479042499988
 20
14255.46088099999
 30
0.0
 11
24477.225901500002
 21
14350.087808
 31
0.0
  0
LINE
  5
34FE
  8
2-0
  6
CONTINUOUS
 62
     6
 10
24477.225901500002
 20
14350.087808
 30
0.0
 11
24383.295765499988
 21
14217.84903799998
 31
0.0
  0
LINE
  5
34FF
  8
2-0
  6
CONTINUOUS
 62
     6
 10
24345.479042499988
 20
14255.46088099999
 30
0.0
 11
24383.295765499988
 21
14217.84903799998
 31
0.0
  0
LINE
  5
3500
  8
2-0
  6
CONTINUOUS
 62
     6
 10
24383.295765499988
 20
14217.84903799998
 30
0.0
 11
24477.225901500002
 21
14350.087808
 31
0.0
  0
LINE
  5
3501
  8
2-0
  6
CONTINUOUS
 62
     6
 10
24477.225901500002
 20
14350.087808
 30
0.0
 11
24345.479042499988
 21
14255.46088099999
 31
0.0
  0
LINE
  5
3502
  8
2-0
  6
CONTINUOUS
 62
     6
 10
24345.479042499988
 20
14255.46088099999
 30
0.0
 11
24477.225901500002
 21
14350.087808
 31
0.0
  0
LINE
  5
3503
  8
2-0
  6
CONTINUOUS
 62
     6
 10
24383.295765499988
 20
14217.84903799998
 30
0.0
 11
24477.225901500002
 21
14350.087808
 31
0.0
  0
LINE
  5
3504
  8
2-0
  6
CONTINUOUS
 62
     6
 10
24383.295765499988
 20
14217.84903799998
 30
0.0
 11
24345.479042499988
 21
14255.46088099999
 31
0.0
  0
LINE
  5
3505
  8
2-0
  6
CONTINUOUS
 62
     6
 10
24408.51483149999
 20
14582.365507999981
 30
0.0
 11
24541.114863499992
 21
14488.937179999981
 31
0.0
  0
LINE
  5
3506
  8
2-0
  6
CONTINUOUS
 62
     6
 10
24541.114863499992
 20
14488.937179999981
 30
0.0
 11
24385.382177499981
 21
14534.312694
 31
0.0
  0
LINE
  5
3507
  8
2-0
  6
CONTINUOUS
 62
     6
 10
24408.51483149999
 20
14582.365507999981
 30
0.0
 11
24385.382177499981
 21
14534.312694
 31
0.0
  0
LINE
  5
3508
  8
2-0
  6
CONTINUOUS
 62
     6
 10
24385.382177499981
 20
14534.312694
 30
0.0
 11
24541.114863499992
 21
14488.937179999981
 31
0.0
  0
LINE
  5
3509
  8
2-0
  6
CONTINUOUS
 62
     6
 10
24541.114863499992
 20
14488.937179999981
 30
0.0
 11
24408.51483149999
 21
14582.365507999981
 31
0.0
  0
LINE
  5
350A
  8
2-0
  6
CONTINUOUS
 62
     6
 10
24408.51483149999
 20
14582.365507999981
 30
0.0
 11
24541.114863499992
 21
14488.937179999981
 31
0.0
  0
LINE
  5
350B
  8
2-0
  6
CONTINUOUS
 62
     6
 10
24385.382177499981
 20
14534.312694
 30
0.0
 11
24541.114863499992
 21
14488.937179999981
 31
0.0
  0
LINE
  5
350C
  8
2-0
  6
CONTINUOUS
 62
     6
 10
24385.382177499981
 20
14534.312694
 30
0.0
 11
24408.51483149999
 21
14582.365507999981
 31
0.0
  0
LINE
  5
350D
  8
2-0
  6
CONTINUOUS
 62
     6
 10
24468.278477499982
 20
16962.186441000009
 30
0.0
 11
24622.116763499991
 21
17013.620272000011
 31
0.0
  0
LINE
  5
350E
  8
2-0
  6
CONTINUOUS
 62
     6
 10
24622.116763499991
 20
17013.620272000011
 30
0.0
 11
24493.281776499989
 21
16915.079837000008
 31
0.0
  0
LINE
  5
350F
  8
2-0
  6
CONTINUOUS
 62
     6
 10
24468.278477499982
 20
16962.186441000009
 30
0.0
 11
24493.281776499989
 21
16915.079837000008
 31
0.0
  0
LINE
  5
3510
  8
2-0
  6
CONTINUOUS
 62
     6
 10
24493.281776499989
 20
16915.079837000008
 30
0.0
 11
24622.116763499991
 21
17013.620272000011
 31
0.0
  0
LINE
  5
3511
  8
2-0
  6
CONTINUOUS
 62
     6
 10
24622.116763499991
 20
17013.620272000011
 30
0.0
 11
24468.278477499982
 21
16962.186441000009
 31
0.0
  0
LINE
  5
3512
  8
2-0
  6
CONTINUOUS
 62
     6
 10
24468.278477499982
 20
16962.186441000009
 30
0.0
 11
24622.116763499991
 21
17013.620272000011
 31
0.0
  0
LINE
  5
3513
  8
2-0
  6
CONTINUOUS
 62
     6
 10
24493.281776499989
 20
16915.079837000008
 30
0.0
 11
24622.116763499991
 21
17013.620272000011
 31
0.0
  0
LINE
  5
3514
  8
2-0
  6
CONTINUOUS
 62
     6
 10
24493.281776499989
 20
16915.079837000008
 30
0.0
 11
24468.278477499982
 21
16962.186441000009
 31
0.0
  0
LINE
  5
3515
  8
2-0
  6
CONTINUOUS
 62
     6
 10
24334.34227049999
 20
17453.504933000011
 30
0.0
 11
24477.225901500002
 21
17376.729304000011
 31
0.0
  0
LINE
  5
3516
  8
2-0
  6
CONTINUOUS
 62
     6
 10
24477.225901500002
 20
17376.729304000011
 30
0.0
 11
24317.164008499989
 21
17403.011373000008
 31
0.0
  0
LINE
  5
3517
  8
2-0
  6
CONTINUOUS
 62
     6
 10
24334.34227049999
 20
17453.504933000011
 30
0.0
 11
24317.164008499989
 21
17403.011373000008
 31
0.0
  0
LINE
  5
3518
  8
2-0
  6
CONTINUOUS
 62
     6
 10
24317.164008499989
 20
17403.011373000008
 30
0.0
 11
24477.225901500002
 21
17376.729304000011
 31
0.0
  0
LINE
  5
3519
  8
2-0
  6
CONTINUOUS
 62
     6
 10
24477.225901500002
 20
17376.729304000011
 30
0.0
 11
24334.34227049999
 21
17453.504933000011
 31
0.0
  0
LINE
  5
351A
  8
2-0
  6
CONTINUOUS
 62
     6
 10
24334.34227049999
 20
17453.504933000011
 30
0.0
 11
24477.225901500002
 21
17376.729304000011
 31
0.0
  0
LINE
  5
351B
  8
2-0
  6
CONTINUOUS
 62
     6
 10
24317.164008499989
 20
17403.011373000008
 30
0.0
 11
24477.225901500002
 21
17376.729304000011
 31
0.0
  0
LINE
  5
351C
  8
2-0
  6
CONTINUOUS
 62
     6
 10
24317.164008499989
 20
17403.011373000008
 30
0.0
 11
24334.34227049999
 21
17453.504933000011
 31
0.0
  0
LINE
  5
351D
  8
2-0
  6
CONTINUOUS
 62
     3
 10
21973.619060499979
 20
19934.229199000009
 30
0.0
 11
21936.61789849999
 21
19934.229199000009
 31
0.0
  0
LINE
  5
351E
  8
2-0
  6
CONTINUOUS
 62
     3
 10
21973.619060499979
 20
19904.22563600001
 30
0.0
 11
21973.619060499979
 21
19934.229199000009
 31
0.0
  0
LINE
  5
351F
  8
2-0
  6
CONTINUOUS
 62
     3
 10
21967.619139499981
 20
19904.22563600001
 30
0.0
 11
21973.619060499979
 21
19904.22563600001
 31
0.0
  0
LINE
  5
3520
  8
2-0
  6
CONTINUOUS
 62
     3
 10
21983.716584499991
 20
19904.22563600001
 30
0.0
 11
21983.716584499991
 21
19934.229199000009
 31
0.0
  0
LINE
  5
3521
  8
2-0
  6
CONTINUOUS
 62
     3
 10
21965.712863499979
 20
19904.22563600001
 30
0.0
 11
21983.716584499991
 21
19904.22563600001
 31
0.0
  0
LINE
  5
3522
  8
2-0
  6
CONTINUOUS
 62
     3
 10
21965.712863499979
 20
19929.234873000001
 30
0.0
 11
21965.712863499979
 21
19904.22563600001
 31
0.0
  0
LINE
  5
3523
  8
2-0
  6
CONTINUOUS
 62
     3
 10
21970.713127499988
 20
19929.234873000001
 30
0.0
 11
21965.712863499979
 21
19929.234873000001
 31
0.0
  0
LINE
  5
3524
  8
2-0
  6
CONTINUOUS
 62
     3
 10
21970.713127499988
 20
19922.229357000011
 30
0.0
 11
21970.713127499988
 21
19929.234873000001
 31
0.0
  0
LINE
  5
3525
  8
2-0
  6
CONTINUOUS
 62
     3
 10
21939.523832499981
 20
19922.229357000011
 30
0.0
 11
21939.523832499981
 21
19929.234873000001
 31
0.0
  0
LINE
  5
3526
  8
2-0
  6
CONTINUOUS
 62
     3
 10
21939.523832499981
 20
19929.234873000001
 30
0.0
 11
21944.52409649999
 21
19929.234873000001
 31
0.0
  0
LINE
  5
3527
  8
2-0
  6
CONTINUOUS
 62
     3
 10
21944.52409649999
 20
19929.234873000001
 30
0.0
 11
21944.52409649999
 21
19904.22563600001
 31
0.0
  0
LINE
  5
3528
  8
2-0
  6
CONTINUOUS
 62
     3
 10
21944.52409649999
 20
19904.22563600001
 30
0.0
 11
21926.52433349999
 21
19904.22563600001
 31
0.0
  0
LINE
  5
3529
  8
2-0
  6
CONTINUOUS
 62
     3
 10
21926.52433349999
 20
19904.22563600001
 30
0.0
 11
21926.52433349999
 21
19934.229199000009
 31
0.0
  0
LINE
  5
352A
  8
2-0
  6
CONTINUOUS
 62
     3
 10
21942.617819499981
 20
19904.22563600001
 30
0.0
 11
21936.61789849999
 21
19904.22563600001
 31
0.0
  0
LINE
  5
352B
  8
2-0
  6
CONTINUOUS
 62
     3
 10
21936.61789849999
 20
19904.22563600001
 30
0.0
 11
21936.61789849999
 21
19934.229199000009
 31
0.0
  0
LINE
  5
352C
  8
2-0
  6
CONTINUOUS
 62
     3
 10
20133.1197995
 20
19825.228987999999
 30
0.0
 11
20133.1197995
 21
19819.23302600002
 31
0.0
  0
LINE
  5
352D
  8
2-0
  6
CONTINUOUS
 62
     3
 10
20133.1197995
 20
19819.23302600002
 30
0.0
 11
20103.122174499989
 21
19819.23302600002
 31
0.0
  0
LINE
  5
352E
  8
2-0
  6
CONTINUOUS
 62
     3
 10
20103.122174499989
 20
19819.23302600002
 30
0.0
 11
20103.122174499989
 21
19934.229199000009
 31
0.0
  0
LINE
  5
352F
  8
2-0
  6
CONTINUOUS
 62
     3
 10
20103.122174499989
 20
19849.23263000001
 30
0.0
 11
20184.120115500002
 21
19849.23263000001
 31
0.0
  0
LINE
  5
3530
  8
2-0
  6
CONTINUOUS
 62
     3
 10
20133.1197995
 20
19808.935570000001
 30
0.0
 11
20103.122174499989
 21
19808.935570000001
 31
0.0
  0
LINE
  5
3531
  8
2-0
  6
CONTINUOUS
 62
     3
 10
20133.1197995
 20
19826.93731200002
 30
0.0
 11
20133.1197995
 21
19808.935570000001
 31
0.0
  0
LINE
  5
3532
  8
2-0
  6
CONTINUOUS
 62
     3
 10
20108.1263975
 20
19826.93731200002
 30
0.0
 11
20133.1197995
 21
19826.93731200002
 31
0.0
  0
LINE
  5
3533
  8
2-0
  6
CONTINUOUS
 62
     3
 10
20108.1263975
 20
19821.929130000019
 30
0.0
 11
20108.1263975
 21
19826.93731200002
 31
0.0
  0
LINE
  5
3534
  8
2-0
  6
CONTINUOUS
 62
     3
 10
20115.12399549998
 20
19821.929130000019
 30
0.0
 11
20108.1263975
 21
19821.929130000019
 31
0.0
  0
LINE
  5
3535
  8
2-0
  6
CONTINUOUS
 62
     3
 10
20215.418284499981
 20
19922.229357000011
 30
0.0
 11
20215.418284499981
 21
19929.234873000001
 31
0.0
  0
LINE
  5
3536
  8
2-0
  6
CONTINUOUS
 62
     3
 10
20215.418284499981
 20
19929.234873000001
 30
0.0
 11
20210.416040499989
 21
19929.234873000001
 31
0.0
  0
LINE
  5
3537
  8
2-0
  6
CONTINUOUS
 62
     3
 10
20210.416040499989
 20
19929.234873000001
 30
0.0
 11
20210.416040499989
 21
19904.22563600001
 31
0.0
  0
LINE
  5
3538
  8
2-0
  6
CONTINUOUS
 62
     3
 10
20210.416040499989
 20
19904.22563600001
 30
0.0
 11
20228.423721499988
 21
19904.22563600001
 31
0.0
  0
LINE
  5
3539
  8
2-0
  6
CONTINUOUS
 62
     3
 10
20228.423721499988
 20
19904.22563600001
 30
0.0
 11
20228.423721499988
 21
19934.229199000009
 31
0.0
  0
LINE
  5
353A
  8
2-0
  6
CONTINUOUS
 62
     3
 10
20218.124285499998
 20
19934.229199000009
 30
0.0
 11
20103.122174499989
 21
19934.229199000009
 31
0.0
  0
LINE
  5
353B
  8
2-0
  6
CONTINUOUS
 62
     3
 10
20218.124285499998
 20
19904.22563600001
 30
0.0
 11
20218.124285499998
 21
19934.229199000009
 31
0.0
  0
LINE
  5
353C
  8
2-0
  6
CONTINUOUS
 62
     3
 10
20212.120406499991
 20
19904.22563600001
 30
0.0
 11
20218.124285499998
 21
19904.22563600001
 31
0.0
  0
LINE
  5
353D
  8
2-0
  6
CONTINUOUS
 62
     3
 10
21238.517893999979
 20
19922.229357000011
 30
0.0
 11
21238.517893999979
 21
19929.234873000001
 31
0.0
  0
LINE
  5
353E
  8
2-0
  6
CONTINUOUS
 62
     3
 10
21238.517893999979
 20
19929.234873000001
 30
0.0
 11
21243.518156999991
 21
19929.234873000001
 31
0.0
  0
LINE
  5
353F
  8
2-0
  6
CONTINUOUS
 62
     3
 10
21243.518156999991
 20
19929.234873000001
 30
0.0
 11
21243.518156999991
 21
19904.22563600001
 31
0.0
  0
LINE
  5
3540
  8
2-0
  6
CONTINUOUS
 62
     3
 10
21243.518156999991
 20
19904.22563600001
 30
0.0
 11
21225.524333999969
 21
19904.22563600001
 31
0.0
  0
LINE
  5
3541
  8
2-0
  6
CONTINUOUS
 62
     3
 10
21225.524333999969
 20
19904.22563600001
 30
0.0
 11
21225.524333999969
 21
19934.229199000009
 31
0.0
  0
LINE
  5
3542
  8
2-0
  6
CONTINUOUS
 62
     3
 10
21241.61583999998
 20
19904.22563600001
 30
0.0
 11
21235.61789899999
 21
19904.22563600001
 31
0.0
  0
LINE
  5
3543
  8
2-0
  6
CONTINUOUS
 62
     3
 10
21235.61789899999
 20
19904.22563600001
 30
0.0
 11
21235.61789899999
 21
19934.229199000009
 31
0.0
  0
LINE
  5
3544
  8
2-0
  6
CONTINUOUS
 62
     3
 10
21272.61905999999
 20
19934.229199000009
 30
0.0
 11
21235.61789899999
 21
19934.229199000009
 31
0.0
  0
LINE
  5
3545
  8
2-0
  6
CONTINUOUS
 62
     3
 10
21272.61905999999
 20
19904.22563600001
 30
0.0
 11
21272.61905999999
 21
19934.229199000009
 31
0.0
  0
LINE
  5
3546
  8
2-0
  6
CONTINUOUS
 62
     3
 10
21266.613200999978
 20
19904.22563600001
 30
0.0
 11
21272.61905999999
 21
19904.22563600001
 31
0.0
  0
LINE
  5
3547
  8
2-0
  6
CONTINUOUS
 62
     3
 10
21282.712624999978
 20
19904.22563600001
 30
0.0
 11
21282.712624999978
 21
19934.229199000009
 31
0.0
  0
LINE
  5
3548
  8
2-0
  6
CONTINUOUS
 62
     3
 10
21264.716821999991
 20
19904.22563600001
 30
0.0
 11
21282.712624999978
 21
19904.22563600001
 31
0.0
  0
LINE
  5
3549
  8
2-0
  6
CONTINUOUS
 62
     3
 10
21264.716821999991
 20
19929.234873000001
 30
0.0
 11
21264.716821999991
 21
19904.22563600001
 31
0.0
  0
LINE
  5
354A
  8
2-0
  6
CONTINUOUS
 62
     3
 10
21269.707187999989
 20
19929.234873000001
 30
0.0
 11
21264.716821999991
 21
19929.234873000001
 31
0.0
  0
LINE
  5
354B
  8
2-0
  6
CONTINUOUS
 62
     3
 10
21269.707187999989
 20
19922.229357000011
 30
0.0
 11
21269.707187999989
 21
19929.234873000001
 31
0.0
  0
LINE
  5
354C
  8
2-0
  6
CONTINUOUS
 62
     3
 10
20581.711635499989
 20
19934.22919900003
 30
0.0
 11
21225.524333999969
 21
19934.229199000009
 31
0.0
  0
LINE
  5
354D
  8
2-0
  6
CONTINUOUS
 62
     3
 10
21926.52433349999
 20
19934.229199000009
 30
0.0
 11
21282.712624999978
 21
19934.229199000009
 31
0.0
  0
LINE
  5
354E
  8
2-0
  6
CONTINUOUS
 62
     3
 10
20133.1197995
 20
19825.228987999999
 30
0.0
 11
20133.1197995
 21
19819.23302600002
 31
0.0
  0
LINE
  5
354F
  8
2-0
  6
CONTINUOUS
 62
     3
 10
20133.1197995
 20
19819.23302600002
 30
0.0
 11
20103.122174499989
 21
19819.23302600002
 31
0.0
  0
LINE
  5
3550
  8
2-0
  6
CONTINUOUS
 62
     3
 10
20103.122174499989
 20
19819.23302600002
 30
0.0
 11
20103.122174499989
 21
19934.229199000009
 31
0.0
  0
LINE
  5
3551
  8
2-0
  6
CONTINUOUS
 62
     3
 10
20103.122174499989
 20
19849.23263000001
 30
0.0
 11
20184.120115500002
 21
19849.23263000001
 31
0.0
  0
LINE
  5
3552
  8
2-0
  6
CONTINUOUS
 62
     3
 10
20133.1197995
 20
19808.935570000001
 30
0.0
 11
20103.122174499989
 21
19808.935570000001
 31
0.0
  0
LINE
  5
3553
  8
2-0
  6
CONTINUOUS
 62
     3
 10
20133.1197995
 20
19826.93731200002
 30
0.0
 11
20133.1197995
 21
19808.935570000001
 31
0.0
  0
LINE
  5
3554
  8
2-0
  6
CONTINUOUS
 62
     3
 10
20108.1263975
 20
19826.93731200002
 30
0.0
 11
20133.1197995
 21
19826.93731200002
 31
0.0
  0
LINE
  5
3555
  8
2-0
  6
CONTINUOUS
 62
     3
 10
20108.1263975
 20
19821.929130000019
 30
0.0
 11
20108.1263975
 21
19826.93731200002
 31
0.0
  0
LINE
  5
3556
  8
2-0
  6
CONTINUOUS
 62
     3
 10
20115.12399549998
 20
19821.929130000019
 30
0.0
 11
20108.1263975
 21
19821.929130000019
 31
0.0
  0
LINE
  5
3557
  8
2-0
  6
CONTINUOUS
 62
     3
 10
20115.12399549998
 20
19468.632307499978
 30
0.0
 11
20108.1263975
 21
19468.632307499978
 31
0.0
  0
LINE
  5
3558
  8
2-0
  6
CONTINUOUS
 62
     3
 10
20108.1263975
 20
19468.632307499978
 30
0.0
 11
20108.1263975
 21
19473.632571499991
 31
0.0
  0
LINE
  5
3559
  8
2-0
  6
CONTINUOUS
 62
     3
 10
20108.1263975
 20
19473.632571499991
 30
0.0
 11
20133.1197995
 21
19473.632571499991
 31
0.0
  0
LINE
  5
355A
  8
2-0
  6
CONTINUOUS
 62
     3
 10
20133.1197995
 20
19473.632571499991
 30
0.0
 11
20133.1197995
 21
19455.636767499989
 31
0.0
  0
LINE
  5
355B
  8
2-0
  6
CONTINUOUS
 62
     3
 10
20133.1197995
 20
19455.636767499989
 30
0.0
 11
20103.122174499989
 21
19455.636767499989
 31
0.0
  0
LINE
  5
355C
  8
2-0
  6
CONTINUOUS
 62
     3
 10
20133.1197995
 20
19471.728274499968
 30
0.0
 11
20133.1197995
 21
19465.730333499989
 31
0.0
  0
LINE
  5
355D
  8
2-0
  6
CONTINUOUS
 62
     3
 10
20133.1197995
 20
19465.730333499989
 30
0.0
 11
20103.122174499989
 21
19465.730333499989
 31
0.0
  0
LINE
  5
355E
  8
2-0
  6
CONTINUOUS
 62
     3
 10
20103.122174499989
 20
19465.730333499989
 30
0.0
 11
20103.122174499989
 21
19502.7314945
 31
0.0
  0
LINE
  5
355F
  8
2-0
  6
CONTINUOUS
 62
     3
 10
20133.1197995
 20
19502.7314945
 30
0.0
 11
20103.122174499989
 21
19502.7314945
 31
0.0
  0
LINE
  5
3560
  8
2-0
  6
CONTINUOUS
 62
     3
 10
20133.1197995
 20
19496.727614499981
 30
0.0
 11
20133.1197995
 21
19502.7314945
 31
0.0
  0
LINE
  5
3561
  8
2-0
  6
CONTINUOUS
 62
     3
 10
20133.1197995
 20
19512.827039499982
 30
0.0
 11
20103.122174499989
 21
19512.827039499982
 31
0.0
  0
LINE
  5
3562
  8
2-0
  6
CONTINUOUS
 62
     3
 10
20133.1197995
 20
19494.8252975
 30
0.0
 11
20133.1197995
 21
19512.827039499982
 31
0.0
  0
LINE
  5
3563
  8
2-0
  6
CONTINUOUS
 62
     3
 10
20108.1263975
 20
19494.8252975
 30
0.0
 11
20133.1197995
 21
19494.8252975
 31
0.0
  0
LINE
  5
3564
  8
2-0
  6
CONTINUOUS
 62
     3
 10
20108.1263975
 20
19499.825561500002
 30
0.0
 11
20108.1263975
 21
19494.8252975
 31
0.0
  0
LINE
  5
3565
  8
2-0
  6
CONTINUOUS
 62
     3
 10
20115.12399549998
 20
19499.825561500002
 30
0.0
 11
20108.1263975
 21
19499.825561500002
 31
0.0
  0
LINE
  5
3566
  8
2-0
  6
CONTINUOUS
 62
     3
 10
20115.12399549998
 20
18767.631317999989
 30
0.0
 11
20108.1263975
 21
18767.631317999989
 31
0.0
  0
LINE
  5
3567
  8
2-0
  6
CONTINUOUS
 62
     3
 10
20108.1263975
 20
18767.631317999989
 30
0.0
 11
20108.1263975
 21
18772.63752
 31
0.0
  0
LINE
  5
3568
  8
2-0
  6
CONTINUOUS
 62
     3
 10
20108.1263975
 20
18772.63752
 30
0.0
 11
20133.1197995
 21
18772.63752
 31
0.0
  0
LINE
  5
3569
  8
2-0
  6
CONTINUOUS
 62
     3
 10
20133.1197995
 20
18772.63752
 30
0.0
 11
20133.1197995
 21
18754.635778
 31
0.0
  0
LINE
  5
356A
  8
2-0
  6
CONTINUOUS
 62
     3
 10
20133.1197995
 20
18754.635778
 30
0.0
 11
20103.122174499989
 21
18754.635778
 31
0.0
  0
LINE
  5
356B
  8
2-0
  6
CONTINUOUS
 62
     3
 10
20133.1197995
 20
18770.72728499999
 30
0.0
 11
20133.1197995
 21
18764.731322999989
 31
0.0
  0
LINE
  5
356C
  8
2-0
  6
CONTINUOUS
 62
     3
 10
20133.1197995
 20
18764.731322999989
 30
0.0
 11
20103.122174499989
 21
18764.731322999989
 31
0.0
  0
LINE
  5
356D
  8
2-0
  6
CONTINUOUS
 62
     3
 10
20103.122174499989
 20
18764.731322999989
 30
0.0
 11
20103.122174499989
 21
18801.730505
 31
0.0
  0
LINE
  5
356E
  8
2-0
  6
CONTINUOUS
 62
     3
 10
20133.1197995
 20
18801.730505
 30
0.0
 11
20103.122174499989
 21
18801.730505
 31
0.0
  0
LINE
  5
356F
  8
2-0
  6
CONTINUOUS
 62
     3
 10
20133.1197995
 20
18795.73454300001
 30
0.0
 11
20133.1197995
 21
18801.730505
 31
0.0
  0
LINE
  5
3570
  8
2-0
  6
CONTINUOUS
 62
     3
 10
20133.1197995
 20
18811.82605
 30
0.0
 11
20103.122174499989
 21
18811.82605
 31
0.0
  0
LINE
  5
3571
  8
2-0
  6
CONTINUOUS
 62
     3
 10
20133.1197995
 20
18793.824307999988
 30
0.0
 11
20133.1197995
 21
18811.82605
 31
0.0
  0
LINE
  5
3572
  8
2-0
  6
CONTINUOUS
 62
     3
 10
20108.1263975
 20
18793.824307999988
 30
0.0
 11
20133.1197995
 21
18793.824307999988
 31
0.0
  0
LINE
  5
3573
  8
2-0
  6
CONTINUOUS
 62
     3
 10
20108.1263975
 20
18798.83051
 30
0.0
 11
20108.1263975
 21
18793.824307999988
 31
0.0
  0
LINE
  5
3574
  8
2-0
  6
CONTINUOUS
 62
     3
 10
20115.12399549998
 20
18798.83051
 30
0.0
 11
20108.1263975
 21
18798.83051
 31
0.0
  0
LINE
  5
3575
  8
2-0
  6
CONTINUOUS
 62
     3
 10
20115.12399549998
 20
18097.824572000001
 30
0.0
 11
20108.1263975
 21
18097.824572000001
 31
0.0
  0
LINE
  5
3576
  8
2-0
  6
CONTINUOUS
 62
     3
 10
20108.1263975
 20
18097.824572000001
 30
0.0
 11
20108.1263975
 21
18092.836185
 31
0.0
  0
LINE
  5
3577
  8
2-0
  6
CONTINUOUS
 62
     3
 10
20108.1263975
 20
18092.836185
 30
0.0
 11
20133.1197995
 21
18092.836185
 31
0.0
  0
LINE
  5
3578
  8
2-0
  6
CONTINUOUS
 62
     3
 10
20133.1197995
 20
18092.836185
 30
0.0
 11
20133.1197995
 21
18110.831988000002
 31
0.0
  0
LINE
  5
3579
  8
2-0
  6
CONTINUOUS
 62
     3
 10
20133.1197995
 20
18110.831988000002
 30
0.0
 11
20103.122174499989
 21
18110.831988000002
 31
0.0
  0
LINE
  5
357A
  8
2-0
  6
CONTINUOUS
 62
     3
 10
20133.1197995
 20
18094.734542999991
 30
0.0
 11
20133.1197995
 21
18100.730504999981
 31
0.0
  0
LINE
  5
357B
  8
2-0
  6
CONTINUOUS
 62
     3
 10
20133.1197995
 20
18100.730504999981
 30
0.0
 11
20103.122174499989
 21
18100.730504999981
 31
0.0
  0
LINE
  5
357C
  8
2-0
  6
CONTINUOUS
 62
     3
 10
20103.122174499989
 20
18100.730504999981
 30
0.0
 11
20103.122174499989
 21
18063.731323
 31
0.0
  0
LINE
  5
357D
  8
2-0
  6
CONTINUOUS
 62
     3
 10
20133.1197995
 20
18063.731323
 30
0.0
 11
20103.122174499989
 21
18063.731323
 31
0.0
  0
LINE
  5
357E
  8
2-0
  6
CONTINUOUS
 62
     3
 10
20133.1197995
 20
18069.733223999981
 30
0.0
 11
20133.1197995
 21
18063.731323
 31
0.0
  0
LINE
  5
357F
  8
2-0
  6
CONTINUOUS
 62
     3
 10
20133.1197995
 20
18053.641716999991
 30
0.0
 11
20103.122174499989
 21
18053.641716999991
 31
0.0
  0
LINE
  5
3580
  8
2-0
  6
CONTINUOUS
 62
     3
 10
20133.1197995
 20
18071.63752
 30
0.0
 11
20133.1197995
 21
18053.641716999991
 31
0.0
  0
LINE
  5
3581
  8
2-0
  6
CONTINUOUS
 62
     3
 10
20108.1263975
 20
18071.63752
 30
0.0
 11
20133.1197995
 21
18071.63752
 31
0.0
  0
LINE
  5
3582
  8
2-0
  6
CONTINUOUS
 62
     3
 10
20108.1263975
 20
18066.637256999998
 30
0.0
 11
20108.1263975
 21
18071.63752
 31
0.0
  0
LINE
  5
3583
  8
2-0
  6
CONTINUOUS
 62
     3
 10
20115.12399549998
 20
18066.637256999998
 30
0.0
 11
20108.1263975
 21
18066.637256999998
 31
0.0
  0
LINE
  5
3584
  8
2-0
  6
CONTINUOUS
 62
     3
 10
20106.008312499998
 20
17346.728143
 30
0.0
 11
20106.008312499998
 21
17366.72919799999
 31
0.0
  0
LINE
  5
3585
  8
2-0
  6
CONTINUOUS
 62
     3
 10
20106.008312499998
 20
17366.72919799999
 30
0.0
 11
20191.008840499991
 21
17366.72919799999
 31
0.0
  0
LINE
  5
3586
  8
2-0
  6
CONTINUOUS
 62
     3
 10
20115.12399549998
 20
17393.335908000001
 30
0.0
 11
20108.1263975
 21
17393.335908000001
 31
0.0
  0
LINE
  5
3587
  8
2-0
  6
CONTINUOUS
 62
     3
 10
20108.1263975
 20
17393.335908000001
 30
0.0
 11
20108.1263975
 21
17388.341582000001
 31
0.0
  0
LINE
  5
3588
  8
2-0
  6
CONTINUOUS
 62
     3
 10
20108.1263975
 20
17388.341582000001
 30
0.0
 11
20133.1197995
 21
17388.341582000001
 31
0.0
  0
LINE
  5
3589
  8
2-0
  6
CONTINUOUS
 62
     3
 10
20133.1197995
 20
17388.341582000001
 30
0.0
 11
20133.1197995
 21
17406.33738600001
 31
0.0
  0
LINE
  5
358A
  8
2-0
  6
CONTINUOUS
 62
     3
 10
20133.1197995
 20
17406.33738600001
 30
0.0
 11
20103.122174499989
 21
17406.33738600001
 31
0.0
  0
LINE
  5
358B
  8
2-0
  6
CONTINUOUS
 62
     3
 10
20133.1197995
 20
17396.728802000001
 30
0.0
 11
20133.1197995
 21
17390.726901999991
 31
0.0
  0
LINE
  5
358C
  8
2-0
  6
CONTINUOUS
 62
     3
 10
20103.122174499989
 20
17396.728802000001
 30
0.0
 11
20133.1197995
 21
17396.728802000001
 31
0.0
  0
LINE
  5
358D
  8
2-0
  6
CONTINUOUS
 62
     3
 10
20103.122174499989
 20
17406.33738600001
 30
0.0
 11
20103.122174499989
 21
18053.641716999991
 31
0.0
  0
LINE
  5
358E
  8
2-0
  6
CONTINUOUS
 62
     3
 10
20103.122174499989
 20
18110.831988000002
 30
0.0
 11
20103.122174499989
 21
18754.635778
 31
0.0
  0
LINE
  5
358F
  8
2-0
  6
CONTINUOUS
 62
     3
 10
20103.122174499989
 20
17251.72708700001
 30
0.0
 11
20133.1197995
 21
17251.72708700001
 31
0.0
  0
LINE
  5
3590
  8
2-0
  6
CONTINUOUS
 62
     3
 10
20133.1197995
 20
17251.72708700001
 30
0.0
 11
20133.1197995
 21
17257.728986999999
 31
0.0
  0
LINE
  5
3591
  8
2-0
  6
CONTINUOUS
 62
     3
 10
20191.008840499991
 20
17281.732629999991
 30
0.0
 11
20106.008312499998
 21
17281.732629999991
 31
0.0
  0
LINE
  5
3592
  8
2-0
  6
CONTINUOUS
 62
     3
 10
20106.008312499998
 20
17281.732629999991
 30
0.0
 11
20106.008312499998
 21
17301.727747000012
 31
0.0
  0
LINE
  5
3593
  8
2-0
  6
CONTINUOUS
 62
     3
 10
20133.1197995
 20
17242.118504000009
 30
0.0
 11
20103.122174499989
 21
17242.118504000009
 31
0.0
  0
LINE
  5
3594
  8
2-0
  6
CONTINUOUS
 62
     3
 10
20133.1197995
 20
17260.114306999982
 30
0.0
 11
20133.1197995
 21
17242.118504000009
 31
0.0
  0
LINE
  5
3595
  8
2-0
  6
CONTINUOUS
 62
     3
 10
20108.1263975
 20
17260.114306999982
 30
0.0
 11
20133.1197995
 21
17260.114306999982
 31
0.0
  0
LINE
  5
3596
  8
2-0
  6
CONTINUOUS
 62
     3
 10
20108.1263975
 20
17255.114043000009
 30
0.0
 11
20108.1263975
 21
17260.114306999982
 31
0.0
  0
LINE
  5
3597
  8
2-0
  6
CONTINUOUS
 62
     3
 10
20115.12399549998
 20
17255.114043000009
 30
0.0
 11
20108.1263975
 21
17255.114043000009
 31
0.0
  0
LINE
  5
3598
  8
2-0
  6
CONTINUOUS
 62
     3
 10
20115.12399549998
 20
16550.631812499989
 30
0.0
 11
20108.1263975
 21
16550.631812499989
 31
0.0
  0
LINE
  5
3599
  8
2-0
  6
CONTINUOUS
 62
     3
 10
20108.1263975
 20
16550.631812499989
 30
0.0
 11
20108.1263975
 21
16555.632076499991
 31
0.0
  0
LINE
  5
359A
  8
2-0
  6
CONTINUOUS
 62
     3
 10
20108.1263975
 20
16555.632076499991
 30
0.0
 11
20133.1197995
 21
16555.632076499991
 31
0.0
  0
LINE
  5
359B
  8
2-0
  6
CONTINUOUS
 62
     3
 10
20133.1197995
 20
16555.632076499991
 30
0.0
 11
20133.1197995
 21
16537.630334499991
 31
0.0
  0
LINE
  5
359C
  8
2-0
  6
CONTINUOUS
 62
     3
 10
20133.1197995
 20
16537.630334499991
 30
0.0
 11
20103.122174499989
 21
16537.630334499991
 31
0.0
  0
LINE
  5
359D
  8
2-0
  6
CONTINUOUS
 62
     3
 10
20133.1197995
 20
16553.727779500001
 30
0.0
 11
20133.1197995
 21
16547.7308285
 31
0.0
  0
LINE
  5
359E
  8
2-0
  6
CONTINUOUS
 62
     3
 10
20133.1197995
 20
16547.7308285
 30
0.0
 11
20103.122174499989
 21
16547.7308285
 31
0.0
  0
LINE
  5
359F
  8
2-0
  6
CONTINUOUS
 62
     3
 10
20103.122174499989
 20
16547.7308285
 30
0.0
 11
20103.122174499989
 21
16584.7309995
 31
0.0
  0
LINE
  5
35A0
  8
2-0
  6
CONTINUOUS
 62
     3
 10
20133.1197995
 20
16584.7309995
 30
0.0
 11
20103.122174499989
 21
16584.7309995
 31
0.0
  0
LINE
  5
35A1
  8
2-0
  6
CONTINUOUS
 62
     3
 10
20133.1197995
 20
16578.7281095
 30
0.0
 11
20133.1197995
 21
16584.7309995
 31
0.0
  0
LINE
  5
35A2
  8
2-0
  6
CONTINUOUS
 62
     3
 10
20133.1197995
 20
16594.8265445
 30
0.0
 11
20103.122174499989
 21
16594.8265445
 31
0.0
  0
LINE
  5
35A3
  8
2-0
  6
CONTINUOUS
 62
     3
 10
20133.1197995
 20
16576.818863500001
 30
0.0
 11
20133.1197995
 21
16594.8265445
 31
0.0
  0
LINE
  5
35A4
  8
2-0
  6
CONTINUOUS
 62
     3
 10
20108.1263975
 20
16576.818863500001
 30
0.0
 11
20133.1197995
 21
16576.818863500001
 31
0.0
  0
LINE
  5
35A5
  8
2-0
  6
CONTINUOUS
 62
     3
 10
20108.1263975
 20
16581.825066500001
 30
0.0
 11
20108.1263975
 21
16576.818863500001
 31
0.0
  0
LINE
  5
35A6
  8
2-0
  6
CONTINUOUS
 62
     3
 10
20115.12399549998
 20
16581.825066500001
 30
0.0
 11
20108.1263975
 21
16581.825066500001
 31
0.0
  0
LINE
  5
35A7
  8
2-0
  6
CONTINUOUS
 62
     3
 10
20115.12399549998
 20
15881.065083
 30
0.0
 11
20108.1263975
 21
15881.065083
 31
0.0
  0
LINE
  5
35A8
  8
2-0
  6
CONTINUOUS
 62
     3
 10
20108.1263975
 20
15881.065083
 30
0.0
 11
20108.1263975
 21
15876.070758000011
 31
0.0
  0
LINE
  5
35A9
  8
2-0
  6
CONTINUOUS
 62
     3
 10
20108.1263975
 20
15876.070758000011
 30
0.0
 11
20133.1197995
 21
15876.070758000011
 31
0.0
  0
LINE
  5
35AA
  8
2-0
  6
CONTINUOUS
 62
     3
 10
20133.1197995
 20
15876.070758000011
 30
0.0
 11
20133.1197995
 21
15894.066561000011
 31
0.0
  0
LINE
  5
35AB
  8
2-0
  6
CONTINUOUS
 62
     3
 10
20133.1197995
 20
15894.066561000011
 30
0.0
 11
20103.122174499989
 21
15894.066561000011
 31
0.0
  0
LINE
  5
35AC
  8
2-0
  6
CONTINUOUS
 62
     3
 10
20133.1197995
 20
15877.969116
 30
0.0
 11
20133.1197995
 21
15883.97101600001
 31
0.0
  0
LINE
  5
35AD
  8
2-0
  6
CONTINUOUS
 62
     3
 10
20133.1197995
 20
15883.97101600001
 30
0.0
 11
20103.122174499989
 21
15883.97101600001
 31
0.0
  0
LINE
  5
35AE
  8
2-0
  6
CONTINUOUS
 62
     3
 10
20103.122174499989
 20
15846.971835
 30
0.0
 11
20103.122174499989
 21
15883.97101600001
 31
0.0
  0
LINE
  5
35AF
  8
2-0
  6
CONTINUOUS
 62
     3
 10
20133.1197995
 20
15846.971835
 30
0.0
 11
20103.122174499989
 21
15846.971835
 31
0.0
  0
LINE
  5
35B0
  8
2-0
  6
CONTINUOUS
 62
     3
 10
20133.1197995
 20
15852.968785999999
 30
0.0
 11
20133.1197995
 21
15846.971835
 31
0.0
  0
LINE
  5
35B1
  8
2-0
  6
CONTINUOUS
 62
     3
 10
20133.1197995
 20
15836.870351
 30
0.0
 11
20103.122174499989
 21
15836.870351
 31
0.0
  0
LINE
  5
35B2
  8
2-0
  6
CONTINUOUS
 62
     3
 10
20133.1197995
 20
15854.878032000001
 30
0.0
 11
20133.1197995
 21
15836.870351
 31
0.0
  0
LINE
  5
35B3
  8
2-0
  6
CONTINUOUS
 62
     3
 10
20108.1263975
 20
15854.878032000001
 30
0.0
 11
20133.1197995
 21
15854.878032000001
 31
0.0
  0
LINE
  5
35B4
  8
2-0
  6
CONTINUOUS
 62
     3
 10
20108.1263975
 20
15849.87776800002
 30
0.0
 11
20108.1263975
 21
15854.878032000001
 31
0.0
  0
LINE
  5
35B5
  8
2-0
  6
CONTINUOUS
 62
     3
 10
20115.12399549998
 20
15849.87776800002
 30
0.0
 11
20108.1263975
 21
15849.87776800002
 31
0.0
  0
LINE
  5
35B6
  8
2-0
  6
CONTINUOUS
 62
     3
 10
20103.122174499989
 20
17242.118504000009
 30
0.0
 11
20103.122174499989
 21
16594.8265445
 31
0.0
  0
LINE
  5
35B7
  8
2-0
  6
CONTINUOUS
 62
     3
 10
20103.122174499989
 20
17396.728802000001
 30
0.0
 11
20103.122174499989
 21
17251.72708700001
 31
0.0
  0
LINE
  5
35B8
  8
2-0
  6
CONTINUOUS
 62
     3
 10
20191.008840499991
 20
17366.72919799999
 30
0.0
 11
20191.008840499991
 21
17281.732629999991
 31
0.0
  0
LINE
  5
35B9
  8
2-0
  6
CONTINUOUS
 62
     3
 10
20115.12399549998
 20
15148.636761
 30
0.0
 11
20108.1263975
 21
15148.636761
 31
0.0
  0
LINE
  5
35BA
  8
2-0
  6
CONTINUOUS
 62
     3
 10
20108.1263975
 20
15148.636761
 30
0.0
 11
20108.1263975
 21
15153.631087000011
 31
0.0
  0
LINE
  5
35BB
  8
2-0
  6
CONTINUOUS
 62
     3
 10
20108.1263975
 20
15153.631087000011
 30
0.0
 11
20133.1197995
 21
15153.631087000011
 31
0.0
  0
LINE
  5
35BC
  8
2-0
  6
CONTINUOUS
 62
     3
 10
20133.1197995
 20
15153.631087000011
 30
0.0
 11
20133.1197995
 21
15135.635283000011
 31
0.0
  0
LINE
  5
35BD
  8
2-0
  6
CONTINUOUS
 62
     3
 10
20133.1197995
 20
15135.635283000011
 30
0.0
 11
20103.122174499989
 21
15135.635283000011
 31
0.0
  0
LINE
  5
35BE
  8
2-0
  6
CONTINUOUS
 62
     3
 10
20133.1197995
 20
15151.73371800001
 30
0.0
 11
20133.1197995
 21
15145.730828000011
 31
0.0
  0
LINE
  5
35BF
  8
2-0
  6
CONTINUOUS
 62
     3
 10
20133.1197995
 20
15145.730828000011
 30
0.0
 11
20103.122174499989
 21
15145.730828000011
 31
0.0
  0
LINE
  5
35C0
  8
2-0
  6
CONTINUOUS
 62
     3
 10
20103.122174499989
 20
15145.730828000011
 30
0.0
 11
20103.122174499989
 21
15182.730999999991
 31
0.0
  0
LINE
  5
35C1
  8
2-0
  6
CONTINUOUS
 62
     3
 10
20133.1197995
 20
15182.730999999991
 30
0.0
 11
20103.122174499989
 21
15182.730999999991
 31
0.0
  0
LINE
  5
35C2
  8
2-0
  6
CONTINUOUS
 62
     3
 10
20133.1197995
 20
15176.734048
 30
0.0
 11
20133.1197995
 21
15182.730999999991
 31
0.0
  0
LINE
  5
35C3
  8
2-0
  6
CONTINUOUS
 62
     3
 10
20133.1197995
 20
15192.831493000011
 30
0.0
 11
20103.122174499989
 21
15192.831493000011
 31
0.0
  0
LINE
  5
35C4
  8
2-0
  6
CONTINUOUS
 62
     3
 10
20133.1197995
 20
15174.82480200001
 30
0.0
 11
20133.1197995
 21
15192.831493000011
 31
0.0
  0
LINE
  5
35C5
  8
2-0
  6
CONTINUOUS
 62
     3
 10
20108.1263975
 20
15174.82480200001
 30
0.0
 11
20133.1197995
 21
15174.82480200001
 31
0.0
  0
LINE
  5
35C6
  8
2-0
  6
CONTINUOUS
 62
     3
 10
20108.1263975
 20
15179.83001500001
 30
0.0
 11
20108.1263975
 21
15174.82480200001
 31
0.0
  0
LINE
  5
35C7
  8
2-0
  6
CONTINUOUS
 62
     3
 10
20115.12399549998
 20
15179.83001500001
 30
0.0
 11
20108.1263975
 21
15179.83001500001
 31
0.0
  0
LINE
  5
35C8
  8
2-0
  6
CONTINUOUS
 62
     3
 10
20133.1197995
 20
14472.732840999999
 30
0.0
 11
20133.1197995
 21
14478.737709999999
 31
0.0
  0
LINE
  5
35C9
  8
2-0
  6
CONTINUOUS
 62
     3
 10
20133.1197995
 20
14478.737709999999
 30
0.0
 11
20103.122174499989
 21
14478.737709999999
 31
0.0
  0
LINE
  5
35CA
  8
2-0
  6
CONTINUOUS
 62
     3
 10
20103.122174499989
 20
14478.737709999999
 30
0.0
 11
20103.122174499989
 21
14363.733619000001
 31
0.0
  0
LINE
  5
35CB
  8
2-0
  6
CONTINUOUS
 62
     3
 10
20103.122174499989
 20
14363.733619000001
 30
0.0
 11
20188.120722499982
 21
14363.733619000001
 31
0.0
  0
LINE
  5
35CC
  8
2-0
  6
CONTINUOUS
 62
     3
 10
20188.120722499982
 20
14363.733619000001
 30
0.0
 11
20188.120722499982
 21
14448.729198000001
 31
0.0
  0
LINE
  5
35CD
  8
2-0
  6
CONTINUOUS
 62
     3
 10
20188.120722499982
 20
14448.729198000001
 30
0.0
 11
20156.123784499981
 21
14448.729198000001
 31
0.0
  0
LINE
  5
35CE
  8
2-0
  6
CONTINUOUS
 62
     3
 10
20115.12399549998
 20
14475.767443000001
 30
0.0
 11
20108.1263975
 21
14475.767443000001
 31
0.0
  0
LINE
  5
35CF
  8
2-0
  6
CONTINUOUS
 62
     3
 10
20108.1263975
 20
14475.767443000001
 30
0.0
 11
20108.1263975
 21
14470.77014799998
 31
0.0
  0
LINE
  5
35D0
  8
2-0
  6
CONTINUOUS
 62
     3
 10
20108.1263975
 20
14470.77014799998
 30
0.0
 11
20133.1197995
 21
14470.77014799998
 31
0.0
  0
LINE
  5
35D1
  8
2-0
  6
CONTINUOUS
 62
     3
 10
20133.1197995
 20
14470.77014799998
 30
0.0
 11
20133.1197995
 21
14488.768921000001
 31
0.0
  0
LINE
  5
35D2
  8
2-0
  6
CONTINUOUS
 62
     3
 10
20133.1197995
 20
14488.768921000001
 30
0.0
 11
20103.122174499989
 21
14488.768921000001
 31
0.0
  0
LINE
  5
35D3
  8
2-0
  6
CONTINUOUS
 62
     3
 10
20103.122174499989
 20
15192.831493000011
 30
0.0
 11
20103.122174499989
 21
15836.870351
 31
0.0
  0
LINE
  5
35D4
  8
2-0
  6
CONTINUOUS
 62
     3
 10
20103.122174499989
 20
18811.82605
 30
0.0
 11
20103.122174499989
 21
19455.636767499989
 31
0.0
  0
LINE
  5
35D5
  8
2-0
  6
CONTINUOUS
 62
     3
 10
20103.122174499989
 20
16537.630334499991
 30
0.0
 11
20103.122174499989
 21
15894.066561000011
 31
0.0
  0
LINE
  5
35D6
  8
2-0
  6
CONTINUOUS
 62
     3
 10
24622.116763499991
 20
19819.23302600002
 30
0.0
 11
24622.116763499991
 21
19934.229199000009
 31
0.0
  0
LINE
  5
35D7
  8
2-0
  6
CENTER2
 62
     6
 10
18816.1639025
 20
19891.730914
 30
0.0
 11
25472.11808349999
 21
19891.730914
 31
0.0
  0
LINE
  5
35D8
  8
2-0
  6
CENTER2
 62
     6
 10
18816.1639025
 20
17324.230914
 30
0.0
 11
25472.11808349999
 21
17324.230914
 31
0.0
  0
LINE
  5
35D9
  8
2-0
  6
CENTER2
 62
     6
 10
18816.1639025
 20
14406.230913999991
 30
0.0
 11
25472.11808349999
 21
14406.230913999991
 31
0.0
  0
LINE
  5
35DA
  8
2-0
  6
CONTINUOUS
 62
     3
 10
20568.710157500002
 20
19922.229357000011
 30
0.0
 11
20568.710157500002
 21
19929.234873000001
 31
0.0
  0
LINE
  5
35DB
  8
2-0
  6
CONTINUOUS
 62
     3
 10
20568.710157500002
 20
19929.234873000001
 30
0.0
 11
20563.709893499989
 21
19929.234873000001
 31
0.0
  0
LINE
  5
35DC
  8
2-0
  6
CONTINUOUS
 62
     3
 10
20563.709893499989
 20
19929.234873000001
 30
0.0
 11
20563.709893499989
 21
19904.22563600001
 31
0.0
  0
LINE
  5
35DD
  8
2-0
  6
CONTINUOUS
 62
     3
 10
20563.709893499989
 20
19904.22563600001
 30
0.0
 11
20581.711635499989
 21
19904.22563600001
 31
0.0
  0
LINE
  5
35DE
  8
2-0
  6
CONTINUOUS
 62
     3
 10
20581.711635499989
 20
19904.22563600001
 30
0.0
 11
20581.711635499989
 21
19934.229199000009
 31
0.0
  0
LINE
  5
35DF
  8
2-0
  6
CONTINUOUS
 62
     3
 10
20565.612210499989
 20
19904.22563600001
 30
0.0
 11
20571.6160905
 21
19904.22563600001
 31
0.0
  0
LINE
  5
35E0
  8
2-0
  6
CONTINUOUS
 62
     3
 10
20571.6160905
 20
19904.22563600001
 30
0.0
 11
20571.6160905
 21
19934.229199000009
 31
0.0
  0
LINE
  5
35E1
  8
2-0
  6
CONTINUOUS
 62
     3
 10
20534.620868499991
 20
19934.229199000009
 30
0.0
 11
20571.6160905
 21
19934.229199000009
 31
0.0
  0
LINE
  5
35E2
  8
2-0
  6
CONTINUOUS
 62
     3
 10
20534.620868499991
 20
19904.22563600001
 30
0.0
 11
20534.620868499991
 21
19934.229199000009
 31
0.0
  0
LINE
  5
35E3
  8
2-0
  6
CONTINUOUS
 62
     3
 10
20540.614850499998
 20
19904.22563600001
 30
0.0
 11
20534.620868499991
 21
19904.22563600001
 31
0.0
  0
LINE
  5
35E4
  8
2-0
  6
CONTINUOUS
 62
     3
 10
20524.525323499991
 20
19904.22563600001
 30
0.0
 11
20524.525323499991
 21
19934.229199000009
 31
0.0
  0
LINE
  5
35E5
  8
2-0
  6
CONTINUOUS
 62
     3
 10
20542.521126499989
 20
19904.22563600001
 30
0.0
 11
20524.525323499991
 21
19904.22563600001
 31
0.0
  0
LINE
  5
35E6
  8
2-0
  6
CONTINUOUS
 62
     3
 10
20542.521126499989
 20
19929.234873000001
 30
0.0
 11
20542.521126499989
 21
19904.22563600001
 31
0.0
  0
LINE
  5
35E7
  8
2-0
  6
CONTINUOUS
 62
     3
 10
20537.522842499991
 20
19929.234873000001
 30
0.0
 11
20542.521126499989
 21
19929.234873000001
 31
0.0
  0
LINE
  5
35E8
  8
2-0
  6
CONTINUOUS
 62
     3
 10
20537.522842499991
 20
19922.229357000011
 30
0.0
 11
20537.522842499991
 21
19929.234873000001
 31
0.0
  0
LINE
  5
35E9
  8
2-0
  6
CONTINUOUS
 62
     3
 10
20228.423721499988
 20
19934.229199000009
 30
0.0
 11
20524.525323499991
 21
19934.229199000009
 31
0.0
  0
LINE
  5
35EA
  8
2-0
  6
CONTINUOUS
 62
     3
 10
20103.122174499989
 20
19849.23263000001
 30
0.0
 11
24541.114863499992
 21
19849.23263000001
 31
0.0
  0
LINE
  5
35EB
  8
2-0
  6
CONTINUOUS
 62
     3
 10
20103.122174499989
 20
14488.768921000001
 30
0.0
 11
20103.122174499989
 21
15135.635283000011
 31
0.0
  0
LINE
  5
35EC
  8
2-0
  6
CENTER2
 62
     6
 10
20145.618479500001
 20
21134.229199000009
 30
0.0
 11
20145.618479500001
 21
13780.467479999999
 31
0.0
  0
LINE
  5
35ED
  8
2-0
  6
CENTER2
 62
     6
 10
24579.618479500001
 20
21134.229199000009
 30
0.0
 11
24579.618479500001
 21
13780.467479999999
 31
0.0
  0
LINE
  5
35EE
  8
2-0
  6
CONTINUOUS
 62
     3
 10
24622.116763499991
 20
19808.935570000001
 30
0.0
 11
24622.116763499991
 21
19512.827039499982
 31
0.0
  0
LINE
  5
35EF
  8
2-0
  6
CONTINUOUS
 62
     3
 10
20103.122174499989
 20
19808.935570000001
 30
0.0
 11
20103.122174499989
 21
19512.827039499982
 31
0.0
  0
LINE
  5
35F0
  8
2-0
  6
CENTER2
 62
     6
 10
22713.118479499979
 20
21134.229199000009
 30
0.0
 11
22713.118479499979
 21
14214.82631299999
 31
0.0
  0
LINE
  5
35F1
  8
2-0
  6
CONTINUOUS
 62
     3
 10
20184.120115500002
 20
14448.729198000001
 30
0.0
 11
20184.120115500002
 21
19934.229199000009
 31
0.0
  0
LINE
  5
35F2
  8
2-0
  6
CONTINUOUS
 62
     3
 10
24541.114863499992
 20
14448.729198000001
 30
0.0
 11
24541.114863499992
 21
19934.229199000009
 31
0.0
  0
CIRCLE
  5
35F3
  8
2-0
  6
CONTINUOUS
 62
     4
 10
18616.166212499978
 20
19891.730914
 30
0.0
 40
200.00001
  0
CIRCLE
  5
35F4
  8
2-0
  6
CONTINUOUS
 62
     4
 10
18616.166212499978
 20
17324.230914
 30
0.0
 40
200.00001
  0
CIRCLE
  5
35F5
  8
2-0
  6
CONTINUOUS
 62
     4
 10
18616.166212499978
 20
14406.230913999991
 30
0.0
 40
200.00001
  0
CIRCLE
  5
35F6
  8
2-0
  6
CONTINUOUS
 62
     4
 10
22713.118479499979
 20
21334.233818000012
 30
0.0
 40
200.00001
  0
CIRCLE
  5
35F7
  8
2-0
  6
CONTINUOUS
 62
     4
 10
20145.618479500001
 20
21334.233818000012
 30
0.0
 40
200.00001
  0
TEXT
  5
35F8
  8
2-0
  6
CONTINUOUS
 62
     7
 10
22976.463786499979
 20
13846.232035999999
 30
0.0
 40
160.0
  1
前柱（右）
 50
0.000213
 72
     4
 11
23392.463489092999
 21
13926.23358250079
 31
0.0
  0
TEXT
  5
35F9
  8
2-0
  6
CONTINUOUS
 62
     7
 10
23181.058909499989
 20
16774.72405200003
 30
0.0
 40
160.0
  1
壁パネル
 50
359.99982299999999
 72
     4
 11
23543.72582330355
 21
16854.722931637891
 31
0.0
  0
TEXT
  5
35FA
  8
2-0
  6
CONTINUOUS
 62
     7
 10
22901.056005499991
 20
17611.911948000012
 30
0.0
 40
160.0
  1
中柱（左右）
 50
0.000354
 72
     4
 11
23418.3888445462
 21
17691.915144324659
 31
0.0
  0
TEXT
  5
35FB
  8
2-0
  6
CONTINUOUS
 62
     7
 10
23581.058249499991
 20
14819.273302
 30
0.0
 40
160.0
  1
下枠
 50
0.001063
 72
     4
 11
23751.723431909279
 21
14899.276468339291
 31
0.0
  0
TEXT
  5
35FC
  8
2-0
  6
CONTINUOUS
 62
     7
 10
25394.613992499999
 20
20744.228406999999
 30
0.0
 40
160.0
  1
後柱（左右）
 50
0.000354
 72
     4
 11
25906.613498212981
 21
20824.231570372842
 31
0.0
  0
TEXT
  5
35FD
  8
2-0
  6
CONTINUOUS
 62
     7
 10
18568.166845499982
 20
19797.250472000022
 30
0.0
 40
160.0
  1
C
 72
     4
 11
18621.500178833321
 21
19877.250472000022
 31
0.0
  0
TEXT
  5
35FE
  8
2-0
  6
CONTINUOUS
 62
     7
 10
18568.387561499982
 20
17253.836832000019
 30
0.0
 40
160.0
  1
B
 72
     4
 11
18621.720894833321
 21
17333.836832000019
 31
0.0
  0
TEXT
  5
35FF
  8
2-0
  6
CONTINUOUS
 62
     7
 10
18568.430121500001
 20
14317.62370299999
 30
0.0
 40
160.0
  1
A
 72
     4
 11
18621.76345483333
 21
14397.62370299999
 31
0.0
  0
TEXT
  5
3600
  8
2-0
  6
CONTINUOUS
 62
     7
 10
22661.486696499989
 20
21238.708189000012
 30
0.0
 40
160.0
  1
2
 72
     4
 11
22714.820029833321
 21
21318.708189000012
 31
0.0
  0
TEXT
  5
3601
  8
2-0
  6
CONTINUOUS
 62
     7
 10
20101.411870499989
 20
21245.466266000029
 30
0.0
 40
160.0
  1
1
 72
     4
 11
20128.078537166661
 21
21325.466266000029
 31
0.0
  0
LINE
  5
3602
  8
2-0
  6
CONTINUOUS
 62
     3
 10
23840.11906049999
 20
19934.229199000009
 30
0.0
 11
23803.11789849999
 21
19934.229199000009
 31
0.0
  0
LINE
  5
3603
  8
2-0
  6
CONTINUOUS
 62
     3
 10
23840.11906049999
 20
19904.22563600001
 30
0.0
 11
23840.11906049999
 21
19934.229199000009
 31
0.0
  0
LINE
  5
3604
  8
2-0
  6
CONTINUOUS
 62
     3
 10
23834.119139499981
 20
19904.22563600001
 30
0.0
 11
23840.11906049999
 21
19904.22563600001
 31
0.0
  0
LINE
  5
3605
  8
2-0
  6
CONTINUOUS
 62
     3
 10
23850.216584499991
 20
19904.22563600001
 30
0.0
 11
23850.216584499991
 21
19934.229199000009
 31
0.0
  0
LINE
  5
3606
  8
2-0
  6
CONTINUOUS
 62
     3
 10
23832.21286349999
 20
19904.22563600001
 30
0.0
 11
23850.216584499991
 21
19904.22563600001
 31
0.0
  0
LINE
  5
3607
  8
2-0
  6
CONTINUOUS
 62
     3
 10
23832.21286349999
 20
19929.234873000001
 30
0.0
 11
23832.21286349999
 21
19904.22563600001
 31
0.0
  0
LINE
  5
3608
  8
2-0
  6
CONTINUOUS
 62
     3
 10
23837.213127499988
 20
19929.234873000001
 30
0.0
 11
23832.21286349999
 21
19929.234873000001
 31
0.0
  0
LINE
  5
3609
  8
2-0
  6
CONTINUOUS
 62
     3
 10
23837.213127499988
 20
19922.229357000011
 30
0.0
 11
23837.213127499988
 21
19929.234873000001
 31
0.0
  0
LINE
  5
360A
  8
2-0
  6
CONTINUOUS
 62
     3
 10
23806.023832499981
 20
19922.229357000011
 30
0.0
 11
23806.023832499981
 21
19929.234873000001
 31
0.0
  0
LINE
  5
360B
  8
2-0
  6
CONTINUOUS
 62
     3
 10
23806.023832499981
 20
19929.234873000001
 30
0.0
 11
23811.02409649999
 21
19929.234873000001
 31
0.0
  0
LINE
  5
360C
  8
2-0
  6
CONTINUOUS
 62
     3
 10
23811.02409649999
 20
19929.234873000001
 30
0.0
 11
23811.02409649999
 21
19904.22563600001
 31
0.0
  0
LINE
  5
360D
  8
2-0
  6
CONTINUOUS
 62
     3
 10
23811.02409649999
 20
19904.22563600001
 30
0.0
 11
23793.02433349999
 21
19904.22563600001
 31
0.0
  0
LINE
  5
360E
  8
2-0
  6
CONTINUOUS
 62
     3
 10
23793.02433349999
 20
19904.22563600001
 30
0.0
 11
23793.02433349999
 21
19934.229199000009
 31
0.0
  0
LINE
  5
360F
  8
2-0
  6
CONTINUOUS
 62
     3
 10
23809.117819499988
 20
19904.22563600001
 30
0.0
 11
23803.11789849999
 21
19904.22563600001
 31
0.0
  0
LINE
  5
3610
  8
2-0
  6
CONTINUOUS
 62
     3
 10
23803.11789849999
 20
19904.22563600001
 30
0.0
 11
23803.11789849999
 21
19934.229199000009
 31
0.0
  0
LINE
  5
3611
  8
2-0
  6
CONTINUOUS
 62
     3
 10
24497.50210949999
 20
19934.229199000009
 30
0.0
 11
23850.216584499991
 21
19934.229199000009
 31
0.0
  0
LINE
  5
3612
  8
2-0
  6
CONTINUOUS
 62
     3
 10
23793.02433349999
 20
19934.229199000009
 30
0.0
 11
23149.211635500011
 21
19934.22919900003
 31
0.0
  0
LINE
  5
3613
  8
2-0
  6
CONTINUOUS
 62
     3
 10
23136.210157500002
 20
19922.229357000011
 30
0.0
 11
23136.210157500002
 21
19929.234873000001
 31
0.0
  0
LINE
  5
3614
  8
2-0
  6
CONTINUOUS
 62
     3
 10
23136.210157500002
 20
19929.234873000001
 30
0.0
 11
23131.209893499981
 21
19929.234873000001
 31
0.0
  0
LINE
  5
3615
  8
2-0
  6
CONTINUOUS
 62
     3
 10
23131.209893499981
 20
19929.234873000001
 30
0.0
 11
23131.209893499981
 21
19904.22563600001
 31
0.0
  0
LINE
  5
3616
  8
2-0
  6
CONTINUOUS
 62
     3
 10
23131.209893499981
 20
19904.22563600001
 30
0.0
 11
23149.211635500011
 21
19904.22563600001
 31
0.0
  0
LINE
  5
3617
  8
2-0
  6
CONTINUOUS
 62
     3
 10
23149.211635500011
 20
19904.22563600001
 30
0.0
 11
23149.211635500011
 21
19934.229199000009
 31
0.0
  0
LINE
  5
3618
  8
2-0
  6
CONTINUOUS
 62
     3
 10
23133.11221050001
 20
19904.22563600001
 30
0.0
 11
23139.116090499982
 21
19904.22563600001
 31
0.0
  0
LINE
  5
3619
  8
2-0
  6
CONTINUOUS
 62
     3
 10
23139.116090499982
 20
19904.22563600001
 30
0.0
 11
23139.116090499982
 21
19934.229199000009
 31
0.0
  0
LINE
  5
361A
  8
2-0
  6
CONTINUOUS
 62
     3
 10
23102.120868499991
 20
19934.229199000009
 30
0.0
 11
23139.116090499982
 21
19934.229199000009
 31
0.0
  0
LINE
  5
361B
  8
2-0
  6
CONTINUOUS
 62
     3
 10
23102.120868499991
 20
19904.22563600001
 30
0.0
 11
23102.120868499991
 21
19934.229199000009
 31
0.0
  0
LINE
  5
361C
  8
2-0
  6
CONTINUOUS
 62
     3
 10
23108.114850499991
 20
19904.22563600001
 30
0.0
 11
23102.120868499991
 21
19904.22563600001
 31
0.0
  0
LINE
  5
361D
  8
2-0
  6
CONTINUOUS
 62
     3
 10
23092.025323499998
 20
19904.22563600001
 30
0.0
 11
23092.025323499998
 21
19934.229199000009
 31
0.0
  0
LINE
  5
361E
  8
2-0
  6
CONTINUOUS
 62
     3
 10
23110.021126500011
 20
19904.22563600001
 30
0.0
 11
23092.025323499998
 21
19904.22563600001
 31
0.0
  0
LINE
  5
361F
  8
2-0
  6
CONTINUOUS
 62
     3
 10
23110.021126500011
 20
19929.234873000001
 30
0.0
 11
23110.021126500011
 21
19904.22563600001
 31
0.0
  0
LINE
  5
3620
  8
2-0
  6
CONTINUOUS
 62
     3
 10
23105.022842499999
 20
19929.234873000001
 30
0.0
 11
23110.021126500011
 21
19929.234873000001
 31
0.0
  0
LINE
  5
3621
  8
2-0
  6
CONTINUOUS
 62
     3
 10
23105.022842499999
 20
19922.229357000011
 30
0.0
 11
23105.022842499999
 21
19929.234873000001
 31
0.0
  0
LINE
  5
3622
  8
2-0
  6
CONTINUOUS
 62
     3
 10
22795.923721499981
 20
19934.229199000009
 30
0.0
 11
23092.025323499998
 21
19934.229199000009
 31
0.0
  0
LINE
  5
3623
  8
2-0
  6
CONTINUOUS
 62
     3
 10
22631.690982500011
 20
19934.229199000009
 30
0.0
 11
21983.716584499991
 21
19934.229199000009
 31
0.0
  0
LINE
  5
3624
  8
2-0
  6
CONTINUOUS
 62
     3
 10
24622.116763499991
 20
15836.870351
 30
0.0
 11
24622.116763499991
 21
15192.831493000011
 31
0.0
  0
LINE
  5
3625
  8
2-0
  6
CONTINUOUS
 62
     3
 10
24622.116763499991
 20
15135.635283
 30
0.0
 11
24622.116763499991
 21
14488.768921000001
 31
0.0
  0
CIRCLE
  5
3626
  8
2-0
  6
CONTINUOUS
 62
     4
 10
24579.618479500001
 20
21334.233818000012
 30
0.0
 40
200.00001
  0
TEXT
  5
3627
  8
2-0
  6
CONTINUOUS
 62
     7
 10
24527.9866965
 20
21238.708189000012
 30
0.0
 40
160.0
  1
3
 72
     4
 11
24581.320029833329
 21
21318.708189000012
 31
0.0
  0
LINE
  5
3628
  8
2-0
  6
CONTINUOUS
 62
     6
 10
22916.690974091682
 20
18885.3642779404
 30
0.0
 11
23941.723306091691
 21
18885.3642779404
 31
0.0
  0
LINE
  5
3629
  8
2-0
  6
CONTINUOUS
 62
     6
 10
24471.817058895769
 20
19350.14781564644
 30
0.0
 11
23941.723306091691
 21
18885.3642779404
 31
0.0
  0
TEXT
  5
362A
  8
2-0
  6
CONTINUOUS
 62
     7
 10
22996.689258091679
 20
18965.3685009404
 30
0.0
 40
160.0
  1
間柱（側）
 72
     4
 11
23418.022591425011
 21
19045.3685009404
 31
0.0
  0
LINE
  5
362B
  8
2-0
  6
CONTINUOUS
 62
     6
 10
24489.396272173279
 20
19330.098673675791
 30
0.0
 11
24592.119139499991
 21
19455.6367675
 31
0.0
  0
LINE
  5
362C
  8
2-0
  6
CONTINUOUS
 62
     6
 10
24592.119139499991
 20
19455.6367675
 30
0.0
 11
24454.228868680941
 21
19370.201129997349
 31
0.0
  0
LINE
  5
362D
  8
2-0
  6
CONTINUOUS
 62
     6
 10
24454.228868680941
 20
19370.201129997349
 30
0.0
 11
24489.396272173279
 21
19330.098673675791
 31
0.0
  0
LINE
  5
362E
  8
0-6
  6
CONTINUOUS
 62
     6
 10
21384.875368500001
 20
14880.000709000011
 30
0.0
 11
22408.648726499989
 21
14880.000709000011
 31
0.0
  0
LINE
  5
362F
  8
0-6
  6
CONTINUOUS
 62
     6
 10
22670.616235500001
 20
14448.730913999991
 30
0.0
 11
22408.648726499989
 21
14880.000709000011
 31
0.0
  0
LINE
  5
3630
  8
0-6
  6
CONTINUOUS
 62
     6
 10
22610.341874499991
 20
14599.324769000001
 30
0.0
 11
22670.616235500001
 21
14448.730913999991
 31
0.0
  0
LINE
  5
3631
  8
0-6
  6
CONTINUOUS
 62
     6
 10
22670.616235500001
 20
14448.730913999991
 30
0.0
 11
22564.76147949999
 21
14571.635263
 31
0.0
  0
LINE
  5
3632
  8
0-6
  6
CONTINUOUS
 62
     6
 10
22670.616235500001
 20
14448.730913999991
 30
0.0
 11
22610.341874499991
 21
14599.324769000001
 31
0.0
  0
LINE
  5
3633
  8
0-6
  6
CONTINUOUS
 62
     6
 10
22610.341874499991
 20
14599.324769000001
 30
0.0
 11
22564.76147949999
 21
14571.635263
 31
0.0
  0
LINE
  5
3634
  8
0-6
  6
CONTINUOUS
 62
     6
 10
22564.76147949999
 20
14571.635263
 30
0.0
 11
22670.616235500001
 21
14448.730913999991
 31
0.0
  0
LINE
  5
3635
  8
0-6
  6
CONTINUOUS
 62
     6
 10
22564.76147949999
 20
14571.635263
 30
0.0
 11
22610.341874499991
 21
14599.324769000001
 31
0.0
  0
TEXT
  5
3636
  8
0-6
  6
CONTINUOUS
 62
     7
 10
21464.873652499991
 20
14960.000972999989
 30
0.0
 40
160.0
  1
前柱（中）
 72
     4
 11
21880.873652499991
 21
15040.000972999989
 31
0.0
  0
LINE
  5
3637
  8
0-6
  6
CONTINUOUS
 62
     6
 10
22645.4070665
 20
19810.47167700002
 30
0.0
 11
22332.850980499981
 21
19284.078096000008
 31
0.0
  0
LINE
  5
3638
  8
0-6
  6
CONTINUOUS
 62
     6
 10
21307.812709500002
 20
19284.078096000008
 30
0.0
 11
22332.850980499981
 21
19284.078096000008
 31
0.0
  0
LINE
  5
3639
  8
0-6
  6
CONTINUOUS
 62
     6
 10
21310.83543449999
 20
18686.378296999999
 30
0.0
 11
22335.875684499992
 21
18686.378296999999
 31
0.0
  0
LINE
  5
363A
  8
0-6
  6
CONTINUOUS
 62
     6
 10
20669.4041105
 20
19766.65305400002
 30
0.0
 11
21310.83543449999
 21
18686.378296999999
 31
0.0
  0
LINE
  5
363B
  8
0-6
  6
CONTINUOUS
 62
     6
 10
20692.332874499989
 20
19780.268183
 30
0.0
 11
20587.717296499999
 21
19904.229595000001
 31
0.0
  0
LINE
  5
363C
  8
0-6
  6
CONTINUOUS
 62
     6
 10
20587.717296499999
 20
19904.229595000001
 30
0.0
 11
20646.475346499999
 21
19753.037925000011
 31
0.0
  0
LINE
  5
363D
  8
0-6
  6
CONTINUOUS
 62
     6
 10
20587.717296499999
 20
19904.229595000001
 30
0.0
 11
20692.332874499989
 21
19780.268183
 31
0.0
  0
LINE
  5
363E
  8
0-6
  6
CONTINUOUS
 62
     6
 10
20692.332874499989
 20
19780.268183
 30
0.0
 11
20646.475346499999
 21
19753.037925000011
 31
0.0
  0
LINE
  5
363F
  8
0-6
  6
CONTINUOUS
 62
     6
 10
20646.475346499999
 20
19753.037925000011
 30
0.0
 11
20587.717296499999
 21
19904.229595000001
 31
0.0
  0
LINE
  5
3640
  8
0-6
  6
CONTINUOUS
 62
     6
 10
20646.475346499999
 20
19753.037925000011
 30
0.0
 11
20692.332874499989
 21
19780.268183
 31
0.0
  0
LINE
  5
3641
  8
0-6
  6
CONTINUOUS
 62
     6
 10
22540.789509499991
 20
19686.510265000001
 30
0.0
 11
22645.4070665
 21
19810.47167700002
 31
0.0
  0
LINE
  5
3642
  8
0-6
  6
CONTINUOUS
 62
     6
 10
22645.4070665
 20
19810.47167700002
 30
0.0
 11
22586.649016499989
 21
19659.28198600002
 31
0.0
  0
LINE
  5
3643
  8
0-6
  6
CONTINUOUS
 62
     6
 10
22645.4070665
 20
19810.47167700002
 30
0.0
 11
22540.789509499991
 21
19686.510265000001
 31
0.0
  0
LINE
  5
3644
  8
0-6
  6
CONTINUOUS
 62
     6
 10
22540.789509499991
 20
19686.510265000001
 30
0.0
 11
22586.649016499989
 21
19659.28198600002
 31
0.0
  0
LINE
  5
3645
  8
0-6
  6
CONTINUOUS
 62
     6
 10
22586.649016499989
 20
19659.28198600002
 30
0.0
 11
22645.4070665
 21
19810.47167700002
 31
0.0
  0
LINE
  5
3646
  8
0-6
  6
CONTINUOUS
 62
     6
 10
22586.649016499989
 20
19659.28198600002
 30
0.0
 11
22540.789509499991
 21
19686.510265000001
 31
0.0
  0
TEXT
  5
3647
  8
0-6
  6
CONTINUOUS
 62
     7
 10
21387.812973499978
 20
19364.07836000001
 30
0.0
 40
160.0
  1
後柱（中）
 72
     4
 11
21803.812973499978
 21
19444.07836000001
 31
0.0
  0
TEXT
  5
3648
  8
0-6
  6
CONTINUOUS
 62
     7
 10
21390.835698499999
 20
18766.37856100002
 30
0.0
 40
160.0
  1
間柱（後）
 72
     4
 11
21812.169031833331
 21
18846.37856100002
 31
0.0
  0
LINE
  5
3649
  8
0-2
  6
CONTINUOUS
 62
     4
 10
24010.05849950001
 20
7263.0054729999974
 30
0.0
 11
23910.059159500011
 21
7263.0054729999974
 31
0.0
  0
LINE
  5
364A
  8
0-2
  6
CONTINUOUS
 62
     4
 10
23282.674498500011
 20
7263.0054729999974
 30
0.0
 11
23382.671859499998
 21
7263.0054729999974
 31
0.0
  0
CIRCLE
  5
364B
  8
0-4
  6
CONTINUOUS
 62
     4
 10
23646.367489000011
 20
7001.8357099999976
 30
0.0
 40
18.487504999999981
  0
LINE
  5
364C
  8
SUNPOU
  6
CONTINUOUS
 10
8920.6638294999866
 20
20114.226823000001
 30
0.0
 11
8920.6638294999866
 21
20911.19409077847
 31
0.0
  0
LINE
  5
364D
  8
SUNPOU
  6
CONTINUOUS
 10
8920.6620194999923
 20
14213.735599
 30
0.0
 11
8920.6620194999923
 21
13538.30948318962
 31
0.0
  0
CIRCLE
  5
364E
  8
0-5
  6
CONTINUOUS
 62
     4
 10
15128.714697999991
 20
1375.999982
 30
0.0
 40
20.0
  0
ARC
  5
364F
  8
0-5
  6
CONTINUOUS
 62
     4
 10
15128.714697999991
 20
1375.999982
 30
0.0
 40
20.0
 50
180.0
 51
0.0
  0
ARC
  5
3650
  8
0-5
  6
CONTINUOUS
 62
     4
 10
15128.714697999991
 20
1375.999982
 30
0.0
 40
20.0
 50
0.0
 51
179.99998499999839
  0
CIRCLE
  5
3651
  8
0-5
  6
CONTINUOUS
 62
     4
 10
15128.714697999991
 20
1775.999941
 30
0.0
 40
20.0
  0
ARC
  5
3652
  8
0-5
  6
CONTINUOUS
 62
     4
 10
15128.714697999991
 20
1775.999941
 30
0.0
 40
20.0
 50
180.0
 51
0.0
  0
ARC
  5
3653
  8
0-5
  6
CONTINUOUS
 62
     4
 10
15128.714697999991
 20
1775.999941
 30
0.0
 40
20.0
 50
0.0
 51
179.99998499999839
  0
TEXT
  5
3654
  8
0-5
  6
CONTINUOUS
 62
     7
 10
16669.776841999981
 20
1655.999793
 30
0.0
 40
160.0
  1
H
  0
TEXT
  5
3655
  8
0-5
  6
CONTINUOUS
 62
     7
 10
15176.145943
 20
1655.999793
 30
0.0
 40
160.0
  1
（ ）内寸法ハ、  タ イプヲ示ス。
  0
TEXT
  5
3656
  8
0-5
  6
CONTINUOUS
 62
     7
 10
15288.712256999979
 20
1255.9999580000001
 30
0.0
 40
160.0
  1
有効高サハ、基礎高サヲ含ミマセン。
  0
LINE
  5
3659
  8
WAKUSEN-01
 10
868.00000000000193
 20
22484.000000000011
 30
0.0
 11
32764.000000000011
 21
22484.000000000011
 31
0.0
  0
LINE
  5
365C
  8
WAKUSEN-01
 10
20560.0
 20
2484.0
 30
0.0
 11
32764.0
 21
2484.0
 31
0.0
  0
LINE
  5
365D
  8
WAKUSEN-02
 10
20560.0
 20
1655.9999999999991
 30
0.0
 11
26868.0
 21
1655.9999999999991
 31
0.0
  0
TEXT
  5
365E
  8
WAKUMOJI-01
 10
20670.260259962761
 20
2125.9030093393221
 30
0.0
 40
240.0
  1
名　称
  7
WAKUMOJI
  0
TEXT
  5
365F
  8
WAKUMOJI-01
 10
20656.505485091919
 20
1319.12897497982
 30
0.0
 40
240.0
  1
機種名
  7
WAKUMOJI
  0
LINE
  5
3662
  8
YODOROGO
 10
29977.604341291921
 20
1995.7494964292871
 30
0.0
 11
29829.604341291921
 21
1995.7494964292871
 31
0.0
1001
AUTOCAD_POSTSCRIPT_FIGURE
1002
{
1000
PSFILL
1000
Grayscale
1000
Grayscale
1070
    25
1002
}
  0
LINE
  5
3663
  8
YODOROGO
 10
29829.604341291921
 20
1947.749496429288
 30
0.0
 11
29977.604341291921
 21
1947.749496429288
 31
0.0
1001
AUTOCAD_POSTSCRIPT_FIGURE
1002
{
1000
PSFILL
1000
Grayscale
1000
Grayscale
1070
    25
1002
}
  0
LINE
  5
3664
  8
YODOROGO
 10
29977.604341291921
 20
1907.7494964292871
 30
0.0
 11
29829.604341291921
 21
1907.7494964292871
 31
0.0
1001
AUTOCAD_POSTSCRIPT_FIGURE
1002
{
1000
PSFILL
1000
Grayscale
1000
Grayscale
1070
    25
1002
}
  0
LINE
  5
3665
  8
YODOROGO
 10
29829.604341291921
 20
1859.749496429288
 30
0.0
 11
29977.604341291921
 21
1859.749496429288
 31
0.0
1001
AUTOCAD_POSTSCRIPT_FIGURE
1002
{
1000
PSFILL
1000
Grayscale
1000
Grayscale
1070
    25
1002
}
  0
LINE
  5
3666
  8
YODOROGO
 10
29977.604341291921
 20
1819.7494964292871
 30
0.0
 11
29829.604341291921
 21
1819.7494964292871
 31
0.0
1001
AUTOCAD_POSTSCRIPT_FIGURE
1002
{
1000
PSFILL
1000
Grayscale
1000
Grayscale
1070
    25
1002
}
  0
LINE
  5
3667
  8
YODOROGO
 10
29921.60434129191
 20
1707.749496429288
 30
0.0
 11
29977.604341291921
 21
1707.749496429288
 31
0.0
1001
AUTOCAD_POSTSCRIPT_FIGURE
1002
{
1000
PSFILL
1000
Grayscale
1000
Grayscale
1070
    25
1002
}
  0
LINE
  5
3668
  8
YODOROGO
 10
29737.604341291921
 20
1427.749496429288
 30
0.0
 11
29937.604341291932
 21
1481.3393349155101
 31
0.0
  0
LINE
  5
3669
  8
YODOROGO
 10
29949.60434129191
 20
1707.749496429288
 30
0.0
 11
29885.604341291921
 21
1707.749496429288
 31
0.0
  0
ARC
  5
366A
  8
YODOROGO
 10
30254.34774982791
 20
1807.864609233261
 30
0.0
 40
381.88686420564721
 50
213.96111677667841
 51
264.47872074317792
  0
ARC
  5
366B
  8
YODOROGO
 10
30254.347749827921
 20
1807.864609233302
 30
0.0
 40
381.8868642056816
 50
208.14114420486601
 51
212.9210361185994
  0
LINE
  5
366C
  8
YODOROGO
 10
29771.409872985321
 20
1556.807661346234
 30
0.0
 11
29933.78413250855
 21
1600.3157130570869
 31
0.0
  0
LINE
  5
366D
  8
YODOROGO
 10
29737.604341291921
 20
1427.749496429288
 30
0.0
 11
29937.604341291932
 21
1481.3393349155101
 31
0.0
  0
LINE
  5
366E
  8
YODOROGO
 10
29949.60434129191
 20
1707.749496429288
 30
0.0
 11
29885.604341291921
 21
1707.749496429288
 31
0.0
  0
ARC
  5
366F
  8
YODOROGO
 10
30254.34774982791
 20
1807.864609233261
 30
0.0
 40
381.88686420564721
 50
213.96111677667841
 51
264.47872074317792
  0
LINE
  5
3670
  8
YODOROGO
 10
28793.60434129191
 20
1819.7494964292871
 30
0.0
 11
28433.60434129191
 21
1819.7494964292871
 31
0.0
  0
LINE
  5
3671
  8
YODOROGO
 10
28513.60434129191
 20
1427.749496429288
 30
0.0
 11
28793.60434129191
 21
1427.749496429288
 31
0.0
  0
LINE
  5
3672
  8
YODOROGO
 10
28729.604341291921
 20
1923.7494964292871
 30
0.0
 11
28497.60434129191
 21
1923.7494964292871
 31
0.0
  0
LINE
  5
3673
  8
YODOROGO
 10
28585.604341291921
 20
2027.749496429288
 30
0.0
 11
28657.604341291921
 21
2027.749496429288
 31
0.0
  0
LINE
  5
3674
  8
YODOROGO
 10
28433.60434129191
 20
1707.749496429288
 30
0.0
 11
28433.60434129191
 21
1507.749496429288
 31
0.0
  0
LINE
  5
3675
  8
YODOROGO
 10
28497.60434129191
 20
1563.7494964292871
 30
0.0
 11
28497.60434129191
 21
1707.749496429288
 31
0.0
  0
LINE
  5
3676
  8
YODOROGO
 10
28585.604341291921
 20
1747.74949642929
 30
0.0
 11
28585.604341291921
 21
1547.749496429288
 31
0.0
  0
LINE
  5
3677
  8
YODOROGO
 10
27857.604341291921
 20
1683.749496429288
 30
0.0
 11
27777.604341291921
 21
1619.9724140445701
 31
0.0
  0
LINE
  5
3678
  8
YODOROGO
 10
27937.604341291921
 20
1619.9724140445701
 30
0.0
 11
27857.604341291921
 21
1683.749496429288
 31
0.0
  0
LINE
  5
3679
  8
YODOROGO
 10
27857.604341291921
 20
1707.749496429288
 30
0.0
 11
27937.604341291921
 21
1643.9724140445701
 31
0.0
  0
LINE
  5
367A
  8
YODOROGO
 10
27777.604341291921
 20
1643.9724140445701
 30
0.0
 11
27857.604341291921
 21
1707.749496429288
 31
0.0
  0
LINE
  5
367B
  8
YODOROGO
 10
28040.913204016892
 20
1659.749496429288
 30
0.0
 11
28040.913204016892
 21
1683.7494964292871
 31
0.0
  0
LINE
  5
367C
  8
YODOROGO
 10
27977.604341291921
 20
1683.7494964292871
 30
0.0
 11
27977.604341291921
 21
1667.749496429285
 31
0.0
  0
LINE
  5
367D
  8
YODOROGO
 10
28098.135520230931
 20
1707.749496429288
 30
0.0
 11
28098.135520230931
 21
1655.5036372746561
 31
0.0
1001
AUTOCAD_POSTSCRIPT_FIGURE
1002
{
1000
PSFILL
1000
Grayscale
1000
Grayscale
1070
   100
1002
}
  0
LINE
  5
367E
  8
YODOROGO
 10
28082.135520230921
 20
1655.5036372746561
 30
0.0
 11
28082.135520230921
 21
1707.749496429288
 31
0.0
1001
AUTOCAD_POSTSCRIPT_FIGURE
1002
{
1000
PSFILL
1000
Grayscale
1000
Grayscale
1070
   100
1002
}
  0
LINE
  5
367F
  8
YODOROGO
 10
27809.604341291921
 20
1608.771904043258
 30
0.0
 11
27809.604341291921
 21
1632.771904043258
 31
0.0
  0
LINE
  5
3680
  8
YODOROGO
 10
27905.604341291921
 20
1608.771904043258
 30
0.0
 11
27809.604341291921
 21
1608.771904043258
 31
0.0
  0
LINE
  5
3681
  8
YODOROGO
 10
27905.604341291921
 20
1632.771904043258
 30
0.0
 11
27905.604341291921
 21
1608.771904043258
 31
0.0
  0
LINE
  5
3682
  8
YODOROGO
 10
27809.604341291921
 20
1632.771904043258
 30
0.0
 11
27905.604341291921
 21
1632.771904043258
 31
0.0
  0
LINE
  5
3683
  8
YODOROGO
 10
27824.509588915738
 20
1568.5028573704751
 30
0.0
 11
27785.604341291921
 21
1475.7494964292871
 31
0.0
1001
AUTOCAD_POSTSCRIPT_FIGURE
1002
{
1000
PSFILL
1000
Grayscale
1000
Grayscale
1070
   100
1002
}
  0
LINE
  5
3684
  8
YODOROGO
 10
27777.604341291921
 20
1568.5028573704751
 30
0.0
 11
27824.509588915738
 21
1568.5028573704751
 31
0.0
1001
AUTOCAD_POSTSCRIPT_FIGURE
1002
{
1000
PSFILL
1000
Grayscale
1000
Grayscale
1070
   100
1002
}
  0
LINE
  5
3685
  8
YODOROGO
 10
27777.604341291921
 20
1588.5028573704751
 30
0.0
 11
27777.604341291921
 21
1568.5028573704751
 31
0.0
1001
AUTOCAD_POSTSCRIPT_FIGURE
1002
{
1000
PSFILL
1000
Grayscale
1000
Grayscale
1070
   100
1002
}
  0
LINE
  5
3686
  8
YODOROGO
 10
27937.604341291921
 20
1588.5028573704751
 30
0.0
 11
27777.604341291921
 21
1588.5028573704751
 31
0.0
1001
AUTOCAD_POSTSCRIPT_FIGURE
1002
{
1000
PSFILL
1000
Grayscale
1000
Grayscale
1070
   100
1002
}
  0
LINE
  5
3687
  8
YODOROGO
 10
27937.604341291921
 20
1568.5028573704751
 30
0.0
 11
27937.604341291921
 21
1588.5028573704751
 31
0.0
1001
AUTOCAD_POSTSCRIPT_FIGURE
1002
{
1000
PSFILL
1000
Grayscale
1000
Grayscale
1070
   100
1002
}
  0
LINE
  5
3688
  8
YODOROGO
 10
27844.509588915738
 20
1568.5028573704751
 30
0.0
 11
27937.604341291921
 21
1568.5028573704751
 31
0.0
1001
AUTOCAD_POSTSCRIPT_FIGURE
1002
{
1000
PSFILL
1000
Grayscale
1000
Grayscale
1070
   100
1002
}
  0
LINE
  5
3689
  8
YODOROGO
 10
27815.546718284771
 20
1495.7494964292871
 30
0.0
 11
27844.509588915738
 21
1568.5028573704751
 31
0.0
1001
AUTOCAD_POSTSCRIPT_FIGURE
1002
{
1000
PSFILL
1000
Grayscale
1000
Grayscale
1070
   100
1002
}
  0
LINE
  5
368A
  8
YODOROGO
 10
27902.054790808648
 20
1495.7494964292871
 30
0.0
 11
27815.546718284771
 21
1495.7494964292871
 31
0.0
1001
AUTOCAD_POSTSCRIPT_FIGURE
1002
{
1000
PSFILL
1000
Grayscale
1000
Grayscale
1070
   100
1002
}
  0
LINE
  5
368B
  8
YODOROGO
 10
27885.065004790951
 20
1536.2338106976929
 30
0.0
 11
27902.054790808648
 21
1495.7494964292871
 31
0.0
1001
AUTOCAD_POSTSCRIPT_FIGURE
1002
{
1000
PSFILL
1000
Grayscale
1000
Grayscale
1070
   100
1002
}
  0
LINE
  5
368C
  8
YODOROGO
 10
27901.065004790951
 20
1536.2338106976929
 30
0.0
 11
27885.065004790951
 21
1536.2338106976929
 31
0.0
1001
AUTOCAD_POSTSCRIPT_FIGURE
1002
{
1000
PSFILL
1000
Grayscale
1000
Grayscale
1070
   100
1002
}
  0
LINE
  5
368D
  8
YODOROGO
 10
27929.604341291921
 20
1475.7494964292871
 30
0.0
 11
27901.065004790951
 21
1536.2338106976929
 31
0.0
1001
AUTOCAD_POSTSCRIPT_FIGURE
1002
{
1000
PSFILL
1000
Grayscale
1000
Grayscale
1070
   100
1002
}
  0
LINE
  5
368E
  8
YODOROGO
 10
27785.604341291921
 20
1475.7494964292871
 30
0.0
 11
27929.604341291921
 21
1475.7494964292871
 31
0.0
1001
AUTOCAD_POSTSCRIPT_FIGURE
1002
{
1000
PSFILL
1000
Grayscale
1000
Grayscale
1070
   100
1002
}
  0
LINE
  5
368F
  8
YODOROGO
 10
27777.604341291921
 20
1619.9724140445701
 30
0.0
 11
27777.604341291921
 21
1643.9724140445701
 31
0.0
  0
LINE
  5
3690
  8
YODOROGO
 10
27937.604341291921
 20
1643.9724140445701
 30
0.0
 11
27937.604341291921
 21
1619.9724140445701
 31
0.0
  0
ARC
  5
3691
  8
YODOROGO
 10
28225.940442146959
 20
1600.877765325326
 30
0.0
 40
175.9999999999998
 50
280.3644312771313
 51
3.5414836592180561
  0
ARC
  5
3692
  8
YODOROGO
 10
28235.756030759301
 20
1633.5978069619041
 30
0.0
 40
111.9999999999982
 50
281.24905825041549
 51
348.75094174958321
  0
LINE
  5
3693
  8
YODOROGO
 10
28257.604341291921
 20
1523.7494964292871
 30
0.0
 11
28257.604341291921
 21
1427.749496429288
 31
0.0
  0
LINE
  5
3694
  8
YODOROGO
 10
28020.088903736909
 20
1610.650565061914
 30
0.0
 11
28040.913204016892
 21
1659.749496429288
 31
0.0
  0
LINE
  5
3695
  8
YODOROGO
 10
28041.604341291921
 20
1583.120489948401
 30
0.0
 11
28020.088903736909
 21
1610.650565061914
 31
0.0
  0
LINE
  5
3696
  8
YODOROGO
 10
28041.604341291921
 20
1563.120489948398
 30
0.0
 11
28041.604341291921
 21
1583.120489948401
 31
0.0
  0
LINE
  5
3697
  8
YODOROGO
 10
28017.604341291921
 20
1585.2370637495301
 30
0.0
 11
28041.604341291921
 21
1563.120489948398
 31
0.0
  0
LINE
  5
3698
  8
YODOROGO
 10
28017.604341291921
 20
1475.7494964292871
 30
0.0
 11
28017.604341291921
 21
1585.2370637495301
 31
0.0
  0
LINE
  5
3699
  8
YODOROGO
 10
28001.604341291921
 20
1475.7494964292871
 30
0.0
 11
28017.604341291921
 21
1475.7494964292871
 31
0.0
  0
LINE
  5
369A
  8
YODOROGO
 10
28001.604341291921
 20
1580.0053496897469
 30
0.0
 11
28001.604341291921
 21
1475.7494964292871
 31
0.0
  0
LINE
  5
369B
  8
YODOROGO
 10
27977.604341291921
 20
1532.7680790334291
 30
0.0
 11
28001.604341291921
 21
1580.0053496897469
 31
0.0
  0
LINE
  5
369C
  8
YODOROGO
 10
27977.604341291921
 20
1556.76807903343
 30
0.0
 11
27977.604341291921
 21
1532.7680790334291
 31
0.0
  0
LINE
  5
369D
  8
YODOROGO
 10
28025.828774291349
 20
1667.749496429285
 30
0.0
 11
27977.604341291921
 21
1556.76807903343
 31
0.0
  0
LINE
  5
369E
  8
YODOROGO
 10
27977.604341291921
 20
1667.749496429285
 30
0.0
 11
28025.828774291349
 21
1667.749496429285
 31
0.0
  0
LINE
  5
369F
  8
YODOROGO
 10
28050.135520230899
 20
1655.5036372746561
 30
0.0
 11
28082.135520230921
 21
1655.5036372746561
 31
0.0
1001
AUTOCAD_POSTSCRIPT_FIGURE
1002
{
1000
PSFILL
1000
Grayscale
1000
Grayscale
1070
   100
1002
}
  0
LINE
  5
36A0
  8
YODOROGO
 10
28050.135520230899
 20
1631.5036372746561
 30
0.0
 11
28050.135520230899
 21
1655.5036372746561
 31
0.0
1001
AUTOCAD_POSTSCRIPT_FIGURE
1002
{
1000
PSFILL
1000
Grayscale
1000
Grayscale
1070
   100
1002
}
  0
LINE
  5
36A1
  8
YODOROGO
 10
28082.135520230921
 20
1631.5036372746561
 30
0.0
 11
28050.135520230899
 21
1631.5036372746561
 31
0.0
1001
AUTOCAD_POSTSCRIPT_FIGURE
1002
{
1000
PSFILL
1000
Grayscale
1000
Grayscale
1070
   100
1002
}
  0
LINE
  5
36A2
  8
YODOROGO
 10
28082.135520230921
 20
1499.749496429288
 30
0.0
 11
28082.135520230921
 21
1631.5036372746561
 31
0.0
1001
AUTOCAD_POSTSCRIPT_FIGURE
1002
{
1000
PSFILL
1000
Grayscale
1000
Grayscale
1070
   100
1002
}
  0
LINE
  5
36A3
  8
YODOROGO
 10
28050.135520230921
 20
1499.749496429288
 30
0.0
 11
28082.135520230921
 21
1499.749496429288
 31
0.0
1001
AUTOCAD_POSTSCRIPT_FIGURE
1002
{
1000
PSFILL
1000
Grayscale
1000
Grayscale
1070
   100
1002
}
  0
LINE
  5
36A4
  8
YODOROGO
 10
28050.135520230921
 20
1475.7494964292871
 30
0.0
 11
28050.135520230921
 21
1499.749496429288
 31
0.0
1001
AUTOCAD_POSTSCRIPT_FIGURE
1002
{
1000
PSFILL
1000
Grayscale
1000
Grayscale
1070
   100
1002
}
  0
LINE
  5
36A5
  8
YODOROGO
 10
28137.604341291921
 20
1475.7494964292871
 30
0.0
 11
28050.135520230921
 21
1475.7494964292871
 31
0.0
1001
AUTOCAD_POSTSCRIPT_FIGURE
1002
{
1000
PSFILL
1000
Grayscale
1000
Grayscale
1070
   100
1002
}
  0
LINE
  5
36A6
  8
YODOROGO
 10
28137.604341291921
 20
1499.749496429288
 30
0.0
 11
28137.604341291921
 21
1475.7494964292871
 31
0.0
1001
AUTOCAD_POSTSCRIPT_FIGURE
1002
{
1000
PSFILL
1000
Grayscale
1000
Grayscale
1070
   100
1002
}
  0
LINE
  5
36A7
  8
YODOROGO
 10
28098.135520230931
 20
1499.749496429288
 30
0.0
 11
28137.604341291921
 21
1499.749496429288
 31
0.0
1001
AUTOCAD_POSTSCRIPT_FIGURE
1002
{
1000
PSFILL
1000
Grayscale
1000
Grayscale
1070
   100
1002
}
  0
LINE
  5
36A8
  8
YODOROGO
 10
28098.135520230931
 20
1631.5036372746561
 30
0.0
 11
28098.135520230931
 21
1499.749496429288
 31
0.0
1001
AUTOCAD_POSTSCRIPT_FIGURE
1002
{
1000
PSFILL
1000
Grayscale
1000
Grayscale
1070
   100
1002
}
  0
LINE
  5
36A9
  8
YODOROGO
 10
28137.604341291921
 20
1631.5036372746561
 30
0.0
 11
28098.135520230931
 21
1631.5036372746561
 31
0.0
1001
AUTOCAD_POSTSCRIPT_FIGURE
1002
{
1000
PSFILL
1000
Grayscale
1000
Grayscale
1070
   100
1002
}
  0
LINE
  5
36AA
  8
YODOROGO
 10
28137.604341291921
 20
1655.5036372746561
 30
0.0
 11
28137.604341291921
 21
1631.5036372746561
 31
0.0
1001
AUTOCAD_POSTSCRIPT_FIGURE
1002
{
1000
PSFILL
1000
Grayscale
1000
Grayscale
1070
   100
1002
}
  0
LINE
  5
36AB
  8
YODOROGO
 10
28098.135520230931
 20
1655.5036372746561
 30
0.0
 11
28137.604341291921
 21
1655.5036372746561
 31
0.0
1001
AUTOCAD_POSTSCRIPT_FIGURE
1002
{
1000
PSFILL
1000
Grayscale
1000
Grayscale
1070
   100
1002
}
  0
LINE
  5
36AC
  8
YODOROGO
 10
28401.60434129191
 20
1667.749496429288
 30
0.0
 11
28345.604341291921
 21
1667.749496429288
 31
0.0
  0
LINE
  5
36AD
  8
YODOROGO
 10
28401.60434129191
 20
1611.749496429288
 30
0.0
 11
28401.60434129191
 21
1667.749496429288
 31
0.0
  0
LINE
  5
36AE
  8
YODOROGO
 10
28345.604341291921
 20
1667.749496429288
 30
0.0
 11
28345.604341291921
 21
1611.749496429288
 31
0.0
  0
ARC
  5
36AF
  8
YODOROGO
 10
28513.60434129191
 20
1507.749496429288
 30
0.0
 40
80.0
 50
180.0
 51
270.0
  0
ARC
  5
36B0
  8
YODOROGO
 10
28537.604341291921
 20
1563.7494964292871
 30
0.0
 40
40.0
 50
180.0
 51
270.0
  0
LINE
  5
36B1
  8
YODOROGO
 10
28561.604341291932
 20
1523.7494964292871
 30
0.0
 11
28537.604341291921
 21
1523.7494964292871
 31
0.0
  0
ARC
  5
36B2
  8
YODOROGO
 10
28561.604341291932
 20
1547.749496429285
 30
0.0
 40
23.999999999996358
 50
270.0
 51
0.0000000000054281
  0
LINE
  5
36B3
  8
YODOROGO
 10
27801.604341291921
 20
1890.786580793706
 30
0.0
 11
27777.604341291921
 21
1843.776747951672
 31
0.0
1001
AUTOCAD_POSTSCRIPT_FIGURE
1002
{
1000
PSFILL
1000
Grayscale
1000
Grayscale
1070
   100
1002
}
  0
LINE
  5
36B4
  8
YODOROGO
 10
27801.604341291921
 20
1747.749496429286
 30
0.0
 11
27801.604341291921
 21
1890.786580793706
 31
0.0
1001
AUTOCAD_POSTSCRIPT_FIGURE
1002
{
1000
PSFILL
1000
Grayscale
1000
Grayscale
1070
   100
1002
}
  0
LINE
  5
36B5
  8
YODOROGO
 10
27817.604341291921
 20
1747.749496429286
 30
0.0
 11
27801.604341291921
 21
1747.749496429286
 31
0.0
1001
AUTOCAD_POSTSCRIPT_FIGURE
1002
{
1000
PSFILL
1000
Grayscale
1000
Grayscale
1070
   100
1002
}
  0
LINE
  5
36B6
  8
YODOROGO
 10
27817.604341291921
 20
1893.7713320852661
 30
0.0
 11
27817.604341291921
 21
1747.749496429286
 31
0.0
1001
AUTOCAD_POSTSCRIPT_FIGURE
1002
{
1000
PSFILL
1000
Grayscale
1000
Grayscale
1070
   100
1002
}
  0
LINE
  5
36B7
  8
YODOROGO
 10
27841.604341291921
 20
1867.6547582841361
 30
0.0
 11
27817.604341291921
 21
1893.7713320852661
 31
0.0
1001
AUTOCAD_POSTSCRIPT_FIGURE
1002
{
1000
PSFILL
1000
Grayscale
1000
Grayscale
1070
   100
1002
}
  0
LINE
  5
36B8
  8
YODOROGO
 10
27841.604341291921
 20
1883.6547582841361
 30
0.0
 11
27841.604341291921
 21
1867.6547582841361
 31
0.0
1001
AUTOCAD_POSTSCRIPT_FIGURE
1002
{
1000
PSFILL
1000
Grayscale
1000
Grayscale
1070
   100
1002
}
  0
LINE
  5
36B9
  8
YODOROGO
 10
27817.604341291921
 20
1917.7713320852649
 30
0.0
 11
27841.604341291921
 21
1883.6547582841361
 31
0.0
1001
AUTOCAD_POSTSCRIPT_FIGURE
1002
{
1000
PSFILL
1000
Grayscale
1000
Grayscale
1070
   100
1002
}
  0
LINE
  5
36BA
  8
YODOROGO
 10
27817.604341291921
 20
1939.749496429288
 30
0.0
 11
27817.604341291921
 21
1917.7713320852649
 31
0.0
1001
AUTOCAD_POSTSCRIPT_FIGURE
1002
{
1000
PSFILL
1000
Grayscale
1000
Grayscale
1070
   100
1002
}
  0
LINE
  5
36BB
  8
YODOROGO
 10
27889.604341291921
 20
1939.749496429288
 30
0.0
 11
27817.604341291921
 21
1939.749496429288
 31
0.0
1001
AUTOCAD_POSTSCRIPT_FIGURE
1002
{
1000
PSFILL
1000
Grayscale
1000
Grayscale
1070
   100
1002
}
  0
LINE
  5
36BC
  8
YODOROGO
 10
27889.604341291921
 20
1900.5683489363
 30
0.0
 11
27889.604341291921
 21
1939.749496429288
 31
0.0
1001
AUTOCAD_POSTSCRIPT_FIGURE
1002
{
1000
PSFILL
1000
Grayscale
1000
Grayscale
1070
   100
1002
}
  0
LINE
  5
36BD
  8
YODOROGO
 10
27857.604341291921
 20
1900.5683489363
 30
0.0
 11
27889.604341291921
 21
1900.5683489363
 31
0.0
1001
AUTOCAD_POSTSCRIPT_FIGURE
1002
{
1000
PSFILL
1000
Grayscale
1000
Grayscale
1070
   100
1002
}
  0
LINE
  5
36BE
  8
YODOROGO
 10
27857.604341291921
 20
1884.568348936298
 30
0.0
 11
27857.604341291921
 21
1900.5683489363
 31
0.0
1001
AUTOCAD_POSTSCRIPT_FIGURE
1002
{
1000
PSFILL
1000
Grayscale
1000
Grayscale
1070
   100
1002
}
  0
LINE
  5
36BF
  8
YODOROGO
 10
27889.604341291921
 20
1884.568348936298
 30
0.0
 11
27857.604341291921
 21
1884.568348936298
 31
0.0
1001
AUTOCAD_POSTSCRIPT_FIGURE
1002
{
1000
PSFILL
1000
Grayscale
1000
Grayscale
1070
   100
1002
}
  0
LINE
  5
36C0
  8
YODOROGO
 10
27889.604341291921
 20
1879.6191779644371
 30
0.0
 11
27889.604341291921
 21
1884.568348936298
 31
0.0
1001
AUTOCAD_POSTSCRIPT_FIGURE
1002
{
1000
PSFILL
1000
Grayscale
1000
Grayscale
1070
   100
1002
}
  0
LINE
  5
36C1
  8
YODOROGO
 10
27849.604341291921
 20
1812.974981161417
 30
0.0
 11
27889.604341291921
 21
1879.6191779644371
 31
0.0
1001
AUTOCAD_POSTSCRIPT_FIGURE
1002
{
1000
PSFILL
1000
Grayscale
1000
Grayscale
1070
   100
1002
}
  0
LINE
  5
36C2
  8
YODOROGO
 10
27849.604341291921
 20
1796.9749811614161
 30
0.0
 11
27849.604341291921
 21
1812.974981161417
 31
0.0
1001
AUTOCAD_POSTSCRIPT_FIGURE
1002
{
1000
PSFILL
1000
Grayscale
1000
Grayscale
1070
   100
1002
}
  0
LINE
  5
36C3
  8
YODOROGO
 10
27889.604341291921
 20
1847.6191779644359
 30
0.0
 11
27849.604341291921
 21
1796.9749811614161
 31
0.0
1001
AUTOCAD_POSTSCRIPT_FIGURE
1002
{
1000
PSFILL
1000
Grayscale
1000
Grayscale
1070
   100
1002
}
  0
LINE
  5
36C4
  8
YODOROGO
 10
27889.604341291921
 20
1747.749496429286
 30
0.0
 11
27889.604341291921
 21
1847.6191779644359
 31
0.0
1001
AUTOCAD_POSTSCRIPT_FIGURE
1002
{
1000
PSFILL
1000
Grayscale
1000
Grayscale
1070
   100
1002
}
  0
LINE
  5
36C5
  8
YODOROGO
 10
27905.604341291921
 20
1747.749496429286
 30
0.0
 11
27889.604341291921
 21
1747.749496429286
 31
0.0
1001
AUTOCAD_POSTSCRIPT_FIGURE
1002
{
1000
PSFILL
1000
Grayscale
1000
Grayscale
1070
   100
1002
}
  0
LINE
  5
36C6
  8
YODOROGO
 10
27905.604341291921
 20
1849.409012158806
 30
0.0
 11
27905.604341291921
 21
1747.749496429286
 31
0.0
1001
AUTOCAD_POSTSCRIPT_FIGURE
1002
{
1000
PSFILL
1000
Grayscale
1000
Grayscale
1070
   100
1002
}
  0
LINE
  5
36C7
  8
YODOROGO
 10
27937.604341291921
 20
1796.9749811614161
 30
0.0
 11
27905.604341291921
 21
1849.409012158806
 31
0.0
1001
AUTOCAD_POSTSCRIPT_FIGURE
1002
{
1000
PSFILL
1000
Grayscale
1000
Grayscale
1070
   100
1002
}
  0
LINE
  5
36C8
  8
YODOROGO
 10
27937.604341291921
 20
1812.974981161417
 30
0.0
 11
27937.604341291921
 21
1796.9749811614161
 31
0.0
1001
AUTOCAD_POSTSCRIPT_FIGURE
1002
{
1000
PSFILL
1000
Grayscale
1000
Grayscale
1070
   100
1002
}
  0
LINE
  5
36C9
  8
YODOROGO
 10
27905.604341291921
 20
1881.4090121588081
 30
0.0
 11
27937.604341291921
 21
1812.974981161417
 31
0.0
1001
AUTOCAD_POSTSCRIPT_FIGURE
1002
{
1000
PSFILL
1000
Grayscale
1000
Grayscale
1070
   100
1002
}
  0
LINE
  5
36CA
  8
YODOROGO
 10
27905.604341291921
 20
1884.5683489363
 30
0.0
 11
27905.604341291921
 21
1881.4090121588081
 31
0.0
1001
AUTOCAD_POSTSCRIPT_FIGURE
1002
{
1000
PSFILL
1000
Grayscale
1000
Grayscale
1070
   100
1002
}
  0
LINE
  5
36CB
  8
YODOROGO
 10
27937.604341291921
 20
1884.568348936298
 30
0.0
 11
27905.604341291921
 21
1884.5683489363
 31
0.0
1001
AUTOCAD_POSTSCRIPT_FIGURE
1002
{
1000
PSFILL
1000
Grayscale
1000
Grayscale
1070
   100
1002
}
  0
LINE
  5
36CC
  8
YODOROGO
 10
27937.604341291921
 20
1900.5683489363
 30
0.0
 11
27937.604341291921
 21
1884.568348936298
 31
0.0
1001
AUTOCAD_POSTSCRIPT_FIGURE
1002
{
1000
PSFILL
1000
Grayscale
1000
Grayscale
1070
   100
1002
}
  0
LINE
  5
36CD
  8
YODOROGO
 10
27905.604341291921
 20
1900.5683489363
 30
0.0
 11
27937.604341291921
 21
1900.5683489363
 31
0.0
1001
AUTOCAD_POSTSCRIPT_FIGURE
1002
{
1000
PSFILL
1000
Grayscale
1000
Grayscale
1070
   100
1002
}
  0
LINE
  5
36CE
  8
YODOROGO
 10
27905.604341291921
 20
1939.749496429288
 30
0.0
 11
27905.604341291921
 21
1900.5683489363
 31
0.0
1001
AUTOCAD_POSTSCRIPT_FIGURE
1002
{
1000
PSFILL
1000
Grayscale
1000
Grayscale
1070
   100
1002
}
  0
LINE
  5
36CF
  8
YODOROGO
 10
27937.604341291921
 20
1939.749496429288
 30
0.0
 11
27905.604341291921
 21
1939.749496429288
 31
0.0
1001
AUTOCAD_POSTSCRIPT_FIGURE
1002
{
1000
PSFILL
1000
Grayscale
1000
Grayscale
1070
   100
1002
}
  0
LINE
  5
36D0
  8
YODOROGO
 10
27937.604341291921
 20
1955.7494964292871
 30
0.0
 11
27937.604341291921
 21
1939.749496429288
 31
0.0
1001
AUTOCAD_POSTSCRIPT_FIGURE
1002
{
1000
PSFILL
1000
Grayscale
1000
Grayscale
1070
   100
1002
}
  0
LINE
  5
36D1
  8
YODOROGO
 10
27905.604341291921
 20
1955.7494964292871
 30
0.0
 11
27937.604341291921
 21
1955.7494964292871
 31
0.0
1001
AUTOCAD_POSTSCRIPT_FIGURE
1002
{
1000
PSFILL
1000
Grayscale
1000
Grayscale
1070
   100
1002
}
  0
LINE
  5
36D2
  8
YODOROGO
 10
27905.604341291921
 20
1979.749496429288
 30
0.0
 11
27905.604341291921
 21
1955.7494964292871
 31
0.0
1001
AUTOCAD_POSTSCRIPT_FIGURE
1002
{
1000
PSFILL
1000
Grayscale
1000
Grayscale
1070
   100
1002
}
  0
LINE
  5
36D3
  8
YODOROGO
 10
27889.604341291921
 20
1979.749496429288
 30
0.0
 11
27905.604341291921
 21
1979.749496429288
 31
0.0
1001
AUTOCAD_POSTSCRIPT_FIGURE
1002
{
1000
PSFILL
1000
Grayscale
1000
Grayscale
1070
   100
1002
}
  0
LINE
  5
36D4
  8
YODOROGO
 10
27889.604341291921
 20
1955.7494964292871
 30
0.0
 11
27889.604341291921
 21
1979.749496429288
 31
0.0
1001
AUTOCAD_POSTSCRIPT_FIGURE
1002
{
1000
PSFILL
1000
Grayscale
1000
Grayscale
1070
   100
1002
}
  0
LINE
  5
36D5
  8
YODOROGO
 10
27865.604341291921
 20
1955.7494964292871
 30
0.0
 11
27889.604341291921
 21
1955.7494964292871
 31
0.0
1001
AUTOCAD_POSTSCRIPT_FIGURE
1002
{
1000
PSFILL
1000
Grayscale
1000
Grayscale
1070
   100
1002
}
  0
LINE
  5
36D6
  8
YODOROGO
 10
27865.604341291921
 20
1979.749496429288
 30
0.0
 11
27865.604341291921
 21
1955.7494964292871
 31
0.0
1001
AUTOCAD_POSTSCRIPT_FIGURE
1002
{
1000
PSFILL
1000
Grayscale
1000
Grayscale
1070
   100
1002
}
  0
LINE
  5
36D7
  8
YODOROGO
 10
27849.604341291921
 20
1979.749496429288
 30
0.0
 11
27865.604341291921
 21
1979.749496429288
 31
0.0
1001
AUTOCAD_POSTSCRIPT_FIGURE
1002
{
1000
PSFILL
1000
Grayscale
1000
Grayscale
1070
   100
1002
}
  0
LINE
  5
36D8
  8
YODOROGO
 10
27849.604341291921
 20
1955.7494964292871
 30
0.0
 11
27849.604341291921
 21
1979.749496429288
 31
0.0
1001
AUTOCAD_POSTSCRIPT_FIGURE
1002
{
1000
PSFILL
1000
Grayscale
1000
Grayscale
1070
   100
1002
}
  0
LINE
  5
36D9
  8
YODOROGO
 10
27817.604341291921
 20
1955.7494964292871
 30
0.0
 11
27849.604341291921
 21
1955.7494964292871
 31
0.0
1001
AUTOCAD_POSTSCRIPT_FIGURE
1002
{
1000
PSFILL
1000
Grayscale
1000
Grayscale
1070
   100
1002
}
  0
LINE
  5
36DA
  8
YODOROGO
 10
27817.604341291921
 20
1979.749496429288
 30
0.0
 11
27817.604341291921
 21
1955.7494964292871
 31
0.0
1001
AUTOCAD_POSTSCRIPT_FIGURE
1002
{
1000
PSFILL
1000
Grayscale
1000
Grayscale
1070
   100
1002
}
  0
LINE
  5
36DB
  8
YODOROGO
 10
27801.604341291921
 20
1979.749496429288
 30
0.0
 11
27817.604341291921
 21
1979.749496429288
 31
0.0
1001
AUTOCAD_POSTSCRIPT_FIGURE
1002
{
1000
PSFILL
1000
Grayscale
1000
Grayscale
1070
   100
1002
}
  0
LINE
  5
36DC
  8
YODOROGO
 10
27801.604341291921
 20
1955.7494964292871
 30
0.0
 11
27801.604341291921
 21
1979.749496429288
 31
0.0
1001
AUTOCAD_POSTSCRIPT_FIGURE
1002
{
1000
PSFILL
1000
Grayscale
1000
Grayscale
1070
   100
1002
}
  0
LINE
  5
36DD
  8
YODOROGO
 10
27777.604341291921
 20
1955.7494964292871
 30
0.0
 11
27801.604341291921
 21
1955.7494964292871
 31
0.0
1001
AUTOCAD_POSTSCRIPT_FIGURE
1002
{
1000
PSFILL
1000
Grayscale
1000
Grayscale
1070
   100
1002
}
  0
LINE
  5
36DE
  8
YODOROGO
 10
27777.604341291921
 20
1939.749496429288
 30
0.0
 11
27777.604341291921
 21
1955.7494964292871
 31
0.0
1001
AUTOCAD_POSTSCRIPT_FIGURE
1002
{
1000
PSFILL
1000
Grayscale
1000
Grayscale
1070
   100
1002
}
  0
LINE
  5
36DF
  8
YODOROGO
 10
27801.604341291921
 20
1939.749496429288
 30
0.0
 11
27777.604341291921
 21
1939.749496429288
 31
0.0
1001
AUTOCAD_POSTSCRIPT_FIGURE
1002
{
1000
PSFILL
1000
Grayscale
1000
Grayscale
1070
   100
1002
}
  0
LINE
  5
36E0
  8
YODOROGO
 10
27801.604341291921
 20
1914.7865807937051
 30
0.0
 11
27801.604341291921
 21
1939.749496429288
 31
0.0
1001
AUTOCAD_POSTSCRIPT_FIGURE
1002
{
1000
PSFILL
1000
Grayscale
1000
Grayscale
1070
   100
1002
}
  0
LINE
  5
36E1
  8
YODOROGO
 10
27777.604341291921
 20
1859.776747951671
 30
0.0
 11
27801.604341291921
 21
1914.7865807937051
 31
0.0
1001
AUTOCAD_POSTSCRIPT_FIGURE
1002
{
1000
PSFILL
1000
Grayscale
1000
Grayscale
1070
   100
1002
}
  0
LINE
  5
36E2
  8
YODOROGO
 10
27777.604341291921
 20
1843.776747951672
 30
0.0
 11
27777.604341291921
 21
1859.776747951671
 31
0.0
1001
AUTOCAD_POSTSCRIPT_FIGURE
1002
{
1000
PSFILL
1000
Grayscale
1000
Grayscale
1070
   100
1002
}
  0
LINE
  5
36E3
  8
YODOROGO
 10
28257.604341291921
 20
1867.7494964292871
 30
0.0
 11
28401.60434129191
 21
1824.877625640306
 31
0.0
1001
AUTOCAD_POSTSCRIPT_FIGURE
1002
{
1000
PSFILL
1000
Grayscale
1000
Grayscale
1070
   100
1002
}
  0
LINE
  5
36E4
  8
YODOROGO
 10
28401.60434129191
 20
1752.877625640306
 30
0.0
 11
28257.604341291921
 21
1795.7494964292871
 31
0.0
1001
AUTOCAD_POSTSCRIPT_FIGURE
1002
{
1000
PSFILL
1000
Grayscale
1000
Grayscale
1070
   100
1002
}
  0
LINE
  5
36E5
  8
YODOROGO
 10
28401.60434129191
 20
1984.877625640306
 30
0.0
 11
28257.604341291921
 21
2027.749496429288
 31
0.0
1001
AUTOCAD_POSTSCRIPT_FIGURE
1002
{
1000
PSFILL
1000
Grayscale
1000
Grayscale
1070
   100
1002
}
  0
LINE
  5
36E6
  8
YODOROGO
 10
28257.604341291921
 20
1959.749496429288
 30
0.0
 11
28401.60434129191
 21
1916.8776256403071
 31
0.0
1001
AUTOCAD_POSTSCRIPT_FIGURE
1002
{
1000
PSFILL
1000
Grayscale
1000
Grayscale
1070
   100
1002
}
  0
LINE
  5
36E7
  8
YODOROGO
 10
28257.604341291921
 20
1795.7494964292871
 30
0.0
 11
28257.604341291921
 21
1867.7494964292871
 31
0.0
1001
AUTOCAD_POSTSCRIPT_FIGURE
1002
{
1000
PSFILL
1000
Grayscale
1000
Grayscale
1070
   100
1002
}
  0
LINE
  5
36E8
  8
YODOROGO
 10
28257.604341291921
 20
2027.749496429288
 30
0.0
 11
28257.604341291921
 21
1959.749496429288
 31
0.0
1001
AUTOCAD_POSTSCRIPT_FIGURE
1002
{
1000
PSFILL
1000
Grayscale
1000
Grayscale
1070
   100
1002
}
  0
LINE
  5
36E9
  8
YODOROGO
 10
28080.236320206739
 20
1939.749496429288
 30
0.0
 11
28129.60434129191
 21
1747.749496429286
 31
0.0
1001
AUTOCAD_POSTSCRIPT_FIGURE
1002
{
1000
PSFILL
1000
Grayscale
1000
Grayscale
1070
   100
1002
}
  0
LINE
  5
36EA
  8
YODOROGO
 10
27977.604341291921
 20
1939.749496429288
 30
0.0
 11
28080.236320206739
 21
1939.749496429288
 31
0.0
1001
AUTOCAD_POSTSCRIPT_FIGURE
1002
{
1000
PSFILL
1000
Grayscale
1000
Grayscale
1070
   100
1002
}
  0
LINE
  5
36EB
  8
YODOROGO
 10
27977.604341291921
 20
1955.7494964292871
 30
0.0
 11
27977.604341291921
 21
1939.749496429288
 31
0.0
1001
AUTOCAD_POSTSCRIPT_FIGURE
1002
{
1000
PSFILL
1000
Grayscale
1000
Grayscale
1070
   100
1002
}
  0
LINE
  5
36EC
  8
YODOROGO
 10
28076.60687851991
 20
1955.7494964292871
 30
0.0
 11
27977.604341291921
 21
1955.7494964292871
 31
0.0
1001
AUTOCAD_POSTSCRIPT_FIGURE
1002
{
1000
PSFILL
1000
Grayscale
1000
Grayscale
1070
   100
1002
}
  0
LINE
  5
36ED
  8
YODOROGO
 10
28071.162715989711
 20
1979.749496429288
 30
0.0
 11
28076.60687851991
 21
1955.7494964292871
 31
0.0
1001
AUTOCAD_POSTSCRIPT_FIGURE
1002
{
1000
PSFILL
1000
Grayscale
1000
Grayscale
1070
   100
1002
}
  0
LINE
  5
36EE
  8
YODOROGO
 10
28091.162715989711
 20
1979.749496429288
 30
0.0
 11
28071.162715989711
 21
1979.749496429288
 31
0.0
1001
AUTOCAD_POSTSCRIPT_FIGURE
1002
{
1000
PSFILL
1000
Grayscale
1000
Grayscale
1070
   100
1002
}
  0
LINE
  5
36EF
  8
YODOROGO
 10
28095.806878519939
 20
1955.7494964292871
 30
0.0
 11
28091.162715989711
 21
1979.749496429288
 31
0.0
1001
AUTOCAD_POSTSCRIPT_FIGURE
1002
{
1000
PSFILL
1000
Grayscale
1000
Grayscale
1070
   100
1002
}
  0
LINE
  5
36F0
  8
YODOROGO
 10
28121.604341291921
 20
1955.7494964292871
 30
0.0
 11
28095.806878519939
 21
1955.7494964292871
 31
0.0
1001
AUTOCAD_POSTSCRIPT_FIGURE
1002
{
1000
PSFILL
1000
Grayscale
1000
Grayscale
1070
   100
1002
}
  0
LINE
  5
36F1
  8
YODOROGO
 10
28121.604341291921
 20
1979.749496429288
 30
0.0
 11
28121.604341291921
 21
1955.7494964292871
 31
0.0
1001
AUTOCAD_POSTSCRIPT_FIGURE
1002
{
1000
PSFILL
1000
Grayscale
1000
Grayscale
1070
   100
1002
}
  0
LINE
  5
36F2
  8
YODOROGO
 10
28137.604341291921
 20
1979.749496429288
 30
0.0
 11
28121.604341291921
 21
1979.749496429288
 31
0.0
1001
AUTOCAD_POSTSCRIPT_FIGURE
1002
{
1000
PSFILL
1000
Grayscale
1000
Grayscale
1070
   100
1002
}
  0
LINE
  5
36F3
  8
YODOROGO
 10
28137.604341291921
 20
1955.7494964292871
 30
0.0
 11
28137.604341291921
 21
1979.749496429288
 31
0.0
1001
AUTOCAD_POSTSCRIPT_FIGURE
1002
{
1000
PSFILL
1000
Grayscale
1000
Grayscale
1070
   100
1002
}
  0
LINE
  5
36F4
  8
YODOROGO
 10
28137.604341291921
 20
1939.749496429288
 30
0.0
 11
28137.604341291921
 21
1955.7494964292871
 31
0.0
1001
AUTOCAD_POSTSCRIPT_FIGURE
1002
{
1000
PSFILL
1000
Grayscale
1000
Grayscale
1070
   100
1002
}
  0
LINE
  5
36F5
  8
YODOROGO
 10
28098.902986873411
 20
1939.749496429288
 30
0.0
 11
28137.604341291921
 21
1939.749496429288
 31
0.0
1001
AUTOCAD_POSTSCRIPT_FIGURE
1002
{
1000
PSFILL
1000
Grayscale
1000
Grayscale
1070
   100
1002
}
  0
LINE
  5
36F6
  8
YODOROGO
 10
28137.604341291921
 20
1747.749496429286
 30
0.0
 11
28098.902986873411
 21
1939.749496429288
 31
0.0
1001
AUTOCAD_POSTSCRIPT_FIGURE
1002
{
1000
PSFILL
1000
Grayscale
1000
Grayscale
1070
   100
1002
}
  0
LINE
  5
36F7
  8
YODOROGO
 10
28129.60434129191
 20
1747.749496429286
 30
0.0
 11
28137.604341291921
 21
1747.749496429286
 31
0.0
1001
AUTOCAD_POSTSCRIPT_FIGURE
1002
{
1000
PSFILL
1000
Grayscale
1000
Grayscale
1070
   100
1002
}
  0
LINE
  5
36F8
  8
YODOROGO
 10
28078.06921993379
 20
1775.7407762987939
 30
0.0
 11
27977.604341291921
 21
1747.749496429286
 31
0.0
  0
LINE
  5
36F9
  8
YODOROGO
 10
28078.06921993379
 20
1798.6689795290731
 30
0.0
 11
28078.06921993379
 21
1775.7407762987939
 31
0.0
  0
LINE
  5
36FA
  8
YODOROGO
 10
28033.83678061287
 20
1786.816933133767
 30
0.0
 11
28078.06921993379
 21
1798.6689795290731
 31
0.0
  0
LINE
  5
36FB
  8
YODOROGO
 10
28033.83678061287
 20
1872.5683489362989
 30
0.0
 11
28033.83678061287
 21
1786.816933133767
 31
0.0
  0
LINE
  5
36FC
  8
YODOROGO
 10
28078.06921993379
 20
1872.5683489362989
 30
0.0
 11
28033.83678061287
 21
1872.5683489362989
 31
0.0
  0
LINE
  5
36FD
  8
YODOROGO
 10
28078.06921993379
 20
1892.568348936298
 30
0.0
 11
28078.06921993379
 21
1872.5683489362989
 31
0.0
  0
LINE
  5
36FE
  8
YODOROGO
 10
27977.604341291921
 20
1892.568348936298
 30
0.0
 11
28078.06921993379
 21
1892.568348936298
 31
0.0
  0
LINE
  5
36FF
  8
YODOROGO
 10
27977.604341291921
 20
1872.5683489362989
 30
0.0
 11
27977.604341291921
 21
1892.568348936298
 31
0.0
  0
LINE
  5
3700
  8
YODOROGO
 10
28021.836780612852
 20
1872.5683489362989
 30
0.0
 11
27977.604341291921
 21
1872.5683489362989
 31
0.0
  0
LINE
  5
3701
  8
YODOROGO
 10
28021.836780612852
 20
1784.673339594317
 30
0.0
 11
28021.836780612852
 21
1872.5683489362989
 31
0.0
  0
LINE
  5
3702
  8
YODOROGO
 10
27977.604341291921
 20
1771.749496429286
 30
0.0
 11
28021.836780612852
 21
1784.673339594317
 31
0.0
  0
LINE
  5
3703
  8
YODOROGO
 10
27977.604341291921
 20
1747.749496429286
 30
0.0
 11
27977.604341291921
 21
1771.749496429286
 31
0.0
  0
LINE
  5
3704
  8
YODOROGO
 10
28001.604341291921
 20
1707.749496429288
 30
0.0
 11
28001.604341291921
 21
1683.7494964292871
 31
0.0
  0
LINE
  5
3705
  8
YODOROGO
 10
28017.604341291921
 20
1707.749496429288
 30
0.0
 11
28001.604341291921
 21
1707.749496429288
 31
0.0
  0
LINE
  5
3706
  8
YODOROGO
 10
28017.604341291921
 20
1683.7494964292871
 30
0.0
 11
28017.604341291921
 21
1707.749496429288
 31
0.0
  0
LINE
  5
3707
  8
YODOROGO
 10
28040.913204016892
 20
1683.7494964292871
 30
0.0
 11
28017.604341291921
 21
1683.7494964292871
 31
0.0
  0
LINE
  5
3708
  8
YODOROGO
 10
28001.604341291921
 20
1683.7494964292871
 30
0.0
 11
27977.604341291921
 21
1683.7494964292871
 31
0.0
  0
LINE
  5
3709
  8
YODOROGO
 10
28082.135520230921
 20
1707.749496429288
 30
0.0
 11
28098.135520230931
 21
1707.749496429288
 31
0.0
1001
AUTOCAD_POSTSCRIPT_FIGURE
1002
{
1000
PSFILL
1000
Grayscale
1000
Grayscale
1070
   100
1002
}
  0
LINE
  5
370A
  8
YODOROGO
 10
28401.60434129191
 20
1824.877625640306
 30
0.0
 11
28401.60434129191
 21
1752.877625640306
 31
0.0
1001
AUTOCAD_POSTSCRIPT_FIGURE
1002
{
1000
PSFILL
1000
Grayscale
1000
Grayscale
1070
   100
1002
}
  0
LINE
  5
370B
  8
YODOROGO
 10
28401.60434129191
 20
1916.8776256403071
 30
0.0
 11
28401.60434129191
 21
1984.877625640306
 31
0.0
1001
AUTOCAD_POSTSCRIPT_FIGURE
1002
{
1000
PSFILL
1000
Grayscale
1000
Grayscale
1070
   100
1002
}
  0
LINE
  5
370C
  8
YODOROGO
 10
28433.60434129191
 20
1819.7494964292871
 30
0.0
 11
28433.60434129191
 21
1747.74949642929
 31
0.0
  0
LINE
  5
370D
  8
YODOROGO
 10
28497.60434129191
 20
1707.749496429288
 30
0.0
 11
28433.60434129191
 21
1707.749496429288
 31
0.0
  0
LINE
  5
370E
  8
YODOROGO
 10
28433.60434129191
 20
1747.74949642929
 30
0.0
 11
28585.604341291921
 21
1747.74949642929
 31
0.0
  0
LINE
  5
370F
  8
YODOROGO
 10
28497.60434129191
 20
1867.7494964292871
 30
0.0
 11
28433.60434129191
 21
1867.7494964292871
 31
0.0
  0
LINE
  5
3710
  8
YODOROGO
 10
28497.60434129191
 20
1923.7494964292871
 30
0.0
 11
28497.60434129191
 21
1867.7494964292871
 31
0.0
  0
LINE
  5
3711
  8
YODOROGO
 10
28585.604341291921
 20
1987.7494964292871
 30
0.0
 11
28585.604341291921
 21
2027.749496429288
 31
0.0
  0
LINE
  5
3712
  8
YODOROGO
 10
28433.60434129191
 20
1987.7494964292871
 30
0.0
 11
28585.604341291921
 21
1987.7494964292871
 31
0.0
  0
LINE
  5
3713
  8
YODOROGO
 10
28433.60434129191
 20
1867.7494964292871
 30
0.0
 11
28433.60434129191
 21
1987.7494964292871
 31
0.0
  0
LINE
  5
3714
  8
YODOROGO
 10
29001.60434129191
 20
2027.749496429288
 30
0.0
 11
29001.60434129191
 21
1619.749496429288
 31
0.0
  0
LINE
  5
3715
  8
YODOROGO
 10
29073.604341291921
 20
1579.749496429288
 30
0.0
 11
29073.604341291921
 21
2027.749496429288
 31
0.0
  0
LINE
  5
3716
  8
YODOROGO
 10
29261.604341291921
 20
1491.749496429286
 30
0.0
 11
29261.604341291921
 21
2007.749496429288
 31
0.0
  0
LINE
  5
3717
  8
YODOROGO
 10
29197.604341291921
 20
2007.749496429288
 30
0.0
 11
29197.604341291921
 21
1491.749496429286
 31
0.0
  0
LINE
  5
3718
  8
YODOROGO
 10
29385.604341291921
 20
2027.749496429288
 30
0.0
 11
29385.604341291921
 21
1427.749496429288
 31
0.0
  0
LINE
  5
3719
  8
YODOROGO
 10
29457.604341291921
 20
1427.749496429288
 30
0.0
 11
29457.604341291921
 21
2027.749496429288
 31
0.0
  0
LINE
  5
371A
  8
YODOROGO
 10
28657.604341291921
 20
1667.749496429288
 30
0.0
 11
28657.604341291921
 21
1747.74949642929
 31
0.0
  0
LINE
  5
371B
  8
YODOROGO
 10
29885.604341291921
 20
1707.749496429288
 30
0.0
 11
29885.604341291921
 21
1667.749496429288
 31
0.0
  0
LINE
  5
371C
  8
YODOROGO
 10
29885.604341291921
 20
1707.749496429288
 30
0.0
 11
29885.604341291921
 21
1667.749496429288
 31
0.0
  0
ARC
  5
371D
  8
YODOROGO
 10
28906.911576186842
 20
1618.217864442272
 30
0.0
 40
94.705151178741644
 50
274.05244162907098
 51
0.9266642149310712
  0
ARC
  5
371E
  8
YODOROGO
 10
28909.186170719819
 20
1592.61072861044
 30
0.0
 40
164.92042356085511
 50
271.5351210653775
 51
355.52727750585052
  0
LINE
  5
371F
  8
YODOROGO
 10
28913.604341291921
 20
1523.7494964292871
 30
0.0
 11
28913.604341291921
 21
1427.749496429288
 31
0.0
  0
LINE
  5
3720
  8
YODOROGO
 10
28793.60434129191
 20
1667.749496429288
 30
0.0
 11
28657.604341291921
 21
1667.749496429288
 31
0.0
  0
LINE
  5
3721
  8
YODOROGO
 10
28793.60434129191
 20
1603.7494964292871
 30
0.0
 11
28793.60434129191
 21
1667.749496429288
 31
0.0
  0
LINE
  5
3722
  8
YODOROGO
 10
28657.604341291921
 20
1603.7494964292871
 30
0.0
 11
28793.60434129191
 21
1603.7494964292871
 31
0.0
  0
LINE
  5
3723
  8
YODOROGO
 10
28657.604341291921
 20
1523.7494964292871
 30
0.0
 11
28657.604341291921
 21
1603.7494964292871
 31
0.0
  0
LINE
  5
3724
  8
YODOROGO
 10
28793.60434129191
 20
1523.7494964292871
 30
0.0
 11
28657.604341291921
 21
1523.7494964292871
 31
0.0
  0
LINE
  5
3725
  8
YODOROGO
 10
28793.60434129191
 20
1427.749496429288
 30
0.0
 11
28793.60434129191
 21
1523.7494964292871
 31
0.0
  0
LINE
  5
3726
  8
YODOROGO
 10
29197.604341291921
 20
1491.749496429286
 30
0.0
 11
29261.604341291921
 21
1491.749496429286
 31
0.0
  0
LINE
  5
3727
  8
YODOROGO
 10
29385.604341291921
 20
1427.749496429288
 30
0.0
 11
29457.604341291921
 21
1427.749496429288
 31
0.0
  0
LINE
  5
3728
  8
YODOROGO
 10
29737.604341291921
 20
1528.4414521705639
 30
0.0
 11
29737.604341291921
 21
1427.749496429288
 31
0.0
  0
LINE
  5
3729
  8
YODOROGO
 10
29617.604341291921
 20
1427.749496429288
 30
0.0
 11
29737.604341291921
 21
1528.4414521705639
 31
0.0
  0
LINE
  5
372A
  8
YODOROGO
 10
29617.604341291921
 20
1547.749496429288
 30
0.0
 11
29617.604341291921
 21
1427.749496429288
 31
0.0
  0
LINE
  5
372B
  8
YODOROGO
 10
29712.94462869945
 20
1627.749496429288
 30
0.0
 11
29617.604341291921
 21
1547.749496429288
 31
0.0
  0
LINE
  5
372C
  8
YODOROGO
 10
29617.604341291921
 20
1627.749496429288
 30
0.0
 11
29712.94462869945
 21
1627.749496429288
 31
0.0
  0
LINE
  5
372D
  8
YODOROGO
 10
29617.604341291921
 20
1667.749496429288
 30
0.0
 11
29617.604341291921
 21
1627.749496429288
 31
0.0
  0
LINE
  5
372E
  8
YODOROGO
 10
29885.604341291921
 20
1667.749496429288
 30
0.0
 11
29617.604341291921
 21
1667.749496429288
 31
0.0
  0
LINE
  5
372F
  8
YODOROGO
 10
29917.604341291921
 20
1627.749496429288
 30
0.0
 11
29777.604341291921
 21
1627.749496429288
 31
0.0
  0
LINE
  5
3730
  8
YODOROGO
 10
29777.604341291921
 20
1562.0054374176559
 30
0.0
 11
29771.409872985321
 21
1556.807661346234
 31
0.0
  0
LINE
  5
3731
  8
YODOROGO
 10
29777.604341291921
 20
1627.749496429288
 30
0.0
 11
29777.604341291921
 21
1562.0054374176559
 31
0.0
  0
LINE
  5
3732
  8
YODOROGO
 10
29737.604341291921
 20
1528.4414521705639
 30
0.0
 11
29737.604341291921
 21
1427.749496429288
 31
0.0
  0
LINE
  5
3733
  8
YODOROGO
 10
29617.604341291921
 20
1427.749496429288
 30
0.0
 11
29737.604341291921
 21
1528.4414521705639
 31
0.0
  0
LINE
  5
3734
  8
YODOROGO
 10
29617.604341291921
 20
1547.749496429288
 30
0.0
 11
29617.604341291921
 21
1427.749496429288
 31
0.0
  0
LINE
  5
3735
  8
YODOROGO
 10
29712.94462869945
 20
1627.749496429288
 30
0.0
 11
29617.604341291921
 21
1547.749496429288
 31
0.0
  0
LINE
  5
3736
  8
YODOROGO
 10
29617.604341291921
 20
1627.749496429288
 30
0.0
 11
29712.94462869945
 21
1627.749496429288
 31
0.0
  0
LINE
  5
3737
  8
YODOROGO
 10
29617.604341291921
 20
1667.749496429288
 30
0.0
 11
29617.604341291921
 21
1627.749496429288
 31
0.0
  0
LINE
  5
3738
  8
YODOROGO
 10
29885.604341291921
 20
1667.749496429288
 30
0.0
 11
29617.604341291921
 21
1667.749496429288
 31
0.0
  0
LINE
  5
3739
  8
YODOROGO
 10
28793.60434129191
 20
1747.74949642929
 30
0.0
 11
28793.60434129191
 21
1819.7494964292871
 31
0.0
  0
LINE
  5
373A
  8
YODOROGO
 10
28657.604341291921
 20
1747.74949642929
 30
0.0
 11
28793.60434129191
 21
1747.74949642929
 31
0.0
  0
LINE
  5
373B
  8
YODOROGO
 10
28729.604341291921
 20
1867.7494964292871
 30
0.0
 11
28729.604341291921
 21
1923.7494964292871
 31
0.0
  0
LINE
  5
373C
  8
YODOROGO
 10
28793.60434129191
 20
1867.7494964292871
 30
0.0
 11
28729.604341291921
 21
1867.7494964292871
 31
0.0
  0
LINE
  5
373D
  8
YODOROGO
 10
28793.60434129191
 20
1947.749496429288
 30
0.0
 11
28793.60434129191
 21
1867.7494964292871
 31
0.0
  0
ARC
  5
373E
  8
YODOROGO
 10
28753.60434129191
 20
1947.749496429288
 30
0.0
 40
40.0
 50
0.0
 51
90.0
  0
LINE
  5
373F
  8
YODOROGO
 10
28657.604341291921
 20
1987.7494964292871
 30
0.0
 11
28753.60434129191
 21
1987.7494964292871
 31
0.0
  0
LINE
  5
3740
  8
YODOROGO
 10
28657.604341291921
 20
2027.749496429288
 30
0.0
 11
28657.604341291921
 21
1987.7494964292871
 31
0.0
  0
LINE
  5
3741
  8
YODOROGO
 10
29073.604341291921
 20
2027.749496429288
 30
0.0
 11
29001.60434129191
 21
2027.749496429288
 31
0.0
  0
LINE
  5
3742
  8
YODOROGO
 10
29261.604341291921
 20
2007.749496429288
 30
0.0
 11
29197.604341291921
 21
2007.749496429288
 31
0.0
  0
LINE
  5
3743
  8
YODOROGO
 10
29457.604341291921
 20
2027.749496429288
 30
0.0
 11
29385.604341291921
 21
2027.749496429288
 31
0.0
  0
LINE
  5
3744
  8
YODOROGO
 10
29673.604341291921
 20
1707.749496429288
 30
0.0
 11
29673.604341291921
 21
1771.7494964292871
 31
0.0
1001
AUTOCAD_POSTSCRIPT_FIGURE
1002
{
1000
PSFILL
1000
Grayscale
1000
Grayscale
1070
    25
1002
}
  0
LINE
  5
3745
  8
YODOROGO
 10
29617.604341291921
 20
1707.749496429288
 30
0.0
 11
29673.604341291921
 21
1707.749496429288
 31
0.0
1001
AUTOCAD_POSTSCRIPT_FIGURE
1002
{
1000
PSFILL
1000
Grayscale
1000
Grayscale
1070
    25
1002
}
  0
LINE
  5
3746
  8
YODOROGO
 10
29617.604341291921
 20
1819.7494964292871
 30
0.0
 11
29617.604341291921
 21
1707.749496429288
 31
0.0
1001
AUTOCAD_POSTSCRIPT_FIGURE
1002
{
1000
PSFILL
1000
Grayscale
1000
Grayscale
1070
    25
1002
}
  0
LINE
  5
3747
  8
YODOROGO
 10
29765.604341291921
 20
1819.7494964292871
 30
0.0
 11
29617.604341291921
 21
1819.7494964292871
 31
0.0
1001
AUTOCAD_POSTSCRIPT_FIGURE
1002
{
1000
PSFILL
1000
Grayscale
1000
Grayscale
1070
    25
1002
}
  0
LINE
  5
3748
  8
YODOROGO
 10
29765.604341291921
 20
1859.749496429288
 30
0.0
 11
29765.604341291921
 21
1819.7494964292871
 31
0.0
1001
AUTOCAD_POSTSCRIPT_FIGURE
1002
{
1000
PSFILL
1000
Grayscale
1000
Grayscale
1070
    25
1002
}
  0
LINE
  5
3749
  8
YODOROGO
 10
29617.604341291921
 20
1859.749496429288
 30
0.0
 11
29765.604341291921
 21
1859.749496429288
 31
0.0
1001
AUTOCAD_POSTSCRIPT_FIGURE
1002
{
1000
PSFILL
1000
Grayscale
1000
Grayscale
1070
    25
1002
}
  0
LINE
  5
374A
  8
YODOROGO
 10
29617.604341291921
 20
1907.7494964292871
 30
0.0
 11
29617.604341291921
 21
1859.749496429288
 31
0.0
1001
AUTOCAD_POSTSCRIPT_FIGURE
1002
{
1000
PSFILL
1000
Grayscale
1000
Grayscale
1070
    25
1002
}
  0
LINE
  5
374B
  8
YODOROGO
 10
29765.604341291921
 20
1907.7494964292871
 30
0.0
 11
29617.604341291921
 21
1907.7494964292871
 31
0.0
1001
AUTOCAD_POSTSCRIPT_FIGURE
1002
{
1000
PSFILL
1000
Grayscale
1000
Grayscale
1070
    25
1002
}
  0
LINE
  5
374C
  8
YODOROGO
 10
29765.604341291921
 20
1947.749496429288
 30
0.0
 11
29765.604341291921
 21
1907.7494964292871
 31
0.0
1001
AUTOCAD_POSTSCRIPT_FIGURE
1002
{
1000
PSFILL
1000
Grayscale
1000
Grayscale
1070
    25
1002
}
  0
LINE
  5
374D
  8
YODOROGO
 10
29617.604341291921
 20
1947.749496429288
 30
0.0
 11
29765.604341291921
 21
1947.749496429288
 31
0.0
1001
AUTOCAD_POSTSCRIPT_FIGURE
1002
{
1000
PSFILL
1000
Grayscale
1000
Grayscale
1070
    25
1002
}
  0
LINE
  5
374E
  8
YODOROGO
 10
29617.604341291921
 20
2027.749496429288
 30
0.0
 11
29617.604341291921
 21
1947.749496429288
 31
0.0
1001
AUTOCAD_POSTSCRIPT_FIGURE
1002
{
1000
PSFILL
1000
Grayscale
1000
Grayscale
1070
    25
1002
}
  0
LINE
  5
374F
  8
YODOROGO
 10
29665.604341291921
 20
2027.749496429288
 30
0.0
 11
29617.604341291921
 21
2027.749496429288
 31
0.0
1001
AUTOCAD_POSTSCRIPT_FIGURE
1002
{
1000
PSFILL
1000
Grayscale
1000
Grayscale
1070
    25
1002
}
  0
LINE
  5
3750
  8
YODOROGO
 10
29665.604341291921
 20
1995.7494964292871
 30
0.0
 11
29665.604341291921
 21
2027.749496429288
 31
0.0
1001
AUTOCAD_POSTSCRIPT_FIGURE
1002
{
1000
PSFILL
1000
Grayscale
1000
Grayscale
1070
    25
1002
}
  0
LINE
  5
3751
  8
YODOROGO
 10
29765.604341291921
 20
1995.7494964292871
 30
0.0
 11
29665.604341291921
 21
1995.7494964292871
 31
0.0
1001
AUTOCAD_POSTSCRIPT_FIGURE
1002
{
1000
PSFILL
1000
Grayscale
1000
Grayscale
1070
    25
1002
}
  0
LINE
  5
3752
  8
YODOROGO
 10
29765.604341291921
 20
2027.749496429288
 30
0.0
 11
29765.604341291921
 21
1995.7494964292871
 31
0.0
1001
AUTOCAD_POSTSCRIPT_FIGURE
1002
{
1000
PSFILL
1000
Grayscale
1000
Grayscale
1070
    25
1002
}
  0
LINE
  5
3753
  8
YODOROGO
 10
29829.604341291921
 20
2027.749496429288
 30
0.0
 11
29765.604341291921
 21
2027.749496429288
 31
0.0
1001
AUTOCAD_POSTSCRIPT_FIGURE
1002
{
1000
PSFILL
1000
Grayscale
1000
Grayscale
1070
    25
1002
}
  0
LINE
  5
3754
  8
YODOROGO
 10
29829.604341291921
 20
1995.7494964292871
 30
0.0
 11
29829.604341291921
 21
2027.749496429288
 31
0.0
1001
AUTOCAD_POSTSCRIPT_FIGURE
1002
{
1000
PSFILL
1000
Grayscale
1000
Grayscale
1070
    25
1002
}
  0
LINE
  5
3755
  8
YODOROGO
 10
29829.604341291921
 20
1907.7494964292871
 30
0.0
 11
29829.604341291921
 21
1947.749496429288
 31
0.0
1001
AUTOCAD_POSTSCRIPT_FIGURE
1002
{
1000
PSFILL
1000
Grayscale
1000
Grayscale
1070
    25
1002
}
  0
LINE
  5
3756
  8
YODOROGO
 10
29829.604341291921
 20
1819.7494964292871
 30
0.0
 11
29829.604341291921
 21
1859.749496429288
 31
0.0
1001
AUTOCAD_POSTSCRIPT_FIGURE
1002
{
1000
PSFILL
1000
Grayscale
1000
Grayscale
1070
    25
1002
}
  0
LINE
  5
3757
  8
YODOROGO
 10
29921.60434129191
 20
1771.7494964292871
 30
0.0
 11
29921.60434129191
 21
1707.749496429288
 31
0.0
1001
AUTOCAD_POSTSCRIPT_FIGURE
1002
{
1000
PSFILL
1000
Grayscale
1000
Grayscale
1070
    25
1002
}
  0
LINE
  5
3758
  8
YODOROGO
 10
29829.604341291921
 20
1771.7494964292871
 30
0.0
 11
29921.60434129191
 21
1771.7494964292871
 31
0.0
1001
AUTOCAD_POSTSCRIPT_FIGURE
1002
{
1000
PSFILL
1000
Grayscale
1000
Grayscale
1070
    25
1002
}
  0
LINE
  5
3759
  8
YODOROGO
 10
29829.604341291921
 20
1707.749496429288
 30
0.0
 11
29829.604341291921
 21
1771.7494964292871
 31
0.0
1001
AUTOCAD_POSTSCRIPT_FIGURE
1002
{
1000
PSFILL
1000
Grayscale
1000
Grayscale
1070
    25
1002
}
  0
LINE
  5
375A
  8
YODOROGO
 10
29765.604341291921
 20
1707.749496429288
 30
0.0
 11
29829.604341291921
 21
1707.749496429288
 31
0.0
1001
AUTOCAD_POSTSCRIPT_FIGURE
1002
{
1000
PSFILL
1000
Grayscale
1000
Grayscale
1070
    25
1002
}
  0
LINE
  5
375B
  8
YODOROGO
 10
29765.604341291921
 20
1771.7494964292871
 30
0.0
 11
29765.604341291921
 21
1707.749496429288
 31
0.0
1001
AUTOCAD_POSTSCRIPT_FIGURE
1002
{
1000
PSFILL
1000
Grayscale
1000
Grayscale
1070
    25
1002
}
  0
LINE
  5
375C
  8
YODOROGO
 10
29673.604341291921
 20
1771.7494964292871
 30
0.0
 11
29765.604341291921
 21
1771.7494964292871
 31
0.0
1001
AUTOCAD_POSTSCRIPT_FIGURE
1002
{
1000
PSFILL
1000
Grayscale
1000
Grayscale
1070
    25
1002
}
  0
ARC
  5
375D
  8
YODOROGO
 10
31059.517893357912
 20
1602.6807375155761
 30
0.0
 40
178.22128111072141
 50
281.02627495425338
 51
357.77113575573799
  0
LINE
  5
375E
  8
YODOROGO
 10
31413.604341291921
 20
1907.7494964292871
 30
0.0
 11
31165.604341291921
 21
1907.7494964292871
 31
0.0
  0
LINE
  5
375F
  8
YODOROGO
 10
31413.604341291921
 20
2027.749496429288
 30
0.0
 11
31165.604341291921
 21
2027.749496429288
 31
0.0
  0
LINE
  5
3760
  8
YODOROGO
 10
31165.604341291921
 20
1963.749496429286
 30
0.0
 11
31413.604341291921
 21
1963.749496429286
 31
0.0
  0
LINE
  5
3761
  8
YODOROGO
 10
30791.604341291921
 20
1563.7494964292871
 30
0.0
 11
30791.604341291921
 21
1755.7494964292871
 31
0.0
  0
LINE
  5
3762
  8
YODOROGO
 10
30763.604341291921
 20
1691.749496429288
 30
0.0
 11
30763.604341291921
 21
1563.7494964292871
 31
0.0
  0
LINE
  5
3763
  8
YODOROGO
 10
30723.604341291921
 20
1491.749496429288
 30
0.0
 11
30723.604341291921
 21
1691.749496429288
 31
0.0
  0
LINE
  5
3764
  8
YODOROGO
 10
30899.604341291932
 20
1691.749496429288
 30
0.0
 11
30899.604341291932
 21
1491.749496429288
 31
0.0
  0
LINE
  5
3765
  8
YODOROGO
 10
30859.604341291932
 20
1563.7494964292871
 30
0.0
 11
30859.604341291932
 21
1691.749496429288
 31
0.0
  0
LINE
  5
3766
  8
YODOROGO
 10
30831.604341291921
 20
1755.7494964292871
 30
0.0
 11
30831.604341291921
 21
1563.7494964292871
 31
0.0
  0
LINE
  5
3767
  8
YODOROGO
 10
30973.604341291921
 20
2027.749496429288
 30
0.0
 11
30973.604341291921
 21
1467.749496429288
 31
0.0
  0
LINE
  5
3768
  8
YODOROGO
 10
30645.604341291921
 20
1427.749496429288
 30
0.0
 11
30645.604341291921
 21
2027.749496429288
 31
0.0
  0
LINE
  5
3769
  8
YODOROGO
 10
30697.604341291932
 20
1963.749496429286
 30
0.0
 11
30697.604341291932
 21
1427.749496429288
 31
0.0
  0
LINE
  5
376A
  8
YODOROGO
 10
30925.604341291921
 20
1547.749496429288
 30
0.0
 11
30925.604341291921
 21
1963.749496429286
 31
0.0
  0
LINE
  5
376B
  8
YODOROGO
 10
30381.604341291932
 20
1627.749496429288
 30
0.0
 11
30381.604341291932
 21
1679.749496429288
 31
0.0
  0
LINE
  5
376C
  8
YODOROGO
 10
30617.604341291921
 20
1679.749496429288
 30
0.0
 11
30617.604341291921
 21
1627.749496429288
 31
0.0
  0
LINE
  5
376D
  8
YODOROGO
 10
31165.604341291921
 20
1907.7494964292871
 30
0.0
 11
31165.604341291921
 21
1635.7494964292871
 31
0.0
  0
LINE
  5
376E
  8
YODOROGO
 10
29949.60434129191
 20
1667.749496429288
 30
0.0
 11
29949.60434129191
 21
1707.749496429288
 31
0.0
  0
LINE
  5
376F
  8
YODOROGO
 10
29949.60434129191
 20
1667.749496429288
 30
0.0
 11
29949.60434129191
 21
1707.749496429288
 31
0.0
  0
ARC
  5
3770
  8
YODOROGO
 10
30537.604341291921
 20
1507.749496429288
 30
0.0
 40
80.0
 50
270.0
 51
0.0
  0
LINE
  5
3771
  8
YODOROGO
 10
30569.604341291921
 20
1599.7494964292871
 30
0.0
 11
30617.604341291921
 21
1599.7494964292871
 31
0.0
  0
LINE
  5
3772
  8
YODOROGO
 10
30617.604341291921
 20
1627.749496429288
 30
0.0
 11
30529.604341291939
 21
1627.749496429288
 31
0.0
  0
LINE
  5
3773
  8
YODOROGO
 10
30217.604341291921
 20
1667.749496429288
 30
0.0
 11
29949.60434129191
 21
1667.749496429288
 31
0.0
  0
LINE
  5
3774
  8
YODOROGO
 10
30217.604341291921
 20
1627.749496429288
 30
0.0
 11
30217.604341291921
 21
1667.749496429288
 31
0.0
  0
LINE
  5
3775
  8
YODOROGO
 10
30017.604341291921
 20
1627.749496429288
 30
0.0
 11
30217.604341291921
 21
1627.749496429288
 31
0.0
  0
ARC
  5
3776
  8
YODOROGO
 10
30230.05882870136
 20
1868.885714952901
 30
0.0
 40
321.37763628522822
 50
228.6181454618993
 51
245.660289248906
  0
LINE
  5
3777
  8
YODOROGO
 10
30105.604341291921
 20
1603.7494964292871
 30
0.0
 11
30097.60434129195
 21
1576.0728158699001
 31
0.0
  0
LINE
  5
3778
  8
YODOROGO
 10
30189.604341291921
 20
1603.7494964292871
 30
0.0
 11
30105.604341291921
 21
1603.7494964292871
 31
0.0
  0
LINE
  5
3779
  8
YODOROGO
 10
30177.604341291921
 20
1551.817722473427
 30
0.0
 11
30189.604341291921
 21
1603.7494964292871
 31
0.0
  0
ARC
  5
377A
  8
YODOROGO
 10
30230.05882870045
 20
1868.885714953002
 30
0.0
 40
321.37763628529081
 50
260.60629297969911
 51
267.77903556555862
  0
LINE
  5
377B
  8
YODOROGO
 10
30217.604341291921
 20
1427.749496429285
 30
0.0
 11
30217.604341291921
 21
1547.749496429288
 31
0.0
  0
LINE
  5
377C
  8
YODOROGO
 10
29937.604341291932
 20
1481.3393349155101
 30
0.0
 11
29937.604341291921
 21
1594.531090531141
 31
0.0
  0
LINE
  5
377D
  8
YODOROGO
 10
30217.604341291921
 20
1667.749496429288
 30
0.0
 11
29949.60434129191
 21
1667.749496429288
 31
0.0
  0
LINE
  5
377E
  8
YODOROGO
 10
30217.604341291921
 20
1627.749496429288
 30
0.0
 11
30217.604341291921
 21
1667.749496429288
 31
0.0
  0
LINE
  5
377F
  8
YODOROGO
 10
30017.604341291921
 20
1627.749496429288
 30
0.0
 11
30217.604341291921
 21
1627.749496429288
 31
0.0
  0
ARC
  5
3780
  8
YODOROGO
 10
30230.05882870136
 20
1868.885714952901
 30
0.0
 40
321.37763628522822
 50
228.6181454618993
 51
245.660289248906
  0
LINE
  5
3781
  8
YODOROGO
 10
30105.604341291921
 20
1603.7494964292871
 30
0.0
 11
30097.60434129195
 21
1576.0728158699001
 31
0.0
  0
LINE
  5
3782
  8
YODOROGO
 10
30189.604341291921
 20
1603.7494964292871
 30
0.0
 11
30105.604341291921
 21
1603.7494964292871
 31
0.0
  0
LINE
  5
3783
  8
YODOROGO
 10
30177.604341291921
 20
1551.817722473427
 30
0.0
 11
30189.604341291921
 21
1603.7494964292871
 31
0.0
  0
ARC
  5
3784
  8
YODOROGO
 10
30230.05882870045
 20
1868.885714953002
 30
0.0
 40
321.37763628529081
 50
260.60629297969911
 51
267.77903556555862
  0
LINE
  5
3785
  8
YODOROGO
 10
30217.604341291921
 20
1427.749496429285
 30
0.0
 11
30217.604341291921
 21
1547.749496429288
 31
0.0
  0
LINE
  5
3786
  8
YODOROGO
 10
29937.604341291932
 20
1481.3393349155101
 30
0.0
 11
29937.604341291921
 21
1594.531090531141
 31
0.0
  0
LINE
  5
3787
  8
YODOROGO
 10
30433.604341291921
 20
1573.749496429288
 30
0.0
 11
30381.604341291932
 21
1573.749496429288
 31
0.0
  0
LINE
  5
3788
  8
YODOROGO
 10
30433.604341291921
 20
1601.749496429285
 30
0.0
 11
30433.604341291921
 21
1573.749496429288
 31
0.0
  0
LINE
  5
3789
  8
YODOROGO
 10
30381.604341291932
 20
1601.749496429285
 30
0.0
 11
30433.604341291921
 21
1601.749496429285
 31
0.0
  0
LINE
  5
378A
  8
YODOROGO
 10
30381.604341291932
 20
1573.749496429288
 30
0.0
 11
30381.604341291932
 21
1601.749496429285
 31
0.0
  0
LINE
  5
378B
  8
YODOROGO
 10
30429.604341291921
 20
1577.7494964292871
 30
0.0
 11
30385.604341291921
 21
1577.7494964292871
 31
0.0
  0
LINE
  5
378C
  8
YODOROGO
 10
30429.604341291921
 20
1597.749496429288
 30
0.0
 11
30429.604341291921
 21
1577.7494964292871
 31
0.0
  0
LINE
  5
378D
  8
YODOROGO
 10
30385.604341291921
 20
1597.749496429288
 30
0.0
 11
30429.604341291921
 21
1597.749496429288
 31
0.0
  0
LINE
  5
378E
  8
YODOROGO
 10
30385.604341291921
 20
1577.7494964292871
 30
0.0
 11
30385.604341291921
 21
1597.749496429288
 31
0.0
  0
LINE
  5
378F
  8
YODOROGO
 10
30425.604341291921
 20
1581.749496429286
 30
0.0
 11
30389.604341291921
 21
1581.749496429286
 31
0.0
  0
LINE
  5
3790
  8
YODOROGO
 10
30425.604341291921
 20
1593.749496429288
 30
0.0
 11
30425.604341291921
 21
1581.749496429286
 31
0.0
  0
LINE
  5
3791
  8
YODOROGO
 10
30389.604341291921
 20
1593.749496429288
 30
0.0
 11
30425.604341291921
 21
1593.749496429288
 31
0.0
  0
LINE
  5
3792
  8
YODOROGO
 10
30389.604341291921
 20
1581.749496429286
 30
0.0
 11
30389.604341291921
 21
1593.749496429288
 31
0.0
  0
LINE
  5
3793
  8
YODOROGO
 10
30421.604341291932
 20
1585.7494964292871
 30
0.0
 11
30393.604341291921
 21
1585.7494964292871
 31
0.0
  0
LINE
  5
3794
  8
YODOROGO
 10
30421.604341291932
 20
1589.749496429288
 30
0.0
 11
30421.604341291932
 21
1585.7494964292871
 31
0.0
  0
LINE
  5
3795
  8
YODOROGO
 10
30393.604341291921
 20
1589.749496429288
 30
0.0
 11
30421.604341291932
 21
1589.749496429288
 31
0.0
  0
LINE
  5
3796
  8
YODOROGO
 10
30393.604341291921
 20
1585.7494964292871
 30
0.0
 11
30393.604341291921
 21
1589.749496429288
 31
0.0
  0
LINE
  5
3797
  8
YODOROGO
 10
30465.604341291921
 20
1627.749496429288
 30
0.0
 11
30381.604341291932
 21
1627.749496429288
 31
0.0
  0
LINE
  5
3798
  8
YODOROGO
 10
30465.604341291921
 20
1547.749496429288
 30
0.0
 11
30465.604341291921
 21
1627.749496429288
 31
0.0
  0
LINE
  5
3799
  8
YODOROGO
 10
30381.604341291932
 20
1547.749496429288
 30
0.0
 11
30465.604341291921
 21
1547.749496429288
 31
0.0
  0
LINE
  5
379A
  8
YODOROGO
 10
30381.604341291932
 20
1427.749496429288
 30
0.0
 11
30381.604341291932
 21
1547.749496429288
 31
0.0
  0
LINE
  5
379B
  8
YODOROGO
 10
30537.604341291921
 20
1427.749496429288
 30
0.0
 11
30381.604341291932
 21
1427.749496429288
 31
0.0
  0
LINE
  5
379C
  8
YODOROGO
 10
30569.604341291921
 20
1571.749496429285
 30
0.0
 11
30569.604341291921
 21
1599.7494964292871
 31
0.0
  0
ARC
  5
379D
  8
YODOROGO
 10
30545.604341291921
 20
1571.749496429291
 30
0.0
 40
24.000000000003752
 50
270.0
 51
359.99999999998772
  0
LINE
  5
379E
  8
YODOROGO
 10
30529.604341291939
 20
1547.749496429288
 30
0.0
 11
30545.604341291921
 21
1547.749496429288
 31
0.0
  0
LINE
  5
379F
  8
YODOROGO
 10
30529.604341291939
 20
1627.749496429288
 30
0.0
 11
30529.604341291939
 21
1547.749496429288
 31
0.0
  0
LINE
  5
37A0
  8
YODOROGO
 10
30899.604341291932
 20
1547.749496429288
 30
0.0
 11
30925.604341291921
 21
1547.749496429288
 31
0.0
  0
LINE
  5
37A1
  8
YODOROGO
 10
30933.604341291921
 20
1427.749496429288
 30
0.0
 11
30899.604341291932
 21
1427.749496429288
 31
0.0
  0
LINE
  5
37A2
  8
YODOROGO
 10
30763.604341291921
 20
1563.7494964292871
 30
0.0
 11
30791.604341291921
 21
1563.7494964292871
 31
0.0
  0
LINE
  5
37A3
  8
YODOROGO
 10
30899.604341291932
 20
1491.749496429288
 30
0.0
 11
30723.604341291921
 21
1491.749496429288
 31
0.0
  0
LINE
  5
37A4
  8
YODOROGO
 10
30831.604341291921
 20
1563.7494964292871
 30
0.0
 11
30859.604341291932
 21
1563.7494964292871
 31
0.0
  0
LINE
  5
37A5
  8
YODOROGO
 10
30899.604341291932
 20
1427.749496429288
 30
0.0
 11
30899.604341291932
 21
1547.749496429288
 31
0.0
  0
LINE
  5
37A6
  8
YODOROGO
 10
30697.604341291932
 20
1427.749496429288
 30
0.0
 11
30645.604341291921
 21
1427.749496429288
 31
0.0
  0
LINE
  5
37A7
  8
YODOROGO
 10
30617.604341291921
 20
1599.7494964292871
 30
0.0
 11
30617.604341291921
 21
1507.749496429288
 31
0.0
  0
ARC
  5
37A8
  8
YODOROGO
 10
30933.604341291921
 20
1467.749496429288
 30
0.0
 40
40.0
 50
270.0
 51
0.0
  0
LINE
  5
37A9
  8
YODOROGO
 10
31093.604341291921
 20
1523.7494964292871
 30
0.0
 11
31093.604341291921
 21
1427.749496429288
 31
0.0
  0
ARC
  5
37AA
  8
YODOROGO
 10
31039.721395566768
 20
1637.5313901097329
 30
0.0
 40
125.8955565916754
 50
295.34052442160112
 51
359.18902303418679
  0
LINE
  5
37AB
  8
YODOROGO
 10
30617.604341291921
 20
1859.749496429288
 30
0.0
 11
30497.604341291921
 21
1939.749496429288
 31
0.0
  0
LINE
  5
37AC
  8
YODOROGO
 10
30497.604341291921
 20
2027.749496429288
 30
0.0
 11
30617.604341291921
 21
1947.749496429288
 31
0.0
  0
LINE
  5
37AD
  8
YODOROGO
 10
30529.604341291939
 20
1679.749496429288
 30
0.0
 11
30617.604341291921
 21
1679.749496429288
 31
0.0
  0
LINE
  5
37AE
  8
YODOROGO
 10
30617.604341291921
 20
1735.7494964292871
 30
0.0
 11
30529.604341291939
 21
1735.7494964292871
 31
0.0
  0
LINE
  5
37AF
  8
YODOROGO
 10
30381.604341291932
 20
1795.7494964292871
 30
0.0
 11
30617.604341291921
 21
1795.7494964292871
 31
0.0
  0
LINE
  5
37B0
  8
YODOROGO
 10
30081.604341291921
 20
2027.749496429288
 30
0.0
 11
30021.604341291921
 21
2027.749496429288
 31
0.0
  0
LINE
  5
37B1
  8
YODOROGO
 10
30081.604341291921
 20
1827.7494964292871
 30
0.0
 11
30081.604341291921
 21
2027.749496429288
 31
0.0
  0
LINE
  5
37B2
  8
YODOROGO
 10
30021.604341291921
 20
1827.7494964292871
 30
0.0
 11
30081.604341291921
 21
1827.7494964292871
 31
0.0
  0
LINE
  5
37B3
  8
YODOROGO
 10
30021.604341291921
 20
2027.749496429288
 30
0.0
 11
30021.604341291921
 21
1827.7494964292871
 31
0.0
  0
LINE
  5
37B4
  8
YODOROGO
 10
30161.604341291921
 20
2027.749496429288
 30
0.0
 11
30217.604341291921
 21
2027.749496429288
 31
0.0
  0
LINE
  5
37B5
  8
YODOROGO
 10
30161.604341291921
 20
1811.749496429288
 30
0.0
 11
30161.604341291921
 21
2027.749496429288
 31
0.0
  0
ARC
  5
37B6
  8
YODOROGO
 10
30121.604341291921
 20
1811.749496429288
 30
0.0
 40
40.0
 50
270.0
 51
0.0
  0
LINE
  5
37B7
  8
YODOROGO
 10
30021.604341291921
 20
1771.7494964292871
 30
0.0
 11
30121.604341291921
 21
1771.7494964292871
 31
0.0
  0
LINE
  5
37B8
  8
YODOROGO
 10
30021.604341291921
 20
1707.749496429288
 30
0.0
 11
30021.604341291921
 21
1771.7494964292871
 31
0.0
  0
LINE
  5
37B9
  8
YODOROGO
 10
30137.604341291921
 20
1707.749496429288
 30
0.0
 11
30021.604341291921
 21
1707.749496429288
 31
0.0
  0
ARC
  5
37BA
  8
YODOROGO
 10
30137.604341291921
 20
1787.7494964292871
 30
0.0
 40
80.0
 50
270.0
 51
0.0
  0
LINE
  5
37BB
  8
YODOROGO
 10
30217.604341291921
 20
2027.749496429288
 30
0.0
 11
30217.604341291921
 21
1787.7494964292871
 31
0.0
  0
LINE
  5
37BC
  8
YODOROGO
 10
29977.604341291921
 20
1947.749496429288
 30
0.0
 11
29977.604341291921
 21
1995.7494964292871
 31
0.0
1001
AUTOCAD_POSTSCRIPT_FIGURE
1002
{
1000
PSFILL
1000
Grayscale
1000
Grayscale
1070
    25
1002
}
  0
LINE
  5
37BD
  8
YODOROGO
 10
29977.604341291921
 20
1859.749496429288
 30
0.0
 11
29977.604341291921
 21
1907.7494964292871
 31
0.0
1001
AUTOCAD_POSTSCRIPT_FIGURE
1002
{
1000
PSFILL
1000
Grayscale
1000
Grayscale
1070
    25
1002
}
  0
LINE
  5
37BE
  8
YODOROGO
 10
29977.604341291921
 20
1707.749496429288
 30
0.0
 11
29977.604341291921
 21
1819.7494964292871
 31
0.0
1001
AUTOCAD_POSTSCRIPT_FIGURE
1002
{
1000
PSFILL
1000
Grayscale
1000
Grayscale
1070
    25
1002
}
  0
LINE
  5
37BF
  8
YODOROGO
 10
30381.604341291932
 20
1907.7494964292871
 30
0.0
 11
30497.604341291921
 21
2027.749496429288
 31
0.0
  0
LINE
  5
37C0
  8
YODOROGO
 10
30381.604341291932
 20
1819.7494964292871
 30
0.0
 11
30381.604341291932
 21
1907.7494964292871
 31
0.0
  0
LINE
  5
37C1
  8
YODOROGO
 10
30497.604341291921
 20
1939.749496429288
 30
0.0
 11
30381.604341291932
 21
1819.7494964292871
 31
0.0
  0
LINE
  5
37C2
  8
YODOROGO
 10
30465.604341291921
 20
1679.749496429288
 30
0.0
 11
30465.604341291921
 21
1735.7494964292871
 31
0.0
  0
LINE
  5
37C3
  8
YODOROGO
 10
30381.604341291932
 20
1679.749496429288
 30
0.0
 11
30465.604341291921
 21
1679.749496429288
 31
0.0
  0
LINE
  5
37C4
  8
YODOROGO
 10
30529.604341291939
 20
1735.7494964292871
 30
0.0
 11
30529.604341291939
 21
1679.749496429288
 31
0.0
  0
LINE
  5
37C5
  8
YODOROGO
 10
30381.604341291932
 20
1735.7494964292871
 30
0.0
 11
30381.604341291932
 21
1795.7494964292871
 31
0.0
  0
LINE
  5
37C6
  8
YODOROGO
 10
30465.604341291921
 20
1735.7494964292871
 30
0.0
 11
30381.604341291932
 21
1735.7494964292871
 31
0.0
  0
LINE
  5
37C7
  8
YODOROGO
 10
30645.604341291921
 20
2027.749496429288
 30
0.0
 11
30973.604341291921
 21
2027.749496429288
 31
0.0
  0
LINE
  5
37C8
  8
YODOROGO
 10
30925.604341291921
 20
1963.749496429286
 30
0.0
 11
30697.604341291932
 21
1963.749496429286
 31
0.0
  0
LINE
  5
37C9
  8
YODOROGO
 10
30873.604341291921
 20
1819.7494964292871
 30
0.0
 11
30899.604341291932
 21
1819.7494964292871
 31
0.0
  0
LINE
  5
37CA
  8
YODOROGO
 10
30899.604341291932
 20
1939.749496429288
 30
0.0
 11
30873.604341291921
 21
1819.7494964292871
 31
0.0
  0
LINE
  5
37CB
  8
YODOROGO
 10
30851.604341291939
 20
1939.749496429288
 30
0.0
 11
30899.604341291932
 21
1939.749496429288
 31
0.0
  0
LINE
  5
37CC
  8
YODOROGO
 10
30825.604341291921
 20
1819.7494964292871
 30
0.0
 11
30851.604341291939
 21
1939.749496429288
 31
0.0
  0
LINE
  5
37CD
  8
YODOROGO
 10
30797.604341291921
 20
1819.7494964292871
 30
0.0
 11
30825.604341291921
 21
1819.7494964292871
 31
0.0
  0
LINE
  5
37CE
  8
YODOROGO
 10
30771.604341291939
 20
1939.749496429288
 30
0.0
 11
30797.604341291921
 21
1819.7494964292871
 31
0.0
  0
LINE
  5
37CF
  8
YODOROGO
 10
30723.604341291921
 20
1939.749496429288
 30
0.0
 11
30771.604341291939
 21
1939.749496429288
 31
0.0
  0
LINE
  5
37D0
  8
YODOROGO
 10
30749.604341291921
 20
1819.7494964292871
 30
0.0
 11
30723.604341291921
 21
1939.749496429288
 31
0.0
  0
LINE
  5
37D1
  8
YODOROGO
 10
30723.604341291921
 20
1819.7494964292871
 30
0.0
 11
30749.604341291921
 21
1819.7494964292871
 31
0.0
  0
LINE
  5
37D2
  8
YODOROGO
 10
30723.604341291921
 20
1755.7494964292871
 30
0.0
 11
30723.604341291921
 21
1819.7494964292871
 31
0.0
  0
LINE
  5
37D3
  8
YODOROGO
 10
30899.604341291932
 20
1755.7494964292871
 30
0.0
 11
30723.604341291921
 21
1755.7494964292871
 31
0.0
  0
LINE
  5
37D4
  8
YODOROGO
 10
30899.604341291932
 20
1819.7494964292871
 30
0.0
 11
30899.604341291932
 21
1755.7494964292871
 31
0.0
  0
LINE
  5
37D5
  8
YODOROGO
 10
30617.604341291921
 20
1947.749496429288
 30
0.0
 11
30617.604341291921
 21
1859.749496429288
 31
0.0
  0
LINE
  5
37D6
  8
YODOROGO
 10
30791.604341291921
 20
1755.7494964292871
 30
0.0
 11
30831.604341291921
 21
1755.7494964292871
 31
0.0
  0
LINE
  5
37D7
  8
YODOROGO
 10
30723.604341291921
 20
1691.749496429288
 30
0.0
 11
30763.604341291921
 21
1691.749496429288
 31
0.0
  0
LINE
  5
37D8
  8
YODOROGO
 10
30859.604341291932
 20
1691.749496429288
 30
0.0
 11
30899.604341291932
 21
1691.749496429288
 31
0.0
  0
LINE
  5
37D9
  8
YODOROGO
 10
30617.604341291921
 20
1795.7494964292871
 30
0.0
 11
30617.604341291921
 21
1735.7494964292871
 31
0.0
  0
LINE
  5
37DA
  8
YODOROGO
 10
31165.604341291921
 20
2027.749496429288
 30
0.0
 11
31165.604341291921
 21
1963.749496429286
 31
0.0
  0
LINE
  5
37DB
  8
YODOROGO
 10
31533.604341291921
 20
1595.7494964292871
 30
0.0
 11
31533.60434129191
 21
1811.749496429288
 31
0.0
  0
LINE
  5
37DC
  8
YODOROGO
 10
31461.60434129191
 20
1987.7494964292871
 30
0.0
 11
31461.60434129191
 21
1635.7494964292871
 31
0.0
  0
LINE
  5
37DD
  8
YODOROGO
 10
31653.604341291921
 20
1427.749496429288
 30
0.0
 11
31653.60434129191
 21
1811.749496429288
 31
0.0
  0
LINE
  5
37DE
  8
YODOROGO
 10
31589.604341291921
 20
1811.749496429288
 30
0.0
 11
31589.604341291921
 21
1427.749496429288
 31
0.0
  0
LINE
  5
37DF
  8
YODOROGO
 10
31237.604341291921
 20
1595.7494964292871
 30
0.0
 11
31237.604341291921
 21
1707.749496429288
 31
0.0
  0
ARC
  5
37E0
  8
YODOROGO
 10
31353.914865116069
 20
1607.790351288558
 30
0.0
 40
180.0924485759885
 50
268.62849102169793
 51
356.16638457330322
  0
LINE
  5
37E1
  8
YODOROGO
 10
31349.604341291939
 20
1527.749496429288
 30
0.0
 11
31349.604341291939
 21
1427.749496429288
 31
0.0
  0
ARC
  5
37E2
  8
YODOROGO
 10
31351.518075724562
 20
1637.838957017655
 30
0.0
 40
110.1060929836122
 50
269.00410209305932
 51
358.91264455492478
  0
LINE
  5
37E3
  8
YODOROGO
 10
31589.604341291921
 20
1427.749496429288
 30
0.0
 11
31653.604341291921
 21
1427.749496429288
 31
0.0
  0
LINE
  5
37E4
  8
YODOROGO
 10
31533.60434129191
 20
1811.749496429288
 30
0.0
 11
31589.604341291921
 21
1811.749496429288
 31
0.0
  0
LINE
  5
37E5
  8
YODOROGO
 10
31621.604341291939
 20
1987.7494964292871
 30
0.0
 11
31461.60434129191
 21
1987.7494964292871
 31
0.0
  0
LINE
  5
37E6
  8
YODOROGO
 10
31533.60434129191
 20
1915.7494964292871
 30
0.0
 11
31661.604341291939
 21
1915.7494964292871
 31
0.0
  0
LINE
  5
37E7
  8
YODOROGO
 10
31701.604341291939
 20
1875.7494964292871
 30
0.0
 11
31533.60434129191
 21
1875.7494964292871
 31
0.0
  0
LINE
  5
37E8
  8
YODOROGO
 10
31237.604341291921
 20
1779.749496429288
 30
0.0
 11
31349.604341291939
 21
1779.749496429288
 31
0.0
  0
LINE
  5
37E9
  8
YODOROGO
 10
31237.604341291921
 20
1835.7494964292871
 30
0.0
 11
31237.604341291921
 21
1779.749496429288
 31
0.0
  0
LINE
  5
37EA
  8
YODOROGO
 10
31349.604341291939
 20
1835.7494964292871
 30
0.0
 11
31237.604341291921
 21
1835.7494964292871
 31
0.0
  0
LINE
  5
37EB
  8
YODOROGO
 10
31349.604341291939
 20
1779.749496429288
 30
0.0
 11
31349.604341291939
 21
1835.7494964292871
 31
0.0
  0
LINE
  5
37EC
  8
YODOROGO
 10
31533.60434129191
 20
1875.7494964292871
 30
0.0
 11
31533.60434129191
 21
1915.7494964292871
 31
0.0
  0
LINE
  5
37ED
  8
YODOROGO
 10
31413.604341291921
 20
1707.749496429288
 30
0.0
 11
31413.604341291921
 21
1907.7494964292871
 31
0.0
  0
LINE
  5
37EE
  8
YODOROGO
 10
31237.604341291921
 20
1707.749496429288
 30
0.0
 11
31413.604341291921
 21
1707.749496429288
 31
0.0
  0
LINE
  5
37EF
  8
YODOROGO
 10
31413.604341291921
 20
1963.749496429286
 30
0.0
 11
31413.604341291921
 21
2027.749496429288
 31
0.0
  0
ARC
  5
37F0
  8
YODOROGO
 10
31621.604341291939
 20
2003.749496429285
 30
0.0
 40
15.999999999994539
 50
270.0
 51
0.0000000000081422
  0
LINE
  5
37F1
  8
YODOROGO
 10
31637.604341291921
 20
2027.749496429288
 30
0.0
 11
31637.604341291921
 21
2003.7494964292871
 31
0.0
  0
LINE
  5
37F2
  8
YODOROGO
 10
31701.604341291939
 20
2027.749496429288
 30
0.0
 11
31637.604341291921
 21
2027.749496429288
 31
0.0
  0
LINE
  5
37F3
  8
YODOROGO
 10
31701.604341291939
 20
1955.7494964292871
 30
0.0
 11
31701.604341291939
 21
2027.749496429288
 31
0.0
  0
ARC
  5
37F4
  8
YODOROGO
 10
31661.604341291939
 20
1955.7494964292871
 30
0.0
 40
40.0
 50
270.0
 51
0.0
  0
LINE
  5
37F5
  8
YODOROGO
 10
31701.604341291939
 20
1811.749496429288
 30
0.0
 11
31701.604341291939
 21
1875.7494964292871
 31
0.0
  0
LINE
  5
37F6
  8
YODOROGO
 10
31653.60434129191
 20
1811.749496429288
 30
0.0
 11
31701.604341291939
 21
1811.749496429288
 31
0.0
  0
LINE
  5
37FA
  8
SUNPOU
  6
CONTINUOUS
 62
     4
 10
9764.6660935000036
 20
20194.226823000001
 30
0.0
 11
9764.6660935000036
 21
20744.232102000031
 31
0.0
  0
LINE
  5
37FB
  8
SUNPOU
  6
CONTINUOUS
 62
     4
 10
9850.1660935000036
 20
20664.232102000031
 30
0.0
 11
10090.1660935
 21
20664.232102000031
 31
0.0
  0
LINE
  5
37FC
  8
SUNPOU
  6
CONTINUOUS
 62
     4
 10
9767.6660935000036
 20
20664.232102000031
 30
0.0
 11
9527.6660935000036
 21
20664.232102000031
 31
0.0
  0
LINE
  5
37FD
  8
SUNPOU
  6
CONTINUOUS
 62
     4
 10
9850.1660935000036
 20
20664.232102000031
 30
0.0
 11
9767.6660935000036
 21
20664.232102000031
 31
0.0
  0
LINE
  5
37FE
  8
SUNPOU
  6
CONTINUOUS
 62
     4
 10
12417.66015549998
 20
20664.232102000031
 30
0.0
 11
9850.1660935000036
 21
20664.232102000031
 31
0.0
  0
LINE
  5
37FF
  8
SUNPOU
  6
CONTINUOUS
 62
     4
 10
14369.65421749997
 20
20194.226823000001
 30
0.0
 11
14369.65421749997
 21
20744.232102000031
 31
0.0
  0
LINE
  5
3800
  8
SUNPOU
  6
CONTINUOUS
 62
     4
 10
14284.154217499959
 20
20664.232102000031
 30
0.0
 11
14044.15421749997
 21
20664.232102000031
 31
0.0
  0
LINE
  5
3801
  8
SUNPOU
  6
CONTINUOUS
 62
     4
 10
14366.65421749997
 20
20664.232102000031
 30
0.0
 11
14606.65421749997
 21
20664.232102000031
 31
0.0
  0
LINE
  5
3802
  8
SUNPOU
  6
CONTINUOUS
 62
     4
 10
14284.154217499959
 20
20664.232102000031
 30
0.0
 11
14366.65421749997
 21
20664.232102000031
 31
0.0
  0
LINE
  5
3803
  8
SUNPOU
  6
CONTINUOUS
 62
     4
 10
12417.66015549998
 20
20664.232102000031
 30
0.0
 11
14284.154217499959
 21
20664.232102000031
 31
0.0
  0
LINE
  5
3804
  8
SUNPOU
  6
CONTINUOUS
 62
     4
 10
9687.6574404999974
 20
14213.735599
 30
0.0
 11
8840.6620194999923
 21
14213.735599
 31
0.0
  0
LINE
  5
3805
  8
SUNPOU
  6
CONTINUOUS
 62
     4
 10
8920.6620194999923
 20
14406.230913999991
 30
0.0
 11
8920.6620194999923
 21
14213.735599
 31
0.0
  0
LINE
  5
3806
  8
SUNPOU
  6
CONTINUOUS
 62
     4
 10
8920.6638294999866
 20
17324.230914
 30
0.0
 11
8920.6638294999866
 21
14406.230913999991
 31
0.0
  0
LINE
  5
3807
  8
SUNPOU
  6
CONTINUOUS
 62
     4
 10
9687.659250499988
 20
20104.226823000012
 30
0.0
 11
9240.6638294999884
 21
20104.226823000012
 31
0.0
  0
LINE
  5
3808
  8
SUNPOU
  6
CONTINUOUS
 62
     4
 10
9687.6636054999835
 20
20114.226823000001
 30
0.0
 11
9240.6638294999884
 21
20114.226823000001
 31
0.0
  0
LINE
  5
3809
  8
SUNPOU
  6
CONTINUOUS
 62
     4
 10
9320.6638294999902
 20
20104.226823000012
 30
0.0
 11
9320.6638294999902
 21
19864.22682299999
 31
0.0
  0
LINE
  5
380A
  8
SUNPOU
  6
CONTINUOUS
 62
     4
 10
9320.6638294999902
 20
20114.226823000001
 30
0.0
 11
9320.6638294999902
 21
20354.226823000012
 31
0.0
  0
LINE
  5
380B
  8
SUNPOU
  6
CONTINUOUS
 62
     4
 10
9320.6638294999902
 20
20104.226823000012
 30
0.0
 11
9320.6638294999902
 21
20114.226823000001
 31
0.0
  0
LINE
  5
380C
  8
SUNPOU
  6
CONTINUOUS
 62
     4
 10
9687.6636054999835
 20
20114.226823000001
 30
0.0
 11
8840.6638294999866
 21
20114.226823000001
 31
0.0
  0
LINE
  5
380D
  8
SUNPOU
  6
CONTINUOUS
 62
     4
 10
8920.6638294999866
 20
19891.730914
 30
0.0
 11
8920.6638294999866
 21
20114.226823000001
 31
0.0
  0
LINE
  5
380E
  8
SUNPOU
  6
CONTINUOUS
 62
     4
 10
8920.6638294999866
 20
17324.230914
 30
0.0
 11
8920.6638294999866
 21
19891.730914
 31
0.0
  0
LINE
  5
380F
  8
SUNPOU
  6
CONTINUOUS
 62
     4
 10
24702.11676349998
 20
19484.230914
 30
0.0
 11
25752.11808349999
 21
19484.230914
 31
0.0
  0
LINE
  5
3810
  8
SUNPOU
  6
CONTINUOUS
 62
     4
 10
25552.11808349999
 20
19891.730914
 30
0.0
 11
25752.11808349999
 21
19891.730914
 31
0.0
  0
LINE
  5
3811
  8
SUNPOU
  6
CONTINUOUS
 62
     4
 10
25672.11808349999
 20
19484.230914
 30
0.0
 11
25672.11808349999
 21
19891.730914
 31
0.0
  0
LINE
  5
3812
  8
SUNPOU
  6
CONTINUOUS
 62
     4
 10
20145.618479500001
 20
13700.467479999999
 30
0.0
 11
20145.618479500001
 21
13354.78283
 31
0.0
  0
LINE
  5
3813
  8
SUNPOU
  6
CONTINUOUS
 62
     4
 10
20103.116236499991
 20
14283.733619000001
 30
0.0
 11
20103.116236499991
 21
13354.78283
 31
0.0
  0
LINE
  5
3814
  8
SUNPOU
  6
CONTINUOUS
 62
     4
 10
20145.618479500001
 20
13434.78283
 30
0.0
 11
20385.618479500001
 21
13434.78283
 31
0.0
  0
LINE
  5
3815
  8
SUNPOU
  6
CONTINUOUS
 62
     4
 10
20103.116236499991
 20
13434.78283
 30
0.0
 11
19863.116236499991
 21
13434.78283
 31
0.0
  0
LINE
  5
3816
  8
SUNPOU
  6
CONTINUOUS
 62
     4
 10
20145.618479500001
 20
13434.78283
 30
0.0
 11
20103.116236499991
 21
13434.78283
 31
0.0
  0
LINE
  5
3817
  8
SUNPOU
  6
CONTINUOUS
 62
     4
 10
24579.618479500001
 20
13700.467479999999
 30
0.0
 11
24579.618479500001
 21
13354.78283
 31
0.0
  0
LINE
  5
3818
  8
SUNPOU
  6
CONTINUOUS
 62
     4
 10
24622.1207225
 20
14283.733619000001
 30
0.0
 11
24622.1207225
 21
13354.78283
 31
0.0
  0
LINE
  5
3819
  8
SUNPOU
  6
CONTINUOUS
 62
     4
 10
24579.618479500001
 20
13434.78283
 30
0.0
 11
24339.618479500001
 21
13434.78283
 31
0.0
  0
LINE
  5
381A
  8
SUNPOU
  6
CONTINUOUS
 62
     4
 10
24622.1207225
 20
13434.78283
 30
0.0
 11
24862.1207225
 21
13434.78283
 31
0.0
  0
LINE
  5
381B
  8
SUNPOU
  6
CONTINUOUS
 62
     4
 10
24579.618479500001
 20
13434.78283
 30
0.0
 11
24622.1207225
 21
13434.78283
 31
0.0
  0
LINE
  5
381C
  8
2-0
  6
CONTINUOUS
 62
     3
 10
22670.61847949999
 20
14363.730913999991
 30
0.0
 11
22755.61847949999
 21
14363.730913999991
 31
0.0
  0
LINE
  5
381D
  8
2-0
  6
CONTINUOUS
 62
     3
 10
22755.61847949999
 20
14363.730913999991
 30
0.0
 11
22755.61847949999
 21
14448.730913999991
 31
0.0
  0
LINE
  5
381E
  8
2-0
  6
CONTINUOUS
 62
     3
 10
22755.61847949999
 20
14448.730913999991
 30
0.0
 11
22670.61847949999
 21
14448.730913999991
 31
0.0
  0
LINE
  5
381F
  8
2-0
  6
CONTINUOUS
 62
     3
 10
22670.61847949999
 20
14448.730913999991
 30
0.0
 11
22670.61847949999
 21
14363.730913999991
 31
0.0
  0
LINE
  5
3820
  8
SUNPOU
  6
CONTINUOUS
 62
     4
 10
24579.618479500001
 20
13700.467479999999
 30
0.0
 11
24579.618479500001
 21
13354.78283
 31
0.0
  0
LINE
  5
3821
  8
SUNPOU
  6
CONTINUOUS
 62
     4
 10
24537.116236499991
 20
14283.733619000001
 30
0.0
 11
24537.116236499991
 21
13354.78283
 31
0.0
  0
LINE
  5
3822
  8
SUNPOU
  6
CONTINUOUS
 62
     4
 10
24579.618479500001
 20
13434.78283
 30
0.0
 11
24819.618479500001
 21
13434.78283
 31
0.0
  0
LINE
  5
3823
  8
SUNPOU
  6
CONTINUOUS
 62
     4
 10
24537.116236499991
 20
13434.78283
 30
0.0
 11
24297.116236499991
 21
13434.78283
 31
0.0
  0
LINE
  5
3824
  8
SUNPOU
  6
CONTINUOUS
 62
     4
 10
24579.618479500001
 20
13434.78283
 30
0.0
 11
24537.116236499991
 21
13434.78283
 31
0.0
  0
LINE
  5
3825
  8
SUNPOU
  6
CONTINUOUS
 62
     4
 10
20145.618479500001
 20
13700.467479999999
 30
0.0
 11
20145.618479500001
 21
13354.78283
 31
0.0
  0
LINE
  5
3826
  8
SUNPOU
  6
CONTINUOUS
 62
     4
 10
20188.120722499982
 20
14283.733619000001
 30
0.0
 11
20188.120722499982
 21
13354.78283
 31
0.0
  0
LINE
  5
3827
  8
SUNPOU
  6
CONTINUOUS
 62
     4
 10
20145.618479500001
 20
13434.78283
 30
0.0
 11
19905.61847949999
 21
13434.78283
 31
0.0
  0
LINE
  5
3828
  8
SUNPOU
  6
CONTINUOUS
 62
     4
 10
20188.120722499982
 20
13434.78283
 30
0.0
 11
20428.120722499982
 21
13434.78283
 31
0.0
  0
LINE
  5
3829
  8
SUNPOU
  6
CONTINUOUS
 62
     4
 10
20145.618479500001
 20
13434.78283
 30
0.0
 11
20188.120722499982
 21
13434.78283
 31
0.0
  0
LINE
  5
382A
  8
SUNPOU
  6
CONTINUOUS
 62
     4
 10
20103.116236499991
 20
14283.733619000001
 30
0.0
 11
20103.116236499991
 21
12954.78283
 31
0.0
  0
LINE
  5
382B
  8
SUNPOU
  6
CONTINUOUS
 62
     4
 10
24622.1207225
 20
14283.733619000001
 30
0.0
 11
24622.1207225
 21
12954.78283
 31
0.0
  0
LINE
  5
382C
  8
SUNPOU
  6
CONTINUOUS
 62
     4
 10
20103.116236499991
 20
13034.78283
 30
0.0
 11
24622.1207225
 21
13034.78283
 31
0.0
  0
LINE
  5
382D
  8
SUNPOU
  6
CONTINUOUS
 62
     4
 10
24702.116763499991
 20
15164.230913999991
 30
0.0
 11
25752.11808349999
 21
15164.230913999991
 31
0.0
  0
LINE
  5
382E
  8
SUNPOU
  6
CONTINUOUS
 62
     4
 10
25552.11808349999
 20
14406.230913999991
 30
0.0
 11
25752.11808349999
 21
14406.230913999991
 31
0.0
  0
LINE
  5
382F
  8
SUNPOU
  6
CONTINUOUS
 62
     4
 10
25672.11808349999
 20
15164.230913999991
 30
0.0
 11
25672.11808349999
 21
14406.230913999991
 31
0.0
  0
LINE
  5
3830
  8
SUNPOU
  6
CONTINUOUS
 62
     4
 10
24702.116763499991
 20
15865.471425500011
 30
0.0
 11
25752.11808349999
 21
15865.471425500011
 31
0.0
  0
LINE
  5
3831
  8
SUNPOU
  6
CONTINUOUS
 62
     4
 10
24702.116763499991
 20
15164.230913999991
 30
0.0
 11
25752.11808349999
 21
15164.230913999991
 31
0.0
  0
LINE
  5
3832
  8
SUNPOU
  6
CONTINUOUS
 62
     4
 10
25672.11808349999
 20
15865.471425500011
 30
0.0
 11
25672.11808349999
 21
15164.230913999991
 31
0.0
  0
LINE
  5
3833
  8
SUNPOU
  6
CONTINUOUS
 62
     4
 10
24702.116763499991
 20
16566.230914
 30
0.0
 11
25752.11808349999
 21
16566.230914
 31
0.0
  0
LINE
  5
3834
  8
SUNPOU
  6
CONTINUOUS
 62
     4
 10
24702.116763499991
 20
15865.471425500011
 30
0.0
 11
25752.11808349999
 21
15865.471425500011
 31
0.0
  0
LINE
  5
3835
  8
SUNPOU
  6
CONTINUOUS
 62
     4
 10
25672.11808349999
 20
16566.230914
 30
0.0
 11
25672.11808349999
 21
15865.471425500011
 31
0.0
  0
LINE
  5
3836
  8
SUNPOU
  6
CONTINUOUS
 62
     4
 10
25552.11808349999
 20
17324.230914
 30
0.0
 11
25752.11808349999
 21
17324.230914
 31
0.0
  0
LINE
  5
3837
  8
SUNPOU
  6
CONTINUOUS
 62
     4
 10
24702.116763499991
 20
16566.230914
 30
0.0
 11
25752.11808349999
 21
16566.230914
 31
0.0
  0
LINE
  5
3838
  8
SUNPOU
  6
CONTINUOUS
 62
     4
 10
25672.11808349999
 20
17324.230914
 30
0.0
 11
25672.11808349999
 21
16566.230914
 31
0.0
  0
LINE
  5
3839
  8
SUNPOU
  6
CONTINUOUS
 62
     4
 10
24702.116763499991
 20
18082.230914
 30
0.0
 11
25752.11808349999
 21
18082.230914
 31
0.0
  0
LINE
  5
383A
  8
SUNPOU
  6
CONTINUOUS
 62
     4
 10
25552.11808349999
 20
17324.230914
 30
0.0
 11
25752.11808349999
 21
17324.230914
 31
0.0
  0
LINE
  5
383B
  8
SUNPOU
  6
CONTINUOUS
 62
     4
 10
25672.11808349999
 20
18082.230914
 30
0.0
 11
25672.11808349999
 21
17324.230914
 31
0.0
  0
LINE
  5
383C
  8
SUNPOU
  6
CONTINUOUS
 62
     4
 10
24702.116763499991
 20
18783.230914
 30
0.0
 11
25752.11808349999
 21
18783.230914
 31
0.0
  0
LINE
  5
383D
  8
SUNPOU
  6
CONTINUOUS
 62
     4
 10
24702.116763499991
 20
18082.230914
 30
0.0
 11
25752.11808349999
 21
18082.230914
 31
0.0
  0
LINE
  5
383E
  8
SUNPOU
  6
CONTINUOUS
 62
     4
 10
25672.11808349999
 20
18783.230914
 30
0.0
 11
25672.11808349999
 21
18082.230914
 31
0.0
  0
LINE
  5
383F
  8
SUNPOU
  6
CONTINUOUS
 62
     4
 10
24702.116763499991
 20
19484.230914
 30
0.0
 11
25752.11808349999
 21
19484.230914
 31
0.0
  0
LINE
  5
3840
  8
SUNPOU
  6
CONTINUOUS
 62
     4
 10
24702.116763499991
 20
18783.230914
 30
0.0
 11
25752.11808349999
 21
18783.230914
 31
0.0
  0
LINE
  5
3841
  8
SUNPOU
  6
CONTINUOUS
 62
     4
 10
25672.11808349999
 20
19484.230914
 30
0.0
 11
25672.11808349999
 21
18783.230914
 31
0.0
  0
LINE
  5
3842
  8
SUNPOU
  6
CONTINUOUS
 62
     4
 10
25552.11808349999
 20
17324.230914
 30
0.0
 11
26152.11808349999
 21
17324.230914
 31
0.0
  0
LINE
  5
3843
  8
SUNPOU
  6
CONTINUOUS
 62
     4
 10
25552.11808349999
 20
19891.730914
 30
0.0
 11
26152.11808349999
 21
19891.730914
 31
0.0
  0
LINE
  5
3844
  8
SUNPOU
  6
CONTINUOUS
 62
     4
 10
26072.11808349999
 20
17324.230914
 30
0.0
 11
26072.11808349999
 21
19891.730914
 31
0.0
  0
LINE
  5
3845
  8
SUNPOU
  6
CONTINUOUS
 62
     4
 10
25552.11808349999
 20
14406.230913999991
 30
0.0
 11
26152.11808349999
 21
14406.230913999991
 31
0.0
  0
LINE
  5
3846
  8
SUNPOU
  6
CONTINUOUS
 62
     4
 10
25552.11808349999
 20
17324.230914
 30
0.0
 11
26152.11808349999
 21
17324.230914
 31
0.0
  0
LINE
  5
3847
  8
SUNPOU
  6
CONTINUOUS
 62
     4
 10
26072.11808349999
 20
14406.230913999991
 30
0.0
 11
26072.11808349999
 21
17324.230914
 31
0.0
  0
LINE
  5
3848
  8
SUNPOU
  6
CONTINUOUS
 62
     4
 10
24702.116763499991
 20
19934.228209000001
 30
0.0
 11
26552.11808349999
 21
19934.228209000001
 31
0.0
  0
LINE
  5
3849
  8
SUNPOU
  6
CONTINUOUS
 62
     4
 10
24702.116763499991
 20
14363.733619000001
 30
0.0
 11
26552.11808349999
 21
14363.733619000001
 31
0.0
  0
LINE
  5
384A
  8
SUNPOU
  6
CONTINUOUS
 62
     4
 10
26472.11808349999
 20
19934.228209000001
 30
0.0
 11
26472.11808349999
 21
14363.733619000001
 31
0.0
  0
LINE
  5
384B
  8
SUNPOU
  6
CONTINUOUS
 62
     4
 10
25552.11808349999
 20
19891.730914
 30
0.0
 11
26152.11808349999
 21
19891.730914
 31
0.0
  0
LINE
  5
384C
  8
SUNPOU
  6
CONTINUOUS
 62
     4
 10
24702.116763499991
 20
19934.228209000001
 30
0.0
 11
26152.11808349999
 21
19934.228209000001
 31
0.0
  0
LINE
  5
384D
  8
SUNPOU
  6
CONTINUOUS
 62
     4
 10
26072.11808349999
 20
19891.730914
 30
0.0
 11
26072.11808349999
 21
19651.730914
 31
0.0
  0
LINE
  5
384E
  8
SUNPOU
  6
CONTINUOUS
 62
     4
 10
26072.11808349999
 20
19934.228209000001
 30
0.0
 11
26072.11808349999
 21
20174.228209000001
 31
0.0
  0
LINE
  5
384F
  8
SUNPOU
  6
CONTINUOUS
 62
     4
 10
26072.11808349999
 20
19891.730914
 30
0.0
 11
26072.11808349999
 21
19934.228209000001
 31
0.0
  0
LINE
  5
3850
  8
SUNPOU
  6
CONTINUOUS
 62
     4
 10
25552.11808349999
 20
14406.230913999991
 30
0.0
 11
26152.11808349999
 21
14406.230913999991
 31
0.0
  0
LINE
  5
3851
  8
SUNPOU
  6
CONTINUOUS
 62
     4
 10
24702.116763499991
 20
14363.733619000001
 30
0.0
 11
26152.11808349999
 21
14363.733619000001
 31
0.0
  0
LINE
  5
3852
  8
SUNPOU
  6
CONTINUOUS
 62
     4
 10
26072.11808349999
 20
14406.230913999991
 30
0.0
 11
26072.11808349999
 21
14646.230913999991
 31
0.0
  0
LINE
  5
3853
  8
SUNPOU
  6
CONTINUOUS
 62
     4
 10
26072.11808349999
 20
14363.733619000001
 30
0.0
 11
26072.11808349999
 21
14123.733619000001
 31
0.0
  0
LINE
  5
3854
  8
SUNPOU
  6
CONTINUOUS
 62
     4
 10
26072.11808349999
 20
14406.230913999991
 30
0.0
 11
26072.11808349999
 21
14363.733619000001
 31
0.0
  0
LINE
  5
3855
  8
SUNPOU
  6
CONTINUOUS
 62
     4
 10
22713.118479499979
 20
20014.229199000009
 30
0.0
 11
22713.118479499979
 21
20744.232102000031
 31
0.0
  0
LINE
  5
3856
  8
SUNPOU
  6
CONTINUOUS
 62
     4
 10
23120.61847949999
 20
20014.229199000009
 30
0.0
 11
23120.61847949999
 21
20744.232102000031
 31
0.0
  0
LINE
  5
3857
  8
SUNPOU
  6
CONTINUOUS
 62
     4
 10
22713.118479499979
 20
20664.232102000031
 30
0.0
 11
23120.61847949999
 21
20664.232102000031
 31
0.0
  0
LINE
  5
3858
  8
SUNPOU
  6
CONTINUOUS
 62
     4
 10
23821.61847949999
 20
20014.229199000009
 30
0.0
 11
23821.61847949999
 21
20744.232102000031
 31
0.0
  0
LINE
  5
3859
  8
SUNPOU
  6
CONTINUOUS
 62
     4
 10
24579.619469000008
 20
20014.229199000009
 30
0.0
 11
24579.619469000008
 21
20744.232102000031
 31
0.0
  0
LINE
  5
385A
  8
SUNPOU
  6
CONTINUOUS
 62
     4
 10
23821.61847949999
 20
20664.232102000031
 30
0.0
 11
24579.619469000008
 21
20664.232102000031
 31
0.0
  0
LINE
  5
385B
  8
SUNPOU
  6
CONTINUOUS
 62
     4
 10
23120.61847949999
 20
20014.229199000009
 30
0.0
 11
23120.61847949999
 21
20744.232102000031
 31
0.0
  0
LINE
  5
385C
  8
SUNPOU
  6
CONTINUOUS
 62
     4
 10
23821.61847949999
 20
20014.229199000009
 30
0.0
 11
23821.61847949999
 21
20744.232102000031
 31
0.0
  0
LINE
  5
385D
  8
SUNPOU
  6
CONTINUOUS
 62
     4
 10
23120.61847949999
 20
20664.232102000031
 30
0.0
 11
23821.61847949999
 21
20664.232102000031
 31
0.0
  0
LINE
  5
385E
  8
SUNPOU
  6
CONTINUOUS
 62
     4
 10
24579.618479500001
 20
20014.229199000009
 30
0.0
 11
24579.618479500001
 21
20744.232102000031
 31
0.0
  0
LINE
  5
385F
  8
SUNPOU
  6
CONTINUOUS
 62
     4
 10
24622.11478449999
 20
20014.229199000009
 30
0.0
 11
24622.11478449999
 21
20744.232102000031
 31
0.0
  0
LINE
  5
3860
  8
SUNPOU
  6
CONTINUOUS
 62
     4
 10
24579.618479500001
 20
20664.232102000031
 30
0.0
 11
24339.618479500001
 21
20664.232102000031
 31
0.0
  0
LINE
  5
3861
  8
SUNPOU
  6
CONTINUOUS
 62
     4
 10
24622.11478449999
 20
20664.232102000031
 30
0.0
 11
24862.114784500001
 21
20664.232102000031
 31
0.0
  0
LINE
  5
3862
  8
SUNPOU
  6
CONTINUOUS
 62
     4
 10
24579.618479500001
 20
20664.232102000031
 30
0.0
 11
24622.11478449999
 21
20664.232102000031
 31
0.0
  0
LINE
  5
3863
  8
SUNPOU
  6
CONTINUOUS
 62
     4
 10
20145.618479500001
 20
20014.229199000009
 30
0.0
 11
20145.618479500001
 21
20744.232102000031
 31
0.0
  0
LINE
  5
3864
  8
SUNPOU
  6
CONTINUOUS
 62
     4
 10
20553.118479500001
 20
20014.229199000009
 30
0.0
 11
20553.118479500001
 21
20744.232102000031
 31
0.0
  0
LINE
  5
3865
  8
SUNPOU
  6
CONTINUOUS
 62
     4
 10
20145.618479500001
 20
20664.232102000031
 30
0.0
 11
20553.118479500001
 21
20664.232102000031
 31
0.0
  0
LINE
  5
3866
  8
SUNPOU
  6
CONTINUOUS
 62
     4
 10
20145.618479500001
 20
20014.229199000009
 30
0.0
 11
20145.618479500001
 21
20744.232102000031
 31
0.0
  0
LINE
  5
3867
  8
SUNPOU
  6
CONTINUOUS
 62
     4
 10
20103.122174499989
 20
20014.229199000009
 30
0.0
 11
20103.122174499989
 21
20744.232102000031
 31
0.0
  0
LINE
  5
3868
  8
SUNPOU
  6
CONTINUOUS
 62
     4
 10
20145.618479500001
 20
20664.232102000031
 30
0.0
 11
20385.618479500001
 21
20664.232102000031
 31
0.0
  0
LINE
  5
3869
  8
SUNPOU
  6
CONTINUOUS
 62
     4
 10
20103.122174499989
 20
20664.232102000031
 30
0.0
 11
19863.122174499989
 21
20664.232102000031
 31
0.0
  0
LINE
  5
386A
  8
SUNPOU
  6
CONTINUOUS
 62
     4
 10
20145.618479500001
 20
20664.232102000031
 30
0.0
 11
20103.122174499989
 21
20664.232102000031
 31
0.0
  0
LINE
  5
386B
  8
SUNPOU
  6
CONTINUOUS
 62
     4
 10
21955.11847949999
 20
20014.229199000009
 30
0.0
 11
21955.11847949999
 21
20744.232102000031
 31
0.0
  0
LINE
  5
386C
  8
SUNPOU
  6
CONTINUOUS
 62
     4
 10
22713.119469000001
 20
20014.229199000009
 30
0.0
 11
22713.119469000001
 21
20744.232102000031
 31
0.0
  0
LINE
  5
386D
  8
SUNPOU
  6
CONTINUOUS
 62
     4
 10
21955.11847949999
 20
20664.232102000031
 30
0.0
 11
22713.119469000001
 21
20664.232102000031
 31
0.0
  0
LINE
  5
386E
  8
SUNPOU
  6
CONTINUOUS
 62
     4
 10
21254.11847949999
 20
20014.229199000009
 30
0.0
 11
21254.11847949999
 21
20744.232102000031
 31
0.0
  0
LINE
  5
386F
  8
SUNPOU
  6
CONTINUOUS
 62
     4
 10
21955.11847949999
 20
20014.229199000009
 30
0.0
 11
21955.11847949999
 21
20744.232102000031
 31
0.0
  0
LINE
  5
3870
  8
SUNPOU
  6
CONTINUOUS
 62
     4
 10
21254.11847949999
 20
20664.232102000031
 30
0.0
 11
21955.11847949999
 21
20664.232102000031
 31
0.0
  0
LINE
  5
3871
  8
SUNPOU
  6
CONTINUOUS
 62
     4
 10
20553.118479500001
 20
20014.229199000009
 30
0.0
 11
20553.118479500001
 21
20744.232102000031
 31
0.0
  0
LINE
  5
3872
  8
SUNPOU
  6
CONTINUOUS
 62
     4
 10
21254.11847949999
 20
20014.229199000009
 30
0.0
 11
21254.11847949999
 21
20744.232102000031
 31
0.0
  0
LINE
  5
3873
  8
SUNPOU
  6
CONTINUOUS
 62
     4
 10
20553.118479500001
 20
20664.232102000031
 30
0.0
 11
21254.11847949999
 21
20664.232102000031
 31
0.0
  0
LINE
  5
3874
  8
SUNPOU
  6
CONTINUOUS
 62
     4
 10
8769.3738785000023
 20
8722.9653796838102
 30
0.0
 11
8769.3738785000023
 21
9843.7812800000029
 31
0.0
  0
LINE
  5
3875
  8
SUNPOU
  6
CONTINUOUS
 62
     4
 10
8589.3738785000023
 20
8852.7796040000067
 30
0.0
 11
8589.3738785000023
 21
9843.7812800000029
 31
0.0
  0
LINE
  5
3876
  8
SUNPOU
  6
CONTINUOUS
 62
     4
 10
8769.3738785000023
 20
9763.7812800000029
 30
0.0
 11
8589.3738785000023
 21
9763.7812800000029
 31
0.0
  0
LINE
  5
3877
  8
SUNPOU
  6
CONTINUOUS
 62
     4
 10
20015.6178205
 20
6615.7796039999957
 30
0.0
 11
19215.619139499991
 21
6615.7796039999957
 31
0.0
  0
LINE
  5
3878
  8
SUNPOU
  6
CONTINUOUS
 62
     4
 10
20015.6178205
 20
8507.2796039999957
 30
0.0
 11
19215.619139499991
 21
8507.2796039999957
 31
0.0
  0
LINE
  5
3879
  8
SUNPOU
  6
CONTINUOUS
 62
     4
 10
19295.619139499991
 20
6615.7796039999957
 30
0.0
 11
19295.619139499991
 21
8507.2796039999957
 31
0.0
  0
LINE
  5
387A
  8
SUNPOU
  6
CONTINUOUS
 62
     4
 10
20015.6178205
 20
6615.7796039999957
 30
0.0
 11
18815.616830499981
 21
6615.7796039999957
 31
0.0
  0
LINE
  5
387B
  8
SUNPOU
  6
CONTINUOUS
 62
     4
 10
19983.118084499969
 20
8964.2791089999973
 30
0.0
 11
18815.616830499981
 21
8964.2791089999973
 31
0.0
  0
LINE
  5
387C
  8
SUNPOU
  6
CONTINUOUS
 62
     4
 10
18895.616830499981
 20
6615.7796039999957
 30
0.0
 11
18895.616830499981
 21
8964.2791089999973
 31
0.0
  0
LINE
  5
388D
  8
SUNPOU
  6
CONTINUOUS
 62
     4
 10
20239.61847949999
 20
6435.7797690000007
 30
0.0
 11
20239.61847949999
 21
5635.7797689999989
 31
0.0
  0
LINE
  5
388E
  8
SUNPOU
  6
CONTINUOUS
 62
     4
 10
22619.11847949999
 20
6435.7797690000007
 30
0.0
 11
22619.11847949999
 21
5635.7797689999989
 31
0.0
  0
LINE
  5
388F
  8
SUNPOU
  6
CONTINUOUS
 62
     4
 10
20239.61847949999
 20
5715.7797689999998
 30
0.0
 11
22619.11847949999
 21
5715.7797689999998
 31
0.0
  0
LINE
  5
3890
  8
SUNPOU
  6
CONTINUOUS
 62
     4
 10
22807.11847949999
 20
6435.7797690000007
 30
0.0
 11
22807.11847949999
 21
5635.7797689999989
 31
0.0
  0
LINE
  5
3891
  8
SUNPOU
  6
CONTINUOUS
 62
     4
 10
24485.61847949999
 20
6435.7797690000007
 30
0.0
 11
24485.61847949999
 21
5635.7797689999989
 31
0.0
  0
LINE
  5
3892
  8
SUNPOU
  6
CONTINUOUS
 62
     4
 10
22807.11847949999
 20
5715.7797689999998
 30
0.0
 11
24485.61847949999
 21
5715.7797689999998
 31
0.0
  0
LINE
  5
3893
  8
SUNPOU
  6
CONTINUOUS
 62
     4
 10
22713.118479499979
 20
6173.1273459999966
 30
0.0
 11
22713.118479499979
 21
5235.7797689999998
 31
0.0
  0
LINE
  5
3894
  8
SUNPOU
  6
CONTINUOUS
 62
     4
 10
24579.618479500001
 20
6173.1273459999966
 30
0.0
 11
24579.618479500001
 21
5235.7797689999998
 31
0.0
  0
LINE
  5
3895
  8
SUNPOU
  6
CONTINUOUS
 62
     4
 10
22713.118479499979
 20
5315.7797690000016
 30
0.0
 11
24579.618479500001
 21
5315.7797690000016
 31
0.0
  0
LINE
  5
3896
  8
SUNPOU
  6
CONTINUOUS
 62
     4
 10
20145.618479500001
 20
6173.1273459999966
 30
0.0
 11
20145.618479500001
 21
5235.7797689999998
 31
0.0
  0
LINE
  5
3897
  8
SUNPOU
  6
CONTINUOUS
 62
     4
 10
22713.118479499979
 20
6173.1273459999966
 30
0.0
 11
22713.118479499979
 21
5235.7797689999998
 31
0.0
  0
LINE
  5
3898
  8
SUNPOU
  6
CONTINUOUS
 62
     4
 10
20145.618479500001
 20
5315.7797690000016
 30
0.0
 11
22713.118479499979
 21
5315.7797690000016
 31
0.0
  0
LINE
  5
3899
  8
SUNPOU
  6
CONTINUOUS
 62
     4
 10
24579.622438499991
 20
6173.1273459999966
 30
0.0
 11
24579.622438499991
 21
5235.7797689999998
 31
0.0
  0
LINE
  5
389A
  8
SUNPOU
  6
CONTINUOUS
 62
     4
 10
24622.122438499991
 20
6435.7797690000007
 30
0.0
 11
24622.122438499991
 21
5235.7797689999998
 31
0.0
  0
LINE
  5
389B
  8
SUNPOU
  6
CONTINUOUS
 62
     4
 10
24579.622438499991
 20
5315.7797690000016
 30
0.0
 11
24339.622438499991
 21
5315.7797690000016
 31
0.0
  0
LINE
  5
389C
  8
SUNPOU
  6
CONTINUOUS
 62
     4
 10
24622.122438499991
 20
5315.7797690000016
 30
0.0
 11
24862.122438499991
 21
5315.7797690000016
 31
0.0
  0
LINE
  5
389D
  8
SUNPOU
  6
CONTINUOUS
 62
     4
 10
24579.622438499991
 20
5315.7797690000016
 30
0.0
 11
24622.122438499991
 21
5315.7797690000016
 31
0.0
  0
LINE
  5
389E
  8
SUNPOU
  6
CONTINUOUS
 62
     4
 10
20145.618479500001
 20
6173.1273459999966
 30
0.0
 11
20145.618479500001
 21
5235.7797689999998
 31
0.0
  0
LINE
  5
389F
  8
SUNPOU
  6
CONTINUOUS
 62
     4
 10
20103.11847949999
 20
6435.7797690000007
 30
0.0
 11
20103.11847949999
 21
5235.7797689999998
 31
0.0
  0
LINE
  5
38A0
  8
SUNPOU
  6
CONTINUOUS
 62
     4
 10
20145.618479500001
 20
5315.7797690000016
 30
0.0
 11
20385.618479500001
 21
5315.7797690000016
 31
0.0
  0
LINE
  5
38A1
  8
SUNPOU
  6
CONTINUOUS
 62
     4
 10
20103.11847949999
 20
5315.7797690000016
 30
0.0
 11
19863.118479499979
 21
5315.7797690000016
 31
0.0
  0
LINE
  5
38A2
  8
SUNPOU
  6
CONTINUOUS
 62
     4
 10
20145.618479500001
 20
5315.7797690000016
 30
0.0
 11
20103.11847949999
 21
5315.7797690000016
 31
0.0
  0
LINE
  5
38A3
  8
SUNPOU
  6
CONTINUOUS
 62
     4
 10
20103.11847949999
 20
6435.7797690000007
 30
0.0
 11
20103.11847949999
 21
4835.7799339999983
 31
0.0
  0
LINE
  5
38A4
  8
SUNPOU
  6
CONTINUOUS
 62
     4
 10
24622.11847949999
 20
6435.7797690000007
 30
0.0
 11
24622.11847949999
 21
4835.7799339999983
 31
0.0
  0
LINE
  5
38A5
  8
SUNPOU
  6
CONTINUOUS
 62
     4
 10
20103.11847949999
 20
4915.7799339999983
 30
0.0
 11
24622.11847949999
 21
4915.7799339999983
 31
0.0
  0
LINE
  5
38A6
  8
SUNPOU
  6
CONTINUOUS
 62
     4
 10
14432.373878500001
 20
6615.7796040000021
 30
0.0
 11
15509.87229449999
 21
6615.7796040000021
 31
0.0
  0
LINE
  5
38A7
  8
SUNPOU
  6
CONTINUOUS
 62
     4
 10
14524.679158099359
 20
8964.279604000003
 30
0.0
 11
15509.87229449999
 21
8964.279604000003
 31
0.0
  0
LINE
  5
38A8
  8
SUNPOU
  6
CONTINUOUS
 62
     4
 10
15429.87229449999
 20
6615.7796040000021
 30
0.0
 11
15429.87229449999
 21
8964.279604000003
 31
0.0
  0
LINE
  5
38A9
  8
SUNPOU
  6
CONTINUOUS
 62
     4
 10
8681.8738785000005
 20
6615.7796040000021
 30
0.0
 11
7599.3754605000086
 21
6615.7796040000021
 31
0.0
  0
LINE
  5
38AA
  8
SUNPOU
  6
CONTINUOUS
 62
     4
 10
8509.3758565000026
 20
8771.7796040000067
 30
0.0
 11
7599.3754605000086
 21
8771.7796040000067
 31
0.0
  0
LINE
  5
38AB
  8
SUNPOU
  6
CONTINUOUS
 62
     4
 10
7679.3754605000104
 20
6615.7796040000021
 30
0.0
 11
7679.3754605000104
 21
8771.7796040000067
 31
0.0
  0
LINE
  5
38AC
  8
SUNPOU
  6
CONTINUOUS
 62
     4
 10
8589.3738785000023
 20
8852.7796040000067
 30
0.0
 11
8589.3738785000023
 21
10243.779630000001
 31
0.0
  0
LINE
  5
38AD
  8
SUNPOU
  6
CONTINUOUS
 62
     4
 10
14489.873878500001
 20
8984.6694274124347
 30
0.0
 11
14489.873878500001
 21
10243.779630000001
 31
0.0
  0
LINE
  5
38AE
  8
SUNPOU
  6
CONTINUOUS
 62
     4
 10
8589.3738785000023
 20
10163.779630000001
 30
0.0
 11
14489.873878500001
 21
10163.779630000001
 31
0.0
  0
LINE
  5
38AF
  8
SUNPOU
  6
CONTINUOUS
 62
     4
 10
14339.873878500001
 20
8910.6896680000063
 30
0.0
 11
14339.873878500001
 21
9843.7812800000029
 31
0.0
  0
LINE
  5
38B0
  8
SUNPOU
  6
CONTINUOUS
 62
     4
 10
14489.873878500001
 20
8984.6694274124347
 30
0.0
 11
14489.873878500001
 21
9843.7812800000029
 31
0.0
  0
LINE
  5
38B1
  8
SUNPOU
  6
CONTINUOUS
 62
     4
 10
14339.873878500001
 20
9763.7812800000029
 30
0.0
 11
14099.873878500001
 21
9763.7812800000029
 31
0.0
  0
LINE
  5
38B2
  8
SUNPOU
  6
CONTINUOUS
 62
     4
 10
14489.873878500001
 20
9763.7812800000029
 30
0.0
 11
14729.873878500001
 21
9763.7812800000029
 31
0.0
  0
LINE
  5
38B3
  8
SUNPOU
  6
CONTINUOUS
 62
     4
 10
14339.873878500001
 20
9763.7812800000029
 30
0.0
 11
14489.873878500001
 21
9763.7812800000029
 31
0.0
  0
LINE
  5
38B4
  8
SUNPOU
  6
CONTINUOUS
 62
     4
 10
8769.3738785000023
 20
8722.9653796838102
 30
0.0
 11
8769.3738785000023
 21
9843.7812800000029
 31
0.0
  0
LINE
  5
38B5
  8
SUNPOU
  6
CONTINUOUS
 62
     4
 10
14339.873878500001
 20
8910.6896680000063
 30
0.0
 11
14339.873878500001
 21
9843.7812800000029
 31
0.0
  0
LINE
  5
38B6
  8
SUNPOU
  6
CONTINUOUS
 62
     4
 10
8769.3738785000023
 20
9763.7812800000029
 30
0.0
 11
14339.873878500001
 21
9763.7812800000029
 31
0.0
  0
LINE
  5
38B7
  8
SUNPOU
  6
CONTINUOUS
 62
     4
 10
8769.3738785000023
 20
6535.7796040000076
 30
0.0
 11
8769.3738785000023
 21
4835.7799340000038
 31
0.0
  0
LINE
  5
38B8
  8
SUNPOU
  6
CONTINUOUS
 62
     4
 10
14339.873878500001
 20
6535.7796040000076
 30
0.0
 11
14339.873878500001
 21
4835.7799340000038
 31
0.0
  0
LINE
  5
38B9
  8
SUNPOU
  6
CONTINUOUS
 62
     4
 10
8769.3738785000023
 20
4915.7799340000047
 30
0.0
 11
14339.873878500001
 21
4915.7799340000047
 31
0.0
  0
LINE
  5
38BA
  8
SUNPOU
  6
CONTINUOUS
 62
     4
 10
14297.373878500001
 20
6173.1273460000039
 30
0.0
 11
14297.373878500001
 21
5235.7797690000043
 31
0.0
  0
LINE
  5
38BB
  8
SUNPOU
  6
CONTINUOUS
 62
     4
 10
14339.873878500001
 20
6535.7796040000076
 30
0.0
 11
14339.873878500001
 21
5235.7797690000043
 31
0.0
  0
LINE
  5
38BC
  8
SUNPOU
  6
CONTINUOUS
 62
     4
 10
14297.373878500001
 20
5315.7797690000052
 30
0.0
 11
14057.373878500001
 21
5315.7797690000052
 31
0.0
  0
LINE
  5
38BD
  8
SUNPOU
  6
CONTINUOUS
 62
     4
 10
14339.873878500001
 20
5315.7797690000052
 30
0.0
 11
14579.873878500001
 21
5315.7797690000052
 31
0.0
  0
LINE
  5
38BE
  8
SUNPOU
  6
CONTINUOUS
 62
     4
 10
14297.373878500001
 20
5315.7797690000052
 30
0.0
 11
14339.873878500001
 21
5315.7797690000052
 31
0.0
  0
LINE
  5
38BF
  8
SUNPOU
  6
CONTINUOUS
 62
     4
 10
8811.8738785000005
 20
6173.1273460000039
 30
0.0
 11
8811.8738785000005
 21
5235.7797690000043
 31
0.0
  0
LINE
  5
38C0
  8
SUNPOU
  6
CONTINUOUS
 62
     4
 10
8769.3738785000023
 20
6535.7796040000076
 30
0.0
 11
8769.3738785000023
 21
5235.7797690000043
 31
0.0
  0
LINE
  5
38C1
  8
SUNPOU
  6
CONTINUOUS
 62
     4
 10
8811.8738785000005
 20
5315.7797690000052
 30
0.0
 11
9051.8738785000023
 21
5315.7797690000052
 31
0.0
  0
LINE
  5
38C2
  8
SUNPOU
  6
CONTINUOUS
 62
     4
 10
8769.3738785000023
 20
5315.7797690000052
 30
0.0
 11
8529.3738785000023
 21
5315.7797690000052
 31
0.0
  0
LINE
  5
38C3
  8
SUNPOU
  6
CONTINUOUS
 62
     4
 10
8811.8738785000005
 20
5315.7797690000052
 30
0.0
 11
8769.3738785000023
 21
5315.7797690000052
 31
0.0
  0
LINE
  5
38C4
  8
SUNPOU
  6
CONTINUOUS
 62
     4
 10
11379.373878500001
 20
6173.1273460000039
 30
0.0
 11
11379.373878500001
 21
5235.7797690000043
 31
0.0
  0
LINE
  5
38C5
  8
SUNPOU
  6
CONTINUOUS
 62
     4
 10
8811.8738785000005
 20
6173.1273460000039
 30
0.0
 11
8811.8738785000005
 21
5235.7797690000043
 31
0.0
  0
LINE
  5
38C6
  8
SUNPOU
  6
CONTINUOUS
 62
     4
 10
11379.373878500001
 20
5315.7797690000052
 30
0.0
 11
8811.8738785000005
 21
5315.7797690000052
 31
0.0
  0
LINE
  5
38C7
  8
SUNPOU
  6
CONTINUOUS
 62
     4
 10
11379.373878500001
 20
6173.1273460000039
 30
0.0
 11
11379.373878500001
 21
5235.7797690000043
 31
0.0
  0
LINE
  5
38C8
  8
SUNPOU
  6
CONTINUOUS
 62
     4
 10
14297.373878500001
 20
6173.1273460000039
 30
0.0
 11
14297.373878500001
 21
5235.7797690000043
 31
0.0
  0
LINE
  5
38C9
  8
SUNPOU
  6
CONTINUOUS
 62
     4
 10
11379.373878500001
 20
5315.7797690000052
 30
0.0
 11
14297.373878500001
 21
5315.7797690000052
 31
0.0
  0
TEXT
  5
38CA
  8
0
  6
CONTINUOUS
 62
     7
 10
12571.707211833331
 20
5395.7797690000043
 30
0.0
 40
160.0
  1
2918
  0
TEXT
  5
38CB
  8
0
  6
CONTINUOUS
 62
     7
 10
9695.6238785000023
 20
5395.7797690000043
 30
0.0
 40
160.0
  1
2567.5
  0
TEXT
  5
38CC
  8
0
  6
CONTINUOUS
 62
     7
 10
8172.2001694036962
 20
5395.7797690000043
 30
0.0
 40
160.0
  1
42.5
  0
TEXT
  5
38CD
  8
0
  6
CONTINUOUS
 62
     7
 10
14478.192515809809
 20
5395.7797690000043
 30
0.0
 40
160.0
  1
42.5
  0
TEXT
  5
38CE
  8
0
  6
CONTINUOUS
 62
     7
 10
11167.957211833331
 20
4995.7799340000047
 30
0.0
 40
160.0
  1
5570.5
  0
TEXT
  5
38CF
  8
0
  6
CONTINUOUS
 62
     7
 10
11167.957211833331
 20
9843.7812800000029
 30
0.0
 40
160.0
  1
5570.5
  0
TEXT
  5
38D0
  8
0
  6
CONTINUOUS
 62
     7
 10
14556.54054516667
 20
9843.7812800000029
 30
0.0
 40
160.0
  1
150
  0
TEXT
  5
38D1
  8
0
  6
CONTINUOUS
 62
     7
 10
11166.29054516667
 20
10243.779630000001
 30
0.0
 40
160.0
  1
5900.5
  0
TEXT
  5
38D2
  8
0
  6
CONTINUOUS
 62
     7
 10
7599.3754605000086
 20
6915.112937333337
 30
0.0
 40
160.0
  1
2156（2396）
 50
90.0
  0
TEXT
  5
38D3
  8
0
  6
CONTINUOUS
 62
     7
 10
15349.87229449999
 20
6771.362937333337
 30
0.0
 40
160.0
  1
2348.5（2588.5）
 50
90.0
  0
TEXT
  5
38D4
  8
0
  6
CONTINUOUS
 62
     7
 10
22095.951812833318
 20
4995.7799339999983
 30
0.0
 40
160.0
  1
4519
  0
TEXT
  5
38D5
  8
0
  6
CONTINUOUS
 62
     7
 10
19537.07948924115
 20
5395.7797689999998
 30
0.0
 40
160.0
  1
42.5
  0
TEXT
  5
38D6
  8
0
  6
CONTINUOUS
 62
     7
 10
24708.161428758849
 20
5395.7797689999998
 30
0.0
 40
160.0
  1
42.5
  0
TEXT
  5
38D7
  8
0
  6
CONTINUOUS
 62
     7
 10
21029.36847949999
 20
5395.7797689999998
 30
0.0
 40
160.0
  1
2567.5
  0
TEXT
  5
38D8
  8
0
  6
CONTINUOUS
 62
     7
 10
23273.035146166661
 20
5395.7797689999998
 30
0.0
 40
160.0
  1
1866.5
  0
TEXT
  5
38D9
  8
0
  6
CONTINUOUS
 62
     7
 10
23182.36847949999
 20
6062.446435666664
 30
0.0
 40
160.0
  1
有効開口巾
  0
TEXT
  5
38DA
  8
0
  6
CONTINUOUS
 62
     7
 10
23273.035146166661
 20
5795.7797690000007
 30
0.0
 40
160.0
  1
1678.5
  0
TEXT
  5
38DB
  8
0
  6
CONTINUOUS
 62
     7
 10
20501.36847949999
 20
5795.7797690000007
 30
0.0
 40
160.0
  1
有効開口巾 2379.5
  0
TEXT
  5
38E0
  8
0
  6
CONTINUOUS
 62
     7
 10
18815.616830499981
 20
6771.3626898333332
 30
0.0
 40
160.0
  1
2348.5（2588.5）
 50
90.0
  0
TEXT
  5
38E1
  8
0
  6
CONTINUOUS
 62
     7
 10
19215.619139499991
 20
6679.7588422912713
 30
0.0
 40
160.0
  1
有効開口高サ 1891.5
 50
90.0
  0
TEXT
  5
38E2
  8
0
  6
CONTINUOUS
 62
     7
 10
8128.4205078486357
 20
9843.7812800000029
 30
0.0
 40
160.0
  1
180
  0
TEXT
  5
38E3
  8
0
  6
CONTINUOUS
 62
     7
 10
20730.285146166661
 20
20424.232102000031
 30
0.0
 40
160.0
  1
701
  0
TEXT
  5
38E4
  8
0
  6
CONTINUOUS
 62
     7
 10
21431.285146166661
 20
20744.232102000031
 30
0.0
 40
160.0
  1
701
  0
TEXT
  5
38E5
  8
0
  6
CONTINUOUS
 62
     7
 10
22120.785640916671
 20
20744.232102000031
 30
0.0
 40
160.0
  1
758
  0
TEXT
  5
38E6
  8
0
  6
CONTINUOUS
 62
     7
 10
19542.80649997119
 20
20744.232102000031
 30
0.0
 40
160.0
  1
42.5
  0
TEXT
  5
38E7
  8
0
  6
CONTINUOUS
 62
     7
 10
20246.451812833318
 20
20744.232102000031
 30
0.0
 40
160.0
  1
407.5
  0
TEXT
  5
38E8
  8
0
  6
CONTINUOUS
 62
     7
 10
24702.43045902879
 20
20744.232102000031
 30
0.0
 40
160.0
  1
42.5
  0
TEXT
  5
38E9
  8
0
  6
CONTINUOUS
 62
     7
 10
23297.785146166661
 20
20424.232102000031
 30
0.0
 40
160.0
  1
701
  0
TEXT
  5
38EA
  8
0
  6
CONTINUOUS
 62
     7
 10
23987.285640916671
 20
20744.232102000031
 30
0.0
 40
160.0
  1
758
  0
TEXT
  5
38EB
  8
0
  6
CONTINUOUS
 62
     7
 10
22813.951812833329
 20
20744.232102000031
 30
0.0
 40
160.0
  1
407.5
  0
TEXT
  5
38EC
  8
0
  6
CONTINUOUS
 62
     7
 10
25992.11808349999
 20
13790.1773826032
 30
0.0
 40
160.0
  1
42.5
 50
90.0
  0
TEXT
  5
38ED
  8
0
  6
CONTINUOUS
 62
     7
 10
25992.11808349999
 20
20027.784445396788
 30
0.0
 40
160.0
  1
42.5
 50
90.0
  0
TEXT
  5
38EE
  8
0
  6
CONTINUOUS
 62
     7
 10
26392.11808349999
 20
16762.314247333339
 30
0.0
 40
160.0
  1
5570.5
 50
90.0
  0
TEXT
  5
38EF
  8
0
  6
CONTINUOUS
 62
     7
 10
25992.11808349999
 20
15598.56424733333
 30
0.0
 40
160.0
  1
2918
 50
90.0
  0
TEXT
  5
38F0
  8
0
  6
CONTINUOUS
 62
     7
 10
25992.11808349999
 20
18207.980914
 30
0.0
 40
160.0
  1
2567.5
 50
90.0
  0
TEXT
  5
38F1
  8
0
  6
CONTINUOUS
 62
     7
 10
25592.11808349999
 20
18960.397580666671
 30
0.0
 40
160.0
  1
701
 50
90.0
  0
TEXT
  5
38F2
  8
0
  6
CONTINUOUS
 62
     7
 10
25592.11808349999
 20
18259.397580666671
 30
0.0
 40
160.0
  1
701
 50
90.0
  0
TEXT
  5
38F3
  8
0
  6
CONTINUOUS
 62
     7
 10
25592.11808349999
 20
17489.897580666671
 30
0.0
 40
160.0
  1
758
 50
90.0
  0
TEXT
  5
38F4
  8
0
  6
CONTINUOUS
 62
     7
 10
25592.11808349999
 20
16731.897580666671
 30
0.0
 40
160.0
  1
758
 50
90.0
  0
TEXT
  5
38F5
  8
0
  6
CONTINUOUS
 62
     7
 10
25592.11808349999
 20
16042.51783641668
 30
0.0
 40
160.0
  1
701
 50
90.0
  0
TEXT
  5
38F6
  8
0
  6
CONTINUOUS
 62
     7
 10
25592.11808349999
 20
15341.51783641668
 30
0.0
 40
160.0
  1
701
 50
90.0
  0
TEXT
  5
38F7
  8
0
  6
CONTINUOUS
 62
     7
 10
25592.11808349999
 20
14571.89758066666
 30
0.0
 40
160.0
  1
758
 50
90.0
  0
TEXT
  5
38F8
  8
0
  6
CONTINUOUS
 62
     7
 10
22095.951812833318
 20
13114.78283
 30
0.0
 40
160.0
  1
4519
  0
TEXT
  5
38F9
  8
0
  6
CONTINUOUS
 62
     7
 10
20263.672151882089
 20
13514.78283
 30
0.0
 40
160.0
  1
42.5
  0
TEXT
  5
38FA
  8
0
  6
CONTINUOUS
 62
     7
 10
23981.564807117891
 20
13514.78283
 30
0.0
 40
160.0
  1
42.5
  0
TEXT
  5
38FB
  8
0
  6
CONTINUOUS
 62
     7
 10
24697.672151882089
 20
13514.78283
 30
0.0
 40
160.0
  1
42.5
  0
TEXT
  5
38FC
  8
0
  6
CONTINUOUS
 62
     7
 10
19547.56480711788
 20
13514.78283
 30
0.0
 40
160.0
  1
42.5
  0
TEXT
  5
38FD
  8
0
  6
CONTINUOUS
 62
     7
 10
25952.11808349999
 20
19193.608881643198
 30
0.0
 40
160.0
  1
407.5
 50
90.0
  0
TEXT
  5
38FE
  8
0
  6
CONTINUOUS
 62
     7
 10
8840.6638294999866
 20
18207.980914
 30
0.0
 40
160.0
  1
2567.5
 50
90.0
  0
TEXT
  5
38FF
  8
0
  6
CONTINUOUS
 62
     7
 10
8840.6638294999793
 20
20203.186098807681
 30
0.0
 40
160.0
  1
222.5
 50
90.0
  0
TEXT
  5
3900
  8
0
  6
CONTINUOUS
 62
     7
 10
9240.6638294999884
 20
20260.89348966668
 30
0.0
 40
160.0
  1
10
 50
90.0
  0
TEXT
  5
3901
  8
0
  6
CONTINUOUS
 62
     7
 10
8840.6638294999866
 20
15598.56424733333
 30
0.0
 40
160.0
  1
2918
 50
90.0
  0
TEXT
  5
3902
  8
0
  6
CONTINUOUS
 62
     7
 10
8840.662019499985
 20
13598.27790370263
 30
0.0
 40
160.0
  1
192.5
 50
90.0
  0
TEXT
  5
3903
  8
0
  6
CONTINUOUS
 62
     7
 10
12977.573853166639
 20
20744.232102000031
 30
0.0
 40
160.0
  1
1866.5
  0
TEXT
  5
3904
  8
0
  6
CONTINUOUS
 62
     7
 10
14420.65092352323
 20
20744.232102000031
 30
0.0
 40
160.0
  1
85.5
  0
TEXT
  5
3905
  8
0
  6
CONTINUOUS
 62
     7
 10
10983.91312449999
 20
20744.232102000031
 30
0.0
 40
160.0
  1
2567.5
  0
TEXT
  5
3906
  8
0
  6
CONTINUOUS
 62
     7
 10
9233.6693874767352
 20
20744.232102000031
 30
0.0
 40
160.0
  1
85.5
  0
ARC
  5
390C
  8
0
  6
BYBLOCK
 62
     0
 10
9850.1660935000036
 20
20664.232102000031
 30
0.0
 40
15.0
 50
0.0
 51
180.0
  0
ARC
  5
390D
  8
0
  6
BYBLOCK
 62
     0
 10
9850.1660935000036
 20
20664.232102000031
 30
0.0
 40
15.0
 50
180.0
 51
0.0
  0
ARC
  5
390E
  8
0
  6
BYBLOCK
 62
     0
 10
9764.6660935000036
 20
20664.232102000031
 30
0.0
 40
15.0
 50
180.0
 51
0.0
  0
ARC
  5
390F
  8
0
  6
BYBLOCK
 62
     0
 10
9764.6660935000036
 20
20664.232102000031
 30
0.0
 40
15.0
 50
0.0
 51
180.0
  0
ARC
  5
3910
  8
0
  6
BYBLOCK
 62
     0
 10
12417.66015549998
 20
20664.232102000031
 30
0.0
 40
15.0
 50
180.0
 51
0.0
  0
ARC
  5
3911
  8
0
  6
BYBLOCK
 62
     0
 10
12417.66015549998
 20
20664.232102000031
 30
0.0
 40
15.0
 50
0.0
 51
180.0
  0
ARC
  5
3912
  8
0
  6
BYBLOCK
 62
     0
 10
9850.1660935000036
 20
20664.232102000031
 30
0.0
 40
15.0
 50
0.0
 51
180.0
  0
ARC
  5
3913
  8
0
  6
BYBLOCK
 62
     0
 10
9850.1660935000036
 20
20664.232102000031
 30
0.0
 40
15.0
 50
180.0
 51
0.0
  0
ARC
  5
3914
  8
0
  6
BYBLOCK
 62
     0
 10
14284.154217499959
 20
20664.232102000031
 30
0.0
 40
15.0
 50
180.0
 51
0.0
  0
ARC
  5
3915
  8
0
  6
BYBLOCK
 62
     0
 10
14284.154217499959
 20
20664.232102000031
 30
0.0
 40
15.0
 50
0.0
 51
180.0
  0
ARC
  5
3916
  8
0
  6
BYBLOCK
 62
     0
 10
14369.65421749997
 20
20664.232102000031
 30
0.0
 40
15.0
 50
0.0
 51
180.0
  0
ARC
  5
3917
  8
0
  6
BYBLOCK
 62
     0
 10
14369.65421749997
 20
20664.232102000031
 30
0.0
 40
15.0
 50
180.0
 51
0.0
  0
ARC
  5
3918
  8
0
  6
BYBLOCK
 62
     0
 10
12417.66015549998
 20
20664.232102000031
 30
0.0
 40
15.0
 50
0.0
 51
180.0
  0
ARC
  5
3919
  8
0
  6
BYBLOCK
 62
     0
 10
12417.66015549998
 20
20664.232102000031
 30
0.0
 40
15.0
 50
180.0
 51
0.0
  0
ARC
  5
391A
  8
0
  6
BYBLOCK
 62
     0
 10
14284.154217499959
 20
20664.232102000031
 30
0.0
 40
15.0
 50
180.0
 51
0.0
  0
ARC
  5
391B
  8
0
  6
BYBLOCK
 62
     0
 10
14284.154217499959
 20
20664.232102000031
 30
0.0
 40
15.0
 50
0.0
 51
180.0
  0
ARC
  5
391C
  8
0
  6
BYBLOCK
 62
     0
 10
8920.6620194999923
 20
14406.230913999991
 30
0.0
 40
15.0
 50
270.0
 51
90.0
  0
ARC
  5
391D
  8
0
  6
BYBLOCK
 62
     0
 10
8920.6620194999923
 20
14406.230913999991
 30
0.0
 40
15.0
 50
90.0
 51
270.0
  0
ARC
  5
391E
  8
0
  6
BYBLOCK
 62
     0
 10
8920.6620194999923
 20
14213.735599
 30
0.0
 40
15.0
 50
90.0
 51
270.0
  0
ARC
  5
391F
  8
0
  6
BYBLOCK
 62
     0
 10
8920.6620194999923
 20
14213.735599
 30
0.0
 40
15.0
 50
270.0
 51
90.0
  0
ARC
  5
3920
  8
0
  6
BYBLOCK
 62
     0
 10
8920.6638294999866
 20
17324.230914
 30
0.0
 40
15.0
 50
270.0
 51
90.0
  0
ARC
  5
3921
  8
0
  6
BYBLOCK
 62
     0
 10
8920.6638294999866
 20
17324.230914
 30
0.0
 40
15.0
 50
90.0
 51
270.0
  0
ARC
  5
3922
  8
0
  6
BYBLOCK
 62
     0
 10
8920.6638294999866
 20
14406.230913999991
 30
0.0
 40
15.0
 50
90.0
 51
270.0
  0
ARC
  5
3923
  8
0
  6
BYBLOCK
 62
     0
 10
8920.6638294999866
 20
14406.230913999991
 30
0.0
 40
15.0
 50
270.0
 51
90.0
  0
ARC
  5
3924
  8
0
  6
BYBLOCK
 62
     0
 10
9320.6638294999902
 20
20104.226823000012
 30
0.0
 40
15.0
 50
270.0
 51
90.0
  0
ARC
  5
3925
  8
0
  6
BYBLOCK
 62
     0
 10
9320.6638294999902
 20
20104.226823000012
 30
0.0
 40
15.0
 50
90.0
 51
270.0
  0
ARC
  5
3926
  8
0
  6
BYBLOCK
 62
     0
 10
9320.6638294999902
 20
20114.226823000001
 30
0.0
 40
15.0
 50
90.0
 51
270.0
  0
ARC
  5
3927
  8
0
  6
BYBLOCK
 62
     0
 10
9320.6638294999902
 20
20114.226823000001
 30
0.0
 40
15.0
 50
270.0
 51
90.0
  0
ARC
  5
3928
  8
0
  6
BYBLOCK
 62
     0
 10
8920.6638294999866
 20
19891.730914
 30
0.0
 40
15.0
 50
90.0
 51
270.0
  0
ARC
  5
3929
  8
0
  6
BYBLOCK
 62
     0
 10
8920.6638294999866
 20
19891.730914
 30
0.0
 40
15.0
 50
270.0
 51
90.0
  0
ARC
  5
392A
  8
0
  6
BYBLOCK
 62
     0
 10
8920.6638294999866
 20
20114.226823000001
 30
0.0
 40
15.0
 50
270.0
 51
90.0
  0
ARC
  5
392B
  8
0
  6
BYBLOCK
 62
     0
 10
8920.6638294999866
 20
20114.226823000001
 30
0.0
 40
15.0
 50
90.0
 51
270.0
  0
ARC
  5
392C
  8
0
  6
BYBLOCK
 62
     0
 10
8920.6638294999866
 20
17324.230914
 30
0.0
 40
15.0
 50
90.0
 51
270.0
  0
ARC
  5
392D
  8
0
  6
BYBLOCK
 62
     0
 10
8920.6638294999866
 20
17324.230914
 30
0.0
 40
15.0
 50
270.0
 51
90.0
  0
ARC
  5
392E
  8
0
  6
BYBLOCK
 62
     0
 10
8920.6638294999866
 20
19891.730914
 30
0.0
 40
15.0
 50
270.0
 51
90.0
  0
ARC
  5
392F
  8
0
  6
BYBLOCK
 62
     0
 10
8920.6638294999866
 20
19891.730914
 30
0.0
 40
15.0
 50
90.0
 51
270.0
  0
ARC
  5
3930
  8
0
  6
BYBLOCK
 62
     0
 10
25672.11808349999
 20
19484.230914
 30
0.0
 40
15.0
 50
90.0
 51
270.0
  0
ARC
  5
3931
  8
0
  6
BYBLOCK
 62
     0
 10
25672.11808349999
 20
19484.230914
 30
0.0
 40
15.0
 50
270.0
 51
90.0
  0
ARC
  5
3932
  8
0
  6
BYBLOCK
 62
     0
 10
25672.11808349999
 20
19891.730914
 30
0.0
 40
15.0
 50
270.0
 51
90.0
  0
ARC
  5
3933
  8
0
  6
BYBLOCK
 62
     0
 10
25672.11808349999
 20
19891.730914
 30
0.0
 40
15.0
 50
90.0
 51
270.0
  0
ARC
  5
3934
  8
0
  6
BYBLOCK
 62
     0
 10
20145.618479500001
 20
13434.78283
 30
0.0
 40
15.0
 50
0.0
 51
180.0
  0
ARC
  5
3935
  8
0
  6
BYBLOCK
 62
     0
 10
20145.618479500001
 20
13434.78283
 30
0.0
 40
15.0
 50
180.0
 51
0.0
  0
ARC
  5
3936
  8
0
  6
BYBLOCK
 62
     0
 10
20103.116236499991
 20
13434.78283
 30
0.0
 40
15.0
 50
180.0
 51
0.0
  0
ARC
  5
3937
  8
0
  6
BYBLOCK
 62
     0
 10
20103.116236499991
 20
13434.78283
 30
0.0
 40
15.0
 50
0.0
 51
180.0
  0
ARC
  5
3938
  8
0
  6
BYBLOCK
 62
     0
 10
24579.618479500001
 20
13434.78283
 30
0.0
 40
15.0
 50
180.0
 51
0.0
  0
ARC
  5
3939
  8
0
  6
BYBLOCK
 62
     0
 10
24579.618479500001
 20
13434.78283
 30
0.0
 40
15.0
 50
0.0
 51
180.0
  0
ARC
  5
393A
  8
0
  6
BYBLOCK
 62
     0
 10
24622.1207225
 20
13434.78283
 30
0.0
 40
15.0
 50
0.0
 51
180.0
  0
ARC
  5
393B
  8
0
  6
BYBLOCK
 62
     0
 10
24622.1207225
 20
13434.78283
 30
0.0
 40
15.0
 50
180.0
 51
0.0
  0
ARC
  5
393C
  8
0
  6
BYBLOCK
 62
     0
 10
24579.618479500001
 20
13434.78283
 30
0.0
 40
15.0
 50
0.0
 51
180.0
  0
ARC
  5
393D
  8
0
  6
BYBLOCK
 62
     0
 10
24579.618479500001
 20
13434.78283
 30
0.0
 40
15.0
 50
180.0
 51
0.0
  0
ARC
  5
393E
  8
0
  6
BYBLOCK
 62
     0
 10
24537.116236499991
 20
13434.78283
 30
0.0
 40
15.0
 50
180.0
 51
0.0
  0
ARC
  5
393F
  8
0
  6
BYBLOCK
 62
     0
 10
24537.116236499991
 20
13434.78283
 30
0.0
 40
15.0
 50
0.0
 51
180.0
  0
ARC
  5
3940
  8
0
  6
BYBLOCK
 62
     0
 10
20145.618479500001
 20
13434.78283
 30
0.0
 40
15.0
 50
180.0
 51
0.0
  0
ARC
  5
3941
  8
0
  6
BYBLOCK
 62
     0
 10
20145.618479500001
 20
13434.78283
 30
0.0
 40
15.0
 50
0.0
 51
180.0
  0
ARC
  5
3942
  8
0
  6
BYBLOCK
 62
     0
 10
20188.120722499982
 20
13434.78283
 30
0.0
 40
15.0
 50
0.0
 51
180.0
  0
ARC
  5
3943
  8
0
  6
BYBLOCK
 62
     0
 10
20188.120722499982
 20
13434.78283
 30
0.0
 40
15.0
 50
180.0
 51
0.0
  0
ARC
  5
3944
  8
0
  6
BYBLOCK
 62
     0
 10
20103.116236499991
 20
13034.78283
 30
0.0
 40
15.0
 50
0.0
 51
180.0
  0
ARC
  5
3945
  8
0
  6
BYBLOCK
 62
     0
 10
20103.116236499991
 20
13034.78283
 30
0.0
 40
15.0
 50
180.0
 51
0.0
  0
ARC
  5
3946
  8
0
  6
BYBLOCK
 62
     0
 10
24622.1207225
 20
13034.78283
 30
0.0
 40
15.0
 50
180.0
 51
0.0
  0
ARC
  5
3947
  8
0
  6
BYBLOCK
 62
     0
 10
24622.1207225
 20
13034.78283
 30
0.0
 40
15.0
 50
0.0
 51
180.0
  0
ARC
  5
3948
  8
0
  6
BYBLOCK
 62
     0
 10
25672.11808349999
 20
15164.230913999991
 30
0.0
 40
15.0
 50
270.0
 51
90.0
  0
ARC
  5
3949
  8
0
  6
BYBLOCK
 62
     0
 10
25672.11808349999
 20
15164.230913999991
 30
0.0
 40
15.0
 50
90.0
 51
270.0
  0
ARC
  5
394A
  8
0
  6
BYBLOCK
 62
     0
 10
25672.11808349999
 20
14406.230913999991
 30
0.0
 40
15.0
 50
90.0
 51
270.0
  0
ARC
  5
394B
  8
0
  6
BYBLOCK
 62
     0
 10
25672.11808349999
 20
14406.230913999991
 30
0.0
 40
15.0
 50
270.0
 51
90.0
  0
ARC
  5
394C
  8
0
  6
BYBLOCK
 62
     0
 10
25672.11808349999
 20
15865.471425500011
 30
0.0
 40
15.0
 50
270.0
 51
90.0
  0
ARC
  5
394D
  8
0
  6
BYBLOCK
 62
     0
 10
25672.11808349999
 20
15865.471425500011
 30
0.0
 40
15.0
 50
90.0
 51
270.0
  0
ARC
  5
394E
  8
0
  6
BYBLOCK
 62
     0
 10
25672.11808349999
 20
15164.230913999991
 30
0.0
 40
15.0
 50
90.0
 51
270.0
  0
ARC
  5
394F
  8
0
  6
BYBLOCK
 62
     0
 10
25672.11808349999
 20
15164.230913999991
 30
0.0
 40
15.0
 50
270.0
 51
90.0
  0
ARC
  5
3950
  8
0
  6
BYBLOCK
 62
     0
 10
25672.11808349999
 20
16566.230914
 30
0.0
 40
15.0
 50
270.0
 51
90.0
  0
ARC
  5
3951
  8
0
  6
BYBLOCK
 62
     0
 10
25672.11808349999
 20
16566.230914
 30
0.0
 40
15.0
 50
90.0
 51
270.0
  0
ARC
  5
3952
  8
0
  6
BYBLOCK
 62
     0
 10
25672.11808349999
 20
15865.471425500011
 30
0.0
 40
15.0
 50
90.0
 51
270.0
  0
ARC
  5
3953
  8
0
  6
BYBLOCK
 62
     0
 10
25672.11808349999
 20
15865.471425500011
 30
0.0
 40
15.0
 50
270.0
 51
90.0
  0
ARC
  5
3954
  8
0
  6
BYBLOCK
 62
     0
 10
25672.11808349999
 20
17324.230914
 30
0.0
 40
15.0
 50
270.0
 51
90.0
  0
ARC
  5
3955
  8
0
  6
BYBLOCK
 62
     0
 10
25672.11808349999
 20
17324.230914
 30
0.0
 40
15.0
 50
90.0
 51
270.0
  0
ARC
  5
3956
  8
0
  6
BYBLOCK
 62
     0
 10
25672.11808349999
 20
16566.230914
 30
0.0
 40
15.0
 50
90.0
 51
270.0
  0
ARC
  5
3957
  8
0
  6
BYBLOCK
 62
     0
 10
25672.11808349999
 20
16566.230914
 30
0.0
 40
15.0
 50
270.0
 51
90.0
  0
ARC
  5
3958
  8
0
  6
BYBLOCK
 62
     0
 10
25672.11808349999
 20
18082.230914
 30
0.0
 40
15.0
 50
270.0
 51
90.0
  0
ARC
  5
3959
  8
0
  6
BYBLOCK
 62
     0
 10
25672.11808349999
 20
18082.230914
 30
0.0
 40
15.0
 50
90.0
 51
270.0
  0
ARC
  5
395A
  8
0
  6
BYBLOCK
 62
     0
 10
25672.11808349999
 20
17324.230914
 30
0.0
 40
15.0
 50
90.0
 51
270.0
  0
ARC
  5
395B
  8
0
  6
BYBLOCK
 62
     0
 10
25672.11808349999
 20
17324.230914
 30
0.0
 40
15.0
 50
270.0
 51
90.0
  0
ARC
  5
395C
  8
0
  6
BYBLOCK
 62
     0
 10
25672.11808349999
 20
18783.230914
 30
0.0
 40
15.0
 50
270.0
 51
90.0
  0
ARC
  5
395D
  8
0
  6
BYBLOCK
 62
     0
 10
25672.11808349999
 20
18783.230914
 30
0.0
 40
15.0
 50
90.0
 51
270.0
  0
ARC
  5
395E
  8
0
  6
BYBLOCK
 62
     0
 10
25672.11808349999
 20
18082.230914
 30
0.0
 40
15.0
 50
90.0
 51
270.0
  0
ARC
  5
395F
  8
0
  6
BYBLOCK
 62
     0
 10
25672.11808349999
 20
18082.230914
 30
0.0
 40
15.0
 50
270.0
 51
90.0
  0
ARC
  5
3960
  8
0
  6
BYBLOCK
 62
     0
 10
25672.11808349999
 20
19484.230914
 30
0.0
 40
15.0
 50
270.0
 51
90.0
  0
ARC
  5
3961
  8
0
  6
BYBLOCK
 62
     0
 10
25672.11808349999
 20
19484.230914
 30
0.0
 40
15.0
 50
90.0
 51
270.0
  0
ARC
  5
3962
  8
0
  6
BYBLOCK
 62
     0
 10
25672.11808349999
 20
18783.230914
 30
0.0
 40
15.0
 50
90.0
 51
270.0
  0
ARC
  5
3963
  8
0
  6
BYBLOCK
 62
     0
 10
25672.11808349999
 20
18783.230914
 30
0.0
 40
15.0
 50
270.0
 51
90.0
  0
ARC
  5
3964
  8
0
  6
BYBLOCK
 62
     0
 10
26072.11808349999
 20
17324.230914
 30
0.0
 40
15.0
 50
90.0
 51
270.0
  0
ARC
  5
3965
  8
0
  6
BYBLOCK
 62
     0
 10
26072.11808349999
 20
17324.230914
 30
0.0
 40
15.0
 50
270.0
 51
90.0
  0
ARC
  5
3966
  8
0
  6
BYBLOCK
 62
     0
 10
26072.11808349999
 20
19891.730914
 30
0.0
 40
15.0
 50
270.0
 51
90.0
  0
ARC
  5
3967
  8
0
  6
BYBLOCK
 62
     0
 10
26072.11808349999
 20
19891.730914
 30
0.0
 40
15.0
 50
90.0
 51
270.0
  0
ARC
  5
3968
  8
0
  6
BYBLOCK
 62
     0
 10
26072.11808349999
 20
14406.230913999991
 30
0.0
 40
15.0
 50
90.0
 51
270.0
  0
ARC
  5
3969
  8
0
  6
BYBLOCK
 62
     0
 10
26072.11808349999
 20
14406.230913999991
 30
0.0
 40
15.0
 50
270.0
 51
90.0
  0
ARC
  5
396A
  8
0
  6
BYBLOCK
 62
     0
 10
26072.11808349999
 20
17324.230914
 30
0.0
 40
15.0
 50
270.0
 51
90.0
  0
ARC
  5
396B
  8
0
  6
BYBLOCK
 62
     0
 10
26072.11808349999
 20
17324.230914
 30
0.0
 40
15.0
 50
90.0
 51
270.0
  0
ARC
  5
396C
  8
0
  6
BYBLOCK
 62
     0
 10
26472.11808349999
 20
19934.228209000001
 30
0.0
 40
15.0
 50
270.0
 51
90.0
  0
ARC
  5
396D
  8
0
  6
BYBLOCK
 62
     0
 10
26472.11808349999
 20
19934.228209000001
 30
0.0
 40
15.0
 50
90.0
 51
270.0
  0
ARC
  5
396E
  8
0
  6
BYBLOCK
 62
     0
 10
26472.11808349999
 20
14363.733619000001
 30
0.0
 40
15.0
 50
90.0
 51
270.0
  0
ARC
  5
396F
  8
0
  6
BYBLOCK
 62
     0
 10
26472.11808349999
 20
14363.733619000001
 30
0.0
 40
15.0
 50
270.0
 51
90.0
  0
ARC
  5
3970
  8
0
  6
BYBLOCK
 62
     0
 10
26072.11808349999
 20
19891.730914
 30
0.0
 40
15.0
 50
270.0
 51
90.0
  0
ARC
  5
3971
  8
0
  6
BYBLOCK
 62
     0
 10
26072.11808349999
 20
19891.730914
 30
0.0
 40
15.0
 50
90.0
 51
270.0
  0
ARC
  5
3972
  8
0
  6
BYBLOCK
 62
     0
 10
26072.11808349999
 20
19934.228209000001
 30
0.0
 40
15.0
 50
90.0
 51
270.0
  0
ARC
  5
3973
  8
0
  6
BYBLOCK
 62
     0
 10
26072.11808349999
 20
19934.228209000001
 30
0.0
 40
15.0
 50
270.0
 51
90.0
  0
ARC
  5
3974
  8
0
  6
BYBLOCK
 62
     0
 10
26072.11808349999
 20
14406.230913999991
 30
0.0
 40
15.0
 50
90.0
 51
270.0
  0
ARC
  5
3975
  8
0
  6
BYBLOCK
 62
     0
 10
26072.11808349999
 20
14406.230913999991
 30
0.0
 40
15.0
 50
270.0
 51
90.0
  0
ARC
  5
3976
  8
0
  6
BYBLOCK
 62
     0
 10
26072.11808349999
 20
14363.733619000001
 30
0.0
 40
15.0
 50
270.0
 51
90.0
  0
ARC
  5
3977
  8
0
  6
BYBLOCK
 62
     0
 10
26072.11808349999
 20
14363.733619000001
 30
0.0
 40
15.0
 50
90.0
 51
270.0
  0
ARC
  5
3978
  8
0
  6
BYBLOCK
 62
     0
 10
22713.118479499979
 20
20664.232102000031
 30
0.0
 40
15.0
 50
0.0
 51
180.0
  0
ARC
  5
3979
  8
0
  6
BYBLOCK
 62
     0
 10
22713.118479499979
 20
20664.232102000031
 30
0.0
 40
15.0
 50
180.0
 51
0.0
  0
ARC
  5
397A
  8
0
  6
BYBLOCK
 62
     0
 10
23120.61847949999
 20
20664.232102000031
 30
0.0
 40
15.0
 50
180.0
 51
0.0
  0
ARC
  5
397B
  8
0
  6
BYBLOCK
 62
     0
 10
23120.61847949999
 20
20664.232102000031
 30
0.0
 40
15.0
 50
0.0
 51
180.0
  0
ARC
  5
397C
  8
0
  6
BYBLOCK
 62
     0
 10
23821.61847949999
 20
20664.232102000031
 30
0.0
 40
15.0
 50
0.0
 51
180.0
  0
ARC
  5
397D
  8
0
  6
BYBLOCK
 62
     0
 10
23821.61847949999
 20
20664.232102000031
 30
0.0
 40
15.0
 50
180.0
 51
0.0
  0
ARC
  5
397E
  8
0
  6
BYBLOCK
 62
     0
 10
24579.619469000008
 20
20664.232102000031
 30
0.0
 40
15.0
 50
180.0
 51
0.0
  0
ARC
  5
397F
  8
0
  6
BYBLOCK
 62
     0
 10
24579.619469000008
 20
20664.232102000031
 30
0.0
 40
15.0
 50
0.0
 51
180.0
  0
ARC
  5
3980
  8
0
  6
BYBLOCK
 62
     0
 10
23120.61847949999
 20
20664.232102000031
 30
0.0
 40
15.0
 50
0.0
 51
180.0
  0
ARC
  5
3981
  8
0
  6
BYBLOCK
 62
     0
 10
23120.61847949999
 20
20664.232102000031
 30
0.0
 40
15.0
 50
180.0
 51
0.0
  0
ARC
  5
3982
  8
0
  6
BYBLOCK
 62
     0
 10
23821.61847949999
 20
20664.232102000031
 30
0.0
 40
15.0
 50
180.0
 51
0.0
  0
ARC
  5
3983
  8
0
  6
BYBLOCK
 62
     0
 10
23821.61847949999
 20
20664.232102000031
 30
0.0
 40
15.0
 50
0.0
 51
180.0
  0
ARC
  5
3984
  8
0
  6
BYBLOCK
 62
     0
 10
24579.618479500001
 20
20664.232102000031
 30
0.0
 40
15.0
 50
180.0
 51
0.0
  0
ARC
  5
3985
  8
0
  6
BYBLOCK
 62
     0
 10
24579.618479500001
 20
20664.232102000031
 30
0.0
 40
15.0
 50
0.0
 51
180.0
  0
ARC
  5
3986
  8
0
  6
BYBLOCK
 62
     0
 10
24622.11478449999
 20
20664.232102000031
 30
0.0
 40
15.0
 50
0.0
 51
180.0
  0
ARC
  5
3987
  8
0
  6
BYBLOCK
 62
     0
 10
24622.11478449999
 20
20664.232102000031
 30
0.0
 40
15.0
 50
180.0
 51
0.0
  0
ARC
  5
3988
  8
0
  6
BYBLOCK
 62
     0
 10
20145.618479500001
 20
20664.232102000031
 30
0.0
 40
15.0
 50
0.0
 51
180.0
  0
ARC
  5
3989
  8
0
  6
BYBLOCK
 62
     0
 10
20145.618479500001
 20
20664.232102000031
 30
0.0
 40
15.0
 50
180.0
 51
0.0
  0
ARC
  5
398A
  8
0
  6
BYBLOCK
 62
     0
 10
20553.118479500001
 20
20664.232102000031
 30
0.0
 40
15.0
 50
180.0
 51
0.0
  0
ARC
  5
398B
  8
0
  6
BYBLOCK
 62
     0
 10
20553.118479500001
 20
20664.232102000031
 30
0.0
 40
15.0
 50
0.0
 51
180.0
  0
ARC
  5
398C
  8
0
  6
BYBLOCK
 62
     0
 10
20145.618479500001
 20
20664.232102000031
 30
0.0
 40
15.0
 50
0.0
 51
180.0
  0
ARC
  5
398D
  8
0
  6
BYBLOCK
 62
     0
 10
20145.618479500001
 20
20664.232102000031
 30
0.0
 40
15.0
 50
180.0
 51
0.0
  0
ARC
  5
398E
  8
0
  6
BYBLOCK
 62
     0
 10
20103.122174499989
 20
20664.232102000031
 30
0.0
 40
15.0
 50
180.0
 51
0.0
  0
ARC
  5
398F
  8
0
  6
BYBLOCK
 62
     0
 10
20103.122174499989
 20
20664.232102000031
 30
0.0
 40
15.0
 50
0.0
 51
180.0
  0
ARC
  5
3990
  8
0
  6
BYBLOCK
 62
     0
 10
21955.11847949999
 20
20664.232102000031
 30
0.0
 40
15.0
 50
0.0
 51
180.0
  0
ARC
  5
3991
  8
0
  6
BYBLOCK
 62
     0
 10
21955.11847949999
 20
20664.232102000031
 30
0.0
 40
15.0
 50
180.0
 51
0.0
  0
ARC
  5
3992
  8
0
  6
BYBLOCK
 62
     0
 10
22713.119469000001
 20
20664.232102000031
 30
0.0
 40
15.0
 50
180.0
 51
0.0
  0
ARC
  5
3993
  8
0
  6
BYBLOCK
 62
     0
 10
22713.119469000001
 20
20664.232102000031
 30
0.0
 40
15.0
 50
0.0
 51
180.0
  0
ARC
  5
3994
  8
0
  6
BYBLOCK
 62
     0
 10
21254.11847949999
 20
20664.232102000031
 30
0.0
 40
15.0
 50
0.0
 51
180.0
  0
ARC
  5
3995
  8
0
  6
BYBLOCK
 62
     0
 10
21254.11847949999
 20
20664.232102000031
 30
0.0
 40
15.0
 50
180.0
 51
0.0
  0
ARC
  5
3996
  8
0
  6
BYBLOCK
 62
     0
 10
21955.11847949999
 20
20664.232102000031
 30
0.0
 40
15.0
 50
180.0
 51
0.0
  0
ARC
  5
3997
  8
0
  6
BYBLOCK
 62
     0
 10
21955.11847949999
 20
20664.232102000031
 30
0.0
 40
15.0
 50
0.0
 51
180.0
  0
ARC
  5
3998
  8
0
  6
BYBLOCK
 62
     0
 10
20553.118479500001
 20
20664.232102000031
 30
0.0
 40
15.0
 50
0.0
 51
180.0
  0
ARC
  5
3999
  8
0
  6
BYBLOCK
 62
     0
 10
20553.118479500001
 20
20664.232102000031
 30
0.0
 40
15.0
 50
180.0
 51
0.0
  0
ARC
  5
399A
  8
0
  6
BYBLOCK
 62
     0
 10
21254.11847949999
 20
20664.232102000031
 30
0.0
 40
15.0
 50
180.0
 51
0.0
  0
ARC
  5
399B
  8
0
  6
BYBLOCK
 62
     0
 10
21254.11847949999
 20
20664.232102000031
 30
0.0
 40
15.0
 50
0.0
 51
180.0
  0
ARC
  5
399C
  8
0
  6
BYBLOCK
 62
     0
 10
8769.3738785000023
 20
9763.7812800000029
 30
0.0
 40
15.0
 50
180.0
 51
0.0
  0
ARC
  5
399D
  8
0
  6
BYBLOCK
 62
     0
 10
8769.3738785000023
 20
9763.7812800000029
 30
0.0
 40
15.0
 50
0.0
 51
180.0
  0
ARC
  5
399E
  8
0
  6
BYBLOCK
 62
     0
 10
8589.3738785000023
 20
9763.7812800000029
 30
0.0
 40
15.0
 50
0.0
 51
180.0
  0
ARC
  5
399F
  8
0
  6
BYBLOCK
 62
     0
 10
8589.3738785000023
 20
9763.7812800000029
 30
0.0
 40
15.0
 50
180.0
 51
0.0
  0
ARC
  5
39A0
  8
0
  6
BYBLOCK
 62
     0
 10
19295.619139499991
 20
6615.7796039999957
 30
0.0
 40
15.0
 50
90.0
 51
270.0
  0
ARC
  5
39A1
  8
0
  6
BYBLOCK
 62
     0
 10
19295.619139499991
 20
6615.7796039999957
 30
0.0
 40
15.0
 50
270.0
 51
90.0
  0
ARC
  5
39A2
  8
0
  6
BYBLOCK
 62
     0
 10
19295.619139499991
 20
8507.2796039999957
 30
0.0
 40
15.0
 50
270.0
 51
90.0
  0
ARC
  5
39A3
  8
0
  6
BYBLOCK
 62
     0
 10
19295.619139499991
 20
8507.2796039999957
 30
0.0
 40
15.0
 50
90.0
 51
270.0
  0
ARC
  5
39A4
  8
0
  6
BYBLOCK
 62
     0
 10
18895.616830499981
 20
6615.7796039999957
 30
0.0
 40
15.0
 50
90.0
 51
270.0
  0
ARC
  5
39A5
  8
0
  6
BYBLOCK
 62
     0
 10
18895.616830499981
 20
6615.7796039999957
 30
0.0
 40
15.0
 50
270.0
 51
90.0
  0
ARC
  5
39A6
  8
0
  6
BYBLOCK
 62
     0
 10
18895.616830499981
 20
8964.2791089999973
 30
0.0
 40
15.0
 50
270.0
 51
90.0
  0
ARC
  5
39A7
  8
0
  6
BYBLOCK
 62
     0
 10
18895.616830499981
 20
8964.2791089999973
 30
0.0
 40
15.0
 50
90.0
 51
270.0
  0
ARC
  5
39B8
  8
0
  6
BYBLOCK
 62
     0
 10
20239.61847949999
 20
5715.7797689999998
 30
0.0
 40
15.0
 50
0.0
 51
180.0
  0
ARC
  5
39B9
  8
0
  6
BYBLOCK
 62
     0
 10
20239.61847949999
 20
5715.7797689999998
 30
0.0
 40
15.0
 50
180.0
 51
0.0
  0
ARC
  5
39BA
  8
0
  6
BYBLOCK
 62
     0
 10
22619.11847949999
 20
5715.7797689999998
 30
0.0
 40
15.0
 50
180.0
 51
0.0
  0
ARC
  5
39BB
  8
0
  6
BYBLOCK
 62
     0
 10
22619.11847949999
 20
5715.7797689999998
 30
0.0
 40
15.0
 50
0.0
 51
180.0
  0
ARC
  5
39BC
  8
0
  6
BYBLOCK
 62
     0
 10
22807.11847949999
 20
5715.7797689999998
 30
0.0
 40
15.0
 50
0.0
 51
180.0
  0
ARC
  5
39BD
  8
0
  6
BYBLOCK
 62
     0
 10
22807.11847949999
 20
5715.7797689999998
 30
0.0
 40
15.0
 50
180.0
 51
0.0
  0
ARC
  5
39BE
  8
0
  6
BYBLOCK
 62
     0
 10
24485.61847949999
 20
5715.7797689999998
 30
0.0
 40
15.0
 50
180.0
 51
0.0
  0
ARC
  5
39BF
  8
0
  6
BYBLOCK
 62
     0
 10
24485.61847949999
 20
5715.7797689999998
 30
0.0
 40
15.0
 50
0.0
 51
180.0
  0
ARC
  5
39C0
  8
0
  6
BYBLOCK
 62
     0
 10
22713.118479499979
 20
5315.7797690000016
 30
0.0
 40
15.0
 50
0.0
 51
180.0
  0
ARC
  5
39C1
  8
0
  6
BYBLOCK
 62
     0
 10
22713.118479499979
 20
5315.7797690000016
 30
0.0
 40
15.0
 50
180.0
 51
0.0
  0
ARC
  5
39C2
  8
0
  6
BYBLOCK
 62
     0
 10
24579.618479500001
 20
5315.7797690000016
 30
0.0
 40
15.0
 50
180.0
 51
0.0
  0
ARC
  5
39C3
  8
0
  6
BYBLOCK
 62
     0
 10
24579.618479500001
 20
5315.7797690000016
 30
0.0
 40
15.0
 50
0.0
 51
180.0
  0
ARC
  5
39C4
  8
0
  6
BYBLOCK
 62
     0
 10
20145.618479500001
 20
5315.7797690000016
 30
0.0
 40
15.0
 50
0.0
 51
180.0
  0
ARC
  5
39C5
  8
0
  6
BYBLOCK
 62
     0
 10
20145.618479500001
 20
5315.7797690000016
 30
0.0
 40
15.0
 50
180.0
 51
0.0
  0
ARC
  5
39C6
  8
0
  6
BYBLOCK
 62
     0
 10
22713.118479499979
 20
5315.7797690000016
 30
0.0
 40
15.0
 50
180.0
 51
0.0
  0
ARC
  5
39C7
  8
0
  6
BYBLOCK
 62
     0
 10
22713.118479499979
 20
5315.7797690000016
 30
0.0
 40
15.0
 50
0.0
 51
180.0
  0
ARC
  5
39C8
  8
0
  6
BYBLOCK
 62
     0
 10
24579.622438499991
 20
5315.7797690000016
 30
0.0
 40
15.0
 50
180.0
 51
0.0
  0
ARC
  5
39C9
  8
0
  6
BYBLOCK
 62
     0
 10
24579.622438499991
 20
5315.7797690000016
 30
0.0
 40
15.0
 50
0.0
 51
180.0
  0
ARC
  5
39CA
  8
0
  6
BYBLOCK
 62
     0
 10
24622.122438499991
 20
5315.7797690000016
 30
0.0
 40
15.0
 50
0.0
 51
180.0
  0
ARC
  5
39CB
  8
0
  6
BYBLOCK
 62
     0
 10
24622.122438499991
 20
5315.7797690000016
 30
0.0
 40
15.0
 50
180.0
 51
0.0
  0
ARC
  5
39CC
  8
0
  6
BYBLOCK
 62
     0
 10
20145.618479500001
 20
5315.7797690000016
 30
0.0
 40
15.0
 50
0.0
 51
180.0
  0
ARC
  5
39CD
  8
0
  6
BYBLOCK
 62
     0
 10
20145.618479500001
 20
5315.7797690000016
 30
0.0
 40
15.0
 50
180.0
 51
0.0
  0
ARC
  5
39CE
  8
0
  6
BYBLOCK
 62
     0
 10
20103.11847949999
 20
5315.7797690000016
 30
0.0
 40
15.0
 50
180.0
 51
0.0
  0
ARC
  5
39CF
  8
0
  6
BYBLOCK
 62
     0
 10
20103.11847949999
 20
5315.7797690000016
 30
0.0
 40
15.0
 50
0.0
 51
180.0
  0
ARC
  5
39D0
  8
0
  6
BYBLOCK
 62
     0
 10
20103.11847949999
 20
4915.7799339999983
 30
0.0
 40
15.0
 50
0.0
 51
180.0
  0
ARC
  5
39D1
  8
0
  6
BYBLOCK
 62
     0
 10
20103.11847949999
 20
4915.7799339999983
 30
0.0
 40
15.0
 50
180.0
 51
0.0
  0
ARC
  5
39D2
  8
0
  6
BYBLOCK
 62
     0
 10
24622.11847949999
 20
4915.7799339999983
 30
0.0
 40
15.0
 50
180.0
 51
0.0
  0
ARC
  5
39D3
  8
0
  6
BYBLOCK
 62
     0
 10
24622.11847949999
 20
4915.7799339999983
 30
0.0
 40
15.0
 50
0.0
 51
180.0
  0
ARC
  5
39D4
  8
0
  6
BYBLOCK
 62
     0
 10
15429.87229449999
 20
6615.7796040000021
 30
0.0
 40
15.0
 50
90.0
 51
270.0
  0
ARC
  5
39D5
  8
0
  6
BYBLOCK
 62
     0
 10
15429.87229449999
 20
6615.7796040000021
 30
0.0
 40
15.0
 50
270.0
 51
90.0
  0
ARC
  5
39D6
  8
0
  6
BYBLOCK
 62
     0
 10
15429.87229449999
 20
8964.279604000003
 30
0.0
 40
15.0
 50
270.0
 51
90.0
  0
ARC
  5
39D7
  8
0
  6
BYBLOCK
 62
     0
 10
15429.87229449999
 20
8964.279604000003
 30
0.0
 40
15.0
 50
90.0
 51
270.0
  0
ARC
  5
39D8
  8
0
  6
BYBLOCK
 62
     0
 10
7679.3754605000104
 20
6615.7796040000021
 30
0.0
 40
15.0
 50
90.0
 51
270.0
  0
ARC
  5
39D9
  8
0
  6
BYBLOCK
 62
     0
 10
7679.3754605000104
 20
6615.7796040000021
 30
0.0
 40
15.0
 50
270.0
 51
90.0
  0
ARC
  5
39DA
  8
0
  6
BYBLOCK
 62
     0
 10
7679.3754605000104
 20
8771.7796040000067
 30
0.0
 40
15.0
 50
270.0
 51
90.0
  0
ARC
  5
39DB
  8
0
  6
BYBLOCK
 62
     0
 10
7679.3754605000104
 20
8771.7796040000067
 30
0.0
 40
15.0
 50
90.0
 51
270.0
  0
ARC
  5
39DC
  8
0
  6
BYBLOCK
 62
     0
 10
8589.3738785000023
 20
10163.779630000001
 30
0.0
 40
15.0
 50
0.0
 51
180.0
  0
ARC
  5
39DD
  8
0
  6
BYBLOCK
 62
     0
 10
8589.3738785000023
 20
10163.779630000001
 30
0.0
 40
15.0
 50
180.0
 51
0.0
  0
ARC
  5
39DE
  8
0
  6
BYBLOCK
 62
     0
 10
14489.873878500001
 20
10163.779630000001
 30
0.0
 40
15.0
 50
180.0
 51
0.0
  0
ARC
  5
39DF
  8
0
  6
BYBLOCK
 62
     0
 10
14489.873878500001
 20
10163.779630000001
 30
0.0
 40
15.0
 50
0.0
 51
180.0
  0
ARC
  5
39E0
  8
0
  6
BYBLOCK
 62
     0
 10
14339.873878500001
 20
9763.7812800000029
 30
0.0
 40
15.0
 50
180.0
 51
0.0
  0
ARC
  5
39E1
  8
0
  6
BYBLOCK
 62
     0
 10
14339.873878500001
 20
9763.7812800000029
 30
0.0
 40
15.0
 50
0.0
 51
180.0
  0
ARC
  5
39E2
  8
0
  6
BYBLOCK
 62
     0
 10
14489.873878500001
 20
9763.7812800000029
 30
0.0
 40
15.0
 50
0.0
 51
180.0
  0
ARC
  5
39E3
  8
0
  6
BYBLOCK
 62
     0
 10
14489.873878500001
 20
9763.7812800000029
 30
0.0
 40
15.0
 50
180.0
 51
0.0
  0
ARC
  5
39E4
  8
0
  6
BYBLOCK
 62
     0
 10
8769.3738785000023
 20
9763.7812800000029
 30
0.0
 40
15.0
 50
0.0
 51
180.0
  0
ARC
  5
39E5
  8
0
  6
BYBLOCK
 62
     0
 10
8769.3738785000023
 20
9763.7812800000029
 30
0.0
 40
15.0
 50
180.0
 51
0.0
  0
ARC
  5
39E6
  8
0
  6
BYBLOCK
 62
     0
 10
14339.873878500001
 20
9763.7812800000029
 30
0.0
 40
15.0
 50
180.0
 51
0.0
  0
ARC
  5
39E7
  8
0
  6
BYBLOCK
 62
     0
 10
14339.873878500001
 20
9763.7812800000029
 30
0.0
 40
15.0
 50
0.0
 51
180.0
  0
ARC
  5
39E8
  8
0
  6
BYBLOCK
 62
     0
 10
8769.3738785000023
 20
4915.7799340000047
 30
0.0
 40
15.0
 50
0.0
 51
180.0
  0
ARC
  5
39E9
  8
0
  6
BYBLOCK
 62
     0
 10
8769.3738785000023
 20
4915.7799340000047
 30
0.0
 40
15.0
 50
180.0
 51
0.0
  0
ARC
  5
39EA
  8
0
  6
BYBLOCK
 62
     0
 10
14339.873878500001
 20
4915.7799340000047
 30
0.0
 40
15.0
 50
180.0
 51
0.0
  0
ARC
  5
39EB
  8
0
  6
BYBLOCK
 62
     0
 10
14339.873878500001
 20
4915.7799340000047
 30
0.0
 40
15.0
 50
0.0
 51
180.0
  0
ARC
  5
39EC
  8
0
  6
BYBLOCK
 62
     0
 10
14297.373878500001
 20
5315.7797690000052
 30
0.0
 40
15.0
 50
180.0
 51
0.0
  0
ARC
  5
39ED
  8
0
  6
BYBLOCK
 62
     0
 10
14297.373878500001
 20
5315.7797690000052
 30
0.0
 40
15.0
 50
0.0
 51
180.0
  0
ARC
  5
39EE
  8
0
  6
BYBLOCK
 62
     0
 10
14339.873878500001
 20
5315.7797690000052
 30
0.0
 40
15.0
 50
0.0
 51
180.0
  0
ARC
  5
39EF
  8
0
  6
BYBLOCK
 62
     0
 10
14339.873878500001
 20
5315.7797690000052
 30
0.0
 40
15.0
 50
180.0
 51
0.0
  0
ARC
  5
39F0
  8
0
  6
BYBLOCK
 62
     0
 10
8811.8738785000005
 20
5315.7797690000052
 30
0.0
 40
15.0
 50
0.0
 51
180.0
  0
ARC
  5
39F1
  8
0
  6
BYBLOCK
 62
     0
 10
8811.8738785000005
 20
5315.7797690000052
 30
0.0
 40
15.0
 50
180.0
 51
0.0
  0
ARC
  5
39F2
  8
0
  6
BYBLOCK
 62
     0
 10
8769.3738785000023
 20
5315.7797690000052
 30
0.0
 40
15.0
 50
180.0
 51
0.0
  0
ARC
  5
39F3
  8
0
  6
BYBLOCK
 62
     0
 10
8769.3738785000023
 20
5315.7797690000052
 30
0.0
 40
15.0
 50
0.0
 51
180.0
  0
ARC
  5
39F4
  8
0
  6
BYBLOCK
 62
     0
 10
11379.373878500001
 20
5315.7797690000052
 30
0.0
 40
15.0
 50
180.0
 51
0.0
  0
ARC
  5
39F5
  8
0
  6
BYBLOCK
 62
     0
 10
11379.373878500001
 20
5315.7797690000052
 30
0.0
 40
15.0
 50
0.0
 51
180.0
  0
ARC
  5
39F6
  8
0
  6
BYBLOCK
 62
     0
 10
8811.8738785000005
 20
5315.7797690000052
 30
0.0
 40
15.0
 50
0.0
 51
180.0
  0
ARC
  5
39F7
  8
0
  6
BYBLOCK
 62
     0
 10
8811.8738785000005
 20
5315.7797690000052
 30
0.0
 40
15.0
 50
180.0
 51
0.0
  0
ARC
  5
39F8
  8
0
  6
BYBLOCK
 62
     0
 10
11379.373878500001
 20
5315.7797690000052
 30
0.0
 40
15.0
 50
0.0
 51
180.0
  0
ARC
  5
39F9
  8
0
  6
BYBLOCK
 62
     0
 10
11379.373878500001
 20
5315.7797690000052
 30
0.0
 40
15.0
 50
180.0
 51
0.0
  0
ARC
  5
39FA
  8
0
  6
BYBLOCK
 62
     0
 10
14297.373878500001
 20
5315.7797690000052
 30
0.0
 40
15.0
 50
180.0
 51
0.0
  0
ARC
  5
39FB
  8
0
  6
BYBLOCK
 62
     0
 10
14297.373878500001
 20
5315.7797690000052
 30
0.0
 40
15.0
 50
0.0
 51
180.0
  0
LINE
  5
3B23
  8
0-1
  6
CONTINUOUS
 62
     3
 10
24516.121461499992
 20
8714.2796239999971
 30
0.0
 11
24516.121461499992
 21
8746.2795310000001
 31
0.0
  0
LINE
  5
3B24
  8
0-1
  6
CONTINUOUS
 62
     3
 10
24665.120854500001
 20
8638.0929020000021
 30
0.0
 11
24622.118743499981
 21
8638.0929020000021
 31
0.0
  0
LINE
  5
3B25
  8
0-1
  6
CONTINUOUS
 62
     3
 10
24665.120854500001
 20
8964.2799530000029
 30
0.0
 11
24665.120854500001
 21
8638.0929020000021
 31
0.0
  0
LINE
  5
3B26
  8
0-1
  6
CONTINUOUS
 62
     3
 10
24230.154268500009
 20
8710.7442029999984
 30
0.0
 11
24198.155351500001
 21
8742.7441109999982
 31
0.0
  0
LINE
  5
3B27
  8
0-1
  6
CONTINUOUS
 62
     3
 10
24511.121197499979
 20
8751.2797950000004
 30
0.0
 11
24201.690771500002
 21
8751.2797950000004
 31
0.0
  0
LINE
  5
3B28
  8
0-1
  6
CONTINUOUS
 62
     3
 10
24516.121461499992
 20
8742.8806980000045
 30
0.0
 11
24198.024702499992
 21
8742.8806980000045
 31
0.0
  0
LINE
  5
3B29
  8
0-1
  6
CONTINUOUS
 62
     3
 10
24511.121197499979
 20
8709.2793600000005
 30
0.0
 11
24233.691668499989
 21
8709.2793600000005
 31
0.0
  0
LINE
  5
3B2A
  8
0-1
  6
CONTINUOUS
 62
     3
 10
24516.121461499992
 20
8717.6794470000004
 30
0.0
 11
24223.220015499988
 21
8717.6794470000004
 31
0.0
  0
LINE
  5
3B2B
  8
0-1
  6
CONTINUOUS
 62
     3
 10
24516.121461499992
 20
8726.0795339999986
 30
0.0
 11
24214.820917500001
 21
8726.0795339999986
 31
0.0
  0
LINE
  5
3B2C
  8
0-1
  6
CONTINUOUS
 62
     3
 10
24516.121461499992
 20
8734.4806109999972
 30
0.0
 11
24206.419841499988
 21
8734.4806109999972
 31
0.0
  0
LINE
  5
3B2D
  8
0-1
  6
CONTINUOUS
 62
     3
 10
23062.584669500018
 20
8710.7442029999984
 30
0.0
 11
23094.581607500018
 21
8742.7441109999982
 31
0.0
  0
LINE
  5
3B2E
  8
0-1
  6
CONTINUOUS
 62
     3
 10
22776.619455500018
 20
8714.2796239999971
 30
0.0
 11
22776.619455500018
 21
8746.2795310000001
 31
0.0
  0
LINE
  5
3B2F
  8
0-1
  6
CONTINUOUS
 62
     3
 10
22776.619455500018
 20
8717.6794470000004
 30
0.0
 11
23069.516943499999
 21
8717.6794470000004
 31
0.0
  0
LINE
  5
3B30
  8
0-1
  6
CONTINUOUS
 62
     3
 10
22776.619455500018
 20
8726.0795339999986
 30
0.0
 11
23077.918020500008
 21
8726.0795339999986
 31
0.0
  0
LINE
  5
3B31
  8
0-1
  6
CONTINUOUS
 62
     3
 10
22781.619719499999
 20
8709.2793600000005
 30
0.0
 11
23059.04726950001
 21
8709.2793600000005
 31
0.0
  0
LINE
  5
3B32
  8
0-1
  6
CONTINUOUS
 62
     3
 10
22776.619455500018
 20
8734.4806109999972
 30
0.0
 11
23086.317117500021
 21
8734.4806109999972
 31
0.0
  0
LINE
  5
3B33
  8
0-1
  6
CONTINUOUS
 62
     3
 10
22776.619455500018
 20
8742.8806980000045
 30
0.0
 11
23094.714235500021
 21
8742.8806980000045
 31
0.0
  0
LINE
  5
3B34
  8
0-1
  6
CONTINUOUS
 62
     3
 10
22781.619719499999
 20
8751.2797950000004
 30
0.0
 11
23091.04816650003
 21
8751.2797950000004
 31
0.0
  0
LINE
  5
3B35
  8
0-1
  6
CONTINUOUS
 62
     3
 10
24665.120854500012
 20
8834.2790299999979
 30
0.0
 11
22713.118479500001
 21
8834.2790299999979
 31
0.0
  0
LINE
  5
3B36
  8
0-1
  6
CONTINUOUS
 62
     3
 10
22755.616763500009
 20
8760.2796760000001
 30
0.0
 11
24537.120194499988
 21
8760.2796760000001
 31
0.0
  0
LINE
  5
3B37
  8
0-1
  6
CONTINUOUS
 62
     3
 10
22755.616763500009
 20
8700.2794779999967
 30
0.0
 11
24537.120194499988
 21
8700.2794779999967
 31
0.0
  0
LINE
  5
3B38
  8
0-1
  6
CONTINUOUS
 62
     3
 10
22713.118479500001
 20
8964.2799530000029
 30
0.0
 11
24665.120854500012
 21
8964.2799530000029
 31
0.0
  0
LINE
  5
3B39
  8
0-1
  6
CONTINUOUS
 62
     3
 10
22649.617503500001
 20
8714.2796239999971
 30
0.0
 11
22649.617503500001
 21
8746.2795310000001
 31
0.0
  0
LINE
  5
3B3A
  8
0-1
  6
CONTINUOUS
 62
     3
 10
22363.656248499989
 20
8710.7442029999984
 30
0.0
 11
22331.655351500001
 21
8742.7441109999982
 31
0.0
  0
LINE
  5
3B3B
  8
0-1
  6
CONTINUOUS
 62
     3
 10
22649.617503500001
 20
8742.8806980000045
 30
0.0
 11
22331.524703499981
 21
8742.8806980000045
 31
0.0
  0
LINE
  5
3B3C
  8
0-1
  6
CONTINUOUS
 62
     3
 10
22649.617503500001
 20
8734.4806109999972
 30
0.0
 11
22339.919841499988
 21
8734.4806109999972
 31
0.0
  0
LINE
  5
3B3D
  8
0-1
  6
CONTINUOUS
 62
     3
 10
22649.617503500001
 20
8726.0795339999986
 30
0.0
 11
22348.318938500001
 21
8726.0795339999986
 31
0.0
  0
LINE
  5
3B3E
  8
0-1
  6
CONTINUOUS
 62
     3
 10
22649.617503500001
 20
8717.6794470000004
 30
0.0
 11
22356.71803649998
 21
8717.6794470000004
 31
0.0
  0
LINE
  5
3B3F
  8
0-1
  6
CONTINUOUS
 62
     3
 10
22644.619218499989
 20
8751.2797950000004
 30
0.0
 11
22335.188792500001
 21
8751.2797950000004
 31
0.0
  0
LINE
  5
3B40
  8
0-1
  6
CONTINUOUS
 62
     3
 10
22644.619218499989
 20
8709.2793600000005
 30
0.0
 11
22367.191669499989
 21
8709.2793600000005
 31
0.0
  0
LINE
  5
3B41
  8
0-1
  6
CONTINUOUS
 62
     3
 10
20214.117740500002
 20
8709.2793600000005
 30
0.0
 11
20491.54727049997
 21
8709.2793600000005
 31
0.0
  0
LINE
  5
3B42
  8
0-1
  6
CONTINUOUS
 62
     3
 10
20209.119456500001
 20
8714.2796239999971
 30
0.0
 11
20209.119456500001
 21
8746.2795310000001
 31
0.0
  0
LINE
  5
3B43
  8
0-1
  6
CONTINUOUS
 62
     3
 10
20060.11808449998
 20
8638.0929020000021
 30
0.0
 11
20103.116236500009
 21
8638.0929020000021
 31
0.0
  0
LINE
  5
3B44
  8
0-1
  6
CONTINUOUS
 62
     3
 10
20060.11808449998
 20
8638.0929020000021
 30
0.0
 11
20060.11808449998
 21
8964.2799530000029
 31
0.0
  0
LINE
  5
3B45
  8
0-1
  6
CONTINUOUS
 62
     3
 10
20214.117740500002
 20
8751.2797950000004
 30
0.0
 11
20523.548167500001
 21
8751.2797950000004
 31
0.0
  0
LINE
  5
3B46
  8
0-1
  6
CONTINUOUS
 62
     3
 10
20495.080710499999
 20
8710.7442029999984
 30
0.0
 11
20527.08160849999
 21
8742.7441109999982
 31
0.0
  0
LINE
  5
3B47
  8
0-1
  6
CONTINUOUS
 62
     3
 10
20209.119456500001
 20
8742.8806980000045
 30
0.0
 11
20527.2142355
 21
8742.8806980000045
 31
0.0
  0
LINE
  5
3B48
  8
0-1
  6
CONTINUOUS
 62
     3
 10
20209.119456500001
 20
8734.4806109999972
 30
0.0
 11
20518.81711850001
 21
8734.4806109999972
 31
0.0
  0
LINE
  5
3B49
  8
0-1
  6
CONTINUOUS
 62
     3
 10
20209.119456500001
 20
8726.0795339999986
 30
0.0
 11
20510.418020500008
 21
8726.0795339999986
 31
0.0
  0
LINE
  5
3B4A
  8
0-1
  6
CONTINUOUS
 62
     3
 10
20209.119456500001
 20
8717.6794470000004
 30
0.0
 11
20502.0189235
 21
8717.6794470000004
 31
0.0
  0
LINE
  5
3B4B
  8
0-1
  6
CONTINUOUS
 62
     3
 10
20188.11676450001
 20
8700.2794779999967
 30
0.0
 11
22670.618215499991
 21
8700.2794779999967
 31
0.0
  0
LINE
  5
3B4C
  8
0-1
  6
CONTINUOUS
 62
     3
 10
20188.11676450001
 20
8760.2796760000001
 30
0.0
 11
22670.618215499991
 21
8760.2796760000001
 31
0.0
  0
LINE
  5
3B4D
  8
0-1
  6
CONTINUOUS
 62
     3
 10
20060.11808449998
 20
8964.2799530000029
 30
0.0
 11
22713.118479500001
 21
8964.2799530000029
 31
0.0
  0
LINE
  5
3B4E
  8
0-1
  6
CONTINUOUS
 62
     3
 10
22713.118479500001
 20
8834.2790299999979
 30
0.0
 11
20060.11808449998
 21
8834.2790299999979
 31
0.0
  0
LINE
  5
3B4F
  8
0-1
  6
CONTINUOUS
 62
     3
 10
22713.118479500001
 20
8834.2790299999979
 30
0.0
 11
22713.118479500001
 21
8964.2799530000029
 31
0.0
  0
LINE
  5
3B50
  8
0-1
  6
CONTINUOUS
 62
     3
 10
22713.118479500001
 20
8834.2790299999979
 30
0.0
 11
22713.118479500001
 21
8964.2799530000029
 31
0.0
  0
ARC
  5
3B51
  8
0-1
  6
CONTINUOUS
 62
     3
 10
24511.121197499979
 20
8746.2795310000001
 30
0.0
 40
5.0
 50
0.0
 51
90.0
  0
ARC
  5
3B52
  8
0-1
  6
CONTINUOUS
 62
     3
 10
24511.121197499979
 20
8714.2796239999971
 30
0.0
 40
5.0
 50
269.9999850001808
 51
0.0
  0
ARC
  5
3B53
  8
0-1
  6
CONTINUOUS
 62
     3
 10
24201.690771500002
 20
8746.2795310000001
 30
0.0
 40
5.0
 50
90.0
 51
224.99998499997989
  0
ARC
  5
3B54
  8
0-1
  6
CONTINUOUS
 62
     3
 10
24233.691668499989
 20
8714.2796239999971
 30
0.0
 40
5.0
 50
224.99998499997989
 51
269.9999850001808
  0
ARC
  5
3B55
  8
0-1
  6
CONTINUOUS
 62
     3
 10
23091.04816650003
 20
8746.2795310000001
 30
0.0
 40
5.0
 50
314.99998500027471
 51
90.0
  0
ARC
  5
3B56
  8
0-1
  6
CONTINUOUS
 62
     3
 10
23059.04726950001
 20
8714.2796239999971
 30
0.0
 40
5.0
 50
269.9999850001808
 51
314.99998500027471
  0
ARC
  5
3B57
  8
0-1
  6
CONTINUOUS
 62
     3
 10
22781.619719499999
 20
8714.2796239999971
 30
0.0
 40
5.0
 50
180.0
 51
269.9999850001808
  0
ARC
  5
3B58
  8
0-1
  6
CONTINUOUS
 62
     3
 10
22781.619719499999
 20
8746.2795310000001
 30
0.0
 40
5.0
 50
90.0
 51
180.0
  0
ARC
  5
3B59
  8
0-1
  6
CONTINUOUS
 62
     3
 10
22644.619218499989
 20
8714.2796239999971
 30
0.0
 40
5.0
 50
269.9999850001808
 51
0.0
  0
ARC
  5
3B5A
  8
0-1
  6
CONTINUOUS
 62
     3
 10
22644.619218499989
 20
8746.2795310000001
 30
0.0
 40
5.0
 50
0.0
 51
90.0
  0
ARC
  5
3B5B
  8
0-1
  6
CONTINUOUS
 62
     3
 10
22335.188792500001
 20
8746.2795310000001
 30
0.0
 40
5.0
 50
90.0
 51
224.99998499997989
  0
ARC
  5
3B5C
  8
0-1
  6
CONTINUOUS
 62
     3
 10
22367.191669499989
 20
8714.2796239999971
 30
0.0
 40
5.0
 50
224.99998499997989
 51
269.9999850001808
  0
ARC
  5
3B5D
  8
0-1
  6
CONTINUOUS
 62
     3
 10
20523.548167500001
 20
8746.2795310000001
 30
0.0
 40
5.0
 50
314.99998500027471
 51
90.0
  0
ARC
  5
3B5E
  8
0-1
  6
CONTINUOUS
 62
     3
 10
20214.117740500002
 20
8746.2795310000001
 30
0.0
 40
5.0
 50
90.0
 51
180.0
  0
ARC
  5
3B5F
  8
0-1
  6
CONTINUOUS
 62
     3
 10
20214.117740500002
 20
8714.2796239999971
 30
0.0
 40
5.0
 50
180.0
 51
269.9999850001808
  0
ARC
  5
3B60
  8
0-1
  6
CONTINUOUS
 62
     3
 10
20491.54727049997
 20
8714.2796239999971
 30
0.0
 40
5.0
 50
269.9999850001808
 51
314.99998500027471
  0
LINE
  5
3B61
  8
SUNPOU
  6
CONTINUOUS
 62
     4
 10
20060.116104499979
 20
9044.2799530000029
 30
0.0
 11
20060.116104499979
 21
10243.737564999999
 31
0.0
  0
LINE
  5
3B62
  8
SUNPOU
  6
CONTINUOUS
 62
     4
 10
24665.120854500001
 20
9044.2799530000029
 30
0.0
 11
24665.120854500001
 21
10243.737564999999
 31
0.0
  0
LINE
  5
3B63
  8
SUNPOU
  6
CONTINUOUS
 62
     4
 10
20063.116104499979
 20
10163.737564999999
 30
0.0
 11
24662.120854500001
 21
10163.737564999999
 31
0.0
  0
LINE
  5
3B64
  8
SUNPOU
  6
CONTINUOUS
 62
     4
 10
20103.118215499981
 20
9044.2799530000029
 30
0.0
 11
20103.118215499981
 21
9843.7797950000004
 31
0.0
  0
LINE
  5
3B65
  8
SUNPOU
  6
CONTINUOUS
 62
     4
 10
24622.118743499981
 20
9044.2799530000029
 30
0.0
 11
24622.118743499981
 21
9843.7797950000004
 31
0.0
  0
LINE
  5
3B66
  8
SUNPOU
  6
CONTINUOUS
 62
     4
 10
20103.118215499981
 20
9763.7797950000004
 30
0.0
 11
24622.118743499981
 21
9763.7797950000004
 31
0.0
  0
LINE
  5
3B67
  8
SUNPOU
  6
CONTINUOUS
 62
     4
 10
20103.118215499981
 20
9044.2799530000029
 30
0.0
 11
20103.118215499981
 21
9843.7797950000004
 31
0.0
  0
LINE
  5
3B68
  8
SUNPOU
  6
CONTINUOUS
 62
     4
 10
20060.116104499979
 20
9044.2799530000029
 30
0.0
 11
20060.116104499979
 21
9843.7797950000004
 31
0.0
  0
LINE
  5
3B69
  8
SUNPOU
  6
CONTINUOUS
 62
     4
 10
20103.118215499981
 20
9763.7797950000004
 30
0.0
 11
20343.118215499981
 21
9763.7797950000004
 31
0.0
  0
LINE
  5
3B6A
  8
SUNPOU
  6
CONTINUOUS
 62
     4
 10
20063.116104499979
 20
9763.7797950000004
 30
0.0
 11
19823.116104500001
 21
9763.7797950000004
 31
0.0
  0
LINE
  5
3B6B
  8
SUNPOU
  6
CONTINUOUS
 62
     4
 10
20103.118215499981
 20
9763.7797950000004
 30
0.0
 11
20063.116104499979
 21
9763.7797950000004
 31
0.0
  0
LINE
  5
3B6C
  8
SUNPOU
  6
CONTINUOUS
 62
     4
 10
24622.118743499981
 20
9044.2799530000029
 30
0.0
 11
24622.118743499981
 21
9843.7797950000004
 31
0.0
  0
LINE
  5
3B6D
  8
SUNPOU
  6
CONTINUOUS
 62
     4
 10
24665.120854500001
 20
9044.2799530000029
 30
0.0
 11
24665.120854500001
 21
9843.7797950000004
 31
0.0
  0
LINE
  5
3B6E
  8
SUNPOU
  6
CONTINUOUS
 62
     4
 10
24622.118743499981
 20
9763.7797950000004
 30
0.0
 11
24382.118743499981
 21
9763.7797950000004
 31
0.0
  0
LINE
  5
3B6F
  8
SUNPOU
  6
CONTINUOUS
 62
     4
 10
24662.120854500001
 20
9763.7797950000004
 30
0.0
 11
24902.120854500001
 21
9763.7797950000004
 31
0.0
  0
LINE
  5
3B70
  8
SUNPOU
  6
CONTINUOUS
 62
     4
 10
24622.118743499981
 20
9763.7797950000004
 30
0.0
 11
24662.120854500001
 21
9763.7797950000004
 31
0.0
  0
TEXT
  5
3B71
  8
0
  6
CONTINUOUS
 62
     7
 10
24782.120854500001
 20
9843.7797950000004
 30
0.0
 40
160.0
  1
43
  0
TEXT
  5
3B72
  8
0
  6
CONTINUOUS
 62
     7
 10
19703.116104500001
 20
9843.7797950000004
 30
0.0
 40
160.0
  1
43
  0
TEXT
  5
3B73
  8
0
  6
CONTINUOUS
 62
     7
 10
22095.951812833329
 20
9843.7797950000004
 30
0.0
 40
160.0
  1
4519
  0
TEXT
  5
3B74
  8
0
  6
CONTINUOUS
 62
     7
 10
22069.285146166669
 20
10243.737564999999
 30
0.0
 40
160.0
  1
4605
  0
ARC
  5
3B75
  8
0
  6
BYBLOCK
 62
     0
 10
20060.116104499979
 20
10163.737564999999
 30
0.0
 40
15.0
 50
0.0
 51
180.0
  0
ARC
  5
3B76
  8
0
  6
BYBLOCK
 62
     0
 10
20060.116104499979
 20
10163.737564999999
 30
0.0
 40
15.0
 50
180.0
 51
0.0
  0
ARC
  5
3B77
  8
0
  6
BYBLOCK
 62
     0
 10
24665.120854500001
 20
10163.737564999999
 30
0.0
 40
15.0
 50
180.0
 51
0.0
  0
ARC
  5
3B78
  8
0
  6
BYBLOCK
 62
     0
 10
24665.120854500001
 20
10163.737564999999
 30
0.0
 40
15.0
 50
0.0
 51
180.0
  0
ARC
  5
3B79
  8
0
  6
BYBLOCK
 62
     0
 10
20103.118215499981
 20
9763.7797950000004
 30
0.0
 40
15.0
 50
0.0
 51
180.0
  0
ARC
  5
3B7A
  8
0
  6
BYBLOCK
 62
     0
 10
20103.118215499981
 20
9763.7797950000004
 30
0.0
 40
15.0
 50
180.0
 51
0.0
  0
ARC
  5
3B7B
  8
0
  6
BYBLOCK
 62
     0
 10
24622.118743499981
 20
9763.7797950000004
 30
0.0
 40
15.0
 50
180.0
 51
0.0
  0
ARC
  5
3B7C
  8
0
  6
BYBLOCK
 62
     0
 10
24622.118743499981
 20
9763.7797950000004
 30
0.0
 40
15.0
 50
0.0
 51
180.0
  0
ARC
  5
3B7D
  8
0
  6
BYBLOCK
 62
     0
 10
20103.118215499981
 20
9763.7797950000004
 30
0.0
 40
15.0
 50
0.0
 51
180.0
  0
ARC
  5
3B7E
  8
0
  6
BYBLOCK
 62
     0
 10
20103.118215499981
 20
9763.7797950000004
 30
0.0
 40
15.0
 50
180.0
 51
0.0
  0
ARC
  5
3B7F
  8
0
  6
BYBLOCK
 62
     0
 10
20060.116104499979
 20
9763.7797950000004
 30
0.0
 40
15.0
 50
180.0
 51
0.0
  0
ARC
  5
3B80
  8
0
  6
BYBLOCK
 62
     0
 10
20060.116104499979
 20
9763.7797950000004
 30
0.0
 40
15.0
 50
0.0
 51
180.0
  0
ARC
  5
3B81
  8
0
  6
BYBLOCK
 62
     0
 10
24622.118743499981
 20
9763.7797950000004
 30
0.0
 40
15.0
 50
180.0
 51
0.0
  0
ARC
  5
3B82
  8
0
  6
BYBLOCK
 62
     0
 10
24622.118743499981
 20
9763.7797950000004
 30
0.0
 40
15.0
 50
0.0
 51
180.0
  0
ARC
  5
3B83
  8
0
  6
BYBLOCK
 62
     0
 10
24665.120854500001
 20
9763.7797950000004
 30
0.0
 40
15.0
 50
0.0
 51
180.0
  0
ARC
  5
3B84
  8
0
  6
BYBLOCK
 62
     0
 10
24665.120854500001
 20
9763.7797950000004
 30
0.0
 40
15.0
 50
180.0
 51
0.0
  0
LINE
  5
3B92
  8
SUNPOU
  6
CONTINUOUS
 62
     4
 10
9767.6607494999898
 20
14136.729660999999
 30
0.0
 11
9767.6607494999898
 21
12957.78283
 31
0.0
  0
LINE
  5
3B93
  8
SUNPOU
  6
CONTINUOUS
 62
     4
 10
14369.65956149999
 20
14133.729660999999
 30
0.0
 11
14369.65956149999
 21
12954.78283
 31
0.0
  0
LINE
  5
3B94
  8
SUNPOU
  6
CONTINUOUS
 62
     4
 10
9767.6607494999898
 20
13034.78283
 30
0.0
 11
14366.65956149999
 21
13034.78283
 31
0.0
  0
TEXT
  5
3B95
  8
0
  6
CONTINUOUS
 62
     7
 10
11251.16015549998
 20
13114.78283
 30
0.0
 40
160.0
  1
ケラバ外寸 4605
  0
ARC
  5
3B96
  8
0
  6
BYBLOCK
 62
     0
 10
9767.6607494999898
 20
13037.78283
 30
0.0
 40
15.0
 50
0.0
 51
180.0
  0
ARC
  5
3B97
  8
0
  6
BYBLOCK
 62
     0
 10
9767.6607494999898
 20
13037.78283
 30
0.0
 40
15.0
 50
180.0
 51
0.0
  0
ARC
  5
3B98
  8
0
  6
BYBLOCK
 62
     0
 10
14369.65956149999
 20
13034.78283
 30
0.0
 40
15.0
 50
180.0
 51
0.0
  0
ARC
  5
3B99
  8
0
  6
BYBLOCK
 62
     0
 10
14369.65956149999
 20
13034.78283
 30
0.0
 40
15.0
 50
0.0
 51
180.0
  0
TEXT
  5
3BF0
  8
NAME
 10
21933.552716389011
 20
1876.0
 30
0.0
 40
360.0
  1
ヨドガレージ ラヴィージュ
 41
0.75
  7
01
  0
LINE
  5
3BF1
  8
NAME
  6
CONTINUOUS
 10
26067.886878884299
 20
2236.0
 30
0.0
 11
26067.886878884299
 21
1876.0
 31
0.0
  0
LINE
  5
3BF2
  8
NAME
  6
CONTINUOUS
 10
26167.886878884299
 20
2236.0
 30
0.0
 11
26167.886878884299
 21
1876.0
 31
0.0
  0
LINE
  5
3BF3
  8
NAME
  6
CONTINUOUS
 10
26267.88687888431
 20
2236.0
 30
0.0
 11
26267.88687888431
 21
1876.0
 31
0.0
  0
LINE
  5
3BF4
  8
NAME
  6
CONTINUOUS
 10
26007.886878884299
 20
2236.0
 30
0.0
 11
26327.886878884299
 21
2236.0
 31
0.0
  0
LINE
  5
3BF5
  8
NAME
  6
CONTINUOUS
 10
26327.886878884299
 20
1876.0
 30
0.0
 11
26007.886878884299
 21
1876.0
 31
0.0
  0
TEXT
  5
3C40
  8
NAME
 10
25530.0929137735
 20
1076.0
 30
0.0
 40
360.0
  1
型（単棟）
 41
0.6
  7
01
  0
TEXT
  5
3C41
  8
NAME
 10
21583.547829600921
 20
1076.6369801169251
 30
0.0
 40
360.0
  1
VGC-2655（H）+1955（H）
 41
0.55
  0
TEXT
  5
3CDB
  8
FILENAME
  6
CONTINUOUS
 10
27746.857142857141
 20
348.0
 30
0.0
 40
200.0
  1
＜VGC-2655+1955-1-A_0.DXF ＞
  7
FILENAME
 72
     2
 11
32764.0
 21
348.0
 31
0.0
  0
LINE
  5
3CE1
  8
WAKUSEN-01
 10
868.00000000000193
 20
827.99999999999955
 30
0.0
 11
32764.000000000011
 21
827.99999999999943
 31
0.0
  0
LINE
  5
3CE2
  8
WAKUSEN-01
 10
868.00000000000193
 20
827.99999999999955
 30
0.0
 11
868.00000000000193
 21
22484.000000000011
 31
0.0
  0
LINE
  5
3CE3
  8
WAKUSEN-01
 10
32764.000000000011
 20
827.99999999999943
 30
0.0
 11
32764.000000000011
 21
22484.000000000011
 31
0.0
  0
LINE
  5
3CE4
  8
WAKUSEN-01
 10
20560.0
 20
827.99999999999716
 30
0.0
 11
20560.0
 21
2484.0
 31
0.0
  0
LINE
  5
3CE5
  8
WAKUSEN-02
 10
26868.0
 20
827.99999999999261
 30
0.0
 11
26868.0
 21
2484.0
 31
0.0
  0
ENDSEC
  0
EOF
