  0
SECTION
  2
HEADER
  9
$ACADVER
  1
AC1009
  9
$INSBASE
 10
0.0
 20
0.0
 30
0.0
  9
$EXTMIN
 10
867.99324330406671
 20
327.38164749855792
 30
-0.000000000000013
  9
$EXTMAX
 10
32765.33210850941
 20
22484.553276491992
 30
0.0000000000000023
  9
$LIMMIN
 10
0.0
 20
0.0
  9
$LIMMAX
 10
33600.0
 20
23760.0
  9
$ORTHOMODE
 70
     1
  9
$REGENMODE
 70
     1
  9
$FILLMODE
 70
     1
  9
$QTEXTMODE
 70
     0
  9
$MIRRTEXT
 70
     1
  9
$DRAGMODE
 70
     2
  9
$LTSCALE
 40
80.0
  9
$OSMODE
 70
  3071
  9
$ATTMODE
 70
     1
  9
$TEXTSIZE
 40
0.2
  9
$TRACEWID
 40
0.05
  9
$TEXTSTYLE
  7
00
  9
$CLAYER
  8
0
  9
$CELTYPE
  6
CONTINUOUS
  9
$CECOLOR
 62
   256
  9
$DIMSCALE
 40
80.0
  9
$DIMASZ
 40
3.0
  9
$DIMEXO
 40
1.0
  9
$DIMDLI
 40
0.38
  9
$DIMRND
 40
0.5
  9
$DIMDLE
 40
0.0
  9
$DIMEXE
 40
1.0
  9
$DIMTP
 40
0.0
  9
$DIMTM
 40
0.0
  9
$DIMTXT
 40
2.0
  9
$DIMCEN
 40
0.09
  9
$DIMTSZ
 40
0.0
  9
$DIMTOL
 70
     0
  9
$DIMLIM
 70
     0
  9
$DIMTIH
 70
     0
  9
$DIMTOH
 70
     0
  9
$DIMSE1
 70
     0
  9
$DIMSE2
 70
     0
  9
$DIMTAD
 70
     1
  9
$DIMZIN
 70
     8
  9
$DIMBLK
  1
DOTSMALL
  9
$DIMASO
 70
     1
  9
$DIMSHO
 70
     1
  9
$DIMPOST
  1

  9
$DIMAPOST
  1

  9
$DIMALT
 70
     0
  9
$DIMALTD
 70
     2
  9
$DIMALTF
 40
25.399999999999999
  9
$DIMLFAC
 40
1.0
  9
$DIMTOFL
 70
     1
  9
$DIMTVP
 40
0.0
  9
$DIMTIX
 70
     0
  9
$DIMSOXD
 70
     0
  9
$DIMSAH
 70
     0
  9
$DIMBLK1
  1

  9
$DIMBLK2
  1

  9
$DIMSTYLE
  2
SUNPOU
  9
$DIMCLRD
 70
     4
  9
$DIMCLRE
 70
     4
  9
$DIMCLRT
 70
     7
  9
$DIMTFAC
 40
1.0
  9
$DIMGAP
 40
1.0
  9
$LUNITS
 70
     2
  9
$LUPREC
 70
     4
  9
$SKETCHINC
 40
0.1
  9
$FILLETRAD
 40
0.0
  9
$AUNITS
 70
     0
  9
$AUPREC
 70
     0
  9
$MENU
  1
acad
  9
$ELEVATION
 40
0.0
  9
$PELEVATION
 40
0.0
  9
$THICKNESS
 40
0.0
  9
$LIMCHECK
 70
     0
  9
$BLIPMODE
 70
     1
  9
$CHAMFERA
 40
0.0
  9
$CHAMFERB
 40
0.0
  9
$SKPOLY
 70
     0
  9
$TDCREATE
 40
2440588.749988426
  9
$TDUPDATE
 40
2458942.4082501619
  9
$TDINDWG
 40
0.0433763542
  9
$TDUSRTIMER
 40
0.0433754282
  9
$USRTIMER
 70
     1
  9
$ANGBASE
 50
0.0
  9
$ANGDIR
 70
     0
  9
$PDMODE
 70
     0
  9
$PDSIZE
 40
0.0
  9
$PLINEWID
 40
0.0
  9
$COORDS
 70
     1
  9
$SPLFRAME
 70
     0
  9
$SPLINETYPE
 70
     6
  9
$SPLINESEGS
 70
     8
  9
$ATTDIA
 70
     1
  9
$ATTREQ
 70
     1
  9
$HANDLING
 70
     1
  9
$HANDSEED
  5
4A2E
  9
$SURFTAB1
 70
     6
  9
$SURFTAB2
 70
     6
  9
$SURFTYPE
 70
     6
  9
$SURFU
 70
     6
  9
$SURFV
 70
     6
  9
$UCSNAME
  2

  9
$UCSORG
 10
0.0
 20
0.0
 30
0.0
  9
$UCSXDIR
 10
1.0
 20
0.0
 30
0.0
  9
$UCSYDIR
 10
0.0
 20
1.0
 30
0.0
  9
$PUCSNAME
  2

  9
$PUCSORG
 10
0.0
 20
0.0
 30
0.0
  9
$PUCSXDIR
 10
1.0
 20
0.0
 30
0.0
  9
$PUCSYDIR
 10
0.0
 20
1.0
 30
0.0
  9
$USERI1
 70
     0
  9
$USERI2
 70
     0
  9
$USERI3
 70
     0
  9
$USERI4
 70
     0
  9
$USERI5
 70
     0
  9
$USERR1
 40
0.0
  9
$USERR2
 40
0.0
  9
$USERR3
 40
0.0
  9
$USERR4
 40
0.0
  9
$USERR5
 40
0.0
  9
$WORLDVIEW
 70
     1
  9
$SHADEDGE
 70
     3
  9
$SHADEDIF
 70
    70
  9
$TILEMODE
 70
     1
  9
$MAXACTVP
 70
    16
  9
$PLIMCHECK
 70
     0
  9
$PEXTMIN
 10
1.0000000000000000E+020
 20
1.0000000000000000E+020
 30
1.0000000000000000E+020
  9
$PEXTMAX
 10
-1.0000000000000000E+020
 20
-1.0000000000000000E+020
 30
-1.0000000000000000E+020
  9
$PLIMMIN
 10
0.0
 20
0.0
  9
$PLIMMAX
 10
12.0
 20
9.0
  9
$UNITMODE
 70
     0
  9
$VISRETAIN
 70
     0
  9
$PLINEGEN
 70
     1
  9
$PSLTSCALE
 70
     0
  0
ENDSEC
  0
SECTION
  2
TABLES
  0
TABLE
  2
VPORT
 70
     1
  0
VPORT
  2
*ACTIVE
 70
     0
 10
0.0
 20
0.0
 11
1.0
 21
1.0
 12
16800.0
 22
11880.0
 13
0.0
 23
0.0
 14
1.0
 24
1.0
 15
0.0
 25
0.0
 16
0.0
 26
0.0
 36
1.0
 17
0.0
 27
0.0
 37
0.0
 40
23981.023255813951
 41
2.195652173913043
 42
50.0
 43
0.0
 44
0.0
 50
0.0
 51
0.0
 71
     0
 72
 10000
 73
     1
 74
     1
 75
     0
 76
     0
 77
     0
 78
     0
  0
ENDTAB
  0
TABLE
  2
LTYPE
 70
     3
  0
LTYPE
  2
CONTINUOUS
 70
     0
  3
Solid line
 72
    65
 73
     0
 40
0.0
  0
LTYPE
  2
DASHED3
 70
     0
  3
------  ------  ------  ------  
 72
    65
 73
     2
 40
5.0
 49
3.75
 49
-1.25
  0
LTYPE
  2
CENTER2
 70
     0
  3
----------  --  ----------  --  
 72
    65
 73
     4
 40
20.0
 49
12.5
 49
-2.5
 49
2.5
 49
-2.5
  0
ENDTAB
  0
TABLE
  2
LAYER
 70
    19
  0
LAYER
  2
0
 70
     0
 62
     7
  6
CONTINUOUS
  0
LAYER
  2
SUNPOU
 70
     0
 62
     4
  6
CONTINUOUS
  0
LAYER
  2
0-1
 70
     0
 62
     7
  6
CONTINUOUS
  0
LAYER
  2
0-2
 70
     0
 62
     7
  6
CONTINUOUS
  0
LAYER
  2
0-3
 70
     0
 62
     7
  6
CONTINUOUS
  0
LAYER
  2
0-4
 70
     0
 62
     7
  6
CONTINUOUS
  0
LAYER
  2
0-5
 70
     0
 62
     7
  6
CONTINUOUS
  0
LAYER
  2
0-6
 70
     0
 62
     7
  6
CONTINUOUS
  0
LAYER
  2
0-A
 70
     0
 62
     7
  6
CONTINUOUS
  0
LAYER
  2
YODOROGO
 70
     0
 62
   130
  6
CONTINUOUS
  0
LAYER
  2
WAKUSEN-01
 70
     0
 62
    50
  6
CONTINUOUS
  0
LAYER
  2
WAKUSEN-02
 70
     0
 62
   130
  6
CONTINUOUS
  0
LAYER
  2
WAKUMOJI-01
 70
     0
 62
   130
  6
CONTINUOUS
  0
LAYER
  2
FILENAME
 70
     0
 62
     7
  6
CONTINUOUS
  0
LAYER
  2
NAME
 70
     0
 62
    20
  6
CONTINUOUS
  0
LAYER
  2
2-0
 70
     0
 62
     7
  6
CONTINUOUS
  0
LAYER
  2
0-0
 70
     0
 62
     7
  6
CONTINUOUS
  0
ENDTAB
  0
TABLE
  2
STYLE
 70
     6
  0
STYLE
  2
STANDARD
 70
     0
 40
0.0
 41
1.0
 50
0.0
 71
     0
 42
0.0
  3
txt
  4
BIGFONT
  0
STYLE
  2
00
 70
     0
 40
0.0
 41
0.6666666666666666
 50
0.0
 71
     0
 42
0.2
  3
ROMANS
  4
BIGFONT
  0
STYLE
  2
01
 70
     0
 40
3.0
 41
1.0
 50
0.0
 71
     0
 42
0.2
  3
ROMANS
  4
BIGFONT
  0
STYLE
  2
WAKUMOJI
 70
     0
 40
3.0
 41
1.0
 50
0.0
 71
     0
 42
3.0
  3
SIMPLEX
  4
BIGFONT
  0
STYLE
  2
FILENAME
 70
     0
 40
200.0
 41
1.0
 50
0.0
 71
     0
 42
200.0
  3
romans
  4
bigfont
  0
ENDTAB
  0
TABLE
  2
VIEW
 70
     0
  0
ENDTAB
  0
TABLE
  2
UCS
 70
     0
  0
ENDTAB
  0
TABLE
  2
APPID
 70
    14
  0
APPID
  2
ACAD
 70
     0
  0
APPID
  2
ACADANNOTATIVE
 70
     0
  0
APPID
  2
ACAD_PSEXT
 70
     0
  0
APPID
  2
DCO15
 70
     0
  0
APPID
  2
ACAD_MLEADERVER
 70
     0
  0
APPID
  2
AUTOCAD_POSTSCRIPT_FIGURE
 70
     0
  0
APPID
  2
ACAD_EXEMPT_FROM_CAD_STANDARDS
 70
     0
  0
APPID
  2
ACAD_DSTYLE_DIMJAG
 70
     0
  0
APPID
  2
ACAD_DSTYLE_DIMTALN
 70
     0
  0
APPID
  2
ACAD_DSTYLE_DIM_LINETYPE
 70
     0
  0
APPID
  2
ACAD_DSTYLE_DIM_EXT1_LINETYPE
 70
     0
  0
APPID
  2
ACAD_DSTYLE_DIM_EXT2_LINETYPE
 70
     0
  0
APPID
  2
ACAD_NAV_VCDISPLAY
 70
     0
  0
APPID
  2
ACLAYERTOOLS
 70
     0
  0
ENDTAB
  0
TABLE
  2
DIMSTYLE
 70
     3
  0
DIMSTYLE
  2
SUNPOU
 70
     0
  3

  4

  5

  6

  7

 40
80.0
 41
3.0
 42
1.0
 43
0.38
 44
1.0
 45
0.5
 46
0.0
 47
0.0
 48
0.0
140
2.0
141
0.09
142
0.0
143
25.399999999999999
144
1.0
145
0.0
146
1.0
147
1.0
 71
     0
 72
     0
 73
     0
 74
     0
 75
     0
 76
     0
 77
     1
 78
     8
170
     0
171
     2
172
     1
173
     0
174
     0
175
     0
176
     4
177
     4
178
     7
  0
ENDTAB
  0
ENDSEC
  0
SECTION
  2
BLOCKS
  0
BLOCK
  8
0
  2
$MODEL_SPACE
 70
     0
 10
0.0
 20
0.0
 30
0.0
  3
$MODEL_SPACE
  1

  0
ENDBLK
  5
47E2
  8
0
  0
BLOCK
 67
     1
  8
0
  2
$PAPER_SPACE
 70
     0
 10
0.0
 20
0.0
 30
0.0
  3
$PAPER_SPACE
  1

  0
ENDBLK
  5
47DE
 67
     1
  8
0
  0
BLOCK
  8
0
  2
_DOTSMALL
 70
     0
 10
0.0
 20
0.0
 30
0.0
  3
_DOTSMALL
  1

  0
POLYLINE
  5
3CD7
  8
0
  6
BYBLOCK
 62
     0
 66
     1
 10
0.0
 20
0.0
 30
0.0
 70
     1
 40
0.5
 41
0.5
  0
VERTEX
  5
49EB
  8
0
  6
BYBLOCK
 62
     0
 10
-0.0625
 20
0.0
 30
0.0
 42
1.0
  0
VERTEX
  5
49EC
  8
0
  6
BYBLOCK
 62
     0
 10
0.0625
 20
0.0
 30
0.0
 42
1.0
  0
SEQEND
  5
49ED
  8
0
  6
BYBLOCK
 62
     0
  0
ENDBLK
  5
3CDB
  8
0
  0
ENDSEC
  0
SECTION
  2
ENTITIES
  0
LINE
  5
3CDC
  8
0-3
  6
CONTINUOUS
 62
     3
 10
9352.0888769999856
 20
17109.543957999991
 30
0.0
 11
13514.537474999979
 21
17109.543957999991
 31
0.0
  0
LINE
  5
3CDD
  8
0-3
  6
CONTINUOUS
 62
     3
 10
9402.0875179999821
 20
14347.538441999979
 30
0.0
 11
9402.0875179999821
 21
19807.541741000001
 31
0.0
  0
LINE
  5
3CDE
  8
0-3
  6
CONTINUOUS
 62
     3
 10
9266.5874919999824
 20
14315.539524
 30
0.0
 11
9266.5874919999824
 21
19855.543086999998
 31
0.0
  0
LINE
  5
3CDF
  8
0-3
  6
CONTINUOUS
 62
     3
 10
9343.0880059999854
 20
19855.543086999998
 30
0.0
 11
14499.08776899998
 21
19855.543086999998
 31
0.0
  0
LINE
  5
3CE0
  8
0-3
  6
CONTINUOUS
 62
     3
 10
11486.11488699998
 20
18243.092574999999
 30
0.0
 11
11612.859502999971
 21
18458.582966999991
 31
0.0
  0
LINE
  5
3CE1
  8
0-3
  6
CONTINUOUS
 62
     3
 10
12221.33481199997
 20
17520.631636999991
 30
0.0
 11
12348.07645799998
 21
17736.120050000001
 31
0.0
  0
LINE
  5
3CE2
  8
0-3
  6
CONTINUOUS
 62
     3
 10
12221.33481199997
 20
17520.631636999991
 30
0.0
 11
11612.859502999971
 21
18458.582966999991
 31
0.0
  0
LINE
  5
3CE3
  8
0-3
  6
CONTINUOUS
 62
     3
 10
9352.0888769999856
 20
17030.539391999999
 30
0.0
 11
13663.87334699997
 21
17030.539391999999
 31
0.0
  0
LINE
  5
3CE4
  8
0-3
  6
CONTINUOUS
 62
     3
 10
9309.5846539999893
 20
14471.538456
 30
0.0
 11
14529.58815099998
 21
14471.538456
 31
0.0
  0
LINE
  5
3CE5
  8
0-3
  6
CONTINUOUS
 62
     3
 10
9352.0888769999856
 20
14550.538072999991
 30
0.0
 11
14487.08887699998
 21
14550.538072999991
 31
0.0
  0
LINE
  5
3CE6
  8
0-3
  6
CONTINUOUS
 62
     3
 10
9266.5874919999824
 20
14315.539524
 30
0.0
 11
14572.59026299996
 21
14315.539524
 31
0.0
  0
LINE
  5
3CE7
  8
0-3
  6
CONTINUOUS
 62
     3
 10
9266.5874919999824
 20
14347.538441999979
 30
0.0
 11
14572.59026299996
 21
14347.538441999979
 31
0.0
  0
LINE
  5
3CE8
  8
0-3
  6
CONTINUOUS
 62
     3
 10
9352.0888769999856
 20
14471.538456
 30
0.0
 11
9352.0888769999856
 21
19367.003840000001
 31
0.0
  0
LINE
  5
3CE9
  8
0-3
  6
CONTINUOUS
 62
     3
 10
9309.5846539999893
 20
14471.538456
 30
0.0
 11
9309.5846539999893
 21
19389.491171000009
 31
0.0
  0
LINE
  5
3CEA
  8
0-3
  6
CONTINUOUS
 62
     3
 10
9422.0896029999822
 20
14508.039787999989
 30
0.0
 11
11849.58914099998
 21
17075.53978799998
 31
0.0
  0
LINE
  5
3CEB
  8
0-3
  6
CONTINUOUS
 62
     3
 10
11849.58914099998
 20
14508.039787999989
 30
0.0
 11
9422.0896029999822
 21
17075.53978799998
 31
0.0
  0
LINE
  5
3CEC
  8
0-3
  6
CONTINUOUS
 62
     3
 10
14417.08716199998
 20
14508.039787999989
 30
0.0
 11
11989.588612999971
 21
17075.53978799998
 31
0.0
  0
LINE
  5
3CED
  8
0-3
  6
CONTINUOUS
 62
     3
 10
14529.58815099998
 20
14471.538456
 30
0.0
 11
14529.58815099998
 21
16577.587930000002
 31
0.0
  0
LINE
  5
3CEE
  8
0-3
  6
CONTINUOUS
 62
     3
 10
14487.08887699998
 20
14471.538456
 30
0.0
 11
14487.08887699998
 21
16600.071302000011
 31
0.0
  0
LINE
  5
3CEF
  8
0-3
  6
CONTINUOUS
 62
     3
 10
14572.59026299996
 20
14315.539524
 30
0.0
 11
14572.59026299996
 21
19855.543086999998
 31
0.0
  0
LINE
  5
3CF0
  8
0-3
  6
CONTINUOUS
 62
     3
 10
14437.088256999979
 20
14347.538441999979
 30
0.0
 11
14437.088256999979
 21
19807.541741000001
 31
0.0
  0
LINE
  5
3CF1
  8
0-3
  6
CONTINUOUS
 62
     3
 10
11486.11488699998
 20
18243.092574999999
 30
0.0
 11
9118.3918619999858
 21
19490.634673
 31
0.0
  0
LINE
  5
3CF2
  8
0-3
  6
CONTINUOUS
 62
     3
 10
12138.090116999971
 20
17648.953928999981
 30
0.0
 11
12138.090116999971
 21
19807.541741000001
 31
0.0
  0
LINE
  5
3CF3
  8
0-3
  6
CONTINUOUS
 62
     3
 10
14338.087477999979
 20
16673.869734000011
 30
0.0
 11
14338.087477999979
 21
19807.541741000001
 31
0.0
  0
LINE
  5
3CF4
  8
0-3
  6
CONTINUOUS
 62
     3
 10
14301.087305999959
 20
16693.443213999992
 30
0.0
 11
14301.087305999959
 21
19807.541741000001
 31
0.0
  0
LINE
  5
3CF5
  8
0-3
  6
CONTINUOUS
 62
     3
 10
14101.08763599998
 20
16799.246502999991
 30
0.0
 11
14101.08763599998
 21
19807.541741000001
 31
0.0
  0
LINE
  5
3CF6
  8
0-3
  6
CONTINUOUS
 62
     3
 10
14138.08681799998
 20
16779.671042999991
 30
0.0
 11
14138.08681799998
 21
19807.541741000001
 31
0.0
  0
LINE
  5
3CF7
  8
0-3
  6
CONTINUOUS
 62
     3
 10
13938.090116999971
 20
16885.474332000002
 30
0.0
 11
13938.090116999971
 21
19807.541741000001
 31
0.0
  0
LINE
  5
3CF8
  8
0-3
  6
CONTINUOUS
 62
     3
 10
13901.08895599998
 20
16905.049791000001
 30
0.0
 11
13901.08895599998
 21
19807.541741000001
 31
0.0
  0
LINE
  5
3CF9
  8
0-3
  6
CONTINUOUS
 62
     3
 10
13701.08928599998
 20
17010.853080000012
 30
0.0
 11
13701.08928599998
 21
19807.541741000001
 31
0.0
  0
LINE
  5
3CFA
  8
0-3
  6
CONTINUOUS
 62
     3
 10
13738.086487999981
 20
16991.277621000001
 30
0.0
 11
13738.086487999981
 21
19807.541741000001
 31
0.0
  0
LINE
  5
3CFB
  8
0-3
  6
CONTINUOUS
 62
     3
 10
13501.085656999951
 20
17116.654388999999
 30
0.0
 11
13501.085656999951
 21
19807.541741000001
 31
0.0
  0
LINE
  5
3CFC
  8
0-3
  6
CONTINUOUS
 62
     3
 10
13538.08780799998
 20
17097.080909000011
 30
0.0
 11
13538.08780799998
 21
19807.541741000001
 31
0.0
  0
LINE
  5
3CFD
  8
0-3
  6
CONTINUOUS
 62
     3
 10
13301.089945999969
 20
17222.457677999999
 30
0.0
 11
13301.089945999969
 21
19807.541741000001
 31
0.0
  0
LINE
  5
3CFE
  8
0-3
  6
CONTINUOUS
 62
     3
 10
13338.087147999981
 20
17202.886177000011
 30
0.0
 11
13338.087147999981
 21
19807.541741000001
 31
0.0
  0
LINE
  5
3CFF
  8
0-3
  6
CONTINUOUS
 62
     3
 10
13101.08928599998
 20
17328.262945999999
 30
0.0
 11
13101.08928599998
 21
19807.541741000001
 31
0.0
  0
LINE
  5
3D00
  8
0-3
  6
CONTINUOUS
 62
     3
 10
13138.087477999979
 20
17308.691446000012
 30
0.0
 11
13138.087477999979
 21
19807.541741000001
 31
0.0
  0
LINE
  5
3D01
  8
0-3
  6
CONTINUOUS
 62
     3
 10
12901.086645999971
 20
17443.568978999989
 30
0.0
 11
12901.086645999971
 21
19807.541741000001
 31
0.0
  0
LINE
  5
3D02
  8
0-3
  6
CONTINUOUS
 62
     3
 10
12938.08780799998
 20
17423.993520000011
 30
0.0
 11
12938.08780799998
 21
19807.541741000001
 31
0.0
  0
LINE
  5
3D03
  8
0-3
  6
CONTINUOUS
 62
     3
 10
12738.09011699998
 20
17529.796807999999
 30
0.0
 11
12738.09011699998
 21
19807.541741000001
 31
0.0
  0
LINE
  5
3D04
  8
0-3
  6
CONTINUOUS
 62
     3
 10
12701.08895599997
 20
17549.374247
 30
0.0
 11
12701.08895599997
 21
19807.541741000001
 31
0.0
  0
LINE
  5
3D05
  8
0-3
  6
CONTINUOUS
 62
     3
 10
12501.08829599998
 20
17655.173577000001
 30
0.0
 11
12501.08829599998
 21
19807.541741000001
 31
0.0
  0
LINE
  5
3D06
  8
0-3
  6
CONTINUOUS
 62
     3
 10
12538.08747799997
 20
17635.600096999991
 30
0.0
 11
12538.08747799997
 21
19807.541741000001
 31
0.0
  0
LINE
  5
3D07
  8
0-3
  6
CONTINUOUS
 62
     3
 10
12338.08681799998
 20
17719.137761000002
 30
0.0
 11
12338.08681799998
 21
19807.541741000001
 31
0.0
  0
LINE
  5
3D08
  8
0-3
  6
CONTINUOUS
 62
     3
 10
12301.08664599998
 20
17656.226680999971
 30
0.0
 11
12301.08664599998
 21
19807.541741000001
 31
0.0
  0
LINE
  5
3D09
  8
0-3
  6
CONTINUOUS
 62
     3
 10
12101.08895599998
 20
17705.987819000002
 30
0.0
 11
12101.08895599998
 21
19807.541741000001
 31
0.0
  0
LINE
  5
3D0A
  8
0-3
  6
CONTINUOUS
 62
     3
 10
11938.087477999979
 20
17957.250091999991
 30
0.0
 11
11938.087477999979
 21
19807.541741000001
 31
0.0
  0
LINE
  5
3D0B
  8
0-3
  6
CONTINUOUS
 62
     3
 10
11901.08730599997
 20
18014.285961000001
 30
0.0
 11
11901.08730599997
 21
19807.541741000001
 31
0.0
  0
LINE
  5
3D0C
  8
0-3
  6
CONTINUOUS
 62
     3
 10
11701.08664599998
 20
18322.584102000001
 30
0.0
 11
11701.08664599998
 21
19807.541741000001
 31
0.0
  0
LINE
  5
3D0D
  8
0-3
  6
CONTINUOUS
 62
     3
 10
11738.08879699996
 20
18265.544275
 30
0.0
 11
11738.08879699996
 21
19807.541741000001
 31
0.0
  0
LINE
  5
3D0E
  8
0-3
  6
CONTINUOUS
 62
     3
 10
11538.08516799998
 20
18331.452345999991
 30
0.0
 11
11538.08516799998
 21
19807.541741000001
 31
0.0
  0
LINE
  5
3D0F
  8
0-3
  6
CONTINUOUS
 62
     3
 10
11501.08895599998
 20
18268.549183999981
 30
0.0
 11
11501.08895599998
 21
19807.541741000001
 31
0.0
  0
LINE
  5
3D10
  8
0-3
  6
CONTINUOUS
 62
     3
 10
11338.087477999979
 20
18321.404309000001
 30
0.0
 11
11338.087477999979
 21
19807.541741000001
 31
0.0
  0
LINE
  5
3D11
  8
0-3
  6
CONTINUOUS
 62
     3
 10
11301.09027499998
 20
18340.977789
 30
0.0
 11
11301.09027499998
 21
19807.541741000001
 31
0.0
  0
LINE
  5
3D12
  8
0-3
  6
CONTINUOUS
 62
     3
 10
11138.08780799996
 20
18427.20759799999
 30
0.0
 11
11138.08780799996
 21
19807.541741000001
 31
0.0
  0
LINE
  5
3D13
  8
0-3
  6
CONTINUOUS
 62
     3
 10
11101.08664599998
 20
18446.77909800001
 30
0.0
 11
11101.08664599998
 21
19807.541741000001
 31
0.0
  0
LINE
  5
3D14
  8
0-3
  6
CONTINUOUS
 62
     3
 10
10938.08813799997
 20
18533.010886999989
 30
0.0
 11
10938.08813799997
 21
19807.541741000001
 31
0.0
  0
LINE
  5
3D15
  8
0-3
  6
CONTINUOUS
 62
     3
 10
10901.087965999979
 20
18552.582386999991
 30
0.0
 11
10901.087965999979
 21
19807.541741000001
 31
0.0
  0
LINE
  5
3D16
  8
0-3
  6
CONTINUOUS
 62
     3
 10
10738.086487999981
 20
18638.816155
 30
0.0
 11
10738.086487999981
 21
19807.541741000001
 31
0.0
  0
LINE
  5
3D17
  8
0-3
  6
CONTINUOUS
 62
     3
 10
10701.087305999979
 20
18658.385675000001
 30
0.0
 11
10701.087305999979
 21
19807.541741000001
 31
0.0
  0
LINE
  5
3D18
  8
0-3
  6
CONTINUOUS
 62
     3
 10
10138.086487999981
 20
18956.224041000001
 30
0.0
 11
10138.086487999981
 21
19807.541741000001
 31
0.0
  0
LINE
  5
3D19
  8
0-3
  6
CONTINUOUS
 62
     3
 10
10101.09027499997
 20
18975.799500000001
 30
0.0
 11
10101.09027499997
 21
19807.541741000001
 31
0.0
  0
LINE
  5
3D1A
  8
0-3
  6
CONTINUOUS
 62
     3
 10
10301.087965999979
 20
18869.992253
 30
0.0
 11
10301.087965999979
 21
19807.541741000001
 31
0.0
  0
LINE
  5
3D1B
  8
0-3
  6
CONTINUOUS
 62
     3
 10
10338.088137999979
 20
18850.420752999991
 30
0.0
 11
10338.088137999979
 21
19807.541741000001
 31
0.0
  0
LINE
  5
3D1C
  8
0-3
  6
CONTINUOUS
 62
     3
 10
10501.089615999979
 20
18764.186985
 30
0.0
 11
10501.089615999979
 21
19807.541741000001
 31
0.0
  0
LINE
  5
3D1D
  8
0-3
  6
CONTINUOUS
 62
     3
 10
10538.08780799996
 20
18744.615484000002
 30
0.0
 11
10538.08780799996
 21
19807.541741000001
 31
0.0
  0
LINE
  5
3D1E
  8
0-3
  6
CONTINUOUS
 62
     3
 10
9938.0868179999798
 20
19062.029309000009
 30
0.0
 11
9938.0868179999798
 21
19807.541741000001
 31
0.0
  0
LINE
  5
3D1F
  8
0-3
  6
CONTINUOUS
 62
     3
 10
9528.586712999986
 20
19273.63786599999
 30
0.0
 11
9528.586712999986
 21
19807.541741000001
 31
0.0
  0
LINE
  5
3D20
  8
0-3
  6
CONTINUOUS
 62
     3
 10
9491.5875309999847
 20
19293.209365999981
 30
0.0
 11
9491.5875309999847
 21
19807.541741000001
 31
0.0
  0
LINE
  5
3D21
  8
0-3
  6
CONTINUOUS
 62
     3
 10
9701.0879659999846
 20
19187.404097999999
 30
0.0
 11
9701.0879659999846
 21
19807.541741000001
 31
0.0
  0
LINE
  5
3D22
  8
0-3
  6
CONTINUOUS
 62
     3
 10
9738.0901169999706
 20
19167.832598000001
 30
0.0
 11
9738.0901169999706
 21
19807.541741000001
 31
0.0
  0
LINE
  5
3D23
  8
0-3
  6
CONTINUOUS
 62
     3
 10
9901.0866459999816
 20
19081.600809999989
 30
0.0
 11
9901.0866459999816
 21
19807.541741000001
 31
0.0
  0
LINE
  5
3D24
  8
0-3
  6
CONTINUOUS
 62
     3
 10
11989.588612999971
 20
14508.039787999989
 30
0.0
 11
14103.952988999979
 21
16756.550265999991
 31
0.0
  0
LINE
  5
3D25
  8
0-3
  6
CONTINUOUS
 62
     3
 10
14715.802453999961
 20
16479.073229000001
 30
0.0
 11
12348.07645799998
 21
17736.120050000001
 31
0.0
  0
LINE
  5
3D26
  8
0-3
  6
CONTINUOUS
 62
     3
 10
9422.0896029999822
 20
17075.53978799998
 30
0.0
 11
10846.23847499996
 21
18581.59816999999
 31
0.0
  0
LINE
  5
3D27
  8
0-3
  6
CONTINUOUS
 62
     3
 10
11989.588612999971
 20
17075.53978799998
 30
0.0
 11
12519.37211899998
 21
17645.501649000009
 31
0.0
  0
LINE
  5
3D28
  8
0-3
  6
CONTINUOUS
 62
     3
 10
10023.528777999971
 20
19016.828981999992
 30
0.0
 11
11849.58914099998
 21
17075.53978799998
 31
0.0
  0
LINE
  5
3D29
  8
0-3
  6
CONTINUOUS
 62
     3
 10
9287.5852749999885
 20
19807.541741000001
 30
0.0
 11
14554.58852099998
 21
19807.541741000001
 31
0.0
  0
LINE
  5
3D2A
  8
0-3
  6
CONTINUOUS
 62
     3
 10
9284.5852749999885
 20
19825.539523999989
 30
0.0
 11
9335.0907119999847
 21
19825.539523999989
 31
0.0
  0
LINE
  5
3D2B
  8
0-3
  6
CONTINUOUS
 62
     3
 10
9284.5852749999885
 20
19848.040711000001
 30
0.0
 11
9266.5874919999824
 21
19848.040711000001
 31
0.0
  0
LINE
  5
3D2C
  8
0-3
  6
CONTINUOUS
 62
     3
 10
9335.0907119999847
 20
19865.541635000001
 30
0.0
 11
9271.5897349999832
 21
19865.541635000001
 31
0.0
  0
LINE
  5
3D2D
  8
0-3
  6
CONTINUOUS
 62
     3
 10
9266.5874919999824
 20
19860.541370999999
 30
0.0
 11
9266.5874919999824
 21
19825.539523999989
 31
0.0
  0
LINE
  5
3D2E
  8
0-3
  6
CONTINUOUS
 62
     3
 10
9340.0880059999854
 20
19830.539787999998
 30
0.0
 11
9340.0880059999854
 21
19860.541370999999
 31
0.0
  0
LINE
  5
3D2F
  8
0-3
  6
CONTINUOUS
 62
     3
 10
9284.5852749999885
 20
19401.12876
 30
0.0
 11
9284.5852749999885
 21
19848.040711000001
 31
0.0
  0
LINE
  5
3D30
  8
0-3
  6
CONTINUOUS
 62
     3
 10
14504.090011999981
 20
19865.541635000001
 30
0.0
 11
14567.589998999971
 21
19865.541635000001
 31
0.0
  0
LINE
  5
3D31
  8
0-3
  6
CONTINUOUS
 62
     3
 10
14572.59026299996
 20
19860.541370999999
 30
0.0
 11
14572.59026299996
 21
19825.539523999989
 31
0.0
  0
LINE
  5
3D32
  8
0-3
  6
CONTINUOUS
 62
     3
 10
14554.58852099998
 20
19825.539523999989
 30
0.0
 11
14504.090011999981
 21
19825.539523999989
 31
0.0
  0
LINE
  5
3D33
  8
0-3
  6
CONTINUOUS
 62
     3
 10
14499.08776899998
 20
19830.539787999998
 30
0.0
 11
14499.08776899998
 21
19860.541370999999
 31
0.0
  0
LINE
  5
3D34
  8
0-3
  6
CONTINUOUS
 62
     3
 10
14554.58852099998
 20
19848.040711000001
 30
0.0
 11
14572.59026299996
 21
19848.040711000001
 31
0.0
  0
LINE
  5
3D35
  8
0-3
  6
CONTINUOUS
 62
     3
 10
14554.58852099998
 20
16565.95034000001
 30
0.0
 11
14554.58852099998
 21
19848.040711000001
 31
0.0
  0
LINE
  5
3D36
  8
0-3
  6
CONTINUOUS
 62
     3
 10
11862.587648999979
 20
14550.538072999991
 30
0.0
 11
11862.587648999979
 21
17030.539391999999
 31
0.0
  0
LINE
  5
3D37
  8
0-3
  6
CONTINUOUS
 62
     3
 10
11976.58911399998
 20
14550.538072999991
 30
0.0
 11
11976.58911399998
 21
17030.539391999999
 31
0.0
  0
LINE
  5
3D38
  8
0-3
  6
CONTINUOUS
 62
     3
 10
11919.58887699998
 20
14550.538072999991
 30
0.0
 11
11919.58887699998
 21
14471.538456
 31
0.0
  0
LINE
  5
3D39
  8
0-3
  6
CONTINUOUS
 62
     3
 10
11919.58887699998
 20
14550.538072999991
 30
0.0
 11
11919.58887699998
 21
17030.539391999999
 31
0.0
  0
LINE
  5
3D3A
  8
0-3
  6
CONTINUOUS
 62
     3
 10
11862.587648999979
 20
17109.543957999991
 30
0.0
 11
11862.587648999979
 21
18073.633906999981
 31
0.0
  0
LINE
  5
3D3B
  8
0-3
  6
CONTINUOUS
 62
     3
 10
11976.58911399998
 20
17109.543957999991
 30
0.0
 11
11976.58911399998
 21
17897.902145
 31
0.0
  0
LINE
  5
3D3C
  8
0-3
  6
CONTINUOUS
 62
     3
 10
11919.58887699998
 20
17109.543957999991
 30
0.0
 11
11919.58887699998
 21
17985.765057000011
 31
0.0
  0
LINE
  5
3D3D
  8
0-3
  6
CONTINUOUS
 62
     3
 10
11919.58887699998
 20
17030.539391999999
 30
0.0
 11
11919.58887699998
 21
17109.543957999991
 31
0.0
  0
LINE
  5
3D3E
  8
0-3
  6
CONTINUOUS
 62
     3
 10
11919.58887699998
 20
14471.538456
 30
0.0
 11
11919.58887699998
 21
14315.539524
 31
0.0
  0
LINE
  5
3D3F
  8
0-3
  6
CONTINUOUS
 62
     3
 10
11834.588348999971
 20
19807.541741000001
 30
0.0
 11
11834.588348999971
 21
19855.543086999998
 31
0.0
  0
LINE
  5
3D40
  8
0-5
  6
CONTINUOUS
 62
     6
 10
11031.13936699998
 20
17263.374327000001
 30
0.0
 11
10969.989068999979
 21
17434.639371000001
 31
0.0
  0
LINE
  5
3D41
  8
0-5
  6
CONTINUOUS
 62
     6
 10
10979.83024599997
 20
19583.262285000001
 30
0.0
 11
11123.732338999949
 21
20095.53992000001
 31
0.0
  0
LINE
  5
3D42
  8
0-5
  6
CONTINUOUS
 62
     6
 10
10566.68393299996
 20
19689.041819999991
 30
0.0
 11
10272.759075999969
 21
20095.53992000001
 31
0.0
  0
LINE
  5
3D43
  8
0-5
  6
CONTINUOUS
 62
     6
 10
11123.732338999949
 20
20095.53992000001
 30
0.0
 11
11641.42197699998
 21
20095.53992000001
 31
0.0
  0
LINE
  5
3D44
  8
0-5
  6
CONTINUOUS
 62
     6
 10
10513.42003699998
 20
19985.443054999989
 30
0.0
 11
10304.22649299998
 21
20347.778095000001
 31
0.0
  0
LINE
  5
3D45
  8
0-5
  6
CONTINUOUS
 62
     6
 10
10230.222190999981
 20
20475.961821000001
 30
0.0
 11
10034.16176199998
 21
20815.542294999999
 31
0.0
  0
LINE
  5
3D46
  8
0-5
  6
CONTINUOUS
 62
     6
 10
10034.16176199998
 20
20815.542294999999
 30
0.0
 11
10876.598351999981
 21
20815.542294999999
 31
0.0
  0
LINE
  5
3D47
  8
0-5
  6
CONTINUOUS
 62
     6
 10
9463.2556709999808
 20
20095.53992000001
 30
0.0
 11
10272.759075999969
 21
20095.53992000001
 31
0.0
  0
LINE
  5
3D48
  8
0-5
  6
CONTINUOUS
 62
     6
 10
10169.423256999969
 20
17434.639371000001
 30
0.0
 11
10969.989068999979
 21
17434.639371000001
 31
0.0
  0
LINE
  5
3D49
  8
0-5
  6
CONTINUOUS
 62
     6
 10
9516.6155739999867
 20
18243.019333
 30
0.0
 11
10046.114095999979
 21
18243.019333
 31
0.0
  0
LINE
  5
3D4A
  8
0-5
  6
CONTINUOUS
 62
     6
 10
10160.74405799996
 20
14702.430493
 30
0.0
 11
10243.630459999969
 21
14888.869536
 31
0.0
  0
LINE
  5
3D4B
  8
0-5
  6
CONTINUOUS
 62
     6
 10
10243.630459999969
 20
14888.869536
 30
0.0
 11
11043.63210899998
 21
14888.869536
 31
0.0
  0
LINE
  5
3D4C
  8
0-5
  6
CONTINUOUS
 62
     6
 10
11039.547372999979
 20
13515.540843999999
 30
0.0
 11
11902.12655299998
 21
13515.540843999999
 31
0.0
  0
LINE
  5
3D4D
  8
0-5
  6
CONTINUOUS
 62
     6
 10
10633.437258999969
 20
14179.069534
 30
0.0
 11
11039.547372999979
 21
13515.540843999999
 31
0.0
  0
LINE
  5
3D4E
  8
0-5
  6
CONTINUOUS
 62
     6
 10
7536.1893839999848
 20
13115.538534999991
 30
0.0
 11
8616.1899779999858
 21
13115.538534999991
 31
0.0
  0
LINE
  5
3D4F
  8
0-5
  6
CONTINUOUS
 62
     6
 10
9174.6972889999834
 20
14905.314387
 30
0.0
 11
8616.1899779999858
 21
13115.538534999991
 31
0.0
  0
LINE
  5
3D50
  8
0-5
  6
CONTINUOUS
 62
     6
 10
9417.5713519999717
 20
18463.808896999992
 30
0.0
 11
9516.6155739999867
 21
18243.019333
 31
0.0
  0
LINE
  5
3D51
  8
0-5
  6
CONTINUOUS
 62
     6
 10
10386.45272499997
 20
16562.153623999999
 30
0.0
 11
11266.450679999971
 21
16562.153623999999
 31
0.0
  0
LINE
  5
3D52
  8
0-5
  6
CONTINUOUS
 62
     6
 10
10139.835392999979
 20
16326.290026000001
 30
0.0
 11
10386.45272499997
 21
16562.153623999999
 31
0.0
  0
LINE
  5
3D53
  8
0-5
  6
CONTINUOUS
 62
     6
 10
12262.86907099997
 20
20815.542294999999
 30
0.0
 11
13937.87039099998
 21
20815.542294999999
 31
0.0
  0
LINE
  5
3D54
  8
0-5
  6
CONTINUOUS
 62
     6
 10
14128.15557299998
 20
20485.958389999982
 30
0.0
 11
13937.87039099998
 21
20815.542294999999
 31
0.0
  0
LINE
  5
3D55
  8
0-5
  6
CONTINUOUS
 62
     6
 10
14420.85418499998
 20
19995.445563000001
 30
0.0
 11
14202.16185499998
 21
20357.776643999969
 31
0.0
  0
LINE
  5
3D56
  8
0-5
  6
CONTINUOUS
 62
     6
 10
11862.587648999979
 20
15701.91324400001
 30
0.0
 11
11597.40045299996
 21
16070.873733
 31
0.0
  0
LINE
  5
3D57
  8
0-5
  6
CONTINUOUS
 62
     6
 10
11351.164176999981
 20
16070.873733
 30
0.0
 11
11597.40045299996
 21
16070.873733
 31
0.0
  0
LINE
  5
3D58
  8
0-5
  6
CONTINUOUS
 62
     6
 10
9200.1370719999868
 20
14897.329999000011
 30
0.0
 11
9222.5897609999847
 21
15057.976838999981
 31
0.0
  0
LINE
  5
3D59
  8
0-5
  6
CONTINUOUS
 62
     6
 10
9222.5897609999847
 20
15057.976838999981
 30
0.0
 11
9149.2515669999812
 21
14913.295806
 31
0.0
  0
LINE
  5
3D5A
  8
0-5
  6
CONTINUOUS
 62
     6
 10
9222.5897609999847
 20
15057.976838999981
 30
0.0
 11
9200.1370719999868
 21
14897.329999000011
 31
0.0
  0
LINE
  5
3D5B
  8
0-5
  6
CONTINUOUS
 62
     6
 10
9200.1370719999868
 20
14897.329999000011
 30
0.0
 11
9149.2515669999812
 21
14913.295806
 31
0.0
  0
LINE
  5
3D5C
  8
0-5
  6
CONTINUOUS
 62
     6
 10
9149.2515669999812
 20
14913.295806
 30
0.0
 11
9222.5897609999847
 21
15057.976838999981
 31
0.0
  0
LINE
  5
3D5D
  8
0-5
  6
CONTINUOUS
 62
     6
 10
9149.2515669999812
 20
14913.295806
 30
0.0
 11
9200.1370719999868
 21
14897.329999000011
 31
0.0
  0
LINE
  5
3D5E
  8
0-5
  6
CONTINUOUS
 62
     6
 10
10136.59887999998
 20
14713.740471999999
 30
0.0
 11
10092.87032499998
 21
14557.539629999979
 31
0.0
  0
LINE
  5
3D5F
  8
0-5
  6
CONTINUOUS
 62
     6
 10
10092.87032499998
 20
14557.539629999979
 30
0.0
 11
10184.890224999979
 21
14691.117544000001
 31
0.0
  0
LINE
  5
3D60
  8
0-5
  6
CONTINUOUS
 62
     6
 10
10092.87032499998
 20
14557.539629999979
 30
0.0
 11
10136.59887999998
 21
14713.740471999999
 31
0.0
  0
LINE
  5
3D61
  8
0-5
  6
CONTINUOUS
 62
     6
 10
10136.59887999998
 20
14713.740471999999
 30
0.0
 11
10184.890224999979
 21
14691.117544000001
 31
0.0
  0
LINE
  5
3D62
  8
0-5
  6
CONTINUOUS
 62
     6
 10
10184.890224999979
 20
14691.117544000001
 30
0.0
 11
10092.87032499998
 21
14557.539629999979
 31
0.0
  0
LINE
  5
3D63
  8
0-5
  6
CONTINUOUS
 62
     6
 10
10184.890224999979
 20
14691.117544000001
 30
0.0
 11
10136.59887999998
 21
14713.740471999999
 31
0.0
  0
LINE
  5
3D64
  8
0-5
  6
CONTINUOUS
 62
     6
 10
10656.17994799997
 20
14192.992478
 30
0.0
 11
10549.910481999979
 21
14315.539524
 31
0.0
  0
LINE
  5
3D65
  8
0-5
  6
CONTINUOUS
 62
     6
 10
10549.910481999979
 20
14315.539524
 30
0.0
 11
10610.693579999979
 21
14165.149558999999
 31
0.0
  0
LINE
  5
3D66
  8
0-5
  6
CONTINUOUS
 62
     6
 10
10549.910481999979
 20
14315.539524
 30
0.0
 11
10656.17994799997
 21
14192.992478
 31
0.0
  0
LINE
  5
3D67
  8
0-5
  6
CONTINUOUS
 62
     6
 10
10656.17994799997
 20
14192.992478
 30
0.0
 11
10610.693579999979
 21
14165.149558999999
 31
0.0
  0
LINE
  5
3D68
  8
0-5
  6
CONTINUOUS
 62
     6
 10
10610.693579999979
 20
14165.149558999999
 30
0.0
 11
10549.910481999979
 21
14315.539524
 31
0.0
  0
LINE
  5
3D69
  8
0-5
  6
CONTINUOUS
 62
     6
 10
10610.693579999979
 20
14165.149558999999
 30
0.0
 11
10656.17994799997
 21
14192.992478
 31
0.0
  0
LINE
  5
3D6A
  8
0-5
  6
CONTINUOUS
 62
     6
 10
9441.9055739999803
 20
18474.721981999999
 30
0.0
 11
9352.0888769999856
 21
18609.794432999988
 31
0.0
  0
LINE
  5
3D6B
  8
0-5
  6
CONTINUOUS
 62
     6
 10
9352.0888769999856
 20
18609.794432999988
 30
0.0
 11
9393.2400989999842
 21
18452.895810999999
 31
0.0
  0
LINE
  5
3D6C
  8
0-5
  6
CONTINUOUS
 62
     6
 10
9352.0888769999856
 20
18609.794432999988
 30
0.0
 11
9441.9055739999803
 21
18474.721981999999
 31
0.0
  0
LINE
  5
3D6D
  8
0-5
  6
CONTINUOUS
 62
     6
 10
9441.9055739999803
 20
18474.721981999999
 30
0.0
 11
9393.2400989999842
 21
18452.895810999999
 31
0.0
  0
LINE
  5
3D6E
  8
0-5
  6
CONTINUOUS
 62
     6
 10
9393.2400989999842
 20
18452.895810999999
 30
0.0
 11
9352.0888769999856
 21
18609.794432999988
 31
0.0
  0
LINE
  5
3D6F
  8
0-5
  6
CONTINUOUS
 62
     6
 10
9393.2400989999842
 20
18452.895810999999
 30
0.0
 11
9441.9055739999803
 21
18474.721981999999
 31
0.0
  0
LINE
  5
3D70
  8
0-5
  6
CONTINUOUS
 62
     6
 10
10237.033713999979
 20
16456.146444000002
 30
0.0
 11
10139.835392999979
 21
16326.290026000001
 31
0.0
  0
LINE
  5
3D71
  8
0-5
  6
CONTINUOUS
 62
     6
 10
10139.835392999979
 20
16326.290026000001
 30
0.0
 11
10273.89729899996
 21
16417.605218000012
 31
0.0
  0
LINE
  5
3D72
  8
0-5
  6
CONTINUOUS
 62
     6
 10
10139.835392999979
 20
16326.290026000001
 30
0.0
 11
10237.033713999979
 21
16456.146444000002
 31
0.0
  0
LINE
  5
3D73
  8
0-5
  6
CONTINUOUS
 62
     6
 10
10237.033713999979
 20
16456.146444000002
 30
0.0
 11
10273.89729899996
 21
16417.605218000012
 31
0.0
  0
LINE
  5
3D74
  8
0-5
  6
CONTINUOUS
 62
     6
 10
10273.89729899996
 20
16417.605218000012
 30
0.0
 11
10139.835392999979
 21
16326.290026000001
 31
0.0
  0
LINE
  5
3D75
  8
0-5
  6
CONTINUOUS
 62
     6
 10
10273.89729899996
 20
16417.605218000012
 30
0.0
 11
10237.033713999979
 21
16456.146444000002
 31
0.0
  0
LINE
  5
3D76
  8
0-5
  6
CONTINUOUS
 62
     6
 10
11790.207541999969
 20
15847.076290000001
 30
0.0
 11
11862.587648999979
 21
15701.91324400001
 31
0.0
  0
LINE
  5
3D77
  8
0-5
  6
CONTINUOUS
 62
     6
 10
11862.587648999979
 20
15701.91324400001
 30
0.0
 11
11747.04314999998
 21
15815.754368000011
 31
0.0
  0
LINE
  5
3D78
  8
0-5
  6
CONTINUOUS
 62
     6
 10
11862.587648999979
 20
15701.91324400001
 30
0.0
 11
11790.207541999969
 21
15847.076290000001
 31
0.0
  0
LINE
  5
3D79
  8
0-5
  6
CONTINUOUS
 62
     6
 10
11790.207541999969
 20
15847.076290000001
 30
0.0
 11
11747.04314999998
 21
15815.754368000011
 31
0.0
  0
LINE
  5
3D7A
  8
0-5
  6
CONTINUOUS
 62
     6
 10
11747.04314999998
 20
15815.754368000011
 30
0.0
 11
11862.587648999979
 21
15701.91324400001
 31
0.0
  0
LINE
  5
3D7B
  8
0-5
  6
CONTINUOUS
 62
     6
 10
11747.04314999998
 20
15815.754368000011
 30
0.0
 11
11790.207541999969
 21
15847.076290000001
 31
0.0
  0
LINE
  5
3D7C
  8
0-5
  6
CONTINUOUS
 62
     6
 10
11056.777101999969
 20
17270.706462999999
 30
0.0
 11
11075.14307599998
 21
17109.543957999991
 31
0.0
  0
LINE
  5
3D7D
  8
0-5
  6
CONTINUOUS
 62
     6
 10
11075.14307599998
 20
17109.543957999991
 30
0.0
 11
11005.500642999979
 21
17256.03625099999
 31
0.0
  0
LINE
  5
3D7E
  8
0-5
  6
CONTINUOUS
 62
     6
 10
11075.14307599998
 20
17109.543957999991
 30
0.0
 11
11056.777101999969
 21
17270.706462999999
 31
0.0
  0
LINE
  5
3D7F
  8
0-5
  6
CONTINUOUS
 62
     6
 10
11056.777101999969
 20
17270.706462999999
 30
0.0
 11
11005.500642999979
 21
17256.03625099999
 31
0.0
  0
LINE
  5
3D80
  8
0-5
  6
CONTINUOUS
 62
     6
 10
11005.500642999979
 20
17256.03625099999
 30
0.0
 11
11075.14307599998
 21
17109.543957999991
 31
0.0
  0
LINE
  5
3D81
  8
0-5
  6
CONTINUOUS
 62
     6
 10
11005.500642999979
 20
17256.03625099999
 30
0.0
 11
11056.777101999969
 21
17270.706462999999
 31
0.0
  0
LINE
  5
3D82
  8
0-5
  6
CONTINUOUS
 62
     6
 10
10459.987881999979
 20
19811.217707
 30
0.0
 11
10566.68393299996
 21
19689.041819999991
 31
0.0
  0
LINE
  5
3D83
  8
0-5
  6
CONTINUOUS
 62
     6
 10
10566.68393299996
 20
19689.041819999991
 30
0.0
 11
10505.381211999969
 21
19839.219977000001
 31
0.0
  0
LINE
  5
3D84
  8
0-5
  6
CONTINUOUS
 62
     6
 10
10566.68393299996
 20
19689.041819999991
 30
0.0
 11
10459.987881999979
 21
19811.217707
 31
0.0
  0
LINE
  5
3D85
  8
0-5
  6
CONTINUOUS
 62
     6
 10
10459.987881999979
 20
19811.217707
 30
0.0
 11
10505.381211999969
 21
19839.219977000001
 31
0.0
  0
LINE
  5
3D86
  8
0-5
  6
CONTINUOUS
 62
     6
 10
10505.381211999969
 20
19839.219977000001
 30
0.0
 11
10566.68393299996
 21
19689.041819999991
 31
0.0
  0
LINE
  5
3D87
  8
0-5
  6
CONTINUOUS
 62
     6
 10
10505.381211999969
 20
19839.219977000001
 30
0.0
 11
10459.987881999979
 21
19811.217707
 31
0.0
  0
LINE
  5
3D88
  8
0-5
  6
CONTINUOUS
 62
     6
 10
10491.76806299997
 20
19972.948334000001
 30
0.0
 11
10588.42003699998
 21
19855.543086999998
 31
0.0
  0
LINE
  5
3D89
  8
0-5
  6
CONTINUOUS
 62
     6
 10
10588.42003699998
 20
19855.543086999998
 30
0.0
 11
10535.068051999981
 21
19997.945693999998
 31
0.0
  0
LINE
  5
3D8A
  8
0-5
  6
CONTINUOUS
 62
     6
 10
10588.42003699998
 20
19855.543086999998
 30
0.0
 11
10491.76806299997
 21
19972.948334000001
 31
0.0
  0
LINE
  5
3D8B
  8
0-5
  6
CONTINUOUS
 62
     6
 10
10491.76806299997
 20
19972.948334000001
 30
0.0
 11
10535.068051999981
 21
19997.945693999998
 31
0.0
  0
LINE
  5
3D8C
  8
0-5
  6
CONTINUOUS
 62
     6
 10
10535.068051999981
 20
19997.945693999998
 30
0.0
 11
10588.42003699998
 21
19855.543086999998
 31
0.0
  0
LINE
  5
3D8D
  8
0-5
  6
CONTINUOUS
 62
     6
 10
10535.068051999981
 20
19997.945693999998
 30
0.0
 11
10491.76806299997
 21
19972.948334000001
 31
0.0
  0
LINE
  5
3D8E
  8
0-5
  6
CONTINUOUS
 62
     6
 10
10953.94111199996
 20
19589.666028
 30
0.0
 11
10941.44342199996
 21
19427.941340000008
 31
0.0
  0
LINE
  5
3D8F
  8
0-5
  6
CONTINUOUS
 62
     6
 10
10941.44342199996
 20
19427.941340000008
 30
0.0
 11
11005.71640999997
 21
19576.870419999999
 31
0.0
  0
LINE
  5
3D90
  8
0-5
  6
CONTINUOUS
 62
     6
 10
10941.44342199996
 20
19427.941340000008
 30
0.0
 11
10953.94111199996
 21
19589.666028
 31
0.0
  0
LINE
  5
3D91
  8
0-5
  6
CONTINUOUS
 62
     6
 10
10953.94111199996
 20
19589.666028
 30
0.0
 11
11005.71640999997
 21
19576.870419999999
 31
0.0
  0
LINE
  5
3D92
  8
0-5
  6
CONTINUOUS
 62
     6
 10
11005.71640999997
 20
19576.870419999999
 30
0.0
 11
10941.44342199996
 21
19427.941340000008
 31
0.0
  0
LINE
  5
3D93
  8
0-5
  6
CONTINUOUS
 62
     6
 10
11005.71640999997
 20
19576.870419999999
 30
0.0
 11
10953.94111199996
 21
19589.666028
 31
0.0
  0
LINE
  5
3D94
  8
0-5
  6
CONTINUOUS
 62
     6
 10
14399.20320099998
 20
19982.944903
 30
0.0
 11
14495.85319599998
 21
19865.541635000001
 31
0.0
  0
LINE
  5
3D95
  8
0-5
  6
CONTINUOUS
 62
     6
 10
14495.85319599998
 20
19865.541635000001
 30
0.0
 11
14442.50516999998
 21
20007.946221999999
 31
0.0
  0
LINE
  5
3D96
  8
0-5
  6
CONTINUOUS
 62
     6
 10
14495.85319599998
 20
19865.541635000001
 30
0.0
 11
14399.20320099998
 21
19982.944903
 31
0.0
  0
LINE
  5
3D97
  8
0-5
  6
CONTINUOUS
 62
     6
 10
14399.20320099998
 20
19982.944903
 30
0.0
 11
14442.50516999998
 21
20007.946221999999
 31
0.0
  0
LINE
  5
3D98
  8
0-5
  6
CONTINUOUS
 62
     6
 10
14442.50516999998
 20
20007.946221999999
 30
0.0
 11
14495.85319599998
 21
19865.541635000001
 31
0.0
  0
LINE
  5
3D99
  8
0-5
  6
CONTINUOUS
 62
     6
 10
14442.50516999998
 20
20007.946221999999
 30
0.0
 11
14399.20320099998
 21
19982.944903
 31
0.0
  0
LINE
  5
3D9A
  8
0-2
  6
DASHED3
 62
     6
 10
9352.0888769999856
 20
19604.043271999999
 30
0.0
 11
14487.08887699998
 21
19604.043271999999
 31
0.0
  0
LINE
  5
3D9B
  8
0-2
  6
DASHED3
 62
     6
 10
9309.5846539999893
 20
19389.491171000009
 30
0.0
 11
9309.5846539999893
 21
19689.041819999991
 31
0.0
  0
LINE
  5
3D9C
  8
0-2
  6
DASHED3
 62
     6
 10
9352.0888769999856
 20
19367.003840000001
 30
0.0
 11
9352.0888769999856
 21
19689.041819999991
 31
0.0
  0
LINE
  5
3D9D
  8
0-2
  6
DASHED3
 62
     6
 10
9309.5846539999893
 20
19689.041819999991
 30
0.0
 11
14529.58815099998
 21
19689.041819999991
 31
0.0
  0
LINE
  5
3D9E
  8
0-2
  6
DASHED3
 62
     6
 10
14417.08716199998
 20
17075.53978799998
 30
0.0
 11
11989.588612999971
 21
19643.039787999991
 31
0.0
  0
LINE
  5
3D9F
  8
0-2
  6
DASHED3
 62
     6
 10
13663.87334699997
 20
17030.539391999999
 30
0.0
 11
14487.08887699998
 21
17030.539391999999
 31
0.0
  0
LINE
  5
3DA0
  8
0-2
  6
DASHED3
 62
     6
 10
13514.537474999979
 20
17109.543957999991
 30
0.0
 11
14487.08887699998
 21
17109.543957999991
 31
0.0
  0
LINE
  5
3DA1
  8
0-2
  6
DASHED3
 62
     6
 10
14487.08887699998
 20
16600.071302000011
 30
0.0
 11
14487.08887699998
 21
19689.041819999991
 31
0.0
  0
LINE
  5
3DA2
  8
0-2
  6
DASHED3
 62
     6
 10
14529.58815099998
 20
16577.587930000002
 30
0.0
 11
14529.58815099998
 21
19689.041819999991
 31
0.0
  0
LINE
  5
3DA3
  8
0-2
  6
DASHED3
 62
     6
 10
14103.952988999979
 20
16756.550265999991
 30
0.0
 11
14417.08716199998
 21
17075.53978799998
 31
0.0
  0
LINE
  5
3DA4
  8
0-2
  6
DASHED3
 62
     6
 10
9422.0896029999822
 20
19643.039787999991
 30
0.0
 11
10023.528777999971
 21
19016.828981999992
 31
0.0
  0
LINE
  5
3DA5
  8
0-2
  6
DASHED3
 62
     6
 10
12519.37211899998
 20
17645.501649000009
 30
0.0
 11
14417.08716199998
 21
19643.039787999991
 31
0.0
  0
LINE
  5
3DA6
  8
0-2
  6
DASHED3
 62
     6
 10
10846.23847499996
 20
18581.59816999999
 30
0.0
 11
11849.58914099998
 21
19643.039787999991
 31
0.0
  0
LINE
  5
3DA7
  8
0-2
  6
CENTER2
 62
     6
 10
14487.08887699998
 20
20885.540052
 30
0.0
 11
14487.08887699998
 21
19935.543350999989
 31
0.0
  0
LINE
  5
3DA8
  8
0-2
  6
CENTER2
 62
     6
 10
11919.58887699998
 20
20815.542294999999
 30
0.0
 11
11919.58887699998
 21
19935.543350999989
 31
0.0
  0
LINE
  5
3DA9
  8
0-2
  6
CENTER2
 62
     6
 10
8022.5876119999857
 20
19643.039787999991
 30
0.0
 11
9678.5847989999857
 21
19643.039787999991
 31
0.0
  0
LINE
  5
3DAA
  8
0-2
  6
CENTER2
 62
     6
 10
9352.0888769999856
 20
20815.542294999999
 30
0.0
 11
9352.0888769999856
 21
19935.543350999989
 31
0.0
  0
LINE
  5
3DAB
  8
0-2
  6
CENTER2
 62
     6
 10
8022.5876119999857
 20
17075.53978799998
 30
0.0
 11
9678.5847989999857
 21
17075.53978799998
 31
0.0
  0
LINE
  5
3DAC
  8
0-2
  6
CENTER2
 62
     6
 10
8022.5876119999857
 20
14508.039787999989
 30
0.0
 11
9678.5847989999857
 21
14508.039787999989
 31
0.0
  0
LINE
  5
3DAD
  8
0-2
  6
CENTER2
 62
     6
 10
14160.58899499998
 20
17075.53978799998
 30
0.0
 11
14785.85266799998
 21
17075.53978799998
 31
0.0
  0
LINE
  5
3DAE
  8
0-6
  6
CONTINUOUS
 62
     6
 10
14160.58899499998
 20
14508.039787999989
 30
0.0
 11
14785.85266799998
 21
14508.039787999989
 31
0.0
  0
LINE
  5
3DAF
  8
0-2
  6
DASHED3
 62
     6
 10
11862.587648999979
 20
18073.633906999981
 30
0.0
 11
11862.587648999979
 21
19604.043271999999
 31
0.0
  0
LINE
  5
3DB0
  8
0-2
  6
DASHED3
 62
     6
 10
11919.58887699998
 20
17985.765057000011
 30
0.0
 11
11919.58887699998
 21
19604.043271999999
 31
0.0
  0
LINE
  5
3DB1
  8
0-2
  6
DASHED3
 62
     6
 10
11976.58911399998
 20
17897.902145
 30
0.0
 11
11976.58911399998
 21
19604.043271999999
 31
0.0
  0
CIRCLE
  5
3DB2
  8
0-1
  6
CONTINUOUS
 62
     4
 10
11919.58887699998
 20
21015.540975
 30
0.0
 40
199.9999949999999
  0
CIRCLE
  5
3DB3
  8
0-1
  6
CONTINUOUS
 62
     4
 10
9352.0888769999856
 20
21015.540975
 30
0.0
 40
199.9999949999999
  0
CIRCLE
  5
3DB4
  8
0-1
  6
CONTINUOUS
 62
     4
 10
7822.5869519999869
 20
19643.039787999991
 30
0.0
 40
199.9999949999999
  0
CIRCLE
  5
3DB5
  8
0-1
  6
CONTINUOUS
 62
     4
 10
7822.5869519999869
 20
17075.53978799998
 30
0.0
 40
199.9999949999999
  0
CIRCLE
  5
3DB6
  8
0-1
  6
CONTINUOUS
 62
     4
 10
7822.5869519999869
 20
14508.039787999989
 30
0.0
 40
199.9999949999999
  0
CIRCLE
  5
3DB7
  8
0-1
  6
CONTINUOUS
 62
     4
 10
14487.08887699998
 20
21085.542690999991
 30
0.0
 40
199.9999949999999
  0
CIRCLE
  5
3DB8
  8
0-1
  6
CONTINUOUS
 62
     4
 10
15128.717667000001
 20
1376.000106
 30
0.0
 40
20.0
  0
ARC
  5
3DB9
  8
0-1
  6
CONTINUOUS
 62
     4
 10
15128.717667000001
 20
1376.000106
 30
0.0
 40
20.0
 50
180.0
 51
0.0
  0
ARC
  5
3DBA
  8
0-1
  6
CONTINUOUS
 62
     4
 10
15128.717667000001
 20
1376.000106
 30
0.0
 40
20.0
 50
0.0
 51
179.9999849999983
  0
CIRCLE
  5
3DBB
  8
0-1
  6
CONTINUOUS
 62
     4
 10
15128.717667000001
 20
1776.000064999999
 30
0.0
 40
20.0
  0
ARC
  5
3DBC
  8
0-1
  6
CONTINUOUS
 62
     4
 10
15128.717667000001
 20
1776.000064999999
 30
0.0
 40
20.0
 50
180.0
 51
0.0
  0
ARC
  5
3DBD
  8
0-1
  6
CONTINUOUS
 62
     4
 10
15128.717667000001
 20
1776.000064999999
 30
0.0
 40
20.0
 50
0.0
 51
179.9999849999983
  0
ARC
  5
3DBE
  8
0-3
  6
CONTINUOUS
 62
     3
 10
9271.5897349999832
 20
19860.541370999999
 30
0.0
 40
5.0
 50
90.0
 51
180.0
  0
ARC
  5
3DBF
  8
0-3
  6
CONTINUOUS
 62
     3
 10
9335.0907119999847
 20
19860.541370999999
 30
0.0
 40
5.0
 50
0.0
 51
90.0
  0
ARC
  5
3DC0
  8
0-3
  6
CONTINUOUS
 62
     3
 10
9335.0907119999847
 20
19830.539787999998
 30
0.0
 40
5.0
 50
269.9999850001808
 51
0.0
  0
ARC
  5
3DC1
  8
0-3
  6
CONTINUOUS
 62
     3
 10
14504.090011999981
 20
19830.539787999998
 30
0.0
 40
5.0
 50
180.0
 51
269.9999850001808
  0
ARC
  5
3DC2
  8
0-3
  6
CONTINUOUS
 62
     3
 10
14504.090011999981
 20
19860.541370999999
 30
0.0
 40
5.0
 50
90.0
 51
180.0
  0
ARC
  5
3DC3
  8
0-3
  6
CONTINUOUS
 62
     3
 10
14567.589998999971
 20
19860.541370999999
 30
0.0
 40
5.0
 50
0.0
 51
90.0
  0
TEXT
  5
3DC4
  8
0-1
  6
CONTINUOUS
 62
     7
 10
14438.705417023129
 20
21005.553947369051
 30
0.0
 40
160.0
  1
3
 72
     4
 11
14492.038750356471
 21
21085.553947369051
 31
0.0
  0
TEXT
  5
3DC5
  8
0-1
  6
CONTINUOUS
 62
     7
 10
11871.20343702313
 20
20935.552231369042
 30
0.0
 40
160.0
  1
2
 72
     4
 11
11924.53677035647
 21
21015.552231369042
 31
0.0
  0
TEXT
  5
3DC6
  8
0-1
  6
CONTINUOUS
 62
     7
 10
9332.9906406336122
 20
20936.967538013309
 30
0.0
 40
160.0
  1
1
 72
     4
 11
9359.6573073002783
 21
21016.967538013309
 31
0.0
  0
TEXT
  5
3DC7
  8
0-1
  6
CONTINUOUS
 62
     7
 10
7784.2129949999817
 20
19565.058633000011
 30
0.0
 40
160.0
  1
C
 72
     4
 11
7837.5463283333129
 21
19645.058633000011
 31
0.0
  0
TEXT
  5
3DC8
  8
0-1
  6
CONTINUOUS
 62
     7
 10
7784.2129949999817
 20
16997.556654000011
 30
0.0
 40
160.0
  1
B
 72
     4
 11
7837.5463283333129
 21
17077.556654000011
 31
0.0
  0
TEXT
  5
3DC9
  8
0-1
  6
CONTINUOUS
 62
     7
 10
7784.2129949999817
 20
14430.05467399999
 30
0.0
 40
160.0
  1
A
 72
     4
 11
7837.5463283333129
 21
14510.05467399999
 31
0.0
  0
TEXT
  5
3DCA
  8
0-1
  6
CONTINUOUS
 62
     7
 10
15288.71819499999
 20
1281.8311900000001
 30
0.0
 40
160.0
  1
有効高サハ、基礎高サヲ含ミマセン。
  0
TEXT
  5
3DCB
  8
0-5
  6
CONTINUOUS
 62
     7
 10
11203.733592999981
 20
20175.54414300001
 30
0.0
 40
160.0
  1
屋根
  0
TEXT
  5
3DCC
  8
0-5
  6
CONTINUOUS
 62
     7
 10
10114.16103699998
 20
20895.540579
 30
0.0
 40
160.0
  1
鼻隠し後
  0
TEXT
  5
3DCD
  8
0-5
  6
CONTINUOUS
 62
     7
 10
9543.2579149999838
 20
20175.54414300001
 30
0.0
 40
160.0
  1
桁（後）
  0
TEXT
  5
3DCE
  8
0-5
  6
CONTINUOUS
 62
     7
 10
10249.995601999981
 20
17514.637654999999
 30
0.0
 40
160.0
  1
桁（中）
  0
TEXT
  5
3DCF
  8
0-5
  6
CONTINUOUS
 62
     7
 10
10323.630723999981
 20
14968.870790000001
 30
0.0
 40
160.0
  1
桁（前）
  0
TEXT
  5
3DD0
  8
0-5
  6
CONTINUOUS
 62
     7
 10
11119.54763699998
 20
13595.539129000001
 30
0.0
 40
160.0
  1
鼻隠し前
  0
TEXT
  5
3DD1
  8
0-5
  6
CONTINUOUS
 62
     7
 10
7616.1906379999864
 20
13195.540778000001
 30
0.0
 40
160.0
  1
ケラバ 左
  0
TEXT
  5
3DD2
  8
0-5
  6
CONTINUOUS
 62
     7
 10
9606.1156129999854
 20
18323.017617000009
 30
0.0
 40
160.0
  1
上枠
  0
TEXT
  5
3DD3
  8
0-5
  6
CONTINUOUS
 62
     7
 10
10466.452988999979
 20
16642.155867000001
 30
0.0
 40
160.0
  1
ブレース
  0
TEXT
  5
3DD4
  8
0-5
  6
CONTINUOUS
 62
     7
 10
12342.87131399998
 20
20895.540579
 30
0.0
 40
160.0
  1
鼻隠しコーナー後
  0
TEXT
  5
3DD5
  8
0-5
  6
CONTINUOUS
 62
     7
 10
11367.402167999981
 20
16150.86904799999
 30
0.0
 40
160.0
  1
梁
  0
TEXT
  5
3DD6
  8
0-A
  6
CONTINUOUS
 62
     7
 10
10533.740784999971
 20
12267.55830399998
 30
0.0
 40
160.0
  1
小 屋 伏 図
 72
     4
 11
11035.07411833331
 21
12347.55830399998
 31
0.0
  0
TEXT
  5
3DD7
  8
0-1
  6
CONTINUOUS
 62
     7
 10
15176.148912000001
 20
1685.0766940000001
 30
0.0
 40
160.0
  1
（ ）内寸法ハ、Hタイプヲ示ス。
  0
TEXT
  5
3DE0
  8
2-0
  6
CONTINUOUS
 62
     7
 10
12386.566303470931
 20
12294.75367299999
 30
0.0
 40
160.0
  1
1
 72
     4
 11
12413.2329701376
 21
12374.75367299999
 31
0.0
  0
TEXT
  5
3DE1
  8
2-0
  6
CONTINUOUS
 62
     7
 10
12629.65502072163
 20
12214.755140999991
 30
0.0
 40
160.0
  1
80
 72
     4
 11
12749.65502072163
 21
12294.755140999991
 31
0.0
  0
TEXT
  5
3DE2
  8
2-0
  6
CONTINUOUS
 62
     7
 10
11887.568269470939
 20
12267.55830399998
 30
0.0
 40
160.0
  1
(S=  /   )
 72
     4
 11
12447.568269470939
 21
12347.55830399998
 31
0.0
  0
LINE
  5
3DE3
  8
0-4
  6
CONTINUOUS
 62
     4
 10
14264.29067299999
 20
6267.088643000001
 30
0.0
 11
19517.546927999982
 21
6267.088643000001
 31
0.0
  0
LINE
  5
3DE4
  8
0-1
  6
CONTINUOUS
 62
     3
 10
8971.7892219999976
 20
8278.1340270000055
 30
0.0
 11
14151.791596999999
 21
8278.1340270000055
 31
0.0
  0
LINE
  5
3DE5
  8
0-1
  6
CONTINUOUS
 62
     3
 10
8261.7893540000005
 20
6267.088643000001
 30
0.0
 11
14184.29040899999
 21
6267.088643000001
 31
0.0
  0
LINE
  5
3DE6
  8
0-1
  6
CONTINUOUS
 62
     3
 10
8944.2904090000011
 20
6367.0884780000006
 30
0.0
 11
14184.29040899999
 21
6367.0884780000006
 31
0.0
  0
LINE
  5
3DE7
  8
0-1
  6
CONTINUOUS
 62
     3
 10
8951.7911349999977
 20
8400.1159209999969
 30
0.0
 11
8951.7911349999977
 21
6367.0884780000006
 31
0.0
  0
LINE
  5
3DE8
  8
0-1
  6
CONTINUOUS
 62
     3
 10
8971.7892219999976
 20
8400.8166700000038
 30
0.0
 11
8971.7892219999976
 21
6367.0884780000006
 31
0.0
  0
LINE
  5
3DE9
  8
0-1
  6
CONTINUOUS
 62
     3
 10
8944.2904090000011
 20
6267.088643000001
 30
0.0
 11
8944.2904090000011
 21
6367.0884780000006
 31
0.0
  0
LINE
  5
3DEA
  8
0-1
  6
CONTINUOUS
 62
     3
 10
14247.070775
 20
8585.0128540000005
 30
0.0
 11
14242.518872000001
 21
8714.9336070000008
 31
0.0
  0
LINE
  5
3DEB
  8
0-1
  6
CONTINUOUS
 62
     3
 10
11634.290277
 20
6417.088643000001
 30
0.0
 11
14056.790541
 21
6417.088643000001
 31
0.0
  0
LINE
  5
3DEC
  8
0-1
  6
CONTINUOUS
 62
     3
 10
11147.789934
 20
6417.088643000001
 30
0.0
 11
11147.789934
 21
8278.1340270000055
 31
0.0
  0
LINE
  5
3DED
  8
0-1
  6
CONTINUOUS
 62
     3
 10
11167.79098999999
 20
6417.088643000001
 30
0.0
 11
11167.79098999999
 21
8278.1340270000055
 31
0.0
  0
LINE
  5
3DEE
  8
0-1
  6
CONTINUOUS
 62
     3
 10
11097.791252999999
 20
6417.088643000001
 30
0.0
 11
11097.791252999999
 21
8278.1340270000055
 31
0.0
  0
LINE
  5
3DEF
  8
0-1
  6
CONTINUOUS
 62
     3
 10
11217.78967
 20
6417.088643000001
 30
0.0
 11
11217.78967
 21
8278.1340270000055
 31
0.0
  0
LINE
  5
3DF0
  8
0-1
  6
CONTINUOUS
 62
     3
 10
11350.788574
 20
6417.088643000001
 30
0.0
 11
11350.788574
 21
8278.1340270000055
 31
0.0
  0
LINE
  5
3DF1
  8
0-1
  6
CONTINUOUS
 62
     3
 10
11365.790356
 20
6417.088643000001
 30
0.0
 11
11365.790356
 21
8278.1340270000055
 31
0.0
  0
LINE
  5
3DF2
  8
0-1
  6
CONTINUOUS
 62
     3
 10
10964.789378999991
 20
6417.088643000001
 30
0.0
 11
10964.789378999991
 21
8278.1340270000055
 31
0.0
  0
LINE
  5
3DF3
  8
0-1
  6
CONTINUOUS
 62
     3
 10
10949.79056699998
 20
6417.088643000001
 30
0.0
 11
10949.79056699998
 21
8278.1340270000055
 31
0.0
  0
LINE
  5
3DF4
  8
0-1
  6
CONTINUOUS
 62
     3
 10
9066.7882980000031
 20
8278.1340270000055
 30
0.0
 11
9066.7882980000031
 21
6367.0884780000006
 31
0.0
  0
LINE
  5
3DF5
  8
0-1
  6
CONTINUOUS
 62
     3
 10
11634.290277
 20
8278.1340270000055
 30
0.0
 11
11634.290277
 21
6367.0884780000006
 31
0.0
  0
LINE
  5
3DF6
  8
0-1
  6
CONTINUOUS
 62
     3
 10
11489.290541
 20
8278.1340270000055
 30
0.0
 11
11489.290541
 21
6367.0884780000006
 31
0.0
  0
LINE
  5
3DF7
  8
0-1
  6
CONTINUOUS
 62
     3
 10
9747.7902640000011
 20
6417.088643000001
 30
0.0
 11
9747.7902640000011
 21
8278.1340270000055
 31
0.0
  0
LINE
  5
3DF8
  8
0-1
  6
CONTINUOUS
 62
     3
 10
9767.7903299999907
 20
6417.088643000001
 30
0.0
 11
9767.7903299999907
 21
8278.1340270000055
 31
0.0
  0
LINE
  5
3DF9
  8
0-1
  6
CONTINUOUS
 62
     3
 10
9697.7905939999964
 20
6417.088643000001
 30
0.0
 11
9697.7905939999964
 21
8278.1340270000055
 31
0.0
  0
LINE
  5
3DFA
  8
0-1
  6
CONTINUOUS
 62
     3
 10
9817.7900000000027
 20
6417.088643000001
 30
0.0
 11
9817.7900000000027
 21
8278.1340270000055
 31
0.0
  0
LINE
  5
3DFB
  8
0-1
  6
CONTINUOUS
 62
     3
 10
9950.7908840000055
 20
6417.088643000001
 30
0.0
 11
9950.7908840000055
 21
8278.1340270000055
 31
0.0
  0
LINE
  5
3DFC
  8
0-1
  6
CONTINUOUS
 62
     3
 10
9965.7896960000016
 20
6417.088643000001
 30
0.0
 11
9965.7896960000016
 21
8278.1340270000055
 31
0.0
  0
LINE
  5
3DFD
  8
0-1
  6
CONTINUOUS
 62
     3
 10
9564.7897090000024
 20
6417.088643000001
 30
0.0
 11
9564.7897090000024
 21
8278.1340270000055
 31
0.0
  0
LINE
  5
3DFE
  8
0-1
  6
CONTINUOUS
 62
     3
 10
9549.7889180000002
 20
6417.088643000001
 30
0.0
 11
9549.7889180000002
 21
8278.1340270000055
 31
0.0
  0
LINE
  5
3DFF
  8
0-1
  6
CONTINUOUS
 62
     3
 10
10249.790236999999
 20
6417.088643000001
 30
0.0
 11
10249.790236999999
 21
8278.1340270000055
 31
0.0
  0
LINE
  5
3E00
  8
0-1
  6
CONTINUOUS
 62
     3
 10
10264.789049999999
 20
6417.088643000001
 30
0.0
 11
10264.789049999999
 21
8278.1340270000055
 31
0.0
  0
LINE
  5
3E01
  8
0-1
  6
CONTINUOUS
 62
     3
 10
10665.79101599999
 20
6417.088643000001
 30
0.0
 11
10665.79101599999
 21
8278.1340270000055
 31
0.0
  0
LINE
  5
3E02
  8
0-1
  6
CONTINUOUS
 62
     3
 10
10650.79022399998
 20
6417.088643000001
 30
0.0
 11
10650.79022399998
 21
8278.1340270000055
 31
0.0
  0
LINE
  5
3E03
  8
0-1
  6
CONTINUOUS
 62
     3
 10
10517.789339999979
 20
6417.088643000001
 30
0.0
 11
10517.789339999979
 21
8278.1340270000055
 31
0.0
  0
LINE
  5
3E04
  8
0-1
  6
CONTINUOUS
 62
     3
 10
10397.789934
 20
6417.088643000001
 30
0.0
 11
10397.789934
 21
8278.1340270000055
 31
0.0
  0
LINE
  5
3E05
  8
0-1
  6
CONTINUOUS
 62
     3
 10
10467.78967
 20
6417.088643000001
 30
0.0
 11
10467.78967
 21
8278.1340270000055
 31
0.0
  0
LINE
  5
3E06
  8
0-1
  6
CONTINUOUS
 62
     3
 10
10447.79059399998
 20
6417.088643000001
 30
0.0
 11
10447.79059399998
 21
8278.1340270000055
 31
0.0
  0
LINE
  5
3E07
  8
0-1
  6
CONTINUOUS
 62
     3
 10
10789.29021099999
 20
8278.1340270000055
 30
0.0
 11
10789.29021099999
 21
6417.088643000001
 31
0.0
  0
LINE
  5
3E08
  8
0-1
  6
CONTINUOUS
 62
     3
 10
10826.29038199999
 20
8278.1340270000055
 30
0.0
 11
10826.29038199999
 21
6417.088643000001
 31
0.0
  0
LINE
  5
3E09
  8
0-1
  6
CONTINUOUS
 62
     3
 10
9389.2895510000017
 20
8278.1340270000055
 30
0.0
 11
9389.2895510000017
 21
6417.088643000001
 31
0.0
  0
LINE
  5
3E0A
  8
0-1
  6
CONTINUOUS
 62
     3
 10
9426.2907120000018
 20
8278.1340270000055
 30
0.0
 11
9426.2907120000018
 21
6417.088643000001
 31
0.0
  0
LINE
  5
3E0B
  8
0-1
  6
CONTINUOUS
 62
     3
 10
10089.288891
 20
8278.1340270000055
 30
0.0
 11
10089.288891
 21
6417.088643000001
 31
0.0
  0
LINE
  5
3E0C
  8
0-1
  6
CONTINUOUS
 62
     3
 10
10126.291042000001
 20
8278.1340270000055
 30
0.0
 11
10126.291042000001
 21
6417.088643000001
 31
0.0
  0
LINE
  5
3E0D
  8
0-1
  6
CONTINUOUS
 62
     3
 10
9066.7882980000031
 20
6417.088643000001
 30
0.0
 11
11489.290541
 21
6417.088643000001
 31
0.0
  0
LINE
  5
3E0E
  8
0-1
  6
CONTINUOUS
 62
     3
 10
11561.79040899999
 20
8491.2470170000033
 30
0.0
 11
11557.236525999981
 21
8621.1657910000013
 31
0.0
  0
LINE
  5
3E0F
  8
0-1
  6
CONTINUOUS
 62
     3
 10
11561.79040899999
 20
8491.2470170000033
 30
0.0
 11
11561.79040899999
 21
8278.1340270000055
 31
0.0
  0
LINE
  5
3E10
  8
0-1
  6
CONTINUOUS
 62
     3
 10
14056.790541
 20
8278.1340270000055
 30
0.0
 11
14056.790541
 21
6367.0884780000006
 31
0.0
  0
LINE
  5
3E11
  8
0-1
  6
CONTINUOUS
 62
     3
 10
14171.790673
 20
8582.3751450000018
 30
0.0
 11
14171.790673
 21
6367.0884780000006
 31
0.0
  0
LINE
  5
3E12
  8
0-1
  6
CONTINUOUS
 62
     3
 10
14151.791596999999
 20
8581.6743959999967
 30
0.0
 11
14151.791596999999
 21
6367.0884780000006
 31
0.0
  0
LINE
  5
3E13
  8
0-1
  6
CONTINUOUS
 62
     3
 10
12997.288785999999
 20
8278.1340270000055
 30
0.0
 11
12997.288785999999
 21
6417.088643000001
 31
0.0
  0
LINE
  5
3E14
  8
0-1
  6
CONTINUOUS
 62
     3
 10
13034.28994699999
 20
8278.1340270000055
 30
0.0
 11
13034.28994699999
 21
6417.088643000001
 31
0.0
  0
LINE
  5
3E15
  8
0-1
  6
CONTINUOUS
 62
     3
 10
13697.29109499999
 20
8278.1340270000055
 30
0.0
 11
13697.29109499999
 21
6417.088643000001
 31
0.0
  0
LINE
  5
3E16
  8
0-1
  6
CONTINUOUS
 62
     3
 10
13734.289287
 20
8278.1340270000055
 30
0.0
 11
13734.289287
 21
6417.088643000001
 31
0.0
  0
LINE
  5
3E17
  8
0-1
  6
CONTINUOUS
 62
     3
 10
12297.289445
 20
8278.1340270000055
 30
0.0
 11
12297.289445
 21
6417.088643000001
 31
0.0
  0
LINE
  5
3E18
  8
0-1
  6
CONTINUOUS
 62
     3
 10
12334.289617
 20
8278.1340270000055
 30
0.0
 11
12334.289617
 21
6417.088643000001
 31
0.0
  0
LINE
  5
3E19
  8
0-1
  6
CONTINUOUS
 62
     3
 10
12675.789234
 20
6417.088643000001
 30
0.0
 11
12675.789234
 21
8278.1340270000055
 31
0.0
  0
LINE
  5
3E1A
  8
0-1
  6
CONTINUOUS
 62
     3
 10
12655.790157999991
 20
6417.088643000001
 30
0.0
 11
12655.790157999991
 21
8278.1340270000055
 31
0.0
  0
LINE
  5
3E1B
  8
0-1
  6
CONTINUOUS
 62
     3
 10
12725.790884
 20
6417.088643000001
 30
0.0
 11
12725.790884
 21
8278.1340270000055
 31
0.0
  0
LINE
  5
3E1C
  8
0-1
  6
CONTINUOUS
 62
     3
 10
12605.78949799998
 20
6417.088643000001
 30
0.0
 11
12605.78949799998
 21
8278.1340270000055
 31
0.0
  0
LINE
  5
3E1D
  8
0-1
  6
CONTINUOUS
 62
     3
 10
12472.790594
 20
6417.088643000001
 30
0.0
 11
12472.790594
 21
8278.1340270000055
 31
0.0
  0
LINE
  5
3E1E
  8
0-1
  6
CONTINUOUS
 62
     3
 10
12457.789801999979
 20
6417.088643000001
 30
0.0
 11
12457.789801999979
 21
8278.1340270000055
 31
0.0
  0
LINE
  5
3E1F
  8
0-1
  6
CONTINUOUS
 62
     3
 10
12858.789789
 20
6417.088643000001
 30
0.0
 11
12858.789789
 21
8278.1340270000055
 31
0.0
  0
LINE
  5
3E20
  8
0-1
  6
CONTINUOUS
 62
     3
 10
12873.788601
 20
6417.088643000001
 30
0.0
 11
12873.788601
 21
8278.1340270000055
 31
0.0
  0
LINE
  5
3E21
  8
0-1
  6
CONTINUOUS
 62
     3
 10
13573.79091
 20
6417.088643000001
 30
0.0
 11
13573.79091
 21
8278.1340270000055
 31
0.0
  0
LINE
  5
3E22
  8
0-1
  6
CONTINUOUS
 62
     3
 10
13558.789128999981
 20
6417.088643000001
 30
0.0
 11
13558.789128999981
 21
8278.1340270000055
 31
0.0
  0
LINE
  5
3E23
  8
0-1
  6
CONTINUOUS
 62
     3
 10
13157.790132
 20
6417.088643000001
 30
0.0
 11
13157.790132
 21
8278.1340270000055
 31
0.0
  0
LINE
  5
3E24
  8
0-1
  6
CONTINUOUS
 62
     3
 10
13172.788944
 20
6417.088643000001
 30
0.0
 11
13172.788944
 21
8278.1340270000055
 31
0.0
  0
LINE
  5
3E25
  8
0-1
  6
CONTINUOUS
 62
     3
 10
13305.788838
 20
6417.088643000001
 30
0.0
 11
13305.788838
 21
8278.1340270000055
 31
0.0
  0
LINE
  5
3E26
  8
0-1
  6
CONTINUOUS
 62
     3
 10
13425.789234
 20
6417.088643000001
 30
0.0
 11
13425.789234
 21
8278.1340270000055
 31
0.0
  0
LINE
  5
3E27
  8
0-1
  6
CONTINUOUS
 62
     3
 10
13355.789498
 20
6417.088643000001
 30
0.0
 11
13355.789498
 21
8278.1340270000055
 31
0.0
  0
LINE
  5
3E28
  8
0-1
  6
CONTINUOUS
 62
     3
 10
13375.788574
 20
6417.088643000001
 30
0.0
 11
13375.788574
 21
8278.1340270000055
 31
0.0
  0
LINE
  5
3E29
  8
0-1
  6
CONTINUOUS
 62
     3
 10
12173.789261
 20
6417.088643000001
 30
0.0
 11
12173.789261
 21
8278.1340270000055
 31
0.0
  0
LINE
  5
3E2A
  8
0-1
  6
CONTINUOUS
 62
     3
 10
12158.789459
 20
6417.088643000001
 30
0.0
 11
12158.789459
 21
8278.1340270000055
 31
0.0
  0
LINE
  5
3E2B
  8
0-1
  6
CONTINUOUS
 62
     3
 10
11757.79046199999
 20
6417.088643000001
 30
0.0
 11
11757.79046199999
 21
8278.1340270000055
 31
0.0
  0
LINE
  5
3E2C
  8
0-1
  6
CONTINUOUS
 62
     3
 10
11772.79125299999
 20
6417.088643000001
 30
0.0
 11
11772.79125299999
 21
8278.1340270000055
 31
0.0
  0
LINE
  5
3E2D
  8
0-1
  6
CONTINUOUS
 62
     3
 10
11905.790158
 20
6417.088643000001
 30
0.0
 11
11905.790158
 21
8278.1340270000055
 31
0.0
  0
LINE
  5
3E2E
  8
0-1
  6
CONTINUOUS
 62
     3
 10
12025.789564000001
 20
6417.088643000001
 30
0.0
 11
12025.789564000001
 21
8278.1340270000055
 31
0.0
  0
LINE
  5
3E2F
  8
0-1
  6
CONTINUOUS
 62
     3
 10
11955.789828000001
 20
6417.088643000001
 30
0.0
 11
11955.789828000001
 21
8278.1340270000055
 31
0.0
  0
LINE
  5
3E30
  8
0-1
  6
CONTINUOUS
 62
     3
 10
11975.78989399999
 20
6417.088643000001
 30
0.0
 11
11975.78989399999
 21
8278.1340270000055
 31
0.0
  0
LINE
  5
3E31
  8
0-1
  6
CONTINUOUS
 62
     3
 10
14184.29040899999
 20
6367.0884780000006
 30
0.0
 11
14184.29040899999
 21
6267.088643000001
 31
0.0
  0
LINE
  5
3E32
  8
0-1
  6
CONTINUOUS
 62
     3
 10
8774.6628230000024
 20
8441.9391889999988
 30
0.0
 11
8773.4701630000018
 21
8475.9166359999981
 31
0.0
  0
LINE
  5
3E33
  8
0-1
  6
CONTINUOUS
 62
     3
 10
8776.364219000001
 20
8479.0205209999967
 30
0.0
 11
14256.08847199999
 21
8670.3805820000016
 31
0.0
  0
LINE
  5
3E34
  8
0-1
  6
CONTINUOUS
 62
     3
 10
14257.487991999989
 20
8630.4071740000036
 30
0.0
 11
8777.7647290000023
 21
8439.0451330000033
 31
0.0
  0
LINE
  5
3E35
  8
0-1
  6
CONTINUOUS
 62
     3
 10
8775.0478390000062
 20
8430.9449430000077
 30
0.0
 11
8775.0448700000015
 21
8431.0102670000033
 31
0.0
  0
LINE
  5
3E36
  8
0-1
  6
CONTINUOUS
 62
     3
 10
8775.0448700000015
 20
8431.0102670000033
 30
0.0
 11
8776.1682470000032
 21
8398.9658199999994
 31
0.0
  0
LINE
  5
3E37
  8
0-1
  6
CONTINUOUS
 62
     3
 10
8781.3397390000009
 20
8394.142722999999
 30
0.0
 11
14280.03173899998
 21
8586.1679030000032
 31
0.0
  0
LINE
  5
3E38
  8
0-1
  6
CONTINUOUS
 62
     3
 10
14275.47983599999
 20
8716.0876660000031
 30
0.0
 11
8776.7878360000013
 21
8524.0634770000015
 31
0.0
  0
LINE
  5
3E39
  8
0-1
  6
CONTINUOUS
 62
     3
 10
8771.9647390000027
 20
8518.890994000003
 30
0.0
 11
8773.0851470000016
 21
8486.9118720000006
 31
0.0
  0
LINE
  5
3E3A
  8
0-1
  6
CONTINUOUS
 62
     3
 10
8776.1900220000007
 20
8484.0178160000032
 30
0.0
 11
14255.91229499998
 21
8675.3778770000008
 31
0.0
  0
LINE
  5
3E3B
  8
0-1
  6
CONTINUOUS
 62
     3
 10
14257.66317899999
 20
8625.4098790000025
 30
0.0
 11
8777.9399160000012
 21
8434.0478379999968
 31
0.0
  0
LINE
  5
3E3C
  8
0-1
  6
CONTINUOUS
 62
     3
 10
8789.2795880000049
 20
8524.500949999996
 30
0.0
 11
8793.8324809999995
 21
8394.5801969999975
 31
0.0
  0
LINE
  5
3E3D
  8
0-5
  6
CONTINUOUS
 62
     4
 10
8994.2904090000029
 20
4587.0885440000002
 30
0.0
 11
8994.2904090000029
 21
4427.0885109999999
 31
0.0
  0
LINE
  5
3E3E
  8
0-5
  6
CONTINUOUS
 62
     4
 10
11561.79040899999
 20
4587.0885440000002
 30
0.0
 11
11561.79040899999
 21
4427.0885109999999
 31
0.0
  0
LINE
  5
3E3F
  8
0-5
  6
CONTINUOUS
 62
     4
 10
14129.29040899999
 20
4587.0885440000002
 30
0.0
 11
14129.29040899999
 21
4427.0885109999999
 31
0.0
  0
LINE
  5
3E40
  8
2-0
  6
CENTER2
 62
     6
 10
8994.2904090000029
 20
6004.4352299999982
 30
0.0
 11
8994.2904090000029
 21
7061.5783230000015
 31
0.0
  0
LINE
  5
3E41
  8
2-0
  6
CENTER2
 62
     6
 10
11561.79040899999
 20
6004.4352299999982
 30
0.0
 11
11561.79040899999
 21
7061.5783230000015
 31
0.0
  0
LINE
  5
3E42
  8
2-0
  6
CENTER2
 62
     6
 10
14129.29040899999
 20
6004.4352299999982
 30
0.0
 11
14129.29040899999
 21
7061.5783230000015
 31
0.0
  0
ARC
  5
3E43
  8
0-1
  6
CONTINUOUS
 62
     3
 10
8779.3513129999974
 20
8436.5994379999975
 30
0.0
 40
2.5
 50
272.00698899981808
 51
92.006988999818205
  0
ARC
  5
3E44
  8
0-1
  6
CONTINUOUS
 62
     3
 10
8777.7766060000085
 20
8481.5731100000048
 30
0.0
 40
2.5
 50
272.00698899981808
 51
92.006988999818205
  0
ARC
  5
3E45
  8
0-1
  6
CONTINUOUS
 62
     3
 10
8776.4691340000081
 20
8476.0215500000031
 30
0.0
 40
3.0
 50
92.006988999818205
 51
182.00698899997451
  0
ARC
  5
3E46
  8
0-1
  6
CONTINUOUS
 62
     3
 10
14256.787241999989
 20
8650.3933829999987
 30
0.0
 40
20.0
 50
272.00698899981808
 51
92.006988999818205
  0
ARC
  5
3E47
  8
0-1
  6
CONTINUOUS
 62
     3
 10
8777.6598139999987
 20
8442.0441040000005
 30
0.0
 40
3.0
 50
182.00698899997451
 51
272.00698899981808
  0
ARC
  5
3E48
  8
0-1
  6
CONTINUOUS
 62
     3
 10
8778.0448300000044
 20
8431.0508469999986
 30
0.0
 40
3.0
 50
92.006988999818205
 51
182.00698899997451
  0
ARC
  5
3E49
  8
0-1
  6
CONTINUOUS
 62
     3
 10
8781.1655409999985
 20
8399.1400180000037
 30
0.0
 40
5.0
 50
182.00698899997451
 51
272.00698899981808
  0
ARC
  5
3E4A
  8
0-1
  6
CONTINUOUS
 62
     3
 10
14251.790936999991
 20
8650.2191850000017
 30
0.0
 40
69.999999000000003
 50
293.7937770000417
 51
70.22019999997768
  0
ARC
  5
3E4B
  8
0-1
  6
CONTINUOUS
 62
     3
 10
8776.9620340000056
 20
8519.0661819999968
 30
0.0
 40
5.0
 50
92.006988999818205
 51
182.00698899997451
  0
ARC
  5
3E4C
  8
0-1
  6
CONTINUOUS
 62
     3
 10
8776.0831280000002
 20
8487.0157970000037
 30
0.0
 40
3.0
 50
182.00698899997451
 51
272.00698899981808
  0
ARC
  5
3E4D
  8
0-1
  6
CONTINUOUS
 62
     3
 10
14256.787241999989
 20
8650.3933829999987
 30
0.0
 40
24.999998999999999
 50
272.00698899981808
 51
92.006988999818205
  0
CIRCLE
  5
3E4E
  8
0-5
  6
CONTINUOUS
 62
     4
 10
8994.2904090000029
 20
4227.0878509999993
 30
0.0
 40
199.9999949999999
  0
CIRCLE
  5
3E4F
  8
0-5
  6
CONTINUOUS
 62
     4
 10
14129.29040899999
 20
4227.0878509999993
 30
0.0
 40
199.9999949999999
  0
CIRCLE
  5
3E50
  8
0-5
  6
CONTINUOUS
 62
     4
 10
11561.79040899999
 20
4227.0878509999993
 30
0.0
 40
199.9999949999999
  0
TEXT
  5
3E51
  8
0-5
  6
CONTINUOUS
 62
     7
 10
8940.0944328542064
 20
4139.8339066382023
 30
0.0
 40
160.0
  1
C
 72
     4
 11
8993.4277661875421
 21
4219.8339066382032
 31
0.0
  0
TEXT
  5
3E52
  8
0-5
  6
CONTINUOUS
 62
     7
 10
11507.59344185418
 20
4139.8339066382023
 30
0.0
 40
160.0
  1
B
 72
     4
 11
11560.92677518752
 21
4219.8339066382032
 31
0.0
  0
TEXT
  5
3E53
  8
0-5
  6
CONTINUOUS
 62
     7
 10
14075.092452854189
 20
4139.8339066382023
 30
0.0
 40
160.0
  1
A
 72
     4
 11
14128.42578618753
 21
4219.8339066382032
 31
0.0
  0
TEXT
  5
3E54
  8
2-0
  6
CONTINUOUS
 62
     7
 10
10092.842126999991
 20
3479.9210370000019
 30
0.0
 40
160.0
  1
側 面 立 面 図
 72
     4
 11
10738.17546033333
 21
3559.9210370000019
 31
0.0
  0
TEXT
  5
3E55
  8
2-0
  6
CONTINUOUS
 62
     7
 10
12089.66764547094
 20
3507.116406000001
 30
0.0
 40
160.0
  1
1
 72
     4
 11
12116.334312137609
 21
3587.1164060000019
 31
0.0
  0
TEXT
  5
3E56
  8
2-0
  6
CONTINUOUS
 62
     7
 10
12332.75636272165
 20
3427.1178740000009
 30
0.0
 40
160.0
  1
80
 72
     4
 11
12452.75636272165
 21
3507.1178740000009
 31
0.0
  0
TEXT
  5
3E57
  8
2-0
  6
CONTINUOUS
 62
     7
 10
11590.66961147095
 20
3479.9210370000019
 30
0.0
 40
160.0
  1
(S=  /   )
 72
     4
 11
12150.66961147095
 21
3559.9210370000019
 31
0.0
  0
LINE
  5
3E58
  8
0-1
  6
CONTINUOUS
 62
     3
 10
9256.2886660000131
 20
6417.088643000001
 30
0.0
 11
9256.2886660000131
 21
8278.1340270000055
 31
0.0
  0
LINE
  5
3E59
  8
0-1
  6
CONTINUOUS
 62
     3
 10
9241.2878750000127
 20
6417.088643000001
 30
0.0
 11
9241.2878750000127
 21
8278.1340270000055
 31
0.0
  0
LINE
  5
3E5A
  8
0-1
  6
CONTINUOUS
 62
     3
 10
13882.29096299999
 20
6417.088643000001
 30
0.0
 11
13882.29096299999
 21
8278.1340270000055
 31
0.0
  0
LINE
  5
3E5B
  8
0-1
  6
CONTINUOUS
 62
     3
 10
13867.28918199999
 20
6417.088643000001
 30
0.0
 11
13867.28918199999
 21
8278.1340270000055
 31
0.0
  0
LINE
  5
3E5C
  8
0-5
  6
CONTINUOUS
 62
     4
 10
14264.29067300001
 20
6367.0884780000006
 30
0.0
 11
15981.75062100001
 21
6367.0884780000006
 31
0.0
  0
LINE
  5
3E5D
  8
0-5
  6
CONTINUOUS
 62
     4
 10
16009.37678200001
 20
6574.9344650000003
 30
0.0
 11
15769.37500099998
 21
6574.9344650000003
 31
0.0
  0
LINE
  5
3E5E
  8
0-5
  6
CONTINUOUS
 62
     4
 10
15889.37440700001
 20
6367.0884780000006
 30
0.0
 11
16009.37678200001
 21
6574.9344650000003
 31
0.0
  0
LINE
  5
3E5F
  8
0-5
  6
CONTINUOUS
 62
     4
 10
15769.37500099998
 20
6574.9344650000003
 30
0.0
 11
15889.37440700001
 21
6367.0884780000006
 31
0.0
  0
TEXT
  5
3E60
  8
0-0
  6
CONTINUOUS
 62
     7
 10
15430.283467999991
 20
6654.9347289999978
 30
0.0
 40
160.0
  1
布基礎天端
 72
     4
 11
15888.95013466666
 21
6734.9347289999987
 31
0.0
  0
LINE
  5
3E61
  8
0-5
  6
CONTINUOUS
 62
     4
 10
16724.674830999971
 20
6474.9351249999991
 30
0.0
 11
16844.67324799997
 21
6267.088643000001
 31
0.0
  0
LINE
  5
3E62
  8
0-5
  6
CONTINUOUS
 62
     4
 10
16844.67324799997
 20
6267.088643000001
 30
0.0
 11
16964.675622999981
 21
6474.9351249999991
 31
0.0
  0
LINE
  5
3E63
  8
0-5
  6
CONTINUOUS
 62
     4
 10
16964.675622999981
 20
6474.9351249999991
 30
0.0
 11
16724.674830999971
 21
6474.9351249999991
 31
0.0
  0
TEXT
  5
3E64
  8
0-0
  6
CONTINUOUS
 62
     7
 10
16724.674830999971
 20
6554.9348940000036
 30
0.0
 40
160.0
  1
G.L
 72
     4
 11
16884.674830999971
 21
6634.9348940000036
 31
0.0
  0
LINE
  5
3E65
  8
0-1
  6
CONTINUOUS
 62
     3
 10
24719.048852999971
 20
8465.5884979999973
 30
0.0
 11
24719.048852999971
 21
8497.5884050000004
 31
0.0
  0
LINE
  5
3E66
  8
0-1
  6
CONTINUOUS
 62
     3
 10
24868.04824599998
 20
8389.4017760000006
 30
0.0
 11
24825.04613499996
 21
8389.4017760000006
 31
0.0
  0
LINE
  5
3E67
  8
0-1
  6
CONTINUOUS
 62
     3
 10
24868.04824599998
 20
8715.5888270000032
 30
0.0
 11
24868.04824599998
 21
8389.4017760000006
 31
0.0
  0
LINE
  5
3E68
  8
0-1
  6
CONTINUOUS
 62
     3
 10
24433.081659999989
 20
8462.0530769999987
 30
0.0
 11
24401.082742999981
 21
8494.0529849999984
 31
0.0
  0
LINE
  5
3E69
  8
0-1
  6
CONTINUOUS
 62
     3
 10
24714.048588999962
 20
8502.5886689999988
 30
0.0
 11
24404.618162999988
 21
8502.5886689999988
 31
0.0
  0
LINE
  5
3E6A
  8
0-1
  6
CONTINUOUS
 62
     3
 10
24719.048852999971
 20
8494.189572000003
 30
0.0
 11
24400.952093999971
 21
8494.189572000003
 31
0.0
  0
LINE
  5
3E6B
  8
0-1
  6
CONTINUOUS
 62
     3
 10
24714.048588999962
 20
8460.5882340000007
 30
0.0
 11
24436.619059999972
 21
8460.5882340000007
 31
0.0
  0
LINE
  5
3E6C
  8
0-1
  6
CONTINUOUS
 62
     3
 10
24719.048852999971
 20
8468.9883209999989
 30
0.0
 11
24426.147406999971
 21
8468.9883209999989
 31
0.0
  0
LINE
  5
3E6D
  8
0-1
  6
CONTINUOUS
 62
     3
 10
24719.048852999971
 20
8477.3884079999971
 30
0.0
 11
24417.748308999981
 21
8477.3884079999971
 31
0.0
  0
LINE
  5
3E6E
  8
0-1
  6
CONTINUOUS
 62
     3
 10
24719.048852999971
 20
8485.7894849999975
 30
0.0
 11
24409.347232999971
 21
8485.7894849999975
 31
0.0
  0
LINE
  5
3E6F
  8
0-1
  6
CONTINUOUS
 62
     3
 10
24832.546530999989
 20
6367.0884779999951
 30
0.0
 11
24732.547189999968
 21
6367.0884779999951
 31
0.0
  0
LINE
  5
3E70
  8
0-1
  6
CONTINUOUS
 62
     3
 10
24732.547189999968
 20
6367.0884779999951
 30
0.0
 11
24732.547189999968
 21
6267.088643000001
 31
0.0
  0
LINE
  5
3E71
  8
0-1
  6
CONTINUOUS
 62
     3
 10
24832.546530999989
 20
6267.088643000001
 30
0.0
 11
24832.546530999989
 21
6367.0884779999951
 31
0.0
  0
LINE
  5
3E72
  8
0-1
  6
CONTINUOUS
 62
     3
 10
24805.04705799996
 20
8715.5888270000032
 30
0.0
 11
24805.04705799996
 21
6367.0884779999951
 31
0.0
  0
LINE
  5
3E73
  8
0-1
  6
CONTINUOUS
 62
     3
 10
24825.04613499996
 20
8585.5879039999982
 30
0.0
 11
24825.04613499996
 21
6367.0884779999951
 31
0.0
  0
LINE
  5
3E74
  8
0-1
  6
CONTINUOUS
 62
     3
 10
24695.047189999968
 20
8275.0885369999942
 30
0.0
 11
24695.047189999968
 21
6267.088643000001
 31
0.0
  0
LINE
  5
3E75
  8
0-1
  6
CONTINUOUS
 62
     3
 10
24740.047585999971
 20
8585.5879039999982
 30
0.0
 11
24740.047585999971
 21
6367.0884779999951
 31
0.0
  0
LINE
  5
3E76
  8
0-1
  6
CONTINUOUS
 62
     3
 10
22564.512061000001
 20
8462.0530769999987
 30
0.0
 11
22596.508999000001
 21
8494.0529849999984
 31
0.0
  0
LINE
  5
3E77
  8
0-1
  6
CONTINUOUS
 62
     3
 10
22278.546847000001
 20
8465.5884979999973
 30
0.0
 11
22278.546847000001
 21
8497.5884050000004
 31
0.0
  0
LINE
  5
3E78
  8
0-1
  6
CONTINUOUS
 62
     3
 10
22278.546847000001
 20
8468.9883209999989
 30
0.0
 11
22571.444334999971
 21
8468.9883209999989
 31
0.0
  0
LINE
  5
3E79
  8
0-1
  6
CONTINUOUS
 62
     3
 10
22278.546847000001
 20
8477.3884079999971
 30
0.0
 11
22579.845411999991
 21
8477.3884079999971
 31
0.0
  0
LINE
  5
3E7A
  8
0-1
  6
CONTINUOUS
 62
     3
 10
22283.547110999989
 20
8460.5882340000007
 30
0.0
 11
22560.974660999989
 21
8460.5882340000007
 31
0.0
  0
LINE
  5
3E7B
  8
0-1
  6
CONTINUOUS
 62
     3
 10
22278.546847000001
 20
8485.7894849999975
 30
0.0
 11
22588.244509
 21
8485.7894849999975
 31
0.0
  0
LINE
  5
3E7C
  8
0-1
  6
CONTINUOUS
 62
     3
 10
22278.546847000001
 20
8494.189572000003
 30
0.0
 11
22596.641627000001
 21
8494.189572000003
 31
0.0
  0
LINE
  5
3E7D
  8
0-1
  6
CONTINUOUS
 62
     3
 10
22283.547110999989
 20
8502.5886689999988
 30
0.0
 11
22592.975558000009
 21
8502.5886689999988
 31
0.0
  0
LINE
  5
3E7E
  8
0-1
  6
CONTINUOUS
 62
     3
 10
22257.544154999989
 20
8585.5879039999982
 30
0.0
 11
22257.544154999989
 21
6267.088643000001
 31
0.0
  0
LINE
  5
3E7F
  8
0-1
  6
CONTINUOUS
 62
     3
 10
22302.54455100001
 20
8275.0885369999942
 30
0.0
 11
22302.54455100001
 21
6267.088643000001
 31
0.0
  0
LINE
  5
3E80
  8
0-1
  6
CONTINUOUS
 62
     3
 10
24868.04824599998
 20
8585.5879039999982
 30
0.0
 11
22215.04587099998
 21
8585.5879039999982
 31
0.0
  0
LINE
  5
3E81
  8
0-1
  6
CONTINUOUS
 62
     3
 10
22257.544154999989
 20
8511.5885500000004
 30
0.0
 11
24740.047585999971
 21
8511.5885500000004
 31
0.0
  0
LINE
  5
3E82
  8
0-1
  6
CONTINUOUS
 62
     3
 10
22302.54455100001
 20
8206.5482009999978
 30
0.0
 11
24695.047189999968
 21
8206.5482009999978
 31
0.0
  0
LINE
  5
3E83
  8
0-1
  6
CONTINUOUS
 62
     3
 10
22302.54455100001
 20
6852.0893359999973
 30
0.0
 11
24695.047189999968
 21
6852.0893359999973
 31
0.0
  0
LINE
  5
3E84
  8
0-1
  6
CONTINUOUS
 62
     3
 10
22302.54455100001
 20
6917.0883130000002
 30
0.0
 11
24695.047189999968
 21
6917.0883130000002
 31
0.0
  0
LINE
  5
3E85
  8
0-1
  6
CONTINUOUS
 62
     3
 10
22302.54455100001
 20
6982.0887749999983
 30
0.0
 11
24695.047189999968
 21
6982.0887749999983
 31
0.0
  0
LINE
  5
3E86
  8
0-1
  6
CONTINUOUS
 62
     3
 10
22302.54455100001
 20
7047.0887419999972
 30
0.0
 11
24695.047189999968
 21
7047.0887419999972
 31
0.0
  0
LINE
  5
3E87
  8
0-1
  6
CONTINUOUS
 62
     3
 10
22302.54455100001
 20
7112.0887089999969
 30
0.0
 11
24695.047189999968
 21
7112.0887089999969
 31
0.0
  0
LINE
  5
3E88
  8
0-1
  6
CONTINUOUS
 62
     3
 10
22302.54455100001
 20
7177.0886759999976
 30
0.0
 11
24695.047189999968
 21
7177.0886759999976
 31
0.0
  0
LINE
  5
3E89
  8
0-1
  6
CONTINUOUS
 62
     3
 10
22302.54455100001
 20
7242.089138000003
 30
0.0
 11
24695.047189999968
 21
7242.089138000003
 31
0.0
  0
LINE
  5
3E8A
  8
0-1
  6
CONTINUOUS
 62
     3
 10
22302.54455100001
 20
7307.0881149999977
 30
0.0
 11
24695.047189999968
 21
7307.0881149999977
 31
0.0
  0
LINE
  5
3E8B
  8
0-1
  6
CONTINUOUS
 62
     3
 10
22302.54455100001
 20
7372.0885769999977
 30
0.0
 11
24695.047189999968
 21
7372.0885769999977
 31
0.0
  0
LINE
  5
3E8C
  8
0-1
  6
CONTINUOUS
 62
     3
 10
22302.54455100001
 20
7437.0885439999984
 30
0.0
 11
24695.047189999968
 21
7437.0885439999984
 31
0.0
  0
LINE
  5
3E8D
  8
0-1
  6
CONTINUOUS
 62
     3
 10
22302.54455100001
 20
7502.0890059999974
 30
0.0
 11
24695.047189999968
 21
7502.0890059999974
 31
0.0
  0
LINE
  5
3E8E
  8
0-1
  6
CONTINUOUS
 62
     3
 10
22302.54455100001
 20
7567.0879829999967
 30
0.0
 11
24695.047189999968
 21
7567.0879829999967
 31
0.0
  0
LINE
  5
3E8F
  8
0-1
  6
CONTINUOUS
 62
     3
 10
22302.54455100001
 20
7632.0884449999976
 30
0.0
 11
24695.047189999968
 21
7632.0884449999976
 31
0.0
  0
LINE
  5
3E90
  8
0-1
  6
CONTINUOUS
 62
     3
 10
22302.54455100001
 20
7697.0884119999992
 30
0.0
 11
24695.047189999968
 21
7697.0884119999992
 31
0.0
  0
LINE
  5
3E91
  8
0-1
  6
CONTINUOUS
 62
     3
 10
22302.54455100001
 20
7762.0883789999989
 30
0.0
 11
24695.047189999968
 21
7762.0883789999989
 31
0.0
  0
LINE
  5
3E92
  8
0-1
  6
CONTINUOUS
 62
     3
 10
22302.54455100001
 20
7827.0888410000007
 30
0.0
 11
24695.047189999968
 21
7827.0888410000007
 31
0.0
  0
LINE
  5
3E93
  8
0-1
  6
CONTINUOUS
 62
     3
 10
22302.54455100001
 20
7892.0888079999977
 30
0.0
 11
24695.047189999968
 21
7892.0888079999977
 31
0.0
  0
LINE
  5
3E94
  8
0-1
  6
CONTINUOUS
 62
     3
 10
22302.54455100001
 20
7957.0892699999968
 30
0.0
 11
24695.047189999968
 21
7957.0892699999968
 31
0.0
  0
LINE
  5
3E95
  8
0-1
  6
CONTINUOUS
 62
     3
 10
22302.54455100001
 20
8022.0882469999933
 30
0.0
 11
24695.047189999968
 21
8022.0882469999933
 31
0.0
  0
LINE
  5
3E96
  8
0-1
  6
CONTINUOUS
 62
     3
 10
22302.54455100001
 20
8087.0887089999969
 30
0.0
 11
24695.047189999968
 21
8087.0887089999969
 31
0.0
  0
LINE
  5
3E97
  8
0-1
  6
CONTINUOUS
 62
     3
 10
22302.54455100001
 20
8152.0886759999976
 30
0.0
 11
24695.047189999968
 21
8152.0886759999976
 31
0.0
  0
LINE
  5
3E98
  8
0-1
  6
CONTINUOUS
 62
     3
 10
22302.54455100001
 20
6332.0881149999968
 30
0.0
 11
24695.047189999968
 21
6332.0881149999968
 31
0.0
  0
LINE
  5
3E99
  8
0-1
  6
CONTINUOUS
 62
     3
 10
22302.54455100001
 20
6397.0890719999979
 30
0.0
 11
24695.047189999968
 21
6397.0890719999979
 31
0.0
  0
LINE
  5
3E9A
  8
0-1
  6
CONTINUOUS
 62
     3
 10
22302.54455100001
 20
6462.088048999999
 30
0.0
 11
24695.047189999968
 21
6462.088048999999
 31
0.0
  0
LINE
  5
3E9B
  8
0-1
  6
CONTINUOUS
 62
     3
 10
22302.54455100001
 20
6527.0890059999974
 30
0.0
 11
24695.047189999968
 21
6527.0890059999974
 31
0.0
  0
LINE
  5
3E9C
  8
0-1
  6
CONTINUOUS
 62
     3
 10
22302.54455100001
 20
6592.0884779999988
 30
0.0
 11
24695.047189999968
 21
6592.0884779999988
 31
0.0
  0
LINE
  5
3E9D
  8
0-1
  6
CONTINUOUS
 62
     3
 10
22302.54455100001
 20
6657.0884450000012
 30
0.0
 11
24695.047189999968
 21
6657.0884450000012
 31
0.0
  0
LINE
  5
3E9E
  8
0-1
  6
CONTINUOUS
 62
     3
 10
22302.54455100001
 20
6722.0884119999992
 30
0.0
 11
24695.047189999968
 21
6722.0884119999992
 31
0.0
  0
LINE
  5
3E9F
  8
0-1
  6
CONTINUOUS
 62
     3
 10
22302.54455100001
 20
6787.0878839999987
 30
0.0
 11
24695.047189999968
 21
6787.0878839999987
 31
0.0
  0
LINE
  5
3EA0
  8
0-1
  6
CONTINUOUS
 62
     3
 10
22257.544154999989
 20
8451.5883519999988
 30
0.0
 11
24740.047585999971
 21
8451.5883519999988
 31
0.0
  0
LINE
  5
3EA1
  8
0-1
  6
CONTINUOUS
 62
     3
 10
22257.544154999989
 20
8275.0885369999942
 30
0.0
 11
24740.047585999971
 21
8275.0885369999942
 31
0.0
  0
LINE
  5
3EA2
  8
0-1
  6
CONTINUOUS
 62
     3
 10
19597.545211999979
 20
6267.088643000001
 30
0.0
 11
24832.546530999989
 21
6267.088643000001
 31
0.0
  0
LINE
  5
3EA3
  8
0-1
  6
CONTINUOUS
 62
     3
 10
22215.04587099998
 20
8715.5888270000032
 30
0.0
 11
24868.04824599998
 21
8715.5888270000032
 31
0.0
  0
LINE
  5
3EA4
  8
0-1
  6
CONTINUOUS
 62
     3
 10
22151.544894999981
 20
8465.5884979999973
 30
0.0
 11
22151.544894999981
 21
8497.5884050000004
 31
0.0
  0
LINE
  5
3EA5
  8
0-1
  6
CONTINUOUS
 62
     3
 10
21865.583639999972
 20
8462.0530769999987
 30
0.0
 11
21833.582742999981
 21
8494.0529849999984
 31
0.0
  0
LINE
  5
3EA6
  8
0-1
  6
CONTINUOUS
 62
     3
 10
22151.544894999981
 20
8494.189572000003
 30
0.0
 11
21833.452094999961
 21
8494.189572000003
 31
0.0
  0
LINE
  5
3EA7
  8
0-1
  6
CONTINUOUS
 62
     3
 10
22151.544894999981
 20
8485.7894849999975
 30
0.0
 11
21841.84723299996
 21
8485.7894849999975
 31
0.0
  0
LINE
  5
3EA8
  8
0-1
  6
CONTINUOUS
 62
     3
 10
22151.544894999981
 20
8477.3884079999971
 30
0.0
 11
21850.24632999998
 21
8477.3884079999971
 31
0.0
  0
LINE
  5
3EA9
  8
0-1
  6
CONTINUOUS
 62
     3
 10
22151.544894999981
 20
8468.9883209999989
 30
0.0
 11
21858.64542799996
 21
8468.9883209999989
 31
0.0
  0
LINE
  5
3EAA
  8
0-1
  6
CONTINUOUS
 62
     3
 10
22146.546609999968
 20
8502.5886689999988
 30
0.0
 11
21837.11618399998
 21
8502.5886689999988
 31
0.0
  0
LINE
  5
3EAB
  8
0-1
  6
CONTINUOUS
 62
     3
 10
22146.546609999968
 20
8460.5882340000007
 30
0.0
 11
21869.119060999968
 21
8460.5882340000007
 31
0.0
  0
LINE
  5
3EAC
  8
0-1
  6
CONTINUOUS
 62
     3
 10
22172.545606999971
 20
8585.5879039999982
 30
0.0
 11
22172.545606999971
 21
6267.088643000001
 31
0.0
  0
LINE
  5
3EAD
  8
0-1
  6
CONTINUOUS
 62
     3
 10
22127.547190999961
 20
8275.0885369999942
 30
0.0
 11
22127.547190999961
 21
6267.088643000001
 31
0.0
  0
LINE
  5
3EAE
  8
0-1
  6
CONTINUOUS
 62
     3
 10
19716.045131999981
 20
8460.5882340000007
 30
0.0
 11
19993.47466199995
 21
8460.5882340000007
 31
0.0
  0
LINE
  5
3EAF
  8
0-1
  6
CONTINUOUS
 62
     3
 10
19711.046847999969
 20
8465.5884979999973
 30
0.0
 11
19711.046847999969
 21
8497.5884050000004
 31
0.0
  0
LINE
  5
3EB0
  8
0-1
  6
CONTINUOUS
 62
     3
 10
19562.045475999959
 20
8389.4017760000006
 30
0.0
 11
19605.043627999981
 21
8389.4017760000006
 31
0.0
  0
LINE
  5
3EB1
  8
0-1
  6
CONTINUOUS
 62
     3
 10
19562.045475999959
 20
8389.4017760000006
 30
0.0
 11
19562.045475999959
 21
8715.5888270000032
 31
0.0
  0
LINE
  5
3EB2
  8
0-1
  6
CONTINUOUS
 62
     3
 10
19716.045131999981
 20
8502.5886689999988
 30
0.0
 11
20025.47555899998
 21
8502.5886689999988
 31
0.0
  0
LINE
  5
3EB3
  8
0-1
  6
CONTINUOUS
 62
     3
 10
19997.008101999982
 20
8462.0530769999987
 30
0.0
 11
20029.008999999969
 21
8494.0529849999984
 31
0.0
  0
LINE
  5
3EB4
  8
0-1
  6
CONTINUOUS
 62
     3
 10
19711.046847999969
 20
8494.189572000003
 30
0.0
 11
20029.141626999979
 21
8494.189572000003
 31
0.0
  0
LINE
  5
3EB5
  8
0-1
  6
CONTINUOUS
 62
     3
 10
19711.046847999969
 20
8485.7894849999975
 30
0.0
 11
20020.74450999999
 21
8485.7894849999975
 31
0.0
  0
LINE
  5
3EB6
  8
0-1
  6
CONTINUOUS
 62
     3
 10
19711.046847999969
 20
8477.3884079999971
 30
0.0
 11
20012.345411999991
 21
8477.3884079999971
 31
0.0
  0
LINE
  5
3EB7
  8
0-1
  6
CONTINUOUS
 62
     3
 10
19711.046847999969
 20
8468.9883209999989
 30
0.0
 11
20003.946314999979
 21
8468.9883209999989
 31
0.0
  0
LINE
  5
3EB8
  8
0-1
  6
CONTINUOUS
 62
     3
 10
19697.546530999982
 20
6367.0884779999951
 30
0.0
 11
19697.546530999982
 21
6267.088643000001
 31
0.0
  0
LINE
  5
3EB9
  8
0-1
  6
CONTINUOUS
 62
     3
 10
19597.545211999979
 20
6267.088643000001
 30
0.0
 11
19597.545211999979
 21
6367.0884779999951
 31
0.0
  0
LINE
  5
3EBA
  8
0-1
  6
CONTINUOUS
 62
     3
 10
19597.545211999979
 20
6367.0884779999951
 30
0.0
 11
19697.546530999982
 21
6367.0884779999951
 31
0.0
  0
LINE
  5
3EBB
  8
0-1
  6
CONTINUOUS
 62
     3
 10
19735.046530999982
 20
8275.0885369999942
 30
0.0
 11
19735.046530999982
 21
6267.088643000001
 31
0.0
  0
LINE
  5
3EBC
  8
0-1
  6
CONTINUOUS
 62
     3
 10
19690.044155999982
 20
8585.5879039999982
 30
0.0
 11
19690.044155999982
 21
6367.0884779999951
 31
0.0
  0
LINE
  5
3EBD
  8
0-1
  6
CONTINUOUS
 62
     3
 10
19625.046662999961
 20
8715.5888270000032
 30
0.0
 11
19625.046662999961
 21
6367.0884779999951
 31
0.0
  0
LINE
  5
3EBE
  8
0-1
  6
CONTINUOUS
 62
     3
 10
19605.043627999981
 20
8585.5879039999982
 30
0.0
 11
19605.043627999981
 21
6367.0884779999951
 31
0.0
  0
LINE
  5
3EBF
  8
0-1
  6
CONTINUOUS
 62
     3
 10
19690.044155999982
 20
8275.0885369999942
 30
0.0
 11
22172.545606999971
 21
8275.0885369999942
 31
0.0
  0
LINE
  5
3EC0
  8
0-1
  6
CONTINUOUS
 62
     3
 10
19690.044155999982
 20
8451.5883519999988
 30
0.0
 11
22172.545606999971
 21
8451.5883519999988
 31
0.0
  0
LINE
  5
3EC1
  8
0-1
  6
CONTINUOUS
 62
     3
 10
19735.046530999982
 20
6787.0878839999987
 30
0.0
 11
22127.547190999961
 21
6787.0878839999987
 31
0.0
  0
LINE
  5
3EC2
  8
0-1
  6
CONTINUOUS
 62
     3
 10
19735.046530999982
 20
6722.0884119999992
 30
0.0
 11
22127.547190999961
 21
6722.0884119999992
 31
0.0
  0
LINE
  5
3EC3
  8
0-1
  6
CONTINUOUS
 62
     3
 10
19735.046530999982
 20
6657.0884450000012
 30
0.0
 11
22127.547190999961
 21
6657.0884450000012
 31
0.0
  0
LINE
  5
3EC4
  8
0-1
  6
CONTINUOUS
 62
     3
 10
19735.046530999982
 20
6592.0884779999988
 30
0.0
 11
22127.547190999961
 21
6592.0884779999988
 31
0.0
  0
LINE
  5
3EC5
  8
0-1
  6
CONTINUOUS
 62
     3
 10
19735.046530999982
 20
6527.0890059999974
 30
0.0
 11
22127.547190999961
 21
6527.0890059999974
 31
0.0
  0
LINE
  5
3EC6
  8
0-1
  6
CONTINUOUS
 62
     3
 10
19735.046530999982
 20
6462.088048999999
 30
0.0
 11
22127.547190999961
 21
6462.088048999999
 31
0.0
  0
LINE
  5
3EC7
  8
0-1
  6
CONTINUOUS
 62
     3
 10
19735.046530999982
 20
6397.0890719999979
 30
0.0
 11
22127.547190999961
 21
6397.0890719999979
 31
0.0
  0
LINE
  5
3EC8
  8
0-1
  6
CONTINUOUS
 62
     3
 10
19735.046530999982
 20
6332.0881149999968
 30
0.0
 11
22127.547190999961
 21
6332.0881149999968
 31
0.0
  0
LINE
  5
3EC9
  8
0-1
  6
CONTINUOUS
 62
     3
 10
19735.046530999982
 20
8152.0886759999976
 30
0.0
 11
22127.547190999961
 21
8152.0886759999976
 31
0.0
  0
LINE
  5
3ECA
  8
0-1
  6
CONTINUOUS
 62
     3
 10
19735.046530999982
 20
8087.0887089999969
 30
0.0
 11
22127.547190999961
 21
8087.0887089999969
 31
0.0
  0
LINE
  5
3ECB
  8
0-1
  6
CONTINUOUS
 62
     3
 10
19735.046530999982
 20
8022.0882469999933
 30
0.0
 11
22127.547190999961
 21
8022.0882469999933
 31
0.0
  0
LINE
  5
3ECC
  8
0-1
  6
CONTINUOUS
 62
     3
 10
19735.046530999982
 20
7957.0892699999968
 30
0.0
 11
22127.547190999961
 21
7957.0892699999968
 31
0.0
  0
LINE
  5
3ECD
  8
0-1
  6
CONTINUOUS
 62
     3
 10
19735.046530999982
 20
7892.0888079999977
 30
0.0
 11
22127.547190999961
 21
7892.0888079999977
 31
0.0
  0
LINE
  5
3ECE
  8
0-1
  6
CONTINUOUS
 62
     3
 10
19735.046530999982
 20
7827.0888410000007
 30
0.0
 11
22127.547190999961
 21
7827.0888410000007
 31
0.0
  0
LINE
  5
3ECF
  8
0-1
  6
CONTINUOUS
 62
     3
 10
19735.046530999982
 20
7762.0883789999989
 30
0.0
 11
22127.547190999961
 21
7762.0883789999989
 31
0.0
  0
LINE
  5
3ED0
  8
0-1
  6
CONTINUOUS
 62
     3
 10
19735.046530999982
 20
7697.0884119999992
 30
0.0
 11
22127.547190999961
 21
7697.0884119999992
 31
0.0
  0
LINE
  5
3ED1
  8
0-1
  6
CONTINUOUS
 62
     3
 10
19735.046530999982
 20
7632.0884449999976
 30
0.0
 11
22127.547190999961
 21
7632.0884449999976
 31
0.0
  0
LINE
  5
3ED2
  8
0-1
  6
CONTINUOUS
 62
     3
 10
19735.046530999982
 20
7567.0879829999967
 30
0.0
 11
22127.547190999961
 21
7567.0879829999967
 31
0.0
  0
LINE
  5
3ED3
  8
0-1
  6
CONTINUOUS
 62
     3
 10
19735.046530999982
 20
7502.0890059999974
 30
0.0
 11
22127.547190999961
 21
7502.0890059999974
 31
0.0
  0
LINE
  5
3ED4
  8
0-1
  6
CONTINUOUS
 62
     3
 10
19735.046530999982
 20
7437.0885439999984
 30
0.0
 11
22127.547190999961
 21
7437.0885439999984
 31
0.0
  0
LINE
  5
3ED5
  8
0-1
  6
CONTINUOUS
 62
     3
 10
19735.046530999982
 20
7372.0885769999977
 30
0.0
 11
22127.547190999961
 21
7372.0885769999977
 31
0.0
  0
LINE
  5
3ED6
  8
0-1
  6
CONTINUOUS
 62
     3
 10
19735.046530999982
 20
7307.0881149999977
 30
0.0
 11
22127.547190999961
 21
7307.0881149999977
 31
0.0
  0
LINE
  5
3ED7
  8
0-1
  6
CONTINUOUS
 62
     3
 10
19735.046530999982
 20
7242.089138000003
 30
0.0
 11
22127.547190999961
 21
7242.089138000003
 31
0.0
  0
LINE
  5
3ED8
  8
0-1
  6
CONTINUOUS
 62
     3
 10
19735.046530999982
 20
7177.0886759999976
 30
0.0
 11
22127.547190999961
 21
7177.0886759999976
 31
0.0
  0
LINE
  5
3ED9
  8
0-1
  6
CONTINUOUS
 62
     3
 10
19735.046530999982
 20
7112.0887089999969
 30
0.0
 11
22127.547190999961
 21
7112.0887089999969
 31
0.0
  0
LINE
  5
3EDA
  8
0-1
  6
CONTINUOUS
 62
     3
 10
19735.046530999982
 20
7047.0887419999972
 30
0.0
 11
22127.547190999961
 21
7047.0887419999972
 31
0.0
  0
LINE
  5
3EDB
  8
0-1
  6
CONTINUOUS
 62
     3
 10
19735.046530999982
 20
6982.0887749999983
 30
0.0
 11
22127.547190999961
 21
6982.0887749999983
 31
0.0
  0
LINE
  5
3EDC
  8
0-1
  6
CONTINUOUS
 62
     3
 10
19735.046530999982
 20
6917.0883130000002
 30
0.0
 11
22127.547190999961
 21
6917.0883130000002
 31
0.0
  0
LINE
  5
3EDD
  8
0-1
  6
CONTINUOUS
 62
     3
 10
19735.046530999982
 20
6852.0893359999973
 30
0.0
 11
22127.547190999961
 21
6852.0893359999973
 31
0.0
  0
LINE
  5
3EDE
  8
0-1
  6
CONTINUOUS
 62
     3
 10
19735.046530999982
 20
8206.5482009999978
 30
0.0
 11
22127.547190999961
 21
8206.5482009999978
 31
0.0
  0
LINE
  5
3EDF
  8
0-1
  6
CONTINUOUS
 62
     3
 10
19690.044155999982
 20
8511.5885500000004
 30
0.0
 11
22172.545606999971
 21
8511.5885500000004
 31
0.0
  0
LINE
  5
3EE0
  8
0-1
  6
CONTINUOUS
 62
     3
 10
19562.045475999959
 20
8715.5888270000032
 30
0.0
 11
22215.04587099998
 21
8715.5888270000032
 31
0.0
  0
LINE
  5
3EE1
  8
0-1
  6
CONTINUOUS
 62
     3
 10
22215.04587099998
 20
8585.5879039999982
 30
0.0
 11
19562.045475999959
 21
8585.5879039999982
 31
0.0
  0
LINE
  5
3EE2
  8
0-1
  6
CONTINUOUS
 62
     3
 10
22215.04587099998
 20
8585.5879039999982
 30
0.0
 11
22215.04587099998
 21
8715.5888270000032
 31
0.0
  0
LINE
  5
3EE3
  8
0-1
  6
CONTINUOUS
 62
     3
 10
22215.04587099998
 20
8585.5879039999982
 30
0.0
 11
22215.04587099998
 21
8715.5888270000032
 31
0.0
  0
LINE
  5
3EE4
  8
0-2
  6
CONTINUOUS
 62
     4
 10
23862.48787099999
 20
7014.3143469999986
 30
0.0
 11
23762.488530999992
 21
7014.3143469999986
 31
0.0
  0
LINE
  5
3EE5
  8
0-2
  6
CONTINUOUS
 62
     4
 10
23135.101890999991
 20
7014.3143469999986
 30
0.0
 11
23235.101231999961
 21
7014.3143469999986
 31
0.0
  0
LINE
  5
3EE6
  8
0-2
  6
CONTINUOUS
 62
     4
 10
21294.98688149999
 20
7014.3143469999986
 30
0.0
 11
21194.987541499981
 21
7014.3143469999986
 31
0.0
  0
LINE
  5
3EE7
  8
0-2
  6
CONTINUOUS
 62
     4
 10
20567.602880499991
 20
7014.3143469999986
 30
0.0
 11
20667.600241499971
 21
7014.3143469999986
 31
0.0
  0
LINE
  5
3EE8
  8
0-5
  6
CONTINUOUS
 62
     4
 10
22215.04587099998
 20
4587.0885439999929
 30
0.0
 11
22215.04587099998
 21
4427.0885109999999
 31
0.0
  0
LINE
  5
3EE9
  8
0-5
  6
CONTINUOUS
 62
     4
 10
19647.54587099998
 20
4587.0885439999929
 30
0.0
 11
19647.54587099998
 21
4427.0885109999999
 31
0.0
  0
LINE
  5
3EEA
  8
2-0
  6
CENTER2
 62
     6
 10
24782.54587099998
 20
6004.4362199999978
 30
0.0
 11
24782.54587099998
 21
7041.5782569999992
 31
0.0
  0
LINE
  5
3EEB
  8
2-0
  6
CENTER2
 62
     6
 10
22215.04587099998
 20
6004.4362199999978
 30
0.0
 11
22215.04587099998
 21
7041.5782569999992
 31
0.0
  0
LINE
  5
3EEC
  8
2-0
  6
CENTER2
 62
     6
 10
19647.54587099998
 20
6004.4362199999978
 30
0.0
 11
19647.54587099998
 21
7041.5782569999992
 31
0.0
  0
ARC
  5
3EED
  8
0-1
  6
CONTINUOUS
 62
     3
 10
24714.048588999962
 20
8497.5884050000004
 30
0.0
 40
5.0
 50
0.0
 51
90.0
  0
ARC
  5
3EEE
  8
0-1
  6
CONTINUOUS
 62
     3
 10
24714.048588999962
 20
8465.5884979999973
 30
0.0
 40
5.0
 50
269.9999850001808
 51
0.0
  0
ARC
  5
3EEF
  8
0-1
  6
CONTINUOUS
 62
     3
 10
24404.618162999988
 20
8497.5884050000004
 30
0.0
 40
5.0
 50
90.0
 51
224.9999849999798
  0
ARC
  5
3EF0
  8
0-1
  6
CONTINUOUS
 62
     3
 10
24436.619059999972
 20
8465.5884979999973
 30
0.0
 40
5.0
 50
224.9999849999798
 51
269.9999850001808
  0
ARC
  5
3EF1
  8
0-1
  6
CONTINUOUS
 62
     3
 10
22592.975558000009
 20
8497.5884050000004
 30
0.0
 40
5.0
 50
314.99998500027471
 51
90.0
  0
ARC
  5
3EF2
  8
0-1
  6
CONTINUOUS
 62
     3
 10
22560.974660999989
 20
8465.5884979999973
 30
0.0
 40
5.0
 50
269.9999850001808
 51
314.99998500027471
  0
ARC
  5
3EF3
  8
0-1
  6
CONTINUOUS
 62
     3
 10
22283.547110999989
 20
8465.5884979999973
 30
0.0
 40
5.0
 50
180.0
 51
269.9999850001808
  0
ARC
  5
3EF4
  8
0-1
  6
CONTINUOUS
 62
     3
 10
22283.547110999989
 20
8497.5884050000004
 30
0.0
 40
5.0
 50
90.0
 51
180.0
  0
ARC
  5
3EF5
  8
0-1
  6
CONTINUOUS
 62
     3
 10
22146.546609999968
 20
8465.5884979999973
 30
0.0
 40
5.0
 50
269.9999850001808
 51
0.0
  0
ARC
  5
3EF6
  8
0-1
  6
CONTINUOUS
 62
     3
 10
22146.546609999968
 20
8497.5884050000004
 30
0.0
 40
5.0
 50
0.0
 51
90.0
  0
ARC
  5
3EF7
  8
0-1
  6
CONTINUOUS
 62
     3
 10
21837.11618399998
 20
8497.5884050000004
 30
0.0
 40
5.0
 50
90.0
 51
224.9999849999798
  0
ARC
  5
3EF8
  8
0-1
  6
CONTINUOUS
 62
     3
 10
21869.119060999968
 20
8465.5884979999973
 30
0.0
 40
5.0
 50
224.9999849999798
 51
269.9999850001808
  0
ARC
  5
3EF9
  8
0-1
  6
CONTINUOUS
 62
     3
 10
20025.47555899998
 20
8497.5884050000004
 30
0.0
 40
5.0
 50
314.99998500027471
 51
90.0
  0
ARC
  5
3EFA
  8
0-1
  6
CONTINUOUS
 62
     3
 10
19716.045131999981
 20
8497.5884050000004
 30
0.0
 40
5.0
 50
90.0
 51
180.0
  0
ARC
  5
3EFB
  8
0-1
  6
CONTINUOUS
 62
     3
 10
19716.045131999981
 20
8465.5884979999973
 30
0.0
 40
5.0
 50
180.0
 51
269.9999850001808
  0
ARC
  5
3EFC
  8
0-1
  6
CONTINUOUS
 62
     3
 10
19993.47466199995
 20
8465.5884979999973
 30
0.0
 40
5.0
 50
269.9999850001808
 51
314.99998500027471
  0
CIRCLE
  5
3EFD
  8
0-5
  6
CONTINUOUS
 62
     4
 10
22215.04587099998
 20
4227.0888409999989
 30
0.0
 40
199.9999949999999
  0
CIRCLE
  5
3EFE
  8
0-5
  6
CONTINUOUS
 62
     4
 10
19647.54587099998
 20
4227.0888409999989
 30
0.0
 40
199.9999949999999
  0
TEXT
  5
3EFF
  8
0-5
  6
CONTINUOUS
 62
     7
 10
19029.369931999991
 20
6996.4488897419951
 30
0.0
 40
160.0
  1
(2131.5)
 50
90.0
 72
     4
 11
18949.369931999991
 21
7449.7822230753281
 31
0.0
  0
TEXT
  5
3F00
  8
0-5
  6
CONTINUOUS
 62
     7
 10
22168.11742399996
 20
4140.5588870000001
 30
0.0
 40
160.0
  1
2
 72
     4
 11
22221.450757333299
 21
4220.5588869999992
 31
0.0
  0
TEXT
  5
3F01
  8
0-5
  6
CONTINUOUS
 62
     7
 10
19600.613464999969
 20
4140.5588870000001
 30
0.0
 40
160.0
  1
1
 72
     4
 11
19627.280131666641
 21
4220.5588869999992
 31
0.0
  0
CIRCLE
  5
3F02
  8
0-4
  6
CONTINUOUS
 62
     4
 10
20931.295870999991
 20
6753.144583999996
 30
0.0
 40
18.487504999999981
  0
CIRCLE
  5
3F03
  8
0-4
  6
CONTINUOUS
 62
     4
 10
23498.79587099998
 20
6753.144583999996
 30
0.0
 40
18.487504999999981
  0
LINE
  5
3F04
  8
SUNPOU
  6
CONTINUOUS
 10
19365.04587099998
 20
5067.088643000001
 30
0.0
 11
19007.090864278871
 21
5067.088643000001
 31
0.0
  0
LINE
  5
3F05
  8
SUNPOU
  6
CONTINUOUS
 10
25065.049829999989
 20
5067.088643000001
 30
0.0
 11
25423.004836721091
 21
5067.088643000001
 31
0.0
  0
LINE
  5
3F06
  8
0-5
  6
CONTINUOUS
 62
     4
 10
24825.045870999969
 20
4587.0885439999929
 30
0.0
 11
24825.045870999969
 21
4427.0885109999999
 31
0.0
  0
CIRCLE
  5
3F07
  8
0-5
  6
CONTINUOUS
 62
     4
 10
24825.045870999969
 20
4227.0888409999989
 30
0.0
 40
199.9999949999999
  0
TEXT
  5
3F08
  8
0-5
  6
CONTINUOUS
 62
     7
 10
24778.117423999971
 20
4140.5588870000001
 30
0.0
 40
160.0
  1
3
 72
     4
 11
24831.45075733331
 21
4220.5588869999992
 31
0.0
  0
TEXT
  5
3F09
  8
2-0
  6
CONTINUOUS
 62
     7
 10
20897.01212699998
 20
3389.967011000002
 30
0.0
 40
160.0
  1
正 面 立 面 図
 50
0.000139
 72
     4
 11
21542.345266250799
 21
3469.968576583376
 31
0.0
  0
TEXT
  5
3F0A
  8
2-0
  6
CONTINUOUS
 62
     7
 10
22893.83745138843
 20
3417.1639455833761
 30
0.0
 40
160.0
  1
1
 72
     4
 11
22920.504118055102
 21
3497.163945583377
 31
0.0
  0
TEXT
  5
3F0B
  8
2-0
  6
CONTINUOUS
 62
     7
 10
23136.926168639118
 20
3337.165413583376
 30
0.0
 40
160.0
  1
80
 72
     4
 11
23256.926168639118
 21
3417.165413583376
 31
0.0
  0
TEXT
  5
3F0C
  8
2-0
  6
CONTINUOUS
 62
     7
 10
22394.839417388412
 20
3389.968576583376
 30
0.0
 40
160.0
  1
(S=  /   )
 72
     4
 11
22954.839417388412
 21
3469.968576583376
 31
0.0
  0
LINE
  5
3F0D
  8
0-5
  6
CONTINUOUS
 62
     4
 10
16724.676810999961
 20
6474.9341350000013
 30
0.0
 11
16844.67324799997
 21
6267.088643000001
 31
0.0
  0
LINE
  5
3F0E
  8
0-5
  6
CONTINUOUS
 62
     4
 10
16844.67324799997
 20
6267.088643000001
 30
0.0
 11
16964.673643999969
 21
6474.9341350000013
 31
0.0
  0
LINE
  5
3F0F
  8
0-5
  6
CONTINUOUS
 62
     4
 10
16964.673643999969
 20
6474.9341350000013
 30
0.0
 11
16724.676810999961
 21
6474.9341350000013
 31
0.0
  0
TEXT
  5
3F10
  8
0-5
  6
CONTINUOUS
 62
     7
 10
16724.676810999968
 20
6554.9348929999987
 30
0.0
 40
160.0
  1
G.L
 72
     4
 11
16884.676810999968
 21
6634.9348929999987
 31
0.0
  0
TEXT
  5
3F11
  8
2-0
  6
CONTINUOUS
 62
     7
 10
21134.119773999999
 20
12256.04839299999
 30
0.0
 40
160.0
  1
平　面　図
 50
359.99978700000008
 72
     4
 11
21587.45338490736
 21
12330.713374376221
 31
0.0
  0
TEXT
  5
3F12
  8
2-0
  6
CONTINUOUS
 62
     7
 10
22938.94557004498
 20
12277.908743376231
 30
0.0
 40
160.0
  1
1
 72
     4
 11
22965.612236711651
 21
12357.908743376231
 31
0.0
  0
TEXT
  5
3F13
  8
2-0
  6
CONTINUOUS
 62
     7
 10
23182.034287295672
 20
12197.91021137622
 30
0.0
 40
160.0
  1
80
 72
     4
 11
23302.034287295672
 21
12277.91021137622
 31
0.0
  0
TEXT
  5
3F14
  8
2-0
  6
CONTINUOUS
 62
     7
 10
22439.94753604498
 20
12250.713374376221
 30
0.0
 40
160.0
  1
(S=  /   )
 72
     4
 11
22999.94753604498
 21
12330.713374376221
 31
0.0
  0
LINE
  5
3F15
  8
2-0
  6
CONTINUOUS
 62
     6
 10
23099.386954999969
 20
13868.038666
 30
0.0
 11
24099.380356999951
 21
13868.038666
 31
0.0
  0
LINE
  5
3F16
  8
2-0
  6
CONTINUOUS
 62
     6
 10
24567.320733999972
 20
14338.45938
 30
0.0
 11
24099.380356999951
 21
13868.038666
 31
0.0
  0
LINE
  5
3F17
  8
2-0
  6
CONTINUOUS
 62
     6
 10
24528.680530999969
 20
17179.567027000001
 30
0.0
 11
24223.985112999992
 21
17283.220558000019
 31
0.0
  0
LINE
  5
3F18
  8
2-0
  6
CONTINUOUS
 62
     6
 10
24683.702569999961
 20
16689.944983000001
 30
0.0
 11
24223.985112999992
 21
16446.031672000001
 31
0.0
  0
LINE
  5
3F19
  8
2-0
  6
CONTINUOUS
 62
     6
 10
23303.982077999961
 20
16446.031672000001
 30
0.0
 11
24223.985112999992
 21
16446.031672000001
 31
0.0
  0
LINE
  5
3F1A
  8
2-0
  6
CONTINUOUS
 62
     6
 10
23023.991050999961
 20
17283.220558000019
 30
0.0
 11
24223.985112999992
 21
17283.220558000019
 31
0.0
  0
LINE
  5
3F1B
  8
2-0
  6
CONTINUOUS
 62
     6
 10
24599.879854999981
 20
14660.14302599998
 30
0.0
 11
24223.985112999992
 21
14841.086861
 31
0.0
  0
LINE
  5
3F1C
  8
2-0
  6
CONTINUOUS
 62
     6
 10
23703.983396999989
 20
14841.086861
 30
0.0
 11
24223.985112999992
 21
14841.086861
 31
0.0
  0
LINE
  5
3F1D
  8
2-0
  6
CONTINUOUS
 62
     4
 10
22215.04587099998
 20
19765.540316000021
 30
0.0
 11
22215.04587099998
 21
20495.537281000012
 31
0.0
  0
LINE
  5
3F1E
  8
2-0
  6
CONTINUOUS
 62
     3
 10
24795.04653099996
 20
19576.537862000001
 30
0.0
 11
24795.04653099996
 21
19570.5419
 31
0.0
  0
LINE
  5
3F1F
  8
2-0
  6
CONTINUOUS
 62
     3
 10
24795.04653099996
 20
19570.5419
 30
0.0
 11
24825.044154999981
 21
19570.5419
 31
0.0
  0
LINE
  5
3F20
  8
2-0
  6
CONTINUOUS
 62
     3
 10
24825.044154999981
 20
19600.541504000001
 30
0.0
 11
24744.04225499996
 21
19600.541504000001
 31
0.0
  0
LINE
  5
3F21
  8
2-0
  6
CONTINUOUS
 62
     3
 10
24795.04653099996
 20
19560.244444
 30
0.0
 11
24825.044154999981
 21
19560.244444
 31
0.0
  0
LINE
  5
3F22
  8
2-0
  6
CONTINUOUS
 62
     3
 10
24795.04653099996
 20
19578.246186000011
 30
0.0
 11
24795.04653099996
 21
19560.244444
 31
0.0
  0
LINE
  5
3F23
  8
2-0
  6
CONTINUOUS
 62
     3
 10
24820.04389099999
 20
19578.246186000011
 30
0.0
 11
24795.04653099996
 21
19578.246186000011
 31
0.0
  0
LINE
  5
3F24
  8
2-0
  6
CONTINUOUS
 62
     3
 10
24820.04389099999
 20
19573.238004000021
 30
0.0
 11
24820.04389099999
 21
19578.246186000011
 31
0.0
  0
LINE
  5
3F25
  8
2-0
  6
CONTINUOUS
 62
     3
 10
24813.042333999991
 20
19573.238004000021
 30
0.0
 11
24820.04389099999
 21
19573.238004000021
 31
0.0
  0
LINE
  5
3F26
  8
2-0
  6
CONTINUOUS
 62
     3
 10
24712.746065999982
 20
19673.538230999999
 30
0.0
 11
24712.746065999982
 21
19680.543747000011
 31
0.0
  0
LINE
  5
3F27
  8
2-0
  6
CONTINUOUS
 62
     3
 10
24712.746065999982
 20
19680.543747000011
 30
0.0
 11
24717.746329999969
 21
19680.543747000011
 31
0.0
  0
LINE
  5
3F28
  8
2-0
  6
CONTINUOUS
 62
     3
 10
24717.746329999969
 20
19680.543747000011
 30
0.0
 11
24717.746329999969
 21
19655.534510000001
 31
0.0
  0
LINE
  5
3F29
  8
2-0
  6
CONTINUOUS
 62
     3
 10
24717.746329999969
 20
19655.534510000001
 30
0.0
 11
24699.744587999961
 21
19655.534510000001
 31
0.0
  0
LINE
  5
3F2A
  8
2-0
  6
CONTINUOUS
 62
     3
 10
24699.744587999961
 20
19655.534510000001
 30
0.0
 11
24699.744587999961
 21
19685.538073000022
 31
0.0
  0
LINE
  5
3F2B
  8
2-0
  6
CONTINUOUS
 62
     3
 10
24710.04204399998
 20
19685.538073000022
 30
0.0
 11
24825.044154999981
 21
19685.538073000022
 31
0.0
  0
LINE
  5
3F2C
  8
2-0
  6
CONTINUOUS
 62
     3
 10
24710.04204399998
 20
19655.534510000001
 30
0.0
 11
24710.04204399998
 21
19685.538073000022
 31
0.0
  0
LINE
  5
3F2D
  8
2-0
  6
CONTINUOUS
 62
     3
 10
24716.043943999972
 20
19655.534510000001
 30
0.0
 11
24710.04204399998
 21
19655.534510000001
 31
0.0
  0
LINE
  5
3F2E
  8
2-0
  6
CONTINUOUS
 62
     3
 10
24813.042333999991
 20
19219.941181499991
 30
0.0
 11
24820.04389099999
 21
19219.941181499991
 31
0.0
  0
LINE
  5
3F2F
  8
2-0
  6
CONTINUOUS
 62
     3
 10
24820.04389099999
 20
19219.941181499991
 30
0.0
 11
24820.04389099999
 21
19224.941445500001
 31
0.0
  0
LINE
  5
3F30
  8
2-0
  6
CONTINUOUS
 62
     3
 10
24820.04389099999
 20
19224.941445500001
 30
0.0
 11
24795.04653099996
 21
19224.941445500001
 31
0.0
  0
LINE
  5
3F31
  8
2-0
  6
CONTINUOUS
 62
     3
 10
24795.04653099996
 20
19224.941445500001
 30
0.0
 11
24795.04653099996
 21
19206.945641499991
 31
0.0
  0
LINE
  5
3F32
  8
2-0
  6
CONTINUOUS
 62
     3
 10
24795.04653099996
 20
19206.945641499991
 30
0.0
 11
24825.044154999981
 21
19206.945641499991
 31
0.0
  0
LINE
  5
3F33
  8
2-0
  6
CONTINUOUS
 62
     3
 10
24795.04653099996
 20
19223.037148499981
 30
0.0
 11
24795.04653099996
 21
19217.039207500002
 31
0.0
  0
LINE
  5
3F34
  8
2-0
  6
CONTINUOUS
 62
     3
 10
24795.04653099996
 20
19217.039207500002
 30
0.0
 11
24825.044154999981
 21
19217.039207500002
 31
0.0
  0
LINE
  5
3F35
  8
2-0
  6
CONTINUOUS
 62
     3
 10
24825.044154999981
 20
19217.039207500002
 30
0.0
 11
24825.044154999981
 21
19254.040368499991
 31
0.0
  0
LINE
  5
3F36
  8
2-0
  6
CONTINUOUS
 62
     3
 10
24795.04653099996
 20
19254.040368499991
 30
0.0
 11
24825.044154999981
 21
19254.040368499991
 31
0.0
  0
LINE
  5
3F37
  8
2-0
  6
CONTINUOUS
 62
     3
 10
24795.04653099996
 20
19248.036488499991
 30
0.0
 11
24795.04653099996
 21
19254.040368499991
 31
0.0
  0
LINE
  5
3F38
  8
2-0
  6
CONTINUOUS
 62
     3
 10
24795.04653099996
 20
19264.135913499991
 30
0.0
 11
24825.044154999981
 21
19264.135913499991
 31
0.0
  0
LINE
  5
3F39
  8
2-0
  6
CONTINUOUS
 62
     3
 10
24795.04653099996
 20
19246.134171500002
 30
0.0
 11
24795.04653099996
 21
19264.135913499991
 31
0.0
  0
LINE
  5
3F3A
  8
2-0
  6
CONTINUOUS
 62
     3
 10
24820.04389099999
 20
19246.134171500002
 30
0.0
 11
24795.04653099996
 21
19246.134171500002
 31
0.0
  0
LINE
  5
3F3B
  8
2-0
  6
CONTINUOUS
 62
     3
 10
24820.04389099999
 20
19251.1344355
 30
0.0
 11
24820.04389099999
 21
19246.134171500002
 31
0.0
  0
LINE
  5
3F3C
  8
2-0
  6
CONTINUOUS
 62
     3
 10
24813.042333999991
 20
19251.1344355
 30
0.0
 11
24820.04389099999
 21
19251.1344355
 31
0.0
  0
LINE
  5
3F3D
  8
2-0
  6
CONTINUOUS
 62
     3
 10
24813.042333999991
 20
18518.940191999998
 30
0.0
 11
24820.04389099999
 21
18518.940191999998
 31
0.0
  0
LINE
  5
3F3E
  8
2-0
  6
CONTINUOUS
 62
     3
 10
24820.04389099999
 20
18518.940191999998
 30
0.0
 11
24820.04389099999
 21
18523.946393999991
 31
0.0
  0
LINE
  5
3F3F
  8
2-0
  6
CONTINUOUS
 62
     3
 10
24820.04389099999
 20
18523.946393999991
 30
0.0
 11
24795.04653099996
 21
18523.946393999991
 31
0.0
  0
LINE
  5
3F40
  8
2-0
  6
CONTINUOUS
 62
     3
 10
24795.04653099996
 20
18523.946393999991
 30
0.0
 11
24795.04653099996
 21
18505.944651999998
 31
0.0
  0
LINE
  5
3F41
  8
2-0
  6
CONTINUOUS
 62
     3
 10
24795.04653099996
 20
18505.944651999998
 30
0.0
 11
24825.044154999981
 21
18505.944651999998
 31
0.0
  0
LINE
  5
3F42
  8
2-0
  6
CONTINUOUS
 62
     3
 10
24795.04653099996
 20
18522.036158999981
 30
0.0
 11
24795.04653099996
 21
18516.040196999991
 31
0.0
  0
LINE
  5
3F43
  8
2-0
  6
CONTINUOUS
 62
     3
 10
24795.04653099996
 20
18516.040196999991
 30
0.0
 11
24825.044154999981
 21
18516.040196999991
 31
0.0
  0
LINE
  5
3F44
  8
2-0
  6
CONTINUOUS
 62
     3
 10
24825.044154999981
 20
18516.040196999991
 30
0.0
 11
24825.044154999981
 21
18553.039379000002
 31
0.0
  0
LINE
  5
3F45
  8
2-0
  6
CONTINUOUS
 62
     3
 10
24795.04653099996
 20
18553.039379000002
 30
0.0
 11
24825.044154999981
 21
18553.039379000002
 31
0.0
  0
LINE
  5
3F46
  8
2-0
  6
CONTINUOUS
 62
     3
 10
24795.04653099996
 20
18547.043416999979
 30
0.0
 11
24795.04653099996
 21
18553.039379000002
 31
0.0
  0
LINE
  5
3F47
  8
2-0
  6
CONTINUOUS
 62
     3
 10
24795.04653099996
 20
18563.134924000002
 30
0.0
 11
24825.044154999981
 21
18563.134924000002
 31
0.0
  0
LINE
  5
3F48
  8
2-0
  6
CONTINUOUS
 62
     3
 10
24795.04653099996
 20
18545.133182000001
 30
0.0
 11
24795.04653099996
 21
18563.134924000002
 31
0.0
  0
LINE
  5
3F49
  8
2-0
  6
CONTINUOUS
 62
     3
 10
24820.04389099999
 20
18545.133182000001
 30
0.0
 11
24795.04653099996
 21
18545.133182000001
 31
0.0
  0
LINE
  5
3F4A
  8
2-0
  6
CONTINUOUS
 62
     3
 10
24820.04389099999
 20
18550.139383999991
 30
0.0
 11
24820.04389099999
 21
18545.133182000001
 31
0.0
  0
LINE
  5
3F4B
  8
2-0
  6
CONTINUOUS
 62
     3
 10
24813.042333999991
 20
18550.139383999991
 30
0.0
 11
24820.04389099999
 21
18550.139383999991
 31
0.0
  0
LINE
  5
3F4C
  8
2-0
  6
CONTINUOUS
 62
     3
 10
24813.042333999991
 20
17849.133446
 30
0.0
 11
24820.04389099999
 21
17849.133446
 31
0.0
  0
LINE
  5
3F4D
  8
2-0
  6
CONTINUOUS
 62
     3
 10
24820.04389099999
 20
17849.133446
 30
0.0
 11
24820.04389099999
 21
17844.145058999991
 31
0.0
  0
LINE
  5
3F4E
  8
2-0
  6
CONTINUOUS
 62
     3
 10
24820.04389099999
 20
17844.145058999991
 30
0.0
 11
24795.04653099996
 21
17844.145058999991
 31
0.0
  0
LINE
  5
3F4F
  8
2-0
  6
CONTINUOUS
 62
     3
 10
24795.04653099996
 20
17844.145058999991
 30
0.0
 11
24795.04653099996
 21
17862.140862000011
 31
0.0
  0
LINE
  5
3F50
  8
2-0
  6
CONTINUOUS
 62
     3
 10
24795.04653099996
 20
17862.140862000011
 30
0.0
 11
24825.044154999981
 21
17862.140862000011
 31
0.0
  0
LINE
  5
3F51
  8
2-0
  6
CONTINUOUS
 62
     3
 10
24795.04653099996
 20
17846.043417000012
 30
0.0
 11
24795.04653099996
 21
17852.039379000002
 31
0.0
  0
LINE
  5
3F52
  8
2-0
  6
CONTINUOUS
 62
     3
 10
24795.04653099996
 20
17852.039379000002
 30
0.0
 11
24825.044154999981
 21
17852.039379000002
 31
0.0
  0
LINE
  5
3F53
  8
2-0
  6
CONTINUOUS
 62
     3
 10
24825.044154999981
 20
17852.039379000002
 30
0.0
 11
24825.044154999981
 21
17815.040196999991
 31
0.0
  0
LINE
  5
3F54
  8
2-0
  6
CONTINUOUS
 62
     3
 10
24795.04653099996
 20
17815.040196999991
 30
0.0
 11
24825.044154999981
 21
17815.040196999991
 31
0.0
  0
LINE
  5
3F55
  8
2-0
  6
CONTINUOUS
 62
     3
 10
24795.04653099996
 20
17821.042098000002
 30
0.0
 11
24795.04653099996
 21
17815.040196999991
 31
0.0
  0
LINE
  5
3F56
  8
2-0
  6
CONTINUOUS
 62
     3
 10
24795.04653099996
 20
17804.950591000012
 30
0.0
 11
24825.044154999981
 21
17804.950591000012
 31
0.0
  0
LINE
  5
3F57
  8
2-0
  6
CONTINUOUS
 62
     3
 10
24795.04653099996
 20
17822.946393999991
 30
0.0
 11
24795.04653099996
 21
17804.950591000012
 31
0.0
  0
LINE
  5
3F58
  8
2-0
  6
CONTINUOUS
 62
     3
 10
24820.04389099999
 20
17822.946393999991
 30
0.0
 11
24795.04653099996
 21
17822.946393999991
 31
0.0
  0
LINE
  5
3F59
  8
2-0
  6
CONTINUOUS
 62
     3
 10
24820.04389099999
 20
17817.946131000012
 30
0.0
 11
24820.04389099999
 21
17822.946393999991
 31
0.0
  0
LINE
  5
3F5A
  8
2-0
  6
CONTINUOUS
 62
     3
 10
24813.042333999991
 20
17817.946131000012
 30
0.0
 11
24820.04389099999
 21
17817.946131000012
 31
0.0
  0
LINE
  5
3F5B
  8
2-0
  6
CONTINUOUS
 62
     3
 10
24822.15801699998
 20
17098.037016999999
 30
0.0
 11
24822.15801699998
 21
17118.038071999988
 31
0.0
  0
LINE
  5
3F5C
  8
2-0
  6
CONTINUOUS
 62
     3
 10
24822.15801699998
 20
17118.038071999988
 30
0.0
 11
24737.161447999981
 21
17118.038071999988
 31
0.0
  0
LINE
  5
3F5D
  8
2-0
  6
CONTINUOUS
 62
     3
 10
24813.042333999991
 20
17144.64478200001
 30
0.0
 11
24820.04389099999
 21
17144.64478200001
 31
0.0
  0
LINE
  5
3F5E
  8
2-0
  6
CONTINUOUS
 62
     3
 10
24820.04389099999
 20
17144.64478200001
 30
0.0
 11
24820.04389099999
 21
17139.65045600001
 31
0.0
  0
LINE
  5
3F5F
  8
2-0
  6
CONTINUOUS
 62
     3
 10
24820.04389099999
 20
17139.65045600001
 30
0.0
 11
24795.04653099996
 21
17139.65045600001
 31
0.0
  0
LINE
  5
3F60
  8
2-0
  6
CONTINUOUS
 62
     3
 10
24795.04653099996
 20
17139.65045600001
 30
0.0
 11
24795.04653099996
 21
17157.646260000001
 31
0.0
  0
LINE
  5
3F61
  8
2-0
  6
CONTINUOUS
 62
     3
 10
24795.04653099996
 20
17157.646260000001
 30
0.0
 11
24825.044154999981
 21
17157.646260000001
 31
0.0
  0
LINE
  5
3F62
  8
2-0
  6
CONTINUOUS
 62
     3
 10
24795.04653099996
 20
17148.037676
 30
0.0
 11
24795.04653099996
 21
17142.035776000001
 31
0.0
  0
LINE
  5
3F63
  8
2-0
  6
CONTINUOUS
 62
     3
 10
24825.044154999981
 20
17148.037676
 30
0.0
 11
24795.04653099996
 21
17148.037676
 31
0.0
  0
LINE
  5
3F64
  8
2-0
  6
CONTINUOUS
 62
     3
 10
24825.044154999981
 20
17157.646260000001
 30
0.0
 11
24825.044154999981
 21
17804.950591000012
 31
0.0
  0
LINE
  5
3F65
  8
2-0
  6
CONTINUOUS
 62
     3
 10
24825.044154999981
 20
17862.140862000011
 30
0.0
 11
24825.044154999981
 21
18505.944651999998
 31
0.0
  0
LINE
  5
3F66
  8
2-0
  6
CONTINUOUS
 62
     3
 10
24825.044154999981
 20
17003.035961000009
 30
0.0
 11
24795.04653099996
 21
17003.035961000009
 31
0.0
  0
LINE
  5
3F67
  8
2-0
  6
CONTINUOUS
 62
     3
 10
24795.04653099996
 20
17003.035961000009
 30
0.0
 11
24795.04653099996
 21
17009.037861000012
 31
0.0
  0
LINE
  5
3F68
  8
2-0
  6
CONTINUOUS
 62
     3
 10
24737.161447999981
 20
17033.041504000012
 30
0.0
 11
24822.15801699998
 21
17033.041504000012
 31
0.0
  0
LINE
  5
3F69
  8
2-0
  6
CONTINUOUS
 62
     3
 10
24822.15801699998
 20
17033.041504000012
 30
0.0
 11
24822.15801699998
 21
17053.03662100001
 31
0.0
  0
LINE
  5
3F6A
  8
2-0
  6
CONTINUOUS
 62
     3
 10
24795.04653099996
 20
16993.427378000011
 30
0.0
 11
24825.044154999981
 21
16993.427378000011
 31
0.0
  0
LINE
  5
3F6B
  8
2-0
  6
CONTINUOUS
 62
     3
 10
24795.04653099996
 20
17011.423180999991
 30
0.0
 11
24795.04653099996
 21
16993.427378000011
 31
0.0
  0
LINE
  5
3F6C
  8
2-0
  6
CONTINUOUS
 62
     3
 10
24820.04389099999
 20
17011.423180999991
 30
0.0
 11
24795.04653099996
 21
17011.423180999991
 31
0.0
  0
LINE
  5
3F6D
  8
2-0
  6
CONTINUOUS
 62
     3
 10
24820.04389099999
 20
17006.422917000011
 30
0.0
 11
24820.04389099999
 21
17011.423180999991
 31
0.0
  0
LINE
  5
3F6E
  8
2-0
  6
CONTINUOUS
 62
     3
 10
24813.042333999991
 20
17006.422917000011
 30
0.0
 11
24820.04389099999
 21
17006.422917000011
 31
0.0
  0
LINE
  5
3F6F
  8
2-0
  6
CONTINUOUS
 62
     3
 10
24813.042333999991
 20
16301.94068649998
 30
0.0
 11
24820.04389099999
 21
16301.94068649998
 31
0.0
  0
LINE
  5
3F70
  8
2-0
  6
CONTINUOUS
 62
     3
 10
24820.04389099999
 20
16301.94068649998
 30
0.0
 11
24820.04389099999
 21
16306.94095049998
 31
0.0
  0
LINE
  5
3F71
  8
2-0
  6
CONTINUOUS
 62
     3
 10
24820.04389099999
 20
16306.94095049998
 30
0.0
 11
24795.04653099996
 21
16306.94095049998
 31
0.0
  0
LINE
  5
3F72
  8
2-0
  6
CONTINUOUS
 62
     3
 10
24795.04653099996
 20
16306.94095049998
 30
0.0
 11
24795.04653099996
 21
16288.9392085
 31
0.0
  0
LINE
  5
3F73
  8
2-0
  6
CONTINUOUS
 62
     3
 10
24795.04653099996
 20
16288.9392085
 30
0.0
 11
24825.044154999981
 21
16288.9392085
 31
0.0
  0
LINE
  5
3F74
  8
2-0
  6
CONTINUOUS
 62
     3
 10
24795.04653099996
 20
16305.036653499999
 30
0.0
 11
24795.04653099996
 21
16299.0397025
 31
0.0
  0
LINE
  5
3F75
  8
2-0
  6
CONTINUOUS
 62
     3
 10
24795.04653099996
 20
16299.0397025
 30
0.0
 11
24825.044154999981
 21
16299.0397025
 31
0.0
  0
LINE
  5
3F76
  8
2-0
  6
CONTINUOUS
 62
     3
 10
24825.044154999981
 20
16299.0397025
 30
0.0
 11
24825.044154999981
 21
16336.0398735
 31
0.0
  0
LINE
  5
3F77
  8
2-0
  6
CONTINUOUS
 62
     3
 10
24795.04653099996
 20
16336.0398735
 30
0.0
 11
24825.044154999981
 21
16336.0398735
 31
0.0
  0
LINE
  5
3F78
  8
2-0
  6
CONTINUOUS
 62
     3
 10
24795.04653099996
 20
16330.0369835
 30
0.0
 11
24795.04653099996
 21
16336.0398735
 31
0.0
  0
LINE
  5
3F79
  8
2-0
  6
CONTINUOUS
 62
     3
 10
24795.04653099996
 20
16346.135418499989
 30
0.0
 11
24825.044154999981
 21
16346.135418499989
 31
0.0
  0
LINE
  5
3F7A
  8
2-0
  6
CONTINUOUS
 62
     3
 10
24795.04653099996
 20
16328.127737500001
 30
0.0
 11
24795.04653099996
 21
16346.135418499989
 31
0.0
  0
LINE
  5
3F7B
  8
2-0
  6
CONTINUOUS
 62
     3
 10
24820.04389099999
 20
16328.127737500001
 30
0.0
 11
24795.04653099996
 21
16328.127737500001
 31
0.0
  0
LINE
  5
3F7C
  8
2-0
  6
CONTINUOUS
 62
     3
 10
24820.04389099999
 20
16333.133940499991
 30
0.0
 11
24820.04389099999
 21
16328.127737500001
 31
0.0
  0
LINE
  5
3F7D
  8
2-0
  6
CONTINUOUS
 62
     3
 10
24813.042333999991
 20
16333.133940499991
 30
0.0
 11
24820.04389099999
 21
16333.133940499991
 31
0.0
  0
LINE
  5
3F7E
  8
2-0
  6
CONTINUOUS
 62
     3
 10
24813.042333999991
 20
15632.373957
 30
0.0
 11
24820.04389099999
 21
15632.373957
 31
0.0
  0
LINE
  5
3F7F
  8
2-0
  6
CONTINUOUS
 62
     3
 10
24820.04389099999
 20
15632.373957
 30
0.0
 11
24820.04389099999
 21
15627.379632
 31
0.0
  0
LINE
  5
3F80
  8
2-0
  6
CONTINUOUS
 62
     3
 10
24820.04389099999
 20
15627.379632
 30
0.0
 11
24795.04653099996
 21
15627.379632
 31
0.0
  0
LINE
  5
3F81
  8
2-0
  6
CONTINUOUS
 62
     3
 10
24795.04653099996
 20
15627.379632
 30
0.0
 11
24795.04653099996
 21
15645.375435000011
 31
0.0
  0
LINE
  5
3F82
  8
2-0
  6
CONTINUOUS
 62
     3
 10
24795.04653099996
 20
15645.375435000011
 30
0.0
 11
24825.044154999981
 21
15645.375435000011
 31
0.0
  0
LINE
  5
3F83
  8
2-0
  6
CONTINUOUS
 62
     3
 10
24795.04653099996
 20
15629.277990000001
 30
0.0
 11
24795.04653099996
 21
15635.27989000002
 31
0.0
  0
LINE
  5
3F84
  8
2-0
  6
CONTINUOUS
 62
     3
 10
24795.04653099996
 20
15635.27989000002
 30
0.0
 11
24825.044154999981
 21
15635.27989000002
 31
0.0
  0
LINE
  5
3F85
  8
2-0
  6
CONTINUOUS
 62
     3
 10
24825.044154999981
 20
15598.280709000001
 30
0.0
 11
24825.044154999981
 21
15635.27989000002
 31
0.0
  0
LINE
  5
3F86
  8
2-0
  6
CONTINUOUS
 62
     3
 10
24795.04653099996
 20
15598.280709000001
 30
0.0
 11
24825.044154999981
 21
15598.280709000001
 31
0.0
  0
LINE
  5
3F87
  8
2-0
  6
CONTINUOUS
 62
     3
 10
24795.04653099996
 20
15604.27766
 30
0.0
 11
24795.04653099996
 21
15598.280709000001
 31
0.0
  0
LINE
  5
3F88
  8
2-0
  6
CONTINUOUS
 62
     3
 10
24795.04653099996
 20
15588.179225
 30
0.0
 11
24825.044154999981
 21
15588.179225
 31
0.0
  0
LINE
  5
3F89
  8
2-0
  6
CONTINUOUS
 62
     3
 10
24795.04653099996
 20
15606.186906000001
 30
0.0
 11
24795.04653099996
 21
15588.179225
 31
0.0
  0
LINE
  5
3F8A
  8
2-0
  6
CONTINUOUS
 62
     3
 10
24820.04389099999
 20
15606.186906000001
 30
0.0
 11
24795.04653099996
 21
15606.186906000001
 31
0.0
  0
LINE
  5
3F8B
  8
2-0
  6
CONTINUOUS
 62
     3
 10
24820.04389099999
 20
15601.186642000001
 30
0.0
 11
24820.04389099999
 21
15606.186906000001
 31
0.0
  0
LINE
  5
3F8C
  8
2-0
  6
CONTINUOUS
 62
     3
 10
24813.042333999991
 20
15601.186642000001
 30
0.0
 11
24820.04389099999
 21
15601.186642000001
 31
0.0
  0
LINE
  5
3F8D
  8
2-0
  6
CONTINUOUS
 62
     3
 10
24825.044154999981
 20
16993.427378000011
 30
0.0
 11
24825.044154999981
 21
16346.135418499989
 31
0.0
  0
LINE
  5
3F8E
  8
2-0
  6
CONTINUOUS
 62
     3
 10
24825.044154999981
 20
17148.037676
 30
0.0
 11
24825.044154999981
 21
17003.035961000009
 31
0.0
  0
LINE
  5
3F8F
  8
2-0
  6
CONTINUOUS
 62
     3
 10
24737.161447999981
 20
17118.038071999988
 30
0.0
 11
24737.161447999981
 21
17033.041504000012
 31
0.0
  0
LINE
  5
3F90
  8
2-0
  6
CONTINUOUS
 62
     3
 10
24795.04653099996
 20
14574.541714999999
 30
0.0
 11
24795.04653099996
 21
14580.546584
 31
0.0
  0
LINE
  5
3F91
  8
2-0
  6
CONTINUOUS
 62
     3
 10
24795.04653099996
 20
14580.546584
 30
0.0
 11
24825.044154999981
 21
14580.546584
 31
0.0
  0
LINE
  5
3F92
  8
2-0
  6
CONTINUOUS
 62
     3
 10
24825.044154999981
 20
14580.546584
 30
0.0
 11
24825.044154999981
 21
14465.542493000001
 31
0.0
  0
LINE
  5
3F93
  8
2-0
  6
CONTINUOUS
 62
     3
 10
24825.044154999981
 20
14465.542493000001
 30
0.0
 11
24740.04560699996
 21
14465.542493000001
 31
0.0
  0
LINE
  5
3F94
  8
2-0
  6
CONTINUOUS
 62
     3
 10
24740.04560699996
 20
14465.542493000001
 30
0.0
 11
24740.04560699996
 21
14550.538071999999
 31
0.0
  0
LINE
  5
3F95
  8
2-0
  6
CONTINUOUS
 62
     3
 10
24740.04560699996
 20
14550.538071999999
 30
0.0
 11
24772.044524999968
 21
14550.538071999999
 31
0.0
  0
LINE
  5
3F96
  8
2-0
  6
CONTINUOUS
 62
     3
 10
24813.042333999991
 20
14577.576316999999
 30
0.0
 11
24820.04389099999
 21
14577.576316999999
 31
0.0
  0
LINE
  5
3F97
  8
2-0
  6
CONTINUOUS
 62
     3
 10
24820.04389099999
 20
14577.576316999999
 30
0.0
 11
24820.04389099999
 21
14572.57902199998
 31
0.0
  0
LINE
  5
3F98
  8
2-0
  6
CONTINUOUS
 62
     3
 10
24820.04389099999
 20
14572.57902199998
 30
0.0
 11
24795.04653099996
 21
14572.57902199998
 31
0.0
  0
LINE
  5
3F99
  8
2-0
  6
CONTINUOUS
 62
     3
 10
24795.04653099996
 20
14572.57902199998
 30
0.0
 11
24795.04653099996
 21
14590.57779499999
 31
0.0
  0
LINE
  5
3F9A
  8
2-0
  6
CONTINUOUS
 62
     3
 10
24795.04653099996
 20
14590.57779499999
 30
0.0
 11
24825.044154999981
 21
14590.57779499999
 31
0.0
  0
LINE
  5
3F9B
  8
2-0
  6
CENTER2
 62
     6
 10
24782.54587099998
 20
14268.044934999991
 30
0.0
 11
24782.54587099998
 21
15073.41369300001
 31
0.0
  0
LINE
  5
3F9C
  8
2-0
  6
CONTINUOUS
 62
     3
 10
24825.044154999981
 20
18563.134924000002
 30
0.0
 11
24825.044154999981
 21
19206.945641499991
 31
0.0
  0
LINE
  5
3F9D
  8
2-0
  6
CONTINUOUS
 62
     6
 10
25517.549037999968
 20
20415.540976000011
 30
0.0
 11
26717.543099999959
 21
20415.540976000011
 31
0.0
  0
LINE
  5
3F9E
  8
2-0
  6
CONTINUOUS
 62
     3
 10
22287.547718999991
 20
19685.538073000022
 30
0.0
 11
22287.547718999991
 21
19655.534510000001
 31
0.0
  0
LINE
  5
3F9F
  8
2-0
  6
CONTINUOUS
 62
     3
 10
22287.547718999991
 20
19655.534510000001
 30
0.0
 11
22281.54977699996
 21
19655.534510000001
 31
0.0
  0
LINE
  5
3FA0
  8
2-0
  6
CONTINUOUS
 62
     3
 10
22297.164219999999
 20
19655.534510000001
 30
0.0
 11
22297.164219999999
 21
19685.538073000022
 31
0.0
  0
LINE
  5
3FA1
  8
2-0
  6
CONTINUOUS
 62
     3
 10
22279.16247799998
 20
19655.534510000001
 30
0.0
 11
22297.164219999999
 21
19655.534510000001
 31
0.0
  0
LINE
  5
3FA2
  8
2-0
  6
CONTINUOUS
 62
     3
 10
22279.16247799998
 20
19680.543747000011
 30
0.0
 11
22279.16247799998
 21
19655.534510000001
 31
0.0
  0
LINE
  5
3FA3
  8
2-0
  6
CONTINUOUS
 62
     3
 10
22284.162741999971
 20
19680.543747000011
 30
0.0
 11
22279.16247799998
 21
19680.543747000011
 31
0.0
  0
LINE
  5
3FA4
  8
2-0
  6
CONTINUOUS
 62
     3
 10
22284.162741999971
 20
19673.538230999999
 30
0.0
 11
22284.162741999971
 21
19680.543747000011
 31
0.0
  0
LINE
  5
3FA5
  8
2-0
  6
CONTINUOUS
 62
     3
 10
22257.54613499999
 20
19682.645996000021
 30
0.0
 11
22257.54613499999
 21
19597.647448000022
 31
0.0
  0
LINE
  5
3FA6
  8
2-0
  6
CONTINUOUS
 62
     3
 10
22237.549038000001
 20
19682.645996000021
 30
0.0
 11
22257.54613499999
 21
19682.645996000021
 31
0.0
  0
LINE
  5
3FA7
  8
2-0
  6
CONTINUOUS
 62
     3
 10
22145.934938999992
 20
19673.538230999999
 30
0.0
 11
22145.934938999992
 21
19680.543747000011
 31
0.0
  0
LINE
  5
3FA8
  8
2-0
  6
CONTINUOUS
 62
     3
 10
22145.934938999992
 20
19680.543747000011
 30
0.0
 11
22150.935202999961
 21
19680.543747000011
 31
0.0
  0
LINE
  5
3FA9
  8
2-0
  6
CONTINUOUS
 62
     3
 10
22150.935202999961
 20
19680.543747000011
 30
0.0
 11
22150.935202999961
 21
19655.534510000001
 31
0.0
  0
LINE
  5
3FAA
  8
2-0
  6
CONTINUOUS
 62
     3
 10
22150.935202999961
 20
19655.534510000001
 30
0.0
 11
22132.933460999961
 21
19655.534510000001
 31
0.0
  0
LINE
  5
3FAB
  8
2-0
  6
CONTINUOUS
 62
     3
 10
22132.933460999961
 20
19655.534510000001
 30
0.0
 11
22132.933460999961
 21
19685.538073000022
 31
0.0
  0
LINE
  5
3FAC
  8
2-0
  6
CONTINUOUS
 62
     3
 10
22172.553524999988
 20
19682.645996000021
 30
0.0
 11
22192.54864199998
 21
19682.645996000021
 31
0.0
  0
LINE
  5
3FAD
  8
2-0
  6
CONTINUOUS
 62
     3
 10
22172.553524999988
 20
19597.647448000022
 30
0.0
 11
22172.553524999988
 21
19682.645996000021
 31
0.0
  0
LINE
  5
3FAE
  8
2-0
  6
CONTINUOUS
 62
     3
 10
22142.555900999989
 20
19655.534510000001
 30
0.0
 11
22148.551861999971
 21
19655.534510000001
 31
0.0
  0
LINE
  5
3FAF
  8
2-0
  6
CONTINUOUS
 62
     3
 10
22142.555900999989
 20
19685.538073000022
 30
0.0
 11
22142.555900999989
 21
19655.534510000001
 31
0.0
  0
LINE
  5
3FB0
  8
2-0
  6
CONTINUOUS
 62
     3
 10
22257.54613499999
 20
19597.647448000022
 30
0.0
 11
22172.553524999988
 21
19597.647448000022
 31
0.0
  0
LINE
  5
3FB1
  8
2-0
  6
CONTINUOUS
 62
     3
 10
22287.547718999991
 20
19685.538073000022
 30
0.0
 11
22142.555900999989
 21
19685.538073000022
 31
0.0
  0
LINE
  5
3FB2
  8
2-0
  6
CONTINUOUS
 62
     6
 10
24977.08503899995
 20
19828.217813000021
 30
0.0
 11
25517.549037999968
 21
20415.540976000011
 31
0.0
  0
LINE
  5
3FB3
  8
2-0
  6
CONTINUOUS
 62
     6
 10
22257.54613499999
 20
14550.538071999999
 30
0.0
 11
22534.136347999982
 21
15005.882772000001
 31
0.0
  0
LINE
  5
3FB4
  8
2-0
  6
CONTINUOUS
 62
     6
 10
22534.136347999982
 20
15005.882772000001
 30
0.0
 11
23564.485666999961
 21
15005.882772000001
 31
0.0
  0
LINE
  5
3FB5
  8
2-0
  6
CONTINUOUS
 62
     3
 10
24825.044154999981
 20
16288.9392085
 30
0.0
 11
24825.044154999981
 21
15645.375435000011
 31
0.0
  0
LINE
  5
3FB6
  8
2-0
  6
CONTINUOUS
 62
     6
 10
22317.824454999991
 20
14701.13390699999
 30
0.0
 11
22257.54613499999
 21
14550.538071999999
 31
0.0
  0
LINE
  5
3FB7
  8
2-0
  6
CONTINUOUS
 62
     6
 10
22257.54613499999
 20
14550.538071999999
 30
0.0
 11
22363.404849999952
 21
14673.446381
 31
0.0
  0
LINE
  5
3FB8
  8
2-0
  6
CONTINUOUS
 62
     6
 10
22317.824454999991
 20
14701.13390699999
 30
0.0
 11
22363.404849999952
 21
14673.446381
 31
0.0
  0
LINE
  5
3FB9
  8
2-0
  6
CONTINUOUS
 62
     6
 10
22363.404849999952
 20
14673.446381
 30
0.0
 11
22257.54613499999
 21
14550.538071999999
 31
0.0
  0
LINE
  5
3FBA
  8
2-0
  6
CONTINUOUS
 62
     6
 10
22257.54613499999
 20
14550.538071999999
 30
0.0
 11
22317.824454999991
 21
14701.13390699999
 31
0.0
  0
LINE
  5
3FBB
  8
2-0
  6
CONTINUOUS
 62
     6
 10
22317.824454999991
 20
14701.13390699999
 30
0.0
 11
22257.54613499999
 21
14550.538071999999
 31
0.0
  0
LINE
  5
3FBC
  8
2-0
  6
CONTINUOUS
 62
     6
 10
22363.404849999952
 20
14673.446381
 30
0.0
 11
22257.54613499999
 21
14550.538071999999
 31
0.0
  0
LINE
  5
3FBD
  8
2-0
  6
CONTINUOUS
 62
     6
 10
22363.404849999952
 20
14673.446381
 30
0.0
 11
22317.824454999991
 21
14701.13390699999
 31
0.0
  0
LINE
  5
3FBE
  8
2-0
  6
CONTINUOUS
 62
     6
 10
24996.70206799998
 20
19810.15668600002
 30
0.0
 11
24868.740047999981
 21
19710.47406800001
 31
0.0
  0
LINE
  5
3FBF
  8
2-0
  6
CONTINUOUS
 62
     6
 10
24868.740047999981
 20
19710.47406800001
 30
0.0
 11
24957.454152999981
 21
19846.271023000001
 31
0.0
  0
LINE
  5
3FC0
  8
2-0
  6
CONTINUOUS
 62
     6
 10
24996.70206799998
 20
19810.15668600002
 30
0.0
 11
24957.454152999981
 21
19846.271023000001
 31
0.0
  0
LINE
  5
3FC1
  8
2-0
  6
CONTINUOUS
 62
     6
 10
24957.454152999981
 20
19846.271023000001
 30
0.0
 11
24868.740047999981
 21
19710.47406800001
 31
0.0
  0
LINE
  5
3FC2
  8
2-0
  6
CONTINUOUS
 62
     6
 10
24868.740047999981
 20
19710.47406800001
 30
0.0
 11
24996.70206799998
 21
19810.15668600002
 31
0.0
  0
LINE
  5
3FC3
  8
2-0
  6
CONTINUOUS
 62
     6
 10
24996.70206799998
 20
19810.15668600002
 30
0.0
 11
24868.740047999981
 21
19710.47406800001
 31
0.0
  0
LINE
  5
3FC4
  8
2-0
  6
CONTINUOUS
 62
     6
 10
24957.454152999981
 20
19846.271023000001
 30
0.0
 11
24868.740047999981
 21
19710.47406800001
 31
0.0
  0
LINE
  5
3FC5
  8
2-0
  6
CONTINUOUS
 62
     6
 10
24957.454152999981
 20
19846.271023000001
 30
0.0
 11
24996.70206799998
 21
19810.15668600002
 31
0.0
  0
LINE
  5
3FC6
  8
2-0
  6
CONTINUOUS
 62
     6
 10
20838.981549999971
 20
19437.765691000011
 30
0.0
 11
20970.914483
 21
18968.419856
 31
0.0
  0
LINE
  5
3FC7
  8
2-0
  6
CONTINUOUS
 62
     6
 10
20970.914483
 20
18968.419856
 30
0.0
 11
21995.952753999969
 21
18968.419856
 31
0.0
  0
LINE
  5
3FC8
  8
2-0
  6
CONTINUOUS
 62
     6
 10
20795.687498999989
 20
19591.794011000009
 30
0.0
 11
20813.30917299998
 21
19430.548366000021
 31
0.0
  0
LINE
  5
3FC9
  8
2-0
  6
CONTINUOUS
 62
     6
 10
20864.653925999999
 20
19444.986975000022
 30
0.0
 11
20813.30917299998
 21
19430.548366000021
 31
0.0
  0
LINE
  5
3FCA
  8
2-0
  6
CONTINUOUS
 62
     6
 10
20813.30917299998
 20
19430.548366000021
 30
0.0
 11
20795.687498999989
 21
19591.794011000009
 31
0.0
  0
LINE
  5
3FCB
  8
2-0
  6
CONTINUOUS
 62
     6
 10
20795.687498999989
 20
19591.794011000009
 30
0.0
 11
20864.653925999999
 21
19444.986975000022
 31
0.0
  0
LINE
  5
3FCC
  8
2-0
  6
CONTINUOUS
 62
     6
 10
20864.653925999999
 20
19444.986975000022
 30
0.0
 11
20795.687498999989
 21
19591.794011000009
 31
0.0
  0
LINE
  5
3FCD
  8
2-0
  6
CONTINUOUS
 62
     6
 10
20813.30917299998
 20
19430.548366000021
 30
0.0
 11
20795.687498999989
 21
19591.794011000009
 31
0.0
  0
LINE
  5
3FCE
  8
2-0
  6
CONTINUOUS
 62
     6
 10
20813.30917299998
 20
19430.548366000021
 30
0.0
 11
20864.653925999999
 21
19444.986975000022
 31
0.0
  0
LINE
  5
3FCF
  8
2-0
  6
CONTINUOUS
 62
     6
 10
22256.469276999971
 20
19566.786753000011
 30
0.0
 11
22405.338972000001
 21
19037.164577
 31
0.0
  0
LINE
  5
3FD0
  8
2-0
  6
CONTINUOUS
 62
     6
 10
22405.338972000001
 20
19037.164577
 30
0.0
 11
23430.383180999968
 21
19037.164577
 31
0.0
  0
LINE
  5
3FD1
  8
2-0
  6
CONTINUOUS
 62
     6
 10
22274.092930999959
 20
19405.541108000001
 30
0.0
 11
22325.443621999992
 21
19419.975758
 31
0.0
  0
LINE
  5
3FD2
  8
2-0
  6
CONTINUOUS
 62
     6
 10
22325.443621999992
 20
19419.975758
 30
0.0
 11
22274.092930999959
 21
19405.541108000001
 31
0.0
  0
LINE
  5
3FD3
  8
2-0
  6
CONTINUOUS
 62
     6
 10
22274.092930999959
 20
19405.541108000001
 30
0.0
 11
22256.469276999971
 21
19566.786753000011
 31
0.0
  0
LINE
  5
3FD4
  8
2-0
  6
CONTINUOUS
 62
     6
 10
22256.469276999971
 20
19566.786753000011
 30
0.0
 11
22325.443621999992
 21
19419.975758
 31
0.0
  0
LINE
  5
3FD5
  8
2-0
  6
CONTINUOUS
 62
     6
 10
22325.443621999992
 20
19419.975758
 30
0.0
 11
22256.469276999971
 21
19566.786753000011
 31
0.0
  0
LINE
  5
3FD6
  8
2-0
  6
CONTINUOUS
 62
     6
 10
22274.092930999959
 20
19405.541108000001
 30
0.0
 11
22256.469276999971
 21
19566.786753000011
 31
0.0
  0
LINE
  5
3FD7
  8
2-0
  6
CONTINUOUS
 62
     6
 10
22325.443621999992
 20
19419.975758
 30
0.0
 11
22256.469276999971
 21
19566.786753000011
 31
0.0
  0
LINE
  5
3FD8
  8
2-0
  6
CONTINUOUS
 62
     6
 10
22256.469276999971
 20
19566.786753000011
 30
0.0
 11
22274.092930999959
 21
19405.541108000001
 31
0.0
  0
LINE
  5
3FD9
  8
2-0
  6
CONTINUOUS
 62
     4
 10
22215.04587099998
 20
19765.540316000021
 30
0.0
 11
22215.04587099998
 21
20495.537281000012
 31
0.0
  0
LINE
  5
3FDA
  8
2-0
  6
CONTINUOUS
 62
     6
 10
24548.406433999971
 20
14357.26975499999
 30
0.0
 11
24680.153292999988
 21
14451.896682000001
 31
0.0
  0
LINE
  5
3FDB
  8
2-0
  6
CONTINUOUS
 62
     6
 10
24680.153292999988
 20
14451.896682000001
 30
0.0
 11
24586.223156999971
 21
14319.657911999981
 31
0.0
  0
LINE
  5
3FDC
  8
2-0
  6
CONTINUOUS
 62
     6
 10
24548.406433999971
 20
14357.26975499999
 30
0.0
 11
24586.223156999971
 21
14319.657911999981
 31
0.0
  0
LINE
  5
3FDD
  8
2-0
  6
CONTINUOUS
 62
     6
 10
24586.223156999971
 20
14319.657911999981
 30
0.0
 11
24680.153292999988
 21
14451.896682000001
 31
0.0
  0
LINE
  5
3FDE
  8
2-0
  6
CONTINUOUS
 62
     6
 10
24680.153292999988
 20
14451.896682000001
 30
0.0
 11
24548.406433999971
 21
14357.26975499999
 31
0.0
  0
LINE
  5
3FDF
  8
2-0
  6
CONTINUOUS
 62
     6
 10
24548.406433999971
 20
14357.26975499999
 30
0.0
 11
24680.153292999988
 21
14451.896682000001
 31
0.0
  0
LINE
  5
3FE0
  8
2-0
  6
CONTINUOUS
 62
     6
 10
24586.223156999971
 20
14319.657911999981
 30
0.0
 11
24680.153292999988
 21
14451.896682000001
 31
0.0
  0
LINE
  5
3FE1
  8
2-0
  6
CONTINUOUS
 62
     6
 10
24586.223156999971
 20
14319.657911999981
 30
0.0
 11
24548.406433999971
 21
14357.26975499999
 31
0.0
  0
LINE
  5
3FE2
  8
2-0
  6
CONTINUOUS
 62
     6
 10
24611.442222999969
 20
14684.17438199999
 30
0.0
 11
24744.04225499996
 21
14590.746053999979
 31
0.0
  0
LINE
  5
3FE3
  8
2-0
  6
CONTINUOUS
 62
     6
 10
24744.04225499996
 20
14590.746053999979
 30
0.0
 11
24588.309568999961
 21
14636.121568
 31
0.0
  0
LINE
  5
3FE4
  8
2-0
  6
CONTINUOUS
 62
     6
 10
24611.442222999969
 20
14684.17438199999
 30
0.0
 11
24588.309568999961
 21
14636.121568
 31
0.0
  0
LINE
  5
3FE5
  8
2-0
  6
CONTINUOUS
 62
     6
 10
24588.309568999961
 20
14636.121568
 30
0.0
 11
24744.04225499996
 21
14590.746053999979
 31
0.0
  0
LINE
  5
3FE6
  8
2-0
  6
CONTINUOUS
 62
     6
 10
24744.04225499996
 20
14590.746053999979
 30
0.0
 11
24611.442222999969
 21
14684.17438199999
 31
0.0
  0
LINE
  5
3FE7
  8
2-0
  6
CONTINUOUS
 62
     6
 10
24611.442222999969
 20
14684.17438199999
 30
0.0
 11
24744.04225499996
 21
14590.746053999979
 31
0.0
  0
LINE
  5
3FE8
  8
2-0
  6
CONTINUOUS
 62
     6
 10
24588.309568999961
 20
14636.121568
 30
0.0
 11
24744.04225499996
 21
14590.746053999979
 31
0.0
  0
LINE
  5
3FE9
  8
2-0
  6
CONTINUOUS
 62
     6
 10
24588.309568999961
 20
14636.121568
 30
0.0
 11
24611.442222999969
 21
14684.17438199999
 31
0.0
  0
LINE
  5
3FEA
  8
2-0
  6
CONTINUOUS
 62
     6
 10
24671.205868999969
 20
16713.495315000011
 30
0.0
 11
24825.044154999981
 21
16764.92914600002
 31
0.0
  0
LINE
  5
3FEB
  8
2-0
  6
CONTINUOUS
 62
     6
 10
24825.044154999981
 20
16764.92914600002
 30
0.0
 11
24696.209167999961
 21
16666.388711000011
 31
0.0
  0
LINE
  5
3FEC
  8
2-0
  6
CONTINUOUS
 62
     6
 10
24671.205868999969
 20
16713.495315000011
 30
0.0
 11
24696.209167999961
 21
16666.388711000011
 31
0.0
  0
LINE
  5
3FED
  8
2-0
  6
CONTINUOUS
 62
     6
 10
24696.209167999961
 20
16666.388711000011
 30
0.0
 11
24825.044154999981
 21
16764.92914600002
 31
0.0
  0
LINE
  5
3FEE
  8
2-0
  6
CONTINUOUS
 62
     6
 10
24825.044154999981
 20
16764.92914600002
 30
0.0
 11
24671.205868999969
 21
16713.495315000011
 31
0.0
  0
LINE
  5
3FEF
  8
2-0
  6
CONTINUOUS
 62
     6
 10
24671.205868999969
 20
16713.495315000011
 30
0.0
 11
24825.044154999981
 21
16764.92914600002
 31
0.0
  0
LINE
  5
3FF0
  8
2-0
  6
CONTINUOUS
 62
     6
 10
24696.209167999961
 20
16666.388711000011
 30
0.0
 11
24825.044154999981
 21
16764.92914600002
 31
0.0
  0
LINE
  5
3FF1
  8
2-0
  6
CONTINUOUS
 62
     6
 10
24696.209167999961
 20
16666.388711000011
 30
0.0
 11
24671.205868999969
 21
16713.495315000011
 31
0.0
  0
LINE
  5
3FF2
  8
2-0
  6
CONTINUOUS
 62
     6
 10
24537.269661999981
 20
17204.81380700002
 30
0.0
 11
24680.153292999988
 21
17128.038177999999
 31
0.0
  0
LINE
  5
3FF3
  8
2-0
  6
CONTINUOUS
 62
     6
 10
24680.153292999988
 20
17128.038177999999
 30
0.0
 11
24520.091399999968
 21
17154.320247000011
 31
0.0
  0
LINE
  5
3FF4
  8
2-0
  6
CONTINUOUS
 62
     6
 10
24537.269661999981
 20
17204.81380700002
 30
0.0
 11
24520.091399999968
 21
17154.320247000011
 31
0.0
  0
LINE
  5
3FF5
  8
2-0
  6
CONTINUOUS
 62
     6
 10
24520.091399999968
 20
17154.320247000011
 30
0.0
 11
24680.153292999988
 21
17128.038177999999
 31
0.0
  0
LINE
  5
3FF6
  8
2-0
  6
CONTINUOUS
 62
     6
 10
24680.153292999988
 20
17128.038177999999
 30
0.0
 11
24537.269661999981
 21
17204.81380700002
 31
0.0
  0
LINE
  5
3FF7
  8
2-0
  6
CONTINUOUS
 62
     6
 10
24537.269661999981
 20
17204.81380700002
 30
0.0
 11
24680.153292999988
 21
17128.038177999999
 31
0.0
  0
LINE
  5
3FF8
  8
2-0
  6
CONTINUOUS
 62
     6
 10
24520.091399999968
 20
17154.320247000011
 30
0.0
 11
24680.153292999988
 21
17128.038177999999
 31
0.0
  0
LINE
  5
3FF9
  8
2-0
  6
CONTINUOUS
 62
     6
 10
24520.091399999968
 20
17154.320247000011
 30
0.0
 11
24537.269661999981
 21
17204.81380700002
 31
0.0
  0
LINE
  5
3FFA
  8
2-0
  6
CONTINUOUS
 62
     3
 10
21475.546451999959
 20
19685.538073000022
 30
0.0
 11
21438.54528999998
 21
19685.538073000022
 31
0.0
  0
LINE
  5
3FFB
  8
2-0
  6
CONTINUOUS
 62
     3
 10
21475.546451999959
 20
19655.534510000001
 30
0.0
 11
21475.546451999959
 21
19685.538073000022
 31
0.0
  0
LINE
  5
3FFC
  8
2-0
  6
CONTINUOUS
 62
     3
 10
21469.546530999949
 20
19655.534510000001
 30
0.0
 11
21475.546451999959
 21
19655.534510000001
 31
0.0
  0
LINE
  5
3FFD
  8
2-0
  6
CONTINUOUS
 62
     3
 10
21485.643975999981
 20
19655.534510000001
 30
0.0
 11
21485.643975999981
 21
19685.538073000022
 31
0.0
  0
LINE
  5
3FFE
  8
2-0
  6
CONTINUOUS
 62
     3
 10
21467.640254999991
 20
19655.534510000001
 30
0.0
 11
21485.643975999981
 21
19655.534510000001
 31
0.0
  0
LINE
  5
3FFF
  8
2-0
  6
CONTINUOUS
 62
     3
 10
21467.640254999991
 20
19680.543747000011
 30
0.0
 11
21467.640254999991
 21
19655.534510000001
 31
0.0
  0
LINE
  5
4000
  8
2-0
  6
CONTINUOUS
 62
     3
 10
21472.640518999971
 20
19680.543747000011
 30
0.0
 11
21467.640254999991
 21
19680.543747000011
 31
0.0
  0
LINE
  5
4001
  8
2-0
  6
CONTINUOUS
 62
     3
 10
21472.640518999971
 20
19673.538230999999
 30
0.0
 11
21472.640518999971
 21
19680.543747000011
 31
0.0
  0
LINE
  5
4002
  8
2-0
  6
CONTINUOUS
 62
     3
 10
21441.45122399996
 20
19673.538230999999
 30
0.0
 11
21441.45122399996
 21
19680.543747000011
 31
0.0
  0
LINE
  5
4003
  8
2-0
  6
CONTINUOUS
 62
     3
 10
21441.45122399996
 20
19680.543747000011
 30
0.0
 11
21446.451487999981
 21
19680.543747000011
 31
0.0
  0
LINE
  5
4004
  8
2-0
  6
CONTINUOUS
 62
     3
 10
21446.451487999981
 20
19680.543747000011
 30
0.0
 11
21446.451487999981
 21
19655.534510000001
 31
0.0
  0
LINE
  5
4005
  8
2-0
  6
CONTINUOUS
 62
     3
 10
21446.451487999981
 20
19655.534510000001
 30
0.0
 11
21428.451724999992
 21
19655.534510000001
 31
0.0
  0
LINE
  5
4006
  8
2-0
  6
CONTINUOUS
 62
     3
 10
21428.451724999992
 20
19655.534510000001
 30
0.0
 11
21428.451724999992
 21
19685.538073000022
 31
0.0
  0
LINE
  5
4007
  8
2-0
  6
CONTINUOUS
 62
     3
 10
21444.545210999971
 20
19655.534510000001
 30
0.0
 11
21438.54528999998
 21
19655.534510000001
 31
0.0
  0
LINE
  5
4008
  8
2-0
  6
CONTINUOUS
 62
     3
 10
21438.54528999998
 20
19655.534510000001
 30
0.0
 11
21438.54528999998
 21
19685.538073000022
 31
0.0
  0
LINE
  5
4009
  8
2-0
  6
CONTINUOUS
 62
     3
 10
19635.047190999969
 20
19576.537862000001
 30
0.0
 11
19635.047190999969
 21
19570.5419
 31
0.0
  0
LINE
  5
400A
  8
2-0
  6
CONTINUOUS
 62
     3
 10
19635.047190999969
 20
19570.5419
 30
0.0
 11
19605.049565999969
 21
19570.5419
 31
0.0
  0
LINE
  5
400B
  8
2-0
  6
CONTINUOUS
 62
     3
 10
19605.049565999969
 20
19570.5419
 30
0.0
 11
19605.049565999969
 21
19685.538073000022
 31
0.0
  0
LINE
  5
400C
  8
2-0
  6
CONTINUOUS
 62
     3
 10
19605.049565999969
 20
19600.541504000001
 30
0.0
 11
19686.047506999981
 21
19600.541504000001
 31
0.0
  0
LINE
  5
400D
  8
2-0
  6
CONTINUOUS
 62
     3
 10
19635.047190999969
 20
19560.244444
 30
0.0
 11
19605.049565999969
 21
19560.244444
 31
0.0
  0
LINE
  5
400E
  8
2-0
  6
CONTINUOUS
 62
     3
 10
19635.047190999969
 20
19578.246186000011
 30
0.0
 11
19635.047190999969
 21
19560.244444
 31
0.0
  0
LINE
  5
400F
  8
2-0
  6
CONTINUOUS
 62
     3
 10
19610.053788999969
 20
19578.246186000011
 30
0.0
 11
19635.047190999969
 21
19578.246186000011
 31
0.0
  0
LINE
  5
4010
  8
2-0
  6
CONTINUOUS
 62
     3
 10
19610.053788999969
 20
19573.238004000021
 30
0.0
 11
19610.053788999969
 21
19578.246186000011
 31
0.0
  0
LINE
  5
4011
  8
2-0
  6
CONTINUOUS
 62
     3
 10
19617.051386999949
 20
19573.238004000021
 30
0.0
 11
19610.053788999969
 21
19573.238004000021
 31
0.0
  0
LINE
  5
4012
  8
2-0
  6
CONTINUOUS
 62
     3
 10
19717.34567599995
 20
19673.538230999999
 30
0.0
 11
19717.34567599995
 21
19680.543747000011
 31
0.0
  0
LINE
  5
4013
  8
2-0
  6
CONTINUOUS
 62
     3
 10
19717.34567599995
 20
19680.543747000011
 30
0.0
 11
19712.343431999969
 21
19680.543747000011
 31
0.0
  0
LINE
  5
4014
  8
2-0
  6
CONTINUOUS
 62
     3
 10
19712.343431999969
 20
19680.543747000011
 30
0.0
 11
19712.343431999969
 21
19655.534510000001
 31
0.0
  0
LINE
  5
4015
  8
2-0
  6
CONTINUOUS
 62
     3
 10
19712.343431999969
 20
19655.534510000001
 30
0.0
 11
19730.351112999961
 21
19655.534510000001
 31
0.0
  0
LINE
  5
4016
  8
2-0
  6
CONTINUOUS
 62
     3
 10
19730.351112999961
 20
19655.534510000001
 30
0.0
 11
19730.351112999961
 21
19685.538073000022
 31
0.0
  0
LINE
  5
4017
  8
2-0
  6
CONTINUOUS
 62
     3
 10
19720.051676999981
 20
19685.538073000022
 30
0.0
 11
19605.049565999969
 21
19685.538073000022
 31
0.0
  0
LINE
  5
4018
  8
2-0
  6
CONTINUOUS
 62
     3
 10
19720.051676999981
 20
19655.534510000001
 30
0.0
 11
19720.051676999981
 21
19685.538073000022
 31
0.0
  0
LINE
  5
4019
  8
2-0
  6
CONTINUOUS
 62
     3
 10
19714.047797999981
 20
19655.534510000001
 30
0.0
 11
19720.051676999981
 21
19655.534510000001
 31
0.0
  0
LINE
  5
401A
  8
2-0
  6
CONTINUOUS
 62
     3
 10
20740.44528549998
 20
19673.538230999999
 30
0.0
 11
20740.44528549998
 21
19680.543747000011
 31
0.0
  0
LINE
  5
401B
  8
2-0
  6
CONTINUOUS
 62
     3
 10
20740.44528549998
 20
19680.543747000011
 30
0.0
 11
20745.445548499982
 21
19680.543747000011
 31
0.0
  0
LINE
  5
401C
  8
2-0
  6
CONTINUOUS
 62
     3
 10
20745.445548499982
 20
19680.543747000011
 30
0.0
 11
20745.445548499982
 21
19655.534510000001
 31
0.0
  0
LINE
  5
401D
  8
2-0
  6
CONTINUOUS
 62
     3
 10
20745.445548499982
 20
19655.534510000001
 30
0.0
 11
20727.45172549997
 21
19655.534510000001
 31
0.0
  0
LINE
  5
401E
  8
2-0
  6
CONTINUOUS
 62
     3
 10
20727.45172549997
 20
19655.534510000001
 30
0.0
 11
20727.45172549997
 21
19685.538073000022
 31
0.0
  0
LINE
  5
401F
  8
2-0
  6
CONTINUOUS
 62
     3
 10
20743.543231499971
 20
19655.534510000001
 30
0.0
 11
20737.54529049998
 21
19655.534510000001
 31
0.0
  0
LINE
  5
4020
  8
2-0
  6
CONTINUOUS
 62
     3
 10
20737.54529049998
 20
19655.534510000001
 30
0.0
 11
20737.54529049998
 21
19685.538073000022
 31
0.0
  0
LINE
  5
4021
  8
2-0
  6
CONTINUOUS
 62
     3
 10
20774.54645149998
 20
19685.538073000022
 30
0.0
 11
20737.54529049998
 21
19685.538073000022
 31
0.0
  0
LINE
  5
4022
  8
2-0
  6
CONTINUOUS
 62
     3
 10
20774.54645149998
 20
19655.534510000001
 30
0.0
 11
20774.54645149998
 21
19685.538073000022
 31
0.0
  0
LINE
  5
4023
  8
2-0
  6
CONTINUOUS
 62
     3
 10
20768.54059249998
 20
19655.534510000001
 30
0.0
 11
20774.54645149998
 21
19655.534510000001
 31
0.0
  0
LINE
  5
4024
  8
2-0
  6
CONTINUOUS
 62
     3
 10
20784.640016499969
 20
19655.534510000001
 30
0.0
 11
20784.640016499969
 21
19685.538073000022
 31
0.0
  0
LINE
  5
4025
  8
2-0
  6
CONTINUOUS
 62
     3
 10
20766.644213499982
 20
19655.534510000001
 30
0.0
 11
20784.640016499969
 21
19655.534510000001
 31
0.0
  0
LINE
  5
4026
  8
2-0
  6
CONTINUOUS
 62
     3
 10
20766.644213499982
 20
19680.543747000011
 30
0.0
 11
20766.644213499982
 21
19655.534510000001
 31
0.0
  0
LINE
  5
4027
  8
2-0
  6
CONTINUOUS
 62
     3
 10
20771.63457949998
 20
19680.543747000011
 30
0.0
 11
20766.644213499982
 21
19680.543747000011
 31
0.0
  0
LINE
  5
4028
  8
2-0
  6
CONTINUOUS
 62
     3
 10
20771.63457949998
 20
19673.538230999999
 30
0.0
 11
20771.63457949998
 21
19680.543747000011
 31
0.0
  0
LINE
  5
4029
  8
2-0
  6
CONTINUOUS
 62
     3
 10
20083.63902699999
 20
19685.538073000022
 30
0.0
 11
20727.45172549997
 21
19685.538073000022
 31
0.0
  0
LINE
  5
402A
  8
2-0
  6
CONTINUOUS
 62
     3
 10
21428.451724999992
 20
19685.538073000022
 30
0.0
 11
20784.640016499969
 21
19685.538073000022
 31
0.0
  0
LINE
  5
402B
  8
2-0
  6
CONTINUOUS
 62
     3
 10
19635.047190999969
 20
19576.537862000001
 30
0.0
 11
19635.047190999969
 21
19570.5419
 31
0.0
  0
LINE
  5
402C
  8
2-0
  6
CONTINUOUS
 62
     3
 10
19635.047190999969
 20
19570.5419
 30
0.0
 11
19605.049565999969
 21
19570.5419
 31
0.0
  0
LINE
  5
402D
  8
2-0
  6
CONTINUOUS
 62
     3
 10
19605.049565999969
 20
19570.5419
 30
0.0
 11
19605.049565999969
 21
19685.538073000022
 31
0.0
  0
LINE
  5
402E
  8
2-0
  6
CONTINUOUS
 62
     3
 10
19605.049565999969
 20
19600.541504000001
 30
0.0
 11
19686.047506999981
 21
19600.541504000001
 31
0.0
  0
LINE
  5
402F
  8
2-0
  6
CONTINUOUS
 62
     3
 10
19635.047190999969
 20
19560.244444
 30
0.0
 11
19605.049565999969
 21
19560.244444
 31
0.0
  0
LINE
  5
4030
  8
2-0
  6
CONTINUOUS
 62
     3
 10
19635.047190999969
 20
19578.246186000011
 30
0.0
 11
19635.047190999969
 21
19560.244444
 31
0.0
  0
LINE
  5
4031
  8
2-0
  6
CONTINUOUS
 62
     3
 10
19610.053788999969
 20
19578.246186000011
 30
0.0
 11
19635.047190999969
 21
19578.246186000011
 31
0.0
  0
LINE
  5
4032
  8
2-0
  6
CONTINUOUS
 62
     3
 10
19610.053788999969
 20
19573.238004000021
 30
0.0
 11
19610.053788999969
 21
19578.246186000011
 31
0.0
  0
LINE
  5
4033
  8
2-0
  6
CONTINUOUS
 62
     3
 10
19617.051386999949
 20
19573.238004000021
 30
0.0
 11
19610.053788999969
 21
19573.238004000021
 31
0.0
  0
LINE
  5
4034
  8
2-0
  6
CONTINUOUS
 62
     3
 10
19617.051386999949
 20
19219.941181499991
 30
0.0
 11
19610.053788999969
 21
19219.941181499991
 31
0.0
  0
LINE
  5
4035
  8
2-0
  6
CONTINUOUS
 62
     3
 10
19610.053788999969
 20
19219.941181499991
 30
0.0
 11
19610.053788999969
 21
19224.941445500001
 31
0.0
  0
LINE
  5
4036
  8
2-0
  6
CONTINUOUS
 62
     3
 10
19610.053788999969
 20
19224.941445500001
 30
0.0
 11
19635.047190999969
 21
19224.941445500001
 31
0.0
  0
LINE
  5
4037
  8
2-0
  6
CONTINUOUS
 62
     3
 10
19635.047190999969
 20
19224.941445500001
 30
0.0
 11
19635.047190999969
 21
19206.945641499991
 31
0.0
  0
LINE
  5
4038
  8
2-0
  6
CONTINUOUS
 62
     3
 10
19635.047190999969
 20
19206.945641499991
 30
0.0
 11
19605.049565999969
 21
19206.945641499991
 31
0.0
  0
LINE
  5
4039
  8
2-0
  6
CONTINUOUS
 62
     3
 10
19635.047190999969
 20
19223.037148499981
 30
0.0
 11
19635.047190999969
 21
19217.039207500002
 31
0.0
  0
LINE
  5
403A
  8
2-0
  6
CONTINUOUS
 62
     3
 10
19635.047190999969
 20
19217.039207500002
 30
0.0
 11
19605.049565999969
 21
19217.039207500002
 31
0.0
  0
LINE
  5
403B
  8
2-0
  6
CONTINUOUS
 62
     3
 10
19605.049565999969
 20
19217.039207500002
 30
0.0
 11
19605.049565999969
 21
19254.040368499991
 31
0.0
  0
LINE
  5
403C
  8
2-0
  6
CONTINUOUS
 62
     3
 10
19635.047190999969
 20
19254.040368499991
 30
0.0
 11
19605.049565999969
 21
19254.040368499991
 31
0.0
  0
LINE
  5
403D
  8
2-0
  6
CONTINUOUS
 62
     3
 10
19635.047190999969
 20
19248.036488499991
 30
0.0
 11
19635.047190999969
 21
19254.040368499991
 31
0.0
  0
LINE
  5
403E
  8
2-0
  6
CONTINUOUS
 62
     3
 10
19635.047190999969
 20
19264.135913499991
 30
0.0
 11
19605.049565999969
 21
19264.135913499991
 31
0.0
  0
LINE
  5
403F
  8
2-0
  6
CONTINUOUS
 62
     3
 10
19635.047190999969
 20
19246.134171500002
 30
0.0
 11
19635.047190999969
 21
19264.135913499991
 31
0.0
  0
LINE
  5
4040
  8
2-0
  6
CONTINUOUS
 62
     3
 10
19610.053788999969
 20
19246.134171500002
 30
0.0
 11
19635.047190999969
 21
19246.134171500002
 31
0.0
  0
LINE
  5
4041
  8
2-0
  6
CONTINUOUS
 62
     3
 10
19610.053788999969
 20
19251.134435499978
 30
0.0
 11
19610.053788999969
 21
19246.134171500002
 31
0.0
  0
LINE
  5
4042
  8
2-0
  6
CONTINUOUS
 62
     3
 10
19617.051386999949
 20
19251.134435499978
 30
0.0
 11
19610.053788999969
 21
19251.134435499978
 31
0.0
  0
LINE
  5
4043
  8
2-0
  6
CONTINUOUS
 62
     3
 10
19617.051386999949
 20
18518.940191999998
 30
0.0
 11
19610.053788999969
 21
18518.940191999998
 31
0.0
  0
LINE
  5
4044
  8
2-0
  6
CONTINUOUS
 62
     3
 10
19610.053788999969
 20
18518.940191999998
 30
0.0
 11
19610.053788999969
 21
18523.946393999991
 31
0.0
  0
LINE
  5
4045
  8
2-0
  6
CONTINUOUS
 62
     3
 10
19610.053788999969
 20
18523.946393999991
 30
0.0
 11
19635.047190999969
 21
18523.946393999991
 31
0.0
  0
LINE
  5
4046
  8
2-0
  6
CONTINUOUS
 62
     3
 10
19635.047190999969
 20
18523.946393999991
 30
0.0
 11
19635.047190999969
 21
18505.944651999998
 31
0.0
  0
LINE
  5
4047
  8
2-0
  6
CONTINUOUS
 62
     3
 10
19635.047190999969
 20
18505.944651999998
 30
0.0
 11
19605.049565999969
 21
18505.944651999998
 31
0.0
  0
LINE
  5
4048
  8
2-0
  6
CONTINUOUS
 62
     3
 10
19635.047190999969
 20
18522.036158999981
 30
0.0
 11
19635.047190999969
 21
18516.040196999991
 31
0.0
  0
LINE
  5
4049
  8
2-0
  6
CONTINUOUS
 62
     3
 10
19635.047190999969
 20
18516.040196999991
 30
0.0
 11
19605.049565999969
 21
18516.040196999991
 31
0.0
  0
LINE
  5
404A
  8
2-0
  6
CONTINUOUS
 62
     3
 10
19605.049565999969
 20
18516.040196999991
 30
0.0
 11
19605.049565999969
 21
18553.039379000002
 31
0.0
  0
LINE
  5
404B
  8
2-0
  6
CONTINUOUS
 62
     3
 10
19635.047190999969
 20
18553.039379000002
 30
0.0
 11
19605.049565999969
 21
18553.039379000002
 31
0.0
  0
LINE
  5
404C
  8
2-0
  6
CONTINUOUS
 62
     3
 10
19635.047190999969
 20
18547.043416999979
 30
0.0
 11
19635.047190999969
 21
18553.039379000002
 31
0.0
  0
LINE
  5
404D
  8
2-0
  6
CONTINUOUS
 62
     3
 10
19635.047190999969
 20
18563.134924000002
 30
0.0
 11
19605.049565999969
 21
18563.134924000002
 31
0.0
  0
LINE
  5
404E
  8
2-0
  6
CONTINUOUS
 62
     3
 10
19635.047190999969
 20
18545.133182000001
 30
0.0
 11
19635.047190999969
 21
18563.134924000002
 31
0.0
  0
LINE
  5
404F
  8
2-0
  6
CONTINUOUS
 62
     3
 10
19610.053788999969
 20
18545.133182000001
 30
0.0
 11
19635.047190999969
 21
18545.133182000001
 31
0.0
  0
LINE
  5
4050
  8
2-0
  6
CONTINUOUS
 62
     3
 10
19610.053788999969
 20
18550.139383999991
 30
0.0
 11
19610.053788999969
 21
18545.133182000001
 31
0.0
  0
LINE
  5
4051
  8
2-0
  6
CONTINUOUS
 62
     3
 10
19617.051386999949
 20
18550.139383999991
 30
0.0
 11
19610.053788999969
 21
18550.139383999991
 31
0.0
  0
LINE
  5
4052
  8
2-0
  6
CONTINUOUS
 62
     3
 10
19617.051386999949
 20
17849.133446
 30
0.0
 11
19610.053788999969
 21
17849.133446
 31
0.0
  0
LINE
  5
4053
  8
2-0
  6
CONTINUOUS
 62
     3
 10
19610.053788999969
 20
17849.133446
 30
0.0
 11
19610.053788999969
 21
17844.145058999991
 31
0.0
  0
LINE
  5
4054
  8
2-0
  6
CONTINUOUS
 62
     3
 10
19610.053788999969
 20
17844.145058999991
 30
0.0
 11
19635.047190999969
 21
17844.145058999991
 31
0.0
  0
LINE
  5
4055
  8
2-0
  6
CONTINUOUS
 62
     3
 10
19635.047190999969
 20
17844.145058999991
 30
0.0
 11
19635.047190999969
 21
17862.140862
 31
0.0
  0
LINE
  5
4056
  8
2-0
  6
CONTINUOUS
 62
     3
 10
19635.047190999969
 20
17862.140862
 30
0.0
 11
19605.049565999969
 21
17862.140862
 31
0.0
  0
LINE
  5
4057
  8
2-0
  6
CONTINUOUS
 62
     3
 10
19635.047190999969
 20
17846.04341699999
 30
0.0
 11
19635.047190999969
 21
17852.039378999991
 31
0.0
  0
LINE
  5
4058
  8
2-0
  6
CONTINUOUS
 62
     3
 10
19635.047190999969
 20
17852.039378999991
 30
0.0
 11
19605.049565999969
 21
17852.039378999991
 31
0.0
  0
LINE
  5
4059
  8
2-0
  6
CONTINUOUS
 62
     3
 10
19605.049565999969
 20
17852.039378999991
 30
0.0
 11
19605.049565999969
 21
17815.040196999991
 31
0.0
  0
LINE
  5
405A
  8
2-0
  6
CONTINUOUS
 62
     3
 10
19635.047190999969
 20
17815.040196999991
 30
0.0
 11
19605.049565999969
 21
17815.040196999991
 31
0.0
  0
LINE
  5
405B
  8
2-0
  6
CONTINUOUS
 62
     3
 10
19635.047190999969
 20
17821.042097999991
 30
0.0
 11
19635.047190999969
 21
17815.040196999991
 31
0.0
  0
LINE
  5
405C
  8
2-0
  6
CONTINUOUS
 62
     3
 10
19635.047190999969
 20
17804.950591000001
 30
0.0
 11
19605.049565999969
 21
17804.950591000001
 31
0.0
  0
LINE
  5
405D
  8
2-0
  6
CONTINUOUS
 62
     3
 10
19635.047190999969
 20
17822.946393999991
 30
0.0
 11
19635.047190999969
 21
17804.950591000001
 31
0.0
  0
LINE
  5
405E
  8
2-0
  6
CONTINUOUS
 62
     3
 10
19610.053788999969
 20
17822.946393999991
 30
0.0
 11
19635.047190999969
 21
17822.946393999991
 31
0.0
  0
LINE
  5
405F
  8
2-0
  6
CONTINUOUS
 62
     3
 10
19610.053788999969
 20
17817.946131000001
 30
0.0
 11
19610.053788999969
 21
17822.946393999991
 31
0.0
  0
LINE
  5
4060
  8
2-0
  6
CONTINUOUS
 62
     3
 10
19617.051386999949
 20
17817.946131000001
 30
0.0
 11
19610.053788999969
 21
17817.946131000001
 31
0.0
  0
LINE
  5
4061
  8
2-0
  6
CONTINUOUS
 62
     3
 10
19607.935703999981
 20
17098.037016999999
 30
0.0
 11
19607.935703999981
 21
17118.038071999988
 31
0.0
  0
LINE
  5
4062
  8
2-0
  6
CONTINUOUS
 62
     3
 10
19607.935703999981
 20
17118.038071999988
 30
0.0
 11
19692.93623199996
 21
17118.038071999988
 31
0.0
  0
LINE
  5
4063
  8
2-0
  6
CONTINUOUS
 62
     3
 10
19617.051386999949
 20
17144.64478200001
 30
0.0
 11
19610.053788999969
 21
17144.64478200001
 31
0.0
  0
LINE
  5
4064
  8
2-0
  6
CONTINUOUS
 62
     3
 10
19610.053788999969
 20
17144.64478200001
 30
0.0
 11
19610.053788999969
 21
17139.65045600001
 31
0.0
  0
LINE
  5
4065
  8
2-0
  6
CONTINUOUS
 62
     3
 10
19610.053788999969
 20
17139.65045600001
 30
0.0
 11
19635.047190999969
 21
17139.65045600001
 31
0.0
  0
LINE
  5
4066
  8
2-0
  6
CONTINUOUS
 62
     3
 10
19635.047190999969
 20
17139.65045600001
 30
0.0
 11
19635.047190999969
 21
17157.646260000001
 31
0.0
  0
LINE
  5
4067
  8
2-0
  6
CONTINUOUS
 62
     3
 10
19635.047190999969
 20
17157.646260000001
 30
0.0
 11
19605.049565999969
 21
17157.646260000001
 31
0.0
  0
LINE
  5
4068
  8
2-0
  6
CONTINUOUS
 62
     3
 10
19635.047190999969
 20
17148.037676
 30
0.0
 11
19635.047190999969
 21
17142.035776000001
 31
0.0
  0
LINE
  5
4069
  8
2-0
  6
CONTINUOUS
 62
     3
 10
19605.049565999969
 20
17148.037676
 30
0.0
 11
19635.047190999969
 21
17148.037676
 31
0.0
  0
LINE
  5
406A
  8
2-0
  6
CONTINUOUS
 62
     3
 10
19605.049565999969
 20
17157.646260000001
 30
0.0
 11
19605.049565999969
 21
17804.950591000001
 31
0.0
  0
LINE
  5
406B
  8
2-0
  6
CONTINUOUS
 62
     3
 10
19605.049565999969
 20
17862.140862
 30
0.0
 11
19605.049565999969
 21
18505.944651999998
 31
0.0
  0
LINE
  5
406C
  8
2-0
  6
CONTINUOUS
 62
     3
 10
19605.049565999969
 20
17003.035961000009
 30
0.0
 11
19635.047190999969
 21
17003.035961000009
 31
0.0
  0
LINE
  5
406D
  8
2-0
  6
CONTINUOUS
 62
     3
 10
19635.047190999969
 20
17003.035961000009
 30
0.0
 11
19635.047190999969
 21
17009.037861000012
 31
0.0
  0
LINE
  5
406E
  8
2-0
  6
CONTINUOUS
 62
     3
 10
19692.93623199996
 20
17033.041504000012
 30
0.0
 11
19607.935703999981
 21
17033.041504000012
 31
0.0
  0
LINE
  5
406F
  8
2-0
  6
CONTINUOUS
 62
     3
 10
19607.935703999981
 20
17033.041504000012
 30
0.0
 11
19607.935703999981
 21
17053.03662100001
 31
0.0
  0
LINE
  5
4070
  8
2-0
  6
CONTINUOUS
 62
     3
 10
19635.047190999969
 20
16993.427378000011
 30
0.0
 11
19605.049565999969
 21
16993.427378000011
 31
0.0
  0
LINE
  5
4071
  8
2-0
  6
CONTINUOUS
 62
     3
 10
19635.047190999969
 20
17011.423180999991
 30
0.0
 11
19635.047190999969
 21
16993.427378000011
 31
0.0
  0
LINE
  5
4072
  8
2-0
  6
CONTINUOUS
 62
     3
 10
19610.053788999969
 20
17011.423180999991
 30
0.0
 11
19635.047190999969
 21
17011.423180999991
 31
0.0
  0
LINE
  5
4073
  8
2-0
  6
CONTINUOUS
 62
     3
 10
19610.053788999969
 20
17006.422917000011
 30
0.0
 11
19610.053788999969
 21
17011.423180999991
 31
0.0
  0
LINE
  5
4074
  8
2-0
  6
CONTINUOUS
 62
     3
 10
19617.051386999949
 20
17006.422917000011
 30
0.0
 11
19610.053788999969
 21
17006.422917000011
 31
0.0
  0
LINE
  5
4075
  8
2-0
  6
CONTINUOUS
 62
     3
 10
19617.051386999949
 20
16301.94068649998
 30
0.0
 11
19610.053788999969
 21
16301.94068649998
 31
0.0
  0
LINE
  5
4076
  8
2-0
  6
CONTINUOUS
 62
     3
 10
19610.053788999969
 20
16301.94068649998
 30
0.0
 11
19610.053788999969
 21
16306.94095049998
 31
0.0
  0
LINE
  5
4077
  8
2-0
  6
CONTINUOUS
 62
     3
 10
19610.053788999969
 20
16306.94095049998
 30
0.0
 11
19635.047190999969
 21
16306.94095049998
 31
0.0
  0
LINE
  5
4078
  8
2-0
  6
CONTINUOUS
 62
     3
 10
19635.047190999969
 20
16306.94095049998
 30
0.0
 11
19635.047190999969
 21
16288.9392085
 31
0.0
  0
LINE
  5
4079
  8
2-0
  6
CONTINUOUS
 62
     3
 10
19635.047190999969
 20
16288.9392085
 30
0.0
 11
19605.049565999969
 21
16288.9392085
 31
0.0
  0
LINE
  5
407A
  8
2-0
  6
CONTINUOUS
 62
     3
 10
19635.047190999969
 20
16305.036653499999
 30
0.0
 11
19635.047190999969
 21
16299.0397025
 31
0.0
  0
LINE
  5
407B
  8
2-0
  6
CONTINUOUS
 62
     3
 10
19635.047190999969
 20
16299.0397025
 30
0.0
 11
19605.049565999969
 21
16299.0397025
 31
0.0
  0
LINE
  5
407C
  8
2-0
  6
CONTINUOUS
 62
     3
 10
19605.049565999969
 20
16299.0397025
 30
0.0
 11
19605.049565999969
 21
16336.0398735
 31
0.0
  0
LINE
  5
407D
  8
2-0
  6
CONTINUOUS
 62
     3
 10
19635.047190999969
 20
16336.0398735
 30
0.0
 11
19605.049565999969
 21
16336.0398735
 31
0.0
  0
LINE
  5
407E
  8
2-0
  6
CONTINUOUS
 62
     3
 10
19635.047190999969
 20
16330.0369835
 30
0.0
 11
19635.047190999969
 21
16336.0398735
 31
0.0
  0
LINE
  5
407F
  8
2-0
  6
CONTINUOUS
 62
     3
 10
19635.047190999969
 20
16346.135418499989
 30
0.0
 11
19605.049565999969
 21
16346.135418499989
 31
0.0
  0
LINE
  5
4080
  8
2-0
  6
CONTINUOUS
 62
     3
 10
19635.047190999969
 20
16328.127737500001
 30
0.0
 11
19635.047190999969
 21
16346.135418499989
 31
0.0
  0
LINE
  5
4081
  8
2-0
  6
CONTINUOUS
 62
     3
 10
19610.053788999969
 20
16328.127737500001
 30
0.0
 11
19635.047190999969
 21
16328.127737500001
 31
0.0
  0
LINE
  5
4082
  8
2-0
  6
CONTINUOUS
 62
     3
 10
19610.053788999969
 20
16333.133940499991
 30
0.0
 11
19610.053788999969
 21
16328.127737500001
 31
0.0
  0
LINE
  5
4083
  8
2-0
  6
CONTINUOUS
 62
     3
 10
19617.051386999949
 20
16333.133940499991
 30
0.0
 11
19610.053788999969
 21
16333.133940499991
 31
0.0
  0
LINE
  5
4084
  8
2-0
  6
CONTINUOUS
 62
     3
 10
19617.051386999949
 20
15632.373957
 30
0.0
 11
19610.053788999969
 21
15632.373957
 31
0.0
  0
LINE
  5
4085
  8
2-0
  6
CONTINUOUS
 62
     3
 10
19610.053788999969
 20
15632.373957
 30
0.0
 11
19610.053788999969
 21
15627.379632
 31
0.0
  0
LINE
  5
4086
  8
2-0
  6
CONTINUOUS
 62
     3
 10
19610.053788999969
 20
15627.379632
 30
0.0
 11
19635.047190999969
 21
15627.379632
 31
0.0
  0
LINE
  5
4087
  8
2-0
  6
CONTINUOUS
 62
     3
 10
19635.047190999969
 20
15627.379632
 30
0.0
 11
19635.047190999969
 21
15645.375435000011
 31
0.0
  0
LINE
  5
4088
  8
2-0
  6
CONTINUOUS
 62
     3
 10
19635.047190999969
 20
15645.375435000011
 30
0.0
 11
19605.049565999969
 21
15645.375435000011
 31
0.0
  0
LINE
  5
4089
  8
2-0
  6
CONTINUOUS
 62
     3
 10
19635.047190999969
 20
15629.277990000001
 30
0.0
 11
19635.047190999969
 21
15635.27989000002
 31
0.0
  0
LINE
  5
408A
  8
2-0
  6
CONTINUOUS
 62
     3
 10
19635.047190999969
 20
15635.27989000002
 30
0.0
 11
19605.049565999969
 21
15635.27989000002
 31
0.0
  0
LINE
  5
408B
  8
2-0
  6
CONTINUOUS
 62
     3
 10
19605.049565999969
 20
15598.280709000001
 30
0.0
 11
19605.049565999969
 21
15635.27989000002
 31
0.0
  0
LINE
  5
408C
  8
2-0
  6
CONTINUOUS
 62
     3
 10
19635.047190999969
 20
15598.280709000001
 30
0.0
 11
19605.049565999969
 21
15598.280709000001
 31
0.0
  0
LINE
  5
408D
  8
2-0
  6
CONTINUOUS
 62
     3
 10
19635.047190999969
 20
15604.27766
 30
0.0
 11
19635.047190999969
 21
15598.280709000001
 31
0.0
  0
LINE
  5
408E
  8
2-0
  6
CONTINUOUS
 62
     3
 10
19635.047190999969
 20
15588.179225
 30
0.0
 11
19605.049565999969
 21
15588.179225
 31
0.0
  0
LINE
  5
408F
  8
2-0
  6
CONTINUOUS
 62
     3
 10
19635.047190999969
 20
15606.186906000001
 30
0.0
 11
19635.047190999969
 21
15588.179225
 31
0.0
  0
LINE
  5
4090
  8
2-0
  6
CONTINUOUS
 62
     3
 10
19610.053788999969
 20
15606.186906000001
 30
0.0
 11
19635.047190999969
 21
15606.186906000001
 31
0.0
  0
LINE
  5
4091
  8
2-0
  6
CONTINUOUS
 62
     3
 10
19610.053788999969
 20
15601.186642000001
 30
0.0
 11
19610.053788999969
 21
15606.186906000001
 31
0.0
  0
LINE
  5
4092
  8
2-0
  6
CONTINUOUS
 62
     3
 10
19617.051386999949
 20
15601.186642000001
 30
0.0
 11
19610.053788999969
 21
15601.186642000001
 31
0.0
  0
LINE
  5
4093
  8
2-0
  6
CONTINUOUS
 62
     3
 10
19605.049565999969
 20
16993.427378000011
 30
0.0
 11
19605.049565999969
 21
16346.135418499989
 31
0.0
  0
LINE
  5
4094
  8
2-0
  6
CONTINUOUS
 62
     3
 10
19605.049565999969
 20
17148.037676
 30
0.0
 11
19605.049565999969
 21
17003.035961000009
 31
0.0
  0
LINE
  5
4095
  8
2-0
  6
CONTINUOUS
 62
     3
 10
19692.93623199996
 20
17118.038071999988
 30
0.0
 11
19692.93623199996
 21
17033.041504000012
 31
0.0
  0
LINE
  5
4096
  8
2-0
  6
CONTINUOUS
 62
     3
 10
19635.047190999969
 20
14574.541714999999
 30
0.0
 11
19635.047190999969
 21
14580.546584
 31
0.0
  0
LINE
  5
4097
  8
2-0
  6
CONTINUOUS
 62
     3
 10
19635.047190999969
 20
14580.546584
 30
0.0
 11
19605.049565999969
 21
14580.546584
 31
0.0
  0
LINE
  5
4098
  8
2-0
  6
CONTINUOUS
 62
     3
 10
19605.049565999969
 20
14580.546584
 30
0.0
 11
19605.049565999969
 21
14465.542493000001
 31
0.0
  0
LINE
  5
4099
  8
2-0
  6
CONTINUOUS
 62
     3
 10
19605.049565999969
 20
14465.542493000001
 30
0.0
 11
19690.048113999961
 21
14465.542493000001
 31
0.0
  0
LINE
  5
409A
  8
2-0
  6
CONTINUOUS
 62
     3
 10
19690.048113999961
 20
14465.542493000001
 30
0.0
 11
19690.048113999961
 21
14550.538071999999
 31
0.0
  0
LINE
  5
409B
  8
2-0
  6
CONTINUOUS
 62
     3
 10
19690.048113999961
 20
14550.538071999999
 30
0.0
 11
19658.051175999939
 21
14550.538071999999
 31
0.0
  0
LINE
  5
409C
  8
2-0
  6
CONTINUOUS
 62
     3
 10
19617.051386999949
 20
14577.576316999999
 30
0.0
 11
19610.053788999969
 21
14577.576316999999
 31
0.0
  0
LINE
  5
409D
  8
2-0
  6
CONTINUOUS
 62
     3
 10
19610.053788999969
 20
14577.576316999999
 30
0.0
 11
19610.053788999969
 21
14572.57902199998
 31
0.0
  0
LINE
  5
409E
  8
2-0
  6
CONTINUOUS
 62
     3
 10
19610.053788999969
 20
14572.57902199998
 30
0.0
 11
19635.047190999969
 21
14572.57902199998
 31
0.0
  0
LINE
  5
409F
  8
2-0
  6
CONTINUOUS
 62
     3
 10
19635.047190999969
 20
14572.57902199998
 30
0.0
 11
19635.047190999969
 21
14590.57779499999
 31
0.0
  0
LINE
  5
40A0
  8
2-0
  6
CONTINUOUS
 62
     3
 10
19635.047190999969
 20
14590.57779499999
 30
0.0
 11
19605.049565999969
 21
14590.57779499999
 31
0.0
  0
LINE
  5
40A1
  8
2-0
  6
CONTINUOUS
 62
     3
 10
19605.049565999969
 20
14590.57779499999
 30
0.0
 11
19605.049565999969
 21
14887.179225
 31
0.0
  0
LINE
  5
40A2
  8
2-0
  6
CONTINUOUS
 62
     3
 10
19605.049565999969
 20
18563.134924000002
 30
0.0
 11
19605.049565999969
 21
19206.945641499991
 31
0.0
  0
LINE
  5
40A3
  8
2-0
  6
CONTINUOUS
 62
     3
 10
19605.049565999969
 20
16288.9392085
 30
0.0
 11
19605.049565999969
 21
15645.375435000011
 31
0.0
  0
LINE
  5
40A4
  8
2-0
  6
CONTINUOUS
 62
     3
 10
24825.044154999981
 20
19570.5419
 30
0.0
 11
24825.044154999981
 21
19685.538073000022
 31
0.0
  0
LINE
  5
40A5
  8
2-0
  6
CENTER2
 62
     6
 10
18318.091293999969
 20
19643.039787999991
 30
0.0
 11
25675.045474999992
 21
19643.039787999991
 31
0.0
  0
LINE
  5
40A6
  8
2-0
  6
CENTER2
 62
     6
 10
18318.091293999969
 20
17075.53978799998
 30
0.0
 11
25675.045474999992
 21
17075.53978799998
 31
0.0
  0
LINE
  5
40A7
  8
2-0
  6
CENTER2
 62
     6
 10
18318.091293999969
 20
14508.039787999989
 30
0.0
 11
25675.045474999992
 21
14508.039787999989
 31
0.0
  0
LINE
  5
40A8
  8
2-0
  6
CONTINUOUS
 62
     3
 10
20070.637548999981
 20
19673.538230999999
 30
0.0
 11
20070.637548999981
 21
19680.543747000011
 31
0.0
  0
LINE
  5
40A9
  8
2-0
  6
CONTINUOUS
 62
     3
 10
20070.637548999981
 20
19680.543747000011
 30
0.0
 11
20065.637284999972
 21
19680.543747000011
 31
0.0
  0
LINE
  5
40AA
  8
2-0
  6
CONTINUOUS
 62
     3
 10
20065.637284999972
 20
19680.543747000011
 30
0.0
 11
20065.637284999972
 21
19655.534510000001
 31
0.0
  0
LINE
  5
40AB
  8
2-0
  6
CONTINUOUS
 62
     3
 10
20065.637284999972
 20
19655.534510000001
 30
0.0
 11
20083.63902699999
 21
19655.534510000001
 31
0.0
  0
LINE
  5
40AC
  8
2-0
  6
CONTINUOUS
 62
     3
 10
20083.63902699999
 20
19655.534510000001
 30
0.0
 11
20083.63902699999
 21
19685.538073000022
 31
0.0
  0
LINE
  5
40AD
  8
2-0
  6
CONTINUOUS
 62
     3
 10
20067.53960199999
 20
19655.534510000001
 30
0.0
 11
20073.543481999968
 21
19655.534510000001
 31
0.0
  0
LINE
  5
40AE
  8
2-0
  6
CONTINUOUS
 62
     3
 10
20073.543481999968
 20
19655.534510000001
 30
0.0
 11
20073.543481999968
 21
19685.538073000022
 31
0.0
  0
LINE
  5
40AF
  8
2-0
  6
CONTINUOUS
 62
     3
 10
20036.54825999996
 20
19685.538073000022
 30
0.0
 11
20073.543481999968
 21
19685.538073000022
 31
0.0
  0
LINE
  5
40B0
  8
2-0
  6
CONTINUOUS
 62
     3
 10
20036.54825999996
 20
19655.534510000001
 30
0.0
 11
20036.54825999996
 21
19685.538073000022
 31
0.0
  0
LINE
  5
40B1
  8
2-0
  6
CONTINUOUS
 62
     3
 10
20042.542241999981
 20
19655.534510000001
 30
0.0
 11
20036.54825999996
 21
19655.534510000001
 31
0.0
  0
LINE
  5
40B2
  8
2-0
  6
CONTINUOUS
 62
     3
 10
20026.452714999989
 20
19655.534510000001
 30
0.0
 11
20026.452714999989
 21
19685.538073000022
 31
0.0
  0
LINE
  5
40B3
  8
2-0
  6
CONTINUOUS
 62
     3
 10
20044.44851799999
 20
19655.534510000001
 30
0.0
 11
20026.452714999989
 21
19655.534510000001
 31
0.0
  0
LINE
  5
40B4
  8
2-0
  6
CONTINUOUS
 62
     3
 10
20044.44851799999
 20
19680.543747000011
 30
0.0
 11
20044.44851799999
 21
19655.534510000001
 31
0.0
  0
LINE
  5
40B5
  8
2-0
  6
CONTINUOUS
 62
     3
 10
20039.450233999989
 20
19680.543747000011
 30
0.0
 11
20044.44851799999
 21
19680.543747000011
 31
0.0
  0
LINE
  5
40B6
  8
2-0
  6
CONTINUOUS
 62
     3
 10
20039.450233999989
 20
19673.538230999999
 30
0.0
 11
20039.450233999989
 21
19680.543747000011
 31
0.0
  0
LINE
  5
40B7
  8
2-0
  6
CONTINUOUS
 62
     3
 10
19730.351112999961
 20
19685.538073000022
 30
0.0
 11
20026.452714999989
 21
19685.538073000022
 31
0.0
  0
LINE
  5
40B8
  8
2-0
  6
CONTINUOUS
 62
     3
 10
19605.049565999969
 20
19600.541504000001
 30
0.0
 11
24744.04225499996
 21
19600.541504000001
 31
0.0
  0
LINE
  5
40B9
  8
2-0
  6
CENTER2
 62
     6
 10
19647.54587099998
 20
20885.538073000022
 30
0.0
 11
19647.54587099998
 21
13882.276354
 31
0.0
  0
LINE
  5
40BA
  8
2-0
  6
CENTER2
 62
     6
 10
24782.54587099998
 20
20885.538073000022
 30
0.0
 11
24782.54587099998
 21
13882.276354
 31
0.0
  0
LINE
  5
40BB
  8
2-0
  6
CONTINUOUS
 62
     3
 10
24825.044154999981
 20
19560.244444
 30
0.0
 11
24825.044154999981
 21
19264.135913499991
 31
0.0
  0
LINE
  5
40BC
  8
2-0
  6
CONTINUOUS
 62
     3
 10
19605.049565999969
 20
19560.244444
 30
0.0
 11
19605.049565999969
 21
19264.135913499991
 31
0.0
  0
LINE
  5
40BD
  8
2-0
  6
CENTER2
 62
     6
 10
22215.04587099998
 20
20885.538073000022
 30
0.0
 11
22215.04587099998
 21
14316.635186999991
 31
0.0
  0
LINE
  5
40BE
  8
2-0
  6
CONTINUOUS
 62
     3
 10
19686.047506999981
 20
14550.538071999999
 30
0.0
 11
19686.047506999981
 21
19685.538073000022
 31
0.0
  0
LINE
  5
40BF
  8
2-0
  6
CONTINUOUS
 62
     3
 10
24744.04225499996
 20
14550.538071999999
 30
0.0
 11
24744.04225499996
 21
19685.538073000022
 31
0.0
  0
CIRCLE
  5
40C0
  8
2-0
  6
CONTINUOUS
 62
     4
 10
18118.093603999969
 20
19643.039787999991
 30
0.0
 40
200.00001
  0
CIRCLE
  5
40C1
  8
2-0
  6
CONTINUOUS
 62
     4
 10
18118.093603999969
 20
17075.53978799998
 30
0.0
 40
200.00001
  0
CIRCLE
  5
40C2
  8
2-0
  6
CONTINUOUS
 62
     4
 10
18118.093603999969
 20
14508.039787999989
 30
0.0
 40
200.00001
  0
CIRCLE
  5
40C3
  8
2-0
  6
CONTINUOUS
 62
     4
 10
22215.04587099998
 20
21085.542692000021
 30
0.0
 40
200.00001
  0
CIRCLE
  5
40C4
  8
2-0
  6
CONTINUOUS
 62
     4
 10
19647.54587099998
 20
21085.542692000021
 30
0.0
 40
200.00001
  0
TEXT
  5
40C5
  8
2-0
  6
CONTINUOUS
 62
     7
 10
23179.391177999969
 20
13948.04091
 30
0.0
 40
160.0
  1
前柱（右）
 50
0.000213
 72
     4
 11
23595.39088059299
 21
14028.042456500791
 31
0.0
  0
TEXT
  5
40C6
  8
2-0
  6
CONTINUOUS
 62
     7
 10
23383.986300999972
 20
16526.032926000022
 30
0.0
 40
160.0
  1
壁パネル
 50
359.99982299999999
 72
     4
 11
23746.653214803529
 21
16606.031805637889
 31
0.0
  0
TEXT
  5
40C7
  8
2-0
  6
CONTINUOUS
 62
     7
 10
23103.983396999982
 20
17363.220822000021
 30
0.0
 40
160.0
  1
中柱（左右）
 50
0.000354
 72
     4
 11
23621.31623604619
 21
17443.224018324669
 31
0.0
  0
TEXT
  5
40C8
  8
2-0
  6
CONTINUOUS
 62
     7
 10
23783.98564099997
 20
14921.082175999991
 30
0.0
 40
160.0
  1
下枠
 50
0.001063
 72
     4
 11
23954.650823409269
 21
15001.08534233928
 31
0.0
  0
TEXT
  5
40C9
  8
2-0
  6
CONTINUOUS
 62
     7
 10
25597.541383999971
 20
20495.537281000012
 30
0.0
 40
160.0
  1
後柱（左右）
 50
0.000354
 72
     4
 11
26109.54088971296
 21
20575.540444372851
 31
0.0
  0
TEXT
  5
40CA
  8
2-0
  6
CONTINUOUS
 62
     7
 10
22614.134632999991
 20
15085.878087999979
 30
0.0
 40
160.0
  1
前柱（中）
 72
     4
 11
23030.134632999991
 21
15165.878087999979
 31
0.0
  0
TEXT
  5
40CB
  8
2-0
  6
CONTINUOUS
 62
     7
 10
21050.914746999981
 20
19048.420120000021
 30
0.0
 40
160.0
  1
間柱（後）
 72
     4
 11
21472.248080333309
 21
19128.420120000021
 31
0.0
  0
TEXT
  5
40CC
  8
2-0
  6
CONTINUOUS
 62
     7
 10
22485.339236
 20
19117.164841000009
 30
0.0
 40
160.0
  1
後柱（中）
 72
     4
 11
22901.339236
 21
19197.164841000009
 31
0.0
  0
TEXT
  5
40CD
  8
2-0
  6
CONTINUOUS
 62
     7
 10
18070.094236999968
 20
19548.55934600002
 30
0.0
 40
160.0
  1
C
 72
     4
 11
18123.427570333301
 21
19628.55934600002
 31
0.0
  0
TEXT
  5
40CE
  8
2-0
  6
CONTINUOUS
 62
     7
 10
18070.314952999979
 20
17005.145706000021
 30
0.0
 40
160.0
  1
B
 72
     4
 11
18123.648286333311
 21
17085.145706000021
 31
0.0
  0
TEXT
  5
40CF
  8
2-0
  6
CONTINUOUS
 62
     7
 10
18070.357512999959
 20
14419.432577
 30
0.0
 40
160.0
  1
A
 72
     4
 11
18123.690846333298
 21
14499.432577
 31
0.0
  0
TEXT
  5
40D0
  8
2-0
  6
CONTINUOUS
 62
     7
 10
22163.41408799998
 20
20990.017063000021
 30
0.0
 40
160.0
  1
2
 72
     4
 11
22216.747421333312
 21
21070.017063000021
 31
0.0
  0
TEXT
  5
40D1
  8
2-0
  6
CONTINUOUS
 62
     7
 10
19603.339261999969
 20
20996.775140000031
 30
0.0
 40
160.0
  1
1
 72
     4
 11
19630.00592866664
 21
21076.775140000031
 31
0.0
  0
LINE
  5
40D2
  8
2-0
  6
CONTINUOUS
 62
     3
 10
24043.04645199998
 20
19685.538073000022
 30
0.0
 11
24006.045289999969
 21
19685.538073000022
 31
0.0
  0
LINE
  5
40D3
  8
2-0
  6
CONTINUOUS
 62
     3
 10
24043.04645199998
 20
19655.534510000001
 30
0.0
 11
24043.04645199998
 21
19685.538073000022
 31
0.0
  0
LINE
  5
40D4
  8
2-0
  6
CONTINUOUS
 62
     3
 10
24037.046530999971
 20
19655.534510000001
 30
0.0
 11
24043.04645199998
 21
19655.534510000001
 31
0.0
  0
LINE
  5
40D5
  8
2-0
  6
CONTINUOUS
 62
     3
 10
24053.143975999981
 20
19655.534510000001
 30
0.0
 11
24053.143975999981
 21
19685.538073000022
 31
0.0
  0
LINE
  5
40D6
  8
2-0
  6
CONTINUOUS
 62
     3
 10
24035.14025499998
 20
19655.534510000001
 30
0.0
 11
24053.143975999981
 21
19655.534510000001
 31
0.0
  0
LINE
  5
40D7
  8
2-0
  6
CONTINUOUS
 62
     3
 10
24035.14025499998
 20
19680.543747000011
 30
0.0
 11
24035.14025499998
 21
19655.534510000001
 31
0.0
  0
LINE
  5
40D8
  8
2-0
  6
CONTINUOUS
 62
     3
 10
24040.14051899996
 20
19680.543747000011
 30
0.0
 11
24035.14025499998
 21
19680.543747000011
 31
0.0
  0
LINE
  5
40D9
  8
2-0
  6
CONTINUOUS
 62
     3
 10
24040.14051899996
 20
19673.538230999999
 30
0.0
 11
24040.14051899996
 21
19680.543747000011
 31
0.0
  0
LINE
  5
40DA
  8
2-0
  6
CONTINUOUS
 62
     3
 10
24008.951223999971
 20
19673.538230999999
 30
0.0
 11
24008.951223999971
 21
19680.543747000011
 31
0.0
  0
LINE
  5
40DB
  8
2-0
  6
CONTINUOUS
 62
     3
 10
24008.951223999971
 20
19680.543747000011
 30
0.0
 11
24013.951487999981
 21
19680.543747000011
 31
0.0
  0
LINE
  5
40DC
  8
2-0
  6
CONTINUOUS
 62
     3
 10
24013.951487999981
 20
19680.543747000011
 30
0.0
 11
24013.951487999981
 21
19655.534510000001
 31
0.0
  0
LINE
  5
40DD
  8
2-0
  6
CONTINUOUS
 62
     3
 10
24013.951487999981
 20
19655.534510000001
 30
0.0
 11
23995.95172499997
 21
19655.534510000001
 31
0.0
  0
LINE
  5
40DE
  8
2-0
  6
CONTINUOUS
 62
     3
 10
23995.95172499997
 20
19655.534510000001
 30
0.0
 11
23995.95172499997
 21
19685.538073000022
 31
0.0
  0
LINE
  5
40DF
  8
2-0
  6
CONTINUOUS
 62
     3
 10
24012.045210999971
 20
19655.534510000001
 30
0.0
 11
24006.045289999969
 21
19655.534510000001
 31
0.0
  0
LINE
  5
40E0
  8
2-0
  6
CONTINUOUS
 62
     3
 10
24006.045289999969
 20
19655.534510000001
 30
0.0
 11
24006.045289999969
 21
19685.538073000022
 31
0.0
  0
LINE
  5
40E1
  8
2-0
  6
CONTINUOUS
 62
     3
 10
23307.94528549998
 20
19673.538230999999
 30
0.0
 11
23307.94528549998
 21
19680.543747000011
 31
0.0
  0
LINE
  5
40E2
  8
2-0
  6
CONTINUOUS
 62
     3
 10
23307.94528549998
 20
19680.543747000011
 30
0.0
 11
23312.945548499989
 21
19680.543747000011
 31
0.0
  0
LINE
  5
40E3
  8
2-0
  6
CONTINUOUS
 62
     3
 10
23312.945548499989
 20
19680.543747000011
 30
0.0
 11
23312.945548499989
 21
19655.534510000001
 31
0.0
  0
LINE
  5
40E4
  8
2-0
  6
CONTINUOUS
 62
     3
 10
23312.945548499989
 20
19655.534510000001
 30
0.0
 11
23294.95172549997
 21
19655.534510000001
 31
0.0
  0
LINE
  5
40E5
  8
2-0
  6
CONTINUOUS
 62
     3
 10
23294.95172549997
 20
19655.534510000001
 30
0.0
 11
23294.95172549997
 21
19685.538073000022
 31
0.0
  0
LINE
  5
40E6
  8
2-0
  6
CONTINUOUS
 62
     3
 10
23311.04323149996
 20
19655.534510000001
 30
0.0
 11
23305.045290499969
 21
19655.534510000001
 31
0.0
  0
LINE
  5
40E7
  8
2-0
  6
CONTINUOUS
 62
     3
 10
23305.045290499969
 20
19655.534510000001
 30
0.0
 11
23305.045290499969
 21
19685.538073000022
 31
0.0
  0
LINE
  5
40E8
  8
2-0
  6
CONTINUOUS
 62
     3
 10
23342.04645149998
 20
19685.538073000022
 30
0.0
 11
23305.045290499969
 21
19685.538073000022
 31
0.0
  0
LINE
  5
40E9
  8
2-0
  6
CONTINUOUS
 62
     3
 10
23342.04645149998
 20
19655.534510000001
 30
0.0
 11
23342.04645149998
 21
19685.538073000022
 31
0.0
  0
LINE
  5
40EA
  8
2-0
  6
CONTINUOUS
 62
     3
 10
23336.040592499969
 20
19655.534510000001
 30
0.0
 11
23342.04645149998
 21
19655.534510000001
 31
0.0
  0
LINE
  5
40EB
  8
2-0
  6
CONTINUOUS
 62
     3
 10
23352.14001649998
 20
19655.534510000001
 30
0.0
 11
23352.14001649998
 21
19685.538073000022
 31
0.0
  0
LINE
  5
40EC
  8
2-0
  6
CONTINUOUS
 62
     3
 10
23334.14421349996
 20
19655.534510000001
 30
0.0
 11
23352.14001649998
 21
19655.534510000001
 31
0.0
  0
LINE
  5
40ED
  8
2-0
  6
CONTINUOUS
 62
     3
 10
23334.14421349996
 20
19680.543747000011
 30
0.0
 11
23334.14421349996
 21
19655.534510000001
 31
0.0
  0
LINE
  5
40EE
  8
2-0
  6
CONTINUOUS
 62
     3
 10
23339.13457949998
 20
19680.543747000011
 30
0.0
 11
23334.14421349996
 21
19680.543747000011
 31
0.0
  0
LINE
  5
40EF
  8
2-0
  6
CONTINUOUS
 62
     3
 10
23339.13457949998
 20
19673.538230999999
 30
0.0
 11
23339.13457949998
 21
19680.543747000011
 31
0.0
  0
LINE
  5
40F0
  8
2-0
  6
CONTINUOUS
 62
     3
 10
22651.139027000001
 20
19685.538073000022
 30
0.0
 11
23294.95172549997
 21
19685.538073000022
 31
0.0
  0
LINE
  5
40F1
  8
2-0
  6
CONTINUOUS
 62
     3
 10
24700.429500999981
 20
19685.538073000022
 30
0.0
 11
24053.143975999981
 21
19685.538073000022
 31
0.0
  0
LINE
  5
40F2
  8
2-0
  6
CONTINUOUS
 62
     3
 10
23995.95172499997
 20
19685.538073000022
 30
0.0
 11
23352.14001649998
 21
19685.538073000022
 31
0.0
  0
LINE
  5
40F3
  8
2-0
  6
CONTINUOUS
 62
     3
 10
22638.137548999981
 20
19673.538230999999
 30
0.0
 11
22638.137548999981
 21
19680.543747000011
 31
0.0
  0
LINE
  5
40F4
  8
2-0
  6
CONTINUOUS
 62
     3
 10
22638.137548999981
 20
19680.543747000011
 30
0.0
 11
22633.137284999972
 21
19680.543747000011
 31
0.0
  0
LINE
  5
40F5
  8
2-0
  6
CONTINUOUS
 62
     3
 10
22633.137284999972
 20
19680.543747000011
 30
0.0
 11
22633.137284999972
 21
19655.534510000001
 31
0.0
  0
LINE
  5
40F6
  8
2-0
  6
CONTINUOUS
 62
     3
 10
22633.137284999972
 20
19655.534510000001
 30
0.0
 11
22651.139027000001
 21
19655.534510000001
 31
0.0
  0
LINE
  5
40F7
  8
2-0
  6
CONTINUOUS
 62
     3
 10
22651.139027000001
 20
19655.534510000001
 30
0.0
 11
22651.139027000001
 21
19685.538073000022
 31
0.0
  0
LINE
  5
40F8
  8
2-0
  6
CONTINUOUS
 62
     3
 10
22635.03960199999
 20
19655.534510000001
 30
0.0
 11
22641.043481999968
 21
19655.534510000001
 31
0.0
  0
LINE
  5
40F9
  8
2-0
  6
CONTINUOUS
 62
     3
 10
22641.043481999968
 20
19655.534510000001
 30
0.0
 11
22641.043481999968
 21
19685.538073000022
 31
0.0
  0
LINE
  5
40FA
  8
2-0
  6
CONTINUOUS
 62
     3
 10
22604.048259999981
 20
19685.538073000022
 30
0.0
 11
22641.043481999968
 21
19685.538073000022
 31
0.0
  0
LINE
  5
40FB
  8
2-0
  6
CONTINUOUS
 62
     3
 10
22604.048259999981
 20
19655.534510000001
 30
0.0
 11
22604.048259999981
 21
19685.538073000022
 31
0.0
  0
LINE
  5
40FC
  8
2-0
  6
CONTINUOUS
 62
     3
 10
22610.042241999981
 20
19655.534510000001
 30
0.0
 11
22604.048259999981
 21
19655.534510000001
 31
0.0
  0
LINE
  5
40FD
  8
2-0
  6
CONTINUOUS
 62
     3
 10
22593.952714999981
 20
19655.534510000001
 30
0.0
 11
22593.952714999981
 21
19685.538073000022
 31
0.0
  0
LINE
  5
40FE
  8
2-0
  6
CONTINUOUS
 62
     3
 10
22611.948518000001
 20
19655.534510000001
 30
0.0
 11
22593.952714999981
 21
19655.534510000001
 31
0.0
  0
LINE
  5
40FF
  8
2-0
  6
CONTINUOUS
 62
     3
 10
22611.948518000001
 20
19680.543747000011
 30
0.0
 11
22611.948518000001
 21
19655.534510000001
 31
0.0
  0
LINE
  5
4100
  8
2-0
  6
CONTINUOUS
 62
     3
 10
22606.950233999982
 20
19680.543747000011
 30
0.0
 11
22611.948518000001
 21
19680.543747000011
 31
0.0
  0
LINE
  5
4101
  8
2-0
  6
CONTINUOUS
 62
     3
 10
22606.950233999982
 20
19673.538230999999
 30
0.0
 11
22606.950233999982
 21
19680.543747000011
 31
0.0
  0
LINE
  5
4102
  8
2-0
  6
CONTINUOUS
 62
     3
 10
22297.851112999972
 20
19685.538073000022
 30
0.0
 11
22593.952714999981
 21
19685.538073000022
 31
0.0
  0
LINE
  5
4103
  8
2-0
  6
CONTINUOUS
 62
     3
 10
22133.618373999991
 20
19685.538073000022
 30
0.0
 11
21485.643975999981
 21
19685.538073000022
 31
0.0
  0
LINE
  5
4104
  8
2-0
  6
CONTINUOUS
 62
     3
 10
24825.044154999981
 20
15588.179225
 30
0.0
 11
24825.044154999981
 21
14944.375435000011
 31
0.0
  0
CIRCLE
  5
4105
  8
2-0
  6
CONTINUOUS
 62
     4
 10
24782.54587099998
 20
21085.542692000021
 30
0.0
 40
200.00001
  0
TEXT
  5
4106
  8
2-0
  6
CONTINUOUS
 62
     7
 10
24730.91408799999
 20
20990.017063000021
 30
0.0
 40
160.0
  1
3
 72
     4
 11
24784.247421333319
 21
21070.017063000021
 31
0.0
  0
LINE
  5
4107
  8
2-0
  6
CONTINUOUS
 62
     6
 10
23119.618365591661
 20
18636.673151940398
 30
0.0
 11
24144.650697591678
 21
18636.673151940398
 31
0.0
  0
LINE
  5
4108
  8
2-0
  6
CONTINUOUS
 62
     6
 10
24674.744450395759
 20
19101.45668964646
 30
0.0
 11
24144.650697591678
 21
18636.673151940398
 31
0.0
  0
TEXT
  5
4109
  8
2-0
  6
CONTINUOUS
 62
     7
 10
23199.61664959168
 20
18716.677374940398
 30
0.0
 40
160.0
  1
間柱（側）
 72
     4
 11
23620.949982925009
 21
18796.677374940398
 31
0.0
  0
LINE
  5
410A
  8
2-0
  6
CONTINUOUS
 62
     6
 10
24692.323663673262
 20
19081.407547675779
 30
0.0
 11
24795.04653099996
 21
19206.945641499991
 31
0.0
  0
LINE
  5
410B
  8
2-0
  6
CONTINUOUS
 62
     6
 10
24795.04653099996
 20
19206.945641499991
 30
0.0
 11
24657.15626018092
 21
19121.510003997351
 31
0.0
  0
LINE
  5
410C
  8
2-0
  6
CONTINUOUS
 62
     6
 10
24657.15626018092
 20
19121.510003997351
 30
0.0
 11
24692.323663673262
 21
19081.407547675779
 31
0.0
  0
LINE
  5
410D
  8
SUNPOU
  6
CONTINUOUS
 10
8422.5894259999877
 20
19865.53569700001
 30
0.0
 11
8422.5894259999877
 21
20662.50296477848
 31
0.0
  0
LINE
  5
410E
  8
SUNPOU
  6
CONTINUOUS
 10
8422.5894259999877
 20
14315.544472999991
 30
0.0
 11
8422.5894259999877
 21
13640.11835718962
 31
0.0
  0
LINE
  5
42AF
  8
SUNPOU
  6
CONTINUOUS
 62
     4
 10
14572.58590799999
 20
19875.539918999999
 30
0.0
 11
14572.58590799999
 21
20425.545198
 31
0.0
  0
LINE
  5
42B0
  8
SUNPOU
  6
CONTINUOUS
 62
     4
 10
14487.08590799999
 20
20345.545198
 30
0.0
 11
14247.08590799999
 21
20345.545198
 31
0.0
  0
LINE
  5
42B1
  8
SUNPOU
  6
CONTINUOUS
 62
     4
 10
14569.58590799999
 20
20345.545198
 30
0.0
 11
14809.58590799999
 21
20345.545198
 31
0.0
  0
LINE
  5
42B2
  8
SUNPOU
  6
CONTINUOUS
 62
     4
 10
14487.08590799999
 20
20345.545198
 30
0.0
 11
14569.58590799999
 21
20345.545198
 31
0.0
  0
LINE
  5
42B3
  8
SUNPOU
  6
CONTINUOUS
 62
     4
 10
11919.585907999979
 20
20345.545198
 30
0.0
 11
14487.08590799999
 21
20345.545198
 31
0.0
  0
LINE
  5
42B4
  8
SUNPOU
  6
CONTINUOUS
 62
     4
 10
9266.5918459999757
 20
19875.539918999999
 30
0.0
 11
9266.5918459999757
 21
20425.545198
 31
0.0
  0
LINE
  5
42B5
  8
SUNPOU
  6
CONTINUOUS
 62
     4
 10
9352.0918459999775
 20
20345.545198
 30
0.0
 11
9592.0918459999812
 21
20345.545198
 31
0.0
  0
LINE
  5
42B6
  8
SUNPOU
  6
CONTINUOUS
 62
     4
 10
9269.5918459999757
 20
20345.545198
 30
0.0
 11
9029.5918459999812
 21
20345.545198
 31
0.0
  0
LINE
  5
42B7
  8
SUNPOU
  6
CONTINUOUS
 62
     4
 10
9352.0918459999775
 20
20345.545198
 30
0.0
 11
9269.5918459999757
 21
20345.545198
 31
0.0
  0
LINE
  5
42B8
  8
SUNPOU
  6
CONTINUOUS
 62
     4
 10
11919.59184599997
 20
20345.545198
 30
0.0
 11
9352.0918459999775
 21
20345.545198
 31
0.0
  0
LINE
  5
42B9
  8
SUNPOU
  6
CONTINUOUS
 62
     4
 10
9266.5874919999824
 20
14235.539524
 30
0.0
 11
9266.5874919999824
 21
13056.591704
 31
0.0
  0
LINE
  5
42BA
  8
SUNPOU
  6
CONTINUOUS
 62
     4
 10
14572.59026299996
 20
14235.539524
 30
0.0
 11
14572.59026299996
 21
13056.591704
 31
0.0
  0
LINE
  5
42BB
  8
SUNPOU
  6
CONTINUOUS
 62
     4
 10
9269.5874919999824
 20
13136.591704
 30
0.0
 11
14569.59026299996
 21
13136.591704
 31
0.0
  0
LINE
  5
42BC
  8
SUNPOU
  6
CONTINUOUS
 62
     4
 10
9189.5848469999873
 20
14315.544472999991
 30
0.0
 11
8342.5894259999877
 21
14315.544472999991
 31
0.0
  0
LINE
  5
42BD
  8
SUNPOU
  6
CONTINUOUS
 62
     4
 10
8422.5894259999877
 20
14508.039787999989
 30
0.0
 11
8422.5894259999877
 21
14315.544472999991
 31
0.0
  0
LINE
  5
42BE
  8
SUNPOU
  6
CONTINUOUS
 62
     4
 10
8422.5894259999877
 20
17075.53978799998
 30
0.0
 11
8422.5894259999877
 21
14508.039787999989
 31
0.0
  0
LINE
  5
42BF
  8
SUNPOU
  6
CONTINUOUS
 62
     4
 10
9189.5848469999873
 20
19855.535697000021
 30
0.0
 11
8742.5894259999877
 21
19855.535697000021
 31
0.0
  0
LINE
  5
42C0
  8
SUNPOU
  6
CONTINUOUS
 62
     4
 10
9189.5892019999847
 20
19865.53569700001
 30
0.0
 11
8742.5894259999877
 21
19865.53569700001
 31
0.0
  0
LINE
  5
42C1
  8
SUNPOU
  6
CONTINUOUS
 62
     4
 10
8822.5894259999877
 20
19855.535697000021
 30
0.0
 11
8822.5894259999877
 21
19615.535697000021
 31
0.0
  0
LINE
  5
42C2
  8
SUNPOU
  6
CONTINUOUS
 62
     4
 10
8822.5894259999877
 20
19865.53569700001
 30
0.0
 11
8822.5894259999877
 21
20105.535697000021
 31
0.0
  0
LINE
  5
42C3
  8
SUNPOU
  6
CONTINUOUS
 62
     4
 10
8822.5894259999877
 20
19855.535697000021
 30
0.0
 11
8822.5894259999877
 21
19865.53569700001
 31
0.0
  0
LINE
  5
42C4
  8
SUNPOU
  6
CONTINUOUS
 62
     4
 10
9189.5892019999847
 20
19865.53569700001
 30
0.0
 11
8342.5894259999877
 21
19865.53569700001
 31
0.0
  0
LINE
  5
42C5
  8
SUNPOU
  6
CONTINUOUS
 62
     4
 10
8422.5894259999877
 20
19643.039787999991
 30
0.0
 11
8422.5894259999877
 21
19865.53569700001
 31
0.0
  0
LINE
  5
42C6
  8
SUNPOU
  6
CONTINUOUS
 62
     4
 10
8422.5894259999877
 20
17075.53978799998
 30
0.0
 11
8422.5894259999877
 21
19643.039787999991
 31
0.0
  0
LINE
  5
42C7
  8
SUNPOU
  6
CONTINUOUS
 62
     4
 10
24905.04415499997
 20
14915.66004375
 30
0.0
 11
25955.045474999992
 21
14915.66004375
 31
0.0
  0
LINE
  5
42C8
  8
SUNPOU
  6
CONTINUOUS
 62
     4
 10
25755.045474999992
 20
14508.16004375
 30
0.0
 11
25955.045474999992
 21
14508.16004375
 31
0.0
  0
LINE
  5
42C9
  8
SUNPOU
  6
CONTINUOUS
 62
     4
 10
25875.045474999992
 20
14915.66004375
 30
0.0
 11
25875.045474999992
 21
14508.16004375
 31
0.0
  0
LINE
  5
42CA
  8
SUNPOU
  6
CONTINUOUS
 62
     4
 10
24905.04415499997
 20
19235.539787999998
 30
0.0
 11
25955.045474999992
 21
19235.539787999998
 31
0.0
  0
LINE
  5
42CB
  8
SUNPOU
  6
CONTINUOUS
 62
     4
 10
25755.045474999992
 20
19643.039787999991
 30
0.0
 11
25955.045474999992
 21
19643.039787999991
 31
0.0
  0
LINE
  5
42CC
  8
SUNPOU
  6
CONTINUOUS
 62
     4
 10
25875.045474999992
 20
19235.539787999998
 30
0.0
 11
25875.045474999992
 21
19643.039787999991
 31
0.0
  0
LINE
  5
42CD
  8
SUNPOU
  6
CONTINUOUS
 62
     4
 10
19647.54587099998
 20
13802.276354
 30
0.0
 11
19647.54587099998
 21
13456.591703999989
 31
0.0
  0
LINE
  5
42CE
  8
SUNPOU
  6
CONTINUOUS
 62
     4
 10
19605.043627999981
 20
14385.542493000001
 30
0.0
 11
19605.043627999981
 21
13456.591703999989
 31
0.0
  0
LINE
  5
42CF
  8
SUNPOU
  6
CONTINUOUS
 62
     4
 10
19647.54587099998
 20
13536.59170399998
 30
0.0
 11
19887.54587099998
 21
13536.59170399998
 31
0.0
  0
LINE
  5
42D0
  8
SUNPOU
  6
CONTINUOUS
 62
     4
 10
19605.043627999981
 20
13536.59170399998
 30
0.0
 11
19365.043627999981
 21
13536.59170399998
 31
0.0
  0
LINE
  5
42D1
  8
SUNPOU
  6
CONTINUOUS
 62
     4
 10
19647.54587099998
 20
13536.59170399998
 30
0.0
 11
19605.043627999981
 21
13536.59170399998
 31
0.0
  0
LINE
  5
42D2
  8
SUNPOU
  6
CONTINUOUS
 62
     4
 10
24782.54587099998
 20
13802.276354
 30
0.0
 11
24782.54587099998
 21
13456.591703999989
 31
0.0
  0
LINE
  5
42D3
  8
SUNPOU
  6
CONTINUOUS
 62
     4
 10
24825.048113999968
 20
14385.542493000001
 30
0.0
 11
24825.048113999968
 21
13456.591703999989
 31
0.0
  0
LINE
  5
42D4
  8
SUNPOU
  6
CONTINUOUS
 62
     4
 10
24782.54587099998
 20
13536.59170399998
 30
0.0
 11
24542.54587099998
 21
13536.59170399998
 31
0.0
  0
LINE
  5
42D5
  8
SUNPOU
  6
CONTINUOUS
 62
     4
 10
24825.048113999968
 20
13536.59170399998
 30
0.0
 11
25065.048113999968
 21
13536.59170399998
 31
0.0
  0
LINE
  5
42D6
  8
SUNPOU
  6
CONTINUOUS
 62
     4
 10
24782.54587099998
 20
13536.59170399998
 30
0.0
 11
24825.048113999968
 21
13536.59170399998
 31
0.0
  0
LINE
  5
42D7
  8
2-0
  6
CONTINUOUS
 62
     3
 10
22172.54587099998
 20
14465.539788
 30
0.0
 11
22257.54587099998
 21
14465.539788
 31
0.0
  0
LINE
  5
42D8
  8
2-0
  6
CONTINUOUS
 62
     3
 10
22257.54587099998
 20
14465.539788
 30
0.0
 11
22257.54587099998
 21
14550.539788
 31
0.0
  0
LINE
  5
42D9
  8
2-0
  6
CONTINUOUS
 62
     3
 10
22257.54587099998
 20
14550.539788
 30
0.0
 11
22172.54587099998
 21
14550.539788
 31
0.0
  0
LINE
  5
42DA
  8
2-0
  6
CONTINUOUS
 62
     3
 10
22172.54587099998
 20
14550.539788
 30
0.0
 11
22172.54587099998
 21
14465.539788
 31
0.0
  0
LINE
  5
42DB
  8
SUNPOU
  6
CONTINUOUS
 62
     4
 10
24782.54587099998
 20
13802.276354
 30
0.0
 11
24782.54587099998
 21
13456.591703999989
 31
0.0
  0
LINE
  5
42DC
  8
SUNPOU
  6
CONTINUOUS
 62
     4
 10
24740.043627999981
 20
14385.542493000001
 30
0.0
 11
24740.043627999981
 21
13456.591703999989
 31
0.0
  0
LINE
  5
42DD
  8
SUNPOU
  6
CONTINUOUS
 62
     4
 10
24782.54587099998
 20
13536.59170399998
 30
0.0
 11
25022.54587099998
 21
13536.59170399998
 31
0.0
  0
LINE
  5
42DE
  8
SUNPOU
  6
CONTINUOUS
 62
     4
 10
24740.043627999981
 20
13536.59170399998
 30
0.0
 11
24500.043627999981
 21
13536.59170399998
 31
0.0
  0
LINE
  5
42DF
  8
SUNPOU
  6
CONTINUOUS
 62
     4
 10
24782.54587099998
 20
13536.59170399998
 30
0.0
 11
24740.043627999981
 21
13536.59170399998
 31
0.0
  0
LINE
  5
42E0
  8
SUNPOU
  6
CONTINUOUS
 62
     4
 10
19647.54587099998
 20
13802.276354
 30
0.0
 11
19647.54587099998
 21
13456.591703999989
 31
0.0
  0
LINE
  5
42E1
  8
SUNPOU
  6
CONTINUOUS
 62
     4
 10
19690.048113999961
 20
14385.542493000001
 30
0.0
 11
19690.048113999961
 21
13456.591703999989
 31
0.0
  0
LINE
  5
42E2
  8
SUNPOU
  6
CONTINUOUS
 62
     4
 10
19647.54587099998
 20
13536.59170399998
 30
0.0
 11
19407.54587099998
 21
13536.59170399998
 31
0.0
  0
LINE
  5
42E3
  8
SUNPOU
  6
CONTINUOUS
 62
     4
 10
19690.048113999961
 20
13536.59170399998
 30
0.0
 11
19930.048113999961
 21
13536.59170399998
 31
0.0
  0
LINE
  5
42E4
  8
SUNPOU
  6
CONTINUOUS
 62
     4
 10
19647.54587099998
 20
13536.59170399998
 30
0.0
 11
19690.048113999961
 21
13536.59170399998
 31
0.0
  0
LINE
  5
42E5
  8
SUNPOU
  6
CONTINUOUS
 62
     4
 10
19605.043627999981
 20
14385.542493000001
 30
0.0
 11
19605.043627999981
 21
13056.591704
 31
0.0
  0
LINE
  5
42E6
  8
SUNPOU
  6
CONTINUOUS
 62
     4
 10
24825.048113999968
 20
14385.542493000001
 30
0.0
 11
24825.048113999968
 21
13056.591704
 31
0.0
  0
LINE
  5
42E7
  8
SUNPOU
  6
CONTINUOUS
 62
     4
 10
19605.043627999981
 20
13136.591704
 30
0.0
 11
24825.048113999968
 21
13136.591704
 31
0.0
  0
LINE
  5
42E8
  8
SUNPOU
  6
CONTINUOUS
 62
     4
 10
24905.044154999981
 20
15616.7802995
 30
0.0
 11
25955.045474999992
 21
15616.7802995
 31
0.0
  0
LINE
  5
42E9
  8
SUNPOU
  6
CONTINUOUS
 62
     4
 10
24905.044154999981
 20
14915.539788
 30
0.0
 11
25955.045474999992
 21
14915.539788
 31
0.0
  0
LINE
  5
42EA
  8
SUNPOU
  6
CONTINUOUS
 62
     4
 10
25875.045474999992
 20
15616.7802995
 30
0.0
 11
25875.045474999992
 21
14915.539788
 31
0.0
  0
LINE
  5
42EB
  8
SUNPOU
  6
CONTINUOUS
 62
     4
 10
24905.044154999981
 20
16317.539788
 30
0.0
 11
25955.045474999992
 21
16317.539788
 31
0.0
  0
LINE
  5
42EC
  8
SUNPOU
  6
CONTINUOUS
 62
     4
 10
24905.044154999981
 20
15616.7802995
 30
0.0
 11
25955.045474999992
 21
15616.7802995
 31
0.0
  0
LINE
  5
42ED
  8
SUNPOU
  6
CONTINUOUS
 62
     4
 10
25875.045474999992
 20
16317.539788
 30
0.0
 11
25875.045474999992
 21
15616.7802995
 31
0.0
  0
LINE
  5
42EE
  8
SUNPOU
  6
CONTINUOUS
 62
     4
 10
25755.045474999992
 20
17075.53978799998
 30
0.0
 11
25955.045474999992
 21
17075.53978799998
 31
0.0
  0
LINE
  5
42EF
  8
SUNPOU
  6
CONTINUOUS
 62
     4
 10
24905.044154999981
 20
16317.539788
 30
0.0
 11
25955.045474999992
 21
16317.539788
 31
0.0
  0
LINE
  5
42F0
  8
SUNPOU
  6
CONTINUOUS
 62
     4
 10
25875.045474999992
 20
17075.53978799998
 30
0.0
 11
25875.045474999992
 21
16317.539788
 31
0.0
  0
LINE
  5
42F1
  8
SUNPOU
  6
CONTINUOUS
 62
     4
 10
24905.044154999981
 20
17833.539787999991
 30
0.0
 11
25955.045474999992
 21
17833.539787999991
 31
0.0
  0
LINE
  5
42F2
  8
SUNPOU
  6
CONTINUOUS
 62
     4
 10
25755.045474999992
 20
17075.53978799998
 30
0.0
 11
25955.045474999992
 21
17075.53978799998
 31
0.0
  0
LINE
  5
42F3
  8
SUNPOU
  6
CONTINUOUS
 62
     4
 10
25875.045474999992
 20
17833.539787999991
 30
0.0
 11
25875.045474999992
 21
17075.53978799998
 31
0.0
  0
LINE
  5
42F4
  8
SUNPOU
  6
CONTINUOUS
 62
     4
 10
24905.044154999981
 20
18534.539787999998
 30
0.0
 11
25955.045474999992
 21
18534.539787999998
 31
0.0
  0
LINE
  5
42F5
  8
SUNPOU
  6
CONTINUOUS
 62
     4
 10
24905.044154999981
 20
17833.539787999991
 30
0.0
 11
25955.045474999992
 21
17833.539787999991
 31
0.0
  0
LINE
  5
42F6
  8
SUNPOU
  6
CONTINUOUS
 62
     4
 10
25875.045474999992
 20
18534.539787999998
 30
0.0
 11
25875.045474999992
 21
17833.539787999991
 31
0.0
  0
LINE
  5
42F7
  8
SUNPOU
  6
CONTINUOUS
 62
     4
 10
24905.044154999981
 20
19235.539787999998
 30
0.0
 11
25955.045474999992
 21
19235.539787999998
 31
0.0
  0
LINE
  5
42F8
  8
SUNPOU
  6
CONTINUOUS
 62
     4
 10
24905.044154999981
 20
18534.539787999998
 30
0.0
 11
25955.045474999992
 21
18534.539787999998
 31
0.0
  0
LINE
  5
42F9
  8
SUNPOU
  6
CONTINUOUS
 62
     4
 10
25875.045474999992
 20
19235.539787999998
 30
0.0
 11
25875.045474999992
 21
18534.539787999998
 31
0.0
  0
LINE
  5
42FA
  8
SUNPOU
  6
CONTINUOUS
 62
     4
 10
25755.045474999992
 20
17075.53978799998
 30
0.0
 11
26355.045474999992
 21
17075.53978799998
 31
0.0
  0
LINE
  5
42FB
  8
SUNPOU
  6
CONTINUOUS
 62
     4
 10
25755.045474999992
 20
19643.039787999991
 30
0.0
 11
26355.045474999992
 21
19643.039787999991
 31
0.0
  0
LINE
  5
42FC
  8
SUNPOU
  6
CONTINUOUS
 62
     4
 10
26275.045474999992
 20
17075.53978799998
 30
0.0
 11
26275.045474999992
 21
19643.039787999991
 31
0.0
  0
LINE
  5
42FD
  8
SUNPOU
  6
CONTINUOUS
 62
     4
 10
25755.045474999992
 20
14508.039787999989
 30
0.0
 11
26355.045474999992
 21
14508.039787999989
 31
0.0
  0
LINE
  5
42FE
  8
SUNPOU
  6
CONTINUOUS
 62
     4
 10
25755.045474999992
 20
17075.53978799998
 30
0.0
 11
26355.045474999992
 21
17075.53978799998
 31
0.0
  0
LINE
  5
42FF
  8
SUNPOU
  6
CONTINUOUS
 62
     4
 10
26275.045474999992
 20
14508.039787999989
 30
0.0
 11
26275.045474999992
 21
17075.53978799998
 31
0.0
  0
LINE
  5
4300
  8
SUNPOU
  6
CONTINUOUS
 62
     4
 10
24905.044154999981
 20
19685.537082999988
 30
0.0
 11
26755.045474999992
 21
19685.537082999988
 31
0.0
  0
LINE
  5
4301
  8
SUNPOU
  6
CONTINUOUS
 62
     4
 10
24905.044154999981
 20
14465.542493000001
 30
0.0
 11
26755.045474999992
 21
14465.542493000001
 31
0.0
  0
LINE
  5
4302
  8
SUNPOU
  6
CONTINUOUS
 62
     4
 10
26675.045474999992
 20
19685.537082999988
 30
0.0
 11
26675.045474999992
 21
14465.542493000001
 31
0.0
  0
LINE
  5
4303
  8
SUNPOU
  6
CONTINUOUS
 62
     4
 10
25755.045474999992
 20
19643.039787999991
 30
0.0
 11
26355.045474999992
 21
19643.039787999991
 31
0.0
  0
LINE
  5
4304
  8
SUNPOU
  6
CONTINUOUS
 62
     4
 10
24905.044154999981
 20
19685.537082999988
 30
0.0
 11
26355.045474999992
 21
19685.537082999988
 31
0.0
  0
LINE
  5
4305
  8
SUNPOU
  6
CONTINUOUS
 62
     4
 10
26275.045474999992
 20
19643.039787999991
 30
0.0
 11
26275.045474999992
 21
19403.039787999991
 31
0.0
  0
LINE
  5
4306
  8
SUNPOU
  6
CONTINUOUS
 62
     4
 10
26275.045474999992
 20
19685.537082999988
 30
0.0
 11
26275.045474999992
 21
19925.537082999999
 31
0.0
  0
LINE
  5
4307
  8
SUNPOU
  6
CONTINUOUS
 62
     4
 10
26275.045474999992
 20
19643.039787999991
 30
0.0
 11
26275.045474999992
 21
19685.537082999988
 31
0.0
  0
LINE
  5
4308
  8
SUNPOU
  6
CONTINUOUS
 62
     4
 10
25755.045474999992
 20
14508.039787999989
 30
0.0
 11
26355.045474999992
 21
14508.039787999989
 31
0.0
  0
LINE
  5
4309
  8
SUNPOU
  6
CONTINUOUS
 62
     4
 10
24905.044154999981
 20
14465.542493000001
 30
0.0
 11
26355.045474999992
 21
14465.542493000001
 31
0.0
  0
LINE
  5
430A
  8
SUNPOU
  6
CONTINUOUS
 62
     4
 10
26275.045474999992
 20
14508.039787999989
 30
0.0
 11
26275.045474999992
 21
14748.03978799998
 31
0.0
  0
LINE
  5
430B
  8
SUNPOU
  6
CONTINUOUS
 62
     4
 10
26275.045474999992
 20
14465.542493000001
 30
0.0
 11
26275.045474999992
 21
14225.542493000001
 31
0.0
  0
LINE
  5
430C
  8
SUNPOU
  6
CONTINUOUS
 62
     4
 10
26275.045474999992
 20
14508.039787999989
 30
0.0
 11
26275.045474999992
 21
14465.542493000001
 31
0.0
  0
LINE
  5
430D
  8
SUNPOU
  6
CONTINUOUS
 62
     4
 10
22215.04587099998
 20
19765.538073000022
 30
0.0
 11
22215.04587099998
 21
20495.540976000011
 31
0.0
  0
LINE
  5
430E
  8
SUNPOU
  6
CONTINUOUS
 62
     4
 10
22622.545870999969
 20
19765.538073000022
 30
0.0
 11
22622.545870999969
 21
20495.540976000011
 31
0.0
  0
LINE
  5
430F
  8
SUNPOU
  6
CONTINUOUS
 62
     4
 10
22215.04587099998
 20
20415.540976000011
 30
0.0
 11
22622.545870999969
 21
20415.540976000011
 31
0.0
  0
LINE
  5
4310
  8
SUNPOU
  6
CONTINUOUS
 62
     4
 10
24024.54587099998
 20
19765.538073000022
 30
0.0
 11
24024.54587099998
 21
20495.540976000011
 31
0.0
  0
LINE
  5
4311
  8
SUNPOU
  6
CONTINUOUS
 62
     4
 10
24782.546860499991
 20
19765.538073000022
 30
0.0
 11
24782.546860499991
 21
20495.540976000011
 31
0.0
  0
LINE
  5
4312
  8
SUNPOU
  6
CONTINUOUS
 62
     4
 10
24024.54587099998
 20
20415.540976000011
 30
0.0
 11
24782.546860499991
 21
20415.540976000011
 31
0.0
  0
LINE
  5
4313
  8
SUNPOU
  6
CONTINUOUS
 62
     4
 10
23323.545870999969
 20
19765.538073000022
 30
0.0
 11
23323.545870999969
 21
20495.540976000011
 31
0.0
  0
LINE
  5
4314
  8
SUNPOU
  6
CONTINUOUS
 62
     4
 10
24024.54587099998
 20
19765.538073000022
 30
0.0
 11
24024.54587099998
 21
20495.540976000011
 31
0.0
  0
LINE
  5
4315
  8
SUNPOU
  6
CONTINUOUS
 62
     4
 10
23323.545870999969
 20
20415.540976000011
 30
0.0
 11
24024.54587099998
 21
20415.540976000011
 31
0.0
  0
LINE
  5
4316
  8
SUNPOU
  6
CONTINUOUS
 62
     4
 10
22622.545870999969
 20
19765.538073000022
 30
0.0
 11
22622.545870999969
 21
20495.540976000011
 31
0.0
  0
LINE
  5
4317
  8
SUNPOU
  6
CONTINUOUS
 62
     4
 10
23323.545870999969
 20
19765.538073000022
 30
0.0
 11
23323.545870999969
 21
20495.540976000011
 31
0.0
  0
LINE
  5
4318
  8
SUNPOU
  6
CONTINUOUS
 62
     4
 10
22622.545870999969
 20
20415.540976000011
 30
0.0
 11
23323.545870999969
 21
20415.540976000011
 31
0.0
  0
LINE
  5
4319
  8
SUNPOU
  6
CONTINUOUS
 62
     4
 10
24782.54587099998
 20
19765.538073000022
 30
0.0
 11
24782.54587099998
 21
20495.540976000011
 31
0.0
  0
LINE
  5
431A
  8
SUNPOU
  6
CONTINUOUS
 62
     4
 10
24825.042175999981
 20
19765.538073000022
 30
0.0
 11
24825.042175999981
 21
20495.540976000011
 31
0.0
  0
LINE
  5
431B
  8
SUNPOU
  6
CONTINUOUS
 62
     4
 10
24782.54587099998
 20
20415.540976000011
 30
0.0
 11
24542.54587099998
 21
20415.540976000011
 31
0.0
  0
LINE
  5
431C
  8
SUNPOU
  6
CONTINUOUS
 62
     4
 10
24825.042175999981
 20
20415.540976000011
 30
0.0
 11
25065.042175999981
 21
20415.540976000011
 31
0.0
  0
LINE
  5
431D
  8
SUNPOU
  6
CONTINUOUS
 62
     4
 10
24782.54587099998
 20
20415.540976000011
 30
0.0
 11
24825.042175999981
 21
20415.540976000011
 31
0.0
  0
LINE
  5
431E
  8
SUNPOU
  6
CONTINUOUS
 62
     4
 10
19647.54587099998
 20
19765.538073000022
 30
0.0
 11
19647.54587099998
 21
20495.540976000011
 31
0.0
  0
LINE
  5
431F
  8
SUNPOU
  6
CONTINUOUS
 62
     4
 10
20055.04587099998
 20
19765.538073000022
 30
0.0
 11
20055.04587099998
 21
20495.540976000011
 31
0.0
  0
LINE
  5
4320
  8
SUNPOU
  6
CONTINUOUS
 62
     4
 10
19647.54587099998
 20
20415.540976000011
 30
0.0
 11
20055.04587099998
 21
20415.540976000011
 31
0.0
  0
LINE
  5
4321
  8
SUNPOU
  6
CONTINUOUS
 62
     4
 10
19647.54587099998
 20
19765.538073000022
 30
0.0
 11
19647.54587099998
 21
20495.540976000011
 31
0.0
  0
LINE
  5
4322
  8
SUNPOU
  6
CONTINUOUS
 62
     4
 10
19605.049565999969
 20
19765.538073000022
 30
0.0
 11
19605.049565999969
 21
20495.540976000011
 31
0.0
  0
LINE
  5
4323
  8
SUNPOU
  6
CONTINUOUS
 62
     4
 10
19647.54587099998
 20
20415.540976000011
 30
0.0
 11
19887.54587099998
 21
20415.540976000011
 31
0.0
  0
LINE
  5
4324
  8
SUNPOU
  6
CONTINUOUS
 62
     4
 10
19605.049565999969
 20
20415.540976000011
 30
0.0
 11
19365.049565999969
 21
20415.540976000011
 31
0.0
  0
LINE
  5
4325
  8
SUNPOU
  6
CONTINUOUS
 62
     4
 10
19647.54587099998
 20
20415.540976000011
 30
0.0
 11
19605.049565999969
 21
20415.540976000011
 31
0.0
  0
LINE
  5
4326
  8
SUNPOU
  6
CONTINUOUS
 62
     4
 10
21457.04587099998
 20
19765.538073000022
 30
0.0
 11
21457.04587099998
 21
20495.540976000011
 31
0.0
  0
LINE
  5
4327
  8
SUNPOU
  6
CONTINUOUS
 62
     4
 10
22215.046860499991
 20
19765.538073000022
 30
0.0
 11
22215.046860499991
 21
20495.540976000011
 31
0.0
  0
LINE
  5
4328
  8
SUNPOU
  6
CONTINUOUS
 62
     4
 10
21457.04587099998
 20
20415.540976000011
 30
0.0
 11
22215.046860499991
 21
20415.540976000011
 31
0.0
  0
LINE
  5
4329
  8
SUNPOU
  6
CONTINUOUS
 62
     4
 10
20756.04587099998
 20
19765.538073000022
 30
0.0
 11
20756.04587099998
 21
20495.540976000011
 31
0.0
  0
LINE
  5
432A
  8
SUNPOU
  6
CONTINUOUS
 62
     4
 10
21457.04587099998
 20
19765.538073000022
 30
0.0
 11
21457.04587099998
 21
20495.540976000011
 31
0.0
  0
LINE
  5
432B
  8
SUNPOU
  6
CONTINUOUS
 62
     4
 10
20756.04587099998
 20
20415.540976000011
 30
0.0
 11
21457.04587099998
 21
20415.540976000011
 31
0.0
  0
LINE
  5
432C
  8
SUNPOU
  6
CONTINUOUS
 62
     4
 10
20055.04587099998
 20
19765.538073000022
 30
0.0
 11
20055.04587099998
 21
20495.540976000011
 31
0.0
  0
LINE
  5
432D
  8
SUNPOU
  6
CONTINUOUS
 62
     4
 10
20756.04587099998
 20
19765.538073000022
 30
0.0
 11
20756.04587099998
 21
20495.540976000011
 31
0.0
  0
LINE
  5
432E
  8
SUNPOU
  6
CONTINUOUS
 62
     4
 10
20055.04587099998
 20
20415.540976000011
 30
0.0
 11
20756.04587099998
 21
20415.540976000011
 31
0.0
  0
LINE
  5
432F
  8
SUNPOU
  6
CONTINUOUS
 62
     4
 10
19517.545211999979
 20
6367.0884779999951
 30
0.0
 11
18717.54653099996
 21
6367.0884779999951
 31
0.0
  0
LINE
  5
4330
  8
SUNPOU
  6
CONTINUOUS
 62
     4
 10
19517.545211999979
 20
8258.588477999996
 30
0.0
 11
18717.546530999982
 21
8258.588477999996
 31
0.0
  0
LINE
  5
4331
  8
SUNPOU
  6
CONTINUOUS
 62
     4
 10
18797.54653099996
 20
6367.0884779999951
 30
0.0
 11
18797.546530999982
 21
8258.588477999996
 31
0.0
  0
LINE
  5
4332
  8
SUNPOU
  6
CONTINUOUS
 62
     4
 10
19517.545211999979
 20
6367.0884779999951
 30
0.0
 11
18317.54422199995
 21
6367.0884779999969
 31
0.0
  0
LINE
  5
4333
  8
SUNPOU
  6
CONTINUOUS
 62
     4
 10
19485.045475999959
 20
8716.0879829999994
 30
0.0
 11
18317.54422199995
 21
8716.0879829999994
 31
0.0
  0
LINE
  5
4334
  8
SUNPOU
  6
CONTINUOUS
 62
     4
 10
18397.54422199995
 20
6367.0884779999969
 30
0.0
 11
18397.54422199995
 21
8716.0879829999994
 31
0.0
  0
LINE
  5
4335
  8
SUNPOU
  6
CONTINUOUS
 62
     4
 10
19562.043495999958
 20
8795.5888270000032
 30
0.0
 11
19562.043495999958
 21
9995.0464389999997
 31
0.0
  0
LINE
  5
4336
  8
SUNPOU
  6
CONTINUOUS
 62
     4
 10
24868.04824599998
 20
8795.5888270000032
 30
0.0
 11
24868.04824599998
 21
9995.0464389999997
 31
0.0
  0
LINE
  5
4337
  8
SUNPOU
  6
CONTINUOUS
 62
     4
 10
19565.043495999958
 20
9915.0464390000016
 30
0.0
 11
24865.04824599998
 21
9915.0464390000016
 31
0.0
  0
LINE
  5
4338
  8
SUNPOU
  6
CONTINUOUS
 62
     4
 10
19605.04560699996
 20
8795.5888270000032
 30
0.0
 11
19605.04560699996
 21
9595.0886689999988
 31
0.0
  0
LINE
  5
4339
  8
SUNPOU
  6
CONTINUOUS
 62
     4
 10
24825.04613499996
 20
8795.5888270000032
 30
0.0
 11
24825.04613499996
 21
9595.0886689999988
 31
0.0
  0
LINE
  5
433A
  8
SUNPOU
  6
CONTINUOUS
 62
     4
 10
19605.04560699996
 20
9515.0886689999988
 30
0.0
 11
24825.04613499996
 21
9515.0886689999988
 31
0.0
  0
LINE
  5
433B
  8
SUNPOU
  6
CONTINUOUS
 62
     4
 10
19605.04560699996
 20
8795.5888270000032
 30
0.0
 11
19605.04560699996
 21
9595.0886689999988
 31
0.0
  0
LINE
  5
433C
  8
SUNPOU
  6
CONTINUOUS
 62
     4
 10
19562.043495999958
 20
8795.5888270000032
 30
0.0
 11
19562.043495999958
 21
9595.0886689999988
 31
0.0
  0
LINE
  5
433D
  8
SUNPOU
  6
CONTINUOUS
 62
     4
 10
19605.04560699996
 20
9515.0886689999988
 30
0.0
 11
19845.04560699996
 21
9515.0886689999988
 31
0.0
  0
LINE
  5
433E
  8
SUNPOU
  6
CONTINUOUS
 62
     4
 10
19565.043495999958
 20
9515.0886689999988
 30
0.0
 11
19325.04349599998
 21
9515.0886689999988
 31
0.0
  0
LINE
  5
433F
  8
SUNPOU
  6
CONTINUOUS
 62
     4
 10
19605.04560699996
 20
9515.0886689999988
 30
0.0
 11
19565.043495999958
 21
9515.0886689999988
 31
0.0
  0
LINE
  5
4340
  8
SUNPOU
  6
CONTINUOUS
 62
     4
 10
24825.04613499996
 20
8795.5888270000032
 30
0.0
 11
24825.04613499996
 21
9595.0886689999988
 31
0.0
  0
LINE
  5
4341
  8
SUNPOU
  6
CONTINUOUS
 62
     4
 10
24868.04824599998
 20
8795.5888270000032
 30
0.0
 11
24868.04824599998
 21
9595.0886689999988
 31
0.0
  0
LINE
  5
4342
  8
SUNPOU
  6
CONTINUOUS
 62
     4
 10
24825.04613499996
 20
9515.0886689999988
 30
0.0
 11
24585.04613499996
 21
9515.0886689999988
 31
0.0
  0
LINE
  5
4343
  8
SUNPOU
  6
CONTINUOUS
 62
     4
 10
24865.04824599998
 20
9515.0886689999988
 30
0.0
 11
25105.04824599998
 21
9515.0886689999988
 31
0.0
  0
LINE
  5
4344
  8
SUNPOU
  6
CONTINUOUS
 62
     4
 10
24825.04613499996
 20
9515.0886689999988
 30
0.0
 11
24865.04824599998
 21
9515.0886689999988
 31
0.0
  0
LINE
  5
4345
  8
SUNPOU
  6
CONTINUOUS
 62
     4
 10
19741.54587099998
 20
6187.088643000001
 30
0.0
 11
19741.54587099998
 21
5387.0886430000019
 31
0.0
  0
LINE
  5
4346
  8
SUNPOU
  6
CONTINUOUS
 62
     4
 10
22121.04587099998
 20
6187.088643000001
 30
0.0
 11
22121.04587099998
 21
5387.0886430000019
 31
0.0
  0
LINE
  5
4347
  8
SUNPOU
  6
CONTINUOUS
 62
     4
 10
19741.54587099998
 20
5467.088643000001
 30
0.0
 11
22121.04587099998
 21
5467.088643000001
 31
0.0
  0
LINE
  5
4348
  8
SUNPOU
  6
CONTINUOUS
 62
     4
 10
22309.04587099998
 20
6187.088643000001
 30
0.0
 11
22309.04587099998
 21
5387.0886430000019
 31
0.0
  0
LINE
  5
4349
  8
SUNPOU
  6
CONTINUOUS
 62
     4
 10
24688.54587099998
 20
6187.088643000001
 30
0.0
 11
24688.54587099998
 21
5387.0886430000019
 31
0.0
  0
LINE
  5
434A
  8
SUNPOU
  6
CONTINUOUS
 62
     4
 10
22309.04587099998
 20
5467.088643000001
 30
0.0
 11
24688.54587099998
 21
5467.088643000001
 31
0.0
  0
LINE
  5
434B
  8
SUNPOU
  6
CONTINUOUS
 62
     4
 10
22215.04587099998
 20
5924.4362199999969
 30
0.0
 11
22215.04587099998
 21
4987.088643000001
 31
0.0
  0
LINE
  5
434C
  8
SUNPOU
  6
CONTINUOUS
 62
     4
 10
24782.54587099998
 20
5924.4362199999969
 30
0.0
 11
24782.54587099998
 21
4987.088643000001
 31
0.0
  0
LINE
  5
434D
  8
SUNPOU
  6
CONTINUOUS
 62
     4
 10
22215.04587099998
 20
5067.088643000001
 30
0.0
 11
24782.54587099998
 21
5067.088643000001
 31
0.0
  0
LINE
  5
434E
  8
SUNPOU
  6
CONTINUOUS
 62
     4
 10
19647.54587099998
 20
5924.4362199999969
 30
0.0
 11
19647.54587099998
 21
4987.088643000001
 31
0.0
  0
LINE
  5
434F
  8
SUNPOU
  6
CONTINUOUS
 62
     4
 10
22215.04587099998
 20
5924.4362199999969
 30
0.0
 11
22215.04587099998
 21
4987.088643000001
 31
0.0
  0
LINE
  5
4350
  8
SUNPOU
  6
CONTINUOUS
 62
     4
 10
19647.54587099998
 20
5067.088643000001
 30
0.0
 11
22215.04587099998
 21
5067.088643000001
 31
0.0
  0
LINE
  5
4351
  8
SUNPOU
  6
CONTINUOUS
 62
     4
 10
24782.549829999982
 20
5924.4362199999969
 30
0.0
 11
24782.549829999982
 21
4987.088643000001
 31
0.0
  0
LINE
  5
4352
  8
SUNPOU
  6
CONTINUOUS
 62
     4
 10
24825.049829999989
 20
6187.088643000001
 30
0.0
 11
24825.049829999989
 21
4987.088643000001
 31
0.0
  0
LINE
  5
4353
  8
SUNPOU
  6
CONTINUOUS
 62
     4
 10
24782.549829999982
 20
5067.088643000001
 30
0.0
 11
24542.549829999982
 21
5067.088643000001
 31
0.0
  0
LINE
  5
4354
  8
SUNPOU
  6
CONTINUOUS
 62
     4
 10
24825.049829999989
 20
5067.088643000001
 30
0.0
 11
25065.049829999989
 21
5067.088643000001
 31
0.0
  0
LINE
  5
4355
  8
SUNPOU
  6
CONTINUOUS
 62
     4
 10
24782.549829999982
 20
5067.088643000001
 30
0.0
 11
24825.049829999989
 21
5067.088643000001
 31
0.0
  0
LINE
  5
4356
  8
SUNPOU
  6
CONTINUOUS
 62
     4
 10
19647.54587099998
 20
5924.4362199999969
 30
0.0
 11
19647.54587099998
 21
4987.088643000001
 31
0.0
  0
LINE
  5
4357
  8
SUNPOU
  6
CONTINUOUS
 62
     4
 10
19605.04587099998
 20
6187.088643000001
 30
0.0
 11
19605.04587099998
 21
4987.088643000001
 31
0.0
  0
LINE
  5
4358
  8
SUNPOU
  6
CONTINUOUS
 62
     4
 10
19647.54587099998
 20
5067.088643000001
 30
0.0
 11
19887.54587099998
 21
5067.088643000001
 31
0.0
  0
LINE
  5
4359
  8
SUNPOU
  6
CONTINUOUS
 62
     4
 10
19605.04587099998
 20
5067.088643000001
 30
0.0
 11
19365.04587099998
 21
5067.088643000001
 31
0.0
  0
LINE
  5
435A
  8
SUNPOU
  6
CONTINUOUS
 62
     4
 10
19647.54587099998
 20
5067.088643000001
 30
0.0
 11
19605.04587099998
 21
5067.088643000001
 31
0.0
  0
LINE
  5
435B
  8
SUNPOU
  6
CONTINUOUS
 62
     4
 10
19605.04587099998
 20
6187.088643000001
 30
0.0
 11
19605.04587099998
 21
4587.0888079999977
 31
0.0
  0
LINE
  5
435C
  8
SUNPOU
  6
CONTINUOUS
 62
     4
 10
24825.045870999969
 20
6187.088643000001
 30
0.0
 11
24825.045870999969
 21
4587.0888079999977
 31
0.0
  0
LINE
  5
435D
  8
SUNPOU
  6
CONTINUOUS
 62
     4
 10
19605.04587099998
 20
4667.0888079999986
 30
0.0
 11
24825.045870999969
 21
4667.0888079999986
 31
0.0
  0
LINE
  5
435E
  8
SUNPOU
  6
CONTINUOUS
 62
     4
 10
14264.290408999999
 20
6367.0884780000006
 30
0.0
 11
15341.788825
 21
6367.0884780000006
 31
0.0
  0
LINE
  5
435F
  8
SUNPOU
  6
CONTINUOUS
 62
     4
 10
14356.59568859938
 20
8716.0884780000033
 30
0.0
 11
15341.788825
 21
8716.0884780000033
 31
0.0
  0
LINE
  5
4360
  8
SUNPOU
  6
CONTINUOUS
 62
     4
 10
15261.788825
 20
6367.0884780000006
 30
0.0
 11
15261.788825
 21
8716.0884780000033
 31
0.0
  0
LINE
  5
4361
  8
SUNPOU
  6
CONTINUOUS
 62
     4
 10
8864.2904090000047
 20
6367.0884780000006
 30
0.0
 11
7781.7900129999998
 21
6367.0884780000006
 31
0.0
  0
LINE
  5
4362
  8
SUNPOU
  6
CONTINUOUS
 62
     4
 10
8691.7904089999975
 20
8522.5884780000015
 30
0.0
 11
7781.7900129999998
 21
8522.5884780000015
 31
0.0
  0
LINE
  5
4363
  8
SUNPOU
  6
CONTINUOUS
 62
     4
 10
7861.7900130000007
 20
6367.0884780000006
 30
0.0
 11
7861.7900130000007
 21
8522.5884780000015
 31
0.0
  0
LINE
  5
4364
  8
SUNPOU
  6
CONTINUOUS
 62
     4
 10
14171.79040899999
 20
8661.9985410000008
 30
0.0
 11
14171.79040899999
 21
9595.0901529999992
 31
0.0
  0
LINE
  5
4365
  8
SUNPOU
  6
CONTINUOUS
 62
     4
 10
14321.79040899999
 20
8735.9783004124274
 30
0.0
 11
14321.79040899999
 21
9595.0901529999992
 31
0.0
  0
LINE
  5
4366
  8
SUNPOU
  6
CONTINUOUS
 62
     4
 10
14171.79040899999
 20
9515.0901529999974
 30
0.0
 11
13931.79040899999
 21
9515.0901529999974
 31
0.0
  0
LINE
  5
4367
  8
SUNPOU
  6
CONTINUOUS
 62
     4
 10
14321.79040899999
 20
9515.0901529999974
 30
0.0
 11
14561.79040899999
 21
9515.0901529999974
 31
0.0
  0
LINE
  5
4368
  8
SUNPOU
  6
CONTINUOUS
 62
     4
 10
14171.79040899999
 20
9515.0901529999974
 30
0.0
 11
14321.79040899999
 21
9515.0901529999974
 31
0.0
  0
LINE
  5
4369
  8
SUNPOU
  6
CONTINUOUS
 62
     4
 10
8771.7904090000011
 20
8604.088477000003
 30
0.0
 11
8771.7904090000011
 21
9995.088502999999
 31
0.0
  0
LINE
  5
436A
  8
SUNPOU
  6
CONTINUOUS
 62
     4
 10
14321.79040899999
 20
8735.9783004124274
 30
0.0
 11
14321.79040899999
 21
9995.088502999999
 31
0.0
  0
LINE
  5
436B
  8
SUNPOU
  6
CONTINUOUS
 62
     4
 10
8771.7904090000011
 20
9915.088502999999
 30
0.0
 11
14321.79040899999
 21
9915.088502999999
 31
0.0
  0
LINE
  5
436C
  8
SUNPOU
  6
CONTINUOUS
 62
     4
 10
8951.7904090000011
 20
8474.2742526838028
 30
0.0
 11
8951.7904090000011
 21
9595.0901529999992
 31
0.0
  0
LINE
  5
436D
  8
SUNPOU
  6
CONTINUOUS
 62
     4
 10
14171.79040899999
 20
8661.9985410000008
 30
0.0
 11
14171.79040899999
 21
9595.0901529999992
 31
0.0
  0
LINE
  5
436E
  8
SUNPOU
  6
CONTINUOUS
 62
     4
 10
8951.7904090000011
 20
9515.0901529999974
 30
0.0
 11
14171.79040899999
 21
9515.0901529999974
 31
0.0
  0
LINE
  5
436F
  8
SUNPOU
  6
CONTINUOUS
 62
     4
 10
8771.7904090000011
 20
8604.088477000003
 30
0.0
 11
8771.7904090000011
 21
9595.0901529999992
 31
0.0
  0
LINE
  5
4370
  8
SUNPOU
  6
CONTINUOUS
 62
     4
 10
8951.7904090000011
 20
8474.2742526838028
 30
0.0
 11
8951.7904090000011
 21
9595.0901529999992
 31
0.0
  0
LINE
  5
4371
  8
SUNPOU
  6
CONTINUOUS
 62
     4
 10
8771.7904090000011
 20
9515.0901529999974
 30
0.0
 11
8951.7904090000011
 21
9515.0901529999974
 31
0.0
  0
LINE
  5
4372
  8
SUNPOU
  6
CONTINUOUS
 62
     4
 10
14129.28842999999
 20
5924.4362189999974
 30
0.0
 11
14129.28842999999
 21
4987.0886419999961
 31
0.0
  0
LINE
  5
4373
  8
SUNPOU
  6
CONTINUOUS
 62
     4
 10
14171.788430000001
 20
6287.0884770000011
 30
0.0
 11
14171.788430000001
 21
4987.0886419999961
 31
0.0
  0
LINE
  5
4374
  8
SUNPOU
  6
CONTINUOUS
 62
     4
 10
14129.28842999999
 20
5067.0886419999961
 30
0.0
 11
13889.28842999999
 21
5067.0886419999961
 31
0.0
  0
LINE
  5
4375
  8
SUNPOU
  6
CONTINUOUS
 62
     4
 10
14171.788430000001
 20
5067.0886419999961
 30
0.0
 11
14411.788429999981
 21
5067.0886419999961
 31
0.0
  0
LINE
  5
4376
  8
SUNPOU
  6
CONTINUOUS
 62
     4
 10
14129.28842999999
 20
5067.0886419999961
 30
0.0
 11
14171.788430000001
 21
5067.0886419999961
 31
0.0
  0
LINE
  5
4377
  8
SUNPOU
  6
CONTINUOUS
 62
     4
 10
11561.79040899999
 20
5924.43523
 30
0.0
 11
11561.79040899999
 21
4987.088643000001
 31
0.0
  0
LINE
  5
4378
  8
SUNPOU
  6
CONTINUOUS
 62
     4
 10
14129.29040899999
 20
5924.43523
 30
0.0
 11
14129.29040899999
 21
4987.088643000001
 31
0.0
  0
LINE
  5
4379
  8
SUNPOU
  6
CONTINUOUS
 62
     4
 10
11561.79040899999
 20
5067.088643000001
 30
0.0
 11
14129.29040899999
 21
5067.088643000001
 31
0.0
  0
LINE
  5
437A
  8
SUNPOU
  6
CONTINUOUS
 62
     4
 10
8951.7904090000011
 20
6287.0884770000011
 30
0.0
 11
8951.7904090000011
 21
4587.0888069999992
 31
0.0
  0
LINE
  5
437B
  8
SUNPOU
  6
CONTINUOUS
 62
     4
 10
14171.788430000001
 20
6287.0884770000011
 30
0.0
 11
14171.788430000001
 21
4587.0888069999992
 31
0.0
  0
LINE
  5
437C
  8
SUNPOU
  6
CONTINUOUS
 62
     4
 10
8951.7904090000011
 20
4667.0888069999983
 30
0.0
 11
14171.788430000001
 21
4667.0888069999983
 31
0.0
  0
LINE
  5
437D
  8
SUNPOU
  6
CONTINUOUS
 62
     4
 10
8994.2904090000029
 20
5924.4362189999974
 30
0.0
 11
8994.2904090000029
 21
4987.0886419999961
 31
0.0
  0
LINE
  5
437E
  8
SUNPOU
  6
CONTINUOUS
 62
     4
 10
8951.7904090000011
 20
6287.0884770000011
 30
0.0
 11
8951.7904090000011
 21
4987.0886419999961
 31
0.0
  0
LINE
  5
437F
  8
SUNPOU
  6
CONTINUOUS
 62
     4
 10
8994.2904090000029
 20
5067.0886419999961
 30
0.0
 11
9234.2904089999993
 21
5067.0886419999961
 31
0.0
  0
LINE
  5
4380
  8
SUNPOU
  6
CONTINUOUS
 62
     4
 10
8951.7904090000011
 20
5067.0886419999961
 30
0.0
 11
8711.7904089999975
 21
5067.0886419999961
 31
0.0
  0
LINE
  5
4381
  8
SUNPOU
  6
CONTINUOUS
 62
     4
 10
8994.2904090000029
 20
5067.0886419999961
 30
0.0
 11
8951.7904090000011
 21
5067.0886419999961
 31
0.0
  0
LINE
  5
4382
  8
SUNPOU
  6
CONTINUOUS
 62
     4
 10
11561.79040899999
 20
5924.4362189999974
 30
0.0
 11
11561.79040899999
 21
4987.0886419999961
 31
0.0
  0
LINE
  5
4383
  8
SUNPOU
  6
CONTINUOUS
 62
     4
 10
8994.2904090000029
 20
5924.4362189999974
 30
0.0
 11
8994.2904090000029
 21
4987.0886419999961
 31
0.0
  0
LINE
  5
4384
  8
SUNPOU
  6
CONTINUOUS
 62
     4
 10
11561.79040899999
 20
5067.0886419999961
 30
0.0
 11
8994.2904090000029
 21
5067.0886419999961
 31
0.0
  0
TEXT
  5
4385
  8
0
  6
CONTINUOUS
 62
     7
 10
9878.0404090000047
 20
5147.0886419999961
 30
0.0
 40
160.0
  1
2567.5
  0
TEXT
  5
4386
  8
0
  6
CONTINUOUS
 62
     7
 10
8354.6166999036941
 20
5147.0886419999961
 30
0.0
 40
160.0
  1
42.5
  0
TEXT
  5
4387
  8
0
  6
CONTINUOUS
 62
     7
 10
11281.78941949999
 20
4747.0888069999992
 30
0.0
 40
160.0
  1
5220
  0
TEXT
  5
4388
  8
0
  6
CONTINUOUS
 62
     7
 10
12445.54040899999
 20
5147.088643
 30
0.0
 40
160.0
  1
2567.5
  0
TEXT
  5
4389
  8
0
  6
CONTINUOUS
 62
     7
 10
14288.962139096289
 20
5147.0886419999961
 30
0.0
 40
160.0
  1
42.5
  0
TEXT
  5
438A
  8
0
  6
CONTINUOUS
 62
     7
 10
8358.4570756666672
 20
9595.0901529999992
 30
0.0
 40
160.0
  1
180
  0
TEXT
  5
438B
  8
0
  6
CONTINUOUS
 62
     7
 10
11281.79040899999
 20
9595.0901529999992
 30
0.0
 40
160.0
  1
5220
  0
TEXT
  5
438C
  8
0
  6
CONTINUOUS
 62
     7
 10
11266.790408999999
 20
9995.088502999999
 30
0.0
 40
160.0
  1
5550
  0
TEXT
  5
438D
  8
0
  6
CONTINUOUS
 62
     7
 10
14388.457075666671
 20
9595.0901529999992
 30
0.0
 40
160.0
  1
150
  0
TEXT
  5
438E
  8
0
  6
CONTINUOUS
 62
     7
 10
7781.7900129999998
 20
6452.8384780000006
 30
0.0
 40
160.0
  1
2155.5（2395.5）
 50
90.0
  0
TEXT
  5
438F
  8
0
  6
CONTINUOUS
 62
     7
 10
15181.788824999991
 20
6736.2551446666657
 30
0.0
 40
160.0
  1
2349（2589）
 50
90.0
  0
TEXT
  5
4390
  8
0
  6
CONTINUOUS
 62
     7
 10
21935.04587099998
 20
4747.0888079999986
 30
0.0
 40
160.0
  1
5220
  0
TEXT
  5
4391
  8
0
  6
CONTINUOUS
 62
     7
 10
19039.006880741141
 20
5147.088643
 30
0.0
 40
160.0
  1
42.5
  0
TEXT
  5
4392
  8
0
  6
CONTINUOUS
 62
     7
 10
24911.088820258828
 20
5147.088643
 30
0.0
 40
160.0
  1
42.5
  0
TEXT
  5
4393
  8
0
  6
CONTINUOUS
 62
     7
 10
20531.295870999991
 20
5147.088643
 30
0.0
 40
160.0
  1
2567.5
  0
TEXT
  5
4394
  8
0
  6
CONTINUOUS
 62
     7
 10
23098.795870999969
 20
5147.088643
 30
0.0
 40
160.0
  1
2567.5
  0
TEXT
  5
4395
  8
0
  6
CONTINUOUS
 62
     7
 10
22570.79587099998
 20
5547.088643000001
 30
0.0
 40
160.0
  1
有効開口巾 2379.5
  0
TEXT
  5
4396
  8
0
  6
CONTINUOUS
 62
     7
 10
20003.295870999991
 20
5547.088643000001
 30
0.0
 40
160.0
  1
有効開口巾 2379.5
  0
TEXT
  5
4397
  8
0
  6
CONTINUOUS
 62
     7
 10
24985.04824599998
 20
9595.0886689999988
 30
0.0
 40
160.0
  1
43
  0
TEXT
  5
4398
  8
0
  6
CONTINUOUS
 62
     7
 10
19205.04349599998
 20
9595.0886689999988
 30
0.0
 40
160.0
  1
43
  0
TEXT
  5
4399
  8
0
  6
CONTINUOUS
 62
     7
 10
21935.04587099998
 20
9595.0886689999988
 30
0.0
 40
160.0
  1
5220
  0
TEXT
  5
439A
  8
0
  6
CONTINUOUS
 62
     7
 10
21948.379204333309
 20
9995.0464389999997
 30
0.0
 40
160.0
  1
5306
  0
TEXT
  5
439B
  8
0
  6
CONTINUOUS
 62
     7
 10
18317.54422199995
 20
6736.2548971666656
 30
0.0
 40
160.0
  1
2349（2589）
 50
90.0
  0
TEXT
  5
439C
  8
0
  6
CONTINUOUS
 62
     7
 10
18717.546530999982
 20
6431.0677162912707
 30
0.0
 40
160.0
  1
有効開口高サ 1891.5
 50
90.0
  0
TEXT
  5
439D
  8
0
  6
CONTINUOUS
 62
     7
 10
20232.212537666641
 20
20175.540976000011
 30
0.0
 40
160.0
  1
701
  0
TEXT
  5
439E
  8
0
  6
CONTINUOUS
 62
     7
 10
20933.212537666652
 20
20495.540976000011
 30
0.0
 40
160.0
  1
701
  0
TEXT
  5
439F
  8
0
  6
CONTINUOUS
 62
     7
 10
21622.713032416661
 20
20495.540976000011
 30
0.0
 40
160.0
  1
758
  0
TEXT
  5
43A0
  8
0
  6
CONTINUOUS
 62
     7
 10
19044.733891471169
 20
20495.540976000011
 30
0.0
 40
160.0
  1
42.5
  0
TEXT
  5
43A1
  8
0
  6
CONTINUOUS
 62
     7
 10
19748.379204333309
 20
20495.540976000011
 30
0.0
 40
160.0
  1
407.5
  0
TEXT
  5
43A2
  8
0
  6
CONTINUOUS
 62
     7
 10
24905.357850528781
 20
20495.540976000011
 30
0.0
 40
160.0
  1
42.5
  0
TEXT
  5
43A3
  8
0
  6
CONTINUOUS
 62
     7
 10
22799.712537666652
 20
20175.540976000011
 30
0.0
 40
160.0
  1
701
  0
TEXT
  5
43A4
  8
0
  6
CONTINUOUS
 62
     7
 10
23500.712537666652
 20
20495.540976000011
 30
0.0
 40
160.0
  1
701
  0
TEXT
  5
43A5
  8
0
  6
CONTINUOUS
 62
     7
 10
24190.213032416639
 20
20495.540976000011
 30
0.0
 40
160.0
  1
758
  0
TEXT
  5
43A6
  8
0
  6
CONTINUOUS
 62
     7
 10
22315.879204333291
 20
20495.540976000011
 30
0.0
 40
160.0
  1
407.5
  0
TEXT
  5
43A7
  8
0
  6
CONTINUOUS
 62
     7
 10
26195.045474999992
 20
13891.98625660321
 30
0.0
 40
160.0
  1
42.5
 50
90.0
  0
TEXT
  5
43A8
  8
0
  6
CONTINUOUS
 62
     7
 10
26195.045474999992
 20
19779.09331939679
 30
0.0
 40
160.0
  1
42.5
 50
90.0
  0
TEXT
  5
43A9
  8
0
  6
CONTINUOUS
 62
     7
 10
26595.045474999959
 20
16795.539787999998
 30
0.0
 40
160.0
  1
5220
 50
90.0
  0
TEXT
  5
43AA
  8
0
  6
CONTINUOUS
 62
     7
 10
26195.045474999959
 20
15391.789788
 30
0.0
 40
160.0
  1
2567.5
 50
90.0
  0
TEXT
  5
43AB
  8
0
  6
CONTINUOUS
 62
     7
 10
26195.045474999959
 20
17959.289787999998
 30
0.0
 40
160.0
  1
2567.5
 50
90.0
  0
TEXT
  5
43AC
  8
0
  6
CONTINUOUS
 62
     7
 10
25795.045474999959
 20
18711.706454666681
 30
0.0
 40
160.0
  1
701
 50
90.0
  0
TEXT
  5
43AD
  8
0
  6
CONTINUOUS
 62
     7
 10
25795.045474999959
 20
18010.706454666681
 30
0.0
 40
160.0
  1
701
 50
90.0
  0
TEXT
  5
43AE
  8
0
  6
CONTINUOUS
 62
     7
 10
25795.045474999959
 20
17241.20645466667
 30
0.0
 40
160.0
  1
758
 50
90.0
  0
TEXT
  5
43AF
  8
0
  6
CONTINUOUS
 62
     7
 10
25795.045474999959
 20
16483.206454666659
 30
0.0
 40
160.0
  1
758
 50
90.0
  0
TEXT
  5
43B0
  8
0
  6
CONTINUOUS
 62
     7
 10
25795.045474999959
 20
15793.826710416681
 30
0.0
 40
160.0
  1
701
 50
90.0
  0
TEXT
  5
43B1
  8
0
  6
CONTINUOUS
 62
     7
 10
25795.045474999959
 20
15092.826710416681
 30
0.0
 40
160.0
  1
701
 50
90.0
  0
TEXT
  5
43B2
  8
0
  6
CONTINUOUS
 62
     7
 10
21935.04587099998
 20
13216.591704
 30
0.0
 40
160.0
  1
5220
  0
TEXT
  5
43B3
  8
0
  6
CONTINUOUS
 62
     7
 10
19765.599543382061
 20
13616.59170399998
 30
0.0
 40
160.0
  1
42.5
  0
TEXT
  5
43B4
  8
0
  6
CONTINUOUS
 62
     7
 10
24184.492198617882
 20
13616.59170399998
 30
0.0
 40
160.0
  1
42.5
  0
TEXT
  5
43B5
  8
0
  6
CONTINUOUS
 62
     7
 10
24900.599543382079
 20
13616.59170399998
 30
0.0
 40
160.0
  1
42.5
  0
TEXT
  5
43B6
  8
0
  6
CONTINUOUS
 62
     7
 10
19049.492198617889
 20
13616.59170399998
 30
0.0
 40
160.0
  1
42.5
  0
TEXT
  5
43B7
  8
0
  6
CONTINUOUS
 62
     7
 10
26155.045474999992
 20
18944.917755643201
 30
0.0
 40
160.0
  1
407.5
 50
90.0
  0
TEXT
  5
43B8
  8
0
  6
CONTINUOUS
 62
     7
 10
26155.045474999992
 20
14580.98045795355
 30
0.0
 40
160.0
  1
407.5
 50
90.0
  0
TEXT
  5
43B9
  8
0
  6
CONTINUOUS
 62
     7
 10
8342.5894259999877
 20
17959.289787999991
 30
0.0
 40
160.0
  1
2567.5
 50
90.0
  0
TEXT
  5
43BA
  8
0
  6
CONTINUOUS
 62
     7
 10
8342.5894259999823
 20
19954.494972807679
 30
0.0
 40
160.0
  1
222.5
 50
90.0
  0
TEXT
  5
43BB
  8
0
  6
CONTINUOUS
 62
     7
 10
8742.5894259999877
 20
20012.202363666682
 30
0.0
 40
160.0
  1
10
 50
90.0
  0
TEXT
  5
43BC
  8
0
  6
CONTINUOUS
 62
     7
 10
8342.5894259999877
 20
15391.789788
 30
0.0
 40
160.0
  1
2567.5
 50
90.0
  0
TEXT
  5
43BD
  8
0
  6
CONTINUOUS
 62
     7
 10
8342.5894259999823
 20
13700.086777702631
 30
0.0
 40
160.0
  1
192.5
 50
90.0
  0
TEXT
  5
43BE
  8
0
  6
CONTINUOUS
 62
     7
 10
11130.255544166641
 20
13216.591704
 30
0.0
 40
160.0
  1
ケラバ外寸 5306
  0
TEXT
  5
43BF
  8
0
  6
CONTINUOUS
 62
     7
 10
10485.84184599997
 20
20425.545198
 30
0.0
 40
160.0
  1
2567.5
  0
TEXT
  5
43C0
  8
0
  6
CONTINUOUS
 62
     7
 10
8735.5951399767146
 20
20425.545198
 30
0.0
 40
160.0
  1
85.5
  0
TEXT
  5
43C1
  8
0
  6
CONTINUOUS
 62
     7
 10
12803.33590799999
 20
20425.545198
 30
0.0
 40
160.0
  1
2567.5
  0
TEXT
  5
43C2
  8
0
  6
CONTINUOUS
 62
     7
 10
14623.58261402324
 20
20425.545198
 30
0.0
 40
160.0
  1
85.5
  0
ARC
  5
43C3
  8
0
  6
BYBLOCK
 62
     0
 10
14487.08590799999
 20
20345.545198
 30
0.0
 40
15.0
 50
180.0
 51
0.0
  0
ARC
  5
43C4
  8
0
  6
BYBLOCK
 62
     0
 10
14487.08590799999
 20
20345.545198
 30
0.0
 40
15.0
 50
0.0
 51
180.0
  0
ARC
  5
43C5
  8
0
  6
BYBLOCK
 62
     0
 10
14572.58590799999
 20
20345.545198
 30
0.0
 40
15.0
 50
0.0
 51
180.0
  0
ARC
  5
43C6
  8
0
  6
BYBLOCK
 62
     0
 10
14572.58590799999
 20
20345.545198
 30
0.0
 40
15.0
 50
180.0
 51
0.0
  0
ARC
  5
43C7
  8
0
  6
BYBLOCK
 62
     0
 10
11919.585907999979
 20
20345.545198
 30
0.0
 40
15.0
 50
0.0
 51
180.0
  0
ARC
  5
43C8
  8
0
  6
BYBLOCK
 62
     0
 10
11919.585907999979
 20
20345.545198
 30
0.0
 40
15.0
 50
180.0
 51
0.0
  0
ARC
  5
43C9
  8
0
  6
BYBLOCK
 62
     0
 10
14487.08590799999
 20
20345.545198
 30
0.0
 40
15.0
 50
180.0
 51
0.0
  0
ARC
  5
43CA
  8
0
  6
BYBLOCK
 62
     0
 10
14487.08590799999
 20
20345.545198
 30
0.0
 40
15.0
 50
0.0
 51
180.0
  0
ARC
  5
43CB
  8
0
  6
BYBLOCK
 62
     0
 10
9352.0918459999775
 20
20345.545198
 30
0.0
 40
15.0
 50
0.0
 51
180.0
  0
ARC
  5
43CC
  8
0
  6
BYBLOCK
 62
     0
 10
9352.0918459999775
 20
20345.545198
 30
0.0
 40
15.0
 50
180.0
 51
0.0
  0
ARC
  5
43CD
  8
0
  6
BYBLOCK
 62
     0
 10
9266.5918459999757
 20
20345.545198
 30
0.0
 40
15.0
 50
180.0
 51
0.0
  0
ARC
  5
43CE
  8
0
  6
BYBLOCK
 62
     0
 10
9266.5918459999757
 20
20345.545198
 30
0.0
 40
15.0
 50
0.0
 51
180.0
  0
ARC
  5
43CF
  8
0
  6
BYBLOCK
 62
     0
 10
11919.59184599997
 20
20345.545198
 30
0.0
 40
15.0
 50
180.0
 51
0.0
  0
ARC
  5
43D0
  8
0
  6
BYBLOCK
 62
     0
 10
11919.59184599997
 20
20345.545198
 30
0.0
 40
15.0
 50
0.0
 51
180.0
  0
ARC
  5
43D1
  8
0
  6
BYBLOCK
 62
     0
 10
9352.0918459999775
 20
20345.545198
 30
0.0
 40
15.0
 50
0.0
 51
180.0
  0
ARC
  5
43D2
  8
0
  6
BYBLOCK
 62
     0
 10
9352.0918459999775
 20
20345.545198
 30
0.0
 40
15.0
 50
180.0
 51
0.0
  0
ARC
  5
43D3
  8
0
  6
BYBLOCK
 62
     0
 10
9266.5874919999824
 20
13136.591704
 30
0.0
 40
15.0
 50
0.0
 51
180.0
  0
ARC
  5
43D4
  8
0
  6
BYBLOCK
 62
     0
 10
9266.5874919999824
 20
13136.591704
 30
0.0
 40
15.0
 50
180.0
 51
0.0
  0
ARC
  5
43D5
  8
0
  6
BYBLOCK
 62
     0
 10
14572.59026299996
 20
13136.591704
 30
0.0
 40
15.0
 50
180.0
 51
0.0
  0
ARC
  5
43D6
  8
0
  6
BYBLOCK
 62
     0
 10
14572.59026299996
 20
13136.591704
 30
0.0
 40
15.0
 50
0.0
 51
180.0
  0
ARC
  5
43D7
  8
0
  6
BYBLOCK
 62
     0
 10
8422.5894259999877
 20
14508.039787999989
 30
0.0
 40
15.0
 50
270.0
 51
90.0
  0
ARC
  5
43D8
  8
0
  6
BYBLOCK
 62
     0
 10
8422.5894259999877
 20
14508.039787999989
 30
0.0
 40
15.0
 50
90.0
 51
270.0
  0
ARC
  5
43D9
  8
0
  6
BYBLOCK
 62
     0
 10
8422.5894259999877
 20
14315.544472999991
 30
0.0
 40
15.0
 50
90.0
 51
270.0
  0
ARC
  5
43DA
  8
0
  6
BYBLOCK
 62
     0
 10
8422.5894259999877
 20
14315.544472999991
 30
0.0
 40
15.0
 50
270.0
 51
90.0
  0
ARC
  5
43DB
  8
0
  6
BYBLOCK
 62
     0
 10
8422.5894259999877
 20
17075.53978799998
 30
0.0
 40
15.0
 50
270.0
 51
90.0
  0
ARC
  5
43DC
  8
0
  6
BYBLOCK
 62
     0
 10
8422.5894259999877
 20
17075.53978799998
 30
0.0
 40
15.0
 50
90.0
 51
270.0
  0
ARC
  5
43DD
  8
0
  6
BYBLOCK
 62
     0
 10
8422.5894259999877
 20
14508.039787999989
 30
0.0
 40
15.0
 50
90.0
 51
270.0
  0
ARC
  5
43DE
  8
0
  6
BYBLOCK
 62
     0
 10
8422.5894259999877
 20
14508.039787999989
 30
0.0
 40
15.0
 50
270.0
 51
90.0
  0
ARC
  5
43DF
  8
0
  6
BYBLOCK
 62
     0
 10
8822.5894259999877
 20
19855.535697000021
 30
0.0
 40
15.0
 50
270.0
 51
90.0
  0
ARC
  5
43E0
  8
0
  6
BYBLOCK
 62
     0
 10
8822.5894259999877
 20
19855.535697000021
 30
0.0
 40
15.0
 50
90.0
 51
270.0
  0
ARC
  5
43E1
  8
0
  6
BYBLOCK
 62
     0
 10
8822.5894259999877
 20
19865.53569700001
 30
0.0
 40
15.0
 50
90.0
 51
270.0
  0
ARC
  5
43E2
  8
0
  6
BYBLOCK
 62
     0
 10
8822.5894259999877
 20
19865.53569700001
 30
0.0
 40
15.0
 50
270.0
 51
90.0
  0
ARC
  5
43E3
  8
0
  6
BYBLOCK
 62
     0
 10
8422.5894259999877
 20
19643.039787999991
 30
0.0
 40
15.0
 50
90.0
 51
270.0
  0
ARC
  5
43E4
  8
0
  6
BYBLOCK
 62
     0
 10
8422.5894259999877
 20
19643.039787999991
 30
0.0
 40
15.0
 50
270.0
 51
90.0
  0
ARC
  5
43E5
  8
0
  6
BYBLOCK
 62
     0
 10
8422.5894259999877
 20
19865.53569700001
 30
0.0
 40
15.0
 50
270.0
 51
90.0
  0
ARC
  5
43E6
  8
0
  6
BYBLOCK
 62
     0
 10
8422.5894259999877
 20
19865.53569700001
 30
0.0
 40
15.0
 50
90.0
 51
270.0
  0
ARC
  5
43E7
  8
0
  6
BYBLOCK
 62
     0
 10
8422.5894259999877
 20
17075.53978799998
 30
0.0
 40
15.0
 50
90.0
 51
270.0
  0
ARC
  5
43E8
  8
0
  6
BYBLOCK
 62
     0
 10
8422.5894259999877
 20
17075.53978799998
 30
0.0
 40
15.0
 50
270.0
 51
90.0
  0
ARC
  5
43E9
  8
0
  6
BYBLOCK
 62
     0
 10
8422.5894259999877
 20
19643.039787999991
 30
0.0
 40
15.0
 50
270.0
 51
90.0
  0
ARC
  5
43EA
  8
0
  6
BYBLOCK
 62
     0
 10
8422.5894259999877
 20
19643.039787999991
 30
0.0
 40
15.0
 50
90.0
 51
270.0
  0
ARC
  5
43EB
  8
0
  6
BYBLOCK
 62
     0
 10
25875.045474999992
 20
14915.66004375
 30
0.0
 40
15.0
 50
270.0
 51
90.0
  0
ARC
  5
43EC
  8
0
  6
BYBLOCK
 62
     0
 10
25875.045474999992
 20
14915.66004375
 30
0.0
 40
15.0
 50
90.0
 51
270.0
  0
ARC
  5
43ED
  8
0
  6
BYBLOCK
 62
     0
 10
25875.045474999992
 20
14508.16004375
 30
0.0
 40
15.0
 50
90.0
 51
270.0
  0
ARC
  5
43EE
  8
0
  6
BYBLOCK
 62
     0
 10
25875.045474999992
 20
14508.16004375
 30
0.0
 40
15.0
 50
270.0
 51
90.0
  0
ARC
  5
43EF
  8
0
  6
BYBLOCK
 62
     0
 10
25875.045474999992
 20
19235.539787999998
 30
0.0
 40
15.0
 50
90.0
 51
270.0
  0
ARC
  5
43F0
  8
0
  6
BYBLOCK
 62
     0
 10
25875.045474999992
 20
19235.539787999998
 30
0.0
 40
15.0
 50
270.0
 51
90.0
  0
ARC
  5
43F1
  8
0
  6
BYBLOCK
 62
     0
 10
25875.045474999992
 20
19643.039787999991
 30
0.0
 40
15.0
 50
270.0
 51
90.0
  0
ARC
  5
43F2
  8
0
  6
BYBLOCK
 62
     0
 10
25875.045474999992
 20
19643.039787999991
 30
0.0
 40
15.0
 50
90.0
 51
270.0
  0
ARC
  5
43F3
  8
0
  6
BYBLOCK
 62
     0
 10
19647.54587099998
 20
13536.59170399998
 30
0.0
 40
15.0
 50
0.0
 51
180.0
  0
ARC
  5
43F4
  8
0
  6
BYBLOCK
 62
     0
 10
19647.54587099998
 20
13536.59170399998
 30
0.0
 40
15.0
 50
180.0
 51
0.0
  0
ARC
  5
43F5
  8
0
  6
BYBLOCK
 62
     0
 10
19605.043627999981
 20
13536.59170399998
 30
0.0
 40
15.0
 50
180.0
 51
0.0
  0
ARC
  5
43F6
  8
0
  6
BYBLOCK
 62
     0
 10
19605.043627999981
 20
13536.59170399998
 30
0.0
 40
15.0
 50
0.0
 51
180.0
  0
ARC
  5
43F7
  8
0
  6
BYBLOCK
 62
     0
 10
24782.54587099998
 20
13536.59170399998
 30
0.0
 40
15.0
 50
180.0
 51
0.0
  0
ARC
  5
43F8
  8
0
  6
BYBLOCK
 62
     0
 10
24782.54587099998
 20
13536.59170399998
 30
0.0
 40
15.0
 50
0.0
 51
180.0
  0
ARC
  5
43F9
  8
0
  6
BYBLOCK
 62
     0
 10
24825.048113999968
 20
13536.59170399998
 30
0.0
 40
15.0
 50
0.0
 51
180.0
  0
ARC
  5
43FA
  8
0
  6
BYBLOCK
 62
     0
 10
24825.048113999968
 20
13536.59170399998
 30
0.0
 40
15.0
 50
180.0
 51
0.0
  0
ARC
  5
43FB
  8
0
  6
BYBLOCK
 62
     0
 10
24782.54587099998
 20
13536.59170399998
 30
0.0
 40
15.0
 50
0.0
 51
180.0
  0
ARC
  5
43FC
  8
0
  6
BYBLOCK
 62
     0
 10
24782.54587099998
 20
13536.59170399998
 30
0.0
 40
15.0
 50
180.0
 51
0.0
  0
ARC
  5
43FD
  8
0
  6
BYBLOCK
 62
     0
 10
24740.043627999981
 20
13536.59170399998
 30
0.0
 40
15.0
 50
180.0
 51
0.0
  0
ARC
  5
43FE
  8
0
  6
BYBLOCK
 62
     0
 10
24740.043627999981
 20
13536.59170399998
 30
0.0
 40
15.0
 50
0.0
 51
180.0
  0
ARC
  5
43FF
  8
0
  6
BYBLOCK
 62
     0
 10
19647.54587099998
 20
13536.59170399998
 30
0.0
 40
15.0
 50
180.0
 51
0.0
  0
ARC
  5
4400
  8
0
  6
BYBLOCK
 62
     0
 10
19647.54587099998
 20
13536.59170399998
 30
0.0
 40
15.0
 50
0.0
 51
180.0
  0
ARC
  5
4401
  8
0
  6
BYBLOCK
 62
     0
 10
19690.048113999961
 20
13536.59170399998
 30
0.0
 40
15.0
 50
0.0
 51
180.0
  0
ARC
  5
4402
  8
0
  6
BYBLOCK
 62
     0
 10
19690.048113999961
 20
13536.59170399998
 30
0.0
 40
15.0
 50
180.0
 51
0.0
  0
ARC
  5
4403
  8
0
  6
BYBLOCK
 62
     0
 10
19605.043627999981
 20
13136.591704
 30
0.0
 40
15.0
 50
0.0
 51
180.0
  0
ARC
  5
4404
  8
0
  6
BYBLOCK
 62
     0
 10
19605.043627999981
 20
13136.591704
 30
0.0
 40
15.0
 50
180.0
 51
0.0
  0
ARC
  5
4405
  8
0
  6
BYBLOCK
 62
     0
 10
24825.048113999968
 20
13136.591704
 30
0.0
 40
15.0
 50
180.0
 51
0.0
  0
ARC
  5
4406
  8
0
  6
BYBLOCK
 62
     0
 10
24825.048113999968
 20
13136.591704
 30
0.0
 40
15.0
 50
0.0
 51
180.0
  0
ARC
  5
4407
  8
0
  6
BYBLOCK
 62
     0
 10
25875.045474999992
 20
15616.7802995
 30
0.0
 40
15.0
 50
270.0
 51
90.0
  0
ARC
  5
4408
  8
0
  6
BYBLOCK
 62
     0
 10
25875.045474999992
 20
15616.7802995
 30
0.0
 40
15.0
 50
90.0
 51
270.0
  0
ARC
  5
4409
  8
0
  6
BYBLOCK
 62
     0
 10
25875.045474999992
 20
14915.539788
 30
0.0
 40
15.0
 50
90.0
 51
270.0
  0
ARC
  5
440A
  8
0
  6
BYBLOCK
 62
     0
 10
25875.045474999992
 20
14915.539788
 30
0.0
 40
15.0
 50
270.0
 51
90.0
  0
ARC
  5
440B
  8
0
  6
BYBLOCK
 62
     0
 10
25875.045474999992
 20
16317.539788
 30
0.0
 40
15.0
 50
270.0
 51
90.0
  0
ARC
  5
440C
  8
0
  6
BYBLOCK
 62
     0
 10
25875.045474999992
 20
16317.539788
 30
0.0
 40
15.0
 50
90.0
 51
270.0
  0
ARC
  5
440D
  8
0
  6
BYBLOCK
 62
     0
 10
25875.045474999992
 20
15616.7802995
 30
0.0
 40
15.0
 50
90.0
 51
270.0
  0
ARC
  5
440E
  8
0
  6
BYBLOCK
 62
     0
 10
25875.045474999992
 20
15616.7802995
 30
0.0
 40
15.0
 50
270.0
 51
90.0
  0
ARC
  5
440F
  8
0
  6
BYBLOCK
 62
     0
 10
25875.045474999992
 20
17075.53978799998
 30
0.0
 40
15.0
 50
270.0
 51
90.0
  0
ARC
  5
4410
  8
0
  6
BYBLOCK
 62
     0
 10
25875.045474999992
 20
17075.53978799998
 30
0.0
 40
15.0
 50
90.0
 51
270.0
  0
ARC
  5
4411
  8
0
  6
BYBLOCK
 62
     0
 10
25875.045474999992
 20
16317.539788
 30
0.0
 40
15.0
 50
90.0
 51
270.0
  0
ARC
  5
4412
  8
0
  6
BYBLOCK
 62
     0
 10
25875.045474999992
 20
16317.539788
 30
0.0
 40
15.0
 50
270.0
 51
90.0
  0
ARC
  5
4413
  8
0
  6
BYBLOCK
 62
     0
 10
25875.045474999992
 20
17833.539787999991
 30
0.0
 40
15.0
 50
270.0
 51
90.0
  0
ARC
  5
4414
  8
0
  6
BYBLOCK
 62
     0
 10
25875.045474999992
 20
17833.539787999991
 30
0.0
 40
15.0
 50
90.0
 51
270.0
  0
ARC
  5
4415
  8
0
  6
BYBLOCK
 62
     0
 10
25875.045474999992
 20
17075.53978799998
 30
0.0
 40
15.0
 50
90.0
 51
270.0
  0
ARC
  5
4416
  8
0
  6
BYBLOCK
 62
     0
 10
25875.045474999992
 20
17075.53978799998
 30
0.0
 40
15.0
 50
270.0
 51
90.0
  0
ARC
  5
4417
  8
0
  6
BYBLOCK
 62
     0
 10
25875.045474999992
 20
18534.539787999998
 30
0.0
 40
15.0
 50
270.0
 51
90.0
  0
ARC
  5
4418
  8
0
  6
BYBLOCK
 62
     0
 10
25875.045474999992
 20
18534.539787999998
 30
0.0
 40
15.0
 50
90.0
 51
270.0
  0
ARC
  5
4419
  8
0
  6
BYBLOCK
 62
     0
 10
25875.045474999992
 20
17833.539787999991
 30
0.0
 40
15.0
 50
90.0
 51
270.0
  0
ARC
  5
441A
  8
0
  6
BYBLOCK
 62
     0
 10
25875.045474999992
 20
17833.539787999991
 30
0.0
 40
15.0
 50
270.0
 51
90.0
  0
ARC
  5
441B
  8
0
  6
BYBLOCK
 62
     0
 10
25875.045474999992
 20
19235.539787999998
 30
0.0
 40
15.0
 50
270.0
 51
90.0
  0
ARC
  5
441C
  8
0
  6
BYBLOCK
 62
     0
 10
25875.045474999992
 20
19235.539787999998
 30
0.0
 40
15.0
 50
90.0
 51
270.0
  0
ARC
  5
441D
  8
0
  6
BYBLOCK
 62
     0
 10
25875.045474999992
 20
18534.539787999998
 30
0.0
 40
15.0
 50
90.0
 51
270.0
  0
ARC
  5
441E
  8
0
  6
BYBLOCK
 62
     0
 10
25875.045474999992
 20
18534.539787999998
 30
0.0
 40
15.0
 50
270.0
 51
90.0
  0
ARC
  5
441F
  8
0
  6
BYBLOCK
 62
     0
 10
26275.045474999992
 20
17075.53978799998
 30
0.0
 40
15.0
 50
90.0
 51
270.0
  0
ARC
  5
4420
  8
0
  6
BYBLOCK
 62
     0
 10
26275.045474999992
 20
17075.53978799998
 30
0.0
 40
15.0
 50
270.0
 51
90.0
  0
ARC
  5
4421
  8
0
  6
BYBLOCK
 62
     0
 10
26275.045474999992
 20
19643.039787999991
 30
0.0
 40
15.0
 50
270.0
 51
90.0
  0
ARC
  5
4422
  8
0
  6
BYBLOCK
 62
     0
 10
26275.045474999992
 20
19643.039787999991
 30
0.0
 40
15.0
 50
90.0
 51
270.0
  0
ARC
  5
4423
  8
0
  6
BYBLOCK
 62
     0
 10
26275.045474999992
 20
14508.039787999989
 30
0.0
 40
15.0
 50
90.0
 51
270.0
  0
ARC
  5
4424
  8
0
  6
BYBLOCK
 62
     0
 10
26275.045474999992
 20
14508.039787999989
 30
0.0
 40
15.0
 50
270.0
 51
90.0
  0
ARC
  5
4425
  8
0
  6
BYBLOCK
 62
     0
 10
26275.045474999992
 20
17075.53978799998
 30
0.0
 40
15.0
 50
270.0
 51
90.0
  0
ARC
  5
4426
  8
0
  6
BYBLOCK
 62
     0
 10
26275.045474999992
 20
17075.53978799998
 30
0.0
 40
15.0
 50
90.0
 51
270.0
  0
ARC
  5
4427
  8
0
  6
BYBLOCK
 62
     0
 10
26675.045474999992
 20
19685.537082999988
 30
0.0
 40
15.0
 50
270.0
 51
90.0
  0
ARC
  5
4428
  8
0
  6
BYBLOCK
 62
     0
 10
26675.045474999992
 20
19685.537082999988
 30
0.0
 40
15.0
 50
90.0
 51
270.0
  0
ARC
  5
4429
  8
0
  6
BYBLOCK
 62
     0
 10
26675.045474999992
 20
14465.542493000001
 30
0.0
 40
15.0
 50
90.0
 51
270.0
  0
ARC
  5
442A
  8
0
  6
BYBLOCK
 62
     0
 10
26675.045474999992
 20
14465.542493000001
 30
0.0
 40
15.0
 50
270.0
 51
90.0
  0
ARC
  5
442B
  8
0
  6
BYBLOCK
 62
     0
 10
26275.045474999992
 20
19643.039787999991
 30
0.0
 40
15.0
 50
270.0
 51
90.0
  0
ARC
  5
442C
  8
0
  6
BYBLOCK
 62
     0
 10
26275.045474999992
 20
19643.039787999991
 30
0.0
 40
15.0
 50
90.0
 51
270.0
  0
ARC
  5
442D
  8
0
  6
BYBLOCK
 62
     0
 10
26275.045474999992
 20
19685.537082999988
 30
0.0
 40
15.0
 50
90.0
 51
270.0
  0
ARC
  5
442E
  8
0
  6
BYBLOCK
 62
     0
 10
26275.045474999992
 20
19685.537082999988
 30
0.0
 40
15.0
 50
270.0
 51
90.0
  0
ARC
  5
442F
  8
0
  6
BYBLOCK
 62
     0
 10
26275.045474999992
 20
14508.039787999989
 30
0.0
 40
15.0
 50
90.0
 51
270.0
  0
ARC
  5
4430
  8
0
  6
BYBLOCK
 62
     0
 10
26275.045474999992
 20
14508.039787999989
 30
0.0
 40
15.0
 50
270.0
 51
90.0
  0
ARC
  5
4431
  8
0
  6
BYBLOCK
 62
     0
 10
26275.045474999992
 20
14465.542493000001
 30
0.0
 40
15.0
 50
270.0
 51
90.0
  0
ARC
  5
4432
  8
0
  6
BYBLOCK
 62
     0
 10
26275.045474999992
 20
14465.542493000001
 30
0.0
 40
15.0
 50
90.0
 51
270.0
  0
ARC
  5
4433
  8
0
  6
BYBLOCK
 62
     0
 10
22215.04587099998
 20
20415.540976000011
 30
0.0
 40
15.0
 50
0.0
 51
180.0
  0
ARC
  5
4434
  8
0
  6
BYBLOCK
 62
     0
 10
22215.04587099998
 20
20415.540976000011
 30
0.0
 40
15.0
 50
180.0
 51
0.0
  0
ARC
  5
4435
  8
0
  6
BYBLOCK
 62
     0
 10
22622.545870999969
 20
20415.540976000011
 30
0.0
 40
15.0
 50
180.0
 51
0.0
  0
ARC
  5
4436
  8
0
  6
BYBLOCK
 62
     0
 10
22622.545870999969
 20
20415.540976000011
 30
0.0
 40
15.0
 50
0.0
 51
180.0
  0
ARC
  5
4437
  8
0
  6
BYBLOCK
 62
     0
 10
24024.54587099998
 20
20415.540976000011
 30
0.0
 40
15.0
 50
0.0
 51
180.0
  0
ARC
  5
4438
  8
0
  6
BYBLOCK
 62
     0
 10
24024.54587099998
 20
20415.540976000011
 30
0.0
 40
15.0
 50
180.0
 51
0.0
  0
ARC
  5
4439
  8
0
  6
BYBLOCK
 62
     0
 10
24782.546860499991
 20
20415.540976000011
 30
0.0
 40
15.0
 50
180.0
 51
0.0
  0
ARC
  5
443A
  8
0
  6
BYBLOCK
 62
     0
 10
24782.546860499991
 20
20415.540976000011
 30
0.0
 40
15.0
 50
0.0
 51
180.0
  0
ARC
  5
443B
  8
0
  6
BYBLOCK
 62
     0
 10
23323.545870999969
 20
20415.540976000011
 30
0.0
 40
15.0
 50
0.0
 51
180.0
  0
ARC
  5
443C
  8
0
  6
BYBLOCK
 62
     0
 10
23323.545870999969
 20
20415.540976000011
 30
0.0
 40
15.0
 50
180.0
 51
0.0
  0
ARC
  5
443D
  8
0
  6
BYBLOCK
 62
     0
 10
24024.54587099998
 20
20415.540976000011
 30
0.0
 40
15.0
 50
180.0
 51
0.0
  0
ARC
  5
443E
  8
0
  6
BYBLOCK
 62
     0
 10
24024.54587099998
 20
20415.540976000011
 30
0.0
 40
15.0
 50
0.0
 51
180.0
  0
ARC
  5
443F
  8
0
  6
BYBLOCK
 62
     0
 10
22622.545870999969
 20
20415.540976000011
 30
0.0
 40
15.0
 50
0.0
 51
180.0
  0
ARC
  5
4440
  8
0
  6
BYBLOCK
 62
     0
 10
22622.545870999969
 20
20415.540976000011
 30
0.0
 40
15.0
 50
180.0
 51
0.0
  0
ARC
  5
4441
  8
0
  6
BYBLOCK
 62
     0
 10
23323.545870999969
 20
20415.540976000011
 30
0.0
 40
15.0
 50
180.0
 51
0.0
  0
ARC
  5
4442
  8
0
  6
BYBLOCK
 62
     0
 10
23323.545870999969
 20
20415.540976000011
 30
0.0
 40
15.0
 50
0.0
 51
180.0
  0
ARC
  5
4443
  8
0
  6
BYBLOCK
 62
     0
 10
24782.54587099998
 20
20415.540976000011
 30
0.0
 40
15.0
 50
180.0
 51
0.0
  0
ARC
  5
4444
  8
0
  6
BYBLOCK
 62
     0
 10
24782.54587099998
 20
20415.540976000011
 30
0.0
 40
15.0
 50
0.0
 51
180.0
  0
ARC
  5
4445
  8
0
  6
BYBLOCK
 62
     0
 10
24825.042175999981
 20
20415.540976000011
 30
0.0
 40
15.0
 50
0.0
 51
180.0
  0
ARC
  5
4446
  8
0
  6
BYBLOCK
 62
     0
 10
24825.042175999981
 20
20415.540976000011
 30
0.0
 40
15.0
 50
180.0
 51
0.0
  0
ARC
  5
4447
  8
0
  6
BYBLOCK
 62
     0
 10
19647.54587099998
 20
20415.540976000011
 30
0.0
 40
15.0
 50
0.0
 51
180.0
  0
ARC
  5
4448
  8
0
  6
BYBLOCK
 62
     0
 10
19647.54587099998
 20
20415.540976000011
 30
0.0
 40
15.0
 50
180.0
 51
0.0
  0
ARC
  5
4449
  8
0
  6
BYBLOCK
 62
     0
 10
20055.04587099998
 20
20415.540976000011
 30
0.0
 40
15.0
 50
180.0
 51
0.0
  0
ARC
  5
444A
  8
0
  6
BYBLOCK
 62
     0
 10
20055.04587099998
 20
20415.540976000011
 30
0.0
 40
15.0
 50
0.0
 51
180.0
  0
ARC
  5
444B
  8
0
  6
BYBLOCK
 62
     0
 10
19647.54587099998
 20
20415.540976000011
 30
0.0
 40
15.0
 50
0.0
 51
180.0
  0
ARC
  5
444C
  8
0
  6
BYBLOCK
 62
     0
 10
19647.54587099998
 20
20415.540976000011
 30
0.0
 40
15.0
 50
180.0
 51
0.0
  0
ARC
  5
444D
  8
0
  6
BYBLOCK
 62
     0
 10
19605.049565999969
 20
20415.540976000011
 30
0.0
 40
15.0
 50
180.0
 51
0.0
  0
ARC
  5
444E
  8
0
  6
BYBLOCK
 62
     0
 10
19605.049565999969
 20
20415.540976000011
 30
0.0
 40
15.0
 50
0.0
 51
180.0
  0
ARC
  5
444F
  8
0
  6
BYBLOCK
 62
     0
 10
21457.04587099998
 20
20415.540976000011
 30
0.0
 40
15.0
 50
0.0
 51
180.0
  0
ARC
  5
4450
  8
0
  6
BYBLOCK
 62
     0
 10
21457.04587099998
 20
20415.540976000011
 30
0.0
 40
15.0
 50
180.0
 51
0.0
  0
ARC
  5
4451
  8
0
  6
BYBLOCK
 62
     0
 10
22215.046860499991
 20
20415.540976000011
 30
0.0
 40
15.0
 50
180.0
 51
0.0
  0
ARC
  5
4452
  8
0
  6
BYBLOCK
 62
     0
 10
22215.046860499991
 20
20415.540976000011
 30
0.0
 40
15.0
 50
0.0
 51
180.0
  0
ARC
  5
4453
  8
0
  6
BYBLOCK
 62
     0
 10
20756.04587099998
 20
20415.540976000011
 30
0.0
 40
15.0
 50
0.0
 51
180.0
  0
ARC
  5
4454
  8
0
  6
BYBLOCK
 62
     0
 10
20756.04587099998
 20
20415.540976000011
 30
0.0
 40
15.0
 50
180.0
 51
0.0
  0
ARC
  5
4455
  8
0
  6
BYBLOCK
 62
     0
 10
21457.04587099998
 20
20415.540976000011
 30
0.0
 40
15.0
 50
180.0
 51
0.0
  0
ARC
  5
4456
  8
0
  6
BYBLOCK
 62
     0
 10
21457.04587099998
 20
20415.540976000011
 30
0.0
 40
15.0
 50
0.0
 51
180.0
  0
ARC
  5
4457
  8
0
  6
BYBLOCK
 62
     0
 10
20055.04587099998
 20
20415.540976000011
 30
0.0
 40
15.0
 50
0.0
 51
180.0
  0
ARC
  5
4458
  8
0
  6
BYBLOCK
 62
     0
 10
20055.04587099998
 20
20415.540976000011
 30
0.0
 40
15.0
 50
180.0
 51
0.0
  0
ARC
  5
4459
  8
0
  6
BYBLOCK
 62
     0
 10
20756.04587099998
 20
20415.540976000011
 30
0.0
 40
15.0
 50
180.0
 51
0.0
  0
ARC
  5
445A
  8
0
  6
BYBLOCK
 62
     0
 10
20756.04587099998
 20
20415.540976000011
 30
0.0
 40
15.0
 50
0.0
 51
180.0
  0
ARC
  5
445B
  8
0
  6
BYBLOCK
 62
     0
 10
18797.54653099996
 20
6367.0884779999951
 30
0.0
 40
15.0
 50
90.0
 51
270.0
  0
ARC
  5
445C
  8
0
  6
BYBLOCK
 62
     0
 10
18797.54653099996
 20
6367.0884779999951
 30
0.0
 40
15.0
 50
270.0
 51
90.0
  0
ARC
  5
445D
  8
0
  6
BYBLOCK
 62
     0
 10
18797.546530999982
 20
8258.588477999996
 30
0.0
 40
15.0
 50
270.0
 51
90.0
  0
ARC
  5
445E
  8
0
  6
BYBLOCK
 62
     0
 10
18797.546530999982
 20
8258.588477999996
 30
0.0
 40
15.0
 50
90.0
 51
270.0
  0
ARC
  5
445F
  8
0
  6
BYBLOCK
 62
     0
 10
18397.54422199995
 20
6367.0884779999969
 30
0.0
 40
15.0
 50
90.0
 51
270.0
  0
ARC
  5
4460
  8
0
  6
BYBLOCK
 62
     0
 10
18397.54422199995
 20
6367.0884779999969
 30
0.0
 40
15.0
 50
270.0
 51
90.0
  0
ARC
  5
4461
  8
0
  6
BYBLOCK
 62
     0
 10
18397.54422199995
 20
8716.0879829999994
 30
0.0
 40
15.0
 50
270.0
 51
90.0
  0
ARC
  5
4462
  8
0
  6
BYBLOCK
 62
     0
 10
18397.54422199995
 20
8716.0879829999994
 30
0.0
 40
15.0
 50
90.0
 51
270.0
  0
ARC
  5
4463
  8
0
  6
BYBLOCK
 62
     0
 10
19562.043495999958
 20
9915.0464390000016
 30
0.0
 40
15.0
 50
0.0
 51
180.0
  0
ARC
  5
4464
  8
0
  6
BYBLOCK
 62
     0
 10
19562.043495999958
 20
9915.0464390000016
 30
0.0
 40
15.0
 50
180.0
 51
0.0
  0
ARC
  5
4465
  8
0
  6
BYBLOCK
 62
     0
 10
24868.04824599998
 20
9915.0464390000016
 30
0.0
 40
15.0
 50
180.0
 51
0.0
  0
ARC
  5
4466
  8
0
  6
BYBLOCK
 62
     0
 10
24868.04824599998
 20
9915.0464390000016
 30
0.0
 40
15.0
 50
0.0
 51
180.0
  0
ARC
  5
4467
  8
0
  6
BYBLOCK
 62
     0
 10
19605.04560699996
 20
9515.0886689999988
 30
0.0
 40
15.0
 50
0.0
 51
180.0
  0
ARC
  5
4468
  8
0
  6
BYBLOCK
 62
     0
 10
19605.04560699996
 20
9515.0886689999988
 30
0.0
 40
15.0
 50
180.0
 51
0.0
  0
ARC
  5
4469
  8
0
  6
BYBLOCK
 62
     0
 10
24825.04613499996
 20
9515.0886689999988
 30
0.0
 40
15.0
 50
180.0
 51
0.0
  0
ARC
  5
446A
  8
0
  6
BYBLOCK
 62
     0
 10
24825.04613499996
 20
9515.0886689999988
 30
0.0
 40
15.0
 50
0.0
 51
180.0
  0
ARC
  5
446B
  8
0
  6
BYBLOCK
 62
     0
 10
19605.04560699996
 20
9515.0886689999988
 30
0.0
 40
15.0
 50
0.0
 51
180.0
  0
ARC
  5
446C
  8
0
  6
BYBLOCK
 62
     0
 10
19605.04560699996
 20
9515.0886689999988
 30
0.0
 40
15.0
 50
180.0
 51
0.0
  0
ARC
  5
446D
  8
0
  6
BYBLOCK
 62
     0
 10
19562.043495999958
 20
9515.0886689999988
 30
0.0
 40
15.0
 50
180.0
 51
0.0
  0
ARC
  5
446E
  8
0
  6
BYBLOCK
 62
     0
 10
19562.043495999958
 20
9515.0886689999988
 30
0.0
 40
15.0
 50
0.0
 51
180.0
  0
ARC
  5
446F
  8
0
  6
BYBLOCK
 62
     0
 10
24825.04613499996
 20
9515.0886689999988
 30
0.0
 40
15.0
 50
180.0
 51
0.0
  0
ARC
  5
4470
  8
0
  6
BYBLOCK
 62
     0
 10
24825.04613499996
 20
9515.0886689999988
 30
0.0
 40
15.0
 50
0.0
 51
180.0
  0
ARC
  5
4471
  8
0
  6
BYBLOCK
 62
     0
 10
24868.04824599998
 20
9515.0886689999988
 30
0.0
 40
15.0
 50
0.0
 51
180.0
  0
ARC
  5
4472
  8
0
  6
BYBLOCK
 62
     0
 10
24868.04824599998
 20
9515.0886689999988
 30
0.0
 40
15.0
 50
180.0
 51
0.0
  0
ARC
  5
4473
  8
0
  6
BYBLOCK
 62
     0
 10
19741.54587099998
 20
5467.088643000001
 30
0.0
 40
15.0
 50
0.0
 51
180.0
  0
ARC
  5
4474
  8
0
  6
BYBLOCK
 62
     0
 10
19741.54587099998
 20
5467.088643000001
 30
0.0
 40
15.0
 50
180.0
 51
0.0
  0
ARC
  5
4475
  8
0
  6
BYBLOCK
 62
     0
 10
22121.04587099998
 20
5467.088643000001
 30
0.0
 40
15.0
 50
180.0
 51
0.0
  0
ARC
  5
4476
  8
0
  6
BYBLOCK
 62
     0
 10
22121.04587099998
 20
5467.088643000001
 30
0.0
 40
15.0
 50
0.0
 51
180.0
  0
ARC
  5
4477
  8
0
  6
BYBLOCK
 62
     0
 10
22309.04587099998
 20
5467.088643000001
 30
0.0
 40
15.0
 50
0.0
 51
180.0
  0
ARC
  5
4478
  8
0
  6
BYBLOCK
 62
     0
 10
22309.04587099998
 20
5467.088643000001
 30
0.0
 40
15.0
 50
180.0
 51
0.0
  0
ARC
  5
4479
  8
0
  6
BYBLOCK
 62
     0
 10
24688.54587099998
 20
5467.088643000001
 30
0.0
 40
15.0
 50
180.0
 51
0.0
  0
ARC
  5
447A
  8
0
  6
BYBLOCK
 62
     0
 10
24688.54587099998
 20
5467.088643000001
 30
0.0
 40
15.0
 50
0.0
 51
180.0
  0
ARC
  5
447B
  8
0
  6
BYBLOCK
 62
     0
 10
22215.04587099998
 20
5067.088643000001
 30
0.0
 40
15.0
 50
0.0
 51
180.0
  0
ARC
  5
447C
  8
0
  6
BYBLOCK
 62
     0
 10
22215.04587099998
 20
5067.088643000001
 30
0.0
 40
15.0
 50
180.0
 51
0.0
  0
ARC
  5
447D
  8
0
  6
BYBLOCK
 62
     0
 10
24782.54587099998
 20
5067.088643000001
 30
0.0
 40
15.0
 50
180.0
 51
0.0
  0
ARC
  5
447E
  8
0
  6
BYBLOCK
 62
     0
 10
24782.54587099998
 20
5067.088643000001
 30
0.0
 40
15.0
 50
0.0
 51
180.0
  0
ARC
  5
447F
  8
0
  6
BYBLOCK
 62
     0
 10
19647.54587099998
 20
5067.088643000001
 30
0.0
 40
15.0
 50
0.0
 51
180.0
  0
ARC
  5
4480
  8
0
  6
BYBLOCK
 62
     0
 10
19647.54587099998
 20
5067.088643000001
 30
0.0
 40
15.0
 50
180.0
 51
0.0
  0
ARC
  5
4481
  8
0
  6
BYBLOCK
 62
     0
 10
22215.04587099998
 20
5067.088643000001
 30
0.0
 40
15.0
 50
180.0
 51
0.0
  0
ARC
  5
4482
  8
0
  6
BYBLOCK
 62
     0
 10
22215.04587099998
 20
5067.088643000001
 30
0.0
 40
15.0
 50
0.0
 51
180.0
  0
ARC
  5
4483
  8
0
  6
BYBLOCK
 62
     0
 10
24782.549829999982
 20
5067.088643000001
 30
0.0
 40
15.0
 50
180.0
 51
0.0
  0
ARC
  5
4484
  8
0
  6
BYBLOCK
 62
     0
 10
24782.549829999982
 20
5067.088643000001
 30
0.0
 40
15.0
 50
0.0
 51
180.0
  0
ARC
  5
4485
  8
0
  6
BYBLOCK
 62
     0
 10
24825.049829999989
 20
5067.088643000001
 30
0.0
 40
15.0
 50
0.0
 51
180.0
  0
ARC
  5
4486
  8
0
  6
BYBLOCK
 62
     0
 10
24825.049829999989
 20
5067.088643000001
 30
0.0
 40
15.0
 50
180.0
 51
0.0
  0
ARC
  5
4487
  8
0
  6
BYBLOCK
 62
     0
 10
19647.54587099998
 20
5067.088643000001
 30
0.0
 40
15.0
 50
0.0
 51
180.0
  0
ARC
  5
4488
  8
0
  6
BYBLOCK
 62
     0
 10
19647.54587099998
 20
5067.088643000001
 30
0.0
 40
15.0
 50
180.0
 51
0.0
  0
ARC
  5
4489
  8
0
  6
BYBLOCK
 62
     0
 10
19605.04587099998
 20
5067.088643000001
 30
0.0
 40
15.0
 50
180.0
 51
0.0
  0
ARC
  5
448A
  8
0
  6
BYBLOCK
 62
     0
 10
19605.04587099998
 20
5067.088643000001
 30
0.0
 40
15.0
 50
0.0
 51
180.0
  0
ARC
  5
448B
  8
0
  6
BYBLOCK
 62
     0
 10
19605.04587099998
 20
4667.0888079999986
 30
0.0
 40
15.0
 50
0.0
 51
180.0
  0
ARC
  5
448C
  8
0
  6
BYBLOCK
 62
     0
 10
19605.04587099998
 20
4667.0888079999986
 30
0.0
 40
15.0
 50
180.0
 51
0.0
  0
ARC
  5
448D
  8
0
  6
BYBLOCK
 62
     0
 10
24825.045870999969
 20
4667.0888079999986
 30
0.0
 40
15.0
 50
180.0
 51
0.0
  0
ARC
  5
448E
  8
0
  6
BYBLOCK
 62
     0
 10
24825.045870999969
 20
4667.0888079999986
 30
0.0
 40
15.0
 50
0.0
 51
180.0
  0
ARC
  5
448F
  8
0
  6
BYBLOCK
 62
     0
 10
15261.788825
 20
6367.0884780000006
 30
0.0
 40
15.0
 50
90.0
 51
270.0
  0
ARC
  5
4490
  8
0
  6
BYBLOCK
 62
     0
 10
15261.788825
 20
6367.0884780000006
 30
0.0
 40
15.0
 50
270.0
 51
90.0
  0
ARC
  5
4491
  8
0
  6
BYBLOCK
 62
     0
 10
15261.788825
 20
8716.0884780000033
 30
0.0
 40
15.0
 50
270.0
 51
90.0
  0
ARC
  5
4492
  8
0
  6
BYBLOCK
 62
     0
 10
15261.788825
 20
8716.0884780000033
 30
0.0
 40
15.0
 50
90.0
 51
270.0
  0
ARC
  5
4493
  8
0
  6
BYBLOCK
 62
     0
 10
7861.7900130000007
 20
6367.0884780000006
 30
0.0
 40
15.0
 50
90.0
 51
270.0
  0
ARC
  5
4494
  8
0
  6
BYBLOCK
 62
     0
 10
7861.7900130000007
 20
6367.0884780000006
 30
0.0
 40
15.0
 50
270.0
 51
90.0
  0
ARC
  5
4495
  8
0
  6
BYBLOCK
 62
     0
 10
7861.7900130000007
 20
8522.5884780000015
 30
0.0
 40
15.0
 50
270.0
 51
90.0
  0
ARC
  5
4496
  8
0
  6
BYBLOCK
 62
     0
 10
7861.7900130000007
 20
8522.5884780000015
 30
0.0
 40
15.0
 50
90.0
 51
270.0
  0
ARC
  5
4497
  8
0
  6
BYBLOCK
 62
     0
 10
14171.79040899999
 20
9515.0901529999974
 30
0.0
 40
15.0
 50
180.0
 51
0.0
  0
ARC
  5
4498
  8
0
  6
BYBLOCK
 62
     0
 10
14171.79040899999
 20
9515.0901529999974
 30
0.0
 40
15.0
 50
0.0
 51
180.0
  0
ARC
  5
4499
  8
0
  6
BYBLOCK
 62
     0
 10
14321.79040899999
 20
9515.0901529999974
 30
0.0
 40
15.0
 50
0.0
 51
180.0
  0
ARC
  5
449A
  8
0
  6
BYBLOCK
 62
     0
 10
14321.79040899999
 20
9515.0901529999974
 30
0.0
 40
15.0
 50
180.0
 51
0.0
  0
ARC
  5
449B
  8
0
  6
BYBLOCK
 62
     0
 10
8771.7904090000011
 20
9915.088502999999
 30
0.0
 40
15.0
 50
0.0
 51
180.0
  0
ARC
  5
449C
  8
0
  6
BYBLOCK
 62
     0
 10
8771.7904090000011
 20
9915.088502999999
 30
0.0
 40
15.0
 50
180.0
 51
0.0
  0
ARC
  5
449D
  8
0
  6
BYBLOCK
 62
     0
 10
14321.79040899999
 20
9915.088502999999
 30
0.0
 40
15.0
 50
180.0
 51
0.0
  0
ARC
  5
449E
  8
0
  6
BYBLOCK
 62
     0
 10
14321.79040899999
 20
9915.088502999999
 30
0.0
 40
15.0
 50
0.0
 51
180.0
  0
ARC
  5
449F
  8
0
  6
BYBLOCK
 62
     0
 10
8951.7904090000011
 20
9515.0901529999974
 30
0.0
 40
15.0
 50
0.0
 51
180.0
  0
ARC
  5
44A0
  8
0
  6
BYBLOCK
 62
     0
 10
8951.7904090000011
 20
9515.0901529999974
 30
0.0
 40
15.0
 50
180.0
 51
0.0
  0
ARC
  5
44A1
  8
0
  6
BYBLOCK
 62
     0
 10
14171.79040899999
 20
9515.0901529999974
 30
0.0
 40
15.0
 50
180.0
 51
0.0
  0
ARC
  5
44A2
  8
0
  6
BYBLOCK
 62
     0
 10
14171.79040899999
 20
9515.0901529999974
 30
0.0
 40
15.0
 50
0.0
 51
180.0
  0
ARC
  5
44A3
  8
0
  6
BYBLOCK
 62
     0
 10
8771.7904090000011
 20
9515.0901529999974
 30
0.0
 40
15.0
 50
0.0
 51
180.0
  0
ARC
  5
44A4
  8
0
  6
BYBLOCK
 62
     0
 10
8771.7904090000011
 20
9515.0901529999974
 30
0.0
 40
15.0
 50
180.0
 51
0.0
  0
ARC
  5
44A5
  8
0
  6
BYBLOCK
 62
     0
 10
8951.7904090000011
 20
9515.0901529999974
 30
0.0
 40
15.0
 50
180.0
 51
0.0
  0
ARC
  5
44A6
  8
0
  6
BYBLOCK
 62
     0
 10
8951.7904090000011
 20
9515.0901529999974
 30
0.0
 40
15.0
 50
0.0
 51
180.0
  0
ARC
  5
44A7
  8
0
  6
BYBLOCK
 62
     0
 10
14129.28842999999
 20
5067.0886419999961
 30
0.0
 40
15.0
 50
180.0
 51
0.0
  0
ARC
  5
44A8
  8
0
  6
BYBLOCK
 62
     0
 10
14129.28842999999
 20
5067.0886419999961
 30
0.0
 40
15.0
 50
0.0
 51
180.0
  0
ARC
  5
44A9
  8
0
  6
BYBLOCK
 62
     0
 10
14171.788430000001
 20
5067.0886419999961
 30
0.0
 40
15.0
 50
0.0
 51
180.0
  0
ARC
  5
44AA
  8
0
  6
BYBLOCK
 62
     0
 10
14171.788430000001
 20
5067.0886419999961
 30
0.0
 40
15.0
 50
180.0
 51
0.0
  0
ARC
  5
44AB
  8
0
  6
BYBLOCK
 62
     0
 10
11561.79040899999
 20
5067.088643000001
 30
0.0
 40
15.0
 50
0.0
 51
180.0
  0
ARC
  5
44AC
  8
0
  6
BYBLOCK
 62
     0
 10
11561.79040899999
 20
5067.088643000001
 30
0.0
 40
15.0
 50
180.0
 51
0.0
  0
ARC
  5
44AD
  8
0
  6
BYBLOCK
 62
     0
 10
14129.29040899999
 20
5067.088643000001
 30
0.0
 40
15.0
 50
180.0
 51
0.0
  0
ARC
  5
44AE
  8
0
  6
BYBLOCK
 62
     0
 10
14129.29040899999
 20
5067.088643000001
 30
0.0
 40
15.0
 50
0.0
 51
180.0
  0
ARC
  5
44AF
  8
0
  6
BYBLOCK
 62
     0
 10
8951.7904090000011
 20
4667.0888069999983
 30
0.0
 40
15.0
 50
0.0
 51
180.0
  0
ARC
  5
44B0
  8
0
  6
BYBLOCK
 62
     0
 10
8951.7904090000011
 20
4667.0888069999983
 30
0.0
 40
15.0
 50
180.0
 51
0.0
  0
ARC
  5
44B1
  8
0
  6
BYBLOCK
 62
     0
 10
14171.788430000001
 20
4667.0888069999983
 30
0.0
 40
15.0
 50
180.0
 51
0.0
  0
ARC
  5
44B2
  8
0
  6
BYBLOCK
 62
     0
 10
14171.788430000001
 20
4667.0888069999983
 30
0.0
 40
15.0
 50
0.0
 51
180.0
  0
ARC
  5
44B3
  8
0
  6
BYBLOCK
 62
     0
 10
8994.2904090000029
 20
5067.0886419999961
 30
0.0
 40
15.0
 50
0.0
 51
180.0
  0
ARC
  5
44B4
  8
0
  6
BYBLOCK
 62
     0
 10
8994.2904090000029
 20
5067.0886419999961
 30
0.0
 40
15.0
 50
180.0
 51
0.0
  0
ARC
  5
44B5
  8
0
  6
BYBLOCK
 62
     0
 10
8951.7904090000011
 20
5067.0886419999961
 30
0.0
 40
15.0
 50
180.0
 51
0.0
  0
ARC
  5
44B6
  8
0
  6
BYBLOCK
 62
     0
 10
8951.7904090000011
 20
5067.0886419999961
 30
0.0
 40
15.0
 50
0.0
 51
180.0
  0
ARC
  5
44B7
  8
0
  6
BYBLOCK
 62
     0
 10
11561.79040899999
 20
5067.0886419999961
 30
0.0
 40
15.0
 50
180.0
 51
0.0
  0
ARC
  5
44B8
  8
0
  6
BYBLOCK
 62
     0
 10
11561.79040899999
 20
5067.0886419999961
 30
0.0
 40
15.0
 50
0.0
 51
180.0
  0
ARC
  5
44B9
  8
0
  6
BYBLOCK
 62
     0
 10
8994.2904090000029
 20
5067.0886419999961
 30
0.0
 40
15.0
 50
0.0
 51
180.0
  0
ARC
  5
44BA
  8
0
  6
BYBLOCK
 62
     0
 10
8994.2904090000029
 20
5067.0886419999961
 30
0.0
 40
15.0
 50
180.0
 51
0.0
  0
TEXT
  5
4617
  8
NAME
 10
24033.053546554009
 20
1076.0
 30
0.0
 40
360.0
  1
H
 41
0.6700000000000002
  7
00
  0
TEXT
  5
4618
  8
NAME
 10
23657.221561973682
 20
1076.0
 30
0.0
 40
360.0
  1
（ ）
  7
01
  0
TEXT
  5
461A
  8
NAME
 10
21933.552716389011
 20
1876.0
 30
0.0
 40
360.0
  1
ヨドガレージ ラヴィージュ
 41
0.75
  7
01
  0
TEXT
  5
461B
  8
NAME
 10
21816.089515848402
 20
1076.6369801169251
 30
0.0
 40
360.0
  1
VGC-2652
 41
0.6700000000000002
  0
LINE
  5
461C
  8
NAME
  6
CONTINUOUS
 10
26067.886878884299
 20
2236.0
 30
0.0
 11
26067.886878884299
 21
1876.0
 31
0.0
  0
LINE
  5
461D
  8
NAME
  6
CONTINUOUS
 10
26167.886878884299
 20
2236.0
 30
0.0
 11
26167.886878884299
 21
1876.0
 31
0.0
  0
LINE
  5
461E
  8
NAME
  6
CONTINUOUS
 10
26267.88687888431
 20
2236.0
 30
0.0
 11
26267.88687888431
 21
1876.0
 31
0.0
  0
LINE
  5
461F
  8
NAME
  6
CONTINUOUS
 10
26007.886878884299
 20
2236.0
 30
0.0
 11
26327.886878884299
 21
2236.0
 31
0.0
  0
LINE
  5
4620
  8
NAME
  6
CONTINUOUS
 10
26327.886878884299
 20
1876.0
 30
0.0
 11
26007.886878884299
 21
1876.0
 31
0.0
  0
TEXT
  5
4622
  8
NAME
 10
25346.041792426669
 20
1076.0
 30
0.0
 40
360.0
  1
2
 41
0.6700000000000002
  7
00
  0
TEXT
  5
466B
  8
NAME
 10
24557.214549256722
 20
1076.0
 30
0.0
 40
360.0
  1
型（ 連棟）
  7
01
  0
LINE
  5
46C7
  8
2-0
  6
CONTINUOUS
 62
     3
 10
24813.042333999991
 20
14931.373957
 30
0.0
 11
24820.04389099999
 21
14931.373957
 31
0.0
  0
LINE
  5
46C8
  8
2-0
  6
CONTINUOUS
 62
     3
 10
24820.04389099999
 20
14931.373957
 30
0.0
 11
24820.04389099999
 21
14926.379632
 31
0.0
  0
LINE
  5
46C9
  8
2-0
  6
CONTINUOUS
 62
     3
 10
24820.04389099999
 20
14926.379632
 30
0.0
 11
24795.04653099996
 21
14926.379632
 31
0.0
  0
LINE
  5
46CA
  8
2-0
  6
CONTINUOUS
 62
     3
 10
24795.04653099996
 20
14926.379632
 30
0.0
 11
24795.04653099996
 21
14944.375435000011
 31
0.0
  0
LINE
  5
46CB
  8
2-0
  6
CONTINUOUS
 62
     3
 10
24795.04653099996
 20
14944.375435000011
 30
0.0
 11
24825.044154999981
 21
14944.375435000011
 31
0.0
  0
LINE
  5
46CC
  8
2-0
  6
CONTINUOUS
 62
     3
 10
24795.04653099996
 20
14928.277990000001
 30
0.0
 11
24795.04653099996
 21
14934.27989000002
 31
0.0
  0
LINE
  5
46CD
  8
2-0
  6
CONTINUOUS
 62
     3
 10
24795.04653099996
 20
14934.27989000002
 30
0.0
 11
24825.044154999981
 21
14934.27989000002
 31
0.0
  0
LINE
  5
46CE
  8
2-0
  6
CONTINUOUS
 62
     3
 10
24825.044154999981
 20
14897.28070900001
 30
0.0
 11
24825.044154999981
 21
14934.27989000002
 31
0.0
  0
LINE
  5
46CF
  8
2-0
  6
CONTINUOUS
 62
     3
 10
24795.04653099996
 20
14897.28070900001
 30
0.0
 11
24825.044154999981
 21
14897.28070900001
 31
0.0
  0
LINE
  5
46D0
  8
2-0
  6
CONTINUOUS
 62
     3
 10
24795.04653099996
 20
14903.27766
 30
0.0
 11
24795.04653099996
 21
14897.28070900001
 31
0.0
  0
LINE
  5
46D1
  8
2-0
  6
CONTINUOUS
 62
     3
 10
24795.04653099996
 20
14887.179225
 30
0.0
 11
24825.044154999981
 21
14887.179225
 31
0.0
  0
LINE
  5
46D2
  8
2-0
  6
CONTINUOUS
 62
     3
 10
24795.04653099996
 20
14905.186906000001
 30
0.0
 11
24795.04653099996
 21
14887.179225
 31
0.0
  0
LINE
  5
46D3
  8
2-0
  6
CONTINUOUS
 62
     3
 10
24820.04389099999
 20
14905.186906000001
 30
0.0
 11
24795.04653099996
 21
14905.186906000001
 31
0.0
  0
LINE
  5
46D4
  8
2-0
  6
CONTINUOUS
 62
     3
 10
24820.04389099999
 20
14900.186642000001
 30
0.0
 11
24820.04389099999
 21
14905.186906000001
 31
0.0
  0
LINE
  5
46D5
  8
2-0
  6
CONTINUOUS
 62
     3
 10
24813.042333999991
 20
14900.186642000001
 30
0.0
 11
24820.04389099999
 21
14900.186642000001
 31
0.0
  0
LINE
  5
46D6
  8
2-0
  6
CONTINUOUS
 62
     3
 10
19617.051386999949
 20
14931.373957
 30
0.0
 11
19610.053788999969
 21
14931.373957
 31
0.0
  0
LINE
  5
46D7
  8
2-0
  6
CONTINUOUS
 62
     3
 10
19610.053788999969
 20
14931.373957
 30
0.0
 11
19610.053788999969
 21
14926.379632
 31
0.0
  0
LINE
  5
46D8
  8
2-0
  6
CONTINUOUS
 62
     3
 10
19610.053788999969
 20
14926.379632
 30
0.0
 11
19635.047190999969
 21
14926.379632
 31
0.0
  0
LINE
  5
46D9
  8
2-0
  6
CONTINUOUS
 62
     3
 10
19635.047190999969
 20
14926.379632
 30
0.0
 11
19635.047190999969
 21
14944.375435000011
 31
0.0
  0
LINE
  5
46DA
  8
2-0
  6
CONTINUOUS
 62
     3
 10
19635.047190999969
 20
14944.375435000011
 30
0.0
 11
19605.049565999969
 21
14944.375435000011
 31
0.0
  0
LINE
  5
46DB
  8
2-0
  6
CONTINUOUS
 62
     3
 10
19635.047190999969
 20
14928.277990000001
 30
0.0
 11
19635.047190999969
 21
14934.27989000002
 31
0.0
  0
LINE
  5
46DC
  8
2-0
  6
CONTINUOUS
 62
     3
 10
19635.047190999969
 20
14934.27989000002
 30
0.0
 11
19605.049565999969
 21
14934.27989000002
 31
0.0
  0
LINE
  5
46DD
  8
2-0
  6
CONTINUOUS
 62
     3
 10
19605.049565999969
 20
14897.28070900001
 30
0.0
 11
19605.049565999969
 21
14934.27989000002
 31
0.0
  0
LINE
  5
46DE
  8
2-0
  6
CONTINUOUS
 62
     3
 10
19635.047190999969
 20
14897.28070900001
 30
0.0
 11
19605.049565999969
 21
14897.28070900001
 31
0.0
  0
LINE
  5
46DF
  8
2-0
  6
CONTINUOUS
 62
     3
 10
19635.047190999969
 20
14903.27766
 30
0.0
 11
19635.047190999969
 21
14897.28070900001
 31
0.0
  0
LINE
  5
46E0
  8
2-0
  6
CONTINUOUS
 62
     3
 10
19635.047190999969
 20
14887.179225
 30
0.0
 11
19605.049565999969
 21
14887.179225
 31
0.0
  0
LINE
  5
46E1
  8
2-0
  6
CONTINUOUS
 62
     3
 10
19635.047190999969
 20
14905.186906000001
 30
0.0
 11
19635.047190999969
 21
14887.179225
 31
0.0
  0
LINE
  5
46E2
  8
2-0
  6
CONTINUOUS
 62
     3
 10
19610.053788999969
 20
14905.186906000001
 30
0.0
 11
19635.047190999969
 21
14905.186906000001
 31
0.0
  0
LINE
  5
46E3
  8
2-0
  6
CONTINUOUS
 62
     3
 10
19610.053788999969
 20
14900.186642000001
 30
0.0
 11
19610.053788999969
 21
14905.186906000001
 31
0.0
  0
LINE
  5
46E4
  8
2-0
  6
CONTINUOUS
 62
     3
 10
19617.051386999949
 20
14900.186642000001
 30
0.0
 11
19610.053788999969
 21
14900.186642000001
 31
0.0
  0
LINE
  5
46E5
  8
2-0
  6
CONTINUOUS
 62
     3
 10
24825.044154999981
 20
14934.27989000002
 30
0.0
 11
24825.044154999981
 21
14897.28070900001
 31
0.0
  0
LINE
  5
46E8
  8
2-0
  6
CONTINUOUS
 62
     3
 10
24825.044154999981
 20
14887.179225
 30
0.0
 11
24825.044154999981
 21
14590.57779499999
 31
0.0
  0
LINE
  5
46E9
  8
2-0
  6
CONTINUOUS
 62
     3
 10
19605.049565999969
 20
14944.375435000011
 30
0.0
 11
19605.049565999969
 21
15588.179225
 31
0.0
  0
LINE
  5
46EA
  8
2-0
  6
CONTINUOUS
 62
     3
 10
19605.049565999969
 20
14897.28070900001
 30
0.0
 11
19605.049565999969
 21
14934.27989000002
 31
0.0
  0
TEXT
  5
4818
  8
FILENAME
  6
CONTINUOUS
 10
28756.38095238095
 20
348.0
 30
0.0
 40
200.0
  1
＜VGC-2652-2-A_0.DXF ＞
  7
FILENAME
 72
     2
 11
32764.0
 21
348.0
 31
0.0
  0
LINE
  5
481B
  8
WAKUSEN-01
 10
868.00000000000193
 20
827.99999999999955
 30
0.0
 11
32764.000000000011
 21
827.99999999999943
 31
0.0
  0
LINE
  5
481C
  8
WAKUSEN-01
 10
868.00000000000193
 20
22484.000000000011
 30
0.0
 11
32764.000000000011
 21
22484.000000000011
 31
0.0
  0
LINE
  5
481D
  8
WAKUSEN-01
 10
868.00000000000193
 20
827.99999999999955
 30
0.0
 11
868.00000000000193
 21
22484.000000000011
 31
0.0
  0
LINE
  5
481E
  8
WAKUSEN-01
 10
32764.000000000011
 20
827.99999999999943
 30
0.0
 11
32764.000000000011
 21
22484.000000000011
 31
0.0
  0
LINE
  5
481F
  8
WAKUSEN-01
 10
20560.0
 20
2484.0
 30
0.0
 11
32764.0
 21
2484.0
 31
0.0
  0
LINE
  5
4820
  8
WAKUSEN-02
 10
20560.0
 20
1655.9999999999991
 30
0.0
 11
26868.0
 21
1655.9999999999991
 31
0.0
  0
TEXT
  5
4821
  8
WAKUMOJI-01
 10
20670.260259962772
 20
2125.9030093393221
 30
0.0
 40
240.0
  1
名　称
  7
WAKUMOJI
  0
TEXT
  5
4822
  8
WAKUMOJI-01
 10
20656.505485091919
 20
1319.1289749798209
 30
0.0
 40
240.0
  1
機種名
  7
WAKUMOJI
  0
LINE
  5
4823
  8
WAKUSEN-01
 10
20560.0
 20
827.99999999999716
 30
0.0
 11
20560.0
 21
2484.0
 31
0.0
  0
LINE
  5
4824
  8
WAKUSEN-02
 10
26868.0
 20
827.99999999999261
 30
0.0
 11
26868.0
 21
2484.0
 31
0.0
  0
LINE
  5
4825
  8
YODOROGO
 10
29977.604341291921
 20
1995.7494964292871
 30
0.0
 11
29829.604341291921
 21
1995.7494964292871
 31
0.0
1001
AUTOCAD_POSTSCRIPT_FIGURE
1002
{
1000
PSFILL
1000
Grayscale
1000
Grayscale
1070
    25
1002
}
  0
LINE
  5
4826
  8
YODOROGO
 10
29829.604341291921
 20
1947.749496429288
 30
0.0
 11
29977.604341291921
 21
1947.749496429288
 31
0.0
1001
AUTOCAD_POSTSCRIPT_FIGURE
1002
{
1000
PSFILL
1000
Grayscale
1000
Grayscale
1070
    25
1002
}
  0
LINE
  5
4827
  8
YODOROGO
 10
29977.604341291921
 20
1907.7494964292871
 30
0.0
 11
29829.604341291921
 21
1907.7494964292871
 31
0.0
1001
AUTOCAD_POSTSCRIPT_FIGURE
1002
{
1000
PSFILL
1000
Grayscale
1000
Grayscale
1070
    25
1002
}
  0
LINE
  5
4828
  8
YODOROGO
 10
29829.604341291921
 20
1859.749496429288
 30
0.0
 11
29977.604341291921
 21
1859.749496429288
 31
0.0
1001
AUTOCAD_POSTSCRIPT_FIGURE
1002
{
1000
PSFILL
1000
Grayscale
1000
Grayscale
1070
    25
1002
}
  0
LINE
  5
4829
  8
YODOROGO
 10
29977.604341291921
 20
1819.749496429288
 30
0.0
 11
29829.604341291921
 21
1819.749496429288
 31
0.0
1001
AUTOCAD_POSTSCRIPT_FIGURE
1002
{
1000
PSFILL
1000
Grayscale
1000
Grayscale
1070
    25
1002
}
  0
LINE
  5
482A
  8
YODOROGO
 10
29921.60434129191
 20
1707.749496429288
 30
0.0
 11
29977.604341291921
 21
1707.749496429288
 31
0.0
1001
AUTOCAD_POSTSCRIPT_FIGURE
1002
{
1000
PSFILL
1000
Grayscale
1000
Grayscale
1070
    25
1002
}
  0
LINE
  5
482B
  8
YODOROGO
 10
29737.604341291921
 20
1427.749496429288
 30
0.0
 11
29937.604341291932
 21
1481.339334915511
 31
0.0
  0
LINE
  5
482C
  8
YODOROGO
 10
29949.604341291921
 20
1707.749496429288
 30
0.0
 11
29885.604341291921
 21
1707.749496429288
 31
0.0
  0
ARC
  5
482D
  8
YODOROGO
 10
30254.34774982791
 20
1807.8646092332619
 30
0.0
 40
381.88686420564733
 50
213.96111677667849
 51
264.47872074317792
  0
ARC
  5
482E
  8
YODOROGO
 10
30254.347749827921
 20
1807.864609233302
 30
0.0
 40
381.8868642056816
 50
208.14114420486601
 51
212.92103611859949
  0
LINE
  5
482F
  8
YODOROGO
 10
29771.40987298531
 20
1556.807661346234
 30
0.0
 11
29933.78413250855
 21
1600.3157130570869
 31
0.0
  0
LINE
  5
4830
  8
YODOROGO
 10
29737.604341291921
 20
1427.749496429288
 30
0.0
 11
29937.604341291932
 21
1481.339334915511
 31
0.0
  0
LINE
  5
4831
  8
YODOROGO
 10
29949.604341291921
 20
1707.749496429288
 30
0.0
 11
29885.604341291921
 21
1707.749496429288
 31
0.0
  0
ARC
  5
4832
  8
YODOROGO
 10
30254.34774982791
 20
1807.8646092332619
 30
0.0
 40
381.88686420564733
 50
213.96111677667849
 51
264.47872074317792
  0
LINE
  5
4833
  8
YODOROGO
 10
28793.60434129191
 20
1819.749496429288
 30
0.0
 11
28433.60434129191
 21
1819.749496429288
 31
0.0
  0
LINE
  5
4834
  8
YODOROGO
 10
28513.60434129191
 20
1427.749496429288
 30
0.0
 11
28793.60434129191
 21
1427.749496429288
 31
0.0
  0
LINE
  5
4835
  8
YODOROGO
 10
28729.604341291921
 20
1923.7494964292871
 30
0.0
 11
28497.60434129191
 21
1923.7494964292871
 31
0.0
  0
LINE
  5
4836
  8
YODOROGO
 10
28585.604341291921
 20
2027.749496429288
 30
0.0
 11
28657.604341291921
 21
2027.749496429288
 31
0.0
  0
LINE
  5
4837
  8
YODOROGO
 10
28433.60434129191
 20
1707.749496429288
 30
0.0
 11
28433.60434129191
 21
1507.749496429288
 31
0.0
  0
LINE
  5
4838
  8
YODOROGO
 10
28497.60434129191
 20
1563.7494964292871
 30
0.0
 11
28497.60434129191
 21
1707.749496429288
 31
0.0
  0
LINE
  5
4839
  8
YODOROGO
 10
28585.604341291921
 20
1747.74949642929
 30
0.0
 11
28585.604341291921
 21
1547.749496429288
 31
0.0
  0
LINE
  5
483A
  8
YODOROGO
 10
27857.604341291921
 20
1683.7494964292889
 30
0.0
 11
27777.604341291921
 21
1619.972414044571
 31
0.0
  0
LINE
  5
483B
  8
YODOROGO
 10
27937.604341291921
 20
1619.972414044571
 30
0.0
 11
27857.604341291921
 21
1683.7494964292889
 31
0.0
  0
LINE
  5
483C
  8
YODOROGO
 10
27857.604341291921
 20
1707.749496429288
 30
0.0
 11
27937.604341291921
 21
1643.9724140445701
 31
0.0
  0
LINE
  5
483D
  8
YODOROGO
 10
27777.604341291921
 20
1643.9724140445701
 30
0.0
 11
27857.604341291921
 21
1707.749496429288
 31
0.0
  0
LINE
  5
483E
  8
YODOROGO
 10
28040.913204016899
 20
1659.749496429288
 30
0.0
 11
28040.913204016899
 21
1683.7494964292871
 31
0.0
  0
LINE
  5
483F
  8
YODOROGO
 10
27977.604341291921
 20
1683.7494964292871
 30
0.0
 11
27977.604341291921
 21
1667.749496429285
 31
0.0
  0
LINE
  5
4840
  8
YODOROGO
 10
28098.135520230931
 20
1707.749496429288
 30
0.0
 11
28098.135520230931
 21
1655.5036372746561
 31
0.0
1001
AUTOCAD_POSTSCRIPT_FIGURE
1002
{
1000
PSFILL
1000
Grayscale
1000
Grayscale
1070
   100
1002
}
  0
LINE
  5
4841
  8
YODOROGO
 10
28082.135520230921
 20
1655.5036372746561
 30
0.0
 11
28082.135520230921
 21
1707.749496429288
 31
0.0
1001
AUTOCAD_POSTSCRIPT_FIGURE
1002
{
1000
PSFILL
1000
Grayscale
1000
Grayscale
1070
   100
1002
}
  0
LINE
  5
4842
  8
YODOROGO
 10
27809.604341291921
 20
1608.771904043258
 30
0.0
 11
27809.604341291921
 21
1632.7719040432589
 31
0.0
  0
LINE
  5
4843
  8
YODOROGO
 10
27905.604341291921
 20
1608.771904043258
 30
0.0
 11
27809.604341291921
 21
1608.771904043258
 31
0.0
  0
LINE
  5
4844
  8
YODOROGO
 10
27905.604341291921
 20
1632.7719040432589
 30
0.0
 11
27905.604341291921
 21
1608.771904043258
 31
0.0
  0
LINE
  5
4845
  8
YODOROGO
 10
27809.604341291921
 20
1632.7719040432589
 30
0.0
 11
27905.604341291921
 21
1632.7719040432589
 31
0.0
  0
LINE
  5
4846
  8
YODOROGO
 10
27824.509588915749
 20
1568.5028573704751
 30
0.0
 11
27785.604341291921
 21
1475.7494964292871
 31
0.0
1001
AUTOCAD_POSTSCRIPT_FIGURE
1002
{
1000
PSFILL
1000
Grayscale
1000
Grayscale
1070
   100
1002
}
  0
LINE
  5
4847
  8
YODOROGO
 10
27777.604341291921
 20
1568.5028573704751
 30
0.0
 11
27824.509588915749
 21
1568.5028573704751
 31
0.0
1001
AUTOCAD_POSTSCRIPT_FIGURE
1002
{
1000
PSFILL
1000
Grayscale
1000
Grayscale
1070
   100
1002
}
  0
LINE
  5
4848
  8
YODOROGO
 10
27777.604341291921
 20
1588.5028573704751
 30
0.0
 11
27777.604341291921
 21
1568.5028573704751
 31
0.0
1001
AUTOCAD_POSTSCRIPT_FIGURE
1002
{
1000
PSFILL
1000
Grayscale
1000
Grayscale
1070
   100
1002
}
  0
LINE
  5
4849
  8
YODOROGO
 10
27937.604341291921
 20
1588.5028573704751
 30
0.0
 11
27777.604341291921
 21
1588.5028573704751
 31
0.0
1001
AUTOCAD_POSTSCRIPT_FIGURE
1002
{
1000
PSFILL
1000
Grayscale
1000
Grayscale
1070
   100
1002
}
  0
LINE
  5
484A
  8
YODOROGO
 10
27937.604341291921
 20
1568.5028573704751
 30
0.0
 11
27937.604341291921
 21
1588.5028573704751
 31
0.0
1001
AUTOCAD_POSTSCRIPT_FIGURE
1002
{
1000
PSFILL
1000
Grayscale
1000
Grayscale
1070
   100
1002
}
  0
LINE
  5
484B
  8
YODOROGO
 10
27844.509588915749
 20
1568.5028573704751
 30
0.0
 11
27937.604341291921
 21
1568.5028573704751
 31
0.0
1001
AUTOCAD_POSTSCRIPT_FIGURE
1002
{
1000
PSFILL
1000
Grayscale
1000
Grayscale
1070
   100
1002
}
  0
LINE
  5
484C
  8
YODOROGO
 10
27815.546718284779
 20
1495.7494964292871
 30
0.0
 11
27844.509588915749
 21
1568.5028573704751
 31
0.0
1001
AUTOCAD_POSTSCRIPT_FIGURE
1002
{
1000
PSFILL
1000
Grayscale
1000
Grayscale
1070
   100
1002
}
  0
LINE
  5
484D
  8
YODOROGO
 10
27902.054790808648
 20
1495.7494964292871
 30
0.0
 11
27815.546718284779
 21
1495.7494964292871
 31
0.0
1001
AUTOCAD_POSTSCRIPT_FIGURE
1002
{
1000
PSFILL
1000
Grayscale
1000
Grayscale
1070
   100
1002
}
  0
LINE
  5
484E
  8
YODOROGO
 10
27885.065004790951
 20
1536.2338106976929
 30
0.0
 11
27902.054790808648
 21
1495.7494964292871
 31
0.0
1001
AUTOCAD_POSTSCRIPT_FIGURE
1002
{
1000
PSFILL
1000
Grayscale
1000
Grayscale
1070
   100
1002
}
  0
LINE
  5
484F
  8
YODOROGO
 10
27901.065004790951
 20
1536.2338106976929
 30
0.0
 11
27885.065004790951
 21
1536.2338106976929
 31
0.0
1001
AUTOCAD_POSTSCRIPT_FIGURE
1002
{
1000
PSFILL
1000
Grayscale
1000
Grayscale
1070
   100
1002
}
  0
LINE
  5
4850
  8
YODOROGO
 10
27929.604341291921
 20
1475.7494964292871
 30
0.0
 11
27901.065004790951
 21
1536.2338106976929
 31
0.0
1001
AUTOCAD_POSTSCRIPT_FIGURE
1002
{
1000
PSFILL
1000
Grayscale
1000
Grayscale
1070
   100
1002
}
  0
LINE
  5
4851
  8
YODOROGO
 10
27785.604341291921
 20
1475.7494964292871
 30
0.0
 11
27929.604341291921
 21
1475.7494964292871
 31
0.0
1001
AUTOCAD_POSTSCRIPT_FIGURE
1002
{
1000
PSFILL
1000
Grayscale
1000
Grayscale
1070
   100
1002
}
  0
LINE
  5
4852
  8
YODOROGO
 10
27777.604341291921
 20
1619.972414044571
 30
0.0
 11
27777.604341291921
 21
1643.9724140445701
 31
0.0
  0
LINE
  5
4853
  8
YODOROGO
 10
27937.604341291921
 20
1643.9724140445701
 30
0.0
 11
27937.604341291921
 21
1619.972414044571
 31
0.0
  0
ARC
  5
4854
  8
YODOROGO
 10
28225.94044214697
 20
1600.877765325326
 30
0.0
 40
175.99999999999989
 50
280.3644312771313
 51
3.541483659218057
  0
ARC
  5
4855
  8
YODOROGO
 10
28235.756030759301
 20
1633.5978069619041
 30
0.0
 40
111.99999999999829
 50
281.2490582504156
 51
348.75094174958332
  0
LINE
  5
4856
  8
YODOROGO
 10
28257.604341291921
 20
1523.7494964292871
 30
0.0
 11
28257.604341291921
 21
1427.749496429288
 31
0.0
  0
LINE
  5
4857
  8
YODOROGO
 10
28020.088903736902
 20
1610.6505650619149
 30
0.0
 11
28040.913204016899
 21
1659.749496429288
 31
0.0
  0
LINE
  5
4858
  8
YODOROGO
 10
28041.604341291921
 20
1583.120489948401
 30
0.0
 11
28020.088903736902
 21
1610.6505650619149
 31
0.0
  0
LINE
  5
4859
  8
YODOROGO
 10
28041.604341291921
 20
1563.1204899483989
 30
0.0
 11
28041.604341291921
 21
1583.120489948401
 31
0.0
  0
LINE
  5
485A
  8
YODOROGO
 10
28017.604341291921
 20
1585.2370637495301
 30
0.0
 11
28041.604341291921
 21
1563.1204899483989
 31
0.0
  0
LINE
  5
485B
  8
YODOROGO
 10
28017.604341291921
 20
1475.7494964292871
 30
0.0
 11
28017.604341291921
 21
1585.2370637495301
 31
0.0
  0
LINE
  5
485C
  8
YODOROGO
 10
28001.604341291921
 20
1475.7494964292871
 30
0.0
 11
28017.604341291921
 21
1475.7494964292871
 31
0.0
  0
LINE
  5
485D
  8
YODOROGO
 10
28001.604341291921
 20
1580.0053496897481
 30
0.0
 11
28001.604341291921
 21
1475.7494964292871
 31
0.0
  0
LINE
  5
485E
  8
YODOROGO
 10
27977.604341291921
 20
1532.7680790334291
 30
0.0
 11
28001.604341291921
 21
1580.0053496897481
 31
0.0
  0
LINE
  5
485F
  8
YODOROGO
 10
27977.604341291921
 20
1556.76807903343
 30
0.0
 11
27977.604341291921
 21
1532.7680790334291
 31
0.0
  0
LINE
  5
4860
  8
YODOROGO
 10
28025.82877429136
 20
1667.749496429285
 30
0.0
 11
27977.604341291921
 21
1556.76807903343
 31
0.0
  0
LINE
  5
4861
  8
YODOROGO
 10
27977.604341291921
 20
1667.749496429285
 30
0.0
 11
28025.82877429136
 21
1667.749496429285
 31
0.0
  0
LINE
  5
4862
  8
YODOROGO
 10
28050.13552023091
 20
1655.5036372746561
 30
0.0
 11
28082.135520230921
 21
1655.5036372746561
 31
0.0
1001
AUTOCAD_POSTSCRIPT_FIGURE
1002
{
1000
PSFILL
1000
Grayscale
1000
Grayscale
1070
   100
1002
}
  0
LINE
  5
4863
  8
YODOROGO
 10
28050.13552023091
 20
1631.503637274657
 30
0.0
 11
28050.13552023091
 21
1655.5036372746561
 31
0.0
1001
AUTOCAD_POSTSCRIPT_FIGURE
1002
{
1000
PSFILL
1000
Grayscale
1000
Grayscale
1070
   100
1002
}
  0
LINE
  5
4864
  8
YODOROGO
 10
28082.135520230921
 20
1631.503637274657
 30
0.0
 11
28050.13552023091
 21
1631.503637274657
 31
0.0
1001
AUTOCAD_POSTSCRIPT_FIGURE
1002
{
1000
PSFILL
1000
Grayscale
1000
Grayscale
1070
   100
1002
}
  0
LINE
  5
4865
  8
YODOROGO
 10
28082.135520230921
 20
1499.749496429288
 30
0.0
 11
28082.135520230921
 21
1631.503637274657
 31
0.0
1001
AUTOCAD_POSTSCRIPT_FIGURE
1002
{
1000
PSFILL
1000
Grayscale
1000
Grayscale
1070
   100
1002
}
  0
LINE
  5
4866
  8
YODOROGO
 10
28050.135520230931
 20
1499.749496429288
 30
0.0
 11
28082.135520230921
 21
1499.749496429288
 31
0.0
1001
AUTOCAD_POSTSCRIPT_FIGURE
1002
{
1000
PSFILL
1000
Grayscale
1000
Grayscale
1070
   100
1002
}
  0
LINE
  5
4867
  8
YODOROGO
 10
28050.135520230931
 20
1475.7494964292871
 30
0.0
 11
28050.135520230931
 21
1499.749496429288
 31
0.0
1001
AUTOCAD_POSTSCRIPT_FIGURE
1002
{
1000
PSFILL
1000
Grayscale
1000
Grayscale
1070
   100
1002
}
  0
LINE
  5
4868
  8
YODOROGO
 10
28137.604341291921
 20
1475.7494964292871
 30
0.0
 11
28050.135520230931
 21
1475.7494964292871
 31
0.0
1001
AUTOCAD_POSTSCRIPT_FIGURE
1002
{
1000
PSFILL
1000
Grayscale
1000
Grayscale
1070
   100
1002
}
  0
LINE
  5
4869
  8
YODOROGO
 10
28137.604341291921
 20
1499.749496429288
 30
0.0
 11
28137.604341291921
 21
1475.7494964292871
 31
0.0
1001
AUTOCAD_POSTSCRIPT_FIGURE
1002
{
1000
PSFILL
1000
Grayscale
1000
Grayscale
1070
   100
1002
}
  0
LINE
  5
486A
  8
YODOROGO
 10
28098.135520230931
 20
1499.749496429288
 30
0.0
 11
28137.604341291921
 21
1499.749496429288
 31
0.0
1001
AUTOCAD_POSTSCRIPT_FIGURE
1002
{
1000
PSFILL
1000
Grayscale
1000
Grayscale
1070
   100
1002
}
  0
LINE
  5
486B
  8
YODOROGO
 10
28098.135520230931
 20
1631.503637274657
 30
0.0
 11
28098.135520230931
 21
1499.749496429288
 31
0.0
1001
AUTOCAD_POSTSCRIPT_FIGURE
1002
{
1000
PSFILL
1000
Grayscale
1000
Grayscale
1070
   100
1002
}
  0
LINE
  5
486C
  8
YODOROGO
 10
28137.604341291921
 20
1631.503637274657
 30
0.0
 11
28098.135520230931
 21
1631.503637274657
 31
0.0
1001
AUTOCAD_POSTSCRIPT_FIGURE
1002
{
1000
PSFILL
1000
Grayscale
1000
Grayscale
1070
   100
1002
}
  0
LINE
  5
486D
  8
YODOROGO
 10
28137.604341291921
 20
1655.5036372746561
 30
0.0
 11
28137.604341291921
 21
1631.503637274657
 31
0.0
1001
AUTOCAD_POSTSCRIPT_FIGURE
1002
{
1000
PSFILL
1000
Grayscale
1000
Grayscale
1070
   100
1002
}
  0
LINE
  5
486E
  8
YODOROGO
 10
28098.135520230931
 20
1655.5036372746561
 30
0.0
 11
28137.604341291921
 21
1655.5036372746561
 31
0.0
1001
AUTOCAD_POSTSCRIPT_FIGURE
1002
{
1000
PSFILL
1000
Grayscale
1000
Grayscale
1070
   100
1002
}
  0
LINE
  5
486F
  8
YODOROGO
 10
28401.60434129191
 20
1667.749496429288
 30
0.0
 11
28345.604341291921
 21
1667.749496429288
 31
0.0
  0
LINE
  5
4870
  8
YODOROGO
 10
28401.60434129191
 20
1611.7494964292889
 30
0.0
 11
28401.60434129191
 21
1667.749496429288
 31
0.0
  0
LINE
  5
4871
  8
YODOROGO
 10
28345.604341291921
 20
1667.749496429288
 30
0.0
 11
28345.604341291921
 21
1611.7494964292889
 31
0.0
  0
ARC
  5
4872
  8
YODOROGO
 10
28513.60434129191
 20
1507.749496429288
 30
0.0
 40
80.0
 50
180.0
 51
270.0
  0
ARC
  5
4873
  8
YODOROGO
 10
28537.60434129191
 20
1563.7494964292871
 30
0.0
 40
40.0
 50
180.0
 51
270.0
  0
LINE
  5
4874
  8
YODOROGO
 10
28561.604341291932
 20
1523.7494964292871
 30
0.0
 11
28537.60434129191
 21
1523.7494964292871
 31
0.0
  0
ARC
  5
4875
  8
YODOROGO
 10
28561.604341291932
 20
1547.749496429285
 30
0.0
 40
23.999999999996358
 50
270.0
 51
0.0000000000054281
  0
LINE
  5
4876
  8
YODOROGO
 10
27801.604341291921
 20
1890.786580793706
 30
0.0
 11
27777.604341291921
 21
1843.776747951672
 31
0.0
1001
AUTOCAD_POSTSCRIPT_FIGURE
1002
{
1000
PSFILL
1000
Grayscale
1000
Grayscale
1070
   100
1002
}
  0
LINE
  5
4877
  8
YODOROGO
 10
27801.604341291921
 20
1747.7494964292871
 30
0.0
 11
27801.604341291921
 21
1890.786580793706
 31
0.0
1001
AUTOCAD_POSTSCRIPT_FIGURE
1002
{
1000
PSFILL
1000
Grayscale
1000
Grayscale
1070
   100
1002
}
  0
LINE
  5
4878
  8
YODOROGO
 10
27817.604341291921
 20
1747.7494964292871
 30
0.0
 11
27801.604341291921
 21
1747.7494964292871
 31
0.0
1001
AUTOCAD_POSTSCRIPT_FIGURE
1002
{
1000
PSFILL
1000
Grayscale
1000
Grayscale
1070
   100
1002
}
  0
LINE
  5
4879
  8
YODOROGO
 10
27817.604341291921
 20
1893.771332085267
 30
0.0
 11
27817.604341291921
 21
1747.7494964292871
 31
0.0
1001
AUTOCAD_POSTSCRIPT_FIGURE
1002
{
1000
PSFILL
1000
Grayscale
1000
Grayscale
1070
   100
1002
}
  0
LINE
  5
487A
  8
YODOROGO
 10
27841.604341291921
 20
1867.654758284137
 30
0.0
 11
27817.604341291921
 21
1893.771332085267
 31
0.0
1001
AUTOCAD_POSTSCRIPT_FIGURE
1002
{
1000
PSFILL
1000
Grayscale
1000
Grayscale
1070
   100
1002
}
  0
LINE
  5
487B
  8
YODOROGO
 10
27841.604341291921
 20
1883.6547582841361
 30
0.0
 11
27841.604341291921
 21
1867.654758284137
 31
0.0
1001
AUTOCAD_POSTSCRIPT_FIGURE
1002
{
1000
PSFILL
1000
Grayscale
1000
Grayscale
1070
   100
1002
}
  0
LINE
  5
487C
  8
YODOROGO
 10
27817.604341291921
 20
1917.7713320852649
 30
0.0
 11
27841.604341291921
 21
1883.6547582841361
 31
0.0
1001
AUTOCAD_POSTSCRIPT_FIGURE
1002
{
1000
PSFILL
1000
Grayscale
1000
Grayscale
1070
   100
1002
}
  0
LINE
  5
487D
  8
YODOROGO
 10
27817.604341291921
 20
1939.749496429288
 30
0.0
 11
27817.604341291921
 21
1917.7713320852649
 31
0.0
1001
AUTOCAD_POSTSCRIPT_FIGURE
1002
{
1000
PSFILL
1000
Grayscale
1000
Grayscale
1070
   100
1002
}
  0
LINE
  5
487E
  8
YODOROGO
 10
27889.604341291921
 20
1939.749496429288
 30
0.0
 11
27817.604341291921
 21
1939.749496429288
 31
0.0
1001
AUTOCAD_POSTSCRIPT_FIGURE
1002
{
1000
PSFILL
1000
Grayscale
1000
Grayscale
1070
   100
1002
}
  0
LINE
  5
487F
  8
YODOROGO
 10
27889.604341291921
 20
1900.5683489363
 30
0.0
 11
27889.604341291921
 21
1939.749496429288
 31
0.0
1001
AUTOCAD_POSTSCRIPT_FIGURE
1002
{
1000
PSFILL
1000
Grayscale
1000
Grayscale
1070
   100
1002
}
  0
LINE
  5
4880
  8
YODOROGO
 10
27857.604341291921
 20
1900.5683489363
 30
0.0
 11
27889.604341291921
 21
1900.5683489363
 31
0.0
1001
AUTOCAD_POSTSCRIPT_FIGURE
1002
{
1000
PSFILL
1000
Grayscale
1000
Grayscale
1070
   100
1002
}
  0
LINE
  5
4881
  8
YODOROGO
 10
27857.604341291921
 20
1884.568348936298
 30
0.0
 11
27857.604341291921
 21
1900.5683489363
 31
0.0
1001
AUTOCAD_POSTSCRIPT_FIGURE
1002
{
1000
PSFILL
1000
Grayscale
1000
Grayscale
1070
   100
1002
}
  0
LINE
  5
4882
  8
YODOROGO
 10
27889.604341291921
 20
1884.568348936298
 30
0.0
 11
27857.604341291921
 21
1884.568348936298
 31
0.0
1001
AUTOCAD_POSTSCRIPT_FIGURE
1002
{
1000
PSFILL
1000
Grayscale
1000
Grayscale
1070
   100
1002
}
  0
LINE
  5
4883
  8
YODOROGO
 10
27889.604341291921
 20
1879.6191779644389
 30
0.0
 11
27889.604341291921
 21
1884.568348936298
 31
0.0
1001
AUTOCAD_POSTSCRIPT_FIGURE
1002
{
1000
PSFILL
1000
Grayscale
1000
Grayscale
1070
   100
1002
}
  0
LINE
  5
4884
  8
YODOROGO
 10
27849.604341291921
 20
1812.974981161417
 30
0.0
 11
27889.604341291921
 21
1879.6191779644389
 31
0.0
1001
AUTOCAD_POSTSCRIPT_FIGURE
1002
{
1000
PSFILL
1000
Grayscale
1000
Grayscale
1070
   100
1002
}
  0
LINE
  5
4885
  8
YODOROGO
 10
27849.604341291921
 20
1796.9749811614161
 30
0.0
 11
27849.604341291921
 21
1812.974981161417
 31
0.0
1001
AUTOCAD_POSTSCRIPT_FIGURE
1002
{
1000
PSFILL
1000
Grayscale
1000
Grayscale
1070
   100
1002
}
  0
LINE
  5
4886
  8
YODOROGO
 10
27889.604341291921
 20
1847.6191779644371
 30
0.0
 11
27849.604341291921
 21
1796.9749811614161
 31
0.0
1001
AUTOCAD_POSTSCRIPT_FIGURE
1002
{
1000
PSFILL
1000
Grayscale
1000
Grayscale
1070
   100
1002
}
  0
LINE
  5
4887
  8
YODOROGO
 10
27889.604341291921
 20
1747.7494964292871
 30
0.0
 11
27889.604341291921
 21
1847.6191779644371
 31
0.0
1001
AUTOCAD_POSTSCRIPT_FIGURE
1002
{
1000
PSFILL
1000
Grayscale
1000
Grayscale
1070
   100
1002
}
  0
LINE
  5
4888
  8
YODOROGO
 10
27905.604341291921
 20
1747.7494964292871
 30
0.0
 11
27889.604341291921
 21
1747.7494964292871
 31
0.0
1001
AUTOCAD_POSTSCRIPT_FIGURE
1002
{
1000
PSFILL
1000
Grayscale
1000
Grayscale
1070
   100
1002
}
  0
LINE
  5
4889
  8
YODOROGO
 10
27905.604341291921
 20
1849.409012158806
 30
0.0
 11
27905.604341291921
 21
1747.7494964292871
 31
0.0
1001
AUTOCAD_POSTSCRIPT_FIGURE
1002
{
1000
PSFILL
1000
Grayscale
1000
Grayscale
1070
   100
1002
}
  0
LINE
  5
488A
  8
YODOROGO
 10
27937.604341291921
 20
1796.9749811614161
 30
0.0
 11
27905.604341291921
 21
1849.409012158806
 31
0.0
1001
AUTOCAD_POSTSCRIPT_FIGURE
1002
{
1000
PSFILL
1000
Grayscale
1000
Grayscale
1070
   100
1002
}
  0
LINE
  5
488B
  8
YODOROGO
 10
27937.604341291921
 20
1812.974981161417
 30
0.0
 11
27937.604341291921
 21
1796.9749811614161
 31
0.0
1001
AUTOCAD_POSTSCRIPT_FIGURE
1002
{
1000
PSFILL
1000
Grayscale
1000
Grayscale
1070
   100
1002
}
  0
LINE
  5
488C
  8
YODOROGO
 10
27905.604341291921
 20
1881.4090121588081
 30
0.0
 11
27937.604341291921
 21
1812.974981161417
 31
0.0
1001
AUTOCAD_POSTSCRIPT_FIGURE
1002
{
1000
PSFILL
1000
Grayscale
1000
Grayscale
1070
   100
1002
}
  0
LINE
  5
488D
  8
YODOROGO
 10
27905.604341291932
 20
1884.5683489363
 30
0.0
 11
27905.604341291921
 21
1881.4090121588081
 31
0.0
1001
AUTOCAD_POSTSCRIPT_FIGURE
1002
{
1000
PSFILL
1000
Grayscale
1000
Grayscale
1070
   100
1002
}
  0
LINE
  5
488E
  8
YODOROGO
 10
27937.604341291921
 20
1884.568348936298
 30
0.0
 11
27905.604341291932
 21
1884.5683489363
 31
0.0
1001
AUTOCAD_POSTSCRIPT_FIGURE
1002
{
1000
PSFILL
1000
Grayscale
1000
Grayscale
1070
   100
1002
}
  0
LINE
  5
488F
  8
YODOROGO
 10
27937.604341291921
 20
1900.5683489363
 30
0.0
 11
27937.604341291921
 21
1884.568348936298
 31
0.0
1001
AUTOCAD_POSTSCRIPT_FIGURE
1002
{
1000
PSFILL
1000
Grayscale
1000
Grayscale
1070
   100
1002
}
  0
LINE
  5
4890
  8
YODOROGO
 10
27905.604341291921
 20
1900.5683489363
 30
0.0
 11
27937.604341291921
 21
1900.5683489363
 31
0.0
1001
AUTOCAD_POSTSCRIPT_FIGURE
1002
{
1000
PSFILL
1000
Grayscale
1000
Grayscale
1070
   100
1002
}
  0
LINE
  5
4891
  8
YODOROGO
 10
27905.604341291921
 20
1939.749496429288
 30
0.0
 11
27905.604341291921
 21
1900.5683489363
 31
0.0
1001
AUTOCAD_POSTSCRIPT_FIGURE
1002
{
1000
PSFILL
1000
Grayscale
1000
Grayscale
1070
   100
1002
}
  0
LINE
  5
4892
  8
YODOROGO
 10
27937.604341291921
 20
1939.749496429288
 30
0.0
 11
27905.604341291921
 21
1939.749496429288
 31
0.0
1001
AUTOCAD_POSTSCRIPT_FIGURE
1002
{
1000
PSFILL
1000
Grayscale
1000
Grayscale
1070
   100
1002
}
  0
LINE
  5
4893
  8
YODOROGO
 10
27937.604341291921
 20
1955.7494964292871
 30
0.0
 11
27937.604341291921
 21
1939.749496429288
 31
0.0
1001
AUTOCAD_POSTSCRIPT_FIGURE
1002
{
1000
PSFILL
1000
Grayscale
1000
Grayscale
1070
   100
1002
}
  0
LINE
  5
4894
  8
YODOROGO
 10
27905.604341291921
 20
1955.7494964292871
 30
0.0
 11
27937.604341291921
 21
1955.7494964292871
 31
0.0
1001
AUTOCAD_POSTSCRIPT_FIGURE
1002
{
1000
PSFILL
1000
Grayscale
1000
Grayscale
1070
   100
1002
}
  0
LINE
  5
4895
  8
YODOROGO
 10
27905.604341291921
 20
1979.749496429288
 30
0.0
 11
27905.604341291921
 21
1955.7494964292871
 31
0.0
1001
AUTOCAD_POSTSCRIPT_FIGURE
1002
{
1000
PSFILL
1000
Grayscale
1000
Grayscale
1070
   100
1002
}
  0
LINE
  5
4896
  8
YODOROGO
 10
27889.604341291921
 20
1979.749496429288
 30
0.0
 11
27905.604341291921
 21
1979.749496429288
 31
0.0
1001
AUTOCAD_POSTSCRIPT_FIGURE
1002
{
1000
PSFILL
1000
Grayscale
1000
Grayscale
1070
   100
1002
}
  0
LINE
  5
4897
  8
YODOROGO
 10
27889.604341291921
 20
1955.7494964292871
 30
0.0
 11
27889.604341291921
 21
1979.749496429288
 31
0.0
1001
AUTOCAD_POSTSCRIPT_FIGURE
1002
{
1000
PSFILL
1000
Grayscale
1000
Grayscale
1070
   100
1002
}
  0
LINE
  5
4898
  8
YODOROGO
 10
27865.604341291921
 20
1955.7494964292871
 30
0.0
 11
27889.604341291921
 21
1955.7494964292871
 31
0.0
1001
AUTOCAD_POSTSCRIPT_FIGURE
1002
{
1000
PSFILL
1000
Grayscale
1000
Grayscale
1070
   100
1002
}
  0
LINE
  5
4899
  8
YODOROGO
 10
27865.604341291921
 20
1979.749496429288
 30
0.0
 11
27865.604341291921
 21
1955.7494964292871
 31
0.0
1001
AUTOCAD_POSTSCRIPT_FIGURE
1002
{
1000
PSFILL
1000
Grayscale
1000
Grayscale
1070
   100
1002
}
  0
LINE
  5
489A
  8
YODOROGO
 10
27849.604341291921
 20
1979.749496429288
 30
0.0
 11
27865.604341291921
 21
1979.749496429288
 31
0.0
1001
AUTOCAD_POSTSCRIPT_FIGURE
1002
{
1000
PSFILL
1000
Grayscale
1000
Grayscale
1070
   100
1002
}
  0
LINE
  5
489B
  8
YODOROGO
 10
27849.604341291921
 20
1955.7494964292871
 30
0.0
 11
27849.604341291921
 21
1979.749496429288
 31
0.0
1001
AUTOCAD_POSTSCRIPT_FIGURE
1002
{
1000
PSFILL
1000
Grayscale
1000
Grayscale
1070
   100
1002
}
  0
LINE
  5
489C
  8
YODOROGO
 10
27817.604341291921
 20
1955.7494964292871
 30
0.0
 11
27849.604341291921
 21
1955.7494964292871
 31
0.0
1001
AUTOCAD_POSTSCRIPT_FIGURE
1002
{
1000
PSFILL
1000
Grayscale
1000
Grayscale
1070
   100
1002
}
  0
LINE
  5
489D
  8
YODOROGO
 10
27817.604341291921
 20
1979.749496429288
 30
0.0
 11
27817.604341291921
 21
1955.7494964292871
 31
0.0
1001
AUTOCAD_POSTSCRIPT_FIGURE
1002
{
1000
PSFILL
1000
Grayscale
1000
Grayscale
1070
   100
1002
}
  0
LINE
  5
489E
  8
YODOROGO
 10
27801.604341291921
 20
1979.749496429288
 30
0.0
 11
27817.604341291921
 21
1979.749496429288
 31
0.0
1001
AUTOCAD_POSTSCRIPT_FIGURE
1002
{
1000
PSFILL
1000
Grayscale
1000
Grayscale
1070
   100
1002
}
  0
LINE
  5
489F
  8
YODOROGO
 10
27801.604341291921
 20
1955.7494964292871
 30
0.0
 11
27801.604341291921
 21
1979.749496429288
 31
0.0
1001
AUTOCAD_POSTSCRIPT_FIGURE
1002
{
1000
PSFILL
1000
Grayscale
1000
Grayscale
1070
   100
1002
}
  0
LINE
  5
48A0
  8
YODOROGO
 10
27777.604341291921
 20
1955.7494964292871
 30
0.0
 11
27801.604341291921
 21
1955.7494964292871
 31
0.0
1001
AUTOCAD_POSTSCRIPT_FIGURE
1002
{
1000
PSFILL
1000
Grayscale
1000
Grayscale
1070
   100
1002
}
  0
LINE
  5
48A1
  8
YODOROGO
 10
27777.604341291921
 20
1939.749496429288
 30
0.0
 11
27777.604341291921
 21
1955.7494964292871
 31
0.0
1001
AUTOCAD_POSTSCRIPT_FIGURE
1002
{
1000
PSFILL
1000
Grayscale
1000
Grayscale
1070
   100
1002
}
  0
LINE
  5
48A2
  8
YODOROGO
 10
27801.604341291921
 20
1939.749496429288
 30
0.0
 11
27777.604341291921
 21
1939.749496429288
 31
0.0
1001
AUTOCAD_POSTSCRIPT_FIGURE
1002
{
1000
PSFILL
1000
Grayscale
1000
Grayscale
1070
   100
1002
}
  0
LINE
  5
48A3
  8
YODOROGO
 10
27801.604341291921
 20
1914.7865807937051
 30
0.0
 11
27801.604341291921
 21
1939.749496429288
 31
0.0
1001
AUTOCAD_POSTSCRIPT_FIGURE
1002
{
1000
PSFILL
1000
Grayscale
1000
Grayscale
1070
   100
1002
}
  0
LINE
  5
48A4
  8
YODOROGO
 10
27777.604341291921
 20
1859.776747951671
 30
0.0
 11
27801.604341291921
 21
1914.7865807937051
 31
0.0
1001
AUTOCAD_POSTSCRIPT_FIGURE
1002
{
1000
PSFILL
1000
Grayscale
1000
Grayscale
1070
   100
1002
}
  0
LINE
  5
48A5
  8
YODOROGO
 10
27777.604341291921
 20
1843.776747951672
 30
0.0
 11
27777.604341291921
 21
1859.776747951671
 31
0.0
1001
AUTOCAD_POSTSCRIPT_FIGURE
1002
{
1000
PSFILL
1000
Grayscale
1000
Grayscale
1070
   100
1002
}
  0
LINE
  5
48A6
  8
YODOROGO
 10
28257.604341291921
 20
1867.749496429288
 30
0.0
 11
28401.60434129191
 21
1824.877625640306
 31
0.0
1001
AUTOCAD_POSTSCRIPT_FIGURE
1002
{
1000
PSFILL
1000
Grayscale
1000
Grayscale
1070
   100
1002
}
  0
LINE
  5
48A7
  8
YODOROGO
 10
28401.60434129191
 20
1752.877625640306
 30
0.0
 11
28257.604341291921
 21
1795.7494964292871
 31
0.0
1001
AUTOCAD_POSTSCRIPT_FIGURE
1002
{
1000
PSFILL
1000
Grayscale
1000
Grayscale
1070
   100
1002
}
  0
LINE
  5
48A8
  8
YODOROGO
 10
28401.60434129191
 20
1984.877625640306
 30
0.0
 11
28257.604341291921
 21
2027.749496429288
 31
0.0
1001
AUTOCAD_POSTSCRIPT_FIGURE
1002
{
1000
PSFILL
1000
Grayscale
1000
Grayscale
1070
   100
1002
}
  0
LINE
  5
48A9
  8
YODOROGO
 10
28257.604341291921
 20
1959.749496429288
 30
0.0
 11
28401.60434129191
 21
1916.8776256403071
 31
0.0
1001
AUTOCAD_POSTSCRIPT_FIGURE
1002
{
1000
PSFILL
1000
Grayscale
1000
Grayscale
1070
   100
1002
}
  0
LINE
  5
48AA
  8
YODOROGO
 10
28257.604341291921
 20
1795.7494964292871
 30
0.0
 11
28257.604341291921
 21
1867.749496429288
 31
0.0
1001
AUTOCAD_POSTSCRIPT_FIGURE
1002
{
1000
PSFILL
1000
Grayscale
1000
Grayscale
1070
   100
1002
}
  0
LINE
  5
48AB
  8
YODOROGO
 10
28257.604341291921
 20
2027.749496429288
 30
0.0
 11
28257.604341291921
 21
1959.749496429288
 31
0.0
1001
AUTOCAD_POSTSCRIPT_FIGURE
1002
{
1000
PSFILL
1000
Grayscale
1000
Grayscale
1070
   100
1002
}
  0
LINE
  5
48AC
  8
YODOROGO
 10
28080.236320206739
 20
1939.749496429288
 30
0.0
 11
28129.604341291921
 21
1747.7494964292871
 31
0.0
1001
AUTOCAD_POSTSCRIPT_FIGURE
1002
{
1000
PSFILL
1000
Grayscale
1000
Grayscale
1070
   100
1002
}
  0
LINE
  5
48AD
  8
YODOROGO
 10
27977.604341291921
 20
1939.749496429288
 30
0.0
 11
28080.236320206739
 21
1939.749496429288
 31
0.0
1001
AUTOCAD_POSTSCRIPT_FIGURE
1002
{
1000
PSFILL
1000
Grayscale
1000
Grayscale
1070
   100
1002
}
  0
LINE
  5
48AE
  8
YODOROGO
 10
27977.604341291921
 20
1955.7494964292871
 30
0.0
 11
27977.604341291921
 21
1939.749496429288
 31
0.0
1001
AUTOCAD_POSTSCRIPT_FIGURE
1002
{
1000
PSFILL
1000
Grayscale
1000
Grayscale
1070
   100
1002
}
  0
LINE
  5
48AF
  8
YODOROGO
 10
28076.60687851992
 20
1955.7494964292871
 30
0.0
 11
27977.604341291921
 21
1955.7494964292871
 31
0.0
1001
AUTOCAD_POSTSCRIPT_FIGURE
1002
{
1000
PSFILL
1000
Grayscale
1000
Grayscale
1070
   100
1002
}
  0
LINE
  5
48B0
  8
YODOROGO
 10
28071.162715989711
 20
1979.749496429288
 30
0.0
 11
28076.60687851992
 21
1955.7494964292871
 31
0.0
1001
AUTOCAD_POSTSCRIPT_FIGURE
1002
{
1000
PSFILL
1000
Grayscale
1000
Grayscale
1070
   100
1002
}
  0
LINE
  5
48B1
  8
YODOROGO
 10
28091.162715989711
 20
1979.749496429288
 30
0.0
 11
28071.162715989711
 21
1979.749496429288
 31
0.0
1001
AUTOCAD_POSTSCRIPT_FIGURE
1002
{
1000
PSFILL
1000
Grayscale
1000
Grayscale
1070
   100
1002
}
  0
LINE
  5
48B2
  8
YODOROGO
 10
28095.806878519939
 20
1955.7494964292871
 30
0.0
 11
28091.162715989711
 21
1979.749496429288
 31
0.0
1001
AUTOCAD_POSTSCRIPT_FIGURE
1002
{
1000
PSFILL
1000
Grayscale
1000
Grayscale
1070
   100
1002
}
  0
LINE
  5
48B3
  8
YODOROGO
 10
28121.604341291921
 20
1955.7494964292871
 30
0.0
 11
28095.806878519939
 21
1955.7494964292871
 31
0.0
1001
AUTOCAD_POSTSCRIPT_FIGURE
1002
{
1000
PSFILL
1000
Grayscale
1000
Grayscale
1070
   100
1002
}
  0
LINE
  5
48B4
  8
YODOROGO
 10
28121.604341291921
 20
1979.749496429288
 30
0.0
 11
28121.604341291921
 21
1955.7494964292871
 31
0.0
1001
AUTOCAD_POSTSCRIPT_FIGURE
1002
{
1000
PSFILL
1000
Grayscale
1000
Grayscale
1070
   100
1002
}
  0
LINE
  5
48B5
  8
YODOROGO
 10
28137.604341291921
 20
1979.749496429288
 30
0.0
 11
28121.604341291921
 21
1979.749496429288
 31
0.0
1001
AUTOCAD_POSTSCRIPT_FIGURE
1002
{
1000
PSFILL
1000
Grayscale
1000
Grayscale
1070
   100
1002
}
  0
LINE
  5
48B6
  8
YODOROGO
 10
28137.604341291921
 20
1955.7494964292871
 30
0.0
 11
28137.604341291921
 21
1979.749496429288
 31
0.0
1001
AUTOCAD_POSTSCRIPT_FIGURE
1002
{
1000
PSFILL
1000
Grayscale
1000
Grayscale
1070
   100
1002
}
  0
LINE
  5
48B7
  8
YODOROGO
 10
28137.604341291921
 20
1939.749496429288
 30
0.0
 11
28137.604341291921
 21
1955.7494964292871
 31
0.0
1001
AUTOCAD_POSTSCRIPT_FIGURE
1002
{
1000
PSFILL
1000
Grayscale
1000
Grayscale
1070
   100
1002
}
  0
LINE
  5
48B8
  8
YODOROGO
 10
28098.902986873421
 20
1939.749496429288
 30
0.0
 11
28137.604341291921
 21
1939.749496429288
 31
0.0
1001
AUTOCAD_POSTSCRIPT_FIGURE
1002
{
1000
PSFILL
1000
Grayscale
1000
Grayscale
1070
   100
1002
}
  0
LINE
  5
48B9
  8
YODOROGO
 10
28137.604341291921
 20
1747.7494964292871
 30
0.0
 11
28098.902986873421
 21
1939.749496429288
 31
0.0
1001
AUTOCAD_POSTSCRIPT_FIGURE
1002
{
1000
PSFILL
1000
Grayscale
1000
Grayscale
1070
   100
1002
}
  0
LINE
  5
48BA
  8
YODOROGO
 10
28129.604341291921
 20
1747.7494964292871
 30
0.0
 11
28137.604341291921
 21
1747.7494964292871
 31
0.0
1001
AUTOCAD_POSTSCRIPT_FIGURE
1002
{
1000
PSFILL
1000
Grayscale
1000
Grayscale
1070
   100
1002
}
  0
LINE
  5
48BB
  8
YODOROGO
 10
28078.069219933801
 20
1775.7407762987939
 30
0.0
 11
27977.604341291921
 21
1747.7494964292871
 31
0.0
  0
LINE
  5
48BC
  8
YODOROGO
 10
28078.069219933801
 20
1798.6689795290731
 30
0.0
 11
28078.069219933801
 21
1775.7407762987939
 31
0.0
  0
LINE
  5
48BD
  8
YODOROGO
 10
28033.83678061287
 20
1786.816933133767
 30
0.0
 11
28078.069219933801
 21
1798.6689795290731
 31
0.0
  0
LINE
  5
48BE
  8
YODOROGO
 10
28033.83678061287
 20
1872.5683489363
 30
0.0
 11
28033.83678061287
 21
1786.816933133767
 31
0.0
  0
LINE
  5
48BF
  8
YODOROGO
 10
28078.069219933801
 20
1872.5683489363
 30
0.0
 11
28033.83678061287
 21
1872.5683489363
 31
0.0
  0
LINE
  5
48C0
  8
YODOROGO
 10
28078.069219933801
 20
1892.568348936298
 30
0.0
 11
28078.069219933801
 21
1872.5683489363
 31
0.0
  0
LINE
  5
48C1
  8
YODOROGO
 10
27977.604341291921
 20
1892.568348936298
 30
0.0
 11
28078.069219933801
 21
1892.568348936298
 31
0.0
  0
LINE
  5
48C2
  8
YODOROGO
 10
27977.604341291921
 20
1872.5683489363
 30
0.0
 11
27977.604341291921
 21
1892.568348936298
 31
0.0
  0
LINE
  5
48C3
  8
YODOROGO
 10
28021.836780612859
 20
1872.5683489363
 30
0.0
 11
27977.604341291921
 21
1872.5683489363
 31
0.0
  0
LINE
  5
48C4
  8
YODOROGO
 10
28021.836780612859
 20
1784.673339594317
 30
0.0
 11
28021.836780612859
 21
1872.5683489363
 31
0.0
  0
LINE
  5
48C5
  8
YODOROGO
 10
27977.604341291921
 20
1771.749496429286
 30
0.0
 11
28021.836780612859
 21
1784.673339594317
 31
0.0
  0
LINE
  5
48C6
  8
YODOROGO
 10
27977.604341291921
 20
1747.7494964292871
 30
0.0
 11
27977.604341291921
 21
1771.749496429286
 31
0.0
  0
LINE
  5
48C7
  8
YODOROGO
 10
28001.604341291921
 20
1707.749496429288
 30
0.0
 11
28001.604341291921
 21
1683.7494964292871
 31
0.0
  0
LINE
  5
48C9
  8
YODOROGO
 10
28017.604341291921
 20
1707.749496429288
 30
0.0
 11
28001.604341291921
 21
1707.749496429288
 31
0.0
  0
LINE
  5
48CA
  8
YODOROGO
 10
28017.604341291921
 20
1683.7494964292871
 30
0.0
 11
28017.604341291921
 21
1707.749496429288
 31
0.0
  0
LINE
  5
48CB
  8
YODOROGO
 10
28040.913204016899
 20
1683.7494964292871
 30
0.0
 11
28017.604341291921
 21
1683.7494964292871
 31
0.0
  0
LINE
  5
48CC
  8
YODOROGO
 10
28001.604341291921
 20
1683.7494964292871
 30
0.0
 11
27977.604341291921
 21
1683.7494964292871
 31
0.0
  0
LINE
  5
48CD
  8
YODOROGO
 10
28082.135520230921
 20
1707.749496429288
 30
0.0
 11
28098.135520230931
 21
1707.749496429288
 31
0.0
1001
AUTOCAD_POSTSCRIPT_FIGURE
1002
{
1000
PSFILL
1000
Grayscale
1000
Grayscale
1070
   100
1002
}
  0
LINE
  5
48CE
  8
YODOROGO
 10
28401.60434129191
 20
1824.877625640306
 30
0.0
 11
28401.60434129191
 21
1752.877625640306
 31
0.0
1001
AUTOCAD_POSTSCRIPT_FIGURE
1002
{
1000
PSFILL
1000
Grayscale
1000
Grayscale
1070
   100
1002
}
  0
LINE
  5
48CF
  8
YODOROGO
 10
28401.60434129191
 20
1916.8776256403071
 30
0.0
 11
28401.60434129191
 21
1984.877625640306
 31
0.0
1001
AUTOCAD_POSTSCRIPT_FIGURE
1002
{
1000
PSFILL
1000
Grayscale
1000
Grayscale
1070
   100
1002
}
  0
LINE
  5
48D0
  8
YODOROGO
 10
28433.60434129191
 20
1819.749496429288
 30
0.0
 11
28433.60434129191
 21
1747.74949642929
 31
0.0
  0
LINE
  5
48D1
  8
YODOROGO
 10
28497.60434129191
 20
1707.749496429288
 30
0.0
 11
28433.60434129191
 21
1707.749496429288
 31
0.0
  0
LINE
  5
48D2
  8
YODOROGO
 10
28433.60434129191
 20
1747.74949642929
 30
0.0
 11
28585.604341291921
 21
1747.74949642929
 31
0.0
  0
LINE
  5
48D3
  8
YODOROGO
 10
28497.60434129191
 20
1867.749496429288
 30
0.0
 11
28433.60434129191
 21
1867.749496429288
 31
0.0
  0
LINE
  5
48D4
  8
YODOROGO
 10
28497.60434129191
 20
1923.7494964292871
 30
0.0
 11
28497.60434129191
 21
1867.749496429288
 31
0.0
  0
LINE
  5
48D5
  8
YODOROGO
 10
28585.604341291921
 20
1987.749496429288
 30
0.0
 11
28585.604341291921
 21
2027.749496429288
 31
0.0
  0
LINE
  5
48D6
  8
YODOROGO
 10
28433.60434129191
 20
1987.749496429288
 30
0.0
 11
28585.604341291921
 21
1987.749496429288
 31
0.0
  0
LINE
  5
48D7
  8
YODOROGO
 10
28433.60434129191
 20
1867.749496429288
 30
0.0
 11
28433.60434129191
 21
1987.749496429288
 31
0.0
  0
LINE
  5
48D8
  8
YODOROGO
 10
29001.60434129191
 20
2027.749496429288
 30
0.0
 11
29001.60434129191
 21
1619.749496429288
 31
0.0
  0
LINE
  5
48D9
  8
YODOROGO
 10
29073.604341291921
 20
1579.749496429288
 30
0.0
 11
29073.604341291921
 21
2027.749496429288
 31
0.0
  0
LINE
  5
48DA
  8
YODOROGO
 10
29261.604341291921
 20
1491.749496429286
 30
0.0
 11
29261.604341291921
 21
2007.749496429288
 31
0.0
  0
LINE
  5
48DB
  8
YODOROGO
 10
29197.604341291921
 20
2007.749496429288
 30
0.0
 11
29197.604341291921
 21
1491.749496429286
 31
0.0
  0
LINE
  5
48DC
  8
YODOROGO
 10
29385.604341291921
 20
2027.749496429288
 30
0.0
 11
29385.604341291921
 21
1427.749496429288
 31
0.0
  0
LINE
  5
48DD
  8
YODOROGO
 10
29457.604341291921
 20
1427.749496429288
 30
0.0
 11
29457.604341291921
 21
2027.749496429288
 31
0.0
  0
LINE
  5
48DE
  8
YODOROGO
 10
28657.60434129191
 20
1667.749496429288
 30
0.0
 11
28657.60434129191
 21
1747.74949642929
 31
0.0
  0
LINE
  5
48DF
  8
YODOROGO
 10
29885.604341291921
 20
1707.749496429288
 30
0.0
 11
29885.604341291921
 21
1667.749496429288
 31
0.0
  0
LINE
  5
48E0
  8
YODOROGO
 10
29885.604341291921
 20
1707.749496429288
 30
0.0
 11
29885.604341291921
 21
1667.749496429288
 31
0.0
  0
ARC
  5
48E1
  8
YODOROGO
 10
28906.911576186842
 20
1618.2178644422729
 30
0.0
 40
94.705151178741659
 50
274.0524416290711
 51
0.9266642149310712
  0
ARC
  5
48E2
  8
YODOROGO
 10
28909.18617071983
 20
1592.61072861044
 30
0.0
 40
164.92042356085511
 50
271.53512106537778
 51
355.52727750585058
  0
LINE
  5
48E3
  8
YODOROGO
 10
28913.604341291921
 20
1523.7494964292871
 30
0.0
 11
28913.604341291921
 21
1427.749496429288
 31
0.0
  0
LINE
  5
48E4
  8
YODOROGO
 10
28793.60434129191
 20
1667.749496429288
 30
0.0
 11
28657.60434129191
 21
1667.749496429288
 31
0.0
  0
LINE
  5
48E5
  8
YODOROGO
 10
28793.60434129191
 20
1603.7494964292889
 30
0.0
 11
28793.60434129191
 21
1667.749496429288
 31
0.0
  0
LINE
  5
48E6
  8
YODOROGO
 10
28657.60434129191
 20
1603.7494964292889
 30
0.0
 11
28793.60434129191
 21
1603.7494964292889
 31
0.0
  0
LINE
  5
48E7
  8
YODOROGO
 10
28657.60434129191
 20
1523.7494964292871
 30
0.0
 11
28657.60434129191
 21
1603.7494964292889
 31
0.0
  0
LINE
  5
48E8
  8
YODOROGO
 10
28793.60434129191
 20
1523.7494964292871
 30
0.0
 11
28657.60434129191
 21
1523.7494964292871
 31
0.0
  0
LINE
  5
48E9
  8
YODOROGO
 10
28793.60434129191
 20
1427.749496429288
 30
0.0
 11
28793.60434129191
 21
1523.7494964292871
 31
0.0
  0
LINE
  5
48EA
  8
YODOROGO
 10
29197.604341291921
 20
1491.749496429286
 30
0.0
 11
29261.604341291921
 21
1491.749496429286
 31
0.0
  0
LINE
  5
48EB
  8
YODOROGO
 10
29385.604341291921
 20
1427.749496429288
 30
0.0
 11
29457.604341291921
 21
1427.749496429288
 31
0.0
  0
LINE
  5
48EC
  8
YODOROGO
 10
29737.604341291921
 20
1528.4414521705639
 30
0.0
 11
29737.604341291921
 21
1427.749496429288
 31
0.0
  0
LINE
  5
48ED
  8
YODOROGO
 10
29617.604341291921
 20
1427.749496429288
 30
0.0
 11
29737.604341291921
 21
1528.4414521705639
 31
0.0
  0
LINE
  5
48EE
  8
YODOROGO
 10
29617.604341291921
 20
1547.749496429288
 30
0.0
 11
29617.604341291921
 21
1427.749496429288
 31
0.0
  0
LINE
  5
48EF
  8
YODOROGO
 10
29712.944628699461
 20
1627.749496429288
 30
0.0
 11
29617.604341291921
 21
1547.749496429288
 31
0.0
  0
LINE
  5
48F0
  8
YODOROGO
 10
29617.604341291921
 20
1627.749496429288
 30
0.0
 11
29712.944628699461
 21
1627.749496429288
 31
0.0
  0
LINE
  5
48F1
  8
YODOROGO
 10
29617.604341291921
 20
1667.749496429288
 30
0.0
 11
29617.604341291921
 21
1627.749496429288
 31
0.0
  0
LINE
  5
48F2
  8
YODOROGO
 10
29885.604341291921
 20
1667.749496429288
 30
0.0
 11
29617.604341291921
 21
1667.749496429288
 31
0.0
  0
LINE
  5
48F3
  8
YODOROGO
 10
29917.604341291921
 20
1627.749496429288
 30
0.0
 11
29777.604341291921
 21
1627.749496429288
 31
0.0
  0
LINE
  5
48F4
  8
YODOROGO
 10
29777.604341291921
 20
1562.005437417657
 30
0.0
 11
29771.40987298531
 21
1556.807661346234
 31
0.0
  0
LINE
  5
48F5
  8
YODOROGO
 10
29777.604341291921
 20
1627.749496429288
 30
0.0
 11
29777.604341291921
 21
1562.005437417657
 31
0.0
  0
LINE
  5
48F6
  8
YODOROGO
 10
29737.604341291921
 20
1528.4414521705639
 30
0.0
 11
29737.604341291921
 21
1427.749496429288
 31
0.0
  0
LINE
  5
48F7
  8
YODOROGO
 10
29617.604341291921
 20
1427.749496429288
 30
0.0
 11
29737.604341291921
 21
1528.4414521705639
 31
0.0
  0
LINE
  5
48F8
  8
YODOROGO
 10
29617.604341291921
 20
1547.749496429288
 30
0.0
 11
29617.604341291921
 21
1427.749496429288
 31
0.0
  0
LINE
  5
48F9
  8
YODOROGO
 10
29712.944628699461
 20
1627.749496429288
 30
0.0
 11
29617.604341291921
 21
1547.749496429288
 31
0.0
  0
LINE
  5
48FA
  8
YODOROGO
 10
29617.604341291921
 20
1627.749496429288
 30
0.0
 11
29712.944628699461
 21
1627.749496429288
 31
0.0
  0
LINE
  5
48FB
  8
YODOROGO
 10
29617.604341291921
 20
1667.749496429288
 30
0.0
 11
29617.604341291921
 21
1627.749496429288
 31
0.0
  0
LINE
  5
48FC
  8
YODOROGO
 10
29885.604341291921
 20
1667.749496429288
 30
0.0
 11
29617.604341291921
 21
1667.749496429288
 31
0.0
  0
LINE
  5
48FD
  8
YODOROGO
 10
28793.60434129191
 20
1747.74949642929
 30
0.0
 11
28793.60434129191
 21
1819.749496429288
 31
0.0
  0
LINE
  5
48FE
  8
YODOROGO
 10
28657.60434129191
 20
1747.74949642929
 30
0.0
 11
28793.60434129191
 21
1747.74949642929
 31
0.0
  0
LINE
  5
48FF
  8
YODOROGO
 10
28729.604341291921
 20
1867.749496429288
 30
0.0
 11
28729.604341291921
 21
1923.7494964292871
 31
0.0
  0
LINE
  5
4900
  8
YODOROGO
 10
28793.60434129191
 20
1867.749496429288
 30
0.0
 11
28729.604341291921
 21
1867.749496429288
 31
0.0
  0
LINE
  5
4901
  8
YODOROGO
 10
28793.60434129191
 20
1947.749496429288
 30
0.0
 11
28793.60434129191
 21
1867.749496429288
 31
0.0
  0
ARC
  5
4902
  8
YODOROGO
 10
28753.60434129191
 20
1947.749496429288
 30
0.0
 40
40.0
 50
0.0
 51
90.0
  0
LINE
  5
4903
  8
YODOROGO
 10
28657.604341291921
 20
1987.749496429288
 30
0.0
 11
28753.60434129191
 21
1987.749496429288
 31
0.0
  0
LINE
  5
4904
  8
YODOROGO
 10
28657.604341291921
 20
2027.749496429288
 30
0.0
 11
28657.604341291921
 21
1987.749496429288
 31
0.0
  0
LINE
  5
4905
  8
YODOROGO
 10
29073.604341291921
 20
2027.749496429288
 30
0.0
 11
29001.60434129191
 21
2027.749496429288
 31
0.0
  0
LINE
  5
4906
  8
YODOROGO
 10
29261.604341291921
 20
2007.749496429288
 30
0.0
 11
29197.604341291921
 21
2007.749496429288
 31
0.0
  0
LINE
  5
4907
  8
YODOROGO
 10
29457.604341291921
 20
2027.749496429288
 30
0.0
 11
29385.604341291921
 21
2027.749496429288
 31
0.0
  0
LINE
  5
4908
  8
YODOROGO
 10
29673.604341291921
 20
1707.749496429288
 30
0.0
 11
29673.604341291921
 21
1771.749496429288
 31
0.0
1001
AUTOCAD_POSTSCRIPT_FIGURE
1002
{
1000
PSFILL
1000
Grayscale
1000
Grayscale
1070
    25
1002
}
  0
LINE
  5
4909
  8
YODOROGO
 10
29617.604341291921
 20
1707.749496429288
 30
0.0
 11
29673.604341291921
 21
1707.749496429288
 31
0.0
1001
AUTOCAD_POSTSCRIPT_FIGURE
1002
{
1000
PSFILL
1000
Grayscale
1000
Grayscale
1070
    25
1002
}
  0
LINE
  5
490A
  8
YODOROGO
 10
29617.604341291921
 20
1819.749496429288
 30
0.0
 11
29617.604341291921
 21
1707.749496429288
 31
0.0
1001
AUTOCAD_POSTSCRIPT_FIGURE
1002
{
1000
PSFILL
1000
Grayscale
1000
Grayscale
1070
    25
1002
}
  0
LINE
  5
490B
  8
YODOROGO
 10
29765.604341291921
 20
1819.749496429288
 30
0.0
 11
29617.604341291921
 21
1819.749496429288
 31
0.0
1001
AUTOCAD_POSTSCRIPT_FIGURE
1002
{
1000
PSFILL
1000
Grayscale
1000
Grayscale
1070
    25
1002
}
  0
LINE
  5
490C
  8
YODOROGO
 10
29765.604341291921
 20
1859.749496429288
 30
0.0
 11
29765.604341291921
 21
1819.749496429288
 31
0.0
1001
AUTOCAD_POSTSCRIPT_FIGURE
1002
{
1000
PSFILL
1000
Grayscale
1000
Grayscale
1070
    25
1002
}
  0
LINE
  5
490D
  8
YODOROGO
 10
29617.604341291921
 20
1859.749496429288
 30
0.0
 11
29765.604341291921
 21
1859.749496429288
 31
0.0
1001
AUTOCAD_POSTSCRIPT_FIGURE
1002
{
1000
PSFILL
1000
Grayscale
1000
Grayscale
1070
    25
1002
}
  0
LINE
  5
490E
  8
YODOROGO
 10
29617.604341291921
 20
1907.7494964292871
 30
0.0
 11
29617.604341291921
 21
1859.749496429288
 31
0.0
1001
AUTOCAD_POSTSCRIPT_FIGURE
1002
{
1000
PSFILL
1000
Grayscale
1000
Grayscale
1070
    25
1002
}
  0
LINE
  5
490F
  8
YODOROGO
 10
29765.604341291921
 20
1907.7494964292871
 30
0.0
 11
29617.604341291921
 21
1907.7494964292871
 31
0.0
1001
AUTOCAD_POSTSCRIPT_FIGURE
1002
{
1000
PSFILL
1000
Grayscale
1000
Grayscale
1070
    25
1002
}
  0
LINE
  5
4910
  8
YODOROGO
 10
29765.604341291921
 20
1947.749496429288
 30
0.0
 11
29765.604341291921
 21
1907.7494964292871
 31
0.0
1001
AUTOCAD_POSTSCRIPT_FIGURE
1002
{
1000
PSFILL
1000
Grayscale
1000
Grayscale
1070
    25
1002
}
  0
LINE
  5
4911
  8
YODOROGO
 10
29617.604341291921
 20
1947.749496429288
 30
0.0
 11
29765.604341291921
 21
1947.749496429288
 31
0.0
1001
AUTOCAD_POSTSCRIPT_FIGURE
1002
{
1000
PSFILL
1000
Grayscale
1000
Grayscale
1070
    25
1002
}
  0
LINE
  5
4912
  8
YODOROGO
 10
29617.604341291921
 20
2027.749496429288
 30
0.0
 11
29617.604341291921
 21
1947.749496429288
 31
0.0
1001
AUTOCAD_POSTSCRIPT_FIGURE
1002
{
1000
PSFILL
1000
Grayscale
1000
Grayscale
1070
    25
1002
}
  0
LINE
  5
4913
  8
YODOROGO
 10
29665.604341291921
 20
2027.749496429288
 30
0.0
 11
29617.604341291921
 21
2027.749496429288
 31
0.0
1001
AUTOCAD_POSTSCRIPT_FIGURE
1002
{
1000
PSFILL
1000
Grayscale
1000
Grayscale
1070
    25
1002
}
  0
LINE
  5
4914
  8
YODOROGO
 10
29665.604341291921
 20
1995.7494964292871
 30
0.0
 11
29665.604341291921
 21
2027.749496429288
 31
0.0
1001
AUTOCAD_POSTSCRIPT_FIGURE
1002
{
1000
PSFILL
1000
Grayscale
1000
Grayscale
1070
    25
1002
}
  0
LINE
  5
4915
  8
YODOROGO
 10
29765.604341291921
 20
1995.7494964292871
 30
0.0
 11
29665.604341291921
 21
1995.7494964292871
 31
0.0
1001
AUTOCAD_POSTSCRIPT_FIGURE
1002
{
1000
PSFILL
1000
Grayscale
1000
Grayscale
1070
    25
1002
}
  0
LINE
  5
4916
  8
YODOROGO
 10
29765.604341291921
 20
2027.749496429288
 30
0.0
 11
29765.604341291921
 21
1995.7494964292871
 31
0.0
1001
AUTOCAD_POSTSCRIPT_FIGURE
1002
{
1000
PSFILL
1000
Grayscale
1000
Grayscale
1070
    25
1002
}
  0
LINE
  5
4917
  8
YODOROGO
 10
29829.604341291921
 20
2027.749496429288
 30
0.0
 11
29765.604341291921
 21
2027.749496429288
 31
0.0
1001
AUTOCAD_POSTSCRIPT_FIGURE
1002
{
1000
PSFILL
1000
Grayscale
1000
Grayscale
1070
    25
1002
}
  0
LINE
  5
4918
  8
YODOROGO
 10
29829.604341291921
 20
1995.7494964292871
 30
0.0
 11
29829.604341291921
 21
2027.749496429288
 31
0.0
1001
AUTOCAD_POSTSCRIPT_FIGURE
1002
{
1000
PSFILL
1000
Grayscale
1000
Grayscale
1070
    25
1002
}
  0
LINE
  5
4919
  8
YODOROGO
 10
29829.604341291921
 20
1907.7494964292871
 30
0.0
 11
29829.604341291921
 21
1947.749496429288
 31
0.0
1001
AUTOCAD_POSTSCRIPT_FIGURE
1002
{
1000
PSFILL
1000
Grayscale
1000
Grayscale
1070
    25
1002
}
  0
LINE
  5
491A
  8
YODOROGO
 10
29829.604341291921
 20
1819.749496429288
 30
0.0
 11
29829.604341291921
 21
1859.749496429288
 31
0.0
1001
AUTOCAD_POSTSCRIPT_FIGURE
1002
{
1000
PSFILL
1000
Grayscale
1000
Grayscale
1070
    25
1002
}
  0
LINE
  5
491B
  8
YODOROGO
 10
29921.60434129191
 20
1771.749496429288
 30
0.0
 11
29921.60434129191
 21
1707.749496429288
 31
0.0
1001
AUTOCAD_POSTSCRIPT_FIGURE
1002
{
1000
PSFILL
1000
Grayscale
1000
Grayscale
1070
    25
1002
}
  0
LINE
  5
491C
  8
YODOROGO
 10
29829.604341291921
 20
1771.749496429288
 30
0.0
 11
29921.60434129191
 21
1771.749496429288
 31
0.0
1001
AUTOCAD_POSTSCRIPT_FIGURE
1002
{
1000
PSFILL
1000
Grayscale
1000
Grayscale
1070
    25
1002
}
  0
LINE
  5
491D
  8
YODOROGO
 10
29829.604341291921
 20
1707.749496429288
 30
0.0
 11
29829.604341291921
 21
1771.749496429288
 31
0.0
1001
AUTOCAD_POSTSCRIPT_FIGURE
1002
{
1000
PSFILL
1000
Grayscale
1000
Grayscale
1070
    25
1002
}
  0
LINE
  5
491E
  8
YODOROGO
 10
29765.604341291921
 20
1707.749496429288
 30
0.0
 11
29829.604341291921
 21
1707.749496429288
 31
0.0
1001
AUTOCAD_POSTSCRIPT_FIGURE
1002
{
1000
PSFILL
1000
Grayscale
1000
Grayscale
1070
    25
1002
}
  0
LINE
  5
491F
  8
YODOROGO
 10
29765.604341291921
 20
1771.749496429288
 30
0.0
 11
29765.604341291921
 21
1707.749496429288
 31
0.0
1001
AUTOCAD_POSTSCRIPT_FIGURE
1002
{
1000
PSFILL
1000
Grayscale
1000
Grayscale
1070
    25
1002
}
  0
LINE
  5
4920
  8
YODOROGO
 10
29673.604341291921
 20
1771.749496429288
 30
0.0
 11
29765.604341291921
 21
1771.749496429288
 31
0.0
1001
AUTOCAD_POSTSCRIPT_FIGURE
1002
{
1000
PSFILL
1000
Grayscale
1000
Grayscale
1070
    25
1002
}
  0
ARC
  5
4921
  8
YODOROGO
 10
31059.517893357912
 20
1602.6807375155761
 30
0.0
 40
178.22128111072149
 50
281.02627495425361
 51
357.77113575573799
  0
LINE
  5
4922
  8
YODOROGO
 10
31413.604341291921
 20
1907.7494964292871
 30
0.0
 11
31165.604341291921
 21
1907.7494964292871
 31
0.0
  0
LINE
  5
4923
  8
YODOROGO
 10
31413.604341291921
 20
2027.749496429288
 30
0.0
 11
31165.604341291921
 21
2027.749496429288
 31
0.0
  0
LINE
  5
4924
  8
YODOROGO
 10
31165.604341291921
 20
1963.7494964292871
 30
0.0
 11
31413.604341291921
 21
1963.7494964292871
 31
0.0
  0
LINE
  5
4925
  8
YODOROGO
 10
30791.604341291921
 20
1563.7494964292871
 30
0.0
 11
30791.604341291921
 21
1755.7494964292871
 31
0.0
  0
LINE
  5
4926
  8
YODOROGO
 10
30763.604341291921
 20
1691.7494964292889
 30
0.0
 11
30763.604341291921
 21
1563.7494964292871
 31
0.0
  0
LINE
  5
4927
  8
YODOROGO
 10
30723.604341291921
 20
1491.7494964292889
 30
0.0
 11
30723.604341291921
 21
1691.7494964292889
 31
0.0
  0
LINE
  5
4928
  8
YODOROGO
 10
30899.604341291932
 20
1691.7494964292889
 30
0.0
 11
30899.604341291932
 21
1491.7494964292889
 31
0.0
  0
LINE
  5
4929
  8
YODOROGO
 10
30859.604341291932
 20
1563.7494964292871
 30
0.0
 11
30859.604341291932
 21
1691.7494964292889
 31
0.0
  0
LINE
  5
492A
  8
YODOROGO
 10
30831.604341291921
 20
1755.7494964292871
 30
0.0
 11
30831.604341291921
 21
1563.7494964292871
 31
0.0
  0
LINE
  5
492B
  8
YODOROGO
 10
30973.604341291921
 20
2027.749496429288
 30
0.0
 11
30973.604341291921
 21
1467.749496429288
 31
0.0
  0
LINE
  5
492C
  8
YODOROGO
 10
30645.604341291921
 20
1427.749496429288
 30
0.0
 11
30645.604341291921
 21
2027.749496429288
 31
0.0
  0
LINE
  5
492D
  8
YODOROGO
 10
30697.604341291932
 20
1963.7494964292871
 30
0.0
 11
30697.604341291932
 21
1427.749496429288
 31
0.0
  0
LINE
  5
492E
  8
YODOROGO
 10
30925.604341291921
 20
1547.749496429288
 30
0.0
 11
30925.604341291921
 21
1963.7494964292871
 31
0.0
  0
LINE
  5
492F
  8
YODOROGO
 10
30381.604341291932
 20
1627.749496429288
 30
0.0
 11
30381.604341291932
 21
1679.749496429288
 31
0.0
  0
LINE
  5
4930
  8
YODOROGO
 10
30617.604341291921
 20
1679.749496429288
 30
0.0
 11
30617.604341291921
 21
1627.749496429288
 31
0.0
  0
LINE
  5
4931
  8
YODOROGO
 10
31165.604341291921
 20
1907.7494964292871
 30
0.0
 11
31165.604341291921
 21
1635.7494964292871
 31
0.0
  0
LINE
  5
4932
  8
YODOROGO
 10
29949.604341291921
 20
1667.749496429288
 30
0.0
 11
29949.604341291921
 21
1707.749496429288
 31
0.0
  0
LINE
  5
4933
  8
YODOROGO
 10
29949.604341291921
 20
1667.749496429288
 30
0.0
 11
29949.604341291921
 21
1707.749496429288
 31
0.0
  0
ARC
  5
4934
  8
YODOROGO
 10
30537.604341291921
 20
1507.749496429288
 30
0.0
 40
80.0
 50
270.0
 51
0.0
  0
LINE
  5
4935
  8
YODOROGO
 10
30569.604341291921
 20
1599.749496429288
 30
0.0
 11
30617.604341291921
 21
1599.749496429288
 31
0.0
  0
LINE
  5
4936
  8
YODOROGO
 10
30617.604341291921
 20
1627.749496429288
 30
0.0
 11
30529.604341291932
 21
1627.749496429288
 31
0.0
  0
LINE
  5
4937
  8
YODOROGO
 10
30217.604341291921
 20
1667.749496429288
 30
0.0
 11
29949.604341291921
 21
1667.749496429288
 31
0.0
  0
LINE
  5
4938
  8
YODOROGO
 10
30217.604341291921
 20
1627.749496429288
 30
0.0
 11
30217.604341291921
 21
1667.749496429288
 31
0.0
  0
LINE
  5
4939
  8
YODOROGO
 10
30017.604341291921
 20
1627.749496429288
 30
0.0
 11
30217.604341291921
 21
1627.749496429288
 31
0.0
  0
ARC
  5
493A
  8
YODOROGO
 10
30230.058828701371
 20
1868.8857149529019
 30
0.0
 40
321.37763628522828
 50
228.6181454618993
 51
245.660289248906
  0
LINE
  5
493B
  8
YODOROGO
 10
30105.604341291921
 20
1603.7494964292889
 30
0.0
 11
30097.604341291961
 21
1576.0728158699001
 31
0.0
  0
LINE
  5
493C
  8
YODOROGO
 10
30189.604341291921
 20
1603.7494964292889
 30
0.0
 11
30105.604341291921
 21
1603.7494964292889
 31
0.0
  0
LINE
  5
493D
  8
YODOROGO
 10
30177.604341291921
 20
1551.817722473427
 30
0.0
 11
30189.604341291921
 21
1603.7494964292889
 31
0.0
  0
ARC
  5
493E
  8
YODOROGO
 10
30230.058828700461
 20
1868.8857149530029
 30
0.0
 40
321.37763628529092
 50
260.60629297969928
 51
267.77903556555862
  0
LINE
  5
493F
  8
YODOROGO
 10
30217.604341291921
 20
1427.749496429285
 30
0.0
 11
30217.604341291921
 21
1547.749496429288
 31
0.0
  0
LINE
  5
4940
  8
YODOROGO
 10
29937.604341291932
 20
1481.339334915511
 30
0.0
 11
29937.604341291921
 21
1594.531090531141
 31
0.0
  0
LINE
  5
4941
  8
YODOROGO
 10
30217.604341291921
 20
1667.749496429288
 30
0.0
 11
29949.604341291921
 21
1667.749496429288
 31
0.0
  0
LINE
  5
4942
  8
YODOROGO
 10
30217.604341291921
 20
1627.749496429288
 30
0.0
 11
30217.604341291921
 21
1667.749496429288
 31
0.0
  0
LINE
  5
4943
  8
YODOROGO
 10
30017.604341291921
 20
1627.749496429288
 30
0.0
 11
30217.604341291921
 21
1627.749496429288
 31
0.0
  0
ARC
  5
4944
  8
YODOROGO
 10
30230.058828701371
 20
1868.8857149529019
 30
0.0
 40
321.37763628522828
 50
228.6181454618993
 51
245.660289248906
  0
LINE
  5
4945
  8
YODOROGO
 10
30105.604341291921
 20
1603.7494964292889
 30
0.0
 11
30097.604341291961
 21
1576.0728158699001
 31
0.0
  0
LINE
  5
4946
  8
YODOROGO
 10
30189.604341291921
 20
1603.7494964292889
 30
0.0
 11
30105.604341291921
 21
1603.7494964292889
 31
0.0
  0
LINE
  5
4947
  8
YODOROGO
 10
30177.604341291921
 20
1551.817722473427
 30
0.0
 11
30189.604341291921
 21
1603.7494964292889
 31
0.0
  0
ARC
  5
4948
  8
YODOROGO
 10
30230.058828700461
 20
1868.8857149530029
 30
0.0
 40
321.37763628529092
 50
260.60629297969928
 51
267.77903556555862
  0
LINE
  5
4949
  8
YODOROGO
 10
30217.604341291921
 20
1427.749496429285
 30
0.0
 11
30217.604341291921
 21
1547.749496429288
 31
0.0
  0
LINE
  5
494A
  8
YODOROGO
 10
29937.604341291932
 20
1481.339334915511
 30
0.0
 11
29937.604341291921
 21
1594.531090531141
 31
0.0
  0
LINE
  5
494B
  8
YODOROGO
 10
30433.604341291932
 20
1573.7494964292889
 30
0.0
 11
30381.604341291932
 21
1573.7494964292889
 31
0.0
  0
LINE
  5
494C
  8
YODOROGO
 10
30433.604341291932
 20
1601.749496429286
 30
0.0
 11
30433.604341291932
 21
1573.7494964292889
 31
0.0
  0
LINE
  5
494D
  8
YODOROGO
 10
30381.604341291932
 20
1601.749496429286
 30
0.0
 11
30433.604341291932
 21
1601.749496429286
 31
0.0
  0
LINE
  5
494E
  8
YODOROGO
 10
30381.604341291932
 20
1573.7494964292889
 30
0.0
 11
30381.604341291932
 21
1601.749496429286
 31
0.0
  0
LINE
  5
494F
  8
YODOROGO
 10
30429.604341291921
 20
1577.7494964292871
 30
0.0
 11
30385.604341291932
 21
1577.7494964292871
 31
0.0
  0
LINE
  5
4950
  8
YODOROGO
 10
30429.604341291921
 20
1597.749496429288
 30
0.0
 11
30429.604341291921
 21
1577.7494964292871
 31
0.0
  0
LINE
  5
4951
  8
YODOROGO
 10
30385.604341291932
 20
1597.749496429288
 30
0.0
 11
30429.604341291921
 21
1597.749496429288
 31
0.0
  0
LINE
  5
4952
  8
YODOROGO
 10
30385.604341291932
 20
1577.7494964292871
 30
0.0
 11
30385.604341291932
 21
1597.749496429288
 31
0.0
  0
LINE
  5
4953
  8
YODOROGO
 10
30425.604341291921
 20
1581.749496429286
 30
0.0
 11
30389.604341291932
 21
1581.749496429286
 31
0.0
  0
LINE
  5
4954
  8
YODOROGO
 10
30425.604341291932
 20
1593.7494964292889
 30
0.0
 11
30425.604341291921
 21
1581.749496429286
 31
0.0
  0
LINE
  5
4955
  8
YODOROGO
 10
30389.604341291932
 20
1593.7494964292889
 30
0.0
 11
30425.604341291932
 21
1593.7494964292889
 31
0.0
  0
LINE
  5
4956
  8
YODOROGO
 10
30389.604341291932
 20
1581.749496429286
 30
0.0
 11
30389.604341291932
 21
1593.7494964292889
 31
0.0
  0
LINE
  5
4957
  8
YODOROGO
 10
30421.604341291932
 20
1585.7494964292871
 30
0.0
 11
30393.604341291932
 21
1585.7494964292871
 31
0.0
  0
LINE
  5
4958
  8
YODOROGO
 10
30421.604341291932
 20
1589.749496429288
 30
0.0
 11
30421.604341291932
 21
1585.7494964292871
 31
0.0
  0
LINE
  5
4959
  8
YODOROGO
 10
30393.604341291932
 20
1589.749496429288
 30
0.0
 11
30421.604341291932
 21
1589.749496429288
 31
0.0
  0
LINE
  5
495A
  8
YODOROGO
 10
30393.604341291932
 20
1585.7494964292871
 30
0.0
 11
30393.604341291932
 21
1589.749496429288
 31
0.0
  0
LINE
  5
495B
  8
YODOROGO
 10
30465.604341291921
 20
1627.749496429288
 30
0.0
 11
30381.604341291932
 21
1627.749496429288
 31
0.0
  0
LINE
  5
495C
  8
YODOROGO
 10
30465.604341291921
 20
1547.749496429288
 30
0.0
 11
30465.604341291921
 21
1627.749496429288
 31
0.0
  0
LINE
  5
495D
  8
YODOROGO
 10
30381.604341291932
 20
1547.749496429288
 30
0.0
 11
30465.604341291921
 21
1547.749496429288
 31
0.0
  0
LINE
  5
495E
  8
YODOROGO
 10
30381.604341291932
 20
1427.749496429288
 30
0.0
 11
30381.604341291932
 21
1547.749496429288
 31
0.0
  0
LINE
  5
495F
  8
YODOROGO
 10
30537.604341291921
 20
1427.749496429288
 30
0.0
 11
30381.604341291932
 21
1427.749496429288
 31
0.0
  0
LINE
  5
4960
  8
YODOROGO
 10
30569.604341291921
 20
1571.749496429286
 30
0.0
 11
30569.604341291921
 21
1599.749496429288
 31
0.0
  0
ARC
  5
4961
  8
YODOROGO
 10
30545.60434129191
 20
1571.749496429291
 30
0.0
 40
24.000000000003752
 50
270.0
 51
359.99999999998778
  0
LINE
  5
4962
  8
YODOROGO
 10
30529.604341291932
 20
1547.749496429288
 30
0.0
 11
30545.60434129191
 21
1547.749496429288
 31
0.0
  0
LINE
  5
4963
  8
YODOROGO
 10
30529.604341291932
 20
1627.749496429288
 30
0.0
 11
30529.604341291932
 21
1547.749496429288
 31
0.0
  0
LINE
  5
4964
  8
YODOROGO
 10
30899.604341291932
 20
1547.749496429288
 30
0.0
 11
30925.604341291921
 21
1547.749496429288
 31
0.0
  0
LINE
  5
4965
  8
YODOROGO
 10
30933.604341291921
 20
1427.749496429288
 30
0.0
 11
30899.604341291932
 21
1427.749496429288
 31
0.0
  0
LINE
  5
4966
  8
YODOROGO
 10
30763.604341291921
 20
1563.7494964292871
 30
0.0
 11
30791.604341291921
 21
1563.7494964292871
 31
0.0
  0
LINE
  5
4967
  8
YODOROGO
 10
30899.604341291932
 20
1491.7494964292889
 30
0.0
 11
30723.604341291921
 21
1491.7494964292889
 31
0.0
  0
LINE
  5
4968
  8
YODOROGO
 10
30831.604341291921
 20
1563.7494964292871
 30
0.0
 11
30859.604341291932
 21
1563.7494964292871
 31
0.0
  0
LINE
  5
4969
  8
YODOROGO
 10
30899.604341291932
 20
1427.749496429288
 30
0.0
 11
30899.604341291932
 21
1547.749496429288
 31
0.0
  0
LINE
  5
496A
  8
YODOROGO
 10
30697.604341291932
 20
1427.749496429288
 30
0.0
 11
30645.604341291921
 21
1427.749496429288
 31
0.0
  0
LINE
  5
496B
  8
YODOROGO
 10
30617.604341291921
 20
1599.749496429288
 30
0.0
 11
30617.604341291921
 21
1507.749496429288
 31
0.0
  0
ARC
  5
496C
  8
YODOROGO
 10
30933.604341291921
 20
1467.749496429288
 30
0.0
 40
40.0
 50
270.0
 51
0.0
  0
LINE
  5
496D
  8
YODOROGO
 10
31093.604341291921
 20
1523.7494964292871
 30
0.0
 11
31093.604341291921
 21
1427.749496429288
 31
0.0
  0
ARC
  5
496E
  8
YODOROGO
 10
31039.721395566779
 20
1637.5313901097329
 30
0.0
 40
125.8955565916754
 50
295.34052442160112
 51
359.18902303418668
  0
LINE
  5
496F
  8
YODOROGO
 10
30617.604341291921
 20
1859.749496429288
 30
0.0
 11
30497.604341291921
 21
1939.749496429288
 31
0.0
  0
LINE
  5
4970
  8
YODOROGO
 10
30497.604341291921
 20
2027.749496429288
 30
0.0
 11
30617.604341291921
 21
1947.749496429288
 31
0.0
  0
LINE
  5
4971
  8
YODOROGO
 10
30529.604341291932
 20
1679.749496429288
 30
0.0
 11
30617.604341291921
 21
1679.749496429288
 31
0.0
  0
LINE
  5
4972
  8
YODOROGO
 10
30617.604341291921
 20
1735.7494964292871
 30
0.0
 11
30529.604341291932
 21
1735.7494964292871
 31
0.0
  0
LINE
  5
4973
  8
YODOROGO
 10
30381.604341291932
 20
1795.7494964292871
 30
0.0
 11
30617.604341291921
 21
1795.7494964292871
 31
0.0
  0
LINE
  5
4974
  8
YODOROGO
 10
30081.604341291932
 20
2027.749496429288
 30
0.0
 11
30021.604341291921
 21
2027.749496429288
 31
0.0
  0
LINE
  5
4975
  8
YODOROGO
 10
30081.604341291932
 20
1827.7494964292871
 30
0.0
 11
30081.604341291932
 21
2027.749496429288
 31
0.0
  0
LINE
  5
4976
  8
YODOROGO
 10
30021.604341291921
 20
1827.7494964292871
 30
0.0
 11
30081.604341291932
 21
1827.7494964292871
 31
0.0
  0
LINE
  5
4977
  8
YODOROGO
 10
30021.604341291921
 20
2027.749496429288
 30
0.0
 11
30021.604341291921
 21
1827.7494964292871
 31
0.0
  0
LINE
  5
4978
  8
YODOROGO
 10
30161.604341291932
 20
2027.749496429288
 30
0.0
 11
30217.604341291921
 21
2027.749496429288
 31
0.0
  0
LINE
  5
4979
  8
YODOROGO
 10
30161.604341291932
 20
1811.7494964292889
 30
0.0
 11
30161.604341291932
 21
2027.749496429288
 31
0.0
  0
ARC
  5
497A
  8
YODOROGO
 10
30121.604341291932
 20
1811.7494964292889
 30
0.0
 40
40.0
 50
270.0
 51
0.0
  0
LINE
  5
497B
  8
YODOROGO
 10
30021.604341291921
 20
1771.749496429288
 30
0.0
 11
30121.604341291932
 21
1771.749496429288
 31
0.0
  0
LINE
  5
497C
  8
YODOROGO
 10
30021.604341291921
 20
1707.749496429288
 30
0.0
 11
30021.604341291921
 21
1771.749496429288
 31
0.0
  0
LINE
  5
497D
  8
YODOROGO
 10
30137.604341291921
 20
1707.749496429288
 30
0.0
 11
30021.604341291921
 21
1707.749496429288
 31
0.0
  0
ARC
  5
497E
  8
YODOROGO
 10
30137.604341291921
 20
1787.749496429288
 30
0.0
 40
80.0
 50
270.0
 51
0.0
  0
LINE
  5
497F
  8
YODOROGO
 10
30217.604341291921
 20
2027.749496429288
 30
0.0
 11
30217.604341291921
 21
1787.749496429288
 31
0.0
  0
LINE
  5
4980
  8
YODOROGO
 10
29977.604341291921
 20
1947.749496429288
 30
0.0
 11
29977.604341291921
 21
1995.7494964292871
 31
0.0
1001
AUTOCAD_POSTSCRIPT_FIGURE
1002
{
1000
PSFILL
1000
Grayscale
1000
Grayscale
1070
    25
1002
}
  0
LINE
  5
4981
  8
YODOROGO
 10
29977.604341291921
 20
1859.749496429288
 30
0.0
 11
29977.604341291921
 21
1907.7494964292871
 31
0.0
1001
AUTOCAD_POSTSCRIPT_FIGURE
1002
{
1000
PSFILL
1000
Grayscale
1000
Grayscale
1070
    25
1002
}
  0
LINE
  5
4982
  8
YODOROGO
 10
29977.604341291921
 20
1707.749496429288
 30
0.0
 11
29977.604341291921
 21
1819.749496429288
 31
0.0
1001
AUTOCAD_POSTSCRIPT_FIGURE
1002
{
1000
PSFILL
1000
Grayscale
1000
Grayscale
1070
    25
1002
}
  0
LINE
  5
4983
  8
YODOROGO
 10
30381.604341291932
 20
1907.7494964292871
 30
0.0
 11
30497.604341291921
 21
2027.749496429288
 31
0.0
  0
LINE
  5
4984
  8
YODOROGO
 10
30381.604341291932
 20
1819.749496429288
 30
0.0
 11
30381.604341291932
 21
1907.7494964292871
 31
0.0
  0
LINE
  5
4985
  8
YODOROGO
 10
30497.604341291921
 20
1939.749496429288
 30
0.0
 11
30381.604341291932
 21
1819.749496429288
 31
0.0
  0
LINE
  5
4986
  8
YODOROGO
 10
30465.604341291921
 20
1679.749496429288
 30
0.0
 11
30465.604341291921
 21
1735.7494964292871
 31
0.0
  0
LINE
  5
4987
  8
YODOROGO
 10
30381.604341291932
 20
1679.749496429288
 30
0.0
 11
30465.604341291921
 21
1679.749496429288
 31
0.0
  0
LINE
  5
4988
  8
YODOROGO
 10
30529.604341291932
 20
1735.7494964292871
 30
0.0
 11
30529.604341291932
 21
1679.749496429288
 31
0.0
  0
LINE
  5
4989
  8
YODOROGO
 10
30381.604341291932
 20
1735.7494964292871
 30
0.0
 11
30381.604341291932
 21
1795.7494964292871
 31
0.0
  0
LINE
  5
498A
  8
YODOROGO
 10
30465.604341291921
 20
1735.7494964292871
 30
0.0
 11
30381.604341291932
 21
1735.7494964292871
 31
0.0
  0
LINE
  5
498B
  8
YODOROGO
 10
30645.604341291921
 20
2027.749496429288
 30
0.0
 11
30973.604341291921
 21
2027.749496429288
 31
0.0
  0
LINE
  5
498C
  8
YODOROGO
 10
30925.604341291921
 20
1963.7494964292871
 30
0.0
 11
30697.604341291932
 21
1963.7494964292871
 31
0.0
  0
LINE
  5
498D
  8
YODOROGO
 10
30873.604341291921
 20
1819.749496429288
 30
0.0
 11
30899.604341291932
 21
1819.749496429288
 31
0.0
  0
LINE
  5
498E
  8
YODOROGO
 10
30899.604341291932
 20
1939.749496429288
 30
0.0
 11
30873.604341291921
 21
1819.749496429288
 31
0.0
  0
LINE
  5
498F
  8
YODOROGO
 10
30851.604341291932
 20
1939.749496429288
 30
0.0
 11
30899.604341291932
 21
1939.749496429288
 31
0.0
  0
LINE
  5
4990
  8
YODOROGO
 10
30825.604341291921
 20
1819.749496429288
 30
0.0
 11
30851.604341291932
 21
1939.749496429288
 31
0.0
  0
LINE
  5
4991
  8
YODOROGO
 10
30797.604341291921
 20
1819.749496429288
 30
0.0
 11
30825.604341291921
 21
1819.749496429288
 31
0.0
  0
LINE
  5
4992
  8
YODOROGO
 10
30771.604341291932
 20
1939.749496429288
 30
0.0
 11
30797.604341291921
 21
1819.749496429288
 31
0.0
  0
LINE
  5
4993
  8
YODOROGO
 10
30723.604341291921
 20
1939.749496429288
 30
0.0
 11
30771.604341291932
 21
1939.749496429288
 31
0.0
  0
LINE
  5
4994
  8
YODOROGO
 10
30749.604341291921
 20
1819.749496429288
 30
0.0
 11
30723.604341291921
 21
1939.749496429288
 31
0.0
  0
LINE
  5
4995
  8
YODOROGO
 10
30723.604341291921
 20
1819.749496429288
 30
0.0
 11
30749.604341291921
 21
1819.749496429288
 31
0.0
  0
LINE
  5
4996
  8
YODOROGO
 10
30723.604341291921
 20
1755.7494964292871
 30
0.0
 11
30723.604341291921
 21
1819.749496429288
 31
0.0
  0
LINE
  5
4997
  8
YODOROGO
 10
30899.604341291932
 20
1755.7494964292871
 30
0.0
 11
30723.604341291921
 21
1755.7494964292871
 31
0.0
  0
LINE
  5
4998
  8
YODOROGO
 10
30899.604341291932
 20
1819.749496429288
 30
0.0
 11
30899.604341291932
 21
1755.7494964292871
 31
0.0
  0
LINE
  5
4999
  8
YODOROGO
 10
30617.604341291921
 20
1947.749496429288
 30
0.0
 11
30617.604341291921
 21
1859.749496429288
 31
0.0
  0
LINE
  5
499A
  8
YODOROGO
 10
30791.604341291921
 20
1755.7494964292871
 30
0.0
 11
30831.604341291921
 21
1755.7494964292871
 31
0.0
  0
LINE
  5
499B
  8
YODOROGO
 10
30723.604341291921
 20
1691.7494964292889
 30
0.0
 11
30763.604341291921
 21
1691.7494964292889
 31
0.0
  0
LINE
  5
499C
  8
YODOROGO
 10
30859.604341291932
 20
1691.7494964292889
 30
0.0
 11
30899.604341291932
 21
1691.7494964292889
 31
0.0
  0
LINE
  5
499D
  8
YODOROGO
 10
30617.604341291921
 20
1795.7494964292871
 30
0.0
 11
30617.604341291921
 21
1735.7494964292871
 31
0.0
  0
LINE
  5
499E
  8
YODOROGO
 10
31165.604341291921
 20
2027.749496429288
 30
0.0
 11
31165.604341291921
 21
1963.7494964292871
 31
0.0
  0
LINE
  5
499F
  8
YODOROGO
 10
31533.604341291921
 20
1595.7494964292871
 30
0.0
 11
31533.60434129191
 21
1811.7494964292889
 31
0.0
  0
LINE
  5
49A0
  8
YODOROGO
 10
31461.60434129191
 20
1987.749496429288
 30
0.0
 11
31461.60434129191
 21
1635.7494964292871
 31
0.0
  0
LINE
  5
49A1
  8
YODOROGO
 10
31653.604341291921
 20
1427.749496429288
 30
0.0
 11
31653.60434129191
 21
1811.7494964292889
 31
0.0
  0
LINE
  5
49A2
  8
YODOROGO
 10
31589.604341291921
 20
1811.7494964292889
 30
0.0
 11
31589.604341291921
 21
1427.749496429288
 31
0.0
  0
LINE
  5
49A3
  8
YODOROGO
 10
31237.604341291921
 20
1595.7494964292871
 30
0.0
 11
31237.604341291921
 21
1707.749496429288
 31
0.0
  0
ARC
  5
49A4
  8
YODOROGO
 10
31353.914865116069
 20
1607.790351288558
 30
0.0
 40
180.09244857598861
 50
268.62849102169793
 51
356.16638457330322
  0
LINE
  5
49A5
  8
YODOROGO
 10
31349.604341291932
 20
1527.749496429288
 30
0.0
 11
31349.604341291932
 21
1427.749496429288
 31
0.0
  0
ARC
  5
49A6
  8
YODOROGO
 10
31351.518075724562
 20
1637.838957017655
 30
0.0
 40
110.1060929836122
 50
269.00410209305937
 51
358.91264455492478
  0
LINE
  5
49A7
  8
YODOROGO
 10
31589.604341291921
 20
1427.749496429288
 30
0.0
 11
31653.604341291921
 21
1427.749496429288
 31
0.0
  0
LINE
  5
49A8
  8
YODOROGO
 10
31533.60434129191
 20
1811.7494964292889
 30
0.0
 11
31589.604341291921
 21
1811.7494964292889
 31
0.0
  0
LINE
  5
49A9
  8
YODOROGO
 10
31621.604341291932
 20
1987.749496429288
 30
0.0
 11
31461.60434129191
 21
1987.749496429288
 31
0.0
  0
LINE
  5
49AA
  8
YODOROGO
 10
31533.60434129191
 20
1915.7494964292871
 30
0.0
 11
31661.604341291932
 21
1915.7494964292871
 31
0.0
  0
LINE
  5
49AB
  8
YODOROGO
 10
31701.604341291932
 20
1875.7494964292871
 30
0.0
 11
31533.60434129191
 21
1875.7494964292871
 31
0.0
  0
LINE
  5
49AC
  8
YODOROGO
 10
31237.604341291921
 20
1779.749496429288
 30
0.0
 11
31349.604341291932
 21
1779.749496429288
 31
0.0
  0
LINE
  5
49AD
  8
YODOROGO
 10
31237.604341291921
 20
1835.7494964292871
 30
0.0
 11
31237.604341291921
 21
1779.749496429288
 31
0.0
  0
LINE
  5
49AE
  8
YODOROGO
 10
31349.604341291932
 20
1835.7494964292871
 30
0.0
 11
31237.604341291921
 21
1835.7494964292871
 31
0.0
  0
LINE
  5
49AF
  8
YODOROGO
 10
31349.604341291932
 20
1779.749496429288
 30
0.0
 11
31349.604341291932
 21
1835.7494964292871
 31
0.0
  0
LINE
  5
49B0
  8
YODOROGO
 10
31533.60434129191
 20
1875.7494964292871
 30
0.0
 11
31533.60434129191
 21
1915.7494964292871
 31
0.0
  0
LINE
  5
49B1
  8
YODOROGO
 10
31413.604341291921
 20
1707.749496429288
 30
0.0
 11
31413.604341291921
 21
1907.7494964292871
 31
0.0
  0
LINE
  5
49B2
  8
YODOROGO
 10
31237.604341291921
 20
1707.749496429288
 30
0.0
 11
31413.604341291921
 21
1707.749496429288
 31
0.0
  0
LINE
  5
49B3
  8
YODOROGO
 10
31413.604341291921
 20
1963.7494964292871
 30
0.0
 11
31413.604341291921
 21
2027.749496429288
 31
0.0
  0
ARC
  5
49B4
  8
YODOROGO
 10
31621.604341291932
 20
2003.749496429285
 30
0.0
 40
15.999999999994539
 50
270.0
 51
0.0000000000081422
  0
LINE
  5
49B5
  8
YODOROGO
 10
31637.604341291921
 20
2027.749496429288
 30
0.0
 11
31637.604341291921
 21
2003.7494964292871
 31
0.0
  0
LINE
  5
49B6
  8
YODOROGO
 10
31701.604341291932
 20
2027.749496429288
 30
0.0
 11
31637.604341291921
 21
2027.749496429288
 31
0.0
  0
LINE
  5
49B7
  8
YODOROGO
 10
31701.604341291932
 20
1955.7494964292871
 30
0.0
 11
31701.604341291932
 21
2027.749496429288
 31
0.0
  0
ARC
  5
49B8
  8
YODOROGO
 10
31661.604341291932
 20
1955.7494964292871
 30
0.0
 40
40.0
 50
270.0
 51
0.0
  0
LINE
  5
49B9
  8
YODOROGO
 10
31701.604341291932
 20
1811.7494964292889
 30
0.0
 11
31701.604341291932
 21
1875.7494964292871
 31
0.0
  0
LINE
  5
49BA
  8
YODOROGO
 10
31653.60434129191
 20
1811.7494964292889
 30
0.0
 11
31701.604341291932
 21
1811.7494964292889
 31
0.0
  0
ENDSEC
  0
EOF
