  0
SECTION
  2
HEADER
  9
$ACADVER
  1
AC1009
  9
$INSBASE
 10
0.0
 20
0.0
 30
0.0
  9
$EXTMIN
 10
867.99324330406671
 20
327.38164749855792
 30
-0.0000000000000053
  9
$EXTMAX
 10
32765.33210850941
 20
22484.553276491992
 30
0.0000000000000099
  9
$LIMMIN
 10
0.0
 20
0.0
  9
$LIMMAX
 10
33600.0
 20
23760.0
  9
$ORTHOMODE
 70
     1
  9
$REGENMODE
 70
     1
  9
$FILLMODE
 70
     1
  9
$QTEXTMODE
 70
     0
  9
$MIRRTEXT
 70
     1
  9
$DRAGMODE
 70
     2
  9
$LTSCALE
 40
80.0
  9
$OSMODE
 70
  3071
  9
$ATTMODE
 70
     1
  9
$TEXTSIZE
 40
0.2
  9
$TRACEWID
 40
0.05
  9
$TEXTSTYLE
  7
00
  9
$CLAYER
  8
0
  9
$CELTYPE
  6
BYLAYER
  9
$CECOLOR
 62
   256
  9
$DIMSCALE
 40
80.0
  9
$DIMASZ
 40
3.0
  9
$DIMEXO
 40
1.0
  9
$DIMDLI
 40
0.38
  9
$DIMRND
 40
0.5
  9
$DIMDLE
 40
0.0
  9
$DIMEXE
 40
1.0
  9
$DIMTP
 40
0.0
  9
$DIMTM
 40
0.0
  9
$DIMTXT
 40
2.0
  9
$DIMCEN
 40
0.09
  9
$DIMTSZ
 40
0.0
  9
$DIMTOL
 70
     0
  9
$DIMLIM
 70
     0
  9
$DIMTIH
 70
     0
  9
$DIMTOH
 70
     0
  9
$DIMSE1
 70
     0
  9
$DIMSE2
 70
     0
  9
$DIMTAD
 70
     1
  9
$DIMZIN
 70
     8
  9
$DIMBLK
  1
DOTSMALL
  9
$DIMASO
 70
     1
  9
$DIMSHO
 70
     1
  9
$DIMPOST
  1

  9
$DIMAPOST
  1

  9
$DIMALT
 70
     0
  9
$DIMALTD
 70
     2
  9
$DIMALTF
 40
25.399999999999999
  9
$DIMLFAC
 40
1.0
  9
$DIMTOFL
 70
     1
  9
$DIMTVP
 40
0.0
  9
$DIMTIX
 70
     0
  9
$DIMSOXD
 70
     0
  9
$DIMSAH
 70
     0
  9
$DIMBLK1
  1

  9
$DIMBLK2
  1

  9
$DIMSTYLE
  2
SUNPOU
  9
$DIMCLRD
 70
     4
  9
$DIMCLRE
 70
     4
  9
$DIMCLRT
 70
     7
  9
$DIMTFAC
 40
1.0
  9
$DIMGAP
 40
1.0
  9
$LUNITS
 70
     2
  9
$LUPREC
 70
     4
  9
$SKETCHINC
 40
0.1
  9
$FILLETRAD
 40
0.0
  9
$AUNITS
 70
     0
  9
$AUPREC
 70
     0
  9
$MENU
  1
acad
  9
$ELEVATION
 40
0.0
  9
$PELEVATION
 40
0.0
  9
$THICKNESS
 40
0.0
  9
$LIMCHECK
 70
     0
  9
$BLIPMODE
 70
     1
  9
$CHAMFERA
 40
0.0
  9
$CHAMFERB
 40
0.0
  9
$SKPOLY
 70
     0
  9
$TDCREATE
 40
2440588.749988426
  9
$TDUPDATE
 40
2458942.44730963
  9
$TDINDWG
 40
0.1355937384
  9
$TDUSRTIMER
 40
0.1355893981
  9
$USRTIMER
 70
     1
  9
$ANGBASE
 50
0.0
  9
$ANGDIR
 70
     0
  9
$PDMODE
 70
     0
  9
$PDSIZE
 40
0.0
  9
$PLINEWID
 40
0.0
  9
$COORDS
 70
     1
  9
$SPLFRAME
 70
     0
  9
$SPLINETYPE
 70
     6
  9
$SPLINESEGS
 70
     8
  9
$ATTDIA
 70
     1
  9
$ATTREQ
 70
     1
  9
$HANDLING
 70
     1
  9
$HANDSEED
  5
4F9D
  9
$SURFTAB1
 70
     6
  9
$SURFTAB2
 70
     6
  9
$SURFTYPE
 70
     6
  9
$SURFU
 70
     6
  9
$SURFV
 70
     6
  9
$UCSNAME
  2

  9
$UCSORG
 10
0.0
 20
0.0
 30
0.0
  9
$UCSXDIR
 10
1.0
 20
0.0
 30
0.0
  9
$UCSYDIR
 10
0.0
 20
1.0
 30
0.0
  9
$PUCSNAME
  2

  9
$PUCSORG
 10
0.0
 20
0.0
 30
0.0
  9
$PUCSXDIR
 10
1.0
 20
0.0
 30
0.0
  9
$PUCSYDIR
 10
0.0
 20
1.0
 30
0.0
  9
$USERI1
 70
     0
  9
$USERI2
 70
     0
  9
$USERI3
 70
     0
  9
$USERI4
 70
     0
  9
$USERI5
 70
     0
  9
$USERR1
 40
0.0
  9
$USERR2
 40
0.0
  9
$USERR3
 40
0.0
  9
$USERR4
 40
0.0
  9
$USERR5
 40
0.0
  9
$WORLDVIEW
 70
     1
  9
$SHADEDGE
 70
     3
  9
$SHADEDIF
 70
    70
  9
$TILEMODE
 70
     1
  9
$MAXACTVP
 70
    16
  9
$PLIMCHECK
 70
     0
  9
$PEXTMIN
 10
1.0000000000000000E+020
 20
1.0000000000000000E+020
 30
1.0000000000000000E+020
  9
$PEXTMAX
 10
-1.0000000000000000E+020
 20
-1.0000000000000000E+020
 30
-1.0000000000000000E+020
  9
$PLIMMIN
 10
0.0
 20
0.0
  9
$PLIMMAX
 10
12.0
 20
9.0
  9
$UNITMODE
 70
     0
  9
$VISRETAIN
 70
     0
  9
$PLINEGEN
 70
     1
  9
$PSLTSCALE
 70
     0
  0
ENDSEC
  0
SECTION
  2
TABLES
  0
TABLE
  2
VPORT
 70
     1
  0
VPORT
  2
*ACTIVE
 70
     0
 10
0.0
 20
0.0
 11
1.0
 21
1.0
 12
16800.0
 22
11880.0
 13
0.0
 23
0.0
 14
1.0
 24
1.0
 15
0.0
 25
0.0
 16
0.0
 26
0.0
 36
1.0
 17
0.0
 27
0.0
 37
0.0
 40
23981.023255813951
 41
2.195652173913043
 42
50.0
 43
0.0
 44
0.0
 50
0.0
 51
0.0
 71
     0
 72
 10000
 73
     1
 74
     1
 75
     0
 76
     0
 77
     0
 78
     0
  0
ENDTAB
  0
TABLE
  2
LTYPE
 70
     3
  0
LTYPE
  2
CONTINUOUS
 70
     0
  3
Solid line
 72
    65
 73
     0
 40
0.0
  0
LTYPE
  2
DASHED1
 70
     0
  3
--  --  --  --  --  --  --  --  
 72
    65
 73
     2
 40
2.0
 49
1.25
 49
-1.25
  0
LTYPE
  2
CENTER2
 70
     0
  3
----------  --  ----------  --  
 72
    65
 73
     4
 40
20.0
 49
12.5
 49
-2.5
 49
2.5
 49
-2.5
  0
ENDTAB
  0
TABLE
  2
LAYER
 70
    19
  0
LAYER
  2
0
 70
     0
 62
     7
  6
CONTINUOUS
  0
LAYER
  2
SUNPOU
 70
     0
 62
     4
  6
CONTINUOUS
  0
LAYER
  2
0-1
 70
     0
 62
     7
  6
CONTINUOUS
  0
LAYER
  2
0-0
 70
     0
 62
     7
  6
CONTINUOUS
  0
LAYER
  2
0-2
 70
     0
 62
     7
  6
CONTINUOUS
  0
LAYER
  2
0-6
 70
     0
 62
     7
  6
CONTINUOUS
  0
LAYER
  2
0-7
 70
     0
 62
     7
  6
CONTINUOUS
  0
LAYER
  2
0-8
 70
     0
 62
     7
  6
CONTINUOUS
  0
LAYER
  2
YODOROGO
 70
     0
 62
   130
  6
CONTINUOUS
  0
LAYER
  2
WAKUSEN-01
 70
     0
 62
    50
  6
CONTINUOUS
  0
LAYER
  2
WAKUSEN-02
 70
     0
 62
   130
  6
CONTINUOUS
  0
LAYER
  2
WAKUMOJI-01
 70
     0
 62
   130
  6
CONTINUOUS
  0
LAYER
  2
FILENAME
 70
     0
 62
     7
  6
CONTINUOUS
  0
LAYER
  2
NAME
 70
     0
 62
    20
  6
CONTINUOUS
  0
LAYER
  2
0-4
 70
     0
 62
     7
  6
CONTINUOUS
  0
LAYER
  2
2-0
 70
     0
 62
     7
  6
CONTINUOUS
  0
LAYER
  2
0-5
 70
     0
 62
     7
  6
CONTINUOUS
  0
ENDTAB
  0
TABLE
  2
STYLE
 70
     6
  0
STYLE
  2
STANDARD
 70
     0
 40
0.0
 41
1.0
 50
0.0
 71
     0
 42
0.0
  3
txt
  4
BIGFONT
  0
STYLE
  2
00
 70
     0
 40
0.0
 41
0.6666666666666666
 50
0.0
 71
     0
 42
0.2
  3
ROMANS
  4
BIGFONT
  0
STYLE
  2
01
 70
     0
 40
3.0
 41
1.0
 50
0.0
 71
     0
 42
0.2
  3
ROMANS
  4
BIGFONT
  0
STYLE
  2
WAKUMOJI
 70
     0
 40
3.0
 41
1.0
 50
0.0
 71
     0
 42
3.0
  3
SIMPLEX
  4
BIGFONT
  0
STYLE
  2
FILENAME
 70
     0
 40
200.0
 41
1.0
 50
0.0
 71
     0
 42
200.0
  3
romans
  4
bigfont
  0
ENDTAB
  0
TABLE
  2
VIEW
 70
     0
  0
ENDTAB
  0
TABLE
  2
UCS
 70
     0
  0
ENDTAB
  0
TABLE
  2
APPID
 70
    13
  0
APPID
  2
ACAD
 70
     0
  0
APPID
  2
ACADANNOTATIVE
 70
     0
  0
APPID
  2
ACAD_PSEXT
 70
     0
  0
APPID
  2
DCO15
 70
     0
  0
APPID
  2
ACAD_MLEADERVER
 70
     0
  0
APPID
  2
AUTOCAD_POSTSCRIPT_FIGURE
 70
     0
  0
APPID
  2
ACAD_EXEMPT_FROM_CAD_STANDARDS
 70
     0
  0
APPID
  2
ACAD_DSTYLE_DIMJAG
 70
     0
  0
APPID
  2
ACAD_DSTYLE_DIMTALN
 70
     0
  0
APPID
  2
ACAD_DSTYLE_DIM_LINETYPE
 70
     0
  0
APPID
  2
ACAD_DSTYLE_DIM_EXT1_LINETYPE
 70
     0
  0
APPID
  2
ACAD_DSTYLE_DIM_EXT2_LINETYPE
 70
     0
  0
APPID
  2
ACAD_NAV_VCDISPLAY
 70
     0
  0
ENDTAB
  0
TABLE
  2
DIMSTYLE
 70
     3
  0
DIMSTYLE
  2
SUNPOU
 70
     0
  3

  4

  5

  6

  7

 40
80.0
 41
3.0
 42
1.0
 43
0.38
 44
1.0
 45
0.5
 46
0.0
 47
0.0
 48
0.0
140
2.0
141
0.09
142
0.0
143
25.399999999999999
144
1.0
145
0.0
146
1.0
147
1.0
 71
     0
 72
     0
 73
     0
 74
     0
 75
     0
 76
     0
 77
     1
 78
     8
170
     0
171
     2
172
     1
173
     0
174
     0
175
     0
176
     4
177
     4
178
     7
  0
ENDTAB
  0
ENDSEC
  0
SECTION
  2
BLOCKS
  0
BLOCK
  8
0
  2
$MODEL_SPACE
 70
     0
 10
0.0
 20
0.0
 30
0.0
  3
$MODEL_SPACE
  1

  0
ENDBLK
  5
4EF0
  8
0
  0
BLOCK
 67
     1
  8
0
  2
$PAPER_SPACE
 70
     0
 10
0.0
 20
0.0
 30
0.0
  3
$PAPER_SPACE
  1

  0
ENDBLK
  5
4EEC
 67
     1
  8
0
  0
BLOCK
  8
0
  2
_DOTSMALL
 70
     0
 10
0.0
 20
0.0
 30
0.0
  3
_DOTSMALL
  1

  0
POLYLINE
  5
43D1
  8
0
  6
BYBLOCK
 62
     0
 66
     1
 10
0.0
 20
0.0
 30
0.0
 70
     1
 40
0.5
 41
0.5
  0
VERTEX
  5
4F5A
  8
0
  6
BYBLOCK
 62
     0
 10
-0.0625
 20
0.0
 30
0.0
 42
1.0
  0
VERTEX
  5
4F5B
  8
0
  6
BYBLOCK
 62
     0
 10
0.0625
 20
0.0
 30
0.0
 42
1.0
  0
SEQEND
  5
4F5C
  8
0
  6
BYBLOCK
 62
     0
  0
ENDBLK
  5
43D5
  8
0
  0
ENDSEC
  0
SECTION
  2
ENTITIES
  0
LINE
  5
43D6
  8
0-2
  6
CONTINUOUS
 62
     3
 10
9352.0888769999856
 20
17109.538018999981
 30
0.0
 11
13514.53945499998
 21
17109.538018999981
 31
0.0
  0
LINE
  5
43D7
  8
0-2
  6
CONTINUOUS
 62
     3
 10
9402.0894969999827
 20
14347.539432
 30
0.0
 11
9402.0894969999827
 21
19807.539762
 31
0.0
  0
LINE
  5
43D8
  8
0-2
  6
CONTINUOUS
 62
     3
 10
9266.5884809999807
 20
14315.538535
 30
0.0
 11
9266.5884809999807
 21
19855.539128
 31
0.0
  0
LINE
  5
43D9
  8
0-2
  6
CONTINUOUS
 62
     3
 10
9340.0909749999828
 20
19855.539128
 30
0.0
 11
13798.08875799998
 21
19855.539128
 31
0.0
  0
LINE
  5
43DA
  8
0-2
  6
CONTINUOUS
 62
     3
 10
11486.116866999981
 20
18243.088616000001
 30
0.0
 11
11612.85851299997
 21
18458.580989000009
 31
0.0
  0
LINE
  5
43DB
  8
0-2
  6
CONTINUOUS
 62
     3
 10
12221.33580199997
 20
17520.625699000011
 30
0.0
 11
12348.07843799994
 21
17736.118072000001
 31
0.0
  0
LINE
  5
43DC
  8
0-2
  6
CONTINUOUS
 62
     3
 10
12221.33580199997
 20
17520.625699000011
 30
0.0
 11
11612.85851299997
 21
18458.580989000009
 31
0.0
  0
LINE
  5
43DD
  8
0-2
  6
CONTINUOUS
 62
     3
 10
9352.0888769999856
 20
17030.537412000001
 30
0.0
 11
13672.37147299999
 21
17030.537412000001
 31
0.0
  0
LINE
  5
43DE
  8
0-2
  6
CONTINUOUS
 62
     3
 10
9309.5886129999853
 20
14471.539444999989
 30
0.0
 11
13828.58815099998
 21
14471.539444999989
 31
0.0
  0
LINE
  5
43DF
  8
0-2
  6
CONTINUOUS
 62
     3
 10
9352.0888769999856
 20
14550.539063
 30
0.0
 11
13786.08887699998
 21
14550.539063
 31
0.0
  0
LINE
  5
43E0
  8
0-2
  6
CONTINUOUS
 62
     3
 10
9266.5884809999807
 20
14315.538535
 30
0.0
 11
13871.58729299998
 21
14315.538535
 31
0.0
  0
LINE
  5
43E1
  8
0-2
  6
CONTINUOUS
 62
     3
 10
9266.5884809999807
 20
14347.539432
 30
0.0
 11
13871.58729299998
 21
14347.539432
 31
0.0
  0
LINE
  5
43E2
  8
0-2
  6
CONTINUOUS
 62
     3
 10
9352.0888769999856
 20
14471.539444999989
 30
0.0
 11
9352.0888769999856
 21
19367.003840000001
 31
0.0
  0
LINE
  5
43E3
  8
0-2
  6
CONTINUOUS
 62
     3
 10
9309.5886129999853
 20
14471.539444999989
 30
0.0
 11
9309.5886129999853
 21
19389.48919199999
 31
0.0
  0
LINE
  5
43E4
  8
0-2
  6
CONTINUOUS
 62
     3
 10
9422.0886129999908
 20
14508.039787999989
 30
0.0
 11
11849.58815099998
 21
17075.53978799998
 31
0.0
  0
LINE
  5
43E5
  8
0-2
  6
CONTINUOUS
 62
     3
 10
11849.58815099998
 20
14508.039787999989
 30
0.0
 11
9422.0886129999908
 21
17075.53978799998
 31
0.0
  0
LINE
  5
43E6
  8
0-2
  6
CONTINUOUS
 62
     3
 10
13716.08815099998
 20
14508.039787999989
 30
0.0
 11
11989.588612999971
 21
17075.53978799998
 31
0.0
  0
LINE
  5
43E7
  8
0-2
  6
CONTINUOUS
 62
     3
 10
13828.58815099998
 20
14471.539444999989
 30
0.0
 11
13828.58815099998
 21
16947.898449999971
 31
0.0
  0
LINE
  5
43E8
  8
0-2
  6
CONTINUOUS
 62
     3
 10
13786.08887699998
 20
14471.539444999989
 30
0.0
 11
13786.08887699998
 21
16970.379841999991
 31
0.0
  0
LINE
  5
43E9
  8
0-2
  6
CONTINUOUS
 62
     3
 10
13871.58729299998
 20
14315.538535
 30
0.0
 11
13871.58729299998
 21
19855.539128
 31
0.0
  0
LINE
  5
43EA
  8
0-2
  6
CONTINUOUS
 62
     3
 10
13736.088256999979
 20
14347.539432
 30
0.0
 11
13736.088256999979
 21
19807.539762
 31
0.0
  0
LINE
  5
43EB
  8
0-2
  6
CONTINUOUS
 62
     3
 10
11486.116866999981
 20
18243.088616000001
 30
0.0
 11
9118.3938409999864
 21
19490.634673
 31
0.0
  0
LINE
  5
43EC
  8
0-2
  6
CONTINUOUS
 62
     3
 10
9422.0886129999908
 20
17075.53978799998
 30
0.0
 11
10846.23847499998
 21
18581.596191000001
 31
0.0
  0
LINE
  5
43ED
  8
0-2
  6
CONTINUOUS
 62
     3
 10
10023.52976799996
 20
19016.825024000002
 30
0.0
 11
11849.58815099998
 21
17075.53978799998
 31
0.0
  0
LINE
  5
43EE
  8
0-2
  6
CONTINUOUS
 62
     3
 10
9284.5892329999824
 20
19807.539762
 30
0.0
 11
13853.587530999959
 21
19807.539762
 31
0.0
  0
LINE
  5
43EF
  8
0-2
  6
CONTINUOUS
 62
     3
 10
9284.5892329999824
 20
19825.53754500001
 30
0.0
 11
9335.0907109999844
 21
19825.53754500001
 31
0.0
  0
LINE
  5
43F0
  8
0-2
  6
CONTINUOUS
 62
     3
 10
9284.5892329999824
 20
19848.040712000002
 30
0.0
 11
9266.5884809999807
 21
19848.040712000002
 31
0.0
  0
LINE
  5
43F1
  8
0-2
  6
CONTINUOUS
 62
     3
 10
9335.0907109999844
 20
19865.539656000001
 30
0.0
 11
9271.5887449999809
 21
19865.539656000001
 31
0.0
  0
LINE
  5
43F2
  8
0-2
  6
CONTINUOUS
 62
     3
 10
9266.5884809999807
 20
19860.539391999999
 30
0.0
 11
9266.5884809999807
 21
19825.53754500001
 31
0.0
  0
LINE
  5
43F3
  8
0-2
  6
CONTINUOUS
 62
     3
 10
9340.0909749999828
 20
19830.537809000001
 30
0.0
 11
9340.0909749999828
 21
19860.539391999999
 31
0.0
  0
LINE
  5
43F4
  8
0-2
  6
CONTINUOUS
 62
     3
 10
9284.5892329999824
 20
19401.126780999999
 30
0.0
 11
9284.5892329999824
 21
19848.040712000002
 31
0.0
  0
LINE
  5
43F5
  8
0-2
  6
CONTINUOUS
 62
     3
 10
13803.088031999991
 20
19865.539656000001
 30
0.0
 11
13866.589008999979
 21
19865.539656000001
 31
0.0
  0
LINE
  5
43F6
  8
0-2
  6
CONTINUOUS
 62
     3
 10
13871.58729299998
 20
19860.539391999999
 30
0.0
 11
13871.58729299998
 21
19825.53754500001
 31
0.0
  0
LINE
  5
43F7
  8
0-2
  6
CONTINUOUS
 62
     3
 10
13853.587530999959
 20
19825.53754500001
 30
0.0
 11
13803.088031999991
 21
19825.53754500001
 31
0.0
  0
LINE
  5
43F8
  8
0-2
  6
CONTINUOUS
 62
     3
 10
13798.08875799998
 20
19830.537809000001
 30
0.0
 11
13798.08875799998
 21
19860.539391999999
 31
0.0
  0
LINE
  5
43F9
  8
0-2
  6
CONTINUOUS
 62
     3
 10
13853.587530999959
 20
19848.040712000002
 30
0.0
 11
13871.58729299998
 21
19848.040712000002
 31
0.0
  0
LINE
  5
43FA
  8
0-2
  6
CONTINUOUS
 62
     3
 10
13853.587530999959
 20
16936.256901000001
 30
0.0
 11
13853.587530999959
 21
19848.040712000002
 31
0.0
  0
LINE
  5
43FB
  8
0-2
  6
CONTINUOUS
 62
     3
 10
11862.58863899998
 20
14550.539063
 30
0.0
 11
11862.58863899998
 21
17030.537412000001
 31
0.0
  0
LINE
  5
43FC
  8
0-2
  6
CONTINUOUS
 62
     3
 10
11976.58812399998
 20
14550.539063
 30
0.0
 11
11976.58812399998
 21
17030.537412000001
 31
0.0
  0
LINE
  5
43FD
  8
0-2
  6
CONTINUOUS
 62
     3
 10
11919.58887699998
 20
14550.539063
 30
0.0
 11
11919.58887699998
 21
14471.539444999989
 31
0.0
  0
LINE
  5
43FE
  8
0-2
  6
CONTINUOUS
 62
     3
 10
11919.58887699998
 20
14550.539063
 30
0.0
 11
11919.58887699998
 21
17030.537412000001
 31
0.0
  0
LINE
  5
43FF
  8
0-2
  6
CONTINUOUS
 62
     3
 10
11862.58863899998
 20
17109.538018999981
 30
0.0
 11
11862.58863899998
 21
18073.629948999991
 31
0.0
  0
LINE
  5
4400
  8
0-2
  6
CONTINUOUS
 62
     3
 10
11976.58812399998
 20
17109.538018999981
 30
0.0
 11
11976.58812399998
 21
17897.90016600001
 31
0.0
  0
LINE
  5
4401
  8
0-2
  6
CONTINUOUS
 62
     3
 10
11919.58887699998
 20
17109.538018999981
 30
0.0
 11
11919.58887699998
 21
17985.763078000011
 31
0.0
  0
LINE
  5
4402
  8
0-2
  6
CONTINUOUS
 62
     3
 10
11919.58887699998
 20
17030.537412000001
 30
0.0
 11
11919.58887699998
 21
17109.538018999981
 31
0.0
  0
LINE
  5
4403
  8
0-2
  6
CONTINUOUS
 62
     3
 10
14014.802453999981
 20
16849.387707999991
 30
0.0
 11
12348.07843799994
 21
17736.118072000001
 31
0.0
  0
LINE
  5
4404
  8
0-2
  6
CONTINUOUS
 62
     3
 10
13659.58873199998
 20
17037.301426999999
 30
0.0
 11
13659.58873199998
 21
19807.539762
 31
0.0
  0
LINE
  5
4405
  8
0-2
  6
CONTINUOUS
 62
     3
 10
13696.58989299998
 20
17017.727946999988
 30
0.0
 11
13696.58989299998
 21
19807.539762
 31
0.0
  0
LINE
  5
4406
  8
0-2
  6
CONTINUOUS
 62
     3
 10
13488.089126999979
 20
17123.533215999982
 30
0.0
 11
13488.089126999979
 21
19807.539762
 31
0.0
  0
LINE
  5
4407
  8
0-2
  6
CONTINUOUS
 62
     3
 10
13451.08895599997
 20
17143.106694999991
 30
0.0
 11
13451.08895599997
 21
19807.539762
 31
0.0
  0
LINE
  5
4408
  8
0-2
  6
CONTINUOUS
 62
     3
 10
13288.08747799997
 20
17229.334524999991
 30
0.0
 11
13288.08747799997
 21
19807.539762
 31
0.0
  0
LINE
  5
4409
  8
0-2
  6
CONTINUOUS
 62
     3
 10
13251.08928599998
 20
17248.908003999972
 30
0.0
 11
13251.08928599998
 21
19807.539762
 31
0.0
  0
LINE
  5
440A
  8
0-2
  6
CONTINUOUS
 62
     3
 10
13088.08978699997
 20
17335.139792999991
 30
0.0
 11
13088.08978699997
 21
19807.539762
 31
0.0
  0
LINE
  5
440B
  8
0-2
  6
CONTINUOUS
 62
     3
 10
13051.088625999981
 20
17354.713272999979
 30
0.0
 11
13051.088625999981
 21
19807.539762
 31
0.0
  0
LINE
  5
440C
  8
0-2
  6
CONTINUOUS
 62
     3
 10
12888.088137999979
 20
17450.441868000002
 30
0.0
 11
12888.088137999979
 21
19807.539762
 31
0.0
  0
LINE
  5
440D
  8
0-2
  6
CONTINUOUS
 62
     3
 10
12851.08895599998
 20
17470.015348000001
 30
0.0
 11
12851.08895599998
 21
19807.539762
 31
0.0
  0
LINE
  5
440E
  8
0-2
  6
CONTINUOUS
 62
     3
 10
12688.087477999979
 20
17556.245157000001
 30
0.0
 11
12688.087477999979
 21
19807.539762
 31
0.0
  0
LINE
  5
440F
  8
0-2
  6
CONTINUOUS
 62
     3
 10
12651.08928599998
 20
17575.818636000011
 30
0.0
 11
12651.08928599998
 21
19807.539762
 31
0.0
  0
LINE
  5
4410
  8
0-2
  6
CONTINUOUS
 62
     3
 10
12488.089786999981
 20
17662.050425000001
 30
0.0
 11
12488.089786999981
 21
19807.539762
 31
0.0
  0
LINE
  5
4411
  8
0-2
  6
CONTINUOUS
 62
     3
 10
12451.088625999981
 20
17681.623905000011
 30
0.0
 11
12451.088625999981
 21
19807.539762
 31
0.0
  0
LINE
  5
4412
  8
0-2
  6
CONTINUOUS
 62
     3
 10
12251.08895599998
 20
17571.214275999992
 30
0.0
 11
12251.08895599998
 21
19807.539762
 31
0.0
  0
LINE
  5
4413
  8
0-2
  6
CONTINUOUS
 62
     3
 10
12288.08813799997
 20
17634.12139700001
 30
0.0
 11
12288.08813799997
 21
19807.539762
 31
0.0
  0
LINE
  5
4414
  8
0-2
  6
CONTINUOUS
 62
     3
 10
12051.08928599998
 20
17783.060375000001
 30
0.0
 11
12051.08928599998
 21
19807.539762
 31
0.0
  0
LINE
  5
4415
  8
0-2
  6
CONTINUOUS
 62
     3
 10
12088.087477999979
 20
17726.024505999991
 30
0.0
 11
12088.087477999979
 21
19807.539762
 31
0.0
  0
LINE
  5
4416
  8
0-2
  6
CONTINUOUS
 62
     3
 10
11888.089786999981
 20
18034.320669000001
 30
0.0
 11
11888.089786999981
 21
19807.539762
 31
0.0
  0
LINE
  5
4417
  8
0-2
  6
CONTINUOUS
 62
     3
 10
11851.088625999981
 20
18091.354557999999
 30
0.0
 11
11851.088625999981
 21
19807.539762
 31
0.0
  0
LINE
  5
4418
  8
0-2
  6
CONTINUOUS
 62
     3
 10
11651.089945999969
 20
18399.650720000001
 30
0.0
 11
11651.089945999969
 21
19807.539762
 31
0.0
  0
LINE
  5
4419
  8
0-2
  6
CONTINUOUS
 62
     3
 10
11688.08813799997
 20
18342.618811
 30
0.0
 11
11688.08813799997
 21
19807.539762
 31
0.0
  0
LINE
  5
441A
  8
0-2
  6
CONTINUOUS
 62
     3
 10
11251.088625999981
 20
18367.426136999991
 30
0.0
 11
11251.088625999981
 21
19807.539762
 31
0.0
  0
LINE
  5
441B
  8
0-2
  6
CONTINUOUS
 62
     3
 10
11288.088796999969
 20
18347.852658
 30
0.0
 11
11288.088796999969
 21
19807.539762
 31
0.0
  0
LINE
  5
441C
  8
0-2
  6
CONTINUOUS
 62
     3
 10
11451.08928599998
 20
18261.620868999991
 30
0.0
 11
11451.08928599998
 21
19807.539762
 31
0.0
  0
LINE
  5
441D
  8
0-2
  6
CONTINUOUS
 62
     3
 10
11488.087477999979
 20
18246.443899999991
 30
0.0
 11
11488.087477999979
 21
19807.539762
 31
0.0
  0
LINE
  5
441E
  8
0-2
  6
CONTINUOUS
 62
     3
 10
10088.089786999981
 20
18982.674369
 30
0.0
 11
10088.089786999981
 21
19807.539762
 31
0.0
  0
LINE
  5
441F
  8
0-2
  6
CONTINUOUS
 62
     3
 10
10051.087635999969
 20
19002.24784900001
 30
0.0
 11
10051.087635999969
 21
19807.539762
 31
0.0
  0
LINE
  5
4420
  8
0-2
  6
CONTINUOUS
 62
     3
 10
10288.087477999979
 20
18876.867120999999
 30
0.0
 11
10288.087477999979
 21
19807.539762
 31
0.0
  0
LINE
  5
4421
  8
0-2
  6
CONTINUOUS
 62
     3
 10
10251.089285999969
 20
18896.442580999999
 30
0.0
 11
10251.089285999969
 21
19807.539762
 31
0.0
  0
LINE
  5
4422
  8
0-2
  6
CONTINUOUS
 62
     3
 10
10451.08895599998
 20
18790.639292
 30
0.0
 11
10451.08895599998
 21
19807.539762
 31
0.0
  0
LINE
  5
4423
  8
0-2
  6
CONTINUOUS
 62
     3
 10
10488.089126999979
 20
18771.065812000012
 30
0.0
 11
10488.089126999979
 21
19807.539762
 31
0.0
  0
LINE
  5
4424
  8
0-2
  6
CONTINUOUS
 62
     3
 10
10651.08763599996
 20
18684.834024
 30
0.0
 11
10651.08763599996
 21
19807.539762
 31
0.0
  0
LINE
  5
4425
  8
0-2
  6
CONTINUOUS
 62
     3
 10
10688.08879699996
 20
18665.260544000001
 30
0.0
 11
10688.08879699996
 21
19807.539762
 31
0.0
  0
LINE
  5
4426
  8
0-2
  6
CONTINUOUS
 62
     3
 10
10851.089285999969
 20
18579.032715000001
 30
0.0
 11
10851.089285999969
 21
19807.539762
 31
0.0
  0
LINE
  5
4427
  8
0-2
  6
CONTINUOUS
 62
     3
 10
10888.087477999979
 20
18559.459234999991
 30
0.0
 11
10888.087477999979
 21
19807.539762
 31
0.0
  0
LINE
  5
4428
  8
0-2
  6
CONTINUOUS
 62
     3
 10
11051.08895599997
 20
18473.227447000001
 30
0.0
 11
11051.08895599997
 21
19807.539762
 31
0.0
  0
LINE
  5
4429
  8
0-2
  6
CONTINUOUS
 62
     3
 10
11088.089126999979
 20
18453.653966999991
 30
0.0
 11
11088.089126999979
 21
19807.539762
 31
0.0
  0
LINE
  5
442A
  8
0-2
  6
CONTINUOUS
 62
     3
 10
9888.0881379999719
 20
19088.475677999999
 30
0.0
 11
9888.0881379999719
 21
19807.539762
 31
0.0
  0
LINE
  5
442B
  8
0-2
  6
CONTINUOUS
 62
     3
 10
9851.0899459999873
 20
19108.049158000002
 30
0.0
 11
9851.0899459999873
 21
19807.539762
 31
0.0
  0
LINE
  5
442C
  8
0-2
  6
CONTINUOUS
 62
     3
 10
9478.5910009999825
 20
19300.082255000001
 30
0.0
 11
9478.5910009999825
 21
19807.539762
 31
0.0
  0
LINE
  5
442D
  8
0-2
  6
CONTINUOUS
 62
     3
 10
9441.5888499999874
 20
19319.655735
 30
0.0
 11
9441.5888499999874
 21
19807.539762
 31
0.0
  0
LINE
  5
442E
  8
0-2
  6
CONTINUOUS
 62
     3
 10
9688.0874779999867
 20
19194.280945999999
 30
0.0
 11
9688.0874779999867
 21
19807.539762
 31
0.0
  0
LINE
  5
442F
  8
0-2
  6
CONTINUOUS
 62
     3
 10
9651.0882959999763
 20
19213.854426000002
 30
0.0
 11
9651.0882959999763
 21
19807.539762
 31
0.0
  0
LINE
  5
4430
  8
0-2
  6
CONTINUOUS
 62
     3
 10
13682.328451999971
 20
17025.269912999989
 30
0.0
 11
11989.588612999971
 21
14508.039787999989
 31
0.0
  0
LINE
  5
4431
  8
0-2
  6
CONTINUOUS
 62
     3
 10
11989.588612999971
 20
17075.53978799998
 30
0.0
 11
12406.21095999996
 21
17705.364270999991
 31
0.0
  0
LINE
  5
4432
  8
0-2
  6
CONTINUOUS
 62
     3
 10
11919.58887699998
 20
14471.539444999989
 30
0.0
 11
11919.58887699998
 21
14315.538535
 31
0.0
  0
LINE
  5
4433
  8
0-2
  6
CONTINUOUS
 62
     3
 10
11834.58933899998
 20
19807.539762
 30
0.0
 11
11834.58933899998
 21
19855.539128
 31
0.0
  0
LINE
  5
4434
  8
0-6
  6
CONTINUOUS
 62
     6
 10
11031.14233699997
 20
17263.366408000002
 30
0.0
 11
10969.992038999981
 21
17434.635412000011
 31
0.0
  0
LINE
  5
4435
  8
0-6
  6
CONTINUOUS
 62
     6
 10
10979.831235999971
 20
19583.262286000001
 30
0.0
 11
11123.734317999981
 21
20095.539920000021
 31
0.0
  0
LINE
  5
4436
  8
0-6
  6
CONTINUOUS
 62
     6
 10
10566.685912999979
 20
19689.039840999991
 30
0.0
 11
10272.75808599998
 21
20095.539920000021
 31
0.0
  0
LINE
  5
4437
  8
0-6
  6
CONTINUOUS
 62
     6
 10
11123.734317999981
 20
20095.539920000021
 30
0.0
 11
11641.42296699998
 21
20095.539920000021
 31
0.0
  0
LINE
  5
4438
  8
0-6
  6
CONTINUOUS
 62
     6
 10
10513.42003699998
 20
19985.441075999999
 30
0.0
 11
10304.228471999961
 21
20347.774137
 31
0.0
  0
LINE
  5
4439
  8
0-6
  6
CONTINUOUS
 62
     6
 10
10230.22021099998
 20
20475.959842
 30
0.0
 11
10034.162751999969
 21
20815.540315999999
 31
0.0
  0
LINE
  5
443A
  8
0-6
  6
CONTINUOUS
 62
     6
 10
10034.162751999969
 20
20815.540315999999
 30
0.0
 11
10876.60132099996
 21
20815.540315999999
 31
0.0
  0
LINE
  5
443B
  8
0-6
  6
CONTINUOUS
 62
     6
 10
9463.2596299999805
 20
20095.539920000021
 30
0.0
 11
10272.75808599998
 21
20095.539920000021
 31
0.0
  0
LINE
  5
443C
  8
0-6
  6
CONTINUOUS
 62
     6
 10
10169.421276999979
 20
17434.635412000011
 30
0.0
 11
10969.992038999981
 21
17434.635412000011
 31
0.0
  0
LINE
  5
443D
  8
0-6
  6
CONTINUOUS
 62
     6
 10
9516.616562999985
 20
18243.013395000002
 30
0.0
 11
10046.11607499998
 21
18243.013395000002
 31
0.0
  0
LINE
  5
443E
  8
0-6
  6
CONTINUOUS
 62
     6
 10
10160.746036999981
 20
14702.428513000001
 30
0.0
 11
10243.632438999981
 21
14888.866566999999
 31
0.0
  0
LINE
  5
443F
  8
0-6
  6
CONTINUOUS
 62
     6
 10
10243.632438999981
 20
14888.866566999999
 30
0.0
 11
11043.63210899998
 21
14888.866566999999
 31
0.0
  0
LINE
  5
4440
  8
0-6
  6
CONTINUOUS
 62
     6
 10
11039.54836199998
 20
13515.53886499998
 30
0.0
 11
11902.127542999981
 21
13515.53886499998
 31
0.0
  0
LINE
  5
4441
  8
0-6
  6
CONTINUOUS
 62
     6
 10
10633.43626899998
 20
14179.070524000001
 30
0.0
 11
11039.54836199998
 21
13515.53886499998
 31
0.0
  0
LINE
  5
4442
  8
0-6
  6
CONTINUOUS
 62
     6
 10
7536.1918579999838
 20
13115.538534999991
 30
0.0
 11
8616.1909669999877
 21
13115.538534999991
 31
0.0
  0
LINE
  5
4443
  8
0-6
  6
CONTINUOUS
 62
     6
 10
9174.6972879999848
 20
14905.31042699998
 30
0.0
 11
8616.1909669999877
 21
13115.538534999991
 31
0.0
  0
LINE
  5
4444
  8
0-6
  6
CONTINUOUS
 62
     6
 10
9417.5762999999861
 20
18463.80295899999
 30
0.0
 11
9516.616562999985
 21
18243.013395000002
 31
0.0
  0
LINE
  5
4445
  8
0-6
  6
CONTINUOUS
 62
     6
 10
10386.453714999971
 20
16562.153622999998
 30
0.0
 11
11266.45265899998
 21
16562.153622999998
 31
0.0
  0
LINE
  5
4446
  8
0-6
  6
CONTINUOUS
 62
     6
 10
10139.836381999979
 20
16326.284086999991
 30
0.0
 11
10386.453714999971
 21
16562.153622999998
 31
0.0
  0
LINE
  5
4447
  8
0-6
  6
CONTINUOUS
 62
     6
 10
11862.58863899998
 20
15701.910274
 30
0.0
 11
11597.399462999971
 21
16070.86977299998
 31
0.0
  0
LINE
  5
4448
  8
0-6
  6
CONTINUOUS
 62
     6
 10
11351.16318799997
 20
16070.86977299998
 30
0.0
 11
11597.399462999971
 21
16070.86977299998
 31
0.0
  0
LINE
  5
4449
  8
0-6
  6
CONTINUOUS
 62
     6
 10
14758.38881399998
 20
20741.205434000021
 30
0.0
 11
16433.388153999971
 21
20741.205434000021
 31
0.0
  0
LINE
  5
444A
  8
0-6
  6
CONTINUOUS
 62
     6
 10
13979.49674999998
 20
19980.862450000001
 30
0.0
 11
14758.38881399998
 21
20741.205434000021
 31
0.0
  0
LINE
  5
444B
  8
0-6
  6
CONTINUOUS
 62
     6
 10
9200.1390509999874
 20
14897.32702899996
 30
0.0
 11
9222.5887709999824
 21
15057.97386999998
 31
0.0
  0
LINE
  5
444C
  8
0-6
  6
CONTINUOUS
 62
     6
 10
9222.5887709999824
 20
15057.97386999998
 30
0.0
 11
9149.2525559999813
 21
14913.291846
 31
0.0
  0
LINE
  5
444D
  8
0-6
  6
CONTINUOUS
 62
     6
 10
9222.5887709999824
 20
15057.97386999998
 30
0.0
 11
9200.1390509999874
 21
14897.32702899996
 31
0.0
  0
LINE
  5
444E
  8
0-6
  6
CONTINUOUS
 62
     6
 10
9200.1390509999874
 20
14897.32702899996
 30
0.0
 11
9149.2525559999813
 21
14913.291846
 31
0.0
  0
LINE
  5
444F
  8
0-6
  6
CONTINUOUS
 62
     6
 10
9149.2525559999813
 20
14913.291846
 30
0.0
 11
9222.5887709999824
 21
15057.97386999998
 31
0.0
  0
LINE
  5
4450
  8
0-6
  6
CONTINUOUS
 62
     6
 10
9149.2525559999813
 20
14913.291846
 30
0.0
 11
9200.1390509999874
 21
14897.32702899996
 31
0.0
  0
LINE
  5
4451
  8
0-6
  6
CONTINUOUS
 62
     6
 10
10136.597889999981
 20
14713.740471999979
 30
0.0
 11
10092.87230399998
 21
14557.539629999999
 31
0.0
  0
LINE
  5
4452
  8
0-6
  6
CONTINUOUS
 62
     6
 10
10092.87230399998
 20
14557.539629999999
 30
0.0
 11
10184.893194999981
 21
14691.11754399999
 31
0.0
  0
LINE
  5
4453
  8
0-6
  6
CONTINUOUS
 62
     6
 10
10092.87230399998
 20
14557.539629999999
 30
0.0
 11
10136.597889999981
 21
14713.740471999979
 31
0.0
  0
LINE
  5
4454
  8
0-6
  6
CONTINUOUS
 62
     6
 10
10136.597889999981
 20
14713.740471999979
 30
0.0
 11
10184.893194999981
 21
14691.11754399999
 31
0.0
  0
LINE
  5
4455
  8
0-6
  6
CONTINUOUS
 62
     6
 10
10184.893194999981
 20
14691.11754399999
 30
0.0
 11
10092.87230399998
 21
14557.539629999999
 31
0.0
  0
LINE
  5
4456
  8
0-6
  6
CONTINUOUS
 62
     6
 10
10184.893194999981
 20
14691.11754399999
 30
0.0
 11
10136.597889999981
 21
14713.740471999979
 31
0.0
  0
LINE
  5
4457
  8
0-6
  6
CONTINUOUS
 62
     6
 10
10656.18093699997
 20
14192.991487999991
 30
0.0
 11
10549.911471999971
 21
14315.538535
 31
0.0
  0
LINE
  5
4458
  8
0-6
  6
CONTINUOUS
 62
     6
 10
10549.911471999971
 20
14315.538535
 30
0.0
 11
10610.691599999969
 21
14165.149558999979
 31
0.0
  0
LINE
  5
4459
  8
0-6
  6
CONTINUOUS
 62
     6
 10
10549.911471999971
 20
14315.538535
 30
0.0
 11
10656.18093699997
 21
14192.991487999991
 31
0.0
  0
LINE
  5
445A
  8
0-6
  6
CONTINUOUS
 62
     6
 10
10656.18093699997
 20
14192.991487999991
 30
0.0
 11
10610.691599999969
 21
14165.149558999979
 31
0.0
  0
LINE
  5
445B
  8
0-6
  6
CONTINUOUS
 62
     6
 10
10610.691599999969
 20
14165.149558999979
 30
0.0
 11
10549.911471999971
 21
14315.538535
 31
0.0
  0
LINE
  5
445C
  8
0-6
  6
CONTINUOUS
 62
     6
 10
10610.691599999969
 20
14165.149558999979
 30
0.0
 11
10656.18093699997
 21
14192.991487999991
 31
0.0
  0
LINE
  5
445D
  8
0-6
  6
CONTINUOUS
 62
     6
 10
9441.9055729999855
 20
18474.718024000002
 30
0.0
 11
9352.0888769999856
 21
18609.790474000001
 31
0.0
  0
LINE
  5
445E
  8
0-6
  6
CONTINUOUS
 62
     6
 10
9352.0888769999856
 20
18609.790474000001
 30
0.0
 11
9393.2430679999852
 21
18452.889873
 31
0.0
  0
LINE
  5
445F
  8
0-6
  6
CONTINUOUS
 62
     6
 10
9352.0888769999856
 20
18609.790474000001
 30
0.0
 11
9441.9055729999855
 21
18474.718024000002
 31
0.0
  0
LINE
  5
4460
  8
0-6
  6
CONTINUOUS
 62
     6
 10
9441.9055729999855
 20
18474.718024000002
 30
0.0
 11
9393.2430679999852
 21
18452.889873
 31
0.0
  0
LINE
  5
4461
  8
0-6
  6
CONTINUOUS
 62
     6
 10
9393.2430679999852
 20
18452.889873
 30
0.0
 11
9352.0888769999856
 21
18609.790474000001
 31
0.0
  0
LINE
  5
4462
  8
0-6
  6
CONTINUOUS
 62
     6
 10
9393.2430679999852
 20
18452.889873
 30
0.0
 11
9441.9055729999855
 21
18474.718024000002
 31
0.0
  0
LINE
  5
4463
  8
0-6
  6
CONTINUOUS
 62
     6
 10
10237.033713999979
 20
16456.142484999971
 30
0.0
 11
10139.836381999979
 21
16326.284086999991
 31
0.0
  0
LINE
  5
4464
  8
0-6
  6
CONTINUOUS
 62
     6
 10
10139.836381999979
 20
16326.284086999991
 30
0.0
 11
10273.89630899998
 21
16417.603237999982
 31
0.0
  0
LINE
  5
4465
  8
0-6
  6
CONTINUOUS
 62
     6
 10
10139.836381999979
 20
16326.284086999991
 30
0.0
 11
10237.033713999979
 21
16456.142484999971
 31
0.0
  0
LINE
  5
4466
  8
0-6
  6
CONTINUOUS
 62
     6
 10
10237.033713999979
 20
16456.142484999971
 30
0.0
 11
10273.89630899998
 21
16417.603237999982
 31
0.0
  0
LINE
  5
4467
  8
0-6
  6
CONTINUOUS
 62
     6
 10
10273.89630899998
 20
16417.603237999982
 30
0.0
 11
10139.836381999979
 21
16326.284086999991
 31
0.0
  0
LINE
  5
4468
  8
0-6
  6
CONTINUOUS
 62
     6
 10
10273.89630899998
 20
16417.603237999982
 30
0.0
 11
10237.033713999979
 21
16456.142484999971
 31
0.0
  0
LINE
  5
4469
  8
0-6
  6
CONTINUOUS
 62
     6
 10
11790.20952199997
 20
15847.073321
 30
0.0
 11
11862.58863899998
 21
15701.910274
 31
0.0
  0
LINE
  5
446A
  8
0-6
  6
CONTINUOUS
 62
     6
 10
11862.58863899998
 20
15701.910274
 30
0.0
 11
11747.042159999981
 21
15815.751397999989
 31
0.0
  0
LINE
  5
446B
  8
0-6
  6
CONTINUOUS
 62
     6
 10
11862.58863899998
 20
15701.910274
 30
0.0
 11
11790.20952199997
 21
15847.073321
 31
0.0
  0
LINE
  5
446C
  8
0-6
  6
CONTINUOUS
 62
     6
 10
11790.20952199997
 20
15847.073321
 30
0.0
 11
11747.042159999981
 21
15815.751397999989
 31
0.0
  0
LINE
  5
446D
  8
0-6
  6
CONTINUOUS
 62
     6
 10
11747.042159999981
 20
15815.751397999989
 30
0.0
 11
11862.58863899998
 21
15701.910274
 31
0.0
  0
LINE
  5
446E
  8
0-6
  6
CONTINUOUS
 62
     6
 10
11747.042159999981
 20
15815.751397999989
 30
0.0
 11
11790.20952199997
 21
15847.073321
 31
0.0
  0
LINE
  5
446F
  8
0-6
  6
CONTINUOUS
 62
     6
 10
11056.78106099998
 20
17270.700524999989
 30
0.0
 11
11075.14505499997
 21
17109.538018999981
 31
0.0
  0
LINE
  5
4470
  8
0-6
  6
CONTINUOUS
 62
     6
 10
11075.14505499997
 20
17109.538018999981
 30
0.0
 11
11005.50361199998
 21
17256.034270999979
 31
0.0
  0
LINE
  5
4471
  8
0-6
  6
CONTINUOUS
 62
     6
 10
11075.14505499997
 20
17109.538018999981
 30
0.0
 11
11056.78106099998
 21
17270.700524999989
 31
0.0
  0
LINE
  5
4472
  8
0-6
  6
CONTINUOUS
 62
     6
 10
11056.78106099998
 20
17270.700524999989
 30
0.0
 11
11005.50361199998
 21
17256.034270999979
 31
0.0
  0
LINE
  5
4473
  8
0-6
  6
CONTINUOUS
 62
     6
 10
11005.50361199998
 20
17256.034270999979
 30
0.0
 11
11075.14505499997
 21
17109.538018999981
 31
0.0
  0
LINE
  5
4474
  8
0-6
  6
CONTINUOUS
 62
     6
 10
11005.50361199998
 20
17256.034270999979
 30
0.0
 11
11056.78106099998
 21
17270.700524999989
 31
0.0
  0
LINE
  5
4475
  8
0-6
  6
CONTINUOUS
 62
     6
 10
10459.98887099998
 20
19811.215727999999
 30
0.0
 11
10566.685912999979
 21
19689.039840999991
 31
0.0
  0
LINE
  5
4476
  8
0-6
  6
CONTINUOUS
 62
     6
 10
10566.685912999979
 20
19689.039840999991
 30
0.0
 11
10505.38220199997
 21
19839.216017999999
 31
0.0
  0
LINE
  5
4477
  8
0-6
  6
CONTINUOUS
 62
     6
 10
10566.685912999979
 20
19689.039840999991
 30
0.0
 11
10459.98887099998
 21
19811.215727999999
 31
0.0
  0
LINE
  5
4478
  8
0-6
  6
CONTINUOUS
 62
     6
 10
10459.98887099998
 20
19811.215727999999
 30
0.0
 11
10505.38220199997
 21
19839.216017999999
 31
0.0
  0
LINE
  5
4479
  8
0-6
  6
CONTINUOUS
 62
     6
 10
10505.38220199997
 20
19839.216017999999
 30
0.0
 11
10566.685912999979
 21
19689.039840999991
 31
0.0
  0
LINE
  5
447A
  8
0-6
  6
CONTINUOUS
 62
     6
 10
10505.38220199997
 20
19839.216017999999
 30
0.0
 11
10459.98887099998
 21
19811.215727999999
 31
0.0
  0
LINE
  5
447B
  8
0-6
  6
CONTINUOUS
 62
     6
 10
10491.769051999971
 20
19972.942395999999
 30
0.0
 11
10588.42003699998
 21
19855.539128
 31
0.0
  0
LINE
  5
447C
  8
0-6
  6
CONTINUOUS
 62
     6
 10
10588.42003699998
 20
19855.539128
 30
0.0
 11
10535.07003199998
 21
19997.943716000002
 31
0.0
  0
LINE
  5
447D
  8
0-6
  6
CONTINUOUS
 62
     6
 10
10588.42003699998
 20
19855.539128
 30
0.0
 11
10491.769051999971
 21
19972.942395999999
 31
0.0
  0
LINE
  5
447E
  8
0-6
  6
CONTINUOUS
 62
     6
 10
10491.769051999971
 20
19972.942395999999
 30
0.0
 11
10535.07003199998
 21
19997.943716000002
 31
0.0
  0
LINE
  5
447F
  8
0-6
  6
CONTINUOUS
 62
     6
 10
10535.07003199998
 20
19997.943716000002
 30
0.0
 11
10588.42003699998
 21
19855.539128
 31
0.0
  0
LINE
  5
4480
  8
0-6
  6
CONTINUOUS
 62
     6
 10
10535.07003199998
 20
19997.943716000002
 30
0.0
 11
10491.769051999971
 21
19972.942395999999
 31
0.0
  0
LINE
  5
4481
  8
0-6
  6
CONTINUOUS
 62
     6
 10
10953.942101999981
 20
19589.662069999991
 30
0.0
 11
10941.44441099996
 21
19427.937381
 31
0.0
  0
LINE
  5
4482
  8
0-6
  6
CONTINUOUS
 62
     6
 10
10941.44441099996
 20
19427.937381
 30
0.0
 11
11005.71937999995
 21
19576.866462000002
 31
0.0
  0
LINE
  5
4483
  8
0-6
  6
CONTINUOUS
 62
     6
 10
10941.44441099996
 20
19427.937381
 30
0.0
 11
10953.942101999981
 21
19589.662069999991
 31
0.0
  0
LINE
  5
4484
  8
0-6
  6
CONTINUOUS
 62
     6
 10
10953.942101999981
 20
19589.662069999991
 30
0.0
 11
11005.71937999995
 21
19576.866462000002
 31
0.0
  0
LINE
  5
4485
  8
0-6
  6
CONTINUOUS
 62
     6
 10
11005.71937999995
 20
19576.866462000002
 30
0.0
 11
10941.44441099996
 21
19427.937381
 31
0.0
  0
LINE
  5
4486
  8
0-6
  6
CONTINUOUS
 62
     6
 10
11005.71937999995
 20
19576.866462000002
 30
0.0
 11
10953.942101999981
 21
19589.662069999991
 31
0.0
  0
LINE
  5
4487
  8
0-6
  6
CONTINUOUS
 62
     6
 10
13960.27463499998
 20
19999.345215000001
 30
0.0
 11
13868.58729299998
 21
19865.539656000001
 31
0.0
  0
LINE
  5
4488
  8
0-6
  6
CONTINUOUS
 62
     6
 10
13868.58729299998
 20
19865.539656000001
 30
0.0
 11
13998.71787599997
 21
19962.37770500001
 31
0.0
  0
LINE
  5
4489
  8
0-6
  6
CONTINUOUS
 62
     6
 10
13868.58729299998
 20
19865.539656000001
 30
0.0
 11
13960.27463499998
 21
19999.345215000001
 31
0.0
  0
LINE
  5
448A
  8
0-6
  6
CONTINUOUS
 62
     6
 10
13960.27463499998
 20
19999.345215000001
 30
0.0
 11
13998.71787599997
 21
19962.37770500001
 31
0.0
  0
LINE
  5
448B
  8
0-6
  6
CONTINUOUS
 62
     6
 10
13998.71787599997
 20
19962.37770500001
 30
0.0
 11
13868.58729299998
 21
19865.539656000001
 31
0.0
  0
LINE
  5
448C
  8
0-6
  6
CONTINUOUS
 62
     6
 10
13998.71787599997
 20
19962.37770500001
 30
0.0
 11
13960.27463499998
 21
19999.345215000001
 31
0.0
  0
LINE
  5
448D
  8
0-7
  6
DASHED1
 62
     6
 10
9352.0888769999856
 20
19604.039313000001
 30
0.0
 11
13786.08887699998
 21
19604.039313000001
 31
0.0
  0
LINE
  5
448E
  8
0-7
  6
DASHED1
 62
     6
 10
9309.5886129999853
 20
19389.48919199999
 30
0.0
 11
9309.5886129999853
 21
19689.039840999991
 31
0.0
  0
LINE
  5
448F
  8
0-7
  6
DASHED1
 62
     6
 10
9352.0888769999856
 20
19367.003840000001
 30
0.0
 11
9352.0888769999856
 21
19689.039840999991
 31
0.0
  0
LINE
  5
4490
  8
0-7
  6
DASHED1
 62
     6
 10
9309.5886129999853
 20
19689.039840999991
 30
0.0
 11
13828.58815099998
 21
19689.039840999991
 31
0.0
  0
LINE
  5
4491
  8
0-7
  6
DASHED1
 62
     6
 10
13716.08815099998
 20
17075.53978799998
 30
0.0
 11
11989.588612999971
 21
19643.039787999991
 31
0.0
  0
LINE
  5
4492
  8
0-7
  6
DASHED1
 62
     6
 10
13672.37147299999
 20
17030.537412000001
 30
0.0
 11
13786.08887699998
 21
17030.537412000001
 31
0.0
  0
LINE
  5
4493
  8
0-7
  6
DASHED1
 62
     6
 10
13514.53945499998
 20
17109.538018999981
 30
0.0
 11
13786.08887699998
 21
17109.538018999981
 31
0.0
  0
LINE
  5
4494
  8
0-7
  6
DASHED1
 62
     6
 10
13786.08887699998
 20
16970.379841999991
 30
0.0
 11
13786.08887699998
 21
19689.039840999991
 31
0.0
  0
LINE
  5
4495
  8
0-7
  6
DASHED1
 62
     6
 10
13828.58815099998
 20
16947.898449999971
 30
0.0
 11
13828.58815099998
 21
19689.039840999991
 31
0.0
  0
LINE
  5
4496
  8
0-7
  6
DASHED1
 62
     6
 10
9422.0886129999908
 20
19643.039787999991
 30
0.0
 11
10023.52976799996
 21
19016.825024000002
 31
0.0
  0
LINE
  5
4497
  8
0-7
  6
DASHED1
 62
     6
 10
10846.23847499998
 20
18581.596191000001
 30
0.0
 11
11849.58815099998
 21
19643.039787999991
 31
0.0
  0
LINE
  5
4498
  8
0-7
  6
DASHED1
 62
     6
 10
11862.58863899998
 20
18073.629948999991
 30
0.0
 11
11862.58863899998
 21
19604.039313000001
 31
0.0
  0
LINE
  5
4499
  8
0-7
  6
DASHED1
 62
     6
 10
11976.58812399998
 20
17897.90016600001
 30
0.0
 11
11976.58812399998
 21
19604.056136020241
 31
0.0
  0
LINE
  5
449A
  8
0-7
  6
DASHED1
 62
     6
 10
11919.58887699998
 20
17985.763078000011
 30
0.0
 11
11919.58887699998
 21
19611.454376948481
 31
0.0
  0
LINE
  5
449B
  8
0-7
  6
CONTINUOUS
 62
     6
 10
13716.08815099998
 20
17075.53978799998
 30
0.0
 11
13682.328451999971
 21
17025.269912999989
 31
0.0
  0
LINE
  5
449C
  8
0-7
  6
DASHED1
 62
     6
 10
12406.21095999996
 20
17705.364270999991
 30
0.0
 11
13716.08815099998
 21
19643.039787999991
 31
0.0
  0
LINE
  5
449D
  8
0-0
  6
CENTER2
 62
     6
 10
13786.08887699998
 20
20885.538073000022
 30
0.0
 11
13786.08887699998
 21
19935.539391999991
 31
0.0
  0
LINE
  5
449E
  8
0-0
  6
CENTER2
 62
     6
 10
11919.58887699998
 20
20885.538073000022
 30
0.0
 11
11919.58887699998
 21
19935.539391999991
 31
0.0
  0
LINE
  5
449F
  8
0-0
  6
CENTER2
 62
     6
 10
8022.5876119999857
 20
19643.039787999991
 30
0.0
 11
9678.5887579999853
 21
19643.039787999991
 31
0.0
  0
LINE
  5
44A0
  8
0-0
  6
CENTER2
 62
     6
 10
9352.0888769999856
 20
20885.538073000022
 30
0.0
 11
9352.0888769999856
 21
19935.539391999991
 31
0.0
  0
LINE
  5
44A1
  8
0-0
  6
CENTER2
 62
     6
 10
8022.5876119999857
 20
17075.53978799998
 30
0.0
 11
9678.5887579999853
 21
17075.53978799998
 31
0.0
  0
LINE
  5
44A2
  8
0-0
  6
CENTER2
 62
     6
 10
8022.5876119999857
 20
14508.039787999989
 30
0.0
 11
9678.5887579999853
 21
14508.039787999989
 31
0.0
  0
LINE
  5
44A3
  8
0-8
  6
CONTINUOUS
 62
     6
 10
13460.58965499998
 20
17075.53978799998
 30
0.0
 11
14084.85464699998
 21
17075.53978799998
 31
0.0
  0
LINE
  5
44A4
  8
0-8
  6
CONTINUOUS
 62
     6
 10
13460.58965499998
 20
14508.039787999989
 30
0.0
 11
14084.85464699998
 21
14508.039787999989
 31
0.0
  0
CIRCLE
  5
44A5
  8
0-1
  6
CONTINUOUS
 62
     4
 10
11919.58887699998
 20
21085.536753000011
 30
0.0
 40
199.9999949999999
  0
CIRCLE
  5
44A6
  8
0-1
  6
CONTINUOUS
 62
     4
 10
9352.0888769999856
 20
21085.536753000011
 30
0.0
 40
199.9999949999999
  0
CIRCLE
  5
44A7
  8
0-1
  6
CONTINUOUS
 62
     4
 10
7822.5889309999839
 20
19643.039787999991
 30
0.0
 40
199.9999949999999
  0
CIRCLE
  5
44A8
  8
0-1
  6
CONTINUOUS
 62
     4
 10
7822.5889309999839
 20
17075.53978799998
 30
0.0
 40
199.9999949999999
  0
CIRCLE
  5
44A9
  8
0-1
  6
CONTINUOUS
 62
     4
 10
7822.5889309999839
 20
14508.039787999989
 30
0.0
 40
199.9999949999999
  0
CIRCLE
  5
44AA
  8
0-1
  6
CONTINUOUS
 62
     4
 10
13786.08887699998
 20
21085.53873200003
 30
0.0
 40
199.9999949999999
  0
CIRCLE
  5
44AB
  8
0-1
  6
CONTINUOUS
 62
     4
 10
15128.714699
 20
1375.9997350000001
 30
0.0
 40
20.0
  0
ARC
  5
44AC
  8
0-1
  6
CONTINUOUS
 62
     4
 10
15128.714699
 20
1375.9997350000001
 30
0.0
 40
20.0
 50
180.0
 51
0.0
  0
ARC
  5
44AD
  8
0-1
  6
CONTINUOUS
 62
     4
 10
15128.714699
 20
1375.9997350000001
 30
0.0
 40
20.0
 50
0.0
 51
179.9999849999983
  0
CIRCLE
  5
44AE
  8
0-1
  6
CONTINUOUS
 62
     4
 10
15128.714699
 20
1775.999693
 30
0.0
 40
20.0
  0
ARC
  5
44AF
  8
0-1
  6
CONTINUOUS
 62
     4
 10
15128.714699
 20
1775.999693
 30
0.0
 40
20.0
 50
180.0
 51
0.0
  0
ARC
  5
44B0
  8
0-1
  6
CONTINUOUS
 62
     4
 10
15128.714699
 20
1775.999693
 30
0.0
 40
20.0
 50
0.0
 51
179.9999849999983
  0
ARC
  5
44B1
  8
0-2
  6
CONTINUOUS
 62
     3
 10
9271.5887449999809
 20
19860.539391999999
 30
0.0
 40
5.0
 50
90.0
 51
180.0
  0
ARC
  5
44B2
  8
0-2
  6
CONTINUOUS
 62
     3
 10
9335.0907109999844
 20
19860.539391999999
 30
0.0
 40
5.0
 50
0.0
 51
90.0
  0
ARC
  5
44B3
  8
0-2
  6
CONTINUOUS
 62
     3
 10
9335.0907109999844
 20
19830.537809000001
 30
0.0
 40
5.0
 50
269.99998499976391
 51
0.0
  0
ARC
  5
44B4
  8
0-2
  6
CONTINUOUS
 62
     3
 10
13803.088031999991
 20
19830.537809000001
 30
0.0
 40
5.0
 50
180.0
 51
269.99998499976391
  0
ARC
  5
44B5
  8
0-2
  6
CONTINUOUS
 62
     3
 10
13803.088031999991
 20
19860.539391999999
 30
0.0
 40
5.0
 50
90.0
 51
180.0
  0
ARC
  5
44B6
  8
0-2
  6
CONTINUOUS
 62
     3
 10
13866.589008999979
 20
19860.539391999999
 30
0.0
 40
5.0
 50
0.0
 51
90.0
  0
TEXT
  5
44B7
  8
0-1
  6
CONTINUOUS
 62
     7
 10
13742.41079999998
 20
21010.57238400005
 30
0.0
 40
160.0
  1
3
 72
     4
 11
13795.744133333321
 21
21090.57238400005
 31
0.0
  0
TEXT
  5
44B8
  8
0-1
  6
CONTINUOUS
 62
     7
 10
11868.79146099995
 20
20996.260464999999
 30
0.0
 40
160.0
  1
2
 72
     4
 11
11922.124794333289
 21
21076.260464999999
 31
0.0
  0
TEXT
  5
44B9
  8
0-1
  6
CONTINUOUS
 62
     7
 10
9299.071429999989
 20
20995.967497000009
 30
0.0
 40
160.0
  1
1
 72
     4
 11
9325.7380966666515
 21
21075.967497000009
 31
0.0
  0
TEXT
  5
44BA
  8
0-1
  6
CONTINUOUS
 62
     7
 10
7772.085473999985
 20
19554.23462599999
 30
0.0
 40
160.0
  1
C
 72
     4
 11
7825.418807333318
 21
19634.23462599999
 31
0.0
  0
TEXT
  5
44BB
  8
0-1
  6
CONTINUOUS
 62
     7
 10
7772.085473999985
 20
16986.732645
 30
0.0
 40
160.0
  1
B
 72
     4
 11
7825.418807333318
 21
17066.732645
 31
0.0
  0
TEXT
  5
44BC
  8
0-1
  6
CONTINUOUS
 62
     7
 10
7772.085473999985
 20
14419.23462599999
 30
0.0
 40
160.0
  1
A
 72
     4
 11
7825.418807333318
 21
14499.23462599999
 31
0.0
  0
TEXT
  5
44BD
  8
0-6
  6
CONTINUOUS
 62
     7
 10
11203.734581999979
 20
20175.538205000012
 30
0.0
 40
160.0
  1
屋根
 72
     4
 11
11374.401248666651
 21
20255.538205000012
 31
0.0
  0
TEXT
  5
44BE
  8
0-6
  6
CONTINUOUS
 62
     7
 10
10114.16400599997
 20
20895.540580000001
 30
0.0
 40
160.0
  1
鼻隠し後
 72
     4
 11
10476.83067266664
 21
20975.540580000001
 31
0.0
  0
TEXT
  5
44BF
  8
0-6
  6
CONTINUOUS
 62
     7
 10
9552.7586799999845
 20
20175.538205000012
 30
0.0
 40
160.0
  1
桁（後）
 72
     4
 11
9872.7586799999845
 21
20255.538205000012
 31
0.0
  0
TEXT
  5
44C0
  8
0-6
  6
CONTINUOUS
 62
     7
 10
10249.994611999969
 20
17514.635676000002
 30
0.0
 40
160.0
  1
桁（中）
 72
     4
 11
10569.994611999969
 21
17594.635676000002
 31
0.0
  0
TEXT
  5
44C1
  8
0-6
  6
CONTINUOUS
 62
     7
 10
10323.632702999979
 20
14968.866830000001
 30
0.0
 40
160.0
  1
桁（前）
 72
     4
 11
10643.632702999979
 21
15048.866830000001
 31
0.0
  0
TEXT
  5
44C2
  8
0-6
  6
CONTINUOUS
 62
     7
 10
11119.549615999969
 20
13595.539129000001
 30
0.0
 40
160.0
  1
鼻隠し前
 72
     4
 11
11482.216282666641
 21
13675.539129000001
 31
0.0
  0
TEXT
  5
44C3
  8
0-6
  6
CONTINUOUS
 62
     7
 10
7616.1896469999792
 20
13195.539788
 30
0.0
 40
160.0
  1
ケラバ 左
 72
     4
 11
8032.1896469999792
 21
13275.539788
 31
0.0
  0
TEXT
  5
44C4
  8
0-6
  6
CONTINUOUS
 62
     7
 10
9606.1156129999854
 20
18323.011678999999
 30
0.0
 40
160.0
  1
上枠
 72
     4
 11
9776.7822796666496
 21
18403.011678999999
 31
0.0
  0
TEXT
  5
44C5
  8
0-6
  6
CONTINUOUS
 62
     7
 10
10466.454968999949
 20
16642.153886999979
 30
0.0
 40
160.0
  1
ブレース
 72
     4
 11
10829.121635666619
 21
16727.487220333322
 31
0.0
  0
TEXT
  5
44C6
  8
0-6
  6
CONTINUOUS
 62
     7
 10
11367.403157999979
 20
16150.86904799999
 30
0.0
 40
160.0
  1
梁
 72
     4
 11
11442.069824666651
 21
16230.86904799999
 31
0.0
  0
TEXT
  5
44C7
  8
0-6
  6
CONTINUOUS
 62
     7
 10
14838.389077999969
 20
20821.205698000002
 30
0.0
 40
160.0
  1
鼻隠しコーナー後
 72
     4
 11
15585.055744666641
 21
20901.205698000002
 31
0.0
  0
TEXT
  5
44C8
  8
0-0
  6
CONTINUOUS
 62
     7
 10
10358.955232999981
 20
12250.715063110711
 30
0.0
 40
160.0
  1
小 屋 伏 図
 50
359.99980699999981
 72
     4
 11
10860.28883580931
 21
12330.713374376221
 31
0.0
  0
TEXT
  5
44CD
  8
NAME
 10
25530.092913773489
 20
1076.0
 30
0.0
 40
360.0
  1
型（単棟）
 41
0.6
  7
01
  0
TEXT
  5
44CF
  8
NAME
 10
21583.547829600899
 20
1076.6369801169251
 30
0.0
 40
360.0
  1
VGC-2652（H）+1952（H）
 41
0.55
  0
TEXT
  5
44D0
  8
2-0
  6
CONTINUOUS
 62
     7
 10
12211.78102094693
 20
12277.90874337622
 30
0.0
 40
160.0
  1
1
 72
     4
 11
12238.4476876136
 21
12357.90874337622
 31
0.0
  0
TEXT
  5
44D1
  8
2-0
  6
CONTINUOUS
 62
     7
 10
12454.86973819762
 20
12197.91021137622
 30
0.0
 40
160.0
  1
80
 72
     4
 11
12574.86973819762
 21
12277.91021137622
 31
0.0
  0
TEXT
  5
44D2
  8
2-0
  6
CONTINUOUS
 62
     7
 10
11712.782986946921
 20
12250.713374376221
 30
0.0
 40
160.0
  1
(S=  /   )
 72
     4
 11
12272.782986946921
 21
12330.713374376221
 31
0.0
  0
LINE
  5
44D3
  8
0-4
  6
CONTINUOUS
 62
     4
 10
14264.29067299999
 20
6267.088643000001
 30
0.0
 11
19517.546927999982
 21
6267.088643000001
 31
0.0
  0
LINE
  5
44D4
  8
0-1
  6
CONTINUOUS
 62
     3
 10
8971.7892219999976
 20
8278.1340270000055
 30
0.0
 11
14151.791596999999
 21
8278.1340270000055
 31
0.0
  0
LINE
  5
44D5
  8
0-1
  6
CONTINUOUS
 62
     3
 10
8261.7893540000005
 20
6267.088643000001
 30
0.0
 11
14184.29040899999
 21
6267.088643000001
 31
0.0
  0
LINE
  5
44D6
  8
0-1
  6
CONTINUOUS
 62
     3
 10
8944.2904090000011
 20
6367.0884780000006
 30
0.0
 11
14184.29040899999
 21
6367.0884780000006
 31
0.0
  0
LINE
  5
44D7
  8
0-1
  6
CONTINUOUS
 62
     3
 10
8951.7911349999977
 20
8400.1159209999969
 30
0.0
 11
8951.7911349999977
 21
6367.0884780000006
 31
0.0
  0
LINE
  5
44D8
  8
0-1
  6
CONTINUOUS
 62
     3
 10
8971.7892219999976
 20
8400.8166700000038
 30
0.0
 11
8971.7892219999976
 21
6367.0884780000006
 31
0.0
  0
LINE
  5
44D9
  8
0-1
  6
CONTINUOUS
 62
     3
 10
8944.2904090000011
 20
6267.088643000001
 30
0.0
 11
8944.2904090000011
 21
6367.0884780000006
 31
0.0
  0
LINE
  5
44DA
  8
0-1
  6
CONTINUOUS
 62
     3
 10
14247.070775
 20
8585.0128540000005
 30
0.0
 11
14242.518872000001
 21
8714.9336070000008
 31
0.0
  0
LINE
  5
44DB
  8
0-1
  6
CONTINUOUS
 62
     3
 10
11634.290277
 20
6417.088643000001
 30
0.0
 11
14056.790541
 21
6417.088643000001
 31
0.0
  0
LINE
  5
44DC
  8
0-1
  6
CONTINUOUS
 62
     3
 10
11147.789934
 20
6417.088643000001
 30
0.0
 11
11147.789934
 21
8278.1340270000055
 31
0.0
  0
LINE
  5
44DD
  8
0-1
  6
CONTINUOUS
 62
     3
 10
11167.79098999999
 20
6417.088643000001
 30
0.0
 11
11167.79098999999
 21
8278.1340270000055
 31
0.0
  0
LINE
  5
44DE
  8
0-1
  6
CONTINUOUS
 62
     3
 10
11097.791252999999
 20
6417.088643000001
 30
0.0
 11
11097.791252999999
 21
8278.1340270000055
 31
0.0
  0
LINE
  5
44DF
  8
0-1
  6
CONTINUOUS
 62
     3
 10
11217.78967
 20
6417.088643000001
 30
0.0
 11
11217.78967
 21
8278.1340270000055
 31
0.0
  0
LINE
  5
44E0
  8
0-1
  6
CONTINUOUS
 62
     3
 10
11350.788574
 20
6417.088643000001
 30
0.0
 11
11350.788574
 21
8278.1340270000055
 31
0.0
  0
LINE
  5
44E1
  8
0-1
  6
CONTINUOUS
 62
     3
 10
11365.790356
 20
6417.088643000001
 30
0.0
 11
11365.790356
 21
8278.1340270000055
 31
0.0
  0
LINE
  5
44E2
  8
0-1
  6
CONTINUOUS
 62
     3
 10
10964.789378999991
 20
6417.088643000001
 30
0.0
 11
10964.789378999991
 21
8278.1340270000055
 31
0.0
  0
LINE
  5
44E3
  8
0-1
  6
CONTINUOUS
 62
     3
 10
10949.79056699998
 20
6417.088643000001
 30
0.0
 11
10949.79056699998
 21
8278.1340270000055
 31
0.0
  0
LINE
  5
44E4
  8
0-1
  6
CONTINUOUS
 62
     3
 10
9066.7882980000031
 20
8278.1340270000055
 30
0.0
 11
9066.7882980000031
 21
6367.0884780000006
 31
0.0
  0
LINE
  5
44E5
  8
0-1
  6
CONTINUOUS
 62
     3
 10
11634.290277
 20
8278.1340270000055
 30
0.0
 11
11634.290277
 21
6367.0884780000006
 31
0.0
  0
LINE
  5
44E6
  8
0-1
  6
CONTINUOUS
 62
     3
 10
11489.290541
 20
8278.1340270000055
 30
0.0
 11
11489.290541
 21
6367.0884780000006
 31
0.0
  0
LINE
  5
44E7
  8
0-1
  6
CONTINUOUS
 62
     3
 10
9747.7902640000011
 20
6417.088643000001
 30
0.0
 11
9747.7902640000011
 21
8278.1340270000055
 31
0.0
  0
LINE
  5
44E8
  8
0-1
  6
CONTINUOUS
 62
     3
 10
9767.7903299999907
 20
6417.088643000001
 30
0.0
 11
9767.7903299999907
 21
8278.1340270000055
 31
0.0
  0
LINE
  5
44E9
  8
0-1
  6
CONTINUOUS
 62
     3
 10
9697.7905939999964
 20
6417.088643000001
 30
0.0
 11
9697.7905939999964
 21
8278.1340270000055
 31
0.0
  0
LINE
  5
44EA
  8
0-1
  6
CONTINUOUS
 62
     3
 10
9817.7900000000027
 20
6417.088643000001
 30
0.0
 11
9817.7900000000027
 21
8278.1340270000055
 31
0.0
  0
LINE
  5
44EB
  8
0-1
  6
CONTINUOUS
 62
     3
 10
9950.7908840000055
 20
6417.088643000001
 30
0.0
 11
9950.7908840000055
 21
8278.1340270000055
 31
0.0
  0
LINE
  5
44EC
  8
0-1
  6
CONTINUOUS
 62
     3
 10
9965.7896960000016
 20
6417.088643000001
 30
0.0
 11
9965.7896960000016
 21
8278.1340270000055
 31
0.0
  0
LINE
  5
44ED
  8
0-1
  6
CONTINUOUS
 62
     3
 10
9564.7897090000024
 20
6417.088643000001
 30
0.0
 11
9564.7897090000024
 21
8278.1340270000055
 31
0.0
  0
LINE
  5
44EE
  8
0-1
  6
CONTINUOUS
 62
     3
 10
9549.7889180000002
 20
6417.088643000001
 30
0.0
 11
9549.7889180000002
 21
8278.1340270000055
 31
0.0
  0
LINE
  5
44EF
  8
0-1
  6
CONTINUOUS
 62
     3
 10
10249.790236999999
 20
6417.088643000001
 30
0.0
 11
10249.790236999999
 21
8278.1340270000055
 31
0.0
  0
LINE
  5
44F0
  8
0-1
  6
CONTINUOUS
 62
     3
 10
10264.789049999999
 20
6417.088643000001
 30
0.0
 11
10264.789049999999
 21
8278.1340270000055
 31
0.0
  0
LINE
  5
44F1
  8
0-1
  6
CONTINUOUS
 62
     3
 10
10665.79101599999
 20
6417.088643000001
 30
0.0
 11
10665.79101599999
 21
8278.1340270000055
 31
0.0
  0
LINE
  5
44F2
  8
0-1
  6
CONTINUOUS
 62
     3
 10
10650.79022399998
 20
6417.088643000001
 30
0.0
 11
10650.79022399998
 21
8278.1340270000055
 31
0.0
  0
LINE
  5
44F3
  8
0-1
  6
CONTINUOUS
 62
     3
 10
10517.789339999979
 20
6417.088643000001
 30
0.0
 11
10517.789339999979
 21
8278.1340270000055
 31
0.0
  0
LINE
  5
44F4
  8
0-1
  6
CONTINUOUS
 62
     3
 10
10397.789934
 20
6417.088643000001
 30
0.0
 11
10397.789934
 21
8278.1340270000055
 31
0.0
  0
LINE
  5
44F5
  8
0-1
  6
CONTINUOUS
 62
     3
 10
10467.78967
 20
6417.088643000001
 30
0.0
 11
10467.78967
 21
8278.1340270000055
 31
0.0
  0
LINE
  5
44F6
  8
0-1
  6
CONTINUOUS
 62
     3
 10
10447.79059399998
 20
6417.088643000001
 30
0.0
 11
10447.79059399998
 21
8278.1340270000055
 31
0.0
  0
LINE
  5
44F7
  8
0-1
  6
CONTINUOUS
 62
     3
 10
10789.29021099999
 20
8278.1340270000055
 30
0.0
 11
10789.29021099999
 21
6417.088643000001
 31
0.0
  0
LINE
  5
44F8
  8
0-1
  6
CONTINUOUS
 62
     3
 10
10826.29038199999
 20
8278.1340270000055
 30
0.0
 11
10826.29038199999
 21
6417.088643000001
 31
0.0
  0
LINE
  5
44F9
  8
0-1
  6
CONTINUOUS
 62
     3
 10
9389.2895510000017
 20
8278.1340270000055
 30
0.0
 11
9389.2895510000017
 21
6417.088643000001
 31
0.0
  0
LINE
  5
44FA
  8
0-1
  6
CONTINUOUS
 62
     3
 10
9426.2907120000018
 20
8278.1340270000055
 30
0.0
 11
9426.2907120000018
 21
6417.088643000001
 31
0.0
  0
LINE
  5
44FB
  8
0-1
  6
CONTINUOUS
 62
     3
 10
10089.288891
 20
8278.1340270000055
 30
0.0
 11
10089.288891
 21
6417.088643000001
 31
0.0
  0
LINE
  5
44FC
  8
0-1
  6
CONTINUOUS
 62
     3
 10
10126.291042000001
 20
8278.1340270000055
 30
0.0
 11
10126.291042000001
 21
6417.088643000001
 31
0.0
  0
LINE
  5
44FD
  8
0-1
  6
CONTINUOUS
 62
     3
 10
9066.7882980000031
 20
6417.088643000001
 30
0.0
 11
11489.290541
 21
6417.088643000001
 31
0.0
  0
LINE
  5
44FE
  8
0-1
  6
CONTINUOUS
 62
     3
 10
11561.79040899999
 20
8491.2470170000033
 30
0.0
 11
11557.236525999981
 21
8621.1657910000013
 31
0.0
  0
LINE
  5
44FF
  8
0-1
  6
CONTINUOUS
 62
     3
 10
11561.79040899999
 20
8491.2470170000033
 30
0.0
 11
11561.79040899999
 21
8278.1340270000055
 31
0.0
  0
LINE
  5
4500
  8
0-1
  6
CONTINUOUS
 62
     3
 10
14056.790541
 20
8278.1340270000055
 30
0.0
 11
14056.790541
 21
6367.0884780000006
 31
0.0
  0
LINE
  5
4501
  8
0-1
  6
CONTINUOUS
 62
     3
 10
14171.790673
 20
8582.3751450000018
 30
0.0
 11
14171.790673
 21
6367.0884780000006
 31
0.0
  0
LINE
  5
4502
  8
0-1
  6
CONTINUOUS
 62
     3
 10
14151.791596999999
 20
8581.6743959999967
 30
0.0
 11
14151.791596999999
 21
6367.0884780000006
 31
0.0
  0
LINE
  5
4503
  8
0-1
  6
CONTINUOUS
 62
     3
 10
12997.288785999999
 20
8278.1340270000055
 30
0.0
 11
12997.288785999999
 21
6417.088643000001
 31
0.0
  0
LINE
  5
4504
  8
0-1
  6
CONTINUOUS
 62
     3
 10
13034.28994699999
 20
8278.1340270000055
 30
0.0
 11
13034.28994699999
 21
6417.088643000001
 31
0.0
  0
LINE
  5
4505
  8
0-1
  6
CONTINUOUS
 62
     3
 10
13697.29109499999
 20
8278.1340270000055
 30
0.0
 11
13697.29109499999
 21
6417.088643000001
 31
0.0
  0
LINE
  5
4506
  8
0-1
  6
CONTINUOUS
 62
     3
 10
13734.289287
 20
8278.1340270000055
 30
0.0
 11
13734.289287
 21
6417.088643000001
 31
0.0
  0
LINE
  5
4507
  8
0-1
  6
CONTINUOUS
 62
     3
 10
12297.289445
 20
8278.1340270000055
 30
0.0
 11
12297.289445
 21
6417.088643000001
 31
0.0
  0
LINE
  5
4508
  8
0-1
  6
CONTINUOUS
 62
     3
 10
12334.289617
 20
8278.1340270000055
 30
0.0
 11
12334.289617
 21
6417.088643000001
 31
0.0
  0
LINE
  5
4509
  8
0-1
  6
CONTINUOUS
 62
     3
 10
12675.789234
 20
6417.088643000001
 30
0.0
 11
12675.789234
 21
8278.1340270000055
 31
0.0
  0
LINE
  5
450A
  8
0-1
  6
CONTINUOUS
 62
     3
 10
12655.790157999991
 20
6417.088643000001
 30
0.0
 11
12655.790157999991
 21
8278.1340270000055
 31
0.0
  0
LINE
  5
450B
  8
0-1
  6
CONTINUOUS
 62
     3
 10
12725.790884
 20
6417.088643000001
 30
0.0
 11
12725.790884
 21
8278.1340270000055
 31
0.0
  0
LINE
  5
450C
  8
0-1
  6
CONTINUOUS
 62
     3
 10
12605.78949799998
 20
6417.088643000001
 30
0.0
 11
12605.78949799998
 21
8278.1340270000055
 31
0.0
  0
LINE
  5
450D
  8
0-1
  6
CONTINUOUS
 62
     3
 10
12472.790594
 20
6417.088643000001
 30
0.0
 11
12472.790594
 21
8278.1340270000055
 31
0.0
  0
LINE
  5
450E
  8
0-1
  6
CONTINUOUS
 62
     3
 10
12457.789801999979
 20
6417.088643000001
 30
0.0
 11
12457.789801999979
 21
8278.1340270000055
 31
0.0
  0
LINE
  5
450F
  8
0-1
  6
CONTINUOUS
 62
     3
 10
12858.789789
 20
6417.088643000001
 30
0.0
 11
12858.789789
 21
8278.1340270000055
 31
0.0
  0
LINE
  5
4510
  8
0-1
  6
CONTINUOUS
 62
     3
 10
12873.788601
 20
6417.088643000001
 30
0.0
 11
12873.788601
 21
8278.1340270000055
 31
0.0
  0
LINE
  5
4511
  8
0-1
  6
CONTINUOUS
 62
     3
 10
13573.79091
 20
6417.088643000001
 30
0.0
 11
13573.79091
 21
8278.1340270000055
 31
0.0
  0
LINE
  5
4512
  8
0-1
  6
CONTINUOUS
 62
     3
 10
13558.789128999981
 20
6417.088643000001
 30
0.0
 11
13558.789128999981
 21
8278.1340270000055
 31
0.0
  0
LINE
  5
4513
  8
0-1
  6
CONTINUOUS
 62
     3
 10
13157.790132
 20
6417.088643000001
 30
0.0
 11
13157.790132
 21
8278.1340270000055
 31
0.0
  0
LINE
  5
4514
  8
0-1
  6
CONTINUOUS
 62
     3
 10
13172.788944
 20
6417.088643000001
 30
0.0
 11
13172.788944
 21
8278.1340270000055
 31
0.0
  0
LINE
  5
4515
  8
0-1
  6
CONTINUOUS
 62
     3
 10
13305.788838
 20
6417.088643000001
 30
0.0
 11
13305.788838
 21
8278.1340270000055
 31
0.0
  0
LINE
  5
4516
  8
0-1
  6
CONTINUOUS
 62
     3
 10
13425.789234
 20
6417.088643000001
 30
0.0
 11
13425.789234
 21
8278.1340270000055
 31
0.0
  0
LINE
  5
4517
  8
0-1
  6
CONTINUOUS
 62
     3
 10
13355.789498
 20
6417.088643000001
 30
0.0
 11
13355.789498
 21
8278.1340270000055
 31
0.0
  0
LINE
  5
4518
  8
0-1
  6
CONTINUOUS
 62
     3
 10
13375.788574
 20
6417.088643000001
 30
0.0
 11
13375.788574
 21
8278.1340270000055
 31
0.0
  0
LINE
  5
4519
  8
0-1
  6
CONTINUOUS
 62
     3
 10
12173.789261
 20
6417.088643000001
 30
0.0
 11
12173.789261
 21
8278.1340270000055
 31
0.0
  0
LINE
  5
451A
  8
0-1
  6
CONTINUOUS
 62
     3
 10
12158.789459
 20
6417.088643000001
 30
0.0
 11
12158.789459
 21
8278.1340270000055
 31
0.0
  0
LINE
  5
451B
  8
0-1
  6
CONTINUOUS
 62
     3
 10
11757.79046199999
 20
6417.088643000001
 30
0.0
 11
11757.79046199999
 21
8278.1340270000055
 31
0.0
  0
LINE
  5
451C
  8
0-1
  6
CONTINUOUS
 62
     3
 10
11772.79125299999
 20
6417.088643000001
 30
0.0
 11
11772.79125299999
 21
8278.1340270000055
 31
0.0
  0
LINE
  5
451D
  8
0-1
  6
CONTINUOUS
 62
     3
 10
11905.790158
 20
6417.088643000001
 30
0.0
 11
11905.790158
 21
8278.1340270000055
 31
0.0
  0
LINE
  5
451E
  8
0-1
  6
CONTINUOUS
 62
     3
 10
12025.789564000001
 20
6417.088643000001
 30
0.0
 11
12025.789564000001
 21
8278.1340270000055
 31
0.0
  0
LINE
  5
451F
  8
0-1
  6
CONTINUOUS
 62
     3
 10
11955.789828000001
 20
6417.088643000001
 30
0.0
 11
11955.789828000001
 21
8278.1340270000055
 31
0.0
  0
LINE
  5
4520
  8
0-1
  6
CONTINUOUS
 62
     3
 10
11975.78989399999
 20
6417.088643000001
 30
0.0
 11
11975.78989399999
 21
8278.1340270000055
 31
0.0
  0
LINE
  5
4521
  8
0-1
  6
CONTINUOUS
 62
     3
 10
14184.29040899999
 20
6367.0884780000006
 30
0.0
 11
14184.29040899999
 21
6267.088643000001
 31
0.0
  0
LINE
  5
4522
  8
0-1
  6
CONTINUOUS
 62
     3
 10
8774.6628230000024
 20
8441.9391889999988
 30
0.0
 11
8773.4701630000018
 21
8475.9166359999981
 31
0.0
  0
LINE
  5
4523
  8
0-1
  6
CONTINUOUS
 62
     3
 10
8776.364219000001
 20
8479.0205209999967
 30
0.0
 11
14256.08847199999
 21
8670.3805820000016
 31
0.0
  0
LINE
  5
4524
  8
0-1
  6
CONTINUOUS
 62
     3
 10
14257.487991999989
 20
8630.4071740000036
 30
0.0
 11
8777.7647290000023
 21
8439.0451330000033
 31
0.0
  0
LINE
  5
4525
  8
0-1
  6
CONTINUOUS
 62
     3
 10
8775.0478390000062
 20
8430.9449430000077
 30
0.0
 11
8775.0448700000015
 21
8431.0102670000033
 31
0.0
  0
LINE
  5
4526
  8
0-1
  6
CONTINUOUS
 62
     3
 10
8775.0448700000015
 20
8431.0102670000033
 30
0.0
 11
8776.1682470000032
 21
8398.9658199999994
 31
0.0
  0
LINE
  5
4527
  8
0-1
  6
CONTINUOUS
 62
     3
 10
8781.3397390000009
 20
8394.142722999999
 30
0.0
 11
14280.03173899998
 21
8586.1679030000032
 31
0.0
  0
LINE
  5
4528
  8
0-1
  6
CONTINUOUS
 62
     3
 10
14275.47983599999
 20
8716.0876660000031
 30
0.0
 11
8776.7878360000013
 21
8524.0634770000015
 31
0.0
  0
LINE
  5
4529
  8
0-1
  6
CONTINUOUS
 62
     3
 10
8771.9647390000027
 20
8518.890994000003
 30
0.0
 11
8773.0851470000016
 21
8486.9118720000006
 31
0.0
  0
LINE
  5
452A
  8
0-1
  6
CONTINUOUS
 62
     3
 10
8776.1900220000007
 20
8484.0178160000032
 30
0.0
 11
14255.91229499998
 21
8675.3778770000008
 31
0.0
  0
LINE
  5
452B
  8
0-1
  6
CONTINUOUS
 62
     3
 10
14257.66317899999
 20
8625.4098790000025
 30
0.0
 11
8777.9399160000012
 21
8434.0478379999968
 31
0.0
  0
LINE
  5
452C
  8
0-1
  6
CONTINUOUS
 62
     3
 10
8789.2795880000049
 20
8524.500949999996
 30
0.0
 11
8793.8324809999995
 21
8394.5801969999975
 31
0.0
  0
LINE
  5
452D
  8
0-5
  6
CONTINUOUS
 62
     4
 10
8994.2904090000029
 20
4587.0885440000002
 30
0.0
 11
8994.2904090000029
 21
4427.0885109999999
 31
0.0
  0
LINE
  5
452E
  8
0-5
  6
CONTINUOUS
 62
     4
 10
11561.79040899999
 20
4587.0885440000002
 30
0.0
 11
11561.79040899999
 21
4427.0885109999999
 31
0.0
  0
LINE
  5
452F
  8
0-5
  6
CONTINUOUS
 62
     4
 10
14129.29040899999
 20
4587.0885440000002
 30
0.0
 11
14129.29040899999
 21
4427.0885109999999
 31
0.0
  0
LINE
  5
4530
  8
2-0
  6
CENTER2
 62
     6
 10
8994.2904090000029
 20
6004.4352299999982
 30
0.0
 11
8994.2904090000029
 21
7061.5783230000015
 31
0.0
  0
LINE
  5
4531
  8
2-0
  6
CENTER2
 62
     6
 10
11561.79040899999
 20
6004.4352299999982
 30
0.0
 11
11561.79040899999
 21
7061.5783230000015
 31
0.0
  0
LINE
  5
4532
  8
2-0
  6
CENTER2
 62
     6
 10
14129.29040899999
 20
6004.4352299999982
 30
0.0
 11
14129.29040899999
 21
7061.5783230000015
 31
0.0
  0
ARC
  5
4533
  8
0-1
  6
CONTINUOUS
 62
     3
 10
8779.3513129999974
 20
8436.5994379999975
 30
0.0
 40
2.5
 50
272.00698899981808
 51
92.006988999818205
  0
ARC
  5
4534
  8
0-1
  6
CONTINUOUS
 62
     3
 10
8777.7766060000085
 20
8481.5731100000048
 30
0.0
 40
2.5
 50
272.00698899981808
 51
92.006988999818205
  0
ARC
  5
4535
  8
0-1
  6
CONTINUOUS
 62
     3
 10
8776.4691340000081
 20
8476.0215500000031
 30
0.0
 40
3.0
 50
92.006988999818205
 51
182.00698899997451
  0
ARC
  5
4536
  8
0-1
  6
CONTINUOUS
 62
     3
 10
14256.787241999989
 20
8650.3933829999987
 30
0.0
 40
20.0
 50
272.00698899981808
 51
92.006988999818205
  0
ARC
  5
4537
  8
0-1
  6
CONTINUOUS
 62
     3
 10
8777.6598139999987
 20
8442.0441040000005
 30
0.0
 40
3.0
 50
182.00698899997451
 51
272.00698899981808
  0
ARC
  5
4538
  8
0-1
  6
CONTINUOUS
 62
     3
 10
8778.0448300000044
 20
8431.0508469999986
 30
0.0
 40
3.0
 50
92.006988999818205
 51
182.00698899997451
  0
ARC
  5
4539
  8
0-1
  6
CONTINUOUS
 62
     3
 10
8781.1655409999985
 20
8399.1400180000037
 30
0.0
 40
5.0
 50
182.00698899997451
 51
272.00698899981808
  0
ARC
  5
453A
  8
0-1
  6
CONTINUOUS
 62
     3
 10
14251.790936999991
 20
8650.2191850000017
 30
0.0
 40
69.999999000000003
 50
293.7937770000417
 51
70.22019999997768
  0
ARC
  5
453B
  8
0-1
  6
CONTINUOUS
 62
     3
 10
8776.9620340000056
 20
8519.0661819999968
 30
0.0
 40
5.0
 50
92.006988999818205
 51
182.00698899997451
  0
ARC
  5
453C
  8
0-1
  6
CONTINUOUS
 62
     3
 10
8776.0831280000002
 20
8487.0157970000037
 30
0.0
 40
3.0
 50
182.00698899997451
 51
272.00698899981808
  0
ARC
  5
453D
  8
0-1
  6
CONTINUOUS
 62
     3
 10
14256.787241999989
 20
8650.3933829999987
 30
0.0
 40
24.999998999999999
 50
272.00698899981808
 51
92.006988999818205
  0
CIRCLE
  5
453E
  8
0-5
  6
CONTINUOUS
 62
     4
 10
8994.2904090000029
 20
4227.0878509999993
 30
0.0
 40
199.9999949999999
  0
CIRCLE
  5
453F
  8
0-5
  6
CONTINUOUS
 62
     4
 10
14129.29040899999
 20
4227.0878509999993
 30
0.0
 40
199.9999949999999
  0
CIRCLE
  5
4540
  8
0-5
  6
CONTINUOUS
 62
     4
 10
11561.79040899999
 20
4227.0878509999993
 30
0.0
 40
199.9999949999999
  0
TEXT
  5
4541
  8
0-5
  6
CONTINUOUS
 62
     7
 10
8940.0944328542064
 20
4139.8339066382023
 30
0.0
 40
160.0
  1
C
 72
     4
 11
8993.4277661875421
 21
4219.8339066382032
 31
0.0
  0
TEXT
  5
4542
  8
0-5
  6
CONTINUOUS
 62
     7
 10
11507.59344185418
 20
4139.8339066382023
 30
0.0
 40
160.0
  1
B
 72
     4
 11
11560.92677518752
 21
4219.8339066382032
 31
0.0
  0
TEXT
  5
4543
  8
0-5
  6
CONTINUOUS
 62
     7
 10
14075.092452854189
 20
4139.8339066382023
 30
0.0
 40
160.0
  1
A
 72
     4
 11
14128.42578618753
 21
4219.8339066382032
 31
0.0
  0
TEXT
  5
4544
  8
2-0
  6
CONTINUOUS
 62
     7
 10
10092.842126999991
 20
3479.9210370000019
 30
0.0
 40
160.0
  1
側 面 立 面 図
 72
     4
 11
10738.17546033333
 21
3559.9210370000019
 31
0.0
  0
TEXT
  5
4545
  8
2-0
  6
CONTINUOUS
 62
     7
 10
12089.66764547094
 20
3507.116406000001
 30
0.0
 40
160.0
  1
1
 72
     4
 11
12116.334312137609
 21
3587.1164060000019
 31
0.0
  0
TEXT
  5
4546
  8
2-0
  6
CONTINUOUS
 62
     7
 10
12332.75636272165
 20
3427.1178740000009
 30
0.0
 40
160.0
  1
80
 72
     4
 11
12452.75636272165
 21
3507.1178740000009
 31
0.0
  0
TEXT
  5
4547
  8
2-0
  6
CONTINUOUS
 62
     7
 10
11590.66961147095
 20
3479.9210370000019
 30
0.0
 40
160.0
  1
(S=  /   )
 72
     4
 11
12150.66961147095
 21
3559.9210370000019
 31
0.0
  0
LINE
  5
4548
  8
0-1
  6
CONTINUOUS
 62
     3
 10
9256.2886660000131
 20
6417.088643000001
 30
0.0
 11
9256.2886660000131
 21
8278.1340270000055
 31
0.0
  0
LINE
  5
4549
  8
0-1
  6
CONTINUOUS
 62
     3
 10
9241.2878750000127
 20
6417.088643000001
 30
0.0
 11
9241.2878750000127
 21
8278.1340270000055
 31
0.0
  0
LINE
  5
454A
  8
0-1
  6
CONTINUOUS
 62
     3
 10
13882.29096299999
 20
6417.088643000001
 30
0.0
 11
13882.29096299999
 21
8278.1340270000055
 31
0.0
  0
LINE
  5
454B
  8
0-1
  6
CONTINUOUS
 62
     3
 10
13867.28918199999
 20
6417.088643000001
 30
0.0
 11
13867.28918199999
 21
8278.1340270000055
 31
0.0
  0
LINE
  5
454C
  8
0-5
  6
CONTINUOUS
 62
     4
 10
14264.29067300001
 20
6367.0884780000006
 30
0.0
 11
15981.75062100001
 21
6367.0884780000006
 31
0.0
  0
LINE
  5
454D
  8
0-5
  6
CONTINUOUS
 62
     4
 10
16009.37678200001
 20
6574.9344650000003
 30
0.0
 11
15769.37500099998
 21
6574.9344650000003
 31
0.0
  0
LINE
  5
454E
  8
0-5
  6
CONTINUOUS
 62
     4
 10
15889.37440700001
 20
6367.0884780000006
 30
0.0
 11
16009.37678200001
 21
6574.9344650000003
 31
0.0
  0
LINE
  5
454F
  8
0-5
  6
CONTINUOUS
 62
     4
 10
15769.37500099998
 20
6574.9344650000003
 30
0.0
 11
15889.37440700001
 21
6367.0884780000006
 31
0.0
  0
TEXT
  5
4550
  8
0-0
  6
CONTINUOUS
 62
     7
 10
15430.283467999991
 20
6654.9347289999978
 30
0.0
 40
160.0
  1
布基礎天端
 72
     4
 11
15888.95013466666
 21
6734.9347289999987
 31
0.0
  0
LINE
  5
4551
  8
0-5
  6
CONTINUOUS
 62
     4
 10
16724.674830999971
 20
6474.9351249999991
 30
0.0
 11
16844.67324799997
 21
6267.088643000001
 31
0.0
  0
LINE
  5
4552
  8
0-5
  6
CONTINUOUS
 62
     4
 10
16844.67324799997
 20
6267.088643000001
 30
0.0
 11
16964.675622999981
 21
6474.9351249999991
 31
0.0
  0
LINE
  5
4553
  8
0-5
  6
CONTINUOUS
 62
     4
 10
16964.675622999981
 20
6474.9351249999991
 30
0.0
 11
16724.674830999971
 21
6474.9351249999991
 31
0.0
  0
TEXT
  5
4554
  8
0-0
  6
CONTINUOUS
 62
     7
 10
16724.674830999971
 20
6554.9348940000036
 30
0.0
 40
160.0
  1
G.L
 72
     4
 11
16884.674830999971
 21
6634.9348940000036
 31
0.0
  0
LINE
  5
4555
  8
0-1
  6
CONTINUOUS
 62
     3
 10
24018.048852999971
 20
8465.5884979999973
 30
0.0
 11
24018.048852999971
 21
8497.5884050000004
 31
0.0
  0
LINE
  5
4556
  8
0-1
  6
CONTINUOUS
 62
     3
 10
24167.04824599998
 20
8389.4017760000006
 30
0.0
 11
24124.04613499996
 21
8389.4017760000006
 31
0.0
  0
LINE
  5
4557
  8
0-1
  6
CONTINUOUS
 62
     3
 10
24167.04824599998
 20
8715.5888270000032
 30
0.0
 11
24167.04824599998
 21
8389.4017760000006
 31
0.0
  0
LINE
  5
4558
  8
0-1
  6
CONTINUOUS
 62
     3
 10
23732.081659999989
 20
8462.0530769999987
 30
0.0
 11
23700.082742999981
 21
8494.0529849999984
 31
0.0
  0
LINE
  5
4559
  8
0-1
  6
CONTINUOUS
 62
     3
 10
24013.048588999962
 20
8502.5886689999988
 30
0.0
 11
23703.618162999988
 21
8502.5886689999988
 31
0.0
  0
LINE
  5
455A
  8
0-1
  6
CONTINUOUS
 62
     3
 10
24018.048852999971
 20
8494.189572000003
 30
0.0
 11
23699.952093999971
 21
8494.189572000003
 31
0.0
  0
LINE
  5
455B
  8
0-1
  6
CONTINUOUS
 62
     3
 10
24013.048588999962
 20
8460.5882340000007
 30
0.0
 11
23735.619059999972
 21
8460.5882340000007
 31
0.0
  0
LINE
  5
455C
  8
0-1
  6
CONTINUOUS
 62
     3
 10
24018.048852999971
 20
8468.9883209999989
 30
0.0
 11
23725.147406999971
 21
8468.9883209999989
 31
0.0
  0
LINE
  5
455D
  8
0-1
  6
CONTINUOUS
 62
     3
 10
24018.048852999971
 20
8477.3884079999971
 30
0.0
 11
23716.748308999981
 21
8477.3884079999971
 31
0.0
  0
LINE
  5
455E
  8
0-1
  6
CONTINUOUS
 62
     3
 10
24018.048852999971
 20
8485.7894849999975
 30
0.0
 11
23708.347232999971
 21
8485.7894849999975
 31
0.0
  0
LINE
  5
455F
  8
0-1
  6
CONTINUOUS
 62
     3
 10
24131.546530999982
 20
6367.0884779999951
 30
0.0
 11
24031.547189999968
 21
6367.0884779999951
 31
0.0
  0
LINE
  5
4560
  8
0-1
  6
CONTINUOUS
 62
     3
 10
24031.547189999968
 20
6367.0884779999951
 30
0.0
 11
24031.547189999968
 21
6267.088643000001
 31
0.0
  0
LINE
  5
4561
  8
0-1
  6
CONTINUOUS
 62
     3
 10
24131.546530999982
 20
6267.088643000001
 30
0.0
 11
24131.546530999982
 21
6367.0884779999951
 31
0.0
  0
LINE
  5
4562
  8
0-1
  6
CONTINUOUS
 62
     3
 10
24104.047057999971
 20
8715.5888270000032
 30
0.0
 11
24104.047057999971
 21
6367.0884779999951
 31
0.0
  0
LINE
  5
4563
  8
0-1
  6
CONTINUOUS
 62
     3
 10
24124.04613499996
 20
8585.5879039999982
 30
0.0
 11
24124.04613499996
 21
6367.0884779999951
 31
0.0
  0
LINE
  5
4564
  8
0-1
  6
CONTINUOUS
 62
     3
 10
23994.047189999961
 20
8275.0885369999942
 30
0.0
 11
23994.047189999961
 21
6267.088643000001
 31
0.0
  0
LINE
  5
4565
  8
0-1
  6
CONTINUOUS
 62
     3
 10
24039.047585999971
 20
8585.5879039999982
 30
0.0
 11
24039.047585999971
 21
6367.0884779999951
 31
0.0
  0
LINE
  5
4566
  8
0-1
  6
CONTINUOUS
 62
     3
 10
22564.512061000001
 20
8462.0530769999987
 30
0.0
 11
22596.508999000001
 21
8494.0529849999984
 31
0.0
  0
LINE
  5
4567
  8
0-1
  6
CONTINUOUS
 62
     3
 10
22278.546847000001
 20
8465.5884979999973
 30
0.0
 11
22278.546847000001
 21
8497.5884050000004
 31
0.0
  0
LINE
  5
4568
  8
0-1
  6
CONTINUOUS
 62
     3
 10
22278.546847000001
 20
8468.9883209999989
 30
0.0
 11
22571.444334999971
 21
8468.9883209999989
 31
0.0
  0
LINE
  5
4569
  8
0-1
  6
CONTINUOUS
 62
     3
 10
22278.546847000001
 20
8477.3884079999971
 30
0.0
 11
22579.845411999991
 21
8477.3884079999971
 31
0.0
  0
LINE
  5
456A
  8
0-1
  6
CONTINUOUS
 62
     3
 10
22283.547110999989
 20
8460.5882340000007
 30
0.0
 11
22560.974660999989
 21
8460.5882340000007
 31
0.0
  0
LINE
  5
456B
  8
0-1
  6
CONTINUOUS
 62
     3
 10
22278.546847000001
 20
8485.7894849999975
 30
0.0
 11
22588.244509
 21
8485.7894849999975
 31
0.0
  0
LINE
  5
456C
  8
0-1
  6
CONTINUOUS
 62
     3
 10
22278.546847000001
 20
8494.189572000003
 30
0.0
 11
22596.641627000001
 21
8494.189572000003
 31
0.0
  0
LINE
  5
456D
  8
0-1
  6
CONTINUOUS
 62
     3
 10
22283.547110999989
 20
8502.5886689999988
 30
0.0
 11
22592.975558000009
 21
8502.5886689999988
 31
0.0
  0
LINE
  5
456E
  8
0-1
  6
CONTINUOUS
 62
     3
 10
22257.544154999989
 20
8585.5879039999982
 30
0.0
 11
22257.544154999989
 21
6267.088643000001
 31
0.0
  0
LINE
  5
456F
  8
0-1
  6
CONTINUOUS
 62
     3
 10
22302.54455100001
 20
8275.0885369999942
 30
0.0
 11
22302.54455100001
 21
6267.088643000001
 31
0.0
  0
LINE
  5
4570
  8
0-1
  6
CONTINUOUS
 62
     3
 10
24167.048245999991
 20
8585.5879039999982
 30
0.0
 11
22215.04587099998
 21
8585.5879039999982
 31
0.0
  0
LINE
  5
4571
  8
0-1
  6
CONTINUOUS
 62
     3
 10
22257.544154999989
 20
8511.5885500000004
 30
0.0
 11
24039.047585999971
 21
8511.5885500000004
 31
0.0
  0
LINE
  5
4572
  8
0-1
  6
CONTINUOUS
 62
     3
 10
22302.54455100001
 20
8206.5482009999978
 30
0.0
 11
23994.047189999961
 21
8206.5482009999978
 31
0.0
  0
LINE
  5
4573
  8
0-1
  6
CONTINUOUS
 62
     3
 10
22302.54455100001
 20
6852.0893359999973
 30
0.0
 11
23994.047189999961
 21
6852.0893359999973
 31
0.0
  0
LINE
  5
4574
  8
0-1
  6
CONTINUOUS
 62
     3
 10
22302.54455100001
 20
6917.0883130000002
 30
0.0
 11
23994.047189999961
 21
6917.0883130000002
 31
0.0
  0
LINE
  5
4575
  8
0-1
  6
CONTINUOUS
 62
     3
 10
22302.54455100001
 20
6982.0887749999983
 30
0.0
 11
23994.047189999961
 21
6982.0887749999983
 31
0.0
  0
LINE
  5
4576
  8
0-1
  6
CONTINUOUS
 62
     3
 10
22302.54455100001
 20
7047.0887419999972
 30
0.0
 11
23994.047189999961
 21
7047.0887419999972
 31
0.0
  0
LINE
  5
4577
  8
0-1
  6
CONTINUOUS
 62
     3
 10
22302.54455100001
 20
7112.0887089999969
 30
0.0
 11
23994.047189999961
 21
7112.0887089999969
 31
0.0
  0
LINE
  5
4578
  8
0-1
  6
CONTINUOUS
 62
     3
 10
22302.54455100001
 20
7177.0886759999976
 30
0.0
 11
23994.047189999961
 21
7177.0886759999976
 31
0.0
  0
LINE
  5
4579
  8
0-1
  6
CONTINUOUS
 62
     3
 10
22302.54455100001
 20
7242.089138000003
 30
0.0
 11
23994.047189999961
 21
7242.089138000003
 31
0.0
  0
LINE
  5
457A
  8
0-1
  6
CONTINUOUS
 62
     3
 10
22302.54455100001
 20
7307.0881149999977
 30
0.0
 11
23994.047189999961
 21
7307.0881149999977
 31
0.0
  0
LINE
  5
457B
  8
0-1
  6
CONTINUOUS
 62
     3
 10
22302.54455100001
 20
7372.0885769999977
 30
0.0
 11
23994.047189999961
 21
7372.0885769999977
 31
0.0
  0
LINE
  5
457C
  8
0-1
  6
CONTINUOUS
 62
     3
 10
22302.54455100001
 20
7437.0885439999984
 30
0.0
 11
23994.047189999961
 21
7437.0885439999984
 31
0.0
  0
LINE
  5
457D
  8
0-1
  6
CONTINUOUS
 62
     3
 10
22302.54455100001
 20
7502.0890059999974
 30
0.0
 11
23994.047189999961
 21
7502.0890059999974
 31
0.0
  0
LINE
  5
457E
  8
0-1
  6
CONTINUOUS
 62
     3
 10
22302.54455100001
 20
7567.0879829999967
 30
0.0
 11
23994.047189999961
 21
7567.0879829999967
 31
0.0
  0
LINE
  5
457F
  8
0-1
  6
CONTINUOUS
 62
     3
 10
22302.54455100001
 20
7632.0884449999976
 30
0.0
 11
23994.047189999961
 21
7632.0884449999976
 31
0.0
  0
LINE
  5
4580
  8
0-1
  6
CONTINUOUS
 62
     3
 10
22302.54455100001
 20
7697.0884119999992
 30
0.0
 11
23994.047189999961
 21
7697.0884119999992
 31
0.0
  0
LINE
  5
4581
  8
0-1
  6
CONTINUOUS
 62
     3
 10
22302.54455100001
 20
7762.0883789999989
 30
0.0
 11
23994.047189999961
 21
7762.0883789999989
 31
0.0
  0
LINE
  5
4582
  8
0-1
  6
CONTINUOUS
 62
     3
 10
22302.54455100001
 20
7827.0888410000007
 30
0.0
 11
23994.047189999961
 21
7827.0888410000007
 31
0.0
  0
LINE
  5
4583
  8
0-1
  6
CONTINUOUS
 62
     3
 10
22302.54455100001
 20
7892.0888079999977
 30
0.0
 11
23994.047189999961
 21
7892.0888079999977
 31
0.0
  0
LINE
  5
4584
  8
0-1
  6
CONTINUOUS
 62
     3
 10
22302.54455100001
 20
7957.0892699999968
 30
0.0
 11
23994.047189999961
 21
7957.0892699999968
 31
0.0
  0
LINE
  5
4585
  8
0-1
  6
CONTINUOUS
 62
     3
 10
22302.54455100001
 20
8022.0882469999933
 30
0.0
 11
23994.047189999961
 21
8022.0882469999933
 31
0.0
  0
LINE
  5
4586
  8
0-1
  6
CONTINUOUS
 62
     3
 10
22302.54455100001
 20
8087.0887089999969
 30
0.0
 11
23994.047189999961
 21
8087.0887089999969
 31
0.0
  0
LINE
  5
4587
  8
0-1
  6
CONTINUOUS
 62
     3
 10
22302.54455100001
 20
8152.0886759999976
 30
0.0
 11
23994.047189999961
 21
8152.0886759999976
 31
0.0
  0
LINE
  5
4588
  8
0-1
  6
CONTINUOUS
 62
     3
 10
22302.54455100001
 20
6332.0881149999968
 30
0.0
 11
23994.047189999961
 21
6332.0881149999968
 31
0.0
  0
LINE
  5
4589
  8
0-1
  6
CONTINUOUS
 62
     3
 10
22302.54455100001
 20
6397.0890719999979
 30
0.0
 11
23994.047189999961
 21
6397.0890719999979
 31
0.0
  0
LINE
  5
458A
  8
0-1
  6
CONTINUOUS
 62
     3
 10
22302.54455100001
 20
6462.088048999999
 30
0.0
 11
23994.047189999961
 21
6462.088048999999
 31
0.0
  0
LINE
  5
458B
  8
0-1
  6
CONTINUOUS
 62
     3
 10
22302.54455100001
 20
6527.0890059999974
 30
0.0
 11
23994.047189999961
 21
6527.0890059999974
 31
0.0
  0
LINE
  5
458C
  8
0-1
  6
CONTINUOUS
 62
     3
 10
22302.54455100001
 20
6592.0884779999988
 30
0.0
 11
23994.047189999961
 21
6592.0884779999988
 31
0.0
  0
LINE
  5
458D
  8
0-1
  6
CONTINUOUS
 62
     3
 10
22302.54455100001
 20
6657.0884450000012
 30
0.0
 11
23994.047189999961
 21
6657.0884450000012
 31
0.0
  0
LINE
  5
458E
  8
0-1
  6
CONTINUOUS
 62
     3
 10
22302.54455100001
 20
6722.0884119999992
 30
0.0
 11
23994.047189999961
 21
6722.0884119999992
 31
0.0
  0
LINE
  5
458F
  8
0-1
  6
CONTINUOUS
 62
     3
 10
22302.54455100001
 20
6787.0878839999987
 30
0.0
 11
23994.047189999961
 21
6787.0878839999987
 31
0.0
  0
LINE
  5
4590
  8
0-1
  6
CONTINUOUS
 62
     3
 10
22257.544154999989
 20
8451.5883519999988
 30
0.0
 11
24039.047585999971
 21
8451.5883519999988
 31
0.0
  0
LINE
  5
4591
  8
0-1
  6
CONTINUOUS
 62
     3
 10
22257.544154999989
 20
8275.0885369999942
 30
0.0
 11
24039.047585999971
 21
8275.0885369999942
 31
0.0
  0
LINE
  5
4592
  8
0-1
  6
CONTINUOUS
 62
     3
 10
19597.545211999979
 20
6267.088643000001
 30
0.0
 11
24131.546530999982
 21
6267.088643000001
 31
0.0
  0
LINE
  5
4593
  8
0-1
  6
CONTINUOUS
 62
     3
 10
22215.04587099998
 20
8715.5888270000032
 30
0.0
 11
24167.048245999991
 21
8715.5888270000032
 31
0.0
  0
LINE
  5
4594
  8
0-1
  6
CONTINUOUS
 62
     3
 10
22151.544894999981
 20
8465.5884979999973
 30
0.0
 11
22151.544894999981
 21
8497.5884050000004
 31
0.0
  0
LINE
  5
4595
  8
0-1
  6
CONTINUOUS
 62
     3
 10
21865.583639999972
 20
8462.0530769999987
 30
0.0
 11
21833.582742999981
 21
8494.0529849999984
 31
0.0
  0
LINE
  5
4596
  8
0-1
  6
CONTINUOUS
 62
     3
 10
22151.544894999981
 20
8494.189572000003
 30
0.0
 11
21833.452094999961
 21
8494.189572000003
 31
0.0
  0
LINE
  5
4597
  8
0-1
  6
CONTINUOUS
 62
     3
 10
22151.544894999981
 20
8485.7894849999975
 30
0.0
 11
21841.84723299996
 21
8485.7894849999975
 31
0.0
  0
LINE
  5
4598
  8
0-1
  6
CONTINUOUS
 62
     3
 10
22151.544894999981
 20
8477.3884079999971
 30
0.0
 11
21850.24632999998
 21
8477.3884079999971
 31
0.0
  0
LINE
  5
4599
  8
0-1
  6
CONTINUOUS
 62
     3
 10
22151.544894999981
 20
8468.9883209999989
 30
0.0
 11
21858.64542799996
 21
8468.9883209999989
 31
0.0
  0
LINE
  5
459A
  8
0-1
  6
CONTINUOUS
 62
     3
 10
22146.546609999968
 20
8502.5886689999988
 30
0.0
 11
21837.11618399998
 21
8502.5886689999988
 31
0.0
  0
LINE
  5
459B
  8
0-1
  6
CONTINUOUS
 62
     3
 10
22146.546609999968
 20
8460.5882340000007
 30
0.0
 11
21869.119060999968
 21
8460.5882340000007
 31
0.0
  0
LINE
  5
459C
  8
0-1
  6
CONTINUOUS
 62
     3
 10
22172.545606999971
 20
8585.5879039999982
 30
0.0
 11
22172.545606999971
 21
6267.088643000001
 31
0.0
  0
LINE
  5
459D
  8
0-1
  6
CONTINUOUS
 62
     3
 10
22127.547190999961
 20
8275.0885369999942
 30
0.0
 11
22127.547190999961
 21
6267.088643000001
 31
0.0
  0
LINE
  5
459E
  8
0-1
  6
CONTINUOUS
 62
     3
 10
19716.045131999981
 20
8460.5882340000007
 30
0.0
 11
19993.47466199995
 21
8460.5882340000007
 31
0.0
  0
LINE
  5
459F
  8
0-1
  6
CONTINUOUS
 62
     3
 10
19711.046847999969
 20
8465.5884979999973
 30
0.0
 11
19711.046847999969
 21
8497.5884050000004
 31
0.0
  0
LINE
  5
45A0
  8
0-1
  6
CONTINUOUS
 62
     3
 10
19562.045475999959
 20
8389.4017760000006
 30
0.0
 11
19605.043627999981
 21
8389.4017760000006
 31
0.0
  0
LINE
  5
45A1
  8
0-1
  6
CONTINUOUS
 62
     3
 10
19562.045475999959
 20
8389.4017760000006
 30
0.0
 11
19562.045475999959
 21
8715.5888270000032
 31
0.0
  0
LINE
  5
45A2
  8
0-1
  6
CONTINUOUS
 62
     3
 10
19716.045131999981
 20
8502.5886689999988
 30
0.0
 11
20025.47555899998
 21
8502.5886689999988
 31
0.0
  0
LINE
  5
45A3
  8
0-1
  6
CONTINUOUS
 62
     3
 10
19997.008101999982
 20
8462.0530769999987
 30
0.0
 11
20029.008999999969
 21
8494.0529849999984
 31
0.0
  0
LINE
  5
45A4
  8
0-1
  6
CONTINUOUS
 62
     3
 10
19711.046847999969
 20
8494.189572000003
 30
0.0
 11
20029.141626999979
 21
8494.189572000003
 31
0.0
  0
LINE
  5
45A5
  8
0-1
  6
CONTINUOUS
 62
     3
 10
19711.046847999969
 20
8485.7894849999975
 30
0.0
 11
20020.74450999999
 21
8485.7894849999975
 31
0.0
  0
LINE
  5
45A6
  8
0-1
  6
CONTINUOUS
 62
     3
 10
19711.046847999969
 20
8477.3884079999971
 30
0.0
 11
20012.345411999991
 21
8477.3884079999971
 31
0.0
  0
LINE
  5
45A7
  8
0-1
  6
CONTINUOUS
 62
     3
 10
19711.046847999969
 20
8468.9883209999989
 30
0.0
 11
20003.946314999979
 21
8468.9883209999989
 31
0.0
  0
LINE
  5
45A8
  8
0-1
  6
CONTINUOUS
 62
     3
 10
19697.546530999982
 20
6367.0884779999951
 30
0.0
 11
19697.546530999982
 21
6267.088643000001
 31
0.0
  0
LINE
  5
45A9
  8
0-1
  6
CONTINUOUS
 62
     3
 10
19597.545211999979
 20
6267.088643000001
 30
0.0
 11
19597.545211999979
 21
6367.0884779999951
 31
0.0
  0
LINE
  5
45AA
  8
0-1
  6
CONTINUOUS
 62
     3
 10
19597.545211999979
 20
6367.0884779999951
 30
0.0
 11
19697.546530999982
 21
6367.0884779999951
 31
0.0
  0
LINE
  5
45AB
  8
0-1
  6
CONTINUOUS
 62
     3
 10
19735.046530999982
 20
8275.0885369999942
 30
0.0
 11
19735.046530999982
 21
6267.088643000001
 31
0.0
  0
LINE
  5
45AC
  8
0-1
  6
CONTINUOUS
 62
     3
 10
19690.044155999982
 20
8585.5879039999982
 30
0.0
 11
19690.044155999982
 21
6367.0884779999951
 31
0.0
  0
LINE
  5
45AD
  8
0-1
  6
CONTINUOUS
 62
     3
 10
19625.046662999961
 20
8715.5888270000032
 30
0.0
 11
19625.046662999961
 21
6367.0884779999951
 31
0.0
  0
LINE
  5
45AE
  8
0-1
  6
CONTINUOUS
 62
     3
 10
19605.043627999981
 20
8585.5879039999982
 30
0.0
 11
19605.043627999981
 21
6367.0884779999951
 31
0.0
  0
LINE
  5
45AF
  8
0-1
  6
CONTINUOUS
 62
     3
 10
19690.044155999982
 20
8275.0885369999942
 30
0.0
 11
22172.545606999971
 21
8275.0885369999942
 31
0.0
  0
LINE
  5
45B0
  8
0-1
  6
CONTINUOUS
 62
     3
 10
19690.044155999982
 20
8451.5883519999988
 30
0.0
 11
22172.545606999971
 21
8451.5883519999988
 31
0.0
  0
LINE
  5
45B1
  8
0-1
  6
CONTINUOUS
 62
     3
 10
19735.046530999982
 20
6787.0878839999987
 30
0.0
 11
22127.547190999961
 21
6787.0878839999987
 31
0.0
  0
LINE
  5
45B2
  8
0-1
  6
CONTINUOUS
 62
     3
 10
19735.046530999982
 20
6722.0884119999992
 30
0.0
 11
22127.547190999961
 21
6722.0884119999992
 31
0.0
  0
LINE
  5
45B3
  8
0-1
  6
CONTINUOUS
 62
     3
 10
19735.046530999982
 20
6657.0884450000012
 30
0.0
 11
22127.547190999961
 21
6657.0884450000012
 31
0.0
  0
LINE
  5
45B4
  8
0-1
  6
CONTINUOUS
 62
     3
 10
19735.046530999982
 20
6592.0884779999988
 30
0.0
 11
22127.547190999961
 21
6592.0884779999988
 31
0.0
  0
LINE
  5
45B5
  8
0-1
  6
CONTINUOUS
 62
     3
 10
19735.046530999982
 20
6527.0890059999974
 30
0.0
 11
22127.547190999961
 21
6527.0890059999974
 31
0.0
  0
LINE
  5
45B6
  8
0-1
  6
CONTINUOUS
 62
     3
 10
19735.046530999982
 20
6462.088048999999
 30
0.0
 11
22127.547190999961
 21
6462.088048999999
 31
0.0
  0
LINE
  5
45B7
  8
0-1
  6
CONTINUOUS
 62
     3
 10
19735.046530999982
 20
6397.0890719999979
 30
0.0
 11
22127.547190999961
 21
6397.0890719999979
 31
0.0
  0
LINE
  5
45B8
  8
0-1
  6
CONTINUOUS
 62
     3
 10
19735.046530999982
 20
6332.0881149999968
 30
0.0
 11
22127.547190999961
 21
6332.0881149999968
 31
0.0
  0
LINE
  5
45B9
  8
0-1
  6
CONTINUOUS
 62
     3
 10
19735.046530999982
 20
8152.0886759999976
 30
0.0
 11
22127.547190999961
 21
8152.0886759999976
 31
0.0
  0
LINE
  5
45BA
  8
0-1
  6
CONTINUOUS
 62
     3
 10
19735.046530999982
 20
8087.0887089999969
 30
0.0
 11
22127.547190999961
 21
8087.0887089999969
 31
0.0
  0
LINE
  5
45BB
  8
0-1
  6
CONTINUOUS
 62
     3
 10
19735.046530999982
 20
8022.0882469999933
 30
0.0
 11
22127.547190999961
 21
8022.0882469999933
 31
0.0
  0
LINE
  5
45BC
  8
0-1
  6
CONTINUOUS
 62
     3
 10
19735.046530999982
 20
7957.0892699999968
 30
0.0
 11
22127.547190999961
 21
7957.0892699999968
 31
0.0
  0
LINE
  5
45BD
  8
0-1
  6
CONTINUOUS
 62
     3
 10
19735.046530999982
 20
7892.0888079999977
 30
0.0
 11
22127.547190999961
 21
7892.0888079999977
 31
0.0
  0
LINE
  5
45BE
  8
0-1
  6
CONTINUOUS
 62
     3
 10
19735.046530999982
 20
7827.0888410000007
 30
0.0
 11
22127.547190999961
 21
7827.0888410000007
 31
0.0
  0
LINE
  5
45BF
  8
0-1
  6
CONTINUOUS
 62
     3
 10
19735.046530999982
 20
7762.0883789999989
 30
0.0
 11
22127.547190999961
 21
7762.0883789999989
 31
0.0
  0
LINE
  5
45C0
  8
0-1
  6
CONTINUOUS
 62
     3
 10
19735.046530999982
 20
7697.0884119999992
 30
0.0
 11
22127.547190999961
 21
7697.0884119999992
 31
0.0
  0
LINE
  5
45C1
  8
0-1
  6
CONTINUOUS
 62
     3
 10
19735.046530999982
 20
7632.0884449999976
 30
0.0
 11
22127.547190999961
 21
7632.0884449999976
 31
0.0
  0
LINE
  5
45C2
  8
0-1
  6
CONTINUOUS
 62
     3
 10
19735.046530999982
 20
7567.0879829999967
 30
0.0
 11
22127.547190999961
 21
7567.0879829999967
 31
0.0
  0
LINE
  5
45C3
  8
0-1
  6
CONTINUOUS
 62
     3
 10
19735.046530999982
 20
7502.0890059999974
 30
0.0
 11
22127.547190999961
 21
7502.0890059999974
 31
0.0
  0
LINE
  5
45C4
  8
0-1
  6
CONTINUOUS
 62
     3
 10
19735.046530999982
 20
7437.0885439999984
 30
0.0
 11
22127.547190999961
 21
7437.0885439999984
 31
0.0
  0
LINE
  5
45C5
  8
0-1
  6
CONTINUOUS
 62
     3
 10
19735.046530999982
 20
7372.0885769999977
 30
0.0
 11
22127.547190999961
 21
7372.0885769999977
 31
0.0
  0
LINE
  5
45C6
  8
0-1
  6
CONTINUOUS
 62
     3
 10
19735.046530999982
 20
7307.0881149999977
 30
0.0
 11
22127.547190999961
 21
7307.0881149999977
 31
0.0
  0
LINE
  5
45C7
  8
0-1
  6
CONTINUOUS
 62
     3
 10
19735.046530999982
 20
7242.089138000003
 30
0.0
 11
22127.547190999961
 21
7242.089138000003
 31
0.0
  0
LINE
  5
45C8
  8
0-1
  6
CONTINUOUS
 62
     3
 10
19735.046530999982
 20
7177.0886759999976
 30
0.0
 11
22127.547190999961
 21
7177.0886759999976
 31
0.0
  0
LINE
  5
45C9
  8
0-1
  6
CONTINUOUS
 62
     3
 10
19735.046530999982
 20
7112.0887089999969
 30
0.0
 11
22127.547190999961
 21
7112.0887089999969
 31
0.0
  0
LINE
  5
45CA
  8
0-1
  6
CONTINUOUS
 62
     3
 10
19735.046530999982
 20
7047.0887419999972
 30
0.0
 11
22127.547190999961
 21
7047.0887419999972
 31
0.0
  0
LINE
  5
45CB
  8
0-1
  6
CONTINUOUS
 62
     3
 10
19735.046530999982
 20
6982.0887749999983
 30
0.0
 11
22127.547190999961
 21
6982.0887749999983
 31
0.0
  0
LINE
  5
45CC
  8
0-1
  6
CONTINUOUS
 62
     3
 10
19735.046530999982
 20
6917.0883130000002
 30
0.0
 11
22127.547190999961
 21
6917.0883130000002
 31
0.0
  0
LINE
  5
45CD
  8
0-1
  6
CONTINUOUS
 62
     3
 10
19735.046530999982
 20
6852.0893359999973
 30
0.0
 11
22127.547190999961
 21
6852.0893359999973
 31
0.0
  0
LINE
  5
45CE
  8
0-1
  6
CONTINUOUS
 62
     3
 10
19735.046530999982
 20
8206.5482009999978
 30
0.0
 11
22127.547190999961
 21
8206.5482009999978
 31
0.0
  0
LINE
  5
45CF
  8
0-1
  6
CONTINUOUS
 62
     3
 10
19690.044155999982
 20
8511.5885500000004
 30
0.0
 11
22172.545606999971
 21
8511.5885500000004
 31
0.0
  0
LINE
  5
45D0
  8
0-1
  6
CONTINUOUS
 62
     3
 10
19562.045475999959
 20
8715.5888270000032
 30
0.0
 11
22215.04587099998
 21
8715.5888270000032
 31
0.0
  0
LINE
  5
45D1
  8
0-1
  6
CONTINUOUS
 62
     3
 10
22215.04587099998
 20
8585.5879039999982
 30
0.0
 11
19562.045475999959
 21
8585.5879039999982
 31
0.0
  0
LINE
  5
45D2
  8
0-1
  6
CONTINUOUS
 62
     3
 10
22215.04587099998
 20
8585.5879039999982
 30
0.0
 11
22215.04587099998
 21
8715.5888270000032
 31
0.0
  0
LINE
  5
45D3
  8
0-1
  6
CONTINUOUS
 62
     3
 10
22215.04587099998
 20
8585.5879039999982
 30
0.0
 11
22215.04587099998
 21
8715.5888270000032
 31
0.0
  0
LINE
  5
45D4
  8
0-2
  6
CONTINUOUS
 62
     4
 10
21294.98688149999
 20
7014.3143469999986
 30
0.0
 11
21194.987541499981
 21
7014.3143469999986
 31
0.0
  0
LINE
  5
45D5
  8
0-2
  6
CONTINUOUS
 62
     4
 10
20567.602880499991
 20
7014.3143469999986
 30
0.0
 11
20667.600241499971
 21
7014.3143469999986
 31
0.0
  0
LINE
  5
45D6
  8
0-5
  6
CONTINUOUS
 62
     4
 10
22215.04587099998
 20
4587.0885439999929
 30
0.0
 11
22215.04587099998
 21
4427.0885109999999
 31
0.0
  0
LINE
  5
45D7
  8
0-5
  6
CONTINUOUS
 62
     4
 10
19647.54587099998
 20
4587.0885439999929
 30
0.0
 11
19647.54587099998
 21
4427.0885109999999
 31
0.0
  0
LINE
  5
45D8
  8
2-0
  6
CENTER2
 62
     6
 10
24081.54587099998
 20
6004.4362199999978
 30
0.0
 11
24081.54587099998
 21
7041.5782569999992
 31
0.0
  0
LINE
  5
45D9
  8
2-0
  6
CENTER2
 62
     6
 10
22215.04587099998
 20
6004.4362199999978
 30
0.0
 11
22215.04587099998
 21
7041.5782569999992
 31
0.0
  0
LINE
  5
45DA
  8
2-0
  6
CENTER2
 62
     6
 10
19647.54587099998
 20
6004.4362199999978
 30
0.0
 11
19647.54587099998
 21
7041.5782569999992
 31
0.0
  0
ARC
  5
45DB
  8
0-1
  6
CONTINUOUS
 62
     3
 10
24013.048588999962
 20
8497.5884050000004
 30
0.0
 40
5.0
 50
0.0
 51
90.0
  0
ARC
  5
45DC
  8
0-1
  6
CONTINUOUS
 62
     3
 10
24013.048588999962
 20
8465.5884979999973
 30
0.0
 40
5.0
 50
269.9999850001808
 51
0.0
  0
ARC
  5
45DD
  8
0-1
  6
CONTINUOUS
 62
     3
 10
23703.618162999988
 20
8497.5884050000004
 30
0.0
 40
5.0
 50
90.0
 51
224.9999849999798
  0
ARC
  5
45DE
  8
0-1
  6
CONTINUOUS
 62
     3
 10
23735.619059999972
 20
8465.5884979999973
 30
0.0
 40
5.0
 50
224.9999849999798
 51
269.9999850001808
  0
ARC
  5
45DF
  8
0-1
  6
CONTINUOUS
 62
     3
 10
22592.975558000009
 20
8497.5884050000004
 30
0.0
 40
5.0
 50
314.99998500027471
 51
90.0
  0
ARC
  5
45E0
  8
0-1
  6
CONTINUOUS
 62
     3
 10
22560.974660999989
 20
8465.5884979999973
 30
0.0
 40
5.0
 50
269.9999850001808
 51
314.99998500027471
  0
ARC
  5
45E1
  8
0-1
  6
CONTINUOUS
 62
     3
 10
22283.547110999989
 20
8465.5884979999973
 30
0.0
 40
5.0
 50
180.0
 51
269.9999850001808
  0
ARC
  5
45E2
  8
0-1
  6
CONTINUOUS
 62
     3
 10
22283.547110999989
 20
8497.5884050000004
 30
0.0
 40
5.0
 50
90.0
 51
180.0
  0
ARC
  5
45E3
  8
0-1
  6
CONTINUOUS
 62
     3
 10
22146.546609999968
 20
8465.5884979999973
 30
0.0
 40
5.0
 50
269.9999850001808
 51
0.0
  0
ARC
  5
45E4
  8
0-1
  6
CONTINUOUS
 62
     3
 10
22146.546609999968
 20
8497.5884050000004
 30
0.0
 40
5.0
 50
0.0
 51
90.0
  0
ARC
  5
45E5
  8
0-1
  6
CONTINUOUS
 62
     3
 10
21837.11618399998
 20
8497.5884050000004
 30
0.0
 40
5.0
 50
90.0
 51
224.9999849999798
  0
ARC
  5
45E6
  8
0-1
  6
CONTINUOUS
 62
     3
 10
21869.119060999968
 20
8465.5884979999973
 30
0.0
 40
5.0
 50
224.9999849999798
 51
269.9999850001808
  0
ARC
  5
45E7
  8
0-1
  6
CONTINUOUS
 62
     3
 10
20025.47555899998
 20
8497.5884050000004
 30
0.0
 40
5.0
 50
314.99998500027471
 51
90.0
  0
ARC
  5
45E8
  8
0-1
  6
CONTINUOUS
 62
     3
 10
19716.045131999981
 20
8497.5884050000004
 30
0.0
 40
5.0
 50
90.0
 51
180.0
  0
ARC
  5
45E9
  8
0-1
  6
CONTINUOUS
 62
     3
 10
19716.045131999981
 20
8465.5884979999973
 30
0.0
 40
5.0
 50
180.0
 51
269.9999850001808
  0
ARC
  5
45EA
  8
0-1
  6
CONTINUOUS
 62
     3
 10
19993.47466199995
 20
8465.5884979999973
 30
0.0
 40
5.0
 50
269.9999850001808
 51
314.99998500027471
  0
CIRCLE
  5
45EB
  8
0-5
  6
CONTINUOUS
 62
     4
 10
22215.04587099998
 20
4227.0888409999989
 30
0.0
 40
199.9999949999999
  0
CIRCLE
  5
45EC
  8
0-5
  6
CONTINUOUS
 62
     4
 10
19647.54587099998
 20
4227.0888409999989
 30
0.0
 40
199.9999949999999
  0
TEXT
  5
45ED
  8
0-5
  6
CONTINUOUS
 62
     7
 10
19029.369931999991
 20
6996.4488897419951
 30
0.0
 40
160.0
  1
(2131.5)
 50
90.0
 72
     4
 11
18949.369931999991
 21
7449.7822230753281
 31
0.0
  0
TEXT
  5
45EE
  8
0-5
  6
CONTINUOUS
 62
     7
 10
22168.11742399996
 20
4140.5588870000001
 30
0.0
 40
160.0
  1
2
 72
     4
 11
22221.450757333299
 21
4220.5588869999992
 31
0.0
  0
TEXT
  5
45EF
  8
0-5
  6
CONTINUOUS
 62
     7
 10
19600.613464999969
 20
4140.5588870000001
 30
0.0
 40
160.0
  1
1
 72
     4
 11
19627.280131666641
 21
4220.5588869999992
 31
0.0
  0
CIRCLE
  5
45F0
  8
0-4
  6
CONTINUOUS
 62
     4
 10
20931.295870999991
 20
6753.144583999996
 30
0.0
 40
18.487504999999981
  0
LINE
  5
45F1
  8
SUNPOU
  6
CONTINUOUS
 10
19365.04587099998
 20
5067.088643000001
 30
0.0
 11
19007.090864278871
 21
5067.088643000001
 31
0.0
  0
LINE
  5
45F2
  8
SUNPOU
  6
CONTINUOUS
 10
24364.049829999989
 20
5067.088643000001
 30
0.0
 11
24722.00483672108
 21
5067.088643000001
 31
0.0
  0
LINE
  5
45F3
  8
0-5
  6
CONTINUOUS
 62
     4
 10
24124.045870999969
 20
4587.0885439999929
 30
0.0
 11
24124.045870999969
 21
4427.0885109999999
 31
0.0
  0
CIRCLE
  5
45F4
  8
0-5
  6
CONTINUOUS
 62
     4
 10
24124.045870999969
 20
4227.0888409999989
 30
0.0
 40
199.9999949999999
  0
TEXT
  5
45F5
  8
0-5
  6
CONTINUOUS
 62
     7
 10
24077.117423999971
 20
4140.5588870000001
 30
0.0
 40
160.0
  1
3
 72
     4
 11
24130.45075733331
 21
4220.5588869999992
 31
0.0
  0
TEXT
  5
45F6
  8
2-0
  6
CONTINUOUS
 62
     7
 10
20546.51212699998
 20
3389.967011000002
 30
0.0
 40
160.0
  1
正 面 立 面 図
 50
0.000139
 72
     4
 11
21191.845266250799
 21
3469.968576583376
 31
0.0
  0
TEXT
  5
45F7
  8
2-0
  6
CONTINUOUS
 62
     7
 10
22543.33745138843
 20
3417.1639455833761
 30
0.0
 40
160.0
  1
1
 72
     4
 11
22570.004118055102
 21
3497.163945583377
 31
0.0
  0
TEXT
  5
45F8
  8
2-0
  6
CONTINUOUS
 62
     7
 10
22786.426168639118
 20
3337.165413583376
 30
0.0
 40
160.0
  1
80
 72
     4
 11
22906.426168639118
 21
3417.165413583376
 31
0.0
  0
TEXT
  5
45F9
  8
2-0
  6
CONTINUOUS
 62
     7
 10
22044.339417388412
 20
3389.968576583376
 30
0.0
 40
160.0
  1
(S=  /   )
 72
     4
 11
22604.339417388412
 21
3469.968576583376
 31
0.0
  0
LINE
  5
45FA
  8
0-5
  6
CONTINUOUS
 62
     4
 10
16724.676810999961
 20
6474.9341350000013
 30
0.0
 11
16844.67324799997
 21
6267.088643000001
 31
0.0
  0
LINE
  5
45FB
  8
0-5
  6
CONTINUOUS
 62
     4
 10
16844.67324799997
 20
6267.088643000001
 30
0.0
 11
16964.673643999969
 21
6474.9341350000013
 31
0.0
  0
LINE
  5
45FC
  8
0-5
  6
CONTINUOUS
 62
     4
 10
16964.673643999969
 20
6474.9341350000013
 30
0.0
 11
16724.676810999961
 21
6474.9341350000013
 31
0.0
  0
TEXT
  5
45FD
  8
0-5
  6
CONTINUOUS
 62
     7
 10
16724.676810999968
 20
6554.9348929999987
 30
0.0
 40
160.0
  1
G.L
 72
     4
 11
16884.676810999968
 21
6634.9348929999987
 31
0.0
  0
TEXT
  5
45FE
  8
2-0
  6
CONTINUOUS
 62
     7
 10
20783.619773999981
 20
12256.04839299999
 30
0.0
 40
160.0
  1
平　面　図
 50
359.99978700000008
 72
     4
 11
21236.953384907349
 21
12330.713374376221
 31
0.0
  0
TEXT
  5
45FF
  8
2-0
  6
CONTINUOUS
 62
     7
 10
22588.44557004498
 20
12277.908743376231
 30
0.0
 40
160.0
  1
1
 72
     4
 11
22615.112236711651
 21
12357.908743376231
 31
0.0
  0
TEXT
  5
4600
  8
2-0
  6
CONTINUOUS
 62
     7
 10
22831.534287295672
 20
12197.91021137622
 30
0.0
 40
160.0
  1
80
 72
     4
 11
22951.534287295672
 21
12277.91021137622
 31
0.0
  0
TEXT
  5
4601
  8
2-0
  6
CONTINUOUS
 62
     7
 10
22089.44753604498
 20
12250.713374376221
 30
0.0
 40
160.0
  1
(S=  /   )
 72
     4
 11
22649.44753604498
 21
12330.713374376221
 31
0.0
  0
LINE
  5
4602
  8
2-0
  6
CONTINUOUS
 62
     6
 10
22398.38695499998
 20
13868.038666
 30
0.0
 11
23398.380356999951
 21
13868.038666
 31
0.0
  0
LINE
  5
4603
  8
2-0
  6
CONTINUOUS
 62
     6
 10
23866.320733999972
 20
14338.45938
 30
0.0
 11
23398.380356999951
 21
13868.038666
 31
0.0
  0
LINE
  5
4604
  8
2-0
  6
CONTINUOUS
 62
     6
 10
23827.680530999969
 20
17179.567027000001
 30
0.0
 11
23522.985112999992
 21
17283.220558000019
 31
0.0
  0
LINE
  5
4605
  8
2-0
  6
CONTINUOUS
 62
     6
 10
23982.702569999961
 20
16689.944983000001
 30
0.0
 11
23522.985112999992
 21
16446.031672000001
 31
0.0
  0
LINE
  5
4606
  8
2-0
  6
CONTINUOUS
 62
     6
 10
22602.982077999961
 20
16446.031672000001
 30
0.0
 11
23522.985112999992
 21
16446.031672000001
 31
0.0
  0
LINE
  5
4607
  8
2-0
  6
CONTINUOUS
 62
     6
 10
22322.991050999961
 20
17283.220558000019
 30
0.0
 11
23522.985112999992
 21
17283.220558000019
 31
0.0
  0
LINE
  5
4608
  8
2-0
  6
CONTINUOUS
 62
     6
 10
23898.879854999981
 20
14660.14302599998
 30
0.0
 11
23522.985112999992
 21
14841.086861
 31
0.0
  0
LINE
  5
4609
  8
2-0
  6
CONTINUOUS
 62
     6
 10
23002.983396999982
 20
14841.086861
 30
0.0
 11
23522.985112999992
 21
14841.086861
 31
0.0
  0
LINE
  5
460A
  8
2-0
  6
CONTINUOUS
 62
     4
 10
22215.04587099998
 20
19765.540316000021
 30
0.0
 11
22215.04587099998
 21
20495.537281000012
 31
0.0
  0
LINE
  5
460B
  8
2-0
  6
CONTINUOUS
 62
     3
 10
24094.04653099996
 20
19576.537862000001
 30
0.0
 11
24094.04653099996
 21
19570.5419
 31
0.0
  0
LINE
  5
460C
  8
2-0
  6
CONTINUOUS
 62
     3
 10
24094.04653099996
 20
19570.5419
 30
0.0
 11
24124.04415499997
 21
19570.5419
 31
0.0
  0
LINE
  5
460D
  8
2-0
  6
CONTINUOUS
 62
     3
 10
24124.04415499997
 20
19600.541504000001
 30
0.0
 11
24043.04225499996
 21
19600.541504000001
 31
0.0
  0
LINE
  5
460E
  8
2-0
  6
CONTINUOUS
 62
     3
 10
24094.04653099996
 20
19560.244444
 30
0.0
 11
24124.04415499997
 21
19560.244444
 31
0.0
  0
LINE
  5
460F
  8
2-0
  6
CONTINUOUS
 62
     3
 10
24094.04653099996
 20
19578.246186000011
 30
0.0
 11
24094.04653099996
 21
19560.244444
 31
0.0
  0
LINE
  5
4610
  8
2-0
  6
CONTINUOUS
 62
     3
 10
24119.04389099999
 20
19578.246186000011
 30
0.0
 11
24094.04653099996
 21
19578.246186000011
 31
0.0
  0
LINE
  5
4611
  8
2-0
  6
CONTINUOUS
 62
     3
 10
24119.04389099999
 20
19573.238004000021
 30
0.0
 11
24119.04389099999
 21
19578.246186000011
 31
0.0
  0
LINE
  5
4612
  8
2-0
  6
CONTINUOUS
 62
     3
 10
24112.042333999991
 20
19573.238004000021
 30
0.0
 11
24119.04389099999
 21
19573.238004000021
 31
0.0
  0
LINE
  5
4613
  8
2-0
  6
CONTINUOUS
 62
     3
 10
24011.746065999982
 20
19673.538230999999
 30
0.0
 11
24011.746065999982
 21
19680.543747000011
 31
0.0
  0
LINE
  5
4614
  8
2-0
  6
CONTINUOUS
 62
     3
 10
24011.746065999982
 20
19680.543747000011
 30
0.0
 11
24016.746329999969
 21
19680.543747000011
 31
0.0
  0
LINE
  5
4615
  8
2-0
  6
CONTINUOUS
 62
     3
 10
24016.746329999969
 20
19680.543747000011
 30
0.0
 11
24016.746329999969
 21
19655.534510000001
 31
0.0
  0
LINE
  5
4616
  8
2-0
  6
CONTINUOUS
 62
     3
 10
24016.746329999969
 20
19655.534510000001
 30
0.0
 11
23998.744587999961
 21
19655.534510000001
 31
0.0
  0
LINE
  5
4617
  8
2-0
  6
CONTINUOUS
 62
     3
 10
23998.744587999961
 20
19655.534510000001
 30
0.0
 11
23998.744587999961
 21
19685.538073000022
 31
0.0
  0
LINE
  5
4618
  8
2-0
  6
CONTINUOUS
 62
     3
 10
24009.042043999969
 20
19685.538073000022
 30
0.0
 11
24124.04415499997
 21
19685.538073000022
 31
0.0
  0
LINE
  5
4619
  8
2-0
  6
CONTINUOUS
 62
     3
 10
24009.042043999969
 20
19655.534510000001
 30
0.0
 11
24009.042043999969
 21
19685.538073000022
 31
0.0
  0
LINE
  5
461A
  8
2-0
  6
CONTINUOUS
 62
     3
 10
24015.043943999972
 20
19655.534510000001
 30
0.0
 11
24009.042043999969
 21
19655.534510000001
 31
0.0
  0
LINE
  5
461B
  8
2-0
  6
CONTINUOUS
 62
     3
 10
24112.042333999991
 20
19219.941181499991
 30
0.0
 11
24119.04389099999
 21
19219.941181499991
 31
0.0
  0
LINE
  5
461C
  8
2-0
  6
CONTINUOUS
 62
     3
 10
24119.04389099999
 20
19219.941181499991
 30
0.0
 11
24119.04389099999
 21
19224.941445500001
 31
0.0
  0
LINE
  5
461D
  8
2-0
  6
CONTINUOUS
 62
     3
 10
24119.04389099999
 20
19224.941445500001
 30
0.0
 11
24094.04653099996
 21
19224.941445500001
 31
0.0
  0
LINE
  5
461E
  8
2-0
  6
CONTINUOUS
 62
     3
 10
24094.04653099996
 20
19224.941445500001
 30
0.0
 11
24094.04653099996
 21
19206.945641499991
 31
0.0
  0
LINE
  5
461F
  8
2-0
  6
CONTINUOUS
 62
     3
 10
24094.04653099996
 20
19206.945641499991
 30
0.0
 11
24124.04415499997
 21
19206.945641499991
 31
0.0
  0
LINE
  5
4620
  8
2-0
  6
CONTINUOUS
 62
     3
 10
24094.04653099996
 20
19223.037148499981
 30
0.0
 11
24094.04653099996
 21
19217.039207500002
 31
0.0
  0
LINE
  5
4621
  8
2-0
  6
CONTINUOUS
 62
     3
 10
24094.04653099996
 20
19217.039207500002
 30
0.0
 11
24124.04415499997
 21
19217.039207500002
 31
0.0
  0
LINE
  5
4622
  8
2-0
  6
CONTINUOUS
 62
     3
 10
24124.04415499997
 20
19217.039207500002
 30
0.0
 11
24124.04415499997
 21
19254.040368499991
 31
0.0
  0
LINE
  5
4623
  8
2-0
  6
CONTINUOUS
 62
     3
 10
24094.04653099996
 20
19254.040368499991
 30
0.0
 11
24124.04415499997
 21
19254.040368499991
 31
0.0
  0
LINE
  5
4624
  8
2-0
  6
CONTINUOUS
 62
     3
 10
24094.04653099996
 20
19248.036488499991
 30
0.0
 11
24094.04653099996
 21
19254.040368499991
 31
0.0
  0
LINE
  5
4625
  8
2-0
  6
CONTINUOUS
 62
     3
 10
24094.04653099996
 20
19264.135913499991
 30
0.0
 11
24124.04415499997
 21
19264.135913499991
 31
0.0
  0
LINE
  5
4626
  8
2-0
  6
CONTINUOUS
 62
     3
 10
24094.04653099996
 20
19246.134171500002
 30
0.0
 11
24094.04653099996
 21
19264.135913499991
 31
0.0
  0
LINE
  5
4627
  8
2-0
  6
CONTINUOUS
 62
     3
 10
24119.04389099999
 20
19246.134171500002
 30
0.0
 11
24094.04653099996
 21
19246.134171500002
 31
0.0
  0
LINE
  5
4628
  8
2-0
  6
CONTINUOUS
 62
     3
 10
24119.04389099999
 20
19251.1344355
 30
0.0
 11
24119.04389099999
 21
19246.134171500002
 31
0.0
  0
LINE
  5
4629
  8
2-0
  6
CONTINUOUS
 62
     3
 10
24112.042333999991
 20
19251.1344355
 30
0.0
 11
24119.04389099999
 21
19251.1344355
 31
0.0
  0
LINE
  5
462A
  8
2-0
  6
CONTINUOUS
 62
     3
 10
24112.042333999991
 20
18518.940191999998
 30
0.0
 11
24119.04389099999
 21
18518.940191999998
 31
0.0
  0
LINE
  5
462B
  8
2-0
  6
CONTINUOUS
 62
     3
 10
24119.04389099999
 20
18518.940191999998
 30
0.0
 11
24119.04389099999
 21
18523.946393999991
 31
0.0
  0
LINE
  5
462C
  8
2-0
  6
CONTINUOUS
 62
     3
 10
24119.04389099999
 20
18523.946393999991
 30
0.0
 11
24094.04653099996
 21
18523.946393999991
 31
0.0
  0
LINE
  5
462D
  8
2-0
  6
CONTINUOUS
 62
     3
 10
24094.04653099996
 20
18523.946393999991
 30
0.0
 11
24094.04653099996
 21
18505.944651999998
 31
0.0
  0
LINE
  5
462E
  8
2-0
  6
CONTINUOUS
 62
     3
 10
24094.04653099996
 20
18505.944651999998
 30
0.0
 11
24124.04415499997
 21
18505.944651999998
 31
0.0
  0
LINE
  5
462F
  8
2-0
  6
CONTINUOUS
 62
     3
 10
24094.04653099996
 20
18522.036158999981
 30
0.0
 11
24094.04653099996
 21
18516.040196999991
 31
0.0
  0
LINE
  5
4630
  8
2-0
  6
CONTINUOUS
 62
     3
 10
24094.04653099996
 20
18516.040196999991
 30
0.0
 11
24124.04415499997
 21
18516.040196999991
 31
0.0
  0
LINE
  5
4631
  8
2-0
  6
CONTINUOUS
 62
     3
 10
24124.04415499997
 20
18516.040196999991
 30
0.0
 11
24124.04415499997
 21
18553.039379000002
 31
0.0
  0
LINE
  5
4632
  8
2-0
  6
CONTINUOUS
 62
     3
 10
24094.04653099996
 20
18553.039379000002
 30
0.0
 11
24124.04415499997
 21
18553.039379000002
 31
0.0
  0
LINE
  5
4633
  8
2-0
  6
CONTINUOUS
 62
     3
 10
24094.04653099996
 20
18547.043416999979
 30
0.0
 11
24094.04653099996
 21
18553.039379000002
 31
0.0
  0
LINE
  5
4634
  8
2-0
  6
CONTINUOUS
 62
     3
 10
24094.04653099996
 20
18563.134924000002
 30
0.0
 11
24124.04415499997
 21
18563.134924000002
 31
0.0
  0
LINE
  5
4635
  8
2-0
  6
CONTINUOUS
 62
     3
 10
24094.04653099996
 20
18545.133182000001
 30
0.0
 11
24094.04653099996
 21
18563.134924000002
 31
0.0
  0
LINE
  5
4636
  8
2-0
  6
CONTINUOUS
 62
     3
 10
24119.04389099999
 20
18545.133182000001
 30
0.0
 11
24094.04653099996
 21
18545.133182000001
 31
0.0
  0
LINE
  5
4637
  8
2-0
  6
CONTINUOUS
 62
     3
 10
24119.04389099999
 20
18550.139383999991
 30
0.0
 11
24119.04389099999
 21
18545.133182000001
 31
0.0
  0
LINE
  5
4638
  8
2-0
  6
CONTINUOUS
 62
     3
 10
24112.042333999991
 20
18550.139383999991
 30
0.0
 11
24119.04389099999
 21
18550.139383999991
 31
0.0
  0
LINE
  5
4639
  8
2-0
  6
CONTINUOUS
 62
     3
 10
24112.042333999991
 20
17849.133446
 30
0.0
 11
24119.04389099999
 21
17849.133446
 31
0.0
  0
LINE
  5
463A
  8
2-0
  6
CONTINUOUS
 62
     3
 10
24119.04389099999
 20
17849.133446
 30
0.0
 11
24119.04389099999
 21
17844.145058999991
 31
0.0
  0
LINE
  5
463B
  8
2-0
  6
CONTINUOUS
 62
     3
 10
24119.04389099999
 20
17844.145058999991
 30
0.0
 11
24094.04653099996
 21
17844.145058999991
 31
0.0
  0
LINE
  5
463C
  8
2-0
  6
CONTINUOUS
 62
     3
 10
24094.04653099996
 20
17844.145058999991
 30
0.0
 11
24094.04653099996
 21
17862.140862000011
 31
0.0
  0
LINE
  5
463D
  8
2-0
  6
CONTINUOUS
 62
     3
 10
24094.04653099996
 20
17862.140862000011
 30
0.0
 11
24124.04415499997
 21
17862.140862000011
 31
0.0
  0
LINE
  5
463E
  8
2-0
  6
CONTINUOUS
 62
     3
 10
24094.04653099996
 20
17846.043417000012
 30
0.0
 11
24094.04653099996
 21
17852.039379000002
 31
0.0
  0
LINE
  5
463F
  8
2-0
  6
CONTINUOUS
 62
     3
 10
24094.04653099996
 20
17852.039379000002
 30
0.0
 11
24124.04415499997
 21
17852.039379000002
 31
0.0
  0
LINE
  5
4640
  8
2-0
  6
CONTINUOUS
 62
     3
 10
24124.04415499997
 20
17852.039379000002
 30
0.0
 11
24124.04415499997
 21
17815.040196999991
 31
0.0
  0
LINE
  5
4641
  8
2-0
  6
CONTINUOUS
 62
     3
 10
24094.04653099996
 20
17815.040196999991
 30
0.0
 11
24124.04415499997
 21
17815.040196999991
 31
0.0
  0
LINE
  5
4642
  8
2-0
  6
CONTINUOUS
 62
     3
 10
24094.04653099996
 20
17821.042098000002
 30
0.0
 11
24094.04653099996
 21
17815.040196999991
 31
0.0
  0
LINE
  5
4643
  8
2-0
  6
CONTINUOUS
 62
     3
 10
24094.04653099996
 20
17804.950591000012
 30
0.0
 11
24124.04415499997
 21
17804.950591000012
 31
0.0
  0
LINE
  5
4644
  8
2-0
  6
CONTINUOUS
 62
     3
 10
24094.04653099996
 20
17822.946393999991
 30
0.0
 11
24094.04653099996
 21
17804.950591000012
 31
0.0
  0
LINE
  5
4645
  8
2-0
  6
CONTINUOUS
 62
     3
 10
24119.04389099999
 20
17822.946393999991
 30
0.0
 11
24094.04653099996
 21
17822.946393999991
 31
0.0
  0
LINE
  5
4646
  8
2-0
  6
CONTINUOUS
 62
     3
 10
24119.04389099999
 20
17817.946131000012
 30
0.0
 11
24119.04389099999
 21
17822.946393999991
 31
0.0
  0
LINE
  5
4647
  8
2-0
  6
CONTINUOUS
 62
     3
 10
24112.042333999991
 20
17817.946131000012
 30
0.0
 11
24119.04389099999
 21
17817.946131000012
 31
0.0
  0
LINE
  5
4648
  8
2-0
  6
CONTINUOUS
 62
     3
 10
24121.158016999969
 20
17098.037016999999
 30
0.0
 11
24121.158016999969
 21
17118.038071999988
 31
0.0
  0
LINE
  5
4649
  8
2-0
  6
CONTINUOUS
 62
     3
 10
24121.158016999969
 20
17118.038071999988
 30
0.0
 11
24036.161447999981
 21
17118.038071999988
 31
0.0
  0
LINE
  5
464A
  8
2-0
  6
CONTINUOUS
 62
     3
 10
24112.042333999991
 20
17144.64478200001
 30
0.0
 11
24119.04389099999
 21
17144.64478200001
 31
0.0
  0
LINE
  5
464B
  8
2-0
  6
CONTINUOUS
 62
     3
 10
24119.04389099999
 20
17144.64478200001
 30
0.0
 11
24119.04389099999
 21
17139.65045600001
 31
0.0
  0
LINE
  5
464C
  8
2-0
  6
CONTINUOUS
 62
     3
 10
24119.04389099999
 20
17139.65045600001
 30
0.0
 11
24094.04653099996
 21
17139.65045600001
 31
0.0
  0
LINE
  5
464D
  8
2-0
  6
CONTINUOUS
 62
     3
 10
24094.04653099996
 20
17139.65045600001
 30
0.0
 11
24094.04653099996
 21
17157.646260000001
 31
0.0
  0
LINE
  5
464E
  8
2-0
  6
CONTINUOUS
 62
     3
 10
24094.04653099996
 20
17157.646260000001
 30
0.0
 11
24124.04415499997
 21
17157.646260000001
 31
0.0
  0
LINE
  5
464F
  8
2-0
  6
CONTINUOUS
 62
     3
 10
24094.04653099996
 20
17148.037676
 30
0.0
 11
24094.04653099996
 21
17142.035776000001
 31
0.0
  0
LINE
  5
4650
  8
2-0
  6
CONTINUOUS
 62
     3
 10
24124.04415499997
 20
17148.037676
 30
0.0
 11
24094.04653099996
 21
17148.037676
 31
0.0
  0
LINE
  5
4651
  8
2-0
  6
CONTINUOUS
 62
     3
 10
24124.04415499997
 20
17157.646260000001
 30
0.0
 11
24124.04415499997
 21
17804.950591000012
 31
0.0
  0
LINE
  5
4652
  8
2-0
  6
CONTINUOUS
 62
     3
 10
24124.04415499997
 20
17862.140862000011
 30
0.0
 11
24124.04415499997
 21
18505.944651999998
 31
0.0
  0
LINE
  5
4653
  8
2-0
  6
CONTINUOUS
 62
     3
 10
24124.04415499997
 20
17003.035961000009
 30
0.0
 11
24094.04653099996
 21
17003.035961000009
 31
0.0
  0
LINE
  5
4654
  8
2-0
  6
CONTINUOUS
 62
     3
 10
24094.04653099996
 20
17003.035961000009
 30
0.0
 11
24094.04653099996
 21
17009.037861000012
 31
0.0
  0
LINE
  5
4655
  8
2-0
  6
CONTINUOUS
 62
     3
 10
24036.161447999981
 20
17033.041504000012
 30
0.0
 11
24121.158016999969
 21
17033.041504000012
 31
0.0
  0
LINE
  5
4656
  8
2-0
  6
CONTINUOUS
 62
     3
 10
24121.158016999969
 20
17033.041504000012
 30
0.0
 11
24121.158016999969
 21
17053.03662100001
 31
0.0
  0
LINE
  5
4657
  8
2-0
  6
CONTINUOUS
 62
     3
 10
24094.04653099996
 20
16993.427378000011
 30
0.0
 11
24124.04415499997
 21
16993.427378000011
 31
0.0
  0
LINE
  5
4658
  8
2-0
  6
CONTINUOUS
 62
     3
 10
24094.04653099996
 20
17011.423180999991
 30
0.0
 11
24094.04653099996
 21
16993.427378000011
 31
0.0
  0
LINE
  5
4659
  8
2-0
  6
CONTINUOUS
 62
     3
 10
24119.04389099999
 20
17011.423180999991
 30
0.0
 11
24094.04653099996
 21
17011.423180999991
 31
0.0
  0
LINE
  5
465A
  8
2-0
  6
CONTINUOUS
 62
     3
 10
24119.04389099999
 20
17006.422917000011
 30
0.0
 11
24119.04389099999
 21
17011.423180999991
 31
0.0
  0
LINE
  5
465B
  8
2-0
  6
CONTINUOUS
 62
     3
 10
24112.042333999991
 20
17006.422917000011
 30
0.0
 11
24119.04389099999
 21
17006.422917000011
 31
0.0
  0
LINE
  5
465C
  8
2-0
  6
CONTINUOUS
 62
     3
 10
24112.042333999991
 20
16301.94068649998
 30
0.0
 11
24119.04389099999
 21
16301.94068649998
 31
0.0
  0
LINE
  5
465D
  8
2-0
  6
CONTINUOUS
 62
     3
 10
24119.04389099999
 20
16301.94068649998
 30
0.0
 11
24119.04389099999
 21
16306.94095049998
 31
0.0
  0
LINE
  5
465E
  8
2-0
  6
CONTINUOUS
 62
     3
 10
24119.04389099999
 20
16306.94095049998
 30
0.0
 11
24094.04653099996
 21
16306.94095049998
 31
0.0
  0
LINE
  5
465F
  8
2-0
  6
CONTINUOUS
 62
     3
 10
24094.04653099996
 20
16306.94095049998
 30
0.0
 11
24094.04653099996
 21
16288.9392085
 31
0.0
  0
LINE
  5
4660
  8
2-0
  6
CONTINUOUS
 62
     3
 10
24094.04653099996
 20
16288.9392085
 30
0.0
 11
24124.04415499997
 21
16288.9392085
 31
0.0
  0
LINE
  5
4661
  8
2-0
  6
CONTINUOUS
 62
     3
 10
24094.04653099996
 20
16305.036653499999
 30
0.0
 11
24094.04653099996
 21
16299.0397025
 31
0.0
  0
LINE
  5
4662
  8
2-0
  6
CONTINUOUS
 62
     3
 10
24094.04653099996
 20
16299.0397025
 30
0.0
 11
24124.04415499997
 21
16299.0397025
 31
0.0
  0
LINE
  5
4663
  8
2-0
  6
CONTINUOUS
 62
     3
 10
24124.04415499997
 20
16299.0397025
 30
0.0
 11
24124.04415499997
 21
16336.0398735
 31
0.0
  0
LINE
  5
4664
  8
2-0
  6
CONTINUOUS
 62
     3
 10
24094.04653099996
 20
16336.0398735
 30
0.0
 11
24124.04415499997
 21
16336.0398735
 31
0.0
  0
LINE
  5
4665
  8
2-0
  6
CONTINUOUS
 62
     3
 10
24094.04653099996
 20
16330.0369835
 30
0.0
 11
24094.04653099996
 21
16336.0398735
 31
0.0
  0
LINE
  5
4666
  8
2-0
  6
CONTINUOUS
 62
     3
 10
24094.04653099996
 20
16346.135418499989
 30
0.0
 11
24124.04415499997
 21
16346.135418499989
 31
0.0
  0
LINE
  5
4667
  8
2-0
  6
CONTINUOUS
 62
     3
 10
24094.04653099996
 20
16328.127737500001
 30
0.0
 11
24094.04653099996
 21
16346.135418499989
 31
0.0
  0
LINE
  5
4668
  8
2-0
  6
CONTINUOUS
 62
     3
 10
24119.04389099999
 20
16328.127737500001
 30
0.0
 11
24094.04653099996
 21
16328.127737500001
 31
0.0
  0
LINE
  5
4669
  8
2-0
  6
CONTINUOUS
 62
     3
 10
24119.04389099999
 20
16333.133940499991
 30
0.0
 11
24119.04389099999
 21
16328.127737500001
 31
0.0
  0
LINE
  5
466A
  8
2-0
  6
CONTINUOUS
 62
     3
 10
24112.042333999991
 20
16333.133940499991
 30
0.0
 11
24119.04389099999
 21
16333.133940499991
 31
0.0
  0
LINE
  5
466B
  8
2-0
  6
CONTINUOUS
 62
     3
 10
24112.042333999991
 20
15632.373957
 30
0.0
 11
24119.04389099999
 21
15632.373957
 31
0.0
  0
LINE
  5
466C
  8
2-0
  6
CONTINUOUS
 62
     3
 10
24119.04389099999
 20
15632.373957
 30
0.0
 11
24119.04389099999
 21
15627.379632
 31
0.0
  0
LINE
  5
466D
  8
2-0
  6
CONTINUOUS
 62
     3
 10
24119.04389099999
 20
15627.379632
 30
0.0
 11
24094.04653099996
 21
15627.379632
 31
0.0
  0
LINE
  5
466E
  8
2-0
  6
CONTINUOUS
 62
     3
 10
24094.04653099996
 20
15627.379632
 30
0.0
 11
24094.04653099996
 21
15645.375435000011
 31
0.0
  0
LINE
  5
466F
  8
2-0
  6
CONTINUOUS
 62
     3
 10
24094.04653099996
 20
15645.375435000011
 30
0.0
 11
24124.04415499997
 21
15645.375435000011
 31
0.0
  0
LINE
  5
4670
  8
2-0
  6
CONTINUOUS
 62
     3
 10
24094.04653099996
 20
15629.277990000001
 30
0.0
 11
24094.04653099996
 21
15635.27989000002
 31
0.0
  0
LINE
  5
4671
  8
2-0
  6
CONTINUOUS
 62
     3
 10
24094.04653099996
 20
15635.27989000002
 30
0.0
 11
24124.04415499997
 21
15635.27989000002
 31
0.0
  0
LINE
  5
4672
  8
2-0
  6
CONTINUOUS
 62
     3
 10
24124.04415499997
 20
15598.280709000001
 30
0.0
 11
24124.04415499997
 21
15635.27989000002
 31
0.0
  0
LINE
  5
4673
  8
2-0
  6
CONTINUOUS
 62
     3
 10
24094.04653099996
 20
15598.280709000001
 30
0.0
 11
24124.04415499997
 21
15598.280709000001
 31
0.0
  0
LINE
  5
4674
  8
2-0
  6
CONTINUOUS
 62
     3
 10
24094.04653099996
 20
15604.27766
 30
0.0
 11
24094.04653099996
 21
15598.280709000001
 31
0.0
  0
LINE
  5
4675
  8
2-0
  6
CONTINUOUS
 62
     3
 10
24094.04653099996
 20
15588.179225
 30
0.0
 11
24124.04415499997
 21
15588.179225
 31
0.0
  0
LINE
  5
4676
  8
2-0
  6
CONTINUOUS
 62
     3
 10
24094.04653099996
 20
15606.186906000001
 30
0.0
 11
24094.04653099996
 21
15588.179225
 31
0.0
  0
LINE
  5
4677
  8
2-0
  6
CONTINUOUS
 62
     3
 10
24119.04389099999
 20
15606.186906000001
 30
0.0
 11
24094.04653099996
 21
15606.186906000001
 31
0.0
  0
LINE
  5
4678
  8
2-0
  6
CONTINUOUS
 62
     3
 10
24119.04389099999
 20
15601.186642000001
 30
0.0
 11
24119.04389099999
 21
15606.186906000001
 31
0.0
  0
LINE
  5
4679
  8
2-0
  6
CONTINUOUS
 62
     3
 10
24112.042333999991
 20
15601.186642000001
 30
0.0
 11
24119.04389099999
 21
15601.186642000001
 31
0.0
  0
LINE
  5
467A
  8
2-0
  6
CONTINUOUS
 62
     3
 10
24124.04415499997
 20
16993.427378000011
 30
0.0
 11
24124.04415499997
 21
16346.135418499989
 31
0.0
  0
LINE
  5
467B
  8
2-0
  6
CONTINUOUS
 62
     3
 10
24124.04415499997
 20
17148.037676
 30
0.0
 11
24124.04415499997
 21
17003.035961000009
 31
0.0
  0
LINE
  5
467C
  8
2-0
  6
CONTINUOUS
 62
     3
 10
24036.161447999981
 20
17118.038071999988
 30
0.0
 11
24036.161447999981
 21
17033.041504000012
 31
0.0
  0
LINE
  5
467D
  8
2-0
  6
CONTINUOUS
 62
     3
 10
24094.04653099996
 20
14574.541714999999
 30
0.0
 11
24094.04653099996
 21
14580.546584
 31
0.0
  0
LINE
  5
467E
  8
2-0
  6
CONTINUOUS
 62
     3
 10
24094.04653099996
 20
14580.546584
 30
0.0
 11
24124.04415499997
 21
14580.546584
 31
0.0
  0
LINE
  5
467F
  8
2-0
  6
CONTINUOUS
 62
     3
 10
24124.04415499997
 20
14580.546584
 30
0.0
 11
24124.04415499997
 21
14465.542493000001
 31
0.0
  0
LINE
  5
4680
  8
2-0
  6
CONTINUOUS
 62
     3
 10
24124.04415499997
 20
14465.542493000001
 30
0.0
 11
24039.04560699996
 21
14465.542493000001
 31
0.0
  0
LINE
  5
4681
  8
2-0
  6
CONTINUOUS
 62
     3
 10
24039.04560699996
 20
14465.542493000001
 30
0.0
 11
24039.04560699996
 21
14550.538071999999
 31
0.0
  0
LINE
  5
4682
  8
2-0
  6
CONTINUOUS
 62
     3
 10
24039.04560699996
 20
14550.538071999999
 30
0.0
 11
24071.044524999968
 21
14550.538071999999
 31
0.0
  0
LINE
  5
4683
  8
2-0
  6
CONTINUOUS
 62
     3
 10
24112.042333999991
 20
14577.576316999999
 30
0.0
 11
24119.04389099999
 21
14577.576316999999
 31
0.0
  0
LINE
  5
4684
  8
2-0
  6
CONTINUOUS
 62
     3
 10
24119.04389099999
 20
14577.576316999999
 30
0.0
 11
24119.04389099999
 21
14572.57902199998
 31
0.0
  0
LINE
  5
4685
  8
2-0
  6
CONTINUOUS
 62
     3
 10
24119.04389099999
 20
14572.57902199998
 30
0.0
 11
24094.04653099996
 21
14572.57902199998
 31
0.0
  0
LINE
  5
4686
  8
2-0
  6
CONTINUOUS
 62
     3
 10
24094.04653099996
 20
14572.57902199998
 30
0.0
 11
24094.04653099996
 21
14590.57779499999
 31
0.0
  0
LINE
  5
4687
  8
2-0
  6
CONTINUOUS
 62
     3
 10
24094.04653099996
 20
14590.57779499999
 30
0.0
 11
24124.04415499997
 21
14590.57779499999
 31
0.0
  0
LINE
  5
4688
  8
2-0
  6
CENTER2
 62
     6
 10
24081.54587099998
 20
14268.044934999991
 30
0.0
 11
24081.54587099998
 21
15073.41369300001
 31
0.0
  0
LINE
  5
4689
  8
2-0
  6
CONTINUOUS
 62
     3
 10
24124.04415499997
 20
18563.134924000002
 30
0.0
 11
24124.04415499997
 21
19206.945641499991
 31
0.0
  0
LINE
  5
468A
  8
2-0
  6
CONTINUOUS
 62
     6
 10
24816.549037999968
 20
20415.540976000011
 30
0.0
 11
26016.543099999959
 21
20415.540976000011
 31
0.0
  0
LINE
  5
468B
  8
2-0
  6
CONTINUOUS
 62
     3
 10
22287.547718999991
 20
19685.538073000022
 30
0.0
 11
22287.547718999991
 21
19655.534510000001
 31
0.0
  0
LINE
  5
468C
  8
2-0
  6
CONTINUOUS
 62
     3
 10
22287.547718999991
 20
19655.534510000001
 30
0.0
 11
22281.54977699996
 21
19655.534510000001
 31
0.0
  0
LINE
  5
468D
  8
2-0
  6
CONTINUOUS
 62
     3
 10
22297.164219999999
 20
19655.534510000001
 30
0.0
 11
22297.164219999999
 21
19685.538073000022
 31
0.0
  0
LINE
  5
468E
  8
2-0
  6
CONTINUOUS
 62
     3
 10
22279.16247799998
 20
19655.534510000001
 30
0.0
 11
22297.164219999999
 21
19655.534510000001
 31
0.0
  0
LINE
  5
468F
  8
2-0
  6
CONTINUOUS
 62
     3
 10
22279.16247799998
 20
19680.543747000011
 30
0.0
 11
22279.16247799998
 21
19655.534510000001
 31
0.0
  0
LINE
  5
4690
  8
2-0
  6
CONTINUOUS
 62
     3
 10
22284.162741999971
 20
19680.543747000011
 30
0.0
 11
22279.16247799998
 21
19680.543747000011
 31
0.0
  0
LINE
  5
4691
  8
2-0
  6
CONTINUOUS
 62
     3
 10
22284.162741999971
 20
19673.538230999999
 30
0.0
 11
22284.162741999971
 21
19680.543747000011
 31
0.0
  0
LINE
  5
4692
  8
2-0
  6
CONTINUOUS
 62
     3
 10
22257.54613499999
 20
19682.645996000021
 30
0.0
 11
22257.54613499999
 21
19597.647448000022
 31
0.0
  0
LINE
  5
4693
  8
2-0
  6
CONTINUOUS
 62
     3
 10
22237.549038000001
 20
19682.645996000021
 30
0.0
 11
22257.54613499999
 21
19682.645996000021
 31
0.0
  0
LINE
  5
4694
  8
2-0
  6
CONTINUOUS
 62
     3
 10
22145.934938999992
 20
19673.538230999999
 30
0.0
 11
22145.934938999992
 21
19680.543747000011
 31
0.0
  0
LINE
  5
4695
  8
2-0
  6
CONTINUOUS
 62
     3
 10
22145.934938999992
 20
19680.543747000011
 30
0.0
 11
22150.935202999961
 21
19680.543747000011
 31
0.0
  0
LINE
  5
4696
  8
2-0
  6
CONTINUOUS
 62
     3
 10
22150.935202999961
 20
19680.543747000011
 30
0.0
 11
22150.935202999961
 21
19655.534510000001
 31
0.0
  0
LINE
  5
4697
  8
2-0
  6
CONTINUOUS
 62
     3
 10
22150.935202999961
 20
19655.534510000001
 30
0.0
 11
22132.933460999961
 21
19655.534510000001
 31
0.0
  0
LINE
  5
4698
  8
2-0
  6
CONTINUOUS
 62
     3
 10
22132.933460999961
 20
19655.534510000001
 30
0.0
 11
22132.933460999961
 21
19685.538073000022
 31
0.0
  0
LINE
  5
4699
  8
2-0
  6
CONTINUOUS
 62
     3
 10
22172.553524999988
 20
19682.645996000021
 30
0.0
 11
22192.54864199998
 21
19682.645996000021
 31
0.0
  0
LINE
  5
469A
  8
2-0
  6
CONTINUOUS
 62
     3
 10
22172.553524999988
 20
19597.647448000022
 30
0.0
 11
22172.553524999988
 21
19682.645996000021
 31
0.0
  0
LINE
  5
469B
  8
2-0
  6
CONTINUOUS
 62
     3
 10
22142.555900999989
 20
19655.534510000001
 30
0.0
 11
22148.551861999971
 21
19655.534510000001
 31
0.0
  0
LINE
  5
469C
  8
2-0
  6
CONTINUOUS
 62
     3
 10
22142.555900999989
 20
19685.538073000022
 30
0.0
 11
22142.555900999989
 21
19655.534510000001
 31
0.0
  0
LINE
  5
469D
  8
2-0
  6
CONTINUOUS
 62
     3
 10
22257.54613499999
 20
19597.647448000022
 30
0.0
 11
22172.553524999988
 21
19597.647448000022
 31
0.0
  0
LINE
  5
469E
  8
2-0
  6
CONTINUOUS
 62
     3
 10
22287.547718999991
 20
19685.538073000022
 30
0.0
 11
22142.555900999989
 21
19685.538073000022
 31
0.0
  0
LINE
  5
469F
  8
2-0
  6
CONTINUOUS
 62
     6
 10
24276.085038999961
 20
19828.217813000021
 30
0.0
 11
24816.549037999968
 21
20415.540976000011
 31
0.0
  0
LINE
  5
46A0
  8
2-0
  6
CONTINUOUS
 62
     3
 10
24124.04415499997
 20
16288.9392085
 30
0.0
 11
24124.04415499997
 21
15645.375435000011
 31
0.0
  0
LINE
  5
46A1
  8
2-0
  6
CONTINUOUS
 62
     6
 10
24295.70206799998
 20
19810.15668600002
 30
0.0
 11
24167.740047999981
 21
19710.47406800001
 31
0.0
  0
LINE
  5
46A2
  8
2-0
  6
CONTINUOUS
 62
     6
 10
24167.740047999981
 20
19710.47406800001
 30
0.0
 11
24256.454152999981
 21
19846.271023000001
 31
0.0
  0
LINE
  5
46A3
  8
2-0
  6
CONTINUOUS
 62
     6
 10
24295.70206799998
 20
19810.15668600002
 30
0.0
 11
24256.454152999981
 21
19846.271023000001
 31
0.0
  0
LINE
  5
46A4
  8
2-0
  6
CONTINUOUS
 62
     6
 10
24256.454152999981
 20
19846.271023000001
 30
0.0
 11
24167.740047999981
 21
19710.47406800001
 31
0.0
  0
LINE
  5
46A5
  8
2-0
  6
CONTINUOUS
 62
     6
 10
24167.740047999981
 20
19710.47406800001
 30
0.0
 11
24295.70206799998
 21
19810.15668600002
 31
0.0
  0
LINE
  5
46A6
  8
2-0
  6
CONTINUOUS
 62
     6
 10
24295.70206799998
 20
19810.15668600002
 30
0.0
 11
24167.740047999981
 21
19710.47406800001
 31
0.0
  0
LINE
  5
46A7
  8
2-0
  6
CONTINUOUS
 62
     6
 10
24256.454152999981
 20
19846.271023000001
 30
0.0
 11
24167.740047999981
 21
19710.47406800001
 31
0.0
  0
LINE
  5
46A8
  8
2-0
  6
CONTINUOUS
 62
     6
 10
24256.454152999981
 20
19846.271023000001
 30
0.0
 11
24295.70206799998
 21
19810.15668600002
 31
0.0
  0
LINE
  5
46A9
  8
2-0
  6
CONTINUOUS
 62
     4
 10
22215.04587099998
 20
19765.540316000021
 30
0.0
 11
22215.04587099998
 21
20495.537281000012
 31
0.0
  0
LINE
  5
46AA
  8
2-0
  6
CONTINUOUS
 62
     6
 10
23847.406433999971
 20
14357.26975499999
 30
0.0
 11
23979.153292999988
 21
14451.896682000001
 31
0.0
  0
LINE
  5
46AB
  8
2-0
  6
CONTINUOUS
 62
     6
 10
23979.153292999988
 20
14451.896682000001
 30
0.0
 11
23885.223156999971
 21
14319.657911999981
 31
0.0
  0
LINE
  5
46AC
  8
2-0
  6
CONTINUOUS
 62
     6
 10
23847.406433999971
 20
14357.26975499999
 30
0.0
 11
23885.223156999971
 21
14319.657911999981
 31
0.0
  0
LINE
  5
46AD
  8
2-0
  6
CONTINUOUS
 62
     6
 10
23885.223156999971
 20
14319.657911999981
 30
0.0
 11
23979.153292999988
 21
14451.896682000001
 31
0.0
  0
LINE
  5
46AE
  8
2-0
  6
CONTINUOUS
 62
     6
 10
23979.153292999988
 20
14451.896682000001
 30
0.0
 11
23847.406433999971
 21
14357.26975499999
 31
0.0
  0
LINE
  5
46AF
  8
2-0
  6
CONTINUOUS
 62
     6
 10
23847.406433999971
 20
14357.26975499999
 30
0.0
 11
23979.153292999988
 21
14451.896682000001
 31
0.0
  0
LINE
  5
46B0
  8
2-0
  6
CONTINUOUS
 62
     6
 10
23885.223156999971
 20
14319.657911999981
 30
0.0
 11
23979.153292999988
 21
14451.896682000001
 31
0.0
  0
LINE
  5
46B1
  8
2-0
  6
CONTINUOUS
 62
     6
 10
23885.223156999971
 20
14319.657911999981
 30
0.0
 11
23847.406433999971
 21
14357.26975499999
 31
0.0
  0
LINE
  5
46B2
  8
2-0
  6
CONTINUOUS
 62
     6
 10
23910.442222999969
 20
14684.17438199999
 30
0.0
 11
24043.04225499996
 21
14590.746053999979
 31
0.0
  0
LINE
  5
46B3
  8
2-0
  6
CONTINUOUS
 62
     6
 10
24043.04225499996
 20
14590.746053999979
 30
0.0
 11
23887.309568999961
 21
14636.121568
 31
0.0
  0
LINE
  5
46B4
  8
2-0
  6
CONTINUOUS
 62
     6
 10
23910.442222999969
 20
14684.17438199999
 30
0.0
 11
23887.309568999961
 21
14636.121568
 31
0.0
  0
LINE
  5
46B5
  8
2-0
  6
CONTINUOUS
 62
     6
 10
23887.309568999961
 20
14636.121568
 30
0.0
 11
24043.04225499996
 21
14590.746053999979
 31
0.0
  0
LINE
  5
46B6
  8
2-0
  6
CONTINUOUS
 62
     6
 10
24043.04225499996
 20
14590.746053999979
 30
0.0
 11
23910.442222999969
 21
14684.17438199999
 31
0.0
  0
LINE
  5
46B7
  8
2-0
  6
CONTINUOUS
 62
     6
 10
23910.442222999969
 20
14684.17438199999
 30
0.0
 11
24043.04225499996
 21
14590.746053999979
 31
0.0
  0
LINE
  5
46B8
  8
2-0
  6
CONTINUOUS
 62
     6
 10
23887.309568999961
 20
14636.121568
 30
0.0
 11
24043.04225499996
 21
14590.746053999979
 31
0.0
  0
LINE
  5
46B9
  8
2-0
  6
CONTINUOUS
 62
     6
 10
23887.309568999961
 20
14636.121568
 30
0.0
 11
23910.442222999969
 21
14684.17438199999
 31
0.0
  0
LINE
  5
46BA
  8
2-0
  6
CONTINUOUS
 62
     6
 10
23970.205868999969
 20
16713.495315000011
 30
0.0
 11
24124.04415499997
 21
16764.92914600002
 31
0.0
  0
LINE
  5
46BB
  8
2-0
  6
CONTINUOUS
 62
     6
 10
24124.04415499997
 20
16764.92914600002
 30
0.0
 11
23995.209167999961
 21
16666.388711000011
 31
0.0
  0
LINE
  5
46BC
  8
2-0
  6
CONTINUOUS
 62
     6
 10
23970.205868999969
 20
16713.495315000011
 30
0.0
 11
23995.209167999961
 21
16666.388711000011
 31
0.0
  0
LINE
  5
46BD
  8
2-0
  6
CONTINUOUS
 62
     6
 10
23995.209167999961
 20
16666.388711000011
 30
0.0
 11
24124.04415499997
 21
16764.92914600002
 31
0.0
  0
LINE
  5
46BE
  8
2-0
  6
CONTINUOUS
 62
     6
 10
24124.04415499997
 20
16764.92914600002
 30
0.0
 11
23970.205868999969
 21
16713.495315000011
 31
0.0
  0
LINE
  5
46BF
  8
2-0
  6
CONTINUOUS
 62
     6
 10
23970.205868999969
 20
16713.495315000011
 30
0.0
 11
24124.04415499997
 21
16764.92914600002
 31
0.0
  0
LINE
  5
46C0
  8
2-0
  6
CONTINUOUS
 62
     6
 10
23995.209167999961
 20
16666.388711000011
 30
0.0
 11
24124.04415499997
 21
16764.92914600002
 31
0.0
  0
LINE
  5
46C1
  8
2-0
  6
CONTINUOUS
 62
     6
 10
23995.209167999961
 20
16666.388711000011
 30
0.0
 11
23970.205868999969
 21
16713.495315000011
 31
0.0
  0
LINE
  5
46C2
  8
2-0
  6
CONTINUOUS
 62
     6
 10
23836.269661999981
 20
17204.81380700002
 30
0.0
 11
23979.153292999988
 21
17128.038177999999
 31
0.0
  0
LINE
  5
46C3
  8
2-0
  6
CONTINUOUS
 62
     6
 10
23979.153292999988
 20
17128.038177999999
 30
0.0
 11
23819.091399999968
 21
17154.320247000011
 31
0.0
  0
LINE
  5
46C4
  8
2-0
  6
CONTINUOUS
 62
     6
 10
23836.269661999981
 20
17204.81380700002
 30
0.0
 11
23819.091399999968
 21
17154.320247000011
 31
0.0
  0
LINE
  5
46C5
  8
2-0
  6
CONTINUOUS
 62
     6
 10
23819.091399999968
 20
17154.320247000011
 30
0.0
 11
23979.153292999988
 21
17128.038177999999
 31
0.0
  0
LINE
  5
46C6
  8
2-0
  6
CONTINUOUS
 62
     6
 10
23979.153292999988
 20
17128.038177999999
 30
0.0
 11
23836.269661999981
 21
17204.81380700002
 31
0.0
  0
LINE
  5
46C7
  8
2-0
  6
CONTINUOUS
 62
     6
 10
23836.269661999981
 20
17204.81380700002
 30
0.0
 11
23979.153292999988
 21
17128.038177999999
 31
0.0
  0
LINE
  5
46C8
  8
2-0
  6
CONTINUOUS
 62
     6
 10
23819.091399999968
 20
17154.320247000011
 30
0.0
 11
23979.153292999988
 21
17128.038177999999
 31
0.0
  0
LINE
  5
46C9
  8
2-0
  6
CONTINUOUS
 62
     6
 10
23819.091399999968
 20
17154.320247000011
 30
0.0
 11
23836.269661999981
 21
17204.81380700002
 31
0.0
  0
LINE
  5
46CA
  8
2-0
  6
CONTINUOUS
 62
     3
 10
21475.546451999959
 20
19685.538073000022
 30
0.0
 11
21438.54528999998
 21
19685.538073000022
 31
0.0
  0
LINE
  5
46CB
  8
2-0
  6
CONTINUOUS
 62
     3
 10
21475.546451999959
 20
19655.534510000001
 30
0.0
 11
21475.546451999959
 21
19685.538073000022
 31
0.0
  0
LINE
  5
46CC
  8
2-0
  6
CONTINUOUS
 62
     3
 10
21469.546530999949
 20
19655.534510000001
 30
0.0
 11
21475.546451999959
 21
19655.534510000001
 31
0.0
  0
LINE
  5
46CD
  8
2-0
  6
CONTINUOUS
 62
     3
 10
21485.643975999981
 20
19655.534510000001
 30
0.0
 11
21485.643975999981
 21
19685.538073000022
 31
0.0
  0
LINE
  5
46CE
  8
2-0
  6
CONTINUOUS
 62
     3
 10
21467.640254999991
 20
19655.534510000001
 30
0.0
 11
21485.643975999981
 21
19655.534510000001
 31
0.0
  0
LINE
  5
46CF
  8
2-0
  6
CONTINUOUS
 62
     3
 10
21467.640254999991
 20
19680.543747000011
 30
0.0
 11
21467.640254999991
 21
19655.534510000001
 31
0.0
  0
LINE
  5
46D0
  8
2-0
  6
CONTINUOUS
 62
     3
 10
21472.640518999971
 20
19680.543747000011
 30
0.0
 11
21467.640254999991
 21
19680.543747000011
 31
0.0
  0
LINE
  5
46D1
  8
2-0
  6
CONTINUOUS
 62
     3
 10
21472.640518999971
 20
19673.538230999999
 30
0.0
 11
21472.640518999971
 21
19680.543747000011
 31
0.0
  0
LINE
  5
46D2
  8
2-0
  6
CONTINUOUS
 62
     3
 10
21441.45122399996
 20
19673.538230999999
 30
0.0
 11
21441.45122399996
 21
19680.543747000011
 31
0.0
  0
LINE
  5
46D3
  8
2-0
  6
CONTINUOUS
 62
     3
 10
21441.45122399996
 20
19680.543747000011
 30
0.0
 11
21446.451487999981
 21
19680.543747000011
 31
0.0
  0
LINE
  5
46D4
  8
2-0
  6
CONTINUOUS
 62
     3
 10
21446.451487999981
 20
19680.543747000011
 30
0.0
 11
21446.451487999981
 21
19655.534510000001
 31
0.0
  0
LINE
  5
46D5
  8
2-0
  6
CONTINUOUS
 62
     3
 10
21446.451487999981
 20
19655.534510000001
 30
0.0
 11
21428.451724999992
 21
19655.534510000001
 31
0.0
  0
LINE
  5
46D6
  8
2-0
  6
CONTINUOUS
 62
     3
 10
21428.451724999992
 20
19655.534510000001
 30
0.0
 11
21428.451724999992
 21
19685.538073000022
 31
0.0
  0
LINE
  5
46D7
  8
2-0
  6
CONTINUOUS
 62
     3
 10
21444.545210999971
 20
19655.534510000001
 30
0.0
 11
21438.54528999998
 21
19655.534510000001
 31
0.0
  0
LINE
  5
46D8
  8
2-0
  6
CONTINUOUS
 62
     3
 10
21438.54528999998
 20
19655.534510000001
 30
0.0
 11
21438.54528999998
 21
19685.538073000022
 31
0.0
  0
LINE
  5
46D9
  8
2-0
  6
CONTINUOUS
 62
     3
 10
19635.047190999969
 20
19576.537862000001
 30
0.0
 11
19635.047190999969
 21
19570.5419
 31
0.0
  0
LINE
  5
46DA
  8
2-0
  6
CONTINUOUS
 62
     3
 10
19635.047190999969
 20
19570.5419
 30
0.0
 11
19605.049565999969
 21
19570.5419
 31
0.0
  0
LINE
  5
46DB
  8
2-0
  6
CONTINUOUS
 62
     3
 10
19605.049565999969
 20
19570.5419
 30
0.0
 11
19605.049565999969
 21
19685.538073000022
 31
0.0
  0
LINE
  5
46DC
  8
2-0
  6
CONTINUOUS
 62
     3
 10
19605.049565999969
 20
19600.541504000001
 30
0.0
 11
19686.047506999981
 21
19600.541504000001
 31
0.0
  0
LINE
  5
46DD
  8
2-0
  6
CONTINUOUS
 62
     3
 10
19635.047190999969
 20
19560.244444
 30
0.0
 11
19605.049565999969
 21
19560.244444
 31
0.0
  0
LINE
  5
46DE
  8
2-0
  6
CONTINUOUS
 62
     3
 10
19635.047190999969
 20
19578.246186000011
 30
0.0
 11
19635.047190999969
 21
19560.244444
 31
0.0
  0
LINE
  5
46DF
  8
2-0
  6
CONTINUOUS
 62
     3
 10
19610.053788999969
 20
19578.246186000011
 30
0.0
 11
19635.047190999969
 21
19578.246186000011
 31
0.0
  0
LINE
  5
46E0
  8
2-0
  6
CONTINUOUS
 62
     3
 10
19610.053788999969
 20
19573.238004000021
 30
0.0
 11
19610.053788999969
 21
19578.246186000011
 31
0.0
  0
LINE
  5
46E1
  8
2-0
  6
CONTINUOUS
 62
     3
 10
19617.051386999949
 20
19573.238004000021
 30
0.0
 11
19610.053788999969
 21
19573.238004000021
 31
0.0
  0
LINE
  5
46E2
  8
2-0
  6
CONTINUOUS
 62
     3
 10
19717.34567599995
 20
19673.538230999999
 30
0.0
 11
19717.34567599995
 21
19680.543747000011
 31
0.0
  0
LINE
  5
46E3
  8
2-0
  6
CONTINUOUS
 62
     3
 10
19717.34567599995
 20
19680.543747000011
 30
0.0
 11
19712.343431999969
 21
19680.543747000011
 31
0.0
  0
LINE
  5
46E4
  8
2-0
  6
CONTINUOUS
 62
     3
 10
19712.343431999969
 20
19680.543747000011
 30
0.0
 11
19712.343431999969
 21
19655.534510000001
 31
0.0
  0
LINE
  5
46E5
  8
2-0
  6
CONTINUOUS
 62
     3
 10
19712.343431999969
 20
19655.534510000001
 30
0.0
 11
19730.351112999961
 21
19655.534510000001
 31
0.0
  0
LINE
  5
46E6
  8
2-0
  6
CONTINUOUS
 62
     3
 10
19730.351112999961
 20
19655.534510000001
 30
0.0
 11
19730.351112999961
 21
19685.538073000022
 31
0.0
  0
LINE
  5
46E7
  8
2-0
  6
CONTINUOUS
 62
     3
 10
19720.051676999981
 20
19685.538073000022
 30
0.0
 11
19605.049565999969
 21
19685.538073000022
 31
0.0
  0
LINE
  5
46E8
  8
2-0
  6
CONTINUOUS
 62
     3
 10
19720.051676999981
 20
19655.534510000001
 30
0.0
 11
19720.051676999981
 21
19685.538073000022
 31
0.0
  0
LINE
  5
46E9
  8
2-0
  6
CONTINUOUS
 62
     3
 10
19714.047797999981
 20
19655.534510000001
 30
0.0
 11
19720.051676999981
 21
19655.534510000001
 31
0.0
  0
LINE
  5
46EA
  8
2-0
  6
CONTINUOUS
 62
     3
 10
20740.44528549998
 20
19673.538230999999
 30
0.0
 11
20740.44528549998
 21
19680.543747000011
 31
0.0
  0
LINE
  5
46EB
  8
2-0
  6
CONTINUOUS
 62
     3
 10
20740.44528549998
 20
19680.543747000011
 30
0.0
 11
20745.445548499982
 21
19680.543747000011
 31
0.0
  0
LINE
  5
46EC
  8
2-0
  6
CONTINUOUS
 62
     3
 10
20745.445548499982
 20
19680.543747000011
 30
0.0
 11
20745.445548499982
 21
19655.534510000001
 31
0.0
  0
LINE
  5
46ED
  8
2-0
  6
CONTINUOUS
 62
     3
 10
20745.445548499982
 20
19655.534510000001
 30
0.0
 11
20727.45172549997
 21
19655.534510000001
 31
0.0
  0
LINE
  5
46EE
  8
2-0
  6
CONTINUOUS
 62
     3
 10
20727.45172549997
 20
19655.534510000001
 30
0.0
 11
20727.45172549997
 21
19685.538073000022
 31
0.0
  0
LINE
  5
46EF
  8
2-0
  6
CONTINUOUS
 62
     3
 10
20743.543231499971
 20
19655.534510000001
 30
0.0
 11
20737.54529049998
 21
19655.534510000001
 31
0.0
  0
LINE
  5
46F0
  8
2-0
  6
CONTINUOUS
 62
     3
 10
20737.54529049998
 20
19655.534510000001
 30
0.0
 11
20737.54529049998
 21
19685.538073000022
 31
0.0
  0
LINE
  5
46F1
  8
2-0
  6
CONTINUOUS
 62
     3
 10
20774.54645149998
 20
19685.538073000022
 30
0.0
 11
20737.54529049998
 21
19685.538073000022
 31
0.0
  0
LINE
  5
46F2
  8
2-0
  6
CONTINUOUS
 62
     3
 10
20774.54645149998
 20
19655.534510000001
 30
0.0
 11
20774.54645149998
 21
19685.538073000022
 31
0.0
  0
LINE
  5
46F3
  8
2-0
  6
CONTINUOUS
 62
     3
 10
20768.54059249998
 20
19655.534510000001
 30
0.0
 11
20774.54645149998
 21
19655.534510000001
 31
0.0
  0
LINE
  5
46F4
  8
2-0
  6
CONTINUOUS
 62
     3
 10
20784.640016499969
 20
19655.534510000001
 30
0.0
 11
20784.640016499969
 21
19685.538073000022
 31
0.0
  0
LINE
  5
46F5
  8
2-0
  6
CONTINUOUS
 62
     3
 10
20766.644213499982
 20
19655.534510000001
 30
0.0
 11
20784.640016499969
 21
19655.534510000001
 31
0.0
  0
LINE
  5
46F6
  8
2-0
  6
CONTINUOUS
 62
     3
 10
20766.644213499982
 20
19680.543747000011
 30
0.0
 11
20766.644213499982
 21
19655.534510000001
 31
0.0
  0
LINE
  5
46F7
  8
2-0
  6
CONTINUOUS
 62
     3
 10
20771.63457949998
 20
19680.543747000011
 30
0.0
 11
20766.644213499982
 21
19680.543747000011
 31
0.0
  0
LINE
  5
46F8
  8
2-0
  6
CONTINUOUS
 62
     3
 10
20771.63457949998
 20
19673.538230999999
 30
0.0
 11
20771.63457949998
 21
19680.543747000011
 31
0.0
  0
LINE
  5
46F9
  8
2-0
  6
CONTINUOUS
 62
     3
 10
20083.63902699999
 20
19685.538073000022
 30
0.0
 11
20727.45172549997
 21
19685.538073000022
 31
0.0
  0
LINE
  5
46FA
  8
2-0
  6
CONTINUOUS
 62
     3
 10
21428.451724999992
 20
19685.538073000022
 30
0.0
 11
20784.640016499969
 21
19685.538073000022
 31
0.0
  0
LINE
  5
46FB
  8
2-0
  6
CONTINUOUS
 62
     3
 10
19635.047190999969
 20
19576.537862000001
 30
0.0
 11
19635.047190999969
 21
19570.5419
 31
0.0
  0
LINE
  5
46FC
  8
2-0
  6
CONTINUOUS
 62
     3
 10
19635.047190999969
 20
19570.5419
 30
0.0
 11
19605.049565999969
 21
19570.5419
 31
0.0
  0
LINE
  5
46FD
  8
2-0
  6
CONTINUOUS
 62
     3
 10
19605.049565999969
 20
19570.5419
 30
0.0
 11
19605.049565999969
 21
19685.538073000022
 31
0.0
  0
LINE
  5
46FE
  8
2-0
  6
CONTINUOUS
 62
     3
 10
19605.049565999969
 20
19600.541504000001
 30
0.0
 11
19686.047506999981
 21
19600.541504000001
 31
0.0
  0
LINE
  5
46FF
  8
2-0
  6
CONTINUOUS
 62
     3
 10
19635.047190999969
 20
19560.244444
 30
0.0
 11
19605.049565999969
 21
19560.244444
 31
0.0
  0
LINE
  5
4700
  8
2-0
  6
CONTINUOUS
 62
     3
 10
19635.047190999969
 20
19578.246186000011
 30
0.0
 11
19635.047190999969
 21
19560.244444
 31
0.0
  0
LINE
  5
4701
  8
2-0
  6
CONTINUOUS
 62
     3
 10
19610.053788999969
 20
19578.246186000011
 30
0.0
 11
19635.047190999969
 21
19578.246186000011
 31
0.0
  0
LINE
  5
4702
  8
2-0
  6
CONTINUOUS
 62
     3
 10
19610.053788999969
 20
19573.238004000021
 30
0.0
 11
19610.053788999969
 21
19578.246186000011
 31
0.0
  0
LINE
  5
4703
  8
2-0
  6
CONTINUOUS
 62
     3
 10
19617.051386999949
 20
19573.238004000021
 30
0.0
 11
19610.053788999969
 21
19573.238004000021
 31
0.0
  0
LINE
  5
4704
  8
2-0
  6
CONTINUOUS
 62
     3
 10
19617.051386999949
 20
19219.941181499991
 30
0.0
 11
19610.053788999969
 21
19219.941181499991
 31
0.0
  0
LINE
  5
4705
  8
2-0
  6
CONTINUOUS
 62
     3
 10
19610.053788999969
 20
19219.941181499991
 30
0.0
 11
19610.053788999969
 21
19224.941445500001
 31
0.0
  0
LINE
  5
4706
  8
2-0
  6
CONTINUOUS
 62
     3
 10
19610.053788999969
 20
19224.941445500001
 30
0.0
 11
19635.047190999969
 21
19224.941445500001
 31
0.0
  0
LINE
  5
4707
  8
2-0
  6
CONTINUOUS
 62
     3
 10
19635.047190999969
 20
19224.941445500001
 30
0.0
 11
19635.047190999969
 21
19206.945641499991
 31
0.0
  0
LINE
  5
4708
  8
2-0
  6
CONTINUOUS
 62
     3
 10
19635.047190999969
 20
19206.945641499991
 30
0.0
 11
19605.049565999969
 21
19206.945641499991
 31
0.0
  0
LINE
  5
4709
  8
2-0
  6
CONTINUOUS
 62
     3
 10
19635.047190999969
 20
19223.037148499981
 30
0.0
 11
19635.047190999969
 21
19217.039207500002
 31
0.0
  0
LINE
  5
470A
  8
2-0
  6
CONTINUOUS
 62
     3
 10
19635.047190999969
 20
19217.039207500002
 30
0.0
 11
19605.049565999969
 21
19217.039207500002
 31
0.0
  0
LINE
  5
470B
  8
2-0
  6
CONTINUOUS
 62
     3
 10
19605.049565999969
 20
19217.039207500002
 30
0.0
 11
19605.049565999969
 21
19254.040368499991
 31
0.0
  0
LINE
  5
470C
  8
2-0
  6
CONTINUOUS
 62
     3
 10
19635.047190999969
 20
19254.040368499991
 30
0.0
 11
19605.049565999969
 21
19254.040368499991
 31
0.0
  0
LINE
  5
470D
  8
2-0
  6
CONTINUOUS
 62
     3
 10
19635.047190999969
 20
19248.036488499991
 30
0.0
 11
19635.047190999969
 21
19254.040368499991
 31
0.0
  0
LINE
  5
470E
  8
2-0
  6
CONTINUOUS
 62
     3
 10
19635.047190999969
 20
19264.135913499991
 30
0.0
 11
19605.049565999969
 21
19264.135913499991
 31
0.0
  0
LINE
  5
470F
  8
2-0
  6
CONTINUOUS
 62
     3
 10
19635.047190999969
 20
19246.134171500002
 30
0.0
 11
19635.047190999969
 21
19264.135913499991
 31
0.0
  0
LINE
  5
4710
  8
2-0
  6
CONTINUOUS
 62
     3
 10
19610.053788999969
 20
19246.134171500002
 30
0.0
 11
19635.047190999969
 21
19246.134171500002
 31
0.0
  0
LINE
  5
4711
  8
2-0
  6
CONTINUOUS
 62
     3
 10
19610.053788999969
 20
19251.134435499978
 30
0.0
 11
19610.053788999969
 21
19246.134171500002
 31
0.0
  0
LINE
  5
4712
  8
2-0
  6
CONTINUOUS
 62
     3
 10
19617.051386999949
 20
19251.134435499978
 30
0.0
 11
19610.053788999969
 21
19251.134435499978
 31
0.0
  0
LINE
  5
4713
  8
2-0
  6
CONTINUOUS
 62
     3
 10
19617.051386999949
 20
18518.940191999998
 30
0.0
 11
19610.053788999969
 21
18518.940191999998
 31
0.0
  0
LINE
  5
4714
  8
2-0
  6
CONTINUOUS
 62
     3
 10
19610.053788999969
 20
18518.940191999998
 30
0.0
 11
19610.053788999969
 21
18523.946393999991
 31
0.0
  0
LINE
  5
4715
  8
2-0
  6
CONTINUOUS
 62
     3
 10
19610.053788999969
 20
18523.946393999991
 30
0.0
 11
19635.047190999969
 21
18523.946393999991
 31
0.0
  0
LINE
  5
4716
  8
2-0
  6
CONTINUOUS
 62
     3
 10
19635.047190999969
 20
18523.946393999991
 30
0.0
 11
19635.047190999969
 21
18505.944651999998
 31
0.0
  0
LINE
  5
4717
  8
2-0
  6
CONTINUOUS
 62
     3
 10
19635.047190999969
 20
18505.944651999998
 30
0.0
 11
19605.049565999969
 21
18505.944651999998
 31
0.0
  0
LINE
  5
4718
  8
2-0
  6
CONTINUOUS
 62
     3
 10
19635.047190999969
 20
18522.036158999981
 30
0.0
 11
19635.047190999969
 21
18516.040196999991
 31
0.0
  0
LINE
  5
4719
  8
2-0
  6
CONTINUOUS
 62
     3
 10
19635.047190999969
 20
18516.040196999991
 30
0.0
 11
19605.049565999969
 21
18516.040196999991
 31
0.0
  0
LINE
  5
471A
  8
2-0
  6
CONTINUOUS
 62
     3
 10
19605.049565999969
 20
18516.040196999991
 30
0.0
 11
19605.049565999969
 21
18553.039379000002
 31
0.0
  0
LINE
  5
471B
  8
2-0
  6
CONTINUOUS
 62
     3
 10
19635.047190999969
 20
18553.039379000002
 30
0.0
 11
19605.049565999969
 21
18553.039379000002
 31
0.0
  0
LINE
  5
471C
  8
2-0
  6
CONTINUOUS
 62
     3
 10
19635.047190999969
 20
18547.043416999979
 30
0.0
 11
19635.047190999969
 21
18553.039379000002
 31
0.0
  0
LINE
  5
471D
  8
2-0
  6
CONTINUOUS
 62
     3
 10
19635.047190999969
 20
18563.134924000002
 30
0.0
 11
19605.049565999969
 21
18563.134924000002
 31
0.0
  0
LINE
  5
471E
  8
2-0
  6
CONTINUOUS
 62
     3
 10
19635.047190999969
 20
18545.133182000001
 30
0.0
 11
19635.047190999969
 21
18563.134924000002
 31
0.0
  0
LINE
  5
471F
  8
2-0
  6
CONTINUOUS
 62
     3
 10
19610.053788999969
 20
18545.133182000001
 30
0.0
 11
19635.047190999969
 21
18545.133182000001
 31
0.0
  0
LINE
  5
4720
  8
2-0
  6
CONTINUOUS
 62
     3
 10
19610.053788999969
 20
18550.139383999991
 30
0.0
 11
19610.053788999969
 21
18545.133182000001
 31
0.0
  0
LINE
  5
4721
  8
2-0
  6
CONTINUOUS
 62
     3
 10
19617.051386999949
 20
18550.139383999991
 30
0.0
 11
19610.053788999969
 21
18550.139383999991
 31
0.0
  0
LINE
  5
4722
  8
2-0
  6
CONTINUOUS
 62
     3
 10
19617.051386999949
 20
17849.133446
 30
0.0
 11
19610.053788999969
 21
17849.133446
 31
0.0
  0
LINE
  5
4723
  8
2-0
  6
CONTINUOUS
 62
     3
 10
19610.053788999969
 20
17849.133446
 30
0.0
 11
19610.053788999969
 21
17844.145058999991
 31
0.0
  0
LINE
  5
4724
  8
2-0
  6
CONTINUOUS
 62
     3
 10
19610.053788999969
 20
17844.145058999991
 30
0.0
 11
19635.047190999969
 21
17844.145058999991
 31
0.0
  0
LINE
  5
4725
  8
2-0
  6
CONTINUOUS
 62
     3
 10
19635.047190999969
 20
17844.145058999991
 30
0.0
 11
19635.047190999969
 21
17862.140862
 31
0.0
  0
LINE
  5
4726
  8
2-0
  6
CONTINUOUS
 62
     3
 10
19635.047190999969
 20
17862.140862
 30
0.0
 11
19605.049565999969
 21
17862.140862
 31
0.0
  0
LINE
  5
4727
  8
2-0
  6
CONTINUOUS
 62
     3
 10
19635.047190999969
 20
17846.04341699999
 30
0.0
 11
19635.047190999969
 21
17852.039378999991
 31
0.0
  0
LINE
  5
4728
  8
2-0
  6
CONTINUOUS
 62
     3
 10
19635.047190999969
 20
17852.039378999991
 30
0.0
 11
19605.049565999969
 21
17852.039378999991
 31
0.0
  0
LINE
  5
4729
  8
2-0
  6
CONTINUOUS
 62
     3
 10
19605.049565999969
 20
17852.039378999991
 30
0.0
 11
19605.049565999969
 21
17815.040196999991
 31
0.0
  0
LINE
  5
472A
  8
2-0
  6
CONTINUOUS
 62
     3
 10
19635.047190999969
 20
17815.040196999991
 30
0.0
 11
19605.049565999969
 21
17815.040196999991
 31
0.0
  0
LINE
  5
472B
  8
2-0
  6
CONTINUOUS
 62
     3
 10
19635.047190999969
 20
17821.042097999991
 30
0.0
 11
19635.047190999969
 21
17815.040196999991
 31
0.0
  0
LINE
  5
472C
  8
2-0
  6
CONTINUOUS
 62
     3
 10
19635.047190999969
 20
17804.950591000001
 30
0.0
 11
19605.049565999969
 21
17804.950591000001
 31
0.0
  0
LINE
  5
472D
  8
2-0
  6
CONTINUOUS
 62
     3
 10
19635.047190999969
 20
17822.946393999991
 30
0.0
 11
19635.047190999969
 21
17804.950591000001
 31
0.0
  0
LINE
  5
472E
  8
2-0
  6
CONTINUOUS
 62
     3
 10
19610.053788999969
 20
17822.946393999991
 30
0.0
 11
19635.047190999969
 21
17822.946393999991
 31
0.0
  0
LINE
  5
472F
  8
2-0
  6
CONTINUOUS
 62
     3
 10
19610.053788999969
 20
17817.946131000001
 30
0.0
 11
19610.053788999969
 21
17822.946393999991
 31
0.0
  0
LINE
  5
4730
  8
2-0
  6
CONTINUOUS
 62
     3
 10
19617.051386999949
 20
17817.946131000001
 30
0.0
 11
19610.053788999969
 21
17817.946131000001
 31
0.0
  0
LINE
  5
4731
  8
2-0
  6
CONTINUOUS
 62
     3
 10
19607.935703999981
 20
17098.037016999999
 30
0.0
 11
19607.935703999981
 21
17118.038071999988
 31
0.0
  0
LINE
  5
4732
  8
2-0
  6
CONTINUOUS
 62
     3
 10
19607.935703999981
 20
17118.038071999988
 30
0.0
 11
19692.93623199996
 21
17118.038071999988
 31
0.0
  0
LINE
  5
4733
  8
2-0
  6
CONTINUOUS
 62
     3
 10
19617.051386999949
 20
17144.64478200001
 30
0.0
 11
19610.053788999969
 21
17144.64478200001
 31
0.0
  0
LINE
  5
4734
  8
2-0
  6
CONTINUOUS
 62
     3
 10
19610.053788999969
 20
17144.64478200001
 30
0.0
 11
19610.053788999969
 21
17139.65045600001
 31
0.0
  0
LINE
  5
4735
  8
2-0
  6
CONTINUOUS
 62
     3
 10
19610.053788999969
 20
17139.65045600001
 30
0.0
 11
19635.047190999969
 21
17139.65045600001
 31
0.0
  0
LINE
  5
4736
  8
2-0
  6
CONTINUOUS
 62
     3
 10
19635.047190999969
 20
17139.65045600001
 30
0.0
 11
19635.047190999969
 21
17157.646260000001
 31
0.0
  0
LINE
  5
4737
  8
2-0
  6
CONTINUOUS
 62
     3
 10
19635.047190999969
 20
17157.646260000001
 30
0.0
 11
19605.049565999969
 21
17157.646260000001
 31
0.0
  0
LINE
  5
4738
  8
2-0
  6
CONTINUOUS
 62
     3
 10
19635.047190999969
 20
17148.037676
 30
0.0
 11
19635.047190999969
 21
17142.035776000001
 31
0.0
  0
LINE
  5
4739
  8
2-0
  6
CONTINUOUS
 62
     3
 10
19605.049565999969
 20
17148.037676
 30
0.0
 11
19635.047190999969
 21
17148.037676
 31
0.0
  0
LINE
  5
473A
  8
2-0
  6
CONTINUOUS
 62
     3
 10
19605.049565999969
 20
17157.646260000001
 30
0.0
 11
19605.049565999969
 21
17804.950591000001
 31
0.0
  0
LINE
  5
473B
  8
2-0
  6
CONTINUOUS
 62
     3
 10
19605.049565999969
 20
17862.140862
 30
0.0
 11
19605.049565999969
 21
18505.944651999998
 31
0.0
  0
LINE
  5
473C
  8
2-0
  6
CONTINUOUS
 62
     3
 10
19605.049565999969
 20
17003.035961000009
 30
0.0
 11
19635.047190999969
 21
17003.035961000009
 31
0.0
  0
LINE
  5
473D
  8
2-0
  6
CONTINUOUS
 62
     3
 10
19635.047190999969
 20
17003.035961000009
 30
0.0
 11
19635.047190999969
 21
17009.037861000012
 31
0.0
  0
LINE
  5
473E
  8
2-0
  6
CONTINUOUS
 62
     3
 10
19692.93623199996
 20
17033.041504000012
 30
0.0
 11
19607.935703999981
 21
17033.041504000012
 31
0.0
  0
LINE
  5
473F
  8
2-0
  6
CONTINUOUS
 62
     3
 10
19607.935703999981
 20
17033.041504000012
 30
0.0
 11
19607.935703999981
 21
17053.03662100001
 31
0.0
  0
LINE
  5
4740
  8
2-0
  6
CONTINUOUS
 62
     3
 10
19635.047190999969
 20
16993.427378000011
 30
0.0
 11
19605.049565999969
 21
16993.427378000011
 31
0.0
  0
LINE
  5
4741
  8
2-0
  6
CONTINUOUS
 62
     3
 10
19635.047190999969
 20
17011.423180999991
 30
0.0
 11
19635.047190999969
 21
16993.427378000011
 31
0.0
  0
LINE
  5
4742
  8
2-0
  6
CONTINUOUS
 62
     3
 10
19610.053788999969
 20
17011.423180999991
 30
0.0
 11
19635.047190999969
 21
17011.423180999991
 31
0.0
  0
LINE
  5
4743
  8
2-0
  6
CONTINUOUS
 62
     3
 10
19610.053788999969
 20
17006.422917000011
 30
0.0
 11
19610.053788999969
 21
17011.423180999991
 31
0.0
  0
LINE
  5
4744
  8
2-0
  6
CONTINUOUS
 62
     3
 10
19617.051386999949
 20
17006.422917000011
 30
0.0
 11
19610.053788999969
 21
17006.422917000011
 31
0.0
  0
LINE
  5
4745
  8
2-0
  6
CONTINUOUS
 62
     3
 10
19617.051386999949
 20
16301.94068649998
 30
0.0
 11
19610.053788999969
 21
16301.94068649998
 31
0.0
  0
LINE
  5
4746
  8
2-0
  6
CONTINUOUS
 62
     3
 10
19610.053788999969
 20
16301.94068649998
 30
0.0
 11
19610.053788999969
 21
16306.94095049998
 31
0.0
  0
LINE
  5
4747
  8
2-0
  6
CONTINUOUS
 62
     3
 10
19610.053788999969
 20
16306.94095049998
 30
0.0
 11
19635.047190999969
 21
16306.94095049998
 31
0.0
  0
LINE
  5
4748
  8
2-0
  6
CONTINUOUS
 62
     3
 10
19635.047190999969
 20
16306.94095049998
 30
0.0
 11
19635.047190999969
 21
16288.9392085
 31
0.0
  0
LINE
  5
4749
  8
2-0
  6
CONTINUOUS
 62
     3
 10
19635.047190999969
 20
16288.9392085
 30
0.0
 11
19605.049565999969
 21
16288.9392085
 31
0.0
  0
LINE
  5
474A
  8
2-0
  6
CONTINUOUS
 62
     3
 10
19635.047190999969
 20
16305.036653499999
 30
0.0
 11
19635.047190999969
 21
16299.0397025
 31
0.0
  0
LINE
  5
474B
  8
2-0
  6
CONTINUOUS
 62
     3
 10
19635.047190999969
 20
16299.0397025
 30
0.0
 11
19605.049565999969
 21
16299.0397025
 31
0.0
  0
LINE
  5
474C
  8
2-0
  6
CONTINUOUS
 62
     3
 10
19605.049565999969
 20
16299.0397025
 30
0.0
 11
19605.049565999969
 21
16336.0398735
 31
0.0
  0
LINE
  5
474D
  8
2-0
  6
CONTINUOUS
 62
     3
 10
19635.047190999969
 20
16336.0398735
 30
0.0
 11
19605.049565999969
 21
16336.0398735
 31
0.0
  0
LINE
  5
474E
  8
2-0
  6
CONTINUOUS
 62
     3
 10
19635.047190999969
 20
16330.0369835
 30
0.0
 11
19635.047190999969
 21
16336.0398735
 31
0.0
  0
LINE
  5
474F
  8
2-0
  6
CONTINUOUS
 62
     3
 10
19635.047190999969
 20
16346.135418499989
 30
0.0
 11
19605.049565999969
 21
16346.135418499989
 31
0.0
  0
LINE
  5
4750
  8
2-0
  6
CONTINUOUS
 62
     3
 10
19635.047190999969
 20
16328.127737500001
 30
0.0
 11
19635.047190999969
 21
16346.135418499989
 31
0.0
  0
LINE
  5
4751
  8
2-0
  6
CONTINUOUS
 62
     3
 10
19610.053788999969
 20
16328.127737500001
 30
0.0
 11
19635.047190999969
 21
16328.127737500001
 31
0.0
  0
LINE
  5
4752
  8
2-0
  6
CONTINUOUS
 62
     3
 10
19610.053788999969
 20
16333.133940499991
 30
0.0
 11
19610.053788999969
 21
16328.127737500001
 31
0.0
  0
LINE
  5
4753
  8
2-0
  6
CONTINUOUS
 62
     3
 10
19617.051386999949
 20
16333.133940499991
 30
0.0
 11
19610.053788999969
 21
16333.133940499991
 31
0.0
  0
LINE
  5
4754
  8
2-0
  6
CONTINUOUS
 62
     3
 10
19617.051386999949
 20
15632.373957
 30
0.0
 11
19610.053788999969
 21
15632.373957
 31
0.0
  0
LINE
  5
4755
  8
2-0
  6
CONTINUOUS
 62
     3
 10
19610.053788999969
 20
15632.373957
 30
0.0
 11
19610.053788999969
 21
15627.379632
 31
0.0
  0
LINE
  5
4756
  8
2-0
  6
CONTINUOUS
 62
     3
 10
19610.053788999969
 20
15627.379632
 30
0.0
 11
19635.047190999969
 21
15627.379632
 31
0.0
  0
LINE
  5
4757
  8
2-0
  6
CONTINUOUS
 62
     3
 10
19635.047190999969
 20
15627.379632
 30
0.0
 11
19635.047190999969
 21
15645.375435000011
 31
0.0
  0
LINE
  5
4758
  8
2-0
  6
CONTINUOUS
 62
     3
 10
19635.047190999969
 20
15645.375435000011
 30
0.0
 11
19605.049565999969
 21
15645.375435000011
 31
0.0
  0
LINE
  5
4759
  8
2-0
  6
CONTINUOUS
 62
     3
 10
19635.047190999969
 20
15629.277990000001
 30
0.0
 11
19635.047190999969
 21
15635.27989000002
 31
0.0
  0
LINE
  5
475A
  8
2-0
  6
CONTINUOUS
 62
     3
 10
19635.047190999969
 20
15635.27989000002
 30
0.0
 11
19605.049565999969
 21
15635.27989000002
 31
0.0
  0
LINE
  5
475B
  8
2-0
  6
CONTINUOUS
 62
     3
 10
19605.049565999969
 20
15598.280709000001
 30
0.0
 11
19605.049565999969
 21
15635.27989000002
 31
0.0
  0
LINE
  5
475C
  8
2-0
  6
CONTINUOUS
 62
     3
 10
19635.047190999969
 20
15598.280709000001
 30
0.0
 11
19605.049565999969
 21
15598.280709000001
 31
0.0
  0
LINE
  5
475D
  8
2-0
  6
CONTINUOUS
 62
     3
 10
19635.047190999969
 20
15604.27766
 30
0.0
 11
19635.047190999969
 21
15598.280709000001
 31
0.0
  0
LINE
  5
475E
  8
2-0
  6
CONTINUOUS
 62
     3
 10
19635.047190999969
 20
15588.179225
 30
0.0
 11
19605.049565999969
 21
15588.179225
 31
0.0
  0
LINE
  5
475F
  8
2-0
  6
CONTINUOUS
 62
     3
 10
19635.047190999969
 20
15606.186906000001
 30
0.0
 11
19635.047190999969
 21
15588.179225
 31
0.0
  0
LINE
  5
4760
  8
2-0
  6
CONTINUOUS
 62
     3
 10
19610.053788999969
 20
15606.186906000001
 30
0.0
 11
19635.047190999969
 21
15606.186906000001
 31
0.0
  0
LINE
  5
4761
  8
2-0
  6
CONTINUOUS
 62
     3
 10
19610.053788999969
 20
15601.186642000001
 30
0.0
 11
19610.053788999969
 21
15606.186906000001
 31
0.0
  0
LINE
  5
4762
  8
2-0
  6
CONTINUOUS
 62
     3
 10
19617.051386999949
 20
15601.186642000001
 30
0.0
 11
19610.053788999969
 21
15601.186642000001
 31
0.0
  0
LINE
  5
4763
  8
2-0
  6
CONTINUOUS
 62
     3
 10
19605.049565999969
 20
16993.427378000011
 30
0.0
 11
19605.049565999969
 21
16346.135418499989
 31
0.0
  0
LINE
  5
4764
  8
2-0
  6
CONTINUOUS
 62
     3
 10
19605.049565999969
 20
17148.037676
 30
0.0
 11
19605.049565999969
 21
17003.035961000009
 31
0.0
  0
LINE
  5
4765
  8
2-0
  6
CONTINUOUS
 62
     3
 10
19692.93623199996
 20
17118.038071999988
 30
0.0
 11
19692.93623199996
 21
17033.041504000012
 31
0.0
  0
LINE
  5
4766
  8
2-0
  6
CONTINUOUS
 62
     3
 10
19635.047190999969
 20
14574.541714999999
 30
0.0
 11
19635.047190999969
 21
14580.546584
 31
0.0
  0
LINE
  5
4767
  8
2-0
  6
CONTINUOUS
 62
     3
 10
19635.047190999969
 20
14580.546584
 30
0.0
 11
19605.049565999969
 21
14580.546584
 31
0.0
  0
LINE
  5
4768
  8
2-0
  6
CONTINUOUS
 62
     3
 10
19605.049565999969
 20
14580.546584
 30
0.0
 11
19605.049565999969
 21
14465.542493000001
 31
0.0
  0
LINE
  5
4769
  8
2-0
  6
CONTINUOUS
 62
     3
 10
19605.049565999969
 20
14465.542493000001
 30
0.0
 11
19690.048113999961
 21
14465.542493000001
 31
0.0
  0
LINE
  5
476A
  8
2-0
  6
CONTINUOUS
 62
     3
 10
19690.048113999961
 20
14465.542493000001
 30
0.0
 11
19690.048113999961
 21
14550.538071999999
 31
0.0
  0
LINE
  5
476B
  8
2-0
  6
CONTINUOUS
 62
     3
 10
19690.048113999961
 20
14550.538071999999
 30
0.0
 11
19658.051175999939
 21
14550.538071999999
 31
0.0
  0
LINE
  5
476C
  8
2-0
  6
CONTINUOUS
 62
     3
 10
19617.051386999949
 20
14577.576316999999
 30
0.0
 11
19610.053788999969
 21
14577.576316999999
 31
0.0
  0
LINE
  5
476D
  8
2-0
  6
CONTINUOUS
 62
     3
 10
19610.053788999969
 20
14577.576316999999
 30
0.0
 11
19610.053788999969
 21
14572.57902199998
 31
0.0
  0
LINE
  5
476E
  8
2-0
  6
CONTINUOUS
 62
     3
 10
19610.053788999969
 20
14572.57902199998
 30
0.0
 11
19635.047190999969
 21
14572.57902199998
 31
0.0
  0
LINE
  5
476F
  8
2-0
  6
CONTINUOUS
 62
     3
 10
19635.047190999969
 20
14572.57902199998
 30
0.0
 11
19635.047190999969
 21
14590.57779499999
 31
0.0
  0
LINE
  5
4770
  8
2-0
  6
CONTINUOUS
 62
     3
 10
19635.047190999969
 20
14590.57779499999
 30
0.0
 11
19605.049565999969
 21
14590.57779499999
 31
0.0
  0
LINE
  5
4771
  8
2-0
  6
CONTINUOUS
 62
     3
 10
19605.049565999969
 20
14590.57779499999
 30
0.0
 11
19605.049565999969
 21
14887.179225
 31
0.0
  0
LINE
  5
4772
  8
2-0
  6
CONTINUOUS
 62
     3
 10
19605.049565999969
 20
18563.134924000002
 30
0.0
 11
19605.049565999969
 21
19206.945641499991
 31
0.0
  0
LINE
  5
4773
  8
2-0
  6
CONTINUOUS
 62
     3
 10
19605.049565999969
 20
16288.9392085
 30
0.0
 11
19605.049565999969
 21
15645.375435000011
 31
0.0
  0
LINE
  5
4774
  8
2-0
  6
CONTINUOUS
 62
     3
 10
24124.04415499997
 20
19570.5419
 30
0.0
 11
24124.04415499997
 21
19685.538073000022
 31
0.0
  0
LINE
  5
4775
  8
2-0
  6
CENTER2
 62
     6
 10
18318.091293999969
 20
19643.039787999991
 30
0.0
 11
24974.045474999992
 21
19643.039787999991
 31
0.0
  0
LINE
  5
4776
  8
2-0
  6
CENTER2
 62
     6
 10
18318.091293999969
 20
17075.53978799998
 30
0.0
 11
24974.045474999992
 21
17075.53978799998
 31
0.0
  0
LINE
  5
4777
  8
2-0
  6
CENTER2
 62
     6
 10
18318.091293999969
 20
14508.039787999989
 30
0.0
 11
24974.045474999992
 21
14508.039787999989
 31
0.0
  0
LINE
  5
4778
  8
2-0
  6
CONTINUOUS
 62
     3
 10
20070.637548999981
 20
19673.538230999999
 30
0.0
 11
20070.637548999981
 21
19680.543747000011
 31
0.0
  0
LINE
  5
4779
  8
2-0
  6
CONTINUOUS
 62
     3
 10
20070.637548999981
 20
19680.543747000011
 30
0.0
 11
20065.637284999972
 21
19680.543747000011
 31
0.0
  0
LINE
  5
477A
  8
2-0
  6
CONTINUOUS
 62
     3
 10
20065.637284999972
 20
19680.543747000011
 30
0.0
 11
20065.637284999972
 21
19655.534510000001
 31
0.0
  0
LINE
  5
477B
  8
2-0
  6
CONTINUOUS
 62
     3
 10
20065.637284999972
 20
19655.534510000001
 30
0.0
 11
20083.63902699999
 21
19655.534510000001
 31
0.0
  0
LINE
  5
477C
  8
2-0
  6
CONTINUOUS
 62
     3
 10
20083.63902699999
 20
19655.534510000001
 30
0.0
 11
20083.63902699999
 21
19685.538073000022
 31
0.0
  0
LINE
  5
477D
  8
2-0
  6
CONTINUOUS
 62
     3
 10
20067.53960199999
 20
19655.534510000001
 30
0.0
 11
20073.543481999968
 21
19655.534510000001
 31
0.0
  0
LINE
  5
477E
  8
2-0
  6
CONTINUOUS
 62
     3
 10
20073.543481999968
 20
19655.534510000001
 30
0.0
 11
20073.543481999968
 21
19685.538073000022
 31
0.0
  0
LINE
  5
477F
  8
2-0
  6
CONTINUOUS
 62
     3
 10
20036.54825999996
 20
19685.538073000022
 30
0.0
 11
20073.543481999968
 21
19685.538073000022
 31
0.0
  0
LINE
  5
4780
  8
2-0
  6
CONTINUOUS
 62
     3
 10
20036.54825999996
 20
19655.534510000001
 30
0.0
 11
20036.54825999996
 21
19685.538073000022
 31
0.0
  0
LINE
  5
4781
  8
2-0
  6
CONTINUOUS
 62
     3
 10
20042.542241999981
 20
19655.534510000001
 30
0.0
 11
20036.54825999996
 21
19655.534510000001
 31
0.0
  0
LINE
  5
4782
  8
2-0
  6
CONTINUOUS
 62
     3
 10
20026.452714999989
 20
19655.534510000001
 30
0.0
 11
20026.452714999989
 21
19685.538073000022
 31
0.0
  0
LINE
  5
4783
  8
2-0
  6
CONTINUOUS
 62
     3
 10
20044.44851799999
 20
19655.534510000001
 30
0.0
 11
20026.452714999989
 21
19655.534510000001
 31
0.0
  0
LINE
  5
4784
  8
2-0
  6
CONTINUOUS
 62
     3
 10
20044.44851799999
 20
19680.543747000011
 30
0.0
 11
20044.44851799999
 21
19655.534510000001
 31
0.0
  0
LINE
  5
4785
  8
2-0
  6
CONTINUOUS
 62
     3
 10
20039.450233999989
 20
19680.543747000011
 30
0.0
 11
20044.44851799999
 21
19680.543747000011
 31
0.0
  0
LINE
  5
4786
  8
2-0
  6
CONTINUOUS
 62
     3
 10
20039.450233999989
 20
19673.538230999999
 30
0.0
 11
20039.450233999989
 21
19680.543747000011
 31
0.0
  0
LINE
  5
4787
  8
2-0
  6
CONTINUOUS
 62
     3
 10
19730.351112999961
 20
19685.538073000022
 30
0.0
 11
20026.452714999989
 21
19685.538073000022
 31
0.0
  0
LINE
  5
4788
  8
2-0
  6
CONTINUOUS
 62
     3
 10
19605.049565999969
 20
19600.541504000001
 30
0.0
 11
24043.04225499996
 21
19600.541504000001
 31
0.0
  0
LINE
  5
4789
  8
2-0
  6
CENTER2
 62
     6
 10
19647.54587099998
 20
20885.538073000022
 30
0.0
 11
19647.54587099998
 21
13882.276354
 31
0.0
  0
LINE
  5
478A
  8
2-0
  6
CENTER2
 62
     6
 10
24081.54587099998
 20
20885.538073000022
 30
0.0
 11
24081.54587099998
 21
13882.276354
 31
0.0
  0
LINE
  5
478B
  8
2-0
  6
CONTINUOUS
 62
     3
 10
24124.04415499997
 20
19560.244444
 30
0.0
 11
24124.04415499997
 21
19264.135913499991
 31
0.0
  0
LINE
  5
478C
  8
2-0
  6
CONTINUOUS
 62
     3
 10
19605.049565999969
 20
19560.244444
 30
0.0
 11
19605.049565999969
 21
19264.135913499991
 31
0.0
  0
LINE
  5
478D
  8
2-0
  6
CENTER2
 62
     6
 10
22215.04587099998
 20
20885.538073000022
 30
0.0
 11
22215.04587099998
 21
14316.635186999991
 31
0.0
  0
LINE
  5
478E
  8
2-0
  6
CONTINUOUS
 62
     3
 10
19686.047506999981
 20
14550.538071999999
 30
0.0
 11
19686.047506999981
 21
19685.538073000022
 31
0.0
  0
LINE
  5
478F
  8
2-0
  6
CONTINUOUS
 62
     3
 10
24043.04225499996
 20
14550.538071999999
 30
0.0
 11
24043.04225499996
 21
19685.538073000022
 31
0.0
  0
CIRCLE
  5
4790
  8
2-0
  6
CONTINUOUS
 62
     4
 10
18118.093603999969
 20
19643.039787999991
 30
0.0
 40
200.00001
  0
CIRCLE
  5
4791
  8
2-0
  6
CONTINUOUS
 62
     4
 10
18118.093603999969
 20
17075.53978799998
 30
0.0
 40
200.00001
  0
CIRCLE
  5
4792
  8
2-0
  6
CONTINUOUS
 62
     4
 10
18118.093603999969
 20
14508.039787999989
 30
0.0
 40
200.00001
  0
CIRCLE
  5
4793
  8
2-0
  6
CONTINUOUS
 62
     4
 10
22215.04587099998
 20
21085.542692000021
 30
0.0
 40
200.00001
  0
CIRCLE
  5
4794
  8
2-0
  6
CONTINUOUS
 62
     4
 10
19647.54587099998
 20
21085.542692000021
 30
0.0
 40
200.00001
  0
TEXT
  5
4795
  8
2-0
  6
CONTINUOUS
 62
     7
 10
22478.391177999969
 20
13948.04091
 30
0.0
 40
160.0
  1
前柱（右）
 50
0.000213
 72
     4
 11
22894.39088059299
 21
14028.042456500791
 31
0.0
  0
TEXT
  5
4796
  8
2-0
  6
CONTINUOUS
 62
     7
 10
22682.986300999972
 20
16526.032926000022
 30
0.0
 40
160.0
  1
壁パネル
 50
359.99982299999999
 72
     4
 11
23045.653214803529
 21
16606.031805637889
 31
0.0
  0
TEXT
  5
4797
  8
2-0
  6
CONTINUOUS
 62
     7
 10
22402.983396999982
 20
17363.220822000021
 30
0.0
 40
160.0
  1
中柱（左右）
 50
0.000354
 72
     4
 11
22920.31623604619
 21
17443.224018324669
 31
0.0
  0
TEXT
  5
4798
  8
2-0
  6
CONTINUOUS
 62
     7
 10
23082.98564099997
 20
14921.082175999991
 30
0.0
 40
160.0
  1
下枠
 50
0.001063
 72
     4
 11
23253.650823409269
 21
15001.08534233928
 31
0.0
  0
TEXT
  5
4799
  8
2-0
  6
CONTINUOUS
 62
     7
 10
24896.541383999971
 20
20495.537281000012
 30
0.0
 40
160.0
  1
後柱（左右）
 50
0.000354
 72
     4
 11
25408.54088971296
 21
20575.540444372851
 31
0.0
  0
TEXT
  5
479A
  8
2-0
  6
CONTINUOUS
 62
     7
 10
18070.094236999968
 20
19548.55934600002
 30
0.0
 40
160.0
  1
C
 72
     4
 11
18123.427570333301
 21
19628.55934600002
 31
0.0
  0
TEXT
  5
479B
  8
2-0
  6
CONTINUOUS
 62
     7
 10
18070.314952999979
 20
17005.145706000021
 30
0.0
 40
160.0
  1
B
 72
     4
 11
18123.648286333311
 21
17085.145706000021
 31
0.0
  0
TEXT
  5
479C
  8
2-0
  6
CONTINUOUS
 62
     7
 10
18070.357512999959
 20
14419.432577
 30
0.0
 40
160.0
  1
A
 72
     4
 11
18123.690846333298
 21
14499.432577
 31
0.0
  0
TEXT
  5
479D
  8
2-0
  6
CONTINUOUS
 62
     7
 10
22163.41408799998
 20
20990.017063000021
 30
0.0
 40
160.0
  1
2
 72
     4
 11
22216.747421333312
 21
21070.017063000021
 31
0.0
  0
TEXT
  5
479E
  8
2-0
  6
CONTINUOUS
 62
     7
 10
19603.339261999969
 20
20996.775140000031
 30
0.0
 40
160.0
  1
1
 72
     4
 11
19630.00592866664
 21
21076.775140000031
 31
0.0
  0
LINE
  5
479F
  8
2-0
  6
CONTINUOUS
 62
     3
 10
23342.04645199998
 20
19685.538073000022
 30
0.0
 11
23305.045289999969
 21
19685.538073000022
 31
0.0
  0
LINE
  5
47A0
  8
2-0
  6
CONTINUOUS
 62
     3
 10
23342.04645199998
 20
19655.534510000001
 30
0.0
 11
23342.04645199998
 21
19685.538073000022
 31
0.0
  0
LINE
  5
47A1
  8
2-0
  6
CONTINUOUS
 62
     3
 10
23336.04653099996
 20
19655.534510000001
 30
0.0
 11
23342.04645199998
 21
19655.534510000001
 31
0.0
  0
LINE
  5
47A2
  8
2-0
  6
CONTINUOUS
 62
     3
 10
23352.143975999981
 20
19655.534510000001
 30
0.0
 11
23352.143975999981
 21
19685.538073000022
 31
0.0
  0
LINE
  5
47A3
  8
2-0
  6
CONTINUOUS
 62
     3
 10
23334.140254999969
 20
19655.534510000001
 30
0.0
 11
23352.143975999981
 21
19655.534510000001
 31
0.0
  0
LINE
  5
47A4
  8
2-0
  6
CONTINUOUS
 62
     3
 10
23334.140254999969
 20
19680.543747000011
 30
0.0
 11
23334.140254999969
 21
19655.534510000001
 31
0.0
  0
LINE
  5
47A5
  8
2-0
  6
CONTINUOUS
 62
     3
 10
23339.14051899996
 20
19680.543747000011
 30
0.0
 11
23334.140254999969
 21
19680.543747000011
 31
0.0
  0
LINE
  5
47A6
  8
2-0
  6
CONTINUOUS
 62
     3
 10
23339.14051899996
 20
19673.538230999999
 30
0.0
 11
23339.14051899996
 21
19680.543747000011
 31
0.0
  0
LINE
  5
47A7
  8
2-0
  6
CONTINUOUS
 62
     3
 10
23307.95122399996
 20
19673.538230999999
 30
0.0
 11
23307.95122399996
 21
19680.543747000011
 31
0.0
  0
LINE
  5
47A8
  8
2-0
  6
CONTINUOUS
 62
     3
 10
23307.95122399996
 20
19680.543747000011
 30
0.0
 11
23312.95148799997
 21
19680.543747000011
 31
0.0
  0
LINE
  5
47A9
  8
2-0
  6
CONTINUOUS
 62
     3
 10
23312.95148799997
 20
19680.543747000011
 30
0.0
 11
23312.95148799997
 21
19655.534510000001
 31
0.0
  0
LINE
  5
47AA
  8
2-0
  6
CONTINUOUS
 62
     3
 10
23312.95148799997
 20
19655.534510000001
 30
0.0
 11
23294.951724999981
 21
19655.534510000001
 31
0.0
  0
LINE
  5
47AB
  8
2-0
  6
CONTINUOUS
 62
     3
 10
23294.951724999981
 20
19655.534510000001
 30
0.0
 11
23294.951724999981
 21
19685.538073000022
 31
0.0
  0
LINE
  5
47AC
  8
2-0
  6
CONTINUOUS
 62
     3
 10
23311.045210999971
 20
19655.534510000001
 30
0.0
 11
23305.045289999969
 21
19655.534510000001
 31
0.0
  0
LINE
  5
47AD
  8
2-0
  6
CONTINUOUS
 62
     3
 10
23305.045289999969
 20
19655.534510000001
 30
0.0
 11
23305.045289999969
 21
19685.538073000022
 31
0.0
  0
LINE
  5
47AE
  8
2-0
  6
CONTINUOUS
 62
     3
 10
23999.429500999981
 20
19685.538073000022
 30
0.0
 11
23352.143975999981
 21
19685.538073000022
 31
0.0
  0
LINE
  5
47AF
  8
2-0
  6
CONTINUOUS
 62
     3
 10
23294.951724999981
 20
19685.538073000022
 30
0.0
 11
22651.139027000001
 21
19685.538073000022
 31
0.0
  0
LINE
  5
47B0
  8
2-0
  6
CONTINUOUS
 62
     3
 10
22638.137548999981
 20
19673.538230999999
 30
0.0
 11
22638.137548999981
 21
19680.543747000011
 31
0.0
  0
LINE
  5
47B1
  8
2-0
  6
CONTINUOUS
 62
     3
 10
22638.137548999981
 20
19680.543747000011
 30
0.0
 11
22633.137284999972
 21
19680.543747000011
 31
0.0
  0
LINE
  5
47B2
  8
2-0
  6
CONTINUOUS
 62
     3
 10
22633.137284999972
 20
19680.543747000011
 30
0.0
 11
22633.137284999972
 21
19655.534510000001
 31
0.0
  0
LINE
  5
47B3
  8
2-0
  6
CONTINUOUS
 62
     3
 10
22633.137284999972
 20
19655.534510000001
 30
0.0
 11
22651.139027000001
 21
19655.534510000001
 31
0.0
  0
LINE
  5
47B4
  8
2-0
  6
CONTINUOUS
 62
     3
 10
22651.139027000001
 20
19655.534510000001
 30
0.0
 11
22651.139027000001
 21
19685.538073000022
 31
0.0
  0
LINE
  5
47B5
  8
2-0
  6
CONTINUOUS
 62
     3
 10
22635.03960199999
 20
19655.534510000001
 30
0.0
 11
22641.043481999968
 21
19655.534510000001
 31
0.0
  0
LINE
  5
47B6
  8
2-0
  6
CONTINUOUS
 62
     3
 10
22641.043481999968
 20
19655.534510000001
 30
0.0
 11
22641.043481999968
 21
19685.538073000022
 31
0.0
  0
LINE
  5
47B7
  8
2-0
  6
CONTINUOUS
 62
     3
 10
22604.048259999981
 20
19685.538073000022
 30
0.0
 11
22641.043481999968
 21
19685.538073000022
 31
0.0
  0
LINE
  5
47B8
  8
2-0
  6
CONTINUOUS
 62
     3
 10
22604.048259999981
 20
19655.534510000001
 30
0.0
 11
22604.048259999981
 21
19685.538073000022
 31
0.0
  0
LINE
  5
47B9
  8
2-0
  6
CONTINUOUS
 62
     3
 10
22610.042241999981
 20
19655.534510000001
 30
0.0
 11
22604.048259999981
 21
19655.534510000001
 31
0.0
  0
LINE
  5
47BA
  8
2-0
  6
CONTINUOUS
 62
     3
 10
22593.952714999981
 20
19655.534510000001
 30
0.0
 11
22593.952714999981
 21
19685.538073000022
 31
0.0
  0
LINE
  5
47BB
  8
2-0
  6
CONTINUOUS
 62
     3
 10
22611.948518000001
 20
19655.534510000001
 30
0.0
 11
22593.952714999981
 21
19655.534510000001
 31
0.0
  0
LINE
  5
47BC
  8
2-0
  6
CONTINUOUS
 62
     3
 10
22611.948518000001
 20
19680.543747000011
 30
0.0
 11
22611.948518000001
 21
19655.534510000001
 31
0.0
  0
LINE
  5
47BD
  8
2-0
  6
CONTINUOUS
 62
     3
 10
22606.950233999982
 20
19680.543747000011
 30
0.0
 11
22611.948518000001
 21
19680.543747000011
 31
0.0
  0
LINE
  5
47BE
  8
2-0
  6
CONTINUOUS
 62
     3
 10
22606.950233999982
 20
19673.538230999999
 30
0.0
 11
22606.950233999982
 21
19680.543747000011
 31
0.0
  0
LINE
  5
47BF
  8
2-0
  6
CONTINUOUS
 62
     3
 10
22297.851112999972
 20
19685.538073000022
 30
0.0
 11
22593.952714999981
 21
19685.538073000022
 31
0.0
  0
LINE
  5
47C0
  8
2-0
  6
CONTINUOUS
 62
     3
 10
22133.618373999991
 20
19685.538073000022
 30
0.0
 11
21485.643975999981
 21
19685.538073000022
 31
0.0
  0
LINE
  5
47C1
  8
2-0
  6
CONTINUOUS
 62
     3
 10
24124.04415499997
 20
15588.179225
 30
0.0
 11
24124.04415499997
 21
14944.375435000011
 31
0.0
  0
CIRCLE
  5
47C2
  8
2-0
  6
CONTINUOUS
 62
     4
 10
24081.54587099998
 20
21085.542692000021
 30
0.0
 40
200.00001
  0
TEXT
  5
47C3
  8
2-0
  6
CONTINUOUS
 62
     7
 10
24029.91408799999
 20
20990.017063000021
 30
0.0
 40
160.0
  1
3
 72
     4
 11
24083.247421333319
 21
21070.017063000021
 31
0.0
  0
LINE
  5
47C4
  8
2-0
  6
CONTINUOUS
 62
     6
 10
22418.618365591661
 20
18636.673151940398
 30
0.0
 11
23443.650697591678
 21
18636.673151940398
 31
0.0
  0
LINE
  5
47C5
  8
2-0
  6
CONTINUOUS
 62
     6
 10
23973.744450395759
 20
19101.45668964646
 30
0.0
 11
23443.650697591678
 21
18636.673151940398
 31
0.0
  0
TEXT
  5
47C6
  8
2-0
  6
CONTINUOUS
 62
     7
 10
22498.61664959167
 20
18716.677374940398
 30
0.0
 40
160.0
  1
間柱（側）
 72
     4
 11
22919.949982925002
 21
18796.677374940398
 31
0.0
  0
LINE
  5
47C7
  8
2-0
  6
CONTINUOUS
 62
     6
 10
23991.323663673262
 20
19081.407547675779
 30
0.0
 11
24094.04653099996
 21
19206.945641499991
 31
0.0
  0
LINE
  5
47C8
  8
2-0
  6
CONTINUOUS
 62
     6
 10
24094.04653099996
 20
19206.945641499991
 30
0.0
 11
23956.15626018092
 21
19121.510003997351
 31
0.0
  0
LINE
  5
47C9
  8
2-0
  6
CONTINUOUS
 62
     6
 10
23956.15626018092
 20
19121.510003997351
 30
0.0
 11
23991.323663673262
 21
19081.407547675779
 31
0.0
  0
LINE
  5
47CA
  8
0-6
  6
CONTINUOUS
 62
     6
 10
20886.802758999991
 20
14981.80760299999
 30
0.0
 11
21910.576117999972
 21
14981.80760299999
 31
0.0
  0
LINE
  5
47CB
  8
0-6
  6
CONTINUOUS
 62
     6
 10
22172.543626999988
 20
14550.539788
 30
0.0
 11
21910.576117999972
 21
14981.80760299999
 31
0.0
  0
LINE
  5
47CC
  8
0-6
  6
CONTINUOUS
 62
     6
 10
22112.269265999981
 20
14701.131664
 30
0.0
 11
22172.543626999988
 21
14550.539788
 31
0.0
  0
LINE
  5
47CD
  8
0-6
  6
CONTINUOUS
 62
     6
 10
22172.543626999988
 20
14550.539788
 30
0.0
 11
22066.688870999991
 21
14673.44413699998
 31
0.0
  0
LINE
  5
47CE
  8
0-6
  6
CONTINUOUS
 62
     6
 10
22172.543626999988
 20
14550.539788
 30
0.0
 11
22112.269265999981
 21
14701.131664
 31
0.0
  0
LINE
  5
47CF
  8
0-6
  6
CONTINUOUS
 62
     6
 10
22112.269265999981
 20
14701.131664
 30
0.0
 11
22066.688870999991
 21
14673.44413699998
 31
0.0
  0
LINE
  5
47D0
  8
0-6
  6
CONTINUOUS
 62
     6
 10
22066.688870999991
 20
14673.44413699998
 30
0.0
 11
22172.543626999988
 21
14550.539788
 31
0.0
  0
LINE
  5
47D1
  8
0-6
  6
CONTINUOUS
 62
     6
 10
22066.688870999991
 20
14673.44413699998
 30
0.0
 11
22112.269265999981
 21
14701.131664
 31
0.0
  0
TEXT
  5
47D2
  8
0-6
  6
CONTINUOUS
 62
     7
 10
20966.801043999982
 20
15061.808857
 30
0.0
 40
160.0
  1
前柱（中）
 72
     4
 11
21382.801043999982
 21
15141.808857
 31
0.0
  0
LINE
  5
47D3
  8
0-6
  6
CONTINUOUS
 62
     6
 10
22147.33643799998
 20
19561.780551000022
 30
0.0
 11
21834.780351999969
 21
19035.38499000002
 31
0.0
  0
LINE
  5
47D4
  8
0-6
  6
CONTINUOUS
 62
     6
 10
20809.742080999971
 20
19035.38499000002
 30
0.0
 11
21834.780351999969
 21
19035.38499000002
 31
0.0
  0
LINE
  5
47D5
  8
0-6
  6
CONTINUOUS
 62
     6
 10
20812.764805999981
 20
18437.687170000001
 30
0.0
 11
21837.805055999968
 21
18437.687170000001
 31
0.0
  0
LINE
  5
47D6
  8
0-6
  6
CONTINUOUS
 62
     6
 10
20171.33348199998
 20
19517.959948000022
 30
0.0
 11
20812.764805999981
 21
18437.687170000001
 31
0.0
  0
LINE
  5
47D7
  8
0-6
  6
CONTINUOUS
 62
     6
 10
20194.26224599998
 20
19531.57705600002
 30
0.0
 11
20089.646667999968
 21
19655.53649000002
 31
0.0
  0
LINE
  5
47D8
  8
0-6
  6
CONTINUOUS
 62
     6
 10
20089.646667999968
 20
19655.53649000002
 30
0.0
 11
20148.404717999962
 21
19504.344819000009
 31
0.0
  0
LINE
  5
47D9
  8
0-6
  6
CONTINUOUS
 62
     6
 10
20089.646667999968
 20
19655.53649000002
 30
0.0
 11
20194.26224599998
 21
19531.57705600002
 31
0.0
  0
LINE
  5
47DA
  8
0-6
  6
CONTINUOUS
 62
     6
 10
20194.26224599998
 20
19531.57705600002
 30
0.0
 11
20148.404717999962
 21
19504.344819000009
 31
0.0
  0
LINE
  5
47DB
  8
0-6
  6
CONTINUOUS
 62
     6
 10
20148.404717999962
 20
19504.344819000009
 30
0.0
 11
20089.646667999968
 21
19655.53649000002
 31
0.0
  0
LINE
  5
47DC
  8
0-6
  6
CONTINUOUS
 62
     6
 10
20148.404717999962
 20
19504.344819000009
 30
0.0
 11
20194.26224599998
 21
19531.57705600002
 31
0.0
  0
LINE
  5
47DD
  8
0-6
  6
CONTINUOUS
 62
     6
 10
22042.718880999961
 20
19437.819138000021
 30
0.0
 11
22147.33643799998
 21
19561.780551000022
 31
0.0
  0
LINE
  5
47DE
  8
0-6
  6
CONTINUOUS
 62
     6
 10
22147.33643799998
 20
19561.780551000022
 30
0.0
 11
22088.578387999969
 21
19410.588881
 31
0.0
  0
LINE
  5
47DF
  8
0-6
  6
CONTINUOUS
 62
     6
 10
22147.33643799998
 20
19561.780551000022
 30
0.0
 11
22042.718880999961
 21
19437.819138000021
 31
0.0
  0
LINE
  5
47E0
  8
0-6
  6
CONTINUOUS
 62
     6
 10
22042.718880999961
 20
19437.819138000021
 30
0.0
 11
22088.578387999969
 21
19410.588881
 31
0.0
  0
LINE
  5
47E1
  8
0-6
  6
CONTINUOUS
 62
     6
 10
22088.578387999969
 20
19410.588881
 30
0.0
 11
22147.33643799998
 21
19561.780551000022
 31
0.0
  0
LINE
  5
47E2
  8
0-6
  6
CONTINUOUS
 62
     6
 10
22088.578387999969
 20
19410.588881
 30
0.0
 11
22042.718880999961
 21
19437.819138000021
 31
0.0
  0
TEXT
  5
47E3
  8
0-6
  6
CONTINUOUS
 62
     7
 10
20889.742344999999
 20
19115.387234000009
 30
0.0
 40
160.0
  1
後柱（中）
 72
     4
 11
21305.742344999999
 21
19195.387234000009
 31
0.0
  0
TEXT
  5
47E4
  8
0-6
  6
CONTINUOUS
 62
     7
 10
20892.765069999979
 20
18517.687434000021
 30
0.0
 40
160.0
  1
間柱（後）
 72
     4
 11
21314.098403333312
 21
18597.687434000021
 31
0.0
  0
LINE
  5
47E5
  8
0-2
  6
CONTINUOUS
 62
     4
 10
23511.985891
 20
7014.3143469999986
 30
0.0
 11
23411.986550999991
 21
7014.3143469999986
 31
0.0
  0
LINE
  5
47E6
  8
0-2
  6
CONTINUOUS
 62
     4
 10
22784.601890000002
 20
7014.3143469999986
 30
0.0
 11
22884.599251
 21
7014.3143469999986
 31
0.0
  0
CIRCLE
  5
47E7
  8
0-4
  6
CONTINUOUS
 62
     4
 10
23148.294880499991
 20
6753.144583999996
 30
0.0
 40
18.487504999999981
  0
LINE
  5
47E8
  8
SUNPOU
  6
CONTINUOUS
 10
8422.5894259999877
 20
19865.53569700001
 30
0.0
 11
8422.5894259999877
 21
20662.50296477848
 31
0.0
  0
LINE
  5
47E9
  8
SUNPOU
  6
CONTINUOUS
 10
8422.5894259999877
 20
14315.544472999991
 30
0.0
 11
8422.5894259999877
 21
13640.11835718962
 31
0.0
  0
CIRCLE
  5
47EA
  8
0-5
  6
CONTINUOUS
 62
     4
 10
15128.714697999991
 20
1375.999982
 30
0.0
 40
20.0
  0
ARC
  5
47EB
  8
0-5
  6
CONTINUOUS
 62
     4
 10
15128.714697999991
 20
1375.999982
 30
0.0
 40
20.0
 50
180.0
 51
0.0
  0
ARC
  5
47EC
  8
0-5
  6
CONTINUOUS
 62
     4
 10
15128.714697999991
 20
1375.999982
 30
0.0
 40
20.0
 50
0.0
 51
179.9999849999983
  0
CIRCLE
  5
47ED
  8
0-5
  6
CONTINUOUS
 62
     4
 10
15128.714697999991
 20
1775.999941
 30
0.0
 40
20.0
  0
ARC
  5
47EE
  8
0-5
  6
CONTINUOUS
 62
     4
 10
15128.714697999991
 20
1775.999941
 30
0.0
 40
20.0
 50
180.0
 51
0.0
  0
ARC
  5
47EF
  8
0-5
  6
CONTINUOUS
 62
     4
 10
15128.714697999991
 20
1775.999941
 30
0.0
 40
20.0
 50
0.0
 51
179.9999849999983
  0
TEXT
  5
47F0
  8
0-5
  6
CONTINUOUS
 62
     7
 10
16669.776841999981
 20
1655.999793
 30
0.0
 40
160.0
  1
H
  0
TEXT
  5
47F1
  8
0-5
  6
CONTINUOUS
 62
     7
 10
15176.145943
 20
1655.999793
 30
0.0
 40
160.0
  1
（ ）内寸法ハ、  タ イプヲ示ス。
  0
TEXT
  5
47F2
  8
0-5
  6
CONTINUOUS
 62
     7
 10
15288.712256999979
 20
1255.9999580000001
 30
0.0
 40
160.0
  1
有効高サハ、基礎高サヲ含ミマセン。
  0
LINE
  5
47F5
  8
WAKUSEN-01
 10
868.00000000000193
 20
22484.000000000011
 30
0.0
 11
32764.000000000011
 21
22484.000000000011
 31
0.0
  0
LINE
  5
47F8
  8
WAKUSEN-01
 10
20560.0
 20
2484.0
 30
0.0
 11
32764.0
 21
2484.0
 31
0.0
  0
LINE
  5
47F9
  8
WAKUSEN-02
 10
20560.0
 20
1655.999999999998
 30
0.0
 11
26868.0
 21
1655.999999999998
 31
0.0
  0
TEXT
  5
47FA
  8
WAKUMOJI-01
 10
20670.260259962761
 20
2125.9030093393221
 30
0.0
 40
240.0
  1
名　称
  7
WAKUMOJI
  0
TEXT
  5
47FB
  8
WAKUMOJI-01
 10
20656.505485091919
 20
1319.12897497982
 30
0.0
 40
240.0
  1
機種名
  7
WAKUMOJI
  0
LINE
  5
47FE
  8
YODOROGO
 10
29977.604341291921
 20
1995.7494964292871
 30
0.0
 11
29829.604341291921
 21
1995.7494964292871
 31
0.0
1001
AUTOCAD_POSTSCRIPT_FIGURE
1002
{
1000
PSFILL
1000
Grayscale
1000
Grayscale
1070
    25
1002
}
  0
LINE
  5
47FF
  8
YODOROGO
 10
29829.604341291921
 20
1947.749496429288
 30
0.0
 11
29977.604341291921
 21
1947.749496429288
 31
0.0
1001
AUTOCAD_POSTSCRIPT_FIGURE
1002
{
1000
PSFILL
1000
Grayscale
1000
Grayscale
1070
    25
1002
}
  0
LINE
  5
4800
  8
YODOROGO
 10
29977.604341291921
 20
1907.7494964292871
 30
0.0
 11
29829.604341291921
 21
1907.7494964292871
 31
0.0
1001
AUTOCAD_POSTSCRIPT_FIGURE
1002
{
1000
PSFILL
1000
Grayscale
1000
Grayscale
1070
    25
1002
}
  0
LINE
  5
4801
  8
YODOROGO
 10
29829.604341291921
 20
1859.7494964292871
 30
0.0
 11
29977.604341291921
 21
1859.7494964292871
 31
0.0
1001
AUTOCAD_POSTSCRIPT_FIGURE
1002
{
1000
PSFILL
1000
Grayscale
1000
Grayscale
1070
    25
1002
}
  0
LINE
  5
4802
  8
YODOROGO
 10
29977.604341291921
 20
1819.7494964292871
 30
0.0
 11
29829.604341291921
 21
1819.7494964292871
 31
0.0
1001
AUTOCAD_POSTSCRIPT_FIGURE
1002
{
1000
PSFILL
1000
Grayscale
1000
Grayscale
1070
    25
1002
}
  0
LINE
  5
4803
  8
YODOROGO
 10
29921.60434129191
 20
1707.749496429288
 30
0.0
 11
29977.604341291921
 21
1707.749496429288
 31
0.0
1001
AUTOCAD_POSTSCRIPT_FIGURE
1002
{
1000
PSFILL
1000
Grayscale
1000
Grayscale
1070
    25
1002
}
  0
LINE
  5
4804
  8
YODOROGO
 10
29737.604341291921
 20
1427.749496429288
 30
0.0
 11
29937.604341291932
 21
1481.3393349155101
 31
0.0
  0
LINE
  5
4805
  8
YODOROGO
 10
29949.60434129191
 20
1707.749496429288
 30
0.0
 11
29885.604341291921
 21
1707.749496429288
 31
0.0
  0
ARC
  5
4806
  8
YODOROGO
 10
30254.34774982791
 20
1807.864609233261
 30
0.0
 40
381.88686420564721
 50
213.96111677667841
 51
264.47872074317792
  0
ARC
  5
4807
  8
YODOROGO
 10
30254.347749827921
 20
1807.864609233302
 30
0.0
 40
381.8868642056816
 50
208.14114420486601
 51
212.9210361185994
  0
LINE
  5
4808
  8
YODOROGO
 10
29771.409872985321
 20
1556.807661346234
 30
0.0
 11
29933.78413250855
 21
1600.315713057086
 31
0.0
  0
LINE
  5
4809
  8
YODOROGO
 10
29737.604341291921
 20
1427.749496429288
 30
0.0
 11
29937.604341291932
 21
1481.3393349155101
 31
0.0
  0
LINE
  5
480A
  8
YODOROGO
 10
29949.60434129191
 20
1707.749496429288
 30
0.0
 11
29885.604341291921
 21
1707.749496429288
 31
0.0
  0
ARC
  5
480B
  8
YODOROGO
 10
30254.34774982791
 20
1807.864609233261
 30
0.0
 40
381.88686420564721
 50
213.96111677667841
 51
264.47872074317792
  0
LINE
  5
480C
  8
YODOROGO
 10
28793.60434129191
 20
1819.7494964292871
 30
0.0
 11
28433.60434129191
 21
1819.7494964292871
 31
0.0
  0
LINE
  5
480D
  8
YODOROGO
 10
28513.60434129191
 20
1427.749496429288
 30
0.0
 11
28793.60434129191
 21
1427.749496429288
 31
0.0
  0
LINE
  5
480E
  8
YODOROGO
 10
28729.604341291921
 20
1923.7494964292871
 30
0.0
 11
28497.60434129191
 21
1923.7494964292871
 31
0.0
  0
LINE
  5
480F
  8
YODOROGO
 10
28585.604341291921
 20
2027.749496429288
 30
0.0
 11
28657.604341291921
 21
2027.749496429288
 31
0.0
  0
LINE
  5
4810
  8
YODOROGO
 10
28433.60434129191
 20
1707.749496429288
 30
0.0
 11
28433.60434129191
 21
1507.749496429288
 31
0.0
  0
LINE
  5
4811
  8
YODOROGO
 10
28497.60434129191
 20
1563.7494964292871
 30
0.0
 11
28497.60434129191
 21
1707.749496429288
 31
0.0
  0
LINE
  5
4812
  8
YODOROGO
 10
28585.604341291921
 20
1747.74949642929
 30
0.0
 11
28585.604341291921
 21
1547.749496429288
 31
0.0
  0
LINE
  5
4813
  8
YODOROGO
 10
27857.604341291921
 20
1683.749496429288
 30
0.0
 11
27777.604341291921
 21
1619.9724140445701
 31
0.0
  0
LINE
  5
4814
  8
YODOROGO
 10
27937.604341291921
 20
1619.9724140445701
 30
0.0
 11
27857.604341291921
 21
1683.749496429288
 31
0.0
  0
LINE
  5
4815
  8
YODOROGO
 10
27857.604341291921
 20
1707.749496429288
 30
0.0
 11
27937.604341291921
 21
1643.9724140445701
 31
0.0
  0
LINE
  5
4816
  8
YODOROGO
 10
27777.604341291921
 20
1643.9724140445701
 30
0.0
 11
27857.604341291921
 21
1707.749496429288
 31
0.0
  0
LINE
  5
4817
  8
YODOROGO
 10
28040.913204016892
 20
1659.749496429288
 30
0.0
 11
28040.913204016892
 21
1683.7494964292871
 31
0.0
  0
LINE
  5
4818
  8
YODOROGO
 10
27977.604341291921
 20
1683.7494964292871
 30
0.0
 11
27977.604341291921
 21
1667.749496429285
 31
0.0
  0
LINE
  5
4819
  8
YODOROGO
 10
28098.135520230931
 20
1707.749496429288
 30
0.0
 11
28098.135520230931
 21
1655.5036372746561
 31
0.0
1001
AUTOCAD_POSTSCRIPT_FIGURE
1002
{
1000
PSFILL
1000
Grayscale
1000
Grayscale
1070
   100
1002
}
  0
LINE
  5
481A
  8
YODOROGO
 10
28082.135520230921
 20
1655.5036372746561
 30
0.0
 11
28082.135520230921
 21
1707.749496429288
 31
0.0
1001
AUTOCAD_POSTSCRIPT_FIGURE
1002
{
1000
PSFILL
1000
Grayscale
1000
Grayscale
1070
   100
1002
}
  0
LINE
  5
481B
  8
YODOROGO
 10
27809.604341291921
 20
1608.771904043258
 30
0.0
 11
27809.604341291921
 21
1632.771904043258
 31
0.0
  0
LINE
  5
481C
  8
YODOROGO
 10
27905.604341291921
 20
1608.771904043258
 30
0.0
 11
27809.604341291921
 21
1608.771904043258
 31
0.0
  0
LINE
  5
481D
  8
YODOROGO
 10
27905.604341291921
 20
1632.771904043258
 30
0.0
 11
27905.604341291921
 21
1608.771904043258
 31
0.0
  0
LINE
  5
481E
  8
YODOROGO
 10
27809.604341291921
 20
1632.771904043258
 30
0.0
 11
27905.604341291921
 21
1632.771904043258
 31
0.0
  0
LINE
  5
481F
  8
YODOROGO
 10
27824.509588915738
 20
1568.5028573704751
 30
0.0
 11
27785.604341291921
 21
1475.7494964292871
 31
0.0
1001
AUTOCAD_POSTSCRIPT_FIGURE
1002
{
1000
PSFILL
1000
Grayscale
1000
Grayscale
1070
   100
1002
}
  0
LINE
  5
4820
  8
YODOROGO
 10
27777.604341291921
 20
1568.5028573704751
 30
0.0
 11
27824.509588915738
 21
1568.5028573704751
 31
0.0
1001
AUTOCAD_POSTSCRIPT_FIGURE
1002
{
1000
PSFILL
1000
Grayscale
1000
Grayscale
1070
   100
1002
}
  0
LINE
  5
4821
  8
YODOROGO
 10
27777.604341291921
 20
1588.5028573704751
 30
0.0
 11
27777.604341291921
 21
1568.5028573704751
 31
0.0
1001
AUTOCAD_POSTSCRIPT_FIGURE
1002
{
1000
PSFILL
1000
Grayscale
1000
Grayscale
1070
   100
1002
}
  0
LINE
  5
4822
  8
YODOROGO
 10
27937.604341291921
 20
1588.5028573704751
 30
0.0
 11
27777.604341291921
 21
1588.5028573704751
 31
0.0
1001
AUTOCAD_POSTSCRIPT_FIGURE
1002
{
1000
PSFILL
1000
Grayscale
1000
Grayscale
1070
   100
1002
}
  0
LINE
  5
4823
  8
YODOROGO
 10
27937.604341291921
 20
1568.5028573704751
 30
0.0
 11
27937.604341291921
 21
1588.5028573704751
 31
0.0
1001
AUTOCAD_POSTSCRIPT_FIGURE
1002
{
1000
PSFILL
1000
Grayscale
1000
Grayscale
1070
   100
1002
}
  0
LINE
  5
4824
  8
YODOROGO
 10
27844.509588915738
 20
1568.5028573704751
 30
0.0
 11
27937.604341291921
 21
1568.5028573704751
 31
0.0
1001
AUTOCAD_POSTSCRIPT_FIGURE
1002
{
1000
PSFILL
1000
Grayscale
1000
Grayscale
1070
   100
1002
}
  0
LINE
  5
4825
  8
YODOROGO
 10
27815.546718284771
 20
1495.7494964292871
 30
0.0
 11
27844.509588915738
 21
1568.5028573704751
 31
0.0
1001
AUTOCAD_POSTSCRIPT_FIGURE
1002
{
1000
PSFILL
1000
Grayscale
1000
Grayscale
1070
   100
1002
}
  0
LINE
  5
4826
  8
YODOROGO
 10
27902.054790808648
 20
1495.7494964292871
 30
0.0
 11
27815.546718284771
 21
1495.7494964292871
 31
0.0
1001
AUTOCAD_POSTSCRIPT_FIGURE
1002
{
1000
PSFILL
1000
Grayscale
1000
Grayscale
1070
   100
1002
}
  0
LINE
  5
4827
  8
YODOROGO
 10
27885.065004790951
 20
1536.233810697692
 30
0.0
 11
27902.054790808648
 21
1495.7494964292871
 31
0.0
1001
AUTOCAD_POSTSCRIPT_FIGURE
1002
{
1000
PSFILL
1000
Grayscale
1000
Grayscale
1070
   100
1002
}
  0
LINE
  5
4828
  8
YODOROGO
 10
27901.065004790951
 20
1536.233810697692
 30
0.0
 11
27885.065004790951
 21
1536.233810697692
 31
0.0
1001
AUTOCAD_POSTSCRIPT_FIGURE
1002
{
1000
PSFILL
1000
Grayscale
1000
Grayscale
1070
   100
1002
}
  0
LINE
  5
4829
  8
YODOROGO
 10
27929.604341291921
 20
1475.7494964292871
 30
0.0
 11
27901.065004790951
 21
1536.233810697692
 31
0.0
1001
AUTOCAD_POSTSCRIPT_FIGURE
1002
{
1000
PSFILL
1000
Grayscale
1000
Grayscale
1070
   100
1002
}
  0
LINE
  5
482A
  8
YODOROGO
 10
27785.604341291921
 20
1475.7494964292871
 30
0.0
 11
27929.604341291921
 21
1475.7494964292871
 31
0.0
1001
AUTOCAD_POSTSCRIPT_FIGURE
1002
{
1000
PSFILL
1000
Grayscale
1000
Grayscale
1070
   100
1002
}
  0
LINE
  5
482B
  8
YODOROGO
 10
27777.604341291921
 20
1619.9724140445701
 30
0.0
 11
27777.604341291921
 21
1643.9724140445701
 31
0.0
  0
LINE
  5
482C
  8
YODOROGO
 10
27937.604341291921
 20
1643.9724140445701
 30
0.0
 11
27937.604341291921
 21
1619.9724140445701
 31
0.0
  0
ARC
  5
482D
  8
YODOROGO
 10
28225.940442146959
 20
1600.877765325326
 30
0.0
 40
175.9999999999998
 50
280.3644312771313
 51
3.5414836592180561
  0
ARC
  5
482E
  8
YODOROGO
 10
28235.756030759301
 20
1633.5978069619041
 30
0.0
 40
111.9999999999982
 50
281.24905825041549
 51
348.75094174958332
  0
LINE
  5
482F
  8
YODOROGO
 10
28257.604341291921
 20
1523.7494964292871
 30
0.0
 11
28257.604341291921
 21
1427.749496429288
 31
0.0
  0
LINE
  5
4830
  8
YODOROGO
 10
28020.088903736909
 20
1610.650565061914
 30
0.0
 11
28040.913204016892
 21
1659.749496429288
 31
0.0
  0
LINE
  5
4831
  8
YODOROGO
 10
28041.604341291921
 20
1583.120489948401
 30
0.0
 11
28020.088903736909
 21
1610.650565061914
 31
0.0
  0
LINE
  5
4832
  8
YODOROGO
 10
28041.604341291921
 20
1563.120489948398
 30
0.0
 11
28041.604341291921
 21
1583.120489948401
 31
0.0
  0
LINE
  5
4833
  8
YODOROGO
 10
28017.604341291921
 20
1585.2370637495301
 30
0.0
 11
28041.604341291921
 21
1563.120489948398
 31
0.0
  0
LINE
  5
4834
  8
YODOROGO
 10
28017.604341291921
 20
1475.7494964292871
 30
0.0
 11
28017.604341291921
 21
1585.2370637495301
 31
0.0
  0
LINE
  5
4835
  8
YODOROGO
 10
28001.604341291921
 20
1475.7494964292871
 30
0.0
 11
28017.604341291921
 21
1475.7494964292871
 31
0.0
  0
LINE
  5
4836
  8
YODOROGO
 10
28001.604341291921
 20
1580.0053496897469
 30
0.0
 11
28001.604341291921
 21
1475.7494964292871
 31
0.0
  0
LINE
  5
4837
  8
YODOROGO
 10
27977.604341291921
 20
1532.7680790334291
 30
0.0
 11
28001.604341291921
 21
1580.0053496897469
 31
0.0
  0
LINE
  5
4838
  8
YODOROGO
 10
27977.604341291921
 20
1556.76807903343
 30
0.0
 11
27977.604341291921
 21
1532.7680790334291
 31
0.0
  0
LINE
  5
4839
  8
YODOROGO
 10
28025.828774291349
 20
1667.749496429285
 30
0.0
 11
27977.604341291921
 21
1556.76807903343
 31
0.0
  0
LINE
  5
483A
  8
YODOROGO
 10
27977.604341291921
 20
1667.749496429285
 30
0.0
 11
28025.828774291349
 21
1667.749496429285
 31
0.0
  0
LINE
  5
483B
  8
YODOROGO
 10
28050.135520230899
 20
1655.5036372746561
 30
0.0
 11
28082.135520230921
 21
1655.5036372746561
 31
0.0
1001
AUTOCAD_POSTSCRIPT_FIGURE
1002
{
1000
PSFILL
1000
Grayscale
1000
Grayscale
1070
   100
1002
}
  0
LINE
  5
483C
  8
YODOROGO
 10
28050.135520230899
 20
1631.5036372746561
 30
0.0
 11
28050.135520230899
 21
1655.5036372746561
 31
0.0
1001
AUTOCAD_POSTSCRIPT_FIGURE
1002
{
1000
PSFILL
1000
Grayscale
1000
Grayscale
1070
   100
1002
}
  0
LINE
  5
483D
  8
YODOROGO
 10
28082.135520230921
 20
1631.5036372746561
 30
0.0
 11
28050.135520230899
 21
1631.5036372746561
 31
0.0
1001
AUTOCAD_POSTSCRIPT_FIGURE
1002
{
1000
PSFILL
1000
Grayscale
1000
Grayscale
1070
   100
1002
}
  0
LINE
  5
483E
  8
YODOROGO
 10
28082.135520230921
 20
1499.749496429288
 30
0.0
 11
28082.135520230921
 21
1631.5036372746561
 31
0.0
1001
AUTOCAD_POSTSCRIPT_FIGURE
1002
{
1000
PSFILL
1000
Grayscale
1000
Grayscale
1070
   100
1002
}
  0
LINE
  5
483F
  8
YODOROGO
 10
28050.135520230921
 20
1499.749496429288
 30
0.0
 11
28082.135520230921
 21
1499.749496429288
 31
0.0
1001
AUTOCAD_POSTSCRIPT_FIGURE
1002
{
1000
PSFILL
1000
Grayscale
1000
Grayscale
1070
   100
1002
}
  0
LINE
  5
4840
  8
YODOROGO
 10
28050.135520230921
 20
1475.7494964292871
 30
0.0
 11
28050.135520230921
 21
1499.749496429288
 31
0.0
1001
AUTOCAD_POSTSCRIPT_FIGURE
1002
{
1000
PSFILL
1000
Grayscale
1000
Grayscale
1070
   100
1002
}
  0
LINE
  5
4841
  8
YODOROGO
 10
28137.604341291921
 20
1475.7494964292871
 30
0.0
 11
28050.135520230921
 21
1475.7494964292871
 31
0.0
1001
AUTOCAD_POSTSCRIPT_FIGURE
1002
{
1000
PSFILL
1000
Grayscale
1000
Grayscale
1070
   100
1002
}
  0
LINE
  5
4842
  8
YODOROGO
 10
28137.604341291921
 20
1499.749496429288
 30
0.0
 11
28137.604341291921
 21
1475.7494964292871
 31
0.0
1001
AUTOCAD_POSTSCRIPT_FIGURE
1002
{
1000
PSFILL
1000
Grayscale
1000
Grayscale
1070
   100
1002
}
  0
LINE
  5
4843
  8
YODOROGO
 10
28098.135520230931
 20
1499.749496429288
 30
0.0
 11
28137.604341291921
 21
1499.749496429288
 31
0.0
1001
AUTOCAD_POSTSCRIPT_FIGURE
1002
{
1000
PSFILL
1000
Grayscale
1000
Grayscale
1070
   100
1002
}
  0
LINE
  5
4844
  8
YODOROGO
 10
28098.135520230931
 20
1631.5036372746561
 30
0.0
 11
28098.135520230931
 21
1499.749496429288
 31
0.0
1001
AUTOCAD_POSTSCRIPT_FIGURE
1002
{
1000
PSFILL
1000
Grayscale
1000
Grayscale
1070
   100
1002
}
  0
LINE
  5
4845
  8
YODOROGO
 10
28137.604341291921
 20
1631.5036372746561
 30
0.0
 11
28098.135520230931
 21
1631.5036372746561
 31
0.0
1001
AUTOCAD_POSTSCRIPT_FIGURE
1002
{
1000
PSFILL
1000
Grayscale
1000
Grayscale
1070
   100
1002
}
  0
LINE
  5
4846
  8
YODOROGO
 10
28137.604341291921
 20
1655.5036372746561
 30
0.0
 11
28137.604341291921
 21
1631.5036372746561
 31
0.0
1001
AUTOCAD_POSTSCRIPT_FIGURE
1002
{
1000
PSFILL
1000
Grayscale
1000
Grayscale
1070
   100
1002
}
  0
LINE
  5
4847
  8
YODOROGO
 10
28098.135520230931
 20
1655.5036372746561
 30
0.0
 11
28137.604341291921
 21
1655.5036372746561
 31
0.0
1001
AUTOCAD_POSTSCRIPT_FIGURE
1002
{
1000
PSFILL
1000
Grayscale
1000
Grayscale
1070
   100
1002
}
  0
LINE
  5
4848
  8
YODOROGO
 10
28401.60434129191
 20
1667.749496429288
 30
0.0
 11
28345.604341291921
 21
1667.749496429288
 31
0.0
  0
LINE
  5
4849
  8
YODOROGO
 10
28401.60434129191
 20
1611.7494964292871
 30
0.0
 11
28401.60434129191
 21
1667.749496429288
 31
0.0
  0
LINE
  5
484A
  8
YODOROGO
 10
28345.604341291921
 20
1667.749496429288
 30
0.0
 11
28345.604341291921
 21
1611.7494964292871
 31
0.0
  0
ARC
  5
484B
  8
YODOROGO
 10
28513.60434129191
 20
1507.749496429288
 30
0.0
 40
80.0
 50
180.0
 51
270.0
  0
ARC
  5
484C
  8
YODOROGO
 10
28537.604341291921
 20
1563.7494964292871
 30
0.0
 40
40.0
 50
180.0
 51
270.0
  0
LINE
  5
484D
  8
YODOROGO
 10
28561.604341291932
 20
1523.7494964292871
 30
0.0
 11
28537.604341291921
 21
1523.7494964292871
 31
0.0
  0
ARC
  5
484E
  8
YODOROGO
 10
28561.604341291932
 20
1547.749496429285
 30
0.0
 40
23.999999999996358
 50
270.0
 51
0.0000000000054281
  0
LINE
  5
484F
  8
YODOROGO
 10
27801.604341291921
 20
1890.7865807937051
 30
0.0
 11
27777.604341291921
 21
1843.776747951672
 31
0.0
1001
AUTOCAD_POSTSCRIPT_FIGURE
1002
{
1000
PSFILL
1000
Grayscale
1000
Grayscale
1070
   100
1002
}
  0
LINE
  5
4850
  8
YODOROGO
 10
27801.604341291921
 20
1747.749496429286
 30
0.0
 11
27801.604341291921
 21
1890.7865807937051
 31
0.0
1001
AUTOCAD_POSTSCRIPT_FIGURE
1002
{
1000
PSFILL
1000
Grayscale
1000
Grayscale
1070
   100
1002
}
  0
LINE
  5
4851
  8
YODOROGO
 10
27817.604341291921
 20
1747.749496429286
 30
0.0
 11
27801.604341291921
 21
1747.749496429286
 31
0.0
1001
AUTOCAD_POSTSCRIPT_FIGURE
1002
{
1000
PSFILL
1000
Grayscale
1000
Grayscale
1070
   100
1002
}
  0
LINE
  5
4852
  8
YODOROGO
 10
27817.604341291921
 20
1893.7713320852661
 30
0.0
 11
27817.604341291921
 21
1747.749496429286
 31
0.0
1001
AUTOCAD_POSTSCRIPT_FIGURE
1002
{
1000
PSFILL
1000
Grayscale
1000
Grayscale
1070
   100
1002
}
  0
LINE
  5
4853
  8
YODOROGO
 10
27841.604341291921
 20
1867.6547582841361
 30
0.0
 11
27817.604341291921
 21
1893.7713320852661
 31
0.0
1001
AUTOCAD_POSTSCRIPT_FIGURE
1002
{
1000
PSFILL
1000
Grayscale
1000
Grayscale
1070
   100
1002
}
  0
LINE
  5
4854
  8
YODOROGO
 10
27841.604341291921
 20
1883.6547582841361
 30
0.0
 11
27841.604341291921
 21
1867.6547582841361
 31
0.0
1001
AUTOCAD_POSTSCRIPT_FIGURE
1002
{
1000
PSFILL
1000
Grayscale
1000
Grayscale
1070
   100
1002
}
  0
LINE
  5
4855
  8
YODOROGO
 10
27817.604341291921
 20
1917.7713320852649
 30
0.0
 11
27841.604341291921
 21
1883.6547582841361
 31
0.0
1001
AUTOCAD_POSTSCRIPT_FIGURE
1002
{
1000
PSFILL
1000
Grayscale
1000
Grayscale
1070
   100
1002
}
  0
LINE
  5
4856
  8
YODOROGO
 10
27817.604341291921
 20
1939.749496429288
 30
0.0
 11
27817.604341291921
 21
1917.7713320852649
 31
0.0
1001
AUTOCAD_POSTSCRIPT_FIGURE
1002
{
1000
PSFILL
1000
Grayscale
1000
Grayscale
1070
   100
1002
}
  0
LINE
  5
4857
  8
YODOROGO
 10
27889.604341291921
 20
1939.749496429288
 30
0.0
 11
27817.604341291921
 21
1939.749496429288
 31
0.0
1001
AUTOCAD_POSTSCRIPT_FIGURE
1002
{
1000
PSFILL
1000
Grayscale
1000
Grayscale
1070
   100
1002
}
  0
LINE
  5
4858
  8
YODOROGO
 10
27889.604341291921
 20
1900.5683489363
 30
0.0
 11
27889.604341291921
 21
1939.749496429288
 31
0.0
1001
AUTOCAD_POSTSCRIPT_FIGURE
1002
{
1000
PSFILL
1000
Grayscale
1000
Grayscale
1070
   100
1002
}
  0
LINE
  5
4859
  8
YODOROGO
 10
27857.604341291921
 20
1900.5683489363
 30
0.0
 11
27889.604341291921
 21
1900.5683489363
 31
0.0
1001
AUTOCAD_POSTSCRIPT_FIGURE
1002
{
1000
PSFILL
1000
Grayscale
1000
Grayscale
1070
   100
1002
}
  0
LINE
  5
485A
  8
YODOROGO
 10
27857.604341291921
 20
1884.568348936298
 30
0.0
 11
27857.604341291921
 21
1900.5683489363
 31
0.0
1001
AUTOCAD_POSTSCRIPT_FIGURE
1002
{
1000
PSFILL
1000
Grayscale
1000
Grayscale
1070
   100
1002
}
  0
LINE
  5
485B
  8
YODOROGO
 10
27889.604341291921
 20
1884.568348936298
 30
0.0
 11
27857.604341291921
 21
1884.568348936298
 31
0.0
1001
AUTOCAD_POSTSCRIPT_FIGURE
1002
{
1000
PSFILL
1000
Grayscale
1000
Grayscale
1070
   100
1002
}
  0
LINE
  5
485C
  8
YODOROGO
 10
27889.604341291921
 20
1879.6191779644371
 30
0.0
 11
27889.604341291921
 21
1884.568348936298
 31
0.0
1001
AUTOCAD_POSTSCRIPT_FIGURE
1002
{
1000
PSFILL
1000
Grayscale
1000
Grayscale
1070
   100
1002
}
  0
LINE
  5
485D
  8
YODOROGO
 10
27849.604341291921
 20
1812.974981161417
 30
0.0
 11
27889.604341291921
 21
1879.6191779644371
 31
0.0
1001
AUTOCAD_POSTSCRIPT_FIGURE
1002
{
1000
PSFILL
1000
Grayscale
1000
Grayscale
1070
   100
1002
}
  0
LINE
  5
485E
  8
YODOROGO
 10
27849.604341291921
 20
1796.9749811614149
 30
0.0
 11
27849.604341291921
 21
1812.974981161417
 31
0.0
1001
AUTOCAD_POSTSCRIPT_FIGURE
1002
{
1000
PSFILL
1000
Grayscale
1000
Grayscale
1070
   100
1002
}
  0
LINE
  5
485F
  8
YODOROGO
 10
27889.604341291921
 20
1847.6191779644359
 30
0.0
 11
27849.604341291921
 21
1796.9749811614149
 31
0.0
1001
AUTOCAD_POSTSCRIPT_FIGURE
1002
{
1000
PSFILL
1000
Grayscale
1000
Grayscale
1070
   100
1002
}
  0
LINE
  5
4860
  8
YODOROGO
 10
27889.604341291921
 20
1747.749496429286
 30
0.0
 11
27889.604341291921
 21
1847.6191779644359
 31
0.0
1001
AUTOCAD_POSTSCRIPT_FIGURE
1002
{
1000
PSFILL
1000
Grayscale
1000
Grayscale
1070
   100
1002
}
  0
LINE
  5
4861
  8
YODOROGO
 10
27905.604341291921
 20
1747.749496429286
 30
0.0
 11
27889.604341291921
 21
1747.749496429286
 31
0.0
1001
AUTOCAD_POSTSCRIPT_FIGURE
1002
{
1000
PSFILL
1000
Grayscale
1000
Grayscale
1070
   100
1002
}
  0
LINE
  5
4862
  8
YODOROGO
 10
27905.604341291921
 20
1849.409012158806
 30
0.0
 11
27905.604341291921
 21
1747.749496429286
 31
0.0
1001
AUTOCAD_POSTSCRIPT_FIGURE
1002
{
1000
PSFILL
1000
Grayscale
1000
Grayscale
1070
   100
1002
}
  0
LINE
  5
4863
  8
YODOROGO
 10
27937.604341291921
 20
1796.9749811614149
 30
0.0
 11
27905.604341291921
 21
1849.409012158806
 31
0.0
1001
AUTOCAD_POSTSCRIPT_FIGURE
1002
{
1000
PSFILL
1000
Grayscale
1000
Grayscale
1070
   100
1002
}
  0
LINE
  5
4864
  8
YODOROGO
 10
27937.604341291921
 20
1812.974981161417
 30
0.0
 11
27937.604341291921
 21
1796.9749811614149
 31
0.0
1001
AUTOCAD_POSTSCRIPT_FIGURE
1002
{
1000
PSFILL
1000
Grayscale
1000
Grayscale
1070
   100
1002
}
  0
LINE
  5
4865
  8
YODOROGO
 10
27905.604341291921
 20
1881.4090121588081
 30
0.0
 11
27937.604341291921
 21
1812.974981161417
 31
0.0
1001
AUTOCAD_POSTSCRIPT_FIGURE
1002
{
1000
PSFILL
1000
Grayscale
1000
Grayscale
1070
   100
1002
}
  0
LINE
  5
4866
  8
YODOROGO
 10
27905.604341291921
 20
1884.5683489363
 30
0.0
 11
27905.604341291921
 21
1881.4090121588081
 31
0.0
1001
AUTOCAD_POSTSCRIPT_FIGURE
1002
{
1000
PSFILL
1000
Grayscale
1000
Grayscale
1070
   100
1002
}
  0
LINE
  5
4867
  8
YODOROGO
 10
27937.604341291921
 20
1884.568348936298
 30
0.0
 11
27905.604341291921
 21
1884.5683489363
 31
0.0
1001
AUTOCAD_POSTSCRIPT_FIGURE
1002
{
1000
PSFILL
1000
Grayscale
1000
Grayscale
1070
   100
1002
}
  0
LINE
  5
4868
  8
YODOROGO
 10
27937.604341291921
 20
1900.5683489363
 30
0.0
 11
27937.604341291921
 21
1884.568348936298
 31
0.0
1001
AUTOCAD_POSTSCRIPT_FIGURE
1002
{
1000
PSFILL
1000
Grayscale
1000
Grayscale
1070
   100
1002
}
  0
LINE
  5
4869
  8
YODOROGO
 10
27905.604341291921
 20
1900.5683489363
 30
0.0
 11
27937.604341291921
 21
1900.5683489363
 31
0.0
1001
AUTOCAD_POSTSCRIPT_FIGURE
1002
{
1000
PSFILL
1000
Grayscale
1000
Grayscale
1070
   100
1002
}
  0
LINE
  5
486A
  8
YODOROGO
 10
27905.604341291921
 20
1939.749496429288
 30
0.0
 11
27905.604341291921
 21
1900.5683489363
 31
0.0
1001
AUTOCAD_POSTSCRIPT_FIGURE
1002
{
1000
PSFILL
1000
Grayscale
1000
Grayscale
1070
   100
1002
}
  0
LINE
  5
486B
  8
YODOROGO
 10
27937.604341291921
 20
1939.749496429288
 30
0.0
 11
27905.604341291921
 21
1939.749496429288
 31
0.0
1001
AUTOCAD_POSTSCRIPT_FIGURE
1002
{
1000
PSFILL
1000
Grayscale
1000
Grayscale
1070
   100
1002
}
  0
LINE
  5
486C
  8
YODOROGO
 10
27937.604341291921
 20
1955.7494964292871
 30
0.0
 11
27937.604341291921
 21
1939.749496429288
 31
0.0
1001
AUTOCAD_POSTSCRIPT_FIGURE
1002
{
1000
PSFILL
1000
Grayscale
1000
Grayscale
1070
   100
1002
}
  0
LINE
  5
486D
  8
YODOROGO
 10
27905.604341291921
 20
1955.7494964292871
 30
0.0
 11
27937.604341291921
 21
1955.7494964292871
 31
0.0
1001
AUTOCAD_POSTSCRIPT_FIGURE
1002
{
1000
PSFILL
1000
Grayscale
1000
Grayscale
1070
   100
1002
}
  0
LINE
  5
486E
  8
YODOROGO
 10
27905.604341291921
 20
1979.749496429288
 30
0.0
 11
27905.604341291921
 21
1955.7494964292871
 31
0.0
1001
AUTOCAD_POSTSCRIPT_FIGURE
1002
{
1000
PSFILL
1000
Grayscale
1000
Grayscale
1070
   100
1002
}
  0
LINE
  5
486F
  8
YODOROGO
 10
27889.604341291921
 20
1979.749496429288
 30
0.0
 11
27905.604341291921
 21
1979.749496429288
 31
0.0
1001
AUTOCAD_POSTSCRIPT_FIGURE
1002
{
1000
PSFILL
1000
Grayscale
1000
Grayscale
1070
   100
1002
}
  0
LINE
  5
4870
  8
YODOROGO
 10
27889.604341291921
 20
1955.7494964292871
 30
0.0
 11
27889.604341291921
 21
1979.749496429288
 31
0.0
1001
AUTOCAD_POSTSCRIPT_FIGURE
1002
{
1000
PSFILL
1000
Grayscale
1000
Grayscale
1070
   100
1002
}
  0
LINE
  5
4871
  8
YODOROGO
 10
27865.604341291921
 20
1955.7494964292871
 30
0.0
 11
27889.604341291921
 21
1955.7494964292871
 31
0.0
1001
AUTOCAD_POSTSCRIPT_FIGURE
1002
{
1000
PSFILL
1000
Grayscale
1000
Grayscale
1070
   100
1002
}
  0
LINE
  5
4872
  8
YODOROGO
 10
27865.604341291921
 20
1979.749496429288
 30
0.0
 11
27865.604341291921
 21
1955.7494964292871
 31
0.0
1001
AUTOCAD_POSTSCRIPT_FIGURE
1002
{
1000
PSFILL
1000
Grayscale
1000
Grayscale
1070
   100
1002
}
  0
LINE
  5
4873
  8
YODOROGO
 10
27849.604341291921
 20
1979.749496429288
 30
0.0
 11
27865.604341291921
 21
1979.749496429288
 31
0.0
1001
AUTOCAD_POSTSCRIPT_FIGURE
1002
{
1000
PSFILL
1000
Grayscale
1000
Grayscale
1070
   100
1002
}
  0
LINE
  5
4874
  8
YODOROGO
 10
27849.604341291921
 20
1955.7494964292871
 30
0.0
 11
27849.604341291921
 21
1979.749496429288
 31
0.0
1001
AUTOCAD_POSTSCRIPT_FIGURE
1002
{
1000
PSFILL
1000
Grayscale
1000
Grayscale
1070
   100
1002
}
  0
LINE
  5
4875
  8
YODOROGO
 10
27817.604341291921
 20
1955.7494964292871
 30
0.0
 11
27849.604341291921
 21
1955.7494964292871
 31
0.0
1001
AUTOCAD_POSTSCRIPT_FIGURE
1002
{
1000
PSFILL
1000
Grayscale
1000
Grayscale
1070
   100
1002
}
  0
LINE
  5
4876
  8
YODOROGO
 10
27817.604341291921
 20
1979.749496429288
 30
0.0
 11
27817.604341291921
 21
1955.7494964292871
 31
0.0
1001
AUTOCAD_POSTSCRIPT_FIGURE
1002
{
1000
PSFILL
1000
Grayscale
1000
Grayscale
1070
   100
1002
}
  0
LINE
  5
4877
  8
YODOROGO
 10
27801.604341291921
 20
1979.749496429288
 30
0.0
 11
27817.604341291921
 21
1979.749496429288
 31
0.0
1001
AUTOCAD_POSTSCRIPT_FIGURE
1002
{
1000
PSFILL
1000
Grayscale
1000
Grayscale
1070
   100
1002
}
  0
LINE
  5
4878
  8
YODOROGO
 10
27801.604341291921
 20
1955.7494964292871
 30
0.0
 11
27801.604341291921
 21
1979.749496429288
 31
0.0
1001
AUTOCAD_POSTSCRIPT_FIGURE
1002
{
1000
PSFILL
1000
Grayscale
1000
Grayscale
1070
   100
1002
}
  0
LINE
  5
4879
  8
YODOROGO
 10
27777.604341291921
 20
1955.7494964292871
 30
0.0
 11
27801.604341291921
 21
1955.7494964292871
 31
0.0
1001
AUTOCAD_POSTSCRIPT_FIGURE
1002
{
1000
PSFILL
1000
Grayscale
1000
Grayscale
1070
   100
1002
}
  0
LINE
  5
487A
  8
YODOROGO
 10
27777.604341291921
 20
1939.749496429288
 30
0.0
 11
27777.604341291921
 21
1955.7494964292871
 31
0.0
1001
AUTOCAD_POSTSCRIPT_FIGURE
1002
{
1000
PSFILL
1000
Grayscale
1000
Grayscale
1070
   100
1002
}
  0
LINE
  5
487B
  8
YODOROGO
 10
27801.604341291921
 20
1939.749496429288
 30
0.0
 11
27777.604341291921
 21
1939.749496429288
 31
0.0
1001
AUTOCAD_POSTSCRIPT_FIGURE
1002
{
1000
PSFILL
1000
Grayscale
1000
Grayscale
1070
   100
1002
}
  0
LINE
  5
487C
  8
YODOROGO
 10
27801.604341291921
 20
1914.7865807937051
 30
0.0
 11
27801.604341291921
 21
1939.749496429288
 31
0.0
1001
AUTOCAD_POSTSCRIPT_FIGURE
1002
{
1000
PSFILL
1000
Grayscale
1000
Grayscale
1070
   100
1002
}
  0
LINE
  5
487D
  8
YODOROGO
 10
27777.604341291921
 20
1859.776747951671
 30
0.0
 11
27801.604341291921
 21
1914.7865807937051
 31
0.0
1001
AUTOCAD_POSTSCRIPT_FIGURE
1002
{
1000
PSFILL
1000
Grayscale
1000
Grayscale
1070
   100
1002
}
  0
LINE
  5
487E
  8
YODOROGO
 10
27777.604341291921
 20
1843.776747951672
 30
0.0
 11
27777.604341291921
 21
1859.776747951671
 31
0.0
1001
AUTOCAD_POSTSCRIPT_FIGURE
1002
{
1000
PSFILL
1000
Grayscale
1000
Grayscale
1070
   100
1002
}
  0
LINE
  5
487F
  8
YODOROGO
 10
28257.604341291921
 20
1867.7494964292871
 30
0.0
 11
28401.60434129191
 21
1824.877625640306
 31
0.0
1001
AUTOCAD_POSTSCRIPT_FIGURE
1002
{
1000
PSFILL
1000
Grayscale
1000
Grayscale
1070
   100
1002
}
  0
LINE
  5
4880
  8
YODOROGO
 10
28401.60434129191
 20
1752.877625640306
 30
0.0
 11
28257.604341291921
 21
1795.7494964292871
 31
0.0
1001
AUTOCAD_POSTSCRIPT_FIGURE
1002
{
1000
PSFILL
1000
Grayscale
1000
Grayscale
1070
   100
1002
}
  0
LINE
  5
4881
  8
YODOROGO
 10
28401.60434129191
 20
1984.877625640305
 30
0.0
 11
28257.604341291921
 21
2027.749496429288
 31
0.0
1001
AUTOCAD_POSTSCRIPT_FIGURE
1002
{
1000
PSFILL
1000
Grayscale
1000
Grayscale
1070
   100
1002
}
  0
LINE
  5
4882
  8
YODOROGO
 10
28257.604341291921
 20
1959.749496429288
 30
0.0
 11
28401.60434129191
 21
1916.8776256403071
 31
0.0
1001
AUTOCAD_POSTSCRIPT_FIGURE
1002
{
1000
PSFILL
1000
Grayscale
1000
Grayscale
1070
   100
1002
}
  0
LINE
  5
4883
  8
YODOROGO
 10
28257.604341291921
 20
1795.7494964292871
 30
0.0
 11
28257.604341291921
 21
1867.7494964292871
 31
0.0
1001
AUTOCAD_POSTSCRIPT_FIGURE
1002
{
1000
PSFILL
1000
Grayscale
1000
Grayscale
1070
   100
1002
}
  0
LINE
  5
4884
  8
YODOROGO
 10
28257.604341291921
 20
2027.749496429288
 30
0.0
 11
28257.604341291921
 21
1959.749496429288
 31
0.0
1001
AUTOCAD_POSTSCRIPT_FIGURE
1002
{
1000
PSFILL
1000
Grayscale
1000
Grayscale
1070
   100
1002
}
  0
LINE
  5
4885
  8
YODOROGO
 10
28080.236320206739
 20
1939.749496429288
 30
0.0
 11
28129.60434129191
 21
1747.749496429286
 31
0.0
1001
AUTOCAD_POSTSCRIPT_FIGURE
1002
{
1000
PSFILL
1000
Grayscale
1000
Grayscale
1070
   100
1002
}
  0
LINE
  5
4886
  8
YODOROGO
 10
27977.604341291921
 20
1939.749496429288
 30
0.0
 11
28080.236320206739
 21
1939.749496429288
 31
0.0
1001
AUTOCAD_POSTSCRIPT_FIGURE
1002
{
1000
PSFILL
1000
Grayscale
1000
Grayscale
1070
   100
1002
}
  0
LINE
  5
4887
  8
YODOROGO
 10
27977.604341291921
 20
1955.7494964292871
 30
0.0
 11
27977.604341291921
 21
1939.749496429288
 31
0.0
1001
AUTOCAD_POSTSCRIPT_FIGURE
1002
{
1000
PSFILL
1000
Grayscale
1000
Grayscale
1070
   100
1002
}
  0
LINE
  5
4888
  8
YODOROGO
 10
28076.60687851991
 20
1955.7494964292871
 30
0.0
 11
27977.604341291921
 21
1955.7494964292871
 31
0.0
1001
AUTOCAD_POSTSCRIPT_FIGURE
1002
{
1000
PSFILL
1000
Grayscale
1000
Grayscale
1070
   100
1002
}
  0
LINE
  5
4889
  8
YODOROGO
 10
28071.162715989711
 20
1979.749496429288
 30
0.0
 11
28076.60687851991
 21
1955.7494964292871
 31
0.0
1001
AUTOCAD_POSTSCRIPT_FIGURE
1002
{
1000
PSFILL
1000
Grayscale
1000
Grayscale
1070
   100
1002
}
  0
LINE
  5
488A
  8
YODOROGO
 10
28091.162715989711
 20
1979.749496429288
 30
0.0
 11
28071.162715989711
 21
1979.749496429288
 31
0.0
1001
AUTOCAD_POSTSCRIPT_FIGURE
1002
{
1000
PSFILL
1000
Grayscale
1000
Grayscale
1070
   100
1002
}
  0
LINE
  5
488B
  8
YODOROGO
 10
28095.806878519939
 20
1955.7494964292871
 30
0.0
 11
28091.162715989711
 21
1979.749496429288
 31
0.0
1001
AUTOCAD_POSTSCRIPT_FIGURE
1002
{
1000
PSFILL
1000
Grayscale
1000
Grayscale
1070
   100
1002
}
  0
LINE
  5
488C
  8
YODOROGO
 10
28121.604341291921
 20
1955.7494964292871
 30
0.0
 11
28095.806878519939
 21
1955.7494964292871
 31
0.0
1001
AUTOCAD_POSTSCRIPT_FIGURE
1002
{
1000
PSFILL
1000
Grayscale
1000
Grayscale
1070
   100
1002
}
  0
LINE
  5
488D
  8
YODOROGO
 10
28121.604341291921
 20
1979.749496429288
 30
0.0
 11
28121.604341291921
 21
1955.7494964292871
 31
0.0
1001
AUTOCAD_POSTSCRIPT_FIGURE
1002
{
1000
PSFILL
1000
Grayscale
1000
Grayscale
1070
   100
1002
}
  0
LINE
  5
488E
  8
YODOROGO
 10
28137.604341291921
 20
1979.749496429288
 30
0.0
 11
28121.604341291921
 21
1979.749496429288
 31
0.0
1001
AUTOCAD_POSTSCRIPT_FIGURE
1002
{
1000
PSFILL
1000
Grayscale
1000
Grayscale
1070
   100
1002
}
  0
LINE
  5
488F
  8
YODOROGO
 10
28137.604341291921
 20
1955.7494964292871
 30
0.0
 11
28137.604341291921
 21
1979.749496429288
 31
0.0
1001
AUTOCAD_POSTSCRIPT_FIGURE
1002
{
1000
PSFILL
1000
Grayscale
1000
Grayscale
1070
   100
1002
}
  0
LINE
  5
4890
  8
YODOROGO
 10
28137.604341291921
 20
1939.749496429288
 30
0.0
 11
28137.604341291921
 21
1955.7494964292871
 31
0.0
1001
AUTOCAD_POSTSCRIPT_FIGURE
1002
{
1000
PSFILL
1000
Grayscale
1000
Grayscale
1070
   100
1002
}
  0
LINE
  5
4891
  8
YODOROGO
 10
28098.902986873411
 20
1939.749496429288
 30
0.0
 11
28137.604341291921
 21
1939.749496429288
 31
0.0
1001
AUTOCAD_POSTSCRIPT_FIGURE
1002
{
1000
PSFILL
1000
Grayscale
1000
Grayscale
1070
   100
1002
}
  0
LINE
  5
4892
  8
YODOROGO
 10
28137.604341291921
 20
1747.749496429286
 30
0.0
 11
28098.902986873411
 21
1939.749496429288
 31
0.0
1001
AUTOCAD_POSTSCRIPT_FIGURE
1002
{
1000
PSFILL
1000
Grayscale
1000
Grayscale
1070
   100
1002
}
  0
LINE
  5
4893
  8
YODOROGO
 10
28129.60434129191
 20
1747.749496429286
 30
0.0
 11
28137.604341291921
 21
1747.749496429286
 31
0.0
1001
AUTOCAD_POSTSCRIPT_FIGURE
1002
{
1000
PSFILL
1000
Grayscale
1000
Grayscale
1070
   100
1002
}
  0
LINE
  5
4894
  8
YODOROGO
 10
28078.069219933801
 20
1775.7407762987939
 30
0.0
 11
27977.604341291921
 21
1747.749496429286
 31
0.0
  0
LINE
  5
4895
  8
YODOROGO
 10
28078.069219933801
 20
1798.6689795290731
 30
0.0
 11
28078.069219933801
 21
1775.7407762987939
 31
0.0
  0
LINE
  5
4896
  8
YODOROGO
 10
28033.83678061287
 20
1786.816933133767
 30
0.0
 11
28078.069219933801
 21
1798.6689795290731
 31
0.0
  0
LINE
  5
4897
  8
YODOROGO
 10
28033.83678061287
 20
1872.5683489362989
 30
0.0
 11
28033.83678061287
 21
1786.816933133767
 31
0.0
  0
LINE
  5
4898
  8
YODOROGO
 10
28078.069219933801
 20
1872.5683489362989
 30
0.0
 11
28033.83678061287
 21
1872.5683489362989
 31
0.0
  0
LINE
  5
4899
  8
YODOROGO
 10
28078.069219933801
 20
1892.568348936298
 30
0.0
 11
28078.069219933801
 21
1872.5683489362989
 31
0.0
  0
LINE
  5
489A
  8
YODOROGO
 10
27977.604341291921
 20
1892.568348936298
 30
0.0
 11
28078.069219933801
 21
1892.568348936298
 31
0.0
  0
LINE
  5
489B
  8
YODOROGO
 10
27977.604341291921
 20
1872.5683489362989
 30
0.0
 11
27977.604341291921
 21
1892.568348936298
 31
0.0
  0
LINE
  5
489C
  8
YODOROGO
 10
28021.836780612852
 20
1872.5683489362989
 30
0.0
 11
27977.604341291921
 21
1872.5683489362989
 31
0.0
  0
LINE
  5
489D
  8
YODOROGO
 10
28021.836780612852
 20
1784.673339594317
 30
0.0
 11
28021.836780612852
 21
1872.5683489362989
 31
0.0
  0
LINE
  5
489E
  8
YODOROGO
 10
27977.604341291921
 20
1771.749496429286
 30
0.0
 11
28021.836780612852
 21
1784.673339594317
 31
0.0
  0
LINE
  5
489F
  8
YODOROGO
 10
27977.604341291921
 20
1747.749496429286
 30
0.0
 11
27977.604341291921
 21
1771.749496429286
 31
0.0
  0
LINE
  5
48A0
  8
YODOROGO
 10
28001.604341291921
 20
1707.749496429288
 30
0.0
 11
28001.604341291921
 21
1683.7494964292871
 31
0.0
  0
LINE
  5
48A1
  8
YODOROGO
 10
28017.604341291921
 20
1707.749496429288
 30
0.0
 11
28001.604341291921
 21
1707.749496429288
 31
0.0
  0
LINE
  5
48A2
  8
YODOROGO
 10
28017.604341291921
 20
1683.7494964292871
 30
0.0
 11
28017.604341291921
 21
1707.749496429288
 31
0.0
  0
LINE
  5
48A3
  8
YODOROGO
 10
28040.913204016892
 20
1683.7494964292871
 30
0.0
 11
28017.604341291921
 21
1683.7494964292871
 31
0.0
  0
LINE
  5
48A4
  8
YODOROGO
 10
28001.604341291921
 20
1683.7494964292871
 30
0.0
 11
27977.604341291921
 21
1683.7494964292871
 31
0.0
  0
LINE
  5
48A5
  8
YODOROGO
 10
28082.135520230921
 20
1707.749496429288
 30
0.0
 11
28098.135520230931
 21
1707.749496429288
 31
0.0
1001
AUTOCAD_POSTSCRIPT_FIGURE
1002
{
1000
PSFILL
1000
Grayscale
1000
Grayscale
1070
   100
1002
}
  0
LINE
  5
48A6
  8
YODOROGO
 10
28401.60434129191
 20
1824.877625640306
 30
0.0
 11
28401.60434129191
 21
1752.877625640306
 31
0.0
1001
AUTOCAD_POSTSCRIPT_FIGURE
1002
{
1000
PSFILL
1000
Grayscale
1000
Grayscale
1070
   100
1002
}
  0
LINE
  5
48A7
  8
YODOROGO
 10
28401.60434129191
 20
1916.8776256403071
 30
0.0
 11
28401.60434129191
 21
1984.877625640305
 31
0.0
1001
AUTOCAD_POSTSCRIPT_FIGURE
1002
{
1000
PSFILL
1000
Grayscale
1000
Grayscale
1070
   100
1002
}
  0
LINE
  5
48A8
  8
YODOROGO
 10
28433.60434129191
 20
1819.7494964292871
 30
0.0
 11
28433.60434129191
 21
1747.74949642929
 31
0.0
  0
LINE
  5
48A9
  8
YODOROGO
 10
28497.60434129191
 20
1707.749496429288
 30
0.0
 11
28433.60434129191
 21
1707.749496429288
 31
0.0
  0
LINE
  5
48AA
  8
YODOROGO
 10
28433.60434129191
 20
1747.74949642929
 30
0.0
 11
28585.604341291921
 21
1747.74949642929
 31
0.0
  0
LINE
  5
48AB
  8
YODOROGO
 10
28497.60434129191
 20
1867.7494964292871
 30
0.0
 11
28433.60434129191
 21
1867.7494964292871
 31
0.0
  0
LINE
  5
48AC
  8
YODOROGO
 10
28497.60434129191
 20
1923.7494964292871
 30
0.0
 11
28497.60434129191
 21
1867.7494964292871
 31
0.0
  0
LINE
  5
48AD
  8
YODOROGO
 10
28585.604341291921
 20
1987.7494964292871
 30
0.0
 11
28585.604341291921
 21
2027.749496429288
 31
0.0
  0
LINE
  5
48AE
  8
YODOROGO
 10
28433.60434129191
 20
1987.7494964292871
 30
0.0
 11
28585.604341291921
 21
1987.7494964292871
 31
0.0
  0
LINE
  5
48AF
  8
YODOROGO
 10
28433.60434129191
 20
1867.7494964292871
 30
0.0
 11
28433.60434129191
 21
1987.7494964292871
 31
0.0
  0
LINE
  5
48B0
  8
YODOROGO
 10
29001.60434129191
 20
2027.749496429288
 30
0.0
 11
29001.60434129191
 21
1619.749496429288
 31
0.0
  0
LINE
  5
48B1
  8
YODOROGO
 10
29073.604341291921
 20
1579.749496429288
 30
0.0
 11
29073.604341291921
 21
2027.749496429288
 31
0.0
  0
LINE
  5
48B2
  8
YODOROGO
 10
29261.604341291921
 20
1491.749496429286
 30
0.0
 11
29261.604341291921
 21
2007.749496429288
 31
0.0
  0
LINE
  5
48B3
  8
YODOROGO
 10
29197.604341291921
 20
2007.749496429288
 30
0.0
 11
29197.604341291921
 21
1491.749496429286
 31
0.0
  0
LINE
  5
48B4
  8
YODOROGO
 10
29385.604341291921
 20
2027.749496429288
 30
0.0
 11
29385.604341291921
 21
1427.749496429288
 31
0.0
  0
LINE
  5
48B5
  8
YODOROGO
 10
29457.604341291921
 20
1427.749496429288
 30
0.0
 11
29457.604341291921
 21
2027.749496429288
 31
0.0
  0
LINE
  5
48B6
  8
YODOROGO
 10
28657.604341291921
 20
1667.749496429288
 30
0.0
 11
28657.604341291921
 21
1747.74949642929
 31
0.0
  0
LINE
  5
48B7
  8
YODOROGO
 10
29885.604341291921
 20
1707.749496429288
 30
0.0
 11
29885.604341291921
 21
1667.749496429288
 31
0.0
  0
LINE
  5
48B8
  8
YODOROGO
 10
29885.604341291921
 20
1707.749496429288
 30
0.0
 11
29885.604341291921
 21
1667.749496429288
 31
0.0
  0
ARC
  5
48B9
  8
YODOROGO
 10
28906.911576186842
 20
1618.217864442272
 30
0.0
 40
94.705151178741616
 50
274.05244162907093
 51
0.9266642149310712
  0
ARC
  5
48BA
  8
YODOROGO
 10
28909.186170719819
 20
1592.61072861044
 30
0.0
 40
164.92042356085511
 50
271.5351210653775
 51
355.52727750585052
  0
LINE
  5
48BB
  8
YODOROGO
 10
28913.604341291921
 20
1523.7494964292871
 30
0.0
 11
28913.604341291921
 21
1427.749496429288
 31
0.0
  0
LINE
  5
48BC
  8
YODOROGO
 10
28793.60434129191
 20
1667.749496429288
 30
0.0
 11
28657.604341291921
 21
1667.749496429288
 31
0.0
  0
LINE
  5
48BD
  8
YODOROGO
 10
28793.60434129191
 20
1603.7494964292871
 30
0.0
 11
28793.60434129191
 21
1667.749496429288
 31
0.0
  0
LINE
  5
48BE
  8
YODOROGO
 10
28657.604341291921
 20
1603.7494964292871
 30
0.0
 11
28793.60434129191
 21
1603.7494964292871
 31
0.0
  0
LINE
  5
48BF
  8
YODOROGO
 10
28657.604341291921
 20
1523.7494964292871
 30
0.0
 11
28657.604341291921
 21
1603.7494964292871
 31
0.0
  0
LINE
  5
48C0
  8
YODOROGO
 10
28793.60434129191
 20
1523.7494964292871
 30
0.0
 11
28657.604341291921
 21
1523.7494964292871
 31
0.0
  0
LINE
  5
48C1
  8
YODOROGO
 10
28793.60434129191
 20
1427.749496429288
 30
0.0
 11
28793.60434129191
 21
1523.7494964292871
 31
0.0
  0
LINE
  5
48C2
  8
YODOROGO
 10
29197.604341291921
 20
1491.749496429286
 30
0.0
 11
29261.604341291921
 21
1491.749496429286
 31
0.0
  0
LINE
  5
48C3
  8
YODOROGO
 10
29385.604341291921
 20
1427.749496429288
 30
0.0
 11
29457.604341291921
 21
1427.749496429288
 31
0.0
  0
LINE
  5
48C4
  8
YODOROGO
 10
29737.604341291921
 20
1528.4414521705639
 30
0.0
 11
29737.604341291921
 21
1427.749496429288
 31
0.0
  0
LINE
  5
48C5
  8
YODOROGO
 10
29617.604341291921
 20
1427.749496429288
 30
0.0
 11
29737.604341291921
 21
1528.4414521705639
 31
0.0
  0
LINE
  5
48C6
  8
YODOROGO
 10
29617.604341291921
 20
1547.749496429288
 30
0.0
 11
29617.604341291921
 21
1427.749496429288
 31
0.0
  0
LINE
  5
48C7
  8
YODOROGO
 10
29712.94462869945
 20
1627.749496429288
 30
0.0
 11
29617.604341291921
 21
1547.749496429288
 31
0.0
  0
LINE
  5
48C8
  8
YODOROGO
 10
29617.604341291921
 20
1627.749496429288
 30
0.0
 11
29712.94462869945
 21
1627.749496429288
 31
0.0
  0
LINE
  5
48C9
  8
YODOROGO
 10
29617.604341291921
 20
1667.749496429288
 30
0.0
 11
29617.604341291921
 21
1627.749496429288
 31
0.0
  0
LINE
  5
48CA
  8
YODOROGO
 10
29885.604341291921
 20
1667.749496429288
 30
0.0
 11
29617.604341291921
 21
1667.749496429288
 31
0.0
  0
LINE
  5
48CB
  8
YODOROGO
 10
29917.604341291921
 20
1627.749496429288
 30
0.0
 11
29777.604341291921
 21
1627.749496429288
 31
0.0
  0
LINE
  5
48CC
  8
YODOROGO
 10
29777.604341291921
 20
1562.0054374176559
 30
0.0
 11
29771.409872985321
 21
1556.807661346234
 31
0.0
  0
LINE
  5
48CD
  8
YODOROGO
 10
29777.604341291921
 20
1627.749496429288
 30
0.0
 11
29777.604341291921
 21
1562.0054374176559
 31
0.0
  0
LINE
  5
48CE
  8
YODOROGO
 10
29737.604341291921
 20
1528.4414521705639
 30
0.0
 11
29737.604341291921
 21
1427.749496429288
 31
0.0
  0
LINE
  5
48CF
  8
YODOROGO
 10
29617.604341291921
 20
1427.749496429288
 30
0.0
 11
29737.604341291921
 21
1528.4414521705639
 31
0.0
  0
LINE
  5
48D0
  8
YODOROGO
 10
29617.604341291921
 20
1547.749496429288
 30
0.0
 11
29617.604341291921
 21
1427.749496429288
 31
0.0
  0
LINE
  5
48D1
  8
YODOROGO
 10
29712.94462869945
 20
1627.749496429288
 30
0.0
 11
29617.604341291921
 21
1547.749496429288
 31
0.0
  0
LINE
  5
48D2
  8
YODOROGO
 10
29617.604341291921
 20
1627.749496429288
 30
0.0
 11
29712.94462869945
 21
1627.749496429288
 31
0.0
  0
LINE
  5
48D3
  8
YODOROGO
 10
29617.604341291921
 20
1667.749496429288
 30
0.0
 11
29617.604341291921
 21
1627.749496429288
 31
0.0
  0
LINE
  5
48D4
  8
YODOROGO
 10
29885.604341291921
 20
1667.749496429288
 30
0.0
 11
29617.604341291921
 21
1667.749496429288
 31
0.0
  0
LINE
  5
48D5
  8
YODOROGO
 10
28793.60434129191
 20
1747.74949642929
 30
0.0
 11
28793.60434129191
 21
1819.7494964292871
 31
0.0
  0
LINE
  5
48D6
  8
YODOROGO
 10
28657.604341291921
 20
1747.74949642929
 30
0.0
 11
28793.60434129191
 21
1747.74949642929
 31
0.0
  0
LINE
  5
48D7
  8
YODOROGO
 10
28729.604341291921
 20
1867.7494964292871
 30
0.0
 11
28729.604341291921
 21
1923.7494964292871
 31
0.0
  0
LINE
  5
48D8
  8
YODOROGO
 10
28793.60434129191
 20
1867.7494964292871
 30
0.0
 11
28729.604341291921
 21
1867.7494964292871
 31
0.0
  0
LINE
  5
48D9
  8
YODOROGO
 10
28793.60434129191
 20
1947.749496429288
 30
0.0
 11
28793.60434129191
 21
1867.7494964292871
 31
0.0
  0
ARC
  5
48DA
  8
YODOROGO
 10
28753.60434129191
 20
1947.749496429288
 30
0.0
 40
40.0
 50
0.0
 51
90.0
  0
LINE
  5
48DB
  8
YODOROGO
 10
28657.604341291921
 20
1987.7494964292871
 30
0.0
 11
28753.60434129191
 21
1987.7494964292871
 31
0.0
  0
LINE
  5
48DC
  8
YODOROGO
 10
28657.604341291921
 20
2027.749496429288
 30
0.0
 11
28657.604341291921
 21
1987.7494964292871
 31
0.0
  0
LINE
  5
48DD
  8
YODOROGO
 10
29073.604341291921
 20
2027.749496429288
 30
0.0
 11
29001.60434129191
 21
2027.749496429288
 31
0.0
  0
LINE
  5
48DE
  8
YODOROGO
 10
29261.604341291921
 20
2007.749496429288
 30
0.0
 11
29197.604341291921
 21
2007.749496429288
 31
0.0
  0
LINE
  5
48DF
  8
YODOROGO
 10
29457.604341291921
 20
2027.749496429288
 30
0.0
 11
29385.604341291921
 21
2027.749496429288
 31
0.0
  0
LINE
  5
48E0
  8
YODOROGO
 10
29673.604341291921
 20
1707.749496429288
 30
0.0
 11
29673.604341291921
 21
1771.7494964292871
 31
0.0
1001
AUTOCAD_POSTSCRIPT_FIGURE
1002
{
1000
PSFILL
1000
Grayscale
1000
Grayscale
1070
    25
1002
}
  0
LINE
  5
48E1
  8
YODOROGO
 10
29617.604341291921
 20
1707.749496429288
 30
0.0
 11
29673.604341291921
 21
1707.749496429288
 31
0.0
1001
AUTOCAD_POSTSCRIPT_FIGURE
1002
{
1000
PSFILL
1000
Grayscale
1000
Grayscale
1070
    25
1002
}
  0
LINE
  5
48E2
  8
YODOROGO
 10
29617.604341291921
 20
1819.7494964292871
 30
0.0
 11
29617.604341291921
 21
1707.749496429288
 31
0.0
1001
AUTOCAD_POSTSCRIPT_FIGURE
1002
{
1000
PSFILL
1000
Grayscale
1000
Grayscale
1070
    25
1002
}
  0
LINE
  5
48E3
  8
YODOROGO
 10
29765.604341291921
 20
1819.7494964292871
 30
0.0
 11
29617.604341291921
 21
1819.7494964292871
 31
0.0
1001
AUTOCAD_POSTSCRIPT_FIGURE
1002
{
1000
PSFILL
1000
Grayscale
1000
Grayscale
1070
    25
1002
}
  0
LINE
  5
48E4
  8
YODOROGO
 10
29765.604341291921
 20
1859.7494964292871
 30
0.0
 11
29765.604341291921
 21
1819.7494964292871
 31
0.0
1001
AUTOCAD_POSTSCRIPT_FIGURE
1002
{
1000
PSFILL
1000
Grayscale
1000
Grayscale
1070
    25
1002
}
  0
LINE
  5
48E5
  8
YODOROGO
 10
29617.604341291921
 20
1859.7494964292871
 30
0.0
 11
29765.604341291921
 21
1859.7494964292871
 31
0.0
1001
AUTOCAD_POSTSCRIPT_FIGURE
1002
{
1000
PSFILL
1000
Grayscale
1000
Grayscale
1070
    25
1002
}
  0
LINE
  5
48E6
  8
YODOROGO
 10
29617.604341291921
 20
1907.7494964292871
 30
0.0
 11
29617.604341291921
 21
1859.7494964292871
 31
0.0
1001
AUTOCAD_POSTSCRIPT_FIGURE
1002
{
1000
PSFILL
1000
Grayscale
1000
Grayscale
1070
    25
1002
}
  0
LINE
  5
48E7
  8
YODOROGO
 10
29765.604341291921
 20
1907.7494964292871
 30
0.0
 11
29617.604341291921
 21
1907.7494964292871
 31
0.0
1001
AUTOCAD_POSTSCRIPT_FIGURE
1002
{
1000
PSFILL
1000
Grayscale
1000
Grayscale
1070
    25
1002
}
  0
LINE
  5
48E8
  8
YODOROGO
 10
29765.604341291921
 20
1947.749496429288
 30
0.0
 11
29765.604341291921
 21
1907.7494964292871
 31
0.0
1001
AUTOCAD_POSTSCRIPT_FIGURE
1002
{
1000
PSFILL
1000
Grayscale
1000
Grayscale
1070
    25
1002
}
  0
LINE
  5
48E9
  8
YODOROGO
 10
29617.604341291921
 20
1947.749496429288
 30
0.0
 11
29765.604341291921
 21
1947.749496429288
 31
0.0
1001
AUTOCAD_POSTSCRIPT_FIGURE
1002
{
1000
PSFILL
1000
Grayscale
1000
Grayscale
1070
    25
1002
}
  0
LINE
  5
48EA
  8
YODOROGO
 10
29617.604341291921
 20
2027.749496429288
 30
0.0
 11
29617.604341291921
 21
1947.749496429288
 31
0.0
1001
AUTOCAD_POSTSCRIPT_FIGURE
1002
{
1000
PSFILL
1000
Grayscale
1000
Grayscale
1070
    25
1002
}
  0
LINE
  5
48EB
  8
YODOROGO
 10
29665.604341291921
 20
2027.749496429288
 30
0.0
 11
29617.604341291921
 21
2027.749496429288
 31
0.0
1001
AUTOCAD_POSTSCRIPT_FIGURE
1002
{
1000
PSFILL
1000
Grayscale
1000
Grayscale
1070
    25
1002
}
  0
LINE
  5
48EC
  8
YODOROGO
 10
29665.604341291921
 20
1995.7494964292871
 30
0.0
 11
29665.604341291921
 21
2027.749496429288
 31
0.0
1001
AUTOCAD_POSTSCRIPT_FIGURE
1002
{
1000
PSFILL
1000
Grayscale
1000
Grayscale
1070
    25
1002
}
  0
LINE
  5
48ED
  8
YODOROGO
 10
29765.604341291921
 20
1995.7494964292871
 30
0.0
 11
29665.604341291921
 21
1995.7494964292871
 31
0.0
1001
AUTOCAD_POSTSCRIPT_FIGURE
1002
{
1000
PSFILL
1000
Grayscale
1000
Grayscale
1070
    25
1002
}
  0
LINE
  5
48EE
  8
YODOROGO
 10
29765.604341291921
 20
2027.749496429288
 30
0.0
 11
29765.604341291921
 21
1995.7494964292871
 31
0.0
1001
AUTOCAD_POSTSCRIPT_FIGURE
1002
{
1000
PSFILL
1000
Grayscale
1000
Grayscale
1070
    25
1002
}
  0
LINE
  5
48EF
  8
YODOROGO
 10
29829.604341291921
 20
2027.749496429288
 30
0.0
 11
29765.604341291921
 21
2027.749496429288
 31
0.0
1001
AUTOCAD_POSTSCRIPT_FIGURE
1002
{
1000
PSFILL
1000
Grayscale
1000
Grayscale
1070
    25
1002
}
  0
LINE
  5
48F0
  8
YODOROGO
 10
29829.604341291921
 20
1995.7494964292871
 30
0.0
 11
29829.604341291921
 21
2027.749496429288
 31
0.0
1001
AUTOCAD_POSTSCRIPT_FIGURE
1002
{
1000
PSFILL
1000
Grayscale
1000
Grayscale
1070
    25
1002
}
  0
LINE
  5
48F1
  8
YODOROGO
 10
29829.604341291921
 20
1907.7494964292871
 30
0.0
 11
29829.604341291921
 21
1947.749496429288
 31
0.0
1001
AUTOCAD_POSTSCRIPT_FIGURE
1002
{
1000
PSFILL
1000
Grayscale
1000
Grayscale
1070
    25
1002
}
  0
LINE
  5
48F2
  8
YODOROGO
 10
29829.604341291921
 20
1819.7494964292871
 30
0.0
 11
29829.604341291921
 21
1859.7494964292871
 31
0.0
1001
AUTOCAD_POSTSCRIPT_FIGURE
1002
{
1000
PSFILL
1000
Grayscale
1000
Grayscale
1070
    25
1002
}
  0
LINE
  5
48F3
  8
YODOROGO
 10
29921.60434129191
 20
1771.7494964292871
 30
0.0
 11
29921.60434129191
 21
1707.749496429288
 31
0.0
1001
AUTOCAD_POSTSCRIPT_FIGURE
1002
{
1000
PSFILL
1000
Grayscale
1000
Grayscale
1070
    25
1002
}
  0
LINE
  5
48F4
  8
YODOROGO
 10
29829.604341291921
 20
1771.7494964292871
 30
0.0
 11
29921.60434129191
 21
1771.7494964292871
 31
0.0
1001
AUTOCAD_POSTSCRIPT_FIGURE
1002
{
1000
PSFILL
1000
Grayscale
1000
Grayscale
1070
    25
1002
}
  0
LINE
  5
48F5
  8
YODOROGO
 10
29829.604341291921
 20
1707.749496429288
 30
0.0
 11
29829.604341291921
 21
1771.7494964292871
 31
0.0
1001
AUTOCAD_POSTSCRIPT_FIGURE
1002
{
1000
PSFILL
1000
Grayscale
1000
Grayscale
1070
    25
1002
}
  0
LINE
  5
48F6
  8
YODOROGO
 10
29765.604341291921
 20
1707.749496429288
 30
0.0
 11
29829.604341291921
 21
1707.749496429288
 31
0.0
1001
AUTOCAD_POSTSCRIPT_FIGURE
1002
{
1000
PSFILL
1000
Grayscale
1000
Grayscale
1070
    25
1002
}
  0
LINE
  5
48F7
  8
YODOROGO
 10
29765.604341291921
 20
1771.7494964292871
 30
0.0
 11
29765.604341291921
 21
1707.749496429288
 31
0.0
1001
AUTOCAD_POSTSCRIPT_FIGURE
1002
{
1000
PSFILL
1000
Grayscale
1000
Grayscale
1070
    25
1002
}
  0
LINE
  5
48F8
  8
YODOROGO
 10
29673.604341291921
 20
1771.7494964292871
 30
0.0
 11
29765.604341291921
 21
1771.7494964292871
 31
0.0
1001
AUTOCAD_POSTSCRIPT_FIGURE
1002
{
1000
PSFILL
1000
Grayscale
1000
Grayscale
1070
    25
1002
}
  0
ARC
  5
48F9
  8
YODOROGO
 10
31059.517893357912
 20
1602.6807375155761
 30
0.0
 40
178.22128111072141
 50
281.02627495425338
 51
357.77113575573799
  0
LINE
  5
48FA
  8
YODOROGO
 10
31413.604341291921
 20
1907.7494964292871
 30
0.0
 11
31165.604341291921
 21
1907.7494964292871
 31
0.0
  0
LINE
  5
48FB
  8
YODOROGO
 10
31413.604341291921
 20
2027.749496429288
 30
0.0
 11
31165.604341291921
 21
2027.749496429288
 31
0.0
  0
LINE
  5
48FC
  8
YODOROGO
 10
31165.604341291921
 20
1963.749496429286
 30
0.0
 11
31413.604341291921
 21
1963.749496429286
 31
0.0
  0
LINE
  5
48FD
  8
YODOROGO
 10
30791.604341291921
 20
1563.7494964292871
 30
0.0
 11
30791.604341291921
 21
1755.7494964292871
 31
0.0
  0
LINE
  5
48FE
  8
YODOROGO
 10
30763.604341291921
 20
1691.749496429288
 30
0.0
 11
30763.604341291921
 21
1563.7494964292871
 31
0.0
  0
LINE
  5
48FF
  8
YODOROGO
 10
30723.604341291921
 20
1491.749496429288
 30
0.0
 11
30723.604341291921
 21
1691.749496429288
 31
0.0
  0
LINE
  5
4900
  8
YODOROGO
 10
30899.604341291932
 20
1691.749496429288
 30
0.0
 11
30899.604341291932
 21
1491.749496429288
 31
0.0
  0
LINE
  5
4901
  8
YODOROGO
 10
30859.604341291932
 20
1563.7494964292871
 30
0.0
 11
30859.604341291932
 21
1691.749496429288
 31
0.0
  0
LINE
  5
4902
  8
YODOROGO
 10
30831.604341291921
 20
1755.7494964292871
 30
0.0
 11
30831.604341291921
 21
1563.7494964292871
 31
0.0
  0
LINE
  5
4903
  8
YODOROGO
 10
30973.604341291921
 20
2027.749496429288
 30
0.0
 11
30973.604341291921
 21
1467.749496429288
 31
0.0
  0
LINE
  5
4904
  8
YODOROGO
 10
30645.604341291921
 20
1427.749496429288
 30
0.0
 11
30645.604341291921
 21
2027.749496429288
 31
0.0
  0
LINE
  5
4905
  8
YODOROGO
 10
30697.604341291932
 20
1963.749496429286
 30
0.0
 11
30697.604341291932
 21
1427.749496429288
 31
0.0
  0
LINE
  5
4906
  8
YODOROGO
 10
30925.604341291921
 20
1547.749496429288
 30
0.0
 11
30925.604341291921
 21
1963.749496429286
 31
0.0
  0
LINE
  5
4907
  8
YODOROGO
 10
30381.604341291932
 20
1627.749496429288
 30
0.0
 11
30381.604341291932
 21
1679.749496429288
 31
0.0
  0
LINE
  5
4908
  8
YODOROGO
 10
30617.604341291921
 20
1679.749496429288
 30
0.0
 11
30617.604341291921
 21
1627.749496429288
 31
0.0
  0
LINE
  5
4909
  8
YODOROGO
 10
31165.604341291921
 20
1907.7494964292871
 30
0.0
 11
31165.604341291921
 21
1635.7494964292871
 31
0.0
  0
LINE
  5
490A
  8
YODOROGO
 10
29949.60434129191
 20
1667.749496429288
 30
0.0
 11
29949.60434129191
 21
1707.749496429288
 31
0.0
  0
LINE
  5
490B
  8
YODOROGO
 10
29949.60434129191
 20
1667.749496429288
 30
0.0
 11
29949.60434129191
 21
1707.749496429288
 31
0.0
  0
ARC
  5
490C
  8
YODOROGO
 10
30537.604341291921
 20
1507.749496429288
 30
0.0
 40
80.0
 50
270.0
 51
0.0
  0
LINE
  5
490D
  8
YODOROGO
 10
30569.604341291921
 20
1599.7494964292871
 30
0.0
 11
30617.604341291921
 21
1599.7494964292871
 31
0.0
  0
LINE
  5
490E
  8
YODOROGO
 10
30617.604341291921
 20
1627.749496429288
 30
0.0
 11
30529.604341291939
 21
1627.749496429288
 31
0.0
  0
LINE
  5
490F
  8
YODOROGO
 10
30217.604341291921
 20
1667.749496429288
 30
0.0
 11
29949.60434129191
 21
1667.749496429288
 31
0.0
  0
LINE
  5
4910
  8
YODOROGO
 10
30217.604341291921
 20
1627.749496429288
 30
0.0
 11
30217.604341291921
 21
1667.749496429288
 31
0.0
  0
LINE
  5
4911
  8
YODOROGO
 10
30017.604341291921
 20
1627.749496429288
 30
0.0
 11
30217.604341291921
 21
1627.749496429288
 31
0.0
  0
ARC
  5
4912
  8
YODOROGO
 10
30230.05882870136
 20
1868.885714952901
 30
0.0
 40
321.37763628522822
 50
228.61814546189939
 51
245.660289248906
  0
LINE
  5
4913
  8
YODOROGO
 10
30105.604341291921
 20
1603.7494964292871
 30
0.0
 11
30097.60434129195
 21
1576.0728158699001
 31
0.0
  0
LINE
  5
4914
  8
YODOROGO
 10
30189.604341291921
 20
1603.7494964292871
 30
0.0
 11
30105.604341291921
 21
1603.7494964292871
 31
0.0
  0
LINE
  5
4915
  8
YODOROGO
 10
30177.604341291921
 20
1551.817722473427
 30
0.0
 11
30189.604341291921
 21
1603.7494964292871
 31
0.0
  0
ARC
  5
4916
  8
YODOROGO
 10
30230.05882870045
 20
1868.8857149530011
 30
0.0
 40
321.37763628529081
 50
260.60629297969911
 51
267.77903556555862
  0
LINE
  5
4917
  8
YODOROGO
 10
30217.604341291921
 20
1427.749496429285
 30
0.0
 11
30217.604341291921
 21
1547.749496429288
 31
0.0
  0
LINE
  5
4918
  8
YODOROGO
 10
29937.604341291932
 20
1481.3393349155101
 30
0.0
 11
29937.604341291921
 21
1594.5310905311401
 31
0.0
  0
LINE
  5
4919
  8
YODOROGO
 10
30217.604341291921
 20
1667.749496429288
 30
0.0
 11
29949.60434129191
 21
1667.749496429288
 31
0.0
  0
LINE
  5
491A
  8
YODOROGO
 10
30217.604341291921
 20
1627.749496429288
 30
0.0
 11
30217.604341291921
 21
1667.749496429288
 31
0.0
  0
LINE
  5
491B
  8
YODOROGO
 10
30017.604341291921
 20
1627.749496429288
 30
0.0
 11
30217.604341291921
 21
1627.749496429288
 31
0.0
  0
ARC
  5
491C
  8
YODOROGO
 10
30230.05882870136
 20
1868.885714952901
 30
0.0
 40
321.37763628522822
 50
228.61814546189939
 51
245.660289248906
  0
LINE
  5
491D
  8
YODOROGO
 10
30105.604341291921
 20
1603.7494964292871
 30
0.0
 11
30097.60434129195
 21
1576.0728158699001
 31
0.0
  0
LINE
  5
491E
  8
YODOROGO
 10
30189.604341291921
 20
1603.7494964292871
 30
0.0
 11
30105.604341291921
 21
1603.7494964292871
 31
0.0
  0
LINE
  5
491F
  8
YODOROGO
 10
30177.604341291921
 20
1551.817722473427
 30
0.0
 11
30189.604341291921
 21
1603.7494964292871
 31
0.0
  0
ARC
  5
4920
  8
YODOROGO
 10
30230.05882870045
 20
1868.8857149530011
 30
0.0
 40
321.37763628529081
 50
260.60629297969911
 51
267.77903556555862
  0
LINE
  5
4921
  8
YODOROGO
 10
30217.604341291921
 20
1427.749496429285
 30
0.0
 11
30217.604341291921
 21
1547.749496429288
 31
0.0
  0
LINE
  5
4922
  8
YODOROGO
 10
29937.604341291932
 20
1481.3393349155101
 30
0.0
 11
29937.604341291921
 21
1594.5310905311401
 31
0.0
  0
LINE
  5
4923
  8
YODOROGO
 10
30433.604341291921
 20
1573.749496429288
 30
0.0
 11
30381.604341291932
 21
1573.749496429288
 31
0.0
  0
LINE
  5
4924
  8
YODOROGO
 10
30433.604341291921
 20
1601.749496429285
 30
0.0
 11
30433.604341291921
 21
1573.749496429288
 31
0.0
  0
LINE
  5
4925
  8
YODOROGO
 10
30381.604341291932
 20
1601.749496429285
 30
0.0
 11
30433.604341291921
 21
1601.749496429285
 31
0.0
  0
LINE
  5
4926
  8
YODOROGO
 10
30381.604341291932
 20
1573.749496429288
 30
0.0
 11
30381.604341291932
 21
1601.749496429285
 31
0.0
  0
LINE
  5
4927
  8
YODOROGO
 10
30429.604341291921
 20
1577.7494964292871
 30
0.0
 11
30385.604341291921
 21
1577.7494964292871
 31
0.0
  0
LINE
  5
4928
  8
YODOROGO
 10
30429.604341291921
 20
1597.749496429288
 30
0.0
 11
30429.604341291921
 21
1577.7494964292871
 31
0.0
  0
LINE
  5
4929
  8
YODOROGO
 10
30385.604341291921
 20
1597.749496429288
 30
0.0
 11
30429.604341291921
 21
1597.749496429288
 31
0.0
  0
LINE
  5
492A
  8
YODOROGO
 10
30385.604341291921
 20
1577.7494964292871
 30
0.0
 11
30385.604341291921
 21
1597.749496429288
 31
0.0
  0
LINE
  5
492B
  8
YODOROGO
 10
30425.604341291921
 20
1581.749496429286
 30
0.0
 11
30389.604341291921
 21
1581.749496429286
 31
0.0
  0
LINE
  5
492C
  8
YODOROGO
 10
30425.604341291921
 20
1593.7494964292871
 30
0.0
 11
30425.604341291921
 21
1581.749496429286
 31
0.0
  0
LINE
  5
492D
  8
YODOROGO
 10
30389.604341291921
 20
1593.7494964292871
 30
0.0
 11
30425.604341291921
 21
1593.7494964292871
 31
0.0
  0
LINE
  5
492E
  8
YODOROGO
 10
30389.604341291921
 20
1581.749496429286
 30
0.0
 11
30389.604341291921
 21
1593.7494964292871
 31
0.0
  0
LINE
  5
492F
  8
YODOROGO
 10
30421.604341291932
 20
1585.7494964292871
 30
0.0
 11
30393.604341291921
 21
1585.7494964292871
 31
0.0
  0
LINE
  5
4930
  8
YODOROGO
 10
30421.604341291932
 20
1589.749496429288
 30
0.0
 11
30421.604341291932
 21
1585.7494964292871
 31
0.0
  0
LINE
  5
4931
  8
YODOROGO
 10
30393.604341291921
 20
1589.749496429288
 30
0.0
 11
30421.604341291932
 21
1589.749496429288
 31
0.0
  0
LINE
  5
4932
  8
YODOROGO
 10
30393.604341291921
 20
1585.7494964292871
 30
0.0
 11
30393.604341291921
 21
1589.749496429288
 31
0.0
  0
LINE
  5
4933
  8
YODOROGO
 10
30465.604341291921
 20
1627.749496429288
 30
0.0
 11
30381.604341291932
 21
1627.749496429288
 31
0.0
  0
LINE
  5
4934
  8
YODOROGO
 10
30465.604341291921
 20
1547.749496429288
 30
0.0
 11
30465.604341291921
 21
1627.749496429288
 31
0.0
  0
LINE
  5
4935
  8
YODOROGO
 10
30381.604341291932
 20
1547.749496429288
 30
0.0
 11
30465.604341291921
 21
1547.749496429288
 31
0.0
  0
LINE
  5
4936
  8
YODOROGO
 10
30381.604341291932
 20
1427.749496429288
 30
0.0
 11
30381.604341291932
 21
1547.749496429288
 31
0.0
  0
LINE
  5
4937
  8
YODOROGO
 10
30537.604341291921
 20
1427.749496429288
 30
0.0
 11
30381.604341291932
 21
1427.749496429288
 31
0.0
  0
LINE
  5
4938
  8
YODOROGO
 10
30569.604341291921
 20
1571.749496429285
 30
0.0
 11
30569.604341291921
 21
1599.7494964292871
 31
0.0
  0
ARC
  5
4939
  8
YODOROGO
 10
30545.604341291921
 20
1571.749496429291
 30
0.0
 40
24.000000000003752
 50
270.0
 51
359.99999999998772
  0
LINE
  5
493A
  8
YODOROGO
 10
30529.604341291939
 20
1547.749496429288
 30
0.0
 11
30545.604341291921
 21
1547.749496429288
 31
0.0
  0
LINE
  5
493B
  8
YODOROGO
 10
30529.604341291939
 20
1627.749496429288
 30
0.0
 11
30529.604341291939
 21
1547.749496429288
 31
0.0
  0
LINE
  5
493C
  8
YODOROGO
 10
30899.604341291932
 20
1547.749496429288
 30
0.0
 11
30925.604341291921
 21
1547.749496429288
 31
0.0
  0
LINE
  5
493D
  8
YODOROGO
 10
30933.604341291921
 20
1427.749496429288
 30
0.0
 11
30899.604341291932
 21
1427.749496429288
 31
0.0
  0
LINE
  5
493E
  8
YODOROGO
 10
30763.604341291921
 20
1563.7494964292871
 30
0.0
 11
30791.604341291921
 21
1563.7494964292871
 31
0.0
  0
LINE
  5
493F
  8
YODOROGO
 10
30899.604341291932
 20
1491.749496429288
 30
0.0
 11
30723.604341291921
 21
1491.749496429288
 31
0.0
  0
LINE
  5
4940
  8
YODOROGO
 10
30831.604341291921
 20
1563.7494964292871
 30
0.0
 11
30859.604341291932
 21
1563.7494964292871
 31
0.0
  0
LINE
  5
4941
  8
YODOROGO
 10
30899.604341291932
 20
1427.749496429288
 30
0.0
 11
30899.604341291932
 21
1547.749496429288
 31
0.0
  0
LINE
  5
4942
  8
YODOROGO
 10
30697.604341291932
 20
1427.749496429288
 30
0.0
 11
30645.604341291921
 21
1427.749496429288
 31
0.0
  0
LINE
  5
4943
  8
YODOROGO
 10
30617.604341291921
 20
1599.7494964292871
 30
0.0
 11
30617.604341291921
 21
1507.749496429288
 31
0.0
  0
ARC
  5
4944
  8
YODOROGO
 10
30933.604341291921
 20
1467.749496429288
 30
0.0
 40
40.0
 50
270.0
 51
0.0
  0
LINE
  5
4945
  8
YODOROGO
 10
31093.604341291921
 20
1523.7494964292871
 30
0.0
 11
31093.604341291921
 21
1427.749496429288
 31
0.0
  0
ARC
  5
4946
  8
YODOROGO
 10
31039.721395566768
 20
1637.5313901097329
 30
0.0
 40
125.8955565916754
 50
295.34052442160117
 51
359.18902303418679
  0
LINE
  5
4947
  8
YODOROGO
 10
30617.604341291921
 20
1859.7494964292871
 30
0.0
 11
30497.604341291921
 21
1939.749496429288
 31
0.0
  0
LINE
  5
4948
  8
YODOROGO
 10
30497.604341291921
 20
2027.749496429288
 30
0.0
 11
30617.604341291921
 21
1947.749496429288
 31
0.0
  0
LINE
  5
4949
  8
YODOROGO
 10
30529.604341291939
 20
1679.749496429288
 30
0.0
 11
30617.604341291921
 21
1679.749496429288
 31
0.0
  0
LINE
  5
494A
  8
YODOROGO
 10
30617.604341291921
 20
1735.7494964292871
 30
0.0
 11
30529.604341291939
 21
1735.7494964292871
 31
0.0
  0
LINE
  5
494B
  8
YODOROGO
 10
30381.604341291932
 20
1795.7494964292871
 30
0.0
 11
30617.604341291921
 21
1795.7494964292871
 31
0.0
  0
LINE
  5
494C
  8
YODOROGO
 10
30081.604341291921
 20
2027.749496429288
 30
0.0
 11
30021.604341291921
 21
2027.749496429288
 31
0.0
  0
LINE
  5
494D
  8
YODOROGO
 10
30081.604341291921
 20
1827.7494964292871
 30
0.0
 11
30081.604341291921
 21
2027.749496429288
 31
0.0
  0
LINE
  5
494E
  8
YODOROGO
 10
30021.604341291921
 20
1827.7494964292871
 30
0.0
 11
30081.604341291921
 21
1827.7494964292871
 31
0.0
  0
LINE
  5
494F
  8
YODOROGO
 10
30021.604341291921
 20
2027.749496429288
 30
0.0
 11
30021.604341291921
 21
1827.7494964292871
 31
0.0
  0
LINE
  5
4950
  8
YODOROGO
 10
30161.604341291921
 20
2027.749496429288
 30
0.0
 11
30217.604341291921
 21
2027.749496429288
 31
0.0
  0
LINE
  5
4951
  8
YODOROGO
 10
30161.604341291921
 20
1811.7494964292871
 30
0.0
 11
30161.604341291921
 21
2027.749496429288
 31
0.0
  0
ARC
  5
4952
  8
YODOROGO
 10
30121.604341291921
 20
1811.7494964292871
 30
0.0
 40
40.0
 50
270.0
 51
0.0
  0
LINE
  5
4953
  8
YODOROGO
 10
30021.604341291921
 20
1771.7494964292871
 30
0.0
 11
30121.604341291921
 21
1771.7494964292871
 31
0.0
  0
LINE
  5
4954
  8
YODOROGO
 10
30021.604341291921
 20
1707.749496429288
 30
0.0
 11
30021.604341291921
 21
1771.7494964292871
 31
0.0
  0
LINE
  5
4955
  8
YODOROGO
 10
30137.604341291921
 20
1707.749496429288
 30
0.0
 11
30021.604341291921
 21
1707.749496429288
 31
0.0
  0
ARC
  5
4956
  8
YODOROGO
 10
30137.604341291921
 20
1787.7494964292871
 30
0.0
 40
80.0
 50
270.0
 51
0.0
  0
LINE
  5
4957
  8
YODOROGO
 10
30217.604341291921
 20
2027.749496429288
 30
0.0
 11
30217.604341291921
 21
1787.7494964292871
 31
0.0
  0
LINE
  5
4958
  8
YODOROGO
 10
29977.604341291921
 20
1947.749496429288
 30
0.0
 11
29977.604341291921
 21
1995.7494964292871
 31
0.0
1001
AUTOCAD_POSTSCRIPT_FIGURE
1002
{
1000
PSFILL
1000
Grayscale
1000
Grayscale
1070
    25
1002
}
  0
LINE
  5
4959
  8
YODOROGO
 10
29977.604341291921
 20
1859.7494964292871
 30
0.0
 11
29977.604341291921
 21
1907.7494964292871
 31
0.0
1001
AUTOCAD_POSTSCRIPT_FIGURE
1002
{
1000
PSFILL
1000
Grayscale
1000
Grayscale
1070
    25
1002
}
  0
LINE
  5
495A
  8
YODOROGO
 10
29977.604341291921
 20
1707.749496429288
 30
0.0
 11
29977.604341291921
 21
1819.7494964292871
 31
0.0
1001
AUTOCAD_POSTSCRIPT_FIGURE
1002
{
1000
PSFILL
1000
Grayscale
1000
Grayscale
1070
    25
1002
}
  0
LINE
  5
495B
  8
YODOROGO
 10
30381.604341291932
 20
1907.7494964292871
 30
0.0
 11
30497.604341291921
 21
2027.749496429288
 31
0.0
  0
LINE
  5
495C
  8
YODOROGO
 10
30381.604341291932
 20
1819.7494964292871
 30
0.0
 11
30381.604341291932
 21
1907.7494964292871
 31
0.0
  0
LINE
  5
495D
  8
YODOROGO
 10
30497.604341291921
 20
1939.749496429288
 30
0.0
 11
30381.604341291932
 21
1819.7494964292871
 31
0.0
  0
LINE
  5
495E
  8
YODOROGO
 10
30465.604341291921
 20
1679.749496429288
 30
0.0
 11
30465.604341291921
 21
1735.7494964292871
 31
0.0
  0
LINE
  5
495F
  8
YODOROGO
 10
30381.604341291932
 20
1679.749496429288
 30
0.0
 11
30465.604341291921
 21
1679.749496429288
 31
0.0
  0
LINE
  5
4960
  8
YODOROGO
 10
30529.604341291939
 20
1735.7494964292871
 30
0.0
 11
30529.604341291939
 21
1679.749496429288
 31
0.0
  0
LINE
  5
4961
  8
YODOROGO
 10
30381.604341291932
 20
1735.7494964292871
 30
0.0
 11
30381.604341291932
 21
1795.7494964292871
 31
0.0
  0
LINE
  5
4962
  8
YODOROGO
 10
30465.604341291921
 20
1735.7494964292871
 30
0.0
 11
30381.604341291932
 21
1735.7494964292871
 31
0.0
  0
LINE
  5
4963
  8
YODOROGO
 10
30645.604341291921
 20
2027.749496429288
 30
0.0
 11
30973.604341291921
 21
2027.749496429288
 31
0.0
  0
LINE
  5
4964
  8
YODOROGO
 10
30925.604341291921
 20
1963.749496429286
 30
0.0
 11
30697.604341291932
 21
1963.749496429286
 31
0.0
  0
LINE
  5
4965
  8
YODOROGO
 10
30873.604341291921
 20
1819.7494964292871
 30
0.0
 11
30899.604341291932
 21
1819.7494964292871
 31
0.0
  0
LINE
  5
4966
  8
YODOROGO
 10
30899.604341291932
 20
1939.749496429288
 30
0.0
 11
30873.604341291921
 21
1819.7494964292871
 31
0.0
  0
LINE
  5
4967
  8
YODOROGO
 10
30851.604341291939
 20
1939.749496429288
 30
0.0
 11
30899.604341291932
 21
1939.749496429288
 31
0.0
  0
LINE
  5
4968
  8
YODOROGO
 10
30825.604341291921
 20
1819.7494964292871
 30
0.0
 11
30851.604341291939
 21
1939.749496429288
 31
0.0
  0
LINE
  5
4969
  8
YODOROGO
 10
30797.604341291921
 20
1819.7494964292871
 30
0.0
 11
30825.604341291921
 21
1819.7494964292871
 31
0.0
  0
LINE
  5
496A
  8
YODOROGO
 10
30771.604341291939
 20
1939.749496429288
 30
0.0
 11
30797.604341291921
 21
1819.7494964292871
 31
0.0
  0
LINE
  5
496B
  8
YODOROGO
 10
30723.604341291921
 20
1939.749496429288
 30
0.0
 11
30771.604341291939
 21
1939.749496429288
 31
0.0
  0
LINE
  5
496C
  8
YODOROGO
 10
30749.604341291921
 20
1819.7494964292871
 30
0.0
 11
30723.604341291921
 21
1939.749496429288
 31
0.0
  0
LINE
  5
496D
  8
YODOROGO
 10
30723.604341291921
 20
1819.7494964292871
 30
0.0
 11
30749.604341291921
 21
1819.7494964292871
 31
0.0
  0
LINE
  5
496E
  8
YODOROGO
 10
30723.604341291921
 20
1755.7494964292871
 30
0.0
 11
30723.604341291921
 21
1819.7494964292871
 31
0.0
  0
LINE
  5
496F
  8
YODOROGO
 10
30899.604341291932
 20
1755.7494964292871
 30
0.0
 11
30723.604341291921
 21
1755.7494964292871
 31
0.0
  0
LINE
  5
4970
  8
YODOROGO
 10
30899.604341291932
 20
1819.7494964292871
 30
0.0
 11
30899.604341291932
 21
1755.7494964292871
 31
0.0
  0
LINE
  5
4971
  8
YODOROGO
 10
30617.604341291921
 20
1947.749496429288
 30
0.0
 11
30617.604341291921
 21
1859.7494964292871
 31
0.0
  0
LINE
  5
4972
  8
YODOROGO
 10
30791.604341291921
 20
1755.7494964292871
 30
0.0
 11
30831.604341291921
 21
1755.7494964292871
 31
0.0
  0
LINE
  5
4973
  8
YODOROGO
 10
30723.604341291921
 20
1691.749496429288
 30
0.0
 11
30763.604341291921
 21
1691.749496429288
 31
0.0
  0
LINE
  5
4974
  8
YODOROGO
 10
30859.604341291932
 20
1691.749496429288
 30
0.0
 11
30899.604341291932
 21
1691.749496429288
 31
0.0
  0
LINE
  5
4975
  8
YODOROGO
 10
30617.604341291921
 20
1795.7494964292871
 30
0.0
 11
30617.604341291921
 21
1735.7494964292871
 31
0.0
  0
LINE
  5
4976
  8
YODOROGO
 10
31165.604341291921
 20
2027.749496429288
 30
0.0
 11
31165.604341291921
 21
1963.749496429286
 31
0.0
  0
LINE
  5
4977
  8
YODOROGO
 10
31533.604341291921
 20
1595.7494964292871
 30
0.0
 11
31533.60434129191
 21
1811.7494964292871
 31
0.0
  0
LINE
  5
4978
  8
YODOROGO
 10
31461.60434129191
 20
1987.7494964292871
 30
0.0
 11
31461.60434129191
 21
1635.7494964292871
 31
0.0
  0
LINE
  5
4979
  8
YODOROGO
 10
31653.604341291921
 20
1427.749496429288
 30
0.0
 11
31653.60434129191
 21
1811.7494964292871
 31
0.0
  0
LINE
  5
497A
  8
YODOROGO
 10
31589.604341291921
 20
1811.7494964292871
 30
0.0
 11
31589.604341291921
 21
1427.749496429288
 31
0.0
  0
LINE
  5
497B
  8
YODOROGO
 10
31237.604341291921
 20
1595.7494964292871
 30
0.0
 11
31237.604341291921
 21
1707.749496429288
 31
0.0
  0
ARC
  5
497C
  8
YODOROGO
 10
31353.914865116069
 20
1607.790351288558
 30
0.0
 40
180.09244857598841
 50
268.62849102169793
 51
356.16638457330322
  0
LINE
  5
497D
  8
YODOROGO
 10
31349.604341291939
 20
1527.749496429288
 30
0.0
 11
31349.604341291939
 21
1427.749496429288
 31
0.0
  0
ARC
  5
497E
  8
YODOROGO
 10
31351.518075724562
 20
1637.838957017655
 30
0.0
 40
110.1060929836122
 50
269.00410209305932
 51
358.91264455492478
  0
LINE
  5
497F
  8
YODOROGO
 10
31589.604341291921
 20
1427.749496429288
 30
0.0
 11
31653.604341291921
 21
1427.749496429288
 31
0.0
  0
LINE
  5
4980
  8
YODOROGO
 10
31533.60434129191
 20
1811.7494964292871
 30
0.0
 11
31589.604341291921
 21
1811.7494964292871
 31
0.0
  0
LINE
  5
4981
  8
YODOROGO
 10
31621.604341291939
 20
1987.7494964292871
 30
0.0
 11
31461.60434129191
 21
1987.7494964292871
 31
0.0
  0
LINE
  5
4982
  8
YODOROGO
 10
31533.60434129191
 20
1915.7494964292871
 30
0.0
 11
31661.604341291939
 21
1915.7494964292871
 31
0.0
  0
LINE
  5
4983
  8
YODOROGO
 10
31701.604341291939
 20
1875.7494964292871
 30
0.0
 11
31533.60434129191
 21
1875.7494964292871
 31
0.0
  0
LINE
  5
4984
  8
YODOROGO
 10
31237.604341291921
 20
1779.7494964292871
 30
0.0
 11
31349.604341291939
 21
1779.7494964292871
 31
0.0
  0
LINE
  5
4985
  8
YODOROGO
 10
31237.604341291921
 20
1835.7494964292871
 30
0.0
 11
31237.604341291921
 21
1779.7494964292871
 31
0.0
  0
LINE
  5
4986
  8
YODOROGO
 10
31349.604341291939
 20
1835.7494964292871
 30
0.0
 11
31237.604341291921
 21
1835.7494964292871
 31
0.0
  0
LINE
  5
4987
  8
YODOROGO
 10
31349.604341291939
 20
1779.7494964292871
 30
0.0
 11
31349.604341291939
 21
1835.7494964292871
 31
0.0
  0
LINE
  5
4988
  8
YODOROGO
 10
31533.60434129191
 20
1875.7494964292871
 30
0.0
 11
31533.60434129191
 21
1915.7494964292871
 31
0.0
  0
LINE
  5
4989
  8
YODOROGO
 10
31413.604341291921
 20
1707.749496429288
 30
0.0
 11
31413.604341291921
 21
1907.7494964292871
 31
0.0
  0
LINE
  5
498A
  8
YODOROGO
 10
31237.604341291921
 20
1707.749496429288
 30
0.0
 11
31413.604341291921
 21
1707.749496429288
 31
0.0
  0
LINE
  5
498B
  8
YODOROGO
 10
31413.604341291921
 20
1963.749496429286
 30
0.0
 11
31413.604341291921
 21
2027.749496429288
 31
0.0
  0
ARC
  5
498C
  8
YODOROGO
 10
31621.604341291939
 20
2003.749496429285
 30
0.0
 40
15.999999999994539
 50
270.0
 51
0.0000000000081422
  0
LINE
  5
498D
  8
YODOROGO
 10
31637.604341291921
 20
2027.749496429288
 30
0.0
 11
31637.604341291921
 21
2003.7494964292871
 31
0.0
  0
LINE
  5
498E
  8
YODOROGO
 10
31701.604341291939
 20
2027.749496429288
 30
0.0
 11
31637.604341291921
 21
2027.749496429288
 31
0.0
  0
LINE
  5
498F
  8
YODOROGO
 10
31701.604341291939
 20
1955.7494964292871
 30
0.0
 11
31701.604341291939
 21
2027.749496429288
 31
0.0
  0
ARC
  5
4990
  8
YODOROGO
 10
31661.604341291939
 20
1955.7494964292871
 30
0.0
 40
40.0
 50
270.0
 51
0.0
  0
LINE
  5
4991
  8
YODOROGO
 10
31701.604341291939
 20
1811.7494964292871
 30
0.0
 11
31701.604341291939
 21
1875.7494964292871
 31
0.0
  0
LINE
  5
4992
  8
YODOROGO
 10
31653.60434129191
 20
1811.7494964292871
 30
0.0
 11
31701.604341291939
 21
1811.7494964292871
 31
0.0
  0
LINE
  5
4993
  8
SUNPOU
  6
CONTINUOUS
 62
     4
 10
9266.5884809999807
 20
14238.538535
 30
0.0
 11
9266.5884809999807
 21
13059.591704
 31
0.0
  0
LINE
  5
4994
  8
SUNPOU
  6
CONTINUOUS
 62
     4
 10
13871.58729299998
 20
14235.538535
 30
0.0
 11
13871.58729299998
 21
13056.591704
 31
0.0
  0
LINE
  5
4995
  8
SUNPOU
  6
CONTINUOUS
 62
     4
 10
9269.5884809999807
 20
13136.591704
 30
0.0
 11
13868.58729299998
 21
13136.591704
 31
0.0
  0
LINE
  5
4996
  8
SUNPOU
  6
CONTINUOUS
 62
     4
 10
13871.58590799999
 20
19945.535697000021
 30
0.0
 11
13871.58590799999
 21
20495.540976000011
 31
0.0
  0
LINE
  5
4997
  8
SUNPOU
  6
CONTINUOUS
 62
     4
 10
13786.085907999979
 20
20415.540976000011
 30
0.0
 11
13546.085907999979
 21
20415.540976000011
 31
0.0
  0
LINE
  5
4998
  8
SUNPOU
  6
CONTINUOUS
 62
     4
 10
13868.58590799999
 20
20415.540976000011
 30
0.0
 11
14108.58590799999
 21
20415.540976000011
 31
0.0
  0
LINE
  5
4999
  8
SUNPOU
  6
CONTINUOUS
 62
     4
 10
13786.085907999979
 20
20415.540976000011
 30
0.0
 11
13868.58590799999
 21
20415.540976000011
 31
0.0
  0
LINE
  5
499A
  8
SUNPOU
  6
CONTINUOUS
 62
     4
 10
11919.585907999979
 20
20415.540976000011
 30
0.0
 11
13786.085907999979
 21
20415.540976000011
 31
0.0
  0
LINE
  5
499B
  8
SUNPOU
  6
CONTINUOUS
 62
     4
 10
9266.5918459999757
 20
19945.535697000021
 30
0.0
 11
9266.5918459999757
 21
20495.540976000011
 31
0.0
  0
LINE
  5
499C
  8
SUNPOU
  6
CONTINUOUS
 62
     4
 10
9352.0918459999775
 20
20415.540976000011
 30
0.0
 11
9592.0918459999812
 21
20415.540976000011
 31
0.0
  0
LINE
  5
499D
  8
SUNPOU
  6
CONTINUOUS
 62
     4
 10
9269.5918459999757
 20
20415.540976000011
 30
0.0
 11
9029.5918459999812
 21
20415.540976000011
 31
0.0
  0
LINE
  5
499E
  8
SUNPOU
  6
CONTINUOUS
 62
     4
 10
9352.0918459999775
 20
20415.540976000011
 30
0.0
 11
9269.5918459999757
 21
20415.540976000011
 31
0.0
  0
LINE
  5
499F
  8
SUNPOU
  6
CONTINUOUS
 62
     4
 10
11919.59184599997
 20
20415.540976000011
 30
0.0
 11
9352.0918459999775
 21
20415.540976000011
 31
0.0
  0
LINE
  5
49A0
  8
SUNPOU
  6
CONTINUOUS
 62
     4
 10
9189.5848469999873
 20
14315.544472999991
 30
0.0
 11
8342.5894259999877
 21
14315.544472999991
 31
0.0
  0
LINE
  5
49A1
  8
SUNPOU
  6
CONTINUOUS
 62
     4
 10
8422.5894259999877
 20
14508.039787999989
 30
0.0
 11
8422.5894259999877
 21
14315.544472999991
 31
0.0
  0
LINE
  5
49A2
  8
SUNPOU
  6
CONTINUOUS
 62
     4
 10
8422.5894259999877
 20
17075.53978799998
 30
0.0
 11
8422.5894259999877
 21
14508.039787999989
 31
0.0
  0
LINE
  5
49A3
  8
SUNPOU
  6
CONTINUOUS
 62
     4
 10
9189.5848469999873
 20
19855.535697000021
 30
0.0
 11
8742.5894259999877
 21
19855.535697000021
 31
0.0
  0
LINE
  5
49A4
  8
SUNPOU
  6
CONTINUOUS
 62
     4
 10
9189.5892019999847
 20
19865.53569700001
 30
0.0
 11
8742.5894259999877
 21
19865.53569700001
 31
0.0
  0
LINE
  5
49A5
  8
SUNPOU
  6
CONTINUOUS
 62
     4
 10
8822.5894259999877
 20
19855.535697000021
 30
0.0
 11
8822.5894259999877
 21
19615.535697000021
 31
0.0
  0
LINE
  5
49A6
  8
SUNPOU
  6
CONTINUOUS
 62
     4
 10
8822.5894259999877
 20
19865.53569700001
 30
0.0
 11
8822.5894259999877
 21
20105.535697000021
 31
0.0
  0
LINE
  5
49A7
  8
SUNPOU
  6
CONTINUOUS
 62
     4
 10
8822.5894259999877
 20
19855.535697000021
 30
0.0
 11
8822.5894259999877
 21
19865.53569700001
 31
0.0
  0
LINE
  5
49A8
  8
SUNPOU
  6
CONTINUOUS
 62
     4
 10
9189.5892019999847
 20
19865.53569700001
 30
0.0
 11
8342.5894259999877
 21
19865.53569700001
 31
0.0
  0
LINE
  5
49A9
  8
SUNPOU
  6
CONTINUOUS
 62
     4
 10
8422.5894259999877
 20
19643.039787999991
 30
0.0
 11
8422.5894259999877
 21
19865.53569700001
 31
0.0
  0
LINE
  5
49AA
  8
SUNPOU
  6
CONTINUOUS
 62
     4
 10
8422.5894259999877
 20
17075.53978799998
 30
0.0
 11
8422.5894259999877
 21
19643.039787999991
 31
0.0
  0
LINE
  5
49AB
  8
SUNPOU
  6
CONTINUOUS
 62
     4
 10
24204.04415499997
 20
14915.66004375
 30
0.0
 11
25254.045474999992
 21
14915.66004375
 31
0.0
  0
LINE
  5
49AC
  8
SUNPOU
  6
CONTINUOUS
 62
     4
 10
25054.045474999992
 20
14508.16004375
 30
0.0
 11
25254.045474999992
 21
14508.16004375
 31
0.0
  0
LINE
  5
49AD
  8
SUNPOU
  6
CONTINUOUS
 62
     4
 10
25174.045474999992
 20
14915.66004375
 30
0.0
 11
25174.045474999992
 21
14508.16004375
 31
0.0
  0
LINE
  5
49AE
  8
SUNPOU
  6
CONTINUOUS
 62
     4
 10
24204.04415499997
 20
19235.539787999998
 30
0.0
 11
25254.045474999992
 21
19235.539787999998
 31
0.0
  0
LINE
  5
49AF
  8
SUNPOU
  6
CONTINUOUS
 62
     4
 10
25054.045474999992
 20
19643.039787999991
 30
0.0
 11
25254.045474999992
 21
19643.039787999991
 31
0.0
  0
LINE
  5
49B0
  8
SUNPOU
  6
CONTINUOUS
 62
     4
 10
25174.045474999992
 20
19235.539787999998
 30
0.0
 11
25174.045474999992
 21
19643.039787999991
 31
0.0
  0
LINE
  5
49B1
  8
SUNPOU
  6
CONTINUOUS
 62
     4
 10
19647.54587099998
 20
13802.276354
 30
0.0
 11
19647.54587099998
 21
13456.591703999989
 31
0.0
  0
LINE
  5
49B2
  8
SUNPOU
  6
CONTINUOUS
 62
     4
 10
19605.043627999981
 20
14385.542493000001
 30
0.0
 11
19605.043627999981
 21
13456.591703999989
 31
0.0
  0
LINE
  5
49B3
  8
SUNPOU
  6
CONTINUOUS
 62
     4
 10
19647.54587099998
 20
13536.59170399998
 30
0.0
 11
19887.54587099998
 21
13536.59170399998
 31
0.0
  0
LINE
  5
49B4
  8
SUNPOU
  6
CONTINUOUS
 62
     4
 10
19605.043627999981
 20
13536.59170399998
 30
0.0
 11
19365.043627999981
 21
13536.59170399998
 31
0.0
  0
LINE
  5
49B5
  8
SUNPOU
  6
CONTINUOUS
 62
     4
 10
19647.54587099998
 20
13536.59170399998
 30
0.0
 11
19605.043627999981
 21
13536.59170399998
 31
0.0
  0
LINE
  5
49B6
  8
SUNPOU
  6
CONTINUOUS
 62
     4
 10
24081.54587099998
 20
13802.276354
 30
0.0
 11
24081.54587099998
 21
13456.591703999989
 31
0.0
  0
LINE
  5
49B7
  8
SUNPOU
  6
CONTINUOUS
 62
     4
 10
24124.048113999968
 20
14385.542493000001
 30
0.0
 11
24124.048113999968
 21
13456.591703999989
 31
0.0
  0
LINE
  5
49B8
  8
SUNPOU
  6
CONTINUOUS
 62
     4
 10
24081.54587099998
 20
13536.59170399998
 30
0.0
 11
23841.54587099998
 21
13536.59170399998
 31
0.0
  0
LINE
  5
49B9
  8
SUNPOU
  6
CONTINUOUS
 62
     4
 10
24124.048113999968
 20
13536.59170399998
 30
0.0
 11
24364.048113999968
 21
13536.59170399998
 31
0.0
  0
LINE
  5
49BA
  8
SUNPOU
  6
CONTINUOUS
 62
     4
 10
24081.54587099998
 20
13536.59170399998
 30
0.0
 11
24124.048113999968
 21
13536.59170399998
 31
0.0
  0
LINE
  5
49BB
  8
2-0
  6
CONTINUOUS
 62
     3
 10
22172.54587099998
 20
14465.539788
 30
0.0
 11
22257.54587099998
 21
14465.539788
 31
0.0
  0
LINE
  5
49BC
  8
2-0
  6
CONTINUOUS
 62
     3
 10
22257.54587099998
 20
14465.539788
 30
0.0
 11
22257.54587099998
 21
14550.539788
 31
0.0
  0
LINE
  5
49BD
  8
2-0
  6
CONTINUOUS
 62
     3
 10
22257.54587099998
 20
14550.539788
 30
0.0
 11
22172.54587099998
 21
14550.539788
 31
0.0
  0
LINE
  5
49BE
  8
2-0
  6
CONTINUOUS
 62
     3
 10
22172.54587099998
 20
14550.539788
 30
0.0
 11
22172.54587099998
 21
14465.539788
 31
0.0
  0
LINE
  5
49BF
  8
SUNPOU
  6
CONTINUOUS
 62
     4
 10
24081.54587099998
 20
13802.276354
 30
0.0
 11
24081.54587099998
 21
13456.591703999989
 31
0.0
  0
LINE
  5
49C0
  8
SUNPOU
  6
CONTINUOUS
 62
     4
 10
24039.043627999981
 20
14385.542493000001
 30
0.0
 11
24039.043627999981
 21
13456.591703999989
 31
0.0
  0
LINE
  5
49C1
  8
SUNPOU
  6
CONTINUOUS
 62
     4
 10
24081.54587099998
 20
13536.59170399998
 30
0.0
 11
24321.54587099998
 21
13536.59170399998
 31
0.0
  0
LINE
  5
49C2
  8
SUNPOU
  6
CONTINUOUS
 62
     4
 10
24039.043627999981
 20
13536.59170399998
 30
0.0
 11
23799.043627999981
 21
13536.59170399998
 31
0.0
  0
LINE
  5
49C3
  8
SUNPOU
  6
CONTINUOUS
 62
     4
 10
24081.54587099998
 20
13536.59170399998
 30
0.0
 11
24039.043627999981
 21
13536.59170399998
 31
0.0
  0
LINE
  5
49C4
  8
SUNPOU
  6
CONTINUOUS
 62
     4
 10
19647.54587099998
 20
13802.276354
 30
0.0
 11
19647.54587099998
 21
13456.591703999989
 31
0.0
  0
LINE
  5
49C5
  8
SUNPOU
  6
CONTINUOUS
 62
     4
 10
19690.048113999961
 20
14385.542493000001
 30
0.0
 11
19690.048113999961
 21
13456.591703999989
 31
0.0
  0
LINE
  5
49C6
  8
SUNPOU
  6
CONTINUOUS
 62
     4
 10
19647.54587099998
 20
13536.59170399998
 30
0.0
 11
19407.54587099998
 21
13536.59170399998
 31
0.0
  0
LINE
  5
49C7
  8
SUNPOU
  6
CONTINUOUS
 62
     4
 10
19690.048113999961
 20
13536.59170399998
 30
0.0
 11
19930.048113999961
 21
13536.59170399998
 31
0.0
  0
LINE
  5
49C8
  8
SUNPOU
  6
CONTINUOUS
 62
     4
 10
19647.54587099998
 20
13536.59170399998
 30
0.0
 11
19690.048113999961
 21
13536.59170399998
 31
0.0
  0
LINE
  5
49C9
  8
SUNPOU
  6
CONTINUOUS
 62
     4
 10
19605.043627999981
 20
14385.542493000001
 30
0.0
 11
19605.043627999981
 21
13056.591704
 31
0.0
  0
LINE
  5
49CA
  8
SUNPOU
  6
CONTINUOUS
 62
     4
 10
24124.048113999968
 20
14385.542493000001
 30
0.0
 11
24124.048113999968
 21
13056.591704
 31
0.0
  0
LINE
  5
49CB
  8
SUNPOU
  6
CONTINUOUS
 62
     4
 10
19605.043627999981
 20
13136.591704
 30
0.0
 11
24124.048113999968
 21
13136.591704
 31
0.0
  0
LINE
  5
49CC
  8
SUNPOU
  6
CONTINUOUS
 62
     4
 10
24204.04415499997
 20
15616.7802995
 30
0.0
 11
25254.045474999992
 21
15616.7802995
 31
0.0
  0
LINE
  5
49CD
  8
SUNPOU
  6
CONTINUOUS
 62
     4
 10
24204.04415499997
 20
14915.539788
 30
0.0
 11
25254.045474999992
 21
14915.539788
 31
0.0
  0
LINE
  5
49CE
  8
SUNPOU
  6
CONTINUOUS
 62
     4
 10
25174.045474999992
 20
15616.7802995
 30
0.0
 11
25174.045474999992
 21
14915.539788
 31
0.0
  0
LINE
  5
49CF
  8
SUNPOU
  6
CONTINUOUS
 62
     4
 10
24204.04415499997
 20
16317.539788
 30
0.0
 11
25254.045474999992
 21
16317.539788
 31
0.0
  0
LINE
  5
49D0
  8
SUNPOU
  6
CONTINUOUS
 62
     4
 10
24204.04415499997
 20
15616.7802995
 30
0.0
 11
25254.045474999992
 21
15616.7802995
 31
0.0
  0
LINE
  5
49D1
  8
SUNPOU
  6
CONTINUOUS
 62
     4
 10
25174.045474999992
 20
16317.539788
 30
0.0
 11
25174.045474999992
 21
15616.7802995
 31
0.0
  0
LINE
  5
49D2
  8
SUNPOU
  6
CONTINUOUS
 62
     4
 10
25054.045474999992
 20
17075.53978799998
 30
0.0
 11
25254.045474999992
 21
17075.53978799998
 31
0.0
  0
LINE
  5
49D3
  8
SUNPOU
  6
CONTINUOUS
 62
     4
 10
24204.04415499997
 20
16317.539788
 30
0.0
 11
25254.045474999992
 21
16317.539788
 31
0.0
  0
LINE
  5
49D4
  8
SUNPOU
  6
CONTINUOUS
 62
     4
 10
25174.045474999992
 20
17075.53978799998
 30
0.0
 11
25174.045474999992
 21
16317.539788
 31
0.0
  0
LINE
  5
49D5
  8
SUNPOU
  6
CONTINUOUS
 62
     4
 10
24204.04415499997
 20
17833.539787999991
 30
0.0
 11
25254.045474999992
 21
17833.539787999991
 31
0.0
  0
LINE
  5
49D6
  8
SUNPOU
  6
CONTINUOUS
 62
     4
 10
25054.045474999992
 20
17075.53978799998
 30
0.0
 11
25254.045474999992
 21
17075.53978799998
 31
0.0
  0
LINE
  5
49D7
  8
SUNPOU
  6
CONTINUOUS
 62
     4
 10
25174.045474999992
 20
17833.539787999991
 30
0.0
 11
25174.045474999992
 21
17075.53978799998
 31
0.0
  0
LINE
  5
49D8
  8
SUNPOU
  6
CONTINUOUS
 62
     4
 10
24204.04415499997
 20
18534.539787999998
 30
0.0
 11
25254.045474999992
 21
18534.539787999998
 31
0.0
  0
LINE
  5
49D9
  8
SUNPOU
  6
CONTINUOUS
 62
     4
 10
24204.04415499997
 20
17833.539787999991
 30
0.0
 11
25254.045474999992
 21
17833.539787999991
 31
0.0
  0
LINE
  5
49DA
  8
SUNPOU
  6
CONTINUOUS
 62
     4
 10
25174.045474999992
 20
18534.539787999998
 30
0.0
 11
25174.045474999992
 21
17833.539787999991
 31
0.0
  0
LINE
  5
49DB
  8
SUNPOU
  6
CONTINUOUS
 62
     4
 10
24204.04415499997
 20
19235.539787999998
 30
0.0
 11
25254.045474999992
 21
19235.539787999998
 31
0.0
  0
LINE
  5
49DC
  8
SUNPOU
  6
CONTINUOUS
 62
     4
 10
24204.04415499997
 20
18534.539787999998
 30
0.0
 11
25254.045474999992
 21
18534.539787999998
 31
0.0
  0
LINE
  5
49DD
  8
SUNPOU
  6
CONTINUOUS
 62
     4
 10
25174.045474999992
 20
19235.539787999998
 30
0.0
 11
25174.045474999992
 21
18534.539787999998
 31
0.0
  0
LINE
  5
49DE
  8
SUNPOU
  6
CONTINUOUS
 62
     4
 10
25054.045474999992
 20
17075.53978799998
 30
0.0
 11
25654.045474999992
 21
17075.53978799998
 31
0.0
  0
LINE
  5
49DF
  8
SUNPOU
  6
CONTINUOUS
 62
     4
 10
25054.045474999992
 20
19643.039787999991
 30
0.0
 11
25654.045474999992
 21
19643.039787999991
 31
0.0
  0
LINE
  5
49E0
  8
SUNPOU
  6
CONTINUOUS
 62
     4
 10
25574.045474999992
 20
17075.53978799998
 30
0.0
 11
25574.045474999992
 21
19643.039787999991
 31
0.0
  0
LINE
  5
49E1
  8
SUNPOU
  6
CONTINUOUS
 62
     4
 10
25054.045474999992
 20
14508.039787999989
 30
0.0
 11
25654.045474999992
 21
14508.039787999989
 31
0.0
  0
LINE
  5
49E2
  8
SUNPOU
  6
CONTINUOUS
 62
     4
 10
25054.045474999992
 20
17075.53978799998
 30
0.0
 11
25654.045474999992
 21
17075.53978799998
 31
0.0
  0
LINE
  5
49E3
  8
SUNPOU
  6
CONTINUOUS
 62
     4
 10
25574.045474999992
 20
14508.039787999989
 30
0.0
 11
25574.045474999992
 21
17075.53978799998
 31
0.0
  0
LINE
  5
49E4
  8
SUNPOU
  6
CONTINUOUS
 62
     4
 10
24204.04415499997
 20
19685.537082999988
 30
0.0
 11
26054.045474999992
 21
19685.537082999988
 31
0.0
  0
LINE
  5
49E5
  8
SUNPOU
  6
CONTINUOUS
 62
     4
 10
24204.04415499997
 20
14465.542493000001
 30
0.0
 11
26054.045474999992
 21
14465.542493000001
 31
0.0
  0
LINE
  5
49E6
  8
SUNPOU
  6
CONTINUOUS
 62
     4
 10
25974.045474999992
 20
19685.537082999988
 30
0.0
 11
25974.045474999992
 21
14465.542493000001
 31
0.0
  0
LINE
  5
49E7
  8
SUNPOU
  6
CONTINUOUS
 62
     4
 10
25054.045474999992
 20
19643.039787999991
 30
0.0
 11
25654.045474999992
 21
19643.039787999991
 31
0.0
  0
LINE
  5
49E8
  8
SUNPOU
  6
CONTINUOUS
 62
     4
 10
24204.04415499997
 20
19685.537082999988
 30
0.0
 11
25654.045474999992
 21
19685.537082999988
 31
0.0
  0
LINE
  5
49E9
  8
SUNPOU
  6
CONTINUOUS
 62
     4
 10
25574.045474999992
 20
19643.039787999991
 30
0.0
 11
25574.045474999992
 21
19403.039787999991
 31
0.0
  0
LINE
  5
49EA
  8
SUNPOU
  6
CONTINUOUS
 62
     4
 10
25574.045474999992
 20
19685.537082999988
 30
0.0
 11
25574.045474999992
 21
19925.537082999999
 31
0.0
  0
LINE
  5
49EB
  8
SUNPOU
  6
CONTINUOUS
 62
     4
 10
25574.045474999992
 20
19643.039787999991
 30
0.0
 11
25574.045474999992
 21
19685.537082999988
 31
0.0
  0
LINE
  5
49EC
  8
SUNPOU
  6
CONTINUOUS
 62
     4
 10
25054.045474999992
 20
14508.039787999989
 30
0.0
 11
25654.045474999992
 21
14508.039787999989
 31
0.0
  0
LINE
  5
49ED
  8
SUNPOU
  6
CONTINUOUS
 62
     4
 10
24204.04415499997
 20
14465.542493000001
 30
0.0
 11
25654.045474999992
 21
14465.542493000001
 31
0.0
  0
LINE
  5
49EE
  8
SUNPOU
  6
CONTINUOUS
 62
     4
 10
25574.045474999992
 20
14508.039787999989
 30
0.0
 11
25574.045474999992
 21
14748.03978799998
 31
0.0
  0
LINE
  5
49EF
  8
SUNPOU
  6
CONTINUOUS
 62
     4
 10
25574.045474999992
 20
14465.542493000001
 30
0.0
 11
25574.045474999992
 21
14225.542493000001
 31
0.0
  0
LINE
  5
49F0
  8
SUNPOU
  6
CONTINUOUS
 62
     4
 10
25574.045474999992
 20
14508.039787999989
 30
0.0
 11
25574.045474999992
 21
14465.542493000001
 31
0.0
  0
LINE
  5
49F1
  8
SUNPOU
  6
CONTINUOUS
 62
     4
 10
22215.04587099998
 20
19765.538073000022
 30
0.0
 11
22215.04587099998
 21
20495.540976000011
 31
0.0
  0
LINE
  5
49F2
  8
SUNPOU
  6
CONTINUOUS
 62
     4
 10
22622.545870999969
 20
19765.538073000022
 30
0.0
 11
22622.545870999969
 21
20495.540976000011
 31
0.0
  0
LINE
  5
49F3
  8
SUNPOU
  6
CONTINUOUS
 62
     4
 10
22215.04587099998
 20
20415.540976000011
 30
0.0
 11
22622.545870999969
 21
20415.540976000011
 31
0.0
  0
LINE
  5
49F4
  8
SUNPOU
  6
CONTINUOUS
 62
     4
 10
23323.545870999969
 20
19765.538073000022
 30
0.0
 11
23323.545870999969
 21
20495.540976000011
 31
0.0
  0
LINE
  5
49F5
  8
SUNPOU
  6
CONTINUOUS
 62
     4
 10
24081.546860499991
 20
19765.538073000022
 30
0.0
 11
24081.546860499991
 21
20495.540976000011
 31
0.0
  0
LINE
  5
49F6
  8
SUNPOU
  6
CONTINUOUS
 62
     4
 10
23323.545870999969
 20
20415.540976000011
 30
0.0
 11
24081.546860499991
 21
20415.540976000011
 31
0.0
  0
LINE
  5
49F7
  8
SUNPOU
  6
CONTINUOUS
 62
     4
 10
22622.545870999969
 20
19765.538073000022
 30
0.0
 11
22622.545870999969
 21
20495.540976000011
 31
0.0
  0
LINE
  5
49F8
  8
SUNPOU
  6
CONTINUOUS
 62
     4
 10
23323.545870999969
 20
19765.538073000022
 30
0.0
 11
23323.545870999969
 21
20495.540976000011
 31
0.0
  0
LINE
  5
49F9
  8
SUNPOU
  6
CONTINUOUS
 62
     4
 10
22622.545870999969
 20
20415.540976000011
 30
0.0
 11
23323.545870999969
 21
20415.540976000011
 31
0.0
  0
LINE
  5
49FA
  8
SUNPOU
  6
CONTINUOUS
 62
     4
 10
24081.54587099998
 20
19765.538073000022
 30
0.0
 11
24081.54587099998
 21
20495.540976000011
 31
0.0
  0
LINE
  5
49FB
  8
SUNPOU
  6
CONTINUOUS
 62
     4
 10
24124.042175999981
 20
19765.538073000022
 30
0.0
 11
24124.042175999981
 21
20495.540976000011
 31
0.0
  0
LINE
  5
49FC
  8
SUNPOU
  6
CONTINUOUS
 62
     4
 10
24081.54587099998
 20
20415.540976000011
 30
0.0
 11
23841.54587099998
 21
20415.540976000011
 31
0.0
  0
LINE
  5
49FD
  8
SUNPOU
  6
CONTINUOUS
 62
     4
 10
24124.042175999981
 20
20415.540976000011
 30
0.0
 11
24364.042175999981
 21
20415.540976000011
 31
0.0
  0
LINE
  5
49FE
  8
SUNPOU
  6
CONTINUOUS
 62
     4
 10
24081.54587099998
 20
20415.540976000011
 30
0.0
 11
24124.042175999981
 21
20415.540976000011
 31
0.0
  0
LINE
  5
49FF
  8
SUNPOU
  6
CONTINUOUS
 62
     4
 10
19647.54587099998
 20
19765.538073000022
 30
0.0
 11
19647.54587099998
 21
20495.540976000011
 31
0.0
  0
LINE
  5
4A00
  8
SUNPOU
  6
CONTINUOUS
 62
     4
 10
20055.04587099998
 20
19765.538073000022
 30
0.0
 11
20055.04587099998
 21
20495.540976000011
 31
0.0
  0
LINE
  5
4A01
  8
SUNPOU
  6
CONTINUOUS
 62
     4
 10
19647.54587099998
 20
20415.540976000011
 30
0.0
 11
20055.04587099998
 21
20415.540976000011
 31
0.0
  0
LINE
  5
4A02
  8
SUNPOU
  6
CONTINUOUS
 62
     4
 10
19647.54587099998
 20
19765.538073000022
 30
0.0
 11
19647.54587099998
 21
20495.540976000011
 31
0.0
  0
LINE
  5
4A03
  8
SUNPOU
  6
CONTINUOUS
 62
     4
 10
19605.049565999969
 20
19765.538073000022
 30
0.0
 11
19605.049565999969
 21
20495.540976000011
 31
0.0
  0
LINE
  5
4A04
  8
SUNPOU
  6
CONTINUOUS
 62
     4
 10
19647.54587099998
 20
20415.540976000011
 30
0.0
 11
19887.54587099998
 21
20415.540976000011
 31
0.0
  0
LINE
  5
4A05
  8
SUNPOU
  6
CONTINUOUS
 62
     4
 10
19605.049565999969
 20
20415.540976000011
 30
0.0
 11
19365.049565999969
 21
20415.540976000011
 31
0.0
  0
LINE
  5
4A06
  8
SUNPOU
  6
CONTINUOUS
 62
     4
 10
19647.54587099998
 20
20415.540976000011
 30
0.0
 11
19605.049565999969
 21
20415.540976000011
 31
0.0
  0
LINE
  5
4A07
  8
SUNPOU
  6
CONTINUOUS
 62
     4
 10
21457.04587099998
 20
19765.538073000022
 30
0.0
 11
21457.04587099998
 21
20495.540976000011
 31
0.0
  0
LINE
  5
4A08
  8
SUNPOU
  6
CONTINUOUS
 62
     4
 10
22215.046860499991
 20
19765.538073000022
 30
0.0
 11
22215.046860499991
 21
20495.540976000011
 31
0.0
  0
LINE
  5
4A09
  8
SUNPOU
  6
CONTINUOUS
 62
     4
 10
21457.04587099998
 20
20415.540976000011
 30
0.0
 11
22215.046860499991
 21
20415.540976000011
 31
0.0
  0
LINE
  5
4A0A
  8
SUNPOU
  6
CONTINUOUS
 62
     4
 10
20756.04587099998
 20
19765.538073000022
 30
0.0
 11
20756.04587099998
 21
20495.540976000011
 31
0.0
  0
LINE
  5
4A0B
  8
SUNPOU
  6
CONTINUOUS
 62
     4
 10
21457.04587099998
 20
19765.538073000022
 30
0.0
 11
21457.04587099998
 21
20495.540976000011
 31
0.0
  0
LINE
  5
4A0C
  8
SUNPOU
  6
CONTINUOUS
 62
     4
 10
20756.04587099998
 20
20415.540976000011
 30
0.0
 11
21457.04587099998
 21
20415.540976000011
 31
0.0
  0
LINE
  5
4A0D
  8
SUNPOU
  6
CONTINUOUS
 62
     4
 10
20055.04587099998
 20
19765.538073000022
 30
0.0
 11
20055.04587099998
 21
20495.540976000011
 31
0.0
  0
LINE
  5
4A0E
  8
SUNPOU
  6
CONTINUOUS
 62
     4
 10
20756.04587099998
 20
19765.538073000022
 30
0.0
 11
20756.04587099998
 21
20495.540976000011
 31
0.0
  0
LINE
  5
4A0F
  8
SUNPOU
  6
CONTINUOUS
 62
     4
 10
20055.04587099998
 20
20415.540976000011
 30
0.0
 11
20756.04587099998
 21
20415.540976000011
 31
0.0
  0
LINE
  5
4A10
  8
SUNPOU
  6
CONTINUOUS
 62
     4
 10
19517.545211999979
 20
6367.0884779999951
 30
0.0
 11
18717.54653099996
 21
6367.0884779999951
 31
0.0
  0
LINE
  5
4A11
  8
SUNPOU
  6
CONTINUOUS
 62
     4
 10
19517.545211999979
 20
8258.588477999996
 30
0.0
 11
18717.546530999982
 21
8258.588477999996
 31
0.0
  0
LINE
  5
4A12
  8
SUNPOU
  6
CONTINUOUS
 62
     4
 10
18797.54653099996
 20
6367.0884779999951
 30
0.0
 11
18797.546530999982
 21
8258.588477999996
 31
0.0
  0
LINE
  5
4A13
  8
SUNPOU
  6
CONTINUOUS
 62
     4
 10
19517.545211999979
 20
6367.0884779999951
 30
0.0
 11
18317.54422199995
 21
6367.0884779999969
 31
0.0
  0
LINE
  5
4A14
  8
SUNPOU
  6
CONTINUOUS
 62
     4
 10
19485.045475999959
 20
8715.5879829999976
 30
0.0
 11
18317.54422199995
 21
8715.5879829999976
 31
0.0
  0
LINE
  5
4A15
  8
SUNPOU
  6
CONTINUOUS
 62
     4
 10
18397.54422199995
 20
6367.0884779999969
 30
0.0
 11
18397.54422199995
 21
8715.5879829999976
 31
0.0
  0
LINE
  5
4A16
  8
SUNPOU
  6
CONTINUOUS
 62
     4
 10
19562.043495999958
 20
8795.5888270000032
 30
0.0
 11
19562.043495999958
 21
9995.0464389999997
 31
0.0
  0
LINE
  5
4A17
  8
SUNPOU
  6
CONTINUOUS
 62
     4
 10
24167.04824599998
 20
8795.5888270000032
 30
0.0
 11
24167.04824599998
 21
9995.0464389999997
 31
0.0
  0
LINE
  5
4A18
  8
SUNPOU
  6
CONTINUOUS
 62
     4
 10
19565.043495999958
 20
9915.0464390000016
 30
0.0
 11
24164.04824599998
 21
9915.0464390000016
 31
0.0
  0
LINE
  5
4A19
  8
SUNPOU
  6
CONTINUOUS
 62
     4
 10
19605.04560699996
 20
8795.5888270000032
 30
0.0
 11
19605.04560699996
 21
9595.0886689999988
 31
0.0
  0
LINE
  5
4A1A
  8
SUNPOU
  6
CONTINUOUS
 62
     4
 10
24124.04613499996
 20
8795.5888270000032
 30
0.0
 11
24124.04613499996
 21
9595.0886689999988
 31
0.0
  0
LINE
  5
4A1B
  8
SUNPOU
  6
CONTINUOUS
 62
     4
 10
19605.04560699996
 20
9515.0886689999988
 30
0.0
 11
24124.04613499996
 21
9515.0886689999988
 31
0.0
  0
LINE
  5
4A1C
  8
SUNPOU
  6
CONTINUOUS
 62
     4
 10
19605.04560699996
 20
8795.5888270000032
 30
0.0
 11
19605.04560699996
 21
9595.0886689999988
 31
0.0
  0
LINE
  5
4A1D
  8
SUNPOU
  6
CONTINUOUS
 62
     4
 10
19562.043495999958
 20
8795.5888270000032
 30
0.0
 11
19562.043495999958
 21
9595.0886689999988
 31
0.0
  0
LINE
  5
4A1E
  8
SUNPOU
  6
CONTINUOUS
 62
     4
 10
19605.04560699996
 20
9515.0886689999988
 30
0.0
 11
19845.04560699996
 21
9515.0886689999988
 31
0.0
  0
LINE
  5
4A1F
  8
SUNPOU
  6
CONTINUOUS
 62
     4
 10
19565.043495999958
 20
9515.0886689999988
 30
0.0
 11
19325.04349599998
 21
9515.0886689999988
 31
0.0
  0
LINE
  5
4A20
  8
SUNPOU
  6
CONTINUOUS
 62
     4
 10
19605.04560699996
 20
9515.0886689999988
 30
0.0
 11
19565.043495999958
 21
9515.0886689999988
 31
0.0
  0
LINE
  5
4A21
  8
SUNPOU
  6
CONTINUOUS
 62
     4
 10
24124.04613499996
 20
8795.5888270000032
 30
0.0
 11
24124.04613499996
 21
9595.0886689999988
 31
0.0
  0
LINE
  5
4A22
  8
SUNPOU
  6
CONTINUOUS
 62
     4
 10
24167.04824599998
 20
8795.5888270000032
 30
0.0
 11
24167.04824599998
 21
9595.0886689999988
 31
0.0
  0
LINE
  5
4A23
  8
SUNPOU
  6
CONTINUOUS
 62
     4
 10
24124.04613499996
 20
9515.0886689999988
 30
0.0
 11
23884.04613499996
 21
9515.0886689999988
 31
0.0
  0
LINE
  5
4A24
  8
SUNPOU
  6
CONTINUOUS
 62
     4
 10
24164.04824599998
 20
9515.0886689999988
 30
0.0
 11
24404.04824599998
 21
9515.0886689999988
 31
0.0
  0
LINE
  5
4A25
  8
SUNPOU
  6
CONTINUOUS
 62
     4
 10
24124.04613499996
 20
9515.0886689999988
 30
0.0
 11
24164.04824599998
 21
9515.0886689999988
 31
0.0
  0
LINE
  5
4A26
  8
SUNPOU
  6
CONTINUOUS
 62
     4
 10
19741.54587099998
 20
6187.088643000001
 30
0.0
 11
19741.54587099998
 21
5387.0886430000019
 31
0.0
  0
LINE
  5
4A27
  8
SUNPOU
  6
CONTINUOUS
 62
     4
 10
22121.04587099998
 20
6187.088643000001
 30
0.0
 11
22121.04587099998
 21
5387.0886430000019
 31
0.0
  0
LINE
  5
4A28
  8
SUNPOU
  6
CONTINUOUS
 62
     4
 10
19741.54587099998
 20
5467.088643000001
 30
0.0
 11
22121.04587099998
 21
5467.088643000001
 31
0.0
  0
LINE
  5
4A29
  8
SUNPOU
  6
CONTINUOUS
 62
     4
 10
22309.04587099998
 20
6187.088643000001
 30
0.0
 11
22309.04587099998
 21
5387.0886430000019
 31
0.0
  0
LINE
  5
4A2A
  8
SUNPOU
  6
CONTINUOUS
 62
     4
 10
23987.54587099998
 20
6187.088643000001
 30
0.0
 11
23987.54587099998
 21
5387.0886430000019
 31
0.0
  0
LINE
  5
4A2B
  8
SUNPOU
  6
CONTINUOUS
 62
     4
 10
22309.04587099998
 20
5467.088643000001
 30
0.0
 11
23987.54587099998
 21
5467.088643000001
 31
0.0
  0
LINE
  5
4A2C
  8
SUNPOU
  6
CONTINUOUS
 62
     4
 10
22215.04587099998
 20
5924.4362199999969
 30
0.0
 11
22215.04587099998
 21
4987.088643000001
 31
0.0
  0
LINE
  5
4A2D
  8
SUNPOU
  6
CONTINUOUS
 62
     4
 10
24081.54587099998
 20
5924.4362199999969
 30
0.0
 11
24081.54587099998
 21
4987.088643000001
 31
0.0
  0
LINE
  5
4A2E
  8
SUNPOU
  6
CONTINUOUS
 62
     4
 10
22215.04587099998
 20
5067.088643000001
 30
0.0
 11
24081.54587099998
 21
5067.088643000001
 31
0.0
  0
LINE
  5
4A2F
  8
SUNPOU
  6
CONTINUOUS
 62
     4
 10
19647.54587099998
 20
5924.4362199999969
 30
0.0
 11
19647.54587099998
 21
4987.088643000001
 31
0.0
  0
LINE
  5
4A30
  8
SUNPOU
  6
CONTINUOUS
 62
     4
 10
22215.04587099998
 20
5924.4362199999969
 30
0.0
 11
22215.04587099998
 21
4987.088643000001
 31
0.0
  0
LINE
  5
4A31
  8
SUNPOU
  6
CONTINUOUS
 62
     4
 10
19647.54587099998
 20
5067.088643000001
 30
0.0
 11
22215.04587099998
 21
5067.088643000001
 31
0.0
  0
LINE
  5
4A32
  8
SUNPOU
  6
CONTINUOUS
 62
     4
 10
24081.549829999982
 20
5924.4362199999969
 30
0.0
 11
24081.549829999982
 21
4987.088643000001
 31
0.0
  0
LINE
  5
4A33
  8
SUNPOU
  6
CONTINUOUS
 62
     4
 10
24124.049829999989
 20
6187.088643000001
 30
0.0
 11
24124.049829999989
 21
4987.088643000001
 31
0.0
  0
LINE
  5
4A34
  8
SUNPOU
  6
CONTINUOUS
 62
     4
 10
24081.549829999982
 20
5067.088643000001
 30
0.0
 11
23841.549829999982
 21
5067.088643000001
 31
0.0
  0
LINE
  5
4A35
  8
SUNPOU
  6
CONTINUOUS
 62
     4
 10
24124.049829999989
 20
5067.088643000001
 30
0.0
 11
24364.049829999989
 21
5067.088643000001
 31
0.0
  0
LINE
  5
4A36
  8
SUNPOU
  6
CONTINUOUS
 62
     4
 10
24081.549829999982
 20
5067.088643000001
 30
0.0
 11
24124.049829999989
 21
5067.088643000001
 31
0.0
  0
LINE
  5
4A37
  8
SUNPOU
  6
CONTINUOUS
 62
     4
 10
19647.54587099998
 20
5924.4362199999969
 30
0.0
 11
19647.54587099998
 21
4987.088643000001
 31
0.0
  0
LINE
  5
4A38
  8
SUNPOU
  6
CONTINUOUS
 62
     4
 10
19605.04587099998
 20
6187.088643000001
 30
0.0
 11
19605.04587099998
 21
4987.088643000001
 31
0.0
  0
LINE
  5
4A39
  8
SUNPOU
  6
CONTINUOUS
 62
     4
 10
19647.54587099998
 20
5067.088643000001
 30
0.0
 11
19887.54587099998
 21
5067.088643000001
 31
0.0
  0
LINE
  5
4A3A
  8
SUNPOU
  6
CONTINUOUS
 62
     4
 10
19605.04587099998
 20
5067.088643000001
 30
0.0
 11
19365.04587099998
 21
5067.088643000001
 31
0.0
  0
LINE
  5
4A3B
  8
SUNPOU
  6
CONTINUOUS
 62
     4
 10
19647.54587099998
 20
5067.088643000001
 30
0.0
 11
19605.04587099998
 21
5067.088643000001
 31
0.0
  0
LINE
  5
4A3C
  8
SUNPOU
  6
CONTINUOUS
 62
     4
 10
19605.04587099998
 20
6187.088643000001
 30
0.0
 11
19605.04587099998
 21
4587.0888079999977
 31
0.0
  0
LINE
  5
4A3D
  8
SUNPOU
  6
CONTINUOUS
 62
     4
 10
24124.045870999969
 20
6187.088643000001
 30
0.0
 11
24124.045870999969
 21
4587.0888079999977
 31
0.0
  0
LINE
  5
4A3E
  8
SUNPOU
  6
CONTINUOUS
 62
     4
 10
19605.04587099998
 20
4667.0888079999986
 30
0.0
 11
24124.045870999969
 21
4667.0888079999986
 31
0.0
  0
LINE
  5
4A3F
  8
SUNPOU
  6
CONTINUOUS
 62
     4
 10
14264.290408999999
 20
6367.0884780000006
 30
0.0
 11
15341.788825
 21
6367.0884780000006
 31
0.0
  0
LINE
  5
4A40
  8
SUNPOU
  6
CONTINUOUS
 62
     4
 10
14356.59568859938
 20
8716.0884780000033
 30
0.0
 11
15341.788825
 21
8716.0884780000033
 31
0.0
  0
LINE
  5
4A41
  8
SUNPOU
  6
CONTINUOUS
 62
     4
 10
15261.788825
 20
6367.0884780000006
 30
0.0
 11
15261.788825
 21
8716.0884780000033
 31
0.0
  0
LINE
  5
4A42
  8
SUNPOU
  6
CONTINUOUS
 62
     4
 10
8864.2904090000047
 20
6367.0884780000006
 30
0.0
 11
7781.7900129999998
 21
6367.0884780000006
 31
0.0
  0
LINE
  5
4A43
  8
SUNPOU
  6
CONTINUOUS
 62
     4
 10
8691.7904089999975
 20
8522.5884780000015
 30
0.0
 11
7781.7900129999998
 21
8522.5884780000015
 31
0.0
  0
LINE
  5
4A44
  8
SUNPOU
  6
CONTINUOUS
 62
     4
 10
7861.7900130000007
 20
6367.0884780000006
 30
0.0
 11
7861.7900130000007
 21
8522.5884780000015
 31
0.0
  0
LINE
  5
4A45
  8
SUNPOU
  6
CONTINUOUS
 62
     4
 10
14171.79040899999
 20
8661.9985410000008
 30
0.0
 11
14171.79040899999
 21
9595.0901529999992
 31
0.0
  0
LINE
  5
4A46
  8
SUNPOU
  6
CONTINUOUS
 62
     4
 10
14321.79040899999
 20
8735.9783004124274
 30
0.0
 11
14321.79040899999
 21
9595.0901529999992
 31
0.0
  0
LINE
  5
4A47
  8
SUNPOU
  6
CONTINUOUS
 62
     4
 10
14171.79040899999
 20
9515.0901529999974
 30
0.0
 11
13931.79040899999
 21
9515.0901529999974
 31
0.0
  0
LINE
  5
4A48
  8
SUNPOU
  6
CONTINUOUS
 62
     4
 10
14321.79040899999
 20
9515.0901529999974
 30
0.0
 11
14561.79040899999
 21
9515.0901529999974
 31
0.0
  0
LINE
  5
4A49
  8
SUNPOU
  6
CONTINUOUS
 62
     4
 10
14171.79040899999
 20
9515.0901529999974
 30
0.0
 11
14321.79040899999
 21
9515.0901529999974
 31
0.0
  0
LINE
  5
4A4A
  8
SUNPOU
  6
CONTINUOUS
 62
     4
 10
8771.7904090000011
 20
8604.088477000003
 30
0.0
 11
8771.7904090000011
 21
9995.088502999999
 31
0.0
  0
LINE
  5
4A4B
  8
SUNPOU
  6
CONTINUOUS
 62
     4
 10
14321.79040899999
 20
8735.9783004124274
 30
0.0
 11
14321.79040899999
 21
9995.088502999999
 31
0.0
  0
LINE
  5
4A4C
  8
SUNPOU
  6
CONTINUOUS
 62
     4
 10
8771.7904090000011
 20
9915.088502999999
 30
0.0
 11
14321.79040899999
 21
9915.088502999999
 31
0.0
  0
LINE
  5
4A4D
  8
SUNPOU
  6
CONTINUOUS
 62
     4
 10
8951.7904090000011
 20
8474.2742526838028
 30
0.0
 11
8951.7904090000011
 21
9595.0901529999992
 31
0.0
  0
LINE
  5
4A4E
  8
SUNPOU
  6
CONTINUOUS
 62
     4
 10
14171.79040899999
 20
8661.9985410000008
 30
0.0
 11
14171.79040899999
 21
9595.0901529999992
 31
0.0
  0
LINE
  5
4A4F
  8
SUNPOU
  6
CONTINUOUS
 62
     4
 10
8951.7904090000011
 20
9515.0901529999974
 30
0.0
 11
14171.79040899999
 21
9515.0901529999974
 31
0.0
  0
LINE
  5
4A50
  8
SUNPOU
  6
CONTINUOUS
 62
     4
 10
8771.7904090000011
 20
8604.088477000003
 30
0.0
 11
8771.7904090000011
 21
9595.0901529999992
 31
0.0
  0
LINE
  5
4A51
  8
SUNPOU
  6
CONTINUOUS
 62
     4
 10
8951.7904090000011
 20
8474.2742526838028
 30
0.0
 11
8951.7904090000011
 21
9595.0901529999992
 31
0.0
  0
LINE
  5
4A52
  8
SUNPOU
  6
CONTINUOUS
 62
     4
 10
8771.7904090000011
 20
9515.0901529999974
 30
0.0
 11
8951.7904090000011
 21
9515.0901529999974
 31
0.0
  0
LINE
  5
4A53
  8
SUNPOU
  6
CONTINUOUS
 62
     4
 10
14129.28842999999
 20
5924.4362189999974
 30
0.0
 11
14129.28842999999
 21
4987.0886419999961
 31
0.0
  0
LINE
  5
4A54
  8
SUNPOU
  6
CONTINUOUS
 62
     4
 10
14171.788430000001
 20
6287.0884770000011
 30
0.0
 11
14171.788430000001
 21
4987.0886419999961
 31
0.0
  0
LINE
  5
4A55
  8
SUNPOU
  6
CONTINUOUS
 62
     4
 10
14129.28842999999
 20
5067.0886419999961
 30
0.0
 11
13889.28842999999
 21
5067.0886419999961
 31
0.0
  0
LINE
  5
4A56
  8
SUNPOU
  6
CONTINUOUS
 62
     4
 10
14171.788430000001
 20
5067.0886419999961
 30
0.0
 11
14411.788429999981
 21
5067.0886419999961
 31
0.0
  0
LINE
  5
4A57
  8
SUNPOU
  6
CONTINUOUS
 62
     4
 10
14129.28842999999
 20
5067.0886419999961
 30
0.0
 11
14171.788430000001
 21
5067.0886419999961
 31
0.0
  0
LINE
  5
4A58
  8
SUNPOU
  6
CONTINUOUS
 62
     4
 10
11561.79040899999
 20
5924.43523
 30
0.0
 11
11561.79040899999
 21
4987.088643000001
 31
0.0
  0
LINE
  5
4A59
  8
SUNPOU
  6
CONTINUOUS
 62
     4
 10
14129.29040899999
 20
5924.43523
 30
0.0
 11
14129.29040899999
 21
4987.088643000001
 31
0.0
  0
LINE
  5
4A5A
  8
SUNPOU
  6
CONTINUOUS
 62
     4
 10
11561.79040899999
 20
5067.088643000001
 30
0.0
 11
14129.29040899999
 21
5067.088643000001
 31
0.0
  0
LINE
  5
4A5B
  8
SUNPOU
  6
CONTINUOUS
 62
     4
 10
8951.7904090000011
 20
6287.0884770000011
 30
0.0
 11
8951.7904090000011
 21
4587.0888069999992
 31
0.0
  0
LINE
  5
4A5C
  8
SUNPOU
  6
CONTINUOUS
 62
     4
 10
14171.788430000001
 20
6287.0884770000011
 30
0.0
 11
14171.788430000001
 21
4587.0888069999992
 31
0.0
  0
LINE
  5
4A5D
  8
SUNPOU
  6
CONTINUOUS
 62
     4
 10
8951.7904090000011
 20
4667.0888069999983
 30
0.0
 11
14171.788430000001
 21
4667.0888069999983
 31
0.0
  0
LINE
  5
4A5E
  8
SUNPOU
  6
CONTINUOUS
 62
     4
 10
8994.2904090000029
 20
5924.4362189999974
 30
0.0
 11
8994.2904090000029
 21
4987.0886419999961
 31
0.0
  0
LINE
  5
4A5F
  8
SUNPOU
  6
CONTINUOUS
 62
     4
 10
8951.7904090000011
 20
6287.0884770000011
 30
0.0
 11
8951.7904090000011
 21
4987.0886419999961
 31
0.0
  0
LINE
  5
4A60
  8
SUNPOU
  6
CONTINUOUS
 62
     4
 10
8994.2904090000029
 20
5067.0886419999961
 30
0.0
 11
9234.2904089999993
 21
5067.0886419999961
 31
0.0
  0
LINE
  5
4A61
  8
SUNPOU
  6
CONTINUOUS
 62
     4
 10
8951.7904090000011
 20
5067.0886419999961
 30
0.0
 11
8711.7904089999975
 21
5067.0886419999961
 31
0.0
  0
LINE
  5
4A62
  8
SUNPOU
  6
CONTINUOUS
 62
     4
 10
8994.2904090000029
 20
5067.0886419999961
 30
0.0
 11
8951.7904090000011
 21
5067.0886419999961
 31
0.0
  0
LINE
  5
4A63
  8
SUNPOU
  6
CONTINUOUS
 62
     4
 10
11561.79040899999
 20
5924.4362189999974
 30
0.0
 11
11561.79040899999
 21
4987.0886419999961
 31
0.0
  0
LINE
  5
4A64
  8
SUNPOU
  6
CONTINUOUS
 62
     4
 10
8994.2904090000029
 20
5924.4362189999974
 30
0.0
 11
8994.2904090000029
 21
4987.0886419999961
 31
0.0
  0
LINE
  5
4A65
  8
SUNPOU
  6
CONTINUOUS
 62
     4
 10
11561.79040899999
 20
5067.0886419999961
 30
0.0
 11
8994.2904090000029
 21
5067.0886419999961
 31
0.0
  0
TEXT
  5
4A66
  8
0
  6
CONTINUOUS
 62
     7
 10
9878.0404090000047
 20
5147.0886419999961
 30
0.0
 40
160.0
  1
2567.5
  0
TEXT
  5
4A67
  8
0
  6
CONTINUOUS
 62
     7
 10
8354.6166999036941
 20
5147.0886419999961
 30
0.0
 40
160.0
  1
42.5
  0
TEXT
  5
4A68
  8
0
  6
CONTINUOUS
 62
     7
 10
11281.78941949999
 20
4747.0888069999992
 30
0.0
 40
160.0
  1
5220
  0
TEXT
  5
4A69
  8
0
  6
CONTINUOUS
 62
     7
 10
12445.54040899999
 20
5147.088643
 30
0.0
 40
160.0
  1
2567.5
  0
TEXT
  5
4A6A
  8
0
  6
CONTINUOUS
 62
     7
 10
14288.962139096289
 20
5147.0886419999961
 30
0.0
 40
160.0
  1
42.5
  0
TEXT
  5
4A6B
  8
0
  6
CONTINUOUS
 62
     7
 10
8358.4570756666672
 20
9595.0901529999992
 30
0.0
 40
160.0
  1
180
  0
TEXT
  5
4A6C
  8
0
  6
CONTINUOUS
 62
     7
 10
11281.79040899999
 20
9595.0901529999992
 30
0.0
 40
160.0
  1
5220
  0
TEXT
  5
4A6D
  8
0
  6
CONTINUOUS
 62
     7
 10
11266.790408999999
 20
9995.088502999999
 30
0.0
 40
160.0
  1
5550
  0
TEXT
  5
4A6E
  8
0
  6
CONTINUOUS
 62
     7
 10
14388.457075666671
 20
9595.0901529999992
 30
0.0
 40
160.0
  1
150
  0
TEXT
  5
4A6F
  8
0
  6
CONTINUOUS
 62
     7
 10
7781.7900129999998
 20
6452.8384780000006
 30
0.0
 40
160.0
  1
2155.5（2395.5）
 50
90.0
  0
TEXT
  5
4A70
  8
0
  6
CONTINUOUS
 62
     7
 10
15181.788824999991
 20
6736.2551446666657
 30
0.0
 40
160.0
  1
2349（2589）
 50
90.0
  0
TEXT
  5
4A71
  8
0
  6
CONTINUOUS
 62
     7
 10
21597.879204333309
 20
4747.0888079999986
 30
0.0
 40
160.0
  1
4519
  0
TEXT
  5
4A72
  8
0
  6
CONTINUOUS
 62
     7
 10
19039.006880741141
 20
5147.088643
 30
0.0
 40
160.0
  1
42.5
  0
TEXT
  5
4A73
  8
0
  6
CONTINUOUS
 62
     7
 10
24210.088820258828
 20
5147.088643
 30
0.0
 40
160.0
  1
42.5
  0
TEXT
  5
4A74
  8
0
  6
CONTINUOUS
 62
     7
 10
20531.295870999991
 20
5147.088643
 30
0.0
 40
160.0
  1
2567.5
  0
TEXT
  5
4A75
  8
0
  6
CONTINUOUS
 62
     7
 10
22774.962537666652
 20
5147.088643
 30
0.0
 40
160.0
  1
1866.5
  0
TEXT
  5
4A76
  8
0
  6
CONTINUOUS
 62
     7
 10
22684.295870999991
 20
5813.755309666667
 30
0.0
 40
160.0
  1
有効開口巾
  0
TEXT
  5
4A77
  8
0
  6
CONTINUOUS
 62
     7
 10
22774.962537666652
 20
5547.088643000001
 30
0.0
 40
160.0
  1
1678.5
  0
TEXT
  5
4A78
  8
0
  6
CONTINUOUS
 62
     7
 10
20003.295870999991
 20
5547.088643000001
 30
0.0
 40
160.0
  1
有効開口巾 2379.5
  0
TEXT
  5
4A79
  8
0
  6
CONTINUOUS
 62
     7
 10
24284.04824599998
 20
9595.0886689999988
 30
0.0
 40
160.0
  1
43
  0
TEXT
  5
4A7A
  8
0
  6
CONTINUOUS
 62
     7
 10
19205.04349599998
 20
9595.0886689999988
 30
0.0
 40
160.0
  1
43
  0
TEXT
  5
4A7B
  8
0
  6
CONTINUOUS
 62
     7
 10
21597.879204333309
 20
9595.0886689999988
 30
0.0
 40
160.0
  1
4519
  0
TEXT
  5
4A7C
  8
0
  6
CONTINUOUS
 62
     7
 10
21571.212537666652
 20
9995.0464389999997
 30
0.0
 40
160.0
  1
4605
  0
TEXT
  5
4A7D
  8
0
  6
CONTINUOUS
 62
     7
 10
18317.54422199995
 20
6522.6715638333326
 30
0.0
 40
160.0
  1
2348.5（2588.5）
 50
90.0
  0
TEXT
  5
4A7E
  8
0
  6
CONTINUOUS
 62
     7
 10
18717.546530999982
 20
6431.0677162912707
 30
0.0
 40
160.0
  1
有効開口高サ 1891.5
 50
90.0
  0
TEXT
  5
4A7F
  8
0
  6
CONTINUOUS
 62
     7
 10
20232.212537666641
 20
20175.540976000011
 30
0.0
 40
160.0
  1
701
  0
TEXT
  5
4A80
  8
0
  6
CONTINUOUS
 62
     7
 10
20933.212537666652
 20
20495.540976000011
 30
0.0
 40
160.0
  1
701
  0
TEXT
  5
4A81
  8
0
  6
CONTINUOUS
 62
     7
 10
21622.713032416661
 20
20495.540976000011
 30
0.0
 40
160.0
  1
758
  0
TEXT
  5
4A82
  8
0
  6
CONTINUOUS
 62
     7
 10
19044.733891471169
 20
20495.540976000011
 30
0.0
 40
160.0
  1
42.5
  0
TEXT
  5
4A83
  8
0
  6
CONTINUOUS
 62
     7
 10
19748.379204333309
 20
20495.540976000011
 30
0.0
 40
160.0
  1
407.5
  0
TEXT
  5
4A84
  8
0
  6
CONTINUOUS
 62
     7
 10
24204.357850528781
 20
20495.540976000011
 30
0.0
 40
160.0
  1
42.5
  0
TEXT
  5
4A85
  8
0
  6
CONTINUOUS
 62
     7
 10
22799.712537666652
 20
20175.540976000011
 30
0.0
 40
160.0
  1
701
  0
TEXT
  5
4A86
  8
0
  6
CONTINUOUS
 62
     7
 10
23489.213032416639
 20
20495.540976000011
 30
0.0
 40
160.0
  1
758
  0
TEXT
  5
4A87
  8
0
  6
CONTINUOUS
 62
     7
 10
22315.879204333291
 20
20495.540976000011
 30
0.0
 40
160.0
  1
407.5
  0
TEXT
  5
4A88
  8
0
  6
CONTINUOUS
 62
     7
 10
25494.045474999992
 20
13891.98625660321
 30
0.0
 40
160.0
  1
42.5
 50
90.0
  0
TEXT
  5
4A89
  8
0
  6
CONTINUOUS
 62
     7
 10
25494.045474999992
 20
19779.09331939679
 30
0.0
 40
160.0
  1
42.5
 50
90.0
  0
TEXT
  5
4A8A
  8
0
  6
CONTINUOUS
 62
     7
 10
25894.045474999959
 20
16795.539787999998
 30
0.0
 40
160.0
  1
5220
 50
90.0
  0
TEXT
  5
4A8B
  8
0
  6
CONTINUOUS
 62
     7
 10
25494.045474999959
 20
15391.789788
 30
0.0
 40
160.0
  1
2567.5
 50
90.0
  0
TEXT
  5
4A8C
  8
0
  6
CONTINUOUS
 62
     7
 10
25494.045474999959
 20
17959.289787999998
 30
0.0
 40
160.0
  1
2567.5
 50
90.0
  0
TEXT
  5
4A8D
  8
0
  6
CONTINUOUS
 62
     7
 10
25094.04547499997
 20
18711.70645466667
 30
0.0
 40
160.0
  1
701
 50
90.0
  0
TEXT
  5
4A8E
  8
0
  6
CONTINUOUS
 62
     7
 10
25094.04547499997
 20
18010.706454666659
 30
0.0
 40
160.0
  1
701
 50
90.0
  0
TEXT
  5
4A8F
  8
0
  6
CONTINUOUS
 62
     7
 10
25094.04547499997
 20
17241.20645466667
 30
0.0
 40
160.0
  1
758
 50
90.0
  0
TEXT
  5
4A90
  8
0
  6
CONTINUOUS
 62
     7
 10
25094.04547499997
 20
16483.206454666659
 30
0.0
 40
160.0
  1
758
 50
90.0
  0
TEXT
  5
4A91
  8
0
  6
CONTINUOUS
 62
     7
 10
25094.04547499997
 20
15793.826710416681
 30
0.0
 40
160.0
  1
701
 50
90.0
  0
TEXT
  5
4A92
  8
0
  6
CONTINUOUS
 62
     7
 10
25094.04547499997
 20
15092.826710416681
 30
0.0
 40
160.0
  1
701
 50
90.0
  0
TEXT
  5
4A93
  8
0
  6
CONTINUOUS
 62
     7
 10
21597.879204333309
 20
13216.591704
 30
0.0
 40
160.0
  1
4519
  0
TEXT
  5
4A94
  8
0
  6
CONTINUOUS
 62
     7
 10
19765.599543382061
 20
13616.59170399998
 30
0.0
 40
160.0
  1
42.5
  0
TEXT
  5
4A95
  8
0
  6
CONTINUOUS
 62
     7
 10
23483.492198617882
 20
13616.59170399998
 30
0.0
 40
160.0
  1
42.5
  0
TEXT
  5
4A96
  8
0
  6
CONTINUOUS
 62
     7
 10
24199.599543382072
 20
13616.59170399998
 30
0.0
 40
160.0
  1
42.5
  0
TEXT
  5
4A97
  8
0
  6
CONTINUOUS
 62
     7
 10
19049.492198617889
 20
13616.59170399998
 30
0.0
 40
160.0
  1
42.5
  0
TEXT
  5
4A98
  8
0
  6
CONTINUOUS
 62
     7
 10
25454.045474999992
 20
18944.917755643201
 30
0.0
 40
160.0
  1
407.5
 50
90.0
  0
TEXT
  5
4A99
  8
0
  6
CONTINUOUS
 62
     7
 10
25454.045474999992
 20
14580.98045795355
 30
0.0
 40
160.0
  1
407.5
 50
90.0
  0
TEXT
  5
4A9A
  8
0
  6
CONTINUOUS
 62
     7
 10
8342.5894259999877
 20
17959.289787999991
 30
0.0
 40
160.0
  1
2567.5
 50
90.0
  0
TEXT
  5
4A9B
  8
0
  6
CONTINUOUS
 62
     7
 10
8342.5894259999823
 20
19954.494972807679
 30
0.0
 40
160.0
  1
222.5
 50
90.0
  0
TEXT
  5
4A9C
  8
0
  6
CONTINUOUS
 62
     7
 10
8742.5894259999877
 20
20012.202363666682
 30
0.0
 40
160.0
  1
10
 50
90.0
  0
TEXT
  5
4A9D
  8
0
  6
CONTINUOUS
 62
     7
 10
8342.5894259999877
 20
15391.789788
 30
0.0
 40
160.0
  1
2567.5
 50
90.0
  0
TEXT
  5
4A9E
  8
0
  6
CONTINUOUS
 62
     7
 10
8342.5894259999823
 20
13700.086777702631
 30
0.0
 40
160.0
  1
192.5
 50
90.0
  0
TEXT
  5
4A9F
  8
0
  6
CONTINUOUS
 62
     7
 10
10485.84184599997
 20
20495.540976000011
 30
0.0
 40
160.0
  1
2567.5
  0
TEXT
  5
4AA0
  8
0
  6
CONTINUOUS
 62
     7
 10
8735.5951399767146
 20
20495.540976000011
 30
0.0
 40
160.0
  1
85.5
  0
TEXT
  5
4AA1
  8
0
  6
CONTINUOUS
 62
     7
 10
12479.502574666651
 20
20495.540976000011
 30
0.0
 40
160.0
  1
1866.5
  0
TEXT
  5
4AA2
  8
0
  6
CONTINUOUS
 62
     7
 10
13922.58261402324
 20
20495.540976000011
 30
0.0
 40
160.0
  1
85.5
  0
TEXT
  5
4AA3
  8
0
  6
CONTINUOUS
 62
     7
 10
10753.087886999971
 20
13216.591704
 30
0.0
 40
160.0
  1
ケラバ外寸 4605
  0
ARC
  5
4AA4
  8
0
  6
BYBLOCK
 62
     0
 10
9266.5884809999807
 20
13139.591704
 30
0.0
 40
15.0
 50
0.0
 51
180.0
  0
ARC
  5
4AA5
  8
0
  6
BYBLOCK
 62
     0
 10
9266.5884809999807
 20
13139.591704
 30
0.0
 40
15.0
 50
180.0
 51
0.0
  0
ARC
  5
4AA6
  8
0
  6
BYBLOCK
 62
     0
 10
13871.58729299998
 20
13136.591704
 30
0.0
 40
15.0
 50
180.0
 51
0.0
  0
ARC
  5
4AA7
  8
0
  6
BYBLOCK
 62
     0
 10
13871.58729299998
 20
13136.591704
 30
0.0
 40
15.0
 50
0.0
 51
180.0
  0
ARC
  5
4AA8
  8
0
  6
BYBLOCK
 62
     0
 10
13786.085907999979
 20
20415.540976000011
 30
0.0
 40
15.0
 50
180.0
 51
0.0
  0
ARC
  5
4AA9
  8
0
  6
BYBLOCK
 62
     0
 10
13786.085907999979
 20
20415.540976000011
 30
0.0
 40
15.0
 50
0.0
 51
180.0
  0
ARC
  5
4AAA
  8
0
  6
BYBLOCK
 62
     0
 10
13871.58590799999
 20
20415.540976000011
 30
0.0
 40
15.0
 50
0.0
 51
180.0
  0
ARC
  5
4AAB
  8
0
  6
BYBLOCK
 62
     0
 10
13871.58590799999
 20
20415.540976000011
 30
0.0
 40
15.0
 50
180.0
 51
0.0
  0
ARC
  5
4AAC
  8
0
  6
BYBLOCK
 62
     0
 10
11919.585907999979
 20
20415.540976000011
 30
0.0
 40
15.0
 50
0.0
 51
180.0
  0
ARC
  5
4AAD
  8
0
  6
BYBLOCK
 62
     0
 10
11919.585907999979
 20
20415.540976000011
 30
0.0
 40
15.0
 50
180.0
 51
0.0
  0
ARC
  5
4AAE
  8
0
  6
BYBLOCK
 62
     0
 10
13786.085907999979
 20
20415.540976000011
 30
0.0
 40
15.0
 50
180.0
 51
0.0
  0
ARC
  5
4AAF
  8
0
  6
BYBLOCK
 62
     0
 10
13786.085907999979
 20
20415.540976000011
 30
0.0
 40
15.0
 50
0.0
 51
180.0
  0
ARC
  5
4AB0
  8
0
  6
BYBLOCK
 62
     0
 10
9352.0918459999775
 20
20415.540976000011
 30
0.0
 40
15.0
 50
0.0
 51
180.0
  0
ARC
  5
4AB1
  8
0
  6
BYBLOCK
 62
     0
 10
9352.0918459999775
 20
20415.540976000011
 30
0.0
 40
15.0
 50
180.0
 51
0.0
  0
ARC
  5
4AB2
  8
0
  6
BYBLOCK
 62
     0
 10
9266.5918459999757
 20
20415.540976000011
 30
0.0
 40
15.0
 50
180.0
 51
0.0
  0
ARC
  5
4AB3
  8
0
  6
BYBLOCK
 62
     0
 10
9266.5918459999757
 20
20415.540976000011
 30
0.0
 40
15.0
 50
0.0
 51
180.0
  0
ARC
  5
4AB4
  8
0
  6
BYBLOCK
 62
     0
 10
11919.59184599997
 20
20415.540976000011
 30
0.0
 40
15.0
 50
180.0
 51
0.0
  0
ARC
  5
4AB5
  8
0
  6
BYBLOCK
 62
     0
 10
11919.59184599997
 20
20415.540976000011
 30
0.0
 40
15.0
 50
0.0
 51
180.0
  0
ARC
  5
4AB6
  8
0
  6
BYBLOCK
 62
     0
 10
9352.0918459999775
 20
20415.540976000011
 30
0.0
 40
15.0
 50
0.0
 51
180.0
  0
ARC
  5
4AB7
  8
0
  6
BYBLOCK
 62
     0
 10
9352.0918459999775
 20
20415.540976000011
 30
0.0
 40
15.0
 50
180.0
 51
0.0
  0
ARC
  5
4AB8
  8
0
  6
BYBLOCK
 62
     0
 10
8422.5894259999877
 20
14508.039787999989
 30
0.0
 40
15.0
 50
270.0
 51
90.0
  0
ARC
  5
4AB9
  8
0
  6
BYBLOCK
 62
     0
 10
8422.5894259999877
 20
14508.039787999989
 30
0.0
 40
15.0
 50
90.0
 51
270.0
  0
ARC
  5
4ABA
  8
0
  6
BYBLOCK
 62
     0
 10
8422.5894259999877
 20
14315.544472999991
 30
0.0
 40
15.0
 50
90.0
 51
270.0
  0
ARC
  5
4ABB
  8
0
  6
BYBLOCK
 62
     0
 10
8422.5894259999877
 20
14315.544472999991
 30
0.0
 40
15.0
 50
270.0
 51
90.0
  0
ARC
  5
4ABC
  8
0
  6
BYBLOCK
 62
     0
 10
8422.5894259999877
 20
17075.53978799998
 30
0.0
 40
15.0
 50
270.0
 51
90.0
  0
ARC
  5
4ABD
  8
0
  6
BYBLOCK
 62
     0
 10
8422.5894259999877
 20
17075.53978799998
 30
0.0
 40
15.0
 50
90.0
 51
270.0
  0
ARC
  5
4ABE
  8
0
  6
BYBLOCK
 62
     0
 10
8422.5894259999877
 20
14508.039787999989
 30
0.0
 40
15.0
 50
90.0
 51
270.0
  0
ARC
  5
4ABF
  8
0
  6
BYBLOCK
 62
     0
 10
8422.5894259999877
 20
14508.039787999989
 30
0.0
 40
15.0
 50
270.0
 51
90.0
  0
ARC
  5
4AC0
  8
0
  6
BYBLOCK
 62
     0
 10
8822.5894259999877
 20
19855.535697000021
 30
0.0
 40
15.0
 50
270.0
 51
90.0
  0
ARC
  5
4AC1
  8
0
  6
BYBLOCK
 62
     0
 10
8822.5894259999877
 20
19855.535697000021
 30
0.0
 40
15.0
 50
90.0
 51
270.0
  0
ARC
  5
4AC2
  8
0
  6
BYBLOCK
 62
     0
 10
8822.5894259999877
 20
19865.53569700001
 30
0.0
 40
15.0
 50
90.0
 51
270.0
  0
ARC
  5
4AC3
  8
0
  6
BYBLOCK
 62
     0
 10
8822.5894259999877
 20
19865.53569700001
 30
0.0
 40
15.0
 50
270.0
 51
90.0
  0
ARC
  5
4AC4
  8
0
  6
BYBLOCK
 62
     0
 10
8422.5894259999877
 20
19643.039787999991
 30
0.0
 40
15.0
 50
90.0
 51
270.0
  0
ARC
  5
4AC5
  8
0
  6
BYBLOCK
 62
     0
 10
8422.5894259999877
 20
19643.039787999991
 30
0.0
 40
15.0
 50
270.0
 51
90.0
  0
ARC
  5
4AC6
  8
0
  6
BYBLOCK
 62
     0
 10
8422.5894259999877
 20
19865.53569700001
 30
0.0
 40
15.0
 50
270.0
 51
90.0
  0
ARC
  5
4AC7
  8
0
  6
BYBLOCK
 62
     0
 10
8422.5894259999877
 20
19865.53569700001
 30
0.0
 40
15.0
 50
90.0
 51
270.0
  0
ARC
  5
4AC8
  8
0
  6
BYBLOCK
 62
     0
 10
8422.5894259999877
 20
17075.53978799998
 30
0.0
 40
15.0
 50
90.0
 51
270.0
  0
ARC
  5
4AC9
  8
0
  6
BYBLOCK
 62
     0
 10
8422.5894259999877
 20
17075.53978799998
 30
0.0
 40
15.0
 50
270.0
 51
90.0
  0
ARC
  5
4ACA
  8
0
  6
BYBLOCK
 62
     0
 10
8422.5894259999877
 20
19643.039787999991
 30
0.0
 40
15.0
 50
270.0
 51
90.0
  0
ARC
  5
4ACB
  8
0
  6
BYBLOCK
 62
     0
 10
8422.5894259999877
 20
19643.039787999991
 30
0.0
 40
15.0
 50
90.0
 51
270.0
  0
ARC
  5
4ACC
  8
0
  6
BYBLOCK
 62
     0
 10
25174.045474999992
 20
14915.66004375
 30
0.0
 40
15.0
 50
270.0
 51
90.0
  0
ARC
  5
4ACD
  8
0
  6
BYBLOCK
 62
     0
 10
25174.045474999992
 20
14915.66004375
 30
0.0
 40
15.0
 50
90.0
 51
270.0
  0
ARC
  5
4ACE
  8
0
  6
BYBLOCK
 62
     0
 10
25174.045474999992
 20
14508.16004375
 30
0.0
 40
15.0
 50
90.0
 51
270.0
  0
ARC
  5
4ACF
  8
0
  6
BYBLOCK
 62
     0
 10
25174.045474999992
 20
14508.16004375
 30
0.0
 40
15.0
 50
270.0
 51
90.0
  0
ARC
  5
4AD0
  8
0
  6
BYBLOCK
 62
     0
 10
25174.045474999992
 20
19235.539787999998
 30
0.0
 40
15.0
 50
90.0
 51
270.0
  0
ARC
  5
4AD1
  8
0
  6
BYBLOCK
 62
     0
 10
25174.045474999992
 20
19235.539787999998
 30
0.0
 40
15.0
 50
270.0
 51
90.0
  0
ARC
  5
4AD2
  8
0
  6
BYBLOCK
 62
     0
 10
25174.045474999992
 20
19643.039787999991
 30
0.0
 40
15.0
 50
270.0
 51
90.0
  0
ARC
  5
4AD3
  8
0
  6
BYBLOCK
 62
     0
 10
25174.045474999992
 20
19643.039787999991
 30
0.0
 40
15.0
 50
90.0
 51
270.0
  0
ARC
  5
4AD4
  8
0
  6
BYBLOCK
 62
     0
 10
19647.54587099998
 20
13536.59170399998
 30
0.0
 40
15.0
 50
0.0
 51
180.0
  0
ARC
  5
4AD5
  8
0
  6
BYBLOCK
 62
     0
 10
19647.54587099998
 20
13536.59170399998
 30
0.0
 40
15.0
 50
180.0
 51
0.0
  0
ARC
  5
4AD6
  8
0
  6
BYBLOCK
 62
     0
 10
19605.043627999981
 20
13536.59170399998
 30
0.0
 40
15.0
 50
180.0
 51
0.0
  0
ARC
  5
4AD7
  8
0
  6
BYBLOCK
 62
     0
 10
19605.043627999981
 20
13536.59170399998
 30
0.0
 40
15.0
 50
0.0
 51
180.0
  0
ARC
  5
4AD8
  8
0
  6
BYBLOCK
 62
     0
 10
24081.54587099998
 20
13536.59170399998
 30
0.0
 40
15.0
 50
180.0
 51
0.0
  0
ARC
  5
4AD9
  8
0
  6
BYBLOCK
 62
     0
 10
24081.54587099998
 20
13536.59170399998
 30
0.0
 40
15.0
 50
0.0
 51
180.0
  0
ARC
  5
4ADA
  8
0
  6
BYBLOCK
 62
     0
 10
24124.048113999968
 20
13536.59170399998
 30
0.0
 40
15.0
 50
0.0
 51
180.0
  0
ARC
  5
4ADB
  8
0
  6
BYBLOCK
 62
     0
 10
24124.048113999968
 20
13536.59170399998
 30
0.0
 40
15.0
 50
180.0
 51
0.0
  0
ARC
  5
4ADC
  8
0
  6
BYBLOCK
 62
     0
 10
24081.54587099998
 20
13536.59170399998
 30
0.0
 40
15.0
 50
0.0
 51
180.0
  0
ARC
  5
4ADD
  8
0
  6
BYBLOCK
 62
     0
 10
24081.54587099998
 20
13536.59170399998
 30
0.0
 40
15.0
 50
180.0
 51
0.0
  0
ARC
  5
4ADE
  8
0
  6
BYBLOCK
 62
     0
 10
24039.043627999981
 20
13536.59170399998
 30
0.0
 40
15.0
 50
180.0
 51
0.0
  0
ARC
  5
4ADF
  8
0
  6
BYBLOCK
 62
     0
 10
24039.043627999981
 20
13536.59170399998
 30
0.0
 40
15.0
 50
0.0
 51
180.0
  0
ARC
  5
4AE0
  8
0
  6
BYBLOCK
 62
     0
 10
19647.54587099998
 20
13536.59170399998
 30
0.0
 40
15.0
 50
180.0
 51
0.0
  0
ARC
  5
4AE1
  8
0
  6
BYBLOCK
 62
     0
 10
19647.54587099998
 20
13536.59170399998
 30
0.0
 40
15.0
 50
0.0
 51
180.0
  0
ARC
  5
4AE2
  8
0
  6
BYBLOCK
 62
     0
 10
19690.048113999961
 20
13536.59170399998
 30
0.0
 40
15.0
 50
0.0
 51
180.0
  0
ARC
  5
4AE3
  8
0
  6
BYBLOCK
 62
     0
 10
19690.048113999961
 20
13536.59170399998
 30
0.0
 40
15.0
 50
180.0
 51
0.0
  0
ARC
  5
4AE4
  8
0
  6
BYBLOCK
 62
     0
 10
19605.043627999981
 20
13136.591704
 30
0.0
 40
15.0
 50
0.0
 51
180.0
  0
ARC
  5
4AE5
  8
0
  6
BYBLOCK
 62
     0
 10
19605.043627999981
 20
13136.591704
 30
0.0
 40
15.0
 50
180.0
 51
0.0
  0
ARC
  5
4AE6
  8
0
  6
BYBLOCK
 62
     0
 10
24124.048113999968
 20
13136.591704
 30
0.0
 40
15.0
 50
180.0
 51
0.0
  0
ARC
  5
4AE7
  8
0
  6
BYBLOCK
 62
     0
 10
24124.048113999968
 20
13136.591704
 30
0.0
 40
15.0
 50
0.0
 51
180.0
  0
ARC
  5
4AE8
  8
0
  6
BYBLOCK
 62
     0
 10
25174.045474999992
 20
15616.7802995
 30
0.0
 40
15.0
 50
270.0
 51
90.0
  0
ARC
  5
4AE9
  8
0
  6
BYBLOCK
 62
     0
 10
25174.045474999992
 20
15616.7802995
 30
0.0
 40
15.0
 50
90.0
 51
270.0
  0
ARC
  5
4AEA
  8
0
  6
BYBLOCK
 62
     0
 10
25174.045474999992
 20
14915.539788
 30
0.0
 40
15.0
 50
90.0
 51
270.0
  0
ARC
  5
4AEB
  8
0
  6
BYBLOCK
 62
     0
 10
25174.045474999992
 20
14915.539788
 30
0.0
 40
15.0
 50
270.0
 51
90.0
  0
ARC
  5
4AEC
  8
0
  6
BYBLOCK
 62
     0
 10
25174.045474999992
 20
16317.539788
 30
0.0
 40
15.0
 50
270.0
 51
90.0
  0
ARC
  5
4AED
  8
0
  6
BYBLOCK
 62
     0
 10
25174.045474999992
 20
16317.539788
 30
0.0
 40
15.0
 50
90.0
 51
270.0
  0
ARC
  5
4AEE
  8
0
  6
BYBLOCK
 62
     0
 10
25174.045474999992
 20
15616.7802995
 30
0.0
 40
15.0
 50
90.0
 51
270.0
  0
ARC
  5
4AEF
  8
0
  6
BYBLOCK
 62
     0
 10
25174.045474999992
 20
15616.7802995
 30
0.0
 40
15.0
 50
270.0
 51
90.0
  0
ARC
  5
4AF0
  8
0
  6
BYBLOCK
 62
     0
 10
25174.045474999992
 20
17075.53978799998
 30
0.0
 40
15.0
 50
270.0
 51
90.0
  0
ARC
  5
4AF1
  8
0
  6
BYBLOCK
 62
     0
 10
25174.045474999992
 20
17075.53978799998
 30
0.0
 40
15.0
 50
90.0
 51
270.0
  0
ARC
  5
4AF2
  8
0
  6
BYBLOCK
 62
     0
 10
25174.045474999992
 20
16317.539788
 30
0.0
 40
15.0
 50
90.0
 51
270.0
  0
ARC
  5
4AF3
  8
0
  6
BYBLOCK
 62
     0
 10
25174.045474999992
 20
16317.539788
 30
0.0
 40
15.0
 50
270.0
 51
90.0
  0
ARC
  5
4AF4
  8
0
  6
BYBLOCK
 62
     0
 10
25174.045474999992
 20
17833.539787999991
 30
0.0
 40
15.0
 50
270.0
 51
90.0
  0
ARC
  5
4AF5
  8
0
  6
BYBLOCK
 62
     0
 10
25174.045474999992
 20
17833.539787999991
 30
0.0
 40
15.0
 50
90.0
 51
270.0
  0
ARC
  5
4AF6
  8
0
  6
BYBLOCK
 62
     0
 10
25174.045474999992
 20
17075.53978799998
 30
0.0
 40
15.0
 50
90.0
 51
270.0
  0
ARC
  5
4AF7
  8
0
  6
BYBLOCK
 62
     0
 10
25174.045474999992
 20
17075.53978799998
 30
0.0
 40
15.0
 50
270.0
 51
90.0
  0
ARC
  5
4AF8
  8
0
  6
BYBLOCK
 62
     0
 10
25174.045474999992
 20
18534.539787999998
 30
0.0
 40
15.0
 50
270.0
 51
90.0
  0
ARC
  5
4AF9
  8
0
  6
BYBLOCK
 62
     0
 10
25174.045474999992
 20
18534.539787999998
 30
0.0
 40
15.0
 50
90.0
 51
270.0
  0
ARC
  5
4AFA
  8
0
  6
BYBLOCK
 62
     0
 10
25174.045474999992
 20
17833.539787999991
 30
0.0
 40
15.0
 50
90.0
 51
270.0
  0
ARC
  5
4AFB
  8
0
  6
BYBLOCK
 62
     0
 10
25174.045474999992
 20
17833.539787999991
 30
0.0
 40
15.0
 50
270.0
 51
90.0
  0
ARC
  5
4AFC
  8
0
  6
BYBLOCK
 62
     0
 10
25174.045474999992
 20
19235.539787999998
 30
0.0
 40
15.0
 50
270.0
 51
90.0
  0
ARC
  5
4AFD
  8
0
  6
BYBLOCK
 62
     0
 10
25174.045474999992
 20
19235.539787999998
 30
0.0
 40
15.0
 50
90.0
 51
270.0
  0
ARC
  5
4AFE
  8
0
  6
BYBLOCK
 62
     0
 10
25174.045474999992
 20
18534.539787999998
 30
0.0
 40
15.0
 50
90.0
 51
270.0
  0
ARC
  5
4AFF
  8
0
  6
BYBLOCK
 62
     0
 10
25174.045474999992
 20
18534.539787999998
 30
0.0
 40
15.0
 50
270.0
 51
90.0
  0
ARC
  5
4B00
  8
0
  6
BYBLOCK
 62
     0
 10
25574.045474999992
 20
17075.53978799998
 30
0.0
 40
15.0
 50
90.0
 51
270.0
  0
ARC
  5
4B01
  8
0
  6
BYBLOCK
 62
     0
 10
25574.045474999992
 20
17075.53978799998
 30
0.0
 40
15.0
 50
270.0
 51
90.0
  0
ARC
  5
4B02
  8
0
  6
BYBLOCK
 62
     0
 10
25574.045474999992
 20
19643.039787999991
 30
0.0
 40
15.0
 50
270.0
 51
90.0
  0
ARC
  5
4B03
  8
0
  6
BYBLOCK
 62
     0
 10
25574.045474999992
 20
19643.039787999991
 30
0.0
 40
15.0
 50
90.0
 51
270.0
  0
ARC
  5
4B04
  8
0
  6
BYBLOCK
 62
     0
 10
25574.045474999992
 20
14508.039787999989
 30
0.0
 40
15.0
 50
90.0
 51
270.0
  0
ARC
  5
4B05
  8
0
  6
BYBLOCK
 62
     0
 10
25574.045474999992
 20
14508.039787999989
 30
0.0
 40
15.0
 50
270.0
 51
90.0
  0
ARC
  5
4B06
  8
0
  6
BYBLOCK
 62
     0
 10
25574.045474999992
 20
17075.53978799998
 30
0.0
 40
15.0
 50
270.0
 51
90.0
  0
ARC
  5
4B07
  8
0
  6
BYBLOCK
 62
     0
 10
25574.045474999992
 20
17075.53978799998
 30
0.0
 40
15.0
 50
90.0
 51
270.0
  0
ARC
  5
4B08
  8
0
  6
BYBLOCK
 62
     0
 10
25974.045474999992
 20
19685.537082999988
 30
0.0
 40
15.0
 50
270.0
 51
90.0
  0
ARC
  5
4B09
  8
0
  6
BYBLOCK
 62
     0
 10
25974.045474999992
 20
19685.537082999988
 30
0.0
 40
15.0
 50
90.0
 51
270.0
  0
ARC
  5
4B0A
  8
0
  6
BYBLOCK
 62
     0
 10
25974.045474999992
 20
14465.542493000001
 30
0.0
 40
15.0
 50
90.0
 51
270.0
  0
ARC
  5
4B0B
  8
0
  6
BYBLOCK
 62
     0
 10
25974.045474999992
 20
14465.542493000001
 30
0.0
 40
15.0
 50
270.0
 51
90.0
  0
ARC
  5
4B0C
  8
0
  6
BYBLOCK
 62
     0
 10
25574.045474999992
 20
19643.039787999991
 30
0.0
 40
15.0
 50
270.0
 51
90.0
  0
ARC
  5
4B0D
  8
0
  6
BYBLOCK
 62
     0
 10
25574.045474999992
 20
19643.039787999991
 30
0.0
 40
15.0
 50
90.0
 51
270.0
  0
ARC
  5
4B0E
  8
0
  6
BYBLOCK
 62
     0
 10
25574.045474999992
 20
19685.537082999988
 30
0.0
 40
15.0
 50
90.0
 51
270.0
  0
ARC
  5
4B0F
  8
0
  6
BYBLOCK
 62
     0
 10
25574.045474999992
 20
19685.537082999988
 30
0.0
 40
15.0
 50
270.0
 51
90.0
  0
ARC
  5
4B10
  8
0
  6
BYBLOCK
 62
     0
 10
25574.045474999992
 20
14508.039787999989
 30
0.0
 40
15.0
 50
90.0
 51
270.0
  0
ARC
  5
4B11
  8
0
  6
BYBLOCK
 62
     0
 10
25574.045474999992
 20
14508.039787999989
 30
0.0
 40
15.0
 50
270.0
 51
90.0
  0
ARC
  5
4B12
  8
0
  6
BYBLOCK
 62
     0
 10
25574.045474999992
 20
14465.542493000001
 30
0.0
 40
15.0
 50
270.0
 51
90.0
  0
ARC
  5
4B13
  8
0
  6
BYBLOCK
 62
     0
 10
25574.045474999992
 20
14465.542493000001
 30
0.0
 40
15.0
 50
90.0
 51
270.0
  0
ARC
  5
4B14
  8
0
  6
BYBLOCK
 62
     0
 10
22215.04587099998
 20
20415.540976000011
 30
0.0
 40
15.0
 50
0.0
 51
180.0
  0
ARC
  5
4B15
  8
0
  6
BYBLOCK
 62
     0
 10
22215.04587099998
 20
20415.540976000011
 30
0.0
 40
15.0
 50
180.0
 51
0.0
  0
ARC
  5
4B16
  8
0
  6
BYBLOCK
 62
     0
 10
22622.545870999969
 20
20415.540976000011
 30
0.0
 40
15.0
 50
180.0
 51
0.0
  0
ARC
  5
4B17
  8
0
  6
BYBLOCK
 62
     0
 10
22622.545870999969
 20
20415.540976000011
 30
0.0
 40
15.0
 50
0.0
 51
180.0
  0
ARC
  5
4B18
  8
0
  6
BYBLOCK
 62
     0
 10
23323.545870999969
 20
20415.540976000011
 30
0.0
 40
15.0
 50
0.0
 51
180.0
  0
ARC
  5
4B19
  8
0
  6
BYBLOCK
 62
     0
 10
23323.545870999969
 20
20415.540976000011
 30
0.0
 40
15.0
 50
180.0
 51
0.0
  0
ARC
  5
4B1A
  8
0
  6
BYBLOCK
 62
     0
 10
24081.546860499991
 20
20415.540976000011
 30
0.0
 40
15.0
 50
180.0
 51
0.0
  0
ARC
  5
4B1B
  8
0
  6
BYBLOCK
 62
     0
 10
24081.546860499991
 20
20415.540976000011
 30
0.0
 40
15.0
 50
0.0
 51
180.0
  0
ARC
  5
4B1C
  8
0
  6
BYBLOCK
 62
     0
 10
22622.545870999969
 20
20415.540976000011
 30
0.0
 40
15.0
 50
0.0
 51
180.0
  0
ARC
  5
4B1D
  8
0
  6
BYBLOCK
 62
     0
 10
22622.545870999969
 20
20415.540976000011
 30
0.0
 40
15.0
 50
180.0
 51
0.0
  0
ARC
  5
4B1E
  8
0
  6
BYBLOCK
 62
     0
 10
23323.545870999969
 20
20415.540976000011
 30
0.0
 40
15.0
 50
180.0
 51
0.0
  0
ARC
  5
4B1F
  8
0
  6
BYBLOCK
 62
     0
 10
23323.545870999969
 20
20415.540976000011
 30
0.0
 40
15.0
 50
0.0
 51
180.0
  0
ARC
  5
4B20
  8
0
  6
BYBLOCK
 62
     0
 10
24081.54587099998
 20
20415.540976000011
 30
0.0
 40
15.0
 50
180.0
 51
0.0
  0
ARC
  5
4B21
  8
0
  6
BYBLOCK
 62
     0
 10
24081.54587099998
 20
20415.540976000011
 30
0.0
 40
15.0
 50
0.0
 51
180.0
  0
ARC
  5
4B22
  8
0
  6
BYBLOCK
 62
     0
 10
24124.042175999981
 20
20415.540976000011
 30
0.0
 40
15.0
 50
0.0
 51
180.0
  0
ARC
  5
4B23
  8
0
  6
BYBLOCK
 62
     0
 10
24124.042175999981
 20
20415.540976000011
 30
0.0
 40
15.0
 50
180.0
 51
0.0
  0
ARC
  5
4B24
  8
0
  6
BYBLOCK
 62
     0
 10
19647.54587099998
 20
20415.540976000011
 30
0.0
 40
15.0
 50
0.0
 51
180.0
  0
ARC
  5
4B25
  8
0
  6
BYBLOCK
 62
     0
 10
19647.54587099998
 20
20415.540976000011
 30
0.0
 40
15.0
 50
180.0
 51
0.0
  0
ARC
  5
4B26
  8
0
  6
BYBLOCK
 62
     0
 10
20055.04587099998
 20
20415.540976000011
 30
0.0
 40
15.0
 50
180.0
 51
0.0
  0
ARC
  5
4B27
  8
0
  6
BYBLOCK
 62
     0
 10
20055.04587099998
 20
20415.540976000011
 30
0.0
 40
15.0
 50
0.0
 51
180.0
  0
ARC
  5
4B28
  8
0
  6
BYBLOCK
 62
     0
 10
19647.54587099998
 20
20415.540976000011
 30
0.0
 40
15.0
 50
0.0
 51
180.0
  0
ARC
  5
4B29
  8
0
  6
BYBLOCK
 62
     0
 10
19647.54587099998
 20
20415.540976000011
 30
0.0
 40
15.0
 50
180.0
 51
0.0
  0
ARC
  5
4B2A
  8
0
  6
BYBLOCK
 62
     0
 10
19605.049565999969
 20
20415.540976000011
 30
0.0
 40
15.0
 50
180.0
 51
0.0
  0
ARC
  5
4B2B
  8
0
  6
BYBLOCK
 62
     0
 10
19605.049565999969
 20
20415.540976000011
 30
0.0
 40
15.0
 50
0.0
 51
180.0
  0
ARC
  5
4B2C
  8
0
  6
BYBLOCK
 62
     0
 10
21457.04587099998
 20
20415.540976000011
 30
0.0
 40
15.0
 50
0.0
 51
180.0
  0
ARC
  5
4B2D
  8
0
  6
BYBLOCK
 62
     0
 10
21457.04587099998
 20
20415.540976000011
 30
0.0
 40
15.0
 50
180.0
 51
0.0
  0
ARC
  5
4B2E
  8
0
  6
BYBLOCK
 62
     0
 10
22215.046860499991
 20
20415.540976000011
 30
0.0
 40
15.0
 50
180.0
 51
0.0
  0
ARC
  5
4B2F
  8
0
  6
BYBLOCK
 62
     0
 10
22215.046860499991
 20
20415.540976000011
 30
0.0
 40
15.0
 50
0.0
 51
180.0
  0
ARC
  5
4B30
  8
0
  6
BYBLOCK
 62
     0
 10
20756.04587099998
 20
20415.540976000011
 30
0.0
 40
15.0
 50
0.0
 51
180.0
  0
ARC
  5
4B31
  8
0
  6
BYBLOCK
 62
     0
 10
20756.04587099998
 20
20415.540976000011
 30
0.0
 40
15.0
 50
180.0
 51
0.0
  0
ARC
  5
4B32
  8
0
  6
BYBLOCK
 62
     0
 10
21457.04587099998
 20
20415.540976000011
 30
0.0
 40
15.0
 50
180.0
 51
0.0
  0
ARC
  5
4B33
  8
0
  6
BYBLOCK
 62
     0
 10
21457.04587099998
 20
20415.540976000011
 30
0.0
 40
15.0
 50
0.0
 51
180.0
  0
ARC
  5
4B34
  8
0
  6
BYBLOCK
 62
     0
 10
20055.04587099998
 20
20415.540976000011
 30
0.0
 40
15.0
 50
0.0
 51
180.0
  0
ARC
  5
4B35
  8
0
  6
BYBLOCK
 62
     0
 10
20055.04587099998
 20
20415.540976000011
 30
0.0
 40
15.0
 50
180.0
 51
0.0
  0
ARC
  5
4B36
  8
0
  6
BYBLOCK
 62
     0
 10
20756.04587099998
 20
20415.540976000011
 30
0.0
 40
15.0
 50
180.0
 51
0.0
  0
ARC
  5
4B37
  8
0
  6
BYBLOCK
 62
     0
 10
20756.04587099998
 20
20415.540976000011
 30
0.0
 40
15.0
 50
0.0
 51
180.0
  0
ARC
  5
4B38
  8
0
  6
BYBLOCK
 62
     0
 10
18797.54653099996
 20
6367.0884779999951
 30
0.0
 40
15.0
 50
90.0
 51
270.0
  0
ARC
  5
4B39
  8
0
  6
BYBLOCK
 62
     0
 10
18797.54653099996
 20
6367.0884779999951
 30
0.0
 40
15.0
 50
270.0
 51
90.0
  0
ARC
  5
4B3A
  8
0
  6
BYBLOCK
 62
     0
 10
18797.546530999982
 20
8258.588477999996
 30
0.0
 40
15.0
 50
270.0
 51
90.0
  0
ARC
  5
4B3B
  8
0
  6
BYBLOCK
 62
     0
 10
18797.546530999982
 20
8258.588477999996
 30
0.0
 40
15.0
 50
90.0
 51
270.0
  0
ARC
  5
4B3C
  8
0
  6
BYBLOCK
 62
     0
 10
18397.54422199995
 20
6367.0884779999969
 30
0.0
 40
15.0
 50
90.0
 51
270.0
  0
ARC
  5
4B3D
  8
0
  6
BYBLOCK
 62
     0
 10
18397.54422199995
 20
6367.0884779999969
 30
0.0
 40
15.0
 50
270.0
 51
90.0
  0
ARC
  5
4B3E
  8
0
  6
BYBLOCK
 62
     0
 10
18397.54422199995
 20
8715.5879829999976
 30
0.0
 40
15.0
 50
270.0
 51
90.0
  0
ARC
  5
4B3F
  8
0
  6
BYBLOCK
 62
     0
 10
18397.54422199995
 20
8715.5879829999976
 30
0.0
 40
15.0
 50
90.0
 51
270.0
  0
ARC
  5
4B40
  8
0
  6
BYBLOCK
 62
     0
 10
19562.043495999958
 20
9915.0464390000016
 30
0.0
 40
15.0
 50
0.0
 51
180.0
  0
ARC
  5
4B41
  8
0
  6
BYBLOCK
 62
     0
 10
19562.043495999958
 20
9915.0464390000016
 30
0.0
 40
15.0
 50
180.0
 51
0.0
  0
ARC
  5
4B42
  8
0
  6
BYBLOCK
 62
     0
 10
24167.04824599998
 20
9915.0464390000016
 30
0.0
 40
15.0
 50
180.0
 51
0.0
  0
ARC
  5
4B43
  8
0
  6
BYBLOCK
 62
     0
 10
24167.04824599998
 20
9915.0464390000016
 30
0.0
 40
15.0
 50
0.0
 51
180.0
  0
ARC
  5
4B44
  8
0
  6
BYBLOCK
 62
     0
 10
19605.04560699996
 20
9515.0886689999988
 30
0.0
 40
15.0
 50
0.0
 51
180.0
  0
ARC
  5
4B45
  8
0
  6
BYBLOCK
 62
     0
 10
19605.04560699996
 20
9515.0886689999988
 30
0.0
 40
15.0
 50
180.0
 51
0.0
  0
ARC
  5
4B46
  8
0
  6
BYBLOCK
 62
     0
 10
24124.04613499996
 20
9515.0886689999988
 30
0.0
 40
15.0
 50
180.0
 51
0.0
  0
ARC
  5
4B47
  8
0
  6
BYBLOCK
 62
     0
 10
24124.04613499996
 20
9515.0886689999988
 30
0.0
 40
15.0
 50
0.0
 51
180.0
  0
ARC
  5
4B48
  8
0
  6
BYBLOCK
 62
     0
 10
19605.04560699996
 20
9515.0886689999988
 30
0.0
 40
15.0
 50
0.0
 51
180.0
  0
ARC
  5
4B49
  8
0
  6
BYBLOCK
 62
     0
 10
19605.04560699996
 20
9515.0886689999988
 30
0.0
 40
15.0
 50
180.0
 51
0.0
  0
ARC
  5
4B4A
  8
0
  6
BYBLOCK
 62
     0
 10
19562.043495999958
 20
9515.0886689999988
 30
0.0
 40
15.0
 50
180.0
 51
0.0
  0
ARC
  5
4B4B
  8
0
  6
BYBLOCK
 62
     0
 10
19562.043495999958
 20
9515.0886689999988
 30
0.0
 40
15.0
 50
0.0
 51
180.0
  0
ARC
  5
4B4C
  8
0
  6
BYBLOCK
 62
     0
 10
24124.04613499996
 20
9515.0886689999988
 30
0.0
 40
15.0
 50
180.0
 51
0.0
  0
ARC
  5
4B4D
  8
0
  6
BYBLOCK
 62
     0
 10
24124.04613499996
 20
9515.0886689999988
 30
0.0
 40
15.0
 50
0.0
 51
180.0
  0
ARC
  5
4B4E
  8
0
  6
BYBLOCK
 62
     0
 10
24167.04824599998
 20
9515.0886689999988
 30
0.0
 40
15.0
 50
0.0
 51
180.0
  0
ARC
  5
4B4F
  8
0
  6
BYBLOCK
 62
     0
 10
24167.04824599998
 20
9515.0886689999988
 30
0.0
 40
15.0
 50
180.0
 51
0.0
  0
ARC
  5
4B50
  8
0
  6
BYBLOCK
 62
     0
 10
19741.54587099998
 20
5467.088643000001
 30
0.0
 40
15.0
 50
0.0
 51
180.0
  0
ARC
  5
4B51
  8
0
  6
BYBLOCK
 62
     0
 10
19741.54587099998
 20
5467.088643000001
 30
0.0
 40
15.0
 50
180.0
 51
0.0
  0
ARC
  5
4B52
  8
0
  6
BYBLOCK
 62
     0
 10
22121.04587099998
 20
5467.088643000001
 30
0.0
 40
15.0
 50
180.0
 51
0.0
  0
ARC
  5
4B53
  8
0
  6
BYBLOCK
 62
     0
 10
22121.04587099998
 20
5467.088643000001
 30
0.0
 40
15.0
 50
0.0
 51
180.0
  0
ARC
  5
4B54
  8
0
  6
BYBLOCK
 62
     0
 10
22309.04587099998
 20
5467.088643000001
 30
0.0
 40
15.0
 50
0.0
 51
180.0
  0
ARC
  5
4B55
  8
0
  6
BYBLOCK
 62
     0
 10
22309.04587099998
 20
5467.088643000001
 30
0.0
 40
15.0
 50
180.0
 51
0.0
  0
ARC
  5
4B56
  8
0
  6
BYBLOCK
 62
     0
 10
23987.54587099998
 20
5467.088643000001
 30
0.0
 40
15.0
 50
180.0
 51
0.0
  0
ARC
  5
4B57
  8
0
  6
BYBLOCK
 62
     0
 10
23987.54587099998
 20
5467.088643000001
 30
0.0
 40
15.0
 50
0.0
 51
180.0
  0
ARC
  5
4B58
  8
0
  6
BYBLOCK
 62
     0
 10
22215.04587099998
 20
5067.088643000001
 30
0.0
 40
15.0
 50
0.0
 51
180.0
  0
ARC
  5
4B59
  8
0
  6
BYBLOCK
 62
     0
 10
22215.04587099998
 20
5067.088643000001
 30
0.0
 40
15.0
 50
180.0
 51
0.0
  0
ARC
  5
4B5A
  8
0
  6
BYBLOCK
 62
     0
 10
24081.54587099998
 20
5067.088643000001
 30
0.0
 40
15.0
 50
180.0
 51
0.0
  0
ARC
  5
4B5B
  8
0
  6
BYBLOCK
 62
     0
 10
24081.54587099998
 20
5067.088643000001
 30
0.0
 40
15.0
 50
0.0
 51
180.0
  0
ARC
  5
4B5C
  8
0
  6
BYBLOCK
 62
     0
 10
19647.54587099998
 20
5067.088643000001
 30
0.0
 40
15.0
 50
0.0
 51
180.0
  0
ARC
  5
4B5D
  8
0
  6
BYBLOCK
 62
     0
 10
19647.54587099998
 20
5067.088643000001
 30
0.0
 40
15.0
 50
180.0
 51
0.0
  0
ARC
  5
4B5E
  8
0
  6
BYBLOCK
 62
     0
 10
22215.04587099998
 20
5067.088643000001
 30
0.0
 40
15.0
 50
180.0
 51
0.0
  0
ARC
  5
4B5F
  8
0
  6
BYBLOCK
 62
     0
 10
22215.04587099998
 20
5067.088643000001
 30
0.0
 40
15.0
 50
0.0
 51
180.0
  0
ARC
  5
4B60
  8
0
  6
BYBLOCK
 62
     0
 10
24081.549829999982
 20
5067.088643000001
 30
0.0
 40
15.0
 50
180.0
 51
0.0
  0
ARC
  5
4B61
  8
0
  6
BYBLOCK
 62
     0
 10
24081.549829999982
 20
5067.088643000001
 30
0.0
 40
15.0
 50
0.0
 51
180.0
  0
ARC
  5
4B62
  8
0
  6
BYBLOCK
 62
     0
 10
24124.049829999989
 20
5067.088643000001
 30
0.0
 40
15.0
 50
0.0
 51
180.0
  0
ARC
  5
4B63
  8
0
  6
BYBLOCK
 62
     0
 10
24124.049829999989
 20
5067.088643000001
 30
0.0
 40
15.0
 50
180.0
 51
0.0
  0
ARC
  5
4B64
  8
0
  6
BYBLOCK
 62
     0
 10
19647.54587099998
 20
5067.088643000001
 30
0.0
 40
15.0
 50
0.0
 51
180.0
  0
ARC
  5
4B65
  8
0
  6
BYBLOCK
 62
     0
 10
19647.54587099998
 20
5067.088643000001
 30
0.0
 40
15.0
 50
180.0
 51
0.0
  0
ARC
  5
4B66
  8
0
  6
BYBLOCK
 62
     0
 10
19605.04587099998
 20
5067.088643000001
 30
0.0
 40
15.0
 50
180.0
 51
0.0
  0
ARC
  5
4B67
  8
0
  6
BYBLOCK
 62
     0
 10
19605.04587099998
 20
5067.088643000001
 30
0.0
 40
15.0
 50
0.0
 51
180.0
  0
ARC
  5
4B68
  8
0
  6
BYBLOCK
 62
     0
 10
19605.04587099998
 20
4667.0888079999986
 30
0.0
 40
15.0
 50
0.0
 51
180.0
  0
ARC
  5
4B69
  8
0
  6
BYBLOCK
 62
     0
 10
19605.04587099998
 20
4667.0888079999986
 30
0.0
 40
15.0
 50
180.0
 51
0.0
  0
ARC
  5
4B6A
  8
0
  6
BYBLOCK
 62
     0
 10
24124.045870999969
 20
4667.0888079999986
 30
0.0
 40
15.0
 50
180.0
 51
0.0
  0
ARC
  5
4B6B
  8
0
  6
BYBLOCK
 62
     0
 10
24124.045870999969
 20
4667.0888079999986
 30
0.0
 40
15.0
 50
0.0
 51
180.0
  0
ARC
  5
4B6C
  8
0
  6
BYBLOCK
 62
     0
 10
15261.788825
 20
6367.0884780000006
 30
0.0
 40
15.0
 50
90.0
 51
270.0
  0
ARC
  5
4B6D
  8
0
  6
BYBLOCK
 62
     0
 10
15261.788825
 20
6367.0884780000006
 30
0.0
 40
15.0
 50
270.0
 51
90.0
  0
ARC
  5
4B6E
  8
0
  6
BYBLOCK
 62
     0
 10
15261.788825
 20
8716.0884780000033
 30
0.0
 40
15.0
 50
270.0
 51
90.0
  0
ARC
  5
4B6F
  8
0
  6
BYBLOCK
 62
     0
 10
15261.788825
 20
8716.0884780000033
 30
0.0
 40
15.0
 50
90.0
 51
270.0
  0
ARC
  5
4B70
  8
0
  6
BYBLOCK
 62
     0
 10
7861.7900130000007
 20
6367.0884780000006
 30
0.0
 40
15.0
 50
90.0
 51
270.0
  0
ARC
  5
4B71
  8
0
  6
BYBLOCK
 62
     0
 10
7861.7900130000007
 20
6367.0884780000006
 30
0.0
 40
15.0
 50
270.0
 51
90.0
  0
ARC
  5
4B72
  8
0
  6
BYBLOCK
 62
     0
 10
7861.7900130000007
 20
8522.5884780000015
 30
0.0
 40
15.0
 50
270.0
 51
90.0
  0
ARC
  5
4B73
  8
0
  6
BYBLOCK
 62
     0
 10
7861.7900130000007
 20
8522.5884780000015
 30
0.0
 40
15.0
 50
90.0
 51
270.0
  0
ARC
  5
4B74
  8
0
  6
BYBLOCK
 62
     0
 10
14171.79040899999
 20
9515.0901529999974
 30
0.0
 40
15.0
 50
180.0
 51
0.0
  0
ARC
  5
4B75
  8
0
  6
BYBLOCK
 62
     0
 10
14171.79040899999
 20
9515.0901529999974
 30
0.0
 40
15.0
 50
0.0
 51
180.0
  0
ARC
  5
4B76
  8
0
  6
BYBLOCK
 62
     0
 10
14321.79040899999
 20
9515.0901529999974
 30
0.0
 40
15.0
 50
0.0
 51
180.0
  0
ARC
  5
4B77
  8
0
  6
BYBLOCK
 62
     0
 10
14321.79040899999
 20
9515.0901529999974
 30
0.0
 40
15.0
 50
180.0
 51
0.0
  0
ARC
  5
4B78
  8
0
  6
BYBLOCK
 62
     0
 10
8771.7904090000011
 20
9915.088502999999
 30
0.0
 40
15.0
 50
0.0
 51
180.0
  0
ARC
  5
4B79
  8
0
  6
BYBLOCK
 62
     0
 10
8771.7904090000011
 20
9915.088502999999
 30
0.0
 40
15.0
 50
180.0
 51
0.0
  0
ARC
  5
4B7A
  8
0
  6
BYBLOCK
 62
     0
 10
14321.79040899999
 20
9915.088502999999
 30
0.0
 40
15.0
 50
180.0
 51
0.0
  0
ARC
  5
4B7B
  8
0
  6
BYBLOCK
 62
     0
 10
14321.79040899999
 20
9915.088502999999
 30
0.0
 40
15.0
 50
0.0
 51
180.0
  0
ARC
  5
4B7C
  8
0
  6
BYBLOCK
 62
     0
 10
8951.7904090000011
 20
9515.0901529999974
 30
0.0
 40
15.0
 50
0.0
 51
180.0
  0
ARC
  5
4B7D
  8
0
  6
BYBLOCK
 62
     0
 10
8951.7904090000011
 20
9515.0901529999974
 30
0.0
 40
15.0
 50
180.0
 51
0.0
  0
ARC
  5
4B7E
  8
0
  6
BYBLOCK
 62
     0
 10
14171.79040899999
 20
9515.0901529999974
 30
0.0
 40
15.0
 50
180.0
 51
0.0
  0
ARC
  5
4B7F
  8
0
  6
BYBLOCK
 62
     0
 10
14171.79040899999
 20
9515.0901529999974
 30
0.0
 40
15.0
 50
0.0
 51
180.0
  0
ARC
  5
4B80
  8
0
  6
BYBLOCK
 62
     0
 10
8771.7904090000011
 20
9515.0901529999974
 30
0.0
 40
15.0
 50
0.0
 51
180.0
  0
ARC
  5
4B81
  8
0
  6
BYBLOCK
 62
     0
 10
8771.7904090000011
 20
9515.0901529999974
 30
0.0
 40
15.0
 50
180.0
 51
0.0
  0
ARC
  5
4B82
  8
0
  6
BYBLOCK
 62
     0
 10
8951.7904090000011
 20
9515.0901529999974
 30
0.0
 40
15.0
 50
180.0
 51
0.0
  0
ARC
  5
4B83
  8
0
  6
BYBLOCK
 62
     0
 10
8951.7904090000011
 20
9515.0901529999974
 30
0.0
 40
15.0
 50
0.0
 51
180.0
  0
ARC
  5
4B84
  8
0
  6
BYBLOCK
 62
     0
 10
14129.28842999999
 20
5067.0886419999961
 30
0.0
 40
15.0
 50
180.0
 51
0.0
  0
ARC
  5
4B85
  8
0
  6
BYBLOCK
 62
     0
 10
14129.28842999999
 20
5067.0886419999961
 30
0.0
 40
15.0
 50
0.0
 51
180.0
  0
ARC
  5
4B86
  8
0
  6
BYBLOCK
 62
     0
 10
14171.788430000001
 20
5067.0886419999961
 30
0.0
 40
15.0
 50
0.0
 51
180.0
  0
ARC
  5
4B87
  8
0
  6
BYBLOCK
 62
     0
 10
14171.788430000001
 20
5067.0886419999961
 30
0.0
 40
15.0
 50
180.0
 51
0.0
  0
ARC
  5
4B88
  8
0
  6
BYBLOCK
 62
     0
 10
11561.79040899999
 20
5067.088643000001
 30
0.0
 40
15.0
 50
0.0
 51
180.0
  0
ARC
  5
4B89
  8
0
  6
BYBLOCK
 62
     0
 10
11561.79040899999
 20
5067.088643000001
 30
0.0
 40
15.0
 50
180.0
 51
0.0
  0
ARC
  5
4B8A
  8
0
  6
BYBLOCK
 62
     0
 10
14129.29040899999
 20
5067.088643000001
 30
0.0
 40
15.0
 50
180.0
 51
0.0
  0
ARC
  5
4B8B
  8
0
  6
BYBLOCK
 62
     0
 10
14129.29040899999
 20
5067.088643000001
 30
0.0
 40
15.0
 50
0.0
 51
180.0
  0
ARC
  5
4B8C
  8
0
  6
BYBLOCK
 62
     0
 10
8951.7904090000011
 20
4667.0888069999983
 30
0.0
 40
15.0
 50
0.0
 51
180.0
  0
ARC
  5
4B8D
  8
0
  6
BYBLOCK
 62
     0
 10
8951.7904090000011
 20
4667.0888069999983
 30
0.0
 40
15.0
 50
180.0
 51
0.0
  0
ARC
  5
4B8E
  8
0
  6
BYBLOCK
 62
     0
 10
14171.788430000001
 20
4667.0888069999983
 30
0.0
 40
15.0
 50
180.0
 51
0.0
  0
ARC
  5
4B8F
  8
0
  6
BYBLOCK
 62
     0
 10
14171.788430000001
 20
4667.0888069999983
 30
0.0
 40
15.0
 50
0.0
 51
180.0
  0
ARC
  5
4B90
  8
0
  6
BYBLOCK
 62
     0
 10
8994.2904090000029
 20
5067.0886419999961
 30
0.0
 40
15.0
 50
0.0
 51
180.0
  0
ARC
  5
4B91
  8
0
  6
BYBLOCK
 62
     0
 10
8994.2904090000029
 20
5067.0886419999961
 30
0.0
 40
15.0
 50
180.0
 51
0.0
  0
ARC
  5
4B92
  8
0
  6
BYBLOCK
 62
     0
 10
8951.7904090000011
 20
5067.0886419999961
 30
0.0
 40
15.0
 50
180.0
 51
0.0
  0
ARC
  5
4B93
  8
0
  6
BYBLOCK
 62
     0
 10
8951.7904090000011
 20
5067.0886419999961
 30
0.0
 40
15.0
 50
0.0
 51
180.0
  0
ARC
  5
4B94
  8
0
  6
BYBLOCK
 62
     0
 10
11561.79040899999
 20
5067.0886419999961
 30
0.0
 40
15.0
 50
180.0
 51
0.0
  0
ARC
  5
4B95
  8
0
  6
BYBLOCK
 62
     0
 10
11561.79040899999
 20
5067.0886419999961
 30
0.0
 40
15.0
 50
0.0
 51
180.0
  0
ARC
  5
4B96
  8
0
  6
BYBLOCK
 62
     0
 10
8994.2904090000029
 20
5067.0886419999961
 30
0.0
 40
15.0
 50
0.0
 51
180.0
  0
ARC
  5
4B97
  8
0
  6
BYBLOCK
 62
     0
 10
8994.2904090000029
 20
5067.0886419999961
 30
0.0
 40
15.0
 50
180.0
 51
0.0
  0
TEXT
  5
4C77
  8
NAME
 10
21933.552716389011
 20
1876.0
 30
0.0
 40
360.0
  1
ヨドガレージ ラヴィージュ
 41
0.75
  7
01
  0
LINE
  5
4C78
  8
NAME
  6
CONTINUOUS
 10
26067.886878884299
 20
2236.0
 30
0.0
 11
26067.886878884299
 21
1876.0
 31
0.0
  0
LINE
  5
4C79
  8
NAME
  6
CONTINUOUS
 10
26167.886878884299
 20
2236.0
 30
0.0
 11
26167.886878884299
 21
1876.0
 31
0.0
  0
LINE
  5
4C7A
  8
NAME
  6
CONTINUOUS
 10
26267.88687888431
 20
2236.0
 30
0.0
 11
26267.88687888431
 21
1876.0
 31
0.0
  0
LINE
  5
4C7B
  8
NAME
  6
CONTINUOUS
 10
26007.886878884299
 20
2236.0
 30
0.0
 11
26327.886878884299
 21
2236.0
 31
0.0
  0
LINE
  5
4C7C
  8
NAME
  6
CONTINUOUS
 10
26327.886878884299
 20
1876.0
 30
0.0
 11
26007.886878884299
 21
1876.0
 31
0.0
  0
LINE
  5
4DCC
  8
2-0
  6
CONTINUOUS
 62
     3
 10
24112.042333999991
 20
14931.373957
 30
0.0
 11
24119.04389099999
 21
14931.373957
 31
0.0
  0
LINE
  5
4DCD
  8
2-0
  6
CONTINUOUS
 62
     3
 10
24119.04389099999
 20
14931.373957
 30
0.0
 11
24119.04389099999
 21
14926.379632
 31
0.0
  0
LINE
  5
4DCE
  8
2-0
  6
CONTINUOUS
 62
     3
 10
24119.04389099999
 20
14926.379632
 30
0.0
 11
24094.04653099996
 21
14926.379632
 31
0.0
  0
LINE
  5
4DCF
  8
2-0
  6
CONTINUOUS
 62
     3
 10
24094.04653099996
 20
14926.379632
 30
0.0
 11
24094.04653099996
 21
14944.375435000011
 31
0.0
  0
LINE
  5
4DD0
  8
2-0
  6
CONTINUOUS
 62
     3
 10
24094.04653099996
 20
14944.375435000011
 30
0.0
 11
24124.04415499997
 21
14944.375435000011
 31
0.0
  0
LINE
  5
4DD1
  8
2-0
  6
CONTINUOUS
 62
     3
 10
24094.04653099996
 20
14928.277990000001
 30
0.0
 11
24094.04653099996
 21
14934.27989000002
 31
0.0
  0
LINE
  5
4DD2
  8
2-0
  6
CONTINUOUS
 62
     3
 10
24094.04653099996
 20
14934.27989000002
 30
0.0
 11
24124.04415499997
 21
14934.27989000002
 31
0.0
  0
LINE
  5
4DD3
  8
2-0
  6
CONTINUOUS
 62
     3
 10
24124.04415499997
 20
14897.28070900001
 30
0.0
 11
24124.04415499997
 21
14934.27989000002
 31
0.0
  0
LINE
  5
4DD4
  8
2-0
  6
CONTINUOUS
 62
     3
 10
24094.04653099996
 20
14897.28070900001
 30
0.0
 11
24124.04415499997
 21
14897.28070900001
 31
0.0
  0
LINE
  5
4DD5
  8
2-0
  6
CONTINUOUS
 62
     3
 10
24094.04653099996
 20
14903.27766
 30
0.0
 11
24094.04653099996
 21
14897.28070900001
 31
0.0
  0
LINE
  5
4DD6
  8
2-0
  6
CONTINUOUS
 62
     3
 10
24094.04653099996
 20
14887.179225
 30
0.0
 11
24124.04415499997
 21
14887.179225
 31
0.0
  0
LINE
  5
4DD7
  8
2-0
  6
CONTINUOUS
 62
     3
 10
24094.04653099996
 20
14905.186906000001
 30
0.0
 11
24094.04653099996
 21
14887.179225
 31
0.0
  0
LINE
  5
4DD8
  8
2-0
  6
CONTINUOUS
 62
     3
 10
24119.04389099999
 20
14905.186906000001
 30
0.0
 11
24094.04653099996
 21
14905.186906000001
 31
0.0
  0
LINE
  5
4DD9
  8
2-0
  6
CONTINUOUS
 62
     3
 10
24119.04389099999
 20
14900.186642000001
 30
0.0
 11
24119.04389099999
 21
14905.186906000001
 31
0.0
  0
LINE
  5
4DDA
  8
2-0
  6
CONTINUOUS
 62
     3
 10
24112.042333999991
 20
14900.186642000001
 30
0.0
 11
24119.04389099999
 21
14900.186642000001
 31
0.0
  0
LINE
  5
4DDB
  8
2-0
  6
CONTINUOUS
 62
     3
 10
19617.051386999949
 20
14931.373957
 30
0.0
 11
19610.053788999969
 21
14931.373957
 31
0.0
  0
LINE
  5
4DDC
  8
2-0
  6
CONTINUOUS
 62
     3
 10
19610.053788999969
 20
14931.373957
 30
0.0
 11
19610.053788999969
 21
14926.379632
 31
0.0
  0
LINE
  5
4DDD
  8
2-0
  6
CONTINUOUS
 62
     3
 10
19610.053788999969
 20
14926.379632
 30
0.0
 11
19635.047190999969
 21
14926.379632
 31
0.0
  0
LINE
  5
4DDE
  8
2-0
  6
CONTINUOUS
 62
     3
 10
19635.047190999969
 20
14926.379632
 30
0.0
 11
19635.047190999969
 21
14944.375435000011
 31
0.0
  0
LINE
  5
4DDF
  8
2-0
  6
CONTINUOUS
 62
     3
 10
19635.047190999969
 20
14944.375435000011
 30
0.0
 11
19605.049565999969
 21
14944.375435000011
 31
0.0
  0
LINE
  5
4DE0
  8
2-0
  6
CONTINUOUS
 62
     3
 10
19635.047190999969
 20
14928.277990000001
 30
0.0
 11
19635.047190999969
 21
14934.27989000002
 31
0.0
  0
LINE
  5
4DE1
  8
2-0
  6
CONTINUOUS
 62
     3
 10
19635.047190999969
 20
14934.27989000002
 30
0.0
 11
19605.049565999969
 21
14934.27989000002
 31
0.0
  0
LINE
  5
4DE2
  8
2-0
  6
CONTINUOUS
 62
     3
 10
19605.049565999969
 20
14897.28070900001
 30
0.0
 11
19605.049565999969
 21
14934.27989000002
 31
0.0
  0
LINE
  5
4DE3
  8
2-0
  6
CONTINUOUS
 62
     3
 10
19635.047190999969
 20
14897.28070900001
 30
0.0
 11
19605.049565999969
 21
14897.28070900001
 31
0.0
  0
LINE
  5
4DE4
  8
2-0
  6
CONTINUOUS
 62
     3
 10
19635.047190999969
 20
14903.27766
 30
0.0
 11
19635.047190999969
 21
14897.28070900001
 31
0.0
  0
LINE
  5
4DE5
  8
2-0
  6
CONTINUOUS
 62
     3
 10
19635.047190999969
 20
14887.179225
 30
0.0
 11
19605.049565999969
 21
14887.179225
 31
0.0
  0
LINE
  5
4DE6
  8
2-0
  6
CONTINUOUS
 62
     3
 10
19635.047190999969
 20
14905.186906000001
 30
0.0
 11
19635.047190999969
 21
14887.179225
 31
0.0
  0
LINE
  5
4DE7
  8
2-0
  6
CONTINUOUS
 62
     3
 10
19610.053788999969
 20
14905.186906000001
 30
0.0
 11
19635.047190999969
 21
14905.186906000001
 31
0.0
  0
LINE
  5
4DE8
  8
2-0
  6
CONTINUOUS
 62
     3
 10
19610.053788999969
 20
14900.186642000001
 30
0.0
 11
19610.053788999969
 21
14905.186906000001
 31
0.0
  0
LINE
  5
4DE9
  8
2-0
  6
CONTINUOUS
 62
     3
 10
19617.051386999949
 20
14900.186642000001
 30
0.0
 11
19610.053788999969
 21
14900.186642000001
 31
0.0
  0
LINE
  5
4DEA
  8
2-0
  6
CONTINUOUS
 62
     3
 10
19605.049565999969
 20
14897.28070900001
 30
0.0
 11
19605.049565999969
 21
14934.27989000002
 31
0.0
  0
LINE
  5
4DED
  8
2-0
  6
CONTINUOUS
 62
     3
 10
19605.049565999969
 20
14944.375435000011
 30
0.0
 11
19605.049565999969
 21
15588.179225
 31
0.0
  0
LINE
  5
4DEE
  8
2-0
  6
CONTINUOUS
 62
     3
 10
24124.04415499997
 20
14934.27989000002
 30
0.0
 11
24124.04415499997
 21
14897.28070900001
 31
0.0
  0
LINE
  5
4DEF
  8
2-0
  6
CONTINUOUS
 62
     3
 10
24124.04415499997
 20
14887.179225
 30
0.0
 11
24124.04415499997
 21
14590.57779499999
 31
0.0
  0
TEXT
  5
4F20
  8
FILENAME
  6
CONTINUOUS
 10
27746.857142857141
 20
348.0
 30
0.0
 40
200.0
  1
＜VGC-2652+1952-1-A_0.DXF ＞
  7
FILENAME
 72
     2
 11
32764.0
 21
348.0
 31
0.0
  0
LINE
  5
4F25
  8
WAKUSEN-01
 10
868.00000000000193
 20
827.99999999999955
 30
0.0
 11
32764.000000000011
 21
827.99999999999943
 31
0.0
  0
LINE
  5
4F26
  8
WAKUSEN-01
 10
868.00000000000193
 20
827.99999999999955
 30
0.0
 11
868.00000000000193
 21
22484.000000000011
 31
0.0
  0
LINE
  5
4F27
  8
WAKUSEN-01
 10
32764.000000000011
 20
827.99999999999943
 30
0.0
 11
32764.000000000011
 21
22484.000000000011
 31
0.0
  0
LINE
  5
4F28
  8
WAKUSEN-01
 10
20560.0
 20
827.99999999999716
 30
0.0
 11
20560.0
 21
2484.0
 31
0.0
  0
LINE
  5
4F29
  8
WAKUSEN-02
 10
26868.0
 20
827.99999999999261
 30
0.0
 11
26868.0
 21
2484.0
 31
0.0
  0
ENDSEC
  0
EOF
