  0
SECTION
  2
HEADER
  9
$ACADVER
  1
AC1009
  9
$INSBASE
 10
0.0
 20
0.0
 30
0.0
  9
$EXTMIN
 10
867.99324330406671
 20
327.38164749855792
 30
-0.0000000000000057
  9
$EXTMAX
 10
32765.33210850941
 20
22484.553276491992
 30
0.0000000000000104
  9
$LIMMIN
 10
0.0
 20
0.0
  9
$LIMMAX
 10
33600.0
 20
23760.0
  9
$ORTHOMODE
 70
     1
  9
$REGENMODE
 70
     1
  9
$FILLMODE
 70
     1
  9
$QTEXTMODE
 70
     0
  9
$MIRRTEXT
 70
     0
  9
$DRAGMODE
 70
     2
  9
$LTSCALE
 40
80.0
  9
$OSMODE
 70
  3071
  9
$ATTMODE
 70
     1
  9
$TEXTSIZE
 40
0.2
  9
$TRACEWID
 40
0.05
  9
$TEXTSTYLE
  7
00
  9
$CLAYER
  8
0
  9
$CELTYPE
  6
BYLAYER
  9
$CECOLOR
 62
   256
  9
$DIMSCALE
 40
1.0
  9
$DIMASZ
 40
0.18
  9
$DIMEXO
 40
0.0625
  9
$DIMDLI
 40
0.38
  9
$DIMRND
 40
0.0
  9
$DIMDLE
 40
0.0
  9
$DIMEXE
 40
0.18
  9
$DIMTP
 40
0.0
  9
$DIMTM
 40
0.0
  9
$DIMTXT
 40
0.18
  9
$DIMCEN
 40
0.09
  9
$DIMTSZ
 40
0.0
  9
$DIMTOL
 70
     0
  9
$DIMLIM
 70
     0
  9
$DIMTIH
 70
     1
  9
$DIMTOH
 70
     1
  9
$DIMSE1
 70
     0
  9
$DIMSE2
 70
     0
  9
$DIMTAD
 70
     0
  9
$DIMZIN
 70
     0
  9
$DIMBLK
  1

  9
$DIMASO
 70
     1
  9
$DIMSHO
 70
     1
  9
$DIMPOST
  1

  9
$DIMAPOST
  1

  9
$DIMALT
 70
     0
  9
$DIMALTD
 70
     2
  9
$DIMALTF
 40
25.399999999999999
  9
$DIMLFAC
 40
1.0
  9
$DIMTOFL
 70
     0
  9
$DIMTVP
 40
0.0
  9
$DIMTIX
 70
     0
  9
$DIMSOXD
 70
     0
  9
$DIMSAH
 70
     0
  9
$DIMBLK1
  1

  9
$DIMBLK2
  1

  9
$DIMSTYLE
  2
STANDARD
  9
$DIMCLRD
 70
     0
  9
$DIMCLRE
 70
     0
  9
$DIMCLRT
 70
     0
  9
$DIMTFAC
 40
1.0
  9
$DIMGAP
 40
0.09
  9
$LUNITS
 70
     2
  9
$LUPREC
 70
     4
  9
$SKETCHINC
 40
0.1
  9
$FILLETRAD
 40
0.0
  9
$AUNITS
 70
     0
  9
$AUPREC
 70
     0
  9
$MENU
  1
acad
  9
$ELEVATION
 40
0.0
  9
$PELEVATION
 40
0.0
  9
$THICKNESS
 40
0.0
  9
$LIMCHECK
 70
     0
  9
$BLIPMODE
 70
     1
  9
$CHAMFERA
 40
0.0
  9
$CHAMFERB
 40
0.0
  9
$SKPOLY
 70
     0
  9
$TDCREATE
 40
2311940.075052408
  9
$TDUPDATE
 40
2458942.461329896
  9
$TDINDWG
 40
0.2916058333
  9
$TDUSRTIMER
 40
0.2916052546
  9
$USRTIMER
 70
     1
  9
$ANGBASE
 50
0.0
  9
$ANGDIR
 70
     0
  9
$PDMODE
 70
     0
  9
$PDSIZE
 40
0.0
  9
$PLINEWID
 40
0.0
  9
$COORDS
 70
     1
  9
$SPLFRAME
 70
     0
  9
$SPLINETYPE
 70
     6
  9
$SPLINESEGS
 70
     8
  9
$ATTDIA
 70
     1
  9
$ATTREQ
 70
     1
  9
$HANDLING
 70
     1
  9
$HANDSEED
  5
1010812
  9
$SURFTAB1
 70
     6
  9
$SURFTAB2
 70
     6
  9
$SURFTYPE
 70
     6
  9
$SURFU
 70
     6
  9
$SURFV
 70
     6
  9
$UCSNAME
  2

  9
$UCSORG
 10
0.0
 20
0.0
 30
0.0
  9
$UCSXDIR
 10
1.0
 20
0.0
 30
0.0
  9
$UCSYDIR
 10
0.0
 20
1.0
 30
0.0
  9
$PUCSNAME
  2

  9
$PUCSORG
 10
0.0
 20
0.0
 30
0.0
  9
$PUCSXDIR
 10
1.0
 20
0.0
 30
0.0
  9
$PUCSYDIR
 10
0.0
 20
1.0
 30
0.0
  9
$USERI1
 70
     0
  9
$USERI2
 70
     0
  9
$USERI3
 70
     0
  9
$USERI4
 70
     0
  9
$USERI5
 70
     0
  9
$USERR1
 40
0.0
  9
$USERR2
 40
0.0
  9
$USERR3
 40
0.0
  9
$USERR4
 40
0.0
  9
$USERR5
 40
0.0
  9
$WORLDVIEW
 70
     1
  9
$SHADEDGE
 70
     3
  9
$SHADEDIF
 70
    70
  9
$TILEMODE
 70
     1
  9
$MAXACTVP
 70
    16
  9
$PLIMCHECK
 70
     0
  9
$PEXTMIN
 10
1.0000000000000000E+020
 20
1.0000000000000000E+020
 30
1.0000000000000000E+020
  9
$PEXTMAX
 10
-1.0000000000000000E+020
 20
-1.0000000000000000E+020
 30
-1.0000000000000000E+020
  9
$PLIMMIN
 10
0.0
 20
0.0
  9
$PLIMMAX
 10
12.0
 20
9.0
  9
$UNITMODE
 70
     0
  9
$VISRETAIN
 70
     0
  9
$PLINEGEN
 70
     1
  9
$PSLTSCALE
 70
     0
  0
ENDSEC
  0
SECTION
  2
TABLES
  0
TABLE
  2
VPORT
 70
     1
  0
VPORT
  2
*ACTIVE
 70
     0
 10
0.0
 20
0.0
 11
1.0
 21
1.0
 12
16800.0
 22
11880.0
 13
0.0
 23
0.0
 14
1.0
 24
1.0
 15
0.0
 25
0.0
 16
0.0
 26
0.0
 36
1.0
 17
0.0
 27
0.0
 37
0.0
 40
23981.023255813951
 41
2.195652173913043
 42
50.0
 43
0.0
 44
0.0
 50
0.0
 51
0.0
 71
     0
 72
 10000
 73
     1
 74
     1
 75
     0
 76
     0
 77
     0
 78
     1
  0
ENDTAB
  0
TABLE
  2
LTYPE
 70
     6
  0
LTYPE
  2
CONTINUOUS
 70
     0
  3
Solid line
 72
    65
 73
     0
 40
0.0
  0
LTYPE
  2
DASHED3
 70
     0
  3
------  ------  ------  ------  
 72
    65
 73
     2
 40
5.0
 49
3.75
 49
-1.25
  0
LTYPE
  2
CENTER2
 70
     0
  3
----------  --  ----------  --  
 72
    65
 73
     4
 40
20.0
 49
12.5
 49
-2.5
 49
2.5
 49
-2.5
  0
LTYPE
  2
HIDE-M
 70
     0
  3

 72
    65
 73
     2
 40
2.0
 49
1.0
 49
-1.0
  0
LTYPE
  2
1PL-M
 70
     0
  3

 72
    65
 73
     4
 40
15.0
 49
12.0
 49
-1.0
 49
1.0
 49
-1.0
  0
LTYPE
  2
PHANTOM2
 70
     0
  3
___ _ _ ___ _ _ ___ _ _ ___ _ _
 72
    65
 73
     6
 40
1.25
 49
0.625
 49
-0.125
 49
0.125
 49
-0.125
 49
0.125
 49
-0.125
  0
ENDTAB
  0
TABLE
  2
LAYER
 70
    24
  0
LAYER
  2
0
 70
     0
 62
     7
  6
CONTINUOUS
  0
LAYER
  2
SUNPOU
 70
     0
 62
     4
  6
CONTINUOUS
  0
LAYER
  2
0-1
 70
     0
 62
     7
  6
CONTINUOUS
  0
LAYER
  2
0-2
 70
     0
 62
     7
  6
CONTINUOUS
  0
LAYER
  2
0-5
 70
     0
 62
     7
  6
CONTINUOUS
  0
LAYER
  2
0-6
 70
     0
 62
     7
  6
CONTINUOUS
  0
LAYER
  2
2-0
 70
     0
 62
     7
  6
CONTINUOUS
  0
LAYER
  2
0-8
 70
     0
 62
     7
  6
CONTINUOUS
  0
LAYER
  2
YODOROGO
 70
     0
 62
   130
  6
CONTINUOUS
  0
LAYER
  2
WAKUSEN-01
 70
     0
 62
    50
  6
CONTINUOUS
  0
LAYER
  2
WAKUSEN-02
 70
     0
 62
   130
  6
CONTINUOUS
  0
LAYER
  2
WAKUMOJI-01
 70
     0
 62
   130
  6
CONTINUOUS
  0
LAYER
  2
FILENAME
 70
     0
 62
     7
  6
CONTINUOUS
  0
LAYER
  2
NAME
 70
     0
 62
    20
  6
CONTINUOUS
  0
LAYER
  2
0-4
 70
     0
 62
     7
  6
CONTINUOUS
  0
LAYER
  2
1-前柱P
 70
     0
 62
     3
  6
CONTINUOUS
  0
LAYER
  2
1-前柱カバ-P
 70
     0
 62
     3
  6
CONTINUOUS
  0
LAYER
  2
1-桁前P28
 70
     0
 62
     3
  6
CONTINUOUS
  0
LAYER
  2
1-後柱P
 70
     0
 62
     3
  6
CONTINUOUS
  0
LAYER
  2
1-中柱P
 70
     0
 62
     3
  6
CONTINUOUS
  0
LAYER
  2
1-後柱カバ-P
 70
     0
 62
     7
  6
CONTINUOUS
  0
LAYER
  2
1-中柱カバ-P
 70
     0
 62
     7
  6
CONTINUOUS
  0
ENDTAB
  0
TABLE
  2
STYLE
 70
     5
  0
STYLE
  2
STANDARD
 70
     0
 40
0.0
 41
1.0
 50
0.0
 71
     0
 42
0.0
  3
txt
  4
BIGFONT
  0
STYLE
  2
00
 70
     0
 40
0.0
 41
0.6666666666666666
 50
0.0
 71
     0
 42
0.2
  3
ROMANS
  4
BIGFONT
  0
STYLE
  2
01
 70
     0
 40
3.0
 41
1.0
 50
0.0
 71
     0
 42
0.2
  3
ROMANS
  4
BIGFONT
  0
STYLE
  2
WAKUMOJI
 70
     0
 40
3.0
 41
1.0
 50
0.0
 71
     0
 42
3.0
  3
SIMPLEX
  4
BIGFONT
  0
STYLE
  2
FILENAME
 70
     0
 40
200.0
 41
1.0
 50
0.0
 71
     0
 42
200.0
  3
romans
  4
bigfont
  0
ENDTAB
  0
TABLE
  2
VIEW
 70
     0
  0
ENDTAB
  0
TABLE
  2
UCS
 70
     0
  0
ENDTAB
  0
TABLE
  2
APPID
 70
    17
  0
APPID
  2
ACAD
 70
     0
  0
APPID
  2
ACADANNOTATIVE
 70
     0
  0
APPID
  2
ACAD_PSEXT
 70
     0
  0
APPID
  2
DCO15
 70
     0
  0
APPID
  2
ACAD_MLEADERVER
 70
     0
  0
APPID
  2
AUTOCAD_POSTSCRIPT_FIGURE
 70
     0
  0
APPID
  2
ACAD_EXEMPT_FROM_CAD_STANDARDS
 70
     0
  0
APPID
  2
ACLAYERTOOLS
 70
     0
  0
APPID
  2
ACAD_DSTYLE_DIMJAG
 70
     0
  0
APPID
  2
ACAD_DSTYLE_DIMTALN
 70
     0
  0
APPID
  2
ACAECLAYERSTANDARD
 70
     0
  0
APPID
  2
ACAD_DSTYLE_DIMBREAK
 70
     0
  0
APPID
  2
ACAD_DSTYLE_DIM_LINETYPE
 70
     0
  0
APPID
  2
ACAD_DSTYLE_DIM_EXT1_LINETYPE
 70
     0
  0
APPID
  2
ACAD_DSTYLE_DIM_EXT2_LINETYPE
 70
     0
  0
APPID
  2
ACAD_DSTYLE_DIMFLIPARROW_W
 70
     0
  0
APPID
  2
ACAD_NAV_VCDISPLAY
 70
     0
  0
ENDTAB
  0
TABLE
  2
DIMSTYLE
 70
     2
  0
DIMSTYLE
  2
STANDARD
 70
     0
  3

  4

  5

  6

  7

 40
1.0
 41
0.18
 42
0.0625
 43
0.38
 44
0.18
 45
0.0
 46
0.0
 47
0.0
 48
0.0
140
0.18
141
0.09
142
0.0
143
25.399999999999999
144
1.0
145
0.0
146
1.0
147
0.09
 71
     0
 72
     0
 73
     1
 74
     1
 75
     0
 76
     0
 77
     0
 78
     0
170
     0
171
     2
172
     0
173
     0
174
     0
175
     0
176
     0
177
     0
178
     0
  0
ENDTAB
  0
ENDSEC
  0
SECTION
  2
BLOCKS
  0
BLOCK
  8
0
  2
$MODEL_SPACE
 70
     0
 10
0.0
 20
0.0
 30
0.0
  3
$MODEL_SPACE
  1

  0
ENDBLK
  5
F192
  8
0
  0
BLOCK
 67
     1
  8
0
  2
$PAPER_SPACE
 70
     0
 10
0.0
 20
0.0
 30
0.0
  3
$PAPER_SPACE
  1

  0
ENDBLK
  5
F18E
 67
     1
  8
0
  0
ENDSEC
  0
SECTION
  2
ENTITIES
  0
TEXT
  5
F1CF
  8
2-0
  6
CONTINUOUS
 62
     7
 10
21316.703773495348
 20
11251.104441999991
 30
0.0
 40
160.0
  1
平　面　図
 72
     4
 11
21770.03710682868
 21
11325.77110866666
 31
0.0
  0
TEXT
  5
F1D0
  8
2-0
  6
CONTINUOUS
 62
     7
 10
9110.0764217358246
 20
11248.37777897834
 30
0.0
 40
160.0
  1
小 屋 伏 図
 72
     4
 11
9611.4097550691567
 21
11328.37777897834
 31
0.0
  0
TEXT
  5
F1D1
  8
2-0
  6
CONTINUOUS
 62
     7
 10
23121.52929196629
 20
11272.96647766667
 30
0.0
 40
160.0
  1
1
 72
     4
 11
23148.195958632961
 21
11352.96647766667
 31
0.0
  0
TEXT
  5
F1D2
  8
2-0
  6
CONTINUOUS
 62
     7
 10
23364.618009216989
 20
11192.967945666671
 30
0.0
 40
160.0
  1
80
 72
     4
 11
23484.618009216989
 21
11272.967945666671
 31
0.0
  0
TEXT
  5
F1D3
  8
2-0
  6
CONTINUOUS
 62
     7
 10
22622.5312579663
 20
11245.77110866666
 30
0.0
 40
160.0
  1
(S=  /   )
 72
     4
 11
23182.5312579663
 21
11325.77110866666
 31
0.0
  0
TEXT
  5
F1D4
  8
2-0
  6
CONTINUOUS
 62
     7
 10
10962.901940206761
 20
11275.57314797833
 30
0.0
 40
160.0
  1
1
 72
     4
 11
10989.56860687343
 21
11355.57314797833
 31
0.0
  0
TEXT
  5
F1D5
  8
2-0
  6
CONTINUOUS
 62
     7
 10
11205.990657457471
 20
11195.574615978339
 30
0.0
 40
160.0
  1
80
 72
     4
 11
11325.990657457471
 21
11275.574615978339
 31
0.0
  0
TEXT
  5
F1D6
  8
2-0
  6
CONTINUOUS
 62
     7
 10
10463.90390620678
 20
11248.37777897834
 30
0.0
 40
160.0
  1
(S=  /   )
 72
     4
 11
11023.90390620678
 21
11328.37777897834
 31
0.0
  0
TEXT
  5
F1DC
  8
2-0
  6
CONTINUOUS
 62
     7
 10
21653.261048085369
 20
3292.8025890000031
 30
0.0
 40
160.0
  1
正 面 立 面 図
 72
     4
 11
22298.594381418701
 21
3372.8025890000031
 31
0.0
  0
TEXT
  5
F1DD
  8
2-0
  6
CONTINUOUS
 62
     7
 10
8790.0232146297967
 20
3264.0669070000081
 30
0.0
 40
160.0
  1
側 面 立 面 図
 50
0.0001389999996588
 72
     4
 11
9435.3563538806193
 21
3344.0684725833789
 31
0.0
  0
TEXT
  5
F1DE
  8
2-0
  6
CONTINUOUS
 62
     7
 10
10786.84853901825
 20
3291.263841583379
 30
0.0
 40
160.0
  1
1
 72
     4
 11
10813.51520568492
 21
3371.263841583379
 31
0.0
  0
TEXT
  5
F1DF
  8
2-0
  6
CONTINUOUS
 62
     7
 10
11029.93725626894
 20
3211.2653095833812
 30
0.0
 40
160.0
  1
80
 72
     4
 11
11149.93725626894
 21
3291.2653095833798
 31
0.0
  0
TEXT
  5
F1E0
  8
2-0
  6
CONTINUOUS
 62
     7
 10
10287.85050501823
 20
3264.0684725833789
 30
0.0
 40
160.0
  1
(S=  /   )
 72
     4
 11
10847.85050501823
 21
3344.0684725833789
 31
0.0
  0
TEXT
  5
F1E1
  8
2-0
  6
CONTINUOUS
 62
     7
 10
23650.086566556321
 20
3319.9979580000049
 30
0.0
 40
160.0
  1
1
 72
     4
 11
23676.753233222978
 21
3399.9979580000049
 31
0.0
  0
TEXT
  5
F1E2
  8
2-0
  6
CONTINUOUS
 62
     7
 10
23893.175283807021
 20
3239.9994260000049
 30
0.0
 40
160.0
  1
80
 72
     4
 11
24013.175283807021
 21
3319.9994260000049
 31
0.0
  0
TEXT
  5
F1E3
  8
2-0
  6
CONTINUOUS
 62
     7
 10
23151.088532556321
 20
3292.8025890000031
 30
0.0
 40
160.0
  1
(S=  /   )
 72
     4
 11
23711.088532556321
 21
3372.8025890000031
 31
0.0
  0
LINE
  5
F1E4
  8
0-1
  6
CONTINUOUS
 62
     3
 10
25453.801884142111
 20
8132.6883740000021
 30
0.0
 11
22620.798453142132
 21
8132.6883740000021
 31
0.0
  0
LINE
  5
F1E5
  8
0-1
  6
CONTINUOUS
 62
     3
 10
25453.801884142111
 20
8326.1887430000061
 30
0.0
 11
22620.798453142132
 21
8326.1887430000061
 31
0.0
  0
LINE
  5
F1E6
  8
0-1
  6
CONTINUOUS
 62
     3
 10
25581.79818914214
 20
8264.002661999999
 30
0.0
 11
25581.79818914214
 21
8589.6883999999973
 31
0.0
  0
LINE
  5
F1E7
  8
0-1
  6
CONTINUOUS
 62
     3
 10
22535.799904142132
 20
8459.6884660000014
 30
0.0
 11
25581.79818914214
 21
8459.6884660000014
 31
0.0
  0
LINE
  5
F1E8
  8
0-1
  6
CONTINUOUS
 62
     3
 10
25581.79818914214
 20
8589.6883999999973
 30
0.0
 11
22555.797001142131
 21
8589.6883999999973
 31
0.0
  0
LINE
  5
F1E9
  8
0-1
  6
CONTINUOUS
 62
     3
 10
12816.04762469356
 20
6291.1885390000016
 30
0.0
 11
12816.04762469356
 21
8152.234418
 31
0.0
  0
LINE
  5
F1EA
  8
0-1
  6
CONTINUOUS
 62
     3
 10
12796.046568693569
 20
6291.1885390000016
 30
0.0
 11
12796.046568693569
 21
8152.234418
 31
0.0
  0
LINE
  5
F1EB
  8
0-1
  6
CONTINUOUS
 62
     3
 10
12866.04729469355
 20
6291.1885390000016
 30
0.0
 11
12866.04729469355
 21
8152.234418
 31
0.0
  0
LINE
  5
F1EC
  8
0-1
  6
CONTINUOUS
 62
     3
 10
12746.04788869356
 20
6291.1885390000016
 30
0.0
 11
12746.04788869356
 21
8152.234418
 31
0.0
  0
LINE
  5
F1ED
  8
0-1
  6
CONTINUOUS
 62
     3
 10
12613.047004693581
 20
6291.1885390000016
 30
0.0
 11
12613.047004693581
 21
8152.234418
 31
0.0
  0
LINE
  5
F1EE
  8
0-1
  6
CONTINUOUS
 62
     3
 10
12598.04720269356
 20
6291.1885390000016
 30
0.0
 11
12598.04720269356
 21
8152.234418
 31
0.0
  0
LINE
  5
F1EF
  8
0-1
  6
CONTINUOUS
 62
     3
 10
12999.047189693551
 20
6291.1885390000016
 30
0.0
 11
12999.047189693551
 21
8152.234418
 31
0.0
  0
LINE
  5
F1F0
  8
0-1
  6
CONTINUOUS
 62
     3
 10
13014.046991693571
 20
6291.1885390000016
 30
0.0
 11
13014.046991693571
 21
8152.234418
 31
0.0
  0
LINE
  5
F1F1
  8
0-1
  6
CONTINUOUS
 62
     3
 10
11737.54750569357
 20
8152.234418
 30
0.0
 11
11737.54750569357
 21
6291.1885390000016
 31
0.0
  0
LINE
  5
F1F2
  8
0-1
  6
CONTINUOUS
 62
     3
 10
11774.54569769356
 20
8152.234418
 30
0.0
 11
11774.54569769356
 21
6291.1885390000016
 31
0.0
  0
LINE
  5
F1F3
  8
0-1
  6
CONTINUOUS
 62
     3
 10
12437.546846693571
 20
8152.234418
 30
0.0
 11
12437.546846693571
 21
6291.1885390000016
 31
0.0
  0
LINE
  5
F1F4
  8
0-1
  6
CONTINUOUS
 62
     3
 10
12474.54701769358
 20
8152.234418
 30
0.0
 11
12474.54701769358
 21
6291.1885390000016
 31
0.0
  0
LINE
  5
F1F5
  8
0-1
  6
CONTINUOUS
 62
     3
 10
11037.54816569357
 20
8152.234418
 30
0.0
 11
11037.54816569357
 21
6291.1885390000016
 31
0.0
  0
LINE
  5
F1F6
  8
0-1
  6
CONTINUOUS
 62
     3
 10
11074.546357693571
 20
8152.234418
 30
0.0
 11
11074.546357693571
 21
6291.1885390000016
 31
0.0
  0
LINE
  5
F1F7
  8
0-1
  6
CONTINUOUS
 62
     3
 10
11416.04795469358
 20
6291.1885390000016
 30
0.0
 11
11416.04795469358
 21
8152.234418
 31
0.0
  0
LINE
  5
F1F8
  8
0-1
  6
CONTINUOUS
 62
     3
 10
11396.04689869355
 20
6291.1885390000016
 30
0.0
 11
11396.04689869355
 21
8152.234418
 31
0.0
  0
LINE
  5
F1F9
  8
0-1
  6
CONTINUOUS
 62
     3
 10
11466.046634693559
 20
6291.1885390000016
 30
0.0
 11
11466.046634693559
 21
8152.234418
 31
0.0
  0
LINE
  5
F1FA
  8
0-1
  6
CONTINUOUS
 62
     3
 10
11346.04722869356
 20
6291.1885390000016
 30
0.0
 11
11346.04722869356
 21
8152.234418
 31
0.0
  0
LINE
  5
F1FB
  8
0-1
  6
CONTINUOUS
 62
     3
 10
11213.047334693571
 20
6291.1885390000016
 30
0.0
 11
11213.047334693571
 21
8152.234418
 31
0.0
  0
LINE
  5
F1FC
  8
0-1
  6
CONTINUOUS
 62
     3
 10
11198.047532693559
 20
6291.1885390000016
 30
0.0
 11
11198.047532693559
 21
8152.234418
 31
0.0
  0
LINE
  5
F1FD
  8
0-1
  6
CONTINUOUS
 62
     3
 10
11599.04751969356
 20
6291.1885390000016
 30
0.0
 11
11599.04751969356
 21
8152.234418
 31
0.0
  0
LINE
  5
F1FE
  8
0-1
  6
CONTINUOUS
 62
     3
 10
11614.04633169356
 20
6291.1885390000016
 30
0.0
 11
11614.04633169356
 21
8152.234418
 31
0.0
  0
LINE
  5
F1FF
  8
0-1
  6
CONTINUOUS
 62
     3
 10
12314.04765169356
 20
6291.1885390000016
 30
0.0
 11
12314.04765169356
 21
8152.234418
 31
0.0
  0
LINE
  5
F200
  8
0-1
  6
CONTINUOUS
 62
     3
 10
12299.04685969357
 20
6291.1885390000016
 30
0.0
 11
12299.04685969357
 21
8152.234418
 31
0.0
  0
LINE
  5
F201
  8
0-1
  6
CONTINUOUS
 62
     3
 10
11898.046872693551
 20
6291.1885390000016
 30
0.0
 11
11898.046872693551
 21
8152.234418
 31
0.0
  0
LINE
  5
F202
  8
0-1
  6
CONTINUOUS
 62
     3
 10
11913.04766469356
 20
6291.1885390000016
 30
0.0
 11
11913.04766469356
 21
8152.234418
 31
0.0
  0
LINE
  5
F203
  8
0-1
  6
CONTINUOUS
 62
     3
 10
12046.04656869358
 20
6291.1885390000016
 30
0.0
 11
12046.04656869358
 21
8152.234418
 31
0.0
  0
LINE
  5
F204
  8
0-1
  6
CONTINUOUS
 62
     3
 10
12166.04795469356
 20
6291.1885390000016
 30
0.0
 11
12166.04795469356
 21
8152.234418
 31
0.0
  0
LINE
  5
F205
  8
0-1
  6
CONTINUOUS
 62
     3
 10
12096.04524969356
 20
6291.1885390000016
 30
0.0
 11
12096.04524969356
 21
8152.234418
 31
0.0
  0
LINE
  5
F206
  8
0-1
  6
CONTINUOUS
 62
     3
 10
12116.04630469356
 20
6291.1885390000016
 30
0.0
 11
12116.04630469356
 21
8152.234418
 31
0.0
  0
LINE
  5
F207
  8
0-1
  6
CONTINUOUS
 62
     3
 10
10914.04798069356
 20
6291.1885390000016
 30
0.0
 11
10914.04798069356
 21
8152.234418
 31
0.0
  0
LINE
  5
F208
  8
0-1
  6
CONTINUOUS
 62
     3
 10
10899.04718969356
 20
6291.1885390000016
 30
0.0
 11
10899.04718969356
 21
8152.234418
 31
0.0
  0
LINE
  5
F209
  8
0-1
  6
CONTINUOUS
 62
     3
 10
10766.04630469356
 20
6291.1885390000016
 30
0.0
 11
10766.04630469356
 21
8152.234418
 31
0.0
  0
LINE
  5
F20A
  8
0-1
  6
CONTINUOUS
 62
     3
 10
10498.04720269356
 20
6291.1885390000016
 30
0.0
 11
10498.04720269356
 21
8152.234418
 31
0.0
  0
LINE
  5
F20B
  8
0-1
  6
CONTINUOUS
 62
     3
 10
10513.04601469356
 20
6291.1885390000016
 30
0.0
 11
10513.04601469356
 21
8152.234418
 31
0.0
  0
LINE
  5
F20C
  8
0-1
  6
CONTINUOUS
 62
     3
 10
10646.04689869357
 20
6291.1885390000016
 30
0.0
 11
10646.04689869357
 21
8152.234418
 31
0.0
  0
LINE
  5
F20D
  8
0-1
  6
CONTINUOUS
 62
     3
 10
10696.04656869358
 20
6291.1885390000016
 30
0.0
 11
10696.04656869358
 21
8152.234418
 31
0.0
  0
LINE
  5
F20E
  8
0-1
  6
CONTINUOUS
 62
     3
 10
10716.04564569355
 20
6291.1885390000016
 30
0.0
 11
10716.04564569355
 21
8152.234418
 31
0.0
  0
LINE
  5
F20F
  8
0-1
  6
CONTINUOUS
 62
     3
 10
9888.0466746935726
 20
6291.1885390000016
 30
0.0
 11
9888.0466746935726
 21
8152.234418
 31
0.0
  0
LINE
  5
F210
  8
0-1
  6
CONTINUOUS
 62
     3
 10
9908.0457506935654
 20
6291.1885390000016
 30
0.0
 11
9908.0457506935654
 21
8152.234418
 31
0.0
  0
LINE
  5
F211
  8
0-1
  6
CONTINUOUS
 62
     3
 10
9838.0460146935802
 20
6291.1885390000016
 30
0.0
 11
9838.0460146935802
 21
8152.234418
 31
0.0
  0
LINE
  5
F212
  8
0-1
  6
CONTINUOUS
 62
     3
 10
9958.0464106935688
 20
6291.1885390000016
 30
0.0
 11
9958.0464106935688
 21
8152.234418
 31
0.0
  0
LINE
  5
F213
  8
0-1
  6
CONTINUOUS
 62
     3
 10
10091.04630469356
 20
6291.1885390000016
 30
0.0
 11
10091.04630469356
 21
8152.234418
 31
0.0
  0
LINE
  5
F214
  8
0-1
  6
CONTINUOUS
 62
     3
 10
10106.04808669357
 20
6291.1885390000016
 30
0.0
 11
10106.04808669357
 21
8152.234418
 31
0.0
  0
LINE
  5
F215
  8
0-1
  6
CONTINUOUS
 62
     3
 10
9705.0461206935724
 20
6291.1885390000016
 30
0.0
 11
9705.0461206935724
 21
8152.234418
 31
0.0
  0
LINE
  5
F216
  8
0-1
  6
CONTINUOUS
 62
     3
 10
9690.0473076935614
 20
6291.1885390000016
 30
0.0
 11
9690.0473076935614
 21
8152.234418
 31
0.0
  0
LINE
  5
F217
  8
0-1
  6
CONTINUOUS
 62
     3
 10
7590.0473076935641
 20
6291.1885390000016
 30
0.0
 11
7590.0473076935641
 21
8152.234418
 31
0.0
  0
LINE
  5
F218
  8
0-1
  6
CONTINUOUS
 62
     3
 10
7605.0461206935652
 20
6291.1885390000016
 30
0.0
 11
7605.0461206935652
 21
8152.234418
 31
0.0
  0
LINE
  5
F219
  8
0-1
  6
CONTINUOUS
 62
     3
 10
8006.0470966935827
 20
6291.1885390000016
 30
0.0
 11
8006.0470966935827
 21
8152.234418
 31
0.0
  0
LINE
  5
F21A
  8
0-1
  6
CONTINUOUS
 62
     3
 10
7991.0472946935624
 20
6291.1885390000016
 30
0.0
 11
7991.0472946935624
 21
8152.234418
 31
0.0
  0
LINE
  5
F21B
  8
0-1
  6
CONTINUOUS
 62
     3
 10
7858.0464106935669
 20
6291.1885390000016
 30
0.0
 11
7858.0464106935669
 21
8152.234418
 31
0.0
  0
LINE
  5
F21C
  8
0-1
  6
CONTINUOUS
 62
     3
 10
7738.0470046935661
 20
6291.1885390000016
 30
0.0
 11
7738.0470046935661
 21
8152.234418
 31
0.0
  0
LINE
  5
F21D
  8
0-1
  6
CONTINUOUS
 62
     3
 10
7808.0457506935636
 20
6291.1885390000016
 30
0.0
 11
7808.0457506935636
 21
8152.234418
 31
0.0
  0
LINE
  5
F21E
  8
0-1
  6
CONTINUOUS
 62
     3
 10
7788.0466746935708
 20
6291.1885390000016
 30
0.0
 11
7788.0466746935708
 21
8152.234418
 31
0.0
  0
LINE
  5
F21F
  8
0-1
  6
CONTINUOUS
 62
     3
 10
8488.0460146935638
 20
6291.1885390000016
 30
0.0
 11
8488.0460146935638
 21
8152.234418
 31
0.0
  0
LINE
  5
F220
  8
0-1
  6
CONTINUOUS
 62
     3
 10
8508.0470706935575
 20
6291.1885390000016
 30
0.0
 11
8508.0470706935575
 21
8152.234418
 31
0.0
  0
LINE
  5
F221
  8
0-1
  6
CONTINUOUS
 62
     3
 10
8438.0473346935614
 20
6291.1885390000016
 30
0.0
 11
8438.0473346935614
 21
8152.234418
 31
0.0
  0
LINE
  5
F222
  8
0-1
  6
CONTINUOUS
 62
     3
 10
8558.0457506935636
 20
6291.1885390000016
 30
0.0
 11
8558.0457506935636
 21
8152.234418
 31
0.0
  0
LINE
  5
F223
  8
0-1
  6
CONTINUOUS
 62
     3
 10
8691.0466346935646
 20
6291.1885390000016
 30
0.0
 11
8691.0466346935646
 21
8152.234418
 31
0.0
  0
LINE
  5
F224
  8
0-1
  6
CONTINUOUS
 62
     3
 10
8706.0464366935776
 20
6291.1885390000016
 30
0.0
 11
8706.0464366935776
 21
8152.234418
 31
0.0
  0
LINE
  5
F225
  8
0-1
  6
CONTINUOUS
 62
     3
 10
8305.048429693561
 20
6291.1885390000016
 30
0.0
 11
8305.048429693561
 21
8152.234418
 31
0.0
  0
LINE
  5
F226
  8
0-1
  6
CONTINUOUS
 62
     3
 10
8290.0466486935638
 20
6291.1885390000016
 30
0.0
 11
8290.0466486935638
 21
8152.234418
 31
0.0
  0
LINE
  5
F227
  8
0-1
  6
CONTINUOUS
 62
     3
 10
8990.0459886935714
 20
6291.1885390000016
 30
0.0
 11
8990.0459886935714
 21
8152.234418
 31
0.0
  0
LINE
  5
F228
  8
0-1
  6
CONTINUOUS
 62
     3
 10
9005.0477696935704
 20
6291.1885390000016
 30
0.0
 11
9005.0477696935704
 21
8152.234418
 31
0.0
  0
LINE
  5
F229
  8
0-1
  6
CONTINUOUS
 62
     3
 10
9406.0457776935637
 20
6291.1885390000016
 30
0.0
 11
9406.0457776935637
 21
8152.234418
 31
0.0
  0
LINE
  5
F22A
  8
0-1
  6
CONTINUOUS
 62
     3
 10
9391.0469646935726
 20
6291.1885390000016
 30
0.0
 11
9391.0469646935726
 21
8152.234418
 31
0.0
  0
LINE
  5
F22B
  8
0-1
  6
CONTINUOUS
 62
     3
 10
9258.0480606935598
 20
6291.1885390000016
 30
0.0
 11
9258.0480606935598
 21
8152.234418
 31
0.0
  0
LINE
  5
F22C
  8
0-1
  6
CONTINUOUS
 62
     3
 10
9138.0466746935726
 20
6291.1885390000016
 30
0.0
 11
9138.0466746935726
 21
8152.234418
 31
0.0
  0
LINE
  5
F22D
  8
0-1
  6
CONTINUOUS
 62
     3
 10
9208.0464106935833
 20
6291.1885390000016
 30
0.0
 11
9208.0464106935833
 21
8152.234418
 31
0.0
  0
LINE
  5
F22E
  8
0-1
  6
CONTINUOUS
 62
     3
 10
9188.0473346935596
 20
6291.1885390000016
 30
0.0
 11
9188.0473346935596
 21
8152.234418
 31
0.0
  0
LINE
  5
F22F
  8
0-1
  6
CONTINUOUS
 62
     3
 10
9529.5459616935677
 20
8152.234418
 30
0.0
 11
9529.5459616935677
 21
6291.1885390000016
 31
0.0
  0
LINE
  5
F230
  8
0-1
  6
CONTINUOUS
 62
     3
 10
9566.54712369357
 20
8152.234418
 30
0.0
 11
9566.54712369357
 21
6291.1885390000016
 31
0.0
  0
LINE
  5
F231
  8
0-1
  6
CONTINUOUS
 62
     3
 10
8129.5482716935658
 20
8152.234418
 30
0.0
 11
8129.5482716935658
 21
6291.1885390000016
 31
0.0
  0
LINE
  5
F232
  8
0-1
  6
CONTINUOUS
 62
     3
 10
8166.5474536935808
 20
8152.234418
 30
0.0
 11
8166.5474536935808
 21
6291.1885390000016
 31
0.0
  0
LINE
  5
F233
  8
0-1
  6
CONTINUOUS
 62
     3
 10
8829.5466216935747
 20
8152.234418
 30
0.0
 11
8829.5466216935747
 21
6291.1885390000016
 31
0.0
  0
LINE
  5
F234
  8
0-1
  6
CONTINUOUS
 62
     3
 10
8866.5467936935602
 20
8152.234418
 30
0.0
 11
8866.5467936935602
 21
6291.1885390000016
 31
0.0
  0
LINE
  5
F235
  8
0-1
  6
CONTINUOUS
 62
     3
 10
22528.299508142121
 20
6241.1883740000048
 30
0.0
 11
22628.29884914212
 21
6241.1883740000048
 31
0.0
  0
LINE
  5
F236
  8
0-1
  6
CONTINUOUS
 62
     3
 10
22628.29884914212
 20
6241.1883740000048
 30
0.0
 11
22628.29884914212
 21
6141.1885390000016
 31
0.0
  0
LINE
  5
F237
  8
0-1
  6
CONTINUOUS
 62
     3
 10
22528.299508142121
 20
6141.1885390000016
 30
0.0
 11
22528.299508142121
 21
6241.1883740000048
 31
0.0
  0
LINE
  5
F238
  8
0-1
  6
CONTINUOUS
 62
     3
 10
22620.798453142132
 20
8459.6884660000014
 30
0.0
 11
22620.798453142132
 21
6241.1883740000048
 31
0.0
  0
LINE
  5
F239
  8
0-1
  6
CONTINUOUS
 62
     3
 10
22672.29818914214
 20
8132.6883740000021
 30
0.0
 11
22672.29818914214
 21
6141.1885390000016
 31
0.0
  0
LINE
  5
F23A
  8
0-1
  6
CONTINUOUS
 62
     3
 10
22555.797001142131
 20
8589.6883999999973
 30
0.0
 11
22555.797001142131
 21
6241.1883740000048
 31
0.0
  0
LINE
  5
F23B
  8
0-1
  6
CONTINUOUS
 62
     3
 10
22535.798189142111
 20
8459.6884660000014
 30
0.0
 11
22535.798189142111
 21
6241.1883740000048
 31
0.0
  0
LINE
  5
F23C
  8
0-1
  6
CONTINUOUS
 62
     3
 10
25581.79818914214
 20
8264.002661999999
 30
0.0
 11
25538.79818914214
 21
8264.002661999999
 31
0.0
  0
LINE
  5
F23D
  8
0-1
  6
CONTINUOUS
 62
     3
 10
25546.300828142121
 20
6241.1883740000048
 30
0.0
 11
25446.30148814213
 21
6241.1883740000048
 31
0.0
  0
LINE
  5
F23E
  8
0-1
  6
CONTINUOUS
 62
     3
 10
25446.30148814213
 20
6241.1883740000048
 30
0.0
 11
25446.30148814213
 21
6141.1885390000016
 31
0.0
  0
LINE
  5
F23F
  8
0-1
  6
CONTINUOUS
 62
     3
 10
25546.300828142121
 20
6141.1885390000016
 30
0.0
 11
25546.300828142121
 21
6241.1883740000048
 31
0.0
  0
LINE
  5
F240
  8
0-1
  6
CONTINUOUS
 62
     3
 10
25402.29818914214
 20
8132.6883740000021
 30
0.0
 11
25402.29818914214
 21
6141.1885390000016
 31
0.0
  0
LINE
  5
F241
  8
0-1
  6
CONTINUOUS
 62
     3
 10
25453.801884142111
 20
8459.6884660000014
 30
0.0
 11
25453.801884142111
 21
6241.1883740000048
 31
0.0
  0
LINE
  5
F242
  8
0-1
  6
CONTINUOUS
 62
     3
 10
25518.801356142121
 20
8589.6883999999973
 30
0.0
 11
25518.801356142121
 21
6241.1883740000048
 31
0.0
  0
LINE
  5
F243
  8
0-1
  6
CONTINUOUS
 62
     3
 10
25538.79818914214
 20
8459.6884660000014
 30
0.0
 11
25538.79818914214
 21
6241.1883740000048
 31
0.0
  0
LINE
  5
F244
  8
0-1
  6
CONTINUOUS
 62
     3
 10
7329.0471496935788
 20
6241.1883740000048
 30
0.0
 11
7329.0471496935788
 21
6141.1885390000016
 31
0.0
  0
LINE
  5
F245
  8
0-1
  6
CONTINUOUS
 62
     3
 10
7361.5479406935792
 20
8455.5174490000081
 30
0.0
 11
7361.5479406935792
 21
6241.1883740000048
 31
0.0
  0
LINE
  5
F246
  8
0-1
  6
CONTINUOUS
 62
     3
 10
7341.5471496935706
 20
8456.0984380000027
 30
0.0
 11
7341.5471496935706
 21
6241.1883740000048
 31
0.0
  0
LINE
  5
F247
  8
0-1
  6
CONTINUOUS
 62
     3
 10
7456.5470176935842
 20
8152.234418
 30
0.0
 11
7456.5470176935842
 21
6241.1883740000048
 31
0.0
  0
LINE
  5
F248
  8
0-1
  6
CONTINUOUS
 62
     3
 10
10302.047149693581
 20
8356.9898810000013
 30
0.0
 11
10302.047149693581
 21
8152.234418
 31
0.0
  0
LINE
  5
F249
  8
0-1
  6
CONTINUOUS
 62
     3
 10
10374.54701769356
 20
8152.234418
 30
0.0
 11
10374.54701769356
 21
6241.1883740000048
 31
0.0
  0
LINE
  5
F24A
  8
0-1
  6
CONTINUOUS
 62
     3
 10
10229.548271693569
 20
8152.234418
 30
0.0
 11
10229.548271693569
 21
6241.1883740000048
 31
0.0
  0
LINE
  5
F24B
  8
0-1
  6
CONTINUOUS
 62
     3
 10
10229.548271693569
 20
6291.1885390000016
 30
0.0
 11
7456.5470176935842
 21
6291.1885390000016
 31
0.0
  0
LINE
  5
F24C
  8
0-1
  6
CONTINUOUS
 62
     3
 10
25402.29818914214
 20
6661.1892650000009
 30
0.0
 11
22672.29818914214
 21
6661.1892650000009
 31
0.0
  0
LINE
  5
F24D
  8
0-1
  6
CONTINUOUS
 62
     3
 10
25402.29818914214
 20
6596.1888030000027
 30
0.0
 11
22672.29818914214
 21
6596.1888030000027
 31
0.0
  0
LINE
  5
F24E
  8
0-1
  6
CONTINUOUS
 62
     3
 10
25402.29818914214
 20
6531.1888360000012
 30
0.0
 11
22672.29818914214
 21
6531.1888360000012
 31
0.0
  0
LINE
  5
F24F
  8
0-1
  6
CONTINUOUS
 62
     3
 10
25402.29818914214
 20
6466.1883740000048
 30
0.0
 11
22672.29818914214
 21
6466.1883740000048
 31
0.0
  0
LINE
  5
F250
  8
0-1
  6
CONTINUOUS
 62
     3
 10
25402.29818914214
 20
6401.1889020000099
 30
0.0
 11
22672.29818914214
 21
6401.1889020000099
 31
0.0
  0
LINE
  5
F251
  8
0-1
  6
CONTINUOUS
 62
     3
 10
25402.29818914214
 20
6336.1889350000083
 30
0.0
 11
22672.29818914214
 21
6336.1889350000083
 31
0.0
  0
LINE
  5
F252
  8
0-1
  6
CONTINUOUS
 62
     3
 10
25402.29818914214
 20
6271.1889680000022
 30
0.0
 11
22672.29818914214
 21
6271.1889680000022
 31
0.0
  0
LINE
  5
F253
  8
0-1
  6
CONTINUOUS
 62
     3
 10
25402.29818914214
 20
6206.1885060000059
 30
0.0
 11
22672.29818914214
 21
6206.1885060000059
 31
0.0
  0
LINE
  5
F254
  8
0-1
  6
CONTINUOUS
 62
     3
 10
25402.29818914214
 20
8026.1885720000073
 30
0.0
 11
22672.29818914214
 21
8026.1885720000073
 31
0.0
  0
LINE
  5
F255
  8
0-1
  6
CONTINUOUS
 62
     3
 10
25402.29818914214
 20
7961.1886050000021
 30
0.0
 11
22672.29818914214
 21
7961.1886050000021
 31
0.0
  0
LINE
  5
F256
  8
0-1
  6
CONTINUOUS
 62
     3
 10
25402.29818914214
 20
7896.1891330000062
 30
0.0
 11
22672.29818914214
 21
7896.1891330000062
 31
0.0
  0
LINE
  5
F257
  8
0-1
  6
CONTINUOUS
 62
     3
 10
25402.29818914214
 20
7831.1891659999974
 30
0.0
 11
22672.29818914214
 21
7831.1891659999974
 31
0.0
  0
LINE
  5
F258
  8
0-1
  6
CONTINUOUS
 62
     3
 10
25402.29818914214
 20
7766.1891990000058
 30
0.0
 11
22672.29818914214
 21
7766.1891990000058
 31
0.0
  0
LINE
  5
F259
  8
0-1
  6
CONTINUOUS
 62
     3
 10
25402.29818914214
 20
7701.188737000004
 30
0.0
 11
22672.29818914214
 21
7701.188737000004
 31
0.0
  0
LINE
  5
F25A
  8
0-1
  6
CONTINUOUS
 62
     3
 10
25402.29818914214
 20
7636.1887699999979
 30
0.0
 11
22672.29818914214
 21
7636.1887699999979
 31
0.0
  0
LINE
  5
F25B
  8
0-1
  6
CONTINUOUS
 62
     3
 10
25402.29818914214
 20
7571.1892980000039
 30
0.0
 11
22672.29818914214
 21
7571.1892980000039
 31
0.0
  0
LINE
  5
F25C
  8
0-1
  6
CONTINUOUS
 62
     3
 10
25402.29818914214
 20
7506.1893310000032
 30
0.0
 11
22672.29818914214
 21
7506.1893310000032
 31
0.0
  0
LINE
  5
F25D
  8
0-1
  6
CONTINUOUS
 62
     3
 10
25402.29818914214
 20
7441.1888690000051
 30
0.0
 11
22672.29818914214
 21
7441.1888690000051
 31
0.0
  0
LINE
  5
F25E
  8
0-1
  6
CONTINUOUS
 62
     3
 10
25402.29818914214
 20
7376.188901999999
 30
0.0
 11
22672.29818914214
 21
7376.188901999999
 31
0.0
  0
LINE
  5
F25F
  8
0-1
  6
CONTINUOUS
 62
     3
 10
25402.29818914214
 20
7311.1889350000029
 30
0.0
 11
22672.29818914214
 21
7311.1889350000029
 31
0.0
  0
LINE
  5
F260
  8
0-1
  6
CONTINUOUS
 62
     3
 10
25402.29818914214
 20
7246.1884730000029
 30
0.0
 11
22672.29818914214
 21
7246.1884730000029
 31
0.0
  0
LINE
  5
F261
  8
0-1
  6
CONTINUOUS
 62
     3
 10
25402.29818914214
 20
7181.1885059999986
 30
0.0
 11
22672.29818914214
 21
7181.1885059999986
 31
0.0
  0
LINE
  5
F262
  8
0-1
  6
CONTINUOUS
 62
     3
 10
25402.29818914214
 20
7116.1890340000027
 30
0.0
 11
22672.29818914214
 21
7116.1890340000027
 31
0.0
  0
LINE
  5
F263
  8
0-1
  6
CONTINUOUS
 62
     3
 10
25402.29818914214
 20
7051.1890670000003
 30
0.0
 11
22672.29818914214
 21
7051.1890670000003
 31
0.0
  0
LINE
  5
F264
  8
0-1
  6
CONTINUOUS
 62
     3
 10
25402.29818914214
 20
6986.1891000000032
 30
0.0
 11
22672.29818914214
 21
6986.1891000000032
 31
0.0
  0
LINE
  5
F265
  8
0-1
  6
CONTINUOUS
 62
     3
 10
25402.29818914214
 20
6921.1886380000069
 30
0.0
 11
22672.29818914214
 21
6921.1886380000069
 31
0.0
  0
LINE
  5
F266
  8
0-1
  6
CONTINUOUS
 62
     3
 10
25402.29818914214
 20
6856.1886710000053
 30
0.0
 11
22672.29818914214
 21
6856.1886710000053
 31
0.0
  0
LINE
  5
F267
  8
0-1
  6
CONTINUOUS
 62
     3
 10
25402.29818914214
 20
6791.1891990000004
 30
0.0
 11
22672.29818914214
 21
6791.1891990000004
 31
0.0
  0
LINE
  5
F268
  8
0-1
  6
CONTINUOUS
 62
     3
 10
25402.29818914214
 20
6726.1892320000024
 30
0.0
 11
22672.29818914214
 21
6726.1892320000024
 31
0.0
  0
LINE
  5
F269
  8
0-1
  6
CONTINUOUS
 62
     3
 10
25402.29818914214
 20
8080.6485920000059
 30
0.0
 11
22672.29818914214
 21
8080.6485920000059
 31
0.0
  0
LINE
  5
F26A
  8
0-1
  6
CONTINUOUS
 62
     3
 10
25546.300828142121
 20
6141.1885390000016
 30
0.0
 11
19166.819813016929
 21
6141.1885390000016
 31
0.0
  0
LINE
  5
F26B
  8
0-1
  6
CONTINUOUS
 62
     3
 10
13270.047149693581
 20
6141.1885390000016
 30
0.0
 11
13270.047149693581
 21
6241.1883740000048
 31
0.0
  0
LINE
  5
F26C
  8
0-1
  6
CONTINUOUS
 62
     3
 10
13242.54734769356
 20
8268.9908770000056
 30
0.0
 11
13242.54734769356
 21
6241.1883740000048
 31
0.0
  0
LINE
  5
F26D
  8
0-1
  6
CONTINUOUS
 62
     3
 10
13262.54714969357
 20
8268.3741496838138
 30
0.0
 11
13262.54714969357
 21
6241.1883740000048
 31
0.0
  0
LINE
  5
F26E
  8
0-1
  6
CONTINUOUS
 62
     3
 10
13147.548270693571
 20
8152.234418
 30
0.0
 11
13147.548270693571
 21
6241.1883740000048
 31
0.0
  0
LINE
  5
F26F
  8
0-1
  6
CONTINUOUS
 62
     3
 10
13270.047149693581
 20
6241.1883740000048
 30
0.0
 11
7329.0471496935788
 21
6241.1883740000048
 31
0.0
  0
LINE
  5
F270
  8
0-1
  6
CONTINUOUS
 62
     3
 10
13147.548270693571
 20
6291.1885390000016
 30
0.0
 11
10374.54701769356
 21
6291.1885390000016
 31
0.0
  0
LINE
  5
F271
  8
0-1
  6
CONTINUOUS
 62
     3
 10
13952.54820469357
 20
6141.1885390000016
 30
0.0
 11
7329.0471496935788
 21
6141.1885390000016
 31
0.0
  0
LINE
  5
F272
  8
0-1
  6
CONTINUOUS
 62
     3
 10
13242.54734769356
 20
8152.234418
 30
0.0
 11
7361.5479406935792
 21
8152.234418
 31
0.0
  0
LINE
  5
F273
  8
0-1
  6
CONTINUOUS
 62
     3
 10
25427.798928142111
 20
8335.1891200000027
 30
0.0
 11
25150.36939814212
 21
8335.1891200000027
 31
0.0
  0
LINE
  5
F274
  8
0-1
  6
CONTINUOUS
 62
     3
 10
25427.798928142111
 20
8377.188565000004
 30
0.0
 11
25118.372460142109
 21
8377.188565000004
 31
0.0
  0
LINE
  5
F275
  8
0-1
  6
CONTINUOUS
 62
     3
 10
25432.79919114213
 20
8340.1888889999973
 30
0.0
 11
25432.79919114213
 21
8372.1892910000024
 31
0.0
  0
LINE
  5
F276
  8
0-1
  6
CONTINUOUS
 62
     3
 10
25453.801884142111
 20
8386.1884470000005
 30
0.0
 11
22620.798453142132
 21
8386.1884470000005
 31
0.0
  0
LINE
  5
F277
  8
0-1
  6
CONTINUOUS
 62
     3
 10
25146.835958142121
 20
8336.6529740000005
 30
0.0
 11
25114.83506014213
 21
8368.653376000002
 31
0.0
  0
LINE
  5
F278
  8
0-1
  6
CONTINUOUS
 62
     3
 10
25432.79919114213
 20
8368.7889730000024
 30
0.0
 11
25114.70639214214
 21
8368.7889730000024
 31
0.0
  0
LINE
  5
F279
  8
0-1
  6
CONTINUOUS
 62
     3
 10
25432.79919114213
 20
8360.3888860000006
 30
0.0
 11
25123.099550142098
 21
8360.3888860000006
 31
0.0
  0
LINE
  5
F27A
  8
0-1
  6
CONTINUOUS
 62
     3
 10
25432.79919114213
 20
8351.9892940000063
 30
0.0
 11
25131.498648142118
 21
8351.9892940000063
 31
0.0
  0
LINE
  5
F27B
  8
0-1
  6
CONTINUOUS
 62
     3
 10
25432.79919114213
 20
8343.5892070000064
 30
0.0
 11
25139.90170414211
 21
8343.5892070000064
 31
0.0
  0
LINE
  5
F27C
  8
0-1
  6
CONTINUOUS
 62
     3
 10
22641.799165142122
 20
8368.7889730000024
 30
0.0
 11
22959.89196514212
 21
8368.7889730000024
 31
0.0
  0
LINE
  5
F27D
  8
0-1
  6
CONTINUOUS
 62
     3
 10
22641.799165142122
 20
8360.3888860000006
 30
0.0
 11
22951.496827142131
 21
8360.3888860000006
 31
0.0
  0
LINE
  5
F27E
  8
0-1
  6
CONTINUOUS
 62
     3
 10
22641.799165142122
 20
8351.9892940000063
 30
0.0
 11
22943.09773014213
 21
8351.9892940000063
 31
0.0
  0
LINE
  5
F27F
  8
0-1
  6
CONTINUOUS
 62
     3
 10
22641.799165142122
 20
8343.5892070000064
 30
0.0
 11
22934.698632142128
 21
8343.5892070000064
 31
0.0
  0
LINE
  5
F280
  8
0-1
  6
CONTINUOUS
 62
     3
 10
22646.799429142131
 20
8377.188565000004
 30
0.0
 11
22956.22589714214
 21
8377.188565000004
 31
0.0
  0
LINE
  5
F281
  8
0-1
  6
CONTINUOUS
 62
     3
 10
22646.799429142131
 20
8335.1891200000027
 30
0.0
 11
22924.228958142128
 21
8335.1891200000027
 31
0.0
  0
LINE
  5
F282
  8
0-1
  6
CONTINUOUS
 62
     3
 10
22641.799165142122
 20
8340.1888889999973
 30
0.0
 11
22641.799165142122
 21
8372.1892910000024
 31
0.0
  0
LINE
  5
F283
  8
0-1
  6
CONTINUOUS
 62
     3
 10
22927.764379142121
 20
8336.6529740000005
 30
0.0
 11
22959.761317142111
 21
8368.653376000002
 31
0.0
  0
LINE
  5
F284
  8
0-1
  6
CONTINUOUS
 62
     3
 10
13436.84897369357
 20
8303.1736990000081
 30
0.0
 11
7255.8574846935744
 21
8498.6897600000102
 31
0.0
  0
LINE
  5
F285
  8
0-1
  6
CONTINUOUS
 62
     3
 10
7257.3579596935751
 20
8548.6686450000016
 30
0.0
 11
13438.348458693579
 21
8353.151595000003
 31
0.0
  0
LINE
  5
F286
  8
0-1
  6
CONTINUOUS
 62
     3
 10
13441.438486693571
 20
8356.0604970000059
 30
0.0
 11
13442.398553693571
 21
8388.0460529999982
 31
0.0
  0
LINE
  5
F287
  8
0-1
  6
CONTINUOUS
 62
     3
 10
13437.54972269356
 20
8393.1932959999976
 30
0.0
 11
7237.5885076935738
 21
8589.280448000005
 31
0.0
  0
LINE
  5
F288
  8
0-1
  6
CONTINUOUS
 62
     3
 10
7233.6839076935712
 20
8459.3389100000059
 30
0.0
 11
13433.64908169356
 21
8263.2522529999969
 31
0.0
  0
LINE
  5
F289
  8
0-1
  6
CONTINUOUS
 62
     3
 10
13438.796819693571
 20
8268.099599000001
 30
0.0
 11
13439.755896693559
 21
8300.0856500000027
 31
0.0
  0
LINE
  5
F28A
  8
0-1
  6
CONTINUOUS
 62
     3
 10
13440.087465693559
 20
8311.0803910000013
 30
0.0
 11
13441.10790769356
 21
8345.0647660000031
 31
0.0
  0
LINE
  5
F28B
  8
0-1
  6
CONTINUOUS
 62
     3
 10
13438.199004693561
 20
8348.1538050000017
 30
0.0
 11
7257.2065266935742
 21
8543.6713500000023
 31
0.0
  0
LINE
  5
F28C
  8
0-1
  6
CONTINUOUS
 62
     3
 10
7256.0069386935793
 20
8503.6880440000023
 30
0.0
 11
13436.997436693569
 21
8308.1719840000005
 31
0.0
  0
LINE
  5
F28D
  8
0-1
  6
CONTINUOUS
 62
     3
 10
10302.047149693581
 20
8356.9898810000013
 30
0.0
 11
10305.94977069356
 21
8486.9314190000005
 31
0.0
  0
LINE
  5
F28E
  8
0-1
  6
CONTINUOUS
 62
     3
 10
7266.6508096935704
 20
8458.3481610000017
 30
0.0
 11
7270.5524406935738
 21
8588.2896989999972
 31
0.0
  0
LINE
  5
F28F
  8
0-1
  6
CONTINUOUS
 62
     3
 10
13425.05698069356
 20
8393.5684150000016
 30
0.0
 11
13421.15435969357
 21
8263.6273720000027
 31
0.0
  0
LINE
  5
F290
  8
0-2
  6
CONTINUOUS
 62
     4
 10
23673.61014864211
 20
6888.4152329999988
 30
0.0
 11
23773.609488642131
 21
6888.4152329999988
 31
0.0
  0
LINE
  5
F291
  8
0-2
  6
CONTINUOUS
 62
     4
 10
24400.99414864213
 20
6888.4152329999988
 30
0.0
 11
24300.994808642128
 21
6888.4152329999988
 31
0.0
  0
LINE
  5
F292
  8
0-5
  6
CONTINUOUS
 62
     4
 10
22578.298189142119
 20
4461.1889349999992
 30
0.0
 11
22578.298189142119
 21
4301.1893970000001
 31
0.0
  0
LINE
  5
F293
  8
0-5
  6
CONTINUOUS
 62
     4
 10
15250.409482739849
 20
6241.1883740000039
 30
0.0
 11
15130.409086739861
 21
6449.0353509999977
 31
0.0
  0
LINE
  5
F294
  8
0-5
  6
CONTINUOUS
 62
     4
 10
15370.407899739859
 20
6449.0353509999977
 30
0.0
 11
15250.409482739849
 21
6241.1883740000039
 31
0.0
  0
LINE
  5
F295
  8
0-5
  6
CONTINUOUS
 62
     4
 10
15130.409086739861
 20
6449.0353509999977
 30
0.0
 11
15370.407899739859
 21
6449.0353509999977
 31
0.0
  0
LINE
  5
F296
  8
0-5
  6
CONTINUOUS
 62
     4
 10
15714.39650700211
 20
6241.1883740000048
 30
0.0
 11
14352.54754569356
 21
6241.1883740000039
 31
0.0
  0
LINE
  5
F297
  8
0-5
  6
CONTINUOUS
 62
     4
 10
25496.29818914214
 20
4461.1889349999992
 30
0.0
 11
25496.29818914214
 21
4301.1893970000001
 31
0.0
  0
LINE
  5
F298
  8
0-5
  6
CONTINUOUS
 62
     4
 10
7384.0471496935788
 20
4461.1889349999992
 30
0.0
 11
7384.0471496935788
 21
4301.1893970000001
 31
0.0
  0
LINE
  5
F299
  8
0-5
  6
CONTINUOUS
 62
     4
 10
10302.047149693581
 20
4461.1889349999992
 30
0.0
 11
10302.047149693581
 21
4301.1893970000001
 31
0.0
  0
LINE
  5
F29A
  8
0-5
  6
CONTINUOUS
 62
     4
 10
13220.04714969357
 20
4461.1889349999992
 30
0.0
 11
13220.04714969357
 21
4301.1893970000001
 31
0.0
  0
LINE
  5
F29B
  8
2-0
  6
CENTER2
 62
     6
 10
22578.298189142119
 20
5878.536116000002
 30
0.0
 11
22578.298189142119
 21
6915.6791430000012
 31
0.0
  0
LINE
  5
F29C
  8
2-0
  6
CENTER2
 62
     6
 10
25496.29818914214
 20
5878.536116000002
 30
0.0
 11
25496.29818914214
 21
6915.6791430000012
 31
0.0
  0
LINE
  5
F29D
  8
2-0
  6
CENTER2
 62
     6
 10
7384.0471496935788
 20
5878.536116000002
 30
0.0
 11
7384.0471496935788
 21
6935.6787140000024
 31
0.0
  0
LINE
  5
F29E
  8
2-0
  6
CENTER2
 62
     6
 10
10302.047149693581
 20
5878.536116000002
 30
0.0
 11
10302.047149693581
 21
6935.6787140000024
 31
0.0
  0
LINE
  5
F29F
  8
2-0
  6
CENTER2
 62
     6
 10
13220.04714969357
 20
5878.536116000002
 30
0.0
 11
13220.04714969357
 21
6935.6787140000024
 31
0.0
  0
ARC
  5
F2A0
  8
0-1
  6
CONTINUOUS
 62
     3
 10
25427.798928142111
 20
8372.1892910000024
 30
0.0
 40
5.0
 50
0.0
 51
90.0
  0
ARC
  5
F2A1
  8
0-1
  6
CONTINUOUS
 62
     3
 10
25427.798928142111
 20
8340.1888889999973
 30
0.0
 40
5.0
 50
270.00001499981897
 51
0.0
  0
ARC
  5
F2A2
  8
0-1
  6
CONTINUOUS
 62
     3
 10
25150.36939814212
 20
8340.1888889999973
 30
0.0
 40
5.0
 50
225.00001499973911
 51
270.00001499981897
  0
ARC
  5
F2A3
  8
0-1
  6
CONTINUOUS
 62
     3
 10
25118.372460142109
 20
8372.1892910000024
 30
0.0
 40
5.0
 50
90.0
 51
225.00001499973911
  0
ARC
  5
F2A4
  8
0-1
  6
CONTINUOUS
 62
     3
 10
22646.799429142131
 20
8340.1888889999973
 30
0.0
 40
5.0
 50
180.0
 51
270.00001499981897
  0
ARC
  5
F2A5
  8
0-1
  6
CONTINUOUS
 62
     3
 10
22646.799429142131
 20
8372.1892910000024
 30
0.0
 40
5.0
 50
90.0
 51
180.0
  0
ARC
  5
F2A6
  8
0-1
  6
CONTINUOUS
 62
     3
 10
22956.22589714214
 20
8372.1892910000024
 30
0.0
 40
5.0
 50
315.00001500002458
 51
90.0
  0
ARC
  5
F2A7
  8
0-1
  6
CONTINUOUS
 62
     3
 10
22924.228958142128
 20
8340.1888889999973
 30
0.0
 40
5.0
 50
270.00001499981897
 51
315.00001500002458
  0
ARC
  5
F2A8
  8
0-1
  6
CONTINUOUS
 62
     3
 10
7256.6077226935822
 20
8523.6801919999998
 30
0.0
 40
24.999998999999999
 50
88.280013999973946
 51
268.2800139999739
  0
ARC
  5
F2A9
  8
0-1
  6
CONTINUOUS
 62
     3
 10
13438.43852669357
 20
8356.1505650000054
 30
0.0
 40
3.0
 50
268.2800139999739
 51
358.28001399997981
  0
ARC
  5
F2AA
  8
0-1
  6
CONTINUOUS
 62
     3
 10
13437.40125869357
 20
8388.195507000004
 30
0.0
 40
5.0
 50
358.28001399997981
 51
88.280013999973946
  0
ARC
  5
F2AB
  8
0-1
  6
CONTINUOUS
 62
     3
 10
7261.6050166935893
 20
8523.5297490000103
 30
0.0
 40
69.999999000000003
 50
110.0668030000957
 51
246.49322500021549
  0
ARC
  5
F2AC
  8
0-1
  6
CONTINUOUS
 62
     3
 10
13433.79754569356
 20
8268.250043
 30
0.0
 40
5.0
 50
268.2800139999739
 51
358.28001399997981
  0
ARC
  5
F2AD
  8
0-1
  6
CONTINUOUS
 62
     3
 10
13436.75890469357
 20
8300.1752230000075
 30
0.0
 40
3.0
 50
358.28001399997981
 51
88.280013999973946
  0
ARC
  5
F2AE
  8
0-1
  6
CONTINUOUS
 62
     3
 10
13436.774741693571
 20
8350.6979809999975
 30
0.0
 40
2.5
 50
88.280013999973946
 51
268.2800139999739
  0
ARC
  5
F2AF
  8
0-1
  6
CONTINUOUS
 62
     3
 10
13435.424709693571
 20
8305.7178750000021
 30
0.0
 40
2.5
 50
88.280013999973946
 51
268.2800139999739
  0
ARC
  5
F2B0
  8
0-1
  6
CONTINUOUS
 62
     3
 10
13438.108936693579
 20
8345.1553289999974
 30
0.0
 40
3.0
 50
358.28001399997981
 51
88.280013999973946
  0
ARC
  5
F2B1
  8
0-1
  6
CONTINUOUS
 62
     3
 10
7256.6077226935822
 20
8523.6801919999998
 30
0.0
 40
20.0
 50
88.280013999973946
 51
268.2800139999739
  0
ARC
  5
F2B2
  8
0-1
  6
CONTINUOUS
 62
     3
 10
13437.08849469356
 20
8311.1699640000006
 30
0.0
 40
3.0
 50
268.2800139999739
 51
358.28001399997981
  0
CIRCLE
  5
F2B3
  8
0-5
  6
CONTINUOUS
 62
     4
 10
22578.298189142119
 20
4101.1882420000047
 30
0.0
 40
199.9999949999999
  0
CIRCLE
  5
F2B4
  8
0-5
  6
CONTINUOUS
 62
     4
 10
10302.047149693581
 20
4101.1882420000047
 30
0.0
 40
199.9999949999999
  0
CIRCLE
  5
F2B5
  8
0-5
  6
CONTINUOUS
 62
     4
 10
7384.0471496935788
 20
4101.1882420000047
 30
0.0
 40
199.9999949999999
  0
CIRCLE
  5
F2B6
  8
0-5
  6
CONTINUOUS
 62
     4
 10
25496.29818914214
 20
4101.1882420000047
 30
0.0
 40
199.9999949999999
  0
CIRCLE
  5
F2B7
  8
0-5
  6
CONTINUOUS
 62
     4
 10
13220.04714969357
 20
4101.1882420000047
 30
0.0
 40
199.9999949999999
  0
TEXT
  5
F2B8
  8
0-5
  6
CONTINUOUS
 62
     7
 10
22523.54439747546
 20
4011.7132600000041
 30
0.0
 40
160.0
  1
2
 72
     4
 11
22576.877730808788
 21
4091.713260000005
 31
0.0
  0
TEXT
  5
F2B9
  8
0-5
  6
CONTINUOUS
 62
     7
 10
26601.26995424628
 20
7195.369097493548
 30
0.0
 40
160.0
  1
(2131.5)
 50
90.0
 72
     4
 11
26521.26995424628
 21
7648.702430826881
 31
0.0
  0
TEXT
  5
F2BA
  8
0-5
  6
CONTINUOUS
 62
     7
 10
14792.168078406519
 20
6529.0346249999966
 30
0.0
 40
160.0
  1
布基礎天端
 72
     4
 11
15250.834745073191
 21
6609.0346249999984
 31
0.0
  0
TEXT
  5
F2BB
  8
0-5
  6
CONTINUOUS
 62
     7
 10
25442.964855808808
 20
4021.1882420000038
 30
0.0
 40
160.0
  1
3
 72
     4
 11
25496.29818914214
 21
4101.1882420000047
 31
0.0
  0
TEXT
  5
F2BC
  8
0-5
  6
CONTINUOUS
 62
     7
 10
7324.3366430269052
 20
4017.9774460000049
 30
0.0
 40
160.0
  1
A
 72
     4
 11
7377.6699763602383
 21
4097.9774460000053
 31
0.0
  0
TEXT
  5
F2BD
  8
0-5
  6
CONTINUOUS
 62
     7
 10
10242.336643026891
 20
4017.9774460000049
 30
0.0
 40
160.0
  1
B
 72
     4
 11
10295.66997636023
 21
4097.9774460000053
 31
0.0
  0
TEXT
  5
F2BE
  8
0-5
  6
CONTINUOUS
 62
     7
 10
13160.336643026911
 20
4017.9774460000049
 30
0.0
 40
160.0
  1
C
 72
     4
 11
13213.669976360239
 21
4097.9774460000053
 31
0.0
  0
CIRCLE
  5
F2BF
  8
0-4
  6
CONTINUOUS
 62
     4
 10
24037.30016864213
 20
6627.2449750000023
 30
0.0
 40
18.487504999999981
  0
LINE
  5
F2C0
  8
1-前柱カバ-P
 10
19820.7981891421
 20
8459.6884660000014
 30
0.0
 11
19820.7981891421
 21
6141.1885390000016
 31
0.0
  0
LINE
  5
F2C1
  8
1-前柱カバ-P
 10
19735.798189142111
 20
8589.6883999999973
 30
0.0
 11
19735.79818914213
 21
6141.1885390000016
 31
0.0
  0
LINE
  5
F2C2
  8
0-1
  6
CONTINUOUS
 62
     3
 10
19692.798189142119
 20
8459.6884660000087
 30
0.0
 11
22620.798453142132
 21
8459.6884660000014
 31
0.0
  0
LINE
  5
F2C3
  8
0-1
  6
CONTINUOUS
 62
     3
 10
22555.797001142131
 20
8589.6883999999973
 30
0.0
 11
19692.798189142119
 21
8589.6883999999973
 31
0.0
  0
LINE
  5
F2C4
  8
0-1
  6
CONTINUOUS
 62
     3
 10
19692.798189142119
 20
8264.0026620000062
 30
0.0
 11
19692.798189142119
 21
8589.6883999999973
 31
0.0
  0
LINE
  5
F2C5
  8
0-1
  6
CONTINUOUS
 62
     3
 10
19692.798189142119
 20
8264.0026620000062
 30
0.0
 11
19735.798189142111
 21
8264.0026620000062
 31
0.0
  0
LINE
  5
F2C6
  8
2-0
  6
CENTER2
 62
     6
 10
19778.298189142119
 20
5878.536116000002
 30
0.0
 11
19778.298189142119
 21
6915.6791430000012
 31
0.0
  0
LINE
  5
F2C7
  8
1-桁前P28
 10
19820.7981891421
 20
8261.1883740000048
 30
0.0
 11
22535.798189142111
 21
8261.1883740000048
 31
0.0
  0
LINE
  5
F2C8
  8
0-5
  6
CONTINUOUS
 62
     4
 10
19778.298189142119
 20
4461.1889349999992
 30
0.0
 11
19778.298189142119
 21
4301.1893970000001
 31
0.0
  0
CIRCLE
  5
F2C9
  8
0-5
  6
CONTINUOUS
 62
     4
 10
19778.298189142119
 20
4101.1882420000047
 30
0.0
 40
199.9999949999999
  0
TEXT
  5
F2CA
  8
0-5
  6
CONTINUOUS
 62
     7
 10
19750.21106414211
 20
4011.7132600000041
 30
0.0
 40
160.0
  1
1
 72
     4
 11
19776.877730808781
 21
4091.713260000005
 31
0.0
  0
TEXT
  5
F2CB
  8
0-5
  6
CONTINUOUS
 62
     7
 10
18890.426801882721
 20
7244.4030036836239
 30
0.0
 40
160.0
  1
(2260)
 50
90.0
 72
     4
 11
18810.426801882721
 21
7631.0696703502908
 31
0.0
  0
LINE
  5
F2CC
  8
SUNPOU
  6
CONTINUOUS
 10
13442.54714969357
 20
9389.1900500000029
 30
0.0
 11
13947.335019586981
 21
9389.1900500000029
 31
0.0
  0
LINE
  5
F2CD
  8
0-5
  6
CONTINUOUS
 62
     4
 10
16702.927118549022
 20
6349.0350210000042
 30
0.0
 11
16582.928702549041
 21
6141.1885390000016
 31
0.0
  0
LINE
  5
F2CE
  8
0-5
  6
CONTINUOUS
 62
     4
 10
19092.45430017836
 20
6141.1885390000016
 30
0.0
 11
14026.107856058599
 21
6141.1885390000016
 31
0.0
  0
LINE
  5
F2CF
  8
0-5
  6
CONTINUOUS
 62
     4
 10
16582.928702549041
 20
6141.1885390000016
 30
0.0
 11
16462.928306549042
 21
6349.0350210000042
 31
0.0
  0
LINE
  5
F2D0
  8
0-5
  6
CONTINUOUS
 62
     4
 10
16462.928306549042
 20
6349.0350210000042
 30
0.0
 11
16702.927118549022
 21
6349.0350210000042
 31
0.0
  0
TEXT
  5
F2D1
  8
0-5
  6
CONTINUOUS
 62
     7
 10
16382.927118549011
 20
6429.0347900000024
 30
0.0
 40
160.0
  1
G.L
 72
     4
 11
16542.927118549022
 21
6509.0347900000043
 31
0.0
  0
LINE
  5
F42B
  8
2-0
  6
CENTER2
 62
     6
 10
27738.797397142109
 20
19647.987953999989
 30
0.0
 11
27418.798057142089
 21
19647.987953999989
 31
0.0
  0
LINE
  5
F42C
  8
2-0
  6
CENTER2
 62
     6
 10
27258.798057142089
 20
19647.987953999989
 30
0.0
 11
19473.691638190161
 21
19647.987953999989
 31
0.0
  0
LINE
  5
F42D
  8
2-0
  6
CENTER2
 62
     6
 10
27738.79739714212
 20
16729.987953999978
 30
0.0
 11
27418.79805714211
 21
16729.987953999978
 31
0.0
  0
LINE
  5
F42E
  8
2-0
  6
CENTER2
 62
     6
 10
26738.798717142101
 20
16729.987953999978
 30
0.0
 11
19473.691638190161
 21
16729.987953999978
 31
0.0
  0
LINE
  5
F42F
  8
2-0
  6
CENTER2
 62
     6
 10
27738.797397142109
 20
13811.98795399998
 30
0.0
 11
27418.798057142089
 21
13811.98795399998
 31
0.0
  0
LINE
  5
F430
  8
2-0
  6
CENTER2
 62
     6
 10
27258.798057142089
 20
13811.98795399998
 30
0.0
 11
19473.691638190161
 21
13811.98795399998
 31
0.0
  0
CIRCLE
  5
F431
  8
0-5
  6
CONTINUOUS
 62
     4
 10
22578.29647414212
 20
21490.488877999971
 30
0.0
 40
199.9999949999999
  0
CIRCLE
  5
F432
  8
0-5
  6
CONTINUOUS
 62
     4
 10
27938.798057142089
 20
19647.987953999989
 30
0.0
 40
199.9999949999999
  0
CIRCLE
  5
F433
  8
0-5
  6
CONTINUOUS
 62
     4
 10
27938.79805714211
 20
16729.987953999978
 30
0.0
 40
199.9999949999999
  0
CIRCLE
  5
F434
  8
0-5
  6
CONTINUOUS
 62
     4
 10
27938.798057142089
 20
13811.98795399998
 30
0.0
 40
199.9999949999999
  0
CIRCLE
  5
F435
  8
0-5
  6
CONTINUOUS
 62
     4
 10
25496.296474142109
 20
21490.488877999971
 30
0.0
 40
199.9999949999999
  0
TEXT
  5
F436
  8
0-5
  6
CONTINUOUS
 62
     7
 10
22526.30015147544
 20
21404.26302799999
 30
0.0
 40
160.0
  1
2
 72
     4
 11
22579.633484808772
 21
21484.26302799999
 31
0.0
  0
TEXT
  5
F437
  8
0-5
  6
CONTINUOUS
 62
     7
 10
25442.963140808781
 20
21410.488877999971
 30
0.0
 40
160.0
  1
3
 72
     4
 11
25496.296474142109
 21
21490.488877999971
 31
0.0
  0
TEXT
  5
F438
  8
0-5
  6
CONTINUOUS
 62
     7
 10
27880.80775247543
 20
19556.369894999989
 30
0.0
 40
160.0
  1
C
 72
     4
 11
27934.141085808758
 21
19636.369894999989
 31
0.0
  0
TEXT
  5
F439
  8
0-5
  6
CONTINUOUS
 62
     7
 10
27880.80775247543
 20
16638.369896
 30
0.0
 40
160.0
  1
B
 72
     4
 11
27934.141085808758
 21
16718.369896
 31
0.0
  0
TEXT
  5
F43A
  8
0-5
  6
CONTINUOUS
 62
     7
 10
27880.80775247543
 20
13720.369894999991
 30
0.0
 40
160.0
  1
A
 72
     4
 11
27934.141085808758
 21
13800.369894999991
 31
0.0
  0
LINE
  5
F43B
  8
2-0
  6
CENTER2
 62
     6
 10
19778.296474142091
 20
21290.490196999981
 30
0.0
 11
19778.296474142091
 21
13454.234075531571
 31
0.0
  0
CIRCLE
  5
F43C
  8
0-5
  6
CONTINUOUS
 62
     4
 10
19778.296474142091
 20
21490.488877999971
 30
0.0
 40
199.9999949999999
  0
TEXT
  5
F43D
  8
0-5
  6
CONTINUOUS
 62
     7
 10
19752.966818142089
 20
21404.26302799999
 30
0.0
 40
160.0
  1
1
 72
     4
 11
19779.633484808761
 21
21484.26302799999
 31
0.0
  0
ARC
  5
F43E
  8
1-後柱P
  6
HIDE-M
 62
     6
 10
19774.696474142111
 20
19579.93795399995
 30
0.0
 40
2.6000000000000001
 50
270.0
 51
0.000000000000007
  0
LINE
  5
F43F
  8
1-後柱P
  6
HIDE-M
 62
     6
 10
19786.296474142091
 20
19577.888563846791
 30
0.0
 11
19786.296474142091
 21
19581.537953999989
 31
0.0
  0
LINE
  5
F440
  8
1-後柱P
  6
HIDE-M
 62
     6
 10
19776.296474142091
 20
19577.888563846791
 30
0.0
 11
19776.296474142091
 21
19581.537953999989
 31
0.0
  0
LINE
  5
F441
  8
1-後柱P
  6
1PL-M
 62
     6
 10
19781.29647414212
 20
19572.337953999991
 30
0.0
 11
19781.29647414212
 21
19586.537953999981
 31
0.0
  0
ARC
  5
F442
  8
1-後柱P
  6
HIDE-M
 62
     6
 10
19787.896474142111
 20
19579.93795399995
 30
0.0
 40
2.6000000000000001
 50
180.0
 51
270.0
  0
LINE
  5
F443
  8
1-後柱P
  6
HIDE-M
 62
     6
 10
19777.296474142098
 20
19579.93795399995
 30
0.0
 11
19777.296474142098
 21
19581.537953999989
 31
0.0
  0
LINE
  5
F444
  8
1-後柱P
  6
HIDE-M
 62
     6
 10
19785.29647414212
 20
19579.93795399995
 30
0.0
 11
19785.29647414212
 21
19581.537953999989
 31
0.0
  0
LINE
  5
F445
  8
1-後柱P
 10
19767.396474142111
 20
19692.237953999978
 30
0.0
 11
19789.196474142111
 21
19692.237953999978
 31
0.0
  0
LINE
  5
F446
  8
1-後柱P
 10
19819.196474142111
 20
19654.937953999961
 30
0.0
 11
19819.196474142111
 21
19662.237953999989
 31
0.0
  0
ARC
  5
F447
  8
1-後柱P
 10
19789.196474142111
 20
19662.237953999989
 30
0.0
 40
30.0
 50
0.000000000000007
 51
90.0
  0
ARC
  5
F448
  8
1-後柱P
 10
19789.196474142111
 20
19662.237953999989
 30
0.0
 40
31.600000000000001
 50
0.000000000000007
 51
90.0
  0
LINE
  5
F449
  8
1-後柱P
 10
19767.396474142111
 20
19693.837953999991
 30
0.0
 11
19789.196474142111
 21
19693.837953999991
 31
0.0
  0
LINE
  5
F44A
  8
1-後柱P
 10
19820.796474142091
 20
19654.937953999961
 30
0.0
 11
19820.796474142091
 21
19662.237953999989
 31
0.0
  0
LINE
  5
F44B
  8
1-後柱P
 10
19797.796474142091
 20
19633.337953999991
 30
0.0
 11
19797.796474142091
 21
19643.337953999991
 31
0.0
  0
LINE
  5
F44C
  8
1-後柱P
 10
19796.196474142111
 20
19643.337953999991
 30
0.0
 11
19796.196474142111
 21
19633.337953999991
 31
0.0
  0
LINE
  5
F44D
  8
1-後柱P
 10
19737.396474142111
 20
19654.937953999961
 30
0.0
 11
19737.396474142111
 21
19662.237953999989
 31
0.0
  0
ARC
  5
F44E
  8
1-後柱P
 10
19767.396474142111
 20
19662.237953999989
 30
0.0
 40
30.0
 50
90.0
 51
180.0
  0
ARC
  5
F44F
  8
1-後柱P
 10
19767.396474142111
 20
19662.237953999989
 30
0.0
 40
31.600000000000001
 50
90.0
 51
180.0
  0
LINE
  5
F450
  8
1-後柱P
 10
19735.796474142098
 20
19654.937953999961
 30
0.0
 11
19735.796474142098
 21
19662.237953999989
 31
0.0
  0
LINE
  5
F451
  8
1-後柱P
 10
19742.3964741421
 20
19648.337953999991
 30
0.0
 11
19753.79647414212
 21
19648.337953999991
 31
0.0
  0
ARC
  5
F452
  8
1-後柱P
 10
19742.3964741421
 20
19654.937953999961
 30
0.0
 40
6.599999999999997
 50
180.0
 51
270.0
  0
ARC
  5
F453
  8
1-後柱P
 10
19753.79647414212
 20
19643.337953999991
 30
0.0
 40
5.0
 50
0.000000000000007
 51
90.0
  0
LINE
  5
F454
  8
1-後柱P
 10
19742.3964741421
 20
19649.937953999972
 30
0.0
 11
19753.79647414212
 21
19649.937953999972
 31
0.0
  0
ARC
  5
F455
  8
1-後柱P
 10
19742.3964741421
 20
19654.937953999961
 30
0.0
 40
5.0
 50
180.0
 51
270.0
  0
LINE
  5
F456
  8
1-後柱P
 10
19758.796474142098
 20
19643.337953999991
 30
0.0
 11
19758.796474142098
 21
19583.93795399999
 31
0.0
  0
LINE
  5
F457
  8
1-後柱P
 10
19760.396474142111
 20
19643.337953999991
 30
0.0
 11
19760.396474142111
 21
19583.93795399999
 31
0.0
  0
ARC
  5
F458
  8
1-後柱P
 10
19753.79647414212
 20
19643.337953999991
 30
0.0
 40
6.599999999999997
 50
0.000000000000007
 51
90.0
  0
LINE
  5
F459
  8
1-後柱P
 10
19765.396474142111
 20
19577.337953999991
 30
0.0
 11
19798.796474142091
 21
19577.337953999991
 31
0.0
  0
ARC
  5
F45A
  8
1-後柱P
 10
19765.396474142111
 20
19583.93795399999
 30
0.0
 40
6.599999999999997
 50
180.0
 51
270.0
  0
LINE
  5
F45B
  8
1-後柱P
 10
19765.396474142111
 20
19578.93795399995
 30
0.0
 11
19798.796474142091
 21
19578.93795399995
 31
0.0
  0
ARC
  5
F45C
  8
1-後柱P
 10
19765.396474142111
 20
19583.93795399999
 30
0.0
 40
5.0
 50
180.0
 51
270.0
  0
LINE
  5
F45D
  8
1-後柱P
 10
19798.796474142091
 20
19578.93795399995
 30
0.0
 11
19798.796474142091
 21
19577.337953999991
 31
0.0
  0
LINE
  5
F45E
  8
1-後柱P
 10
19814.196474142111
 20
19648.337953999991
 30
0.0
 11
19802.79647414212
 21
19648.337953999991
 31
0.0
  0
ARC
  5
F45F
  8
1-後柱P
 10
19814.196474142111
 20
19654.937953999961
 30
0.0
 40
6.599999999999997
 50
270.0
 51
0.000000000000007
  0
ARC
  5
F460
  8
1-後柱P
 10
19802.79647414212
 20
19643.337953999991
 30
0.0
 40
5.0
 50
90.0
 51
180.0
  0
LINE
  5
F461
  8
1-後柱P
 10
19802.79647414212
 20
19649.937953999972
 30
0.0
 11
19814.196474142111
 21
19649.937953999972
 31
0.0
  0
ARC
  5
F462
  8
1-後柱P
 10
19802.79647414212
 20
19643.337953999991
 30
0.0
 40
6.599999999999997
 50
90.0
 51
180.0
  0
ARC
  5
F463
  8
1-後柱P
 10
19814.196474142111
 20
19654.937953999961
 30
0.0
 40
5.0
 50
270.0
 51
0.000000000000007
  0
LINE
  5
F464
  8
1-後柱P
 10
19797.796474142091
 20
19633.337953999991
 30
0.0
 11
19796.196474142111
 21
19633.337953999991
 31
0.0
  0
LINE
  5
F465
  8
1-後柱カバ-P
 10
19820.796474142091
 20
19641.637954000002
 30
0.0
 11
19820.796474142091
 21
19582.337953999991
 31
0.0
  0
ARC
  5
F466
  8
1-後柱カバ-P
 10
19814.196474142111
 20
19582.337953999991
 30
0.0
 40
6.599999999999997
 50
270.0
 51
0.000000000000007
  0
LINE
  5
F467
  8
1-後柱カバ-P
 10
19819.196474142111
 20
19641.637954000002
 30
0.0
 11
19819.196474142111
 21
19582.337953999991
 31
0.0
  0
ARC
  5
F468
  8
1-後柱カバ-P
 10
19814.196474142111
 20
19641.637954000002
 30
0.0
 40
5.0
 50
0.000000000000007
 51
90.0
  0
LINE
  5
F469
  8
1-後柱カバ-P
 10
19814.196474142111
 20
19575.737953999989
 30
0.0
 11
19742.3964741421
 21
19575.737953999989
 31
0.0
  0
ARC
  5
F46A
  8
1-後柱カバ-P
 10
19742.3964741421
 20
19582.337953999991
 30
0.0
 40
6.599999999999997
 50
180.0
 51
270.0
  0
LINE
  5
F46B
  8
1-後柱カバ-P
 10
19814.196474142111
 20
19577.337953999991
 30
0.0
 11
19742.3964741421
 21
19577.337953999991
 31
0.0
  0
ARC
  5
F46C
  8
1-後柱カバ-P
 10
19742.3964741421
 20
19582.337953999991
 30
0.0
 40
5.0
 50
180.0
 51
270.0
  0
ARC
  5
F46D
  8
1-後柱カバ-P
 10
19814.196474142111
 20
19582.337953999991
 30
0.0
 40
5.0
 50
270.0
 51
0.000000000000007
  0
LINE
  5
F46E
  8
1-後柱カバ-P
 10
19735.796474142098
 20
19582.337953999991
 30
0.0
 11
19735.796474142098
 21
19641.637954000002
 31
0.0
  0
LINE
  5
F46F
  8
1-後柱カバ-P
 10
19737.396474142111
 20
19582.337953999991
 30
0.0
 11
19737.396474142111
 21
19641.637954000002
 31
0.0
  0
ARC
  5
F470
  8
1-後柱カバ-P
 10
19742.3964741421
 20
19641.637954000002
 30
0.0
 40
5.0
 50
90.0
 51
180.0
  0
LINE
  5
F471
  8
1-後柱カバ-P
  6
1PL-M
 62
     6
 10
19778.296474142091
 20
19583.237953999989
 30
0.0
 11
19778.296474142091
 21
19570.237953999978
 31
0.0
  0
LINE
  5
F472
  8
1-後柱カバ-P
  6
HIDE-M
 62
     6
 10
19785.29647414212
 20
19575.737953999989
 30
0.0
 11
19785.29647414212
 21
19577.337953999991
 31
0.0
  0
LINE
  5
F473
  8
1-後柱カバ-P
  6
HIDE-M
 62
     6
 10
19771.296474142091
 20
19575.737953999989
 30
0.0
 11
19771.296474142091
 21
19577.337953999991
 31
0.0
  0
ARC
  5
F474
  8
1-後柱カバ-P
 10
19814.196474142111
 20
19641.637954000002
 30
0.0
 40
6.599999999999997
 50
0.000000000000007
 51
90.0
  0
ARC
  5
F475
  8
1-後柱カバ-P
 10
19742.3964741421
 20
19641.637954000002
 30
0.0
 40
6.599999999999997
 50
90.0
 51
180.0
  0
LINE
  5
F476
  8
1-後柱カバ-P
 10
19750.79647414212
 20
19648.237953999989
 30
0.0
 11
19742.3964741421
 21
19648.237953999989
 31
0.0
  0
LINE
  5
F477
  8
1-後柱カバ-P
 10
19805.796474142091
 20
19648.237953999989
 30
0.0
 11
19814.196474142111
 21
19648.237953999989
 31
0.0
  0
LINE
  5
F478
  8
1-後柱カバ-P
 10
19750.79647414212
 20
19646.637954000002
 30
0.0
 11
19742.3964741421
 21
19646.637954000002
 31
0.0
  0
LINE
  5
F479
  8
1-後柱カバ-P
 10
19805.796474142091
 20
19646.637954000002
 30
0.0
 11
19814.196474142111
 21
19646.637954000002
 31
0.0
  0
LINE
  5
F47A
  8
1-後柱カバ-P
 10
19805.796474142091
 20
19646.637954000002
 30
0.0
 11
19805.796474142091
 21
19648.237953999989
 31
0.0
  0
LINE
  5
F47B
  8
1-後柱カバ-P
 10
19750.79647414212
 20
19648.237953999989
 30
0.0
 11
19750.79647414212
 21
19646.637954000002
 31
0.0
  0
LINE
  5
F47C
  8
1-後柱カバ-P
  6
HIDE-M
 62
     6
 10
19746.896474142111
 20
19627.237953999978
 30
0.0
 11
19735.296474142091
 21
19627.237953999978
 31
0.0
  0
LINE
  5
F47D
  8
1-後柱カバ-P
  6
HIDE-M
 62
     6
 10
19746.896474142111
 20
19619.237953999989
 30
0.0
 11
19735.296474142091
 21
19619.237953999989
 31
0.0
  0
LINE
  5
F47E
  8
1-後柱カバ-P
  6
HIDE-M
 62
     6
 10
19746.896474142111
 20
19626.237953999978
 30
0.0
 11
19735.296474142091
 21
19626.237953999978
 31
0.0
  0
LINE
  5
F47F
  8
1-後柱カバ-P
  6
HIDE-M
 62
     6
 10
19746.896474142111
 20
19620.237953999978
 30
0.0
 11
19735.296474142091
 21
19620.237953999978
 31
0.0
  0
LINE
  5
F480
  8
1-後柱カバ-P
 10
19745.896474142111
 20
19617.737953999989
 30
0.0
 11
19738.896474142111
 21
19617.737953999989
 31
0.0
  0
LINE
  5
F481
  8
1-後柱カバ-P
 10
19738.896474142111
 20
19628.737953999989
 30
0.0
 11
19745.896474142111
 21
19628.737953999989
 31
0.0
  0
LINE
  5
F482
  8
1-後柱カバ-P
 10
19738.896474142111
 20
19629.487953999989
 30
0.0
 11
19738.896474142111
 21
19616.987953999978
 31
0.0
  0
LINE
  5
F483
  8
1-後柱カバ-P
 10
19735.296474142091
 20
19629.237953999978
 30
0.0
 11
19735.296474142091
 21
19617.237953999989
 31
0.0
  0
LINE
  5
F484
  8
1-後柱カバ-P
  6
HIDE-M
 62
     6
 10
19737.396474142111
 20
19617.737953999989
 30
0.0
 11
19735.796474142098
 21
19617.737953999989
 31
0.0
  0
LINE
  5
F485
  8
1-後柱カバ-P
 10
19735.296474142091
 20
19617.237953999989
 30
0.0
 11
19735.796474142098
 21
19617.737953999989
 31
0.0
  0
ARC
  5
F486
  8
1-後柱カバ-P
 10
19738.146474142111
 20
19616.987953999978
 30
0.0
 40
0.75
 50
180.0
 51
0.000000000000007
  0
LINE
  5
F487
  8
1-後柱カバ-P
  6
HIDE-M
 62
     6
 10
19735.796474142098
 20
19628.737953999989
 30
0.0
 11
19737.396474142111
 21
19628.737953999989
 31
0.0
  0
LINE
  5
F488
  8
1-後柱カバ-P
 10
19735.296474142091
 20
19629.237953999978
 30
0.0
 11
19735.796474142098
 21
19628.737953999989
 31
0.0
  0
ARC
  5
F489
  8
1-後柱カバ-P
 10
19738.146474142111
 20
19629.487953999989
 30
0.0
 40
0.75
 50
0.000000000000007
 51
180.0
  0
LINE
  5
F48A
  8
1-後柱カバ-P
 10
19746.896474142111
 20
19627.737953999978
 30
0.0
 11
19746.896474142111
 21
19618.737953999978
 31
0.0
  0
ARC
  5
F48B
  8
1-後柱カバ-P
 10
19745.896474142111
 20
19618.737953999978
 30
0.0
 40
1.0
 50
270.0
 51
0.000000000000007
  0
ARC
  5
F48C
  8
1-後柱カバ-P
 10
19745.896474142111
 20
19627.737953999978
 30
0.0
 40
1.0
 50
0.000000000000007
 51
90.0
  0
LINE
  5
F48D
  8
1-後柱カバ-P
  6
1PL-M
 62
     6
 10
19751.896474142111
 20
19623.237953999978
 30
0.0
 11
19730.296474142091
 21
19623.237953999978
 31
0.0
  0
LINE
  5
F48E
  8
1-後柱カバ-P
 10
19745.896474142111
 20
19607.737953999989
 30
0.0
 11
19738.896474142111
 21
19607.737953999989
 31
0.0
  0
LINE
  5
F48F
  8
1-後柱カバ-P
 10
19735.296474142091
 20
19615.237953999989
 30
0.0
 11
19735.296474142091
 21
19607.237953999978
 31
0.0
  0
LINE
  5
F490
  8
1-後柱カバ-P
  6
HIDE-M
 62
     6
 10
19737.396474142111
 20
19607.737953999989
 30
0.0
 11
19735.796474142098
 21
19607.737953999989
 31
0.0
  0
LINE
  5
F491
  8
1-後柱カバ-P
 10
19735.296474142091
 20
19607.237953999978
 30
0.0
 11
19735.796474142098
 21
19607.737953999989
 31
0.0
  0
ARC
  5
F492
  8
1-後柱カバ-P
 10
19738.146474142111
 20
19606.987953999989
 30
0.0
 40
0.75
 50
180.0
 51
0.000000000000007
  0
LINE
  5
F493
  8
1-後柱カバ-P
 10
19746.896474142111
 20
19616.737953999989
 30
0.0
 11
19746.896474142111
 21
19608.737953999989
 31
0.0
  0
ARC
  5
F494
  8
1-後柱カバ-P
 10
19745.896474142111
 20
19608.737953999989
 30
0.0
 40
1.0
 50
270.0
 51
0.000000000000007
  0
LINE
  5
F495
  8
1-後柱カバ-P
  6
1PL-M
 62
     6
 10
19751.896474142111
 20
19613.237953999989
 30
0.0
 11
19730.296474142091
 21
19613.237953999989
 31
0.0
  0
LINE
  5
F496
  8
1-後柱カバ-P
 10
19738.896474142111
 20
19614.987953999978
 30
0.0
 11
19738.896474142111
 21
19606.987953999989
 31
0.0
  0
LINE
  5
F497
  8
1-後柱カバ-P
  6
HIDE-M
 62
     6
 10
19809.696474142111
 20
19627.237953999978
 30
0.0
 11
19821.296474142091
 21
19627.237953999978
 31
0.0
  0
LINE
  5
F498
  8
1-後柱カバ-P
  6
HIDE-M
 62
     6
 10
19809.696474142111
 20
19619.237953999989
 30
0.0
 11
19821.296474142091
 21
19619.237953999989
 31
0.0
  0
LINE
  5
F499
  8
1-後柱カバ-P
  6
HIDE-M
 62
     6
 10
19809.696474142111
 20
19626.237953999978
 30
0.0
 11
19821.296474142091
 21
19626.237953999978
 31
0.0
  0
LINE
  5
F49A
  8
1-後柱カバ-P
  6
HIDE-M
 62
     6
 10
19809.696474142111
 20
19620.237953999978
 30
0.0
 11
19821.296474142091
 21
19620.237953999978
 31
0.0
  0
LINE
  5
F49B
  8
1-後柱カバ-P
 10
19810.696474142111
 20
19617.737953999989
 30
0.0
 11
19817.696474142111
 21
19617.737953999989
 31
0.0
  0
LINE
  5
F49C
  8
1-後柱カバ-P
 10
19817.696474142111
 20
19628.737953999989
 30
0.0
 11
19810.696474142111
 21
19628.737953999989
 31
0.0
  0
LINE
  5
F49D
  8
1-後柱カバ-P
 10
19817.696474142111
 20
19629.487953999989
 30
0.0
 11
19817.696474142111
 21
19616.987953999978
 31
0.0
  0
LINE
  5
F49E
  8
1-後柱カバ-P
 10
19821.296474142091
 20
19629.237953999978
 30
0.0
 11
19821.296474142091
 21
19617.237953999989
 31
0.0
  0
LINE
  5
F49F
  8
1-後柱カバ-P
  6
HIDE-M
 62
     6
 10
19819.196474142111
 20
19617.737953999989
 30
0.0
 11
19820.796474142091
 21
19617.737953999989
 31
0.0
  0
LINE
  5
F4A0
  8
1-後柱カバ-P
 10
19821.296474142091
 20
19617.237953999989
 30
0.0
 11
19820.796474142091
 21
19617.737953999989
 31
0.0
  0
ARC
  5
F4A1
  8
1-後柱カバ-P
 10
19818.446474142111
 20
19616.987953999978
 30
0.0
 40
0.75
 50
180.0
 51
0.000000000000007
  0
LINE
  5
F4A2
  8
1-後柱カバ-P
  6
HIDE-M
 62
     6
 10
19820.796474142091
 20
19628.737953999989
 30
0.0
 11
19819.196474142111
 21
19628.737953999989
 31
0.0
  0
LINE
  5
F4A3
  8
1-後柱カバ-P
 10
19821.296474142091
 20
19629.237953999978
 30
0.0
 11
19820.796474142091
 21
19628.737953999989
 31
0.0
  0
ARC
  5
F4A4
  8
1-後柱カバ-P
 10
19818.446474142111
 20
19629.487953999989
 30
0.0
 40
0.75
 50
0.000000000000007
 51
180.0
  0
LINE
  5
F4A5
  8
1-後柱カバ-P
 10
19809.696474142111
 20
19627.737953999978
 30
0.0
 11
19809.696474142111
 21
19618.737953999978
 31
0.0
  0
ARC
  5
F4A6
  8
1-後柱カバ-P
 10
19810.696474142111
 20
19618.737953999978
 30
0.0
 40
1.0
 50
180.0
 51
270.0
  0
ARC
  5
F4A7
  8
1-後柱カバ-P
 10
19810.696474142111
 20
19627.737953999978
 30
0.0
 40
1.0
 50
90.0
 51
180.0
  0
LINE
  5
F4A8
  8
1-後柱カバ-P
  6
1PL-M
 62
     6
 10
19804.696474142111
 20
19623.237953999978
 30
0.0
 11
19826.29647414212
 21
19623.237953999978
 31
0.0
  0
LINE
  5
F4A9
  8
1-後柱カバ-P
 10
19810.696474142111
 20
19607.737953999989
 30
0.0
 11
19817.696474142111
 21
19607.737953999989
 31
0.0
  0
LINE
  5
F4AA
  8
1-後柱カバ-P
 10
19821.296474142091
 20
19615.237953999989
 30
0.0
 11
19821.296474142091
 21
19607.237953999978
 31
0.0
  0
LINE
  5
F4AB
  8
1-後柱カバ-P
  6
HIDE-M
 62
     6
 10
19819.196474142111
 20
19607.737953999989
 30
0.0
 11
19820.796474142091
 21
19607.737953999989
 31
0.0
  0
LINE
  5
F4AC
  8
1-後柱カバ-P
 10
19821.296474142091
 20
19607.237953999978
 30
0.0
 11
19820.796474142091
 21
19607.737953999989
 31
0.0
  0
ARC
  5
F4AD
  8
1-後柱カバ-P
 10
19818.446474142111
 20
19606.987953999989
 30
0.0
 40
0.75
 50
180.0
 51
0.000000000000007
  0
LINE
  5
F4AE
  8
1-後柱カバ-P
 10
19809.696474142111
 20
19616.737953999989
 30
0.0
 11
19809.696474142111
 21
19608.737953999989
 31
0.0
  0
ARC
  5
F4AF
  8
1-後柱カバ-P
 10
19810.696474142111
 20
19608.737953999989
 30
0.0
 40
1.0
 50
180.0
 51
270.0
  0
LINE
  5
F4B0
  8
1-後柱カバ-P
  6
1PL-M
 62
     6
 10
19804.696474142111
 20
19613.237953999989
 30
0.0
 11
19826.29647414212
 21
19613.237953999989
 31
0.0
  0
LINE
  5
F4B1
  8
1-後柱カバ-P
 10
19817.696474142111
 20
19614.987953999978
 30
0.0
 11
19817.696474142111
 21
19606.987953999989
 31
0.0
  0
LINE
  5
F4B2
  8
1-後柱カバ-P
  6
HIDE-M
 62
     6
 10
19746.896474142111
 20
19609.237953999989
 30
0.0
 11
19735.296474142091
 21
19609.237953999989
 31
0.0
  0
LINE
  5
F4B3
  8
1-後柱カバ-P
  6
HIDE-M
 62
     6
 10
19746.896474142111
 20
19610.237953999978
 30
0.0
 11
19735.296474142091
 21
19610.237953999978
 31
0.0
  0
LINE
  5
F4B4
  8
1-後柱カバ-P
  6
HIDE-M
 62
     6
 10
19809.696474142111
 20
19609.237953999989
 30
0.0
 11
19821.296474142091
 21
19609.237953999989
 31
0.0
  0
LINE
  5
F4B5
  8
1-後柱カバ-P
  6
HIDE-M
 62
     6
 10
19809.696474142111
 20
19610.237953999978
 30
0.0
 11
19821.296474142091
 21
19610.237953999978
 31
0.0
  0
LINE
  5
F4B6
  8
1-中柱P
 10
19742.3964741421
 20
16658.987953999989
 30
0.0
 11
19814.196474142111
 21
16658.987953999989
 31
0.0
  0
ARC
  5
F4B7
  8
1-中柱P
 10
19742.3964741421
 20
16663.987953999989
 30
0.0
 40
5.0
 50
180.0
 51
270.0
  0
ARC
  5
F4B8
  8
1-中柱P
 10
19814.196474142111
 20
16663.987953999989
 30
0.0
 40
5.0
 50
270.0
 51
0.000000000000007
  0
LINE
  5
F4B9
  8
1-中柱P
 10
19742.3964741421
 20
16657.387954000002
 30
0.0
 11
19814.196474142111
 21
16657.387954000002
 31
0.0
  0
ARC
  5
F4BA
  8
1-中柱P
 10
19742.3964741421
 20
16663.987953999989
 30
0.0
 40
6.599999999999997
 50
180.0
 51
270.0
  0
LINE
  5
F4BB
  8
1-中柱P
 10
19820.796474142091
 20
16723.287953999989
 30
0.0
 11
19820.796474142091
 21
16663.987953999989
 31
0.0
  0
ARC
  5
F4BC
  8
1-中柱P
 10
19814.196474142111
 20
16663.987953999989
 30
0.0
 40
6.599999999999997
 50
270.0
 51
0.000000000000007
  0
LINE
  5
F4BD
  8
1-中柱P
 10
19819.196474142111
 20
16663.987953999989
 30
0.0
 11
19819.196474142111
 21
16723.287953999989
 31
0.0
  0
ARC
  5
F4BE
  8
1-中柱P
 10
19814.196474142111
 20
16723.287953999989
 30
0.0
 40
5.0
 50
0.000000000000007
 51
90.0
  0
LINE
  5
F4BF
  8
1-中柱P
 10
19735.796474142098
 20
16723.287953999989
 30
0.0
 11
19735.796474142098
 21
16663.987953999989
 31
0.0
  0
LINE
  5
F4C0
  8
1-中柱P
 10
19737.396474142111
 20
16663.987953999989
 30
0.0
 11
19737.396474142111
 21
16723.287953999989
 31
0.0
  0
LINE
  5
F4C1
  8
1-中柱P
 10
19742.3964741421
 20
16729.887954000002
 30
0.0
 11
19750.79647414212
 21
16729.887954000002
 31
0.0
  0
ARC
  5
F4C2
  8
1-中柱P
 10
19742.3964741421
 20
16723.287953999989
 30
0.0
 40
6.599999999999997
 50
90.0
 51
180.0
  0
LINE
  5
F4C3
  8
1-中柱P
 10
19742.3964741421
 20
16728.287953999989
 30
0.0
 11
19750.79647414212
 21
16728.287953999989
 31
0.0
  0
ARC
  5
F4C4
  8
1-中柱P
 10
19750.79647414212
 20
16734.887954000002
 30
0.0
 40
6.599999999999997
 50
270.0
 51
0.000000000000007
  0
ARC
  5
F4C5
  8
1-中柱P
 10
19742.3964741421
 20
16723.287953999989
 30
0.0
 40
5.0
 50
90.0
 51
180.0
  0
LINE
  5
F4C6
  8
1-中柱P
 10
19755.796474142091
 20
16734.887954000002
 30
0.0
 11
19755.796474142091
 21
16794.287953999981
 31
0.0
  0
ARC
  5
F4C7
  8
1-中柱P
 10
19750.79647414212
 20
16734.887954000002
 30
0.0
 40
5.0
 50
270.0
 51
0.000000000000007
  0
LINE
  5
F4C8
  8
1-中柱P
 10
19757.396474142111
 20
16734.887954000002
 30
0.0
 11
19757.396474142111
 21
16794.287953999981
 31
0.0
  0
LINE
  5
F4C9
  8
1-中柱P
 10
19762.3964741421
 20
16800.887954000002
 30
0.0
 11
19795.79647414212
 21
16800.887954000002
 31
0.0
  0
ARC
  5
F4CA
  8
1-中柱P
 10
19762.3964741421
 20
16794.287953999981
 30
0.0
 40
6.599999999999997
 50
90.0
 51
180.0
  0
LINE
  5
F4CB
  8
1-中柱P
 10
19762.3964741421
 20
16799.287953999981
 30
0.0
 11
19795.79647414212
 21
16799.287953999981
 31
0.0
  0
ARC
  5
F4CC
  8
1-中柱P
 10
19762.3964741421
 20
16794.287953999981
 30
0.0
 40
5.0
 50
90.0
 51
180.0
  0
LINE
  5
F4CD
  8
1-中柱P
 10
19795.79647414212
 20
16799.287953999981
 30
0.0
 11
19795.79647414212
 21
16800.887954000002
 31
0.0
  0
LINE
  5
F4CE
  8
1-中柱P
 10
19814.196474142111
 20
16729.887954000002
 30
0.0
 11
19805.796474142091
 21
16729.887954000002
 31
0.0
  0
ARC
  5
F4CF
  8
1-中柱P
 10
19814.196474142111
 20
16723.287953999989
 30
0.0
 40
6.599999999999997
 50
0.000000000000007
 51
90.0
  0
ARC
  5
F4D0
  8
1-中柱P
 10
19805.796474142091
 20
16734.887954000002
 30
0.0
 40
5.0
 50
180.0
 51
270.0
  0
LINE
  5
F4D1
  8
1-中柱P
 10
19805.796474142091
 20
16728.287953999989
 30
0.0
 11
19814.196474142111
 21
16728.287953999989
 31
0.0
  0
ARC
  5
F4D2
  8
1-中柱P
 10
19805.796474142091
 20
16734.887954000002
 30
0.0
 40
6.599999999999997
 50
180.0
 51
270.0
  0
ARC
  5
F4D3
  8
1-中柱P
  6
HIDE-M
 62
     6
 10
19771.696474142111
 20
16798.287953999981
 30
0.0
 40
2.6000000000000001
 50
0.000000000000007
 51
90.0
  0
LINE
  5
F4D4
  8
1-中柱P
  6
HIDE-M
 62
     6
 10
19783.296474142091
 20
16800.337344153169
 30
0.0
 11
19783.296474142091
 21
16796.687954000001
 31
0.0
  0
LINE
  5
F4D5
  8
1-中柱P
  6
HIDE-M
 62
     6
 10
19773.296474142098
 20
16800.337344153169
 30
0.0
 11
19773.296474142098
 21
16796.687954000001
 31
0.0
  0
LINE
  5
F4D6
  8
1-中柱P
  6
1PL-M
 62
     6
 10
19778.296474142091
 20
16805.887954000002
 30
0.0
 11
19778.296474142091
 21
16791.687954000001
 31
0.0
  0
ARC
  5
F4D7
  8
1-中柱P
  6
HIDE-M
 62
     6
 10
19784.896474142111
 20
16798.287953999981
 30
0.0
 40
2.6000000000000001
 50
90.0
 51
180.0
  0
LINE
  5
F4D8
  8
1-中柱P
  6
HIDE-M
 62
     6
 10
19774.296474142091
 20
16798.287953999981
 30
0.0
 11
19774.296474142091
 21
16796.687954000001
 31
0.0
  0
LINE
  5
F4D9
  8
1-中柱P
  6
HIDE-M
 62
     6
 10
19782.296474142098
 20
16798.287953999981
 30
0.0
 11
19782.296474142098
 21
16796.687954000001
 31
0.0
  0
LINE
  5
F4DA
  8
1-中柱P
 10
19799.196474142111
 20
16734.887954000002
 30
0.0
 11
19799.196474142111
 21
16744.887954000002
 31
0.0
  0
LINE
  5
F4DB
  8
1-中柱P
 10
19800.796474142091
 20
16734.887954000002
 30
0.0
 11
19800.796474142091
 21
16744.887954000002
 31
0.0
  0
LINE
  5
F4DC
  8
1-中柱P
 10
19799.196474142111
 20
16744.887954000002
 30
0.0
 11
19800.796474142091
 21
16744.887954000002
 31
0.0
  0
LINE
  5
F4DD
  8
1-中柱P
  6
1PL-M
 62
     6
 10
19750.79647414212
 20
16765.887954000002
 30
0.0
 11
19764.99647414211
 21
16765.887954000002
 31
0.0
  0
LINE
  5
F4DE
  8
1-中柱P
  6
HIDE-M
 62
     6
 10
19746.896474142111
 20
16708.887953999991
 30
0.0
 11
19735.296474142091
 21
16708.887953999991
 31
0.0
  0
LINE
  5
F4DF
  8
1-中柱P
  6
HIDE-M
 62
     6
 10
19746.896474142111
 20
16700.887954000002
 30
0.0
 11
19735.296474142091
 21
16700.887954000002
 31
0.0
  0
LINE
  5
F4E0
  8
1-中柱P
  6
HIDE-M
 62
     6
 10
19746.896474142111
 20
16707.887954000002
 30
0.0
 11
19735.296474142091
 21
16707.887954000002
 31
0.0
  0
LINE
  5
F4E1
  8
1-中柱P
  6
HIDE-M
 62
     6
 10
19746.896474142111
 20
16701.887954000002
 30
0.0
 11
19735.296474142091
 21
16701.887954000002
 31
0.0
  0
LINE
  5
F4E2
  8
1-中柱P
 10
19745.896474142111
 20
16699.387954000002
 30
0.0
 11
19738.896474142111
 21
16699.387954000002
 31
0.0
  0
LINE
  5
F4E3
  8
1-中柱P
 10
19738.896474142111
 20
16710.387954000002
 30
0.0
 11
19745.896474142111
 21
16710.387954000002
 31
0.0
  0
LINE
  5
F4E4
  8
1-中柱P
 10
19738.896474142111
 20
16711.137954000002
 30
0.0
 11
19738.896474142111
 21
16698.637954000002
 31
0.0
  0
LINE
  5
F4E5
  8
1-中柱P
 10
19735.296474142091
 20
16710.887954000002
 30
0.0
 11
19735.296474142091
 21
16698.887954000002
 31
0.0
  0
LINE
  5
F4E6
  8
1-中柱P
  6
HIDE-M
 62
     6
 10
19737.396474142111
 20
16699.387954000002
 30
0.0
 11
19735.796474142098
 21
16699.387954000002
 31
0.0
  0
LINE
  5
F4E7
  8
1-中柱P
 10
19735.296474142091
 20
16698.887954000002
 30
0.0
 11
19735.796474142098
 21
16699.387954000002
 31
0.0
  0
ARC
  5
F4E8
  8
1-中柱P
 10
19738.146474142111
 20
16698.637954000002
 30
0.0
 40
0.75
 50
180.0
 51
0.000000000000007
  0
LINE
  5
F4E9
  8
1-中柱P
  6
HIDE-M
 62
     6
 10
19735.796474142098
 20
16710.387954000002
 30
0.0
 11
19737.396474142111
 21
16710.387954000002
 31
0.0
  0
LINE
  5
F4EA
  8
1-中柱P
 10
19735.296474142091
 20
16710.887954000002
 30
0.0
 11
19735.796474142098
 21
16710.387954000002
 31
0.0
  0
ARC
  5
F4EB
  8
1-中柱P
 10
19738.146474142111
 20
16711.137954000002
 30
0.0
 40
0.75
 50
0.000000000000007
 51
180.0
  0
LINE
  5
F4EC
  8
1-中柱P
 10
19746.896474142111
 20
16709.387954000002
 30
0.0
 11
19746.896474142111
 21
16700.387953999991
 31
0.0
  0
ARC
  5
F4ED
  8
1-中柱P
 10
19745.896474142111
 20
16700.387953999991
 30
0.0
 40
1.0
 50
270.0
 51
0.000000000000007
  0
ARC
  5
F4EE
  8
1-中柱P
 10
19745.896474142111
 20
16709.387954000002
 30
0.0
 40
1.0
 50
0.000000000000007
 51
90.0
  0
LINE
  5
F4EF
  8
1-中柱P
  6
1PL-M
 62
     6
 10
19751.896474142111
 20
16704.887954000002
 30
0.0
 11
19730.296474142091
 21
16704.887954000002
 31
0.0
  0
LINE
  5
F4F0
  8
1-中柱P
 10
19745.896474142111
 20
16689.387954000002
 30
0.0
 11
19738.896474142111
 21
16689.387954000002
 31
0.0
  0
LINE
  5
F4F1
  8
1-中柱P
 10
19735.296474142091
 20
16696.887954000002
 30
0.0
 11
19735.296474142091
 21
16688.887954000002
 31
0.0
  0
LINE
  5
F4F2
  8
1-中柱P
  6
HIDE-M
 62
     6
 10
19737.396474142111
 20
16689.387954000002
 30
0.0
 11
19735.796474142098
 21
16689.387954000002
 31
0.0
  0
LINE
  5
F4F3
  8
1-中柱P
 10
19735.296474142091
 20
16688.887954000002
 30
0.0
 11
19735.796474142098
 21
16689.387954000002
 31
0.0
  0
ARC
  5
F4F4
  8
1-中柱P
 10
19738.146474142111
 20
16688.637954000002
 30
0.0
 40
0.75
 50
180.0
 51
0.000000000000007
  0
LINE
  5
F4F5
  8
1-中柱P
 10
19746.896474142111
 20
16698.387954000002
 30
0.0
 11
19746.896474142111
 21
16690.387954000002
 31
0.0
  0
ARC
  5
F4F6
  8
1-中柱P
 10
19745.896474142111
 20
16690.387954000002
 30
0.0
 40
1.0
 50
270.0
 51
0.000000000000007
  0
LINE
  5
F4F7
  8
1-中柱P
  6
1PL-M
 62
     6
 10
19751.896474142111
 20
16694.887954000002
 30
0.0
 11
19730.296474142091
 21
16694.887954000002
 31
0.0
  0
LINE
  5
F4F8
  8
1-中柱P
 10
19738.896474142111
 20
16696.637954000002
 30
0.0
 11
19738.896474142111
 21
16688.637954000002
 31
0.0
  0
LINE
  5
F4F9
  8
1-中柱P
  6
HIDE-M
 62
     6
 10
19746.896474142111
 20
16690.887953999991
 30
0.0
 11
19735.296474142091
 21
16690.887953999991
 31
0.0
  0
LINE
  5
F4FA
  8
1-中柱P
  6
HIDE-M
 62
     6
 10
19746.896474142111
 20
16691.887954000002
 30
0.0
 11
19735.296474142091
 21
16691.887954000002
 31
0.0
  0
LINE
  5
F4FB
  8
1-中柱P
  6
HIDE-M
 62
     6
 10
19809.696474142111
 20
16708.887953999991
 30
0.0
 11
19821.296474142091
 21
16708.887953999991
 31
0.0
  0
LINE
  5
F4FC
  8
1-中柱P
  6
HIDE-M
 62
     6
 10
19809.696474142111
 20
16700.887954000002
 30
0.0
 11
19821.296474142091
 21
16700.887954000002
 31
0.0
  0
LINE
  5
F4FD
  8
1-中柱P
  6
HIDE-M
 62
     6
 10
19809.696474142111
 20
16707.887954000002
 30
0.0
 11
19821.296474142091
 21
16707.887954000002
 31
0.0
  0
LINE
  5
F4FE
  8
1-中柱P
  6
HIDE-M
 62
     6
 10
19809.696474142111
 20
16701.887954000002
 30
0.0
 11
19821.296474142091
 21
16701.887954000002
 31
0.0
  0
LINE
  5
F4FF
  8
1-中柱P
 10
19810.696474142111
 20
16699.387954000002
 30
0.0
 11
19817.696474142111
 21
16699.387954000002
 31
0.0
  0
LINE
  5
F500
  8
1-中柱P
 10
19817.696474142111
 20
16710.387954000002
 30
0.0
 11
19810.696474142111
 21
16710.387954000002
 31
0.0
  0
LINE
  5
F501
  8
1-中柱P
 10
19817.696474142111
 20
16711.137954000002
 30
0.0
 11
19817.696474142111
 21
16698.637954000002
 31
0.0
  0
LINE
  5
F502
  8
1-中柱P
 10
19821.296474142091
 20
16710.887954000002
 30
0.0
 11
19821.296474142091
 21
16698.887954000002
 31
0.0
  0
LINE
  5
F503
  8
1-中柱P
  6
HIDE-M
 62
     6
 10
19819.196474142111
 20
16699.387954000002
 30
0.0
 11
19820.796474142091
 21
16699.387954000002
 31
0.0
  0
LINE
  5
F504
  8
1-中柱P
 10
19821.296474142091
 20
16698.887954000002
 30
0.0
 11
19820.796474142091
 21
16699.387954000002
 31
0.0
  0
ARC
  5
F505
  8
1-中柱P
 10
19818.446474142111
 20
16698.637954000002
 30
0.0
 40
0.75
 50
180.0
 51
0.000000000000007
  0
LINE
  5
F506
  8
1-中柱P
  6
HIDE-M
 62
     6
 10
19820.796474142091
 20
16710.387954000002
 30
0.0
 11
19819.196474142111
 21
16710.387954000002
 31
0.0
  0
LINE
  5
F507
  8
1-中柱P
 10
19821.296474142091
 20
16710.887954000002
 30
0.0
 11
19820.796474142091
 21
16710.387954000002
 31
0.0
  0
ARC
  5
F508
  8
1-中柱P
 10
19818.446474142111
 20
16711.137954000002
 30
0.0
 40
0.75
 50
0.000000000000007
 51
180.0
  0
LINE
  5
F509
  8
1-中柱P
 10
19809.696474142111
 20
16709.387954000002
 30
0.0
 11
19809.696474142111
 21
16700.387953999991
 31
0.0
  0
ARC
  5
F50A
  8
1-中柱P
 10
19810.696474142111
 20
16700.387953999991
 30
0.0
 40
1.0
 50
180.0
 51
270.0
  0
ARC
  5
F50B
  8
1-中柱P
 10
19810.696474142111
 20
16709.387954000002
 30
0.0
 40
1.0
 50
90.0
 51
180.0
  0
LINE
  5
F50C
  8
1-中柱P
  6
1PL-M
 62
     6
 10
19804.696474142111
 20
16704.887954000002
 30
0.0
 11
19826.29647414212
 21
16704.887954000002
 31
0.0
  0
LINE
  5
F50D
  8
1-中柱P
 10
19810.696474142111
 20
16689.387954000002
 30
0.0
 11
19817.696474142111
 21
16689.387954000002
 31
0.0
  0
LINE
  5
F50E
  8
1-中柱P
 10
19821.296474142091
 20
16696.887954000002
 30
0.0
 11
19821.296474142091
 21
16688.887954000002
 31
0.0
  0
LINE
  5
F50F
  8
1-中柱P
  6
HIDE-M
 62
     6
 10
19819.196474142111
 20
16689.387954000002
 30
0.0
 11
19820.796474142091
 21
16689.387954000002
 31
0.0
  0
LINE
  5
F510
  8
1-中柱P
 10
19821.296474142091
 20
16688.887954000002
 30
0.0
 11
19820.796474142091
 21
16689.387954000002
 31
0.0
  0
ARC
  5
F511
  8
1-中柱P
 10
19818.446474142111
 20
16688.637954000002
 30
0.0
 40
0.75
 50
180.0
 51
0.000000000000007
  0
LINE
  5
F512
  8
1-中柱P
 10
19809.696474142111
 20
16698.387954000002
 30
0.0
 11
19809.696474142111
 21
16690.387954000002
 31
0.0
  0
ARC
  5
F513
  8
1-中柱P
 10
19810.696474142111
 20
16690.387954000002
 30
0.0
 40
1.0
 50
180.0
 51
270.0
  0
LINE
  5
F514
  8
1-中柱P
  6
1PL-M
 62
     6
 10
19804.696474142111
 20
16694.887954000002
 30
0.0
 11
19826.29647414212
 21
16694.887954000002
 31
0.0
  0
LINE
  5
F515
  8
1-中柱P
 10
19817.696474142111
 20
16696.637954000002
 30
0.0
 11
19817.696474142111
 21
16688.637954000002
 31
0.0
  0
LINE
  5
F516
  8
1-中柱P
  6
HIDE-M
 62
     6
 10
19809.696474142111
 20
16690.887953999991
 30
0.0
 11
19821.296474142091
 21
16690.887953999991
 31
0.0
  0
LINE
  5
F517
  8
1-中柱P
  6
HIDE-M
 62
     6
 10
19809.696474142111
 20
16691.887954000002
 30
0.0
 11
19821.296474142091
 21
16691.887954000002
 31
0.0
  0
LINE
  5
F518
  8
1-中柱カバ-P
 10
19820.796474142091
 20
16736.587953999991
 30
0.0
 11
19820.796474142091
 21
16795.887954000002
 31
0.0
  0
ARC
  5
F519
  8
1-中柱カバ-P
 10
19814.196474142111
 20
16795.887954000002
 30
0.0
 40
6.599999999999997
 50
0.000000000000007
 51
90.0
  0
LINE
  5
F51A
  8
1-中柱カバ-P
 10
19819.196474142111
 20
16736.587953999991
 30
0.0
 11
19819.196474142111
 21
16795.887954000002
 31
0.0
  0
ARC
  5
F51B
  8
1-中柱カバ-P
 10
19814.196474142111
 20
16736.587953999991
 30
0.0
 40
5.0
 50
270.0
 51
0.000000000000007
  0
LINE
  5
F51C
  8
1-中柱カバ-P
 10
19814.196474142111
 20
16802.487953999978
 30
0.0
 11
19742.3964741421
 21
16802.487953999978
 31
0.0
  0
ARC
  5
F51D
  8
1-中柱カバ-P
 10
19742.3964741421
 20
16795.887954000002
 30
0.0
 40
6.599999999999997
 50
90.0
 51
180.0
  0
LINE
  5
F51E
  8
1-中柱カバ-P
 10
19814.196474142111
 20
16800.887954000002
 30
0.0
 11
19742.3964741421
 21
16800.887954000002
 31
0.0
  0
ARC
  5
F51F
  8
1-中柱カバ-P
 10
19742.3964741421
 20
16795.887954000002
 30
0.0
 40
5.0
 50
90.0
 51
180.0
  0
ARC
  5
F520
  8
1-中柱カバ-P
 10
19814.196474142111
 20
16795.887954000002
 30
0.0
 40
5.0
 50
0.000000000000007
 51
90.0
  0
LINE
  5
F521
  8
1-中柱カバ-P
 10
19735.796474142098
 20
16795.887954000002
 30
0.0
 11
19735.796474142098
 21
16736.587953999991
 31
0.0
  0
LINE
  5
F522
  8
1-中柱カバ-P
 10
19737.396474142111
 20
16795.887954000002
 30
0.0
 11
19737.396474142111
 21
16736.587953999991
 31
0.0
  0
ARC
  5
F523
  8
1-中柱カバ-P
 10
19742.3964741421
 20
16736.587953999991
 30
0.0
 40
5.0
 50
180.0
 51
270.0
  0
LINE
  5
F524
  8
1-中柱カバ-P
  6
1PL-M
 62
     6
 10
19778.296474142091
 20
16794.987953999978
 30
0.0
 11
19778.296474142091
 21
16807.987953999978
 31
0.0
  0
LINE
  5
F525
  8
1-中柱カバ-P
  6
HIDE-M
 62
     6
 10
19785.29647414212
 20
16802.487953999978
 30
0.0
 11
19785.29647414212
 21
16800.887954000002
 31
0.0
  0
LINE
  5
F526
  8
1-中柱カバ-P
  6
HIDE-M
 62
     6
 10
19771.296474142091
 20
16802.487953999978
 30
0.0
 11
19771.296474142091
 21
16800.887954000002
 31
0.0
  0
ARC
  5
F527
  8
1-中柱カバ-P
 10
19814.196474142111
 20
16736.587953999991
 30
0.0
 40
6.599999999999997
 50
270.0
 51
0.000000000000007
  0
ARC
  5
F528
  8
1-中柱カバ-P
 10
19742.3964741421
 20
16736.587953999991
 30
0.0
 40
6.599999999999997
 50
180.0
 51
270.0
  0
LINE
  5
F529
  8
1-中柱カバ-P
 10
19750.79647414212
 20
16729.987953999978
 30
0.0
 11
19742.3964741421
 21
16729.987953999978
 31
0.0
  0
LINE
  5
F52A
  8
1-中柱カバ-P
 10
19805.796474142091
 20
16729.987953999978
 30
0.0
 11
19814.196474142111
 21
16729.987953999978
 31
0.0
  0
LINE
  5
F52B
  8
1-中柱カバ-P
 10
19750.79647414212
 20
16731.587953999991
 30
0.0
 11
19742.3964741421
 21
16731.587953999991
 31
0.0
  0
LINE
  5
F52C
  8
1-中柱カバ-P
 10
19805.796474142091
 20
16731.587953999991
 30
0.0
 11
19814.196474142111
 21
16731.587953999991
 31
0.0
  0
LINE
  5
F52D
  8
1-中柱カバ-P
 10
19805.796474142091
 20
16731.587953999991
 30
0.0
 11
19805.796474142091
 21
16729.987953999978
 31
0.0
  0
LINE
  5
F52E
  8
1-中柱カバ-P
 10
19750.79647414212
 20
16729.987953999978
 30
0.0
 11
19750.79647414212
 21
16731.587953999991
 31
0.0
  0
LINE
  5
F52F
  8
1-中柱カバ-P
  6
HIDE-M
 62
     6
 10
19746.896474142111
 20
16750.987953999978
 30
0.0
 11
19735.296474142091
 21
16750.987953999978
 31
0.0
  0
LINE
  5
F530
  8
1-中柱カバ-P
  6
HIDE-M
 62
     6
 10
19746.896474142111
 20
16758.987953999989
 30
0.0
 11
19735.296474142091
 21
16758.987953999989
 31
0.0
  0
LINE
  5
F531
  8
1-中柱カバ-P
  6
HIDE-M
 62
     6
 10
19746.896474142111
 20
16751.987953999978
 30
0.0
 11
19735.296474142091
 21
16751.987953999978
 31
0.0
  0
LINE
  5
F532
  8
1-中柱カバ-P
  6
HIDE-M
 62
     6
 10
19746.896474142111
 20
16757.987953999989
 30
0.0
 11
19735.296474142091
 21
16757.987953999989
 31
0.0
  0
LINE
  5
F533
  8
1-中柱カバ-P
 10
19745.896474142111
 20
16760.487953999978
 30
0.0
 11
19738.896474142111
 21
16760.487953999978
 31
0.0
  0
LINE
  5
F534
  8
1-中柱カバ-P
 10
19738.896474142111
 20
16749.487953999989
 30
0.0
 11
19745.896474142111
 21
16749.487953999989
 31
0.0
  0
LINE
  5
F535
  8
1-中柱カバ-P
 10
19738.896474142111
 20
16748.737953999989
 30
0.0
 11
19738.896474142111
 21
16761.237953999978
 31
0.0
  0
LINE
  5
F536
  8
1-中柱カバ-P
 10
19735.296474142091
 20
16748.987953999978
 30
0.0
 11
19735.296474142091
 21
16760.987953999989
 31
0.0
  0
LINE
  5
F537
  8
1-中柱カバ-P
  6
HIDE-M
 62
     6
 10
19737.396474142111
 20
16760.487953999978
 30
0.0
 11
19735.796474142098
 21
16760.487953999978
 31
0.0
  0
LINE
  5
F538
  8
1-中柱カバ-P
 10
19735.296474142091
 20
16760.987953999989
 30
0.0
 11
19735.796474142098
 21
16760.487953999978
 31
0.0
  0
ARC
  5
F539
  8
1-中柱カバ-P
 10
19738.146474142111
 20
16761.237953999978
 30
0.0
 40
0.75
 50
0.000000000000007
 51
180.0
  0
LINE
  5
F53A
  8
1-中柱カバ-P
  6
HIDE-M
 62
     6
 10
19735.796474142098
 20
16749.487953999989
 30
0.0
 11
19737.396474142111
 21
16749.487953999989
 31
0.0
  0
LINE
  5
F53B
  8
1-中柱カバ-P
 10
19735.296474142091
 20
16748.987953999978
 30
0.0
 11
19735.796474142098
 21
16749.487953999989
 31
0.0
  0
ARC
  5
F53C
  8
1-中柱カバ-P
 10
19738.146474142111
 20
16748.737953999989
 30
0.0
 40
0.75
 50
180.0
 51
0.000000000000007
  0
LINE
  5
F53D
  8
1-中柱カバ-P
 10
19746.896474142111
 20
16750.487953999989
 30
0.0
 11
19746.896474142111
 21
16759.487953999989
 31
0.0
  0
ARC
  5
F53E
  8
1-中柱カバ-P
 10
19745.896474142111
 20
16759.487953999989
 30
0.0
 40
1.0
 50
0.000000000000007
 51
90.0
  0
ARC
  5
F53F
  8
1-中柱カバ-P
 10
19745.896474142111
 20
16750.487953999989
 30
0.0
 40
1.0
 50
270.0
 51
0.000000000000007
  0
LINE
  5
F540
  8
1-中柱カバ-P
  6
1PL-M
 62
     6
 10
19751.896474142111
 20
16754.987953999978
 30
0.0
 11
19730.296474142091
 21
16754.987953999978
 31
0.0
  0
LINE
  5
F541
  8
1-中柱カバ-P
 10
19745.896474142111
 20
16770.487953999989
 30
0.0
 11
19738.896474142111
 21
16770.487953999989
 31
0.0
  0
LINE
  5
F542
  8
1-中柱カバ-P
 10
19735.296474142091
 20
16762.987953999989
 30
0.0
 11
19735.296474142091
 21
16770.987953999978
 31
0.0
  0
LINE
  5
F543
  8
1-中柱カバ-P
  6
HIDE-M
 62
     6
 10
19737.396474142111
 20
16770.487953999989
 30
0.0
 11
19735.796474142098
 21
16770.487953999989
 31
0.0
  0
LINE
  5
F544
  8
1-中柱カバ-P
 10
19735.296474142091
 20
16770.987953999978
 30
0.0
 11
19735.796474142098
 21
16770.487953999989
 31
0.0
  0
ARC
  5
F545
  8
1-中柱カバ-P
 10
19738.146474142111
 20
16771.237953999978
 30
0.0
 40
0.75
 50
0.000000000000007
 51
180.0
  0
LINE
  5
F546
  8
1-中柱カバ-P
 10
19746.896474142111
 20
16761.487953999978
 30
0.0
 11
19746.896474142111
 21
16769.487953999989
 31
0.0
  0
ARC
  5
F547
  8
1-中柱カバ-P
 10
19745.896474142111
 20
16769.487953999989
 30
0.0
 40
1.0
 50
0.000000000000007
 51
90.0
  0
LINE
  5
F548
  8
1-中柱カバ-P
  6
1PL-M
 62
     6
 10
19751.896474142111
 20
16764.987953999978
 30
0.0
 11
19730.296474142091
 21
16764.987953999978
 31
0.0
  0
LINE
  5
F549
  8
1-中柱カバ-P
 10
19738.896474142111
 20
16763.237953999989
 30
0.0
 11
19738.896474142111
 21
16771.237953999978
 31
0.0
  0
LINE
  5
F54A
  8
1-中柱カバ-P
  6
HIDE-M
 62
     6
 10
19809.696474142111
 20
16750.987953999978
 30
0.0
 11
19821.296474142091
 21
16750.987953999978
 31
0.0
  0
LINE
  5
F54B
  8
1-中柱カバ-P
  6
HIDE-M
 62
     6
 10
19809.696474142111
 20
16758.987953999989
 30
0.0
 11
19821.296474142091
 21
16758.987953999989
 31
0.0
  0
LINE
  5
F54C
  8
1-中柱カバ-P
  6
HIDE-M
 62
     6
 10
19809.696474142111
 20
16751.987953999978
 30
0.0
 11
19821.296474142091
 21
16751.987953999978
 31
0.0
  0
LINE
  5
F54D
  8
1-中柱カバ-P
  6
HIDE-M
 62
     6
 10
19809.696474142111
 20
16757.987953999989
 30
0.0
 11
19821.296474142091
 21
16757.987953999989
 31
0.0
  0
LINE
  5
F54E
  8
1-中柱カバ-P
 10
19810.696474142111
 20
16760.487953999978
 30
0.0
 11
19817.696474142111
 21
16760.487953999978
 31
0.0
  0
LINE
  5
F54F
  8
1-中柱カバ-P
 10
19817.696474142111
 20
16749.487953999989
 30
0.0
 11
19810.696474142111
 21
16749.487953999989
 31
0.0
  0
LINE
  5
F550
  8
1-中柱カバ-P
 10
19817.696474142111
 20
16748.737953999989
 30
0.0
 11
19817.696474142111
 21
16761.237953999978
 31
0.0
  0
LINE
  5
F551
  8
1-中柱カバ-P
 10
19821.296474142091
 20
16748.987953999978
 30
0.0
 11
19821.296474142091
 21
16760.987953999989
 31
0.0
  0
LINE
  5
F552
  8
1-中柱カバ-P
  6
HIDE-M
 62
     6
 10
19819.196474142111
 20
16760.487953999978
 30
0.0
 11
19820.796474142091
 21
16760.487953999978
 31
0.0
  0
LINE
  5
F553
  8
1-中柱カバ-P
 10
19821.296474142091
 20
16760.987953999989
 30
0.0
 11
19820.796474142091
 21
16760.487953999978
 31
0.0
  0
ARC
  5
F554
  8
1-中柱カバ-P
 10
19818.446474142111
 20
16761.237953999978
 30
0.0
 40
0.75
 50
0.000000000000007
 51
180.0
  0
LINE
  5
F555
  8
1-中柱カバ-P
  6
HIDE-M
 62
     6
 10
19820.796474142091
 20
16749.487953999989
 30
0.0
 11
19819.196474142111
 21
16749.487953999989
 31
0.0
  0
LINE
  5
F556
  8
1-中柱カバ-P
 10
19821.296474142091
 20
16748.987953999978
 30
0.0
 11
19820.796474142091
 21
16749.487953999989
 31
0.0
  0
ARC
  5
F557
  8
1-中柱カバ-P
 10
19818.446474142111
 20
16748.737953999989
 30
0.0
 40
0.75
 50
180.0
 51
0.000000000000007
  0
LINE
  5
F558
  8
1-中柱カバ-P
 10
19809.696474142111
 20
16750.487953999989
 30
0.0
 11
19809.696474142111
 21
16759.487953999989
 31
0.0
  0
ARC
  5
F559
  8
1-中柱カバ-P
 10
19810.696474142111
 20
16759.487953999989
 30
0.0
 40
1.0
 50
90.0
 51
180.0
  0
ARC
  5
F55A
  8
1-中柱カバ-P
 10
19810.696474142111
 20
16750.487953999989
 30
0.0
 40
1.0
 50
180.0
 51
270.0
  0
LINE
  5
F55B
  8
1-中柱カバ-P
  6
1PL-M
 62
     6
 10
19804.696474142111
 20
16754.987953999978
 30
0.0
 11
19826.29647414212
 21
16754.987953999978
 31
0.0
  0
LINE
  5
F55C
  8
1-中柱カバ-P
 10
19810.696474142111
 20
16770.487953999989
 30
0.0
 11
19817.696474142111
 21
16770.487953999989
 31
0.0
  0
LINE
  5
F55D
  8
1-中柱カバ-P
 10
19821.296474142091
 20
16762.987953999989
 30
0.0
 11
19821.296474142091
 21
16770.987953999978
 31
0.0
  0
LINE
  5
F55E
  8
1-中柱カバ-P
  6
HIDE-M
 62
     6
 10
19819.196474142111
 20
16770.487953999989
 30
0.0
 11
19820.796474142091
 21
16770.487953999989
 31
0.0
  0
LINE
  5
F55F
  8
1-中柱カバ-P
 10
19821.296474142091
 20
16770.987953999978
 30
0.0
 11
19820.796474142091
 21
16770.487953999989
 31
0.0
  0
ARC
  5
F560
  8
1-中柱カバ-P
 10
19818.446474142111
 20
16771.237953999978
 30
0.0
 40
0.75
 50
0.000000000000007
 51
180.0
  0
LINE
  5
F561
  8
1-中柱カバ-P
 10
19809.696474142111
 20
16761.487953999978
 30
0.0
 11
19809.696474142111
 21
16769.487953999989
 31
0.0
  0
ARC
  5
F562
  8
1-中柱カバ-P
 10
19810.696474142111
 20
16769.487953999989
 30
0.0
 40
1.0
 50
90.0
 51
180.0
  0
LINE
  5
F563
  8
1-中柱カバ-P
  6
1PL-M
 62
     6
 10
19804.696474142111
 20
16764.987953999978
 30
0.0
 11
19826.29647414212
 21
16764.987953999978
 31
0.0
  0
LINE
  5
F564
  8
1-中柱カバ-P
 10
19817.696474142111
 20
16763.237953999989
 30
0.0
 11
19817.696474142111
 21
16771.237953999978
 31
0.0
  0
LINE
  5
F565
  8
1-中柱カバ-P
  6
HIDE-M
 62
     6
 10
19746.896474142111
 20
16768.987953999978
 30
0.0
 11
19735.296474142091
 21
16768.987953999978
 31
0.0
  0
LINE
  5
F566
  8
1-中柱カバ-P
  6
HIDE-M
 62
     6
 10
19746.896474142111
 20
16767.987953999978
 30
0.0
 11
19735.296474142091
 21
16767.987953999978
 31
0.0
  0
LINE
  5
F567
  8
1-中柱カバ-P
  6
HIDE-M
 62
     6
 10
19809.696474142111
 20
16768.987953999978
 30
0.0
 11
19821.296474142091
 21
16768.987953999978
 31
0.0
  0
LINE
  5
F568
  8
1-中柱カバ-P
  6
HIDE-M
 62
     6
 10
19809.696474142111
 20
16767.987953999978
 30
0.0
 11
19821.296474142091
 21
16767.987953999978
 31
0.0
  0
ARC
  5
F569
  8
1-前柱P
  6
HIDE-M
 62
     6
 10
19781.896474142111
 20
13880.387953999991
 30
0.0
 40
2.6000000000000001
 50
90.0
 51
180.0
  0
LINE
  5
F56A
  8
1-前柱P
  6
HIDE-M
 62
     6
 10
19770.296474142091
 20
13882.437344153181
 30
0.0
 11
19770.296474142091
 21
13878.78795399999
 31
0.0
  0
LINE
  5
F56B
  8
1-前柱P
  6
HIDE-M
 62
     6
 10
19780.29647414212
 20
13882.437344153181
 30
0.0
 11
19780.29647414212
 21
13878.78795399999
 31
0.0
  0
LINE
  5
F56C
  8
1-前柱P
  6
1PL-M
 62
     6
 10
19775.296474142091
 20
13887.98795399998
 30
0.0
 11
19775.296474142091
 21
13873.78795399999
 31
0.0
  0
ARC
  5
F56D
  8
1-前柱P
  6
HIDE-M
 62
     6
 10
19768.696474142111
 20
13880.387953999991
 30
0.0
 40
2.6000000000000001
 50
0.000000000000007
 51
90.0
  0
LINE
  5
F56E
  8
1-前柱P
  6
HIDE-M
 62
     6
 10
19779.29647414212
 20
13880.387953999991
 30
0.0
 11
19779.29647414212
 21
13878.78795399999
 31
0.0
  0
LINE
  5
F56F
  8
1-前柱P
  6
HIDE-M
 62
     6
 10
19771.296474142091
 20
13880.387953999991
 30
0.0
 11
19771.296474142091
 21
13878.78795399999
 31
0.0
  0
LINE
  5
F570
  8
1-前柱P
 10
19789.196474142111
 20
13768.08795399999
 30
0.0
 11
19767.396474142111
 21
13768.08795399999
 31
0.0
  0
LINE
  5
F571
  8
1-前柱P
 10
19737.396474142111
 20
13805.387953999991
 30
0.0
 11
19737.396474142111
 21
13798.08795399999
 31
0.0
  0
ARC
  5
F572
  8
1-前柱P
 10
19767.396474142111
 20
13798.08795399999
 30
0.0
 40
30.0
 50
180.0
 51
270.0
  0
ARC
  5
F573
  8
1-前柱P
 10
19767.396474142111
 20
13798.08795399999
 30
0.0
 40
31.600000000000001
 50
180.0
 51
270.0
  0
LINE
  5
F574
  8
1-前柱P
 10
19789.196474142111
 20
13766.48795399998
 30
0.0
 11
19767.396474142111
 21
13766.48795399998
 31
0.0
  0
LINE
  5
F575
  8
1-前柱P
 10
19735.796474142098
 20
13805.387953999991
 30
0.0
 11
19735.796474142098
 21
13798.08795399999
 31
0.0
  0
LINE
  5
F576
  8
1-前柱P
 10
19758.796474142098
 20
13826.98795399998
 30
0.0
 11
19758.796474142098
 21
13816.98795399998
 31
0.0
  0
LINE
  5
F577
  8
1-前柱P
 10
19760.396474142111
 20
13816.98795399998
 30
0.0
 11
19760.396474142111
 21
13826.98795399998
 31
0.0
  0
LINE
  5
F578
  8
1-前柱P
 10
19819.196474142111
 20
13805.387953999991
 30
0.0
 11
19819.196474142111
 21
13798.08795399999
 31
0.0
  0
ARC
  5
F579
  8
1-前柱P
 10
19789.196474142111
 20
13798.08795399999
 30
0.0
 40
30.0
 50
270.0
 51
0.000000000000007
  0
ARC
  5
F57A
  8
1-前柱P
 10
19789.196474142111
 20
13798.08795399999
 30
0.0
 40
31.600000000000001
 50
270.0
 51
0.000000000000007
  0
LINE
  5
F57B
  8
1-前柱P
 10
19820.796474142091
 20
13805.387953999991
 30
0.0
 11
19820.796474142091
 21
13798.08795399999
 31
0.0
  0
LINE
  5
F57C
  8
1-前柱P
 10
19814.196474142111
 20
13811.98795399998
 30
0.0
 11
19802.79647414212
 21
13811.98795399998
 31
0.0
  0
ARC
  5
F57D
  8
1-前柱P
 10
19814.196474142111
 20
13805.387953999991
 30
0.0
 40
6.599999999999997
 50
0.000000000000007
 51
90.0
  0
ARC
  5
F57E
  8
1-前柱P
 10
19802.79647414212
 20
13816.98795399998
 30
0.0
 40
5.0
 50
180.0
 51
270.0
  0
LINE
  5
F57F
  8
1-前柱P
 10
19814.196474142111
 20
13810.387953999991
 30
0.0
 11
19802.79647414212
 21
13810.387953999991
 31
0.0
  0
ARC
  5
F580
  8
1-前柱P
 10
19814.196474142111
 20
13805.387953999991
 30
0.0
 40
5.0
 50
0.000000000000007
 51
90.0
  0
LINE
  5
F581
  8
1-前柱P
 10
19797.796474142091
 20
13816.98795399998
 30
0.0
 11
19797.796474142091
 21
13876.387954
 31
0.0
  0
LINE
  5
F582
  8
1-前柱P
 10
19796.196474142111
 20
13816.98795399998
 30
0.0
 11
19796.196474142111
 21
13876.387954
 31
0.0
  0
ARC
  5
F583
  8
1-前柱P
 10
19802.79647414212
 20
13816.98795399998
 30
0.0
 40
6.599999999999997
 50
180.0
 51
270.0
  0
LINE
  5
F584
  8
1-前柱P
 10
19791.196474142111
 20
13882.98795399998
 30
0.0
 11
19757.79647414212
 21
13882.98795399998
 31
0.0
  0
ARC
  5
F585
  8
1-前柱P
 10
19791.196474142111
 20
13876.387954
 30
0.0
 40
6.599999999999997
 50
0.000000000000007
 51
90.0
  0
LINE
  5
F586
  8
1-前柱P
 10
19791.196474142111
 20
13881.387953999991
 30
0.0
 11
19757.79647414212
 21
13881.387953999991
 31
0.0
  0
ARC
  5
F587
  8
1-前柱P
 10
19791.196474142111
 20
13876.387954
 30
0.0
 40
5.0
 50
0.000000000000007
 51
90.0
  0
LINE
  5
F588
  8
1-前柱P
 10
19757.79647414212
 20
13881.387953999991
 30
0.0
 11
19757.79647414212
 21
13882.98795399998
 31
0.0
  0
LINE
  5
F589
  8
1-前柱P
 10
19742.3964741421
 20
13811.98795399998
 30
0.0
 11
19753.79647414212
 21
13811.98795399998
 31
0.0
  0
ARC
  5
F58A
  8
1-前柱P
 10
19742.3964741421
 20
13805.387953999991
 30
0.0
 40
6.599999999999997
 50
90.0
 51
180.0
  0
ARC
  5
F58B
  8
1-前柱P
 10
19753.79647414212
 20
13816.98795399998
 30
0.0
 40
5.0
 50
270.0
 51
0.000000000000007
  0
LINE
  5
F58C
  8
1-前柱P
 10
19753.79647414212
 20
13810.387953999991
 30
0.0
 11
19742.3964741421
 21
13810.387953999991
 31
0.0
  0
ARC
  5
F58D
  8
1-前柱P
 10
19753.79647414212
 20
13816.98795399998
 30
0.0
 40
6.599999999999997
 50
270.0
 51
0.000000000000007
  0
ARC
  5
F58E
  8
1-前柱P
 10
19742.3964741421
 20
13805.387953999991
 30
0.0
 40
5.0
 50
90.0
 51
180.0
  0
LINE
  5
F58F
  8
1-前柱P
 10
19758.796474142098
 20
13826.98795399998
 30
0.0
 11
19760.396474142111
 21
13826.98795399998
 31
0.0
  0
LINE
  5
F590
  8
1-前柱カバ-P
 10
19735.796474142098
 20
13818.687953999981
 30
0.0
 11
19735.796474142098
 21
13877.98795399998
 31
0.0
  0
ARC
  5
F591
  8
1-前柱カバ-P
 10
19742.3964741421
 20
13877.98795399998
 30
0.0
 40
6.599999999999997
 50
90.0
 51
180.0
  0
LINE
  5
F592
  8
1-前柱カバ-P
 10
19737.396474142111
 20
13818.687953999981
 30
0.0
 11
19737.396474142111
 21
13877.98795399998
 31
0.0
  0
ARC
  5
F593
  8
1-前柱カバ-P
 10
19742.3964741421
 20
13818.687953999981
 30
0.0
 40
5.0
 50
180.0
 51
270.0
  0
LINE
  5
F594
  8
1-前柱カバ-P
 10
19742.3964741421
 20
13884.587953999981
 30
0.0
 11
19814.196474142111
 21
13884.587953999981
 31
0.0
  0
ARC
  5
F595
  8
1-前柱カバ-P
 10
19814.196474142111
 20
13877.98795399998
 30
0.0
 40
6.599999999999997
 50
0.000000000000007
 51
90.0
  0
LINE
  5
F596
  8
1-前柱カバ-P
 10
19742.3964741421
 20
13882.98795399998
 30
0.0
 11
19814.196474142111
 21
13882.98795399998
 31
0.0
  0
ARC
  5
F597
  8
1-前柱カバ-P
 10
19814.196474142111
 20
13877.98795399998
 30
0.0
 40
5.0
 50
0.000000000000007
 51
90.0
  0
ARC
  5
F598
  8
1-前柱カバ-P
 10
19742.3964741421
 20
13877.98795399998
 30
0.0
 40
5.0
 50
90.0
 51
180.0
  0
LINE
  5
F599
  8
1-前柱カバ-P
 10
19820.796474142091
 20
13877.98795399998
 30
0.0
 11
19820.796474142091
 21
13818.687953999981
 31
0.0
  0
LINE
  5
F59A
  8
1-前柱カバ-P
 10
19819.196474142111
 20
13877.98795399998
 30
0.0
 11
19819.196474142111
 21
13818.687953999981
 31
0.0
  0
ARC
  5
F59B
  8
1-前柱カバ-P
 10
19814.196474142111
 20
13818.687953999981
 30
0.0
 40
5.0
 50
270.0
 51
0.000000000000007
  0
LINE
  5
F59C
  8
1-前柱カバ-P
  6
1PL-M
 62
     6
 10
19778.296474142091
 20
13877.087953999981
 30
0.0
 11
19778.296474142091
 21
13890.087953999981
 31
0.0
  0
LINE
  5
F59D
  8
1-前柱カバ-P
  6
HIDE-M
 62
     6
 10
19771.296474142091
 20
13884.587953999981
 30
0.0
 11
19771.296474142091
 21
13882.98795399998
 31
0.0
  0
LINE
  5
F59E
  8
1-前柱カバ-P
  6
HIDE-M
 62
     6
 10
19785.29647414212
 20
13884.587953999981
 30
0.0
 11
19785.29647414212
 21
13882.98795399998
 31
0.0
  0
ARC
  5
F59F
  8
1-前柱カバ-P
 10
19742.3964741421
 20
13818.687953999981
 30
0.0
 40
6.599999999999997
 50
180.0
 51
270.0
  0
ARC
  5
F5A0
  8
1-前柱カバ-P
 10
19814.196474142111
 20
13818.687953999981
 30
0.0
 40
6.599999999999997
 50
270.0
 51
0.000000000000007
  0
LINE
  5
F5A1
  8
1-前柱カバ-P
 10
19805.796474142091
 20
13812.087953999981
 30
0.0
 11
19814.196474142111
 21
13812.087953999981
 31
0.0
  0
LINE
  5
F5A2
  8
1-前柱カバ-P
 10
19750.79647414212
 20
13812.087953999981
 30
0.0
 11
19742.3964741421
 21
13812.087953999981
 31
0.0
  0
LINE
  5
F5A3
  8
1-前柱カバ-P
 10
19805.796474142091
 20
13813.687953999981
 30
0.0
 11
19814.196474142111
 21
13813.687953999981
 31
0.0
  0
LINE
  5
F5A4
  8
1-前柱カバ-P
 10
19750.79647414212
 20
13813.687953999981
 30
0.0
 11
19742.3964741421
 21
13813.687953999981
 31
0.0
  0
LINE
  5
F5A5
  8
1-前柱カバ-P
 10
19750.79647414212
 20
13813.687953999981
 30
0.0
 11
19750.79647414212
 21
13812.087953999981
 31
0.0
  0
LINE
  5
F5A6
  8
1-前柱カバ-P
 10
19805.796474142091
 20
13812.087953999981
 30
0.0
 11
19805.796474142091
 21
13813.687953999981
 31
0.0
  0
LINE
  5
F5A7
  8
1-前柱カバ-P
  6
HIDE-M
 62
     6
 10
19809.696474142111
 20
13833.087953999981
 30
0.0
 11
19821.296474142091
 21
13833.087953999981
 31
0.0
  0
LINE
  5
F5A8
  8
1-前柱カバ-P
  6
HIDE-M
 62
     6
 10
19809.696474142111
 20
13841.08795399999
 30
0.0
 11
19821.296474142091
 21
13841.08795399999
 31
0.0
  0
LINE
  5
F5A9
  8
1-前柱カバ-P
  6
HIDE-M
 62
     6
 10
19809.696474142111
 20
13834.087953999981
 30
0.0
 11
19821.296474142091
 21
13834.087953999981
 31
0.0
  0
LINE
  5
F5AA
  8
1-前柱カバ-P
  6
HIDE-M
 62
     6
 10
19809.696474142111
 20
13840.08795399999
 30
0.0
 11
19821.296474142091
 21
13840.08795399999
 31
0.0
  0
LINE
  5
F5AB
  8
1-前柱カバ-P
 10
19810.696474142111
 20
13842.587953999981
 30
0.0
 11
19817.696474142111
 21
13842.587953999981
 31
0.0
  0
LINE
  5
F5AC
  8
1-前柱カバ-P
 10
19817.696474142111
 20
13831.58795399999
 30
0.0
 11
19810.696474142111
 21
13831.58795399999
 31
0.0
  0
LINE
  5
F5AD
  8
1-前柱カバ-P
 10
19817.696474142111
 20
13830.83795399999
 30
0.0
 11
19817.696474142111
 21
13843.33795399999
 31
0.0
  0
LINE
  5
F5AE
  8
1-前柱カバ-P
 10
19821.296474142091
 20
13831.087953999981
 30
0.0
 11
19821.296474142091
 21
13843.08795399999
 31
0.0
  0
LINE
  5
F5AF
  8
1-前柱カバ-P
  6
HIDE-M
 62
     6
 10
19819.196474142111
 20
13842.587953999981
 30
0.0
 11
19820.796474142091
 21
13842.587953999981
 31
0.0
  0
LINE
  5
F5B0
  8
1-前柱カバ-P
 10
19821.296474142091
 20
13843.08795399999
 30
0.0
 11
19820.796474142091
 21
13842.587953999981
 31
0.0
  0
ARC
  5
F5B1
  8
1-前柱カバ-P
 10
19818.446474142111
 20
13843.33795399999
 30
0.0
 40
0.75
 50
0.000000000000007
 51
180.0
  0
LINE
  5
F5B2
  8
1-前柱カバ-P
  6
HIDE-M
 62
     6
 10
19820.796474142091
 20
13831.58795399999
 30
0.0
 11
19819.196474142111
 21
13831.58795399999
 31
0.0
  0
LINE
  5
F5B3
  8
1-前柱カバ-P
 10
19821.296474142091
 20
13831.087953999981
 30
0.0
 11
19820.796474142091
 21
13831.58795399999
 31
0.0
  0
ARC
  5
F5B4
  8
1-前柱カバ-P
 10
19818.446474142111
 20
13830.83795399999
 30
0.0
 40
0.75
 50
180.0
 51
0.000000000000007
  0
LINE
  5
F5B5
  8
1-前柱カバ-P
 10
19809.696474142111
 20
13832.58795399999
 30
0.0
 11
19809.696474142111
 21
13841.587953999981
 31
0.0
  0
ARC
  5
F5B6
  8
1-前柱カバ-P
 10
19810.696474142111
 20
13841.587953999981
 30
0.0
 40
1.0
 50
90.0
 51
180.0
  0
ARC
  5
F5B7
  8
1-前柱カバ-P
 10
19810.696474142111
 20
13832.58795399999
 30
0.0
 40
1.0
 50
180.0
 51
270.0
  0
LINE
  5
F5B8
  8
1-前柱カバ-P
  6
1PL-M
 62
     6
 10
19804.696474142111
 20
13837.08795399999
 30
0.0
 11
19826.29647414212
 21
13837.08795399999
 31
0.0
  0
LINE
  5
F5B9
  8
1-前柱カバ-P
 10
19810.696474142111
 20
13852.58795399999
 30
0.0
 11
19817.696474142111
 21
13852.58795399999
 31
0.0
  0
LINE
  5
F5BA
  8
1-前柱カバ-P
 10
19821.296474142091
 20
13845.08795399999
 30
0.0
 11
19821.296474142091
 21
13853.087953999981
 31
0.0
  0
LINE
  5
F5BB
  8
1-前柱カバ-P
  6
HIDE-M
 62
     6
 10
19819.196474142111
 20
13852.58795399999
 30
0.0
 11
19820.796474142091
 21
13852.58795399999
 31
0.0
  0
LINE
  5
F5BC
  8
1-前柱カバ-P
 10
19821.296474142091
 20
13853.087953999981
 30
0.0
 11
19820.796474142091
 21
13852.58795399999
 31
0.0
  0
ARC
  5
F5BD
  8
1-前柱カバ-P
 10
19818.446474142111
 20
13853.33795399999
 30
0.0
 40
0.75
 50
0.000000000000007
 51
180.0
  0
LINE
  5
F5BE
  8
1-前柱カバ-P
 10
19809.696474142111
 20
13843.587953999981
 30
0.0
 11
19809.696474142111
 21
13851.58795399999
 31
0.0
  0
ARC
  5
F5BF
  8
1-前柱カバ-P
 10
19810.696474142111
 20
13851.58795399999
 30
0.0
 40
1.0
 50
90.0
 51
180.0
  0
LINE
  5
F5C0
  8
1-前柱カバ-P
  6
1PL-M
 62
     6
 10
19804.696474142111
 20
13847.08795399999
 30
0.0
 11
19826.29647414212
 21
13847.08795399999
 31
0.0
  0
LINE
  5
F5C1
  8
1-前柱カバ-P
 10
19817.696474142111
 20
13845.337953999981
 30
0.0
 11
19817.696474142111
 21
13853.33795399999
 31
0.0
  0
LINE
  5
F5C2
  8
1-前柱カバ-P
  6
HIDE-M
 62
     6
 10
19746.896474142111
 20
13833.087953999981
 30
0.0
 11
19735.296474142091
 21
13833.087953999981
 31
0.0
  0
LINE
  5
F5C3
  8
1-前柱カバ-P
  6
HIDE-M
 62
     6
 10
19746.896474142111
 20
13841.08795399999
 30
0.0
 11
19735.296474142091
 21
13841.08795399999
 31
0.0
  0
LINE
  5
F5C4
  8
1-前柱カバ-P
  6
HIDE-M
 62
     6
 10
19746.896474142111
 20
13834.087953999981
 30
0.0
 11
19735.296474142091
 21
13834.087953999981
 31
0.0
  0
LINE
  5
F5C5
  8
1-前柱カバ-P
  6
HIDE-M
 62
     6
 10
19746.896474142111
 20
13840.08795399999
 30
0.0
 11
19735.296474142091
 21
13840.08795399999
 31
0.0
  0
LINE
  5
F5C6
  8
1-前柱カバ-P
 10
19745.896474142111
 20
13842.587953999981
 30
0.0
 11
19738.896474142111
 21
13842.587953999981
 31
0.0
  0
LINE
  5
F5C7
  8
1-前柱カバ-P
 10
19738.896474142111
 20
13831.58795399999
 30
0.0
 11
19745.896474142111
 21
13831.58795399999
 31
0.0
  0
LINE
  5
F5C8
  8
1-前柱カバ-P
 10
19738.896474142111
 20
13830.83795399999
 30
0.0
 11
19738.896474142111
 21
13843.33795399999
 31
0.0
  0
LINE
  5
F5C9
  8
1-前柱カバ-P
 10
19735.296474142091
 20
13831.087953999981
 30
0.0
 11
19735.296474142091
 21
13843.08795399999
 31
0.0
  0
LINE
  5
F5CA
  8
1-前柱カバ-P
  6
HIDE-M
 62
     6
 10
19737.396474142111
 20
13842.587953999981
 30
0.0
 11
19735.796474142098
 21
13842.587953999981
 31
0.0
  0
LINE
  5
F5CB
  8
1-前柱カバ-P
 10
19735.296474142091
 20
13843.08795399999
 30
0.0
 11
19735.796474142098
 21
13842.587953999981
 31
0.0
  0
ARC
  5
F5CC
  8
1-前柱カバ-P
 10
19738.146474142111
 20
13843.33795399999
 30
0.0
 40
0.75
 50
0.000000000000007
 51
180.0
  0
LINE
  5
F5CD
  8
1-前柱カバ-P
  6
HIDE-M
 62
     6
 10
19735.796474142098
 20
13831.58795399999
 30
0.0
 11
19737.396474142111
 21
13831.58795399999
 31
0.0
  0
LINE
  5
F5CE
  8
1-前柱カバ-P
 10
19735.296474142091
 20
13831.087953999981
 30
0.0
 11
19735.796474142098
 21
13831.58795399999
 31
0.0
  0
ARC
  5
F5CF
  8
1-前柱カバ-P
 10
19738.146474142111
 20
13830.83795399999
 30
0.0
 40
0.75
 50
180.0
 51
0.000000000000007
  0
LINE
  5
F5D0
  8
1-前柱カバ-P
 10
19746.896474142111
 20
13832.58795399999
 30
0.0
 11
19746.896474142111
 21
13841.587953999981
 31
0.0
  0
ARC
  5
F5D1
  8
1-前柱カバ-P
 10
19745.896474142111
 20
13841.587953999981
 30
0.0
 40
1.0
 50
0.000000000000007
 51
90.0
  0
ARC
  5
F5D2
  8
1-前柱カバ-P
 10
19745.896474142111
 20
13832.58795399999
 30
0.0
 40
1.0
 50
270.0
 51
0.000000000000007
  0
LINE
  5
F5D3
  8
1-前柱カバ-P
  6
1PL-M
 62
     6
 10
19751.896474142111
 20
13837.08795399999
 30
0.0
 11
19730.296474142091
 21
13837.08795399999
 31
0.0
  0
LINE
  5
F5D4
  8
1-前柱カバ-P
 10
19745.896474142111
 20
13852.58795399999
 30
0.0
 11
19738.896474142111
 21
13852.58795399999
 31
0.0
  0
LINE
  5
F5D5
  8
1-前柱カバ-P
 10
19735.296474142091
 20
13845.08795399999
 30
0.0
 11
19735.296474142091
 21
13853.087953999981
 31
0.0
  0
LINE
  5
F5D6
  8
1-前柱カバ-P
  6
HIDE-M
 62
     6
 10
19737.396474142111
 20
13852.58795399999
 30
0.0
 11
19735.796474142098
 21
13852.58795399999
 31
0.0
  0
LINE
  5
F5D7
  8
1-前柱カバ-P
 10
19735.296474142091
 20
13853.087953999981
 30
0.0
 11
19735.796474142098
 21
13852.58795399999
 31
0.0
  0
ARC
  5
F5D8
  8
1-前柱カバ-P
 10
19738.146474142111
 20
13853.33795399999
 30
0.0
 40
0.75
 50
0.000000000000007
 51
180.0
  0
LINE
  5
F5D9
  8
1-前柱カバ-P
 10
19746.896474142111
 20
13843.587953999981
 30
0.0
 11
19746.896474142111
 21
13851.58795399999
 31
0.0
  0
ARC
  5
F5DA
  8
1-前柱カバ-P
 10
19745.896474142111
 20
13851.58795399999
 30
0.0
 40
1.0
 50
0.000000000000007
 51
90.0
  0
LINE
  5
F5DB
  8
1-前柱カバ-P
  6
1PL-M
 62
     6
 10
19751.896474142111
 20
13847.08795399999
 30
0.0
 11
19730.296474142091
 21
13847.08795399999
 31
0.0
  0
LINE
  5
F5DC
  8
1-前柱カバ-P
 10
19738.896474142111
 20
13845.337953999981
 30
0.0
 11
19738.896474142111
 21
13853.33795399999
 31
0.0
  0
LINE
  5
F5DD
  8
1-前柱カバ-P
  6
HIDE-M
 62
     6
 10
19809.696474142111
 20
13851.087953999981
 30
0.0
 11
19821.296474142091
 21
13851.087953999981
 31
0.0
  0
LINE
  5
F5DE
  8
1-前柱カバ-P
  6
HIDE-M
 62
     6
 10
19809.696474142111
 20
13850.08795399999
 30
0.0
 11
19821.296474142091
 21
13850.08795399999
 31
0.0
  0
LINE
  5
F5DF
  8
1-前柱カバ-P
  6
HIDE-M
 62
     6
 10
19746.896474142111
 20
13851.087953999981
 30
0.0
 11
19735.296474142091
 21
13851.087953999981
 31
0.0
  0
LINE
  5
F5E0
  8
1-前柱カバ-P
  6
HIDE-M
 62
     6
 10
19746.896474142111
 20
13850.08795399999
 30
0.0
 11
19735.296474142091
 21
13850.08795399999
 31
0.0
  0
LINE
  5
F5F3
  8
0-6
  6
CONTINUOUS
 62
     6
 10
21228.372178963509
 20
13171.988811999991
 30
0.0
 11
20228.372837963529
 21
13171.988811999991
 31
0.0
  0
TEXT
  5
F5F4
  8
0-6
  6
CONTINUOUS
 62
     7
 10
20332.371914963529
 20
13251.989075999971
 30
0.0
 40
160.0
  1
前柱（P）
 72
     4
 11
20732.371914963529
 21
13331.989075999971
 31
0.0
  0
LINE
  5
F5F5
  8
0-6
  6
CONTINUOUS
 62
     6
 10
19823.29647414212
 20
13757.98795399998
 30
0.0
 11
20228.372837963529
 21
13171.988811999991
 31
0.0
  0
LINE
  5
F5F6
  8
0-6
  6
CONTINUOUS
 62
     6
 10
21228.372178963509
 20
16059.5496119541
 30
0.0
 11
20228.372837963529
 21
16059.5496119541
 31
0.0
  0
TEXT
  5
F5F7
  8
0-6
  6
CONTINUOUS
 62
     7
 10
20332.371914963529
 20
16139.549875954101
 30
0.0
 40
160.0
  1
中柱（P）
 72
     4
 11
20732.371914963529
 21
16219.549875954101
 31
0.0
  0
LINE
  5
F5F8
  8
0-6
  6
CONTINUOUS
 62
     6
 10
19823.29647414212
 20
16645.54875395411
 30
0.0
 11
20228.372837963529
 21
16059.5496119541
 31
0.0
  0
LINE
  5
F5F9
  8
0-6
  6
CONTINUOUS
 62
     6
 10
21569.434069433039
 20
14372.97869182885
 30
0.0
 11
20113.434069433039
 21
14372.97869182885
 31
0.0
  0
TEXT
  5
F5FA
  8
0-6
  6
CONTINUOUS
 62
     7
 10
20153.42879618064
 20
14452.97895582885
 30
0.0
 40
160.0
  1
前柱カバー（P）
 72
     4
 11
20841.42879618064
 21
14532.97895582885
 31
0.0
  0
LINE
  5
F5FB
  8
0-6
  6
CONTINUOUS
 62
     6
 10
19814.196474142111
 20
13884.587953999981
 30
0.0
 11
20113.434069433039
 21
14372.97869182885
 31
0.0
  0
LINE
  5
F5FC
  8
0-6
  6
CONTINUOUS
 62
     6
 10
21569.434069433039
 20
17280.478255828861
 30
0.0
 11
20113.434069433039
 21
17280.478255828861
 31
0.0
  0
TEXT
  5
F5FD
  8
0-6
  6
CONTINUOUS
 62
     7
 10
20153.42879618064
 20
17360.478519828841
 30
0.0
 40
160.0
  1
中柱カバー（P）
 72
     4
 11
20841.42879618064
 21
17440.478519828841
 31
0.0
  0
LINE
  5
F5FE
  8
0-6
  6
CONTINUOUS
 62
     6
 10
19814.196474142111
 20
16792.08751799996
 30
0.0
 11
20113.434069433039
 21
17280.478255828861
 31
0.0
  0
LINE
  5
F5FF
  8
0-6
  6
CONTINUOUS
 62
     6
 10
21228.372178963509
 20
20287.425319045851
 30
0.0
 11
20228.372837963529
 21
20287.425319045851
 31
0.0
  0
TEXT
  5
F600
  8
0-6
  6
CONTINUOUS
 62
     7
 10
20332.371914963529
 20
20367.42558304585
 30
0.0
 40
160.0
  1
後柱（P）
 72
     4
 11
20732.371914963529
 21
20447.42558304585
 31
0.0
  0
LINE
  5
F601
  8
0-6
  6
CONTINUOUS
 62
     6
 10
19823.29647414212
 20
19701.426177045862
 30
0.0
 11
20228.372837963529
 21
20287.425319045851
 31
0.0
  0
LINE
  5
F602
  8
0-6
  6
CONTINUOUS
 62
     6
 10
21569.43406943306
 20
19066.4966751711
 30
0.0
 11
20113.43406943306
 21
19066.4966751711
 31
0.0
  0
TEXT
  5
F603
  8
0-6
  6
CONTINUOUS
 62
     7
 10
20153.42879618064
 20
19146.49693917108
 30
0.0
 40
160.0
  1
後柱カバー（P）
 72
     4
 11
20841.42879618064
 21
19226.49693917108
 31
0.0
  0
LINE
  5
F604
  8
0-6
  6
CONTINUOUS
 62
     6
 10
19814.196474142111
 20
19554.887412999989
 30
0.0
 11
20113.43406943306
 21
19066.4966751711
 31
0.0
  0
LINE
  5
F65B
  8
0-1
  6
CONTINUOUS
 62
     3
 10
13174.45342419502
 20
16705.486582999991
 30
0.0
 11
10256.45342419502
 21
16705.486582999991
 31
0.0
  0
LINE
  5
F65C
  8
0-1
  6
CONTINUOUS
 62
     3
 10
10256.45342419502
 20
16705.486582999991
 30
0.0
 11
7679.9278369334943
 21
16705.486582999991
 31
0.0
  0
LINE
  5
F65D
  8
2-0
  6
DASHED3
 62
     6
 10
7679.9278369334943
 20
16705.486582999991
 30
0.0
 11
7456.4534241950241
 21
16705.486582999991
 31
0.0
  0
LINE
  5
F65E
  8
0-1
  6
CONTINUOUS
 62
     3
 10
10309.45305519501
 20
13795.98762499998
 30
0.0
 11
10309.45305519501
 21
17791.444550900931
 31
0.0
  0
LINE
  5
F65F
  8
0-1
  6
CONTINUOUS
 62
     3
 10
13124.452804195011
 20
13671.98761099998
 30
0.0
 11
13124.452804195011
 21
18937.490565780849
 31
0.0
  0
LINE
  5
F660
  8
0-1
  6
CONTINUOUS
 62
     3
 10
13124.452804195011
 20
18937.490565780849
 30
0.0
 11
13124.452804195011
 21
19860.989220999982
 31
0.0
  0
LINE
  5
F661
  8
0-1
  6
CONTINUOUS
 62
     3
 10
13259.95342419503
 20
13639.98697799999
 30
0.0
 11
13259.95342419503
 21
18993.398905327391
 31
0.0
  0
LINE
  5
F662
  8
0-1
  6
CONTINUOUS
 62
     3
 10
13259.95342419503
 20
18993.398905327391
 30
0.0
 11
13259.95342419503
 21
19880.988297999989
 31
0.0
  0
LINE
  5
F663
  8
0-1
  6
CONTINUOUS
 62
     3
 10
13216.95269819502
 20
13795.98762499998
 30
0.0
 11
7413.9521701950162
 21
13795.98762499998
 31
0.0
  0
LINE
  5
F664
  8
0-1
  6
CONTINUOUS
 62
     3
 10
13174.45342419502
 20
13874.987241999979
 30
0.0
 11
7456.4534241950241
 21
13874.987241999979
 31
0.0
  0
LINE
  5
F665
  8
0-1
  6
CONTINUOUS
 62
     3
 10
13259.95342419503
 20
13639.98697799999
 30
0.0
 11
7370.9534241950241
 21
13639.98697799999
 31
0.0
  0
LINE
  5
F666
  8
0-1
  6
CONTINUOUS
 62
     3
 10
13259.95342419503
 20
13671.98761099998
 30
0.0
 11
7370.9534241950241
 21
13671.98761099998
 31
0.0
  0
LINE
  5
F667
  8
0-1
  6
CONTINUOUS
 62
     3
 10
10256.45342419502
 20
13795.98762499998
 30
0.0
 11
10256.45342419502
 21
17769.8393054761
 31
0.0
  0
LINE
  5
F668
  8
0-1
  6
CONTINUOUS
 62
     3
 10
10213.952170195011
 20
13795.98762499998
 30
0.0
 11
10213.952170195011
 21
17752.513712708602
 31
0.0
  0
LINE
  5
F669
  8
0-1
  6
CONTINUOUS
 62
     3
 10
13174.45342419502
 20
13795.98762499998
 30
0.0
 11
13174.45342419502
 21
18959.35902401376
 31
0.0
  0
LINE
  5
F66A
  8
0-1
  6
CONTINUOUS
 62
     3
 10
13216.95269819502
 20
13795.98762499998
 30
0.0
 11
13216.95269819502
 21
18976.894547152871
 31
0.0
  0
LINE
  5
F66B
  8
0-1
  6
CONTINUOUS
 62
     3
 10
10603.95197319502
 20
17911.496733919801
 30
0.0
 11
10603.95197319502
 21
19860.989220999982
 31
0.0
  0
LINE
  5
F66C
  8
0-1
  6
CONTINUOUS
 62
     3
 10
10566.951801195
 20
17896.413651608858
 30
0.0
 11
10566.951801195
 21
19860.989220999982
 31
0.0
  0
LINE
  5
F66D
  8
0-1
  6
CONTINUOUS
 62
     3
 10
13174.45342419502
 20
15336.48836400001
 30
0.0
 11
10256.45342419502
 21
15336.48836400001
 31
0.0
  0
LINE
  5
F66E
  8
0-1
  6
CONTINUOUS
 62
     3
 10
13174.45342419502
 20
15246.48658200001
 30
0.0
 11
10256.45342419502
 21
15246.48658200001
 31
0.0
  0
LINE
  5
F66F
  8
0-1
  6
CONTINUOUS
 62
     3
 10
13174.45342419502
 20
16795.48935399999
 30
0.0
 11
10256.45342419502
 21
16795.48935399999
 31
0.0
  0
LINE
  5
F670
  8
0-1
  6
CONTINUOUS
 62
     3
 10
10256.45342419502
 20
16795.48935399999
 30
0.0
 11
7898.7908374282706
 21
16795.48935399999
 31
0.0
  0
LINE
  5
F671
  8
2-0
  6
DASHED3
 62
     6
 10
7898.7908374282706
 20
16795.48935399999
 30
0.0
 11
7456.4534241950241
 21
16795.48935399999
 31
0.0
  0
LINE
  5
F672
  8
0-1
  6
CONTINUOUS
 62
     3
 10
13160.31174319502
 20
18254.48935299999
 30
0.0
 11
11446.907696900569
 21
18254.489353000001
 31
0.0
  0
LINE
  5
F673
  8
0-1
  6
CONTINUOUS
 62
     3
 10
13160.31174319502
 20
18164.48658199999
 30
0.0
 11
11224.55906796897
 21
18164.48658199999
 31
0.0
  0
LINE
  5
F674
  8
0-1
  6
CONTINUOUS
 62
     3
 10
13104.45269819502
 20
16750.486977999972
 30
0.0
 11
10326.452170195011
 21
15291.48697799999
 31
0.0
  0
LINE
  5
F675
  8
0-1
  6
CONTINUOUS
 62
     3
 10
10326.452170195011
 20
15291.48697799999
 30
0.0
 11
13104.45269819502
 21
13832.48697799999
 31
0.0
  0
LINE
  5
F676
  8
0-1
  6
CONTINUOUS
 62
     3
 10
13104.45269819502
 20
15291.48697799999
 30
0.0
 11
10326.452170195011
 21
13832.48697799999
 31
0.0
  0
LINE
  5
F677
  8
0-1
  6
CONTINUOUS
 62
     3
 10
13104.45269819502
 20
18209.48697799999
 30
0.0
 11
10326.45252455119
 21
16750.488879658838
 31
0.0
  0
LINE
  5
F678
  8
0-1
  6
CONTINUOUS
 62
     3
 10
10326.45252455119
 20
16750.488879658838
 30
0.0
 11
13104.45269819502
 21
15291.48697799999
 31
0.0
  0
LINE
  5
F679
  8
0-1
  6
CONTINUOUS
 62
     3
 10
12331.189314342881
 20
18615.603271236421
 30
0.0
 11
13104.45269819498
 21
18209.48697799999
 31
0.0
  0
LINE
  5
F67A
  8
0-1
  6
CONTINUOUS
 62
     3
 10
10791.869950973571
 20
17988.101305556302
 30
0.0
 11
13104.45269819502
 21
16750.486977999972
 31
0.0
  0
LINE
  5
F67B
  8
0-1
  6
CONTINUOUS
 62
     3
 10
13241.954651195019
 20
18985.972474927279
 30
0.0
 11
13241.954651195019
 21
19873.48790199995
 31
0.0
  0
LINE
  5
F67C
  8
0-1
  6
CONTINUOUS
 62
     3
 10
13186.45389919501
 20
19855.98895699998
 30
0.0
 11
13186.45389919501
 21
19885.988560999958
 31
0.0
  0
LINE
  5
F67D
  8
0-1
  6
CONTINUOUS
 62
     3
 10
13259.95342419503
 20
19885.988560999958
 30
0.0
 11
13259.95342419503
 21
19850.986713999959
 31
0.0
  0
LINE
  5
F67E
  8
0-1
  6
CONTINUOUS
 62
     3
 10
13191.45416319504
 20
19890.986845999982
 30
0.0
 11
13254.95415019503
 21
19890.986845999982
 31
0.0
  0
LINE
  5
F67F
  8
0-1
  6
CONTINUOUS
 62
     3
 10
13241.954651195019
 20
19873.48790199995
 30
0.0
 11
13259.95342419503
 21
19873.48790199995
 31
0.0
  0
LINE
  5
F680
  8
0-1
  6
CONTINUOUS
 62
     3
 10
13241.954651195019
 20
19850.986713999959
 30
0.0
 11
13191.45416319504
 21
19850.986713999959
 31
0.0
  0
LINE
  5
F681
  8
0-1
  6
CONTINUOUS
 62
     3
 10
13183.453305195
 20
19860.989220999982
 30
0.0
 11
7447.4539381950171
 21
19860.989220999982
 31
0.0
  0
LINE
  5
F682
  8
0-6
  6
CONTINUOUS
 62
     6
 10
11970.089617493441
 20
19588.210913999981
 30
0.0
 11
11826.18851449344
 21
20100.486568999971
 31
0.0
  0
LINE
  5
F683
  8
0-6
  6
CONTINUOUS
 62
     6
 10
12139.43099249344
 20
19836.664896999991
 30
0.0
 11
12032.73593049344
 21
19714.48900999999
 31
0.0
  0
LINE
  5
F684
  8
0-6
  6
CONTINUOUS
 62
     6
 10
12032.73593049344
 20
19714.48900999999
 30
0.0
 11
12094.041620493441
 21
19864.665186999981
 31
0.0
  0
LINE
  5
F685
  8
0-6
  6
CONTINUOUS
 62
     6
 10
12032.73593049344
 20
19714.48900999999
 30
0.0
 11
12139.43099249344
 21
19836.664896999991
 31
0.0
  0
LINE
  5
F686
  8
0-6
  6
CONTINUOUS
 62
     6
 10
12139.43099249344
 20
19836.664896999991
 30
0.0
 11
12094.041620493441
 21
19864.665186999981
 31
0.0
  0
LINE
  5
F687
  8
0-6
  6
CONTINUOUS
 62
     6
 10
12094.041620493441
 20
19864.665186999981
 30
0.0
 11
12032.73593049344
 21
19714.48900999999
 31
0.0
  0
LINE
  5
F688
  8
0-6
  6
CONTINUOUS
 62
     6
 10
12094.041620493441
 20
19864.665186999981
 30
0.0
 11
12139.43099249344
 21
19836.664896999991
 31
0.0
  0
LINE
  5
F689
  8
0-6
  6
CONTINUOUS
 62
     6
 10
12032.73593049344
 20
19714.48900999999
 30
0.0
 11
12326.66375749345
 21
20120.987109999969
 31
0.0
  0
LINE
  5
F68A
  8
0-6
  6
CONTINUOUS
 62
     6
 10
11995.97776149343
 20
19594.610697999949
 30
0.0
 11
12008.479411493439
 21
19432.88600899998
 31
0.0
  0
LINE
  5
F68B
  8
0-6
  6
CONTINUOUS
 62
     6
 10
12008.479411493439
 20
19432.88600899998
 30
0.0
 11
11944.204442493439
 21
19581.815089999989
 31
0.0
  0
LINE
  5
F68C
  8
0-6
  6
CONTINUOUS
 62
     6
 10
12008.479411493439
 20
19432.88600899998
 30
0.0
 11
11995.97776149343
 21
19594.610697999949
 31
0.0
  0
LINE
  5
F68D
  8
0-6
  6
CONTINUOUS
 62
     6
 10
11995.97776149343
 20
19594.610697999949
 30
0.0
 11
11944.204442493439
 21
19581.815089999989
 31
0.0
  0
LINE
  5
F68E
  8
0-6
  6
CONTINUOUS
 62
     6
 10
11944.204442493439
 20
19581.815089999989
 30
0.0
 11
12008.479411493439
 21
19432.88600899998
 31
0.0
  0
LINE
  5
F68F
  8
0-6
  6
CONTINUOUS
 62
     6
 10
11944.204442493439
 20
19581.815089999989
 30
0.0
 11
11995.97776149343
 21
19594.610697999949
 31
0.0
  0
LINE
  5
F690
  8
0-6
  6
CONTINUOUS
 62
     6
 10
11826.18851449344
 20
20100.486568999971
 30
0.0
 11
11308.49986649343
 21
20100.486568999971
 31
0.0
  0
LINE
  5
F691
  8
0-6
  6
CONTINUOUS
 62
     6
 10
13274.77055619505
 20
18547.603013151231
 30
0.0
 11
13184.954849195041
 21
18682.675464151231
 31
0.0
  0
LINE
  5
F692
  8
0-6
  6
CONTINUOUS
 62
     6
 10
13184.954849195041
 20
18682.675464151231
 30
0.0
 11
13226.10904019505
 21
18525.774862151229
 31
0.0
  0
LINE
  5
F693
  8
0-6
  6
CONTINUOUS
 62
     6
 10
13184.954849195041
 20
18682.675464151231
 30
0.0
 11
13274.77055619505
 21
18547.603013151231
 31
0.0
  0
LINE
  5
F694
  8
0-6
  6
CONTINUOUS
 62
     6
 10
13274.77055619505
 20
18547.603013151231
 30
0.0
 11
13226.10904019505
 21
18525.774862151229
 31
0.0
  0
LINE
  5
F695
  8
0-6
  6
CONTINUOUS
 62
     6
 10
13226.10904019505
 20
18525.774862151229
 30
0.0
 11
13184.954849195041
 21
18682.675464151231
 31
0.0
  0
LINE
  5
F696
  8
0-6
  6
CONTINUOUS
 62
     6
 10
13226.10904019505
 20
18525.774862151229
 30
0.0
 11
13274.77055619505
 21
18547.603013151231
 31
0.0
  0
LINE
  5
F697
  8
0-6
  6
CONTINUOUS
 62
     6
 10
13126.665406493439
 20
20120.987109999969
 30
0.0
 11
12326.66375749345
 21
20120.987109999969
 31
0.0
  0
LINE
  5
F698
  8
0-6
  6
CONTINUOUS
 62
     6
 10
16412.746903947711
 20
17087.77055234438
 30
0.0
 11
14418.3027519477
 21
17087.77055234438
 31
0.0
  0
LINE
  5
F699
  8
0-6
  6
CONTINUOUS
 62
     6
 10
11059.682641843199
 20
15676.578070442971
 30
0.0
 11
11446.435098685581
 21
15505.0054684157
 31
0.0
  0
LINE
  5
F69A
  8
0-6
  6
CONTINUOUS
 62
     6
 10
12326.436022685601
 20
15505.0054684157
 30
0.0
 11
11446.435098685581
 21
15505.0054684157
 31
0.0
  0
LINE
  5
F69B
  8
0-6
  6
CONTINUOUS
 62
     6
 10
13349.480556195031
 20
18315.89640415123
 30
0.0
 11
13869.481282195051
 21
18315.89640415123
 31
0.0
  0
LINE
  5
F69C
  8
0-6
  6
CONTINUOUS
 62
     6
 10
12350.47473563636
 20
13995.376374999971
 30
0.0
 11
12279.17000118023
 21
14147.589355705421
 31
0.0
  0
LINE
  5
F69D
  8
0-6
  6
CONTINUOUS
 62
     6
 10
12279.17000118023
 20
14147.589355705421
 30
0.0
 11
11479.16934118023
 21
14147.589355705421
 31
0.0
  0
LINE
  5
F69E
  8
0-6
  6
CONTINUOUS
 62
     6
 10
12107.527485195011
 20
13485.93934999997
 30
0.0
 11
12213.797940195011
 21
13608.48639699997
 31
0.0
  0
LINE
  5
F69F
  8
0-6
  6
CONTINUOUS
 62
     6
 10
12213.797940195011
 20
13608.48639699997
 30
0.0
 11
12153.015832195
 21
13458.09742099998
 31
0.0
  0
LINE
  5
F6A0
  8
0-6
  6
CONTINUOUS
 62
     6
 10
12213.797940195011
 20
13608.48639699997
 30
0.0
 11
12107.527485195011
 21
13485.93934999997
 31
0.0
  0
LINE
  5
F6A1
  8
0-6
  6
CONTINUOUS
 62
     6
 10
12107.527485195011
 20
13485.93934999997
 30
0.0
 11
12153.015832195
 21
13458.09742099998
 31
0.0
  0
LINE
  5
F6A2
  8
0-6
  6
CONTINUOUS
 62
     6
 10
12153.015832195
 20
13458.09742099998
 30
0.0
 11
12213.797940195011
 21
13608.48639699997
 31
0.0
  0
LINE
  5
F6A3
  8
0-6
  6
CONTINUOUS
 62
     6
 10
12153.015832195
 20
13458.09742099998
 30
0.0
 11
12107.527485195011
 21
13485.93934999997
 31
0.0
  0
LINE
  5
F6A4
  8
0-6
  6
CONTINUOUS
 62
     6
 10
12374.62189263638
 20
14006.68833399996
 30
0.0
 11
12418.34747863638
 21
13850.485512999971
 31
0.0
  0
LINE
  5
F6A5
  8
0-6
  6
CONTINUOUS
 62
     6
 10
12418.34747863638
 20
13850.485512999971
 30
0.0
 11
12326.32658763636
 21
13984.06342599997
 31
0.0
  0
LINE
  5
F6A6
  8
0-6
  6
CONTINUOUS
 62
     6
 10
12418.34747863638
 20
13850.485512999971
 30
0.0
 11
12374.62189263638
 21
14006.68833399996
 31
0.0
  0
LINE
  5
F6A7
  8
0-6
  6
CONTINUOUS
 62
     6
 10
12374.62189263638
 20
14006.68833399996
 30
0.0
 11
12326.32658763636
 21
13984.06342599997
 31
0.0
  0
LINE
  5
F6A8
  8
0-6
  6
CONTINUOUS
 62
     6
 10
12326.32658763636
 20
13984.06342599997
 30
0.0
 11
12418.34747863638
 21
13850.485512999971
 31
0.0
  0
LINE
  5
F6A9
  8
0-6
  6
CONTINUOUS
 62
     6
 10
12326.32658763636
 20
13984.06342599997
 30
0.0
 11
12374.62189263638
 21
14006.68833399996
 31
0.0
  0
LINE
  5
F6AA
  8
0-6
  6
CONTINUOUS
 62
     6
 10
11724.159565694999
 20
12808.48672649997
 30
0.0
 11
10861.579394695
 21
12808.48672649997
 31
0.0
  0
LINE
  5
F6AB
  8
0-6
  6
CONTINUOUS
 62
     6
 10
12130.27165869501
 20
13472.01838549997
 30
0.0
 11
11724.159565694999
 21
12808.48672649997
 31
0.0
  0
LINE
  5
F6AC
  8
0-6
  6
CONTINUOUS
 62
     6
 10
13279.40413419502
 20
14180.776105999959
 30
0.0
 11
13256.95342419503
 21
14341.42195699996
 31
0.0
  0
LINE
  5
F6AD
  8
0-6
  6
CONTINUOUS
 62
     6
 10
13256.95342419503
 20
14341.42195699996
 30
0.0
 11
13330.29062819504
 21
14196.740922999979
 31
0.0
  0
LINE
  5
F6AE
  8
0-6
  6
CONTINUOUS
 62
     6
 10
13256.95342419503
 20
14341.42195699996
 30
0.0
 11
13279.40413419502
 21
14180.776105999959
 31
0.0
  0
LINE
  5
F6AF
  8
0-6
  6
CONTINUOUS
 62
     6
 10
13279.40413419502
 20
14180.776105999959
 30
0.0
 11
13330.29062819504
 21
14196.740922999979
 31
0.0
  0
LINE
  5
F6B0
  8
0-6
  6
CONTINUOUS
 62
     6
 10
13330.29062819504
 20
14196.740922999979
 30
0.0
 11
13256.95342419503
 21
14341.42195699996
 31
0.0
  0
LINE
  5
F6B1
  8
0-6
  6
CONTINUOUS
 62
     6
 10
13330.29062819504
 20
14196.740922999979
 30
0.0
 11
13279.40413419502
 21
14180.776105999959
 31
0.0
  0
LINE
  5
F6B2
  8
0-6
  6
CONTINUOUS
 62
     6
 10
14971.587675195031
 20
12318.485604999951
 30
0.0
 11
13891.588071195019
 21
12318.485604999951
 31
0.0
  0
LINE
  5
F6B3
  8
0-6
  6
CONTINUOUS
 62
     6
 10
13304.847876195039
 20
14188.757524999961
 30
0.0
 11
13891.588071195019
 21
12318.485604999951
 31
0.0
  0
LINE
  5
F6B4
  8
0-6
  6
CONTINUOUS
 62
     6
 10
13250.440293195041
 20
18536.68992715123
 30
0.0
 11
13349.480556195031
 21
18315.89640415123
 31
0.0
  0
LINE
  5
F6B5
  8
0-6
  6
CONTINUOUS
 62
     6
 10
16450.27059592001
 20
18072.71599913896
 30
0.0
 11
14455.82644391999
 21
18072.71599913896
 31
0.0
  0
LINE
  5
F6B6
  8
0-6
  6
CONTINUOUS
 62
     6
 10
7373.9520391950218
 20
19870.486304999991
 30
0.0
 11
7282.2646971950098
 21
20004.293842999981
 31
0.0
  0
LINE
  5
F6B7
  8
0-6
  6
CONTINUOUS
 62
     6
 10
7243.8234361950254
 20
19967.32633299999
 30
0.0
 11
7373.9520391950218
 21
19870.486304999991
 31
0.0
  0
LINE
  5
F6B8
  8
0-6
  6
CONTINUOUS
 62
     6
 10
7243.8234361950254
 20
19967.32633299999
 30
0.0
 11
7282.2646971950098
 21
20004.293842999981
 31
0.0
  0
LINE
  5
F6B9
  8
0-6
  6
CONTINUOUS
 62
     6
 10
7263.0435711950113
 20
19985.809097999991
 30
0.0
 11
6746.0546831950214
 21
20490.487360999981
 31
0.0
  0
LINE
  5
F6BA
  8
0-6
  6
CONTINUOUS
 62
     6
 10
6746.0546831950214
 20
20490.487360999981
 30
0.0
 11
5071.0553431950111
 21
20490.487360999981
 31
0.0
  0
LINE
  5
F6BB
  8
2-0
  6
DASHED3
 62
     6
 10
13174.45342419502
 20
19629.488481999961
 30
0.0
 11
7456.4534241950314
 21
19629.488481999961
 31
0.0
  0
LINE
  5
F6BC
  8
2-0
  6
DASHED3
 62
     6
 10
13216.95269819502
 20
18976.894547152871
 30
0.0
 11
13216.95269819502
 21
19714.48900999999
 31
0.0
  0
LINE
  5
F6BD
  8
2-0
  6
DASHED3
 62
     6
 10
13174.45342419502
 20
18959.35902401376
 30
0.0
 11
13174.45342419502
 21
19714.48900999999
 31
0.0
  0
LINE
  5
F6BE
  8
2-0
  6
DASHED3
 62
     6
 10
13216.95269819502
 20
19714.48900999999
 30
0.0
 11
7456.4534241950314
 21
19714.489009999961
 31
0.0
  0
LINE
  5
F6BF
  8
2-0
  6
DASHED3
 62
     6
 10
10256.45342419502
 20
17769.8393054761
 30
0.0
 11
10256.45342419502
 21
19714.48900999999
 31
0.0
  0
LINE
  5
F6C0
  8
2-0
  6
DASHED3
 62
     6
 10
10213.952170195011
 20
17752.513712708602
 30
0.0
 11
10213.952170195011
 21
19714.48900999999
 31
0.0
  0
LINE
  5
F6C1
  8
2-0
  6
DASHED3
 62
     6
 10
11224.55906796897
 20
18164.48658199999
 30
0.0
 11
10256.45342419502
 21
18164.48658199999
 31
0.0
  0
LINE
  5
F6C2
  8
2-0
  6
DASHED3
 62
     6
 10
11446.907696900569
 20
18254.489353000001
 30
0.0
 11
10256.45342419502
 21
18254.48935299999
 31
0.0
  0
LINE
  5
F6C3
  8
2-0
  6
DASHED3
 62
     6
 10
13104.45269819502
 20
19668.48697799999
 30
0.0
 11
10309.45305519501
 21
18209.48697799999
 31
0.0
  0
LINE
  5
F6C4
  8
2-0
  6
DASHED3
 62
     6
 10
10309.45305519499
 20
18209.486977999961
 30
0.0
 11
10791.869950973571
 21
17988.101305556302
 31
0.0
  0
LINE
  5
F6C5
  8
2-0
  6
DASHED3
 62
     6
 10
10326.452170195011
 20
19668.48697799999
 30
0.0
 11
12331.189314342881
 21
18615.603271236421
 31
0.0
  0
LINE
  5
F6C6
  8
2-0
  6
CENTER2
 62
     6
 10
10256.45342419502
 20
20910.989220999989
 30
0.0
 11
10256.45342419502
 21
19960.988560999969
 31
0.0
  0
LINE
  5
F6C7
  8
2-0
  6
CENTER2
 62
     6
 10
14503.953529195011
 20
19668.48697799999
 30
0.0
 11
12857.454308195011
 21
19668.48697799999
 31
0.0
  0
LINE
  5
F6C8
  8
0-8
  6
CONTINUOUS
 62
     6
 10
13174.45342419502
 20
20910.989220999989
 30
0.0
 11
13174.45342419502
 21
19960.988560999969
 31
0.0
  0
LINE
  5
F6C9
  8
2-0
  6
CENTER2
 62
     6
 10
14503.953529195011
 20
16750.486977999972
 30
0.0
 11
7284.6539761950271
 21
16750.486977999972
 31
0.0
  0
LINE
  5
F6CA
  8
2-0
  6
CENTER2
 62
     6
 10
14503.953529195011
 20
13832.48697799999
 30
0.0
 11
12857.454308195011
 21
13832.48697799999
 31
0.0
  0
LINE
  5
F6CB
  8
2-0
  6
CENTER2
 62
     6
 10
13393.251592195011
 20
18209.48697799999
 30
0.0
 11
7284.6539761950271
 21
18209.48697799999
 31
0.0
  0
LINE
  5
F6CC
  8
2-0
  6
CENTER2
 62
     6
 10
13393.251592195011
 20
15291.48697799999
 30
0.0
 11
7284.6539761950271
 21
15291.48697799999
 31
0.0
  0
ARC
  5
F6CD
  8
0-1
  6
CONTINUOUS
 62
     3
 10
13191.45416319504
 20
19855.98895699998
 30
0.0
 40
5.0
 50
180.0
 51
270.00001499981897
  0
ARC
  5
F6CE
  8
0-1
  6
CONTINUOUS
 62
     3
 10
13191.45416319504
 20
19885.988560999958
 30
0.0
 40
5.0
 50
90.0
 51
180.0
  0
ARC
  5
F6CF
  8
0-1
  6
CONTINUOUS
 62
     3
 10
13254.95415019503
 20
19885.988560999958
 30
0.0
 40
5.0
 50
0.000000000000007
 51
90.0
  0
CIRCLE
  5
F6D0
  8
0-5
  6
CONTINUOUS
 62
     4
 10
10256.45342419502
 20
21110.987901999972
 30
0.0
 40
199.9999949999999
  0
CIRCLE
  5
F6D1
  8
0-5
  6
CONTINUOUS
 62
     4
 10
13174.45342419502
 20
21110.987901999972
 30
0.0
 40
199.9999949999999
  0
CIRCLE
  5
F6D2
  8
0-5
  6
CONTINUOUS
 62
     4
 10
14703.95320019501
 20
19668.48697799999
 30
0.0
 40
199.9999949999999
  0
CIRCLE
  5
F6D3
  8
0-5
  6
CONTINUOUS
 62
     4
 10
14703.95320019501
 20
16750.486977999972
 30
0.0
 40
199.9999949999999
  0
CIRCLE
  5
F6D4
  8
0-5
  6
CONTINUOUS
 62
     4
 10
14703.95320019501
 20
13832.48697799999
 30
0.0
 40
199.9999949999999
  0
TEXT
  5
F6D5
  8
0-5
  6
CONTINUOUS
 62
     7
 10
10203.503963528319
 20
21021.77297899999
 30
0.0
 40
160.0
  1
2
 72
     4
 11
10256.83729686166
 21
21101.77297899999
 31
0.0
  0
TEXT
  5
F6D6
  8
0-5
  6
CONTINUOUS
 62
     7
 10
13121.120090861679
 20
21021.77297899999
 30
0.0
 40
160.0
  1
3
 72
     4
 11
13174.45342419502
 21
21101.77297899999
 31
0.0
  0
TEXT
  5
F6D7
  8
0-5
  6
CONTINUOUS
 62
     7
 10
14650.74640152834
 20
19588.898453999991
 30
0.0
 40
160.0
  1
C
 72
     4
 11
14704.079734861671
 21
19668.898453999991
 31
0.0
  0
TEXT
  5
F6D8
  8
0-5
  6
CONTINUOUS
 62
     7
 10
14650.74640152834
 20
16670.899443999981
 30
0.0
 40
160.0
  1
B
 72
     4
 11
14704.079734861671
 21
16750.899443999981
 31
0.0
  0
TEXT
  5
F6D9
  8
0-5
  6
CONTINUOUS
 62
     7
 10
14650.74640152834
 20
13752.89845399998
 30
0.0
 40
160.0
  1
A
 72
     4
 11
14704.079734861671
 21
13832.89845399998
 31
0.0
  0
TEXT
  5
F6DA
  8
0-6
  6
CONTINUOUS
 62
     7
 10
11404.854917160101
 20
20180.486832999981
 30
0.0
 40
160.0
  1
屋根
 72
     4
 11
11575.52158382677
 21
20260.486832999981
 31
0.0
  0
TEXT
  5
F6DB
  8
0-6
  6
CONTINUOUS
 62
     7
 10
12406.66415249344
 20
20200.987373999971
 30
0.0
 40
160.0
  1
桁（後）
 72
     4
 11
12726.66415249344
 21
20280.987373999971
 31
0.0
  0
TEXT
  5
F6DC
  8
0-6
  6
CONTINUOUS
 62
     7
 10
11521.10143535225
 20
15595.506168415701
 30
0.0
 40
160.0
  1
ブレース
 72
     4
 11
11883.768102018919
 21
15680.83950174904
 31
0.0
  0
TEXT
  5
F6DD
  8
0-6
  6
CONTINUOUS
 62
     7
 10
11559.17072718023
 20
14227.58961970543
 30
0.0
 40
160.0
  1
桁（前）
 72
     4
 11
11879.17072718023
 21
14307.58961970543
 31
0.0
  0
TEXT
  5
F6DE
  8
0-6
  6
CONTINUOUS
 62
     7
 10
10918.82695836166
 20
12888.48600049997
 30
0.0
 40
160.0
  1
鼻隠し前
 72
     4
 11
11281.49362502833
 21
12968.48600049997
 31
0.0
  0
TEXT
  5
F6DF
  8
0-6
  6
CONTINUOUS
 62
     7
 10
14059.58741119502
 20
12398.484878999971
 30
0.0
 40
160.0
  1
ケラバ 左
 72
     4
 11
14475.58741119502
 21
12478.484878999971
 31
0.0
  0
TEXT
  5
F6E0
  8
0-6
  6
CONTINUOUS
 62
     7
 10
13429.480820195049
 20
18395.896668151221
 30
0.0
 40
160.0
  1
上枠
 72
     4
 11
13600.147486861721
 21
18475.896668151221
 31
0.0
  0
TEXT
  5
F6E1
  8
0-6
  6
CONTINUOUS
 62
     7
 10
5172.7210858616791
 20
20570.485644999961
 30
0.0
 40
160.0
  1
鼻隠しコーナー後
 72
     4
 11
5919.387752528346
 21
20650.485644999961
 31
0.0
  0
TEXT
  5
F6E2
  8
0-6
  6
CONTINUOUS
 62
     7
 10
14519.571561559031
 20
18168.767487028312
 30
0.0
 40
160.0
  1
桁中B +  桁中補強B
 72
     4
 11
15452.90489489237
 21
18248.767487028312
 31
0.0
  0
TEXT
  5
F6E3
  8
0-6
  6
CONTINUOUS
 62
     7
 10
14482.04786958673
 20
17183.824019233751
 30
0.0
 40
160.0
  1
桁中A +  桁中補強A
 72
     4
 11
15415.381202920071
 21
17263.824019233751
 31
0.0
  0
LINE
  5
F6E4
  8
0-6
  6
CONTINUOUS
 62
     6
 10
9700.5938553251908
 20
20137.511124411762
 30
0.0
 11
8435.9242696874699
 21
20137.511124411762
 31
0.0
  0
TEXT
  5
F6E5
  8
0-6
  6
CONTINUOUS
 62
     7
 10
8511.2607529918696
 20
20217.511388411782
 30
0.0
 40
160.0
  1
桁（後）補強
  0
LINE
  5
F6E6
  8
0-6
  6
CONTINUOUS
 62
     6
 10
10673.42461819078
 20
19485.69243174696
 30
0.0
 11
10539.79508868525
 21
19183.184921748001
 31
0.0
  0
LINE
  5
F6E7
  8
0-6
  6
CONTINUOUS
 62
     6
 10
10738.07564109908
 20
19632.047956841161
 30
0.0
 11
10697.817741125549
 21
19474.916740316919
 31
0.0
  0
LINE
  5
F6E8
  8
0-6
  6
CONTINUOUS
 62
     6
 10
10697.817741125549
 20
19474.916740316919
 30
0.0
 11
10649.031495256
 21
19496.468123176961
 31
0.0
  0
LINE
  5
F6E9
  8
0-6
  6
CONTINUOUS
 62
     6
 10
10649.031495256
 20
19496.468123176961
 30
0.0
 11
10738.07564109908
 21
19632.047956841161
 31
0.0
  0
LINE
  5
F6EA
  8
0-6
  6
CONTINUOUS
 62
     6
 10
10539.79508868525
 20
19183.184921748001
 30
0.0
 11
9700.5938553251908
 21
20137.511124411762
 31
0.0
  0
LINE
  5
F6EB
  8
2-0
  6
CENTER2
 62
     6
 10
7456.4534241950241
 20
20910.989220999989
 30
0.0
 11
7456.4534241950241
 21
19960.988560999969
 31
0.0
  0
CIRCLE
  5
F6EC
  8
0-5
  6
CONTINUOUS
 62
     4
 10
7456.4534241950241
 20
21110.987901999972
 30
0.0
 40
199.9999949999999
  0
TEXT
  5
F6ED
  8
0-5
  6
CONTINUOUS
 62
     7
 10
7430.1706301950071
 20
21021.77297899999
 30
0.0
 40
160.0
  1
1
 72
     4
 11
7456.837296861675
 21
21101.77297899999
 31
0.0
  0
LINE
  5
F6EE
  8
0-1
  6
CONTINUOUS
 62
     3
 10
7388.9531861950209
 20
16587.063110390962
 30
0.0
 11
7388.9531861950209
 21
19873.48790199995
 31
0.0
  0
LINE
  5
F6EF
  8
0-1
  6
CONTINUOUS
 62
     3
 10
7388.9531861950209
 20
19873.48790199995
 30
0.0
 11
7370.9534241950241
 21
19873.48790199995
 31
0.0
  0
LINE
  5
F6F0
  8
0-1
  6
CONTINUOUS
 62
     3
 10
7444.4539381950171
 20
19855.98895699998
 30
0.0
 11
7444.4539381950171
 21
19885.988560999958
 31
0.0
  0
LINE
  5
F6F1
  8
0-1
  6
CONTINUOUS
 62
     3
 10
7388.9531861950209
 20
19850.986713999959
 30
0.0
 11
7439.4526841950137
 21
19850.986713999959
 31
0.0
  0
LINE
  5
F6F2
  8
0-1
  6
CONTINUOUS
 62
     3
 10
7370.9534241950241
 20
19885.988560999958
 30
0.0
 11
7370.9534241950241
 21
19850.986713999959
 31
0.0
  0
LINE
  5
F6F3
  8
0-1
  6
CONTINUOUS
 62
     3
 10
7439.4526841950137
 20
19890.986845999982
 30
0.0
 11
7375.9546771950272
 21
19890.986845999982
 31
0.0
  0
ARC
  5
F6F4
  8
0-1
  6
CONTINUOUS
 62
     3
 10
7375.9546771950272
 20
19885.988560999958
 30
0.0
 40
5.0
 50
90.0
 51
180.0
  0
ARC
  5
F6F5
  8
0-1
  6
CONTINUOUS
 62
     3
 10
7439.4526841950137
 20
19885.988560999958
 30
0.0
 40
5.0
 50
0.000000000000007
 51
90.0
  0
ARC
  5
F6F6
  8
0-1
  6
CONTINUOUS
 62
     3
 10
7439.4526841950137
 20
19855.98895699998
 30
0.0
 40
5.0
 50
270.00001499981897
 51
0.000000000000007
  0
LINE
  5
F6F7
  8
0-1
  6
CONTINUOUS
 62
     3
 10
10256.45342419502
 20
13795.98762499998
 30
0.0
 11
10256.45342419502
 21
13639.987703999979
 31
0.0
  0
LINE
  5
F6F8
  8
0-1
  6
CONTINUOUS
 62
     3
 10
13490.17928880448
 20
19088.064350129349
 30
0.0
 11
9847.6549708503717
 21
17603.19303365939
 31
0.0
  0
LINE
  5
F6F9
  8
0-1
  6
CONTINUOUS
 62
     3
 10
8923.2523652047385
 20
17216.777447804459
 30
0.0
 11
7168.508879191636
 21
16495.176374172352
 31
0.0
  0
LINE
  5
F6FA
  8
0-1
  6
CONTINUOUS
 62
     3
 10
7506.4530551950184
 20
13671.98761099998
 30
0.0
 11
7506.4530551950184
 21
16635.900176312141
 31
0.0
  0
LINE
  5
F6FB
  8
0-1
  6
CONTINUOUS
 62
     3
 10
7370.9534241950241
 20
13639.98697799999
 30
0.0
 11
7370.9534241950241
 21
16579.99142828408
 31
0.0
  0
LINE
  5
F6FC
  8
0-1
  6
CONTINUOUS
 62
     3
 10
7456.4534241950241
 20
13795.98762499998
 30
0.0
 11
7456.4534241950241
 21
16613.587466435769
 31
0.0
  0
LINE
  5
F6FD
  8
0-1
  6
CONTINUOUS
 62
     3
 10
7413.9521701950162
 20
13795.98762499998
 30
0.0
 11
7413.9521701950162
 21
16596.109726377708
 31
0.0
  0
LINE
  5
F6FE
  8
0-1
  6
CONTINUOUS
 62
     3
 10
7506.4530551950184
 20
16635.900176312141
 30
0.0
 11
7506.4530551950184
 21
19860.989220999982
 31
0.0
  0
LINE
  5
F6FF
  8
0-1
  6
CONTINUOUS
 62
     3
 10
7370.9534241950241
 20
16579.991428284091
 30
0.0
 11
7370.9534241950241
 21
19873.48790199995
 31
0.0
  0
LINE
  5
F700
  8
2-0
  6
DASHED3
 62
     6
 10
7456.4534241950241
 20
16613.587466435769
 30
0.0
 11
7456.4534241950314
 21
19860.989220999982
 31
0.0
  0
LINE
  5
F701
  8
2-0
  6
DASHED3
 62
     6
 10
7413.9521701950162
 20
16596.109726377708
 30
0.0
 11
7413.9521701950162
 21
19850.986713999959
 31
0.0
  0
LINE
  5
F702
  8
0-1
  6
CONTINUOUS
 62
     3
 10
10403.95131319501
 20
17829.96666922119
 30
0.0
 11
10403.95131319501
 21
19860.989220999982
 31
0.0
  0
LINE
  5
F703
  8
0-1
  6
CONTINUOUS
 62
     3
 10
10366.95114119501
 20
17814.883586910251
 30
0.0
 11
10366.95114119501
 21
19860.989220999982
 31
0.0
  0
LINE
  5
F704
  8
0-1
  6
CONTINUOUS
 62
     3
 10
10203.95065319499
 20
17748.43660452258
 30
0.0
 11
10203.95065319499
 21
19860.989220999982
 31
0.0
  0
LINE
  5
F705
  8
0-1
  6
CONTINUOUS
 62
     3
 10
10166.950481194979
 20
17733.353522211652
 30
0.0
 11
10166.950481194979
 21
19860.989220999982
 31
0.0
  0
LINE
  5
F706
  8
0-1
  6
CONTINUOUS
 62
     3
 10
10003.94999319499
 20
17666.906539823962
 30
0.0
 11
10003.94999319499
 21
19860.989220999982
 31
0.0
  0
LINE
  5
F707
  8
0-1
  6
CONTINUOUS
 62
     3
 10
9966.9498211949885
 20
17651.82345751303
 30
0.0
 11
9966.9498211949885
 21
19860.989220999982
 31
0.0
  0
LINE
  5
F708
  8
0-1
  6
CONTINUOUS
 62
     3
 10
9803.949333194978
 20
17709.118466013198
 30
0.0
 11
9803.9493331949852
 21
19860.989220999982
 31
0.0
  0
LINE
  5
F709
  8
0-1
  6
CONTINUOUS
 62
     3
 10
9766.9491611949798
 20
17798.792462927951
 30
0.0
 11
9766.9491611949798
 21
19860.989220999982
 31
0.0
  0
LINE
  5
F70A
  8
0-1
  6
CONTINUOUS
 62
     3
 10
9603.9486731949764
 20
17663.714871947621
 30
0.0
 11
9603.9486731949764
 21
19860.989220999982
 31
0.0
  0
LINE
  5
F70B
  8
0-1
  6
CONTINUOUS
 62
     3
 10
9566.9485011949655
 20
17621.17163155874
 30
0.0
 11
9566.9485011949655
 21
19860.989220999982
 31
0.0
  0
LINE
  5
F70C
  8
0-1
  6
CONTINUOUS
 62
     3
 10
9403.9480131949604
 20
17431.377743966881
 30
0.0
 11
9403.9480131949676
 21
19860.989220999982
 31
0.0
  0
LINE
  5
F70D
  8
0-1
  6
CONTINUOUS
 62
     3
 10
9366.9478411949531
 20
17388.582352968799
 30
0.0
 11
9366.9478411949531
 21
19860.989220999982
 31
0.0
  0
LINE
  5
F70E
  8
0-1
  6
CONTINUOUS
 62
     3
 10
9203.9473531949479
 20
17198.78851710165
 30
0.0
 11
9203.9473531949479
 21
19860.989220999982
 31
0.0
  0
LINE
  5
F70F
  8
0-1
  6
CONTINUOUS
 62
     3
 10
9166.9471811949461
 20
17156.245276712762
 30
0.0
 11
9166.9471811949461
 21
19860.989220999982
 31
0.0
  0
LINE
  5
F710
  8
0-1
  6
CONTINUOUS
 62
     3
 10
9003.9466931949446
 20
17021.196504491822
 30
0.0
 11
9003.9466931949446
 21
19860.989220999982
 31
0.0
  0
LINE
  5
F711
  8
0-1
  6
CONTINUOUS
 62
     3
 10
8966.9465211949337
 20
17110.874784523709
 30
0.0
 11
8966.9465211949337
 21
19860.989220999982
 31
0.0
  0
LINE
  5
F712
  8
0-1
  6
CONTINUOUS
 62
     3
 10
8803.9460331949376
 20
17167.715247001001
 30
0.0
 11
8803.9460331949376
 21
19860.989220999982
 31
0.0
  0
LINE
  5
F713
  8
0-1
  6
CONTINUOUS
 62
     3
 10
8766.9458611949249
 20
17152.49971034129
 30
0.0
 11
8766.9458611949249
 21
19860.989220999982
 31
0.0
  0
LINE
  5
F714
  8
0-1
  6
CONTINUOUS
 62
     3
 10
8603.9453731949252
 20
17085.469213815231
 30
0.0
 11
8603.9453731949307
 21
19860.989220999982
 31
0.0
  0
LINE
  5
F715
  8
0-1
  6
CONTINUOUS
 62
     3
 10
8566.9452011949179
 20
17070.253677155531
 30
0.0
 11
8566.9452011949179
 21
19860.989220999982
 31
0.0
  0
LINE
  5
F716
  8
0-1
  6
CONTINUOUS
 62
     3
 10
8403.9447131949128
 20
17003.223180629459
 30
0.0
 11
8403.9447131949128
 21
19860.989220999982
 31
0.0
  0
LINE
  5
F717
  8
0-1
  6
CONTINUOUS
 62
     3
 10
8366.9445411949127
 20
16988.00764396977
 30
0.0
 11
8366.9445411949127
 21
19860.989220999982
 31
0.0
  0
LINE
  5
F718
  8
0-1
  6
CONTINUOUS
 62
     3
 10
8203.9440531949076
 20
16920.9771474437
 30
0.0
 11
8203.9440531949076
 21
19860.989220999982
 31
0.0
  0
LINE
  5
F719
  8
0-1
  6
CONTINUOUS
 62
     3
 10
8166.9438811949012
 20
16905.761610784011
 30
0.0
 11
8166.9438811949076
 21
19860.989220999982
 31
0.0
  0
LINE
  5
F71A
  8
0-1
  6
CONTINUOUS
 62
     3
 10
8003.9433931949015
 20
16838.731114257931
 30
0.0
 11
8003.9433931949015
 21
19860.989220999982
 31
0.0
  0
LINE
  5
F71B
  8
0-1
  6
CONTINUOUS
 62
     3
 10
7966.9432211948879
 20
16823.515577598231
 30
0.0
 11
7966.9432211948879
 21
19860.989220999982
 31
0.0
  0
LINE
  5
F71C
  8
0-1
  6
CONTINUOUS
 62
     3
 10
7803.94273319489
 20
16754.941794989729
 30
0.0
 11
7803.9427331948973
 21
19860.989220999982
 31
0.0
  0
LINE
  5
F71D
  8
0-1
  6
CONTINUOUS
 62
     3
 10
7766.9425611948818
 20
16739.675243089161
 30
0.0
 11
7766.9425611948818
 21
19860.989220999982
 31
0.0
  0
LINE
  5
F71E
  8
0-1
  6
CONTINUOUS
 62
     3
 10
10256.45342419502
 20
15336.48836400001
 30
0.0
 11
7456.4534241950241
 21
15336.48836400001
 31
0.0
  0
LINE
  5
F71F
  8
0-1
  6
CONTINUOUS
 62
     3
 10
10256.45342419502
 20
15246.48658200001
 30
0.0
 11
7456.4534241950241
 21
15246.48658200001
 31
0.0
  0
LINE
  5
F720
  8
2-0
  6
DASHED3
 62
     6
 10
7456.4534241950241
 20
18164.48658199999
 30
0.0
 11
10256.45342419502
 21
18164.48658199999
 31
0.0
  0
LINE
  5
F721
  8
2-0
  6
DASHED3
 62
     6
 10
7456.4534241950241
 20
18254.489353000001
 30
0.0
 11
10256.45342419502
 21
18254.48935299999
 31
0.0
  0
LINE
  5
F722
  8
0-1
  6
CONTINUOUS
 62
     3
 10
7635.9530551950184
 20
15291.48697799999
 30
0.0
 11
10087.452170195011
 21
13832.48697799999
 31
0.0
  0
LINE
  5
F723
  8
0-1
  6
CONTINUOUS
 62
     3
 10
10087.452170195011
 20
16750.486977999972
 30
0.0
 11
7635.9530551950184
 21
15291.48697799999
 31
0.0
  0
LINE
  5
F724
  8
0-1
  6
CONTINUOUS
 62
     3
 10
10087.452170195011
 20
15291.48697799999
 30
0.0
 11
7698.6375429271939
 21
16713.180553110142
 31
0.0
  0
LINE
  5
F725
  8
0-1
  6
CONTINUOUS
 62
     3
 10
7635.9530551950184
 20
13832.48697799999
 30
0.0
 11
10087.452170195011
 21
15291.48697799999
 31
0.0
  0
LINE
  5
F726
  8
0-6
  6
CONTINUOUS
 62
     6
 10
7509.4530551950184
 20
14298.52158806409
 30
0.0
 11
8408.8904646177925
 21
12808.48672699998
 31
0.0
  0
LINE
  5
F727
  8
2-0
  6
DASHED3
 62
     6
 10
10087.452170195011
 20
18209.48697799999
 30
0.0
 11
7635.9530551950184
 21
16750.486977999972
 31
0.0
  0
LINE
  5
F728
  8
2-0
  6
DASHED3
 62
     6
 10
7635.9530551950184
 20
18209.48697799999
 30
0.0
 11
9247.4745469421632
 21
17250.396337472019
 31
0.0
  0
LINE
  5
F729
  8
0-1
  6
CONTINUOUS
 62
     3
 10
9247.4745469421632
 20
17250.396337472019
 30
0.0
 11
10087.452170195011
 21
16750.486977999972
 31
0.0
  0
LINE
  5
F72A
  8
2-0
  6
DASHED3
 62
     6
 10
7635.9530551950184
 20
19668.48697799999
 30
0.0
 11
10087.452170195011
 21
18209.48697799999
 31
0.0
  0
LINE
  5
F72B
  8
2-0
  6
DASHED3
 62
     6
 10
10087.452170195011
 20
19668.48697799999
 30
0.0
 11
7635.9530551950184
 21
18209.48697799999
 31
0.0
  0
LINE
  5
F72C
  8
0-6
  6
CONTINUOUS
 62
     6
 10
14455.82644391999
 20
18072.71599913896
 30
0.0
 11
12878.801379182611
 21
17534.49973392918
 31
0.0
  0
LINE
  5
F72D
  8
0-6
  6
CONTINUOUS
 62
     6
 10
12878.801379182611
 20
17534.49973392918
 30
0.0
 11
12417.578739543989
 21
18148.986093999989
 31
0.0
  0
LINE
  5
F72E
  8
0-1
  6
CONTINUOUS
 62
     3
 10
9847.6555086101525
 20
17603.19173033928
 30
0.0
 11
9752.3014882866264
 21
17834.29271344548
 31
0.0
  0
LINE
  5
F72F
  8
0-1
  6
CONTINUOUS
 62
     3
 10
9018.6019561034118
 20
16985.67616228784
 30
0.0
 11
8923.2513064258965
 21
17216.78001399431
 31
0.0
  0
LINE
  5
F730
  8
0-1
  6
CONTINUOUS
 62
     3
 10
9018.6019561034118
 20
16985.67616228784
 30
0.0
 11
9752.3014882866264
 21
17834.29271344548
 31
0.0
  0
LINE
  5
F731
  8
2-0
  6
DASHED3
 62
     6
 10
7698.6375429271939
 20
16713.180553110142
 30
0.0
 11
7635.9530551950184
 21
16750.486977999972
 31
0.0
  0
LINE
  5
F732
  8
2-0
  6
DASHED3
 62
     6
 10
7722.5024491285949
 20
16750.4869780554
 30
0.0
 11
7605.6527256083209
 21
16674.942517440759
 31
0.0
  0
LINE
  5
F733
  8
0-6
  6
CONTINUOUS
 62
     6
 10
16450.27059592001
 20
15116.31762647385
 30
0.0
 11
14455.82644391999
 21
15116.31762647385
 31
0.0
  0
TEXT
  5
F734
  8
0-6
  6
CONTINUOUS
 62
     7
 10
14519.571561559031
 20
15212.3691143632
 30
0.0
 40
160.0
  1
桁中B +  桁中補強B
 72
     4
 11
15452.90489489237
 21
15292.3691143632
 31
0.0
  0
LINE
  5
F735
  8
0-6
  6
CONTINUOUS
 62
     6
 10
14455.82644391999
 20
15116.31762647385
 30
0.0
 11
12840.219188141171
 21
14629.504367315951
 31
0.0
  0
LINE
  5
F736
  8
0-6
  6
CONTINUOUS
 62
     6
 10
12840.219188141171
 20
14629.504367315951
 30
0.0
 11
12417.578739543989
 21
15192.587721334879
 31
0.0
  0
LINE
  5
F737
  8
0-6
  6
CONTINUOUS
 62
     6
 10
14418.3027519477
 20
17087.77055234438
 30
0.0
 11
12504.66696807697
 21
16261.176586604601
 31
0.0
  0
LINE
  5
F738
  8
0-6
  6
CONTINUOUS
 62
     6
 10
12504.66696807697
 20
16261.176586604601
 30
0.0
 11
12247.04259728593
 21
16679.485659000009
 31
0.0
  0
LINE
  5
F739
  8
SUNPOU
  6
CONTINUOUS
 10
14103.95352419502
 20
19890.984866499999
 30
0.0
 11
14103.95352419502
 21
20687.952134278461
 31
0.0
  0
LINE
  5
F73A
  8
SUNPOU
  6
CONTINUOUS
 10
14103.953524195031
 20
12867.17380684779
 30
0.0
 11
14103.953524195031
 21
13608.48639699997
 31
0.0
  0
LINE
  5
F73B
  8
0-6
  6
CONTINUOUS
 62
     6
 10
8316.696227588387
 20
14237.62858398499
 30
0.0
 11
8549.4225515633443
 21
13977.24807555257
 31
0.0
  0
LINE
  5
F73C
  8
0-6
  6
CONTINUOUS
 62
     6
 10
9366.2649665342196
 20
13977.24807555257
 30
0.0
 11
8549.4225515633443
 21
13977.24807555257
 31
0.0
  0
TEXT
  5
F73D
  8
0-6
  6
CONTINUOUS
 62
     7
 10
8582.8985214052427
 20
14067.748775552571
 30
0.0
 40
160.0
  1
ブレース
 72
     4
 11
8945.5651880719088
 21
14153.082108885899
 31
0.0
  0
TEXT
  5
F73E
  8
0-6
  6
CONTINUOUS
 62
     7
 10
8481.7147632010947
 20
12888.486000999979
 30
0.0
 40
160.0
  1
梁（P）前
 72
     4
 11
8924.3814298677607
 21
12968.486000999979
 31
0.0
  0
LINE
  5
F73F
  8
0-6
  6
CONTINUOUS
 62
     6
 10
9403.164268139677
 20
12808.48672699998
 30
0.0
 11
8408.8904646177907
 21
12808.48672699998
 31
0.0
  0
TEXT
  5
F740
  8
0-6
  6
CONTINUOUS
 62
     7
 10
4246.8046362067262
 20
13016.78261578345
 30
0.0
 40
160.0
  1
桁前（PU）+ 桁補強（PU）
 72
     4
 11
5494.8046362067262
 21
13096.78261578345
 31
0.0
  0
LINE
  5
F741
  8
0-6
  6
CONTINUOUS
 62
     6
 10
6783.4674978177936
 20
12915.236048594321
 30
0.0
 11
4200.7931650624087
 21
12915.236048594321
 31
0.0
  0
LINE
  5
F742
  8
0-6
  6
CONTINUOUS
 62
     6
 10
7774.5151965772229
 20
13795.98762499998
 30
0.0
 11
6783.4674978177936
 21
12915.236048594321
 31
0.0
  0
LINE
  5
F743
  8
0-6
  6
CONTINUOUS
 62
     6
 10
6608.1500431122686
 20
16745.972068012172
 30
0.0
 11
7670.2987145153456
 21
16287.177510604561
 31
0.0
  0
LINE
  5
F744
  8
0-6
  6
CONTINUOUS
 62
     6
 10
7670.2987145153456
 20
16287.177510604561
 30
0.0
 11
7927.9230853063782
 21
16705.486582999991
 31
0.0
  0
LINE
  5
F745
  8
0-6
  6
CONTINUOUS
 62
     6
 10
6608.1500431122686
 20
15286.97206701219
 30
0.0
 11
7670.2987145153456
 21
14828.17750960458
 31
0.0
  0
LINE
  5
F746
  8
0-6
  6
CONTINUOUS
 62
     6
 10
7670.2987145153456
 20
14828.17750960458
 30
0.0
 11
7927.9230853063782
 21
15246.486582
 31
0.0
  0
TEXT
  5
F747
  8
0-6
  6
CONTINUOUS
 62
     7
 10
3955.7103114046049
 20
15378.490164890551
 30
0.0
 40
160.0
  1
桁（PU）B + 桁補強（PU）
 72
     4
 11
5235.710311404604
 21
15458.490164890551
 31
0.0
  0
LINE
  5
F748
  8
0-6
  6
CONTINUOUS
 62
     6
 10
6608.1500431122686
 20
15286.97206701219
 30
0.0
 11
3842.6881072537799
 21
15286.97206701219
 31
0.0
  0
LINE
  5
F749
  8
0-6
  6
CONTINUOUS
 62
     6
 10
6608.1500431122686
 20
18204.97206701215
 30
0.0
 11
7670.2987145153456
 21
17746.177509604571
 31
0.0
  0
LINE
  5
F74A
  8
0-6
  6
CONTINUOUS
 62
     6
 10
7670.2987145153456
 20
17746.177509604571
 30
0.0
 11
7927.9230853063782
 21
18164.48658199998
 31
0.0
  0
TEXT
  5
F74B
  8
0-6
  6
CONTINUOUS
 62
     7
 10
3955.7103114046049
 20
18296.49016489054
 30
0.0
 40
160.0
  1
桁（PU）B + 桁補強（PU）
 72
     4
 11
5235.710311404604
 21
18376.49016489054
 31
0.0
  0
LINE
  5
F74C
  8
0-6
  6
CONTINUOUS
 62
     6
 10
6608.1500431122686
 20
18204.97206701215
 30
0.0
 11
3842.6881072537799
 21
18204.97206701215
 31
0.0
  0
TEXT
  5
F74D
  8
0-6
  6
CONTINUOUS
 62
     7
 10
3955.7103114046049
 20
16837.490165890511
 30
0.0
 40
160.0
  1
桁（PU）A + 桁補強（PU）
 72
     4
 11
5235.710311404604
 21
16917.490165890511
 31
0.0
  0
LINE
  5
F74E
  8
0-6
  6
CONTINUOUS
 62
     6
 10
6608.1500431122686
 20
16745.972068012172
 30
0.0
 11
3842.6881072537799
 21
16745.972068012172
 31
0.0
  0
LINE
  5
F74F
  8
0-6
  6
CONTINUOUS
 62
     6
 10
6608.1500431122686
 20
19669.973967012149
 30
0.0
 11
7670.2987145153456
 21
19211.17940960456
 31
0.0
  0
LINE
  5
F750
  8
0-6
  6
CONTINUOUS
 62
     6
 10
7670.2987145153456
 20
19211.17940960456
 30
0.0
 11
7927.9230853063782
 21
19629.488481999961
 31
0.0
  0
TEXT
  5
F751
  8
0-6
  6
CONTINUOUS
 62
     7
 10
3955.7103114046049
 20
19761.492064890521
 30
0.0
 40
160.0
  1
桁（PU）A + 桁補強（PU）
 72
     4
 11
5235.710311404604
 21
19841.492064890521
 31
0.0
  0
LINE
  5
F752
  8
0-6
  6
CONTINUOUS
 62
     6
 10
6608.1500431122686
 20
19669.973967012149
 30
0.0
 11
3842.6881072537799
 21
19669.973967012149
 31
0.0
  0
CIRCLE
  5
F753
  8
0-5
  6
CONTINUOUS
 62
     4
 10
15128.71667799999
 20
1375.999981999998
 30
0.0
 40
20.0
  0
ARC
  5
F754
  8
0-5
  6
CONTINUOUS
 62
     4
 10
15128.71667799999
 20
1375.999981999998
 30
0.0
 40
20.0
 50
180.0
 51
0.0
  0
ARC
  5
F755
  8
0-5
  6
CONTINUOUS
 62
     4
 10
15128.71667799999
 20
1375.999981999998
 30
0.0
 40
20.0
 50
0.0
 51
179.99998499999839
  0
CIRCLE
  5
F756
  8
0-5
  6
CONTINUOUS
 62
     4
 10
15128.71667799999
 20
1775.999321999996
 30
0.0
 40
20.0
  0
ARC
  5
F757
  8
0-5
  6
CONTINUOUS
 62
     4
 10
15128.71667799999
 20
1775.999321999996
 30
0.0
 40
20.0
 50
180.0
 51
0.0
  0
ARC
  5
F758
  8
0-5
  6
CONTINUOUS
 62
     4
 10
15128.71667799999
 20
1775.999321999996
 30
0.0
 40
20.0
 50
0.0
 51
179.99998499999839
  0
TEXT
  5
F759
  8
0-5
  6
CONTINUOUS
 62
     7
 10
16661.217403999992
 20
1655.999791999998
 30
0.0
 40
160.0
  1
H
  0
TEXT
  5
F75A
  8
0-5
  6
CONTINUOUS
 62
     7
 10
15176.146933
 20
1655.999791999998
 30
0.0
 40
160.0
  1
（ ）内寸法ハ、  タイプヲ示ス。
  0
TEXT
  5
F75B
  8
0-5
  6
CONTINUOUS
 62
     7
 10
15288.716216000001
 20
1255.9994619999991
 30
0.0
 40
160.0
  1
有効高サハ、基礎高サヲ含ミマセン。
  0
LINE
  5
F75C
  8
0-1
  6
CONTINUOUS
 62
     3
 10
7603.9420731948858
 20
16674.239047886382
 30
0.0
 11
7603.9420731948921
 21
19860.989220999982
 31
0.0
  0
LINE
  5
F75D
  8
0-1
  6
CONTINUOUS
 62
     3
 10
7566.9419011948758
 20
16659.0235112267
 30
0.0
 11
7566.9419011948758
 21
19860.989220999982
 31
0.0
  0
LINE
  5
F75E
  8
0-1
  6
CONTINUOUS
 62
     3
 10
11403.954613195059
 20
18237.61699271424
 30
0.0
 11
11403.954613195059
 21
19860.989220999982
 31
0.0
  0
LINE
  5
F75F
  8
0-1
  6
CONTINUOUS
 62
     3
 10
11366.954441195039
 20
18222.53391040333
 30
0.0
 11
11366.954441195039
 21
19860.989220999982
 31
0.0
  0
LINE
  5
F760
  8
0-1
  6
CONTINUOUS
 62
     3
 10
11203.95395319504
 20
18156.08692801564
 30
0.0
 11
11203.95395319504
 21
19860.989220999982
 31
0.0
  0
LINE
  5
F761
  8
0-1
  6
CONTINUOUS
 62
     3
 10
11166.953781195039
 20
18141.003845704719
 30
0.0
 11
11166.953781195039
 21
19860.989220999982
 31
0.0
  0
LINE
  5
F762
  8
0-1
  6
CONTINUOUS
 62
     3
 10
11003.95329319504
 20
18074.55686331703
 30
0.0
 11
11003.95329319504
 21
19860.989220999982
 31
0.0
  0
LINE
  5
F763
  8
0-1
  6
CONTINUOUS
 62
     3
 10
10966.953121195031
 20
18059.473781006101
 30
0.0
 11
10966.953121195031
 21
19860.989220999982
 31
0.0
  0
LINE
  5
F764
  8
0-1
  6
CONTINUOUS
 62
     3
 10
10803.95263319502
 20
17993.026798618412
 30
0.0
 11
10803.95263319502
 21
19860.989220999982
 31
0.0
  0
LINE
  5
F765
  8
0-1
  6
CONTINUOUS
 62
     3
 10
10766.95246119502
 20
17977.943716307491
 30
0.0
 11
10766.95246119502
 21
19860.989220999982
 31
0.0
  0
LINE
  5
F766
  8
0-1
  6
CONTINUOUS
 62
     3
 10
12203.9572531951
 20
18563.737251508719
 30
0.0
 11
12203.9572531951
 21
19860.989220999982
 31
0.0
  0
LINE
  5
F767
  8
0-1
  6
CONTINUOUS
 62
     3
 10
12166.957081195091
 20
18548.654169197791
 30
0.0
 11
12166.957081195091
 21
19860.989220999982
 31
0.0
  0
LINE
  5
F768
  8
0-1
  6
CONTINUOUS
 62
     3
 10
12003.95659319508
 20
18482.207186810101
 30
0.0
 11
12003.95659319508
 21
19860.989220999982
 31
0.0
  0
LINE
  5
F769
  8
0-1
  6
CONTINUOUS
 62
     3
 10
11966.95642119508
 20
18467.124104499151
 30
0.0
 11
11966.95642119508
 21
19860.989220999982
 31
0.0
  0
LINE
  5
F76A
  8
0-1
  6
CONTINUOUS
 62
     3
 10
11803.95593319508
 20
18400.67712211149
 30
0.0
 11
11803.95593319508
 21
19860.989220999982
 31
0.0
  0
LINE
  5
F76B
  8
0-1
  6
CONTINUOUS
 62
     3
 10
11766.95576119508
 20
18385.59403980054
 30
0.0
 11
11766.95576119506
 21
19860.989220999982
 31
0.0
  0
LINE
  5
F76C
  8
0-1
  6
CONTINUOUS
 62
     3
 10
11603.95527319507
 20
18319.147057412869
 30
0.0
 11
11603.95527319507
 21
19860.989220999982
 31
0.0
  0
LINE
  5
F76D
  8
0-1
  6
CONTINUOUS
 62
     3
 10
11566.955101195061
 20
18304.063975101952
 30
0.0
 11
11566.955101195061
 21
19860.989220999982
 31
0.0
  0
LINE
  5
F76E
  8
0-1
  6
CONTINUOUS
 62
     3
 10
12803.95923319513
 20
18808.327445604558
 30
0.0
 11
12803.95923319513
 21
19860.989220999982
 31
0.0
  0
LINE
  5
F76F
  8
0-1
  6
CONTINUOUS
 62
     3
 10
12766.959061195121
 20
18793.24436329363
 30
0.0
 11
12766.959061195121
 21
19860.989220999982
 31
0.0
  0
LINE
  5
F770
  8
0-1
  6
CONTINUOUS
 62
     3
 10
12603.95857319511
 20
18726.797380905951
 30
0.0
 11
12603.95857319511
 21
19860.989220999982
 31
0.0
  0
LINE
  5
F771
  8
0-1
  6
CONTINUOUS
 62
     3
 10
12566.958401195119
 20
18711.714298595009
 30
0.0
 11
12566.958401195119
 21
19860.989220999982
 31
0.0
  0
LINE
  5
F772
  8
0-1
  6
CONTINUOUS
 62
     3
 10
12403.95791319511
 20
18645.26731620733
 30
0.0
 11
12403.95791319511
 21
19860.989220999982
 31
0.0
  0
LINE
  5
F773
  8
0-1
  6
CONTINUOUS
 62
     3
 10
12366.95774119511
 20
18630.184233896402
 30
0.0
 11
12366.95774119511
 21
19860.989220999982
 31
0.0
  0
LINE
  5
F774
  8
0-1
  6
CONTINUOUS
 62
     3
 10
13003.95989319514
 20
18889.85751030318
 30
0.0
 11
13003.95989319514
 21
19860.989220999982
 31
0.0
  0
LINE
  5
F775
  8
0-1
  6
CONTINUOUS
 62
     3
 10
12966.95972119513
 20
18874.774427992252
 30
0.0
 11
12966.95972119513
 21
19860.989220999982
 31
0.0
  0
LINE
  5
F778
  8
WAKUSEN-01
 10
868.00000000000193
 20
22484.000000000011
 30
0.0
 11
32764.000000000011
 21
22484.000000000011
 31
0.0
  0
LINE
  5
F77B
  8
WAKUSEN-01
 10
20560.0
 20
2484.0
 30
0.0
 11
32764.0
 21
2484.0
 31
0.0
  0
LINE
  5
F77C
  8
WAKUSEN-02
 10
20560.0
 20
1655.9999999999991
 30
0.0
 11
26868.0
 21
1655.9999999999991
 31
0.0
  0
TEXT
  5
F77D
  8
WAKUMOJI-01
 10
20670.260259962761
 20
2125.9030093393221
 30
0.0
 40
240.0
  1
名　称
  7
WAKUMOJI
  0
TEXT
  5
F77E
  8
WAKUMOJI-01
 10
20656.505485091919
 20
1319.12897497982
 30
0.0
 40
240.0
  1
機種名
  7
WAKUMOJI
  0
LINE
  5
F781
  8
YODOROGO
 10
29977.604341291921
 20
1995.7494964292871
 30
0.0
 11
29829.604341291921
 21
1995.7494964292871
 31
0.0
1001
AUTOCAD_POSTSCRIPT_FIGURE
1002
{
1000
PSFILL
1000
Grayscale
1000
Grayscale
1070
    25
1002
}
  0
LINE
  5
F782
  8
YODOROGO
 10
29829.604341291921
 20
1947.749496429288
 30
0.0
 11
29977.604341291921
 21
1947.749496429288
 31
0.0
1001
AUTOCAD_POSTSCRIPT_FIGURE
1002
{
1000
PSFILL
1000
Grayscale
1000
Grayscale
1070
    25
1002
}
  0
LINE
  5
F783
  8
YODOROGO
 10
29977.604341291921
 20
1907.7494964292871
 30
0.0
 11
29829.604341291921
 21
1907.7494964292871
 31
0.0
1001
AUTOCAD_POSTSCRIPT_FIGURE
1002
{
1000
PSFILL
1000
Grayscale
1000
Grayscale
1070
    25
1002
}
  0
LINE
  5
F784
  8
YODOROGO
 10
29829.604341291921
 20
1859.749496429288
 30
0.0
 11
29977.604341291921
 21
1859.749496429288
 31
0.0
1001
AUTOCAD_POSTSCRIPT_FIGURE
1002
{
1000
PSFILL
1000
Grayscale
1000
Grayscale
1070
    25
1002
}
  0
LINE
  5
F785
  8
YODOROGO
 10
29977.604341291921
 20
1819.7494964292871
 30
0.0
 11
29829.604341291921
 21
1819.7494964292871
 31
0.0
1001
AUTOCAD_POSTSCRIPT_FIGURE
1002
{
1000
PSFILL
1000
Grayscale
1000
Grayscale
1070
    25
1002
}
  0
LINE
  5
F786
  8
YODOROGO
 10
29921.60434129191
 20
1707.749496429288
 30
0.0
 11
29977.604341291921
 21
1707.749496429288
 31
0.0
1001
AUTOCAD_POSTSCRIPT_FIGURE
1002
{
1000
PSFILL
1000
Grayscale
1000
Grayscale
1070
    25
1002
}
  0
LINE
  5
F787
  8
YODOROGO
 10
29737.604341291921
 20
1427.749496429288
 30
0.0
 11
29937.604341291932
 21
1481.3393349155101
 31
0.0
  0
LINE
  5
F788
  8
YODOROGO
 10
29949.60434129191
 20
1707.749496429288
 30
0.0
 11
29885.604341291921
 21
1707.749496429288
 31
0.0
  0
ARC
  5
F789
  8
YODOROGO
 10
30254.34774982791
 20
1807.864609233261
 30
0.0
 40
381.88686420564721
 50
213.96111677667841
 51
264.47872074317792
  0
ARC
  5
F78A
  8
YODOROGO
 10
30254.347749827921
 20
1807.864609233302
 30
0.0
 40
381.8868642056816
 50
208.14114420486601
 51
212.9210361185994
  0
LINE
  5
F78B
  8
YODOROGO
 10
29771.409872985321
 20
1556.807661346234
 30
0.0
 11
29933.78413250855
 21
1600.3157130570869
 31
0.0
  0
LINE
  5
F78C
  8
YODOROGO
 10
29737.604341291921
 20
1427.749496429288
 30
0.0
 11
29937.604341291932
 21
1481.3393349155101
 31
0.0
  0
LINE
  5
F78D
  8
YODOROGO
 10
29949.60434129191
 20
1707.749496429288
 30
0.0
 11
29885.604341291921
 21
1707.749496429288
 31
0.0
  0
ARC
  5
F78E
  8
YODOROGO
 10
30254.34774982791
 20
1807.864609233261
 30
0.0
 40
381.88686420564721
 50
213.96111677667841
 51
264.47872074317792
  0
LINE
  5
F78F
  8
YODOROGO
 10
28793.60434129191
 20
1819.7494964292871
 30
0.0
 11
28433.60434129191
 21
1819.7494964292871
 31
0.0
  0
LINE
  5
F790
  8
YODOROGO
 10
28513.60434129191
 20
1427.749496429288
 30
0.0
 11
28793.60434129191
 21
1427.749496429288
 31
0.0
  0
LINE
  5
F791
  8
YODOROGO
 10
28729.604341291921
 20
1923.7494964292871
 30
0.0
 11
28497.60434129191
 21
1923.7494964292871
 31
0.0
  0
LINE
  5
F792
  8
YODOROGO
 10
28585.604341291921
 20
2027.749496429288
 30
0.0
 11
28657.604341291921
 21
2027.749496429288
 31
0.0
  0
LINE
  5
F793
  8
YODOROGO
 10
28433.60434129191
 20
1707.749496429288
 30
0.0
 11
28433.60434129191
 21
1507.749496429288
 31
0.0
  0
LINE
  5
F794
  8
YODOROGO
 10
28497.60434129191
 20
1563.7494964292871
 30
0.0
 11
28497.60434129191
 21
1707.749496429288
 31
0.0
  0
LINE
  5
F795
  8
YODOROGO
 10
28585.604341291921
 20
1747.74949642929
 30
0.0
 11
28585.604341291921
 21
1547.749496429288
 31
0.0
  0
LINE
  5
F796
  8
YODOROGO
 10
27857.604341291921
 20
1683.749496429288
 30
0.0
 11
27777.604341291921
 21
1619.9724140445701
 31
0.0
  0
LINE
  5
F797
  8
YODOROGO
 10
27937.604341291921
 20
1619.9724140445701
 30
0.0
 11
27857.604341291921
 21
1683.749496429288
 31
0.0
  0
LINE
  5
F798
  8
YODOROGO
 10
27857.604341291921
 20
1707.749496429288
 30
0.0
 11
27937.604341291921
 21
1643.9724140445701
 31
0.0
  0
LINE
  5
F799
  8
YODOROGO
 10
27777.604341291921
 20
1643.9724140445701
 30
0.0
 11
27857.604341291921
 21
1707.749496429288
 31
0.0
  0
LINE
  5
F79A
  8
YODOROGO
 10
28040.913204016892
 20
1659.749496429288
 30
0.0
 11
28040.913204016892
 21
1683.7494964292871
 31
0.0
  0
LINE
  5
F79B
  8
YODOROGO
 10
27977.604341291921
 20
1683.7494964292871
 30
0.0
 11
27977.604341291921
 21
1667.749496429285
 31
0.0
  0
LINE
  5
F79C
  8
YODOROGO
 10
28098.135520230931
 20
1707.749496429288
 30
0.0
 11
28098.135520230931
 21
1655.5036372746561
 31
0.0
1001
AUTOCAD_POSTSCRIPT_FIGURE
1002
{
1000
PSFILL
1000
Grayscale
1000
Grayscale
1070
   100
1002
}
  0
LINE
  5
F79D
  8
YODOROGO
 10
28082.135520230921
 20
1655.5036372746561
 30
0.0
 11
28082.135520230921
 21
1707.749496429288
 31
0.0
1001
AUTOCAD_POSTSCRIPT_FIGURE
1002
{
1000
PSFILL
1000
Grayscale
1000
Grayscale
1070
   100
1002
}
  0
LINE
  5
F79E
  8
YODOROGO
 10
27809.604341291921
 20
1608.771904043258
 30
0.0
 11
27809.604341291921
 21
1632.771904043258
 31
0.0
  0
LINE
  5
F79F
  8
YODOROGO
 10
27905.604341291921
 20
1608.771904043258
 30
0.0
 11
27809.604341291921
 21
1608.771904043258
 31
0.0
  0
LINE
  5
F7A0
  8
YODOROGO
 10
27905.604341291921
 20
1632.771904043258
 30
0.0
 11
27905.604341291921
 21
1608.771904043258
 31
0.0
  0
LINE
  5
F7A1
  8
YODOROGO
 10
27809.604341291921
 20
1632.771904043258
 30
0.0
 11
27905.604341291921
 21
1632.771904043258
 31
0.0
  0
LINE
  5
F7A2
  8
YODOROGO
 10
27824.509588915738
 20
1568.5028573704751
 30
0.0
 11
27785.604341291921
 21
1475.7494964292871
 31
0.0
1001
AUTOCAD_POSTSCRIPT_FIGURE
1002
{
1000
PSFILL
1000
Grayscale
1000
Grayscale
1070
   100
1002
}
  0
LINE
  5
F7A3
  8
YODOROGO
 10
27777.604341291921
 20
1568.5028573704751
 30
0.0
 11
27824.509588915738
 21
1568.5028573704751
 31
0.0
1001
AUTOCAD_POSTSCRIPT_FIGURE
1002
{
1000
PSFILL
1000
Grayscale
1000
Grayscale
1070
   100
1002
}
  0
LINE
  5
F7A4
  8
YODOROGO
 10
27777.604341291921
 20
1588.5028573704751
 30
0.0
 11
27777.604341291921
 21
1568.5028573704751
 31
0.0
1001
AUTOCAD_POSTSCRIPT_FIGURE
1002
{
1000
PSFILL
1000
Grayscale
1000
Grayscale
1070
   100
1002
}
  0
LINE
  5
F7A5
  8
YODOROGO
 10
27937.604341291921
 20
1588.5028573704751
 30
0.0
 11
27777.604341291921
 21
1588.5028573704751
 31
0.0
1001
AUTOCAD_POSTSCRIPT_FIGURE
1002
{
1000
PSFILL
1000
Grayscale
1000
Grayscale
1070
   100
1002
}
  0
LINE
  5
F7A6
  8
YODOROGO
 10
27937.604341291921
 20
1568.5028573704751
 30
0.0
 11
27937.604341291921
 21
1588.5028573704751
 31
0.0
1001
AUTOCAD_POSTSCRIPT_FIGURE
1002
{
1000
PSFILL
1000
Grayscale
1000
Grayscale
1070
   100
1002
}
  0
LINE
  5
F7A7
  8
YODOROGO
 10
27844.509588915738
 20
1568.5028573704751
 30
0.0
 11
27937.604341291921
 21
1568.5028573704751
 31
0.0
1001
AUTOCAD_POSTSCRIPT_FIGURE
1002
{
1000
PSFILL
1000
Grayscale
1000
Grayscale
1070
   100
1002
}
  0
LINE
  5
F7A8
  8
YODOROGO
 10
27815.546718284771
 20
1495.7494964292871
 30
0.0
 11
27844.509588915738
 21
1568.5028573704751
 31
0.0
1001
AUTOCAD_POSTSCRIPT_FIGURE
1002
{
1000
PSFILL
1000
Grayscale
1000
Grayscale
1070
   100
1002
}
  0
LINE
  5
F7A9
  8
YODOROGO
 10
27902.054790808648
 20
1495.7494964292871
 30
0.0
 11
27815.546718284771
 21
1495.7494964292871
 31
0.0
1001
AUTOCAD_POSTSCRIPT_FIGURE
1002
{
1000
PSFILL
1000
Grayscale
1000
Grayscale
1070
   100
1002
}
  0
LINE
  5
F7AA
  8
YODOROGO
 10
27885.065004790951
 20
1536.2338106976929
 30
0.0
 11
27902.054790808648
 21
1495.7494964292871
 31
0.0
1001
AUTOCAD_POSTSCRIPT_FIGURE
1002
{
1000
PSFILL
1000
Grayscale
1000
Grayscale
1070
   100
1002
}
  0
LINE
  5
F7AB
  8
YODOROGO
 10
27901.065004790951
 20
1536.2338106976929
 30
0.0
 11
27885.065004790951
 21
1536.2338106976929
 31
0.0
1001
AUTOCAD_POSTSCRIPT_FIGURE
1002
{
1000
PSFILL
1000
Grayscale
1000
Grayscale
1070
   100
1002
}
  0
LINE
  5
F7AC
  8
YODOROGO
 10
27929.604341291921
 20
1475.7494964292871
 30
0.0
 11
27901.065004790951
 21
1536.2338106976929
 31
0.0
1001
AUTOCAD_POSTSCRIPT_FIGURE
1002
{
1000
PSFILL
1000
Grayscale
1000
Grayscale
1070
   100
1002
}
  0
LINE
  5
F7AD
  8
YODOROGO
 10
27785.604341291921
 20
1475.7494964292871
 30
0.0
 11
27929.604341291921
 21
1475.7494964292871
 31
0.0
1001
AUTOCAD_POSTSCRIPT_FIGURE
1002
{
1000
PSFILL
1000
Grayscale
1000
Grayscale
1070
   100
1002
}
  0
LINE
  5
F7AE
  8
YODOROGO
 10
27777.604341291921
 20
1619.9724140445701
 30
0.0
 11
27777.604341291921
 21
1643.9724140445701
 31
0.0
  0
LINE
  5
F7AF
  8
YODOROGO
 10
27937.604341291921
 20
1643.9724140445701
 30
0.0
 11
27937.604341291921
 21
1619.9724140445701
 31
0.0
  0
ARC
  5
F7B0
  8
YODOROGO
 10
28225.940442146959
 20
1600.877765325326
 30
0.0
 40
175.9999999999998
 50
280.3644312771313
 51
3.5414836592180561
  0
ARC
  5
F7B1
  8
YODOROGO
 10
28235.756030759301
 20
1633.5978069619041
 30
0.0
 40
111.9999999999982
 50
281.24905825041549
 51
348.75094174958321
  0
LINE
  5
F7B2
  8
YODOROGO
 10
28257.604341291921
 20
1523.7494964292871
 30
0.0
 11
28257.604341291921
 21
1427.749496429288
 31
0.0
  0
LINE
  5
F7B3
  8
YODOROGO
 10
28020.088903736909
 20
1610.650565061914
 30
0.0
 11
28040.913204016892
 21
1659.749496429288
 31
0.0
  0
LINE
  5
F7B4
  8
YODOROGO
 10
28041.604341291921
 20
1583.120489948401
 30
0.0
 11
28020.088903736909
 21
1610.650565061914
 31
0.0
  0
LINE
  5
F7B5
  8
YODOROGO
 10
28041.604341291921
 20
1563.120489948398
 30
0.0
 11
28041.604341291921
 21
1583.120489948401
 31
0.0
  0
LINE
  5
F7B6
  8
YODOROGO
 10
28017.604341291921
 20
1585.2370637495301
 30
0.0
 11
28041.604341291921
 21
1563.120489948398
 31
0.0
  0
LINE
  5
F7B7
  8
YODOROGO
 10
28017.604341291921
 20
1475.7494964292871
 30
0.0
 11
28017.604341291921
 21
1585.2370637495301
 31
0.0
  0
LINE
  5
F7B8
  8
YODOROGO
 10
28001.604341291921
 20
1475.7494964292871
 30
0.0
 11
28017.604341291921
 21
1475.7494964292871
 31
0.0
  0
LINE
  5
F7B9
  8
YODOROGO
 10
28001.604341291921
 20
1580.0053496897469
 30
0.0
 11
28001.604341291921
 21
1475.7494964292871
 31
0.0
  0
LINE
  5
F7BA
  8
YODOROGO
 10
27977.604341291921
 20
1532.7680790334291
 30
0.0
 11
28001.604341291921
 21
1580.0053496897469
 31
0.0
  0
LINE
  5
F7BB
  8
YODOROGO
 10
27977.604341291921
 20
1556.76807903343
 30
0.0
 11
27977.604341291921
 21
1532.7680790334291
 31
0.0
  0
LINE
  5
F7BC
  8
YODOROGO
 10
28025.828774291349
 20
1667.749496429285
 30
0.0
 11
27977.604341291921
 21
1556.76807903343
 31
0.0
  0
LINE
  5
F7BD
  8
YODOROGO
 10
27977.604341291921
 20
1667.749496429285
 30
0.0
 11
28025.828774291349
 21
1667.749496429285
 31
0.0
  0
LINE
  5
F7BE
  8
YODOROGO
 10
28050.135520230899
 20
1655.5036372746561
 30
0.0
 11
28082.135520230921
 21
1655.5036372746561
 31
0.0
1001
AUTOCAD_POSTSCRIPT_FIGURE
1002
{
1000
PSFILL
1000
Grayscale
1000
Grayscale
1070
   100
1002
}
  0
LINE
  5
F7BF
  8
YODOROGO
 10
28050.135520230899
 20
1631.5036372746561
 30
0.0
 11
28050.135520230899
 21
1655.5036372746561
 31
0.0
1001
AUTOCAD_POSTSCRIPT_FIGURE
1002
{
1000
PSFILL
1000
Grayscale
1000
Grayscale
1070
   100
1002
}
  0
LINE
  5
F7C0
  8
YODOROGO
 10
28082.135520230921
 20
1631.5036372746561
 30
0.0
 11
28050.135520230899
 21
1631.5036372746561
 31
0.0
1001
AUTOCAD_POSTSCRIPT_FIGURE
1002
{
1000
PSFILL
1000
Grayscale
1000
Grayscale
1070
   100
1002
}
  0
LINE
  5
F7C1
  8
YODOROGO
 10
28082.135520230921
 20
1499.749496429288
 30
0.0
 11
28082.135520230921
 21
1631.5036372746561
 31
0.0
1001
AUTOCAD_POSTSCRIPT_FIGURE
1002
{
1000
PSFILL
1000
Grayscale
1000
Grayscale
1070
   100
1002
}
  0
LINE
  5
F7C2
  8
YODOROGO
 10
28050.135520230921
 20
1499.749496429288
 30
0.0
 11
28082.135520230921
 21
1499.749496429288
 31
0.0
1001
AUTOCAD_POSTSCRIPT_FIGURE
1002
{
1000
PSFILL
1000
Grayscale
1000
Grayscale
1070
   100
1002
}
  0
LINE
  5
F7C3
  8
YODOROGO
 10
28050.135520230921
 20
1475.7494964292871
 30
0.0
 11
28050.135520230921
 21
1499.749496429288
 31
0.0
1001
AUTOCAD_POSTSCRIPT_FIGURE
1002
{
1000
PSFILL
1000
Grayscale
1000
Grayscale
1070
   100
1002
}
  0
LINE
  5
F7C4
  8
YODOROGO
 10
28137.604341291921
 20
1475.7494964292871
 30
0.0
 11
28050.135520230921
 21
1475.7494964292871
 31
0.0
1001
AUTOCAD_POSTSCRIPT_FIGURE
1002
{
1000
PSFILL
1000
Grayscale
1000
Grayscale
1070
   100
1002
}
  0
LINE
  5
F7C5
  8
YODOROGO
 10
28137.604341291921
 20
1499.749496429288
 30
0.0
 11
28137.604341291921
 21
1475.7494964292871
 31
0.0
1001
AUTOCAD_POSTSCRIPT_FIGURE
1002
{
1000
PSFILL
1000
Grayscale
1000
Grayscale
1070
   100
1002
}
  0
LINE
  5
F7C6
  8
YODOROGO
 10
28098.135520230931
 20
1499.749496429288
 30
0.0
 11
28137.604341291921
 21
1499.749496429288
 31
0.0
1001
AUTOCAD_POSTSCRIPT_FIGURE
1002
{
1000
PSFILL
1000
Grayscale
1000
Grayscale
1070
   100
1002
}
  0
LINE
  5
F7C7
  8
YODOROGO
 10
28098.135520230931
 20
1631.5036372746561
 30
0.0
 11
28098.135520230931
 21
1499.749496429288
 31
0.0
1001
AUTOCAD_POSTSCRIPT_FIGURE
1002
{
1000
PSFILL
1000
Grayscale
1000
Grayscale
1070
   100
1002
}
  0
LINE
  5
F7C8
  8
YODOROGO
 10
28137.604341291921
 20
1631.5036372746561
 30
0.0
 11
28098.135520230931
 21
1631.5036372746561
 31
0.0
1001
AUTOCAD_POSTSCRIPT_FIGURE
1002
{
1000
PSFILL
1000
Grayscale
1000
Grayscale
1070
   100
1002
}
  0
LINE
  5
F7C9
  8
YODOROGO
 10
28137.604341291921
 20
1655.5036372746561
 30
0.0
 11
28137.604341291921
 21
1631.5036372746561
 31
0.0
1001
AUTOCAD_POSTSCRIPT_FIGURE
1002
{
1000
PSFILL
1000
Grayscale
1000
Grayscale
1070
   100
1002
}
  0
LINE
  5
F7CA
  8
YODOROGO
 10
28098.135520230931
 20
1655.5036372746561
 30
0.0
 11
28137.604341291921
 21
1655.5036372746561
 31
0.0
1001
AUTOCAD_POSTSCRIPT_FIGURE
1002
{
1000
PSFILL
1000
Grayscale
1000
Grayscale
1070
   100
1002
}
  0
LINE
  5
F7CB
  8
YODOROGO
 10
28401.60434129191
 20
1667.749496429288
 30
0.0
 11
28345.604341291921
 21
1667.749496429288
 31
0.0
  0
LINE
  5
F7CC
  8
YODOROGO
 10
28401.60434129191
 20
1611.749496429288
 30
0.0
 11
28401.60434129191
 21
1667.749496429288
 31
0.0
  0
LINE
  5
F7CD
  8
YODOROGO
 10
28345.604341291921
 20
1667.749496429288
 30
0.0
 11
28345.604341291921
 21
1611.749496429288
 31
0.0
  0
ARC
  5
F7CE
  8
YODOROGO
 10
28513.60434129191
 20
1507.749496429288
 30
0.0
 40
80.0
 50
180.0
 51
270.0
  0
ARC
  5
F7CF
  8
YODOROGO
 10
28537.604341291921
 20
1563.7494964292871
 30
0.0
 40
40.0
 50
180.0
 51
270.0
  0
LINE
  5
F7D0
  8
YODOROGO
 10
28561.604341291932
 20
1523.7494964292871
 30
0.0
 11
28537.604341291921
 21
1523.7494964292871
 31
0.0
  0
ARC
  5
F7D1
  8
YODOROGO
 10
28561.604341291932
 20
1547.749496429285
 30
0.0
 40
23.999999999996358
 50
270.0
 51
0.0000000000054281
  0
LINE
  5
F7D2
  8
YODOROGO
 10
27801.604341291921
 20
1890.786580793706
 30
0.0
 11
27777.604341291921
 21
1843.776747951672
 31
0.0
1001
AUTOCAD_POSTSCRIPT_FIGURE
1002
{
1000
PSFILL
1000
Grayscale
1000
Grayscale
1070
   100
1002
}
  0
LINE
  5
F7D3
  8
YODOROGO
 10
27801.604341291921
 20
1747.749496429286
 30
0.0
 11
27801.604341291921
 21
1890.786580793706
 31
0.0
1001
AUTOCAD_POSTSCRIPT_FIGURE
1002
{
1000
PSFILL
1000
Grayscale
1000
Grayscale
1070
   100
1002
}
  0
LINE
  5
F7D4
  8
YODOROGO
 10
27817.604341291921
 20
1747.749496429286
 30
0.0
 11
27801.604341291921
 21
1747.749496429286
 31
0.0
1001
AUTOCAD_POSTSCRIPT_FIGURE
1002
{
1000
PSFILL
1000
Grayscale
1000
Grayscale
1070
   100
1002
}
  0
LINE
  5
F7D5
  8
YODOROGO
 10
27817.604341291921
 20
1893.7713320852661
 30
0.0
 11
27817.604341291921
 21
1747.749496429286
 31
0.0
1001
AUTOCAD_POSTSCRIPT_FIGURE
1002
{
1000
PSFILL
1000
Grayscale
1000
Grayscale
1070
   100
1002
}
  0
LINE
  5
F7D6
  8
YODOROGO
 10
27841.604341291921
 20
1867.6547582841361
 30
0.0
 11
27817.604341291921
 21
1893.7713320852661
 31
0.0
1001
AUTOCAD_POSTSCRIPT_FIGURE
1002
{
1000
PSFILL
1000
Grayscale
1000
Grayscale
1070
   100
1002
}
  0
LINE
  5
F7D7
  8
YODOROGO
 10
27841.604341291921
 20
1883.6547582841361
 30
0.0
 11
27841.604341291921
 21
1867.6547582841361
 31
0.0
1001
AUTOCAD_POSTSCRIPT_FIGURE
1002
{
1000
PSFILL
1000
Grayscale
1000
Grayscale
1070
   100
1002
}
  0
LINE
  5
F7D8
  8
YODOROGO
 10
27817.604341291921
 20
1917.7713320852649
 30
0.0
 11
27841.604341291921
 21
1883.6547582841361
 31
0.0
1001
AUTOCAD_POSTSCRIPT_FIGURE
1002
{
1000
PSFILL
1000
Grayscale
1000
Grayscale
1070
   100
1002
}
  0
LINE
  5
F7D9
  8
YODOROGO
 10
27817.604341291921
 20
1939.749496429288
 30
0.0
 11
27817.604341291921
 21
1917.7713320852649
 31
0.0
1001
AUTOCAD_POSTSCRIPT_FIGURE
1002
{
1000
PSFILL
1000
Grayscale
1000
Grayscale
1070
   100
1002
}
  0
LINE
  5
F7DA
  8
YODOROGO
 10
27889.604341291921
 20
1939.749496429288
 30
0.0
 11
27817.604341291921
 21
1939.749496429288
 31
0.0
1001
AUTOCAD_POSTSCRIPT_FIGURE
1002
{
1000
PSFILL
1000
Grayscale
1000
Grayscale
1070
   100
1002
}
  0
LINE
  5
F7DB
  8
YODOROGO
 10
27889.604341291921
 20
1900.5683489363
 30
0.0
 11
27889.604341291921
 21
1939.749496429288
 31
0.0
1001
AUTOCAD_POSTSCRIPT_FIGURE
1002
{
1000
PSFILL
1000
Grayscale
1000
Grayscale
1070
   100
1002
}
  0
LINE
  5
F7DC
  8
YODOROGO
 10
27857.604341291921
 20
1900.5683489363
 30
0.0
 11
27889.604341291921
 21
1900.5683489363
 31
0.0
1001
AUTOCAD_POSTSCRIPT_FIGURE
1002
{
1000
PSFILL
1000
Grayscale
1000
Grayscale
1070
   100
1002
}
  0
LINE
  5
F7DD
  8
YODOROGO
 10
27857.604341291921
 20
1884.568348936298
 30
0.0
 11
27857.604341291921
 21
1900.5683489363
 31
0.0
1001
AUTOCAD_POSTSCRIPT_FIGURE
1002
{
1000
PSFILL
1000
Grayscale
1000
Grayscale
1070
   100
1002
}
  0
LINE
  5
F7DE
  8
YODOROGO
 10
27889.604341291921
 20
1884.568348936298
 30
0.0
 11
27857.604341291921
 21
1884.568348936298
 31
0.0
1001
AUTOCAD_POSTSCRIPT_FIGURE
1002
{
1000
PSFILL
1000
Grayscale
1000
Grayscale
1070
   100
1002
}
  0
LINE
  5
F7DF
  8
YODOROGO
 10
27889.604341291921
 20
1879.6191779644371
 30
0.0
 11
27889.604341291921
 21
1884.568348936298
 31
0.0
1001
AUTOCAD_POSTSCRIPT_FIGURE
1002
{
1000
PSFILL
1000
Grayscale
1000
Grayscale
1070
   100
1002
}
  0
LINE
  5
F7E0
  8
YODOROGO
 10
27849.604341291921
 20
1812.974981161417
 30
0.0
 11
27889.604341291921
 21
1879.6191779644371
 31
0.0
1001
AUTOCAD_POSTSCRIPT_FIGURE
1002
{
1000
PSFILL
1000
Grayscale
1000
Grayscale
1070
   100
1002
}
  0
LINE
  5
F7E1
  8
YODOROGO
 10
27849.604341291921
 20
1796.9749811614161
 30
0.0
 11
27849.604341291921
 21
1812.974981161417
 31
0.0
1001
AUTOCAD_POSTSCRIPT_FIGURE
1002
{
1000
PSFILL
1000
Grayscale
1000
Grayscale
1070
   100
1002
}
  0
LINE
  5
F7E2
  8
YODOROGO
 10
27889.604341291921
 20
1847.6191779644359
 30
0.0
 11
27849.604341291921
 21
1796.9749811614161
 31
0.0
1001
AUTOCAD_POSTSCRIPT_FIGURE
1002
{
1000
PSFILL
1000
Grayscale
1000
Grayscale
1070
   100
1002
}
  0
LINE
  5
F7E3
  8
YODOROGO
 10
27889.604341291921
 20
1747.749496429286
 30
0.0
 11
27889.604341291921
 21
1847.6191779644359
 31
0.0
1001
AUTOCAD_POSTSCRIPT_FIGURE
1002
{
1000
PSFILL
1000
Grayscale
1000
Grayscale
1070
   100
1002
}
  0
LINE
  5
F7E4
  8
YODOROGO
 10
27905.604341291921
 20
1747.749496429286
 30
0.0
 11
27889.604341291921
 21
1747.749496429286
 31
0.0
1001
AUTOCAD_POSTSCRIPT_FIGURE
1002
{
1000
PSFILL
1000
Grayscale
1000
Grayscale
1070
   100
1002
}
  0
LINE
  5
F7E5
  8
YODOROGO
 10
27905.604341291921
 20
1849.409012158806
 30
0.0
 11
27905.604341291921
 21
1747.749496429286
 31
0.0
1001
AUTOCAD_POSTSCRIPT_FIGURE
1002
{
1000
PSFILL
1000
Grayscale
1000
Grayscale
1070
   100
1002
}
  0
LINE
  5
F7E6
  8
YODOROGO
 10
27937.604341291921
 20
1796.9749811614161
 30
0.0
 11
27905.604341291921
 21
1849.409012158806
 31
0.0
1001
AUTOCAD_POSTSCRIPT_FIGURE
1002
{
1000
PSFILL
1000
Grayscale
1000
Grayscale
1070
   100
1002
}
  0
LINE
  5
F7E7
  8
YODOROGO
 10
27937.604341291921
 20
1812.974981161417
 30
0.0
 11
27937.604341291921
 21
1796.9749811614161
 31
0.0
1001
AUTOCAD_POSTSCRIPT_FIGURE
1002
{
1000
PSFILL
1000
Grayscale
1000
Grayscale
1070
   100
1002
}
  0
LINE
  5
F7E8
  8
YODOROGO
 10
27905.604341291921
 20
1881.4090121588081
 30
0.0
 11
27937.604341291921
 21
1812.974981161417
 31
0.0
1001
AUTOCAD_POSTSCRIPT_FIGURE
1002
{
1000
PSFILL
1000
Grayscale
1000
Grayscale
1070
   100
1002
}
  0
LINE
  5
F7E9
  8
YODOROGO
 10
27905.604341291921
 20
1884.5683489363
 30
0.0
 11
27905.604341291921
 21
1881.4090121588081
 31
0.0
1001
AUTOCAD_POSTSCRIPT_FIGURE
1002
{
1000
PSFILL
1000
Grayscale
1000
Grayscale
1070
   100
1002
}
  0
LINE
  5
F7EA
  8
YODOROGO
 10
27937.604341291921
 20
1884.568348936298
 30
0.0
 11
27905.604341291921
 21
1884.5683489363
 31
0.0
1001
AUTOCAD_POSTSCRIPT_FIGURE
1002
{
1000
PSFILL
1000
Grayscale
1000
Grayscale
1070
   100
1002
}
  0
LINE
  5
F7EB
  8
YODOROGO
 10
27937.604341291921
 20
1900.5683489363
 30
0.0
 11
27937.604341291921
 21
1884.568348936298
 31
0.0
1001
AUTOCAD_POSTSCRIPT_FIGURE
1002
{
1000
PSFILL
1000
Grayscale
1000
Grayscale
1070
   100
1002
}
  0
LINE
  5
F7EC
  8
YODOROGO
 10
27905.604341291921
 20
1900.5683489363
 30
0.0
 11
27937.604341291921
 21
1900.5683489363
 31
0.0
1001
AUTOCAD_POSTSCRIPT_FIGURE
1002
{
1000
PSFILL
1000
Grayscale
1000
Grayscale
1070
   100
1002
}
  0
LINE
  5
F7ED
  8
YODOROGO
 10
27905.604341291921
 20
1939.749496429288
 30
0.0
 11
27905.604341291921
 21
1900.5683489363
 31
0.0
1001
AUTOCAD_POSTSCRIPT_FIGURE
1002
{
1000
PSFILL
1000
Grayscale
1000
Grayscale
1070
   100
1002
}
  0
LINE
  5
F7EE
  8
YODOROGO
 10
27937.604341291921
 20
1939.749496429288
 30
0.0
 11
27905.604341291921
 21
1939.749496429288
 31
0.0
1001
AUTOCAD_POSTSCRIPT_FIGURE
1002
{
1000
PSFILL
1000
Grayscale
1000
Grayscale
1070
   100
1002
}
  0
LINE
  5
F7EF
  8
YODOROGO
 10
27937.604341291921
 20
1955.7494964292871
 30
0.0
 11
27937.604341291921
 21
1939.749496429288
 31
0.0
1001
AUTOCAD_POSTSCRIPT_FIGURE
1002
{
1000
PSFILL
1000
Grayscale
1000
Grayscale
1070
   100
1002
}
  0
LINE
  5
F7F0
  8
YODOROGO
 10
27905.604341291921
 20
1955.7494964292871
 30
0.0
 11
27937.604341291921
 21
1955.7494964292871
 31
0.0
1001
AUTOCAD_POSTSCRIPT_FIGURE
1002
{
1000
PSFILL
1000
Grayscale
1000
Grayscale
1070
   100
1002
}
  0
LINE
  5
F7F1
  8
YODOROGO
 10
27905.604341291921
 20
1979.749496429288
 30
0.0
 11
27905.604341291921
 21
1955.7494964292871
 31
0.0
1001
AUTOCAD_POSTSCRIPT_FIGURE
1002
{
1000
PSFILL
1000
Grayscale
1000
Grayscale
1070
   100
1002
}
  0
LINE
  5
F7F2
  8
YODOROGO
 10
27889.604341291921
 20
1979.749496429288
 30
0.0
 11
27905.604341291921
 21
1979.749496429288
 31
0.0
1001
AUTOCAD_POSTSCRIPT_FIGURE
1002
{
1000
PSFILL
1000
Grayscale
1000
Grayscale
1070
   100
1002
}
  0
LINE
  5
F7F3
  8
YODOROGO
 10
27889.604341291921
 20
1955.7494964292871
 30
0.0
 11
27889.604341291921
 21
1979.749496429288
 31
0.0
1001
AUTOCAD_POSTSCRIPT_FIGURE
1002
{
1000
PSFILL
1000
Grayscale
1000
Grayscale
1070
   100
1002
}
  0
LINE
  5
F7F4
  8
YODOROGO
 10
27865.604341291921
 20
1955.7494964292871
 30
0.0
 11
27889.604341291921
 21
1955.7494964292871
 31
0.0
1001
AUTOCAD_POSTSCRIPT_FIGURE
1002
{
1000
PSFILL
1000
Grayscale
1000
Grayscale
1070
   100
1002
}
  0
LINE
  5
F7F5
  8
YODOROGO
 10
27865.604341291921
 20
1979.749496429288
 30
0.0
 11
27865.604341291921
 21
1955.7494964292871
 31
0.0
1001
AUTOCAD_POSTSCRIPT_FIGURE
1002
{
1000
PSFILL
1000
Grayscale
1000
Grayscale
1070
   100
1002
}
  0
LINE
  5
F7F6
  8
YODOROGO
 10
27849.604341291921
 20
1979.749496429288
 30
0.0
 11
27865.604341291921
 21
1979.749496429288
 31
0.0
1001
AUTOCAD_POSTSCRIPT_FIGURE
1002
{
1000
PSFILL
1000
Grayscale
1000
Grayscale
1070
   100
1002
}
  0
LINE
  5
F7F7
  8
YODOROGO
 10
27849.604341291921
 20
1955.7494964292871
 30
0.0
 11
27849.604341291921
 21
1979.749496429288
 31
0.0
1001
AUTOCAD_POSTSCRIPT_FIGURE
1002
{
1000
PSFILL
1000
Grayscale
1000
Grayscale
1070
   100
1002
}
  0
LINE
  5
F7F8
  8
YODOROGO
 10
27817.604341291921
 20
1955.7494964292871
 30
0.0
 11
27849.604341291921
 21
1955.7494964292871
 31
0.0
1001
AUTOCAD_POSTSCRIPT_FIGURE
1002
{
1000
PSFILL
1000
Grayscale
1000
Grayscale
1070
   100
1002
}
  0
LINE
  5
F7F9
  8
YODOROGO
 10
27817.604341291921
 20
1979.749496429288
 30
0.0
 11
27817.604341291921
 21
1955.7494964292871
 31
0.0
1001
AUTOCAD_POSTSCRIPT_FIGURE
1002
{
1000
PSFILL
1000
Grayscale
1000
Grayscale
1070
   100
1002
}
  0
LINE
  5
F7FA
  8
YODOROGO
 10
27801.604341291921
 20
1979.749496429288
 30
0.0
 11
27817.604341291921
 21
1979.749496429288
 31
0.0
1001
AUTOCAD_POSTSCRIPT_FIGURE
1002
{
1000
PSFILL
1000
Grayscale
1000
Grayscale
1070
   100
1002
}
  0
LINE
  5
F7FB
  8
YODOROGO
 10
27801.604341291921
 20
1955.7494964292871
 30
0.0
 11
27801.604341291921
 21
1979.749496429288
 31
0.0
1001
AUTOCAD_POSTSCRIPT_FIGURE
1002
{
1000
PSFILL
1000
Grayscale
1000
Grayscale
1070
   100
1002
}
  0
LINE
  5
F7FC
  8
YODOROGO
 10
27777.604341291921
 20
1955.7494964292871
 30
0.0
 11
27801.604341291921
 21
1955.7494964292871
 31
0.0
1001
AUTOCAD_POSTSCRIPT_FIGURE
1002
{
1000
PSFILL
1000
Grayscale
1000
Grayscale
1070
   100
1002
}
  0
LINE
  5
F7FD
  8
YODOROGO
 10
27777.604341291921
 20
1939.749496429288
 30
0.0
 11
27777.604341291921
 21
1955.7494964292871
 31
0.0
1001
AUTOCAD_POSTSCRIPT_FIGURE
1002
{
1000
PSFILL
1000
Grayscale
1000
Grayscale
1070
   100
1002
}
  0
LINE
  5
F7FE
  8
YODOROGO
 10
27801.604341291921
 20
1939.749496429288
 30
0.0
 11
27777.604341291921
 21
1939.749496429288
 31
0.0
1001
AUTOCAD_POSTSCRIPT_FIGURE
1002
{
1000
PSFILL
1000
Grayscale
1000
Grayscale
1070
   100
1002
}
  0
LINE
  5
F7FF
  8
YODOROGO
 10
27801.604341291921
 20
1914.7865807937051
 30
0.0
 11
27801.604341291921
 21
1939.749496429288
 31
0.0
1001
AUTOCAD_POSTSCRIPT_FIGURE
1002
{
1000
PSFILL
1000
Grayscale
1000
Grayscale
1070
   100
1002
}
  0
LINE
  5
F800
  8
YODOROGO
 10
27777.604341291921
 20
1859.776747951671
 30
0.0
 11
27801.604341291921
 21
1914.7865807937051
 31
0.0
1001
AUTOCAD_POSTSCRIPT_FIGURE
1002
{
1000
PSFILL
1000
Grayscale
1000
Grayscale
1070
   100
1002
}
  0
LINE
  5
F801
  8
YODOROGO
 10
27777.604341291921
 20
1843.776747951672
 30
0.0
 11
27777.604341291921
 21
1859.776747951671
 31
0.0
1001
AUTOCAD_POSTSCRIPT_FIGURE
1002
{
1000
PSFILL
1000
Grayscale
1000
Grayscale
1070
   100
1002
}
  0
LINE
  5
F802
  8
YODOROGO
 10
28257.604341291921
 20
1867.7494964292871
 30
0.0
 11
28401.60434129191
 21
1824.877625640306
 31
0.0
1001
AUTOCAD_POSTSCRIPT_FIGURE
1002
{
1000
PSFILL
1000
Grayscale
1000
Grayscale
1070
   100
1002
}
  0
LINE
  5
F803
  8
YODOROGO
 10
28401.60434129191
 20
1752.877625640306
 30
0.0
 11
28257.604341291921
 21
1795.7494964292871
 31
0.0
1001
AUTOCAD_POSTSCRIPT_FIGURE
1002
{
1000
PSFILL
1000
Grayscale
1000
Grayscale
1070
   100
1002
}
  0
LINE
  5
F804
  8
YODOROGO
 10
28401.60434129191
 20
1984.877625640306
 30
0.0
 11
28257.604341291921
 21
2027.749496429288
 31
0.0
1001
AUTOCAD_POSTSCRIPT_FIGURE
1002
{
1000
PSFILL
1000
Grayscale
1000
Grayscale
1070
   100
1002
}
  0
LINE
  5
F805
  8
YODOROGO
 10
28257.604341291921
 20
1959.749496429288
 30
0.0
 11
28401.60434129191
 21
1916.8776256403071
 31
0.0
1001
AUTOCAD_POSTSCRIPT_FIGURE
1002
{
1000
PSFILL
1000
Grayscale
1000
Grayscale
1070
   100
1002
}
  0
LINE
  5
F806
  8
YODOROGO
 10
28257.604341291921
 20
1795.7494964292871
 30
0.0
 11
28257.604341291921
 21
1867.7494964292871
 31
0.0
1001
AUTOCAD_POSTSCRIPT_FIGURE
1002
{
1000
PSFILL
1000
Grayscale
1000
Grayscale
1070
   100
1002
}
  0
LINE
  5
F807
  8
YODOROGO
 10
28257.604341291921
 20
2027.749496429288
 30
0.0
 11
28257.604341291921
 21
1959.749496429288
 31
0.0
1001
AUTOCAD_POSTSCRIPT_FIGURE
1002
{
1000
PSFILL
1000
Grayscale
1000
Grayscale
1070
   100
1002
}
  0
LINE
  5
F808
  8
YODOROGO
 10
28080.236320206739
 20
1939.749496429288
 30
0.0
 11
28129.60434129191
 21
1747.749496429286
 31
0.0
1001
AUTOCAD_POSTSCRIPT_FIGURE
1002
{
1000
PSFILL
1000
Grayscale
1000
Grayscale
1070
   100
1002
}
  0
LINE
  5
F809
  8
YODOROGO
 10
27977.604341291921
 20
1939.749496429288
 30
0.0
 11
28080.236320206739
 21
1939.749496429288
 31
0.0
1001
AUTOCAD_POSTSCRIPT_FIGURE
1002
{
1000
PSFILL
1000
Grayscale
1000
Grayscale
1070
   100
1002
}
  0
LINE
  5
F80A
  8
YODOROGO
 10
27977.604341291921
 20
1955.7494964292871
 30
0.0
 11
27977.604341291921
 21
1939.749496429288
 31
0.0
1001
AUTOCAD_POSTSCRIPT_FIGURE
1002
{
1000
PSFILL
1000
Grayscale
1000
Grayscale
1070
   100
1002
}
  0
LINE
  5
F80B
  8
YODOROGO
 10
28076.60687851991
 20
1955.7494964292871
 30
0.0
 11
27977.604341291921
 21
1955.7494964292871
 31
0.0
1001
AUTOCAD_POSTSCRIPT_FIGURE
1002
{
1000
PSFILL
1000
Grayscale
1000
Grayscale
1070
   100
1002
}
  0
LINE
  5
F80C
  8
YODOROGO
 10
28071.162715989711
 20
1979.749496429288
 30
0.0
 11
28076.60687851991
 21
1955.7494964292871
 31
0.0
1001
AUTOCAD_POSTSCRIPT_FIGURE
1002
{
1000
PSFILL
1000
Grayscale
1000
Grayscale
1070
   100
1002
}
  0
LINE
  5
F80D
  8
YODOROGO
 10
28091.162715989711
 20
1979.749496429288
 30
0.0
 11
28071.162715989711
 21
1979.749496429288
 31
0.0
1001
AUTOCAD_POSTSCRIPT_FIGURE
1002
{
1000
PSFILL
1000
Grayscale
1000
Grayscale
1070
   100
1002
}
  0
LINE
  5
F80E
  8
YODOROGO
 10
28095.806878519939
 20
1955.7494964292871
 30
0.0
 11
28091.162715989711
 21
1979.749496429288
 31
0.0
1001
AUTOCAD_POSTSCRIPT_FIGURE
1002
{
1000
PSFILL
1000
Grayscale
1000
Grayscale
1070
   100
1002
}
  0
LINE
  5
F80F
  8
YODOROGO
 10
28121.604341291921
 20
1955.7494964292871
 30
0.0
 11
28095.806878519939
 21
1955.7494964292871
 31
0.0
1001
AUTOCAD_POSTSCRIPT_FIGURE
1002
{
1000
PSFILL
1000
Grayscale
1000
Grayscale
1070
   100
1002
}
  0
LINE
  5
F810
  8
YODOROGO
 10
28121.604341291921
 20
1979.749496429288
 30
0.0
 11
28121.604341291921
 21
1955.7494964292871
 31
0.0
1001
AUTOCAD_POSTSCRIPT_FIGURE
1002
{
1000
PSFILL
1000
Grayscale
1000
Grayscale
1070
   100
1002
}
  0
LINE
  5
F811
  8
YODOROGO
 10
28137.604341291921
 20
1979.749496429288
 30
0.0
 11
28121.604341291921
 21
1979.749496429288
 31
0.0
1001
AUTOCAD_POSTSCRIPT_FIGURE
1002
{
1000
PSFILL
1000
Grayscale
1000
Grayscale
1070
   100
1002
}
  0
LINE
  5
F812
  8
YODOROGO
 10
28137.604341291921
 20
1955.7494964292871
 30
0.0
 11
28137.604341291921
 21
1979.749496429288
 31
0.0
1001
AUTOCAD_POSTSCRIPT_FIGURE
1002
{
1000
PSFILL
1000
Grayscale
1000
Grayscale
1070
   100
1002
}
  0
LINE
  5
F813
  8
YODOROGO
 10
28137.604341291921
 20
1939.749496429288
 30
0.0
 11
28137.604341291921
 21
1955.7494964292871
 31
0.0
1001
AUTOCAD_POSTSCRIPT_FIGURE
1002
{
1000
PSFILL
1000
Grayscale
1000
Grayscale
1070
   100
1002
}
  0
LINE
  5
F814
  8
YODOROGO
 10
28098.902986873411
 20
1939.749496429288
 30
0.0
 11
28137.604341291921
 21
1939.749496429288
 31
0.0
1001
AUTOCAD_POSTSCRIPT_FIGURE
1002
{
1000
PSFILL
1000
Grayscale
1000
Grayscale
1070
   100
1002
}
  0
LINE
  5
F815
  8
YODOROGO
 10
28137.604341291921
 20
1747.749496429286
 30
0.0
 11
28098.902986873411
 21
1939.749496429288
 31
0.0
1001
AUTOCAD_POSTSCRIPT_FIGURE
1002
{
1000
PSFILL
1000
Grayscale
1000
Grayscale
1070
   100
1002
}
  0
LINE
  5
F816
  8
YODOROGO
 10
28129.60434129191
 20
1747.749496429286
 30
0.0
 11
28137.604341291921
 21
1747.749496429286
 31
0.0
1001
AUTOCAD_POSTSCRIPT_FIGURE
1002
{
1000
PSFILL
1000
Grayscale
1000
Grayscale
1070
   100
1002
}
  0
LINE
  5
F817
  8
YODOROGO
 10
28078.06921993379
 20
1775.7407762987939
 30
0.0
 11
27977.604341291921
 21
1747.749496429286
 31
0.0
  0
LINE
  5
F818
  8
YODOROGO
 10
28078.06921993379
 20
1798.6689795290731
 30
0.0
 11
28078.06921993379
 21
1775.7407762987939
 31
0.0
  0
LINE
  5
F819
  8
YODOROGO
 10
28033.83678061287
 20
1786.816933133767
 30
0.0
 11
28078.06921993379
 21
1798.6689795290731
 31
0.0
  0
LINE
  5
F81A
  8
YODOROGO
 10
28033.83678061287
 20
1872.5683489362989
 30
0.0
 11
28033.83678061287
 21
1786.816933133767
 31
0.0
  0
LINE
  5
F81B
  8
YODOROGO
 10
28078.06921993379
 20
1872.5683489362989
 30
0.0
 11
28033.83678061287
 21
1872.5683489362989
 31
0.0
  0
LINE
  5
F81C
  8
YODOROGO
 10
28078.06921993379
 20
1892.568348936298
 30
0.0
 11
28078.06921993379
 21
1872.5683489362989
 31
0.0
  0
LINE
  5
F81D
  8
YODOROGO
 10
27977.604341291921
 20
1892.568348936298
 30
0.0
 11
28078.06921993379
 21
1892.568348936298
 31
0.0
  0
LINE
  5
F81E
  8
YODOROGO
 10
27977.604341291921
 20
1872.5683489362989
 30
0.0
 11
27977.604341291921
 21
1892.568348936298
 31
0.0
  0
LINE
  5
F81F
  8
YODOROGO
 10
28021.836780612852
 20
1872.5683489362989
 30
0.0
 11
27977.604341291921
 21
1872.5683489362989
 31
0.0
  0
LINE
  5
F820
  8
YODOROGO
 10
28021.836780612852
 20
1784.673339594317
 30
0.0
 11
28021.836780612852
 21
1872.5683489362989
 31
0.0
  0
LINE
  5
F821
  8
YODOROGO
 10
27977.604341291921
 20
1771.749496429286
 30
0.0
 11
28021.836780612852
 21
1784.673339594317
 31
0.0
  0
LINE
  5
F822
  8
YODOROGO
 10
27977.604341291921
 20
1747.749496429286
 30
0.0
 11
27977.604341291921
 21
1771.749496429286
 31
0.0
  0
LINE
  5
F823
  8
YODOROGO
 10
28001.604341291921
 20
1707.749496429288
 30
0.0
 11
28001.604341291921
 21
1683.7494964292871
 31
0.0
  0
LINE
  5
F824
  8
YODOROGO
 10
28017.604341291921
 20
1707.749496429288
 30
0.0
 11
28001.604341291921
 21
1707.749496429288
 31
0.0
  0
LINE
  5
F825
  8
YODOROGO
 10
28017.604341291921
 20
1683.7494964292871
 30
0.0
 11
28017.604341291921
 21
1707.749496429288
 31
0.0
  0
LINE
  5
F826
  8
YODOROGO
 10
28040.913204016892
 20
1683.7494964292871
 30
0.0
 11
28017.604341291921
 21
1683.7494964292871
 31
0.0
  0
LINE
  5
F827
  8
YODOROGO
 10
28001.604341291921
 20
1683.7494964292871
 30
0.0
 11
27977.604341291921
 21
1683.7494964292871
 31
0.0
  0
LINE
  5
F828
  8
YODOROGO
 10
28082.135520230921
 20
1707.749496429288
 30
0.0
 11
28098.135520230931
 21
1707.749496429288
 31
0.0
1001
AUTOCAD_POSTSCRIPT_FIGURE
1002
{
1000
PSFILL
1000
Grayscale
1000
Grayscale
1070
   100
1002
}
  0
LINE
  5
F829
  8
YODOROGO
 10
28401.60434129191
 20
1824.877625640306
 30
0.0
 11
28401.60434129191
 21
1752.877625640306
 31
0.0
1001
AUTOCAD_POSTSCRIPT_FIGURE
1002
{
1000
PSFILL
1000
Grayscale
1000
Grayscale
1070
   100
1002
}
  0
LINE
  5
F82A
  8
YODOROGO
 10
28401.60434129191
 20
1916.8776256403071
 30
0.0
 11
28401.60434129191
 21
1984.877625640306
 31
0.0
1001
AUTOCAD_POSTSCRIPT_FIGURE
1002
{
1000
PSFILL
1000
Grayscale
1000
Grayscale
1070
   100
1002
}
  0
LINE
  5
F82B
  8
YODOROGO
 10
28433.60434129191
 20
1819.7494964292871
 30
0.0
 11
28433.60434129191
 21
1747.74949642929
 31
0.0
  0
LINE
  5
F82C
  8
YODOROGO
 10
28497.60434129191
 20
1707.749496429288
 30
0.0
 11
28433.60434129191
 21
1707.749496429288
 31
0.0
  0
LINE
  5
F82D
  8
YODOROGO
 10
28433.60434129191
 20
1747.74949642929
 30
0.0
 11
28585.604341291921
 21
1747.74949642929
 31
0.0
  0
LINE
  5
F82E
  8
YODOROGO
 10
28497.60434129191
 20
1867.7494964292871
 30
0.0
 11
28433.60434129191
 21
1867.7494964292871
 31
0.0
  0
LINE
  5
F82F
  8
YODOROGO
 10
28497.60434129191
 20
1923.7494964292871
 30
0.0
 11
28497.60434129191
 21
1867.7494964292871
 31
0.0
  0
LINE
  5
F830
  8
YODOROGO
 10
28585.604341291921
 20
1987.7494964292871
 30
0.0
 11
28585.604341291921
 21
2027.749496429288
 31
0.0
  0
LINE
  5
F831
  8
YODOROGO
 10
28433.60434129191
 20
1987.7494964292871
 30
0.0
 11
28585.604341291921
 21
1987.7494964292871
 31
0.0
  0
LINE
  5
F832
  8
YODOROGO
 10
28433.60434129191
 20
1867.7494964292871
 30
0.0
 11
28433.60434129191
 21
1987.7494964292871
 31
0.0
  0
LINE
  5
F833
  8
YODOROGO
 10
29001.60434129191
 20
2027.749496429288
 30
0.0
 11
29001.60434129191
 21
1619.749496429288
 31
0.0
  0
LINE
  5
F834
  8
YODOROGO
 10
29073.604341291921
 20
1579.749496429288
 30
0.0
 11
29073.604341291921
 21
2027.749496429288
 31
0.0
  0
LINE
  5
F835
  8
YODOROGO
 10
29261.604341291921
 20
1491.749496429286
 30
0.0
 11
29261.604341291921
 21
2007.749496429288
 31
0.0
  0
LINE
  5
F836
  8
YODOROGO
 10
29197.604341291921
 20
2007.749496429288
 30
0.0
 11
29197.604341291921
 21
1491.749496429286
 31
0.0
  0
LINE
  5
F837
  8
YODOROGO
 10
29385.604341291921
 20
2027.749496429288
 30
0.0
 11
29385.604341291921
 21
1427.749496429288
 31
0.0
  0
LINE
  5
F838
  8
YODOROGO
 10
29457.604341291921
 20
1427.749496429288
 30
0.0
 11
29457.604341291921
 21
2027.749496429288
 31
0.0
  0
LINE
  5
F839
  8
YODOROGO
 10
28657.604341291921
 20
1667.749496429288
 30
0.0
 11
28657.604341291921
 21
1747.74949642929
 31
0.0
  0
LINE
  5
F83A
  8
YODOROGO
 10
29885.604341291921
 20
1707.749496429288
 30
0.0
 11
29885.604341291921
 21
1667.749496429288
 31
0.0
  0
LINE
  5
F83B
  8
YODOROGO
 10
29885.604341291921
 20
1707.749496429288
 30
0.0
 11
29885.604341291921
 21
1667.749496429288
 31
0.0
  0
ARC
  5
F83C
  8
YODOROGO
 10
28906.911576186842
 20
1618.217864442272
 30
0.0
 40
94.705151178741644
 50
274.05244162907098
 51
0.9266642149310712
  0
ARC
  5
F83D
  8
YODOROGO
 10
28909.186170719819
 20
1592.61072861044
 30
0.0
 40
164.92042356085511
 50
271.5351210653775
 51
355.52727750585052
  0
LINE
  5
F83E
  8
YODOROGO
 10
28913.604341291921
 20
1523.7494964292871
 30
0.0
 11
28913.604341291921
 21
1427.749496429288
 31
0.0
  0
LINE
  5
F83F
  8
YODOROGO
 10
28793.60434129191
 20
1667.749496429288
 30
0.0
 11
28657.604341291921
 21
1667.749496429288
 31
0.0
  0
LINE
  5
F840
  8
YODOROGO
 10
28793.60434129191
 20
1603.7494964292871
 30
0.0
 11
28793.60434129191
 21
1667.749496429288
 31
0.0
  0
LINE
  5
F841
  8
YODOROGO
 10
28657.604341291921
 20
1603.7494964292871
 30
0.0
 11
28793.60434129191
 21
1603.7494964292871
 31
0.0
  0
LINE
  5
F842
  8
YODOROGO
 10
28657.604341291921
 20
1523.7494964292871
 30
0.0
 11
28657.604341291921
 21
1603.7494964292871
 31
0.0
  0
LINE
  5
F843
  8
YODOROGO
 10
28793.60434129191
 20
1523.7494964292871
 30
0.0
 11
28657.604341291921
 21
1523.7494964292871
 31
0.0
  0
LINE
  5
F844
  8
YODOROGO
 10
28793.60434129191
 20
1427.749496429288
 30
0.0
 11
28793.60434129191
 21
1523.7494964292871
 31
0.0
  0
LINE
  5
F845
  8
YODOROGO
 10
29197.604341291921
 20
1491.749496429286
 30
0.0
 11
29261.604341291921
 21
1491.749496429286
 31
0.0
  0
LINE
  5
F846
  8
YODOROGO
 10
29385.604341291921
 20
1427.749496429288
 30
0.0
 11
29457.604341291921
 21
1427.749496429288
 31
0.0
  0
LINE
  5
F847
  8
YODOROGO
 10
29737.604341291921
 20
1528.4414521705639
 30
0.0
 11
29737.604341291921
 21
1427.749496429288
 31
0.0
  0
LINE
  5
F848
  8
YODOROGO
 10
29617.604341291921
 20
1427.749496429288
 30
0.0
 11
29737.604341291921
 21
1528.4414521705639
 31
0.0
  0
LINE
  5
F849
  8
YODOROGO
 10
29617.604341291921
 20
1547.749496429288
 30
0.0
 11
29617.604341291921
 21
1427.749496429288
 31
0.0
  0
LINE
  5
F84A
  8
YODOROGO
 10
29712.94462869945
 20
1627.749496429288
 30
0.0
 11
29617.604341291921
 21
1547.749496429288
 31
0.0
  0
LINE
  5
F84B
  8
YODOROGO
 10
29617.604341291921
 20
1627.749496429288
 30
0.0
 11
29712.94462869945
 21
1627.749496429288
 31
0.0
  0
LINE
  5
F84C
  8
YODOROGO
 10
29617.604341291921
 20
1667.749496429288
 30
0.0
 11
29617.604341291921
 21
1627.749496429288
 31
0.0
  0
LINE
  5
F84D
  8
YODOROGO
 10
29885.604341291921
 20
1667.749496429288
 30
0.0
 11
29617.604341291921
 21
1667.749496429288
 31
0.0
  0
LINE
  5
F84E
  8
YODOROGO
 10
29917.604341291921
 20
1627.749496429288
 30
0.0
 11
29777.604341291921
 21
1627.749496429288
 31
0.0
  0
LINE
  5
F84F
  8
YODOROGO
 10
29777.604341291921
 20
1562.0054374176559
 30
0.0
 11
29771.409872985321
 21
1556.807661346234
 31
0.0
  0
LINE
  5
F850
  8
YODOROGO
 10
29777.604341291921
 20
1627.749496429288
 30
0.0
 11
29777.604341291921
 21
1562.0054374176559
 31
0.0
  0
LINE
  5
F851
  8
YODOROGO
 10
29737.604341291921
 20
1528.4414521705639
 30
0.0
 11
29737.604341291921
 21
1427.749496429288
 31
0.0
  0
LINE
  5
F852
  8
YODOROGO
 10
29617.604341291921
 20
1427.749496429288
 30
0.0
 11
29737.604341291921
 21
1528.4414521705639
 31
0.0
  0
LINE
  5
F853
  8
YODOROGO
 10
29617.604341291921
 20
1547.749496429288
 30
0.0
 11
29617.604341291921
 21
1427.749496429288
 31
0.0
  0
LINE
  5
F854
  8
YODOROGO
 10
29712.94462869945
 20
1627.749496429288
 30
0.0
 11
29617.604341291921
 21
1547.749496429288
 31
0.0
  0
LINE
  5
F855
  8
YODOROGO
 10
29617.604341291921
 20
1627.749496429288
 30
0.0
 11
29712.94462869945
 21
1627.749496429288
 31
0.0
  0
LINE
  5
F856
  8
YODOROGO
 10
29617.604341291921
 20
1667.749496429288
 30
0.0
 11
29617.604341291921
 21
1627.749496429288
 31
0.0
  0
LINE
  5
F857
  8
YODOROGO
 10
29885.604341291921
 20
1667.749496429288
 30
0.0
 11
29617.604341291921
 21
1667.749496429288
 31
0.0
  0
LINE
  5
F858
  8
YODOROGO
 10
28793.60434129191
 20
1747.74949642929
 30
0.0
 11
28793.60434129191
 21
1819.7494964292871
 31
0.0
  0
LINE
  5
F859
  8
YODOROGO
 10
28657.604341291921
 20
1747.74949642929
 30
0.0
 11
28793.60434129191
 21
1747.74949642929
 31
0.0
  0
LINE
  5
F85A
  8
YODOROGO
 10
28729.604341291921
 20
1867.7494964292871
 30
0.0
 11
28729.604341291921
 21
1923.7494964292871
 31
0.0
  0
LINE
  5
F85B
  8
YODOROGO
 10
28793.60434129191
 20
1867.7494964292871
 30
0.0
 11
28729.604341291921
 21
1867.7494964292871
 31
0.0
  0
LINE
  5
F85C
  8
YODOROGO
 10
28793.60434129191
 20
1947.749496429288
 30
0.0
 11
28793.60434129191
 21
1867.7494964292871
 31
0.0
  0
ARC
  5
F85D
  8
YODOROGO
 10
28753.60434129191
 20
1947.749496429288
 30
0.0
 40
40.0
 50
0.0
 51
90.0
  0
LINE
  5
F85E
  8
YODOROGO
 10
28657.604341291921
 20
1987.7494964292871
 30
0.0
 11
28753.60434129191
 21
1987.7494964292871
 31
0.0
  0
LINE
  5
F85F
  8
YODOROGO
 10
28657.604341291921
 20
2027.749496429288
 30
0.0
 11
28657.604341291921
 21
1987.7494964292871
 31
0.0
  0
LINE
  5
F860
  8
YODOROGO
 10
29073.604341291921
 20
2027.749496429288
 30
0.0
 11
29001.60434129191
 21
2027.749496429288
 31
0.0
  0
LINE
  5
F861
  8
YODOROGO
 10
29261.604341291921
 20
2007.749496429288
 30
0.0
 11
29197.604341291921
 21
2007.749496429288
 31
0.0
  0
LINE
  5
F862
  8
YODOROGO
 10
29457.604341291921
 20
2027.749496429288
 30
0.0
 11
29385.604341291921
 21
2027.749496429288
 31
0.0
  0
LINE
  5
F863
  8
YODOROGO
 10
29673.604341291921
 20
1707.749496429288
 30
0.0
 11
29673.604341291921
 21
1771.7494964292871
 31
0.0
1001
AUTOCAD_POSTSCRIPT_FIGURE
1002
{
1000
PSFILL
1000
Grayscale
1000
Grayscale
1070
    25
1002
}
  0
LINE
  5
F864
  8
YODOROGO
 10
29617.604341291921
 20
1707.749496429288
 30
0.0
 11
29673.604341291921
 21
1707.749496429288
 31
0.0
1001
AUTOCAD_POSTSCRIPT_FIGURE
1002
{
1000
PSFILL
1000
Grayscale
1000
Grayscale
1070
    25
1002
}
  0
LINE
  5
F865
  8
YODOROGO
 10
29617.604341291921
 20
1819.7494964292871
 30
0.0
 11
29617.604341291921
 21
1707.749496429288
 31
0.0
1001
AUTOCAD_POSTSCRIPT_FIGURE
1002
{
1000
PSFILL
1000
Grayscale
1000
Grayscale
1070
    25
1002
}
  0
LINE
  5
F866
  8
YODOROGO
 10
29765.604341291921
 20
1819.7494964292871
 30
0.0
 11
29617.604341291921
 21
1819.7494964292871
 31
0.0
1001
AUTOCAD_POSTSCRIPT_FIGURE
1002
{
1000
PSFILL
1000
Grayscale
1000
Grayscale
1070
    25
1002
}
  0
LINE
  5
F867
  8
YODOROGO
 10
29765.604341291921
 20
1859.749496429288
 30
0.0
 11
29765.604341291921
 21
1819.7494964292871
 31
0.0
1001
AUTOCAD_POSTSCRIPT_FIGURE
1002
{
1000
PSFILL
1000
Grayscale
1000
Grayscale
1070
    25
1002
}
  0
LINE
  5
F868
  8
YODOROGO
 10
29617.604341291921
 20
1859.749496429288
 30
0.0
 11
29765.604341291921
 21
1859.749496429288
 31
0.0
1001
AUTOCAD_POSTSCRIPT_FIGURE
1002
{
1000
PSFILL
1000
Grayscale
1000
Grayscale
1070
    25
1002
}
  0
LINE
  5
F869
  8
YODOROGO
 10
29617.604341291921
 20
1907.7494964292871
 30
0.0
 11
29617.604341291921
 21
1859.749496429288
 31
0.0
1001
AUTOCAD_POSTSCRIPT_FIGURE
1002
{
1000
PSFILL
1000
Grayscale
1000
Grayscale
1070
    25
1002
}
  0
LINE
  5
F86A
  8
YODOROGO
 10
29765.604341291921
 20
1907.7494964292871
 30
0.0
 11
29617.604341291921
 21
1907.7494964292871
 31
0.0
1001
AUTOCAD_POSTSCRIPT_FIGURE
1002
{
1000
PSFILL
1000
Grayscale
1000
Grayscale
1070
    25
1002
}
  0
LINE
  5
F86B
  8
YODOROGO
 10
29765.604341291921
 20
1947.749496429288
 30
0.0
 11
29765.604341291921
 21
1907.7494964292871
 31
0.0
1001
AUTOCAD_POSTSCRIPT_FIGURE
1002
{
1000
PSFILL
1000
Grayscale
1000
Grayscale
1070
    25
1002
}
  0
LINE
  5
F86C
  8
YODOROGO
 10
29617.604341291921
 20
1947.749496429288
 30
0.0
 11
29765.604341291921
 21
1947.749496429288
 31
0.0
1001
AUTOCAD_POSTSCRIPT_FIGURE
1002
{
1000
PSFILL
1000
Grayscale
1000
Grayscale
1070
    25
1002
}
  0
LINE
  5
F86D
  8
YODOROGO
 10
29617.604341291921
 20
2027.749496429288
 30
0.0
 11
29617.604341291921
 21
1947.749496429288
 31
0.0
1001
AUTOCAD_POSTSCRIPT_FIGURE
1002
{
1000
PSFILL
1000
Grayscale
1000
Grayscale
1070
    25
1002
}
  0
LINE
  5
F86E
  8
YODOROGO
 10
29665.604341291921
 20
2027.749496429288
 30
0.0
 11
29617.604341291921
 21
2027.749496429288
 31
0.0
1001
AUTOCAD_POSTSCRIPT_FIGURE
1002
{
1000
PSFILL
1000
Grayscale
1000
Grayscale
1070
    25
1002
}
  0
LINE
  5
F86F
  8
YODOROGO
 10
29665.604341291921
 20
1995.7494964292871
 30
0.0
 11
29665.604341291921
 21
2027.749496429288
 31
0.0
1001
AUTOCAD_POSTSCRIPT_FIGURE
1002
{
1000
PSFILL
1000
Grayscale
1000
Grayscale
1070
    25
1002
}
  0
LINE
  5
F870
  8
YODOROGO
 10
29765.604341291921
 20
1995.7494964292871
 30
0.0
 11
29665.604341291921
 21
1995.7494964292871
 31
0.0
1001
AUTOCAD_POSTSCRIPT_FIGURE
1002
{
1000
PSFILL
1000
Grayscale
1000
Grayscale
1070
    25
1002
}
  0
LINE
  5
F871
  8
YODOROGO
 10
29765.604341291921
 20
2027.749496429288
 30
0.0
 11
29765.604341291921
 21
1995.7494964292871
 31
0.0
1001
AUTOCAD_POSTSCRIPT_FIGURE
1002
{
1000
PSFILL
1000
Grayscale
1000
Grayscale
1070
    25
1002
}
  0
LINE
  5
F872
  8
YODOROGO
 10
29829.604341291921
 20
2027.749496429288
 30
0.0
 11
29765.604341291921
 21
2027.749496429288
 31
0.0
1001
AUTOCAD_POSTSCRIPT_FIGURE
1002
{
1000
PSFILL
1000
Grayscale
1000
Grayscale
1070
    25
1002
}
  0
LINE
  5
F873
  8
YODOROGO
 10
29829.604341291921
 20
1995.7494964292871
 30
0.0
 11
29829.604341291921
 21
2027.749496429288
 31
0.0
1001
AUTOCAD_POSTSCRIPT_FIGURE
1002
{
1000
PSFILL
1000
Grayscale
1000
Grayscale
1070
    25
1002
}
  0
LINE
  5
F874
  8
YODOROGO
 10
29829.604341291921
 20
1907.7494964292871
 30
0.0
 11
29829.604341291921
 21
1947.749496429288
 31
0.0
1001
AUTOCAD_POSTSCRIPT_FIGURE
1002
{
1000
PSFILL
1000
Grayscale
1000
Grayscale
1070
    25
1002
}
  0
LINE
  5
F875
  8
YODOROGO
 10
29829.604341291921
 20
1819.7494964292871
 30
0.0
 11
29829.604341291921
 21
1859.749496429288
 31
0.0
1001
AUTOCAD_POSTSCRIPT_FIGURE
1002
{
1000
PSFILL
1000
Grayscale
1000
Grayscale
1070
    25
1002
}
  0
LINE
  5
F876
  8
YODOROGO
 10
29921.60434129191
 20
1771.7494964292871
 30
0.0
 11
29921.60434129191
 21
1707.749496429288
 31
0.0
1001
AUTOCAD_POSTSCRIPT_FIGURE
1002
{
1000
PSFILL
1000
Grayscale
1000
Grayscale
1070
    25
1002
}
  0
LINE
  5
F877
  8
YODOROGO
 10
29829.604341291921
 20
1771.7494964292871
 30
0.0
 11
29921.60434129191
 21
1771.7494964292871
 31
0.0
1001
AUTOCAD_POSTSCRIPT_FIGURE
1002
{
1000
PSFILL
1000
Grayscale
1000
Grayscale
1070
    25
1002
}
  0
LINE
  5
F878
  8
YODOROGO
 10
29829.604341291921
 20
1707.749496429288
 30
0.0
 11
29829.604341291921
 21
1771.7494964292871
 31
0.0
1001
AUTOCAD_POSTSCRIPT_FIGURE
1002
{
1000
PSFILL
1000
Grayscale
1000
Grayscale
1070
    25
1002
}
  0
LINE
  5
F879
  8
YODOROGO
 10
29765.604341291921
 20
1707.749496429288
 30
0.0
 11
29829.604341291921
 21
1707.749496429288
 31
0.0
1001
AUTOCAD_POSTSCRIPT_FIGURE
1002
{
1000
PSFILL
1000
Grayscale
1000
Grayscale
1070
    25
1002
}
  0
LINE
  5
F87A
  8
YODOROGO
 10
29765.604341291921
 20
1771.7494964292871
 30
0.0
 11
29765.604341291921
 21
1707.749496429288
 31
0.0
1001
AUTOCAD_POSTSCRIPT_FIGURE
1002
{
1000
PSFILL
1000
Grayscale
1000
Grayscale
1070
    25
1002
}
  0
LINE
  5
F87B
  8
YODOROGO
 10
29673.604341291921
 20
1771.7494964292871
 30
0.0
 11
29765.604341291921
 21
1771.7494964292871
 31
0.0
1001
AUTOCAD_POSTSCRIPT_FIGURE
1002
{
1000
PSFILL
1000
Grayscale
1000
Grayscale
1070
    25
1002
}
  0
ARC
  5
F87C
  8
YODOROGO
 10
31059.517893357912
 20
1602.6807375155761
 30
0.0
 40
178.22128111072141
 50
281.02627495425338
 51
357.77113575573799
  0
LINE
  5
F87D
  8
YODOROGO
 10
31413.604341291921
 20
1907.7494964292871
 30
0.0
 11
31165.604341291921
 21
1907.7494964292871
 31
0.0
  0
LINE
  5
F87E
  8
YODOROGO
 10
31413.604341291921
 20
2027.749496429288
 30
0.0
 11
31165.604341291921
 21
2027.749496429288
 31
0.0
  0
LINE
  5
F87F
  8
YODOROGO
 10
31165.604341291921
 20
1963.749496429286
 30
0.0
 11
31413.604341291921
 21
1963.749496429286
 31
0.0
  0
LINE
  5
F880
  8
YODOROGO
 10
30791.604341291921
 20
1563.7494964292871
 30
0.0
 11
30791.604341291921
 21
1755.7494964292871
 31
0.0
  0
LINE
  5
F881
  8
YODOROGO
 10
30763.604341291921
 20
1691.749496429288
 30
0.0
 11
30763.604341291921
 21
1563.7494964292871
 31
0.0
  0
LINE
  5
F882
  8
YODOROGO
 10
30723.604341291921
 20
1491.749496429288
 30
0.0
 11
30723.604341291921
 21
1691.749496429288
 31
0.0
  0
LINE
  5
F883
  8
YODOROGO
 10
30899.604341291932
 20
1691.749496429288
 30
0.0
 11
30899.604341291932
 21
1491.749496429288
 31
0.0
  0
LINE
  5
F884
  8
YODOROGO
 10
30859.604341291932
 20
1563.7494964292871
 30
0.0
 11
30859.604341291932
 21
1691.749496429288
 31
0.0
  0
LINE
  5
F885
  8
YODOROGO
 10
30831.604341291921
 20
1755.7494964292871
 30
0.0
 11
30831.604341291921
 21
1563.7494964292871
 31
0.0
  0
LINE
  5
F886
  8
YODOROGO
 10
30973.604341291921
 20
2027.749496429288
 30
0.0
 11
30973.604341291921
 21
1467.749496429288
 31
0.0
  0
LINE
  5
F887
  8
YODOROGO
 10
30645.604341291921
 20
1427.749496429288
 30
0.0
 11
30645.604341291921
 21
2027.749496429288
 31
0.0
  0
LINE
  5
F888
  8
YODOROGO
 10
30697.604341291932
 20
1963.749496429286
 30
0.0
 11
30697.604341291932
 21
1427.749496429288
 31
0.0
  0
LINE
  5
F889
  8
YODOROGO
 10
30925.604341291921
 20
1547.749496429288
 30
0.0
 11
30925.604341291921
 21
1963.749496429286
 31
0.0
  0
LINE
  5
F88A
  8
YODOROGO
 10
30381.604341291932
 20
1627.749496429288
 30
0.0
 11
30381.604341291932
 21
1679.749496429288
 31
0.0
  0
LINE
  5
F88B
  8
YODOROGO
 10
30617.604341291921
 20
1679.749496429288
 30
0.0
 11
30617.604341291921
 21
1627.749496429288
 31
0.0
  0
LINE
  5
F88C
  8
YODOROGO
 10
31165.604341291921
 20
1907.7494964292871
 30
0.0
 11
31165.604341291921
 21
1635.7494964292871
 31
0.0
  0
LINE
  5
F88D
  8
YODOROGO
 10
29949.60434129191
 20
1667.749496429288
 30
0.0
 11
29949.60434129191
 21
1707.749496429288
 31
0.0
  0
LINE
  5
F88E
  8
YODOROGO
 10
29949.60434129191
 20
1667.749496429288
 30
0.0
 11
29949.60434129191
 21
1707.749496429288
 31
0.0
  0
ARC
  5
F88F
  8
YODOROGO
 10
30537.604341291921
 20
1507.749496429288
 30
0.0
 40
80.0
 50
270.0
 51
0.0
  0
LINE
  5
F890
  8
YODOROGO
 10
30569.604341291921
 20
1599.7494964292871
 30
0.0
 11
30617.604341291921
 21
1599.7494964292871
 31
0.0
  0
LINE
  5
F891
  8
YODOROGO
 10
30617.604341291921
 20
1627.749496429288
 30
0.0
 11
30529.604341291939
 21
1627.749496429288
 31
0.0
  0
LINE
  5
F892
  8
YODOROGO
 10
30217.604341291921
 20
1667.749496429288
 30
0.0
 11
29949.60434129191
 21
1667.749496429288
 31
0.0
  0
LINE
  5
F893
  8
YODOROGO
 10
30217.604341291921
 20
1627.749496429288
 30
0.0
 11
30217.604341291921
 21
1667.749496429288
 31
0.0
  0
LINE
  5
F894
  8
YODOROGO
 10
30017.604341291921
 20
1627.749496429288
 30
0.0
 11
30217.604341291921
 21
1627.749496429288
 31
0.0
  0
ARC
  5
F895
  8
YODOROGO
 10
30230.05882870136
 20
1868.885714952901
 30
0.0
 40
321.37763628522822
 50
228.6181454618993
 51
245.660289248906
  0
LINE
  5
F896
  8
YODOROGO
 10
30105.604341291921
 20
1603.7494964292871
 30
0.0
 11
30097.60434129195
 21
1576.0728158699001
 31
0.0
  0
LINE
  5
F897
  8
YODOROGO
 10
30189.604341291921
 20
1603.7494964292871
 30
0.0
 11
30105.604341291921
 21
1603.7494964292871
 31
0.0
  0
LINE
  5
F898
  8
YODOROGO
 10
30177.604341291921
 20
1551.817722473427
 30
0.0
 11
30189.604341291921
 21
1603.7494964292871
 31
0.0
  0
ARC
  5
F899
  8
YODOROGO
 10
30230.05882870045
 20
1868.885714953002
 30
0.0
 40
321.37763628529081
 50
260.60629297969911
 51
267.77903556555862
  0
LINE
  5
F89A
  8
YODOROGO
 10
30217.604341291921
 20
1427.749496429285
 30
0.0
 11
30217.604341291921
 21
1547.749496429288
 31
0.0
  0
LINE
  5
F89B
  8
YODOROGO
 10
29937.604341291932
 20
1481.3393349155101
 30
0.0
 11
29937.604341291921
 21
1594.531090531141
 31
0.0
  0
LINE
  5
F89C
  8
YODOROGO
 10
30217.604341291921
 20
1667.749496429288
 30
0.0
 11
29949.60434129191
 21
1667.749496429288
 31
0.0
  0
LINE
  5
F89D
  8
YODOROGO
 10
30217.604341291921
 20
1627.749496429288
 30
0.0
 11
30217.604341291921
 21
1667.749496429288
 31
0.0
  0
LINE
  5
F89E
  8
YODOROGO
 10
30017.604341291921
 20
1627.749496429288
 30
0.0
 11
30217.604341291921
 21
1627.749496429288
 31
0.0
  0
ARC
  5
F89F
  8
YODOROGO
 10
30230.05882870136
 20
1868.885714952901
 30
0.0
 40
321.37763628522822
 50
228.6181454618993
 51
245.660289248906
  0
LINE
  5
F8A0
  8
YODOROGO
 10
30105.604341291921
 20
1603.7494964292871
 30
0.0
 11
30097.60434129195
 21
1576.0728158699001
 31
0.0
  0
LINE
  5
F8A1
  8
YODOROGO
 10
30189.604341291921
 20
1603.7494964292871
 30
0.0
 11
30105.604341291921
 21
1603.7494964292871
 31
0.0
  0
LINE
  5
F8A2
  8
YODOROGO
 10
30177.604341291921
 20
1551.817722473427
 30
0.0
 11
30189.604341291921
 21
1603.7494964292871
 31
0.0
  0
ARC
  5
F8A3
  8
YODOROGO
 10
30230.05882870045
 20
1868.885714953002
 30
0.0
 40
321.37763628529081
 50
260.60629297969911
 51
267.77903556555862
  0
LINE
  5
F8A4
  8
YODOROGO
 10
30217.604341291921
 20
1427.749496429285
 30
0.0
 11
30217.604341291921
 21
1547.749496429288
 31
0.0
  0
LINE
  5
F8A5
  8
YODOROGO
 10
29937.604341291932
 20
1481.3393349155101
 30
0.0
 11
29937.604341291921
 21
1594.531090531141
 31
0.0
  0
LINE
  5
F8A6
  8
YODOROGO
 10
30433.604341291921
 20
1573.749496429288
 30
0.0
 11
30381.604341291932
 21
1573.749496429288
 31
0.0
  0
LINE
  5
F8A7
  8
YODOROGO
 10
30433.604341291921
 20
1601.749496429285
 30
0.0
 11
30433.604341291921
 21
1573.749496429288
 31
0.0
  0
LINE
  5
F8A8
  8
YODOROGO
 10
30381.604341291932
 20
1601.749496429285
 30
0.0
 11
30433.604341291921
 21
1601.749496429285
 31
0.0
  0
LINE
  5
F8A9
  8
YODOROGO
 10
30381.604341291932
 20
1573.749496429288
 30
0.0
 11
30381.604341291932
 21
1601.749496429285
 31
0.0
  0
LINE
  5
F8AA
  8
YODOROGO
 10
30429.604341291921
 20
1577.7494964292871
 30
0.0
 11
30385.604341291921
 21
1577.7494964292871
 31
0.0
  0
LINE
  5
F8AB
  8
YODOROGO
 10
30429.604341291921
 20
1597.749496429288
 30
0.0
 11
30429.604341291921
 21
1577.7494964292871
 31
0.0
  0
LINE
  5
F8AC
  8
YODOROGO
 10
30385.604341291921
 20
1597.749496429288
 30
0.0
 11
30429.604341291921
 21
1597.749496429288
 31
0.0
  0
LINE
  5
F8AD
  8
YODOROGO
 10
30385.604341291921
 20
1577.7494964292871
 30
0.0
 11
30385.604341291921
 21
1597.749496429288
 31
0.0
  0
LINE
  5
F8AE
  8
YODOROGO
 10
30425.604341291921
 20
1581.749496429286
 30
0.0
 11
30389.604341291921
 21
1581.749496429286
 31
0.0
  0
LINE
  5
F8AF
  8
YODOROGO
 10
30425.604341291921
 20
1593.749496429288
 30
0.0
 11
30425.604341291921
 21
1581.749496429286
 31
0.0
  0
LINE
  5
F8B0
  8
YODOROGO
 10
30389.604341291921
 20
1593.749496429288
 30
0.0
 11
30425.604341291921
 21
1593.749496429288
 31
0.0
  0
LINE
  5
F8B1
  8
YODOROGO
 10
30389.604341291921
 20
1581.749496429286
 30
0.0
 11
30389.604341291921
 21
1593.749496429288
 31
0.0
  0
LINE
  5
F8B2
  8
YODOROGO
 10
30421.604341291932
 20
1585.7494964292871
 30
0.0
 11
30393.604341291921
 21
1585.7494964292871
 31
0.0
  0
LINE
  5
F8B3
  8
YODOROGO
 10
30421.604341291932
 20
1589.749496429288
 30
0.0
 11
30421.604341291932
 21
1585.7494964292871
 31
0.0
  0
LINE
  5
F8B4
  8
YODOROGO
 10
30393.604341291921
 20
1589.749496429288
 30
0.0
 11
30421.604341291932
 21
1589.749496429288
 31
0.0
  0
LINE
  5
F8B5
  8
YODOROGO
 10
30393.604341291921
 20
1585.7494964292871
 30
0.0
 11
30393.604341291921
 21
1589.749496429288
 31
0.0
  0
LINE
  5
F8B6
  8
YODOROGO
 10
30465.604341291921
 20
1627.749496429288
 30
0.0
 11
30381.604341291932
 21
1627.749496429288
 31
0.0
  0
LINE
  5
F8B7
  8
YODOROGO
 10
30465.604341291921
 20
1547.749496429288
 30
0.0
 11
30465.604341291921
 21
1627.749496429288
 31
0.0
  0
LINE
  5
F8B8
  8
YODOROGO
 10
30381.604341291932
 20
1547.749496429288
 30
0.0
 11
30465.604341291921
 21
1547.749496429288
 31
0.0
  0
LINE
  5
F8B9
  8
YODOROGO
 10
30381.604341291932
 20
1427.749496429288
 30
0.0
 11
30381.604341291932
 21
1547.749496429288
 31
0.0
  0
LINE
  5
F8BA
  8
YODOROGO
 10
30537.604341291921
 20
1427.749496429288
 30
0.0
 11
30381.604341291932
 21
1427.749496429288
 31
0.0
  0
LINE
  5
F8BB
  8
YODOROGO
 10
30569.604341291921
 20
1571.749496429285
 30
0.0
 11
30569.604341291921
 21
1599.7494964292871
 31
0.0
  0
ARC
  5
F8BC
  8
YODOROGO
 10
30545.604341291921
 20
1571.749496429291
 30
0.0
 40
24.000000000003752
 50
270.0
 51
359.99999999998772
  0
LINE
  5
F8BD
  8
YODOROGO
 10
30529.604341291939
 20
1547.749496429288
 30
0.0
 11
30545.604341291921
 21
1547.749496429288
 31
0.0
  0
LINE
  5
F8BE
  8
YODOROGO
 10
30529.604341291939
 20
1627.749496429288
 30
0.0
 11
30529.604341291939
 21
1547.749496429288
 31
0.0
  0
LINE
  5
F8BF
  8
YODOROGO
 10
30899.604341291932
 20
1547.749496429288
 30
0.0
 11
30925.604341291921
 21
1547.749496429288
 31
0.0
  0
LINE
  5
F8C0
  8
YODOROGO
 10
30933.604341291921
 20
1427.749496429288
 30
0.0
 11
30899.604341291932
 21
1427.749496429288
 31
0.0
  0
LINE
  5
F8C1
  8
YODOROGO
 10
30763.604341291921
 20
1563.7494964292871
 30
0.0
 11
30791.604341291921
 21
1563.7494964292871
 31
0.0
  0
LINE
  5
F8C2
  8
YODOROGO
 10
30899.604341291932
 20
1491.749496429288
 30
0.0
 11
30723.604341291921
 21
1491.749496429288
 31
0.0
  0
LINE
  5
F8C3
  8
YODOROGO
 10
30831.604341291921
 20
1563.7494964292871
 30
0.0
 11
30859.604341291932
 21
1563.7494964292871
 31
0.0
  0
LINE
  5
F8C4
  8
YODOROGO
 10
30899.604341291932
 20
1427.749496429288
 30
0.0
 11
30899.604341291932
 21
1547.749496429288
 31
0.0
  0
LINE
  5
F8C5
  8
YODOROGO
 10
30697.604341291932
 20
1427.749496429288
 30
0.0
 11
30645.604341291921
 21
1427.749496429288
 31
0.0
  0
LINE
  5
F8C6
  8
YODOROGO
 10
30617.604341291921
 20
1599.7494964292871
 30
0.0
 11
30617.604341291921
 21
1507.749496429288
 31
0.0
  0
ARC
  5
F8C7
  8
YODOROGO
 10
30933.604341291921
 20
1467.749496429288
 30
0.0
 40
40.0
 50
270.0
 51
0.0
  0
LINE
  5
F8C8
  8
YODOROGO
 10
31093.604341291921
 20
1523.7494964292871
 30
0.0
 11
31093.604341291921
 21
1427.749496429288
 31
0.0
  0
ARC
  5
F8C9
  8
YODOROGO
 10
31039.721395566768
 20
1637.5313901097329
 30
0.0
 40
125.8955565916754
 50
295.34052442160112
 51
359.18902303418679
  0
LINE
  5
F8CA
  8
YODOROGO
 10
30617.604341291921
 20
1859.749496429288
 30
0.0
 11
30497.604341291921
 21
1939.749496429288
 31
0.0
  0
LINE
  5
F8CB
  8
YODOROGO
 10
30497.604341291921
 20
2027.749496429288
 30
0.0
 11
30617.604341291921
 21
1947.749496429288
 31
0.0
  0
LINE
  5
F8CC
  8
YODOROGO
 10
30529.604341291939
 20
1679.749496429288
 30
0.0
 11
30617.604341291921
 21
1679.749496429288
 31
0.0
  0
LINE
  5
F8CD
  8
YODOROGO
 10
30617.604341291921
 20
1735.7494964292871
 30
0.0
 11
30529.604341291939
 21
1735.7494964292871
 31
0.0
  0
LINE
  5
F8CE
  8
YODOROGO
 10
30381.604341291932
 20
1795.7494964292871
 30
0.0
 11
30617.604341291921
 21
1795.7494964292871
 31
0.0
  0
LINE
  5
F8CF
  8
YODOROGO
 10
30081.604341291921
 20
2027.749496429288
 30
0.0
 11
30021.604341291921
 21
2027.749496429288
 31
0.0
  0
LINE
  5
F8D0
  8
YODOROGO
 10
30081.604341291921
 20
1827.7494964292871
 30
0.0
 11
30081.604341291921
 21
2027.749496429288
 31
0.0
  0
LINE
  5
F8D1
  8
YODOROGO
 10
30021.604341291921
 20
1827.7494964292871
 30
0.0
 11
30081.604341291921
 21
1827.7494964292871
 31
0.0
  0
LINE
  5
F8D2
  8
YODOROGO
 10
30021.604341291921
 20
2027.749496429288
 30
0.0
 11
30021.604341291921
 21
1827.7494964292871
 31
0.0
  0
LINE
  5
F8D3
  8
YODOROGO
 10
30161.604341291921
 20
2027.749496429288
 30
0.0
 11
30217.604341291921
 21
2027.749496429288
 31
0.0
  0
LINE
  5
F8D4
  8
YODOROGO
 10
30161.604341291921
 20
1811.749496429288
 30
0.0
 11
30161.604341291921
 21
2027.749496429288
 31
0.0
  0
ARC
  5
F8D5
  8
YODOROGO
 10
30121.604341291921
 20
1811.749496429288
 30
0.0
 40
40.0
 50
270.0
 51
0.0
  0
LINE
  5
F8D6
  8
YODOROGO
 10
30021.604341291921
 20
1771.7494964292871
 30
0.0
 11
30121.604341291921
 21
1771.7494964292871
 31
0.0
  0
LINE
  5
F8D7
  8
YODOROGO
 10
30021.604341291921
 20
1707.749496429288
 30
0.0
 11
30021.604341291921
 21
1771.7494964292871
 31
0.0
  0
LINE
  5
F8D8
  8
YODOROGO
 10
30137.604341291921
 20
1707.749496429288
 30
0.0
 11
30021.604341291921
 21
1707.749496429288
 31
0.0
  0
ARC
  5
F8D9
  8
YODOROGO
 10
30137.604341291921
 20
1787.7494964292871
 30
0.0
 40
80.0
 50
270.0
 51
0.0
  0
LINE
  5
F8DA
  8
YODOROGO
 10
30217.604341291921
 20
2027.749496429288
 30
0.0
 11
30217.604341291921
 21
1787.7494964292871
 31
0.0
  0
LINE
  5
F8DB
  8
YODOROGO
 10
29977.604341291921
 20
1947.749496429288
 30
0.0
 11
29977.604341291921
 21
1995.7494964292871
 31
0.0
1001
AUTOCAD_POSTSCRIPT_FIGURE
1002
{
1000
PSFILL
1000
Grayscale
1000
Grayscale
1070
    25
1002
}
  0
LINE
  5
F8DC
  8
YODOROGO
 10
29977.604341291921
 20
1859.749496429288
 30
0.0
 11
29977.604341291921
 21
1907.7494964292871
 31
0.0
1001
AUTOCAD_POSTSCRIPT_FIGURE
1002
{
1000
PSFILL
1000
Grayscale
1000
Grayscale
1070
    25
1002
}
  0
LINE
  5
F8DD
  8
YODOROGO
 10
29977.604341291921
 20
1707.749496429288
 30
0.0
 11
29977.604341291921
 21
1819.7494964292871
 31
0.0
1001
AUTOCAD_POSTSCRIPT_FIGURE
1002
{
1000
PSFILL
1000
Grayscale
1000
Grayscale
1070
    25
1002
}
  0
LINE
  5
F8DE
  8
YODOROGO
 10
30381.604341291932
 20
1907.7494964292871
 30
0.0
 11
30497.604341291921
 21
2027.749496429288
 31
0.0
  0
LINE
  5
F8DF
  8
YODOROGO
 10
30381.604341291932
 20
1819.7494964292871
 30
0.0
 11
30381.604341291932
 21
1907.7494964292871
 31
0.0
  0
LINE
  5
F8E0
  8
YODOROGO
 10
30497.604341291921
 20
1939.749496429288
 30
0.0
 11
30381.604341291932
 21
1819.7494964292871
 31
0.0
  0
LINE
  5
F8E1
  8
YODOROGO
 10
30465.604341291921
 20
1679.749496429288
 30
0.0
 11
30465.604341291921
 21
1735.7494964292871
 31
0.0
  0
LINE
  5
F8E2
  8
YODOROGO
 10
30381.604341291932
 20
1679.749496429288
 30
0.0
 11
30465.604341291921
 21
1679.749496429288
 31
0.0
  0
LINE
  5
F8E3
  8
YODOROGO
 10
30529.604341291939
 20
1735.7494964292871
 30
0.0
 11
30529.604341291939
 21
1679.749496429288
 31
0.0
  0
LINE
  5
F8E4
  8
YODOROGO
 10
30381.604341291932
 20
1735.7494964292871
 30
0.0
 11
30381.604341291932
 21
1795.7494964292871
 31
0.0
  0
LINE
  5
F8E5
  8
YODOROGO
 10
30465.604341291921
 20
1735.7494964292871
 30
0.0
 11
30381.604341291932
 21
1735.7494964292871
 31
0.0
  0
LINE
  5
F8E6
  8
YODOROGO
 10
30645.604341291921
 20
2027.749496429288
 30
0.0
 11
30973.604341291921
 21
2027.749496429288
 31
0.0
  0
LINE
  5
F8E7
  8
YODOROGO
 10
30925.604341291921
 20
1963.749496429286
 30
0.0
 11
30697.604341291932
 21
1963.749496429286
 31
0.0
  0
LINE
  5
F8E8
  8
YODOROGO
 10
30873.604341291921
 20
1819.7494964292871
 30
0.0
 11
30899.604341291932
 21
1819.7494964292871
 31
0.0
  0
LINE
  5
F8E9
  8
YODOROGO
 10
30899.604341291932
 20
1939.749496429288
 30
0.0
 11
30873.604341291921
 21
1819.7494964292871
 31
0.0
  0
LINE
  5
F8EA
  8
YODOROGO
 10
30851.604341291939
 20
1939.749496429288
 30
0.0
 11
30899.604341291932
 21
1939.749496429288
 31
0.0
  0
LINE
  5
F8EB
  8
YODOROGO
 10
30825.604341291921
 20
1819.7494964292871
 30
0.0
 11
30851.604341291939
 21
1939.749496429288
 31
0.0
  0
LINE
  5
F8EC
  8
YODOROGO
 10
30797.604341291921
 20
1819.7494964292871
 30
0.0
 11
30825.604341291921
 21
1819.7494964292871
 31
0.0
  0
LINE
  5
F8ED
  8
YODOROGO
 10
30771.604341291939
 20
1939.749496429288
 30
0.0
 11
30797.604341291921
 21
1819.7494964292871
 31
0.0
  0
LINE
  5
F8EE
  8
YODOROGO
 10
30723.604341291921
 20
1939.749496429288
 30
0.0
 11
30771.604341291939
 21
1939.749496429288
 31
0.0
  0
LINE
  5
F8EF
  8
YODOROGO
 10
30749.604341291921
 20
1819.7494964292871
 30
0.0
 11
30723.604341291921
 21
1939.749496429288
 31
0.0
  0
LINE
  5
F8F0
  8
YODOROGO
 10
30723.604341291921
 20
1819.7494964292871
 30
0.0
 11
30749.604341291921
 21
1819.7494964292871
 31
0.0
  0
LINE
  5
F8F1
  8
YODOROGO
 10
30723.604341291921
 20
1755.7494964292871
 30
0.0
 11
30723.604341291921
 21
1819.7494964292871
 31
0.0
  0
LINE
  5
F8F2
  8
YODOROGO
 10
30899.604341291932
 20
1755.7494964292871
 30
0.0
 11
30723.604341291921
 21
1755.7494964292871
 31
0.0
  0
LINE
  5
F8F3
  8
YODOROGO
 10
30899.604341291932
 20
1819.7494964292871
 30
0.0
 11
30899.604341291932
 21
1755.7494964292871
 31
0.0
  0
LINE
  5
F8F4
  8
YODOROGO
 10
30617.604341291921
 20
1947.749496429288
 30
0.0
 11
30617.604341291921
 21
1859.749496429288
 31
0.0
  0
LINE
  5
F8F5
  8
YODOROGO
 10
30791.604341291921
 20
1755.7494964292871
 30
0.0
 11
30831.604341291921
 21
1755.7494964292871
 31
0.0
  0
LINE
  5
F8F6
  8
YODOROGO
 10
30723.604341291921
 20
1691.749496429288
 30
0.0
 11
30763.604341291921
 21
1691.749496429288
 31
0.0
  0
LINE
  5
F8F7
  8
YODOROGO
 10
30859.604341291932
 20
1691.749496429288
 30
0.0
 11
30899.604341291932
 21
1691.749496429288
 31
0.0
  0
LINE
  5
F8F8
  8
YODOROGO
 10
30617.604341291921
 20
1795.7494964292871
 30
0.0
 11
30617.604341291921
 21
1735.7494964292871
 31
0.0
  0
LINE
  5
F8F9
  8
YODOROGO
 10
31165.604341291921
 20
2027.749496429288
 30
0.0
 11
31165.604341291921
 21
1963.749496429286
 31
0.0
  0
LINE
  5
F8FA
  8
YODOROGO
 10
31533.604341291921
 20
1595.7494964292871
 30
0.0
 11
31533.60434129191
 21
1811.749496429288
 31
0.0
  0
LINE
  5
F8FB
  8
YODOROGO
 10
31461.60434129191
 20
1987.7494964292871
 30
0.0
 11
31461.60434129191
 21
1635.7494964292871
 31
0.0
  0
LINE
  5
F8FC
  8
YODOROGO
 10
31653.604341291921
 20
1427.749496429288
 30
0.0
 11
31653.60434129191
 21
1811.749496429288
 31
0.0
  0
LINE
  5
F8FD
  8
YODOROGO
 10
31589.604341291921
 20
1811.749496429288
 30
0.0
 11
31589.604341291921
 21
1427.749496429288
 31
0.0
  0
LINE
  5
F8FE
  8
YODOROGO
 10
31237.604341291921
 20
1595.7494964292871
 30
0.0
 11
31237.604341291921
 21
1707.749496429288
 31
0.0
  0
ARC
  5
F8FF
  8
YODOROGO
 10
31353.914865116069
 20
1607.790351288558
 30
0.0
 40
180.0924485759885
 50
268.62849102169793
 51
356.16638457330322
  0
LINE
  5
F900
  8
YODOROGO
 10
31349.604341291939
 20
1527.749496429288
 30
0.0
 11
31349.604341291939
 21
1427.749496429288
 31
0.0
  0
ARC
  5
F901
  8
YODOROGO
 10
31351.518075724562
 20
1637.838957017655
 30
0.0
 40
110.1060929836122
 50
269.00410209305932
 51
358.91264455492478
  0
LINE
  5
F902
  8
YODOROGO
 10
31589.604341291921
 20
1427.749496429288
 30
0.0
 11
31653.604341291921
 21
1427.749496429288
 31
0.0
  0
LINE
  5
F903
  8
YODOROGO
 10
31533.60434129191
 20
1811.749496429288
 30
0.0
 11
31589.604341291921
 21
1811.749496429288
 31
0.0
  0
LINE
  5
F904
  8
YODOROGO
 10
31621.604341291939
 20
1987.7494964292871
 30
0.0
 11
31461.60434129191
 21
1987.7494964292871
 31
0.0
  0
LINE
  5
F905
  8
YODOROGO
 10
31533.60434129191
 20
1915.7494964292871
 30
0.0
 11
31661.604341291939
 21
1915.7494964292871
 31
0.0
  0
LINE
  5
F906
  8
YODOROGO
 10
31701.604341291939
 20
1875.7494964292871
 30
0.0
 11
31533.60434129191
 21
1875.7494964292871
 31
0.0
  0
LINE
  5
F907
  8
YODOROGO
 10
31237.604341291921
 20
1779.749496429288
 30
0.0
 11
31349.604341291939
 21
1779.749496429288
 31
0.0
  0
LINE
  5
F908
  8
YODOROGO
 10
31237.604341291921
 20
1835.7494964292871
 30
0.0
 11
31237.604341291921
 21
1779.749496429288
 31
0.0
  0
LINE
  5
F909
  8
YODOROGO
 10
31349.604341291939
 20
1835.7494964292871
 30
0.0
 11
31237.604341291921
 21
1835.7494964292871
 31
0.0
  0
LINE
  5
F90A
  8
YODOROGO
 10
31349.604341291939
 20
1779.749496429288
 30
0.0
 11
31349.604341291939
 21
1835.7494964292871
 31
0.0
  0
LINE
  5
F90B
  8
YODOROGO
 10
31533.60434129191
 20
1875.7494964292871
 30
0.0
 11
31533.60434129191
 21
1915.7494964292871
 31
0.0
  0
LINE
  5
F90C
  8
YODOROGO
 10
31413.604341291921
 20
1707.749496429288
 30
0.0
 11
31413.604341291921
 21
1907.7494964292871
 31
0.0
  0
LINE
  5
F90D
  8
YODOROGO
 10
31237.604341291921
 20
1707.749496429288
 30
0.0
 11
31413.604341291921
 21
1707.749496429288
 31
0.0
  0
LINE
  5
F90E
  8
YODOROGO
 10
31413.604341291921
 20
1963.749496429286
 30
0.0
 11
31413.604341291921
 21
2027.749496429288
 31
0.0
  0
ARC
  5
F90F
  8
YODOROGO
 10
31621.604341291939
 20
2003.749496429285
 30
0.0
 40
15.999999999994539
 50
270.0
 51
0.0000000000081422
  0
LINE
  5
F910
  8
YODOROGO
 10
31637.604341291921
 20
2027.749496429288
 30
0.0
 11
31637.604341291921
 21
2003.7494964292871
 31
0.0
  0
LINE
  5
F911
  8
YODOROGO
 10
31701.604341291939
 20
2027.749496429288
 30
0.0
 11
31637.604341291921
 21
2027.749496429288
 31
0.0
  0
LINE
  5
F912
  8
YODOROGO
 10
31701.604341291939
 20
1955.7494964292871
 30
0.0
 11
31701.604341291939
 21
2027.749496429288
 31
0.0
  0
ARC
  5
F913
  8
YODOROGO
 10
31661.604341291939
 20
1955.7494964292871
 30
0.0
 40
40.0
 50
270.0
 51
0.0
  0
LINE
  5
F914
  8
YODOROGO
 10
31701.604341291939
 20
1811.749496429288
 30
0.0
 11
31701.604341291939
 21
1875.7494964292871
 31
0.0
  0
LINE
  5
F915
  8
YODOROGO
 10
31653.60434129191
 20
1811.749496429288
 30
0.0
 11
31701.604341291939
 21
1811.749496429288
 31
0.0
  0
LINE
  5
F916
  8
SUNPOU
  6
CONTINUOUS
 62
     4
 10
22578.29845314211
 20
19770.487954
 30
0.0
 11
22578.29845314211
 21
20570.48887799996
 31
0.0
  0
LINE
  5
F917
  8
SUNPOU
  6
CONTINUOUS
 62
     4
 10
23336.29845314211
 20
19770.487954
 30
0.0
 11
23336.29845314211
 21
20570.48887799996
 31
0.0
  0
LINE
  5
F918
  8
SUNPOU
  6
CONTINUOUS
 62
     4
 10
22578.29845314211
 20
20490.488877999971
 30
0.0
 11
23336.29845314211
 21
20490.488877999971
 31
0.0
  0
LINE
  5
F919
  8
0-6
  6
CONTINUOUS
 62
     6
 10
7636.9368628318989
 20
13710.062206451859
 30
0.0
 11
7774.5151965772229
 21
13795.98762499998
 31
0.0
  0
LINE
  5
F91A
  8
0-6
  6
CONTINUOUS
 62
     6
 10
7774.5151965772229
 20
13795.98762499998
 30
0.0
 11
7672.2406647639891
 21
13670.08518996981
 31
0.0
  0
LINE
  5
F91B
  8
0-6
  6
CONTINUOUS
 62
     6
 10
7672.2406647639891
 20
13670.08518996981
 30
0.0
 11
7636.9368628318989
 21
13710.062206451859
 31
0.0
  0
LINE
  5
F91C
  8
0-6
  6
CONTINUOUS
 62
     6
 10
7866.7259686033794
 20
19479.269014632911
 30
0.0
 11
7927.9230853063782
 21
19629.488481999961
 31
0.0
  0
LINE
  5
F91D
  8
0-6
  6
CONTINUOUS
 62
     6
 10
7927.9230853063782
 20
19629.488481999961
 30
0.0
 11
7821.3125808840978
 21
19507.235860960722
 31
0.0
  0
LINE
  5
F91E
  8
0-6
  6
CONTINUOUS
 62
     6
 10
7821.3125808840978
 20
19507.235860960722
 30
0.0
 11
7866.7259686033794
 21
19479.269014632911
 31
0.0
  0
LINE
  5
F91F
  8
0-6
  6
CONTINUOUS
 62
     6
 10
7866.7259686033794
 20
18014.267114632919
 30
0.0
 11
7927.9230853063782
 21
18164.48658199998
 31
0.0
  0
LINE
  5
F920
  8
0-6
  6
CONTINUOUS
 62
     6
 10
7927.9230853063782
 20
18164.48658199998
 30
0.0
 11
7821.3125808840978
 21
18042.23396096073
 31
0.0
  0
LINE
  5
F921
  8
0-6
  6
CONTINUOUS
 62
     6
 10
7821.3125808840978
 20
18042.23396096073
 30
0.0
 11
7866.7259686033794
 21
18014.267114632919
 31
0.0
  0
LINE
  5
F922
  8
0-6
  6
CONTINUOUS
 62
     6
 10
7866.7259686033794
 20
15096.26711463293
 30
0.0
 11
7927.9230853063782
 21
15246.486582
 31
0.0
  0
LINE
  5
F923
  8
0-6
  6
CONTINUOUS
 62
     6
 10
7927.9230853063782
 20
15246.486582
 30
0.0
 11
7821.3125808840978
 21
15124.233960960761
 31
0.0
  0
LINE
  5
F924
  8
0-6
  6
CONTINUOUS
 62
     6
 10
7821.3125808840978
 20
15124.233960960761
 30
0.0
 11
7866.7259686033794
 21
15096.26711463293
 31
0.0
  0
LINE
  5
F925
  8
0-6
  6
CONTINUOUS
 62
     6
 10
7866.7259686033794
 20
16555.267115632909
 30
0.0
 11
7927.9230853063782
 21
16705.486582999991
 31
0.0
  0
LINE
  5
F926
  8
0-6
  6
CONTINUOUS
 62
     6
 10
7927.9230853063782
 20
16705.486582999991
 30
0.0
 11
7821.3125808840978
 21
16583.23396196073
 31
0.0
  0
LINE
  5
F927
  8
0-6
  6
CONTINUOUS
 62
     6
 10
7821.3125808840978
 20
16583.23396196073
 30
0.0
 11
7866.7259686033794
 21
16555.267115632909
 31
0.0
  0
LINE
  5
F928
  8
0-6
  6
CONTINUOUS
 62
     6
 10
7571.8163929900911
 20
14148.782516449961
 30
0.0
 11
7509.4530551950184
 21
14298.52158806409
 31
0.0
  0
LINE
  5
F929
  8
0-6
  6
CONTINUOUS
 62
     6
 10
7509.4530551950184
 20
14298.52158806409
 30
0.0
 11
7617.0109441769619
 21
14177.101641095371
 31
0.0
  0
LINE
  5
F92A
  8
0-6
  6
CONTINUOUS
 62
     6
 10
7617.0109441769619
 20
14177.101641095371
 30
0.0
 11
7571.8163929900911
 21
14148.782516449961
 31
0.0
  0
LINE
  5
F92B
  8
0-6
  6
CONTINUOUS
 62
     6
 10
8406.5552964942453
 20
14102.586652703711
 30
0.0
 11
8316.696227588387
 21
14237.62858398499
 31
0.0
  0
LINE
  5
F92C
  8
0-6
  6
CONTINUOUS
 62
     6
 10
8316.696227588387
 20
14237.62858398499
 30
0.0
 11
8445.4970819217888
 21
14139.02917766262
 31
0.0
  0
LINE
  5
F92D
  8
0-6
  6
CONTINUOUS
 62
     6
 10
8445.4970819217888
 20
14139.02917766262
 30
0.0
 11
8406.5552964942453
 21
14102.586652703711
 31
0.0
  0
LINE
  5
F92E
  8
SUNPOU
  6
CONTINUOUS
 62
     4
 10
13473.251592195011
 20
15291.48697799999
 30
0.0
 11
14183.953200194999
 21
15291.48697799999
 31
0.0
  0
LINE
  5
F92F
  8
SUNPOU
  6
CONTINUOUS
 62
     4
 10
13416.953094195
 20
13832.48697799999
 30
0.0
 11
14183.953200194999
 21
13832.48697799999
 31
0.0
  0
LINE
  5
F930
  8
SUNPOU
  6
CONTINUOUS
 62
     4
 10
14103.95320019501
 20
15291.48697799999
 30
0.0
 11
14103.95320019501
 21
13832.48697799999
 31
0.0
  0
LINE
  5
F931
  8
SUNPOU
  6
CONTINUOUS
 62
     4
 10
13396.532148071239
 20
16750.486977999979
 30
0.0
 11
14183.953200194999
 21
16750.486977999979
 31
0.0
  0
LINE
  5
F932
  8
SUNPOU
  6
CONTINUOUS
 62
     4
 10
13473.251592195011
 20
15291.48697799999
 30
0.0
 11
14183.953200194999
 21
15291.48697799999
 31
0.0
  0
LINE
  5
F933
  8
SUNPOU
  6
CONTINUOUS
 62
     4
 10
14103.95320019501
 20
16750.486977999979
 30
0.0
 11
14103.95320019501
 21
15291.48697799999
 31
0.0
  0
LINE
  5
F934
  8
SUNPOU
  6
CONTINUOUS
 62
     4
 10
13473.251592195011
 20
18209.48697799999
 30
0.0
 11
14183.953200194999
 21
18209.48697799999
 31
0.0
  0
LINE
  5
F935
  8
SUNPOU
  6
CONTINUOUS
 62
     4
 10
13396.532148071239
 20
16750.486977999979
 30
0.0
 11
14183.953200194999
 21
16750.486977999979
 31
0.0
  0
LINE
  5
F936
  8
SUNPOU
  6
CONTINUOUS
 62
     4
 10
14103.95320019501
 20
18209.48697799999
 30
0.0
 11
14103.95320019501
 21
16750.486977999979
 31
0.0
  0
LINE
  5
F937
  8
SUNPOU
  6
CONTINUOUS
 62
     4
 10
13336.95374819501
 20
13639.98697799999
 30
0.0
 11
14183.95352419502
 21
13639.98697799999
 31
0.0
  0
LINE
  5
F938
  8
SUNPOU
  6
CONTINUOUS
 62
     4
 10
14103.95352419502
 20
13832.486252000001
 30
0.0
 11
14103.95352419502
 21
13639.98697799999
 31
0.0
  0
LINE
  5
F939
  8
SUNPOU
  6
CONTINUOUS
 62
     4
 10
13473.251592195011
 20
18209.48697799999
 30
0.0
 11
14183.95352419502
 21
18209.48697799999
 31
0.0
  0
LINE
  5
F93A
  8
SUNPOU
  6
CONTINUOUS
 62
     4
 10
14103.95352419502
 20
19668.48697799999
 30
0.0
 11
14103.95352419502
 21
18209.48697799999
 31
0.0
  0
LINE
  5
F93B
  8
SUNPOU
  6
CONTINUOUS
 62
     4
 10
14023.95352419502
 20
19668.48697799999
 30
0.0
 11
14063.95352419502
 21
19668.48697799999
 31
0.0
  0
LINE
  5
F93C
  8
SUNPOU
  6
CONTINUOUS
 62
     4
 10
13331.954474195019
 20
19890.986845999982
 30
0.0
 11
14143.95352419502
 21
19890.986845999982
 31
0.0
  0
LINE
  5
F93D
  8
SUNPOU
  6
CONTINUOUS
 62
     4
 10
14103.95352419502
 20
19668.48697799999
 30
0.0
 11
14103.95352419502
 21
19890.986845999982
 31
0.0
  0
LINE
  5
F93E
  8
SUNPOU
  6
CONTINUOUS
 62
     4
 10
13318.954651195019
 20
19850.986713999959
 30
0.0
 11
13783.95418319501
 21
19850.986713999959
 31
0.0
  0
LINE
  5
F93F
  8
SUNPOU
  6
CONTINUOUS
 62
     4
 10
13331.954474195019
 20
19890.986845999982
 30
0.0
 11
13783.95418319501
 21
19890.986845999982
 31
0.0
  0
LINE
  5
F940
  8
SUNPOU
  6
CONTINUOUS
 62
     4
 10
13703.95418319501
 20
19850.986713999959
 30
0.0
 11
13703.95418319501
 21
19610.986713999981
 31
0.0
  0
LINE
  5
F941
  8
SUNPOU
  6
CONTINUOUS
 62
     4
 10
13703.95418319501
 20
19890.986845999982
 30
0.0
 11
13703.95418319501
 21
20130.986845999989
 31
0.0
  0
LINE
  5
F942
  8
SUNPOU
  6
CONTINUOUS
 62
     4
 10
13703.95418319501
 20
19850.986713999959
 30
0.0
 11
13703.95418319501
 21
19890.986845999982
 31
0.0
  0
LINE
  5
F943
  8
SUNPOU
  6
CONTINUOUS
 62
     4
 10
7456.4534241950241
 20
20515.98889099999
 30
0.0
 11
7456.4534241950241
 21
20590.987901999972
 31
0.0
  0
LINE
  5
F944
  8
SUNPOU
  6
CONTINUOUS
 62
     4
 10
7370.9534241950241
 20
19965.988560999958
 30
0.0
 11
7370.9534241950241
 21
20590.987901999972
 31
0.0
  0
LINE
  5
F945
  8
SUNPOU
  6
CONTINUOUS
 62
     4
 10
7456.4534241950241
 20
20510.987901999972
 30
0.0
 11
7696.4534241950241
 21
20510.987901999972
 31
0.0
  0
LINE
  5
F946
  8
SUNPOU
  6
CONTINUOUS
 62
     4
 10
7373.9534241950241
 20
20510.987901999972
 30
0.0
 11
7133.9534241950241
 21
20510.987901999972
 31
0.0
  0
LINE
  5
F947
  8
SUNPOU
  6
CONTINUOUS
 62
     4
 10
7456.4534241950241
 20
20510.987901999972
 30
0.0
 11
7373.9534241950241
 21
20510.987901999972
 31
0.0
  0
LINE
  5
F948
  8
SUNPOU
  6
CONTINUOUS
 62
     4
 10
10256.45342419502
 20
20515.98889099999
 30
0.0
 11
10256.45342419502
 21
20590.987901999972
 31
0.0
  0
LINE
  5
F949
  8
SUNPOU
  6
CONTINUOUS
 62
     4
 10
7456.4534241950241
 20
20515.98889099999
 30
0.0
 11
7456.4534241950241
 21
20590.987901999972
 31
0.0
  0
LINE
  5
F94A
  8
SUNPOU
  6
CONTINUOUS
 62
     4
 10
10256.45342419502
 20
20510.987901999972
 30
0.0
 11
7456.4534241950241
 21
20510.987901999972
 31
0.0
  0
LINE
  5
F94B
  8
SUNPOU
  6
CONTINUOUS
 62
     4
 10
13174.45342419502
 20
20040.988560999969
 30
0.0
 11
13174.45342419502
 21
20590.987901999972
 31
0.0
  0
LINE
  5
F94C
  8
SUNPOU
  6
CONTINUOUS
 62
     4
 10
10256.45342419502
 20
20515.98889099999
 30
0.0
 11
10256.45342419502
 21
20590.987901999972
 31
0.0
  0
LINE
  5
F94D
  8
SUNPOU
  6
CONTINUOUS
 62
     4
 10
13174.45342419502
 20
20510.987901999972
 30
0.0
 11
10256.45342419502
 21
20510.987901999972
 31
0.0
  0
LINE
  5
F94E
  8
SUNPOU
  6
CONTINUOUS
 62
     4
 10
13174.45342419502
 20
20040.988560999969
 30
0.0
 11
13174.45342419502
 21
20590.987901999972
 31
0.0
  0
LINE
  5
F94F
  8
SUNPOU
  6
CONTINUOUS
 62
     4
 10
13259.95342419503
 20
19960.988297999989
 30
0.0
 11
13259.95342419503
 21
20590.987901999972
 31
0.0
  0
LINE
  5
F950
  8
SUNPOU
  6
CONTINUOUS
 62
     4
 10
13174.45342419502
 20
20510.987901999972
 30
0.0
 11
12934.45342419502
 21
20510.987901999972
 31
0.0
  0
LINE
  5
F951
  8
SUNPOU
  6
CONTINUOUS
 62
     4
 10
13256.95342419503
 20
20510.987901999972
 30
0.0
 11
13496.95342419503
 21
20510.987901999972
 31
0.0
  0
LINE
  5
F952
  8
SUNPOU
  6
CONTINUOUS
 62
     4
 10
13174.45342419502
 20
20510.987901999972
 30
0.0
 11
13256.95342419503
 21
20510.987901999972
 31
0.0
  0
LINE
  5
F953
  8
SUNPOU
  6
CONTINUOUS
 62
     4
 10
13259.95342419501
 20
13559.98697799999
 30
0.0
 11
13259.95342419501
 21
12269.98618599998
 31
0.0
  0
LINE
  5
F954
  8
SUNPOU
  6
CONTINUOUS
 62
     4
 10
7370.9534241950241
 20
13559.986977999981
 30
0.0
 11
7370.9534241950241
 21
12269.98618599998
 31
0.0
  0
LINE
  5
F955
  8
SUNPOU
  6
CONTINUOUS
 62
     4
 10
13256.95342419501
 20
12349.98618599998
 30
0.0
 11
7373.9534241950241
 21
12349.98618599998
 31
0.0
  0
LINE
  5
F956
  8
0-6
  6
CONTINUOUS
 62
     6
 10
12308.239713988931
 20
16529.266191632942
 30
0.0
 11
12247.04259728593
 21
16679.485659000009
 31
0.0
  0
LINE
  5
F957
  8
0-6
  6
CONTINUOUS
 62
     6
 10
12247.04259728593
 20
16679.485659000009
 30
0.0
 11
12353.653101708211
 21
16557.23303796077
 31
0.0
  0
LINE
  5
F958
  8
0-6
  6
CONTINUOUS
 62
     6
 10
12353.653101708211
 20
16557.23303796077
 30
0.0
 11
12308.239713988931
 21
16529.266191632942
 31
0.0
  0
LINE
  5
F959
  8
0-6
  6
CONTINUOUS
 62
     6
 10
12492.298484614639
 20
15048.615726956161
 30
0.0
 11
12417.578739544009
 21
15192.587721334879
 31
0.0
  0
LINE
  5
F95A
  8
0-6
  6
CONTINUOUS
 62
     6
 10
12417.578739544009
 20
15192.587721334879
 30
0.0
 11
12534.95478252765
 21
15080.63073165742
 31
0.0
  0
LINE
  5
F95B
  8
0-6
  6
CONTINUOUS
 62
     6
 10
12534.95478252765
 20
15080.63073165742
 30
0.0
 11
12492.298484614639
 21
15048.615726956161
 31
0.0
  0
LINE
  5
F95C
  8
0-6
  6
CONTINUOUS
 62
     6
 10
12492.298484614639
 20
18005.014099621269
 30
0.0
 11
12417.578739544009
 21
18148.986093999989
 31
0.0
  0
LINE
  5
F95D
  8
0-6
  6
CONTINUOUS
 62
     6
 10
12417.578739544009
 20
18148.986093999989
 30
0.0
 11
12534.95478252765
 21
18037.02910432253
 31
0.0
  0
LINE
  5
F95E
  8
0-6
  6
CONTINUOUS
 62
     6
 10
12534.95478252765
 20
18037.02910432253
 30
0.0
 11
12492.298484614639
 21
18005.014099621269
 31
0.0
  0
LINE
  5
F95F
  8
0-6
  6
CONTINUOUS
 62
     6
 10
11197.13213277965
 20
15590.446700373081
 30
0.0
 11
11059.682641843199
 21
15676.578070442971
 31
0.0
  0
LINE
  5
F960
  8
0-6
  6
CONTINUOUS
 62
     6
 10
11059.682641843199
 20
15676.578070442971
 30
0.0
 11
11217.63864644814
 21
15639.68086711559
 31
0.0
  0
LINE
  5
F961
  8
0-6
  6
CONTINUOUS
 62
     6
 10
11217.63864644814
 20
15639.68086711559
 30
0.0
 11
11197.13213277965
 21
15590.446700373081
 31
0.0
  0
LINE
  5
F962
  8
SUNPOU
  6
CONTINUOUS
 62
     4
 10
25496.298453142099
 20
19770.487954
 30
0.0
 11
25496.298453142099
 21
20570.48887799996
 31
0.0
  0
LINE
  5
F963
  8
SUNPOU
  6
CONTINUOUS
 62
     4
 10
25538.79845314211
 20
19770.487954
 30
0.0
 11
25538.79845314211
 21
20570.48887799996
 31
0.0
  0
LINE
  5
F964
  8
SUNPOU
  6
CONTINUOUS
 62
     4
 10
25496.298453142099
 20
20490.488877999971
 30
0.0
 11
25256.298453142099
 21
20490.488877999971
 31
0.0
  0
LINE
  5
F965
  8
SUNPOU
  6
CONTINUOUS
 62
     4
 10
25538.79845314211
 20
20490.488877999971
 30
0.0
 11
25778.798453142099
 21
20490.488877999971
 31
0.0
  0
LINE
  5
F966
  8
SUNPOU
  6
CONTINUOUS
 62
     4
 10
25496.298453142099
 20
20490.488877999971
 30
0.0
 11
25538.79845314211
 21
20490.488877999971
 31
0.0
  0
LINE
  5
F967
  8
0-6
  6
CONTINUOUS
 62
     6
 10
19920.524498090072
 20
19432.391181253341
 30
0.0
 11
19814.196474142111
 21
19554.887412999989
 31
0.0
  0
LINE
  5
F968
  8
0-6
  6
CONTINUOUS
 62
     6
 10
19814.196474142111
 20
19554.887412999989
 30
0.0
 11
19875.048593735359
 21
19404.526106324542
 31
0.0
  0
LINE
  5
F969
  8
0-6
  6
CONTINUOUS
 62
     6
 10
19875.048593735359
 20
19404.526106324542
 30
0.0
 11
19920.524498090072
 21
19432.391181253341
 31
0.0
  0
LINE
  5
F96A
  8
0-6
  6
CONTINUOUS
 62
     6
 10
19892.3401525841
 20
19848.204737932669
 30
0.0
 11
19823.29647414212
 21
19701.426177045862
 31
0.0
  0
LINE
  5
F96B
  8
0-6
  6
CONTINUOUS
 62
     6
 10
19823.29647414212
 20
19701.426177045862
 30
0.0
 11
19936.213474321241
 21
19817.878974670839
 31
0.0
  0
LINE
  5
F96C
  8
0-6
  6
CONTINUOUS
 62
     6
 10
19936.213474321241
 20
19817.878974670839
 30
0.0
 11
19892.3401525841
 21
19848.204737932669
 31
0.0
  0
LINE
  5
F96D
  8
0-6
  6
CONTINUOUS
 62
     6
 10
19920.524498090072
 20
16914.583749746631
 30
0.0
 11
19814.196474142111
 21
16792.08751799996
 31
0.0
  0
LINE
  5
F96E
  8
0-6
  6
CONTINUOUS
 62
     6
 10
19814.196474142111
 20
16792.08751799996
 30
0.0
 11
19875.048593735359
 21
16942.44882467543
 31
0.0
  0
LINE
  5
F96F
  8
0-6
  6
CONTINUOUS
 62
     6
 10
19875.048593735359
 20
16942.44882467543
 30
0.0
 11
19920.524498090072
 21
16914.583749746631
 31
0.0
  0
LINE
  5
F970
  8
0-6
  6
CONTINUOUS
 62
     6
 10
19920.524498090072
 20
14007.08418574664
 30
0.0
 11
19814.196474142111
 21
13884.587953999981
 31
0.0
  0
LINE
  5
F971
  8
0-6
  6
CONTINUOUS
 62
     6
 10
19814.196474142111
 20
13884.587953999981
 30
0.0
 11
19875.048593735359
 21
14034.94926067543
 31
0.0
  0
LINE
  5
F972
  8
0-6
  6
CONTINUOUS
 62
     6
 10
19875.048593735359
 20
14034.94926067543
 30
0.0
 11
19920.524498090072
 21
14007.08418574664
 31
0.0
  0
LINE
  5
F973
  8
0-6
  6
CONTINUOUS
 62
     6
 10
19892.3401525841
 20
16498.770193067281
 30
0.0
 11
19823.29647414212
 21
16645.54875395411
 31
0.0
  0
LINE
  5
F974
  8
0-6
  6
CONTINUOUS
 62
     6
 10
19823.29647414212
 20
16645.54875395411
 30
0.0
 11
19936.213474321241
 21
16529.09595632914
 31
0.0
  0
LINE
  5
F975
  8
0-6
  6
CONTINUOUS
 62
     6
 10
19936.213474321241
 20
16529.09595632914
 30
0.0
 11
19892.3401525841
 21
16498.770193067281
 31
0.0
  0
LINE
  5
F976
  8
0-6
  6
CONTINUOUS
 62
     6
 10
19892.3401525841
 20
13611.209393113149
 30
0.0
 11
19823.29647414212
 21
13757.98795399998
 31
0.0
  0
LINE
  5
F977
  8
0-6
  6
CONTINUOUS
 62
     6
 10
19823.29647414212
 20
13757.98795399998
 30
0.0
 11
19936.213474321241
 21
13641.53515637501
 31
0.0
  0
LINE
  5
F978
  8
0-6
  6
CONTINUOUS
 62
     6
 10
19936.213474321241
 20
13641.53515637501
 30
0.0
 11
19892.3401525841
 21
13611.209393113149
 31
0.0
  0
LINE
  5
F99D
  8
SUNPOU
  6
CONTINUOUS
 62
     4
 10
24738.298453142099
 20
19770.487954
 30
0.0
 11
24738.298453142099
 21
20570.48887799996
 31
0.0
  0
LINE
  5
F99E
  8
SUNPOU
  6
CONTINUOUS
 62
     4
 10
25496.298453142099
 20
19770.487954
 30
0.0
 11
25496.298453142099
 21
20570.48887799996
 31
0.0
  0
LINE
  5
F99F
  8
SUNPOU
  6
CONTINUOUS
 62
     4
 10
24738.298453142099
 20
20490.488877999971
 30
0.0
 11
25496.298453142099
 21
20490.488877999971
 31
0.0
  0
LINE
  5
F9A0
  8
SUNPOU
  6
CONTINUOUS
 62
     4
 10
24037.29845314211
 20
19770.487954
 30
0.0
 11
24037.29845314211
 21
20570.48887799996
 31
0.0
  0
LINE
  5
F9A1
  8
SUNPOU
  6
CONTINUOUS
 62
     4
 10
24738.298453142099
 20
19770.487954
 30
0.0
 11
24738.298453142099
 21
20570.48887799996
 31
0.0
  0
LINE
  5
F9A2
  8
SUNPOU
  6
CONTINUOUS
 62
     4
 10
24037.29845314211
 20
20490.488877999971
 30
0.0
 11
24738.298453142099
 21
20490.488877999971
 31
0.0
  0
LINE
  5
F9A3
  8
SUNPOU
  6
CONTINUOUS
 62
     4
 10
23336.29845314211
 20
19770.487954
 30
0.0
 11
23336.29845314211
 21
20570.48887799996
 31
0.0
  0
LINE
  5
F9A4
  8
SUNPOU
  6
CONTINUOUS
 62
     4
 10
24037.29845314211
 20
19770.487954
 30
0.0
 11
24037.29845314211
 21
20570.48887799996
 31
0.0
  0
LINE
  5
F9A5
  8
SUNPOU
  6
CONTINUOUS
 62
     4
 10
23336.29845314211
 20
20490.488877999971
 30
0.0
 11
24037.29845314211
 21
20490.488877999971
 31
0.0
  0
LINE
  5
F9A6
  8
SUNPOU
  6
CONTINUOUS
 62
     4
 10
22578.29845314211
 20
19850.490460999961
 30
0.0
 11
22578.29845314211
 21
20570.48887799996
 31
0.0
  0
LINE
  5
F9A7
  8
SUNPOU
  6
CONTINUOUS
 62
     4
 10
22535.79845314211
 20
19770.487954
 30
0.0
 11
22535.79845314211
 21
20570.48887799996
 31
0.0
  0
LINE
  5
F9A8
  8
SUNPOU
  6
CONTINUOUS
 62
     4
 10
22578.29845314211
 20
20490.488877999971
 30
0.0
 11
22818.29845314211
 21
20490.488877999971
 31
0.0
  0
LINE
  5
F9A9
  8
SUNPOU
  6
CONTINUOUS
 62
     4
 10
22535.79845314211
 20
20490.488877999971
 30
0.0
 11
22295.79845314211
 21
20490.488877999971
 31
0.0
  0
LINE
  5
F9AA
  8
SUNPOU
  6
CONTINUOUS
 62
     4
 10
22578.29845314211
 20
20490.488877999971
 30
0.0
 11
22535.79845314211
 21
20490.488877999971
 31
0.0
  0
LINE
  5
F9B8
  8
SUNPOU
  6
CONTINUOUS
 62
     4
 10
22578.29647414212
 20
20890.48887799996
 30
0.0
 11
19778.296474142091
 21
20890.48887799996
 31
0.0
  0
LINE
  5
F9B9
  8
SUNPOU
  6
CONTINUOUS
 62
     4
 10
25496.296474142109
 20
20890.48887799996
 30
0.0
 11
22578.29647414212
 21
20890.48887799996
 31
0.0
  0
LINE
  5
F9BA
  8
SUNPOU
  6
CONTINUOUS
 62
     4
 10
19778.296474142091
 20
20014.93772787731
 30
0.0
 11
19778.296474142091
 21
20570.48887799996
 31
0.0
  0
LINE
  5
F9BB
  8
SUNPOU
  6
CONTINUOUS
 62
     4
 10
19820.798717142101
 20
19853.83821799999
 30
0.0
 11
19820.798717142101
 21
20570.48887799996
 31
0.0
  0
LINE
  5
F9BC
  8
SUNPOU
  6
CONTINUOUS
 62
     4
 10
19778.296474142091
 20
20490.488877999971
 30
0.0
 11
19538.29647414212
 21
20490.488877999971
 31
0.0
  0
LINE
  5
F9BD
  8
SUNPOU
  6
CONTINUOUS
 62
     4
 10
19820.798717142101
 20
20490.488877999971
 30
0.0
 11
20060.798717142101
 21
20490.488877999971
 31
0.0
  0
LINE
  5
F9BE
  8
SUNPOU
  6
CONTINUOUS
 62
     4
 10
19778.296474142091
 20
20490.488877999971
 30
0.0
 11
19820.798717142101
 21
20490.488877999971
 31
0.0
  0
LINE
  5
F9BF
  8
SUNPOU
  6
CONTINUOUS
 62
     4
 10
19778.296474142091
 20
20014.93772787731
 30
0.0
 11
19778.296474142091
 21
20570.48887799996
 31
0.0
  0
LINE
  5
F9C0
  8
SUNPOU
  6
CONTINUOUS
 62
     4
 10
19735.798189142111
 20
19850.490460999961
 30
0.0
 11
19735.798189142111
 21
20570.48887799996
 31
0.0
  0
LINE
  5
F9C1
  8
SUNPOU
  6
CONTINUOUS
 62
     4
 10
19778.296474142091
 20
20490.488877999971
 30
0.0
 11
20018.29647414212
 21
20490.488877999971
 31
0.0
  0
LINE
  5
F9C2
  8
SUNPOU
  6
CONTINUOUS
 62
     4
 10
19735.798189142111
 20
20490.488877999971
 30
0.0
 11
19495.798189142111
 21
20490.488877999971
 31
0.0
  0
LINE
  5
F9C3
  8
SUNPOU
  6
CONTINUOUS
 62
     4
 10
19778.296474142091
 20
20490.488877999971
 30
0.0
 11
19735.798189142111
 21
20490.488877999971
 31
0.0
  0
LINE
  5
F9C4
  8
SUNPOU
  6
CONTINUOUS
 62
     4
 10
19393.691638190161
 20
16729.987953999978
 30
0.0
 11
18480.45284977349
 21
16729.987953999978
 31
0.0
  0
LINE
  5
F9C5
  8
SUNPOU
  6
CONTINUOUS
 62
     4
 10
19393.691638190161
 20
19647.987953999989
 30
0.0
 11
18480.45284977349
 21
19647.987953999989
 31
0.0
  0
LINE
  5
F9C6
  8
SUNPOU
  6
CONTINUOUS
 62
     4
 10
18560.45284977349
 20
16729.987953999978
 30
0.0
 11
18560.45284977349
 21
19647.987953999989
 31
0.0
  0
LINE
  5
F9C7
  8
SUNPOU
  6
CONTINUOUS
 62
     4
 10
19393.691638190161
 20
13811.98795399998
 30
0.0
 11
18480.45284977349
 21
13811.98795399998
 31
0.0
  0
LINE
  5
F9C8
  8
SUNPOU
  6
CONTINUOUS
 62
     4
 10
19393.691638190161
 20
16729.987953999978
 30
0.0
 11
18480.45284977349
 21
16729.987953999978
 31
0.0
  0
LINE
  5
F9C9
  8
SUNPOU
  6
CONTINUOUS
 62
     4
 10
18560.45284977349
 20
13811.98795399998
 30
0.0
 11
18560.45284977349
 21
16729.987953999978
 31
0.0
  0
ARC
  5
F9E1
  8
1-前柱P
 10
19768.696474142111
 20
13880.387953999991
 30
0.0
 40
1.0
 50
0.0
 51
90.0
  0
LINE
  5
F9E2
  8
1-前柱P
 10
19769.696474142111
 20
13880.387953999991
 30
0.0
 11
19769.696474142111
 21
13878.78795399999
 31
0.0
  0
LINE
  5
F9E3
  8
1-前柱P
 10
19769.696474142111
 20
13878.78795399999
 30
0.0
 11
19780.896474142111
 21
13878.78795399999
 31
0.0
  0
LINE
  5
F9E4
  8
1-前柱P
 10
19780.896474142111
 20
13878.78795399999
 30
0.0
 11
19780.896474142111
 21
13880.387953999991
 31
0.0
  0
ARC
  5
F9E5
  8
1-前柱P
 10
19781.896474142111
 20
13880.387953999991
 30
0.0
 40
1.0
 50
90.0
 51
180.0
  0
ARC
  5
F9E6
  8
1-中柱P
 10
19784.896474142111
 20
16798.287953999981
 30
0.0
 40
1.0
 50
90.0
 51
180.0
  0
LINE
  5
F9E7
  8
1-中柱P
 10
19783.896474142111
 20
16798.287953999981
 30
0.0
 11
19783.896474142111
 21
16796.687954000001
 31
0.0
  0
LINE
  5
F9E8
  8
1-中柱P
 10
19783.896474142111
 20
16796.687954000001
 30
0.0
 11
19772.696474142111
 21
16796.687954000001
 31
0.0
  0
LINE
  5
F9E9
  8
1-中柱P
 10
19772.696474142111
 20
16796.687954000001
 30
0.0
 11
19772.696474142111
 21
16798.287953999981
 31
0.0
  0
ARC
  5
F9EA
  8
1-中柱P
 10
19771.696474142111
 20
16798.287953999981
 30
0.0
 40
1.0
 50
0.0
 51
90.0
  0
ARC
  5
F9EB
  8
1-後柱P
 10
19787.896474142111
 20
19579.93795399995
 30
0.0
 40
1.0
 50
180.0
 51
270.0
  0
LINE
  5
F9EC
  8
1-後柱P
 10
19786.896474142111
 20
19579.93795399995
 30
0.0
 11
19786.896474142111
 21
19581.537953999989
 31
0.0
  0
LINE
  5
F9ED
  8
1-後柱P
 10
19786.896474142111
 20
19581.537953999989
 30
0.0
 11
19775.696474142111
 21
19581.537953999989
 31
0.0
  0
LINE
  5
F9EE
  8
1-後柱P
 10
19775.696474142111
 20
19581.537953999989
 30
0.0
 11
19775.696474142111
 21
19579.93795399995
 31
0.0
  0
ARC
  5
F9EF
  8
1-後柱P
 10
19774.696474142111
 20
19579.93795399995
 30
0.0
 40
1.0
 50
270.0
 51
0.0
  0
LINE
  5
F9F0
  8
SUNPOU
  6
CONTINUOUS
 62
     4
 10
13442.54714969357
 20
8478.188374000003
 30
0.0
 11
13442.54714969357
 21
9869.1883999999955
 31
0.0
  0
LINE
  5
F9F1
  8
SUNPOU
  6
CONTINUOUS
 62
     4
 10
7191.5471496935797
 20
8610.0781974124311
 30
0.0
 11
7191.5471496935797
 21
9869.1883999999955
 31
0.0
  0
LINE
  5
F9F2
  8
SUNPOU
  6
CONTINUOUS
 62
     4
 10
13442.54714969357
 20
9789.1883999999991
 30
0.0
 11
7191.5471496935797
 21
9789.1883999999991
 31
0.0
  0
LINE
  5
F9F3
  8
SUNPOU
  6
CONTINUOUS
 62
     4
 10
7341.5471496935706
 20
8536.0984380000027
 30
0.0
 11
7341.5471496935706
 21
9469.1900500000029
 31
0.0
  0
LINE
  5
F9F4
  8
SUNPOU
  6
CONTINUOUS
 62
     4
 10
7191.5471496935797
 20
8610.0781974124311
 30
0.0
 11
7191.5471496935797
 21
9469.1900500000029
 31
0.0
  0
LINE
  5
F9F5
  8
SUNPOU
  6
CONTINUOUS
 62
     4
 10
7341.5471496935706
 20
9389.1900500000029
 30
0.0
 11
7581.5471496935706
 21
9389.1900500000029
 31
0.0
  0
LINE
  5
F9F6
  8
SUNPOU
  6
CONTINUOUS
 62
     4
 10
7191.5471496935797
 20
9389.1900500000029
 30
0.0
 11
6951.5471496935779
 21
9389.1900500000029
 31
0.0
  0
LINE
  5
F9F7
  8
SUNPOU
  6
CONTINUOUS
 62
     4
 10
7341.5471496935706
 20
9389.1900500000029
 30
0.0
 11
7191.5471496935797
 21
9389.1900500000029
 31
0.0
  0
LINE
  5
F9F8
  8
SUNPOU
  6
CONTINUOUS
 62
     4
 10
13262.54714969357
 20
8348.3741496838102
 30
0.0
 11
13262.54714969357
 21
9469.1900500000029
 31
0.0
  0
LINE
  5
F9F9
  8
SUNPOU
  6
CONTINUOUS
 62
     4
 10
7341.5471496935706
 20
8536.0984380000027
 30
0.0
 11
7341.5471496935706
 21
9469.1900500000029
 31
0.0
  0
LINE
  5
F9FA
  8
SUNPOU
  6
CONTINUOUS
 62
     4
 10
13262.54714969357
 20
9389.1900500000029
 30
0.0
 11
7341.5471496935706
 21
9389.1900500000029
 31
0.0
  0
LINE
  5
F9FB
  8
SUNPOU
  6
CONTINUOUS
 62
     4
 10
13442.54714969357
 20
8478.188374000003
 30
0.0
 11
13442.54714969357
 21
9469.1900500000029
 31
0.0
  0
LINE
  5
F9FC
  8
SUNPOU
  6
CONTINUOUS
 62
     4
 10
13262.54714969357
 20
8348.3741496838102
 30
0.0
 11
13262.54714969357
 21
9469.1900500000029
 31
0.0
  0
LINE
  5
F9FD
  8
SUNPOU
  6
CONTINUOUS
 62
     4
 10
13442.54714969357
 20
9389.1900500000029
 30
0.0
 11
13262.54714969357
 21
9389.1900500000029
 31
0.0
  0
LINE
  5
F9FE
  8
SUNPOU
  6
CONTINUOUS
 62
     4
 10
7249.0471496935797
 20
6241.1883740000048
 30
0.0
 11
6171.5467536935757
 21
6241.1883740000048
 31
0.0
  0
LINE
  5
F9FF
  8
SUNPOU
  6
CONTINUOUS
 62
     4
 10
7156.7398900941998
 20
8589.688374000003
 30
0.0
 11
6171.5467536935757
 21
8589.688374000003
 31
0.0
  0
LINE
  5
FA00
  8
SUNPOU
  6
CONTINUOUS
 62
     4
 10
6251.5467536935757
 20
6241.1883740000048
 30
0.0
 11
6251.5467536935757
 21
8589.688374000003
 31
0.0
  0
LINE
  5
FA01
  8
SUNPOU
  6
CONTINUOUS
 62
     4
 10
13350.047149693581
 20
6241.1883740000048
 30
0.0
 11
14432.54754569356
 21
6241.1883740000039
 31
0.0
  0
LINE
  5
FA02
  8
SUNPOU
  6
CONTINUOUS
 62
     4
 10
13522.547149693581
 20
8397.688374000003
 30
0.0
 11
14432.54754569356
 21
8397.688374000003
 31
0.0
  0
LINE
  5
FA03
  8
SUNPOU
  6
CONTINUOUS
 62
     4
 10
14352.54754569356
 20
6241.1883740000039
 30
0.0
 11
14352.54754569356
 21
8397.688374000003
 31
0.0
  0
LINE
  5
FA04
  8
SUNPOU
  6
CONTINUOUS
 62
     4
 10
13262.54714969357
 20
6161.1883740000048
 30
0.0
 11
13262.54714969357
 21
4461.1887040000001
 31
0.0
  0
LINE
  5
FA05
  8
SUNPOU
  6
CONTINUOUS
 62
     4
 10
7341.5471496935706
 20
6161.1883740000048
 30
0.0
 11
7341.5471496935706
 21
4461.1887040000001
 31
0.0
  0
LINE
  5
FA06
  8
SUNPOU
  6
CONTINUOUS
 62
     4
 10
13262.54714969357
 20
4541.1887040000001
 30
0.0
 11
7341.5471496935706
 21
4541.1887040000001
 31
0.0
  0
LINE
  5
FA07
  8
SUNPOU
  6
CONTINUOUS
 62
     4
 10
7384.0471496935788
 20
5798.536116000002
 30
0.0
 11
7384.0471496935788
 21
4861.1885390000043
 31
0.0
  0
LINE
  5
FA08
  8
SUNPOU
  6
CONTINUOUS
 62
     4
 10
7341.5471496935706
 20
6161.1883740000048
 30
0.0
 11
7341.5471496935706
 21
4861.1885390000043
 31
0.0
  0
LINE
  5
FA09
  8
SUNPOU
  6
CONTINUOUS
 62
     4
 10
7384.0471496935788
 20
4941.1885390000016
 30
0.0
 11
7624.0471496935797
 21
4941.1885390000016
 31
0.0
  0
LINE
  5
FA0A
  8
SUNPOU
  6
CONTINUOUS
 62
     4
 10
7341.5471496935706
 20
4941.1885390000016
 30
0.0
 11
7101.5471496935716
 21
4941.1885390000016
 31
0.0
  0
LINE
  5
FA0B
  8
SUNPOU
  6
CONTINUOUS
 62
     4
 10
7384.0471496935788
 20
4941.1885390000016
 30
0.0
 11
7341.5471496935706
 21
4941.1885390000016
 31
0.0
  0
LINE
  5
FA0C
  8
SUNPOU
  6
CONTINUOUS
 62
     4
 10
13220.04714969357
 20
5798.536116000002
 30
0.0
 11
13220.04714969357
 21
4861.1885390000043
 31
0.0
  0
LINE
  5
FA0D
  8
SUNPOU
  6
CONTINUOUS
 62
     4
 10
13262.54714969357
 20
6161.1883740000048
 30
0.0
 11
13262.54714969357
 21
4861.1885390000043
 31
0.0
  0
LINE
  5
FA0E
  8
SUNPOU
  6
CONTINUOUS
 62
     4
 10
13220.04714969357
 20
4941.1885390000016
 30
0.0
 11
12980.04714969357
 21
4941.1885390000016
 31
0.0
  0
LINE
  5
FA0F
  8
SUNPOU
  6
CONTINUOUS
 62
     4
 10
13262.54714969357
 20
4941.1885390000016
 30
0.0
 11
13502.547149693581
 21
4941.1885390000016
 31
0.0
  0
LINE
  5
FA10
  8
SUNPOU
  6
CONTINUOUS
 62
     4
 10
13220.04714969357
 20
4941.1885390000016
 30
0.0
 11
13262.54714969357
 21
4941.1885390000016
 31
0.0
  0
LINE
  5
FA11
  8
SUNPOU
  6
CONTINUOUS
 62
     4
 10
10302.047149693581
 20
5798.536116000002
 30
0.0
 11
10302.047149693581
 21
4861.1885390000043
 31
0.0
  0
LINE
  5
FA12
  8
SUNPOU
  6
CONTINUOUS
 62
     4
 10
13220.04714969357
 20
5798.536116000002
 30
0.0
 11
13220.04714969357
 21
4861.1885390000043
 31
0.0
  0
LINE
  5
FA13
  8
SUNPOU
  6
CONTINUOUS
 62
     4
 10
10302.047149693581
 20
4941.1885390000016
 30
0.0
 11
13220.04714969357
 21
4941.1885390000016
 31
0.0
  0
LINE
  5
FA14
  8
SUNPOU
  6
CONTINUOUS
 62
     4
 10
10302.047149693581
 20
5798.536116000002
 30
0.0
 11
10302.047149693581
 21
4861.1885390000043
 31
0.0
  0
LINE
  5
FA15
  8
SUNPOU
  6
CONTINUOUS
 62
     4
 10
7384.0471496935788
 20
5798.536116000002
 30
0.0
 11
7384.0471496935788
 21
4861.1885390000043
 31
0.0
  0
LINE
  5
FA16
  8
SUNPOU
  6
CONTINUOUS
 62
     4
 10
10302.047149693581
 20
4941.1885390000016
 30
0.0
 11
7384.0471496935788
 21
4941.1885390000016
 31
0.0
  0
LINE
  5
FA17
  8
SUNPOU
  6
CONTINUOUS
 62
     4
 10
25581.79818914214
 20
8669.6883999999955
 30
0.0
 11
25581.79818914214
 21
9869.1329740000092
 31
0.0
  0
LINE
  5
FA18
  8
SUNPOU
  6
CONTINUOUS
 62
     4
 10
19692.79818914213
 20
8669.6883999999955
 30
0.0
 11
19692.79818914213
 21
9869.1329740000092
 31
0.0
  0
LINE
  5
FA19
  8
SUNPOU
  6
CONTINUOUS
 62
     4
 10
25578.79818914214
 20
9789.1329740000092
 30
0.0
 11
19695.79818914213
 21
9789.1329740000092
 31
0.0
  0
LINE
  5
FA1A
  8
SUNPOU
  6
CONTINUOUS
 62
     4
 10
19735.798189142111
 20
8669.6883999999955
 30
0.0
 11
19735.798189142111
 21
9469.1900500000029
 31
0.0
  0
LINE
  5
FA1B
  8
SUNPOU
  6
CONTINUOUS
 62
     4
 10
19692.79818914213
 20
8669.6883999999955
 30
0.0
 11
19692.79818914213
 21
9469.1900500000029
 31
0.0
  0
LINE
  5
FA1C
  8
SUNPOU
  6
CONTINUOUS
 62
     4
 10
19735.798189142111
 20
9389.1900500000029
 30
0.0
 11
19975.798189142111
 21
9389.1900500000029
 31
0.0
  0
LINE
  5
FA1D
  8
SUNPOU
  6
CONTINUOUS
 62
     4
 10
19695.79818914213
 20
9389.1900500000029
 30
0.0
 11
19455.79818914213
 21
9389.1900500000029
 31
0.0
  0
LINE
  5
FA1E
  8
SUNPOU
  6
CONTINUOUS
 62
     4
 10
19735.798189142111
 20
9389.1900500000029
 30
0.0
 11
19695.79818914213
 21
9389.1900500000029
 31
0.0
  0
LINE
  5
FA1F
  8
SUNPOU
  6
CONTINUOUS
 62
     4
 10
25538.79818914214
 20
8539.6884659999996
 30
0.0
 11
25538.79818914214
 21
9469.1900500000029
 31
0.0
  0
LINE
  5
FA20
  8
SUNPOU
  6
CONTINUOUS
 62
     4
 10
25581.79818914214
 20
8669.6883999999955
 30
0.0
 11
25581.79818914214
 21
9469.1900500000029
 31
0.0
  0
LINE
  5
FA21
  8
SUNPOU
  6
CONTINUOUS
 62
     4
 10
25538.79818914214
 20
9389.1900500000029
 30
0.0
 11
25298.79818914213
 21
9389.1900500000029
 31
0.0
  0
LINE
  5
FA22
  8
SUNPOU
  6
CONTINUOUS
 62
     4
 10
25578.79818914214
 20
9389.1900500000029
 30
0.0
 11
25818.79818914214
 21
9389.1900500000029
 31
0.0
  0
LINE
  5
FA23
  8
SUNPOU
  6
CONTINUOUS
 62
     4
 10
25538.79818914214
 20
9389.1900500000029
 30
0.0
 11
25578.79818914214
 21
9389.1900500000029
 31
0.0
  0
LINE
  5
FA24
  8
SUNPOU
  6
CONTINUOUS
 62
     4
 10
22535.798189142111
 20
8539.6884659999996
 30
0.0
 11
22535.798189142111
 21
9469.1900500000029
 31
0.0
  0
LINE
  5
FA25
  8
SUNPOU
  6
CONTINUOUS
 62
     4
 10
25538.79818914214
 20
8539.6884659999996
 30
0.0
 11
25538.79818914214
 21
9469.1900500000029
 31
0.0
  0
LINE
  5
FA26
  8
SUNPOU
  6
CONTINUOUS
 62
     4
 10
22535.798189142111
 20
9389.1900500000029
 30
0.0
 11
25538.79818914214
 21
9389.1900500000029
 31
0.0
  0
LINE
  5
FA27
  8
SUNPOU
  6
CONTINUOUS
 62
     4
 10
25626.300828142121
 20
6241.1883740000048
 30
0.0
 11
27069.400439846861
 21
6241.1883740000039
 31
0.0
  0
LINE
  5
FA28
  8
SUNPOU
  6
CONTINUOUS
 62
     4
 10
25658.79818914214
 20
8589.6883999999973
 30
0.0
 11
27069.400439846871
 21
8589.6883999999973
 31
0.0
  0
LINE
  5
FA29
  8
SUNPOU
  6
CONTINUOUS
 62
     4
 10
26989.400439846861
 20
6241.1883740000039
 30
0.0
 11
26989.400439846871
 21
8589.6883999999973
 31
0.0
  0
LINE
  5
FA2A
  8
SUNPOU
  6
CONTINUOUS
 62
     4
 10
25626.300828142121
 20
6241.1883740000048
 30
0.0
 11
26426.301488142119
 21
6241.1883740000048
 31
0.0
  0
LINE
  5
FA2B
  8
SUNPOU
  6
CONTINUOUS
 62
     4
 10
25533.801884142111
 20
8132.6883740000021
 30
0.0
 11
26426.301488142119
 21
8132.6883740000021
 31
0.0
  0
LINE
  5
FA2C
  8
SUNPOU
  6
CONTINUOUS
 62
     4
 10
26346.301488142119
 20
6241.1883740000048
 30
0.0
 11
26346.301488142119
 21
8132.6883740000021
 31
0.0
  0
LINE
  5
FA2D
  8
SUNPOU
  6
CONTINUOUS
 62
     4
 10
22532.798189142119
 20
6161.1883740000048
 30
0.0
 11
22532.798189142119
 21
5261.1883740000048
 31
0.0
  0
LINE
  5
FA2E
  8
SUNPOU
  6
CONTINUOUS
 62
     4
 10
19820.7981891421
 20
6061.1885390000034
 30
0.0
 11
19820.7981891421
 21
5261.1883740000048
 31
0.0
  0
LINE
  5
FA2F
  8
SUNPOU
  6
CONTINUOUS
 62
     4
 10
22532.798189142119
 20
5341.1883740000048
 30
0.0
 11
19820.7981891421
 21
5341.1883740000048
 31
0.0
  0
LINE
  5
FA30
  8
SUNPOU
  6
CONTINUOUS
 62
     4
 10
25538.758236194601
 20
6161.1883740000048
 30
0.0
 11
25538.758236194601
 21
4461.1887040000574
 31
0.0
  0
LINE
  5
FA31
  8
SUNPOU
  6
CONTINUOUS
 62
     4
 10
19735.79818914213
 20
6061.1885390000034
 30
0.0
 11
19735.79818914213
 21
4461.1887040000574
 31
0.0
  0
LINE
  5
FA32
  8
SUNPOU
  6
CONTINUOUS
 62
     4
 10
25538.758236194601
 20
4541.1887040000593
 30
0.0
 11
19735.79818914213
 21
4541.1887040000593
 31
0.0
  0
LINE
  5
FA33
  8
SUNPOU
  6
CONTINUOUS
 62
     4
 10
25496.29818914214
 20
5798.536116000002
 30
0.0
 11
25496.29818914214
 21
4861.1885390000043
 31
0.0
  0
LINE
  5
FA34
  8
SUNPOU
  6
CONTINUOUS
 62
     4
 10
25538.758236194601
 20
6161.1883740000048
 30
0.0
 11
25538.758236194601
 21
4861.1885390000043
 31
0.0
  0
LINE
  5
FA35
  8
SUNPOU
  6
CONTINUOUS
 62
     4
 10
25496.29818914214
 20
4941.1885390000016
 30
0.0
 11
25256.29818914214
 21
4941.1885390000016
 31
0.0
  0
LINE
  5
FA36
  8
SUNPOU
  6
CONTINUOUS
 62
     4
 10
25538.758236194601
 20
4941.1885390000016
 30
0.0
 11
25778.758236194601
 21
4941.1885390000016
 31
0.0
  0
LINE
  5
FA37
  8
SUNPOU
  6
CONTINUOUS
 62
     4
 10
25496.29818914214
 20
4941.1885390000016
 30
0.0
 11
25538.758236194601
 21
4941.1885390000016
 31
0.0
  0
LINE
  5
FA38
  8
SUNPOU
  6
CONTINUOUS
 62
     4
 10
22578.298189142119
 20
5798.536116000002
 30
0.0
 11
22578.298189142119
 21
4861.1885390000043
 31
0.0
  0
LINE
  5
FA39
  8
SUNPOU
  6
CONTINUOUS
 62
     4
 10
25496.29818914214
 20
5798.536116000002
 30
0.0
 11
25496.29818914214
 21
4861.1885390000043
 31
0.0
  0
LINE
  5
FA3A
  8
SUNPOU
  6
CONTINUOUS
 62
     4
 10
22578.298189142119
 20
4941.1885390000016
 30
0.0
 11
25496.29818914214
 21
4941.1885390000016
 31
0.0
  0
LINE
  5
FA3B
  8
SUNPOU
  6
CONTINUOUS
 62
     4
 10
25402.29818914214
 20
6061.1885390000034
 30
0.0
 11
25402.29818914214
 21
5261.1883740000048
 31
0.0
  0
LINE
  5
FA3C
  8
SUNPOU
  6
CONTINUOUS
 62
     4
 10
22672.29818914214
 20
6061.1885390000034
 30
0.0
 11
22672.29818914214
 21
5261.1883740000048
 31
0.0
  0
LINE
  5
FA3D
  8
SUNPOU
  6
CONTINUOUS
 62
     4
 10
25402.29818914214
 20
5341.1883740000048
 30
0.0
 11
22672.29818914214
 21
5341.1883740000048
 31
0.0
  0
LINE
  5
FA3E
  8
SUNPOU
  6
CONTINUOUS
 62
     4
 10
19778.298189142119
 20
5798.536116000002
 30
0.0
 11
19778.298189142119
 21
4861.1885390000043
 31
0.0
  0
LINE
  5
FA3F
  8
SUNPOU
  6
CONTINUOUS
 62
     4
 10
19735.79818914213
 20
6061.1885390000034
 30
0.0
 11
19735.79818914213
 21
4861.1885390000043
 31
0.0
  0
LINE
  5
FA40
  8
SUNPOU
  6
CONTINUOUS
 62
     4
 10
19778.298189142119
 20
4941.1885390000016
 30
0.0
 11
20018.298189142111
 21
4941.1885390000016
 31
0.0
  0
LINE
  5
FA41
  8
SUNPOU
  6
CONTINUOUS
 62
     4
 10
19735.79818914213
 20
4941.1885390000016
 30
0.0
 11
19495.79818914213
 21
4941.1885390000016
 31
0.0
  0
LINE
  5
FA42
  8
SUNPOU
  6
CONTINUOUS
 62
     4
 10
19778.298189142119
 20
4941.1885390000016
 30
0.0
 11
19735.79818914213
 21
4941.1885390000016
 31
0.0
  0
LINE
  5
FA43
  8
SUNPOU
  6
CONTINUOUS
 62
     4
 10
22578.298189142119
 20
5798.536116000002
 30
0.0
 11
22578.298189142119
 21
4861.1885390000043
 31
0.0
  0
LINE
  5
FA44
  8
SUNPOU
  6
CONTINUOUS
 62
     4
 10
19778.298189142119
 20
5798.536116000002
 30
0.0
 11
19778.298189142119
 21
4861.1885390000043
 31
0.0
  0
LINE
  5
FA45
  8
SUNPOU
  6
CONTINUOUS
 62
     4
 10
22578.298189142119
 20
4941.1885390000016
 30
0.0
 11
19778.298189142119
 21
4941.1885390000016
 31
0.0
  0
LINE
  5
FA46
  8
SUNPOU
  6
CONTINUOUS
 62
     4
 10
22535.798189142111
 20
8539.6884659999996
 30
0.0
 11
22535.798189142111
 21
9469.1900500000029
 31
0.0
  0
LINE
  5
FA47
  8
SUNPOU
  6
CONTINUOUS
 62
     4
 10
19735.798189142111
 20
8669.6883999999955
 30
0.0
 11
19735.798189142111
 21
9469.1900500000029
 31
0.0
  0
LINE
  5
FA48
  8
SUNPOU
  6
CONTINUOUS
 62
     4
 10
22535.798189142111
 20
9389.1900500000029
 30
0.0
 11
19735.798189142111
 21
9389.1900500000029
 31
0.0
  0
LINE
  5
FA49
  8
SUNPOU
  6
CONTINUOUS
 62
     4
 10
19655.79818914213
 20
6241.1883740000039
 30
0.0
 11
18570.97579084774
 21
6241.1883740000039
 31
0.0
  0
LINE
  5
FA4A
  8
SUNPOU
  6
CONTINUOUS
 62
     4
 10
19655.798189142111
 20
8261.1883740000048
 30
0.0
 11
18570.97579084774
 21
8261.1883740000048
 31
0.0
  0
LINE
  5
FA4B
  8
SUNPOU
  6
CONTINUOUS
 62
     4
 10
18650.97579084774
 20
6241.1883740000039
 30
0.0
 11
18650.97579084774
 21
8261.1883740000048
 31
0.0
  0
TEXT
  5
FA4C
  8
0
  6
CONTINUOUS
 62
     7
 10
18570.97579084774
 20
6588.1883740000094
 30
0.0
 40
160.0
  1
有効高サ2020
 50
90.0
  0
TEXT
  5
FA4D
  8
0
  6
CONTINUOUS
 62
     7
 10
20869.131522475469
 20
9469.1900500000029
 30
0.0
 40
160.0
  1
2800
  0
TEXT
  5
FA4E
  8
0
  6
CONTINUOUS
 62
     7
 10
20911.631522475462
 20
5021.1885390000043
 30
0.0
 40
160.0
  1
2800
  0
TEXT
  5
FA4F
  8
0
  6
CONTINUOUS
 62
     7
 10
19135.797529142121
 20
5021.1883080000043
 30
0.0
 40
160.0
  1
42.5
  0
TEXT
  5
FA50
  8
0
  6
CONTINUOUS
 62
     7
 10
23277.29818914214
 20
5421.1883740000048
 30
0.0
 40
160.0
  1
有効開口巾2730
  0
TEXT
  5
FA51
  8
0
  6
CONTINUOUS
 62
     7
 10
23770.631522475469
 20
5021.1885390000043
 30
0.0
 40
160.0
  1
2918
  0
TEXT
  5
FA52
  8
0
  6
CONTINUOUS
 62
     7
 10
25638.621220142129
 20
5028.7357170000032
 30
0.0
 40
160.0
  1
42.5
  0
TEXT
  5
FA53
  8
0
  6
CONTINUOUS
 62
     7
 10
22357.278212668371
 20
4621.1887040000584
 30
0.0
 40
160.0
  1
5803
  0
TEXT
  5
FA54
  8
0
  6
CONTINUOUS
 62
     7
 10
20430.13152247544
 20
5421.1883740000048
 30
0.0
 40
160.0
  1
有効開口巾2712
  0
TEXT
  5
FA55
  8
0
  6
CONTINUOUS
 62
     7
 10
26266.301488142119
 20
6264.2717073333424
 30
0.0
 40
160.0
  1
有効開口高サ1891.5
 50
90.0
  0
TEXT
  5
FA56
  8
0
  6
CONTINUOUS
 62
     7
 10
26909.400439846861
 20
6396.7717203333377
 30
0.0
 40
160.0
  1
2348.5（2588.5）
 50
90.0
  0
TEXT
  5
FA57
  8
0
  6
CONTINUOUS
 62
     7
 10
23770.631522475469
 20
9469.1900500000029
 30
0.0
 40
160.0
  1
3003
  0
TEXT
  5
FA58
  8
0
  6
CONTINUOUS
 62
     7
 10
25668.60617514214
 20
9469.1893240000081
 30
0.0
 40
160.0
  1
43
  0
TEXT
  5
FA59
  8
0
  6
CONTINUOUS
 62
     7
 10
19318.33236914211
 20
9469.1893240000081
 30
0.0
 40
160.0
  1
43
  0
TEXT
  5
FA5A
  8
0
  6
CONTINUOUS
 62
     7
 10
22343.96485580879
 20
9869.1329740000092
 30
0.0
 40
160.0
  1
5889
  0
TEXT
  5
FA5B
  8
0
  6
CONTINUOUS
 62
     7
 10
8576.380483026911
 20
5021.1885390000043
 30
0.0
 40
160.0
  1
2918
  0
TEXT
  5
FA5C
  8
0
  6
CONTINUOUS
 62
     7
 10
11494.3804830269
 20
5021.1885390000043
 30
0.0
 40
160.0
  1
2918
  0
TEXT
  5
FA5D
  8
0
  6
CONTINUOUS
 62
     7
 10
13364.53676369357
 20
5022.1790570000012
 30
0.0
 40
160.0
  1
42.5
  0
TEXT
  5
FA5E
  8
0
  6
CONTINUOUS
 62
     7
 10
6741.5454996935732
 20
5021.1883080000043
 30
0.0
 40
160.0
  1
42.5
  0
TEXT
  5
FA5F
  8
0
  6
CONTINUOUS
 62
     7
 10
10035.3804830269
 20
4621.1887040000001
 30
0.0
 40
160.0
  1
5921
  0
TEXT
  5
FA60
  8
0
  6
CONTINUOUS
 62
     7
 10
14272.54754569356
 20
6327.4383740000067
 30
0.0
 40
160.0
  1
2156.5（2396.5）
 50
90.0
  0
TEXT
  5
FA61
  8
0
  6
CONTINUOUS
 62
     7
 10
6171.5467536935739
 20
6396.7717073333361
 30
0.0
 40
160.0
  1
2348.5（2588.5）
 50
90.0
  0
TEXT
  5
FA62
  8
0
  6
CONTINUOUS
 62
     7
 10
13550.222298162011
 20
9469.1900500000029
 30
0.0
 40
160.0
  1
180
  0
TEXT
  5
FA63
  8
0
  6
CONTINUOUS
 62
     7
 10
10035.3804830269
 20
9469.1900500000029
 30
0.0
 40
160.0
  1
5921
  0
TEXT
  5
FA64
  8
0
  6
CONTINUOUS
 62
     7
 10
6778.2138163602467
 20
9469.1900500000029
 30
0.0
 40
160.0
  1
150
  0
TEXT
  5
FA65
  8
0
  6
CONTINUOUS
 62
     7
 10
10050.3804830269
 20
9869.1883999999955
 30
0.0
 40
160.0
  1
6251
  0
TEXT
  5
FA6B
  8
0
  6
CONTINUOUS
 62
     7
 10
18480.452849773479
 20
15004.32128733333
 30
0.0
 40
160.0
  1
2918
 50
90.0
  0
TEXT
  5
FA6C
  8
0
  6
CONTINUOUS
 62
     7
 10
18480.452849773479
 20
17922.32128733331
 30
0.0
 40
160.0
  1
2918
 50
90.0
  0
TEXT
  5
FA6D
  8
0
  6
CONTINUOUS
 62
     7
 10
19157.37454614212
 20
20570.487161999969
 30
0.0
 40
160.0
  1
42.5
  0
TEXT
  5
FA6E
  8
0
  6
CONTINUOUS
 62
     7
 10
19835.470513142111
 20
20589.83101799999
 30
0.0
 40
160.0
  1
42.5
  0
TEXT
  5
FA6F
  8
0
  6
CONTINUOUS
 62
     7
 10
23770.629807475441
 20
20970.48887799996
 30
0.0
 40
160.0
  1
2918
  0
TEXT
  5
FA70
  8
0
  6
CONTINUOUS
 62
     7
 10
20911.629807475449
 20
20970.48887799996
 30
0.0
 40
160.0
  1
2800
  0
TEXT
  5
FA74
  8
0
  6
CONTINUOUS
 62
     7
 10
21986.174661021789
 20
20589.83101799999
 30
0.0
 40
160.0
  1
42.5
  0
TEXT
  5
FA75
  8
0
  6
CONTINUOUS
 62
     7
 10
23513.465119808781
 20
20570.48887799996
 30
0.0
 40
160.0
  1
701
  0
TEXT
  5
FA76
  8
0
  6
CONTINUOUS
 62
     7
 10
24214.46511980877
 20
20570.48887799996
 30
0.0
 40
160.0
  1
701
  0
TEXT
  5
FA77
  8
0
  6
CONTINUOUS
 62
     7
 10
24903.96511980877
 20
20570.48887799996
 30
0.0
 40
160.0
  1
758
  0
TEXT
  5
FA84
  8
0
  6
CONTINUOUS
 62
     7
 10
25637.220381142091
 20
20570.48887799996
 30
0.0
 40
160.0
  1
42.5
  0
TEXT
  5
FA85
  8
0
  6
CONTINUOUS
 62
     7
 10
9547.4534241950187
 20
12429.98618599998
 30
0.0
 40
160.0
  1
ケラバ外寸5889
  0
TEXT
  5
FA86
  8
0
  6
CONTINUOUS
 62
     7
 10
13269.60056819501
 20
20590.986185999969
 30
0.0
 40
160.0
  1
85.5
  0
TEXT
  5
FA87
  8
0
  6
CONTINUOUS
 62
     7
 10
11448.786757528351
 20
20590.987901999972
 30
0.0
 40
160.0
  1
2918
  0
TEXT
  5
FA88
  8
0
  6
CONTINUOUS
 62
     7
 10
8589.7867575283581
 20
20590.987901999972
 30
0.0
 40
160.0
  1
2800
  0
TEXT
  5
FA89
  8
0
  6
CONTINUOUS
 62
     7
 10
6830.1056361950114
 20
20590.986185999969
 30
0.0
 40
160.0
  1
85.5
  0
TEXT
  5
FA8A
  8
0
  6
CONTINUOUS
 62
     7
 10
13654.079507189141
 20
20035.749039999992
 30
0.0
 40
160.0
  1
22
 50
90.0
  0
TEXT
  5
FA8B
  8
0
  6
CONTINUOUS
 62
     7
 10
14023.95352419502
 20
19969.468500389201
 30
0.0
 40
160.0
  1
222.5
 50
90.0
  0
TEXT
  5
FA8C
  8
0
  6
CONTINUOUS
 62
     7
 10
14023.95352419502
 20
18738.67715039794
 30
0.0
 40
160.0
  1
1459
 50
90.0
  0
TEXT
  5
FA8D
  8
0
  6
CONTINUOUS
 62
     7
 10
14023.953524195031
 20
12975.99734959056
 30
0.0
 40
160.0
  1
192.5
 50
90.0
  0
TEXT
  5
FA8E
  8
0
  6
CONTINUOUS
 62
     7
 10
14023.95320019501
 20
17213.320311333329
 30
0.0
 40
160.0
  1
1459
 50
90.0
  0
TEXT
  5
FA8F
  8
0
  6
CONTINUOUS
 62
     7
 10
14023.95320019501
 20
15754.320311333309
 30
0.0
 40
160.0
  1
1459
 50
90.0
  0
TEXT
  5
FA90
  8
0
  6
CONTINUOUS
 62
     7
 10
14023.95320019501
 20
14295.32031133332
 30
0.0
 40
160.0
  1
1459
 50
90.0
  0
TEXT
  5
FA91
  8
0
  6
CONTINUOUS
 62
     7
 10
22743.96511980877
 20
20570.48887799996
 30
0.0
 40
160.0
  1
758
  0
ARC
  5
FA92
  8
0
  6
BYBLOCK
 62
     0
 10
22578.29845314211
 20
20490.488877999971
 30
0.0
 40
15.0
 50
0.0
 51
180.0
  0
ARC
  5
FA93
  8
0
  6
BYBLOCK
 62
     0
 10
22578.29845314211
 20
20490.488877999971
 30
0.0
 40
15.0
 50
180.0
 51
0.0
  0
ARC
  5
FA94
  8
0
  6
BYBLOCK
 62
     0
 10
23336.29845314211
 20
20490.488877999971
 30
0.0
 40
15.0
 50
180.0
 51
0.0
  0
ARC
  5
FA95
  8
0
  6
BYBLOCK
 62
     0
 10
23336.29845314211
 20
20490.488877999971
 30
0.0
 40
15.0
 50
0.0
 51
180.0
  0
ARC
  5
FA96
  8
0
  6
BYBLOCK
 62
     0
 10
14103.95320019501
 20
15291.48697799999
 30
0.0
 40
15.0
 50
270.0
 51
90.0
  0
ARC
  5
FA97
  8
0
  6
BYBLOCK
 62
     0
 10
14103.95320019501
 20
15291.48697799999
 30
0.0
 40
15.0
 50
90.0
 51
270.0
  0
ARC
  5
FA98
  8
0
  6
BYBLOCK
 62
     0
 10
14103.95320019501
 20
13832.48697799999
 30
0.0
 40
15.0
 50
90.0
 51
270.0
  0
ARC
  5
FA99
  8
0
  6
BYBLOCK
 62
     0
 10
14103.95320019501
 20
13832.48697799999
 30
0.0
 40
15.0
 50
270.0
 51
90.0
  0
ARC
  5
FA9A
  8
0
  6
BYBLOCK
 62
     0
 10
14103.95320019501
 20
16750.486977999979
 30
0.0
 40
15.0
 50
270.0
 51
90.0
  0
ARC
  5
FA9B
  8
0
  6
BYBLOCK
 62
     0
 10
14103.95320019501
 20
16750.486977999979
 30
0.0
 40
15.0
 50
90.0
 51
270.0
  0
ARC
  5
FA9C
  8
0
  6
BYBLOCK
 62
     0
 10
14103.95320019501
 20
15291.48697799999
 30
0.0
 40
15.0
 50
90.0
 51
270.0
  0
ARC
  5
FA9D
  8
0
  6
BYBLOCK
 62
     0
 10
14103.95320019501
 20
15291.48697799999
 30
0.0
 40
15.0
 50
270.0
 51
90.0
  0
ARC
  5
FA9E
  8
0
  6
BYBLOCK
 62
     0
 10
14103.95320019501
 20
18209.48697799999
 30
0.0
 40
15.0
 50
270.0
 51
90.0
  0
ARC
  5
FA9F
  8
0
  6
BYBLOCK
 62
     0
 10
14103.95320019501
 20
18209.48697799999
 30
0.0
 40
15.0
 50
90.0
 51
270.0
  0
ARC
  5
FAA0
  8
0
  6
BYBLOCK
 62
     0
 10
14103.95320019501
 20
16750.486977999979
 30
0.0
 40
15.0
 50
90.0
 51
270.0
  0
ARC
  5
FAA1
  8
0
  6
BYBLOCK
 62
     0
 10
14103.95320019501
 20
16750.486977999979
 30
0.0
 40
15.0
 50
270.0
 51
90.0
  0
ARC
  5
FAA2
  8
0
  6
BYBLOCK
 62
     0
 10
14103.95352419502
 20
13832.486252000001
 30
0.0
 40
15.0
 50
270.0
 51
90.0
  0
ARC
  5
FAA3
  8
0
  6
BYBLOCK
 62
     0
 10
14103.95352419502
 20
13832.486252000001
 30
0.0
 40
15.0
 50
90.0
 51
270.0
  0
ARC
  5
FAA4
  8
0
  6
BYBLOCK
 62
     0
 10
14103.95352419502
 20
13639.98697799999
 30
0.0
 40
15.0
 50
90.0
 51
270.0
  0
ARC
  5
FAA5
  8
0
  6
BYBLOCK
 62
     0
 10
14103.95352419502
 20
13639.98697799999
 30
0.0
 40
15.0
 50
270.0
 51
90.0
  0
ARC
  5
FAA6
  8
0
  6
BYBLOCK
 62
     0
 10
14103.95352419502
 20
19668.48697799999
 30
0.0
 40
15.0
 50
270.0
 51
90.0
  0
ARC
  5
FAA7
  8
0
  6
BYBLOCK
 62
     0
 10
14103.95352419502
 20
19668.48697799999
 30
0.0
 40
15.0
 50
90.0
 51
270.0
  0
ARC
  5
FAA8
  8
0
  6
BYBLOCK
 62
     0
 10
14103.95352419502
 20
18209.48697799999
 30
0.0
 40
15.0
 50
90.0
 51
270.0
  0
ARC
  5
FAA9
  8
0
  6
BYBLOCK
 62
     0
 10
14103.95352419502
 20
18209.48697799999
 30
0.0
 40
15.0
 50
270.0
 51
90.0
  0
ARC
  5
FAAA
  8
0
  6
BYBLOCK
 62
     0
 10
14103.95352419502
 20
19668.48697799999
 30
0.0
 40
15.0
 50
90.0
 51
270.0
  0
ARC
  5
FAAB
  8
0
  6
BYBLOCK
 62
     0
 10
14103.95352419502
 20
19668.48697799999
 30
0.0
 40
15.0
 50
270.0
 51
90.0
  0
ARC
  5
FAAC
  8
0
  6
BYBLOCK
 62
     0
 10
14103.95352419502
 20
19890.986845999982
 30
0.0
 40
15.0
 50
270.0
 51
90.0
  0
ARC
  5
FAAD
  8
0
  6
BYBLOCK
 62
     0
 10
14103.95352419502
 20
19890.986845999982
 30
0.0
 40
15.0
 50
90.0
 51
270.0
  0
ARC
  5
FAAE
  8
0
  6
BYBLOCK
 62
     0
 10
13703.95418319501
 20
19850.986713999959
 30
0.0
 40
15.0
 50
270.0
 51
90.0
  0
ARC
  5
FAAF
  8
0
  6
BYBLOCK
 62
     0
 10
13703.95418319501
 20
19850.986713999959
 30
0.0
 40
15.0
 50
90.0
 51
270.0
  0
ARC
  5
FAB0
  8
0
  6
BYBLOCK
 62
     0
 10
13703.95418319501
 20
19890.986845999982
 30
0.0
 40
15.0
 50
90.0
 51
270.0
  0
ARC
  5
FAB1
  8
0
  6
BYBLOCK
 62
     0
 10
13703.95418319501
 20
19890.986845999982
 30
0.0
 40
15.0
 50
270.0
 51
90.0
  0
ARC
  5
FAB2
  8
0
  6
BYBLOCK
 62
     0
 10
7456.4534241950241
 20
20510.987901999972
 30
0.0
 40
15.0
 50
0.0
 51
180.0
  0
ARC
  5
FAB3
  8
0
  6
BYBLOCK
 62
     0
 10
7456.4534241950241
 20
20510.987901999972
 30
0.0
 40
15.0
 50
180.0
 51
0.0
  0
ARC
  5
FAB4
  8
0
  6
BYBLOCK
 62
     0
 10
7370.9534241950241
 20
20510.987901999972
 30
0.0
 40
15.0
 50
180.0
 51
0.0
  0
ARC
  5
FAB5
  8
0
  6
BYBLOCK
 62
     0
 10
7370.9534241950241
 20
20510.987901999972
 30
0.0
 40
15.0
 50
0.0
 51
180.0
  0
ARC
  5
FAB6
  8
0
  6
BYBLOCK
 62
     0
 10
10256.45342419502
 20
20510.987901999972
 30
0.0
 40
15.0
 50
180.0
 51
0.0
  0
ARC
  5
FAB7
  8
0
  6
BYBLOCK
 62
     0
 10
10256.45342419502
 20
20510.987901999972
 30
0.0
 40
15.0
 50
0.0
 51
180.0
  0
ARC
  5
FAB8
  8
0
  6
BYBLOCK
 62
     0
 10
7456.4534241950241
 20
20510.987901999972
 30
0.0
 40
15.0
 50
0.0
 51
180.0
  0
ARC
  5
FAB9
  8
0
  6
BYBLOCK
 62
     0
 10
7456.4534241950241
 20
20510.987901999972
 30
0.0
 40
15.0
 50
180.0
 51
0.0
  0
ARC
  5
FABA
  8
0
  6
BYBLOCK
 62
     0
 10
13174.45342419502
 20
20510.987901999972
 30
0.0
 40
15.0
 50
180.0
 51
0.0
  0
ARC
  5
FABB
  8
0
  6
BYBLOCK
 62
     0
 10
13174.45342419502
 20
20510.987901999972
 30
0.0
 40
15.0
 50
0.0
 51
180.0
  0
ARC
  5
FABC
  8
0
  6
BYBLOCK
 62
     0
 10
10256.45342419502
 20
20510.987901999972
 30
0.0
 40
15.0
 50
0.0
 51
180.0
  0
ARC
  5
FABD
  8
0
  6
BYBLOCK
 62
     0
 10
10256.45342419502
 20
20510.987901999972
 30
0.0
 40
15.0
 50
180.0
 51
0.0
  0
ARC
  5
FABE
  8
0
  6
BYBLOCK
 62
     0
 10
13174.45342419502
 20
20510.987901999972
 30
0.0
 40
15.0
 50
180.0
 51
0.0
  0
ARC
  5
FABF
  8
0
  6
BYBLOCK
 62
     0
 10
13174.45342419502
 20
20510.987901999972
 30
0.0
 40
15.0
 50
0.0
 51
180.0
  0
ARC
  5
FAC0
  8
0
  6
BYBLOCK
 62
     0
 10
13259.95342419503
 20
20510.987901999972
 30
0.0
 40
15.0
 50
0.0
 51
180.0
  0
ARC
  5
FAC1
  8
0
  6
BYBLOCK
 62
     0
 10
13259.95342419503
 20
20510.987901999972
 30
0.0
 40
15.0
 50
180.0
 51
0.0
  0
ARC
  5
FAC2
  8
0
  6
BYBLOCK
 62
     0
 10
13259.95342419501
 20
12349.98618599998
 30
0.0
 40
15.0
 50
180.0
 51
0.0
  0
ARC
  5
FAC3
  8
0
  6
BYBLOCK
 62
     0
 10
13259.95342419501
 20
12349.98618599998
 30
0.0
 40
15.0
 50
0.0
 51
180.0
  0
ARC
  5
FAC4
  8
0
  6
BYBLOCK
 62
     0
 10
7370.9534241950241
 20
12349.98618599998
 30
0.0
 40
15.0
 50
0.0
 51
180.0
  0
ARC
  5
FAC5
  8
0
  6
BYBLOCK
 62
     0
 10
7370.9534241950241
 20
12349.98618599998
 30
0.0
 40
15.0
 50
180.0
 51
0.0
  0
ARC
  5
FAC6
  8
0
  6
BYBLOCK
 62
     0
 10
25496.298453142099
 20
20490.488877999971
 30
0.0
 40
15.0
 50
180.0
 51
0.0
  0
ARC
  5
FAC7
  8
0
  6
BYBLOCK
 62
     0
 10
25496.298453142099
 20
20490.488877999971
 30
0.0
 40
15.0
 50
0.0
 51
180.0
  0
ARC
  5
FAC8
  8
0
  6
BYBLOCK
 62
     0
 10
25538.79845314211
 20
20490.488877999971
 30
0.0
 40
15.0
 50
0.0
 51
180.0
  0
ARC
  5
FAC9
  8
0
  6
BYBLOCK
 62
     0
 10
25538.79845314211
 20
20490.488877999971
 30
0.0
 40
15.0
 50
180.0
 51
0.0
  0
ARC
  5
FAFA
  8
0
  6
BYBLOCK
 62
     0
 10
24738.298453142099
 20
20490.488877999971
 30
0.0
 40
15.0
 50
0.0
 51
180.0
  0
ARC
  5
FAFB
  8
0
  6
BYBLOCK
 62
     0
 10
24738.298453142099
 20
20490.488877999971
 30
0.0
 40
15.0
 50
180.0
 51
0.0
  0
ARC
  5
FAFC
  8
0
  6
BYBLOCK
 62
     0
 10
25496.298453142099
 20
20490.488877999971
 30
0.0
 40
15.0
 50
180.0
 51
0.0
  0
ARC
  5
FAFD
  8
0
  6
BYBLOCK
 62
     0
 10
25496.298453142099
 20
20490.488877999971
 30
0.0
 40
15.0
 50
0.0
 51
180.0
  0
ARC
  5
FAFE
  8
0
  6
BYBLOCK
 62
     0
 10
24037.29845314211
 20
20490.488877999971
 30
0.0
 40
15.0
 50
0.0
 51
180.0
  0
ARC
  5
FAFF
  8
0
  6
BYBLOCK
 62
     0
 10
24037.29845314211
 20
20490.488877999971
 30
0.0
 40
15.0
 50
180.0
 51
0.0
  0
ARC
  5
FB00
  8
0
  6
BYBLOCK
 62
     0
 10
24738.298453142099
 20
20490.488877999971
 30
0.0
 40
15.0
 50
180.0
 51
0.0
  0
ARC
  5
FB01
  8
0
  6
BYBLOCK
 62
     0
 10
24738.298453142099
 20
20490.488877999971
 30
0.0
 40
15.0
 50
0.0
 51
180.0
  0
ARC
  5
FB02
  8
0
  6
BYBLOCK
 62
     0
 10
23336.29845314211
 20
20490.488877999971
 30
0.0
 40
15.0
 50
0.0
 51
180.0
  0
ARC
  5
FB03
  8
0
  6
BYBLOCK
 62
     0
 10
23336.29845314211
 20
20490.488877999971
 30
0.0
 40
15.0
 50
180.0
 51
0.0
  0
ARC
  5
FB04
  8
0
  6
BYBLOCK
 62
     0
 10
24037.29845314211
 20
20490.488877999971
 30
0.0
 40
15.0
 50
180.0
 51
0.0
  0
ARC
  5
FB05
  8
0
  6
BYBLOCK
 62
     0
 10
24037.29845314211
 20
20490.488877999971
 30
0.0
 40
15.0
 50
0.0
 51
180.0
  0
ARC
  5
FB06
  8
0
  6
BYBLOCK
 62
     0
 10
22578.29845314211
 20
20490.488877999971
 30
0.0
 40
15.0
 50
0.0
 51
180.0
  0
ARC
  5
FB07
  8
0
  6
BYBLOCK
 62
     0
 10
22578.29845314211
 20
20490.488877999971
 30
0.0
 40
15.0
 50
180.0
 51
0.0
  0
ARC
  5
FB08
  8
0
  6
BYBLOCK
 62
     0
 10
22535.79845314211
 20
20490.488877999971
 30
0.0
 40
15.0
 50
180.0
 51
0.0
  0
ARC
  5
FB09
  8
0
  6
BYBLOCK
 62
     0
 10
22535.79845314211
 20
20490.488877999971
 30
0.0
 40
15.0
 50
0.0
 51
180.0
  0
ARC
  5
FB16
  8
0
  6
BYBLOCK
 62
     0
 10
22578.29647414212
 20
20890.48887799996
 30
0.0
 40
15.0
 50
180.0
 51
0.0
  0
ARC
  5
FB17
  8
0
  6
BYBLOCK
 62
     0
 10
22578.29647414212
 20
20890.48887799996
 30
0.0
 40
15.0
 50
0.0
 51
180.0
  0
ARC
  5
FB18
  8
0
  6
BYBLOCK
 62
     0
 10
19778.296474142091
 20
20890.48887799996
 30
0.0
 40
15.0
 50
0.0
 51
180.0
  0
ARC
  5
FB19
  8
0
  6
BYBLOCK
 62
     0
 10
19778.296474142091
 20
20890.48887799996
 30
0.0
 40
15.0
 50
180.0
 51
0.0
  0
ARC
  5
FB1A
  8
0
  6
BYBLOCK
 62
     0
 10
25496.296474142109
 20
20890.48887799996
 30
0.0
 40
15.0
 50
180.0
 51
0.0
  0
ARC
  5
FB1B
  8
0
  6
BYBLOCK
 62
     0
 10
25496.296474142109
 20
20890.48887799996
 30
0.0
 40
15.0
 50
0.0
 51
180.0
  0
ARC
  5
FB1C
  8
0
  6
BYBLOCK
 62
     0
 10
22578.29647414212
 20
20890.48887799996
 30
0.0
 40
15.0
 50
0.0
 51
180.0
  0
ARC
  5
FB1D
  8
0
  6
BYBLOCK
 62
     0
 10
22578.29647414212
 20
20890.48887799996
 30
0.0
 40
15.0
 50
180.0
 51
0.0
  0
ARC
  5
FB1E
  8
0
  6
BYBLOCK
 62
     0
 10
19778.296474142091
 20
20490.488877999971
 30
0.0
 40
15.0
 50
180.0
 51
0.0
  0
ARC
  5
FB1F
  8
0
  6
BYBLOCK
 62
     0
 10
19778.296474142091
 20
20490.488877999971
 30
0.0
 40
15.0
 50
0.0
 51
180.0
  0
ARC
  5
FB20
  8
0
  6
BYBLOCK
 62
     0
 10
19820.798717142101
 20
20490.488877999971
 30
0.0
 40
15.0
 50
0.0
 51
180.0
  0
ARC
  5
FB21
  8
0
  6
BYBLOCK
 62
     0
 10
19820.798717142101
 20
20490.488877999971
 30
0.0
 40
15.0
 50
180.0
 51
0.0
  0
ARC
  5
FB22
  8
0
  6
BYBLOCK
 62
     0
 10
19778.296474142091
 20
20490.488877999971
 30
0.0
 40
15.0
 50
0.0
 51
180.0
  0
ARC
  5
FB23
  8
0
  6
BYBLOCK
 62
     0
 10
19778.296474142091
 20
20490.488877999971
 30
0.0
 40
15.0
 50
180.0
 51
0.0
  0
ARC
  5
FB24
  8
0
  6
BYBLOCK
 62
     0
 10
19735.798189142111
 20
20490.488877999971
 30
0.0
 40
15.0
 50
180.0
 51
0.0
  0
ARC
  5
FB25
  8
0
  6
BYBLOCK
 62
     0
 10
19735.798189142111
 20
20490.488877999971
 30
0.0
 40
15.0
 50
0.0
 51
180.0
  0
ARC
  5
FB26
  8
0
  6
BYBLOCK
 62
     0
 10
18560.45284977349
 20
16729.987953999978
 30
0.0
 40
15.0
 50
90.0
 51
270.0
  0
ARC
  5
FB27
  8
0
  6
BYBLOCK
 62
     0
 10
18560.45284977349
 20
16729.987953999978
 30
0.0
 40
15.0
 50
270.0
 51
90.0
  0
ARC
  5
FB28
  8
0
  6
BYBLOCK
 62
     0
 10
18560.45284977349
 20
19647.987953999989
 30
0.0
 40
15.0
 50
270.0
 51
90.0
  0
ARC
  5
FB29
  8
0
  6
BYBLOCK
 62
     0
 10
18560.45284977349
 20
19647.987953999989
 30
0.0
 40
15.0
 50
90.0
 51
270.0
  0
ARC
  5
FB2A
  8
0
  6
BYBLOCK
 62
     0
 10
18560.45284977349
 20
13811.98795399998
 30
0.0
 40
15.0
 50
90.0
 51
270.0
  0
ARC
  5
FB2B
  8
0
  6
BYBLOCK
 62
     0
 10
18560.45284977349
 20
13811.98795399998
 30
0.0
 40
15.0
 50
270.0
 51
90.0
  0
ARC
  5
FB2C
  8
0
  6
BYBLOCK
 62
     0
 10
18560.45284977349
 20
16729.987953999978
 30
0.0
 40
15.0
 50
270.0
 51
90.0
  0
ARC
  5
FB2D
  8
0
  6
BYBLOCK
 62
     0
 10
18560.45284977349
 20
16729.987953999978
 30
0.0
 40
15.0
 50
90.0
 51
270.0
  0
ARC
  5
FB42
  8
0
  6
BYBLOCK
 62
     0
 10
13442.54714969357
 20
9789.1883999999991
 30
0.0
 40
15.0
 50
180.0
 51
0.0
  0
ARC
  5
FB43
  8
0
  6
BYBLOCK
 62
     0
 10
13442.54714969357
 20
9789.1883999999991
 30
0.0
 40
15.0
 50
0.0
 51
180.0
  0
ARC
  5
FB44
  8
0
  6
BYBLOCK
 62
     0
 10
7191.5471496935797
 20
9789.1883999999991
 30
0.0
 40
15.0
 50
0.0
 51
180.0
  0
ARC
  5
FB45
  8
0
  6
BYBLOCK
 62
     0
 10
7191.5471496935797
 20
9789.1883999999991
 30
0.0
 40
15.0
 50
180.0
 51
0.0
  0
ARC
  5
FB46
  8
0
  6
BYBLOCK
 62
     0
 10
7341.5471496935706
 20
9389.1900500000029
 30
0.0
 40
15.0
 50
0.0
 51
180.0
  0
ARC
  5
FB47
  8
0
  6
BYBLOCK
 62
     0
 10
7341.5471496935706
 20
9389.1900500000029
 30
0.0
 40
15.0
 50
180.0
 51
0.0
  0
ARC
  5
FB48
  8
0
  6
BYBLOCK
 62
     0
 10
7191.5471496935797
 20
9389.1900500000029
 30
0.0
 40
15.0
 50
180.0
 51
0.0
  0
ARC
  5
FB49
  8
0
  6
BYBLOCK
 62
     0
 10
7191.5471496935797
 20
9389.1900500000029
 30
0.0
 40
15.0
 50
0.0
 51
180.0
  0
ARC
  5
FB4A
  8
0
  6
BYBLOCK
 62
     0
 10
13262.54714969357
 20
9389.1900500000029
 30
0.0
 40
15.0
 50
180.0
 51
0.0
  0
ARC
  5
FB4B
  8
0
  6
BYBLOCK
 62
     0
 10
13262.54714969357
 20
9389.1900500000029
 30
0.0
 40
15.0
 50
0.0
 51
180.0
  0
ARC
  5
FB4C
  8
0
  6
BYBLOCK
 62
     0
 10
7341.5471496935706
 20
9389.1900500000029
 30
0.0
 40
15.0
 50
0.0
 51
180.0
  0
ARC
  5
FB4D
  8
0
  6
BYBLOCK
 62
     0
 10
7341.5471496935706
 20
9389.1900500000029
 30
0.0
 40
15.0
 50
180.0
 51
0.0
  0
ARC
  5
FB4E
  8
0
  6
BYBLOCK
 62
     0
 10
13442.54714969357
 20
9389.1900500000029
 30
0.0
 40
15.0
 50
180.0
 51
0.0
  0
ARC
  5
FB4F
  8
0
  6
BYBLOCK
 62
     0
 10
13442.54714969357
 20
9389.1900500000029
 30
0.0
 40
15.0
 50
0.0
 51
180.0
  0
ARC
  5
FB50
  8
0
  6
BYBLOCK
 62
     0
 10
13262.54714969357
 20
9389.1900500000029
 30
0.0
 40
15.0
 50
0.0
 51
180.0
  0
ARC
  5
FB51
  8
0
  6
BYBLOCK
 62
     0
 10
13262.54714969357
 20
9389.1900500000029
 30
0.0
 40
15.0
 50
180.0
 51
0.0
  0
ARC
  5
FB52
  8
0
  6
BYBLOCK
 62
     0
 10
6251.5467536935757
 20
6241.1883740000048
 30
0.0
 40
15.0
 50
90.0
 51
270.0
  0
ARC
  5
FB53
  8
0
  6
BYBLOCK
 62
     0
 10
6251.5467536935757
 20
6241.1883740000048
 30
0.0
 40
15.0
 50
270.0
 51
90.0
  0
ARC
  5
FB54
  8
0
  6
BYBLOCK
 62
     0
 10
6251.5467536935757
 20
8589.688374000003
 30
0.0
 40
15.0
 50
270.0
 51
90.0
  0
ARC
  5
FB55
  8
0
  6
BYBLOCK
 62
     0
 10
6251.5467536935757
 20
8589.688374000003
 30
0.0
 40
15.0
 50
90.0
 51
270.0
  0
ARC
  5
FB56
  8
0
  6
BYBLOCK
 62
     0
 10
14352.54754569356
 20
6241.1883740000039
 30
0.0
 40
15.0
 50
90.0
 51
270.0
  0
ARC
  5
FB57
  8
0
  6
BYBLOCK
 62
     0
 10
14352.54754569356
 20
6241.1883740000039
 30
0.0
 40
15.0
 50
270.0
 51
90.0
  0
ARC
  5
FB58
  8
0
  6
BYBLOCK
 62
     0
 10
14352.54754569356
 20
8397.688374000003
 30
0.0
 40
15.0
 50
270.0
 51
90.0
  0
ARC
  5
FB59
  8
0
  6
BYBLOCK
 62
     0
 10
14352.54754569356
 20
8397.688374000003
 30
0.0
 40
15.0
 50
90.0
 51
270.0
  0
ARC
  5
FB5A
  8
0
  6
BYBLOCK
 62
     0
 10
13262.54714969357
 20
4541.1887040000001
 30
0.0
 40
15.0
 50
180.0
 51
0.0
  0
ARC
  5
FB5B
  8
0
  6
BYBLOCK
 62
     0
 10
13262.54714969357
 20
4541.1887040000001
 30
0.0
 40
15.0
 50
0.0
 51
180.0
  0
ARC
  5
FB5C
  8
0
  6
BYBLOCK
 62
     0
 10
7341.5471496935706
 20
4541.1887040000001
 30
0.0
 40
15.0
 50
0.0
 51
180.0
  0
ARC
  5
FB5D
  8
0
  6
BYBLOCK
 62
     0
 10
7341.5471496935706
 20
4541.1887040000001
 30
0.0
 40
15.0
 50
180.0
 51
0.0
  0
ARC
  5
FB5E
  8
0
  6
BYBLOCK
 62
     0
 10
7384.0471496935788
 20
4941.1885390000016
 30
0.0
 40
15.0
 50
0.0
 51
180.0
  0
ARC
  5
FB5F
  8
0
  6
BYBLOCK
 62
     0
 10
7384.0471496935788
 20
4941.1885390000016
 30
0.0
 40
15.0
 50
180.0
 51
0.0
  0
ARC
  5
FB60
  8
0
  6
BYBLOCK
 62
     0
 10
7341.5471496935706
 20
4941.1885390000016
 30
0.0
 40
15.0
 50
180.0
 51
0.0
  0
ARC
  5
FB61
  8
0
  6
BYBLOCK
 62
     0
 10
7341.5471496935706
 20
4941.1885390000016
 30
0.0
 40
15.0
 50
0.0
 51
180.0
  0
ARC
  5
FB62
  8
0
  6
BYBLOCK
 62
     0
 10
13220.04714969357
 20
4941.1885390000016
 30
0.0
 40
15.0
 50
180.0
 51
0.0
  0
ARC
  5
FB63
  8
0
  6
BYBLOCK
 62
     0
 10
13220.04714969357
 20
4941.1885390000016
 30
0.0
 40
15.0
 50
0.0
 51
180.0
  0
ARC
  5
FB64
  8
0
  6
BYBLOCK
 62
     0
 10
13262.54714969357
 20
4941.1885390000016
 30
0.0
 40
15.0
 50
0.0
 51
180.0
  0
ARC
  5
FB65
  8
0
  6
BYBLOCK
 62
     0
 10
13262.54714969357
 20
4941.1885390000016
 30
0.0
 40
15.0
 50
180.0
 51
0.0
  0
ARC
  5
FB66
  8
0
  6
BYBLOCK
 62
     0
 10
10302.047149693581
 20
4941.1885390000016
 30
0.0
 40
15.0
 50
0.0
 51
180.0
  0
ARC
  5
FB67
  8
0
  6
BYBLOCK
 62
     0
 10
10302.047149693581
 20
4941.1885390000016
 30
0.0
 40
15.0
 50
180.0
 51
0.0
  0
ARC
  5
FB68
  8
0
  6
BYBLOCK
 62
     0
 10
13220.04714969357
 20
4941.1885390000016
 30
0.0
 40
15.0
 50
180.0
 51
0.0
  0
ARC
  5
FB69
  8
0
  6
BYBLOCK
 62
     0
 10
13220.04714969357
 20
4941.1885390000016
 30
0.0
 40
15.0
 50
0.0
 51
180.0
  0
ARC
  5
FB6A
  8
0
  6
BYBLOCK
 62
     0
 10
10302.047149693581
 20
4941.1885390000016
 30
0.0
 40
15.0
 50
180.0
 51
0.0
  0
ARC
  5
FB6B
  8
0
  6
BYBLOCK
 62
     0
 10
10302.047149693581
 20
4941.1885390000016
 30
0.0
 40
15.0
 50
0.0
 51
180.0
  0
ARC
  5
FB6C
  8
0
  6
BYBLOCK
 62
     0
 10
7384.0471496935788
 20
4941.1885390000016
 30
0.0
 40
15.0
 50
0.0
 51
180.0
  0
ARC
  5
FB6D
  8
0
  6
BYBLOCK
 62
     0
 10
7384.0471496935788
 20
4941.1885390000016
 30
0.0
 40
15.0
 50
180.0
 51
0.0
  0
ARC
  5
FB6E
  8
0
  6
BYBLOCK
 62
     0
 10
25581.79818914214
 20
9789.1329740000092
 30
0.0
 40
15.0
 50
180.0
 51
0.0
  0
ARC
  5
FB6F
  8
0
  6
BYBLOCK
 62
     0
 10
25581.79818914214
 20
9789.1329740000092
 30
0.0
 40
15.0
 50
0.0
 51
180.0
  0
ARC
  5
FB70
  8
0
  6
BYBLOCK
 62
     0
 10
19692.79818914213
 20
9789.1329740000092
 30
0.0
 40
15.0
 50
0.0
 51
180.0
  0
ARC
  5
FB71
  8
0
  6
BYBLOCK
 62
     0
 10
19692.79818914213
 20
9789.1329740000092
 30
0.0
 40
15.0
 50
180.0
 51
0.0
  0
ARC
  5
FB72
  8
0
  6
BYBLOCK
 62
     0
 10
19735.798189142111
 20
9389.1900500000029
 30
0.0
 40
15.0
 50
0.0
 51
180.0
  0
ARC
  5
FB73
  8
0
  6
BYBLOCK
 62
     0
 10
19735.798189142111
 20
9389.1900500000029
 30
0.0
 40
15.0
 50
180.0
 51
0.0
  0
ARC
  5
FB74
  8
0
  6
BYBLOCK
 62
     0
 10
19692.79818914213
 20
9389.1900500000029
 30
0.0
 40
15.0
 50
180.0
 51
0.0
  0
ARC
  5
FB75
  8
0
  6
BYBLOCK
 62
     0
 10
19692.79818914213
 20
9389.1900500000029
 30
0.0
 40
15.0
 50
0.0
 51
180.0
  0
ARC
  5
FB76
  8
0
  6
BYBLOCK
 62
     0
 10
25538.79818914214
 20
9389.1900500000029
 30
0.0
 40
15.0
 50
180.0
 51
0.0
  0
ARC
  5
FB77
  8
0
  6
BYBLOCK
 62
     0
 10
25538.79818914214
 20
9389.1900500000029
 30
0.0
 40
15.0
 50
0.0
 51
180.0
  0
ARC
  5
FB78
  8
0
  6
BYBLOCK
 62
     0
 10
25581.79818914214
 20
9389.1900500000029
 30
0.0
 40
15.0
 50
0.0
 51
180.0
  0
ARC
  5
FB79
  8
0
  6
BYBLOCK
 62
     0
 10
25581.79818914214
 20
9389.1900500000029
 30
0.0
 40
15.0
 50
180.0
 51
0.0
  0
ARC
  5
FB7A
  8
0
  6
BYBLOCK
 62
     0
 10
22535.798189142111
 20
9389.1900500000029
 30
0.0
 40
15.0
 50
0.0
 51
180.0
  0
ARC
  5
FB7B
  8
0
  6
BYBLOCK
 62
     0
 10
22535.798189142111
 20
9389.1900500000029
 30
0.0
 40
15.0
 50
180.0
 51
0.0
  0
ARC
  5
FB7C
  8
0
  6
BYBLOCK
 62
     0
 10
25538.79818914214
 20
9389.1900500000029
 30
0.0
 40
15.0
 50
180.0
 51
0.0
  0
ARC
  5
FB7D
  8
0
  6
BYBLOCK
 62
     0
 10
25538.79818914214
 20
9389.1900500000029
 30
0.0
 40
15.0
 50
0.0
 51
180.0
  0
ARC
  5
FB7E
  8
0
  6
BYBLOCK
 62
     0
 10
26989.400439846861
 20
6241.1883740000039
 30
0.0
 40
15.0
 50
90.0
 51
270.0
  0
ARC
  5
FB7F
  8
0
  6
BYBLOCK
 62
     0
 10
26989.400439846861
 20
6241.1883740000039
 30
0.0
 40
15.0
 50
270.0
 51
90.0
  0
ARC
  5
FB80
  8
0
  6
BYBLOCK
 62
     0
 10
26989.400439846871
 20
8589.6883999999973
 30
0.0
 40
15.0
 50
270.0
 51
90.0
  0
ARC
  5
FB81
  8
0
  6
BYBLOCK
 62
     0
 10
26989.400439846871
 20
8589.6883999999973
 30
0.0
 40
15.0
 50
90.0
 51
270.0
  0
ARC
  5
FB82
  8
0
  6
BYBLOCK
 62
     0
 10
26346.301488142119
 20
6241.1883740000048
 30
0.0
 40
15.0
 50
90.0
 51
270.0
  0
ARC
  5
FB83
  8
0
  6
BYBLOCK
 62
     0
 10
26346.301488142119
 20
6241.1883740000048
 30
0.0
 40
15.0
 50
270.0
 51
90.0
  0
ARC
  5
FB84
  8
0
  6
BYBLOCK
 62
     0
 10
26346.301488142119
 20
8132.6883740000021
 30
0.0
 40
15.0
 50
270.0
 51
90.0
  0
ARC
  5
FB85
  8
0
  6
BYBLOCK
 62
     0
 10
26346.301488142119
 20
8132.6883740000021
 30
0.0
 40
15.0
 50
90.0
 51
270.0
  0
ARC
  5
FB86
  8
0
  6
BYBLOCK
 62
     0
 10
22532.798189142119
 20
5341.1883740000048
 30
0.0
 40
15.0
 50
180.0
 51
0.0
  0
ARC
  5
FB87
  8
0
  6
BYBLOCK
 62
     0
 10
22532.798189142119
 20
5341.1883740000048
 30
0.0
 40
15.0
 50
0.0
 51
180.0
  0
ARC
  5
FB88
  8
0
  6
BYBLOCK
 62
     0
 10
19820.7981891421
 20
5341.1883740000048
 30
0.0
 40
15.0
 50
0.0
 51
180.0
  0
ARC
  5
FB89
  8
0
  6
BYBLOCK
 62
     0
 10
19820.7981891421
 20
5341.1883740000048
 30
0.0
 40
15.0
 50
180.0
 51
0.0
  0
ARC
  5
FB8A
  8
0
  6
BYBLOCK
 62
     0
 10
25538.758236194601
 20
4541.1887040000593
 30
0.0
 40
15.0
 50
180.0
 51
0.0
  0
ARC
  5
FB8B
  8
0
  6
BYBLOCK
 62
     0
 10
25538.758236194601
 20
4541.1887040000593
 30
0.0
 40
15.0
 50
0.0
 51
180.0
  0
ARC
  5
FB8C
  8
0
  6
BYBLOCK
 62
     0
 10
19735.79818914213
 20
4541.1887040000593
 30
0.0
 40
15.0
 50
0.0
 51
180.0
  0
ARC
  5
FB8D
  8
0
  6
BYBLOCK
 62
     0
 10
19735.79818914213
 20
4541.1887040000593
 30
0.0
 40
15.0
 50
180.0
 51
0.0
  0
ARC
  5
FB8E
  8
0
  6
BYBLOCK
 62
     0
 10
25496.29818914214
 20
4941.1885390000016
 30
0.0
 40
15.0
 50
180.0
 51
0.0
  0
ARC
  5
FB8F
  8
0
  6
BYBLOCK
 62
     0
 10
25496.29818914214
 20
4941.1885390000016
 30
0.0
 40
15.0
 50
0.0
 51
180.0
  0
ARC
  5
FB90
  8
0
  6
BYBLOCK
 62
     0
 10
25538.758236194601
 20
4941.1885390000016
 30
0.0
 40
15.0
 50
0.0
 51
180.0
  0
ARC
  5
FB91
  8
0
  6
BYBLOCK
 62
     0
 10
25538.758236194601
 20
4941.1885390000016
 30
0.0
 40
15.0
 50
180.0
 51
0.0
  0
ARC
  5
FB92
  8
0
  6
BYBLOCK
 62
     0
 10
22578.298189142119
 20
4941.1885390000016
 30
0.0
 40
15.0
 50
0.0
 51
180.0
  0
ARC
  5
FB93
  8
0
  6
BYBLOCK
 62
     0
 10
22578.298189142119
 20
4941.1885390000016
 30
0.0
 40
15.0
 50
180.0
 51
0.0
  0
ARC
  5
FB94
  8
0
  6
BYBLOCK
 62
     0
 10
25496.29818914214
 20
4941.1885390000016
 30
0.0
 40
15.0
 50
180.0
 51
0.0
  0
ARC
  5
FB95
  8
0
  6
BYBLOCK
 62
     0
 10
25496.29818914214
 20
4941.1885390000016
 30
0.0
 40
15.0
 50
0.0
 51
180.0
  0
ARC
  5
FB96
  8
0
  6
BYBLOCK
 62
     0
 10
25402.29818914214
 20
5341.1883740000048
 30
0.0
 40
15.0
 50
180.0
 51
0.0
  0
ARC
  5
FB97
  8
0
  6
BYBLOCK
 62
     0
 10
25402.29818914214
 20
5341.1883740000048
 30
0.0
 40
15.0
 50
0.0
 51
180.0
  0
ARC
  5
FB98
  8
0
  6
BYBLOCK
 62
     0
 10
22672.29818914214
 20
5341.1883740000048
 30
0.0
 40
15.0
 50
0.0
 51
180.0
  0
ARC
  5
FB99
  8
0
  6
BYBLOCK
 62
     0
 10
22672.29818914214
 20
5341.1883740000048
 30
0.0
 40
15.0
 50
180.0
 51
0.0
  0
ARC
  5
FB9A
  8
0
  6
BYBLOCK
 62
     0
 10
19778.298189142119
 20
4941.1885390000016
 30
0.0
 40
15.0
 50
0.0
 51
180.0
  0
ARC
  5
FB9B
  8
0
  6
BYBLOCK
 62
     0
 10
19778.298189142119
 20
4941.1885390000016
 30
0.0
 40
15.0
 50
180.0
 51
0.0
  0
ARC
  5
FB9C
  8
0
  6
BYBLOCK
 62
     0
 10
19735.79818914213
 20
4941.1885390000016
 30
0.0
 40
15.0
 50
180.0
 51
0.0
  0
ARC
  5
FB9D
  8
0
  6
BYBLOCK
 62
     0
 10
19735.79818914213
 20
4941.1885390000016
 30
0.0
 40
15.0
 50
0.0
 51
180.0
  0
ARC
  5
FB9E
  8
0
  6
BYBLOCK
 62
     0
 10
22578.298189142119
 20
4941.1885390000016
 30
0.0
 40
15.0
 50
180.0
 51
0.0
  0
ARC
  5
FB9F
  8
0
  6
BYBLOCK
 62
     0
 10
22578.298189142119
 20
4941.1885390000016
 30
0.0
 40
15.0
 50
0.0
 51
180.0
  0
ARC
  5
FBA0
  8
0
  6
BYBLOCK
 62
     0
 10
19778.298189142119
 20
4941.1885390000016
 30
0.0
 40
15.0
 50
0.0
 51
180.0
  0
ARC
  5
FBA1
  8
0
  6
BYBLOCK
 62
     0
 10
19778.298189142119
 20
4941.1885390000016
 30
0.0
 40
15.0
 50
180.0
 51
0.0
  0
ARC
  5
FBA2
  8
0
  6
BYBLOCK
 62
     0
 10
22535.798189142111
 20
9389.1900500000029
 30
0.0
 40
15.0
 50
180.0
 51
0.0
  0
ARC
  5
FBA3
  8
0
  6
BYBLOCK
 62
     0
 10
22535.798189142111
 20
9389.1900500000029
 30
0.0
 40
15.0
 50
0.0
 51
180.0
  0
ARC
  5
FBA4
  8
0
  6
BYBLOCK
 62
     0
 10
19735.798189142111
 20
9389.1900500000029
 30
0.0
 40
15.0
 50
0.0
 51
180.0
  0
ARC
  5
FBA5
  8
0
  6
BYBLOCK
 62
     0
 10
19735.798189142111
 20
9389.1900500000029
 30
0.0
 40
15.0
 50
180.0
 51
0.0
  0
ARC
  5
FBA6
  8
0
  6
BYBLOCK
 62
     0
 10
18650.97579084774
 20
6241.1883740000039
 30
0.0
 40
15.0
 50
90.0
 51
270.0
  0
ARC
  5
FBA7
  8
0
  6
BYBLOCK
 62
     0
 10
18650.97579084774
 20
6241.1883740000039
 30
0.0
 40
15.0
 50
270.0
 51
90.0
  0
ARC
  5
FBA8
  8
0
  6
BYBLOCK
 62
     0
 10
18650.97579084774
 20
8261.1883740000048
 30
0.0
 40
15.0
 50
270.0
 51
90.0
  0
ARC
  5
FBA9
  8
0
  6
BYBLOCK
 62
     0
 10
18650.97579084774
 20
8261.1883740000048
 30
0.0
 40
15.0
 50
90.0
 51
270.0
  0
TEXT
  5
FC85
  8
NAME
 10
21595.82616625919
 20
1076.6369801169251
 30
0.0
 40
360.0
  1
VGCU-3059（H）+VKCU-2859（H）型-L（単棟）
 41
0.4200000000000001
  0
TEXT
  5
FC87
  8
NAME
 10
21933.552716389011
 20
1876.0
 30
0.0
 40
360.0
  1
ヨドガレージ ラヴィージュ
 41
0.75
  7
01
  0
LINE
  5
FC88
  8
NAME
  6
CONTINUOUS
 10
26067.886878884299
 20
2236.0
 30
0.0
 11
26067.886878884299
 21
1876.0
 31
0.0
  0
LINE
  5
FC89
  8
NAME
  6
CONTINUOUS
 10
26167.886878884299
 20
2236.0
 30
0.0
 11
26167.886878884299
 21
1876.0
 31
0.0
  0
LINE
  5
FC8A
  8
NAME
  6
CONTINUOUS
 10
26267.88687888431
 20
2236.0
 30
0.0
 11
26267.88687888431
 21
1876.0
 31
0.0
  0
LINE
  5
FC8B
  8
NAME
  6
CONTINUOUS
 10
26007.886878884299
 20
2236.0
 30
0.0
 11
26327.886878884299
 21
2236.0
 31
0.0
  0
LINE
  5
FC8C
  8
NAME
  6
CONTINUOUS
 10
26327.886878884299
 20
1876.0
 30
0.0
 11
26007.886878884299
 21
1876.0
 31
0.0
  0
LINE
  5
FC97
  8
2-0
  6
CENTER2
 62
     6
 10
22578.296474142091
 20
21290.490196999981
 30
0.0
 11
22578.296474142091
 21
13454.234075531571
 31
0.0
  0
LINE
  5
FC9A
  8
2-0
  6
CENTER2
 62
     6
 10
25496.296474142091
 20
21290.490196999981
 30
0.0
 11
25496.296474142091
 21
13454.234075531571
 31
0.0
  0
LINE
  5
10444
  8
2-0
  6
CONTINUOUS
 62
     6
 10
23813.137558142091
 20
13171.98683199998
 30
0.0
 11
24813.130960142051
 21
13171.98683199998
 31
0.0
  0
LINE
  5
10445
  8
2-0
  6
CONTINUOUS
 62
     6
 10
25281.07133714209
 20
13642.40754599998
 30
0.0
 11
24813.130960142051
 21
13171.98683199998
 31
0.0
  0
LINE
  5
10446
  8
2-0
  6
CONTINUOUS
 62
     6
 10
23829.848654142072
 20
17851.106896999969
 30
0.0
 11
24847.824002142072
 21
17851.106896999969
 31
0.0
  0
LINE
  5
10447
  8
2-0
  6
CONTINUOUS
 62
     6
 10
25304.249520142072
 20
18075.821845999981
 30
0.0
 11
24847.824002142072
 21
17851.106896999969
 31
0.0
  0
LINE
  5
10448
  8
2-0
  6
CONTINUOUS
 62
     6
 10
25242.431134142069
 20
16834.015192999981
 30
0.0
 11
24937.73571614208
 21
16937.668723999999
 31
0.0
  0
LINE
  5
10449
  8
2-0
  6
CONTINUOUS
 62
     6
 10
25397.45317314205
 20
16344.393149
 30
0.0
 11
24937.73571614208
 21
16100.47983799999
 31
0.0
  0
LINE
  5
1044A
  8
2-0
  6
CONTINUOUS
 62
     6
 10
24017.732681142072
 20
16100.47983799999
 30
0.0
 11
24937.73571614208
 21
16100.47983799999
 31
0.0
  0
LINE
  5
1044B
  8
2-0
  6
CONTINUOUS
 62
     6
 10
23737.741654142079
 20
16937.668723999999
 30
0.0
 11
24937.73571614208
 21
16937.668723999999
 31
0.0
  0
LINE
  5
1044C
  8
2-0
  6
CONTINUOUS
 62
     6
 10
25313.630458142081
 20
13964.09119199996
 30
0.0
 11
24937.73571614208
 21
14145.03502699998
 31
0.0
  0
LINE
  5
1044D
  8
2-0
  6
CONTINUOUS
 62
     6
 10
23829.848654142072
 20
14933.34443899999
 30
0.0
 11
24847.824002142072
 21
14933.34443899999
 31
0.0
  0
LINE
  5
1044E
  8
2-0
  6
CONTINUOUS
 62
     6
 10
24417.734000142082
 20
14145.03502699998
 30
0.0
 11
24937.73571614208
 21
14145.03502699998
 31
0.0
  0
LINE
  5
1044F
  8
2-0
  6
CONTINUOUS
 62
     6
 10
25304.249520142072
 20
15158.05740899999
 30
0.0
 11
24847.824002142072
 21
14933.34443899999
 31
0.0
  0
LINE
  5
10450
  8
2-0
  6
CONTINUOUS
 62
     3
 10
25508.797134142082
 20
19581.486027999988
 30
0.0
 11
25508.797134142082
 21
19575.49006599998
 31
0.0
  0
LINE
  5
10451
  8
2-0
  6
CONTINUOUS
 62
     3
 10
25508.797134142082
 20
19575.49006599998
 30
0.0
 11
25538.794758142081
 21
19575.49006599998
 31
0.0
  0
LINE
  5
10452
  8
2-0
  6
CONTINUOUS
 62
     3
 10
25538.794758142081
 20
19605.489669999981
 30
0.0
 11
25457.792858142071
 21
19605.489669999981
 31
0.0
  0
LINE
  5
10453
  8
2-0
  6
CONTINUOUS
 62
     3
 10
25508.797134142082
 20
19565.19260999998
 30
0.0
 11
25538.794758142081
 21
19565.19260999998
 31
0.0
  0
LINE
  5
10454
  8
2-0
  6
CONTINUOUS
 62
     3
 10
25508.797134142082
 20
19583.19435199998
 30
0.0
 11
25508.797134142082
 21
19565.19260999998
 31
0.0
  0
LINE
  5
10455
  8
2-0
  6
CONTINUOUS
 62
     3
 10
25533.794494142079
 20
19583.19435199998
 30
0.0
 11
25508.797134142082
 21
19583.19435199998
 31
0.0
  0
LINE
  5
10456
  8
2-0
  6
CONTINUOUS
 62
     3
 10
25533.794494142079
 20
19578.18616999999
 30
0.0
 11
25533.794494142079
 21
19583.19435199998
 31
0.0
  0
LINE
  5
10457
  8
2-0
  6
CONTINUOUS
 62
     3
 10
25526.792937142091
 20
19578.18616999999
 30
0.0
 11
25533.794494142079
 21
19578.18616999999
 31
0.0
  0
LINE
  5
10458
  8
2-0
  6
CONTINUOUS
 62
     3
 10
25426.496669142081
 20
19678.486397000001
 30
0.0
 11
25426.496669142081
 21
19685.491912999991
 31
0.0
  0
LINE
  5
10459
  8
2-0
  6
CONTINUOUS
 62
     3
 10
25426.496669142081
 20
19685.491912999991
 30
0.0
 11
25431.496933142051
 21
19685.491912999991
 31
0.0
  0
LINE
  5
1045A
  8
2-0
  6
CONTINUOUS
 62
     3
 10
25431.496933142051
 20
19685.491912999991
 30
0.0
 11
25431.496933142051
 21
19660.482675999981
 31
0.0
  0
LINE
  5
1045B
  8
2-0
  6
CONTINUOUS
 62
     3
 10
25431.496933142051
 20
19660.482675999981
 30
0.0
 11
25413.495191142061
 21
19660.482675999981
 31
0.0
  0
LINE
  5
1045C
  8
2-0
  6
CONTINUOUS
 62
     3
 10
25413.495191142061
 20
19660.482675999981
 30
0.0
 11
25413.495191142061
 21
19690.486238999991
 31
0.0
  0
LINE
  5
1045D
  8
2-0
  6
CONTINUOUS
 62
     3
 10
25423.79264714208
 20
19690.486238999991
 30
0.0
 11
25538.794758142081
 21
19690.486238999991
 31
0.0
  0
LINE
  5
1045E
  8
2-0
  6
CONTINUOUS
 62
     3
 10
25423.79264714208
 20
19660.482675999981
 30
0.0
 11
25423.79264714208
 21
19690.486238999991
 31
0.0
  0
LINE
  5
1045F
  8
2-0
  6
CONTINUOUS
 62
     3
 10
25429.794547142072
 20
19660.482675999981
 30
0.0
 11
25423.79264714208
 21
19660.482675999981
 31
0.0
  0
LINE
  5
10460
  8
2-0
  6
CONTINUOUS
 62
     3
 10
25526.792937142091
 20
18874.389347499971
 30
0.0
 11
25533.794494142079
 21
18874.389347499971
 31
0.0
  0
LINE
  5
10461
  8
2-0
  6
CONTINUOUS
 62
     3
 10
25533.794494142079
 20
18874.389347499971
 30
0.0
 11
25533.794494142079
 21
18879.389611499981
 31
0.0
  0
LINE
  5
10462
  8
2-0
  6
CONTINUOUS
 62
     3
 10
25533.794494142079
 20
18879.389611499981
 30
0.0
 11
25508.797134142082
 21
18879.389611499981
 31
0.0
  0
LINE
  5
10463
  8
2-0
  6
CONTINUOUS
 62
     3
 10
25508.797134142082
 20
18879.389611499981
 30
0.0
 11
25508.797134142082
 21
18861.393807499979
 31
0.0
  0
LINE
  5
10464
  8
2-0
  6
CONTINUOUS
 62
     3
 10
25508.797134142082
 20
18861.393807499979
 30
0.0
 11
25538.794758142081
 21
18861.393807499979
 31
0.0
  0
LINE
  5
10465
  8
2-0
  6
CONTINUOUS
 62
     3
 10
25508.797134142082
 20
18877.48531449994
 30
0.0
 11
25508.797134142082
 21
18871.487373499978
 31
0.0
  0
LINE
  5
10466
  8
2-0
  6
CONTINUOUS
 62
     3
 10
25508.797134142082
 20
18871.487373499978
 30
0.0
 11
25538.794758142081
 21
18871.487373499978
 31
0.0
  0
LINE
  5
10467
  8
2-0
  6
CONTINUOUS
 62
     3
 10
25538.794758142081
 20
18871.487373499978
 30
0.0
 11
25538.794758142081
 21
18908.48853449996
 31
0.0
  0
LINE
  5
10468
  8
2-0
  6
CONTINUOUS
 62
     3
 10
25508.797134142082
 20
18908.48853449996
 30
0.0
 11
25538.794758142081
 21
18908.48853449996
 31
0.0
  0
LINE
  5
10469
  8
2-0
  6
CONTINUOUS
 62
     3
 10
25508.797134142082
 20
18902.484654499971
 30
0.0
 11
25508.797134142082
 21
18908.48853449996
 31
0.0
  0
LINE
  5
1046A
  8
2-0
  6
CONTINUOUS
 62
     3
 10
25508.797134142082
 20
18918.584079499971
 30
0.0
 11
25538.794758142081
 21
18918.584079499971
 31
0.0
  0
LINE
  5
1046B
  8
2-0
  6
CONTINUOUS
 62
     3
 10
25508.797134142082
 20
18900.58233749996
 30
0.0
 11
25508.797134142082
 21
18918.584079499971
 31
0.0
  0
LINE
  5
1046C
  8
2-0
  6
CONTINUOUS
 62
     3
 10
25533.794494142079
 20
18900.58233749996
 30
0.0
 11
25508.797134142082
 21
18900.58233749996
 31
0.0
  0
LINE
  5
1046D
  8
2-0
  6
CONTINUOUS
 62
     3
 10
25533.794494142079
 20
18905.58260149998
 30
0.0
 11
25533.794494142079
 21
18900.58233749996
 31
0.0
  0
LINE
  5
1046E
  8
2-0
  6
CONTINUOUS
 62
     3
 10
25526.792937142091
 20
18905.58260149998
 30
0.0
 11
25533.794494142079
 21
18905.58260149998
 31
0.0
  0
LINE
  5
1046F
  8
2-0
  6
CONTINUOUS
 62
     3
 10
25526.792937142091
 20
18173.388357999978
 30
0.0
 11
25533.794494142079
 21
18173.388357999978
 31
0.0
  0
LINE
  5
10470
  8
2-0
  6
CONTINUOUS
 62
     3
 10
25533.794494142079
 20
18173.388357999978
 30
0.0
 11
25533.794494142079
 21
18178.394559999979
 31
0.0
  0
LINE
  5
10471
  8
2-0
  6
CONTINUOUS
 62
     3
 10
25533.794494142079
 20
18178.394559999979
 30
0.0
 11
25508.797134142082
 21
18178.394559999979
 31
0.0
  0
LINE
  5
10472
  8
2-0
  6
CONTINUOUS
 62
     3
 10
25508.797134142082
 20
18178.394559999979
 30
0.0
 11
25508.797134142082
 21
18160.392817999989
 31
0.0
  0
LINE
  5
10473
  8
2-0
  6
CONTINUOUS
 62
     3
 10
25508.797134142082
 20
18160.392817999989
 30
0.0
 11
25538.794758142081
 21
18160.392817999989
 31
0.0
  0
LINE
  5
10474
  8
2-0
  6
CONTINUOUS
 62
     3
 10
25508.797134142082
 20
18176.484324999969
 30
0.0
 11
25508.797134142082
 21
18170.488362999979
 31
0.0
  0
LINE
  5
10475
  8
2-0
  6
CONTINUOUS
 62
     3
 10
25508.797134142082
 20
18170.488362999979
 30
0.0
 11
25538.794758142081
 21
18170.488362999979
 31
0.0
  0
LINE
  5
10476
  8
2-0
  6
CONTINUOUS
 62
     3
 10
25538.794758142081
 20
18170.488362999979
 30
0.0
 11
25538.794758142081
 21
18207.48754499996
 31
0.0
  0
LINE
  5
10477
  8
2-0
  6
CONTINUOUS
 62
     3
 10
25508.797134142082
 20
18207.48754499996
 30
0.0
 11
25538.794758142081
 21
18207.48754499996
 31
0.0
  0
LINE
  5
10478
  8
2-0
  6
CONTINUOUS
 62
     3
 10
25508.797134142082
 20
18201.491582999981
 30
0.0
 11
25508.797134142082
 21
18207.48754499996
 31
0.0
  0
LINE
  5
10479
  8
2-0
  6
CONTINUOUS
 62
     3
 10
25508.797134142082
 20
18217.583089999989
 30
0.0
 11
25538.794758142081
 21
18217.583089999989
 31
0.0
  0
LINE
  5
1047A
  8
2-0
  6
CONTINUOUS
 62
     3
 10
25508.797134142082
 20
18199.581347999982
 30
0.0
 11
25508.797134142082
 21
18217.583089999989
 31
0.0
  0
LINE
  5
1047B
  8
2-0
  6
CONTINUOUS
 62
     3
 10
25533.794494142079
 20
18199.581347999982
 30
0.0
 11
25508.797134142082
 21
18199.581347999982
 31
0.0
  0
LINE
  5
1047C
  8
2-0
  6
CONTINUOUS
 62
     3
 10
25533.794494142079
 20
18204.587549999971
 30
0.0
 11
25533.794494142079
 21
18199.581347999982
 31
0.0
  0
LINE
  5
1047D
  8
2-0
  6
CONTINUOUS
 62
     3
 10
25526.792937142091
 20
18204.587549999971
 30
0.0
 11
25533.794494142079
 21
18204.587549999971
 31
0.0
  0
LINE
  5
1047E
  8
2-0
  6
CONTINUOUS
 62
     3
 10
25526.792937142091
 20
17503.58161199998
 30
0.0
 11
25533.794494142079
 21
17503.58161199998
 31
0.0
  0
LINE
  5
1047F
  8
2-0
  6
CONTINUOUS
 62
     3
 10
25533.794494142079
 20
17503.58161199998
 30
0.0
 11
25533.794494142079
 21
17498.593224999979
 31
0.0
  0
LINE
  5
10480
  8
2-0
  6
CONTINUOUS
 62
     3
 10
25533.794494142079
 20
17498.593224999979
 30
0.0
 11
25508.797134142082
 21
17498.593224999979
 31
0.0
  0
LINE
  5
10481
  8
2-0
  6
CONTINUOUS
 62
     3
 10
25508.797134142082
 20
17498.593224999979
 30
0.0
 11
25508.797134142082
 21
17516.58902799998
 31
0.0
  0
LINE
  5
10482
  8
2-0
  6
CONTINUOUS
 62
     3
 10
25508.797134142082
 20
17516.58902799998
 30
0.0
 11
25538.794758142081
 21
17516.58902799998
 31
0.0
  0
LINE
  5
10483
  8
2-0
  6
CONTINUOUS
 62
     3
 10
25508.797134142082
 20
17500.491582999981
 30
0.0
 11
25508.797134142082
 21
17506.487544999982
 31
0.0
  0
LINE
  5
10484
  8
2-0
  6
CONTINUOUS
 62
     3
 10
25508.797134142082
 20
17506.487544999982
 30
0.0
 11
25538.794758142081
 21
17506.487544999982
 31
0.0
  0
LINE
  5
10485
  8
2-0
  6
CONTINUOUS
 62
     3
 10
25538.794758142081
 20
17506.487544999982
 30
0.0
 11
25538.794758142081
 21
17469.488362999989
 31
0.0
  0
LINE
  5
10486
  8
2-0
  6
CONTINUOUS
 62
     3
 10
25508.797134142082
 20
17469.488362999989
 30
0.0
 11
25538.794758142081
 21
17469.488362999989
 31
0.0
  0
LINE
  5
10487
  8
2-0
  6
CONTINUOUS
 62
     3
 10
25508.797134142082
 20
17475.490263999971
 30
0.0
 11
25508.797134142082
 21
17469.488362999989
 31
0.0
  0
LINE
  5
10488
  8
2-0
  6
CONTINUOUS
 62
     3
 10
25508.797134142082
 20
17459.398756999981
 30
0.0
 11
25538.794758142081
 21
17459.398756999981
 31
0.0
  0
LINE
  5
10489
  8
2-0
  6
CONTINUOUS
 62
     3
 10
25508.797134142082
 20
17477.394559999972
 30
0.0
 11
25508.797134142082
 21
17459.398756999981
 31
0.0
  0
LINE
  5
1048A
  8
2-0
  6
CONTINUOUS
 62
     3
 10
25533.794494142079
 20
17477.394559999972
 30
0.0
 11
25508.797134142082
 21
17477.394559999972
 31
0.0
  0
LINE
  5
1048B
  8
2-0
  6
CONTINUOUS
 62
     3
 10
25533.794494142079
 20
17472.39429699997
 30
0.0
 11
25533.794494142079
 21
17477.394559999972
 31
0.0
  0
LINE
  5
1048C
  8
2-0
  6
CONTINUOUS
 62
     3
 10
25526.792937142091
 20
17472.39429699997
 30
0.0
 11
25533.794494142079
 21
17472.39429699997
 31
0.0
  0
LINE
  5
1048D
  8
2-0
  6
CONTINUOUS
 62
     3
 10
25535.908620142091
 20
16752.485182999979
 30
0.0
 11
25535.908620142091
 21
16772.486237999979
 31
0.0
  0
LINE
  5
1048E
  8
2-0
  6
CONTINUOUS
 62
     3
 10
25535.908620142091
 20
16772.486237999979
 30
0.0
 11
25450.912051142081
 21
16772.486237999979
 31
0.0
  0
LINE
  5
1048F
  8
2-0
  6
CONTINUOUS
 62
     3
 10
25526.792937142091
 20
16799.09294799998
 30
0.0
 11
25533.794494142079
 21
16799.09294799998
 31
0.0
  0
LINE
  5
10490
  8
2-0
  6
CONTINUOUS
 62
     3
 10
25533.794494142079
 20
16799.09294799998
 30
0.0
 11
25533.794494142079
 21
16794.09862199999
 31
0.0
  0
LINE
  5
10491
  8
2-0
  6
CONTINUOUS
 62
     3
 10
25533.794494142079
 20
16794.09862199999
 30
0.0
 11
25508.797134142082
 21
16794.09862199999
 31
0.0
  0
LINE
  5
10492
  8
2-0
  6
CONTINUOUS
 62
     3
 10
25508.797134142082
 20
16794.09862199999
 30
0.0
 11
25508.797134142082
 21
16812.094425999971
 31
0.0
  0
LINE
  5
10493
  8
2-0
  6
CONTINUOUS
 62
     3
 10
25508.797134142082
 20
16812.094425999971
 30
0.0
 11
25538.794758142081
 21
16812.094425999971
 31
0.0
  0
LINE
  5
10494
  8
2-0
  6
CONTINUOUS
 62
     3
 10
25508.797134142082
 20
16802.485841999969
 30
0.0
 11
25508.797134142082
 21
16796.483941999981
 31
0.0
  0
LINE
  5
10495
  8
2-0
  6
CONTINUOUS
 62
     3
 10
25538.794758142081
 20
16802.485841999969
 30
0.0
 11
25508.797134142082
 21
16802.485841999969
 31
0.0
  0
LINE
  5
10496
  8
2-0
  6
CONTINUOUS
 62
     3
 10
25538.794758142081
 20
16812.094425999971
 30
0.0
 11
25538.794758142081
 21
17459.398756999981
 31
0.0
  0
LINE
  5
10497
  8
2-0
  6
CONTINUOUS
 62
     3
 10
25538.794758142081
 20
17516.58902799998
 30
0.0
 11
25538.794758142081
 21
18160.392817999989
 31
0.0
  0
LINE
  5
10498
  8
2-0
  6
CONTINUOUS
 62
     3
 10
25538.794758142081
 20
16657.484126999971
 30
0.0
 11
25508.797134142082
 21
16657.484126999971
 31
0.0
  0
LINE
  5
10499
  8
2-0
  6
CONTINUOUS
 62
     3
 10
25508.797134142082
 20
16657.484126999971
 30
0.0
 11
25508.797134142082
 21
16663.486026999981
 31
0.0
  0
LINE
  5
1049A
  8
2-0
  6
CONTINUOUS
 62
     3
 10
25450.912051142081
 20
16687.489669999981
 30
0.0
 11
25535.908620142091
 21
16687.489669999981
 31
0.0
  0
LINE
  5
1049B
  8
2-0
  6
CONTINUOUS
 62
     3
 10
25535.908620142091
 20
16687.489669999981
 30
0.0
 11
25535.908620142091
 21
16707.48478699999
 31
0.0
  0
LINE
  5
1049C
  8
2-0
  6
CONTINUOUS
 62
     3
 10
25508.797134142082
 20
16647.875543999991
 30
0.0
 11
25538.794758142081
 21
16647.875543999991
 31
0.0
  0
LINE
  5
1049D
  8
2-0
  6
CONTINUOUS
 62
     3
 10
25508.797134142082
 20
16665.87134699996
 30
0.0
 11
25508.797134142082
 21
16647.875543999991
 31
0.0
  0
LINE
  5
1049E
  8
2-0
  6
CONTINUOUS
 62
     3
 10
25533.794494142079
 20
16665.87134699996
 30
0.0
 11
25508.797134142082
 21
16665.87134699996
 31
0.0
  0
LINE
  5
1049F
  8
2-0
  6
CONTINUOUS
 62
     3
 10
25533.794494142079
 20
16660.871082999991
 30
0.0
 11
25533.794494142079
 21
16665.87134699996
 31
0.0
  0
LINE
  5
104A0
  8
2-0
  6
CONTINUOUS
 62
     3
 10
25526.792937142091
 20
16660.871082999991
 30
0.0
 11
25533.794494142079
 21
16660.871082999991
 31
0.0
  0
LINE
  5
104A1
  8
2-0
  6
CONTINUOUS
 62
     3
 10
25526.792937142091
 20
15956.38885249996
 30
0.0
 11
25533.794494142079
 21
15956.38885249996
 31
0.0
  0
LINE
  5
104A2
  8
2-0
  6
CONTINUOUS
 62
     3
 10
25533.794494142079
 20
15956.38885249996
 30
0.0
 11
25533.794494142079
 21
15961.38911649997
 31
0.0
  0
LINE
  5
104A3
  8
2-0
  6
CONTINUOUS
 62
     3
 10
25533.794494142079
 20
15961.38911649997
 30
0.0
 11
25508.797134142082
 21
15961.38911649997
 31
0.0
  0
LINE
  5
104A4
  8
2-0
  6
CONTINUOUS
 62
     3
 10
25508.797134142082
 20
15961.38911649997
 30
0.0
 11
25508.797134142082
 21
15943.38737449998
 31
0.0
  0
LINE
  5
104A5
  8
2-0
  6
CONTINUOUS
 62
     3
 10
25508.797134142082
 20
15943.38737449998
 30
0.0
 11
25538.794758142081
 21
15943.38737449998
 31
0.0
  0
LINE
  5
104A6
  8
2-0
  6
CONTINUOUS
 62
     3
 10
25508.797134142082
 20
15959.484819499979
 30
0.0
 11
25508.797134142082
 21
15953.48786849998
 31
0.0
  0
LINE
  5
104A7
  8
2-0
  6
CONTINUOUS
 62
     3
 10
25508.797134142082
 20
15953.48786849998
 30
0.0
 11
25538.794758142081
 21
15953.48786849998
 31
0.0
  0
LINE
  5
104A8
  8
2-0
  6
CONTINUOUS
 62
     3
 10
25538.794758142081
 20
15953.48786849998
 30
0.0
 11
25538.794758142081
 21
15990.48803949998
 31
0.0
  0
LINE
  5
104A9
  8
2-0
  6
CONTINUOUS
 62
     3
 10
25508.797134142082
 20
15990.48803949998
 30
0.0
 11
25538.794758142081
 21
15990.48803949998
 31
0.0
  0
LINE
  5
104AA
  8
2-0
  6
CONTINUOUS
 62
     3
 10
25508.797134142082
 20
15984.48514949998
 30
0.0
 11
25508.797134142082
 21
15990.48803949998
 31
0.0
  0
LINE
  5
104AB
  8
2-0
  6
CONTINUOUS
 62
     3
 10
25508.797134142082
 20
16000.58358449998
 30
0.0
 11
25538.794758142081
 21
16000.58358449998
 31
0.0
  0
LINE
  5
104AC
  8
2-0
  6
CONTINUOUS
 62
     3
 10
25508.797134142082
 20
15982.57590349997
 30
0.0
 11
25508.797134142082
 21
16000.58358449998
 31
0.0
  0
LINE
  5
104AD
  8
2-0
  6
CONTINUOUS
 62
     3
 10
25533.794494142079
 20
15982.57590349997
 30
0.0
 11
25508.797134142082
 21
15982.57590349997
 31
0.0
  0
LINE
  5
104AE
  8
2-0
  6
CONTINUOUS
 62
     3
 10
25533.794494142079
 20
15987.58210649998
 30
0.0
 11
25533.794494142079
 21
15982.57590349997
 31
0.0
  0
LINE
  5
104AF
  8
2-0
  6
CONTINUOUS
 62
     3
 10
25526.792937142091
 20
15987.58210649998
 30
0.0
 11
25533.794494142079
 21
15987.58210649998
 31
0.0
  0
LINE
  5
104B0
  8
2-0
  6
CONTINUOUS
 62
     3
 10
25526.792937142091
 20
15286.82212299998
 30
0.0
 11
25533.794494142079
 21
15286.82212299998
 31
0.0
  0
LINE
  5
104B1
  8
2-0
  6
CONTINUOUS
 62
     3
 10
25533.794494142079
 20
15286.82212299998
 30
0.0
 11
25533.794494142079
 21
15281.82779799998
 31
0.0
  0
LINE
  5
104B2
  8
2-0
  6
CONTINUOUS
 62
     3
 10
25533.794494142079
 20
15281.82779799998
 30
0.0
 11
25508.797134142082
 21
15281.82779799998
 31
0.0
  0
LINE
  5
104B3
  8
2-0
  6
CONTINUOUS
 62
     3
 10
25508.797134142082
 20
15281.82779799998
 30
0.0
 11
25508.797134142082
 21
15299.823600999989
 31
0.0
  0
LINE
  5
104B4
  8
2-0
  6
CONTINUOUS
 62
     3
 10
25508.797134142082
 20
15299.823600999989
 30
0.0
 11
25538.794758142081
 21
15299.823600999989
 31
0.0
  0
LINE
  5
104B5
  8
2-0
  6
CONTINUOUS
 62
     3
 10
25508.797134142082
 20
15283.72615599999
 30
0.0
 11
25508.797134142082
 21
15289.728055999971
 31
0.0
  0
LINE
  5
104B6
  8
2-0
  6
CONTINUOUS
 62
     3
 10
25508.797134142082
 20
15289.728055999971
 30
0.0
 11
25538.794758142081
 21
15289.728055999971
 31
0.0
  0
LINE
  5
104B7
  8
2-0
  6
CONTINUOUS
 62
     3
 10
25538.794758142081
 20
15252.72887499999
 30
0.0
 11
25538.794758142081
 21
15289.728055999971
 31
0.0
  0
LINE
  5
104B8
  8
2-0
  6
CONTINUOUS
 62
     3
 10
25508.797134142082
 20
15252.72887499999
 30
0.0
 11
25538.794758142081
 21
15252.72887499999
 31
0.0
  0
LINE
  5
104B9
  8
2-0
  6
CONTINUOUS
 62
     3
 10
25508.797134142082
 20
15258.72582599998
 30
0.0
 11
25508.797134142082
 21
15252.72887499999
 31
0.0
  0
LINE
  5
104BA
  8
2-0
  6
CONTINUOUS
 62
     3
 10
25508.797134142082
 20
15242.627390999971
 30
0.0
 11
25538.794758142081
 21
15242.627390999971
 31
0.0
  0
LINE
  5
104BB
  8
2-0
  6
CONTINUOUS
 62
     3
 10
25508.797134142082
 20
15260.63507199997
 30
0.0
 11
25508.797134142082
 21
15242.627390999971
 31
0.0
  0
LINE
  5
104BC
  8
2-0
  6
CONTINUOUS
 62
     3
 10
25533.794494142079
 20
15260.63507199997
 30
0.0
 11
25508.797134142082
 21
15260.63507199997
 31
0.0
  0
LINE
  5
104BD
  8
2-0
  6
CONTINUOUS
 62
     3
 10
25533.794494142079
 20
15255.634808000001
 30
0.0
 11
25533.794494142079
 21
15260.63507199997
 31
0.0
  0
LINE
  5
104BE
  8
2-0
  6
CONTINUOUS
 62
     3
 10
25526.792937142091
 20
15255.634808000001
 30
0.0
 11
25533.794494142079
 21
15255.634808000001
 31
0.0
  0
LINE
  5
104BF
  8
2-0
  6
CONTINUOUS
 62
     3
 10
25538.794758142081
 20
16647.875543999991
 30
0.0
 11
25538.794758142081
 21
16000.58358449998
 31
0.0
  0
LINE
  5
104C0
  8
2-0
  6
CONTINUOUS
 62
     3
 10
25538.794758142081
 20
16802.485841999969
 30
0.0
 11
25538.794758142081
 21
16657.484126999971
 31
0.0
  0
LINE
  5
104C1
  8
2-0
  6
CONTINUOUS
 62
     3
 10
25450.912051142081
 20
16772.486237999979
 30
0.0
 11
25450.912051142081
 21
16687.489669999981
 31
0.0
  0
LINE
  5
104C2
  8
2-0
  6
CONTINUOUS
 62
     6
 10
23912.703384142082
 20
18540.933503499949
 30
0.0
 11
24937.73571614208
 21
18540.933503499949
 31
0.0
  0
LINE
  5
104C3
  8
2-0
  6
CONTINUOUS
 62
     3
 10
25526.792937142091
 20
14554.39380099998
 30
0.0
 11
25533.794494142079
 21
14554.39380099998
 31
0.0
  0
LINE
  5
104C4
  8
2-0
  6
CONTINUOUS
 62
     3
 10
25533.794494142079
 20
14554.39380099998
 30
0.0
 11
25533.794494142079
 21
14559.38812699998
 31
0.0
  0
LINE
  5
104C5
  8
2-0
  6
CONTINUOUS
 62
     3
 10
25533.794494142079
 20
14559.38812699998
 30
0.0
 11
25508.797134142082
 21
14559.38812699998
 31
0.0
  0
LINE
  5
104C6
  8
2-0
  6
CONTINUOUS
 62
     3
 10
25508.797134142082
 20
14559.38812699998
 30
0.0
 11
25508.797134142082
 21
14541.39232299998
 31
0.0
  0
LINE
  5
104C7
  8
2-0
  6
CONTINUOUS
 62
     3
 10
25508.797134142082
 20
14541.39232299998
 30
0.0
 11
25538.794758142081
 21
14541.39232299998
 31
0.0
  0
LINE
  5
104C8
  8
2-0
  6
CONTINUOUS
 62
     3
 10
25508.797134142082
 20
14557.49075799998
 30
0.0
 11
25508.797134142082
 21
14551.487867999989
 31
0.0
  0
LINE
  5
104C9
  8
2-0
  6
CONTINUOUS
 62
     3
 10
25508.797134142082
 20
14551.487867999989
 30
0.0
 11
25538.794758142081
 21
14551.487867999989
 31
0.0
  0
LINE
  5
104CA
  8
2-0
  6
CONTINUOUS
 62
     3
 10
25538.794758142081
 20
14551.487867999989
 30
0.0
 11
25538.794758142081
 21
14588.48803999996
 31
0.0
  0
LINE
  5
104CB
  8
2-0
  6
CONTINUOUS
 62
     3
 10
25508.797134142082
 20
14588.48803999996
 30
0.0
 11
25538.794758142081
 21
14588.48803999996
 31
0.0
  0
LINE
  5
104CC
  8
2-0
  6
CONTINUOUS
 62
     3
 10
25508.797134142082
 20
14582.49108799997
 30
0.0
 11
25508.797134142082
 21
14588.48803999996
 31
0.0
  0
LINE
  5
104CD
  8
2-0
  6
CONTINUOUS
 62
     3
 10
25508.797134142082
 20
14598.58853299998
 30
0.0
 11
25538.794758142081
 21
14598.58853299998
 31
0.0
  0
LINE
  5
104CE
  8
2-0
  6
CONTINUOUS
 62
     3
 10
25508.797134142082
 20
14580.58184199998
 30
0.0
 11
25508.797134142082
 21
14598.58853299998
 31
0.0
  0
LINE
  5
104CF
  8
2-0
  6
CONTINUOUS
 62
     3
 10
25533.794494142079
 20
14580.58184199998
 30
0.0
 11
25508.797134142082
 21
14580.58184199998
 31
0.0
  0
LINE
  5
104D0
  8
2-0
  6
CONTINUOUS
 62
     3
 10
25533.794494142079
 20
14585.58705499998
 30
0.0
 11
25533.794494142079
 21
14580.58184199998
 31
0.0
  0
LINE
  5
104D1
  8
2-0
  6
CONTINUOUS
 62
     3
 10
25526.792937142091
 20
14585.58705499998
 30
0.0
 11
25533.794494142079
 21
14585.58705499998
 31
0.0
  0
LINE
  5
104D2
  8
2-0
  6
CONTINUOUS
 62
     3
 10
25508.797134142082
 20
13878.48988099998
 30
0.0
 11
25508.797134142082
 21
13884.494749999971
 31
0.0
  0
LINE
  5
104D3
  8
2-0
  6
CONTINUOUS
 62
     3
 10
25508.797134142082
 20
13884.494749999971
 30
0.0
 11
25538.794758142081
 21
13884.494749999971
 31
0.0
  0
LINE
  5
104D4
  8
2-0
  6
CONTINUOUS
 62
     3
 10
25538.794758142081
 20
13884.494749999971
 30
0.0
 11
25538.794758142081
 21
13769.490658999979
 31
0.0
  0
LINE
  5
104D5
  8
2-0
  6
CONTINUOUS
 62
     3
 10
25538.794758142081
 20
13769.490658999979
 30
0.0
 11
25453.796210142082
 21
13769.490658999979
 31
0.0
  0
LINE
  5
104D6
  8
2-0
  6
CONTINUOUS
 62
     3
 10
25453.796210142082
 20
13769.490658999979
 30
0.0
 11
25453.796210142082
 21
13854.486237999979
 31
0.0
  0
LINE
  5
104D7
  8
2-0
  6
CONTINUOUS
 62
     3
 10
25453.796210142082
 20
13854.486237999979
 30
0.0
 11
25485.795128142079
 21
13854.486237999979
 31
0.0
  0
LINE
  5
104D8
  8
2-0
  6
CONTINUOUS
 62
     3
 10
25526.792937142091
 20
13881.524482999979
 30
0.0
 11
25533.794494142079
 21
13881.524482999979
 31
0.0
  0
LINE
  5
104D9
  8
2-0
  6
CONTINUOUS
 62
     3
 10
25533.794494142079
 20
13881.524482999979
 30
0.0
 11
25533.794494142079
 21
13876.52718799996
 31
0.0
  0
LINE
  5
104DA
  8
2-0
  6
CONTINUOUS
 62
     3
 10
25533.794494142079
 20
13876.52718799996
 30
0.0
 11
25508.797134142082
 21
13876.52718799996
 31
0.0
  0
LINE
  5
104DB
  8
2-0
  6
CONTINUOUS
 62
     3
 10
25508.797134142082
 20
13876.52718799996
 30
0.0
 11
25508.797134142082
 21
13894.52596099997
 31
0.0
  0
LINE
  5
104DC
  8
2-0
  6
CONTINUOUS
 62
     3
 10
25508.797134142082
 20
13894.52596099997
 30
0.0
 11
25538.794758142081
 21
13894.52596099997
 31
0.0
  0
LINE
  5
104DD
  8
2-0
  6
CENTER2
 62
     6
 10
25496.296474142091
 20
13571.993100999969
 30
0.0
 11
25496.296474142091
 21
14727.861859000001
 31
0.0
  0
LINE
  5
104DE
  8
2-0
  6
CONTINUOUS
 62
     3
 10
25538.794758142081
 20
18217.583089999989
 30
0.0
 11
25538.794758142081
 21
18861.393807499979
 31
0.0
  0
LINE
  5
104DF
  8
2-0
  6
CONTINUOUS
 62
     6
 10
26231.299641142072
 20
20420.489141999991
 30
0.0
 11
27431.293703142052
 21
20420.489141999991
 31
0.0
  0
LINE
  5
104E0
  8
2-0
  6
CONTINUOUS
 62
     6
 10
25369.266808142071
 20
18783.088011499971
 30
0.0
 11
24937.73571614208
 21
18540.933503499949
 31
0.0
  0
LINE
  5
104E1
  8
2-0
  6
CONTINUOUS
 62
     6
 10
25690.83564214205
 20
19833.165979000001
 30
0.0
 11
26231.299641142072
 21
20420.489141999991
 31
0.0
  0
LINE
  5
104E2
  8
2-0
  6
CONTINUOUS
 62
     3
 10
25447.790351142088
 20
18146.486699999969
 30
0.0
 11
25494.795999142061
 21
18146.486699999969
 31
0.0
  0
LINE
  5
104E3
  8
2-0
  6
CONTINUOUS
 62
     3
 10
25494.795999142061
 20
18231.48722799998
 30
0.0
 11
25447.790351142088
 21
18231.48722799998
 31
0.0
  0
LINE
  5
104E4
  8
2-0
  6
CONTINUOUS
 62
     3
 10
25494.795999142061
 20
18146.486699999969
 30
0.0
 11
25494.795999142061
 21
18171.489998999979
 31
0.0
  0
LINE
  5
104E5
  8
2-0
  6
CONTINUOUS
 62
     3
 10
25494.795999142061
 20
18206.485907999981
 30
0.0
 11
25494.795999142061
 21
18231.48722799998
 31
0.0
  0
LINE
  5
104E6
  8
2-0
  6
CONTINUOUS
 62
     3
 10
25447.790351142088
 20
18231.48722799998
 30
0.0
 11
25447.790351142088
 21
18146.486699999969
 31
0.0
  0
LINE
  5
104E7
  8
2-0
  6
CONTINUOUS
 62
     3
 10
25538.794758142081
 20
15943.38737449998
 30
0.0
 11
25538.794758142081
 21
15299.823600999989
 31
0.0
  0
LINE
  5
104E8
  8
2-0
  6
CONTINUOUS
 62
     3
 10
25447.790351142088
 20
15228.489669999981
 30
0.0
 11
25494.795999142061
 21
15228.489669999981
 31
0.0
  0
LINE
  5
104E9
  8
2-0
  6
CONTINUOUS
 62
     3
 10
25494.795999142061
 20
15313.48623799997
 30
0.0
 11
25447.790351142088
 21
15313.48623799997
 31
0.0
  0
LINE
  5
104EA
  8
2-0
  6
CONTINUOUS
 62
     3
 10
25494.795999142061
 20
15228.489669999981
 30
0.0
 11
25494.795999142061
 21
15253.48505099998
 31
0.0
  0
LINE
  5
104EB
  8
2-0
  6
CONTINUOUS
 62
     3
 10
25494.795999142061
 20
15288.48491899999
 30
0.0
 11
25494.795999142061
 21
15313.48623799997
 31
0.0
  0
LINE
  5
104EC
  8
2-0
  6
CONTINUOUS
 62
     3
 10
25447.790351142088
 20
15313.48623799997
 30
0.0
 11
25447.790351142088
 21
15228.489669999981
 31
0.0
  0
LINE
  5
104ED
  8
2-0
  6
CONTINUOUS
 62
     6
 10
25356.20990314208
 20
18806.347355499969
 30
0.0
 11
25508.797134142082
 21
18861.393807499979
 31
0.0
  0
LINE
  5
104EE
  8
2-0
  6
CONTINUOUS
 62
     6
 10
25508.797134142082
 20
18861.393807499979
 30
0.0
 11
25382.31579414208
 21
18759.834607499961
 31
0.0
  0
LINE
  5
104EF
  8
2-0
  6
CONTINUOUS
 62
     6
 10
25356.20990314208
 20
18806.347355499969
 30
0.0
 11
25382.31579414208
 21
18759.834607499961
 31
0.0
  0
LINE
  5
104F0
  8
2-0
  6
CONTINUOUS
 62
     6
 10
25382.31579414208
 20
18759.834607499961
 30
0.0
 11
25508.797134142082
 21
18861.393807499979
 31
0.0
  0
LINE
  5
104F1
  8
2-0
  6
CONTINUOUS
 62
     6
 10
25508.797134142082
 20
18861.393807499979
 30
0.0
 11
25356.20990314208
 21
18806.347355499969
 31
0.0
  0
LINE
  5
104F2
  8
2-0
  6
CONTINUOUS
 62
     6
 10
25356.20990314208
 20
18806.347355499969
 30
0.0
 11
25508.797134142082
 21
18861.393807499979
 31
0.0
  0
LINE
  5
104F3
  8
2-0
  6
CONTINUOUS
 62
     6
 10
25382.31579414208
 20
18759.834607499961
 30
0.0
 11
25508.797134142082
 21
18861.393807499979
 31
0.0
  0
LINE
  5
104F4
  8
2-0
  6
CONTINUOUS
 62
     6
 10
25382.31579414208
 20
18759.834607499961
 30
0.0
 11
25356.20990314208
 21
18806.347355499969
 31
0.0
  0
LINE
  5
104F5
  8
2-0
  6
CONTINUOUS
 62
     6
 10
25710.45267114208
 20
19815.104852
 30
0.0
 11
25582.490651142081
 21
19715.422233999991
 31
0.0
  0
LINE
  5
104F6
  8
2-0
  6
CONTINUOUS
 62
     6
 10
25582.490651142081
 20
19715.422233999991
 30
0.0
 11
25671.20475614207
 21
19851.219188999989
 31
0.0
  0
LINE
  5
104F7
  8
2-0
  6
CONTINUOUS
 62
     6
 10
25710.45267114208
 20
19815.104852
 30
0.0
 11
25671.20475614207
 21
19851.219188999989
 31
0.0
  0
LINE
  5
104F8
  8
2-0
  6
CONTINUOUS
 62
     6
 10
25671.20475614207
 20
19851.219188999989
 30
0.0
 11
25582.490651142081
 21
19715.422233999991
 31
0.0
  0
LINE
  5
104F9
  8
2-0
  6
CONTINUOUS
 62
     6
 10
25582.490651142081
 20
19715.422233999991
 30
0.0
 11
25710.45267114208
 21
19815.104852
 31
0.0
  0
LINE
  5
104FA
  8
2-0
  6
CONTINUOUS
 62
     6
 10
25710.45267114208
 20
19815.104852
 30
0.0
 11
25582.490651142081
 21
19715.422233999991
 31
0.0
  0
LINE
  5
104FB
  8
2-0
  6
CONTINUOUS
 62
     6
 10
25671.20475614207
 20
19851.219188999989
 30
0.0
 11
25582.490651142081
 21
19715.422233999991
 31
0.0
  0
LINE
  5
104FC
  8
2-0
  6
CONTINUOUS
 62
     6
 10
25671.20475614207
 20
19851.219188999989
 30
0.0
 11
25710.45267114208
 21
19815.104852
 31
0.0
  0
LINE
  5
104FD
  8
2-0
  6
CONTINUOUS
 62
     6
 10
25292.471384142071
 20
15181.982859999989
 30
0.0
 11
25447.790351142088
 21
15228.73018099999
 31
0.0
  0
LINE
  5
104FE
  8
2-0
  6
CONTINUOUS
 62
     6
 10
25447.790351142088
 20
15228.73018099999
 30
0.0
 11
25316.029635142058
 21
15134.137895999989
 31
0.0
  0
LINE
  5
104FF
  8
2-0
  6
CONTINUOUS
 62
     6
 10
25292.471384142071
 20
15181.982859999989
 30
0.0
 11
25316.029635142058
 21
15134.137895999989
 31
0.0
  0
LINE
  5
10500
  8
2-0
  6
CONTINUOUS
 62
     6
 10
25316.029635142058
 20
15134.137895999989
 30
0.0
 11
25447.790351142088
 21
15228.73018099999
 31
0.0
  0
LINE
  5
10501
  8
2-0
  6
CONTINUOUS
 62
     6
 10
25447.790351142088
 20
15228.73018099999
 30
0.0
 11
25292.471384142071
 21
15181.982859999989
 31
0.0
  0
LINE
  5
10502
  8
2-0
  6
CONTINUOUS
 62
     6
 10
25292.471384142071
 20
15181.982859999989
 30
0.0
 11
25447.790351142088
 21
15228.73018099999
 31
0.0
  0
LINE
  5
10503
  8
2-0
  6
CONTINUOUS
 62
     6
 10
25316.029635142058
 20
15134.137895999989
 30
0.0
 11
25447.790351142088
 21
15228.73018099999
 31
0.0
  0
LINE
  5
10504
  8
2-0
  6
CONTINUOUS
 62
     6
 10
25316.029635142058
 20
15134.137895999989
 30
0.0
 11
25292.471384142071
 21
15181.982859999989
 31
0.0
  0
LINE
  5
10505
  8
2-0
  6
CONTINUOUS
 62
     6
 10
25262.157037142078
 20
13661.21792099997
 30
0.0
 11
25393.903896142081
 21
13755.844847999981
 31
0.0
  0
LINE
  5
10506
  8
2-0
  6
CONTINUOUS
 62
     6
 10
25393.903896142081
 20
13755.844847999981
 30
0.0
 11
25299.973760142078
 21
13623.60607799997
 31
0.0
  0
LINE
  5
10507
  8
2-0
  6
CONTINUOUS
 62
     6
 10
25262.157037142078
 20
13661.21792099997
 30
0.0
 11
25299.973760142078
 21
13623.60607799997
 31
0.0
  0
LINE
  5
10508
  8
2-0
  6
CONTINUOUS
 62
     6
 10
25299.973760142078
 20
13623.60607799997
 30
0.0
 11
25393.903896142081
 21
13755.844847999981
 31
0.0
  0
LINE
  5
10509
  8
2-0
  6
CONTINUOUS
 62
     6
 10
25393.903896142081
 20
13755.844847999981
 30
0.0
 11
25262.157037142078
 21
13661.21792099997
 31
0.0
  0
LINE
  5
1050A
  8
2-0
  6
CONTINUOUS
 62
     6
 10
25262.157037142078
 20
13661.21792099997
 30
0.0
 11
25393.903896142081
 21
13755.844847999981
 31
0.0
  0
LINE
  5
1050B
  8
2-0
  6
CONTINUOUS
 62
     6
 10
25299.973760142078
 20
13623.60607799997
 30
0.0
 11
25393.903896142081
 21
13755.844847999981
 31
0.0
  0
LINE
  5
1050C
  8
2-0
  6
CONTINUOUS
 62
     6
 10
25299.973760142078
 20
13623.60607799997
 30
0.0
 11
25262.157037142078
 21
13661.21792099997
 31
0.0
  0
LINE
  5
1050D
  8
2-0
  6
CONTINUOUS
 62
     6
 10
25325.19282614208
 20
13988.12254799997
 30
0.0
 11
25457.792858142071
 21
13894.69421999997
 31
0.0
  0
LINE
  5
1050E
  8
2-0
  6
CONTINUOUS
 62
     6
 10
25457.792858142071
 20
13894.69421999997
 30
0.0
 11
25302.060172142072
 21
13940.069733999981
 31
0.0
  0
LINE
  5
1050F
  8
2-0
  6
CONTINUOUS
 62
     6
 10
25325.19282614208
 20
13988.12254799997
 30
0.0
 11
25302.060172142072
 21
13940.069733999981
 31
0.0
  0
LINE
  5
10510
  8
2-0
  6
CONTINUOUS
 62
     6
 10
25302.060172142072
 20
13940.069733999981
 30
0.0
 11
25457.792858142071
 21
13894.69421999997
 31
0.0
  0
LINE
  5
10511
  8
2-0
  6
CONTINUOUS
 62
     6
 10
25457.792858142071
 20
13894.69421999997
 30
0.0
 11
25325.19282614208
 21
13988.12254799997
 31
0.0
  0
LINE
  5
10512
  8
2-0
  6
CONTINUOUS
 62
     6
 10
25325.19282614208
 20
13988.12254799997
 30
0.0
 11
25457.792858142071
 21
13894.69421999997
 31
0.0
  0
LINE
  5
10513
  8
2-0
  6
CONTINUOUS
 62
     6
 10
25302.060172142072
 20
13940.069733999981
 30
0.0
 11
25457.792858142071
 21
13894.69421999997
 31
0.0
  0
LINE
  5
10514
  8
2-0
  6
CONTINUOUS
 62
     6
 10
25302.060172142072
 20
13940.069733999981
 30
0.0
 11
25325.19282614208
 21
13988.12254799997
 31
0.0
  0
LINE
  5
10515
  8
2-0
  6
CONTINUOUS
 62
     6
 10
25384.956472142079
 20
16367.943481
 30
0.0
 11
25538.794758142081
 21
16419.377312000001
 31
0.0
  0
LINE
  5
10516
  8
2-0
  6
CONTINUOUS
 62
     6
 10
25538.794758142081
 20
16419.377312000001
 30
0.0
 11
25409.95977114205
 21
16320.836877
 31
0.0
  0
LINE
  5
10517
  8
2-0
  6
CONTINUOUS
 62
     6
 10
25384.956472142079
 20
16367.943481
 30
0.0
 11
25409.95977114205
 21
16320.836877
 31
0.0
  0
LINE
  5
10518
  8
2-0
  6
CONTINUOUS
 62
     6
 10
25409.95977114205
 20
16320.836877
 30
0.0
 11
25538.794758142081
 21
16419.377312000001
 31
0.0
  0
LINE
  5
10519
  8
2-0
  6
CONTINUOUS
 62
     6
 10
25538.794758142081
 20
16419.377312000001
 30
0.0
 11
25384.956472142079
 21
16367.943481
 31
0.0
  0
LINE
  5
1051A
  8
2-0
  6
CONTINUOUS
 62
     6
 10
25384.956472142079
 20
16367.943481
 30
0.0
 11
25538.794758142081
 21
16419.377312000001
 31
0.0
  0
LINE
  5
1051B
  8
2-0
  6
CONTINUOUS
 62
     6
 10
25409.95977114205
 20
16320.836877
 30
0.0
 11
25538.794758142081
 21
16419.377312000001
 31
0.0
  0
LINE
  5
1051C
  8
2-0
  6
CONTINUOUS
 62
     6
 10
25409.95977114205
 20
16320.836877
 30
0.0
 11
25384.956472142079
 21
16367.943481
 31
0.0
  0
LINE
  5
1051D
  8
2-0
  6
CONTINUOUS
 62
     6
 10
25251.02026514207
 20
16859.26197299999
 30
0.0
 11
25393.903896142081
 21
16782.486343999979
 31
0.0
  0
LINE
  5
1051E
  8
2-0
  6
CONTINUOUS
 62
     6
 10
25393.903896142081
 20
16782.486343999979
 30
0.0
 11
25233.842003142068
 21
16808.768412999991
 31
0.0
  0
LINE
  5
1051F
  8
2-0
  6
CONTINUOUS
 62
     6
 10
25251.02026514207
 20
16859.26197299999
 30
0.0
 11
25233.842003142068
 21
16808.768412999991
 31
0.0
  0
LINE
  5
10520
  8
2-0
  6
CONTINUOUS
 62
     6
 10
25233.842003142068
 20
16808.768412999991
 30
0.0
 11
25393.903896142081
 21
16782.486343999979
 31
0.0
  0
LINE
  5
10521
  8
2-0
  6
CONTINUOUS
 62
     6
 10
25393.903896142081
 20
16782.486343999979
 30
0.0
 11
25251.02026514207
 21
16859.26197299999
 31
0.0
  0
LINE
  5
10522
  8
2-0
  6
CONTINUOUS
 62
     6
 10
25251.02026514207
 20
16859.26197299999
 30
0.0
 11
25393.903896142081
 21
16782.486343999979
 31
0.0
  0
LINE
  5
10523
  8
2-0
  6
CONTINUOUS
 62
     6
 10
25233.842003142068
 20
16808.768412999991
 30
0.0
 11
25393.903896142081
 21
16782.486343999979
 31
0.0
  0
LINE
  5
10524
  8
2-0
  6
CONTINUOUS
 62
     6
 10
25233.842003142068
 20
16808.768412999991
 30
0.0
 11
25251.02026514207
 21
16859.26197299999
 31
0.0
  0
LINE
  5
10525
  8
2-0
  6
CONTINUOUS
 62
     6
 10
25292.471384142071
 20
18099.74234799996
 30
0.0
 11
25447.790351142088
 21
18146.486699999969
 31
0.0
  0
LINE
  5
10526
  8
2-0
  6
CONTINUOUS
 62
     6
 10
25447.790351142088
 20
18146.486699999969
 30
0.0
 11
25316.029635142058
 21
18051.89144599998
 31
0.0
  0
LINE
  5
10527
  8
2-0
  6
CONTINUOUS
 62
     6
 10
25292.471384142071
 20
18099.74234799996
 30
0.0
 11
25316.029635142058
 21
18051.89144599998
 31
0.0
  0
LINE
  5
10528
  8
2-0
  6
CONTINUOUS
 62
     6
 10
25316.029635142058
 20
18051.89144599998
 30
0.0
 11
25447.790351142088
 21
18146.486699999969
 31
0.0
  0
LINE
  5
10529
  8
2-0
  6
CONTINUOUS
 62
     6
 10
25447.790351142088
 20
18146.486699999969
 30
0.0
 11
25292.471384142071
 21
18099.74234799996
 31
0.0
  0
LINE
  5
1052A
  8
2-0
  6
CONTINUOUS
 62
     6
 10
25292.471384142071
 20
18099.74234799996
 30
0.0
 11
25447.790351142088
 21
18146.486699999969
 31
0.0
  0
LINE
  5
1052B
  8
2-0
  6
CONTINUOUS
 62
     6
 10
25316.029635142058
 20
18051.89144599998
 30
0.0
 11
25447.790351142088
 21
18146.486699999969
 31
0.0
  0
LINE
  5
1052C
  8
2-0
  6
CONTINUOUS
 62
     6
 10
25316.029635142058
 20
18051.89144599998
 30
0.0
 11
25292.471384142071
 21
18099.74234799996
 31
0.0
  0
LINE
  5
1052D
  8
2-0
  6
CONTINUOUS
 62
     3
 10
22565.79779414208
 20
19581.486027999988
 30
0.0
 11
22565.79779414208
 21
19575.49006599998
 31
0.0
  0
LINE
  5
1052E
  8
2-0
  6
CONTINUOUS
 62
     3
 10
22565.79779414208
 20
19575.49006599998
 30
0.0
 11
22535.80016914208
 21
19575.49006599998
 31
0.0
  0
LINE
  5
1052F
  8
2-0
  6
CONTINUOUS
 62
     3
 10
22535.80016914208
 20
19575.49006599998
 30
0.0
 11
22535.80016914208
 21
19690.486238999991
 31
0.0
  0
LINE
  5
10530
  8
2-0
  6
CONTINUOUS
 62
     3
 10
22535.80016914208
 20
19605.489669999981
 30
0.0
 11
22616.798110142088
 21
19605.489669999981
 31
0.0
  0
LINE
  5
10531
  8
2-0
  6
CONTINUOUS
 62
     3
 10
22565.79779414208
 20
19565.19260999998
 30
0.0
 11
22535.80016914208
 21
19565.19260999998
 31
0.0
  0
LINE
  5
10532
  8
2-0
  6
CONTINUOUS
 62
     3
 10
22565.79779414208
 20
19583.19435199998
 30
0.0
 11
22565.79779414208
 21
19565.19260999998
 31
0.0
  0
LINE
  5
10533
  8
2-0
  6
CONTINUOUS
 62
     3
 10
22540.804392142079
 20
19583.19435199998
 30
0.0
 11
22565.79779414208
 21
19583.19435199998
 31
0.0
  0
LINE
  5
10534
  8
2-0
  6
CONTINUOUS
 62
     3
 10
22540.804392142079
 20
19578.18616999999
 30
0.0
 11
22540.804392142079
 21
19583.19435199998
 31
0.0
  0
LINE
  5
10535
  8
2-0
  6
CONTINUOUS
 62
     3
 10
22547.801990142059
 20
19578.18616999999
 30
0.0
 11
22540.804392142079
 21
19578.18616999999
 31
0.0
  0
LINE
  5
10536
  8
2-0
  6
CONTINUOUS
 62
     3
 10
22648.096279142079
 20
19678.486397000001
 30
0.0
 11
22648.096279142079
 21
19685.491912999991
 31
0.0
  0
LINE
  5
10537
  8
2-0
  6
CONTINUOUS
 62
     3
 10
22648.096279142079
 20
19685.491912999991
 30
0.0
 11
22643.09403514208
 21
19685.491912999991
 31
0.0
  0
LINE
  5
10538
  8
2-0
  6
CONTINUOUS
 62
     3
 10
22643.09403514208
 20
19685.491912999991
 30
0.0
 11
22643.09403514208
 21
19660.482675999981
 31
0.0
  0
LINE
  5
10539
  8
2-0
  6
CONTINUOUS
 62
     3
 10
22643.09403514208
 20
19660.482675999981
 30
0.0
 11
22661.101716142071
 21
19660.482675999981
 31
0.0
  0
LINE
  5
1053A
  8
2-0
  6
CONTINUOUS
 62
     3
 10
22661.101716142071
 20
19660.482675999981
 30
0.0
 11
22661.101716142071
 21
19690.486238999991
 31
0.0
  0
LINE
  5
1053B
  8
2-0
  6
CONTINUOUS
 62
     3
 10
22650.802280142081
 20
19690.486238999991
 30
0.0
 11
22535.80016914208
 21
19690.486238999991
 31
0.0
  0
LINE
  5
1053C
  8
2-0
  6
CONTINUOUS
 62
     3
 10
22650.802280142081
 20
19660.482675999981
 30
0.0
 11
22650.802280142081
 21
19690.486238999991
 31
0.0
  0
LINE
  5
1053D
  8
2-0
  6
CONTINUOUS
 62
     3
 10
22644.798401142081
 20
19660.482675999981
 30
0.0
 11
22650.802280142081
 21
19660.482675999981
 31
0.0
  0
LINE
  5
1053E
  8
2-0
  6
CONTINUOUS
 62
     3
 10
22565.79779414208
 20
19581.486027999988
 30
0.0
 11
22565.79779414208
 21
19575.49006599998
 31
0.0
  0
LINE
  5
1053F
  8
2-0
  6
CONTINUOUS
 62
     3
 10
22565.79779414208
 20
19575.49006599998
 30
0.0
 11
22535.80016914208
 21
19575.49006599998
 31
0.0
  0
LINE
  5
10540
  8
2-0
  6
CONTINUOUS
 62
     3
 10
22535.80016914208
 20
19575.49006599998
 30
0.0
 11
22535.80016914208
 21
19690.486238999991
 31
0.0
  0
LINE
  5
10541
  8
2-0
  6
CONTINUOUS
 62
     3
 10
22535.80016914208
 20
19605.489669999981
 30
0.0
 11
22616.798110142088
 21
19605.489669999981
 31
0.0
  0
LINE
  5
10542
  8
2-0
  6
CONTINUOUS
 62
     3
 10
22565.79779414208
 20
19565.19260999998
 30
0.0
 11
22535.80016914208
 21
19565.19260999998
 31
0.0
  0
LINE
  5
10543
  8
2-0
  6
CONTINUOUS
 62
     3
 10
22565.79779414208
 20
19583.19435199998
 30
0.0
 11
22565.79779414208
 21
19565.19260999998
 31
0.0
  0
LINE
  5
10544
  8
2-0
  6
CONTINUOUS
 62
     3
 10
22540.804392142079
 20
19583.19435199998
 30
0.0
 11
22565.79779414208
 21
19583.19435199998
 31
0.0
  0
LINE
  5
10545
  8
2-0
  6
CONTINUOUS
 62
     3
 10
22540.804392142079
 20
19578.18616999999
 30
0.0
 11
22540.804392142079
 21
19583.19435199998
 31
0.0
  0
LINE
  5
10546
  8
2-0
  6
CONTINUOUS
 62
     3
 10
22547.801990142059
 20
19578.18616999999
 30
0.0
 11
22540.804392142079
 21
19578.18616999999
 31
0.0
  0
LINE
  5
10547
  8
2-0
  6
CONTINUOUS
 62
     3
 10
22547.801990142059
 20
18874.389347499971
 30
0.0
 11
22540.804392142079
 21
18874.389347499971
 31
0.0
  0
LINE
  5
10548
  8
2-0
  6
CONTINUOUS
 62
     3
 10
22540.804392142079
 20
18874.389347499971
 30
0.0
 11
22540.804392142079
 21
18879.389611499981
 31
0.0
  0
LINE
  5
10549
  8
2-0
  6
CONTINUOUS
 62
     3
 10
22540.804392142079
 20
18879.389611499981
 30
0.0
 11
22565.79779414208
 21
18879.389611499981
 31
0.0
  0
LINE
  5
1054A
  8
2-0
  6
CONTINUOUS
 62
     3
 10
22565.79779414208
 20
18879.389611499981
 30
0.0
 11
22565.79779414208
 21
18861.39380749995
 31
0.0
  0
LINE
  5
1054B
  8
2-0
  6
CONTINUOUS
 62
     3
 10
22565.79779414208
 20
18861.39380749995
 30
0.0
 11
22535.80016914208
 21
18861.39380749995
 31
0.0
  0
LINE
  5
1054C
  8
2-0
  6
CONTINUOUS
 62
     3
 10
22565.79779414208
 20
18877.48531449994
 30
0.0
 11
22565.79779414208
 21
18871.487373499971
 31
0.0
  0
LINE
  5
1054D
  8
2-0
  6
CONTINUOUS
 62
     3
 10
22565.79779414208
 20
18871.487373499971
 30
0.0
 11
22535.80016914208
 21
18871.487373499971
 31
0.0
  0
LINE
  5
1054E
  8
2-0
  6
CONTINUOUS
 62
     3
 10
22535.80016914208
 20
18871.487373499971
 30
0.0
 11
22535.80016914208
 21
18908.48853449996
 31
0.0
  0
LINE
  5
1054F
  8
2-0
  6
CONTINUOUS
 62
     3
 10
22565.79779414208
 20
18908.48853449996
 30
0.0
 11
22535.80016914208
 21
18908.48853449996
 31
0.0
  0
LINE
  5
10550
  8
2-0
  6
CONTINUOUS
 62
     3
 10
22565.79779414208
 20
18902.484654499971
 30
0.0
 11
22565.79779414208
 21
18908.48853449996
 31
0.0
  0
LINE
  5
10551
  8
2-0
  6
CONTINUOUS
 62
     3
 10
22565.79779414208
 20
18918.58407949996
 30
0.0
 11
22535.80016914208
 21
18918.58407949996
 31
0.0
  0
LINE
  5
10552
  8
2-0
  6
CONTINUOUS
 62
     3
 10
22565.79779414208
 20
18900.58233749996
 30
0.0
 11
22565.79779414208
 21
18918.58407949996
 31
0.0
  0
LINE
  5
10553
  8
2-0
  6
CONTINUOUS
 62
     3
 10
22540.804392142079
 20
18900.58233749996
 30
0.0
 11
22565.79779414208
 21
18900.58233749996
 31
0.0
  0
LINE
  5
10554
  8
2-0
  6
CONTINUOUS
 62
     3
 10
22540.804392142079
 20
18905.582601499958
 30
0.0
 11
22540.804392142079
 21
18900.58233749996
 31
0.0
  0
LINE
  5
10555
  8
2-0
  6
CONTINUOUS
 62
     3
 10
22547.801990142059
 20
18905.582601499958
 30
0.0
 11
22540.804392142079
 21
18905.582601499958
 31
0.0
  0
LINE
  5
10556
  8
2-0
  6
CONTINUOUS
 62
     3
 10
22547.801990142059
 20
18173.388357999978
 30
0.0
 11
22540.804392142079
 21
18173.388357999978
 31
0.0
  0
LINE
  5
10557
  8
2-0
  6
CONTINUOUS
 62
     3
 10
22540.804392142079
 20
18173.388357999978
 30
0.0
 11
22540.804392142079
 21
18178.394559999979
 31
0.0
  0
LINE
  5
10558
  8
2-0
  6
CONTINUOUS
 62
     3
 10
22540.804392142079
 20
18178.394559999979
 30
0.0
 11
22565.79779414208
 21
18178.394559999979
 31
0.0
  0
LINE
  5
10559
  8
2-0
  6
CONTINUOUS
 62
     3
 10
22565.79779414208
 20
18178.394559999979
 30
0.0
 11
22565.79779414208
 21
18160.39281799996
 31
0.0
  0
LINE
  5
1055A
  8
2-0
  6
CONTINUOUS
 62
     3
 10
22565.79779414208
 20
18160.39281799996
 30
0.0
 11
22535.80016914208
 21
18160.39281799996
 31
0.0
  0
LINE
  5
1055B
  8
2-0
  6
CONTINUOUS
 62
     3
 10
22565.79779414208
 20
18176.48432499995
 30
0.0
 11
22565.79779414208
 21
18170.488362999971
 31
0.0
  0
LINE
  5
1055C
  8
2-0
  6
CONTINUOUS
 62
     3
 10
22565.79779414208
 20
18170.488362999971
 30
0.0
 11
22535.80016914208
 21
18170.488362999971
 31
0.0
  0
LINE
  5
1055D
  8
2-0
  6
CONTINUOUS
 62
     3
 10
22535.80016914208
 20
18170.488362999971
 30
0.0
 11
22535.80016914208
 21
18207.48754499996
 31
0.0
  0
LINE
  5
1055E
  8
2-0
  6
CONTINUOUS
 62
     3
 10
22565.79779414208
 20
18207.48754499996
 30
0.0
 11
22535.80016914208
 21
18207.48754499996
 31
0.0
  0
LINE
  5
1055F
  8
2-0
  6
CONTINUOUS
 62
     3
 10
22565.79779414208
 20
18201.491582999981
 30
0.0
 11
22565.79779414208
 21
18207.48754499996
 31
0.0
  0
LINE
  5
10560
  8
2-0
  6
CONTINUOUS
 62
     3
 10
22565.79779414208
 20
18217.583089999978
 30
0.0
 11
22535.80016914208
 21
18217.583089999978
 31
0.0
  0
LINE
  5
10561
  8
2-0
  6
CONTINUOUS
 62
     3
 10
22565.79779414208
 20
18199.58134799996
 30
0.0
 11
22565.79779414208
 21
18217.583089999978
 31
0.0
  0
LINE
  5
10562
  8
2-0
  6
CONTINUOUS
 62
     3
 10
22540.804392142079
 20
18199.58134799996
 30
0.0
 11
22565.79779414208
 21
18199.58134799996
 31
0.0
  0
LINE
  5
10563
  8
2-0
  6
CONTINUOUS
 62
     3
 10
22540.804392142079
 20
18204.587549999971
 30
0.0
 11
22540.804392142079
 21
18199.58134799996
 31
0.0
  0
LINE
  5
10564
  8
2-0
  6
CONTINUOUS
 62
     3
 10
22547.801990142059
 20
18204.587549999971
 30
0.0
 11
22540.804392142079
 21
18204.587549999971
 31
0.0
  0
LINE
  5
10565
  8
2-0
  6
CONTINUOUS
 62
     3
 10
22547.801990142059
 20
17503.581611999969
 30
0.0
 11
22540.804392142079
 21
17503.581611999969
 31
0.0
  0
LINE
  5
10566
  8
2-0
  6
CONTINUOUS
 62
     3
 10
22540.804392142079
 20
17503.581611999969
 30
0.0
 11
22540.804392142079
 21
17498.593224999979
 31
0.0
  0
LINE
  5
10567
  8
2-0
  6
CONTINUOUS
 62
     3
 10
22540.804392142079
 20
17498.593224999979
 30
0.0
 11
22565.79779414208
 21
17498.593224999979
 31
0.0
  0
LINE
  5
10568
  8
2-0
  6
CONTINUOUS
 62
     3
 10
22565.79779414208
 20
17498.593224999979
 30
0.0
 11
22565.79779414208
 21
17516.589027999969
 31
0.0
  0
LINE
  5
10569
  8
2-0
  6
CONTINUOUS
 62
     3
 10
22565.79779414208
 20
17516.589027999969
 30
0.0
 11
22535.80016914208
 21
17516.589027999969
 31
0.0
  0
LINE
  5
1056A
  8
2-0
  6
CONTINUOUS
 62
     3
 10
22565.79779414208
 20
17500.491582999981
 30
0.0
 11
22565.79779414208
 21
17506.487544999971
 31
0.0
  0
LINE
  5
1056B
  8
2-0
  6
CONTINUOUS
 62
     3
 10
22565.79779414208
 20
17506.487544999971
 30
0.0
 11
22535.80016914208
 21
17506.487544999971
 31
0.0
  0
LINE
  5
1056C
  8
2-0
  6
CONTINUOUS
 62
     3
 10
22535.80016914208
 20
17506.487544999971
 30
0.0
 11
22535.80016914208
 21
17469.48836299996
 31
0.0
  0
LINE
  5
1056D
  8
2-0
  6
CONTINUOUS
 62
     3
 10
22565.79779414208
 20
17469.48836299996
 30
0.0
 11
22535.80016914208
 21
17469.48836299996
 31
0.0
  0
LINE
  5
1056E
  8
2-0
  6
CONTINUOUS
 62
     3
 10
22565.79779414208
 20
17475.490263999971
 30
0.0
 11
22565.79779414208
 21
17469.48836299996
 31
0.0
  0
LINE
  5
1056F
  8
2-0
  6
CONTINUOUS
 62
     3
 10
22565.79779414208
 20
17459.398756999981
 30
0.0
 11
22535.80016914208
 21
17459.398756999981
 31
0.0
  0
LINE
  5
10570
  8
2-0
  6
CONTINUOUS
 62
     3
 10
22565.79779414208
 20
17477.39455999995
 30
0.0
 11
22565.79779414208
 21
17459.398756999981
 31
0.0
  0
LINE
  5
10571
  8
2-0
  6
CONTINUOUS
 62
     3
 10
22540.804392142079
 20
17477.39455999995
 30
0.0
 11
22565.79779414208
 21
17477.39455999995
 31
0.0
  0
LINE
  5
10572
  8
2-0
  6
CONTINUOUS
 62
     3
 10
22540.804392142079
 20
17472.39429699997
 30
0.0
 11
22540.804392142079
 21
17477.39455999995
 31
0.0
  0
LINE
  5
10573
  8
2-0
  6
CONTINUOUS
 62
     3
 10
22547.801990142059
 20
17472.39429699997
 30
0.0
 11
22540.804392142079
 21
17472.39429699997
 31
0.0
  0
LINE
  5
10574
  8
2-0
  6
CONTINUOUS
 62
     3
 10
22538.686307142081
 20
16752.485182999979
 30
0.0
 11
22538.686307142081
 21
16772.486237999979
 31
0.0
  0
LINE
  5
10575
  8
2-0
  6
CONTINUOUS
 62
     3
 10
22538.686307142081
 20
16772.486237999979
 30
0.0
 11
22623.686835142089
 21
16772.486237999979
 31
0.0
  0
LINE
  5
10576
  8
2-0
  6
CONTINUOUS
 62
     3
 10
22547.801990142059
 20
16799.09294799998
 30
0.0
 11
22540.804392142079
 21
16799.09294799998
 31
0.0
  0
LINE
  5
10577
  8
2-0
  6
CONTINUOUS
 62
     3
 10
22540.804392142079
 20
16799.09294799998
 30
0.0
 11
22540.804392142079
 21
16794.09862199999
 31
0.0
  0
LINE
  5
10578
  8
2-0
  6
CONTINUOUS
 62
     3
 10
22540.804392142079
 20
16794.09862199999
 30
0.0
 11
22565.79779414208
 21
16794.09862199999
 31
0.0
  0
LINE
  5
10579
  8
2-0
  6
CONTINUOUS
 62
     3
 10
22565.79779414208
 20
16794.09862199999
 30
0.0
 11
22565.79779414208
 21
16812.094425999971
 31
0.0
  0
LINE
  5
1057A
  8
2-0
  6
CONTINUOUS
 62
     3
 10
22565.79779414208
 20
16812.094425999971
 30
0.0
 11
22535.80016914208
 21
16812.094425999971
 31
0.0
  0
LINE
  5
1057B
  8
2-0
  6
CONTINUOUS
 62
     3
 10
22565.79779414208
 20
16802.485841999969
 30
0.0
 11
22565.79779414208
 21
16796.483941999981
 31
0.0
  0
LINE
  5
1057C
  8
2-0
  6
CONTINUOUS
 62
     3
 10
22535.80016914208
 20
16802.485841999969
 30
0.0
 11
22565.79779414208
 21
16802.485841999969
 31
0.0
  0
LINE
  5
1057D
  8
2-0
  6
CONTINUOUS
 62
     3
 10
22535.80016914208
 20
16812.094425999971
 30
0.0
 11
22535.80016914208
 21
17459.398756999981
 31
0.0
  0
LINE
  5
1057E
  8
2-0
  6
CONTINUOUS
 62
     3
 10
22535.80016914208
 20
17516.589027999969
 30
0.0
 11
22535.80016914208
 21
18160.39281799996
 31
0.0
  0
LINE
  5
1057F
  8
2-0
  6
CONTINUOUS
 62
     3
 10
22535.80016914208
 20
16657.484126999971
 30
0.0
 11
22565.79779414208
 21
16657.484126999971
 31
0.0
  0
LINE
  5
10580
  8
2-0
  6
CONTINUOUS
 62
     3
 10
22565.79779414208
 20
16657.484126999971
 30
0.0
 11
22565.79779414208
 21
16663.486026999981
 31
0.0
  0
LINE
  5
10581
  8
2-0
  6
CONTINUOUS
 62
     3
 10
22623.686835142089
 20
16687.489669999981
 30
0.0
 11
22538.686307142081
 21
16687.489669999981
 31
0.0
  0
LINE
  5
10582
  8
2-0
  6
CONTINUOUS
 62
     3
 10
22538.686307142081
 20
16687.489669999981
 30
0.0
 11
22538.686307142081
 21
16707.48478699999
 31
0.0
  0
LINE
  5
10583
  8
2-0
  6
CONTINUOUS
 62
     3
 10
22565.79779414208
 20
16647.875543999991
 30
0.0
 11
22535.80016914208
 21
16647.875543999991
 31
0.0
  0
LINE
  5
10584
  8
2-0
  6
CONTINUOUS
 62
     3
 10
22565.79779414208
 20
16665.87134699996
 30
0.0
 11
22565.79779414208
 21
16647.875543999991
 31
0.0
  0
LINE
  5
10585
  8
2-0
  6
CONTINUOUS
 62
     3
 10
22540.804392142079
 20
16665.87134699996
 30
0.0
 11
22565.79779414208
 21
16665.87134699996
 31
0.0
  0
LINE
  5
10586
  8
2-0
  6
CONTINUOUS
 62
     3
 10
22540.804392142079
 20
16660.871082999991
 30
0.0
 11
22540.804392142079
 21
16665.87134699996
 31
0.0
  0
LINE
  5
10587
  8
2-0
  6
CONTINUOUS
 62
     3
 10
22547.801990142059
 20
16660.871082999991
 30
0.0
 11
22540.804392142079
 21
16660.871082999991
 31
0.0
  0
LINE
  5
10588
  8
2-0
  6
CONTINUOUS
 62
     3
 10
22547.801990142059
 20
15956.38885249996
 30
0.0
 11
22540.804392142079
 21
15956.38885249996
 31
0.0
  0
LINE
  5
10589
  8
2-0
  6
CONTINUOUS
 62
     3
 10
22540.804392142079
 20
15956.38885249996
 30
0.0
 11
22540.804392142079
 21
15961.38911649997
 31
0.0
  0
LINE
  5
1058A
  8
2-0
  6
CONTINUOUS
 62
     3
 10
22540.804392142079
 20
15961.38911649997
 30
0.0
 11
22565.79779414208
 21
15961.38911649997
 31
0.0
  0
LINE
  5
1058B
  8
2-0
  6
CONTINUOUS
 62
     3
 10
22565.79779414208
 20
15961.38911649997
 30
0.0
 11
22565.79779414208
 21
15943.387374499969
 31
0.0
  0
LINE
  5
1058C
  8
2-0
  6
CONTINUOUS
 62
     3
 10
22565.79779414208
 20
15943.387374499969
 30
0.0
 11
22535.80016914208
 21
15943.387374499969
 31
0.0
  0
LINE
  5
1058D
  8
2-0
  6
CONTINUOUS
 62
     3
 10
22565.79779414208
 20
15959.484819499979
 30
0.0
 11
22565.79779414208
 21
15953.48786849998
 31
0.0
  0
LINE
  5
1058E
  8
2-0
  6
CONTINUOUS
 62
     3
 10
22565.79779414208
 20
15953.48786849998
 30
0.0
 11
22535.80016914208
 21
15953.48786849998
 31
0.0
  0
LINE
  5
1058F
  8
2-0
  6
CONTINUOUS
 62
     3
 10
22535.80016914208
 20
15953.48786849998
 30
0.0
 11
22535.80016914208
 21
15990.48803949998
 31
0.0
  0
LINE
  5
10590
  8
2-0
  6
CONTINUOUS
 62
     3
 10
22565.79779414208
 20
15990.48803949998
 30
0.0
 11
22535.80016914208
 21
15990.48803949998
 31
0.0
  0
LINE
  5
10591
  8
2-0
  6
CONTINUOUS
 62
     3
 10
22565.79779414208
 20
15984.48514949998
 30
0.0
 11
22565.79779414208
 21
15990.48803949998
 31
0.0
  0
LINE
  5
10592
  8
2-0
  6
CONTINUOUS
 62
     3
 10
22565.79779414208
 20
16000.58358449996
 30
0.0
 11
22535.80016914208
 21
16000.58358449996
 31
0.0
  0
LINE
  5
10593
  8
2-0
  6
CONTINUOUS
 62
     3
 10
22565.79779414208
 20
15982.57590349997
 30
0.0
 11
22565.79779414208
 21
16000.58358449996
 31
0.0
  0
LINE
  5
10594
  8
2-0
  6
CONTINUOUS
 62
     3
 10
22540.804392142079
 20
15982.57590349997
 30
0.0
 11
22565.79779414208
 21
15982.57590349997
 31
0.0
  0
LINE
  5
10595
  8
2-0
  6
CONTINUOUS
 62
     3
 10
22540.804392142079
 20
15987.58210649998
 30
0.0
 11
22540.804392142079
 21
15982.57590349997
 31
0.0
  0
LINE
  5
10596
  8
2-0
  6
CONTINUOUS
 62
     3
 10
22547.801990142059
 20
15987.58210649998
 30
0.0
 11
22540.804392142079
 21
15987.58210649998
 31
0.0
  0
LINE
  5
10597
  8
2-0
  6
CONTINUOUS
 62
     3
 10
22547.801990142059
 20
15286.82212299998
 30
0.0
 11
22540.804392142079
 21
15286.82212299998
 31
0.0
  0
LINE
  5
10598
  8
2-0
  6
CONTINUOUS
 62
     3
 10
22540.804392142079
 20
15286.82212299998
 30
0.0
 11
22540.804392142079
 21
15281.82779799998
 31
0.0
  0
LINE
  5
10599
  8
2-0
  6
CONTINUOUS
 62
     3
 10
22540.804392142079
 20
15281.82779799998
 30
0.0
 11
22565.79779414208
 21
15281.82779799998
 31
0.0
  0
LINE
  5
1059A
  8
2-0
  6
CONTINUOUS
 62
     3
 10
22565.79779414208
 20
15281.82779799998
 30
0.0
 11
22565.79779414208
 21
15299.823600999989
 31
0.0
  0
LINE
  5
1059B
  8
2-0
  6
CONTINUOUS
 62
     3
 10
22565.79779414208
 20
15299.823600999989
 30
0.0
 11
22535.80016914208
 21
15299.823600999989
 31
0.0
  0
LINE
  5
1059C
  8
2-0
  6
CONTINUOUS
 62
     3
 10
22565.79779414208
 20
15283.726155999961
 30
0.0
 11
22565.79779414208
 21
15289.728055999971
 31
0.0
  0
LINE
  5
1059D
  8
2-0
  6
CONTINUOUS
 62
     3
 10
22565.79779414208
 20
15289.728055999971
 30
0.0
 11
22535.80016914208
 21
15289.728055999971
 31
0.0
  0
LINE
  5
1059E
  8
2-0
  6
CONTINUOUS
 62
     3
 10
22535.80016914208
 20
15252.72887499999
 30
0.0
 11
22535.80016914208
 21
15289.728055999971
 31
0.0
  0
LINE
  5
1059F
  8
2-0
  6
CONTINUOUS
 62
     3
 10
22565.79779414208
 20
15252.72887499999
 30
0.0
 11
22535.80016914208
 21
15252.72887499999
 31
0.0
  0
LINE
  5
105A0
  8
2-0
  6
CONTINUOUS
 62
     3
 10
22565.79779414208
 20
15258.72582599998
 30
0.0
 11
22565.79779414208
 21
15252.72887499999
 31
0.0
  0
LINE
  5
105A1
  8
2-0
  6
CONTINUOUS
 62
     3
 10
22565.79779414208
 20
15242.627390999971
 30
0.0
 11
22535.80016914208
 21
15242.627390999971
 31
0.0
  0
LINE
  5
105A2
  8
2-0
  6
CONTINUOUS
 62
     3
 10
22565.79779414208
 20
15260.63507199997
 30
0.0
 11
22565.79779414208
 21
15242.627390999971
 31
0.0
  0
LINE
  5
105A3
  8
2-0
  6
CONTINUOUS
 62
     3
 10
22540.804392142079
 20
15260.63507199997
 30
0.0
 11
22565.79779414208
 21
15260.63507199997
 31
0.0
  0
LINE
  5
105A4
  8
2-0
  6
CONTINUOUS
 62
     3
 10
22540.804392142079
 20
15255.634808000001
 30
0.0
 11
22540.804392142079
 21
15260.63507199997
 31
0.0
  0
LINE
  5
105A5
  8
2-0
  6
CONTINUOUS
 62
     3
 10
22547.801990142059
 20
15255.634808000001
 30
0.0
 11
22540.804392142079
 21
15255.634808000001
 31
0.0
  0
LINE
  5
105A6
  8
2-0
  6
CONTINUOUS
 62
     3
 10
22535.80016914208
 20
16647.875543999991
 30
0.0
 11
22535.80016914208
 21
16000.58358449996
 31
0.0
  0
LINE
  5
105A7
  8
2-0
  6
CONTINUOUS
 62
     3
 10
22535.80016914208
 20
16802.485841999969
 30
0.0
 11
22535.80016914208
 21
16657.484126999971
 31
0.0
  0
LINE
  5
105A8
  8
2-0
  6
CONTINUOUS
 62
     3
 10
22623.686835142089
 20
16772.486237999979
 30
0.0
 11
22623.686835142089
 21
16687.489669999981
 31
0.0
  0
LINE
  5
105A9
  8
2-0
  6
CONTINUOUS
 62
     3
 10
22547.801990142059
 20
14554.39380099998
 30
0.0
 11
22540.804392142079
 21
14554.39380099998
 31
0.0
  0
LINE
  5
105AA
  8
2-0
  6
CONTINUOUS
 62
     3
 10
22540.804392142079
 20
14554.39380099998
 30
0.0
 11
22540.804392142079
 21
14559.388126999989
 31
0.0
  0
LINE
  5
105AB
  8
2-0
  6
CONTINUOUS
 62
     3
 10
22540.804392142079
 20
14559.388126999989
 30
0.0
 11
22565.79779414208
 21
14559.388126999989
 31
0.0
  0
LINE
  5
105AC
  8
2-0
  6
CONTINUOUS
 62
     3
 10
22565.79779414208
 20
14559.388126999989
 30
0.0
 11
22565.79779414208
 21
14541.39232299998
 31
0.0
  0
LINE
  5
105AD
  8
2-0
  6
CONTINUOUS
 62
     3
 10
22565.79779414208
 20
14541.39232299998
 30
0.0
 11
22535.80016914208
 21
14541.39232299998
 31
0.0
  0
LINE
  5
105AE
  8
2-0
  6
CONTINUOUS
 62
     3
 10
22565.79779414208
 20
14557.49075799998
 30
0.0
 11
22565.79779414208
 21
14551.487867999989
 31
0.0
  0
LINE
  5
105AF
  8
2-0
  6
CONTINUOUS
 62
     3
 10
22565.79779414208
 20
14551.487867999989
 30
0.0
 11
22535.80016914208
 21
14551.487867999989
 31
0.0
  0
LINE
  5
105B0
  8
2-0
  6
CONTINUOUS
 62
     3
 10
22535.80016914208
 20
14551.487867999989
 30
0.0
 11
22535.80016914208
 21
14588.48803999996
 31
0.0
  0
LINE
  5
105B1
  8
2-0
  6
CONTINUOUS
 62
     3
 10
22565.79779414208
 20
14588.48803999996
 30
0.0
 11
22535.80016914208
 21
14588.48803999996
 31
0.0
  0
LINE
  5
105B2
  8
2-0
  6
CONTINUOUS
 62
     3
 10
22565.79779414208
 20
14582.491087999981
 30
0.0
 11
22565.79779414208
 21
14588.48803999996
 31
0.0
  0
LINE
  5
105B3
  8
2-0
  6
CONTINUOUS
 62
     3
 10
22565.79779414208
 20
14598.58853299998
 30
0.0
 11
22535.80016914208
 21
14598.58853299998
 31
0.0
  0
LINE
  5
105B4
  8
2-0
  6
CONTINUOUS
 62
     3
 10
22565.79779414208
 20
14580.58184199998
 30
0.0
 11
22565.79779414208
 21
14598.58853299998
 31
0.0
  0
LINE
  5
105B5
  8
2-0
  6
CONTINUOUS
 62
     3
 10
22540.804392142079
 20
14580.58184199998
 30
0.0
 11
22565.79779414208
 21
14580.58184199998
 31
0.0
  0
LINE
  5
105B6
  8
2-0
  6
CONTINUOUS
 62
     3
 10
22540.804392142079
 20
14585.58705499998
 30
0.0
 11
22540.804392142079
 21
14580.58184199998
 31
0.0
  0
LINE
  5
105B7
  8
2-0
  6
CONTINUOUS
 62
     3
 10
22547.801990142059
 20
14585.58705499998
 30
0.0
 11
22540.804392142079
 21
14585.58705499998
 31
0.0
  0
LINE
  5
105B8
  8
2-0
  6
CONTINUOUS
 62
     3
 10
22565.79779414208
 20
13878.48988099998
 30
0.0
 11
22565.79779414208
 21
13884.494749999971
 31
0.0
  0
LINE
  5
105B9
  8
2-0
  6
CONTINUOUS
 62
     3
 10
22565.79779414208
 20
13884.494749999971
 30
0.0
 11
22535.80016914208
 21
13884.494749999971
 31
0.0
  0
LINE
  5
105BA
  8
2-0
  6
CONTINUOUS
 62
     3
 10
22535.80016914208
 20
13884.494749999971
 30
0.0
 11
22535.80016914208
 21
13769.490658999979
 31
0.0
  0
LINE
  5
105BB
  8
2-0
  6
CONTINUOUS
 62
     3
 10
22535.80016914208
 20
13769.490658999979
 30
0.0
 11
22620.798717142079
 21
13769.490658999979
 31
0.0
  0
LINE
  5
105BC
  8
2-0
  6
CONTINUOUS
 62
     3
 10
22620.798717142079
 20
13769.490658999979
 30
0.0
 11
22620.798717142079
 21
13854.486237999979
 31
0.0
  0
LINE
  5
105BD
  8
2-0
  6
CONTINUOUS
 62
     3
 10
22620.798717142079
 20
13854.486237999979
 30
0.0
 11
22588.801779142072
 21
13854.486237999979
 31
0.0
  0
LINE
  5
105BE
  8
2-0
  6
CONTINUOUS
 62
     3
 10
22547.801990142059
 20
13881.524482999979
 30
0.0
 11
22540.804392142079
 21
13881.524482999979
 31
0.0
  0
LINE
  5
105BF
  8
2-0
  6
CONTINUOUS
 62
     3
 10
22540.804392142079
 20
13881.524482999979
 30
0.0
 11
22540.804392142079
 21
13876.52718799996
 31
0.0
  0
LINE
  5
105C0
  8
2-0
  6
CONTINUOUS
 62
     3
 10
22540.804392142079
 20
13876.52718799996
 30
0.0
 11
22565.79779414208
 21
13876.52718799996
 31
0.0
  0
LINE
  5
105C1
  8
2-0
  6
CONTINUOUS
 62
     3
 10
22565.79779414208
 20
13876.52718799996
 30
0.0
 11
22565.79779414208
 21
13894.52596099997
 31
0.0
  0
LINE
  5
105C2
  8
2-0
  6
CONTINUOUS
 62
     3
 10
22565.79779414208
 20
13894.52596099997
 30
0.0
 11
22535.80016914208
 21
13894.52596099997
 31
0.0
  0
LINE
  5
105C3
  8
2-0
  6
CONTINUOUS
 62
     3
 10
22535.80016914208
 20
14598.58853299998
 30
0.0
 11
22535.80016914208
 21
15242.627390999971
 31
0.0
  0
LINE
  5
105C4
  8
2-0
  6
CONTINUOUS
 62
     3
 10
22535.80016914208
 20
18217.583089999978
 30
0.0
 11
22535.80016914208
 21
18861.39380749995
 31
0.0
  0
LINE
  5
105C5
  8
2-0
  6
CONTINUOUS
 62
     3
 10
22626.80259714209
 20
18146.48669999995
 30
0.0
 11
22579.798928142081
 21
18146.48669999995
 31
0.0
  0
LINE
  5
105C6
  8
2-0
  6
CONTINUOUS
 62
     3
 10
22579.798928142081
 20
18231.48722799998
 30
0.0
 11
22626.80259714209
 21
18231.48722799998
 31
0.0
  0
LINE
  5
105C7
  8
2-0
  6
CONTINUOUS
 62
     3
 10
22579.798928142081
 20
18146.48669999995
 30
0.0
 11
22579.798928142081
 21
18171.489998999979
 31
0.0
  0
LINE
  5
105C8
  8
2-0
  6
CONTINUOUS
 62
     3
 10
22579.798928142081
 20
18206.485907999981
 30
0.0
 11
22579.798928142081
 21
18231.48722799998
 31
0.0
  0
LINE
  5
105C9
  8
2-0
  6
CONTINUOUS
 62
     3
 10
22626.80259714209
 20
18231.48722799998
 30
0.0
 11
22626.80259714209
 21
18146.48669999995
 31
0.0
  0
LINE
  5
105CA
  8
2-0
  6
CONTINUOUS
 62
     3
 10
22535.80016914208
 20
15943.387374499969
 30
0.0
 11
22535.80016914208
 21
15299.823600999989
 31
0.0
  0
LINE
  5
105CB
  8
2-0
  6
CONTINUOUS
 62
     3
 10
22626.80259714209
 20
15228.489669999981
 30
0.0
 11
22579.798928142081
 21
15228.489669999981
 31
0.0
  0
LINE
  5
105CC
  8
2-0
  6
CONTINUOUS
 62
     3
 10
22579.798928142081
 20
15313.48623799997
 30
0.0
 11
22626.80259714209
 21
15313.48623799997
 31
0.0
  0
LINE
  5
105CD
  8
2-0
  6
CONTINUOUS
 62
     3
 10
22579.798928142081
 20
15228.489669999981
 30
0.0
 11
22579.798928142081
 21
15253.48505099998
 31
0.0
  0
LINE
  5
105CE
  8
2-0
  6
CONTINUOUS
 62
     3
 10
22579.798928142081
 20
15288.48491899999
 30
0.0
 11
22579.798928142081
 21
15313.48623799997
 31
0.0
  0
LINE
  5
105CF
  8
2-0
  6
CONTINUOUS
 62
     3
 10
22626.80259714209
 20
15313.48623799997
 30
0.0
 11
22626.80259714209
 21
15228.489669999981
 31
0.0
  0
LINE
  5
105D0
  8
2-0
  6
CONTINUOUS
 62
     3
 10
25538.794758142081
 20
19575.49006599998
 30
0.0
 11
25538.794758142081
 21
19690.486238999991
 31
0.0
  0
LINE
  5
105D1
  8
2-0
  6
CONTINUOUS
 62
     3
 10
22535.80016914208
 20
19605.489669999981
 30
0.0
 11
25457.792858142071
 21
19605.489669999981
 31
0.0
  0
LINE
  5
105D2
  8
2-0
  6
CONTINUOUS
 62
     3
 10
22535.80016914208
 20
13894.52596099997
 30
0.0
 11
22535.80016914208
 21
14541.39232299998
 31
0.0
  0
LINE
  5
105D3
  8
2-0
  6
CONTINUOUS
 62
     3
 10
25538.794758142081
 20
19565.19260999998
 30
0.0
 11
25538.794758142081
 21
18918.584079499971
 31
0.0
  0
LINE
  5
105D4
  8
2-0
  6
CONTINUOUS
 62
     3
 10
22535.80016914208
 20
19565.19260999998
 30
0.0
 11
22535.80016914208
 21
18918.58407949996
 31
0.0
  0
LINE
  5
105D5
  8
2-0
  6
CONTINUOUS
 62
     3
 10
22616.798110142088
 20
13854.486237999979
 30
0.0
 11
22616.798110142088
 21
19690.486238999991
 31
0.0
  0
LINE
  5
105D6
  8
2-0
  6
CONTINUOUS
 62
     3
 10
25457.792858142071
 20
13854.486237999979
 30
0.0
 11
25457.792858142071
 21
19690.486238999991
 31
0.0
  0
TEXT
  5
105D7
  8
2-0
  6
CONTINUOUS
 62
     7
 10
23893.141781142069
 20
13251.989075999971
 30
0.0
 40
160.0
  1
前柱（右）
 50
0.000213
 72
     4
 11
24309.1414837351
 21
13331.99062250076
 31
0.0
  0
TEXT
  5
105D8
  8
2-0
  6
CONTINUOUS
 62
     7
 10
23909.841000142071
 20
17931.11111999999
 30
0.0
 40
160.0
  1
補強柱 後
 50
359.99984199999989
 72
     4
 11
24320.507887416788
 21
18011.10998753698
 31
0.0
  0
TEXT
  5
105D9
  8
2-0
  6
CONTINUOUS
 62
     7
 10
24097.736904142079
 20
16180.481091999991
 30
0.0
 40
160.0
  1
壁パネル
 50
359.99982299999999
 72
     4
 11
24460.40381794564
 21
16260.47997163786
 31
0.0
  0
TEXT
  5
105DA
  8
2-0
  6
CONTINUOUS
 62
     7
 10
23817.734000142071
 20
17017.668988000001
 30
0.0
 40
160.0
  1
中柱（左右）
 50
0.000354
 72
     4
 11
24335.066839188279
 21
17097.672184324649
 31
0.0
  0
TEXT
  5
105DB
  8
2-0
  6
CONTINUOUS
 62
     7
 10
24497.73624414207
 20
14225.030341999969
 30
0.0
 40
160.0
  1
下枠
 50
0.001063
 72
     4
 11
24668.401426551369
 21
14305.03350833926
 31
0.0
  0
TEXT
  5
105DC
  8
2-0
  6
CONTINUOUS
 62
     7
 10
23909.84100014206
 20
15013.35163099999
 30
0.0
 40
160.0
  1
補強柱 前
 50
359.99937
 72
     4
 11
24320.50854642985
 21
15093.347115479321
 31
0.0
  0
TEXT
  5
105DD
  8
2-0
  6
CONTINUOUS
 62
     7
 10
23992.70166814209
 20
18620.937726499971
 30
0.0
 40
160.0
  1
間柱（側）
 72
     4
 11
24414.035001475419
 21
18700.937726499971
 31
0.0
  0
TEXT
  5
105DE
  8
2-0
  6
CONTINUOUS
 62
     7
 10
26311.291987142071
 20
20500.485446999988
 30
0.0
 40
160.0
  1
後柱（左右）
 50
0.000354
 72
     4
 11
26823.29149285506
 21
20580.48861037282
 31
0.0
  0
LINE
  5
105DF
  8
2-0
  6
CONTINUOUS
 62
     3
 10
24756.797055142059
 20
19690.486238999991
 30
0.0
 11
24719.795893142091
 21
19690.486238999991
 31
0.0
  0
LINE
  5
105E0
  8
2-0
  6
CONTINUOUS
 62
     3
 10
24756.797055142059
 20
19660.482675999981
 30
0.0
 11
24756.797055142059
 21
19690.486238999991
 31
0.0
  0
LINE
  5
105E1
  8
2-0
  6
CONTINUOUS
 62
     3
 10
24750.79713414206
 20
19660.482675999981
 30
0.0
 11
24756.797055142059
 21
19660.482675999981
 31
0.0
  0
LINE
  5
105E2
  8
2-0
  6
CONTINUOUS
 62
     3
 10
24766.894579142088
 20
19660.482675999981
 30
0.0
 11
24766.894579142088
 21
19690.486238999991
 31
0.0
  0
LINE
  5
105E3
  8
2-0
  6
CONTINUOUS
 62
     3
 10
24748.890858142091
 20
19660.482675999981
 30
0.0
 11
24766.894579142088
 21
19660.482675999981
 31
0.0
  0
LINE
  5
105E4
  8
2-0
  6
CONTINUOUS
 62
     3
 10
24748.890858142091
 20
19685.491912999991
 30
0.0
 11
24748.890858142091
 21
19660.482675999981
 31
0.0
  0
LINE
  5
105E5
  8
2-0
  6
CONTINUOUS
 62
     3
 10
24753.891122142089
 20
19685.491912999991
 30
0.0
 11
24748.890858142091
 21
19685.491912999991
 31
0.0
  0
LINE
  5
105E6
  8
2-0
  6
CONTINUOUS
 62
     3
 10
24753.891122142089
 20
19678.486397000001
 30
0.0
 11
24753.891122142089
 21
19685.491912999991
 31
0.0
  0
LINE
  5
105E7
  8
2-0
  6
CONTINUOUS
 62
     3
 10
24722.701827142071
 20
19678.486397000001
 30
0.0
 11
24722.701827142071
 21
19685.491912999991
 31
0.0
  0
LINE
  5
105E8
  8
2-0
  6
CONTINUOUS
 62
     3
 10
24722.701827142071
 20
19685.491912999991
 30
0.0
 11
24727.702091142091
 21
19685.491912999991
 31
0.0
  0
LINE
  5
105E9
  8
2-0
  6
CONTINUOUS
 62
     3
 10
24727.702091142091
 20
19685.491912999991
 30
0.0
 11
24727.702091142091
 21
19660.482675999981
 31
0.0
  0
LINE
  5
105EA
  8
2-0
  6
CONTINUOUS
 62
     3
 10
24727.702091142091
 20
19660.482675999981
 30
0.0
 11
24709.702328142092
 21
19660.482675999981
 31
0.0
  0
LINE
  5
105EB
  8
2-0
  6
CONTINUOUS
 62
     3
 10
24709.702328142092
 20
19660.482675999981
 30
0.0
 11
24709.702328142092
 21
19690.486238999991
 31
0.0
  0
LINE
  5
105EC
  8
2-0
  6
CONTINUOUS
 62
     3
 10
24725.795814142071
 20
19660.482675999981
 30
0.0
 11
24719.795893142091
 21
19660.482675999981
 31
0.0
  0
LINE
  5
105ED
  8
2-0
  6
CONTINUOUS
 62
     3
 10
24719.795893142091
 20
19660.482675999981
 30
0.0
 11
24719.795893142091
 21
19690.486238999991
 31
0.0
  0
LINE
  5
105EE
  8
2-0
  6
CONTINUOUS
 62
     3
 10
23351.88617264208
 20
19678.486397000001
 30
0.0
 11
23351.88617264208
 21
19685.491912999991
 31
0.0
  0
LINE
  5
105EF
  8
2-0
  6
CONTINUOUS
 62
     3
 10
23351.88617264208
 20
19685.491912999991
 30
0.0
 11
23346.885908642082
 21
19685.491912999991
 31
0.0
  0
LINE
  5
105F0
  8
2-0
  6
CONTINUOUS
 62
     3
 10
23346.885908642082
 20
19685.491912999991
 30
0.0
 11
23346.885908642082
 21
19660.482675999981
 31
0.0
  0
LINE
  5
105F1
  8
2-0
  6
CONTINUOUS
 62
     3
 10
23346.885908642082
 20
19660.482675999981
 30
0.0
 11
23364.891609642091
 21
19660.482675999981
 31
0.0
  0
LINE
  5
105F2
  8
2-0
  6
CONTINUOUS
 62
     3
 10
23364.891609642091
 20
19660.482675999981
 30
0.0
 11
23364.891609642091
 21
19690.486238999991
 31
0.0
  0
LINE
  5
105F3
  8
2-0
  6
CONTINUOUS
 62
     3
 10
23348.79416464208
 20
19660.482675999981
 30
0.0
 11
23354.796064642069
 21
19660.482675999981
 31
0.0
  0
LINE
  5
105F4
  8
2-0
  6
CONTINUOUS
 62
     3
 10
23354.796064642069
 20
19660.482675999981
 30
0.0
 11
23354.796064642069
 21
19690.486238999991
 31
0.0
  0
LINE
  5
105F5
  8
2-0
  6
CONTINUOUS
 62
     3
 10
23317.796883642081
 20
19690.486238999991
 30
0.0
 11
23354.796064642069
 21
19690.486238999991
 31
0.0
  0
LINE
  5
105F6
  8
2-0
  6
CONTINUOUS
 62
     3
 10
23317.796883642081
 20
19660.482675999981
 30
0.0
 11
23317.796883642081
 21
19690.486238999991
 31
0.0
  0
LINE
  5
105F7
  8
2-0
  6
CONTINUOUS
 62
     3
 10
23323.79086564208
 20
19660.482675999981
 30
0.0
 11
23317.796883642081
 21
19660.482675999981
 31
0.0
  0
LINE
  5
105F8
  8
2-0
  6
CONTINUOUS
 62
     3
 10
23307.701338642091
 20
19660.482675999981
 30
0.0
 11
23307.701338642091
 21
19690.486238999991
 31
0.0
  0
LINE
  5
105F9
  8
2-0
  6
CONTINUOUS
 62
     3
 10
23325.697141642078
 20
19660.482675999981
 30
0.0
 11
23307.701338642091
 21
19660.482675999981
 31
0.0
  0
LINE
  5
105FA
  8
2-0
  6
CONTINUOUS
 62
     3
 10
23325.697141642078
 20
19685.491912999991
 30
0.0
 11
23325.697141642078
 21
19660.482675999981
 31
0.0
  0
LINE
  5
105FB
  8
2-0
  6
CONTINUOUS
 62
     3
 10
23320.69687764208
 20
19685.491912999991
 30
0.0
 11
23325.697141642078
 21
19685.491912999991
 31
0.0
  0
LINE
  5
105FC
  8
2-0
  6
CONTINUOUS
 62
     3
 10
23320.69687764208
 20
19678.486397000001
 30
0.0
 11
23320.69687764208
 21
19685.491912999991
 31
0.0
  0
LINE
  5
105FD
  8
2-0
  6
CONTINUOUS
 62
     3
 10
24021.69588864208
 20
19678.486397000001
 30
0.0
 11
24021.69588864208
 21
19685.491912999991
 31
0.0
  0
LINE
  5
105FE
  8
2-0
  6
CONTINUOUS
 62
     3
 10
24021.69588864208
 20
19685.491912999991
 30
0.0
 11
24026.696151642089
 21
19685.491912999991
 31
0.0
  0
LINE
  5
105FF
  8
2-0
  6
CONTINUOUS
 62
     3
 10
24026.696151642089
 20
19685.491912999991
 30
0.0
 11
24026.696151642089
 21
19660.482675999981
 31
0.0
  0
LINE
  5
10600
  8
2-0
  6
CONTINUOUS
 62
     3
 10
24026.696151642089
 20
19660.482675999981
 30
0.0
 11
24008.702328642081
 21
19660.482675999981
 31
0.0
  0
LINE
  5
10601
  8
2-0
  6
CONTINUOUS
 62
     3
 10
24008.702328642081
 20
19660.482675999981
 30
0.0
 11
24008.702328642081
 21
19690.486238999991
 31
0.0
  0
LINE
  5
10602
  8
2-0
  6
CONTINUOUS
 62
     3
 10
24024.79383464206
 20
19660.482675999981
 30
0.0
 11
24018.79589364208
 21
19660.482675999981
 31
0.0
  0
LINE
  5
10603
  8
2-0
  6
CONTINUOUS
 62
     3
 10
24018.79589364208
 20
19660.482675999981
 30
0.0
 11
24018.79589364208
 21
19690.486238999991
 31
0.0
  0
LINE
  5
10604
  8
2-0
  6
CONTINUOUS
 62
     3
 10
24055.797054642091
 20
19690.486238999991
 30
0.0
 11
24018.79589364208
 21
19690.486238999991
 31
0.0
  0
LINE
  5
10605
  8
2-0
  6
CONTINUOUS
 62
     3
 10
24055.797054642091
 20
19660.482675999981
 30
0.0
 11
24055.797054642091
 21
19690.486238999991
 31
0.0
  0
LINE
  5
10606
  8
2-0
  6
CONTINUOUS
 62
     3
 10
24049.79119564209
 20
19660.482675999981
 30
0.0
 11
24055.797054642091
 21
19660.482675999981
 31
0.0
  0
LINE
  5
10607
  8
2-0
  6
CONTINUOUS
 62
     3
 10
24065.89061964209
 20
19660.482675999981
 30
0.0
 11
24065.89061964209
 21
19690.486238999991
 31
0.0
  0
LINE
  5
10608
  8
2-0
  6
CONTINUOUS
 62
     3
 10
24047.894816642081
 20
19660.482675999981
 30
0.0
 11
24065.89061964209
 21
19660.482675999981
 31
0.0
  0
LINE
  5
10609
  8
2-0
  6
CONTINUOUS
 62
     3
 10
24047.894816642081
 20
19685.491912999991
 30
0.0
 11
24047.894816642081
 21
19660.482675999981
 31
0.0
  0
LINE
  5
1060A
  8
2-0
  6
CONTINUOUS
 62
     3
 10
24052.885182642091
 20
19685.491912999991
 30
0.0
 11
24047.894816642081
 21
19685.491912999991
 31
0.0
  0
LINE
  5
1060B
  8
2-0
  6
CONTINUOUS
 62
     3
 10
24052.885182642091
 20
19678.486397000001
 30
0.0
 11
24052.885182642091
 21
19685.491912999991
 31
0.0
  0
LINE
  5
1060C
  8
2-0
  6
CONTINUOUS
 62
     3
 10
23364.891609642091
 20
19690.486238999991
 30
0.0
 11
24008.702328642081
 21
19690.486238999991
 31
0.0
  0
LINE
  5
1060D
  8
2-0
  6
CONTINUOUS
 62
     3
 10
22661.101716142071
 20
19690.486238999991
 30
0.0
 11
23307.701338642091
 21
19690.486238999991
 31
0.0
  0
LINE
  5
1060E
  8
2-0
  6
CONTINUOUS
 62
     3
 10
25414.180104142091
 20
19690.486238999991
 30
0.0
 11
24766.894579142088
 21
19690.486238999991
 31
0.0
  0
LINE
  5
1060F
  8
2-0
  6
CONTINUOUS
 62
     3
 10
24709.702328142092
 20
19690.486238999991
 30
0.0
 11
24065.89061964209
 21
19690.486238999991
 31
0.0
  0
LINE
  5
10610
  8
2-0
  6
CONTINUOUS
 62
     3
 10
25538.794758142081
 20
15242.627390999971
 30
0.0
 11
25538.794758142081
 21
14598.58853299998
 31
0.0
  0
LINE
  5
10611
  8
2-0
  6
CONTINUOUS
 62
     3
 10
25538.794758142081
 20
14541.39232299998
 30
0.0
 11
25538.794758142081
 21
13894.52596099997
 31
0.0
  0
LINE
  5
10612
  8
0-6
  6
CONTINUOUS
 62
     6
 10
23769.431965642081
 20
18979.16801099998
 30
0.0
 11
24794.47221564209
 21
18979.16801099998
 31
0.0
  0
LINE
  5
10613
  8
0-6
  6
CONTINUOUS
 62
     6
 10
23469.507187642092
 20
19536.521262999991
 30
0.0
 11
23364.891609642091
 21
19660.482675999981
 31
0.0
  0
LINE
  5
10614
  8
0-6
  6
CONTINUOUS
 62
     6
 10
23364.891609642091
 20
19660.482675999981
 30
0.0
 11
23423.649659642091
 21
19509.291005999999
 31
0.0
  0
LINE
  5
10615
  8
0-6
  6
CONTINUOUS
 62
     6
 10
23364.891609642091
 20
19660.482675999981
 30
0.0
 11
23469.507187642092
 21
19536.521262999991
 31
0.0
  0
LINE
  5
10616
  8
0-6
  6
CONTINUOUS
 62
     6
 10
23469.507187642092
 20
19536.521262999991
 30
0.0
 11
23423.649659642091
 21
19509.291005999999
 31
0.0
  0
LINE
  5
10617
  8
0-6
  6
CONTINUOUS
 62
     6
 10
23423.649659642091
 20
19509.291005999999
 30
0.0
 11
23364.891609642091
 21
19660.482675999981
 31
0.0
  0
LINE
  5
10618
  8
0-6
  6
CONTINUOUS
 62
     6
 10
23423.649659642091
 20
19509.291005999999
 30
0.0
 11
23469.507187642092
 21
19536.521262999991
 31
0.0
  0
LINE
  5
10619
  8
0-6
  6
CONTINUOUS
 62
     6
 10
23446.578423642091
 20
19522.908113999991
 30
0.0
 11
23769.431965642081
 21
18979.16801099998
 31
0.0
  0
TEXT
  5
1061A
  8
0-6
  6
CONTINUOUS
 62
     7
 10
23849.432229642091
 20
19059.170255000001
 30
0.0
 40
160.0
  1
間柱（後）
 72
     4
 11
24270.765562975419
 21
19139.170255000001
 31
0.0
  0
LINE
  5
1061B
  8
SUNPOU
  6
CONTINUOUS
 62
     4
 10
26181.837806142081
 20
18188.987953999971
 30
0.0
 11
27068.79607814207
 21
18188.987953999971
 31
0.0
  0
LINE
  5
1061C
  8
SUNPOU
  6
CONTINUOUS
 62
     4
 10
26988.79607814207
 20
18188.987953999971
 30
0.0
 11
26988.79607814207
 21
19647.98795399996
 31
0.0
  0
LINE
  5
1061D
  8
SUNPOU
  6
CONTINUOUS
 62
     4
 10
26181.837806142081
 20
18188.987953999971
 30
0.0
 11
27068.79607814207
 21
18188.987953999971
 31
0.0
  0
LINE
  5
1061E
  8
SUNPOU
  6
CONTINUOUS
 62
     4
 10
26988.79607814207
 20
16729.987953999971
 30
0.0
 11
26988.79607814207
 21
18188.987953999971
 31
0.0
  0
LINE
  5
1061F
  8
SUNPOU
  6
CONTINUOUS
 62
     4
 10
26181.837806142081
 20
15271.228465499989
 30
0.0
 11
27068.79607814207
 21
15271.228465499989
 31
0.0
  0
LINE
  5
10620
  8
SUNPOU
  6
CONTINUOUS
 62
     4
 10
26988.79607814207
 20
15271.228465499989
 30
0.0
 11
26988.79607814207
 21
16729.987953999971
 31
0.0
  0
LINE
  5
10621
  8
SUNPOU
  6
CONTINUOUS
 62
     4
 10
26181.837806142081
 20
15271.228465499989
 30
0.0
 11
27068.79607814207
 21
15271.228465499989
 31
0.0
  0
LINE
  5
10622
  8
SUNPOU
  6
CONTINUOUS
 62
     4
 10
26988.79607814207
 20
13811.98795399998
 30
0.0
 11
26988.79607814207
 21
15271.228465499989
 31
0.0
  0
LINE
  5
10623
  8
SUNPOU
  6
CONTINUOUS
 62
     4
 10
22578.296474142091
 20
13811.98795399998
 30
0.0
 11
22578.296474142091
 21
12760.539869999981
 31
0.0
  0
LINE
  5
10624
  8
SUNPOU
  6
CONTINUOUS
 62
     4
 10
22535.794231142088
 20
13689.490658999979
 30
0.0
 11
22535.794231142088
 21
12760.539869999981
 31
0.0
  0
LINE
  5
10625
  8
SUNPOU
  6
CONTINUOUS
 62
     4
 10
22578.296474142091
 20
12840.539869999981
 30
0.0
 11
22818.296474142091
 21
12840.539869999981
 31
0.0
  0
LINE
  5
10626
  8
SUNPOU
  6
CONTINUOUS
 62
     4
 10
22535.794231142088
 20
12840.539869999981
 30
0.0
 11
22295.794231142088
 21
12840.539869999981
 31
0.0
  0
LINE
  5
10627
  8
SUNPOU
  6
CONTINUOUS
 62
     4
 10
22578.296474142091
 20
12840.539869999981
 30
0.0
 11
22535.794231142088
 21
12840.539869999981
 31
0.0
  0
LINE
  5
10628
  8
SUNPOU
  6
CONTINUOUS
 62
     4
 10
25496.296474142091
 20
13811.98795399998
 30
0.0
 11
25496.296474142091
 21
12760.539869999981
 31
0.0
  0
LINE
  5
10629
  8
SUNPOU
  6
CONTINUOUS
 62
     4
 10
25538.798717142079
 20
13689.490658999979
 30
0.0
 11
25538.798717142079
 21
12760.539869999981
 31
0.0
  0
LINE
  5
1062A
  8
SUNPOU
  6
CONTINUOUS
 62
     4
 10
25496.296474142091
 20
12840.539869999981
 30
0.0
 11
25256.296474142091
 21
12840.539869999981
 31
0.0
  0
LINE
  5
1062B
  8
SUNPOU
  6
CONTINUOUS
 62
     4
 10
25538.798717142079
 20
12840.539869999981
 30
0.0
 11
25778.798717142079
 21
12840.539869999981
 31
0.0
  0
LINE
  5
1062C
  8
SUNPOU
  6
CONTINUOUS
 62
     4
 10
25496.296474142091
 20
12840.539869999981
 30
0.0
 11
25538.798717142079
 21
12840.539869999981
 31
0.0
  0
LINE
  5
1062D
  8
SUNPOU
  6
CONTINUOUS
 62
     4
 10
25496.296474142091
 20
13811.98795399998
 30
0.0
 11
25496.296474142091
 21
12760.539869999981
 31
0.0
  0
LINE
  5
1062E
  8
SUNPOU
  6
CONTINUOUS
 62
     4
 10
25453.794231142081
 20
13689.490658999979
 30
0.0
 11
25453.794231142081
 21
12760.539869999981
 31
0.0
  0
LINE
  5
1062F
  8
SUNPOU
  6
CONTINUOUS
 62
     4
 10
25496.296474142091
 20
12840.539869999981
 30
0.0
 11
25736.296474142091
 21
12840.539869999981
 31
0.0
  0
LINE
  5
10630
  8
SUNPOU
  6
CONTINUOUS
 62
     4
 10
25453.794231142081
 20
12840.539869999981
 30
0.0
 11
25213.794231142081
 21
12840.539869999981
 31
0.0
  0
LINE
  5
10631
  8
SUNPOU
  6
CONTINUOUS
 62
     4
 10
25496.296474142091
 20
12840.539869999981
 30
0.0
 11
25453.794231142081
 21
12840.539869999981
 31
0.0
  0
LINE
  5
10632
  8
SUNPOU
  6
CONTINUOUS
 62
     4
 10
22578.296474142091
 20
13811.98795399998
 30
0.0
 11
22578.296474142091
 21
12760.539869999981
 31
0.0
  0
LINE
  5
10633
  8
SUNPOU
  6
CONTINUOUS
 62
     4
 10
22620.798717142079
 20
13689.490658999979
 30
0.0
 11
22620.798717142079
 21
12760.539869999981
 31
0.0
  0
LINE
  5
10634
  8
SUNPOU
  6
CONTINUOUS
 62
     4
 10
22578.296474142091
 20
12840.539869999981
 30
0.0
 11
22338.296474142091
 21
12840.539869999981
 31
0.0
  0
LINE
  5
10635
  8
SUNPOU
  6
CONTINUOUS
 62
     4
 10
22620.798717142079
 20
12840.539869999981
 30
0.0
 11
22860.798717142079
 21
12840.539869999981
 31
0.0
  0
LINE
  5
10636
  8
SUNPOU
  6
CONTINUOUS
 62
     4
 10
22578.296474142091
 20
12840.539869999981
 30
0.0
 11
22620.798717142079
 21
12840.539869999981
 31
0.0
  0
LINE
  5
10637
  8
SUNPOU
  6
CONTINUOUS
 62
     4
 10
22535.794231142088
 20
13689.490658999979
 30
0.0
 11
22535.794231142088
 21
12360.539869999981
 31
0.0
  0
LINE
  5
10638
  8
SUNPOU
  6
CONTINUOUS
 62
     4
 10
25538.798717142079
 20
13689.490658999979
 30
0.0
 11
25538.798717142079
 21
12360.539869999981
 31
0.0
  0
LINE
  5
10639
  8
SUNPOU
  6
CONTINUOUS
 62
     4
 10
22535.794231142088
 20
12440.539869999981
 30
0.0
 11
25538.798717142079
 21
12440.539869999981
 31
0.0
  0
LINE
  5
1063A
  8
SUNPOU
  6
CONTINUOUS
 62
     4
 10
25618.794758142081
 20
14569.98795399998
 30
0.0
 11
26668.796078142081
 21
14569.98795399998
 31
0.0
  0
LINE
  5
1063B
  8
SUNPOU
  6
CONTINUOUS
 62
     4
 10
26468.796078142081
 20
13811.98795399998
 30
0.0
 11
26668.796078142081
 21
13811.98795399998
 31
0.0
  0
LINE
  5
1063C
  8
SUNPOU
  6
CONTINUOUS
 62
     4
 10
26588.796078142081
 20
14569.98795399998
 30
0.0
 11
26588.796078142081
 21
13811.98795399998
 31
0.0
  0
LINE
  5
1063D
  8
SUNPOU
  6
CONTINUOUS
 62
     4
 10
25618.794758142081
 20
15271.228465499989
 30
0.0
 11
26668.796078142081
 21
15271.228465499989
 31
0.0
  0
LINE
  5
1063E
  8
SUNPOU
  6
CONTINUOUS
 62
     4
 10
25618.794758142081
 20
14569.98795399998
 30
0.0
 11
26668.796078142081
 21
14569.98795399998
 31
0.0
  0
LINE
  5
1063F
  8
SUNPOU
  6
CONTINUOUS
 62
     4
 10
26588.796078142081
 20
15271.228465499989
 30
0.0
 11
26588.796078142081
 21
14569.98795399998
 31
0.0
  0
LINE
  5
10640
  8
SUNPOU
  6
CONTINUOUS
 62
     4
 10
25618.794758142081
 20
15971.98795399998
 30
0.0
 11
26668.796078142081
 21
15971.98795399998
 31
0.0
  0
LINE
  5
10641
  8
SUNPOU
  6
CONTINUOUS
 62
     4
 10
25618.794758142081
 20
15271.228465499989
 30
0.0
 11
26668.796078142081
 21
15271.228465499989
 31
0.0
  0
LINE
  5
10642
  8
SUNPOU
  6
CONTINUOUS
 62
     4
 10
26588.796078142081
 20
15971.98795399998
 30
0.0
 11
26588.796078142081
 21
15271.228465499989
 31
0.0
  0
LINE
  5
10643
  8
SUNPOU
  6
CONTINUOUS
 62
     4
 10
26468.796078142081
 20
16729.987953999971
 30
0.0
 11
26668.796078142081
 21
16729.987953999971
 31
0.0
  0
LINE
  5
10644
  8
SUNPOU
  6
CONTINUOUS
 62
     4
 10
25618.794758142081
 20
15971.98795399998
 30
0.0
 11
26668.796078142081
 21
15971.98795399998
 31
0.0
  0
LINE
  5
10645
  8
SUNPOU
  6
CONTINUOUS
 62
     4
 10
26588.796078142081
 20
16729.987953999971
 30
0.0
 11
26588.796078142081
 21
15971.98795399998
 31
0.0
  0
LINE
  5
10646
  8
SUNPOU
  6
CONTINUOUS
 62
     4
 10
25618.794758142081
 20
17487.987953999971
 30
0.0
 11
26668.796078142081
 21
17487.987953999971
 31
0.0
  0
LINE
  5
10647
  8
SUNPOU
  6
CONTINUOUS
 62
     4
 10
26468.796078142081
 20
16729.987953999971
 30
0.0
 11
26668.796078142081
 21
16729.987953999971
 31
0.0
  0
LINE
  5
10648
  8
SUNPOU
  6
CONTINUOUS
 62
     4
 10
26588.796078142081
 20
17487.987953999971
 30
0.0
 11
26588.796078142081
 21
16729.987953999971
 31
0.0
  0
LINE
  5
10649
  8
SUNPOU
  6
CONTINUOUS
 62
     4
 10
25618.794758142081
 20
18188.987953999971
 30
0.0
 11
26668.796078142081
 21
18188.987953999971
 31
0.0
  0
LINE
  5
1064A
  8
SUNPOU
  6
CONTINUOUS
 62
     4
 10
25618.794758142081
 20
17487.987953999971
 30
0.0
 11
26668.796078142081
 21
17487.987953999971
 31
0.0
  0
LINE
  5
1064B
  8
SUNPOU
  6
CONTINUOUS
 62
     4
 10
26588.796078142081
 20
18188.987953999971
 30
0.0
 11
26588.796078142081
 21
17487.987953999971
 31
0.0
  0
LINE
  5
1064C
  8
SUNPOU
  6
CONTINUOUS
 62
     4
 10
25618.794758142081
 20
18889.987953999978
 30
0.0
 11
26668.796078142081
 21
18889.987953999971
 31
0.0
  0
LINE
  5
1064D
  8
SUNPOU
  6
CONTINUOUS
 62
     4
 10
25618.794758142081
 20
18188.987953999971
 30
0.0
 11
26668.796078142081
 21
18188.987953999971
 31
0.0
  0
LINE
  5
1064E
  8
SUNPOU
  6
CONTINUOUS
 62
     4
 10
26588.796078142081
 20
18889.987953999971
 30
0.0
 11
26588.796078142081
 21
18188.987953999971
 31
0.0
  0
LINE
  5
1064F
  8
SUNPOU
  6
CONTINUOUS
 62
     4
 10
26468.796078142081
 20
19647.98795399996
 30
0.0
 11
26668.796078142081
 21
19647.98795399996
 31
0.0
  0
LINE
  5
10650
  8
SUNPOU
  6
CONTINUOUS
 62
     4
 10
25618.794758142081
 20
18889.987953999978
 30
0.0
 11
26668.796078142081
 21
18889.987953999971
 31
0.0
  0
LINE
  5
10651
  8
SUNPOU
  6
CONTINUOUS
 62
     4
 10
26588.796078142081
 20
19647.98795399996
 30
0.0
 11
26588.796078142081
 21
18889.987953999971
 31
0.0
  0
LINE
  5
10652
  8
SUNPOU
  6
CONTINUOUS
 62
     4
 10
26468.796078142081
 20
16729.987953999971
 30
0.0
 11
27068.79607814207
 21
16729.987953999971
 31
0.0
  0
LINE
  5
10653
  8
SUNPOU
  6
CONTINUOUS
 62
     4
 10
26468.796078142081
 20
19647.98795399996
 30
0.0
 11
27068.79607814207
 21
19647.98795399996
 31
0.0
  0
LINE
  5
10654
  8
SUNPOU
  6
CONTINUOUS
 62
     4
 10
26468.796078142081
 20
13811.98795399998
 30
0.0
 11
27068.79607814207
 21
13811.98795399998
 31
0.0
  0
LINE
  5
10655
  8
SUNPOU
  6
CONTINUOUS
 62
     4
 10
26468.796078142081
 20
16729.987953999971
 30
0.0
 11
27068.79607814207
 21
16729.987953999971
 31
0.0
  0
LINE
  5
10656
  8
SUNPOU
  6
CONTINUOUS
 62
     4
 10
25618.794758142081
 20
19690.485248999979
 30
0.0
 11
27468.796078142081
 21
19690.485248999961
 31
0.0
  0
LINE
  5
10657
  8
SUNPOU
  6
CONTINUOUS
 62
     4
 10
25618.794758142081
 20
13769.490658999979
 30
0.0
 11
27468.796078142081
 21
13769.490658999979
 31
0.0
  0
LINE
  5
10658
  8
SUNPOU
  6
CONTINUOUS
 62
     4
 10
27388.796078142081
 20
19690.485248999961
 30
0.0
 11
27388.796078142081
 21
13769.490658999979
 31
0.0
  0
LINE
  5
10659
  8
SUNPOU
  6
CONTINUOUS
 62
     4
 10
26468.796078142081
 20
19647.98795399996
 30
0.0
 11
27068.79607814207
 21
19647.98795399996
 31
0.0
  0
LINE
  5
1065A
  8
SUNPOU
  6
CONTINUOUS
 62
     4
 10
25618.794758142081
 20
19690.485248999979
 30
0.0
 11
27068.79607814207
 21
19690.485248999961
 31
0.0
  0
LINE
  5
1065B
  8
SUNPOU
  6
CONTINUOUS
 62
     4
 10
26988.79607814207
 20
19647.98795399996
 30
0.0
 11
26988.79607814207
 21
19407.987953999971
 31
0.0
  0
LINE
  5
1065C
  8
SUNPOU
  6
CONTINUOUS
 62
     4
 10
26988.79607814207
 20
19690.485248999961
 30
0.0
 11
26988.79607814207
 21
19930.485248999961
 31
0.0
  0
LINE
  5
1065D
  8
SUNPOU
  6
CONTINUOUS
 62
     4
 10
26988.79607814207
 20
19647.98795399996
 30
0.0
 11
26988.79607814207
 21
19690.485248999961
 31
0.0
  0
LINE
  5
1065E
  8
SUNPOU
  6
CONTINUOUS
 62
     4
 10
26468.796078142081
 20
13811.98795399998
 30
0.0
 11
27068.79607814207
 21
13811.98795399998
 31
0.0
  0
LINE
  5
1065F
  8
SUNPOU
  6
CONTINUOUS
 62
     4
 10
25618.794758142081
 20
13769.490658999979
 30
0.0
 11
27068.79607814207
 21
13769.490658999979
 31
0.0
  0
LINE
  5
10660
  8
SUNPOU
  6
CONTINUOUS
 62
     4
 10
26988.79607814207
 20
13811.98795399998
 30
0.0
 11
26988.79607814207
 21
14051.98795399998
 31
0.0
  0
LINE
  5
10661
  8
SUNPOU
  6
CONTINUOUS
 62
     4
 10
26988.79607814207
 20
13769.490658999979
 30
0.0
 11
26988.79607814207
 21
13529.490658999979
 31
0.0
  0
LINE
  5
10662
  8
SUNPOU
  6
CONTINUOUS
 62
     4
 10
26988.79607814207
 20
13811.98795399998
 30
0.0
 11
26988.79607814207
 21
13769.490658999979
 31
0.0
  0
TEXT
  5
10663
  8
0
  6
CONTINUOUS
 62
     7
 10
26908.79607814207
 20
13195.93442260319
 30
0.0
 40
160.0
  1
42.5
 50
90.0
  0
TEXT
  5
10664
  8
0
  6
CONTINUOUS
 62
     7
 10
26908.79607814207
 20
19784.04148539677
 30
0.0
 40
160.0
  1
42.5
 50
90.0
  0
TEXT
  5
10665
  8
0
  6
CONTINUOUS
 62
     7
 10
27308.796078142081
 20
16463.32128733331
 30
0.0
 40
160.0
  1
5921
 50
90.0
  0
TEXT
  5
10666
  8
0
  6
CONTINUOUS
 62
     7
 10
26508.796078142081
 20
19055.65462066665
 30
0.0
 40
160.0
  1
758
 50
90.0
  0
TEXT
  5
10667
  8
0
  6
CONTINUOUS
 62
     7
 10
26508.796078142081
 20
18366.154620666639
 30
0.0
 40
160.0
  1
701
 50
90.0
  0
TEXT
  5
10668
  8
0
  6
CONTINUOUS
 62
     7
 10
26508.796078142081
 20
17665.15462066665
 30
0.0
 40
160.0
  1
701
 50
90.0
  0
TEXT
  5
10669
  8
0
  6
CONTINUOUS
 62
     7
 10
26508.796078142081
 20
16895.65462066665
 30
0.0
 40
160.0
  1
758
 50
90.0
  0
TEXT
  5
1066A
  8
0
  6
CONTINUOUS
 62
     7
 10
26508.796078142081
 20
16137.65462066665
 30
0.0
 40
160.0
  1
758
 50
90.0
  0
TEXT
  5
1066B
  8
0
  6
CONTINUOUS
 62
     7
 10
26508.796078142081
 20
15448.274876416661
 30
0.0
 40
160.0
  1
701
 50
90.0
  0
TEXT
  5
1066C
  8
0
  6
CONTINUOUS
 62
     7
 10
26508.796078142081
 20
14747.274876416661
 30
0.0
 40
160.0
  1
701
 50
90.0
  0
TEXT
  5
1066D
  8
0
  6
CONTINUOUS
 62
     7
 10
26508.796078142081
 20
13977.65462066665
 30
0.0
 40
160.0
  1
758
 50
90.0
  0
TEXT
  5
1066E
  8
0
  6
CONTINUOUS
 62
     7
 10
23770.62980747542
 20
12520.539869999981
 30
0.0
 40
160.0
  1
3003
  0
TEXT
  5
1066F
  8
0
  6
CONTINUOUS
 62
     7
 10
22696.350146524172
 20
12920.539869999981
 30
0.0
 40
160.0
  1
42.5
  0
TEXT
  5
10670
  8
0
  6
CONTINUOUS
 62
     7
 10
24898.242801759981
 20
12920.539869999981
 30
0.0
 40
160.0
  1
42.5
  0
TEXT
  5
10671
  8
0
  6
CONTINUOUS
 62
     7
 10
25614.350146524172
 20
12920.539869999981
 30
0.0
 40
160.0
  1
42.5
  0
TEXT
  5
10672
  8
0
  6
CONTINUOUS
 62
     7
 10
21980.242801759981
 20
12920.539869999981
 30
0.0
 40
160.0
  1
42.5
  0
TEXT
  5
10673
  8
0
  6
CONTINUOUS
 62
     7
 10
26908.796078142059
 20
14274.94154308332
 30
0.0
 40
160.0
  1
1459
 50
90.0
  0
TEXT
  5
10674
  8
0
  6
CONTINUOUS
 62
     7
 10
26908.796078142059
 20
15733.94154308332
 30
0.0
 40
160.0
  1
1459
 50
90.0
  0
TEXT
  5
10675
  8
0
  6
CONTINUOUS
 62
     7
 10
26908.796078142059
 20
17192.82128733331
 30
0.0
 40
160.0
  1
1459
 50
90.0
  0
TEXT
  5
10676
  8
0
  6
CONTINUOUS
 62
     7
 10
26908.796078142059
 20
18651.821287333289
 30
0.0
 40
160.0
  1
1459
 50
90.0
  0
ARC
  5
10677
  8
0
  6
BYBLOCK
 62
     0
 10
26988.79607814207
 20
18188.987953999971
 30
0.0
 40
15.0
 50
90.0
 51
270.0
  0
ARC
  5
10678
  8
0
  6
BYBLOCK
 62
     0
 10
26988.79607814207
 20
18188.987953999971
 30
0.0
 40
15.0
 50
270.0
 51
90.0
  0
ARC
  5
10679
  8
0
  6
BYBLOCK
 62
     0
 10
26988.79607814207
 20
19647.98795399996
 30
0.0
 40
15.0
 50
270.0
 51
90.0
  0
ARC
  5
1067A
  8
0
  6
BYBLOCK
 62
     0
 10
26988.79607814207
 20
19647.98795399996
 30
0.0
 40
15.0
 50
90.0
 51
270.0
  0
ARC
  5
1067B
  8
0
  6
BYBLOCK
 62
     0
 10
26988.79607814207
 20
16729.987953999971
 30
0.0
 40
15.0
 50
90.0
 51
270.0
  0
ARC
  5
1067C
  8
0
  6
BYBLOCK
 62
     0
 10
26988.79607814207
 20
16729.987953999971
 30
0.0
 40
15.0
 50
270.0
 51
90.0
  0
ARC
  5
1067D
  8
0
  6
BYBLOCK
 62
     0
 10
26988.79607814207
 20
18188.987953999971
 30
0.0
 40
15.0
 50
270.0
 51
90.0
  0
ARC
  5
1067E
  8
0
  6
BYBLOCK
 62
     0
 10
26988.79607814207
 20
18188.987953999971
 30
0.0
 40
15.0
 50
90.0
 51
270.0
  0
ARC
  5
1067F
  8
0
  6
BYBLOCK
 62
     0
 10
26988.79607814207
 20
15271.228465499989
 30
0.0
 40
15.0
 50
90.0
 51
270.0
  0
ARC
  5
10680
  8
0
  6
BYBLOCK
 62
     0
 10
26988.79607814207
 20
15271.228465499989
 30
0.0
 40
15.0
 50
270.0
 51
90.0
  0
ARC
  5
10681
  8
0
  6
BYBLOCK
 62
     0
 10
26988.79607814207
 20
16729.987953999971
 30
0.0
 40
15.0
 50
270.0
 51
90.0
  0
ARC
  5
10682
  8
0
  6
BYBLOCK
 62
     0
 10
26988.79607814207
 20
16729.987953999971
 30
0.0
 40
15.0
 50
90.0
 51
270.0
  0
ARC
  5
10683
  8
0
  6
BYBLOCK
 62
     0
 10
26988.79607814207
 20
13811.98795399998
 30
0.0
 40
15.0
 50
90.0
 51
270.0
  0
ARC
  5
10684
  8
0
  6
BYBLOCK
 62
     0
 10
26988.79607814207
 20
13811.98795399998
 30
0.0
 40
15.0
 50
270.0
 51
90.0
  0
ARC
  5
10685
  8
0
  6
BYBLOCK
 62
     0
 10
26988.79607814207
 20
15271.228465499989
 30
0.0
 40
15.0
 50
270.0
 51
90.0
  0
ARC
  5
10686
  8
0
  6
BYBLOCK
 62
     0
 10
26988.79607814207
 20
15271.228465499989
 30
0.0
 40
15.0
 50
90.0
 51
270.0
  0
ARC
  5
10687
  8
0
  6
BYBLOCK
 62
     0
 10
22578.296474142091
 20
12840.539869999981
 30
0.0
 40
15.0
 50
0.0
 51
180.0
  0
ARC
  5
10688
  8
0
  6
BYBLOCK
 62
     0
 10
22578.296474142091
 20
12840.539869999981
 30
0.0
 40
15.0
 50
180.0
 51
0.0
  0
ARC
  5
10689
  8
0
  6
BYBLOCK
 62
     0
 10
22535.794231142088
 20
12840.539869999981
 30
0.0
 40
15.0
 50
180.0
 51
0.0
  0
ARC
  5
1068A
  8
0
  6
BYBLOCK
 62
     0
 10
22535.794231142088
 20
12840.539869999981
 30
0.0
 40
15.0
 50
0.0
 51
180.0
  0
ARC
  5
1068B
  8
0
  6
BYBLOCK
 62
     0
 10
25496.296474142091
 20
12840.539869999981
 30
0.0
 40
15.0
 50
180.0
 51
0.0
  0
ARC
  5
1068C
  8
0
  6
BYBLOCK
 62
     0
 10
25496.296474142091
 20
12840.539869999981
 30
0.0
 40
15.0
 50
0.0
 51
180.0
  0
ARC
  5
1068D
  8
0
  6
BYBLOCK
 62
     0
 10
25538.798717142079
 20
12840.539869999981
 30
0.0
 40
15.0
 50
0.0
 51
180.0
  0
ARC
  5
1068E
  8
0
  6
BYBLOCK
 62
     0
 10
25538.798717142079
 20
12840.539869999981
 30
0.0
 40
15.0
 50
180.0
 51
0.0
  0
ARC
  5
1068F
  8
0
  6
BYBLOCK
 62
     0
 10
25496.296474142091
 20
12840.539869999981
 30
0.0
 40
15.0
 50
0.0
 51
180.0
  0
ARC
  5
10690
  8
0
  6
BYBLOCK
 62
     0
 10
25496.296474142091
 20
12840.539869999981
 30
0.0
 40
15.0
 50
180.0
 51
0.0
  0
ARC
  5
10691
  8
0
  6
BYBLOCK
 62
     0
 10
25453.794231142081
 20
12840.539869999981
 30
0.0
 40
15.0
 50
180.0
 51
0.0
  0
ARC
  5
10692
  8
0
  6
BYBLOCK
 62
     0
 10
25453.794231142081
 20
12840.539869999981
 30
0.0
 40
15.0
 50
0.0
 51
180.0
  0
ARC
  5
10693
  8
0
  6
BYBLOCK
 62
     0
 10
22578.296474142091
 20
12840.539869999981
 30
0.0
 40
15.0
 50
180.0
 51
0.0
  0
ARC
  5
10694
  8
0
  6
BYBLOCK
 62
     0
 10
22578.296474142091
 20
12840.539869999981
 30
0.0
 40
15.0
 50
0.0
 51
180.0
  0
ARC
  5
10695
  8
0
  6
BYBLOCK
 62
     0
 10
22620.798717142079
 20
12840.539869999981
 30
0.0
 40
15.0
 50
0.0
 51
180.0
  0
ARC
  5
10696
  8
0
  6
BYBLOCK
 62
     0
 10
22620.798717142079
 20
12840.539869999981
 30
0.0
 40
15.0
 50
180.0
 51
0.0
  0
ARC
  5
10697
  8
0
  6
BYBLOCK
 62
     0
 10
22535.794231142088
 20
12440.539869999981
 30
0.0
 40
15.0
 50
0.0
 51
180.0
  0
ARC
  5
10698
  8
0
  6
BYBLOCK
 62
     0
 10
22535.794231142088
 20
12440.539869999981
 30
0.0
 40
15.0
 50
180.0
 51
0.0
  0
ARC
  5
10699
  8
0
  6
BYBLOCK
 62
     0
 10
25538.798717142079
 20
12440.539869999981
 30
0.0
 40
15.0
 50
180.0
 51
0.0
  0
ARC
  5
1069A
  8
0
  6
BYBLOCK
 62
     0
 10
25538.798717142079
 20
12440.539869999981
 30
0.0
 40
15.0
 50
0.0
 51
180.0
  0
ARC
  5
1069B
  8
0
  6
BYBLOCK
 62
     0
 10
26588.796078142081
 20
14569.98795399998
 30
0.0
 40
15.0
 50
270.0
 51
90.0
  0
ARC
  5
1069C
  8
0
  6
BYBLOCK
 62
     0
 10
26588.796078142081
 20
14569.98795399998
 30
0.0
 40
15.0
 50
90.0
 51
270.0
  0
ARC
  5
1069D
  8
0
  6
BYBLOCK
 62
     0
 10
26588.796078142081
 20
13811.98795399998
 30
0.0
 40
15.0
 50
90.0
 51
270.0
  0
ARC
  5
1069E
  8
0
  6
BYBLOCK
 62
     0
 10
26588.796078142081
 20
13811.98795399998
 30
0.0
 40
15.0
 50
270.0
 51
90.0
  0
ARC
  5
1069F
  8
0
  6
BYBLOCK
 62
     0
 10
26588.796078142081
 20
15271.228465499989
 30
0.0
 40
15.0
 50
270.0
 51
90.0
  0
ARC
  5
106A0
  8
0
  6
BYBLOCK
 62
     0
 10
26588.796078142081
 20
15271.228465499989
 30
0.0
 40
15.0
 50
90.0
 51
270.0
  0
ARC
  5
106A1
  8
0
  6
BYBLOCK
 62
     0
 10
26588.796078142081
 20
14569.98795399998
 30
0.0
 40
15.0
 50
90.0
 51
270.0
  0
ARC
  5
106A2
  8
0
  6
BYBLOCK
 62
     0
 10
26588.796078142081
 20
14569.98795399998
 30
0.0
 40
15.0
 50
270.0
 51
90.0
  0
ARC
  5
106A3
  8
0
  6
BYBLOCK
 62
     0
 10
26588.796078142081
 20
15971.98795399998
 30
0.0
 40
15.0
 50
270.0
 51
90.0
  0
ARC
  5
106A4
  8
0
  6
BYBLOCK
 62
     0
 10
26588.796078142081
 20
15971.98795399998
 30
0.0
 40
15.0
 50
90.0
 51
270.0
  0
ARC
  5
106A5
  8
0
  6
BYBLOCK
 62
     0
 10
26588.796078142081
 20
15271.228465499989
 30
0.0
 40
15.0
 50
90.0
 51
270.0
  0
ARC
  5
106A6
  8
0
  6
BYBLOCK
 62
     0
 10
26588.796078142081
 20
15271.228465499989
 30
0.0
 40
15.0
 50
270.0
 51
90.0
  0
ARC
  5
106A7
  8
0
  6
BYBLOCK
 62
     0
 10
26588.796078142081
 20
16729.987953999971
 30
0.0
 40
15.0
 50
270.0
 51
90.0
  0
ARC
  5
106A8
  8
0
  6
BYBLOCK
 62
     0
 10
26588.796078142081
 20
16729.987953999971
 30
0.0
 40
15.0
 50
90.0
 51
270.0
  0
ARC
  5
106A9
  8
0
  6
BYBLOCK
 62
     0
 10
26588.796078142081
 20
15971.98795399998
 30
0.0
 40
15.0
 50
90.0
 51
270.0
  0
ARC
  5
106AA
  8
0
  6
BYBLOCK
 62
     0
 10
26588.796078142081
 20
15971.98795399998
 30
0.0
 40
15.0
 50
270.0
 51
90.0
  0
ARC
  5
106AB
  8
0
  6
BYBLOCK
 62
     0
 10
26588.796078142081
 20
17487.987953999971
 30
0.0
 40
15.0
 50
270.0
 51
90.0
  0
ARC
  5
106AC
  8
0
  6
BYBLOCK
 62
     0
 10
26588.796078142081
 20
17487.987953999971
 30
0.0
 40
15.0
 50
90.0
 51
270.0
  0
ARC
  5
106AD
  8
0
  6
BYBLOCK
 62
     0
 10
26588.796078142081
 20
16729.987953999971
 30
0.0
 40
15.0
 50
90.0
 51
270.0
  0
ARC
  5
106AE
  8
0
  6
BYBLOCK
 62
     0
 10
26588.796078142081
 20
16729.987953999971
 30
0.0
 40
15.0
 50
270.0
 51
90.0
  0
ARC
  5
106AF
  8
0
  6
BYBLOCK
 62
     0
 10
26588.796078142081
 20
18188.987953999971
 30
0.0
 40
15.0
 50
270.0
 51
90.0
  0
ARC
  5
106B0
  8
0
  6
BYBLOCK
 62
     0
 10
26588.796078142081
 20
18188.987953999971
 30
0.0
 40
15.0
 50
90.0
 51
270.0
  0
ARC
  5
106B1
  8
0
  6
BYBLOCK
 62
     0
 10
26588.796078142081
 20
17487.987953999971
 30
0.0
 40
15.0
 50
90.0
 51
270.0
  0
ARC
  5
106B2
  8
0
  6
BYBLOCK
 62
     0
 10
26588.796078142081
 20
17487.987953999971
 30
0.0
 40
15.0
 50
270.0
 51
90.0
  0
ARC
  5
106B3
  8
0
  6
BYBLOCK
 62
     0
 10
26588.796078142081
 20
18889.987953999971
 30
0.0
 40
15.0
 50
270.0
 51
90.0
  0
ARC
  5
106B4
  8
0
  6
BYBLOCK
 62
     0
 10
26588.796078142081
 20
18889.987953999971
 30
0.0
 40
15.0
 50
90.0
 51
270.0
  0
ARC
  5
106B5
  8
0
  6
BYBLOCK
 62
     0
 10
26588.796078142081
 20
18188.987953999971
 30
0.0
 40
15.0
 50
90.0
 51
270.0
  0
ARC
  5
106B6
  8
0
  6
BYBLOCK
 62
     0
 10
26588.796078142081
 20
18188.987953999971
 30
0.0
 40
15.0
 50
270.0
 51
90.0
  0
ARC
  5
106B7
  8
0
  6
BYBLOCK
 62
     0
 10
26588.796078142081
 20
19647.98795399996
 30
0.0
 40
15.0
 50
270.0
 51
90.0
  0
ARC
  5
106B8
  8
0
  6
BYBLOCK
 62
     0
 10
26588.796078142081
 20
19647.98795399996
 30
0.0
 40
15.0
 50
90.0
 51
270.0
  0
ARC
  5
106B9
  8
0
  6
BYBLOCK
 62
     0
 10
26588.796078142081
 20
18889.987953999971
 30
0.0
 40
15.0
 50
90.0
 51
270.0
  0
ARC
  5
106BA
  8
0
  6
BYBLOCK
 62
     0
 10
26588.796078142081
 20
18889.987953999971
 30
0.0
 40
15.0
 50
270.0
 51
90.0
  0
ARC
  5
106BB
  8
0
  6
BYBLOCK
 62
     0
 10
26988.79607814207
 20
16729.987953999971
 30
0.0
 40
15.0
 50
90.0
 51
270.0
  0
ARC
  5
106BC
  8
0
  6
BYBLOCK
 62
     0
 10
26988.79607814207
 20
16729.987953999971
 30
0.0
 40
15.0
 50
270.0
 51
90.0
  0
ARC
  5
106BD
  8
0
  6
BYBLOCK
 62
     0
 10
26988.79607814207
 20
19647.98795399996
 30
0.0
 40
15.0
 50
270.0
 51
90.0
  0
ARC
  5
106BE
  8
0
  6
BYBLOCK
 62
     0
 10
26988.79607814207
 20
19647.98795399996
 30
0.0
 40
15.0
 50
90.0
 51
270.0
  0
ARC
  5
106BF
  8
0
  6
BYBLOCK
 62
     0
 10
26988.79607814207
 20
13811.98795399998
 30
0.0
 40
15.0
 50
90.0
 51
270.0
  0
ARC
  5
106C0
  8
0
  6
BYBLOCK
 62
     0
 10
26988.79607814207
 20
13811.98795399998
 30
0.0
 40
15.0
 50
270.0
 51
90.0
  0
ARC
  5
106C1
  8
0
  6
BYBLOCK
 62
     0
 10
26988.79607814207
 20
16729.987953999971
 30
0.0
 40
15.0
 50
270.0
 51
90.0
  0
ARC
  5
106C2
  8
0
  6
BYBLOCK
 62
     0
 10
26988.79607814207
 20
16729.987953999971
 30
0.0
 40
15.0
 50
90.0
 51
270.0
  0
ARC
  5
106C3
  8
0
  6
BYBLOCK
 62
     0
 10
27388.796078142081
 20
19690.485248999961
 30
0.0
 40
15.0
 50
270.0
 51
90.0
  0
ARC
  5
106C4
  8
0
  6
BYBLOCK
 62
     0
 10
27388.796078142081
 20
19690.485248999961
 30
0.0
 40
15.0
 50
90.0
 51
270.0
  0
ARC
  5
106C5
  8
0
  6
BYBLOCK
 62
     0
 10
27388.796078142081
 20
13769.490658999979
 30
0.0
 40
15.0
 50
90.0
 51
270.0
  0
ARC
  5
106C6
  8
0
  6
BYBLOCK
 62
     0
 10
27388.796078142081
 20
13769.490658999979
 30
0.0
 40
15.0
 50
270.0
 51
90.0
  0
ARC
  5
106C7
  8
0
  6
BYBLOCK
 62
     0
 10
26988.79607814207
 20
19647.98795399996
 30
0.0
 40
15.0
 50
270.0
 51
90.0
  0
ARC
  5
106C8
  8
0
  6
BYBLOCK
 62
     0
 10
26988.79607814207
 20
19647.98795399996
 30
0.0
 40
15.0
 50
90.0
 51
270.0
  0
ARC
  5
106C9
  8
0
  6
BYBLOCK
 62
     0
 10
26988.79607814207
 20
19690.485248999961
 30
0.0
 40
15.0
 50
90.0
 51
270.0
  0
ARC
  5
106CA
  8
0
  6
BYBLOCK
 62
     0
 10
26988.79607814207
 20
19690.485248999961
 30
0.0
 40
15.0
 50
270.0
 51
90.0
  0
ARC
  5
106CB
  8
0
  6
BYBLOCK
 62
     0
 10
26988.79607814207
 20
13811.98795399998
 30
0.0
 40
15.0
 50
90.0
 51
270.0
  0
ARC
  5
106CC
  8
0
  6
BYBLOCK
 62
     0
 10
26988.79607814207
 20
13811.98795399998
 30
0.0
 40
15.0
 50
270.0
 51
90.0
  0
ARC
  5
106CD
  8
0
  6
BYBLOCK
 62
     0
 10
26988.79607814207
 20
13769.490658999979
 30
0.0
 40
15.0
 50
270.0
 51
90.0
  0
ARC
  5
106CE
  8
0
  6
BYBLOCK
 62
     0
 10
26988.79607814207
 20
13769.490658999979
 30
0.0
 40
15.0
 50
90.0
 51
270.0
  0
TEXT
  5
10107C5
  8
FILENAME
  6
CONTINUOUS
 10
26099.238095238092
 20
348.0
 30
0.0
 40
200.0
  1
＜VGCU-3059+VKCU-2859-L-1-A_0.DXF ＞
  7
FILENAME
 72
     2
 11
32764.0
 21
348.0
 31
0.0
  0
LINE
  5
10107CA
  8
WAKUSEN-01
 10
868.00000000000193
 20
827.99999999999955
 30
0.0
 11
32764.000000000011
 21
827.99999999999943
 31
0.0
  0
LINE
  5
10107CB
  8
WAKUSEN-01
 10
868.00000000000193
 20
827.99999999999955
 30
0.0
 11
868.00000000000193
 21
22484.000000000011
 31
0.0
  0
LINE
  5
10107CC
  8
WAKUSEN-01
 10
32764.000000000011
 20
827.99999999999943
 30
0.0
 11
32764.000000000011
 21
22484.000000000011
 31
0.0
  0
LINE
  5
10107CD
  8
WAKUSEN-01
 10
20560.0
 20
827.99999999999716
 30
0.0
 11
20560.0
 21
2484.0
 31
0.0
  0
LINE
  5
10107CE
  8
WAKUSEN-02
 10
26868.0
 20
827.99999999999261
 30
0.0
 11
26868.0
 21
2484.0
 31
0.0
  0
ENDSEC
  0
EOF
