  0
SECTION
  2
HEADER
  9
$ACADVER
  1
AC1009
  9
$INSBASE
 10
0.0
 20
0.0
 30
0.0
  9
$EXTMIN
 10
867.99324330406671
 20
327.38164749855792
 30
-0.0000000000000057
  9
$EXTMAX
 10
32765.33210850941
 20
22484.553276491992
 30
0.0000000000000104
  9
$LIMMIN
 10
0.0
 20
0.0
  9
$LIMMAX
 10
33600.0
 20
23760.0
  9
$ORTHOMODE
 70
     1
  9
$REGENMODE
 70
     1
  9
$FILLMODE
 70
     1
  9
$QTEXTMODE
 70
     0
  9
$MIRRTEXT
 70
     0
  9
$DRAGMODE
 70
     2
  9
$LTSCALE
 40
80.0
  9
$OSMODE
 70
  3071
  9
$ATTMODE
 70
     1
  9
$TEXTSIZE
 40
0.2
  9
$TRACEWID
 40
0.05
  9
$TEXTSTYLE
  7
00
  9
$CLAYER
  8
0
  9
$CELTYPE
  6
BYLAYER
  9
$CECOLOR
 62
   256
  9
$DIMSCALE
 40
80.0
  9
$DIMASZ
 40
3.0
  9
$DIMEXO
 40
1.0
  9
$DIMDLI
 40
0.38
  9
$DIMRND
 40
0.5
  9
$DIMDLE
 40
0.0
  9
$DIMEXE
 40
1.0
  9
$DIMTP
 40
0.0
  9
$DIMTM
 40
0.0
  9
$DIMTXT
 40
2.0
  9
$DIMCEN
 40
0.09
  9
$DIMTSZ
 40
0.0
  9
$DIMTOL
 70
     0
  9
$DIMLIM
 70
     0
  9
$DIMTIH
 70
     0
  9
$DIMTOH
 70
     0
  9
$DIMSE1
 70
     0
  9
$DIMSE2
 70
     0
  9
$DIMTAD
 70
     1
  9
$DIMZIN
 70
     8
  9
$DIMBLK
  1
DOTSMALL
  9
$DIMASO
 70
     1
  9
$DIMSHO
 70
     1
  9
$DIMPOST
  1

  9
$DIMAPOST
  1

  9
$DIMALT
 70
     0
  9
$DIMALTD
 70
     2
  9
$DIMALTF
 40
25.399999999999999
  9
$DIMLFAC
 40
1.0
  9
$DIMTOFL
 70
     1
  9
$DIMTVP
 40
0.0
  9
$DIMTIX
 70
     0
  9
$DIMSOXD
 70
     0
  9
$DIMSAH
 70
     0
  9
$DIMBLK1
  1

  9
$DIMBLK2
  1

  9
$DIMSTYLE
  2
SUNPOU
  9
$DIMCLRD
 70
     4
  9
$DIMCLRE
 70
     4
  9
$DIMCLRT
 70
     7
  9
$DIMTFAC
 40
1.0
  9
$DIMGAP
 40
1.0
  9
$LUNITS
 70
     2
  9
$LUPREC
 70
     4
  9
$SKETCHINC
 40
0.1
  9
$FILLETRAD
 40
0.0
  9
$AUNITS
 70
     0
  9
$AUPREC
 70
     0
  9
$MENU
  1
acad
  9
$ELEVATION
 40
0.0
  9
$PELEVATION
 40
0.0
  9
$THICKNESS
 40
0.0
  9
$LIMCHECK
 70
     0
  9
$BLIPMODE
 70
     1
  9
$CHAMFERA
 40
0.0
  9
$CHAMFERB
 40
0.0
  9
$SKPOLY
 70
     0
  9
$TDCREATE
 40
2311940.075052408
  9
$TDUPDATE
 40
2458942.4614581368
  9
$TDINDWG
 40
0.295008831
  9
$TDUSRTIMER
 40
0.2950081944
  9
$USRTIMER
 70
     1
  9
$ANGBASE
 50
0.0
  9
$ANGDIR
 70
     0
  9
$PDMODE
 70
     0
  9
$PDSIZE
 40
0.0
  9
$PLINEWID
 40
0.0
  9
$COORDS
 70
     1
  9
$SPLFRAME
 70
     0
  9
$SPLINETYPE
 70
     6
  9
$SPLINESEGS
 70
     8
  9
$ATTDIA
 70
     1
  9
$ATTREQ
 70
     1
  9
$HANDLING
 70
     1
  9
$HANDSEED
  5
101324F
  9
$SURFTAB1
 70
     6
  9
$SURFTAB2
 70
     6
  9
$SURFTYPE
 70
     6
  9
$SURFU
 70
     6
  9
$SURFV
 70
     6
  9
$UCSNAME
  2

  9
$UCSORG
 10
0.0
 20
0.0
 30
0.0
  9
$UCSXDIR
 10
1.0
 20
0.0
 30
0.0
  9
$UCSYDIR
 10
0.0
 20
1.0
 30
0.0
  9
$PUCSNAME
  2

  9
$PUCSORG
 10
0.0
 20
0.0
 30
0.0
  9
$PUCSXDIR
 10
1.0
 20
0.0
 30
0.0
  9
$PUCSYDIR
 10
0.0
 20
1.0
 30
0.0
  9
$USERI1
 70
     0
  9
$USERI2
 70
     0
  9
$USERI3
 70
     0
  9
$USERI4
 70
     0
  9
$USERI5
 70
     0
  9
$USERR1
 40
0.0
  9
$USERR2
 40
0.0
  9
$USERR3
 40
0.0
  9
$USERR4
 40
0.0
  9
$USERR5
 40
0.0
  9
$WORLDVIEW
 70
     1
  9
$SHADEDGE
 70
     3
  9
$SHADEDIF
 70
    70
  9
$TILEMODE
 70
     1
  9
$MAXACTVP
 70
    16
  9
$PLIMCHECK
 70
     0
  9
$PEXTMIN
 10
1.0000000000000000E+020
 20
1.0000000000000000E+020
 30
1.0000000000000000E+020
  9
$PEXTMAX
 10
-1.0000000000000000E+020
 20
-1.0000000000000000E+020
 30
-1.0000000000000000E+020
  9
$PLIMMIN
 10
0.0
 20
0.0
  9
$PLIMMAX
 10
12.0
 20
9.0
  9
$UNITMODE
 70
     0
  9
$VISRETAIN
 70
     0
  9
$PLINEGEN
 70
     1
  9
$PSLTSCALE
 70
     0
  0
ENDSEC
  0
SECTION
  2
TABLES
  0
TABLE
  2
VPORT
 70
     1
  0
VPORT
  2
*ACTIVE
 70
     0
 10
0.0
 20
0.0
 11
1.0
 21
1.0
 12
16800.0
 22
11880.0
 13
0.0
 23
0.0
 14
1.0
 24
1.0
 15
0.0
 25
0.0
 16
0.0
 26
0.0
 36
1.0
 17
0.0
 27
0.0
 37
0.0
 40
23981.023255813951
 41
2.195652173913043
 42
50.0
 43
0.0
 44
0.0
 50
0.0
 51
0.0
 71
     0
 72
 10000
 73
     1
 74
     1
 75
     0
 76
     0
 77
     0
 78
     0
  0
ENDTAB
  0
TABLE
  2
LTYPE
 70
     6
  0
LTYPE
  2
CONTINUOUS
 70
     0
  3
Solid line
 72
    65
 73
     0
 40
0.0
  0
LTYPE
  2
DASHED3
 70
     0
  3
------  ------  ------  ------  
 72
    65
 73
     2
 40
5.0
 49
3.75
 49
-1.25
  0
LTYPE
  2
CENTER2
 70
     0
  3
----------  --  ----------  --  
 72
    65
 73
     4
 40
20.0
 49
12.5
 49
-2.5
 49
2.5
 49
-2.5
  0
LTYPE
  2
HIDE-M
 70
     0
  3

 72
    65
 73
     2
 40
2.0
 49
1.0
 49
-1.0
  0
LTYPE
  2
1PL-M
 70
     0
  3

 72
    65
 73
     4
 40
15.0
 49
12.0
 49
-1.0
 49
1.0
 49
-1.0
  0
LTYPE
  2
PHANTOM2
 70
     0
  3
___ _ _ ___ _ _ ___ _ _ ___ _ _
 72
    65
 73
     6
 40
1.25
 49
0.625
 49
-0.125
 49
0.125
 49
-0.125
 49
0.125
 49
-0.125
  0
ENDTAB
  0
TABLE
  2
LAYER
 70
    24
  0
LAYER
  2
0
 70
     0
 62
     7
  6
CONTINUOUS
  0
LAYER
  2
SUNPOU
 70
     0
 62
     4
  6
CONTINUOUS
  0
LAYER
  2
0-1
 70
     0
 62
     7
  6
CONTINUOUS
  0
LAYER
  2
0-2
 70
     0
 62
     7
  6
CONTINUOUS
  0
LAYER
  2
0-5
 70
     0
 62
     7
  6
CONTINUOUS
  0
LAYER
  2
0-6
 70
     0
 62
     7
  6
CONTINUOUS
  0
LAYER
  2
2-0
 70
     0
 62
     7
  6
CONTINUOUS
  0
LAYER
  2
0-8
 70
     0
 62
     7
  6
CONTINUOUS
  0
LAYER
  2
YODOROGO
 70
     0
 62
   130
  6
CONTINUOUS
  0
LAYER
  2
WAKUSEN-01
 70
     0
 62
    50
  6
CONTINUOUS
  0
LAYER
  2
WAKUSEN-02
 70
     0
 62
   130
  6
CONTINUOUS
  0
LAYER
  2
WAKUMOJI-01
 70
     0
 62
   130
  6
CONTINUOUS
  0
LAYER
  2
FILENAME
 70
     0
 62
     7
  6
CONTINUOUS
  0
LAYER
  2
NAME
 70
     0
 62
    20
  6
CONTINUOUS
  0
LAYER
  2
0-4
 70
     0
 62
     7
  6
CONTINUOUS
  0
LAYER
  2
1-前柱P
 70
     0
 62
     3
  6
CONTINUOUS
  0
LAYER
  2
1-前柱カバ-P
 70
     0
 62
     3
  6
CONTINUOUS
  0
LAYER
  2
1-桁前P28
 70
     0
 62
     3
  6
CONTINUOUS
  0
LAYER
  2
1-後柱P
 70
     0
 62
     3
  6
CONTINUOUS
  0
LAYER
  2
1-中柱P
 70
     0
 62
     3
  6
CONTINUOUS
  0
LAYER
  2
1-後柱カバ-P
 70
     0
 62
     7
  6
CONTINUOUS
  0
LAYER
  2
1-中柱カバ-P
 70
     0
 62
     7
  6
CONTINUOUS
  0
ENDTAB
  0
TABLE
  2
STYLE
 70
     5
  0
STYLE
  2
STANDARD
 70
     0
 40
0.0
 41
1.0
 50
0.0
 71
     0
 42
0.0
  3
txt
  4
BIGFONT
  0
STYLE
  2
00
 70
     0
 40
0.0
 41
0.6666666666666666
 50
0.0
 71
     0
 42
0.2
  3
ROMANS
  4
BIGFONT
  0
STYLE
  2
01
 70
     0
 40
3.0
 41
1.0
 50
0.0
 71
     0
 42
0.2
  3
ROMANS
  4
BIGFONT
  0
STYLE
  2
WAKUMOJI
 70
     0
 40
3.0
 41
1.0
 50
0.0
 71
     0
 42
3.0
  3
SIMPLEX
  4
BIGFONT
  0
STYLE
  2
FILENAME
 70
     0
 40
200.0
 41
1.0
 50
0.0
 71
     0
 42
200.0
  3
romans
  4
bigfont
  0
ENDTAB
  0
TABLE
  2
VIEW
 70
     0
  0
ENDTAB
  0
TABLE
  2
UCS
 70
     0
  0
ENDTAB
  0
TABLE
  2
APPID
 70
    17
  0
APPID
  2
ACAD
 70
     0
  0
APPID
  2
ACADANNOTATIVE
 70
     0
  0
APPID
  2
ACAD_PSEXT
 70
     0
  0
APPID
  2
DCO15
 70
     0
  0
APPID
  2
ACAD_MLEADERVER
 70
     0
  0
APPID
  2
AUTOCAD_POSTSCRIPT_FIGURE
 70
     0
  0
APPID
  2
ACAD_EXEMPT_FROM_CAD_STANDARDS
 70
     0
  0
APPID
  2
ACLAYERTOOLS
 70
     0
  0
APPID
  2
ACAD_DSTYLE_DIMJAG
 70
     0
  0
APPID
  2
ACAD_DSTYLE_DIMTALN
 70
     0
  0
APPID
  2
ACAECLAYERSTANDARD
 70
     0
  0
APPID
  2
ACAD_DSTYLE_DIMBREAK
 70
     0
  0
APPID
  2
ACAD_DSTYLE_DIM_LINETYPE
 70
     0
  0
APPID
  2
ACAD_DSTYLE_DIM_EXT1_LINETYPE
 70
     0
  0
APPID
  2
ACAD_DSTYLE_DIM_EXT2_LINETYPE
 70
     0
  0
APPID
  2
ACAD_DSTYLE_DIMFLIPARROW_W
 70
     0
  0
APPID
  2
ACAD_NAV_VCDISPLAY
 70
     0
  0
ENDTAB
  0
TABLE
  2
DIMSTYLE
 70
     2
  0
DIMSTYLE
  2
SUNPOU
 70
     0
  3

  4

  5

  6

  7

 40
80.0
 41
3.0
 42
1.0
 43
0.38
 44
1.0
 45
0.5
 46
0.0
 47
0.0
 48
0.0
140
2.0
141
0.09
142
0.0
143
25.399999999999999
144
1.0
145
0.0
146
1.0
147
1.0
 71
     0
 72
     0
 73
     0
 74
     0
 75
     0
 76
     0
 77
     1
 78
     8
170
     0
171
     2
172
     1
173
     0
174
     0
175
     0
176
     4
177
     4
178
     7
  0
ENDTAB
  0
ENDSEC
  0
SECTION
  2
BLOCKS
  0
BLOCK
  8
0
  2
$MODEL_SPACE
 70
     0
 10
0.0
 20
0.0
 30
0.0
  3
$MODEL_SPACE
  1

  0
ENDBLK
  5
11BCE
  8
0
  0
BLOCK
 67
     1
  8
0
  2
$PAPER_SPACE
 70
     0
 10
0.0
 20
0.0
 30
0.0
  3
$PAPER_SPACE
  1

  0
ENDBLK
  5
11BCA
 67
     1
  8
0
  0
BLOCK
  8
0
  2
_DOTSMALL
 70
     0
 10
0.0
 20
0.0
 30
0.0
  3
_DOTSMALL
  1

  0
POLYLINE
  5
11C0A
  8
0
  6
BYBLOCK
 62
     0
 66
     1
 10
0.0
 20
0.0
 30
0.0
 70
     1
 40
0.5
 41
0.5
  0
VERTEX
  5
1013217
  8
0
  6
BYBLOCK
 62
     0
 10
-0.0625
 20
0.0
 30
0.0
 42
1.0
  0
VERTEX
  5
1013218
  8
0
  6
BYBLOCK
 62
     0
 10
0.0625
 20
0.0
 30
0.0
 42
1.0
  0
SEQEND
  5
1013219
  8
0
  6
BYBLOCK
 62
     0
  0
ENDBLK
  5
11C0E
  8
0
  0
ENDSEC
  0
SECTION
  2
ENTITIES
  0
LINE
  5
11C0F
  8
0-1
  6
CONTINUOUS
 62
     3
 10
6555.9416304765828
 20
16705.485856999989
 30
0.0
 11
9473.9416304765837
 21
16705.485856999989
 31
0.0
  0
LINE
  5
11C10
  8
0-1
  6
CONTINUOUS
 62
     3
 10
9420.9419994765958
 20
13795.986899
 30
0.0
 11
9420.9419994765958
 21
17791.443824900962
 31
0.0
  0
LINE
  5
11C11
  8
0-1
  6
CONTINUOUS
 62
     3
 10
6605.9422504765944
 20
13671.986885
 30
0.0
 11
6605.9422504765944
 21
19014.455065212391
 31
0.0
  0
LINE
  5
11C12
  8
0-1
  6
CONTINUOUS
 62
     3
 10
6470.4416304765837
 20
13639.986252000001
 30
0.0
 11
6470.4416304765837
 21
18927.271700365189
 31
0.0
  0
LINE
  5
11C13
  8
0-1
  6
CONTINUOUS
 62
     3
 10
6513.4423564765921
 20
13795.986899
 30
0.0
 11
12316.44288447659
 21
13795.986899
 31
0.0
  0
LINE
  5
11C14
  8
0-1
  6
CONTINUOUS
 62
     3
 10
6555.9416304765828
 20
13874.986516000001
 30
0.0
 11
12273.94163047658
 21
13874.986516000001
 31
0.0
  0
LINE
  5
11C15
  8
0-1
  6
CONTINUOUS
 62
     3
 10
6470.4416304765837
 20
13639.986252000001
 30
0.0
 11
12359.44163047658
 21
13639.986252000001
 31
0.0
  0
LINE
  5
11C16
  8
0-1
  6
CONTINUOUS
 62
     3
 10
6470.4416304765837
 20
13671.986885
 30
0.0
 11
12359.44163047658
 21
13671.986885
 31
0.0
  0
LINE
  5
11C17
  8
0-1
  6
CONTINUOUS
 62
     3
 10
9473.9416304765837
 20
13795.986899
 30
0.0
 11
9473.9416304765837
 21
17769.83857947612
 31
0.0
  0
LINE
  5
11C18
  8
0-1
  6
CONTINUOUS
 62
     3
 10
9516.4428844765916
 20
13795.986899
 30
0.0
 11
9516.4428844765916
 21
17752.512986708611
 31
0.0
  0
LINE
  5
11C19
  8
0-1
  6
CONTINUOUS
 62
     3
 10
6555.9416304765828
 20
13795.986899
 30
0.0
 11
6555.9416304765828
 21
18959.358298013751
 31
0.0
  0
LINE
  5
11C1A
  8
0-1
  6
CONTINUOUS
 62
     3
 10
6513.4423564765921
 20
13795.986899
 30
0.0
 11
6513.4423564765921
 21
18976.89382115288
 31
0.0
  0
LINE
  5
11C1B
  8
0-1
  6
CONTINUOUS
 62
     3
 10
8126.442752476597
 20
18319.145120287751
 30
0.0
 11
8126.442752476597
 21
19510.488495000001
 31
0.0
  0
LINE
  5
11C1C
  8
0-1
  6
CONTINUOUS
 62
     3
 10
8163.4439134765844
 20
18304.061634811991
 30
0.0
 11
8163.4439134765844
 21
19510.488495000001
 31
0.0
  0
LINE
  5
11C1D
  8
0-1
  6
CONTINUOUS
 62
     3
 10
8326.4424224765862
 20
18237.615459161621
 30
0.0
 11
8326.4424224765899
 21
19510.488495000001
 31
0.0
  0
LINE
  5
11C1E
  8
0-1
  6
CONTINUOUS
 62
     3
 10
8363.4416034765945
 20
18222.532780830828
 30
0.0
 11
8363.4416034765964
 21
19510.488495000001
 31
0.0
  0
LINE
  5
11C1F
  8
0-1
  6
CONTINUOUS
 62
     3
 10
8526.4430814765947
 20
18156.085394870672
 30
0.0
 11
8526.4430814765947
 21
19510.488495000001
 31
0.0
  0
LINE
  5
11C20
  8
0-1
  6
CONTINUOUS
 62
     3
 10
8563.4432534765947
 20
18141.002312559751
 30
0.0
 11
8563.4432534765947
 21
19510.488495000001
 31
0.0
  0
LINE
  5
11C21
  8
0-1
  6
CONTINUOUS
 62
     3
 10
8726.4427524765979
 20
18074.5557333369
 30
0.0
 11
8726.4427524765979
 21
19510.488495000001
 31
0.0
  0
LINE
  5
11C22
  8
0-1
  6
CONTINUOUS
 62
     3
 10
8763.4439134765853
 20
18059.472247861129
 30
0.0
 11
8763.4439134765853
 21
19510.488495000001
 31
0.0
  0
LINE
  5
11C23
  8
0-1
  6
CONTINUOUS
 62
     3
 10
8926.4424224765953
 20
17993.026072210771
 30
0.0
 11
8926.4424224765971
 21
19510.488495000001
 31
0.0
  0
LINE
  5
11C24
  8
0-1
  6
CONTINUOUS
 62
     3
 10
8963.4425934765841
 20
17977.9429903075
 30
0.0
 11
8963.4425934765877
 21
19510.488495000001
 31
0.0
  0
LINE
  5
11C25
  8
0-1
  6
CONTINUOUS
 62
     3
 10
9126.4430814765874
 20
17911.496007919821
 30
0.0
 11
9126.4430814765874
 21
19510.488495000001
 31
0.0
  0
LINE
  5
11C26
  8
0-1
  6
CONTINUOUS
 62
     3
 10
9163.4432534765983
 20
17896.412925608882
 30
0.0
 11
9163.4432534765947
 21
19510.488495000001
 31
0.0
  0
LINE
  5
11C27
  8
0-1
  6
CONTINUOUS
 62
     3
 10
6555.9416304765828
 20
15336.487638000021
 30
0.0
 11
9473.9416304765837
 21
15336.487638000021
 31
0.0
  0
LINE
  5
11C28
  8
0-1
  6
CONTINUOUS
 62
     3
 10
6555.9416304765828
 20
15246.485856000019
 30
0.0
 11
9473.9416304765837
 21
15246.485856000019
 31
0.0
  0
LINE
  5
11C29
  8
0-1
  6
CONTINUOUS
 62
     3
 10
6555.9416304765828
 20
16795.488627999988
 30
0.0
 11
9473.9416304765837
 21
16795.488627999988
 31
0.0
  0
LINE
  5
11C2A
  8
0-1
  6
CONTINUOUS
 62
     3
 10
6570.083311476591
 20
18254.488626999999
 30
0.0
 11
8283.4873577710241
 21
18254.488626999999
 31
0.0
  0
LINE
  5
11C2B
  8
0-1
  6
CONTINUOUS
 62
     3
 10
6570.083311476591
 20
18164.485855999999
 30
0.0
 11
8505.8359867026338
 21
18164.485855999999
 31
0.0
  0
LINE
  5
11C2C
  8
0-1
  6
CONTINUOUS
 62
     3
 10
6625.9423564765921
 20
16750.486251999992
 30
0.0
 11
9403.9428844765916
 21
15291.48625200001
 31
0.0
  0
LINE
  5
11C2D
  8
0-1
  6
CONTINUOUS
 62
     3
 10
9403.9428844765916
 20
15291.48625200001
 30
0.0
 11
6625.9423564765921
 21
13832.48625200001
 31
0.0
  0
LINE
  5
11C2E
  8
0-1
  6
CONTINUOUS
 62
     3
 10
6625.9423564765921
 20
15291.48625200001
 30
0.0
 11
9403.9428844765916
 21
13832.48625200001
 31
0.0
  0
LINE
  5
11C2F
  8
0-1
  6
CONTINUOUS
 62
     3
 10
6625.9423564765921
 20
18209.48625200001
 30
0.0
 11
9403.9425301204192
 21
16750.488153658851
 31
0.0
  0
LINE
  5
11C30
  8
0-1
  6
CONTINUOUS
 62
     3
 10
9403.9425301204192
 20
16750.488153658851
 30
0.0
 11
6625.9423564765921
 21
15291.48625200001
 31
0.0
  0
LINE
  5
11C31
  8
0-1
  6
CONTINUOUS
 62
     3
 10
7520.1495042203414
 20
18566.299943460152
 30
0.0
 11
6625.9423564766203
 21
18209.48625200001
 31
0.0
  0
LINE
  5
11C32
  8
0-1
  6
CONTINUOUS
 62
     3
 10
9004.7719783205248
 20
17961.095108804111
 30
0.0
 11
6625.9423564765921
 21
16750.486251999992
 31
0.0
  0
LINE
  5
11C33
  8
0-1
  6
CONTINUOUS
 62
     3
 10
6488.4404034765721
 20
18985.862894812879
 30
0.0
 11
6488.4404034765721
 21
19522.987175999991
 31
0.0
  0
LINE
  5
11C34
  8
0-1
  6
CONTINUOUS
 62
     3
 10
6543.941155476582
 20
19505.488230999988
 30
0.0
 11
6543.941155476582
 21
19535.487834999982
 31
0.0
  0
LINE
  5
11C35
  8
0-1
  6
CONTINUOUS
 62
     3
 10
6470.4416304765837
 20
19535.487834999982
 30
0.0
 11
6470.4416304765837
 21
19500.485987999989
 31
0.0
  0
LINE
  5
11C36
  8
0-1
  6
CONTINUOUS
 62
     3
 10
6538.9408914765736
 20
19540.486120000001
 30
0.0
 11
6475.4409044765816
 21
19540.486120000001
 31
0.0
  0
LINE
  5
11C37
  8
0-1
  6
CONTINUOUS
 62
     3
 10
6488.4404034765721
 20
19522.987175999991
 30
0.0
 11
6470.4416304765837
 21
19522.987175999991
 31
0.0
  0
LINE
  5
11C38
  8
0-1
  6
CONTINUOUS
 62
     3
 10
6488.4404034765721
 20
19500.485987999989
 30
0.0
 11
6538.9408914765736
 21
19500.485987999989
 31
0.0
  0
LINE
  5
11C39
  8
0-1
  6
CONTINUOUS
 62
     3
 10
6546.9417494765939
 20
19510.488495000001
 30
0.0
 11
12282.941116476601
 21
19510.488495000001
 31
0.0
  0
LINE
  5
11C3A
  8
0-6
  6
CONTINUOUS
 62
     6
 10
8238.7610026411312
 20
19237.710188000001
 30
0.0
 11
8382.6621056411223
 21
19749.985842999991
 31
0.0
  0
LINE
  5
11C3B
  8
0-6
  6
CONTINUOUS
 62
     6
 10
7982.9900224765888
 20
19486.164171
 30
0.0
 11
8089.6850844765931
 21
19363.988283999988
 31
0.0
  0
LINE
  5
11C3C
  8
0-6
  6
CONTINUOUS
 62
     6
 10
8089.6850844765931
 20
19363.988283999988
 30
0.0
 11
8028.3793944765848
 21
19514.164461
 31
0.0
  0
LINE
  5
11C3D
  8
0-6
  6
CONTINUOUS
 62
     6
 10
8089.6850844765931
 20
19363.988283999988
 30
0.0
 11
7982.9900224765888
 21
19486.164171
 31
0.0
  0
LINE
  5
11C3E
  8
0-6
  6
CONTINUOUS
 62
     6
 10
7982.9900224765888
 20
19486.164171
 30
0.0
 11
8028.3793944765848
 21
19514.164461
 31
0.0
  0
LINE
  5
11C3F
  8
0-6
  6
CONTINUOUS
 62
     6
 10
8028.3793944765848
 20
19514.164461
 30
0.0
 11
8089.6850844765931
 21
19363.988283999988
 31
0.0
  0
LINE
  5
11C40
  8
0-6
  6
CONTINUOUS
 62
     6
 10
8028.3793944765848
 20
19514.164461
 30
0.0
 11
7982.9900224765888
 21
19486.164171
 31
0.0
  0
LINE
  5
11C41
  8
0-6
  6
CONTINUOUS
 62
     6
 10
8089.6850844765931
 20
19363.988283999988
 30
0.0
 11
7795.7572574765873
 21
19770.486383999989
 31
0.0
  0
LINE
  5
11C42
  8
0-6
  6
CONTINUOUS
 62
     6
 10
8212.8728586411326
 20
19244.109971999991
 30
0.0
 11
8200.3712086411324
 21
19082.385282999989
 31
0.0
  0
LINE
  5
11C43
  8
0-6
  6
CONTINUOUS
 62
     6
 10
8200.3712086411324
 20
19082.385282999989
 30
0.0
 11
8264.6461776411325
 21
19231.314364000002
 31
0.0
  0
LINE
  5
11C44
  8
0-6
  6
CONTINUOUS
 62
     6
 10
8200.3712086411324
 20
19082.385282999989
 30
0.0
 11
8212.8728586411326
 21
19244.109971999991
 31
0.0
  0
LINE
  5
11C45
  8
0-6
  6
CONTINUOUS
 62
     6
 10
8212.8728586411326
 20
19244.109971999991
 30
0.0
 11
8264.6461776411325
 21
19231.314364000002
 31
0.0
  0
LINE
  5
11C46
  8
0-6
  6
CONTINUOUS
 62
     6
 10
8264.6461776411325
 20
19231.314364000002
 30
0.0
 11
8200.3712086411324
 21
19082.385282999989
 31
0.0
  0
LINE
  5
11C47
  8
0-6
  6
CONTINUOUS
 62
     6
 10
8264.6461776411325
 20
19231.314364000002
 30
0.0
 11
8212.8728586411326
 21
19244.109971999991
 31
0.0
  0
LINE
  5
11C48
  8
0-6
  6
CONTINUOUS
 62
     6
 10
8382.6621056411223
 20
19749.985842999991
 30
0.0
 11
8900.3507536411307
 21
19749.985842999991
 31
0.0
  0
LINE
  5
11C49
  8
0-6
  6
CONTINUOUS
 62
     6
 10
7078.0340026112099
 20
19770.486383999989
 30
0.0
 11
7795.7572574765873
 21
19770.486383999989
 31
0.0
  0
LINE
  5
11C4A
  8
0-6
  6
CONTINUOUS
 62
     6
 10
3277.161020831833
 20
17103.270314344409
 30
0.0
 11
5271.6051728318453
 21
17103.270314344409
 31
0.0
  0
LINE
  5
11C4B
  8
0-6
  6
CONTINUOUS
 62
     6
 10
8734.6999755500165
 20
15639.45061787299
 30
0.0
 11
8448.1319321764458
 21
15467.87801584573
 31
0.0
  0
LINE
  5
11C4C
  8
0-6
  6
CONTINUOUS
 62
     6
 10
7568.1310081764359
 20
15467.87801584573
 30
0.0
 11
8448.1319321764458
 21
15467.87801584573
 31
0.0
  0
LINE
  5
11C4D
  8
0-6
  6
CONTINUOUS
 62
     6
 10
6777.5826857628163
 20
17147.675105459512
 30
0.0
 11
7297.5834117628292
 21
17147.675105459512
 31
0.0
  0
LINE
  5
11C4E
  8
0-6
  6
CONTINUOUS
 62
     6
 10
7569.8367838643662
 20
13995.375648999991
 30
0.0
 11
7618.3507506986589
 21
14098.937573099651
 31
0.0
  0
LINE
  5
11C4F
  8
0-6
  6
CONTINUOUS
 62
     6
 10
7618.3507506986589
 20
14098.937573099651
 30
0.0
 11
8418.3514106986531
 21
14098.937573099651
 31
0.0
  0
LINE
  5
11C50
  8
0-6
  6
CONTINUOUS
 62
     6
 10
7622.8675694765952
 20
13485.93862399998
 30
0.0
 11
7516.5971144765899
 21
13608.48567099998
 31
0.0
  0
LINE
  5
11C51
  8
0-6
  6
CONTINUOUS
 62
     6
 10
7516.5971144765899
 20
13608.48567099998
 30
0.0
 11
7577.379222476593
 21
13458.09669499998
 31
0.0
  0
LINE
  5
11C52
  8
0-6
  6
CONTINUOUS
 62
     6
 10
7516.5971144765899
 20
13608.48567099998
 30
0.0
 11
7622.8675694765952
 21
13485.93862399998
 31
0.0
  0
LINE
  5
11C53
  8
0-6
  6
CONTINUOUS
 62
     6
 10
7622.8675694765952
 20
13485.93862399998
 30
0.0
 11
7577.379222476593
 21
13458.09669499998
 31
0.0
  0
LINE
  5
11C54
  8
0-6
  6
CONTINUOUS
 62
     6
 10
7577.379222476593
 20
13458.09669499998
 30
0.0
 11
7516.5971144765899
 21
13608.48567099998
 31
0.0
  0
LINE
  5
11C55
  8
0-6
  6
CONTINUOUS
 62
     6
 10
7577.379222476593
 20
13458.09669499998
 30
0.0
 11
7622.8675694765952
 21
13485.93862399998
 31
0.0
  0
LINE
  5
11C56
  8
0-6
  6
CONTINUOUS
 62
     6
 10
7545.6896268643623
 20
14006.68760799998
 30
0.0
 11
7501.9640408643618
 21
13850.48478699999
 31
0.0
  0
LINE
  5
11C57
  8
0-6
  6
CONTINUOUS
 62
     6
 10
7501.9640408643618
 20
13850.48478699999
 30
0.0
 11
7593.9849318643683
 21
13984.06269999998
 31
0.0
  0
LINE
  5
11C58
  8
0-6
  6
CONTINUOUS
 62
     6
 10
7501.9640408643618
 20
13850.48478699999
 30
0.0
 11
7545.6896268643623
 21
14006.68760799998
 31
0.0
  0
LINE
  5
11C59
  8
0-6
  6
CONTINUOUS
 62
     6
 10
7545.6896268643623
 20
14006.68760799998
 30
0.0
 11
7593.9849318643683
 21
13984.06269999998
 31
0.0
  0
LINE
  5
11C5A
  8
0-6
  6
CONTINUOUS
 62
     6
 10
7593.9849318643683
 20
13984.06269999998
 30
0.0
 11
7501.9640408643618
 21
13850.48478699999
 31
0.0
  0
LINE
  5
11C5B
  8
0-6
  6
CONTINUOUS
 62
     6
 10
7593.9849318643683
 20
13984.06269999998
 30
0.0
 11
7545.6896268643623
 21
14006.68760799998
 31
0.0
  0
LINE
  5
11C5C
  8
0-6
  6
CONTINUOUS
 62
     6
 10
8006.2359844765942
 20
12808.48600099999
 30
0.0
 11
8868.8161554765993
 21
12808.48600099999
 31
0.0
  0
LINE
  5
11C5D
  8
0-6
  6
CONTINUOUS
 62
     6
 10
7600.1238914765818
 20
13472.01765999999
 30
0.0
 11
8006.2359844765942
 21
12808.48600099999
 31
0.0
  0
LINE
  5
11C5E
  8
0-6
  6
CONTINUOUS
 62
     6
 10
6450.9909204765863
 20
14025.81030354018
 30
0.0
 11
6473.4416304765837
 21
14186.456154540179
 31
0.0
  0
LINE
  5
11C5F
  8
0-6
  6
CONTINUOUS
 62
     6
 10
6473.4416304765837
 20
14186.456154540179
 30
0.0
 11
6400.1044264765733
 21
14041.77512054018
 31
0.0
  0
LINE
  5
11C60
  8
0-6
  6
CONTINUOUS
 62
     6
 10
6473.4416304765837
 20
14186.456154540179
 30
0.0
 11
6450.9909204765863
 21
14025.81030354018
 31
0.0
  0
LINE
  5
11C61
  8
0-6
  6
CONTINUOUS
 62
     6
 10
6450.9909204765863
 20
14025.81030354018
 30
0.0
 11
6400.1044264765733
 21
14041.77512054018
 31
0.0
  0
LINE
  5
11C62
  8
0-6
  6
CONTINUOUS
 62
     6
 10
6400.1044264765733
 20
14041.77512054018
 30
0.0
 11
6473.4416304765837
 21
14186.456154540179
 31
0.0
  0
LINE
  5
11C63
  8
0-6
  6
CONTINUOUS
 62
     6
 10
6400.1044264765733
 20
14041.77512054018
 30
0.0
 11
6450.9909204765863
 21
14025.81030354018
 31
0.0
  0
LINE
  5
11C64
  8
0-6
  6
CONTINUOUS
 62
     6
 10
4758.8073794765842
 20
12163.519802540181
 30
0.0
 11
5838.8069834765847
 21
12163.519802540181
 31
0.0
  0
LINE
  5
11C65
  8
0-6
  6
CONTINUOUS
 62
     6
 10
6425.5471784765759
 20
14033.79172254018
 30
0.0
 11
5838.8069834765847
 21
12163.519802540181
 31
0.0
  0
LINE
  5
11C66
  8
0-6
  6
CONTINUOUS
 62
     6
 10
6678.5424227628164
 20
17368.468628459501
 30
0.0
 11
6777.5826857628163
 21
17147.675105459512
 31
0.0
  0
LINE
  5
11C67
  8
0-6
  6
CONTINUOUS
 62
     6
 10
3239.6373288595291
 20
18088.215761138981
 30
0.0
 11
5234.0814808595396
 21
18088.215761138981
 31
0.0
  0
LINE
  5
11C68
  8
0-6
  6
CONTINUOUS
 62
     6
 10
12356.443015476571
 20
19519.985579
 30
0.0
 11
12448.13035747659
 21
19653.79311699999
 31
0.0
  0
LINE
  5
11C69
  8
0-6
  6
CONTINUOUS
 62
     6
 10
12486.57161847657
 20
19616.825606999992
 30
0.0
 11
12356.443015476571
 21
19519.985579
 31
0.0
  0
LINE
  5
11C6A
  8
0-6
  6
CONTINUOUS
 62
     6
 10
12486.57161847657
 20
19616.825606999992
 30
0.0
 11
12448.13035747659
 21
19653.79311699999
 31
0.0
  0
LINE
  5
11C6B
  8
0-6
  6
CONTINUOUS
 62
     6
 10
12467.351483476599
 20
19635.30837200001
 30
0.0
 11
12984.34037147659
 21
20139.986634999979
 31
0.0
  0
LINE
  5
11C6C
  8
0-6
  6
CONTINUOUS
 62
     6
 10
12984.34037147659
 20
20139.986634999979
 30
0.0
 11
14659.33971147659
 21
20139.986634999979
 31
0.0
  0
LINE
  5
11C6D
  8
2-0
  6
DASHED3
 62
     6
 10
6555.9416304765828
 20
19278.987755999991
 30
0.0
 11
12273.94163047658
 21
19278.987755999991
 31
0.0
  0
LINE
  5
11C6E
  8
2-0
  6
DASHED3
 62
     6
 10
6513.4423564765921
 20
18976.89382115288
 30
0.0
 11
6513.4423564765921
 21
19363.988283999988
 31
0.0
  0
LINE
  5
11C6F
  8
2-0
  6
DASHED3
 62
     6
 10
6555.9416304765828
 20
18959.35829801378
 30
0.0
 11
6555.9416304765828
 21
19363.988283999988
 31
0.0
  0
LINE
  5
11C70
  8
2-0
  6
DASHED3
 62
     6
 10
6513.4423564765921
 20
19363.988283999988
 30
0.0
 11
12273.94163047658
 21
19363.988283999988
 31
0.0
  0
LINE
  5
11C71
  8
2-0
  6
DASHED3
 62
     6
 10
9473.9416304765837
 20
17769.83857947612
 30
0.0
 11
9473.9416304765837
 21
19363.988283999988
 31
0.0
  0
LINE
  5
11C72
  8
2-0
  6
DASHED3
 62
     6
 10
9516.4428844765916
 20
17752.512986708611
 30
0.0
 11
9516.4428844765916
 21
19363.988283999988
 31
0.0
  0
LINE
  5
11C73
  8
2-0
  6
DASHED3
 62
     6
 10
8505.8359867026338
 20
18164.485855999999
 30
0.0
 11
9473.9416304765782
 21
18164.485855999999
 31
0.0
  0
LINE
  5
11C74
  8
2-0
  6
DASHED3
 62
     6
 10
8283.4873577710241
 20
18254.488626999999
 30
0.0
 11
9473.9416304765782
 21
18254.488626999999
 31
0.0
  0
LINE
  5
11C75
  8
2-0
  6
DASHED3
 62
     6
 10
6625.9423564765921
 20
19317.986251999992
 30
0.0
 11
9420.9419994765958
 21
18209.48625200001
 31
0.0
  0
LINE
  5
11C76
  8
2-0
  6
DASHED3
 62
     6
 10
9420.9419994766085
 20
18209.486251999992
 30
0.0
 11
9004.843542104918
 21
17961.137821660192
 31
0.0
  0
LINE
  5
11C77
  8
2-0
  6
DASHED3
 62
     6
 10
9403.9428844765916
 20
19317.986251999992
 30
0.0
 11
7520.1495042203414
 21
18566.299943460152
 31
0.0
  0
LINE
  5
11C78
  8
2-0
  6
CENTER2
 62
     6
 10
9473.9416304765837
 20
20560.488495000009
 30
0.0
 11
9473.9416304765837
 21
19610.487834999989
 31
0.0
  0
LINE
  5
11C79
  8
2-0
  6
CENTER2
 62
     6
 10
5226.4415254765918
 20
19317.986251999992
 30
0.0
 11
6872.9407464765836
 21
19317.986251999992
 31
0.0
  0
LINE
  5
11C7A
  8
0-8
  6
CONTINUOUS
 62
     6
 10
6555.9416304765828
 20
20560.488495000009
 30
0.0
 11
6555.9416304765828
 21
19610.487834999989
 31
0.0
  0
LINE
  5
11C7B
  8
2-0
  6
CENTER2
 62
     6
 10
5226.4415254765918
 20
16750.486251999992
 30
0.0
 11
12445.741078476591
 21
16750.486251999992
 31
0.0
  0
LINE
  5
11C7C
  8
2-0
  6
CENTER2
 62
     6
 10
5226.4415254765918
 20
13832.48625200001
 30
0.0
 11
6872.9407464765836
 21
13832.48625200001
 31
0.0
  0
LINE
  5
11C7D
  8
2-0
  6
CENTER2
 62
     6
 10
6337.1434624765943
 20
18209.48625200001
 30
0.0
 11
12445.741078476591
 21
18209.48625200001
 31
0.0
  0
LINE
  5
11C7E
  8
2-0
  6
CENTER2
 62
     6
 10
6337.1434624765943
 20
15291.48625200001
 30
0.0
 11
12445.741078476591
 21
15291.48625200001
 31
0.0
  0
ARC
  5
11C7F
  8
0-1
  6
CONTINUOUS
 62
     3
 10
6538.9408914765736
 20
19505.488230999988
 30
0.0
 40
5.0
 50
269.9999850001808
 51
0.0
  0
ARC
  5
11C80
  8
0-1
  6
CONTINUOUS
 62
     3
 10
6538.9408914765736
 20
19535.487834999982
 30
0.0
 40
5.0
 50
0.0
 51
90.0
  0
ARC
  5
11C81
  8
0-1
  6
CONTINUOUS
 62
     3
 10
6475.4409044765816
 20
19535.487834999982
 30
0.0
 40
5.0
 50
90.0
 51
180.0
  0
CIRCLE
  5
11C82
  8
0-5
  6
CONTINUOUS
 62
     4
 10
9473.9416304765837
 20
20760.487175999991
 30
0.0
 40
199.9999949999999
  0
CIRCLE
  5
11C83
  8
0-5
  6
CONTINUOUS
 62
     4
 10
6555.9416304765828
 20
20760.487175999991
 30
0.0
 40
199.9999949999999
  0
CIRCLE
  5
11C84
  8
0-5
  6
CONTINUOUS
 62
     4
 10
5026.441854476594
 20
19317.986251999992
 30
0.0
 40
199.9999949999999
  0
CIRCLE
  5
11C85
  8
0-5
  6
CONTINUOUS
 62
     4
 10
5026.441854476594
 20
16750.486251999992
 30
0.0
 40
199.9999949999999
  0
CIRCLE
  5
11C86
  8
0-5
  6
CONTINUOUS
 62
     4
 10
5026.441854476594
 20
13832.48625200001
 30
0.0
 40
199.9999949999999
  0
TEXT
  5
11C87
  8
0-5
  6
CONTINUOUS
 62
     7
 10
9420.2244244765934
 20
20671.27225300001
 30
0.0
 40
160.0
  1
2
 72
     4
 11
9473.5577578099274
 21
20751.27225300001
 31
0.0
  0
TEXT
  5
11C88
  8
0-5
  6
CONTINUOUS
 62
     7
 10
6529.2749638099167
 20
20671.27225300001
 30
0.0
 40
160.0
  1
1
 72
     4
 11
6555.9416304765828
 21
20751.27225300001
 31
0.0
  0
TEXT
  5
11C89
  8
0-5
  6
CONTINUOUS
 62
     7
 10
4972.981986476595
 20
19238.397728
 30
0.0
 40
160.0
  1
C
 72
     4
 11
5026.315319809928
 21
19318.397728
 31
0.0
  0
TEXT
  5
11C8A
  8
0-5
  6
CONTINUOUS
 62
     7
 10
4972.981986476595
 20
16670.898717999989
 30
0.0
 40
160.0
  1
B
 72
     4
 11
5026.315319809928
 21
16750.898717999989
 31
0.0
  0
TEXT
  5
11C8B
  8
0-5
  6
CONTINUOUS
 62
     7
 10
4972.981986476595
 20
13752.897728000011
 30
0.0
 40
160.0
  1
A
 72
     4
 11
5026.315319809928
 21
13832.897728000011
 31
0.0
  0
TEXT
  5
11C8C
  8
0-6
  6
CONTINUOUS
 62
     7
 10
8462.6623696411261
 20
19829.98610699999
 30
0.0
 40
160.0
  1
屋根
 72
     4
 11
8633.3290363077922
 21
19909.98610699999
 31
0.0
  0
TEXT
  5
11C8D
  8
0-6
  6
CONTINUOUS
 62
     7
 10
7132.0562735019448
 20
19850.486647999991
 30
0.0
 40
160.0
  1
桁（後）
 72
     4
 11
7452.0562735019448
 21
19930.486647999991
 31
0.0
  0
TEXT
  5
11C8E
  8
0-6
  6
CONTINUOUS
 62
     7
 10
7648.1322621764421
 20
15558.378715845731
 30
0.0
 40
160.0
  1
ブレース
 72
     4
 11
8010.7989288431081
 21
15643.71204917907
 31
0.0
  0
TEXT
  5
11C8F
  8
0-6
  6
CONTINUOUS
 62
     7
 10
7698.3500246986541
 20
14178.937837099649
 30
0.0
 40
160.0
  1
桁（前）
 72
     4
 11
8018.3500246986532
 21
14258.937837099649
 31
0.0
  0
TEXT
  5
11C90
  8
0-6
  6
CONTINUOUS
 62
     7
 10
8086.2352584766004
 20
12888.48527499999
 30
0.0
 40
160.0
  1
鼻隠し前
 72
     4
 11
8448.9019251432674
 21
12968.48527499999
 31
0.0
  0
TEXT
  5
11C91
  8
0-6
  6
CONTINUOUS
 62
     7
 10
4838.8076434765808
 20
12243.51907654018
 30
0.0
 40
160.0
  1
ケラバ 左
 72
     4
 11
5254.8076434765808
 21
12323.51907654018
 31
0.0
  0
TEXT
  5
11C92
  8
0-6
  6
CONTINUOUS
 62
     7
 10
6857.5829497628301
 20
17227.67536945951
 30
0.0
 40
160.0
  1
上枠
 72
     4
 11
7028.2496164294971
 21
17307.67536945951
 31
0.0
  0
TEXT
  5
11C93
  8
0-6
  6
CONTINUOUS
 62
     7
 10
13064.340635476599
 20
20219.984918999991
 30
0.0
 40
160.0
  1
鼻隠しコーナー後
 72
     4
 11
13811.007302143271
 21
20299.984918999991
 31
0.0
  0
TEXT
  5
11C94
  8
2-0
  6
CONTINUOUS
 62
     7
 10
21841.769232999432
 20
3292.802588999999
 30
0.0
 40
160.0
  1
正 面 立 面 図
 72
     4
 11
22487.102566332771
 21
3372.802588999999
 31
0.0
  0
TEXT
  5
11C95
  8
2-0
  6
CONTINUOUS
 62
     7
 10
7808.7002624709367
 20
3264.0669070000022
 30
0.0
 40
160.0
  1
側 面 立 面 図
 50
0.000139
 72
     4
 11
8454.0334017217574
 21
3344.0684725833762
 31
0.0
  0
TEXT
  5
11C96
  8
0-6
  6
CONTINUOUS
 62
     7
 10
3303.669696553834
 20
18184.267249028311
 30
0.0
 40
160.0
  1
桁中B +  桁中補強B
 72
     4
 11
4237.0030298871679
 21
18264.267249028318
 31
0.0
  0
TEXT
  5
11C97
  8
0-6
  6
CONTINUOUS
 62
     7
 10
3341.1933885261342
 20
17199.323781233761
 30
0.0
 40
160.0
  1
桁中A +  桁中補強A
 72
     4
 11
4274.5267218594681
 21
17279.323781233761
 31
0.0
  0
LINE
  5
11C9B
  8
0-6
  6
CONTINUOUS
 62
     6
 10
10029.80119934641
 20
19787.010398411789
 30
0.0
 11
11294.47078498414
 21
19787.010398411789
 31
0.0
  0
TEXT
  5
11C9C
  8
0-6
  6
CONTINUOUS
 62
     7
 10
10109.800968346401
 20
19867.010662411791
 30
0.0
 40
160.0
  1
桁（後）補強
  0
LINE
  5
11C9D
  8
0-6
  6
CONTINUOUS
 62
     6
 10
9056.9704364808331
 20
19135.191705746962
 30
0.0
 11
9190.5999659863519
 21
18832.68419574801
 31
0.0
  0
LINE
  5
11C9E
  8
0-6
  6
CONTINUOUS
 62
     6
 10
8992.3194135725298
 20
19281.547230841199
 30
0.0
 11
9032.5773135460495
 21
19124.416014316921
 31
0.0
  0
LINE
  5
11C9F
  8
0-6
  6
CONTINUOUS
 62
     6
 10
9032.5773135460495
 20
19124.416014316921
 30
0.0
 11
9081.3635594156112
 21
19145.967397176992
 31
0.0
  0
LINE
  5
11CA0
  8
0-6
  6
CONTINUOUS
 62
     6
 10
9081.3635594156112
 20
19145.967397176992
 30
0.0
 11
8992.3194135725298
 21
19281.547230841199
 31
0.0
  0
LINE
  5
11CA1
  8
0-6
  6
CONTINUOUS
 62
     6
 10
9190.5999659863483
 20
18832.68419574801
 30
0.0
 11
10029.80119934641
 21
19787.010398411789
 31
0.0
  0
TEXT
  5
11CA2
  8
2-0
  6
CONTINUOUS
 62
     7
 10
9805.5255868593831
 20
3291.2638415833758
 30
0.0
 40
160.0
  1
1
 72
     4
 11
9832.1922535260492
 21
3371.2638415833749
 31
0.0
  0
TEXT
  5
11CA3
  8
2-0
  6
CONTINUOUS
 62
     7
 10
10048.61430411006
 20
3211.2653095833748
 30
0.0
 40
160.0
  1
80
 72
     4
 11
10168.61430411006
 21
3291.2653095833748
 31
0.0
  0
TEXT
  5
11CA4
  8
2-0
  6
CONTINUOUS
 62
     7
 10
9306.5275528593793
 20
3264.0684725833762
 30
0.0
 40
160.0
  1
(S=  /   )
 72
     4
 11
9866.5275528593793
 21
3344.0684725833762
 31
0.0
  0
TEXT
  5
11CA5
  8
2-0
  6
CONTINUOUS
 62
     7
 10
23838.594751470391
 20
3319.9979579999999
 30
0.0
 40
160.0
  1
1
 72
     4
 11
23865.261418137059
 21
3399.9979579999999
 31
0.0
  0
TEXT
  5
11CA6
  8
2-0
  6
CONTINUOUS
 62
     7
 10
24081.683468721101
 20
3239.9994259999989
 30
0.0
 40
160.0
  1
80
 72
     4
 11
24201.683468721101
 21
3319.9994259999989
 31
0.0
  0
TEXT
  5
11CA7
  8
2-0
  6
CONTINUOUS
 62
     7
 10
23339.596717470398
 20
3292.802588999999
 30
0.0
 40
160.0
  1
(S=  /   )
 72
     4
 11
23899.596717470398
 21
3372.802588999999
 31
0.0
  0
LINE
  5
11CA8
  8
2-0
  6
CENTER2
 62
     6
 10
12273.94163047658
 20
20560.488495000009
 30
0.0
 11
12273.94163047658
 21
19610.487834999989
 31
0.0
  0
CIRCLE
  5
11CA9
  8
0-5
  6
CONTINUOUS
 62
     4
 10
12273.94163047658
 20
20760.487175999991
 30
0.0
 40
199.9999949999999
  0
TEXT
  5
11CAA
  8
0-5
  6
CONTINUOUS
 62
     7
 10
12220.224424476581
 20
20671.27225300001
 30
0.0
 40
160.0
  1
3
 72
     4
 11
12273.55775780992
 21
20751.27225300001
 31
0.0
  0
LINE
  5
11CAB
  8
0-1
  6
CONTINUOUS
 62
     3
 10
12341.44186847657
 20
16587.062384390982
 30
0.0
 11
12341.44186847659
 21
19522.987175999991
 31
0.0
  0
LINE
  5
11CAC
  8
0-1
  6
CONTINUOUS
 62
     3
 10
12341.44186847659
 20
19522.987175999991
 30
0.0
 11
12359.44163047658
 21
19522.987175999991
 31
0.0
  0
LINE
  5
11CAD
  8
0-1
  6
CONTINUOUS
 62
     3
 10
12285.941116476601
 20
19505.488230999988
 30
0.0
 11
12285.941116476601
 21
19535.487834999982
 31
0.0
  0
LINE
  5
11CAE
  8
0-1
  6
CONTINUOUS
 62
     3
 10
12341.44186847659
 20
19500.485987999989
 30
0.0
 11
12290.9423704766
 21
19500.485987999989
 31
0.0
  0
LINE
  5
11CAF
  8
0-1
  6
CONTINUOUS
 62
     3
 10
12359.44163047658
 20
19535.487834999982
 30
0.0
 11
12359.44163047658
 21
19500.485987999989
 31
0.0
  0
LINE
  5
11CB0
  8
0-1
  6
CONTINUOUS
 62
     3
 10
12290.9423704766
 20
19540.486120000001
 30
0.0
 11
12354.44037747658
 21
19540.486120000001
 31
0.0
  0
ARC
  5
11CB1
  8
0-1
  6
CONTINUOUS
 62
     3
 10
12354.44037747658
 20
19535.487834999982
 30
0.0
 40
5.0
 50
0.0
 51
90.0
  0
ARC
  5
11CB2
  8
0-1
  6
CONTINUOUS
 62
     3
 10
12290.9423704766
 20
19535.487834999982
 30
0.0
 40
5.0
 50
90.0
 51
180.0
  0
ARC
  5
11CB3
  8
0-1
  6
CONTINUOUS
 62
     3
 10
12290.9423704766
 20
19505.488230999988
 30
0.0
 40
5.0
 50
180.0
 51
269.9999850001808
  0
LINE
  5
11CB4
  8
0-1
  6
CONTINUOUS
 62
     3
 10
9473.9416304765837
 20
13795.986899
 30
0.0
 11
9473.9416304765837
 21
13639.986978000001
 31
0.0
  0
LINE
  5
11CB5
  8
0-1
  6
CONTINUOUS
 62
     3
 10
6259.8697502851792
 20
19080.051697462761
 30
0.0
 11
9882.7400838212343
 21
17603.19230765941
 31
0.0
  0
LINE
  5
11CB6
  8
0-1
  6
CONTINUOUS
 62
     3
 10
12223.94199947659
 20
13671.986885
 30
0.0
 11
12223.94199947659
 21
16635.899450312161
 31
0.0
  0
LINE
  5
11CB7
  8
0-1
  6
CONTINUOUS
 62
     3
 10
12359.44163047658
 20
13639.986252000001
 30
0.0
 11
12359.44163047658
 21
16579.990702284111
 31
0.0
  0
LINE
  5
11CB8
  8
0-1
  6
CONTINUOUS
 62
     3
 10
12273.94163047658
 20
13795.986899
 30
0.0
 11
12273.94163047658
 21
16613.58674043581
 31
0.0
  0
LINE
  5
11CB9
  8
0-1
  6
CONTINUOUS
 62
     3
 10
12316.44288447659
 20
13795.986899
 30
0.0
 11
12316.44288447659
 21
16596.109000377732
 31
0.0
  0
LINE
  5
11CBA
  8
0-1
  6
CONTINUOUS
 62
     3
 10
12223.94199947659
 20
16635.899450312161
 30
0.0
 11
12223.94199947659
 21
19510.488495000001
 31
0.0
  0
LINE
  5
11CBB
  8
0-1
  6
CONTINUOUS
 62
     3
 10
12359.44163047658
 20
16579.990702284111
 30
0.0
 11
12359.44163047658
 21
19522.987175999991
 31
0.0
  0
LINE
  5
11CBC
  8
2-0
  6
DASHED3
 62
     6
 10
12273.94163047658
 20
16613.58674043581
 30
0.0
 11
12273.94163047658
 21
19510.488495000001
 31
0.0
  0
LINE
  5
11CBD
  8
2-0
  6
DASHED3
 62
     6
 10
12316.44288447659
 20
16596.109000377732
 30
0.0
 11
12316.44288447659
 21
19500.485987999989
 31
0.0
  0
LINE
  5
11CBE
  8
0-1
  6
CONTINUOUS
 62
     3
 10
6470.4416304765837
 20
18927.271700365189
 30
0.0
 11
6470.4416304765837
 21
19530.487571999991
 31
0.0
  0
LINE
  5
11CBF
  8
0-1
  6
CONTINUOUS
 62
     3
 10
6605.9422504765944
 20
19014.455065212391
 30
0.0
 11
6605.9422504765944
 21
19510.488495000001
 31
0.0
  0
LINE
  5
11CC0
  8
0-1
  6
CONTINUOUS
 62
     3
 10
9326.443741476598
 20
17829.965943221199
 30
0.0
 11
9326.443741476598
 21
19510.488495000001
 31
0.0
  0
LINE
  5
11CC1
  8
0-1
  6
CONTINUOUS
 62
     3
 10
9363.4439134766035
 20
17814.882860910271
 30
0.0
 11
9363.4439134766035
 21
19510.488495000001
 31
0.0
  0
LINE
  5
11CC2
  8
0-1
  6
CONTINUOUS
 62
     3
 10
9526.4444014766086
 20
17748.435878522589
 30
0.0
 11
9526.4444014766086
 21
19510.488495000001
 31
0.0
  0
LINE
  5
11CC3
  8
0-1
  6
CONTINUOUS
 62
     3
 10
9563.4445734766141
 20
17733.35279621166
 30
0.0
 11
9563.4445734766141
 21
19510.488495000001
 31
0.0
  0
LINE
  5
11CC4
  8
0-1
  6
CONTINUOUS
 62
     3
 10
9726.4450614766192
 20
17666.905813823982
 30
0.0
 11
9726.4450614766174
 21
19510.488495000001
 31
0.0
  0
LINE
  5
11CC5
  8
0-1
  6
CONTINUOUS
 62
     3
 10
9763.4452334766229
 20
17651.82273151305
 30
0.0
 11
9763.4452334766229
 21
19510.488495000001
 31
0.0
  0
LINE
  5
11CC6
  8
0-1
  6
CONTINUOUS
 62
     3
 10
9926.445721476628
 20
17709.117740013218
 30
0.0
 11
9926.4457214766244
 21
19510.488495000001
 31
0.0
  0
LINE
  5
11CC7
  8
0-1
  6
CONTINUOUS
 62
     3
 10
9963.4458934766353
 20
17798.791736927971
 30
0.0
 11
9963.4458934766353
 21
19510.488495000001
 31
0.0
  0
LINE
  5
11CC8
  8
0-1
  6
CONTINUOUS
 62
     3
 10
10126.44638147663
 20
17663.714145947641
 30
0.0
 11
10126.44638147663
 21
19510.488495000001
 31
0.0
  0
LINE
  5
11CC9
  8
0-1
  6
CONTINUOUS
 62
     3
 10
10163.44655347664
 20
17621.17090555876
 30
0.0
 11
10163.44655347664
 21
19510.488495000001
 31
0.0
  0
LINE
  5
11CCA
  8
0-1
  6
CONTINUOUS
 62
     3
 10
10326.44704147664
 20
17431.377017966901
 30
0.0
 11
10326.44704147664
 21
19510.488495000001
 31
0.0
  0
LINE
  5
11CCB
  8
0-1
  6
CONTINUOUS
 62
     3
 10
10363.44721347664
 20
17388.581626968818
 30
0.0
 11
10363.44721347664
 21
19510.488495000001
 31
0.0
  0
LINE
  5
11CCC
  8
0-1
  6
CONTINUOUS
 62
     3
 10
10526.447701476651
 20
17198.787791101659
 30
0.0
 11
10526.447701476651
 21
19510.488495000001
 31
0.0
  0
LINE
  5
11CCD
  8
0-1
  6
CONTINUOUS
 62
     3
 10
10563.447873476651
 20
17156.244550712781
 30
0.0
 11
10563.447873476651
 21
19510.488495000001
 31
0.0
  0
LINE
  5
11CCE
  8
0-1
  6
CONTINUOUS
 62
     3
 10
10726.44836147665
 20
17021.195778491841
 30
0.0
 11
10726.44836147665
 21
19510.488495000001
 31
0.0
  0
LINE
  5
11CCF
  8
0-1
  6
CONTINUOUS
 62
     3
 10
10763.44853347667
 20
17110.874058523728
 30
0.0
 11
10763.44853347667
 21
19510.488495000001
 31
0.0
  0
LINE
  5
11CD0
  8
0-1
  6
CONTINUOUS
 62
     3
 10
10926.449021476659
 20
17167.714521001009
 30
0.0
 11
10926.449021476659
 21
19510.488495000001
 31
0.0
  0
LINE
  5
11CD1
  8
0-1
  6
CONTINUOUS
 62
     3
 10
10963.44919347667
 20
17152.49898434131
 30
0.0
 11
10963.44919347667
 21
19510.488495000001
 31
0.0
  0
LINE
  5
11CD2
  8
0-1
  6
CONTINUOUS
 62
     3
 10
11126.449681476681
 20
17085.468487815251
 30
0.0
 11
11126.449681476681
 21
19510.488495000001
 31
0.0
  0
LINE
  5
11CD3
  8
0-1
  6
CONTINUOUS
 62
     3
 10
11163.44985347669
 20
17070.252951155551
 30
0.0
 11
11163.44985347669
 21
19510.488495000001
 31
0.0
  0
LINE
  5
11CD4
  8
0-1
  6
CONTINUOUS
 62
     3
 10
11326.45034147669
 20
17003.22245462946
 30
0.0
 11
11326.45034147669
 21
19510.488495000001
 31
0.0
  0
LINE
  5
11CD5
  8
0-1
  6
CONTINUOUS
 62
     3
 10
11363.45051347669
 20
16988.006917969789
 30
0.0
 11
11363.45051347669
 21
19510.488495000001
 31
0.0
  0
LINE
  5
11CD6
  8
0-1
  6
CONTINUOUS
 62
     3
 10
11526.451001476689
 20
16920.976421443698
 30
0.0
 11
11526.45100147668
 21
19510.488495000001
 31
0.0
  0
LINE
  5
11CD7
  8
0-1
  6
CONTINUOUS
 62
     3
 10
11563.451173476709
 20
16905.760884784031
 30
0.0
 11
11563.451173476689
 21
19510.488495000001
 31
0.0
  0
LINE
  5
11CD8
  8
0-1
  6
CONTINUOUS
 62
     3
 10
11726.4516614767
 20
16838.730388257951
 30
0.0
 11
11726.451661476711
 21
19510.488495000001
 31
0.0
  0
LINE
  5
11CD9
  8
0-1
  6
CONTINUOUS
 62
     3
 10
11763.451833476711
 20
16823.514851598251
 30
0.0
 11
11763.451833476711
 21
19510.488495000001
 31
0.0
  0
LINE
  5
11CDA
  8
2-0
  6
DASHED3
 62
     6
 10
11831.604217243321
 20
16795.488627999988
 30
0.0
 11
12273.94163047658
 21
16795.488627999988
 31
0.0
  0
LINE
  5
11CDB
  8
2-0
  6
DASHED3
 62
     6
 10
12050.467217738111
 20
16705.485856999989
 30
0.0
 11
12273.94163047658
 21
16705.485856999989
 31
0.0
  0
LINE
  5
11CDC
  8
0-1
  6
CONTINUOUS
 62
     3
 10
9473.9416304765837
 20
16705.485856999989
 30
0.0
 11
12050.467217738111
 21
16705.485856999989
 31
0.0
  0
LINE
  5
11CDD
  8
0-1
  6
CONTINUOUS
 62
     3
 10
9473.9416304765837
 20
16795.488627999999
 30
0.0
 11
11831.604217243321
 21
16795.488627999988
 31
0.0
  0
LINE
  5
11CDE
  8
0-1
  6
CONTINUOUS
 62
     3
 10
9473.9416304765837
 20
15336.487638000021
 30
0.0
 11
12273.94163047658
 21
15336.487638000021
 31
0.0
  0
LINE
  5
11CDF
  8
0-1
  6
CONTINUOUS
 62
     3
 10
9473.9416304765837
 20
15246.485856000019
 30
0.0
 11
12273.94163047658
 21
15246.485856000019
 31
0.0
  0
LINE
  5
11CE0
  8
2-0
  6
DASHED3
 62
     6
 10
12273.94163047658
 20
18164.485855999999
 30
0.0
 11
9473.9416304765782
 21
18164.485855999999
 31
0.0
  0
LINE
  5
11CE1
  8
2-0
  6
DASHED3
 62
     6
 10
12273.94163047658
 20
18254.488626999999
 30
0.0
 11
9473.9416304765782
 21
18254.488626999999
 31
0.0
  0
LINE
  5
11CE2
  8
0-1
  6
CONTINUOUS
 62
     3
 10
12094.44199947659
 20
15291.48625200001
 30
0.0
 11
9642.9428844765953
 21
13832.48625200001
 31
0.0
  0
LINE
  5
11CE3
  8
0-1
  6
CONTINUOUS
 62
     3
 10
9642.9428844765953
 20
16750.486251999992
 30
0.0
 11
12094.44199947659
 21
15291.48625200001
 31
0.0
  0
LINE
  5
11CE4
  8
0-1
  6
CONTINUOUS
 62
     3
 10
9642.9428844765916
 20
15291.48625200001
 30
0.0
 11
12031.757511744419
 21
16713.179827110162
 31
0.0
  0
LINE
  5
11CE5
  8
0-1
  6
CONTINUOUS
 62
     3
 10
12094.44199947659
 20
13832.48625200001
 30
0.0
 11
9642.9428844765916
 21
15291.48625200001
 31
0.0
  0
LINE
  5
11CE6
  8
0-6
  6
CONTINUOUS
 62
     6
 10
12220.94199947659
 20
14298.52086206411
 30
0.0
 11
11321.504590053821
 21
12808.48600099999
 31
0.0
  0
LINE
  5
11CE7
  8
2-0
  6
DASHED3
 62
     6
 10
9642.9428844765916
 20
18209.48625200001
 30
0.0
 11
12094.44199947659
 21
16750.486251999992
 31
0.0
  0
LINE
  5
11CE8
  8
2-0
  6
DASHED3
 62
     6
 10
12094.44199947659
 20
18209.48625200001
 30
0.0
 11
10482.920507729439
 21
17250.395611472039
 31
0.0
  0
LINE
  5
11CE9
  8
0-1
  6
CONTINUOUS
 62
     3
 10
10482.920507729439
 20
17250.395611472039
 30
0.0
 11
9642.9428844765953
 21
16750.486251999992
 31
0.0
  0
LINE
  5
11CEA
  8
2-0
  6
DASHED3
 62
     6
 10
12094.44199947659
 20
19317.986251999992
 30
0.0
 11
9642.9428844765916
 21
18209.48625200001
 31
0.0
  0
LINE
  5
11CEB
  8
2-0
  6
DASHED3
 62
     6
 10
9642.9428844765953
 20
19317.986251999992
 30
0.0
 11
12094.44199947659
 21
18209.48625200001
 31
0.0
  0
LINE
  5
11CEC
  8
0-6
  6
CONTINUOUS
 62
     6
 10
5234.0814808595396
 20
18088.215761138981
 30
0.0
 11
6921.2374540387173
 21
17696.726770879792
 31
0.0
  0
LINE
  5
11CED
  8
0-6
  6
CONTINUOUS
 62
     6
 10
6921.2374540387173
 20
17696.726770879792
 30
0.0
 11
7272.3291852355396
 21
18164.485856000021
 31
0.0
  0
LINE
  5
11CEE
  8
0-1
  6
CONTINUOUS
 62
     3
 10
9882.7395460614607
 20
17603.191004339282
 30
0.0
 11
9978.0935663849814
 21
17834.291987445478
 31
0.0
  0
LINE
  5
11CEF
  8
0-1
  6
CONTINUOUS
 62
     3
 10
10711.793098568191
 20
16985.67543628786
 30
0.0
 11
10807.14374824571
 21
17216.77928799433
 31
0.0
  0
LINE
  5
11CF0
  8
0-1
  6
CONTINUOUS
 62
     3
 10
10711.793098568191
 20
16985.67543628786
 30
0.0
 11
9978.0935663849814
 21
17834.291987445478
 31
0.0
  0
LINE
  5
11CF1
  8
0-1
  6
CONTINUOUS
 62
     3
 10
10807.14268946686
 20
17216.776721804479
 30
0.0
 11
12653.00244898217
 21
16457.70601155105
 31
0.0
  0
TEXT
  5
11CF2
  8
2-0
  6
CONTINUOUS
 62
     7
 10
21935.765181876552
 20
11251.104441999991
 30
0.0
 40
160.0
  1
平　面　図
 72
     4
 11
22389.09851520988
 21
11325.77110866666
 31
0.0
  0
TEXT
  5
11CF3
  8
2-0
  6
CONTINUOUS
 62
     7
 10
8012.9000086175347
 20
11156.81700299998
 30
0.0
 40
160.0
  1
小 屋 伏 図
 72
     4
 11
8514.2333419508686
 21
11236.81700299998
 31
0.0
  0
TEXT
  5
11CF4
  8
2-0
  6
CONTINUOUS
 62
     7
 10
23740.5907003475
 20
11272.96647766667
 30
0.0
 40
160.0
  1
1
 72
     4
 11
23767.257367014168
 21
11352.96647766667
 31
0.0
  0
TEXT
  5
11CF5
  8
2-0
  6
CONTINUOUS
 62
     7
 10
23983.6794175982
 20
11192.967945666671
 30
0.0
 40
160.0
  1
80
 72
     4
 11
24103.6794175982
 21
11272.967945666671
 31
0.0
  0
TEXT
  5
11CF6
  8
2-0
  6
CONTINUOUS
 62
     7
 10
23241.592666347511
 20
11245.77110866666
 30
0.0
 40
160.0
  1
(S=  /   )
 72
     4
 11
23801.592666347511
 21
11325.77110866666
 31
0.0
  0
TEXT
  5
11CF7
  8
2-0
  6
CONTINUOUS
 62
     7
 10
9865.7255270884998
 20
11184.012371999979
 30
0.0
 40
160.0
  1
1
 72
     4
 11
9892.3921937551622
 21
11264.012371999979
 31
0.0
  0
TEXT
  5
11CF8
  8
2-0
  6
CONTINUOUS
 62
     7
 10
10108.81424433919
 20
11104.01383999998
 30
0.0
 40
160.0
  1
80
 72
     4
 11
10228.81424433919
 21
11184.01383999998
 31
0.0
  0
TEXT
  5
11CF9
  8
2-0
  6
CONTINUOUS
 62
     7
 10
9366.7274930884923
 20
11156.81700299998
 30
0.0
 40
160.0
  1
(S=  /   )
 72
     4
 11
9926.7274930884923
 21
11236.81700299998
 31
0.0
  0
LINE
  5
11CFA
  8
2-0
  6
DASHED3
 62
     6
 10
12031.757511744419
 20
16713.179827110162
 30
0.0
 11
12094.44199947659
 21
16750.486251999992
 31
0.0
  0
LINE
  5
11CFB
  8
0-6
  6
CONTINUOUS
 62
     6
 10
3239.6373288595291
 20
15131.817388473881
 30
0.0
 11
5234.0814808595396
 21
15131.817388473881
 31
0.0
  0
TEXT
  5
11CFC
  8
0-6
  6
CONTINUOUS
 62
     7
 10
3303.669696553834
 20
15227.868876363211
 30
0.0
 40
160.0
  1
桁中B +  桁中補強B
 72
     4
 11
4237.0030298871679
 21
15307.868876363211
 31
0.0
  0
LINE
  5
11CFD
  8
0-6
  6
CONTINUOUS
 62
     6
 10
5234.0814808595396
 20
15131.817388473881
 30
0.0
 11
6849.6887366383662
 21
14645.00412931599
 31
0.0
  0
LINE
  5
11CFE
  8
0-6
  6
CONTINUOUS
 62
     6
 10
6849.6887366383662
 20
14645.00412931599
 30
0.0
 11
7272.3291852355396
 21
15208.087483334901
 31
0.0
  0
LINE
  5
11CFF
  8
0-6
  6
CONTINUOUS
 62
     6
 10
5271.6051728318453
 20
17103.270314344409
 30
0.0
 11
7185.240956702577
 21
16276.676348604609
 31
0.0
  0
LINE
  5
11D00
  8
0-6
  6
CONTINUOUS
 62
     6
 10
7185.240956702577
 20
16276.676348604609
 30
0.0
 11
7442.8653274936132
 21
16694.98542100003
 31
0.0
  0
LINE
  5
11D06
  8
0-1
  6
CONTINUOUS
 62
     3
 10
19816.006397585181
 20
8132.6883740000021
 30
0.0
 11
22649.009828585142
 21
8132.6883740000021
 31
0.0
  0
LINE
  5
11D07
  8
0-1
  6
CONTINUOUS
 62
     3
 10
19816.006397585181
 20
8326.1887430000024
 30
0.0
 11
22649.009828585142
 21
8326.1887430000024
 31
0.0
  0
LINE
  5
11D08
  8
0-1
  6
CONTINUOUS
 62
     3
 10
19688.010092585158
 20
8264.0026619999971
 30
0.0
 11
19688.010092585158
 21
8589.6883999999973
 31
0.0
  0
LINE
  5
11D09
  8
0-1
  6
CONTINUOUS
 62
     3
 10
22734.008377585149
 20
8459.6884660000014
 30
0.0
 11
19688.010092585158
 21
8459.6884660000014
 31
0.0
  0
LINE
  5
11D0A
  8
0-1
  6
CONTINUOUS
 62
     3
 10
19688.010092585158
 20
8589.6883999999973
 30
0.0
 11
22714.01128058515
 21
8589.6883999999973
 31
0.0
  0
LINE
  5
11D0B
  8
0-1
  6
CONTINUOUS
 62
     3
 10
7680.7332144709544
 20
8152.2344180000064
 30
0.0
 11
7680.7332144709544
 21
6291.1885390000007
 31
0.0
  0
LINE
  5
11D0C
  8
0-1
  6
CONTINUOUS
 62
     3
 10
7643.7350224709498
 20
8152.2344180000064
 30
0.0
 11
7643.7350224709498
 21
6291.1885390000007
 31
0.0
  0
LINE
  5
11D0D
  8
0-1
  6
CONTINUOUS
 62
     3
 10
8380.7325544709438
 20
8152.2344180000064
 30
0.0
 11
8380.7325544709438
 21
6291.1885390000007
 31
0.0
  0
LINE
  5
11D0E
  8
0-1
  6
CONTINUOUS
 62
     3
 10
8343.7343624709429
 20
8152.2344180000064
 30
0.0
 11
8343.7343624709429
 21
6291.1885390000007
 31
0.0
  0
LINE
  5
11D0F
  8
0-1
  6
CONTINUOUS
 62
     3
 10
8002.2327654709406
 20
6291.1885390000007
 30
0.0
 11
8002.2327654709406
 21
8152.2344180000064
 31
0.0
  0
LINE
  5
11D10
  8
0-1
  6
CONTINUOUS
 62
     3
 10
8022.2338214709553
 20
6291.1885390000007
 30
0.0
 11
8022.2338214709553
 21
8152.2344180000064
 31
0.0
  0
LINE
  5
11D11
  8
0-1
  6
CONTINUOUS
 62
     3
 10
7952.234085470951
 20
6291.1885390000007
 30
0.0
 11
7952.234085470951
 21
8152.2344180000064
 31
0.0
  0
LINE
  5
11D12
  8
0-1
  6
CONTINUOUS
 62
     3
 10
8072.2334914709509
 20
6291.1885390000007
 30
0.0
 11
8072.2334914709509
 21
8152.2344180000064
 31
0.0
  0
LINE
  5
11D13
  8
0-1
  6
CONTINUOUS
 62
     3
 10
8205.2333854709432
 20
6291.1885390000007
 30
0.0
 11
8205.2333854709432
 21
8152.2344180000064
 31
0.0
  0
LINE
  5
11D14
  8
0-1
  6
CONTINUOUS
 62
     3
 10
8220.2331874709525
 20
6291.1885390000007
 30
0.0
 11
8220.2331874709525
 21
8152.2344180000064
 31
0.0
  0
LINE
  5
11D15
  8
0-1
  6
CONTINUOUS
 62
     3
 10
7819.2332004709469
 20
6291.1885390000007
 30
0.0
 11
7819.2332004709469
 21
8152.2344180000064
 31
0.0
  0
LINE
  5
11D16
  8
0-1
  6
CONTINUOUS
 62
     3
 10
7804.234388470948
 20
6291.1885390000007
 30
0.0
 11
7804.234388470948
 21
8152.2344180000064
 31
0.0
  0
LINE
  5
11D17
  8
0-1
  6
CONTINUOUS
 62
     3
 10
7520.2338474709468
 20
6291.1885390000007
 30
0.0
 11
7520.2338474709468
 21
8152.2344180000064
 31
0.0
  0
LINE
  5
11D18
  8
0-1
  6
CONTINUOUS
 62
     3
 10
7505.2330554709488
 20
6291.1885390000007
 30
0.0
 11
7505.2330554709488
 21
8152.2344180000064
 31
0.0
  0
LINE
  5
11D19
  8
0-1
  6
CONTINUOUS
 62
     3
 10
7372.2341514709442
 20
6291.1885390000007
 30
0.0
 11
7372.2341514709442
 21
8152.2344180000064
 31
0.0
  0
LINE
  5
11D1A
  8
0-1
  6
CONTINUOUS
 62
     3
 10
7252.232765470947
 20
6291.1885390000007
 30
0.0
 11
7252.232765470947
 21
8152.2344180000064
 31
0.0
  0
LINE
  5
11D1B
  8
0-1
  6
CONTINUOUS
 62
     3
 10
7322.2354704709542
 20
6291.1885390000007
 30
0.0
 11
7322.2354704709542
 21
8152.2344180000064
 31
0.0
  0
LINE
  5
11D1C
  8
0-1
  6
CONTINUOUS
 62
     3
 10
7302.2344154709544
 20
6291.1885390000007
 30
0.0
 11
7302.2344154709544
 21
8152.2344180000064
 31
0.0
  0
LINE
  5
11D1D
  8
0-1
  6
CONTINUOUS
 62
     3
 10
8504.2327394709464
 20
6291.1885390000007
 30
0.0
 11
8504.2327394709464
 21
8152.2344180000064
 31
0.0
  0
LINE
  5
11D1E
  8
0-1
  6
CONTINUOUS
 62
     3
 10
8519.2335304709541
 20
6291.1885390000007
 30
0.0
 11
8519.2335304709541
 21
8152.2344180000064
 31
0.0
  0
LINE
  5
11D1F
  8
0-1
  6
CONTINUOUS
 62
     3
 10
8652.2344154709554
 20
6291.1885390000007
 30
0.0
 11
8652.2344154709554
 21
8152.2344180000064
 31
0.0
  0
LINE
  5
11D20
  8
0-1
  6
CONTINUOUS
 62
     3
 10
8920.2335174709515
 20
6291.1885390000007
 30
0.0
 11
8920.2335174709515
 21
8152.2344180000064
 31
0.0
  0
LINE
  5
11D21
  8
0-1
  6
CONTINUOUS
 62
     3
 10
8905.2347054709517
 20
6291.1885390000007
 30
0.0
 11
8905.2347054709517
 21
8152.2344180000064
 31
0.0
  0
LINE
  5
11D22
  8
0-1
  6
CONTINUOUS
 62
     3
 10
8772.2338214709416
 20
6291.1885390000007
 30
0.0
 11
8772.2338214709416
 21
8152.2344180000064
 31
0.0
  0
LINE
  5
11D23
  8
0-1
  6
CONTINUOUS
 62
     3
 10
8722.2341514709442
 20
6291.1885390000007
 30
0.0
 11
8722.2341514709442
 21
8152.2344180000064
 31
0.0
  0
LINE
  5
11D24
  8
0-1
  6
CONTINUOUS
 62
     3
 10
8702.2350744709547
 20
6291.1885390000007
 30
0.0
 11
8702.2350744709547
 21
8152.2344180000064
 31
0.0
  0
LINE
  5
11D25
  8
0-1
  6
CONTINUOUS
 62
     3
 10
9530.2340454709465
 20
6291.1885390000007
 30
0.0
 11
9530.2340454709465
 21
8152.2344180000064
 31
0.0
  0
LINE
  5
11D26
  8
0-1
  6
CONTINUOUS
 62
     3
 10
9510.2349694709555
 20
6291.1885390000007
 30
0.0
 11
9510.2349694709555
 21
8152.2344180000064
 31
0.0
  0
LINE
  5
11D27
  8
0-1
  6
CONTINUOUS
 62
     3
 10
9580.2347054709426
 20
6291.1885390000007
 30
0.0
 11
9580.2347054709426
 21
8152.2344180000064
 31
0.0
  0
LINE
  5
11D28
  8
0-1
  6
CONTINUOUS
 62
     3
 10
9460.2343094709522
 20
6291.1885390000007
 30
0.0
 11
9460.2343094709522
 21
8152.2344180000064
 31
0.0
  0
LINE
  5
11D29
  8
0-1
  6
CONTINUOUS
 62
     3
 10
9327.2344154709444
 20
6291.1885390000007
 30
0.0
 11
9327.2344154709444
 21
8152.2344180000064
 31
0.0
  0
LINE
  5
11D2A
  8
0-1
  6
CONTINUOUS
 62
     3
 10
9312.2326334709396
 20
6291.1885390000007
 30
0.0
 11
9312.2326334709396
 21
8152.2344180000064
 31
0.0
  0
LINE
  5
11D2B
  8
0-1
  6
CONTINUOUS
 62
     3
 10
9713.2345994709522
 20
6291.1885390000007
 30
0.0
 11
9713.2345994709522
 21
8152.2344180000064
 31
0.0
  0
LINE
  5
11D2C
  8
0-1
  6
CONTINUOUS
 62
     3
 10
9728.2334124709523
 20
6291.1885390000007
 30
0.0
 11
9728.2334124709523
 21
8152.2344180000064
 31
0.0
  0
LINE
  5
11D2D
  8
0-1
  6
CONTINUOUS
 62
     3
 10
11412.233623470929
 20
6291.1885390000007
 30
0.0
 11
11412.233623470929
 21
8152.2344180000064
 31
0.0
  0
LINE
  5
11D2E
  8
0-1
  6
CONTINUOUS
 62
     3
 10
11427.23342547094
 20
6291.1885390000007
 30
0.0
 11
11427.23342547094
 21
8152.2344180000064
 31
0.0
  0
LINE
  5
11D2F
  8
0-1
  6
CONTINUOUS
 62
     3
 10
11560.23430947095
 20
6291.1885390000007
 30
0.0
 11
11560.23430947095
 21
8152.2344180000064
 31
0.0
  0
LINE
  5
11D30
  8
0-1
  6
CONTINUOUS
 62
     3
 10
11680.23371547094
 20
6291.1885390000007
 30
0.0
 11
11680.23371547094
 21
8152.2344180000064
 31
0.0
  0
LINE
  5
11D31
  8
0-1
  6
CONTINUOUS
 62
     3
 10
11610.23496947095
 20
6291.1885390000007
 30
0.0
 11
11610.23496947095
 21
8152.2344180000064
 31
0.0
  0
LINE
  5
11D32
  8
0-1
  6
CONTINUOUS
 62
     3
 10
11630.23404547095
 20
6291.1885390000007
 30
0.0
 11
11630.23404547095
 21
8152.2344180000064
 31
0.0
  0
LINE
  5
11D33
  8
0-1
  6
CONTINUOUS
 62
     3
 10
10930.23470547095
 20
6291.1885390000007
 30
0.0
 11
10930.23470547095
 21
8152.2344180000064
 31
0.0
  0
LINE
  5
11D34
  8
0-1
  6
CONTINUOUS
 62
     3
 10
10910.233649470951
 20
6291.1885390000007
 30
0.0
 11
10910.233649470951
 21
8152.2344180000064
 31
0.0
  0
LINE
  5
11D35
  8
0-1
  6
CONTINUOUS
 62
     3
 10
10980.23338547094
 20
6291.1885390000007
 30
0.0
 11
10980.23338547094
 21
8152.2344180000064
 31
0.0
  0
LINE
  5
11D36
  8
0-1
  6
CONTINUOUS
 62
     3
 10
10860.234969470939
 20
6291.1885390000007
 30
0.0
 11
10860.234969470939
 21
8152.2344180000064
 31
0.0
  0
LINE
  5
11D37
  8
0-1
  6
CONTINUOUS
 62
     3
 10
10727.23408547094
 20
6291.1885390000007
 30
0.0
 11
10727.23408547094
 21
8152.2344180000064
 31
0.0
  0
LINE
  5
11D38
  8
0-1
  6
CONTINUOUS
 62
     3
 10
10712.23428347094
 20
6291.1885390000007
 30
0.0
 11
10712.23428347094
 21
8152.2344180000064
 31
0.0
  0
LINE
  5
11D39
  8
0-1
  6
CONTINUOUS
 62
     3
 10
11113.232290470951
 20
6291.1885390000007
 30
0.0
 11
11113.232290470951
 21
8152.2344180000064
 31
0.0
  0
LINE
  5
11D3A
  8
0-1
  6
CONTINUOUS
 62
     3
 10
11128.23407147095
 20
6291.1885390000007
 30
0.0
 11
11128.23407147095
 21
8152.2344180000064
 31
0.0
  0
LINE
  5
11D3B
  8
0-1
  6
CONTINUOUS
 62
     3
 10
10428.23473147095
 20
6291.1885390000007
 30
0.0
 11
10428.23473147095
 21
8152.2344180000064
 31
0.0
  0
LINE
  5
11D3C
  8
0-1
  6
CONTINUOUS
 62
     3
 10
10413.232950470951
 20
6291.1885390000007
 30
0.0
 11
10413.232950470951
 21
8152.2344180000064
 31
0.0
  0
LINE
  5
11D3D
  8
0-1
  6
CONTINUOUS
 62
     3
 10
10012.23494247095
 20
6291.1885390000007
 30
0.0
 11
10012.23494247095
 21
8152.2344180000064
 31
0.0
  0
LINE
  5
11D3E
  8
0-1
  6
CONTINUOUS
 62
     3
 10
10027.23375547093
 20
6291.1885390000007
 30
0.0
 11
10027.23375547093
 21
8152.2344180000064
 31
0.0
  0
LINE
  5
11D3F
  8
0-1
  6
CONTINUOUS
 62
     3
 10
10160.23265947095
 20
6291.1885390000007
 30
0.0
 11
10160.23265947095
 21
8152.2344180000064
 31
0.0
  0
LINE
  5
11D40
  8
0-1
  6
CONTINUOUS
 62
     3
 10
10280.23404547095
 20
6291.1885390000007
 30
0.0
 11
10280.23404547095
 21
8152.2344180000064
 31
0.0
  0
LINE
  5
11D41
  8
0-1
  6
CONTINUOUS
 62
     3
 10
10210.234309470939
 20
6291.1885390000007
 30
0.0
 11
10210.234309470939
 21
8152.2344180000064
 31
0.0
  0
LINE
  5
11D42
  8
0-1
  6
CONTINUOUS
 62
     3
 10
10230.23338547095
 20
6291.1885390000007
 30
0.0
 11
10230.23338547095
 21
8152.2344180000064
 31
0.0
  0
LINE
  5
11D43
  8
0-1
  6
CONTINUOUS
 62
     3
 10
9888.7347584709532
 20
8152.2344180000064
 30
0.0
 11
9888.7347584709532
 21
6291.1885390000007
 31
0.0
  0
LINE
  5
11D44
  8
0-1
  6
CONTINUOUS
 62
     3
 10
9851.7335964709564
 20
8152.2344180000064
 30
0.0
 11
9851.7335964709564
 21
6291.1885390000007
 31
0.0
  0
LINE
  5
11D45
  8
0-1
  6
CONTINUOUS
 62
     3
 10
11288.73244847095
 20
8152.2344180000064
 30
0.0
 11
11288.73244847095
 21
6291.1885390000007
 31
0.0
  0
LINE
  5
11D46
  8
0-1
  6
CONTINUOUS
 62
     3
 10
11251.733266470939
 20
8152.2344180000064
 30
0.0
 11
11251.733266470939
 21
6291.1885390000007
 31
0.0
  0
LINE
  5
11D47
  8
0-1
  6
CONTINUOUS
 62
     3
 10
10588.734098470941
 20
8152.2344180000064
 30
0.0
 11
10588.734098470941
 21
6291.1885390000007
 31
0.0
  0
LINE
  5
11D48
  8
0-1
  6
CONTINUOUS
 62
     3
 10
10551.733926470941
 20
8152.2344180000064
 30
0.0
 11
10551.733926470941
 21
6291.1885390000007
 31
0.0
  0
LINE
  5
11D49
  8
0-1
  6
CONTINUOUS
 62
     3
 10
22741.50877358517
 20
6241.1883740000021
 30
0.0
 11
22641.509432585161
 21
6241.1883740000021
 31
0.0
  0
LINE
  5
11D4A
  8
0-1
  6
CONTINUOUS
 62
     3
 10
22641.509432585161
 20
6241.1883740000021
 30
0.0
 11
22641.509432585161
 21
6141.1885390000007
 31
0.0
  0
LINE
  5
11D4B
  8
0-1
  6
CONTINUOUS
 62
     3
 10
22741.50877358517
 20
6141.1885390000007
 30
0.0
 11
22741.50877358517
 21
6241.1883740000021
 31
0.0
  0
LINE
  5
11D4C
  8
0-1
  6
CONTINUOUS
 62
     3
 10
22649.009828585142
 20
8459.6884660000014
 30
0.0
 11
22649.009828585142
 21
6241.1883740000021
 31
0.0
  0
LINE
  5
11D4D
  8
0-1
  6
CONTINUOUS
 62
     3
 10
22597.510092585158
 20
8132.6883740000021
 30
0.0
 11
22597.510092585158
 21
6141.1885390000007
 31
0.0
  0
LINE
  5
11D4E
  8
0-1
  6
CONTINUOUS
 62
     3
 10
22714.01128058516
 20
8589.6883999999973
 30
0.0
 11
22714.01128058516
 21
6241.1883740000021
 31
0.0
  0
LINE
  5
11D4F
  8
0-1
  6
CONTINUOUS
 62
     3
 10
22734.010092585158
 20
8459.6884660000014
 30
0.0
 11
22734.010092585158
 21
6241.1883740000021
 31
0.0
  0
LINE
  5
11D50
  8
0-1
  6
CONTINUOUS
 62
     3
 10
19688.010092585158
 20
8264.0026619999971
 30
0.0
 11
19731.010092585158
 21
8264.0026619999971
 31
0.0
  0
LINE
  5
11D51
  8
0-1
  6
CONTINUOUS
 62
     3
 10
19723.50745358516
 20
6241.1883740000021
 30
0.0
 11
19823.506793585169
 21
6241.1883740000021
 31
0.0
  0
LINE
  5
11D52
  8
0-1
  6
CONTINUOUS
 62
     3
 10
19823.506793585169
 20
6241.1883740000021
 30
0.0
 11
19823.506793585169
 21
6141.1885390000007
 31
0.0
  0
LINE
  5
11D53
  8
0-1
  6
CONTINUOUS
 62
     3
 10
19723.50745358516
 20
6141.1885390000007
 30
0.0
 11
19723.50745358516
 21
6241.1883740000021
 31
0.0
  0
LINE
  5
11D54
  8
0-1
  6
CONTINUOUS
 62
     3
 10
19867.510092585158
 20
8132.6883740000021
 30
0.0
 11
19867.510092585158
 21
6141.1885390000007
 31
0.0
  0
LINE
  5
11D55
  8
0-1
  6
CONTINUOUS
 62
     3
 10
19816.006397585181
 20
8459.6884660000014
 30
0.0
 11
19816.006397585181
 21
6241.1883740000021
 31
0.0
  0
LINE
  5
11D56
  8
0-1
  6
CONTINUOUS
 62
     3
 10
19751.006925585149
 20
8589.6883999999973
 30
0.0
 11
19751.006925585149
 21
6241.1883740000021
 31
0.0
  0
LINE
  5
11D57
  8
0-1
  6
CONTINUOUS
 62
     3
 10
19731.010092585158
 20
8459.6884660000014
 30
0.0
 11
19731.010092585158
 21
6241.1883740000021
 31
0.0
  0
LINE
  5
11D58
  8
0-1
  6
CONTINUOUS
 62
     3
 10
12089.23357047094
 20
6241.1883740000021
 30
0.0
 11
12089.23357047094
 21
6141.1885390000007
 31
0.0
  0
LINE
  5
11D59
  8
0-1
  6
CONTINUOUS
 62
     3
 10
12056.73277947094
 20
8455.5174490000027
 30
0.0
 11
12056.73277947094
 21
6241.1883740000021
 31
0.0
  0
LINE
  5
11D5A
  8
0-1
  6
CONTINUOUS
 62
     3
 10
12076.73357047094
 20
8456.0984379999973
 30
0.0
 11
12076.73357047094
 21
6241.1883740000021
 31
0.0
  0
LINE
  5
11D5B
  8
0-1
  6
CONTINUOUS
 62
     3
 10
11961.73370247093
 20
8152.2344180000064
 30
0.0
 11
11961.73370247093
 21
6241.1883740000021
 31
0.0
  0
LINE
  5
11D5C
  8
0-1
  6
CONTINUOUS
 62
     3
 10
9116.233570470944
 20
8356.9898809999977
 30
0.0
 11
9116.233570470944
 21
8152.2344180000064
 31
0.0
  0
LINE
  5
11D5D
  8
0-1
  6
CONTINUOUS
 62
     3
 10
9043.7337024709523
 20
8152.2344180000064
 30
0.0
 11
9043.7337024709523
 21
6241.1883740000021
 31
0.0
  0
LINE
  5
11D5E
  8
0-1
  6
CONTINUOUS
 62
     3
 10
9188.7324484709425
 20
8152.2344180000064
 30
0.0
 11
9188.7324484709425
 21
6241.1883740000021
 31
0.0
  0
LINE
  5
11D5F
  8
0-1
  6
CONTINUOUS
 62
     3
 10
9188.7324484709425
 20
6291.1885390000007
 30
0.0
 11
11961.73370247093
 21
6291.1885390000007
 31
0.0
  0
LINE
  5
11D60
  8
0-1
  6
CONTINUOUS
 62
     3
 10
19867.510092585158
 20
6661.1892649999991
 30
0.0
 11
22597.510092585158
 21
6661.1892649999991
 31
0.0
  0
LINE
  5
11D61
  8
0-1
  6
CONTINUOUS
 62
     3
 10
19867.510092585158
 20
6596.1888030000027
 30
0.0
 11
22597.510092585158
 21
6596.1888030000027
 31
0.0
  0
LINE
  5
11D62
  8
0-1
  6
CONTINUOUS
 62
     3
 10
19867.510092585158
 20
6531.1888360000003
 30
0.0
 11
22597.510092585158
 21
6531.1888360000003
 31
0.0
  0
LINE
  5
11D63
  8
0-1
  6
CONTINUOUS
 62
     3
 10
19867.510092585158
 20
6466.1883740000039
 30
0.0
 11
22597.510092585158
 21
6466.1883740000039
 31
0.0
  0
LINE
  5
11D64
  8
0-1
  6
CONTINUOUS
 62
     3
 10
19867.510092585158
 20
6401.1889020000071
 30
0.0
 11
22597.510092585158
 21
6401.1889020000071
 31
0.0
  0
LINE
  5
11D65
  8
0-1
  6
CONTINUOUS
 62
     3
 10
19867.510092585158
 20
6336.1889349999956
 30
0.0
 11
22597.510092585158
 21
6336.1889349999956
 31
0.0
  0
LINE
  5
11D66
  8
0-1
  6
CONTINUOUS
 62
     3
 10
19867.510092585158
 20
6271.1889680000004
 30
0.0
 11
22597.510092585158
 21
6271.1889680000004
 31
0.0
  0
LINE
  5
11D67
  8
0-1
  6
CONTINUOUS
 62
     3
 10
19867.510092585158
 20
6206.1885060000041
 30
0.0
 11
22597.510092585158
 21
6206.1885060000041
 31
0.0
  0
LINE
  5
11D68
  8
0-1
  6
CONTINUOUS
 62
     3
 10
19867.510092585158
 20
8026.1885719999982
 30
0.0
 11
22597.510092585158
 21
8026.1885719999982
 31
0.0
  0
LINE
  5
11D69
  8
0-1
  6
CONTINUOUS
 62
     3
 10
19867.510092585158
 20
7961.1886050000021
 30
0.0
 11
22597.510092585158
 21
7961.1886050000021
 31
0.0
  0
LINE
  5
11D6A
  8
0-1
  6
CONTINUOUS
 62
     3
 10
19867.510092585158
 20
7896.1891330000062
 30
0.0
 11
22597.510092585158
 21
7896.1891330000062
 31
0.0
  0
LINE
  5
11D6B
  8
0-1
  6
CONTINUOUS
 62
     3
 10
19867.510092585158
 20
7831.1891659999937
 30
0.0
 11
22597.510092585158
 21
7831.1891659999937
 31
0.0
  0
LINE
  5
11D6C
  8
0-1
  6
CONTINUOUS
 62
     3
 10
19867.510092585158
 20
7766.1891989999967
 30
0.0
 11
22597.510092585158
 21
7766.1891989999967
 31
0.0
  0
LINE
  5
11D6D
  8
0-1
  6
CONTINUOUS
 62
     3
 10
19867.510092585158
 20
7701.1887370000022
 30
0.0
 11
22597.510092585158
 21
7701.1887370000022
 31
0.0
  0
LINE
  5
11D6E
  8
0-1
  6
CONTINUOUS
 62
     3
 10
19867.510092585158
 20
7636.1887699999979
 30
0.0
 11
22597.510092585158
 21
7636.1887699999979
 31
0.0
  0
LINE
  5
11D6F
  8
0-1
  6
CONTINUOUS
 62
     3
 10
19867.510092585158
 20
7571.1892980000011
 30
0.0
 11
22597.510092585158
 21
7571.1892980000011
 31
0.0
  0
LINE
  5
11D70
  8
0-1
  6
CONTINUOUS
 62
     3
 10
19867.510092585158
 20
7506.1893309999978
 30
0.0
 11
22597.510092585158
 21
7506.1893309999978
 31
0.0
  0
LINE
  5
11D71
  8
0-1
  6
CONTINUOUS
 62
     3
 10
19867.510092585158
 20
7441.1888690000023
 30
0.0
 11
22597.510092585158
 21
7441.1888690000023
 31
0.0
  0
LINE
  5
11D72
  8
0-1
  6
CONTINUOUS
 62
     3
 10
19867.510092585158
 20
7376.188901999999
 30
0.0
 11
22597.510092585158
 21
7376.188901999999
 31
0.0
  0
LINE
  5
11D73
  8
0-1
  6
CONTINUOUS
 62
     3
 10
19867.510092585158
 20
7311.1889350000029
 30
0.0
 11
22597.510092585158
 21
7311.1889350000029
 31
0.0
  0
LINE
  5
11D74
  8
0-1
  6
CONTINUOUS
 62
     3
 10
19867.510092585158
 20
7246.1884730000029
 30
0.0
 11
22597.510092585158
 21
7246.1884730000029
 31
0.0
  0
LINE
  5
11D75
  8
0-1
  6
CONTINUOUS
 62
     3
 10
19867.510092585158
 20
7181.1885060000041
 30
0.0
 11
22597.510092585158
 21
7181.1885060000041
 31
0.0
  0
LINE
  5
11D76
  8
0-1
  6
CONTINUOUS
 62
     3
 10
19867.510092585158
 20
7116.1890340000009
 30
0.0
 11
22597.510092585158
 21
7116.1890340000009
 31
0.0
  0
LINE
  5
11D77
  8
0-1
  6
CONTINUOUS
 62
     3
 10
19867.510092585158
 20
7051.1890669999966
 30
0.0
 11
22597.510092585158
 21
7051.1890669999966
 31
0.0
  0
LINE
  5
11D78
  8
0-1
  6
CONTINUOUS
 62
     3
 10
19867.510092585158
 20
6986.1891000000032
 30
0.0
 11
22597.510092585158
 21
6986.1891000000032
 31
0.0
  0
LINE
  5
11D79
  8
0-1
  6
CONTINUOUS
 62
     3
 10
19867.510092585158
 20
6921.1886380000051
 30
0.0
 11
22597.510092585158
 21
6921.1886380000051
 31
0.0
  0
LINE
  5
11D7A
  8
0-1
  6
CONTINUOUS
 62
     3
 10
19867.510092585158
 20
6856.1886710000017
 30
0.0
 11
22597.510092585158
 21
6856.1886710000017
 31
0.0
  0
LINE
  5
11D7B
  8
0-1
  6
CONTINUOUS
 62
     3
 10
19867.510092585158
 20
6791.1891989999967
 30
0.0
 11
22597.510092585158
 21
6791.1891989999967
 31
0.0
  0
LINE
  5
11D7C
  8
0-1
  6
CONTINUOUS
 62
     3
 10
19867.510092585158
 20
6726.1892320000024
 30
0.0
 11
22597.510092585158
 21
6726.1892320000024
 31
0.0
  0
LINE
  5
11D7D
  8
0-1
  6
CONTINUOUS
 62
     3
 10
19867.510092585158
 20
8080.6485920000023
 30
0.0
 11
22597.510092585158
 21
8080.6485920000023
 31
0.0
  0
LINE
  5
11D7E
  8
0-1
  6
CONTINUOUS
 62
     3
 10
19723.50745358516
 20
6141.1885390000007
 30
0.0
 11
26102.988468710359
 21
6141.1885390000007
 31
0.0
  0
LINE
  5
11D7F
  8
0-1
  6
CONTINUOUS
 62
     3
 10
6498.7335704709431
 20
6141.1885390000007
 30
0.0
 11
6498.7335704709431
 21
6241.1883740000021
 31
0.0
  0
LINE
  5
11D80
  8
0-1
  6
CONTINUOUS
 62
     3
 10
6526.2333724709461
 20
8268.990877000002
 30
0.0
 11
6526.2333724709461
 21
6241.1883740000021
 31
0.0
  0
LINE
  5
11D81
  8
0-1
  6
CONTINUOUS
 62
     3
 10
6506.233570470944
 20
8268.3741496838102
 30
0.0
 11
6506.233570470944
 21
6241.1883740000021
 31
0.0
  0
LINE
  5
11D82
  8
0-1
  6
CONTINUOUS
 62
     3
 10
6498.7335704709431
 20
6241.1883740000021
 30
0.0
 11
12089.23357047094
 21
6241.1883740000021
 31
0.0
  0
LINE
  5
11D83
  8
0-1
  6
CONTINUOUS
 62
     3
 10
6621.232449470951
 20
6291.1885390000007
 30
0.0
 11
9043.7337024709523
 21
6291.1885390000007
 31
0.0
  0
LINE
  5
11D84
  8
0-1
  6
CONTINUOUS
 62
     3
 10
5816.2325154709433
 20
6141.1885390000007
 30
0.0
 11
12089.23357047094
 21
6141.1885390000007
 31
0.0
  0
LINE
  5
11D85
  8
0-1
  6
CONTINUOUS
 62
     3
 10
6526.2333724709461
 20
8152.2344180000064
 30
0.0
 11
12056.73277947094
 21
8152.2344180000064
 31
0.0
  0
LINE
  5
11D86
  8
0-1
  6
CONTINUOUS
 62
     3
 10
19842.00935358517
 20
8335.1891200000064
 30
0.0
 11
20119.438883585171
 21
8335.1891200000064
 31
0.0
  0
LINE
  5
11D87
  8
0-1
  6
CONTINUOUS
 62
     3
 10
19842.00935358517
 20
8377.1885650000022
 30
0.0
 11
20151.435821585172
 21
8377.1885650000022
 31
0.0
  0
LINE
  5
11D88
  8
0-1
  6
CONTINUOUS
 62
     3
 10
19837.009090585161
 20
8340.1888889999937
 30
0.0
 11
19837.009090585161
 21
8372.1892910000006
 31
0.0
  0
LINE
  5
11D89
  8
0-1
  6
CONTINUOUS
 62
     3
 10
19816.006397585181
 20
8386.1884470000077
 30
0.0
 11
22649.009828585142
 21
8386.1884470000077
 31
0.0
  0
LINE
  5
11D8A
  8
0-1
  6
CONTINUOUS
 62
     3
 10
20122.97232358516
 20
8336.6529740000005
 30
0.0
 11
20154.973221585169
 21
8368.653376000002
 31
0.0
  0
LINE
  5
11D8B
  8
0-1
  6
CONTINUOUS
 62
     3
 10
19837.009090585161
 20
8368.7889730000006
 30
0.0
 11
20155.101889585148
 21
8368.7889730000006
 31
0.0
  0
LINE
  5
11D8C
  8
0-1
  6
CONTINUOUS
 62
     3
 10
19837.009090585161
 20
8360.3888860000006
 30
0.0
 11
20146.708731585171
 21
8360.3888860000006
 31
0.0
  0
LINE
  5
11D8D
  8
0-1
  6
CONTINUOUS
 62
     3
 10
19837.009090585161
 20
8351.9892939999972
 30
0.0
 11
20138.309633585159
 21
8351.9892939999972
 31
0.0
  0
LINE
  5
11D8E
  8
0-1
  6
CONTINUOUS
 62
     3
 10
19837.009090585161
 20
8343.5892070000027
 30
0.0
 11
20129.906577585181
 21
8343.5892070000027
 31
0.0
  0
LINE
  5
11D8F
  8
0-1
  6
CONTINUOUS
 62
     3
 10
22628.00911658517
 20
8368.7889730000006
 30
0.0
 11
22309.916316585161
 21
8368.7889730000006
 31
0.0
  0
LINE
  5
11D90
  8
0-1
  6
CONTINUOUS
 62
     3
 10
22628.00911658517
 20
8360.3888860000006
 30
0.0
 11
22318.311454585171
 21
8360.3888860000006
 31
0.0
  0
LINE
  5
11D91
  8
0-1
  6
CONTINUOUS
 62
     3
 10
22628.00911658517
 20
8351.9892939999972
 30
0.0
 11
22326.710551585151
 21
8351.9892939999972
 31
0.0
  0
LINE
  5
11D92
  8
0-1
  6
CONTINUOUS
 62
     3
 10
22628.00911658517
 20
8343.5892070000027
 30
0.0
 11
22335.10964958516
 21
8343.5892070000027
 31
0.0
  0
LINE
  5
11D93
  8
0-1
  6
CONTINUOUS
 62
     3
 10
22623.008852585161
 20
8377.1885650000022
 30
0.0
 11
22313.582384585141
 21
8377.1885650000022
 31
0.0
  0
LINE
  5
11D94
  8
0-1
  6
CONTINUOUS
 62
     3
 10
22623.008852585161
 20
8335.1891200000064
 30
0.0
 11
22345.57932358516
 21
8335.1891200000064
 31
0.0
  0
LINE
  5
11D95
  8
0-1
  6
CONTINUOUS
 62
     3
 10
22628.00911658517
 20
8340.1888889999937
 30
0.0
 11
22628.00911658517
 21
8372.1892910000006
 31
0.0
  0
LINE
  5
11D96
  8
0-1
  6
CONTINUOUS
 62
     3
 10
22342.043902585159
 20
8336.6529740000005
 30
0.0
 11
22310.04696458517
 21
8368.653376000002
 31
0.0
  0
LINE
  5
11D97
  8
0-1
  6
CONTINUOUS
 62
     3
 10
6331.9317464709457
 20
8303.1736990000027
 30
0.0
 11
12162.42323547094
 21
8498.6897600000066
 31
0.0
  0
LINE
  5
11D98
  8
0-1
  6
CONTINUOUS
 62
     3
 10
12160.922760470939
 20
8548.6686450000016
 30
0.0
 11
6330.4322614709417
 21
8353.151595000003
 31
0.0
  0
LINE
  5
11D99
  8
0-1
  6
CONTINUOUS
 62
     3
 10
6327.3422334709494
 20
8356.0604969999968
 30
0.0
 11
6326.382166470944
 21
8388.0460529999982
 31
0.0
  0
LINE
  5
11D9A
  8
0-1
  6
CONTINUOUS
 62
     3
 10
6331.230997470946
 20
8393.1932959999976
 30
0.0
 11
12180.69221247094
 21
8589.2804480000032
 31
0.0
  0
LINE
  5
11D9B
  8
0-1
  6
CONTINUOUS
 62
     3
 10
12184.59681247094
 20
8459.338910000004
 30
0.0
 11
6335.1316384709462
 21
8263.2522529999969
 31
0.0
  0
LINE
  5
11D9C
  8
0-1
  6
CONTINUOUS
 62
     3
 10
6329.9839004709474
 20
8268.099599000001
 30
0.0
 11
6329.024823470947
 21
8300.0856499999973
 31
0.0
  0
LINE
  5
11D9D
  8
0-1
  6
CONTINUOUS
 62
     3
 10
6328.6932544709452
 20
8311.0803909999977
 30
0.0
 11
6327.6728124709434
 21
8345.0647660000086
 31
0.0
  0
LINE
  5
11D9E
  8
0-1
  6
CONTINUOUS
 62
     3
 10
6330.5817154709484
 20
8348.1538049999999
 30
0.0
 11
12161.074193470929
 21
8543.6713500000023
 31
0.0
  0
LINE
  5
11D9F
  8
0-1
  6
CONTINUOUS
 62
     3
 10
12162.27378147094
 20
8503.6880440000004
 30
0.0
 11
6331.7832834709443
 21
8308.1719839999969
 31
0.0
  0
LINE
  5
11DA0
  8
0-1
  6
CONTINUOUS
 62
     3
 10
9116.233570470944
 20
8356.9898809999977
 30
0.0
 11
9112.3309494709483
 21
8486.9314189999968
 31
0.0
  0
LINE
  5
11DA1
  8
0-1
  6
CONTINUOUS
 62
     3
 10
12151.62991047094
 20
8458.3481610000017
 30
0.0
 11
12147.728279470941
 21
8588.2896989999972
 31
0.0
  0
LINE
  5
11DA2
  8
0-1
  6
CONTINUOUS
 62
     3
 10
6343.7237394709446
 20
8393.5684149999979
 30
0.0
 11
6347.6263604709457
 21
8263.6273720000008
 31
0.0
  0
LINE
  5
11DA3
  8
0-2
  6
CONTINUOUS
 62
     4
 10
21596.198133085159
 20
6888.415233000007
 30
0.0
 11
21496.198793085161
 21
6888.415233000007
 31
0.0
  0
LINE
  5
11DA4
  8
0-2
  6
CONTINUOUS
 62
     4
 10
20868.814133085161
 20
6888.415233000007
 30
0.0
 11
20968.813473085149
 21
6888.415233000007
 31
0.0
  0
LINE
  5
11DA5
  8
0-5
  6
CONTINUOUS
 62
     4
 10
22691.510092585158
 20
4461.1889349999938
 30
0.0
 11
22691.510092585158
 21
4301.1893970000001
 31
0.0
  0
LINE
  5
11DA6
  8
0-5
  6
CONTINUOUS
 62
     4
 10
17551.63707258517
 20
6349.0350210000024
 30
0.0
 11
17671.635488585162
 21
6141.1885390000007
 31
0.0
  0
LINE
  5
11DA7
  8
0-5
  6
CONTINUOUS
 62
     4
 10
13794.318558470941
 20
6241.1883740000021
 30
0.0
 11
13914.31895447094
 21
6449.0353509999959
 31
0.0
  0
LINE
  5
11DA8
  8
0-5
  6
CONTINUOUS
 62
     4
 10
13674.32014147094
 20
6449.0353509999959
 30
0.0
 11
13794.318558470941
 21
6241.1883740000021
 31
0.0
  0
LINE
  5
11DA9
  8
0-5
  6
CONTINUOUS
 62
     4
 10
13914.31895447094
 20
6449.0353509999959
 30
0.0
 11
13674.32014147094
 21
6449.0353509999959
 31
0.0
  0
LINE
  5
11DAA
  8
0-5
  6
CONTINUOUS
 62
     4
 10
12169.23086547093
 20
6241.1883740000021
 30
0.0
 11
13886.69675147093
 21
6241.1883740000021
 31
0.0
  0
LINE
  5
11DAB
  8
0-5
  6
CONTINUOUS
 62
     4
 10
12169.23086547093
 20
6141.1885390000007
 30
0.0
 11
19643.509169585159
 21
6141.1885390000007
 31
0.0
  0
LINE
  5
11DAC
  8
0-5
  6
CONTINUOUS
 62
     4
 10
17671.635488585162
 20
6141.1885390000007
 30
0.0
 11
17791.635884585161
 21
6349.0350210000024
 31
0.0
  0
LINE
  5
11DAD
  8
0-5
  6
CONTINUOUS
 62
     4
 10
17791.635884585161
 20
6349.0350210000024
 30
0.0
 11
17551.63707258517
 21
6349.0350210000024
 31
0.0
  0
LINE
  5
11DAE
  8
0-5
  6
CONTINUOUS
 62
     4
 10
19773.510092585158
 20
4461.1889349999938
 30
0.0
 11
19773.510092585158
 21
4301.1893970000001
 31
0.0
  0
LINE
  5
11DAF
  8
0-5
  6
CONTINUOUS
 62
     4
 10
12034.23357047094
 20
4461.1889349999938
 30
0.0
 11
12034.23357047094
 21
4301.1893970000001
 31
0.0
  0
LINE
  5
11DB0
  8
0-5
  6
CONTINUOUS
 62
     4
 10
9116.233570470944
 20
4461.1889349999938
 30
0.0
 11
9116.233570470944
 21
4301.1893970000001
 31
0.0
  0
LINE
  5
11DB1
  8
0-5
  6
CONTINUOUS
 62
     4
 10
6548.7335704709431
 20
4461.1889349999938
 30
0.0
 11
6548.7335704709431
 21
4301.1893970000001
 31
0.0
  0
LINE
  5
11DB2
  8
2-0
  6
CENTER2
 62
     6
 10
22691.510092585158
 20
5878.536116000002
 30
0.0
 11
22691.510092585158
 21
6915.6791430000003
 31
0.0
  0
LINE
  5
11DB3
  8
2-0
  6
CENTER2
 62
     6
 10
19773.510092585158
 20
5878.536116000002
 30
0.0
 11
19773.510092585158
 21
6915.6791430000003
 31
0.0
  0
LINE
  5
11DB4
  8
2-0
  6
CENTER2
 62
     6
 10
12034.23357047094
 20
5878.536116000002
 30
0.0
 11
12034.23357047094
 21
6935.6787139999988
 31
0.0
  0
LINE
  5
11DB5
  8
2-0
  6
CENTER2
 62
     6
 10
9116.233570470944
 20
5878.536116000002
 30
0.0
 11
9116.233570470944
 21
6935.6787139999988
 31
0.0
  0
LINE
  5
11DB6
  8
2-0
  6
CENTER2
 62
     6
 10
6548.7335704709431
 20
5878.536116000002
 30
0.0
 11
6548.7335704709431
 21
6935.6787139999988
 31
0.0
  0
ARC
  5
11DB7
  8
0-1
  6
CONTINUOUS
 62
     3
 10
19842.00935358517
 20
8372.1892910000006
 30
0.0
 40
5.0
 50
90.0
 51
180.0
  0
ARC
  5
11DB8
  8
0-1
  6
CONTINUOUS
 62
     3
 10
19842.00935358517
 20
8340.1888889999937
 30
0.0
 40
5.0
 50
180.0
 51
269.9999850001808
  0
ARC
  5
11DB9
  8
0-1
  6
CONTINUOUS
 62
     3
 10
20119.438883585171
 20
8340.1888889999937
 30
0.0
 40
5.0
 50
269.9999850001808
 51
314.99998500026879
  0
ARC
  5
11DBA
  8
0-1
  6
CONTINUOUS
 62
     3
 10
20151.435821585172
 20
8372.1892910000006
 30
0.0
 40
5.0
 50
314.99998500026879
 51
90.0
  0
ARC
  5
11DBB
  8
0-1
  6
CONTINUOUS
 62
     3
 10
22623.008852585161
 20
8340.1888889999937
 30
0.0
 40
5.0
 50
269.9999850001808
 51
0.0
  0
ARC
  5
11DBC
  8
0-1
  6
CONTINUOUS
 62
     3
 10
22623.008852585161
 20
8372.1892910000006
 30
0.0
 40
5.0
 50
0.0
 51
90.0
  0
ARC
  5
11DBD
  8
0-1
  6
CONTINUOUS
 62
     3
 10
22313.582384585141
 20
8372.1892910000006
 30
0.0
 40
5.0
 50
90.0
 51
224.99998499998549
  0
ARC
  5
11DBE
  8
0-1
  6
CONTINUOUS
 62
     3
 10
22345.57932358516
 20
8340.1888889999937
 30
0.0
 40
5.0
 50
224.99998499998549
 51
269.9999850001808
  0
ARC
  5
11DBF
  8
0-1
  6
CONTINUOUS
 62
     3
 10
12161.67299747094
 20
8523.680191999998
 30
0.0
 40
24.999998999999999
 50
271.71998600002632
 51
91.719986000026395
  0
ARC
  5
11DC0
  8
0-1
  6
CONTINUOUS
 62
     3
 10
6330.342193470944
 20
8356.1505650000017
 30
0.0
 40
3.0
 50
181.71998600002601
 51
271.71998600002632
  0
ARC
  5
11DC1
  8
0-1
  6
CONTINUOUS
 62
     3
 10
6331.379461470945
 20
8388.1955070000022
 30
0.0
 40
5.0
 50
91.719986000026395
 51
181.71998600002601
  0
ARC
  5
11DC2
  8
0-1
  6
CONTINUOUS
 62
     3
 10
12156.675703470921
 20
8523.5297490000066
 30
0.0
 40
69.999999000000003
 50
293.50677499976911
 51
69.933196999879755
  0
ARC
  5
11DC3
  8
0-1
  6
CONTINUOUS
 62
     3
 10
6334.9831744709491
 20
8268.2500430000073
 30
0.0
 40
5.0
 50
181.71998600002601
 51
271.71998600002632
  0
ARC
  5
11DC4
  8
0-1
  6
CONTINUOUS
 62
     3
 10
6332.0218154709473
 20
8300.1752229999984
 30
0.0
 40
3.0
 50
91.719986000026395
 51
181.71998600002601
  0
ARC
  5
11DC5
  8
0-1
  6
CONTINUOUS
 62
     3
 10
6332.0059784709447
 20
8350.697981000003
 30
0.0
 40
2.5
 50
271.71998600002632
 51
91.719986000026395
  0
ARC
  5
11DC6
  8
0-1
  6
CONTINUOUS
 62
     3
 10
6333.3560104709441
 20
8305.7178750000003
 30
0.0
 40
2.5
 50
271.71998600002632
 51
91.719986000026395
  0
ARC
  5
11DC7
  8
0-1
  6
CONTINUOUS
 62
     3
 10
6330.6717834709452
 20
8345.1553289999974
 30
0.0
 40
3.0
 50
91.719986000026395
 51
181.71998600002601
  0
ARC
  5
11DC8
  8
0-1
  6
CONTINUOUS
 62
     3
 10
12161.67299747094
 20
8523.680191999998
 30
0.0
 40
20.0
 50
271.71998600002632
 51
91.719986000026395
  0
ARC
  5
11DC9
  8
0-1
  6
CONTINUOUS
 62
     3
 10
6331.6922254709416
 20
8311.1699640000006
 30
0.0
 40
3.0
 50
181.71998600002601
 51
271.71998600002632
  0
CIRCLE
  5
11DCA
  8
0-5
  6
CONTINUOUS
 62
     4
 10
22691.510092585158
 20
4101.1882420000011
 30
0.0
 40
199.9999949999999
  0
CIRCLE
  5
11DCB
  8
0-5
  6
CONTINUOUS
 62
     4
 10
9116.233570470944
 20
4101.1882420000011
 30
0.0
 40
199.9999949999999
  0
CIRCLE
  5
11DCC
  8
0-5
  6
CONTINUOUS
 62
     4
 10
12034.23357047094
 20
4101.1882420000011
 30
0.0
 40
199.9999949999999
  0
CIRCLE
  5
11DCD
  8
0-5
  6
CONTINUOUS
 62
     4
 10
19773.510092585158
 20
4101.1882420000011
 30
0.0
 40
199.9999949999999
  0
CIRCLE
  5
11DCE
  8
0-5
  6
CONTINUOUS
 62
     4
 10
6548.7335704709431
 20
4101.1882420000011
 30
0.0
 40
199.9999949999999
  0
TEXT
  5
11DCF
  8
0-5
  6
CONTINUOUS
 62
     7
 10
22639.597217585149
 20
4011.7132600000009
 30
0.0
 40
160.0
  1
2
 72
     4
 11
22692.930550918481
 21
4091.7132600000009
 31
0.0
  0
TEXT
  5
11DD0
  8
0-5
  6
CONTINUOUS
 62
     7
 10
19163.509565585169
 20
6988.0104361594431
 30
0.0
 40
160.0
  1
(2131.5)
 50
90.0
 72
     4
 11
19083.509565585169
 21
7441.3437694927761
 31
0.0
  0
TEXT
  5
11DD1
  8
0-5
  6
CONTINUOUS
 62
     7
 10
13335.226629470941
 20
6529.0346249999966
 30
0.0
 40
160.0
  1
布基礎天端
 72
     4
 11
13793.89329613761
 21
6609.0346249999984
 31
0.0
  0
TEXT
  5
11DD2
  8
0-5
  6
CONTINUOUS
 62
     7
 10
17551.63707258517
 20
6429.0347900000024
 30
0.0
 40
160.0
  1
G.L
 72
     4
 11
17711.63707258517
 21
6509.0347900000043
 31
0.0
  0
TEXT
  5
11DD3
  8
0-5
  6
CONTINUOUS
 62
     7
 10
19721.597218585161
 20
4011.7132600000009
 30
0.0
 40
160.0
  1
1
 72
     4
 11
19748.263885251828
 21
4091.7132600000009
 31
0.0
  0
TEXT
  5
11DD4
  8
0-5
  6
CONTINUOUS
 62
     7
 10
11987.277410470941
 20
4017.9774460000021
 30
0.0
 40
160.0
  1
A
 72
     4
 11
12040.61074380428
 21
4097.9774460000026
 31
0.0
  0
TEXT
  5
11DD5
  8
0-5
  6
CONTINUOUS
 62
     7
 10
9069.2774104709424
 20
4017.9774460000021
 30
0.0
 40
160.0
  1
B
 72
     4
 11
9122.6107438042745
 21
4097.9774460000026
 31
0.0
  0
TEXT
  5
11DD6
  8
0-5
  6
CONTINUOUS
 62
     7
 10
6501.7774104709488
 20
4017.9774460000021
 30
0.0
 40
160.0
  1
C
 72
     4
 11
6555.1107438042818
 21
4097.9774460000026
 31
0.0
  0
CIRCLE
  5
11DD7
  8
0-4
  6
CONTINUOUS
 62
     4
 10
21232.508113085161
 20
6627.2449749999987
 30
0.0
 40
18.487504999999981
  0
LINE
  5
11DD8
  8
1-前柱カバ-P
 10
25449.010092585158
 20
8459.6884660000014
 30
0.0
 11
25449.010092585158
 21
6141.1885390000007
 31
0.0
  0
LINE
  5
11DD9
  8
1-前柱カバ-P
 10
25534.010092585158
 20
8589.6883999999973
 30
0.0
 11
25534.010092585158
 21
6141.1885390000007
 31
0.0
  0
LINE
  5
11DDA
  8
0-1
  6
CONTINUOUS
 62
     3
 10
25577.010092585158
 20
8459.6884660000087
 30
0.0
 11
22649.009828585142
 21
8459.6884660000014
 31
0.0
  0
LINE
  5
11DDB
  8
0-1
  6
CONTINUOUS
 62
     3
 10
22714.01128058515
 20
8589.6883999999973
 30
0.0
 11
25577.010092585158
 21
8589.6883999999973
 31
0.0
  0
LINE
  5
11DDC
  8
0-1
  6
CONTINUOUS
 62
     3
 10
25577.010092585158
 20
8264.0026620000026
 30
0.0
 11
25577.010092585158
 21
8589.6883999999973
 31
0.0
  0
LINE
  5
11DDD
  8
0-1
  6
CONTINUOUS
 62
     3
 10
25577.010092585158
 20
8264.0026620000026
 30
0.0
 11
25534.010092585158
 21
8264.0026620000026
 31
0.0
  0
LINE
  5
11DDE
  8
2-0
  6
CENTER2
 62
     6
 10
25491.510092585158
 20
5878.536116000002
 30
0.0
 11
25491.510092585158
 21
6915.6791430000003
 31
0.0
  0
LINE
  5
11DDF
  8
1-桁前P28
 10
25449.010092585158
 20
8261.1883740000048
 30
0.0
 11
22734.010092585158
 21
8261.1883740000048
 31
0.0
  0
LINE
  5
11DE0
  8
0-5
  6
CONTINUOUS
 62
     4
 10
25491.510092585158
 20
4461.1889349999938
 30
0.0
 11
25491.510092585158
 21
4301.1893970000001
 31
0.0
  0
CIRCLE
  5
11DE1
  8
0-5
  6
CONTINUOUS
 62
     4
 10
25491.510092585158
 20
4101.1882420000011
 30
0.0
 40
199.9999949999999
  0
TEXT
  5
11DE2
  8
0-5
  6
CONTINUOUS
 62
     7
 10
25439.597217585178
 20
4011.7132600000009
 30
0.0
 40
160.0
  1
3
 72
     4
 11
25492.930550918511
 21
4091.7132600000009
 31
0.0
  0
TEXT
  5
11DE3
  8
0-5
  6
CONTINUOUS
 62
     7
 10
26858.835262879551
 20
7248.0474985551718
 30
0.0
 40
160.0
  1
(2260)
 50
90.0
 72
     4
 11
26778.835262879551
 21
7634.7141652218379
 31
0.0
  0
LINE
  5
11DE4
  8
SUNPOU
  6
CONTINUOUS
 10
6326.233570470944
 20
9389.1900500000029
 30
0.0
 11
5821.4457005775294
 21
9389.1900500000029
 31
0.0
  0
LINE
  5
11F3F
  8
2-0
  6
CENTER2
 62
     6
 10
17552.011030585141
 20
19317.986251999992
 30
0.0
 11
17872.010370585162
 21
19317.986251999992
 31
0.0
  0
LINE
  5
11F40
  8
2-0
  6
CENTER2
 62
     6
 10
18032.010370585162
 20
19317.986251999992
 30
0.0
 11
25817.116789537082
 21
19317.986251999992
 31
0.0
  0
LINE
  5
11F41
  8
2-0
  6
CENTER2
 62
     6
 10
17552.01103058513
 20
16750.486251999992
 30
0.0
 11
17644.274356546332
 21
16750.486251999992
 31
0.0
  0
LINE
  5
11F42
  8
2-0
  6
CENTER2
 62
     6
 10
18032.010370585151
 20
16750.486251999992
 30
0.0
 11
25817.116789537082
 21
16750.486251999992
 31
0.0
  0
LINE
  5
11F43
  8
2-0
  6
CENTER2
 62
     6
 10
17552.011030585141
 20
13832.486252000001
 30
0.0
 11
17872.010370585162
 21
13832.486252000001
 31
0.0
  0
LINE
  5
11F44
  8
2-0
  6
CENTER2
 62
     6
 10
18032.010370585162
 20
13832.486252000001
 30
0.0
 11
25817.116789537082
 21
13832.48625200001
 31
0.0
  0
CIRCLE
  5
11F45
  8
0-5
  6
CONTINUOUS
 62
     4
 10
22712.511953585152
 20
21160.487175999999
 30
0.0
 40
199.9999949999999
  0
CIRCLE
  5
11F46
  8
0-5
  6
CONTINUOUS
 62
     4
 10
17352.010370585162
 20
19317.986251999992
 30
0.0
 40
199.9999949999999
  0
CIRCLE
  5
11F47
  8
0-5
  6
CONTINUOUS
 62
     4
 10
17352.010370585151
 20
16750.486251999992
 30
0.0
 40
199.9999949999999
  0
CIRCLE
  5
11F48
  8
0-5
  6
CONTINUOUS
 62
     4
 10
17352.010370585162
 20
13832.486252000001
 30
0.0
 40
199.9999949999999
  0
CIRCLE
  5
11F49
  8
0-5
  6
CONTINUOUS
 62
     4
 10
19794.511953585141
 20
21160.487175999999
 30
0.0
 40
199.9999949999999
  0
TEXT
  5
11F4A
  8
0-5
  6
CONTINUOUS
 62
     7
 10
22657.84160958515
 20
21074.261326000011
 30
0.0
 40
160.0
  1
2
 72
     4
 11
22711.174942918478
 21
21154.261326000011
 31
0.0
  0
TEXT
  5
11F4B
  8
0-5
  6
CONTINUOUS
 62
     7
 10
19739.841609585139
 20
21074.261326000011
 30
0.0
 40
160.0
  1
1
 72
     4
 11
19766.50827625181
 21
21154.261326000011
 31
0.0
  0
TEXT
  5
11F4C
  8
0-5
  6
CONTINUOUS
 62
     7
 10
17303.334008585171
 20
19226.368192999991
 30
0.0
 40
160.0
  1
C
 72
     4
 11
17356.667341918499
 21
19306.368192999991
 31
0.0
  0
TEXT
  5
11F4D
  8
0-5
  6
CONTINUOUS
 62
     7
 10
17303.33400858516
 20
16658.868193999999
 30
0.0
 40
160.0
  1
B
 72
     4
 11
17356.667341918492
 21
16738.868193999999
 31
0.0
  0
TEXT
  5
11F4E
  8
0-5
  6
CONTINUOUS
 62
     7
 10
17303.334008585171
 20
13740.868192999989
 30
0.0
 40
160.0
  1
A
 72
     4
 11
17356.667341918499
 21
13820.868192999989
 31
0.0
  0
LINE
  5
11F4F
  8
2-0
  6
CENTER2
 62
     6
 10
25512.511953585141
 20
20960.488495000009
 30
0.0
 11
25512.511953585141
 21
13474.73237353158
 31
0.0
  0
CIRCLE
  5
11F50
  8
0-5
  6
CONTINUOUS
 62
     4
 10
25512.511953585141
 20
21160.487175999999
 30
0.0
 40
199.9999949999999
  0
TEXT
  5
11F51
  8
0-5
  6
CONTINUOUS
 62
     7
 10
25457.841609585132
 20
21074.261326000011
 30
0.0
 40
160.0
  1
3
 72
     4
 11
25511.174942918471
 21
21154.261326000011
 31
0.0
  0
ARC
  5
11F52
  8
1-後柱P
  6
HIDE-M
 62
     6
 10
25516.111953585139
 20
19249.936251999989
 30
0.0
 40
2.6000000000000001
 50
180.0
 51
270.0
  0
LINE
  5
11F53
  8
1-後柱P
  6
HIDE-M
 62
     6
 10
25504.511953585141
 20
19247.8868618468
 30
0.0
 11
25504.511953585141
 21
19251.536252000002
 31
0.0
  0
LINE
  5
11F54
  8
1-後柱P
  6
HIDE-M
 62
     6
 10
25514.511953585141
 20
19247.8868618468
 30
0.0
 11
25514.511953585141
 21
19251.536252000002
 31
0.0
  0
LINE
  5
11F55
  8
1-後柱P
  6
1PL-M
 62
     6
 10
25509.511953585152
 20
19242.336252000008
 30
0.0
 11
25509.511953585152
 21
19256.536252000002
 31
0.0
  0
ARC
  5
11F56
  8
1-後柱P
  6
HIDE-M
 62
     6
 10
25502.91195358515
 20
19249.936251999989
 30
0.0
 40
2.6000000000000001
 50
270.0
 51
0.0
  0
LINE
  5
11F57
  8
1-後柱P
  6
HIDE-M
 62
     6
 10
25513.511953585152
 20
19249.936251999989
 30
0.0
 11
25513.511953585152
 21
19251.536252000002
 31
0.0
  0
LINE
  5
11F58
  8
1-後柱P
  6
HIDE-M
 62
     6
 10
25505.511953585152
 20
19249.936251999989
 30
0.0
 11
25505.511953585152
 21
19251.536252000002
 31
0.0
  0
LINE
  5
11F59
  8
1-後柱P
 10
25523.411953585139
 20
19362.236251999999
 30
0.0
 11
25501.61195358515
 21
19362.236251999999
 31
0.0
  0
LINE
  5
11F5A
  8
1-後柱P
 10
25471.61195358515
 20
19324.936252
 30
0.0
 11
25471.61195358515
 21
19332.236251999992
 31
0.0
  0
ARC
  5
11F5B
  8
1-後柱P
 10
25501.61195358515
 20
19332.236251999992
 30
0.0
 40
30.0
 50
90.0
 51
180.0
  0
ARC
  5
11F5C
  8
1-後柱P
 10
25501.61195358515
 20
19332.236251999992
 30
0.0
 40
31.600000000000001
 50
90.0
 51
180.0
  0
LINE
  5
11F5D
  8
1-後柱P
 10
25523.411953585139
 20
19363.836252000001
 30
0.0
 11
25501.61195358515
 21
19363.836252000001
 31
0.0
  0
LINE
  5
11F5E
  8
1-後柱P
 10
25470.011953585141
 20
19324.936252
 30
0.0
 11
25470.011953585141
 21
19332.236251999992
 31
0.0
  0
LINE
  5
11F5F
  8
1-後柱P
 10
25493.011953585141
 20
19303.336252000008
 30
0.0
 11
25493.011953585141
 21
19313.336252000001
 31
0.0
  0
LINE
  5
11F60
  8
1-後柱P
 10
25494.61195358515
 20
19313.336252000001
 30
0.0
 11
25494.61195358515
 21
19303.336252000008
 31
0.0
  0
LINE
  5
11F61
  8
1-後柱P
 10
25553.41195358515
 20
19324.936252
 30
0.0
 11
25553.41195358515
 21
19332.236251999992
 31
0.0
  0
ARC
  5
11F62
  8
1-後柱P
 10
25523.411953585139
 20
19332.236251999992
 30
0.0
 40
30.0
 50
0.0
 51
90.0
  0
ARC
  5
11F63
  8
1-後柱P
 10
25523.411953585139
 20
19332.236251999992
 30
0.0
 40
31.600000000000001
 50
0.0
 51
90.0
  0
LINE
  5
11F64
  8
1-後柱P
 10
25555.011953585152
 20
19324.936252
 30
0.0
 11
25555.011953585152
 21
19332.236251999992
 31
0.0
  0
LINE
  5
11F65
  8
1-後柱P
 10
25548.41195358515
 20
19318.336252000008
 30
0.0
 11
25537.011953585141
 21
19318.336252000008
 31
0.0
  0
ARC
  5
11F66
  8
1-後柱P
 10
25548.41195358515
 20
19324.936252
 30
0.0
 40
6.599999999999997
 50
270.0
 51
0.0
  0
ARC
  5
11F67
  8
1-後柱P
 10
25537.011953585141
 20
19313.336252000001
 30
0.0
 40
5.0
 50
90.0
 51
180.0
  0
LINE
  5
11F68
  8
1-後柱P
 10
25548.41195358515
 20
19319.936252
 30
0.0
 11
25537.011953585141
 21
19319.936252
 31
0.0
  0
ARC
  5
11F69
  8
1-後柱P
 10
25548.41195358515
 20
19324.936252
 30
0.0
 40
5.0
 50
270.0
 51
0.0
  0
LINE
  5
11F6A
  8
1-後柱P
 10
25532.011953585152
 20
19313.336252000001
 30
0.0
 11
25532.011953585152
 21
19253.936252
 31
0.0
  0
LINE
  5
11F6B
  8
1-後柱P
 10
25530.41195358515
 20
19313.336252000001
 30
0.0
 11
25530.41195358515
 21
19253.936252
 31
0.0
  0
ARC
  5
11F6C
  8
1-後柱P
 10
25537.011953585141
 20
19313.336252000001
 30
0.0
 40
6.599999999999997
 50
90.0
 51
180.0
  0
LINE
  5
11F6D
  8
1-後柱P
 10
25525.411953585139
 20
19247.336252000001
 30
0.0
 11
25492.011953585152
 21
19247.336252000001
 31
0.0
  0
ARC
  5
11F6E
  8
1-後柱P
 10
25525.411953585139
 20
19253.936252
 30
0.0
 40
6.599999999999997
 50
270.0
 51
0.0
  0
LINE
  5
11F6F
  8
1-後柱P
 10
25525.411953585139
 20
19248.936252
 30
0.0
 11
25492.011953585152
 21
19248.936252
 31
0.0
  0
ARC
  5
11F70
  8
1-後柱P
 10
25525.411953585139
 20
19253.936252
 30
0.0
 40
5.0
 50
270.0
 51
0.0
  0
LINE
  5
11F71
  8
1-後柱P
 10
25492.011953585152
 20
19248.936252
 30
0.0
 11
25492.011953585152
 21
19247.336252000001
 31
0.0
  0
LINE
  5
11F72
  8
1-後柱P
 10
25476.61195358515
 20
19318.336252000008
 30
0.0
 11
25488.011953585152
 21
19318.336252000008
 31
0.0
  0
ARC
  5
11F73
  8
1-後柱P
 10
25476.61195358515
 20
19324.936252
 30
0.0
 40
6.599999999999997
 50
180.0
 51
270.0
  0
ARC
  5
11F74
  8
1-後柱P
 10
25488.011953585152
 20
19313.336252000001
 30
0.0
 40
5.0
 50
0.0
 51
90.0
  0
LINE
  5
11F75
  8
1-後柱P
 10
25488.011953585152
 20
19319.936252
 30
0.0
 11
25476.61195358515
 21
19319.936252
 31
0.0
  0
ARC
  5
11F76
  8
1-後柱P
 10
25488.011953585152
 20
19313.336252000001
 30
0.0
 40
6.599999999999997
 50
0.0
 51
90.0
  0
ARC
  5
11F77
  8
1-後柱P
 10
25476.61195358515
 20
19324.936252
 30
0.0
 40
5.0
 50
180.0
 51
270.0
  0
LINE
  5
11F78
  8
1-後柱P
 10
25493.011953585141
 20
19303.336252000008
 30
0.0
 11
25494.61195358515
 21
19303.336252000008
 31
0.0
  0
LINE
  5
11F79
  8
1-後柱カバ-P
 10
25470.011953585141
 20
19311.636252
 30
0.0
 11
25470.011953585141
 21
19252.336252000001
 31
0.0
  0
ARC
  5
11F7A
  8
1-後柱カバ-P
 10
25476.61195358515
 20
19252.336252000001
 30
0.0
 40
6.599999999999997
 50
180.0
 51
270.0
  0
LINE
  5
11F7B
  8
1-後柱カバ-P
 10
25471.61195358515
 20
19311.636252
 30
0.0
 11
25471.61195358515
 21
19252.336252000001
 31
0.0
  0
ARC
  5
11F7C
  8
1-後柱カバ-P
 10
25476.61195358515
 20
19311.636252
 30
0.0
 40
5.0
 50
90.0
 51
180.0
  0
LINE
  5
11F7D
  8
1-後柱カバ-P
 10
25476.61195358515
 20
19245.736251999992
 30
0.0
 11
25548.41195358515
 21
19245.736251999992
 31
0.0
  0
ARC
  5
11F7E
  8
1-後柱カバ-P
 10
25548.41195358515
 20
19252.336252000001
 30
0.0
 40
6.599999999999997
 50
270.0
 51
0.0
  0
LINE
  5
11F7F
  8
1-後柱カバ-P
 10
25476.61195358515
 20
19247.336252000001
 30
0.0
 11
25548.41195358515
 21
19247.336252000001
 31
0.0
  0
ARC
  5
11F80
  8
1-後柱カバ-P
 10
25548.41195358515
 20
19252.336252000001
 30
0.0
 40
5.0
 50
270.0
 51
0.0
  0
ARC
  5
11F81
  8
1-後柱カバ-P
 10
25476.61195358515
 20
19252.336252000001
 30
0.0
 40
5.0
 50
180.0
 51
270.0
  0
LINE
  5
11F82
  8
1-後柱カバ-P
 10
25555.011953585152
 20
19252.336252000001
 30
0.0
 11
25555.011953585152
 21
19311.636252
 31
0.0
  0
LINE
  5
11F83
  8
1-後柱カバ-P
 10
25553.41195358515
 20
19252.336252000001
 30
0.0
 11
25553.41195358515
 21
19311.636252
 31
0.0
  0
ARC
  5
11F84
  8
1-後柱カバ-P
 10
25548.41195358515
 20
19311.636252
 30
0.0
 40
5.0
 50
0.0
 51
90.0
  0
LINE
  5
11F85
  8
1-後柱カバ-P
  6
1PL-M
 62
     6
 10
25512.511953585141
 20
19253.236251999992
 30
0.0
 11
25512.511953585141
 21
19240.236251999999
 31
0.0
  0
LINE
  5
11F86
  8
1-後柱カバ-P
  6
HIDE-M
 62
     6
 10
25505.511953585152
 20
19245.736251999992
 30
0.0
 11
25505.511953585152
 21
19247.336252000001
 31
0.0
  0
LINE
  5
11F87
  8
1-後柱カバ-P
  6
HIDE-M
 62
     6
 10
25519.511953585152
 20
19245.736251999992
 30
0.0
 11
25519.511953585152
 21
19247.336252000001
 31
0.0
  0
ARC
  5
11F88
  8
1-後柱カバ-P
 10
25476.61195358515
 20
19311.636252
 30
0.0
 40
6.599999999999997
 50
90.0
 51
180.0
  0
ARC
  5
11F89
  8
1-後柱カバ-P
 10
25548.41195358515
 20
19311.636252
 30
0.0
 40
6.599999999999997
 50
0.0
 51
90.0
  0
LINE
  5
11F8A
  8
1-後柱カバ-P
 10
25540.011953585152
 20
19318.236251999999
 30
0.0
 11
25548.41195358515
 21
19318.236251999999
 31
0.0
  0
LINE
  5
11F8B
  8
1-後柱カバ-P
 10
25485.011953585152
 20
19318.236251999999
 30
0.0
 11
25476.61195358515
 21
19318.236251999999
 31
0.0
  0
LINE
  5
11F8C
  8
1-後柱カバ-P
 10
25540.011953585152
 20
19316.636252
 30
0.0
 11
25548.41195358515
 21
19316.636252
 31
0.0
  0
LINE
  5
11F8D
  8
1-後柱カバ-P
 10
25485.011953585152
 20
19316.636252
 30
0.0
 11
25476.61195358515
 21
19316.636252
 31
0.0
  0
LINE
  5
11F8E
  8
1-後柱カバ-P
 10
25485.011953585152
 20
19316.636252
 30
0.0
 11
25485.011953585152
 21
19318.236251999999
 31
0.0
  0
LINE
  5
11F8F
  8
1-後柱カバ-P
 10
25540.011953585152
 20
19318.236251999999
 30
0.0
 11
25540.011953585152
 21
19316.636252
 31
0.0
  0
LINE
  5
11F90
  8
1-後柱カバ-P
  6
HIDE-M
 62
     6
 10
25543.911953585139
 20
19297.236251999999
 30
0.0
 11
25555.511953585152
 21
19297.236251999999
 31
0.0
  0
LINE
  5
11F91
  8
1-後柱カバ-P
  6
HIDE-M
 62
     6
 10
25543.911953585139
 20
19289.236251999992
 30
0.0
 11
25555.511953585152
 21
19289.236251999992
 31
0.0
  0
LINE
  5
11F92
  8
1-後柱カバ-P
  6
HIDE-M
 62
     6
 10
25543.911953585139
 20
19296.236251999992
 30
0.0
 11
25555.511953585152
 21
19296.236251999992
 31
0.0
  0
LINE
  5
11F93
  8
1-後柱カバ-P
  6
HIDE-M
 62
     6
 10
25543.911953585139
 20
19290.236251999992
 30
0.0
 11
25555.511953585152
 21
19290.236251999992
 31
0.0
  0
LINE
  5
11F94
  8
1-後柱カバ-P
 10
25544.911953585161
 20
19287.736251999999
 30
0.0
 11
25551.911953585139
 21
19287.736251999999
 31
0.0
  0
LINE
  5
11F95
  8
1-後柱カバ-P
 10
25551.911953585139
 20
19298.736251999992
 30
0.0
 11
25544.911953585161
 21
19298.736251999992
 31
0.0
  0
LINE
  5
11F96
  8
1-後柱カバ-P
 10
25551.911953585139
 20
19299.486251999992
 30
0.0
 11
25551.911953585139
 21
19286.986251999999
 31
0.0
  0
LINE
  5
11F97
  8
1-後柱カバ-P
 10
25555.511953585152
 20
19299.236251999999
 30
0.0
 11
25555.511953585152
 21
19287.236251999992
 31
0.0
  0
LINE
  5
11F98
  8
1-後柱カバ-P
  6
HIDE-M
 62
     6
 10
25553.41195358515
 20
19287.736251999999
 30
0.0
 11
25555.011953585152
 21
19287.736251999999
 31
0.0
  0
LINE
  5
11F99
  8
1-後柱カバ-P
 10
25555.511953585152
 20
19287.236251999992
 30
0.0
 11
25555.011953585152
 21
19287.736251999999
 31
0.0
  0
ARC
  5
11F9A
  8
1-後柱カバ-P
 10
25552.661953585161
 20
19286.986251999999
 30
0.0
 40
0.75
 50
180.0
 51
0.0
  0
LINE
  5
11F9B
  8
1-後柱カバ-P
  6
HIDE-M
 62
     6
 10
25555.011953585152
 20
19298.736251999992
 30
0.0
 11
25553.41195358515
 21
19298.736251999992
 31
0.0
  0
LINE
  5
11F9C
  8
1-後柱カバ-P
 10
25555.511953585152
 20
19299.236251999999
 30
0.0
 11
25555.011953585152
 21
19298.736251999992
 31
0.0
  0
ARC
  5
11F9D
  8
1-後柱カバ-P
 10
25552.661953585161
 20
19299.486251999992
 30
0.0
 40
0.75
 50
0.0
 51
180.0
  0
LINE
  5
11F9E
  8
1-後柱カバ-P
 10
25543.911953585139
 20
19297.736251999992
 30
0.0
 11
25543.911953585139
 21
19288.736251999992
 31
0.0
  0
ARC
  5
11F9F
  8
1-後柱カバ-P
 10
25544.911953585161
 20
19288.736251999992
 30
0.0
 40
1.0
 50
180.0
 51
270.0
  0
ARC
  5
11FA0
  8
1-後柱カバ-P
 10
25544.911953585161
 20
19297.736251999992
 30
0.0
 40
1.0
 50
90.0
 51
180.0
  0
LINE
  5
11FA1
  8
1-後柱カバ-P
  6
1PL-M
 62
     6
 10
25538.91195358515
 20
19293.236251999992
 30
0.0
 11
25560.511953585152
 21
19293.236251999992
 31
0.0
  0
LINE
  5
11FA2
  8
1-後柱カバ-P
 10
25544.911953585161
 20
19277.736251999999
 30
0.0
 11
25551.911953585139
 21
19277.736251999999
 31
0.0
  0
LINE
  5
11FA3
  8
1-後柱カバ-P
 10
25555.511953585152
 20
19285.236251999999
 30
0.0
 11
25555.511953585152
 21
19277.236251999999
 31
0.0
  0
LINE
  5
11FA4
  8
1-後柱カバ-P
  6
HIDE-M
 62
     6
 10
25553.41195358515
 20
19277.736251999999
 30
0.0
 11
25555.011953585152
 21
19277.736251999999
 31
0.0
  0
LINE
  5
11FA5
  8
1-後柱カバ-P
 10
25555.511953585152
 20
19277.236251999999
 30
0.0
 11
25555.011953585152
 21
19277.736251999999
 31
0.0
  0
ARC
  5
11FA6
  8
1-後柱カバ-P
 10
25552.661953585161
 20
19276.986251999992
 30
0.0
 40
0.75
 50
180.0
 51
0.0
  0
LINE
  5
11FA7
  8
1-後柱カバ-P
 10
25543.911953585139
 20
19286.736251999999
 30
0.0
 11
25543.911953585139
 21
19278.736251999992
 31
0.0
  0
ARC
  5
11FA8
  8
1-後柱カバ-P
 10
25544.911953585161
 20
19278.736251999992
 30
0.0
 40
1.0
 50
180.0
 51
270.0
  0
LINE
  5
11FA9
  8
1-後柱カバ-P
  6
1PL-M
 62
     6
 10
25538.91195358515
 20
19283.236251999999
 30
0.0
 11
25560.511953585152
 21
19283.236251999999
 31
0.0
  0
LINE
  5
11FAA
  8
1-後柱カバ-P
 10
25551.911953585139
 20
19284.986251999992
 30
0.0
 11
25551.911953585139
 21
19276.986251999992
 31
0.0
  0
LINE
  5
11FAB
  8
1-後柱カバ-P
  6
HIDE-M
 62
     6
 10
25481.11195358515
 20
19297.236251999999
 30
0.0
 11
25469.511953585152
 21
19297.236251999999
 31
0.0
  0
LINE
  5
11FAC
  8
1-後柱カバ-P
  6
HIDE-M
 62
     6
 10
25481.11195358515
 20
19289.236251999992
 30
0.0
 11
25469.511953585152
 21
19289.236251999992
 31
0.0
  0
LINE
  5
11FAD
  8
1-後柱カバ-P
  6
HIDE-M
 62
     6
 10
25481.11195358515
 20
19296.236251999992
 30
0.0
 11
25469.511953585152
 21
19296.236251999992
 31
0.0
  0
LINE
  5
11FAE
  8
1-後柱カバ-P
  6
HIDE-M
 62
     6
 10
25481.11195358515
 20
19290.236251999992
 30
0.0
 11
25469.511953585152
 21
19290.236251999992
 31
0.0
  0
LINE
  5
11FAF
  8
1-後柱カバ-P
 10
25480.111953585139
 20
19287.736251999999
 30
0.0
 11
25473.11195358515
 21
19287.736251999999
 31
0.0
  0
LINE
  5
11FB0
  8
1-後柱カバ-P
 10
25473.11195358515
 20
19298.736251999992
 30
0.0
 11
25480.111953585139
 21
19298.736251999992
 31
0.0
  0
LINE
  5
11FB1
  8
1-後柱カバ-P
 10
25473.11195358515
 20
19299.486251999992
 30
0.0
 11
25473.11195358515
 21
19286.986251999999
 31
0.0
  0
LINE
  5
11FB2
  8
1-後柱カバ-P
 10
25469.511953585152
 20
19299.236251999999
 30
0.0
 11
25469.511953585152
 21
19287.236251999992
 31
0.0
  0
LINE
  5
11FB3
  8
1-後柱カバ-P
  6
HIDE-M
 62
     6
 10
25471.61195358515
 20
19287.736251999999
 30
0.0
 11
25470.011953585141
 21
19287.736251999999
 31
0.0
  0
LINE
  5
11FB4
  8
1-後柱カバ-P
 10
25469.511953585152
 20
19287.236251999992
 30
0.0
 11
25470.011953585141
 21
19287.736251999999
 31
0.0
  0
ARC
  5
11FB5
  8
1-後柱カバ-P
 10
25472.361953585139
 20
19286.986251999999
 30
0.0
 40
0.75
 50
180.0
 51
0.0
  0
LINE
  5
11FB6
  8
1-後柱カバ-P
  6
HIDE-M
 62
     6
 10
25470.011953585141
 20
19298.736251999992
 30
0.0
 11
25471.61195358515
 21
19298.736251999992
 31
0.0
  0
LINE
  5
11FB7
  8
1-後柱カバ-P
 10
25469.511953585152
 20
19299.236251999999
 30
0.0
 11
25470.011953585141
 21
19298.736251999992
 31
0.0
  0
ARC
  5
11FB8
  8
1-後柱カバ-P
 10
25472.361953585139
 20
19299.486251999992
 30
0.0
 40
0.75
 50
0.0
 51
180.0
  0
LINE
  5
11FB9
  8
1-後柱カバ-P
 10
25481.11195358515
 20
19297.736251999992
 30
0.0
 11
25481.11195358515
 21
19288.736251999992
 31
0.0
  0
ARC
  5
11FBA
  8
1-後柱カバ-P
 10
25480.111953585139
 20
19288.736251999992
 30
0.0
 40
1.0
 50
270.0
 51
0.0
  0
ARC
  5
11FBB
  8
1-後柱カバ-P
 10
25480.111953585139
 20
19297.736251999992
 30
0.0
 40
1.0
 50
0.0
 51
90.0
  0
LINE
  5
11FBC
  8
1-後柱カバ-P
  6
1PL-M
 62
     6
 10
25486.11195358515
 20
19293.236251999992
 30
0.0
 11
25464.511953585141
 21
19293.236251999992
 31
0.0
  0
LINE
  5
11FBD
  8
1-後柱カバ-P
 10
25480.111953585139
 20
19277.736251999999
 30
0.0
 11
25473.11195358515
 21
19277.736251999999
 31
0.0
  0
LINE
  5
11FBE
  8
1-後柱カバ-P
 10
25469.511953585152
 20
19285.236251999999
 30
0.0
 11
25469.511953585152
 21
19277.236251999999
 31
0.0
  0
LINE
  5
11FBF
  8
1-後柱カバ-P
  6
HIDE-M
 62
     6
 10
25471.61195358515
 20
19277.736251999999
 30
0.0
 11
25470.011953585141
 21
19277.736251999999
 31
0.0
  0
LINE
  5
11FC0
  8
1-後柱カバ-P
 10
25469.511953585152
 20
19277.236251999999
 30
0.0
 11
25470.011953585141
 21
19277.736251999999
 31
0.0
  0
ARC
  5
11FC1
  8
1-後柱カバ-P
 10
25472.361953585139
 20
19276.986251999992
 30
0.0
 40
0.75
 50
180.0
 51
0.0
  0
LINE
  5
11FC2
  8
1-後柱カバ-P
 10
25481.11195358515
 20
19286.736251999999
 30
0.0
 11
25481.11195358515
 21
19278.736251999992
 31
0.0
  0
ARC
  5
11FC3
  8
1-後柱カバ-P
 10
25480.111953585139
 20
19278.736251999992
 30
0.0
 40
1.0
 50
270.0
 51
0.0
  0
LINE
  5
11FC4
  8
1-後柱カバ-P
  6
1PL-M
 62
     6
 10
25486.11195358515
 20
19283.236251999999
 30
0.0
 11
25464.511953585141
 21
19283.236251999999
 31
0.0
  0
LINE
  5
11FC5
  8
1-後柱カバ-P
 10
25473.11195358515
 20
19284.986251999992
 30
0.0
 11
25473.11195358515
 21
19276.986251999992
 31
0.0
  0
LINE
  5
11FC6
  8
1-後柱カバ-P
  6
HIDE-M
 62
     6
 10
25543.911953585139
 20
19279.236251999999
 30
0.0
 11
25555.511953585152
 21
19279.236251999999
 31
0.0
  0
LINE
  5
11FC7
  8
1-後柱カバ-P
  6
HIDE-M
 62
     6
 10
25543.911953585139
 20
19280.236251999992
 30
0.0
 11
25555.511953585152
 21
19280.236251999992
 31
0.0
  0
LINE
  5
11FC8
  8
1-後柱カバ-P
  6
HIDE-M
 62
     6
 10
25481.11195358515
 20
19279.236251999999
 30
0.0
 11
25469.511953585152
 21
19279.236251999999
 31
0.0
  0
LINE
  5
11FC9
  8
1-後柱カバ-P
  6
HIDE-M
 62
     6
 10
25481.11195358515
 20
19280.236251999992
 30
0.0
 11
25469.511953585152
 21
19280.236251999992
 31
0.0
  0
LINE
  5
11FCA
  8
1-中柱P
 10
25548.411953585131
 20
16679.486251999999
 30
0.0
 11
25476.611953585129
 21
16679.486251999999
 31
0.0
  0
ARC
  5
11FCB
  8
1-中柱P
 10
25548.411953585131
 20
16684.486251999992
 30
0.0
 40
5.0
 50
270.0
 51
0.0
  0
ARC
  5
11FCC
  8
1-中柱P
 10
25476.611953585129
 20
16684.486251999992
 30
0.0
 40
5.0
 50
180.0
 51
270.0
  0
LINE
  5
11FCD
  8
1-中柱P
 10
25548.411953585131
 20
16677.886252000011
 30
0.0
 11
25476.611953585129
 21
16677.886252000011
 31
0.0
  0
ARC
  5
11FCE
  8
1-中柱P
 10
25548.411953585131
 20
16684.486251999992
 30
0.0
 40
6.599999999999997
 50
270.0
 51
0.0
  0
LINE
  5
11FCF
  8
1-中柱P
 10
25470.011953585141
 20
16743.786252000002
 30
0.0
 11
25470.011953585141
 21
16684.486251999992
 31
0.0
  0
ARC
  5
11FD0
  8
1-中柱P
 10
25476.611953585129
 20
16684.486251999992
 30
0.0
 40
6.599999999999997
 50
180.0
 51
270.0
  0
LINE
  5
11FD1
  8
1-中柱P
 10
25471.611953585129
 20
16684.486251999992
 30
0.0
 11
25471.611953585129
 21
16743.786252000002
 31
0.0
  0
ARC
  5
11FD2
  8
1-中柱P
 10
25476.611953585129
 20
16743.786252000002
 30
0.0
 40
5.0
 50
90.0
 51
180.0
  0
LINE
  5
11FD3
  8
1-中柱P
 10
25555.011953585152
 20
16743.786252000002
 30
0.0
 11
25555.011953585152
 21
16684.486251999992
 31
0.0
  0
LINE
  5
11FD4
  8
1-中柱P
 10
25553.411953585131
 20
16684.486251999992
 30
0.0
 11
25553.411953585131
 21
16743.786252000002
 31
0.0
  0
LINE
  5
11FD5
  8
1-中柱P
 10
25548.411953585131
 20
16750.386252000011
 30
0.0
 11
25540.011953585152
 21
16750.386252000011
 31
0.0
  0
ARC
  5
11FD6
  8
1-中柱P
 10
25548.411953585131
 20
16743.786252000002
 30
0.0
 40
6.599999999999997
 50
0.0
 51
90.0
  0
LINE
  5
11FD7
  8
1-中柱P
 10
25548.411953585131
 20
16748.786252000002
 30
0.0
 11
25540.011953585152
 21
16748.786252000002
 31
0.0
  0
ARC
  5
11FD8
  8
1-中柱P
 10
25540.011953585152
 20
16755.386252000011
 30
0.0
 40
6.599999999999997
 50
180.0
 51
270.0
  0
ARC
  5
11FD9
  8
1-中柱P
 10
25548.411953585131
 20
16743.786252000002
 30
0.0
 40
5.0
 50
0.0
 51
90.0
  0
LINE
  5
11FDA
  8
1-中柱P
 10
25535.011953585141
 20
16755.386252000011
 30
0.0
 11
25535.011953585141
 21
16814.786252000002
 31
0.0
  0
ARC
  5
11FDB
  8
1-中柱P
 10
25540.011953585152
 20
16755.386252000011
 30
0.0
 40
5.0
 50
180.0
 51
270.0
  0
LINE
  5
11FDC
  8
1-中柱P
 10
25533.411953585131
 20
16755.386252000011
 30
0.0
 11
25533.411953585131
 21
16814.786252000002
 31
0.0
  0
LINE
  5
11FDD
  8
1-中柱P
 10
25528.411953585131
 20
16821.386252000011
 30
0.0
 11
25495.011953585141
 21
16821.386252000011
 31
0.0
  0
ARC
  5
11FDE
  8
1-中柱P
 10
25528.411953585131
 20
16814.786252000002
 30
0.0
 40
6.599999999999997
 50
0.0
 51
90.0
  0
LINE
  5
11FDF
  8
1-中柱P
 10
25528.411953585131
 20
16819.786252000002
 30
0.0
 11
25495.011953585141
 21
16819.786252000002
 31
0.0
  0
ARC
  5
11FE0
  8
1-中柱P
 10
25528.411953585131
 20
16814.786252000002
 30
0.0
 40
5.0
 50
0.0
 51
90.0
  0
LINE
  5
11FE1
  8
1-中柱P
 10
25495.011953585141
 20
16819.786252000002
 30
0.0
 11
25495.011953585141
 21
16821.386252000011
 31
0.0
  0
LINE
  5
11FE2
  8
1-中柱P
 10
25476.611953585129
 20
16750.386252000011
 30
0.0
 11
25485.011953585152
 21
16750.386252000011
 31
0.0
  0
ARC
  5
11FE3
  8
1-中柱P
 10
25476.611953585129
 20
16743.786252000002
 30
0.0
 40
6.599999999999997
 50
90.0
 51
180.0
  0
ARC
  5
11FE4
  8
1-中柱P
 10
25485.011953585152
 20
16755.386252000011
 30
0.0
 40
5.0
 50
270.0
 51
0.0
  0
LINE
  5
11FE5
  8
1-中柱P
 10
25485.011953585152
 20
16748.786252000002
 30
0.0
 11
25476.611953585129
 21
16748.786252000002
 31
0.0
  0
ARC
  5
11FE6
  8
1-中柱P
 10
25485.011953585152
 20
16755.386252000011
 30
0.0
 40
6.599999999999997
 50
270.0
 51
0.0
  0
ARC
  5
11FE7
  8
1-中柱P
  6
HIDE-M
 62
     6
 10
25519.111953585129
 20
16818.786252000002
 30
0.0
 40
2.6000000000000001
 50
90.0
 51
180.0
  0
LINE
  5
11FE8
  8
1-中柱P
  6
HIDE-M
 62
     6
 10
25507.511953585152
 20
16820.83564215319
 30
0.0
 11
25507.511953585152
 21
16817.18625200001
 31
0.0
  0
LINE
  5
11FE9
  8
1-中柱P
  6
HIDE-M
 62
     6
 10
25517.511953585152
 20
16820.83564215319
 30
0.0
 11
25517.511953585152
 21
16817.18625200001
 31
0.0
  0
LINE
  5
11FEA
  8
1-中柱P
  6
1PL-M
 62
     6
 10
25512.511953585141
 20
16826.386252000011
 30
0.0
 11
25512.511953585141
 21
16812.18625200001
 31
0.0
  0
ARC
  5
11FEB
  8
1-中柱P
  6
HIDE-M
 62
     6
 10
25505.911953585131
 20
16818.786252000002
 30
0.0
 40
2.6000000000000001
 50
0.0
 51
90.0
  0
LINE
  5
11FEC
  8
1-中柱P
  6
HIDE-M
 62
     6
 10
25516.511953585141
 20
16818.786252000002
 30
0.0
 11
25516.511953585141
 21
16817.18625200001
 31
0.0
  0
LINE
  5
11FED
  8
1-中柱P
  6
HIDE-M
 62
     6
 10
25508.511953585141
 20
16818.786252000002
 30
0.0
 11
25508.511953585141
 21
16817.18625200001
 31
0.0
  0
LINE
  5
11FEE
  8
1-中柱P
 10
25491.611953585129
 20
16755.386252000011
 30
0.0
 11
25491.611953585129
 21
16765.386252000011
 31
0.0
  0
LINE
  5
11FEF
  8
1-中柱P
 10
25490.011953585152
 20
16755.386252000011
 30
0.0
 11
25490.011953585152
 21
16765.386252000011
 31
0.0
  0
LINE
  5
11FF0
  8
1-中柱P
 10
25491.611953585129
 20
16765.386252000011
 30
0.0
 11
25490.011953585152
 21
16765.386252000011
 31
0.0
  0
LINE
  5
11FF1
  8
1-中柱P
  6
1PL-M
 62
     6
 10
25540.011953585152
 20
16786.386252000011
 30
0.0
 11
25525.811953585151
 21
16786.386252000011
 31
0.0
  0
LINE
  5
11FF2
  8
1-中柱P
  6
HIDE-M
 62
     6
 10
25543.911953585131
 20
16729.386252000011
 30
0.0
 11
25555.511953585152
 21
16729.386252000011
 31
0.0
  0
LINE
  5
11FF3
  8
1-中柱P
  6
HIDE-M
 62
     6
 10
25543.911953585131
 20
16721.386252000011
 30
0.0
 11
25555.511953585152
 21
16721.386252000011
 31
0.0
  0
LINE
  5
11FF4
  8
1-中柱P
  6
HIDE-M
 62
     6
 10
25543.911953585131
 20
16728.386252000011
 30
0.0
 11
25555.511953585152
 21
16728.386252000011
 31
0.0
  0
LINE
  5
11FF5
  8
1-中柱P
  6
HIDE-M
 62
     6
 10
25543.911953585131
 20
16722.386252000011
 30
0.0
 11
25555.511953585152
 21
16722.386252000011
 31
0.0
  0
LINE
  5
11FF6
  8
1-中柱P
 10
25544.911953585121
 20
16719.886252000011
 30
0.0
 11
25551.911953585131
 21
16719.886252000011
 31
0.0
  0
LINE
  5
11FF7
  8
1-中柱P
 10
25551.911953585131
 20
16730.886252000011
 30
0.0
 11
25544.911953585121
 21
16730.886252000011
 31
0.0
  0
LINE
  5
11FF8
  8
1-中柱P
 10
25551.911953585131
 20
16731.636252000011
 30
0.0
 11
25551.911953585131
 21
16719.136252000011
 31
0.0
  0
LINE
  5
11FF9
  8
1-中柱P
 10
25555.511953585152
 20
16731.386252000011
 30
0.0
 11
25555.511953585152
 21
16719.386252000011
 31
0.0
  0
LINE
  5
11FFA
  8
1-中柱P
  6
HIDE-M
 62
     6
 10
25553.411953585131
 20
16719.886252000011
 30
0.0
 11
25555.011953585152
 21
16719.886252000011
 31
0.0
  0
LINE
  5
11FFB
  8
1-中柱P
 10
25555.511953585152
 20
16719.386252000011
 30
0.0
 11
25555.011953585152
 21
16719.886252000011
 31
0.0
  0
ARC
  5
11FFC
  8
1-中柱P
 10
25552.661953585131
 20
16719.136252000011
 30
0.0
 40
0.75
 50
180.0
 51
0.0
  0
LINE
  5
11FFD
  8
1-中柱P
  6
HIDE-M
 62
     6
 10
25555.011953585152
 20
16730.886252000011
 30
0.0
 11
25553.411953585131
 21
16730.886252000011
 31
0.0
  0
LINE
  5
11FFE
  8
1-中柱P
 10
25555.511953585152
 20
16731.386252000011
 30
0.0
 11
25555.011953585152
 21
16730.886252000011
 31
0.0
  0
ARC
  5
11FFF
  8
1-中柱P
 10
25552.661953585131
 20
16731.636252000011
 30
0.0
 40
0.75
 50
0.0
 51
180.0
  0
LINE
  5
12000
  8
1-中柱P
 10
25543.911953585131
 20
16729.886252000011
 30
0.0
 11
25543.911953585131
 21
16720.886252000011
 31
0.0
  0
ARC
  5
12001
  8
1-中柱P
 10
25544.911953585121
 20
16720.886252000011
 30
0.0
 40
1.0
 50
180.0
 51
270.0
  0
ARC
  5
12002
  8
1-中柱P
 10
25544.911953585121
 20
16729.886252000011
 30
0.0
 40
1.0
 50
90.0
 51
180.0
  0
LINE
  5
12003
  8
1-中柱P
  6
1PL-M
 62
     6
 10
25538.911953585131
 20
16725.386252000011
 30
0.0
 11
25560.511953585152
 21
16725.386252000011
 31
0.0
  0
LINE
  5
12004
  8
1-中柱P
 10
25544.911953585121
 20
16709.886252000011
 30
0.0
 11
25551.911953585131
 21
16709.886252000011
 31
0.0
  0
LINE
  5
12005
  8
1-中柱P
 10
25555.511953585152
 20
16717.386252000011
 30
0.0
 11
25555.511953585152
 21
16709.386252000011
 31
0.0
  0
LINE
  5
12006
  8
1-中柱P
  6
HIDE-M
 62
     6
 10
25553.411953585131
 20
16709.886252000011
 30
0.0
 11
25555.011953585152
 21
16709.886252000011
 31
0.0
  0
LINE
  5
12007
  8
1-中柱P
 10
25555.511953585152
 20
16709.386252000011
 30
0.0
 11
25555.011953585152
 21
16709.886252000011
 31
0.0
  0
ARC
  5
12008
  8
1-中柱P
 10
25552.661953585131
 20
16709.136252000011
 30
0.0
 40
0.75
 50
180.0
 51
0.0
  0
LINE
  5
12009
  8
1-中柱P
 10
25543.911953585131
 20
16718.886252000011
 30
0.0
 11
25543.911953585131
 21
16710.886252000011
 31
0.0
  0
ARC
  5
1200A
  8
1-中柱P
 10
25544.911953585121
 20
16710.886252000011
 30
0.0
 40
1.0
 50
180.0
 51
270.0
  0
LINE
  5
1200B
  8
1-中柱P
  6
1PL-M
 62
     6
 10
25538.911953585131
 20
16715.386252000011
 30
0.0
 11
25560.511953585152
 21
16715.386252000011
 31
0.0
  0
LINE
  5
1200C
  8
1-中柱P
 10
25551.911953585131
 20
16717.136252000011
 30
0.0
 11
25551.911953585131
 21
16709.136252000011
 31
0.0
  0
LINE
  5
1200D
  8
1-中柱P
  6
HIDE-M
 62
     6
 10
25543.911953585131
 20
16711.386252000011
 30
0.0
 11
25555.511953585152
 21
16711.386252000011
 31
0.0
  0
LINE
  5
1200E
  8
1-中柱P
  6
HIDE-M
 62
     6
 10
25543.911953585131
 20
16712.386252000011
 30
0.0
 11
25555.511953585152
 21
16712.386252000011
 31
0.0
  0
LINE
  5
1200F
  8
1-中柱P
  6
HIDE-M
 62
     6
 10
25481.111953585129
 20
16729.386252000011
 30
0.0
 11
25469.511953585152
 21
16729.386252000011
 31
0.0
  0
LINE
  5
12010
  8
1-中柱P
  6
HIDE-M
 62
     6
 10
25481.111953585129
 20
16721.386252000011
 30
0.0
 11
25469.511953585152
 21
16721.386252000011
 31
0.0
  0
LINE
  5
12011
  8
1-中柱P
  6
HIDE-M
 62
     6
 10
25481.111953585129
 20
16728.386252000011
 30
0.0
 11
25469.511953585152
 21
16728.386252000011
 31
0.0
  0
LINE
  5
12012
  8
1-中柱P
  6
HIDE-M
 62
     6
 10
25481.111953585129
 20
16722.386252000011
 30
0.0
 11
25469.511953585152
 21
16722.386252000011
 31
0.0
  0
LINE
  5
12013
  8
1-中柱P
 10
25480.111953585129
 20
16719.886252000011
 30
0.0
 11
25473.111953585129
 21
16719.886252000011
 31
0.0
  0
LINE
  5
12014
  8
1-中柱P
 10
25473.111953585129
 20
16730.886252000011
 30
0.0
 11
25480.111953585129
 21
16730.886252000011
 31
0.0
  0
LINE
  5
12015
  8
1-中柱P
 10
25473.111953585129
 20
16731.636252000011
 30
0.0
 11
25473.111953585129
 21
16719.136252000011
 31
0.0
  0
LINE
  5
12016
  8
1-中柱P
 10
25469.511953585152
 20
16731.386252000011
 30
0.0
 11
25469.511953585152
 21
16719.386252000011
 31
0.0
  0
LINE
  5
12017
  8
1-中柱P
  6
HIDE-M
 62
     6
 10
25471.611953585129
 20
16719.886252000011
 30
0.0
 11
25470.011953585141
 21
16719.886252000011
 31
0.0
  0
LINE
  5
12018
  8
1-中柱P
 10
25469.511953585152
 20
16719.386252000011
 30
0.0
 11
25470.011953585141
 21
16719.886252000011
 31
0.0
  0
ARC
  5
12019
  8
1-中柱P
 10
25472.361953585129
 20
16719.136252000011
 30
0.0
 40
0.75
 50
180.0
 51
0.0
  0
LINE
  5
1201A
  8
1-中柱P
  6
HIDE-M
 62
     6
 10
25470.011953585141
 20
16730.886252000011
 30
0.0
 11
25471.611953585129
 21
16730.886252000011
 31
0.0
  0
LINE
  5
1201B
  8
1-中柱P
 10
25469.511953585152
 20
16731.386252000011
 30
0.0
 11
25470.011953585141
 21
16730.886252000011
 31
0.0
  0
ARC
  5
1201C
  8
1-中柱P
 10
25472.361953585129
 20
16731.636252000011
 30
0.0
 40
0.75
 50
0.0
 51
180.0
  0
LINE
  5
1201D
  8
1-中柱P
 10
25481.111953585129
 20
16729.886252000011
 30
0.0
 11
25481.111953585129
 21
16720.886252000011
 31
0.0
  0
ARC
  5
1201E
  8
1-中柱P
 10
25480.111953585129
 20
16720.886252000011
 30
0.0
 40
1.0
 50
270.0
 51
0.0
  0
ARC
  5
1201F
  8
1-中柱P
 10
25480.111953585129
 20
16729.886252000011
 30
0.0
 40
1.0
 50
0.0
 51
90.0
  0
LINE
  5
12020
  8
1-中柱P
  6
1PL-M
 62
     6
 10
25486.111953585129
 20
16725.386252000011
 30
0.0
 11
25464.511953585141
 21
16725.386252000011
 31
0.0
  0
LINE
  5
12021
  8
1-中柱P
 10
25480.111953585129
 20
16709.886252000011
 30
0.0
 11
25473.111953585129
 21
16709.886252000011
 31
0.0
  0
LINE
  5
12022
  8
1-中柱P
 10
25469.511953585152
 20
16717.386252000011
 30
0.0
 11
25469.511953585152
 21
16709.386252000011
 31
0.0
  0
LINE
  5
12023
  8
1-中柱P
  6
HIDE-M
 62
     6
 10
25471.611953585129
 20
16709.886252000011
 30
0.0
 11
25470.011953585141
 21
16709.886252000011
 31
0.0
  0
LINE
  5
12024
  8
1-中柱P
 10
25469.511953585152
 20
16709.386252000011
 30
0.0
 11
25470.011953585141
 21
16709.886252000011
 31
0.0
  0
ARC
  5
12025
  8
1-中柱P
 10
25472.361953585129
 20
16709.136252000011
 30
0.0
 40
0.75
 50
180.0
 51
0.0
  0
LINE
  5
12026
  8
1-中柱P
 10
25481.111953585129
 20
16718.886252000011
 30
0.0
 11
25481.111953585129
 21
16710.886252000011
 31
0.0
  0
ARC
  5
12027
  8
1-中柱P
 10
25480.111953585129
 20
16710.886252000011
 30
0.0
 40
1.0
 50
270.0
 51
0.0
  0
LINE
  5
12028
  8
1-中柱P
  6
1PL-M
 62
     6
 10
25486.111953585129
 20
16715.386252000011
 30
0.0
 11
25464.511953585141
 21
16715.386252000011
 31
0.0
  0
LINE
  5
12029
  8
1-中柱P
 10
25473.111953585129
 20
16717.136252000011
 30
0.0
 11
25473.111953585129
 21
16709.136252000011
 31
0.0
  0
LINE
  5
1202A
  8
1-中柱P
  6
HIDE-M
 62
     6
 10
25481.111953585129
 20
16711.386252000011
 30
0.0
 11
25469.511953585152
 21
16711.386252000011
 31
0.0
  0
LINE
  5
1202B
  8
1-中柱P
  6
HIDE-M
 62
     6
 10
25481.111953585129
 20
16712.386252000011
 30
0.0
 11
25469.511953585152
 21
16712.386252000011
 31
0.0
  0
LINE
  5
1202C
  8
1-中柱カバ-P
 10
25470.011953585141
 20
16757.086252000001
 30
0.0
 11
25470.011953585141
 21
16816.386252000011
 31
0.0
  0
ARC
  5
1202D
  8
1-中柱カバ-P
 10
25476.611953585129
 20
16816.386252000011
 30
0.0
 40
6.599999999999997
 50
90.0
 51
180.0
  0
LINE
  5
1202E
  8
1-中柱カバ-P
 10
25471.611953585129
 20
16757.086252000001
 30
0.0
 11
25471.611953585129
 21
16816.386252000011
 31
0.0
  0
ARC
  5
1202F
  8
1-中柱カバ-P
 10
25476.611953585129
 20
16757.086252000001
 30
0.0
 40
5.0
 50
180.0
 51
270.0
  0
LINE
  5
12030
  8
1-中柱カバ-P
 10
25476.611953585129
 20
16822.986251999999
 30
0.0
 11
25548.411953585131
 21
16822.986251999999
 31
0.0
  0
ARC
  5
12031
  8
1-中柱カバ-P
 10
25548.411953585131
 20
16816.386252000011
 30
0.0
 40
6.599999999999997
 50
0.0
 51
90.0
  0
LINE
  5
12032
  8
1-中柱カバ-P
 10
25476.611953585129
 20
16821.386252000011
 30
0.0
 11
25548.411953585131
 21
16821.386252000011
 31
0.0
  0
ARC
  5
12033
  8
1-中柱カバ-P
 10
25548.411953585131
 20
16816.386252000011
 30
0.0
 40
5.0
 50
0.0
 51
90.0
  0
ARC
  5
12034
  8
1-中柱カバ-P
 10
25476.611953585129
 20
16816.386252000011
 30
0.0
 40
5.0
 50
90.0
 51
180.0
  0
LINE
  5
12035
  8
1-中柱カバ-P
 10
25555.011953585152
 20
16816.386252000011
 30
0.0
 11
25555.011953585152
 21
16757.086252000001
 31
0.0
  0
LINE
  5
12036
  8
1-中柱カバ-P
 10
25553.411953585131
 20
16816.386252000011
 30
0.0
 11
25553.411953585131
 21
16757.086252000001
 31
0.0
  0
ARC
  5
12037
  8
1-中柱カバ-P
 10
25548.411953585131
 20
16757.086252000001
 30
0.0
 40
5.0
 50
270.0
 51
0.0
  0
LINE
  5
12038
  8
1-中柱カバ-P
  6
1PL-M
 62
     6
 10
25512.511953585141
 20
16815.486251999999
 30
0.0
 11
25512.511953585141
 21
16828.486251999992
 31
0.0
  0
LINE
  5
12039
  8
1-中柱カバ-P
  6
HIDE-M
 62
     6
 10
25505.511953585152
 20
16822.986251999999
 30
0.0
 11
25505.511953585152
 21
16821.386252000011
 31
0.0
  0
LINE
  5
1203A
  8
1-中柱カバ-P
  6
HIDE-M
 62
     6
 10
25519.511953585152
 20
16822.986251999999
 30
0.0
 11
25519.511953585152
 21
16821.386252000011
 31
0.0
  0
ARC
  5
1203B
  8
1-中柱カバ-P
 10
25476.611953585129
 20
16757.086252000001
 30
0.0
 40
6.599999999999997
 50
180.0
 51
270.0
  0
ARC
  5
1203C
  8
1-中柱カバ-P
 10
25548.411953585131
 20
16757.086252000001
 30
0.0
 40
6.599999999999997
 50
270.0
 51
0.0
  0
LINE
  5
1203D
  8
1-中柱カバ-P
 10
25540.011953585152
 20
16750.486251999992
 30
0.0
 11
25548.411953585131
 21
16750.486251999992
 31
0.0
  0
LINE
  5
1203E
  8
1-中柱カバ-P
 10
25485.011953585152
 20
16750.486251999992
 30
0.0
 11
25476.611953585129
 21
16750.486251999992
 31
0.0
  0
LINE
  5
1203F
  8
1-中柱カバ-P
 10
25540.011953585152
 20
16752.086252000001
 30
0.0
 11
25548.411953585131
 21
16752.086252000001
 31
0.0
  0
LINE
  5
12040
  8
1-中柱カバ-P
 10
25485.011953585152
 20
16752.086252000001
 30
0.0
 11
25476.611953585129
 21
16752.086252000001
 31
0.0
  0
LINE
  5
12041
  8
1-中柱カバ-P
 10
25485.011953585152
 20
16752.086252000001
 30
0.0
 11
25485.011953585152
 21
16750.486251999992
 31
0.0
  0
LINE
  5
12042
  8
1-中柱カバ-P
 10
25540.011953585152
 20
16750.486251999992
 30
0.0
 11
25540.011953585152
 21
16752.086252000001
 31
0.0
  0
LINE
  5
12043
  8
1-中柱カバ-P
  6
HIDE-M
 62
     6
 10
25543.911953585131
 20
16771.486251999992
 30
0.0
 11
25555.511953585152
 21
16771.486251999992
 31
0.0
  0
LINE
  5
12044
  8
1-中柱カバ-P
  6
HIDE-M
 62
     6
 10
25543.911953585131
 20
16779.486251999992
 30
0.0
 11
25555.511953585152
 21
16779.486251999992
 31
0.0
  0
LINE
  5
12045
  8
1-中柱カバ-P
  6
HIDE-M
 62
     6
 10
25543.911953585131
 20
16772.486251999999
 30
0.0
 11
25555.511953585152
 21
16772.486251999999
 31
0.0
  0
LINE
  5
12046
  8
1-中柱カバ-P
  6
HIDE-M
 62
     6
 10
25543.911953585131
 20
16778.486251999999
 30
0.0
 11
25555.511953585152
 21
16778.486251999999
 31
0.0
  0
LINE
  5
12047
  8
1-中柱カバ-P
 10
25544.911953585121
 20
16780.986251999992
 30
0.0
 11
25551.911953585131
 21
16780.986251999992
 31
0.0
  0
LINE
  5
12048
  8
1-中柱カバ-P
 10
25551.911953585131
 20
16769.986251999992
 30
0.0
 11
25544.911953585121
 21
16769.986251999992
 31
0.0
  0
LINE
  5
12049
  8
1-中柱カバ-P
 10
25551.911953585131
 20
16769.236251999992
 30
0.0
 11
25551.911953585131
 21
16781.736251999992
 31
0.0
  0
LINE
  5
1204A
  8
1-中柱カバ-P
 10
25555.511953585152
 20
16769.486251999992
 30
0.0
 11
25555.511953585152
 21
16781.486251999992
 31
0.0
  0
LINE
  5
1204B
  8
1-中柱カバ-P
  6
HIDE-M
 62
     6
 10
25553.411953585131
 20
16780.986251999992
 30
0.0
 11
25555.011953585152
 21
16780.986251999992
 31
0.0
  0
LINE
  5
1204C
  8
1-中柱カバ-P
 10
25555.511953585152
 20
16781.486251999992
 30
0.0
 11
25555.011953585152
 21
16780.986251999992
 31
0.0
  0
ARC
  5
1204D
  8
1-中柱カバ-P
 10
25552.661953585131
 20
16781.736251999992
 30
0.0
 40
0.75
 50
0.0
 51
180.0
  0
LINE
  5
1204E
  8
1-中柱カバ-P
  6
HIDE-M
 62
     6
 10
25555.011953585152
 20
16769.986251999992
 30
0.0
 11
25553.411953585131
 21
16769.986251999992
 31
0.0
  0
LINE
  5
1204F
  8
1-中柱カバ-P
 10
25555.511953585152
 20
16769.486251999992
 30
0.0
 11
25555.011953585152
 21
16769.986251999992
 31
0.0
  0
ARC
  5
12050
  8
1-中柱カバ-P
 10
25552.661953585131
 20
16769.236251999992
 30
0.0
 40
0.75
 50
180.0
 51
0.0
  0
LINE
  5
12051
  8
1-中柱カバ-P
 10
25543.911953585131
 20
16770.986251999999
 30
0.0
 11
25543.911953585131
 21
16779.986251999992
 31
0.0
  0
ARC
  5
12052
  8
1-中柱カバ-P
 10
25544.911953585121
 20
16779.986251999992
 30
0.0
 40
1.0
 50
90.0
 51
180.0
  0
ARC
  5
12053
  8
1-中柱カバ-P
 10
25544.911953585121
 20
16770.986251999999
 30
0.0
 40
1.0
 50
180.0
 51
270.0
  0
LINE
  5
12054
  8
1-中柱カバ-P
  6
1PL-M
 62
     6
 10
25538.911953585131
 20
16775.486251999999
 30
0.0
 11
25560.511953585152
 21
16775.486251999999
 31
0.0
  0
LINE
  5
12055
  8
1-中柱カバ-P
 10
25544.911953585121
 20
16790.986251999992
 30
0.0
 11
25551.911953585131
 21
16790.986251999992
 31
0.0
  0
LINE
  5
12056
  8
1-中柱カバ-P
 10
25555.511953585152
 20
16783.486251999992
 30
0.0
 11
25555.511953585152
 21
16791.486251999992
 31
0.0
  0
LINE
  5
12057
  8
1-中柱カバ-P
  6
HIDE-M
 62
     6
 10
25553.411953585131
 20
16790.986251999992
 30
0.0
 11
25555.011953585152
 21
16790.986251999992
 31
0.0
  0
LINE
  5
12058
  8
1-中柱カバ-P
 10
25555.511953585152
 20
16791.486251999992
 30
0.0
 11
25555.011953585152
 21
16790.986251999992
 31
0.0
  0
ARC
  5
12059
  8
1-中柱カバ-P
 10
25552.661953585131
 20
16791.736251999992
 30
0.0
 40
0.75
 50
0.0
 51
180.0
  0
LINE
  5
1205A
  8
1-中柱カバ-P
 10
25543.911953585131
 20
16781.986251999992
 30
0.0
 11
25543.911953585131
 21
16789.986251999999
 31
0.0
  0
ARC
  5
1205B
  8
1-中柱カバ-P
 10
25544.911953585121
 20
16789.986251999999
 30
0.0
 40
1.0
 50
90.0
 51
180.0
  0
LINE
  5
1205C
  8
1-中柱カバ-P
  6
1PL-M
 62
     6
 10
25538.911953585131
 20
16785.486251999992
 30
0.0
 11
25560.511953585152
 21
16785.486251999992
 31
0.0
  0
LINE
  5
1205D
  8
1-中柱カバ-P
 10
25551.911953585131
 20
16783.736251999992
 30
0.0
 11
25551.911953585131
 21
16791.736251999992
 31
0.0
  0
LINE
  5
1205E
  8
1-中柱カバ-P
  6
HIDE-M
 62
     6
 10
25481.111953585129
 20
16771.486251999992
 30
0.0
 11
25469.511953585152
 21
16771.486251999992
 31
0.0
  0
LINE
  5
1205F
  8
1-中柱カバ-P
  6
HIDE-M
 62
     6
 10
25481.111953585129
 20
16779.486251999992
 30
0.0
 11
25469.511953585152
 21
16779.486251999992
 31
0.0
  0
LINE
  5
12060
  8
1-中柱カバ-P
  6
HIDE-M
 62
     6
 10
25481.111953585129
 20
16772.486251999999
 30
0.0
 11
25469.511953585152
 21
16772.486251999999
 31
0.0
  0
LINE
  5
12061
  8
1-中柱カバ-P
  6
HIDE-M
 62
     6
 10
25481.111953585129
 20
16778.486251999999
 30
0.0
 11
25469.511953585152
 21
16778.486251999999
 31
0.0
  0
LINE
  5
12062
  8
1-中柱カバ-P
 10
25480.111953585129
 20
16780.986251999992
 30
0.0
 11
25473.111953585129
 21
16780.986251999992
 31
0.0
  0
LINE
  5
12063
  8
1-中柱カバ-P
 10
25473.111953585129
 20
16769.986251999992
 30
0.0
 11
25480.111953585129
 21
16769.986251999992
 31
0.0
  0
LINE
  5
12064
  8
1-中柱カバ-P
 10
25473.111953585129
 20
16769.236251999992
 30
0.0
 11
25473.111953585129
 21
16781.736251999992
 31
0.0
  0
LINE
  5
12065
  8
1-中柱カバ-P
 10
25469.511953585152
 20
16769.486251999992
 30
0.0
 11
25469.511953585152
 21
16781.486251999992
 31
0.0
  0
LINE
  5
12066
  8
1-中柱カバ-P
  6
HIDE-M
 62
     6
 10
25471.611953585129
 20
16780.986251999992
 30
0.0
 11
25470.011953585141
 21
16780.986251999992
 31
0.0
  0
LINE
  5
12067
  8
1-中柱カバ-P
 10
25469.511953585152
 20
16781.486251999992
 30
0.0
 11
25470.011953585141
 21
16780.986251999992
 31
0.0
  0
ARC
  5
12068
  8
1-中柱カバ-P
 10
25472.361953585129
 20
16781.736251999992
 30
0.0
 40
0.75
 50
0.0
 51
180.0
  0
LINE
  5
12069
  8
1-中柱カバ-P
  6
HIDE-M
 62
     6
 10
25470.011953585141
 20
16769.986251999992
 30
0.0
 11
25471.611953585129
 21
16769.986251999992
 31
0.0
  0
LINE
  5
1206A
  8
1-中柱カバ-P
 10
25469.511953585152
 20
16769.486251999992
 30
0.0
 11
25470.011953585141
 21
16769.986251999992
 31
0.0
  0
ARC
  5
1206B
  8
1-中柱カバ-P
 10
25472.361953585129
 20
16769.236251999992
 30
0.0
 40
0.75
 50
180.0
 51
0.0
  0
LINE
  5
1206C
  8
1-中柱カバ-P
 10
25481.111953585129
 20
16770.986251999999
 30
0.0
 11
25481.111953585129
 21
16779.986251999992
 31
0.0
  0
ARC
  5
1206D
  8
1-中柱カバ-P
 10
25480.111953585129
 20
16779.986251999992
 30
0.0
 40
1.0
 50
0.0
 51
90.0
  0
ARC
  5
1206E
  8
1-中柱カバ-P
 10
25480.111953585129
 20
16770.986251999999
 30
0.0
 40
1.0
 50
270.0
 51
0.0
  0
LINE
  5
1206F
  8
1-中柱カバ-P
  6
1PL-M
 62
     6
 10
25486.111953585129
 20
16775.486251999999
 30
0.0
 11
25464.511953585141
 21
16775.486251999999
 31
0.0
  0
LINE
  5
12070
  8
1-中柱カバ-P
 10
25480.111953585129
 20
16790.986251999992
 30
0.0
 11
25473.111953585129
 21
16790.986251999992
 31
0.0
  0
LINE
  5
12071
  8
1-中柱カバ-P
 10
25469.511953585152
 20
16783.486251999992
 30
0.0
 11
25469.511953585152
 21
16791.486251999992
 31
0.0
  0
LINE
  5
12072
  8
1-中柱カバ-P
  6
HIDE-M
 62
     6
 10
25471.611953585129
 20
16790.986251999992
 30
0.0
 11
25470.011953585141
 21
16790.986251999992
 31
0.0
  0
LINE
  5
12073
  8
1-中柱カバ-P
 10
25469.511953585152
 20
16791.486251999992
 30
0.0
 11
25470.011953585141
 21
16790.986251999992
 31
0.0
  0
ARC
  5
12074
  8
1-中柱カバ-P
 10
25472.361953585129
 20
16791.736251999992
 30
0.0
 40
0.75
 50
0.0
 51
180.0
  0
LINE
  5
12075
  8
1-中柱カバ-P
 10
25481.111953585129
 20
16781.986251999992
 30
0.0
 11
25481.111953585129
 21
16789.986251999999
 31
0.0
  0
ARC
  5
12076
  8
1-中柱カバ-P
 10
25480.111953585129
 20
16789.986251999999
 30
0.0
 40
1.0
 50
0.0
 51
90.0
  0
LINE
  5
12077
  8
1-中柱カバ-P
  6
1PL-M
 62
     6
 10
25486.111953585129
 20
16785.486251999992
 30
0.0
 11
25464.511953585141
 21
16785.486251999992
 31
0.0
  0
LINE
  5
12078
  8
1-中柱カバ-P
 10
25473.111953585129
 20
16783.736251999992
 30
0.0
 11
25473.111953585129
 21
16791.736251999992
 31
0.0
  0
LINE
  5
12079
  8
1-中柱カバ-P
  6
HIDE-M
 62
     6
 10
25543.911953585131
 20
16789.486251999992
 30
0.0
 11
25555.511953585152
 21
16789.486251999992
 31
0.0
  0
LINE
  5
1207A
  8
1-中柱カバ-P
  6
HIDE-M
 62
     6
 10
25543.911953585131
 20
16788.486251999992
 30
0.0
 11
25555.511953585152
 21
16788.486251999992
 31
0.0
  0
LINE
  5
1207B
  8
1-中柱カバ-P
  6
HIDE-M
 62
     6
 10
25481.111953585129
 20
16789.486251999992
 30
0.0
 11
25469.511953585152
 21
16789.486251999992
 31
0.0
  0
LINE
  5
1207C
  8
1-中柱カバ-P
  6
HIDE-M
 62
     6
 10
25481.111953585129
 20
16788.486251999992
 30
0.0
 11
25469.511953585152
 21
16788.486251999992
 31
0.0
  0
ARC
  5
1207D
  8
1-前柱P
  6
HIDE-M
 62
     6
 10
25508.911953585131
 20
13900.886252
 30
0.0
 40
2.6000000000000001
 50
0.0
 51
90.0
  0
LINE
  5
1207E
  8
1-前柱P
  6
HIDE-M
 62
     6
 10
25520.511953585152
 20
13902.935642153199
 30
0.0
 11
25520.511953585152
 21
13899.286252
 31
0.0
  0
LINE
  5
1207F
  8
1-前柱P
  6
HIDE-M
 62
     6
 10
25510.51195358513
 20
13902.935642153199
 30
0.0
 11
25510.51195358513
 21
13899.286252
 31
0.0
  0
LINE
  5
12080
  8
1-前柱P
  6
1PL-M
 62
     6
 10
25515.511953585152
 20
13908.486252000001
 30
0.0
 11
25515.511953585152
 21
13894.286252
 31
0.0
  0
ARC
  5
12081
  8
1-前柱P
  6
HIDE-M
 62
     6
 10
25522.111953585129
 20
13900.886252
 30
0.0
 40
2.6000000000000001
 50
90.0
 51
180.0
  0
LINE
  5
12082
  8
1-前柱P
  6
HIDE-M
 62
     6
 10
25511.511953585152
 20
13900.886252
 30
0.0
 11
25511.511953585152
 21
13899.286252
 31
0.0
  0
LINE
  5
12083
  8
1-前柱P
  6
HIDE-M
 62
     6
 10
25519.511953585152
 20
13900.886252
 30
0.0
 11
25519.511953585152
 21
13899.286252
 31
0.0
  0
LINE
  5
12084
  8
1-前柱P
 10
25501.611953585129
 20
13788.58625200001
 30
0.0
 11
25523.411953585139
 21
13788.58625200001
 31
0.0
  0
LINE
  5
12085
  8
1-前柱P
 10
25553.41195358515
 20
13825.886252
 30
0.0
 11
25553.41195358515
 21
13818.586251999999
 31
0.0
  0
ARC
  5
12086
  8
1-前柱P
 10
25523.411953585139
 20
13818.586251999999
 30
0.0
 40
30.0
 50
270.0
 51
0.0
  0
ARC
  5
12087
  8
1-前柱P
 10
25523.411953585139
 20
13818.586251999999
 30
0.0
 40
31.600000000000001
 50
270.0
 51
0.0
  0
LINE
  5
12088
  8
1-前柱P
 10
25501.611953585129
 20
13786.986252000001
 30
0.0
 11
25523.411953585139
 21
13786.986252000001
 31
0.0
  0
LINE
  5
12089
  8
1-前柱P
 10
25555.011953585152
 20
13825.886252
 30
0.0
 11
25555.011953585152
 21
13818.586251999999
 31
0.0
  0
LINE
  5
1208A
  8
1-前柱P
 10
25532.011953585152
 20
13847.486252000001
 30
0.0
 11
25532.011953585152
 21
13837.486252000001
 31
0.0
  0
LINE
  5
1208B
  8
1-前柱P
 10
25530.41195358515
 20
13837.486252000001
 30
0.0
 11
25530.41195358515
 21
13847.486252000001
 31
0.0
  0
LINE
  5
1208C
  8
1-前柱P
 10
25471.611953585129
 20
13825.886252
 30
0.0
 11
25471.611953585129
 21
13818.586251999999
 31
0.0
  0
ARC
  5
1208D
  8
1-前柱P
 10
25501.611953585129
 20
13818.586251999999
 30
0.0
 40
30.0
 50
180.0
 51
270.0
  0
ARC
  5
1208E
  8
1-前柱P
 10
25501.611953585129
 20
13818.586251999999
 30
0.0
 40
31.600000000000001
 50
180.0
 51
270.0
  0
LINE
  5
1208F
  8
1-前柱P
 10
25470.011953585141
 20
13825.886252
 30
0.0
 11
25470.011953585141
 21
13818.586251999999
 31
0.0
  0
LINE
  5
12090
  8
1-前柱P
 10
25476.611953585129
 20
13832.486252000001
 30
0.0
 11
25488.011953585152
 21
13832.486252000001
 31
0.0
  0
ARC
  5
12091
  8
1-前柱P
 10
25476.611953585129
 20
13825.886252
 30
0.0
 40
6.599999999999997
 50
90.0
 51
180.0
  0
ARC
  5
12092
  8
1-前柱P
 10
25488.011953585152
 20
13837.486252000001
 30
0.0
 40
5.0
 50
270.0
 51
0.0
  0
LINE
  5
12093
  8
1-前柱P
 10
25476.611953585129
 20
13830.886252
 30
0.0
 11
25488.011953585152
 21
13830.886252
 31
0.0
  0
ARC
  5
12094
  8
1-前柱P
 10
25476.611953585129
 20
13825.886252
 30
0.0
 40
5.0
 50
90.0
 51
180.0
  0
LINE
  5
12095
  8
1-前柱P
 10
25493.011953585141
 20
13837.486252000001
 30
0.0
 11
25493.011953585141
 21
13896.886252
 31
0.0
  0
LINE
  5
12096
  8
1-前柱P
 10
25494.611953585129
 20
13837.486252000001
 30
0.0
 11
25494.611953585129
 21
13896.886252
 31
0.0
  0
ARC
  5
12097
  8
1-前柱P
 10
25488.011953585152
 20
13837.486252000001
 30
0.0
 40
6.599999999999997
 50
270.0
 51
0.0
  0
LINE
  5
12098
  8
1-前柱P
 10
25499.611953585129
 20
13903.486252000001
 30
0.0
 11
25533.011953585141
 21
13903.486252000001
 31
0.0
  0
ARC
  5
12099
  8
1-前柱P
 10
25499.611953585129
 20
13896.886252
 30
0.0
 40
6.599999999999997
 50
90.0
 51
180.0
  0
LINE
  5
1209A
  8
1-前柱P
 10
25499.611953585129
 20
13901.886252
 30
0.0
 11
25533.011953585141
 21
13901.886252
 31
0.0
  0
ARC
  5
1209B
  8
1-前柱P
 10
25499.611953585129
 20
13896.886252
 30
0.0
 40
5.0
 50
90.0
 51
180.0
  0
LINE
  5
1209C
  8
1-前柱P
 10
25533.011953585141
 20
13901.886252
 30
0.0
 11
25533.011953585141
 21
13903.486252000001
 31
0.0
  0
LINE
  5
1209D
  8
1-前柱P
 10
25548.41195358515
 20
13832.486252000001
 30
0.0
 11
25537.011953585141
 21
13832.486252000001
 31
0.0
  0
ARC
  5
1209E
  8
1-前柱P
 10
25548.41195358515
 20
13825.886252
 30
0.0
 40
6.599999999999997
 50
0.0
 51
90.0
  0
ARC
  5
1209F
  8
1-前柱P
 10
25537.011953585141
 20
13837.486252000001
 30
0.0
 40
5.0
 50
180.0
 51
270.0
  0
LINE
  5
120A0
  8
1-前柱P
 10
25537.011953585141
 20
13830.886252
 30
0.0
 11
25548.41195358515
 21
13830.886252
 31
0.0
  0
ARC
  5
120A1
  8
1-前柱P
 10
25537.011953585141
 20
13837.486252000001
 30
0.0
 40
6.599999999999997
 50
180.0
 51
270.0
  0
ARC
  5
120A2
  8
1-前柱P
 10
25548.41195358515
 20
13825.886252
 30
0.0
 40
5.0
 50
0.0
 51
90.0
  0
LINE
  5
120A3
  8
1-前柱P
 10
25532.011953585152
 20
13847.486252000001
 30
0.0
 11
25530.41195358515
 21
13847.486252000001
 31
0.0
  0
LINE
  5
120A4
  8
1-前柱カバ-P
 10
25555.011953585152
 20
13839.18625199999
 30
0.0
 11
25555.011953585152
 21
13898.486252000001
 31
0.0
  0
ARC
  5
120A5
  8
1-前柱カバ-P
 10
25548.41195358515
 20
13898.486252000001
 30
0.0
 40
6.599999999999997
 50
0.0
 51
90.0
  0
LINE
  5
120A6
  8
1-前柱カバ-P
 10
25553.41195358515
 20
13839.18625199999
 30
0.0
 11
25553.41195358515
 21
13898.486252000001
 31
0.0
  0
ARC
  5
120A7
  8
1-前柱カバ-P
 10
25548.41195358515
 20
13839.18625199999
 30
0.0
 40
5.0
 50
270.0
 51
0.0
  0
LINE
  5
120A8
  8
1-前柱カバ-P
 10
25548.41195358515
 20
13905.086251999999
 30
0.0
 11
25476.611953585129
 21
13905.086251999999
 31
0.0
  0
ARC
  5
120A9
  8
1-前柱カバ-P
 10
25476.611953585129
 20
13898.486252000001
 30
0.0
 40
6.599999999999997
 50
90.0
 51
180.0
  0
LINE
  5
120AA
  8
1-前柱カバ-P
 10
25548.41195358515
 20
13903.486252000001
 30
0.0
 11
25476.611953585129
 21
13903.486252000001
 31
0.0
  0
ARC
  5
120AB
  8
1-前柱カバ-P
 10
25476.611953585129
 20
13898.486252000001
 30
0.0
 40
5.0
 50
90.0
 51
180.0
  0
ARC
  5
120AC
  8
1-前柱カバ-P
 10
25548.41195358515
 20
13898.486252000001
 30
0.0
 40
5.0
 50
0.0
 51
90.0
  0
LINE
  5
120AD
  8
1-前柱カバ-P
 10
25470.011953585141
 20
13898.486252000001
 30
0.0
 11
25470.011953585141
 21
13839.18625199999
 31
0.0
  0
LINE
  5
120AE
  8
1-前柱カバ-P
 10
25471.611953585129
 20
13898.486252000001
 30
0.0
 11
25471.611953585129
 21
13839.18625199999
 31
0.0
  0
ARC
  5
120AF
  8
1-前柱カバ-P
 10
25476.611953585129
 20
13839.18625199999
 30
0.0
 40
5.0
 50
180.0
 51
270.0
  0
LINE
  5
120B0
  8
1-前柱カバ-P
  6
1PL-M
 62
     6
 10
25512.511953585141
 20
13897.586251999999
 30
0.0
 11
25512.511953585141
 21
13910.58625200001
 31
0.0
  0
LINE
  5
120B1
  8
1-前柱カバ-P
  6
HIDE-M
 62
     6
 10
25519.511953585152
 20
13905.086251999999
 30
0.0
 11
25519.511953585152
 21
13903.486252000001
 31
0.0
  0
LINE
  5
120B2
  8
1-前柱カバ-P
  6
HIDE-M
 62
     6
 10
25505.511953585152
 20
13905.086251999999
 30
0.0
 11
25505.511953585152
 21
13903.486252000001
 31
0.0
  0
ARC
  5
120B3
  8
1-前柱カバ-P
 10
25548.41195358515
 20
13839.18625199999
 30
0.0
 40
6.599999999999997
 50
270.0
 51
0.0
  0
ARC
  5
120B4
  8
1-前柱カバ-P
 10
25476.611953585129
 20
13839.18625199999
 30
0.0
 40
6.599999999999997
 50
180.0
 51
270.0
  0
LINE
  5
120B5
  8
1-前柱カバ-P
 10
25485.011953585152
 20
13832.586251999999
 30
0.0
 11
25476.611953585129
 21
13832.586251999999
 31
0.0
  0
LINE
  5
120B6
  8
1-前柱カバ-P
 10
25540.011953585152
 20
13832.586251999999
 30
0.0
 11
25548.41195358515
 21
13832.586251999999
 31
0.0
  0
LINE
  5
120B7
  8
1-前柱カバ-P
 10
25485.011953585152
 20
13834.186252
 30
0.0
 11
25476.611953585129
 21
13834.186252
 31
0.0
  0
LINE
  5
120B8
  8
1-前柱カバ-P
 10
25540.011953585152
 20
13834.186252
 30
0.0
 11
25548.41195358515
 21
13834.186252
 31
0.0
  0
LINE
  5
120B9
  8
1-前柱カバ-P
 10
25540.011953585152
 20
13834.186252
 30
0.0
 11
25540.011953585152
 21
13832.586251999999
 31
0.0
  0
LINE
  5
120BA
  8
1-前柱カバ-P
 10
25485.011953585152
 20
13832.586251999999
 30
0.0
 11
25485.011953585152
 21
13834.186252
 31
0.0
  0
LINE
  5
120BB
  8
1-前柱カバ-P
  6
HIDE-M
 62
     6
 10
25481.111953585129
 20
13853.586251999999
 30
0.0
 11
25469.511953585152
 21
13853.586251999999
 31
0.0
  0
LINE
  5
120BC
  8
1-前柱カバ-P
  6
HIDE-M
 62
     6
 10
25481.111953585129
 20
13861.586251999999
 30
0.0
 11
25469.511953585152
 21
13861.586251999999
 31
0.0
  0
LINE
  5
120BD
  8
1-前柱カバ-P
  6
HIDE-M
 62
     6
 10
25481.111953585129
 20
13854.586251999999
 30
0.0
 11
25469.511953585152
 21
13854.586251999999
 31
0.0
  0
LINE
  5
120BE
  8
1-前柱カバ-P
  6
HIDE-M
 62
     6
 10
25481.111953585129
 20
13860.586251999999
 30
0.0
 11
25469.511953585152
 21
13860.586251999999
 31
0.0
  0
LINE
  5
120BF
  8
1-前柱カバ-P
 10
25480.111953585129
 20
13863.086251999999
 30
0.0
 11
25473.111953585129
 21
13863.086251999999
 31
0.0
  0
LINE
  5
120C0
  8
1-前柱カバ-P
 10
25473.111953585129
 20
13852.08625199999
 30
0.0
 11
25480.111953585129
 21
13852.08625199999
 31
0.0
  0
LINE
  5
120C1
  8
1-前柱カバ-P
 10
25473.111953585129
 20
13851.33625199999
 30
0.0
 11
25473.111953585129
 21
13863.83625200001
 31
0.0
  0
LINE
  5
120C2
  8
1-前柱カバ-P
 10
25469.511953585152
 20
13851.58625199999
 30
0.0
 11
25469.511953585152
 21
13863.58625199999
 31
0.0
  0
LINE
  5
120C3
  8
1-前柱カバ-P
  6
HIDE-M
 62
     6
 10
25471.611953585129
 20
13863.086251999999
 30
0.0
 11
25470.011953585141
 21
13863.086251999999
 31
0.0
  0
LINE
  5
120C4
  8
1-前柱カバ-P
 10
25469.511953585152
 20
13863.58625199999
 30
0.0
 11
25470.011953585141
 21
13863.086251999999
 31
0.0
  0
ARC
  5
120C5
  8
1-前柱カバ-P
 10
25472.361953585129
 20
13863.83625200001
 30
0.0
 40
0.75
 50
0.0
 51
180.0
  0
LINE
  5
120C6
  8
1-前柱カバ-P
  6
HIDE-M
 62
     6
 10
25470.011953585141
 20
13852.08625199999
 30
0.0
 11
25471.611953585129
 21
13852.08625199999
 31
0.0
  0
LINE
  5
120C7
  8
1-前柱カバ-P
 10
25469.511953585152
 20
13851.58625199999
 30
0.0
 11
25470.011953585141
 21
13852.08625199999
 31
0.0
  0
ARC
  5
120C8
  8
1-前柱カバ-P
 10
25472.361953585129
 20
13851.33625199999
 30
0.0
 40
0.75
 50
180.0
 51
0.0
  0
LINE
  5
120C9
  8
1-前柱カバ-P
 10
25481.111953585129
 20
13853.08625199999
 30
0.0
 11
25481.111953585129
 21
13862.08625199999
 31
0.0
  0
ARC
  5
120CA
  8
1-前柱カバ-P
 10
25480.111953585129
 20
13862.08625199999
 30
0.0
 40
1.0
 50
0.0
 51
90.0
  0
ARC
  5
120CB
  8
1-前柱カバ-P
 10
25480.111953585129
 20
13853.08625199999
 30
0.0
 40
1.0
 50
270.0
 51
0.0
  0
LINE
  5
120CC
  8
1-前柱カバ-P
  6
1PL-M
 62
     6
 10
25486.111953585129
 20
13857.586251999999
 30
0.0
 11
25464.511953585141
 21
13857.586251999999
 31
0.0
  0
LINE
  5
120CD
  8
1-前柱カバ-P
 10
25480.111953585129
 20
13873.08625199999
 30
0.0
 11
25473.111953585129
 21
13873.08625199999
 31
0.0
  0
LINE
  5
120CE
  8
1-前柱カバ-P
 10
25469.511953585152
 20
13865.58625199999
 30
0.0
 11
25469.511953585152
 21
13873.586251999999
 31
0.0
  0
LINE
  5
120CF
  8
1-前柱カバ-P
  6
HIDE-M
 62
     6
 10
25471.611953585129
 20
13873.08625199999
 30
0.0
 11
25470.011953585141
 21
13873.08625199999
 31
0.0
  0
LINE
  5
120D0
  8
1-前柱カバ-P
 10
25469.511953585152
 20
13873.586251999999
 30
0.0
 11
25470.011953585141
 21
13873.08625199999
 31
0.0
  0
ARC
  5
120D1
  8
1-前柱カバ-P
 10
25472.361953585129
 20
13873.836251999999
 30
0.0
 40
0.75
 50
0.0
 51
180.0
  0
LINE
  5
120D2
  8
1-前柱カバ-P
 10
25481.111953585129
 20
13864.086251999999
 30
0.0
 11
25481.111953585129
 21
13872.08625199999
 31
0.0
  0
ARC
  5
120D3
  8
1-前柱カバ-P
 10
25480.111953585129
 20
13872.08625199999
 30
0.0
 40
1.0
 50
0.0
 51
90.0
  0
LINE
  5
120D4
  8
1-前柱カバ-P
  6
1PL-M
 62
     6
 10
25486.111953585129
 20
13867.58625200001
 30
0.0
 11
25464.511953585141
 21
13867.58625200001
 31
0.0
  0
LINE
  5
120D5
  8
1-前柱カバ-P
 10
25473.111953585129
 20
13865.83625200001
 30
0.0
 11
25473.111953585129
 21
13873.836251999999
 31
0.0
  0
LINE
  5
120D6
  8
1-前柱カバ-P
  6
HIDE-M
 62
     6
 10
25543.911953585131
 20
13853.586251999999
 30
0.0
 11
25555.511953585152
 21
13853.586251999999
 31
0.0
  0
LINE
  5
120D7
  8
1-前柱カバ-P
  6
HIDE-M
 62
     6
 10
25543.911953585131
 20
13861.586251999999
 30
0.0
 11
25555.511953585152
 21
13861.586251999999
 31
0.0
  0
LINE
  5
120D8
  8
1-前柱カバ-P
  6
HIDE-M
 62
     6
 10
25543.911953585131
 20
13854.586251999999
 30
0.0
 11
25555.511953585152
 21
13854.586251999999
 31
0.0
  0
LINE
  5
120D9
  8
1-前柱カバ-P
  6
HIDE-M
 62
     6
 10
25543.911953585131
 20
13860.586251999999
 30
0.0
 11
25555.511953585152
 21
13860.586251999999
 31
0.0
  0
LINE
  5
120DA
  8
1-前柱カバ-P
 10
25544.91195358515
 20
13863.086251999999
 30
0.0
 11
25551.911953585139
 21
13863.086251999999
 31
0.0
  0
LINE
  5
120DB
  8
1-前柱カバ-P
 10
25551.911953585139
 20
13852.08625199999
 30
0.0
 11
25544.91195358515
 21
13852.08625199999
 31
0.0
  0
LINE
  5
120DC
  8
1-前柱カバ-P
 10
25551.911953585139
 20
13851.33625199999
 30
0.0
 11
25551.911953585139
 21
13863.83625200001
 31
0.0
  0
LINE
  5
120DD
  8
1-前柱カバ-P
 10
25555.511953585152
 20
13851.58625199999
 30
0.0
 11
25555.511953585152
 21
13863.58625199999
 31
0.0
  0
LINE
  5
120DE
  8
1-前柱カバ-P
  6
HIDE-M
 62
     6
 10
25553.41195358515
 20
13863.086251999999
 30
0.0
 11
25555.011953585152
 21
13863.086251999999
 31
0.0
  0
LINE
  5
120DF
  8
1-前柱カバ-P
 10
25555.511953585152
 20
13863.58625199999
 30
0.0
 11
25555.011953585152
 21
13863.086251999999
 31
0.0
  0
ARC
  5
120E0
  8
1-前柱カバ-P
 10
25552.66195358515
 20
13863.83625200001
 30
0.0
 40
0.75
 50
0.0
 51
180.0
  0
LINE
  5
120E1
  8
1-前柱カバ-P
  6
HIDE-M
 62
     6
 10
25555.011953585152
 20
13852.08625199999
 30
0.0
 11
25553.41195358515
 21
13852.08625199999
 31
0.0
  0
LINE
  5
120E2
  8
1-前柱カバ-P
 10
25555.511953585152
 20
13851.58625199999
 30
0.0
 11
25555.011953585152
 21
13852.08625199999
 31
0.0
  0
ARC
  5
120E3
  8
1-前柱カバ-P
 10
25552.66195358515
 20
13851.33625199999
 30
0.0
 40
0.75
 50
180.0
 51
0.0
  0
LINE
  5
120E4
  8
1-前柱カバ-P
 10
25543.911953585131
 20
13853.08625199999
 30
0.0
 11
25543.911953585131
 21
13862.08625199999
 31
0.0
  0
ARC
  5
120E5
  8
1-前柱カバ-P
 10
25544.91195358515
 20
13862.08625199999
 30
0.0
 40
1.0
 50
90.0
 51
180.0
  0
ARC
  5
120E6
  8
1-前柱カバ-P
 10
25544.91195358515
 20
13853.08625199999
 30
0.0
 40
1.0
 50
180.0
 51
270.0
  0
LINE
  5
120E7
  8
1-前柱カバ-P
  6
1PL-M
 62
     6
 10
25538.91195358515
 20
13857.586251999999
 30
0.0
 11
25560.511953585152
 21
13857.586251999999
 31
0.0
  0
LINE
  5
120E8
  8
1-前柱カバ-P
 10
25544.91195358515
 20
13873.08625199999
 30
0.0
 11
25551.911953585139
 21
13873.08625199999
 31
0.0
  0
LINE
  5
120E9
  8
1-前柱カバ-P
 10
25555.511953585152
 20
13865.58625199999
 30
0.0
 11
25555.511953585152
 21
13873.586251999999
 31
0.0
  0
LINE
  5
120EA
  8
1-前柱カバ-P
  6
HIDE-M
 62
     6
 10
25553.41195358515
 20
13873.08625199999
 30
0.0
 11
25555.011953585152
 21
13873.08625199999
 31
0.0
  0
LINE
  5
120EB
  8
1-前柱カバ-P
 10
25555.511953585152
 20
13873.586251999999
 30
0.0
 11
25555.011953585152
 21
13873.08625199999
 31
0.0
  0
ARC
  5
120EC
  8
1-前柱カバ-P
 10
25552.66195358515
 20
13873.836251999999
 30
0.0
 40
0.75
 50
0.0
 51
180.0
  0
LINE
  5
120ED
  8
1-前柱カバ-P
 10
25543.911953585131
 20
13864.086251999999
 30
0.0
 11
25543.911953585131
 21
13872.08625199999
 31
0.0
  0
ARC
  5
120EE
  8
1-前柱カバ-P
 10
25544.91195358515
 20
13872.08625199999
 30
0.0
 40
1.0
 50
90.0
 51
180.0
  0
LINE
  5
120EF
  8
1-前柱カバ-P
  6
1PL-M
 62
     6
 10
25538.91195358515
 20
13867.58625200001
 30
0.0
 11
25560.511953585152
 21
13867.58625200001
 31
0.0
  0
LINE
  5
120F0
  8
1-前柱カバ-P
 10
25551.911953585139
 20
13865.83625200001
 30
0.0
 11
25551.911953585139
 21
13873.836251999999
 31
0.0
  0
LINE
  5
120F1
  8
1-前柱カバ-P
  6
HIDE-M
 62
     6
 10
25481.111953585129
 20
13871.58625199999
 30
0.0
 11
25469.511953585152
 21
13871.58625199999
 31
0.0
  0
LINE
  5
120F2
  8
1-前柱カバ-P
  6
HIDE-M
 62
     6
 10
25481.111953585129
 20
13870.58625199999
 30
0.0
 11
25469.511953585152
 21
13870.58625199999
 31
0.0
  0
LINE
  5
120F3
  8
1-前柱カバ-P
  6
HIDE-M
 62
     6
 10
25543.911953585131
 20
13871.58625199999
 30
0.0
 11
25555.511953585152
 21
13871.58625199999
 31
0.0
  0
LINE
  5
120F4
  8
1-前柱カバ-P
  6
HIDE-M
 62
     6
 10
25543.911953585131
 20
13870.58625199999
 30
0.0
 11
25555.511953585152
 21
13870.58625199999
 31
0.0
  0
LINE
  5
12107
  8
0-6
  6
CONTINUOUS
 62
     6
 10
24068.291427008651
 20
13192.487109999989
 30
0.0
 11
25068.290768008639
 21
13192.487109999989
 31
0.0
  0
TEXT
  5
12108
  8
0-6
  6
CONTINUOUS
 62
     7
 10
24164.291691008631
 20
13272.48737399998
 30
0.0
 40
160.0
  1
前柱（P）
 72
     4
 11
24564.291691008631
 21
13352.48737399998
 31
0.0
  0
LINE
  5
12109
  8
0-6
  6
CONTINUOUS
 62
     6
 10
25473.36713183004
 20
13778.486252000001
 30
0.0
 11
25068.290768008639
 21
13192.487109999989
 31
0.0
  0
LINE
  5
1210A
  8
0-6
  6
CONTINUOUS
 62
     6
 10
24068.291427008651
 20
16080.047909954121
 30
0.0
 11
25068.290768008639
 21
16080.047909954121
 31
0.0
  0
TEXT
  5
1210B
  8
0-6
  6
CONTINUOUS
 62
     7
 10
24164.291691008631
 20
16160.048173954099
 30
0.0
 40
160.0
  1
中柱（P）
 72
     4
 11
24564.291691008631
 21
16240.048173954099
 31
0.0
  0
LINE
  5
1210C
  8
0-6
  6
CONTINUOUS
 62
     6
 10
25473.36713183004
 20
16666.047051954109
 30
0.0
 11
25068.290768008639
 21
16080.047909954121
 31
0.0
  0
LINE
  5
1210D
  8
0-6
  6
CONTINUOUS
 62
     6
 10
23727.229536539111
 20
14393.476989828871
 30
0.0
 11
25183.229536539118
 21
14393.47698982888
 31
0.0
  0
TEXT
  5
1210E
  8
0-6
  6
CONTINUOUS
 62
     7
 10
23767.234809791531
 20
14473.47725382886
 30
0.0
 40
160.0
  1
前柱カバー（P）
 72
     4
 11
24455.234809791531
 21
14553.47725382886
 31
0.0
  0
LINE
  5
1210F
  8
0-6
  6
CONTINUOUS
 62
     6
 10
25482.46713183005
 20
13905.086251999999
 30
0.0
 11
25183.229536539118
 21
14393.47698982888
 31
0.0
  0
LINE
  5
12110
  8
0-6
  6
CONTINUOUS
 62
     6
 10
23727.229536539111
 20
17300.976553828881
 30
0.0
 11
25183.229536539118
 21
17300.976553828881
 31
0.0
  0
TEXT
  5
12111
  8
0-6
  6
CONTINUOUS
 62
     7
 10
23767.234809791531
 20
17380.976817828861
 30
0.0
 40
160.0
  1
中柱カバー（P）
 72
     4
 11
24455.234809791531
 21
17460.976817828861
 31
0.0
  0
LINE
  5
12112
  8
0-6
  6
CONTINUOUS
 62
     6
 10
25482.46713183005
 20
16812.585815999999
 30
0.0
 11
25183.229536539118
 21
17300.976553828881
 31
0.0
  0
LINE
  5
12113
  8
0-6
  6
CONTINUOUS
 62
     6
 10
24068.291427008651
 20
19957.423617045872
 30
0.0
 11
25068.290768008621
 21
19957.423617045872
 31
0.0
  0
TEXT
  5
12114
  8
0-6
  6
CONTINUOUS
 62
     7
 10
24164.291691008631
 20
20037.423881045848
 30
0.0
 40
160.0
  1
後柱（P）
 72
     4
 11
24564.291691008631
 21
20117.423881045848
 31
0.0
  0
LINE
  5
12115
  8
0-6
  6
CONTINUOUS
 62
     6
 10
25473.36713183004
 20
19371.424475045871
 30
0.0
 11
25068.290768008621
 21
19957.423617045872
 31
0.0
  0
LINE
  5
12116
  8
0-6
  6
CONTINUOUS
 62
     6
 10
23727.229536539111
 20
18736.494973171109
 30
0.0
 11
25183.229536539111
 21
18736.494973171109
 31
0.0
  0
TEXT
  5
12117
  8
0-6
  6
CONTINUOUS
 62
     7
 10
23767.23480979152
 20
18816.495237171112
 30
0.0
 40
160.0
  1
後柱カバー（P）
 72
     4
 11
24455.23480979152
 21
18896.495237171112
 31
0.0
  0
LINE
  5
12118
  8
0-6
  6
CONTINUOUS
 62
     6
 10
25482.467131830039
 20
19224.885710999992
 30
0.0
 11
25183.229536539111
 21
18736.494973171109
 31
0.0
  0
LINE
  5
1216A
  8
SUNPOU
  6
CONTINUOUS
 10
5626.4415304765917
 20
19540.484140500012
 30
0.0
 11
5626.4415304765917
 21
20337.45140827847
 31
0.0
  0
LINE
  5
1216B
  8
SUNPOU
  6
CONTINUOUS
 10
5626.4415304765771
 20
12867.17308084781
 30
0.0
 11
5626.4415304765771
 21
13608.48567099998
 31
0.0
  0
LINE
  5
12171
  8
0-1
  6
CONTINUOUS
 62
     3
 10
11828.234401470951
 20
6291.1885389999998
 30
0.0
 11
11828.234401470951
 21
8152.2344180000036
 31
0.0
  0
LINE
  5
12172
  8
0-1
  6
CONTINUOUS
 62
     3
 10
11813.23262047095
 20
6291.1885389999998
 30
0.0
 11
11813.23262047095
 21
8152.2344180000036
 31
0.0
  0
LINE
  5
12173
  8
0-6
  6
CONTINUOUS
 62
     6
 10
6613.8913998545158
 20
17514.824153553742
 30
0.0
 11
6654.1492998280391
 21
17357.69293702946
 31
0.0
  0
LINE
  5
12174
  8
0-6
  6
CONTINUOUS
 62
     6
 10
6654.1492998280391
 20
17357.69293702946
 30
0.0
 11
6702.9355456975991
 21
17379.244319889542
 31
0.0
  0
LINE
  5
12175
  8
0-6
  6
CONTINUOUS
 62
     6
 10
6702.9355456975991
 20
17379.244319889542
 30
0.0
 11
6613.8913998545158
 21
17514.824153553742
 31
0.0
  0
LINE
  5
12176
  8
0-1
  6
CONTINUOUS
 62
     3
 10
6980.73090447094
 20
8152.2344180000036
 30
0.0
 11
6980.73090447094
 21
6291.1885389999998
 31
0.0
  0
LINE
  5
12177
  8
0-1
  6
CONTINUOUS
 62
     3
 10
6943.7327124709409
 20
8152.2344180000036
 30
0.0
 11
6943.7327124709409
 21
6291.1885389999998
 31
0.0
  0
LINE
  5
12178
  8
0-1
  6
CONTINUOUS
 62
     3
 10
6805.2317354709367
 20
6291.1885389999998
 30
0.0
 11
6805.2317354709367
 21
8152.2344180000036
 31
0.0
  0
LINE
  5
12179
  8
0-1
  6
CONTINUOUS
 62
     3
 10
6820.2315374709506
 20
6291.1885389999998
 30
0.0
 11
6820.2315374709506
 21
8152.2344180000036
 31
0.0
  0
LINE
  5
1217A
  8
0-1
  6
CONTINUOUS
 62
     3
 10
7104.2310894709426
 20
6291.1885389999998
 30
0.0
 11
7104.2310894709426
 21
8152.2344180000036
 31
0.0
  0
LINE
  5
1217B
  8
0-1
  6
CONTINUOUS
 62
     3
 10
7119.2318804709503
 20
6291.1885389999998
 30
0.0
 11
7119.2318804709503
 21
8152.2344180000036
 31
0.0
  0
LINE
  5
1217C
  8
0-1
  6
CONTINUOUS
 62
     3
 10
6621.232449470951
 20
8152.2344180000064
 30
0.0
 11
6621.232449470951
 21
6241.1883740000021
 31
0.0
  0
LINE
  5
1217D
  8
0-1
  6
CONTINUOUS
 62
     3
 10
11926.45232147672
 20
16756.484355072182
 30
0.0
 11
11926.4523214767
 21
19510.488495000001
 31
0.0
  0
LINE
  5
1217E
  8
0-1
  6
CONTINUOUS
 62
     3
 10
11963.45249347672
 20
16741.268818412482
 30
0.0
 11
11963.45249347672
 21
19510.488495000001
 31
0.0
  0
LINE
  5
1217F
  8
0-1
  6
CONTINUOUS
 62
     3
 10
12126.452981476719
 20
16674.238321886402
 30
0.0
 11
12126.452981476719
 21
19510.488495000001
 31
0.0
  0
LINE
  5
12180
  8
0-1
  6
CONTINUOUS
 62
     3
 10
12163.453153476719
 20
16659.02278522672
 30
0.0
 11
12163.453153476719
 21
19510.488495000001
 31
0.0
  0
TEXT
  5
12181
  8
0-6
  6
CONTINUOUS
 62
     7
 10
10400.05508511522
 20
12888.48527499999
 30
0.0
 40
160.0
  1
梁（P）前
 72
     4
 11
10842.72175178189
 21
12968.48527499999
 31
0.0
  0
LINE
  5
12182
  8
0-6
  6
CONTINUOUS
 62
     6
 10
11321.504590053801
 20
12808.48600099999
 30
0.0
 11
10327.230786531931
 21
12808.48600099999
 31
0.0
  0
TEXT
  5
12183
  8
0-6
  6
CONTINUOUS
 62
     7
 10
12802.704881859399
 20
15378.48943889057
 30
0.0
 40
160.0
  1
桁（PU）B + 桁補強（PU）
 72
     4
 11
14082.704881859399
 21
15458.48943889057
 31
0.0
  0
LINE
  5
12184
  8
0-6
  6
CONTINUOUS
 62
     6
 10
15455.144613567079
 20
15286.9713410122
 30
0.0
 11
12689.68267770859
 21
15286.9713410122
 31
0.0
  0
TEXT
  5
12185
  8
0-6
  6
CONTINUOUS
 62
     7
 10
12802.704881859399
 20
18296.489438890541
 30
0.0
 40
160.0
  1
桁（PU）B + 桁補強（PU）
 72
     4
 11
14082.704881859399
 21
18376.489438890541
 31
0.0
  0
LINE
  5
12186
  8
0-6
  6
CONTINUOUS
 62
     6
 10
15455.144613567079
 20
18204.97134101218
 30
0.0
 11
12689.68267770859
 21
18204.97134101218
 31
0.0
  0
TEXT
  5
12187
  8
0-6
  6
CONTINUOUS
 62
     7
 10
12802.704881859399
 20
16837.489439890542
 30
0.0
 40
160.0
  1
桁（PU）A + 桁補強（PU）
 72
     4
 11
14082.704881859399
 21
16917.489439890542
 31
0.0
  0
LINE
  5
12188
  8
0-6
  6
CONTINUOUS
 62
     6
 10
15455.144613567079
 20
16745.971342012192
 30
0.0
 11
12689.68267770859
 21
16745.971342012192
 31
0.0
  0
TEXT
  5
12189
  8
0-6
  6
CONTINUOUS
 62
     7
 10
12802.704881859399
 20
19410.991338890552
 30
0.0
 40
160.0
  1
桁（PU）A + 桁補強（PU）
 72
     4
 11
14082.704881859399
 21
19490.991338890552
 31
0.0
  0
LINE
  5
1218A
  8
0-6
  6
CONTINUOUS
 62
     6
 10
15455.144613567079
 20
19319.473241012191
 30
0.0
 11
12689.68267770859
 21
19319.473241012191
 31
0.0
  0
LINE
  5
1218B
  8
0-6
  6
CONTINUOUS
 62
     6
 10
12689.68267770859
 20
16745.971342012192
 30
0.0
 11
11627.53400630551
 21
16287.17678460459
 31
0.0
  0
LINE
  5
1218C
  8
0-6
  6
CONTINUOUS
 62
     6
 10
11627.53400630551
 20
16287.17678460459
 30
0.0
 11
11369.90963551447
 21
16705.485856999989
 31
0.0
  0
LINE
  5
1218D
  8
0-6
  6
CONTINUOUS
 62
     6
 10
12689.68267770859
 20
15286.9713410122
 30
0.0
 11
11627.53400630551
 21
14828.1767836046
 31
0.0
  0
LINE
  5
1218E
  8
0-6
  6
CONTINUOUS
 62
     6
 10
11627.53400630551
 20
14828.1767836046
 30
0.0
 11
11369.90963551447
 21
15246.485856000019
 31
0.0
  0
LINE
  5
1218F
  8
0-6
  6
CONTINUOUS
 62
     6
 10
12689.68267770859
 20
18204.97134101218
 30
0.0
 11
11627.53400630551
 21
17746.176783604591
 31
0.0
  0
LINE
  5
12190
  8
0-6
  6
CONTINUOUS
 62
     6
 10
11627.53400630551
 20
17746.176783604591
 30
0.0
 11
11369.90963551447
 21
18164.485855999999
 31
0.0
  0
LINE
  5
12191
  8
0-6
  6
CONTINUOUS
 62
     6
 10
12689.68267770859
 20
19319.473241012191
 30
0.0
 11
11627.53400630551
 21
18860.678683604579
 31
0.0
  0
LINE
  5
12192
  8
0-6
  6
CONTINUOUS
 62
     6
 10
11627.53400630551
 20
18860.678683604579
 30
0.0
 11
11369.90963551447
 21
19278.987755999991
 31
0.0
  0
TEXT
  5
12193
  8
0-6
  6
CONTINUOUS
 62
     7
 10
13093.799206661521
 20
13007.84770638002
 30
0.0
 40
160.0
  1
桁前（PU）+ 桁補強（PU）
 72
     4
 11
14341.799206661521
 21
13087.84770638002
 31
0.0
  0
LINE
  5
12194
  8
0-6
  6
CONTINUOUS
 62
     6
 10
15630.462068272591
 20
12906.3011391909
 30
0.0
 11
13047.78773551721
 21
12906.3011391909
 31
0.0
  0
LINE
  5
12195
  8
0-6
  6
CONTINUOUS
 62
     6
 10
12056.740036757779
 20
13787.05271559655
 30
0.0
 11
13047.78773551721
 21
12906.3011391909
 31
0.0
  0
CIRCLE
  5
12196
  8
0-5
  6
CONTINUOUS
 62
     4
 10
15128.71667799999
 20
1375.999982000001
 30
0.0
 40
20.0
  0
ARC
  5
12197
  8
0-5
  6
CONTINUOUS
 62
     4
 10
15128.71667799999
 20
1375.999982000001
 30
0.0
 40
20.0
 50
180.0
 51
0.0
  0
ARC
  5
12198
  8
0-5
  6
CONTINUOUS
 62
     4
 10
15128.71667799999
 20
1375.999982000001
 30
0.0
 40
20.0
 50
0.0
 51
179.99998499999839
  0
CIRCLE
  5
12199
  8
0-5
  6
CONTINUOUS
 62
     4
 10
15128.71667799999
 20
1775.999321999999
 30
0.0
 40
20.0
  0
ARC
  5
1219A
  8
0-5
  6
CONTINUOUS
 62
     4
 10
15128.71667799999
 20
1775.999321999999
 30
0.0
 40
20.0
 50
180.0
 51
0.0
  0
ARC
  5
1219B
  8
0-5
  6
CONTINUOUS
 62
     4
 10
15128.71667799999
 20
1775.999321999999
 30
0.0
 40
20.0
 50
0.0
 51
179.99998499999839
  0
TEXT
  5
1219C
  8
0-5
  6
CONTINUOUS
 62
     7
 10
16661.217403999992
 20
1655.999792000001
 30
0.0
 40
160.0
  1
H
  0
TEXT
  5
1219D
  8
0-5
  6
CONTINUOUS
 62
     7
 10
15176.146933
 20
1655.999792000001
 30
0.0
 40
160.0
  1
（ ）内寸法ハ、  タイプヲ示ス。
  0
TEXT
  5
1219E
  8
0-5
  6
CONTINUOUS
 62
     7
 10
15288.716216000001
 20
1255.999462
 30
0.0
 40
160.0
  1
有効高サハ、基礎高サヲ含ミマセン。
  0
LINE
  5
1219F
  8
0-1
  6
CONTINUOUS
 62
     3
 10
7726.4424234765984
 20
18482.20484570484
 30
0.0
 11
7726.4424234765984
 21
19510.488495000001
 31
0.0
  0
LINE
  5
121A0
  8
0-1
  6
CONTINUOUS
 62
     3
 10
7763.4435844765858
 20
18467.121360229081
 30
0.0
 11
7763.4435844765858
 21
19510.488495000001
 31
0.0
  0
LINE
  5
121A1
  8
0-1
  6
CONTINUOUS
 62
     3
 10
7926.4420934765894
 20
18400.6751845787
 30
0.0
 11
7926.4420934765913
 21
19510.488495000001
 31
0.0
  0
LINE
  5
121A2
  8
0-1
  6
CONTINUOUS
 62
     3
 10
7963.441274476595
 20
18385.592506247911
 30
0.0
 11
7963.4412744765978
 21
19510.488495000001
 31
0.0
  0
LINE
  5
121A3
  8
0-1
  6
CONTINUOUS
 62
     3
 10
7326.4420944765998
 20
18645.264571121919
 30
0.0
 11
7326.4420944765989
 21
19510.488495000001
 31
0.0
  0
LINE
  5
121A4
  8
0-1
  6
CONTINUOUS
 62
     3
 10
7363.443255476589
 20
18630.18108564616
 30
0.0
 11
7363.443255476589
 21
19510.488495000001
 31
0.0
  0
LINE
  5
121A5
  8
0-1
  6
CONTINUOUS
 62
     3
 10
7526.4417644765908
 20
18563.734909995801
 30
0.0
 11
7526.4417644765908
 21
19510.488495000001
 31
0.0
  0
LINE
  5
121A6
  8
0-1
  6
CONTINUOUS
 62
     3
 10
7563.4409454765992
 20
18548.652231665001
 30
0.0
 11
7563.4409454765992
 21
19510.488495000001
 31
0.0
  0
LINE
  5
121A7
  8
0-1
  6
CONTINUOUS
 62
     3
 10
6926.4417654766003
 20
18808.324296539002
 30
0.0
 11
6926.4417654766003
 21
19510.488495000001
 31
0.0
  0
LINE
  5
121A8
  8
0-1
  6
CONTINUOUS
 62
     3
 10
6963.4429264765904
 20
18793.240811063231
 30
0.0
 11
6963.4429264765904
 21
19510.488495000001
 31
0.0
  0
LINE
  5
121A9
  8
0-1
  6
CONTINUOUS
 62
     3
 10
7126.4414354765931
 20
18726.79463541288
 30
0.0
 11
7126.4414354765959
 21
19510.488495000001
 31
0.0
  0
LINE
  5
121AA
  8
0-1
  6
CONTINUOUS
 62
     3
 10
7163.4406164765978
 20
18711.71195708208
 30
0.0
 11
7163.4406164765996
 21
19510.488495000001
 31
0.0
  0
LINE
  5
121AB
  8
0-1
  6
CONTINUOUS
 62
     3
 10
6726.4420954766083
 20
18889.85395766512
 30
0.0
 11
6726.4420954766056
 21
19510.488495000001
 31
0.0
  0
LINE
  5
121AC
  8
0-1
  6
CONTINUOUS
 62
     3
 10
6763.4432564765966
 20
18874.770472189361
 30
0.0
 11
6763.4432564765957
 21
19510.488495000001
 31
0.0
  0
LINE
  5
121AF
  8
WAKUSEN-01
 10
868.00000000000193
 20
22484.000000000011
 30
0.0
 11
32764.000000000011
 21
22484.000000000011
 31
0.0
  0
LINE
  5
121B2
  8
WAKUSEN-01
 10
20560.0
 20
2484.0
 30
0.0
 11
32764.0
 21
2484.0
 31
0.0
  0
LINE
  5
121B3
  8
WAKUSEN-02
 10
20560.0
 20
1655.9999999999991
 30
0.0
 11
26868.0
 21
1655.9999999999991
 31
0.0
  0
TEXT
  5
121B4
  8
WAKUMOJI-01
 10
20670.260259962761
 20
2125.9030093393221
 30
0.0
 40
240.0
  1
名　称
  7
WAKUMOJI
  0
TEXT
  5
121B5
  8
WAKUMOJI-01
 10
20656.505485091919
 20
1319.12897497982
 30
0.0
 40
240.0
  1
機種名
  7
WAKUMOJI
  0
LINE
  5
121B8
  8
YODOROGO
 10
29977.604341291921
 20
1995.7494964292871
 30
0.0
 11
29829.604341291921
 21
1995.7494964292871
 31
0.0
1001
AUTOCAD_POSTSCRIPT_FIGURE
1002
{
1000
PSFILL
1000
Grayscale
1000
Grayscale
1070
    25
1002
}
  0
LINE
  5
121B9
  8
YODOROGO
 10
29829.604341291921
 20
1947.749496429288
 30
0.0
 11
29977.604341291921
 21
1947.749496429288
 31
0.0
1001
AUTOCAD_POSTSCRIPT_FIGURE
1002
{
1000
PSFILL
1000
Grayscale
1000
Grayscale
1070
    25
1002
}
  0
LINE
  5
121BA
  8
YODOROGO
 10
29977.604341291921
 20
1907.7494964292871
 30
0.0
 11
29829.604341291921
 21
1907.7494964292871
 31
0.0
1001
AUTOCAD_POSTSCRIPT_FIGURE
1002
{
1000
PSFILL
1000
Grayscale
1000
Grayscale
1070
    25
1002
}
  0
LINE
  5
121BB
  8
YODOROGO
 10
29829.604341291921
 20
1859.749496429288
 30
0.0
 11
29977.604341291921
 21
1859.749496429288
 31
0.0
1001
AUTOCAD_POSTSCRIPT_FIGURE
1002
{
1000
PSFILL
1000
Grayscale
1000
Grayscale
1070
    25
1002
}
  0
LINE
  5
121BC
  8
YODOROGO
 10
29977.604341291921
 20
1819.7494964292871
 30
0.0
 11
29829.604341291921
 21
1819.7494964292871
 31
0.0
1001
AUTOCAD_POSTSCRIPT_FIGURE
1002
{
1000
PSFILL
1000
Grayscale
1000
Grayscale
1070
    25
1002
}
  0
LINE
  5
121BD
  8
YODOROGO
 10
29921.60434129191
 20
1707.749496429288
 30
0.0
 11
29977.604341291921
 21
1707.749496429288
 31
0.0
1001
AUTOCAD_POSTSCRIPT_FIGURE
1002
{
1000
PSFILL
1000
Grayscale
1000
Grayscale
1070
    25
1002
}
  0
LINE
  5
121BE
  8
YODOROGO
 10
29737.604341291921
 20
1427.749496429288
 30
0.0
 11
29937.604341291932
 21
1481.3393349155101
 31
0.0
  0
LINE
  5
121BF
  8
YODOROGO
 10
29949.60434129191
 20
1707.749496429288
 30
0.0
 11
29885.604341291921
 21
1707.749496429288
 31
0.0
  0
ARC
  5
121C0
  8
YODOROGO
 10
30254.34774982791
 20
1807.864609233261
 30
0.0
 40
381.88686420564721
 50
213.96111677667841
 51
264.47872074317792
  0
ARC
  5
121C1
  8
YODOROGO
 10
30254.347749827921
 20
1807.864609233302
 30
0.0
 40
381.8868642056816
 50
208.14114420486601
 51
212.9210361185994
  0
LINE
  5
121C2
  8
YODOROGO
 10
29771.409872985321
 20
1556.807661346234
 30
0.0
 11
29933.78413250855
 21
1600.3157130570869
 31
0.0
  0
LINE
  5
121C3
  8
YODOROGO
 10
29737.604341291921
 20
1427.749496429288
 30
0.0
 11
29937.604341291932
 21
1481.3393349155101
 31
0.0
  0
LINE
  5
121C4
  8
YODOROGO
 10
29949.60434129191
 20
1707.749496429288
 30
0.0
 11
29885.604341291921
 21
1707.749496429288
 31
0.0
  0
ARC
  5
121C5
  8
YODOROGO
 10
30254.34774982791
 20
1807.864609233261
 30
0.0
 40
381.88686420564721
 50
213.96111677667841
 51
264.47872074317792
  0
LINE
  5
121C6
  8
YODOROGO
 10
28793.60434129191
 20
1819.7494964292871
 30
0.0
 11
28433.60434129191
 21
1819.7494964292871
 31
0.0
  0
LINE
  5
121C7
  8
YODOROGO
 10
28513.60434129191
 20
1427.749496429288
 30
0.0
 11
28793.60434129191
 21
1427.749496429288
 31
0.0
  0
LINE
  5
121C8
  8
YODOROGO
 10
28729.604341291921
 20
1923.7494964292871
 30
0.0
 11
28497.60434129191
 21
1923.7494964292871
 31
0.0
  0
LINE
  5
121C9
  8
YODOROGO
 10
28585.604341291921
 20
2027.749496429288
 30
0.0
 11
28657.604341291921
 21
2027.749496429288
 31
0.0
  0
LINE
  5
121CA
  8
YODOROGO
 10
28433.60434129191
 20
1707.749496429288
 30
0.0
 11
28433.60434129191
 21
1507.749496429288
 31
0.0
  0
LINE
  5
121CB
  8
YODOROGO
 10
28497.60434129191
 20
1563.7494964292871
 30
0.0
 11
28497.60434129191
 21
1707.749496429288
 31
0.0
  0
LINE
  5
121CC
  8
YODOROGO
 10
28585.604341291921
 20
1747.74949642929
 30
0.0
 11
28585.604341291921
 21
1547.749496429288
 31
0.0
  0
LINE
  5
121CD
  8
YODOROGO
 10
27857.604341291921
 20
1683.749496429288
 30
0.0
 11
27777.604341291921
 21
1619.9724140445701
 31
0.0
  0
LINE
  5
121CE
  8
YODOROGO
 10
27937.604341291921
 20
1619.9724140445701
 30
0.0
 11
27857.604341291921
 21
1683.749496429288
 31
0.0
  0
LINE
  5
121CF
  8
YODOROGO
 10
27857.604341291921
 20
1707.749496429288
 30
0.0
 11
27937.604341291921
 21
1643.9724140445701
 31
0.0
  0
LINE
  5
121D0
  8
YODOROGO
 10
27777.604341291921
 20
1643.9724140445701
 30
0.0
 11
27857.604341291921
 21
1707.749496429288
 31
0.0
  0
LINE
  5
121D1
  8
YODOROGO
 10
28040.913204016892
 20
1659.749496429288
 30
0.0
 11
28040.913204016892
 21
1683.7494964292871
 31
0.0
  0
LINE
  5
121D2
  8
YODOROGO
 10
27977.604341291921
 20
1683.7494964292871
 30
0.0
 11
27977.604341291921
 21
1667.749496429285
 31
0.0
  0
LINE
  5
121D3
  8
YODOROGO
 10
28098.135520230931
 20
1707.749496429288
 30
0.0
 11
28098.135520230931
 21
1655.5036372746561
 31
0.0
1001
AUTOCAD_POSTSCRIPT_FIGURE
1002
{
1000
PSFILL
1000
Grayscale
1000
Grayscale
1070
   100
1002
}
  0
LINE
  5
121D4
  8
YODOROGO
 10
28082.135520230921
 20
1655.5036372746561
 30
0.0
 11
28082.135520230921
 21
1707.749496429288
 31
0.0
1001
AUTOCAD_POSTSCRIPT_FIGURE
1002
{
1000
PSFILL
1000
Grayscale
1000
Grayscale
1070
   100
1002
}
  0
LINE
  5
121D5
  8
YODOROGO
 10
27809.604341291921
 20
1608.771904043258
 30
0.0
 11
27809.604341291921
 21
1632.771904043258
 31
0.0
  0
LINE
  5
121D6
  8
YODOROGO
 10
27905.604341291921
 20
1608.771904043258
 30
0.0
 11
27809.604341291921
 21
1608.771904043258
 31
0.0
  0
LINE
  5
121D7
  8
YODOROGO
 10
27905.604341291921
 20
1632.771904043258
 30
0.0
 11
27905.604341291921
 21
1608.771904043258
 31
0.0
  0
LINE
  5
121D8
  8
YODOROGO
 10
27809.604341291921
 20
1632.771904043258
 30
0.0
 11
27905.604341291921
 21
1632.771904043258
 31
0.0
  0
LINE
  5
121D9
  8
YODOROGO
 10
27824.509588915738
 20
1568.5028573704751
 30
0.0
 11
27785.604341291921
 21
1475.7494964292871
 31
0.0
1001
AUTOCAD_POSTSCRIPT_FIGURE
1002
{
1000
PSFILL
1000
Grayscale
1000
Grayscale
1070
   100
1002
}
  0
LINE
  5
121DA
  8
YODOROGO
 10
27777.604341291921
 20
1568.5028573704751
 30
0.0
 11
27824.509588915738
 21
1568.5028573704751
 31
0.0
1001
AUTOCAD_POSTSCRIPT_FIGURE
1002
{
1000
PSFILL
1000
Grayscale
1000
Grayscale
1070
   100
1002
}
  0
LINE
  5
121DB
  8
YODOROGO
 10
27777.604341291921
 20
1588.5028573704751
 30
0.0
 11
27777.604341291921
 21
1568.5028573704751
 31
0.0
1001
AUTOCAD_POSTSCRIPT_FIGURE
1002
{
1000
PSFILL
1000
Grayscale
1000
Grayscale
1070
   100
1002
}
  0
LINE
  5
121DC
  8
YODOROGO
 10
27937.604341291921
 20
1588.5028573704751
 30
0.0
 11
27777.604341291921
 21
1588.5028573704751
 31
0.0
1001
AUTOCAD_POSTSCRIPT_FIGURE
1002
{
1000
PSFILL
1000
Grayscale
1000
Grayscale
1070
   100
1002
}
  0
LINE
  5
121DD
  8
YODOROGO
 10
27937.604341291921
 20
1568.5028573704751
 30
0.0
 11
27937.604341291921
 21
1588.5028573704751
 31
0.0
1001
AUTOCAD_POSTSCRIPT_FIGURE
1002
{
1000
PSFILL
1000
Grayscale
1000
Grayscale
1070
   100
1002
}
  0
LINE
  5
121DE
  8
YODOROGO
 10
27844.509588915738
 20
1568.5028573704751
 30
0.0
 11
27937.604341291921
 21
1568.5028573704751
 31
0.0
1001
AUTOCAD_POSTSCRIPT_FIGURE
1002
{
1000
PSFILL
1000
Grayscale
1000
Grayscale
1070
   100
1002
}
  0
LINE
  5
121DF
  8
YODOROGO
 10
27815.546718284771
 20
1495.7494964292871
 30
0.0
 11
27844.509588915738
 21
1568.5028573704751
 31
0.0
1001
AUTOCAD_POSTSCRIPT_FIGURE
1002
{
1000
PSFILL
1000
Grayscale
1000
Grayscale
1070
   100
1002
}
  0
LINE
  5
121E0
  8
YODOROGO
 10
27902.054790808648
 20
1495.7494964292871
 30
0.0
 11
27815.546718284771
 21
1495.7494964292871
 31
0.0
1001
AUTOCAD_POSTSCRIPT_FIGURE
1002
{
1000
PSFILL
1000
Grayscale
1000
Grayscale
1070
   100
1002
}
  0
LINE
  5
121E1
  8
YODOROGO
 10
27885.065004790951
 20
1536.2338106976929
 30
0.0
 11
27902.054790808648
 21
1495.7494964292871
 31
0.0
1001
AUTOCAD_POSTSCRIPT_FIGURE
1002
{
1000
PSFILL
1000
Grayscale
1000
Grayscale
1070
   100
1002
}
  0
LINE
  5
121E2
  8
YODOROGO
 10
27901.065004790951
 20
1536.2338106976929
 30
0.0
 11
27885.065004790951
 21
1536.2338106976929
 31
0.0
1001
AUTOCAD_POSTSCRIPT_FIGURE
1002
{
1000
PSFILL
1000
Grayscale
1000
Grayscale
1070
   100
1002
}
  0
LINE
  5
121E3
  8
YODOROGO
 10
27929.604341291921
 20
1475.7494964292871
 30
0.0
 11
27901.065004790951
 21
1536.2338106976929
 31
0.0
1001
AUTOCAD_POSTSCRIPT_FIGURE
1002
{
1000
PSFILL
1000
Grayscale
1000
Grayscale
1070
   100
1002
}
  0
LINE
  5
121E4
  8
YODOROGO
 10
27785.604341291921
 20
1475.7494964292871
 30
0.0
 11
27929.604341291921
 21
1475.7494964292871
 31
0.0
1001
AUTOCAD_POSTSCRIPT_FIGURE
1002
{
1000
PSFILL
1000
Grayscale
1000
Grayscale
1070
   100
1002
}
  0
LINE
  5
121E5
  8
YODOROGO
 10
27777.604341291921
 20
1619.9724140445701
 30
0.0
 11
27777.604341291921
 21
1643.9724140445701
 31
0.0
  0
LINE
  5
121E6
  8
YODOROGO
 10
27937.604341291921
 20
1643.9724140445701
 30
0.0
 11
27937.604341291921
 21
1619.9724140445701
 31
0.0
  0
ARC
  5
121E7
  8
YODOROGO
 10
28225.940442146959
 20
1600.877765325326
 30
0.0
 40
175.9999999999998
 50
280.3644312771313
 51
3.5414836592180561
  0
ARC
  5
121E8
  8
YODOROGO
 10
28235.756030759301
 20
1633.5978069619041
 30
0.0
 40
111.9999999999982
 50
281.24905825041549
 51
348.75094174958321
  0
LINE
  5
121E9
  8
YODOROGO
 10
28257.604341291921
 20
1523.7494964292871
 30
0.0
 11
28257.604341291921
 21
1427.749496429288
 31
0.0
  0
LINE
  5
121EA
  8
YODOROGO
 10
28020.088903736909
 20
1610.650565061914
 30
0.0
 11
28040.913204016892
 21
1659.749496429288
 31
0.0
  0
LINE
  5
121EB
  8
YODOROGO
 10
28041.604341291921
 20
1583.120489948401
 30
0.0
 11
28020.088903736909
 21
1610.650565061914
 31
0.0
  0
LINE
  5
121EC
  8
YODOROGO
 10
28041.604341291921
 20
1563.120489948398
 30
0.0
 11
28041.604341291921
 21
1583.120489948401
 31
0.0
  0
LINE
  5
121ED
  8
YODOROGO
 10
28017.604341291921
 20
1585.2370637495301
 30
0.0
 11
28041.604341291921
 21
1563.120489948398
 31
0.0
  0
LINE
  5
121EE
  8
YODOROGO
 10
28017.604341291921
 20
1475.7494964292871
 30
0.0
 11
28017.604341291921
 21
1585.2370637495301
 31
0.0
  0
LINE
  5
121EF
  8
YODOROGO
 10
28001.604341291921
 20
1475.7494964292871
 30
0.0
 11
28017.604341291921
 21
1475.7494964292871
 31
0.0
  0
LINE
  5
121F0
  8
YODOROGO
 10
28001.604341291921
 20
1580.0053496897469
 30
0.0
 11
28001.604341291921
 21
1475.7494964292871
 31
0.0
  0
LINE
  5
121F1
  8
YODOROGO
 10
27977.604341291921
 20
1532.7680790334291
 30
0.0
 11
28001.604341291921
 21
1580.0053496897469
 31
0.0
  0
LINE
  5
121F2
  8
YODOROGO
 10
27977.604341291921
 20
1556.76807903343
 30
0.0
 11
27977.604341291921
 21
1532.7680790334291
 31
0.0
  0
LINE
  5
121F3
  8
YODOROGO
 10
28025.828774291349
 20
1667.749496429285
 30
0.0
 11
27977.604341291921
 21
1556.76807903343
 31
0.0
  0
LINE
  5
121F4
  8
YODOROGO
 10
27977.604341291921
 20
1667.749496429285
 30
0.0
 11
28025.828774291349
 21
1667.749496429285
 31
0.0
  0
LINE
  5
121F5
  8
YODOROGO
 10
28050.135520230899
 20
1655.5036372746561
 30
0.0
 11
28082.135520230921
 21
1655.5036372746561
 31
0.0
1001
AUTOCAD_POSTSCRIPT_FIGURE
1002
{
1000
PSFILL
1000
Grayscale
1000
Grayscale
1070
   100
1002
}
  0
LINE
  5
121F6
  8
YODOROGO
 10
28050.135520230899
 20
1631.5036372746561
 30
0.0
 11
28050.135520230899
 21
1655.5036372746561
 31
0.0
1001
AUTOCAD_POSTSCRIPT_FIGURE
1002
{
1000
PSFILL
1000
Grayscale
1000
Grayscale
1070
   100
1002
}
  0
LINE
  5
121F7
  8
YODOROGO
 10
28082.135520230921
 20
1631.5036372746561
 30
0.0
 11
28050.135520230899
 21
1631.5036372746561
 31
0.0
1001
AUTOCAD_POSTSCRIPT_FIGURE
1002
{
1000
PSFILL
1000
Grayscale
1000
Grayscale
1070
   100
1002
}
  0
LINE
  5
121F8
  8
YODOROGO
 10
28082.135520230921
 20
1499.749496429288
 30
0.0
 11
28082.135520230921
 21
1631.5036372746561
 31
0.0
1001
AUTOCAD_POSTSCRIPT_FIGURE
1002
{
1000
PSFILL
1000
Grayscale
1000
Grayscale
1070
   100
1002
}
  0
LINE
  5
121F9
  8
YODOROGO
 10
28050.135520230921
 20
1499.749496429288
 30
0.0
 11
28082.135520230921
 21
1499.749496429288
 31
0.0
1001
AUTOCAD_POSTSCRIPT_FIGURE
1002
{
1000
PSFILL
1000
Grayscale
1000
Grayscale
1070
   100
1002
}
  0
LINE
  5
121FA
  8
YODOROGO
 10
28050.135520230921
 20
1475.7494964292871
 30
0.0
 11
28050.135520230921
 21
1499.749496429288
 31
0.0
1001
AUTOCAD_POSTSCRIPT_FIGURE
1002
{
1000
PSFILL
1000
Grayscale
1000
Grayscale
1070
   100
1002
}
  0
LINE
  5
121FB
  8
YODOROGO
 10
28137.604341291921
 20
1475.7494964292871
 30
0.0
 11
28050.135520230921
 21
1475.7494964292871
 31
0.0
1001
AUTOCAD_POSTSCRIPT_FIGURE
1002
{
1000
PSFILL
1000
Grayscale
1000
Grayscale
1070
   100
1002
}
  0
LINE
  5
121FC
  8
YODOROGO
 10
28137.604341291921
 20
1499.749496429288
 30
0.0
 11
28137.604341291921
 21
1475.7494964292871
 31
0.0
1001
AUTOCAD_POSTSCRIPT_FIGURE
1002
{
1000
PSFILL
1000
Grayscale
1000
Grayscale
1070
   100
1002
}
  0
LINE
  5
121FD
  8
YODOROGO
 10
28098.135520230931
 20
1499.749496429288
 30
0.0
 11
28137.604341291921
 21
1499.749496429288
 31
0.0
1001
AUTOCAD_POSTSCRIPT_FIGURE
1002
{
1000
PSFILL
1000
Grayscale
1000
Grayscale
1070
   100
1002
}
  0
LINE
  5
121FE
  8
YODOROGO
 10
28098.135520230931
 20
1631.5036372746561
 30
0.0
 11
28098.135520230931
 21
1499.749496429288
 31
0.0
1001
AUTOCAD_POSTSCRIPT_FIGURE
1002
{
1000
PSFILL
1000
Grayscale
1000
Grayscale
1070
   100
1002
}
  0
LINE
  5
121FF
  8
YODOROGO
 10
28137.604341291921
 20
1631.5036372746561
 30
0.0
 11
28098.135520230931
 21
1631.5036372746561
 31
0.0
1001
AUTOCAD_POSTSCRIPT_FIGURE
1002
{
1000
PSFILL
1000
Grayscale
1000
Grayscale
1070
   100
1002
}
  0
LINE
  5
12200
  8
YODOROGO
 10
28137.604341291921
 20
1655.5036372746561
 30
0.0
 11
28137.604341291921
 21
1631.5036372746561
 31
0.0
1001
AUTOCAD_POSTSCRIPT_FIGURE
1002
{
1000
PSFILL
1000
Grayscale
1000
Grayscale
1070
   100
1002
}
  0
LINE
  5
12201
  8
YODOROGO
 10
28098.135520230931
 20
1655.5036372746561
 30
0.0
 11
28137.604341291921
 21
1655.5036372746561
 31
0.0
1001
AUTOCAD_POSTSCRIPT_FIGURE
1002
{
1000
PSFILL
1000
Grayscale
1000
Grayscale
1070
   100
1002
}
  0
LINE
  5
12202
  8
YODOROGO
 10
28401.60434129191
 20
1667.749496429288
 30
0.0
 11
28345.604341291921
 21
1667.749496429288
 31
0.0
  0
LINE
  5
12203
  8
YODOROGO
 10
28401.60434129191
 20
1611.749496429288
 30
0.0
 11
28401.60434129191
 21
1667.749496429288
 31
0.0
  0
LINE
  5
12204
  8
YODOROGO
 10
28345.604341291921
 20
1667.749496429288
 30
0.0
 11
28345.604341291921
 21
1611.749496429288
 31
0.0
  0
ARC
  5
12205
  8
YODOROGO
 10
28513.60434129191
 20
1507.749496429288
 30
0.0
 40
80.0
 50
180.0
 51
270.0
  0
ARC
  5
12206
  8
YODOROGO
 10
28537.604341291921
 20
1563.7494964292871
 30
0.0
 40
40.0
 50
180.0
 51
270.0
  0
LINE
  5
12207
  8
YODOROGO
 10
28561.604341291932
 20
1523.7494964292871
 30
0.0
 11
28537.604341291921
 21
1523.7494964292871
 31
0.0
  0
ARC
  5
12208
  8
YODOROGO
 10
28561.604341291932
 20
1547.749496429285
 30
0.0
 40
23.999999999996358
 50
270.0
 51
0.0000000000054281
  0
LINE
  5
12209
  8
YODOROGO
 10
27801.604341291921
 20
1890.786580793706
 30
0.0
 11
27777.604341291921
 21
1843.776747951672
 31
0.0
1001
AUTOCAD_POSTSCRIPT_FIGURE
1002
{
1000
PSFILL
1000
Grayscale
1000
Grayscale
1070
   100
1002
}
  0
LINE
  5
1220A
  8
YODOROGO
 10
27801.604341291921
 20
1747.749496429286
 30
0.0
 11
27801.604341291921
 21
1890.786580793706
 31
0.0
1001
AUTOCAD_POSTSCRIPT_FIGURE
1002
{
1000
PSFILL
1000
Grayscale
1000
Grayscale
1070
   100
1002
}
  0
LINE
  5
1220B
  8
YODOROGO
 10
27817.604341291921
 20
1747.749496429286
 30
0.0
 11
27801.604341291921
 21
1747.749496429286
 31
0.0
1001
AUTOCAD_POSTSCRIPT_FIGURE
1002
{
1000
PSFILL
1000
Grayscale
1000
Grayscale
1070
   100
1002
}
  0
LINE
  5
1220C
  8
YODOROGO
 10
27817.604341291921
 20
1893.7713320852661
 30
0.0
 11
27817.604341291921
 21
1747.749496429286
 31
0.0
1001
AUTOCAD_POSTSCRIPT_FIGURE
1002
{
1000
PSFILL
1000
Grayscale
1000
Grayscale
1070
   100
1002
}
  0
LINE
  5
1220D
  8
YODOROGO
 10
27841.604341291921
 20
1867.6547582841361
 30
0.0
 11
27817.604341291921
 21
1893.7713320852661
 31
0.0
1001
AUTOCAD_POSTSCRIPT_FIGURE
1002
{
1000
PSFILL
1000
Grayscale
1000
Grayscale
1070
   100
1002
}
  0
LINE
  5
1220E
  8
YODOROGO
 10
27841.604341291921
 20
1883.6547582841361
 30
0.0
 11
27841.604341291921
 21
1867.6547582841361
 31
0.0
1001
AUTOCAD_POSTSCRIPT_FIGURE
1002
{
1000
PSFILL
1000
Grayscale
1000
Grayscale
1070
   100
1002
}
  0
LINE
  5
1220F
  8
YODOROGO
 10
27817.604341291921
 20
1917.7713320852649
 30
0.0
 11
27841.604341291921
 21
1883.6547582841361
 31
0.0
1001
AUTOCAD_POSTSCRIPT_FIGURE
1002
{
1000
PSFILL
1000
Grayscale
1000
Grayscale
1070
   100
1002
}
  0
LINE
  5
12210
  8
YODOROGO
 10
27817.604341291921
 20
1939.749496429288
 30
0.0
 11
27817.604341291921
 21
1917.7713320852649
 31
0.0
1001
AUTOCAD_POSTSCRIPT_FIGURE
1002
{
1000
PSFILL
1000
Grayscale
1000
Grayscale
1070
   100
1002
}
  0
LINE
  5
12211
  8
YODOROGO
 10
27889.604341291921
 20
1939.749496429288
 30
0.0
 11
27817.604341291921
 21
1939.749496429288
 31
0.0
1001
AUTOCAD_POSTSCRIPT_FIGURE
1002
{
1000
PSFILL
1000
Grayscale
1000
Grayscale
1070
   100
1002
}
  0
LINE
  5
12212
  8
YODOROGO
 10
27889.604341291921
 20
1900.5683489363
 30
0.0
 11
27889.604341291921
 21
1939.749496429288
 31
0.0
1001
AUTOCAD_POSTSCRIPT_FIGURE
1002
{
1000
PSFILL
1000
Grayscale
1000
Grayscale
1070
   100
1002
}
  0
LINE
  5
12213
  8
YODOROGO
 10
27857.604341291921
 20
1900.5683489363
 30
0.0
 11
27889.604341291921
 21
1900.5683489363
 31
0.0
1001
AUTOCAD_POSTSCRIPT_FIGURE
1002
{
1000
PSFILL
1000
Grayscale
1000
Grayscale
1070
   100
1002
}
  0
LINE
  5
12214
  8
YODOROGO
 10
27857.604341291921
 20
1884.568348936298
 30
0.0
 11
27857.604341291921
 21
1900.5683489363
 31
0.0
1001
AUTOCAD_POSTSCRIPT_FIGURE
1002
{
1000
PSFILL
1000
Grayscale
1000
Grayscale
1070
   100
1002
}
  0
LINE
  5
12215
  8
YODOROGO
 10
27889.604341291921
 20
1884.568348936298
 30
0.0
 11
27857.604341291921
 21
1884.568348936298
 31
0.0
1001
AUTOCAD_POSTSCRIPT_FIGURE
1002
{
1000
PSFILL
1000
Grayscale
1000
Grayscale
1070
   100
1002
}
  0
LINE
  5
12216
  8
YODOROGO
 10
27889.604341291921
 20
1879.6191779644371
 30
0.0
 11
27889.604341291921
 21
1884.568348936298
 31
0.0
1001
AUTOCAD_POSTSCRIPT_FIGURE
1002
{
1000
PSFILL
1000
Grayscale
1000
Grayscale
1070
   100
1002
}
  0
LINE
  5
12217
  8
YODOROGO
 10
27849.604341291921
 20
1812.974981161417
 30
0.0
 11
27889.604341291921
 21
1879.6191779644371
 31
0.0
1001
AUTOCAD_POSTSCRIPT_FIGURE
1002
{
1000
PSFILL
1000
Grayscale
1000
Grayscale
1070
   100
1002
}
  0
LINE
  5
12218
  8
YODOROGO
 10
27849.604341291921
 20
1796.9749811614161
 30
0.0
 11
27849.604341291921
 21
1812.974981161417
 31
0.0
1001
AUTOCAD_POSTSCRIPT_FIGURE
1002
{
1000
PSFILL
1000
Grayscale
1000
Grayscale
1070
   100
1002
}
  0
LINE
  5
12219
  8
YODOROGO
 10
27889.604341291921
 20
1847.6191779644359
 30
0.0
 11
27849.604341291921
 21
1796.9749811614161
 31
0.0
1001
AUTOCAD_POSTSCRIPT_FIGURE
1002
{
1000
PSFILL
1000
Grayscale
1000
Grayscale
1070
   100
1002
}
  0
LINE
  5
1221A
  8
YODOROGO
 10
27889.604341291921
 20
1747.749496429286
 30
0.0
 11
27889.604341291921
 21
1847.6191779644359
 31
0.0
1001
AUTOCAD_POSTSCRIPT_FIGURE
1002
{
1000
PSFILL
1000
Grayscale
1000
Grayscale
1070
   100
1002
}
  0
LINE
  5
1221B
  8
YODOROGO
 10
27905.604341291921
 20
1747.749496429286
 30
0.0
 11
27889.604341291921
 21
1747.749496429286
 31
0.0
1001
AUTOCAD_POSTSCRIPT_FIGURE
1002
{
1000
PSFILL
1000
Grayscale
1000
Grayscale
1070
   100
1002
}
  0
LINE
  5
1221C
  8
YODOROGO
 10
27905.604341291921
 20
1849.409012158806
 30
0.0
 11
27905.604341291921
 21
1747.749496429286
 31
0.0
1001
AUTOCAD_POSTSCRIPT_FIGURE
1002
{
1000
PSFILL
1000
Grayscale
1000
Grayscale
1070
   100
1002
}
  0
LINE
  5
1221D
  8
YODOROGO
 10
27937.604341291921
 20
1796.9749811614161
 30
0.0
 11
27905.604341291921
 21
1849.409012158806
 31
0.0
1001
AUTOCAD_POSTSCRIPT_FIGURE
1002
{
1000
PSFILL
1000
Grayscale
1000
Grayscale
1070
   100
1002
}
  0
LINE
  5
1221E
  8
YODOROGO
 10
27937.604341291921
 20
1812.974981161417
 30
0.0
 11
27937.604341291921
 21
1796.9749811614161
 31
0.0
1001
AUTOCAD_POSTSCRIPT_FIGURE
1002
{
1000
PSFILL
1000
Grayscale
1000
Grayscale
1070
   100
1002
}
  0
LINE
  5
1221F
  8
YODOROGO
 10
27905.604341291921
 20
1881.4090121588081
 30
0.0
 11
27937.604341291921
 21
1812.974981161417
 31
0.0
1001
AUTOCAD_POSTSCRIPT_FIGURE
1002
{
1000
PSFILL
1000
Grayscale
1000
Grayscale
1070
   100
1002
}
  0
LINE
  5
12220
  8
YODOROGO
 10
27905.604341291921
 20
1884.5683489363
 30
0.0
 11
27905.604341291921
 21
1881.4090121588081
 31
0.0
1001
AUTOCAD_POSTSCRIPT_FIGURE
1002
{
1000
PSFILL
1000
Grayscale
1000
Grayscale
1070
   100
1002
}
  0
LINE
  5
12221
  8
YODOROGO
 10
27937.604341291921
 20
1884.568348936298
 30
0.0
 11
27905.604341291921
 21
1884.5683489363
 31
0.0
1001
AUTOCAD_POSTSCRIPT_FIGURE
1002
{
1000
PSFILL
1000
Grayscale
1000
Grayscale
1070
   100
1002
}
  0
LINE
  5
12222
  8
YODOROGO
 10
27937.604341291921
 20
1900.5683489363
 30
0.0
 11
27937.604341291921
 21
1884.568348936298
 31
0.0
1001
AUTOCAD_POSTSCRIPT_FIGURE
1002
{
1000
PSFILL
1000
Grayscale
1000
Grayscale
1070
   100
1002
}
  0
LINE
  5
12223
  8
YODOROGO
 10
27905.604341291921
 20
1900.5683489363
 30
0.0
 11
27937.604341291921
 21
1900.5683489363
 31
0.0
1001
AUTOCAD_POSTSCRIPT_FIGURE
1002
{
1000
PSFILL
1000
Grayscale
1000
Grayscale
1070
   100
1002
}
  0
LINE
  5
12224
  8
YODOROGO
 10
27905.604341291921
 20
1939.749496429288
 30
0.0
 11
27905.604341291921
 21
1900.5683489363
 31
0.0
1001
AUTOCAD_POSTSCRIPT_FIGURE
1002
{
1000
PSFILL
1000
Grayscale
1000
Grayscale
1070
   100
1002
}
  0
LINE
  5
12225
  8
YODOROGO
 10
27937.604341291921
 20
1939.749496429288
 30
0.0
 11
27905.604341291921
 21
1939.749496429288
 31
0.0
1001
AUTOCAD_POSTSCRIPT_FIGURE
1002
{
1000
PSFILL
1000
Grayscale
1000
Grayscale
1070
   100
1002
}
  0
LINE
  5
12226
  8
YODOROGO
 10
27937.604341291921
 20
1955.7494964292871
 30
0.0
 11
27937.604341291921
 21
1939.749496429288
 31
0.0
1001
AUTOCAD_POSTSCRIPT_FIGURE
1002
{
1000
PSFILL
1000
Grayscale
1000
Grayscale
1070
   100
1002
}
  0
LINE
  5
12227
  8
YODOROGO
 10
27905.604341291921
 20
1955.7494964292871
 30
0.0
 11
27937.604341291921
 21
1955.7494964292871
 31
0.0
1001
AUTOCAD_POSTSCRIPT_FIGURE
1002
{
1000
PSFILL
1000
Grayscale
1000
Grayscale
1070
   100
1002
}
  0
LINE
  5
12228
  8
YODOROGO
 10
27905.604341291921
 20
1979.749496429288
 30
0.0
 11
27905.604341291921
 21
1955.7494964292871
 31
0.0
1001
AUTOCAD_POSTSCRIPT_FIGURE
1002
{
1000
PSFILL
1000
Grayscale
1000
Grayscale
1070
   100
1002
}
  0
LINE
  5
12229
  8
YODOROGO
 10
27889.604341291921
 20
1979.749496429288
 30
0.0
 11
27905.604341291921
 21
1979.749496429288
 31
0.0
1001
AUTOCAD_POSTSCRIPT_FIGURE
1002
{
1000
PSFILL
1000
Grayscale
1000
Grayscale
1070
   100
1002
}
  0
LINE
  5
1222A
  8
YODOROGO
 10
27889.604341291921
 20
1955.7494964292871
 30
0.0
 11
27889.604341291921
 21
1979.749496429288
 31
0.0
1001
AUTOCAD_POSTSCRIPT_FIGURE
1002
{
1000
PSFILL
1000
Grayscale
1000
Grayscale
1070
   100
1002
}
  0
LINE
  5
1222B
  8
YODOROGO
 10
27865.604341291921
 20
1955.7494964292871
 30
0.0
 11
27889.604341291921
 21
1955.7494964292871
 31
0.0
1001
AUTOCAD_POSTSCRIPT_FIGURE
1002
{
1000
PSFILL
1000
Grayscale
1000
Grayscale
1070
   100
1002
}
  0
LINE
  5
1222C
  8
YODOROGO
 10
27865.604341291921
 20
1979.749496429288
 30
0.0
 11
27865.604341291921
 21
1955.7494964292871
 31
0.0
1001
AUTOCAD_POSTSCRIPT_FIGURE
1002
{
1000
PSFILL
1000
Grayscale
1000
Grayscale
1070
   100
1002
}
  0
LINE
  5
1222D
  8
YODOROGO
 10
27849.604341291921
 20
1979.749496429288
 30
0.0
 11
27865.604341291921
 21
1979.749496429288
 31
0.0
1001
AUTOCAD_POSTSCRIPT_FIGURE
1002
{
1000
PSFILL
1000
Grayscale
1000
Grayscale
1070
   100
1002
}
  0
LINE
  5
1222E
  8
YODOROGO
 10
27849.604341291921
 20
1955.7494964292871
 30
0.0
 11
27849.604341291921
 21
1979.749496429288
 31
0.0
1001
AUTOCAD_POSTSCRIPT_FIGURE
1002
{
1000
PSFILL
1000
Grayscale
1000
Grayscale
1070
   100
1002
}
  0
LINE
  5
1222F
  8
YODOROGO
 10
27817.604341291921
 20
1955.7494964292871
 30
0.0
 11
27849.604341291921
 21
1955.7494964292871
 31
0.0
1001
AUTOCAD_POSTSCRIPT_FIGURE
1002
{
1000
PSFILL
1000
Grayscale
1000
Grayscale
1070
   100
1002
}
  0
LINE
  5
12230
  8
YODOROGO
 10
27817.604341291921
 20
1979.749496429288
 30
0.0
 11
27817.604341291921
 21
1955.7494964292871
 31
0.0
1001
AUTOCAD_POSTSCRIPT_FIGURE
1002
{
1000
PSFILL
1000
Grayscale
1000
Grayscale
1070
   100
1002
}
  0
LINE
  5
12231
  8
YODOROGO
 10
27801.604341291921
 20
1979.749496429288
 30
0.0
 11
27817.604341291921
 21
1979.749496429288
 31
0.0
1001
AUTOCAD_POSTSCRIPT_FIGURE
1002
{
1000
PSFILL
1000
Grayscale
1000
Grayscale
1070
   100
1002
}
  0
LINE
  5
12232
  8
YODOROGO
 10
27801.604341291921
 20
1955.7494964292871
 30
0.0
 11
27801.604341291921
 21
1979.749496429288
 31
0.0
1001
AUTOCAD_POSTSCRIPT_FIGURE
1002
{
1000
PSFILL
1000
Grayscale
1000
Grayscale
1070
   100
1002
}
  0
LINE
  5
12233
  8
YODOROGO
 10
27777.604341291921
 20
1955.7494964292871
 30
0.0
 11
27801.604341291921
 21
1955.7494964292871
 31
0.0
1001
AUTOCAD_POSTSCRIPT_FIGURE
1002
{
1000
PSFILL
1000
Grayscale
1000
Grayscale
1070
   100
1002
}
  0
LINE
  5
12234
  8
YODOROGO
 10
27777.604341291921
 20
1939.749496429288
 30
0.0
 11
27777.604341291921
 21
1955.7494964292871
 31
0.0
1001
AUTOCAD_POSTSCRIPT_FIGURE
1002
{
1000
PSFILL
1000
Grayscale
1000
Grayscale
1070
   100
1002
}
  0
LINE
  5
12235
  8
YODOROGO
 10
27801.604341291921
 20
1939.749496429288
 30
0.0
 11
27777.604341291921
 21
1939.749496429288
 31
0.0
1001
AUTOCAD_POSTSCRIPT_FIGURE
1002
{
1000
PSFILL
1000
Grayscale
1000
Grayscale
1070
   100
1002
}
  0
LINE
  5
12236
  8
YODOROGO
 10
27801.604341291921
 20
1914.7865807937051
 30
0.0
 11
27801.604341291921
 21
1939.749496429288
 31
0.0
1001
AUTOCAD_POSTSCRIPT_FIGURE
1002
{
1000
PSFILL
1000
Grayscale
1000
Grayscale
1070
   100
1002
}
  0
LINE
  5
12237
  8
YODOROGO
 10
27777.604341291921
 20
1859.776747951671
 30
0.0
 11
27801.604341291921
 21
1914.7865807937051
 31
0.0
1001
AUTOCAD_POSTSCRIPT_FIGURE
1002
{
1000
PSFILL
1000
Grayscale
1000
Grayscale
1070
   100
1002
}
  0
LINE
  5
12238
  8
YODOROGO
 10
27777.604341291921
 20
1843.776747951672
 30
0.0
 11
27777.604341291921
 21
1859.776747951671
 31
0.0
1001
AUTOCAD_POSTSCRIPT_FIGURE
1002
{
1000
PSFILL
1000
Grayscale
1000
Grayscale
1070
   100
1002
}
  0
LINE
  5
12239
  8
YODOROGO
 10
28257.604341291921
 20
1867.7494964292871
 30
0.0
 11
28401.60434129191
 21
1824.877625640306
 31
0.0
1001
AUTOCAD_POSTSCRIPT_FIGURE
1002
{
1000
PSFILL
1000
Grayscale
1000
Grayscale
1070
   100
1002
}
  0
LINE
  5
1223A
  8
YODOROGO
 10
28401.60434129191
 20
1752.877625640306
 30
0.0
 11
28257.604341291921
 21
1795.7494964292871
 31
0.0
1001
AUTOCAD_POSTSCRIPT_FIGURE
1002
{
1000
PSFILL
1000
Grayscale
1000
Grayscale
1070
   100
1002
}
  0
LINE
  5
1223B
  8
YODOROGO
 10
28401.60434129191
 20
1984.877625640306
 30
0.0
 11
28257.604341291921
 21
2027.749496429288
 31
0.0
1001
AUTOCAD_POSTSCRIPT_FIGURE
1002
{
1000
PSFILL
1000
Grayscale
1000
Grayscale
1070
   100
1002
}
  0
LINE
  5
1223C
  8
YODOROGO
 10
28257.604341291921
 20
1959.749496429288
 30
0.0
 11
28401.60434129191
 21
1916.8776256403071
 31
0.0
1001
AUTOCAD_POSTSCRIPT_FIGURE
1002
{
1000
PSFILL
1000
Grayscale
1000
Grayscale
1070
   100
1002
}
  0
LINE
  5
1223D
  8
YODOROGO
 10
28257.604341291921
 20
1795.7494964292871
 30
0.0
 11
28257.604341291921
 21
1867.7494964292871
 31
0.0
1001
AUTOCAD_POSTSCRIPT_FIGURE
1002
{
1000
PSFILL
1000
Grayscale
1000
Grayscale
1070
   100
1002
}
  0
LINE
  5
1223E
  8
YODOROGO
 10
28257.604341291921
 20
2027.749496429288
 30
0.0
 11
28257.604341291921
 21
1959.749496429288
 31
0.0
1001
AUTOCAD_POSTSCRIPT_FIGURE
1002
{
1000
PSFILL
1000
Grayscale
1000
Grayscale
1070
   100
1002
}
  0
LINE
  5
1223F
  8
YODOROGO
 10
28080.236320206739
 20
1939.749496429288
 30
0.0
 11
28129.60434129191
 21
1747.749496429286
 31
0.0
1001
AUTOCAD_POSTSCRIPT_FIGURE
1002
{
1000
PSFILL
1000
Grayscale
1000
Grayscale
1070
   100
1002
}
  0
LINE
  5
12240
  8
YODOROGO
 10
27977.604341291921
 20
1939.749496429288
 30
0.0
 11
28080.236320206739
 21
1939.749496429288
 31
0.0
1001
AUTOCAD_POSTSCRIPT_FIGURE
1002
{
1000
PSFILL
1000
Grayscale
1000
Grayscale
1070
   100
1002
}
  0
LINE
  5
12241
  8
YODOROGO
 10
27977.604341291921
 20
1955.7494964292871
 30
0.0
 11
27977.604341291921
 21
1939.749496429288
 31
0.0
1001
AUTOCAD_POSTSCRIPT_FIGURE
1002
{
1000
PSFILL
1000
Grayscale
1000
Grayscale
1070
   100
1002
}
  0
LINE
  5
12242
  8
YODOROGO
 10
28076.60687851991
 20
1955.7494964292871
 30
0.0
 11
27977.604341291921
 21
1955.7494964292871
 31
0.0
1001
AUTOCAD_POSTSCRIPT_FIGURE
1002
{
1000
PSFILL
1000
Grayscale
1000
Grayscale
1070
   100
1002
}
  0
LINE
  5
12243
  8
YODOROGO
 10
28071.162715989711
 20
1979.749496429288
 30
0.0
 11
28076.60687851991
 21
1955.7494964292871
 31
0.0
1001
AUTOCAD_POSTSCRIPT_FIGURE
1002
{
1000
PSFILL
1000
Grayscale
1000
Grayscale
1070
   100
1002
}
  0
LINE
  5
12244
  8
YODOROGO
 10
28091.162715989711
 20
1979.749496429288
 30
0.0
 11
28071.162715989711
 21
1979.749496429288
 31
0.0
1001
AUTOCAD_POSTSCRIPT_FIGURE
1002
{
1000
PSFILL
1000
Grayscale
1000
Grayscale
1070
   100
1002
}
  0
LINE
  5
12245
  8
YODOROGO
 10
28095.806878519939
 20
1955.7494964292871
 30
0.0
 11
28091.162715989711
 21
1979.749496429288
 31
0.0
1001
AUTOCAD_POSTSCRIPT_FIGURE
1002
{
1000
PSFILL
1000
Grayscale
1000
Grayscale
1070
   100
1002
}
  0
LINE
  5
12246
  8
YODOROGO
 10
28121.604341291921
 20
1955.7494964292871
 30
0.0
 11
28095.806878519939
 21
1955.7494964292871
 31
0.0
1001
AUTOCAD_POSTSCRIPT_FIGURE
1002
{
1000
PSFILL
1000
Grayscale
1000
Grayscale
1070
   100
1002
}
  0
LINE
  5
12247
  8
YODOROGO
 10
28121.604341291921
 20
1979.749496429288
 30
0.0
 11
28121.604341291921
 21
1955.7494964292871
 31
0.0
1001
AUTOCAD_POSTSCRIPT_FIGURE
1002
{
1000
PSFILL
1000
Grayscale
1000
Grayscale
1070
   100
1002
}
  0
LINE
  5
12248
  8
YODOROGO
 10
28137.604341291921
 20
1979.749496429288
 30
0.0
 11
28121.604341291921
 21
1979.749496429288
 31
0.0
1001
AUTOCAD_POSTSCRIPT_FIGURE
1002
{
1000
PSFILL
1000
Grayscale
1000
Grayscale
1070
   100
1002
}
  0
LINE
  5
12249
  8
YODOROGO
 10
28137.604341291921
 20
1955.7494964292871
 30
0.0
 11
28137.604341291921
 21
1979.749496429288
 31
0.0
1001
AUTOCAD_POSTSCRIPT_FIGURE
1002
{
1000
PSFILL
1000
Grayscale
1000
Grayscale
1070
   100
1002
}
  0
LINE
  5
1224A
  8
YODOROGO
 10
28137.604341291921
 20
1939.749496429288
 30
0.0
 11
28137.604341291921
 21
1955.7494964292871
 31
0.0
1001
AUTOCAD_POSTSCRIPT_FIGURE
1002
{
1000
PSFILL
1000
Grayscale
1000
Grayscale
1070
   100
1002
}
  0
LINE
  5
1224B
  8
YODOROGO
 10
28098.902986873411
 20
1939.749496429288
 30
0.0
 11
28137.604341291921
 21
1939.749496429288
 31
0.0
1001
AUTOCAD_POSTSCRIPT_FIGURE
1002
{
1000
PSFILL
1000
Grayscale
1000
Grayscale
1070
   100
1002
}
  0
LINE
  5
1224C
  8
YODOROGO
 10
28137.604341291921
 20
1747.749496429286
 30
0.0
 11
28098.902986873411
 21
1939.749496429288
 31
0.0
1001
AUTOCAD_POSTSCRIPT_FIGURE
1002
{
1000
PSFILL
1000
Grayscale
1000
Grayscale
1070
   100
1002
}
  0
LINE
  5
1224D
  8
YODOROGO
 10
28129.60434129191
 20
1747.749496429286
 30
0.0
 11
28137.604341291921
 21
1747.749496429286
 31
0.0
1001
AUTOCAD_POSTSCRIPT_FIGURE
1002
{
1000
PSFILL
1000
Grayscale
1000
Grayscale
1070
   100
1002
}
  0
LINE
  5
1224E
  8
YODOROGO
 10
28078.06921993379
 20
1775.7407762987939
 30
0.0
 11
27977.604341291921
 21
1747.749496429286
 31
0.0
  0
LINE
  5
1224F
  8
YODOROGO
 10
28078.06921993379
 20
1798.6689795290731
 30
0.0
 11
28078.06921993379
 21
1775.7407762987939
 31
0.0
  0
LINE
  5
12250
  8
YODOROGO
 10
28033.83678061287
 20
1786.816933133767
 30
0.0
 11
28078.06921993379
 21
1798.6689795290731
 31
0.0
  0
LINE
  5
12251
  8
YODOROGO
 10
28033.83678061287
 20
1872.5683489362989
 30
0.0
 11
28033.83678061287
 21
1786.816933133767
 31
0.0
  0
LINE
  5
12252
  8
YODOROGO
 10
28078.06921993379
 20
1872.5683489362989
 30
0.0
 11
28033.83678061287
 21
1872.5683489362989
 31
0.0
  0
LINE
  5
12253
  8
YODOROGO
 10
28078.06921993379
 20
1892.568348936298
 30
0.0
 11
28078.06921993379
 21
1872.5683489362989
 31
0.0
  0
LINE
  5
12254
  8
YODOROGO
 10
27977.604341291921
 20
1892.568348936298
 30
0.0
 11
28078.06921993379
 21
1892.568348936298
 31
0.0
  0
LINE
  5
12255
  8
YODOROGO
 10
27977.604341291921
 20
1872.5683489362989
 30
0.0
 11
27977.604341291921
 21
1892.568348936298
 31
0.0
  0
LINE
  5
12256
  8
YODOROGO
 10
28021.836780612852
 20
1872.5683489362989
 30
0.0
 11
27977.604341291921
 21
1872.5683489362989
 31
0.0
  0
LINE
  5
12257
  8
YODOROGO
 10
28021.836780612852
 20
1784.673339594317
 30
0.0
 11
28021.836780612852
 21
1872.5683489362989
 31
0.0
  0
LINE
  5
12258
  8
YODOROGO
 10
27977.604341291921
 20
1771.749496429286
 30
0.0
 11
28021.836780612852
 21
1784.673339594317
 31
0.0
  0
LINE
  5
12259
  8
YODOROGO
 10
27977.604341291921
 20
1747.749496429286
 30
0.0
 11
27977.604341291921
 21
1771.749496429286
 31
0.0
  0
LINE
  5
1225A
  8
YODOROGO
 10
28001.604341291921
 20
1707.749496429288
 30
0.0
 11
28001.604341291921
 21
1683.7494964292871
 31
0.0
  0
LINE
  5
1225B
  8
YODOROGO
 10
28017.604341291921
 20
1707.749496429288
 30
0.0
 11
28001.604341291921
 21
1707.749496429288
 31
0.0
  0
LINE
  5
1225C
  8
YODOROGO
 10
28017.604341291921
 20
1683.7494964292871
 30
0.0
 11
28017.604341291921
 21
1707.749496429288
 31
0.0
  0
LINE
  5
1225D
  8
YODOROGO
 10
28040.913204016892
 20
1683.7494964292871
 30
0.0
 11
28017.604341291921
 21
1683.7494964292871
 31
0.0
  0
LINE
  5
1225E
  8
YODOROGO
 10
28001.604341291921
 20
1683.7494964292871
 30
0.0
 11
27977.604341291921
 21
1683.7494964292871
 31
0.0
  0
LINE
  5
1225F
  8
YODOROGO
 10
28082.135520230921
 20
1707.749496429288
 30
0.0
 11
28098.135520230931
 21
1707.749496429288
 31
0.0
1001
AUTOCAD_POSTSCRIPT_FIGURE
1002
{
1000
PSFILL
1000
Grayscale
1000
Grayscale
1070
   100
1002
}
  0
LINE
  5
12260
  8
YODOROGO
 10
28401.60434129191
 20
1824.877625640306
 30
0.0
 11
28401.60434129191
 21
1752.877625640306
 31
0.0
1001
AUTOCAD_POSTSCRIPT_FIGURE
1002
{
1000
PSFILL
1000
Grayscale
1000
Grayscale
1070
   100
1002
}
  0
LINE
  5
12261
  8
YODOROGO
 10
28401.60434129191
 20
1916.8776256403071
 30
0.0
 11
28401.60434129191
 21
1984.877625640306
 31
0.0
1001
AUTOCAD_POSTSCRIPT_FIGURE
1002
{
1000
PSFILL
1000
Grayscale
1000
Grayscale
1070
   100
1002
}
  0
LINE
  5
12262
  8
YODOROGO
 10
28433.60434129191
 20
1819.7494964292871
 30
0.0
 11
28433.60434129191
 21
1747.74949642929
 31
0.0
  0
LINE
  5
12263
  8
YODOROGO
 10
28497.60434129191
 20
1707.749496429288
 30
0.0
 11
28433.60434129191
 21
1707.749496429288
 31
0.0
  0
LINE
  5
12264
  8
YODOROGO
 10
28433.60434129191
 20
1747.74949642929
 30
0.0
 11
28585.604341291921
 21
1747.74949642929
 31
0.0
  0
LINE
  5
12265
  8
YODOROGO
 10
28497.60434129191
 20
1867.7494964292871
 30
0.0
 11
28433.60434129191
 21
1867.7494964292871
 31
0.0
  0
LINE
  5
12266
  8
YODOROGO
 10
28497.60434129191
 20
1923.7494964292871
 30
0.0
 11
28497.60434129191
 21
1867.7494964292871
 31
0.0
  0
LINE
  5
12267
  8
YODOROGO
 10
28585.604341291921
 20
1987.7494964292871
 30
0.0
 11
28585.604341291921
 21
2027.749496429288
 31
0.0
  0
LINE
  5
12268
  8
YODOROGO
 10
28433.60434129191
 20
1987.7494964292871
 30
0.0
 11
28585.604341291921
 21
1987.7494964292871
 31
0.0
  0
LINE
  5
12269
  8
YODOROGO
 10
28433.60434129191
 20
1867.7494964292871
 30
0.0
 11
28433.60434129191
 21
1987.7494964292871
 31
0.0
  0
LINE
  5
1226A
  8
YODOROGO
 10
29001.60434129191
 20
2027.749496429288
 30
0.0
 11
29001.60434129191
 21
1619.749496429288
 31
0.0
  0
LINE
  5
1226B
  8
YODOROGO
 10
29073.604341291921
 20
1579.749496429288
 30
0.0
 11
29073.604341291921
 21
2027.749496429288
 31
0.0
  0
LINE
  5
1226C
  8
YODOROGO
 10
29261.604341291921
 20
1491.749496429286
 30
0.0
 11
29261.604341291921
 21
2007.749496429288
 31
0.0
  0
LINE
  5
1226D
  8
YODOROGO
 10
29197.604341291921
 20
2007.749496429288
 30
0.0
 11
29197.604341291921
 21
1491.749496429286
 31
0.0
  0
LINE
  5
1226E
  8
YODOROGO
 10
29385.604341291921
 20
2027.749496429288
 30
0.0
 11
29385.604341291921
 21
1427.749496429288
 31
0.0
  0
LINE
  5
1226F
  8
YODOROGO
 10
29457.604341291921
 20
1427.749496429288
 30
0.0
 11
29457.604341291921
 21
2027.749496429288
 31
0.0
  0
LINE
  5
12270
  8
YODOROGO
 10
28657.604341291921
 20
1667.749496429288
 30
0.0
 11
28657.604341291921
 21
1747.74949642929
 31
0.0
  0
LINE
  5
12271
  8
YODOROGO
 10
29885.604341291921
 20
1707.749496429288
 30
0.0
 11
29885.604341291921
 21
1667.749496429288
 31
0.0
  0
LINE
  5
12272
  8
YODOROGO
 10
29885.604341291921
 20
1707.749496429288
 30
0.0
 11
29885.604341291921
 21
1667.749496429288
 31
0.0
  0
ARC
  5
12273
  8
YODOROGO
 10
28906.911576186842
 20
1618.217864442272
 30
0.0
 40
94.705151178741644
 50
274.05244162907098
 51
0.9266642149310712
  0
ARC
  5
12274
  8
YODOROGO
 10
28909.186170719819
 20
1592.61072861044
 30
0.0
 40
164.92042356085511
 50
271.5351210653775
 51
355.52727750585052
  0
LINE
  5
12275
  8
YODOROGO
 10
28913.604341291921
 20
1523.7494964292871
 30
0.0
 11
28913.604341291921
 21
1427.749496429288
 31
0.0
  0
LINE
  5
12276
  8
YODOROGO
 10
28793.60434129191
 20
1667.749496429288
 30
0.0
 11
28657.604341291921
 21
1667.749496429288
 31
0.0
  0
LINE
  5
12277
  8
YODOROGO
 10
28793.60434129191
 20
1603.7494964292871
 30
0.0
 11
28793.60434129191
 21
1667.749496429288
 31
0.0
  0
LINE
  5
12278
  8
YODOROGO
 10
28657.604341291921
 20
1603.7494964292871
 30
0.0
 11
28793.60434129191
 21
1603.7494964292871
 31
0.0
  0
LINE
  5
12279
  8
YODOROGO
 10
28657.604341291921
 20
1523.7494964292871
 30
0.0
 11
28657.604341291921
 21
1603.7494964292871
 31
0.0
  0
LINE
  5
1227A
  8
YODOROGO
 10
28793.60434129191
 20
1523.7494964292871
 30
0.0
 11
28657.604341291921
 21
1523.7494964292871
 31
0.0
  0
LINE
  5
1227B
  8
YODOROGO
 10
28793.60434129191
 20
1427.749496429288
 30
0.0
 11
28793.60434129191
 21
1523.7494964292871
 31
0.0
  0
LINE
  5
1227C
  8
YODOROGO
 10
29197.604341291921
 20
1491.749496429286
 30
0.0
 11
29261.604341291921
 21
1491.749496429286
 31
0.0
  0
LINE
  5
1227D
  8
YODOROGO
 10
29385.604341291921
 20
1427.749496429288
 30
0.0
 11
29457.604341291921
 21
1427.749496429288
 31
0.0
  0
LINE
  5
1227E
  8
YODOROGO
 10
29737.604341291921
 20
1528.4414521705639
 30
0.0
 11
29737.604341291921
 21
1427.749496429288
 31
0.0
  0
LINE
  5
1227F
  8
YODOROGO
 10
29617.604341291921
 20
1427.749496429288
 30
0.0
 11
29737.604341291921
 21
1528.4414521705639
 31
0.0
  0
LINE
  5
12280
  8
YODOROGO
 10
29617.604341291921
 20
1547.749496429288
 30
0.0
 11
29617.604341291921
 21
1427.749496429288
 31
0.0
  0
LINE
  5
12281
  8
YODOROGO
 10
29712.94462869945
 20
1627.749496429288
 30
0.0
 11
29617.604341291921
 21
1547.749496429288
 31
0.0
  0
LINE
  5
12282
  8
YODOROGO
 10
29617.604341291921
 20
1627.749496429288
 30
0.0
 11
29712.94462869945
 21
1627.749496429288
 31
0.0
  0
LINE
  5
12283
  8
YODOROGO
 10
29617.604341291921
 20
1667.749496429288
 30
0.0
 11
29617.604341291921
 21
1627.749496429288
 31
0.0
  0
LINE
  5
12284
  8
YODOROGO
 10
29885.604341291921
 20
1667.749496429288
 30
0.0
 11
29617.604341291921
 21
1667.749496429288
 31
0.0
  0
LINE
  5
12285
  8
YODOROGO
 10
29917.604341291921
 20
1627.749496429288
 30
0.0
 11
29777.604341291921
 21
1627.749496429288
 31
0.0
  0
LINE
  5
12286
  8
YODOROGO
 10
29777.604341291921
 20
1562.0054374176559
 30
0.0
 11
29771.409872985321
 21
1556.807661346234
 31
0.0
  0
LINE
  5
12287
  8
YODOROGO
 10
29777.604341291921
 20
1627.749496429288
 30
0.0
 11
29777.604341291921
 21
1562.0054374176559
 31
0.0
  0
LINE
  5
12288
  8
YODOROGO
 10
29737.604341291921
 20
1528.4414521705639
 30
0.0
 11
29737.604341291921
 21
1427.749496429288
 31
0.0
  0
LINE
  5
12289
  8
YODOROGO
 10
29617.604341291921
 20
1427.749496429288
 30
0.0
 11
29737.604341291921
 21
1528.4414521705639
 31
0.0
  0
LINE
  5
1228A
  8
YODOROGO
 10
29617.604341291921
 20
1547.749496429288
 30
0.0
 11
29617.604341291921
 21
1427.749496429288
 31
0.0
  0
LINE
  5
1228B
  8
YODOROGO
 10
29712.94462869945
 20
1627.749496429288
 30
0.0
 11
29617.604341291921
 21
1547.749496429288
 31
0.0
  0
LINE
  5
1228C
  8
YODOROGO
 10
29617.604341291921
 20
1627.749496429288
 30
0.0
 11
29712.94462869945
 21
1627.749496429288
 31
0.0
  0
LINE
  5
1228D
  8
YODOROGO
 10
29617.604341291921
 20
1667.749496429288
 30
0.0
 11
29617.604341291921
 21
1627.749496429288
 31
0.0
  0
LINE
  5
1228E
  8
YODOROGO
 10
29885.604341291921
 20
1667.749496429288
 30
0.0
 11
29617.604341291921
 21
1667.749496429288
 31
0.0
  0
LINE
  5
1228F
  8
YODOROGO
 10
28793.60434129191
 20
1747.74949642929
 30
0.0
 11
28793.60434129191
 21
1819.7494964292871
 31
0.0
  0
LINE
  5
12290
  8
YODOROGO
 10
28657.604341291921
 20
1747.74949642929
 30
0.0
 11
28793.60434129191
 21
1747.74949642929
 31
0.0
  0
LINE
  5
12291
  8
YODOROGO
 10
28729.604341291921
 20
1867.7494964292871
 30
0.0
 11
28729.604341291921
 21
1923.7494964292871
 31
0.0
  0
LINE
  5
12292
  8
YODOROGO
 10
28793.60434129191
 20
1867.7494964292871
 30
0.0
 11
28729.604341291921
 21
1867.7494964292871
 31
0.0
  0
LINE
  5
12293
  8
YODOROGO
 10
28793.60434129191
 20
1947.749496429288
 30
0.0
 11
28793.60434129191
 21
1867.7494964292871
 31
0.0
  0
ARC
  5
12294
  8
YODOROGO
 10
28753.60434129191
 20
1947.749496429288
 30
0.0
 40
40.0
 50
0.0
 51
90.0
  0
LINE
  5
12295
  8
YODOROGO
 10
28657.604341291921
 20
1987.7494964292871
 30
0.0
 11
28753.60434129191
 21
1987.7494964292871
 31
0.0
  0
LINE
  5
12296
  8
YODOROGO
 10
28657.604341291921
 20
2027.749496429288
 30
0.0
 11
28657.604341291921
 21
1987.7494964292871
 31
0.0
  0
LINE
  5
12297
  8
YODOROGO
 10
29073.604341291921
 20
2027.749496429288
 30
0.0
 11
29001.60434129191
 21
2027.749496429288
 31
0.0
  0
LINE
  5
12298
  8
YODOROGO
 10
29261.604341291921
 20
2007.749496429288
 30
0.0
 11
29197.604341291921
 21
2007.749496429288
 31
0.0
  0
LINE
  5
12299
  8
YODOROGO
 10
29457.604341291921
 20
2027.749496429288
 30
0.0
 11
29385.604341291921
 21
2027.749496429288
 31
0.0
  0
LINE
  5
1229A
  8
YODOROGO
 10
29673.604341291921
 20
1707.749496429288
 30
0.0
 11
29673.604341291921
 21
1771.7494964292871
 31
0.0
1001
AUTOCAD_POSTSCRIPT_FIGURE
1002
{
1000
PSFILL
1000
Grayscale
1000
Grayscale
1070
    25
1002
}
  0
LINE
  5
1229B
  8
YODOROGO
 10
29617.604341291921
 20
1707.749496429288
 30
0.0
 11
29673.604341291921
 21
1707.749496429288
 31
0.0
1001
AUTOCAD_POSTSCRIPT_FIGURE
1002
{
1000
PSFILL
1000
Grayscale
1000
Grayscale
1070
    25
1002
}
  0
LINE
  5
1229C
  8
YODOROGO
 10
29617.604341291921
 20
1819.7494964292871
 30
0.0
 11
29617.604341291921
 21
1707.749496429288
 31
0.0
1001
AUTOCAD_POSTSCRIPT_FIGURE
1002
{
1000
PSFILL
1000
Grayscale
1000
Grayscale
1070
    25
1002
}
  0
LINE
  5
1229D
  8
YODOROGO
 10
29765.604341291921
 20
1819.7494964292871
 30
0.0
 11
29617.604341291921
 21
1819.7494964292871
 31
0.0
1001
AUTOCAD_POSTSCRIPT_FIGURE
1002
{
1000
PSFILL
1000
Grayscale
1000
Grayscale
1070
    25
1002
}
  0
LINE
  5
1229E
  8
YODOROGO
 10
29765.604341291921
 20
1859.749496429288
 30
0.0
 11
29765.604341291921
 21
1819.7494964292871
 31
0.0
1001
AUTOCAD_POSTSCRIPT_FIGURE
1002
{
1000
PSFILL
1000
Grayscale
1000
Grayscale
1070
    25
1002
}
  0
LINE
  5
1229F
  8
YODOROGO
 10
29617.604341291921
 20
1859.749496429288
 30
0.0
 11
29765.604341291921
 21
1859.749496429288
 31
0.0
1001
AUTOCAD_POSTSCRIPT_FIGURE
1002
{
1000
PSFILL
1000
Grayscale
1000
Grayscale
1070
    25
1002
}
  0
LINE
  5
122A0
  8
YODOROGO
 10
29617.604341291921
 20
1907.7494964292871
 30
0.0
 11
29617.604341291921
 21
1859.749496429288
 31
0.0
1001
AUTOCAD_POSTSCRIPT_FIGURE
1002
{
1000
PSFILL
1000
Grayscale
1000
Grayscale
1070
    25
1002
}
  0
LINE
  5
122A1
  8
YODOROGO
 10
29765.604341291921
 20
1907.7494964292871
 30
0.0
 11
29617.604341291921
 21
1907.7494964292871
 31
0.0
1001
AUTOCAD_POSTSCRIPT_FIGURE
1002
{
1000
PSFILL
1000
Grayscale
1000
Grayscale
1070
    25
1002
}
  0
LINE
  5
122A2
  8
YODOROGO
 10
29765.604341291921
 20
1947.749496429288
 30
0.0
 11
29765.604341291921
 21
1907.7494964292871
 31
0.0
1001
AUTOCAD_POSTSCRIPT_FIGURE
1002
{
1000
PSFILL
1000
Grayscale
1000
Grayscale
1070
    25
1002
}
  0
LINE
  5
122A3
  8
YODOROGO
 10
29617.604341291921
 20
1947.749496429288
 30
0.0
 11
29765.604341291921
 21
1947.749496429288
 31
0.0
1001
AUTOCAD_POSTSCRIPT_FIGURE
1002
{
1000
PSFILL
1000
Grayscale
1000
Grayscale
1070
    25
1002
}
  0
LINE
  5
122A4
  8
YODOROGO
 10
29617.604341291921
 20
2027.749496429288
 30
0.0
 11
29617.604341291921
 21
1947.749496429288
 31
0.0
1001
AUTOCAD_POSTSCRIPT_FIGURE
1002
{
1000
PSFILL
1000
Grayscale
1000
Grayscale
1070
    25
1002
}
  0
LINE
  5
122A5
  8
YODOROGO
 10
29665.604341291921
 20
2027.749496429288
 30
0.0
 11
29617.604341291921
 21
2027.749496429288
 31
0.0
1001
AUTOCAD_POSTSCRIPT_FIGURE
1002
{
1000
PSFILL
1000
Grayscale
1000
Grayscale
1070
    25
1002
}
  0
LINE
  5
122A6
  8
YODOROGO
 10
29665.604341291921
 20
1995.7494964292871
 30
0.0
 11
29665.604341291921
 21
2027.749496429288
 31
0.0
1001
AUTOCAD_POSTSCRIPT_FIGURE
1002
{
1000
PSFILL
1000
Grayscale
1000
Grayscale
1070
    25
1002
}
  0
LINE
  5
122A7
  8
YODOROGO
 10
29765.604341291921
 20
1995.7494964292871
 30
0.0
 11
29665.604341291921
 21
1995.7494964292871
 31
0.0
1001
AUTOCAD_POSTSCRIPT_FIGURE
1002
{
1000
PSFILL
1000
Grayscale
1000
Grayscale
1070
    25
1002
}
  0
LINE
  5
122A8
  8
YODOROGO
 10
29765.604341291921
 20
2027.749496429288
 30
0.0
 11
29765.604341291921
 21
1995.7494964292871
 31
0.0
1001
AUTOCAD_POSTSCRIPT_FIGURE
1002
{
1000
PSFILL
1000
Grayscale
1000
Grayscale
1070
    25
1002
}
  0
LINE
  5
122A9
  8
YODOROGO
 10
29829.604341291921
 20
2027.749496429288
 30
0.0
 11
29765.604341291921
 21
2027.749496429288
 31
0.0
1001
AUTOCAD_POSTSCRIPT_FIGURE
1002
{
1000
PSFILL
1000
Grayscale
1000
Grayscale
1070
    25
1002
}
  0
LINE
  5
122AA
  8
YODOROGO
 10
29829.604341291921
 20
1995.7494964292871
 30
0.0
 11
29829.604341291921
 21
2027.749496429288
 31
0.0
1001
AUTOCAD_POSTSCRIPT_FIGURE
1002
{
1000
PSFILL
1000
Grayscale
1000
Grayscale
1070
    25
1002
}
  0
LINE
  5
122AB
  8
YODOROGO
 10
29829.604341291921
 20
1907.7494964292871
 30
0.0
 11
29829.604341291921
 21
1947.749496429288
 31
0.0
1001
AUTOCAD_POSTSCRIPT_FIGURE
1002
{
1000
PSFILL
1000
Grayscale
1000
Grayscale
1070
    25
1002
}
  0
LINE
  5
122AC
  8
YODOROGO
 10
29829.604341291921
 20
1819.7494964292871
 30
0.0
 11
29829.604341291921
 21
1859.749496429288
 31
0.0
1001
AUTOCAD_POSTSCRIPT_FIGURE
1002
{
1000
PSFILL
1000
Grayscale
1000
Grayscale
1070
    25
1002
}
  0
LINE
  5
122AD
  8
YODOROGO
 10
29921.60434129191
 20
1771.7494964292871
 30
0.0
 11
29921.60434129191
 21
1707.749496429288
 31
0.0
1001
AUTOCAD_POSTSCRIPT_FIGURE
1002
{
1000
PSFILL
1000
Grayscale
1000
Grayscale
1070
    25
1002
}
  0
LINE
  5
122AE
  8
YODOROGO
 10
29829.604341291921
 20
1771.7494964292871
 30
0.0
 11
29921.60434129191
 21
1771.7494964292871
 31
0.0
1001
AUTOCAD_POSTSCRIPT_FIGURE
1002
{
1000
PSFILL
1000
Grayscale
1000
Grayscale
1070
    25
1002
}
  0
LINE
  5
122AF
  8
YODOROGO
 10
29829.604341291921
 20
1707.749496429288
 30
0.0
 11
29829.604341291921
 21
1771.7494964292871
 31
0.0
1001
AUTOCAD_POSTSCRIPT_FIGURE
1002
{
1000
PSFILL
1000
Grayscale
1000
Grayscale
1070
    25
1002
}
  0
LINE
  5
122B0
  8
YODOROGO
 10
29765.604341291921
 20
1707.749496429288
 30
0.0
 11
29829.604341291921
 21
1707.749496429288
 31
0.0
1001
AUTOCAD_POSTSCRIPT_FIGURE
1002
{
1000
PSFILL
1000
Grayscale
1000
Grayscale
1070
    25
1002
}
  0
LINE
  5
122B1
  8
YODOROGO
 10
29765.604341291921
 20
1771.7494964292871
 30
0.0
 11
29765.604341291921
 21
1707.749496429288
 31
0.0
1001
AUTOCAD_POSTSCRIPT_FIGURE
1002
{
1000
PSFILL
1000
Grayscale
1000
Grayscale
1070
    25
1002
}
  0
LINE
  5
122B2
  8
YODOROGO
 10
29673.604341291921
 20
1771.7494964292871
 30
0.0
 11
29765.604341291921
 21
1771.7494964292871
 31
0.0
1001
AUTOCAD_POSTSCRIPT_FIGURE
1002
{
1000
PSFILL
1000
Grayscale
1000
Grayscale
1070
    25
1002
}
  0
ARC
  5
122B3
  8
YODOROGO
 10
31059.517893357912
 20
1602.6807375155761
 30
0.0
 40
178.22128111072141
 50
281.02627495425338
 51
357.77113575573799
  0
LINE
  5
122B4
  8
YODOROGO
 10
31413.604341291921
 20
1907.7494964292871
 30
0.0
 11
31165.604341291921
 21
1907.7494964292871
 31
0.0
  0
LINE
  5
122B5
  8
YODOROGO
 10
31413.604341291921
 20
2027.749496429288
 30
0.0
 11
31165.604341291921
 21
2027.749496429288
 31
0.0
  0
LINE
  5
122B6
  8
YODOROGO
 10
31165.604341291921
 20
1963.749496429286
 30
0.0
 11
31413.604341291921
 21
1963.749496429286
 31
0.0
  0
LINE
  5
122B7
  8
YODOROGO
 10
30791.604341291921
 20
1563.7494964292871
 30
0.0
 11
30791.604341291921
 21
1755.7494964292871
 31
0.0
  0
LINE
  5
122B8
  8
YODOROGO
 10
30763.604341291921
 20
1691.749496429288
 30
0.0
 11
30763.604341291921
 21
1563.7494964292871
 31
0.0
  0
LINE
  5
122B9
  8
YODOROGO
 10
30723.604341291921
 20
1491.749496429288
 30
0.0
 11
30723.604341291921
 21
1691.749496429288
 31
0.0
  0
LINE
  5
122BA
  8
YODOROGO
 10
30899.604341291932
 20
1691.749496429288
 30
0.0
 11
30899.604341291932
 21
1491.749496429288
 31
0.0
  0
LINE
  5
122BB
  8
YODOROGO
 10
30859.604341291932
 20
1563.7494964292871
 30
0.0
 11
30859.604341291932
 21
1691.749496429288
 31
0.0
  0
LINE
  5
122BC
  8
YODOROGO
 10
30831.604341291921
 20
1755.7494964292871
 30
0.0
 11
30831.604341291921
 21
1563.7494964292871
 31
0.0
  0
LINE
  5
122BD
  8
YODOROGO
 10
30973.604341291921
 20
2027.749496429288
 30
0.0
 11
30973.604341291921
 21
1467.749496429288
 31
0.0
  0
LINE
  5
122BE
  8
YODOROGO
 10
30645.604341291921
 20
1427.749496429288
 30
0.0
 11
30645.604341291921
 21
2027.749496429288
 31
0.0
  0
LINE
  5
122BF
  8
YODOROGO
 10
30697.604341291932
 20
1963.749496429286
 30
0.0
 11
30697.604341291932
 21
1427.749496429288
 31
0.0
  0
LINE
  5
122C0
  8
YODOROGO
 10
30925.604341291921
 20
1547.749496429288
 30
0.0
 11
30925.604341291921
 21
1963.749496429286
 31
0.0
  0
LINE
  5
122C1
  8
YODOROGO
 10
30381.604341291932
 20
1627.749496429288
 30
0.0
 11
30381.604341291932
 21
1679.749496429288
 31
0.0
  0
LINE
  5
122C2
  8
YODOROGO
 10
30617.604341291921
 20
1679.749496429288
 30
0.0
 11
30617.604341291921
 21
1627.749496429288
 31
0.0
  0
LINE
  5
122C3
  8
YODOROGO
 10
31165.604341291921
 20
1907.7494964292871
 30
0.0
 11
31165.604341291921
 21
1635.7494964292871
 31
0.0
  0
LINE
  5
122C4
  8
YODOROGO
 10
29949.60434129191
 20
1667.749496429288
 30
0.0
 11
29949.60434129191
 21
1707.749496429288
 31
0.0
  0
LINE
  5
122C5
  8
YODOROGO
 10
29949.60434129191
 20
1667.749496429288
 30
0.0
 11
29949.60434129191
 21
1707.749496429288
 31
0.0
  0
ARC
  5
122C6
  8
YODOROGO
 10
30537.604341291921
 20
1507.749496429288
 30
0.0
 40
80.0
 50
270.0
 51
0.0
  0
LINE
  5
122C7
  8
YODOROGO
 10
30569.604341291921
 20
1599.7494964292871
 30
0.0
 11
30617.604341291921
 21
1599.7494964292871
 31
0.0
  0
LINE
  5
122C8
  8
YODOROGO
 10
30617.604341291921
 20
1627.749496429288
 30
0.0
 11
30529.604341291939
 21
1627.749496429288
 31
0.0
  0
LINE
  5
122C9
  8
YODOROGO
 10
30217.604341291921
 20
1667.749496429288
 30
0.0
 11
29949.60434129191
 21
1667.749496429288
 31
0.0
  0
LINE
  5
122CA
  8
YODOROGO
 10
30217.604341291921
 20
1627.749496429288
 30
0.0
 11
30217.604341291921
 21
1667.749496429288
 31
0.0
  0
LINE
  5
122CB
  8
YODOROGO
 10
30017.604341291921
 20
1627.749496429288
 30
0.0
 11
30217.604341291921
 21
1627.749496429288
 31
0.0
  0
ARC
  5
122CC
  8
YODOROGO
 10
30230.05882870136
 20
1868.885714952901
 30
0.0
 40
321.37763628522822
 50
228.6181454618993
 51
245.660289248906
  0
LINE
  5
122CD
  8
YODOROGO
 10
30105.604341291921
 20
1603.7494964292871
 30
0.0
 11
30097.60434129195
 21
1576.0728158699001
 31
0.0
  0
LINE
  5
122CE
  8
YODOROGO
 10
30189.604341291921
 20
1603.7494964292871
 30
0.0
 11
30105.604341291921
 21
1603.7494964292871
 31
0.0
  0
LINE
  5
122CF
  8
YODOROGO
 10
30177.604341291921
 20
1551.817722473427
 30
0.0
 11
30189.604341291921
 21
1603.7494964292871
 31
0.0
  0
ARC
  5
122D0
  8
YODOROGO
 10
30230.05882870045
 20
1868.885714953002
 30
0.0
 40
321.37763628529081
 50
260.60629297969911
 51
267.77903556555862
  0
LINE
  5
122D1
  8
YODOROGO
 10
30217.604341291921
 20
1427.749496429285
 30
0.0
 11
30217.604341291921
 21
1547.749496429288
 31
0.0
  0
LINE
  5
122D2
  8
YODOROGO
 10
29937.604341291932
 20
1481.3393349155101
 30
0.0
 11
29937.604341291921
 21
1594.531090531141
 31
0.0
  0
LINE
  5
122D3
  8
YODOROGO
 10
30217.604341291921
 20
1667.749496429288
 30
0.0
 11
29949.60434129191
 21
1667.749496429288
 31
0.0
  0
LINE
  5
122D4
  8
YODOROGO
 10
30217.604341291921
 20
1627.749496429288
 30
0.0
 11
30217.604341291921
 21
1667.749496429288
 31
0.0
  0
LINE
  5
122D5
  8
YODOROGO
 10
30017.604341291921
 20
1627.749496429288
 30
0.0
 11
30217.604341291921
 21
1627.749496429288
 31
0.0
  0
ARC
  5
122D6
  8
YODOROGO
 10
30230.05882870136
 20
1868.885714952901
 30
0.0
 40
321.37763628522822
 50
228.6181454618993
 51
245.660289248906
  0
LINE
  5
122D7
  8
YODOROGO
 10
30105.604341291921
 20
1603.7494964292871
 30
0.0
 11
30097.60434129195
 21
1576.0728158699001
 31
0.0
  0
LINE
  5
122D8
  8
YODOROGO
 10
30189.604341291921
 20
1603.7494964292871
 30
0.0
 11
30105.604341291921
 21
1603.7494964292871
 31
0.0
  0
LINE
  5
122D9
  8
YODOROGO
 10
30177.604341291921
 20
1551.817722473427
 30
0.0
 11
30189.604341291921
 21
1603.7494964292871
 31
0.0
  0
ARC
  5
122DA
  8
YODOROGO
 10
30230.05882870045
 20
1868.885714953002
 30
0.0
 40
321.37763628529081
 50
260.60629297969911
 51
267.77903556555862
  0
LINE
  5
122DB
  8
YODOROGO
 10
30217.604341291921
 20
1427.749496429285
 30
0.0
 11
30217.604341291921
 21
1547.749496429288
 31
0.0
  0
LINE
  5
122DC
  8
YODOROGO
 10
29937.604341291932
 20
1481.3393349155101
 30
0.0
 11
29937.604341291921
 21
1594.531090531141
 31
0.0
  0
LINE
  5
122DD
  8
YODOROGO
 10
30433.604341291921
 20
1573.749496429288
 30
0.0
 11
30381.604341291932
 21
1573.749496429288
 31
0.0
  0
LINE
  5
122DE
  8
YODOROGO
 10
30433.604341291921
 20
1601.749496429285
 30
0.0
 11
30433.604341291921
 21
1573.749496429288
 31
0.0
  0
LINE
  5
122DF
  8
YODOROGO
 10
30381.604341291932
 20
1601.749496429285
 30
0.0
 11
30433.604341291921
 21
1601.749496429285
 31
0.0
  0
LINE
  5
122E0
  8
YODOROGO
 10
30381.604341291932
 20
1573.749496429288
 30
0.0
 11
30381.604341291932
 21
1601.749496429285
 31
0.0
  0
LINE
  5
122E1
  8
YODOROGO
 10
30429.604341291921
 20
1577.7494964292871
 30
0.0
 11
30385.604341291921
 21
1577.7494964292871
 31
0.0
  0
LINE
  5
122E2
  8
YODOROGO
 10
30429.604341291921
 20
1597.749496429288
 30
0.0
 11
30429.604341291921
 21
1577.7494964292871
 31
0.0
  0
LINE
  5
122E3
  8
YODOROGO
 10
30385.604341291921
 20
1597.749496429288
 30
0.0
 11
30429.604341291921
 21
1597.749496429288
 31
0.0
  0
LINE
  5
122E4
  8
YODOROGO
 10
30385.604341291921
 20
1577.7494964292871
 30
0.0
 11
30385.604341291921
 21
1597.749496429288
 31
0.0
  0
LINE
  5
122E5
  8
YODOROGO
 10
30425.604341291921
 20
1581.749496429286
 30
0.0
 11
30389.604341291921
 21
1581.749496429286
 31
0.0
  0
LINE
  5
122E6
  8
YODOROGO
 10
30425.604341291921
 20
1593.749496429288
 30
0.0
 11
30425.604341291921
 21
1581.749496429286
 31
0.0
  0
LINE
  5
122E7
  8
YODOROGO
 10
30389.604341291921
 20
1593.749496429288
 30
0.0
 11
30425.604341291921
 21
1593.749496429288
 31
0.0
  0
LINE
  5
122E8
  8
YODOROGO
 10
30389.604341291921
 20
1581.749496429286
 30
0.0
 11
30389.604341291921
 21
1593.749496429288
 31
0.0
  0
LINE
  5
122E9
  8
YODOROGO
 10
30421.604341291932
 20
1585.7494964292871
 30
0.0
 11
30393.604341291921
 21
1585.7494964292871
 31
0.0
  0
LINE
  5
122EA
  8
YODOROGO
 10
30421.604341291932
 20
1589.749496429288
 30
0.0
 11
30421.604341291932
 21
1585.7494964292871
 31
0.0
  0
LINE
  5
122EB
  8
YODOROGO
 10
30393.604341291921
 20
1589.749496429288
 30
0.0
 11
30421.604341291932
 21
1589.749496429288
 31
0.0
  0
LINE
  5
122EC
  8
YODOROGO
 10
30393.604341291921
 20
1585.7494964292871
 30
0.0
 11
30393.604341291921
 21
1589.749496429288
 31
0.0
  0
LINE
  5
122ED
  8
YODOROGO
 10
30465.604341291921
 20
1627.749496429288
 30
0.0
 11
30381.604341291932
 21
1627.749496429288
 31
0.0
  0
LINE
  5
122EE
  8
YODOROGO
 10
30465.604341291921
 20
1547.749496429288
 30
0.0
 11
30465.604341291921
 21
1627.749496429288
 31
0.0
  0
LINE
  5
122EF
  8
YODOROGO
 10
30381.604341291932
 20
1547.749496429288
 30
0.0
 11
30465.604341291921
 21
1547.749496429288
 31
0.0
  0
LINE
  5
122F0
  8
YODOROGO
 10
30381.604341291932
 20
1427.749496429288
 30
0.0
 11
30381.604341291932
 21
1547.749496429288
 31
0.0
  0
LINE
  5
122F1
  8
YODOROGO
 10
30537.604341291921
 20
1427.749496429288
 30
0.0
 11
30381.604341291932
 21
1427.749496429288
 31
0.0
  0
LINE
  5
122F2
  8
YODOROGO
 10
30569.604341291921
 20
1571.749496429285
 30
0.0
 11
30569.604341291921
 21
1599.7494964292871
 31
0.0
  0
ARC
  5
122F3
  8
YODOROGO
 10
30545.604341291921
 20
1571.749496429291
 30
0.0
 40
24.000000000003752
 50
270.0
 51
359.99999999998772
  0
LINE
  5
122F4
  8
YODOROGO
 10
30529.604341291939
 20
1547.749496429288
 30
0.0
 11
30545.604341291921
 21
1547.749496429288
 31
0.0
  0
LINE
  5
122F5
  8
YODOROGO
 10
30529.604341291939
 20
1627.749496429288
 30
0.0
 11
30529.604341291939
 21
1547.749496429288
 31
0.0
  0
LINE
  5
122F6
  8
YODOROGO
 10
30899.604341291932
 20
1547.749496429288
 30
0.0
 11
30925.604341291921
 21
1547.749496429288
 31
0.0
  0
LINE
  5
122F7
  8
YODOROGO
 10
30933.604341291921
 20
1427.749496429288
 30
0.0
 11
30899.604341291932
 21
1427.749496429288
 31
0.0
  0
LINE
  5
122F8
  8
YODOROGO
 10
30763.604341291921
 20
1563.7494964292871
 30
0.0
 11
30791.604341291921
 21
1563.7494964292871
 31
0.0
  0
LINE
  5
122F9
  8
YODOROGO
 10
30899.604341291932
 20
1491.749496429288
 30
0.0
 11
30723.604341291921
 21
1491.749496429288
 31
0.0
  0
LINE
  5
122FA
  8
YODOROGO
 10
30831.604341291921
 20
1563.7494964292871
 30
0.0
 11
30859.604341291932
 21
1563.7494964292871
 31
0.0
  0
LINE
  5
122FB
  8
YODOROGO
 10
30899.604341291932
 20
1427.749496429288
 30
0.0
 11
30899.604341291932
 21
1547.749496429288
 31
0.0
  0
LINE
  5
122FC
  8
YODOROGO
 10
30697.604341291932
 20
1427.749496429288
 30
0.0
 11
30645.604341291921
 21
1427.749496429288
 31
0.0
  0
LINE
  5
122FD
  8
YODOROGO
 10
30617.604341291921
 20
1599.7494964292871
 30
0.0
 11
30617.604341291921
 21
1507.749496429288
 31
0.0
  0
ARC
  5
122FE
  8
YODOROGO
 10
30933.604341291921
 20
1467.749496429288
 30
0.0
 40
40.0
 50
270.0
 51
0.0
  0
LINE
  5
122FF
  8
YODOROGO
 10
31093.604341291921
 20
1523.7494964292871
 30
0.0
 11
31093.604341291921
 21
1427.749496429288
 31
0.0
  0
ARC
  5
12300
  8
YODOROGO
 10
31039.721395566768
 20
1637.5313901097329
 30
0.0
 40
125.8955565916754
 50
295.34052442160112
 51
359.18902303418679
  0
LINE
  5
12301
  8
YODOROGO
 10
30617.604341291921
 20
1859.749496429288
 30
0.0
 11
30497.604341291921
 21
1939.749496429288
 31
0.0
  0
LINE
  5
12302
  8
YODOROGO
 10
30497.604341291921
 20
2027.749496429288
 30
0.0
 11
30617.604341291921
 21
1947.749496429288
 31
0.0
  0
LINE
  5
12303
  8
YODOROGO
 10
30529.604341291939
 20
1679.749496429288
 30
0.0
 11
30617.604341291921
 21
1679.749496429288
 31
0.0
  0
LINE
  5
12304
  8
YODOROGO
 10
30617.604341291921
 20
1735.7494964292871
 30
0.0
 11
30529.604341291939
 21
1735.7494964292871
 31
0.0
  0
LINE
  5
12305
  8
YODOROGO
 10
30381.604341291932
 20
1795.7494964292871
 30
0.0
 11
30617.604341291921
 21
1795.7494964292871
 31
0.0
  0
LINE
  5
12306
  8
YODOROGO
 10
30081.604341291921
 20
2027.749496429288
 30
0.0
 11
30021.604341291921
 21
2027.749496429288
 31
0.0
  0
LINE
  5
12307
  8
YODOROGO
 10
30081.604341291921
 20
1827.7494964292871
 30
0.0
 11
30081.604341291921
 21
2027.749496429288
 31
0.0
  0
LINE
  5
12308
  8
YODOROGO
 10
30021.604341291921
 20
1827.7494964292871
 30
0.0
 11
30081.604341291921
 21
1827.7494964292871
 31
0.0
  0
LINE
  5
12309
  8
YODOROGO
 10
30021.604341291921
 20
2027.749496429288
 30
0.0
 11
30021.604341291921
 21
1827.7494964292871
 31
0.0
  0
LINE
  5
1230A
  8
YODOROGO
 10
30161.604341291921
 20
2027.749496429288
 30
0.0
 11
30217.604341291921
 21
2027.749496429288
 31
0.0
  0
LINE
  5
1230B
  8
YODOROGO
 10
30161.604341291921
 20
1811.749496429288
 30
0.0
 11
30161.604341291921
 21
2027.749496429288
 31
0.0
  0
ARC
  5
1230C
  8
YODOROGO
 10
30121.604341291921
 20
1811.749496429288
 30
0.0
 40
40.0
 50
270.0
 51
0.0
  0
LINE
  5
1230D
  8
YODOROGO
 10
30021.604341291921
 20
1771.7494964292871
 30
0.0
 11
30121.604341291921
 21
1771.7494964292871
 31
0.0
  0
LINE
  5
1230E
  8
YODOROGO
 10
30021.604341291921
 20
1707.749496429288
 30
0.0
 11
30021.604341291921
 21
1771.7494964292871
 31
0.0
  0
LINE
  5
1230F
  8
YODOROGO
 10
30137.604341291921
 20
1707.749496429288
 30
0.0
 11
30021.604341291921
 21
1707.749496429288
 31
0.0
  0
ARC
  5
12310
  8
YODOROGO
 10
30137.604341291921
 20
1787.7494964292871
 30
0.0
 40
80.0
 50
270.0
 51
0.0
  0
LINE
  5
12311
  8
YODOROGO
 10
30217.604341291921
 20
2027.749496429288
 30
0.0
 11
30217.604341291921
 21
1787.7494964292871
 31
0.0
  0
LINE
  5
12312
  8
YODOROGO
 10
29977.604341291921
 20
1947.749496429288
 30
0.0
 11
29977.604341291921
 21
1995.7494964292871
 31
0.0
1001
AUTOCAD_POSTSCRIPT_FIGURE
1002
{
1000
PSFILL
1000
Grayscale
1000
Grayscale
1070
    25
1002
}
  0
LINE
  5
12313
  8
YODOROGO
 10
29977.604341291921
 20
1859.749496429288
 30
0.0
 11
29977.604341291921
 21
1907.7494964292871
 31
0.0
1001
AUTOCAD_POSTSCRIPT_FIGURE
1002
{
1000
PSFILL
1000
Grayscale
1000
Grayscale
1070
    25
1002
}
  0
LINE
  5
12314
  8
YODOROGO
 10
29977.604341291921
 20
1707.749496429288
 30
0.0
 11
29977.604341291921
 21
1819.7494964292871
 31
0.0
1001
AUTOCAD_POSTSCRIPT_FIGURE
1002
{
1000
PSFILL
1000
Grayscale
1000
Grayscale
1070
    25
1002
}
  0
LINE
  5
12315
  8
YODOROGO
 10
30381.604341291932
 20
1907.7494964292871
 30
0.0
 11
30497.604341291921
 21
2027.749496429288
 31
0.0
  0
LINE
  5
12316
  8
YODOROGO
 10
30381.604341291932
 20
1819.7494964292871
 30
0.0
 11
30381.604341291932
 21
1907.7494964292871
 31
0.0
  0
LINE
  5
12317
  8
YODOROGO
 10
30497.604341291921
 20
1939.749496429288
 30
0.0
 11
30381.604341291932
 21
1819.7494964292871
 31
0.0
  0
LINE
  5
12318
  8
YODOROGO
 10
30465.604341291921
 20
1679.749496429288
 30
0.0
 11
30465.604341291921
 21
1735.7494964292871
 31
0.0
  0
LINE
  5
12319
  8
YODOROGO
 10
30381.604341291932
 20
1679.749496429288
 30
0.0
 11
30465.604341291921
 21
1679.749496429288
 31
0.0
  0
LINE
  5
1231A
  8
YODOROGO
 10
30529.604341291939
 20
1735.7494964292871
 30
0.0
 11
30529.604341291939
 21
1679.749496429288
 31
0.0
  0
LINE
  5
1231B
  8
YODOROGO
 10
30381.604341291932
 20
1735.7494964292871
 30
0.0
 11
30381.604341291932
 21
1795.7494964292871
 31
0.0
  0
LINE
  5
1231C
  8
YODOROGO
 10
30465.604341291921
 20
1735.7494964292871
 30
0.0
 11
30381.604341291932
 21
1735.7494964292871
 31
0.0
  0
LINE
  5
1231D
  8
YODOROGO
 10
30645.604341291921
 20
2027.749496429288
 30
0.0
 11
30973.604341291921
 21
2027.749496429288
 31
0.0
  0
LINE
  5
1231E
  8
YODOROGO
 10
30925.604341291921
 20
1963.749496429286
 30
0.0
 11
30697.604341291932
 21
1963.749496429286
 31
0.0
  0
LINE
  5
1231F
  8
YODOROGO
 10
30873.604341291921
 20
1819.7494964292871
 30
0.0
 11
30899.604341291932
 21
1819.7494964292871
 31
0.0
  0
LINE
  5
12320
  8
YODOROGO
 10
30899.604341291932
 20
1939.749496429288
 30
0.0
 11
30873.604341291921
 21
1819.7494964292871
 31
0.0
  0
LINE
  5
12321
  8
YODOROGO
 10
30851.604341291939
 20
1939.749496429288
 30
0.0
 11
30899.604341291932
 21
1939.749496429288
 31
0.0
  0
LINE
  5
12322
  8
YODOROGO
 10
30825.604341291921
 20
1819.7494964292871
 30
0.0
 11
30851.604341291939
 21
1939.749496429288
 31
0.0
  0
LINE
  5
12323
  8
YODOROGO
 10
30797.604341291921
 20
1819.7494964292871
 30
0.0
 11
30825.604341291921
 21
1819.7494964292871
 31
0.0
  0
LINE
  5
12324
  8
YODOROGO
 10
30771.604341291939
 20
1939.749496429288
 30
0.0
 11
30797.604341291921
 21
1819.7494964292871
 31
0.0
  0
LINE
  5
12325
  8
YODOROGO
 10
30723.604341291921
 20
1939.749496429288
 30
0.0
 11
30771.604341291939
 21
1939.749496429288
 31
0.0
  0
LINE
  5
12326
  8
YODOROGO
 10
30749.604341291921
 20
1819.7494964292871
 30
0.0
 11
30723.604341291921
 21
1939.749496429288
 31
0.0
  0
LINE
  5
12327
  8
YODOROGO
 10
30723.604341291921
 20
1819.7494964292871
 30
0.0
 11
30749.604341291921
 21
1819.7494964292871
 31
0.0
  0
LINE
  5
12328
  8
YODOROGO
 10
30723.604341291921
 20
1755.7494964292871
 30
0.0
 11
30723.604341291921
 21
1819.7494964292871
 31
0.0
  0
LINE
  5
12329
  8
YODOROGO
 10
30899.604341291932
 20
1755.7494964292871
 30
0.0
 11
30723.604341291921
 21
1755.7494964292871
 31
0.0
  0
LINE
  5
1232A
  8
YODOROGO
 10
30899.604341291932
 20
1819.7494964292871
 30
0.0
 11
30899.604341291932
 21
1755.7494964292871
 31
0.0
  0
LINE
  5
1232B
  8
YODOROGO
 10
30617.604341291921
 20
1947.749496429288
 30
0.0
 11
30617.604341291921
 21
1859.749496429288
 31
0.0
  0
LINE
  5
1232C
  8
YODOROGO
 10
30791.604341291921
 20
1755.7494964292871
 30
0.0
 11
30831.604341291921
 21
1755.7494964292871
 31
0.0
  0
LINE
  5
1232D
  8
YODOROGO
 10
30723.604341291921
 20
1691.749496429288
 30
0.0
 11
30763.604341291921
 21
1691.749496429288
 31
0.0
  0
LINE
  5
1232E
  8
YODOROGO
 10
30859.604341291932
 20
1691.749496429288
 30
0.0
 11
30899.604341291932
 21
1691.749496429288
 31
0.0
  0
LINE
  5
1232F
  8
YODOROGO
 10
30617.604341291921
 20
1795.7494964292871
 30
0.0
 11
30617.604341291921
 21
1735.7494964292871
 31
0.0
  0
LINE
  5
12330
  8
YODOROGO
 10
31165.604341291921
 20
2027.749496429288
 30
0.0
 11
31165.604341291921
 21
1963.749496429286
 31
0.0
  0
LINE
  5
12331
  8
YODOROGO
 10
31533.604341291921
 20
1595.7494964292871
 30
0.0
 11
31533.60434129191
 21
1811.749496429288
 31
0.0
  0
LINE
  5
12332
  8
YODOROGO
 10
31461.60434129191
 20
1987.7494964292871
 30
0.0
 11
31461.60434129191
 21
1635.7494964292871
 31
0.0
  0
LINE
  5
12333
  8
YODOROGO
 10
31653.604341291921
 20
1427.749496429288
 30
0.0
 11
31653.60434129191
 21
1811.749496429288
 31
0.0
  0
LINE
  5
12334
  8
YODOROGO
 10
31589.604341291921
 20
1811.749496429288
 30
0.0
 11
31589.604341291921
 21
1427.749496429288
 31
0.0
  0
LINE
  5
12335
  8
YODOROGO
 10
31237.604341291921
 20
1595.7494964292871
 30
0.0
 11
31237.604341291921
 21
1707.749496429288
 31
0.0
  0
ARC
  5
12336
  8
YODOROGO
 10
31353.914865116069
 20
1607.790351288558
 30
0.0
 40
180.0924485759885
 50
268.62849102169793
 51
356.16638457330322
  0
LINE
  5
12337
  8
YODOROGO
 10
31349.604341291939
 20
1527.749496429288
 30
0.0
 11
31349.604341291939
 21
1427.749496429288
 31
0.0
  0
ARC
  5
12338
  8
YODOROGO
 10
31351.518075724562
 20
1637.838957017655
 30
0.0
 40
110.1060929836122
 50
269.00410209305932
 51
358.91264455492478
  0
LINE
  5
12339
  8
YODOROGO
 10
31589.604341291921
 20
1427.749496429288
 30
0.0
 11
31653.604341291921
 21
1427.749496429288
 31
0.0
  0
LINE
  5
1233A
  8
YODOROGO
 10
31533.60434129191
 20
1811.749496429288
 30
0.0
 11
31589.604341291921
 21
1811.749496429288
 31
0.0
  0
LINE
  5
1233B
  8
YODOROGO
 10
31621.604341291939
 20
1987.7494964292871
 30
0.0
 11
31461.60434129191
 21
1987.7494964292871
 31
0.0
  0
LINE
  5
1233C
  8
YODOROGO
 10
31533.60434129191
 20
1915.7494964292871
 30
0.0
 11
31661.604341291939
 21
1915.7494964292871
 31
0.0
  0
LINE
  5
1233D
  8
YODOROGO
 10
31701.604341291939
 20
1875.7494964292871
 30
0.0
 11
31533.60434129191
 21
1875.7494964292871
 31
0.0
  0
LINE
  5
1233E
  8
YODOROGO
 10
31237.604341291921
 20
1779.749496429288
 30
0.0
 11
31349.604341291939
 21
1779.749496429288
 31
0.0
  0
LINE
  5
1233F
  8
YODOROGO
 10
31237.604341291921
 20
1835.7494964292871
 30
0.0
 11
31237.604341291921
 21
1779.749496429288
 31
0.0
  0
LINE
  5
12340
  8
YODOROGO
 10
31349.604341291939
 20
1835.7494964292871
 30
0.0
 11
31237.604341291921
 21
1835.7494964292871
 31
0.0
  0
LINE
  5
12341
  8
YODOROGO
 10
31349.604341291939
 20
1779.749496429288
 30
0.0
 11
31349.604341291939
 21
1835.7494964292871
 31
0.0
  0
LINE
  5
12342
  8
YODOROGO
 10
31533.60434129191
 20
1875.7494964292871
 30
0.0
 11
31533.60434129191
 21
1915.7494964292871
 31
0.0
  0
LINE
  5
12343
  8
YODOROGO
 10
31413.604341291921
 20
1707.749496429288
 30
0.0
 11
31413.604341291921
 21
1907.7494964292871
 31
0.0
  0
LINE
  5
12344
  8
YODOROGO
 10
31237.604341291921
 20
1707.749496429288
 30
0.0
 11
31413.604341291921
 21
1707.749496429288
 31
0.0
  0
LINE
  5
12345
  8
YODOROGO
 10
31413.604341291921
 20
1963.749496429286
 30
0.0
 11
31413.604341291921
 21
2027.749496429288
 31
0.0
  0
ARC
  5
12346
  8
YODOROGO
 10
31621.604341291939
 20
2003.749496429285
 30
0.0
 40
15.999999999994539
 50
270.0
 51
0.0000000000081422
  0
LINE
  5
12347
  8
YODOROGO
 10
31637.604341291921
 20
2027.749496429288
 30
0.0
 11
31637.604341291921
 21
2003.7494964292871
 31
0.0
  0
LINE
  5
12348
  8
YODOROGO
 10
31701.604341291939
 20
2027.749496429288
 30
0.0
 11
31637.604341291921
 21
2027.749496429288
 31
0.0
  0
LINE
  5
12349
  8
YODOROGO
 10
31701.604341291939
 20
1955.7494964292871
 30
0.0
 11
31701.604341291939
 21
2027.749496429288
 31
0.0
  0
ARC
  5
1234A
  8
YODOROGO
 10
31661.604341291939
 20
1955.7494964292871
 30
0.0
 40
40.0
 50
270.0
 51
0.0
  0
LINE
  5
1234B
  8
YODOROGO
 10
31701.604341291939
 20
1811.749496429288
 30
0.0
 11
31701.604341291939
 21
1875.7494964292871
 31
0.0
  0
LINE
  5
1234C
  8
YODOROGO
 10
31653.60434129191
 20
1811.749496429288
 30
0.0
 11
31701.604341291939
 21
1811.749496429288
 31
0.0
  0
LINE
  5
1234D
  8
0-6
  6
CONTINUOUS
 62
     6
 10
12194.318370503101
 20
13701.127297048441
 30
0.0
 11
12056.740036757779
 21
13787.05271559655
 31
0.0
  0
LINE
  5
1234E
  8
0-6
  6
CONTINUOUS
 62
     6
 10
12056.740036757779
 20
13787.05271559655
 30
0.0
 11
12159.014568570999
 21
13661.150280566389
 31
0.0
  0
LINE
  5
1234F
  8
0-6
  6
CONTINUOUS
 62
     6
 10
12159.014568570999
 20
13661.150280566389
 30
0.0
 11
12194.318370503101
 21
13701.127297048441
 31
0.0
  0
LINE
  5
12350
  8
0-6
  6
CONTINUOUS
 62
     6
 10
11431.10675221748
 20
19128.76828863292
 30
0.0
 11
11369.90963551447
 21
19278.987755999991
 31
0.0
  0
LINE
  5
12351
  8
0-6
  6
CONTINUOUS
 62
     6
 10
11369.90963551447
 20
19278.987755999991
 30
0.0
 11
11476.52013993676
 21
19156.735134960742
 31
0.0
  0
LINE
  5
12352
  8
0-6
  6
CONTINUOUS
 62
     6
 10
11476.52013993676
 20
19156.735134960742
 30
0.0
 11
11431.10675221748
 21
19128.76828863292
 31
0.0
  0
LINE
  5
12353
  8
0-6
  6
CONTINUOUS
 62
     6
 10
11431.10675221748
 20
18014.266388632921
 30
0.0
 11
11369.90963551447
 21
18164.485855999999
 31
0.0
  0
LINE
  5
12354
  8
0-6
  6
CONTINUOUS
 62
     6
 10
11369.90963551447
 20
18164.485855999999
 30
0.0
 11
11476.52013993676
 21
18042.23323496076
 31
0.0
  0
LINE
  5
12355
  8
0-6
  6
CONTINUOUS
 62
     6
 10
11476.52013993676
 20
18042.23323496076
 30
0.0
 11
11431.10675221748
 21
18014.266388632921
 31
0.0
  0
LINE
  5
12356
  8
0-6
  6
CONTINUOUS
 62
     6
 10
11431.10675221748
 20
15096.26638863295
 30
0.0
 11
11369.90963551447
 21
15246.485856000019
 31
0.0
  0
LINE
  5
12357
  8
0-6
  6
CONTINUOUS
 62
     6
 10
11369.90963551447
 20
15246.485856000019
 30
0.0
 11
11476.52013993676
 21
15124.23323496078
 31
0.0
  0
LINE
  5
12358
  8
0-6
  6
CONTINUOUS
 62
     6
 10
11476.52013993676
 20
15124.23323496078
 30
0.0
 11
11431.10675221748
 21
15096.26638863295
 31
0.0
  0
LINE
  5
12359
  8
0-6
  6
CONTINUOUS
 62
     6
 10
11431.10675221748
 20
16555.266389632921
 30
0.0
 11
11369.90963551447
 21
16705.485856999989
 31
0.0
  0
LINE
  5
1235A
  8
0-6
  6
CONTINUOUS
 62
     6
 10
11369.90963551447
 20
16705.485856999989
 30
0.0
 11
11476.52013993676
 21
16583.23323596075
 31
0.0
  0
LINE
  5
1235B
  8
0-6
  6
CONTINUOUS
 62
     6
 10
11476.52013993676
 20
16583.23323596075
 30
0.0
 11
11431.10675221748
 21
16555.266389632921
 31
0.0
  0
LINE
  5
1235C
  8
SUNPOU
  6
CONTINUOUS
 62
     4
 10
6257.1434624765943
 20
15291.48625200001
 30
0.0
 11
5546.4418544765967
 21
15291.48625200001
 31
0.0
  0
LINE
  5
1235D
  8
SUNPOU
  6
CONTINUOUS
 62
     4
 10
6313.4419604765953
 20
13832.48625200001
 30
0.0
 11
5546.4418544765958
 21
13832.48625200001
 31
0.0
  0
LINE
  5
1235E
  8
SUNPOU
  6
CONTINUOUS
 62
     4
 10
5626.441854476594
 20
15291.48625200001
 30
0.0
 11
5626.441854476594
 21
13832.48625200001
 31
0.0
  0
LINE
  5
1235F
  8
SUNPOU
  6
CONTINUOUS
 62
     4
 10
6333.8629066003623
 20
16750.486251999999
 30
0.0
 11
5546.441854476594
 21
16750.486251999999
 31
0.0
  0
LINE
  5
12360
  8
SUNPOU
  6
CONTINUOUS
 62
     4
 10
6257.1434624765943
 20
15291.48625200001
 30
0.0
 11
5546.441854476594
 21
15291.48625200001
 31
0.0
  0
LINE
  5
12361
  8
SUNPOU
  6
CONTINUOUS
 62
     4
 10
5626.441854476594
 20
16750.486251999999
 30
0.0
 11
5626.441854476594
 21
15291.48625200001
 31
0.0
  0
LINE
  5
12362
  8
SUNPOU
  6
CONTINUOUS
 62
     4
 10
6257.1434624765943
 20
18209.48625200001
 30
0.0
 11
5546.441854476594
 21
18209.48625200001
 31
0.0
  0
LINE
  5
12363
  8
SUNPOU
  6
CONTINUOUS
 62
     4
 10
6333.8629066003623
 20
16750.486251999999
 30
0.0
 11
5546.441854476594
 21
16750.486251999999
 31
0.0
  0
LINE
  5
12364
  8
SUNPOU
  6
CONTINUOUS
 62
     4
 10
5626.441854476594
 20
18209.48625200001
 30
0.0
 11
5626.441854476594
 21
16750.486251999999
 31
0.0
  0
LINE
  5
12365
  8
SUNPOU
  6
CONTINUOUS
 62
     4
 10
6393.4413064765822
 20
13639.986252000001
 30
0.0
 11
5546.4415304765926
 21
13639.986252000001
 31
0.0
  0
LINE
  5
12366
  8
SUNPOU
  6
CONTINUOUS
 62
     4
 10
5626.4415304765944
 20
13832.48552600002
 30
0.0
 11
5626.4415304765944
 21
13639.986252000001
 31
0.0
  0
LINE
  5
12367
  8
SUNPOU
  6
CONTINUOUS
 62
     4
 10
6257.1434624765943
 20
18209.48625200001
 30
0.0
 11
5546.4415304765917
 21
18209.48625200001
 31
0.0
  0
LINE
  5
12368
  8
SUNPOU
  6
CONTINUOUS
 62
     4
 10
5626.4415304765944
 20
19317.986251999992
 30
0.0
 11
5626.4415304765917
 21
18209.48625200001
 31
0.0
  0
LINE
  5
12369
  8
SUNPOU
  6
CONTINUOUS
 62
     4
 10
5546.4415304765917
 20
19317.986251999992
 30
0.0
 11
5586.4415304765917
 21
19317.986251999992
 31
0.0
  0
LINE
  5
1236A
  8
SUNPOU
  6
CONTINUOUS
 62
     4
 10
6398.4405804765784
 20
19540.486120000001
 30
0.0
 11
5586.4415304765917
 21
19540.486120000001
 31
0.0
  0
LINE
  5
1236B
  8
SUNPOU
  6
CONTINUOUS
 62
     4
 10
5626.4415304765917
 20
19317.986251999992
 30
0.0
 11
5626.4415304765917
 21
19540.486120000001
 31
0.0
  0
LINE
  5
1236C
  8
SUNPOU
  6
CONTINUOUS
 62
     4
 10
6411.4404034765721
 20
19500.485987999989
 30
0.0
 11
5946.4408714765923
 21
19500.485987999989
 31
0.0
  0
LINE
  5
1236D
  8
SUNPOU
  6
CONTINUOUS
 62
     4
 10
6398.4405804765784
 20
19540.486120000001
 30
0.0
 11
5946.4408714765923
 21
19540.486120000001
 31
0.0
  0
LINE
  5
1236E
  8
SUNPOU
  6
CONTINUOUS
 62
     4
 10
6026.4408714765914
 20
19500.485987999989
 30
0.0
 11
6026.4408714765914
 21
19260.485987999989
 31
0.0
  0
LINE
  5
1236F
  8
SUNPOU
  6
CONTINUOUS
 62
     4
 10
6026.4408714765914
 20
19540.486120000001
 30
0.0
 11
6026.4408714765914
 21
19780.486120000001
 31
0.0
  0
LINE
  5
12370
  8
SUNPOU
  6
CONTINUOUS
 62
     4
 10
6026.4408714765914
 20
19500.485987999989
 30
0.0
 11
6026.4408714765914
 21
19540.486120000001
 31
0.0
  0
LINE
  5
12371
  8
SUNPOU
  6
CONTINUOUS
 62
     4
 10
12273.94163047658
 20
20165.488164999992
 30
0.0
 11
12273.94163047658
 21
20240.487175999991
 31
0.0
  0
LINE
  5
12372
  8
SUNPOU
  6
CONTINUOUS
 62
     4
 10
12359.44163047658
 20
19615.487834999982
 30
0.0
 11
12359.44163047658
 21
20240.487175999991
 31
0.0
  0
LINE
  5
12373
  8
SUNPOU
  6
CONTINUOUS
 62
     4
 10
12273.94163047658
 20
20160.487175999991
 30
0.0
 11
12033.94163047658
 21
20160.487175999991
 31
0.0
  0
LINE
  5
12374
  8
SUNPOU
  6
CONTINUOUS
 62
     4
 10
12356.44163047658
 20
20160.487175999991
 30
0.0
 11
12596.44163047658
 21
20160.487175999991
 31
0.0
  0
LINE
  5
12375
  8
SUNPOU
  6
CONTINUOUS
 62
     4
 10
12273.94163047658
 20
20160.487175999991
 30
0.0
 11
12356.44163047658
 21
20160.487175999991
 31
0.0
  0
LINE
  5
12376
  8
SUNPOU
  6
CONTINUOUS
 62
     4
 10
9473.9416304765837
 20
20165.488164999992
 30
0.0
 11
9473.9416304765837
 21
20240.487175999991
 31
0.0
  0
LINE
  5
12377
  8
SUNPOU
  6
CONTINUOUS
 62
     4
 10
12273.94163047658
 20
20165.488164999992
 30
0.0
 11
12273.94163047658
 21
20240.487175999991
 31
0.0
  0
LINE
  5
12378
  8
SUNPOU
  6
CONTINUOUS
 62
     4
 10
9473.9416304765837
 20
20160.487175999991
 30
0.0
 11
12273.94163047658
 21
20160.487175999991
 31
0.0
  0
LINE
  5
12379
  8
SUNPOU
  6
CONTINUOUS
 62
     4
 10
6555.9416304765828
 20
19690.487834999989
 30
0.0
 11
6555.9416304765828
 21
20240.487175999991
 31
0.0
  0
LINE
  5
1237A
  8
SUNPOU
  6
CONTINUOUS
 62
     4
 10
9473.9416304765837
 20
20165.488164999992
 30
0.0
 11
9473.9416304765837
 21
20240.487175999991
 31
0.0
  0
LINE
  5
1237B
  8
SUNPOU
  6
CONTINUOUS
 62
     4
 10
6555.9416304765828
 20
20160.487175999991
 30
0.0
 11
9473.9416304765837
 21
20160.487175999991
 31
0.0
  0
LINE
  5
1237C
  8
SUNPOU
  6
CONTINUOUS
 62
     4
 10
6555.9416304765828
 20
19690.487834999989
 30
0.0
 11
6555.9416304765828
 21
20240.487175999991
 31
0.0
  0
LINE
  5
1237D
  8
SUNPOU
  6
CONTINUOUS
 62
     4
 10
6470.4416304765837
 20
19610.487571999998
 30
0.0
 11
6470.4416304765837
 21
20240.487175999991
 31
0.0
  0
LINE
  5
1237E
  8
SUNPOU
  6
CONTINUOUS
 62
     4
 10
6555.9416304765828
 20
20160.487175999991
 30
0.0
 11
6795.9416304765818
 21
20160.487175999991
 31
0.0
  0
LINE
  5
1237F
  8
SUNPOU
  6
CONTINUOUS
 62
     4
 10
6473.4416304765837
 20
20160.487175999991
 30
0.0
 11
6233.4416304765828
 21
20160.487175999991
 31
0.0
  0
LINE
  5
12380
  8
SUNPOU
  6
CONTINUOUS
 62
     4
 10
6555.9416304765828
 20
20160.487175999991
 30
0.0
 11
6473.4416304765837
 21
20160.487175999991
 31
0.0
  0
LINE
  5
12381
  8
SUNPOU
  6
CONTINUOUS
 62
     4
 10
6470.4416304765837
 20
13559.98625200001
 30
0.0
 11
6470.4416304765837
 21
12269.98546
 31
0.0
  0
LINE
  5
12382
  8
SUNPOU
  6
CONTINUOUS
 62
     4
 10
12359.44163047658
 20
13559.986252000001
 30
0.0
 11
12359.44163047658
 21
12269.98546
 31
0.0
  0
LINE
  5
12383
  8
SUNPOU
  6
CONTINUOUS
 62
     4
 10
6473.4416304765837
 20
12349.98546
 30
0.0
 11
12356.44163047658
 21
12349.98546
 31
0.0
  0
LINE
  5
12384
  8
0-6
  6
CONTINUOUS
 62
     6
 10
25376.139107882089
 20
19102.38947925335
 30
0.0
 11
25482.46713183005
 21
19224.885710999992
 31
0.0
  0
LINE
  5
12385
  8
0-6
  6
CONTINUOUS
 62
     6
 10
25482.46713183005
 20
19224.885710999992
 30
0.0
 11
25421.615012236802
 21
19074.524404324551
 31
0.0
  0
LINE
  5
12386
  8
0-6
  6
CONTINUOUS
 62
     6
 10
25421.615012236802
 20
19074.524404324551
 30
0.0
 11
25376.139107882089
 21
19102.38947925335
 31
0.0
  0
LINE
  5
12387
  8
0-6
  6
CONTINUOUS
 62
     6
 10
25404.32345338806
 20
19518.2030359327
 30
0.0
 11
25473.36713183004
 21
19371.424475045871
 31
0.0
  0
LINE
  5
12388
  8
0-6
  6
CONTINUOUS
 62
     6
 10
25473.36713183004
 20
19371.424475045871
 30
0.0
 11
25360.450131650901
 21
19487.877272670848
 31
0.0
  0
LINE
  5
12389
  8
0-6
  6
CONTINUOUS
 62
     6
 10
25360.450131650901
 20
19487.877272670848
 30
0.0
 11
25404.32345338806
 21
19518.2030359327
 31
0.0
  0
LINE
  5
1238A
  8
0-6
  6
CONTINUOUS
 62
     6
 10
25376.139107882089
 20
16935.082047746651
 30
0.0
 11
25482.46713183005
 21
16812.585815999992
 31
0.0
  0
LINE
  5
1238B
  8
0-6
  6
CONTINUOUS
 62
     6
 10
25482.46713183005
 20
16812.585815999992
 30
0.0
 11
25421.615012236802
 21
16962.947122675439
 31
0.0
  0
LINE
  5
1238C
  8
0-6
  6
CONTINUOUS
 62
     6
 10
25421.615012236802
 20
16962.947122675439
 30
0.0
 11
25376.139107882089
 21
16935.082047746651
 31
0.0
  0
LINE
  5
1238D
  8
0-6
  6
CONTINUOUS
 62
     6
 10
25376.139107882089
 20
14027.58248374665
 30
0.0
 11
25482.46713183005
 21
13905.086251999999
 31
0.0
  0
LINE
  5
1238E
  8
0-6
  6
CONTINUOUS
 62
     6
 10
25482.46713183005
 20
13905.086251999999
 30
0.0
 11
25421.615012236802
 21
14055.447558675451
 31
0.0
  0
LINE
  5
1238F
  8
0-6
  6
CONTINUOUS
 62
     6
 10
25421.615012236802
 20
14055.447558675451
 30
0.0
 11
25376.139107882089
 21
14027.58248374665
 31
0.0
  0
LINE
  5
12390
  8
0-6
  6
CONTINUOUS
 62
     6
 10
25404.32345338806
 20
16519.268491067302
 30
0.0
 11
25473.36713183004
 21
16666.047051954109
 31
0.0
  0
LINE
  5
12391
  8
0-6
  6
CONTINUOUS
 62
     6
 10
25473.36713183004
 20
16666.047051954109
 30
0.0
 11
25360.450131650901
 21
16549.594254329138
 31
0.0
  0
LINE
  5
12392
  8
0-6
  6
CONTINUOUS
 62
     6
 10
25360.450131650901
 20
16549.594254329138
 30
0.0
 11
25404.32345338806
 21
16519.268491067302
 31
0.0
  0
LINE
  5
12393
  8
0-6
  6
CONTINUOUS
 62
     6
 10
25404.32345338806
 20
13631.707691113181
 30
0.0
 11
25473.36713183004
 21
13778.486252000001
 31
0.0
  0
LINE
  5
12394
  8
0-6
  6
CONTINUOUS
 62
     6
 10
25473.36713183004
 20
13778.486252000001
 30
0.0
 11
25360.450131650901
 21
13662.03345437501
 31
0.0
  0
LINE
  5
12395
  8
0-6
  6
CONTINUOUS
 62
     6
 10
25360.450131650901
 20
13662.03345437501
 30
0.0
 11
25404.32345338806
 21
13631.707691113181
 31
0.0
  0
LINE
  5
123BA
  8
SUNPOU
  6
CONTINUOUS
 62
     4
 10
22712.511953585152
 20
19440.48625200001
 30
0.0
 11
22712.511953585152
 21
20240.487175999991
 31
0.0
  0
LINE
  5
123BB
  8
SUNPOU
  6
CONTINUOUS
 62
     4
 10
22755.011953585141
 20
19440.48625200001
 30
0.0
 11
22755.011953585141
 21
20240.487175999991
 31
0.0
  0
LINE
  5
123BC
  8
SUNPOU
  6
CONTINUOUS
 62
     4
 10
22712.511953585152
 20
20160.487175999991
 30
0.0
 11
22472.511953585152
 21
20160.487175999991
 31
0.0
  0
LINE
  5
123BD
  8
SUNPOU
  6
CONTINUOUS
 62
     4
 10
22755.011953585141
 20
20160.487175999991
 30
0.0
 11
22995.011953585141
 21
20160.487175999991
 31
0.0
  0
LINE
  5
123BE
  8
SUNPOU
  6
CONTINUOUS
 62
     4
 10
22712.511953585152
 20
20160.487175999991
 30
0.0
 11
22755.011953585141
 21
20160.487175999991
 31
0.0
  0
LINE
  5
123BF
  8
SUNPOU
  6
CONTINUOUS
 62
     4
 10
21954.511953585141
 20
19440.48625200001
 30
0.0
 11
21954.511953585141
 21
20240.487175999991
 31
0.0
  0
LINE
  5
123C0
  8
SUNPOU
  6
CONTINUOUS
 62
     4
 10
22712.511953585152
 20
19440.48625200001
 30
0.0
 11
22712.511953585152
 21
20240.487175999991
 31
0.0
  0
LINE
  5
123C1
  8
SUNPOU
  6
CONTINUOUS
 62
     4
 10
21954.511953585141
 20
20160.487175999991
 30
0.0
 11
22712.511953585152
 21
20160.487175999991
 31
0.0
  0
LINE
  5
123C2
  8
SUNPOU
  6
CONTINUOUS
 62
     4
 10
21253.511953585141
 20
19440.48625200001
 30
0.0
 11
21253.511953585141
 21
20240.487175999991
 31
0.0
  0
LINE
  5
123C3
  8
SUNPOU
  6
CONTINUOUS
 62
     4
 10
21954.511953585141
 20
19440.48625200001
 30
0.0
 11
21954.511953585141
 21
20240.487175999991
 31
0.0
  0
LINE
  5
123C4
  8
SUNPOU
  6
CONTINUOUS
 62
     4
 10
21253.511953585141
 20
20160.487175999991
 30
0.0
 11
21954.511953585141
 21
20160.487175999991
 31
0.0
  0
LINE
  5
123C5
  8
SUNPOU
  6
CONTINUOUS
 62
     4
 10
20552.51195358513
 20
19440.48625200001
 30
0.0
 11
20552.51195358513
 21
20240.487175999991
 31
0.0
  0
LINE
  5
123C6
  8
SUNPOU
  6
CONTINUOUS
 62
     4
 10
21253.511953585141
 20
19440.48625200001
 30
0.0
 11
21253.511953585141
 21
20240.487175999991
 31
0.0
  0
LINE
  5
123C7
  8
SUNPOU
  6
CONTINUOUS
 62
     4
 10
20552.51195358513
 20
20160.487175999991
 30
0.0
 11
21253.511953585141
 21
20160.487175999991
 31
0.0
  0
LINE
  5
123C8
  8
SUNPOU
  6
CONTINUOUS
 62
     4
 10
19794.511953585141
 20
19520.488759
 30
0.0
 11
19794.511953585141
 21
20240.487175999991
 31
0.0
  0
LINE
  5
123C9
  8
SUNPOU
  6
CONTINUOUS
 62
     4
 10
20552.51195358513
 20
19440.48625200001
 30
0.0
 11
20552.51195358513
 21
20240.487175999991
 31
0.0
  0
LINE
  5
123CA
  8
SUNPOU
  6
CONTINUOUS
 62
     4
 10
19794.511953585141
 20
20160.487175999991
 30
0.0
 11
20552.51195358513
 21
20160.487175999991
 31
0.0
  0
LINE
  5
123CB
  8
SUNPOU
  6
CONTINUOUS
 62
     4
 10
19794.511953585141
 20
19520.488759
 30
0.0
 11
19794.511953585141
 21
20240.487175999991
 31
0.0
  0
LINE
  5
123CC
  8
SUNPOU
  6
CONTINUOUS
 62
     4
 10
19752.011953585141
 20
19440.48625200001
 30
0.0
 11
19752.011953585141
 21
20240.487175999991
 31
0.0
  0
LINE
  5
123CD
  8
SUNPOU
  6
CONTINUOUS
 62
     4
 10
19794.511953585141
 20
20160.487175999991
 30
0.0
 11
20034.511953585141
 21
20160.487175999991
 31
0.0
  0
LINE
  5
123CE
  8
SUNPOU
  6
CONTINUOUS
 62
     4
 10
19752.011953585141
 20
20160.487175999991
 30
0.0
 11
19512.011953585141
 21
20160.487175999991
 31
0.0
  0
LINE
  5
123CF
  8
SUNPOU
  6
CONTINUOUS
 62
     4
 10
19794.511953585141
 20
20160.487175999991
 30
0.0
 11
19752.011953585141
 21
20160.487175999991
 31
0.0
  0
LINE
  5
123DD
  8
SUNPOU
  6
CONTINUOUS
 62
     4
 10
22712.511953585152
 20
20560.487175999991
 30
0.0
 11
25512.511953585141
 21
20560.487175999991
 31
0.0
  0
LINE
  5
123DE
  8
SUNPOU
  6
CONTINUOUS
 62
     4
 10
19794.511953585141
 20
20560.487175999991
 30
0.0
 11
22712.511953585152
 21
20560.487175999991
 31
0.0
  0
LINE
  5
123DF
  8
SUNPOU
  6
CONTINUOUS
 62
     4
 10
25512.511953585141
 20
19684.93602587733
 30
0.0
 11
25512.511953585141
 21
20240.487175999991
 31
0.0
  0
LINE
  5
123E0
  8
SUNPOU
  6
CONTINUOUS
 62
     4
 10
25470.009710585138
 20
19523.83651600001
 30
0.0
 11
25470.009710585138
 21
20240.487175999991
 31
0.0
  0
LINE
  5
123E1
  8
SUNPOU
  6
CONTINUOUS
 62
     4
 10
25512.511953585141
 20
20160.487175999991
 30
0.0
 11
25752.51195358513
 21
20160.487175999991
 31
0.0
  0
LINE
  5
123E2
  8
SUNPOU
  6
CONTINUOUS
 62
     4
 10
25470.009710585138
 20
20160.487175999991
 30
0.0
 11
25230.009710585138
 21
20160.487175999991
 31
0.0
  0
LINE
  5
123E3
  8
SUNPOU
  6
CONTINUOUS
 62
     4
 10
25512.511953585141
 20
20160.487175999991
 30
0.0
 11
25470.009710585138
 21
20160.487175999991
 31
0.0
  0
LINE
  5
123E4
  8
SUNPOU
  6
CONTINUOUS
 62
     4
 10
25512.511953585141
 20
19684.93602587733
 30
0.0
 11
25512.511953585141
 21
20240.487175999991
 31
0.0
  0
LINE
  5
123E5
  8
SUNPOU
  6
CONTINUOUS
 62
     4
 10
25555.010238585121
 20
19520.488759
 30
0.0
 11
25555.010238585121
 21
20240.487175999991
 31
0.0
  0
LINE
  5
123E6
  8
SUNPOU
  6
CONTINUOUS
 62
     4
 10
25512.511953585141
 20
20160.487175999991
 30
0.0
 11
25272.511953585141
 21
20160.487175999991
 31
0.0
  0
LINE
  5
123E7
  8
SUNPOU
  6
CONTINUOUS
 62
     4
 10
25555.010238585121
 20
20160.487175999991
 30
0.0
 11
25795.010238585121
 21
20160.487175999991
 31
0.0
  0
LINE
  5
123E8
  8
SUNPOU
  6
CONTINUOUS
 62
     4
 10
25512.511953585141
 20
20160.487175999991
 30
0.0
 11
25555.010238585121
 21
20160.487175999991
 31
0.0
  0
LINE
  5
123E9
  8
SUNPOU
  6
CONTINUOUS
 62
     4
 10
25897.116789537082
 20
16750.486251999992
 30
0.0
 11
26810.355577953771
 21
16750.486251999992
 31
0.0
  0
LINE
  5
123EA
  8
SUNPOU
  6
CONTINUOUS
 62
     4
 10
25897.116789537082
 20
19317.986251999992
 30
0.0
 11
26810.355577953771
 21
19317.986251999992
 31
0.0
  0
LINE
  5
123EB
  8
SUNPOU
  6
CONTINUOUS
 62
     4
 10
26730.355577953771
 20
16750.486251999992
 30
0.0
 11
26730.355577953771
 21
19317.986251999992
 31
0.0
  0
LINE
  5
123EC
  8
SUNPOU
  6
CONTINUOUS
 62
     4
 10
25897.116789537082
 20
13832.48625200001
 30
0.0
 11
26810.355577953771
 21
13832.48625200001
 31
0.0
  0
LINE
  5
123ED
  8
SUNPOU
  6
CONTINUOUS
 62
     4
 10
25897.116789537082
 20
16750.486251999992
 30
0.0
 11
26810.355577953771
 21
16750.486251999992
 31
0.0
  0
LINE
  5
123EE
  8
SUNPOU
  6
CONTINUOUS
 62
     4
 10
26730.355577953771
 20
13832.48625200001
 30
0.0
 11
26730.355577953771
 21
16750.486251999992
 31
0.0
  0
ARC
  5
12406
  8
1-前柱P
 10
25522.111953585129
 20
13900.886252
 30
0.0
 40
1.0
 50
90.0
 51
180.0
  0
LINE
  5
12407
  8
1-前柱P
 10
25521.111953585129
 20
13900.886252
 30
0.0
 11
25521.111953585129
 21
13899.286252
 31
0.0
  0
LINE
  5
12408
  8
1-前柱P
 10
25521.111953585129
 20
13899.286252
 30
0.0
 11
25509.911953585139
 21
13899.286252
 31
0.0
  0
LINE
  5
12409
  8
1-前柱P
 10
25509.911953585139
 20
13899.286252
 30
0.0
 11
25509.911953585131
 21
13900.886252
 31
0.0
  0
ARC
  5
1240A
  8
1-前柱P
 10
25508.911953585131
 20
13900.886252
 30
0.0
 40
1.0
 50
0.0
 51
90.0
  0
ARC
  5
1240B
  8
1-中柱P
 10
25505.911953585131
 20
16818.786252000002
 30
0.0
 40
1.0
 50
0.0
 51
90.0
  0
LINE
  5
1240C
  8
1-中柱P
 10
25506.911953585121
 20
16818.786252000002
 30
0.0
 11
25506.911953585121
 21
16817.18625200001
 31
0.0
  0
LINE
  5
1240D
  8
1-中柱P
 10
25506.911953585121
 20
16817.18625200001
 30
0.0
 11
25518.111953585129
 21
16817.18625200001
 31
0.0
  0
LINE
  5
1240E
  8
1-中柱P
 10
25518.111953585129
 20
16817.18625200001
 30
0.0
 11
25518.111953585129
 21
16818.786252000002
 31
0.0
  0
ARC
  5
1240F
  8
1-中柱P
 10
25519.111953585129
 20
16818.786252000002
 30
0.0
 40
1.0
 50
90.0
 51
180.0
  0
ARC
  5
12410
  8
1-後柱P
 10
25502.91195358515
 20
19249.936251999989
 30
0.0
 40
1.0
 50
270.0
 51
0.0
  0
LINE
  5
12411
  8
1-後柱P
 10
25503.911953585139
 20
19249.936251999989
 30
0.0
 11
25503.911953585139
 21
19251.536252000002
 31
0.0
  0
LINE
  5
12412
  8
1-後柱P
 10
25503.911953585139
 20
19251.536252000002
 30
0.0
 11
25515.11195358515
 21
19251.536252000002
 31
0.0
  0
LINE
  5
12413
  8
1-後柱P
 10
25515.11195358515
 20
19251.536252000002
 30
0.0
 11
25515.11195358515
 21
19249.936251999989
 31
0.0
  0
ARC
  5
12414
  8
1-後柱P
 10
25516.111953585139
 20
19249.936251999989
 30
0.0
 40
1.0
 50
180.0
 51
270.0
  0
LINE
  5
12415
  8
SUNPOU
  6
CONTINUOUS
 62
     4
 10
6326.233570470944
 20
8478.188374000003
 30
0.0
 11
6326.233570470944
 21
9869.1883999999955
 31
0.0
  0
LINE
  5
12416
  8
SUNPOU
  6
CONTINUOUS
 62
     4
 10
12226.73357047094
 20
8610.0781974124311
 30
0.0
 11
12226.73357047094
 21
9869.1883999999955
 31
0.0
  0
LINE
  5
12417
  8
SUNPOU
  6
CONTINUOUS
 62
     4
 10
6326.233570470944
 20
9789.1883999999955
 30
0.0
 11
12226.73357047094
 21
9789.1883999999955
 31
0.0
  0
LINE
  5
12418
  8
SUNPOU
  6
CONTINUOUS
 62
     4
 10
12076.73357047094
 20
8536.0984379999973
 30
0.0
 11
12076.73357047094
 21
9469.1900500000029
 31
0.0
  0
LINE
  5
12419
  8
SUNPOU
  6
CONTINUOUS
 62
     4
 10
12226.73357047094
 20
8610.0781974124311
 30
0.0
 11
12226.73357047094
 21
9469.1900500000029
 31
0.0
  0
LINE
  5
1241A
  8
SUNPOU
  6
CONTINUOUS
 62
     4
 10
12076.73357047094
 20
9389.1900500000029
 30
0.0
 11
11836.73357047094
 21
9389.1900500000029
 31
0.0
  0
LINE
  5
1241B
  8
SUNPOU
  6
CONTINUOUS
 62
     4
 10
12226.73357047094
 20
9389.1900500000029
 30
0.0
 11
12466.73357047094
 21
9389.1900500000029
 31
0.0
  0
LINE
  5
1241C
  8
SUNPOU
  6
CONTINUOUS
 62
     4
 10
12076.73357047094
 20
9389.1900500000029
 30
0.0
 11
12226.73357047094
 21
9389.1900500000029
 31
0.0
  0
LINE
  5
1241D
  8
SUNPOU
  6
CONTINUOUS
 62
     4
 10
6506.233570470944
 20
8348.3741496838102
 30
0.0
 11
6506.233570470944
 21
9469.1900500000029
 31
0.0
  0
LINE
  5
1241E
  8
SUNPOU
  6
CONTINUOUS
 62
     4
 10
12076.73357047094
 20
8536.0984379999973
 30
0.0
 11
12076.73357047094
 21
9469.1900500000029
 31
0.0
  0
LINE
  5
1241F
  8
SUNPOU
  6
CONTINUOUS
 62
     4
 10
6506.233570470944
 20
9389.1900500000029
 30
0.0
 11
12076.73357047094
 21
9389.1900500000029
 31
0.0
  0
LINE
  5
12420
  8
SUNPOU
  6
CONTINUOUS
 62
     4
 10
6326.233570470944
 20
8478.188374000003
 30
0.0
 11
6326.233570470944
 21
9469.1900500000029
 31
0.0
  0
LINE
  5
12421
  8
SUNPOU
  6
CONTINUOUS
 62
     4
 10
6506.233570470944
 20
8348.3741496838102
 30
0.0
 11
6506.233570470944
 21
9469.1900500000029
 31
0.0
  0
LINE
  5
12422
  8
SUNPOU
  6
CONTINUOUS
 62
     4
 10
6326.233570470944
 20
9389.1900500000029
 30
0.0
 11
6506.233570470944
 21
9389.1900500000029
 31
0.0
  0
LINE
  5
12423
  8
SUNPOU
  6
CONTINUOUS
 62
     4
 10
12169.23357047094
 20
6241.1883740000021
 30
0.0
 11
13246.73396647094
 21
6241.1883740000021
 31
0.0
  0
LINE
  5
12424
  8
SUNPOU
  6
CONTINUOUS
 62
     4
 10
12261.54083007032
 20
8589.688374000003
 30
0.0
 11
13246.73396647094
 21
8589.688374000003
 31
0.0
  0
LINE
  5
12425
  8
SUNPOU
  6
CONTINUOUS
 62
     4
 10
13166.73396647094
 20
6241.1883740000021
 30
0.0
 11
13166.73396647094
 21
8589.688374000003
 31
0.0
  0
LINE
  5
12426
  8
SUNPOU
  6
CONTINUOUS
 62
     4
 10
6418.7335704709449
 20
6241.1883740000021
 30
0.0
 11
5336.2331744709472
 21
6241.1883740000039
 31
0.0
  0
LINE
  5
12427
  8
SUNPOU
  6
CONTINUOUS
 62
     4
 10
6246.233570470944
 20
8397.1883740000048
 30
0.0
 11
5336.2331744709472
 21
8397.1883740000048
 31
0.0
  0
LINE
  5
12428
  8
SUNPOU
  6
CONTINUOUS
 62
     4
 10
5416.2331744709481
 20
6241.1883740000039
 30
0.0
 11
5416.2331744709481
 21
8397.1883740000048
 31
0.0
  0
LINE
  5
12429
  8
SUNPOU
  6
CONTINUOUS
 62
     4
 10
6506.233570470944
 20
6161.1883740000021
 30
0.0
 11
6506.233570470944
 21
4461.1887039999992
 31
0.0
  0
LINE
  5
1242A
  8
SUNPOU
  6
CONTINUOUS
 62
     4
 10
12076.73357047094
 20
6161.1883740000021
 30
0.0
 11
12076.73357047094
 21
4461.1887039999992
 31
0.0
  0
LINE
  5
1242B
  8
SUNPOU
  6
CONTINUOUS
 62
     4
 10
6506.233570470944
 20
4541.1887039999983
 30
0.0
 11
12076.73357047094
 21
4541.1887039999983
 31
0.0
  0
LINE
  5
1242C
  8
SUNPOU
  6
CONTINUOUS
 62
     4
 10
12034.23357047094
 20
5798.5361160000011
 30
0.0
 11
12034.23357047094
 21
4861.1885389999998
 31
0.0
  0
LINE
  5
1242D
  8
SUNPOU
  6
CONTINUOUS
 62
     4
 10
12076.73357047094
 20
6161.1883740000021
 30
0.0
 11
12076.73357047094
 21
4861.1885389999998
 31
0.0
  0
LINE
  5
1242E
  8
SUNPOU
  6
CONTINUOUS
 62
     4
 10
12034.23357047094
 20
4941.1885390000016
 30
0.0
 11
11794.23357047094
 21
4941.1885390000016
 31
0.0
  0
LINE
  5
1242F
  8
SUNPOU
  6
CONTINUOUS
 62
     4
 10
12076.73357047094
 20
4941.1885390000016
 30
0.0
 11
12316.73357047094
 21
4941.1885390000016
 31
0.0
  0
LINE
  5
12430
  8
SUNPOU
  6
CONTINUOUS
 62
     4
 10
12034.23357047094
 20
4941.1885390000016
 30
0.0
 11
12076.73357047094
 21
4941.1885390000016
 31
0.0
  0
LINE
  5
12431
  8
SUNPOU
  6
CONTINUOUS
 62
     4
 10
6548.7335704709431
 20
5798.5361160000011
 30
0.0
 11
6548.7335704709431
 21
4861.1885389999998
 31
0.0
  0
LINE
  5
12432
  8
SUNPOU
  6
CONTINUOUS
 62
     4
 10
6506.233570470944
 20
6161.1883740000021
 30
0.0
 11
6506.233570470944
 21
4861.1885389999998
 31
0.0
  0
LINE
  5
12433
  8
SUNPOU
  6
CONTINUOUS
 62
     4
 10
6548.7335704709431
 20
4941.1885390000016
 30
0.0
 11
6788.733570470944
 21
4941.1885390000016
 31
0.0
  0
LINE
  5
12434
  8
SUNPOU
  6
CONTINUOUS
 62
     4
 10
6506.233570470944
 20
4941.1885390000016
 30
0.0
 11
6266.233570470944
 21
4941.1885390000016
 31
0.0
  0
LINE
  5
12435
  8
SUNPOU
  6
CONTINUOUS
 62
     4
 10
6548.7335704709431
 20
4941.1885390000016
 30
0.0
 11
6506.233570470944
 21
4941.1885390000016
 31
0.0
  0
LINE
  5
12436
  8
SUNPOU
  6
CONTINUOUS
 62
     4
 10
9116.233570470944
 20
5798.5361160000011
 30
0.0
 11
9116.233570470944
 21
4861.1885389999998
 31
0.0
  0
LINE
  5
12437
  8
SUNPOU
  6
CONTINUOUS
 62
     4
 10
6548.7335704709431
 20
5798.5361160000011
 30
0.0
 11
6548.7335704709431
 21
4861.1885389999998
 31
0.0
  0
LINE
  5
12438
  8
SUNPOU
  6
CONTINUOUS
 62
     4
 10
9116.233570470944
 20
4941.1885390000016
 30
0.0
 11
6548.7335704709431
 21
4941.1885390000016
 31
0.0
  0
LINE
  5
12439
  8
SUNPOU
  6
CONTINUOUS
 62
     4
 10
9116.233570470944
 20
5798.5361160000011
 30
0.0
 11
9116.233570470944
 21
4861.1885389999998
 31
0.0
  0
LINE
  5
1243A
  8
SUNPOU
  6
CONTINUOUS
 62
     4
 10
12034.23357047094
 20
5798.5361160000011
 30
0.0
 11
12034.23357047094
 21
4861.1885389999998
 31
0.0
  0
LINE
  5
1243B
  8
SUNPOU
  6
CONTINUOUS
 62
     4
 10
9116.233570470944
 20
4941.1885390000016
 30
0.0
 11
12034.23357047094
 21
4941.1885390000016
 31
0.0
  0
LINE
  5
1243C
  8
SUNPOU
  6
CONTINUOUS
 62
     4
 10
19688.010092585158
 20
8669.6883999999955
 30
0.0
 11
19688.010092585158
 21
9869.1329740000037
 31
0.0
  0
LINE
  5
1243D
  8
SUNPOU
  6
CONTINUOUS
 62
     4
 10
25577.010092585158
 20
8669.6883999999955
 30
0.0
 11
25577.010092585158
 21
9869.1329740000037
 31
0.0
  0
LINE
  5
1243E
  8
SUNPOU
  6
CONTINUOUS
 62
     4
 10
19691.010092585158
 20
9789.1329740000037
 30
0.0
 11
25574.010092585158
 21
9789.1329740000037
 31
0.0
  0
LINE
  5
1243F
  8
SUNPOU
  6
CONTINUOUS
 62
     4
 10
25534.010092585158
 20
8669.6883999999955
 30
0.0
 11
25534.010092585158
 21
9469.1900500000029
 31
0.0
  0
LINE
  5
12440
  8
SUNPOU
  6
CONTINUOUS
 62
     4
 10
25577.010092585158
 20
8669.6883999999955
 30
0.0
 11
25577.010092585158
 21
9469.1900500000029
 31
0.0
  0
LINE
  5
12441
  8
SUNPOU
  6
CONTINUOUS
 62
     4
 10
25534.010092585158
 20
9389.1900500000029
 30
0.0
 11
25294.010092585158
 21
9389.1900500000029
 31
0.0
  0
LINE
  5
12442
  8
SUNPOU
  6
CONTINUOUS
 62
     4
 10
25574.010092585158
 20
9389.1900500000029
 30
0.0
 11
25814.010092585158
 21
9389.1900500000029
 31
0.0
  0
LINE
  5
12443
  8
SUNPOU
  6
CONTINUOUS
 62
     4
 10
25534.010092585158
 20
9389.1900500000029
 30
0.0
 11
25574.010092585158
 21
9389.1900500000029
 31
0.0
  0
LINE
  5
12444
  8
SUNPOU
  6
CONTINUOUS
 62
     4
 10
19731.010092585158
 20
8539.6884659999996
 30
0.0
 11
19731.010092585158
 21
9469.1900500000029
 31
0.0
  0
LINE
  5
12445
  8
SUNPOU
  6
CONTINUOUS
 62
     4
 10
19688.010092585158
 20
8669.6883999999955
 30
0.0
 11
19688.010092585158
 21
9469.1900500000029
 31
0.0
  0
LINE
  5
12446
  8
SUNPOU
  6
CONTINUOUS
 62
     4
 10
19731.010092585158
 20
9389.1900500000029
 30
0.0
 11
19971.010092585158
 21
9389.1900500000029
 31
0.0
  0
LINE
  5
12447
  8
SUNPOU
  6
CONTINUOUS
 62
     4
 10
19691.010092585158
 20
9389.1900500000029
 30
0.0
 11
19451.010092585158
 21
9389.1900500000029
 31
0.0
  0
LINE
  5
12448
  8
SUNPOU
  6
CONTINUOUS
 62
     4
 10
19731.010092585158
 20
9389.1900500000029
 30
0.0
 11
19691.010092585158
 21
9389.1900500000029
 31
0.0
  0
LINE
  5
12449
  8
SUNPOU
  6
CONTINUOUS
 62
     4
 10
22734.010092585158
 20
8539.6884659999996
 30
0.0
 11
22734.010092585158
 21
9469.1900500000029
 31
0.0
  0
LINE
  5
1244A
  8
SUNPOU
  6
CONTINUOUS
 62
     4
 10
19731.010092585158
 20
8539.6884659999996
 30
0.0
 11
19731.010092585158
 21
9469.1900500000029
 31
0.0
  0
LINE
  5
1244B
  8
SUNPOU
  6
CONTINUOUS
 62
     4
 10
22734.010092585158
 20
9389.1900500000029
 30
0.0
 11
19731.010092585158
 21
9389.1900500000029
 31
0.0
  0
LINE
  5
1244C
  8
SUNPOU
  6
CONTINUOUS
 62
     4
 10
19643.50745358516
 20
6241.1883740000021
 30
0.0
 11
18443.50745358516
 21
6241.1883740000021
 31
0.0
  0
LINE
  5
1244D
  8
SUNPOU
  6
CONTINUOUS
 62
     4
 10
19611.010092585158
 20
8589.6883999999973
 30
0.0
 11
18443.50745358516
 21
8589.6883999999973
 31
0.0
  0
LINE
  5
1244E
  8
SUNPOU
  6
CONTINUOUS
 62
     4
 10
18523.50745358516
 20
6241.1883740000021
 30
0.0
 11
18523.50745358516
 21
8589.6883999999973
 31
0.0
  0
LINE
  5
1244F
  8
SUNPOU
  6
CONTINUOUS
 62
     4
 10
19643.50745358516
 20
6241.1883740000021
 30
0.0
 11
18843.506793585169
 21
6241.1883740000021
 31
0.0
  0
LINE
  5
12450
  8
SUNPOU
  6
CONTINUOUS
 62
     4
 10
19736.00639758517
 20
8132.6883740000021
 30
0.0
 11
18843.506793585169
 21
8132.6883740000021
 31
0.0
  0
LINE
  5
12451
  8
SUNPOU
  6
CONTINUOUS
 62
     4
 10
18923.506793585158
 20
6241.1883740000021
 30
0.0
 11
18923.506793585158
 21
8132.6883740000021
 31
0.0
  0
LINE
  5
12452
  8
SUNPOU
  6
CONTINUOUS
 62
     4
 10
22737.010092585158
 20
6161.1883740000021
 30
0.0
 11
22737.010092585158
 21
5261.188374000003
 31
0.0
  0
LINE
  5
12453
  8
SUNPOU
  6
CONTINUOUS
 62
     4
 10
25449.010092585158
 20
6061.1885389999989
 30
0.0
 11
25449.010092585158
 21
5261.188374000003
 31
0.0
  0
LINE
  5
12454
  8
SUNPOU
  6
CONTINUOUS
 62
     4
 10
22737.010092585158
 20
5341.188374000003
 30
0.0
 11
25449.010092585158
 21
5341.188374000003
 31
0.0
  0
LINE
  5
12455
  8
SUNPOU
  6
CONTINUOUS
 62
     4
 10
19731.05004553268
 20
6161.1883740000021
 30
0.0
 11
19731.05004553268
 21
4461.1887040000574
 31
0.0
  0
LINE
  5
12456
  8
SUNPOU
  6
CONTINUOUS
 62
     4
 10
25534.010092585158
 20
6061.1885389999989
 30
0.0
 11
25534.010092585158
 21
4461.1887040000574
 31
0.0
  0
LINE
  5
12457
  8
SUNPOU
  6
CONTINUOUS
 62
     4
 10
19731.05004553268
 20
4541.1887040000556
 30
0.0
 11
25534.010092585158
 21
4541.1887040000556
 31
0.0
  0
LINE
  5
12458
  8
SUNPOU
  6
CONTINUOUS
 62
     4
 10
19773.510092585158
 20
5798.5361160000011
 30
0.0
 11
19773.510092585158
 21
4861.1885389999998
 31
0.0
  0
LINE
  5
12459
  8
SUNPOU
  6
CONTINUOUS
 62
     4
 10
19731.05004553268
 20
6161.1883740000021
 30
0.0
 11
19731.05004553268
 21
4861.1885389999998
 31
0.0
  0
LINE
  5
1245A
  8
SUNPOU
  6
CONTINUOUS
 62
     4
 10
19773.510092585158
 20
4941.1885390000016
 30
0.0
 11
20013.510092585158
 21
4941.1885390000016
 31
0.0
  0
LINE
  5
1245B
  8
SUNPOU
  6
CONTINUOUS
 62
     4
 10
19731.05004553268
 20
4941.1885390000016
 30
0.0
 11
19491.05004553268
 21
4941.1885390000016
 31
0.0
  0
LINE
  5
1245C
  8
SUNPOU
  6
CONTINUOUS
 62
     4
 10
19773.510092585158
 20
4941.1885390000016
 30
0.0
 11
19731.05004553268
 21
4941.1885390000016
 31
0.0
  0
LINE
  5
1245D
  8
SUNPOU
  6
CONTINUOUS
 62
     4
 10
22691.510092585158
 20
5798.5361160000011
 30
0.0
 11
22691.510092585158
 21
4861.1885389999998
 31
0.0
  0
LINE
  5
1245E
  8
SUNPOU
  6
CONTINUOUS
 62
     4
 10
19773.510092585158
 20
5798.5361160000011
 30
0.0
 11
19773.510092585158
 21
4861.1885389999998
 31
0.0
  0
LINE
  5
1245F
  8
SUNPOU
  6
CONTINUOUS
 62
     4
 10
22691.510092585158
 20
4941.1885390000016
 30
0.0
 11
19773.510092585158
 21
4941.1885390000016
 31
0.0
  0
LINE
  5
12460
  8
SUNPOU
  6
CONTINUOUS
 62
     4
 10
19867.510092585158
 20
6061.1885389999989
 30
0.0
 11
19867.510092585158
 21
5261.188374000003
 31
0.0
  0
LINE
  5
12461
  8
SUNPOU
  6
CONTINUOUS
 62
     4
 10
22597.510092585158
 20
6061.1885389999989
 30
0.0
 11
22597.510092585158
 21
5261.188374000003
 31
0.0
  0
LINE
  5
12462
  8
SUNPOU
  6
CONTINUOUS
 62
     4
 10
19867.510092585158
 20
5341.188374000003
 30
0.0
 11
22597.510092585158
 21
5341.188374000003
 31
0.0
  0
LINE
  5
12463
  8
SUNPOU
  6
CONTINUOUS
 62
     4
 10
25491.510092585158
 20
5798.5361160000011
 30
0.0
 11
25491.510092585158
 21
4861.1885389999998
 31
0.0
  0
LINE
  5
12464
  8
SUNPOU
  6
CONTINUOUS
 62
     4
 10
25534.010092585158
 20
6061.1885389999989
 30
0.0
 11
25534.010092585158
 21
4861.1885389999998
 31
0.0
  0
LINE
  5
12465
  8
SUNPOU
  6
CONTINUOUS
 62
     4
 10
25491.510092585158
 20
4941.1885390000016
 30
0.0
 11
25251.510092585158
 21
4941.1885390000016
 31
0.0
  0
LINE
  5
12466
  8
SUNPOU
  6
CONTINUOUS
 62
     4
 10
25534.010092585158
 20
4941.1885390000016
 30
0.0
 11
25774.010092585158
 21
4941.1885390000016
 31
0.0
  0
LINE
  5
12467
  8
SUNPOU
  6
CONTINUOUS
 62
     4
 10
25491.510092585158
 20
4941.1885390000016
 30
0.0
 11
25534.010092585158
 21
4941.1885390000016
 31
0.0
  0
LINE
  5
12468
  8
SUNPOU
  6
CONTINUOUS
 62
     4
 10
22691.510092585158
 20
5798.5361160000011
 30
0.0
 11
22691.510092585158
 21
4861.1885389999998
 31
0.0
  0
LINE
  5
12469
  8
SUNPOU
  6
CONTINUOUS
 62
     4
 10
25491.510092585158
 20
5798.5361160000011
 30
0.0
 11
25491.510092585158
 21
4861.1885389999998
 31
0.0
  0
LINE
  5
1246A
  8
SUNPOU
  6
CONTINUOUS
 62
     4
 10
22691.510092585158
 20
4941.1885390000016
 30
0.0
 11
25491.510092585158
 21
4941.1885390000016
 31
0.0
  0
LINE
  5
1246B
  8
SUNPOU
  6
CONTINUOUS
 62
     4
 10
22734.010092585158
 20
8539.6884659999996
 30
0.0
 11
22734.010092585158
 21
9469.1900500000029
 31
0.0
  0
LINE
  5
1246C
  8
SUNPOU
  6
CONTINUOUS
 62
     4
 10
25534.010092585158
 20
8669.6883999999955
 30
0.0
 11
25534.010092585158
 21
9469.1900500000029
 31
0.0
  0
LINE
  5
1246D
  8
SUNPOU
  6
CONTINUOUS
 62
     4
 10
22734.010092585158
 20
9389.1900500000029
 30
0.0
 11
25534.010092585158
 21
9389.1900500000029
 31
0.0
  0
LINE
  5
1246E
  8
SUNPOU
  6
CONTINUOUS
 62
     4
 10
25614.010092585158
 20
6241.1883740000021
 30
0.0
 11
26698.83249087954
 21
6241.1883740000021
 31
0.0
  0
LINE
  5
1246F
  8
SUNPOU
  6
CONTINUOUS
 62
     4
 10
25614.010092585158
 20
8261.1883740000048
 30
0.0
 11
26698.832490879551
 21
8261.1883740000048
 31
0.0
  0
LINE
  5
12470
  8
SUNPOU
  6
CONTINUOUS
 62
     4
 10
26618.83249087954
 20
6241.1883740000021
 30
0.0
 11
26618.832490879551
 21
8261.1883740000048
 31
0.0
  0
LINE
  5
12471
  8
0-6
  6
CONTINUOUS
 62
     6
 10
7381.6682107906163
 20
16544.76595363297
 30
0.0
 11
7442.8653274936096
 21
16694.98542100003
 31
0.0
  0
LINE
  5
12472
  8
0-6
  6
CONTINUOUS
 62
     6
 10
7442.8653274936096
 20
16694.98542100003
 30
0.0
 11
7336.2548230713264
 21
16572.732799960791
 31
0.0
  0
LINE
  5
12473
  8
0-6
  6
CONTINUOUS
 62
     6
 10
7336.2548230713264
 20
16572.732799960791
 30
0.0
 11
7381.6682107906163
 21
16544.76595363297
 31
0.0
  0
LINE
  5
12474
  8
0-6
  6
CONTINUOUS
 62
     6
 10
7197.6094401649052
 20
15064.115488956189
 30
0.0
 11
7272.3291852355396
 21
15208.08748333491
 31
0.0
  0
LINE
  5
12475
  8
0-6
  6
CONTINUOUS
 62
     6
 10
7272.3291852355396
 20
15208.08748333491
 30
0.0
 11
7154.9531422518812
 21
15096.13049365744
 31
0.0
  0
LINE
  5
12476
  8
0-6
  6
CONTINUOUS
 62
     6
 10
7154.9531422518812
 20
15096.13049365744
 30
0.0
 11
7197.6094401649052
 21
15064.115488956189
 31
0.0
  0
LINE
  5
12477
  8
0-6
  6
CONTINUOUS
 62
     6
 10
7197.6094401649052
 20
18020.51386162129
 30
0.0
 11
7272.3291852355396
 21
18164.485856000021
 31
0.0
  0
LINE
  5
12478
  8
0-6
  6
CONTINUOUS
 62
     6
 10
7272.3291852355396
 20
18164.485856000021
 30
0.0
 11
7154.9531422518812
 21
18052.528866322551
 31
0.0
  0
LINE
  5
12479
  8
0-6
  6
CONTINUOUS
 62
     6
 10
7154.9531422518812
 20
18052.528866322551
 30
0.0
 11
7197.6094401649052
 21
18020.51386162129
 31
0.0
  0
LINE
  5
1247A
  8
0-6
  6
CONTINUOUS
 62
     6
 10
8612.4462500850095
 20
15532.84385411603
 30
0.0
 11
8734.6999755500183
 21
15639.450617873001
 31
0.0
  0
LINE
  5
1247B
  8
0-6
  6
CONTINUOUS
 62
     6
 10
8734.6999755500183
 20
15639.450617873001
 30
0.0
 11
8584.4776647585786
 21
15578.25617086495
 31
0.0
  0
LINE
  5
1247C
  8
0-6
  6
CONTINUOUS
 62
     6
 10
8584.4776647585786
 20
15578.25617086495
 30
0.0
 11
8612.4462500850095
 21
15532.84385411603
 31
0.0
  0
LINE
  5
1247D
  8
0-6
  6
CONTINUOUS
 62
     6
 10
12174.65170781093
 20
14143.059663154811
 30
0.0
 11
12220.94199947659
 21
14298.52086206411
 31
0.0
  0
LINE
  5
1247E
  8
0-6
  6
CONTINUOUS
 62
     6
 10
12220.94199947659
 20
14298.52086206411
 30
0.0
 11
12126.73261347986
 21
14166.47505715437
 31
0.0
  0
LINE
  5
1247F
  8
0-6
  6
CONTINUOUS
 62
     6
 10
12126.73261347986
 20
14166.47505715437
 30
0.0
 11
12174.65170781093
 21
14143.059663154811
 31
0.0
  0
TEXT
  5
12480
  8
0
  6
CONTINUOUS
 62
     7
 10
26538.83249087954
 20
6588.1883740000094
 30
0.0
 40
160.0
  1
有効高サ2020
 50
90.0
  0
TEXT
  5
12481
  8
0
  6
CONTINUOUS
 62
     7
 10
23867.343425918501
 20
9469.1900500000029
 30
0.0
 40
160.0
  1
2800
  0
TEXT
  5
12482
  8
0
  6
CONTINUOUS
 62
     7
 10
23824.843425918501
 20
5021.1885389999998
 30
0.0
 40
160.0
  1
2800
  0
TEXT
  5
12483
  8
0
  6
CONTINUOUS
 62
     7
 10
25654.010752585149
 20
5021.1883080000007
 30
0.0
 40
160.0
  1
42.5
  0
TEXT
  5
12484
  8
0
  6
CONTINUOUS
 62
     7
 10
20472.510092585158
 20
5421.188374000003
 30
0.0
 40
160.0
  1
有効開口巾2730
  0
TEXT
  5
12485
  8
0
  6
CONTINUOUS
 62
     7
 10
20965.843425918501
 20
5021.1885389999998
 30
0.0
 40
160.0
  1
2918
  0
TEXT
  5
12486
  8
0
  6
CONTINUOUS
 62
     7
 10
19151.187061585169
 20
5028.7357170000014
 30
0.0
 40
160.0
  1
42.5
  0
TEXT
  5
12487
  8
0
  6
CONTINUOUS
 62
     7
 10
22352.530069058921
 20
4621.1887040000584
 30
0.0
 40
160.0
  1
5803
  0
TEXT
  5
12488
  8
0
  6
CONTINUOUS
 62
     7
 10
23346.343425918501
 20
5421.188374000003
 30
0.0
 40
160.0
  1
有効開口巾2712
  0
TEXT
  5
12489
  8
0
  6
CONTINUOUS
 62
     7
 10
18843.506793585169
 20
6264.2717073333397
 30
0.0
 40
160.0
  1
有効開口高サ1891.5
 50
90.0
  0
TEXT
  5
1248A
  8
0
  6
CONTINUOUS
 62
     7
 10
18443.50745358516
 20
6396.7717203333359
 30
0.0
 40
160.0
  1
2348.5（2588.5）
 50
90.0
  0
TEXT
  5
1248B
  8
0
  6
CONTINUOUS
 62
     7
 10
20965.843425918501
 20
9469.1900500000029
 30
0.0
 40
160.0
  1
3003
  0
TEXT
  5
1248C
  8
0
  6
CONTINUOUS
 62
     7
 10
19361.202106585159
 20
9469.1893240000027
 30
0.0
 40
160.0
  1
43
  0
TEXT
  5
1248D
  8
0
  6
CONTINUOUS
 62
     7
 10
25711.475912585182
 20
9469.1893240000027
 30
0.0
 40
160.0
  1
43
  0
TEXT
  5
1248E
  8
0
  6
CONTINUOUS
 62
     7
 10
22339.17675925183
 20
9869.1329740000037
 30
0.0
 40
160.0
  1
5889
  0
TEXT
  5
1248F
  8
0
  6
CONTINUOUS
 62
     7
 10
10308.566903804271
 20
5021.1885389999998
 30
0.0
 40
160.0
  1
2918
  0
TEXT
  5
12490
  8
0
  6
CONTINUOUS
 62
     7
 10
7432.483570470944
 20
5021.1885389999998
 30
0.0
 40
160.0
  1
2567.5
  0
TEXT
  5
12491
  8
0
  6
CONTINUOUS
 62
     7
 10
5924.2439564709448
 20
5022.1790570000003
 30
0.0
 40
160.0
  1
42.5
  0
TEXT
  5
12492
  8
0
  6
CONTINUOUS
 62
     7
 10
12196.73522047094
 20
5021.1883080000007
 30
0.0
 40
160.0
  1
42.5
  0
TEXT
  5
12493
  8
0
  6
CONTINUOUS
 62
     7
 10
8904.8169038042797
 20
4621.1887039999983
 30
0.0
 40
160.0
  1
5570.5
  0
TEXT
  5
12494
  8
0
  6
CONTINUOUS
 62
     7
 10
5336.2331744709472
 20
6540.521707333337
 30
0.0
 40
160.0
  1
2156（2396）
 50
90.0
  0
TEXT
  5
12495
  8
0
  6
CONTINUOUS
 62
     7
 10
13086.73396647094
 20
6396.7717073333361
 30
0.0
 40
160.0
  1
2348.5（2588.5）
 50
90.0
  0
TEXT
  5
12496
  8
0
  6
CONTINUOUS
 62
     7
 10
5871.8917553358378
 20
9469.1900500000029
 30
0.0
 40
160.0
  1
180
  0
TEXT
  5
12497
  8
0
  6
CONTINUOUS
 62
     7
 10
8904.8169038042797
 20
9469.1900500000029
 30
0.0
 40
160.0
  1
5570.5
  0
TEXT
  5
12498
  8
0
  6
CONTINUOUS
 62
     7
 10
12293.40023713761
 20
9469.1900500000029
 30
0.0
 40
160.0
  1
150
  0
TEXT
  5
12499
  8
0
  6
CONTINUOUS
 62
     7
 10
8903.1502371376137
 20
9869.1883999999955
 30
0.0
 40
160.0
  1
5900.5
  0
TEXT
  5
1249F
  8
0
  6
CONTINUOUS
 62
     7
 10
26650.355577953771
 20
15024.819585333331
 30
0.0
 40
160.0
  1
2918
 50
90.0
  0
TEXT
  5
124A0
  8
0
  6
CONTINUOUS
 62
     7
 10
26650.355577953771
 20
17634.23625200001
 30
0.0
 40
160.0
  1
2567.5
 50
90.0
  0
TEXT
  5
124A1
  8
0
  6
CONTINUOUS
 62
     7
 10
25653.43388158513
 20
20240.485459999989
 30
0.0
 40
160.0
  1
42.5
  0
TEXT
  5
124A2
  8
0
  6
CONTINUOUS
 62
     7
 10
24975.33791458514
 20
20259.829315999999
 30
0.0
 40
160.0
  1
42.5
  0
TEXT
  5
124A3
  8
0
  6
CONTINUOUS
 62
     7
 10
20986.84528691848
 20
20640.487175999991
 30
0.0
 40
160.0
  1
2918
  0
TEXT
  5
124A4
  8
0
  6
CONTINUOUS
 62
     7
 10
23845.84528691848
 20
20640.487175999991
 30
0.0
 40
160.0
  1
2800
  0
TEXT
  5
124A8
  8
0
  6
CONTINUOUS
 62
     7
 10
19257.33791458515
 20
20259.829315999999
 30
0.0
 40
160.0
  1
42.5
  0
TEXT
  5
124A9
  8
0
  6
CONTINUOUS
 62
     7
 10
19960.178620251801
 20
20240.487175999991
 30
0.0
 40
160.0
  1
758
  0
TEXT
  5
124AA
  8
0
  6
CONTINUOUS
 62
     7
 10
20729.678620251801
 20
20240.487175999991
 30
0.0
 40
160.0
  1
701
  0
TEXT
  5
124AB
  8
0
  6
CONTINUOUS
 62
     7
 10
21430.678620251801
 20
20240.487175999991
 30
0.0
 40
160.0
  1
701
  0
TEXT
  5
124AC
  8
0
  6
CONTINUOUS
 62
     7
 10
22120.178620251801
 20
20240.487175999991
 30
0.0
 40
160.0
  1
758
  0
TEXT
  5
124AD
  8
0
  6
CONTINUOUS
 62
     7
 10
22853.43388158513
 20
20240.487175999991
 30
0.0
 40
160.0
  1
42.5
  0
TEXT
  5
124BA
  8
0
  6
CONTINUOUS
 62
     7
 10
8646.9416304765855
 20
12429.98546
 30
0.0
 40
160.0
  1
ケラバ外寸5889
  0
TEXT
  5
124BB
  8
0
  6
CONTINUOUS
 62
     7
 10
5980.794486476595
 20
20240.485459999989
 30
0.0
 40
160.0
  1
85.5
  0
TEXT
  5
124BC
  8
0
  6
CONTINUOUS
 62
     7
 10
7748.2749638099158
 20
20240.487175999991
 30
0.0
 40
160.0
  1
2918
  0
TEXT
  5
124BD
  8
0
  6
CONTINUOUS
 62
     7
 10
10607.274963809919
 20
20240.487175999991
 30
0.0
 40
160.0
  1
2800
  0
TEXT
  5
124BE
  8
0
  6
CONTINUOUS
 62
     7
 10
12420.28941847659
 20
20240.485459999989
 30
0.0
 40
160.0
  1
85.5
  0
TEXT
  5
124BF
  8
0
  6
CONTINUOUS
 62
     7
 10
5946.4415964765922
 20
19685.248313999989
 30
0.0
 40
160.0
  1
22
 50
90.0
  0
TEXT
  5
124C0
  8
0
  6
CONTINUOUS
 62
     7
 10
5546.4415304765917
 20
19618.967774389239
 30
0.0
 40
160.0
  1
222.5
 50
90.0
  0
TEXT
  5
124C1
  8
0
  6
CONTINUOUS
 62
     7
 10
5546.4415304765889
 20
18321.509757731281
 30
0.0
 40
160.0
  1
1108.5
 50
90.0
  0
TEXT
  5
124C2
  8
0
  6
CONTINUOUS
 62
     7
 10
5546.4415304765771
 20
12975.996623590579
 30
0.0
 40
160.0
  1
192.5
 50
90.0
  0
TEXT
  5
124C3
  8
0
  6
CONTINUOUS
 62
     7
 10
5546.4418544765922
 20
17213.319585333331
 30
0.0
 40
160.0
  1
1459
 50
90.0
  0
TEXT
  5
124C4
  8
0
  6
CONTINUOUS
 62
     7
 10
5546.4418544765904
 20
15754.31958533334
 30
0.0
 40
160.0
  1
1459
 50
90.0
  0
TEXT
  5
124C5
  8
0
  6
CONTINUOUS
 62
     7
 10
5546.441854476594
 20
14295.31958533334
 30
0.0
 40
160.0
  1
1459
 50
90.0
  0
ARC
  5
124C6
  8
0
  6
BYBLOCK
 62
     0
 10
5626.441854476594
 20
15291.48625200001
 30
0.0
 40
15.0
 50
270.0
 51
90.0
  0
ARC
  5
124C7
  8
0
  6
BYBLOCK
 62
     0
 10
5626.441854476594
 20
15291.48625200001
 30
0.0
 40
15.0
 50
90.0
 51
270.0
  0
ARC
  5
124C8
  8
0
  6
BYBLOCK
 62
     0
 10
5626.441854476594
 20
13832.48625200001
 30
0.0
 40
15.0
 50
90.0
 51
270.0
  0
ARC
  5
124C9
  8
0
  6
BYBLOCK
 62
     0
 10
5626.441854476594
 20
13832.48625200001
 30
0.0
 40
15.0
 50
270.0
 51
90.0
  0
ARC
  5
124CA
  8
0
  6
BYBLOCK
 62
     0
 10
5626.441854476594
 20
16750.486251999999
 30
0.0
 40
15.0
 50
270.0
 51
90.0
  0
ARC
  5
124CB
  8
0
  6
BYBLOCK
 62
     0
 10
5626.441854476594
 20
16750.486251999999
 30
0.0
 40
15.0
 50
90.0
 51
270.0
  0
ARC
  5
124CC
  8
0
  6
BYBLOCK
 62
     0
 10
5626.441854476594
 20
15291.48625200001
 30
0.0
 40
15.0
 50
90.0
 51
270.0
  0
ARC
  5
124CD
  8
0
  6
BYBLOCK
 62
     0
 10
5626.441854476594
 20
15291.48625200001
 30
0.0
 40
15.0
 50
270.0
 51
90.0
  0
ARC
  5
124CE
  8
0
  6
BYBLOCK
 62
     0
 10
5626.441854476594
 20
18209.48625200001
 30
0.0
 40
15.0
 50
270.0
 51
90.0
  0
ARC
  5
124CF
  8
0
  6
BYBLOCK
 62
     0
 10
5626.441854476594
 20
18209.48625200001
 30
0.0
 40
15.0
 50
90.0
 51
270.0
  0
ARC
  5
124D0
  8
0
  6
BYBLOCK
 62
     0
 10
5626.441854476594
 20
16750.486251999999
 30
0.0
 40
15.0
 50
90.0
 51
270.0
  0
ARC
  5
124D1
  8
0
  6
BYBLOCK
 62
     0
 10
5626.441854476594
 20
16750.486251999999
 30
0.0
 40
15.0
 50
270.0
 51
90.0
  0
ARC
  5
124D2
  8
0
  6
BYBLOCK
 62
     0
 10
5626.4415304765944
 20
13832.48552600002
 30
0.0
 40
15.0
 50
270.0
 51
90.0
  0
ARC
  5
124D3
  8
0
  6
BYBLOCK
 62
     0
 10
5626.4415304765944
 20
13832.48552600002
 30
0.0
 40
15.0
 50
90.0
 51
270.0
  0
ARC
  5
124D4
  8
0
  6
BYBLOCK
 62
     0
 10
5626.4415304765944
 20
13639.986252000001
 30
0.0
 40
15.0
 50
90.0
 51
270.0
  0
ARC
  5
124D5
  8
0
  6
BYBLOCK
 62
     0
 10
5626.4415304765944
 20
13639.986252000001
 30
0.0
 40
15.0
 50
270.0
 51
90.0
  0
ARC
  5
124D6
  8
0
  6
BYBLOCK
 62
     0
 10
5626.4415304765944
 20
19317.986251999992
 30
0.0
 40
15.0
 50
270.0
 51
90.0
  0
ARC
  5
124D7
  8
0
  6
BYBLOCK
 62
     0
 10
5626.4415304765944
 20
19317.986251999992
 30
0.0
 40
15.0
 50
90.0
 51
270.0
  0
ARC
  5
124D8
  8
0
  6
BYBLOCK
 62
     0
 10
5626.4415304765917
 20
18209.48625200001
 30
0.0
 40
15.0
 50
90.0
 51
270.0
  0
ARC
  5
124D9
  8
0
  6
BYBLOCK
 62
     0
 10
5626.4415304765917
 20
18209.48625200001
 30
0.0
 40
15.0
 50
270.0
 51
90.0
  0
ARC
  5
124DA
  8
0
  6
BYBLOCK
 62
     0
 10
5626.4415304765917
 20
19317.986251999992
 30
0.0
 40
15.0
 50
90.0
 51
270.0
  0
ARC
  5
124DB
  8
0
  6
BYBLOCK
 62
     0
 10
5626.4415304765917
 20
19317.986251999992
 30
0.0
 40
15.0
 50
270.0
 51
90.0
  0
ARC
  5
124DC
  8
0
  6
BYBLOCK
 62
     0
 10
5626.4415304765917
 20
19540.486120000001
 30
0.0
 40
15.0
 50
270.0
 51
90.0
  0
ARC
  5
124DD
  8
0
  6
BYBLOCK
 62
     0
 10
5626.4415304765917
 20
19540.486120000001
 30
0.0
 40
15.0
 50
90.0
 51
270.0
  0
ARC
  5
124DE
  8
0
  6
BYBLOCK
 62
     0
 10
6026.4408714765914
 20
19500.485987999989
 30
0.0
 40
15.0
 50
270.0
 51
90.0
  0
ARC
  5
124DF
  8
0
  6
BYBLOCK
 62
     0
 10
6026.4408714765914
 20
19500.485987999989
 30
0.0
 40
15.0
 50
90.0
 51
270.0
  0
ARC
  5
124E0
  8
0
  6
BYBLOCK
 62
     0
 10
6026.4408714765914
 20
19540.486120000001
 30
0.0
 40
15.0
 50
90.0
 51
270.0
  0
ARC
  5
124E1
  8
0
  6
BYBLOCK
 62
     0
 10
6026.4408714765914
 20
19540.486120000001
 30
0.0
 40
15.0
 50
270.0
 51
90.0
  0
ARC
  5
124E2
  8
0
  6
BYBLOCK
 62
     0
 10
12273.94163047658
 20
20160.487175999991
 30
0.0
 40
15.0
 50
180.0
 51
0.0
  0
ARC
  5
124E3
  8
0
  6
BYBLOCK
 62
     0
 10
12273.94163047658
 20
20160.487175999991
 30
0.0
 40
15.0
 50
0.0
 51
180.0
  0
ARC
  5
124E4
  8
0
  6
BYBLOCK
 62
     0
 10
12359.44163047658
 20
20160.487175999991
 30
0.0
 40
15.0
 50
0.0
 51
180.0
  0
ARC
  5
124E5
  8
0
  6
BYBLOCK
 62
     0
 10
12359.44163047658
 20
20160.487175999991
 30
0.0
 40
15.0
 50
180.0
 51
0.0
  0
ARC
  5
124E6
  8
0
  6
BYBLOCK
 62
     0
 10
9473.9416304765837
 20
20160.487175999991
 30
0.0
 40
15.0
 50
0.0
 51
180.0
  0
ARC
  5
124E7
  8
0
  6
BYBLOCK
 62
     0
 10
9473.9416304765837
 20
20160.487175999991
 30
0.0
 40
15.0
 50
180.0
 51
0.0
  0
ARC
  5
124E8
  8
0
  6
BYBLOCK
 62
     0
 10
12273.94163047658
 20
20160.487175999991
 30
0.0
 40
15.0
 50
180.0
 51
0.0
  0
ARC
  5
124E9
  8
0
  6
BYBLOCK
 62
     0
 10
12273.94163047658
 20
20160.487175999991
 30
0.0
 40
15.0
 50
0.0
 51
180.0
  0
ARC
  5
124EA
  8
0
  6
BYBLOCK
 62
     0
 10
6555.9416304765828
 20
20160.487175999991
 30
0.0
 40
15.0
 50
0.0
 51
180.0
  0
ARC
  5
124EB
  8
0
  6
BYBLOCK
 62
     0
 10
6555.9416304765828
 20
20160.487175999991
 30
0.0
 40
15.0
 50
180.0
 51
0.0
  0
ARC
  5
124EC
  8
0
  6
BYBLOCK
 62
     0
 10
9473.9416304765837
 20
20160.487175999991
 30
0.0
 40
15.0
 50
180.0
 51
0.0
  0
ARC
  5
124ED
  8
0
  6
BYBLOCK
 62
     0
 10
9473.9416304765837
 20
20160.487175999991
 30
0.0
 40
15.0
 50
0.0
 51
180.0
  0
ARC
  5
124EE
  8
0
  6
BYBLOCK
 62
     0
 10
6555.9416304765828
 20
20160.487175999991
 30
0.0
 40
15.0
 50
0.0
 51
180.0
  0
ARC
  5
124EF
  8
0
  6
BYBLOCK
 62
     0
 10
6555.9416304765828
 20
20160.487175999991
 30
0.0
 40
15.0
 50
180.0
 51
0.0
  0
ARC
  5
124F0
  8
0
  6
BYBLOCK
 62
     0
 10
6470.4416304765837
 20
20160.487175999991
 30
0.0
 40
15.0
 50
180.0
 51
0.0
  0
ARC
  5
124F1
  8
0
  6
BYBLOCK
 62
     0
 10
6470.4416304765837
 20
20160.487175999991
 30
0.0
 40
15.0
 50
0.0
 51
180.0
  0
ARC
  5
124F2
  8
0
  6
BYBLOCK
 62
     0
 10
6470.4416304765837
 20
12349.98546
 30
0.0
 40
15.0
 50
0.0
 51
180.0
  0
ARC
  5
124F3
  8
0
  6
BYBLOCK
 62
     0
 10
6470.4416304765837
 20
12349.98546
 30
0.0
 40
15.0
 50
180.0
 51
0.0
  0
ARC
  5
124F4
  8
0
  6
BYBLOCK
 62
     0
 10
12359.44163047658
 20
12349.98546
 30
0.0
 40
15.0
 50
180.0
 51
0.0
  0
ARC
  5
124F5
  8
0
  6
BYBLOCK
 62
     0
 10
12359.44163047658
 20
12349.98546
 30
0.0
 40
15.0
 50
0.0
 51
180.0
  0
ARC
  5
12526
  8
0
  6
BYBLOCK
 62
     0
 10
22712.511953585152
 20
20160.487175999991
 30
0.0
 40
15.0
 50
180.0
 51
0.0
  0
ARC
  5
12527
  8
0
  6
BYBLOCK
 62
     0
 10
22712.511953585152
 20
20160.487175999991
 30
0.0
 40
15.0
 50
0.0
 51
180.0
  0
ARC
  5
12528
  8
0
  6
BYBLOCK
 62
     0
 10
22755.011953585141
 20
20160.487175999991
 30
0.0
 40
15.0
 50
0.0
 51
180.0
  0
ARC
  5
12529
  8
0
  6
BYBLOCK
 62
     0
 10
22755.011953585141
 20
20160.487175999991
 30
0.0
 40
15.0
 50
180.0
 51
0.0
  0
ARC
  5
1252A
  8
0
  6
BYBLOCK
 62
     0
 10
21954.511953585141
 20
20160.487175999991
 30
0.0
 40
15.0
 50
0.0
 51
180.0
  0
ARC
  5
1252B
  8
0
  6
BYBLOCK
 62
     0
 10
21954.511953585141
 20
20160.487175999991
 30
0.0
 40
15.0
 50
180.0
 51
0.0
  0
ARC
  5
1252C
  8
0
  6
BYBLOCK
 62
     0
 10
22712.511953585152
 20
20160.487175999991
 30
0.0
 40
15.0
 50
180.0
 51
0.0
  0
ARC
  5
1252D
  8
0
  6
BYBLOCK
 62
     0
 10
22712.511953585152
 20
20160.487175999991
 30
0.0
 40
15.0
 50
0.0
 51
180.0
  0
ARC
  5
1252E
  8
0
  6
BYBLOCK
 62
     0
 10
21253.511953585141
 20
20160.487175999991
 30
0.0
 40
15.0
 50
0.0
 51
180.0
  0
ARC
  5
1252F
  8
0
  6
BYBLOCK
 62
     0
 10
21253.511953585141
 20
20160.487175999991
 30
0.0
 40
15.0
 50
180.0
 51
0.0
  0
ARC
  5
12530
  8
0
  6
BYBLOCK
 62
     0
 10
21954.511953585141
 20
20160.487175999991
 30
0.0
 40
15.0
 50
180.0
 51
0.0
  0
ARC
  5
12531
  8
0
  6
BYBLOCK
 62
     0
 10
21954.511953585141
 20
20160.487175999991
 30
0.0
 40
15.0
 50
0.0
 51
180.0
  0
ARC
  5
12532
  8
0
  6
BYBLOCK
 62
     0
 10
20552.51195358513
 20
20160.487175999991
 30
0.0
 40
15.0
 50
0.0
 51
180.0
  0
ARC
  5
12533
  8
0
  6
BYBLOCK
 62
     0
 10
20552.51195358513
 20
20160.487175999991
 30
0.0
 40
15.0
 50
180.0
 51
0.0
  0
ARC
  5
12534
  8
0
  6
BYBLOCK
 62
     0
 10
21253.511953585141
 20
20160.487175999991
 30
0.0
 40
15.0
 50
180.0
 51
0.0
  0
ARC
  5
12535
  8
0
  6
BYBLOCK
 62
     0
 10
21253.511953585141
 20
20160.487175999991
 30
0.0
 40
15.0
 50
0.0
 51
180.0
  0
ARC
  5
12536
  8
0
  6
BYBLOCK
 62
     0
 10
19794.511953585141
 20
20160.487175999991
 30
0.0
 40
15.0
 50
0.0
 51
180.0
  0
ARC
  5
12537
  8
0
  6
BYBLOCK
 62
     0
 10
19794.511953585141
 20
20160.487175999991
 30
0.0
 40
15.0
 50
180.0
 51
0.0
  0
ARC
  5
12538
  8
0
  6
BYBLOCK
 62
     0
 10
20552.51195358513
 20
20160.487175999991
 30
0.0
 40
15.0
 50
180.0
 51
0.0
  0
ARC
  5
12539
  8
0
  6
BYBLOCK
 62
     0
 10
20552.51195358513
 20
20160.487175999991
 30
0.0
 40
15.0
 50
0.0
 51
180.0
  0
ARC
  5
1253A
  8
0
  6
BYBLOCK
 62
     0
 10
19794.511953585141
 20
20160.487175999991
 30
0.0
 40
15.0
 50
0.0
 51
180.0
  0
ARC
  5
1253B
  8
0
  6
BYBLOCK
 62
     0
 10
19794.511953585141
 20
20160.487175999991
 30
0.0
 40
15.0
 50
180.0
 51
0.0
  0
ARC
  5
1253C
  8
0
  6
BYBLOCK
 62
     0
 10
19752.011953585141
 20
20160.487175999991
 30
0.0
 40
15.0
 50
180.0
 51
0.0
  0
ARC
  5
1253D
  8
0
  6
BYBLOCK
 62
     0
 10
19752.011953585141
 20
20160.487175999991
 30
0.0
 40
15.0
 50
0.0
 51
180.0
  0
ARC
  5
1254A
  8
0
  6
BYBLOCK
 62
     0
 10
22712.511953585152
 20
20560.487175999991
 30
0.0
 40
15.0
 50
0.0
 51
180.0
  0
ARC
  5
1254B
  8
0
  6
BYBLOCK
 62
     0
 10
22712.511953585152
 20
20560.487175999991
 30
0.0
 40
15.0
 50
180.0
 51
0.0
  0
ARC
  5
1254C
  8
0
  6
BYBLOCK
 62
     0
 10
25512.511953585141
 20
20560.487175999991
 30
0.0
 40
15.0
 50
180.0
 51
0.0
  0
ARC
  5
1254D
  8
0
  6
BYBLOCK
 62
     0
 10
25512.511953585141
 20
20560.487175999991
 30
0.0
 40
15.0
 50
0.0
 51
180.0
  0
ARC
  5
1254E
  8
0
  6
BYBLOCK
 62
     0
 10
19794.511953585141
 20
20560.487175999991
 30
0.0
 40
15.0
 50
0.0
 51
180.0
  0
ARC
  5
1254F
  8
0
  6
BYBLOCK
 62
     0
 10
19794.511953585141
 20
20560.487175999991
 30
0.0
 40
15.0
 50
180.0
 51
0.0
  0
ARC
  5
12550
  8
0
  6
BYBLOCK
 62
     0
 10
22712.511953585152
 20
20560.487175999991
 30
0.0
 40
15.0
 50
180.0
 51
0.0
  0
ARC
  5
12551
  8
0
  6
BYBLOCK
 62
     0
 10
22712.511953585152
 20
20560.487175999991
 30
0.0
 40
15.0
 50
0.0
 51
180.0
  0
ARC
  5
12552
  8
0
  6
BYBLOCK
 62
     0
 10
25512.511953585141
 20
20160.487175999991
 30
0.0
 40
15.0
 50
0.0
 51
180.0
  0
ARC
  5
12553
  8
0
  6
BYBLOCK
 62
     0
 10
25512.511953585141
 20
20160.487175999991
 30
0.0
 40
15.0
 50
180.0
 51
0.0
  0
ARC
  5
12554
  8
0
  6
BYBLOCK
 62
     0
 10
25470.009710585138
 20
20160.487175999991
 30
0.0
 40
15.0
 50
180.0
 51
0.0
  0
ARC
  5
12555
  8
0
  6
BYBLOCK
 62
     0
 10
25470.009710585138
 20
20160.487175999991
 30
0.0
 40
15.0
 50
0.0
 51
180.0
  0
ARC
  5
12556
  8
0
  6
BYBLOCK
 62
     0
 10
25512.511953585141
 20
20160.487175999991
 30
0.0
 40
15.0
 50
180.0
 51
0.0
  0
ARC
  5
12557
  8
0
  6
BYBLOCK
 62
     0
 10
25512.511953585141
 20
20160.487175999991
 30
0.0
 40
15.0
 50
0.0
 51
180.0
  0
ARC
  5
12558
  8
0
  6
BYBLOCK
 62
     0
 10
25555.010238585121
 20
20160.487175999991
 30
0.0
 40
15.0
 50
0.0
 51
180.0
  0
ARC
  5
12559
  8
0
  6
BYBLOCK
 62
     0
 10
25555.010238585121
 20
20160.487175999991
 30
0.0
 40
15.0
 50
180.0
 51
0.0
  0
ARC
  5
1255A
  8
0
  6
BYBLOCK
 62
     0
 10
26730.355577953771
 20
16750.486251999992
 30
0.0
 40
15.0
 50
90.0
 51
270.0
  0
ARC
  5
1255B
  8
0
  6
BYBLOCK
 62
     0
 10
26730.355577953771
 20
16750.486251999992
 30
0.0
 40
15.0
 50
270.0
 51
90.0
  0
ARC
  5
1255C
  8
0
  6
BYBLOCK
 62
     0
 10
26730.355577953771
 20
19317.986251999992
 30
0.0
 40
15.0
 50
270.0
 51
90.0
  0
ARC
  5
1255D
  8
0
  6
BYBLOCK
 62
     0
 10
26730.355577953771
 20
19317.986251999992
 30
0.0
 40
15.0
 50
90.0
 51
270.0
  0
ARC
  5
1255E
  8
0
  6
BYBLOCK
 62
     0
 10
26730.355577953771
 20
13832.48625200001
 30
0.0
 40
15.0
 50
90.0
 51
270.0
  0
ARC
  5
1255F
  8
0
  6
BYBLOCK
 62
     0
 10
26730.355577953771
 20
13832.48625200001
 30
0.0
 40
15.0
 50
270.0
 51
90.0
  0
ARC
  5
12560
  8
0
  6
BYBLOCK
 62
     0
 10
26730.355577953771
 20
16750.486251999992
 30
0.0
 40
15.0
 50
270.0
 51
90.0
  0
ARC
  5
12561
  8
0
  6
BYBLOCK
 62
     0
 10
26730.355577953771
 20
16750.486251999992
 30
0.0
 40
15.0
 50
90.0
 51
270.0
  0
ARC
  5
12576
  8
0
  6
BYBLOCK
 62
     0
 10
6326.233570470944
 20
9789.1883999999955
 30
0.0
 40
15.0
 50
0.0
 51
180.0
  0
ARC
  5
12577
  8
0
  6
BYBLOCK
 62
     0
 10
6326.233570470944
 20
9789.1883999999955
 30
0.0
 40
15.0
 50
180.0
 51
0.0
  0
ARC
  5
12578
  8
0
  6
BYBLOCK
 62
     0
 10
12226.73357047094
 20
9789.1883999999955
 30
0.0
 40
15.0
 50
180.0
 51
0.0
  0
ARC
  5
12579
  8
0
  6
BYBLOCK
 62
     0
 10
12226.73357047094
 20
9789.1883999999955
 30
0.0
 40
15.0
 50
0.0
 51
180.0
  0
ARC
  5
1257A
  8
0
  6
BYBLOCK
 62
     0
 10
12076.73357047094
 20
9389.1900500000029
 30
0.0
 40
15.0
 50
180.0
 51
0.0
  0
ARC
  5
1257B
  8
0
  6
BYBLOCK
 62
     0
 10
12076.73357047094
 20
9389.1900500000029
 30
0.0
 40
15.0
 50
0.0
 51
180.0
  0
ARC
  5
1257C
  8
0
  6
BYBLOCK
 62
     0
 10
12226.73357047094
 20
9389.1900500000029
 30
0.0
 40
15.0
 50
0.0
 51
180.0
  0
ARC
  5
1257D
  8
0
  6
BYBLOCK
 62
     0
 10
12226.73357047094
 20
9389.1900500000029
 30
0.0
 40
15.0
 50
180.0
 51
0.0
  0
ARC
  5
1257E
  8
0
  6
BYBLOCK
 62
     0
 10
6506.233570470944
 20
9389.1900500000029
 30
0.0
 40
15.0
 50
0.0
 51
180.0
  0
ARC
  5
1257F
  8
0
  6
BYBLOCK
 62
     0
 10
6506.233570470944
 20
9389.1900500000029
 30
0.0
 40
15.0
 50
180.0
 51
0.0
  0
ARC
  5
12580
  8
0
  6
BYBLOCK
 62
     0
 10
12076.73357047094
 20
9389.1900500000029
 30
0.0
 40
15.0
 50
180.0
 51
0.0
  0
ARC
  5
12581
  8
0
  6
BYBLOCK
 62
     0
 10
12076.73357047094
 20
9389.1900500000029
 30
0.0
 40
15.0
 50
0.0
 51
180.0
  0
ARC
  5
12582
  8
0
  6
BYBLOCK
 62
     0
 10
6326.233570470944
 20
9389.1900500000029
 30
0.0
 40
15.0
 50
0.0
 51
180.0
  0
ARC
  5
12583
  8
0
  6
BYBLOCK
 62
     0
 10
6326.233570470944
 20
9389.1900500000029
 30
0.0
 40
15.0
 50
180.0
 51
0.0
  0
ARC
  5
12584
  8
0
  6
BYBLOCK
 62
     0
 10
6506.233570470944
 20
9389.1900500000029
 30
0.0
 40
15.0
 50
180.0
 51
0.0
  0
ARC
  5
12585
  8
0
  6
BYBLOCK
 62
     0
 10
6506.233570470944
 20
9389.1900500000029
 30
0.0
 40
15.0
 50
0.0
 51
180.0
  0
ARC
  5
12586
  8
0
  6
BYBLOCK
 62
     0
 10
13166.73396647094
 20
6241.1883740000021
 30
0.0
 40
15.0
 50
90.0
 51
270.0
  0
ARC
  5
12587
  8
0
  6
BYBLOCK
 62
     0
 10
13166.73396647094
 20
6241.1883740000021
 30
0.0
 40
15.0
 50
270.0
 51
90.0
  0
ARC
  5
12588
  8
0
  6
BYBLOCK
 62
     0
 10
13166.73396647094
 20
8589.688374000003
 30
0.0
 40
15.0
 50
270.0
 51
90.0
  0
ARC
  5
12589
  8
0
  6
BYBLOCK
 62
     0
 10
13166.73396647094
 20
8589.688374000003
 30
0.0
 40
15.0
 50
90.0
 51
270.0
  0
ARC
  5
1258A
  8
0
  6
BYBLOCK
 62
     0
 10
5416.2331744709481
 20
6241.1883740000039
 30
0.0
 40
15.0
 50
90.0
 51
270.0
  0
ARC
  5
1258B
  8
0
  6
BYBLOCK
 62
     0
 10
5416.2331744709481
 20
6241.1883740000039
 30
0.0
 40
15.0
 50
270.0
 51
90.0
  0
ARC
  5
1258C
  8
0
  6
BYBLOCK
 62
     0
 10
5416.2331744709481
 20
8397.1883740000048
 30
0.0
 40
15.0
 50
270.0
 51
90.0
  0
ARC
  5
1258D
  8
0
  6
BYBLOCK
 62
     0
 10
5416.2331744709481
 20
8397.1883740000048
 30
0.0
 40
15.0
 50
90.0
 51
270.0
  0
ARC
  5
1258E
  8
0
  6
BYBLOCK
 62
     0
 10
6506.233570470944
 20
4541.1887039999983
 30
0.0
 40
15.0
 50
0.0
 51
180.0
  0
ARC
  5
1258F
  8
0
  6
BYBLOCK
 62
     0
 10
6506.233570470944
 20
4541.1887039999983
 30
0.0
 40
15.0
 50
180.0
 51
0.0
  0
ARC
  5
12590
  8
0
  6
BYBLOCK
 62
     0
 10
12076.73357047094
 20
4541.1887039999983
 30
0.0
 40
15.0
 50
180.0
 51
0.0
  0
ARC
  5
12591
  8
0
  6
BYBLOCK
 62
     0
 10
12076.73357047094
 20
4541.1887039999983
 30
0.0
 40
15.0
 50
0.0
 51
180.0
  0
ARC
  5
12592
  8
0
  6
BYBLOCK
 62
     0
 10
12034.23357047094
 20
4941.1885390000016
 30
0.0
 40
15.0
 50
180.0
 51
0.0
  0
ARC
  5
12593
  8
0
  6
BYBLOCK
 62
     0
 10
12034.23357047094
 20
4941.1885390000016
 30
0.0
 40
15.0
 50
0.0
 51
180.0
  0
ARC
  5
12594
  8
0
  6
BYBLOCK
 62
     0
 10
12076.73357047094
 20
4941.1885390000016
 30
0.0
 40
15.0
 50
0.0
 51
180.0
  0
ARC
  5
12595
  8
0
  6
BYBLOCK
 62
     0
 10
12076.73357047094
 20
4941.1885390000016
 30
0.0
 40
15.0
 50
180.0
 51
0.0
  0
ARC
  5
12596
  8
0
  6
BYBLOCK
 62
     0
 10
6548.7335704709431
 20
4941.1885390000016
 30
0.0
 40
15.0
 50
0.0
 51
180.0
  0
ARC
  5
12597
  8
0
  6
BYBLOCK
 62
     0
 10
6548.7335704709431
 20
4941.1885390000016
 30
0.0
 40
15.0
 50
180.0
 51
0.0
  0
ARC
  5
12598
  8
0
  6
BYBLOCK
 62
     0
 10
6506.233570470944
 20
4941.1885390000016
 30
0.0
 40
15.0
 50
180.0
 51
0.0
  0
ARC
  5
12599
  8
0
  6
BYBLOCK
 62
     0
 10
6506.233570470944
 20
4941.1885390000016
 30
0.0
 40
15.0
 50
0.0
 51
180.0
  0
ARC
  5
1259A
  8
0
  6
BYBLOCK
 62
     0
 10
9116.233570470944
 20
4941.1885390000016
 30
0.0
 40
15.0
 50
180.0
 51
0.0
  0
ARC
  5
1259B
  8
0
  6
BYBLOCK
 62
     0
 10
9116.233570470944
 20
4941.1885390000016
 30
0.0
 40
15.0
 50
0.0
 51
180.0
  0
ARC
  5
1259C
  8
0
  6
BYBLOCK
 62
     0
 10
6548.7335704709431
 20
4941.1885390000016
 30
0.0
 40
15.0
 50
0.0
 51
180.0
  0
ARC
  5
1259D
  8
0
  6
BYBLOCK
 62
     0
 10
6548.7335704709431
 20
4941.1885390000016
 30
0.0
 40
15.0
 50
180.0
 51
0.0
  0
ARC
  5
1259E
  8
0
  6
BYBLOCK
 62
     0
 10
9116.233570470944
 20
4941.1885390000016
 30
0.0
 40
15.0
 50
0.0
 51
180.0
  0
ARC
  5
1259F
  8
0
  6
BYBLOCK
 62
     0
 10
9116.233570470944
 20
4941.1885390000016
 30
0.0
 40
15.0
 50
180.0
 51
0.0
  0
ARC
  5
125A0
  8
0
  6
BYBLOCK
 62
     0
 10
12034.23357047094
 20
4941.1885390000016
 30
0.0
 40
15.0
 50
180.0
 51
0.0
  0
ARC
  5
125A1
  8
0
  6
BYBLOCK
 62
     0
 10
12034.23357047094
 20
4941.1885390000016
 30
0.0
 40
15.0
 50
0.0
 51
180.0
  0
ARC
  5
125A2
  8
0
  6
BYBLOCK
 62
     0
 10
19688.010092585158
 20
9789.1329740000037
 30
0.0
 40
15.0
 50
0.0
 51
180.0
  0
ARC
  5
125A3
  8
0
  6
BYBLOCK
 62
     0
 10
19688.010092585158
 20
9789.1329740000037
 30
0.0
 40
15.0
 50
180.0
 51
0.0
  0
ARC
  5
125A4
  8
0
  6
BYBLOCK
 62
     0
 10
25577.010092585158
 20
9789.1329740000037
 30
0.0
 40
15.0
 50
180.0
 51
0.0
  0
ARC
  5
125A5
  8
0
  6
BYBLOCK
 62
     0
 10
25577.010092585158
 20
9789.1329740000037
 30
0.0
 40
15.0
 50
0.0
 51
180.0
  0
ARC
  5
125A6
  8
0
  6
BYBLOCK
 62
     0
 10
25534.010092585158
 20
9389.1900500000029
 30
0.0
 40
15.0
 50
180.0
 51
0.0
  0
ARC
  5
125A7
  8
0
  6
BYBLOCK
 62
     0
 10
25534.010092585158
 20
9389.1900500000029
 30
0.0
 40
15.0
 50
0.0
 51
180.0
  0
ARC
  5
125A8
  8
0
  6
BYBLOCK
 62
     0
 10
25577.010092585158
 20
9389.1900500000029
 30
0.0
 40
15.0
 50
0.0
 51
180.0
  0
ARC
  5
125A9
  8
0
  6
BYBLOCK
 62
     0
 10
25577.010092585158
 20
9389.1900500000029
 30
0.0
 40
15.0
 50
180.0
 51
0.0
  0
ARC
  5
125AA
  8
0
  6
BYBLOCK
 62
     0
 10
19731.010092585158
 20
9389.1900500000029
 30
0.0
 40
15.0
 50
0.0
 51
180.0
  0
ARC
  5
125AB
  8
0
  6
BYBLOCK
 62
     0
 10
19731.010092585158
 20
9389.1900500000029
 30
0.0
 40
15.0
 50
180.0
 51
0.0
  0
ARC
  5
125AC
  8
0
  6
BYBLOCK
 62
     0
 10
19688.010092585158
 20
9389.1900500000029
 30
0.0
 40
15.0
 50
180.0
 51
0.0
  0
ARC
  5
125AD
  8
0
  6
BYBLOCK
 62
     0
 10
19688.010092585158
 20
9389.1900500000029
 30
0.0
 40
15.0
 50
0.0
 51
180.0
  0
ARC
  5
125AE
  8
0
  6
BYBLOCK
 62
     0
 10
22734.010092585158
 20
9389.1900500000029
 30
0.0
 40
15.0
 50
180.0
 51
0.0
  0
ARC
  5
125AF
  8
0
  6
BYBLOCK
 62
     0
 10
22734.010092585158
 20
9389.1900500000029
 30
0.0
 40
15.0
 50
0.0
 51
180.0
  0
ARC
  5
125B0
  8
0
  6
BYBLOCK
 62
     0
 10
19731.010092585158
 20
9389.1900500000029
 30
0.0
 40
15.0
 50
0.0
 51
180.0
  0
ARC
  5
125B1
  8
0
  6
BYBLOCK
 62
     0
 10
19731.010092585158
 20
9389.1900500000029
 30
0.0
 40
15.0
 50
180.0
 51
0.0
  0
ARC
  5
125B2
  8
0
  6
BYBLOCK
 62
     0
 10
18523.50745358516
 20
6241.1883740000021
 30
0.0
 40
15.0
 50
90.0
 51
270.0
  0
ARC
  5
125B3
  8
0
  6
BYBLOCK
 62
     0
 10
18523.50745358516
 20
6241.1883740000021
 30
0.0
 40
15.0
 50
270.0
 51
90.0
  0
ARC
  5
125B4
  8
0
  6
BYBLOCK
 62
     0
 10
18523.50745358516
 20
8589.6883999999973
 30
0.0
 40
15.0
 50
270.0
 51
90.0
  0
ARC
  5
125B5
  8
0
  6
BYBLOCK
 62
     0
 10
18523.50745358516
 20
8589.6883999999973
 30
0.0
 40
15.0
 50
90.0
 51
270.0
  0
ARC
  5
125B6
  8
0
  6
BYBLOCK
 62
     0
 10
18923.506793585158
 20
6241.1883740000021
 30
0.0
 40
15.0
 50
90.0
 51
270.0
  0
ARC
  5
125B7
  8
0
  6
BYBLOCK
 62
     0
 10
18923.506793585158
 20
6241.1883740000021
 30
0.0
 40
15.0
 50
270.0
 51
90.0
  0
ARC
  5
125B8
  8
0
  6
BYBLOCK
 62
     0
 10
18923.506793585158
 20
8132.6883740000021
 30
0.0
 40
15.0
 50
270.0
 51
90.0
  0
ARC
  5
125B9
  8
0
  6
BYBLOCK
 62
     0
 10
18923.506793585158
 20
8132.6883740000021
 30
0.0
 40
15.0
 50
90.0
 51
270.0
  0
ARC
  5
125BA
  8
0
  6
BYBLOCK
 62
     0
 10
22737.010092585158
 20
5341.188374000003
 30
0.0
 40
15.0
 50
0.0
 51
180.0
  0
ARC
  5
125BB
  8
0
  6
BYBLOCK
 62
     0
 10
22737.010092585158
 20
5341.188374000003
 30
0.0
 40
15.0
 50
180.0
 51
0.0
  0
ARC
  5
125BC
  8
0
  6
BYBLOCK
 62
     0
 10
25449.010092585158
 20
5341.188374000003
 30
0.0
 40
15.0
 50
180.0
 51
0.0
  0
ARC
  5
125BD
  8
0
  6
BYBLOCK
 62
     0
 10
25449.010092585158
 20
5341.188374000003
 30
0.0
 40
15.0
 50
0.0
 51
180.0
  0
ARC
  5
125BE
  8
0
  6
BYBLOCK
 62
     0
 10
19731.05004553268
 20
4541.1887040000556
 30
0.0
 40
15.0
 50
0.0
 51
180.0
  0
ARC
  5
125BF
  8
0
  6
BYBLOCK
 62
     0
 10
19731.05004553268
 20
4541.1887040000556
 30
0.0
 40
15.0
 50
180.0
 51
0.0
  0
ARC
  5
125C0
  8
0
  6
BYBLOCK
 62
     0
 10
25534.010092585158
 20
4541.1887040000556
 30
0.0
 40
15.0
 50
180.0
 51
0.0
  0
ARC
  5
125C1
  8
0
  6
BYBLOCK
 62
     0
 10
25534.010092585158
 20
4541.1887040000556
 30
0.0
 40
15.0
 50
0.0
 51
180.0
  0
ARC
  5
125C2
  8
0
  6
BYBLOCK
 62
     0
 10
19773.510092585158
 20
4941.1885390000016
 30
0.0
 40
15.0
 50
0.0
 51
180.0
  0
ARC
  5
125C3
  8
0
  6
BYBLOCK
 62
     0
 10
19773.510092585158
 20
4941.1885390000016
 30
0.0
 40
15.0
 50
180.0
 51
0.0
  0
ARC
  5
125C4
  8
0
  6
BYBLOCK
 62
     0
 10
19731.05004553268
 20
4941.1885390000016
 30
0.0
 40
15.0
 50
180.0
 51
0.0
  0
ARC
  5
125C5
  8
0
  6
BYBLOCK
 62
     0
 10
19731.05004553268
 20
4941.1885390000016
 30
0.0
 40
15.0
 50
0.0
 51
180.0
  0
ARC
  5
125C6
  8
0
  6
BYBLOCK
 62
     0
 10
22691.510092585158
 20
4941.1885390000016
 30
0.0
 40
15.0
 50
180.0
 51
0.0
  0
ARC
  5
125C7
  8
0
  6
BYBLOCK
 62
     0
 10
22691.510092585158
 20
4941.1885390000016
 30
0.0
 40
15.0
 50
0.0
 51
180.0
  0
ARC
  5
125C8
  8
0
  6
BYBLOCK
 62
     0
 10
19773.510092585158
 20
4941.1885390000016
 30
0.0
 40
15.0
 50
0.0
 51
180.0
  0
ARC
  5
125C9
  8
0
  6
BYBLOCK
 62
     0
 10
19773.510092585158
 20
4941.1885390000016
 30
0.0
 40
15.0
 50
180.0
 51
0.0
  0
ARC
  5
125CA
  8
0
  6
BYBLOCK
 62
     0
 10
19867.510092585158
 20
5341.188374000003
 30
0.0
 40
15.0
 50
0.0
 51
180.0
  0
ARC
  5
125CB
  8
0
  6
BYBLOCK
 62
     0
 10
19867.510092585158
 20
5341.188374000003
 30
0.0
 40
15.0
 50
180.0
 51
0.0
  0
ARC
  5
125CC
  8
0
  6
BYBLOCK
 62
     0
 10
22597.510092585158
 20
5341.188374000003
 30
0.0
 40
15.0
 50
180.0
 51
0.0
  0
ARC
  5
125CD
  8
0
  6
BYBLOCK
 62
     0
 10
22597.510092585158
 20
5341.188374000003
 30
0.0
 40
15.0
 50
0.0
 51
180.0
  0
ARC
  5
125CE
  8
0
  6
BYBLOCK
 62
     0
 10
25491.510092585158
 20
4941.1885390000016
 30
0.0
 40
15.0
 50
180.0
 51
0.0
  0
ARC
  5
125CF
  8
0
  6
BYBLOCK
 62
     0
 10
25491.510092585158
 20
4941.1885390000016
 30
0.0
 40
15.0
 50
0.0
 51
180.0
  0
ARC
  5
125D0
  8
0
  6
BYBLOCK
 62
     0
 10
25534.010092585158
 20
4941.1885390000016
 30
0.0
 40
15.0
 50
0.0
 51
180.0
  0
ARC
  5
125D1
  8
0
  6
BYBLOCK
 62
     0
 10
25534.010092585158
 20
4941.1885390000016
 30
0.0
 40
15.0
 50
180.0
 51
0.0
  0
ARC
  5
125D2
  8
0
  6
BYBLOCK
 62
     0
 10
22691.510092585158
 20
4941.1885390000016
 30
0.0
 40
15.0
 50
0.0
 51
180.0
  0
ARC
  5
125D3
  8
0
  6
BYBLOCK
 62
     0
 10
22691.510092585158
 20
4941.1885390000016
 30
0.0
 40
15.0
 50
180.0
 51
0.0
  0
ARC
  5
125D4
  8
0
  6
BYBLOCK
 62
     0
 10
25491.510092585158
 20
4941.1885390000016
 30
0.0
 40
15.0
 50
180.0
 51
0.0
  0
ARC
  5
125D5
  8
0
  6
BYBLOCK
 62
     0
 10
25491.510092585158
 20
4941.1885390000016
 30
0.0
 40
15.0
 50
0.0
 51
180.0
  0
ARC
  5
125D6
  8
0
  6
BYBLOCK
 62
     0
 10
22734.010092585158
 20
9389.1900500000029
 30
0.0
 40
15.0
 50
0.0
 51
180.0
  0
ARC
  5
125D7
  8
0
  6
BYBLOCK
 62
     0
 10
22734.010092585158
 20
9389.1900500000029
 30
0.0
 40
15.0
 50
180.0
 51
0.0
  0
ARC
  5
125D8
  8
0
  6
BYBLOCK
 62
     0
 10
25534.010092585158
 20
9389.1900500000029
 30
0.0
 40
15.0
 50
180.0
 51
0.0
  0
ARC
  5
125D9
  8
0
  6
BYBLOCK
 62
     0
 10
25534.010092585158
 20
9389.1900500000029
 30
0.0
 40
15.0
 50
0.0
 51
180.0
  0
ARC
  5
125DA
  8
0
  6
BYBLOCK
 62
     0
 10
26618.83249087954
 20
6241.1883740000021
 30
0.0
 40
15.0
 50
90.0
 51
270.0
  0
ARC
  5
125DB
  8
0
  6
BYBLOCK
 62
     0
 10
26618.83249087954
 20
6241.1883740000021
 30
0.0
 40
15.0
 50
270.0
 51
90.0
  0
ARC
  5
125DC
  8
0
  6
BYBLOCK
 62
     0
 10
26618.832490879551
 20
8261.1883740000048
 30
0.0
 40
15.0
 50
270.0
 51
90.0
  0
ARC
  5
125DD
  8
0
  6
BYBLOCK
 62
     0
 10
26618.832490879551
 20
8261.1883740000048
 30
0.0
 40
15.0
 50
90.0
 51
270.0
  0
TEXT
  5
126B4
  8
NAME
 10
21595.82616625919
 20
1076.6369801169251
 30
0.0
 40
360.0
  1
VGCU-3055（H）+VKCU-2855（H）型-R（単棟）
 41
0.4200000000000001
  0
TEXT
  5
126B6
  8
NAME
 10
21933.552716389011
 20
1876.0
 30
0.0
 40
360.0
  1
ヨドガレージ ラヴィージュ
 41
0.75
  7
01
  0
LINE
  5
126B7
  8
NAME
  6
CONTINUOUS
 10
26067.886878884299
 20
2236.0
 30
0.0
 11
26067.886878884299
 21
1876.0
 31
0.0
  0
LINE
  5
126B8
  8
NAME
  6
CONTINUOUS
 10
26167.886878884299
 20
2236.0
 30
0.0
 11
26167.886878884299
 21
1876.0
 31
0.0
  0
LINE
  5
126B9
  8
NAME
  6
CONTINUOUS
 10
26267.88687888431
 20
2236.0
 30
0.0
 11
26267.88687888431
 21
1876.0
 31
0.0
  0
LINE
  5
126BA
  8
NAME
  6
CONTINUOUS
 10
26007.886878884299
 20
2236.0
 30
0.0
 11
26327.886878884299
 21
2236.0
 31
0.0
  0
LINE
  5
126BB
  8
NAME
  6
CONTINUOUS
 10
26327.886878884299
 20
1876.0
 30
0.0
 11
26007.886878884299
 21
1876.0
 31
0.0
  0
LINE
  5
12BE6
  8
2-0
  6
CENTER2
 62
     6
 10
22712.511953585141
 20
20960.488495000009
 30
0.0
 11
22712.511953585141
 21
13474.73237353158
 31
0.0
  0
LINE
  5
12BE9
  8
2-0
  6
CENTER2
 62
     6
 10
19794.511953585141
 20
20960.488495000009
 30
0.0
 11
19794.511953585141
 21
13474.73237353158
 31
0.0
  0
LINE
  5
12E7C
  8
2-0
  6
CONTINUOUS
 62
     6
 10
21477.670869585141
 20
13192.48513000001
 30
0.0
 11
20477.677467585181
 21
13192.48513000001
 31
0.0
  0
LINE
  5
12E7D
  8
2-0
  6
CONTINUOUS
 62
     6
 10
20009.737090585139
 20
13662.90584400001
 30
0.0
 11
20477.677467585181
 21
13192.48513000001
 31
0.0
  0
LINE
  5
12E7E
  8
2-0
  6
CONTINUOUS
 62
     6
 10
21460.95977358516
 20
17871.605195000011
 30
0.0
 11
20442.984425585149
 21
17871.605195000011
 31
0.0
  0
LINE
  5
12E7F
  8
2-0
  6
CONTINUOUS
 62
     6
 10
19986.55890758516
 20
18096.320144000001
 30
0.0
 11
20442.984425585149
 21
17871.605195000011
 31
0.0
  0
LINE
  5
12E80
  8
2-0
  6
CONTINUOUS
 62
     6
 10
20048.377293585159
 20
16854.51349100002
 30
0.0
 11
20353.072711585151
 21
16958.167022000031
 31
0.0
  0
LINE
  5
12E81
  8
2-0
  6
CONTINUOUS
 62
     6
 10
19893.355254585171
 20
16364.891447000031
 30
0.0
 11
20353.072711585151
 21
16120.978136000011
 31
0.0
  0
LINE
  5
12E82
  8
2-0
  6
CONTINUOUS
 62
     6
 10
21273.07574658516
 20
16120.978136000011
 30
0.0
 11
20353.072711585151
 21
16120.978136000011
 31
0.0
  0
LINE
  5
12E83
  8
2-0
  6
CONTINUOUS
 62
     6
 10
21553.066773585138
 20
16958.167022000031
 30
0.0
 11
20353.072711585151
 21
16958.167022000031
 31
0.0
  0
LINE
  5
12E84
  8
2-0
  6
CONTINUOUS
 62
     6
 10
19977.177969585151
 20
13984.58949
 30
0.0
 11
20353.072711585151
 21
14165.533325000009
 31
0.0
  0
LINE
  5
12E85
  8
2-0
  6
CONTINUOUS
 62
     6
 10
21460.95977358516
 20
14953.842737000021
 30
0.0
 11
20442.984425585149
 21
14953.842737000021
 31
0.0
  0
LINE
  5
12E86
  8
2-0
  6
CONTINUOUS
 62
     6
 10
20873.07442758515
 20
14165.533325000009
 30
0.0
 11
20353.072711585151
 21
14165.533325000009
 31
0.0
  0
LINE
  5
12E87
  8
2-0
  6
CONTINUOUS
 62
     6
 10
19986.55890758516
 20
15178.55570700003
 30
0.0
 11
20442.984425585149
 21
14953.842737000021
 31
0.0
  0
LINE
  5
12E88
  8
2-0
  6
CONTINUOUS
 62
     3
 10
22725.012613585139
 20
19251.48432600002
 30
0.0
 11
22725.012613585139
 21
19245.488364000019
 31
0.0
  0
LINE
  5
12E89
  8
2-0
  6
CONTINUOUS
 62
     3
 10
22725.012613585139
 20
19245.488364000019
 30
0.0
 11
22755.010237585138
 21
19245.488364000019
 31
0.0
  0
LINE
  5
12E8A
  8
2-0
  6
CONTINUOUS
 62
     3
 10
22755.010237585138
 20
19275.487968000001
 30
0.0
 11
22674.008337585139
 21
19275.487968000001
 31
0.0
  0
LINE
  5
12E8B
  8
2-0
  6
CONTINUOUS
 62
     3
 10
22725.012613585139
 20
19235.190908000011
 30
0.0
 11
22755.010237585138
 21
19235.190908000011
 31
0.0
  0
LINE
  5
12E8C
  8
2-0
  6
CONTINUOUS
 62
     3
 10
22725.012613585139
 20
19253.19265000003
 30
0.0
 11
22725.012613585139
 21
19235.190908000011
 31
0.0
  0
LINE
  5
12E8D
  8
2-0
  6
CONTINUOUS
 62
     3
 10
22750.00997358514
 20
19253.19265000003
 30
0.0
 11
22725.012613585139
 21
19253.19265000003
 31
0.0
  0
LINE
  5
12E8E
  8
2-0
  6
CONTINUOUS
 62
     3
 10
22750.00997358514
 20
19248.184468000021
 30
0.0
 11
22750.00997358514
 21
19253.19265000003
 31
0.0
  0
LINE
  5
12E8F
  8
2-0
  6
CONTINUOUS
 62
     3
 10
22743.008416585159
 20
19248.184468000021
 30
0.0
 11
22750.00997358514
 21
19248.184468000021
 31
0.0
  0
LINE
  5
12E90
  8
2-0
  6
CONTINUOUS
 62
     3
 10
22642.712148585149
 20
19348.48469500001
 30
0.0
 11
22642.712148585149
 21
19355.490211000018
 31
0.0
  0
LINE
  5
12E91
  8
2-0
  6
CONTINUOUS
 62
     3
 10
22642.712148585149
 20
19355.490211000018
 30
0.0
 11
22647.71241258513
 21
19355.490211000018
 31
0.0
  0
LINE
  5
12E92
  8
2-0
  6
CONTINUOUS
 62
     3
 10
22647.71241258513
 20
19355.490211000018
 30
0.0
 11
22647.71241258513
 21
19330.48097400002
 31
0.0
  0
LINE
  5
12E93
  8
2-0
  6
CONTINUOUS
 62
     3
 10
22647.71241258513
 20
19330.48097400002
 30
0.0
 11
22629.710670585129
 21
19330.48097400002
 31
0.0
  0
LINE
  5
12E94
  8
2-0
  6
CONTINUOUS
 62
     3
 10
22629.710670585129
 20
19330.48097400002
 30
0.0
 11
22629.710670585129
 21
19360.484537000018
 31
0.0
  0
LINE
  5
12E95
  8
2-0
  6
CONTINUOUS
 62
     3
 10
22640.008126585151
 20
19360.484537000018
 30
0.0
 11
22755.010237585138
 21
19360.484537000018
 31
0.0
  0
LINE
  5
12E96
  8
2-0
  6
CONTINUOUS
 62
     3
 10
22640.008126585151
 20
19330.48097400002
 30
0.0
 11
22640.008126585151
 21
19360.484537000018
 31
0.0
  0
LINE
  5
12E97
  8
2-0
  6
CONTINUOUS
 62
     3
 10
22646.010026585151
 20
19330.48097400002
 30
0.0
 11
22640.008126585151
 21
19330.48097400002
 31
0.0
  0
LINE
  5
12E98
  8
2-0
  6
CONTINUOUS
 62
     3
 10
22743.008416585159
 20
18894.887645499999
 30
0.0
 11
22750.00997358514
 21
18894.887645499999
 31
0.0
  0
LINE
  5
12E99
  8
2-0
  6
CONTINUOUS
 62
     3
 10
22750.00997358514
 20
18894.887645499999
 30
0.0
 11
22750.00997358514
 21
18899.887909500001
 31
0.0
  0
LINE
  5
12E9A
  8
2-0
  6
CONTINUOUS
 62
     3
 10
22750.00997358514
 20
18899.887909500001
 30
0.0
 11
22725.012613585139
 21
18899.887909500001
 31
0.0
  0
LINE
  5
12E9B
  8
2-0
  6
CONTINUOUS
 62
     3
 10
22725.012613585139
 20
18899.887909500001
 30
0.0
 11
22725.012613585139
 21
18881.89210550001
 31
0.0
  0
LINE
  5
12E9C
  8
2-0
  6
CONTINUOUS
 62
     3
 10
22725.012613585139
 20
18881.89210550001
 30
0.0
 11
22755.010237585138
 21
18881.89210550001
 31
0.0
  0
LINE
  5
12E9D
  8
2-0
  6
CONTINUOUS
 62
     3
 10
22725.012613585139
 20
18897.983612499971
 30
0.0
 11
22725.012613585139
 21
18891.98567150001
 31
0.0
  0
LINE
  5
12E9E
  8
2-0
  6
CONTINUOUS
 62
     3
 10
22725.012613585139
 20
18891.98567150001
 30
0.0
 11
22755.010237585138
 21
18891.98567150001
 31
0.0
  0
LINE
  5
12E9F
  8
2-0
  6
CONTINUOUS
 62
     3
 10
22755.010237585138
 20
18891.98567150001
 30
0.0
 11
22755.010237585138
 21
18928.98683250001
 31
0.0
  0
LINE
  5
12EA0
  8
2-0
  6
CONTINUOUS
 62
     3
 10
22725.012613585139
 20
18928.98683250001
 30
0.0
 11
22755.010237585138
 21
18928.98683250001
 31
0.0
  0
LINE
  5
12EA1
  8
2-0
  6
CONTINUOUS
 62
     3
 10
22725.012613585139
 20
18922.982952499991
 30
0.0
 11
22725.012613585139
 21
18928.98683250001
 31
0.0
  0
LINE
  5
12EA2
  8
2-0
  6
CONTINUOUS
 62
     3
 10
22725.012613585139
 20
18939.082377499999
 30
0.0
 11
22755.010237585138
 21
18939.082377499999
 31
0.0
  0
LINE
  5
12EA3
  8
2-0
  6
CONTINUOUS
 62
     3
 10
22725.012613585139
 20
18921.080635499999
 30
0.0
 11
22725.012613585139
 21
18939.082377499999
 31
0.0
  0
LINE
  5
12EA4
  8
2-0
  6
CONTINUOUS
 62
     3
 10
22750.00997358514
 20
18921.080635499999
 30
0.0
 11
22725.012613585139
 21
18921.080635499999
 31
0.0
  0
LINE
  5
12EA5
  8
2-0
  6
CONTINUOUS
 62
     3
 10
22750.00997358514
 20
18926.080899500012
 30
0.0
 11
22750.00997358514
 21
18921.080635499999
 31
0.0
  0
LINE
  5
12EA6
  8
2-0
  6
CONTINUOUS
 62
     3
 10
22743.008416585159
 20
18926.080899500012
 30
0.0
 11
22750.00997358514
 21
18926.080899500012
 31
0.0
  0
LINE
  5
12EA7
  8
2-0
  6
CONTINUOUS
 62
     3
 10
22743.008416585159
 20
18193.88665600001
 30
0.0
 11
22750.00997358514
 21
18193.88665600001
 31
0.0
  0
LINE
  5
12EA8
  8
2-0
  6
CONTINUOUS
 62
     3
 10
22750.00997358514
 20
18193.88665600001
 30
0.0
 11
22750.00997358514
 21
18198.89285800001
 31
0.0
  0
LINE
  5
12EA9
  8
2-0
  6
CONTINUOUS
 62
     3
 10
22750.00997358514
 20
18198.89285800001
 30
0.0
 11
22725.012613585139
 21
18198.89285800001
 31
0.0
  0
LINE
  5
12EAA
  8
2-0
  6
CONTINUOUS
 62
     3
 10
22725.012613585139
 20
18198.89285800001
 30
0.0
 11
22725.012613585139
 21
18180.89111600001
 31
0.0
  0
LINE
  5
12EAB
  8
2-0
  6
CONTINUOUS
 62
     3
 10
22725.012613585139
 20
18180.89111600001
 30
0.0
 11
22755.010237585138
 21
18180.89111600001
 31
0.0
  0
LINE
  5
12EAC
  8
2-0
  6
CONTINUOUS
 62
     3
 10
22725.012613585139
 20
18196.982623
 30
0.0
 11
22725.012613585139
 21
18190.98666100001
 31
0.0
  0
LINE
  5
12EAD
  8
2-0
  6
CONTINUOUS
 62
     3
 10
22725.012613585139
 20
18190.98666100001
 30
0.0
 11
22755.010237585138
 21
18190.98666100001
 31
0.0
  0
LINE
  5
12EAE
  8
2-0
  6
CONTINUOUS
 62
     3
 10
22755.010237585138
 20
18190.98666100001
 30
0.0
 11
22755.010237585138
 21
18227.985842999999
 31
0.0
  0
LINE
  5
12EAF
  8
2-0
  6
CONTINUOUS
 62
     3
 10
22725.012613585139
 20
18227.985842999999
 30
0.0
 11
22755.010237585138
 21
18227.985842999999
 31
0.0
  0
LINE
  5
12EB0
  8
2-0
  6
CONTINUOUS
 62
     3
 10
22725.012613585139
 20
18221.98988100002
 30
0.0
 11
22725.012613585139
 21
18227.985842999999
 31
0.0
  0
LINE
  5
12EB1
  8
2-0
  6
CONTINUOUS
 62
     3
 10
22725.012613585139
 20
18238.08138800001
 30
0.0
 11
22755.010237585138
 21
18238.08138800001
 31
0.0
  0
LINE
  5
12EB2
  8
2-0
  6
CONTINUOUS
 62
     3
 10
22725.012613585139
 20
18220.079645999998
 30
0.0
 11
22725.012613585139
 21
18238.08138800001
 31
0.0
  0
LINE
  5
12EB3
  8
2-0
  6
CONTINUOUS
 62
     3
 10
22750.00997358514
 20
18220.079645999998
 30
0.0
 11
22725.012613585139
 21
18220.079645999998
 31
0.0
  0
LINE
  5
12EB4
  8
2-0
  6
CONTINUOUS
 62
     3
 10
22750.00997358514
 20
18225.08584800001
 30
0.0
 11
22750.00997358514
 21
18220.079645999998
 31
0.0
  0
LINE
  5
12EB5
  8
2-0
  6
CONTINUOUS
 62
     3
 10
22743.008416585159
 20
18225.08584800001
 30
0.0
 11
22750.00997358514
 21
18225.08584800001
 31
0.0
  0
LINE
  5
12EB6
  8
2-0
  6
CONTINUOUS
 62
     3
 10
22743.008416585159
 20
17524.079910000011
 30
0.0
 11
22750.00997358514
 21
17524.079910000011
 31
0.0
  0
LINE
  5
12EB7
  8
2-0
  6
CONTINUOUS
 62
     3
 10
22750.00997358514
 20
17524.079910000011
 30
0.0
 11
22750.00997358514
 21
17519.091523000021
 31
0.0
  0
LINE
  5
12EB8
  8
2-0
  6
CONTINUOUS
 62
     3
 10
22750.00997358514
 20
17519.091523000021
 30
0.0
 11
22725.012613585139
 21
17519.091523000021
 31
0.0
  0
LINE
  5
12EB9
  8
2-0
  6
CONTINUOUS
 62
     3
 10
22725.012613585139
 20
17519.091523000021
 30
0.0
 11
22725.012613585139
 21
17537.087326000012
 31
0.0
  0
LINE
  5
12EBA
  8
2-0
  6
CONTINUOUS
 62
     3
 10
22725.012613585139
 20
17537.087326000012
 30
0.0
 11
22755.010237585138
 21
17537.087326000012
 31
0.0
  0
LINE
  5
12EBB
  8
2-0
  6
CONTINUOUS
 62
     3
 10
22725.012613585139
 20
17520.989881000001
 30
0.0
 11
22725.012613585139
 21
17526.985842999999
 31
0.0
  0
LINE
  5
12EBC
  8
2-0
  6
CONTINUOUS
 62
     3
 10
22725.012613585139
 20
17526.985842999999
 30
0.0
 11
22755.010237585138
 21
17526.985842999999
 31
0.0
  0
LINE
  5
12EBD
  8
2-0
  6
CONTINUOUS
 62
     3
 10
22755.010237585138
 20
17526.985842999999
 30
0.0
 11
22755.010237585138
 21
17489.986661000021
 31
0.0
  0
LINE
  5
12EBE
  8
2-0
  6
CONTINUOUS
 62
     3
 10
22725.012613585139
 20
17489.986661000021
 30
0.0
 11
22755.010237585138
 21
17489.986661000021
 31
0.0
  0
LINE
  5
12EBF
  8
2-0
  6
CONTINUOUS
 62
     3
 10
22725.012613585139
 20
17495.988561999999
 30
0.0
 11
22725.012613585139
 21
17489.986661000021
 31
0.0
  0
LINE
  5
12EC0
  8
2-0
  6
CONTINUOUS
 62
     3
 10
22725.012613585139
 20
17479.897055000001
 30
0.0
 11
22755.010237585138
 21
17479.897055000001
 31
0.0
  0
LINE
  5
12EC1
  8
2-0
  6
CONTINUOUS
 62
     3
 10
22725.012613585139
 20
17497.89285800001
 30
0.0
 11
22725.012613585139
 21
17479.897055000001
 31
0.0
  0
LINE
  5
12EC2
  8
2-0
  6
CONTINUOUS
 62
     3
 10
22750.00997358514
 20
17497.89285800001
 30
0.0
 11
22725.012613585139
 21
17497.89285800001
 31
0.0
  0
LINE
  5
12EC3
  8
2-0
  6
CONTINUOUS
 62
     3
 10
22750.00997358514
 20
17492.892595000001
 30
0.0
 11
22750.00997358514
 21
17497.89285800001
 31
0.0
  0
LINE
  5
12EC4
  8
2-0
  6
CONTINUOUS
 62
     3
 10
22743.008416585159
 20
17492.892595000001
 30
0.0
 11
22750.00997358514
 21
17492.892595000001
 31
0.0
  0
LINE
  5
12EC5
  8
2-0
  6
CONTINUOUS
 62
     3
 10
22752.124099585159
 20
16772.98348100001
 30
0.0
 11
22752.124099585159
 21
16792.984536000011
 31
0.0
  0
LINE
  5
12EC6
  8
2-0
  6
CONTINUOUS
 62
     3
 10
22752.124099585159
 20
16792.984536000011
 30
0.0
 11
22667.12753058513
 21
16792.984536000011
 31
0.0
  0
LINE
  5
12EC7
  8
2-0
  6
CONTINUOUS
 62
     3
 10
22743.008416585159
 20
16819.591246000022
 30
0.0
 11
22750.00997358514
 21
16819.591246000022
 31
0.0
  0
LINE
  5
12EC8
  8
2-0
  6
CONTINUOUS
 62
     3
 10
22750.00997358514
 20
16819.591246000022
 30
0.0
 11
22750.00997358514
 21
16814.596920000022
 31
0.0
  0
LINE
  5
12EC9
  8
2-0
  6
CONTINUOUS
 62
     3
 10
22750.00997358514
 20
16814.596920000022
 30
0.0
 11
22725.012613585139
 21
16814.596920000022
 31
0.0
  0
LINE
  5
12ECA
  8
2-0
  6
CONTINUOUS
 62
     3
 10
22725.012613585139
 20
16814.596920000022
 30
0.0
 11
22725.012613585139
 21
16832.592724000009
 31
0.0
  0
LINE
  5
12ECB
  8
2-0
  6
CONTINUOUS
 62
     3
 10
22725.012613585139
 20
16832.592724000009
 30
0.0
 11
22755.010237585138
 21
16832.592724000009
 31
0.0
  0
LINE
  5
12ECC
  8
2-0
  6
CONTINUOUS
 62
     3
 10
22725.012613585139
 20
16822.98414
 30
0.0
 11
22725.012613585139
 21
16816.982240000001
 31
0.0
  0
LINE
  5
12ECD
  8
2-0
  6
CONTINUOUS
 62
     3
 10
22755.010237585138
 20
16822.98414
 30
0.0
 11
22725.012613585139
 21
16822.98414
 31
0.0
  0
LINE
  5
12ECE
  8
2-0
  6
CONTINUOUS
 62
     3
 10
22755.010237585138
 20
16832.592724000009
 30
0.0
 11
22755.010237585138
 21
17479.897055000001
 31
0.0
  0
LINE
  5
12ECF
  8
2-0
  6
CONTINUOUS
 62
     3
 10
22755.010237585138
 20
17537.087326000012
 30
0.0
 11
22755.010237585138
 21
18180.89111600001
 31
0.0
  0
LINE
  5
12ED0
  8
2-0
  6
CONTINUOUS
 62
     3
 10
22755.010237585138
 20
16677.98242500002
 30
0.0
 11
22725.012613585139
 21
16677.98242500002
 31
0.0
  0
LINE
  5
12ED1
  8
2-0
  6
CONTINUOUS
 62
     3
 10
22725.012613585139
 20
16677.98242500002
 30
0.0
 11
22725.012613585139
 21
16683.984325000001
 31
0.0
  0
LINE
  5
12ED2
  8
2-0
  6
CONTINUOUS
 62
     3
 10
22667.12753058513
 20
16707.987968000001
 30
0.0
 11
22752.124099585159
 21
16707.987968000001
 31
0.0
  0
LINE
  5
12ED3
  8
2-0
  6
CONTINUOUS
 62
     3
 10
22752.124099585159
 20
16707.987968000001
 30
0.0
 11
22752.124099585159
 21
16727.983085000011
 31
0.0
  0
LINE
  5
12ED4
  8
2-0
  6
CONTINUOUS
 62
     3
 10
22725.012613585139
 20
16668.373842000012
 30
0.0
 11
22755.010237585138
 21
16668.373842000012
 31
0.0
  0
LINE
  5
12ED5
  8
2-0
  6
CONTINUOUS
 62
     3
 10
22725.012613585139
 20
16686.369644999992
 30
0.0
 11
22725.012613585139
 21
16668.373842000012
 31
0.0
  0
LINE
  5
12ED6
  8
2-0
  6
CONTINUOUS
 62
     3
 10
22750.00997358514
 20
16686.369644999992
 30
0.0
 11
22725.012613585139
 21
16686.369644999992
 31
0.0
  0
LINE
  5
12ED7
  8
2-0
  6
CONTINUOUS
 62
     3
 10
22750.00997358514
 20
16681.369381000019
 30
0.0
 11
22750.00997358514
 21
16686.369644999992
 31
0.0
  0
LINE
  5
12ED8
  8
2-0
  6
CONTINUOUS
 62
     3
 10
22743.008416585159
 20
16681.369381000019
 30
0.0
 11
22750.00997358514
 21
16681.369381000019
 31
0.0
  0
LINE
  5
12ED9
  8
2-0
  6
CONTINUOUS
 62
     3
 10
22743.008416585159
 20
15976.88715049999
 30
0.0
 11
22750.00997358514
 21
15976.88715049999
 31
0.0
  0
LINE
  5
12EDA
  8
2-0
  6
CONTINUOUS
 62
     3
 10
22750.00997358514
 20
15976.88715049999
 30
0.0
 11
22750.00997358514
 21
15981.887414500001
 31
0.0
  0
LINE
  5
12EDB
  8
2-0
  6
CONTINUOUS
 62
     3
 10
22750.00997358514
 20
15981.887414500001
 30
0.0
 11
22725.012613585139
 21
15981.887414500001
 31
0.0
  0
LINE
  5
12EDC
  8
2-0
  6
CONTINUOUS
 62
     3
 10
22725.012613585139
 20
15981.887414500001
 30
0.0
 11
22725.012613585139
 21
15963.88567250001
 31
0.0
  0
LINE
  5
12EDD
  8
2-0
  6
CONTINUOUS
 62
     3
 10
22725.012613585139
 20
15963.88567250001
 30
0.0
 11
22755.010237585138
 21
15963.88567250001
 31
0.0
  0
LINE
  5
12EDE
  8
2-0
  6
CONTINUOUS
 62
     3
 10
22725.012613585139
 20
15979.983117500011
 30
0.0
 11
22725.012613585139
 21
15973.98616650001
 31
0.0
  0
LINE
  5
12EDF
  8
2-0
  6
CONTINUOUS
 62
     3
 10
22725.012613585139
 20
15973.98616650001
 30
0.0
 11
22755.010237585138
 21
15973.98616650001
 31
0.0
  0
LINE
  5
12EE0
  8
2-0
  6
CONTINUOUS
 62
     3
 10
22755.010237585138
 20
15973.98616650001
 30
0.0
 11
22755.010237585138
 21
16010.98633750001
 31
0.0
  0
LINE
  5
12EE1
  8
2-0
  6
CONTINUOUS
 62
     3
 10
22725.012613585139
 20
16010.98633750001
 30
0.0
 11
22755.010237585138
 21
16010.98633750001
 31
0.0
  0
LINE
  5
12EE2
  8
2-0
  6
CONTINUOUS
 62
     3
 10
22725.012613585139
 20
16004.983447500001
 30
0.0
 11
22725.012613585139
 21
16010.98633750001
 31
0.0
  0
LINE
  5
12EE3
  8
2-0
  6
CONTINUOUS
 62
     3
 10
22725.012613585139
 20
16021.08188250001
 30
0.0
 11
22755.010237585138
 21
16021.08188250001
 31
0.0
  0
LINE
  5
12EE4
  8
2-0
  6
CONTINUOUS
 62
     3
 10
22725.012613585139
 20
16003.074201500011
 30
0.0
 11
22725.012613585139
 21
16021.08188250001
 31
0.0
  0
LINE
  5
12EE5
  8
2-0
  6
CONTINUOUS
 62
     3
 10
22750.00997358514
 20
16003.074201500011
 30
0.0
 11
22725.012613585139
 21
16003.074201500011
 31
0.0
  0
LINE
  5
12EE6
  8
2-0
  6
CONTINUOUS
 62
     3
 10
22750.00997358514
 20
16008.08040450001
 30
0.0
 11
22750.00997358514
 21
16003.074201500011
 31
0.0
  0
LINE
  5
12EE7
  8
2-0
  6
CONTINUOUS
 62
     3
 10
22743.008416585159
 20
16008.08040450001
 30
0.0
 11
22750.00997358514
 21
16008.08040450001
 31
0.0
  0
LINE
  5
12EE8
  8
2-0
  6
CONTINUOUS
 62
     3
 10
22743.008416585159
 20
15307.32042100002
 30
0.0
 11
22750.00997358514
 21
15307.32042100002
 31
0.0
  0
LINE
  5
12EE9
  8
2-0
  6
CONTINUOUS
 62
     3
 10
22750.00997358514
 20
15307.32042100002
 30
0.0
 11
22750.00997358514
 21
15302.326096000021
 31
0.0
  0
LINE
  5
12EEA
  8
2-0
  6
CONTINUOUS
 62
     3
 10
22750.00997358514
 20
15302.326096000021
 30
0.0
 11
22725.012613585139
 21
15302.326096000021
 31
0.0
  0
LINE
  5
12EEB
  8
2-0
  6
CONTINUOUS
 62
     3
 10
22725.012613585139
 20
15302.326096000021
 30
0.0
 11
22725.012613585139
 21
15320.32189900002
 31
0.0
  0
LINE
  5
12EEC
  8
2-0
  6
CONTINUOUS
 62
     3
 10
22725.012613585139
 20
15320.32189900002
 30
0.0
 11
22755.010237585138
 21
15320.32189900002
 31
0.0
  0
LINE
  5
12EED
  8
2-0
  6
CONTINUOUS
 62
     3
 10
22725.012613585139
 20
15304.22445400001
 30
0.0
 11
22725.012613585139
 21
15310.22635400002
 31
0.0
  0
LINE
  5
12EEE
  8
2-0
  6
CONTINUOUS
 62
     3
 10
22725.012613585139
 20
15310.22635400002
 30
0.0
 11
22755.010237585138
 21
15310.22635400002
 31
0.0
  0
LINE
  5
12EEF
  8
2-0
  6
CONTINUOUS
 62
     3
 10
22755.010237585138
 20
15273.22717300003
 30
0.0
 11
22755.010237585138
 21
15310.22635400002
 31
0.0
  0
LINE
  5
12EF0
  8
2-0
  6
CONTINUOUS
 62
     3
 10
22725.012613585139
 20
15273.22717300003
 30
0.0
 11
22755.010237585138
 21
15273.22717300003
 31
0.0
  0
LINE
  5
12EF1
  8
2-0
  6
CONTINUOUS
 62
     3
 10
22725.012613585139
 20
15279.22412400002
 30
0.0
 11
22725.012613585139
 21
15273.22717300003
 31
0.0
  0
LINE
  5
12EF2
  8
2-0
  6
CONTINUOUS
 62
     3
 10
22725.012613585139
 20
15263.12568900002
 30
0.0
 11
22755.010237585138
 21
15263.12568900002
 31
0.0
  0
LINE
  5
12EF3
  8
2-0
  6
CONTINUOUS
 62
     3
 10
22725.012613585139
 20
15281.13337000001
 30
0.0
 11
22725.012613585139
 21
15263.12568900002
 31
0.0
  0
LINE
  5
12EF4
  8
2-0
  6
CONTINUOUS
 62
     3
 10
22750.00997358514
 20
15281.13337000001
 30
0.0
 11
22725.012613585139
 21
15281.13337000001
 31
0.0
  0
LINE
  5
12EF5
  8
2-0
  6
CONTINUOUS
 62
     3
 10
22750.00997358514
 20
15276.13310600003
 30
0.0
 11
22750.00997358514
 21
15281.13337000001
 31
0.0
  0
LINE
  5
12EF6
  8
2-0
  6
CONTINUOUS
 62
     3
 10
22743.008416585159
 20
15276.13310600003
 30
0.0
 11
22750.00997358514
 21
15276.13310600003
 31
0.0
  0
LINE
  5
12EF7
  8
2-0
  6
CONTINUOUS
 62
     3
 10
22755.010237585138
 20
16668.373842000012
 30
0.0
 11
22755.010237585138
 21
16021.08188250001
 31
0.0
  0
LINE
  5
12EF8
  8
2-0
  6
CONTINUOUS
 62
     3
 10
22755.010237585138
 20
16822.98414
 30
0.0
 11
22755.010237585138
 21
16677.98242500002
 31
0.0
  0
LINE
  5
12EF9
  8
2-0
  6
CONTINUOUS
 62
     3
 10
22667.12753058513
 20
16792.984536000011
 30
0.0
 11
22667.12753058513
 21
16707.987968000001
 31
0.0
  0
LINE
  5
12EFA
  8
2-0
  6
CONTINUOUS
 62
     6
 10
21378.10504358515
 20
18561.431801499992
 30
0.0
 11
20353.072711585151
 21
18561.431801499992
 31
0.0
  0
LINE
  5
12EFB
  8
2-0
  6
CONTINUOUS
 62
     3
 10
22743.008416585159
 20
14574.89209900001
 30
0.0
 11
22750.00997358514
 21
14574.89209900001
 31
0.0
  0
LINE
  5
12EFC
  8
2-0
  6
CONTINUOUS
 62
     3
 10
22750.00997358514
 20
14574.89209900001
 30
0.0
 11
22750.00997358514
 21
14579.886425000021
 31
0.0
  0
LINE
  5
12EFD
  8
2-0
  6
CONTINUOUS
 62
     3
 10
22750.00997358514
 20
14579.886425000021
 30
0.0
 11
22725.012613585139
 21
14579.886425000021
 31
0.0
  0
LINE
  5
12EFE
  8
2-0
  6
CONTINUOUS
 62
     3
 10
22725.012613585139
 20
14579.886425000021
 30
0.0
 11
22725.012613585139
 21
14561.89062100001
 31
0.0
  0
LINE
  5
12EFF
  8
2-0
  6
CONTINUOUS
 62
     3
 10
22725.012613585139
 20
14561.89062100001
 30
0.0
 11
22755.010237585138
 21
14561.89062100001
 31
0.0
  0
LINE
  5
12F00
  8
2-0
  6
CONTINUOUS
 62
     3
 10
22725.012613585139
 20
14577.98905600002
 30
0.0
 11
22725.012613585139
 21
14571.986166000021
 31
0.0
  0
LINE
  5
12F01
  8
2-0
  6
CONTINUOUS
 62
     3
 10
22725.012613585139
 20
14571.986166000021
 30
0.0
 11
22755.010237585138
 21
14571.986166000021
 31
0.0
  0
LINE
  5
12F02
  8
2-0
  6
CONTINUOUS
 62
     3
 10
22755.010237585138
 20
14571.986166000021
 30
0.0
 11
22755.010237585138
 21
14608.986338000001
 31
0.0
  0
LINE
  5
12F03
  8
2-0
  6
CONTINUOUS
 62
     3
 10
22725.012613585139
 20
14608.986338000001
 30
0.0
 11
22755.010237585138
 21
14608.986338000001
 31
0.0
  0
LINE
  5
12F04
  8
2-0
  6
CONTINUOUS
 62
     3
 10
22725.012613585139
 20
14602.98938600001
 30
0.0
 11
22725.012613585139
 21
14608.986338000001
 31
0.0
  0
LINE
  5
12F05
  8
2-0
  6
CONTINUOUS
 62
     3
 10
22725.012613585139
 20
14619.086831000021
 30
0.0
 11
22755.010237585138
 21
14619.086831000021
 31
0.0
  0
LINE
  5
12F06
  8
2-0
  6
CONTINUOUS
 62
     3
 10
22725.012613585139
 20
14601.08014000002
 30
0.0
 11
22725.012613585139
 21
14619.086831000021
 31
0.0
  0
LINE
  5
12F07
  8
2-0
  6
CONTINUOUS
 62
     3
 10
22750.00997358514
 20
14601.08014000002
 30
0.0
 11
22725.012613585139
 21
14601.08014000002
 31
0.0
  0
LINE
  5
12F08
  8
2-0
  6
CONTINUOUS
 62
     3
 10
22750.00997358514
 20
14606.08535300002
 30
0.0
 11
22750.00997358514
 21
14601.08014000002
 31
0.0
  0
LINE
  5
12F09
  8
2-0
  6
CONTINUOUS
 62
     3
 10
22743.008416585159
 20
14606.08535300002
 30
0.0
 11
22750.00997358514
 21
14606.08535300002
 31
0.0
  0
LINE
  5
12F0A
  8
2-0
  6
CONTINUOUS
 62
     3
 10
22725.012613585139
 20
13898.988179000011
 30
0.0
 11
22725.012613585139
 21
13904.993048000009
 31
0.0
  0
LINE
  5
12F0B
  8
2-0
  6
CONTINUOUS
 62
     3
 10
22725.012613585139
 20
13904.993048000009
 30
0.0
 11
22755.010237585138
 21
13904.993048000009
 31
0.0
  0
LINE
  5
12F0C
  8
2-0
  6
CONTINUOUS
 62
     3
 10
22755.010237585138
 20
13904.993048000009
 30
0.0
 11
22755.010237585138
 21
13789.98895700001
 31
0.0
  0
LINE
  5
12F0D
  8
2-0
  6
CONTINUOUS
 62
     3
 10
22755.010237585138
 20
13789.98895700001
 30
0.0
 11
22670.01168958515
 21
13789.98895700001
 31
0.0
  0
LINE
  5
12F0E
  8
2-0
  6
CONTINUOUS
 62
     3
 10
22670.01168958515
 20
13789.98895700001
 30
0.0
 11
22670.01168958515
 21
13874.984536000011
 31
0.0
  0
LINE
  5
12F0F
  8
2-0
  6
CONTINUOUS
 62
     3
 10
22670.01168958515
 20
13874.984536000011
 30
0.0
 11
22702.01060758514
 21
13874.984536000011
 31
0.0
  0
LINE
  5
12F10
  8
2-0
  6
CONTINUOUS
 62
     3
 10
22743.008416585159
 20
13902.022781000011
 30
0.0
 11
22750.00997358514
 21
13902.022781000011
 31
0.0
  0
LINE
  5
12F11
  8
2-0
  6
CONTINUOUS
 62
     3
 10
22750.00997358514
 20
13902.022781000011
 30
0.0
 11
22750.00997358514
 21
13897.02548599999
 31
0.0
  0
LINE
  5
12F12
  8
2-0
  6
CONTINUOUS
 62
     3
 10
22750.00997358514
 20
13897.02548599999
 30
0.0
 11
22725.012613585139
 21
13897.02548599999
 31
0.0
  0
LINE
  5
12F13
  8
2-0
  6
CONTINUOUS
 62
     3
 10
22725.012613585139
 20
13897.02548599999
 30
0.0
 11
22725.012613585139
 21
13915.024259000011
 31
0.0
  0
LINE
  5
12F14
  8
2-0
  6
CONTINUOUS
 62
     3
 10
22725.012613585139
 20
13915.024259000011
 30
0.0
 11
22755.010237585138
 21
13915.024259000011
 31
0.0
  0
LINE
  5
12F15
  8
2-0
  6
CENTER2
 62
     6
 10
22712.511953585152
 20
13592.491399
 30
0.0
 11
22712.511953585152
 21
14748.36015700003
 31
0.0
  0
LINE
  5
12F16
  8
2-0
  6
CONTINUOUS
 62
     3
 10
22755.010237585138
 20
18238.08138800001
 30
0.0
 11
22755.010237585138
 21
18881.89210550001
 31
0.0
  0
LINE
  5
12F17
  8
2-0
  6
CONTINUOUS
 62
     6
 10
19059.50878658516
 20
20090.487440000041
 30
0.0
 11
17859.51472458518
 21
20090.487440000041
 31
0.0
  0
LINE
  5
12F18
  8
2-0
  6
CONTINUOUS
 62
     6
 10
19921.541619585169
 20
18803.58630950001
 30
0.0
 11
20353.072711585151
 21
18561.431801499992
 31
0.0
  0
LINE
  5
12F19
  8
2-0
  6
CONTINUOUS
 62
     6
 10
19599.972785585182
 20
19503.164277000011
 30
0.0
 11
19059.50878658516
 21
20090.487440000041
 31
0.0
  0
LINE
  5
12F1A
  8
2-0
  6
CONTINUOUS
 62
     3
 10
22664.00583058516
 20
18166.984998
 30
0.0
 11
22711.011478585129
 21
18166.984998
 31
0.0
  0
LINE
  5
12F1B
  8
2-0
  6
CONTINUOUS
 62
     3
 10
22711.011478585129
 20
18251.985526000011
 30
0.0
 11
22664.00583058516
 21
18251.985526000011
 31
0.0
  0
LINE
  5
12F1C
  8
2-0
  6
CONTINUOUS
 62
     3
 10
22711.011478585129
 20
18166.984998
 30
0.0
 11
22711.011478585129
 21
18191.988297000011
 31
0.0
  0
LINE
  5
12F1D
  8
2-0
  6
CONTINUOUS
 62
     3
 10
22711.011478585129
 20
18226.984206000001
 30
0.0
 11
22711.011478585129
 21
18251.985526000011
 31
0.0
  0
LINE
  5
12F1E
  8
2-0
  6
CONTINUOUS
 62
     3
 10
22664.00583058516
 20
18251.985526000011
 30
0.0
 11
22664.00583058516
 21
18166.984998
 31
0.0
  0
LINE
  5
12F1F
  8
2-0
  6
CONTINUOUS
 62
     3
 10
22755.010237585138
 20
15963.88567250001
 30
0.0
 11
22755.010237585138
 21
15320.32189900002
 31
0.0
  0
LINE
  5
12F20
  8
2-0
  6
CONTINUOUS
 62
     3
 10
22664.00583058516
 20
15248.98796800001
 30
0.0
 11
22711.011478585129
 21
15248.98796800001
 31
0.0
  0
LINE
  5
12F21
  8
2-0
  6
CONTINUOUS
 62
     3
 10
22711.011478585129
 20
15333.984536
 30
0.0
 11
22664.00583058516
 21
15333.984536
 31
0.0
  0
LINE
  5
12F22
  8
2-0
  6
CONTINUOUS
 62
     3
 10
22711.011478585129
 20
15248.98796800001
 30
0.0
 11
22711.011478585129
 21
15273.98334900002
 31
0.0
  0
LINE
  5
12F23
  8
2-0
  6
CONTINUOUS
 62
     3
 10
22711.011478585129
 20
15308.983217000021
 30
0.0
 11
22711.011478585129
 21
15333.984536
 31
0.0
  0
LINE
  5
12F24
  8
2-0
  6
CONTINUOUS
 62
     3
 10
22664.00583058516
 20
15333.984536
 30
0.0
 11
22664.00583058516
 21
15248.98796800001
 31
0.0
  0
LINE
  5
12F25
  8
2-0
  6
CONTINUOUS
 62
     6
 10
19934.598524585152
 20
18826.845653500011
 30
0.0
 11
19782.01129358515
 21
18881.89210550001
 31
0.0
  0
LINE
  5
12F26
  8
2-0
  6
CONTINUOUS
 62
     6
 10
19782.01129358515
 20
18881.89210550001
 30
0.0
 11
19908.492633585149
 21
18780.332905499989
 31
0.0
  0
LINE
  5
12F27
  8
2-0
  6
CONTINUOUS
 62
     6
 10
19934.598524585152
 20
18826.845653500011
 30
0.0
 11
19908.492633585149
 21
18780.332905499989
 31
0.0
  0
LINE
  5
12F28
  8
2-0
  6
CONTINUOUS
 62
     6
 10
19908.492633585149
 20
18780.332905499989
 30
0.0
 11
19782.01129358515
 21
18881.89210550001
 31
0.0
  0
LINE
  5
12F29
  8
2-0
  6
CONTINUOUS
 62
     6
 10
19782.01129358515
 20
18881.89210550001
 30
0.0
 11
19934.598524585152
 21
18826.845653500011
 31
0.0
  0
LINE
  5
12F2A
  8
2-0
  6
CONTINUOUS
 62
     6
 10
19934.598524585152
 20
18826.845653500011
 30
0.0
 11
19782.01129358515
 21
18881.89210550001
 31
0.0
  0
LINE
  5
12F2B
  8
2-0
  6
CONTINUOUS
 62
     6
 10
19908.492633585149
 20
18780.332905499989
 30
0.0
 11
19782.01129358515
 21
18881.89210550001
 31
0.0
  0
LINE
  5
12F2C
  8
2-0
  6
CONTINUOUS
 62
     6
 10
19908.492633585149
 20
18780.332905499989
 30
0.0
 11
19934.598524585152
 21
18826.845653500011
 31
0.0
  0
LINE
  5
12F2D
  8
2-0
  6
CONTINUOUS
 62
     6
 10
19580.355756585152
 20
19485.103150000032
 30
0.0
 11
19708.31777658514
 21
19385.420532000011
 31
0.0
  0
LINE
  5
12F2E
  8
2-0
  6
CONTINUOUS
 62
     6
 10
19708.31777658514
 20
19385.420532000011
 30
0.0
 11
19619.603671585159
 21
19521.217487000031
 31
0.0
  0
LINE
  5
12F2F
  8
2-0
  6
CONTINUOUS
 62
     6
 10
19580.355756585152
 20
19485.103150000032
 30
0.0
 11
19619.603671585159
 21
19521.217487000031
 31
0.0
  0
LINE
  5
12F30
  8
2-0
  6
CONTINUOUS
 62
     6
 10
19619.603671585159
 20
19521.217487000031
 30
0.0
 11
19708.31777658514
 21
19385.420532000011
 31
0.0
  0
LINE
  5
12F31
  8
2-0
  6
CONTINUOUS
 62
     6
 10
19708.31777658514
 20
19385.420532000011
 30
0.0
 11
19580.355756585152
 21
19485.103150000032
 31
0.0
  0
LINE
  5
12F32
  8
2-0
  6
CONTINUOUS
 62
     6
 10
19580.355756585152
 20
19485.103150000032
 30
0.0
 11
19708.31777658514
 21
19385.420532000011
 31
0.0
  0
LINE
  5
12F33
  8
2-0
  6
CONTINUOUS
 62
     6
 10
19619.603671585159
 20
19521.217487000031
 30
0.0
 11
19708.31777658514
 21
19385.420532000011
 31
0.0
  0
LINE
  5
12F34
  8
2-0
  6
CONTINUOUS
 62
     6
 10
19619.603671585159
 20
19521.217487000031
 30
0.0
 11
19580.355756585152
 21
19485.103150000032
 31
0.0
  0
LINE
  5
12F35
  8
2-0
  6
CONTINUOUS
 62
     6
 10
19998.337043585161
 20
15202.481158000021
 30
0.0
 11
19843.01807658514
 21
15249.22847900003
 31
0.0
  0
LINE
  5
12F36
  8
2-0
  6
CONTINUOUS
 62
     6
 10
19843.01807658514
 20
15249.22847900003
 30
0.0
 11
19974.778792585181
 21
15154.63619400003
 31
0.0
  0
LINE
  5
12F37
  8
2-0
  6
CONTINUOUS
 62
     6
 10
19998.337043585161
 20
15202.481158000021
 30
0.0
 11
19974.778792585181
 21
15154.63619400003
 31
0.0
  0
LINE
  5
12F38
  8
2-0
  6
CONTINUOUS
 62
     6
 10
19974.778792585181
 20
15154.63619400003
 30
0.0
 11
19843.01807658514
 21
15249.22847900003
 31
0.0
  0
LINE
  5
12F39
  8
2-0
  6
CONTINUOUS
 62
     6
 10
19843.01807658514
 20
15249.22847900003
 30
0.0
 11
19998.337043585161
 21
15202.481158000021
 31
0.0
  0
LINE
  5
12F3A
  8
2-0
  6
CONTINUOUS
 62
     6
 10
19998.337043585161
 20
15202.481158000021
 30
0.0
 11
19843.01807658514
 21
15249.22847900003
 31
0.0
  0
LINE
  5
12F3B
  8
2-0
  6
CONTINUOUS
 62
     6
 10
19974.778792585181
 20
15154.63619400003
 30
0.0
 11
19843.01807658514
 21
15249.22847900003
 31
0.0
  0
LINE
  5
12F3C
  8
2-0
  6
CONTINUOUS
 62
     6
 10
19974.778792585181
 20
15154.63619400003
 30
0.0
 11
19998.337043585161
 21
15202.481158000021
 31
0.0
  0
LINE
  5
12F3D
  8
2-0
  6
CONTINUOUS
 62
     6
 10
20028.65139058515
 20
13681.716219
 30
0.0
 11
19896.90453158514
 21
13776.34314600001
 31
0.0
  0
LINE
  5
12F3E
  8
2-0
  6
CONTINUOUS
 62
     6
 10
19896.90453158514
 20
13776.34314600001
 30
0.0
 11
19990.83466758515
 21
13644.10437599999
 31
0.0
  0
LINE
  5
12F3F
  8
2-0
  6
CONTINUOUS
 62
     6
 10
20028.65139058515
 20
13681.716219
 30
0.0
 11
19990.83466758515
 21
13644.10437599999
 31
0.0
  0
LINE
  5
12F40
  8
2-0
  6
CONTINUOUS
 62
     6
 10
19990.83466758515
 20
13644.10437599999
 30
0.0
 11
19896.90453158514
 21
13776.34314600001
 31
0.0
  0
LINE
  5
12F41
  8
2-0
  6
CONTINUOUS
 62
     6
 10
19896.90453158514
 20
13776.34314600001
 30
0.0
 11
20028.65139058515
 21
13681.716219
 31
0.0
  0
LINE
  5
12F42
  8
2-0
  6
CONTINUOUS
 62
     6
 10
20028.65139058515
 20
13681.716219
 30
0.0
 11
19896.90453158514
 21
13776.34314600001
 31
0.0
  0
LINE
  5
12F43
  8
2-0
  6
CONTINUOUS
 62
     6
 10
19990.83466758515
 20
13644.10437599999
 30
0.0
 11
19896.90453158514
 21
13776.34314600001
 31
0.0
  0
LINE
  5
12F44
  8
2-0
  6
CONTINUOUS
 62
     6
 10
19990.83466758515
 20
13644.10437599999
 30
0.0
 11
20028.65139058515
 21
13681.716219
 31
0.0
  0
LINE
  5
12F45
  8
2-0
  6
CONTINUOUS
 62
     6
 10
19965.615601585148
 20
14008.620845999991
 30
0.0
 11
19833.01556958515
 21
13915.192517999991
 31
0.0
  0
LINE
  5
12F46
  8
2-0
  6
CONTINUOUS
 62
     6
 10
19833.01556958515
 20
13915.192517999991
 30
0.0
 11
19988.748255585138
 21
13960.56803200001
 31
0.0
  0
LINE
  5
12F47
  8
2-0
  6
CONTINUOUS
 62
     6
 10
19965.615601585148
 20
14008.620845999991
 30
0.0
 11
19988.748255585138
 21
13960.56803200001
 31
0.0
  0
LINE
  5
12F48
  8
2-0
  6
CONTINUOUS
 62
     6
 10
19988.748255585138
 20
13960.56803200001
 30
0.0
 11
19833.01556958515
 21
13915.192517999991
 31
0.0
  0
LINE
  5
12F49
  8
2-0
  6
CONTINUOUS
 62
     6
 10
19833.01556958515
 20
13915.192517999991
 30
0.0
 11
19965.615601585148
 21
14008.620845999991
 31
0.0
  0
LINE
  5
12F4A
  8
2-0
  6
CONTINUOUS
 62
     6
 10
19965.615601585148
 20
14008.620845999991
 30
0.0
 11
19833.01556958515
 21
13915.192517999991
 31
0.0
  0
LINE
  5
12F4B
  8
2-0
  6
CONTINUOUS
 62
     6
 10
19988.748255585138
 20
13960.56803200001
 30
0.0
 11
19833.01556958515
 21
13915.192517999991
 31
0.0
  0
LINE
  5
12F4C
  8
2-0
  6
CONTINUOUS
 62
     6
 10
19988.748255585138
 20
13960.56803200001
 30
0.0
 11
19965.615601585148
 21
14008.620845999991
 31
0.0
  0
LINE
  5
12F4D
  8
2-0
  6
CONTINUOUS
 62
     6
 10
19905.851955585149
 20
16388.441779000019
 30
0.0
 11
19752.013669585162
 21
16439.875610000021
 31
0.0
  0
LINE
  5
12F4E
  8
2-0
  6
CONTINUOUS
 62
     6
 10
19752.013669585162
 20
16439.875610000021
 30
0.0
 11
19880.848656585182
 21
16341.33517500002
 31
0.0
  0
LINE
  5
12F4F
  8
2-0
  6
CONTINUOUS
 62
     6
 10
19905.851955585149
 20
16388.441779000019
 30
0.0
 11
19880.848656585182
 21
16341.33517500002
 31
0.0
  0
LINE
  5
12F50
  8
2-0
  6
CONTINUOUS
 62
     6
 10
19880.848656585182
 20
16341.33517500002
 30
0.0
 11
19752.013669585162
 21
16439.875610000021
 31
0.0
  0
LINE
  5
12F51
  8
2-0
  6
CONTINUOUS
 62
     6
 10
19752.013669585162
 20
16439.875610000021
 30
0.0
 11
19905.851955585149
 21
16388.441779000019
 31
0.0
  0
LINE
  5
12F52
  8
2-0
  6
CONTINUOUS
 62
     6
 10
19905.851955585149
 20
16388.441779000019
 30
0.0
 11
19752.013669585162
 21
16439.875610000021
 31
0.0
  0
LINE
  5
12F53
  8
2-0
  6
CONTINUOUS
 62
     6
 10
19880.848656585182
 20
16341.33517500002
 30
0.0
 11
19752.013669585162
 21
16439.875610000021
 31
0.0
  0
LINE
  5
12F54
  8
2-0
  6
CONTINUOUS
 62
     6
 10
19880.848656585182
 20
16341.33517500002
 30
0.0
 11
19905.851955585149
 21
16388.441779000019
 31
0.0
  0
LINE
  5
12F55
  8
2-0
  6
CONTINUOUS
 62
     6
 10
20039.788162585159
 20
16879.760271000021
 30
0.0
 11
19896.90453158514
 21
16802.984642000021
 31
0.0
  0
LINE
  5
12F56
  8
2-0
  6
CONTINUOUS
 62
     6
 10
19896.90453158514
 20
16802.984642000021
 30
0.0
 11
20056.96642458516
 21
16829.266711000029
 31
0.0
  0
LINE
  5
12F57
  8
2-0
  6
CONTINUOUS
 62
     6
 10
20039.788162585159
 20
16879.760271000021
 30
0.0
 11
20056.96642458516
 21
16829.266711000029
 31
0.0
  0
LINE
  5
12F58
  8
2-0
  6
CONTINUOUS
 62
     6
 10
20056.96642458516
 20
16829.266711000029
 30
0.0
 11
19896.90453158514
 21
16802.984642000021
 31
0.0
  0
LINE
  5
12F59
  8
2-0
  6
CONTINUOUS
 62
     6
 10
19896.90453158514
 20
16802.984642000021
 30
0.0
 11
20039.788162585159
 21
16879.760271000021
 31
0.0
  0
LINE
  5
12F5A
  8
2-0
  6
CONTINUOUS
 62
     6
 10
20039.788162585159
 20
16879.760271000021
 30
0.0
 11
19896.90453158514
 21
16802.984642000021
 31
0.0
  0
LINE
  5
12F5B
  8
2-0
  6
CONTINUOUS
 62
     6
 10
20056.96642458516
 20
16829.266711000029
 30
0.0
 11
19896.90453158514
 21
16802.984642000021
 31
0.0
  0
LINE
  5
12F5C
  8
2-0
  6
CONTINUOUS
 62
     6
 10
20056.96642458516
 20
16829.266711000029
 30
0.0
 11
20039.788162585159
 21
16879.760271000021
 31
0.0
  0
LINE
  5
12F5D
  8
2-0
  6
CONTINUOUS
 62
     6
 10
19998.337043585161
 20
18120.240645999998
 30
0.0
 11
19843.01807658514
 21
18166.984998
 31
0.0
  0
LINE
  5
12F5E
  8
2-0
  6
CONTINUOUS
 62
     6
 10
19843.01807658514
 20
18166.984998
 30
0.0
 11
19974.778792585181
 21
18072.389744000018
 31
0.0
  0
LINE
  5
12F5F
  8
2-0
  6
CONTINUOUS
 62
     6
 10
19998.337043585161
 20
18120.240645999998
 30
0.0
 11
19974.778792585181
 21
18072.389744000018
 31
0.0
  0
LINE
  5
12F60
  8
2-0
  6
CONTINUOUS
 62
     6
 10
19974.778792585181
 20
18072.389744000018
 30
0.0
 11
19843.01807658514
 21
18166.984998
 31
0.0
  0
LINE
  5
12F61
  8
2-0
  6
CONTINUOUS
 62
     6
 10
19843.01807658514
 20
18166.984998
 30
0.0
 11
19998.337043585161
 21
18120.240645999998
 31
0.0
  0
LINE
  5
12F62
  8
2-0
  6
CONTINUOUS
 62
     6
 10
19998.337043585161
 20
18120.240645999998
 30
0.0
 11
19843.01807658514
 21
18166.984998
 31
0.0
  0
LINE
  5
12F63
  8
2-0
  6
CONTINUOUS
 62
     6
 10
19974.778792585181
 20
18072.389744000018
 30
0.0
 11
19843.01807658514
 21
18166.984998
 31
0.0
  0
LINE
  5
12F64
  8
2-0
  6
CONTINUOUS
 62
     6
 10
19974.778792585181
 20
18072.389744000018
 30
0.0
 11
19998.337043585161
 21
18120.240645999998
 31
0.0
  0
LINE
  5
12F65
  8
2-0
  6
CONTINUOUS
 62
     3
 10
19782.01327358514
 20
19251.48432600002
 30
0.0
 11
19782.01327358514
 21
19245.488364000019
 31
0.0
  0
LINE
  5
12F66
  8
2-0
  6
CONTINUOUS
 62
     3
 10
19782.01327358514
 20
19245.488364000019
 30
0.0
 11
19752.01564858514
 21
19245.488364000019
 31
0.0
  0
LINE
  5
12F67
  8
2-0
  6
CONTINUOUS
 62
     3
 10
19752.01564858514
 20
19245.488364000019
 30
0.0
 11
19752.01564858514
 21
19360.484537000018
 31
0.0
  0
LINE
  5
12F68
  8
2-0
  6
CONTINUOUS
 62
     3
 10
19752.01564858514
 20
19275.487968000001
 30
0.0
 11
19833.01358958516
 21
19275.487968000001
 31
0.0
  0
LINE
  5
12F69
  8
2-0
  6
CONTINUOUS
 62
     3
 10
19782.01327358514
 20
19235.190908000011
 30
0.0
 11
19752.01564858514
 21
19235.190908000011
 31
0.0
  0
LINE
  5
12F6A
  8
2-0
  6
CONTINUOUS
 62
     3
 10
19782.01327358514
 20
19253.19265000003
 30
0.0
 11
19782.01327358514
 21
19235.190908000011
 31
0.0
  0
LINE
  5
12F6B
  8
2-0
  6
CONTINUOUS
 62
     3
 10
19757.01987158514
 20
19253.19265000003
 30
0.0
 11
19782.01327358514
 21
19253.19265000003
 31
0.0
  0
LINE
  5
12F6C
  8
2-0
  6
CONTINUOUS
 62
     3
 10
19757.01987158514
 20
19248.184468000021
 30
0.0
 11
19757.01987158514
 21
19253.19265000003
 31
0.0
  0
LINE
  5
12F6D
  8
2-0
  6
CONTINUOUS
 62
     3
 10
19764.01746958512
 20
19248.184468000021
 30
0.0
 11
19757.01987158514
 21
19248.184468000021
 31
0.0
  0
LINE
  5
12F6E
  8
2-0
  6
CONTINUOUS
 62
     3
 10
19864.31175858514
 20
19348.48469500001
 30
0.0
 11
19864.31175858514
 21
19355.490211000018
 31
0.0
  0
LINE
  5
12F6F
  8
2-0
  6
CONTINUOUS
 62
     3
 10
19864.31175858514
 20
19355.490211000018
 30
0.0
 11
19859.30951458514
 21
19355.490211000018
 31
0.0
  0
LINE
  5
12F70
  8
2-0
  6
CONTINUOUS
 62
     3
 10
19859.30951458514
 20
19355.490211000018
 30
0.0
 11
19859.30951458514
 21
19330.48097400002
 31
0.0
  0
LINE
  5
12F71
  8
2-0
  6
CONTINUOUS
 62
     3
 10
19859.30951458514
 20
19330.48097400002
 30
0.0
 11
19877.317195585129
 21
19330.48097400002
 31
0.0
  0
LINE
  5
12F72
  8
2-0
  6
CONTINUOUS
 62
     3
 10
19877.317195585129
 20
19330.48097400002
 30
0.0
 11
19877.317195585129
 21
19360.484537000018
 31
0.0
  0
LINE
  5
12F73
  8
2-0
  6
CONTINUOUS
 62
     3
 10
19867.017759585149
 20
19360.484537000018
 30
0.0
 11
19752.01564858514
 21
19360.484537000018
 31
0.0
  0
LINE
  5
12F74
  8
2-0
  6
CONTINUOUS
 62
     3
 10
19867.017759585149
 20
19330.48097400002
 30
0.0
 11
19867.017759585149
 21
19360.484537000018
 31
0.0
  0
LINE
  5
12F75
  8
2-0
  6
CONTINUOUS
 62
     3
 10
19861.013880585138
 20
19330.48097400002
 30
0.0
 11
19867.017759585149
 21
19330.48097400002
 31
0.0
  0
LINE
  5
12F76
  8
2-0
  6
CONTINUOUS
 62
     3
 10
19782.01327358514
 20
19251.48432600002
 30
0.0
 11
19782.01327358514
 21
19245.488364000019
 31
0.0
  0
LINE
  5
12F77
  8
2-0
  6
CONTINUOUS
 62
     3
 10
19782.01327358514
 20
19245.488364000019
 30
0.0
 11
19752.01564858514
 21
19245.488364000019
 31
0.0
  0
LINE
  5
12F78
  8
2-0
  6
CONTINUOUS
 62
     3
 10
19752.01564858514
 20
19245.488364000019
 30
0.0
 11
19752.01564858514
 21
19360.484537000018
 31
0.0
  0
LINE
  5
12F79
  8
2-0
  6
CONTINUOUS
 62
     3
 10
19752.01564858514
 20
19275.487968000001
 30
0.0
 11
19833.01358958516
 21
19275.487968000001
 31
0.0
  0
LINE
  5
12F7A
  8
2-0
  6
CONTINUOUS
 62
     3
 10
19782.01327358514
 20
19235.190908000011
 30
0.0
 11
19752.01564858514
 21
19235.190908000011
 31
0.0
  0
LINE
  5
12F7B
  8
2-0
  6
CONTINUOUS
 62
     3
 10
19782.01327358514
 20
19253.19265000003
 30
0.0
 11
19782.01327358514
 21
19235.190908000011
 31
0.0
  0
LINE
  5
12F7C
  8
2-0
  6
CONTINUOUS
 62
     3
 10
19757.01987158514
 20
19253.19265000003
 30
0.0
 11
19782.01327358514
 21
19253.19265000003
 31
0.0
  0
LINE
  5
12F7D
  8
2-0
  6
CONTINUOUS
 62
     3
 10
19757.01987158514
 20
19248.184468000021
 30
0.0
 11
19757.01987158514
 21
19253.19265000003
 31
0.0
  0
LINE
  5
12F7E
  8
2-0
  6
CONTINUOUS
 62
     3
 10
19764.01746958512
 20
19248.184468000021
 30
0.0
 11
19757.01987158514
 21
19248.184468000021
 31
0.0
  0
LINE
  5
12F7F
  8
2-0
  6
CONTINUOUS
 62
     3
 10
19764.01746958512
 20
18894.887645499999
 30
0.0
 11
19757.01987158514
 21
18894.887645499999
 31
0.0
  0
LINE
  5
12F80
  8
2-0
  6
CONTINUOUS
 62
     3
 10
19757.01987158514
 20
18894.887645499999
 30
0.0
 11
19757.01987158514
 21
18899.887909500001
 31
0.0
  0
LINE
  5
12F81
  8
2-0
  6
CONTINUOUS
 62
     3
 10
19757.01987158514
 20
18899.887909500001
 30
0.0
 11
19782.01327358514
 21
18899.887909500001
 31
0.0
  0
LINE
  5
12F82
  8
2-0
  6
CONTINUOUS
 62
     3
 10
19782.01327358514
 20
18899.887909500001
 30
0.0
 11
19782.01327358514
 21
18881.892105499999
 31
0.0
  0
LINE
  5
12F83
  8
2-0
  6
CONTINUOUS
 62
     3
 10
19782.01327358514
 20
18881.892105499999
 30
0.0
 11
19752.01564858514
 21
18881.892105499999
 31
0.0
  0
LINE
  5
12F84
  8
2-0
  6
CONTINUOUS
 62
     3
 10
19782.01327358514
 20
18897.983612499971
 30
0.0
 11
19782.01327358514
 21
18891.985671499999
 31
0.0
  0
LINE
  5
12F85
  8
2-0
  6
CONTINUOUS
 62
     3
 10
19782.01327358514
 20
18891.985671499999
 30
0.0
 11
19752.01564858514
 21
18891.985671499999
 31
0.0
  0
LINE
  5
12F86
  8
2-0
  6
CONTINUOUS
 62
     3
 10
19752.01564858514
 20
18891.985671499999
 30
0.0
 11
19752.01564858514
 21
18928.98683250001
 31
0.0
  0
LINE
  5
12F87
  8
2-0
  6
CONTINUOUS
 62
     3
 10
19782.01327358514
 20
18928.98683250001
 30
0.0
 11
19752.01564858514
 21
18928.98683250001
 31
0.0
  0
LINE
  5
12F88
  8
2-0
  6
CONTINUOUS
 62
     3
 10
19782.01327358514
 20
18922.982952499991
 30
0.0
 11
19782.01327358514
 21
18928.98683250001
 31
0.0
  0
LINE
  5
12F89
  8
2-0
  6
CONTINUOUS
 62
     3
 10
19782.01327358514
 20
18939.082377499992
 30
0.0
 11
19752.01564858514
 21
18939.082377499992
 31
0.0
  0
LINE
  5
12F8A
  8
2-0
  6
CONTINUOUS
 62
     3
 10
19782.01327358514
 20
18921.080635499999
 30
0.0
 11
19782.01327358514
 21
18939.082377499992
 31
0.0
  0
LINE
  5
12F8B
  8
2-0
  6
CONTINUOUS
 62
     3
 10
19757.01987158514
 20
18921.080635499999
 30
0.0
 11
19782.01327358514
 21
18921.080635499999
 31
0.0
  0
LINE
  5
12F8C
  8
2-0
  6
CONTINUOUS
 62
     3
 10
19757.01987158514
 20
18926.080899500001
 30
0.0
 11
19757.01987158514
 21
18921.080635499999
 31
0.0
  0
LINE
  5
12F8D
  8
2-0
  6
CONTINUOUS
 62
     3
 10
19764.01746958512
 20
18926.080899500001
 30
0.0
 11
19757.01987158514
 21
18926.080899500001
 31
0.0
  0
LINE
  5
12F8E
  8
2-0
  6
CONTINUOUS
 62
     3
 10
19764.01746958512
 20
18193.88665600001
 30
0.0
 11
19757.01987158514
 21
18193.88665600001
 31
0.0
  0
LINE
  5
12F8F
  8
2-0
  6
CONTINUOUS
 62
     3
 10
19757.01987158514
 20
18193.88665600001
 30
0.0
 11
19757.01987158514
 21
18198.892857999999
 31
0.0
  0
LINE
  5
12F90
  8
2-0
  6
CONTINUOUS
 62
     3
 10
19757.01987158514
 20
18198.892857999999
 30
0.0
 11
19782.01327358514
 21
18198.892857999999
 31
0.0
  0
LINE
  5
12F91
  8
2-0
  6
CONTINUOUS
 62
     3
 10
19782.01327358514
 20
18198.892857999999
 30
0.0
 11
19782.01327358514
 21
18180.89111600001
 31
0.0
  0
LINE
  5
12F92
  8
2-0
  6
CONTINUOUS
 62
     3
 10
19782.01327358514
 20
18180.89111600001
 30
0.0
 11
19752.01564858514
 21
18180.89111600001
 31
0.0
  0
LINE
  5
12F93
  8
2-0
  6
CONTINUOUS
 62
     3
 10
19782.01327358514
 20
18196.982623
 30
0.0
 11
19782.01327358514
 21
18190.986660999999
 31
0.0
  0
LINE
  5
12F94
  8
2-0
  6
CONTINUOUS
 62
     3
 10
19782.01327358514
 20
18190.986660999999
 30
0.0
 11
19752.01564858514
 21
18190.986660999999
 31
0.0
  0
LINE
  5
12F95
  8
2-0
  6
CONTINUOUS
 62
     3
 10
19752.01564858514
 20
18190.986660999999
 30
0.0
 11
19752.01564858514
 21
18227.985842999999
 31
0.0
  0
LINE
  5
12F96
  8
2-0
  6
CONTINUOUS
 62
     3
 10
19782.01327358514
 20
18227.985842999999
 30
0.0
 11
19752.01564858514
 21
18227.985842999999
 31
0.0
  0
LINE
  5
12F97
  8
2-0
  6
CONTINUOUS
 62
     3
 10
19782.01327358514
 20
18221.989881000001
 30
0.0
 11
19782.01327358514
 21
18227.985842999999
 31
0.0
  0
LINE
  5
12F98
  8
2-0
  6
CONTINUOUS
 62
     3
 10
19782.01327358514
 20
18238.08138800001
 30
0.0
 11
19752.01564858514
 21
18238.08138800001
 31
0.0
  0
LINE
  5
12F99
  8
2-0
  6
CONTINUOUS
 62
     3
 10
19782.01327358514
 20
18220.079645999991
 30
0.0
 11
19782.01327358514
 21
18238.08138800001
 31
0.0
  0
LINE
  5
12F9A
  8
2-0
  6
CONTINUOUS
 62
     3
 10
19757.01987158514
 20
18220.079645999991
 30
0.0
 11
19782.01327358514
 21
18220.079645999991
 31
0.0
  0
LINE
  5
12F9B
  8
2-0
  6
CONTINUOUS
 62
     3
 10
19757.01987158514
 20
18225.085847999999
 30
0.0
 11
19757.01987158514
 21
18220.079645999991
 31
0.0
  0
LINE
  5
12F9C
  8
2-0
  6
CONTINUOUS
 62
     3
 10
19764.01746958512
 20
18225.085847999999
 30
0.0
 11
19757.01987158514
 21
18225.085847999999
 31
0.0
  0
LINE
  5
12F9D
  8
2-0
  6
CONTINUOUS
 62
     3
 10
19764.01746958512
 20
17524.07991
 30
0.0
 11
19757.01987158514
 21
17524.07991
 31
0.0
  0
LINE
  5
12F9E
  8
2-0
  6
CONTINUOUS
 62
     3
 10
19757.01987158514
 20
17524.07991
 30
0.0
 11
19757.01987158514
 21
17519.09152300001
 31
0.0
  0
LINE
  5
12F9F
  8
2-0
  6
CONTINUOUS
 62
     3
 10
19757.01987158514
 20
17519.09152300001
 30
0.0
 11
19782.01327358514
 21
17519.09152300001
 31
0.0
  0
LINE
  5
12FA0
  8
2-0
  6
CONTINUOUS
 62
     3
 10
19782.01327358514
 20
17519.09152300001
 30
0.0
 11
19782.01327358514
 21
17537.087326000012
 31
0.0
  0
LINE
  5
12FA1
  8
2-0
  6
CONTINUOUS
 62
     3
 10
19782.01327358514
 20
17537.087326000012
 30
0.0
 11
19752.01564858514
 21
17537.087326000012
 31
0.0
  0
LINE
  5
12FA2
  8
2-0
  6
CONTINUOUS
 62
     3
 10
19782.01327358514
 20
17520.989881000001
 30
0.0
 11
19782.01327358514
 21
17526.985842999991
 31
0.0
  0
LINE
  5
12FA3
  8
2-0
  6
CONTINUOUS
 62
     3
 10
19782.01327358514
 20
17526.985842999991
 30
0.0
 11
19752.01564858514
 21
17526.985842999991
 31
0.0
  0
LINE
  5
12FA4
  8
2-0
  6
CONTINUOUS
 62
     3
 10
19752.01564858514
 20
17526.985842999991
 30
0.0
 11
19752.01564858514
 21
17489.98666100001
 31
0.0
  0
LINE
  5
12FA5
  8
2-0
  6
CONTINUOUS
 62
     3
 10
19782.01327358514
 20
17489.98666100001
 30
0.0
 11
19752.01564858514
 21
17489.98666100001
 31
0.0
  0
LINE
  5
12FA6
  8
2-0
  6
CONTINUOUS
 62
     3
 10
19782.01327358514
 20
17495.988561999999
 30
0.0
 11
19782.01327358514
 21
17489.98666100001
 31
0.0
  0
LINE
  5
12FA7
  8
2-0
  6
CONTINUOUS
 62
     3
 10
19782.01327358514
 20
17479.897055000001
 30
0.0
 11
19752.01564858514
 21
17479.897055000001
 31
0.0
  0
LINE
  5
12FA8
  8
2-0
  6
CONTINUOUS
 62
     3
 10
19782.01327358514
 20
17497.892857999999
 30
0.0
 11
19782.01327358514
 21
17479.897055000001
 31
0.0
  0
LINE
  5
12FA9
  8
2-0
  6
CONTINUOUS
 62
     3
 10
19757.01987158514
 20
17497.892857999999
 30
0.0
 11
19782.01327358514
 21
17497.892857999999
 31
0.0
  0
LINE
  5
12FAA
  8
2-0
  6
CONTINUOUS
 62
     3
 10
19757.01987158514
 20
17492.892595000001
 30
0.0
 11
19757.01987158514
 21
17497.892857999999
 31
0.0
  0
LINE
  5
12FAB
  8
2-0
  6
CONTINUOUS
 62
     3
 10
19764.01746958512
 20
17492.892595000001
 30
0.0
 11
19757.01987158514
 21
17492.892595000001
 31
0.0
  0
LINE
  5
12FAC
  8
2-0
  6
CONTINUOUS
 62
     3
 10
19754.901786585138
 20
16772.98348100001
 30
0.0
 11
19754.901786585138
 21
16792.984536000011
 31
0.0
  0
LINE
  5
12FAD
  8
2-0
  6
CONTINUOUS
 62
     3
 10
19754.901786585138
 20
16792.984536000011
 30
0.0
 11
19839.90231458515
 21
16792.984536000011
 31
0.0
  0
LINE
  5
12FAE
  8
2-0
  6
CONTINUOUS
 62
     3
 10
19764.01746958512
 20
16819.591246000022
 30
0.0
 11
19757.01987158514
 21
16819.591246000022
 31
0.0
  0
LINE
  5
12FAF
  8
2-0
  6
CONTINUOUS
 62
     3
 10
19757.01987158514
 20
16819.591246000022
 30
0.0
 11
19757.01987158514
 21
16814.596920000022
 31
0.0
  0
LINE
  5
12FB0
  8
2-0
  6
CONTINUOUS
 62
     3
 10
19757.01987158514
 20
16814.596920000022
 30
0.0
 11
19782.01327358514
 21
16814.596920000022
 31
0.0
  0
LINE
  5
12FB1
  8
2-0
  6
CONTINUOUS
 62
     3
 10
19782.01327358514
 20
16814.596920000022
 30
0.0
 11
19782.01327358514
 21
16832.592724000009
 31
0.0
  0
LINE
  5
12FB2
  8
2-0
  6
CONTINUOUS
 62
     3
 10
19782.01327358514
 20
16832.592724000009
 30
0.0
 11
19752.01564858514
 21
16832.592724000009
 31
0.0
  0
LINE
  5
12FB3
  8
2-0
  6
CONTINUOUS
 62
     3
 10
19782.01327358514
 20
16822.98414
 30
0.0
 11
19782.01327358514
 21
16816.982240000001
 31
0.0
  0
LINE
  5
12FB4
  8
2-0
  6
CONTINUOUS
 62
     3
 10
19752.01564858514
 20
16822.98414
 30
0.0
 11
19782.01327358514
 21
16822.98414
 31
0.0
  0
LINE
  5
12FB5
  8
2-0
  6
CONTINUOUS
 62
     3
 10
19752.01564858514
 20
16832.592724000009
 30
0.0
 11
19752.01564858514
 21
17479.897055000001
 31
0.0
  0
LINE
  5
12FB6
  8
2-0
  6
CONTINUOUS
 62
     3
 10
19752.01564858514
 20
17537.087326000012
 30
0.0
 11
19752.01564858514
 21
18180.89111600001
 31
0.0
  0
LINE
  5
12FB7
  8
2-0
  6
CONTINUOUS
 62
     3
 10
19752.01564858514
 20
16677.98242500002
 30
0.0
 11
19782.01327358514
 21
16677.98242500002
 31
0.0
  0
LINE
  5
12FB8
  8
2-0
  6
CONTINUOUS
 62
     3
 10
19782.01327358514
 20
16677.98242500002
 30
0.0
 11
19782.01327358514
 21
16683.984325000001
 31
0.0
  0
LINE
  5
12FB9
  8
2-0
  6
CONTINUOUS
 62
     3
 10
19839.90231458515
 20
16707.987968000001
 30
0.0
 11
19754.901786585138
 21
16707.987968000001
 31
0.0
  0
LINE
  5
12FBA
  8
2-0
  6
CONTINUOUS
 62
     3
 10
19754.901786585138
 20
16707.987968000001
 30
0.0
 11
19754.901786585138
 21
16727.983085000011
 31
0.0
  0
LINE
  5
12FBB
  8
2-0
  6
CONTINUOUS
 62
     3
 10
19782.01327358514
 20
16668.373842000012
 30
0.0
 11
19752.01564858514
 21
16668.373842000012
 31
0.0
  0
LINE
  5
12FBC
  8
2-0
  6
CONTINUOUS
 62
     3
 10
19782.01327358514
 20
16686.369644999992
 30
0.0
 11
19782.01327358514
 21
16668.373842000012
 31
0.0
  0
LINE
  5
12FBD
  8
2-0
  6
CONTINUOUS
 62
     3
 10
19757.01987158514
 20
16686.369644999992
 30
0.0
 11
19782.01327358514
 21
16686.369644999992
 31
0.0
  0
LINE
  5
12FBE
  8
2-0
  6
CONTINUOUS
 62
     3
 10
19757.01987158514
 20
16681.369381000019
 30
0.0
 11
19757.01987158514
 21
16686.369644999992
 31
0.0
  0
LINE
  5
12FBF
  8
2-0
  6
CONTINUOUS
 62
     3
 10
19764.01746958512
 20
16681.369381000019
 30
0.0
 11
19757.01987158514
 21
16681.369381000019
 31
0.0
  0
LINE
  5
12FC0
  8
2-0
  6
CONTINUOUS
 62
     3
 10
19764.01746958512
 20
15976.88715049999
 30
0.0
 11
19757.01987158514
 21
15976.88715049999
 31
0.0
  0
LINE
  5
12FC1
  8
2-0
  6
CONTINUOUS
 62
     3
 10
19757.01987158514
 20
15976.88715049999
 30
0.0
 11
19757.01987158514
 21
15981.887414500001
 31
0.0
  0
LINE
  5
12FC2
  8
2-0
  6
CONTINUOUS
 62
     3
 10
19757.01987158514
 20
15981.887414500001
 30
0.0
 11
19782.01327358514
 21
15981.887414500001
 31
0.0
  0
LINE
  5
12FC3
  8
2-0
  6
CONTINUOUS
 62
     3
 10
19782.01327358514
 20
15981.887414500001
 30
0.0
 11
19782.01327358514
 21
15963.88567250001
 31
0.0
  0
LINE
  5
12FC4
  8
2-0
  6
CONTINUOUS
 62
     3
 10
19782.01327358514
 20
15963.88567250001
 30
0.0
 11
19752.01564858514
 21
15963.88567250001
 31
0.0
  0
LINE
  5
12FC5
  8
2-0
  6
CONTINUOUS
 62
     3
 10
19782.01327358514
 20
15979.983117500011
 30
0.0
 11
19782.01327358514
 21
15973.98616650001
 31
0.0
  0
LINE
  5
12FC6
  8
2-0
  6
CONTINUOUS
 62
     3
 10
19782.01327358514
 20
15973.98616650001
 30
0.0
 11
19752.01564858514
 21
15973.98616650001
 31
0.0
  0
LINE
  5
12FC7
  8
2-0
  6
CONTINUOUS
 62
     3
 10
19752.01564858514
 20
15973.98616650001
 30
0.0
 11
19752.01564858514
 21
16010.98633750001
 31
0.0
  0
LINE
  5
12FC8
  8
2-0
  6
CONTINUOUS
 62
     3
 10
19782.01327358514
 20
16010.98633750001
 30
0.0
 11
19752.01564858514
 21
16010.98633750001
 31
0.0
  0
LINE
  5
12FC9
  8
2-0
  6
CONTINUOUS
 62
     3
 10
19782.01327358514
 20
16004.983447500001
 30
0.0
 11
19782.01327358514
 21
16010.98633750001
 31
0.0
  0
LINE
  5
12FCA
  8
2-0
  6
CONTINUOUS
 62
     3
 10
19782.01327358514
 20
16021.08188250001
 30
0.0
 11
19752.01564858514
 21
16021.08188250001
 31
0.0
  0
LINE
  5
12FCB
  8
2-0
  6
CONTINUOUS
 62
     3
 10
19782.01327358514
 20
16003.074201500011
 30
0.0
 11
19782.01327358514
 21
16021.08188250001
 31
0.0
  0
LINE
  5
12FCC
  8
2-0
  6
CONTINUOUS
 62
     3
 10
19757.01987158514
 20
16003.074201500011
 30
0.0
 11
19782.01327358514
 21
16003.074201500011
 31
0.0
  0
LINE
  5
12FCD
  8
2-0
  6
CONTINUOUS
 62
     3
 10
19757.01987158514
 20
16008.08040450001
 30
0.0
 11
19757.01987158514
 21
16003.074201500011
 31
0.0
  0
LINE
  5
12FCE
  8
2-0
  6
CONTINUOUS
 62
     3
 10
19764.01746958512
 20
16008.08040450001
 30
0.0
 11
19757.01987158514
 21
16008.08040450001
 31
0.0
  0
LINE
  5
12FCF
  8
2-0
  6
CONTINUOUS
 62
     3
 10
19764.01746958512
 20
15307.32042100002
 30
0.0
 11
19757.01987158514
 21
15307.32042100002
 31
0.0
  0
LINE
  5
12FD0
  8
2-0
  6
CONTINUOUS
 62
     3
 10
19757.01987158514
 20
15307.32042100002
 30
0.0
 11
19757.01987158514
 21
15302.326096000021
 31
0.0
  0
LINE
  5
12FD1
  8
2-0
  6
CONTINUOUS
 62
     3
 10
19757.01987158514
 20
15302.326096000021
 30
0.0
 11
19782.01327358514
 21
15302.326096000021
 31
0.0
  0
LINE
  5
12FD2
  8
2-0
  6
CONTINUOUS
 62
     3
 10
19782.01327358514
 20
15302.326096000021
 30
0.0
 11
19782.01327358514
 21
15320.32189900002
 31
0.0
  0
LINE
  5
12FD3
  8
2-0
  6
CONTINUOUS
 62
     3
 10
19782.01327358514
 20
15320.32189900002
 30
0.0
 11
19752.01564858514
 21
15320.32189900002
 31
0.0
  0
LINE
  5
12FD4
  8
2-0
  6
CONTINUOUS
 62
     3
 10
19782.01327358514
 20
15304.22445400001
 30
0.0
 11
19782.01327358514
 21
15310.22635400002
 31
0.0
  0
LINE
  5
12FD5
  8
2-0
  6
CONTINUOUS
 62
     3
 10
19782.01327358514
 20
15310.22635400002
 30
0.0
 11
19752.01564858514
 21
15310.22635400002
 31
0.0
  0
LINE
  5
12FD6
  8
2-0
  6
CONTINUOUS
 62
     3
 10
19752.01564858514
 20
15273.22717300003
 30
0.0
 11
19752.01564858514
 21
15310.22635400002
 31
0.0
  0
LINE
  5
12FD7
  8
2-0
  6
CONTINUOUS
 62
     3
 10
19782.01327358514
 20
15273.22717300003
 30
0.0
 11
19752.01564858514
 21
15273.22717300003
 31
0.0
  0
LINE
  5
12FD8
  8
2-0
  6
CONTINUOUS
 62
     3
 10
19782.01327358514
 20
15279.224124000009
 30
0.0
 11
19782.01327358514
 21
15273.22717300003
 31
0.0
  0
LINE
  5
12FD9
  8
2-0
  6
CONTINUOUS
 62
     3
 10
19782.01327358514
 20
15263.12568900001
 30
0.0
 11
19752.01564858514
 21
15263.12568900001
 31
0.0
  0
LINE
  5
12FDA
  8
2-0
  6
CONTINUOUS
 62
     3
 10
19782.01327358514
 20
15281.13337000001
 30
0.0
 11
19782.01327358514
 21
15263.12568900001
 31
0.0
  0
LINE
  5
12FDB
  8
2-0
  6
CONTINUOUS
 62
     3
 10
19757.01987158514
 20
15281.13337000001
 30
0.0
 11
19782.01327358514
 21
15281.13337000001
 31
0.0
  0
LINE
  5
12FDC
  8
2-0
  6
CONTINUOUS
 62
     3
 10
19757.01987158514
 20
15276.13310600003
 30
0.0
 11
19757.01987158514
 21
15281.13337000001
 31
0.0
  0
LINE
  5
12FDD
  8
2-0
  6
CONTINUOUS
 62
     3
 10
19764.01746958512
 20
15276.13310600003
 30
0.0
 11
19757.01987158514
 21
15276.13310600003
 31
0.0
  0
LINE
  5
12FDE
  8
2-0
  6
CONTINUOUS
 62
     3
 10
19752.01564858514
 20
16668.373842000012
 30
0.0
 11
19752.01564858514
 21
16021.08188250001
 31
0.0
  0
LINE
  5
12FDF
  8
2-0
  6
CONTINUOUS
 62
     3
 10
19752.01564858514
 20
16822.98414
 30
0.0
 11
19752.01564858514
 21
16677.98242500002
 31
0.0
  0
LINE
  5
12FE0
  8
2-0
  6
CONTINUOUS
 62
     3
 10
19839.90231458515
 20
16792.984536000011
 30
0.0
 11
19839.90231458515
 21
16707.987968000001
 31
0.0
  0
LINE
  5
12FE1
  8
2-0
  6
CONTINUOUS
 62
     3
 10
19764.01746958512
 20
14574.89209900001
 30
0.0
 11
19757.01987158514
 21
14574.89209900001
 31
0.0
  0
LINE
  5
12FE2
  8
2-0
  6
CONTINUOUS
 62
     3
 10
19757.01987158514
 20
14574.89209900001
 30
0.0
 11
19757.01987158514
 21
14579.886425000021
 31
0.0
  0
LINE
  5
12FE3
  8
2-0
  6
CONTINUOUS
 62
     3
 10
19757.01987158514
 20
14579.886425000021
 30
0.0
 11
19782.01327358514
 21
14579.886425000021
 31
0.0
  0
LINE
  5
12FE4
  8
2-0
  6
CONTINUOUS
 62
     3
 10
19782.01327358514
 20
14579.886425000021
 30
0.0
 11
19782.01327358514
 21
14561.89062100002
 31
0.0
  0
LINE
  5
12FE5
  8
2-0
  6
CONTINUOUS
 62
     3
 10
19782.01327358514
 20
14561.89062100002
 30
0.0
 11
19752.01564858514
 21
14561.89062100002
 31
0.0
  0
LINE
  5
12FE6
  8
2-0
  6
CONTINUOUS
 62
     3
 10
19782.01327358514
 20
14577.98905600002
 30
0.0
 11
19782.01327358514
 21
14571.986166000021
 31
0.0
  0
LINE
  5
12FE7
  8
2-0
  6
CONTINUOUS
 62
     3
 10
19782.01327358514
 20
14571.986166000021
 30
0.0
 11
19752.01564858514
 21
14571.986166000021
 31
0.0
  0
LINE
  5
12FE8
  8
2-0
  6
CONTINUOUS
 62
     3
 10
19752.01564858514
 20
14571.986166000021
 30
0.0
 11
19752.01564858514
 21
14608.986338000001
 31
0.0
  0
LINE
  5
12FE9
  8
2-0
  6
CONTINUOUS
 62
     3
 10
19782.01327358514
 20
14608.986338000001
 30
0.0
 11
19752.01564858514
 21
14608.986338000001
 31
0.0
  0
LINE
  5
12FEA
  8
2-0
  6
CONTINUOUS
 62
     3
 10
19782.01327358514
 20
14602.98938600001
 30
0.0
 11
19782.01327358514
 21
14608.986338000001
 31
0.0
  0
LINE
  5
12FEB
  8
2-0
  6
CONTINUOUS
 62
     3
 10
19782.01327358514
 20
14619.086831000021
 30
0.0
 11
19752.01564858514
 21
14619.086831000021
 31
0.0
  0
LINE
  5
12FEC
  8
2-0
  6
CONTINUOUS
 62
     3
 10
19782.01327358514
 20
14601.08014000002
 30
0.0
 11
19782.01327358514
 21
14619.086831000021
 31
0.0
  0
LINE
  5
12FED
  8
2-0
  6
CONTINUOUS
 62
     3
 10
19757.01987158514
 20
14601.08014000002
 30
0.0
 11
19782.01327358514
 21
14601.08014000002
 31
0.0
  0
LINE
  5
12FEE
  8
2-0
  6
CONTINUOUS
 62
     3
 10
19757.01987158514
 20
14606.08535300002
 30
0.0
 11
19757.01987158514
 21
14601.08014000002
 31
0.0
  0
LINE
  5
12FEF
  8
2-0
  6
CONTINUOUS
 62
     3
 10
19764.01746958512
 20
14606.08535300002
 30
0.0
 11
19757.01987158514
 21
14606.08535300002
 31
0.0
  0
LINE
  5
12FF0
  8
2-0
  6
CONTINUOUS
 62
     3
 10
19782.01327358514
 20
13898.988179000011
 30
0.0
 11
19782.01327358514
 21
13904.993048000009
 31
0.0
  0
LINE
  5
12FF1
  8
2-0
  6
CONTINUOUS
 62
     3
 10
19782.01327358514
 20
13904.993048000009
 30
0.0
 11
19752.01564858514
 21
13904.993048000009
 31
0.0
  0
LINE
  5
12FF2
  8
2-0
  6
CONTINUOUS
 62
     3
 10
19752.01564858514
 20
13904.993048000009
 30
0.0
 11
19752.01564858514
 21
13789.98895700001
 31
0.0
  0
LINE
  5
12FF3
  8
2-0
  6
CONTINUOUS
 62
     3
 10
19752.01564858514
 20
13789.98895700001
 30
0.0
 11
19837.014196585129
 21
13789.98895700001
 31
0.0
  0
LINE
  5
12FF4
  8
2-0
  6
CONTINUOUS
 62
     3
 10
19837.014196585129
 20
13789.98895700001
 30
0.0
 11
19837.014196585129
 21
13874.984536000011
 31
0.0
  0
LINE
  5
12FF5
  8
2-0
  6
CONTINUOUS
 62
     3
 10
19837.014196585129
 20
13874.984536000011
 30
0.0
 11
19805.01725858514
 21
13874.984536000011
 31
0.0
  0
LINE
  5
12FF6
  8
2-0
  6
CONTINUOUS
 62
     3
 10
19764.01746958512
 20
13902.022781000011
 30
0.0
 11
19757.01987158514
 21
13902.022781000011
 31
0.0
  0
LINE
  5
12FF7
  8
2-0
  6
CONTINUOUS
 62
     3
 10
19757.01987158514
 20
13902.022781000011
 30
0.0
 11
19757.01987158514
 21
13897.02548599999
 31
0.0
  0
LINE
  5
12FF8
  8
2-0
  6
CONTINUOUS
 62
     3
 10
19757.01987158514
 20
13897.02548599999
 30
0.0
 11
19782.01327358514
 21
13897.02548599999
 31
0.0
  0
LINE
  5
12FF9
  8
2-0
  6
CONTINUOUS
 62
     3
 10
19782.01327358514
 20
13897.02548599999
 30
0.0
 11
19782.01327358514
 21
13915.024259000011
 31
0.0
  0
LINE
  5
12FFA
  8
2-0
  6
CONTINUOUS
 62
     3
 10
19782.01327358514
 20
13915.024259000011
 30
0.0
 11
19752.01564858514
 21
13915.024259000011
 31
0.0
  0
LINE
  5
12FFB
  8
2-0
  6
CONTINUOUS
 62
     3
 10
19752.01564858514
 20
14619.086831000021
 30
0.0
 11
19752.01564858514
 21
15263.12568900001
 31
0.0
  0
LINE
  5
12FFC
  8
2-0
  6
CONTINUOUS
 62
     3
 10
19752.01564858514
 20
18238.08138800001
 30
0.0
 11
19752.01564858514
 21
18881.892105499999
 31
0.0
  0
LINE
  5
12FFD
  8
2-0
  6
CONTINUOUS
 62
     3
 10
19843.01807658514
 20
18166.984997999971
 30
0.0
 11
19796.01440758516
 21
18166.984997999971
 31
0.0
  0
LINE
  5
12FFE
  8
2-0
  6
CONTINUOUS
 62
     3
 10
19796.01440758516
 20
18251.985526000011
 30
0.0
 11
19843.01807658514
 21
18251.985526000011
 31
0.0
  0
LINE
  5
12FFF
  8
2-0
  6
CONTINUOUS
 62
     3
 10
19796.01440758516
 20
18166.984997999971
 30
0.0
 11
19796.01440758516
 21
18191.988297000011
 31
0.0
  0
LINE
  5
13000
  8
2-0
  6
CONTINUOUS
 62
     3
 10
19796.01440758516
 20
18226.984206000001
 30
0.0
 11
19796.01440758516
 21
18251.985526000011
 31
0.0
  0
LINE
  5
13001
  8
2-0
  6
CONTINUOUS
 62
     3
 10
19843.01807658514
 20
18251.985526000011
 30
0.0
 11
19843.01807658514
 21
18166.984997999971
 31
0.0
  0
LINE
  5
13002
  8
2-0
  6
CONTINUOUS
 62
     3
 10
19752.01564858514
 20
15963.88567250001
 30
0.0
 11
19752.01564858514
 21
15320.32189900002
 31
0.0
  0
LINE
  5
13003
  8
2-0
  6
CONTINUOUS
 62
     3
 10
19843.01807658514
 20
15248.98796800001
 30
0.0
 11
19796.01440758516
 21
15248.98796800001
 31
0.0
  0
LINE
  5
13004
  8
2-0
  6
CONTINUOUS
 62
     3
 10
19796.01440758516
 20
15333.984536
 30
0.0
 11
19843.01807658514
 21
15333.984536
 31
0.0
  0
LINE
  5
13005
  8
2-0
  6
CONTINUOUS
 62
     3
 10
19796.01440758516
 20
15248.98796800001
 30
0.0
 11
19796.01440758516
 21
15273.98334900002
 31
0.0
  0
LINE
  5
13006
  8
2-0
  6
CONTINUOUS
 62
     3
 10
19796.01440758516
 20
15308.983217000021
 30
0.0
 11
19796.01440758516
 21
15333.984536
 31
0.0
  0
LINE
  5
13007
  8
2-0
  6
CONTINUOUS
 62
     3
 10
19843.01807658514
 20
15333.984536
 30
0.0
 11
19843.01807658514
 21
15248.98796800001
 31
0.0
  0
LINE
  5
13008
  8
2-0
  6
CONTINUOUS
 62
     3
 10
22755.010237585138
 20
19245.488364000019
 30
0.0
 11
22755.010237585138
 21
19360.484537000018
 31
0.0
  0
LINE
  5
13009
  8
2-0
  6
CONTINUOUS
 62
     3
 10
19752.01564858514
 20
19275.487968000001
 30
0.0
 11
22674.008337585139
 21
19275.487968000001
 31
0.0
  0
LINE
  5
1300A
  8
2-0
  6
CONTINUOUS
 62
     3
 10
19752.01564858514
 20
13915.024259000011
 30
0.0
 11
19752.01564858514
 21
14561.89062100002
 31
0.0
  0
LINE
  5
1300B
  8
2-0
  6
CONTINUOUS
 62
     3
 10
22755.010237585138
 20
19235.190908000011
 30
0.0
 11
22755.010237585138
 21
18939.082377499999
 31
0.0
  0
LINE
  5
1300C
  8
2-0
  6
CONTINUOUS
 62
     3
 10
19752.01564858514
 20
19235.190908000011
 30
0.0
 11
19752.01564858514
 21
18939.082377499992
 31
0.0
  0
LINE
  5
1300D
  8
2-0
  6
CONTINUOUS
 62
     3
 10
19833.01358958516
 20
13874.984536000011
 30
0.0
 11
19833.01358958516
 21
19360.484537000018
 31
0.0
  0
LINE
  5
1300E
  8
2-0
  6
CONTINUOUS
 62
     3
 10
22674.008337585139
 20
13874.984536000011
 30
0.0
 11
22674.008337585139
 21
19360.484537000018
 31
0.0
  0
TEXT
  5
1300F
  8
2-0
  6
CONTINUOUS
 62
     7
 10
20565.666646590911
 20
13272.49046700269
 30
0.0
 40
160.0
  1
前柱（右）
 50
359.99978700000003
 72
     4
 11
20981.666943992139
 21
13352.4889205008
 31
0.0
  0
TEXT
  5
13010
  8
2-0
  6
CONTINUOUS
 62
     7
 10
20559.63409425495
 20
17951.607153074601
 30
0.0
 40
160.0
  1
補強柱 後
 50
0.0001580000002033
 72
     4
 11
20970.300540310429
 21
18031.608285537
 31
0.0
  0
TEXT
  5
13011
  8
2-0
  6
CONTINUOUS
 62
     7
 10
20467.738190255281
 20
16200.97714927653
 30
0.0
 40
160.0
  1
壁パネル
 50
0.0001770000000167
 72
     4
 11
20830.404609781592
 21
16280.978269637901
 31
0.0
  0
TEXT
  5
13012
  8
2-0
  6
CONTINUOUS
 62
     7
 10
20438.407760938251
 20
17038.173678652369
 30
0.0
 40
160.0
  1
中柱（左右）
 50
359.99964599999998
 72
     4
 11
20955.741588538949
 21
17118.170482324669
 31
0.0
  0
TEXT
  5
13013
  8
2-0
  6
CONTINUOUS
 62
     7
 10
20451.738850310569
 20
14245.53497270612
 30
0.0
 40
160.0
  1
下枠
 50
359.99893700000001
 72
     4
 11
20622.407001175859
 21
14325.531806339301
 31
0.0
  0
TEXT
  5
13014
  8
2-0
  6
CONTINUOUS
 62
     7
 10
20559.634094301469
 20
15033.840897968341
 30
0.0
 40
160.0
  1
補強柱 前
 50
0.0006300000000081
 72
     4
 11
20970.299881297371
 21
15113.845413479339
 31
0.0
  0
TEXT
  5
13015
  8
2-0
  6
CONTINUOUS
 62
     7
 10
20455.440092918481
 20
18641.436024499999
 30
0.0
 40
160.0
  1
間柱（側）
 72
     4
 11
20876.77342625181
 21
18721.436024499999
 31
0.0
  0
TEXT
  5
13016
  8
2-0
  6
CONTINUOUS
 62
     7
 10
17955.51644060469
 20
20170.490071748751
 30
0.0
 40
160.0
  1
後柱（左右）
 50
359.99964599999998
 72
     4
 11
18467.516934872168
 21
20250.486908372859
 31
0.0
  0
LINE
  5
13017
  8
2-0
  6
CONTINUOUS
 62
     3
 10
21973.012534585108
 20
19360.484537000018
 30
0.0
 11
21936.011372585159
 21
19360.484537000018
 31
0.0
  0
LINE
  5
13018
  8
2-0
  6
CONTINUOUS
 62
     3
 10
21973.012534585108
 20
19330.48097400002
 30
0.0
 11
21973.012534585108
 21
19360.484537000018
 31
0.0
  0
LINE
  5
13019
  8
2-0
  6
CONTINUOUS
 62
     3
 10
21967.012613585121
 20
19330.48097400002
 30
0.0
 11
21973.012534585108
 21
19330.48097400002
 31
0.0
  0
LINE
  5
1301A
  8
2-0
  6
CONTINUOUS
 62
     3
 10
21983.110058585149
 20
19330.48097400002
 30
0.0
 11
21983.110058585149
 21
19360.484537000018
 31
0.0
  0
LINE
  5
1301B
  8
2-0
  6
CONTINUOUS
 62
     3
 10
21965.106337585152
 20
19330.48097400002
 30
0.0
 11
21983.110058585149
 21
19330.48097400002
 31
0.0
  0
LINE
  5
1301C
  8
2-0
  6
CONTINUOUS
 62
     3
 10
21965.106337585152
 20
19355.490211000018
 30
0.0
 11
21965.106337585152
 21
19330.48097400002
 31
0.0
  0
LINE
  5
1301D
  8
2-0
  6
CONTINUOUS
 62
     3
 10
21970.10660158515
 20
19355.490211000018
 30
0.0
 11
21965.106337585152
 21
19355.490211000018
 31
0.0
  0
LINE
  5
1301E
  8
2-0
  6
CONTINUOUS
 62
     3
 10
21970.10660158515
 20
19348.48469500001
 30
0.0
 11
21970.10660158515
 21
19355.490211000018
 31
0.0
  0
LINE
  5
1301F
  8
2-0
  6
CONTINUOUS
 62
     3
 10
21938.917306585128
 20
19348.48469500001
 30
0.0
 11
21938.917306585128
 21
19355.490211000018
 31
0.0
  0
LINE
  5
13020
  8
2-0
  6
CONTINUOUS
 62
     3
 10
21938.917306585128
 20
19355.490211000018
 30
0.0
 11
21943.917570585148
 21
19355.490211000018
 31
0.0
  0
LINE
  5
13021
  8
2-0
  6
CONTINUOUS
 62
     3
 10
21943.917570585148
 20
19355.490211000018
 30
0.0
 11
21943.917570585148
 21
19330.48097400002
 31
0.0
  0
LINE
  5
13022
  8
2-0
  6
CONTINUOUS
 62
     3
 10
21943.917570585148
 20
19330.48097400002
 30
0.0
 11
21925.917807585149
 21
19330.48097400002
 31
0.0
  0
LINE
  5
13023
  8
2-0
  6
CONTINUOUS
 62
     3
 10
21925.917807585149
 20
19330.48097400002
 30
0.0
 11
21925.917807585149
 21
19360.484537000018
 31
0.0
  0
LINE
  5
13024
  8
2-0
  6
CONTINUOUS
 62
     3
 10
21942.01129358515
 20
19330.48097400002
 30
0.0
 11
21936.011372585159
 21
19330.48097400002
 31
0.0
  0
LINE
  5
13025
  8
2-0
  6
CONTINUOUS
 62
     3
 10
21936.011372585159
 20
19330.48097400002
 30
0.0
 11
21936.011372585159
 21
19360.484537000018
 31
0.0
  0
LINE
  5
13026
  8
2-0
  6
CONTINUOUS
 62
     3
 10
20568.101652085141
 20
19348.48469500001
 30
0.0
 11
20568.101652085141
 21
19355.490211000018
 31
0.0
  0
LINE
  5
13027
  8
2-0
  6
CONTINUOUS
 62
     3
 10
20568.101652085141
 20
19355.490211000018
 30
0.0
 11
20563.10138808515
 21
19355.490211000018
 31
0.0
  0
LINE
  5
13028
  8
2-0
  6
CONTINUOUS
 62
     3
 10
20563.10138808515
 20
19355.490211000018
 30
0.0
 11
20563.10138808515
 21
19330.48097400002
 31
0.0
  0
LINE
  5
13029
  8
2-0
  6
CONTINUOUS
 62
     3
 10
20563.10138808515
 20
19330.48097400002
 30
0.0
 11
20581.107089085152
 21
19330.48097400002
 31
0.0
  0
LINE
  5
1302A
  8
2-0
  6
CONTINUOUS
 62
     3
 10
20581.107089085152
 20
19330.48097400002
 30
0.0
 11
20581.107089085152
 21
19360.484537000018
 31
0.0
  0
LINE
  5
1302B
  8
2-0
  6
CONTINUOUS
 62
     3
 10
20565.009644085148
 20
19330.48097400002
 30
0.0
 11
20571.01154408514
 21
19330.48097400002
 31
0.0
  0
LINE
  5
1302C
  8
2-0
  6
CONTINUOUS
 62
     3
 10
20571.01154408514
 20
19330.48097400002
 30
0.0
 11
20571.01154408514
 21
19360.484537000018
 31
0.0
  0
LINE
  5
1302D
  8
2-0
  6
CONTINUOUS
 62
     3
 10
20534.012363085149
 20
19360.484537000018
 30
0.0
 11
20571.01154408514
 21
19360.484537000018
 31
0.0
  0
LINE
  5
1302E
  8
2-0
  6
CONTINUOUS
 62
     3
 10
20534.012363085149
 20
19330.48097400002
 30
0.0
 11
20534.012363085149
 21
19360.484537000018
 31
0.0
  0
LINE
  5
1302F
  8
2-0
  6
CONTINUOUS
 62
     3
 10
20540.006345085141
 20
19330.48097400002
 30
0.0
 11
20534.012363085149
 21
19330.48097400002
 31
0.0
  0
LINE
  5
13030
  8
2-0
  6
CONTINUOUS
 62
     3
 10
20523.916818085148
 20
19330.48097400002
 30
0.0
 11
20523.916818085148
 21
19360.484537000018
 31
0.0
  0
LINE
  5
13031
  8
2-0
  6
CONTINUOUS
 62
     3
 10
20541.91262108515
 20
19330.48097400002
 30
0.0
 11
20523.916818085148
 21
19330.48097400002
 31
0.0
  0
LINE
  5
13032
  8
2-0
  6
CONTINUOUS
 62
     3
 10
20541.91262108515
 20
19355.490211000018
 30
0.0
 11
20541.91262108515
 21
19330.48097400002
 31
0.0
  0
LINE
  5
13033
  8
2-0
  6
CONTINUOUS
 62
     3
 10
20536.912357085141
 20
19355.490211000018
 30
0.0
 11
20541.91262108515
 21
19355.490211000018
 31
0.0
  0
LINE
  5
13034
  8
2-0
  6
CONTINUOUS
 62
     3
 10
20536.912357085141
 20
19348.48469500001
 30
0.0
 11
20536.912357085141
 21
19355.490211000018
 31
0.0
  0
LINE
  5
13035
  8
2-0
  6
CONTINUOUS
 62
     3
 10
21237.911368085141
 20
19348.48469500001
 30
0.0
 11
21237.911368085141
 21
19355.490211000018
 31
0.0
  0
LINE
  5
13036
  8
2-0
  6
CONTINUOUS
 62
     3
 10
21237.911368085141
 20
19355.490211000018
 30
0.0
 11
21242.91163108515
 21
19355.490211000018
 31
0.0
  0
LINE
  5
13037
  8
2-0
  6
CONTINUOUS
 62
     3
 10
21242.91163108515
 20
19355.490211000018
 30
0.0
 11
21242.91163108515
 21
19330.48097400002
 31
0.0
  0
LINE
  5
13038
  8
2-0
  6
CONTINUOUS
 62
     3
 10
21242.91163108515
 20
19330.48097400002
 30
0.0
 11
21224.917808085131
 21
19330.48097400002
 31
0.0
  0
LINE
  5
13039
  8
2-0
  6
CONTINUOUS
 62
     3
 10
21224.917808085131
 20
19330.48097400002
 30
0.0
 11
21224.917808085131
 21
19360.484537000018
 31
0.0
  0
LINE
  5
1303A
  8
2-0
  6
CONTINUOUS
 62
     3
 10
21241.00931408512
 20
19330.48097400002
 30
0.0
 11
21235.011373085141
 21
19330.48097400002
 31
0.0
  0
LINE
  5
1303B
  8
2-0
  6
CONTINUOUS
 62
     3
 10
21235.011373085141
 20
19330.48097400002
 30
0.0
 11
21235.011373085141
 21
19360.484537000018
 31
0.0
  0
LINE
  5
1303C
  8
2-0
  6
CONTINUOUS
 62
     3
 10
21272.012534085148
 20
19360.484537000018
 30
0.0
 11
21235.011373085141
 21
19360.484537000018
 31
0.0
  0
LINE
  5
1303D
  8
2-0
  6
CONTINUOUS
 62
     3
 10
21272.012534085148
 20
19330.48097400002
 30
0.0
 11
21272.012534085148
 21
19360.484537000018
 31
0.0
  0
LINE
  5
1303E
  8
2-0
  6
CONTINUOUS
 62
     3
 10
21266.006675085151
 20
19330.48097400002
 30
0.0
 11
21272.012534085148
 21
19330.48097400002
 31
0.0
  0
LINE
  5
1303F
  8
2-0
  6
CONTINUOUS
 62
     3
 10
21282.106099085151
 20
19330.48097400002
 30
0.0
 11
21282.106099085151
 21
19360.484537000018
 31
0.0
  0
LINE
  5
13040
  8
2-0
  6
CONTINUOUS
 62
     3
 10
21264.110296085139
 20
19330.48097400002
 30
0.0
 11
21282.106099085151
 21
19330.48097400002
 31
0.0
  0
LINE
  5
13041
  8
2-0
  6
CONTINUOUS
 62
     3
 10
21264.110296085139
 20
19355.490211000018
 30
0.0
 11
21264.110296085139
 21
19330.48097400002
 31
0.0
  0
LINE
  5
13042
  8
2-0
  6
CONTINUOUS
 62
     3
 10
21269.100662085159
 20
19355.490211000018
 30
0.0
 11
21264.110296085139
 21
19355.490211000018
 31
0.0
  0
LINE
  5
13043
  8
2-0
  6
CONTINUOUS
 62
     3
 10
21269.100662085159
 20
19348.48469500001
 30
0.0
 11
21269.100662085159
 21
19355.490211000018
 31
0.0
  0
LINE
  5
13044
  8
2-0
  6
CONTINUOUS
 62
     3
 10
20581.107089085152
 20
19360.484537000018
 30
0.0
 11
21224.917808085131
 21
19360.484537000018
 31
0.0
  0
LINE
  5
13045
  8
2-0
  6
CONTINUOUS
 62
     3
 10
19877.317195585129
 20
19360.484537000018
 30
0.0
 11
20523.916818085148
 21
19360.484537000018
 31
0.0
  0
LINE
  5
13046
  8
2-0
  6
CONTINUOUS
 62
     3
 10
22630.395583585148
 20
19360.484537000018
 30
0.0
 11
21983.110058585149
 21
19360.484537000018
 31
0.0
  0
LINE
  5
13047
  8
2-0
  6
CONTINUOUS
 62
     3
 10
21925.917807585149
 20
19360.484537000018
 30
0.0
 11
21282.106099085151
 21
19360.484537000018
 31
0.0
  0
LINE
  5
13048
  8
2-0
  6
CONTINUOUS
 62
     3
 10
22755.010237585138
 20
15263.12568900002
 30
0.0
 11
22755.010237585138
 21
14619.086831000021
 31
0.0
  0
LINE
  5
13049
  8
2-0
  6
CONTINUOUS
 62
     3
 10
22755.010237585138
 20
14561.89062100001
 30
0.0
 11
22755.010237585138
 21
13915.024259000011
 31
0.0
  0
LINE
  5
1304A
  8
0-6
  6
CONTINUOUS
 62
     6
 10
22711.687695085151
 20
18649.166309000018
 30
0.0
 11
21686.647445085131
 21
18649.166309000018
 31
0.0
  0
LINE
  5
1304B
  8
0-6
  6
CONTINUOUS
 62
     6
 10
21386.722667085141
 20
19206.51956100003
 30
0.0
 11
21282.107089085141
 21
19330.48097400002
 31
0.0
  0
LINE
  5
1304C
  8
0-6
  6
CONTINUOUS
 62
     6
 10
21282.107089085141
 20
19330.48097400002
 30
0.0
 11
21340.865139085148
 21
19179.28930400002
 31
0.0
  0
LINE
  5
1304D
  8
0-6
  6
CONTINUOUS
 62
     6
 10
21282.107089085141
 20
19330.48097400002
 30
0.0
 11
21386.722667085141
 21
19206.51956100003
 31
0.0
  0
LINE
  5
1304E
  8
0-6
  6
CONTINUOUS
 62
     6
 10
21386.722667085141
 20
19206.51956100003
 30
0.0
 11
21340.865139085148
 21
19179.28930400002
 31
0.0
  0
LINE
  5
1304F
  8
0-6
  6
CONTINUOUS
 62
     6
 10
21340.865139085148
 20
19179.28930400002
 30
0.0
 11
21282.107089085141
 21
19330.48097400002
 31
0.0
  0
LINE
  5
13050
  8
0-6
  6
CONTINUOUS
 62
     6
 10
21340.865139085148
 20
19179.28930400002
 30
0.0
 11
21386.722667085141
 21
19206.51956100003
 31
0.0
  0
LINE
  5
13051
  8
0-6
  6
CONTINUOUS
 62
     6
 10
21363.793903085141
 20
19192.906412000018
 30
0.0
 11
21686.647445085131
 21
18649.166309000018
 31
0.0
  0
TEXT
  5
13052
  8
0-6
  6
CONTINUOUS
 62
     7
 10
21789.020764418481
 20
18729.168553000021
 30
0.0
 40
160.0
  1
間柱（後）
 72
     4
 11
22210.35409775181
 21
18809.168553000021
 31
0.0
  0
LINE
  5
13053
  8
SUNPOU
  6
CONTINUOUS
 62
     4
 10
19672.013669585162
 20
18910.486251999999
 30
0.0
 11
18622.012349585159
 21
18910.486251999999
 31
0.0
  0
LINE
  5
13054
  8
SUNPOU
  6
CONTINUOUS
 62
     4
 10
18822.012349585159
 20
19317.98625200001
 30
0.0
 11
18622.012349585159
 21
19317.98625200001
 31
0.0
  0
LINE
  5
13055
  8
SUNPOU
  6
CONTINUOUS
 62
     4
 10
18702.012349585159
 20
18910.486251999999
 30
0.0
 11
18702.012349585159
 21
19317.98625200001
 31
0.0
  0
LINE
  5
13056
  8
SUNPOU
  6
CONTINUOUS
 62
     4
 10
19794.511953585152
 20
13832.486252000001
 30
0.0
 11
19794.511953585152
 21
12781.038167999999
 31
0.0
  0
LINE
  5
13057
  8
SUNPOU
  6
CONTINUOUS
 62
     4
 10
19752.009710585149
 20
13709.98895700001
 30
0.0
 11
19752.009710585149
 21
12781.038167999999
 31
0.0
  0
LINE
  5
13058
  8
SUNPOU
  6
CONTINUOUS
 62
     4
 10
19794.511953585152
 20
12861.03816800001
 30
0.0
 11
20034.511953585159
 21
12861.03816800001
 31
0.0
  0
LINE
  5
13059
  8
SUNPOU
  6
CONTINUOUS
 62
     4
 10
19752.009710585149
 20
12861.03816800001
 30
0.0
 11
19512.009710585149
 21
12861.03816800001
 31
0.0
  0
LINE
  5
1305A
  8
SUNPOU
  6
CONTINUOUS
 62
     4
 10
19794.511953585152
 20
12861.03816800001
 30
0.0
 11
19752.009710585149
 21
12861.03816800001
 31
0.0
  0
LINE
  5
1305B
  8
SUNPOU
  6
CONTINUOUS
 62
     4
 10
22712.511953585152
 20
13832.486252000001
 30
0.0
 11
22712.511953585152
 21
12781.038167999999
 31
0.0
  0
LINE
  5
1305C
  8
SUNPOU
  6
CONTINUOUS
 62
     4
 10
22755.01419658514
 20
13709.98895700001
 30
0.0
 11
22755.01419658514
 21
12781.038167999999
 31
0.0
  0
LINE
  5
1305D
  8
SUNPOU
  6
CONTINUOUS
 62
     4
 10
22712.511953585152
 20
12861.03816800001
 30
0.0
 11
22472.511953585152
 21
12861.03816800001
 31
0.0
  0
LINE
  5
1305E
  8
SUNPOU
  6
CONTINUOUS
 62
     4
 10
22755.01419658514
 20
12861.03816800001
 30
0.0
 11
22995.01419658514
 21
12861.03816800001
 31
0.0
  0
LINE
  5
1305F
  8
SUNPOU
  6
CONTINUOUS
 62
     4
 10
22712.511953585152
 20
12861.03816800001
 30
0.0
 11
22755.01419658514
 21
12861.03816800001
 31
0.0
  0
LINE
  5
13060
  8
SUNPOU
  6
CONTINUOUS
 62
     4
 10
22712.511953585152
 20
13832.486252000001
 30
0.0
 11
22712.511953585152
 21
12781.038167999999
 31
0.0
  0
LINE
  5
13061
  8
SUNPOU
  6
CONTINUOUS
 62
     4
 10
22670.009710585149
 20
13709.98895700001
 30
0.0
 11
22670.009710585149
 21
12781.038167999999
 31
0.0
  0
LINE
  5
13062
  8
SUNPOU
  6
CONTINUOUS
 62
     4
 10
22712.511953585152
 20
12861.03816800001
 30
0.0
 11
22952.511953585152
 21
12861.03816800001
 31
0.0
  0
LINE
  5
13063
  8
SUNPOU
  6
CONTINUOUS
 62
     4
 10
22670.009710585149
 20
12861.03816800001
 30
0.0
 11
22430.009710585149
 21
12861.03816800001
 31
0.0
  0
LINE
  5
13064
  8
SUNPOU
  6
CONTINUOUS
 62
     4
 10
22712.511953585152
 20
12861.03816800001
 30
0.0
 11
22670.009710585149
 21
12861.03816800001
 31
0.0
  0
LINE
  5
13065
  8
SUNPOU
  6
CONTINUOUS
 62
     4
 10
19794.511953585152
 20
13832.486252000001
 30
0.0
 11
19794.511953585152
 21
12781.038167999999
 31
0.0
  0
LINE
  5
13066
  8
SUNPOU
  6
CONTINUOUS
 62
     4
 10
19837.014196585129
 20
13709.98895700001
 30
0.0
 11
19837.014196585129
 21
12781.038167999999
 31
0.0
  0
LINE
  5
13067
  8
SUNPOU
  6
CONTINUOUS
 62
     4
 10
19794.511953585152
 20
12861.03816800001
 30
0.0
 11
19554.511953585152
 21
12861.03816800001
 31
0.0
  0
LINE
  5
13068
  8
SUNPOU
  6
CONTINUOUS
 62
     4
 10
19837.014196585129
 20
12861.03816800001
 30
0.0
 11
20077.01419658514
 21
12861.03816800001
 31
0.0
  0
LINE
  5
13069
  8
SUNPOU
  6
CONTINUOUS
 62
     4
 10
19794.511953585152
 20
12861.03816800001
 30
0.0
 11
19837.014196585129
 21
12861.03816800001
 31
0.0
  0
LINE
  5
1306A
  8
SUNPOU
  6
CONTINUOUS
 62
     4
 10
19752.009710585149
 20
13709.98895700001
 30
0.0
 11
19752.009710585149
 21
12381.038167999999
 31
0.0
  0
LINE
  5
1306B
  8
SUNPOU
  6
CONTINUOUS
 62
     4
 10
22755.01419658514
 20
13709.98895700001
 30
0.0
 11
22755.01419658514
 21
12381.038167999999
 31
0.0
  0
LINE
  5
1306C
  8
SUNPOU
  6
CONTINUOUS
 62
     4
 10
19752.009710585149
 20
12461.038167999999
 30
0.0
 11
22755.01419658514
 21
12461.038167999999
 31
0.0
  0
LINE
  5
1306D
  8
SUNPOU
  6
CONTINUOUS
 62
     4
 10
19672.013669585162
 20
14590.48625200001
 30
0.0
 11
18622.012349585159
 21
14590.48625200001
 31
0.0
  0
LINE
  5
1306E
  8
SUNPOU
  6
CONTINUOUS
 62
     4
 10
18822.012349585159
 20
13832.486252000001
 30
0.0
 11
18622.012349585159
 21
13832.486252000001
 31
0.0
  0
LINE
  5
1306F
  8
SUNPOU
  6
CONTINUOUS
 62
     4
 10
18702.012349585159
 20
14590.48625200001
 30
0.0
 11
18702.012349585159
 21
13832.486252000001
 31
0.0
  0
LINE
  5
13070
  8
SUNPOU
  6
CONTINUOUS
 62
     4
 10
19672.013669585162
 20
15291.72676350003
 30
0.0
 11
18622.012349585159
 21
15291.72676350003
 31
0.0
  0
LINE
  5
13071
  8
SUNPOU
  6
CONTINUOUS
 62
     4
 10
19672.013669585162
 20
14590.48625200001
 30
0.0
 11
18622.012349585159
 21
14590.48625200001
 31
0.0
  0
LINE
  5
13072
  8
SUNPOU
  6
CONTINUOUS
 62
     4
 10
18702.012349585159
 20
15291.72676350003
 30
0.0
 11
18702.012349585159
 21
14590.48625200001
 31
0.0
  0
LINE
  5
13073
  8
SUNPOU
  6
CONTINUOUS
 62
     4
 10
19672.013669585162
 20
15992.48625200001
 30
0.0
 11
18622.012349585159
 21
15992.48625200001
 31
0.0
  0
LINE
  5
13074
  8
SUNPOU
  6
CONTINUOUS
 62
     4
 10
19672.013669585162
 20
15291.72676350003
 30
0.0
 11
18622.012349585159
 21
15291.72676350003
 31
0.0
  0
LINE
  5
13075
  8
SUNPOU
  6
CONTINUOUS
 62
     4
 10
18702.012349585159
 20
15992.48625200001
 30
0.0
 11
18702.012349585159
 21
15291.72676350003
 31
0.0
  0
LINE
  5
13076
  8
SUNPOU
  6
CONTINUOUS
 62
     4
 10
18822.012349585159
 20
16750.48625200001
 30
0.0
 11
18622.012349585159
 21
16750.48625200001
 31
0.0
  0
LINE
  5
13077
  8
SUNPOU
  6
CONTINUOUS
 62
     4
 10
19672.013669585162
 20
15992.48625200001
 30
0.0
 11
18622.012349585159
 21
15992.48625200001
 31
0.0
  0
LINE
  5
13078
  8
SUNPOU
  6
CONTINUOUS
 62
     4
 10
18702.012349585159
 20
16750.48625200001
 30
0.0
 11
18702.012349585159
 21
15992.48625200001
 31
0.0
  0
LINE
  5
13079
  8
SUNPOU
  6
CONTINUOUS
 62
     4
 10
19672.013669585162
 20
17508.48625200001
 30
0.0
 11
18622.012349585159
 21
17508.48625200001
 31
0.0
  0
LINE
  5
1307A
  8
SUNPOU
  6
CONTINUOUS
 62
     4
 10
18822.012349585159
 20
16750.48625200001
 30
0.0
 11
18622.012349585159
 21
16750.48625200001
 31
0.0
  0
LINE
  5
1307B
  8
SUNPOU
  6
CONTINUOUS
 62
     4
 10
18702.012349585159
 20
17508.48625200001
 30
0.0
 11
18702.012349585159
 21
16750.48625200001
 31
0.0
  0
LINE
  5
1307C
  8
SUNPOU
  6
CONTINUOUS
 62
     4
 10
19672.013669585162
 20
18209.48625200001
 30
0.0
 11
18622.012349585159
 21
18209.48625200001
 31
0.0
  0
LINE
  5
1307D
  8
SUNPOU
  6
CONTINUOUS
 62
     4
 10
19672.013669585162
 20
17508.48625200001
 30
0.0
 11
18622.012349585159
 21
17508.48625200001
 31
0.0
  0
LINE
  5
1307E
  8
SUNPOU
  6
CONTINUOUS
 62
     4
 10
18702.012349585159
 20
18209.48625200001
 30
0.0
 11
18702.012349585159
 21
17508.48625200001
 31
0.0
  0
LINE
  5
1307F
  8
SUNPOU
  6
CONTINUOUS
 62
     4
 10
19672.013669585162
 20
18910.486251999999
 30
0.0
 11
18622.012349585159
 21
18910.486251999999
 31
0.0
  0
LINE
  5
13080
  8
SUNPOU
  6
CONTINUOUS
 62
     4
 10
19672.013669585162
 20
18209.48625200001
 30
0.0
 11
18622.012349585159
 21
18209.48625200001
 31
0.0
  0
LINE
  5
13081
  8
SUNPOU
  6
CONTINUOUS
 62
     4
 10
18702.012349585159
 20
18910.486251999999
 30
0.0
 11
18702.012349585159
 21
18209.48625200001
 31
0.0
  0
LINE
  5
13082
  8
SUNPOU
  6
CONTINUOUS
 62
     4
 10
18822.012349585159
 20
16750.48625200001
 30
0.0
 11
18222.012349585159
 21
16750.48625200001
 31
0.0
  0
LINE
  5
13083
  8
SUNPOU
  6
CONTINUOUS
 62
     4
 10
18822.012349585159
 20
19317.98625200001
 30
0.0
 11
18222.012349585159
 21
19317.986251999992
 31
0.0
  0
LINE
  5
13084
  8
SUNPOU
  6
CONTINUOUS
 62
     4
 10
18822.012349585159
 20
13832.486252000001
 30
0.0
 11
18222.012349585159
 21
13832.486252000001
 31
0.0
  0
LINE
  5
13085
  8
SUNPOU
  6
CONTINUOUS
 62
     4
 10
18822.012349585159
 20
16750.48625200001
 30
0.0
 11
18222.012349585159
 21
16750.48625200001
 31
0.0
  0
LINE
  5
13086
  8
SUNPOU
  6
CONTINUOUS
 62
     4
 10
19672.013669585162
 20
19360.483547000011
 30
0.0
 11
17822.012349585151
 21
19360.483547000011
 31
0.0
  0
LINE
  5
13087
  8
SUNPOU
  6
CONTINUOUS
 62
     4
 10
19672.013669585162
 20
13789.98895700001
 30
0.0
 11
17822.012349585151
 21
13789.98895700001
 31
0.0
  0
LINE
  5
13088
  8
SUNPOU
  6
CONTINUOUS
 62
     4
 10
17902.012349585151
 20
19360.483547000011
 30
0.0
 11
17902.012349585151
 21
13789.98895700001
 31
0.0
  0
LINE
  5
13089
  8
SUNPOU
  6
CONTINUOUS
 62
     4
 10
18822.012349585159
 20
19317.98625200001
 30
0.0
 11
18222.012349585159
 21
19317.986251999992
 31
0.0
  0
LINE
  5
1308A
  8
SUNPOU
  6
CONTINUOUS
 62
     4
 10
19672.013669585162
 20
19360.483547000011
 30
0.0
 11
18222.012349585159
 21
19360.483547000011
 31
0.0
  0
LINE
  5
1308B
  8
SUNPOU
  6
CONTINUOUS
 62
     4
 10
18302.012349585159
 20
19317.986251999992
 30
0.0
 11
18302.012349585159
 21
19077.986251999992
 31
0.0
  0
LINE
  5
1308C
  8
SUNPOU
  6
CONTINUOUS
 62
     4
 10
18302.012349585159
 20
19360.483547000011
 30
0.0
 11
18302.012349585159
 21
19600.483547000011
 31
0.0
  0
LINE
  5
1308D
  8
SUNPOU
  6
CONTINUOUS
 62
     4
 10
18702.012349585159
 20
19317.98625200001
 30
0.0
 11
18702.012349585159
 21
20018.069796191659
 31
0.0
  0
LINE
  5
1308E
  8
SUNPOU
  6
CONTINUOUS
 62
     4
 10
18302.012349585159
 20
19317.986251999992
 30
0.0
 11
18302.012349585159
 21
19360.483547000011
 31
0.0
  0
LINE
  5
1308F
  8
SUNPOU
  6
CONTINUOUS
 62
     4
 10
18822.012349585159
 20
13832.486252000001
 30
0.0
 11
18222.012349585159
 21
13832.486252000001
 31
0.0
  0
LINE
  5
13090
  8
SUNPOU
  6
CONTINUOUS
 62
     4
 10
19672.013669585162
 20
13789.98895700001
 30
0.0
 11
18222.012349585159
 21
13789.98895700001
 31
0.0
  0
LINE
  5
13091
  8
SUNPOU
  6
CONTINUOUS
 62
     4
 10
18302.012349585159
 20
13832.486252000001
 30
0.0
 11
18302.012349585159
 21
14072.486252000001
 31
0.0
  0
LINE
  5
13092
  8
SUNPOU
  6
CONTINUOUS
 62
     4
 10
18302.012349585159
 20
13789.98895700001
 30
0.0
 11
18302.012349585159
 21
13549.98895700001
 31
0.0
  0
LINE
  5
13093
  8
SUNPOU
  6
CONTINUOUS
 62
     4
 10
18302.012349585159
 20
13832.486252000001
 30
0.0
 11
18302.012349585159
 21
13789.98895700001
 31
0.0
  0
TEXT
  5
13094
  8
0
  6
CONTINUOUS
 62
     7
 10
18222.012349585159
 20
13216.43272060321
 30
0.0
 40
160.0
  1
42.5
 50
90.0
  0
TEXT
  5
13095
  8
0
  6
CONTINUOUS
 62
     7
 10
18222.012349585159
 20
19454.039783396802
 30
0.0
 40
160.0
  1
42.5
 50
90.0
  0
TEXT
  5
13096
  8
0
  6
CONTINUOUS
 62
     7
 10
17822.012349585151
 20
16188.569585333349
 30
0.0
 40
160.0
  1
5570.5
 50
90.0
  0
TEXT
  5
13097
  8
0
  6
CONTINUOUS
 62
     7
 10
18622.012349585159
 20
18386.652918666681
 30
0.0
 40
160.0
  1
701
 50
90.0
  0
TEXT
  5
13098
  8
0
  6
CONTINUOUS
 62
     7
 10
18622.012349585159
 20
17685.652918666681
 30
0.0
 40
160.0
  1
701
 50
90.0
  0
TEXT
  5
13099
  8
0
  6
CONTINUOUS
 62
     7
 10
18622.012349585159
 20
16916.152918666681
 30
0.0
 40
160.0
  1
758
 50
90.0
  0
TEXT
  5
1309A
  8
0
  6
CONTINUOUS
 62
     7
 10
18622.012349585159
 20
16158.152918666679
 30
0.0
 40
160.0
  1
758
 50
90.0
  0
TEXT
  5
1309B
  8
0
  6
CONTINUOUS
 62
     7
 10
18622.012349585159
 20
15468.77317441669
 30
0.0
 40
160.0
  1
701
 50
90.0
  0
TEXT
  5
1309C
  8
0
  6
CONTINUOUS
 62
     7
 10
18622.012349585159
 20
14767.77317441669
 30
0.0
 40
160.0
  1
701
 50
90.0
  0
TEXT
  5
1309D
  8
0
  6
CONTINUOUS
 62
     7
 10
18622.012349585159
 20
13998.15291866667
 30
0.0
 40
160.0
  1
758
 50
90.0
  0
TEXT
  5
1309E
  8
0
  6
CONTINUOUS
 62
     7
 10
20986.84528691848
 20
12541.038167999999
 30
0.0
 40
160.0
  1
3003
  0
TEXT
  5
1309F
  8
0
  6
CONTINUOUS
 62
     7
 10
19912.565625967229
 20
12941.03816800001
 30
0.0
 40
160.0
  1
42.5
  0
TEXT
  5
130A0
  8
0
  6
CONTINUOUS
 62
     7
 10
22114.45828120306
 20
12941.03816800001
 30
0.0
 40
160.0
  1
42.5
  0
TEXT
  5
130A1
  8
0
  6
CONTINUOUS
 62
     7
 10
22830.56562596724
 20
12941.03816800001
 30
0.0
 40
160.0
  1
42.5
  0
TEXT
  5
130A2
  8
0
  6
CONTINUOUS
 62
     7
 10
19196.458281203049
 20
12941.03816800001
 30
0.0
 40
160.0
  1
42.5
  0
TEXT
  5
130A3
  8
0
  6
CONTINUOUS
 62
     7
 10
18582.012349585159
 20
19402.13173167469
 30
0.0
 40
160.0
  1
407.5
 50
90.0
  0
ARC
  5
130A4
  8
0
  6
BYBLOCK
 62
     0
 10
18702.012349585159
 20
18910.486251999999
 30
0.0
 40
15.0
 50
270.0
 51
90.0
  0
ARC
  5
130A5
  8
0
  6
BYBLOCK
 62
     0
 10
18702.012349585159
 20
18910.486251999999
 30
0.0
 40
15.0
 50
90.0
 51
270.0
  0
ARC
  5
130A6
  8
0
  6
BYBLOCK
 62
     0
 10
18702.012349585159
 20
19317.98625200001
 30
0.0
 40
15.0
 50
90.0
 51
270.0
  0
ARC
  5
130A7
  8
0
  6
BYBLOCK
 62
     0
 10
18702.012349585159
 20
19317.98625200001
 30
0.0
 40
15.0
 50
270.0
 51
90.0
  0
ARC
  5
130A8
  8
0
  6
BYBLOCK
 62
     0
 10
19794.511953585152
 20
12861.03816800001
 30
0.0
 40
15.0
 50
0.0
 51
180.0
  0
ARC
  5
130A9
  8
0
  6
BYBLOCK
 62
     0
 10
19794.511953585152
 20
12861.03816800001
 30
0.0
 40
15.0
 50
180.0
 51
0.0
  0
ARC
  5
130AA
  8
0
  6
BYBLOCK
 62
     0
 10
19752.009710585149
 20
12861.03816800001
 30
0.0
 40
15.0
 50
180.0
 51
0.0
  0
ARC
  5
130AB
  8
0
  6
BYBLOCK
 62
     0
 10
19752.009710585149
 20
12861.03816800001
 30
0.0
 40
15.0
 50
0.0
 51
180.0
  0
ARC
  5
130AC
  8
0
  6
BYBLOCK
 62
     0
 10
22712.511953585152
 20
12861.03816800001
 30
0.0
 40
15.0
 50
180.0
 51
0.0
  0
ARC
  5
130AD
  8
0
  6
BYBLOCK
 62
     0
 10
22712.511953585152
 20
12861.03816800001
 30
0.0
 40
15.0
 50
0.0
 51
180.0
  0
ARC
  5
130AE
  8
0
  6
BYBLOCK
 62
     0
 10
22755.01419658514
 20
12861.03816800001
 30
0.0
 40
15.0
 50
0.0
 51
180.0
  0
ARC
  5
130AF
  8
0
  6
BYBLOCK
 62
     0
 10
22755.01419658514
 20
12861.03816800001
 30
0.0
 40
15.0
 50
180.0
 51
0.0
  0
ARC
  5
130B0
  8
0
  6
BYBLOCK
 62
     0
 10
22712.511953585152
 20
12861.03816800001
 30
0.0
 40
15.0
 50
0.0
 51
180.0
  0
ARC
  5
130B1
  8
0
  6
BYBLOCK
 62
     0
 10
22712.511953585152
 20
12861.03816800001
 30
0.0
 40
15.0
 50
180.0
 51
0.0
  0
ARC
  5
130B2
  8
0
  6
BYBLOCK
 62
     0
 10
22670.009710585149
 20
12861.03816800001
 30
0.0
 40
15.0
 50
180.0
 51
0.0
  0
ARC
  5
130B3
  8
0
  6
BYBLOCK
 62
     0
 10
22670.009710585149
 20
12861.03816800001
 30
0.0
 40
15.0
 50
0.0
 51
180.0
  0
ARC
  5
130B4
  8
0
  6
BYBLOCK
 62
     0
 10
19794.511953585152
 20
12861.03816800001
 30
0.0
 40
15.0
 50
180.0
 51
0.0
  0
ARC
  5
130B5
  8
0
  6
BYBLOCK
 62
     0
 10
19794.511953585152
 20
12861.03816800001
 30
0.0
 40
15.0
 50
0.0
 51
180.0
  0
ARC
  5
130B6
  8
0
  6
BYBLOCK
 62
     0
 10
19837.014196585129
 20
12861.03816800001
 30
0.0
 40
15.0
 50
0.0
 51
180.0
  0
ARC
  5
130B7
  8
0
  6
BYBLOCK
 62
     0
 10
19837.014196585129
 20
12861.03816800001
 30
0.0
 40
15.0
 50
180.0
 51
0.0
  0
ARC
  5
130B8
  8
0
  6
BYBLOCK
 62
     0
 10
19752.009710585149
 20
12461.038167999999
 30
0.0
 40
15.0
 50
0.0
 51
180.0
  0
ARC
  5
130B9
  8
0
  6
BYBLOCK
 62
     0
 10
19752.009710585149
 20
12461.038167999999
 30
0.0
 40
15.0
 50
180.0
 51
0.0
  0
ARC
  5
130BA
  8
0
  6
BYBLOCK
 62
     0
 10
22755.01419658514
 20
12461.038167999999
 30
0.0
 40
15.0
 50
180.0
 51
0.0
  0
ARC
  5
130BB
  8
0
  6
BYBLOCK
 62
     0
 10
22755.01419658514
 20
12461.038167999999
 30
0.0
 40
15.0
 50
0.0
 51
180.0
  0
ARC
  5
130BC
  8
0
  6
BYBLOCK
 62
     0
 10
18702.012349585159
 20
14590.48625200001
 30
0.0
 40
15.0
 50
90.0
 51
270.0
  0
ARC
  5
130BD
  8
0
  6
BYBLOCK
 62
     0
 10
18702.012349585159
 20
14590.48625200001
 30
0.0
 40
15.0
 50
270.0
 51
90.0
  0
ARC
  5
130BE
  8
0
  6
BYBLOCK
 62
     0
 10
18702.012349585159
 20
13832.486252000001
 30
0.0
 40
15.0
 50
270.0
 51
90.0
  0
ARC
  5
130BF
  8
0
  6
BYBLOCK
 62
     0
 10
18702.012349585159
 20
13832.486252000001
 30
0.0
 40
15.0
 50
90.0
 51
270.0
  0
ARC
  5
130C0
  8
0
  6
BYBLOCK
 62
     0
 10
18702.012349585159
 20
15291.72676350003
 30
0.0
 40
15.0
 50
90.0
 51
270.0
  0
ARC
  5
130C1
  8
0
  6
BYBLOCK
 62
     0
 10
18702.012349585159
 20
15291.72676350003
 30
0.0
 40
15.0
 50
270.0
 51
90.0
  0
ARC
  5
130C2
  8
0
  6
BYBLOCK
 62
     0
 10
18702.012349585159
 20
14590.48625200001
 30
0.0
 40
15.0
 50
270.0
 51
90.0
  0
ARC
  5
130C3
  8
0
  6
BYBLOCK
 62
     0
 10
18702.012349585159
 20
14590.48625200001
 30
0.0
 40
15.0
 50
90.0
 51
270.0
  0
ARC
  5
130C4
  8
0
  6
BYBLOCK
 62
     0
 10
18702.012349585159
 20
15992.48625200001
 30
0.0
 40
15.0
 50
90.0
 51
270.0
  0
ARC
  5
130C5
  8
0
  6
BYBLOCK
 62
     0
 10
18702.012349585159
 20
15992.48625200001
 30
0.0
 40
15.0
 50
270.0
 51
90.0
  0
ARC
  5
130C6
  8
0
  6
BYBLOCK
 62
     0
 10
18702.012349585159
 20
15291.72676350003
 30
0.0
 40
15.0
 50
270.0
 51
90.0
  0
ARC
  5
130C7
  8
0
  6
BYBLOCK
 62
     0
 10
18702.012349585159
 20
15291.72676350003
 30
0.0
 40
15.0
 50
90.0
 51
270.0
  0
ARC
  5
130C8
  8
0
  6
BYBLOCK
 62
     0
 10
18702.012349585159
 20
16750.48625200001
 30
0.0
 40
15.0
 50
90.0
 51
270.0
  0
ARC
  5
130C9
  8
0
  6
BYBLOCK
 62
     0
 10
18702.012349585159
 20
16750.48625200001
 30
0.0
 40
15.0
 50
270.0
 51
90.0
  0
ARC
  5
130CA
  8
0
  6
BYBLOCK
 62
     0
 10
18702.012349585159
 20
15992.48625200001
 30
0.0
 40
15.0
 50
270.0
 51
90.0
  0
ARC
  5
130CB
  8
0
  6
BYBLOCK
 62
     0
 10
18702.012349585159
 20
15992.48625200001
 30
0.0
 40
15.0
 50
90.0
 51
270.0
  0
ARC
  5
130CC
  8
0
  6
BYBLOCK
 62
     0
 10
18702.012349585159
 20
17508.48625200001
 30
0.0
 40
15.0
 50
90.0
 51
270.0
  0
ARC
  5
130CD
  8
0
  6
BYBLOCK
 62
     0
 10
18702.012349585159
 20
17508.48625200001
 30
0.0
 40
15.0
 50
270.0
 51
90.0
  0
ARC
  5
130CE
  8
0
  6
BYBLOCK
 62
     0
 10
18702.012349585159
 20
16750.48625200001
 30
0.0
 40
15.0
 50
270.0
 51
90.0
  0
ARC
  5
130CF
  8
0
  6
BYBLOCK
 62
     0
 10
18702.012349585159
 20
16750.48625200001
 30
0.0
 40
15.0
 50
90.0
 51
270.0
  0
ARC
  5
130D0
  8
0
  6
BYBLOCK
 62
     0
 10
18702.012349585159
 20
18209.48625200001
 30
0.0
 40
15.0
 50
90.0
 51
270.0
  0
ARC
  5
130D1
  8
0
  6
BYBLOCK
 62
     0
 10
18702.012349585159
 20
18209.48625200001
 30
0.0
 40
15.0
 50
270.0
 51
90.0
  0
ARC
  5
130D2
  8
0
  6
BYBLOCK
 62
     0
 10
18702.012349585159
 20
17508.48625200001
 30
0.0
 40
15.0
 50
270.0
 51
90.0
  0
ARC
  5
130D3
  8
0
  6
BYBLOCK
 62
     0
 10
18702.012349585159
 20
17508.48625200001
 30
0.0
 40
15.0
 50
90.0
 51
270.0
  0
ARC
  5
130D4
  8
0
  6
BYBLOCK
 62
     0
 10
18702.012349585159
 20
18910.486251999999
 30
0.0
 40
15.0
 50
90.0
 51
270.0
  0
ARC
  5
130D5
  8
0
  6
BYBLOCK
 62
     0
 10
18702.012349585159
 20
18910.486251999999
 30
0.0
 40
15.0
 50
270.0
 51
90.0
  0
ARC
  5
130D6
  8
0
  6
BYBLOCK
 62
     0
 10
18702.012349585159
 20
18209.48625200001
 30
0.0
 40
15.0
 50
270.0
 51
90.0
  0
ARC
  5
130D7
  8
0
  6
BYBLOCK
 62
     0
 10
18702.012349585159
 20
18209.48625200001
 30
0.0
 40
15.0
 50
90.0
 51
270.0
  0
ARC
  5
130D8
  8
0
  6
BYBLOCK
 62
     0
 10
18302.012349585159
 20
16750.48625200001
 30
0.0
 40
15.0
 50
270.0
 51
90.0
  0
ARC
  5
130D9
  8
0
  6
BYBLOCK
 62
     0
 10
18302.012349585159
 20
16750.48625200001
 30
0.0
 40
15.0
 50
90.0
 51
270.0
  0
ARC
  5
130DA
  8
0
  6
BYBLOCK
 62
     0
 10
18302.012349585159
 20
19317.986251999992
 30
0.0
 40
15.0
 50
90.0
 51
270.0
  0
ARC
  5
130DB
  8
0
  6
BYBLOCK
 62
     0
 10
18302.012349585159
 20
19317.986251999992
 30
0.0
 40
15.0
 50
270.0
 51
90.0
  0
ARC
  5
130DC
  8
0
  6
BYBLOCK
 62
     0
 10
18302.012349585159
 20
13832.486252000001
 30
0.0
 40
15.0
 50
270.0
 51
90.0
  0
ARC
  5
130DD
  8
0
  6
BYBLOCK
 62
     0
 10
18302.012349585159
 20
13832.486252000001
 30
0.0
 40
15.0
 50
90.0
 51
270.0
  0
ARC
  5
130DE
  8
0
  6
BYBLOCK
 62
     0
 10
18302.012349585159
 20
16750.48625200001
 30
0.0
 40
15.0
 50
90.0
 51
270.0
  0
ARC
  5
130DF
  8
0
  6
BYBLOCK
 62
     0
 10
18302.012349585159
 20
16750.48625200001
 30
0.0
 40
15.0
 50
270.0
 51
90.0
  0
ARC
  5
130E0
  8
0
  6
BYBLOCK
 62
     0
 10
17902.012349585151
 20
19360.483547000011
 30
0.0
 40
15.0
 50
90.0
 51
270.0
  0
ARC
  5
130E1
  8
0
  6
BYBLOCK
 62
     0
 10
17902.012349585151
 20
19360.483547000011
 30
0.0
 40
15.0
 50
270.0
 51
90.0
  0
ARC
  5
130E2
  8
0
  6
BYBLOCK
 62
     0
 10
17902.012349585151
 20
13789.98895700001
 30
0.0
 40
15.0
 50
270.0
 51
90.0
  0
ARC
  5
130E3
  8
0
  6
BYBLOCK
 62
     0
 10
17902.012349585151
 20
13789.98895700001
 30
0.0
 40
15.0
 50
90.0
 51
270.0
  0
ARC
  5
130E4
  8
0
  6
BYBLOCK
 62
     0
 10
18302.012349585159
 20
19317.986251999992
 30
0.0
 40
15.0
 50
90.0
 51
270.0
  0
ARC
  5
130E5
  8
0
  6
BYBLOCK
 62
     0
 10
18302.012349585159
 20
19317.986251999992
 30
0.0
 40
15.0
 50
270.0
 51
90.0
  0
ARC
  5
130E6
  8
0
  6
BYBLOCK
 62
     0
 10
18302.012349585159
 20
19360.483547000011
 30
0.0
 40
15.0
 50
270.0
 51
90.0
  0
ARC
  5
130E7
  8
0
  6
BYBLOCK
 62
     0
 10
18302.012349585159
 20
19360.483547000011
 30
0.0
 40
15.0
 50
90.0
 51
270.0
  0
ARC
  5
130E8
  8
0
  6
BYBLOCK
 62
     0
 10
18302.012349585159
 20
13832.486252000001
 30
0.0
 40
15.0
 50
270.0
 51
90.0
  0
ARC
  5
130E9
  8
0
  6
BYBLOCK
 62
     0
 10
18302.012349585159
 20
13832.486252000001
 30
0.0
 40
15.0
 50
90.0
 51
270.0
  0
ARC
  5
130EA
  8
0
  6
BYBLOCK
 62
     0
 10
18302.012349585159
 20
13789.98895700001
 30
0.0
 40
15.0
 50
90.0
 51
270.0
  0
ARC
  5
130EB
  8
0
  6
BYBLOCK
 62
     0
 10
18302.012349585159
 20
13789.98895700001
 30
0.0
 40
15.0
 50
270.0
 51
90.0
  0
LINE
  5
130EC
  8
SUNPOU
  6
CONTINUOUS
 62
     4
 10
19108.970621585158
 20
18209.48625200001
 30
0.0
 11
18222.012349585159
 21
18209.48625200001
 31
0.0
  0
LINE
  5
130ED
  8
SUNPOU
  6
CONTINUOUS
 62
     4
 10
18302.012349585159
 20
18209.48625200001
 30
0.0
 11
18302.012349585159
 21
19317.98625200001
 31
0.0
  0
LINE
  5
130EE
  8
SUNPOU
  6
CONTINUOUS
 62
     4
 10
19108.970621585158
 20
18209.48625200001
 30
0.0
 11
18222.012349585159
 21
18209.48625200001
 31
0.0
  0
LINE
  5
130EF
  8
SUNPOU
  6
CONTINUOUS
 62
     4
 10
18302.012349585159
 20
16750.48625200001
 30
0.0
 11
18302.012349585159
 21
18209.48625200001
 31
0.0
  0
LINE
  5
130F0
  8
SUNPOU
  6
CONTINUOUS
 62
     4
 10
19108.970621585158
 20
15291.72676350003
 30
0.0
 11
18222.012349585159
 21
15291.72676350003
 31
0.0
  0
LINE
  5
130F1
  8
SUNPOU
  6
CONTINUOUS
 62
     4
 10
18302.012349585159
 20
15291.72676350003
 30
0.0
 11
18302.012349585159
 21
16750.48625200001
 31
0.0
  0
LINE
  5
130F2
  8
SUNPOU
  6
CONTINUOUS
 62
     4
 10
19108.970621585158
 20
15291.72676350003
 30
0.0
 11
18222.012349585159
 21
15291.72676350003
 31
0.0
  0
LINE
  5
130F3
  8
SUNPOU
  6
CONTINUOUS
 62
     4
 10
18302.012349585159
 20
13832.486252000001
 30
0.0
 11
18302.012349585159
 21
15291.72676350003
 31
0.0
  0
TEXT
  5
130F4
  8
0
  6
CONTINUOUS
 62
     7
 10
18222.01234958514
 20
14295.439841083349
 30
0.0
 40
160.0
  1
1459
 50
90.0
  0
TEXT
  5
130F5
  8
0
  6
CONTINUOUS
 62
     7
 10
18222.01234958514
 20
15754.43984108336
 30
0.0
 40
160.0
  1
1459
 50
90.0
  0
TEXT
  5
130F6
  8
0
  6
CONTINUOUS
 62
     7
 10
18222.01234958514
 20
17213.319585333338
 30
0.0
 40
160.0
  1
1459
 50
90.0
  0
TEXT
  5
130F7
  8
0
  6
CONTINUOUS
 62
     7
 10
18222.01234958514
 20
18430.402918666681
 30
0.0
 40
160.0
  1
1108.5
 50
90.0
  0
ARC
  5
130F8
  8
0
  6
BYBLOCK
 62
     0
 10
18302.012349585159
 20
18209.48625200001
 30
0.0
 40
15.0
 50
270.0
 51
90.0
  0
ARC
  5
130F9
  8
0
  6
BYBLOCK
 62
     0
 10
18302.012349585159
 20
18209.48625200001
 30
0.0
 40
15.0
 50
90.0
 51
270.0
  0
ARC
  5
130FA
  8
0
  6
BYBLOCK
 62
     0
 10
18302.012349585159
 20
19317.98625200001
 30
0.0
 40
15.0
 50
90.0
 51
270.0
  0
ARC
  5
130FB
  8
0
  6
BYBLOCK
 62
     0
 10
18302.012349585159
 20
19317.98625200001
 30
0.0
 40
15.0
 50
270.0
 51
90.0
  0
ARC
  5
130FC
  8
0
  6
BYBLOCK
 62
     0
 10
18302.012349585159
 20
16750.48625200001
 30
0.0
 40
15.0
 50
270.0
 51
90.0
  0
ARC
  5
130FD
  8
0
  6
BYBLOCK
 62
     0
 10
18302.012349585159
 20
16750.48625200001
 30
0.0
 40
15.0
 50
90.0
 51
270.0
  0
ARC
  5
130FE
  8
0
  6
BYBLOCK
 62
     0
 10
18302.012349585159
 20
18209.48625200001
 30
0.0
 40
15.0
 50
90.0
 51
270.0
  0
ARC
  5
130FF
  8
0
  6
BYBLOCK
 62
     0
 10
18302.012349585159
 20
18209.48625200001
 30
0.0
 40
15.0
 50
270.0
 51
90.0
  0
ARC
  5
13100
  8
0
  6
BYBLOCK
 62
     0
 10
18302.012349585159
 20
15291.72676350003
 30
0.0
 40
15.0
 50
270.0
 51
90.0
  0
ARC
  5
13101
  8
0
  6
BYBLOCK
 62
     0
 10
18302.012349585159
 20
15291.72676350003
 30
0.0
 40
15.0
 50
90.0
 51
270.0
  0
ARC
  5
13102
  8
0
  6
BYBLOCK
 62
     0
 10
18302.012349585159
 20
16750.48625200001
 30
0.0
 40
15.0
 50
90.0
 51
270.0
  0
ARC
  5
13103
  8
0
  6
BYBLOCK
 62
     0
 10
18302.012349585159
 20
16750.48625200001
 30
0.0
 40
15.0
 50
270.0
 51
90.0
  0
ARC
  5
13104
  8
0
  6
BYBLOCK
 62
     0
 10
18302.012349585159
 20
13832.486252000001
 30
0.0
 40
15.0
 50
270.0
 51
90.0
  0
ARC
  5
13105
  8
0
  6
BYBLOCK
 62
     0
 10
18302.012349585159
 20
13832.486252000001
 30
0.0
 40
15.0
 50
90.0
 51
270.0
  0
ARC
  5
13106
  8
0
  6
BYBLOCK
 62
     0
 10
18302.012349585159
 20
15291.72676350003
 30
0.0
 40
15.0
 50
90.0
 51
270.0
  0
ARC
  5
13107
  8
0
  6
BYBLOCK
 62
     0
 10
18302.012349585159
 20
15291.72676350003
 30
0.0
 40
15.0
 50
270.0
 51
90.0
  0
TEXT
  5
10131FE
  8
FILENAME
  6
CONTINUOUS
 10
26061.142857142859
 20
348.0
 30
0.0
 40
200.0
  1
＜VGCU-3055+VKCU-2855-R-1-A_0.DXF ＞
  7
FILENAME
 72
     2
 11
32764.0
 21
348.0
 31
0.0
  0
LINE
  5
1013204
  8
WAKUSEN-01
 10
868.00000000000193
 20
827.99999999999955
 30
0.0
 11
32764.000000000011
 21
827.99999999999943
 31
0.0
  0
LINE
  5
1013205
  8
WAKUSEN-01
 10
868.00000000000193
 20
827.99999999999955
 30
0.0
 11
868.00000000000193
 21
22484.000000000011
 31
0.0
  0
LINE
  5
1013206
  8
WAKUSEN-01
 10
32764.000000000011
 20
827.99999999999943
 30
0.0
 11
32764.000000000011
 21
22484.000000000011
 31
0.0
  0
LINE
  5
1013207
  8
WAKUSEN-01
 10
20560.0
 20
827.99999999999716
 30
0.0
 11
20560.0
 21
2484.0
 31
0.0
  0
LINE
  5
1013208
  8
WAKUSEN-02
 10
26868.0
 20
827.99999999999261
 30
0.0
 11
26868.0
 21
2484.0
 31
0.0
  0
ENDSEC
  0
EOF
