  0
SECTION
  2
HEADER
  9
$ACADVER
  1
AC1009
  9
$INSBASE
 10
0.0
 20
0.0
 30
0.0
  9
$EXTMIN
 10
867.99324330406671
 20
327.38164749855792
 30
-0.0000000000000057
  9
$EXTMAX
 10
32765.33210850941
 20
22484.553276491992
 30
0.0000000000000104
  9
$LIMMIN
 10
0.0
 20
0.0
  9
$LIMMAX
 10
33600.0
 20
23760.0
  9
$ORTHOMODE
 70
     1
  9
$REGENMODE
 70
     1
  9
$FILLMODE
 70
     1
  9
$QTEXTMODE
 70
     0
  9
$MIRRTEXT
 70
     0
  9
$DRAGMODE
 70
     2
  9
$LTSCALE
 40
80.0
  9
$OSMODE
 70
  3071
  9
$ATTMODE
 70
     1
  9
$TEXTSIZE
 40
0.2
  9
$TRACEWID
 40
0.05
  9
$TEXTSTYLE
  7
00
  9
$CLAYER
  8
0
  9
$CELTYPE
  6
BYLAYER
  9
$CECOLOR
 62
   256
  9
$DIMSCALE
 40
1.0
  9
$DIMASZ
 40
0.18
  9
$DIMEXO
 40
0.0625
  9
$DIMDLI
 40
0.38
  9
$DIMRND
 40
0.0
  9
$DIMDLE
 40
0.0
  9
$DIMEXE
 40
0.18
  9
$DIMTP
 40
0.0
  9
$DIMTM
 40
0.0
  9
$DIMTXT
 40
0.18
  9
$DIMCEN
 40
0.09
  9
$DIMTSZ
 40
0.0
  9
$DIMTOL
 70
     0
  9
$DIMLIM
 70
     0
  9
$DIMTIH
 70
     1
  9
$DIMTOH
 70
     1
  9
$DIMSE1
 70
     0
  9
$DIMSE2
 70
     0
  9
$DIMTAD
 70
     0
  9
$DIMZIN
 70
     0
  9
$DIMBLK
  1

  9
$DIMASO
 70
     1
  9
$DIMSHO
 70
     1
  9
$DIMPOST
  1

  9
$DIMAPOST
  1

  9
$DIMALT
 70
     0
  9
$DIMALTD
 70
     2
  9
$DIMALTF
 40
25.399999999999999
  9
$DIMLFAC
 40
1.0
  9
$DIMTOFL
 70
     0
  9
$DIMTVP
 40
0.0
  9
$DIMTIX
 70
     0
  9
$DIMSOXD
 70
     0
  9
$DIMSAH
 70
     0
  9
$DIMBLK1
  1

  9
$DIMBLK2
  1

  9
$DIMSTYLE
  2
STANDARD
  9
$DIMCLRD
 70
     0
  9
$DIMCLRE
 70
     0
  9
$DIMCLRT
 70
     0
  9
$DIMTFAC
 40
1.0
  9
$DIMGAP
 40
0.09
  9
$LUNITS
 70
     2
  9
$LUPREC
 70
     4
  9
$SKETCHINC
 40
0.1
  9
$FILLETRAD
 40
0.0
  9
$AUNITS
 70
     0
  9
$AUPREC
 70
     0
  9
$MENU
  1
acad
  9
$ELEVATION
 40
0.0
  9
$PELEVATION
 40
0.0
  9
$THICKNESS
 40
0.0
  9
$LIMCHECK
 70
     0
  9
$BLIPMODE
 70
     1
  9
$CHAMFERA
 40
0.0
  9
$CHAMFERB
 40
0.0
  9
$SKPOLY
 70
     0
  9
$TDCREATE
 40
2311940.075052408
  9
$TDUPDATE
 40
2458942.4615845829
  9
$TDINDWG
 40
0.3024894444
  9
$TDUSRTIMER
 40
0.3024886111
  9
$USRTIMER
 70
     1
  9
$ANGBASE
 50
0.0
  9
$ANGDIR
 70
     0
  9
$PDMODE
 70
     0
  9
$PDSIZE
 40
0.0
  9
$PLINEWID
 40
0.0
  9
$COORDS
 70
     1
  9
$SPLFRAME
 70
     0
  9
$SPLINETYPE
 70
     6
  9
$SPLINESEGS
 70
     8
  9
$ATTDIA
 70
     1
  9
$ATTREQ
 70
     1
  9
$HANDLING
 70
     1
  9
$HANDSEED
  5
1012D35
  9
$SURFTAB1
 70
     6
  9
$SURFTAB2
 70
     6
  9
$SURFTYPE
 70
     6
  9
$SURFU
 70
     6
  9
$SURFV
 70
     6
  9
$UCSNAME
  2

  9
$UCSORG
 10
0.0
 20
0.0
 30
0.0
  9
$UCSXDIR
 10
1.0
 20
0.0
 30
0.0
  9
$UCSYDIR
 10
0.0
 20
1.0
 30
0.0
  9
$PUCSNAME
  2

  9
$PUCSORG
 10
0.0
 20
0.0
 30
0.0
  9
$PUCSXDIR
 10
1.0
 20
0.0
 30
0.0
  9
$PUCSYDIR
 10
0.0
 20
1.0
 30
0.0
  9
$USERI1
 70
     0
  9
$USERI2
 70
     0
  9
$USERI3
 70
     0
  9
$USERI4
 70
     0
  9
$USERI5
 70
     0
  9
$USERR1
 40
0.0
  9
$USERR2
 40
0.0
  9
$USERR3
 40
0.0
  9
$USERR4
 40
0.0
  9
$USERR5
 40
0.0
  9
$WORLDVIEW
 70
     1
  9
$SHADEDGE
 70
     3
  9
$SHADEDIF
 70
    70
  9
$TILEMODE
 70
     1
  9
$MAXACTVP
 70
    16
  9
$PLIMCHECK
 70
     0
  9
$PEXTMIN
 10
1.0000000000000000E+020
 20
1.0000000000000000E+020
 30
1.0000000000000000E+020
  9
$PEXTMAX
 10
-1.0000000000000000E+020
 20
-1.0000000000000000E+020
 30
-1.0000000000000000E+020
  9
$PLIMMIN
 10
0.0
 20
0.0
  9
$PLIMMAX
 10
12.0
 20
9.0
  9
$UNITMODE
 70
     0
  9
$VISRETAIN
 70
     0
  9
$PLINEGEN
 70
     1
  9
$PSLTSCALE
 70
     0
  0
ENDSEC
  0
SECTION
  2
TABLES
  0
TABLE
  2
VPORT
 70
     1
  0
VPORT
  2
*ACTIVE
 70
     0
 10
0.0
 20
0.0
 11
1.0
 21
1.0
 12
16800.0
 22
11880.0
 13
0.0
 23
0.0
 14
1.0
 24
1.0
 15
0.0
 25
0.0
 16
0.0
 26
0.0
 36
1.0
 17
0.0
 27
0.0
 37
0.0
 40
23981.023255813951
 41
2.195652173913043
 42
50.0
 43
0.0
 44
0.0
 50
0.0
 51
0.0
 71
     0
 72
 10000
 73
     1
 74
     1
 75
     0
 76
     0
 77
     0
 78
     0
  0
ENDTAB
  0
TABLE
  2
LTYPE
 70
     6
  0
LTYPE
  2
CONTINUOUS
 70
     0
  3
Solid line
 72
    65
 73
     0
 40
0.0
  0
LTYPE
  2
DASHED3
 70
     0
  3
------  ------  ------  ------  
 72
    65
 73
     2
 40
5.0
 49
3.75
 49
-1.25
  0
LTYPE
  2
CENTER2
 70
     0
  3
----------  --  ----------  --  
 72
    65
 73
     4
 40
20.0
 49
12.5
 49
-2.5
 49
2.5
 49
-2.5
  0
LTYPE
  2
HIDE-M
 70
     0
  3

 72
    65
 73
     2
 40
2.0
 49
1.0
 49
-1.0
  0
LTYPE
  2
1PL-M
 70
     0
  3

 72
    65
 73
     4
 40
15.0
 49
12.0
 49
-1.0
 49
1.0
 49
-1.0
  0
LTYPE
  2
PHANTOM2
 70
     0
  3
___ _ _ ___ _ _ ___ _ _ ___ _ _
 72
    65
 73
     6
 40
1.25
 49
0.625
 49
-0.125
 49
0.125
 49
-0.125
 49
0.125
 49
-0.125
  0
ENDTAB
  0
TABLE
  2
LAYER
 70
    24
  0
LAYER
  2
0
 70
     0
 62
     7
  6
CONTINUOUS
  0
LAYER
  2
SUNPOU
 70
     0
 62
     4
  6
CONTINUOUS
  0
LAYER
  2
0-1
 70
     0
 62
     7
  6
CONTINUOUS
  0
LAYER
  2
0-2
 70
     0
 62
     7
  6
CONTINUOUS
  0
LAYER
  2
0-5
 70
     0
 62
     7
  6
CONTINUOUS
  0
LAYER
  2
0-6
 70
     0
 62
     7
  6
CONTINUOUS
  0
LAYER
  2
2-0
 70
     0
 62
     7
  6
CONTINUOUS
  0
LAYER
  2
0-8
 70
     0
 62
     7
  6
CONTINUOUS
  0
LAYER
  2
YODOROGO
 70
     0
 62
   130
  6
CONTINUOUS
  0
LAYER
  2
WAKUSEN-01
 70
     0
 62
    50
  6
CONTINUOUS
  0
LAYER
  2
WAKUSEN-02
 70
     0
 62
   130
  6
CONTINUOUS
  0
LAYER
  2
WAKUMOJI-01
 70
     0
 62
   130
  6
CONTINUOUS
  0
LAYER
  2
FILENAME
 70
     0
 62
     7
  6
CONTINUOUS
  0
LAYER
  2
NAME
 70
     0
 62
    20
  6
CONTINUOUS
  0
LAYER
  2
0-4
 70
     0
 62
     7
  6
CONTINUOUS
  0
LAYER
  2
1-前柱P
 70
     0
 62
     3
  6
CONTINUOUS
  0
LAYER
  2
1-前柱カバ-P
 70
     0
 62
     3
  6
CONTINUOUS
  0
LAYER
  2
1-桁前P28
 70
     0
 62
     3
  6
CONTINUOUS
  0
LAYER
  2
1-後柱P
 70
     0
 62
     3
  6
CONTINUOUS
  0
LAYER
  2
1-中柱P
 70
     0
 62
     3
  6
CONTINUOUS
  0
LAYER
  2
1-後柱カバ-P
 70
     0
 62
     7
  6
CONTINUOUS
  0
LAYER
  2
1-中柱カバ-P
 70
     0
 62
     7
  6
CONTINUOUS
  0
ENDTAB
  0
TABLE
  2
STYLE
 70
     6
  0
STYLE
  2
STANDARD
 70
     0
 40
0.0
 41
1.0
 50
0.0
 71
     0
 42
0.0
  3
txt
  4
BIGFONT
  0
STYLE
  2
00
 70
     0
 40
0.0
 41
0.6666666666666666
 50
0.0
 71
     0
 42
0.2
  3
ROMANS
  4
BIGFONT
  0
STYLE
  2
01
 70
     0
 40
3.0
 41
1.0
 50
0.0
 71
     0
 42
0.2
  3
ROMANS
  4
BIGFONT
  0
STYLE
  2
WAKUMOJI
 70
     0
 40
3.0
 41
1.0
 50
0.0
 71
     0
 42
3.0
  3
SIMPLEX
  4
BIGFONT
  0
STYLE
  2
FILENAME
 70
     0
 40
200.0
 41
1.0
 50
0.0
 71
     0
 42
200.0
  3
romans
  4
bigfont
  0
ENDTAB
  0
TABLE
  2
VIEW
 70
     0
  0
ENDTAB
  0
TABLE
  2
UCS
 70
     0
  0
ENDTAB
  0
TABLE
  2
APPID
 70
    17
  0
APPID
  2
ACAD
 70
     0
  0
APPID
  2
ACADANNOTATIVE
 70
     0
  0
APPID
  2
ACAD_PSEXT
 70
     0
  0
APPID
  2
DCO15
 70
     0
  0
APPID
  2
ACAD_MLEADERVER
 70
     0
  0
APPID
  2
AUTOCAD_POSTSCRIPT_FIGURE
 70
     0
  0
APPID
  2
ACAD_EXEMPT_FROM_CAD_STANDARDS
 70
     0
  0
APPID
  2
ACLAYERTOOLS
 70
     0
  0
APPID
  2
ACAD_DSTYLE_DIMJAG
 70
     0
  0
APPID
  2
ACAD_DSTYLE_DIMTALN
 70
     0
  0
APPID
  2
ACAECLAYERSTANDARD
 70
     0
  0
APPID
  2
ACAD_DSTYLE_DIMBREAK
 70
     0
  0
APPID
  2
ACAD_DSTYLE_DIM_LINETYPE
 70
     0
  0
APPID
  2
ACAD_DSTYLE_DIM_EXT1_LINETYPE
 70
     0
  0
APPID
  2
ACAD_DSTYLE_DIM_EXT2_LINETYPE
 70
     0
  0
APPID
  2
ACAD_DSTYLE_DIMFLIPARROW_W
 70
     0
  0
APPID
  2
ACAD_NAV_VCDISPLAY
 70
     0
  0
ENDTAB
  0
TABLE
  2
DIMSTYLE
 70
     3
  0
DIMSTYLE
  2
STANDARD
 70
     0
  3

  4

  5

  6

  7

 40
1.0
 41
0.18
 42
0.0625
 43
0.38
 44
0.18
 45
0.0
 46
0.0
 47
0.0
 48
0.0
140
0.18
141
0.09
142
0.0
143
25.399999999999999
144
1.0
145
0.0
146
1.0
147
0.09
 71
     0
 72
     0
 73
     1
 74
     1
 75
     0
 76
     0
 77
     0
 78
     0
170
     0
171
     2
172
     0
173
     0
174
     0
175
     0
176
     0
177
     0
178
     0
  0
ENDTAB
  0
ENDSEC
  0
SECTION
  2
BLOCKS
  0
BLOCK
  8
0
  2
$MODEL_SPACE
 70
     0
 10
0.0
 20
0.0
 30
0.0
  3
$MODEL_SPACE
  1

  0
ENDBLK
  5
1166E
  8
0
  0
BLOCK
 67
     1
  8
0
  2
$PAPER_SPACE
 70
     0
 10
0.0
 20
0.0
 30
0.0
  3
$PAPER_SPACE
  1

  0
ENDBLK
  5
1166A
 67
     1
  8
0
  0
ENDSEC
  0
SECTION
  2
ENTITIES
  0
TEXT
  5
116AD
  8
2-0
  6
CONTINUOUS
 62
     7
 10
22172.668069228708
 20
11251.104441999991
 30
0.0
 40
160.0
  1
平　面　図
 72
     4
 11
22626.00140256204
 21
11325.77110866666
 31
0.0
  0
TEXT
  5
116AE
  8
2-0
  6
CONTINUOUS
 62
     7
 10
9072.2249731349984
 20
11156.81700299998
 30
0.0
 40
160.0
  1
小 屋 伏 図
 72
     4
 11
9573.5583064683324
 21
11236.81700299998
 31
0.0
  0
TEXT
  5
116AF
  8
2-0
  6
CONTINUOUS
 62
     7
 10
23977.493587699679
 20
11272.96647766667
 30
0.0
 40
160.0
  1
1
 72
     4
 11
24004.160254366339
 21
11352.96647766667
 31
0.0
  0
TEXT
  5
116B0
  8
2-0
  6
CONTINUOUS
 62
     7
 10
24220.58230495036
 20
11192.967945666671
 30
0.0
 40
160.0
  1
80
 72
     4
 11
24340.58230495036
 21
11272.967945666671
 31
0.0
  0
TEXT
  5
116B1
  8
2-0
  6
CONTINUOUS
 62
     7
 10
23478.495553699671
 20
11245.77110866666
 30
0.0
 40
160.0
  1
(S=  /   )
 72
     4
 11
24038.495553699671
 21
11325.77110866666
 31
0.0
  0
TEXT
  5
116B2
  8
2-0
  6
CONTINUOUS
 62
     7
 10
10925.050491605951
 20
11184.012371999979
 30
0.0
 40
160.0
  1
1
 72
     4
 11
10951.717158272621
 21
11264.012371999979
 31
0.0
  0
TEXT
  5
116B3
  8
2-0
  6
CONTINUOUS
 62
     7
 10
11168.13920885665
 20
11104.01383999998
 30
0.0
 40
160.0
  1
80
 72
     4
 11
11288.13920885665
 21
11184.01383999998
 31
0.0
  0
TEXT
  5
116B4
  8
2-0
  6
CONTINUOUS
 62
     7
 10
10426.052457605951
 20
11156.81700299998
 30
0.0
 40
160.0
  1
(S=  /   )
 72
     4
 11
10986.052457605951
 21
11236.81700299998
 31
0.0
  0
TEXT
  5
116BA
  8
2-0
  6
CONTINUOUS
 62
     7
 10
22472.73476422442
 20
3292.8025890000031
 30
0.0
 40
160.0
  1
正 面 立 面 図
 72
     4
 11
23118.068097557749
 21
3372.8025890000031
 31
0.0
  0
TEXT
  5
116BB
  8
2-0
  6
CONTINUOUS
 62
     7
 10
8790.0232146297967
 20
3264.0669070000081
 30
0.0
 40
160.0
  1
側 面 立 面 図
 50
0.0001389999996588
 72
     4
 11
9435.3563538806193
 21
3344.0684725833789
 31
0.0
  0
TEXT
  5
116BC
  8
2-0
  6
CONTINUOUS
 62
     7
 10
10786.84853901825
 20
3291.263841583379
 30
0.0
 40
160.0
  1
1
 72
     4
 11
10813.51520568492
 21
3371.263841583379
 31
0.0
  0
TEXT
  5
116BD
  8
2-0
  6
CONTINUOUS
 62
     7
 10
11029.93725626894
 20
3211.2653095833812
 30
0.0
 40
160.0
  1
80
 72
     4
 11
11149.93725626894
 21
3291.2653095833798
 31
0.0
  0
TEXT
  5
116BE
  8
2-0
  6
CONTINUOUS
 62
     7
 10
10287.85050501823
 20
3264.0684725833789
 30
0.0
 40
160.0
  1
(S=  /   )
 72
     4
 11
10847.85050501823
 21
3344.0684725833789
 31
0.0
  0
TEXT
  5
116BF
  8
2-0
  6
CONTINUOUS
 62
     7
 10
24469.56028269534
 20
3319.9979580000049
 30
0.0
 40
160.0
  1
1
 72
     4
 11
24496.226949362012
 21
3399.9979580000049
 31
0.0
  0
TEXT
  5
116C0
  8
2-0
  6
CONTINUOUS
 62
     7
 10
24712.648999946061
 20
3239.9994260000049
 30
0.0
 40
160.0
  1
80
 72
     4
 11
24832.648999946061
 21
3319.9994260000049
 31
0.0
  0
TEXT
  5
116C1
  8
2-0
  6
CONTINUOUS
 62
     7
 10
23970.562248695362
 20
3292.8025890000031
 30
0.0
 40
160.0
  1
(S=  /   )
 72
     4
 11
24530.562248695362
 21
3372.8025890000031
 31
0.0
  0
LINE
  5
116C2
  8
0-1
  6
CONTINUOUS
 62
     3
 10
26958.514223585142
 20
8132.6883740000021
 30
0.0
 11
24125.510792585181
 21
8132.6883740000021
 31
0.0
  0
LINE
  5
116C3
  8
0-1
  6
CONTINUOUS
 62
     3
 10
26958.514223585142
 20
8326.1887430000061
 30
0.0
 11
24125.510792585181
 21
8326.1887430000061
 31
0.0
  0
LINE
  5
116C4
  8
0-1
  6
CONTINUOUS
 62
     3
 10
27086.510528585171
 20
8264.002661999999
 30
0.0
 11
27086.510528585171
 21
8589.6883999999973
 31
0.0
  0
LINE
  5
116C5
  8
0-1
  6
CONTINUOUS
 62
     3
 10
24040.512243585181
 20
8459.6884660000014
 30
0.0
 11
27086.510528585171
 21
8459.6884660000014
 31
0.0
  0
LINE
  5
116C6
  8
0-1
  6
CONTINUOUS
 62
     3
 10
27086.510528585171
 20
8589.6883999999973
 30
0.0
 11
24060.50934058518
 21
8589.6883999999973
 31
0.0
  0
LINE
  5
116C7
  8
0-1
  6
CONTINUOUS
 62
     3
 10
11737.54750569357
 20
8152.234418
 30
0.0
 11
11737.54750569357
 21
6291.1885390000016
 31
0.0
  0
LINE
  5
116C8
  8
0-1
  6
CONTINUOUS
 62
     3
 10
11774.54569769356
 20
8152.234418
 30
0.0
 11
11774.54569769356
 21
6291.1885390000016
 31
0.0
  0
LINE
  5
116C9
  8
0-1
  6
CONTINUOUS
 62
     3
 10
11037.54816569357
 20
8152.234418
 30
0.0
 11
11037.54816569357
 21
6291.1885390000016
 31
0.0
  0
LINE
  5
116CA
  8
0-1
  6
CONTINUOUS
 62
     3
 10
11074.546357693571
 20
8152.234418
 30
0.0
 11
11074.546357693571
 21
6291.1885390000016
 31
0.0
  0
LINE
  5
116CB
  8
0-1
  6
CONTINUOUS
 62
     3
 10
11416.04795469358
 20
6291.1885390000016
 30
0.0
 11
11416.04795469358
 21
8152.234418
 31
0.0
  0
LINE
  5
116CC
  8
0-1
  6
CONTINUOUS
 62
     3
 10
11396.04689869355
 20
6291.1885390000016
 30
0.0
 11
11396.04689869355
 21
8152.234418
 31
0.0
  0
LINE
  5
116CD
  8
0-1
  6
CONTINUOUS
 62
     3
 10
11466.046634693559
 20
6291.1885390000016
 30
0.0
 11
11466.046634693559
 21
8152.234418
 31
0.0
  0
LINE
  5
116CE
  8
0-1
  6
CONTINUOUS
 62
     3
 10
11346.04722869356
 20
6291.1885390000016
 30
0.0
 11
11346.04722869356
 21
8152.234418
 31
0.0
  0
LINE
  5
116CF
  8
0-1
  6
CONTINUOUS
 62
     3
 10
11213.047334693571
 20
6291.1885390000016
 30
0.0
 11
11213.047334693571
 21
8152.234418
 31
0.0
  0
LINE
  5
116D0
  8
0-1
  6
CONTINUOUS
 62
     3
 10
11198.047532693559
 20
6291.1885390000016
 30
0.0
 11
11198.047532693559
 21
8152.234418
 31
0.0
  0
LINE
  5
116D1
  8
0-1
  6
CONTINUOUS
 62
     3
 10
11599.04751969356
 20
6291.1885390000016
 30
0.0
 11
11599.04751969356
 21
8152.234418
 31
0.0
  0
LINE
  5
116D2
  8
0-1
  6
CONTINUOUS
 62
     3
 10
11614.04633169356
 20
6291.1885390000016
 30
0.0
 11
11614.04633169356
 21
8152.234418
 31
0.0
  0
LINE
  5
116D3
  8
0-1
  6
CONTINUOUS
 62
     3
 10
11898.046872693551
 20
6291.1885390000016
 30
0.0
 11
11898.046872693551
 21
8152.234418
 31
0.0
  0
LINE
  5
116D4
  8
0-1
  6
CONTINUOUS
 62
     3
 10
11913.04766469356
 20
6291.1885390000016
 30
0.0
 11
11913.04766469356
 21
8152.234418
 31
0.0
  0
LINE
  5
116D5
  8
0-1
  6
CONTINUOUS
 62
     3
 10
12046.04656869358
 20
6291.1885390000016
 30
0.0
 11
12046.04656869358
 21
8152.234418
 31
0.0
  0
LINE
  5
116D6
  8
0-1
  6
CONTINUOUS
 62
     3
 10
12166.04795469356
 20
6291.1885390000016
 30
0.0
 11
12166.04795469356
 21
8152.234418
 31
0.0
  0
LINE
  5
116D7
  8
0-1
  6
CONTINUOUS
 62
     3
 10
12096.04524969356
 20
6291.1885390000016
 30
0.0
 11
12096.04524969356
 21
8152.234418
 31
0.0
  0
LINE
  5
116D8
  8
0-1
  6
CONTINUOUS
 62
     3
 10
12116.04630469356
 20
6291.1885390000016
 30
0.0
 11
12116.04630469356
 21
8152.234418
 31
0.0
  0
LINE
  5
116D9
  8
0-1
  6
CONTINUOUS
 62
     3
 10
10914.04798069356
 20
6291.1885390000016
 30
0.0
 11
10914.04798069356
 21
8152.234418
 31
0.0
  0
LINE
  5
116DA
  8
0-1
  6
CONTINUOUS
 62
     3
 10
10899.04718969356
 20
6291.1885390000016
 30
0.0
 11
10899.04718969356
 21
8152.234418
 31
0.0
  0
LINE
  5
116DB
  8
0-1
  6
CONTINUOUS
 62
     3
 10
10766.04630469356
 20
6291.1885390000016
 30
0.0
 11
10766.04630469356
 21
8152.234418
 31
0.0
  0
LINE
  5
116DC
  8
0-1
  6
CONTINUOUS
 62
     3
 10
10498.04720269356
 20
6291.1885390000016
 30
0.0
 11
10498.04720269356
 21
8152.234418
 31
0.0
  0
LINE
  5
116DD
  8
0-1
  6
CONTINUOUS
 62
     3
 10
10513.04601469356
 20
6291.1885390000016
 30
0.0
 11
10513.04601469356
 21
8152.234418
 31
0.0
  0
LINE
  5
116DE
  8
0-1
  6
CONTINUOUS
 62
     3
 10
10646.04689869357
 20
6291.1885390000016
 30
0.0
 11
10646.04689869357
 21
8152.234418
 31
0.0
  0
LINE
  5
116DF
  8
0-1
  6
CONTINUOUS
 62
     3
 10
10696.04656869358
 20
6291.1885390000016
 30
0.0
 11
10696.04656869358
 21
8152.234418
 31
0.0
  0
LINE
  5
116E0
  8
0-1
  6
CONTINUOUS
 62
     3
 10
10716.04564569355
 20
6291.1885390000016
 30
0.0
 11
10716.04564569355
 21
8152.234418
 31
0.0
  0
LINE
  5
116E1
  8
0-1
  6
CONTINUOUS
 62
     3
 10
9888.0466746935726
 20
6291.1885390000016
 30
0.0
 11
9888.0466746935726
 21
8152.234418
 31
0.0
  0
LINE
  5
116E2
  8
0-1
  6
CONTINUOUS
 62
     3
 10
9908.0457506935654
 20
6291.1885390000016
 30
0.0
 11
9908.0457506935654
 21
8152.234418
 31
0.0
  0
LINE
  5
116E3
  8
0-1
  6
CONTINUOUS
 62
     3
 10
9838.0460146935802
 20
6291.1885390000016
 30
0.0
 11
9838.0460146935802
 21
8152.234418
 31
0.0
  0
LINE
  5
116E4
  8
0-1
  6
CONTINUOUS
 62
     3
 10
9958.0464106935688
 20
6291.1885390000016
 30
0.0
 11
9958.0464106935688
 21
8152.234418
 31
0.0
  0
LINE
  5
116E5
  8
0-1
  6
CONTINUOUS
 62
     3
 10
10091.04630469356
 20
6291.1885390000016
 30
0.0
 11
10091.04630469356
 21
8152.234418
 31
0.0
  0
LINE
  5
116E6
  8
0-1
  6
CONTINUOUS
 62
     3
 10
10106.04808669357
 20
6291.1885390000016
 30
0.0
 11
10106.04808669357
 21
8152.234418
 31
0.0
  0
LINE
  5
116E7
  8
0-1
  6
CONTINUOUS
 62
     3
 10
9705.0461206935724
 20
6291.1885390000016
 30
0.0
 11
9705.0461206935724
 21
8152.234418
 31
0.0
  0
LINE
  5
116E8
  8
0-1
  6
CONTINUOUS
 62
     3
 10
9690.0473076935614
 20
6291.1885390000016
 30
0.0
 11
9690.0473076935614
 21
8152.234418
 31
0.0
  0
LINE
  5
116E9
  8
0-1
  6
CONTINUOUS
 62
     3
 10
8488.0460146935638
 20
6291.1885390000016
 30
0.0
 11
8488.0460146935638
 21
8152.234418
 31
0.0
  0
LINE
  5
116EA
  8
0-1
  6
CONTINUOUS
 62
     3
 10
8508.0470706935575
 20
6291.1885390000016
 30
0.0
 11
8508.0470706935575
 21
8152.234418
 31
0.0
  0
LINE
  5
116EB
  8
0-1
  6
CONTINUOUS
 62
     3
 10
8438.0473346935614
 20
6291.1885390000016
 30
0.0
 11
8438.0473346935614
 21
8152.234418
 31
0.0
  0
LINE
  5
116EC
  8
0-1
  6
CONTINUOUS
 62
     3
 10
8558.0457506935636
 20
6291.1885390000016
 30
0.0
 11
8558.0457506935636
 21
8152.234418
 31
0.0
  0
LINE
  5
116ED
  8
0-1
  6
CONTINUOUS
 62
     3
 10
8691.0466346935646
 20
6291.1885390000016
 30
0.0
 11
8691.0466346935646
 21
8152.234418
 31
0.0
  0
LINE
  5
116EE
  8
0-1
  6
CONTINUOUS
 62
     3
 10
8706.0464366935776
 20
6291.1885390000016
 30
0.0
 11
8706.0464366935776
 21
8152.234418
 31
0.0
  0
LINE
  5
116EF
  8
0-1
  6
CONTINUOUS
 62
     3
 10
8990.0459886935714
 20
6291.1885390000016
 30
0.0
 11
8990.0459886935714
 21
8152.234418
 31
0.0
  0
LINE
  5
116F0
  8
0-1
  6
CONTINUOUS
 62
     3
 10
9005.0477696935704
 20
6291.1885390000016
 30
0.0
 11
9005.0477696935704
 21
8152.234418
 31
0.0
  0
LINE
  5
116F1
  8
0-1
  6
CONTINUOUS
 62
     3
 10
9406.0457776935637
 20
6291.1885390000016
 30
0.0
 11
9406.0457776935637
 21
8152.234418
 31
0.0
  0
LINE
  5
116F2
  8
0-1
  6
CONTINUOUS
 62
     3
 10
9391.0469646935726
 20
6291.1885390000016
 30
0.0
 11
9391.0469646935726
 21
8152.234418
 31
0.0
  0
LINE
  5
116F3
  8
0-1
  6
CONTINUOUS
 62
     3
 10
9258.0480606935616
 20
6291.1885390000016
 30
0.0
 11
9258.0480606935616
 21
8152.234418
 31
0.0
  0
LINE
  5
116F4
  8
0-1
  6
CONTINUOUS
 62
     3
 10
9138.0466746935726
 20
6291.1885390000016
 30
0.0
 11
9138.0466746935726
 21
8152.234418
 31
0.0
  0
LINE
  5
116F5
  8
0-1
  6
CONTINUOUS
 62
     3
 10
9208.0464106935833
 20
6291.1885390000016
 30
0.0
 11
9208.0464106935833
 21
8152.234418
 31
0.0
  0
LINE
  5
116F6
  8
0-1
  6
CONTINUOUS
 62
     3
 10
9188.0473346935596
 20
6291.1885390000016
 30
0.0
 11
9188.0473346935596
 21
8152.234418
 31
0.0
  0
LINE
  5
116F7
  8
0-1
  6
CONTINUOUS
 62
     3
 10
9529.5459616935677
 20
8152.234418
 30
0.0
 11
9529.5459616935677
 21
6291.1885390000016
 31
0.0
  0
LINE
  5
116F8
  8
0-1
  6
CONTINUOUS
 62
     3
 10
9566.54712369357
 20
8152.234418
 30
0.0
 11
9566.54712369357
 21
6291.1885390000016
 31
0.0
  0
LINE
  5
116F9
  8
0-1
  6
CONTINUOUS
 62
     3
 10
8829.5466216935747
 20
8152.234418
 30
0.0
 11
8829.5466216935747
 21
6291.1885390000016
 31
0.0
  0
LINE
  5
116FA
  8
0-1
  6
CONTINUOUS
 62
     3
 10
8866.5467936935602
 20
8152.234418
 30
0.0
 11
8866.5467936935602
 21
6291.1885390000016
 31
0.0
  0
LINE
  5
116FB
  8
0-1
  6
CONTINUOUS
 62
     3
 10
24033.011847585149
 20
6241.1883740000048
 30
0.0
 11
24133.011188585158
 21
6241.1883740000048
 31
0.0
  0
LINE
  5
116FC
  8
0-1
  6
CONTINUOUS
 62
     3
 10
24133.011188585158
 20
6241.1883740000048
 30
0.0
 11
24133.011188585158
 21
6141.1885390000016
 31
0.0
  0
LINE
  5
116FD
  8
0-1
  6
CONTINUOUS
 62
     3
 10
24033.011847585149
 20
6141.1885390000016
 30
0.0
 11
24033.011847585149
 21
6241.1883740000048
 31
0.0
  0
LINE
  5
116FE
  8
0-1
  6
CONTINUOUS
 62
     3
 10
24125.510792585181
 20
8459.6884660000014
 30
0.0
 11
24125.510792585181
 21
6241.1883740000048
 31
0.0
  0
LINE
  5
116FF
  8
0-1
  6
CONTINUOUS
 62
     3
 10
24177.010528585171
 20
8132.6883740000021
 30
0.0
 11
24177.010528585171
 21
6141.1885390000016
 31
0.0
  0
LINE
  5
11700
  8
0-1
  6
CONTINUOUS
 62
     3
 10
24060.50934058518
 20
8589.6883999999973
 30
0.0
 11
24060.50934058518
 21
6241.1883740000048
 31
0.0
  0
LINE
  5
11701
  8
0-1
  6
CONTINUOUS
 62
     3
 10
24040.510528585161
 20
8459.6884660000014
 30
0.0
 11
24040.510528585161
 21
6241.1883740000048
 31
0.0
  0
LINE
  5
11702
  8
0-1
  6
CONTINUOUS
 62
     3
 10
27086.510528585171
 20
8264.002661999999
 30
0.0
 11
27043.510528585171
 21
8264.002661999999
 31
0.0
  0
LINE
  5
11703
  8
0-1
  6
CONTINUOUS
 62
     3
 10
27051.013167585159
 20
6241.1883740000048
 30
0.0
 11
26951.013827585171
 21
6241.1883740000048
 31
0.0
  0
LINE
  5
11704
  8
0-1
  6
CONTINUOUS
 62
     3
 10
26951.013827585171
 20
6241.1883740000048
 30
0.0
 11
26951.013827585171
 21
6141.1885390000016
 31
0.0
  0
LINE
  5
11705
  8
0-1
  6
CONTINUOUS
 62
     3
 10
27051.013167585159
 20
6141.1885390000016
 30
0.0
 11
27051.013167585159
 21
6241.1883740000048
 31
0.0
  0
LINE
  5
11706
  8
0-1
  6
CONTINUOUS
 62
     3
 10
26907.010528585171
 20
8132.6883740000021
 30
0.0
 11
26907.010528585171
 21
6141.1885390000016
 31
0.0
  0
LINE
  5
11707
  8
0-1
  6
CONTINUOUS
 62
     3
 10
26958.514223585142
 20
8459.6884660000014
 30
0.0
 11
26958.514223585142
 21
6241.1883740000048
 31
0.0
  0
LINE
  5
11708
  8
0-1
  6
CONTINUOUS
 62
     3
 10
27023.513695585149
 20
8589.6883999999973
 30
0.0
 11
27023.513695585149
 21
6241.1883740000048
 31
0.0
  0
LINE
  5
11709
  8
0-1
  6
CONTINUOUS
 62
     3
 10
27043.510528585171
 20
8459.6884660000014
 30
0.0
 11
27043.510528585171
 21
6241.1883740000048
 31
0.0
  0
LINE
  5
1170A
  8
0-1
  6
CONTINUOUS
 62
     3
 10
7329.0471496935779
 20
6241.1883740000048
 30
0.0
 11
7329.0471496935779
 21
6141.1885390000016
 31
0.0
  0
LINE
  5
1170B
  8
0-1
  6
CONTINUOUS
 62
     3
 10
7361.5479406935792
 20
8455.5174490000081
 30
0.0
 11
7361.5479406935792
 21
6241.1883740000048
 31
0.0
  0
LINE
  5
1170C
  8
0-1
  6
CONTINUOUS
 62
     3
 10
7341.5471496935706
 20
8456.0984380000027
 30
0.0
 11
7341.5471496935706
 21
6241.1883740000048
 31
0.0
  0
LINE
  5
1170D
  8
0-1
  6
CONTINUOUS
 62
     3
 10
7456.5470176935842
 20
8152.234418
 30
0.0
 11
7456.5470176935842
 21
6241.1883740000048
 31
0.0
  0
LINE
  5
1170E
  8
0-1
  6
CONTINUOUS
 62
     3
 10
10302.047149693581
 20
8356.9898810000013
 30
0.0
 11
10302.047149693581
 21
8152.234418
 31
0.0
  0
LINE
  5
1170F
  8
0-1
  6
CONTINUOUS
 62
     3
 10
10374.54701769356
 20
8152.234418
 30
0.0
 11
10374.54701769356
 21
6241.1883740000048
 31
0.0
  0
LINE
  5
11710
  8
0-1
  6
CONTINUOUS
 62
     3
 10
10229.548271693569
 20
8152.234418
 30
0.0
 11
10229.548271693569
 21
6241.1883740000048
 31
0.0
  0
LINE
  5
11711
  8
0-1
  6
CONTINUOUS
 62
     3
 10
10229.548271693569
 20
6291.1885390000016
 30
0.0
 11
7456.5470176935842
 21
6291.1885390000016
 31
0.0
  0
LINE
  5
11712
  8
0-1
  6
CONTINUOUS
 62
     3
 10
26907.010528585171
 20
6661.1892650000009
 30
0.0
 11
24177.010528585171
 21
6661.1892650000009
 31
0.0
  0
LINE
  5
11713
  8
0-1
  6
CONTINUOUS
 62
     3
 10
26907.010528585171
 20
6596.1888030000027
 30
0.0
 11
24177.010528585171
 21
6596.1888030000027
 31
0.0
  0
LINE
  5
11714
  8
0-1
  6
CONTINUOUS
 62
     3
 10
26907.010528585171
 20
6531.1888360000012
 30
0.0
 11
24177.010528585171
 21
6531.1888360000012
 31
0.0
  0
LINE
  5
11715
  8
0-1
  6
CONTINUOUS
 62
     3
 10
26907.010528585171
 20
6466.1883740000048
 30
0.0
 11
24177.010528585171
 21
6466.1883740000048
 31
0.0
  0
LINE
  5
11716
  8
0-1
  6
CONTINUOUS
 62
     3
 10
26907.010528585171
 20
6401.1889020000099
 30
0.0
 11
24177.010528585171
 21
6401.1889020000099
 31
0.0
  0
LINE
  5
11717
  8
0-1
  6
CONTINUOUS
 62
     3
 10
26907.010528585171
 20
6336.1889350000083
 30
0.0
 11
24177.010528585171
 21
6336.1889350000083
 31
0.0
  0
LINE
  5
11718
  8
0-1
  6
CONTINUOUS
 62
     3
 10
26907.010528585171
 20
6271.1889680000022
 30
0.0
 11
24177.010528585171
 21
6271.1889680000022
 31
0.0
  0
LINE
  5
11719
  8
0-1
  6
CONTINUOUS
 62
     3
 10
26907.010528585171
 20
6206.1885060000059
 30
0.0
 11
24177.010528585171
 21
6206.1885060000059
 31
0.0
  0
LINE
  5
1171A
  8
0-1
  6
CONTINUOUS
 62
     3
 10
26907.010528585171
 20
8026.1885720000073
 30
0.0
 11
24177.010528585171
 21
8026.1885720000073
 31
0.0
  0
LINE
  5
1171B
  8
0-1
  6
CONTINUOUS
 62
     3
 10
26907.010528585171
 20
7961.1886050000021
 30
0.0
 11
24177.010528585171
 21
7961.1886050000021
 31
0.0
  0
LINE
  5
1171C
  8
0-1
  6
CONTINUOUS
 62
     3
 10
26907.010528585171
 20
7896.1891330000062
 30
0.0
 11
24177.010528585171
 21
7896.1891330000062
 31
0.0
  0
LINE
  5
1171D
  8
0-1
  6
CONTINUOUS
 62
     3
 10
26907.010528585171
 20
7831.1891659999974
 30
0.0
 11
24177.010528585171
 21
7831.1891659999974
 31
0.0
  0
LINE
  5
1171E
  8
0-1
  6
CONTINUOUS
 62
     3
 10
26907.010528585171
 20
7766.1891990000058
 30
0.0
 11
24177.010528585171
 21
7766.1891990000058
 31
0.0
  0
LINE
  5
1171F
  8
0-1
  6
CONTINUOUS
 62
     3
 10
26907.010528585171
 20
7701.188737000004
 30
0.0
 11
24177.010528585171
 21
7701.188737000004
 31
0.0
  0
LINE
  5
11720
  8
0-1
  6
CONTINUOUS
 62
     3
 10
26907.010528585171
 20
7636.1887699999979
 30
0.0
 11
24177.010528585171
 21
7636.1887699999979
 31
0.0
  0
LINE
  5
11721
  8
0-1
  6
CONTINUOUS
 62
     3
 10
26907.010528585171
 20
7571.1892980000039
 30
0.0
 11
24177.010528585171
 21
7571.1892980000039
 31
0.0
  0
LINE
  5
11722
  8
0-1
  6
CONTINUOUS
 62
     3
 10
26907.010528585171
 20
7506.1893310000032
 30
0.0
 11
24177.010528585171
 21
7506.1893310000032
 31
0.0
  0
LINE
  5
11723
  8
0-1
  6
CONTINUOUS
 62
     3
 10
26907.010528585171
 20
7441.1888690000051
 30
0.0
 11
24177.010528585171
 21
7441.1888690000051
 31
0.0
  0
LINE
  5
11724
  8
0-1
  6
CONTINUOUS
 62
     3
 10
26907.010528585171
 20
7376.188901999999
 30
0.0
 11
24177.010528585171
 21
7376.188901999999
 31
0.0
  0
LINE
  5
11725
  8
0-1
  6
CONTINUOUS
 62
     3
 10
26907.010528585171
 20
7311.1889350000029
 30
0.0
 11
24177.010528585171
 21
7311.1889350000029
 31
0.0
  0
LINE
  5
11726
  8
0-1
  6
CONTINUOUS
 62
     3
 10
26907.010528585171
 20
7246.1884730000029
 30
0.0
 11
24177.010528585171
 21
7246.1884730000029
 31
0.0
  0
LINE
  5
11727
  8
0-1
  6
CONTINUOUS
 62
     3
 10
26907.010528585171
 20
7181.1885059999986
 30
0.0
 11
24177.010528585171
 21
7181.1885059999986
 31
0.0
  0
LINE
  5
11728
  8
0-1
  6
CONTINUOUS
 62
     3
 10
26907.010528585171
 20
7116.1890340000027
 30
0.0
 11
24177.010528585171
 21
7116.1890340000027
 31
0.0
  0
LINE
  5
11729
  8
0-1
  6
CONTINUOUS
 62
     3
 10
26907.010528585171
 20
7051.1890670000003
 30
0.0
 11
24177.010528585171
 21
7051.1890670000003
 31
0.0
  0
LINE
  5
1172A
  8
0-1
  6
CONTINUOUS
 62
     3
 10
26907.010528585171
 20
6986.1891000000032
 30
0.0
 11
24177.010528585171
 21
6986.1891000000032
 31
0.0
  0
LINE
  5
1172B
  8
0-1
  6
CONTINUOUS
 62
     3
 10
26907.010528585171
 20
6921.1886380000069
 30
0.0
 11
24177.010528585171
 21
6921.1886380000069
 31
0.0
  0
LINE
  5
1172C
  8
0-1
  6
CONTINUOUS
 62
     3
 10
26907.010528585171
 20
6856.1886710000053
 30
0.0
 11
24177.010528585171
 21
6856.1886710000053
 31
0.0
  0
LINE
  5
1172D
  8
0-1
  6
CONTINUOUS
 62
     3
 10
26907.010528585171
 20
6791.1891990000004
 30
0.0
 11
24177.010528585171
 21
6791.1891990000004
 31
0.0
  0
LINE
  5
1172E
  8
0-1
  6
CONTINUOUS
 62
     3
 10
26907.010528585171
 20
6726.1892320000024
 30
0.0
 11
24177.010528585171
 21
6726.1892320000024
 31
0.0
  0
LINE
  5
1172F
  8
0-1
  6
CONTINUOUS
 62
     3
 10
26907.010528585171
 20
8080.6485920000059
 30
0.0
 11
24177.010528585171
 21
8080.6485920000059
 31
0.0
  0
LINE
  5
11730
  8
0-1
  6
CONTINUOUS
 62
     3
 10
27051.013167585159
 20
6141.1885390000016
 30
0.0
 11
20671.53215245996
 21
6141.1885390000016
 31
0.0
  0
LINE
  5
11731
  8
0-1
  6
CONTINUOUS
 62
     3
 10
12919.54714969357
 20
6141.1885390000016
 30
0.0
 11
12919.54714969357
 21
6241.1883740000048
 31
0.0
  0
LINE
  5
11732
  8
0-1
  6
CONTINUOUS
 62
     3
 10
12892.04734769356
 20
8268.9908770000056
 30
0.0
 11
12892.04734769356
 21
6241.1883740000048
 31
0.0
  0
LINE
  5
11733
  8
0-1
  6
CONTINUOUS
 62
     3
 10
12912.04714969357
 20
8268.3741496838138
 30
0.0
 11
12912.04714969357
 21
6241.1883740000048
 31
0.0
  0
LINE
  5
11734
  8
0-1
  6
CONTINUOUS
 62
     3
 10
12797.048270693571
 20
8152.234418
 30
0.0
 11
12797.048270693571
 21
6241.1883740000048
 31
0.0
  0
LINE
  5
11735
  8
0-1
  6
CONTINUOUS
 62
     3
 10
12919.54714969357
 20
6241.1883740000048
 30
0.0
 11
7329.0471496935779
 21
6241.1883740000048
 31
0.0
  0
LINE
  5
11736
  8
0-1
  6
CONTINUOUS
 62
     3
 10
12797.048270693571
 20
6291.1885390000016
 30
0.0
 11
10374.54701769356
 21
6291.1885390000016
 31
0.0
  0
LINE
  5
11737
  8
0-1
  6
CONTINUOUS
 62
     3
 10
13602.04820469357
 20
6141.1885390000016
 30
0.0
 11
7329.0471496935779
 21
6141.1885390000016
 31
0.0
  0
LINE
  5
11738
  8
0-1
  6
CONTINUOUS
 62
     3
 10
12892.04734769356
 20
8152.234418
 30
0.0
 11
7361.5479406935792
 21
8152.234418
 31
0.0
  0
LINE
  5
11739
  8
0-1
  6
CONTINUOUS
 62
     3
 10
26932.51126758516
 20
8335.1891200000027
 30
0.0
 11
26655.081737585158
 21
8335.1891200000027
 31
0.0
  0
LINE
  5
1173A
  8
0-1
  6
CONTINUOUS
 62
     3
 10
26932.51126758516
 20
8377.188565000004
 30
0.0
 11
26623.084799585151
 21
8377.188565000004
 31
0.0
  0
LINE
  5
1173B
  8
0-1
  6
CONTINUOUS
 62
     3
 10
26937.511530585161
 20
8340.1888889999973
 30
0.0
 11
26937.511530585161
 21
8372.1892910000024
 31
0.0
  0
LINE
  5
1173C
  8
0-1
  6
CONTINUOUS
 62
     3
 10
26958.514223585142
 20
8386.1884470000005
 30
0.0
 11
24125.510792585181
 21
8386.1884470000005
 31
0.0
  0
LINE
  5
1173D
  8
0-1
  6
CONTINUOUS
 62
     3
 10
26651.548297585159
 20
8336.6529740000005
 30
0.0
 11
26619.547399585172
 21
8368.653376000002
 31
0.0
  0
LINE
  5
1173E
  8
0-1
  6
CONTINUOUS
 62
     3
 10
26937.511530585161
 20
8368.7889730000024
 30
0.0
 11
26619.418731585181
 21
8368.7889730000024
 31
0.0
  0
LINE
  5
1173F
  8
0-1
  6
CONTINUOUS
 62
     3
 10
26937.511530585161
 20
8360.3888860000006
 30
0.0
 11
26627.811889585151
 21
8360.3888860000006
 31
0.0
  0
LINE
  5
11740
  8
0-1
  6
CONTINUOUS
 62
     3
 10
26937.511530585161
 20
8351.9892940000063
 30
0.0
 11
26636.21098758516
 21
8351.9892940000063
 31
0.0
  0
LINE
  5
11741
  8
0-1
  6
CONTINUOUS
 62
     3
 10
26937.511530585161
 20
8343.5892070000064
 30
0.0
 11
26644.614043585159
 21
8343.5892070000064
 31
0.0
  0
LINE
  5
11742
  8
0-1
  6
CONTINUOUS
 62
     3
 10
24146.51150458516
 20
8368.7889730000024
 30
0.0
 11
24464.604304585158
 21
8368.7889730000024
 31
0.0
  0
LINE
  5
11743
  8
0-1
  6
CONTINUOUS
 62
     3
 10
24146.51150458516
 20
8360.3888860000006
 30
0.0
 11
24456.209166585159
 21
8360.3888860000006
 31
0.0
  0
LINE
  5
11744
  8
0-1
  6
CONTINUOUS
 62
     3
 10
24146.51150458516
 20
8351.9892940000063
 30
0.0
 11
24447.810069585172
 21
8351.9892940000063
 31
0.0
  0
LINE
  5
11745
  8
0-1
  6
CONTINUOUS
 62
     3
 10
24146.51150458516
 20
8343.5892070000064
 30
0.0
 11
24439.410971585181
 21
8343.5892070000064
 31
0.0
  0
LINE
  5
11746
  8
0-1
  6
CONTINUOUS
 62
     3
 10
24151.511768585158
 20
8377.188565000004
 30
0.0
 11
24460.938236585189
 21
8377.188565000004
 31
0.0
  0
LINE
  5
11747
  8
0-1
  6
CONTINUOUS
 62
     3
 10
24151.511768585158
 20
8335.1891200000027
 30
0.0
 11
24428.941297585181
 21
8335.1891200000027
 31
0.0
  0
LINE
  5
11748
  8
0-1
  6
CONTINUOUS
 62
     3
 10
24146.51150458516
 20
8340.1888889999973
 30
0.0
 11
24146.51150458516
 21
8372.1892910000024
 31
0.0
  0
LINE
  5
11749
  8
0-1
  6
CONTINUOUS
 62
     3
 10
24432.47671858516
 20
8336.6529740000005
 30
0.0
 11
24464.473656585149
 21
8368.653376000002
 31
0.0
  0
LINE
  5
1174A
  8
0-1
  6
CONTINUOUS
 62
     3
 10
13086.34897369357
 20
8303.1736990000081
 30
0.0
 11
7255.8574846935744
 21
8498.6897600000102
 31
0.0
  0
LINE
  5
1174B
  8
0-1
  6
CONTINUOUS
 62
     3
 10
7257.3579596935751
 20
8548.6686450000016
 30
0.0
 11
13087.848458693579
 21
8353.151595000003
 31
0.0
  0
LINE
  5
1174C
  8
0-1
  6
CONTINUOUS
 62
     3
 10
13090.938486693571
 20
8356.0604970000059
 30
0.0
 11
13091.898553693571
 21
8388.0460529999982
 31
0.0
  0
LINE
  5
1174D
  8
0-1
  6
CONTINUOUS
 62
     3
 10
13087.04972269356
 20
8393.1932959999976
 30
0.0
 11
7237.5885076935738
 21
8589.280448000005
 31
0.0
  0
LINE
  5
1174E
  8
0-1
  6
CONTINUOUS
 62
     3
 10
7233.6839076935712
 20
8459.3389100000059
 30
0.0
 11
13083.14908169356
 21
8263.2522529999969
 31
0.0
  0
LINE
  5
1174F
  8
0-1
  6
CONTINUOUS
 62
     3
 10
13088.296819693571
 20
8268.099599000001
 30
0.0
 11
13089.25589669357
 21
8300.0856500000027
 31
0.0
  0
LINE
  5
11750
  8
0-1
  6
CONTINUOUS
 62
     3
 10
13089.587465693559
 20
8311.0803910000013
 30
0.0
 11
13090.60790769356
 21
8345.0647660000031
 31
0.0
  0
LINE
  5
11751
  8
0-1
  6
CONTINUOUS
 62
     3
 10
13087.69900469357
 20
8348.1538050000017
 30
0.0
 11
7257.2065266935742
 21
8543.6713500000023
 31
0.0
  0
LINE
  5
11752
  8
0-1
  6
CONTINUOUS
 62
     3
 10
7256.0069386935793
 20
8503.6880440000023
 30
0.0
 11
13086.497436693569
 21
8308.1719840000005
 31
0.0
  0
LINE
  5
11753
  8
0-1
  6
CONTINUOUS
 62
     3
 10
10302.047149693581
 20
8356.9898810000013
 30
0.0
 11
10305.94977069356
 21
8486.9314190000005
 31
0.0
  0
LINE
  5
11754
  8
0-1
  6
CONTINUOUS
 62
     3
 10
7266.6508096935704
 20
8458.3481610000017
 30
0.0
 11
7270.5524406935738
 21
8588.2896989999972
 31
0.0
  0
LINE
  5
11755
  8
0-1
  6
CONTINUOUS
 62
     3
 10
13074.55698069356
 20
8393.5684150000016
 30
0.0
 11
13070.65435969355
 21
8263.6273720000027
 31
0.0
  0
LINE
  5
11756
  8
0-2
  6
CONTINUOUS
 62
     4
 10
25178.322488085149
 20
6888.4152329999988
 30
0.0
 11
25278.321828085162
 21
6888.4152329999988
 31
0.0
  0
LINE
  5
11757
  8
0-2
  6
CONTINUOUS
 62
     4
 10
25905.706488085161
 20
6888.4152329999988
 30
0.0
 11
25805.70714808517
 21
6888.4152329999988
 31
0.0
  0
LINE
  5
11758
  8
0-5
  6
CONTINUOUS
 62
     4
 10
24083.010528585161
 20
4461.1889349999992
 30
0.0
 11
24083.010528585161
 21
4301.1893970000001
 31
0.0
  0
LINE
  5
11759
  8
0-5
  6
CONTINUOUS
 62
     4
 10
14899.909482739849
 20
6241.1883740000039
 30
0.0
 11
14779.909086739861
 21
6449.0353509999977
 31
0.0
  0
LINE
  5
1175A
  8
0-5
  6
CONTINUOUS
 62
     4
 10
15019.907899739859
 20
6449.0353509999977
 30
0.0
 11
14899.909482739849
 21
6241.1883740000039
 31
0.0
  0
LINE
  5
1175B
  8
0-5
  6
CONTINUOUS
 62
     4
 10
14779.909086739861
 20
6449.0353509999977
 30
0.0
 11
15019.907899739859
 21
6449.0353509999977
 31
0.0
  0
LINE
  5
1175C
  8
0-5
  6
CONTINUOUS
 62
     4
 10
15377.61351497501
 20
6241.1883740000039
 30
0.0
 11
14002.04754569356
 21
6241.1883740000039
 31
0.0
  0
LINE
  5
1175D
  8
0-5
  6
CONTINUOUS
 62
     4
 10
27001.010528585171
 20
4461.1889349999992
 30
0.0
 11
27001.010528585171
 21
4301.1893970000001
 31
0.0
  0
LINE
  5
1175E
  8
0-5
  6
CONTINUOUS
 62
     4
 10
7384.0471496935779
 20
4461.1889349999992
 30
0.0
 11
7384.0471496935779
 21
4301.1893970000001
 31
0.0
  0
LINE
  5
1175F
  8
0-5
  6
CONTINUOUS
 62
     4
 10
10302.047149693581
 20
4461.1889349999992
 30
0.0
 11
10302.047149693581
 21
4301.1893970000001
 31
0.0
  0
LINE
  5
11760
  8
0-5
  6
CONTINUOUS
 62
     4
 10
12869.54714969357
 20
4461.1889349999992
 30
0.0
 11
12869.54714969357
 21
4301.1893970000001
 31
0.0
  0
LINE
  5
11761
  8
2-0
  6
CENTER2
 62
     6
 10
24083.010528585161
 20
5878.536116000002
 30
0.0
 11
24083.010528585161
 21
6915.6791430000012
 31
0.0
  0
LINE
  5
11762
  8
2-0
  6
CENTER2
 62
     6
 10
27001.010528585171
 20
5878.536116000002
 30
0.0
 11
27001.010528585171
 21
6915.6791430000012
 31
0.0
  0
LINE
  5
11763
  8
2-0
  6
CENTER2
 62
     6
 10
7384.0471496935779
 20
5878.536116000002
 30
0.0
 11
7384.0471496935779
 21
6935.6787140000024
 31
0.0
  0
LINE
  5
11764
  8
2-0
  6
CENTER2
 62
     6
 10
10302.047149693581
 20
5878.536116000002
 30
0.0
 11
10302.047149693581
 21
6935.6787140000024
 31
0.0
  0
LINE
  5
11765
  8
2-0
  6
CENTER2
 62
     6
 10
12869.54714969357
 20
5878.536116000002
 30
0.0
 11
12869.54714969357
 21
6935.6787140000024
 31
0.0
  0
ARC
  5
11766
  8
0-1
  6
CONTINUOUS
 62
     3
 10
26932.51126758516
 20
8372.1892910000024
 30
0.0
 40
5.0
 50
0.0
 51
90.0
  0
ARC
  5
11767
  8
0-1
  6
CONTINUOUS
 62
     3
 10
26932.51126758516
 20
8340.1888889999973
 30
0.0
 40
5.0
 50
270.00001499981897
 51
0.0
  0
ARC
  5
11768
  8
0-1
  6
CONTINUOUS
 62
     3
 10
26655.081737585158
 20
8340.1888889999973
 30
0.0
 40
5.0
 50
225.00001499973911
 51
270.00001499981897
  0
ARC
  5
11769
  8
0-1
  6
CONTINUOUS
 62
     3
 10
26623.084799585151
 20
8372.1892910000024
 30
0.0
 40
5.0
 50
90.0
 51
225.00001499973911
  0
ARC
  5
1176A
  8
0-1
  6
CONTINUOUS
 62
     3
 10
24151.511768585158
 20
8340.1888889999973
 30
0.0
 40
5.0
 50
180.0
 51
270.00001499981897
  0
ARC
  5
1176B
  8
0-1
  6
CONTINUOUS
 62
     3
 10
24151.511768585158
 20
8372.1892910000024
 30
0.0
 40
5.0
 50
90.0
 51
180.0
  0
ARC
  5
1176C
  8
0-1
  6
CONTINUOUS
 62
     3
 10
24460.938236585189
 20
8372.1892910000024
 30
0.0
 40
5.0
 50
315.00001500002458
 51
90.0
  0
ARC
  5
1176D
  8
0-1
  6
CONTINUOUS
 62
     3
 10
24428.941297585181
 20
8340.1888889999973
 30
0.0
 40
5.0
 50
270.00001499981897
 51
315.00001500002458
  0
ARC
  5
1176E
  8
0-1
  6
CONTINUOUS
 62
     3
 10
7256.6077226935822
 20
8523.6801919999998
 30
0.0
 40
24.999998999999999
 50
88.280013999973946
 51
268.2800139999739
  0
ARC
  5
1176F
  8
0-1
  6
CONTINUOUS
 62
     3
 10
13087.938526693561
 20
8356.1505650000054
 30
0.0
 40
3.0
 50
268.2800139999739
 51
358.28001399997981
  0
ARC
  5
11770
  8
0-1
  6
CONTINUOUS
 62
     3
 10
13086.90125869357
 20
8388.195507000004
 30
0.0
 40
5.0
 50
358.28001399997981
 51
88.280013999973946
  0
ARC
  5
11771
  8
0-1
  6
CONTINUOUS
 62
     3
 10
7261.6050166935893
 20
8523.5297490000103
 30
0.0
 40
69.999999000000003
 50
110.0668030000957
 51
246.49322500021549
  0
ARC
  5
11772
  8
0-1
  6
CONTINUOUS
 62
     3
 10
13083.29754569356
 20
8268.250043
 30
0.0
 40
5.0
 50
268.2800139999739
 51
358.28001399997981
  0
ARC
  5
11773
  8
0-1
  6
CONTINUOUS
 62
     3
 10
13086.25890469357
 20
8300.1752230000075
 30
0.0
 40
3.0
 50
358.28001399997981
 51
88.280013999973946
  0
ARC
  5
11774
  8
0-1
  6
CONTINUOUS
 62
     3
 10
13086.274741693571
 20
8350.6979809999975
 30
0.0
 40
2.5
 50
88.280013999973946
 51
268.2800139999739
  0
ARC
  5
11775
  8
0-1
  6
CONTINUOUS
 62
     3
 10
13084.924709693571
 20
8305.7178750000021
 30
0.0
 40
2.5
 50
88.280013999973946
 51
268.2800139999739
  0
ARC
  5
11776
  8
0-1
  6
CONTINUOUS
 62
     3
 10
13087.608936693559
 20
8345.1553289999974
 30
0.0
 40
3.0
 50
358.28001399997981
 51
88.280013999973946
  0
ARC
  5
11777
  8
0-1
  6
CONTINUOUS
 62
     3
 10
7256.6077226935822
 20
8523.6801919999998
 30
0.0
 40
20.0
 50
88.280013999973946
 51
268.2800139999739
  0
ARC
  5
11778
  8
0-1
  6
CONTINUOUS
 62
     3
 10
13086.58849469356
 20
8311.1699640000006
 30
0.0
 40
3.0
 50
268.2800139999739
 51
358.28001399997981
  0
CIRCLE
  5
11779
  8
0-5
  6
CONTINUOUS
 62
     4
 10
24083.010528585161
 20
4101.1882420000047
 30
0.0
 40
199.9999949999999
  0
CIRCLE
  5
1177A
  8
0-5
  6
CONTINUOUS
 62
     4
 10
10302.047149693581
 20
4101.1882420000047
 30
0.0
 40
199.9999949999999
  0
CIRCLE
  5
1177B
  8
0-5
  6
CONTINUOUS
 62
     4
 10
7384.0471496935779
 20
4101.1882420000047
 30
0.0
 40
199.9999949999999
  0
CIRCLE
  5
1177C
  8
0-5
  6
CONTINUOUS
 62
     4
 10
27001.010528585171
 20
4101.1882420000047
 30
0.0
 40
199.9999949999999
  0
CIRCLE
  5
1177D
  8
0-5
  6
CONTINUOUS
 62
     4
 10
12869.54714969357
 20
4101.1882420000047
 30
0.0
 40
199.9999949999999
  0
TEXT
  5
1177E
  8
0-5
  6
CONTINUOUS
 62
     7
 10
24028.256736918509
 20
4011.7132600000041
 30
0.0
 40
160.0
  1
2
 72
     4
 11
24081.590070251841
 21
4091.713260000005
 31
0.0
  0
TEXT
  5
1177F
  8
0-5
  6
CONTINUOUS
 62
     7
 10
28105.982293689322
 20
7195.369097493548
 30
0.0
 40
160.0
  1
(2131.5)
 50
90.0
 72
     4
 11
28025.982293689322
 21
7648.702430826881
 31
0.0
  0
TEXT
  5
11780
  8
0-5
  6
CONTINUOUS
 62
     7
 10
14441.668078406519
 20
6529.0346249999966
 30
0.0
 40
160.0
  1
布基礎天端
 72
     4
 11
14900.334745073191
 21
6609.0346249999984
 31
0.0
  0
TEXT
  5
11781
  8
0-5
  6
CONTINUOUS
 62
     7
 10
26947.677195251839
 20
4021.1882420000038
 30
0.0
 40
160.0
  1
3
 72
     4
 11
27001.010528585171
 21
4101.1882420000047
 31
0.0
  0
TEXT
  5
11782
  8
0-5
  6
CONTINUOUS
 62
     7
 10
7324.3366430269052
 20
4017.9774460000049
 30
0.0
 40
160.0
  1
A
 72
     4
 11
7377.6699763602383
 21
4097.9774460000053
 31
0.0
  0
TEXT
  5
11783
  8
0-5
  6
CONTINUOUS
 62
     7
 10
10242.336643026891
 20
4017.9774460000049
 30
0.0
 40
160.0
  1
B
 72
     4
 11
10295.66997636023
 21
4097.9774460000053
 31
0.0
  0
TEXT
  5
11784
  8
0-5
  6
CONTINUOUS
 62
     7
 10
12809.836643026911
 20
4017.9774460000049
 30
0.0
 40
160.0
  1
C
 72
     4
 11
12863.169976360239
 21
4097.9774460000053
 31
0.0
  0
CIRCLE
  5
11785
  8
0-4
  6
CONTINUOUS
 62
     4
 10
25542.012508085161
 20
6627.2449750000023
 30
0.0
 40
18.487504999999981
  0
LINE
  5
11786
  8
1-前柱カバ-P
 10
21325.510528585161
 20
8459.6884660000014
 30
0.0
 11
21325.510528585161
 21
6141.1885390000016
 31
0.0
  0
LINE
  5
11787
  8
1-前柱カバ-P
 10
21240.510528585161
 20
8589.6883999999973
 30
0.0
 11
21240.510528585161
 21
6141.1885390000016
 31
0.0
  0
LINE
  5
11788
  8
0-1
  6
CONTINUOUS
 62
     3
 10
21197.510528585161
 20
8459.6884660000087
 30
0.0
 11
24125.510792585181
 21
8459.6884660000014
 31
0.0
  0
LINE
  5
11789
  8
0-1
  6
CONTINUOUS
 62
     3
 10
24060.50934058518
 20
8589.6883999999973
 30
0.0
 11
21197.510528585161
 21
8589.6883999999973
 31
0.0
  0
LINE
  5
1178A
  8
0-1
  6
CONTINUOUS
 62
     3
 10
21197.510528585161
 20
8264.0026620000062
 30
0.0
 11
21197.510528585161
 21
8589.6883999999973
 31
0.0
  0
LINE
  5
1178B
  8
0-1
  6
CONTINUOUS
 62
     3
 10
21197.510528585161
 20
8264.0026620000062
 30
0.0
 11
21240.510528585161
 21
8264.0026620000062
 31
0.0
  0
LINE
  5
1178C
  8
2-0
  6
CENTER2
 62
     6
 10
21283.010528585161
 20
5878.536116000002
 30
0.0
 11
21283.010528585161
 21
6915.6791430000012
 31
0.0
  0
LINE
  5
1178D
  8
1-桁前P28
 10
21325.510528585161
 20
8261.1883740000048
 30
0.0
 11
24040.510528585161
 21
8261.1883740000048
 31
0.0
  0
LINE
  5
1178E
  8
0-5
  6
CONTINUOUS
 62
     4
 10
21283.010528585161
 20
4461.1889349999992
 30
0.0
 11
21283.010528585161
 21
4301.1893970000001
 31
0.0
  0
CIRCLE
  5
1178F
  8
0-5
  6
CONTINUOUS
 62
     4
 10
21283.010528585161
 20
4101.1882420000047
 30
0.0
 40
199.9999949999999
  0
TEXT
  5
11790
  8
0-5
  6
CONTINUOUS
 62
     7
 10
21254.92340358517
 20
4011.7132600000041
 30
0.0
 40
160.0
  1
1
 72
     4
 11
21281.590070251841
 21
4091.713260000005
 31
0.0
  0
TEXT
  5
11791
  8
0-5
  6
CONTINUOUS
 62
     7
 10
20395.13914132577
 20
7247.1951930322512
 30
0.0
 40
160.0
  1
(2260)
 50
90.0
 72
     4
 11
20315.13914132577
 21
7633.8618596989172
 31
0.0
  0
LINE
  5
11792
  8
SUNPOU
  6
CONTINUOUS
 10
13092.04714969357
 20
9389.1900500000029
 30
0.0
 11
13596.835019586981
 21
9389.1900500000029
 31
0.0
  0
LINE
  5
11793
  8
0-5
  6
CONTINUOUS
 62
     4
 10
16702.927118549022
 20
6349.0350210000042
 30
0.0
 11
16582.928702549041
 21
6141.1885390000016
 31
0.0
  0
LINE
  5
11794
  8
0-5
  6
CONTINUOUS
 62
     4
 10
20607.356859179741
 20
6141.1885390000016
 30
0.0
 11
13675.607856058599
 21
6141.1885390000016
 31
0.0
  0
LINE
  5
11795
  8
0-5
  6
CONTINUOUS
 62
     4
 10
16582.928702549041
 20
6141.1885390000016
 30
0.0
 11
16462.928306549042
 21
6349.0350210000042
 31
0.0
  0
LINE
  5
11796
  8
0-5
  6
CONTINUOUS
 62
     4
 10
16462.928306549042
 20
6349.0350210000042
 30
0.0
 11
16702.927118549022
 21
6349.0350210000042
 31
0.0
  0
TEXT
  5
11797
  8
0-5
  6
CONTINUOUS
 62
     7
 10
16382.927118549011
 20
6429.0347900000024
 30
0.0
 40
160.0
  1
G.L
 72
     4
 11
16542.927118549022
 21
6509.0347900000043
 31
0.0
  0
LINE
  5
11798
  8
SUNPOU
  6
CONTINUOUS
 10
7384.0471496935779
 20
4861.1885390000043
 30
0.0
 11
7384.0471496935779
 21
4613.5619541023398
 31
0.0
  0
LINE
  5
11799
  8
SUNPOU
  6
CONTINUOUS
 10
12869.54714969357
 20
4861.1885390000043
 30
0.0
 11
12869.54714969357
 21
4613.5619541023398
 31
0.0
  0
LINE
  5
118F3
  8
2-0
  6
CENTER2
 62
     6
 10
29243.509736585129
 20
19297.487953999989
 30
0.0
 11
28923.51039658513
 21
19297.487953999989
 31
0.0
  0
LINE
  5
118F4
  8
2-0
  6
CENTER2
 62
     6
 10
28763.51039658513
 20
19297.487953999989
 30
0.0
 11
20978.403977633221
 21
19297.487953999989
 31
0.0
  0
LINE
  5
118F5
  8
2-0
  6
CENTER2
 62
     6
 10
29243.509736585162
 20
16729.987953999978
 30
0.0
 11
28923.510396585141
 21
16729.987953999978
 31
0.0
  0
LINE
  5
118F6
  8
2-0
  6
CENTER2
 62
     6
 10
28443.51105658515
 20
16729.987953999978
 30
0.0
 11
20978.403977633221
 21
16729.987953999978
 31
0.0
  0
LINE
  5
118F7
  8
2-0
  6
CENTER2
 62
     6
 10
29243.509736585129
 20
13811.98795399998
 30
0.0
 11
28923.51039658513
 21
13811.98795399998
 31
0.0
  0
LINE
  5
118F8
  8
2-0
  6
CENTER2
 62
     6
 10
28763.51039658513
 20
13811.98795399998
 30
0.0
 11
20978.403977633221
 21
13811.98795399998
 31
0.0
  0
CIRCLE
  5
118F9
  8
0-5
  6
CONTINUOUS
 62
     4
 10
24083.008813585158
 20
21139.988877999971
 30
0.0
 40
199.9999949999999
  0
CIRCLE
  5
118FA
  8
0-5
  6
CONTINUOUS
 62
     4
 10
29443.510396585119
 20
19297.487953999989
 30
0.0
 40
199.9999949999999
  0
CIRCLE
  5
118FB
  8
0-5
  6
CONTINUOUS
 62
     4
 10
29443.510396585141
 20
16729.987953999978
 30
0.0
 40
199.9999949999999
  0
CIRCLE
  5
118FC
  8
0-5
  6
CONTINUOUS
 62
     4
 10
29443.510396585119
 20
13811.98795399998
 30
0.0
 40
199.9999949999999
  0
CIRCLE
  5
118FD
  8
0-5
  6
CONTINUOUS
 62
     4
 10
27001.008813585151
 20
21139.988877999971
 30
0.0
 40
199.9999949999999
  0
TEXT
  5
118FE
  8
0-5
  6
CONTINUOUS
 62
     7
 10
24031.012490918481
 20
21053.763027999979
 30
0.0
 40
160.0
  1
2
 72
     4
 11
24084.345824251821
 21
21133.763027999979
 31
0.0
  0
TEXT
  5
118FF
  8
0-5
  6
CONTINUOUS
 62
     7
 10
26947.675480251819
 20
21059.988877999971
 30
0.0
 40
160.0
  1
3
 72
     4
 11
27001.008813585151
 21
21139.988877999971
 31
0.0
  0
TEXT
  5
11900
  8
0-5
  6
CONTINUOUS
 62
     7
 10
29385.520091918472
 20
19205.869894999989
 30
0.0
 40
160.0
  1
C
 72
     4
 11
29438.8534252518
 21
19285.869894999989
 31
0.0
  0
TEXT
  5
11901
  8
0-5
  6
CONTINUOUS
 62
     7
 10
29385.520091918472
 20
16638.369896
 30
0.0
 40
160.0
  1
B
 72
     4
 11
29438.8534252518
 21
16718.369896
 31
0.0
  0
TEXT
  5
11902
  8
0-5
  6
CONTINUOUS
 62
     7
 10
29385.520091918472
 20
13720.369894999991
 30
0.0
 40
160.0
  1
A
 72
     4
 11
29438.8534252518
 21
13800.369894999991
 31
0.0
  0
LINE
  5
11903
  8
2-0
  6
CENTER2
 62
     6
 10
21283.008813585151
 20
20939.990196999988
 30
0.0
 11
21283.008813585151
 21
13454.234075531571
 31
0.0
  0
CIRCLE
  5
11904
  8
0-5
  6
CONTINUOUS
 62
     4
 10
21283.008813585151
 20
21139.988877999971
 30
0.0
 40
199.9999949999999
  0
TEXT
  5
11905
  8
0-5
  6
CONTINUOUS
 62
     7
 10
21257.67915758516
 20
21053.763027999979
 30
0.0
 40
160.0
  1
1
 72
     4
 11
21284.345824251832
 21
21133.763027999979
 31
0.0
  0
ARC
  5
11906
  8
1-後柱P
  6
HIDE-M
 62
     6
 10
21279.408813585142
 20
19229.43795399999
 30
0.0
 40
2.6000000000000001
 50
270.0
 51
0.000000000000007
  0
LINE
  5
11907
  8
1-後柱P
  6
HIDE-M
 62
     6
 10
21291.008813585158
 20
19227.388563846791
 30
0.0
 11
21291.008813585158
 21
19231.037953999989
 31
0.0
  0
LINE
  5
11908
  8
1-後柱P
  6
HIDE-M
 62
     6
 10
21281.008813585151
 20
19227.388563846791
 30
0.0
 11
21281.008813585151
 21
19231.037953999989
 31
0.0
  0
LINE
  5
11909
  8
1-後柱P
  6
1PL-M
 62
     6
 10
21286.008813585151
 20
19221.837953999991
 30
0.0
 11
21286.008813585151
 21
19236.037953999981
 31
0.0
  0
ARC
  5
1190A
  8
1-後柱P
  6
HIDE-M
 62
     6
 10
21292.608813585131
 20
19229.43795399999
 30
0.0
 40
2.6000000000000001
 50
180.0
 51
270.0
  0
LINE
  5
1190B
  8
1-後柱P
  6
HIDE-M
 62
     6
 10
21282.008813585158
 20
19229.43795399999
 30
0.0
 11
21282.008813585158
 21
19231.037953999989
 31
0.0
  0
LINE
  5
1190C
  8
1-後柱P
  6
HIDE-M
 62
     6
 10
21290.008813585151
 20
19229.43795399999
 30
0.0
 11
21290.008813585151
 21
19231.037953999989
 31
0.0
  0
LINE
  5
1190D
  8
1-後柱P
 10
21272.108813585139
 20
19341.737953999989
 30
0.0
 11
21293.908813585142
 21
19341.737953999989
 31
0.0
  0
LINE
  5
1190E
  8
1-後柱P
 10
21323.908813585149
 20
19304.43795399995
 30
0.0
 11
21323.908813585149
 21
19311.737953999989
 31
0.0
  0
ARC
  5
1190F
  8
1-後柱P
 10
21293.908813585142
 20
19311.737953999989
 30
0.0
 40
30.0
 50
0.000000000000007
 51
90.0
  0
ARC
  5
11910
  8
1-後柱P
 10
21293.908813585142
 20
19311.737953999989
 30
0.0
 40
31.600000000000001
 50
0.000000000000007
 51
90.0
  0
LINE
  5
11911
  8
1-後柱P
 10
21272.108813585139
 20
19343.337953999991
 30
0.0
 11
21293.908813585142
 21
19343.337953999991
 31
0.0
  0
LINE
  5
11912
  8
1-後柱P
 10
21325.508813585158
 20
19304.43795399995
 30
0.0
 11
21325.508813585158
 21
19311.737953999989
 31
0.0
  0
LINE
  5
11913
  8
1-後柱P
 10
21302.508813585158
 20
19282.837953999991
 30
0.0
 11
21302.508813585158
 21
19292.837953999991
 31
0.0
  0
LINE
  5
11914
  8
1-後柱P
 10
21300.908813585149
 20
19292.837953999991
 30
0.0
 11
21300.908813585149
 21
19282.837953999991
 31
0.0
  0
LINE
  5
11915
  8
1-後柱P
 10
21242.10881358515
 20
19304.43795399995
 30
0.0
 11
21242.10881358515
 21
19311.737953999989
 31
0.0
  0
ARC
  5
11916
  8
1-後柱P
 10
21272.108813585139
 20
19311.737953999989
 30
0.0
 40
30.0
 50
90.0
 51
180.0
  0
ARC
  5
11917
  8
1-後柱P
 10
21272.108813585139
 20
19311.737953999989
 30
0.0
 40
31.600000000000001
 50
90.0
 51
180.0
  0
LINE
  5
11918
  8
1-後柱P
 10
21240.508813585151
 20
19304.43795399995
 30
0.0
 11
21240.508813585151
 21
19311.737953999989
 31
0.0
  0
LINE
  5
11919
  8
1-後柱P
 10
21247.108813585131
 20
19297.837953999991
 30
0.0
 11
21258.508813585158
 21
19297.837953999991
 31
0.0
  0
ARC
  5
1191A
  8
1-後柱P
 10
21247.108813585131
 20
19304.43795399995
 30
0.0
 40
6.599999999999997
 50
180.0
 51
270.0
  0
ARC
  5
1191B
  8
1-後柱P
 10
21258.508813585158
 20
19292.837953999991
 30
0.0
 40
5.0
 50
0.000000000000007
 51
90.0
  0
LINE
  5
1191C
  8
1-後柱P
 10
21247.108813585131
 20
19299.437953999961
 30
0.0
 11
21258.508813585158
 21
19299.437953999961
 31
0.0
  0
ARC
  5
1191D
  8
1-後柱P
 10
21247.108813585131
 20
19304.43795399995
 30
0.0
 40
5.0
 50
180.0
 51
270.0
  0
LINE
  5
1191E
  8
1-後柱P
 10
21263.508813585151
 20
19292.837953999991
 30
0.0
 11
21263.508813585151
 21
19233.43795399999
 31
0.0
  0
LINE
  5
1191F
  8
1-後柱P
 10
21265.10881358515
 20
19292.837953999991
 30
0.0
 11
21265.10881358515
 21
19233.43795399999
 31
0.0
  0
ARC
  5
11920
  8
1-後柱P
 10
21258.508813585158
 20
19292.837953999991
 30
0.0
 40
6.599999999999997
 50
0.000000000000007
 51
90.0
  0
LINE
  5
11921
  8
1-後柱P
 10
21270.108813585139
 20
19226.837953999991
 30
0.0
 11
21303.508813585151
 21
19226.837953999991
 31
0.0
  0
ARC
  5
11922
  8
1-後柱P
 10
21270.108813585139
 20
19233.43795399999
 30
0.0
 40
6.599999999999997
 50
180.0
 51
270.0
  0
LINE
  5
11923
  8
1-後柱P
 10
21270.108813585139
 20
19228.43795399995
 30
0.0
 11
21303.508813585151
 21
19228.43795399995
 31
0.0
  0
ARC
  5
11924
  8
1-後柱P
 10
21270.108813585139
 20
19233.43795399999
 30
0.0
 40
5.0
 50
180.0
 51
270.0
  0
LINE
  5
11925
  8
1-後柱P
 10
21303.508813585151
 20
19228.43795399995
 30
0.0
 11
21303.508813585151
 21
19226.837953999991
 31
0.0
  0
LINE
  5
11926
  8
1-後柱P
 10
21318.908813585142
 20
19297.837953999991
 30
0.0
 11
21307.508813585151
 21
19297.837953999991
 31
0.0
  0
ARC
  5
11927
  8
1-後柱P
 10
21318.908813585142
 20
19304.43795399995
 30
0.0
 40
6.599999999999997
 50
270.0
 51
0.000000000000007
  0
ARC
  5
11928
  8
1-後柱P
 10
21307.508813585151
 20
19292.837953999991
 30
0.0
 40
5.0
 50
90.0
 51
180.0
  0
LINE
  5
11929
  8
1-後柱P
 10
21307.508813585151
 20
19299.437953999961
 30
0.0
 11
21318.908813585142
 21
19299.437953999961
 31
0.0
  0
ARC
  5
1192A
  8
1-後柱P
 10
21307.508813585151
 20
19292.837953999991
 30
0.0
 40
6.599999999999997
 50
90.0
 51
180.0
  0
ARC
  5
1192B
  8
1-後柱P
 10
21318.908813585142
 20
19304.43795399995
 30
0.0
 40
5.0
 50
270.0
 51
0.000000000000007
  0
LINE
  5
1192C
  8
1-後柱P
 10
21302.508813585158
 20
19282.837953999991
 30
0.0
 11
21300.908813585149
 21
19282.837953999991
 31
0.0
  0
LINE
  5
1192D
  8
1-後柱カバ-P
 10
21325.508813585158
 20
19291.137954000002
 30
0.0
 11
21325.508813585158
 21
19231.837953999991
 31
0.0
  0
ARC
  5
1192E
  8
1-後柱カバ-P
 10
21318.908813585142
 20
19231.837953999991
 30
0.0
 40
6.599999999999997
 50
270.0
 51
0.000000000000007
  0
LINE
  5
1192F
  8
1-後柱カバ-P
 10
21323.908813585149
 20
19291.137954000002
 30
0.0
 11
21323.908813585149
 21
19231.837953999991
 31
0.0
  0
ARC
  5
11930
  8
1-後柱カバ-P
 10
21318.908813585142
 20
19291.137954000002
 30
0.0
 40
5.0
 50
0.000000000000007
 51
90.0
  0
LINE
  5
11931
  8
1-後柱カバ-P
 10
21318.908813585142
 20
19225.237953999989
 30
0.0
 11
21247.108813585131
 21
19225.237953999989
 31
0.0
  0
ARC
  5
11932
  8
1-後柱カバ-P
 10
21247.108813585131
 20
19231.837953999991
 30
0.0
 40
6.599999999999997
 50
180.0
 51
270.0
  0
LINE
  5
11933
  8
1-後柱カバ-P
 10
21318.908813585142
 20
19226.837953999991
 30
0.0
 11
21247.108813585131
 21
19226.837953999991
 31
0.0
  0
ARC
  5
11934
  8
1-後柱カバ-P
 10
21247.108813585131
 20
19231.837953999991
 30
0.0
 40
5.0
 50
180.0
 51
270.0
  0
ARC
  5
11935
  8
1-後柱カバ-P
 10
21318.908813585142
 20
19231.837953999991
 30
0.0
 40
5.0
 50
270.0
 51
0.000000000000007
  0
LINE
  5
11936
  8
1-後柱カバ-P
 10
21240.508813585151
 20
19231.837953999991
 30
0.0
 11
21240.508813585151
 21
19291.137954000002
 31
0.0
  0
LINE
  5
11937
  8
1-後柱カバ-P
 10
21242.10881358515
 20
19231.837953999991
 30
0.0
 11
21242.10881358515
 21
19291.137954000002
 31
0.0
  0
ARC
  5
11938
  8
1-後柱カバ-P
 10
21247.108813585131
 20
19291.137954000002
 30
0.0
 40
5.0
 50
90.0
 51
180.0
  0
LINE
  5
11939
  8
1-後柱カバ-P
  6
1PL-M
 62
     6
 10
21283.008813585151
 20
19232.737953999989
 30
0.0
 11
21283.008813585151
 21
19219.737953999978
 31
0.0
  0
LINE
  5
1193A
  8
1-後柱カバ-P
  6
HIDE-M
 62
     6
 10
21290.008813585151
 20
19225.237953999989
 30
0.0
 11
21290.008813585151
 21
19226.837953999991
 31
0.0
  0
LINE
  5
1193B
  8
1-後柱カバ-P
  6
HIDE-M
 62
     6
 10
21276.008813585158
 20
19225.237953999989
 30
0.0
 11
21276.008813585158
 21
19226.837953999991
 31
0.0
  0
ARC
  5
1193C
  8
1-後柱カバ-P
 10
21318.908813585142
 20
19291.137954000002
 30
0.0
 40
6.599999999999997
 50
0.000000000000007
 51
90.0
  0
ARC
  5
1193D
  8
1-後柱カバ-P
 10
21247.108813585131
 20
19291.137954000002
 30
0.0
 40
6.599999999999997
 50
90.0
 51
180.0
  0
LINE
  5
1193E
  8
1-後柱カバ-P
 10
21255.508813585151
 20
19297.737953999978
 30
0.0
 11
21247.108813585131
 21
19297.737953999978
 31
0.0
  0
LINE
  5
1193F
  8
1-後柱カバ-P
 10
21310.508813585158
 20
19297.737953999978
 30
0.0
 11
21318.908813585142
 21
19297.737953999978
 31
0.0
  0
LINE
  5
11940
  8
1-後柱カバ-P
 10
21255.508813585151
 20
19296.137954000002
 30
0.0
 11
21247.108813585131
 21
19296.137954000002
 31
0.0
  0
LINE
  5
11941
  8
1-後柱カバ-P
 10
21310.508813585158
 20
19296.137954000002
 30
0.0
 11
21318.908813585142
 21
19296.137954000002
 31
0.0
  0
LINE
  5
11942
  8
1-後柱カバ-P
 10
21310.508813585158
 20
19296.137954000002
 30
0.0
 11
21310.508813585158
 21
19297.737953999978
 31
0.0
  0
LINE
  5
11943
  8
1-後柱カバ-P
 10
21255.508813585151
 20
19297.737953999978
 30
0.0
 11
21255.508813585151
 21
19296.137954000002
 31
0.0
  0
LINE
  5
11944
  8
1-後柱カバ-P
  6
HIDE-M
 62
     6
 10
21251.60881358515
 20
19276.737953999978
 30
0.0
 11
21240.008813585158
 21
19276.737953999978
 31
0.0
  0
LINE
  5
11945
  8
1-後柱カバ-P
  6
HIDE-M
 62
     6
 10
21251.60881358515
 20
19268.737953999978
 30
0.0
 11
21240.008813585158
 21
19268.737953999978
 31
0.0
  0
LINE
  5
11946
  8
1-後柱カバ-P
  6
HIDE-M
 62
     6
 10
21251.60881358515
 20
19275.737953999978
 30
0.0
 11
21240.008813585158
 21
19275.737953999978
 31
0.0
  0
LINE
  5
11947
  8
1-後柱カバ-P
  6
HIDE-M
 62
     6
 10
21251.60881358515
 20
19269.737953999978
 30
0.0
 11
21240.008813585158
 21
19269.737953999978
 31
0.0
  0
LINE
  5
11948
  8
1-後柱カバ-P
 10
21250.60881358515
 20
19267.237953999978
 30
0.0
 11
21243.608813585139
 21
19267.237953999978
 31
0.0
  0
LINE
  5
11949
  8
1-後柱カバ-P
 10
21243.608813585139
 20
19278.237953999989
 30
0.0
 11
21250.60881358515
 21
19278.237953999989
 31
0.0
  0
LINE
  5
1194A
  8
1-後柱カバ-P
 10
21243.608813585139
 20
19278.987953999989
 30
0.0
 11
21243.608813585139
 21
19266.487953999989
 31
0.0
  0
LINE
  5
1194B
  8
1-後柱カバ-P
 10
21240.008813585158
 20
19278.737953999978
 30
0.0
 11
21240.008813585158
 21
19266.737953999989
 31
0.0
  0
LINE
  5
1194C
  8
1-後柱カバ-P
  6
HIDE-M
 62
     6
 10
21242.10881358515
 20
19267.237953999978
 30
0.0
 11
21240.508813585151
 21
19267.237953999978
 31
0.0
  0
LINE
  5
1194D
  8
1-後柱カバ-P
 10
21240.008813585158
 20
19266.737953999989
 30
0.0
 11
21240.508813585151
 21
19267.237953999978
 31
0.0
  0
ARC
  5
1194E
  8
1-後柱カバ-P
 10
21242.85881358515
 20
19266.487953999989
 30
0.0
 40
0.75
 50
180.0
 51
0.000000000000007
  0
LINE
  5
1194F
  8
1-後柱カバ-P
  6
HIDE-M
 62
     6
 10
21240.508813585151
 20
19278.237953999989
 30
0.0
 11
21242.10881358515
 21
19278.237953999989
 31
0.0
  0
LINE
  5
11950
  8
1-後柱カバ-P
 10
21240.008813585158
 20
19278.737953999978
 30
0.0
 11
21240.508813585151
 21
19278.237953999989
 31
0.0
  0
ARC
  5
11951
  8
1-後柱カバ-P
 10
21242.85881358515
 20
19278.987953999989
 30
0.0
 40
0.75
 50
0.000000000000007
 51
180.0
  0
LINE
  5
11952
  8
1-後柱カバ-P
 10
21251.60881358515
 20
19277.237953999978
 30
0.0
 11
21251.60881358515
 21
19268.237953999978
 31
0.0
  0
ARC
  5
11953
  8
1-後柱カバ-P
 10
21250.60881358515
 20
19268.237953999978
 30
0.0
 40
1.0
 50
270.0
 51
0.000000000000007
  0
ARC
  5
11954
  8
1-後柱カバ-P
 10
21250.60881358515
 20
19277.237953999978
 30
0.0
 40
1.0
 50
0.000000000000007
 51
90.0
  0
LINE
  5
11955
  8
1-後柱カバ-P
  6
1PL-M
 62
     6
 10
21256.608813585131
 20
19272.737953999978
 30
0.0
 11
21235.008813585151
 21
19272.737953999978
 31
0.0
  0
LINE
  5
11956
  8
1-後柱カバ-P
 10
21250.60881358515
 20
19257.237953999989
 30
0.0
 11
21243.608813585139
 21
19257.237953999989
 31
0.0
  0
LINE
  5
11957
  8
1-後柱カバ-P
 10
21240.008813585158
 20
19264.737953999989
 30
0.0
 11
21240.008813585158
 21
19256.737953999978
 31
0.0
  0
LINE
  5
11958
  8
1-後柱カバ-P
  6
HIDE-M
 62
     6
 10
21242.10881358515
 20
19257.237953999989
 30
0.0
 11
21240.508813585151
 21
19257.237953999989
 31
0.0
  0
LINE
  5
11959
  8
1-後柱カバ-P
 10
21240.008813585158
 20
19256.737953999978
 30
0.0
 11
21240.508813585151
 21
19257.237953999989
 31
0.0
  0
ARC
  5
1195A
  8
1-後柱カバ-P
 10
21242.85881358515
 20
19256.487953999989
 30
0.0
 40
0.75
 50
180.0
 51
0.000000000000007
  0
LINE
  5
1195B
  8
1-後柱カバ-P
 10
21251.60881358515
 20
19266.237953999989
 30
0.0
 11
21251.60881358515
 21
19258.237953999989
 31
0.0
  0
ARC
  5
1195C
  8
1-後柱カバ-P
 10
21250.60881358515
 20
19258.237953999989
 30
0.0
 40
1.0
 50
270.0
 51
0.000000000000007
  0
LINE
  5
1195D
  8
1-後柱カバ-P
  6
1PL-M
 62
     6
 10
21256.608813585131
 20
19262.737953999989
 30
0.0
 11
21235.008813585151
 21
19262.737953999989
 31
0.0
  0
LINE
  5
1195E
  8
1-後柱カバ-P
 10
21243.608813585139
 20
19264.487953999978
 30
0.0
 11
21243.608813585139
 21
19256.487953999989
 31
0.0
  0
LINE
  5
1195F
  8
1-後柱カバ-P
  6
HIDE-M
 62
     6
 10
21314.408813585149
 20
19276.737953999978
 30
0.0
 11
21326.008813585151
 21
19276.737953999978
 31
0.0
  0
LINE
  5
11960
  8
1-後柱カバ-P
  6
HIDE-M
 62
     6
 10
21314.408813585149
 20
19268.737953999978
 30
0.0
 11
21326.008813585151
 21
19268.737953999978
 31
0.0
  0
LINE
  5
11961
  8
1-後柱カバ-P
  6
HIDE-M
 62
     6
 10
21314.408813585149
 20
19275.737953999978
 30
0.0
 11
21326.008813585151
 21
19275.737953999978
 31
0.0
  0
LINE
  5
11962
  8
1-後柱カバ-P
  6
HIDE-M
 62
     6
 10
21314.408813585149
 20
19269.737953999978
 30
0.0
 11
21326.008813585151
 21
19269.737953999978
 31
0.0
  0
LINE
  5
11963
  8
1-後柱カバ-P
 10
21315.408813585142
 20
19267.237953999978
 30
0.0
 11
21322.408813585142
 21
19267.237953999978
 31
0.0
  0
LINE
  5
11964
  8
1-後柱カバ-P
 10
21322.408813585142
 20
19278.237953999989
 30
0.0
 11
21315.408813585142
 21
19278.237953999989
 31
0.0
  0
LINE
  5
11965
  8
1-後柱カバ-P
 10
21322.408813585142
 20
19278.987953999989
 30
0.0
 11
21322.408813585142
 21
19266.487953999989
 31
0.0
  0
LINE
  5
11966
  8
1-後柱カバ-P
 10
21326.008813585151
 20
19278.737953999978
 30
0.0
 11
21326.008813585151
 21
19266.737953999989
 31
0.0
  0
LINE
  5
11967
  8
1-後柱カバ-P
  6
HIDE-M
 62
     6
 10
21323.908813585149
 20
19267.237953999978
 30
0.0
 11
21325.508813585158
 21
19267.237953999978
 31
0.0
  0
LINE
  5
11968
  8
1-後柱カバ-P
 10
21326.008813585151
 20
19266.737953999989
 30
0.0
 11
21325.508813585158
 21
19267.237953999978
 31
0.0
  0
ARC
  5
11969
  8
1-後柱カバ-P
 10
21323.158813585142
 20
19266.487953999989
 30
0.0
 40
0.75
 50
180.0
 51
0.000000000000007
  0
LINE
  5
1196A
  8
1-後柱カバ-P
  6
HIDE-M
 62
     6
 10
21325.508813585158
 20
19278.237953999989
 30
0.0
 11
21323.908813585149
 21
19278.237953999989
 31
0.0
  0
LINE
  5
1196B
  8
1-後柱カバ-P
 10
21326.008813585151
 20
19278.737953999978
 30
0.0
 11
21325.508813585158
 21
19278.237953999989
 31
0.0
  0
ARC
  5
1196C
  8
1-後柱カバ-P
 10
21323.158813585142
 20
19278.987953999989
 30
0.0
 40
0.75
 50
0.000000000000007
 51
180.0
  0
LINE
  5
1196D
  8
1-後柱カバ-P
 10
21314.408813585149
 20
19277.237953999978
 30
0.0
 11
21314.408813585149
 21
19268.237953999978
 31
0.0
  0
ARC
  5
1196E
  8
1-後柱カバ-P
 10
21315.408813585142
 20
19268.237953999978
 30
0.0
 40
1.0
 50
180.0
 51
270.0
  0
ARC
  5
1196F
  8
1-後柱カバ-P
 10
21315.408813585142
 20
19277.237953999978
 30
0.0
 40
1.0
 50
90.0
 51
180.0
  0
LINE
  5
11970
  8
1-後柱カバ-P
  6
1PL-M
 62
     6
 10
21309.408813585142
 20
19272.737953999978
 30
0.0
 11
21331.008813585158
 21
19272.737953999978
 31
0.0
  0
LINE
  5
11971
  8
1-後柱カバ-P
 10
21315.408813585142
 20
19257.237953999989
 30
0.0
 11
21322.408813585142
 21
19257.237953999989
 31
0.0
  0
LINE
  5
11972
  8
1-後柱カバ-P
 10
21326.008813585151
 20
19264.737953999989
 30
0.0
 11
21326.008813585151
 21
19256.737953999978
 31
0.0
  0
LINE
  5
11973
  8
1-後柱カバ-P
  6
HIDE-M
 62
     6
 10
21323.908813585149
 20
19257.237953999989
 30
0.0
 11
21325.508813585158
 21
19257.237953999989
 31
0.0
  0
LINE
  5
11974
  8
1-後柱カバ-P
 10
21326.008813585151
 20
19256.737953999978
 30
0.0
 11
21325.508813585158
 21
19257.237953999989
 31
0.0
  0
ARC
  5
11975
  8
1-後柱カバ-P
 10
21323.158813585142
 20
19256.487953999989
 30
0.0
 40
0.75
 50
180.0
 51
0.000000000000007
  0
LINE
  5
11976
  8
1-後柱カバ-P
 10
21314.408813585149
 20
19266.237953999989
 30
0.0
 11
21314.408813585149
 21
19258.237953999989
 31
0.0
  0
ARC
  5
11977
  8
1-後柱カバ-P
 10
21315.408813585142
 20
19258.237953999989
 30
0.0
 40
1.0
 50
180.0
 51
270.0
  0
LINE
  5
11978
  8
1-後柱カバ-P
  6
1PL-M
 62
     6
 10
21309.408813585142
 20
19262.737953999989
 30
0.0
 11
21331.008813585158
 21
19262.737953999989
 31
0.0
  0
LINE
  5
11979
  8
1-後柱カバ-P
 10
21322.408813585142
 20
19264.487953999978
 30
0.0
 11
21322.408813585142
 21
19256.487953999989
 31
0.0
  0
LINE
  5
1197A
  8
1-後柱カバ-P
  6
HIDE-M
 62
     6
 10
21251.60881358515
 20
19258.737953999989
 30
0.0
 11
21240.008813585158
 21
19258.737953999989
 31
0.0
  0
LINE
  5
1197B
  8
1-後柱カバ-P
  6
HIDE-M
 62
     6
 10
21251.60881358515
 20
19259.737953999978
 30
0.0
 11
21240.008813585158
 21
19259.737953999978
 31
0.0
  0
LINE
  5
1197C
  8
1-後柱カバ-P
  6
HIDE-M
 62
     6
 10
21314.408813585149
 20
19258.737953999989
 30
0.0
 11
21326.008813585151
 21
19258.737953999989
 31
0.0
  0
LINE
  5
1197D
  8
1-後柱カバ-P
  6
HIDE-M
 62
     6
 10
21314.408813585149
 20
19259.737953999978
 30
0.0
 11
21326.008813585151
 21
19259.737953999978
 31
0.0
  0
LINE
  5
1197E
  8
1-中柱P
 10
21247.108813585161
 20
16658.987953999989
 30
0.0
 11
21318.90881358516
 21
16658.987953999989
 31
0.0
  0
ARC
  5
1197F
  8
1-中柱P
 10
21247.108813585161
 20
16663.987953999989
 30
0.0
 40
5.0
 50
180.0
 51
270.0
  0
ARC
  5
11980
  8
1-中柱P
 10
21318.90881358516
 20
16663.987953999989
 30
0.0
 40
5.0
 50
270.0
 51
0.000000000000007
  0
LINE
  5
11981
  8
1-中柱P
 10
21247.108813585161
 20
16657.387954000002
 30
0.0
 11
21318.90881358516
 21
16657.387954000002
 31
0.0
  0
ARC
  5
11982
  8
1-中柱P
 10
21247.108813585161
 20
16663.987953999989
 30
0.0
 40
6.599999999999997
 50
180.0
 51
270.0
  0
LINE
  5
11983
  8
1-中柱P
 10
21325.508813585158
 20
16723.287953999989
 30
0.0
 11
21325.508813585158
 21
16663.987953999989
 31
0.0
  0
ARC
  5
11984
  8
1-中柱P
 10
21318.90881358516
 20
16663.987953999989
 30
0.0
 40
6.599999999999997
 50
270.0
 51
0.000000000000007
  0
LINE
  5
11985
  8
1-中柱P
 10
21323.908813585149
 20
16663.987953999989
 30
0.0
 11
21323.908813585149
 21
16723.287953999989
 31
0.0
  0
ARC
  5
11986
  8
1-中柱P
 10
21318.90881358516
 20
16723.287953999989
 30
0.0
 40
5.0
 50
0.000000000000007
 51
90.0
  0
LINE
  5
11987
  8
1-中柱P
 10
21240.508813585151
 20
16723.287953999989
 30
0.0
 11
21240.508813585151
 21
16663.987953999989
 31
0.0
  0
LINE
  5
11988
  8
1-中柱P
 10
21242.108813585161
 20
16663.987953999989
 30
0.0
 11
21242.108813585161
 21
16723.287953999989
 31
0.0
  0
LINE
  5
11989
  8
1-中柱P
 10
21247.108813585161
 20
16729.887954000002
 30
0.0
 11
21255.508813585151
 21
16729.887954000002
 31
0.0
  0
ARC
  5
1198A
  8
1-中柱P
 10
21247.108813585161
 20
16723.287953999989
 30
0.0
 40
6.599999999999997
 50
90.0
 51
180.0
  0
LINE
  5
1198B
  8
1-中柱P
 10
21247.108813585161
 20
16728.287953999989
 30
0.0
 11
21255.508813585151
 21
16728.287953999989
 31
0.0
  0
ARC
  5
1198C
  8
1-中柱P
 10
21255.508813585151
 20
16734.887954000002
 30
0.0
 40
6.599999999999997
 50
270.0
 51
0.000000000000007
  0
ARC
  5
1198D
  8
1-中柱P
 10
21247.108813585161
 20
16723.287953999989
 30
0.0
 40
5.0
 50
90.0
 51
180.0
  0
LINE
  5
1198E
  8
1-中柱P
 10
21260.508813585158
 20
16734.887954000002
 30
0.0
 11
21260.508813585158
 21
16794.287953999981
 31
0.0
  0
ARC
  5
1198F
  8
1-中柱P
 10
21255.508813585151
 20
16734.887954000002
 30
0.0
 40
5.0
 50
270.0
 51
0.000000000000007
  0
LINE
  5
11990
  8
1-中柱P
 10
21262.108813585161
 20
16734.887954000002
 30
0.0
 11
21262.108813585161
 21
16794.287953999981
 31
0.0
  0
LINE
  5
11991
  8
1-中柱P
 10
21267.108813585161
 20
16800.887954000002
 30
0.0
 11
21300.508813585158
 21
16800.887954000002
 31
0.0
  0
ARC
  5
11992
  8
1-中柱P
 10
21267.108813585161
 20
16794.287953999981
 30
0.0
 40
6.599999999999997
 50
90.0
 51
180.0
  0
LINE
  5
11993
  8
1-中柱P
 10
21267.108813585161
 20
16799.287953999981
 30
0.0
 11
21300.508813585158
 21
16799.287953999981
 31
0.0
  0
ARC
  5
11994
  8
1-中柱P
 10
21267.108813585161
 20
16794.287953999981
 30
0.0
 40
5.0
 50
90.0
 51
180.0
  0
LINE
  5
11995
  8
1-中柱P
 10
21300.508813585158
 20
16799.287953999981
 30
0.0
 11
21300.508813585158
 21
16800.887954000002
 31
0.0
  0
LINE
  5
11996
  8
1-中柱P
 10
21318.90881358516
 20
16729.887954000002
 30
0.0
 11
21310.508813585158
 21
16729.887954000002
 31
0.0
  0
ARC
  5
11997
  8
1-中柱P
 10
21318.90881358516
 20
16723.287953999989
 30
0.0
 40
6.599999999999997
 50
0.000000000000007
 51
90.0
  0
ARC
  5
11998
  8
1-中柱P
 10
21310.508813585158
 20
16734.887954000002
 30
0.0
 40
5.0
 50
180.0
 51
270.0
  0
LINE
  5
11999
  8
1-中柱P
 10
21310.508813585158
 20
16728.287953999989
 30
0.0
 11
21318.90881358516
 21
16728.287953999989
 31
0.0
  0
ARC
  5
1199A
  8
1-中柱P
 10
21310.508813585158
 20
16734.887954000002
 30
0.0
 40
6.599999999999997
 50
180.0
 51
270.0
  0
ARC
  5
1199B
  8
1-中柱P
  6
HIDE-M
 62
     6
 10
21276.408813585149
 20
16798.287953999981
 30
0.0
 40
2.6000000000000001
 50
0.000000000000007
 51
90.0
  0
LINE
  5
1199C
  8
1-中柱P
  6
HIDE-M
 62
     6
 10
21288.008813585151
 20
16800.337344153169
 30
0.0
 11
21288.008813585151
 21
16796.687954000001
 31
0.0
  0
LINE
  5
1199D
  8
1-中柱P
  6
HIDE-M
 62
     6
 10
21278.008813585158
 20
16800.337344153169
 30
0.0
 11
21278.008813585158
 21
16796.687954000001
 31
0.0
  0
LINE
  5
1199E
  8
1-中柱P
  6
1PL-M
 62
     6
 10
21283.008813585151
 20
16805.887954000002
 30
0.0
 11
21283.008813585151
 21
16791.687954000001
 31
0.0
  0
ARC
  5
1199F
  8
1-中柱P
  6
HIDE-M
 62
     6
 10
21289.608813585161
 20
16798.287953999981
 30
0.0
 40
2.6000000000000001
 50
90.0
 51
180.0
  0
LINE
  5
119A0
  8
1-中柱P
  6
HIDE-M
 62
     6
 10
21279.008813585151
 20
16798.287953999981
 30
0.0
 11
21279.008813585151
 21
16796.687954000001
 31
0.0
  0
LINE
  5
119A1
  8
1-中柱P
  6
HIDE-M
 62
     6
 10
21287.008813585158
 20
16798.287953999981
 30
0.0
 11
21287.008813585158
 21
16796.687954000001
 31
0.0
  0
LINE
  5
119A2
  8
1-中柱P
 10
21303.90881358516
 20
16734.887954000002
 30
0.0
 11
21303.90881358516
 21
16744.887954000002
 31
0.0
  0
LINE
  5
119A3
  8
1-中柱P
 10
21305.508813585151
 20
16734.887954000002
 30
0.0
 11
21305.508813585151
 21
16744.887954000002
 31
0.0
  0
LINE
  5
119A4
  8
1-中柱P
 10
21303.90881358516
 20
16744.887954000002
 30
0.0
 11
21305.508813585151
 21
16744.887954000002
 31
0.0
  0
LINE
  5
119A5
  8
1-中柱P
  6
1PL-M
 62
     6
 10
21255.508813585151
 20
16765.887954000002
 30
0.0
 11
21269.708813585152
 21
16765.887954000002
 31
0.0
  0
LINE
  5
119A6
  8
1-中柱P
  6
HIDE-M
 62
     6
 10
21251.608813585161
 20
16708.887953999991
 30
0.0
 11
21240.008813585158
 21
16708.887953999991
 31
0.0
  0
LINE
  5
119A7
  8
1-中柱P
  6
HIDE-M
 62
     6
 10
21251.608813585161
 20
16700.887954000002
 30
0.0
 11
21240.008813585158
 21
16700.887954000002
 31
0.0
  0
LINE
  5
119A8
  8
1-中柱P
  6
HIDE-M
 62
     6
 10
21251.608813585161
 20
16707.887954000002
 30
0.0
 11
21240.008813585158
 21
16707.887954000002
 31
0.0
  0
LINE
  5
119A9
  8
1-中柱P
  6
HIDE-M
 62
     6
 10
21251.608813585161
 20
16701.887954000002
 30
0.0
 11
21240.008813585158
 21
16701.887954000002
 31
0.0
  0
LINE
  5
119AA
  8
1-中柱P
 10
21250.608813585161
 20
16699.387954000002
 30
0.0
 11
21243.608813585161
 21
16699.387954000002
 31
0.0
  0
LINE
  5
119AB
  8
1-中柱P
 10
21243.608813585161
 20
16710.387954000002
 30
0.0
 11
21250.608813585161
 21
16710.387954000002
 31
0.0
  0
LINE
  5
119AC
  8
1-中柱P
 10
21243.608813585161
 20
16711.137954000002
 30
0.0
 11
21243.608813585161
 21
16698.637954000002
 31
0.0
  0
LINE
  5
119AD
  8
1-中柱P
 10
21240.008813585158
 20
16710.887954000002
 30
0.0
 11
21240.008813585158
 21
16698.887954000002
 31
0.0
  0
LINE
  5
119AE
  8
1-中柱P
  6
HIDE-M
 62
     6
 10
21242.108813585161
 20
16699.387954000002
 30
0.0
 11
21240.508813585151
 21
16699.387954000002
 31
0.0
  0
LINE
  5
119AF
  8
1-中柱P
 10
21240.008813585158
 20
16698.887954000002
 30
0.0
 11
21240.508813585151
 21
16699.387954000002
 31
0.0
  0
ARC
  5
119B0
  8
1-中柱P
 10
21242.858813585161
 20
16698.637954000002
 30
0.0
 40
0.75
 50
180.0
 51
0.000000000000007
  0
LINE
  5
119B1
  8
1-中柱P
  6
HIDE-M
 62
     6
 10
21240.508813585151
 20
16710.387954000002
 30
0.0
 11
21242.108813585161
 21
16710.387954000002
 31
0.0
  0
LINE
  5
119B2
  8
1-中柱P
 10
21240.008813585158
 20
16710.887954000002
 30
0.0
 11
21240.508813585151
 21
16710.387954000002
 31
0.0
  0
ARC
  5
119B3
  8
1-中柱P
 10
21242.858813585161
 20
16711.137954000002
 30
0.0
 40
0.75
 50
0.000000000000007
 51
180.0
  0
LINE
  5
119B4
  8
1-中柱P
 10
21251.608813585161
 20
16709.387954000002
 30
0.0
 11
21251.608813585161
 21
16700.387953999991
 31
0.0
  0
ARC
  5
119B5
  8
1-中柱P
 10
21250.608813585161
 20
16700.387953999991
 30
0.0
 40
1.0
 50
270.0
 51
0.000000000000007
  0
ARC
  5
119B6
  8
1-中柱P
 10
21250.608813585161
 20
16709.387954000002
 30
0.0
 40
1.0
 50
0.000000000000007
 51
90.0
  0
LINE
  5
119B7
  8
1-中柱P
  6
1PL-M
 62
     6
 10
21256.608813585161
 20
16704.887954000002
 30
0.0
 11
21235.008813585151
 21
16704.887954000002
 31
0.0
  0
LINE
  5
119B8
  8
1-中柱P
 10
21250.608813585161
 20
16689.387954000002
 30
0.0
 11
21243.608813585161
 21
16689.387954000002
 31
0.0
  0
LINE
  5
119B9
  8
1-中柱P
 10
21240.008813585158
 20
16696.887954000002
 30
0.0
 11
21240.008813585158
 21
16688.887954000002
 31
0.0
  0
LINE
  5
119BA
  8
1-中柱P
  6
HIDE-M
 62
     6
 10
21242.108813585161
 20
16689.387954000002
 30
0.0
 11
21240.508813585151
 21
16689.387954000002
 31
0.0
  0
LINE
  5
119BB
  8
1-中柱P
 10
21240.008813585158
 20
16688.887954000002
 30
0.0
 11
21240.508813585151
 21
16689.387954000002
 31
0.0
  0
ARC
  5
119BC
  8
1-中柱P
 10
21242.858813585161
 20
16688.637954000002
 30
0.0
 40
0.75
 50
180.0
 51
0.000000000000007
  0
LINE
  5
119BD
  8
1-中柱P
 10
21251.608813585161
 20
16698.387954000002
 30
0.0
 11
21251.608813585161
 21
16690.387954000002
 31
0.0
  0
ARC
  5
119BE
  8
1-中柱P
 10
21250.608813585161
 20
16690.387954000002
 30
0.0
 40
1.0
 50
270.0
 51
0.000000000000007
  0
LINE
  5
119BF
  8
1-中柱P
  6
1PL-M
 62
     6
 10
21256.608813585161
 20
16694.887954000002
 30
0.0
 11
21235.008813585151
 21
16694.887954000002
 31
0.0
  0
LINE
  5
119C0
  8
1-中柱P
 10
21243.608813585161
 20
16696.637954000002
 30
0.0
 11
21243.608813585161
 21
16688.637954000002
 31
0.0
  0
LINE
  5
119C1
  8
1-中柱P
  6
HIDE-M
 62
     6
 10
21251.608813585161
 20
16690.887953999991
 30
0.0
 11
21240.008813585158
 21
16690.887953999991
 31
0.0
  0
LINE
  5
119C2
  8
1-中柱P
  6
HIDE-M
 62
     6
 10
21251.608813585161
 20
16691.887954000002
 30
0.0
 11
21240.008813585158
 21
16691.887954000002
 31
0.0
  0
LINE
  5
119C3
  8
1-中柱P
  6
HIDE-M
 62
     6
 10
21314.408813585149
 20
16708.887953999991
 30
0.0
 11
21326.008813585151
 21
16708.887953999991
 31
0.0
  0
LINE
  5
119C4
  8
1-中柱P
  6
HIDE-M
 62
     6
 10
21314.408813585149
 20
16700.887954000002
 30
0.0
 11
21326.008813585151
 21
16700.887954000002
 31
0.0
  0
LINE
  5
119C5
  8
1-中柱P
  6
HIDE-M
 62
     6
 10
21314.408813585149
 20
16707.887954000002
 30
0.0
 11
21326.008813585151
 21
16707.887954000002
 31
0.0
  0
LINE
  5
119C6
  8
1-中柱P
  6
HIDE-M
 62
     6
 10
21314.408813585149
 20
16701.887954000002
 30
0.0
 11
21326.008813585151
 21
16701.887954000002
 31
0.0
  0
LINE
  5
119C7
  8
1-中柱P
 10
21315.40881358516
 20
16699.387954000002
 30
0.0
 11
21322.40881358516
 21
16699.387954000002
 31
0.0
  0
LINE
  5
119C8
  8
1-中柱P
 10
21322.40881358516
 20
16710.387954000002
 30
0.0
 11
21315.40881358516
 21
16710.387954000002
 31
0.0
  0
LINE
  5
119C9
  8
1-中柱P
 10
21322.40881358516
 20
16711.137954000002
 30
0.0
 11
21322.40881358516
 21
16698.637954000002
 31
0.0
  0
LINE
  5
119CA
  8
1-中柱P
 10
21326.008813585151
 20
16710.887954000002
 30
0.0
 11
21326.008813585151
 21
16698.887954000002
 31
0.0
  0
LINE
  5
119CB
  8
1-中柱P
  6
HIDE-M
 62
     6
 10
21323.908813585149
 20
16699.387954000002
 30
0.0
 11
21325.508813585158
 21
16699.387954000002
 31
0.0
  0
LINE
  5
119CC
  8
1-中柱P
 10
21326.008813585151
 20
16698.887954000002
 30
0.0
 11
21325.508813585158
 21
16699.387954000002
 31
0.0
  0
ARC
  5
119CD
  8
1-中柱P
 10
21323.158813585171
 20
16698.637954000002
 30
0.0
 40
0.75
 50
180.0
 51
0.000000000000007
  0
LINE
  5
119CE
  8
1-中柱P
  6
HIDE-M
 62
     6
 10
21325.508813585158
 20
16710.387954000002
 30
0.0
 11
21323.908813585149
 21
16710.387954000002
 31
0.0
  0
LINE
  5
119CF
  8
1-中柱P
 10
21326.008813585151
 20
16710.887954000002
 30
0.0
 11
21325.508813585158
 21
16710.387954000002
 31
0.0
  0
ARC
  5
119D0
  8
1-中柱P
 10
21323.158813585171
 20
16711.137954000002
 30
0.0
 40
0.75
 50
0.000000000000007
 51
180.0
  0
LINE
  5
119D1
  8
1-中柱P
 10
21314.408813585149
 20
16709.387954000002
 30
0.0
 11
21314.408813585149
 21
16700.387953999991
 31
0.0
  0
ARC
  5
119D2
  8
1-中柱P
 10
21315.40881358516
 20
16700.387953999991
 30
0.0
 40
1.0
 50
180.0
 51
270.0
  0
ARC
  5
119D3
  8
1-中柱P
 10
21315.40881358516
 20
16709.387954000002
 30
0.0
 40
1.0
 50
90.0
 51
180.0
  0
LINE
  5
119D4
  8
1-中柱P
  6
1PL-M
 62
     6
 10
21309.40881358516
 20
16704.887954000002
 30
0.0
 11
21331.008813585158
 21
16704.887954000002
 31
0.0
  0
LINE
  5
119D5
  8
1-中柱P
 10
21315.40881358516
 20
16689.387954000002
 30
0.0
 11
21322.40881358516
 21
16689.387954000002
 31
0.0
  0
LINE
  5
119D6
  8
1-中柱P
 10
21326.008813585151
 20
16696.887954000002
 30
0.0
 11
21326.008813585151
 21
16688.887954000002
 31
0.0
  0
LINE
  5
119D7
  8
1-中柱P
  6
HIDE-M
 62
     6
 10
21323.908813585149
 20
16689.387954000002
 30
0.0
 11
21325.508813585158
 21
16689.387954000002
 31
0.0
  0
LINE
  5
119D8
  8
1-中柱P
 10
21326.008813585151
 20
16688.887954000002
 30
0.0
 11
21325.508813585158
 21
16689.387954000002
 31
0.0
  0
ARC
  5
119D9
  8
1-中柱P
 10
21323.158813585171
 20
16688.637954000002
 30
0.0
 40
0.75
 50
180.0
 51
0.000000000000007
  0
LINE
  5
119DA
  8
1-中柱P
 10
21314.408813585149
 20
16698.387954000002
 30
0.0
 11
21314.408813585149
 21
16690.387954000002
 31
0.0
  0
ARC
  5
119DB
  8
1-中柱P
 10
21315.40881358516
 20
16690.387954000002
 30
0.0
 40
1.0
 50
180.0
 51
270.0
  0
LINE
  5
119DC
  8
1-中柱P
  6
1PL-M
 62
     6
 10
21309.40881358516
 20
16694.887954000002
 30
0.0
 11
21331.008813585158
 21
16694.887954000002
 31
0.0
  0
LINE
  5
119DD
  8
1-中柱P
 10
21322.40881358516
 20
16696.637954000002
 30
0.0
 11
21322.40881358516
 21
16688.637954000002
 31
0.0
  0
LINE
  5
119DE
  8
1-中柱P
  6
HIDE-M
 62
     6
 10
21314.408813585149
 20
16690.887953999991
 30
0.0
 11
21326.008813585151
 21
16690.887953999991
 31
0.0
  0
LINE
  5
119DF
  8
1-中柱P
  6
HIDE-M
 62
     6
 10
21314.408813585149
 20
16691.887954000002
 30
0.0
 11
21326.008813585151
 21
16691.887954000002
 31
0.0
  0
LINE
  5
119E0
  8
1-中柱カバ-P
 10
21325.508813585158
 20
16736.587953999991
 30
0.0
 11
21325.508813585158
 21
16795.887954000002
 31
0.0
  0
ARC
  5
119E1
  8
1-中柱カバ-P
 10
21318.90881358516
 20
16795.887954000002
 30
0.0
 40
6.599999999999997
 50
0.000000000000007
 51
90.0
  0
LINE
  5
119E2
  8
1-中柱カバ-P
 10
21323.908813585149
 20
16736.587953999991
 30
0.0
 11
21323.908813585149
 21
16795.887954000002
 31
0.0
  0
ARC
  5
119E3
  8
1-中柱カバ-P
 10
21318.90881358516
 20
16736.587953999991
 30
0.0
 40
5.0
 50
270.0
 51
0.000000000000007
  0
LINE
  5
119E4
  8
1-中柱カバ-P
 10
21318.90881358516
 20
16802.487953999978
 30
0.0
 11
21247.108813585161
 21
16802.487953999978
 31
0.0
  0
ARC
  5
119E5
  8
1-中柱カバ-P
 10
21247.108813585161
 20
16795.887954000002
 30
0.0
 40
6.599999999999997
 50
90.0
 51
180.0
  0
LINE
  5
119E6
  8
1-中柱カバ-P
 10
21318.90881358516
 20
16800.887954000002
 30
0.0
 11
21247.108813585161
 21
16800.887954000002
 31
0.0
  0
ARC
  5
119E7
  8
1-中柱カバ-P
 10
21247.108813585161
 20
16795.887954000002
 30
0.0
 40
5.0
 50
90.0
 51
180.0
  0
ARC
  5
119E8
  8
1-中柱カバ-P
 10
21318.90881358516
 20
16795.887954000002
 30
0.0
 40
5.0
 50
0.000000000000007
 51
90.0
  0
LINE
  5
119E9
  8
1-中柱カバ-P
 10
21240.508813585151
 20
16795.887954000002
 30
0.0
 11
21240.508813585151
 21
16736.587953999991
 31
0.0
  0
LINE
  5
119EA
  8
1-中柱カバ-P
 10
21242.108813585161
 20
16795.887954000002
 30
0.0
 11
21242.108813585161
 21
16736.587953999991
 31
0.0
  0
ARC
  5
119EB
  8
1-中柱カバ-P
 10
21247.108813585161
 20
16736.587953999991
 30
0.0
 40
5.0
 50
180.0
 51
270.0
  0
LINE
  5
119EC
  8
1-中柱カバ-P
  6
1PL-M
 62
     6
 10
21283.008813585151
 20
16794.987953999978
 30
0.0
 11
21283.008813585151
 21
16807.987953999978
 31
0.0
  0
LINE
  5
119ED
  8
1-中柱カバ-P
  6
HIDE-M
 62
     6
 10
21290.008813585151
 20
16802.487953999978
 30
0.0
 11
21290.008813585151
 21
16800.887954000002
 31
0.0
  0
LINE
  5
119EE
  8
1-中柱カバ-P
  6
HIDE-M
 62
     6
 10
21276.008813585158
 20
16802.487953999978
 30
0.0
 11
21276.008813585158
 21
16800.887954000002
 31
0.0
  0
ARC
  5
119EF
  8
1-中柱カバ-P
 10
21318.90881358516
 20
16736.587953999991
 30
0.0
 40
6.599999999999997
 50
270.0
 51
0.000000000000007
  0
ARC
  5
119F0
  8
1-中柱カバ-P
 10
21247.108813585161
 20
16736.587953999991
 30
0.0
 40
6.599999999999997
 50
180.0
 51
270.0
  0
LINE
  5
119F1
  8
1-中柱カバ-P
 10
21255.508813585151
 20
16729.987953999978
 30
0.0
 11
21247.108813585161
 21
16729.987953999978
 31
0.0
  0
LINE
  5
119F2
  8
1-中柱カバ-P
 10
21310.508813585158
 20
16729.987953999978
 30
0.0
 11
21318.90881358516
 21
16729.987953999978
 31
0.0
  0
LINE
  5
119F3
  8
1-中柱カバ-P
 10
21255.508813585151
 20
16731.587953999991
 30
0.0
 11
21247.108813585161
 21
16731.587953999991
 31
0.0
  0
LINE
  5
119F4
  8
1-中柱カバ-P
 10
21310.508813585158
 20
16731.587953999991
 30
0.0
 11
21318.90881358516
 21
16731.587953999991
 31
0.0
  0
LINE
  5
119F5
  8
1-中柱カバ-P
 10
21310.508813585158
 20
16731.587953999991
 30
0.0
 11
21310.508813585158
 21
16729.987953999978
 31
0.0
  0
LINE
  5
119F6
  8
1-中柱カバ-P
 10
21255.508813585151
 20
16729.987953999978
 30
0.0
 11
21255.508813585151
 21
16731.587953999991
 31
0.0
  0
LINE
  5
119F7
  8
1-中柱カバ-P
  6
HIDE-M
 62
     6
 10
21251.608813585161
 20
16750.987953999978
 30
0.0
 11
21240.008813585158
 21
16750.987953999978
 31
0.0
  0
LINE
  5
119F8
  8
1-中柱カバ-P
  6
HIDE-M
 62
     6
 10
21251.608813585161
 20
16758.987953999989
 30
0.0
 11
21240.008813585158
 21
16758.987953999989
 31
0.0
  0
LINE
  5
119F9
  8
1-中柱カバ-P
  6
HIDE-M
 62
     6
 10
21251.608813585161
 20
16751.987953999978
 30
0.0
 11
21240.008813585158
 21
16751.987953999978
 31
0.0
  0
LINE
  5
119FA
  8
1-中柱カバ-P
  6
HIDE-M
 62
     6
 10
21251.608813585161
 20
16757.987953999989
 30
0.0
 11
21240.008813585158
 21
16757.987953999989
 31
0.0
  0
LINE
  5
119FB
  8
1-中柱カバ-P
 10
21250.608813585161
 20
16760.487953999978
 30
0.0
 11
21243.608813585161
 21
16760.487953999978
 31
0.0
  0
LINE
  5
119FC
  8
1-中柱カバ-P
 10
21243.608813585161
 20
16749.487953999989
 30
0.0
 11
21250.608813585161
 21
16749.487953999989
 31
0.0
  0
LINE
  5
119FD
  8
1-中柱カバ-P
 10
21243.608813585161
 20
16748.737953999989
 30
0.0
 11
21243.608813585161
 21
16761.237953999978
 31
0.0
  0
LINE
  5
119FE
  8
1-中柱カバ-P
 10
21240.008813585158
 20
16748.987953999978
 30
0.0
 11
21240.008813585158
 21
16760.987953999989
 31
0.0
  0
LINE
  5
119FF
  8
1-中柱カバ-P
  6
HIDE-M
 62
     6
 10
21242.108813585161
 20
16760.487953999978
 30
0.0
 11
21240.508813585151
 21
16760.487953999978
 31
0.0
  0
LINE
  5
11A00
  8
1-中柱カバ-P
 10
21240.008813585158
 20
16760.987953999989
 30
0.0
 11
21240.508813585151
 21
16760.487953999978
 31
0.0
  0
ARC
  5
11A01
  8
1-中柱カバ-P
 10
21242.858813585161
 20
16761.237953999978
 30
0.0
 40
0.75
 50
0.000000000000007
 51
180.0
  0
LINE
  5
11A02
  8
1-中柱カバ-P
  6
HIDE-M
 62
     6
 10
21240.508813585151
 20
16749.487953999989
 30
0.0
 11
21242.108813585161
 21
16749.487953999989
 31
0.0
  0
LINE
  5
11A03
  8
1-中柱カバ-P
 10
21240.008813585158
 20
16748.987953999978
 30
0.0
 11
21240.508813585151
 21
16749.487953999989
 31
0.0
  0
ARC
  5
11A04
  8
1-中柱カバ-P
 10
21242.858813585161
 20
16748.737953999989
 30
0.0
 40
0.75
 50
180.0
 51
0.000000000000007
  0
LINE
  5
11A05
  8
1-中柱カバ-P
 10
21251.608813585161
 20
16750.487953999989
 30
0.0
 11
21251.608813585161
 21
16759.487953999989
 31
0.0
  0
ARC
  5
11A06
  8
1-中柱カバ-P
 10
21250.608813585161
 20
16759.487953999989
 30
0.0
 40
1.0
 50
0.000000000000007
 51
90.0
  0
ARC
  5
11A07
  8
1-中柱カバ-P
 10
21250.608813585161
 20
16750.487953999989
 30
0.0
 40
1.0
 50
270.0
 51
0.000000000000007
  0
LINE
  5
11A08
  8
1-中柱カバ-P
  6
1PL-M
 62
     6
 10
21256.608813585161
 20
16754.987953999978
 30
0.0
 11
21235.008813585151
 21
16754.987953999978
 31
0.0
  0
LINE
  5
11A09
  8
1-中柱カバ-P
 10
21250.608813585161
 20
16770.487953999989
 30
0.0
 11
21243.608813585161
 21
16770.487953999989
 31
0.0
  0
LINE
  5
11A0A
  8
1-中柱カバ-P
 10
21240.008813585158
 20
16762.987953999989
 30
0.0
 11
21240.008813585158
 21
16770.987953999978
 31
0.0
  0
LINE
  5
11A0B
  8
1-中柱カバ-P
  6
HIDE-M
 62
     6
 10
21242.108813585161
 20
16770.487953999989
 30
0.0
 11
21240.508813585151
 21
16770.487953999989
 31
0.0
  0
LINE
  5
11A0C
  8
1-中柱カバ-P
 10
21240.008813585158
 20
16770.987953999978
 30
0.0
 11
21240.508813585151
 21
16770.487953999989
 31
0.0
  0
ARC
  5
11A0D
  8
1-中柱カバ-P
 10
21242.858813585161
 20
16771.237953999978
 30
0.0
 40
0.75
 50
0.000000000000007
 51
180.0
  0
LINE
  5
11A0E
  8
1-中柱カバ-P
 10
21251.608813585161
 20
16761.487953999978
 30
0.0
 11
21251.608813585161
 21
16769.487953999989
 31
0.0
  0
ARC
  5
11A0F
  8
1-中柱カバ-P
 10
21250.608813585161
 20
16769.487953999989
 30
0.0
 40
1.0
 50
0.000000000000007
 51
90.0
  0
LINE
  5
11A10
  8
1-中柱カバ-P
  6
1PL-M
 62
     6
 10
21256.608813585161
 20
16764.987953999978
 30
0.0
 11
21235.008813585151
 21
16764.987953999978
 31
0.0
  0
LINE
  5
11A11
  8
1-中柱カバ-P
 10
21243.608813585161
 20
16763.237953999989
 30
0.0
 11
21243.608813585161
 21
16771.237953999978
 31
0.0
  0
LINE
  5
11A12
  8
1-中柱カバ-P
  6
HIDE-M
 62
     6
 10
21314.408813585149
 20
16750.987953999978
 30
0.0
 11
21326.008813585151
 21
16750.987953999978
 31
0.0
  0
LINE
  5
11A13
  8
1-中柱カバ-P
  6
HIDE-M
 62
     6
 10
21314.408813585149
 20
16758.987953999989
 30
0.0
 11
21326.008813585151
 21
16758.987953999989
 31
0.0
  0
LINE
  5
11A14
  8
1-中柱カバ-P
  6
HIDE-M
 62
     6
 10
21314.408813585149
 20
16751.987953999978
 30
0.0
 11
21326.008813585151
 21
16751.987953999978
 31
0.0
  0
LINE
  5
11A15
  8
1-中柱カバ-P
  6
HIDE-M
 62
     6
 10
21314.408813585149
 20
16757.987953999989
 30
0.0
 11
21326.008813585151
 21
16757.987953999989
 31
0.0
  0
LINE
  5
11A16
  8
1-中柱カバ-P
 10
21315.40881358516
 20
16760.487953999978
 30
0.0
 11
21322.40881358516
 21
16760.487953999978
 31
0.0
  0
LINE
  5
11A17
  8
1-中柱カバ-P
 10
21322.40881358516
 20
16749.487953999989
 30
0.0
 11
21315.40881358516
 21
16749.487953999989
 31
0.0
  0
LINE
  5
11A18
  8
1-中柱カバ-P
 10
21322.40881358516
 20
16748.737953999989
 30
0.0
 11
21322.40881358516
 21
16761.237953999978
 31
0.0
  0
LINE
  5
11A19
  8
1-中柱カバ-P
 10
21326.008813585151
 20
16748.987953999978
 30
0.0
 11
21326.008813585151
 21
16760.987953999989
 31
0.0
  0
LINE
  5
11A1A
  8
1-中柱カバ-P
  6
HIDE-M
 62
     6
 10
21323.908813585149
 20
16760.487953999978
 30
0.0
 11
21325.508813585158
 21
16760.487953999978
 31
0.0
  0
LINE
  5
11A1B
  8
1-中柱カバ-P
 10
21326.008813585151
 20
16760.987953999989
 30
0.0
 11
21325.508813585158
 21
16760.487953999978
 31
0.0
  0
ARC
  5
11A1C
  8
1-中柱カバ-P
 10
21323.158813585171
 20
16761.237953999978
 30
0.0
 40
0.75
 50
0.000000000000007
 51
180.0
  0
LINE
  5
11A1D
  8
1-中柱カバ-P
  6
HIDE-M
 62
     6
 10
21325.508813585158
 20
16749.487953999989
 30
0.0
 11
21323.908813585149
 21
16749.487953999989
 31
0.0
  0
LINE
  5
11A1E
  8
1-中柱カバ-P
 10
21326.008813585151
 20
16748.987953999978
 30
0.0
 11
21325.508813585158
 21
16749.487953999989
 31
0.0
  0
ARC
  5
11A1F
  8
1-中柱カバ-P
 10
21323.158813585171
 20
16748.737953999989
 30
0.0
 40
0.75
 50
180.0
 51
0.000000000000007
  0
LINE
  5
11A20
  8
1-中柱カバ-P
 10
21314.408813585149
 20
16750.487953999989
 30
0.0
 11
21314.408813585149
 21
16759.487953999989
 31
0.0
  0
ARC
  5
11A21
  8
1-中柱カバ-P
 10
21315.40881358516
 20
16759.487953999989
 30
0.0
 40
1.0
 50
90.0
 51
180.0
  0
ARC
  5
11A22
  8
1-中柱カバ-P
 10
21315.40881358516
 20
16750.487953999989
 30
0.0
 40
1.0
 50
180.0
 51
270.0
  0
LINE
  5
11A23
  8
1-中柱カバ-P
  6
1PL-M
 62
     6
 10
21309.40881358516
 20
16754.987953999978
 30
0.0
 11
21331.008813585158
 21
16754.987953999978
 31
0.0
  0
LINE
  5
11A24
  8
1-中柱カバ-P
 10
21315.40881358516
 20
16770.487953999989
 30
0.0
 11
21322.40881358516
 21
16770.487953999989
 31
0.0
  0
LINE
  5
11A25
  8
1-中柱カバ-P
 10
21326.008813585151
 20
16762.987953999989
 30
0.0
 11
21326.008813585151
 21
16770.987953999978
 31
0.0
  0
LINE
  5
11A26
  8
1-中柱カバ-P
  6
HIDE-M
 62
     6
 10
21323.908813585149
 20
16770.487953999989
 30
0.0
 11
21325.508813585158
 21
16770.487953999989
 31
0.0
  0
LINE
  5
11A27
  8
1-中柱カバ-P
 10
21326.008813585151
 20
16770.987953999978
 30
0.0
 11
21325.508813585158
 21
16770.487953999989
 31
0.0
  0
ARC
  5
11A28
  8
1-中柱カバ-P
 10
21323.158813585171
 20
16771.237953999978
 30
0.0
 40
0.75
 50
0.000000000000007
 51
180.0
  0
LINE
  5
11A29
  8
1-中柱カバ-P
 10
21314.408813585149
 20
16761.487953999978
 30
0.0
 11
21314.408813585149
 21
16769.487953999989
 31
0.0
  0
ARC
  5
11A2A
  8
1-中柱カバ-P
 10
21315.40881358516
 20
16769.487953999989
 30
0.0
 40
1.0
 50
90.0
 51
180.0
  0
LINE
  5
11A2B
  8
1-中柱カバ-P
  6
1PL-M
 62
     6
 10
21309.40881358516
 20
16764.987953999978
 30
0.0
 11
21331.008813585158
 21
16764.987953999978
 31
0.0
  0
LINE
  5
11A2C
  8
1-中柱カバ-P
 10
21322.40881358516
 20
16763.237953999989
 30
0.0
 11
21322.40881358516
 21
16771.237953999978
 31
0.0
  0
LINE
  5
11A2D
  8
1-中柱カバ-P
  6
HIDE-M
 62
     6
 10
21251.608813585161
 20
16768.987953999978
 30
0.0
 11
21240.008813585158
 21
16768.987953999978
 31
0.0
  0
LINE
  5
11A2E
  8
1-中柱カバ-P
  6
HIDE-M
 62
     6
 10
21251.608813585161
 20
16767.987953999978
 30
0.0
 11
21240.008813585158
 21
16767.987953999978
 31
0.0
  0
LINE
  5
11A2F
  8
1-中柱カバ-P
  6
HIDE-M
 62
     6
 10
21314.408813585149
 20
16768.987953999978
 30
0.0
 11
21326.008813585151
 21
16768.987953999978
 31
0.0
  0
LINE
  5
11A30
  8
1-中柱カバ-P
  6
HIDE-M
 62
     6
 10
21314.408813585149
 20
16767.987953999978
 30
0.0
 11
21326.008813585151
 21
16767.987953999978
 31
0.0
  0
ARC
  5
11A31
  8
1-前柱P
  6
HIDE-M
 62
     6
 10
21286.60881358515
 20
13880.387953999991
 30
0.0
 40
2.6000000000000001
 50
90.0
 51
180.0
  0
LINE
  5
11A32
  8
1-前柱P
  6
HIDE-M
 62
     6
 10
21275.008813585151
 20
13882.437344153181
 30
0.0
 11
21275.008813585151
 21
13878.78795399999
 31
0.0
  0
LINE
  5
11A33
  8
1-前柱P
  6
HIDE-M
 62
     6
 10
21285.008813585158
 20
13882.437344153181
 30
0.0
 11
21285.008813585158
 21
13878.78795399999
 31
0.0
  0
LINE
  5
11A34
  8
1-前柱P
  6
1PL-M
 62
     6
 10
21280.008813585158
 20
13887.98795399998
 30
0.0
 11
21280.008813585158
 21
13873.78795399999
 31
0.0
  0
ARC
  5
11A35
  8
1-前柱P
  6
HIDE-M
 62
     6
 10
21273.408813585142
 20
13880.387953999991
 30
0.0
 40
2.6000000000000001
 50
0.000000000000007
 51
90.0
  0
LINE
  5
11A36
  8
1-前柱P
  6
HIDE-M
 62
     6
 10
21284.008813585158
 20
13880.387953999991
 30
0.0
 11
21284.008813585158
 21
13878.78795399999
 31
0.0
  0
LINE
  5
11A37
  8
1-前柱P
  6
HIDE-M
 62
     6
 10
21276.008813585158
 20
13880.387953999991
 30
0.0
 11
21276.008813585158
 21
13878.78795399999
 31
0.0
  0
LINE
  5
11A38
  8
1-前柱P
 10
21293.908813585142
 20
13768.08795399999
 30
0.0
 11
21272.108813585139
 21
13768.08795399999
 31
0.0
  0
LINE
  5
11A39
  8
1-前柱P
 10
21242.10881358515
 20
13805.387953999991
 30
0.0
 11
21242.10881358515
 21
13798.08795399999
 31
0.0
  0
ARC
  5
11A3A
  8
1-前柱P
 10
21272.108813585139
 20
13798.08795399999
 30
0.0
 40
30.0
 50
180.0
 51
270.0
  0
ARC
  5
11A3B
  8
1-前柱P
 10
21272.108813585139
 20
13798.08795399999
 30
0.0
 40
31.600000000000001
 50
180.0
 51
270.0
  0
LINE
  5
11A3C
  8
1-前柱P
 10
21293.908813585142
 20
13766.48795399998
 30
0.0
 11
21272.108813585139
 21
13766.48795399998
 31
0.0
  0
LINE
  5
11A3D
  8
1-前柱P
 10
21240.508813585151
 20
13805.387953999991
 30
0.0
 11
21240.508813585151
 21
13798.08795399999
 31
0.0
  0
LINE
  5
11A3E
  8
1-前柱P
 10
21263.508813585151
 20
13826.98795399998
 30
0.0
 11
21263.508813585151
 21
13816.98795399998
 31
0.0
  0
LINE
  5
11A3F
  8
1-前柱P
 10
21265.10881358515
 20
13816.98795399998
 30
0.0
 11
21265.10881358515
 21
13826.98795399998
 31
0.0
  0
LINE
  5
11A40
  8
1-前柱P
 10
21323.908813585149
 20
13805.387953999991
 30
0.0
 11
21323.908813585149
 21
13798.08795399999
 31
0.0
  0
ARC
  5
11A41
  8
1-前柱P
 10
21293.908813585142
 20
13798.08795399999
 30
0.0
 40
30.0
 50
270.0
 51
0.000000000000007
  0
ARC
  5
11A42
  8
1-前柱P
 10
21293.908813585142
 20
13798.08795399999
 30
0.0
 40
31.600000000000001
 50
270.0
 51
0.000000000000007
  0
LINE
  5
11A43
  8
1-前柱P
 10
21325.508813585158
 20
13805.387953999991
 30
0.0
 11
21325.508813585158
 21
13798.08795399999
 31
0.0
  0
LINE
  5
11A44
  8
1-前柱P
 10
21318.908813585142
 20
13811.98795399998
 30
0.0
 11
21307.508813585151
 21
13811.98795399998
 31
0.0
  0
ARC
  5
11A45
  8
1-前柱P
 10
21318.908813585142
 20
13805.387953999991
 30
0.0
 40
6.599999999999997
 50
0.000000000000007
 51
90.0
  0
ARC
  5
11A46
  8
1-前柱P
 10
21307.508813585151
 20
13816.98795399998
 30
0.0
 40
5.0
 50
180.0
 51
270.0
  0
LINE
  5
11A47
  8
1-前柱P
 10
21318.908813585142
 20
13810.387953999991
 30
0.0
 11
21307.508813585151
 21
13810.387953999991
 31
0.0
  0
ARC
  5
11A48
  8
1-前柱P
 10
21318.908813585142
 20
13805.387953999991
 30
0.0
 40
5.0
 50
0.000000000000007
 51
90.0
  0
LINE
  5
11A49
  8
1-前柱P
 10
21302.508813585158
 20
13816.98795399998
 30
0.0
 11
21302.508813585158
 21
13876.387954
 31
0.0
  0
LINE
  5
11A4A
  8
1-前柱P
 10
21300.908813585149
 20
13816.98795399998
 30
0.0
 11
21300.908813585149
 21
13876.387954
 31
0.0
  0
ARC
  5
11A4B
  8
1-前柱P
 10
21307.508813585151
 20
13816.98795399998
 30
0.0
 40
6.599999999999997
 50
180.0
 51
270.0
  0
LINE
  5
11A4C
  8
1-前柱P
 10
21295.908813585142
 20
13882.98795399998
 30
0.0
 11
21262.508813585158
 21
13882.98795399998
 31
0.0
  0
ARC
  5
11A4D
  8
1-前柱P
 10
21295.908813585142
 20
13876.387954
 30
0.0
 40
6.599999999999997
 50
0.000000000000007
 51
90.0
  0
LINE
  5
11A4E
  8
1-前柱P
 10
21295.908813585142
 20
13881.387953999991
 30
0.0
 11
21262.508813585158
 21
13881.387953999991
 31
0.0
  0
ARC
  5
11A4F
  8
1-前柱P
 10
21295.908813585142
 20
13876.387954
 30
0.0
 40
5.0
 50
0.000000000000007
 51
90.0
  0
LINE
  5
11A50
  8
1-前柱P
 10
21262.508813585158
 20
13881.387953999991
 30
0.0
 11
21262.508813585158
 21
13882.98795399998
 31
0.0
  0
LINE
  5
11A51
  8
1-前柱P
 10
21247.108813585131
 20
13811.98795399998
 30
0.0
 11
21258.508813585158
 21
13811.98795399998
 31
0.0
  0
ARC
  5
11A52
  8
1-前柱P
 10
21247.108813585131
 20
13805.387953999991
 30
0.0
 40
6.599999999999997
 50
90.0
 51
180.0
  0
ARC
  5
11A53
  8
1-前柱P
 10
21258.508813585158
 20
13816.98795399998
 30
0.0
 40
5.0
 50
270.0
 51
0.000000000000007
  0
LINE
  5
11A54
  8
1-前柱P
 10
21258.508813585158
 20
13810.387953999991
 30
0.0
 11
21247.108813585131
 21
13810.387953999991
 31
0.0
  0
ARC
  5
11A55
  8
1-前柱P
 10
21258.508813585158
 20
13816.98795399998
 30
0.0
 40
6.599999999999997
 50
270.0
 51
0.000000000000007
  0
ARC
  5
11A56
  8
1-前柱P
 10
21247.108813585131
 20
13805.387953999991
 30
0.0
 40
5.0
 50
90.0
 51
180.0
  0
LINE
  5
11A57
  8
1-前柱P
 10
21263.508813585151
 20
13826.98795399998
 30
0.0
 11
21265.10881358515
 21
13826.98795399998
 31
0.0
  0
LINE
  5
11A58
  8
1-前柱カバ-P
 10
21240.508813585151
 20
13818.687953999981
 30
0.0
 11
21240.508813585151
 21
13877.98795399998
 31
0.0
  0
ARC
  5
11A59
  8
1-前柱カバ-P
 10
21247.108813585131
 20
13877.98795399998
 30
0.0
 40
6.599999999999997
 50
90.0
 51
180.0
  0
LINE
  5
11A5A
  8
1-前柱カバ-P
 10
21242.10881358515
 20
13818.687953999981
 30
0.0
 11
21242.10881358515
 21
13877.98795399998
 31
0.0
  0
ARC
  5
11A5B
  8
1-前柱カバ-P
 10
21247.108813585131
 20
13818.687953999981
 30
0.0
 40
5.0
 50
180.0
 51
270.0
  0
LINE
  5
11A5C
  8
1-前柱カバ-P
 10
21247.108813585131
 20
13884.587953999981
 30
0.0
 11
21318.908813585142
 21
13884.587953999981
 31
0.0
  0
ARC
  5
11A5D
  8
1-前柱カバ-P
 10
21318.908813585142
 20
13877.98795399998
 30
0.0
 40
6.599999999999997
 50
0.000000000000007
 51
90.0
  0
LINE
  5
11A5E
  8
1-前柱カバ-P
 10
21247.108813585131
 20
13882.98795399998
 30
0.0
 11
21318.908813585142
 21
13882.98795399998
 31
0.0
  0
ARC
  5
11A5F
  8
1-前柱カバ-P
 10
21318.908813585142
 20
13877.98795399998
 30
0.0
 40
5.0
 50
0.000000000000007
 51
90.0
  0
ARC
  5
11A60
  8
1-前柱カバ-P
 10
21247.108813585131
 20
13877.98795399998
 30
0.0
 40
5.0
 50
90.0
 51
180.0
  0
LINE
  5
11A61
  8
1-前柱カバ-P
 10
21325.508813585158
 20
13877.98795399998
 30
0.0
 11
21325.508813585158
 21
13818.687953999981
 31
0.0
  0
LINE
  5
11A62
  8
1-前柱カバ-P
 10
21323.908813585149
 20
13877.98795399998
 30
0.0
 11
21323.908813585149
 21
13818.687953999981
 31
0.0
  0
ARC
  5
11A63
  8
1-前柱カバ-P
 10
21318.908813585142
 20
13818.687953999981
 30
0.0
 40
5.0
 50
270.0
 51
0.000000000000007
  0
LINE
  5
11A64
  8
1-前柱カバ-P
  6
1PL-M
 62
     6
 10
21283.008813585151
 20
13877.087953999981
 30
0.0
 11
21283.008813585151
 21
13890.087953999981
 31
0.0
  0
LINE
  5
11A65
  8
1-前柱カバ-P
  6
HIDE-M
 62
     6
 10
21276.008813585158
 20
13884.587953999981
 30
0.0
 11
21276.008813585158
 21
13882.98795399998
 31
0.0
  0
LINE
  5
11A66
  8
1-前柱カバ-P
  6
HIDE-M
 62
     6
 10
21290.008813585151
 20
13884.587953999981
 30
0.0
 11
21290.008813585151
 21
13882.98795399998
 31
0.0
  0
ARC
  5
11A67
  8
1-前柱カバ-P
 10
21247.108813585131
 20
13818.687953999981
 30
0.0
 40
6.599999999999997
 50
180.0
 51
270.0
  0
ARC
  5
11A68
  8
1-前柱カバ-P
 10
21318.908813585142
 20
13818.687953999981
 30
0.0
 40
6.599999999999997
 50
270.0
 51
0.000000000000007
  0
LINE
  5
11A69
  8
1-前柱カバ-P
 10
21310.508813585158
 20
13812.087953999981
 30
0.0
 11
21318.908813585142
 21
13812.087953999981
 31
0.0
  0
LINE
  5
11A6A
  8
1-前柱カバ-P
 10
21255.508813585151
 20
13812.087953999981
 30
0.0
 11
21247.108813585131
 21
13812.087953999981
 31
0.0
  0
LINE
  5
11A6B
  8
1-前柱カバ-P
 10
21310.508813585158
 20
13813.687953999981
 30
0.0
 11
21318.908813585142
 21
13813.687953999981
 31
0.0
  0
LINE
  5
11A6C
  8
1-前柱カバ-P
 10
21255.508813585151
 20
13813.687953999981
 30
0.0
 11
21247.108813585131
 21
13813.687953999981
 31
0.0
  0
LINE
  5
11A6D
  8
1-前柱カバ-P
 10
21255.508813585151
 20
13813.687953999981
 30
0.0
 11
21255.508813585151
 21
13812.087953999981
 31
0.0
  0
LINE
  5
11A6E
  8
1-前柱カバ-P
 10
21310.508813585158
 20
13812.087953999981
 30
0.0
 11
21310.508813585158
 21
13813.687953999981
 31
0.0
  0
LINE
  5
11A6F
  8
1-前柱カバ-P
  6
HIDE-M
 62
     6
 10
21314.408813585149
 20
13833.087953999981
 30
0.0
 11
21326.008813585151
 21
13833.087953999981
 31
0.0
  0
LINE
  5
11A70
  8
1-前柱カバ-P
  6
HIDE-M
 62
     6
 10
21314.408813585149
 20
13841.08795399999
 30
0.0
 11
21326.008813585151
 21
13841.08795399999
 31
0.0
  0
LINE
  5
11A71
  8
1-前柱カバ-P
  6
HIDE-M
 62
     6
 10
21314.408813585149
 20
13834.087953999981
 30
0.0
 11
21326.008813585151
 21
13834.087953999981
 31
0.0
  0
LINE
  5
11A72
  8
1-前柱カバ-P
  6
HIDE-M
 62
     6
 10
21314.408813585149
 20
13840.08795399999
 30
0.0
 11
21326.008813585151
 21
13840.08795399999
 31
0.0
  0
LINE
  5
11A73
  8
1-前柱カバ-P
 10
21315.408813585142
 20
13842.587953999981
 30
0.0
 11
21322.408813585142
 21
13842.587953999981
 31
0.0
  0
LINE
  5
11A74
  8
1-前柱カバ-P
 10
21322.408813585142
 20
13831.58795399999
 30
0.0
 11
21315.408813585142
 21
13831.58795399999
 31
0.0
  0
LINE
  5
11A75
  8
1-前柱カバ-P
 10
21322.408813585142
 20
13830.83795399999
 30
0.0
 11
21322.408813585142
 21
13843.33795399999
 31
0.0
  0
LINE
  5
11A76
  8
1-前柱カバ-P
 10
21326.008813585151
 20
13831.087953999981
 30
0.0
 11
21326.008813585151
 21
13843.08795399999
 31
0.0
  0
LINE
  5
11A77
  8
1-前柱カバ-P
  6
HIDE-M
 62
     6
 10
21323.908813585149
 20
13842.587953999981
 30
0.0
 11
21325.508813585158
 21
13842.587953999981
 31
0.0
  0
LINE
  5
11A78
  8
1-前柱カバ-P
 10
21326.008813585151
 20
13843.08795399999
 30
0.0
 11
21325.508813585158
 21
13842.587953999981
 31
0.0
  0
ARC
  5
11A79
  8
1-前柱カバ-P
 10
21323.158813585142
 20
13843.33795399999
 30
0.0
 40
0.75
 50
0.000000000000007
 51
180.0
  0
LINE
  5
11A7A
  8
1-前柱カバ-P
  6
HIDE-M
 62
     6
 10
21325.508813585158
 20
13831.58795399999
 30
0.0
 11
21323.908813585149
 21
13831.58795399999
 31
0.0
  0
LINE
  5
11A7B
  8
1-前柱カバ-P
 10
21326.008813585151
 20
13831.087953999981
 30
0.0
 11
21325.508813585158
 21
13831.58795399999
 31
0.0
  0
ARC
  5
11A7C
  8
1-前柱カバ-P
 10
21323.158813585142
 20
13830.83795399999
 30
0.0
 40
0.75
 50
180.0
 51
0.000000000000007
  0
LINE
  5
11A7D
  8
1-前柱カバ-P
 10
21314.408813585149
 20
13832.58795399999
 30
0.0
 11
21314.408813585149
 21
13841.587953999981
 31
0.0
  0
ARC
  5
11A7E
  8
1-前柱カバ-P
 10
21315.408813585142
 20
13841.587953999981
 30
0.0
 40
1.0
 50
90.0
 51
180.0
  0
ARC
  5
11A7F
  8
1-前柱カバ-P
 10
21315.408813585142
 20
13832.58795399999
 30
0.0
 40
1.0
 50
180.0
 51
270.0
  0
LINE
  5
11A80
  8
1-前柱カバ-P
  6
1PL-M
 62
     6
 10
21309.408813585142
 20
13837.08795399999
 30
0.0
 11
21331.008813585158
 21
13837.08795399999
 31
0.0
  0
LINE
  5
11A81
  8
1-前柱カバ-P
 10
21315.408813585142
 20
13852.58795399999
 30
0.0
 11
21322.408813585142
 21
13852.58795399999
 31
0.0
  0
LINE
  5
11A82
  8
1-前柱カバ-P
 10
21326.008813585151
 20
13845.08795399999
 30
0.0
 11
21326.008813585151
 21
13853.087953999981
 31
0.0
  0
LINE
  5
11A83
  8
1-前柱カバ-P
  6
HIDE-M
 62
     6
 10
21323.908813585149
 20
13852.58795399999
 30
0.0
 11
21325.508813585158
 21
13852.58795399999
 31
0.0
  0
LINE
  5
11A84
  8
1-前柱カバ-P
 10
21326.008813585151
 20
13853.087953999981
 30
0.0
 11
21325.508813585158
 21
13852.58795399999
 31
0.0
  0
ARC
  5
11A85
  8
1-前柱カバ-P
 10
21323.158813585142
 20
13853.33795399999
 30
0.0
 40
0.75
 50
0.000000000000007
 51
180.0
  0
LINE
  5
11A86
  8
1-前柱カバ-P
 10
21314.408813585149
 20
13843.587953999981
 30
0.0
 11
21314.408813585149
 21
13851.58795399999
 31
0.0
  0
ARC
  5
11A87
  8
1-前柱カバ-P
 10
21315.408813585142
 20
13851.58795399999
 30
0.0
 40
1.0
 50
90.0
 51
180.0
  0
LINE
  5
11A88
  8
1-前柱カバ-P
  6
1PL-M
 62
     6
 10
21309.408813585142
 20
13847.08795399999
 30
0.0
 11
21331.008813585158
 21
13847.08795399999
 31
0.0
  0
LINE
  5
11A89
  8
1-前柱カバ-P
 10
21322.408813585142
 20
13845.337953999981
 30
0.0
 11
21322.408813585142
 21
13853.33795399999
 31
0.0
  0
LINE
  5
11A8A
  8
1-前柱カバ-P
  6
HIDE-M
 62
     6
 10
21251.60881358515
 20
13833.087953999981
 30
0.0
 11
21240.008813585158
 21
13833.087953999981
 31
0.0
  0
LINE
  5
11A8B
  8
1-前柱カバ-P
  6
HIDE-M
 62
     6
 10
21251.60881358515
 20
13841.08795399999
 30
0.0
 11
21240.008813585158
 21
13841.08795399999
 31
0.0
  0
LINE
  5
11A8C
  8
1-前柱カバ-P
  6
HIDE-M
 62
     6
 10
21251.60881358515
 20
13834.087953999981
 30
0.0
 11
21240.008813585158
 21
13834.087953999981
 31
0.0
  0
LINE
  5
11A8D
  8
1-前柱カバ-P
  6
HIDE-M
 62
     6
 10
21251.60881358515
 20
13840.08795399999
 30
0.0
 11
21240.008813585158
 21
13840.08795399999
 31
0.0
  0
LINE
  5
11A8E
  8
1-前柱カバ-P
 10
21250.60881358515
 20
13842.587953999981
 30
0.0
 11
21243.608813585139
 21
13842.587953999981
 31
0.0
  0
LINE
  5
11A8F
  8
1-前柱カバ-P
 10
21243.608813585139
 20
13831.58795399999
 30
0.0
 11
21250.60881358515
 21
13831.58795399999
 31
0.0
  0
LINE
  5
11A90
  8
1-前柱カバ-P
 10
21243.608813585139
 20
13830.83795399999
 30
0.0
 11
21243.608813585139
 21
13843.33795399999
 31
0.0
  0
LINE
  5
11A91
  8
1-前柱カバ-P
 10
21240.008813585158
 20
13831.087953999981
 30
0.0
 11
21240.008813585158
 21
13843.08795399999
 31
0.0
  0
LINE
  5
11A92
  8
1-前柱カバ-P
  6
HIDE-M
 62
     6
 10
21242.10881358515
 20
13842.587953999981
 30
0.0
 11
21240.508813585151
 21
13842.587953999981
 31
0.0
  0
LINE
  5
11A93
  8
1-前柱カバ-P
 10
21240.008813585158
 20
13843.08795399999
 30
0.0
 11
21240.508813585151
 21
13842.587953999981
 31
0.0
  0
ARC
  5
11A94
  8
1-前柱カバ-P
 10
21242.85881358515
 20
13843.33795399999
 30
0.0
 40
0.75
 50
0.000000000000007
 51
180.0
  0
LINE
  5
11A95
  8
1-前柱カバ-P
  6
HIDE-M
 62
     6
 10
21240.508813585151
 20
13831.58795399999
 30
0.0
 11
21242.10881358515
 21
13831.58795399999
 31
0.0
  0
LINE
  5
11A96
  8
1-前柱カバ-P
 10
21240.008813585158
 20
13831.087953999981
 30
0.0
 11
21240.508813585151
 21
13831.58795399999
 31
0.0
  0
ARC
  5
11A97
  8
1-前柱カバ-P
 10
21242.85881358515
 20
13830.83795399999
 30
0.0
 40
0.75
 50
180.0
 51
0.000000000000007
  0
LINE
  5
11A98
  8
1-前柱カバ-P
 10
21251.60881358515
 20
13832.58795399999
 30
0.0
 11
21251.60881358515
 21
13841.587953999981
 31
0.0
  0
ARC
  5
11A99
  8
1-前柱カバ-P
 10
21250.60881358515
 20
13841.587953999981
 30
0.0
 40
1.0
 50
0.000000000000007
 51
90.0
  0
ARC
  5
11A9A
  8
1-前柱カバ-P
 10
21250.60881358515
 20
13832.58795399999
 30
0.0
 40
1.0
 50
270.0
 51
0.000000000000007
  0
LINE
  5
11A9B
  8
1-前柱カバ-P
  6
1PL-M
 62
     6
 10
21256.608813585131
 20
13837.08795399999
 30
0.0
 11
21235.008813585151
 21
13837.08795399999
 31
0.0
  0
LINE
  5
11A9C
  8
1-前柱カバ-P
 10
21250.60881358515
 20
13852.58795399999
 30
0.0
 11
21243.608813585139
 21
13852.58795399999
 31
0.0
  0
LINE
  5
11A9D
  8
1-前柱カバ-P
 10
21240.008813585158
 20
13845.08795399999
 30
0.0
 11
21240.008813585158
 21
13853.087953999981
 31
0.0
  0
LINE
  5
11A9E
  8
1-前柱カバ-P
  6
HIDE-M
 62
     6
 10
21242.10881358515
 20
13852.58795399999
 30
0.0
 11
21240.508813585151
 21
13852.58795399999
 31
0.0
  0
LINE
  5
11A9F
  8
1-前柱カバ-P
 10
21240.008813585158
 20
13853.087953999981
 30
0.0
 11
21240.508813585151
 21
13852.58795399999
 31
0.0
  0
ARC
  5
11AA0
  8
1-前柱カバ-P
 10
21242.85881358515
 20
13853.33795399999
 30
0.0
 40
0.75
 50
0.000000000000007
 51
180.0
  0
LINE
  5
11AA1
  8
1-前柱カバ-P
 10
21251.60881358515
 20
13843.587953999981
 30
0.0
 11
21251.60881358515
 21
13851.58795399999
 31
0.0
  0
ARC
  5
11AA2
  8
1-前柱カバ-P
 10
21250.60881358515
 20
13851.58795399999
 30
0.0
 40
1.0
 50
0.000000000000007
 51
90.0
  0
LINE
  5
11AA3
  8
1-前柱カバ-P
  6
1PL-M
 62
     6
 10
21256.608813585131
 20
13847.08795399999
 30
0.0
 11
21235.008813585151
 21
13847.08795399999
 31
0.0
  0
LINE
  5
11AA4
  8
1-前柱カバ-P
 10
21243.608813585139
 20
13845.337953999981
 30
0.0
 11
21243.608813585139
 21
13853.33795399999
 31
0.0
  0
LINE
  5
11AA5
  8
1-前柱カバ-P
  6
HIDE-M
 62
     6
 10
21314.408813585149
 20
13851.087953999981
 30
0.0
 11
21326.008813585151
 21
13851.087953999981
 31
0.0
  0
LINE
  5
11AA6
  8
1-前柱カバ-P
  6
HIDE-M
 62
     6
 10
21314.408813585149
 20
13850.08795399999
 30
0.0
 11
21326.008813585151
 21
13850.08795399999
 31
0.0
  0
LINE
  5
11AA7
  8
1-前柱カバ-P
  6
HIDE-M
 62
     6
 10
21251.60881358515
 20
13851.087953999981
 30
0.0
 11
21240.008813585158
 21
13851.087953999981
 31
0.0
  0
LINE
  5
11AA8
  8
1-前柱カバ-P
  6
HIDE-M
 62
     6
 10
21251.60881358515
 20
13850.08795399999
 30
0.0
 11
21240.008813585158
 21
13850.08795399999
 31
0.0
  0
LINE
  5
11ABC
  8
0-6
  6
CONTINUOUS
 62
     6
 10
22733.084518406558
 20
13171.988811999991
 30
0.0
 11
21733.08517740657
 21
13171.988811999991
 31
0.0
  0
TEXT
  5
11ABD
  8
0-6
  6
CONTINUOUS
 62
     7
 10
21837.08425440656
 20
13251.989075999971
 30
0.0
 40
160.0
  1
前柱（P）
 72
     4
 11
22237.08425440656
 21
13331.989075999971
 31
0.0
  0
LINE
  5
11ABE
  8
0-6
  6
CONTINUOUS
 62
     6
 10
21328.008813585151
 20
13757.98795399998
 30
0.0
 11
21733.08517740657
 21
13171.988811999991
 31
0.0
  0
LINE
  5
11ABF
  8
0-6
  6
CONTINUOUS
 62
     6
 10
22733.084518406558
 20
16059.5496119541
 30
0.0
 11
21733.08517740657
 21
16059.5496119541
 31
0.0
  0
TEXT
  5
11AC0
  8
0-6
  6
CONTINUOUS
 62
     7
 10
21837.08425440656
 20
16139.549875954101
 30
0.0
 40
160.0
  1
中柱（P）
 72
     4
 11
22237.08425440656
 21
16219.549875954101
 31
0.0
  0
LINE
  5
11AC1
  8
0-6
  6
CONTINUOUS
 62
     6
 10
21328.008813585151
 20
16645.54875395411
 30
0.0
 11
21733.08517740657
 21
16059.5496119541
 31
0.0
  0
LINE
  5
11AC2
  8
0-6
  6
CONTINUOUS
 62
     6
 10
23074.146408876069
 20
14383.97899135676
 30
0.0
 11
21618.146408876069
 21
14383.97899135676
 31
0.0
  0
TEXT
  5
11AC3
  8
0-6
  6
CONTINUOUS
 62
     7
 10
21658.141135623679
 20
14463.97925535674
 30
0.0
 40
160.0
  1
前柱カバー（P）
 72
     4
 11
22346.141135623679
 21
14543.97925535674
 31
0.0
  0
LINE
  5
11AC4
  8
0-6
  6
CONTINUOUS
 62
     6
 10
21318.908813585142
 20
13895.588253527891
 30
0.0
 11
21618.146408876069
 21
14383.97899135676
 31
0.0
  0
LINE
  5
11AC5
  8
0-6
  6
CONTINUOUS
 62
     6
 10
23074.146408876069
 20
17280.478255828861
 30
0.0
 11
21618.146408876069
 21
17280.478255828861
 31
0.0
  0
TEXT
  5
11AC6
  8
0-6
  6
CONTINUOUS
 62
     7
 10
21658.141135623679
 20
17360.478519828841
 30
0.0
 40
160.0
  1
中柱カバー（P）
 72
     4
 11
22346.141135623679
 21
17440.478519828841
 31
0.0
  0
LINE
  5
11AC7
  8
0-6
  6
CONTINUOUS
 62
     6
 10
21318.908813585142
 20
16792.08751799996
 30
0.0
 11
21618.146408876069
 21
17280.478255828861
 31
0.0
  0
LINE
  5
11AC8
  8
0-6
  6
CONTINUOUS
 62
     6
 10
22733.084518406558
 20
19936.925319045851
 30
0.0
 11
21733.08517740657
 21
19936.925319045851
 31
0.0
  0
TEXT
  5
11AC9
  8
0-6
  6
CONTINUOUS
 62
     7
 10
21837.08425440656
 20
20016.92558304585
 30
0.0
 40
160.0
  1
後柱（P）
 72
     4
 11
22237.08425440656
 21
20096.92558304585
 31
0.0
  0
LINE
  5
11ACA
  8
0-6
  6
CONTINUOUS
 62
     6
 10
21328.008813585151
 20
19350.926177045862
 30
0.0
 11
21733.08517740657
 21
19936.925319045851
 31
0.0
  0
LINE
  5
11ACB
  8
0-6
  6
CONTINUOUS
 62
     6
 10
23074.146408876091
 20
18730.826295542061
 30
0.0
 11
21618.146408876091
 21
18730.826295542061
 31
0.0
  0
TEXT
  5
11ACC
  8
0-6
  6
CONTINUOUS
 62
     7
 10
21658.141135623679
 20
18810.826559542042
 30
0.0
 40
160.0
  1
後柱カバー（P）
 72
     4
 11
22346.141135623679
 21
18890.826559542042
 31
0.0
  0
LINE
  5
11ACD
  8
0-6
  6
CONTINUOUS
 62
     6
 10
21318.908813585142
 20
19204.387412999989
 30
0.0
 11
21618.146408876091
 21
18730.826295542061
 31
0.0
  0
LINE
  5
11B24
  8
0-6
  6
CONTINUOUS
 62
     6
 10
11757.06383772606
 20
19237.710913999981
 30
0.0
 11
11613.162734726069
 21
19749.98656899995
 31
0.0
  0
LINE
  5
11B25
  8
0-6
  6
CONTINUOUS
 62
     6
 10
12179.23470767521
 20
19486.164896999991
 30
0.0
 11
12072.53964567521
 21
19363.98900999999
 31
0.0
  0
LINE
  5
11B26
  8
0-6
  6
CONTINUOUS
 62
     6
 10
12072.53964567521
 20
19363.98900999999
 30
0.0
 11
12133.845335675211
 21
19514.165186999981
 31
0.0
  0
LINE
  5
11B27
  8
0-6
  6
CONTINUOUS
 62
     6
 10
12072.53964567521
 20
19363.98900999999
 30
0.0
 11
12179.23470767521
 21
19486.164896999991
 31
0.0
  0
LINE
  5
11B28
  8
0-6
  6
CONTINUOUS
 62
     6
 10
12179.23470767521
 20
19486.164896999991
 30
0.0
 11
12133.845335675211
 21
19514.165186999981
 31
0.0
  0
LINE
  5
11B29
  8
0-6
  6
CONTINUOUS
 62
     6
 10
12133.845335675211
 20
19514.165186999981
 30
0.0
 11
12072.53964567521
 21
19363.98900999999
 31
0.0
  0
LINE
  5
11B2A
  8
0-6
  6
CONTINUOUS
 62
     6
 10
12133.845335675211
 20
19514.165186999981
 30
0.0
 11
12179.23470767521
 21
19486.164896999991
 31
0.0
  0
LINE
  5
11B2B
  8
0-6
  6
CONTINUOUS
 62
     6
 10
12072.53964567521
 20
19363.98900999999
 30
0.0
 11
12366.46747267522
 21
19770.48710999998
 31
0.0
  0
LINE
  5
11B2C
  8
0-6
  6
CONTINUOUS
 62
     6
 10
11782.95198172607
 20
19244.110697999949
 30
0.0
 11
11795.453631726061
 21
19082.38600899998
 31
0.0
  0
LINE
  5
11B2D
  8
0-6
  6
CONTINUOUS
 62
     6
 10
11795.453631726061
 20
19082.38600899998
 30
0.0
 11
11731.178662726061
 21
19231.315089999989
 31
0.0
  0
LINE
  5
11B2E
  8
0-6
  6
CONTINUOUS
 62
     6
 10
11795.453631726061
 20
19082.38600899998
 30
0.0
 11
11782.95198172607
 21
19244.110697999949
 31
0.0
  0
LINE
  5
11B2F
  8
0-6
  6
CONTINUOUS
 62
     6
 10
11782.95198172607
 20
19244.110697999949
 30
0.0
 11
11731.178662726061
 21
19231.315089999989
 31
0.0
  0
LINE
  5
11B30
  8
0-6
  6
CONTINUOUS
 62
     6
 10
11731.178662726061
 20
19231.315089999989
 30
0.0
 11
11795.453631726061
 21
19082.38600899998
 31
0.0
  0
LINE
  5
11B31
  8
0-6
  6
CONTINUOUS
 62
     6
 10
11731.178662726061
 20
19231.315089999989
 30
0.0
 11
11782.95198172607
 21
19244.110697999949
 31
0.0
  0
LINE
  5
11B32
  8
0-6
  6
CONTINUOUS
 62
     6
 10
11613.162734726069
 20
19749.98656899995
 30
0.0
 11
11095.474086726061
 21
19749.98656899995
 31
0.0
  0
LINE
  5
11B33
  8
0-6
  6
CONTINUOUS
 62
     6
 10
13180.64153986886
 20
17431.977035286229
 30
0.0
 11
13270.45724686888
 21
17567.049486286222
 31
0.0
  0
LINE
  5
11B34
  8
0-6
  6
CONTINUOUS
 62
     6
 10
13270.45724686888
 20
17567.049486286222
 30
0.0
 11
13229.30305586887
 21
17410.148884286231
 31
0.0
  0
LINE
  5
11B35
  8
0-6
  6
CONTINUOUS
 62
     6
 10
13270.45724686888
 20
17567.049486286222
 30
0.0
 11
13180.64153986886
 21
17431.977035286229
 31
0.0
  0
LINE
  5
11B36
  8
0-6
  6
CONTINUOUS
 62
     6
 10
13180.64153986886
 20
17431.977035286229
 30
0.0
 11
13229.30305586887
 21
17410.148884286231
 31
0.0
  0
LINE
  5
11B37
  8
0-6
  6
CONTINUOUS
 62
     6
 10
13229.30305586887
 20
17410.148884286231
 30
0.0
 11
13270.45724686888
 21
17567.049486286222
 31
0.0
  0
LINE
  5
11B38
  8
0-6
  6
CONTINUOUS
 62
     6
 10
13229.30305586887
 20
17410.148884286231
 30
0.0
 11
13180.64153986886
 21
17431.977035286229
 31
0.0
  0
LINE
  5
11B39
  8
0-6
  6
CONTINUOUS
 62
     6
 10
13166.469121675211
 20
19770.48710999998
 30
0.0
 11
12366.46747267522
 21
19770.48710999998
 31
0.0
  0
LINE
  5
11B3A
  8
0-6
  6
CONTINUOUS
 62
     6
 10
16519.252151621571
 20
17087.77055234438
 30
0.0
 11
14524.80799962156
 21
17087.77055234438
 31
0.0
  0
LINE
  5
11B3B
  8
0-6
  6
CONTINUOUS
 62
     6
 10
11066.46976445711
 20
15616.035130419599
 30
0.0
 11
11453.2222212995
 21
15444.46252839234
 31
0.0
  0
LINE
  5
11B3C
  8
0-6
  6
CONTINUOUS
 62
     6
 10
12333.22314529952
 20
15444.46252839234
 30
0.0
 11
11453.2222212995
 21
15444.46252839234
 31
0.0
  0
LINE
  5
11B3D
  8
0-6
  6
CONTINUOUS
 62
     6
 10
13105.93153986889
 20
17200.270426286232
 30
0.0
 11
12585.93081386887
 21
17200.270426286232
 31
0.0
  0
LINE
  5
11B3E
  8
0-6
  6
CONTINUOUS
 62
     6
 10
12681.30400816982
 20
13702.45050039679
 30
0.0
 11
12471.69560223903
 21
13191.32657200504
 31
0.0
  0
LINE
  5
11B3F
  8
0-6
  6
CONTINUOUS
 62
     6
 10
12471.69560223903
 20
13191.32657200504
 30
0.0
 11
11671.69494223903
 21
13191.32657200504
 31
0.0
  0
LINE
  5
11B40
  8
0-6
  6
CONTINUOUS
 62
     6
 10
11525.37351340595
 20
13517.43993099999
 30
0.0
 11
11631.643968405961
 21
13639.98697799999
 31
0.0
  0
LINE
  5
11B41
  8
0-6
  6
CONTINUOUS
 62
     6
 10
11631.643968405961
 20
13639.98697799999
 30
0.0
 11
11570.861860405959
 21
13489.598002000001
 31
0.0
  0
LINE
  5
11B42
  8
0-6
  6
CONTINUOUS
 62
     6
 10
11631.643968405961
 20
13639.98697799999
 30
0.0
 11
11525.37351340595
 21
13517.43993099999
 31
0.0
  0
LINE
  5
11B43
  8
0-6
  6
CONTINUOUS
 62
     6
 10
11525.37351340595
 20
13517.43993099999
 30
0.0
 11
11570.861860405959
 21
13489.598002000001
 31
0.0
  0
LINE
  5
11B44
  8
0-6
  6
CONTINUOUS
 62
     6
 10
11570.861860405959
 20
13489.598002000001
 30
0.0
 11
11631.643968405961
 21
13639.98697799999
 31
0.0
  0
LINE
  5
11B45
  8
0-6
  6
CONTINUOUS
 62
     6
 10
11570.861860405959
 20
13489.598002000001
 30
0.0
 11
11525.37351340595
 21
13517.43993099999
 31
0.0
  0
LINE
  5
11B46
  8
0-6
  6
CONTINUOUS
 62
     6
 10
12656.632520892241
 20
13712.56797652044
 30
0.0
 11
12742.014025275899
 21
13850.485512999971
 31
0.0
  0
LINE
  5
11B47
  8
0-6
  6
CONTINUOUS
 62
     6
 10
12742.014025275899
 20
13850.485512999971
 30
0.0
 11
12705.97689496852
 21
13692.332964929819
 31
0.0
  0
LINE
  5
11B48
  8
0-6
  6
CONTINUOUS
 62
     6
 10
12742.014025275899
 20
13850.485512999971
 30
0.0
 11
12656.632520892241
 21
13712.56797652044
 31
0.0
  0
LINE
  5
11B49
  8
0-6
  6
CONTINUOUS
 62
     6
 10
12656.632520892241
 20
13712.56797652044
 30
0.0
 11
12705.97689496852
 21
13692.332964929819
 31
0.0
  0
LINE
  5
11B4A
  8
0-6
  6
CONTINUOUS
 62
     6
 10
12705.97689496852
 20
13692.332964929819
 30
0.0
 11
12742.014025275899
 21
13850.485512999971
 31
0.0
  0
LINE
  5
11B4B
  8
0-6
  6
CONTINUOUS
 62
     6
 10
12705.97689496852
 20
13692.332964929819
 30
0.0
 11
12656.632520892241
 21
13712.56797652044
 31
0.0
  0
LINE
  5
11B4C
  8
0-6
  6
CONTINUOUS
 62
     6
 10
11292.308351771861
 20
13085.562282934219
 30
0.0
 11
10429.72818077185
 21
13085.562282934219
 31
0.0
  0
LINE
  5
11B4D
  8
0-6
  6
CONTINUOUS
 62
     6
 10
11548.117191405971
 20
13503.518966999991
 30
0.0
 11
11292.308351771861
 21
13085.562282934219
 31
0.0
  0
LINE
  5
11B4E
  8
0-6
  6
CONTINUOUS
 62
     6
 10
13385.90938186888
 20
13830.27610599997
 30
0.0
 11
13363.45867186889
 21
13990.92195699995
 31
0.0
  0
LINE
  5
11B4F
  8
0-6
  6
CONTINUOUS
 62
     6
 10
13363.45867186889
 20
13990.92195699995
 30
0.0
 11
13436.795875868889
 21
13846.24092299997
 31
0.0
  0
LINE
  5
11B50
  8
0-6
  6
CONTINUOUS
 62
     6
 10
13363.45867186889
 20
13990.92195699995
 30
0.0
 11
13385.90938186888
 21
13830.27610599997
 31
0.0
  0
LINE
  5
11B51
  8
0-6
  6
CONTINUOUS
 62
     6
 10
13385.90938186888
 20
13830.27610599997
 30
0.0
 11
13436.795875868889
 21
13846.24092299997
 31
0.0
  0
LINE
  5
11B52
  8
0-6
  6
CONTINUOUS
 62
     6
 10
13436.795875868889
 20
13846.24092299997
 30
0.0
 11
13363.45867186889
 21
13990.92195699995
 31
0.0
  0
LINE
  5
11B53
  8
0-6
  6
CONTINUOUS
 62
     6
 10
13436.795875868889
 20
13846.24092299997
 30
0.0
 11
13385.90938186888
 21
13830.27610599997
 31
0.0
  0
LINE
  5
11B54
  8
0-6
  6
CONTINUOUS
 62
     6
 10
15078.092922868889
 20
12318.485604999951
 30
0.0
 11
13998.09331886889
 21
12318.485604999951
 31
0.0
  0
LINE
  5
11B55
  8
0-6
  6
CONTINUOUS
 62
     6
 10
13411.353123868899
 20
13838.257524999961
 30
0.0
 11
13998.09331886889
 21
12318.485604999951
 31
0.0
  0
LINE
  5
11B56
  8
0-6
  6
CONTINUOUS
 62
     6
 10
13204.971802868869
 20
17421.06394928621
 30
0.0
 11
13105.93153986889
 21
17200.270426286232
 31
0.0
  0
LINE
  5
11B57
  8
0-6
  6
CONTINUOUS
 62
     6
 10
16556.77584359387
 20
18072.71599913896
 30
0.0
 11
14562.33169159385
 21
18072.71599913896
 31
0.0
  0
LINE
  5
11B58
  8
0-6
  6
CONTINUOUS
 62
     6
 10
7479.4236411484608
 20
19519.986304999991
 30
0.0
 11
7387.736299148447
 21
19653.793842999981
 31
0.0
  0
LINE
  5
11B59
  8
0-6
  6
CONTINUOUS
 62
     6
 10
7349.2950381484598
 20
19616.826332999979
 30
0.0
 11
7479.4236411484608
 21
19519.986304999991
 31
0.0
  0
LINE
  5
11B5A
  8
0-6
  6
CONTINUOUS
 62
     6
 10
7349.2950381484598
 20
19616.826332999979
 30
0.0
 11
7387.736299148447
 21
19653.793842999981
 31
0.0
  0
LINE
  5
11B5B
  8
0-6
  6
CONTINUOUS
 62
     6
 10
7368.5151731484511
 20
19635.309097999991
 30
0.0
 11
6851.5262851484586
 21
20139.987360999981
 31
0.0
  0
LINE
  5
11B5C
  8
0-6
  6
CONTINUOUS
 62
     6
 10
6851.5262851484586
 20
20139.987360999981
 30
0.0
 11
5176.5269451484492
 21
20139.987360999981
 31
0.0
  0
CIRCLE
  5
11B5D
  8
0-5
  6
CONTINUOUS
 62
     4
 10
10362.95899586889
 20
20760.487901999972
 30
0.0
 40
199.9999949999999
  0
CIRCLE
  5
11B5E
  8
0-5
  6
CONTINUOUS
 62
     4
 10
13280.95867186889
 20
20760.487901999972
 30
0.0
 40
199.9999949999999
  0
CIRCLE
  5
11B5F
  8
0-5
  6
CONTINUOUS
 62
     4
 10
14810.45844786887
 20
19317.986977999961
 30
0.0
 40
199.9999949999999
  0
CIRCLE
  5
11B60
  8
0-5
  6
CONTINUOUS
 62
     4
 10
14810.45844786887
 20
16750.486977999972
 30
0.0
 40
199.9999949999999
  0
CIRCLE
  5
11B61
  8
0-5
  6
CONTINUOUS
 62
     4
 10
14810.45844786887
 20
13832.48697799999
 30
0.0
 40
199.9999949999999
  0
TEXT
  5
11B62
  8
0-5
  6
CONTINUOUS
 62
     7
 10
10310.009535202191
 20
20671.27297899999
 30
0.0
 40
160.0
  1
2
 72
     4
 11
10363.34286853553
 21
20751.27297899999
 31
0.0
  0
TEXT
  5
11B63
  8
0-5
  6
CONTINUOUS
 62
     7
 10
13227.625338535559
 20
20671.27297899999
 30
0.0
 40
160.0
  1
3
 72
     4
 11
13280.95867186889
 21
20751.27297899999
 31
0.0
  0
TEXT
  5
11B64
  8
0-5
  6
CONTINUOUS
 62
     7
 10
14757.2516492022
 20
19238.39845399998
 30
0.0
 40
160.0
  1
C
 72
     4
 11
14810.584982535531
 21
19318.39845399998
 31
0.0
  0
TEXT
  5
11B65
  8
0-5
  6
CONTINUOUS
 62
     7
 10
14757.2516492022
 20
16670.899443999981
 30
0.0
 40
160.0
  1
B
 72
     4
 11
14810.584982535531
 21
16750.899443999981
 31
0.0
  0
TEXT
  5
11B66
  8
0-5
  6
CONTINUOUS
 62
     7
 10
14757.2516492022
 20
13752.89845399998
 30
0.0
 40
160.0
  1
A
 72
     4
 11
14810.584982535531
 21
13832.89845399998
 31
0.0
  0
TEXT
  5
11B67
  8
0-6
  6
CONTINUOUS
 62
     7
 10
11191.82913739273
 20
19829.986832999981
 30
0.0
 40
160.0
  1
屋根
 72
     4
 11
11362.495804059399
 21
19909.986832999981
 31
0.0
  0
TEXT
  5
11B68
  8
0-6
  6
CONTINUOUS
 62
     7
 10
12446.46786767521
 20
19850.48737399996
 30
0.0
 40
160.0
  1
桁（後）
 72
     4
 11
12766.46786767521
 21
19930.48737399996
 31
0.0
  0
TEXT
  5
11B69
  8
0-6
  6
CONTINUOUS
 62
     7
 10
11527.88855796616
 20
15534.96322839232
 30
0.0
 40
160.0
  1
ブレース
 72
     4
 11
11890.55522463283
 21
15620.29656172566
 31
0.0
  0
TEXT
  5
11B6A
  8
0-6
  6
CONTINUOUS
 62
     7
 10
11751.69632823903
 20
13271.32683600505
 30
0.0
 40
160.0
  1
桁（前）
 72
     4
 11
12071.69632823903
 21
13351.32683600505
 31
0.0
  0
TEXT
  5
11B6B
  8
0-6
  6
CONTINUOUS
 62
     7
 10
10486.97574443851
 20
13165.561556934221
 30
0.0
 40
160.0
  1
鼻隠し前
 72
     4
 11
10849.64241110518
 21
13245.561556934221
 31
0.0
  0
TEXT
  5
11B6C
  8
0-6
  6
CONTINUOUS
 62
     7
 10
14166.092658868891
 20
12398.484878999971
 30
0.0
 40
160.0
  1
ケラバ 左
 72
     4
 11
14582.092658868891
 21
12478.484878999971
 31
0.0
  0
TEXT
  5
11B6D
  8
0-6
  6
CONTINUOUS
 62
     7
 10
12684.597942535531
 20
17280.270690286219
 30
0.0
 40
160.0
  1
上枠
 72
     4
 11
12855.264609202201
 21
17360.270690286219
 31
0.0
  0
TEXT
  5
11B6E
  8
0-6
  6
CONTINUOUS
 62
     7
 10
5278.192687815118
 20
20219.985644999972
 30
0.0
 40
160.0
  1
鼻隠しコーナー後
 72
     4
 11
6024.859354481785
 21
20299.985644999972
 31
0.0
  0
TEXT
  5
11B6F
  8
0-6
  6
CONTINUOUS
 62
     7
 10
14626.076809232911
 20
18168.767487028312
 30
0.0
 40
160.0
  1
桁中B +  桁中補強B
 72
     4
 11
15559.410142566239
 21
18248.767487028312
 31
0.0
  0
TEXT
  5
11B70
  8
0-6
  6
CONTINUOUS
 62
     7
 10
14588.553117260601
 20
17183.824019233751
 30
0.0
 40
160.0
  1
桁中A +  桁中補強A
 72
     4
 11
15521.88645059394
 21
17263.824019233751
 31
0.0
  0
LINE
  5
11B71
  8
0-6
  6
CONTINUOUS
 62
     6
 10
10157.59910299904
 20
19787.011124411769
 30
0.0
 11
8892.9295173613336
 21
19787.011124411769
 31
0.0
  0
TEXT
  5
11B72
  8
0-6
  6
CONTINUOUS
 62
     7
 10
8968.2660006657316
 20
19867.01138841176
 30
0.0
 40
160.0
  1
桁（後）補強
  0
LINE
  5
11B73
  8
0-6
  6
CONTINUOUS
 62
     6
 10
11130.42986586464
 20
19135.19243174696
 30
0.0
 11
10996.80033635912
 21
18832.684921748001
 31
0.0
  0
LINE
  5
11B74
  8
0-6
  6
CONTINUOUS
 62
     6
 10
11195.08088877294
 20
19281.547956841161
 30
0.0
 11
11154.82298879942
 21
19124.416740316919
 31
0.0
  0
LINE
  5
11B75
  8
0-6
  6
CONTINUOUS
 62
     6
 10
11154.82298879942
 20
19124.416740316919
 30
0.0
 11
11106.036742929849
 21
19145.968123176961
 31
0.0
  0
LINE
  5
11B76
  8
0-6
  6
CONTINUOUS
 62
     6
 10
11106.036742929849
 20
19145.968123176961
 30
0.0
 11
11195.08088877294
 21
19281.547956841161
 31
0.0
  0
LINE
  5
11B77
  8
0-6
  6
CONTINUOUS
 62
     6
 10
10996.80033635912
 20
18832.684921748001
 30
0.0
 11
10157.59910299904
 21
19787.011124411769
 31
0.0
  0
CIRCLE
  5
11B78
  8
0-5
  6
CONTINUOUS
 62
     4
 10
7562.958995868893
 20
20760.489215999991
 30
0.0
 40
199.9999949999999
  0
TEXT
  5
11B79
  8
0-5
  6
CONTINUOUS
 62
     7
 10
7536.6762018688751
 20
20671.274292999999
 30
0.0
 40
160.0
  1
1
 72
     4
 11
7563.342868535542
 21
20751.274292999999
 31
0.0
  0
LINE
  5
11B7A
  8
0-6
  6
CONTINUOUS
 62
     6
 10
7615.9586268688736
 20
14190.6368642711
 30
0.0
 11
8290.5490808689374
 21
13073.090181343779
 31
0.0
  0
LINE
  5
11B7B
  8
0-6
  6
CONTINUOUS
 62
     6
 10
14562.33169159385
 20
18072.71599913896
 30
0.0
 11
12901.0264507134
 21
17646.786109777659
 31
0.0
  0
LINE
  5
11B7C
  8
0-6
  6
CONTINUOUS
 62
     6
 10
12901.0264507134
 20
17646.786109777659
 30
0.0
 11
12524.083987217849
 21
18148.986093999989
 31
0.0
  0
LINE
  5
11B7D
  8
0-6
  6
CONTINUOUS
 62
     6
 10
16556.77584359387
 20
15116.31762647385
 30
0.0
 11
14562.33169159385
 21
15116.31762647385
 31
0.0
  0
TEXT
  5
11B7E
  8
0-6
  6
CONTINUOUS
 62
     7
 10
14626.076809232911
 20
15212.3691143632
 30
0.0
 40
160.0
  1
桁中B +  桁中補強B
 72
     4
 11
15559.410142566239
 21
15292.3691143632
 31
0.0
  0
LINE
  5
11B7F
  8
0-6
  6
CONTINUOUS
 62
     6
 10
14562.33169159385
 20
15116.31762647385
 30
0.0
 11
12946.72443581504
 21
14629.504367315951
 31
0.0
  0
LINE
  5
11B80
  8
0-6
  6
CONTINUOUS
 62
     6
 10
12946.72443581504
 20
14629.504367315951
 30
0.0
 11
12524.083987217849
 21
15192.587721334879
 31
0.0
  0
LINE
  5
11B81
  8
0-6
  6
CONTINUOUS
 62
     6
 10
14524.80799962156
 20
17087.77055234438
 30
0.0
 11
12611.172215750819
 21
16261.176586604601
 31
0.0
  0
LINE
  5
11B82
  8
0-6
  6
CONTINUOUS
 62
     6
 10
12611.172215750819
 20
16261.176586604601
 30
0.0
 11
12353.547844959799
 21
16679.485659000009
 31
0.0
  0
LINE
  5
11B83
  8
SUNPOU
  6
CONTINUOUS
 10
14210.45877186888
 20
19540.484866499999
 30
0.0
 11
14210.45877186888
 21
20337.452134278461
 31
0.0
  0
LINE
  5
11B84
  8
SUNPOU
  6
CONTINUOUS
 10
14210.458771868891
 20
12867.17380684779
 30
0.0
 11
14210.458771868891
 21
13608.48639699997
 31
0.0
  0
LINE
  5
11B85
  8
0-6
  6
CONTINUOUS
 62
     6
 10
8430.5297417568327
 20
14135.05313326014
 30
0.0
 11
8573.738791876438
 21
13949.062913486519
 31
0.0
  0
LINE
  5
11B86
  8
0-6
  6
CONTINUOUS
 62
     6
 10
9453.7397158764506
 20
13949.062913486519
 30
0.0
 11
8573.738791876438
 21
13949.062913486519
 31
0.0
  0
TEXT
  5
11B87
  8
0-6
  6
CONTINUOUS
 62
     7
 10
8648.4051285431051
 20
14039.563613486511
 30
0.0
 40
160.0
  1
ブレース
 72
     4
 11
9011.0717952097712
 21
14124.89694681985
 31
0.0
  0
LINE
  5
11B88
  8
0-1
  6
CONTINUOUS
 62
     3
 10
12437.54882569355
 20
8152.234418
 30
0.0
 11
12437.54882569355
 21
6291.1885390000016
 31
0.0
  0
LINE
  5
11B89
  8
0-1
  6
CONTINUOUS
 62
     3
 10
12474.54701769356
 20
8152.234418
 30
0.0
 11
12474.54701769356
 21
6291.1885390000016
 31
0.0
  0
LINE
  5
11B8A
  8
0-1
  6
CONTINUOUS
 62
     3
 10
12299.048839693571
 20
6291.1885390000016
 30
0.0
 11
12299.048839693571
 21
8152.234418
 31
0.0
  0
LINE
  5
11B8B
  8
0-1
  6
CONTINUOUS
 62
     3
 10
12314.04765169356
 20
6291.1885390000016
 30
0.0
 11
12314.04765169356
 21
8152.234418
 31
0.0
  0
LINE
  5
11B8C
  8
0-1
  6
CONTINUOUS
 62
     3
 10
12598.048192693561
 20
6291.1885390000016
 30
0.0
 11
12598.048192693561
 21
8152.234418
 31
0.0
  0
LINE
  5
11B8D
  8
0-1
  6
CONTINUOUS
 62
     3
 10
12613.048984693571
 20
6291.1885390000016
 30
0.0
 11
12613.048984693571
 21
8152.234418
 31
0.0
  0
LINE
  5
11B8F
  8
0-1
  6
CONTINUOUS
 62
     3
 10
13280.95899586889
 20
16705.486582999991
 30
0.0
 11
10362.95899586889
 21
16705.486582999991
 31
0.0
  0
LINE
  5
11B90
  8
0-1
  6
CONTINUOUS
 62
     3
 10
10362.95899586889
 20
16705.486582999991
 30
0.0
 11
7786.4334086073641
 21
16705.486582999991
 31
0.0
  0
LINE
  5
11B91
  8
2-0
  6
DASHED3
 62
     6
 10
7786.4334086073641
 20
16705.486582999991
 30
0.0
 11
7562.958995868893
 21
16705.486582999991
 31
0.0
  0
LINE
  5
11B92
  8
0-1
  6
CONTINUOUS
 62
     3
 10
10415.958626868871
 20
13795.98762499998
 30
0.0
 11
10415.958626868871
 21
17791.444550900931
 31
0.0
  0
LINE
  5
11B93
  8
0-1
  6
CONTINUOUS
 62
     3
 10
13230.95837586888
 20
13671.98761099998
 30
0.0
 11
13230.95837586888
 21
18871.364086818641
 31
0.0
  0
LINE
  5
11B94
  8
0-1
  6
CONTINUOUS
 62
     3
 10
13230.95837586888
 20
18871.364086818641
 30
0.0
 11
13230.95837586888
 21
19510.489220999982
 31
0.0
  0
LINE
  5
11B95
  8
0-1
  6
CONTINUOUS
 62
     3
 10
13366.45899586889
 20
13639.98697799999
 30
0.0
 11
13366.45899586889
 21
18927.272426365202
 31
0.0
  0
LINE
  5
11B96
  8
0-1
  6
CONTINUOUS
 62
     3
 10
13366.45899586889
 20
18927.272426365202
 30
0.0
 11
13366.45899586889
 21
19530.488297999989
 31
0.0
  0
LINE
  5
11B97
  8
0-1
  6
CONTINUOUS
 62
     3
 10
13323.45826986887
 20
13795.98762499998
 30
0.0
 11
7520.4577418688832
 21
13795.98762499998
 31
0.0
  0
LINE
  5
11B98
  8
0-1
  6
CONTINUOUS
 62
     3
 10
13280.95899586889
 20
13874.987241999979
 30
0.0
 11
7562.958995868893
 21
13874.987241999979
 31
0.0
  0
LINE
  5
11B99
  8
0-1
  6
CONTINUOUS
 62
     3
 10
13366.45899586889
 20
13639.98697799999
 30
0.0
 11
7477.458995868893
 21
13639.98697799999
 31
0.0
  0
LINE
  5
11B9A
  8
0-1
  6
CONTINUOUS
 62
     3
 10
13366.45899586889
 20
13671.98761099998
 30
0.0
 11
7477.458995868893
 21
13671.98761099998
 31
0.0
  0
LINE
  5
11B9B
  8
0-1
  6
CONTINUOUS
 62
     3
 10
10362.95899586889
 20
13795.98762499998
 30
0.0
 11
10362.95899586889
 21
17769.8393054761
 31
0.0
  0
LINE
  5
11B9C
  8
0-1
  6
CONTINUOUS
 62
     3
 10
10320.45774186887
 20
13795.98762499998
 30
0.0
 11
10320.45774186887
 21
17752.513712708602
 31
0.0
  0
LINE
  5
11B9D
  8
0-1
  6
CONTINUOUS
 62
     3
 10
13280.95899586889
 20
13795.98762499998
 30
0.0
 11
13280.95899586889
 21
18959.35902401376
 31
0.0
  0
LINE
  5
11B9E
  8
0-1
  6
CONTINUOUS
 62
     3
 10
13323.45826986887
 20
13795.98762499998
 30
0.0
 11
13323.45826986887
 21
18976.894547152879
 31
0.0
  0
LINE
  5
11B9F
  8
0-1
  6
CONTINUOUS
 62
     3
 10
11910.45754486887
 20
18400.67550782151
 30
0.0
 11
11910.45754486887
 21
19510.489220999982
 31
0.0
  0
LINE
  5
11BA0
  8
0-1
  6
CONTINUOUS
 62
     3
 10
11873.457372868879
 20
18385.592425510589
 30
0.0
 11
11873.457372868879
 21
19510.489220999982
 31
0.0
  0
LINE
  5
11BA1
  8
0-1
  6
CONTINUOUS
 62
     3
 10
11710.45787386888
 20
18319.145846287742
 30
0.0
 11
11710.45787386888
 21
19510.489220999982
 31
0.0
  0
LINE
  5
11BA2
  8
0-1
  6
CONTINUOUS
 62
     3
 10
11673.45671286889
 20
18304.06236081196
 30
0.0
 11
11673.45671286889
 21
19510.489220999982
 31
0.0
  0
LINE
  5
11BA3
  8
0-1
  6
CONTINUOUS
 62
     3
 10
11510.45820386887
 20
18237.61618516162
 30
0.0
 11
11510.45820386887
 21
19510.489220999982
 31
0.0
  0
LINE
  5
11BA4
  8
0-1
  6
CONTINUOUS
 62
     3
 10
11473.45902286887
 20
18222.53350683083
 30
0.0
 11
11473.45902286887
 21
19510.489220999982
 31
0.0
  0
LINE
  5
11BA5
  8
0-1
  6
CONTINUOUS
 62
     3
 10
11310.45754486887
 20
18156.086120870641
 30
0.0
 11
11310.45754486887
 21
19510.489220999982
 31
0.0
  0
LINE
  5
11BA6
  8
0-1
  6
CONTINUOUS
 62
     3
 10
11273.457372868879
 20
18141.00303855972
 30
0.0
 11
11273.457372868879
 21
19510.489220999982
 31
0.0
  0
LINE
  5
11BA7
  8
0-1
  6
CONTINUOUS
 62
     3
 10
11110.457873868871
 20
18074.55645933688
 30
0.0
 11
11110.457873868871
 21
19510.489220999982
 31
0.0
  0
LINE
  5
11BA8
  8
0-1
  6
CONTINUOUS
 62
     3
 10
11073.45671286889
 20
18059.472973861109
 30
0.0
 11
11073.45671286889
 21
19510.489220999982
 31
0.0
  0
LINE
  5
11BA9
  8
0-1
  6
CONTINUOUS
 62
     3
 10
10910.45820386888
 20
17993.026798210762
 30
0.0
 11
10910.45820386888
 21
19510.489220999982
 31
0.0
  0
LINE
  5
11BAA
  8
0-1
  6
CONTINUOUS
 62
     3
 10
10873.45803286889
 20
17977.943716307491
 30
0.0
 11
10873.45803286889
 21
19510.489220999982
 31
0.0
  0
LINE
  5
11BAB
  8
0-1
  6
CONTINUOUS
 62
     3
 10
10710.457544868879
 20
17911.496733919801
 30
0.0
 11
10710.457544868879
 21
19510.489220999982
 31
0.0
  0
LINE
  5
11BAC
  8
0-1
  6
CONTINUOUS
 62
     3
 10
10673.45737286887
 20
17896.413651608869
 30
0.0
 11
10673.45737286887
 21
19510.489220999982
 31
0.0
  0
LINE
  5
11BAD
  8
0-1
  6
CONTINUOUS
 62
     3
 10
13280.95899586889
 20
15336.48836400001
 30
0.0
 11
10362.95899586889
 21
15336.48836400001
 31
0.0
  0
LINE
  5
11BAE
  8
0-1
  6
CONTINUOUS
 62
     3
 10
13280.95899586889
 20
15246.48658200001
 30
0.0
 11
10362.95899586889
 21
15246.48658200001
 31
0.0
  0
LINE
  5
11BAF
  8
0-1
  6
CONTINUOUS
 62
     3
 10
13280.95899586889
 20
16795.48935399999
 30
0.0
 11
10362.95899586889
 21
16795.48935399999
 31
0.0
  0
LINE
  5
11BB0
  8
0-1
  6
CONTINUOUS
 62
     3
 10
10362.95899586889
 20
16795.489354000001
 30
0.0
 11
8005.2964091021413
 21
16795.48935399999
 31
0.0
  0
LINE
  5
11BB1
  8
2-0
  6
DASHED3
 62
     6
 10
8005.2964091021413
 20
16795.48935399999
 30
0.0
 11
7562.958995868893
 21
16795.48935399999
 31
0.0
  0
LINE
  5
11BB2
  8
0-1
  6
CONTINUOUS
 62
     3
 10
13266.81731486888
 20
18254.48935299999
 30
0.0
 11
11553.41326857445
 21
18254.489353000001
 31
0.0
  0
LINE
  5
11BB3
  8
0-1
  6
CONTINUOUS
 62
     3
 10
13266.81731486888
 20
18164.48658199999
 30
0.0
 11
11331.06463964284
 21
18164.48658199999
 31
0.0
  0
LINE
  5
11BB4
  8
0-1
  6
CONTINUOUS
 62
     3
 10
13210.95826986887
 20
16750.486977999979
 30
0.0
 11
10432.95774186888
 21
15291.48697799999
 31
0.0
  0
LINE
  5
11BB5
  8
0-1
  6
CONTINUOUS
 62
     3
 10
10432.95774186888
 20
15291.48697799999
 30
0.0
 11
13210.95826986887
 21
13832.48697799999
 31
0.0
  0
LINE
  5
11BB6
  8
0-1
  6
CONTINUOUS
 62
     3
 10
13210.95826986887
 20
15291.48697799999
 30
0.0
 11
10432.95774186888
 21
13832.48697799999
 31
0.0
  0
LINE
  5
11BB7
  8
0-1
  6
CONTINUOUS
 62
     3
 10
13210.95826986887
 20
18209.486978000001
 30
0.0
 11
10432.95809622506
 21
16750.488879658838
 31
0.0
  0
LINE
  5
11BB8
  8
0-1
  6
CONTINUOUS
 62
     3
 10
10432.95809622506
 20
16750.488879658838
 30
0.0
 11
13210.95826986887
 21
15291.48697799999
 31
0.0
  0
LINE
  5
11BB9
  8
0-1
  6
CONTINUOUS
 62
     3
 10
12191.175574842129
 20
18515.10992591684
 30
0.0
 11
13210.95826986885
 21
18209.486978000001
 31
0.0
  0
LINE
  5
11BBA
  8
0-1
  6
CONTINUOUS
 62
     3
 10
10898.37552264744
 20
17988.101305556302
 30
0.0
 11
13210.95826986887
 21
16750.486977999979
 31
0.0
  0
LINE
  5
11BBB
  8
0-1
  6
CONTINUOUS
 62
     3
 10
13348.460222868889
 20
18985.86362081287
 30
0.0
 11
13348.460222868889
 21
19522.98790199995
 31
0.0
  0
LINE
  5
11BBC
  8
0-1
  6
CONTINUOUS
 62
     3
 10
13292.959470868889
 20
19505.48895699998
 30
0.0
 11
13292.959470868889
 21
19535.488560999969
 31
0.0
  0
LINE
  5
11BBD
  8
0-1
  6
CONTINUOUS
 62
     3
 10
13366.45899586889
 20
19535.488560999969
 30
0.0
 11
13366.45899586889
 21
19500.48671399997
 31
0.0
  0
LINE
  5
11BBE
  8
0-1
  6
CONTINUOUS
 62
     3
 10
13297.959734868889
 20
19540.486845999982
 30
0.0
 11
13361.45972186889
 21
19540.486845999982
 31
0.0
  0
LINE
  5
11BBF
  8
0-1
  6
CONTINUOUS
 62
     3
 10
13348.460222868889
 20
19522.98790199995
 30
0.0
 11
13366.45899586889
 21
19522.98790199995
 31
0.0
  0
LINE
  5
11BC0
  8
0-1
  6
CONTINUOUS
 62
     3
 10
13348.460222868889
 20
19500.48671399997
 30
0.0
 11
13297.959734868889
 21
19500.48671399997
 31
0.0
  0
LINE
  5
11BC1
  8
0-1
  6
CONTINUOUS
 62
     3
 10
13289.95887686887
 20
19510.489220999982
 30
0.0
 11
7553.959509868876
 21
19510.489220999982
 31
0.0
  0
LINE
  5
11BC2
  8
2-0
  6
DASHED3
 62
     6
 10
13280.95899586889
 20
19278.98848199999
 30
0.0
 11
7562.958995868893
 21
19278.98848199999
 31
0.0
  0
LINE
  5
11BC3
  8
2-0
  6
DASHED3
 62
     6
 10
13323.45826986887
 20
18976.894547152879
 30
0.0
 11
13323.45826986887
 21
19363.98900999999
 31
0.0
  0
LINE
  5
11BC4
  8
2-0
  6
DASHED3
 62
     6
 10
13280.95899586889
 20
18959.35902401376
 30
0.0
 11
13280.95899586889
 21
19363.98900999999
 31
0.0
  0
LINE
  5
11BC5
  8
2-0
  6
DASHED3
 62
     6
 10
13323.45826986887
 20
19363.98900999999
 30
0.0
 11
7562.958995868893
 21
19363.989009999961
 31
0.0
  0
LINE
  5
11BC6
  8
2-0
  6
DASHED3
 62
     6
 10
10362.95899586889
 20
17769.8393054761
 30
0.0
 11
10362.95899586889
 21
19363.98900999999
 31
0.0
  0
LINE
  5
11BC7
  8
2-0
  6
DASHED3
 62
     6
 10
10320.45774186887
 20
17752.513712708602
 30
0.0
 11
10320.45774186887
 21
19363.98900999999
 31
0.0
  0
LINE
  5
11BC8
  8
2-0
  6
DASHED3
 62
     6
 10
11331.06463964284
 20
18164.48658199999
 30
0.0
 11
10362.95899586889
 21
18164.48658199999
 31
0.0
  0
LINE
  5
11BC9
  8
2-0
  6
DASHED3
 62
     6
 10
11553.41326857445
 20
18254.489353000001
 30
0.0
 11
10362.95899586889
 21
18254.48935299999
 31
0.0
  0
LINE
  5
11BCA
  8
2-0
  6
DASHED3
 62
     6
 10
13210.95826986887
 20
19317.986977999979
 30
0.0
 11
10415.958626868871
 21
18209.486978000001
 31
0.0
  0
LINE
  5
11BCB
  8
2-0
  6
DASHED3
 62
     6
 10
10415.958626868871
 20
18209.48697799999
 30
0.0
 11
10898.37552264744
 21
17988.101305556302
 31
0.0
  0
LINE
  5
11BCC
  8
2-0
  6
DASHED3
 62
     6
 10
10432.95774186888
 20
19317.986977999979
 30
0.0
 11
12191.175574842129
 21
18515.10992591684
 31
0.0
  0
LINE
  5
11BCD
  8
2-0
  6
CENTER2
 62
     6
 10
10362.95899586889
 20
20560.489221
 30
0.0
 11
10362.95899586889
 21
19610.48856099998
 31
0.0
  0
LINE
  5
11BCE
  8
2-0
  6
CENTER2
 62
     6
 10
14610.45910086888
 20
19317.986977999979
 30
0.0
 11
12963.95987986888
 21
19317.986977999979
 31
0.0
  0
LINE
  5
11BCF
  8
0-8
  6
CONTINUOUS
 62
     6
 10
13280.95899586889
 20
20560.489221
 30
0.0
 11
13280.95899586889
 21
19610.48856099998
 31
0.0
  0
LINE
  5
11BD0
  8
2-0
  6
CENTER2
 62
     6
 10
14610.45910086888
 20
16750.486977999979
 30
0.0
 11
7391.1595478688851
 21
16750.486977999979
 31
0.0
  0
LINE
  5
11BD1
  8
2-0
  6
CENTER2
 62
     6
 10
14610.45910086888
 20
13832.48697799999
 30
0.0
 11
12963.95987986888
 21
13832.48697799999
 31
0.0
  0
LINE
  5
11BD2
  8
2-0
  6
CENTER2
 62
     6
 10
13499.75716386887
 20
18209.486978000001
 30
0.0
 11
7391.1595478688851
 21
18209.486978000001
 31
0.0
  0
LINE
  5
11BD3
  8
2-0
  6
CENTER2
 62
     6
 10
13499.75716386887
 20
15291.48697799999
 30
0.0
 11
7391.1595478688851
 21
15291.48697799999
 31
0.0
  0
ARC
  5
11BD4
  8
0-1
  6
CONTINUOUS
 62
     3
 10
13297.959734868889
 20
19505.48895699998
 30
0.0
 40
5.0
 50
180.0
 51
270.00001499981897
  0
ARC
  5
11BD5
  8
0-1
  6
CONTINUOUS
 62
     3
 10
13297.959734868889
 20
19535.488560999969
 30
0.0
 40
5.0
 50
90.0
 51
180.0
  0
ARC
  5
11BD6
  8
0-1
  6
CONTINUOUS
 62
     3
 10
13361.45972186889
 20
19535.488560999969
 30
0.0
 40
5.0
 50
0.000000000000007
 51
90.0
  0
LINE
  5
11BD7
  8
2-0
  6
CENTER2
 62
     6
 10
7562.958995868893
 20
20560.489221
 30
0.0
 11
7562.958995868893
 21
19610.48856099998
 31
0.0
  0
LINE
  5
11BD8
  8
0-1
  6
CONTINUOUS
 62
     3
 10
7495.4587578688916
 20
16587.06311039098
 30
0.0
 11
7495.4587578688861
 21
19522.98790199995
 31
0.0
  0
LINE
  5
11BD9
  8
0-1
  6
CONTINUOUS
 62
     3
 10
7495.4587578688861
 20
19522.98790199995
 30
0.0
 11
7477.458995868893
 21
19522.98790199995
 31
0.0
  0
LINE
  5
11BDA
  8
0-1
  6
CONTINUOUS
 62
     3
 10
7550.959509868876
 20
19505.48895699998
 30
0.0
 11
7550.959509868876
 21
19535.488560999969
 31
0.0
  0
LINE
  5
11BDB
  8
0-1
  6
CONTINUOUS
 62
     3
 10
7495.4587578688861
 20
19500.48671399997
 30
0.0
 11
7545.9582558688753
 21
19500.48671399997
 31
0.0
  0
LINE
  5
11BDC
  8
0-1
  6
CONTINUOUS
 62
     3
 10
7477.458995868893
 20
19535.488560999969
 30
0.0
 11
7477.458995868893
 21
19500.48671399997
 31
0.0
  0
LINE
  5
11BDD
  8
0-1
  6
CONTINUOUS
 62
     3
 10
7545.9582558688753
 20
19540.486845999982
 30
0.0
 11
7482.4602488688943
 21
19540.486845999982
 31
0.0
  0
ARC
  5
11BDE
  8
0-1
  6
CONTINUOUS
 62
     3
 10
7482.4602488688943
 20
19535.488560999969
 30
0.0
 40
5.0
 50
90.0
 51
180.0
  0
ARC
  5
11BDF
  8
0-1
  6
CONTINUOUS
 62
     3
 10
7545.9582558688753
 20
19535.488560999969
 30
0.0
 40
5.0
 50
0.000000000000007
 51
90.0
  0
ARC
  5
11BE0
  8
0-1
  6
CONTINUOUS
 62
     3
 10
7545.9582558688753
 20
19505.48895699998
 30
0.0
 40
5.0
 50
270.00001499981897
 51
0.000000000000007
  0
LINE
  5
11BE1
  8
0-1
  6
CONTINUOUS
 62
     3
 10
10362.95899586889
 20
13795.98762499998
 30
0.0
 11
10362.95899586889
 21
13639.987703999979
 31
0.0
  0
LINE
  5
11BE2
  8
0-1
  6
CONTINUOUS
 62
     3
 10
13553.714306127211
 20
19070.547447553221
 30
0.0
 11
9954.1605425242415
 21
17603.19303365939
 31
0.0
  0
LINE
  5
11BE3
  8
0-1
  6
CONTINUOUS
 62
     3
 10
9029.7579368786028
 20
17216.777447804481
 30
0.0
 11
7183.8981773633086
 21
16457.706737551041
 31
0.0
  0
LINE
  5
11BE4
  8
0-1
  6
CONTINUOUS
 62
     3
 10
7612.9586268688772
 20
13671.98761099998
 30
0.0
 11
7612.9586268688772
 21
16635.900176312141
 31
0.0
  0
LINE
  5
11BE5
  8
0-1
  6
CONTINUOUS
 62
     3
 10
7477.458995868893
 20
13639.98697799999
 30
0.0
 11
7477.458995868893
 21
16579.991428284091
 31
0.0
  0
LINE
  5
11BE6
  8
0-1
  6
CONTINUOUS
 62
     3
 10
7562.958995868893
 20
13795.98762499998
 30
0.0
 11
7562.958995868893
 21
16613.587466435791
 31
0.0
  0
LINE
  5
11BE7
  8
0-1
  6
CONTINUOUS
 62
     3
 10
7520.4577418688832
 20
13795.98762499998
 30
0.0
 11
7520.4577418688832
 21
16596.10972637773
 31
0.0
  0
LINE
  5
11BE8
  8
0-1
  6
CONTINUOUS
 62
     3
 10
7612.9586268688772
 20
16635.900176312149
 30
0.0
 11
7612.9586268688772
 21
19510.489220999982
 31
0.0
  0
LINE
  5
11BE9
  8
0-1
  6
CONTINUOUS
 62
     3
 10
7477.458995868893
 20
16579.991428284091
 30
0.0
 11
7477.458995868893
 21
19522.98790199995
 31
0.0
  0
LINE
  5
11BEA
  8
2-0
  6
DASHED3
 62
     6
 10
7562.958995868893
 20
16613.587466435791
 30
0.0
 11
7562.958995868893
 21
19510.489220999982
 31
0.0
  0
LINE
  5
11BEB
  8
2-0
  6
DASHED3
 62
     6
 10
7520.4577418688832
 20
16596.10972637773
 30
0.0
 11
7520.4577418688832
 21
19500.48671399997
 31
0.0
  0
LINE
  5
11BEC
  8
0-1
  6
CONTINUOUS
 62
     3
 10
10510.45688486887
 20
17829.96666922119
 30
0.0
 11
10510.45688486887
 21
19510.489220999982
 31
0.0
  0
LINE
  5
11BED
  8
0-1
  6
CONTINUOUS
 62
     3
 10
10473.45671286887
 20
17814.883586910251
 30
0.0
 11
10473.45671286887
 21
19510.489220999982
 31
0.0
  0
LINE
  5
11BEE
  8
0-1
  6
CONTINUOUS
 62
     3
 10
10310.45622486886
 20
17748.436604522591
 30
0.0
 11
10310.456224868871
 21
19510.489220999982
 31
0.0
  0
LINE
  5
11BEF
  8
0-1
  6
CONTINUOUS
 62
     3
 10
10273.45605286886
 20
17733.353522211652
 30
0.0
 11
10273.45605286886
 21
19510.489220999982
 31
0.0
  0
LINE
  5
11BF0
  8
0-1
  6
CONTINUOUS
 62
     3
 10
10110.45556486886
 20
17666.906539823962
 30
0.0
 11
10110.45556486886
 21
19510.489220999982
 31
0.0
  0
LINE
  5
11BF1
  8
0-1
  6
CONTINUOUS
 62
     3
 10
10073.45539286884
 20
17651.823457513041
 30
0.0
 11
10073.45539286884
 21
19510.489220999982
 31
0.0
  0
LINE
  5
11BF2
  8
0-1
  6
CONTINUOUS
 62
     3
 10
9910.4549048688496
 20
17709.118466013209
 30
0.0
 11
9910.4549048688568
 21
19510.489220999982
 31
0.0
  0
LINE
  5
11BF3
  8
0-1
  6
CONTINUOUS
 62
     3
 10
9873.4547328688459
 20
17798.79246292797
 30
0.0
 11
9873.4547328688459
 21
19510.489220999982
 31
0.0
  0
LINE
  5
11BF4
  8
0-1
  6
CONTINUOUS
 62
     3
 10
9710.4542448688426
 20
17663.714871947632
 30
0.0
 11
9710.4542448688426
 21
19510.489220999982
 31
0.0
  0
LINE
  5
11BF5
  8
0-1
  6
CONTINUOUS
 62
     3
 10
9673.4540728688316
 20
17621.171631558751
 30
0.0
 11
9673.4540728688316
 21
19510.489220999982
 31
0.0
  0
LINE
  5
11BF6
  8
0-1
  6
CONTINUOUS
 62
     3
 10
9510.4535848688283
 20
17431.377743966881
 30
0.0
 11
9510.453584868832
 21
19510.489220999982
 31
0.0
  0
LINE
  5
11BF7
  8
0-1
  6
CONTINUOUS
 62
     3
 10
9473.4534128688192
 20
17388.582352968799
 30
0.0
 11
9473.4534128688265
 21
19510.489220999982
 31
0.0
  0
LINE
  5
11BF8
  8
0-1
  6
CONTINUOUS
 62
     3
 10
9310.4529248688195
 20
17198.78851710165
 30
0.0
 11
9310.4529248688195
 21
19510.489220999982
 31
0.0
  0
LINE
  5
11BF9
  8
0-1
  6
CONTINUOUS
 62
     3
 10
9273.4527528688104
 20
17156.245276712762
 30
0.0
 11
9273.4527528688104
 21
19510.489220999982
 31
0.0
  0
LINE
  5
11BFA
  8
0-1
  6
CONTINUOUS
 62
     3
 10
9110.4522648688089
 20
17021.196504491822
 30
0.0
 11
9110.4522648688162
 21
19510.489220999982
 31
0.0
  0
LINE
  5
11BFB
  8
0-1
  6
CONTINUOUS
 62
     3
 10
9073.4520928688034
 20
17110.87478452373
 30
0.0
 11
9073.4520928688034
 21
19510.489220999982
 31
0.0
  0
LINE
  5
11BFC
  8
0-1
  6
CONTINUOUS
 62
     3
 10
8910.451604868802
 20
17167.715247001001
 30
0.0
 11
8910.451604868802
 21
19510.489220999982
 31
0.0
  0
LINE
  5
11BFD
  8
0-1
  6
CONTINUOUS
 62
     3
 10
8873.4514328687965
 20
17152.499710341312
 30
0.0
 11
8873.4514328687965
 21
19510.489220999982
 31
0.0
  0
LINE
  5
11BFE
  8
0-1
  6
CONTINUOUS
 62
     3
 10
8710.4509448687932
 20
17085.469213815231
 30
0.0
 11
8710.4509448687968
 21
19510.489220999982
 31
0.0
  0
LINE
  5
11BFF
  8
0-1
  6
CONTINUOUS
 62
     3
 10
8673.4507728687859
 20
17070.253677155531
 30
0.0
 11
8673.4507728687859
 21
19510.489220999982
 31
0.0
  0
LINE
  5
11C00
  8
0-1
  6
CONTINUOUS
 62
     3
 10
8510.4502848687862
 20
17003.223180629459
 30
0.0
 11
8510.4502848687862
 21
19510.489220999982
 31
0.0
  0
LINE
  5
11C01
  8
0-1
  6
CONTINUOUS
 62
     3
 10
8473.4501128687807
 20
16988.00764396978
 30
0.0
 11
8473.4501128687807
 21
19510.489220999982
 31
0.0
  0
LINE
  5
11C02
  8
0-1
  6
CONTINUOUS
 62
     3
 10
8310.4496248687738
 20
16920.9771474437
 30
0.0
 11
8310.4496248687792
 21
19510.489220999982
 31
0.0
  0
LINE
  5
11C03
  8
0-1
  6
CONTINUOUS
 62
     3
 10
8273.4494528687701
 20
16905.761610784011
 30
0.0
 11
8273.4494528687719
 21
19510.489220999982
 31
0.0
  0
LINE
  5
11C04
  8
0-1
  6
CONTINUOUS
 62
     3
 10
8110.4489648687713
 20
16838.731114257931
 30
0.0
 11
8110.4489648687713
 21
19510.489220999982
 31
0.0
  0
LINE
  5
11C05
  8
0-1
  6
CONTINUOUS
 62
     3
 10
8073.4487928687577
 20
16823.515577598231
 30
0.0
 11
8073.4487928687577
 21
19510.489220999982
 31
0.0
  0
LINE
  5
11C06
  8
0-1
  6
CONTINUOUS
 62
     3
 10
10362.95899586889
 20
15336.48836400001
 30
0.0
 11
7562.958995868893
 21
15336.48836400001
 31
0.0
  0
LINE
  5
11C07
  8
0-1
  6
CONTINUOUS
 62
     3
 10
10362.95899586889
 20
15246.48658200001
 30
0.0
 11
7562.958995868893
 21
15246.48658200001
 31
0.0
  0
LINE
  5
11C08
  8
2-0
  6
DASHED3
 62
     6
 10
7562.958995868893
 20
18164.48658199999
 30
0.0
 11
10362.95899586889
 21
18164.48658199999
 31
0.0
  0
LINE
  5
11C09
  8
2-0
  6
DASHED3
 62
     6
 10
7562.958995868893
 20
18254.489353000001
 30
0.0
 11
10362.95899586889
 21
18254.48935299999
 31
0.0
  0
LINE
  5
11C0A
  8
0-1
  6
CONTINUOUS
 62
     3
 10
7742.4586268688772
 20
15291.48697799999
 30
0.0
 11
10193.95774186887
 21
13832.48697799999
 31
0.0
  0
LINE
  5
11C0B
  8
0-1
  6
CONTINUOUS
 62
     3
 10
10193.95774186887
 20
16750.486977999979
 30
0.0
 11
7742.4586268688772
 21
15291.48697799999
 31
0.0
  0
LINE
  5
11C0C
  8
0-1
  6
CONTINUOUS
 62
     3
 10
10193.95774186887
 20
15291.48697799999
 30
0.0
 11
7805.1431146010545
 21
16713.18055311016
 31
0.0
  0
LINE
  5
11C0D
  8
0-1
  6
CONTINUOUS
 62
     3
 10
7742.4586268688772
 20
13832.48697799999
 30
0.0
 11
10193.95774186887
 21
15291.48697799999
 31
0.0
  0
LINE
  5
11C0E
  8
2-0
  6
DASHED3
 62
     6
 10
10193.95774186887
 20
18209.486978000001
 30
0.0
 11
7742.4586268688772
 21
16750.486977999979
 31
0.0
  0
LINE
  5
11C0F
  8
2-0
  6
DASHED3
 62
     6
 10
7742.4586268688772
 20
18209.486978000001
 30
0.0
 11
9353.9801186160275
 21
17250.39633747203
 31
0.0
  0
LINE
  5
11C10
  8
0-1
  6
CONTINUOUS
 62
     3
 10
9353.9801186160275
 20
17250.39633747203
 30
0.0
 11
10193.95774186887
 21
16750.486977999979
 31
0.0
  0
LINE
  5
11C11
  8
2-0
  6
DASHED3
 62
     6
 10
7742.4586268688772
 20
19317.986977999979
 30
0.0
 11
10193.95774186887
 21
18209.486978000001
 31
0.0
  0
LINE
  5
11C12
  8
2-0
  6
DASHED3
 62
     6
 10
10193.95774186887
 20
19317.986977999979
 30
0.0
 11
7742.4586268688772
 21
18209.486978000001
 31
0.0
  0
LINE
  5
11C13
  8
0-1
  6
CONTINUOUS
 62
     3
 10
9954.1610802840187
 20
17603.19173033928
 30
0.0
 11
9858.8070599604962
 21
17834.29271344548
 31
0.0
  0
LINE
  5
11C14
  8
0-1
  6
CONTINUOUS
 62
     3
 10
9125.1075277772798
 20
16985.676162287851
 30
0.0
 11
9029.756878099759
 21
17216.78001399431
 31
0.0
  0
LINE
  5
11C15
  8
0-1
  6
CONTINUOUS
 62
     3
 10
9125.1075277772798
 20
16985.676162287851
 30
0.0
 11
9858.8070599604962
 21
17834.29271344548
 31
0.0
  0
LINE
  5
11C16
  8
2-0
  6
DASHED3
 62
     6
 10
7805.1431146010545
 20
16713.18055311016
 30
0.0
 11
7742.4586268688772
 21
16750.486977999979
 31
0.0
  0
LINE
  5
11C17
  8
0-1
  6
CONTINUOUS
 62
     3
 10
12310.45787486888
 20
18563.73523364625
 30
0.0
 11
12310.45787486888
 21
19510.489220999982
 31
0.0
  0
LINE
  5
11C18
  8
0-1
  6
CONTINUOUS
 62
     3
 10
12273.45869386887
 20
18548.652555315461
 30
0.0
 11
12273.45869386887
 21
19510.489220999982
 31
0.0
  0
LINE
  5
11C19
  8
0-1
  6
CONTINUOUS
 62
     3
 10
12110.45721586887
 20
18482.205169355278
 30
0.0
 11
12110.45721586887
 21
19510.489220999982
 31
0.0
  0
LINE
  5
11C1A
  8
0-1
  6
CONTINUOUS
 62
     3
 10
12073.457043868881
 20
18467.12208704435
 30
0.0
 11
12073.457043868881
 21
19510.489220999982
 31
0.0
  0
LINE
  5
11C1B
  8
0-1
  6
CONTINUOUS
 62
     3
 10
12510.45754586888
 20
18645.26489518
 30
0.0
 11
12510.45754586888
 21
19510.489220999982
 31
0.0
  0
LINE
  5
11C1C
  8
0-1
  6
CONTINUOUS
 62
     3
 10
12473.45737386887
 20
18630.18181286909
 30
0.0
 11
12473.45737386887
 21
19510.489220999982
 31
0.0
  0
LINE
  5
11C1D
  8
0-1
  6
CONTINUOUS
 62
     3
 10
12910.457875868889
 20
18808.324621004758
 30
0.0
 11
12910.457875868889
 21
19510.489220999982
 31
0.0
  0
LINE
  5
11C1E
  8
0-1
  6
CONTINUOUS
 62
     3
 10
12873.458694868879
 20
18793.241942673969
 30
0.0
 11
12873.458694868879
 21
19510.489220999982
 31
0.0
  0
LINE
  5
11C1F
  8
0-1
  6
CONTINUOUS
 62
     3
 10
12710.45721686889
 20
18726.79455671379
 30
0.0
 11
12710.457216868879
 21
19510.489220999982
 31
0.0
  0
LINE
  5
11C20
  8
0-1
  6
CONTINUOUS
 62
     3
 10
12673.45704486887
 20
18711.711474402869
 30
0.0
 11
12673.45704486887
 21
19510.489220999982
 31
0.0
  0
LINE
  5
11C21
  8
0-1
  6
CONTINUOUS
 62
     3
 10
13110.457546868891
 20
18889.85428253853
 30
0.0
 11
13110.457546868891
 21
19510.489220999982
 31
0.0
  0
LINE
  5
11C22
  8
0-1
  6
CONTINUOUS
 62
     3
 10
13073.457374868891
 20
18874.771200227598
 30
0.0
 11
13073.457374868891
 21
19510.489220999982
 31
0.0
  0
LINE
  5
11C23
  8
0-1
  6
CONTINUOUS
 62
     3
 10
7910.448304868758
 20
16756.485081072158
 30
0.0
 11
7910.448304868758
 21
19510.489221
 31
0.0
  0
LINE
  5
11C24
  8
0-1
  6
CONTINUOUS
 62
     3
 10
7873.4481328687489
 20
16741.26954441248
 30
0.0
 11
7873.4481328687489
 21
19510.489221
 31
0.0
  0
LINE
  5
11C25
  8
0-1
  6
CONTINUOUS
 62
     3
 10
7710.4476448687537
 20
16674.2390478864
 30
0.0
 11
7710.4476448687492
 21
19510.489221
 31
0.0
  0
LINE
  5
11C26
  8
0-1
  6
CONTINUOUS
 62
     3
 10
7673.4474728687392
 20
16659.0235112267
 30
0.0
 11
7673.4474728687392
 21
19510.489221
 31
0.0
  0
TEXT
  5
11C27
  8
0-6
  6
CONTINUOUS
 62
     7
 10
8363.3733794522414
 20
13153.08945534379
 30
0.0
 40
160.0
  1
梁（P）前
 72
     4
 11
8806.0400461189074
 21
13233.08945534379
 31
0.0
  0
LINE
  5
11C28
  8
0-6
  6
CONTINUOUS
 62
     6
 10
9284.82288439082
 20
13073.090181343779
 30
0.0
 11
8290.5490808689337
 21
13073.090181343779
 31
0.0
  0
TEXT
  5
11C29
  8
0-6
  6
CONTINUOUS
 62
     7
 10
4300.3105768805981
 20
13007.84843238
 30
0.0
 40
160.0
  1
桁前（PU）+ 桁補強（PU）
 72
     4
 11
5548.310576880599
 21
13087.84843238
 31
0.0
  0
LINE
  5
11C2A
  8
0-6
  6
CONTINUOUS
 62
     6
 10
6836.9734384916674
 20
12906.30186519087
 30
0.0
 11
4254.2991057362824
 21
12906.30186519087
 31
0.0
  0
LINE
  5
11C2B
  8
0-6
  6
CONTINUOUS
 62
     6
 10
7828.0211372510948
 20
13787.053441596539
 30
0.0
 11
6836.9734384916674
 21
12906.30186519087
 31
0.0
  0
LINE
  5
11C2C
  8
0-6
  6
CONTINUOUS
 62
     6
 10
6714.6556147861256
 20
16745.972068012172
 30
0.0
 11
7776.8042861892009
 21
16287.177510604581
 31
0.0
  0
LINE
  5
11C2D
  8
0-6
  6
CONTINUOUS
 62
     6
 10
7776.8042861892009
 20
16287.177510604581
 30
0.0
 11
8034.4286569802352
 21
16705.486583000002
 31
0.0
  0
LINE
  5
11C2E
  8
0-6
  6
CONTINUOUS
 62
     6
 10
6714.6556147861256
 20
15286.97206701219
 30
0.0
 11
7776.8042861892009
 21
14828.1775096046
 31
0.0
  0
LINE
  5
11C2F
  8
0-6
  6
CONTINUOUS
 62
     6
 10
7776.8042861892009
 20
14828.1775096046
 30
0.0
 11
8034.4286569802352
 21
15246.48658200001
 31
0.0
  0
TEXT
  5
11C30
  8
0-6
  6
CONTINUOUS
 62
     7
 10
4062.2158830784601
 20
15378.49016489056
 30
0.0
 40
160.0
  1
桁（PU）B + 桁補強（PU）
 72
     4
 11
5342.2158830784601
 21
15458.49016489056
 31
0.0
  0
LINE
  5
11C31
  8
0-6
  6
CONTINUOUS
 62
     6
 10
6714.6556147861256
 20
15286.97206701219
 30
0.0
 11
3949.193678927636
 21
15286.97206701219
 31
0.0
  0
LINE
  5
11C32
  8
0-6
  6
CONTINUOUS
 62
     6
 10
6714.6556147861256
 20
18204.97206701215
 30
0.0
 11
7776.8042861892009
 21
17746.177509604571
 31
0.0
  0
LINE
  5
11C33
  8
0-6
  6
CONTINUOUS
 62
     6
 10
7776.8042861892009
 20
17746.177509604571
 30
0.0
 11
8034.4286569802352
 21
18164.48658199999
 31
0.0
  0
TEXT
  5
11C34
  8
0-6
  6
CONTINUOUS
 62
     7
 10
4062.2158830784601
 20
18296.49016489054
 30
0.0
 40
160.0
  1
桁（PU）B + 桁補強（PU）
 72
     4
 11
5342.2158830784601
 21
18376.49016489054
 31
0.0
  0
LINE
  5
11C35
  8
0-6
  6
CONTINUOUS
 62
     6
 10
6714.6556147861256
 20
18204.97206701215
 30
0.0
 11
3949.193678927636
 21
18204.97206701215
 31
0.0
  0
TEXT
  5
11C36
  8
0-6
  6
CONTINUOUS
 62
     7
 10
4062.2158830784601
 20
16837.490165890511
 30
0.0
 40
160.0
  1
桁（PU）A + 桁補強（PU）
 72
     4
 11
5342.2158830784601
 21
16917.490165890511
 31
0.0
  0
LINE
  5
11C37
  8
0-6
  6
CONTINUOUS
 62
     6
 10
6714.6556147861256
 20
16745.972068012172
 30
0.0
 11
3949.193678927636
 21
16745.972068012172
 31
0.0
  0
LINE
  5
11C38
  8
0-6
  6
CONTINUOUS
 62
     6
 10
6714.6556147861256
 20
19319.47396701216
 30
0.0
 11
7776.8042861892009
 21
18860.67940960456
 31
0.0
  0
LINE
  5
11C39
  8
0-6
  6
CONTINUOUS
 62
     6
 10
7776.8042861892009
 20
18860.67940960456
 30
0.0
 11
8034.4286569802352
 21
19278.98848199999
 31
0.0
  0
TEXT
  5
11C3A
  8
0-6
  6
CONTINUOUS
 62
     7
 10
4062.215883078461
 20
19410.99206489051
 30
0.0
 40
160.0
  1
桁（PU）A + 桁補強（PU）
 72
     4
 11
5342.215883078461
 21
19490.99206489051
 31
0.0
  0
LINE
  5
11C3B
  8
0-6
  6
CONTINUOUS
 62
     6
 10
6714.6556147861256
 20
19319.47396701216
 30
0.0
 11
3949.1936789276369
 21
19319.47396701216
 31
0.0
  0
LINE
  5
11C3C
  8
0-1
  6
CONTINUOUS
 62
     3
 10
7788.0466746935581
 20
6291.1885390000016
 30
0.0
 11
7788.0466746935581
 21
8152.234418
 31
0.0
  0
LINE
  5
11C3D
  8
0-1
  6
CONTINUOUS
 62
     3
 10
7808.0477306935527
 20
6291.1885390000016
 30
0.0
 11
7808.0477306935527
 21
8152.234418
 31
0.0
  0
LINE
  5
11C3E
  8
0-1
  6
CONTINUOUS
 62
     3
 10
7738.0479946935548
 20
6291.1885390000016
 30
0.0
 11
7738.0479946935548
 21
8152.234418
 31
0.0
  0
LINE
  5
11C3F
  8
0-1
  6
CONTINUOUS
 62
     3
 10
7858.0464106935569
 20
6291.1885390000016
 30
0.0
 11
7858.0464106935569
 21
8152.234418
 31
0.0
  0
LINE
  5
11C40
  8
0-1
  6
CONTINUOUS
 62
     3
 10
7991.047294693557
 20
6291.1885390000016
 30
0.0
 11
7991.047294693557
 21
8152.234418
 31
0.0
  0
LINE
  5
11C41
  8
0-1
  6
CONTINUOUS
 62
     3
 10
8006.0470966935709
 20
6291.1885390000016
 30
0.0
 11
8006.0470966935709
 21
8152.234418
 31
0.0
  0
LINE
  5
11C42
  8
0-1
  6
CONTINUOUS
 62
     3
 10
8290.0466486935638
 20
6291.1885390000016
 30
0.0
 11
8290.0466486935638
 21
8152.234418
 31
0.0
  0
LINE
  5
11C43
  8
0-1
  6
CONTINUOUS
 62
     3
 10
8305.0484296935629
 20
6291.1885390000016
 30
0.0
 11
8305.0484296935629
 21
8152.234418
 31
0.0
  0
LINE
  5
11C44
  8
0-1
  6
CONTINUOUS
 62
     3
 10
8129.5472816935662
 20
8152.234418
 30
0.0
 11
8129.5472816935662
 21
6291.1885390000016
 31
0.0
  0
LINE
  5
11C45
  8
0-1
  6
CONTINUOUS
 62
     3
 10
8166.5474536935526
 20
8152.234418
 30
0.0
 11
8166.5474536935526
 21
6291.1885390000016
 31
0.0
  0
LINE
  5
11C46
  8
0-1
  6
CONTINUOUS
 62
     3
 10
7590.0473086935554
 20
6291.1885390000016
 30
0.0
 11
7590.0473086935554
 21
8152.234418
 31
0.0
  0
LINE
  5
11C47
  8
0-1
  6
CONTINUOUS
 62
     3
 10
7605.0490896935544
 20
6291.1885390000016
 30
0.0
 11
7605.0490896935544
 21
8152.234418
 31
0.0
  0
CIRCLE
  5
11C48
  8
0-5
  6
CONTINUOUS
 62
     4
 10
15128.71667799999
 20
1375.999981999998
 30
0.0
 40
20.0
  0
ARC
  5
11C49
  8
0-5
  6
CONTINUOUS
 62
     4
 10
15128.71667799999
 20
1375.999981999998
 30
0.0
 40
20.0
 50
180.0
 51
0.0
  0
ARC
  5
11C4A
  8
0-5
  6
CONTINUOUS
 62
     4
 10
15128.71667799999
 20
1375.999981999998
 30
0.0
 40
20.0
 50
0.0
 51
179.99998499999839
  0
CIRCLE
  5
11C4B
  8
0-5
  6
CONTINUOUS
 62
     4
 10
15128.71667799999
 20
1775.999321999996
 30
0.0
 40
20.0
  0
ARC
  5
11C4C
  8
0-5
  6
CONTINUOUS
 62
     4
 10
15128.71667799999
 20
1775.999321999996
 30
0.0
 40
20.0
 50
180.0
 51
0.0
  0
ARC
  5
11C4D
  8
0-5
  6
CONTINUOUS
 62
     4
 10
15128.71667799999
 20
1775.999321999996
 30
0.0
 40
20.0
 50
0.0
 51
179.99998499999839
  0
TEXT
  5
11C4E
  8
0-5
  6
CONTINUOUS
 62
     7
 10
16661.217403999992
 20
1655.999791999998
 30
0.0
 40
160.0
  1
H
  0
TEXT
  5
11C4F
  8
0-5
  6
CONTINUOUS
 62
     7
 10
15176.146933
 20
1655.999791999998
 30
0.0
 40
160.0
  1
（ ）内寸法ハ、  タイプヲ示ス。
  0
TEXT
  5
11C50
  8
0-5
  6
CONTINUOUS
 62
     7
 10
15288.716216000001
 20
1255.9994619999991
 30
0.0
 40
160.0
  1
有効高サハ、基礎高サヲ含ミマセン。
  0
LINE
  5
11C53
  8
WAKUSEN-01
 10
868.00000000000193
 20
22484.000000000011
 30
0.0
 11
32764.000000000011
 21
22484.000000000011
 31
0.0
  0
LINE
  5
11C56
  8
WAKUSEN-01
 10
20560.0
 20
2484.0
 30
0.0
 11
32764.0
 21
2484.0
 31
0.0
  0
LINE
  5
11C57
  8
WAKUSEN-02
 10
20560.0
 20
1655.9999999999991
 30
0.0
 11
26868.0
 21
1655.9999999999991
 31
0.0
  0
TEXT
  5
11C58
  8
WAKUMOJI-01
 10
20670.260259962761
 20
2125.9030093393221
 30
0.0
 40
240.0
  1
名　称
  7
WAKUMOJI
  0
TEXT
  5
11C59
  8
WAKUMOJI-01
 10
20656.505485091919
 20
1319.12897497982
 30
0.0
 40
240.0
  1
機種名
  7
WAKUMOJI
  0
LINE
  5
11C5C
  8
YODOROGO
 10
29977.604341291921
 20
1995.7494964292871
 30
0.0
 11
29829.604341291921
 21
1995.7494964292871
 31
0.0
1001
AUTOCAD_POSTSCRIPT_FIGURE
1002
{
1000
PSFILL
1000
Grayscale
1000
Grayscale
1070
    25
1002
}
  0
LINE
  5
11C5D
  8
YODOROGO
 10
29829.604341291921
 20
1947.749496429288
 30
0.0
 11
29977.604341291921
 21
1947.749496429288
 31
0.0
1001
AUTOCAD_POSTSCRIPT_FIGURE
1002
{
1000
PSFILL
1000
Grayscale
1000
Grayscale
1070
    25
1002
}
  0
LINE
  5
11C5E
  8
YODOROGO
 10
29977.604341291921
 20
1907.7494964292871
 30
0.0
 11
29829.604341291921
 21
1907.7494964292871
 31
0.0
1001
AUTOCAD_POSTSCRIPT_FIGURE
1002
{
1000
PSFILL
1000
Grayscale
1000
Grayscale
1070
    25
1002
}
  0
LINE
  5
11C5F
  8
YODOROGO
 10
29829.604341291921
 20
1859.749496429288
 30
0.0
 11
29977.604341291921
 21
1859.749496429288
 31
0.0
1001
AUTOCAD_POSTSCRIPT_FIGURE
1002
{
1000
PSFILL
1000
Grayscale
1000
Grayscale
1070
    25
1002
}
  0
LINE
  5
11C60
  8
YODOROGO
 10
29977.604341291921
 20
1819.7494964292871
 30
0.0
 11
29829.604341291921
 21
1819.7494964292871
 31
0.0
1001
AUTOCAD_POSTSCRIPT_FIGURE
1002
{
1000
PSFILL
1000
Grayscale
1000
Grayscale
1070
    25
1002
}
  0
LINE
  5
11C61
  8
YODOROGO
 10
29921.60434129191
 20
1707.749496429288
 30
0.0
 11
29977.604341291921
 21
1707.749496429288
 31
0.0
1001
AUTOCAD_POSTSCRIPT_FIGURE
1002
{
1000
PSFILL
1000
Grayscale
1000
Grayscale
1070
    25
1002
}
  0
LINE
  5
11C62
  8
YODOROGO
 10
29737.604341291921
 20
1427.749496429288
 30
0.0
 11
29937.604341291932
 21
1481.3393349155101
 31
0.0
  0
LINE
  5
11C63
  8
YODOROGO
 10
29949.60434129191
 20
1707.749496429288
 30
0.0
 11
29885.604341291921
 21
1707.749496429288
 31
0.0
  0
ARC
  5
11C64
  8
YODOROGO
 10
30254.34774982791
 20
1807.864609233261
 30
0.0
 40
381.88686420564721
 50
213.96111677667841
 51
264.47872074317792
  0
ARC
  5
11C65
  8
YODOROGO
 10
30254.347749827921
 20
1807.864609233302
 30
0.0
 40
381.8868642056816
 50
208.14114420486601
 51
212.9210361185994
  0
LINE
  5
11C66
  8
YODOROGO
 10
29771.409872985321
 20
1556.807661346234
 30
0.0
 11
29933.78413250855
 21
1600.3157130570869
 31
0.0
  0
LINE
  5
11C67
  8
YODOROGO
 10
29737.604341291921
 20
1427.749496429288
 30
0.0
 11
29937.604341291932
 21
1481.3393349155101
 31
0.0
  0
LINE
  5
11C68
  8
YODOROGO
 10
29949.60434129191
 20
1707.749496429288
 30
0.0
 11
29885.604341291921
 21
1707.749496429288
 31
0.0
  0
ARC
  5
11C69
  8
YODOROGO
 10
30254.34774982791
 20
1807.864609233261
 30
0.0
 40
381.88686420564721
 50
213.96111677667841
 51
264.47872074317792
  0
LINE
  5
11C6A
  8
YODOROGO
 10
28793.60434129191
 20
1819.7494964292871
 30
0.0
 11
28433.60434129191
 21
1819.7494964292871
 31
0.0
  0
LINE
  5
11C6B
  8
YODOROGO
 10
28513.60434129191
 20
1427.749496429288
 30
0.0
 11
28793.60434129191
 21
1427.749496429288
 31
0.0
  0
LINE
  5
11C6C
  8
YODOROGO
 10
28729.604341291921
 20
1923.7494964292871
 30
0.0
 11
28497.60434129191
 21
1923.7494964292871
 31
0.0
  0
LINE
  5
11C6D
  8
YODOROGO
 10
28585.604341291921
 20
2027.749496429288
 30
0.0
 11
28657.604341291921
 21
2027.749496429288
 31
0.0
  0
LINE
  5
11C6E
  8
YODOROGO
 10
28433.60434129191
 20
1707.749496429288
 30
0.0
 11
28433.60434129191
 21
1507.749496429288
 31
0.0
  0
LINE
  5
11C6F
  8
YODOROGO
 10
28497.60434129191
 20
1563.7494964292871
 30
0.0
 11
28497.60434129191
 21
1707.749496429288
 31
0.0
  0
LINE
  5
11C70
  8
YODOROGO
 10
28585.604341291921
 20
1747.74949642929
 30
0.0
 11
28585.604341291921
 21
1547.749496429288
 31
0.0
  0
LINE
  5
11C71
  8
YODOROGO
 10
27857.604341291921
 20
1683.749496429288
 30
0.0
 11
27777.604341291921
 21
1619.9724140445701
 31
0.0
  0
LINE
  5
11C72
  8
YODOROGO
 10
27937.604341291921
 20
1619.9724140445701
 30
0.0
 11
27857.604341291921
 21
1683.749496429288
 31
0.0
  0
LINE
  5
11C73
  8
YODOROGO
 10
27857.604341291921
 20
1707.749496429288
 30
0.0
 11
27937.604341291921
 21
1643.9724140445701
 31
0.0
  0
LINE
  5
11C74
  8
YODOROGO
 10
27777.604341291921
 20
1643.9724140445701
 30
0.0
 11
27857.604341291921
 21
1707.749496429288
 31
0.0
  0
LINE
  5
11C75
  8
YODOROGO
 10
28040.913204016892
 20
1659.749496429288
 30
0.0
 11
28040.913204016892
 21
1683.7494964292871
 31
0.0
  0
LINE
  5
11C76
  8
YODOROGO
 10
27977.604341291921
 20
1683.7494964292871
 30
0.0
 11
27977.604341291921
 21
1667.749496429285
 31
0.0
  0
LINE
  5
11C77
  8
YODOROGO
 10
28098.135520230931
 20
1707.749496429288
 30
0.0
 11
28098.135520230931
 21
1655.5036372746561
 31
0.0
1001
AUTOCAD_POSTSCRIPT_FIGURE
1002
{
1000
PSFILL
1000
Grayscale
1000
Grayscale
1070
   100
1002
}
  0
LINE
  5
11C78
  8
YODOROGO
 10
28082.135520230921
 20
1655.5036372746561
 30
0.0
 11
28082.135520230921
 21
1707.749496429288
 31
0.0
1001
AUTOCAD_POSTSCRIPT_FIGURE
1002
{
1000
PSFILL
1000
Grayscale
1000
Grayscale
1070
   100
1002
}
  0
LINE
  5
11C79
  8
YODOROGO
 10
27809.604341291921
 20
1608.771904043258
 30
0.0
 11
27809.604341291921
 21
1632.771904043258
 31
0.0
  0
LINE
  5
11C7A
  8
YODOROGO
 10
27905.604341291921
 20
1608.771904043258
 30
0.0
 11
27809.604341291921
 21
1608.771904043258
 31
0.0
  0
LINE
  5
11C7B
  8
YODOROGO
 10
27905.604341291921
 20
1632.771904043258
 30
0.0
 11
27905.604341291921
 21
1608.771904043258
 31
0.0
  0
LINE
  5
11C7C
  8
YODOROGO
 10
27809.604341291921
 20
1632.771904043258
 30
0.0
 11
27905.604341291921
 21
1632.771904043258
 31
0.0
  0
LINE
  5
11C7D
  8
YODOROGO
 10
27824.509588915738
 20
1568.5028573704751
 30
0.0
 11
27785.604341291921
 21
1475.7494964292871
 31
0.0
1001
AUTOCAD_POSTSCRIPT_FIGURE
1002
{
1000
PSFILL
1000
Grayscale
1000
Grayscale
1070
   100
1002
}
  0
LINE
  5
11C7E
  8
YODOROGO
 10
27777.604341291921
 20
1568.5028573704751
 30
0.0
 11
27824.509588915738
 21
1568.5028573704751
 31
0.0
1001
AUTOCAD_POSTSCRIPT_FIGURE
1002
{
1000
PSFILL
1000
Grayscale
1000
Grayscale
1070
   100
1002
}
  0
LINE
  5
11C7F
  8
YODOROGO
 10
27777.604341291921
 20
1588.5028573704751
 30
0.0
 11
27777.604341291921
 21
1568.5028573704751
 31
0.0
1001
AUTOCAD_POSTSCRIPT_FIGURE
1002
{
1000
PSFILL
1000
Grayscale
1000
Grayscale
1070
   100
1002
}
  0
LINE
  5
11C80
  8
YODOROGO
 10
27937.604341291921
 20
1588.5028573704751
 30
0.0
 11
27777.604341291921
 21
1588.5028573704751
 31
0.0
1001
AUTOCAD_POSTSCRIPT_FIGURE
1002
{
1000
PSFILL
1000
Grayscale
1000
Grayscale
1070
   100
1002
}
  0
LINE
  5
11C81
  8
YODOROGO
 10
27937.604341291921
 20
1568.5028573704751
 30
0.0
 11
27937.604341291921
 21
1588.5028573704751
 31
0.0
1001
AUTOCAD_POSTSCRIPT_FIGURE
1002
{
1000
PSFILL
1000
Grayscale
1000
Grayscale
1070
   100
1002
}
  0
LINE
  5
11C82
  8
YODOROGO
 10
27844.509588915738
 20
1568.5028573704751
 30
0.0
 11
27937.604341291921
 21
1568.5028573704751
 31
0.0
1001
AUTOCAD_POSTSCRIPT_FIGURE
1002
{
1000
PSFILL
1000
Grayscale
1000
Grayscale
1070
   100
1002
}
  0
LINE
  5
11C83
  8
YODOROGO
 10
27815.546718284771
 20
1495.7494964292871
 30
0.0
 11
27844.509588915738
 21
1568.5028573704751
 31
0.0
1001
AUTOCAD_POSTSCRIPT_FIGURE
1002
{
1000
PSFILL
1000
Grayscale
1000
Grayscale
1070
   100
1002
}
  0
LINE
  5
11C84
  8
YODOROGO
 10
27902.054790808648
 20
1495.7494964292871
 30
0.0
 11
27815.546718284771
 21
1495.7494964292871
 31
0.0
1001
AUTOCAD_POSTSCRIPT_FIGURE
1002
{
1000
PSFILL
1000
Grayscale
1000
Grayscale
1070
   100
1002
}
  0
LINE
  5
11C85
  8
YODOROGO
 10
27885.065004790951
 20
1536.2338106976929
 30
0.0
 11
27902.054790808648
 21
1495.7494964292871
 31
0.0
1001
AUTOCAD_POSTSCRIPT_FIGURE
1002
{
1000
PSFILL
1000
Grayscale
1000
Grayscale
1070
   100
1002
}
  0
LINE
  5
11C86
  8
YODOROGO
 10
27901.065004790951
 20
1536.2338106976929
 30
0.0
 11
27885.065004790951
 21
1536.2338106976929
 31
0.0
1001
AUTOCAD_POSTSCRIPT_FIGURE
1002
{
1000
PSFILL
1000
Grayscale
1000
Grayscale
1070
   100
1002
}
  0
LINE
  5
11C87
  8
YODOROGO
 10
27929.604341291921
 20
1475.7494964292871
 30
0.0
 11
27901.065004790951
 21
1536.2338106976929
 31
0.0
1001
AUTOCAD_POSTSCRIPT_FIGURE
1002
{
1000
PSFILL
1000
Grayscale
1000
Grayscale
1070
   100
1002
}
  0
LINE
  5
11C88
  8
YODOROGO
 10
27785.604341291921
 20
1475.7494964292871
 30
0.0
 11
27929.604341291921
 21
1475.7494964292871
 31
0.0
1001
AUTOCAD_POSTSCRIPT_FIGURE
1002
{
1000
PSFILL
1000
Grayscale
1000
Grayscale
1070
   100
1002
}
  0
LINE
  5
11C89
  8
YODOROGO
 10
27777.604341291921
 20
1619.9724140445701
 30
0.0
 11
27777.604341291921
 21
1643.9724140445701
 31
0.0
  0
LINE
  5
11C8A
  8
YODOROGO
 10
27937.604341291921
 20
1643.9724140445701
 30
0.0
 11
27937.604341291921
 21
1619.9724140445701
 31
0.0
  0
ARC
  5
11C8B
  8
YODOROGO
 10
28225.940442146959
 20
1600.877765325326
 30
0.0
 40
175.9999999999998
 50
280.3644312771313
 51
3.5414836592180561
  0
ARC
  5
11C8C
  8
YODOROGO
 10
28235.756030759301
 20
1633.5978069619041
 30
0.0
 40
111.9999999999982
 50
281.24905825041549
 51
348.75094174958321
  0
LINE
  5
11C8D
  8
YODOROGO
 10
28257.604341291921
 20
1523.7494964292871
 30
0.0
 11
28257.604341291921
 21
1427.749496429288
 31
0.0
  0
LINE
  5
11C8E
  8
YODOROGO
 10
28020.088903736909
 20
1610.650565061914
 30
0.0
 11
28040.913204016892
 21
1659.749496429288
 31
0.0
  0
LINE
  5
11C8F
  8
YODOROGO
 10
28041.604341291921
 20
1583.120489948401
 30
0.0
 11
28020.088903736909
 21
1610.650565061914
 31
0.0
  0
LINE
  5
11C90
  8
YODOROGO
 10
28041.604341291921
 20
1563.120489948398
 30
0.0
 11
28041.604341291921
 21
1583.120489948401
 31
0.0
  0
LINE
  5
11C91
  8
YODOROGO
 10
28017.604341291921
 20
1585.2370637495301
 30
0.0
 11
28041.604341291921
 21
1563.120489948398
 31
0.0
  0
LINE
  5
11C92
  8
YODOROGO
 10
28017.604341291921
 20
1475.7494964292871
 30
0.0
 11
28017.604341291921
 21
1585.2370637495301
 31
0.0
  0
LINE
  5
11C93
  8
YODOROGO
 10
28001.604341291921
 20
1475.7494964292871
 30
0.0
 11
28017.604341291921
 21
1475.7494964292871
 31
0.0
  0
LINE
  5
11C94
  8
YODOROGO
 10
28001.604341291921
 20
1580.0053496897469
 30
0.0
 11
28001.604341291921
 21
1475.7494964292871
 31
0.0
  0
LINE
  5
11C95
  8
YODOROGO
 10
27977.604341291921
 20
1532.7680790334291
 30
0.0
 11
28001.604341291921
 21
1580.0053496897469
 31
0.0
  0
LINE
  5
11C96
  8
YODOROGO
 10
27977.604341291921
 20
1556.76807903343
 30
0.0
 11
27977.604341291921
 21
1532.7680790334291
 31
0.0
  0
LINE
  5
11C97
  8
YODOROGO
 10
28025.828774291349
 20
1667.749496429285
 30
0.0
 11
27977.604341291921
 21
1556.76807903343
 31
0.0
  0
LINE
  5
11C98
  8
YODOROGO
 10
27977.604341291921
 20
1667.749496429285
 30
0.0
 11
28025.828774291349
 21
1667.749496429285
 31
0.0
  0
LINE
  5
11C99
  8
YODOROGO
 10
28050.135520230899
 20
1655.5036372746561
 30
0.0
 11
28082.135520230921
 21
1655.5036372746561
 31
0.0
1001
AUTOCAD_POSTSCRIPT_FIGURE
1002
{
1000
PSFILL
1000
Grayscale
1000
Grayscale
1070
   100
1002
}
  0
LINE
  5
11C9A
  8
YODOROGO
 10
28050.135520230899
 20
1631.5036372746561
 30
0.0
 11
28050.135520230899
 21
1655.5036372746561
 31
0.0
1001
AUTOCAD_POSTSCRIPT_FIGURE
1002
{
1000
PSFILL
1000
Grayscale
1000
Grayscale
1070
   100
1002
}
  0
LINE
  5
11C9B
  8
YODOROGO
 10
28082.135520230921
 20
1631.5036372746561
 30
0.0
 11
28050.135520230899
 21
1631.5036372746561
 31
0.0
1001
AUTOCAD_POSTSCRIPT_FIGURE
1002
{
1000
PSFILL
1000
Grayscale
1000
Grayscale
1070
   100
1002
}
  0
LINE
  5
11C9C
  8
YODOROGO
 10
28082.135520230921
 20
1499.749496429288
 30
0.0
 11
28082.135520230921
 21
1631.5036372746561
 31
0.0
1001
AUTOCAD_POSTSCRIPT_FIGURE
1002
{
1000
PSFILL
1000
Grayscale
1000
Grayscale
1070
   100
1002
}
  0
LINE
  5
11C9D
  8
YODOROGO
 10
28050.135520230921
 20
1499.749496429288
 30
0.0
 11
28082.135520230921
 21
1499.749496429288
 31
0.0
1001
AUTOCAD_POSTSCRIPT_FIGURE
1002
{
1000
PSFILL
1000
Grayscale
1000
Grayscale
1070
   100
1002
}
  0
LINE
  5
11C9E
  8
YODOROGO
 10
28050.135520230921
 20
1475.7494964292871
 30
0.0
 11
28050.135520230921
 21
1499.749496429288
 31
0.0
1001
AUTOCAD_POSTSCRIPT_FIGURE
1002
{
1000
PSFILL
1000
Grayscale
1000
Grayscale
1070
   100
1002
}
  0
LINE
  5
11C9F
  8
YODOROGO
 10
28137.604341291921
 20
1475.7494964292871
 30
0.0
 11
28050.135520230921
 21
1475.7494964292871
 31
0.0
1001
AUTOCAD_POSTSCRIPT_FIGURE
1002
{
1000
PSFILL
1000
Grayscale
1000
Grayscale
1070
   100
1002
}
  0
LINE
  5
11CA0
  8
YODOROGO
 10
28137.604341291921
 20
1499.749496429288
 30
0.0
 11
28137.604341291921
 21
1475.7494964292871
 31
0.0
1001
AUTOCAD_POSTSCRIPT_FIGURE
1002
{
1000
PSFILL
1000
Grayscale
1000
Grayscale
1070
   100
1002
}
  0
LINE
  5
11CA1
  8
YODOROGO
 10
28098.135520230931
 20
1499.749496429288
 30
0.0
 11
28137.604341291921
 21
1499.749496429288
 31
0.0
1001
AUTOCAD_POSTSCRIPT_FIGURE
1002
{
1000
PSFILL
1000
Grayscale
1000
Grayscale
1070
   100
1002
}
  0
LINE
  5
11CA2
  8
YODOROGO
 10
28098.135520230931
 20
1631.5036372746561
 30
0.0
 11
28098.135520230931
 21
1499.749496429288
 31
0.0
1001
AUTOCAD_POSTSCRIPT_FIGURE
1002
{
1000
PSFILL
1000
Grayscale
1000
Grayscale
1070
   100
1002
}
  0
LINE
  5
11CA3
  8
YODOROGO
 10
28137.604341291921
 20
1631.5036372746561
 30
0.0
 11
28098.135520230931
 21
1631.5036372746561
 31
0.0
1001
AUTOCAD_POSTSCRIPT_FIGURE
1002
{
1000
PSFILL
1000
Grayscale
1000
Grayscale
1070
   100
1002
}
  0
LINE
  5
11CA4
  8
YODOROGO
 10
28137.604341291921
 20
1655.5036372746561
 30
0.0
 11
28137.604341291921
 21
1631.5036372746561
 31
0.0
1001
AUTOCAD_POSTSCRIPT_FIGURE
1002
{
1000
PSFILL
1000
Grayscale
1000
Grayscale
1070
   100
1002
}
  0
LINE
  5
11CA5
  8
YODOROGO
 10
28098.135520230931
 20
1655.5036372746561
 30
0.0
 11
28137.604341291921
 21
1655.5036372746561
 31
0.0
1001
AUTOCAD_POSTSCRIPT_FIGURE
1002
{
1000
PSFILL
1000
Grayscale
1000
Grayscale
1070
   100
1002
}
  0
LINE
  5
11CA6
  8
YODOROGO
 10
28401.60434129191
 20
1667.749496429288
 30
0.0
 11
28345.604341291921
 21
1667.749496429288
 31
0.0
  0
LINE
  5
11CA7
  8
YODOROGO
 10
28401.60434129191
 20
1611.749496429288
 30
0.0
 11
28401.60434129191
 21
1667.749496429288
 31
0.0
  0
LINE
  5
11CA8
  8
YODOROGO
 10
28345.604341291921
 20
1667.749496429288
 30
0.0
 11
28345.604341291921
 21
1611.749496429288
 31
0.0
  0
ARC
  5
11CA9
  8
YODOROGO
 10
28513.60434129191
 20
1507.749496429288
 30
0.0
 40
80.0
 50
180.0
 51
270.0
  0
ARC
  5
11CAA
  8
YODOROGO
 10
28537.604341291921
 20
1563.7494964292871
 30
0.0
 40
40.0
 50
180.0
 51
270.0
  0
LINE
  5
11CAB
  8
YODOROGO
 10
28561.604341291932
 20
1523.7494964292871
 30
0.0
 11
28537.604341291921
 21
1523.7494964292871
 31
0.0
  0
ARC
  5
11CAC
  8
YODOROGO
 10
28561.604341291932
 20
1547.749496429285
 30
0.0
 40
23.999999999996358
 50
270.0
 51
0.0000000000054281
  0
LINE
  5
11CAD
  8
YODOROGO
 10
27801.604341291921
 20
1890.786580793706
 30
0.0
 11
27777.604341291921
 21
1843.776747951672
 31
0.0
1001
AUTOCAD_POSTSCRIPT_FIGURE
1002
{
1000
PSFILL
1000
Grayscale
1000
Grayscale
1070
   100
1002
}
  0
LINE
  5
11CAE
  8
YODOROGO
 10
27801.604341291921
 20
1747.749496429286
 30
0.0
 11
27801.604341291921
 21
1890.786580793706
 31
0.0
1001
AUTOCAD_POSTSCRIPT_FIGURE
1002
{
1000
PSFILL
1000
Grayscale
1000
Grayscale
1070
   100
1002
}
  0
LINE
  5
11CAF
  8
YODOROGO
 10
27817.604341291921
 20
1747.749496429286
 30
0.0
 11
27801.604341291921
 21
1747.749496429286
 31
0.0
1001
AUTOCAD_POSTSCRIPT_FIGURE
1002
{
1000
PSFILL
1000
Grayscale
1000
Grayscale
1070
   100
1002
}
  0
LINE
  5
11CB0
  8
YODOROGO
 10
27817.604341291921
 20
1893.7713320852661
 30
0.0
 11
27817.604341291921
 21
1747.749496429286
 31
0.0
1001
AUTOCAD_POSTSCRIPT_FIGURE
1002
{
1000
PSFILL
1000
Grayscale
1000
Grayscale
1070
   100
1002
}
  0
LINE
  5
11CB1
  8
YODOROGO
 10
27841.604341291921
 20
1867.6547582841361
 30
0.0
 11
27817.604341291921
 21
1893.7713320852661
 31
0.0
1001
AUTOCAD_POSTSCRIPT_FIGURE
1002
{
1000
PSFILL
1000
Grayscale
1000
Grayscale
1070
   100
1002
}
  0
LINE
  5
11CB2
  8
YODOROGO
 10
27841.604341291921
 20
1883.6547582841361
 30
0.0
 11
27841.604341291921
 21
1867.6547582841361
 31
0.0
1001
AUTOCAD_POSTSCRIPT_FIGURE
1002
{
1000
PSFILL
1000
Grayscale
1000
Grayscale
1070
   100
1002
}
  0
LINE
  5
11CB3
  8
YODOROGO
 10
27817.604341291921
 20
1917.7713320852649
 30
0.0
 11
27841.604341291921
 21
1883.6547582841361
 31
0.0
1001
AUTOCAD_POSTSCRIPT_FIGURE
1002
{
1000
PSFILL
1000
Grayscale
1000
Grayscale
1070
   100
1002
}
  0
LINE
  5
11CB4
  8
YODOROGO
 10
27817.604341291921
 20
1939.749496429288
 30
0.0
 11
27817.604341291921
 21
1917.7713320852649
 31
0.0
1001
AUTOCAD_POSTSCRIPT_FIGURE
1002
{
1000
PSFILL
1000
Grayscale
1000
Grayscale
1070
   100
1002
}
  0
LINE
  5
11CB5
  8
YODOROGO
 10
27889.604341291921
 20
1939.749496429288
 30
0.0
 11
27817.604341291921
 21
1939.749496429288
 31
0.0
1001
AUTOCAD_POSTSCRIPT_FIGURE
1002
{
1000
PSFILL
1000
Grayscale
1000
Grayscale
1070
   100
1002
}
  0
LINE
  5
11CB6
  8
YODOROGO
 10
27889.604341291921
 20
1900.5683489363
 30
0.0
 11
27889.604341291921
 21
1939.749496429288
 31
0.0
1001
AUTOCAD_POSTSCRIPT_FIGURE
1002
{
1000
PSFILL
1000
Grayscale
1000
Grayscale
1070
   100
1002
}
  0
LINE
  5
11CB7
  8
YODOROGO
 10
27857.604341291921
 20
1900.5683489363
 30
0.0
 11
27889.604341291921
 21
1900.5683489363
 31
0.0
1001
AUTOCAD_POSTSCRIPT_FIGURE
1002
{
1000
PSFILL
1000
Grayscale
1000
Grayscale
1070
   100
1002
}
  0
LINE
  5
11CB8
  8
YODOROGO
 10
27857.604341291921
 20
1884.568348936298
 30
0.0
 11
27857.604341291921
 21
1900.5683489363
 31
0.0
1001
AUTOCAD_POSTSCRIPT_FIGURE
1002
{
1000
PSFILL
1000
Grayscale
1000
Grayscale
1070
   100
1002
}
  0
LINE
  5
11CB9
  8
YODOROGO
 10
27889.604341291921
 20
1884.568348936298
 30
0.0
 11
27857.604341291921
 21
1884.568348936298
 31
0.0
1001
AUTOCAD_POSTSCRIPT_FIGURE
1002
{
1000
PSFILL
1000
Grayscale
1000
Grayscale
1070
   100
1002
}
  0
LINE
  5
11CBA
  8
YODOROGO
 10
27889.604341291921
 20
1879.6191779644371
 30
0.0
 11
27889.604341291921
 21
1884.568348936298
 31
0.0
1001
AUTOCAD_POSTSCRIPT_FIGURE
1002
{
1000
PSFILL
1000
Grayscale
1000
Grayscale
1070
   100
1002
}
  0
LINE
  5
11CBB
  8
YODOROGO
 10
27849.604341291921
 20
1812.974981161417
 30
0.0
 11
27889.604341291921
 21
1879.6191779644371
 31
0.0
1001
AUTOCAD_POSTSCRIPT_FIGURE
1002
{
1000
PSFILL
1000
Grayscale
1000
Grayscale
1070
   100
1002
}
  0
LINE
  5
11CBC
  8
YODOROGO
 10
27849.604341291921
 20
1796.9749811614161
 30
0.0
 11
27849.604341291921
 21
1812.974981161417
 31
0.0
1001
AUTOCAD_POSTSCRIPT_FIGURE
1002
{
1000
PSFILL
1000
Grayscale
1000
Grayscale
1070
   100
1002
}
  0
LINE
  5
11CBD
  8
YODOROGO
 10
27889.604341291921
 20
1847.6191779644359
 30
0.0
 11
27849.604341291921
 21
1796.9749811614161
 31
0.0
1001
AUTOCAD_POSTSCRIPT_FIGURE
1002
{
1000
PSFILL
1000
Grayscale
1000
Grayscale
1070
   100
1002
}
  0
LINE
  5
11CBE
  8
YODOROGO
 10
27889.604341291921
 20
1747.749496429286
 30
0.0
 11
27889.604341291921
 21
1847.6191779644359
 31
0.0
1001
AUTOCAD_POSTSCRIPT_FIGURE
1002
{
1000
PSFILL
1000
Grayscale
1000
Grayscale
1070
   100
1002
}
  0
LINE
  5
11CBF
  8
YODOROGO
 10
27905.604341291921
 20
1747.749496429286
 30
0.0
 11
27889.604341291921
 21
1747.749496429286
 31
0.0
1001
AUTOCAD_POSTSCRIPT_FIGURE
1002
{
1000
PSFILL
1000
Grayscale
1000
Grayscale
1070
   100
1002
}
  0
LINE
  5
11CC0
  8
YODOROGO
 10
27905.604341291921
 20
1849.409012158806
 30
0.0
 11
27905.604341291921
 21
1747.749496429286
 31
0.0
1001
AUTOCAD_POSTSCRIPT_FIGURE
1002
{
1000
PSFILL
1000
Grayscale
1000
Grayscale
1070
   100
1002
}
  0
LINE
  5
11CC1
  8
YODOROGO
 10
27937.604341291921
 20
1796.9749811614161
 30
0.0
 11
27905.604341291921
 21
1849.409012158806
 31
0.0
1001
AUTOCAD_POSTSCRIPT_FIGURE
1002
{
1000
PSFILL
1000
Grayscale
1000
Grayscale
1070
   100
1002
}
  0
LINE
  5
11CC2
  8
YODOROGO
 10
27937.604341291921
 20
1812.974981161417
 30
0.0
 11
27937.604341291921
 21
1796.9749811614161
 31
0.0
1001
AUTOCAD_POSTSCRIPT_FIGURE
1002
{
1000
PSFILL
1000
Grayscale
1000
Grayscale
1070
   100
1002
}
  0
LINE
  5
11CC3
  8
YODOROGO
 10
27905.604341291921
 20
1881.4090121588081
 30
0.0
 11
27937.604341291921
 21
1812.974981161417
 31
0.0
1001
AUTOCAD_POSTSCRIPT_FIGURE
1002
{
1000
PSFILL
1000
Grayscale
1000
Grayscale
1070
   100
1002
}
  0
LINE
  5
11CC4
  8
YODOROGO
 10
27905.604341291921
 20
1884.5683489363
 30
0.0
 11
27905.604341291921
 21
1881.4090121588081
 31
0.0
1001
AUTOCAD_POSTSCRIPT_FIGURE
1002
{
1000
PSFILL
1000
Grayscale
1000
Grayscale
1070
   100
1002
}
  0
LINE
  5
11CC5
  8
YODOROGO
 10
27937.604341291921
 20
1884.568348936298
 30
0.0
 11
27905.604341291921
 21
1884.5683489363
 31
0.0
1001
AUTOCAD_POSTSCRIPT_FIGURE
1002
{
1000
PSFILL
1000
Grayscale
1000
Grayscale
1070
   100
1002
}
  0
LINE
  5
11CC6
  8
YODOROGO
 10
27937.604341291921
 20
1900.5683489363
 30
0.0
 11
27937.604341291921
 21
1884.568348936298
 31
0.0
1001
AUTOCAD_POSTSCRIPT_FIGURE
1002
{
1000
PSFILL
1000
Grayscale
1000
Grayscale
1070
   100
1002
}
  0
LINE
  5
11CC7
  8
YODOROGO
 10
27905.604341291921
 20
1900.5683489363
 30
0.0
 11
27937.604341291921
 21
1900.5683489363
 31
0.0
1001
AUTOCAD_POSTSCRIPT_FIGURE
1002
{
1000
PSFILL
1000
Grayscale
1000
Grayscale
1070
   100
1002
}
  0
LINE
  5
11CC8
  8
YODOROGO
 10
27905.604341291921
 20
1939.749496429288
 30
0.0
 11
27905.604341291921
 21
1900.5683489363
 31
0.0
1001
AUTOCAD_POSTSCRIPT_FIGURE
1002
{
1000
PSFILL
1000
Grayscale
1000
Grayscale
1070
   100
1002
}
  0
LINE
  5
11CC9
  8
YODOROGO
 10
27937.604341291921
 20
1939.749496429288
 30
0.0
 11
27905.604341291921
 21
1939.749496429288
 31
0.0
1001
AUTOCAD_POSTSCRIPT_FIGURE
1002
{
1000
PSFILL
1000
Grayscale
1000
Grayscale
1070
   100
1002
}
  0
LINE
  5
11CCA
  8
YODOROGO
 10
27937.604341291921
 20
1955.7494964292871
 30
0.0
 11
27937.604341291921
 21
1939.749496429288
 31
0.0
1001
AUTOCAD_POSTSCRIPT_FIGURE
1002
{
1000
PSFILL
1000
Grayscale
1000
Grayscale
1070
   100
1002
}
  0
LINE
  5
11CCB
  8
YODOROGO
 10
27905.604341291921
 20
1955.7494964292871
 30
0.0
 11
27937.604341291921
 21
1955.7494964292871
 31
0.0
1001
AUTOCAD_POSTSCRIPT_FIGURE
1002
{
1000
PSFILL
1000
Grayscale
1000
Grayscale
1070
   100
1002
}
  0
LINE
  5
11CCC
  8
YODOROGO
 10
27905.604341291921
 20
1979.749496429288
 30
0.0
 11
27905.604341291921
 21
1955.7494964292871
 31
0.0
1001
AUTOCAD_POSTSCRIPT_FIGURE
1002
{
1000
PSFILL
1000
Grayscale
1000
Grayscale
1070
   100
1002
}
  0
LINE
  5
11CCD
  8
YODOROGO
 10
27889.604341291921
 20
1979.749496429288
 30
0.0
 11
27905.604341291921
 21
1979.749496429288
 31
0.0
1001
AUTOCAD_POSTSCRIPT_FIGURE
1002
{
1000
PSFILL
1000
Grayscale
1000
Grayscale
1070
   100
1002
}
  0
LINE
  5
11CCE
  8
YODOROGO
 10
27889.604341291921
 20
1955.7494964292871
 30
0.0
 11
27889.604341291921
 21
1979.749496429288
 31
0.0
1001
AUTOCAD_POSTSCRIPT_FIGURE
1002
{
1000
PSFILL
1000
Grayscale
1000
Grayscale
1070
   100
1002
}
  0
LINE
  5
11CCF
  8
YODOROGO
 10
27865.604341291921
 20
1955.7494964292871
 30
0.0
 11
27889.604341291921
 21
1955.7494964292871
 31
0.0
1001
AUTOCAD_POSTSCRIPT_FIGURE
1002
{
1000
PSFILL
1000
Grayscale
1000
Grayscale
1070
   100
1002
}
  0
LINE
  5
11CD0
  8
YODOROGO
 10
27865.604341291921
 20
1979.749496429288
 30
0.0
 11
27865.604341291921
 21
1955.7494964292871
 31
0.0
1001
AUTOCAD_POSTSCRIPT_FIGURE
1002
{
1000
PSFILL
1000
Grayscale
1000
Grayscale
1070
   100
1002
}
  0
LINE
  5
11CD1
  8
YODOROGO
 10
27849.604341291921
 20
1979.749496429288
 30
0.0
 11
27865.604341291921
 21
1979.749496429288
 31
0.0
1001
AUTOCAD_POSTSCRIPT_FIGURE
1002
{
1000
PSFILL
1000
Grayscale
1000
Grayscale
1070
   100
1002
}
  0
LINE
  5
11CD2
  8
YODOROGO
 10
27849.604341291921
 20
1955.7494964292871
 30
0.0
 11
27849.604341291921
 21
1979.749496429288
 31
0.0
1001
AUTOCAD_POSTSCRIPT_FIGURE
1002
{
1000
PSFILL
1000
Grayscale
1000
Grayscale
1070
   100
1002
}
  0
LINE
  5
11CD3
  8
YODOROGO
 10
27817.604341291921
 20
1955.7494964292871
 30
0.0
 11
27849.604341291921
 21
1955.7494964292871
 31
0.0
1001
AUTOCAD_POSTSCRIPT_FIGURE
1002
{
1000
PSFILL
1000
Grayscale
1000
Grayscale
1070
   100
1002
}
  0
LINE
  5
11CD4
  8
YODOROGO
 10
27817.604341291921
 20
1979.749496429288
 30
0.0
 11
27817.604341291921
 21
1955.7494964292871
 31
0.0
1001
AUTOCAD_POSTSCRIPT_FIGURE
1002
{
1000
PSFILL
1000
Grayscale
1000
Grayscale
1070
   100
1002
}
  0
LINE
  5
11CD5
  8
YODOROGO
 10
27801.604341291921
 20
1979.749496429288
 30
0.0
 11
27817.604341291921
 21
1979.749496429288
 31
0.0
1001
AUTOCAD_POSTSCRIPT_FIGURE
1002
{
1000
PSFILL
1000
Grayscale
1000
Grayscale
1070
   100
1002
}
  0
LINE
  5
11CD6
  8
YODOROGO
 10
27801.604341291921
 20
1955.7494964292871
 30
0.0
 11
27801.604341291921
 21
1979.749496429288
 31
0.0
1001
AUTOCAD_POSTSCRIPT_FIGURE
1002
{
1000
PSFILL
1000
Grayscale
1000
Grayscale
1070
   100
1002
}
  0
LINE
  5
11CD7
  8
YODOROGO
 10
27777.604341291921
 20
1955.7494964292871
 30
0.0
 11
27801.604341291921
 21
1955.7494964292871
 31
0.0
1001
AUTOCAD_POSTSCRIPT_FIGURE
1002
{
1000
PSFILL
1000
Grayscale
1000
Grayscale
1070
   100
1002
}
  0
LINE
  5
11CD8
  8
YODOROGO
 10
27777.604341291921
 20
1939.749496429288
 30
0.0
 11
27777.604341291921
 21
1955.7494964292871
 31
0.0
1001
AUTOCAD_POSTSCRIPT_FIGURE
1002
{
1000
PSFILL
1000
Grayscale
1000
Grayscale
1070
   100
1002
}
  0
LINE
  5
11CD9
  8
YODOROGO
 10
27801.604341291921
 20
1939.749496429288
 30
0.0
 11
27777.604341291921
 21
1939.749496429288
 31
0.0
1001
AUTOCAD_POSTSCRIPT_FIGURE
1002
{
1000
PSFILL
1000
Grayscale
1000
Grayscale
1070
   100
1002
}
  0
LINE
  5
11CDA
  8
YODOROGO
 10
27801.604341291921
 20
1914.7865807937051
 30
0.0
 11
27801.604341291921
 21
1939.749496429288
 31
0.0
1001
AUTOCAD_POSTSCRIPT_FIGURE
1002
{
1000
PSFILL
1000
Grayscale
1000
Grayscale
1070
   100
1002
}
  0
LINE
  5
11CDB
  8
YODOROGO
 10
27777.604341291921
 20
1859.776747951671
 30
0.0
 11
27801.604341291921
 21
1914.7865807937051
 31
0.0
1001
AUTOCAD_POSTSCRIPT_FIGURE
1002
{
1000
PSFILL
1000
Grayscale
1000
Grayscale
1070
   100
1002
}
  0
LINE
  5
11CDC
  8
YODOROGO
 10
27777.604341291921
 20
1843.776747951672
 30
0.0
 11
27777.604341291921
 21
1859.776747951671
 31
0.0
1001
AUTOCAD_POSTSCRIPT_FIGURE
1002
{
1000
PSFILL
1000
Grayscale
1000
Grayscale
1070
   100
1002
}
  0
LINE
  5
11CDD
  8
YODOROGO
 10
28257.604341291921
 20
1867.7494964292871
 30
0.0
 11
28401.60434129191
 21
1824.877625640306
 31
0.0
1001
AUTOCAD_POSTSCRIPT_FIGURE
1002
{
1000
PSFILL
1000
Grayscale
1000
Grayscale
1070
   100
1002
}
  0
LINE
  5
11CDE
  8
YODOROGO
 10
28401.60434129191
 20
1752.877625640306
 30
0.0
 11
28257.604341291921
 21
1795.7494964292871
 31
0.0
1001
AUTOCAD_POSTSCRIPT_FIGURE
1002
{
1000
PSFILL
1000
Grayscale
1000
Grayscale
1070
   100
1002
}
  0
LINE
  5
11CDF
  8
YODOROGO
 10
28401.60434129191
 20
1984.877625640306
 30
0.0
 11
28257.604341291921
 21
2027.749496429288
 31
0.0
1001
AUTOCAD_POSTSCRIPT_FIGURE
1002
{
1000
PSFILL
1000
Grayscale
1000
Grayscale
1070
   100
1002
}
  0
LINE
  5
11CE0
  8
YODOROGO
 10
28257.604341291921
 20
1959.749496429288
 30
0.0
 11
28401.60434129191
 21
1916.8776256403071
 31
0.0
1001
AUTOCAD_POSTSCRIPT_FIGURE
1002
{
1000
PSFILL
1000
Grayscale
1000
Grayscale
1070
   100
1002
}
  0
LINE
  5
11CE1
  8
YODOROGO
 10
28257.604341291921
 20
1795.7494964292871
 30
0.0
 11
28257.604341291921
 21
1867.7494964292871
 31
0.0
1001
AUTOCAD_POSTSCRIPT_FIGURE
1002
{
1000
PSFILL
1000
Grayscale
1000
Grayscale
1070
   100
1002
}
  0
LINE
  5
11CE2
  8
YODOROGO
 10
28257.604341291921
 20
2027.749496429288
 30
0.0
 11
28257.604341291921
 21
1959.749496429288
 31
0.0
1001
AUTOCAD_POSTSCRIPT_FIGURE
1002
{
1000
PSFILL
1000
Grayscale
1000
Grayscale
1070
   100
1002
}
  0
LINE
  5
11CE3
  8
YODOROGO
 10
28080.236320206739
 20
1939.749496429288
 30
0.0
 11
28129.60434129191
 21
1747.749496429286
 31
0.0
1001
AUTOCAD_POSTSCRIPT_FIGURE
1002
{
1000
PSFILL
1000
Grayscale
1000
Grayscale
1070
   100
1002
}
  0
LINE
  5
11CE4
  8
YODOROGO
 10
27977.604341291921
 20
1939.749496429288
 30
0.0
 11
28080.236320206739
 21
1939.749496429288
 31
0.0
1001
AUTOCAD_POSTSCRIPT_FIGURE
1002
{
1000
PSFILL
1000
Grayscale
1000
Grayscale
1070
   100
1002
}
  0
LINE
  5
11CE5
  8
YODOROGO
 10
27977.604341291921
 20
1955.7494964292871
 30
0.0
 11
27977.604341291921
 21
1939.749496429288
 31
0.0
1001
AUTOCAD_POSTSCRIPT_FIGURE
1002
{
1000
PSFILL
1000
Grayscale
1000
Grayscale
1070
   100
1002
}
  0
LINE
  5
11CE6
  8
YODOROGO
 10
28076.60687851991
 20
1955.7494964292871
 30
0.0
 11
27977.604341291921
 21
1955.7494964292871
 31
0.0
1001
AUTOCAD_POSTSCRIPT_FIGURE
1002
{
1000
PSFILL
1000
Grayscale
1000
Grayscale
1070
   100
1002
}
  0
LINE
  5
11CE7
  8
YODOROGO
 10
28071.162715989711
 20
1979.749496429288
 30
0.0
 11
28076.60687851991
 21
1955.7494964292871
 31
0.0
1001
AUTOCAD_POSTSCRIPT_FIGURE
1002
{
1000
PSFILL
1000
Grayscale
1000
Grayscale
1070
   100
1002
}
  0
LINE
  5
11CE8
  8
YODOROGO
 10
28091.162715989711
 20
1979.749496429288
 30
0.0
 11
28071.162715989711
 21
1979.749496429288
 31
0.0
1001
AUTOCAD_POSTSCRIPT_FIGURE
1002
{
1000
PSFILL
1000
Grayscale
1000
Grayscale
1070
   100
1002
}
  0
LINE
  5
11CE9
  8
YODOROGO
 10
28095.806878519939
 20
1955.7494964292871
 30
0.0
 11
28091.162715989711
 21
1979.749496429288
 31
0.0
1001
AUTOCAD_POSTSCRIPT_FIGURE
1002
{
1000
PSFILL
1000
Grayscale
1000
Grayscale
1070
   100
1002
}
  0
LINE
  5
11CEA
  8
YODOROGO
 10
28121.604341291921
 20
1955.7494964292871
 30
0.0
 11
28095.806878519939
 21
1955.7494964292871
 31
0.0
1001
AUTOCAD_POSTSCRIPT_FIGURE
1002
{
1000
PSFILL
1000
Grayscale
1000
Grayscale
1070
   100
1002
}
  0
LINE
  5
11CEB
  8
YODOROGO
 10
28121.604341291921
 20
1979.749496429288
 30
0.0
 11
28121.604341291921
 21
1955.7494964292871
 31
0.0
1001
AUTOCAD_POSTSCRIPT_FIGURE
1002
{
1000
PSFILL
1000
Grayscale
1000
Grayscale
1070
   100
1002
}
  0
LINE
  5
11CEC
  8
YODOROGO
 10
28137.604341291921
 20
1979.749496429288
 30
0.0
 11
28121.604341291921
 21
1979.749496429288
 31
0.0
1001
AUTOCAD_POSTSCRIPT_FIGURE
1002
{
1000
PSFILL
1000
Grayscale
1000
Grayscale
1070
   100
1002
}
  0
LINE
  5
11CED
  8
YODOROGO
 10
28137.604341291921
 20
1955.7494964292871
 30
0.0
 11
28137.604341291921
 21
1979.749496429288
 31
0.0
1001
AUTOCAD_POSTSCRIPT_FIGURE
1002
{
1000
PSFILL
1000
Grayscale
1000
Grayscale
1070
   100
1002
}
  0
LINE
  5
11CEE
  8
YODOROGO
 10
28137.604341291921
 20
1939.749496429288
 30
0.0
 11
28137.604341291921
 21
1955.7494964292871
 31
0.0
1001
AUTOCAD_POSTSCRIPT_FIGURE
1002
{
1000
PSFILL
1000
Grayscale
1000
Grayscale
1070
   100
1002
}
  0
LINE
  5
11CEF
  8
YODOROGO
 10
28098.902986873411
 20
1939.749496429288
 30
0.0
 11
28137.604341291921
 21
1939.749496429288
 31
0.0
1001
AUTOCAD_POSTSCRIPT_FIGURE
1002
{
1000
PSFILL
1000
Grayscale
1000
Grayscale
1070
   100
1002
}
  0
LINE
  5
11CF0
  8
YODOROGO
 10
28137.604341291921
 20
1747.749496429286
 30
0.0
 11
28098.902986873411
 21
1939.749496429288
 31
0.0
1001
AUTOCAD_POSTSCRIPT_FIGURE
1002
{
1000
PSFILL
1000
Grayscale
1000
Grayscale
1070
   100
1002
}
  0
LINE
  5
11CF1
  8
YODOROGO
 10
28129.60434129191
 20
1747.749496429286
 30
0.0
 11
28137.604341291921
 21
1747.749496429286
 31
0.0
1001
AUTOCAD_POSTSCRIPT_FIGURE
1002
{
1000
PSFILL
1000
Grayscale
1000
Grayscale
1070
   100
1002
}
  0
LINE
  5
11CF2
  8
YODOROGO
 10
28078.06921993379
 20
1775.7407762987939
 30
0.0
 11
27977.604341291921
 21
1747.749496429286
 31
0.0
  0
LINE
  5
11CF3
  8
YODOROGO
 10
28078.06921993379
 20
1798.6689795290731
 30
0.0
 11
28078.06921993379
 21
1775.7407762987939
 31
0.0
  0
LINE
  5
11CF4
  8
YODOROGO
 10
28033.83678061287
 20
1786.816933133767
 30
0.0
 11
28078.06921993379
 21
1798.6689795290731
 31
0.0
  0
LINE
  5
11CF5
  8
YODOROGO
 10
28033.83678061287
 20
1872.5683489362989
 30
0.0
 11
28033.83678061287
 21
1786.816933133767
 31
0.0
  0
LINE
  5
11CF6
  8
YODOROGO
 10
28078.06921993379
 20
1872.5683489362989
 30
0.0
 11
28033.83678061287
 21
1872.5683489362989
 31
0.0
  0
LINE
  5
11CF7
  8
YODOROGO
 10
28078.06921993379
 20
1892.568348936298
 30
0.0
 11
28078.06921993379
 21
1872.5683489362989
 31
0.0
  0
LINE
  5
11CF8
  8
YODOROGO
 10
27977.604341291921
 20
1892.568348936298
 30
0.0
 11
28078.06921993379
 21
1892.568348936298
 31
0.0
  0
LINE
  5
11CF9
  8
YODOROGO
 10
27977.604341291921
 20
1872.5683489362989
 30
0.0
 11
27977.604341291921
 21
1892.568348936298
 31
0.0
  0
LINE
  5
11CFA
  8
YODOROGO
 10
28021.836780612852
 20
1872.5683489362989
 30
0.0
 11
27977.604341291921
 21
1872.5683489362989
 31
0.0
  0
LINE
  5
11CFB
  8
YODOROGO
 10
28021.836780612852
 20
1784.673339594317
 30
0.0
 11
28021.836780612852
 21
1872.5683489362989
 31
0.0
  0
LINE
  5
11CFC
  8
YODOROGO
 10
27977.604341291921
 20
1771.749496429286
 30
0.0
 11
28021.836780612852
 21
1784.673339594317
 31
0.0
  0
LINE
  5
11CFD
  8
YODOROGO
 10
27977.604341291921
 20
1747.749496429286
 30
0.0
 11
27977.604341291921
 21
1771.749496429286
 31
0.0
  0
LINE
  5
11CFE
  8
YODOROGO
 10
28001.604341291921
 20
1707.749496429288
 30
0.0
 11
28001.604341291921
 21
1683.7494964292871
 31
0.0
  0
LINE
  5
11CFF
  8
YODOROGO
 10
28017.604341291921
 20
1707.749496429288
 30
0.0
 11
28001.604341291921
 21
1707.749496429288
 31
0.0
  0
LINE
  5
11D00
  8
YODOROGO
 10
28017.604341291921
 20
1683.7494964292871
 30
0.0
 11
28017.604341291921
 21
1707.749496429288
 31
0.0
  0
LINE
  5
11D01
  8
YODOROGO
 10
28040.913204016892
 20
1683.7494964292871
 30
0.0
 11
28017.604341291921
 21
1683.7494964292871
 31
0.0
  0
LINE
  5
11D02
  8
YODOROGO
 10
28001.604341291921
 20
1683.7494964292871
 30
0.0
 11
27977.604341291921
 21
1683.7494964292871
 31
0.0
  0
LINE
  5
11D03
  8
YODOROGO
 10
28082.135520230921
 20
1707.749496429288
 30
0.0
 11
28098.135520230931
 21
1707.749496429288
 31
0.0
1001
AUTOCAD_POSTSCRIPT_FIGURE
1002
{
1000
PSFILL
1000
Grayscale
1000
Grayscale
1070
   100
1002
}
  0
LINE
  5
11D04
  8
YODOROGO
 10
28401.60434129191
 20
1824.877625640306
 30
0.0
 11
28401.60434129191
 21
1752.877625640306
 31
0.0
1001
AUTOCAD_POSTSCRIPT_FIGURE
1002
{
1000
PSFILL
1000
Grayscale
1000
Grayscale
1070
   100
1002
}
  0
LINE
  5
11D05
  8
YODOROGO
 10
28401.60434129191
 20
1916.8776256403071
 30
0.0
 11
28401.60434129191
 21
1984.877625640306
 31
0.0
1001
AUTOCAD_POSTSCRIPT_FIGURE
1002
{
1000
PSFILL
1000
Grayscale
1000
Grayscale
1070
   100
1002
}
  0
LINE
  5
11D06
  8
YODOROGO
 10
28433.60434129191
 20
1819.7494964292871
 30
0.0
 11
28433.60434129191
 21
1747.74949642929
 31
0.0
  0
LINE
  5
11D07
  8
YODOROGO
 10
28497.60434129191
 20
1707.749496429288
 30
0.0
 11
28433.60434129191
 21
1707.749496429288
 31
0.0
  0
LINE
  5
11D08
  8
YODOROGO
 10
28433.60434129191
 20
1747.74949642929
 30
0.0
 11
28585.604341291921
 21
1747.74949642929
 31
0.0
  0
LINE
  5
11D09
  8
YODOROGO
 10
28497.60434129191
 20
1867.7494964292871
 30
0.0
 11
28433.60434129191
 21
1867.7494964292871
 31
0.0
  0
LINE
  5
11D0A
  8
YODOROGO
 10
28497.60434129191
 20
1923.7494964292871
 30
0.0
 11
28497.60434129191
 21
1867.7494964292871
 31
0.0
  0
LINE
  5
11D0B
  8
YODOROGO
 10
28585.604341291921
 20
1987.7494964292871
 30
0.0
 11
28585.604341291921
 21
2027.749496429288
 31
0.0
  0
LINE
  5
11D0C
  8
YODOROGO
 10
28433.60434129191
 20
1987.7494964292871
 30
0.0
 11
28585.604341291921
 21
1987.7494964292871
 31
0.0
  0
LINE
  5
11D0D
  8
YODOROGO
 10
28433.60434129191
 20
1867.7494964292871
 30
0.0
 11
28433.60434129191
 21
1987.7494964292871
 31
0.0
  0
LINE
  5
11D0E
  8
YODOROGO
 10
29001.60434129191
 20
2027.749496429288
 30
0.0
 11
29001.60434129191
 21
1619.749496429288
 31
0.0
  0
LINE
  5
11D0F
  8
YODOROGO
 10
29073.604341291921
 20
1579.749496429288
 30
0.0
 11
29073.604341291921
 21
2027.749496429288
 31
0.0
  0
LINE
  5
11D10
  8
YODOROGO
 10
29261.604341291921
 20
1491.749496429286
 30
0.0
 11
29261.604341291921
 21
2007.749496429288
 31
0.0
  0
LINE
  5
11D11
  8
YODOROGO
 10
29197.604341291921
 20
2007.749496429288
 30
0.0
 11
29197.604341291921
 21
1491.749496429286
 31
0.0
  0
LINE
  5
11D12
  8
YODOROGO
 10
29385.604341291921
 20
2027.749496429288
 30
0.0
 11
29385.604341291921
 21
1427.749496429288
 31
0.0
  0
LINE
  5
11D13
  8
YODOROGO
 10
29457.604341291921
 20
1427.749496429288
 30
0.0
 11
29457.604341291921
 21
2027.749496429288
 31
0.0
  0
LINE
  5
11D14
  8
YODOROGO
 10
28657.604341291921
 20
1667.749496429288
 30
0.0
 11
28657.604341291921
 21
1747.74949642929
 31
0.0
  0
LINE
  5
11D15
  8
YODOROGO
 10
29885.604341291921
 20
1707.749496429288
 30
0.0
 11
29885.604341291921
 21
1667.749496429288
 31
0.0
  0
LINE
  5
11D16
  8
YODOROGO
 10
29885.604341291921
 20
1707.749496429288
 30
0.0
 11
29885.604341291921
 21
1667.749496429288
 31
0.0
  0
ARC
  5
11D17
  8
YODOROGO
 10
28906.911576186842
 20
1618.217864442272
 30
0.0
 40
94.705151178741644
 50
274.05244162907098
 51
0.9266642149310712
  0
ARC
  5
11D18
  8
YODOROGO
 10
28909.186170719819
 20
1592.61072861044
 30
0.0
 40
164.92042356085511
 50
271.5351210653775
 51
355.52727750585052
  0
LINE
  5
11D19
  8
YODOROGO
 10
28913.604341291921
 20
1523.7494964292871
 30
0.0
 11
28913.604341291921
 21
1427.749496429288
 31
0.0
  0
LINE
  5
11D1A
  8
YODOROGO
 10
28793.60434129191
 20
1667.749496429288
 30
0.0
 11
28657.604341291921
 21
1667.749496429288
 31
0.0
  0
LINE
  5
11D1B
  8
YODOROGO
 10
28793.60434129191
 20
1603.7494964292871
 30
0.0
 11
28793.60434129191
 21
1667.749496429288
 31
0.0
  0
LINE
  5
11D1C
  8
YODOROGO
 10
28657.604341291921
 20
1603.7494964292871
 30
0.0
 11
28793.60434129191
 21
1603.7494964292871
 31
0.0
  0
LINE
  5
11D1D
  8
YODOROGO
 10
28657.604341291921
 20
1523.7494964292871
 30
0.0
 11
28657.604341291921
 21
1603.7494964292871
 31
0.0
  0
LINE
  5
11D1E
  8
YODOROGO
 10
28793.60434129191
 20
1523.7494964292871
 30
0.0
 11
28657.604341291921
 21
1523.7494964292871
 31
0.0
  0
LINE
  5
11D1F
  8
YODOROGO
 10
28793.60434129191
 20
1427.749496429288
 30
0.0
 11
28793.60434129191
 21
1523.7494964292871
 31
0.0
  0
LINE
  5
11D20
  8
YODOROGO
 10
29197.604341291921
 20
1491.749496429286
 30
0.0
 11
29261.604341291921
 21
1491.749496429286
 31
0.0
  0
LINE
  5
11D21
  8
YODOROGO
 10
29385.604341291921
 20
1427.749496429288
 30
0.0
 11
29457.604341291921
 21
1427.749496429288
 31
0.0
  0
LINE
  5
11D22
  8
YODOROGO
 10
29737.604341291921
 20
1528.4414521705639
 30
0.0
 11
29737.604341291921
 21
1427.749496429288
 31
0.0
  0
LINE
  5
11D23
  8
YODOROGO
 10
29617.604341291921
 20
1427.749496429288
 30
0.0
 11
29737.604341291921
 21
1528.4414521705639
 31
0.0
  0
LINE
  5
11D24
  8
YODOROGO
 10
29617.604341291921
 20
1547.749496429288
 30
0.0
 11
29617.604341291921
 21
1427.749496429288
 31
0.0
  0
LINE
  5
11D25
  8
YODOROGO
 10
29712.94462869945
 20
1627.749496429288
 30
0.0
 11
29617.604341291921
 21
1547.749496429288
 31
0.0
  0
LINE
  5
11D26
  8
YODOROGO
 10
29617.604341291921
 20
1627.749496429288
 30
0.0
 11
29712.94462869945
 21
1627.749496429288
 31
0.0
  0
LINE
  5
11D27
  8
YODOROGO
 10
29617.604341291921
 20
1667.749496429288
 30
0.0
 11
29617.604341291921
 21
1627.749496429288
 31
0.0
  0
LINE
  5
11D28
  8
YODOROGO
 10
29885.604341291921
 20
1667.749496429288
 30
0.0
 11
29617.604341291921
 21
1667.749496429288
 31
0.0
  0
LINE
  5
11D29
  8
YODOROGO
 10
29917.604341291921
 20
1627.749496429288
 30
0.0
 11
29777.604341291921
 21
1627.749496429288
 31
0.0
  0
LINE
  5
11D2A
  8
YODOROGO
 10
29777.604341291921
 20
1562.0054374176559
 30
0.0
 11
29771.409872985321
 21
1556.807661346234
 31
0.0
  0
LINE
  5
11D2B
  8
YODOROGO
 10
29777.604341291921
 20
1627.749496429288
 30
0.0
 11
29777.604341291921
 21
1562.0054374176559
 31
0.0
  0
LINE
  5
11D2C
  8
YODOROGO
 10
29737.604341291921
 20
1528.4414521705639
 30
0.0
 11
29737.604341291921
 21
1427.749496429288
 31
0.0
  0
LINE
  5
11D2D
  8
YODOROGO
 10
29617.604341291921
 20
1427.749496429288
 30
0.0
 11
29737.604341291921
 21
1528.4414521705639
 31
0.0
  0
LINE
  5
11D2E
  8
YODOROGO
 10
29617.604341291921
 20
1547.749496429288
 30
0.0
 11
29617.604341291921
 21
1427.749496429288
 31
0.0
  0
LINE
  5
11D2F
  8
YODOROGO
 10
29712.94462869945
 20
1627.749496429288
 30
0.0
 11
29617.604341291921
 21
1547.749496429288
 31
0.0
  0
LINE
  5
11D30
  8
YODOROGO
 10
29617.604341291921
 20
1627.749496429288
 30
0.0
 11
29712.94462869945
 21
1627.749496429288
 31
0.0
  0
LINE
  5
11D31
  8
YODOROGO
 10
29617.604341291921
 20
1667.749496429288
 30
0.0
 11
29617.604341291921
 21
1627.749496429288
 31
0.0
  0
LINE
  5
11D32
  8
YODOROGO
 10
29885.604341291921
 20
1667.749496429288
 30
0.0
 11
29617.604341291921
 21
1667.749496429288
 31
0.0
  0
LINE
  5
11D33
  8
YODOROGO
 10
28793.60434129191
 20
1747.74949642929
 30
0.0
 11
28793.60434129191
 21
1819.7494964292871
 31
0.0
  0
LINE
  5
11D34
  8
YODOROGO
 10
28657.604341291921
 20
1747.74949642929
 30
0.0
 11
28793.60434129191
 21
1747.74949642929
 31
0.0
  0
LINE
  5
11D35
  8
YODOROGO
 10
28729.604341291921
 20
1867.7494964292871
 30
0.0
 11
28729.604341291921
 21
1923.7494964292871
 31
0.0
  0
LINE
  5
11D36
  8
YODOROGO
 10
28793.60434129191
 20
1867.7494964292871
 30
0.0
 11
28729.604341291921
 21
1867.7494964292871
 31
0.0
  0
LINE
  5
11D37
  8
YODOROGO
 10
28793.60434129191
 20
1947.749496429288
 30
0.0
 11
28793.60434129191
 21
1867.7494964292871
 31
0.0
  0
ARC
  5
11D38
  8
YODOROGO
 10
28753.60434129191
 20
1947.749496429288
 30
0.0
 40
40.0
 50
0.0
 51
90.0
  0
LINE
  5
11D39
  8
YODOROGO
 10
28657.604341291921
 20
1987.7494964292871
 30
0.0
 11
28753.60434129191
 21
1987.7494964292871
 31
0.0
  0
LINE
  5
11D3A
  8
YODOROGO
 10
28657.604341291921
 20
2027.749496429288
 30
0.0
 11
28657.604341291921
 21
1987.7494964292871
 31
0.0
  0
LINE
  5
11D3B
  8
YODOROGO
 10
29073.604341291921
 20
2027.749496429288
 30
0.0
 11
29001.60434129191
 21
2027.749496429288
 31
0.0
  0
LINE
  5
11D3C
  8
YODOROGO
 10
29261.604341291921
 20
2007.749496429288
 30
0.0
 11
29197.604341291921
 21
2007.749496429288
 31
0.0
  0
LINE
  5
11D3D
  8
YODOROGO
 10
29457.604341291921
 20
2027.749496429288
 30
0.0
 11
29385.604341291921
 21
2027.749496429288
 31
0.0
  0
LINE
  5
11D3E
  8
YODOROGO
 10
29673.604341291921
 20
1707.749496429288
 30
0.0
 11
29673.604341291921
 21
1771.7494964292871
 31
0.0
1001
AUTOCAD_POSTSCRIPT_FIGURE
1002
{
1000
PSFILL
1000
Grayscale
1000
Grayscale
1070
    25
1002
}
  0
LINE
  5
11D3F
  8
YODOROGO
 10
29617.604341291921
 20
1707.749496429288
 30
0.0
 11
29673.604341291921
 21
1707.749496429288
 31
0.0
1001
AUTOCAD_POSTSCRIPT_FIGURE
1002
{
1000
PSFILL
1000
Grayscale
1000
Grayscale
1070
    25
1002
}
  0
LINE
  5
11D40
  8
YODOROGO
 10
29617.604341291921
 20
1819.7494964292871
 30
0.0
 11
29617.604341291921
 21
1707.749496429288
 31
0.0
1001
AUTOCAD_POSTSCRIPT_FIGURE
1002
{
1000
PSFILL
1000
Grayscale
1000
Grayscale
1070
    25
1002
}
  0
LINE
  5
11D41
  8
YODOROGO
 10
29765.604341291921
 20
1819.7494964292871
 30
0.0
 11
29617.604341291921
 21
1819.7494964292871
 31
0.0
1001
AUTOCAD_POSTSCRIPT_FIGURE
1002
{
1000
PSFILL
1000
Grayscale
1000
Grayscale
1070
    25
1002
}
  0
LINE
  5
11D42
  8
YODOROGO
 10
29765.604341291921
 20
1859.749496429288
 30
0.0
 11
29765.604341291921
 21
1819.7494964292871
 31
0.0
1001
AUTOCAD_POSTSCRIPT_FIGURE
1002
{
1000
PSFILL
1000
Grayscale
1000
Grayscale
1070
    25
1002
}
  0
LINE
  5
11D43
  8
YODOROGO
 10
29617.604341291921
 20
1859.749496429288
 30
0.0
 11
29765.604341291921
 21
1859.749496429288
 31
0.0
1001
AUTOCAD_POSTSCRIPT_FIGURE
1002
{
1000
PSFILL
1000
Grayscale
1000
Grayscale
1070
    25
1002
}
  0
LINE
  5
11D44
  8
YODOROGO
 10
29617.604341291921
 20
1907.7494964292871
 30
0.0
 11
29617.604341291921
 21
1859.749496429288
 31
0.0
1001
AUTOCAD_POSTSCRIPT_FIGURE
1002
{
1000
PSFILL
1000
Grayscale
1000
Grayscale
1070
    25
1002
}
  0
LINE
  5
11D45
  8
YODOROGO
 10
29765.604341291921
 20
1907.7494964292871
 30
0.0
 11
29617.604341291921
 21
1907.7494964292871
 31
0.0
1001
AUTOCAD_POSTSCRIPT_FIGURE
1002
{
1000
PSFILL
1000
Grayscale
1000
Grayscale
1070
    25
1002
}
  0
LINE
  5
11D46
  8
YODOROGO
 10
29765.604341291921
 20
1947.749496429288
 30
0.0
 11
29765.604341291921
 21
1907.7494964292871
 31
0.0
1001
AUTOCAD_POSTSCRIPT_FIGURE
1002
{
1000
PSFILL
1000
Grayscale
1000
Grayscale
1070
    25
1002
}
  0
LINE
  5
11D47
  8
YODOROGO
 10
29617.604341291921
 20
1947.749496429288
 30
0.0
 11
29765.604341291921
 21
1947.749496429288
 31
0.0
1001
AUTOCAD_POSTSCRIPT_FIGURE
1002
{
1000
PSFILL
1000
Grayscale
1000
Grayscale
1070
    25
1002
}
  0
LINE
  5
11D48
  8
YODOROGO
 10
29617.604341291921
 20
2027.749496429288
 30
0.0
 11
29617.604341291921
 21
1947.749496429288
 31
0.0
1001
AUTOCAD_POSTSCRIPT_FIGURE
1002
{
1000
PSFILL
1000
Grayscale
1000
Grayscale
1070
    25
1002
}
  0
LINE
  5
11D49
  8
YODOROGO
 10
29665.604341291921
 20
2027.749496429288
 30
0.0
 11
29617.604341291921
 21
2027.749496429288
 31
0.0
1001
AUTOCAD_POSTSCRIPT_FIGURE
1002
{
1000
PSFILL
1000
Grayscale
1000
Grayscale
1070
    25
1002
}
  0
LINE
  5
11D4A
  8
YODOROGO
 10
29665.604341291921
 20
1995.7494964292871
 30
0.0
 11
29665.604341291921
 21
2027.749496429288
 31
0.0
1001
AUTOCAD_POSTSCRIPT_FIGURE
1002
{
1000
PSFILL
1000
Grayscale
1000
Grayscale
1070
    25
1002
}
  0
LINE
  5
11D4B
  8
YODOROGO
 10
29765.604341291921
 20
1995.7494964292871
 30
0.0
 11
29665.604341291921
 21
1995.7494964292871
 31
0.0
1001
AUTOCAD_POSTSCRIPT_FIGURE
1002
{
1000
PSFILL
1000
Grayscale
1000
Grayscale
1070
    25
1002
}
  0
LINE
  5
11D4C
  8
YODOROGO
 10
29765.604341291921
 20
2027.749496429288
 30
0.0
 11
29765.604341291921
 21
1995.7494964292871
 31
0.0
1001
AUTOCAD_POSTSCRIPT_FIGURE
1002
{
1000
PSFILL
1000
Grayscale
1000
Grayscale
1070
    25
1002
}
  0
LINE
  5
11D4D
  8
YODOROGO
 10
29829.604341291921
 20
2027.749496429288
 30
0.0
 11
29765.604341291921
 21
2027.749496429288
 31
0.0
1001
AUTOCAD_POSTSCRIPT_FIGURE
1002
{
1000
PSFILL
1000
Grayscale
1000
Grayscale
1070
    25
1002
}
  0
LINE
  5
11D4E
  8
YODOROGO
 10
29829.604341291921
 20
1995.7494964292871
 30
0.0
 11
29829.604341291921
 21
2027.749496429288
 31
0.0
1001
AUTOCAD_POSTSCRIPT_FIGURE
1002
{
1000
PSFILL
1000
Grayscale
1000
Grayscale
1070
    25
1002
}
  0
LINE
  5
11D4F
  8
YODOROGO
 10
29829.604341291921
 20
1907.7494964292871
 30
0.0
 11
29829.604341291921
 21
1947.749496429288
 31
0.0
1001
AUTOCAD_POSTSCRIPT_FIGURE
1002
{
1000
PSFILL
1000
Grayscale
1000
Grayscale
1070
    25
1002
}
  0
LINE
  5
11D50
  8
YODOROGO
 10
29829.604341291921
 20
1819.7494964292871
 30
0.0
 11
29829.604341291921
 21
1859.749496429288
 31
0.0
1001
AUTOCAD_POSTSCRIPT_FIGURE
1002
{
1000
PSFILL
1000
Grayscale
1000
Grayscale
1070
    25
1002
}
  0
LINE
  5
11D51
  8
YODOROGO
 10
29921.60434129191
 20
1771.7494964292871
 30
0.0
 11
29921.60434129191
 21
1707.749496429288
 31
0.0
1001
AUTOCAD_POSTSCRIPT_FIGURE
1002
{
1000
PSFILL
1000
Grayscale
1000
Grayscale
1070
    25
1002
}
  0
LINE
  5
11D52
  8
YODOROGO
 10
29829.604341291921
 20
1771.7494964292871
 30
0.0
 11
29921.60434129191
 21
1771.7494964292871
 31
0.0
1001
AUTOCAD_POSTSCRIPT_FIGURE
1002
{
1000
PSFILL
1000
Grayscale
1000
Grayscale
1070
    25
1002
}
  0
LINE
  5
11D53
  8
YODOROGO
 10
29829.604341291921
 20
1707.749496429288
 30
0.0
 11
29829.604341291921
 21
1771.7494964292871
 31
0.0
1001
AUTOCAD_POSTSCRIPT_FIGURE
1002
{
1000
PSFILL
1000
Grayscale
1000
Grayscale
1070
    25
1002
}
  0
LINE
  5
11D54
  8
YODOROGO
 10
29765.604341291921
 20
1707.749496429288
 30
0.0
 11
29829.604341291921
 21
1707.749496429288
 31
0.0
1001
AUTOCAD_POSTSCRIPT_FIGURE
1002
{
1000
PSFILL
1000
Grayscale
1000
Grayscale
1070
    25
1002
}
  0
LINE
  5
11D55
  8
YODOROGO
 10
29765.604341291921
 20
1771.7494964292871
 30
0.0
 11
29765.604341291921
 21
1707.749496429288
 31
0.0
1001
AUTOCAD_POSTSCRIPT_FIGURE
1002
{
1000
PSFILL
1000
Grayscale
1000
Grayscale
1070
    25
1002
}
  0
LINE
  5
11D56
  8
YODOROGO
 10
29673.604341291921
 20
1771.7494964292871
 30
0.0
 11
29765.604341291921
 21
1771.7494964292871
 31
0.0
1001
AUTOCAD_POSTSCRIPT_FIGURE
1002
{
1000
PSFILL
1000
Grayscale
1000
Grayscale
1070
    25
1002
}
  0
ARC
  5
11D57
  8
YODOROGO
 10
31059.517893357912
 20
1602.6807375155761
 30
0.0
 40
178.22128111072141
 50
281.02627495425338
 51
357.77113575573799
  0
LINE
  5
11D58
  8
YODOROGO
 10
31413.604341291921
 20
1907.7494964292871
 30
0.0
 11
31165.604341291921
 21
1907.7494964292871
 31
0.0
  0
LINE
  5
11D59
  8
YODOROGO
 10
31413.604341291921
 20
2027.749496429288
 30
0.0
 11
31165.604341291921
 21
2027.749496429288
 31
0.0
  0
LINE
  5
11D5A
  8
YODOROGO
 10
31165.604341291921
 20
1963.749496429286
 30
0.0
 11
31413.604341291921
 21
1963.749496429286
 31
0.0
  0
LINE
  5
11D5B
  8
YODOROGO
 10
30791.604341291921
 20
1563.7494964292871
 30
0.0
 11
30791.604341291921
 21
1755.7494964292871
 31
0.0
  0
LINE
  5
11D5C
  8
YODOROGO
 10
30763.604341291921
 20
1691.749496429288
 30
0.0
 11
30763.604341291921
 21
1563.7494964292871
 31
0.0
  0
LINE
  5
11D5D
  8
YODOROGO
 10
30723.604341291921
 20
1491.749496429288
 30
0.0
 11
30723.604341291921
 21
1691.749496429288
 31
0.0
  0
LINE
  5
11D5E
  8
YODOROGO
 10
30899.604341291932
 20
1691.749496429288
 30
0.0
 11
30899.604341291932
 21
1491.749496429288
 31
0.0
  0
LINE
  5
11D5F
  8
YODOROGO
 10
30859.604341291932
 20
1563.7494964292871
 30
0.0
 11
30859.604341291932
 21
1691.749496429288
 31
0.0
  0
LINE
  5
11D60
  8
YODOROGO
 10
30831.604341291921
 20
1755.7494964292871
 30
0.0
 11
30831.604341291921
 21
1563.7494964292871
 31
0.0
  0
LINE
  5
11D61
  8
YODOROGO
 10
30973.604341291921
 20
2027.749496429288
 30
0.0
 11
30973.604341291921
 21
1467.749496429288
 31
0.0
  0
LINE
  5
11D62
  8
YODOROGO
 10
30645.604341291921
 20
1427.749496429288
 30
0.0
 11
30645.604341291921
 21
2027.749496429288
 31
0.0
  0
LINE
  5
11D63
  8
YODOROGO
 10
30697.604341291932
 20
1963.749496429286
 30
0.0
 11
30697.604341291932
 21
1427.749496429288
 31
0.0
  0
LINE
  5
11D64
  8
YODOROGO
 10
30925.604341291921
 20
1547.749496429288
 30
0.0
 11
30925.604341291921
 21
1963.749496429286
 31
0.0
  0
LINE
  5
11D65
  8
YODOROGO
 10
30381.604341291932
 20
1627.749496429288
 30
0.0
 11
30381.604341291932
 21
1679.749496429288
 31
0.0
  0
LINE
  5
11D66
  8
YODOROGO
 10
30617.604341291921
 20
1679.749496429288
 30
0.0
 11
30617.604341291921
 21
1627.749496429288
 31
0.0
  0
LINE
  5
11D67
  8
YODOROGO
 10
31165.604341291921
 20
1907.7494964292871
 30
0.0
 11
31165.604341291921
 21
1635.7494964292871
 31
0.0
  0
LINE
  5
11D68
  8
YODOROGO
 10
29949.60434129191
 20
1667.749496429288
 30
0.0
 11
29949.60434129191
 21
1707.749496429288
 31
0.0
  0
LINE
  5
11D69
  8
YODOROGO
 10
29949.60434129191
 20
1667.749496429288
 30
0.0
 11
29949.60434129191
 21
1707.749496429288
 31
0.0
  0
ARC
  5
11D6A
  8
YODOROGO
 10
30537.604341291921
 20
1507.749496429288
 30
0.0
 40
80.0
 50
270.0
 51
0.0
  0
LINE
  5
11D6B
  8
YODOROGO
 10
30569.604341291921
 20
1599.7494964292871
 30
0.0
 11
30617.604341291921
 21
1599.7494964292871
 31
0.0
  0
LINE
  5
11D6C
  8
YODOROGO
 10
30617.604341291921
 20
1627.749496429288
 30
0.0
 11
30529.604341291939
 21
1627.749496429288
 31
0.0
  0
LINE
  5
11D6D
  8
YODOROGO
 10
30217.604341291921
 20
1667.749496429288
 30
0.0
 11
29949.60434129191
 21
1667.749496429288
 31
0.0
  0
LINE
  5
11D6E
  8
YODOROGO
 10
30217.604341291921
 20
1627.749496429288
 30
0.0
 11
30217.604341291921
 21
1667.749496429288
 31
0.0
  0
LINE
  5
11D6F
  8
YODOROGO
 10
30017.604341291921
 20
1627.749496429288
 30
0.0
 11
30217.604341291921
 21
1627.749496429288
 31
0.0
  0
ARC
  5
11D70
  8
YODOROGO
 10
30230.05882870136
 20
1868.885714952901
 30
0.0
 40
321.37763628522822
 50
228.6181454618993
 51
245.660289248906
  0
LINE
  5
11D71
  8
YODOROGO
 10
30105.604341291921
 20
1603.7494964292871
 30
0.0
 11
30097.60434129195
 21
1576.0728158699001
 31
0.0
  0
LINE
  5
11D72
  8
YODOROGO
 10
30189.604341291921
 20
1603.7494964292871
 30
0.0
 11
30105.604341291921
 21
1603.7494964292871
 31
0.0
  0
LINE
  5
11D73
  8
YODOROGO
 10
30177.604341291921
 20
1551.817722473427
 30
0.0
 11
30189.604341291921
 21
1603.7494964292871
 31
0.0
  0
ARC
  5
11D74
  8
YODOROGO
 10
30230.05882870045
 20
1868.885714953002
 30
0.0
 40
321.37763628529081
 50
260.60629297969911
 51
267.77903556555862
  0
LINE
  5
11D75
  8
YODOROGO
 10
30217.604341291921
 20
1427.749496429285
 30
0.0
 11
30217.604341291921
 21
1547.749496429288
 31
0.0
  0
LINE
  5
11D76
  8
YODOROGO
 10
29937.604341291932
 20
1481.3393349155101
 30
0.0
 11
29937.604341291921
 21
1594.531090531141
 31
0.0
  0
LINE
  5
11D77
  8
YODOROGO
 10
30217.604341291921
 20
1667.749496429288
 30
0.0
 11
29949.60434129191
 21
1667.749496429288
 31
0.0
  0
LINE
  5
11D78
  8
YODOROGO
 10
30217.604341291921
 20
1627.749496429288
 30
0.0
 11
30217.604341291921
 21
1667.749496429288
 31
0.0
  0
LINE
  5
11D79
  8
YODOROGO
 10
30017.604341291921
 20
1627.749496429288
 30
0.0
 11
30217.604341291921
 21
1627.749496429288
 31
0.0
  0
ARC
  5
11D7A
  8
YODOROGO
 10
30230.05882870136
 20
1868.885714952901
 30
0.0
 40
321.37763628522822
 50
228.6181454618993
 51
245.660289248906
  0
LINE
  5
11D7B
  8
YODOROGO
 10
30105.604341291921
 20
1603.7494964292871
 30
0.0
 11
30097.60434129195
 21
1576.0728158699001
 31
0.0
  0
LINE
  5
11D7C
  8
YODOROGO
 10
30189.604341291921
 20
1603.7494964292871
 30
0.0
 11
30105.604341291921
 21
1603.7494964292871
 31
0.0
  0
LINE
  5
11D7D
  8
YODOROGO
 10
30177.604341291921
 20
1551.817722473427
 30
0.0
 11
30189.604341291921
 21
1603.7494964292871
 31
0.0
  0
ARC
  5
11D7E
  8
YODOROGO
 10
30230.05882870045
 20
1868.885714953002
 30
0.0
 40
321.37763628529081
 50
260.60629297969911
 51
267.77903556555862
  0
LINE
  5
11D7F
  8
YODOROGO
 10
30217.604341291921
 20
1427.749496429285
 30
0.0
 11
30217.604341291921
 21
1547.749496429288
 31
0.0
  0
LINE
  5
11D80
  8
YODOROGO
 10
29937.604341291932
 20
1481.3393349155101
 30
0.0
 11
29937.604341291921
 21
1594.531090531141
 31
0.0
  0
LINE
  5
11D81
  8
YODOROGO
 10
30433.604341291921
 20
1573.749496429288
 30
0.0
 11
30381.604341291932
 21
1573.749496429288
 31
0.0
  0
LINE
  5
11D82
  8
YODOROGO
 10
30433.604341291921
 20
1601.749496429285
 30
0.0
 11
30433.604341291921
 21
1573.749496429288
 31
0.0
  0
LINE
  5
11D83
  8
YODOROGO
 10
30381.604341291932
 20
1601.749496429285
 30
0.0
 11
30433.604341291921
 21
1601.749496429285
 31
0.0
  0
LINE
  5
11D84
  8
YODOROGO
 10
30381.604341291932
 20
1573.749496429288
 30
0.0
 11
30381.604341291932
 21
1601.749496429285
 31
0.0
  0
LINE
  5
11D85
  8
YODOROGO
 10
30429.604341291921
 20
1577.7494964292871
 30
0.0
 11
30385.604341291921
 21
1577.7494964292871
 31
0.0
  0
LINE
  5
11D86
  8
YODOROGO
 10
30429.604341291921
 20
1597.749496429288
 30
0.0
 11
30429.604341291921
 21
1577.7494964292871
 31
0.0
  0
LINE
  5
11D87
  8
YODOROGO
 10
30385.604341291921
 20
1597.749496429288
 30
0.0
 11
30429.604341291921
 21
1597.749496429288
 31
0.0
  0
LINE
  5
11D88
  8
YODOROGO
 10
30385.604341291921
 20
1577.7494964292871
 30
0.0
 11
30385.604341291921
 21
1597.749496429288
 31
0.0
  0
LINE
  5
11D89
  8
YODOROGO
 10
30425.604341291921
 20
1581.749496429286
 30
0.0
 11
30389.604341291921
 21
1581.749496429286
 31
0.0
  0
LINE
  5
11D8A
  8
YODOROGO
 10
30425.604341291921
 20
1593.749496429288
 30
0.0
 11
30425.604341291921
 21
1581.749496429286
 31
0.0
  0
LINE
  5
11D8B
  8
YODOROGO
 10
30389.604341291921
 20
1593.749496429288
 30
0.0
 11
30425.604341291921
 21
1593.749496429288
 31
0.0
  0
LINE
  5
11D8C
  8
YODOROGO
 10
30389.604341291921
 20
1581.749496429286
 30
0.0
 11
30389.604341291921
 21
1593.749496429288
 31
0.0
  0
LINE
  5
11D8D
  8
YODOROGO
 10
30421.604341291932
 20
1585.7494964292871
 30
0.0
 11
30393.604341291921
 21
1585.7494964292871
 31
0.0
  0
LINE
  5
11D8E
  8
YODOROGO
 10
30421.604341291932
 20
1589.749496429288
 30
0.0
 11
30421.604341291932
 21
1585.7494964292871
 31
0.0
  0
LINE
  5
11D8F
  8
YODOROGO
 10
30393.604341291921
 20
1589.749496429288
 30
0.0
 11
30421.604341291932
 21
1589.749496429288
 31
0.0
  0
LINE
  5
11D90
  8
YODOROGO
 10
30393.604341291921
 20
1585.7494964292871
 30
0.0
 11
30393.604341291921
 21
1589.749496429288
 31
0.0
  0
LINE
  5
11D91
  8
YODOROGO
 10
30465.604341291921
 20
1627.749496429288
 30
0.0
 11
30381.604341291932
 21
1627.749496429288
 31
0.0
  0
LINE
  5
11D92
  8
YODOROGO
 10
30465.604341291921
 20
1547.749496429288
 30
0.0
 11
30465.604341291921
 21
1627.749496429288
 31
0.0
  0
LINE
  5
11D93
  8
YODOROGO
 10
30381.604341291932
 20
1547.749496429288
 30
0.0
 11
30465.604341291921
 21
1547.749496429288
 31
0.0
  0
LINE
  5
11D94
  8
YODOROGO
 10
30381.604341291932
 20
1427.749496429288
 30
0.0
 11
30381.604341291932
 21
1547.749496429288
 31
0.0
  0
LINE
  5
11D95
  8
YODOROGO
 10
30537.604341291921
 20
1427.749496429288
 30
0.0
 11
30381.604341291932
 21
1427.749496429288
 31
0.0
  0
LINE
  5
11D96
  8
YODOROGO
 10
30569.604341291921
 20
1571.749496429285
 30
0.0
 11
30569.604341291921
 21
1599.7494964292871
 31
0.0
  0
ARC
  5
11D97
  8
YODOROGO
 10
30545.604341291921
 20
1571.749496429291
 30
0.0
 40
24.000000000003752
 50
270.0
 51
359.99999999998772
  0
LINE
  5
11D98
  8
YODOROGO
 10
30529.604341291939
 20
1547.749496429288
 30
0.0
 11
30545.604341291921
 21
1547.749496429288
 31
0.0
  0
LINE
  5
11D99
  8
YODOROGO
 10
30529.604341291939
 20
1627.749496429288
 30
0.0
 11
30529.604341291939
 21
1547.749496429288
 31
0.0
  0
LINE
  5
11D9A
  8
YODOROGO
 10
30899.604341291932
 20
1547.749496429288
 30
0.0
 11
30925.604341291921
 21
1547.749496429288
 31
0.0
  0
LINE
  5
11D9B
  8
YODOROGO
 10
30933.604341291921
 20
1427.749496429288
 30
0.0
 11
30899.604341291932
 21
1427.749496429288
 31
0.0
  0
LINE
  5
11D9C
  8
YODOROGO
 10
30763.604341291921
 20
1563.7494964292871
 30
0.0
 11
30791.604341291921
 21
1563.7494964292871
 31
0.0
  0
LINE
  5
11D9D
  8
YODOROGO
 10
30899.604341291932
 20
1491.749496429288
 30
0.0
 11
30723.604341291921
 21
1491.749496429288
 31
0.0
  0
LINE
  5
11D9E
  8
YODOROGO
 10
30831.604341291921
 20
1563.7494964292871
 30
0.0
 11
30859.604341291932
 21
1563.7494964292871
 31
0.0
  0
LINE
  5
11D9F
  8
YODOROGO
 10
30899.604341291932
 20
1427.749496429288
 30
0.0
 11
30899.604341291932
 21
1547.749496429288
 31
0.0
  0
LINE
  5
11DA0
  8
YODOROGO
 10
30697.604341291932
 20
1427.749496429288
 30
0.0
 11
30645.604341291921
 21
1427.749496429288
 31
0.0
  0
LINE
  5
11DA1
  8
YODOROGO
 10
30617.604341291921
 20
1599.7494964292871
 30
0.0
 11
30617.604341291921
 21
1507.749496429288
 31
0.0
  0
ARC
  5
11DA2
  8
YODOROGO
 10
30933.604341291921
 20
1467.749496429288
 30
0.0
 40
40.0
 50
270.0
 51
0.0
  0
LINE
  5
11DA3
  8
YODOROGO
 10
31093.604341291921
 20
1523.7494964292871
 30
0.0
 11
31093.604341291921
 21
1427.749496429288
 31
0.0
  0
ARC
  5
11DA4
  8
YODOROGO
 10
31039.721395566768
 20
1637.5313901097329
 30
0.0
 40
125.8955565916754
 50
295.34052442160112
 51
359.18902303418679
  0
LINE
  5
11DA5
  8
YODOROGO
 10
30617.604341291921
 20
1859.749496429288
 30
0.0
 11
30497.604341291921
 21
1939.749496429288
 31
0.0
  0
LINE
  5
11DA6
  8
YODOROGO
 10
30497.604341291921
 20
2027.749496429288
 30
0.0
 11
30617.604341291921
 21
1947.749496429288
 31
0.0
  0
LINE
  5
11DA7
  8
YODOROGO
 10
30529.604341291939
 20
1679.749496429288
 30
0.0
 11
30617.604341291921
 21
1679.749496429288
 31
0.0
  0
LINE
  5
11DA8
  8
YODOROGO
 10
30617.604341291921
 20
1735.7494964292871
 30
0.0
 11
30529.604341291939
 21
1735.7494964292871
 31
0.0
  0
LINE
  5
11DA9
  8
YODOROGO
 10
30381.604341291932
 20
1795.7494964292871
 30
0.0
 11
30617.604341291921
 21
1795.7494964292871
 31
0.0
  0
LINE
  5
11DAA
  8
YODOROGO
 10
30081.604341291921
 20
2027.749496429288
 30
0.0
 11
30021.604341291921
 21
2027.749496429288
 31
0.0
  0
LINE
  5
11DAB
  8
YODOROGO
 10
30081.604341291921
 20
1827.7494964292871
 30
0.0
 11
30081.604341291921
 21
2027.749496429288
 31
0.0
  0
LINE
  5
11DAC
  8
YODOROGO
 10
30021.604341291921
 20
1827.7494964292871
 30
0.0
 11
30081.604341291921
 21
1827.7494964292871
 31
0.0
  0
LINE
  5
11DAD
  8
YODOROGO
 10
30021.604341291921
 20
2027.749496429288
 30
0.0
 11
30021.604341291921
 21
1827.7494964292871
 31
0.0
  0
LINE
  5
11DAE
  8
YODOROGO
 10
30161.604341291921
 20
2027.749496429288
 30
0.0
 11
30217.604341291921
 21
2027.749496429288
 31
0.0
  0
LINE
  5
11DAF
  8
YODOROGO
 10
30161.604341291921
 20
1811.749496429288
 30
0.0
 11
30161.604341291921
 21
2027.749496429288
 31
0.0
  0
ARC
  5
11DB0
  8
YODOROGO
 10
30121.604341291921
 20
1811.749496429288
 30
0.0
 40
40.0
 50
270.0
 51
0.0
  0
LINE
  5
11DB1
  8
YODOROGO
 10
30021.604341291921
 20
1771.7494964292871
 30
0.0
 11
30121.604341291921
 21
1771.7494964292871
 31
0.0
  0
LINE
  5
11DB2
  8
YODOROGO
 10
30021.604341291921
 20
1707.749496429288
 30
0.0
 11
30021.604341291921
 21
1771.7494964292871
 31
0.0
  0
LINE
  5
11DB3
  8
YODOROGO
 10
30137.604341291921
 20
1707.749496429288
 30
0.0
 11
30021.604341291921
 21
1707.749496429288
 31
0.0
  0
ARC
  5
11DB4
  8
YODOROGO
 10
30137.604341291921
 20
1787.7494964292871
 30
0.0
 40
80.0
 50
270.0
 51
0.0
  0
LINE
  5
11DB5
  8
YODOROGO
 10
30217.604341291921
 20
2027.749496429288
 30
0.0
 11
30217.604341291921
 21
1787.7494964292871
 31
0.0
  0
LINE
  5
11DB6
  8
YODOROGO
 10
29977.604341291921
 20
1947.749496429288
 30
0.0
 11
29977.604341291921
 21
1995.7494964292871
 31
0.0
1001
AUTOCAD_POSTSCRIPT_FIGURE
1002
{
1000
PSFILL
1000
Grayscale
1000
Grayscale
1070
    25
1002
}
  0
LINE
  5
11DB7
  8
YODOROGO
 10
29977.604341291921
 20
1859.749496429288
 30
0.0
 11
29977.604341291921
 21
1907.7494964292871
 31
0.0
1001
AUTOCAD_POSTSCRIPT_FIGURE
1002
{
1000
PSFILL
1000
Grayscale
1000
Grayscale
1070
    25
1002
}
  0
LINE
  5
11DB8
  8
YODOROGO
 10
29977.604341291921
 20
1707.749496429288
 30
0.0
 11
29977.604341291921
 21
1819.7494964292871
 31
0.0
1001
AUTOCAD_POSTSCRIPT_FIGURE
1002
{
1000
PSFILL
1000
Grayscale
1000
Grayscale
1070
    25
1002
}
  0
LINE
  5
11DB9
  8
YODOROGO
 10
30381.604341291932
 20
1907.7494964292871
 30
0.0
 11
30497.604341291921
 21
2027.749496429288
 31
0.0
  0
LINE
  5
11DBA
  8
YODOROGO
 10
30381.604341291932
 20
1819.7494964292871
 30
0.0
 11
30381.604341291932
 21
1907.7494964292871
 31
0.0
  0
LINE
  5
11DBB
  8
YODOROGO
 10
30497.604341291921
 20
1939.749496429288
 30
0.0
 11
30381.604341291932
 21
1819.7494964292871
 31
0.0
  0
LINE
  5
11DBC
  8
YODOROGO
 10
30465.604341291921
 20
1679.749496429288
 30
0.0
 11
30465.604341291921
 21
1735.7494964292871
 31
0.0
  0
LINE
  5
11DBD
  8
YODOROGO
 10
30381.604341291932
 20
1679.749496429288
 30
0.0
 11
30465.604341291921
 21
1679.749496429288
 31
0.0
  0
LINE
  5
11DBE
  8
YODOROGO
 10
30529.604341291939
 20
1735.7494964292871
 30
0.0
 11
30529.604341291939
 21
1679.749496429288
 31
0.0
  0
LINE
  5
11DBF
  8
YODOROGO
 10
30381.604341291932
 20
1735.7494964292871
 30
0.0
 11
30381.604341291932
 21
1795.7494964292871
 31
0.0
  0
LINE
  5
11DC0
  8
YODOROGO
 10
30465.604341291921
 20
1735.7494964292871
 30
0.0
 11
30381.604341291932
 21
1735.7494964292871
 31
0.0
  0
LINE
  5
11DC1
  8
YODOROGO
 10
30645.604341291921
 20
2027.749496429288
 30
0.0
 11
30973.604341291921
 21
2027.749496429288
 31
0.0
  0
LINE
  5
11DC2
  8
YODOROGO
 10
30925.604341291921
 20
1963.749496429286
 30
0.0
 11
30697.604341291932
 21
1963.749496429286
 31
0.0
  0
LINE
  5
11DC3
  8
YODOROGO
 10
30873.604341291921
 20
1819.7494964292871
 30
0.0
 11
30899.604341291932
 21
1819.7494964292871
 31
0.0
  0
LINE
  5
11DC4
  8
YODOROGO
 10
30899.604341291932
 20
1939.749496429288
 30
0.0
 11
30873.604341291921
 21
1819.7494964292871
 31
0.0
  0
LINE
  5
11DC5
  8
YODOROGO
 10
30851.604341291939
 20
1939.749496429288
 30
0.0
 11
30899.604341291932
 21
1939.749496429288
 31
0.0
  0
LINE
  5
11DC6
  8
YODOROGO
 10
30825.604341291921
 20
1819.7494964292871
 30
0.0
 11
30851.604341291939
 21
1939.749496429288
 31
0.0
  0
LINE
  5
11DC7
  8
YODOROGO
 10
30797.604341291921
 20
1819.7494964292871
 30
0.0
 11
30825.604341291921
 21
1819.7494964292871
 31
0.0
  0
LINE
  5
11DC8
  8
YODOROGO
 10
30771.604341291939
 20
1939.749496429288
 30
0.0
 11
30797.604341291921
 21
1819.7494964292871
 31
0.0
  0
LINE
  5
11DC9
  8
YODOROGO
 10
30723.604341291921
 20
1939.749496429288
 30
0.0
 11
30771.604341291939
 21
1939.749496429288
 31
0.0
  0
LINE
  5
11DCA
  8
YODOROGO
 10
30749.604341291921
 20
1819.7494964292871
 30
0.0
 11
30723.604341291921
 21
1939.749496429288
 31
0.0
  0
LINE
  5
11DCB
  8
YODOROGO
 10
30723.604341291921
 20
1819.7494964292871
 30
0.0
 11
30749.604341291921
 21
1819.7494964292871
 31
0.0
  0
LINE
  5
11DCC
  8
YODOROGO
 10
30723.604341291921
 20
1755.7494964292871
 30
0.0
 11
30723.604341291921
 21
1819.7494964292871
 31
0.0
  0
LINE
  5
11DCD
  8
YODOROGO
 10
30899.604341291932
 20
1755.7494964292871
 30
0.0
 11
30723.604341291921
 21
1755.7494964292871
 31
0.0
  0
LINE
  5
11DCE
  8
YODOROGO
 10
30899.604341291932
 20
1819.7494964292871
 30
0.0
 11
30899.604341291932
 21
1755.7494964292871
 31
0.0
  0
LINE
  5
11DCF
  8
YODOROGO
 10
30617.604341291921
 20
1947.749496429288
 30
0.0
 11
30617.604341291921
 21
1859.749496429288
 31
0.0
  0
LINE
  5
11DD0
  8
YODOROGO
 10
30791.604341291921
 20
1755.7494964292871
 30
0.0
 11
30831.604341291921
 21
1755.7494964292871
 31
0.0
  0
LINE
  5
11DD1
  8
YODOROGO
 10
30723.604341291921
 20
1691.749496429288
 30
0.0
 11
30763.604341291921
 21
1691.749496429288
 31
0.0
  0
LINE
  5
11DD2
  8
YODOROGO
 10
30859.604341291932
 20
1691.749496429288
 30
0.0
 11
30899.604341291932
 21
1691.749496429288
 31
0.0
  0
LINE
  5
11DD3
  8
YODOROGO
 10
30617.604341291921
 20
1795.7494964292871
 30
0.0
 11
30617.604341291921
 21
1735.7494964292871
 31
0.0
  0
LINE
  5
11DD4
  8
YODOROGO
 10
31165.604341291921
 20
2027.749496429288
 30
0.0
 11
31165.604341291921
 21
1963.749496429286
 31
0.0
  0
LINE
  5
11DD5
  8
YODOROGO
 10
31533.604341291921
 20
1595.7494964292871
 30
0.0
 11
31533.60434129191
 21
1811.749496429288
 31
0.0
  0
LINE
  5
11DD6
  8
YODOROGO
 10
31461.60434129191
 20
1987.7494964292871
 30
0.0
 11
31461.60434129191
 21
1635.7494964292871
 31
0.0
  0
LINE
  5
11DD7
  8
YODOROGO
 10
31653.604341291921
 20
1427.749496429288
 30
0.0
 11
31653.60434129191
 21
1811.749496429288
 31
0.0
  0
LINE
  5
11DD8
  8
YODOROGO
 10
31589.604341291921
 20
1811.749496429288
 30
0.0
 11
31589.604341291921
 21
1427.749496429288
 31
0.0
  0
LINE
  5
11DD9
  8
YODOROGO
 10
31237.604341291921
 20
1595.7494964292871
 30
0.0
 11
31237.604341291921
 21
1707.749496429288
 31
0.0
  0
ARC
  5
11DDA
  8
YODOROGO
 10
31353.914865116069
 20
1607.790351288558
 30
0.0
 40
180.0924485759885
 50
268.62849102169793
 51
356.16638457330322
  0
LINE
  5
11DDB
  8
YODOROGO
 10
31349.604341291939
 20
1527.749496429288
 30
0.0
 11
31349.604341291939
 21
1427.749496429288
 31
0.0
  0
ARC
  5
11DDC
  8
YODOROGO
 10
31351.518075724562
 20
1637.838957017655
 30
0.0
 40
110.1060929836122
 50
269.00410209305932
 51
358.91264455492478
  0
LINE
  5
11DDD
  8
YODOROGO
 10
31589.604341291921
 20
1427.749496429288
 30
0.0
 11
31653.604341291921
 21
1427.749496429288
 31
0.0
  0
LINE
  5
11DDE
  8
YODOROGO
 10
31533.60434129191
 20
1811.749496429288
 30
0.0
 11
31589.604341291921
 21
1811.749496429288
 31
0.0
  0
LINE
  5
11DDF
  8
YODOROGO
 10
31621.604341291939
 20
1987.7494964292871
 30
0.0
 11
31461.60434129191
 21
1987.7494964292871
 31
0.0
  0
LINE
  5
11DE0
  8
YODOROGO
 10
31533.60434129191
 20
1915.7494964292871
 30
0.0
 11
31661.604341291939
 21
1915.7494964292871
 31
0.0
  0
LINE
  5
11DE1
  8
YODOROGO
 10
31701.604341291939
 20
1875.7494964292871
 30
0.0
 11
31533.60434129191
 21
1875.7494964292871
 31
0.0
  0
LINE
  5
11DE2
  8
YODOROGO
 10
31237.604341291921
 20
1779.749496429288
 30
0.0
 11
31349.604341291939
 21
1779.749496429288
 31
0.0
  0
LINE
  5
11DE3
  8
YODOROGO
 10
31237.604341291921
 20
1835.7494964292871
 30
0.0
 11
31237.604341291921
 21
1779.749496429288
 31
0.0
  0
LINE
  5
11DE4
  8
YODOROGO
 10
31349.604341291939
 20
1835.7494964292871
 30
0.0
 11
31237.604341291921
 21
1835.7494964292871
 31
0.0
  0
LINE
  5
11DE5
  8
YODOROGO
 10
31349.604341291939
 20
1779.749496429288
 30
0.0
 11
31349.604341291939
 21
1835.7494964292871
 31
0.0
  0
LINE
  5
11DE6
  8
YODOROGO
 10
31533.60434129191
 20
1875.7494964292871
 30
0.0
 11
31533.60434129191
 21
1915.7494964292871
 31
0.0
  0
LINE
  5
11DE7
  8
YODOROGO
 10
31413.604341291921
 20
1707.749496429288
 30
0.0
 11
31413.604341291921
 21
1907.7494964292871
 31
0.0
  0
LINE
  5
11DE8
  8
YODOROGO
 10
31237.604341291921
 20
1707.749496429288
 30
0.0
 11
31413.604341291921
 21
1707.749496429288
 31
0.0
  0
LINE
  5
11DE9
  8
YODOROGO
 10
31413.604341291921
 20
1963.749496429286
 30
0.0
 11
31413.604341291921
 21
2027.749496429288
 31
0.0
  0
ARC
  5
11DEA
  8
YODOROGO
 10
31621.604341291939
 20
2003.749496429285
 30
0.0
 40
15.999999999994539
 50
270.0
 51
0.0000000000081422
  0
LINE
  5
11DEB
  8
YODOROGO
 10
31637.604341291921
 20
2027.749496429288
 30
0.0
 11
31637.604341291921
 21
2003.7494964292871
 31
0.0
  0
LINE
  5
11DEC
  8
YODOROGO
 10
31701.604341291939
 20
2027.749496429288
 30
0.0
 11
31637.604341291921
 21
2027.749496429288
 31
0.0
  0
LINE
  5
11DED
  8
YODOROGO
 10
31701.604341291939
 20
1955.7494964292871
 30
0.0
 11
31701.604341291939
 21
2027.749496429288
 31
0.0
  0
ARC
  5
11DEE
  8
YODOROGO
 10
31661.604341291939
 20
1955.7494964292871
 30
0.0
 40
40.0
 50
270.0
 51
0.0
  0
LINE
  5
11DEF
  8
YODOROGO
 10
31701.604341291939
 20
1811.749496429288
 30
0.0
 11
31701.604341291939
 21
1875.7494964292871
 31
0.0
  0
LINE
  5
11DF0
  8
YODOROGO
 10
31653.60434129191
 20
1811.749496429288
 30
0.0
 11
31701.604341291939
 21
1811.749496429288
 31
0.0
  0
LINE
  5
11DF1
  8
0-6
  6
CONTINUOUS
 62
     6
 10
7973.2315402772374
 20
19128.769014632911
 30
0.0
 11
8034.4286569802352
 21
19278.98848199999
 31
0.0
  0
LINE
  5
11DF2
  8
0-6
  6
CONTINUOUS
 62
     6
 10
8034.4286569802352
 20
19278.98848199999
 30
0.0
 11
7927.8181525579548
 21
19156.735860960722
 31
0.0
  0
LINE
  5
11DF3
  8
0-6
  6
CONTINUOUS
 62
     6
 10
7927.8181525579548
 20
19156.735860960722
 30
0.0
 11
7973.2315402772374
 21
19128.769014632911
 31
0.0
  0
LINE
  5
11DF4
  8
0-6
  6
CONTINUOUS
 62
     6
 10
7973.2315402772338
 20
18014.26711463293
 30
0.0
 11
8034.4286569802352
 21
18164.48658199999
 31
0.0
  0
LINE
  5
11DF5
  8
0-6
  6
CONTINUOUS
 62
     6
 10
8034.4286569802352
 20
18164.48658199999
 30
0.0
 11
7927.8181525579548
 21
18042.233960960752
 31
0.0
  0
LINE
  5
11DF6
  8
0-6
  6
CONTINUOUS
 62
     6
 10
7927.8181525579548
 20
18042.233960960752
 30
0.0
 11
7973.2315402772338
 21
18014.26711463293
 31
0.0
  0
LINE
  5
11DF7
  8
0-6
  6
CONTINUOUS
 62
     6
 10
7973.2315402772338
 20
15096.26711463293
 30
0.0
 11
8034.4286569802352
 21
15246.48658200001
 31
0.0
  0
LINE
  5
11DF8
  8
0-6
  6
CONTINUOUS
 62
     6
 10
8034.4286569802352
 20
15246.48658200001
 30
0.0
 11
7927.8181525579548
 21
15124.233960960761
 31
0.0
  0
LINE
  5
11DF9
  8
0-6
  6
CONTINUOUS
 62
     6
 10
7927.8181525579548
 20
15124.233960960761
 30
0.0
 11
7973.2315402772338
 21
15096.26711463293
 31
0.0
  0
LINE
  5
11DFA
  8
0-6
  6
CONTINUOUS
 62
     6
 10
7973.2315402772338
 20
16555.26711563292
 30
0.0
 11
8034.4286569802352
 21
16705.486583000002
 31
0.0
  0
LINE
  5
11DFB
  8
0-6
  6
CONTINUOUS
 62
     6
 10
8034.4286569802352
 20
16705.486583000002
 30
0.0
 11
7927.8181525579548
 21
16583.233961960741
 31
0.0
  0
LINE
  5
11DFC
  8
0-6
  6
CONTINUOUS
 62
     6
 10
7927.8181525579548
 20
16583.233961960741
 30
0.0
 11
7973.2315402772338
 21
16555.26711563292
 31
0.0
  0
LINE
  5
11DFD
  8
0-6
  6
CONTINUOUS
 62
     6
 10
7690.4428035057717
 20
13701.12802304843
 30
0.0
 11
7828.0211372510948
 21
13787.053441596539
 31
0.0
  0
LINE
  5
11DFE
  8
0-6
  6
CONTINUOUS
 62
     6
 10
7828.0211372510948
 20
13787.053441596539
 30
0.0
 11
7725.7466054378592
 21
13661.15100656637
 31
0.0
  0
LINE
  5
11DFF
  8
0-6
  6
CONTINUOUS
 62
     6
 10
7725.7466054378592
 20
13661.15100656637
 30
0.0
 11
7690.4428035057717
 21
13701.12802304843
 31
0.0
  0
LINE
  5
11E00
  8
0-6
  6
CONTINUOUS
 62
     6
 10
7678.32196466395
 20
14040.897792656961
 30
0.0
 11
7615.9586268688736
 21
14190.6368642711
 31
0.0
  0
LINE
  5
11E01
  8
0-6
  6
CONTINUOUS
 62
     6
 10
7615.9586268688736
 20
14190.6368642711
 30
0.0
 11
7723.5165158508216
 21
14069.216917302379
 31
0.0
  0
LINE
  5
11E02
  8
0-6
  6
CONTINUOUS
 62
     6
 10
7723.5165158508216
 20
14069.216917302379
 30
0.0
 11
7678.32196466395
 21
14040.897792656961
 31
0.0
  0
LINE
  5
11E03
  8
0-6
  6
CONTINUOUS
 62
     6
 10
8510.2707807755487
 20
13993.800373410921
 30
0.0
 11
8430.5297417568327
 21
14135.05313326014
 31
0.0
  0
LINE
  5
11E04
  8
0-6
  6
CONTINUOUS
 62
     6
 10
8430.5297417568327
 20
14135.05313326014
 30
0.0
 11
8551.7737670131573
 21
14027.296976388319
 31
0.0
  0
LINE
  5
11E05
  8
0-6
  6
CONTINUOUS
 62
     6
 10
8551.7737670131573
 20
14027.296976388319
 30
0.0
 11
8510.2707807755487
 21
13993.800373410921
 31
0.0
  0
LINE
  5
11E06
  8
SUNPOU
  6
CONTINUOUS
 62
     4
 10
13579.756839868871
 20
15291.48697799999
 30
0.0
 11
14290.45844786887
 21
15291.48697799999
 31
0.0
  0
LINE
  5
11E07
  8
SUNPOU
  6
CONTINUOUS
 62
     4
 10
13523.458341868871
 20
13832.48697799999
 30
0.0
 11
14290.45844786887
 21
13832.48697799999
 31
0.0
  0
LINE
  5
11E08
  8
SUNPOU
  6
CONTINUOUS
 62
     4
 10
14210.458447868879
 20
15291.48697799999
 30
0.0
 11
14210.458447868879
 21
13832.48697799999
 31
0.0
  0
LINE
  5
11E09
  8
SUNPOU
  6
CONTINUOUS
 62
     4
 10
13503.037395745099
 20
16750.486977999979
 30
0.0
 11
14290.45844786887
 21
16750.486977999979
 31
0.0
  0
LINE
  5
11E0A
  8
SUNPOU
  6
CONTINUOUS
 62
     4
 10
13579.756839868871
 20
15291.48697799999
 30
0.0
 11
14290.45844786887
 21
15291.48697799999
 31
0.0
  0
LINE
  5
11E0B
  8
SUNPOU
  6
CONTINUOUS
 62
     4
 10
14210.458447868879
 20
16750.486977999979
 30
0.0
 11
14210.458447868879
 21
15291.48697799999
 31
0.0
  0
LINE
  5
11E0C
  8
SUNPOU
  6
CONTINUOUS
 62
     4
 10
13579.756839868871
 20
18209.48697799999
 30
0.0
 11
14290.45844786887
 21
18209.48697799999
 31
0.0
  0
LINE
  5
11E0D
  8
SUNPOU
  6
CONTINUOUS
 62
     4
 10
13503.037395745099
 20
16750.486977999979
 30
0.0
 11
14290.45844786887
 21
16750.486977999979
 31
0.0
  0
LINE
  5
11E0E
  8
SUNPOU
  6
CONTINUOUS
 62
     4
 10
14210.458447868879
 20
18209.48697799999
 30
0.0
 11
14210.458447868879
 21
16750.486977999979
 31
0.0
  0
LINE
  5
11E0F
  8
SUNPOU
  6
CONTINUOUS
 62
     4
 10
13443.45899586889
 20
13639.98697799999
 30
0.0
 11
14290.45877186888
 21
13639.98697799999
 31
0.0
  0
LINE
  5
11E10
  8
SUNPOU
  6
CONTINUOUS
 62
     4
 10
14210.45877186888
 20
13832.486252000001
 30
0.0
 11
14210.45877186888
 21
13639.98697799999
 31
0.0
  0
LINE
  5
11E11
  8
SUNPOU
  6
CONTINUOUS
 62
     4
 10
13579.756839868871
 20
18209.48697799999
 30
0.0
 11
14290.45877186888
 21
18209.48697799999
 31
0.0
  0
LINE
  5
11E12
  8
SUNPOU
  6
CONTINUOUS
 62
     4
 10
14210.45877186888
 20
19317.986977999961
 30
0.0
 11
14210.45877186888
 21
18209.48697799999
 31
0.0
  0
LINE
  5
11E13
  8
SUNPOU
  6
CONTINUOUS
 62
     4
 10
14130.45877186888
 20
19317.986977999961
 30
0.0
 11
14170.45877186888
 21
19317.986977999961
 31
0.0
  0
LINE
  5
11E14
  8
SUNPOU
  6
CONTINUOUS
 62
     4
 10
13438.45972186888
 20
19540.486845999982
 30
0.0
 11
14250.45877186888
 21
19540.486845999982
 31
0.0
  0
LINE
  5
11E15
  8
SUNPOU
  6
CONTINUOUS
 62
     4
 10
14210.45877186888
 20
19317.986977999961
 30
0.0
 11
14210.45877186888
 21
19540.486845999982
 31
0.0
  0
LINE
  5
11E16
  8
SUNPOU
  6
CONTINUOUS
 62
     4
 10
13425.460222868889
 20
19500.48671399997
 30
0.0
 11
13890.459430868879
 21
19500.48671399997
 31
0.0
  0
LINE
  5
11E17
  8
SUNPOU
  6
CONTINUOUS
 62
     4
 10
13438.45972186888
 20
19540.486845999982
 30
0.0
 11
13890.459430868879
 21
19540.486845999982
 31
0.0
  0
LINE
  5
11E18
  8
SUNPOU
  6
CONTINUOUS
 62
     4
 10
13810.45943086887
 20
19500.48671399997
 30
0.0
 11
13810.45943086887
 21
19260.486713999981
 31
0.0
  0
LINE
  5
11E19
  8
SUNPOU
  6
CONTINUOUS
 62
     4
 10
13810.45943086887
 20
19540.486845999982
 30
0.0
 11
13810.45943086887
 21
19780.486845999982
 31
0.0
  0
LINE
  5
11E1A
  8
SUNPOU
  6
CONTINUOUS
 62
     4
 10
13810.45943086887
 20
19500.48671399997
 30
0.0
 11
13810.45943086887
 21
19540.486845999982
 31
0.0
  0
LINE
  5
11E1B
  8
SUNPOU
  6
CONTINUOUS
 62
     4
 10
7562.958995868893
 20
20165.48889099999
 30
0.0
 11
7562.958995868893
 21
20240.487901999972
 31
0.0
  0
LINE
  5
11E1C
  8
SUNPOU
  6
CONTINUOUS
 62
     4
 10
7477.458995868893
 20
19615.48856099998
 30
0.0
 11
7477.458995868893
 21
20240.487901999972
 31
0.0
  0
LINE
  5
11E1D
  8
SUNPOU
  6
CONTINUOUS
 62
     4
 10
7562.958995868893
 20
20160.487901999972
 30
0.0
 11
7802.9589958688912
 21
20160.487901999972
 31
0.0
  0
LINE
  5
11E1E
  8
SUNPOU
  6
CONTINUOUS
 62
     4
 10
7480.458995868893
 20
20160.487901999972
 30
0.0
 11
7240.4589958688912
 21
20160.487901999972
 31
0.0
  0
LINE
  5
11E1F
  8
SUNPOU
  6
CONTINUOUS
 62
     4
 10
7562.958995868893
 20
20160.487901999972
 30
0.0
 11
7480.458995868893
 21
20160.487901999972
 31
0.0
  0
LINE
  5
11E20
  8
SUNPOU
  6
CONTINUOUS
 62
     4
 10
10362.95899586889
 20
20165.48889099999
 30
0.0
 11
10362.95899586889
 21
20240.487901999972
 31
0.0
  0
LINE
  5
11E21
  8
SUNPOU
  6
CONTINUOUS
 62
     4
 10
7562.958995868893
 20
20165.48889099999
 30
0.0
 11
7562.958995868893
 21
20240.487901999972
 31
0.0
  0
LINE
  5
11E22
  8
SUNPOU
  6
CONTINUOUS
 62
     4
 10
10362.95899586889
 20
20160.487901999972
 30
0.0
 11
7562.958995868893
 21
20160.487901999972
 31
0.0
  0
LINE
  5
11E23
  8
SUNPOU
  6
CONTINUOUS
 62
     4
 10
13280.95867186889
 20
19690.488560999969
 30
0.0
 11
13280.95867186889
 21
20240.487901999972
 31
0.0
  0
LINE
  5
11E24
  8
SUNPOU
  6
CONTINUOUS
 62
     4
 10
10362.95899586889
 20
20165.48889099999
 30
0.0
 11
10362.95899586889
 21
20240.487901999972
 31
0.0
  0
LINE
  5
11E25
  8
SUNPOU
  6
CONTINUOUS
 62
     4
 10
13280.95867186889
 20
20160.487901999972
 30
0.0
 11
10362.95899586889
 21
20160.487901999972
 31
0.0
  0
LINE
  5
11E26
  8
SUNPOU
  6
CONTINUOUS
 62
     4
 10
13280.95867186889
 20
19690.488560999969
 30
0.0
 11
13280.95867186889
 21
20240.487901999972
 31
0.0
  0
LINE
  5
11E27
  8
SUNPOU
  6
CONTINUOUS
 62
     4
 10
13366.45867186889
 20
19610.488297999989
 30
0.0
 11
13366.45867186889
 21
20240.487901999972
 31
0.0
  0
LINE
  5
11E28
  8
SUNPOU
  6
CONTINUOUS
 62
     4
 10
13280.95867186889
 20
20160.487901999972
 30
0.0
 11
13040.95867186889
 21
20160.487901999972
 31
0.0
  0
LINE
  5
11E29
  8
SUNPOU
  6
CONTINUOUS
 62
     4
 10
13363.45867186889
 20
20160.487901999972
 30
0.0
 11
13603.45867186889
 21
20160.487901999972
 31
0.0
  0
LINE
  5
11E2A
  8
SUNPOU
  6
CONTINUOUS
 62
     4
 10
13280.95867186889
 20
20160.487901999972
 30
0.0
 11
13363.45867186889
 21
20160.487901999972
 31
0.0
  0
LINE
  5
11E2B
  8
SUNPOU
  6
CONTINUOUS
 62
     4
 10
13366.45867186887
 20
13559.98697799999
 30
0.0
 11
13366.45867186887
 21
12269.98618599998
 31
0.0
  0
LINE
  5
11E2C
  8
SUNPOU
  6
CONTINUOUS
 62
     4
 10
7477.458995868893
 20
13559.98697799999
 30
0.0
 11
7477.458995868893
 21
12269.98618599998
 31
0.0
  0
LINE
  5
11E2D
  8
SUNPOU
  6
CONTINUOUS
 62
     4
 10
13363.45867186887
 20
12349.98618599998
 30
0.0
 11
7480.458995868893
 21
12349.98618599998
 31
0.0
  0
LINE
  5
11E2E
  8
0-6
  6
CONTINUOUS
 62
     6
 10
12414.7449616628
 20
16529.266191632942
 30
0.0
 11
12353.547844959799
 21
16679.485659000009
 31
0.0
  0
LINE
  5
11E2F
  8
0-6
  6
CONTINUOUS
 62
     6
 10
12353.547844959799
 20
16679.485659000009
 30
0.0
 11
12460.15834938208
 21
16557.23303796077
 31
0.0
  0
LINE
  5
11E30
  8
0-6
  6
CONTINUOUS
 62
     6
 10
12460.15834938208
 20
16557.23303796077
 30
0.0
 11
12414.7449616628
 21
16529.266191632942
 31
0.0
  0
LINE
  5
11E31
  8
0-6
  6
CONTINUOUS
 62
     6
 10
12598.803732288499
 20
15048.615726956161
 30
0.0
 11
12524.083987217869
 21
15192.587721334879
 31
0.0
  0
LINE
  5
11E32
  8
0-6
  6
CONTINUOUS
 62
     6
 10
12524.083987217869
 20
15192.587721334879
 30
0.0
 11
12641.46003020153
 21
15080.63073165742
 31
0.0
  0
LINE
  5
11E33
  8
0-6
  6
CONTINUOUS
 62
     6
 10
12641.46003020153
 20
15080.63073165742
 30
0.0
 11
12598.803732288499
 21
15048.615726956161
 31
0.0
  0
LINE
  5
11E34
  8
0-6
  6
CONTINUOUS
 62
     6
 10
12598.803732288499
 20
18005.014099621269
 30
0.0
 11
12524.083987217869
 21
18148.986093999989
 31
0.0
  0
LINE
  5
11E35
  8
0-6
  6
CONTINUOUS
 62
     6
 10
12524.083987217869
 20
18148.986093999989
 30
0.0
 11
12641.46003020153
 21
18037.02910432253
 31
0.0
  0
LINE
  5
11E36
  8
0-6
  6
CONTINUOUS
 62
     6
 10
12641.46003020153
 20
18037.02910432253
 30
0.0
 11
12598.803732288499
 21
18005.014099621269
 31
0.0
  0
LINE
  5
11E37
  8
0-6
  6
CONTINUOUS
 62
     6
 10
11203.91925539357
 20
15529.903760349711
 30
0.0
 11
11066.46976445711
 21
15616.035130419599
 31
0.0
  0
LINE
  5
11E38
  8
0-6
  6
CONTINUOUS
 62
     6
 10
11066.46976445711
 20
15616.035130419599
 30
0.0
 11
11224.425769062071
 21
15579.13792709221
 31
0.0
  0
LINE
  5
11E39
  8
0-6
  6
CONTINUOUS
 62
     6
 10
11224.425769062071
 20
15579.13792709221
 30
0.0
 11
11203.91925539357
 21
15529.903760349711
 31
0.0
  0
LINE
  5
11E3A
  8
SUNPOU
  6
CONTINUOUS
 62
     4
 10
27001.010792585152
 20
19419.987953999989
 30
0.0
 11
27001.010792585152
 21
20219.988877999971
 31
0.0
  0
LINE
  5
11E3B
  8
SUNPOU
  6
CONTINUOUS
 62
     4
 10
27043.510792585152
 20
19419.987953999989
 30
0.0
 11
27043.510792585152
 21
20219.988877999971
 31
0.0
  0
LINE
  5
11E3C
  8
SUNPOU
  6
CONTINUOUS
 62
     4
 10
27001.010792585152
 20
20139.988877999971
 30
0.0
 11
26761.010792585152
 21
20139.988877999971
 31
0.0
  0
LINE
  5
11E3D
  8
SUNPOU
  6
CONTINUOUS
 62
     4
 10
27043.510792585152
 20
20139.988877999971
 30
0.0
 11
27283.510792585152
 21
20139.988877999971
 31
0.0
  0
LINE
  5
11E3E
  8
SUNPOU
  6
CONTINUOUS
 62
     4
 10
27001.010792585152
 20
20139.988877999971
 30
0.0
 11
27043.510792585152
 21
20139.988877999971
 31
0.0
  0
LINE
  5
11E3F
  8
0-6
  6
CONTINUOUS
 62
     6
 10
21425.23683753311
 20
19081.891181253341
 30
0.0
 11
21318.908813585142
 21
19204.387412999989
 31
0.0
  0
LINE
  5
11E40
  8
0-6
  6
CONTINUOUS
 62
     6
 10
21318.908813585142
 20
19204.387412999989
 30
0.0
 11
21379.760933178412
 21
19054.026106324542
 31
0.0
  0
LINE
  5
11E41
  8
0-6
  6
CONTINUOUS
 62
     6
 10
21379.760933178412
 20
19054.026106324542
 30
0.0
 11
21425.23683753311
 21
19081.891181253341
 31
0.0
  0
LINE
  5
11E42
  8
0-6
  6
CONTINUOUS
 62
     6
 10
21397.052492027131
 20
19497.704737932669
 30
0.0
 11
21328.008813585151
 21
19350.926177045862
 31
0.0
  0
LINE
  5
11E43
  8
0-6
  6
CONTINUOUS
 62
     6
 10
21328.008813585151
 20
19350.926177045862
 30
0.0
 11
21440.925813764308
 21
19467.378974670839
 31
0.0
  0
LINE
  5
11E44
  8
0-6
  6
CONTINUOUS
 62
     6
 10
21440.925813764308
 20
19467.378974670839
 30
0.0
 11
21397.052492027131
 21
19497.704737932669
 31
0.0
  0
LINE
  5
11E45
  8
0-6
  6
CONTINUOUS
 62
     6
 10
21425.23683753311
 20
16914.583749746631
 30
0.0
 11
21318.908813585142
 21
16792.08751799996
 31
0.0
  0
LINE
  5
11E46
  8
0-6
  6
CONTINUOUS
 62
     6
 10
21318.908813585142
 20
16792.08751799996
 30
0.0
 11
21379.760933178412
 21
16942.44882467543
 31
0.0
  0
LINE
  5
11E47
  8
0-6
  6
CONTINUOUS
 62
     6
 10
21379.760933178412
 20
16942.44882467543
 30
0.0
 11
21425.23683753311
 21
16914.583749746631
 31
0.0
  0
LINE
  5
11E48
  8
0-6
  6
CONTINUOUS
 62
     6
 10
21425.23683753311
 20
14018.08448527455
 30
0.0
 11
21318.908813585142
 21
13895.588253527891
 31
0.0
  0
LINE
  5
11E49
  8
0-6
  6
CONTINUOUS
 62
     6
 10
21318.908813585142
 20
13895.588253527891
 30
0.0
 11
21379.760933178412
 21
14045.94956020334
 31
0.0
  0
LINE
  5
11E4A
  8
0-6
  6
CONTINUOUS
 62
     6
 10
21379.760933178412
 20
14045.94956020334
 30
0.0
 11
21425.23683753311
 21
14018.08448527455
 31
0.0
  0
LINE
  5
11E4B
  8
0-6
  6
CONTINUOUS
 62
     6
 10
21397.052492027131
 20
16498.770193067281
 30
0.0
 11
21328.008813585151
 21
16645.54875395411
 31
0.0
  0
LINE
  5
11E4C
  8
0-6
  6
CONTINUOUS
 62
     6
 10
21328.008813585151
 20
16645.54875395411
 30
0.0
 11
21440.925813764308
 21
16529.09595632914
 31
0.0
  0
LINE
  5
11E4D
  8
0-6
  6
CONTINUOUS
 62
     6
 10
21440.925813764308
 20
16529.09595632914
 30
0.0
 11
21397.052492027131
 21
16498.770193067281
 31
0.0
  0
LINE
  5
11E4E
  8
0-6
  6
CONTINUOUS
 62
     6
 10
21397.052492027131
 20
13611.209393113149
 30
0.0
 11
21328.008813585151
 21
13757.98795399998
 31
0.0
  0
LINE
  5
11E4F
  8
0-6
  6
CONTINUOUS
 62
     6
 10
21328.008813585151
 20
13757.98795399998
 30
0.0
 11
21440.925813764308
 21
13641.53515637501
 31
0.0
  0
LINE
  5
11E50
  8
0-6
  6
CONTINUOUS
 62
     6
 10
21440.925813764308
 20
13641.53515637501
 30
0.0
 11
21397.052492027131
 21
13611.209393113149
 31
0.0
  0
LINE
  5
11E75
  8
SUNPOU
  6
CONTINUOUS
 62
     4
 10
26243.010792585152
 20
19419.987953999989
 30
0.0
 11
26243.010792585152
 21
20219.988877999971
 31
0.0
  0
LINE
  5
11E76
  8
SUNPOU
  6
CONTINUOUS
 62
     4
 10
27001.010792585152
 20
19419.987953999989
 30
0.0
 11
27001.010792585152
 21
20219.988877999971
 31
0.0
  0
LINE
  5
11E77
  8
SUNPOU
  6
CONTINUOUS
 62
     4
 10
26243.010792585152
 20
20139.988877999971
 30
0.0
 11
27001.010792585152
 21
20139.988877999971
 31
0.0
  0
LINE
  5
11E78
  8
SUNPOU
  6
CONTINUOUS
 62
     4
 10
25542.010792585152
 20
19419.987953999989
 30
0.0
 11
25542.010792585152
 21
20219.988877999971
 31
0.0
  0
LINE
  5
11E79
  8
SUNPOU
  6
CONTINUOUS
 62
     4
 10
26243.010792585152
 20
19419.987953999989
 30
0.0
 11
26243.010792585152
 21
20219.988877999971
 31
0.0
  0
LINE
  5
11E7A
  8
SUNPOU
  6
CONTINUOUS
 62
     4
 10
25542.010792585152
 20
20139.988877999971
 30
0.0
 11
26243.010792585152
 21
20139.988877999971
 31
0.0
  0
LINE
  5
11E7B
  8
SUNPOU
  6
CONTINUOUS
 62
     4
 10
24841.010792585152
 20
19419.987953999989
 30
0.0
 11
24841.010792585152
 21
20219.988877999971
 31
0.0
  0
LINE
  5
11E7C
  8
SUNPOU
  6
CONTINUOUS
 62
     4
 10
25542.010792585152
 20
19419.987953999989
 30
0.0
 11
25542.010792585152
 21
20219.988877999971
 31
0.0
  0
LINE
  5
11E7D
  8
SUNPOU
  6
CONTINUOUS
 62
     4
 10
24841.010792585152
 20
20139.988877999971
 30
0.0
 11
25542.010792585152
 21
20139.988877999971
 31
0.0
  0
LINE
  5
11E7E
  8
SUNPOU
  6
CONTINUOUS
 62
     4
 10
24083.010792585152
 20
19499.990460999961
 30
0.0
 11
24083.010792585152
 21
20219.988877999971
 31
0.0
  0
LINE
  5
11E7F
  8
SUNPOU
  6
CONTINUOUS
 62
     4
 10
24841.010792585152
 20
19419.987953999989
 30
0.0
 11
24841.010792585152
 21
20219.988877999971
 31
0.0
  0
LINE
  5
11E80
  8
SUNPOU
  6
CONTINUOUS
 62
     4
 10
24083.010792585152
 20
20139.988877999971
 30
0.0
 11
24841.010792585152
 21
20139.988877999971
 31
0.0
  0
LINE
  5
11E81
  8
SUNPOU
  6
CONTINUOUS
 62
     4
 10
24083.010792585152
 20
19499.990460999961
 30
0.0
 11
24083.010792585152
 21
20219.988877999971
 31
0.0
  0
LINE
  5
11E82
  8
SUNPOU
  6
CONTINUOUS
 62
     4
 10
24040.510792585152
 20
19419.987953999989
 30
0.0
 11
24040.510792585152
 21
20219.988877999971
 31
0.0
  0
LINE
  5
11E83
  8
SUNPOU
  6
CONTINUOUS
 62
     4
 10
24083.010792585152
 20
20139.988877999971
 30
0.0
 11
24323.010792585152
 21
20139.988877999971
 31
0.0
  0
LINE
  5
11E84
  8
SUNPOU
  6
CONTINUOUS
 62
     4
 10
24040.510792585152
 20
20139.988877999971
 30
0.0
 11
23800.510792585152
 21
20139.988877999971
 31
0.0
  0
LINE
  5
11E85
  8
SUNPOU
  6
CONTINUOUS
 62
     4
 10
24083.010792585152
 20
20139.988877999971
 30
0.0
 11
24040.510792585152
 21
20139.988877999971
 31
0.0
  0
LINE
  5
11E93
  8
SUNPOU
  6
CONTINUOUS
 62
     4
 10
24083.008813585158
 20
20539.98887799996
 30
0.0
 11
21283.008813585151
 21
20539.98887799996
 31
0.0
  0
LINE
  5
11E94
  8
SUNPOU
  6
CONTINUOUS
 62
     4
 10
27001.008813585151
 20
20539.98887799996
 30
0.0
 11
24083.008813585158
 21
20539.98887799996
 31
0.0
  0
LINE
  5
11E95
  8
SUNPOU
  6
CONTINUOUS
 62
     4
 10
21283.008813585151
 20
19664.437727877321
 30
0.0
 11
21283.008813585151
 21
20219.988877999971
 31
0.0
  0
LINE
  5
11E96
  8
SUNPOU
  6
CONTINUOUS
 62
     4
 10
21325.51105658515
 20
19503.33821799999
 30
0.0
 11
21325.51105658515
 21
20219.988877999971
 31
0.0
  0
LINE
  5
11E97
  8
SUNPOU
  6
CONTINUOUS
 62
     4
 10
21283.008813585151
 20
20139.988877999971
 30
0.0
 11
21043.008813585158
 21
20139.988877999971
 31
0.0
  0
LINE
  5
11E98
  8
SUNPOU
  6
CONTINUOUS
 62
     4
 10
21325.51105658515
 20
20139.988877999971
 30
0.0
 11
21565.51105658515
 21
20139.988877999971
 31
0.0
  0
LINE
  5
11E99
  8
SUNPOU
  6
CONTINUOUS
 62
     4
 10
21283.008813585151
 20
20139.988877999971
 30
0.0
 11
21325.51105658515
 21
20139.988877999971
 31
0.0
  0
LINE
  5
11E9A
  8
SUNPOU
  6
CONTINUOUS
 62
     4
 10
21283.008813585151
 20
19664.437727877321
 30
0.0
 11
21283.008813585151
 21
20219.988877999971
 31
0.0
  0
LINE
  5
11E9B
  8
SUNPOU
  6
CONTINUOUS
 62
     4
 10
21240.510528585161
 20
19499.990460999961
 30
0.0
 11
21240.510528585161
 21
20219.988877999971
 31
0.0
  0
LINE
  5
11E9C
  8
SUNPOU
  6
CONTINUOUS
 62
     4
 10
21283.008813585151
 20
20139.988877999971
 30
0.0
 11
21523.008813585151
 21
20139.988877999971
 31
0.0
  0
LINE
  5
11E9D
  8
SUNPOU
  6
CONTINUOUS
 62
     4
 10
21240.510528585161
 20
20139.988877999971
 30
0.0
 11
21000.510528585161
 21
20139.988877999971
 31
0.0
  0
LINE
  5
11E9E
  8
SUNPOU
  6
CONTINUOUS
 62
     4
 10
21283.008813585151
 20
20139.988877999971
 30
0.0
 11
21240.510528585161
 21
20139.988877999971
 31
0.0
  0
LINE
  5
11E9F
  8
SUNPOU
  6
CONTINUOUS
 62
     4
 10
20898.403977633221
 20
16729.987953999978
 30
0.0
 11
19985.165189216521
 21
16729.987953999978
 31
0.0
  0
LINE
  5
11EA0
  8
SUNPOU
  6
CONTINUOUS
 62
     4
 10
20898.403977633221
 20
19297.487953999989
 30
0.0
 11
19985.165189216521
 21
19297.487953999989
 31
0.0
  0
LINE
  5
11EA1
  8
SUNPOU
  6
CONTINUOUS
 62
     4
 10
20065.165189216521
 20
16729.987953999978
 30
0.0
 11
20065.165189216521
 21
19297.487953999989
 31
0.0
  0
LINE
  5
11EA2
  8
SUNPOU
  6
CONTINUOUS
 62
     4
 10
20898.403977633221
 20
13811.98795399998
 30
0.0
 11
19985.165189216521
 21
13811.987954
 31
0.0
  0
LINE
  5
11EA3
  8
SUNPOU
  6
CONTINUOUS
 62
     4
 10
20898.403977633221
 20
16729.987953999978
 30
0.0
 11
19985.165189216521
 21
16729.987953999978
 31
0.0
  0
LINE
  5
11EA4
  8
SUNPOU
  6
CONTINUOUS
 62
     4
 10
20065.165189216521
 20
13811.987954
 30
0.0
 11
20065.165189216521
 21
16729.987953999978
 31
0.0
  0
ARC
  5
11EBC
  8
1-前柱P
 10
21273.408813585142
 20
13880.387953999991
 30
0.0
 40
1.0
 50
0.0
 51
90.0
  0
LINE
  5
11EBD
  8
1-前柱P
 10
21274.408813585149
 20
13880.387953999991
 30
0.0
 11
21274.408813585149
 21
13878.78795399999
 31
0.0
  0
LINE
  5
11EBE
  8
1-前柱P
 10
21274.408813585149
 20
13878.78795399999
 30
0.0
 11
21285.608813585139
 21
13878.78795399999
 31
0.0
  0
LINE
  5
11EBF
  8
1-前柱P
 10
21285.608813585139
 20
13878.78795399999
 30
0.0
 11
21285.608813585161
 21
13880.387953999991
 31
0.0
  0
ARC
  5
11EC0
  8
1-前柱P
 10
21286.60881358515
 20
13880.387953999991
 30
0.0
 40
1.0
 50
90.0
 51
180.0
  0
ARC
  5
11EC1
  8
1-中柱P
 10
21289.608813585161
 20
16798.287953999981
 30
0.0
 40
1.0
 50
90.0
 51
180.0
  0
LINE
  5
11EC2
  8
1-中柱P
 10
21288.608813585161
 20
16798.287953999981
 30
0.0
 11
21288.608813585161
 21
16796.687954000001
 31
0.0
  0
LINE
  5
11EC3
  8
1-中柱P
 10
21288.608813585161
 20
16796.687954000001
 30
0.0
 11
21277.408813585171
 21
16796.687954000001
 31
0.0
  0
LINE
  5
11EC4
  8
1-中柱P
 10
21277.408813585171
 20
16796.687954000001
 30
0.0
 11
21277.408813585171
 21
16798.287953999981
 31
0.0
  0
ARC
  5
11EC5
  8
1-中柱P
 10
21276.408813585149
 20
16798.287953999981
 30
0.0
 40
1.0
 50
0.0
 51
90.0
  0
ARC
  5
11EC6
  8
1-後柱P
 10
21292.608813585131
 20
19229.43795399999
 30
0.0
 40
1.0
 50
180.0
 51
270.0
  0
LINE
  5
11EC7
  8
1-後柱P
 10
21291.60881358515
 20
19229.43795399999
 30
0.0
 11
21291.60881358515
 21
19231.037953999989
 31
0.0
  0
LINE
  5
11EC8
  8
1-後柱P
 10
21291.60881358515
 20
19231.037953999989
 30
0.0
 11
21280.408813585142
 21
19231.037953999989
 31
0.0
  0
LINE
  5
11EC9
  8
1-後柱P
 10
21280.408813585142
 20
19231.037953999989
 30
0.0
 11
21280.408813585142
 21
19229.43795399999
 31
0.0
  0
ARC
  5
11ECA
  8
1-後柱P
 10
21279.408813585142
 20
19229.43795399999
 30
0.0
 40
1.0
 50
270.0
 51
0.0
  0
LINE
  5
11ECB
  8
SUNPOU
  6
CONTINUOUS
 62
     4
 10
13092.04714969357
 20
8478.188374000003
 30
0.0
 11
13092.04714969357
 21
9869.1883999999955
 31
0.0
  0
LINE
  5
11ECC
  8
SUNPOU
  6
CONTINUOUS
 62
     4
 10
7191.5471496935797
 20
8610.0781974124311
 30
0.0
 11
7191.5471496935797
 21
9869.1883999999955
 31
0.0
  0
LINE
  5
11ECD
  8
SUNPOU
  6
CONTINUOUS
 62
     4
 10
13092.04714969357
 20
9789.1883999999991
 30
0.0
 11
7191.5471496935797
 21
9789.1883999999991
 31
0.0
  0
LINE
  5
11ECE
  8
SUNPOU
  6
CONTINUOUS
 62
     4
 10
7341.5471496935706
 20
8536.0984380000027
 30
0.0
 11
7341.5471496935706
 21
9469.1900500000029
 31
0.0
  0
LINE
  5
11ECF
  8
SUNPOU
  6
CONTINUOUS
 62
     4
 10
7191.5471496935797
 20
8610.0781974124311
 30
0.0
 11
7191.5471496935797
 21
9469.1900500000029
 31
0.0
  0
LINE
  5
11ED0
  8
SUNPOU
  6
CONTINUOUS
 62
     4
 10
7341.5471496935706
 20
9389.1900500000029
 30
0.0
 11
7581.5471496935706
 21
9389.1900500000029
 31
0.0
  0
LINE
  5
11ED1
  8
SUNPOU
  6
CONTINUOUS
 62
     4
 10
7191.5471496935797
 20
9389.1900500000029
 30
0.0
 11
6951.5471496935779
 21
9389.1900500000029
 31
0.0
  0
LINE
  5
11ED2
  8
SUNPOU
  6
CONTINUOUS
 62
     4
 10
7341.5471496935706
 20
9389.1900500000029
 30
0.0
 11
7191.5471496935797
 21
9389.1900500000029
 31
0.0
  0
LINE
  5
11ED3
  8
SUNPOU
  6
CONTINUOUS
 62
     4
 10
12912.04714969357
 20
8348.3741496838102
 30
0.0
 11
12912.04714969357
 21
9469.1900500000029
 31
0.0
  0
LINE
  5
11ED4
  8
SUNPOU
  6
CONTINUOUS
 62
     4
 10
7341.5471496935706
 20
8536.0984380000027
 30
0.0
 11
7341.5471496935706
 21
9469.1900500000029
 31
0.0
  0
LINE
  5
11ED5
  8
SUNPOU
  6
CONTINUOUS
 62
     4
 10
12912.04714969357
 20
9389.1900500000029
 30
0.0
 11
7341.5471496935706
 21
9389.1900500000029
 31
0.0
  0
LINE
  5
11ED6
  8
SUNPOU
  6
CONTINUOUS
 62
     4
 10
13092.04714969357
 20
8478.188374000003
 30
0.0
 11
13092.04714969357
 21
9469.1900500000029
 31
0.0
  0
LINE
  5
11ED7
  8
SUNPOU
  6
CONTINUOUS
 62
     4
 10
12912.04714969357
 20
8348.3741496838102
 30
0.0
 11
12912.04714969357
 21
9469.1900500000029
 31
0.0
  0
LINE
  5
11ED8
  8
SUNPOU
  6
CONTINUOUS
 62
     4
 10
13092.04714969357
 20
9389.1900500000029
 30
0.0
 11
12912.04714969357
 21
9389.1900500000029
 31
0.0
  0
LINE
  5
11ED9
  8
SUNPOU
  6
CONTINUOUS
 62
     4
 10
7249.0471496935797
 20
6241.1883740000048
 30
0.0
 11
6171.5467536935757
 21
6241.1883740000048
 31
0.0
  0
LINE
  5
11EDA
  8
SUNPOU
  6
CONTINUOUS
 62
     4
 10
7156.7398900941998
 20
8590.188374000003
 30
0.0
 11
6171.5467536935757
 21
8590.188374000003
 31
0.0
  0
LINE
  5
11EDB
  8
SUNPOU
  6
CONTINUOUS
 62
     4
 10
6251.5467536935757
 20
6241.1883740000048
 30
0.0
 11
6251.5467536935757
 21
8590.188374000003
 31
0.0
  0
LINE
  5
11EDC
  8
SUNPOU
  6
CONTINUOUS
 62
     4
 10
12999.54714969357
 20
6241.1883740000048
 30
0.0
 11
14082.04754569356
 21
6241.1883740000048
 31
0.0
  0
LINE
  5
11EDD
  8
SUNPOU
  6
CONTINUOUS
 62
     4
 10
13172.04714969357
 20
8396.688374000003
 30
0.0
 11
14082.04754569356
 21
8396.688374000003
 31
0.0
  0
LINE
  5
11EDE
  8
SUNPOU
  6
CONTINUOUS
 62
     4
 10
14002.04754569356
 20
6241.1883740000048
 30
0.0
 11
14002.04754569356
 21
8396.688374000003
 31
0.0
  0
LINE
  5
11EDF
  8
SUNPOU
  6
CONTINUOUS
 62
     4
 10
12912.04714969357
 20
6161.1883740000048
 30
0.0
 11
12912.04714969357
 21
4461.1887040000001
 31
0.0
  0
LINE
  5
11EE0
  8
SUNPOU
  6
CONTINUOUS
 62
     4
 10
7341.5471496935706
 20
6161.1883740000048
 30
0.0
 11
7341.5471496935706
 21
4461.1887040000001
 31
0.0
  0
LINE
  5
11EE1
  8
SUNPOU
  6
CONTINUOUS
 62
     4
 10
12912.04714969357
 20
4541.1887040000001
 30
0.0
 11
7341.5471496935706
 21
4541.1887040000001
 31
0.0
  0
LINE
  5
11EE2
  8
SUNPOU
  6
CONTINUOUS
 62
     4
 10
7384.0471496935779
 20
5798.536116000002
 30
0.0
 11
7384.0471496935779
 21
4861.1885390000043
 31
0.0
  0
LINE
  5
11EE3
  8
SUNPOU
  6
CONTINUOUS
 62
     4
 10
7341.5471496935706
 20
6161.1883740000048
 30
0.0
 11
7341.5471496935706
 21
4861.1885390000043
 31
0.0
  0
LINE
  5
11EE4
  8
SUNPOU
  6
CONTINUOUS
 62
     4
 10
7384.0471496935779
 20
4941.1885390000016
 30
0.0
 11
7624.0471496935797
 21
4941.1885390000016
 31
0.0
  0
LINE
  5
11EE5
  8
SUNPOU
  6
CONTINUOUS
 62
     4
 10
7341.5471496935706
 20
4941.1885390000016
 30
0.0
 11
7101.5471496935716
 21
4941.1885390000016
 31
0.0
  0
LINE
  5
11EE6
  8
SUNPOU
  6
CONTINUOUS
 62
     4
 10
7384.0471496935779
 20
4941.1885390000016
 30
0.0
 11
7341.5471496935706
 21
4941.1885390000016
 31
0.0
  0
LINE
  5
11EE7
  8
SUNPOU
  6
CONTINUOUS
 62
     4
 10
12869.54714969357
 20
5798.536116000002
 30
0.0
 11
12869.54714969357
 21
4861.1885390000043
 31
0.0
  0
LINE
  5
11EE8
  8
SUNPOU
  6
CONTINUOUS
 62
     4
 10
12912.04714969357
 20
6161.1883740000048
 30
0.0
 11
12912.04714969357
 21
4861.1885390000043
 31
0.0
  0
LINE
  5
11EE9
  8
SUNPOU
  6
CONTINUOUS
 62
     4
 10
12869.54714969357
 20
4941.1885390000016
 30
0.0
 11
12629.54714969357
 21
4941.1885390000016
 31
0.0
  0
LINE
  5
11EEA
  8
SUNPOU
  6
CONTINUOUS
 62
     4
 10
12912.04714969357
 20
4941.1885390000016
 30
0.0
 11
13152.04714969357
 21
4941.1885390000016
 31
0.0
  0
LINE
  5
11EEB
  8
SUNPOU
  6
CONTINUOUS
 62
     4
 10
12869.54714969357
 20
4941.1885390000016
 30
0.0
 11
12912.04714969357
 21
4941.1885390000016
 31
0.0
  0
LINE
  5
11EEC
  8
SUNPOU
  6
CONTINUOUS
 62
     4
 10
10302.047149693581
 20
5798.536116000002
 30
0.0
 11
10302.047149693581
 21
4861.1885390000043
 31
0.0
  0
LINE
  5
11EED
  8
SUNPOU
  6
CONTINUOUS
 62
     4
 10
12869.54714969357
 20
5798.536116000002
 30
0.0
 11
12869.54714969357
 21
4861.1885390000043
 31
0.0
  0
LINE
  5
11EEE
  8
SUNPOU
  6
CONTINUOUS
 62
     4
 10
10302.047149693581
 20
4941.1885390000016
 30
0.0
 11
12869.54714969357
 21
4941.1885390000016
 31
0.0
  0
LINE
  5
11EEF
  8
SUNPOU
  6
CONTINUOUS
 62
     4
 10
10302.047149693581
 20
5798.536116000002
 30
0.0
 11
10302.047149693581
 21
4861.1885390000043
 31
0.0
  0
LINE
  5
11EF0
  8
SUNPOU
  6
CONTINUOUS
 62
     4
 10
7384.0471496935779
 20
5798.536116000002
 30
0.0
 11
7384.0471496935779
 21
4861.1885390000043
 31
0.0
  0
LINE
  5
11EF1
  8
SUNPOU
  6
CONTINUOUS
 62
     4
 10
10302.047149693581
 20
4941.1885390000016
 30
0.0
 11
7384.0471496935779
 21
4941.1885390000016
 31
0.0
  0
LINE
  5
11EF2
  8
SUNPOU
  6
CONTINUOUS
 62
     4
 10
27086.510528585171
 20
8669.6883999999955
 30
0.0
 11
27086.510528585171
 21
9869.1329740000092
 31
0.0
  0
LINE
  5
11EF3
  8
SUNPOU
  6
CONTINUOUS
 62
     4
 10
21197.510528585161
 20
8669.6883999999955
 30
0.0
 11
21197.510528585161
 21
9869.1329740000092
 31
0.0
  0
LINE
  5
11EF4
  8
SUNPOU
  6
CONTINUOUS
 62
     4
 10
27083.510528585171
 20
9789.1329740000092
 30
0.0
 11
21200.510528585161
 21
9789.1329740000092
 31
0.0
  0
LINE
  5
11EF5
  8
SUNPOU
  6
CONTINUOUS
 62
     4
 10
21240.510528585161
 20
8669.6883999999955
 30
0.0
 11
21240.510528585161
 21
9469.1900500000029
 31
0.0
  0
LINE
  5
11EF6
  8
SUNPOU
  6
CONTINUOUS
 62
     4
 10
21197.510528585161
 20
8669.6883999999955
 30
0.0
 11
21197.510528585161
 21
9469.1900500000029
 31
0.0
  0
LINE
  5
11EF7
  8
SUNPOU
  6
CONTINUOUS
 62
     4
 10
21240.510528585161
 20
9389.1900500000029
 30
0.0
 11
21480.51052858515
 21
9389.1900500000029
 31
0.0
  0
LINE
  5
11EF8
  8
SUNPOU
  6
CONTINUOUS
 62
     4
 10
21200.510528585161
 20
9389.1900500000029
 30
0.0
 11
20960.510528585161
 21
9389.1900500000029
 31
0.0
  0
LINE
  5
11EF9
  8
SUNPOU
  6
CONTINUOUS
 62
     4
 10
21240.510528585161
 20
9389.1900500000029
 30
0.0
 11
21200.510528585161
 21
9389.1900500000029
 31
0.0
  0
LINE
  5
11EFA
  8
SUNPOU
  6
CONTINUOUS
 62
     4
 10
27043.510528585171
 20
8539.6884659999996
 30
0.0
 11
27043.510528585171
 21
9469.1900500000029
 31
0.0
  0
LINE
  5
11EFB
  8
SUNPOU
  6
CONTINUOUS
 62
     4
 10
27086.510528585171
 20
8669.6883999999955
 30
0.0
 11
27086.510528585171
 21
9469.1900500000029
 31
0.0
  0
LINE
  5
11EFC
  8
SUNPOU
  6
CONTINUOUS
 62
     4
 10
27043.510528585171
 20
9389.1900500000029
 30
0.0
 11
26803.510528585171
 21
9389.1900500000029
 31
0.0
  0
LINE
  5
11EFD
  8
SUNPOU
  6
CONTINUOUS
 62
     4
 10
27083.510528585171
 20
9389.1900500000029
 30
0.0
 11
27323.510528585171
 21
9389.1900500000029
 31
0.0
  0
LINE
  5
11EFE
  8
SUNPOU
  6
CONTINUOUS
 62
     4
 10
27043.510528585171
 20
9389.1900500000029
 30
0.0
 11
27083.510528585171
 21
9389.1900500000029
 31
0.0
  0
LINE
  5
11EFF
  8
SUNPOU
  6
CONTINUOUS
 62
     4
 10
24040.510528585161
 20
8539.6884659999996
 30
0.0
 11
24040.510528585161
 21
9469.1900500000029
 31
0.0
  0
LINE
  5
11F00
  8
SUNPOU
  6
CONTINUOUS
 62
     4
 10
27043.510528585171
 20
8539.6884659999996
 30
0.0
 11
27043.510528585171
 21
9469.1900500000029
 31
0.0
  0
LINE
  5
11F01
  8
SUNPOU
  6
CONTINUOUS
 62
     4
 10
24040.510528585161
 20
9389.1900500000029
 30
0.0
 11
27043.510528585171
 21
9389.1900500000029
 31
0.0
  0
LINE
  5
11F02
  8
SUNPOU
  6
CONTINUOUS
 62
     4
 10
27131.013167585159
 20
6241.1883740000048
 30
0.0
 11
28574.112779289891
 21
6241.1883740000048
 31
0.0
  0
LINE
  5
11F03
  8
SUNPOU
  6
CONTINUOUS
 62
     4
 10
27163.510528585171
 20
8590.1883999999973
 30
0.0
 11
28574.11277928991
 21
8590.1883999999973
 31
0.0
  0
LINE
  5
11F04
  8
SUNPOU
  6
CONTINUOUS
 62
     4
 10
28494.112779289891
 20
6241.1883740000048
 30
0.0
 11
28494.11277928991
 21
8590.1883999999973
 31
0.0
  0
LINE
  5
11F05
  8
SUNPOU
  6
CONTINUOUS
 62
     4
 10
27131.013167585159
 20
6241.1883740000048
 30
0.0
 11
27931.01382758516
 21
6241.1883740000048
 31
0.0
  0
LINE
  5
11F06
  8
SUNPOU
  6
CONTINUOUS
 62
     4
 10
27038.514223585142
 20
8132.6883740000021
 30
0.0
 11
27931.01382758516
 21
8132.6883740000021
 31
0.0
  0
LINE
  5
11F07
  8
SUNPOU
  6
CONTINUOUS
 62
     4
 10
27851.01382758516
 20
6241.1883740000048
 30
0.0
 11
27851.01382758516
 21
8132.6883740000021
 31
0.0
  0
LINE
  5
11F08
  8
SUNPOU
  6
CONTINUOUS
 62
     4
 10
24037.51052858515
 20
6161.1883740000048
 30
0.0
 11
24037.51052858515
 21
5261.1883740000048
 31
0.0
  0
LINE
  5
11F09
  8
SUNPOU
  6
CONTINUOUS
 62
     4
 10
21325.510528585161
 20
6061.1885390000034
 30
0.0
 11
21325.510528585161
 21
5261.1883740000048
 31
0.0
  0
LINE
  5
11F0A
  8
SUNPOU
  6
CONTINUOUS
 62
     4
 10
24037.51052858515
 20
5341.1883740000048
 30
0.0
 11
21325.510528585161
 21
5341.1883740000048
 31
0.0
  0
LINE
  5
11F0B
  8
SUNPOU
  6
CONTINUOUS
 62
     4
 10
27043.470575637639
 20
6161.1883740000048
 30
0.0
 11
27043.470575637639
 21
4461.1887040000574
 31
0.0
  0
LINE
  5
11F0C
  8
SUNPOU
  6
CONTINUOUS
 62
     4
 10
21240.510528585161
 20
6061.1885390000034
 30
0.0
 11
21240.510528585161
 21
4461.1887040000574
 31
0.0
  0
LINE
  5
11F0D
  8
SUNPOU
  6
CONTINUOUS
 62
     4
 10
27043.470575637639
 20
4541.1887040000593
 30
0.0
 11
21240.510528585161
 21
4541.1887040000593
 31
0.0
  0
LINE
  5
11F0E
  8
SUNPOU
  6
CONTINUOUS
 62
     4
 10
27001.010528585171
 20
5798.536116000002
 30
0.0
 11
27001.010528585171
 21
4861.1885390000043
 31
0.0
  0
LINE
  5
11F0F
  8
SUNPOU
  6
CONTINUOUS
 62
     4
 10
27043.470575637639
 20
6161.1883740000048
 30
0.0
 11
27043.470575637639
 21
4861.1885390000043
 31
0.0
  0
LINE
  5
11F10
  8
SUNPOU
  6
CONTINUOUS
 62
     4
 10
27001.010528585171
 20
4941.1885390000016
 30
0.0
 11
26761.010528585171
 21
4941.1885390000016
 31
0.0
  0
LINE
  5
11F11
  8
SUNPOU
  6
CONTINUOUS
 62
     4
 10
27043.470575637639
 20
4941.1885390000016
 30
0.0
 11
27283.470575637639
 21
4941.1885390000016
 31
0.0
  0
LINE
  5
11F12
  8
SUNPOU
  6
CONTINUOUS
 62
     4
 10
27001.010528585171
 20
4941.1885390000016
 30
0.0
 11
27043.470575637639
 21
4941.1885390000016
 31
0.0
  0
LINE
  5
11F13
  8
SUNPOU
  6
CONTINUOUS
 62
     4
 10
24083.010528585161
 20
5798.536116000002
 30
0.0
 11
24083.010528585161
 21
4861.1885390000043
 31
0.0
  0
LINE
  5
11F14
  8
SUNPOU
  6
CONTINUOUS
 62
     4
 10
27001.010528585171
 20
5798.536116000002
 30
0.0
 11
27001.010528585171
 21
4861.1885390000043
 31
0.0
  0
LINE
  5
11F15
  8
SUNPOU
  6
CONTINUOUS
 62
     4
 10
24083.010528585161
 20
4941.1885390000016
 30
0.0
 11
27001.010528585171
 21
4941.1885390000016
 31
0.0
  0
LINE
  5
11F16
  8
SUNPOU
  6
CONTINUOUS
 62
     4
 10
26907.010528585171
 20
6061.1885390000034
 30
0.0
 11
26907.010528585171
 21
5261.1883740000048
 31
0.0
  0
LINE
  5
11F17
  8
SUNPOU
  6
CONTINUOUS
 62
     4
 10
24177.010528585171
 20
6061.1885390000034
 30
0.0
 11
24177.010528585171
 21
5261.1883740000048
 31
0.0
  0
LINE
  5
11F18
  8
SUNPOU
  6
CONTINUOUS
 62
     4
 10
26907.010528585171
 20
5341.1883740000048
 30
0.0
 11
24177.010528585171
 21
5341.1883740000048
 31
0.0
  0
LINE
  5
11F19
  8
SUNPOU
  6
CONTINUOUS
 62
     4
 10
21283.010528585161
 20
5798.536116000002
 30
0.0
 11
21283.010528585161
 21
4861.1885390000043
 31
0.0
  0
LINE
  5
11F1A
  8
SUNPOU
  6
CONTINUOUS
 62
     4
 10
21240.510528585161
 20
6061.1885390000034
 30
0.0
 11
21240.510528585161
 21
4861.1885390000043
 31
0.0
  0
LINE
  5
11F1B
  8
SUNPOU
  6
CONTINUOUS
 62
     4
 10
21283.010528585161
 20
4941.1885390000016
 30
0.0
 11
21523.010528585161
 21
4941.1885390000016
 31
0.0
  0
LINE
  5
11F1C
  8
SUNPOU
  6
CONTINUOUS
 62
     4
 10
21240.510528585161
 20
4941.1885390000016
 30
0.0
 11
21000.510528585161
 21
4941.1885390000016
 31
0.0
  0
LINE
  5
11F1D
  8
SUNPOU
  6
CONTINUOUS
 62
     4
 10
21283.010528585161
 20
4941.1885390000016
 30
0.0
 11
21240.510528585161
 21
4941.1885390000016
 31
0.0
  0
LINE
  5
11F1E
  8
SUNPOU
  6
CONTINUOUS
 62
     4
 10
24083.010528585161
 20
5798.536116000002
 30
0.0
 11
24083.010528585161
 21
4861.1885390000043
 31
0.0
  0
LINE
  5
11F1F
  8
SUNPOU
  6
CONTINUOUS
 62
     4
 10
21283.010528585161
 20
5798.536116000002
 30
0.0
 11
21283.010528585161
 21
4861.1885390000043
 31
0.0
  0
LINE
  5
11F20
  8
SUNPOU
  6
CONTINUOUS
 62
     4
 10
24083.010528585161
 20
4941.1885390000016
 30
0.0
 11
21283.010528585161
 21
4941.1885390000016
 31
0.0
  0
LINE
  5
11F21
  8
SUNPOU
  6
CONTINUOUS
 62
     4
 10
24040.510528585161
 20
8539.6884659999996
 30
0.0
 11
24040.510528585161
 21
9469.1900500000029
 31
0.0
  0
LINE
  5
11F22
  8
SUNPOU
  6
CONTINUOUS
 62
     4
 10
21240.510528585161
 20
8669.6883999999955
 30
0.0
 11
21240.510528585161
 21
9469.1900500000029
 31
0.0
  0
LINE
  5
11F23
  8
SUNPOU
  6
CONTINUOUS
 62
     4
 10
24040.510528585161
 20
9389.1900500000029
 30
0.0
 11
21240.510528585161
 21
9389.1900500000029
 31
0.0
  0
LINE
  5
11F24
  8
SUNPOU
  6
CONTINUOUS
 62
     4
 10
21160.510528585161
 20
6241.1883740000039
 30
0.0
 11
20075.68813029076
 21
6241.1883740000039
 31
0.0
  0
LINE
  5
11F25
  8
SUNPOU
  6
CONTINUOUS
 62
     4
 10
21160.510528585161
 20
8261.1883740000048
 30
0.0
 11
20075.68813029076
 21
8261.1883740000067
 31
0.0
  0
LINE
  5
11F26
  8
SUNPOU
  6
CONTINUOUS
 62
     4
 10
20155.68813029076
 20
6241.1883740000039
 30
0.0
 11
20155.68813029076
 21
8261.1883740000067
 31
0.0
  0
TEXT
  5
11F27
  8
0
  6
CONTINUOUS
 62
     7
 10
20075.68813029076
 20
6588.1883740000094
 30
0.0
 40
160.0
  1
有効高サ2020
 50
90.0
  0
TEXT
  5
11F28
  8
0
  6
CONTINUOUS
 62
     7
 10
22373.843861918482
 20
9469.1900500000029
 30
0.0
 40
160.0
  1
2800
  0
TEXT
  5
11F29
  8
0
  6
CONTINUOUS
 62
     7
 10
22416.343861918482
 20
5021.1885390000043
 30
0.0
 40
160.0
  1
2800
  0
TEXT
  5
11F2A
  8
0
  6
CONTINUOUS
 62
     7
 10
20640.509868585181
 20
5021.1883080000043
 30
0.0
 40
160.0
  1
42.5
  0
TEXT
  5
11F2B
  8
0
  6
CONTINUOUS
 62
     7
 10
24782.010528585161
 20
5421.1883740000048
 30
0.0
 40
160.0
  1
有効開口巾2730
  0
TEXT
  5
11F2C
  8
0
  6
CONTINUOUS
 62
     7
 10
25275.3438619185
 20
5021.1885390000043
 30
0.0
 40
160.0
  1
2918
  0
TEXT
  5
11F2D
  8
0
  6
CONTINUOUS
 62
     7
 10
27143.33355958516
 20
5028.7357170000032
 30
0.0
 40
160.0
  1
42.5
  0
TEXT
  5
11F2E
  8
0
  6
CONTINUOUS
 62
     7
 10
23861.990552111401
 20
4621.1887040000584
 30
0.0
 40
160.0
  1
5803
  0
TEXT
  5
11F2F
  8
0
  6
CONTINUOUS
 62
     7
 10
21934.843861918482
 20
5421.1883740000048
 30
0.0
 40
160.0
  1
有効開口巾2712
  0
TEXT
  5
11F30
  8
0
  6
CONTINUOUS
 62
     7
 10
27771.01382758516
 20
6264.2717073333424
 30
0.0
 40
160.0
  1
有効開口高サ1891.5
 50
90.0
  0
TEXT
  5
11F31
  8
0
  6
CONTINUOUS
 62
     7
 10
28414.112779289891
 20
6610.3550536666726
 30
0.0
 40
160.0
  1
2349（2589）
 50
90.0
  0
TEXT
  5
11F32
  8
0
  6
CONTINUOUS
 62
     7
 10
25275.3438619185
 20
9469.1900500000029
 30
0.0
 40
160.0
  1
3003
  0
TEXT
  5
11F33
  8
0
  6
CONTINUOUS
 62
     7
 10
27173.318514585171
 20
9469.1893240000081
 30
0.0
 40
160.0
  1
43
  0
TEXT
  5
11F34
  8
0
  6
CONTINUOUS
 62
     7
 10
20823.044708585141
 20
9469.1893240000081
 30
0.0
 40
160.0
  1
43
  0
TEXT
  5
11F35
  8
0
  6
CONTINUOUS
 62
     7
 10
23848.677195251839
 20
9869.1329740000092
 30
0.0
 40
160.0
  1
5889
  0
TEXT
  5
11F36
  8
0
  6
CONTINUOUS
 62
     7
 10
8576.380483026911
 20
5021.1885390000043
 30
0.0
 40
160.0
  1
2918
  0
TEXT
  5
11F37
  8
0
  6
CONTINUOUS
 62
     7
 10
11185.79714969357
 20
5021.1885390000043
 30
0.0
 40
160.0
  1
2567.5
  0
TEXT
  5
11F38
  8
0
  6
CONTINUOUS
 62
     7
 10
13014.03676369357
 20
5022.1790570000012
 30
0.0
 40
160.0
  1
42.5
  0
TEXT
  5
11F39
  8
0
  6
CONTINUOUS
 62
     7
 10
6741.5454996935732
 20
5021.1883080000043
 30
0.0
 40
160.0
  1
42.5
  0
TEXT
  5
11F3A
  8
0
  6
CONTINUOUS
 62
     7
 10
9740.1304830269073
 20
4621.1887040000001
 30
0.0
 40
160.0
  1
5570.5
  0
TEXT
  5
11F3B
  8
0
  6
CONTINUOUS
 62
     7
 10
13922.04754569356
 20
6326.9383740000076
 30
0.0
 40
160.0
  1
2155.5（2395.5）
 50
90.0
  0
TEXT
  5
11F3C
  8
0
  6
CONTINUOUS
 62
     7
 10
6171.5467536935739
 20
6610.3550406666718
 30
0.0
 40
160.0
  1
2349（2589）
 50
90.0
  0
TEXT
  5
11F3D
  8
0
  6
CONTINUOUS
 62
     7
 10
13199.722298162011
 20
9469.1900500000029
 30
0.0
 40
160.0
  1
180
  0
TEXT
  5
11F3E
  8
0
  6
CONTINUOUS
 62
     7
 10
9740.1304830269073
 20
9469.1900500000029
 30
0.0
 40
160.0
  1
5570.5
  0
TEXT
  5
11F3F
  8
0
  6
CONTINUOUS
 62
     7
 10
6778.2138163602467
 20
9469.1900500000029
 30
0.0
 40
160.0
  1
150
  0
TEXT
  5
11F40
  8
0
  6
CONTINUOUS
 62
     7
 10
9768.4638163602449
 20
9869.1883999999955
 30
0.0
 40
160.0
  1
5900.5
  0
TEXT
  5
11F46
  8
0
  6
CONTINUOUS
 62
     7
 10
19985.165189216521
 20
15004.32128733333
 30
0.0
 40
160.0
  1
2918
 50
90.0
  0
TEXT
  5
11F47
  8
0
  6
CONTINUOUS
 62
     7
 10
19985.165189216521
 20
17613.737953999989
 30
0.0
 40
160.0
  1
2567.5
 50
90.0
  0
TEXT
  5
11F48
  8
0
  6
CONTINUOUS
 62
     7
 10
20662.086885585159
 20
20219.987161999969
 30
0.0
 40
160.0
  1
42.5
  0
TEXT
  5
11F49
  8
0
  6
CONTINUOUS
 62
     7
 10
21340.182852585142
 20
20239.33101799999
 30
0.0
 40
160.0
  1
42.5
  0
TEXT
  5
11F4A
  8
0
  6
CONTINUOUS
 62
     7
 10
25275.34214691849
 20
20619.98887799996
 30
0.0
 40
160.0
  1
2918
  0
TEXT
  5
11F4B
  8
0
  6
CONTINUOUS
 62
     7
 10
22416.34214691849
 20
20619.98887799996
 30
0.0
 40
160.0
  1
2800
  0
TEXT
  5
11F4F
  8
0
  6
CONTINUOUS
 62
     7
 10
23490.88700046482
 20
20239.33101799999
 30
0.0
 40
160.0
  1
42.5
  0
TEXT
  5
11F50
  8
0
  6
CONTINUOUS
 62
     7
 10
24251.53656899475
 20
20232.596722796181
 30
0.0
 40
160.0
  1
758
  0
TEXT
  5
11F51
  8
0
  6
CONTINUOUS
 62
     7
 10
25018.177459251809
 20
20219.988877999971
 30
0.0
 40
160.0
  1
701
  0
TEXT
  5
11F52
  8
0
  6
CONTINUOUS
 62
     7
 10
25719.177459251809
 20
20219.988877999971
 30
0.0
 40
160.0
  1
701
  0
TEXT
  5
11F53
  8
0
  6
CONTINUOUS
 62
     7
 10
26408.677459251809
 20
20219.988877999971
 30
0.0
 40
160.0
  1
758
  0
TEXT
  5
11F60
  8
0
  6
CONTINUOUS
 62
     7
 10
27141.93272058513
 20
20219.988877999971
 30
0.0
 40
160.0
  1
42.5
  0
TEXT
  5
11F61
  8
0
  6
CONTINUOUS
 62
     7
 10
9653.9588338688882
 20
12429.98618599998
 30
0.0
 40
160.0
  1
ケラバ外寸5889
  0
TEXT
  5
11F62
  8
0
  6
CONTINUOUS
 62
     7
 10
13376.10581586887
 20
20240.486185999969
 30
0.0
 40
160.0
  1
85.5
  0
TEXT
  5
11F63
  8
0
  6
CONTINUOUS
 62
     7
 10
11555.29216720222
 20
20240.487901999972
 30
0.0
 40
160.0
  1
2918
  0
TEXT
  5
11F64
  8
0
  6
CONTINUOUS
 62
     7
 10
8696.2923292022278
 20
20240.487901999972
 30
0.0
 40
160.0
  1
2800
  0
TEXT
  5
11F65
  8
0
  6
CONTINUOUS
 62
     7
 10
6899.6404360419256
 20
20240.486185999969
 30
0.0
 40
160.0
  1
85.5
  0
TEXT
  5
11F66
  8
0
  6
CONTINUOUS
 62
     7
 10
13760.58475486301
 20
19685.249039999981
 30
0.0
 40
160.0
  1
22
 50
90.0
  0
TEXT
  5
11F67
  8
0
  6
CONTINUOUS
 62
     7
 10
14130.45877186888
 20
19618.968500389201
 30
0.0
 40
160.0
  1
222.5
 50
90.0
  0
TEXT
  5
11F68
  8
0
  6
CONTINUOUS
 62
     7
 10
14130.45877186888
 20
18321.510483731279
 30
0.0
 40
160.0
  1
1108.5
 50
90.0
  0
TEXT
  5
11F69
  8
0
  6
CONTINUOUS
 62
     7
 10
14130.458771868891
 20
12975.99734959056
 30
0.0
 40
160.0
  1
192.5
 50
90.0
  0
TEXT
  5
11F6A
  8
0
  6
CONTINUOUS
 62
     7
 10
14130.458447868859
 20
17213.320311333329
 30
0.0
 40
160.0
  1
1459
 50
90.0
  0
TEXT
  5
11F6B
  8
0
  6
CONTINUOUS
 62
     7
 10
14130.458447868859
 20
15754.320311333309
 30
0.0
 40
160.0
  1
1459
 50
90.0
  0
TEXT
  5
11F6C
  8
0
  6
CONTINUOUS
 62
     7
 10
14130.458447868859
 20
14295.32031133332
 30
0.0
 40
160.0
  1
1459
 50
90.0
  0
ARC
  5
11F6D
  8
0
  6
BYBLOCK
 62
     0
 10
14210.458447868879
 20
15291.48697799999
 30
0.0
 40
15.0
 50
270.0
 51
90.0
  0
ARC
  5
11F6E
  8
0
  6
BYBLOCK
 62
     0
 10
14210.458447868879
 20
15291.48697799999
 30
0.0
 40
15.0
 50
90.0
 51
270.0
  0
ARC
  5
11F6F
  8
0
  6
BYBLOCK
 62
     0
 10
14210.458447868879
 20
13832.48697799999
 30
0.0
 40
15.0
 50
90.0
 51
270.0
  0
ARC
  5
11F70
  8
0
  6
BYBLOCK
 62
     0
 10
14210.458447868879
 20
13832.48697799999
 30
0.0
 40
15.0
 50
270.0
 51
90.0
  0
ARC
  5
11F71
  8
0
  6
BYBLOCK
 62
     0
 10
14210.458447868879
 20
16750.486977999979
 30
0.0
 40
15.0
 50
270.0
 51
90.0
  0
ARC
  5
11F72
  8
0
  6
BYBLOCK
 62
     0
 10
14210.458447868879
 20
16750.486977999979
 30
0.0
 40
15.0
 50
90.0
 51
270.0
  0
ARC
  5
11F73
  8
0
  6
BYBLOCK
 62
     0
 10
14210.458447868879
 20
15291.48697799999
 30
0.0
 40
15.0
 50
90.0
 51
270.0
  0
ARC
  5
11F74
  8
0
  6
BYBLOCK
 62
     0
 10
14210.458447868879
 20
15291.48697799999
 30
0.0
 40
15.0
 50
270.0
 51
90.0
  0
ARC
  5
11F75
  8
0
  6
BYBLOCK
 62
     0
 10
14210.458447868879
 20
18209.48697799999
 30
0.0
 40
15.0
 50
270.0
 51
90.0
  0
ARC
  5
11F76
  8
0
  6
BYBLOCK
 62
     0
 10
14210.458447868879
 20
18209.48697799999
 30
0.0
 40
15.0
 50
90.0
 51
270.0
  0
ARC
  5
11F77
  8
0
  6
BYBLOCK
 62
     0
 10
14210.458447868879
 20
16750.486977999979
 30
0.0
 40
15.0
 50
90.0
 51
270.0
  0
ARC
  5
11F78
  8
0
  6
BYBLOCK
 62
     0
 10
14210.458447868879
 20
16750.486977999979
 30
0.0
 40
15.0
 50
270.0
 51
90.0
  0
ARC
  5
11F79
  8
0
  6
BYBLOCK
 62
     0
 10
14210.45877186888
 20
13832.486252000001
 30
0.0
 40
15.0
 50
270.0
 51
90.0
  0
ARC
  5
11F7A
  8
0
  6
BYBLOCK
 62
     0
 10
14210.45877186888
 20
13832.486252000001
 30
0.0
 40
15.0
 50
90.0
 51
270.0
  0
ARC
  5
11F7B
  8
0
  6
BYBLOCK
 62
     0
 10
14210.45877186888
 20
13639.98697799999
 30
0.0
 40
15.0
 50
90.0
 51
270.0
  0
ARC
  5
11F7C
  8
0
  6
BYBLOCK
 62
     0
 10
14210.45877186888
 20
13639.98697799999
 30
0.0
 40
15.0
 50
270.0
 51
90.0
  0
ARC
  5
11F7D
  8
0
  6
BYBLOCK
 62
     0
 10
14210.45877186888
 20
19317.986977999961
 30
0.0
 40
15.0
 50
270.0
 51
90.0
  0
ARC
  5
11F7E
  8
0
  6
BYBLOCK
 62
     0
 10
14210.45877186888
 20
19317.986977999961
 30
0.0
 40
15.0
 50
90.0
 51
270.0
  0
ARC
  5
11F7F
  8
0
  6
BYBLOCK
 62
     0
 10
14210.45877186888
 20
18209.48697799999
 30
0.0
 40
15.0
 50
90.0
 51
270.0
  0
ARC
  5
11F80
  8
0
  6
BYBLOCK
 62
     0
 10
14210.45877186888
 20
18209.48697799999
 30
0.0
 40
15.0
 50
270.0
 51
90.0
  0
ARC
  5
11F81
  8
0
  6
BYBLOCK
 62
     0
 10
14210.45877186888
 20
19317.986977999961
 30
0.0
 40
15.0
 50
90.0
 51
270.0
  0
ARC
  5
11F82
  8
0
  6
BYBLOCK
 62
     0
 10
14210.45877186888
 20
19317.986977999961
 30
0.0
 40
15.0
 50
270.0
 51
90.0
  0
ARC
  5
11F83
  8
0
  6
BYBLOCK
 62
     0
 10
14210.45877186888
 20
19540.486845999982
 30
0.0
 40
15.0
 50
270.0
 51
90.0
  0
ARC
  5
11F84
  8
0
  6
BYBLOCK
 62
     0
 10
14210.45877186888
 20
19540.486845999982
 30
0.0
 40
15.0
 50
90.0
 51
270.0
  0
ARC
  5
11F85
  8
0
  6
BYBLOCK
 62
     0
 10
13810.45943086887
 20
19500.48671399997
 30
0.0
 40
15.0
 50
270.0
 51
90.0
  0
ARC
  5
11F86
  8
0
  6
BYBLOCK
 62
     0
 10
13810.45943086887
 20
19500.48671399997
 30
0.0
 40
15.0
 50
90.0
 51
270.0
  0
ARC
  5
11F87
  8
0
  6
BYBLOCK
 62
     0
 10
13810.45943086887
 20
19540.486845999982
 30
0.0
 40
15.0
 50
90.0
 51
270.0
  0
ARC
  5
11F88
  8
0
  6
BYBLOCK
 62
     0
 10
13810.45943086887
 20
19540.486845999982
 30
0.0
 40
15.0
 50
270.0
 51
90.0
  0
ARC
  5
11F89
  8
0
  6
BYBLOCK
 62
     0
 10
7562.958995868893
 20
20160.487901999972
 30
0.0
 40
15.0
 50
0.0
 51
180.0
  0
ARC
  5
11F8A
  8
0
  6
BYBLOCK
 62
     0
 10
7562.958995868893
 20
20160.487901999972
 30
0.0
 40
15.0
 50
180.0
 51
0.0
  0
ARC
  5
11F8B
  8
0
  6
BYBLOCK
 62
     0
 10
7477.458995868893
 20
20160.487901999972
 30
0.0
 40
15.0
 50
180.0
 51
0.0
  0
ARC
  5
11F8C
  8
0
  6
BYBLOCK
 62
     0
 10
7477.458995868893
 20
20160.487901999972
 30
0.0
 40
15.0
 50
0.0
 51
180.0
  0
ARC
  5
11F8D
  8
0
  6
BYBLOCK
 62
     0
 10
10362.95899586889
 20
20160.487901999972
 30
0.0
 40
15.0
 50
180.0
 51
0.0
  0
ARC
  5
11F8E
  8
0
  6
BYBLOCK
 62
     0
 10
10362.95899586889
 20
20160.487901999972
 30
0.0
 40
15.0
 50
0.0
 51
180.0
  0
ARC
  5
11F8F
  8
0
  6
BYBLOCK
 62
     0
 10
7562.958995868893
 20
20160.487901999972
 30
0.0
 40
15.0
 50
0.0
 51
180.0
  0
ARC
  5
11F90
  8
0
  6
BYBLOCK
 62
     0
 10
7562.958995868893
 20
20160.487901999972
 30
0.0
 40
15.0
 50
180.0
 51
0.0
  0
ARC
  5
11F91
  8
0
  6
BYBLOCK
 62
     0
 10
13280.95867186889
 20
20160.487901999972
 30
0.0
 40
15.0
 50
180.0
 51
0.0
  0
ARC
  5
11F92
  8
0
  6
BYBLOCK
 62
     0
 10
13280.95867186889
 20
20160.487901999972
 30
0.0
 40
15.0
 50
0.0
 51
180.0
  0
ARC
  5
11F93
  8
0
  6
BYBLOCK
 62
     0
 10
10362.95899586889
 20
20160.487901999972
 30
0.0
 40
15.0
 50
0.0
 51
180.0
  0
ARC
  5
11F94
  8
0
  6
BYBLOCK
 62
     0
 10
10362.95899586889
 20
20160.487901999972
 30
0.0
 40
15.0
 50
180.0
 51
0.0
  0
ARC
  5
11F95
  8
0
  6
BYBLOCK
 62
     0
 10
13280.95867186889
 20
20160.487901999972
 30
0.0
 40
15.0
 50
180.0
 51
0.0
  0
ARC
  5
11F96
  8
0
  6
BYBLOCK
 62
     0
 10
13280.95867186889
 20
20160.487901999972
 30
0.0
 40
15.0
 50
0.0
 51
180.0
  0
ARC
  5
11F97
  8
0
  6
BYBLOCK
 62
     0
 10
13366.45867186889
 20
20160.487901999972
 30
0.0
 40
15.0
 50
0.0
 51
180.0
  0
ARC
  5
11F98
  8
0
  6
BYBLOCK
 62
     0
 10
13366.45867186889
 20
20160.487901999972
 30
0.0
 40
15.0
 50
180.0
 51
0.0
  0
ARC
  5
11F99
  8
0
  6
BYBLOCK
 62
     0
 10
13366.45867186887
 20
12349.98618599998
 30
0.0
 40
15.0
 50
180.0
 51
0.0
  0
ARC
  5
11F9A
  8
0
  6
BYBLOCK
 62
     0
 10
13366.45867186887
 20
12349.98618599998
 30
0.0
 40
15.0
 50
0.0
 51
180.0
  0
ARC
  5
11F9B
  8
0
  6
BYBLOCK
 62
     0
 10
7477.458995868893
 20
12349.98618599998
 30
0.0
 40
15.0
 50
0.0
 51
180.0
  0
ARC
  5
11F9C
  8
0
  6
BYBLOCK
 62
     0
 10
7477.458995868893
 20
12349.98618599998
 30
0.0
 40
15.0
 50
180.0
 51
0.0
  0
ARC
  5
11F9D
  8
0
  6
BYBLOCK
 62
     0
 10
27001.010792585152
 20
20139.988877999971
 30
0.0
 40
15.0
 50
180.0
 51
0.0
  0
ARC
  5
11F9E
  8
0
  6
BYBLOCK
 62
     0
 10
27001.010792585152
 20
20139.988877999971
 30
0.0
 40
15.0
 50
0.0
 51
180.0
  0
ARC
  5
11F9F
  8
0
  6
BYBLOCK
 62
     0
 10
27043.510792585152
 20
20139.988877999971
 30
0.0
 40
15.0
 50
0.0
 51
180.0
  0
ARC
  5
11FA0
  8
0
  6
BYBLOCK
 62
     0
 10
27043.510792585152
 20
20139.988877999971
 30
0.0
 40
15.0
 50
180.0
 51
0.0
  0
ARC
  5
11FD1
  8
0
  6
BYBLOCK
 62
     0
 10
26243.010792585152
 20
20139.988877999971
 30
0.0
 40
15.0
 50
0.0
 51
180.0
  0
ARC
  5
11FD2
  8
0
  6
BYBLOCK
 62
     0
 10
26243.010792585152
 20
20139.988877999971
 30
0.0
 40
15.0
 50
180.0
 51
0.0
  0
ARC
  5
11FD3
  8
0
  6
BYBLOCK
 62
     0
 10
27001.010792585152
 20
20139.988877999971
 30
0.0
 40
15.0
 50
180.0
 51
0.0
  0
ARC
  5
11FD4
  8
0
  6
BYBLOCK
 62
     0
 10
27001.010792585152
 20
20139.988877999971
 30
0.0
 40
15.0
 50
0.0
 51
180.0
  0
ARC
  5
11FD5
  8
0
  6
BYBLOCK
 62
     0
 10
25542.010792585152
 20
20139.988877999971
 30
0.0
 40
15.0
 50
0.0
 51
180.0
  0
ARC
  5
11FD6
  8
0
  6
BYBLOCK
 62
     0
 10
25542.010792585152
 20
20139.988877999971
 30
0.0
 40
15.0
 50
180.0
 51
0.0
  0
ARC
  5
11FD7
  8
0
  6
BYBLOCK
 62
     0
 10
26243.010792585152
 20
20139.988877999971
 30
0.0
 40
15.0
 50
180.0
 51
0.0
  0
ARC
  5
11FD8
  8
0
  6
BYBLOCK
 62
     0
 10
26243.010792585152
 20
20139.988877999971
 30
0.0
 40
15.0
 50
0.0
 51
180.0
  0
ARC
  5
11FD9
  8
0
  6
BYBLOCK
 62
     0
 10
24841.010792585152
 20
20139.988877999971
 30
0.0
 40
15.0
 50
0.0
 51
180.0
  0
ARC
  5
11FDA
  8
0
  6
BYBLOCK
 62
     0
 10
24841.010792585152
 20
20139.988877999971
 30
0.0
 40
15.0
 50
180.0
 51
0.0
  0
ARC
  5
11FDB
  8
0
  6
BYBLOCK
 62
     0
 10
25542.010792585152
 20
20139.988877999971
 30
0.0
 40
15.0
 50
180.0
 51
0.0
  0
ARC
  5
11FDC
  8
0
  6
BYBLOCK
 62
     0
 10
25542.010792585152
 20
20139.988877999971
 30
0.0
 40
15.0
 50
0.0
 51
180.0
  0
ARC
  5
11FDD
  8
0
  6
BYBLOCK
 62
     0
 10
24083.010792585152
 20
20139.988877999971
 30
0.0
 40
15.0
 50
0.0
 51
180.0
  0
ARC
  5
11FDE
  8
0
  6
BYBLOCK
 62
     0
 10
24083.010792585152
 20
20139.988877999971
 30
0.0
 40
15.0
 50
180.0
 51
0.0
  0
ARC
  5
11FDF
  8
0
  6
BYBLOCK
 62
     0
 10
24841.010792585152
 20
20139.988877999971
 30
0.0
 40
15.0
 50
180.0
 51
0.0
  0
ARC
  5
11FE0
  8
0
  6
BYBLOCK
 62
     0
 10
24841.010792585152
 20
20139.988877999971
 30
0.0
 40
15.0
 50
0.0
 51
180.0
  0
ARC
  5
11FE1
  8
0
  6
BYBLOCK
 62
     0
 10
24083.010792585152
 20
20139.988877999971
 30
0.0
 40
15.0
 50
0.0
 51
180.0
  0
ARC
  5
11FE2
  8
0
  6
BYBLOCK
 62
     0
 10
24083.010792585152
 20
20139.988877999971
 30
0.0
 40
15.0
 50
180.0
 51
0.0
  0
ARC
  5
11FE3
  8
0
  6
BYBLOCK
 62
     0
 10
24040.510792585152
 20
20139.988877999971
 30
0.0
 40
15.0
 50
180.0
 51
0.0
  0
ARC
  5
11FE4
  8
0
  6
BYBLOCK
 62
     0
 10
24040.510792585152
 20
20139.988877999971
 30
0.0
 40
15.0
 50
0.0
 51
180.0
  0
ARC
  5
11FF1
  8
0
  6
BYBLOCK
 62
     0
 10
24083.008813585158
 20
20539.98887799996
 30
0.0
 40
15.0
 50
180.0
 51
0.0
  0
ARC
  5
11FF2
  8
0
  6
BYBLOCK
 62
     0
 10
24083.008813585158
 20
20539.98887799996
 30
0.0
 40
15.0
 50
0.0
 51
180.0
  0
ARC
  5
11FF3
  8
0
  6
BYBLOCK
 62
     0
 10
21283.008813585151
 20
20539.98887799996
 30
0.0
 40
15.0
 50
0.0
 51
180.0
  0
ARC
  5
11FF4
  8
0
  6
BYBLOCK
 62
     0
 10
21283.008813585151
 20
20539.98887799996
 30
0.0
 40
15.0
 50
180.0
 51
0.0
  0
ARC
  5
11FF5
  8
0
  6
BYBLOCK
 62
     0
 10
27001.008813585151
 20
20539.98887799996
 30
0.0
 40
15.0
 50
180.0
 51
0.0
  0
ARC
  5
11FF6
  8
0
  6
BYBLOCK
 62
     0
 10
27001.008813585151
 20
20539.98887799996
 30
0.0
 40
15.0
 50
0.0
 51
180.0
  0
ARC
  5
11FF7
  8
0
  6
BYBLOCK
 62
     0
 10
24083.008813585158
 20
20539.98887799996
 30
0.0
 40
15.0
 50
0.0
 51
180.0
  0
ARC
  5
11FF8
  8
0
  6
BYBLOCK
 62
     0
 10
24083.008813585158
 20
20539.98887799996
 30
0.0
 40
15.0
 50
180.0
 51
0.0
  0
ARC
  5
11FF9
  8
0
  6
BYBLOCK
 62
     0
 10
21283.008813585151
 20
20139.988877999971
 30
0.0
 40
15.0
 50
180.0
 51
0.0
  0
ARC
  5
11FFA
  8
0
  6
BYBLOCK
 62
     0
 10
21283.008813585151
 20
20139.988877999971
 30
0.0
 40
15.0
 50
0.0
 51
180.0
  0
ARC
  5
11FFB
  8
0
  6
BYBLOCK
 62
     0
 10
21325.51105658515
 20
20139.988877999971
 30
0.0
 40
15.0
 50
0.0
 51
180.0
  0
ARC
  5
11FFC
  8
0
  6
BYBLOCK
 62
     0
 10
21325.51105658515
 20
20139.988877999971
 30
0.0
 40
15.0
 50
180.0
 51
0.0
  0
ARC
  5
11FFD
  8
0
  6
BYBLOCK
 62
     0
 10
21283.008813585151
 20
20139.988877999971
 30
0.0
 40
15.0
 50
0.0
 51
180.0
  0
ARC
  5
11FFE
  8
0
  6
BYBLOCK
 62
     0
 10
21283.008813585151
 20
20139.988877999971
 30
0.0
 40
15.0
 50
180.0
 51
0.0
  0
ARC
  5
11FFF
  8
0
  6
BYBLOCK
 62
     0
 10
21240.510528585161
 20
20139.988877999971
 30
0.0
 40
15.0
 50
180.0
 51
0.0
  0
ARC
  5
12000
  8
0
  6
BYBLOCK
 62
     0
 10
21240.510528585161
 20
20139.988877999971
 30
0.0
 40
15.0
 50
0.0
 51
180.0
  0
ARC
  5
12001
  8
0
  6
BYBLOCK
 62
     0
 10
20065.165189216521
 20
16729.987953999978
 30
0.0
 40
15.0
 50
90.0
 51
270.0
  0
ARC
  5
12002
  8
0
  6
BYBLOCK
 62
     0
 10
20065.165189216521
 20
16729.987953999978
 30
0.0
 40
15.0
 50
270.0
 51
90.0
  0
ARC
  5
12003
  8
0
  6
BYBLOCK
 62
     0
 10
20065.165189216521
 20
19297.487953999989
 30
0.0
 40
15.0
 50
270.0
 51
90.0
  0
ARC
  5
12004
  8
0
  6
BYBLOCK
 62
     0
 10
20065.165189216521
 20
19297.487953999989
 30
0.0
 40
15.0
 50
90.0
 51
270.0
  0
ARC
  5
12005
  8
0
  6
BYBLOCK
 62
     0
 10
20065.165189216521
 20
13811.987954
 30
0.0
 40
15.0
 50
90.0
 51
270.0
  0
ARC
  5
12006
  8
0
  6
BYBLOCK
 62
     0
 10
20065.165189216521
 20
13811.987954
 30
0.0
 40
15.0
 50
270.0
 51
90.0
  0
ARC
  5
12007
  8
0
  6
BYBLOCK
 62
     0
 10
20065.165189216521
 20
16729.987953999978
 30
0.0
 40
15.0
 50
270.0
 51
90.0
  0
ARC
  5
12008
  8
0
  6
BYBLOCK
 62
     0
 10
20065.165189216521
 20
16729.987953999978
 30
0.0
 40
15.0
 50
90.0
 51
270.0
  0
ARC
  5
1201D
  8
0
  6
BYBLOCK
 62
     0
 10
13092.04714969357
 20
9789.1883999999991
 30
0.0
 40
15.0
 50
180.0
 51
0.0
  0
ARC
  5
1201E
  8
0
  6
BYBLOCK
 62
     0
 10
13092.04714969357
 20
9789.1883999999991
 30
0.0
 40
15.0
 50
0.0
 51
180.0
  0
ARC
  5
1201F
  8
0
  6
BYBLOCK
 62
     0
 10
7191.5471496935797
 20
9789.1883999999991
 30
0.0
 40
15.0
 50
0.0
 51
180.0
  0
ARC
  5
12020
  8
0
  6
BYBLOCK
 62
     0
 10
7191.5471496935797
 20
9789.1883999999991
 30
0.0
 40
15.0
 50
180.0
 51
0.0
  0
ARC
  5
12021
  8
0
  6
BYBLOCK
 62
     0
 10
7341.5471496935706
 20
9389.1900500000029
 30
0.0
 40
15.0
 50
0.0
 51
180.0
  0
ARC
  5
12022
  8
0
  6
BYBLOCK
 62
     0
 10
7341.5471496935706
 20
9389.1900500000029
 30
0.0
 40
15.0
 50
180.0
 51
0.0
  0
ARC
  5
12023
  8
0
  6
BYBLOCK
 62
     0
 10
7191.5471496935797
 20
9389.1900500000029
 30
0.0
 40
15.0
 50
180.0
 51
0.0
  0
ARC
  5
12024
  8
0
  6
BYBLOCK
 62
     0
 10
7191.5471496935797
 20
9389.1900500000029
 30
0.0
 40
15.0
 50
0.0
 51
180.0
  0
ARC
  5
12025
  8
0
  6
BYBLOCK
 62
     0
 10
12912.04714969357
 20
9389.1900500000029
 30
0.0
 40
15.0
 50
180.0
 51
0.0
  0
ARC
  5
12026
  8
0
  6
BYBLOCK
 62
     0
 10
12912.04714969357
 20
9389.1900500000029
 30
0.0
 40
15.0
 50
0.0
 51
180.0
  0
ARC
  5
12027
  8
0
  6
BYBLOCK
 62
     0
 10
7341.5471496935706
 20
9389.1900500000029
 30
0.0
 40
15.0
 50
0.0
 51
180.0
  0
ARC
  5
12028
  8
0
  6
BYBLOCK
 62
     0
 10
7341.5471496935706
 20
9389.1900500000029
 30
0.0
 40
15.0
 50
180.0
 51
0.0
  0
ARC
  5
12029
  8
0
  6
BYBLOCK
 62
     0
 10
13092.04714969357
 20
9389.1900500000029
 30
0.0
 40
15.0
 50
180.0
 51
0.0
  0
ARC
  5
1202A
  8
0
  6
BYBLOCK
 62
     0
 10
13092.04714969357
 20
9389.1900500000029
 30
0.0
 40
15.0
 50
0.0
 51
180.0
  0
ARC
  5
1202B
  8
0
  6
BYBLOCK
 62
     0
 10
12912.04714969357
 20
9389.1900500000029
 30
0.0
 40
15.0
 50
0.0
 51
180.0
  0
ARC
  5
1202C
  8
0
  6
BYBLOCK
 62
     0
 10
12912.04714969357
 20
9389.1900500000029
 30
0.0
 40
15.0
 50
180.0
 51
0.0
  0
ARC
  5
1202D
  8
0
  6
BYBLOCK
 62
     0
 10
6251.5467536935757
 20
6241.1883740000048
 30
0.0
 40
15.0
 50
90.0
 51
270.0
  0
ARC
  5
1202E
  8
0
  6
BYBLOCK
 62
     0
 10
6251.5467536935757
 20
6241.1883740000048
 30
0.0
 40
15.0
 50
270.0
 51
90.0
  0
ARC
  5
1202F
  8
0
  6
BYBLOCK
 62
     0
 10
6251.5467536935757
 20
8590.188374000003
 30
0.0
 40
15.0
 50
270.0
 51
90.0
  0
ARC
  5
12030
  8
0
  6
BYBLOCK
 62
     0
 10
6251.5467536935757
 20
8590.188374000003
 30
0.0
 40
15.0
 50
90.0
 51
270.0
  0
ARC
  5
12031
  8
0
  6
BYBLOCK
 62
     0
 10
14002.04754569356
 20
6241.1883740000048
 30
0.0
 40
15.0
 50
90.0
 51
270.0
  0
ARC
  5
12032
  8
0
  6
BYBLOCK
 62
     0
 10
14002.04754569356
 20
6241.1883740000048
 30
0.0
 40
15.0
 50
270.0
 51
90.0
  0
ARC
  5
12033
  8
0
  6
BYBLOCK
 62
     0
 10
14002.04754569356
 20
8396.688374000003
 30
0.0
 40
15.0
 50
270.0
 51
90.0
  0
ARC
  5
12034
  8
0
  6
BYBLOCK
 62
     0
 10
14002.04754569356
 20
8396.688374000003
 30
0.0
 40
15.0
 50
90.0
 51
270.0
  0
ARC
  5
12035
  8
0
  6
BYBLOCK
 62
     0
 10
12912.04714969357
 20
4541.1887040000001
 30
0.0
 40
15.0
 50
180.0
 51
0.0
  0
ARC
  5
12036
  8
0
  6
BYBLOCK
 62
     0
 10
12912.04714969357
 20
4541.1887040000001
 30
0.0
 40
15.0
 50
0.0
 51
180.0
  0
ARC
  5
12037
  8
0
  6
BYBLOCK
 62
     0
 10
7341.5471496935706
 20
4541.1887040000001
 30
0.0
 40
15.0
 50
0.0
 51
180.0
  0
ARC
  5
12038
  8
0
  6
BYBLOCK
 62
     0
 10
7341.5471496935706
 20
4541.1887040000001
 30
0.0
 40
15.0
 50
180.0
 51
0.0
  0
ARC
  5
12039
  8
0
  6
BYBLOCK
 62
     0
 10
7384.0471496935779
 20
4941.1885390000016
 30
0.0
 40
15.0
 50
0.0
 51
180.0
  0
ARC
  5
1203A
  8
0
  6
BYBLOCK
 62
     0
 10
7384.0471496935779
 20
4941.1885390000016
 30
0.0
 40
15.0
 50
180.0
 51
0.0
  0
ARC
  5
1203B
  8
0
  6
BYBLOCK
 62
     0
 10
7341.5471496935706
 20
4941.1885390000016
 30
0.0
 40
15.0
 50
180.0
 51
0.0
  0
ARC
  5
1203C
  8
0
  6
BYBLOCK
 62
     0
 10
7341.5471496935706
 20
4941.1885390000016
 30
0.0
 40
15.0
 50
0.0
 51
180.0
  0
ARC
  5
1203D
  8
0
  6
BYBLOCK
 62
     0
 10
12869.54714969357
 20
4941.1885390000016
 30
0.0
 40
15.0
 50
180.0
 51
0.0
  0
ARC
  5
1203E
  8
0
  6
BYBLOCK
 62
     0
 10
12869.54714969357
 20
4941.1885390000016
 30
0.0
 40
15.0
 50
0.0
 51
180.0
  0
ARC
  5
1203F
  8
0
  6
BYBLOCK
 62
     0
 10
12912.04714969357
 20
4941.1885390000016
 30
0.0
 40
15.0
 50
0.0
 51
180.0
  0
ARC
  5
12040
  8
0
  6
BYBLOCK
 62
     0
 10
12912.04714969357
 20
4941.1885390000016
 30
0.0
 40
15.0
 50
180.0
 51
0.0
  0
ARC
  5
12041
  8
0
  6
BYBLOCK
 62
     0
 10
10302.047149693581
 20
4941.1885390000016
 30
0.0
 40
15.0
 50
0.0
 51
180.0
  0
ARC
  5
12042
  8
0
  6
BYBLOCK
 62
     0
 10
10302.047149693581
 20
4941.1885390000016
 30
0.0
 40
15.0
 50
180.0
 51
0.0
  0
ARC
  5
12043
  8
0
  6
BYBLOCK
 62
     0
 10
12869.54714969357
 20
4941.1885390000016
 30
0.0
 40
15.0
 50
180.0
 51
0.0
  0
ARC
  5
12044
  8
0
  6
BYBLOCK
 62
     0
 10
12869.54714969357
 20
4941.1885390000016
 30
0.0
 40
15.0
 50
0.0
 51
180.0
  0
ARC
  5
12045
  8
0
  6
BYBLOCK
 62
     0
 10
10302.047149693581
 20
4941.1885390000016
 30
0.0
 40
15.0
 50
180.0
 51
0.0
  0
ARC
  5
12046
  8
0
  6
BYBLOCK
 62
     0
 10
10302.047149693581
 20
4941.1885390000016
 30
0.0
 40
15.0
 50
0.0
 51
180.0
  0
ARC
  5
12047
  8
0
  6
BYBLOCK
 62
     0
 10
7384.0471496935779
 20
4941.1885390000016
 30
0.0
 40
15.0
 50
0.0
 51
180.0
  0
ARC
  5
12048
  8
0
  6
BYBLOCK
 62
     0
 10
7384.0471496935779
 20
4941.1885390000016
 30
0.0
 40
15.0
 50
180.0
 51
0.0
  0
ARC
  5
12049
  8
0
  6
BYBLOCK
 62
     0
 10
27086.510528585171
 20
9789.1329740000092
 30
0.0
 40
15.0
 50
180.0
 51
0.0
  0
ARC
  5
1204A
  8
0
  6
BYBLOCK
 62
     0
 10
27086.510528585171
 20
9789.1329740000092
 30
0.0
 40
15.0
 50
0.0
 51
180.0
  0
ARC
  5
1204B
  8
0
  6
BYBLOCK
 62
     0
 10
21197.510528585161
 20
9789.1329740000092
 30
0.0
 40
15.0
 50
0.0
 51
180.0
  0
ARC
  5
1204C
  8
0
  6
BYBLOCK
 62
     0
 10
21197.510528585161
 20
9789.1329740000092
 30
0.0
 40
15.0
 50
180.0
 51
0.0
  0
ARC
  5
1204D
  8
0
  6
BYBLOCK
 62
     0
 10
21240.510528585161
 20
9389.1900500000029
 30
0.0
 40
15.0
 50
0.0
 51
180.0
  0
ARC
  5
1204E
  8
0
  6
BYBLOCK
 62
     0
 10
21240.510528585161
 20
9389.1900500000029
 30
0.0
 40
15.0
 50
180.0
 51
0.0
  0
ARC
  5
1204F
  8
0
  6
BYBLOCK
 62
     0
 10
21197.510528585161
 20
9389.1900500000029
 30
0.0
 40
15.0
 50
180.0
 51
0.0
  0
ARC
  5
12050
  8
0
  6
BYBLOCK
 62
     0
 10
21197.510528585161
 20
9389.1900500000029
 30
0.0
 40
15.0
 50
0.0
 51
180.0
  0
ARC
  5
12051
  8
0
  6
BYBLOCK
 62
     0
 10
27043.510528585171
 20
9389.1900500000029
 30
0.0
 40
15.0
 50
180.0
 51
0.0
  0
ARC
  5
12052
  8
0
  6
BYBLOCK
 62
     0
 10
27043.510528585171
 20
9389.1900500000029
 30
0.0
 40
15.0
 50
0.0
 51
180.0
  0
ARC
  5
12053
  8
0
  6
BYBLOCK
 62
     0
 10
27086.510528585171
 20
9389.1900500000029
 30
0.0
 40
15.0
 50
0.0
 51
180.0
  0
ARC
  5
12054
  8
0
  6
BYBLOCK
 62
     0
 10
27086.510528585171
 20
9389.1900500000029
 30
0.0
 40
15.0
 50
180.0
 51
0.0
  0
ARC
  5
12055
  8
0
  6
BYBLOCK
 62
     0
 10
24040.510528585161
 20
9389.1900500000029
 30
0.0
 40
15.0
 50
0.0
 51
180.0
  0
ARC
  5
12056
  8
0
  6
BYBLOCK
 62
     0
 10
24040.510528585161
 20
9389.1900500000029
 30
0.0
 40
15.0
 50
180.0
 51
0.0
  0
ARC
  5
12057
  8
0
  6
BYBLOCK
 62
     0
 10
27043.510528585171
 20
9389.1900500000029
 30
0.0
 40
15.0
 50
180.0
 51
0.0
  0
ARC
  5
12058
  8
0
  6
BYBLOCK
 62
     0
 10
27043.510528585171
 20
9389.1900500000029
 30
0.0
 40
15.0
 50
0.0
 51
180.0
  0
ARC
  5
12059
  8
0
  6
BYBLOCK
 62
     0
 10
28494.112779289891
 20
6241.1883740000048
 30
0.0
 40
15.0
 50
90.0
 51
270.0
  0
ARC
  5
1205A
  8
0
  6
BYBLOCK
 62
     0
 10
28494.112779289891
 20
6241.1883740000048
 30
0.0
 40
15.0
 50
270.0
 51
90.0
  0
ARC
  5
1205B
  8
0
  6
BYBLOCK
 62
     0
 10
28494.11277928991
 20
8590.1883999999973
 30
0.0
 40
15.0
 50
270.0
 51
90.0
  0
ARC
  5
1205C
  8
0
  6
BYBLOCK
 62
     0
 10
28494.11277928991
 20
8590.1883999999973
 30
0.0
 40
15.0
 50
90.0
 51
270.0
  0
ARC
  5
1205D
  8
0
  6
BYBLOCK
 62
     0
 10
27851.01382758516
 20
6241.1883740000048
 30
0.0
 40
15.0
 50
90.0
 51
270.0
  0
ARC
  5
1205E
  8
0
  6
BYBLOCK
 62
     0
 10
27851.01382758516
 20
6241.1883740000048
 30
0.0
 40
15.0
 50
270.0
 51
90.0
  0
ARC
  5
1205F
  8
0
  6
BYBLOCK
 62
     0
 10
27851.01382758516
 20
8132.6883740000021
 30
0.0
 40
15.0
 50
270.0
 51
90.0
  0
ARC
  5
12060
  8
0
  6
BYBLOCK
 62
     0
 10
27851.01382758516
 20
8132.6883740000021
 30
0.0
 40
15.0
 50
90.0
 51
270.0
  0
ARC
  5
12061
  8
0
  6
BYBLOCK
 62
     0
 10
24037.51052858515
 20
5341.1883740000048
 30
0.0
 40
15.0
 50
180.0
 51
0.0
  0
ARC
  5
12062
  8
0
  6
BYBLOCK
 62
     0
 10
24037.51052858515
 20
5341.1883740000048
 30
0.0
 40
15.0
 50
0.0
 51
180.0
  0
ARC
  5
12063
  8
0
  6
BYBLOCK
 62
     0
 10
21325.510528585161
 20
5341.1883740000048
 30
0.0
 40
15.0
 50
0.0
 51
180.0
  0
ARC
  5
12064
  8
0
  6
BYBLOCK
 62
     0
 10
21325.510528585161
 20
5341.1883740000048
 30
0.0
 40
15.0
 50
180.0
 51
0.0
  0
ARC
  5
12065
  8
0
  6
BYBLOCK
 62
     0
 10
27043.470575637639
 20
4541.1887040000593
 30
0.0
 40
15.0
 50
180.0
 51
0.0
  0
ARC
  5
12066
  8
0
  6
BYBLOCK
 62
     0
 10
27043.470575637639
 20
4541.1887040000593
 30
0.0
 40
15.0
 50
0.0
 51
180.0
  0
ARC
  5
12067
  8
0
  6
BYBLOCK
 62
     0
 10
21240.510528585161
 20
4541.1887040000593
 30
0.0
 40
15.0
 50
0.0
 51
180.0
  0
ARC
  5
12068
  8
0
  6
BYBLOCK
 62
     0
 10
21240.510528585161
 20
4541.1887040000593
 30
0.0
 40
15.0
 50
180.0
 51
0.0
  0
ARC
  5
12069
  8
0
  6
BYBLOCK
 62
     0
 10
27001.010528585171
 20
4941.1885390000016
 30
0.0
 40
15.0
 50
180.0
 51
0.0
  0
ARC
  5
1206A
  8
0
  6
BYBLOCK
 62
     0
 10
27001.010528585171
 20
4941.1885390000016
 30
0.0
 40
15.0
 50
0.0
 51
180.0
  0
ARC
  5
1206B
  8
0
  6
BYBLOCK
 62
     0
 10
27043.470575637639
 20
4941.1885390000016
 30
0.0
 40
15.0
 50
0.0
 51
180.0
  0
ARC
  5
1206C
  8
0
  6
BYBLOCK
 62
     0
 10
27043.470575637639
 20
4941.1885390000016
 30
0.0
 40
15.0
 50
180.0
 51
0.0
  0
ARC
  5
1206D
  8
0
  6
BYBLOCK
 62
     0
 10
24083.010528585161
 20
4941.1885390000016
 30
0.0
 40
15.0
 50
0.0
 51
180.0
  0
ARC
  5
1206E
  8
0
  6
BYBLOCK
 62
     0
 10
24083.010528585161
 20
4941.1885390000016
 30
0.0
 40
15.0
 50
180.0
 51
0.0
  0
ARC
  5
1206F
  8
0
  6
BYBLOCK
 62
     0
 10
27001.010528585171
 20
4941.1885390000016
 30
0.0
 40
15.0
 50
180.0
 51
0.0
  0
ARC
  5
12070
  8
0
  6
BYBLOCK
 62
     0
 10
27001.010528585171
 20
4941.1885390000016
 30
0.0
 40
15.0
 50
0.0
 51
180.0
  0
ARC
  5
12071
  8
0
  6
BYBLOCK
 62
     0
 10
26907.010528585171
 20
5341.1883740000048
 30
0.0
 40
15.0
 50
180.0
 51
0.0
  0
ARC
  5
12072
  8
0
  6
BYBLOCK
 62
     0
 10
26907.010528585171
 20
5341.1883740000048
 30
0.0
 40
15.0
 50
0.0
 51
180.0
  0
ARC
  5
12073
  8
0
  6
BYBLOCK
 62
     0
 10
24177.010528585171
 20
5341.1883740000048
 30
0.0
 40
15.0
 50
0.0
 51
180.0
  0
ARC
  5
12074
  8
0
  6
BYBLOCK
 62
     0
 10
24177.010528585171
 20
5341.1883740000048
 30
0.0
 40
15.0
 50
180.0
 51
0.0
  0
ARC
  5
12075
  8
0
  6
BYBLOCK
 62
     0
 10
21283.010528585161
 20
4941.1885390000016
 30
0.0
 40
15.0
 50
0.0
 51
180.0
  0
ARC
  5
12076
  8
0
  6
BYBLOCK
 62
     0
 10
21283.010528585161
 20
4941.1885390000016
 30
0.0
 40
15.0
 50
180.0
 51
0.0
  0
ARC
  5
12077
  8
0
  6
BYBLOCK
 62
     0
 10
21240.510528585161
 20
4941.1885390000016
 30
0.0
 40
15.0
 50
180.0
 51
0.0
  0
ARC
  5
12078
  8
0
  6
BYBLOCK
 62
     0
 10
21240.510528585161
 20
4941.1885390000016
 30
0.0
 40
15.0
 50
0.0
 51
180.0
  0
ARC
  5
12079
  8
0
  6
BYBLOCK
 62
     0
 10
24083.010528585161
 20
4941.1885390000016
 30
0.0
 40
15.0
 50
180.0
 51
0.0
  0
ARC
  5
1207A
  8
0
  6
BYBLOCK
 62
     0
 10
24083.010528585161
 20
4941.1885390000016
 30
0.0
 40
15.0
 50
0.0
 51
180.0
  0
ARC
  5
1207B
  8
0
  6
BYBLOCK
 62
     0
 10
21283.010528585161
 20
4941.1885390000016
 30
0.0
 40
15.0
 50
0.0
 51
180.0
  0
ARC
  5
1207C
  8
0
  6
BYBLOCK
 62
     0
 10
21283.010528585161
 20
4941.1885390000016
 30
0.0
 40
15.0
 50
180.0
 51
0.0
  0
ARC
  5
1207D
  8
0
  6
BYBLOCK
 62
     0
 10
24040.510528585161
 20
9389.1900500000029
 30
0.0
 40
15.0
 50
180.0
 51
0.0
  0
ARC
  5
1207E
  8
0
  6
BYBLOCK
 62
     0
 10
24040.510528585161
 20
9389.1900500000029
 30
0.0
 40
15.0
 50
0.0
 51
180.0
  0
ARC
  5
1207F
  8
0
  6
BYBLOCK
 62
     0
 10
21240.510528585161
 20
9389.1900500000029
 30
0.0
 40
15.0
 50
0.0
 51
180.0
  0
ARC
  5
12080
  8
0
  6
BYBLOCK
 62
     0
 10
21240.510528585161
 20
9389.1900500000029
 30
0.0
 40
15.0
 50
180.0
 51
0.0
  0
ARC
  5
12081
  8
0
  6
BYBLOCK
 62
     0
 10
20155.68813029076
 20
6241.1883740000039
 30
0.0
 40
15.0
 50
90.0
 51
270.0
  0
ARC
  5
12082
  8
0
  6
BYBLOCK
 62
     0
 10
20155.68813029076
 20
6241.1883740000039
 30
0.0
 40
15.0
 50
270.0
 51
90.0
  0
ARC
  5
12083
  8
0
  6
BYBLOCK
 62
     0
 10
20155.68813029076
 20
8261.1883740000067
 30
0.0
 40
15.0
 50
270.0
 51
90.0
  0
ARC
  5
12084
  8
0
  6
BYBLOCK
 62
     0
 10
20155.68813029076
 20
8261.1883740000067
 30
0.0
 40
15.0
 50
90.0
 51
270.0
  0
TEXT
  5
12160
  8
NAME
 10
21595.82616625919
 20
1076.6369801169251
 30
0.0
 40
360.0
  1
VGCU-3055（H）+VKCU-2855（H）型-L（単棟）
 41
0.4200000000000001
  0
TEXT
  5
12162
  8
NAME
 10
21933.552716389011
 20
1876.0
 30
0.0
 40
360.0
  1
ヨドガレージ ラヴィージュ
 41
0.75
  7
01
  0
LINE
  5
12163
  8
NAME
  6
CONTINUOUS
 10
26067.886878884299
 20
2236.0
 30
0.0
 11
26067.886878884299
 21
1876.0
 31
0.0
  0
LINE
  5
12164
  8
NAME
  6
CONTINUOUS
 10
26167.886878884299
 20
2236.0
 30
0.0
 11
26167.886878884299
 21
1876.0
 31
0.0
  0
LINE
  5
12165
  8
NAME
  6
CONTINUOUS
 10
26267.88687888431
 20
2236.0
 30
0.0
 11
26267.88687888431
 21
1876.0
 31
0.0
  0
LINE
  5
12166
  8
NAME
  6
CONTINUOUS
 10
26007.886878884299
 20
2236.0
 30
0.0
 11
26327.886878884299
 21
2236.0
 31
0.0
  0
LINE
  5
12167
  8
NAME
  6
CONTINUOUS
 10
26327.886878884299
 20
1876.0
 30
0.0
 11
26007.886878884299
 21
1876.0
 31
0.0
  0
LINE
  5
12172
  8
2-0
  6
CENTER2
 62
     6
 10
24083.008813585151
 20
20939.990196999988
 30
0.0
 11
24083.008813585151
 21
13454.234075531571
 31
0.0
  0
LINE
  5
12175
  8
2-0
  6
CENTER2
 62
     6
 10
27001.008813585151
 20
20939.990196999988
 30
0.0
 11
27001.008813585151
 21
13454.234075531571
 31
0.0
  0
LINE
  5
12926
  8
2-0
  6
CONTINUOUS
 62
     6
 10
25317.849897585151
 20
13171.98683199999
 30
0.0
 11
26317.843299585111
 21
13171.98683199999
 31
0.0
  0
LINE
  5
12927
  8
2-0
  6
CONTINUOUS
 62
     6
 10
26785.78367658515
 20
13642.407545999989
 30
0.0
 11
26317.843299585111
 21
13171.98683199999
 31
0.0
  0
LINE
  5
12928
  8
2-0
  6
CONTINUOUS
 62
     6
 10
25334.560993585132
 20
17851.106896999991
 30
0.0
 11
26352.536341585139
 21
17851.106896999991
 31
0.0
  0
LINE
  5
12929
  8
2-0
  6
CONTINUOUS
 62
     6
 10
26808.961859585132
 20
18075.821845999981
 30
0.0
 11
26352.536341585139
 21
17851.106896999991
 31
0.0
  0
LINE
  5
1292A
  8
2-0
  6
CONTINUOUS
 62
     6
 10
26747.143473585129
 20
16834.015192999999
 30
0.0
 11
26442.448055585141
 21
16937.66872400001
 31
0.0
  0
LINE
  5
1292B
  8
2-0
  6
CONTINUOUS
 62
     6
 10
26902.165512585121
 20
16344.39314900001
 30
0.0
 11
26442.448055585141
 21
16100.47983799999
 31
0.0
  0
LINE
  5
1292C
  8
2-0
  6
CONTINUOUS
 62
     6
 10
25522.445020585132
 20
16100.47983799999
 30
0.0
 11
26442.448055585141
 21
16100.47983799999
 31
0.0
  0
LINE
  5
1292D
  8
2-0
  6
CONTINUOUS
 62
     6
 10
25242.453993585139
 20
16937.66872400001
 30
0.0
 11
26442.448055585141
 21
16937.66872400001
 31
0.0
  0
LINE
  5
1292E
  8
2-0
  6
CONTINUOUS
 62
     6
 10
26818.342797585141
 20
13964.09119199998
 30
0.0
 11
26442.448055585141
 21
14145.035026999991
 31
0.0
  0
LINE
  5
1292F
  8
2-0
  6
CONTINUOUS
 62
     6
 10
25334.560993585132
 20
14933.344439
 30
0.0
 11
26352.536341585139
 21
14933.344439
 31
0.0
  0
LINE
  5
12930
  8
2-0
  6
CONTINUOUS
 62
     6
 10
25922.446339585142
 20
14145.035026999991
 30
0.0
 11
26442.448055585141
 21
14145.035026999991
 31
0.0
  0
LINE
  5
12931
  8
2-0
  6
CONTINUOUS
 62
     6
 10
26808.961859585132
 20
15158.05740900001
 30
0.0
 11
26352.536341585139
 21
14933.344439
 31
0.0
  0
LINE
  5
12932
  8
2-0
  6
CONTINUOUS
 62
     3
 10
27013.509473585142
 20
19230.986027999999
 30
0.0
 11
27013.509473585142
 21
19224.990065999998
 31
0.0
  0
LINE
  5
12933
  8
2-0
  6
CONTINUOUS
 62
     3
 10
27013.509473585142
 20
19224.990065999998
 30
0.0
 11
27043.50709758513
 21
19224.990065999998
 31
0.0
  0
LINE
  5
12934
  8
2-0
  6
CONTINUOUS
 62
     3
 10
27043.50709758513
 20
19254.989669999981
 30
0.0
 11
26962.505197585131
 21
19254.989669999981
 31
0.0
  0
LINE
  5
12935
  8
2-0
  6
CONTINUOUS
 62
     3
 10
27013.509473585142
 20
19214.692609999991
 30
0.0
 11
27043.50709758513
 21
19214.692609999991
 31
0.0
  0
LINE
  5
12936
  8
2-0
  6
CONTINUOUS
 62
     3
 10
27013.509473585142
 20
19232.69435200001
 30
0.0
 11
27013.509473585142
 21
19214.692609999991
 31
0.0
  0
LINE
  5
12937
  8
2-0
  6
CONTINUOUS
 62
     3
 10
27038.506833585139
 20
19232.69435200001
 30
0.0
 11
27013.509473585142
 21
19232.69435200001
 31
0.0
  0
LINE
  5
12938
  8
2-0
  6
CONTINUOUS
 62
     3
 10
27038.506833585139
 20
19227.686170000001
 30
0.0
 11
27038.506833585139
 21
19232.69435200001
 31
0.0
  0
LINE
  5
12939
  8
2-0
  6
CONTINUOUS
 62
     3
 10
27031.505276585151
 20
19227.686170000001
 30
0.0
 11
27038.506833585139
 21
19227.686170000001
 31
0.0
  0
LINE
  5
1293A
  8
2-0
  6
CONTINUOUS
 62
     3
 10
26931.209008585149
 20
19327.98639699999
 30
0.0
 11
26931.209008585149
 21
19334.991913000002
 31
0.0
  0
LINE
  5
1293B
  8
2-0
  6
CONTINUOUS
 62
     3
 10
26931.209008585149
 20
19334.991913000002
 30
0.0
 11
26936.209272585122
 21
19334.991913000002
 31
0.0
  0
LINE
  5
1293C
  8
2-0
  6
CONTINUOUS
 62
     3
 10
26936.209272585122
 20
19334.991913000002
 30
0.0
 11
26936.209272585122
 21
19309.982676
 31
0.0
  0
LINE
  5
1293D
  8
2-0
  6
CONTINUOUS
 62
     3
 10
26936.209272585122
 20
19309.982676
 30
0.0
 11
26918.207530585121
 21
19309.982676
 31
0.0
  0
LINE
  5
1293E
  8
2-0
  6
CONTINUOUS
 62
     3
 10
26918.207530585121
 20
19309.982676
 30
0.0
 11
26918.207530585121
 21
19339.986239000002
 31
0.0
  0
LINE
  5
1293F
  8
2-0
  6
CONTINUOUS
 62
     3
 10
26928.50498658514
 20
19339.986239000002
 30
0.0
 11
27043.50709758513
 21
19339.986239000002
 31
0.0
  0
LINE
  5
12940
  8
2-0
  6
CONTINUOUS
 62
     3
 10
26928.50498658514
 20
19309.982676
 30
0.0
 11
26928.50498658514
 21
19339.986239000002
 31
0.0
  0
LINE
  5
12941
  8
2-0
  6
CONTINUOUS
 62
     3
 10
26934.50688658515
 20
19309.982676
 30
0.0
 11
26928.50498658514
 21
19309.982676
 31
0.0
  0
LINE
  5
12942
  8
2-0
  6
CONTINUOUS
 62
     3
 10
27031.505276585151
 20
18874.389347499979
 30
0.0
 11
27038.506833585139
 21
18874.389347499979
 31
0.0
  0
LINE
  5
12943
  8
2-0
  6
CONTINUOUS
 62
     3
 10
27038.506833585139
 20
18874.389347499979
 30
0.0
 11
27038.506833585139
 21
18879.389611499981
 31
0.0
  0
LINE
  5
12944
  8
2-0
  6
CONTINUOUS
 62
     3
 10
27038.506833585139
 20
18879.389611499981
 30
0.0
 11
27013.509473585142
 21
18879.389611499981
 31
0.0
  0
LINE
  5
12945
  8
2-0
  6
CONTINUOUS
 62
     3
 10
27013.509473585142
 20
18879.389611499981
 30
0.0
 11
27013.509473585142
 21
18861.39380749999
 31
0.0
  0
LINE
  5
12946
  8
2-0
  6
CONTINUOUS
 62
     3
 10
27013.509473585142
 20
18861.39380749999
 30
0.0
 11
27043.50709758513
 21
18861.39380749999
 31
0.0
  0
LINE
  5
12947
  8
2-0
  6
CONTINUOUS
 62
     3
 10
27013.509473585142
 20
18877.485314499951
 30
0.0
 11
27013.509473585142
 21
18871.487373499989
 31
0.0
  0
LINE
  5
12948
  8
2-0
  6
CONTINUOUS
 62
     3
 10
27013.509473585142
 20
18871.487373499989
 30
0.0
 11
27043.50709758513
 21
18871.487373499989
 31
0.0
  0
LINE
  5
12949
  8
2-0
  6
CONTINUOUS
 62
     3
 10
27043.50709758513
 20
18871.487373499989
 30
0.0
 11
27043.50709758513
 21
18908.488534499989
 31
0.0
  0
LINE
  5
1294A
  8
2-0
  6
CONTINUOUS
 62
     3
 10
27013.509473585142
 20
18908.488534499989
 30
0.0
 11
27043.50709758513
 21
18908.488534499989
 31
0.0
  0
LINE
  5
1294B
  8
2-0
  6
CONTINUOUS
 62
     3
 10
27013.509473585142
 20
18902.484654499971
 30
0.0
 11
27013.509473585142
 21
18908.488534499989
 31
0.0
  0
LINE
  5
1294C
  8
2-0
  6
CONTINUOUS
 62
     3
 10
27013.509473585142
 20
18918.584079499979
 30
0.0
 11
27043.50709758513
 21
18918.584079499979
 31
0.0
  0
LINE
  5
1294D
  8
2-0
  6
CONTINUOUS
 62
     3
 10
27013.509473585142
 20
18900.58233749996
 30
0.0
 11
27013.509473585142
 21
18918.584079499979
 31
0.0
  0
LINE
  5
1294E
  8
2-0
  6
CONTINUOUS
 62
     3
 10
27038.506833585139
 20
18900.58233749996
 30
0.0
 11
27013.509473585142
 21
18900.58233749996
 31
0.0
  0
LINE
  5
1294F
  8
2-0
  6
CONTINUOUS
 62
     3
 10
27038.506833585139
 20
18905.582601499991
 30
0.0
 11
27038.506833585139
 21
18900.58233749996
 31
0.0
  0
LINE
  5
12950
  8
2-0
  6
CONTINUOUS
 62
     3
 10
27031.505276585151
 20
18905.582601499991
 30
0.0
 11
27038.506833585139
 21
18905.582601499991
 31
0.0
  0
LINE
  5
12951
  8
2-0
  6
CONTINUOUS
 62
     3
 10
27031.505276585151
 20
18173.388357999989
 30
0.0
 11
27038.506833585139
 21
18173.388357999989
 31
0.0
  0
LINE
  5
12952
  8
2-0
  6
CONTINUOUS
 62
     3
 10
27038.506833585139
 20
18173.388357999989
 30
0.0
 11
27038.506833585139
 21
18178.39455999999
 31
0.0
  0
LINE
  5
12953
  8
2-0
  6
CONTINUOUS
 62
     3
 10
27038.506833585139
 20
18178.39455999999
 30
0.0
 11
27013.509473585142
 21
18178.39455999999
 31
0.0
  0
LINE
  5
12954
  8
2-0
  6
CONTINUOUS
 62
     3
 10
27013.509473585142
 20
18178.39455999999
 30
0.0
 11
27013.509473585142
 21
18160.392817999989
 31
0.0
  0
LINE
  5
12955
  8
2-0
  6
CONTINUOUS
 62
     3
 10
27013.509473585142
 20
18160.392817999989
 30
0.0
 11
27043.50709758513
 21
18160.392817999989
 31
0.0
  0
LINE
  5
12956
  8
2-0
  6
CONTINUOUS
 62
     3
 10
27013.509473585142
 20
18176.484324999979
 30
0.0
 11
27013.509473585142
 21
18170.488362999989
 31
0.0
  0
LINE
  5
12957
  8
2-0
  6
CONTINUOUS
 62
     3
 10
27013.509473585142
 20
18170.488362999989
 30
0.0
 11
27043.50709758513
 21
18170.488362999989
 31
0.0
  0
LINE
  5
12958
  8
2-0
  6
CONTINUOUS
 62
     3
 10
27043.50709758513
 20
18170.488362999989
 30
0.0
 11
27043.50709758513
 21
18207.487544999982
 31
0.0
  0
LINE
  5
12959
  8
2-0
  6
CONTINUOUS
 62
     3
 10
27013.509473585142
 20
18207.487544999982
 30
0.0
 11
27043.50709758513
 21
18207.487544999982
 31
0.0
  0
LINE
  5
1295A
  8
2-0
  6
CONTINUOUS
 62
     3
 10
27013.509473585142
 20
18201.491582999999
 30
0.0
 11
27013.509473585142
 21
18207.487544999982
 31
0.0
  0
LINE
  5
1295B
  8
2-0
  6
CONTINUOUS
 62
     3
 10
27013.509473585142
 20
18217.583089999989
 30
0.0
 11
27043.50709758513
 21
18217.583089999989
 31
0.0
  0
LINE
  5
1295C
  8
2-0
  6
CONTINUOUS
 62
     3
 10
27013.509473585142
 20
18199.581347999982
 30
0.0
 11
27013.509473585142
 21
18217.583089999989
 31
0.0
  0
LINE
  5
1295D
  8
2-0
  6
CONTINUOUS
 62
     3
 10
27038.506833585139
 20
18199.581347999982
 30
0.0
 11
27013.509473585142
 21
18199.581347999982
 31
0.0
  0
LINE
  5
1295E
  8
2-0
  6
CONTINUOUS
 62
     3
 10
27038.506833585139
 20
18204.587549999989
 30
0.0
 11
27038.506833585139
 21
18199.581347999982
 31
0.0
  0
LINE
  5
1295F
  8
2-0
  6
CONTINUOUS
 62
     3
 10
27031.505276585151
 20
18204.587549999989
 30
0.0
 11
27038.506833585139
 21
18204.587549999989
 31
0.0
  0
LINE
  5
12960
  8
2-0
  6
CONTINUOUS
 62
     3
 10
27031.505276585151
 20
17503.581611999991
 30
0.0
 11
27038.506833585139
 21
17503.581611999991
 31
0.0
  0
LINE
  5
12961
  8
2-0
  6
CONTINUOUS
 62
     3
 10
27038.506833585139
 20
17503.581611999991
 30
0.0
 11
27038.506833585139
 21
17498.593225000001
 31
0.0
  0
LINE
  5
12962
  8
2-0
  6
CONTINUOUS
 62
     3
 10
27038.506833585139
 20
17498.593225000001
 30
0.0
 11
27013.509473585142
 21
17498.593225000001
 31
0.0
  0
LINE
  5
12963
  8
2-0
  6
CONTINUOUS
 62
     3
 10
27013.509473585142
 20
17498.593225000001
 30
0.0
 11
27013.509473585142
 21
17516.589027999991
 31
0.0
  0
LINE
  5
12964
  8
2-0
  6
CONTINUOUS
 62
     3
 10
27013.509473585142
 20
17516.589027999991
 30
0.0
 11
27043.50709758513
 21
17516.589027999991
 31
0.0
  0
LINE
  5
12965
  8
2-0
  6
CONTINUOUS
 62
     3
 10
27013.509473585142
 20
17500.491582999981
 30
0.0
 11
27013.509473585142
 21
17506.487544999982
 31
0.0
  0
LINE
  5
12966
  8
2-0
  6
CONTINUOUS
 62
     3
 10
27013.509473585142
 20
17506.487544999982
 30
0.0
 11
27043.50709758513
 21
17506.487544999982
 31
0.0
  0
LINE
  5
12967
  8
2-0
  6
CONTINUOUS
 62
     3
 10
27043.50709758513
 20
17506.487544999982
 30
0.0
 11
27043.50709758513
 21
17469.488363
 31
0.0
  0
LINE
  5
12968
  8
2-0
  6
CONTINUOUS
 62
     3
 10
27013.509473585142
 20
17469.488363
 30
0.0
 11
27043.50709758513
 21
17469.488363
 31
0.0
  0
LINE
  5
12969
  8
2-0
  6
CONTINUOUS
 62
     3
 10
27013.509473585142
 20
17475.490263999978
 30
0.0
 11
27013.509473585142
 21
17469.488363
 31
0.0
  0
LINE
  5
1296A
  8
2-0
  6
CONTINUOUS
 62
     3
 10
27013.509473585142
 20
17459.398756999981
 30
0.0
 11
27043.50709758513
 21
17459.398756999981
 31
0.0
  0
LINE
  5
1296B
  8
2-0
  6
CONTINUOUS
 62
     3
 10
27013.509473585142
 20
17477.39455999999
 30
0.0
 11
27013.509473585142
 21
17459.398756999981
 31
0.0
  0
LINE
  5
1296C
  8
2-0
  6
CONTINUOUS
 62
     3
 10
27038.506833585139
 20
17477.39455999999
 30
0.0
 11
27013.509473585142
 21
17477.39455999999
 31
0.0
  0
LINE
  5
1296D
  8
2-0
  6
CONTINUOUS
 62
     3
 10
27038.506833585139
 20
17472.394296999981
 30
0.0
 11
27038.506833585139
 21
17477.39455999999
 31
0.0
  0
LINE
  5
1296E
  8
2-0
  6
CONTINUOUS
 62
     3
 10
27031.505276585151
 20
17472.394296999981
 30
0.0
 11
27038.506833585139
 21
17472.394296999981
 31
0.0
  0
LINE
  5
1296F
  8
2-0
  6
CONTINUOUS
 62
     3
 10
27040.620959585151
 20
16752.48518299999
 30
0.0
 11
27040.620959585151
 21
16772.48623799999
 31
0.0
  0
LINE
  5
12970
  8
2-0
  6
CONTINUOUS
 62
     3
 10
27040.620959585151
 20
16772.48623799999
 30
0.0
 11
26955.62439058513
 21
16772.48623799999
 31
0.0
  0
LINE
  5
12971
  8
2-0
  6
CONTINUOUS
 62
     3
 10
27031.505276585151
 20
16799.092948000001
 30
0.0
 11
27038.506833585139
 21
16799.092948000001
 31
0.0
  0
LINE
  5
12972
  8
2-0
  6
CONTINUOUS
 62
     3
 10
27038.506833585139
 20
16799.092948000001
 30
0.0
 11
27038.506833585139
 21
16794.09862199999
 31
0.0
  0
LINE
  5
12973
  8
2-0
  6
CONTINUOUS
 62
     3
 10
27038.506833585139
 20
16794.09862199999
 30
0.0
 11
27013.509473585142
 21
16794.09862199999
 31
0.0
  0
LINE
  5
12974
  8
2-0
  6
CONTINUOUS
 62
     3
 10
27013.509473585142
 20
16794.09862199999
 30
0.0
 11
27013.509473585142
 21
16812.094425999989
 31
0.0
  0
LINE
  5
12975
  8
2-0
  6
CONTINUOUS
 62
     3
 10
27013.509473585142
 20
16812.094425999989
 30
0.0
 11
27043.50709758513
 21
16812.094425999989
 31
0.0
  0
LINE
  5
12976
  8
2-0
  6
CONTINUOUS
 62
     3
 10
27013.509473585142
 20
16802.485841999991
 30
0.0
 11
27013.509473585142
 21
16796.483941999981
 31
0.0
  0
LINE
  5
12977
  8
2-0
  6
CONTINUOUS
 62
     3
 10
27043.50709758513
 20
16802.485841999991
 30
0.0
 11
27013.509473585142
 21
16802.485841999991
 31
0.0
  0
LINE
  5
12978
  8
2-0
  6
CONTINUOUS
 62
     3
 10
27043.50709758513
 20
16812.094425999989
 30
0.0
 11
27043.50709758513
 21
17459.398756999981
 31
0.0
  0
LINE
  5
12979
  8
2-0
  6
CONTINUOUS
 62
     3
 10
27043.50709758513
 20
17516.589027999991
 30
0.0
 11
27043.50709758513
 21
18160.392817999989
 31
0.0
  0
LINE
  5
1297A
  8
2-0
  6
CONTINUOUS
 62
     3
 10
27043.50709758513
 20
16657.484127
 30
0.0
 11
27013.509473585142
 21
16657.484127
 31
0.0
  0
LINE
  5
1297B
  8
2-0
  6
CONTINUOUS
 62
     3
 10
27013.509473585142
 20
16657.484127
 30
0.0
 11
27013.509473585142
 21
16663.486026999981
 31
0.0
  0
LINE
  5
1297C
  8
2-0
  6
CONTINUOUS
 62
     3
 10
26955.62439058513
 20
16687.489669999981
 30
0.0
 11
27040.620959585151
 21
16687.489669999981
 31
0.0
  0
LINE
  5
1297D
  8
2-0
  6
CONTINUOUS
 62
     3
 10
27040.620959585151
 20
16687.489669999981
 30
0.0
 11
27040.620959585151
 21
16707.484787000001
 31
0.0
  0
LINE
  5
1297E
  8
2-0
  6
CONTINUOUS
 62
     3
 10
27013.509473585142
 20
16647.875543999991
 30
0.0
 11
27043.50709758513
 21
16647.875543999991
 31
0.0
  0
LINE
  5
1297F
  8
2-0
  6
CONTINUOUS
 62
     3
 10
27013.509473585142
 20
16665.87134699996
 30
0.0
 11
27013.509473585142
 21
16647.875543999991
 31
0.0
  0
LINE
  5
12980
  8
2-0
  6
CONTINUOUS
 62
     3
 10
27038.506833585139
 20
16665.87134699996
 30
0.0
 11
27013.509473585142
 21
16665.87134699996
 31
0.0
  0
LINE
  5
12981
  8
2-0
  6
CONTINUOUS
 62
     3
 10
27038.506833585139
 20
16660.871083000002
 30
0.0
 11
27038.506833585139
 21
16665.87134699996
 31
0.0
  0
LINE
  5
12982
  8
2-0
  6
CONTINUOUS
 62
     3
 10
27031.505276585151
 20
16660.871083000002
 30
0.0
 11
27038.506833585139
 21
16660.871083000002
 31
0.0
  0
LINE
  5
12983
  8
2-0
  6
CONTINUOUS
 62
     3
 10
27031.505276585151
 20
15956.38885249996
 30
0.0
 11
27038.506833585139
 21
15956.38885249996
 31
0.0
  0
LINE
  5
12984
  8
2-0
  6
CONTINUOUS
 62
     3
 10
27038.506833585139
 20
15956.38885249996
 30
0.0
 11
27038.506833585139
 21
15961.38911649998
 31
0.0
  0
LINE
  5
12985
  8
2-0
  6
CONTINUOUS
 62
     3
 10
27038.506833585139
 20
15961.38911649998
 30
0.0
 11
27013.509473585142
 21
15961.38911649998
 31
0.0
  0
LINE
  5
12986
  8
2-0
  6
CONTINUOUS
 62
     3
 10
27013.509473585142
 20
15961.38911649998
 30
0.0
 11
27013.509473585142
 21
15943.387374499989
 31
0.0
  0
LINE
  5
12987
  8
2-0
  6
CONTINUOUS
 62
     3
 10
27013.509473585142
 20
15943.387374499989
 30
0.0
 11
27043.50709758513
 21
15943.387374499989
 31
0.0
  0
LINE
  5
12988
  8
2-0
  6
CONTINUOUS
 62
     3
 10
27013.509473585142
 20
15959.48481949999
 30
0.0
 11
27013.509473585142
 21
15953.487868499989
 31
0.0
  0
LINE
  5
12989
  8
2-0
  6
CONTINUOUS
 62
     3
 10
27013.509473585142
 20
15953.487868499989
 30
0.0
 11
27043.50709758513
 21
15953.487868499989
 31
0.0
  0
LINE
  5
1298A
  8
2-0
  6
CONTINUOUS
 62
     3
 10
27043.50709758513
 20
15953.487868499989
 30
0.0
 11
27043.50709758513
 21
15990.488039499989
 31
0.0
  0
LINE
  5
1298B
  8
2-0
  6
CONTINUOUS
 62
     3
 10
27013.509473585142
 20
15990.488039499989
 30
0.0
 11
27043.50709758513
 21
15990.488039499989
 31
0.0
  0
LINE
  5
1298C
  8
2-0
  6
CONTINUOUS
 62
     3
 10
27013.509473585142
 20
15984.48514949998
 30
0.0
 11
27013.509473585142
 21
15990.488039499989
 31
0.0
  0
LINE
  5
1298D
  8
2-0
  6
CONTINUOUS
 62
     3
 10
27013.509473585142
 20
16000.583584499989
 30
0.0
 11
27043.50709758513
 21
16000.583584499989
 31
0.0
  0
LINE
  5
1298E
  8
2-0
  6
CONTINUOUS
 62
     3
 10
27013.509473585142
 20
15982.57590349999
 30
0.0
 11
27013.509473585142
 21
16000.583584499989
 31
0.0
  0
LINE
  5
1298F
  8
2-0
  6
CONTINUOUS
 62
     3
 10
27038.506833585139
 20
15982.57590349999
 30
0.0
 11
27013.509473585142
 21
15982.57590349999
 31
0.0
  0
LINE
  5
12990
  8
2-0
  6
CONTINUOUS
 62
     3
 10
27038.506833585139
 20
15987.582106499989
 30
0.0
 11
27038.506833585139
 21
15982.57590349999
 31
0.0
  0
LINE
  5
12991
  8
2-0
  6
CONTINUOUS
 62
     3
 10
27031.505276585151
 20
15987.582106499989
 30
0.0
 11
27038.506833585139
 21
15987.582106499989
 31
0.0
  0
LINE
  5
12992
  8
2-0
  6
CONTINUOUS
 62
     3
 10
27031.505276585151
 20
15286.822123
 30
0.0
 11
27038.506833585139
 21
15286.822123
 31
0.0
  0
LINE
  5
12993
  8
2-0
  6
CONTINUOUS
 62
     3
 10
27038.506833585139
 20
15286.822123
 30
0.0
 11
27038.506833585139
 21
15281.827798
 31
0.0
  0
LINE
  5
12994
  8
2-0
  6
CONTINUOUS
 62
     3
 10
27038.506833585139
 20
15281.827798
 30
0.0
 11
27013.509473585142
 21
15281.827798
 31
0.0
  0
LINE
  5
12995
  8
2-0
  6
CONTINUOUS
 62
     3
 10
27013.509473585142
 20
15281.827798
 30
0.0
 11
27013.509473585142
 21
15299.823601
 31
0.0
  0
LINE
  5
12996
  8
2-0
  6
CONTINUOUS
 62
     3
 10
27013.509473585142
 20
15299.823601
 30
0.0
 11
27043.50709758513
 21
15299.823601
 31
0.0
  0
LINE
  5
12997
  8
2-0
  6
CONTINUOUS
 62
     3
 10
27013.509473585142
 20
15283.72615599999
 30
0.0
 11
27013.509473585142
 21
15289.728056
 31
0.0
  0
LINE
  5
12998
  8
2-0
  6
CONTINUOUS
 62
     3
 10
27013.509473585142
 20
15289.728056
 30
0.0
 11
27043.50709758513
 21
15289.728056
 31
0.0
  0
LINE
  5
12999
  8
2-0
  6
CONTINUOUS
 62
     3
 10
27043.50709758513
 20
15252.72887500001
 30
0.0
 11
27043.50709758513
 21
15289.728056
 31
0.0
  0
LINE
  5
1299A
  8
2-0
  6
CONTINUOUS
 62
     3
 10
27013.509473585142
 20
15252.72887500001
 30
0.0
 11
27043.50709758513
 21
15252.72887500001
 31
0.0
  0
LINE
  5
1299B
  8
2-0
  6
CONTINUOUS
 62
     3
 10
27013.509473585142
 20
15258.725826
 30
0.0
 11
27013.509473585142
 21
15252.72887500001
 31
0.0
  0
LINE
  5
1299C
  8
2-0
  6
CONTINUOUS
 62
     3
 10
27013.509473585142
 20
15242.627391
 30
0.0
 11
27043.50709758513
 21
15242.627391
 31
0.0
  0
LINE
  5
1299D
  8
2-0
  6
CONTINUOUS
 62
     3
 10
27013.509473585142
 20
15260.63507199999
 30
0.0
 11
27013.509473585142
 21
15242.627391
 31
0.0
  0
LINE
  5
1299E
  8
2-0
  6
CONTINUOUS
 62
     3
 10
27038.506833585139
 20
15260.63507199999
 30
0.0
 11
27013.509473585142
 21
15260.63507199999
 31
0.0
  0
LINE
  5
1299F
  8
2-0
  6
CONTINUOUS
 62
     3
 10
27038.506833585139
 20
15255.63480800001
 30
0.0
 11
27038.506833585139
 21
15260.63507199999
 31
0.0
  0
LINE
  5
129A0
  8
2-0
  6
CONTINUOUS
 62
     3
 10
27031.505276585151
 20
15255.63480800001
 30
0.0
 11
27038.506833585139
 21
15255.63480800001
 31
0.0
  0
LINE
  5
129A1
  8
2-0
  6
CONTINUOUS
 62
     3
 10
27043.50709758513
 20
16647.875543999991
 30
0.0
 11
27043.50709758513
 21
16000.583584499989
 31
0.0
  0
LINE
  5
129A2
  8
2-0
  6
CONTINUOUS
 62
     3
 10
27043.50709758513
 20
16802.485841999991
 30
0.0
 11
27043.50709758513
 21
16657.484127
 31
0.0
  0
LINE
  5
129A3
  8
2-0
  6
CONTINUOUS
 62
     3
 10
26955.62439058513
 20
16772.48623799999
 30
0.0
 11
26955.62439058513
 21
16687.489669999981
 31
0.0
  0
LINE
  5
129A4
  8
2-0
  6
CONTINUOUS
 62
     6
 10
25417.415723585142
 20
18540.933503499949
 30
0.0
 11
26442.448055585141
 21
18540.933503499949
 31
0.0
  0
LINE
  5
129A5
  8
2-0
  6
CONTINUOUS
 62
     3
 10
27031.505276585151
 20
14554.393800999989
 30
0.0
 11
27038.506833585139
 21
14554.393800999989
 31
0.0
  0
LINE
  5
129A6
  8
2-0
  6
CONTINUOUS
 62
     3
 10
27038.506833585139
 20
14554.393800999989
 30
0.0
 11
27038.506833585139
 21
14559.388127
 31
0.0
  0
LINE
  5
129A7
  8
2-0
  6
CONTINUOUS
 62
     3
 10
27038.506833585139
 20
14559.388127
 30
0.0
 11
27013.509473585142
 21
14559.388127
 31
0.0
  0
LINE
  5
129A8
  8
2-0
  6
CONTINUOUS
 62
     3
 10
27013.509473585142
 20
14559.388127
 30
0.0
 11
27013.509473585142
 21
14541.392322999989
 31
0.0
  0
LINE
  5
129A9
  8
2-0
  6
CONTINUOUS
 62
     3
 10
27013.509473585142
 20
14541.392322999989
 30
0.0
 11
27043.50709758513
 21
14541.392322999989
 31
0.0
  0
LINE
  5
129AA
  8
2-0
  6
CONTINUOUS
 62
     3
 10
27013.509473585142
 20
14557.490758
 30
0.0
 11
27013.509473585142
 21
14551.487868
 31
0.0
  0
LINE
  5
129AB
  8
2-0
  6
CONTINUOUS
 62
     3
 10
27013.509473585142
 20
14551.487868
 30
0.0
 11
27043.50709758513
 21
14551.487868
 31
0.0
  0
LINE
  5
129AC
  8
2-0
  6
CONTINUOUS
 62
     3
 10
27043.50709758513
 20
14551.487868
 30
0.0
 11
27043.50709758513
 21
14588.48803999998
 31
0.0
  0
LINE
  5
129AD
  8
2-0
  6
CONTINUOUS
 62
     3
 10
27013.509473585142
 20
14588.48803999998
 30
0.0
 11
27043.50709758513
 21
14588.48803999998
 31
0.0
  0
LINE
  5
129AE
  8
2-0
  6
CONTINUOUS
 62
     3
 10
27013.509473585142
 20
14582.49108799999
 30
0.0
 11
27013.509473585142
 21
14588.48803999998
 31
0.0
  0
LINE
  5
129AF
  8
2-0
  6
CONTINUOUS
 62
     3
 10
27013.509473585142
 20
14598.588533
 30
0.0
 11
27043.50709758513
 21
14598.588533
 31
0.0
  0
LINE
  5
129B0
  8
2-0
  6
CONTINUOUS
 62
     3
 10
27013.509473585142
 20
14580.581842
 30
0.0
 11
27013.509473585142
 21
14598.588533
 31
0.0
  0
LINE
  5
129B1
  8
2-0
  6
CONTINUOUS
 62
     3
 10
27038.506833585139
 20
14580.581842
 30
0.0
 11
27013.509473585142
 21
14580.581842
 31
0.0
  0
LINE
  5
129B2
  8
2-0
  6
CONTINUOUS
 62
     3
 10
27038.506833585139
 20
14585.587055
 30
0.0
 11
27038.506833585139
 21
14580.581842
 31
0.0
  0
LINE
  5
129B3
  8
2-0
  6
CONTINUOUS
 62
     3
 10
27031.505276585151
 20
14585.587055
 30
0.0
 11
27038.506833585139
 21
14585.587055
 31
0.0
  0
LINE
  5
129B4
  8
2-0
  6
CONTINUOUS
 62
     3
 10
27013.509473585142
 20
13878.48988099999
 30
0.0
 11
27013.509473585142
 21
13884.494749999991
 31
0.0
  0
LINE
  5
129B5
  8
2-0
  6
CONTINUOUS
 62
     3
 10
27013.509473585142
 20
13884.494749999991
 30
0.0
 11
27043.50709758513
 21
13884.494749999991
 31
0.0
  0
LINE
  5
129B6
  8
2-0
  6
CONTINUOUS
 62
     3
 10
27043.50709758513
 20
13884.494749999991
 30
0.0
 11
27043.50709758513
 21
13769.49065899999
 31
0.0
  0
LINE
  5
129B7
  8
2-0
  6
CONTINUOUS
 62
     3
 10
27043.50709758513
 20
13769.49065899999
 30
0.0
 11
26958.508549585142
 21
13769.49065899999
 31
0.0
  0
LINE
  5
129B8
  8
2-0
  6
CONTINUOUS
 62
     3
 10
26958.508549585142
 20
13769.49065899999
 30
0.0
 11
26958.508549585142
 21
13854.48623799999
 31
0.0
  0
LINE
  5
129B9
  8
2-0
  6
CONTINUOUS
 62
     3
 10
26958.508549585142
 20
13854.48623799999
 30
0.0
 11
26990.507467585139
 21
13854.48623799999
 31
0.0
  0
LINE
  5
129BA
  8
2-0
  6
CONTINUOUS
 62
     3
 10
27031.505276585151
 20
13881.52448299999
 30
0.0
 11
27038.506833585139
 21
13881.52448299999
 31
0.0
  0
LINE
  5
129BB
  8
2-0
  6
CONTINUOUS
 62
     3
 10
27038.506833585139
 20
13881.52448299999
 30
0.0
 11
27038.506833585139
 21
13876.527187999969
 31
0.0
  0
LINE
  5
129BC
  8
2-0
  6
CONTINUOUS
 62
     3
 10
27038.506833585139
 20
13876.527187999969
 30
0.0
 11
27013.509473585142
 21
13876.527187999969
 31
0.0
  0
LINE
  5
129BD
  8
2-0
  6
CONTINUOUS
 62
     3
 10
27013.509473585142
 20
13876.527187999969
 30
0.0
 11
27013.509473585142
 21
13894.52596099999
 31
0.0
  0
LINE
  5
129BE
  8
2-0
  6
CONTINUOUS
 62
     3
 10
27013.509473585142
 20
13894.52596099999
 30
0.0
 11
27043.50709758513
 21
13894.52596099999
 31
0.0
  0
LINE
  5
129BF
  8
2-0
  6
CENTER2
 62
     6
 10
27001.008813585151
 20
13571.99310099998
 30
0.0
 11
27001.008813585151
 21
14727.86185900001
 31
0.0
  0
LINE
  5
129C0
  8
2-0
  6
CONTINUOUS
 62
     3
 10
27043.50709758513
 20
18217.583089999989
 30
0.0
 11
27043.50709758513
 21
18861.39380749999
 31
0.0
  0
LINE
  5
129C1
  8
2-0
  6
CONTINUOUS
 62
     6
 10
27736.011980585128
 20
20069.98914200002
 30
0.0
 11
28936.006042585112
 21
20069.98914200002
 31
0.0
  0
LINE
  5
129C2
  8
2-0
  6
CONTINUOUS
 62
     6
 10
26873.97914758512
 20
18783.088011499989
 30
0.0
 11
26442.448055585141
 21
18540.933503499949
 31
0.0
  0
LINE
  5
129C3
  8
2-0
  6
CONTINUOUS
 62
     6
 10
27195.54798158511
 20
19482.66597899999
 30
0.0
 11
27736.011980585128
 21
20069.98914200002
 31
0.0
  0
LINE
  5
129C4
  8
2-0
  6
CONTINUOUS
 62
     3
 10
26952.502690585148
 20
18146.486699999979
 30
0.0
 11
26999.508338585121
 21
18146.486699999979
 31
0.0
  0
LINE
  5
129C5
  8
2-0
  6
CONTINUOUS
 62
     3
 10
26999.508338585121
 20
18231.487227999991
 30
0.0
 11
26952.502690585148
 21
18231.487227999991
 31
0.0
  0
LINE
  5
129C6
  8
2-0
  6
CONTINUOUS
 62
     3
 10
26999.508338585121
 20
18146.486699999979
 30
0.0
 11
26999.508338585121
 21
18171.48999899999
 31
0.0
  0
LINE
  5
129C7
  8
2-0
  6
CONTINUOUS
 62
     3
 10
26999.508338585121
 20
18206.485907999981
 30
0.0
 11
26999.508338585121
 21
18231.487227999991
 31
0.0
  0
LINE
  5
129C8
  8
2-0
  6
CONTINUOUS
 62
     3
 10
26952.502690585148
 20
18231.487227999991
 30
0.0
 11
26952.502690585148
 21
18146.486699999979
 31
0.0
  0
LINE
  5
129C9
  8
2-0
  6
CONTINUOUS
 62
     3
 10
27043.50709758513
 20
15943.387374499989
 30
0.0
 11
27043.50709758513
 21
15299.823601
 31
0.0
  0
LINE
  5
129CA
  8
2-0
  6
CONTINUOUS
 62
     3
 10
26952.502690585148
 20
15228.48966999999
 30
0.0
 11
26999.508338585121
 21
15228.48966999999
 31
0.0
  0
LINE
  5
129CB
  8
2-0
  6
CONTINUOUS
 62
     3
 10
26999.508338585121
 20
15313.486237999979
 30
0.0
 11
26952.502690585148
 21
15313.486237999979
 31
0.0
  0
LINE
  5
129CC
  8
2-0
  6
CONTINUOUS
 62
     3
 10
26999.508338585121
 20
15228.48966999999
 30
0.0
 11
26999.508338585121
 21
15253.485051
 31
0.0
  0
LINE
  5
129CD
  8
2-0
  6
CONTINUOUS
 62
     3
 10
26999.508338585121
 20
15288.484919
 30
0.0
 11
26999.508338585121
 21
15313.486237999979
 31
0.0
  0
LINE
  5
129CE
  8
2-0
  6
CONTINUOUS
 62
     3
 10
26952.502690585148
 20
15313.486237999979
 30
0.0
 11
26952.502690585148
 21
15228.48966999999
 31
0.0
  0
LINE
  5
129CF
  8
2-0
  6
CONTINUOUS
 62
     6
 10
26860.92224258514
 20
18806.347355499991
 30
0.0
 11
27013.509473585142
 21
18861.39380749999
 31
0.0
  0
LINE
  5
129D0
  8
2-0
  6
CONTINUOUS
 62
     6
 10
27013.509473585142
 20
18861.39380749999
 30
0.0
 11
26887.02813358514
 21
18759.834607499972
 31
0.0
  0
LINE
  5
129D1
  8
2-0
  6
CONTINUOUS
 62
     6
 10
26860.92224258514
 20
18806.347355499991
 30
0.0
 11
26887.02813358514
 21
18759.834607499972
 31
0.0
  0
LINE
  5
129D2
  8
2-0
  6
CONTINUOUS
 62
     6
 10
26887.02813358514
 20
18759.834607499972
 30
0.0
 11
27013.509473585142
 21
18861.39380749999
 31
0.0
  0
LINE
  5
129D3
  8
2-0
  6
CONTINUOUS
 62
     6
 10
27013.509473585142
 20
18861.39380749999
 30
0.0
 11
26860.92224258514
 21
18806.347355499991
 31
0.0
  0
LINE
  5
129D4
  8
2-0
  6
CONTINUOUS
 62
     6
 10
26860.92224258514
 20
18806.347355499991
 30
0.0
 11
27013.509473585142
 21
18861.39380749999
 31
0.0
  0
LINE
  5
129D5
  8
2-0
  6
CONTINUOUS
 62
     6
 10
26887.02813358514
 20
18759.834607499972
 30
0.0
 11
27013.509473585142
 21
18861.39380749999
 31
0.0
  0
LINE
  5
129D6
  8
2-0
  6
CONTINUOUS
 62
     6
 10
26887.02813358514
 20
18759.834607499972
 30
0.0
 11
26860.92224258514
 21
18806.347355499991
 31
0.0
  0
LINE
  5
129D7
  8
2-0
  6
CONTINUOUS
 62
     6
 10
27215.16501058514
 20
19464.604852000011
 30
0.0
 11
27087.202990585141
 21
19364.922233999991
 31
0.0
  0
LINE
  5
129D8
  8
2-0
  6
CONTINUOUS
 62
     6
 10
27087.202990585141
 20
19364.922233999991
 30
0.0
 11
27175.917095585119
 21
19500.71918900001
 31
0.0
  0
LINE
  5
129D9
  8
2-0
  6
CONTINUOUS
 62
     6
 10
27215.16501058514
 20
19464.604852000011
 30
0.0
 11
27175.917095585119
 21
19500.71918900001
 31
0.0
  0
LINE
  5
129DA
  8
2-0
  6
CONTINUOUS
 62
     6
 10
27175.917095585119
 20
19500.71918900001
 30
0.0
 11
27087.202990585141
 21
19364.922233999991
 31
0.0
  0
LINE
  5
129DB
  8
2-0
  6
CONTINUOUS
 62
     6
 10
27087.202990585141
 20
19364.922233999991
 30
0.0
 11
27215.16501058514
 21
19464.604852000011
 31
0.0
  0
LINE
  5
129DC
  8
2-0
  6
CONTINUOUS
 62
     6
 10
27215.16501058514
 20
19464.604852000011
 30
0.0
 11
27087.202990585141
 21
19364.922233999991
 31
0.0
  0
LINE
  5
129DD
  8
2-0
  6
CONTINUOUS
 62
     6
 10
27175.917095585119
 20
19500.71918900001
 30
0.0
 11
27087.202990585141
 21
19364.922233999991
 31
0.0
  0
LINE
  5
129DE
  8
2-0
  6
CONTINUOUS
 62
     6
 10
27175.917095585119
 20
19500.71918900001
 30
0.0
 11
27215.16501058514
 21
19464.604852000011
 31
0.0
  0
LINE
  5
129DF
  8
2-0
  6
CONTINUOUS
 62
     6
 10
26797.183723585131
 20
15181.98286
 30
0.0
 11
26952.502690585148
 21
15228.73018100001
 31
0.0
  0
LINE
  5
129E0
  8
2-0
  6
CONTINUOUS
 62
     6
 10
26952.502690585148
 20
15228.73018100001
 30
0.0
 11
26820.741974585111
 21
15134.137896000009
 31
0.0
  0
LINE
  5
129E1
  8
2-0
  6
CONTINUOUS
 62
     6
 10
26797.183723585131
 20
15181.98286
 30
0.0
 11
26820.741974585111
 21
15134.137896000009
 31
0.0
  0
LINE
  5
129E2
  8
2-0
  6
CONTINUOUS
 62
     6
 10
26820.741974585111
 20
15134.137896000009
 30
0.0
 11
26952.502690585148
 21
15228.73018100001
 31
0.0
  0
LINE
  5
129E3
  8
2-0
  6
CONTINUOUS
 62
     6
 10
26952.502690585148
 20
15228.73018100001
 30
0.0
 11
26797.183723585131
 21
15181.98286
 31
0.0
  0
LINE
  5
129E4
  8
2-0
  6
CONTINUOUS
 62
     6
 10
26797.183723585131
 20
15181.98286
 30
0.0
 11
26952.502690585148
 21
15228.73018100001
 31
0.0
  0
LINE
  5
129E5
  8
2-0
  6
CONTINUOUS
 62
     6
 10
26820.741974585111
 20
15134.137896000009
 30
0.0
 11
26952.502690585148
 21
15228.73018100001
 31
0.0
  0
LINE
  5
129E6
  8
2-0
  6
CONTINUOUS
 62
     6
 10
26820.741974585111
 20
15134.137896000009
 30
0.0
 11
26797.183723585131
 21
15181.98286
 31
0.0
  0
LINE
  5
129E7
  8
2-0
  6
CONTINUOUS
 62
     6
 10
26766.869376585139
 20
13661.217920999979
 30
0.0
 11
26898.616235585148
 21
13755.84484799999
 31
0.0
  0
LINE
  5
129E8
  8
2-0
  6
CONTINUOUS
 62
     6
 10
26898.616235585148
 20
13755.84484799999
 30
0.0
 11
26804.686099585138
 21
13623.60607799997
 31
0.0
  0
LINE
  5
129E9
  8
2-0
  6
CONTINUOUS
 62
     6
 10
26766.869376585139
 20
13661.217920999979
 30
0.0
 11
26804.686099585138
 21
13623.60607799997
 31
0.0
  0
LINE
  5
129EA
  8
2-0
  6
CONTINUOUS
 62
     6
 10
26804.686099585138
 20
13623.60607799997
 30
0.0
 11
26898.616235585148
 21
13755.84484799999
 31
0.0
  0
LINE
  5
129EB
  8
2-0
  6
CONTINUOUS
 62
     6
 10
26898.616235585148
 20
13755.84484799999
 30
0.0
 11
26766.869376585139
 21
13661.217920999979
 31
0.0
  0
LINE
  5
129EC
  8
2-0
  6
CONTINUOUS
 62
     6
 10
26766.869376585139
 20
13661.217920999979
 30
0.0
 11
26898.616235585148
 21
13755.84484799999
 31
0.0
  0
LINE
  5
129ED
  8
2-0
  6
CONTINUOUS
 62
     6
 10
26804.686099585138
 20
13623.60607799997
 30
0.0
 11
26898.616235585148
 21
13755.84484799999
 31
0.0
  0
LINE
  5
129EE
  8
2-0
  6
CONTINUOUS
 62
     6
 10
26804.686099585138
 20
13623.60607799997
 30
0.0
 11
26766.869376585139
 21
13661.217920999979
 31
0.0
  0
LINE
  5
129EF
  8
2-0
  6
CONTINUOUS
 62
     6
 10
26829.90516558514
 20
13988.12254799997
 30
0.0
 11
26962.505197585131
 21
13894.69421999997
 31
0.0
  0
LINE
  5
129F0
  8
2-0
  6
CONTINUOUS
 62
     6
 10
26962.505197585131
 20
13894.69421999997
 30
0.0
 11
26806.772511585139
 21
13940.06973399999
 31
0.0
  0
LINE
  5
129F1
  8
2-0
  6
CONTINUOUS
 62
     6
 10
26829.90516558514
 20
13988.12254799997
 30
0.0
 11
26806.772511585139
 21
13940.06973399999
 31
0.0
  0
LINE
  5
129F2
  8
2-0
  6
CONTINUOUS
 62
     6
 10
26806.772511585139
 20
13940.06973399999
 30
0.0
 11
26962.505197585131
 21
13894.69421999997
 31
0.0
  0
LINE
  5
129F3
  8
2-0
  6
CONTINUOUS
 62
     6
 10
26962.505197585131
 20
13894.69421999997
 30
0.0
 11
26829.90516558514
 21
13988.12254799997
 31
0.0
  0
LINE
  5
129F4
  8
2-0
  6
CONTINUOUS
 62
     6
 10
26829.90516558514
 20
13988.12254799997
 30
0.0
 11
26962.505197585131
 21
13894.69421999997
 31
0.0
  0
LINE
  5
129F5
  8
2-0
  6
CONTINUOUS
 62
     6
 10
26806.772511585139
 20
13940.06973399999
 30
0.0
 11
26962.505197585131
 21
13894.69421999997
 31
0.0
  0
LINE
  5
129F6
  8
2-0
  6
CONTINUOUS
 62
     6
 10
26806.772511585139
 20
13940.06973399999
 30
0.0
 11
26829.90516558514
 21
13988.12254799997
 31
0.0
  0
LINE
  5
129F7
  8
2-0
  6
CONTINUOUS
 62
     6
 10
26889.668811585139
 20
16367.943481
 30
0.0
 11
27043.50709758513
 21
16419.377312000001
 31
0.0
  0
LINE
  5
129F8
  8
2-0
  6
CONTINUOUS
 62
     6
 10
27043.50709758513
 20
16419.377312000001
 30
0.0
 11
26914.67211058511
 21
16320.836876999991
 31
0.0
  0
LINE
  5
129F9
  8
2-0
  6
CONTINUOUS
 62
     6
 10
26889.668811585139
 20
16367.943481
 30
0.0
 11
26914.67211058511
 21
16320.836876999991
 31
0.0
  0
LINE
  5
129FA
  8
2-0
  6
CONTINUOUS
 62
     6
 10
26914.67211058511
 20
16320.836876999991
 30
0.0
 11
27043.50709758513
 21
16419.377312000001
 31
0.0
  0
LINE
  5
129FB
  8
2-0
  6
CONTINUOUS
 62
     6
 10
27043.50709758513
 20
16419.377312000001
 30
0.0
 11
26889.668811585139
 21
16367.943481
 31
0.0
  0
LINE
  5
129FC
  8
2-0
  6
CONTINUOUS
 62
     6
 10
26889.668811585139
 20
16367.943481
 30
0.0
 11
27043.50709758513
 21
16419.377312000001
 31
0.0
  0
LINE
  5
129FD
  8
2-0
  6
CONTINUOUS
 62
     6
 10
26914.67211058511
 20
16320.836876999991
 30
0.0
 11
27043.50709758513
 21
16419.377312000001
 31
0.0
  0
LINE
  5
129FE
  8
2-0
  6
CONTINUOUS
 62
     6
 10
26914.67211058511
 20
16320.836876999991
 30
0.0
 11
26889.668811585139
 21
16367.943481
 31
0.0
  0
LINE
  5
129FF
  8
2-0
  6
CONTINUOUS
 62
     6
 10
26755.732604585119
 20
16859.261973000001
 30
0.0
 11
26898.616235585148
 21
16782.486344000001
 31
0.0
  0
LINE
  5
12A00
  8
2-0
  6
CONTINUOUS
 62
     6
 10
26898.616235585148
 20
16782.486344000001
 30
0.0
 11
26738.554342585128
 21
16808.768413000009
 31
0.0
  0
LINE
  5
12A01
  8
2-0
  6
CONTINUOUS
 62
     6
 10
26755.732604585119
 20
16859.261973000001
 30
0.0
 11
26738.554342585128
 21
16808.768413000009
 31
0.0
  0
LINE
  5
12A02
  8
2-0
  6
CONTINUOUS
 62
     6
 10
26738.554342585128
 20
16808.768413000009
 30
0.0
 11
26898.616235585148
 21
16782.486344000001
 31
0.0
  0
LINE
  5
12A03
  8
2-0
  6
CONTINUOUS
 62
     6
 10
26898.616235585148
 20
16782.486344000001
 30
0.0
 11
26755.732604585119
 21
16859.261973000001
 31
0.0
  0
LINE
  5
12A04
  8
2-0
  6
CONTINUOUS
 62
     6
 10
26755.732604585119
 20
16859.261973000001
 30
0.0
 11
26898.616235585148
 21
16782.486344000001
 31
0.0
  0
LINE
  5
12A05
  8
2-0
  6
CONTINUOUS
 62
     6
 10
26738.554342585128
 20
16808.768413000009
 30
0.0
 11
26898.616235585148
 21
16782.486344000001
 31
0.0
  0
LINE
  5
12A06
  8
2-0
  6
CONTINUOUS
 62
     6
 10
26738.554342585128
 20
16808.768413000009
 30
0.0
 11
26755.732604585119
 21
16859.261973000001
 31
0.0
  0
LINE
  5
12A07
  8
2-0
  6
CONTINUOUS
 62
     6
 10
26797.183723585131
 20
18099.742347999982
 30
0.0
 11
26952.502690585148
 21
18146.486699999979
 31
0.0
  0
LINE
  5
12A08
  8
2-0
  6
CONTINUOUS
 62
     6
 10
26952.502690585148
 20
18146.486699999979
 30
0.0
 11
26820.741974585111
 21
18051.891446000001
 31
0.0
  0
LINE
  5
12A09
  8
2-0
  6
CONTINUOUS
 62
     6
 10
26797.183723585131
 20
18099.742347999982
 30
0.0
 11
26820.741974585111
 21
18051.891446000001
 31
0.0
  0
LINE
  5
12A0A
  8
2-0
  6
CONTINUOUS
 62
     6
 10
26820.741974585111
 20
18051.891446000001
 30
0.0
 11
26952.502690585148
 21
18146.486699999979
 31
0.0
  0
LINE
  5
12A0B
  8
2-0
  6
CONTINUOUS
 62
     6
 10
26952.502690585148
 20
18146.486699999979
 30
0.0
 11
26797.183723585131
 21
18099.742347999982
 31
0.0
  0
LINE
  5
12A0C
  8
2-0
  6
CONTINUOUS
 62
     6
 10
26797.183723585131
 20
18099.742347999982
 30
0.0
 11
26952.502690585148
 21
18146.486699999979
 31
0.0
  0
LINE
  5
12A0D
  8
2-0
  6
CONTINUOUS
 62
     6
 10
26820.741974585111
 20
18051.891446000001
 30
0.0
 11
26952.502690585148
 21
18146.486699999979
 31
0.0
  0
LINE
  5
12A0E
  8
2-0
  6
CONTINUOUS
 62
     6
 10
26820.741974585111
 20
18051.891446000001
 30
0.0
 11
26797.183723585131
 21
18099.742347999982
 31
0.0
  0
LINE
  5
12A0F
  8
2-0
  6
CONTINUOUS
 62
     3
 10
24070.51013358514
 20
19230.986027999999
 30
0.0
 11
24070.51013358514
 21
19224.990065999998
 31
0.0
  0
LINE
  5
12A10
  8
2-0
  6
CONTINUOUS
 62
     3
 10
24070.51013358514
 20
19224.990065999998
 30
0.0
 11
24040.51250858514
 21
19224.990065999998
 31
0.0
  0
LINE
  5
12A11
  8
2-0
  6
CONTINUOUS
 62
     3
 10
24040.51250858514
 20
19224.990065999998
 30
0.0
 11
24040.51250858514
 21
19339.986239000002
 31
0.0
  0
LINE
  5
12A12
  8
2-0
  6
CONTINUOUS
 62
     3
 10
24040.51250858514
 20
19254.989669999981
 30
0.0
 11
24121.510449585148
 21
19254.989669999981
 31
0.0
  0
LINE
  5
12A13
  8
2-0
  6
CONTINUOUS
 62
     3
 10
24070.51013358514
 20
19214.692609999991
 30
0.0
 11
24040.51250858514
 21
19214.692609999991
 31
0.0
  0
LINE
  5
12A14
  8
2-0
  6
CONTINUOUS
 62
     3
 10
24070.51013358514
 20
19232.69435200001
 30
0.0
 11
24070.51013358514
 21
19214.692609999991
 31
0.0
  0
LINE
  5
12A15
  8
2-0
  6
CONTINUOUS
 62
     3
 10
24045.516731585129
 20
19232.69435200001
 30
0.0
 11
24070.51013358514
 21
19232.69435200001
 31
0.0
  0
LINE
  5
12A16
  8
2-0
  6
CONTINUOUS
 62
     3
 10
24045.516731585129
 20
19227.686170000001
 30
0.0
 11
24045.516731585129
 21
19232.69435200001
 31
0.0
  0
LINE
  5
12A17
  8
2-0
  6
CONTINUOUS
 62
     3
 10
24052.514329585108
 20
19227.686170000001
 30
0.0
 11
24045.516731585129
 21
19227.686170000001
 31
0.0
  0
LINE
  5
12A18
  8
2-0
  6
CONTINUOUS
 62
     3
 10
24152.808618585139
 20
19327.98639699999
 30
0.0
 11
24152.808618585139
 21
19334.991913000002
 31
0.0
  0
LINE
  5
12A19
  8
2-0
  6
CONTINUOUS
 62
     3
 10
24152.808618585139
 20
19334.991913000002
 30
0.0
 11
24147.80637458514
 21
19334.991913000002
 31
0.0
  0
LINE
  5
12A1A
  8
2-0
  6
CONTINUOUS
 62
     3
 10
24147.80637458514
 20
19334.991913000002
 30
0.0
 11
24147.80637458514
 21
19309.982676
 31
0.0
  0
LINE
  5
12A1B
  8
2-0
  6
CONTINUOUS
 62
     3
 10
24147.80637458514
 20
19309.982676
 30
0.0
 11
24165.814055585131
 21
19309.982676
 31
0.0
  0
LINE
  5
12A1C
  8
2-0
  6
CONTINUOUS
 62
     3
 10
24165.814055585131
 20
19309.982676
 30
0.0
 11
24165.814055585131
 21
19339.986239000002
 31
0.0
  0
LINE
  5
12A1D
  8
2-0
  6
CONTINUOUS
 62
     3
 10
24155.514619585148
 20
19339.986239000002
 30
0.0
 11
24040.51250858514
 21
19339.986239000002
 31
0.0
  0
LINE
  5
12A1E
  8
2-0
  6
CONTINUOUS
 62
     3
 10
24155.514619585148
 20
19309.982676
 30
0.0
 11
24155.514619585148
 21
19339.986239000002
 31
0.0
  0
LINE
  5
12A1F
  8
2-0
  6
CONTINUOUS
 62
     3
 10
24149.510740585141
 20
19309.982676
 30
0.0
 11
24155.514619585148
 21
19309.982676
 31
0.0
  0
LINE
  5
12A20
  8
2-0
  6
CONTINUOUS
 62
     3
 10
24070.51013358514
 20
19230.986027999999
 30
0.0
 11
24070.51013358514
 21
19224.990065999998
 31
0.0
  0
LINE
  5
12A21
  8
2-0
  6
CONTINUOUS
 62
     3
 10
24070.51013358514
 20
19224.990065999998
 30
0.0
 11
24040.51250858514
 21
19224.990065999998
 31
0.0
  0
LINE
  5
12A22
  8
2-0
  6
CONTINUOUS
 62
     3
 10
24040.51250858514
 20
19224.990065999998
 30
0.0
 11
24040.51250858514
 21
19339.986239000002
 31
0.0
  0
LINE
  5
12A23
  8
2-0
  6
CONTINUOUS
 62
     3
 10
24040.51250858514
 20
19254.989669999981
 30
0.0
 11
24121.510449585148
 21
19254.989669999981
 31
0.0
  0
LINE
  5
12A24
  8
2-0
  6
CONTINUOUS
 62
     3
 10
24070.51013358514
 20
19214.692609999991
 30
0.0
 11
24040.51250858514
 21
19214.692609999991
 31
0.0
  0
LINE
  5
12A25
  8
2-0
  6
CONTINUOUS
 62
     3
 10
24070.51013358514
 20
19232.69435200001
 30
0.0
 11
24070.51013358514
 21
19214.692609999991
 31
0.0
  0
LINE
  5
12A26
  8
2-0
  6
CONTINUOUS
 62
     3
 10
24045.516731585129
 20
19232.69435200001
 30
0.0
 11
24070.51013358514
 21
19232.69435200001
 31
0.0
  0
LINE
  5
12A27
  8
2-0
  6
CONTINUOUS
 62
     3
 10
24045.516731585129
 20
19227.686170000001
 30
0.0
 11
24045.516731585129
 21
19232.69435200001
 31
0.0
  0
LINE
  5
12A28
  8
2-0
  6
CONTINUOUS
 62
     3
 10
24052.514329585108
 20
19227.686170000001
 30
0.0
 11
24045.516731585129
 21
19227.686170000001
 31
0.0
  0
LINE
  5
12A29
  8
2-0
  6
CONTINUOUS
 62
     3
 10
24052.514329585108
 20
18874.389347499979
 30
0.0
 11
24045.516731585129
 21
18874.389347499979
 31
0.0
  0
LINE
  5
12A2A
  8
2-0
  6
CONTINUOUS
 62
     3
 10
24045.516731585129
 20
18874.389347499979
 30
0.0
 11
24045.516731585129
 21
18879.389611499981
 31
0.0
  0
LINE
  5
12A2B
  8
2-0
  6
CONTINUOUS
 62
     3
 10
24045.516731585129
 20
18879.389611499981
 30
0.0
 11
24070.51013358514
 21
18879.389611499981
 31
0.0
  0
LINE
  5
12A2C
  8
2-0
  6
CONTINUOUS
 62
     3
 10
24070.51013358514
 20
18879.389611499981
 30
0.0
 11
24070.51013358514
 21
18861.393807499979
 31
0.0
  0
LINE
  5
12A2D
  8
2-0
  6
CONTINUOUS
 62
     3
 10
24070.51013358514
 20
18861.393807499979
 30
0.0
 11
24040.51250858514
 21
18861.393807499979
 31
0.0
  0
LINE
  5
12A2E
  8
2-0
  6
CONTINUOUS
 62
     3
 10
24070.51013358514
 20
18877.485314499951
 30
0.0
 11
24070.51013358514
 21
18871.487373499978
 31
0.0
  0
LINE
  5
12A2F
  8
2-0
  6
CONTINUOUS
 62
     3
 10
24070.51013358514
 20
18871.487373499978
 30
0.0
 11
24040.51250858514
 21
18871.487373499978
 31
0.0
  0
LINE
  5
12A30
  8
2-0
  6
CONTINUOUS
 62
     3
 10
24040.51250858514
 20
18871.487373499978
 30
0.0
 11
24040.51250858514
 21
18908.488534499989
 31
0.0
  0
LINE
  5
12A31
  8
2-0
  6
CONTINUOUS
 62
     3
 10
24070.51013358514
 20
18908.488534499989
 30
0.0
 11
24040.51250858514
 21
18908.488534499989
 31
0.0
  0
LINE
  5
12A32
  8
2-0
  6
CONTINUOUS
 62
     3
 10
24070.51013358514
 20
18902.484654499971
 30
0.0
 11
24070.51013358514
 21
18908.488534499989
 31
0.0
  0
LINE
  5
12A33
  8
2-0
  6
CONTINUOUS
 62
     3
 10
24070.51013358514
 20
18918.584079499971
 30
0.0
 11
24040.51250858514
 21
18918.584079499971
 31
0.0
  0
LINE
  5
12A34
  8
2-0
  6
CONTINUOUS
 62
     3
 10
24070.51013358514
 20
18900.58233749996
 30
0.0
 11
24070.51013358514
 21
18918.584079499971
 31
0.0
  0
LINE
  5
12A35
  8
2-0
  6
CONTINUOUS
 62
     3
 10
24045.516731585129
 20
18900.58233749996
 30
0.0
 11
24070.51013358514
 21
18900.58233749996
 31
0.0
  0
LINE
  5
12A36
  8
2-0
  6
CONTINUOUS
 62
     3
 10
24045.516731585129
 20
18905.58260149998
 30
0.0
 11
24045.516731585129
 21
18900.58233749996
 31
0.0
  0
LINE
  5
12A37
  8
2-0
  6
CONTINUOUS
 62
     3
 10
24052.514329585108
 20
18905.58260149998
 30
0.0
 11
24045.516731585129
 21
18905.58260149998
 31
0.0
  0
LINE
  5
12A38
  8
2-0
  6
CONTINUOUS
 62
     3
 10
24052.514329585108
 20
18173.388357999989
 30
0.0
 11
24045.516731585129
 21
18173.388357999989
 31
0.0
  0
LINE
  5
12A39
  8
2-0
  6
CONTINUOUS
 62
     3
 10
24045.516731585129
 20
18173.388357999989
 30
0.0
 11
24045.516731585129
 21
18178.394559999979
 31
0.0
  0
LINE
  5
12A3A
  8
2-0
  6
CONTINUOUS
 62
     3
 10
24045.516731585129
 20
18178.394559999979
 30
0.0
 11
24070.51013358514
 21
18178.394559999979
 31
0.0
  0
LINE
  5
12A3B
  8
2-0
  6
CONTINUOUS
 62
     3
 10
24070.51013358514
 20
18178.394559999979
 30
0.0
 11
24070.51013358514
 21
18160.392817999989
 31
0.0
  0
LINE
  5
12A3C
  8
2-0
  6
CONTINUOUS
 62
     3
 10
24070.51013358514
 20
18160.392817999989
 30
0.0
 11
24040.51250858514
 21
18160.392817999989
 31
0.0
  0
LINE
  5
12A3D
  8
2-0
  6
CONTINUOUS
 62
     3
 10
24070.51013358514
 20
18176.484324999979
 30
0.0
 11
24070.51013358514
 21
18170.488362999979
 31
0.0
  0
LINE
  5
12A3E
  8
2-0
  6
CONTINUOUS
 62
     3
 10
24070.51013358514
 20
18170.488362999979
 30
0.0
 11
24040.51250858514
 21
18170.488362999979
 31
0.0
  0
LINE
  5
12A3F
  8
2-0
  6
CONTINUOUS
 62
     3
 10
24040.51250858514
 20
18170.488362999979
 30
0.0
 11
24040.51250858514
 21
18207.487544999982
 31
0.0
  0
LINE
  5
12A40
  8
2-0
  6
CONTINUOUS
 62
     3
 10
24070.51013358514
 20
18207.487544999982
 30
0.0
 11
24040.51250858514
 21
18207.487544999982
 31
0.0
  0
LINE
  5
12A41
  8
2-0
  6
CONTINUOUS
 62
     3
 10
24070.51013358514
 20
18201.491582999981
 30
0.0
 11
24070.51013358514
 21
18207.487544999982
 31
0.0
  0
LINE
  5
12A42
  8
2-0
  6
CONTINUOUS
 62
     3
 10
24070.51013358514
 20
18217.583089999989
 30
0.0
 11
24040.51250858514
 21
18217.583089999989
 31
0.0
  0
LINE
  5
12A43
  8
2-0
  6
CONTINUOUS
 62
     3
 10
24070.51013358514
 20
18199.58134799996
 30
0.0
 11
24070.51013358514
 21
18217.583089999989
 31
0.0
  0
LINE
  5
12A44
  8
2-0
  6
CONTINUOUS
 62
     3
 10
24045.516731585129
 20
18199.58134799996
 30
0.0
 11
24070.51013358514
 21
18199.58134799996
 31
0.0
  0
LINE
  5
12A45
  8
2-0
  6
CONTINUOUS
 62
     3
 10
24045.516731585129
 20
18204.587549999978
 30
0.0
 11
24045.516731585129
 21
18199.58134799996
 31
0.0
  0
LINE
  5
12A46
  8
2-0
  6
CONTINUOUS
 62
     3
 10
24052.514329585108
 20
18204.587549999978
 30
0.0
 11
24045.516731585129
 21
18204.587549999978
 31
0.0
  0
LINE
  5
12A47
  8
2-0
  6
CONTINUOUS
 62
     3
 10
24052.514329585108
 20
17503.58161199998
 30
0.0
 11
24045.516731585129
 21
17503.58161199998
 31
0.0
  0
LINE
  5
12A48
  8
2-0
  6
CONTINUOUS
 62
     3
 10
24045.516731585129
 20
17503.58161199998
 30
0.0
 11
24045.516731585129
 21
17498.59322499999
 31
0.0
  0
LINE
  5
12A49
  8
2-0
  6
CONTINUOUS
 62
     3
 10
24045.516731585129
 20
17498.59322499999
 30
0.0
 11
24070.51013358514
 21
17498.59322499999
 31
0.0
  0
LINE
  5
12A4A
  8
2-0
  6
CONTINUOUS
 62
     3
 10
24070.51013358514
 20
17498.59322499999
 30
0.0
 11
24070.51013358514
 21
17516.589027999991
 31
0.0
  0
LINE
  5
12A4B
  8
2-0
  6
CONTINUOUS
 62
     3
 10
24070.51013358514
 20
17516.589027999991
 30
0.0
 11
24040.51250858514
 21
17516.589027999991
 31
0.0
  0
LINE
  5
12A4C
  8
2-0
  6
CONTINUOUS
 62
     3
 10
24070.51013358514
 20
17500.491582999981
 30
0.0
 11
24070.51013358514
 21
17506.487544999971
 31
0.0
  0
LINE
  5
12A4D
  8
2-0
  6
CONTINUOUS
 62
     3
 10
24070.51013358514
 20
17506.487544999971
 30
0.0
 11
24040.51250858514
 21
17506.487544999971
 31
0.0
  0
LINE
  5
12A4E
  8
2-0
  6
CONTINUOUS
 62
     3
 10
24040.51250858514
 20
17506.487544999971
 30
0.0
 11
24040.51250858514
 21
17469.488362999989
 31
0.0
  0
LINE
  5
12A4F
  8
2-0
  6
CONTINUOUS
 62
     3
 10
24070.51013358514
 20
17469.488362999989
 30
0.0
 11
24040.51250858514
 21
17469.488362999989
 31
0.0
  0
LINE
  5
12A50
  8
2-0
  6
CONTINUOUS
 62
     3
 10
24070.51013358514
 20
17475.490263999978
 30
0.0
 11
24070.51013358514
 21
17469.488362999989
 31
0.0
  0
LINE
  5
12A51
  8
2-0
  6
CONTINUOUS
 62
     3
 10
24070.51013358514
 20
17459.398756999981
 30
0.0
 11
24040.51250858514
 21
17459.398756999981
 31
0.0
  0
LINE
  5
12A52
  8
2-0
  6
CONTINUOUS
 62
     3
 10
24070.51013358514
 20
17477.394559999979
 30
0.0
 11
24070.51013358514
 21
17459.398756999981
 31
0.0
  0
LINE
  5
12A53
  8
2-0
  6
CONTINUOUS
 62
     3
 10
24045.516731585129
 20
17477.394559999979
 30
0.0
 11
24070.51013358514
 21
17477.394559999979
 31
0.0
  0
LINE
  5
12A54
  8
2-0
  6
CONTINUOUS
 62
     3
 10
24045.516731585129
 20
17472.394296999981
 30
0.0
 11
24045.516731585129
 21
17477.394559999979
 31
0.0
  0
LINE
  5
12A55
  8
2-0
  6
CONTINUOUS
 62
     3
 10
24052.514329585108
 20
17472.394296999981
 30
0.0
 11
24045.516731585129
 21
17472.394296999981
 31
0.0
  0
LINE
  5
12A56
  8
2-0
  6
CONTINUOUS
 62
     3
 10
24043.398646585141
 20
16752.48518299999
 30
0.0
 11
24043.398646585141
 21
16772.48623799999
 31
0.0
  0
LINE
  5
12A57
  8
2-0
  6
CONTINUOUS
 62
     3
 10
24043.398646585141
 20
16772.48623799999
 30
0.0
 11
24128.399174585142
 21
16772.48623799999
 31
0.0
  0
LINE
  5
12A58
  8
2-0
  6
CONTINUOUS
 62
     3
 10
24052.514329585108
 20
16799.092948000001
 30
0.0
 11
24045.516731585129
 21
16799.092948000001
 31
0.0
  0
LINE
  5
12A59
  8
2-0
  6
CONTINUOUS
 62
     3
 10
24045.516731585129
 20
16799.092948000001
 30
0.0
 11
24045.516731585129
 21
16794.09862199999
 31
0.0
  0
LINE
  5
12A5A
  8
2-0
  6
CONTINUOUS
 62
     3
 10
24045.516731585129
 20
16794.09862199999
 30
0.0
 11
24070.51013358514
 21
16794.09862199999
 31
0.0
  0
LINE
  5
12A5B
  8
2-0
  6
CONTINUOUS
 62
     3
 10
24070.51013358514
 20
16794.09862199999
 30
0.0
 11
24070.51013358514
 21
16812.094425999989
 31
0.0
  0
LINE
  5
12A5C
  8
2-0
  6
CONTINUOUS
 62
     3
 10
24070.51013358514
 20
16812.094425999989
 30
0.0
 11
24040.51250858514
 21
16812.094425999989
 31
0.0
  0
LINE
  5
12A5D
  8
2-0
  6
CONTINUOUS
 62
     3
 10
24070.51013358514
 20
16802.485841999991
 30
0.0
 11
24070.51013358514
 21
16796.483941999981
 31
0.0
  0
LINE
  5
12A5E
  8
2-0
  6
CONTINUOUS
 62
     3
 10
24040.51250858514
 20
16802.485841999991
 30
0.0
 11
24070.51013358514
 21
16802.485841999991
 31
0.0
  0
LINE
  5
12A5F
  8
2-0
  6
CONTINUOUS
 62
     3
 10
24040.51250858514
 20
16812.094425999989
 30
0.0
 11
24040.51250858514
 21
17459.398756999981
 31
0.0
  0
LINE
  5
12A60
  8
2-0
  6
CONTINUOUS
 62
     3
 10
24040.51250858514
 20
17516.589027999991
 30
0.0
 11
24040.51250858514
 21
18160.392817999989
 31
0.0
  0
LINE
  5
12A61
  8
2-0
  6
CONTINUOUS
 62
     3
 10
24040.51250858514
 20
16657.484127
 30
0.0
 11
24070.51013358514
 21
16657.484127
 31
0.0
  0
LINE
  5
12A62
  8
2-0
  6
CONTINUOUS
 62
     3
 10
24070.51013358514
 20
16657.484127
 30
0.0
 11
24070.51013358514
 21
16663.486026999981
 31
0.0
  0
LINE
  5
12A63
  8
2-0
  6
CONTINUOUS
 62
     3
 10
24128.399174585142
 20
16687.489669999981
 30
0.0
 11
24043.398646585141
 21
16687.489669999981
 31
0.0
  0
LINE
  5
12A64
  8
2-0
  6
CONTINUOUS
 62
     3
 10
24043.398646585141
 20
16687.489669999981
 30
0.0
 11
24043.398646585141
 21
16707.484787000001
 31
0.0
  0
LINE
  5
12A65
  8
2-0
  6
CONTINUOUS
 62
     3
 10
24070.51013358514
 20
16647.875543999991
 30
0.0
 11
24040.51250858514
 21
16647.875543999991
 31
0.0
  0
LINE
  5
12A66
  8
2-0
  6
CONTINUOUS
 62
     3
 10
24070.51013358514
 20
16665.87134699996
 30
0.0
 11
24070.51013358514
 21
16647.875543999991
 31
0.0
  0
LINE
  5
12A67
  8
2-0
  6
CONTINUOUS
 62
     3
 10
24045.516731585129
 20
16665.87134699996
 30
0.0
 11
24070.51013358514
 21
16665.87134699996
 31
0.0
  0
LINE
  5
12A68
  8
2-0
  6
CONTINUOUS
 62
     3
 10
24045.516731585129
 20
16660.871083000002
 30
0.0
 11
24045.516731585129
 21
16665.87134699996
 31
0.0
  0
LINE
  5
12A69
  8
2-0
  6
CONTINUOUS
 62
     3
 10
24052.514329585108
 20
16660.871083000002
 30
0.0
 11
24045.516731585129
 21
16660.871083000002
 31
0.0
  0
LINE
  5
12A6A
  8
2-0
  6
CONTINUOUS
 62
     3
 10
24052.514329585108
 20
15956.38885249996
 30
0.0
 11
24045.516731585129
 21
15956.38885249996
 31
0.0
  0
LINE
  5
12A6B
  8
2-0
  6
CONTINUOUS
 62
     3
 10
24045.516731585129
 20
15956.38885249996
 30
0.0
 11
24045.516731585129
 21
15961.38911649998
 31
0.0
  0
LINE
  5
12A6C
  8
2-0
  6
CONTINUOUS
 62
     3
 10
24045.516731585129
 20
15961.38911649998
 30
0.0
 11
24070.51013358514
 21
15961.38911649998
 31
0.0
  0
LINE
  5
12A6D
  8
2-0
  6
CONTINUOUS
 62
     3
 10
24070.51013358514
 20
15961.38911649998
 30
0.0
 11
24070.51013358514
 21
15943.387374499989
 31
0.0
  0
LINE
  5
12A6E
  8
2-0
  6
CONTINUOUS
 62
     3
 10
24070.51013358514
 20
15943.387374499989
 30
0.0
 11
24040.51250858514
 21
15943.387374499989
 31
0.0
  0
LINE
  5
12A6F
  8
2-0
  6
CONTINUOUS
 62
     3
 10
24070.51013358514
 20
15959.48481949999
 30
0.0
 11
24070.51013358514
 21
15953.487868499989
 31
0.0
  0
LINE
  5
12A70
  8
2-0
  6
CONTINUOUS
 62
     3
 10
24070.51013358514
 20
15953.487868499989
 30
0.0
 11
24040.51250858514
 21
15953.487868499989
 31
0.0
  0
LINE
  5
12A71
  8
2-0
  6
CONTINUOUS
 62
     3
 10
24040.51250858514
 20
15953.487868499989
 30
0.0
 11
24040.51250858514
 21
15990.488039499989
 31
0.0
  0
LINE
  5
12A72
  8
2-0
  6
CONTINUOUS
 62
     3
 10
24070.51013358514
 20
15990.488039499989
 30
0.0
 11
24040.51250858514
 21
15990.488039499989
 31
0.0
  0
LINE
  5
12A73
  8
2-0
  6
CONTINUOUS
 62
     3
 10
24070.51013358514
 20
15984.48514949998
 30
0.0
 11
24070.51013358514
 21
15990.488039499989
 31
0.0
  0
LINE
  5
12A74
  8
2-0
  6
CONTINUOUS
 62
     3
 10
24070.51013358514
 20
16000.583584499989
 30
0.0
 11
24040.51250858514
 21
16000.583584499989
 31
0.0
  0
LINE
  5
12A75
  8
2-0
  6
CONTINUOUS
 62
     3
 10
24070.51013358514
 20
15982.57590349999
 30
0.0
 11
24070.51013358514
 21
16000.583584499989
 31
0.0
  0
LINE
  5
12A76
  8
2-0
  6
CONTINUOUS
 62
     3
 10
24045.516731585129
 20
15982.57590349999
 30
0.0
 11
24070.51013358514
 21
15982.57590349999
 31
0.0
  0
LINE
  5
12A77
  8
2-0
  6
CONTINUOUS
 62
     3
 10
24045.516731585129
 20
15987.582106499989
 30
0.0
 11
24045.516731585129
 21
15982.57590349999
 31
0.0
  0
LINE
  5
12A78
  8
2-0
  6
CONTINUOUS
 62
     3
 10
24052.514329585108
 20
15987.582106499989
 30
0.0
 11
24045.516731585129
 21
15987.582106499989
 31
0.0
  0
LINE
  5
12A79
  8
2-0
  6
CONTINUOUS
 62
     3
 10
24052.514329585108
 20
15286.822123
 30
0.0
 11
24045.516731585129
 21
15286.822123
 31
0.0
  0
LINE
  5
12A7A
  8
2-0
  6
CONTINUOUS
 62
     3
 10
24045.516731585129
 20
15286.822123
 30
0.0
 11
24045.516731585129
 21
15281.827798
 31
0.0
  0
LINE
  5
12A7B
  8
2-0
  6
CONTINUOUS
 62
     3
 10
24045.516731585129
 20
15281.827798
 30
0.0
 11
24070.51013358514
 21
15281.827798
 31
0.0
  0
LINE
  5
12A7C
  8
2-0
  6
CONTINUOUS
 62
     3
 10
24070.51013358514
 20
15281.827798
 30
0.0
 11
24070.51013358514
 21
15299.823601
 31
0.0
  0
LINE
  5
12A7D
  8
2-0
  6
CONTINUOUS
 62
     3
 10
24070.51013358514
 20
15299.823601
 30
0.0
 11
24040.51250858514
 21
15299.823601
 31
0.0
  0
LINE
  5
12A7E
  8
2-0
  6
CONTINUOUS
 62
     3
 10
24070.51013358514
 20
15283.72615599999
 30
0.0
 11
24070.51013358514
 21
15289.728056
 31
0.0
  0
LINE
  5
12A7F
  8
2-0
  6
CONTINUOUS
 62
     3
 10
24070.51013358514
 20
15289.728056
 30
0.0
 11
24040.51250858514
 21
15289.728056
 31
0.0
  0
LINE
  5
12A80
  8
2-0
  6
CONTINUOUS
 62
     3
 10
24040.51250858514
 20
15252.72887500001
 30
0.0
 11
24040.51250858514
 21
15289.728056
 31
0.0
  0
LINE
  5
12A81
  8
2-0
  6
CONTINUOUS
 62
     3
 10
24070.51013358514
 20
15252.72887500001
 30
0.0
 11
24040.51250858514
 21
15252.72887500001
 31
0.0
  0
LINE
  5
12A82
  8
2-0
  6
CONTINUOUS
 62
     3
 10
24070.51013358514
 20
15258.725825999991
 30
0.0
 11
24070.51013358514
 21
15252.72887500001
 31
0.0
  0
LINE
  5
12A83
  8
2-0
  6
CONTINUOUS
 62
     3
 10
24070.51013358514
 20
15242.627390999991
 30
0.0
 11
24040.51250858514
 21
15242.627390999991
 31
0.0
  0
LINE
  5
12A84
  8
2-0
  6
CONTINUOUS
 62
     3
 10
24070.51013358514
 20
15260.63507199999
 30
0.0
 11
24070.51013358514
 21
15242.627390999991
 31
0.0
  0
LINE
  5
12A85
  8
2-0
  6
CONTINUOUS
 62
     3
 10
24045.516731585129
 20
15260.63507199999
 30
0.0
 11
24070.51013358514
 21
15260.63507199999
 31
0.0
  0
LINE
  5
12A86
  8
2-0
  6
CONTINUOUS
 62
     3
 10
24045.516731585129
 20
15255.63480800001
 30
0.0
 11
24045.516731585129
 21
15260.63507199999
 31
0.0
  0
LINE
  5
12A87
  8
2-0
  6
CONTINUOUS
 62
     3
 10
24052.514329585108
 20
15255.63480800001
 30
0.0
 11
24045.516731585129
 21
15255.63480800001
 31
0.0
  0
LINE
  5
12A88
  8
2-0
  6
CONTINUOUS
 62
     3
 10
24040.51250858514
 20
16647.875543999991
 30
0.0
 11
24040.51250858514
 21
16000.583584499989
 31
0.0
  0
LINE
  5
12A89
  8
2-0
  6
CONTINUOUS
 62
     3
 10
24040.51250858514
 20
16802.485841999991
 30
0.0
 11
24040.51250858514
 21
16657.484127
 31
0.0
  0
LINE
  5
12A8A
  8
2-0
  6
CONTINUOUS
 62
     3
 10
24128.399174585142
 20
16772.48623799999
 30
0.0
 11
24128.399174585142
 21
16687.489669999981
 31
0.0
  0
LINE
  5
12A8B
  8
2-0
  6
CONTINUOUS
 62
     3
 10
24052.514329585108
 20
14554.393800999989
 30
0.0
 11
24045.516731585129
 21
14554.393800999989
 31
0.0
  0
LINE
  5
12A8C
  8
2-0
  6
CONTINUOUS
 62
     3
 10
24045.516731585129
 20
14554.393800999989
 30
0.0
 11
24045.516731585129
 21
14559.388127
 31
0.0
  0
LINE
  5
12A8D
  8
2-0
  6
CONTINUOUS
 62
     3
 10
24045.516731585129
 20
14559.388127
 30
0.0
 11
24070.51013358514
 21
14559.388127
 31
0.0
  0
LINE
  5
12A8E
  8
2-0
  6
CONTINUOUS
 62
     3
 10
24070.51013358514
 20
14559.388127
 30
0.0
 11
24070.51013358514
 21
14541.392323
 31
0.0
  0
LINE
  5
12A8F
  8
2-0
  6
CONTINUOUS
 62
     3
 10
24070.51013358514
 20
14541.392323
 30
0.0
 11
24040.51250858514
 21
14541.392323
 31
0.0
  0
LINE
  5
12A90
  8
2-0
  6
CONTINUOUS
 62
     3
 10
24070.51013358514
 20
14557.490758
 30
0.0
 11
24070.51013358514
 21
14551.487868
 31
0.0
  0
LINE
  5
12A91
  8
2-0
  6
CONTINUOUS
 62
     3
 10
24070.51013358514
 20
14551.487868
 30
0.0
 11
24040.51250858514
 21
14551.487868
 31
0.0
  0
LINE
  5
12A92
  8
2-0
  6
CONTINUOUS
 62
     3
 10
24040.51250858514
 20
14551.487868
 30
0.0
 11
24040.51250858514
 21
14588.48803999998
 31
0.0
  0
LINE
  5
12A93
  8
2-0
  6
CONTINUOUS
 62
     3
 10
24070.51013358514
 20
14588.48803999998
 30
0.0
 11
24040.51250858514
 21
14588.48803999998
 31
0.0
  0
LINE
  5
12A94
  8
2-0
  6
CONTINUOUS
 62
     3
 10
24070.51013358514
 20
14582.49108799999
 30
0.0
 11
24070.51013358514
 21
14588.48803999998
 31
0.0
  0
LINE
  5
12A95
  8
2-0
  6
CONTINUOUS
 62
     3
 10
24070.51013358514
 20
14598.588533
 30
0.0
 11
24040.51250858514
 21
14598.588533
 31
0.0
  0
LINE
  5
12A96
  8
2-0
  6
CONTINUOUS
 62
     3
 10
24070.51013358514
 20
14580.581842
 30
0.0
 11
24070.51013358514
 21
14598.588533
 31
0.0
  0
LINE
  5
12A97
  8
2-0
  6
CONTINUOUS
 62
     3
 10
24045.516731585129
 20
14580.581842
 30
0.0
 11
24070.51013358514
 21
14580.581842
 31
0.0
  0
LINE
  5
12A98
  8
2-0
  6
CONTINUOUS
 62
     3
 10
24045.516731585129
 20
14585.587055
 30
0.0
 11
24045.516731585129
 21
14580.581842
 31
0.0
  0
LINE
  5
12A99
  8
2-0
  6
CONTINUOUS
 62
     3
 10
24052.514329585108
 20
14585.587055
 30
0.0
 11
24045.516731585129
 21
14585.587055
 31
0.0
  0
LINE
  5
12A9A
  8
2-0
  6
CONTINUOUS
 62
     3
 10
24070.51013358514
 20
13878.48988099999
 30
0.0
 11
24070.51013358514
 21
13884.494749999991
 31
0.0
  0
LINE
  5
12A9B
  8
2-0
  6
CONTINUOUS
 62
     3
 10
24070.51013358514
 20
13884.494749999991
 30
0.0
 11
24040.51250858514
 21
13884.494749999991
 31
0.0
  0
LINE
  5
12A9C
  8
2-0
  6
CONTINUOUS
 62
     3
 10
24040.51250858514
 20
13884.494749999991
 30
0.0
 11
24040.51250858514
 21
13769.49065899999
 31
0.0
  0
LINE
  5
12A9D
  8
2-0
  6
CONTINUOUS
 62
     3
 10
24040.51250858514
 20
13769.49065899999
 30
0.0
 11
24125.511056585128
 21
13769.49065899999
 31
0.0
  0
LINE
  5
12A9E
  8
2-0
  6
CONTINUOUS
 62
     3
 10
24125.511056585128
 20
13769.49065899999
 30
0.0
 11
24125.511056585128
 21
13854.48623799999
 31
0.0
  0
LINE
  5
12A9F
  8
2-0
  6
CONTINUOUS
 62
     3
 10
24125.511056585128
 20
13854.48623799999
 30
0.0
 11
24093.514118585132
 21
13854.48623799999
 31
0.0
  0
LINE
  5
12AA0
  8
2-0
  6
CONTINUOUS
 62
     3
 10
24052.514329585108
 20
13881.52448299999
 30
0.0
 11
24045.516731585129
 21
13881.52448299999
 31
0.0
  0
LINE
  5
12AA1
  8
2-0
  6
CONTINUOUS
 62
     3
 10
24045.516731585129
 20
13881.52448299999
 30
0.0
 11
24045.516731585129
 21
13876.527187999969
 31
0.0
  0
LINE
  5
12AA2
  8
2-0
  6
CONTINUOUS
 62
     3
 10
24045.516731585129
 20
13876.527187999969
 30
0.0
 11
24070.51013358514
 21
13876.527187999969
 31
0.0
  0
LINE
  5
12AA3
  8
2-0
  6
CONTINUOUS
 62
     3
 10
24070.51013358514
 20
13876.527187999969
 30
0.0
 11
24070.51013358514
 21
13894.52596099999
 31
0.0
  0
LINE
  5
12AA4
  8
2-0
  6
CONTINUOUS
 62
     3
 10
24070.51013358514
 20
13894.52596099999
 30
0.0
 11
24040.51250858514
 21
13894.52596099999
 31
0.0
  0
LINE
  5
12AA5
  8
2-0
  6
CONTINUOUS
 62
     3
 10
24040.51250858514
 20
14598.588533
 30
0.0
 11
24040.51250858514
 21
15242.627390999991
 31
0.0
  0
LINE
  5
12AA6
  8
2-0
  6
CONTINUOUS
 62
     3
 10
24040.51250858514
 20
18217.583089999989
 30
0.0
 11
24040.51250858514
 21
18861.393807499979
 31
0.0
  0
LINE
  5
12AA7
  8
2-0
  6
CONTINUOUS
 62
     3
 10
24131.51493658515
 20
18146.48669999995
 30
0.0
 11
24084.511267585149
 21
18146.48669999995
 31
0.0
  0
LINE
  5
12AA8
  8
2-0
  6
CONTINUOUS
 62
     3
 10
24084.511267585149
 20
18231.487227999991
 30
0.0
 11
24131.51493658515
 21
18231.487227999991
 31
0.0
  0
LINE
  5
12AA9
  8
2-0
  6
CONTINUOUS
 62
     3
 10
24084.511267585149
 20
18146.48669999995
 30
0.0
 11
24084.511267585149
 21
18171.48999899999
 31
0.0
  0
LINE
  5
12AAA
  8
2-0
  6
CONTINUOUS
 62
     3
 10
24084.511267585149
 20
18206.485907999981
 30
0.0
 11
24084.511267585149
 21
18231.487227999991
 31
0.0
  0
LINE
  5
12AAB
  8
2-0
  6
CONTINUOUS
 62
     3
 10
24131.51493658515
 20
18231.487227999991
 30
0.0
 11
24131.51493658515
 21
18146.48669999995
 31
0.0
  0
LINE
  5
12AAC
  8
2-0
  6
CONTINUOUS
 62
     3
 10
24040.51250858514
 20
15943.387374499989
 30
0.0
 11
24040.51250858514
 21
15299.823601
 31
0.0
  0
LINE
  5
12AAD
  8
2-0
  6
CONTINUOUS
 62
     3
 10
24131.51493658515
 20
15228.48966999999
 30
0.0
 11
24084.511267585149
 21
15228.48966999999
 31
0.0
  0
LINE
  5
12AAE
  8
2-0
  6
CONTINUOUS
 62
     3
 10
24084.511267585149
 20
15313.486237999979
 30
0.0
 11
24131.51493658515
 21
15313.486237999979
 31
0.0
  0
LINE
  5
12AAF
  8
2-0
  6
CONTINUOUS
 62
     3
 10
24084.511267585149
 20
15228.48966999999
 30
0.0
 11
24084.511267585149
 21
15253.485051
 31
0.0
  0
LINE
  5
12AB0
  8
2-0
  6
CONTINUOUS
 62
     3
 10
24084.511267585149
 20
15288.484919
 30
0.0
 11
24084.511267585149
 21
15313.486237999979
 31
0.0
  0
LINE
  5
12AB1
  8
2-0
  6
CONTINUOUS
 62
     3
 10
24131.51493658515
 20
15313.486237999979
 30
0.0
 11
24131.51493658515
 21
15228.48966999999
 31
0.0
  0
LINE
  5
12AB2
  8
2-0
  6
CONTINUOUS
 62
     3
 10
27043.50709758513
 20
19224.990065999998
 30
0.0
 11
27043.50709758513
 21
19339.986239000002
 31
0.0
  0
LINE
  5
12AB3
  8
2-0
  6
CONTINUOUS
 62
     3
 10
24040.51250858514
 20
19254.989669999981
 30
0.0
 11
26962.505197585131
 21
19254.989669999981
 31
0.0
  0
LINE
  5
12AB4
  8
2-0
  6
CONTINUOUS
 62
     3
 10
24040.51250858514
 20
13894.52596099999
 30
0.0
 11
24040.51250858514
 21
14541.392323
 31
0.0
  0
LINE
  5
12AB5
  8
2-0
  6
CONTINUOUS
 62
     3
 10
27043.50709758513
 20
19214.692609999991
 30
0.0
 11
27043.50709758513
 21
18918.584079499979
 31
0.0
  0
LINE
  5
12AB6
  8
2-0
  6
CONTINUOUS
 62
     3
 10
24040.51250858514
 20
19214.692609999991
 30
0.0
 11
24040.51250858514
 21
18918.584079499971
 31
0.0
  0
LINE
  5
12AB7
  8
2-0
  6
CONTINUOUS
 62
     3
 10
24121.510449585148
 20
13854.48623799999
 30
0.0
 11
24121.510449585148
 21
19339.986239000002
 31
0.0
  0
LINE
  5
12AB8
  8
2-0
  6
CONTINUOUS
 62
     3
 10
26962.505197585131
 20
13854.48623799999
 30
0.0
 11
26962.505197585131
 21
19339.986239000002
 31
0.0
  0
TEXT
  5
12AB9
  8
2-0
  6
CONTINUOUS
 62
     7
 10
25397.854120585129
 20
13251.989075999991
 30
0.0
 40
160.0
  1
前柱（右）
 50
0.000213
 72
     4
 11
25813.853823178149
 21
13331.99062250078
 31
0.0
  0
TEXT
  5
12ABA
  8
2-0
  6
CONTINUOUS
 62
     7
 10
25414.553339585131
 20
17931.11111999999
 30
0.0
 40
160.0
  1
補強柱 後
 50
359.99984199999989
 72
     4
 11
25825.220226859848
 21
18011.10998753698
 31
0.0
  0
TEXT
  5
12ABB
  8
2-0
  6
CONTINUOUS
 62
     7
 10
25602.44924358515
 20
16180.481092000011
 30
0.0
 40
160.0
  1
壁パネル
 50
359.99982299999999
 72
     4
 11
25965.1161573887
 21
16260.47997163788
 31
0.0
  0
TEXT
  5
12ABC
  8
2-0
  6
CONTINUOUS
 62
     7
 10
25322.446339585131
 20
17017.668988000001
 30
0.0
 40
160.0
  1
中柱（左右）
 50
0.000354
 72
     4
 11
25839.779178631339
 21
17097.672184324649
 31
0.0
  0
TEXT
  5
12ABD
  8
2-0
  6
CONTINUOUS
 62
     7
 10
26002.448583585141
 20
14225.030341999989
 30
0.0
 40
160.0
  1
下枠
 50
0.001063
 72
     4
 11
26173.11376599444
 21
14305.03350833928
 31
0.0
  0
TEXT
  5
12ABE
  8
2-0
  6
CONTINUOUS
 62
     7
 10
25414.553339585142
 20
15013.35163099999
 30
0.0
 40
160.0
  1
補強柱 前
 50
359.99937
 72
     4
 11
25825.220885872921
 21
15093.347115479321
 31
0.0
  0
TEXT
  5
12ABF
  8
2-0
  6
CONTINUOUS
 62
     7
 10
25497.41400758515
 20
18620.937726499978
 30
0.0
 40
160.0
  1
間柱（側）
 72
     4
 11
25918.747340918479
 21
18700.937726499978
 31
0.0
  0
TEXT
  5
12AC0
  8
2-0
  6
CONTINUOUS
 62
     7
 10
27816.004326585131
 20
20149.985446999999
 30
0.0
 40
160.0
  1
後柱（左右）
 50
0.000354
 72
     4
 11
28328.00383229812
 21
20229.988610372831
 31
0.0
  0
LINE
  5
12AC1
  8
2-0
  6
CONTINUOUS
 62
     3
 10
26261.509394585111
 20
19339.986239000002
 30
0.0
 11
26224.508232585151
 21
19339.986239000002
 31
0.0
  0
LINE
  5
12AC2
  8
2-0
  6
CONTINUOUS
 62
     3
 10
26261.509394585111
 20
19309.982676
 30
0.0
 11
26261.509394585111
 21
19339.986239000002
 31
0.0
  0
LINE
  5
12AC3
  8
2-0
  6
CONTINUOUS
 62
     3
 10
26255.509473585109
 20
19309.982676
 30
0.0
 11
26261.509394585111
 21
19309.982676
 31
0.0
  0
LINE
  5
12AC4
  8
2-0
  6
CONTINUOUS
 62
     3
 10
26271.606918585148
 20
19309.982676
 30
0.0
 11
26271.606918585148
 21
19339.986239000002
 31
0.0
  0
LINE
  5
12AC5
  8
2-0
  6
CONTINUOUS
 62
     3
 10
26253.603197585151
 20
19309.982676
 30
0.0
 11
26271.606918585148
 21
19309.982676
 31
0.0
  0
LINE
  5
12AC6
  8
2-0
  6
CONTINUOUS
 62
     3
 10
26253.603197585151
 20
19334.991913000002
 30
0.0
 11
26253.603197585151
 21
19309.982676
 31
0.0
  0
LINE
  5
12AC7
  8
2-0
  6
CONTINUOUS
 62
     3
 10
26258.603461585149
 20
19334.991913000002
 30
0.0
 11
26253.603197585151
 21
19334.991913000002
 31
0.0
  0
LINE
  5
12AC8
  8
2-0
  6
CONTINUOUS
 62
     3
 10
26258.603461585149
 20
19327.98639699999
 30
0.0
 11
26258.603461585149
 21
19334.991913000002
 31
0.0
  0
LINE
  5
12AC9
  8
2-0
  6
CONTINUOUS
 62
     3
 10
26227.414166585131
 20
19327.98639699999
 30
0.0
 11
26227.414166585131
 21
19334.991913000002
 31
0.0
  0
LINE
  5
12ACA
  8
2-0
  6
CONTINUOUS
 62
     3
 10
26227.414166585131
 20
19334.991913000002
 30
0.0
 11
26232.414430585151
 21
19334.991913000002
 31
0.0
  0
LINE
  5
12ACB
  8
2-0
  6
CONTINUOUS
 62
     3
 10
26232.414430585151
 20
19334.991913000002
 30
0.0
 11
26232.414430585151
 21
19309.982676
 31
0.0
  0
LINE
  5
12ACC
  8
2-0
  6
CONTINUOUS
 62
     3
 10
26232.414430585151
 20
19309.982676
 30
0.0
 11
26214.414667585152
 21
19309.982676
 31
0.0
  0
LINE
  5
12ACD
  8
2-0
  6
CONTINUOUS
 62
     3
 10
26214.414667585152
 20
19309.982676
 30
0.0
 11
26214.414667585152
 21
19339.986239000002
 31
0.0
  0
LINE
  5
12ACE
  8
2-0
  6
CONTINUOUS
 62
     3
 10
26230.508153585139
 20
19309.982676
 30
0.0
 11
26224.508232585151
 21
19309.982676
 31
0.0
  0
LINE
  5
12ACF
  8
2-0
  6
CONTINUOUS
 62
     3
 10
26224.508232585151
 20
19309.982676
 30
0.0
 11
26224.508232585151
 21
19339.986239000002
 31
0.0
  0
LINE
  5
12AD0
  8
2-0
  6
CONTINUOUS
 62
     3
 10
24856.59851208514
 20
19327.98639699999
 30
0.0
 11
24856.59851208514
 21
19334.991913000002
 31
0.0
  0
LINE
  5
12AD1
  8
2-0
  6
CONTINUOUS
 62
     3
 10
24856.59851208514
 20
19334.991913000002
 30
0.0
 11
24851.598248085142
 21
19334.991913000002
 31
0.0
  0
LINE
  5
12AD2
  8
2-0
  6
CONTINUOUS
 62
     3
 10
24851.598248085142
 20
19334.991913000002
 30
0.0
 11
24851.598248085142
 21
19309.982676
 31
0.0
  0
LINE
  5
12AD3
  8
2-0
  6
CONTINUOUS
 62
     3
 10
24851.598248085142
 20
19309.982676
 30
0.0
 11
24869.603949085151
 21
19309.982676
 31
0.0
  0
LINE
  5
12AD4
  8
2-0
  6
CONTINUOUS
 62
     3
 10
24869.603949085151
 20
19309.982676
 30
0.0
 11
24869.603949085151
 21
19339.986239000002
 31
0.0
  0
LINE
  5
12AD5
  8
2-0
  6
CONTINUOUS
 62
     3
 10
24853.50650408514
 20
19309.982676
 30
0.0
 11
24859.508404085129
 21
19309.982676
 31
0.0
  0
LINE
  5
12AD6
  8
2-0
  6
CONTINUOUS
 62
     3
 10
24859.508404085129
 20
19309.982676
 30
0.0
 11
24859.508404085129
 21
19339.986239000002
 31
0.0
  0
LINE
  5
12AD7
  8
2-0
  6
CONTINUOUS
 62
     3
 10
24822.509223085141
 20
19339.986239000002
 30
0.0
 11
24859.508404085129
 21
19339.986239000002
 31
0.0
  0
LINE
  5
12AD8
  8
2-0
  6
CONTINUOUS
 62
     3
 10
24822.509223085141
 20
19309.982676
 30
0.0
 11
24822.509223085141
 21
19339.986239000002
 31
0.0
  0
LINE
  5
12AD9
  8
2-0
  6
CONTINUOUS
 62
     3
 10
24828.503205085141
 20
19309.982676
 30
0.0
 11
24822.509223085141
 21
19309.982676
 31
0.0
  0
LINE
  5
12ADA
  8
2-0
  6
CONTINUOUS
 62
     3
 10
24812.413678085151
 20
19309.982676
 30
0.0
 11
24812.413678085151
 21
19339.986239000002
 31
0.0
  0
LINE
  5
12ADB
  8
2-0
  6
CONTINUOUS
 62
     3
 10
24830.409481085138
 20
19309.982676
 30
0.0
 11
24812.413678085151
 21
19309.982676
 31
0.0
  0
LINE
  5
12ADC
  8
2-0
  6
CONTINUOUS
 62
     3
 10
24830.409481085138
 20
19334.991913000002
 30
0.0
 11
24830.409481085138
 21
19309.982676
 31
0.0
  0
LINE
  5
12ADD
  8
2-0
  6
CONTINUOUS
 62
     3
 10
24825.409217085129
 20
19334.991913000002
 30
0.0
 11
24830.409481085138
 21
19334.991913000002
 31
0.0
  0
LINE
  5
12ADE
  8
2-0
  6
CONTINUOUS
 62
     3
 10
24825.409217085129
 20
19327.98639699999
 30
0.0
 11
24825.409217085129
 21
19334.991913000002
 31
0.0
  0
LINE
  5
12ADF
  8
2-0
  6
CONTINUOUS
 62
     3
 10
25526.40822808514
 20
19327.98639699999
 30
0.0
 11
25526.40822808514
 21
19334.991913000002
 31
0.0
  0
LINE
  5
12AE0
  8
2-0
  6
CONTINUOUS
 62
     3
 10
25526.40822808514
 20
19334.991913000002
 30
0.0
 11
25531.408491085149
 21
19334.991913000002
 31
0.0
  0
LINE
  5
12AE1
  8
2-0
  6
CONTINUOUS
 62
     3
 10
25531.408491085149
 20
19334.991913000002
 30
0.0
 11
25531.408491085149
 21
19309.982676
 31
0.0
  0
LINE
  5
12AE2
  8
2-0
  6
CONTINUOUS
 62
     3
 10
25531.408491085149
 20
19309.982676
 30
0.0
 11
25513.414668085119
 21
19309.982676
 31
0.0
  0
LINE
  5
12AE3
  8
2-0
  6
CONTINUOUS
 62
     3
 10
25513.414668085119
 20
19309.982676
 30
0.0
 11
25513.414668085119
 21
19339.986239000002
 31
0.0
  0
LINE
  5
12AE4
  8
2-0
  6
CONTINUOUS
 62
     3
 10
25529.50617408512
 20
19309.982676
 30
0.0
 11
25523.50823308514
 21
19309.982676
 31
0.0
  0
LINE
  5
12AE5
  8
2-0
  6
CONTINUOUS
 62
     3
 10
25523.50823308514
 20
19309.982676
 30
0.0
 11
25523.50823308514
 21
19339.986239000002
 31
0.0
  0
LINE
  5
12AE6
  8
2-0
  6
CONTINUOUS
 62
     3
 10
25560.509394085151
 20
19339.986239000002
 30
0.0
 11
25523.50823308514
 21
19339.986239000002
 31
0.0
  0
LINE
  5
12AE7
  8
2-0
  6
CONTINUOUS
 62
     3
 10
25560.509394085151
 20
19309.982676
 30
0.0
 11
25560.509394085151
 21
19339.986239000002
 31
0.0
  0
LINE
  5
12AE8
  8
2-0
  6
CONTINUOUS
 62
     3
 10
25554.50353508515
 20
19309.982676
 30
0.0
 11
25560.509394085151
 21
19309.982676
 31
0.0
  0
LINE
  5
12AE9
  8
2-0
  6
CONTINUOUS
 62
     3
 10
25570.60295908515
 20
19309.982676
 30
0.0
 11
25570.60295908515
 21
19339.986239000002
 31
0.0
  0
LINE
  5
12AEA
  8
2-0
  6
CONTINUOUS
 62
     3
 10
25552.607156085141
 20
19309.982676
 30
0.0
 11
25570.60295908515
 21
19309.982676
 31
0.0
  0
LINE
  5
12AEB
  8
2-0
  6
CONTINUOUS
 62
     3
 10
25552.607156085141
 20
19334.991913000002
 30
0.0
 11
25552.607156085141
 21
19309.982676
 31
0.0
  0
LINE
  5
12AEC
  8
2-0
  6
CONTINUOUS
 62
     3
 10
25557.597522085151
 20
19334.991913000002
 30
0.0
 11
25552.607156085141
 21
19334.991913000002
 31
0.0
  0
LINE
  5
12AED
  8
2-0
  6
CONTINUOUS
 62
     3
 10
25557.597522085151
 20
19327.98639699999
 30
0.0
 11
25557.597522085151
 21
19334.991913000002
 31
0.0
  0
LINE
  5
12AEE
  8
2-0
  6
CONTINUOUS
 62
     3
 10
24869.603949085151
 20
19339.986239000002
 30
0.0
 11
25513.414668085119
 21
19339.986239000002
 31
0.0
  0
LINE
  5
12AEF
  8
2-0
  6
CONTINUOUS
 62
     3
 10
24165.814055585131
 20
19339.986239000002
 30
0.0
 11
24812.413678085151
 21
19339.986239000002
 31
0.0
  0
LINE
  5
12AF0
  8
2-0
  6
CONTINUOUS
 62
     3
 10
26918.892443585151
 20
19339.986239000002
 30
0.0
 11
26271.606918585148
 21
19339.986239000002
 31
0.0
  0
LINE
  5
12AF1
  8
2-0
  6
CONTINUOUS
 62
     3
 10
26214.414667585152
 20
19339.986239000002
 30
0.0
 11
25570.60295908515
 21
19339.986239000002
 31
0.0
  0
LINE
  5
12AF2
  8
2-0
  6
CONTINUOUS
 62
     3
 10
27043.50709758513
 20
15242.627391
 30
0.0
 11
27043.50709758513
 21
14598.588533
 31
0.0
  0
LINE
  5
12AF3
  8
2-0
  6
CONTINUOUS
 62
     3
 10
27043.50709758513
 20
14541.392322999989
 30
0.0
 11
27043.50709758513
 21
13894.52596099999
 31
0.0
  0
LINE
  5
12AF4
  8
0-6
  6
CONTINUOUS
 62
     6
 10
24083.833072085141
 20
18628.668011000002
 30
0.0
 11
25108.873322085161
 21
18628.668011000002
 31
0.0
  0
LINE
  5
12AF5
  8
0-6
  6
CONTINUOUS
 62
     6
 10
25408.798100085151
 20
19186.02126300001
 30
0.0
 11
25513.413678085151
 21
19309.982676
 31
0.0
  0
LINE
  5
12AF6
  8
0-6
  6
CONTINUOUS
 62
     6
 10
25513.413678085151
 20
19309.982676
 30
0.0
 11
25454.65562808514
 21
19158.791005999999
 31
0.0
  0
LINE
  5
12AF7
  8
0-6
  6
CONTINUOUS
 62
     6
 10
25513.413678085151
 20
19309.982676
 30
0.0
 11
25408.798100085151
 21
19186.02126300001
 31
0.0
  0
LINE
  5
12AF8
  8
0-6
  6
CONTINUOUS
 62
     6
 10
25408.798100085151
 20
19186.02126300001
 30
0.0
 11
25454.65562808514
 21
19158.791005999999
 31
0.0
  0
LINE
  5
12AF9
  8
0-6
  6
CONTINUOUS
 62
     6
 10
25454.65562808514
 20
19158.791005999999
 30
0.0
 11
25513.413678085151
 21
19309.982676
 31
0.0
  0
LINE
  5
12AFA
  8
0-6
  6
CONTINUOUS
 62
     6
 10
25454.65562808514
 20
19158.791005999999
 30
0.0
 11
25408.798100085151
 21
19186.02126300001
 31
0.0
  0
LINE
  5
12AFB
  8
0-6
  6
CONTINUOUS
 62
     6
 10
25431.726864085151
 20
19172.408114000002
 30
0.0
 11
25108.873322085161
 21
18628.668011000002
 31
0.0
  0
TEXT
  5
12AFC
  8
0-6
  6
CONTINUOUS
 62
     7
 10
24163.83333608515
 20
18708.670255000001
 30
0.0
 40
160.0
  1
間柱（後）
 72
     4
 11
24585.166669418479
 21
18788.670255000001
 31
0.0
  0
LINE
  5
12AFD
  8
SUNPOU
  6
CONTINUOUS
 62
     4
 10
27123.50709758513
 20
18889.987953999978
 30
0.0
 11
28173.50841758513
 21
18889.987953999978
 31
0.0
  0
LINE
  5
12AFE
  8
SUNPOU
  6
CONTINUOUS
 62
     4
 10
27973.50841758513
 20
19297.487953999989
 30
0.0
 11
28173.50841758513
 21
19297.487953999989
 31
0.0
  0
LINE
  5
12AFF
  8
SUNPOU
  6
CONTINUOUS
 62
     4
 10
28093.50841758513
 20
18889.987953999978
 30
0.0
 11
28093.50841758513
 21
19297.487953999989
 31
0.0
  0
LINE
  5
12B00
  8
SUNPOU
  6
CONTINUOUS
 62
     4
 10
24083.008813585151
 20
13106.22451999998
 30
0.0
 11
24083.008813585151
 21
12760.539869999981
 31
0.0
  0
LINE
  5
12B01
  8
SUNPOU
  6
CONTINUOUS
 62
     4
 10
24040.506570585148
 20
13689.49065899999
 30
0.0
 11
24040.506570585148
 21
12760.539869999981
 31
0.0
  0
LINE
  5
12B02
  8
SUNPOU
  6
CONTINUOUS
 62
     4
 10
24083.008813585151
 20
12840.53986999999
 30
0.0
 11
24323.008813585151
 21
12840.53986999999
 31
0.0
  0
LINE
  5
12B03
  8
SUNPOU
  6
CONTINUOUS
 62
     4
 10
24040.506570585148
 20
12840.53986999999
 30
0.0
 11
23800.506570585148
 21
12840.53986999999
 31
0.0
  0
LINE
  5
12B04
  8
SUNPOU
  6
CONTINUOUS
 62
     4
 10
24083.008813585151
 20
12840.53986999999
 30
0.0
 11
24040.506570585148
 21
12840.53986999999
 31
0.0
  0
LINE
  5
12B05
  8
SUNPOU
  6
CONTINUOUS
 62
     4
 10
27001.008813585151
 20
13811.98795399998
 30
0.0
 11
27001.008813585151
 21
12760.539869999981
 31
0.0
  0
LINE
  5
12B06
  8
SUNPOU
  6
CONTINUOUS
 62
     4
 10
27043.511056585139
 20
13689.49065899999
 30
0.0
 11
27043.511056585139
 21
12760.539869999981
 31
0.0
  0
LINE
  5
12B07
  8
SUNPOU
  6
CONTINUOUS
 62
     4
 10
27001.008813585151
 20
12840.53986999999
 30
0.0
 11
26761.008813585151
 21
12840.53986999999
 31
0.0
  0
LINE
  5
12B08
  8
SUNPOU
  6
CONTINUOUS
 62
     4
 10
27043.511056585139
 20
12840.53986999999
 30
0.0
 11
27283.511056585128
 21
12840.53986999999
 31
0.0
  0
LINE
  5
12B09
  8
SUNPOU
  6
CONTINUOUS
 62
     4
 10
27001.008813585151
 20
12840.53986999999
 30
0.0
 11
27043.511056585139
 21
12840.53986999999
 31
0.0
  0
LINE
  5
12B0A
  8
SUNPOU
  6
CONTINUOUS
 62
     4
 10
27001.008813585151
 20
13811.98795399998
 30
0.0
 11
27001.008813585151
 21
12760.539869999981
 31
0.0
  0
LINE
  5
12B0B
  8
SUNPOU
  6
CONTINUOUS
 62
     4
 10
26958.506570585141
 20
13689.49065899999
 30
0.0
 11
26958.506570585141
 21
12760.539869999981
 31
0.0
  0
LINE
  5
12B0C
  8
SUNPOU
  6
CONTINUOUS
 62
     4
 10
27001.008813585151
 20
12840.53986999999
 30
0.0
 11
27241.008813585151
 21
12840.53986999999
 31
0.0
  0
LINE
  5
12B0D
  8
SUNPOU
  6
CONTINUOUS
 62
     4
 10
26958.506570585141
 20
12840.53986999999
 30
0.0
 11
26718.506570585141
 21
12840.53986999999
 31
0.0
  0
LINE
  5
12B0E
  8
SUNPOU
  6
CONTINUOUS
 62
     4
 10
27001.008813585151
 20
12840.53986999999
 30
0.0
 11
26958.506570585141
 21
12840.53986999999
 31
0.0
  0
LINE
  5
12B0F
  8
SUNPOU
  6
CONTINUOUS
 62
     4
 10
24083.008813585151
 20
13811.98795399998
 30
0.0
 11
24083.008813585151
 21
12760.539869999981
 31
0.0
  0
LINE
  5
12B10
  8
SUNPOU
  6
CONTINUOUS
 62
     4
 10
24125.511056585128
 20
13689.49065899999
 30
0.0
 11
24125.511056585128
 21
12760.539869999981
 31
0.0
  0
LINE
  5
12B11
  8
SUNPOU
  6
CONTINUOUS
 62
     4
 10
24083.008813585151
 20
12840.53986999999
 30
0.0
 11
23843.008813585151
 21
12840.53986999999
 31
0.0
  0
LINE
  5
12B12
  8
SUNPOU
  6
CONTINUOUS
 62
     4
 10
24125.511056585128
 20
12840.53986999999
 30
0.0
 11
24365.511056585128
 21
12840.53986999999
 31
0.0
  0
LINE
  5
12B13
  8
SUNPOU
  6
CONTINUOUS
 62
     4
 10
24083.008813585151
 20
12840.53986999999
 30
0.0
 11
24125.511056585128
 21
12840.53986999999
 31
0.0
  0
LINE
  5
12B14
  8
SUNPOU
  6
CONTINUOUS
 62
     4
 10
24040.506570585148
 20
13689.49065899999
 30
0.0
 11
24040.506570585148
 21
12360.539869999981
 31
0.0
  0
LINE
  5
12B15
  8
SUNPOU
  6
CONTINUOUS
 62
     4
 10
27043.511056585139
 20
13689.49065899999
 30
0.0
 11
27043.511056585139
 21
12360.539869999981
 31
0.0
  0
LINE
  5
12B16
  8
SUNPOU
  6
CONTINUOUS
 62
     4
 10
24040.506570585148
 20
12440.539869999981
 30
0.0
 11
27043.511056585139
 21
12440.539869999981
 31
0.0
  0
LINE
  5
12B17
  8
SUNPOU
  6
CONTINUOUS
 62
     4
 10
27123.50709758513
 20
14569.987953999989
 30
0.0
 11
28173.50841758513
 21
14569.987953999989
 31
0.0
  0
LINE
  5
12B18
  8
SUNPOU
  6
CONTINUOUS
 62
     4
 10
27973.50841758513
 20
13811.98795399998
 30
0.0
 11
28173.50841758513
 21
13811.98795399998
 31
0.0
  0
LINE
  5
12B19
  8
SUNPOU
  6
CONTINUOUS
 62
     4
 10
28093.50841758513
 20
14569.987953999989
 30
0.0
 11
28093.50841758513
 21
13811.98795399998
 31
0.0
  0
LINE
  5
12B1A
  8
SUNPOU
  6
CONTINUOUS
 62
     4
 10
27123.50709758513
 20
15271.228465500009
 30
0.0
 11
28173.50841758513
 21
15271.228465500009
 31
0.0
  0
LINE
  5
12B1B
  8
SUNPOU
  6
CONTINUOUS
 62
     4
 10
27123.50709758513
 20
14569.987953999989
 30
0.0
 11
28173.50841758513
 21
14569.987953999989
 31
0.0
  0
LINE
  5
12B1C
  8
SUNPOU
  6
CONTINUOUS
 62
     4
 10
28093.50841758513
 20
15271.228465500009
 30
0.0
 11
28093.50841758513
 21
14569.987953999989
 31
0.0
  0
LINE
  5
12B1D
  8
SUNPOU
  6
CONTINUOUS
 62
     4
 10
27123.50709758513
 20
15971.987953999989
 30
0.0
 11
28173.50841758513
 21
15971.987953999989
 31
0.0
  0
LINE
  5
12B1E
  8
SUNPOU
  6
CONTINUOUS
 62
     4
 10
27123.50709758513
 20
15271.228465500009
 30
0.0
 11
28173.50841758513
 21
15271.228465500009
 31
0.0
  0
LINE
  5
12B1F
  8
SUNPOU
  6
CONTINUOUS
 62
     4
 10
28093.50841758513
 20
15971.987953999989
 30
0.0
 11
28093.50841758513
 21
15271.228465500009
 31
0.0
  0
LINE
  5
12B20
  8
SUNPOU
  6
CONTINUOUS
 62
     4
 10
27973.50841758513
 20
16729.987953999989
 30
0.0
 11
28173.50841758513
 21
16729.987953999989
 31
0.0
  0
LINE
  5
12B21
  8
SUNPOU
  6
CONTINUOUS
 62
     4
 10
27123.50709758513
 20
15971.987953999989
 30
0.0
 11
28173.50841758513
 21
15971.987953999989
 31
0.0
  0
LINE
  5
12B22
  8
SUNPOU
  6
CONTINUOUS
 62
     4
 10
28093.50841758513
 20
16729.987953999989
 30
0.0
 11
28093.50841758513
 21
15971.987953999989
 31
0.0
  0
LINE
  5
12B23
  8
SUNPOU
  6
CONTINUOUS
 62
     4
 10
27123.50709758513
 20
17487.987953999989
 30
0.0
 11
28173.50841758513
 21
17487.987953999989
 31
0.0
  0
LINE
  5
12B24
  8
SUNPOU
  6
CONTINUOUS
 62
     4
 10
27973.50841758513
 20
16729.987953999989
 30
0.0
 11
28173.50841758513
 21
16729.987953999989
 31
0.0
  0
LINE
  5
12B25
  8
SUNPOU
  6
CONTINUOUS
 62
     4
 10
28093.50841758513
 20
17487.987953999989
 30
0.0
 11
28093.50841758513
 21
16729.987953999989
 31
0.0
  0
LINE
  5
12B26
  8
SUNPOU
  6
CONTINUOUS
 62
     4
 10
27123.50709758513
 20
18188.987953999989
 30
0.0
 11
28173.50841758513
 21
18188.987953999989
 31
0.0
  0
LINE
  5
12B27
  8
SUNPOU
  6
CONTINUOUS
 62
     4
 10
27123.50709758513
 20
17487.987953999989
 30
0.0
 11
28173.50841758513
 21
17487.987953999989
 31
0.0
  0
LINE
  5
12B28
  8
SUNPOU
  6
CONTINUOUS
 62
     4
 10
28093.50841758513
 20
18188.987953999989
 30
0.0
 11
28093.50841758513
 21
17487.987953999989
 31
0.0
  0
LINE
  5
12B29
  8
SUNPOU
  6
CONTINUOUS
 62
     4
 10
27123.50709758513
 20
18889.987953999978
 30
0.0
 11
28173.50841758513
 21
18889.987953999978
 31
0.0
  0
LINE
  5
12B2A
  8
SUNPOU
  6
CONTINUOUS
 62
     4
 10
27123.50709758513
 20
18188.987953999989
 30
0.0
 11
28173.50841758513
 21
18188.987953999989
 31
0.0
  0
LINE
  5
12B2B
  8
SUNPOU
  6
CONTINUOUS
 62
     4
 10
28093.50841758513
 20
18889.987953999978
 30
0.0
 11
28093.50841758513
 21
18188.987953999989
 31
0.0
  0
LINE
  5
12B2C
  8
SUNPOU
  6
CONTINUOUS
 62
     4
 10
27973.50841758513
 20
16729.987953999989
 30
0.0
 11
28573.50841758513
 21
16729.987953999989
 31
0.0
  0
LINE
  5
12B2D
  8
SUNPOU
  6
CONTINUOUS
 62
     4
 10
27973.50841758513
 20
19297.487953999989
 30
0.0
 11
28573.50841758513
 21
19297.48795399996
 31
0.0
  0
LINE
  5
12B2E
  8
SUNPOU
  6
CONTINUOUS
 62
     4
 10
27973.50841758513
 20
13811.98795399998
 30
0.0
 11
28573.50841758513
 21
13811.98795399998
 31
0.0
  0
LINE
  5
12B2F
  8
SUNPOU
  6
CONTINUOUS
 62
     4
 10
27973.50841758513
 20
16729.987953999989
 30
0.0
 11
28573.50841758513
 21
16729.987953999989
 31
0.0
  0
LINE
  5
12B30
  8
SUNPOU
  6
CONTINUOUS
 62
     4
 10
27123.50709758513
 20
19339.98524899999
 30
0.0
 11
28973.508417585141
 21
19339.98524899999
 31
0.0
  0
LINE
  5
12B31
  8
SUNPOU
  6
CONTINUOUS
 62
     4
 10
27123.50709758513
 20
13769.49065899999
 30
0.0
 11
28973.508417585141
 21
13769.49065899999
 31
0.0
  0
LINE
  5
12B32
  8
SUNPOU
  6
CONTINUOUS
 62
     4
 10
28893.508417585141
 20
19339.98524899999
 30
0.0
 11
28893.508417585141
 21
13769.49065899999
 31
0.0
  0
LINE
  5
12B33
  8
SUNPOU
  6
CONTINUOUS
 62
     4
 10
27973.50841758513
 20
19297.487953999989
 30
0.0
 11
28573.50841758513
 21
19297.48795399996
 31
0.0
  0
LINE
  5
12B34
  8
SUNPOU
  6
CONTINUOUS
 62
     4
 10
27123.50709758513
 20
19339.98524899999
 30
0.0
 11
28573.50841758513
 21
19339.98524899999
 31
0.0
  0
LINE
  5
12B35
  8
SUNPOU
  6
CONTINUOUS
 62
     4
 10
28493.50841758513
 20
19297.48795399996
 30
0.0
 11
28493.50841758513
 21
19057.487953999971
 31
0.0
  0
LINE
  5
12B36
  8
SUNPOU
  6
CONTINUOUS
 62
     4
 10
28493.50841758513
 20
19339.98524899999
 30
0.0
 11
28493.50841758513
 21
19579.98524899999
 31
0.0
  0
LINE
  5
12B37
  8
SUNPOU
  6
CONTINUOUS
 62
     4
 10
28093.50841758513
 20
19297.487953999989
 30
0.0
 11
28093.50841758513
 21
19997.571498191639
 31
0.0
  0
LINE
  5
12B38
  8
SUNPOU
  6
CONTINUOUS
 62
     4
 10
28493.50841758513
 20
19297.48795399996
 30
0.0
 11
28493.50841758513
 21
19339.98524899999
 31
0.0
  0
LINE
  5
12B39
  8
SUNPOU
  6
CONTINUOUS
 62
     4
 10
27973.50841758513
 20
13811.98795399998
 30
0.0
 11
28573.50841758513
 21
13811.98795399998
 31
0.0
  0
LINE
  5
12B3A
  8
SUNPOU
  6
CONTINUOUS
 62
     4
 10
27123.50709758513
 20
13769.49065899999
 30
0.0
 11
28573.50841758513
 21
13769.49065899999
 31
0.0
  0
LINE
  5
12B3B
  8
SUNPOU
  6
CONTINUOUS
 62
     4
 10
28493.50841758513
 20
13811.98795399998
 30
0.0
 11
28493.50841758513
 21
14051.98795399998
 31
0.0
  0
LINE
  5
12B3C
  8
SUNPOU
  6
CONTINUOUS
 62
     4
 10
28493.50841758513
 20
13769.49065899999
 30
0.0
 11
28493.50841758513
 21
13529.49065899999
 31
0.0
  0
LINE
  5
12B3D
  8
SUNPOU
  6
CONTINUOUS
 62
     4
 10
28493.50841758513
 20
13811.98795399998
 30
0.0
 11
28493.50841758513
 21
13769.49065899999
 31
0.0
  0
TEXT
  5
12B3E
  8
0
  6
CONTINUOUS
 62
     7
 10
28413.50841758513
 20
13195.93442260319
 30
0.0
 40
160.0
  1
42.5
 50
90.0
  0
TEXT
  5
12B3F
  8
0
  6
CONTINUOUS
 62
     7
 10
28413.50841758513
 20
19433.541485396781
 30
0.0
 40
160.0
  1
42.5
 50
90.0
  0
TEXT
  5
12B40
  8
0
  6
CONTINUOUS
 62
     7
 10
28813.508417585141
 20
16168.07128733333
 30
0.0
 40
160.0
  1
5570.5
 50
90.0
  0
TEXT
  5
12B41
  8
0
  6
CONTINUOUS
 62
     7
 10
28013.50841758513
 20
18366.154620666661
 30
0.0
 40
160.0
  1
701
 50
90.0
  0
TEXT
  5
12B42
  8
0
  6
CONTINUOUS
 62
     7
 10
28013.50841758513
 20
17665.154620666661
 30
0.0
 40
160.0
  1
701
 50
90.0
  0
TEXT
  5
12B43
  8
0
  6
CONTINUOUS
 62
     7
 10
28013.50841758513
 20
16895.654620666661
 30
0.0
 40
160.0
  1
758
 50
90.0
  0
TEXT
  5
12B44
  8
0
  6
CONTINUOUS
 62
     7
 10
28013.50841758513
 20
16137.654620666661
 30
0.0
 40
160.0
  1
758
 50
90.0
  0
TEXT
  5
12B45
  8
0
  6
CONTINUOUS
 62
     7
 10
28013.50841758513
 20
15448.27487641667
 30
0.0
 40
160.0
  1
701
 50
90.0
  0
TEXT
  5
12B46
  8
0
  6
CONTINUOUS
 62
     7
 10
28013.50841758513
 20
14747.27487641667
 30
0.0
 40
160.0
  1
701
 50
90.0
  0
TEXT
  5
12B47
  8
0
  6
CONTINUOUS
 62
     7
 10
28013.50841758513
 20
13977.65462066665
 30
0.0
 40
160.0
  1
758
 50
90.0
  0
TEXT
  5
12B48
  8
0
  6
CONTINUOUS
 62
     7
 10
25275.34214691848
 20
12520.539869999981
 30
0.0
 40
160.0
  1
3003
  0
TEXT
  5
12B49
  8
0
  6
CONTINUOUS
 62
     7
 10
24201.062485967232
 20
12920.53986999999
 30
0.0
 40
160.0
  1
42.5
  0
TEXT
  5
12B4A
  8
0
  6
CONTINUOUS
 62
     7
 10
26402.95514120306
 20
12920.53986999999
 30
0.0
 40
160.0
  1
42.5
  0
TEXT
  5
12B4B
  8
0
  6
CONTINUOUS
 62
     7
 10
27119.062485967232
 20
12920.53986999999
 30
0.0
 40
160.0
  1
42.5
  0
TEXT
  5
12B4C
  8
0
  6
CONTINUOUS
 62
     7
 10
23484.955141203049
 20
12920.53986999999
 30
0.0
 40
160.0
  1
42.5
  0
TEXT
  5
12B4D
  8
0
  6
CONTINUOUS
 62
     7
 10
27973.50841758513
 20
19381.63343367467
 30
0.0
 40
160.0
  1
407.5
 50
90.0
  0
ARC
  5
12B4E
  8
0
  6
BYBLOCK
 62
     0
 10
28093.50841758513
 20
18889.987953999978
 30
0.0
 40
15.0
 50
90.0
 51
270.0
  0
ARC
  5
12B4F
  8
0
  6
BYBLOCK
 62
     0
 10
28093.50841758513
 20
18889.987953999978
 30
0.0
 40
15.0
 50
270.0
 51
90.0
  0
ARC
  5
12B50
  8
0
  6
BYBLOCK
 62
     0
 10
28093.50841758513
 20
19297.487953999989
 30
0.0
 40
15.0
 50
270.0
 51
90.0
  0
ARC
  5
12B51
  8
0
  6
BYBLOCK
 62
     0
 10
28093.50841758513
 20
19297.487953999989
 30
0.0
 40
15.0
 50
90.0
 51
270.0
  0
ARC
  5
12B52
  8
0
  6
BYBLOCK
 62
     0
 10
24083.008813585151
 20
12840.53986999999
 30
0.0
 40
15.0
 50
0.0
 51
180.0
  0
ARC
  5
12B53
  8
0
  6
BYBLOCK
 62
     0
 10
24083.008813585151
 20
12840.53986999999
 30
0.0
 40
15.0
 50
180.0
 51
0.0
  0
ARC
  5
12B54
  8
0
  6
BYBLOCK
 62
     0
 10
24040.506570585148
 20
12840.53986999999
 30
0.0
 40
15.0
 50
180.0
 51
0.0
  0
ARC
  5
12B55
  8
0
  6
BYBLOCK
 62
     0
 10
24040.506570585148
 20
12840.53986999999
 30
0.0
 40
15.0
 50
0.0
 51
180.0
  0
ARC
  5
12B56
  8
0
  6
BYBLOCK
 62
     0
 10
27001.008813585151
 20
12840.53986999999
 30
0.0
 40
15.0
 50
180.0
 51
0.0
  0
ARC
  5
12B57
  8
0
  6
BYBLOCK
 62
     0
 10
27001.008813585151
 20
12840.53986999999
 30
0.0
 40
15.0
 50
0.0
 51
180.0
  0
ARC
  5
12B58
  8
0
  6
BYBLOCK
 62
     0
 10
27043.511056585139
 20
12840.53986999999
 30
0.0
 40
15.0
 50
0.0
 51
180.0
  0
ARC
  5
12B59
  8
0
  6
BYBLOCK
 62
     0
 10
27043.511056585139
 20
12840.53986999999
 30
0.0
 40
15.0
 50
180.0
 51
0.0
  0
ARC
  5
12B5A
  8
0
  6
BYBLOCK
 62
     0
 10
27001.008813585151
 20
12840.53986999999
 30
0.0
 40
15.0
 50
0.0
 51
180.0
  0
ARC
  5
12B5B
  8
0
  6
BYBLOCK
 62
     0
 10
27001.008813585151
 20
12840.53986999999
 30
0.0
 40
15.0
 50
180.0
 51
0.0
  0
ARC
  5
12B5C
  8
0
  6
BYBLOCK
 62
     0
 10
26958.506570585141
 20
12840.53986999999
 30
0.0
 40
15.0
 50
180.0
 51
0.0
  0
ARC
  5
12B5D
  8
0
  6
BYBLOCK
 62
     0
 10
26958.506570585141
 20
12840.53986999999
 30
0.0
 40
15.0
 50
0.0
 51
180.0
  0
ARC
  5
12B5E
  8
0
  6
BYBLOCK
 62
     0
 10
24083.008813585151
 20
12840.53986999999
 30
0.0
 40
15.0
 50
180.0
 51
0.0
  0
ARC
  5
12B5F
  8
0
  6
BYBLOCK
 62
     0
 10
24083.008813585151
 20
12840.53986999999
 30
0.0
 40
15.0
 50
0.0
 51
180.0
  0
ARC
  5
12B60
  8
0
  6
BYBLOCK
 62
     0
 10
24125.511056585128
 20
12840.53986999999
 30
0.0
 40
15.0
 50
0.0
 51
180.0
  0
ARC
  5
12B61
  8
0
  6
BYBLOCK
 62
     0
 10
24125.511056585128
 20
12840.53986999999
 30
0.0
 40
15.0
 50
180.0
 51
0.0
  0
ARC
  5
12B62
  8
0
  6
BYBLOCK
 62
     0
 10
24040.506570585148
 20
12440.539869999981
 30
0.0
 40
15.0
 50
0.0
 51
180.0
  0
ARC
  5
12B63
  8
0
  6
BYBLOCK
 62
     0
 10
24040.506570585148
 20
12440.539869999981
 30
0.0
 40
15.0
 50
180.0
 51
0.0
  0
ARC
  5
12B64
  8
0
  6
BYBLOCK
 62
     0
 10
27043.511056585139
 20
12440.539869999981
 30
0.0
 40
15.0
 50
180.0
 51
0.0
  0
ARC
  5
12B65
  8
0
  6
BYBLOCK
 62
     0
 10
27043.511056585139
 20
12440.539869999981
 30
0.0
 40
15.0
 50
0.0
 51
180.0
  0
ARC
  5
12B66
  8
0
  6
BYBLOCK
 62
     0
 10
28093.50841758513
 20
14569.987953999989
 30
0.0
 40
15.0
 50
270.0
 51
90.0
  0
ARC
  5
12B67
  8
0
  6
BYBLOCK
 62
     0
 10
28093.50841758513
 20
14569.987953999989
 30
0.0
 40
15.0
 50
90.0
 51
270.0
  0
ARC
  5
12B68
  8
0
  6
BYBLOCK
 62
     0
 10
28093.50841758513
 20
13811.98795399998
 30
0.0
 40
15.0
 50
90.0
 51
270.0
  0
ARC
  5
12B69
  8
0
  6
BYBLOCK
 62
     0
 10
28093.50841758513
 20
13811.98795399998
 30
0.0
 40
15.0
 50
270.0
 51
90.0
  0
ARC
  5
12B6A
  8
0
  6
BYBLOCK
 62
     0
 10
28093.50841758513
 20
15271.228465500009
 30
0.0
 40
15.0
 50
270.0
 51
90.0
  0
ARC
  5
12B6B
  8
0
  6
BYBLOCK
 62
     0
 10
28093.50841758513
 20
15271.228465500009
 30
0.0
 40
15.0
 50
90.0
 51
270.0
  0
ARC
  5
12B6C
  8
0
  6
BYBLOCK
 62
     0
 10
28093.50841758513
 20
14569.987953999989
 30
0.0
 40
15.0
 50
90.0
 51
270.0
  0
ARC
  5
12B6D
  8
0
  6
BYBLOCK
 62
     0
 10
28093.50841758513
 20
14569.987953999989
 30
0.0
 40
15.0
 50
270.0
 51
90.0
  0
ARC
  5
12B6E
  8
0
  6
BYBLOCK
 62
     0
 10
28093.50841758513
 20
15971.987953999989
 30
0.0
 40
15.0
 50
270.0
 51
90.0
  0
ARC
  5
12B6F
  8
0
  6
BYBLOCK
 62
     0
 10
28093.50841758513
 20
15971.987953999989
 30
0.0
 40
15.0
 50
90.0
 51
270.0
  0
ARC
  5
12B70
  8
0
  6
BYBLOCK
 62
     0
 10
28093.50841758513
 20
15271.228465500009
 30
0.0
 40
15.0
 50
90.0
 51
270.0
  0
ARC
  5
12B71
  8
0
  6
BYBLOCK
 62
     0
 10
28093.50841758513
 20
15271.228465500009
 30
0.0
 40
15.0
 50
270.0
 51
90.0
  0
ARC
  5
12B72
  8
0
  6
BYBLOCK
 62
     0
 10
28093.50841758513
 20
16729.987953999989
 30
0.0
 40
15.0
 50
270.0
 51
90.0
  0
ARC
  5
12B73
  8
0
  6
BYBLOCK
 62
     0
 10
28093.50841758513
 20
16729.987953999989
 30
0.0
 40
15.0
 50
90.0
 51
270.0
  0
ARC
  5
12B74
  8
0
  6
BYBLOCK
 62
     0
 10
28093.50841758513
 20
15971.987953999989
 30
0.0
 40
15.0
 50
90.0
 51
270.0
  0
ARC
  5
12B75
  8
0
  6
BYBLOCK
 62
     0
 10
28093.50841758513
 20
15971.987953999989
 30
0.0
 40
15.0
 50
270.0
 51
90.0
  0
ARC
  5
12B76
  8
0
  6
BYBLOCK
 62
     0
 10
28093.50841758513
 20
17487.987953999989
 30
0.0
 40
15.0
 50
270.0
 51
90.0
  0
ARC
  5
12B77
  8
0
  6
BYBLOCK
 62
     0
 10
28093.50841758513
 20
17487.987953999989
 30
0.0
 40
15.0
 50
90.0
 51
270.0
  0
ARC
  5
12B78
  8
0
  6
BYBLOCK
 62
     0
 10
28093.50841758513
 20
16729.987953999989
 30
0.0
 40
15.0
 50
90.0
 51
270.0
  0
ARC
  5
12B79
  8
0
  6
BYBLOCK
 62
     0
 10
28093.50841758513
 20
16729.987953999989
 30
0.0
 40
15.0
 50
270.0
 51
90.0
  0
ARC
  5
12B7A
  8
0
  6
BYBLOCK
 62
     0
 10
28093.50841758513
 20
18188.987953999989
 30
0.0
 40
15.0
 50
270.0
 51
90.0
  0
ARC
  5
12B7B
  8
0
  6
BYBLOCK
 62
     0
 10
28093.50841758513
 20
18188.987953999989
 30
0.0
 40
15.0
 50
90.0
 51
270.0
  0
ARC
  5
12B7C
  8
0
  6
BYBLOCK
 62
     0
 10
28093.50841758513
 20
17487.987953999989
 30
0.0
 40
15.0
 50
90.0
 51
270.0
  0
ARC
  5
12B7D
  8
0
  6
BYBLOCK
 62
     0
 10
28093.50841758513
 20
17487.987953999989
 30
0.0
 40
15.0
 50
270.0
 51
90.0
  0
ARC
  5
12B7E
  8
0
  6
BYBLOCK
 62
     0
 10
28093.50841758513
 20
18889.987953999978
 30
0.0
 40
15.0
 50
270.0
 51
90.0
  0
ARC
  5
12B7F
  8
0
  6
BYBLOCK
 62
     0
 10
28093.50841758513
 20
18889.987953999978
 30
0.0
 40
15.0
 50
90.0
 51
270.0
  0
ARC
  5
12B80
  8
0
  6
BYBLOCK
 62
     0
 10
28093.50841758513
 20
18188.987953999989
 30
0.0
 40
15.0
 50
90.0
 51
270.0
  0
ARC
  5
12B81
  8
0
  6
BYBLOCK
 62
     0
 10
28093.50841758513
 20
18188.987953999989
 30
0.0
 40
15.0
 50
270.0
 51
90.0
  0
ARC
  5
12B82
  8
0
  6
BYBLOCK
 62
     0
 10
28493.50841758513
 20
16729.987953999989
 30
0.0
 40
15.0
 50
90.0
 51
270.0
  0
ARC
  5
12B83
  8
0
  6
BYBLOCK
 62
     0
 10
28493.50841758513
 20
16729.987953999989
 30
0.0
 40
15.0
 50
270.0
 51
90.0
  0
ARC
  5
12B84
  8
0
  6
BYBLOCK
 62
     0
 10
28493.50841758513
 20
19297.48795399996
 30
0.0
 40
15.0
 50
270.0
 51
90.0
  0
ARC
  5
12B85
  8
0
  6
BYBLOCK
 62
     0
 10
28493.50841758513
 20
19297.48795399996
 30
0.0
 40
15.0
 50
90.0
 51
270.0
  0
ARC
  5
12B86
  8
0
  6
BYBLOCK
 62
     0
 10
28493.50841758513
 20
13811.98795399998
 30
0.0
 40
15.0
 50
90.0
 51
270.0
  0
ARC
  5
12B87
  8
0
  6
BYBLOCK
 62
     0
 10
28493.50841758513
 20
13811.98795399998
 30
0.0
 40
15.0
 50
270.0
 51
90.0
  0
ARC
  5
12B88
  8
0
  6
BYBLOCK
 62
     0
 10
28493.50841758513
 20
16729.987953999989
 30
0.0
 40
15.0
 50
270.0
 51
90.0
  0
ARC
  5
12B89
  8
0
  6
BYBLOCK
 62
     0
 10
28493.50841758513
 20
16729.987953999989
 30
0.0
 40
15.0
 50
90.0
 51
270.0
  0
ARC
  5
12B8A
  8
0
  6
BYBLOCK
 62
     0
 10
28893.508417585141
 20
19339.98524899999
 30
0.0
 40
15.0
 50
270.0
 51
90.0
  0
ARC
  5
12B8B
  8
0
  6
BYBLOCK
 62
     0
 10
28893.508417585141
 20
19339.98524899999
 30
0.0
 40
15.0
 50
90.0
 51
270.0
  0
ARC
  5
12B8C
  8
0
  6
BYBLOCK
 62
     0
 10
28893.508417585141
 20
13769.49065899999
 30
0.0
 40
15.0
 50
90.0
 51
270.0
  0
ARC
  5
12B8D
  8
0
  6
BYBLOCK
 62
     0
 10
28893.508417585141
 20
13769.49065899999
 30
0.0
 40
15.0
 50
270.0
 51
90.0
  0
ARC
  5
12B8E
  8
0
  6
BYBLOCK
 62
     0
 10
28493.50841758513
 20
19297.48795399996
 30
0.0
 40
15.0
 50
270.0
 51
90.0
  0
ARC
  5
12B8F
  8
0
  6
BYBLOCK
 62
     0
 10
28493.50841758513
 20
19297.48795399996
 30
0.0
 40
15.0
 50
90.0
 51
270.0
  0
ARC
  5
12B90
  8
0
  6
BYBLOCK
 62
     0
 10
28493.50841758513
 20
19339.98524899999
 30
0.0
 40
15.0
 50
90.0
 51
270.0
  0
ARC
  5
12B91
  8
0
  6
BYBLOCK
 62
     0
 10
28493.50841758513
 20
19339.98524899999
 30
0.0
 40
15.0
 50
270.0
 51
90.0
  0
ARC
  5
12B92
  8
0
  6
BYBLOCK
 62
     0
 10
28493.50841758513
 20
13811.98795399998
 30
0.0
 40
15.0
 50
90.0
 51
270.0
  0
ARC
  5
12B93
  8
0
  6
BYBLOCK
 62
     0
 10
28493.50841758513
 20
13811.98795399998
 30
0.0
 40
15.0
 50
270.0
 51
90.0
  0
ARC
  5
12B94
  8
0
  6
BYBLOCK
 62
     0
 10
28493.50841758513
 20
13769.49065899999
 30
0.0
 40
15.0
 50
270.0
 51
90.0
  0
ARC
  5
12B95
  8
0
  6
BYBLOCK
 62
     0
 10
28493.50841758513
 20
13769.49065899999
 30
0.0
 40
15.0
 50
90.0
 51
270.0
  0
LINE
  5
12B96
  8
SUNPOU
  6
CONTINUOUS
 62
     4
 10
27686.55014558513
 20
18188.987953999989
 30
0.0
 11
28573.50841758513
 21
18188.987953999989
 31
0.0
  0
LINE
  5
12B97
  8
SUNPOU
  6
CONTINUOUS
 62
     4
 10
28493.50841758513
 20
18188.987953999989
 30
0.0
 11
28493.50841758513
 21
19297.487953999989
 31
0.0
  0
LINE
  5
12B98
  8
SUNPOU
  6
CONTINUOUS
 62
     4
 10
27686.55014558513
 20
18188.987953999989
 30
0.0
 11
28573.50841758513
 21
18188.987953999989
 31
0.0
  0
LINE
  5
12B99
  8
SUNPOU
  6
CONTINUOUS
 62
     4
 10
28493.50841758513
 20
16729.987953999989
 30
0.0
 11
28493.50841758513
 21
18188.987953999989
 31
0.0
  0
LINE
  5
12B9A
  8
SUNPOU
  6
CONTINUOUS
 62
     4
 10
27686.55014558513
 20
15271.228465500009
 30
0.0
 11
28573.50841758513
 21
15271.228465500009
 31
0.0
  0
LINE
  5
12B9B
  8
SUNPOU
  6
CONTINUOUS
 62
     4
 10
28493.50841758513
 20
15271.228465500009
 30
0.0
 11
28493.50841758513
 21
16729.987953999989
 31
0.0
  0
LINE
  5
12B9C
  8
SUNPOU
  6
CONTINUOUS
 62
     4
 10
27686.55014558513
 20
15271.228465500009
 30
0.0
 11
28573.50841758513
 21
15271.228465500009
 31
0.0
  0
LINE
  5
12B9D
  8
SUNPOU
  6
CONTINUOUS
 62
     4
 10
28493.50841758513
 20
13811.98795399998
 30
0.0
 11
28493.50841758513
 21
15271.228465500009
 31
0.0
  0
TEXT
  5
12B9E
  8
0
  6
CONTINUOUS
 62
     7
 10
28413.508417585119
 20
14274.941543083331
 30
0.0
 40
160.0
  1
1459
 50
90.0
  0
TEXT
  5
12B9F
  8
0
  6
CONTINUOUS
 62
     7
 10
28413.508417585119
 20
15733.94154308334
 30
0.0
 40
160.0
  1
1459
 50
90.0
  0
TEXT
  5
12BA0
  8
0
  6
CONTINUOUS
 62
     7
 10
28413.508417585119
 20
17192.821287333321
 30
0.0
 40
160.0
  1
1459
 50
90.0
  0
TEXT
  5
12BA1
  8
0
  6
CONTINUOUS
 62
     7
 10
28413.508417585119
 20
18409.904620666661
 30
0.0
 40
160.0
  1
1108.5
 50
90.0
  0
ARC
  5
12BA2
  8
0
  6
BYBLOCK
 62
     0
 10
28493.50841758513
 20
18188.987953999989
 30
0.0
 40
15.0
 50
90.0
 51
270.0
  0
ARC
  5
12BA3
  8
0
  6
BYBLOCK
 62
     0
 10
28493.50841758513
 20
18188.987953999989
 30
0.0
 40
15.0
 50
270.0
 51
90.0
  0
ARC
  5
12BA4
  8
0
  6
BYBLOCK
 62
     0
 10
28493.50841758513
 20
19297.487953999989
 30
0.0
 40
15.0
 50
270.0
 51
90.0
  0
ARC
  5
12BA5
  8
0
  6
BYBLOCK
 62
     0
 10
28493.50841758513
 20
19297.487953999989
 30
0.0
 40
15.0
 50
90.0
 51
270.0
  0
ARC
  5
12BA6
  8
0
  6
BYBLOCK
 62
     0
 10
28493.50841758513
 20
16729.987953999989
 30
0.0
 40
15.0
 50
90.0
 51
270.0
  0
ARC
  5
12BA7
  8
0
  6
BYBLOCK
 62
     0
 10
28493.50841758513
 20
16729.987953999989
 30
0.0
 40
15.0
 50
270.0
 51
90.0
  0
ARC
  5
12BA8
  8
0
  6
BYBLOCK
 62
     0
 10
28493.50841758513
 20
18188.987953999989
 30
0.0
 40
15.0
 50
270.0
 51
90.0
  0
ARC
  5
12BA9
  8
0
  6
BYBLOCK
 62
     0
 10
28493.50841758513
 20
18188.987953999989
 30
0.0
 40
15.0
 50
90.0
 51
270.0
  0
ARC
  5
12BAA
  8
0
  6
BYBLOCK
 62
     0
 10
28493.50841758513
 20
15271.228465500009
 30
0.0
 40
15.0
 50
90.0
 51
270.0
  0
ARC
  5
12BAB
  8
0
  6
BYBLOCK
 62
     0
 10
28493.50841758513
 20
15271.228465500009
 30
0.0
 40
15.0
 50
270.0
 51
90.0
  0
ARC
  5
12BAC
  8
0
  6
BYBLOCK
 62
     0
 10
28493.50841758513
 20
16729.987953999989
 30
0.0
 40
15.0
 50
270.0
 51
90.0
  0
ARC
  5
12BAD
  8
0
  6
BYBLOCK
 62
     0
 10
28493.50841758513
 20
16729.987953999989
 30
0.0
 40
15.0
 50
90.0
 51
270.0
  0
ARC
  5
12BAE
  8
0
  6
BYBLOCK
 62
     0
 10
28493.50841758513
 20
13811.98795399998
 30
0.0
 40
15.0
 50
90.0
 51
270.0
  0
ARC
  5
12BAF
  8
0
  6
BYBLOCK
 62
     0
 10
28493.50841758513
 20
13811.98795399998
 30
0.0
 40
15.0
 50
270.0
 51
90.0
  0
ARC
  5
12BB0
  8
0
  6
BYBLOCK
 62
     0
 10
28493.50841758513
 20
15271.228465500009
 30
0.0
 40
15.0
 50
270.0
 51
90.0
  0
ARC
  5
12BB1
  8
0
  6
BYBLOCK
 62
     0
 10
28493.50841758513
 20
15271.228465500009
 30
0.0
 40
15.0
 50
90.0
 51
270.0
  0
TEXT
  5
1012CE8
  8
FILENAME
  6
CONTINUOUS
 10
26099.238095238092
 20
348.0
 30
0.0
 40
200.0
  1
＜VGCU-3055+VKCU-2855-L-1-A_0.DXF ＞
  7
FILENAME
 72
     2
 11
32764.0
 21
348.0
 31
0.0
  0
LINE
  5
1012CED
  8
WAKUSEN-01
 10
868.00000000000193
 20
827.99999999999955
 30
0.0
 11
32764.000000000011
 21
827.99999999999943
 31
0.0
  0
LINE
  5
1012CEE
  8
WAKUSEN-01
 10
868.00000000000193
 20
827.99999999999955
 30
0.0
 11
868.00000000000193
 21
22484.000000000011
 31
0.0
  0
LINE
  5
1012CEF
  8
WAKUSEN-01
 10
32764.000000000011
 20
827.99999999999943
 30
0.0
 11
32764.000000000011
 21
22484.000000000011
 31
0.0
  0
LINE
  5
1012CF0
  8
WAKUSEN-01
 10
20560.0
 20
827.99999999999716
 30
0.0
 11
20560.0
 21
2484.0
 31
0.0
  0
LINE
  5
1012CF1
  8
WAKUSEN-02
 10
26868.0
 20
827.99999999999261
 30
0.0
 11
26868.0
 21
2484.0
 31
0.0
  0
ENDSEC
  0
EOF
