  0
SECTION
  2
HEADER
  9
$ACADVER
  1
AC1009
  9
$INSBASE
 10
0.0
 20
0.0
 30
0.0
  9
$EXTMIN
 10
867.99324330406671
 20
327.38164749855792
 30
-0.0000000000000057
  9
$EXTMAX
 10
32765.33210850941
 20
22484.553276491992
 30
0.0000000000000104
  9
$LIMMIN
 10
0.0
 20
0.0
  9
$LIMMAX
 10
33600.0
 20
23760.0
  9
$ORTHOMODE
 70
     1
  9
$REGENMODE
 70
     1
  9
$FILLMODE
 70
     1
  9
$QTEXTMODE
 70
     0
  9
$MIRRTEXT
 70
     0
  9
$DRAGMODE
 70
     2
  9
$LTSCALE
 40
80.0
  9
$OSMODE
 70
  3071
  9
$ATTMODE
 70
     1
  9
$TEXTSIZE
 40
0.2
  9
$TRACEWID
 40
0.05
  9
$TEXTSTYLE
  7
00
  9
$CLAYER
  8
0
  9
$CELTYPE
  6
BYLAYER
  9
$CECOLOR
 62
   256
  9
$DIMSCALE
 40
80.0
  9
$DIMASZ
 40
3.0
  9
$DIMEXO
 40
1.0
  9
$DIMDLI
 40
0.38
  9
$DIMRND
 40
0.5
  9
$DIMDLE
 40
0.0
  9
$DIMEXE
 40
1.0
  9
$DIMTP
 40
0.0
  9
$DIMTM
 40
0.0
  9
$DIMTXT
 40
2.0
  9
$DIMCEN
 40
0.09
  9
$DIMTSZ
 40
0.0
  9
$DIMTOL
 70
     0
  9
$DIMLIM
 70
     0
  9
$DIMTIH
 70
     0
  9
$DIMTOH
 70
     0
  9
$DIMSE1
 70
     0
  9
$DIMSE2
 70
     0
  9
$DIMTAD
 70
     1
  9
$DIMZIN
 70
     8
  9
$DIMBLK
  1
DOTSMALL
  9
$DIMASO
 70
     1
  9
$DIMSHO
 70
     1
  9
$DIMPOST
  1

  9
$DIMAPOST
  1

  9
$DIMALT
 70
     0
  9
$DIMALTD
 70
     2
  9
$DIMALTF
 40
25.399999999999999
  9
$DIMLFAC
 40
1.0
  9
$DIMTOFL
 70
     1
  9
$DIMTVP
 40
0.0
  9
$DIMTIX
 70
     0
  9
$DIMSOXD
 70
     0
  9
$DIMSAH
 70
     0
  9
$DIMBLK1
  1

  9
$DIMBLK2
  1

  9
$DIMSTYLE
  2
SUNPOU
  9
$DIMCLRD
 70
     4
  9
$DIMCLRE
 70
     4
  9
$DIMCLRT
 70
     7
  9
$DIMTFAC
 40
1.0
  9
$DIMGAP
 40
1.0
  9
$LUNITS
 70
     2
  9
$LUPREC
 70
     4
  9
$SKETCHINC
 40
0.1
  9
$FILLETRAD
 40
0.0
  9
$AUNITS
 70
     0
  9
$AUPREC
 70
     0
  9
$MENU
  1
acad
  9
$ELEVATION
 40
0.0
  9
$PELEVATION
 40
0.0
  9
$THICKNESS
 40
0.0
  9
$LIMCHECK
 70
     0
  9
$BLIPMODE
 70
     1
  9
$CHAMFERA
 40
0.0
  9
$CHAMFERB
 40
0.0
  9
$SKPOLY
 70
     0
  9
$TDCREATE
 40
2311940.075052408
  9
$TDUPDATE
 40
2458942.4617112968
  9
$TDINDWG
 40
0.3226804514
  9
$TDUSRTIMER
 40
0.3226800347
  9
$USRTIMER
 70
     1
  9
$ANGBASE
 50
0.0
  9
$ANGDIR
 70
     0
  9
$PDMODE
 70
     0
  9
$PDSIZE
 40
0.0
  9
$PLINEWID
 40
0.0
  9
$COORDS
 70
     1
  9
$SPLFRAME
 70
     0
  9
$SPLINETYPE
 70
     6
  9
$SPLINESEGS
 70
     8
  9
$ATTDIA
 70
     1
  9
$ATTREQ
 70
     1
  9
$HANDLING
 70
     1
  9
$HANDSEED
  5
1013879
  9
$SURFTAB1
 70
     6
  9
$SURFTAB2
 70
     6
  9
$SURFTYPE
 70
     6
  9
$SURFU
 70
     6
  9
$SURFV
 70
     6
  9
$UCSNAME
  2

  9
$UCSORG
 10
0.0
 20
0.0
 30
0.0
  9
$UCSXDIR
 10
1.0
 20
0.0
 30
0.0
  9
$UCSYDIR
 10
0.0
 20
1.0
 30
0.0
  9
$PUCSNAME
  2

  9
$PUCSORG
 10
0.0
 20
0.0
 30
0.0
  9
$PUCSXDIR
 10
1.0
 20
0.0
 30
0.0
  9
$PUCSYDIR
 10
0.0
 20
1.0
 30
0.0
  9
$USERI1
 70
     0
  9
$USERI2
 70
     0
  9
$USERI3
 70
     0
  9
$USERI4
 70
     0
  9
$USERI5
 70
     0
  9
$USERR1
 40
0.0
  9
$USERR2
 40
0.0
  9
$USERR3
 40
0.0
  9
$USERR4
 40
0.0
  9
$USERR5
 40
0.0
  9
$WORLDVIEW
 70
     1
  9
$SHADEDGE
 70
     3
  9
$SHADEDIF
 70
    70
  9
$TILEMODE
 70
     1
  9
$MAXACTVP
 70
    16
  9
$PLIMCHECK
 70
     0
  9
$PEXTMIN
 10
1.0000000000000000E+020
 20
1.0000000000000000E+020
 30
1.0000000000000000E+020
  9
$PEXTMAX
 10
-1.0000000000000000E+020
 20
-1.0000000000000000E+020
 30
-1.0000000000000000E+020
  9
$PLIMMIN
 10
0.0
 20
0.0
  9
$PLIMMAX
 10
12.0
 20
9.0
  9
$UNITMODE
 70
     0
  9
$VISRETAIN
 70
     0
  9
$PLINEGEN
 70
     1
  9
$PSLTSCALE
 70
     0
  0
ENDSEC
  0
SECTION
  2
TABLES
  0
TABLE
  2
VPORT
 70
     1
  0
VPORT
  2
*ACTIVE
 70
     0
 10
0.0
 20
0.0
 11
1.0
 21
1.0
 12
16800.0
 22
11880.0
 13
0.0
 23
0.0
 14
1.0
 24
1.0
 15
0.0
 25
0.0
 16
0.0
 26
0.0
 36
1.0
 17
0.0
 27
0.0
 37
0.0
 40
23981.023255813951
 41
2.195652173913043
 42
50.0
 43
0.0
 44
0.0
 50
0.0
 51
0.0
 71
     0
 72
 10000
 73
     1
 74
     1
 75
     0
 76
     0
 77
     0
 78
     0
  0
ENDTAB
  0
TABLE
  2
LTYPE
 70
     6
  0
LTYPE
  2
CONTINUOUS
 70
     0
  3
Solid line
 72
    65
 73
     0
 40
0.0
  0
LTYPE
  2
DASHED3
 70
     0
  3
------  ------  ------  ------  
 72
    65
 73
     2
 40
5.0
 49
3.75
 49
-1.25
  0
LTYPE
  2
CENTER2
 70
     0
  3
----------  --  ----------  --  
 72
    65
 73
     4
 40
20.0
 49
12.5
 49
-2.5
 49
2.5
 49
-2.5
  0
LTYPE
  2
HIDE-M
 70
     0
  3

 72
    65
 73
     2
 40
2.0
 49
1.0
 49
-1.0
  0
LTYPE
  2
1PL-M
 70
     0
  3

 72
    65
 73
     4
 40
15.0
 49
12.0
 49
-1.0
 49
1.0
 49
-1.0
  0
LTYPE
  2
PHANTOM2
 70
     0
  3
___ _ _ ___ _ _ ___ _ _ ___ _ _
 72
    65
 73
     6
 40
1.25
 49
0.625
 49
-0.125
 49
0.125
 49
-0.125
 49
0.125
 49
-0.125
  0
ENDTAB
  0
TABLE
  2
LAYER
 70
    25
  0
LAYER
  2
0
 70
     0
 62
     7
  6
CONTINUOUS
  0
LAYER
  2
SUNPOU
 70
     0
 62
     4
  6
CONTINUOUS
  0
LAYER
  2
0-1
 70
     0
 62
     7
  6
CONTINUOUS
  0
LAYER
  2
0-2
 70
     0
 62
     7
  6
CONTINUOUS
  0
LAYER
  2
0-5
 70
     0
 62
     7
  6
CONTINUOUS
  0
LAYER
  2
0-6
 70
     0
 62
     7
  6
CONTINUOUS
  0
LAYER
  2
2-0
 70
     0
 62
     7
  6
CONTINUOUS
  0
LAYER
  2
0-8
 70
     0
 62
     7
  6
CONTINUOUS
  0
LAYER
  2
YODOROGO
 70
     0
 62
   130
  6
CONTINUOUS
  0
LAYER
  2
WAKUSEN-01
 70
     0
 62
    50
  6
CONTINUOUS
  0
LAYER
  2
WAKUSEN-02
 70
     0
 62
   130
  6
CONTINUOUS
  0
LAYER
  2
WAKUMOJI-01
 70
     0
 62
   130
  6
CONTINUOUS
  0
LAYER
  2
FILENAME
 70
     0
 62
     7
  6
CONTINUOUS
  0
LAYER
  2
NAME
 70
     0
 62
    20
  6
CONTINUOUS
  0
LAYER
  2
0-4
 70
     0
 62
     7
  6
CONTINUOUS
  0
LAYER
  2
1-前柱P
 70
     0
 62
     3
  6
CONTINUOUS
  0
LAYER
  2
1-前柱カバ-P
 70
     0
 62
     3
  6
CONTINUOUS
  0
LAYER
  2
1-桁前P28
 70
     0
 62
     3
  6
CONTINUOUS
  0
LAYER
  2
1-後柱P
 70
     0
 62
     3
  6
CONTINUOUS
  0
LAYER
  2
1-中柱P
 70
     0
 62
     3
  6
CONTINUOUS
  0
LAYER
  2
1-後柱カバ-P
 70
     0
 62
     7
  6
CONTINUOUS
  0
LAYER
  2
1-中柱カバ-P
 70
     0
 62
     7
  6
CONTINUOUS
  0
ENDTAB
  0
TABLE
  2
STYLE
 70
     5
  0
STYLE
  2
STANDARD
 70
     0
 40
0.0
 41
1.0
 50
0.0
 71
     0
 42
0.0
  3
txt
  4
BIGFONT
  0
STYLE
  2
00
 70
     0
 40
0.0
 41
0.6666666666666666
 50
0.0
 71
     0
 42
0.2
  3
ROMANS
  4
BIGFONT
  0
STYLE
  2
01
 70
     0
 40
3.0
 41
1.0
 50
0.0
 71
     0
 42
0.2
  3
ROMANS
  4
BIGFONT
  0
STYLE
  2
WAKUMOJI
 70
     0
 40
3.0
 41
1.0
 50
0.0
 71
     0
 42
3.0
  3
SIMPLEX
  4
BIGFONT
  0
STYLE
  2
FILENAME
 70
     0
 40
200.0
 41
1.0
 50
0.0
 71
     0
 42
200.0
  3
romans
  4
bigfont
  0
ENDTAB
  0
TABLE
  2
VIEW
 70
     0
  0
ENDTAB
  0
TABLE
  2
UCS
 70
     0
  0
ENDTAB
  0
TABLE
  2
APPID
 70
    17
  0
APPID
  2
ACAD
 70
     0
  0
APPID
  2
ACADANNOTATIVE
 70
     0
  0
APPID
  2
ACAD_PSEXT
 70
     0
  0
APPID
  2
DCO15
 70
     0
  0
APPID
  2
ACAD_MLEADERVER
 70
     0
  0
APPID
  2
AUTOCAD_POSTSCRIPT_FIGURE
 70
     0
  0
APPID
  2
ACAD_EXEMPT_FROM_CAD_STANDARDS
 70
     0
  0
APPID
  2
ACLAYERTOOLS
 70
     0
  0
APPID
  2
ACAD_DSTYLE_DIMJAG
 70
     0
  0
APPID
  2
ACAD_DSTYLE_DIMTALN
 70
     0
  0
APPID
  2
ACAECLAYERSTANDARD
 70
     0
  0
APPID
  2
ACAD_DSTYLE_DIMBREAK
 70
     0
  0
APPID
  2
ACAD_DSTYLE_DIM_LINETYPE
 70
     0
  0
APPID
  2
ACAD_DSTYLE_DIM_EXT1_LINETYPE
 70
     0
  0
APPID
  2
ACAD_DSTYLE_DIM_EXT2_LINETYPE
 70
     0
  0
APPID
  2
ACAD_DSTYLE_DIMFLIPARROW_W
 70
     0
  0
APPID
  2
ACAD_NAV_VCDISPLAY
 70
     0
  0
ENDTAB
  0
TABLE
  2
DIMSTYLE
 70
     2
  0
DIMSTYLE
  2
SUNPOU
 70
     0
  3

  4

  5

  6

  7

 40
80.0
 41
3.0
 42
1.0
 43
0.38
 44
1.0
 45
0.5
 46
0.0
 47
0.0
 48
0.0
140
2.0
141
0.09
142
0.0
143
25.399999999999999
144
1.0
145
0.0
146
1.0
147
1.0
 71
     0
 72
     0
 73
     0
 74
     0
 75
     0
 76
     0
 77
     1
 78
     8
170
     0
171
     2
172
     1
173
     0
174
     0
175
     0
176
     4
177
     4
178
     7
  0
ENDTAB
  0
ENDSEC
  0
SECTION
  2
BLOCKS
  0
BLOCK
  8
0
  2
$MODEL_SPACE
 70
     0
 10
0.0
 20
0.0
 30
0.0
  3
$MODEL_SPACE
  1

  0
ENDBLK
  5
11CCA
  8
0
  0
BLOCK
 67
     1
  8
0
  2
$PAPER_SPACE
 70
     0
 10
0.0
 20
0.0
 30
0.0
  3
$PAPER_SPACE
  1

  0
ENDBLK
  5
11CC6
 67
     1
  8
0
  0
BLOCK
  8
0
  2
_DOTSMALL
 70
     0
 10
0.0
 20
0.0
 30
0.0
  3
_DOTSMALL
  1

  0
POLYLINE
  5
11D06
  8
0
  6
BYBLOCK
 62
     0
 66
     1
 10
0.0
 20
0.0
 30
0.0
 70
     1
 40
0.5
 41
0.5
  0
VERTEX
  5
1013841
  8
0
  6
BYBLOCK
 62
     0
 10
-0.0625
 20
0.0
 30
0.0
 42
1.0
  0
VERTEX
  5
1013842
  8
0
  6
BYBLOCK
 62
     0
 10
0.0625
 20
0.0
 30
0.0
 42
1.0
  0
SEQEND
  5
1013843
  8
0
  6
BYBLOCK
 62
     0
  0
ENDBLK
  5
11D0A
  8
0
  0
ENDSEC
  0
SECTION
  2
ENTITIES
  0
LINE
  5
11D0B
  8
0-1
  6
CONTINUOUS
 62
     3
 10
6555.9416304765828
 20
16705.485856999989
 30
0.0
 11
9473.9416304765837
 21
16705.485856999989
 31
0.0
  0
LINE
  5
11D0C
  8
0-1
  6
CONTINUOUS
 62
     3
 10
9420.9419994765958
 20
14146.486899
 30
0.0
 11
9420.9419994765958
 21
17791.443824900962
 31
0.0
  0
LINE
  5
11D0D
  8
0-1
  6
CONTINUOUS
 62
     3
 10
6605.9422504765944
 20
14022.486885
 30
0.0
 11
6605.9422504765944
 21
18871.363360818661
 31
0.0
  0
LINE
  5
11D0E
  8
0-1
  6
CONTINUOUS
 62
     3
 10
6470.4416304765837
 20
13990.486252000001
 30
0.0
 11
6470.4416304765837
 21
18927.271700365189
 31
0.0
  0
LINE
  5
11D0F
  8
0-1
  6
CONTINUOUS
 62
     3
 10
6513.4423564765921
 20
14146.486899
 30
0.0
 11
12316.44288447659
 21
14146.486899
 31
0.0
  0
LINE
  5
11D10
  8
0-1
  6
CONTINUOUS
 62
     3
 10
6555.9416304765828
 20
14225.486516000001
 30
0.0
 11
12273.94163047658
 21
14225.486516000001
 31
0.0
  0
LINE
  5
11D11
  8
0-1
  6
CONTINUOUS
 62
     3
 10
6470.4416304765837
 20
13990.486252000001
 30
0.0
 11
12359.44163047658
 21
13990.486252000001
 31
0.0
  0
LINE
  5
11D12
  8
0-1
  6
CONTINUOUS
 62
     3
 10
6470.4416304765837
 20
14022.486885
 30
0.0
 11
12359.44163047658
 21
14022.486885
 31
0.0
  0
LINE
  5
11D13
  8
0-1
  6
CONTINUOUS
 62
     3
 10
9473.9416304765837
 20
14146.486899
 30
0.0
 11
9473.9416304765837
 21
17769.83857947612
 31
0.0
  0
LINE
  5
11D14
  8
0-1
  6
CONTINUOUS
 62
     3
 10
9516.4428844765916
 20
14146.486899
 30
0.0
 11
9516.4428844765916
 21
17752.512986708611
 31
0.0
  0
LINE
  5
11D15
  8
0-1
  6
CONTINUOUS
 62
     3
 10
6555.9416304765828
 20
14146.486899
 30
0.0
 11
6555.9416304765828
 21
18959.358298013751
 31
0.0
  0
LINE
  5
11D16
  8
0-1
  6
CONTINUOUS
 62
     3
 10
6513.4423564765921
 20
14146.486899
 30
0.0
 11
6513.4423564765921
 21
18976.89382115288
 31
0.0
  0
LINE
  5
11D17
  8
0-1
  6
CONTINUOUS
 62
     3
 10
7926.4430814765956
 20
18400.67478182153
 30
0.0
 11
7926.4430814765956
 21
19510.488495000001
 31
0.0
  0
LINE
  5
11D18
  8
0-1
  6
CONTINUOUS
 62
     3
 10
7963.4432534765956
 20
18385.591699510602
 30
0.0
 11
7963.4432534765956
 21
19510.488495000001
 31
0.0
  0
LINE
  5
11D19
  8
0-1
  6
CONTINUOUS
 62
     3
 10
8126.442752476597
 20
18319.145120287751
 30
0.0
 11
8126.442752476597
 21
19510.488495000001
 31
0.0
  0
LINE
  5
11D1A
  8
0-1
  6
CONTINUOUS
 62
     3
 10
8163.4439134765844
 20
18304.061634811991
 30
0.0
 11
8163.4439134765844
 21
19510.488495000001
 31
0.0
  0
LINE
  5
11D1B
  8
0-1
  6
CONTINUOUS
 62
     3
 10
8326.4424224765862
 20
18237.615459161621
 30
0.0
 11
8326.4424224765899
 21
19510.488495000001
 31
0.0
  0
LINE
  5
11D1C
  8
0-1
  6
CONTINUOUS
 62
     3
 10
8363.4416034765945
 20
18222.532780830828
 30
0.0
 11
8363.4416034765964
 21
19510.488495000001
 31
0.0
  0
LINE
  5
11D1D
  8
0-1
  6
CONTINUOUS
 62
     3
 10
8526.4430814765947
 20
18156.085394870672
 30
0.0
 11
8526.4430814765947
 21
19510.488495000001
 31
0.0
  0
LINE
  5
11D1E
  8
0-1
  6
CONTINUOUS
 62
     3
 10
8563.4432534765947
 20
18141.002312559751
 30
0.0
 11
8563.4432534765947
 21
19510.488495000001
 31
0.0
  0
LINE
  5
11D1F
  8
0-1
  6
CONTINUOUS
 62
     3
 10
8726.4427524765979
 20
18074.5557333369
 30
0.0
 11
8726.4427524765979
 21
19510.488495000001
 31
0.0
  0
LINE
  5
11D20
  8
0-1
  6
CONTINUOUS
 62
     3
 10
8763.4439134765853
 20
18059.472247861129
 30
0.0
 11
8763.4439134765853
 21
19510.488495000001
 31
0.0
  0
LINE
  5
11D21
  8
0-1
  6
CONTINUOUS
 62
     3
 10
8926.4424224765953
 20
17993.026072210771
 30
0.0
 11
8926.4424224765971
 21
19510.488495000001
 31
0.0
  0
LINE
  5
11D22
  8
0-1
  6
CONTINUOUS
 62
     3
 10
8963.4425934765841
 20
17977.9429903075
 30
0.0
 11
8963.4425934765877
 21
19510.488495000001
 31
0.0
  0
LINE
  5
11D23
  8
0-1
  6
CONTINUOUS
 62
     3
 10
9126.4430814765874
 20
17911.496007919821
 30
0.0
 11
9126.4430814765874
 21
19510.488495000001
 31
0.0
  0
LINE
  5
11D24
  8
0-1
  6
CONTINUOUS
 62
     3
 10
9163.4432534765983
 20
17896.412925608882
 30
0.0
 11
9163.4432534765947
 21
19510.488495000001
 31
0.0
  0
LINE
  5
11D25
  8
0-1
  6
CONTINUOUS
 62
     3
 10
6555.9416304765828
 20
15336.487638000021
 30
0.0
 11
9473.9416304765837
 21
15336.487638000021
 31
0.0
  0
LINE
  5
11D26
  8
0-1
  6
CONTINUOUS
 62
     3
 10
6555.9416304765828
 20
15246.485856000019
 30
0.0
 11
9473.9416304765837
 21
15246.485856000019
 31
0.0
  0
LINE
  5
11D27
  8
0-1
  6
CONTINUOUS
 62
     3
 10
6555.9416304765828
 20
16795.488627999988
 30
0.0
 11
9473.9416304765837
 21
16795.488627999988
 31
0.0
  0
LINE
  5
11D28
  8
0-1
  6
CONTINUOUS
 62
     3
 10
6570.083311476591
 20
18254.488626999999
 30
0.0
 11
8283.4873577710241
 21
18254.488626999999
 31
0.0
  0
LINE
  5
11D29
  8
0-1
  6
CONTINUOUS
 62
     3
 10
6570.083311476591
 20
18164.485855999999
 30
0.0
 11
8505.8359867026338
 21
18164.485855999999
 31
0.0
  0
LINE
  5
11D2A
  8
0-1
  6
CONTINUOUS
 62
     3
 10
6625.9423564765921
 20
16750.486251999992
 30
0.0
 11
9403.9428844765916
 21
15291.48625200001
 31
0.0
  0
LINE
  5
11D2B
  8
0-1
  6
CONTINUOUS
 62
     3
 10
9403.9428844765916
 20
15291.48625200001
 30
0.0
 11
6625.9423564765921
 21
14182.986252000001
 31
0.0
  0
LINE
  5
11D2C
  8
0-1
  6
CONTINUOUS
 62
     3
 10
6625.9423564765921
 20
15291.48625200001
 30
0.0
 11
9403.9428844765916
 21
14182.986252000001
 31
0.0
  0
LINE
  5
11D2D
  8
0-1
  6
CONTINUOUS
 62
     3
 10
6625.9423564765921
 20
18209.48625200001
 30
0.0
 11
9403.9425301204192
 21
16750.488153658851
 31
0.0
  0
LINE
  5
11D2E
  8
0-1
  6
CONTINUOUS
 62
     3
 10
9403.9425301204192
 20
16750.488153658851
 30
0.0
 11
6625.9423564765921
 21
15291.48625200001
 31
0.0
  0
LINE
  5
11D2F
  8
0-1
  6
CONTINUOUS
 62
     3
 10
7645.7250515033329
 20
18515.109199916871
 30
0.0
 11
6625.9423564766203
 21
18209.48625200001
 31
0.0
  0
LINE
  5
11D30
  8
0-1
  6
CONTINUOUS
 62
     3
 10
8938.5251036980335
 20
17988.100579556321
 30
0.0
 11
6625.9423564765921
 21
16750.486251999992
 31
0.0
  0
LINE
  5
11D31
  8
0-1
  6
CONTINUOUS
 62
     3
 10
6488.4404034765721
 20
18985.862894812879
 30
0.0
 11
6488.4404034765721
 21
19522.987175999991
 31
0.0
  0
LINE
  5
11D32
  8
0-1
  6
CONTINUOUS
 62
     3
 10
6543.941155476582
 20
19505.488230999988
 30
0.0
 11
6543.941155476582
 21
19535.487834999982
 31
0.0
  0
LINE
  5
11D33
  8
0-1
  6
CONTINUOUS
 62
     3
 10
6470.4416304765837
 20
19535.487834999982
 30
0.0
 11
6470.4416304765837
 21
19500.485987999989
 31
0.0
  0
LINE
  5
11D34
  8
0-1
  6
CONTINUOUS
 62
     3
 10
6538.9408914765736
 20
19540.486120000001
 30
0.0
 11
6475.4409044765816
 21
19540.486120000001
 31
0.0
  0
LINE
  5
11D35
  8
0-1
  6
CONTINUOUS
 62
     3
 10
6488.4404034765721
 20
19522.987175999991
 30
0.0
 11
6470.4416304765837
 21
19522.987175999991
 31
0.0
  0
LINE
  5
11D36
  8
0-1
  6
CONTINUOUS
 62
     3
 10
6488.4404034765721
 20
19500.485987999989
 30
0.0
 11
6538.9408914765736
 21
19500.485987999989
 31
0.0
  0
LINE
  5
11D37
  8
0-1
  6
CONTINUOUS
 62
     3
 10
6546.9417494765939
 20
19510.488495000001
 30
0.0
 11
12282.941116476601
 21
19510.488495000001
 31
0.0
  0
LINE
  5
11D38
  8
0-6
  6
CONTINUOUS
 62
     6
 10
8238.7610026411312
 20
19237.710188000001
 30
0.0
 11
8382.6621056411223
 21
19749.985842999991
 31
0.0
  0
LINE
  5
11D39
  8
0-6
  6
CONTINUOUS
 62
     6
 10
7982.9900224765888
 20
19486.164171
 30
0.0
 11
8089.6850844765931
 21
19363.988283999988
 31
0.0
  0
LINE
  5
11D3A
  8
0-6
  6
CONTINUOUS
 62
     6
 10
8089.6850844765931
 20
19363.988283999988
 30
0.0
 11
8028.3793944765848
 21
19514.164461
 31
0.0
  0
LINE
  5
11D3B
  8
0-6
  6
CONTINUOUS
 62
     6
 10
8089.6850844765931
 20
19363.988283999988
 30
0.0
 11
7982.9900224765888
 21
19486.164171
 31
0.0
  0
LINE
  5
11D3C
  8
0-6
  6
CONTINUOUS
 62
     6
 10
7982.9900224765888
 20
19486.164171
 30
0.0
 11
8028.3793944765848
 21
19514.164461
 31
0.0
  0
LINE
  5
11D3D
  8
0-6
  6
CONTINUOUS
 62
     6
 10
8028.3793944765848
 20
19514.164461
 30
0.0
 11
8089.6850844765931
 21
19363.988283999988
 31
0.0
  0
LINE
  5
11D3E
  8
0-6
  6
CONTINUOUS
 62
     6
 10
8028.3793944765848
 20
19514.164461
 30
0.0
 11
7982.9900224765888
 21
19486.164171
 31
0.0
  0
LINE
  5
11D3F
  8
0-6
  6
CONTINUOUS
 62
     6
 10
8089.6850844765931
 20
19363.988283999988
 30
0.0
 11
7795.7572574765873
 21
19770.486383999989
 31
0.0
  0
LINE
  5
11D40
  8
0-6
  6
CONTINUOUS
 62
     6
 10
8212.8728586411326
 20
19244.109971999991
 30
0.0
 11
8200.3712086411324
 21
19082.385282999989
 31
0.0
  0
LINE
  5
11D41
  8
0-6
  6
CONTINUOUS
 62
     6
 10
8200.3712086411324
 20
19082.385282999989
 30
0.0
 11
8264.6461776411325
 21
19231.314364000002
 31
0.0
  0
LINE
  5
11D42
  8
0-6
  6
CONTINUOUS
 62
     6
 10
8200.3712086411324
 20
19082.385282999989
 30
0.0
 11
8212.8728586411326
 21
19244.109971999991
 31
0.0
  0
LINE
  5
11D43
  8
0-6
  6
CONTINUOUS
 62
     6
 10
8212.8728586411326
 20
19244.109971999991
 30
0.0
 11
8264.6461776411325
 21
19231.314364000002
 31
0.0
  0
LINE
  5
11D44
  8
0-6
  6
CONTINUOUS
 62
     6
 10
8264.6461776411325
 20
19231.314364000002
 30
0.0
 11
8200.3712086411324
 21
19082.385282999989
 31
0.0
  0
LINE
  5
11D45
  8
0-6
  6
CONTINUOUS
 62
     6
 10
8264.6461776411325
 20
19231.314364000002
 30
0.0
 11
8212.8728586411326
 21
19244.109971999991
 31
0.0
  0
LINE
  5
11D46
  8
0-6
  6
CONTINUOUS
 62
     6
 10
8382.6621056411223
 20
19749.985842999991
 30
0.0
 11
8900.3507536411307
 21
19749.985842999991
 31
0.0
  0
LINE
  5
11D47
  8
0-6
  6
CONTINUOUS
 62
     6
 10
6995.7556084765847
 20
19770.486383999989
 30
0.0
 11
7795.7572574765873
 21
19770.486383999989
 31
0.0
  0
LINE
  5
11D48
  8
0-6
  6
CONTINUOUS
 62
     6
 10
3277.161020831833
 20
17103.270314344409
 30
0.0
 11
5271.6051728318453
 21
17103.270314344409
 31
0.0
  0
LINE
  5
11D49
  8
0-6
  6
CONTINUOUS
 62
     6
 10
8734.6999755500165
 20
15639.45061787299
 30
0.0
 11
8448.1319321764458
 21
15467.87801584573
 31
0.0
  0
LINE
  5
11D4A
  8
0-6
  6
CONTINUOUS
 62
     6
 10
7568.1310081764359
 20
15467.87801584573
 30
0.0
 11
8448.1319321764458
 21
15467.87801584573
 31
0.0
  0
LINE
  5
11D4B
  8
0-6
  6
CONTINUOUS
 62
     6
 10
6777.5826857628163
 20
17147.675105459512
 30
0.0
 11
7297.5834117628292
 21
17147.675105459512
 31
0.0
  0
LINE
  5
11D4C
  8
0-6
  6
CONTINUOUS
 62
     6
 10
7230.920646802374
 20
14043.039163439251
 30
0.0
 11
7487.7230921246546
 21
13613.372022545989
 31
0.0
  0
LINE
  5
11D4D
  8
0-6
  6
CONTINUOUS
 62
     6
 10
7487.7230921246546
 20
13613.372022545989
 30
0.0
 11
8287.7237521246461
 21
13613.372022545989
 31
0.0
  0
LINE
  5
11D4E
  8
0-6
  6
CONTINUOUS
 62
     6
 10
8437.8522767923678
 20
13836.43862399998
 30
0.0
 11
8331.5818217923661
 21
13958.98567099998
 31
0.0
  0
LINE
  5
11D4F
  8
0-6
  6
CONTINUOUS
 62
     6
 10
8331.5818217923661
 20
13958.98567099998
 30
0.0
 11
8392.3639297923655
 21
13808.59669499998
 31
0.0
  0
LINE
  5
11D50
  8
0-6
  6
CONTINUOUS
 62
     6
 10
8331.5818217923661
 20
13958.98567099998
 30
0.0
 11
8437.8522767923678
 21
13836.43862399998
 31
0.0
  0
LINE
  5
11D51
  8
0-6
  6
CONTINUOUS
 62
     6
 10
8437.8522767923678
 20
13836.43862399998
 30
0.0
 11
8392.3639297923655
 21
13808.59669499998
 31
0.0
  0
LINE
  5
11D52
  8
0-6
  6
CONTINUOUS
 62
     6
 10
8392.3639297923655
 20
13808.59669499998
 30
0.0
 11
8331.5818217923661
 21
13958.98567099998
 31
0.0
  0
LINE
  5
11D53
  8
0-6
  6
CONTINUOUS
 62
     6
 10
8392.3639297923655
 20
13808.59669499998
 30
0.0
 11
8437.8522767923678
 21
13836.43862399998
 31
0.0
  0
LINE
  5
11D54
  8
0-6
  6
CONTINUOUS
 62
     6
 10
7253.8095516019712
 20
14056.7192089317
 30
0.0
 11
7148.8343639604736
 21
14180.37784445318
 31
0.0
  0
LINE
  5
11D55
  8
0-6
  6
CONTINUOUS
 62
     6
 10
7148.8343639604736
 20
14180.37784445318
 30
0.0
 11
7208.0303669400482
 21
14029.358850769901
 31
0.0
  0
LINE
  5
11D56
  8
0-6
  6
CONTINUOUS
 62
     6
 10
7148.8343639604736
 20
14180.37784445318
 30
0.0
 11
7253.8095516019712
 21
14056.7192089317
 31
0.0
  0
LINE
  5
11D57
  8
0-6
  6
CONTINUOUS
 62
     6
 10
7253.8095516019712
 20
14056.7192089317
 30
0.0
 11
7208.0303669400482
 21
14029.358850769901
 31
0.0
  0
LINE
  5
11D58
  8
0-6
  6
CONTINUOUS
 62
     6
 10
7208.0303669400482
 20
14029.358850769901
 30
0.0
 11
7148.8343639604736
 21
14180.37784445318
 31
0.0
  0
LINE
  5
11D59
  8
0-6
  6
CONTINUOUS
 62
     6
 10
7208.0303669400482
 20
14029.358850769901
 30
0.0
 11
7253.8095516019712
 21
14056.7192089317
 31
0.0
  0
LINE
  5
11D5A
  8
0-6
  6
CONTINUOUS
 62
     6
 10
8618.1646452923633
 20
13490.75183049999
 30
0.0
 11
9480.7448162923647
 21
13490.75183049999
 31
0.0
  0
LINE
  5
11D5B
  8
0-6
  6
CONTINUOUS
 62
     6
 10
8415.1085987923561
 20
13822.51765999999
 30
0.0
 11
8618.1646452923633
 21
13490.75183049999
 31
0.0
  0
LINE
  5
11D5C
  8
0-6
  6
CONTINUOUS
 62
     6
 10
6450.9909204765863
 20
14376.31030354018
 30
0.0
 11
6473.4416304765837
 21
14536.956154540179
 31
0.0
  0
LINE
  5
11D5D
  8
0-6
  6
CONTINUOUS
 62
     6
 10
6473.4416304765837
 20
14536.956154540179
 30
0.0
 11
6400.1044264765733
 21
14392.27512054018
 31
0.0
  0
LINE
  5
11D5E
  8
0-6
  6
CONTINUOUS
 62
     6
 10
6473.4416304765837
 20
14536.956154540179
 30
0.0
 11
6450.9909204765863
 21
14376.31030354018
 31
0.0
  0
LINE
  5
11D5F
  8
0-6
  6
CONTINUOUS
 62
     6
 10
6450.9909204765863
 20
14376.31030354018
 30
0.0
 11
6400.1044264765733
 21
14392.27512054018
 31
0.0
  0
LINE
  5
11D60
  8
0-6
  6
CONTINUOUS
 62
     6
 10
6400.1044264765733
 20
14392.27512054018
 30
0.0
 11
6473.4416304765837
 21
14536.956154540179
 31
0.0
  0
LINE
  5
11D61
  8
0-6
  6
CONTINUOUS
 62
     6
 10
6400.1044264765733
 20
14392.27512054018
 30
0.0
 11
6450.9909204765863
 21
14376.31030354018
 31
0.0
  0
LINE
  5
11D62
  8
0-6
  6
CONTINUOUS
 62
     6
 10
4758.8073794765842
 20
12514.019802540181
 30
0.0
 11
5838.8069834765847
 21
12514.019802540181
 31
0.0
  0
LINE
  5
11D63
  8
0-6
  6
CONTINUOUS
 62
     6
 10
6425.5471784765759
 20
14384.29172254018
 30
0.0
 11
5838.8069834765847
 21
12514.019802540181
 31
0.0
  0
LINE
  5
11D64
  8
0-6
  6
CONTINUOUS
 62
     6
 10
6678.5424227628164
 20
17368.468628459501
 30
0.0
 11
6777.5826857628163
 21
17147.675105459512
 31
0.0
  0
LINE
  5
11D65
  8
0-6
  6
CONTINUOUS
 62
     6
 10
3239.6373288595291
 20
18088.215761138981
 30
0.0
 11
5234.0814808595396
 21
18088.215761138981
 31
0.0
  0
LINE
  5
11D66
  8
0-6
  6
CONTINUOUS
 62
     6
 10
12356.443015476571
 20
19519.985579
 30
0.0
 11
12448.13035747659
 21
19653.79311699999
 31
0.0
  0
LINE
  5
11D67
  8
0-6
  6
CONTINUOUS
 62
     6
 10
12486.57161847657
 20
19616.825606999992
 30
0.0
 11
12356.443015476571
 21
19519.985579
 31
0.0
  0
LINE
  5
11D68
  8
0-6
  6
CONTINUOUS
 62
     6
 10
12486.57161847657
 20
19616.825606999992
 30
0.0
 11
12448.13035747659
 21
19653.79311699999
 31
0.0
  0
LINE
  5
11D69
  8
0-6
  6
CONTINUOUS
 62
     6
 10
12467.351483476599
 20
19635.30837200001
 30
0.0
 11
12984.34037147659
 21
20139.986634999979
 31
0.0
  0
LINE
  5
11D6A
  8
0-6
  6
CONTINUOUS
 62
     6
 10
12984.34037147659
 20
20139.986634999979
 30
0.0
 11
14659.33971147659
 21
20139.986634999979
 31
0.0
  0
LINE
  5
11D6B
  8
2-0
  6
DASHED3
 62
     6
 10
6555.9416304765828
 20
19278.987755999991
 30
0.0
 11
12273.94163047658
 21
19278.987755999991
 31
0.0
  0
LINE
  5
11D6C
  8
2-0
  6
DASHED3
 62
     6
 10
6513.4423564765921
 20
18976.89382115288
 30
0.0
 11
6513.4423564765921
 21
19363.988283999988
 31
0.0
  0
LINE
  5
11D6D
  8
2-0
  6
DASHED3
 62
     6
 10
6555.9416304765828
 20
18959.35829801378
 30
0.0
 11
6555.9416304765828
 21
19363.988283999988
 31
0.0
  0
LINE
  5
11D6E
  8
2-0
  6
DASHED3
 62
     6
 10
6513.4423564765921
 20
19363.988283999988
 30
0.0
 11
12273.94163047658
 21
19363.988283999988
 31
0.0
  0
LINE
  5
11D6F
  8
2-0
  6
DASHED3
 62
     6
 10
9473.9416304765837
 20
17769.83857947612
 30
0.0
 11
9473.9416304765837
 21
19363.988283999988
 31
0.0
  0
LINE
  5
11D70
  8
2-0
  6
DASHED3
 62
     6
 10
9516.4428844765916
 20
17752.512986708611
 30
0.0
 11
9516.4428844765916
 21
19363.988283999988
 31
0.0
  0
LINE
  5
11D71
  8
2-0
  6
DASHED3
 62
     6
 10
8505.8359867026338
 20
18164.485855999999
 30
0.0
 11
9473.9416304765782
 21
18164.485855999999
 31
0.0
  0
LINE
  5
11D72
  8
2-0
  6
DASHED3
 62
     6
 10
8283.4873577710241
 20
18254.488626999999
 30
0.0
 11
9473.9416304765782
 21
18254.488626999999
 31
0.0
  0
LINE
  5
11D73
  8
2-0
  6
DASHED3
 62
     6
 10
6625.9423564765921
 20
19317.986251999992
 30
0.0
 11
9420.9419994765958
 21
18209.48625200001
 31
0.0
  0
LINE
  5
11D74
  8
2-0
  6
DASHED3
 62
     6
 10
9420.9419994766085
 20
18209.486251999992
 30
0.0
 11
8938.5251036980335
 21
17988.100579556321
 31
0.0
  0
LINE
  5
11D75
  8
2-0
  6
DASHED3
 62
     6
 10
9403.9428844765916
 20
19317.986251999992
 30
0.0
 11
7645.7250515033384
 21
18515.109199916871
 31
0.0
  0
LINE
  5
11D76
  8
2-0
  6
CENTER2
 62
     6
 10
9473.9416304765837
 20
20560.488495000009
 30
0.0
 11
9473.9416304765837
 21
19610.487834999989
 31
0.0
  0
LINE
  5
11D77
  8
2-0
  6
CENTER2
 62
     6
 10
5226.4415254765918
 20
19317.986251999992
 30
0.0
 11
6872.9407464765836
 21
19317.986251999992
 31
0.0
  0
LINE
  5
11D78
  8
0-8
  6
CONTINUOUS
 62
     6
 10
6555.9416304765828
 20
20560.488495000009
 30
0.0
 11
6555.9416304765828
 21
19610.487834999989
 31
0.0
  0
LINE
  5
11D79
  8
2-0
  6
CENTER2
 62
     6
 10
5226.4415254765918
 20
16750.486251999992
 30
0.0
 11
12445.741078476591
 21
16750.486251999992
 31
0.0
  0
LINE
  5
11D7A
  8
2-0
  6
CENTER2
 62
     6
 10
5226.4415254765918
 20
14182.986252000001
 30
0.0
 11
6872.9407464765836
 21
14182.986252000001
 31
0.0
  0
LINE
  5
11D7B
  8
2-0
  6
CENTER2
 62
     6
 10
6337.1434624765943
 20
18209.48625200001
 30
0.0
 11
12445.741078476591
 21
18209.48625200001
 31
0.0
  0
LINE
  5
11D7C
  8
2-0
  6
CENTER2
 62
     6
 10
6337.1434624765943
 20
15291.48625200001
 30
0.0
 11
12445.741078476591
 21
15291.48625200001
 31
0.0
  0
ARC
  5
11D7D
  8
0-1
  6
CONTINUOUS
 62
     3
 10
6538.9408914765736
 20
19505.488230999988
 30
0.0
 40
5.0
 50
269.9999850001808
 51
0.0
  0
ARC
  5
11D7E
  8
0-1
  6
CONTINUOUS
 62
     3
 10
6538.9408914765736
 20
19535.487834999982
 30
0.0
 40
5.0
 50
0.0
 51
90.0
  0
ARC
  5
11D7F
  8
0-1
  6
CONTINUOUS
 62
     3
 10
6475.4409044765816
 20
19535.487834999982
 30
0.0
 40
5.0
 50
90.0
 51
180.0
  0
CIRCLE
  5
11D80
  8
0-5
  6
CONTINUOUS
 62
     4
 10
9473.9416304765837
 20
20760.487175999991
 30
0.0
 40
199.9999949999999
  0
CIRCLE
  5
11D81
  8
0-5
  6
CONTINUOUS
 62
     4
 10
6555.9416304765828
 20
20760.487175999991
 30
0.0
 40
199.9999949999999
  0
CIRCLE
  5
11D82
  8
0-5
  6
CONTINUOUS
 62
     4
 10
5026.441854476594
 20
19317.986251999992
 30
0.0
 40
199.9999949999999
  0
CIRCLE
  5
11D83
  8
0-5
  6
CONTINUOUS
 62
     4
 10
5026.441854476594
 20
16750.486251999992
 30
0.0
 40
199.9999949999999
  0
CIRCLE
  5
11D84
  8
0-5
  6
CONTINUOUS
 62
     4
 10
5026.441854476594
 20
14182.986252000001
 30
0.0
 40
199.9999949999999
  0
CIRCLE
  5
11D85
  8
0-5
  6
CONTINUOUS
 62
     4
 10
15128.71667799999
 20
1375.999982000001
 30
0.0
 40
20.0
  0
ARC
  5
11D86
  8
0-5
  6
CONTINUOUS
 62
     4
 10
15128.71667799999
 20
1375.999982000001
 30
0.0
 40
20.0
 50
180.0
 51
0.0
  0
ARC
  5
11D87
  8
0-5
  6
CONTINUOUS
 62
     4
 10
15128.71667799999
 20
1375.999982000001
 30
0.0
 40
20.0
 50
0.0
 51
179.99998500000001
  0
CIRCLE
  5
11D88
  8
0-5
  6
CONTINUOUS
 62
     4
 10
15128.71667799999
 20
1775.9993219999981
 30
0.0
 40
20.0
  0
ARC
  5
11D89
  8
0-5
  6
CONTINUOUS
 62
     4
 10
15128.71667799999
 20
1775.9993219999981
 30
0.0
 40
20.0
 50
180.0
 51
0.0
  0
ARC
  5
11D8A
  8
0-5
  6
CONTINUOUS
 62
     4
 10
15128.71667799999
 20
1775.9993219999981
 30
0.0
 40
20.0
 50
0.0
 51
179.99998500000001
  0
TEXT
  5
11D8B
  8
0-5
  6
CONTINUOUS
 62
     7
 10
9420.2244244765934
 20
20671.27225300001
 30
0.0
 40
160.0
  1
2
 72
     4
 11
9473.5577578099274
 21
20751.27225300001
 31
0.0
  0
TEXT
  5
11D8C
  8
0-5
  6
CONTINUOUS
 62
     7
 10
6529.2749638099167
 20
20671.27225300001
 30
0.0
 40
160.0
  1
1
 72
     4
 11
6555.9416304765828
 21
20751.27225300001
 31
0.0
  0
TEXT
  5
11D8D
  8
0-5
  6
CONTINUOUS
 62
     7
 10
4972.981986476595
 20
19238.397728
 30
0.0
 40
160.0
  1
C
 72
     4
 11
5026.315319809928
 21
19318.397728
 31
0.0
  0
TEXT
  5
11D8E
  8
0-5
  6
CONTINUOUS
 62
     7
 10
4972.981986476595
 20
16670.898717999989
 30
0.0
 40
160.0
  1
B
 72
     4
 11
5026.315319809928
 21
16750.898717999989
 31
0.0
  0
TEXT
  5
11D8F
  8
0-5
  6
CONTINUOUS
 62
     7
 10
4972.981986476595
 20
14103.397728000011
 30
0.0
 40
160.0
  1
A
 72
     4
 11
5026.315319809928
 21
14183.397728000011
 31
0.0
  0
TEXT
  5
11D90
  8
0-5
  6
CONTINUOUS
 62
     7
 10
16661.217403999992
 20
1655.999792000001
 30
0.0
 40
160.0
  1
H
  0
TEXT
  5
11D91
  8
0-5
  6
CONTINUOUS
 62
     7
 10
15176.146933
 20
1655.999792000001
 30
0.0
 40
160.0
  1
（ ）内寸法ハ、  タイプヲ示ス。
  0
TEXT
  5
11D92
  8
0-5
  6
CONTINUOUS
 62
     7
 10
15288.716216000001
 20
1255.999462
 30
0.0
 40
160.0
  1
有効高サハ、基礎高サヲ含ミマセン。
  0
TEXT
  5
11D93
  8
0-6
  6
CONTINUOUS
 62
     7
 10
8462.6623696411261
 20
19829.98610699999
 30
0.0
 40
160.0
  1
屋根
 72
     4
 11
8633.3290363077922
 21
19909.98610699999
 31
0.0
  0
TEXT
  5
11D94
  8
0-6
  6
CONTINUOUS
 62
     7
 10
7075.7568624765954
 20
19850.486647999991
 30
0.0
 40
160.0
  1
桁（後）
 72
     4
 11
7395.7568624765954
 21
19930.486647999991
 31
0.0
  0
TEXT
  5
11D95
  8
0-6
  6
CONTINUOUS
 62
     7
 10
7648.1322621764421
 20
15558.378715845731
 30
0.0
 40
160.0
  1
ブレース
 72
     4
 11
8010.7989288431081
 21
15643.71204917907
 31
0.0
  0
TEXT
  5
11D96
  8
0-6
  6
CONTINUOUS
 62
     7
 10
7567.7223661246453
 20
13693.372286546
 30
0.0
 40
160.0
  1
桁（前）
 72
     4
 11
7887.7223661246462
 21
13773.372286546
 31
0.0
  0
TEXT
  5
11D97
  8
0-6
  6
CONTINUOUS
 62
     7
 10
8698.1639192923703
 20
13570.75110449999
 30
0.0
 40
160.0
  1
鼻隠し前
 72
     4
 11
9060.8305859590364
 21
13650.75110449999
 31
0.0
  0
TEXT
  5
11D98
  8
0-6
  6
CONTINUOUS
 62
     7
 10
4838.8076434765808
 20
12594.01907654018
 30
0.0
 40
160.0
  1
ケラバ 左
 72
     4
 11
5254.8076434765808
 21
12674.01907654018
 31
0.0
  0
TEXT
  5
11D99
  8
0-6
  6
CONTINUOUS
 62
     7
 10
6857.5829497628301
 20
17227.67536945951
 30
0.0
 40
160.0
  1
上枠
 72
     4
 11
7028.2496164294971
 21
17307.67536945951
 31
0.0
  0
TEXT
  5
11D9A
  8
0-6
  6
CONTINUOUS
 62
     7
 10
13064.340635476599
 20
20219.984918999991
 30
0.0
 40
160.0
  1
鼻隠しコーナー後
 72
     4
 11
13811.007302143271
 21
20299.984918999991
 31
0.0
  0
TEXT
  5
11D9B
  8
2-0
  6
CONTINUOUS
 62
     7
 10
21841.769232999432
 20
3292.802588999999
 30
0.0
 40
160.0
  1
正 面 立 面 図
 72
     4
 11
22487.102566332771
 21
3372.802588999999
 31
0.0
  0
TEXT
  5
11D9C
  8
2-0
  6
CONTINUOUS
 62
     7
 10
7808.7002624709367
 20
3264.0669070000022
 30
0.0
 40
160.0
  1
側 面 立 面 図
 50
0.000139
 72
     4
 11
8454.0334017217574
 21
3344.0684725833762
 31
0.0
  0
TEXT
  5
11D9D
  8
0-6
  6
CONTINUOUS
 62
     7
 10
3303.669696553834
 20
18184.267249028311
 30
0.0
 40
160.0
  1
桁中B +  桁中補強B
 72
     4
 11
4237.0030298871679
 21
18264.267249028318
 31
0.0
  0
TEXT
  5
11D9E
  8
0-6
  6
CONTINUOUS
 62
     7
 10
3341.1933885261342
 20
17199.323781233761
 30
0.0
 40
160.0
  1
桁中A +  桁中補強A
 72
     4
 11
4274.5267218594681
 21
17279.323781233761
 31
0.0
  0
LINE
  5
11DA2
  8
0-6
  6
CONTINUOUS
 62
     6
 10
10029.80119934641
 20
19787.010398411789
 30
0.0
 11
11294.47078498414
 21
19787.010398411789
 31
0.0
  0
TEXT
  5
11DA3
  8
0-6
  6
CONTINUOUS
 62
     7
 10
10109.800968346401
 20
19867.010662411791
 30
0.0
 40
160.0
  1
桁（後）補強
  0
LINE
  5
11DA4
  8
0-6
  6
CONTINUOUS
 62
     6
 10
9056.9704364808331
 20
19135.191705746962
 30
0.0
 11
9190.5999659863519
 21
18832.68419574801
 31
0.0
  0
LINE
  5
11DA5
  8
0-6
  6
CONTINUOUS
 62
     6
 10
8992.3194135725298
 20
19281.547230841199
 30
0.0
 11
9032.5773135460495
 21
19124.416014316921
 31
0.0
  0
LINE
  5
11DA6
  8
0-6
  6
CONTINUOUS
 62
     6
 10
9032.5773135460495
 20
19124.416014316921
 30
0.0
 11
9081.3635594156112
 21
19145.967397176992
 31
0.0
  0
LINE
  5
11DA7
  8
0-6
  6
CONTINUOUS
 62
     6
 10
9081.3635594156112
 20
19145.967397176992
 30
0.0
 11
8992.3194135725298
 21
19281.547230841199
 31
0.0
  0
LINE
  5
11DA8
  8
0-6
  6
CONTINUOUS
 62
     6
 10
9190.5999659863483
 20
18832.68419574801
 30
0.0
 11
10029.80119934641
 21
19787.010398411789
 31
0.0
  0
TEXT
  5
11DA9
  8
2-0
  6
CONTINUOUS
 62
     7
 10
9805.5255868593831
 20
3291.2638415833758
 30
0.0
 40
160.0
  1
1
 72
     4
 11
9832.1922535260492
 21
3371.2638415833749
 31
0.0
  0
TEXT
  5
11DAA
  8
2-0
  6
CONTINUOUS
 62
     7
 10
10048.61430411006
 20
3211.2653095833748
 30
0.0
 40
160.0
  1
80
 72
     4
 11
10168.61430411006
 21
3291.2653095833748
 31
0.0
  0
TEXT
  5
11DAB
  8
2-0
  6
CONTINUOUS
 62
     7
 10
9306.5275528593793
 20
3264.0684725833762
 30
0.0
 40
160.0
  1
(S=  /   )
 72
     4
 11
9866.5275528593793
 21
3344.0684725833762
 31
0.0
  0
TEXT
  5
11DAC
  8
2-0
  6
CONTINUOUS
 62
     7
 10
23838.594751470391
 20
3319.9979579999999
 30
0.0
 40
160.0
  1
1
 72
     4
 11
23865.261418137059
 21
3399.9979579999999
 31
0.0
  0
TEXT
  5
11DAD
  8
2-0
  6
CONTINUOUS
 62
     7
 10
24081.683468721101
 20
3239.9994259999989
 30
0.0
 40
160.0
  1
80
 72
     4
 11
24201.683468721101
 21
3319.9994259999989
 31
0.0
  0
TEXT
  5
11DAE
  8
2-0
  6
CONTINUOUS
 62
     7
 10
23339.596717470398
 20
3292.802588999999
 30
0.0
 40
160.0
  1
(S=  /   )
 72
     4
 11
23899.596717470398
 21
3372.802588999999
 31
0.0
  0
LINE
  5
11DAF
  8
2-0
  6
CENTER2
 62
     6
 10
12273.94163047658
 20
20560.488495000009
 30
0.0
 11
12273.94163047658
 21
19610.487834999989
 31
0.0
  0
CIRCLE
  5
11DB0
  8
0-5
  6
CONTINUOUS
 62
     4
 10
12273.94163047658
 20
20760.487175999991
 30
0.0
 40
199.9999949999999
  0
TEXT
  5
11DB1
  8
0-5
  6
CONTINUOUS
 62
     7
 10
12220.224424476581
 20
20671.27225300001
 30
0.0
 40
160.0
  1
3
 72
     4
 11
12273.55775780992
 21
20751.27225300001
 31
0.0
  0
LINE
  5
11DB2
  8
0-1
  6
CONTINUOUS
 62
     3
 10
12341.44186847657
 20
16587.062384390982
 30
0.0
 11
12341.44186847659
 21
19522.987175999991
 31
0.0
  0
LINE
  5
11DB3
  8
0-1
  6
CONTINUOUS
 62
     3
 10
12341.44186847659
 20
19522.987175999991
 30
0.0
 11
12359.44163047658
 21
19522.987175999991
 31
0.0
  0
LINE
  5
11DB4
  8
0-1
  6
CONTINUOUS
 62
     3
 10
12285.941116476601
 20
19505.488230999988
 30
0.0
 11
12285.941116476601
 21
19535.487834999982
 31
0.0
  0
LINE
  5
11DB5
  8
0-1
  6
CONTINUOUS
 62
     3
 10
12341.44186847659
 20
19500.485987999989
 30
0.0
 11
12290.9423704766
 21
19500.485987999989
 31
0.0
  0
LINE
  5
11DB6
  8
0-1
  6
CONTINUOUS
 62
     3
 10
12359.44163047658
 20
19535.487834999982
 30
0.0
 11
12359.44163047658
 21
19500.485987999989
 31
0.0
  0
LINE
  5
11DB7
  8
0-1
  6
CONTINUOUS
 62
     3
 10
12290.9423704766
 20
19540.486120000001
 30
0.0
 11
12354.44037747658
 21
19540.486120000001
 31
0.0
  0
ARC
  5
11DB8
  8
0-1
  6
CONTINUOUS
 62
     3
 10
12354.44037747658
 20
19535.487834999982
 30
0.0
 40
5.0
 50
0.0
 51
90.0
  0
ARC
  5
11DB9
  8
0-1
  6
CONTINUOUS
 62
     3
 10
12290.9423704766
 20
19535.487834999982
 30
0.0
 40
5.0
 50
90.0
 51
180.0
  0
ARC
  5
11DBA
  8
0-1
  6
CONTINUOUS
 62
     3
 10
12290.9423704766
 20
19505.488230999988
 30
0.0
 40
5.0
 50
180.0
 51
269.9999850001808
  0
LINE
  5
11DBB
  8
0-1
  6
CONTINUOUS
 62
     3
 10
9473.9416304765837
 20
14146.486899
 30
0.0
 11
9473.9416304765837
 21
13990.486978000001
 31
0.0
  0
LINE
  5
11DBC
  8
0-1
  6
CONTINUOUS
 62
     3
 10
6283.1863202182594
 20
19070.54672155323
 30
0.0
 11
9882.7400838212343
 21
17603.19230765941
 31
0.0
  0
LINE
  5
11DBD
  8
0-1
  6
CONTINUOUS
 62
     3
 10
12223.94199947659
 20
14022.486885
 30
0.0
 11
12223.94199947659
 21
16635.899450312161
 31
0.0
  0
LINE
  5
11DBE
  8
0-1
  6
CONTINUOUS
 62
     3
 10
12359.44163047658
 20
13990.486252000001
 30
0.0
 11
12359.44163047658
 21
16579.990702284111
 31
0.0
  0
LINE
  5
11DBF
  8
0-1
  6
CONTINUOUS
 62
     3
 10
12273.94163047658
 20
14146.486899
 30
0.0
 11
12273.94163047658
 21
16613.58674043581
 31
0.0
  0
LINE
  5
11DC0
  8
0-1
  6
CONTINUOUS
 62
     3
 10
12316.44288447659
 20
14146.486899
 30
0.0
 11
12316.44288447659
 21
16596.109000377732
 31
0.0
  0
LINE
  5
11DC1
  8
0-1
  6
CONTINUOUS
 62
     3
 10
12223.94199947659
 20
16635.899450312161
 30
0.0
 11
12223.94199947659
 21
19510.488495000001
 31
0.0
  0
LINE
  5
11DC2
  8
0-1
  6
CONTINUOUS
 62
     3
 10
12359.44163047658
 20
16579.990702284111
 30
0.0
 11
12359.44163047658
 21
19522.987175999991
 31
0.0
  0
LINE
  5
11DC3
  8
2-0
  6
DASHED3
 62
     6
 10
12273.94163047658
 20
16613.58674043581
 30
0.0
 11
12273.94163047658
 21
19510.488495000001
 31
0.0
  0
LINE
  5
11DC4
  8
2-0
  6
DASHED3
 62
     6
 10
12316.44288447659
 20
16596.109000377732
 30
0.0
 11
12316.44288447659
 21
19500.485987999989
 31
0.0
  0
LINE
  5
11DC5
  8
0-1
  6
CONTINUOUS
 62
     3
 10
6470.4416304765837
 20
18927.271700365189
 30
0.0
 11
6470.4416304765837
 21
19530.487571999991
 31
0.0
  0
LINE
  5
11DC6
  8
0-1
  6
CONTINUOUS
 62
     3
 10
6605.9422504765944
 20
18871.363360818679
 30
0.0
 11
6605.9422504765944
 21
19510.488495000001
 31
0.0
  0
LINE
  5
11DC7
  8
0-1
  6
CONTINUOUS
 62
     3
 10
9326.443741476598
 20
17829.965943221199
 30
0.0
 11
9326.443741476598
 21
19510.488495000001
 31
0.0
  0
LINE
  5
11DC8
  8
0-1
  6
CONTINUOUS
 62
     3
 10
9363.4439134766035
 20
17814.882860910271
 30
0.0
 11
9363.4439134766035
 21
19510.488495000001
 31
0.0
  0
LINE
  5
11DC9
  8
0-1
  6
CONTINUOUS
 62
     3
 10
9526.4444014766086
 20
17748.435878522589
 30
0.0
 11
9526.4444014766086
 21
19510.488495000001
 31
0.0
  0
LINE
  5
11DCA
  8
0-1
  6
CONTINUOUS
 62
     3
 10
9563.4445734766141
 20
17733.35279621166
 30
0.0
 11
9563.4445734766141
 21
19510.488495000001
 31
0.0
  0
LINE
  5
11DCB
  8
0-1
  6
CONTINUOUS
 62
     3
 10
9726.4450614766192
 20
17666.905813823982
 30
0.0
 11
9726.4450614766174
 21
19510.488495000001
 31
0.0
  0
LINE
  5
11DCC
  8
0-1
  6
CONTINUOUS
 62
     3
 10
9763.4452334766229
 20
17651.82273151305
 30
0.0
 11
9763.4452334766229
 21
19510.488495000001
 31
0.0
  0
LINE
  5
11DCD
  8
0-1
  6
CONTINUOUS
 62
     3
 10
9926.445721476628
 20
17709.117740013218
 30
0.0
 11
9926.4457214766244
 21
19510.488495000001
 31
0.0
  0
LINE
  5
11DCE
  8
0-1
  6
CONTINUOUS
 62
     3
 10
9963.4458934766353
 20
17798.791736927971
 30
0.0
 11
9963.4458934766353
 21
19510.488495000001
 31
0.0
  0
LINE
  5
11DCF
  8
0-1
  6
CONTINUOUS
 62
     3
 10
10126.44638147663
 20
17663.714145947641
 30
0.0
 11
10126.44638147663
 21
19510.488495000001
 31
0.0
  0
LINE
  5
11DD0
  8
0-1
  6
CONTINUOUS
 62
     3
 10
10163.44655347664
 20
17621.17090555876
 30
0.0
 11
10163.44655347664
 21
19510.488495000001
 31
0.0
  0
LINE
  5
11DD1
  8
0-1
  6
CONTINUOUS
 62
     3
 10
10326.44704147664
 20
17431.377017966901
 30
0.0
 11
10326.44704147664
 21
19510.488495000001
 31
0.0
  0
LINE
  5
11DD2
  8
0-1
  6
CONTINUOUS
 62
     3
 10
10363.44721347664
 20
17388.581626968818
 30
0.0
 11
10363.44721347664
 21
19510.488495000001
 31
0.0
  0
LINE
  5
11DD3
  8
0-1
  6
CONTINUOUS
 62
     3
 10
10526.447701476651
 20
17198.787791101659
 30
0.0
 11
10526.447701476651
 21
19510.488495000001
 31
0.0
  0
LINE
  5
11DD4
  8
0-1
  6
CONTINUOUS
 62
     3
 10
10563.447873476651
 20
17156.244550712781
 30
0.0
 11
10563.447873476651
 21
19510.488495000001
 31
0.0
  0
LINE
  5
11DD5
  8
0-1
  6
CONTINUOUS
 62
     3
 10
10726.44836147665
 20
17021.195778491841
 30
0.0
 11
10726.44836147665
 21
19510.488495000001
 31
0.0
  0
LINE
  5
11DD6
  8
0-1
  6
CONTINUOUS
 62
     3
 10
10763.44853347667
 20
17110.874058523728
 30
0.0
 11
10763.44853347667
 21
19510.488495000001
 31
0.0
  0
LINE
  5
11DD7
  8
0-1
  6
CONTINUOUS
 62
     3
 10
10926.449021476659
 20
17167.714521001009
 30
0.0
 11
10926.449021476659
 21
19510.488495000001
 31
0.0
  0
LINE
  5
11DD8
  8
0-1
  6
CONTINUOUS
 62
     3
 10
10963.44919347667
 20
17152.49898434131
 30
0.0
 11
10963.44919347667
 21
19510.488495000001
 31
0.0
  0
LINE
  5
11DD9
  8
0-1
  6
CONTINUOUS
 62
     3
 10
11126.449681476681
 20
17085.468487815251
 30
0.0
 11
11126.449681476681
 21
19510.488495000001
 31
0.0
  0
LINE
  5
11DDA
  8
0-1
  6
CONTINUOUS
 62
     3
 10
11163.44985347669
 20
17070.252951155551
 30
0.0
 11
11163.44985347669
 21
19510.488495000001
 31
0.0
  0
LINE
  5
11DDB
  8
0-1
  6
CONTINUOUS
 62
     3
 10
11326.45034147669
 20
17003.22245462946
 30
0.0
 11
11326.45034147669
 21
19510.488495000001
 31
0.0
  0
LINE
  5
11DDC
  8
0-1
  6
CONTINUOUS
 62
     3
 10
11363.45051347669
 20
16988.006917969789
 30
0.0
 11
11363.45051347669
 21
19510.488495000001
 31
0.0
  0
LINE
  5
11DDD
  8
0-1
  6
CONTINUOUS
 62
     3
 10
11526.451001476689
 20
16920.976421443698
 30
0.0
 11
11526.45100147668
 21
19510.488495000001
 31
0.0
  0
LINE
  5
11DDE
  8
0-1
  6
CONTINUOUS
 62
     3
 10
11563.451173476709
 20
16905.760884784031
 30
0.0
 11
11563.451173476689
 21
19510.488495000001
 31
0.0
  0
LINE
  5
11DDF
  8
0-1
  6
CONTINUOUS
 62
     3
 10
11726.4516614767
 20
16838.730388257951
 30
0.0
 11
11726.451661476711
 21
19510.488495000001
 31
0.0
  0
LINE
  5
11DE0
  8
0-1
  6
CONTINUOUS
 62
     3
 10
11763.451833476711
 20
16823.514851598251
 30
0.0
 11
11763.451833476711
 21
19510.488495000001
 31
0.0
  0
LINE
  5
11DE1
  8
2-0
  6
DASHED3
 62
     6
 10
11831.604217243321
 20
16795.488627999988
 30
0.0
 11
12273.94163047658
 21
16795.488627999988
 31
0.0
  0
LINE
  5
11DE2
  8
2-0
  6
DASHED3
 62
     6
 10
12050.467217738111
 20
16705.485856999989
 30
0.0
 11
12273.94163047658
 21
16705.485856999989
 31
0.0
  0
LINE
  5
11DE3
  8
0-1
  6
CONTINUOUS
 62
     3
 10
9473.9416304765837
 20
16705.485856999989
 30
0.0
 11
12050.467217738111
 21
16705.485856999989
 31
0.0
  0
LINE
  5
11DE4
  8
0-1
  6
CONTINUOUS
 62
     3
 10
9473.9416304765837
 20
16795.488627999999
 30
0.0
 11
11831.604217243321
 21
16795.488627999988
 31
0.0
  0
LINE
  5
11DE5
  8
0-1
  6
CONTINUOUS
 62
     3
 10
9473.9416304765837
 20
15336.487638000021
 30
0.0
 11
12273.94163047658
 21
15336.487638000021
 31
0.0
  0
LINE
  5
11DE6
  8
0-1
  6
CONTINUOUS
 62
     3
 10
9473.9416304765837
 20
15246.485856000019
 30
0.0
 11
12273.94163047658
 21
15246.485856000019
 31
0.0
  0
LINE
  5
11DE7
  8
2-0
  6
DASHED3
 62
     6
 10
12273.94163047658
 20
18164.485855999999
 30
0.0
 11
9473.9416304765782
 21
18164.485855999999
 31
0.0
  0
LINE
  5
11DE8
  8
2-0
  6
DASHED3
 62
     6
 10
12273.94163047658
 20
18254.488626999999
 30
0.0
 11
9473.9416304765782
 21
18254.488626999999
 31
0.0
  0
LINE
  5
11DE9
  8
0-1
  6
CONTINUOUS
 62
     3
 10
12094.44199947659
 20
15291.48625200001
 30
0.0
 11
9642.9428844765953
 21
14182.986252000001
 31
0.0
  0
LINE
  5
11DEA
  8
0-1
  6
CONTINUOUS
 62
     3
 10
9642.9428844765953
 20
16750.486251999992
 30
0.0
 11
12094.44199947659
 21
15291.48625200001
 31
0.0
  0
LINE
  5
11DEB
  8
0-1
  6
CONTINUOUS
 62
     3
 10
9642.9428844765916
 20
15291.48625200001
 30
0.0
 11
12031.757511744419
 21
16713.179827110162
 31
0.0
  0
LINE
  5
11DEC
  8
0-1
  6
CONTINUOUS
 62
     3
 10
12094.44199947659
 20
14182.986252000001
 30
0.0
 11
9642.9428844765916
 21
15291.48625200001
 31
0.0
  0
LINE
  5
11DED
  8
0-6
  6
CONTINUOUS
 62
     6
 10
12220.94199947659
 20
14649.02086206411
 30
0.0
 11
11516.663644288779
 21
13482.292315831861
 31
0.0
  0
LINE
  5
11DEE
  8
2-0
  6
DASHED3
 62
     6
 10
9642.9428844765916
 20
18209.48625200001
 30
0.0
 11
12094.44199947659
 21
16750.486251999992
 31
0.0
  0
LINE
  5
11DEF
  8
2-0
  6
DASHED3
 62
     6
 10
12094.44199947659
 20
18209.48625200001
 30
0.0
 11
10482.920507729439
 21
17250.395611472039
 31
0.0
  0
LINE
  5
11DF0
  8
0-1
  6
CONTINUOUS
 62
     3
 10
10482.920507729439
 20
17250.395611472039
 30
0.0
 11
9642.9428844765953
 21
16750.486251999992
 31
0.0
  0
LINE
  5
11DF1
  8
2-0
  6
DASHED3
 62
     6
 10
12094.44199947659
 20
19317.986251999992
 30
0.0
 11
9642.9428844765916
 21
18209.48625200001
 31
0.0
  0
LINE
  5
11DF2
  8
2-0
  6
DASHED3
 62
     6
 10
9642.9428844765953
 20
19317.986251999992
 30
0.0
 11
12094.44199947659
 21
18209.48625200001
 31
0.0
  0
LINE
  5
11DF3
  8
0-6
  6
CONTINUOUS
 62
     6
 10
5234.0814808595396
 20
18088.215761138981
 30
0.0
 11
6921.2374540387173
 21
17696.726770879792
 31
0.0
  0
LINE
  5
11DF4
  8
0-6
  6
CONTINUOUS
 62
     6
 10
6921.2374540387173
 20
17696.726770879792
 30
0.0
 11
7272.3291852355396
 21
18164.485856000021
 31
0.0
  0
LINE
  5
11DF5
  8
0-1
  6
CONTINUOUS
 62
     3
 10
9882.7395460614607
 20
17603.191004339282
 30
0.0
 11
9978.0935663849814
 21
17834.291987445478
 31
0.0
  0
LINE
  5
11DF6
  8
0-1
  6
CONTINUOUS
 62
     3
 10
10711.793098568191
 20
16985.67543628786
 30
0.0
 11
10807.14374824571
 21
17216.77928799433
 31
0.0
  0
LINE
  5
11DF7
  8
0-1
  6
CONTINUOUS
 62
     3
 10
10711.793098568191
 20
16985.67543628786
 30
0.0
 11
9978.0935663849814
 21
17834.291987445478
 31
0.0
  0
LINE
  5
11DF8
  8
0-1
  6
CONTINUOUS
 62
     3
 10
10807.14268946686
 20
17216.776721804479
 30
0.0
 11
12653.00244898217
 21
16457.70601155105
 31
0.0
  0
TEXT
  5
11DF9
  8
2-0
  6
CONTINUOUS
 62
     7
 10
21935.765181876552
 20
11251.104441999991
 30
0.0
 40
160.0
  1
平　面　図
 72
     4
 11
22389.09851520988
 21
11325.77110866666
 31
0.0
  0
TEXT
  5
11DFA
  8
2-0
  6
CONTINUOUS
 62
     7
 10
8012.9000086175347
 20
11156.81700299998
 30
0.0
 40
160.0
  1
小 屋 伏 図
 72
     4
 11
8514.2333419508686
 21
11236.81700299998
 31
0.0
  0
TEXT
  5
11DFB
  8
2-0
  6
CONTINUOUS
 62
     7
 10
23740.5907003475
 20
11272.96647766667
 30
0.0
 40
160.0
  1
1
 72
     4
 11
23767.257367014168
 21
11352.96647766667
 31
0.0
  0
TEXT
  5
11DFC
  8
2-0
  6
CONTINUOUS
 62
     7
 10
23983.6794175982
 20
11192.967945666671
 30
0.0
 40
160.0
  1
80
 72
     4
 11
24103.6794175982
 21
11272.967945666671
 31
0.0
  0
TEXT
  5
11DFD
  8
2-0
  6
CONTINUOUS
 62
     7
 10
23241.592666347511
 20
11245.77110866666
 30
0.0
 40
160.0
  1
(S=  /   )
 72
     4
 11
23801.592666347511
 21
11325.77110866666
 31
0.0
  0
TEXT
  5
11DFE
  8
2-0
  6
CONTINUOUS
 62
     7
 10
9865.7255270884998
 20
11184.012371999979
 30
0.0
 40
160.0
  1
1
 72
     4
 11
9892.3921937551622
 21
11264.012371999979
 31
0.0
  0
TEXT
  5
11DFF
  8
2-0
  6
CONTINUOUS
 62
     7
 10
10108.81424433919
 20
11104.01383999998
 30
0.0
 40
160.0
  1
80
 72
     4
 11
10228.81424433919
 21
11184.01383999998
 31
0.0
  0
TEXT
  5
11E00
  8
2-0
  6
CONTINUOUS
 62
     7
 10
9366.7274930884923
 20
11156.81700299998
 30
0.0
 40
160.0
  1
(S=  /   )
 72
     4
 11
9926.7274930884923
 21
11236.81700299998
 31
0.0
  0
LINE
  5
11E01
  8
2-0
  6
DASHED3
 62
     6
 10
12031.757511744419
 20
16713.179827110162
 30
0.0
 11
12094.44199947659
 21
16750.486251999992
 31
0.0
  0
LINE
  5
11E02
  8
0-6
  6
CONTINUOUS
 62
     6
 10
3239.6373288595291
 20
15264.03238181716
 30
0.0
 11
5234.0814808595396
 21
15264.03238181716
 31
0.0
  0
TEXT
  5
11E03
  8
0-6
  6
CONTINUOUS
 62
     7
 10
3303.669696553834
 20
15360.083869706519
 30
0.0
 40
160.0
  1
桁中B +  桁中補強B
 72
     4
 11
4237.0030298871679
 21
15440.083869706519
 31
0.0
  0
LINE
  5
11E04
  8
0-6
  6
CONTINUOUS
 62
     6
 10
5234.0814808595396
 20
15264.03238181716
 30
0.0
 11
6849.6887366383662
 21
14645.00412931599
 31
0.0
  0
LINE
  5
11E05
  8
0-6
  6
CONTINUOUS
 62
     6
 10
6849.6887366383662
 20
14645.00412931599
 30
0.0
 11
7272.3291852355396
 21
15208.087483334901
 31
0.0
  0
LINE
  5
11E06
  8
0-6
  6
CONTINUOUS
 62
     6
 10
5271.6051728318453
 20
17103.270314344409
 30
0.0
 11
7185.240956702577
 21
16276.676348604609
 31
0.0
  0
LINE
  5
11E07
  8
0-6
  6
CONTINUOUS
 62
     6
 10
7185.240956702577
 20
16276.676348604609
 30
0.0
 11
7442.8653274936132
 21
16694.98542100003
 31
0.0
  0
LINE
  5
11E0D
  8
0-1
  6
CONTINUOUS
 62
     3
 10
19816.006397585181
 20
8132.6883740000021
 30
0.0
 11
22649.009828585142
 21
8132.6883740000021
 31
0.0
  0
LINE
  5
11E0E
  8
0-1
  6
CONTINUOUS
 62
     3
 10
19816.006397585181
 20
8326.1887430000024
 30
0.0
 11
22649.009828585142
 21
8326.1887430000024
 31
0.0
  0
LINE
  5
11E0F
  8
0-1
  6
CONTINUOUS
 62
     3
 10
19688.010092585158
 20
8264.0026619999971
 30
0.0
 11
19688.010092585158
 21
8589.6883999999973
 31
0.0
  0
LINE
  5
11E10
  8
0-1
  6
CONTINUOUS
 62
     3
 10
22734.008377585149
 20
8459.6884660000014
 30
0.0
 11
19688.010092585158
 21
8459.6884660000014
 31
0.0
  0
LINE
  5
11E11
  8
0-1
  6
CONTINUOUS
 62
     3
 10
19688.010092585158
 20
8589.6883999999973
 30
0.0
 11
22714.01128058515
 21
8589.6883999999973
 31
0.0
  0
LINE
  5
11E12
  8
0-1
  6
CONTINUOUS
 62
     3
 10
7680.7332144709544
 20
8152.2344180000064
 30
0.0
 11
7680.7332144709544
 21
6291.1885390000007
 31
0.0
  0
LINE
  5
11E13
  8
0-1
  6
CONTINUOUS
 62
     3
 10
7643.7350224709498
 20
8152.2344180000064
 30
0.0
 11
7643.7350224709498
 21
6291.1885390000007
 31
0.0
  0
LINE
  5
11E14
  8
0-1
  6
CONTINUOUS
 62
     3
 10
8380.7325544709438
 20
8152.2344180000064
 30
0.0
 11
8380.7325544709438
 21
6291.1885390000007
 31
0.0
  0
LINE
  5
11E15
  8
0-1
  6
CONTINUOUS
 62
     3
 10
8343.7343624709429
 20
8152.2344180000064
 30
0.0
 11
8343.7343624709429
 21
6291.1885390000007
 31
0.0
  0
LINE
  5
11E16
  8
0-1
  6
CONTINUOUS
 62
     3
 10
8002.2327654709406
 20
6291.1885390000007
 30
0.0
 11
8002.2327654709406
 21
8152.2344180000064
 31
0.0
  0
LINE
  5
11E17
  8
0-1
  6
CONTINUOUS
 62
     3
 10
8022.2338214709553
 20
6291.1885390000007
 30
0.0
 11
8022.2338214709553
 21
8152.2344180000064
 31
0.0
  0
LINE
  5
11E18
  8
0-1
  6
CONTINUOUS
 62
     3
 10
7952.234085470951
 20
6291.1885390000007
 30
0.0
 11
7952.234085470951
 21
8152.2344180000064
 31
0.0
  0
LINE
  5
11E19
  8
0-1
  6
CONTINUOUS
 62
     3
 10
8072.2334914709509
 20
6291.1885390000007
 30
0.0
 11
8072.2334914709509
 21
8152.2344180000064
 31
0.0
  0
LINE
  5
11E1A
  8
0-1
  6
CONTINUOUS
 62
     3
 10
8205.2333854709432
 20
6291.1885390000007
 30
0.0
 11
8205.2333854709432
 21
8152.2344180000064
 31
0.0
  0
LINE
  5
11E1B
  8
0-1
  6
CONTINUOUS
 62
     3
 10
8220.2331874709525
 20
6291.1885390000007
 30
0.0
 11
8220.2331874709525
 21
8152.2344180000064
 31
0.0
  0
LINE
  5
11E1C
  8
0-1
  6
CONTINUOUS
 62
     3
 10
7819.2332004709469
 20
6291.1885390000007
 30
0.0
 11
7819.2332004709469
 21
8152.2344180000064
 31
0.0
  0
LINE
  5
11E1D
  8
0-1
  6
CONTINUOUS
 62
     3
 10
7804.234388470948
 20
6291.1885390000007
 30
0.0
 11
7804.234388470948
 21
8152.2344180000064
 31
0.0
  0
LINE
  5
11E1E
  8
0-1
  6
CONTINUOUS
 62
     3
 10
7520.2338474709468
 20
6291.1885390000007
 30
0.0
 11
7520.2338474709468
 21
8152.2344180000064
 31
0.0
  0
LINE
  5
11E1F
  8
0-1
  6
CONTINUOUS
 62
     3
 10
7505.2330554709488
 20
6291.1885390000007
 30
0.0
 11
7505.2330554709488
 21
8152.2344180000064
 31
0.0
  0
LINE
  5
11E20
  8
0-1
  6
CONTINUOUS
 62
     3
 10
7372.2341514709442
 20
6291.1885390000007
 30
0.0
 11
7372.2341514709442
 21
8152.2344180000064
 31
0.0
  0
LINE
  5
11E21
  8
0-1
  6
CONTINUOUS
 62
     3
 10
7252.232765470947
 20
6291.1885390000007
 30
0.0
 11
7252.232765470947
 21
8152.2344180000064
 31
0.0
  0
LINE
  5
11E22
  8
0-1
  6
CONTINUOUS
 62
     3
 10
7322.2354704709542
 20
6291.1885390000007
 30
0.0
 11
7322.2354704709542
 21
8152.2344180000064
 31
0.0
  0
LINE
  5
11E23
  8
0-1
  6
CONTINUOUS
 62
     3
 10
7302.2344154709544
 20
6291.1885390000007
 30
0.0
 11
7302.2344154709544
 21
8152.2344180000064
 31
0.0
  0
LINE
  5
11E24
  8
0-1
  6
CONTINUOUS
 62
     3
 10
8504.2327394709464
 20
6291.1885390000007
 30
0.0
 11
8504.2327394709464
 21
8152.2344180000064
 31
0.0
  0
LINE
  5
11E25
  8
0-1
  6
CONTINUOUS
 62
     3
 10
8519.2335304709541
 20
6291.1885390000007
 30
0.0
 11
8519.2335304709541
 21
8152.2344180000064
 31
0.0
  0
LINE
  5
11E26
  8
0-1
  6
CONTINUOUS
 62
     3
 10
8652.2344154709554
 20
6291.1885390000007
 30
0.0
 11
8652.2344154709554
 21
8152.2344180000064
 31
0.0
  0
LINE
  5
11E27
  8
0-1
  6
CONTINUOUS
 62
     3
 10
8920.2335174709515
 20
6291.1885390000007
 30
0.0
 11
8920.2335174709515
 21
8152.2344180000064
 31
0.0
  0
LINE
  5
11E28
  8
0-1
  6
CONTINUOUS
 62
     3
 10
8905.2347054709517
 20
6291.1885390000007
 30
0.0
 11
8905.2347054709517
 21
8152.2344180000064
 31
0.0
  0
LINE
  5
11E29
  8
0-1
  6
CONTINUOUS
 62
     3
 10
8772.2338214709416
 20
6291.1885390000007
 30
0.0
 11
8772.2338214709416
 21
8152.2344180000064
 31
0.0
  0
LINE
  5
11E2A
  8
0-1
  6
CONTINUOUS
 62
     3
 10
8722.2341514709442
 20
6291.1885390000007
 30
0.0
 11
8722.2341514709442
 21
8152.2344180000064
 31
0.0
  0
LINE
  5
11E2B
  8
0-1
  6
CONTINUOUS
 62
     3
 10
8702.2350744709547
 20
6291.1885390000007
 30
0.0
 11
8702.2350744709547
 21
8152.2344180000064
 31
0.0
  0
LINE
  5
11E2C
  8
0-1
  6
CONTINUOUS
 62
     3
 10
9530.2340454709465
 20
6291.1885390000007
 30
0.0
 11
9530.2340454709465
 21
8152.2344180000064
 31
0.0
  0
LINE
  5
11E2D
  8
0-1
  6
CONTINUOUS
 62
     3
 10
9510.2349694709555
 20
6291.1885390000007
 30
0.0
 11
9510.2349694709555
 21
8152.2344180000064
 31
0.0
  0
LINE
  5
11E2E
  8
0-1
  6
CONTINUOUS
 62
     3
 10
9580.2347054709426
 20
6291.1885390000007
 30
0.0
 11
9580.2347054709426
 21
8152.2344180000064
 31
0.0
  0
LINE
  5
11E2F
  8
0-1
  6
CONTINUOUS
 62
     3
 10
9460.2343094709522
 20
6291.1885390000007
 30
0.0
 11
9460.2343094709522
 21
8152.2344180000064
 31
0.0
  0
LINE
  5
11E30
  8
0-1
  6
CONTINUOUS
 62
     3
 10
9327.2344154709444
 20
6291.1885390000007
 30
0.0
 11
9327.2344154709444
 21
8152.2344180000064
 31
0.0
  0
LINE
  5
11E31
  8
0-1
  6
CONTINUOUS
 62
     3
 10
9312.2326334709396
 20
6291.1885390000007
 30
0.0
 11
9312.2326334709396
 21
8152.2344180000064
 31
0.0
  0
LINE
  5
11E32
  8
0-1
  6
CONTINUOUS
 62
     3
 10
9713.2345994709522
 20
6291.1885390000007
 30
0.0
 11
9713.2345994709522
 21
8152.2344180000064
 31
0.0
  0
LINE
  5
11E33
  8
0-1
  6
CONTINUOUS
 62
     3
 10
9728.2334124709523
 20
6291.1885390000007
 30
0.0
 11
9728.2334124709523
 21
8152.2344180000064
 31
0.0
  0
LINE
  5
11E34
  8
0-1
  6
CONTINUOUS
 62
     3
 10
11412.233623470929
 20
6291.1885390000007
 30
0.0
 11
11412.233623470929
 21
8152.2344180000064
 31
0.0
  0
LINE
  5
11E35
  8
0-1
  6
CONTINUOUS
 62
     3
 10
11427.23342547094
 20
6291.1885390000007
 30
0.0
 11
11427.23342547094
 21
8152.2344180000064
 31
0.0
  0
LINE
  5
11E36
  8
0-1
  6
CONTINUOUS
 62
     3
 10
10930.23470547095
 20
6291.1885390000007
 30
0.0
 11
10930.23470547095
 21
8152.2344180000064
 31
0.0
  0
LINE
  5
11E37
  8
0-1
  6
CONTINUOUS
 62
     3
 10
10910.233649470951
 20
6291.1885390000007
 30
0.0
 11
10910.233649470951
 21
8152.2344180000064
 31
0.0
  0
LINE
  5
11E38
  8
0-1
  6
CONTINUOUS
 62
     3
 10
10980.23338547094
 20
6291.1885390000007
 30
0.0
 11
10980.23338547094
 21
8152.2344180000064
 31
0.0
  0
LINE
  5
11E39
  8
0-1
  6
CONTINUOUS
 62
     3
 10
10860.234969470939
 20
6291.1885390000007
 30
0.0
 11
10860.234969470939
 21
8152.2344180000064
 31
0.0
  0
LINE
  5
11E3A
  8
0-1
  6
CONTINUOUS
 62
     3
 10
10727.23408547094
 20
6291.1885390000007
 30
0.0
 11
10727.23408547094
 21
8152.2344180000064
 31
0.0
  0
LINE
  5
11E3B
  8
0-1
  6
CONTINUOUS
 62
     3
 10
10712.23428347094
 20
6291.1885390000007
 30
0.0
 11
10712.23428347094
 21
8152.2344180000064
 31
0.0
  0
LINE
  5
11E3C
  8
0-1
  6
CONTINUOUS
 62
     3
 10
11113.232290470951
 20
6291.1885390000007
 30
0.0
 11
11113.232290470951
 21
8152.2344180000064
 31
0.0
  0
LINE
  5
11E3D
  8
0-1
  6
CONTINUOUS
 62
     3
 10
11128.23407147095
 20
6291.1885390000007
 30
0.0
 11
11128.23407147095
 21
8152.2344180000064
 31
0.0
  0
LINE
  5
11E3E
  8
0-1
  6
CONTINUOUS
 62
     3
 10
10428.23473147095
 20
6291.1885390000007
 30
0.0
 11
10428.23473147095
 21
8152.2344180000064
 31
0.0
  0
LINE
  5
11E3F
  8
0-1
  6
CONTINUOUS
 62
     3
 10
10413.232950470951
 20
6291.1885390000007
 30
0.0
 11
10413.232950470951
 21
8152.2344180000064
 31
0.0
  0
LINE
  5
11E40
  8
0-1
  6
CONTINUOUS
 62
     3
 10
10012.23494247095
 20
6291.1885390000007
 30
0.0
 11
10012.23494247095
 21
8152.2344180000064
 31
0.0
  0
LINE
  5
11E41
  8
0-1
  6
CONTINUOUS
 62
     3
 10
10027.23375547093
 20
6291.1885390000007
 30
0.0
 11
10027.23375547093
 21
8152.2344180000064
 31
0.0
  0
LINE
  5
11E42
  8
0-1
  6
CONTINUOUS
 62
     3
 10
10160.23265947095
 20
6291.1885390000007
 30
0.0
 11
10160.23265947095
 21
8152.2344180000064
 31
0.0
  0
LINE
  5
11E43
  8
0-1
  6
CONTINUOUS
 62
     3
 10
10280.23404547095
 20
6291.1885390000007
 30
0.0
 11
10280.23404547095
 21
8152.2344180000064
 31
0.0
  0
LINE
  5
11E44
  8
0-1
  6
CONTINUOUS
 62
     3
 10
10210.234309470939
 20
6291.1885390000007
 30
0.0
 11
10210.234309470939
 21
8152.2344180000064
 31
0.0
  0
LINE
  5
11E45
  8
0-1
  6
CONTINUOUS
 62
     3
 10
10230.23338547095
 20
6291.1885390000007
 30
0.0
 11
10230.23338547095
 21
8152.2344180000064
 31
0.0
  0
LINE
  5
11E46
  8
0-1
  6
CONTINUOUS
 62
     3
 10
9888.7347584709532
 20
8152.2344180000064
 30
0.0
 11
9888.7347584709532
 21
6291.1885390000007
 31
0.0
  0
LINE
  5
11E47
  8
0-1
  6
CONTINUOUS
 62
     3
 10
9851.7335964709564
 20
8152.2344180000064
 30
0.0
 11
9851.7335964709564
 21
6291.1885390000007
 31
0.0
  0
LINE
  5
11E48
  8
0-1
  6
CONTINUOUS
 62
     3
 10
11288.73244847095
 20
8152.2344180000064
 30
0.0
 11
11288.73244847095
 21
6291.1885390000007
 31
0.0
  0
LINE
  5
11E49
  8
0-1
  6
CONTINUOUS
 62
     3
 10
11251.733266470939
 20
8152.2344180000064
 30
0.0
 11
11251.733266470939
 21
6291.1885390000007
 31
0.0
  0
LINE
  5
11E4A
  8
0-1
  6
CONTINUOUS
 62
     3
 10
10588.734098470941
 20
8152.2344180000064
 30
0.0
 11
10588.734098470941
 21
6291.1885390000007
 31
0.0
  0
LINE
  5
11E4B
  8
0-1
  6
CONTINUOUS
 62
     3
 10
10551.733926470941
 20
8152.2344180000064
 30
0.0
 11
10551.733926470941
 21
6291.1885390000007
 31
0.0
  0
LINE
  5
11E4C
  8
0-1
  6
CONTINUOUS
 62
     3
 10
22741.50877358517
 20
6241.1883740000021
 30
0.0
 11
22641.509432585161
 21
6241.1883740000021
 31
0.0
  0
LINE
  5
11E4D
  8
0-1
  6
CONTINUOUS
 62
     3
 10
22641.509432585161
 20
6241.1883740000021
 30
0.0
 11
22641.509432585161
 21
6141.1885390000007
 31
0.0
  0
LINE
  5
11E4E
  8
0-1
  6
CONTINUOUS
 62
     3
 10
22741.50877358517
 20
6141.1885390000007
 30
0.0
 11
22741.50877358517
 21
6241.1883740000021
 31
0.0
  0
LINE
  5
11E4F
  8
0-1
  6
CONTINUOUS
 62
     3
 10
22649.009828585142
 20
8459.6884660000014
 30
0.0
 11
22649.009828585142
 21
6241.1883740000021
 31
0.0
  0
LINE
  5
11E50
  8
0-1
  6
CONTINUOUS
 62
     3
 10
22597.510092585158
 20
8132.6883740000021
 30
0.0
 11
22597.510092585158
 21
6141.1885390000007
 31
0.0
  0
LINE
  5
11E51
  8
0-1
  6
CONTINUOUS
 62
     3
 10
22714.01128058516
 20
8589.6883999999973
 30
0.0
 11
22714.01128058516
 21
6241.1883740000021
 31
0.0
  0
LINE
  5
11E52
  8
0-1
  6
CONTINUOUS
 62
     3
 10
22734.010092585158
 20
8459.6884660000014
 30
0.0
 11
22734.010092585158
 21
6241.1883740000021
 31
0.0
  0
LINE
  5
11E53
  8
0-1
  6
CONTINUOUS
 62
     3
 10
19688.010092585158
 20
8264.0026619999971
 30
0.0
 11
19731.010092585158
 21
8264.0026619999971
 31
0.0
  0
LINE
  5
11E54
  8
0-1
  6
CONTINUOUS
 62
     3
 10
19723.50745358516
 20
6241.1883740000021
 30
0.0
 11
19823.506793585169
 21
6241.1883740000021
 31
0.0
  0
LINE
  5
11E55
  8
0-1
  6
CONTINUOUS
 62
     3
 10
19823.506793585169
 20
6241.1883740000021
 30
0.0
 11
19823.506793585169
 21
6141.1885390000007
 31
0.0
  0
LINE
  5
11E56
  8
0-1
  6
CONTINUOUS
 62
     3
 10
19723.50745358516
 20
6141.1885390000007
 30
0.0
 11
19723.50745358516
 21
6241.1883740000021
 31
0.0
  0
LINE
  5
11E57
  8
0-1
  6
CONTINUOUS
 62
     3
 10
19867.510092585158
 20
8132.6883740000021
 30
0.0
 11
19867.510092585158
 21
6141.1885390000007
 31
0.0
  0
LINE
  5
11E58
  8
0-1
  6
CONTINUOUS
 62
     3
 10
19816.006397585181
 20
8459.6884660000014
 30
0.0
 11
19816.006397585181
 21
6241.1883740000021
 31
0.0
  0
LINE
  5
11E59
  8
0-1
  6
CONTINUOUS
 62
     3
 10
19751.006925585149
 20
8589.6883999999973
 30
0.0
 11
19751.006925585149
 21
6241.1883740000021
 31
0.0
  0
LINE
  5
11E5A
  8
0-1
  6
CONTINUOUS
 62
     3
 10
19731.010092585158
 20
8459.6884660000014
 30
0.0
 11
19731.010092585158
 21
6241.1883740000021
 31
0.0
  0
LINE
  5
11E5B
  8
0-1
  6
CONTINUOUS
 62
     3
 10
11738.73357047094
 20
6241.1883740000021
 30
0.0
 11
11738.73357047094
 21
6141.1885390000007
 31
0.0
  0
LINE
  5
11E5C
  8
0-1
  6
CONTINUOUS
 62
     3
 10
11706.232779470931
 20
8455.5174490000027
 30
0.0
 11
11706.232779470931
 21
6241.1883740000021
 31
0.0
  0
LINE
  5
11E5D
  8
0-1
  6
CONTINUOUS
 62
     3
 10
11726.23357047094
 20
8456.0984379999973
 30
0.0
 11
11726.23357047094
 21
6241.1883740000021
 31
0.0
  0
LINE
  5
11E5E
  8
0-1
  6
CONTINUOUS
 62
     3
 10
11611.23370247093
 20
8152.2344180000064
 30
0.0
 11
11611.23370247093
 21
6241.1883740000021
 31
0.0
  0
LINE
  5
11E5F
  8
0-1
  6
CONTINUOUS
 62
     3
 10
9116.233570470944
 20
8356.9898809999977
 30
0.0
 11
9116.233570470944
 21
8152.2344180000064
 31
0.0
  0
LINE
  5
11E60
  8
0-1
  6
CONTINUOUS
 62
     3
 10
9043.7337024709523
 20
8152.2344180000064
 30
0.0
 11
9043.7337024709523
 21
6241.1883740000021
 31
0.0
  0
LINE
  5
11E61
  8
0-1
  6
CONTINUOUS
 62
     3
 10
9188.7324484709425
 20
8152.2344180000064
 30
0.0
 11
9188.7324484709425
 21
6241.1883740000021
 31
0.0
  0
LINE
  5
11E62
  8
0-1
  6
CONTINUOUS
 62
     3
 10
9188.7324484709425
 20
6291.1885390000007
 30
0.0
 11
11611.23370247093
 21
6291.1885390000007
 31
0.0
  0
LINE
  5
11E63
  8
0-1
  6
CONTINUOUS
 62
     3
 10
19867.510092585158
 20
6661.1892649999991
 30
0.0
 11
22597.510092585158
 21
6661.1892649999991
 31
0.0
  0
LINE
  5
11E64
  8
0-1
  6
CONTINUOUS
 62
     3
 10
19867.510092585158
 20
6596.1888030000027
 30
0.0
 11
22597.510092585158
 21
6596.1888030000027
 31
0.0
  0
LINE
  5
11E65
  8
0-1
  6
CONTINUOUS
 62
     3
 10
19867.510092585158
 20
6531.1888360000003
 30
0.0
 11
22597.510092585158
 21
6531.1888360000003
 31
0.0
  0
LINE
  5
11E66
  8
0-1
  6
CONTINUOUS
 62
     3
 10
19867.510092585158
 20
6466.1883740000039
 30
0.0
 11
22597.510092585158
 21
6466.1883740000039
 31
0.0
  0
LINE
  5
11E67
  8
0-1
  6
CONTINUOUS
 62
     3
 10
19867.510092585158
 20
6401.1889020000071
 30
0.0
 11
22597.510092585158
 21
6401.1889020000071
 31
0.0
  0
LINE
  5
11E68
  8
0-1
  6
CONTINUOUS
 62
     3
 10
19867.510092585158
 20
6336.1889349999956
 30
0.0
 11
22597.510092585158
 21
6336.1889349999956
 31
0.0
  0
LINE
  5
11E69
  8
0-1
  6
CONTINUOUS
 62
     3
 10
19867.510092585158
 20
6271.1889680000004
 30
0.0
 11
22597.510092585158
 21
6271.1889680000004
 31
0.0
  0
LINE
  5
11E6A
  8
0-1
  6
CONTINUOUS
 62
     3
 10
19867.510092585158
 20
6206.1885060000041
 30
0.0
 11
22597.510092585158
 21
6206.1885060000041
 31
0.0
  0
LINE
  5
11E6B
  8
0-1
  6
CONTINUOUS
 62
     3
 10
19867.510092585158
 20
8026.1885719999982
 30
0.0
 11
22597.510092585158
 21
8026.1885719999982
 31
0.0
  0
LINE
  5
11E6C
  8
0-1
  6
CONTINUOUS
 62
     3
 10
19867.510092585158
 20
7961.1886050000021
 30
0.0
 11
22597.510092585158
 21
7961.1886050000021
 31
0.0
  0
LINE
  5
11E6D
  8
0-1
  6
CONTINUOUS
 62
     3
 10
19867.510092585158
 20
7896.1891330000062
 30
0.0
 11
22597.510092585158
 21
7896.1891330000062
 31
0.0
  0
LINE
  5
11E6E
  8
0-1
  6
CONTINUOUS
 62
     3
 10
19867.510092585158
 20
7831.1891659999937
 30
0.0
 11
22597.510092585158
 21
7831.1891659999937
 31
0.0
  0
LINE
  5
11E6F
  8
0-1
  6
CONTINUOUS
 62
     3
 10
19867.510092585158
 20
7766.1891989999967
 30
0.0
 11
22597.510092585158
 21
7766.1891989999967
 31
0.0
  0
LINE
  5
11E70
  8
0-1
  6
CONTINUOUS
 62
     3
 10
19867.510092585158
 20
7701.1887370000022
 30
0.0
 11
22597.510092585158
 21
7701.1887370000022
 31
0.0
  0
LINE
  5
11E71
  8
0-1
  6
CONTINUOUS
 62
     3
 10
19867.510092585158
 20
7636.1887699999979
 30
0.0
 11
22597.510092585158
 21
7636.1887699999979
 31
0.0
  0
LINE
  5
11E72
  8
0-1
  6
CONTINUOUS
 62
     3
 10
19867.510092585158
 20
7571.1892980000011
 30
0.0
 11
22597.510092585158
 21
7571.1892980000011
 31
0.0
  0
LINE
  5
11E73
  8
0-1
  6
CONTINUOUS
 62
     3
 10
19867.510092585158
 20
7506.1893309999978
 30
0.0
 11
22597.510092585158
 21
7506.1893309999978
 31
0.0
  0
LINE
  5
11E74
  8
0-1
  6
CONTINUOUS
 62
     3
 10
19867.510092585158
 20
7441.1888690000023
 30
0.0
 11
22597.510092585158
 21
7441.1888690000023
 31
0.0
  0
LINE
  5
11E75
  8
0-1
  6
CONTINUOUS
 62
     3
 10
19867.510092585158
 20
7376.188901999999
 30
0.0
 11
22597.510092585158
 21
7376.188901999999
 31
0.0
  0
LINE
  5
11E76
  8
0-1
  6
CONTINUOUS
 62
     3
 10
19867.510092585158
 20
7311.1889350000029
 30
0.0
 11
22597.510092585158
 21
7311.1889350000029
 31
0.0
  0
LINE
  5
11E77
  8
0-1
  6
CONTINUOUS
 62
     3
 10
19867.510092585158
 20
7246.1884730000029
 30
0.0
 11
22597.510092585158
 21
7246.1884730000029
 31
0.0
  0
LINE
  5
11E78
  8
0-1
  6
CONTINUOUS
 62
     3
 10
19867.510092585158
 20
7181.1885060000041
 30
0.0
 11
22597.510092585158
 21
7181.1885060000041
 31
0.0
  0
LINE
  5
11E79
  8
0-1
  6
CONTINUOUS
 62
     3
 10
19867.510092585158
 20
7116.1890340000009
 30
0.0
 11
22597.510092585158
 21
7116.1890340000009
 31
0.0
  0
LINE
  5
11E7A
  8
0-1
  6
CONTINUOUS
 62
     3
 10
19867.510092585158
 20
7051.1890669999966
 30
0.0
 11
22597.510092585158
 21
7051.1890669999966
 31
0.0
  0
LINE
  5
11E7B
  8
0-1
  6
CONTINUOUS
 62
     3
 10
19867.510092585158
 20
6986.1891000000032
 30
0.0
 11
22597.510092585158
 21
6986.1891000000032
 31
0.0
  0
LINE
  5
11E7C
  8
0-1
  6
CONTINUOUS
 62
     3
 10
19867.510092585158
 20
6921.1886380000051
 30
0.0
 11
22597.510092585158
 21
6921.1886380000051
 31
0.0
  0
LINE
  5
11E7D
  8
0-1
  6
CONTINUOUS
 62
     3
 10
19867.510092585158
 20
6856.1886710000017
 30
0.0
 11
22597.510092585158
 21
6856.1886710000017
 31
0.0
  0
LINE
  5
11E7E
  8
0-1
  6
CONTINUOUS
 62
     3
 10
19867.510092585158
 20
6791.1891989999967
 30
0.0
 11
22597.510092585158
 21
6791.1891989999967
 31
0.0
  0
LINE
  5
11E7F
  8
0-1
  6
CONTINUOUS
 62
     3
 10
19867.510092585158
 20
6726.1892320000024
 30
0.0
 11
22597.510092585158
 21
6726.1892320000024
 31
0.0
  0
LINE
  5
11E80
  8
0-1
  6
CONTINUOUS
 62
     3
 10
19867.510092585158
 20
8080.6485920000023
 30
0.0
 11
22597.510092585158
 21
8080.6485920000023
 31
0.0
  0
LINE
  5
11E81
  8
0-1
  6
CONTINUOUS
 62
     3
 10
19723.50745358516
 20
6141.1885390000007
 30
0.0
 11
26102.988468710359
 21
6141.1885390000007
 31
0.0
  0
LINE
  5
11E82
  8
0-1
  6
CONTINUOUS
 62
     3
 10
6498.7335704709431
 20
6141.1885390000007
 30
0.0
 11
6498.7335704709431
 21
6241.1883740000021
 31
0.0
  0
LINE
  5
11E83
  8
0-1
  6
CONTINUOUS
 62
     3
 10
6526.2333724709461
 20
8268.990877000002
 30
0.0
 11
6526.2333724709461
 21
6241.1883740000021
 31
0.0
  0
LINE
  5
11E84
  8
0-1
  6
CONTINUOUS
 62
     3
 10
6506.233570470944
 20
8268.3741496838102
 30
0.0
 11
6506.233570470944
 21
6241.1883740000021
 31
0.0
  0
LINE
  5
11E85
  8
0-1
  6
CONTINUOUS
 62
     3
 10
6498.7335704709431
 20
6241.1883740000021
 30
0.0
 11
11738.73357047094
 21
6241.1883740000021
 31
0.0
  0
LINE
  5
11E86
  8
0-1
  6
CONTINUOUS
 62
     3
 10
6621.232449470951
 20
6291.1885390000007
 30
0.0
 11
9043.7337024709523
 21
6291.1885390000007
 31
0.0
  0
LINE
  5
11E87
  8
0-1
  6
CONTINUOUS
 62
     3
 10
5816.2325154709433
 20
6141.1885390000007
 30
0.0
 11
11738.73357047094
 21
6141.1885390000007
 31
0.0
  0
LINE
  5
11E88
  8
0-1
  6
CONTINUOUS
 62
     3
 10
6526.2333724709461
 20
8152.2344180000064
 30
0.0
 11
11706.232779470931
 21
8152.2344180000064
 31
0.0
  0
LINE
  5
11E89
  8
0-1
  6
CONTINUOUS
 62
     3
 10
19842.00935358517
 20
8335.1891200000064
 30
0.0
 11
20119.438883585171
 21
8335.1891200000064
 31
0.0
  0
LINE
  5
11E8A
  8
0-1
  6
CONTINUOUS
 62
     3
 10
19842.00935358517
 20
8377.1885650000022
 30
0.0
 11
20151.435821585172
 21
8377.1885650000022
 31
0.0
  0
LINE
  5
11E8B
  8
0-1
  6
CONTINUOUS
 62
     3
 10
19837.009090585161
 20
8340.1888889999937
 30
0.0
 11
19837.009090585161
 21
8372.1892910000006
 31
0.0
  0
LINE
  5
11E8C
  8
0-1
  6
CONTINUOUS
 62
     3
 10
19816.006397585181
 20
8386.1884470000077
 30
0.0
 11
22649.009828585142
 21
8386.1884470000077
 31
0.0
  0
LINE
  5
11E8D
  8
0-1
  6
CONTINUOUS
 62
     3
 10
20122.97232358516
 20
8336.6529740000005
 30
0.0
 11
20154.973221585169
 21
8368.653376000002
 31
0.0
  0
LINE
  5
11E8E
  8
0-1
  6
CONTINUOUS
 62
     3
 10
19837.009090585161
 20
8368.7889730000006
 30
0.0
 11
20155.101889585148
 21
8368.7889730000006
 31
0.0
  0
LINE
  5
11E8F
  8
0-1
  6
CONTINUOUS
 62
     3
 10
19837.009090585161
 20
8360.3888860000006
 30
0.0
 11
20146.708731585171
 21
8360.3888860000006
 31
0.0
  0
LINE
  5
11E90
  8
0-1
  6
CONTINUOUS
 62
     3
 10
19837.009090585161
 20
8351.9892939999972
 30
0.0
 11
20138.309633585159
 21
8351.9892939999972
 31
0.0
  0
LINE
  5
11E91
  8
0-1
  6
CONTINUOUS
 62
     3
 10
19837.009090585161
 20
8343.5892070000027
 30
0.0
 11
20129.906577585181
 21
8343.5892070000027
 31
0.0
  0
LINE
  5
11E92
  8
0-1
  6
CONTINUOUS
 62
     3
 10
22628.00911658517
 20
8368.7889730000006
 30
0.0
 11
22309.916316585161
 21
8368.7889730000006
 31
0.0
  0
LINE
  5
11E93
  8
0-1
  6
CONTINUOUS
 62
     3
 10
22628.00911658517
 20
8360.3888860000006
 30
0.0
 11
22318.311454585171
 21
8360.3888860000006
 31
0.0
  0
LINE
  5
11E94
  8
0-1
  6
CONTINUOUS
 62
     3
 10
22628.00911658517
 20
8351.9892939999972
 30
0.0
 11
22326.710551585151
 21
8351.9892939999972
 31
0.0
  0
LINE
  5
11E95
  8
0-1
  6
CONTINUOUS
 62
     3
 10
22628.00911658517
 20
8343.5892070000027
 30
0.0
 11
22335.10964958516
 21
8343.5892070000027
 31
0.0
  0
LINE
  5
11E96
  8
0-1
  6
CONTINUOUS
 62
     3
 10
22623.008852585161
 20
8377.1885650000022
 30
0.0
 11
22313.582384585141
 21
8377.1885650000022
 31
0.0
  0
LINE
  5
11E97
  8
0-1
  6
CONTINUOUS
 62
     3
 10
22623.008852585161
 20
8335.1891200000064
 30
0.0
 11
22345.57932358516
 21
8335.1891200000064
 31
0.0
  0
LINE
  5
11E98
  8
0-1
  6
CONTINUOUS
 62
     3
 10
22628.00911658517
 20
8340.1888889999937
 30
0.0
 11
22628.00911658517
 21
8372.1892910000006
 31
0.0
  0
LINE
  5
11E99
  8
0-1
  6
CONTINUOUS
 62
     3
 10
22342.043902585159
 20
8336.6529740000005
 30
0.0
 11
22310.04696458517
 21
8368.653376000002
 31
0.0
  0
LINE
  5
11E9A
  8
0-1
  6
CONTINUOUS
 62
     3
 10
6331.9317464709457
 20
8303.1736990000027
 30
0.0
 11
11811.92323547094
 21
8498.6897600000066
 31
0.0
  0
LINE
  5
11E9B
  8
0-1
  6
CONTINUOUS
 62
     3
 10
11810.422760470939
 20
8548.6686450000016
 30
0.0
 11
6330.4322614709417
 21
8353.151595000003
 31
0.0
  0
LINE
  5
11E9C
  8
0-1
  6
CONTINUOUS
 62
     3
 10
6327.3422334709494
 20
8356.0604969999968
 30
0.0
 11
6326.382166470944
 21
8388.0460529999982
 31
0.0
  0
LINE
  5
11E9D
  8
0-1
  6
CONTINUOUS
 62
     3
 10
6331.230997470946
 20
8393.1932959999976
 30
0.0
 11
11830.19221247094
 21
8589.2804480000032
 31
0.0
  0
LINE
  5
11E9E
  8
0-1
  6
CONTINUOUS
 62
     3
 10
11834.09681247094
 20
8459.338910000004
 30
0.0
 11
6335.1316384709462
 21
8263.2522529999969
 31
0.0
  0
LINE
  5
11E9F
  8
0-1
  6
CONTINUOUS
 62
     3
 10
6329.9839004709474
 20
8268.099599000001
 30
0.0
 11
6329.024823470947
 21
8300.0856499999973
 31
0.0
  0
LINE
  5
11EA0
  8
0-1
  6
CONTINUOUS
 62
     3
 10
6328.6932544709452
 20
8311.0803909999977
 30
0.0
 11
6327.6728124709434
 21
8345.0647660000086
 31
0.0
  0
LINE
  5
11EA1
  8
0-1
  6
CONTINUOUS
 62
     3
 10
6330.5817154709484
 20
8348.1538049999999
 30
0.0
 11
11810.57419347094
 21
8543.6713500000023
 31
0.0
  0
LINE
  5
11EA2
  8
0-1
  6
CONTINUOUS
 62
     3
 10
11811.77378147094
 20
8503.6880440000004
 30
0.0
 11
6331.7832834709443
 21
8308.1719839999969
 31
0.0
  0
LINE
  5
11EA3
  8
0-1
  6
CONTINUOUS
 62
     3
 10
9116.233570470944
 20
8356.9898809999977
 30
0.0
 11
9112.3309494709483
 21
8486.9314189999968
 31
0.0
  0
LINE
  5
11EA4
  8
0-1
  6
CONTINUOUS
 62
     3
 10
11801.129910470931
 20
8458.3481610000017
 30
0.0
 11
11797.228279470941
 21
8588.2896989999972
 31
0.0
  0
LINE
  5
11EA5
  8
0-1
  6
CONTINUOUS
 62
     3
 10
6343.7237394709446
 20
8393.5684149999979
 30
0.0
 11
6347.6263604709457
 21
8263.6273720000008
 31
0.0
  0
LINE
  5
11EA6
  8
0-2
  6
CONTINUOUS
 62
     4
 10
21596.198133085159
 20
6888.415233000007
 30
0.0
 11
21496.198793085161
 21
6888.415233000007
 31
0.0
  0
LINE
  5
11EA7
  8
0-2
  6
CONTINUOUS
 62
     4
 10
20868.814133085161
 20
6888.415233000007
 30
0.0
 11
20968.813473085149
 21
6888.415233000007
 31
0.0
  0
LINE
  5
11EA8
  8
0-5
  6
CONTINUOUS
 62
     4
 10
22691.510092585158
 20
4461.1889349999938
 30
0.0
 11
22691.510092585158
 21
4301.1893970000001
 31
0.0
  0
LINE
  5
11EA9
  8
0-5
  6
CONTINUOUS
 62
     4
 10
17551.63707258517
 20
6349.0350210000024
 30
0.0
 11
17671.635488585162
 21
6141.1885390000007
 31
0.0
  0
LINE
  5
11EAA
  8
0-5
  6
CONTINUOUS
 62
     4
 10
13443.818558470941
 20
6241.1883740000021
 30
0.0
 11
13563.81895447094
 21
6449.0353509999959
 31
0.0
  0
LINE
  5
11EAB
  8
0-5
  6
CONTINUOUS
 62
     4
 10
13323.82014147094
 20
6449.0353509999959
 30
0.0
 11
13443.818558470941
 21
6241.1883740000021
 31
0.0
  0
LINE
  5
11EAC
  8
0-5
  6
CONTINUOUS
 62
     4
 10
13563.81895447094
 20
6449.0353509999959
 30
0.0
 11
13323.82014147094
 21
6449.0353509999959
 31
0.0
  0
LINE
  5
11EAD
  8
0-5
  6
CONTINUOUS
 62
     4
 10
11818.73086547094
 20
6241.1883740000021
 30
0.0
 11
13536.19675147093
 21
6241.1883740000021
 31
0.0
  0
LINE
  5
11EAE
  8
0-5
  6
CONTINUOUS
 62
     4
 10
11818.73086547094
 20
6141.1885390000007
 30
0.0
 11
19643.509169585159
 21
6141.1885390000007
 31
0.0
  0
LINE
  5
11EAF
  8
0-5
  6
CONTINUOUS
 62
     4
 10
17671.635488585162
 20
6141.1885390000007
 30
0.0
 11
17791.635884585161
 21
6349.0350210000024
 31
0.0
  0
LINE
  5
11EB0
  8
0-5
  6
CONTINUOUS
 62
     4
 10
17791.635884585161
 20
6349.0350210000024
 30
0.0
 11
17551.63707258517
 21
6349.0350210000024
 31
0.0
  0
LINE
  5
11EB1
  8
0-5
  6
CONTINUOUS
 62
     4
 10
19773.510092585158
 20
4461.1889349999938
 30
0.0
 11
19773.510092585158
 21
4301.1893970000001
 31
0.0
  0
LINE
  5
11EB2
  8
0-5
  6
CONTINUOUS
 62
     4
 10
11683.733570470929
 20
4461.1889349999938
 30
0.0
 11
11683.733570470929
 21
4301.1893970000001
 31
0.0
  0
LINE
  5
11EB3
  8
0-5
  6
CONTINUOUS
 62
     4
 10
9116.233570470944
 20
4461.1889349999938
 30
0.0
 11
9116.233570470944
 21
4301.1893970000001
 31
0.0
  0
LINE
  5
11EB4
  8
0-5
  6
CONTINUOUS
 62
     4
 10
6548.7335704709431
 20
4461.1889349999938
 30
0.0
 11
6548.7335704709431
 21
4301.1893970000001
 31
0.0
  0
LINE
  5
11EB5
  8
2-0
  6
CENTER2
 62
     6
 10
22691.510092585158
 20
5878.536116000002
 30
0.0
 11
22691.510092585158
 21
6915.6791430000003
 31
0.0
  0
LINE
  5
11EB6
  8
2-0
  6
CENTER2
 62
     6
 10
19773.510092585158
 20
5878.536116000002
 30
0.0
 11
19773.510092585158
 21
6915.6791430000003
 31
0.0
  0
LINE
  5
11EB7
  8
2-0
  6
CENTER2
 62
     6
 10
11683.733570470929
 20
5878.536116000002
 30
0.0
 11
11683.733570470929
 21
6935.6787139999988
 31
0.0
  0
LINE
  5
11EB8
  8
2-0
  6
CENTER2
 62
     6
 10
9116.233570470944
 20
5878.536116000002
 30
0.0
 11
9116.233570470944
 21
6935.6787139999988
 31
0.0
  0
LINE
  5
11EB9
  8
2-0
  6
CENTER2
 62
     6
 10
6548.7335704709431
 20
5878.536116000002
 30
0.0
 11
6548.7335704709431
 21
6935.6787139999988
 31
0.0
  0
ARC
  5
11EBA
  8
0-1
  6
CONTINUOUS
 62
     3
 10
19842.00935358517
 20
8372.1892910000006
 30
0.0
 40
5.0
 50
90.0
 51
180.0
  0
ARC
  5
11EBB
  8
0-1
  6
CONTINUOUS
 62
     3
 10
19842.00935358517
 20
8340.1888889999937
 30
0.0
 40
5.0
 50
180.0
 51
269.9999850001808
  0
ARC
  5
11EBC
  8
0-1
  6
CONTINUOUS
 62
     3
 10
20119.438883585171
 20
8340.1888889999937
 30
0.0
 40
5.0
 50
269.9999850001808
 51
314.99998500026879
  0
ARC
  5
11EBD
  8
0-1
  6
CONTINUOUS
 62
     3
 10
20151.435821585172
 20
8372.1892910000006
 30
0.0
 40
5.0
 50
314.99998500026879
 51
90.0
  0
ARC
  5
11EBE
  8
0-1
  6
CONTINUOUS
 62
     3
 10
22623.008852585161
 20
8340.1888889999937
 30
0.0
 40
5.0
 50
269.9999850001808
 51
0.0
  0
ARC
  5
11EBF
  8
0-1
  6
CONTINUOUS
 62
     3
 10
22623.008852585161
 20
8372.1892910000006
 30
0.0
 40
5.0
 50
0.0
 51
90.0
  0
ARC
  5
11EC0
  8
0-1
  6
CONTINUOUS
 62
     3
 10
22313.582384585141
 20
8372.1892910000006
 30
0.0
 40
5.0
 50
90.0
 51
224.99998499998549
  0
ARC
  5
11EC1
  8
0-1
  6
CONTINUOUS
 62
     3
 10
22345.57932358516
 20
8340.1888889999937
 30
0.0
 40
5.0
 50
224.99998499998549
 51
269.9999850001808
  0
ARC
  5
11EC2
  8
0-1
  6
CONTINUOUS
 62
     3
 10
11811.17299747094
 20
8523.680191999998
 30
0.0
 40
24.999998999999999
 50
271.71998600002632
 51
91.719986000026395
  0
ARC
  5
11EC3
  8
0-1
  6
CONTINUOUS
 62
     3
 10
6330.342193470944
 20
8356.1505650000017
 30
0.0
 40
3.0
 50
181.71998600002601
 51
271.71998600002632
  0
ARC
  5
11EC4
  8
0-1
  6
CONTINUOUS
 62
     3
 10
6331.379461470945
 20
8388.1955070000022
 30
0.0
 40
5.0
 50
91.719986000026395
 51
181.71998600002601
  0
ARC
  5
11EC5
  8
0-1
  6
CONTINUOUS
 62
     3
 10
11806.17570347093
 20
8523.5297490000066
 30
0.0
 40
69.999999000000003
 50
293.50677499976911
 51
69.933196999879755
  0
ARC
  5
11EC6
  8
0-1
  6
CONTINUOUS
 62
     3
 10
6334.9831744709491
 20
8268.2500430000073
 30
0.0
 40
5.0
 50
181.71998600002601
 51
271.71998600002632
  0
ARC
  5
11EC7
  8
0-1
  6
CONTINUOUS
 62
     3
 10
6332.0218154709473
 20
8300.1752229999984
 30
0.0
 40
3.0
 50
91.719986000026395
 51
181.71998600002601
  0
ARC
  5
11EC8
  8
0-1
  6
CONTINUOUS
 62
     3
 10
6332.0059784709447
 20
8350.697981000003
 30
0.0
 40
2.5
 50
271.71998600002632
 51
91.719986000026395
  0
ARC
  5
11EC9
  8
0-1
  6
CONTINUOUS
 62
     3
 10
6333.3560104709441
 20
8305.7178750000003
 30
0.0
 40
2.5
 50
271.71998600002632
 51
91.719986000026395
  0
ARC
  5
11ECA
  8
0-1
  6
CONTINUOUS
 62
     3
 10
6330.6717834709452
 20
8345.1553289999974
 30
0.0
 40
3.0
 50
91.719986000026395
 51
181.71998600002601
  0
ARC
  5
11ECB
  8
0-1
  6
CONTINUOUS
 62
     3
 10
11811.17299747094
 20
8523.680191999998
 30
0.0
 40
20.0
 50
271.71998600002632
 51
91.719986000026395
  0
ARC
  5
11ECC
  8
0-1
  6
CONTINUOUS
 62
     3
 10
6331.6922254709416
 20
8311.1699640000006
 30
0.0
 40
3.0
 50
181.71998600002601
 51
271.71998600002632
  0
CIRCLE
  5
11ECD
  8
0-5
  6
CONTINUOUS
 62
     4
 10
22691.510092585158
 20
4101.1882420000011
 30
0.0
 40
199.9999949999999
  0
CIRCLE
  5
11ECE
  8
0-5
  6
CONTINUOUS
 62
     4
 10
9116.233570470944
 20
4101.1882420000011
 30
0.0
 40
199.9999949999999
  0
CIRCLE
  5
11ECF
  8
0-5
  6
CONTINUOUS
 62
     4
 10
11683.733570470929
 20
4101.1882420000011
 30
0.0
 40
199.9999949999999
  0
CIRCLE
  5
11ED0
  8
0-5
  6
CONTINUOUS
 62
     4
 10
19773.510092585158
 20
4101.1882420000011
 30
0.0
 40
199.9999949999999
  0
CIRCLE
  5
11ED1
  8
0-5
  6
CONTINUOUS
 62
     4
 10
6548.7335704709431
 20
4101.1882420000011
 30
0.0
 40
199.9999949999999
  0
TEXT
  5
11ED2
  8
0-5
  6
CONTINUOUS
 62
     7
 10
22639.597217585149
 20
4011.7132600000009
 30
0.0
 40
160.0
  1
2
 72
     4
 11
22692.930550918481
 21
4091.7132600000009
 31
0.0
  0
TEXT
  5
11ED3
  8
0-5
  6
CONTINUOUS
 62
     7
 10
19163.509565585169
 20
6988.0104361594431
 30
0.0
 40
160.0
  1
(2131.5)
 50
90.0
 72
     4
 11
19083.509565585169
 21
7441.3437694927761
 31
0.0
  0
TEXT
  5
11ED4
  8
0-5
  6
CONTINUOUS
 62
     7
 10
12984.726629470941
 20
6529.0346249999966
 30
0.0
 40
160.0
  1
布基礎天端
 72
     4
 11
13443.39329613761
 21
6609.0346249999984
 31
0.0
  0
TEXT
  5
11ED5
  8
0-5
  6
CONTINUOUS
 62
     7
 10
17551.63707258517
 20
6429.0347900000024
 30
0.0
 40
160.0
  1
G.L
 72
     4
 11
17711.63707258517
 21
6509.0347900000043
 31
0.0
  0
TEXT
  5
11ED6
  8
0-5
  6
CONTINUOUS
 62
     7
 10
19721.597218585161
 20
4011.7132600000009
 30
0.0
 40
160.0
  1
1
 72
     4
 11
19748.263885251828
 21
4091.7132600000009
 31
0.0
  0
TEXT
  5
11ED7
  8
0-5
  6
CONTINUOUS
 62
     7
 10
11636.777410470941
 20
4017.9774460000021
 30
0.0
 40
160.0
  1
A
 72
     4
 11
11690.11074380428
 21
4097.9774460000026
 31
0.0
  0
TEXT
  5
11ED8
  8
0-5
  6
CONTINUOUS
 62
     7
 10
9069.2774104709424
 20
4017.9774460000021
 30
0.0
 40
160.0
  1
B
 72
     4
 11
9122.6107438042745
 21
4097.9774460000026
 31
0.0
  0
TEXT
  5
11ED9
  8
0-5
  6
CONTINUOUS
 62
     7
 10
6501.7774104709488
 20
4017.9774460000021
 30
0.0
 40
160.0
  1
C
 72
     4
 11
6555.1107438042818
 21
4097.9774460000026
 31
0.0
  0
CIRCLE
  5
11EDA
  8
0-4
  6
CONTINUOUS
 62
     4
 10
21232.508113085161
 20
6627.2449749999987
 30
0.0
 40
18.487504999999981
  0
LINE
  5
11EDB
  8
1-前柱カバ-P
 10
25449.010092585158
 20
8459.6884660000014
 30
0.0
 11
25449.010092585158
 21
6141.1885390000007
 31
0.0
  0
LINE
  5
11EDC
  8
1-前柱カバ-P
 10
25534.010092585158
 20
8589.6883999999973
 30
0.0
 11
25534.010092585158
 21
6141.1885390000007
 31
0.0
  0
LINE
  5
11EDD
  8
0-1
  6
CONTINUOUS
 62
     3
 10
25577.010092585158
 20
8459.6884660000087
 30
0.0
 11
22649.009828585142
 21
8459.6884660000014
 31
0.0
  0
LINE
  5
11EDE
  8
0-1
  6
CONTINUOUS
 62
     3
 10
22714.01128058515
 20
8589.6883999999973
 30
0.0
 11
25577.010092585158
 21
8589.6883999999973
 31
0.0
  0
LINE
  5
11EDF
  8
0-1
  6
CONTINUOUS
 62
     3
 10
25577.010092585158
 20
8264.0026620000026
 30
0.0
 11
25577.010092585158
 21
8589.6883999999973
 31
0.0
  0
LINE
  5
11EE0
  8
0-1
  6
CONTINUOUS
 62
     3
 10
25577.010092585158
 20
8264.0026620000026
 30
0.0
 11
25534.010092585158
 21
8264.0026620000026
 31
0.0
  0
LINE
  5
11EE1
  8
2-0
  6
CENTER2
 62
     6
 10
25491.510092585158
 20
5878.536116000002
 30
0.0
 11
25491.510092585158
 21
6915.6791430000003
 31
0.0
  0
LINE
  5
11EE2
  8
1-桁前P28
 10
25449.010092585158
 20
8261.1883740000048
 30
0.0
 11
22734.010092585158
 21
8261.1883740000048
 31
0.0
  0
LINE
  5
11EE3
  8
0-5
  6
CONTINUOUS
 62
     4
 10
25491.510092585158
 20
4461.1889349999938
 30
0.0
 11
25491.510092585158
 21
4301.1893970000001
 31
0.0
  0
CIRCLE
  5
11EE4
  8
0-5
  6
CONTINUOUS
 62
     4
 10
25491.510092585158
 20
4101.1882420000011
 30
0.0
 40
199.9999949999999
  0
TEXT
  5
11EE5
  8
0-5
  6
CONTINUOUS
 62
     7
 10
25439.597217585178
 20
4011.7132600000009
 30
0.0
 40
160.0
  1
3
 72
     4
 11
25492.930550918511
 21
4091.7132600000009
 31
0.0
  0
TEXT
  5
11EE6
  8
0-5
  6
CONTINUOUS
 62
     7
 10
26983.835262879551
 20
7235.8515268217006
 30
0.0
 40
160.0
  1
(2260)
 50
90.0
 72
     4
 11
26903.835262879551
 21
7622.5181934883667
 31
0.0
  0
LINE
  5
11EE7
  8
SUNPOU
  6
CONTINUOUS
 10
6326.233570470944
 20
9389.1900500000029
 30
0.0
 11
5821.4457005775294
 21
9389.1900500000029
 31
0.0
  0
LINE
  5
12042
  8
2-0
  6
CENTER2
 62
     6
 10
17352.011030585141
 20
19317.986251999992
 30
0.0
 11
17872.010370585162
 21
19317.986251999992
 31
0.0
  0
LINE
  5
12043
  8
2-0
  6
CENTER2
 62
     6
 10
18232.010370585162
 20
19317.986251999992
 30
0.0
 11
25817.116789537082
 21
19317.986251999992
 31
0.0
  0
LINE
  5
12044
  8
2-0
  6
CENTER2
 62
     6
 10
17352.01103058513
 20
16750.486251999992
 30
0.0
 11
17648.00044000561
 21
16750.486251999992
 31
0.0
  0
LINE
  5
12045
  8
2-0
  6
CENTER2
 62
     6
 10
18232.010370585151
 20
16750.486251999992
 30
0.0
 11
25817.116789537082
 21
16750.486251999992
 31
0.0
  0
LINE
  5
12046
  8
2-0
  6
CENTER2
 62
     6
 10
17352.011030585141
 20
14182.986252000001
 30
0.0
 11
17872.010370585162
 21
14182.986252000001
 31
0.0
  0
LINE
  5
12047
  8
2-0
  6
CENTER2
 62
     6
 10
18232.010370585162
 20
14182.986252000001
 30
0.0
 11
25817.116789537082
 21
14182.986252000001
 31
0.0
  0
CIRCLE
  5
12048
  8
0-5
  6
CONTINUOUS
 62
     4
 10
22712.511953585152
 20
21160.487175999999
 30
0.0
 40
199.9999949999999
  0
CIRCLE
  5
12049
  8
0-5
  6
CONTINUOUS
 62
     4
 10
17152.010370585151
 20
19317.986251999992
 30
0.0
 40
199.9999949999999
  0
CIRCLE
  5
1204A
  8
0-5
  6
CONTINUOUS
 62
     4
 10
17152.010370585151
 20
16750.486251999992
 30
0.0
 40
199.9999949999999
  0
CIRCLE
  5
1204B
  8
0-5
  6
CONTINUOUS
 62
     4
 10
17152.010370585151
 20
14182.986252000001
 30
0.0
 40
199.9999949999999
  0
CIRCLE
  5
1204C
  8
0-5
  6
CONTINUOUS
 62
     4
 10
19794.511953585141
 20
21160.487175999999
 30
0.0
 40
199.9999949999999
  0
TEXT
  5
1204D
  8
0-5
  6
CONTINUOUS
 62
     7
 10
22657.84160958515
 20
21074.261326000011
 30
0.0
 40
160.0
  1
2
 72
     4
 11
22711.174942918478
 21
21154.261326000011
 31
0.0
  0
TEXT
  5
1204E
  8
0-5
  6
CONTINUOUS
 62
     7
 10
19739.841609585139
 20
21074.261326000011
 30
0.0
 40
160.0
  1
1
 72
     4
 11
19766.50827625181
 21
21154.261326000011
 31
0.0
  0
TEXT
  5
1204F
  8
0-5
  6
CONTINUOUS
 62
     7
 10
17103.334008585171
 20
19226.368192999991
 30
0.0
 40
160.0
  1
C
 72
     4
 11
17156.667341918499
 21
19306.368192999991
 31
0.0
  0
TEXT
  5
12050
  8
0-5
  6
CONTINUOUS
 62
     7
 10
17103.33400858516
 20
16658.868193999999
 30
0.0
 40
160.0
  1
B
 72
     4
 11
17156.667341918492
 21
16738.868193999999
 31
0.0
  0
TEXT
  5
12051
  8
0-5
  6
CONTINUOUS
 62
     7
 10
17103.334008585171
 20
14091.368193
 30
0.0
 40
160.0
  1
A
 72
     4
 11
17156.667341918499
 21
14171.368193
 31
0.0
  0
LINE
  5
12052
  8
2-0
  6
CENTER2
 62
     6
 10
25512.511953585141
 20
20960.488495000009
 30
0.0
 11
25512.511953585141
 21
13825.23237353158
 31
0.0
  0
CIRCLE
  5
12053
  8
0-5
  6
CONTINUOUS
 62
     4
 10
25512.511953585141
 20
21160.487175999999
 30
0.0
 40
199.9999949999999
  0
TEXT
  5
12054
  8
0-5
  6
CONTINUOUS
 62
     7
 10
25457.841609585132
 20
21074.261326000011
 30
0.0
 40
160.0
  1
3
 72
     4
 11
25511.174942918471
 21
21154.261326000011
 31
0.0
  0
ARC
  5
12055
  8
1-後柱P
  6
HIDE-M
 62
     6
 10
25516.111953585139
 20
19249.936251999989
 30
0.0
 40
2.6000000000000001
 50
180.0
 51
270.0
  0
LINE
  5
12056
  8
1-後柱P
  6
HIDE-M
 62
     6
 10
25504.511953585141
 20
19247.8868618468
 30
0.0
 11
25504.511953585141
 21
19251.536252000002
 31
0.0
  0
LINE
  5
12057
  8
1-後柱P
  6
HIDE-M
 62
     6
 10
25514.511953585141
 20
19247.8868618468
 30
0.0
 11
25514.511953585141
 21
19251.536252000002
 31
0.0
  0
LINE
  5
12058
  8
1-後柱P
  6
1PL-M
 62
     6
 10
25509.511953585152
 20
19242.336252000008
 30
0.0
 11
25509.511953585152
 21
19256.536252000002
 31
0.0
  0
ARC
  5
12059
  8
1-後柱P
  6
HIDE-M
 62
     6
 10
25502.91195358515
 20
19249.936251999989
 30
0.0
 40
2.6000000000000001
 50
270.0
 51
0.0
  0
LINE
  5
1205A
  8
1-後柱P
  6
HIDE-M
 62
     6
 10
25513.511953585152
 20
19249.936251999989
 30
0.0
 11
25513.511953585152
 21
19251.536252000002
 31
0.0
  0
LINE
  5
1205B
  8
1-後柱P
  6
HIDE-M
 62
     6
 10
25505.511953585152
 20
19249.936251999989
 30
0.0
 11
25505.511953585152
 21
19251.536252000002
 31
0.0
  0
LINE
  5
1205C
  8
1-後柱P
 10
25523.411953585139
 20
19362.236251999999
 30
0.0
 11
25501.61195358515
 21
19362.236251999999
 31
0.0
  0
LINE
  5
1205D
  8
1-後柱P
 10
25471.61195358515
 20
19324.936252
 30
0.0
 11
25471.61195358515
 21
19332.236251999992
 31
0.0
  0
ARC
  5
1205E
  8
1-後柱P
 10
25501.61195358515
 20
19332.236251999992
 30
0.0
 40
30.0
 50
90.0
 51
180.0
  0
ARC
  5
1205F
  8
1-後柱P
 10
25501.61195358515
 20
19332.236251999992
 30
0.0
 40
31.600000000000001
 50
90.0
 51
180.0
  0
LINE
  5
12060
  8
1-後柱P
 10
25523.411953585139
 20
19363.836252000001
 30
0.0
 11
25501.61195358515
 21
19363.836252000001
 31
0.0
  0
LINE
  5
12061
  8
1-後柱P
 10
25470.011953585141
 20
19324.936252
 30
0.0
 11
25470.011953585141
 21
19332.236251999992
 31
0.0
  0
LINE
  5
12062
  8
1-後柱P
 10
25493.011953585141
 20
19303.336252000008
 30
0.0
 11
25493.011953585141
 21
19313.336252000001
 31
0.0
  0
LINE
  5
12063
  8
1-後柱P
 10
25494.61195358515
 20
19313.336252000001
 30
0.0
 11
25494.61195358515
 21
19303.336252000008
 31
0.0
  0
LINE
  5
12064
  8
1-後柱P
 10
25553.41195358515
 20
19324.936252
 30
0.0
 11
25553.41195358515
 21
19332.236251999992
 31
0.0
  0
ARC
  5
12065
  8
1-後柱P
 10
25523.411953585139
 20
19332.236251999992
 30
0.0
 40
30.0
 50
0.0
 51
90.0
  0
ARC
  5
12066
  8
1-後柱P
 10
25523.411953585139
 20
19332.236251999992
 30
0.0
 40
31.600000000000001
 50
0.0
 51
90.0
  0
LINE
  5
12067
  8
1-後柱P
 10
25555.011953585152
 20
19324.936252
 30
0.0
 11
25555.011953585152
 21
19332.236251999992
 31
0.0
  0
LINE
  5
12068
  8
1-後柱P
 10
25548.41195358515
 20
19318.336252000008
 30
0.0
 11
25537.011953585141
 21
19318.336252000008
 31
0.0
  0
ARC
  5
12069
  8
1-後柱P
 10
25548.41195358515
 20
19324.936252
 30
0.0
 40
6.599999999999997
 50
270.0
 51
0.0
  0
ARC
  5
1206A
  8
1-後柱P
 10
25537.011953585141
 20
19313.336252000001
 30
0.0
 40
5.0
 50
90.0
 51
180.0
  0
LINE
  5
1206B
  8
1-後柱P
 10
25548.41195358515
 20
19319.936252
 30
0.0
 11
25537.011953585141
 21
19319.936252
 31
0.0
  0
ARC
  5
1206C
  8
1-後柱P
 10
25548.41195358515
 20
19324.936252
 30
0.0
 40
5.0
 50
270.0
 51
0.0
  0
LINE
  5
1206D
  8
1-後柱P
 10
25532.011953585152
 20
19313.336252000001
 30
0.0
 11
25532.011953585152
 21
19253.936252
 31
0.0
  0
LINE
  5
1206E
  8
1-後柱P
 10
25530.41195358515
 20
19313.336252000001
 30
0.0
 11
25530.41195358515
 21
19253.936252
 31
0.0
  0
ARC
  5
1206F
  8
1-後柱P
 10
25537.011953585141
 20
19313.336252000001
 30
0.0
 40
6.599999999999997
 50
90.0
 51
180.0
  0
LINE
  5
12070
  8
1-後柱P
 10
25525.411953585139
 20
19247.336252000001
 30
0.0
 11
25492.011953585152
 21
19247.336252000001
 31
0.0
  0
ARC
  5
12071
  8
1-後柱P
 10
25525.411953585139
 20
19253.936252
 30
0.0
 40
6.599999999999997
 50
270.0
 51
0.0
  0
LINE
  5
12072
  8
1-後柱P
 10
25525.411953585139
 20
19248.936252
 30
0.0
 11
25492.011953585152
 21
19248.936252
 31
0.0
  0
ARC
  5
12073
  8
1-後柱P
 10
25525.411953585139
 20
19253.936252
 30
0.0
 40
5.0
 50
270.0
 51
0.0
  0
LINE
  5
12074
  8
1-後柱P
 10
25492.011953585152
 20
19248.936252
 30
0.0
 11
25492.011953585152
 21
19247.336252000001
 31
0.0
  0
LINE
  5
12075
  8
1-後柱P
 10
25476.61195358515
 20
19318.336252000008
 30
0.0
 11
25488.011953585152
 21
19318.336252000008
 31
0.0
  0
ARC
  5
12076
  8
1-後柱P
 10
25476.61195358515
 20
19324.936252
 30
0.0
 40
6.599999999999997
 50
180.0
 51
270.0
  0
ARC
  5
12077
  8
1-後柱P
 10
25488.011953585152
 20
19313.336252000001
 30
0.0
 40
5.0
 50
0.0
 51
90.0
  0
LINE
  5
12078
  8
1-後柱P
 10
25488.011953585152
 20
19319.936252
 30
0.0
 11
25476.61195358515
 21
19319.936252
 31
0.0
  0
ARC
  5
12079
  8
1-後柱P
 10
25488.011953585152
 20
19313.336252000001
 30
0.0
 40
6.599999999999997
 50
0.0
 51
90.0
  0
ARC
  5
1207A
  8
1-後柱P
 10
25476.61195358515
 20
19324.936252
 30
0.0
 40
5.0
 50
180.0
 51
270.0
  0
LINE
  5
1207B
  8
1-後柱P
 10
25493.011953585141
 20
19303.336252000008
 30
0.0
 11
25494.61195358515
 21
19303.336252000008
 31
0.0
  0
LINE
  5
1207C
  8
1-後柱カバ-P
 10
25470.011953585141
 20
19311.636252
 30
0.0
 11
25470.011953585141
 21
19252.336252000001
 31
0.0
  0
ARC
  5
1207D
  8
1-後柱カバ-P
 10
25476.61195358515
 20
19252.336252000001
 30
0.0
 40
6.599999999999997
 50
180.0
 51
270.0
  0
LINE
  5
1207E
  8
1-後柱カバ-P
 10
25471.61195358515
 20
19311.636252
 30
0.0
 11
25471.61195358515
 21
19252.336252000001
 31
0.0
  0
ARC
  5
1207F
  8
1-後柱カバ-P
 10
25476.61195358515
 20
19311.636252
 30
0.0
 40
5.0
 50
90.0
 51
180.0
  0
LINE
  5
12080
  8
1-後柱カバ-P
 10
25476.61195358515
 20
19245.736251999992
 30
0.0
 11
25548.41195358515
 21
19245.736251999992
 31
0.0
  0
ARC
  5
12081
  8
1-後柱カバ-P
 10
25548.41195358515
 20
19252.336252000001
 30
0.0
 40
6.599999999999997
 50
270.0
 51
0.0
  0
LINE
  5
12082
  8
1-後柱カバ-P
 10
25476.61195358515
 20
19247.336252000001
 30
0.0
 11
25548.41195358515
 21
19247.336252000001
 31
0.0
  0
ARC
  5
12083
  8
1-後柱カバ-P
 10
25548.41195358515
 20
19252.336252000001
 30
0.0
 40
5.0
 50
270.0
 51
0.0
  0
ARC
  5
12084
  8
1-後柱カバ-P
 10
25476.61195358515
 20
19252.336252000001
 30
0.0
 40
5.0
 50
180.0
 51
270.0
  0
LINE
  5
12085
  8
1-後柱カバ-P
 10
25555.011953585152
 20
19252.336252000001
 30
0.0
 11
25555.011953585152
 21
19311.636252
 31
0.0
  0
LINE
  5
12086
  8
1-後柱カバ-P
 10
25553.41195358515
 20
19252.336252000001
 30
0.0
 11
25553.41195358515
 21
19311.636252
 31
0.0
  0
ARC
  5
12087
  8
1-後柱カバ-P
 10
25548.41195358515
 20
19311.636252
 30
0.0
 40
5.0
 50
0.0
 51
90.0
  0
LINE
  5
12088
  8
1-後柱カバ-P
  6
1PL-M
 62
     6
 10
25512.511953585141
 20
19253.236251999992
 30
0.0
 11
25512.511953585141
 21
19240.236251999999
 31
0.0
  0
LINE
  5
12089
  8
1-後柱カバ-P
  6
HIDE-M
 62
     6
 10
25505.511953585152
 20
19245.736251999992
 30
0.0
 11
25505.511953585152
 21
19247.336252000001
 31
0.0
  0
LINE
  5
1208A
  8
1-後柱カバ-P
  6
HIDE-M
 62
     6
 10
25519.511953585152
 20
19245.736251999992
 30
0.0
 11
25519.511953585152
 21
19247.336252000001
 31
0.0
  0
ARC
  5
1208B
  8
1-後柱カバ-P
 10
25476.61195358515
 20
19311.636252
 30
0.0
 40
6.599999999999997
 50
90.0
 51
180.0
  0
ARC
  5
1208C
  8
1-後柱カバ-P
 10
25548.41195358515
 20
19311.636252
 30
0.0
 40
6.599999999999997
 50
0.0
 51
90.0
  0
LINE
  5
1208D
  8
1-後柱カバ-P
 10
25540.011953585152
 20
19318.236251999999
 30
0.0
 11
25548.41195358515
 21
19318.236251999999
 31
0.0
  0
LINE
  5
1208E
  8
1-後柱カバ-P
 10
25485.011953585152
 20
19318.236251999999
 30
0.0
 11
25476.61195358515
 21
19318.236251999999
 31
0.0
  0
LINE
  5
1208F
  8
1-後柱カバ-P
 10
25540.011953585152
 20
19316.636252
 30
0.0
 11
25548.41195358515
 21
19316.636252
 31
0.0
  0
LINE
  5
12090
  8
1-後柱カバ-P
 10
25485.011953585152
 20
19316.636252
 30
0.0
 11
25476.61195358515
 21
19316.636252
 31
0.0
  0
LINE
  5
12091
  8
1-後柱カバ-P
 10
25485.011953585152
 20
19316.636252
 30
0.0
 11
25485.011953585152
 21
19318.236251999999
 31
0.0
  0
LINE
  5
12092
  8
1-後柱カバ-P
 10
25540.011953585152
 20
19318.236251999999
 30
0.0
 11
25540.011953585152
 21
19316.636252
 31
0.0
  0
LINE
  5
12093
  8
1-後柱カバ-P
  6
HIDE-M
 62
     6
 10
25543.911953585139
 20
19297.236251999999
 30
0.0
 11
25555.511953585152
 21
19297.236251999999
 31
0.0
  0
LINE
  5
12094
  8
1-後柱カバ-P
  6
HIDE-M
 62
     6
 10
25543.911953585139
 20
19289.236251999992
 30
0.0
 11
25555.511953585152
 21
19289.236251999992
 31
0.0
  0
LINE
  5
12095
  8
1-後柱カバ-P
  6
HIDE-M
 62
     6
 10
25543.911953585139
 20
19296.236251999992
 30
0.0
 11
25555.511953585152
 21
19296.236251999992
 31
0.0
  0
LINE
  5
12096
  8
1-後柱カバ-P
  6
HIDE-M
 62
     6
 10
25543.911953585139
 20
19290.236251999992
 30
0.0
 11
25555.511953585152
 21
19290.236251999992
 31
0.0
  0
LINE
  5
12097
  8
1-後柱カバ-P
 10
25544.911953585161
 20
19287.736251999999
 30
0.0
 11
25551.911953585139
 21
19287.736251999999
 31
0.0
  0
LINE
  5
12098
  8
1-後柱カバ-P
 10
25551.911953585139
 20
19298.736251999992
 30
0.0
 11
25544.911953585161
 21
19298.736251999992
 31
0.0
  0
LINE
  5
12099
  8
1-後柱カバ-P
 10
25551.911953585139
 20
19299.486251999992
 30
0.0
 11
25551.911953585139
 21
19286.986251999999
 31
0.0
  0
LINE
  5
1209A
  8
1-後柱カバ-P
 10
25555.511953585152
 20
19299.236251999999
 30
0.0
 11
25555.511953585152
 21
19287.236251999992
 31
0.0
  0
LINE
  5
1209B
  8
1-後柱カバ-P
  6
HIDE-M
 62
     6
 10
25553.41195358515
 20
19287.736251999999
 30
0.0
 11
25555.011953585152
 21
19287.736251999999
 31
0.0
  0
LINE
  5
1209C
  8
1-後柱カバ-P
 10
25555.511953585152
 20
19287.236251999992
 30
0.0
 11
25555.011953585152
 21
19287.736251999999
 31
0.0
  0
ARC
  5
1209D
  8
1-後柱カバ-P
 10
25552.661953585161
 20
19286.986251999999
 30
0.0
 40
0.75
 50
180.0
 51
0.0
  0
LINE
  5
1209E
  8
1-後柱カバ-P
  6
HIDE-M
 62
     6
 10
25555.011953585152
 20
19298.736251999992
 30
0.0
 11
25553.41195358515
 21
19298.736251999992
 31
0.0
  0
LINE
  5
1209F
  8
1-後柱カバ-P
 10
25555.511953585152
 20
19299.236251999999
 30
0.0
 11
25555.011953585152
 21
19298.736251999992
 31
0.0
  0
ARC
  5
120A0
  8
1-後柱カバ-P
 10
25552.661953585161
 20
19299.486251999992
 30
0.0
 40
0.75
 50
0.0
 51
180.0
  0
LINE
  5
120A1
  8
1-後柱カバ-P
 10
25543.911953585139
 20
19297.736251999992
 30
0.0
 11
25543.911953585139
 21
19288.736251999992
 31
0.0
  0
ARC
  5
120A2
  8
1-後柱カバ-P
 10
25544.911953585161
 20
19288.736251999992
 30
0.0
 40
1.0
 50
180.0
 51
270.0
  0
ARC
  5
120A3
  8
1-後柱カバ-P
 10
25544.911953585161
 20
19297.736251999992
 30
0.0
 40
1.0
 50
90.0
 51
180.0
  0
LINE
  5
120A4
  8
1-後柱カバ-P
  6
1PL-M
 62
     6
 10
25538.91195358515
 20
19293.236251999992
 30
0.0
 11
25560.511953585152
 21
19293.236251999992
 31
0.0
  0
LINE
  5
120A5
  8
1-後柱カバ-P
 10
25544.911953585161
 20
19277.736251999999
 30
0.0
 11
25551.911953585139
 21
19277.736251999999
 31
0.0
  0
LINE
  5
120A6
  8
1-後柱カバ-P
 10
25555.511953585152
 20
19285.236251999999
 30
0.0
 11
25555.511953585152
 21
19277.236251999999
 31
0.0
  0
LINE
  5
120A7
  8
1-後柱カバ-P
  6
HIDE-M
 62
     6
 10
25553.41195358515
 20
19277.736251999999
 30
0.0
 11
25555.011953585152
 21
19277.736251999999
 31
0.0
  0
LINE
  5
120A8
  8
1-後柱カバ-P
 10
25555.511953585152
 20
19277.236251999999
 30
0.0
 11
25555.011953585152
 21
19277.736251999999
 31
0.0
  0
ARC
  5
120A9
  8
1-後柱カバ-P
 10
25552.661953585161
 20
19276.986251999992
 30
0.0
 40
0.75
 50
180.0
 51
0.0
  0
LINE
  5
120AA
  8
1-後柱カバ-P
 10
25543.911953585139
 20
19286.736251999999
 30
0.0
 11
25543.911953585139
 21
19278.736251999992
 31
0.0
  0
ARC
  5
120AB
  8
1-後柱カバ-P
 10
25544.911953585161
 20
19278.736251999992
 30
0.0
 40
1.0
 50
180.0
 51
270.0
  0
LINE
  5
120AC
  8
1-後柱カバ-P
  6
1PL-M
 62
     6
 10
25538.91195358515
 20
19283.236251999999
 30
0.0
 11
25560.511953585152
 21
19283.236251999999
 31
0.0
  0
LINE
  5
120AD
  8
1-後柱カバ-P
 10
25551.911953585139
 20
19284.986251999992
 30
0.0
 11
25551.911953585139
 21
19276.986251999992
 31
0.0
  0
LINE
  5
120AE
  8
1-後柱カバ-P
  6
HIDE-M
 62
     6
 10
25481.11195358515
 20
19297.236251999999
 30
0.0
 11
25469.511953585152
 21
19297.236251999999
 31
0.0
  0
LINE
  5
120AF
  8
1-後柱カバ-P
  6
HIDE-M
 62
     6
 10
25481.11195358515
 20
19289.236251999992
 30
0.0
 11
25469.511953585152
 21
19289.236251999992
 31
0.0
  0
LINE
  5
120B0
  8
1-後柱カバ-P
  6
HIDE-M
 62
     6
 10
25481.11195358515
 20
19296.236251999992
 30
0.0
 11
25469.511953585152
 21
19296.236251999992
 31
0.0
  0
LINE
  5
120B1
  8
1-後柱カバ-P
  6
HIDE-M
 62
     6
 10
25481.11195358515
 20
19290.236251999992
 30
0.0
 11
25469.511953585152
 21
19290.236251999992
 31
0.0
  0
LINE
  5
120B2
  8
1-後柱カバ-P
 10
25480.111953585139
 20
19287.736251999999
 30
0.0
 11
25473.11195358515
 21
19287.736251999999
 31
0.0
  0
LINE
  5
120B3
  8
1-後柱カバ-P
 10
25473.11195358515
 20
19298.736251999992
 30
0.0
 11
25480.111953585139
 21
19298.736251999992
 31
0.0
  0
LINE
  5
120B4
  8
1-後柱カバ-P
 10
25473.11195358515
 20
19299.486251999992
 30
0.0
 11
25473.11195358515
 21
19286.986251999999
 31
0.0
  0
LINE
  5
120B5
  8
1-後柱カバ-P
 10
25469.511953585152
 20
19299.236251999999
 30
0.0
 11
25469.511953585152
 21
19287.236251999992
 31
0.0
  0
LINE
  5
120B6
  8
1-後柱カバ-P
  6
HIDE-M
 62
     6
 10
25471.61195358515
 20
19287.736251999999
 30
0.0
 11
25470.011953585141
 21
19287.736251999999
 31
0.0
  0
LINE
  5
120B7
  8
1-後柱カバ-P
 10
25469.511953585152
 20
19287.236251999992
 30
0.0
 11
25470.011953585141
 21
19287.736251999999
 31
0.0
  0
ARC
  5
120B8
  8
1-後柱カバ-P
 10
25472.361953585139
 20
19286.986251999999
 30
0.0
 40
0.75
 50
180.0
 51
0.0
  0
LINE
  5
120B9
  8
1-後柱カバ-P
  6
HIDE-M
 62
     6
 10
25470.011953585141
 20
19298.736251999992
 30
0.0
 11
25471.61195358515
 21
19298.736251999992
 31
0.0
  0
LINE
  5
120BA
  8
1-後柱カバ-P
 10
25469.511953585152
 20
19299.236251999999
 30
0.0
 11
25470.011953585141
 21
19298.736251999992
 31
0.0
  0
ARC
  5
120BB
  8
1-後柱カバ-P
 10
25472.361953585139
 20
19299.486251999992
 30
0.0
 40
0.75
 50
0.0
 51
180.0
  0
LINE
  5
120BC
  8
1-後柱カバ-P
 10
25481.11195358515
 20
19297.736251999992
 30
0.0
 11
25481.11195358515
 21
19288.736251999992
 31
0.0
  0
ARC
  5
120BD
  8
1-後柱カバ-P
 10
25480.111953585139
 20
19288.736251999992
 30
0.0
 40
1.0
 50
270.0
 51
0.0
  0
ARC
  5
120BE
  8
1-後柱カバ-P
 10
25480.111953585139
 20
19297.736251999992
 30
0.0
 40
1.0
 50
0.0
 51
90.0
  0
LINE
  5
120BF
  8
1-後柱カバ-P
  6
1PL-M
 62
     6
 10
25486.11195358515
 20
19293.236251999992
 30
0.0
 11
25464.511953585141
 21
19293.236251999992
 31
0.0
  0
LINE
  5
120C0
  8
1-後柱カバ-P
 10
25480.111953585139
 20
19277.736251999999
 30
0.0
 11
25473.11195358515
 21
19277.736251999999
 31
0.0
  0
LINE
  5
120C1
  8
1-後柱カバ-P
 10
25469.511953585152
 20
19285.236251999999
 30
0.0
 11
25469.511953585152
 21
19277.236251999999
 31
0.0
  0
LINE
  5
120C2
  8
1-後柱カバ-P
  6
HIDE-M
 62
     6
 10
25471.61195358515
 20
19277.736251999999
 30
0.0
 11
25470.011953585141
 21
19277.736251999999
 31
0.0
  0
LINE
  5
120C3
  8
1-後柱カバ-P
 10
25469.511953585152
 20
19277.236251999999
 30
0.0
 11
25470.011953585141
 21
19277.736251999999
 31
0.0
  0
ARC
  5
120C4
  8
1-後柱カバ-P
 10
25472.361953585139
 20
19276.986251999992
 30
0.0
 40
0.75
 50
180.0
 51
0.0
  0
LINE
  5
120C5
  8
1-後柱カバ-P
 10
25481.11195358515
 20
19286.736251999999
 30
0.0
 11
25481.11195358515
 21
19278.736251999992
 31
0.0
  0
ARC
  5
120C6
  8
1-後柱カバ-P
 10
25480.111953585139
 20
19278.736251999992
 30
0.0
 40
1.0
 50
270.0
 51
0.0
  0
LINE
  5
120C7
  8
1-後柱カバ-P
  6
1PL-M
 62
     6
 10
25486.11195358515
 20
19283.236251999999
 30
0.0
 11
25464.511953585141
 21
19283.236251999999
 31
0.0
  0
LINE
  5
120C8
  8
1-後柱カバ-P
 10
25473.11195358515
 20
19284.986251999992
 30
0.0
 11
25473.11195358515
 21
19276.986251999992
 31
0.0
  0
LINE
  5
120C9
  8
1-後柱カバ-P
  6
HIDE-M
 62
     6
 10
25543.911953585139
 20
19279.236251999999
 30
0.0
 11
25555.511953585152
 21
19279.236251999999
 31
0.0
  0
LINE
  5
120CA
  8
1-後柱カバ-P
  6
HIDE-M
 62
     6
 10
25543.911953585139
 20
19280.236251999992
 30
0.0
 11
25555.511953585152
 21
19280.236251999992
 31
0.0
  0
LINE
  5
120CB
  8
1-後柱カバ-P
  6
HIDE-M
 62
     6
 10
25481.11195358515
 20
19279.236251999999
 30
0.0
 11
25469.511953585152
 21
19279.236251999999
 31
0.0
  0
LINE
  5
120CC
  8
1-後柱カバ-P
  6
HIDE-M
 62
     6
 10
25481.11195358515
 20
19280.236251999992
 30
0.0
 11
25469.511953585152
 21
19280.236251999992
 31
0.0
  0
LINE
  5
120CD
  8
1-中柱P
 10
25548.411953585131
 20
16679.486251999999
 30
0.0
 11
25476.611953585129
 21
16679.486251999999
 31
0.0
  0
ARC
  5
120CE
  8
1-中柱P
 10
25548.411953585131
 20
16684.486251999992
 30
0.0
 40
5.0
 50
270.0
 51
0.0
  0
ARC
  5
120CF
  8
1-中柱P
 10
25476.611953585129
 20
16684.486251999992
 30
0.0
 40
5.0
 50
180.0
 51
270.0
  0
LINE
  5
120D0
  8
1-中柱P
 10
25548.411953585131
 20
16677.886252000011
 30
0.0
 11
25476.611953585129
 21
16677.886252000011
 31
0.0
  0
ARC
  5
120D1
  8
1-中柱P
 10
25548.411953585131
 20
16684.486251999992
 30
0.0
 40
6.599999999999997
 50
270.0
 51
0.0
  0
LINE
  5
120D2
  8
1-中柱P
 10
25470.011953585141
 20
16743.786252000002
 30
0.0
 11
25470.011953585141
 21
16684.486251999992
 31
0.0
  0
ARC
  5
120D3
  8
1-中柱P
 10
25476.611953585129
 20
16684.486251999992
 30
0.0
 40
6.599999999999997
 50
180.0
 51
270.0
  0
LINE
  5
120D4
  8
1-中柱P
 10
25471.611953585129
 20
16684.486251999992
 30
0.0
 11
25471.611953585129
 21
16743.786252000002
 31
0.0
  0
ARC
  5
120D5
  8
1-中柱P
 10
25476.611953585129
 20
16743.786252000002
 30
0.0
 40
5.0
 50
90.0
 51
180.0
  0
LINE
  5
120D6
  8
1-中柱P
 10
25555.011953585152
 20
16743.786252000002
 30
0.0
 11
25555.011953585152
 21
16684.486251999992
 31
0.0
  0
LINE
  5
120D7
  8
1-中柱P
 10
25553.411953585131
 20
16684.486251999992
 30
0.0
 11
25553.411953585131
 21
16743.786252000002
 31
0.0
  0
LINE
  5
120D8
  8
1-中柱P
 10
25548.411953585131
 20
16750.386252000011
 30
0.0
 11
25540.011953585152
 21
16750.386252000011
 31
0.0
  0
ARC
  5
120D9
  8
1-中柱P
 10
25548.411953585131
 20
16743.786252000002
 30
0.0
 40
6.599999999999997
 50
0.0
 51
90.0
  0
LINE
  5
120DA
  8
1-中柱P
 10
25548.411953585131
 20
16748.786252000002
 30
0.0
 11
25540.011953585152
 21
16748.786252000002
 31
0.0
  0
ARC
  5
120DB
  8
1-中柱P
 10
25540.011953585152
 20
16755.386252000011
 30
0.0
 40
6.599999999999997
 50
180.0
 51
270.0
  0
ARC
  5
120DC
  8
1-中柱P
 10
25548.411953585131
 20
16743.786252000002
 30
0.0
 40
5.0
 50
0.0
 51
90.0
  0
LINE
  5
120DD
  8
1-中柱P
 10
25535.011953585141
 20
16755.386252000011
 30
0.0
 11
25535.011953585141
 21
16814.786252000002
 31
0.0
  0
ARC
  5
120DE
  8
1-中柱P
 10
25540.011953585152
 20
16755.386252000011
 30
0.0
 40
5.0
 50
180.0
 51
270.0
  0
LINE
  5
120DF
  8
1-中柱P
 10
25533.411953585131
 20
16755.386252000011
 30
0.0
 11
25533.411953585131
 21
16814.786252000002
 31
0.0
  0
LINE
  5
120E0
  8
1-中柱P
 10
25528.411953585131
 20
16821.386252000011
 30
0.0
 11
25495.011953585141
 21
16821.386252000011
 31
0.0
  0
ARC
  5
120E1
  8
1-中柱P
 10
25528.411953585131
 20
16814.786252000002
 30
0.0
 40
6.599999999999997
 50
0.0
 51
90.0
  0
LINE
  5
120E2
  8
1-中柱P
 10
25528.411953585131
 20
16819.786252000002
 30
0.0
 11
25495.011953585141
 21
16819.786252000002
 31
0.0
  0
ARC
  5
120E3
  8
1-中柱P
 10
25528.411953585131
 20
16814.786252000002
 30
0.0
 40
5.0
 50
0.0
 51
90.0
  0
LINE
  5
120E4
  8
1-中柱P
 10
25495.011953585141
 20
16819.786252000002
 30
0.0
 11
25495.011953585141
 21
16821.386252000011
 31
0.0
  0
LINE
  5
120E5
  8
1-中柱P
 10
25476.611953585129
 20
16750.386252000011
 30
0.0
 11
25485.011953585152
 21
16750.386252000011
 31
0.0
  0
ARC
  5
120E6
  8
1-中柱P
 10
25476.611953585129
 20
16743.786252000002
 30
0.0
 40
6.599999999999997
 50
90.0
 51
180.0
  0
ARC
  5
120E7
  8
1-中柱P
 10
25485.011953585152
 20
16755.386252000011
 30
0.0
 40
5.0
 50
270.0
 51
0.0
  0
LINE
  5
120E8
  8
1-中柱P
 10
25485.011953585152
 20
16748.786252000002
 30
0.0
 11
25476.611953585129
 21
16748.786252000002
 31
0.0
  0
ARC
  5
120E9
  8
1-中柱P
 10
25485.011953585152
 20
16755.386252000011
 30
0.0
 40
6.599999999999997
 50
270.0
 51
0.0
  0
ARC
  5
120EA
  8
1-中柱P
  6
HIDE-M
 62
     6
 10
25519.111953585129
 20
16818.786252000002
 30
0.0
 40
2.6000000000000001
 50
90.0
 51
180.0
  0
LINE
  5
120EB
  8
1-中柱P
  6
HIDE-M
 62
     6
 10
25507.511953585152
 20
16820.83564215319
 30
0.0
 11
25507.511953585152
 21
16817.18625200001
 31
0.0
  0
LINE
  5
120EC
  8
1-中柱P
  6
HIDE-M
 62
     6
 10
25517.511953585152
 20
16820.83564215319
 30
0.0
 11
25517.511953585152
 21
16817.18625200001
 31
0.0
  0
LINE
  5
120ED
  8
1-中柱P
  6
1PL-M
 62
     6
 10
25512.511953585141
 20
16826.386252000011
 30
0.0
 11
25512.511953585141
 21
16812.18625200001
 31
0.0
  0
ARC
  5
120EE
  8
1-中柱P
  6
HIDE-M
 62
     6
 10
25505.911953585131
 20
16818.786252000002
 30
0.0
 40
2.6000000000000001
 50
0.0
 51
90.0
  0
LINE
  5
120EF
  8
1-中柱P
  6
HIDE-M
 62
     6
 10
25516.511953585141
 20
16818.786252000002
 30
0.0
 11
25516.511953585141
 21
16817.18625200001
 31
0.0
  0
LINE
  5
120F0
  8
1-中柱P
  6
HIDE-M
 62
     6
 10
25508.511953585141
 20
16818.786252000002
 30
0.0
 11
25508.511953585141
 21
16817.18625200001
 31
0.0
  0
LINE
  5
120F1
  8
1-中柱P
 10
25491.611953585129
 20
16755.386252000011
 30
0.0
 11
25491.611953585129
 21
16765.386252000011
 31
0.0
  0
LINE
  5
120F2
  8
1-中柱P
 10
25490.011953585152
 20
16755.386252000011
 30
0.0
 11
25490.011953585152
 21
16765.386252000011
 31
0.0
  0
LINE
  5
120F3
  8
1-中柱P
 10
25491.611953585129
 20
16765.386252000011
 30
0.0
 11
25490.011953585152
 21
16765.386252000011
 31
0.0
  0
LINE
  5
120F4
  8
1-中柱P
  6
1PL-M
 62
     6
 10
25540.011953585152
 20
16786.386252000011
 30
0.0
 11
25525.811953585151
 21
16786.386252000011
 31
0.0
  0
LINE
  5
120F5
  8
1-中柱P
  6
HIDE-M
 62
     6
 10
25543.911953585131
 20
16729.386252000011
 30
0.0
 11
25555.511953585152
 21
16729.386252000011
 31
0.0
  0
LINE
  5
120F6
  8
1-中柱P
  6
HIDE-M
 62
     6
 10
25543.911953585131
 20
16721.386252000011
 30
0.0
 11
25555.511953585152
 21
16721.386252000011
 31
0.0
  0
LINE
  5
120F7
  8
1-中柱P
  6
HIDE-M
 62
     6
 10
25543.911953585131
 20
16728.386252000011
 30
0.0
 11
25555.511953585152
 21
16728.386252000011
 31
0.0
  0
LINE
  5
120F8
  8
1-中柱P
  6
HIDE-M
 62
     6
 10
25543.911953585131
 20
16722.386252000011
 30
0.0
 11
25555.511953585152
 21
16722.386252000011
 31
0.0
  0
LINE
  5
120F9
  8
1-中柱P
 10
25544.911953585121
 20
16719.886252000011
 30
0.0
 11
25551.911953585131
 21
16719.886252000011
 31
0.0
  0
LINE
  5
120FA
  8
1-中柱P
 10
25551.911953585131
 20
16730.886252000011
 30
0.0
 11
25544.911953585121
 21
16730.886252000011
 31
0.0
  0
LINE
  5
120FB
  8
1-中柱P
 10
25551.911953585131
 20
16731.636252000011
 30
0.0
 11
25551.911953585131
 21
16719.136252000011
 31
0.0
  0
LINE
  5
120FC
  8
1-中柱P
 10
25555.511953585152
 20
16731.386252000011
 30
0.0
 11
25555.511953585152
 21
16719.386252000011
 31
0.0
  0
LINE
  5
120FD
  8
1-中柱P
  6
HIDE-M
 62
     6
 10
25553.411953585131
 20
16719.886252000011
 30
0.0
 11
25555.011953585152
 21
16719.886252000011
 31
0.0
  0
LINE
  5
120FE
  8
1-中柱P
 10
25555.511953585152
 20
16719.386252000011
 30
0.0
 11
25555.011953585152
 21
16719.886252000011
 31
0.0
  0
ARC
  5
120FF
  8
1-中柱P
 10
25552.661953585131
 20
16719.136252000011
 30
0.0
 40
0.75
 50
180.0
 51
0.0
  0
LINE
  5
12100
  8
1-中柱P
  6
HIDE-M
 62
     6
 10
25555.011953585152
 20
16730.886252000011
 30
0.0
 11
25553.411953585131
 21
16730.886252000011
 31
0.0
  0
LINE
  5
12101
  8
1-中柱P
 10
25555.511953585152
 20
16731.386252000011
 30
0.0
 11
25555.011953585152
 21
16730.886252000011
 31
0.0
  0
ARC
  5
12102
  8
1-中柱P
 10
25552.661953585131
 20
16731.636252000011
 30
0.0
 40
0.75
 50
0.0
 51
180.0
  0
LINE
  5
12103
  8
1-中柱P
 10
25543.911953585131
 20
16729.886252000011
 30
0.0
 11
25543.911953585131
 21
16720.886252000011
 31
0.0
  0
ARC
  5
12104
  8
1-中柱P
 10
25544.911953585121
 20
16720.886252000011
 30
0.0
 40
1.0
 50
180.0
 51
270.0
  0
ARC
  5
12105
  8
1-中柱P
 10
25544.911953585121
 20
16729.886252000011
 30
0.0
 40
1.0
 50
90.0
 51
180.0
  0
LINE
  5
12106
  8
1-中柱P
  6
1PL-M
 62
     6
 10
25538.911953585131
 20
16725.386252000011
 30
0.0
 11
25560.511953585152
 21
16725.386252000011
 31
0.0
  0
LINE
  5
12107
  8
1-中柱P
 10
25544.911953585121
 20
16709.886252000011
 30
0.0
 11
25551.911953585131
 21
16709.886252000011
 31
0.0
  0
LINE
  5
12108
  8
1-中柱P
 10
25555.511953585152
 20
16717.386252000011
 30
0.0
 11
25555.511953585152
 21
16709.386252000011
 31
0.0
  0
LINE
  5
12109
  8
1-中柱P
  6
HIDE-M
 62
     6
 10
25553.411953585131
 20
16709.886252000011
 30
0.0
 11
25555.011953585152
 21
16709.886252000011
 31
0.0
  0
LINE
  5
1210A
  8
1-中柱P
 10
25555.511953585152
 20
16709.386252000011
 30
0.0
 11
25555.011953585152
 21
16709.886252000011
 31
0.0
  0
ARC
  5
1210B
  8
1-中柱P
 10
25552.661953585131
 20
16709.136252000011
 30
0.0
 40
0.75
 50
180.0
 51
0.0
  0
LINE
  5
1210C
  8
1-中柱P
 10
25543.911953585131
 20
16718.886252000011
 30
0.0
 11
25543.911953585131
 21
16710.886252000011
 31
0.0
  0
ARC
  5
1210D
  8
1-中柱P
 10
25544.911953585121
 20
16710.886252000011
 30
0.0
 40
1.0
 50
180.0
 51
270.0
  0
LINE
  5
1210E
  8
1-中柱P
  6
1PL-M
 62
     6
 10
25538.911953585131
 20
16715.386252000011
 30
0.0
 11
25560.511953585152
 21
16715.386252000011
 31
0.0
  0
LINE
  5
1210F
  8
1-中柱P
 10
25551.911953585131
 20
16717.136252000011
 30
0.0
 11
25551.911953585131
 21
16709.136252000011
 31
0.0
  0
LINE
  5
12110
  8
1-中柱P
  6
HIDE-M
 62
     6
 10
25543.911953585131
 20
16711.386252000011
 30
0.0
 11
25555.511953585152
 21
16711.386252000011
 31
0.0
  0
LINE
  5
12111
  8
1-中柱P
  6
HIDE-M
 62
     6
 10
25543.911953585131
 20
16712.386252000011
 30
0.0
 11
25555.511953585152
 21
16712.386252000011
 31
0.0
  0
LINE
  5
12112
  8
1-中柱P
  6
HIDE-M
 62
     6
 10
25481.111953585129
 20
16729.386252000011
 30
0.0
 11
25469.511953585152
 21
16729.386252000011
 31
0.0
  0
LINE
  5
12113
  8
1-中柱P
  6
HIDE-M
 62
     6
 10
25481.111953585129
 20
16721.386252000011
 30
0.0
 11
25469.511953585152
 21
16721.386252000011
 31
0.0
  0
LINE
  5
12114
  8
1-中柱P
  6
HIDE-M
 62
     6
 10
25481.111953585129
 20
16728.386252000011
 30
0.0
 11
25469.511953585152
 21
16728.386252000011
 31
0.0
  0
LINE
  5
12115
  8
1-中柱P
  6
HIDE-M
 62
     6
 10
25481.111953585129
 20
16722.386252000011
 30
0.0
 11
25469.511953585152
 21
16722.386252000011
 31
0.0
  0
LINE
  5
12116
  8
1-中柱P
 10
25480.111953585129
 20
16719.886252000011
 30
0.0
 11
25473.111953585129
 21
16719.886252000011
 31
0.0
  0
LINE
  5
12117
  8
1-中柱P
 10
25473.111953585129
 20
16730.886252000011
 30
0.0
 11
25480.111953585129
 21
16730.886252000011
 31
0.0
  0
LINE
  5
12118
  8
1-中柱P
 10
25473.111953585129
 20
16731.636252000011
 30
0.0
 11
25473.111953585129
 21
16719.136252000011
 31
0.0
  0
LINE
  5
12119
  8
1-中柱P
 10
25469.511953585152
 20
16731.386252000011
 30
0.0
 11
25469.511953585152
 21
16719.386252000011
 31
0.0
  0
LINE
  5
1211A
  8
1-中柱P
  6
HIDE-M
 62
     6
 10
25471.611953585129
 20
16719.886252000011
 30
0.0
 11
25470.011953585141
 21
16719.886252000011
 31
0.0
  0
LINE
  5
1211B
  8
1-中柱P
 10
25469.511953585152
 20
16719.386252000011
 30
0.0
 11
25470.011953585141
 21
16719.886252000011
 31
0.0
  0
ARC
  5
1211C
  8
1-中柱P
 10
25472.361953585129
 20
16719.136252000011
 30
0.0
 40
0.75
 50
180.0
 51
0.0
  0
LINE
  5
1211D
  8
1-中柱P
  6
HIDE-M
 62
     6
 10
25470.011953585141
 20
16730.886252000011
 30
0.0
 11
25471.611953585129
 21
16730.886252000011
 31
0.0
  0
LINE
  5
1211E
  8
1-中柱P
 10
25469.511953585152
 20
16731.386252000011
 30
0.0
 11
25470.011953585141
 21
16730.886252000011
 31
0.0
  0
ARC
  5
1211F
  8
1-中柱P
 10
25472.361953585129
 20
16731.636252000011
 30
0.0
 40
0.75
 50
0.0
 51
180.0
  0
LINE
  5
12120
  8
1-中柱P
 10
25481.111953585129
 20
16729.886252000011
 30
0.0
 11
25481.111953585129
 21
16720.886252000011
 31
0.0
  0
ARC
  5
12121
  8
1-中柱P
 10
25480.111953585129
 20
16720.886252000011
 30
0.0
 40
1.0
 50
270.0
 51
0.0
  0
ARC
  5
12122
  8
1-中柱P
 10
25480.111953585129
 20
16729.886252000011
 30
0.0
 40
1.0
 50
0.0
 51
90.0
  0
LINE
  5
12123
  8
1-中柱P
  6
1PL-M
 62
     6
 10
25486.111953585129
 20
16725.386252000011
 30
0.0
 11
25464.511953585141
 21
16725.386252000011
 31
0.0
  0
LINE
  5
12124
  8
1-中柱P
 10
25480.111953585129
 20
16709.886252000011
 30
0.0
 11
25473.111953585129
 21
16709.886252000011
 31
0.0
  0
LINE
  5
12125
  8
1-中柱P
 10
25469.511953585152
 20
16717.386252000011
 30
0.0
 11
25469.511953585152
 21
16709.386252000011
 31
0.0
  0
LINE
  5
12126
  8
1-中柱P
  6
HIDE-M
 62
     6
 10
25471.611953585129
 20
16709.886252000011
 30
0.0
 11
25470.011953585141
 21
16709.886252000011
 31
0.0
  0
LINE
  5
12127
  8
1-中柱P
 10
25469.511953585152
 20
16709.386252000011
 30
0.0
 11
25470.011953585141
 21
16709.886252000011
 31
0.0
  0
ARC
  5
12128
  8
1-中柱P
 10
25472.361953585129
 20
16709.136252000011
 30
0.0
 40
0.75
 50
180.0
 51
0.0
  0
LINE
  5
12129
  8
1-中柱P
 10
25481.111953585129
 20
16718.886252000011
 30
0.0
 11
25481.111953585129
 21
16710.886252000011
 31
0.0
  0
ARC
  5
1212A
  8
1-中柱P
 10
25480.111953585129
 20
16710.886252000011
 30
0.0
 40
1.0
 50
270.0
 51
0.0
  0
LINE
  5
1212B
  8
1-中柱P
  6
1PL-M
 62
     6
 10
25486.111953585129
 20
16715.386252000011
 30
0.0
 11
25464.511953585141
 21
16715.386252000011
 31
0.0
  0
LINE
  5
1212C
  8
1-中柱P
 10
25473.111953585129
 20
16717.136252000011
 30
0.0
 11
25473.111953585129
 21
16709.136252000011
 31
0.0
  0
LINE
  5
1212D
  8
1-中柱P
  6
HIDE-M
 62
     6
 10
25481.111953585129
 20
16711.386252000011
 30
0.0
 11
25469.511953585152
 21
16711.386252000011
 31
0.0
  0
LINE
  5
1212E
  8
1-中柱P
  6
HIDE-M
 62
     6
 10
25481.111953585129
 20
16712.386252000011
 30
0.0
 11
25469.511953585152
 21
16712.386252000011
 31
0.0
  0
LINE
  5
1212F
  8
1-中柱カバ-P
 10
25470.011953585141
 20
16757.086252000001
 30
0.0
 11
25470.011953585141
 21
16816.386252000011
 31
0.0
  0
ARC
  5
12130
  8
1-中柱カバ-P
 10
25476.611953585129
 20
16816.386252000011
 30
0.0
 40
6.599999999999997
 50
90.0
 51
180.0
  0
LINE
  5
12131
  8
1-中柱カバ-P
 10
25471.611953585129
 20
16757.086252000001
 30
0.0
 11
25471.611953585129
 21
16816.386252000011
 31
0.0
  0
ARC
  5
12132
  8
1-中柱カバ-P
 10
25476.611953585129
 20
16757.086252000001
 30
0.0
 40
5.0
 50
180.0
 51
270.0
  0
LINE
  5
12133
  8
1-中柱カバ-P
 10
25476.611953585129
 20
16822.986251999999
 30
0.0
 11
25548.411953585131
 21
16822.986251999999
 31
0.0
  0
ARC
  5
12134
  8
1-中柱カバ-P
 10
25548.411953585131
 20
16816.386252000011
 30
0.0
 40
6.599999999999997
 50
0.0
 51
90.0
  0
LINE
  5
12135
  8
1-中柱カバ-P
 10
25476.611953585129
 20
16821.386252000011
 30
0.0
 11
25548.411953585131
 21
16821.386252000011
 31
0.0
  0
ARC
  5
12136
  8
1-中柱カバ-P
 10
25548.411953585131
 20
16816.386252000011
 30
0.0
 40
5.0
 50
0.0
 51
90.0
  0
ARC
  5
12137
  8
1-中柱カバ-P
 10
25476.611953585129
 20
16816.386252000011
 30
0.0
 40
5.0
 50
90.0
 51
180.0
  0
LINE
  5
12138
  8
1-中柱カバ-P
 10
25555.011953585152
 20
16816.386252000011
 30
0.0
 11
25555.011953585152
 21
16757.086252000001
 31
0.0
  0
LINE
  5
12139
  8
1-中柱カバ-P
 10
25553.411953585131
 20
16816.386252000011
 30
0.0
 11
25553.411953585131
 21
16757.086252000001
 31
0.0
  0
ARC
  5
1213A
  8
1-中柱カバ-P
 10
25548.411953585131
 20
16757.086252000001
 30
0.0
 40
5.0
 50
270.0
 51
0.0
  0
LINE
  5
1213B
  8
1-中柱カバ-P
  6
1PL-M
 62
     6
 10
25512.511953585141
 20
16815.486251999999
 30
0.0
 11
25512.511953585141
 21
16828.486251999992
 31
0.0
  0
LINE
  5
1213C
  8
1-中柱カバ-P
  6
HIDE-M
 62
     6
 10
25505.511953585152
 20
16822.986251999999
 30
0.0
 11
25505.511953585152
 21
16821.386252000011
 31
0.0
  0
LINE
  5
1213D
  8
1-中柱カバ-P
  6
HIDE-M
 62
     6
 10
25519.511953585152
 20
16822.986251999999
 30
0.0
 11
25519.511953585152
 21
16821.386252000011
 31
0.0
  0
ARC
  5
1213E
  8
1-中柱カバ-P
 10
25476.611953585129
 20
16757.086252000001
 30
0.0
 40
6.599999999999997
 50
180.0
 51
270.0
  0
ARC
  5
1213F
  8
1-中柱カバ-P
 10
25548.411953585131
 20
16757.086252000001
 30
0.0
 40
6.599999999999997
 50
270.0
 51
0.0
  0
LINE
  5
12140
  8
1-中柱カバ-P
 10
25540.011953585152
 20
16750.486251999992
 30
0.0
 11
25548.411953585131
 21
16750.486251999992
 31
0.0
  0
LINE
  5
12141
  8
1-中柱カバ-P
 10
25485.011953585152
 20
16750.486251999992
 30
0.0
 11
25476.611953585129
 21
16750.486251999992
 31
0.0
  0
LINE
  5
12142
  8
1-中柱カバ-P
 10
25540.011953585152
 20
16752.086252000001
 30
0.0
 11
25548.411953585131
 21
16752.086252000001
 31
0.0
  0
LINE
  5
12143
  8
1-中柱カバ-P
 10
25485.011953585152
 20
16752.086252000001
 30
0.0
 11
25476.611953585129
 21
16752.086252000001
 31
0.0
  0
LINE
  5
12144
  8
1-中柱カバ-P
 10
25485.011953585152
 20
16752.086252000001
 30
0.0
 11
25485.011953585152
 21
16750.486251999992
 31
0.0
  0
LINE
  5
12145
  8
1-中柱カバ-P
 10
25540.011953585152
 20
16750.486251999992
 30
0.0
 11
25540.011953585152
 21
16752.086252000001
 31
0.0
  0
LINE
  5
12146
  8
1-中柱カバ-P
  6
HIDE-M
 62
     6
 10
25543.911953585131
 20
16771.486251999992
 30
0.0
 11
25555.511953585152
 21
16771.486251999992
 31
0.0
  0
LINE
  5
12147
  8
1-中柱カバ-P
  6
HIDE-M
 62
     6
 10
25543.911953585131
 20
16779.486251999992
 30
0.0
 11
25555.511953585152
 21
16779.486251999992
 31
0.0
  0
LINE
  5
12148
  8
1-中柱カバ-P
  6
HIDE-M
 62
     6
 10
25543.911953585131
 20
16772.486251999999
 30
0.0
 11
25555.511953585152
 21
16772.486251999999
 31
0.0
  0
LINE
  5
12149
  8
1-中柱カバ-P
  6
HIDE-M
 62
     6
 10
25543.911953585131
 20
16778.486251999999
 30
0.0
 11
25555.511953585152
 21
16778.486251999999
 31
0.0
  0
LINE
  5
1214A
  8
1-中柱カバ-P
 10
25544.911953585121
 20
16780.986251999992
 30
0.0
 11
25551.911953585131
 21
16780.986251999992
 31
0.0
  0
LINE
  5
1214B
  8
1-中柱カバ-P
 10
25551.911953585131
 20
16769.986251999992
 30
0.0
 11
25544.911953585121
 21
16769.986251999992
 31
0.0
  0
LINE
  5
1214C
  8
1-中柱カバ-P
 10
25551.911953585131
 20
16769.236251999992
 30
0.0
 11
25551.911953585131
 21
16781.736251999992
 31
0.0
  0
LINE
  5
1214D
  8
1-中柱カバ-P
 10
25555.511953585152
 20
16769.486251999992
 30
0.0
 11
25555.511953585152
 21
16781.486251999992
 31
0.0
  0
LINE
  5
1214E
  8
1-中柱カバ-P
  6
HIDE-M
 62
     6
 10
25553.411953585131
 20
16780.986251999992
 30
0.0
 11
25555.011953585152
 21
16780.986251999992
 31
0.0
  0
LINE
  5
1214F
  8
1-中柱カバ-P
 10
25555.511953585152
 20
16781.486251999992
 30
0.0
 11
25555.011953585152
 21
16780.986251999992
 31
0.0
  0
ARC
  5
12150
  8
1-中柱カバ-P
 10
25552.661953585131
 20
16781.736251999992
 30
0.0
 40
0.75
 50
0.0
 51
180.0
  0
LINE
  5
12151
  8
1-中柱カバ-P
  6
HIDE-M
 62
     6
 10
25555.011953585152
 20
16769.986251999992
 30
0.0
 11
25553.411953585131
 21
16769.986251999992
 31
0.0
  0
LINE
  5
12152
  8
1-中柱カバ-P
 10
25555.511953585152
 20
16769.486251999992
 30
0.0
 11
25555.011953585152
 21
16769.986251999992
 31
0.0
  0
ARC
  5
12153
  8
1-中柱カバ-P
 10
25552.661953585131
 20
16769.236251999992
 30
0.0
 40
0.75
 50
180.0
 51
0.0
  0
LINE
  5
12154
  8
1-中柱カバ-P
 10
25543.911953585131
 20
16770.986251999999
 30
0.0
 11
25543.911953585131
 21
16779.986251999992
 31
0.0
  0
ARC
  5
12155
  8
1-中柱カバ-P
 10
25544.911953585121
 20
16779.986251999992
 30
0.0
 40
1.0
 50
90.0
 51
180.0
  0
ARC
  5
12156
  8
1-中柱カバ-P
 10
25544.911953585121
 20
16770.986251999999
 30
0.0
 40
1.0
 50
180.0
 51
270.0
  0
LINE
  5
12157
  8
1-中柱カバ-P
  6
1PL-M
 62
     6
 10
25538.911953585131
 20
16775.486251999999
 30
0.0
 11
25560.511953585152
 21
16775.486251999999
 31
0.0
  0
LINE
  5
12158
  8
1-中柱カバ-P
 10
25544.911953585121
 20
16790.986251999992
 30
0.0
 11
25551.911953585131
 21
16790.986251999992
 31
0.0
  0
LINE
  5
12159
  8
1-中柱カバ-P
 10
25555.511953585152
 20
16783.486251999992
 30
0.0
 11
25555.511953585152
 21
16791.486251999992
 31
0.0
  0
LINE
  5
1215A
  8
1-中柱カバ-P
  6
HIDE-M
 62
     6
 10
25553.411953585131
 20
16790.986251999992
 30
0.0
 11
25555.011953585152
 21
16790.986251999992
 31
0.0
  0
LINE
  5
1215B
  8
1-中柱カバ-P
 10
25555.511953585152
 20
16791.486251999992
 30
0.0
 11
25555.011953585152
 21
16790.986251999992
 31
0.0
  0
ARC
  5
1215C
  8
1-中柱カバ-P
 10
25552.661953585131
 20
16791.736251999992
 30
0.0
 40
0.75
 50
0.0
 51
180.0
  0
LINE
  5
1215D
  8
1-中柱カバ-P
 10
25543.911953585131
 20
16781.986251999992
 30
0.0
 11
25543.911953585131
 21
16789.986251999999
 31
0.0
  0
ARC
  5
1215E
  8
1-中柱カバ-P
 10
25544.911953585121
 20
16789.986251999999
 30
0.0
 40
1.0
 50
90.0
 51
180.0
  0
LINE
  5
1215F
  8
1-中柱カバ-P
  6
1PL-M
 62
     6
 10
25538.911953585131
 20
16785.486251999992
 30
0.0
 11
25560.511953585152
 21
16785.486251999992
 31
0.0
  0
LINE
  5
12160
  8
1-中柱カバ-P
 10
25551.911953585131
 20
16783.736251999992
 30
0.0
 11
25551.911953585131
 21
16791.736251999992
 31
0.0
  0
LINE
  5
12161
  8
1-中柱カバ-P
  6
HIDE-M
 62
     6
 10
25481.111953585129
 20
16771.486251999992
 30
0.0
 11
25469.511953585152
 21
16771.486251999992
 31
0.0
  0
LINE
  5
12162
  8
1-中柱カバ-P
  6
HIDE-M
 62
     6
 10
25481.111953585129
 20
16779.486251999992
 30
0.0
 11
25469.511953585152
 21
16779.486251999992
 31
0.0
  0
LINE
  5
12163
  8
1-中柱カバ-P
  6
HIDE-M
 62
     6
 10
25481.111953585129
 20
16772.486251999999
 30
0.0
 11
25469.511953585152
 21
16772.486251999999
 31
0.0
  0
LINE
  5
12164
  8
1-中柱カバ-P
  6
HIDE-M
 62
     6
 10
25481.111953585129
 20
16778.486251999999
 30
0.0
 11
25469.511953585152
 21
16778.486251999999
 31
0.0
  0
LINE
  5
12165
  8
1-中柱カバ-P
 10
25480.111953585129
 20
16780.986251999992
 30
0.0
 11
25473.111953585129
 21
16780.986251999992
 31
0.0
  0
LINE
  5
12166
  8
1-中柱カバ-P
 10
25473.111953585129
 20
16769.986251999992
 30
0.0
 11
25480.111953585129
 21
16769.986251999992
 31
0.0
  0
LINE
  5
12167
  8
1-中柱カバ-P
 10
25473.111953585129
 20
16769.236251999992
 30
0.0
 11
25473.111953585129
 21
16781.736251999992
 31
0.0
  0
LINE
  5
12168
  8
1-中柱カバ-P
 10
25469.511953585152
 20
16769.486251999992
 30
0.0
 11
25469.511953585152
 21
16781.486251999992
 31
0.0
  0
LINE
  5
12169
  8
1-中柱カバ-P
  6
HIDE-M
 62
     6
 10
25471.611953585129
 20
16780.986251999992
 30
0.0
 11
25470.011953585141
 21
16780.986251999992
 31
0.0
  0
LINE
  5
1216A
  8
1-中柱カバ-P
 10
25469.511953585152
 20
16781.486251999992
 30
0.0
 11
25470.011953585141
 21
16780.986251999992
 31
0.0
  0
ARC
  5
1216B
  8
1-中柱カバ-P
 10
25472.361953585129
 20
16781.736251999992
 30
0.0
 40
0.75
 50
0.0
 51
180.0
  0
LINE
  5
1216C
  8
1-中柱カバ-P
  6
HIDE-M
 62
     6
 10
25470.011953585141
 20
16769.986251999992
 30
0.0
 11
25471.611953585129
 21
16769.986251999992
 31
0.0
  0
LINE
  5
1216D
  8
1-中柱カバ-P
 10
25469.511953585152
 20
16769.486251999992
 30
0.0
 11
25470.011953585141
 21
16769.986251999992
 31
0.0
  0
ARC
  5
1216E
  8
1-中柱カバ-P
 10
25472.361953585129
 20
16769.236251999992
 30
0.0
 40
0.75
 50
180.0
 51
0.0
  0
LINE
  5
1216F
  8
1-中柱カバ-P
 10
25481.111953585129
 20
16770.986251999999
 30
0.0
 11
25481.111953585129
 21
16779.986251999992
 31
0.0
  0
ARC
  5
12170
  8
1-中柱カバ-P
 10
25480.111953585129
 20
16779.986251999992
 30
0.0
 40
1.0
 50
0.0
 51
90.0
  0
ARC
  5
12171
  8
1-中柱カバ-P
 10
25480.111953585129
 20
16770.986251999999
 30
0.0
 40
1.0
 50
270.0
 51
0.0
  0
LINE
  5
12172
  8
1-中柱カバ-P
  6
1PL-M
 62
     6
 10
25486.111953585129
 20
16775.486251999999
 30
0.0
 11
25464.511953585141
 21
16775.486251999999
 31
0.0
  0
LINE
  5
12173
  8
1-中柱カバ-P
 10
25480.111953585129
 20
16790.986251999992
 30
0.0
 11
25473.111953585129
 21
16790.986251999992
 31
0.0
  0
LINE
  5
12174
  8
1-中柱カバ-P
 10
25469.511953585152
 20
16783.486251999992
 30
0.0
 11
25469.511953585152
 21
16791.486251999992
 31
0.0
  0
LINE
  5
12175
  8
1-中柱カバ-P
  6
HIDE-M
 62
     6
 10
25471.611953585129
 20
16790.986251999992
 30
0.0
 11
25470.011953585141
 21
16790.986251999992
 31
0.0
  0
LINE
  5
12176
  8
1-中柱カバ-P
 10
25469.511953585152
 20
16791.486251999992
 30
0.0
 11
25470.011953585141
 21
16790.986251999992
 31
0.0
  0
ARC
  5
12177
  8
1-中柱カバ-P
 10
25472.361953585129
 20
16791.736251999992
 30
0.0
 40
0.75
 50
0.0
 51
180.0
  0
LINE
  5
12178
  8
1-中柱カバ-P
 10
25481.111953585129
 20
16781.986251999992
 30
0.0
 11
25481.111953585129
 21
16789.986251999999
 31
0.0
  0
ARC
  5
12179
  8
1-中柱カバ-P
 10
25480.111953585129
 20
16789.986251999999
 30
0.0
 40
1.0
 50
0.0
 51
90.0
  0
LINE
  5
1217A
  8
1-中柱カバ-P
  6
1PL-M
 62
     6
 10
25486.111953585129
 20
16785.486251999992
 30
0.0
 11
25464.511953585141
 21
16785.486251999992
 31
0.0
  0
LINE
  5
1217B
  8
1-中柱カバ-P
 10
25473.111953585129
 20
16783.736251999992
 30
0.0
 11
25473.111953585129
 21
16791.736251999992
 31
0.0
  0
LINE
  5
1217C
  8
1-中柱カバ-P
  6
HIDE-M
 62
     6
 10
25543.911953585131
 20
16789.486251999992
 30
0.0
 11
25555.511953585152
 21
16789.486251999992
 31
0.0
  0
LINE
  5
1217D
  8
1-中柱カバ-P
  6
HIDE-M
 62
     6
 10
25543.911953585131
 20
16788.486251999992
 30
0.0
 11
25555.511953585152
 21
16788.486251999992
 31
0.0
  0
LINE
  5
1217E
  8
1-中柱カバ-P
  6
HIDE-M
 62
     6
 10
25481.111953585129
 20
16789.486251999992
 30
0.0
 11
25469.511953585152
 21
16789.486251999992
 31
0.0
  0
LINE
  5
1217F
  8
1-中柱カバ-P
  6
HIDE-M
 62
     6
 10
25481.111953585129
 20
16788.486251999992
 30
0.0
 11
25469.511953585152
 21
16788.486251999992
 31
0.0
  0
ARC
  5
12180
  8
1-前柱P
  6
HIDE-M
 62
     6
 10
25508.911953585131
 20
14251.386252
 30
0.0
 40
2.6000000000000001
 50
0.0
 51
90.0
  0
LINE
  5
12181
  8
1-前柱P
  6
HIDE-M
 62
     6
 10
25520.511953585152
 20
14253.435642153199
 30
0.0
 11
25520.511953585152
 21
14249.786252
 31
0.0
  0
LINE
  5
12182
  8
1-前柱P
  6
HIDE-M
 62
     6
 10
25510.51195358513
 20
14253.435642153199
 30
0.0
 11
25510.51195358513
 21
14249.786252
 31
0.0
  0
LINE
  5
12183
  8
1-前柱P
  6
1PL-M
 62
     6
 10
25515.511953585152
 20
14258.986252000001
 30
0.0
 11
25515.511953585152
 21
14244.786252
 31
0.0
  0
ARC
  5
12184
  8
1-前柱P
  6
HIDE-M
 62
     6
 10
25522.111953585129
 20
14251.386252
 30
0.0
 40
2.6000000000000001
 50
90.0
 51
180.0
  0
LINE
  5
12185
  8
1-前柱P
  6
HIDE-M
 62
     6
 10
25511.511953585152
 20
14251.386252
 30
0.0
 11
25511.511953585152
 21
14249.786252
 31
0.0
  0
LINE
  5
12186
  8
1-前柱P
  6
HIDE-M
 62
     6
 10
25519.511953585152
 20
14251.386252
 30
0.0
 11
25519.511953585152
 21
14249.786252
 31
0.0
  0
LINE
  5
12187
  8
1-前柱P
 10
25501.611953585129
 20
14139.08625199999
 30
0.0
 11
25523.411953585139
 21
14139.08625199999
 31
0.0
  0
LINE
  5
12188
  8
1-前柱P
 10
25553.41195358515
 20
14176.386252
 30
0.0
 11
25553.41195358515
 21
14169.086251999999
 31
0.0
  0
ARC
  5
12189
  8
1-前柱P
 10
25523.411953585139
 20
14169.086251999999
 30
0.0
 40
30.0
 50
270.0
 51
0.0
  0
ARC
  5
1218A
  8
1-前柱P
 10
25523.411953585139
 20
14169.086251999999
 30
0.0
 40
31.600000000000001
 50
270.0
 51
0.0
  0
LINE
  5
1218B
  8
1-前柱P
 10
25501.611953585129
 20
14137.486252000001
 30
0.0
 11
25523.411953585139
 21
14137.486252000001
 31
0.0
  0
LINE
  5
1218C
  8
1-前柱P
 10
25555.011953585152
 20
14176.386252
 30
0.0
 11
25555.011953585152
 21
14169.086251999999
 31
0.0
  0
LINE
  5
1218D
  8
1-前柱P
 10
25532.011953585152
 20
14197.986252000001
 30
0.0
 11
25532.011953585152
 21
14187.986252000001
 31
0.0
  0
LINE
  5
1218E
  8
1-前柱P
 10
25530.41195358515
 20
14187.986252000001
 30
0.0
 11
25530.41195358515
 21
14197.986252000001
 31
0.0
  0
LINE
  5
1218F
  8
1-前柱P
 10
25471.611953585129
 20
14176.386252
 30
0.0
 11
25471.611953585129
 21
14169.086251999999
 31
0.0
  0
ARC
  5
12190
  8
1-前柱P
 10
25501.611953585129
 20
14169.086251999999
 30
0.0
 40
30.0
 50
180.0
 51
270.0
  0
ARC
  5
12191
  8
1-前柱P
 10
25501.611953585129
 20
14169.086251999999
 30
0.0
 40
31.600000000000001
 50
180.0
 51
270.0
  0
LINE
  5
12192
  8
1-前柱P
 10
25470.011953585141
 20
14176.386252
 30
0.0
 11
25470.011953585141
 21
14169.086251999999
 31
0.0
  0
LINE
  5
12193
  8
1-前柱P
 10
25476.611953585129
 20
14182.986252000001
 30
0.0
 11
25488.011953585152
 21
14182.986252000001
 31
0.0
  0
ARC
  5
12194
  8
1-前柱P
 10
25476.611953585129
 20
14176.386252
 30
0.0
 40
6.599999999999997
 50
90.0
 51
180.0
  0
ARC
  5
12195
  8
1-前柱P
 10
25488.011953585152
 20
14187.986252000001
 30
0.0
 40
5.0
 50
270.0
 51
0.0
  0
LINE
  5
12196
  8
1-前柱P
 10
25476.611953585129
 20
14181.386252
 30
0.0
 11
25488.011953585152
 21
14181.386252
 31
0.0
  0
ARC
  5
12197
  8
1-前柱P
 10
25476.611953585129
 20
14176.386252
 30
0.0
 40
5.0
 50
90.0
 51
180.0
  0
LINE
  5
12198
  8
1-前柱P
 10
25493.011953585141
 20
14187.986252000001
 30
0.0
 11
25493.011953585141
 21
14247.386252
 31
0.0
  0
LINE
  5
12199
  8
1-前柱P
 10
25494.611953585129
 20
14187.986252000001
 30
0.0
 11
25494.611953585129
 21
14247.386252
 31
0.0
  0
ARC
  5
1219A
  8
1-前柱P
 10
25488.011953585152
 20
14187.986252000001
 30
0.0
 40
6.599999999999997
 50
270.0
 51
0.0
  0
LINE
  5
1219B
  8
1-前柱P
 10
25499.611953585129
 20
14253.986252000001
 30
0.0
 11
25533.011953585141
 21
14253.986252000001
 31
0.0
  0
ARC
  5
1219C
  8
1-前柱P
 10
25499.611953585129
 20
14247.386252
 30
0.0
 40
6.599999999999997
 50
90.0
 51
180.0
  0
LINE
  5
1219D
  8
1-前柱P
 10
25499.611953585129
 20
14252.386252
 30
0.0
 11
25533.011953585141
 21
14252.386252
 31
0.0
  0
ARC
  5
1219E
  8
1-前柱P
 10
25499.611953585129
 20
14247.386252
 30
0.0
 40
5.0
 50
90.0
 51
180.0
  0
LINE
  5
1219F
  8
1-前柱P
 10
25533.011953585141
 20
14252.386252
 30
0.0
 11
25533.011953585141
 21
14253.986252000001
 31
0.0
  0
LINE
  5
121A0
  8
1-前柱P
 10
25548.41195358515
 20
14182.986252000001
 30
0.0
 11
25537.011953585141
 21
14182.986252000001
 31
0.0
  0
ARC
  5
121A1
  8
1-前柱P
 10
25548.41195358515
 20
14176.386252
 30
0.0
 40
6.599999999999997
 50
0.0
 51
90.0
  0
ARC
  5
121A2
  8
1-前柱P
 10
25537.011953585141
 20
14187.986252000001
 30
0.0
 40
5.0
 50
180.0
 51
270.0
  0
LINE
  5
121A3
  8
1-前柱P
 10
25537.011953585141
 20
14181.386252
 30
0.0
 11
25548.41195358515
 21
14181.386252
 31
0.0
  0
ARC
  5
121A4
  8
1-前柱P
 10
25537.011953585141
 20
14187.986252000001
 30
0.0
 40
6.599999999999997
 50
180.0
 51
270.0
  0
ARC
  5
121A5
  8
1-前柱P
 10
25548.41195358515
 20
14176.386252
 30
0.0
 40
5.0
 50
0.0
 51
90.0
  0
LINE
  5
121A6
  8
1-前柱P
 10
25532.011953585152
 20
14197.986252000001
 30
0.0
 11
25530.41195358515
 21
14197.986252000001
 31
0.0
  0
LINE
  5
121A7
  8
1-前柱カバ-P
 10
25555.011953585152
 20
14189.68625199999
 30
0.0
 11
25555.011953585152
 21
14248.986252000001
 31
0.0
  0
ARC
  5
121A8
  8
1-前柱カバ-P
 10
25548.41195358515
 20
14248.986252000001
 30
0.0
 40
6.599999999999997
 50
0.0
 51
90.0
  0
LINE
  5
121A9
  8
1-前柱カバ-P
 10
25553.41195358515
 20
14189.68625199999
 30
0.0
 11
25553.41195358515
 21
14248.986252000001
 31
0.0
  0
ARC
  5
121AA
  8
1-前柱カバ-P
 10
25548.41195358515
 20
14189.68625199999
 30
0.0
 40
5.0
 50
270.0
 51
0.0
  0
LINE
  5
121AB
  8
1-前柱カバ-P
 10
25548.41195358515
 20
14255.58625199999
 30
0.0
 11
25476.611953585129
 21
14255.58625199999
 31
0.0
  0
ARC
  5
121AC
  8
1-前柱カバ-P
 10
25476.611953585129
 20
14248.986252000001
 30
0.0
 40
6.599999999999997
 50
90.0
 51
180.0
  0
LINE
  5
121AD
  8
1-前柱カバ-P
 10
25548.41195358515
 20
14253.986252000001
 30
0.0
 11
25476.611953585129
 21
14253.986252000001
 31
0.0
  0
ARC
  5
121AE
  8
1-前柱カバ-P
 10
25476.611953585129
 20
14248.986252000001
 30
0.0
 40
5.0
 50
90.0
 51
180.0
  0
ARC
  5
121AF
  8
1-前柱カバ-P
 10
25548.41195358515
 20
14248.986252000001
 30
0.0
 40
5.0
 50
0.0
 51
90.0
  0
LINE
  5
121B0
  8
1-前柱カバ-P
 10
25470.011953585141
 20
14248.986252000001
 30
0.0
 11
25470.011953585141
 21
14189.68625199999
 31
0.0
  0
LINE
  5
121B1
  8
1-前柱カバ-P
 10
25471.611953585129
 20
14248.986252000001
 30
0.0
 11
25471.611953585129
 21
14189.68625199999
 31
0.0
  0
ARC
  5
121B2
  8
1-前柱カバ-P
 10
25476.611953585129
 20
14189.68625199999
 30
0.0
 40
5.0
 50
180.0
 51
270.0
  0
LINE
  5
121B3
  8
1-前柱カバ-P
  6
1PL-M
 62
     6
 10
25512.511953585141
 20
14248.086251999999
 30
0.0
 11
25512.511953585141
 21
14261.08625200001
 31
0.0
  0
LINE
  5
121B4
  8
1-前柱カバ-P
  6
HIDE-M
 62
     6
 10
25519.511953585152
 20
14255.58625199999
 30
0.0
 11
25519.511953585152
 21
14253.986252000001
 31
0.0
  0
LINE
  5
121B5
  8
1-前柱カバ-P
  6
HIDE-M
 62
     6
 10
25505.511953585152
 20
14255.58625199999
 30
0.0
 11
25505.511953585152
 21
14253.986252000001
 31
0.0
  0
ARC
  5
121B6
  8
1-前柱カバ-P
 10
25548.41195358515
 20
14189.68625199999
 30
0.0
 40
6.599999999999997
 50
270.0
 51
0.0
  0
ARC
  5
121B7
  8
1-前柱カバ-P
 10
25476.611953585129
 20
14189.68625199999
 30
0.0
 40
6.599999999999997
 50
180.0
 51
270.0
  0
LINE
  5
121B8
  8
1-前柱カバ-P
 10
25485.011953585152
 20
14183.08625199999
 30
0.0
 11
25476.611953585129
 21
14183.08625199999
 31
0.0
  0
LINE
  5
121B9
  8
1-前柱カバ-P
 10
25540.011953585152
 20
14183.08625199999
 30
0.0
 11
25548.41195358515
 21
14183.08625199999
 31
0.0
  0
LINE
  5
121BA
  8
1-前柱カバ-P
 10
25485.011953585152
 20
14184.686252
 30
0.0
 11
25476.611953585129
 21
14184.686252
 31
0.0
  0
LINE
  5
121BB
  8
1-前柱カバ-P
 10
25540.011953585152
 20
14184.686252
 30
0.0
 11
25548.41195358515
 21
14184.686252
 31
0.0
  0
LINE
  5
121BC
  8
1-前柱カバ-P
 10
25540.011953585152
 20
14184.686252
 30
0.0
 11
25540.011953585152
 21
14183.08625199999
 31
0.0
  0
LINE
  5
121BD
  8
1-前柱カバ-P
 10
25485.011953585152
 20
14183.08625199999
 30
0.0
 11
25485.011953585152
 21
14184.686252
 31
0.0
  0
LINE
  5
121BE
  8
1-前柱カバ-P
  6
HIDE-M
 62
     6
 10
25481.111953585129
 20
14204.08625200001
 30
0.0
 11
25469.511953585152
 21
14204.08625200001
 31
0.0
  0
LINE
  5
121BF
  8
1-前柱カバ-P
  6
HIDE-M
 62
     6
 10
25481.111953585129
 20
14212.086251999999
 30
0.0
 11
25469.511953585152
 21
14212.086251999999
 31
0.0
  0
LINE
  5
121C0
  8
1-前柱カバ-P
  6
HIDE-M
 62
     6
 10
25481.111953585129
 20
14205.08625199999
 30
0.0
 11
25469.511953585152
 21
14205.08625199999
 31
0.0
  0
LINE
  5
121C1
  8
1-前柱カバ-P
  6
HIDE-M
 62
     6
 10
25481.111953585129
 20
14211.086251999999
 30
0.0
 11
25469.511953585152
 21
14211.086251999999
 31
0.0
  0
LINE
  5
121C2
  8
1-前柱カバ-P
 10
25480.111953585129
 20
14213.58625199999
 30
0.0
 11
25473.111953585129
 21
14213.58625199999
 31
0.0
  0
LINE
  5
121C3
  8
1-前柱カバ-P
 10
25473.111953585129
 20
14202.58625199999
 30
0.0
 11
25480.111953585129
 21
14202.58625199999
 31
0.0
  0
LINE
  5
121C4
  8
1-前柱カバ-P
 10
25473.111953585129
 20
14201.83625199999
 30
0.0
 11
25473.111953585129
 21
14214.33625199999
 31
0.0
  0
LINE
  5
121C5
  8
1-前柱カバ-P
 10
25469.511953585152
 20
14202.08625199999
 30
0.0
 11
25469.511953585152
 21
14214.08625199999
 31
0.0
  0
LINE
  5
121C6
  8
1-前柱カバ-P
  6
HIDE-M
 62
     6
 10
25471.611953585129
 20
14213.58625199999
 30
0.0
 11
25470.011953585141
 21
14213.58625199999
 31
0.0
  0
LINE
  5
121C7
  8
1-前柱カバ-P
 10
25469.511953585152
 20
14214.08625199999
 30
0.0
 11
25470.011953585141
 21
14213.58625199999
 31
0.0
  0
ARC
  5
121C8
  8
1-前柱カバ-P
 10
25472.361953585129
 20
14214.33625199999
 30
0.0
 40
0.75
 50
0.0
 51
180.0
  0
LINE
  5
121C9
  8
1-前柱カバ-P
  6
HIDE-M
 62
     6
 10
25470.011953585141
 20
14202.58625199999
 30
0.0
 11
25471.611953585129
 21
14202.58625199999
 31
0.0
  0
LINE
  5
121CA
  8
1-前柱カバ-P
 10
25469.511953585152
 20
14202.08625199999
 30
0.0
 11
25470.011953585141
 21
14202.58625199999
 31
0.0
  0
ARC
  5
121CB
  8
1-前柱カバ-P
 10
25472.361953585129
 20
14201.83625199999
 30
0.0
 40
0.75
 50
180.0
 51
0.0
  0
LINE
  5
121CC
  8
1-前柱カバ-P
 10
25481.111953585129
 20
14203.586251999999
 30
0.0
 11
25481.111953585129
 21
14212.58625200001
 31
0.0
  0
ARC
  5
121CD
  8
1-前柱カバ-P
 10
25480.111953585129
 20
14212.58625200001
 30
0.0
 40
1.0
 50
0.0
 51
90.0
  0
ARC
  5
121CE
  8
1-前柱カバ-P
 10
25480.111953585129
 20
14203.586251999999
 30
0.0
 40
1.0
 50
270.0
 51
0.0
  0
LINE
  5
121CF
  8
1-前柱カバ-P
  6
1PL-M
 62
     6
 10
25486.111953585129
 20
14208.086251999999
 30
0.0
 11
25464.511953585141
 21
14208.086251999999
 31
0.0
  0
LINE
  5
121D0
  8
1-前柱カバ-P
 10
25480.111953585129
 20
14223.586251999999
 30
0.0
 11
25473.111953585129
 21
14223.586251999999
 31
0.0
  0
LINE
  5
121D1
  8
1-前柱カバ-P
 10
25469.511953585152
 20
14216.086251999999
 30
0.0
 11
25469.511953585152
 21
14224.08625199999
 31
0.0
  0
LINE
  5
121D2
  8
1-前柱カバ-P
  6
HIDE-M
 62
     6
 10
25471.611953585129
 20
14223.586251999999
 30
0.0
 11
25470.011953585141
 21
14223.586251999999
 31
0.0
  0
LINE
  5
121D3
  8
1-前柱カバ-P
 10
25469.511953585152
 20
14224.08625199999
 30
0.0
 11
25470.011953585141
 21
14223.586251999999
 31
0.0
  0
ARC
  5
121D4
  8
1-前柱カバ-P
 10
25472.361953585129
 20
14224.336251999999
 30
0.0
 40
0.75
 50
0.0
 51
180.0
  0
LINE
  5
121D5
  8
1-前柱カバ-P
 10
25481.111953585129
 20
14214.58625199999
 30
0.0
 11
25481.111953585129
 21
14222.586251999999
 31
0.0
  0
ARC
  5
121D6
  8
1-前柱カバ-P
 10
25480.111953585129
 20
14222.586251999999
 30
0.0
 40
1.0
 50
0.0
 51
90.0
  0
LINE
  5
121D7
  8
1-前柱カバ-P
  6
1PL-M
 62
     6
 10
25486.111953585129
 20
14218.08625199999
 30
0.0
 11
25464.511953585141
 21
14218.08625199999
 31
0.0
  0
LINE
  5
121D8
  8
1-前柱カバ-P
 10
25473.111953585129
 20
14216.33625200001
 30
0.0
 11
25473.111953585129
 21
14224.336251999999
 31
0.0
  0
LINE
  5
121D9
  8
1-前柱カバ-P
  6
HIDE-M
 62
     6
 10
25543.911953585131
 20
14204.08625200001
 30
0.0
 11
25555.511953585152
 21
14204.08625200001
 31
0.0
  0
LINE
  5
121DA
  8
1-前柱カバ-P
  6
HIDE-M
 62
     6
 10
25543.911953585131
 20
14212.086251999999
 30
0.0
 11
25555.511953585152
 21
14212.086251999999
 31
0.0
  0
LINE
  5
121DB
  8
1-前柱カバ-P
  6
HIDE-M
 62
     6
 10
25543.911953585131
 20
14205.08625199999
 30
0.0
 11
25555.511953585152
 21
14205.08625199999
 31
0.0
  0
LINE
  5
121DC
  8
1-前柱カバ-P
  6
HIDE-M
 62
     6
 10
25543.911953585131
 20
14211.086251999999
 30
0.0
 11
25555.511953585152
 21
14211.086251999999
 31
0.0
  0
LINE
  5
121DD
  8
1-前柱カバ-P
 10
25544.91195358515
 20
14213.58625199999
 30
0.0
 11
25551.911953585139
 21
14213.58625199999
 31
0.0
  0
LINE
  5
121DE
  8
1-前柱カバ-P
 10
25551.911953585139
 20
14202.58625199999
 30
0.0
 11
25544.91195358515
 21
14202.58625199999
 31
0.0
  0
LINE
  5
121DF
  8
1-前柱カバ-P
 10
25551.911953585139
 20
14201.83625199999
 30
0.0
 11
25551.911953585139
 21
14214.33625199999
 31
0.0
  0
LINE
  5
121E0
  8
1-前柱カバ-P
 10
25555.511953585152
 20
14202.08625199999
 30
0.0
 11
25555.511953585152
 21
14214.08625199999
 31
0.0
  0
LINE
  5
121E1
  8
1-前柱カバ-P
  6
HIDE-M
 62
     6
 10
25553.41195358515
 20
14213.58625199999
 30
0.0
 11
25555.011953585152
 21
14213.58625199999
 31
0.0
  0
LINE
  5
121E2
  8
1-前柱カバ-P
 10
25555.511953585152
 20
14214.08625199999
 30
0.0
 11
25555.011953585152
 21
14213.58625199999
 31
0.0
  0
ARC
  5
121E3
  8
1-前柱カバ-P
 10
25552.66195358515
 20
14214.33625199999
 30
0.0
 40
0.75
 50
0.0
 51
180.0
  0
LINE
  5
121E4
  8
1-前柱カバ-P
  6
HIDE-M
 62
     6
 10
25555.011953585152
 20
14202.58625199999
 30
0.0
 11
25553.41195358515
 21
14202.58625199999
 31
0.0
  0
LINE
  5
121E5
  8
1-前柱カバ-P
 10
25555.511953585152
 20
14202.08625199999
 30
0.0
 11
25555.011953585152
 21
14202.58625199999
 31
0.0
  0
ARC
  5
121E6
  8
1-前柱カバ-P
 10
25552.66195358515
 20
14201.83625199999
 30
0.0
 40
0.75
 50
180.0
 51
0.0
  0
LINE
  5
121E7
  8
1-前柱カバ-P
 10
25543.911953585131
 20
14203.586251999999
 30
0.0
 11
25543.911953585131
 21
14212.58625200001
 31
0.0
  0
ARC
  5
121E8
  8
1-前柱カバ-P
 10
25544.91195358515
 20
14212.58625200001
 30
0.0
 40
1.0
 50
90.0
 51
180.0
  0
ARC
  5
121E9
  8
1-前柱カバ-P
 10
25544.91195358515
 20
14203.586251999999
 30
0.0
 40
1.0
 50
180.0
 51
270.0
  0
LINE
  5
121EA
  8
1-前柱カバ-P
  6
1PL-M
 62
     6
 10
25538.91195358515
 20
14208.086251999999
 30
0.0
 11
25560.511953585152
 21
14208.086251999999
 31
0.0
  0
LINE
  5
121EB
  8
1-前柱カバ-P
 10
25544.91195358515
 20
14223.586251999999
 30
0.0
 11
25551.911953585139
 21
14223.586251999999
 31
0.0
  0
LINE
  5
121EC
  8
1-前柱カバ-P
 10
25555.511953585152
 20
14216.086251999999
 30
0.0
 11
25555.511953585152
 21
14224.08625199999
 31
0.0
  0
LINE
  5
121ED
  8
1-前柱カバ-P
  6
HIDE-M
 62
     6
 10
25553.41195358515
 20
14223.586251999999
 30
0.0
 11
25555.011953585152
 21
14223.586251999999
 31
0.0
  0
LINE
  5
121EE
  8
1-前柱カバ-P
 10
25555.511953585152
 20
14224.08625199999
 30
0.0
 11
25555.011953585152
 21
14223.586251999999
 31
0.0
  0
ARC
  5
121EF
  8
1-前柱カバ-P
 10
25552.66195358515
 20
14224.336251999999
 30
0.0
 40
0.75
 50
0.0
 51
180.0
  0
LINE
  5
121F0
  8
1-前柱カバ-P
 10
25543.911953585131
 20
14214.58625199999
 30
0.0
 11
25543.911953585131
 21
14222.586251999999
 31
0.0
  0
ARC
  5
121F1
  8
1-前柱カバ-P
 10
25544.91195358515
 20
14222.586251999999
 30
0.0
 40
1.0
 50
90.0
 51
180.0
  0
LINE
  5
121F2
  8
1-前柱カバ-P
  6
1PL-M
 62
     6
 10
25538.91195358515
 20
14218.08625199999
 30
0.0
 11
25560.511953585152
 21
14218.08625199999
 31
0.0
  0
LINE
  5
121F3
  8
1-前柱カバ-P
 10
25551.911953585139
 20
14216.33625200001
 30
0.0
 11
25551.911953585139
 21
14224.336251999999
 31
0.0
  0
LINE
  5
121F4
  8
1-前柱カバ-P
  6
HIDE-M
 62
     6
 10
25481.111953585129
 20
14222.08625200001
 30
0.0
 11
25469.511953585152
 21
14222.08625200001
 31
0.0
  0
LINE
  5
121F5
  8
1-前柱カバ-P
  6
HIDE-M
 62
     6
 10
25481.111953585129
 20
14221.08625199999
 30
0.0
 11
25469.511953585152
 21
14221.08625199999
 31
0.0
  0
LINE
  5
121F6
  8
1-前柱カバ-P
  6
HIDE-M
 62
     6
 10
25543.911953585131
 20
14222.08625200001
 30
0.0
 11
25555.511953585152
 21
14222.08625200001
 31
0.0
  0
LINE
  5
121F7
  8
1-前柱カバ-P
  6
HIDE-M
 62
     6
 10
25543.911953585131
 20
14221.08625199999
 30
0.0
 11
25555.511953585152
 21
14221.08625199999
 31
0.0
  0
LINE
  5
1220A
  8
0-6
  6
CONTINUOUS
 62
     6
 10
24068.291427008651
 20
13542.987109999989
 30
0.0
 11
25068.290768008639
 21
13542.987109999989
 31
0.0
  0
TEXT
  5
1220B
  8
0-6
  6
CONTINUOUS
 62
     7
 10
24164.291691008631
 20
13622.98737399998
 30
0.0
 40
160.0
  1
前柱（P）
 72
     4
 11
24564.291691008631
 21
13702.98737399998
 31
0.0
  0
LINE
  5
1220C
  8
0-6
  6
CONTINUOUS
 62
     6
 10
25473.36713183004
 20
14128.986252000001
 30
0.0
 11
25068.290768008639
 21
13542.987109999989
 31
0.0
  0
LINE
  5
1220D
  8
0-6
  6
CONTINUOUS
 62
     6
 10
24068.291427008651
 20
16080.047909954121
 30
0.0
 11
25068.290768008639
 21
16080.047909954121
 31
0.0
  0
TEXT
  5
1220E
  8
0-6
  6
CONTINUOUS
 62
     7
 10
24164.291691008631
 20
16160.048173954099
 30
0.0
 40
160.0
  1
中柱（P）
 72
     4
 11
24564.291691008631
 21
16240.048173954099
 31
0.0
  0
LINE
  5
1220F
  8
0-6
  6
CONTINUOUS
 62
     6
 10
25473.36713183004
 20
16666.047051954109
 30
0.0
 11
25068.290768008639
 21
16080.047909954121
 31
0.0
  0
LINE
  5
12210
  8
0-6
  6
CONTINUOUS
 62
     6
 10
23727.229536539111
 20
14743.97698982888
 30
0.0
 11
25183.229536539118
 21
14743.97698982888
 31
0.0
  0
TEXT
  5
12211
  8
0-6
  6
CONTINUOUS
 62
     7
 10
23767.234809791531
 20
14823.977253828851
 30
0.0
 40
160.0
  1
前柱カバー（P）
 72
     4
 11
24455.234809791531
 21
14903.977253828851
 31
0.0
  0
LINE
  5
12212
  8
0-6
  6
CONTINUOUS
 62
     6
 10
25482.46713183005
 20
14255.58625199999
 30
0.0
 11
25183.229536539118
 21
14743.97698982888
 31
0.0
  0
LINE
  5
12213
  8
0-6
  6
CONTINUOUS
 62
     6
 10
23727.229536539111
 20
17300.976553828881
 30
0.0
 11
25183.229536539118
 21
17300.976553828881
 31
0.0
  0
TEXT
  5
12214
  8
0-6
  6
CONTINUOUS
 62
     7
 10
23767.234809791531
 20
17380.976817828861
 30
0.0
 40
160.0
  1
中柱カバー（P）
 72
     4
 11
24455.234809791531
 21
17460.976817828861
 31
0.0
  0
LINE
  5
12215
  8
0-6
  6
CONTINUOUS
 62
     6
 10
25482.46713183005
 20
16812.585815999999
 30
0.0
 11
25183.229536539118
 21
17300.976553828881
 31
0.0
  0
LINE
  5
12216
  8
0-6
  6
CONTINUOUS
 62
     6
 10
24068.291427008651
 20
19957.423617045872
 30
0.0
 11
25068.290768008621
 21
19957.423617045872
 31
0.0
  0
TEXT
  5
12217
  8
0-6
  6
CONTINUOUS
 62
     7
 10
24164.291691008631
 20
20037.423881045848
 30
0.0
 40
160.0
  1
後柱（P）
 72
     4
 11
24564.291691008631
 21
20117.423881045848
 31
0.0
  0
LINE
  5
12218
  8
0-6
  6
CONTINUOUS
 62
     6
 10
25473.36713183004
 20
19371.424475045871
 30
0.0
 11
25068.290768008621
 21
19957.423617045872
 31
0.0
  0
LINE
  5
12219
  8
0-6
  6
CONTINUOUS
 62
     6
 10
23727.229536539111
 20
18736.494973171109
 30
0.0
 11
25183.229536539111
 21
18736.494973171109
 31
0.0
  0
TEXT
  5
1221A
  8
0-6
  6
CONTINUOUS
 62
     7
 10
23767.23480979152
 20
18816.495237171112
 30
0.0
 40
160.0
  1
後柱カバー（P）
 72
     4
 11
24455.23480979152
 21
18896.495237171112
 31
0.0
  0
LINE
  5
1221B
  8
0-6
  6
CONTINUOUS
 62
     6
 10
25482.467131830039
 20
19224.885710999992
 30
0.0
 11
25183.229536539111
 21
18736.494973171109
 31
0.0
  0
LINE
  5
1226D
  8
0-1
  6
CONTINUOUS
 62
     3
 10
7526.4427514765857
 20
18563.734507646241
 30
0.0
 11
7526.4427514765857
 21
19510.488495000001
 31
0.0
  0
LINE
  5
1226E
  8
0-1
  6
CONTINUOUS
 62
     3
 10
7563.4419324765959
 20
18548.65182931547
 30
0.0
 11
7563.4419324765959
 21
19510.488495000001
 31
0.0
  0
LINE
  5
1226F
  8
0-1
  6
CONTINUOUS
 62
     3
 10
7726.4434104765915
 20
18482.20444335528
 30
0.0
 11
7726.4434104765942
 21
19510.488495000001
 31
0.0
  0
LINE
  5
12270
  8
0-1
  6
CONTINUOUS
 62
     3
 10
7763.4435824765942
 20
18467.121361044359
 30
0.0
 11
7763.4435824765942
 21
19510.488495000001
 31
0.0
  0
LINE
  5
12271
  8
SUNPOU
  6
CONTINUOUS
 10
5626.4415304765917
 20
19540.484140500012
 30
0.0
 11
5626.4415304765917
 21
20337.45140827847
 31
0.0
  0
LINE
  5
12272
  8
SUNPOU
  6
CONTINUOUS
 10
5626.4415304765771
 20
13217.673080847801
 30
0.0
 11
5626.4415304765771
 21
13958.98567099998
 31
0.0
  0
LINE
  5
12278
  8
0-6
  6
CONTINUOUS
 62
     6
 10
6613.8913998545158
 20
17514.824153553742
 30
0.0
 11
6654.1492998280391
 21
17357.69293702946
 31
0.0
  0
LINE
  5
12279
  8
0-6
  6
CONTINUOUS
 62
     6
 10
6654.1492998280391
 20
17357.69293702946
 30
0.0
 11
6702.9355456975991
 21
17379.244319889542
 31
0.0
  0
LINE
  5
1227A
  8
0-6
  6
CONTINUOUS
 62
     6
 10
6702.9355456975991
 20
17379.244319889542
 30
0.0
 11
6613.8913998545158
 21
17514.824153553742
 31
0.0
  0
LINE
  5
1227B
  8
0-1
  6
CONTINUOUS
 62
     3
 10
7326.4430804765861
 20
18645.264169180031
 30
0.0
 11
7326.4430804765861
 21
19510.488495000001
 31
0.0
  0
LINE
  5
1227C
  8
0-1
  6
CONTINUOUS
 62
     3
 10
7363.4432524765871
 20
18630.181086869081
 30
0.0
 11
7363.4432524765871
 21
19510.488495000001
 31
0.0
  0
LINE
  5
1227D
  8
0-1
  6
CONTINUOUS
 62
     3
 10
6980.73090447094
 20
8152.2344180000036
 30
0.0
 11
6980.73090447094
 21
6291.1885389999998
 31
0.0
  0
LINE
  5
1227E
  8
0-1
  6
CONTINUOUS
 62
     3
 10
6943.7327124709409
 20
8152.2344180000036
 30
0.0
 11
6943.7327124709409
 21
6291.1885389999998
 31
0.0
  0
LINE
  5
1227F
  8
0-1
  6
CONTINUOUS
 62
     3
 10
6805.2317354709367
 20
6291.1885389999998
 30
0.0
 11
6805.2317354709367
 21
8152.2344180000036
 31
0.0
  0
LINE
  5
12280
  8
0-1
  6
CONTINUOUS
 62
     3
 10
6820.2315374709506
 20
6291.1885389999998
 30
0.0
 11
6820.2315374709506
 21
8152.2344180000036
 31
0.0
  0
LINE
  5
12281
  8
0-1
  6
CONTINUOUS
 62
     3
 10
7104.2310894709426
 20
6291.1885389999998
 30
0.0
 11
7104.2310894709426
 21
8152.2344180000036
 31
0.0
  0
LINE
  5
12282
  8
0-1
  6
CONTINUOUS
 62
     3
 10
7119.2318804709503
 20
6291.1885389999998
 30
0.0
 11
7119.2318804709503
 21
8152.2344180000036
 31
0.0
  0
LINE
  5
12283
  8
0-1
  6
CONTINUOUS
 62
     3
 10
6621.232449470951
 20
8152.2344180000064
 30
0.0
 11
6621.232449470951
 21
6241.1883740000021
 31
0.0
  0
LINE
  5
12284
  8
0-1
  6
CONTINUOUS
 62
     3
 10
6926.4427504765808
 20
18808.323895004782
 30
0.0
 11
6926.4427504765808
 21
19510.488495000001
 31
0.0
  0
LINE
  5
12285
  8
0-1
  6
CONTINUOUS
 62
     3
 10
6963.4419314765873
 20
18793.241216673981
 30
0.0
 11
6963.4419314765873
 21
19510.488495000001
 31
0.0
  0
LINE
  5
12286
  8
0-1
  6
CONTINUOUS
 62
     3
 10
7126.4434094765847
 20
18726.793830713788
 30
0.0
 11
7126.4434094765857
 21
19510.488495000001
 31
0.0
  0
LINE
  5
12287
  8
0-1
  6
CONTINUOUS
 62
     3
 10
7163.4435814765857
 20
18711.710748402878
 30
0.0
 11
7163.4435814765857
 21
19510.488495000001
 31
0.0
  0
LINE
  5
12288
  8
0-1
  6
CONTINUOUS
 62
     3
 10
6726.4430794765758
 20
18889.853556538521
 30
0.0
 11
6726.4430794765813
 21
19510.488495000001
 31
0.0
  0
LINE
  5
12289
  8
0-1
  6
CONTINUOUS
 62
     3
 10
6763.4432514765786
 20
18874.770474227618
 30
0.0
 11
6763.4432514765786
 21
19510.488495000001
 31
0.0
  0
LINE
  5
1228A
  8
0-1
  6
CONTINUOUS
 62
     3
 10
11926.45232147672
 20
16756.484355072182
 30
0.0
 11
11926.4523214767
 21
19510.488495000001
 31
0.0
  0
LINE
  5
1228B
  8
0-1
  6
CONTINUOUS
 62
     3
 10
11963.45249347672
 20
16741.268818412482
 30
0.0
 11
11963.45249347672
 21
19510.488495000001
 31
0.0
  0
LINE
  5
1228C
  8
0-1
  6
CONTINUOUS
 62
     3
 10
12126.452981476719
 20
16674.238321886402
 30
0.0
 11
12126.452981476719
 21
19510.488495000001
 31
0.0
  0
LINE
  5
1228D
  8
0-1
  6
CONTINUOUS
 62
     3
 10
12163.453153476719
 20
16659.02278522672
 30
0.0
 11
12163.453153476719
 21
19510.488495000001
 31
0.0
  0
TEXT
  5
1228E
  8
0-6
  6
CONTINUOUS
 62
     7
 10
10595.21413935019
 20
13562.291589831861
 30
0.0
 40
160.0
  1
梁（P）前
 72
     4
 11
11037.880806016859
 21
13642.291589831861
 31
0.0
  0
LINE
  5
1228F
  8
0-6
  6
CONTINUOUS
 62
     6
 10
11516.663644288779
 20
13482.292315831861
 30
0.0
 11
10522.38984076688
 21
13482.292315831861
 31
0.0
  0
TEXT
  5
12290
  8
0-6
  6
CONTINUOUS
 62
     7
 10
13093.79920666153
 20
13367.28188978346
 30
0.0
 40
160.0
  1
桁前（PU）+ 桁補強（PU）
 72
     4
 11
14341.79920666153
 21
13447.28188978346
 31
0.0
  0
LINE
  5
12291
  8
0-6
  6
CONTINUOUS
 62
     6
 10
15630.4620682726
 20
13265.735322594341
 30
0.0
 11
13047.78773551722
 21
13265.735322594341
 31
0.0
  0
TEXT
  5
12292
  8
0-6
  6
CONTINUOUS
 62
     7
 10
12802.704881859399
 20
15378.48943889058
 30
0.0
 40
160.0
  1
桁（PU）B + 桁補強（PU）
 72
     4
 11
14082.704881859399
 21
15458.48943889058
 31
0.0
  0
LINE
  5
12293
  8
0-6
  6
CONTINUOUS
 62
     6
 10
15455.144613567079
 20
15286.9713410122
 30
0.0
 11
12689.68267770859
 21
15286.9713410122
 31
0.0
  0
TEXT
  5
12294
  8
0-6
  6
CONTINUOUS
 62
     7
 10
12802.704881859399
 20
18296.489438890541
 30
0.0
 40
160.0
  1
桁（PU）B + 桁補強（PU）
 72
     4
 11
14082.704881859399
 21
18376.489438890541
 31
0.0
  0
LINE
  5
12295
  8
0-6
  6
CONTINUOUS
 62
     6
 10
15455.144613567079
 20
18204.971341012191
 30
0.0
 11
12689.68267770859
 21
18204.971341012191
 31
0.0
  0
TEXT
  5
12296
  8
0-6
  6
CONTINUOUS
 62
     7
 10
12802.704881859399
 20
16837.489439890542
 30
0.0
 40
160.0
  1
桁（PU）A + 桁補強（PU）
 72
     4
 11
14082.704881859399
 21
16917.489439890542
 31
0.0
  0
LINE
  5
12297
  8
0-6
  6
CONTINUOUS
 62
     6
 10
15455.144613567079
 20
16745.971342012192
 30
0.0
 11
12689.68267770859
 21
16745.971342012192
 31
0.0
  0
TEXT
  5
12298
  8
0-6
  6
CONTINUOUS
 62
     7
 10
12802.704881859399
 20
19410.991338890552
 30
0.0
 40
160.0
  1
桁（PU）A + 桁補強（PU）
 72
     4
 11
14082.704881859399
 21
19490.991338890552
 31
0.0
  0
LINE
  5
12299
  8
0-6
  6
CONTINUOUS
 62
     6
 10
15455.144613567079
 20
19319.473241012191
 30
0.0
 11
12689.68267770859
 21
19319.473241012191
 31
0.0
  0
LINE
  5
1229A
  8
0-6
  6
CONTINUOUS
 62
     6
 10
12056.740036757779
 20
14146.48689899999
 30
0.0
 11
13047.78773551722
 21
13265.735322594341
 31
0.0
  0
LINE
  5
1229B
  8
0-6
  6
CONTINUOUS
 62
     6
 10
12689.68267770859
 20
16745.971342012192
 30
0.0
 11
11627.53400630551
 21
16287.1767846046
 31
0.0
  0
LINE
  5
1229C
  8
0-6
  6
CONTINUOUS
 62
     6
 10
11627.53400630551
 20
16287.1767846046
 30
0.0
 11
11369.90963551447
 21
16705.485857000011
 31
0.0
  0
LINE
  5
1229D
  8
0-6
  6
CONTINUOUS
 62
     6
 10
12689.68267770859
 20
15286.9713410122
 30
0.0
 11
11627.53400630551
 21
14828.1767836046
 31
0.0
  0
LINE
  5
1229E
  8
0-6
  6
CONTINUOUS
 62
     6
 10
11627.53400630551
 20
14828.1767836046
 30
0.0
 11
11369.90963551447
 21
15246.48585600003
 31
0.0
  0
LINE
  5
1229F
  8
0-6
  6
CONTINUOUS
 62
     6
 10
12689.68267770859
 20
18204.971341012191
 30
0.0
 11
11627.53400630551
 21
17746.176783604591
 31
0.0
  0
LINE
  5
122A0
  8
0-6
  6
CONTINUOUS
 62
     6
 10
11627.53400630551
 20
17746.176783604591
 30
0.0
 11
11369.90963551447
 21
18164.48585600001
 31
0.0
  0
LINE
  5
122A1
  8
0-6
  6
CONTINUOUS
 62
     6
 10
12689.68267770859
 20
19319.473241012191
 30
0.0
 11
11627.53400630551
 21
18860.678683604579
 31
0.0
  0
LINE
  5
122A2
  8
0-6
  6
CONTINUOUS
 62
     6
 10
11627.53400630551
 20
18860.678683604579
 30
0.0
 11
11369.90963551447
 21
19278.987755999991
 31
0.0
  0
LINE
  5
122A5
  8
WAKUSEN-01
 10
868.00000000000193
 20
22484.000000000011
 30
0.0
 11
32764.000000000011
 21
22484.000000000011
 31
0.0
  0
LINE
  5
122A8
  8
WAKUSEN-01
 10
20560.0
 20
2484.0
 30
0.0
 11
32764.0
 21
2484.0
 31
0.0
  0
LINE
  5
122A9
  8
WAKUSEN-02
 10
20560.0
 20
1655.9999999999991
 30
0.0
 11
26868.0
 21
1655.9999999999991
 31
0.0
  0
TEXT
  5
122AA
  8
WAKUMOJI-01
 10
20670.260259962761
 20
2125.9030093393221
 30
0.0
 40
240.0
  1
名　称
  7
WAKUMOJI
  0
TEXT
  5
122AB
  8
WAKUMOJI-01
 10
20656.505485091919
 20
1319.12897497982
 30
0.0
 40
240.0
  1
機種名
  7
WAKUMOJI
  0
LINE
  5
122AE
  8
YODOROGO
 10
29977.604341291921
 20
1995.7494964292871
 30
0.0
 11
29829.604341291921
 21
1995.7494964292871
 31
0.0
1001
AUTOCAD_POSTSCRIPT_FIGURE
1002
{
1000
PSFILL
1000
Grayscale
1000
Grayscale
1070
    25
1002
}
  0
LINE
  5
122AF
  8
YODOROGO
 10
29829.604341291921
 20
1947.749496429288
 30
0.0
 11
29977.604341291921
 21
1947.749496429288
 31
0.0
1001
AUTOCAD_POSTSCRIPT_FIGURE
1002
{
1000
PSFILL
1000
Grayscale
1000
Grayscale
1070
    25
1002
}
  0
LINE
  5
122B0
  8
YODOROGO
 10
29977.604341291921
 20
1907.7494964292871
 30
0.0
 11
29829.604341291921
 21
1907.7494964292871
 31
0.0
1001
AUTOCAD_POSTSCRIPT_FIGURE
1002
{
1000
PSFILL
1000
Grayscale
1000
Grayscale
1070
    25
1002
}
  0
LINE
  5
122B1
  8
YODOROGO
 10
29829.604341291921
 20
1859.749496429288
 30
0.0
 11
29977.604341291921
 21
1859.749496429288
 31
0.0
1001
AUTOCAD_POSTSCRIPT_FIGURE
1002
{
1000
PSFILL
1000
Grayscale
1000
Grayscale
1070
    25
1002
}
  0
LINE
  5
122B2
  8
YODOROGO
 10
29977.604341291921
 20
1819.7494964292871
 30
0.0
 11
29829.604341291921
 21
1819.7494964292871
 31
0.0
1001
AUTOCAD_POSTSCRIPT_FIGURE
1002
{
1000
PSFILL
1000
Grayscale
1000
Grayscale
1070
    25
1002
}
  0
LINE
  5
122B3
  8
YODOROGO
 10
29921.60434129191
 20
1707.749496429288
 30
0.0
 11
29977.604341291921
 21
1707.749496429288
 31
0.0
1001
AUTOCAD_POSTSCRIPT_FIGURE
1002
{
1000
PSFILL
1000
Grayscale
1000
Grayscale
1070
    25
1002
}
  0
LINE
  5
122B4
  8
YODOROGO
 10
29737.604341291921
 20
1427.749496429288
 30
0.0
 11
29937.604341291932
 21
1481.3393349155101
 31
0.0
  0
LINE
  5
122B5
  8
YODOROGO
 10
29949.60434129191
 20
1707.749496429288
 30
0.0
 11
29885.604341291921
 21
1707.749496429288
 31
0.0
  0
ARC
  5
122B6
  8
YODOROGO
 10
30254.34774982791
 20
1807.864609233261
 30
0.0
 40
381.88686420564721
 50
213.96111677667841
 51
264.47872074317792
  0
ARC
  5
122B7
  8
YODOROGO
 10
30254.347749827921
 20
1807.864609233302
 30
0.0
 40
381.8868642056816
 50
208.14114420486601
 51
212.9210361185994
  0
LINE
  5
122B8
  8
YODOROGO
 10
29771.409872985321
 20
1556.807661346234
 30
0.0
 11
29933.78413250855
 21
1600.3157130570869
 31
0.0
  0
LINE
  5
122B9
  8
YODOROGO
 10
29737.604341291921
 20
1427.749496429288
 30
0.0
 11
29937.604341291932
 21
1481.3393349155101
 31
0.0
  0
LINE
  5
122BA
  8
YODOROGO
 10
29949.60434129191
 20
1707.749496429288
 30
0.0
 11
29885.604341291921
 21
1707.749496429288
 31
0.0
  0
ARC
  5
122BB
  8
YODOROGO
 10
30254.34774982791
 20
1807.864609233261
 30
0.0
 40
381.88686420564721
 50
213.96111677667841
 51
264.47872074317792
  0
LINE
  5
122BC
  8
YODOROGO
 10
28793.60434129191
 20
1819.7494964292871
 30
0.0
 11
28433.60434129191
 21
1819.7494964292871
 31
0.0
  0
LINE
  5
122BD
  8
YODOROGO
 10
28513.60434129191
 20
1427.749496429288
 30
0.0
 11
28793.60434129191
 21
1427.749496429288
 31
0.0
  0
LINE
  5
122BE
  8
YODOROGO
 10
28729.604341291921
 20
1923.7494964292871
 30
0.0
 11
28497.60434129191
 21
1923.7494964292871
 31
0.0
  0
LINE
  5
122BF
  8
YODOROGO
 10
28585.604341291921
 20
2027.749496429288
 30
0.0
 11
28657.604341291921
 21
2027.749496429288
 31
0.0
  0
LINE
  5
122C0
  8
YODOROGO
 10
28433.60434129191
 20
1707.749496429288
 30
0.0
 11
28433.60434129191
 21
1507.749496429288
 31
0.0
  0
LINE
  5
122C1
  8
YODOROGO
 10
28497.60434129191
 20
1563.7494964292871
 30
0.0
 11
28497.60434129191
 21
1707.749496429288
 31
0.0
  0
LINE
  5
122C2
  8
YODOROGO
 10
28585.604341291921
 20
1747.74949642929
 30
0.0
 11
28585.604341291921
 21
1547.749496429288
 31
0.0
  0
LINE
  5
122C3
  8
YODOROGO
 10
27857.604341291921
 20
1683.749496429288
 30
0.0
 11
27777.604341291921
 21
1619.9724140445701
 31
0.0
  0
LINE
  5
122C4
  8
YODOROGO
 10
27937.604341291921
 20
1619.9724140445701
 30
0.0
 11
27857.604341291921
 21
1683.749496429288
 31
0.0
  0
LINE
  5
122C5
  8
YODOROGO
 10
27857.604341291921
 20
1707.749496429288
 30
0.0
 11
27937.604341291921
 21
1643.9724140445701
 31
0.0
  0
LINE
  5
122C6
  8
YODOROGO
 10
27777.604341291921
 20
1643.9724140445701
 30
0.0
 11
27857.604341291921
 21
1707.749496429288
 31
0.0
  0
LINE
  5
122C7
  8
YODOROGO
 10
28040.913204016892
 20
1659.749496429288
 30
0.0
 11
28040.913204016892
 21
1683.7494964292871
 31
0.0
  0
LINE
  5
122C8
  8
YODOROGO
 10
27977.604341291921
 20
1683.7494964292871
 30
0.0
 11
27977.604341291921
 21
1667.749496429285
 31
0.0
  0
LINE
  5
122C9
  8
YODOROGO
 10
28098.135520230931
 20
1707.749496429288
 30
0.0
 11
28098.135520230931
 21
1655.5036372746561
 31
0.0
1001
AUTOCAD_POSTSCRIPT_FIGURE
1002
{
1000
PSFILL
1000
Grayscale
1000
Grayscale
1070
   100
1002
}
  0
LINE
  5
122CA
  8
YODOROGO
 10
28082.135520230921
 20
1655.5036372746561
 30
0.0
 11
28082.135520230921
 21
1707.749496429288
 31
0.0
1001
AUTOCAD_POSTSCRIPT_FIGURE
1002
{
1000
PSFILL
1000
Grayscale
1000
Grayscale
1070
   100
1002
}
  0
LINE
  5
122CB
  8
YODOROGO
 10
27809.604341291921
 20
1608.771904043258
 30
0.0
 11
27809.604341291921
 21
1632.771904043258
 31
0.0
  0
LINE
  5
122CC
  8
YODOROGO
 10
27905.604341291921
 20
1608.771904043258
 30
0.0
 11
27809.604341291921
 21
1608.771904043258
 31
0.0
  0
LINE
  5
122CD
  8
YODOROGO
 10
27905.604341291921
 20
1632.771904043258
 30
0.0
 11
27905.604341291921
 21
1608.771904043258
 31
0.0
  0
LINE
  5
122CE
  8
YODOROGO
 10
27809.604341291921
 20
1632.771904043258
 30
0.0
 11
27905.604341291921
 21
1632.771904043258
 31
0.0
  0
LINE
  5
122CF
  8
YODOROGO
 10
27824.509588915738
 20
1568.5028573704751
 30
0.0
 11
27785.604341291921
 21
1475.7494964292871
 31
0.0
1001
AUTOCAD_POSTSCRIPT_FIGURE
1002
{
1000
PSFILL
1000
Grayscale
1000
Grayscale
1070
   100
1002
}
  0
LINE
  5
122D0
  8
YODOROGO
 10
27777.604341291921
 20
1568.5028573704751
 30
0.0
 11
27824.509588915738
 21
1568.5028573704751
 31
0.0
1001
AUTOCAD_POSTSCRIPT_FIGURE
1002
{
1000
PSFILL
1000
Grayscale
1000
Grayscale
1070
   100
1002
}
  0
LINE
  5
122D1
  8
YODOROGO
 10
27777.604341291921
 20
1588.5028573704751
 30
0.0
 11
27777.604341291921
 21
1568.5028573704751
 31
0.0
1001
AUTOCAD_POSTSCRIPT_FIGURE
1002
{
1000
PSFILL
1000
Grayscale
1000
Grayscale
1070
   100
1002
}
  0
LINE
  5
122D2
  8
YODOROGO
 10
27937.604341291921
 20
1588.5028573704751
 30
0.0
 11
27777.604341291921
 21
1588.5028573704751
 31
0.0
1001
AUTOCAD_POSTSCRIPT_FIGURE
1002
{
1000
PSFILL
1000
Grayscale
1000
Grayscale
1070
   100
1002
}
  0
LINE
  5
122D3
  8
YODOROGO
 10
27937.604341291921
 20
1568.5028573704751
 30
0.0
 11
27937.604341291921
 21
1588.5028573704751
 31
0.0
1001
AUTOCAD_POSTSCRIPT_FIGURE
1002
{
1000
PSFILL
1000
Grayscale
1000
Grayscale
1070
   100
1002
}
  0
LINE
  5
122D4
  8
YODOROGO
 10
27844.509588915738
 20
1568.5028573704751
 30
0.0
 11
27937.604341291921
 21
1568.5028573704751
 31
0.0
1001
AUTOCAD_POSTSCRIPT_FIGURE
1002
{
1000
PSFILL
1000
Grayscale
1000
Grayscale
1070
   100
1002
}
  0
LINE
  5
122D5
  8
YODOROGO
 10
27815.546718284771
 20
1495.7494964292871
 30
0.0
 11
27844.509588915738
 21
1568.5028573704751
 31
0.0
1001
AUTOCAD_POSTSCRIPT_FIGURE
1002
{
1000
PSFILL
1000
Grayscale
1000
Grayscale
1070
   100
1002
}
  0
LINE
  5
122D6
  8
YODOROGO
 10
27902.054790808648
 20
1495.7494964292871
 30
0.0
 11
27815.546718284771
 21
1495.7494964292871
 31
0.0
1001
AUTOCAD_POSTSCRIPT_FIGURE
1002
{
1000
PSFILL
1000
Grayscale
1000
Grayscale
1070
   100
1002
}
  0
LINE
  5
122D7
  8
YODOROGO
 10
27885.065004790951
 20
1536.2338106976929
 30
0.0
 11
27902.054790808648
 21
1495.7494964292871
 31
0.0
1001
AUTOCAD_POSTSCRIPT_FIGURE
1002
{
1000
PSFILL
1000
Grayscale
1000
Grayscale
1070
   100
1002
}
  0
LINE
  5
122D8
  8
YODOROGO
 10
27901.065004790951
 20
1536.2338106976929
 30
0.0
 11
27885.065004790951
 21
1536.2338106976929
 31
0.0
1001
AUTOCAD_POSTSCRIPT_FIGURE
1002
{
1000
PSFILL
1000
Grayscale
1000
Grayscale
1070
   100
1002
}
  0
LINE
  5
122D9
  8
YODOROGO
 10
27929.604341291921
 20
1475.7494964292871
 30
0.0
 11
27901.065004790951
 21
1536.2338106976929
 31
0.0
1001
AUTOCAD_POSTSCRIPT_FIGURE
1002
{
1000
PSFILL
1000
Grayscale
1000
Grayscale
1070
   100
1002
}
  0
LINE
  5
122DA
  8
YODOROGO
 10
27785.604341291921
 20
1475.7494964292871
 30
0.0
 11
27929.604341291921
 21
1475.7494964292871
 31
0.0
1001
AUTOCAD_POSTSCRIPT_FIGURE
1002
{
1000
PSFILL
1000
Grayscale
1000
Grayscale
1070
   100
1002
}
  0
LINE
  5
122DB
  8
YODOROGO
 10
27777.604341291921
 20
1619.9724140445701
 30
0.0
 11
27777.604341291921
 21
1643.9724140445701
 31
0.0
  0
LINE
  5
122DC
  8
YODOROGO
 10
27937.604341291921
 20
1643.9724140445701
 30
0.0
 11
27937.604341291921
 21
1619.9724140445701
 31
0.0
  0
ARC
  5
122DD
  8
YODOROGO
 10
28225.940442146959
 20
1600.877765325326
 30
0.0
 40
175.9999999999998
 50
280.3644312771313
 51
3.5414836592180561
  0
ARC
  5
122DE
  8
YODOROGO
 10
28235.756030759301
 20
1633.5978069619041
 30
0.0
 40
111.9999999999982
 50
281.24905825041549
 51
348.75094174958321
  0
LINE
  5
122DF
  8
YODOROGO
 10
28257.604341291921
 20
1523.7494964292871
 30
0.0
 11
28257.604341291921
 21
1427.749496429288
 31
0.0
  0
LINE
  5
122E0
  8
YODOROGO
 10
28020.088903736909
 20
1610.650565061914
 30
0.0
 11
28040.913204016892
 21
1659.749496429288
 31
0.0
  0
LINE
  5
122E1
  8
YODOROGO
 10
28041.604341291921
 20
1583.120489948401
 30
0.0
 11
28020.088903736909
 21
1610.650565061914
 31
0.0
  0
LINE
  5
122E2
  8
YODOROGO
 10
28041.604341291921
 20
1563.120489948398
 30
0.0
 11
28041.604341291921
 21
1583.120489948401
 31
0.0
  0
LINE
  5
122E3
  8
YODOROGO
 10
28017.604341291921
 20
1585.2370637495301
 30
0.0
 11
28041.604341291921
 21
1563.120489948398
 31
0.0
  0
LINE
  5
122E4
  8
YODOROGO
 10
28017.604341291921
 20
1475.7494964292871
 30
0.0
 11
28017.604341291921
 21
1585.2370637495301
 31
0.0
  0
LINE
  5
122E5
  8
YODOROGO
 10
28001.604341291921
 20
1475.7494964292871
 30
0.0
 11
28017.604341291921
 21
1475.7494964292871
 31
0.0
  0
LINE
  5
122E6
  8
YODOROGO
 10
28001.604341291921
 20
1580.0053496897469
 30
0.0
 11
28001.604341291921
 21
1475.7494964292871
 31
0.0
  0
LINE
  5
122E7
  8
YODOROGO
 10
27977.604341291921
 20
1532.7680790334291
 30
0.0
 11
28001.604341291921
 21
1580.0053496897469
 31
0.0
  0
LINE
  5
122E8
  8
YODOROGO
 10
27977.604341291921
 20
1556.76807903343
 30
0.0
 11
27977.604341291921
 21
1532.7680790334291
 31
0.0
  0
LINE
  5
122E9
  8
YODOROGO
 10
28025.828774291349
 20
1667.749496429285
 30
0.0
 11
27977.604341291921
 21
1556.76807903343
 31
0.0
  0
LINE
  5
122EA
  8
YODOROGO
 10
27977.604341291921
 20
1667.749496429285
 30
0.0
 11
28025.828774291349
 21
1667.749496429285
 31
0.0
  0
LINE
  5
122EB
  8
YODOROGO
 10
28050.135520230899
 20
1655.5036372746561
 30
0.0
 11
28082.135520230921
 21
1655.5036372746561
 31
0.0
1001
AUTOCAD_POSTSCRIPT_FIGURE
1002
{
1000
PSFILL
1000
Grayscale
1000
Grayscale
1070
   100
1002
}
  0
LINE
  5
122EC
  8
YODOROGO
 10
28050.135520230899
 20
1631.5036372746561
 30
0.0
 11
28050.135520230899
 21
1655.5036372746561
 31
0.0
1001
AUTOCAD_POSTSCRIPT_FIGURE
1002
{
1000
PSFILL
1000
Grayscale
1000
Grayscale
1070
   100
1002
}
  0
LINE
  5
122ED
  8
YODOROGO
 10
28082.135520230921
 20
1631.5036372746561
 30
0.0
 11
28050.135520230899
 21
1631.5036372746561
 31
0.0
1001
AUTOCAD_POSTSCRIPT_FIGURE
1002
{
1000
PSFILL
1000
Grayscale
1000
Grayscale
1070
   100
1002
}
  0
LINE
  5
122EE
  8
YODOROGO
 10
28082.135520230921
 20
1499.749496429288
 30
0.0
 11
28082.135520230921
 21
1631.5036372746561
 31
0.0
1001
AUTOCAD_POSTSCRIPT_FIGURE
1002
{
1000
PSFILL
1000
Grayscale
1000
Grayscale
1070
   100
1002
}
  0
LINE
  5
122EF
  8
YODOROGO
 10
28050.135520230921
 20
1499.749496429288
 30
0.0
 11
28082.135520230921
 21
1499.749496429288
 31
0.0
1001
AUTOCAD_POSTSCRIPT_FIGURE
1002
{
1000
PSFILL
1000
Grayscale
1000
Grayscale
1070
   100
1002
}
  0
LINE
  5
122F0
  8
YODOROGO
 10
28050.135520230921
 20
1475.7494964292871
 30
0.0
 11
28050.135520230921
 21
1499.749496429288
 31
0.0
1001
AUTOCAD_POSTSCRIPT_FIGURE
1002
{
1000
PSFILL
1000
Grayscale
1000
Grayscale
1070
   100
1002
}
  0
LINE
  5
122F1
  8
YODOROGO
 10
28137.604341291921
 20
1475.7494964292871
 30
0.0
 11
28050.135520230921
 21
1475.7494964292871
 31
0.0
1001
AUTOCAD_POSTSCRIPT_FIGURE
1002
{
1000
PSFILL
1000
Grayscale
1000
Grayscale
1070
   100
1002
}
  0
LINE
  5
122F2
  8
YODOROGO
 10
28137.604341291921
 20
1499.749496429288
 30
0.0
 11
28137.604341291921
 21
1475.7494964292871
 31
0.0
1001
AUTOCAD_POSTSCRIPT_FIGURE
1002
{
1000
PSFILL
1000
Grayscale
1000
Grayscale
1070
   100
1002
}
  0
LINE
  5
122F3
  8
YODOROGO
 10
28098.135520230931
 20
1499.749496429288
 30
0.0
 11
28137.604341291921
 21
1499.749496429288
 31
0.0
1001
AUTOCAD_POSTSCRIPT_FIGURE
1002
{
1000
PSFILL
1000
Grayscale
1000
Grayscale
1070
   100
1002
}
  0
LINE
  5
122F4
  8
YODOROGO
 10
28098.135520230931
 20
1631.5036372746561
 30
0.0
 11
28098.135520230931
 21
1499.749496429288
 31
0.0
1001
AUTOCAD_POSTSCRIPT_FIGURE
1002
{
1000
PSFILL
1000
Grayscale
1000
Grayscale
1070
   100
1002
}
  0
LINE
  5
122F5
  8
YODOROGO
 10
28137.604341291921
 20
1631.5036372746561
 30
0.0
 11
28098.135520230931
 21
1631.5036372746561
 31
0.0
1001
AUTOCAD_POSTSCRIPT_FIGURE
1002
{
1000
PSFILL
1000
Grayscale
1000
Grayscale
1070
   100
1002
}
  0
LINE
  5
122F6
  8
YODOROGO
 10
28137.604341291921
 20
1655.5036372746561
 30
0.0
 11
28137.604341291921
 21
1631.5036372746561
 31
0.0
1001
AUTOCAD_POSTSCRIPT_FIGURE
1002
{
1000
PSFILL
1000
Grayscale
1000
Grayscale
1070
   100
1002
}
  0
LINE
  5
122F7
  8
YODOROGO
 10
28098.135520230931
 20
1655.5036372746561
 30
0.0
 11
28137.604341291921
 21
1655.5036372746561
 31
0.0
1001
AUTOCAD_POSTSCRIPT_FIGURE
1002
{
1000
PSFILL
1000
Grayscale
1000
Grayscale
1070
   100
1002
}
  0
LINE
  5
122F8
  8
YODOROGO
 10
28401.60434129191
 20
1667.749496429288
 30
0.0
 11
28345.604341291921
 21
1667.749496429288
 31
0.0
  0
LINE
  5
122F9
  8
YODOROGO
 10
28401.60434129191
 20
1611.749496429288
 30
0.0
 11
28401.60434129191
 21
1667.749496429288
 31
0.0
  0
LINE
  5
122FA
  8
YODOROGO
 10
28345.604341291921
 20
1667.749496429288
 30
0.0
 11
28345.604341291921
 21
1611.749496429288
 31
0.0
  0
ARC
  5
122FB
  8
YODOROGO
 10
28513.60434129191
 20
1507.749496429288
 30
0.0
 40
80.0
 50
180.0
 51
270.0
  0
ARC
  5
122FC
  8
YODOROGO
 10
28537.604341291921
 20
1563.7494964292871
 30
0.0
 40
40.0
 50
180.0
 51
270.0
  0
LINE
  5
122FD
  8
YODOROGO
 10
28561.604341291932
 20
1523.7494964292871
 30
0.0
 11
28537.604341291921
 21
1523.7494964292871
 31
0.0
  0
ARC
  5
122FE
  8
YODOROGO
 10
28561.604341291932
 20
1547.749496429285
 30
0.0
 40
23.999999999996358
 50
270.0
 51
0.0000000000054281
  0
LINE
  5
122FF
  8
YODOROGO
 10
27801.604341291921
 20
1890.786580793706
 30
0.0
 11
27777.604341291921
 21
1843.776747951672
 31
0.0
1001
AUTOCAD_POSTSCRIPT_FIGURE
1002
{
1000
PSFILL
1000
Grayscale
1000
Grayscale
1070
   100
1002
}
  0
LINE
  5
12300
  8
YODOROGO
 10
27801.604341291921
 20
1747.749496429286
 30
0.0
 11
27801.604341291921
 21
1890.786580793706
 31
0.0
1001
AUTOCAD_POSTSCRIPT_FIGURE
1002
{
1000
PSFILL
1000
Grayscale
1000
Grayscale
1070
   100
1002
}
  0
LINE
  5
12301
  8
YODOROGO
 10
27817.604341291921
 20
1747.749496429286
 30
0.0
 11
27801.604341291921
 21
1747.749496429286
 31
0.0
1001
AUTOCAD_POSTSCRIPT_FIGURE
1002
{
1000
PSFILL
1000
Grayscale
1000
Grayscale
1070
   100
1002
}
  0
LINE
  5
12302
  8
YODOROGO
 10
27817.604341291921
 20
1893.7713320852661
 30
0.0
 11
27817.604341291921
 21
1747.749496429286
 31
0.0
1001
AUTOCAD_POSTSCRIPT_FIGURE
1002
{
1000
PSFILL
1000
Grayscale
1000
Grayscale
1070
   100
1002
}
  0
LINE
  5
12303
  8
YODOROGO
 10
27841.604341291921
 20
1867.6547582841361
 30
0.0
 11
27817.604341291921
 21
1893.7713320852661
 31
0.0
1001
AUTOCAD_POSTSCRIPT_FIGURE
1002
{
1000
PSFILL
1000
Grayscale
1000
Grayscale
1070
   100
1002
}
  0
LINE
  5
12304
  8
YODOROGO
 10
27841.604341291921
 20
1883.6547582841361
 30
0.0
 11
27841.604341291921
 21
1867.6547582841361
 31
0.0
1001
AUTOCAD_POSTSCRIPT_FIGURE
1002
{
1000
PSFILL
1000
Grayscale
1000
Grayscale
1070
   100
1002
}
  0
LINE
  5
12305
  8
YODOROGO
 10
27817.604341291921
 20
1917.7713320852649
 30
0.0
 11
27841.604341291921
 21
1883.6547582841361
 31
0.0
1001
AUTOCAD_POSTSCRIPT_FIGURE
1002
{
1000
PSFILL
1000
Grayscale
1000
Grayscale
1070
   100
1002
}
  0
LINE
  5
12306
  8
YODOROGO
 10
27817.604341291921
 20
1939.749496429288
 30
0.0
 11
27817.604341291921
 21
1917.7713320852649
 31
0.0
1001
AUTOCAD_POSTSCRIPT_FIGURE
1002
{
1000
PSFILL
1000
Grayscale
1000
Grayscale
1070
   100
1002
}
  0
LINE
  5
12307
  8
YODOROGO
 10
27889.604341291921
 20
1939.749496429288
 30
0.0
 11
27817.604341291921
 21
1939.749496429288
 31
0.0
1001
AUTOCAD_POSTSCRIPT_FIGURE
1002
{
1000
PSFILL
1000
Grayscale
1000
Grayscale
1070
   100
1002
}
  0
LINE
  5
12308
  8
YODOROGO
 10
27889.604341291921
 20
1900.5683489363
 30
0.0
 11
27889.604341291921
 21
1939.749496429288
 31
0.0
1001
AUTOCAD_POSTSCRIPT_FIGURE
1002
{
1000
PSFILL
1000
Grayscale
1000
Grayscale
1070
   100
1002
}
  0
LINE
  5
12309
  8
YODOROGO
 10
27857.604341291921
 20
1900.5683489363
 30
0.0
 11
27889.604341291921
 21
1900.5683489363
 31
0.0
1001
AUTOCAD_POSTSCRIPT_FIGURE
1002
{
1000
PSFILL
1000
Grayscale
1000
Grayscale
1070
   100
1002
}
  0
LINE
  5
1230A
  8
YODOROGO
 10
27857.604341291921
 20
1884.568348936298
 30
0.0
 11
27857.604341291921
 21
1900.5683489363
 31
0.0
1001
AUTOCAD_POSTSCRIPT_FIGURE
1002
{
1000
PSFILL
1000
Grayscale
1000
Grayscale
1070
   100
1002
}
  0
LINE
  5
1230B
  8
YODOROGO
 10
27889.604341291921
 20
1884.568348936298
 30
0.0
 11
27857.604341291921
 21
1884.568348936298
 31
0.0
1001
AUTOCAD_POSTSCRIPT_FIGURE
1002
{
1000
PSFILL
1000
Grayscale
1000
Grayscale
1070
   100
1002
}
  0
LINE
  5
1230C
  8
YODOROGO
 10
27889.604341291921
 20
1879.6191779644371
 30
0.0
 11
27889.604341291921
 21
1884.568348936298
 31
0.0
1001
AUTOCAD_POSTSCRIPT_FIGURE
1002
{
1000
PSFILL
1000
Grayscale
1000
Grayscale
1070
   100
1002
}
  0
LINE
  5
1230D
  8
YODOROGO
 10
27849.604341291921
 20
1812.974981161417
 30
0.0
 11
27889.604341291921
 21
1879.6191779644371
 31
0.0
1001
AUTOCAD_POSTSCRIPT_FIGURE
1002
{
1000
PSFILL
1000
Grayscale
1000
Grayscale
1070
   100
1002
}
  0
LINE
  5
1230E
  8
YODOROGO
 10
27849.604341291921
 20
1796.9749811614161
 30
0.0
 11
27849.604341291921
 21
1812.974981161417
 31
0.0
1001
AUTOCAD_POSTSCRIPT_FIGURE
1002
{
1000
PSFILL
1000
Grayscale
1000
Grayscale
1070
   100
1002
}
  0
LINE
  5
1230F
  8
YODOROGO
 10
27889.604341291921
 20
1847.6191779644359
 30
0.0
 11
27849.604341291921
 21
1796.9749811614161
 31
0.0
1001
AUTOCAD_POSTSCRIPT_FIGURE
1002
{
1000
PSFILL
1000
Grayscale
1000
Grayscale
1070
   100
1002
}
  0
LINE
  5
12310
  8
YODOROGO
 10
27889.604341291921
 20
1747.749496429286
 30
0.0
 11
27889.604341291921
 21
1847.6191779644359
 31
0.0
1001
AUTOCAD_POSTSCRIPT_FIGURE
1002
{
1000
PSFILL
1000
Grayscale
1000
Grayscale
1070
   100
1002
}
  0
LINE
  5
12311
  8
YODOROGO
 10
27905.604341291921
 20
1747.749496429286
 30
0.0
 11
27889.604341291921
 21
1747.749496429286
 31
0.0
1001
AUTOCAD_POSTSCRIPT_FIGURE
1002
{
1000
PSFILL
1000
Grayscale
1000
Grayscale
1070
   100
1002
}
  0
LINE
  5
12312
  8
YODOROGO
 10
27905.604341291921
 20
1849.409012158806
 30
0.0
 11
27905.604341291921
 21
1747.749496429286
 31
0.0
1001
AUTOCAD_POSTSCRIPT_FIGURE
1002
{
1000
PSFILL
1000
Grayscale
1000
Grayscale
1070
   100
1002
}
  0
LINE
  5
12313
  8
YODOROGO
 10
27937.604341291921
 20
1796.9749811614161
 30
0.0
 11
27905.604341291921
 21
1849.409012158806
 31
0.0
1001
AUTOCAD_POSTSCRIPT_FIGURE
1002
{
1000
PSFILL
1000
Grayscale
1000
Grayscale
1070
   100
1002
}
  0
LINE
  5
12314
  8
YODOROGO
 10
27937.604341291921
 20
1812.974981161417
 30
0.0
 11
27937.604341291921
 21
1796.9749811614161
 31
0.0
1001
AUTOCAD_POSTSCRIPT_FIGURE
1002
{
1000
PSFILL
1000
Grayscale
1000
Grayscale
1070
   100
1002
}
  0
LINE
  5
12315
  8
YODOROGO
 10
27905.604341291921
 20
1881.4090121588081
 30
0.0
 11
27937.604341291921
 21
1812.974981161417
 31
0.0
1001
AUTOCAD_POSTSCRIPT_FIGURE
1002
{
1000
PSFILL
1000
Grayscale
1000
Grayscale
1070
   100
1002
}
  0
LINE
  5
12316
  8
YODOROGO
 10
27905.604341291921
 20
1884.5683489363
 30
0.0
 11
27905.604341291921
 21
1881.4090121588081
 31
0.0
1001
AUTOCAD_POSTSCRIPT_FIGURE
1002
{
1000
PSFILL
1000
Grayscale
1000
Grayscale
1070
   100
1002
}
  0
LINE
  5
12317
  8
YODOROGO
 10
27937.604341291921
 20
1884.568348936298
 30
0.0
 11
27905.604341291921
 21
1884.5683489363
 31
0.0
1001
AUTOCAD_POSTSCRIPT_FIGURE
1002
{
1000
PSFILL
1000
Grayscale
1000
Grayscale
1070
   100
1002
}
  0
LINE
  5
12318
  8
YODOROGO
 10
27937.604341291921
 20
1900.5683489363
 30
0.0
 11
27937.604341291921
 21
1884.568348936298
 31
0.0
1001
AUTOCAD_POSTSCRIPT_FIGURE
1002
{
1000
PSFILL
1000
Grayscale
1000
Grayscale
1070
   100
1002
}
  0
LINE
  5
12319
  8
YODOROGO
 10
27905.604341291921
 20
1900.5683489363
 30
0.0
 11
27937.604341291921
 21
1900.5683489363
 31
0.0
1001
AUTOCAD_POSTSCRIPT_FIGURE
1002
{
1000
PSFILL
1000
Grayscale
1000
Grayscale
1070
   100
1002
}
  0
LINE
  5
1231A
  8
YODOROGO
 10
27905.604341291921
 20
1939.749496429288
 30
0.0
 11
27905.604341291921
 21
1900.5683489363
 31
0.0
1001
AUTOCAD_POSTSCRIPT_FIGURE
1002
{
1000
PSFILL
1000
Grayscale
1000
Grayscale
1070
   100
1002
}
  0
LINE
  5
1231B
  8
YODOROGO
 10
27937.604341291921
 20
1939.749496429288
 30
0.0
 11
27905.604341291921
 21
1939.749496429288
 31
0.0
1001
AUTOCAD_POSTSCRIPT_FIGURE
1002
{
1000
PSFILL
1000
Grayscale
1000
Grayscale
1070
   100
1002
}
  0
LINE
  5
1231C
  8
YODOROGO
 10
27937.604341291921
 20
1955.7494964292871
 30
0.0
 11
27937.604341291921
 21
1939.749496429288
 31
0.0
1001
AUTOCAD_POSTSCRIPT_FIGURE
1002
{
1000
PSFILL
1000
Grayscale
1000
Grayscale
1070
   100
1002
}
  0
LINE
  5
1231D
  8
YODOROGO
 10
27905.604341291921
 20
1955.7494964292871
 30
0.0
 11
27937.604341291921
 21
1955.7494964292871
 31
0.0
1001
AUTOCAD_POSTSCRIPT_FIGURE
1002
{
1000
PSFILL
1000
Grayscale
1000
Grayscale
1070
   100
1002
}
  0
LINE
  5
1231E
  8
YODOROGO
 10
27905.604341291921
 20
1979.749496429288
 30
0.0
 11
27905.604341291921
 21
1955.7494964292871
 31
0.0
1001
AUTOCAD_POSTSCRIPT_FIGURE
1002
{
1000
PSFILL
1000
Grayscale
1000
Grayscale
1070
   100
1002
}
  0
LINE
  5
1231F
  8
YODOROGO
 10
27889.604341291921
 20
1979.749496429288
 30
0.0
 11
27905.604341291921
 21
1979.749496429288
 31
0.0
1001
AUTOCAD_POSTSCRIPT_FIGURE
1002
{
1000
PSFILL
1000
Grayscale
1000
Grayscale
1070
   100
1002
}
  0
LINE
  5
12320
  8
YODOROGO
 10
27889.604341291921
 20
1955.7494964292871
 30
0.0
 11
27889.604341291921
 21
1979.749496429288
 31
0.0
1001
AUTOCAD_POSTSCRIPT_FIGURE
1002
{
1000
PSFILL
1000
Grayscale
1000
Grayscale
1070
   100
1002
}
  0
LINE
  5
12321
  8
YODOROGO
 10
27865.604341291921
 20
1955.7494964292871
 30
0.0
 11
27889.604341291921
 21
1955.7494964292871
 31
0.0
1001
AUTOCAD_POSTSCRIPT_FIGURE
1002
{
1000
PSFILL
1000
Grayscale
1000
Grayscale
1070
   100
1002
}
  0
LINE
  5
12322
  8
YODOROGO
 10
27865.604341291921
 20
1979.749496429288
 30
0.0
 11
27865.604341291921
 21
1955.7494964292871
 31
0.0
1001
AUTOCAD_POSTSCRIPT_FIGURE
1002
{
1000
PSFILL
1000
Grayscale
1000
Grayscale
1070
   100
1002
}
  0
LINE
  5
12323
  8
YODOROGO
 10
27849.604341291921
 20
1979.749496429288
 30
0.0
 11
27865.604341291921
 21
1979.749496429288
 31
0.0
1001
AUTOCAD_POSTSCRIPT_FIGURE
1002
{
1000
PSFILL
1000
Grayscale
1000
Grayscale
1070
   100
1002
}
  0
LINE
  5
12324
  8
YODOROGO
 10
27849.604341291921
 20
1955.7494964292871
 30
0.0
 11
27849.604341291921
 21
1979.749496429288
 31
0.0
1001
AUTOCAD_POSTSCRIPT_FIGURE
1002
{
1000
PSFILL
1000
Grayscale
1000
Grayscale
1070
   100
1002
}
  0
LINE
  5
12325
  8
YODOROGO
 10
27817.604341291921
 20
1955.7494964292871
 30
0.0
 11
27849.604341291921
 21
1955.7494964292871
 31
0.0
1001
AUTOCAD_POSTSCRIPT_FIGURE
1002
{
1000
PSFILL
1000
Grayscale
1000
Grayscale
1070
   100
1002
}
  0
LINE
  5
12326
  8
YODOROGO
 10
27817.604341291921
 20
1979.749496429288
 30
0.0
 11
27817.604341291921
 21
1955.7494964292871
 31
0.0
1001
AUTOCAD_POSTSCRIPT_FIGURE
1002
{
1000
PSFILL
1000
Grayscale
1000
Grayscale
1070
   100
1002
}
  0
LINE
  5
12327
  8
YODOROGO
 10
27801.604341291921
 20
1979.749496429288
 30
0.0
 11
27817.604341291921
 21
1979.749496429288
 31
0.0
1001
AUTOCAD_POSTSCRIPT_FIGURE
1002
{
1000
PSFILL
1000
Grayscale
1000
Grayscale
1070
   100
1002
}
  0
LINE
  5
12328
  8
YODOROGO
 10
27801.604341291921
 20
1955.7494964292871
 30
0.0
 11
27801.604341291921
 21
1979.749496429288
 31
0.0
1001
AUTOCAD_POSTSCRIPT_FIGURE
1002
{
1000
PSFILL
1000
Grayscale
1000
Grayscale
1070
   100
1002
}
  0
LINE
  5
12329
  8
YODOROGO
 10
27777.604341291921
 20
1955.7494964292871
 30
0.0
 11
27801.604341291921
 21
1955.7494964292871
 31
0.0
1001
AUTOCAD_POSTSCRIPT_FIGURE
1002
{
1000
PSFILL
1000
Grayscale
1000
Grayscale
1070
   100
1002
}
  0
LINE
  5
1232A
  8
YODOROGO
 10
27777.604341291921
 20
1939.749496429288
 30
0.0
 11
27777.604341291921
 21
1955.7494964292871
 31
0.0
1001
AUTOCAD_POSTSCRIPT_FIGURE
1002
{
1000
PSFILL
1000
Grayscale
1000
Grayscale
1070
   100
1002
}
  0
LINE
  5
1232B
  8
YODOROGO
 10
27801.604341291921
 20
1939.749496429288
 30
0.0
 11
27777.604341291921
 21
1939.749496429288
 31
0.0
1001
AUTOCAD_POSTSCRIPT_FIGURE
1002
{
1000
PSFILL
1000
Grayscale
1000
Grayscale
1070
   100
1002
}
  0
LINE
  5
1232C
  8
YODOROGO
 10
27801.604341291921
 20
1914.7865807937051
 30
0.0
 11
27801.604341291921
 21
1939.749496429288
 31
0.0
1001
AUTOCAD_POSTSCRIPT_FIGURE
1002
{
1000
PSFILL
1000
Grayscale
1000
Grayscale
1070
   100
1002
}
  0
LINE
  5
1232D
  8
YODOROGO
 10
27777.604341291921
 20
1859.776747951671
 30
0.0
 11
27801.604341291921
 21
1914.7865807937051
 31
0.0
1001
AUTOCAD_POSTSCRIPT_FIGURE
1002
{
1000
PSFILL
1000
Grayscale
1000
Grayscale
1070
   100
1002
}
  0
LINE
  5
1232E
  8
YODOROGO
 10
27777.604341291921
 20
1843.776747951672
 30
0.0
 11
27777.604341291921
 21
1859.776747951671
 31
0.0
1001
AUTOCAD_POSTSCRIPT_FIGURE
1002
{
1000
PSFILL
1000
Grayscale
1000
Grayscale
1070
   100
1002
}
  0
LINE
  5
1232F
  8
YODOROGO
 10
28257.604341291921
 20
1867.7494964292871
 30
0.0
 11
28401.60434129191
 21
1824.877625640306
 31
0.0
1001
AUTOCAD_POSTSCRIPT_FIGURE
1002
{
1000
PSFILL
1000
Grayscale
1000
Grayscale
1070
   100
1002
}
  0
LINE
  5
12330
  8
YODOROGO
 10
28401.60434129191
 20
1752.877625640306
 30
0.0
 11
28257.604341291921
 21
1795.7494964292871
 31
0.0
1001
AUTOCAD_POSTSCRIPT_FIGURE
1002
{
1000
PSFILL
1000
Grayscale
1000
Grayscale
1070
   100
1002
}
  0
LINE
  5
12331
  8
YODOROGO
 10
28401.60434129191
 20
1984.877625640306
 30
0.0
 11
28257.604341291921
 21
2027.749496429288
 31
0.0
1001
AUTOCAD_POSTSCRIPT_FIGURE
1002
{
1000
PSFILL
1000
Grayscale
1000
Grayscale
1070
   100
1002
}
  0
LINE
  5
12332
  8
YODOROGO
 10
28257.604341291921
 20
1959.749496429288
 30
0.0
 11
28401.60434129191
 21
1916.8776256403071
 31
0.0
1001
AUTOCAD_POSTSCRIPT_FIGURE
1002
{
1000
PSFILL
1000
Grayscale
1000
Grayscale
1070
   100
1002
}
  0
LINE
  5
12333
  8
YODOROGO
 10
28257.604341291921
 20
1795.7494964292871
 30
0.0
 11
28257.604341291921
 21
1867.7494964292871
 31
0.0
1001
AUTOCAD_POSTSCRIPT_FIGURE
1002
{
1000
PSFILL
1000
Grayscale
1000
Grayscale
1070
   100
1002
}
  0
LINE
  5
12334
  8
YODOROGO
 10
28257.604341291921
 20
2027.749496429288
 30
0.0
 11
28257.604341291921
 21
1959.749496429288
 31
0.0
1001
AUTOCAD_POSTSCRIPT_FIGURE
1002
{
1000
PSFILL
1000
Grayscale
1000
Grayscale
1070
   100
1002
}
  0
LINE
  5
12335
  8
YODOROGO
 10
28080.236320206739
 20
1939.749496429288
 30
0.0
 11
28129.60434129191
 21
1747.749496429286
 31
0.0
1001
AUTOCAD_POSTSCRIPT_FIGURE
1002
{
1000
PSFILL
1000
Grayscale
1000
Grayscale
1070
   100
1002
}
  0
LINE
  5
12336
  8
YODOROGO
 10
27977.604341291921
 20
1939.749496429288
 30
0.0
 11
28080.236320206739
 21
1939.749496429288
 31
0.0
1001
AUTOCAD_POSTSCRIPT_FIGURE
1002
{
1000
PSFILL
1000
Grayscale
1000
Grayscale
1070
   100
1002
}
  0
LINE
  5
12337
  8
YODOROGO
 10
27977.604341291921
 20
1955.7494964292871
 30
0.0
 11
27977.604341291921
 21
1939.749496429288
 31
0.0
1001
AUTOCAD_POSTSCRIPT_FIGURE
1002
{
1000
PSFILL
1000
Grayscale
1000
Grayscale
1070
   100
1002
}
  0
LINE
  5
12338
  8
YODOROGO
 10
28076.60687851991
 20
1955.7494964292871
 30
0.0
 11
27977.604341291921
 21
1955.7494964292871
 31
0.0
1001
AUTOCAD_POSTSCRIPT_FIGURE
1002
{
1000
PSFILL
1000
Grayscale
1000
Grayscale
1070
   100
1002
}
  0
LINE
  5
12339
  8
YODOROGO
 10
28071.162715989711
 20
1979.749496429288
 30
0.0
 11
28076.60687851991
 21
1955.7494964292871
 31
0.0
1001
AUTOCAD_POSTSCRIPT_FIGURE
1002
{
1000
PSFILL
1000
Grayscale
1000
Grayscale
1070
   100
1002
}
  0
LINE
  5
1233A
  8
YODOROGO
 10
28091.162715989711
 20
1979.749496429288
 30
0.0
 11
28071.162715989711
 21
1979.749496429288
 31
0.0
1001
AUTOCAD_POSTSCRIPT_FIGURE
1002
{
1000
PSFILL
1000
Grayscale
1000
Grayscale
1070
   100
1002
}
  0
LINE
  5
1233B
  8
YODOROGO
 10
28095.806878519939
 20
1955.7494964292871
 30
0.0
 11
28091.162715989711
 21
1979.749496429288
 31
0.0
1001
AUTOCAD_POSTSCRIPT_FIGURE
1002
{
1000
PSFILL
1000
Grayscale
1000
Grayscale
1070
   100
1002
}
  0
LINE
  5
1233C
  8
YODOROGO
 10
28121.604341291921
 20
1955.7494964292871
 30
0.0
 11
28095.806878519939
 21
1955.7494964292871
 31
0.0
1001
AUTOCAD_POSTSCRIPT_FIGURE
1002
{
1000
PSFILL
1000
Grayscale
1000
Grayscale
1070
   100
1002
}
  0
LINE
  5
1233D
  8
YODOROGO
 10
28121.604341291921
 20
1979.749496429288
 30
0.0
 11
28121.604341291921
 21
1955.7494964292871
 31
0.0
1001
AUTOCAD_POSTSCRIPT_FIGURE
1002
{
1000
PSFILL
1000
Grayscale
1000
Grayscale
1070
   100
1002
}
  0
LINE
  5
1233E
  8
YODOROGO
 10
28137.604341291921
 20
1979.749496429288
 30
0.0
 11
28121.604341291921
 21
1979.749496429288
 31
0.0
1001
AUTOCAD_POSTSCRIPT_FIGURE
1002
{
1000
PSFILL
1000
Grayscale
1000
Grayscale
1070
   100
1002
}
  0
LINE
  5
1233F
  8
YODOROGO
 10
28137.604341291921
 20
1955.7494964292871
 30
0.0
 11
28137.604341291921
 21
1979.749496429288
 31
0.0
1001
AUTOCAD_POSTSCRIPT_FIGURE
1002
{
1000
PSFILL
1000
Grayscale
1000
Grayscale
1070
   100
1002
}
  0
LINE
  5
12340
  8
YODOROGO
 10
28137.604341291921
 20
1939.749496429288
 30
0.0
 11
28137.604341291921
 21
1955.7494964292871
 31
0.0
1001
AUTOCAD_POSTSCRIPT_FIGURE
1002
{
1000
PSFILL
1000
Grayscale
1000
Grayscale
1070
   100
1002
}
  0
LINE
  5
12341
  8
YODOROGO
 10
28098.902986873411
 20
1939.749496429288
 30
0.0
 11
28137.604341291921
 21
1939.749496429288
 31
0.0
1001
AUTOCAD_POSTSCRIPT_FIGURE
1002
{
1000
PSFILL
1000
Grayscale
1000
Grayscale
1070
   100
1002
}
  0
LINE
  5
12342
  8
YODOROGO
 10
28137.604341291921
 20
1747.749496429286
 30
0.0
 11
28098.902986873411
 21
1939.749496429288
 31
0.0
1001
AUTOCAD_POSTSCRIPT_FIGURE
1002
{
1000
PSFILL
1000
Grayscale
1000
Grayscale
1070
   100
1002
}
  0
LINE
  5
12343
  8
YODOROGO
 10
28129.60434129191
 20
1747.749496429286
 30
0.0
 11
28137.604341291921
 21
1747.749496429286
 31
0.0
1001
AUTOCAD_POSTSCRIPT_FIGURE
1002
{
1000
PSFILL
1000
Grayscale
1000
Grayscale
1070
   100
1002
}
  0
LINE
  5
12344
  8
YODOROGO
 10
28078.06921993379
 20
1775.7407762987939
 30
0.0
 11
27977.604341291921
 21
1747.749496429286
 31
0.0
  0
LINE
  5
12345
  8
YODOROGO
 10
28078.06921993379
 20
1798.6689795290731
 30
0.0
 11
28078.06921993379
 21
1775.7407762987939
 31
0.0
  0
LINE
  5
12346
  8
YODOROGO
 10
28033.83678061287
 20
1786.816933133767
 30
0.0
 11
28078.06921993379
 21
1798.6689795290731
 31
0.0
  0
LINE
  5
12347
  8
YODOROGO
 10
28033.83678061287
 20
1872.5683489362989
 30
0.0
 11
28033.83678061287
 21
1786.816933133767
 31
0.0
  0
LINE
  5
12348
  8
YODOROGO
 10
28078.06921993379
 20
1872.5683489362989
 30
0.0
 11
28033.83678061287
 21
1872.5683489362989
 31
0.0
  0
LINE
  5
12349
  8
YODOROGO
 10
28078.06921993379
 20
1892.568348936298
 30
0.0
 11
28078.06921993379
 21
1872.5683489362989
 31
0.0
  0
LINE
  5
1234A
  8
YODOROGO
 10
27977.604341291921
 20
1892.568348936298
 30
0.0
 11
28078.06921993379
 21
1892.568348936298
 31
0.0
  0
LINE
  5
1234B
  8
YODOROGO
 10
27977.604341291921
 20
1872.5683489362989
 30
0.0
 11
27977.604341291921
 21
1892.568348936298
 31
0.0
  0
LINE
  5
1234C
  8
YODOROGO
 10
28021.836780612852
 20
1872.5683489362989
 30
0.0
 11
27977.604341291921
 21
1872.5683489362989
 31
0.0
  0
LINE
  5
1234D
  8
YODOROGO
 10
28021.836780612852
 20
1784.673339594317
 30
0.0
 11
28021.836780612852
 21
1872.5683489362989
 31
0.0
  0
LINE
  5
1234E
  8
YODOROGO
 10
27977.604341291921
 20
1771.749496429286
 30
0.0
 11
28021.836780612852
 21
1784.673339594317
 31
0.0
  0
LINE
  5
1234F
  8
YODOROGO
 10
27977.604341291921
 20
1747.749496429286
 30
0.0
 11
27977.604341291921
 21
1771.749496429286
 31
0.0
  0
LINE
  5
12350
  8
YODOROGO
 10
28001.604341291921
 20
1707.749496429288
 30
0.0
 11
28001.604341291921
 21
1683.7494964292871
 31
0.0
  0
LINE
  5
12351
  8
YODOROGO
 10
28017.604341291921
 20
1707.749496429288
 30
0.0
 11
28001.604341291921
 21
1707.749496429288
 31
0.0
  0
LINE
  5
12352
  8
YODOROGO
 10
28017.604341291921
 20
1683.7494964292871
 30
0.0
 11
28017.604341291921
 21
1707.749496429288
 31
0.0
  0
LINE
  5
12353
  8
YODOROGO
 10
28040.913204016892
 20
1683.7494964292871
 30
0.0
 11
28017.604341291921
 21
1683.7494964292871
 31
0.0
  0
LINE
  5
12354
  8
YODOROGO
 10
28001.604341291921
 20
1683.7494964292871
 30
0.0
 11
27977.604341291921
 21
1683.7494964292871
 31
0.0
  0
LINE
  5
12355
  8
YODOROGO
 10
28082.135520230921
 20
1707.749496429288
 30
0.0
 11
28098.135520230931
 21
1707.749496429288
 31
0.0
1001
AUTOCAD_POSTSCRIPT_FIGURE
1002
{
1000
PSFILL
1000
Grayscale
1000
Grayscale
1070
   100
1002
}
  0
LINE
  5
12356
  8
YODOROGO
 10
28401.60434129191
 20
1824.877625640306
 30
0.0
 11
28401.60434129191
 21
1752.877625640306
 31
0.0
1001
AUTOCAD_POSTSCRIPT_FIGURE
1002
{
1000
PSFILL
1000
Grayscale
1000
Grayscale
1070
   100
1002
}
  0
LINE
  5
12357
  8
YODOROGO
 10
28401.60434129191
 20
1916.8776256403071
 30
0.0
 11
28401.60434129191
 21
1984.877625640306
 31
0.0
1001
AUTOCAD_POSTSCRIPT_FIGURE
1002
{
1000
PSFILL
1000
Grayscale
1000
Grayscale
1070
   100
1002
}
  0
LINE
  5
12358
  8
YODOROGO
 10
28433.60434129191
 20
1819.7494964292871
 30
0.0
 11
28433.60434129191
 21
1747.74949642929
 31
0.0
  0
LINE
  5
12359
  8
YODOROGO
 10
28497.60434129191
 20
1707.749496429288
 30
0.0
 11
28433.60434129191
 21
1707.749496429288
 31
0.0
  0
LINE
  5
1235A
  8
YODOROGO
 10
28433.60434129191
 20
1747.74949642929
 30
0.0
 11
28585.604341291921
 21
1747.74949642929
 31
0.0
  0
LINE
  5
1235B
  8
YODOROGO
 10
28497.60434129191
 20
1867.7494964292871
 30
0.0
 11
28433.60434129191
 21
1867.7494964292871
 31
0.0
  0
LINE
  5
1235C
  8
YODOROGO
 10
28497.60434129191
 20
1923.7494964292871
 30
0.0
 11
28497.60434129191
 21
1867.7494964292871
 31
0.0
  0
LINE
  5
1235D
  8
YODOROGO
 10
28585.604341291921
 20
1987.7494964292871
 30
0.0
 11
28585.604341291921
 21
2027.749496429288
 31
0.0
  0
LINE
  5
1235E
  8
YODOROGO
 10
28433.60434129191
 20
1987.7494964292871
 30
0.0
 11
28585.604341291921
 21
1987.7494964292871
 31
0.0
  0
LINE
  5
1235F
  8
YODOROGO
 10
28433.60434129191
 20
1867.7494964292871
 30
0.0
 11
28433.60434129191
 21
1987.7494964292871
 31
0.0
  0
LINE
  5
12360
  8
YODOROGO
 10
29001.60434129191
 20
2027.749496429288
 30
0.0
 11
29001.60434129191
 21
1619.749496429288
 31
0.0
  0
LINE
  5
12361
  8
YODOROGO
 10
29073.604341291921
 20
1579.749496429288
 30
0.0
 11
29073.604341291921
 21
2027.749496429288
 31
0.0
  0
LINE
  5
12362
  8
YODOROGO
 10
29261.604341291921
 20
1491.749496429286
 30
0.0
 11
29261.604341291921
 21
2007.749496429288
 31
0.0
  0
LINE
  5
12363
  8
YODOROGO
 10
29197.604341291921
 20
2007.749496429288
 30
0.0
 11
29197.604341291921
 21
1491.749496429286
 31
0.0
  0
LINE
  5
12364
  8
YODOROGO
 10
29385.604341291921
 20
2027.749496429288
 30
0.0
 11
29385.604341291921
 21
1427.749496429288
 31
0.0
  0
LINE
  5
12365
  8
YODOROGO
 10
29457.604341291921
 20
1427.749496429288
 30
0.0
 11
29457.604341291921
 21
2027.749496429288
 31
0.0
  0
LINE
  5
12366
  8
YODOROGO
 10
28657.604341291921
 20
1667.749496429288
 30
0.0
 11
28657.604341291921
 21
1747.74949642929
 31
0.0
  0
LINE
  5
12367
  8
YODOROGO
 10
29885.604341291921
 20
1707.749496429288
 30
0.0
 11
29885.604341291921
 21
1667.749496429288
 31
0.0
  0
LINE
  5
12368
  8
YODOROGO
 10
29885.604341291921
 20
1707.749496429288
 30
0.0
 11
29885.604341291921
 21
1667.749496429288
 31
0.0
  0
ARC
  5
12369
  8
YODOROGO
 10
28906.911576186842
 20
1618.217864442272
 30
0.0
 40
94.705151178741644
 50
274.05244162907098
 51
0.9266642149310712
  0
ARC
  5
1236A
  8
YODOROGO
 10
28909.186170719819
 20
1592.61072861044
 30
0.0
 40
164.92042356085511
 50
271.5351210653775
 51
355.52727750585052
  0
LINE
  5
1236B
  8
YODOROGO
 10
28913.604341291921
 20
1523.7494964292871
 30
0.0
 11
28913.604341291921
 21
1427.749496429288
 31
0.0
  0
LINE
  5
1236C
  8
YODOROGO
 10
28793.60434129191
 20
1667.749496429288
 30
0.0
 11
28657.604341291921
 21
1667.749496429288
 31
0.0
  0
LINE
  5
1236D
  8
YODOROGO
 10
28793.60434129191
 20
1603.7494964292871
 30
0.0
 11
28793.60434129191
 21
1667.749496429288
 31
0.0
  0
LINE
  5
1236E
  8
YODOROGO
 10
28657.604341291921
 20
1603.7494964292871
 30
0.0
 11
28793.60434129191
 21
1603.7494964292871
 31
0.0
  0
LINE
  5
1236F
  8
YODOROGO
 10
28657.604341291921
 20
1523.7494964292871
 30
0.0
 11
28657.604341291921
 21
1603.7494964292871
 31
0.0
  0
LINE
  5
12370
  8
YODOROGO
 10
28793.60434129191
 20
1523.7494964292871
 30
0.0
 11
28657.604341291921
 21
1523.7494964292871
 31
0.0
  0
LINE
  5
12371
  8
YODOROGO
 10
28793.60434129191
 20
1427.749496429288
 30
0.0
 11
28793.60434129191
 21
1523.7494964292871
 31
0.0
  0
LINE
  5
12372
  8
YODOROGO
 10
29197.604341291921
 20
1491.749496429286
 30
0.0
 11
29261.604341291921
 21
1491.749496429286
 31
0.0
  0
LINE
  5
12373
  8
YODOROGO
 10
29385.604341291921
 20
1427.749496429288
 30
0.0
 11
29457.604341291921
 21
1427.749496429288
 31
0.0
  0
LINE
  5
12374
  8
YODOROGO
 10
29737.604341291921
 20
1528.4414521705639
 30
0.0
 11
29737.604341291921
 21
1427.749496429288
 31
0.0
  0
LINE
  5
12375
  8
YODOROGO
 10
29617.604341291921
 20
1427.749496429288
 30
0.0
 11
29737.604341291921
 21
1528.4414521705639
 31
0.0
  0
LINE
  5
12376
  8
YODOROGO
 10
29617.604341291921
 20
1547.749496429288
 30
0.0
 11
29617.604341291921
 21
1427.749496429288
 31
0.0
  0
LINE
  5
12377
  8
YODOROGO
 10
29712.94462869945
 20
1627.749496429288
 30
0.0
 11
29617.604341291921
 21
1547.749496429288
 31
0.0
  0
LINE
  5
12378
  8
YODOROGO
 10
29617.604341291921
 20
1627.749496429288
 30
0.0
 11
29712.94462869945
 21
1627.749496429288
 31
0.0
  0
LINE
  5
12379
  8
YODOROGO
 10
29617.604341291921
 20
1667.749496429288
 30
0.0
 11
29617.604341291921
 21
1627.749496429288
 31
0.0
  0
LINE
  5
1237A
  8
YODOROGO
 10
29885.604341291921
 20
1667.749496429288
 30
0.0
 11
29617.604341291921
 21
1667.749496429288
 31
0.0
  0
LINE
  5
1237B
  8
YODOROGO
 10
29917.604341291921
 20
1627.749496429288
 30
0.0
 11
29777.604341291921
 21
1627.749496429288
 31
0.0
  0
LINE
  5
1237C
  8
YODOROGO
 10
29777.604341291921
 20
1562.0054374176559
 30
0.0
 11
29771.409872985321
 21
1556.807661346234
 31
0.0
  0
LINE
  5
1237D
  8
YODOROGO
 10
29777.604341291921
 20
1627.749496429288
 30
0.0
 11
29777.604341291921
 21
1562.0054374176559
 31
0.0
  0
LINE
  5
1237E
  8
YODOROGO
 10
29737.604341291921
 20
1528.4414521705639
 30
0.0
 11
29737.604341291921
 21
1427.749496429288
 31
0.0
  0
LINE
  5
1237F
  8
YODOROGO
 10
29617.604341291921
 20
1427.749496429288
 30
0.0
 11
29737.604341291921
 21
1528.4414521705639
 31
0.0
  0
LINE
  5
12380
  8
YODOROGO
 10
29617.604341291921
 20
1547.749496429288
 30
0.0
 11
29617.604341291921
 21
1427.749496429288
 31
0.0
  0
LINE
  5
12381
  8
YODOROGO
 10
29712.94462869945
 20
1627.749496429288
 30
0.0
 11
29617.604341291921
 21
1547.749496429288
 31
0.0
  0
LINE
  5
12382
  8
YODOROGO
 10
29617.604341291921
 20
1627.749496429288
 30
0.0
 11
29712.94462869945
 21
1627.749496429288
 31
0.0
  0
LINE
  5
12383
  8
YODOROGO
 10
29617.604341291921
 20
1667.749496429288
 30
0.0
 11
29617.604341291921
 21
1627.749496429288
 31
0.0
  0
LINE
  5
12384
  8
YODOROGO
 10
29885.604341291921
 20
1667.749496429288
 30
0.0
 11
29617.604341291921
 21
1667.749496429288
 31
0.0
  0
LINE
  5
12385
  8
YODOROGO
 10
28793.60434129191
 20
1747.74949642929
 30
0.0
 11
28793.60434129191
 21
1819.7494964292871
 31
0.0
  0
LINE
  5
12386
  8
YODOROGO
 10
28657.604341291921
 20
1747.74949642929
 30
0.0
 11
28793.60434129191
 21
1747.74949642929
 31
0.0
  0
LINE
  5
12387
  8
YODOROGO
 10
28729.604341291921
 20
1867.7494964292871
 30
0.0
 11
28729.604341291921
 21
1923.7494964292871
 31
0.0
  0
LINE
  5
12388
  8
YODOROGO
 10
28793.60434129191
 20
1867.7494964292871
 30
0.0
 11
28729.604341291921
 21
1867.7494964292871
 31
0.0
  0
LINE
  5
12389
  8
YODOROGO
 10
28793.60434129191
 20
1947.749496429288
 30
0.0
 11
28793.60434129191
 21
1867.7494964292871
 31
0.0
  0
ARC
  5
1238A
  8
YODOROGO
 10
28753.60434129191
 20
1947.749496429288
 30
0.0
 40
40.0
 50
0.0
 51
90.0
  0
LINE
  5
1238B
  8
YODOROGO
 10
28657.604341291921
 20
1987.7494964292871
 30
0.0
 11
28753.60434129191
 21
1987.7494964292871
 31
0.0
  0
LINE
  5
1238C
  8
YODOROGO
 10
28657.604341291921
 20
2027.749496429288
 30
0.0
 11
28657.604341291921
 21
1987.7494964292871
 31
0.0
  0
LINE
  5
1238D
  8
YODOROGO
 10
29073.604341291921
 20
2027.749496429288
 30
0.0
 11
29001.60434129191
 21
2027.749496429288
 31
0.0
  0
LINE
  5
1238E
  8
YODOROGO
 10
29261.604341291921
 20
2007.749496429288
 30
0.0
 11
29197.604341291921
 21
2007.749496429288
 31
0.0
  0
LINE
  5
1238F
  8
YODOROGO
 10
29457.604341291921
 20
2027.749496429288
 30
0.0
 11
29385.604341291921
 21
2027.749496429288
 31
0.0
  0
LINE
  5
12390
  8
YODOROGO
 10
29673.604341291921
 20
1707.749496429288
 30
0.0
 11
29673.604341291921
 21
1771.7494964292871
 31
0.0
1001
AUTOCAD_POSTSCRIPT_FIGURE
1002
{
1000
PSFILL
1000
Grayscale
1000
Grayscale
1070
    25
1002
}
  0
LINE
  5
12391
  8
YODOROGO
 10
29617.604341291921
 20
1707.749496429288
 30
0.0
 11
29673.604341291921
 21
1707.749496429288
 31
0.0
1001
AUTOCAD_POSTSCRIPT_FIGURE
1002
{
1000
PSFILL
1000
Grayscale
1000
Grayscale
1070
    25
1002
}
  0
LINE
  5
12392
  8
YODOROGO
 10
29617.604341291921
 20
1819.7494964292871
 30
0.0
 11
29617.604341291921
 21
1707.749496429288
 31
0.0
1001
AUTOCAD_POSTSCRIPT_FIGURE
1002
{
1000
PSFILL
1000
Grayscale
1000
Grayscale
1070
    25
1002
}
  0
LINE
  5
12393
  8
YODOROGO
 10
29765.604341291921
 20
1819.7494964292871
 30
0.0
 11
29617.604341291921
 21
1819.7494964292871
 31
0.0
1001
AUTOCAD_POSTSCRIPT_FIGURE
1002
{
1000
PSFILL
1000
Grayscale
1000
Grayscale
1070
    25
1002
}
  0
LINE
  5
12394
  8
YODOROGO
 10
29765.604341291921
 20
1859.749496429288
 30
0.0
 11
29765.604341291921
 21
1819.7494964292871
 31
0.0
1001
AUTOCAD_POSTSCRIPT_FIGURE
1002
{
1000
PSFILL
1000
Grayscale
1000
Grayscale
1070
    25
1002
}
  0
LINE
  5
12395
  8
YODOROGO
 10
29617.604341291921
 20
1859.749496429288
 30
0.0
 11
29765.604341291921
 21
1859.749496429288
 31
0.0
1001
AUTOCAD_POSTSCRIPT_FIGURE
1002
{
1000
PSFILL
1000
Grayscale
1000
Grayscale
1070
    25
1002
}
  0
LINE
  5
12396
  8
YODOROGO
 10
29617.604341291921
 20
1907.7494964292871
 30
0.0
 11
29617.604341291921
 21
1859.749496429288
 31
0.0
1001
AUTOCAD_POSTSCRIPT_FIGURE
1002
{
1000
PSFILL
1000
Grayscale
1000
Grayscale
1070
    25
1002
}
  0
LINE
  5
12397
  8
YODOROGO
 10
29765.604341291921
 20
1907.7494964292871
 30
0.0
 11
29617.604341291921
 21
1907.7494964292871
 31
0.0
1001
AUTOCAD_POSTSCRIPT_FIGURE
1002
{
1000
PSFILL
1000
Grayscale
1000
Grayscale
1070
    25
1002
}
  0
LINE
  5
12398
  8
YODOROGO
 10
29765.604341291921
 20
1947.749496429288
 30
0.0
 11
29765.604341291921
 21
1907.7494964292871
 31
0.0
1001
AUTOCAD_POSTSCRIPT_FIGURE
1002
{
1000
PSFILL
1000
Grayscale
1000
Grayscale
1070
    25
1002
}
  0
LINE
  5
12399
  8
YODOROGO
 10
29617.604341291921
 20
1947.749496429288
 30
0.0
 11
29765.604341291921
 21
1947.749496429288
 31
0.0
1001
AUTOCAD_POSTSCRIPT_FIGURE
1002
{
1000
PSFILL
1000
Grayscale
1000
Grayscale
1070
    25
1002
}
  0
LINE
  5
1239A
  8
YODOROGO
 10
29617.604341291921
 20
2027.749496429288
 30
0.0
 11
29617.604341291921
 21
1947.749496429288
 31
0.0
1001
AUTOCAD_POSTSCRIPT_FIGURE
1002
{
1000
PSFILL
1000
Grayscale
1000
Grayscale
1070
    25
1002
}
  0
LINE
  5
1239B
  8
YODOROGO
 10
29665.604341291921
 20
2027.749496429288
 30
0.0
 11
29617.604341291921
 21
2027.749496429288
 31
0.0
1001
AUTOCAD_POSTSCRIPT_FIGURE
1002
{
1000
PSFILL
1000
Grayscale
1000
Grayscale
1070
    25
1002
}
  0
LINE
  5
1239C
  8
YODOROGO
 10
29665.604341291921
 20
1995.7494964292871
 30
0.0
 11
29665.604341291921
 21
2027.749496429288
 31
0.0
1001
AUTOCAD_POSTSCRIPT_FIGURE
1002
{
1000
PSFILL
1000
Grayscale
1000
Grayscale
1070
    25
1002
}
  0
LINE
  5
1239D
  8
YODOROGO
 10
29765.604341291921
 20
1995.7494964292871
 30
0.0
 11
29665.604341291921
 21
1995.7494964292871
 31
0.0
1001
AUTOCAD_POSTSCRIPT_FIGURE
1002
{
1000
PSFILL
1000
Grayscale
1000
Grayscale
1070
    25
1002
}
  0
LINE
  5
1239E
  8
YODOROGO
 10
29765.604341291921
 20
2027.749496429288
 30
0.0
 11
29765.604341291921
 21
1995.7494964292871
 31
0.0
1001
AUTOCAD_POSTSCRIPT_FIGURE
1002
{
1000
PSFILL
1000
Grayscale
1000
Grayscale
1070
    25
1002
}
  0
LINE
  5
1239F
  8
YODOROGO
 10
29829.604341291921
 20
2027.749496429288
 30
0.0
 11
29765.604341291921
 21
2027.749496429288
 31
0.0
1001
AUTOCAD_POSTSCRIPT_FIGURE
1002
{
1000
PSFILL
1000
Grayscale
1000
Grayscale
1070
    25
1002
}
  0
LINE
  5
123A0
  8
YODOROGO
 10
29829.604341291921
 20
1995.7494964292871
 30
0.0
 11
29829.604341291921
 21
2027.749496429288
 31
0.0
1001
AUTOCAD_POSTSCRIPT_FIGURE
1002
{
1000
PSFILL
1000
Grayscale
1000
Grayscale
1070
    25
1002
}
  0
LINE
  5
123A1
  8
YODOROGO
 10
29829.604341291921
 20
1907.7494964292871
 30
0.0
 11
29829.604341291921
 21
1947.749496429288
 31
0.0
1001
AUTOCAD_POSTSCRIPT_FIGURE
1002
{
1000
PSFILL
1000
Grayscale
1000
Grayscale
1070
    25
1002
}
  0
LINE
  5
123A2
  8
YODOROGO
 10
29829.604341291921
 20
1819.7494964292871
 30
0.0
 11
29829.604341291921
 21
1859.749496429288
 31
0.0
1001
AUTOCAD_POSTSCRIPT_FIGURE
1002
{
1000
PSFILL
1000
Grayscale
1000
Grayscale
1070
    25
1002
}
  0
LINE
  5
123A3
  8
YODOROGO
 10
29921.60434129191
 20
1771.7494964292871
 30
0.0
 11
29921.60434129191
 21
1707.749496429288
 31
0.0
1001
AUTOCAD_POSTSCRIPT_FIGURE
1002
{
1000
PSFILL
1000
Grayscale
1000
Grayscale
1070
    25
1002
}
  0
LINE
  5
123A4
  8
YODOROGO
 10
29829.604341291921
 20
1771.7494964292871
 30
0.0
 11
29921.60434129191
 21
1771.7494964292871
 31
0.0
1001
AUTOCAD_POSTSCRIPT_FIGURE
1002
{
1000
PSFILL
1000
Grayscale
1000
Grayscale
1070
    25
1002
}
  0
LINE
  5
123A5
  8
YODOROGO
 10
29829.604341291921
 20
1707.749496429288
 30
0.0
 11
29829.604341291921
 21
1771.7494964292871
 31
0.0
1001
AUTOCAD_POSTSCRIPT_FIGURE
1002
{
1000
PSFILL
1000
Grayscale
1000
Grayscale
1070
    25
1002
}
  0
LINE
  5
123A6
  8
YODOROGO
 10
29765.604341291921
 20
1707.749496429288
 30
0.0
 11
29829.604341291921
 21
1707.749496429288
 31
0.0
1001
AUTOCAD_POSTSCRIPT_FIGURE
1002
{
1000
PSFILL
1000
Grayscale
1000
Grayscale
1070
    25
1002
}
  0
LINE
  5
123A7
  8
YODOROGO
 10
29765.604341291921
 20
1771.7494964292871
 30
0.0
 11
29765.604341291921
 21
1707.749496429288
 31
0.0
1001
AUTOCAD_POSTSCRIPT_FIGURE
1002
{
1000
PSFILL
1000
Grayscale
1000
Grayscale
1070
    25
1002
}
  0
LINE
  5
123A8
  8
YODOROGO
 10
29673.604341291921
 20
1771.7494964292871
 30
0.0
 11
29765.604341291921
 21
1771.7494964292871
 31
0.0
1001
AUTOCAD_POSTSCRIPT_FIGURE
1002
{
1000
PSFILL
1000
Grayscale
1000
Grayscale
1070
    25
1002
}
  0
ARC
  5
123A9
  8
YODOROGO
 10
31059.517893357912
 20
1602.6807375155761
 30
0.0
 40
178.22128111072141
 50
281.02627495425338
 51
357.77113575573799
  0
LINE
  5
123AA
  8
YODOROGO
 10
31413.604341291921
 20
1907.7494964292871
 30
0.0
 11
31165.604341291921
 21
1907.7494964292871
 31
0.0
  0
LINE
  5
123AB
  8
YODOROGO
 10
31413.604341291921
 20
2027.749496429288
 30
0.0
 11
31165.604341291921
 21
2027.749496429288
 31
0.0
  0
LINE
  5
123AC
  8
YODOROGO
 10
31165.604341291921
 20
1963.749496429286
 30
0.0
 11
31413.604341291921
 21
1963.749496429286
 31
0.0
  0
LINE
  5
123AD
  8
YODOROGO
 10
30791.604341291921
 20
1563.7494964292871
 30
0.0
 11
30791.604341291921
 21
1755.7494964292871
 31
0.0
  0
LINE
  5
123AE
  8
YODOROGO
 10
30763.604341291921
 20
1691.749496429288
 30
0.0
 11
30763.604341291921
 21
1563.7494964292871
 31
0.0
  0
LINE
  5
123AF
  8
YODOROGO
 10
30723.604341291921
 20
1491.749496429288
 30
0.0
 11
30723.604341291921
 21
1691.749496429288
 31
0.0
  0
LINE
  5
123B0
  8
YODOROGO
 10
30899.604341291932
 20
1691.749496429288
 30
0.0
 11
30899.604341291932
 21
1491.749496429288
 31
0.0
  0
LINE
  5
123B1
  8
YODOROGO
 10
30859.604341291932
 20
1563.7494964292871
 30
0.0
 11
30859.604341291932
 21
1691.749496429288
 31
0.0
  0
LINE
  5
123B2
  8
YODOROGO
 10
30831.604341291921
 20
1755.7494964292871
 30
0.0
 11
30831.604341291921
 21
1563.7494964292871
 31
0.0
  0
LINE
  5
123B3
  8
YODOROGO
 10
30973.604341291921
 20
2027.749496429288
 30
0.0
 11
30973.604341291921
 21
1467.749496429288
 31
0.0
  0
LINE
  5
123B4
  8
YODOROGO
 10
30645.604341291921
 20
1427.749496429288
 30
0.0
 11
30645.604341291921
 21
2027.749496429288
 31
0.0
  0
LINE
  5
123B5
  8
YODOROGO
 10
30697.604341291932
 20
1963.749496429286
 30
0.0
 11
30697.604341291932
 21
1427.749496429288
 31
0.0
  0
LINE
  5
123B6
  8
YODOROGO
 10
30925.604341291921
 20
1547.749496429288
 30
0.0
 11
30925.604341291921
 21
1963.749496429286
 31
0.0
  0
LINE
  5
123B7
  8
YODOROGO
 10
30381.604341291932
 20
1627.749496429288
 30
0.0
 11
30381.604341291932
 21
1679.749496429288
 31
0.0
  0
LINE
  5
123B8
  8
YODOROGO
 10
30617.604341291921
 20
1679.749496429288
 30
0.0
 11
30617.604341291921
 21
1627.749496429288
 31
0.0
  0
LINE
  5
123B9
  8
YODOROGO
 10
31165.604341291921
 20
1907.7494964292871
 30
0.0
 11
31165.604341291921
 21
1635.7494964292871
 31
0.0
  0
LINE
  5
123BA
  8
YODOROGO
 10
29949.60434129191
 20
1667.749496429288
 30
0.0
 11
29949.60434129191
 21
1707.749496429288
 31
0.0
  0
LINE
  5
123BB
  8
YODOROGO
 10
29949.60434129191
 20
1667.749496429288
 30
0.0
 11
29949.60434129191
 21
1707.749496429288
 31
0.0
  0
ARC
  5
123BC
  8
YODOROGO
 10
30537.604341291921
 20
1507.749496429288
 30
0.0
 40
80.0
 50
270.0
 51
0.0
  0
LINE
  5
123BD
  8
YODOROGO
 10
30569.604341291921
 20
1599.7494964292871
 30
0.0
 11
30617.604341291921
 21
1599.7494964292871
 31
0.0
  0
LINE
  5
123BE
  8
YODOROGO
 10
30617.604341291921
 20
1627.749496429288
 30
0.0
 11
30529.604341291939
 21
1627.749496429288
 31
0.0
  0
LINE
  5
123BF
  8
YODOROGO
 10
30217.604341291921
 20
1667.749496429288
 30
0.0
 11
29949.60434129191
 21
1667.749496429288
 31
0.0
  0
LINE
  5
123C0
  8
YODOROGO
 10
30217.604341291921
 20
1627.749496429288
 30
0.0
 11
30217.604341291921
 21
1667.749496429288
 31
0.0
  0
LINE
  5
123C1
  8
YODOROGO
 10
30017.604341291921
 20
1627.749496429288
 30
0.0
 11
30217.604341291921
 21
1627.749496429288
 31
0.0
  0
ARC
  5
123C2
  8
YODOROGO
 10
30230.05882870136
 20
1868.885714952901
 30
0.0
 40
321.37763628522822
 50
228.6181454618993
 51
245.660289248906
  0
LINE
  5
123C3
  8
YODOROGO
 10
30105.604341291921
 20
1603.7494964292871
 30
0.0
 11
30097.60434129195
 21
1576.0728158699001
 31
0.0
  0
LINE
  5
123C4
  8
YODOROGO
 10
30189.604341291921
 20
1603.7494964292871
 30
0.0
 11
30105.604341291921
 21
1603.7494964292871
 31
0.0
  0
LINE
  5
123C5
  8
YODOROGO
 10
30177.604341291921
 20
1551.817722473427
 30
0.0
 11
30189.604341291921
 21
1603.7494964292871
 31
0.0
  0
ARC
  5
123C6
  8
YODOROGO
 10
30230.05882870045
 20
1868.885714953002
 30
0.0
 40
321.37763628529081
 50
260.60629297969911
 51
267.77903556555862
  0
LINE
  5
123C7
  8
YODOROGO
 10
30217.604341291921
 20
1427.749496429285
 30
0.0
 11
30217.604341291921
 21
1547.749496429288
 31
0.0
  0
LINE
  5
123C8
  8
YODOROGO
 10
29937.604341291932
 20
1481.3393349155101
 30
0.0
 11
29937.604341291921
 21
1594.531090531141
 31
0.0
  0
LINE
  5
123C9
  8
YODOROGO
 10
30217.604341291921
 20
1667.749496429288
 30
0.0
 11
29949.60434129191
 21
1667.749496429288
 31
0.0
  0
LINE
  5
123CA
  8
YODOROGO
 10
30217.604341291921
 20
1627.749496429288
 30
0.0
 11
30217.604341291921
 21
1667.749496429288
 31
0.0
  0
LINE
  5
123CB
  8
YODOROGO
 10
30017.604341291921
 20
1627.749496429288
 30
0.0
 11
30217.604341291921
 21
1627.749496429288
 31
0.0
  0
ARC
  5
123CC
  8
YODOROGO
 10
30230.05882870136
 20
1868.885714952901
 30
0.0
 40
321.37763628522822
 50
228.6181454618993
 51
245.660289248906
  0
LINE
  5
123CD
  8
YODOROGO
 10
30105.604341291921
 20
1603.7494964292871
 30
0.0
 11
30097.60434129195
 21
1576.0728158699001
 31
0.0
  0
LINE
  5
123CE
  8
YODOROGO
 10
30189.604341291921
 20
1603.7494964292871
 30
0.0
 11
30105.604341291921
 21
1603.7494964292871
 31
0.0
  0
LINE
  5
123CF
  8
YODOROGO
 10
30177.604341291921
 20
1551.817722473427
 30
0.0
 11
30189.604341291921
 21
1603.7494964292871
 31
0.0
  0
ARC
  5
123D0
  8
YODOROGO
 10
30230.05882870045
 20
1868.885714953002
 30
0.0
 40
321.37763628529081
 50
260.60629297969911
 51
267.77903556555862
  0
LINE
  5
123D1
  8
YODOROGO
 10
30217.604341291921
 20
1427.749496429285
 30
0.0
 11
30217.604341291921
 21
1547.749496429288
 31
0.0
  0
LINE
  5
123D2
  8
YODOROGO
 10
29937.604341291932
 20
1481.3393349155101
 30
0.0
 11
29937.604341291921
 21
1594.531090531141
 31
0.0
  0
LINE
  5
123D3
  8
YODOROGO
 10
30433.604341291921
 20
1573.749496429288
 30
0.0
 11
30381.604341291932
 21
1573.749496429288
 31
0.0
  0
LINE
  5
123D4
  8
YODOROGO
 10
30433.604341291921
 20
1601.749496429285
 30
0.0
 11
30433.604341291921
 21
1573.749496429288
 31
0.0
  0
LINE
  5
123D5
  8
YODOROGO
 10
30381.604341291932
 20
1601.749496429285
 30
0.0
 11
30433.604341291921
 21
1601.749496429285
 31
0.0
  0
LINE
  5
123D6
  8
YODOROGO
 10
30381.604341291932
 20
1573.749496429288
 30
0.0
 11
30381.604341291932
 21
1601.749496429285
 31
0.0
  0
LINE
  5
123D7
  8
YODOROGO
 10
30429.604341291921
 20
1577.7494964292871
 30
0.0
 11
30385.604341291921
 21
1577.7494964292871
 31
0.0
  0
LINE
  5
123D8
  8
YODOROGO
 10
30429.604341291921
 20
1597.749496429288
 30
0.0
 11
30429.604341291921
 21
1577.7494964292871
 31
0.0
  0
LINE
  5
123D9
  8
YODOROGO
 10
30385.604341291921
 20
1597.749496429288
 30
0.0
 11
30429.604341291921
 21
1597.749496429288
 31
0.0
  0
LINE
  5
123DA
  8
YODOROGO
 10
30385.604341291921
 20
1577.7494964292871
 30
0.0
 11
30385.604341291921
 21
1597.749496429288
 31
0.0
  0
LINE
  5
123DB
  8
YODOROGO
 10
30425.604341291921
 20
1581.749496429286
 30
0.0
 11
30389.604341291921
 21
1581.749496429286
 31
0.0
  0
LINE
  5
123DC
  8
YODOROGO
 10
30425.604341291921
 20
1593.749496429288
 30
0.0
 11
30425.604341291921
 21
1581.749496429286
 31
0.0
  0
LINE
  5
123DD
  8
YODOROGO
 10
30389.604341291921
 20
1593.749496429288
 30
0.0
 11
30425.604341291921
 21
1593.749496429288
 31
0.0
  0
LINE
  5
123DE
  8
YODOROGO
 10
30389.604341291921
 20
1581.749496429286
 30
0.0
 11
30389.604341291921
 21
1593.749496429288
 31
0.0
  0
LINE
  5
123DF
  8
YODOROGO
 10
30421.604341291932
 20
1585.7494964292871
 30
0.0
 11
30393.604341291921
 21
1585.7494964292871
 31
0.0
  0
LINE
  5
123E0
  8
YODOROGO
 10
30421.604341291932
 20
1589.749496429288
 30
0.0
 11
30421.604341291932
 21
1585.7494964292871
 31
0.0
  0
LINE
  5
123E1
  8
YODOROGO
 10
30393.604341291921
 20
1589.749496429288
 30
0.0
 11
30421.604341291932
 21
1589.749496429288
 31
0.0
  0
LINE
  5
123E2
  8
YODOROGO
 10
30393.604341291921
 20
1585.7494964292871
 30
0.0
 11
30393.604341291921
 21
1589.749496429288
 31
0.0
  0
LINE
  5
123E3
  8
YODOROGO
 10
30465.604341291921
 20
1627.749496429288
 30
0.0
 11
30381.604341291932
 21
1627.749496429288
 31
0.0
  0
LINE
  5
123E4
  8
YODOROGO
 10
30465.604341291921
 20
1547.749496429288
 30
0.0
 11
30465.604341291921
 21
1627.749496429288
 31
0.0
  0
LINE
  5
123E5
  8
YODOROGO
 10
30381.604341291932
 20
1547.749496429288
 30
0.0
 11
30465.604341291921
 21
1547.749496429288
 31
0.0
  0
LINE
  5
123E6
  8
YODOROGO
 10
30381.604341291932
 20
1427.749496429288
 30
0.0
 11
30381.604341291932
 21
1547.749496429288
 31
0.0
  0
LINE
  5
123E7
  8
YODOROGO
 10
30537.604341291921
 20
1427.749496429288
 30
0.0
 11
30381.604341291932
 21
1427.749496429288
 31
0.0
  0
LINE
  5
123E8
  8
YODOROGO
 10
30569.604341291921
 20
1571.749496429285
 30
0.0
 11
30569.604341291921
 21
1599.7494964292871
 31
0.0
  0
ARC
  5
123E9
  8
YODOROGO
 10
30545.604341291921
 20
1571.749496429291
 30
0.0
 40
24.000000000003752
 50
270.0
 51
359.99999999998772
  0
LINE
  5
123EA
  8
YODOROGO
 10
30529.604341291939
 20
1547.749496429288
 30
0.0
 11
30545.604341291921
 21
1547.749496429288
 31
0.0
  0
LINE
  5
123EB
  8
YODOROGO
 10
30529.604341291939
 20
1627.749496429288
 30
0.0
 11
30529.604341291939
 21
1547.749496429288
 31
0.0
  0
LINE
  5
123EC
  8
YODOROGO
 10
30899.604341291932
 20
1547.749496429288
 30
0.0
 11
30925.604341291921
 21
1547.749496429288
 31
0.0
  0
LINE
  5
123ED
  8
YODOROGO
 10
30933.604341291921
 20
1427.749496429288
 30
0.0
 11
30899.604341291932
 21
1427.749496429288
 31
0.0
  0
LINE
  5
123EE
  8
YODOROGO
 10
30763.604341291921
 20
1563.7494964292871
 30
0.0
 11
30791.604341291921
 21
1563.7494964292871
 31
0.0
  0
LINE
  5
123EF
  8
YODOROGO
 10
30899.604341291932
 20
1491.749496429288
 30
0.0
 11
30723.604341291921
 21
1491.749496429288
 31
0.0
  0
LINE
  5
123F0
  8
YODOROGO
 10
30831.604341291921
 20
1563.7494964292871
 30
0.0
 11
30859.604341291932
 21
1563.7494964292871
 31
0.0
  0
LINE
  5
123F1
  8
YODOROGO
 10
30899.604341291932
 20
1427.749496429288
 30
0.0
 11
30899.604341291932
 21
1547.749496429288
 31
0.0
  0
LINE
  5
123F2
  8
YODOROGO
 10
30697.604341291932
 20
1427.749496429288
 30
0.0
 11
30645.604341291921
 21
1427.749496429288
 31
0.0
  0
LINE
  5
123F3
  8
YODOROGO
 10
30617.604341291921
 20
1599.7494964292871
 30
0.0
 11
30617.604341291921
 21
1507.749496429288
 31
0.0
  0
ARC
  5
123F4
  8
YODOROGO
 10
30933.604341291921
 20
1467.749496429288
 30
0.0
 40
40.0
 50
270.0
 51
0.0
  0
LINE
  5
123F5
  8
YODOROGO
 10
31093.604341291921
 20
1523.7494964292871
 30
0.0
 11
31093.604341291921
 21
1427.749496429288
 31
0.0
  0
ARC
  5
123F6
  8
YODOROGO
 10
31039.721395566768
 20
1637.5313901097329
 30
0.0
 40
125.8955565916754
 50
295.34052442160112
 51
359.18902303418679
  0
LINE
  5
123F7
  8
YODOROGO
 10
30617.604341291921
 20
1859.749496429288
 30
0.0
 11
30497.604341291921
 21
1939.749496429288
 31
0.0
  0
LINE
  5
123F8
  8
YODOROGO
 10
30497.604341291921
 20
2027.749496429288
 30
0.0
 11
30617.604341291921
 21
1947.749496429288
 31
0.0
  0
LINE
  5
123F9
  8
YODOROGO
 10
30529.604341291939
 20
1679.749496429288
 30
0.0
 11
30617.604341291921
 21
1679.749496429288
 31
0.0
  0
LINE
  5
123FA
  8
YODOROGO
 10
30617.604341291921
 20
1735.7494964292871
 30
0.0
 11
30529.604341291939
 21
1735.7494964292871
 31
0.0
  0
LINE
  5
123FB
  8
YODOROGO
 10
30381.604341291932
 20
1795.7494964292871
 30
0.0
 11
30617.604341291921
 21
1795.7494964292871
 31
0.0
  0
LINE
  5
123FC
  8
YODOROGO
 10
30081.604341291921
 20
2027.749496429288
 30
0.0
 11
30021.604341291921
 21
2027.749496429288
 31
0.0
  0
LINE
  5
123FD
  8
YODOROGO
 10
30081.604341291921
 20
1827.7494964292871
 30
0.0
 11
30081.604341291921
 21
2027.749496429288
 31
0.0
  0
LINE
  5
123FE
  8
YODOROGO
 10
30021.604341291921
 20
1827.7494964292871
 30
0.0
 11
30081.604341291921
 21
1827.7494964292871
 31
0.0
  0
LINE
  5
123FF
  8
YODOROGO
 10
30021.604341291921
 20
2027.749496429288
 30
0.0
 11
30021.604341291921
 21
1827.7494964292871
 31
0.0
  0
LINE
  5
12400
  8
YODOROGO
 10
30161.604341291921
 20
2027.749496429288
 30
0.0
 11
30217.604341291921
 21
2027.749496429288
 31
0.0
  0
LINE
  5
12401
  8
YODOROGO
 10
30161.604341291921
 20
1811.749496429288
 30
0.0
 11
30161.604341291921
 21
2027.749496429288
 31
0.0
  0
ARC
  5
12402
  8
YODOROGO
 10
30121.604341291921
 20
1811.749496429288
 30
0.0
 40
40.0
 50
270.0
 51
0.0
  0
LINE
  5
12403
  8
YODOROGO
 10
30021.604341291921
 20
1771.7494964292871
 30
0.0
 11
30121.604341291921
 21
1771.7494964292871
 31
0.0
  0
LINE
  5
12404
  8
YODOROGO
 10
30021.604341291921
 20
1707.749496429288
 30
0.0
 11
30021.604341291921
 21
1771.7494964292871
 31
0.0
  0
LINE
  5
12405
  8
YODOROGO
 10
30137.604341291921
 20
1707.749496429288
 30
0.0
 11
30021.604341291921
 21
1707.749496429288
 31
0.0
  0
ARC
  5
12406
  8
YODOROGO
 10
30137.604341291921
 20
1787.7494964292871
 30
0.0
 40
80.0
 50
270.0
 51
0.0
  0
LINE
  5
12407
  8
YODOROGO
 10
30217.604341291921
 20
2027.749496429288
 30
0.0
 11
30217.604341291921
 21
1787.7494964292871
 31
0.0
  0
LINE
  5
12408
  8
YODOROGO
 10
29977.604341291921
 20
1947.749496429288
 30
0.0
 11
29977.604341291921
 21
1995.7494964292871
 31
0.0
1001
AUTOCAD_POSTSCRIPT_FIGURE
1002
{
1000
PSFILL
1000
Grayscale
1000
Grayscale
1070
    25
1002
}
  0
LINE
  5
12409
  8
YODOROGO
 10
29977.604341291921
 20
1859.749496429288
 30
0.0
 11
29977.604341291921
 21
1907.7494964292871
 31
0.0
1001
AUTOCAD_POSTSCRIPT_FIGURE
1002
{
1000
PSFILL
1000
Grayscale
1000
Grayscale
1070
    25
1002
}
  0
LINE
  5
1240A
  8
YODOROGO
 10
29977.604341291921
 20
1707.749496429288
 30
0.0
 11
29977.604341291921
 21
1819.7494964292871
 31
0.0
1001
AUTOCAD_POSTSCRIPT_FIGURE
1002
{
1000
PSFILL
1000
Grayscale
1000
Grayscale
1070
    25
1002
}
  0
LINE
  5
1240B
  8
YODOROGO
 10
30381.604341291932
 20
1907.7494964292871
 30
0.0
 11
30497.604341291921
 21
2027.749496429288
 31
0.0
  0
LINE
  5
1240C
  8
YODOROGO
 10
30381.604341291932
 20
1819.7494964292871
 30
0.0
 11
30381.604341291932
 21
1907.7494964292871
 31
0.0
  0
LINE
  5
1240D
  8
YODOROGO
 10
30497.604341291921
 20
1939.749496429288
 30
0.0
 11
30381.604341291932
 21
1819.7494964292871
 31
0.0
  0
LINE
  5
1240E
  8
YODOROGO
 10
30465.604341291921
 20
1679.749496429288
 30
0.0
 11
30465.604341291921
 21
1735.7494964292871
 31
0.0
  0
LINE
  5
1240F
  8
YODOROGO
 10
30381.604341291932
 20
1679.749496429288
 30
0.0
 11
30465.604341291921
 21
1679.749496429288
 31
0.0
  0
LINE
  5
12410
  8
YODOROGO
 10
30529.604341291939
 20
1735.7494964292871
 30
0.0
 11
30529.604341291939
 21
1679.749496429288
 31
0.0
  0
LINE
  5
12411
  8
YODOROGO
 10
30381.604341291932
 20
1735.7494964292871
 30
0.0
 11
30381.604341291932
 21
1795.7494964292871
 31
0.0
  0
LINE
  5
12412
  8
YODOROGO
 10
30465.604341291921
 20
1735.7494964292871
 30
0.0
 11
30381.604341291932
 21
1735.7494964292871
 31
0.0
  0
LINE
  5
12413
  8
YODOROGO
 10
30645.604341291921
 20
2027.749496429288
 30
0.0
 11
30973.604341291921
 21
2027.749496429288
 31
0.0
  0
LINE
  5
12414
  8
YODOROGO
 10
30925.604341291921
 20
1963.749496429286
 30
0.0
 11
30697.604341291932
 21
1963.749496429286
 31
0.0
  0
LINE
  5
12415
  8
YODOROGO
 10
30873.604341291921
 20
1819.7494964292871
 30
0.0
 11
30899.604341291932
 21
1819.7494964292871
 31
0.0
  0
LINE
  5
12416
  8
YODOROGO
 10
30899.604341291932
 20
1939.749496429288
 30
0.0
 11
30873.604341291921
 21
1819.7494964292871
 31
0.0
  0
LINE
  5
12417
  8
YODOROGO
 10
30851.604341291939
 20
1939.749496429288
 30
0.0
 11
30899.604341291932
 21
1939.749496429288
 31
0.0
  0
LINE
  5
12418
  8
YODOROGO
 10
30825.604341291921
 20
1819.7494964292871
 30
0.0
 11
30851.604341291939
 21
1939.749496429288
 31
0.0
  0
LINE
  5
12419
  8
YODOROGO
 10
30797.604341291921
 20
1819.7494964292871
 30
0.0
 11
30825.604341291921
 21
1819.7494964292871
 31
0.0
  0
LINE
  5
1241A
  8
YODOROGO
 10
30771.604341291939
 20
1939.749496429288
 30
0.0
 11
30797.604341291921
 21
1819.7494964292871
 31
0.0
  0
LINE
  5
1241B
  8
YODOROGO
 10
30723.604341291921
 20
1939.749496429288
 30
0.0
 11
30771.604341291939
 21
1939.749496429288
 31
0.0
  0
LINE
  5
1241C
  8
YODOROGO
 10
30749.604341291921
 20
1819.7494964292871
 30
0.0
 11
30723.604341291921
 21
1939.749496429288
 31
0.0
  0
LINE
  5
1241D
  8
YODOROGO
 10
30723.604341291921
 20
1819.7494964292871
 30
0.0
 11
30749.604341291921
 21
1819.7494964292871
 31
0.0
  0
LINE
  5
1241E
  8
YODOROGO
 10
30723.604341291921
 20
1755.7494964292871
 30
0.0
 11
30723.604341291921
 21
1819.7494964292871
 31
0.0
  0
LINE
  5
1241F
  8
YODOROGO
 10
30899.604341291932
 20
1755.7494964292871
 30
0.0
 11
30723.604341291921
 21
1755.7494964292871
 31
0.0
  0
LINE
  5
12420
  8
YODOROGO
 10
30899.604341291932
 20
1819.7494964292871
 30
0.0
 11
30899.604341291932
 21
1755.7494964292871
 31
0.0
  0
LINE
  5
12421
  8
YODOROGO
 10
30617.604341291921
 20
1947.749496429288
 30
0.0
 11
30617.604341291921
 21
1859.749496429288
 31
0.0
  0
LINE
  5
12422
  8
YODOROGO
 10
30791.604341291921
 20
1755.7494964292871
 30
0.0
 11
30831.604341291921
 21
1755.7494964292871
 31
0.0
  0
LINE
  5
12423
  8
YODOROGO
 10
30723.604341291921
 20
1691.749496429288
 30
0.0
 11
30763.604341291921
 21
1691.749496429288
 31
0.0
  0
LINE
  5
12424
  8
YODOROGO
 10
30859.604341291932
 20
1691.749496429288
 30
0.0
 11
30899.604341291932
 21
1691.749496429288
 31
0.0
  0
LINE
  5
12425
  8
YODOROGO
 10
30617.604341291921
 20
1795.7494964292871
 30
0.0
 11
30617.604341291921
 21
1735.7494964292871
 31
0.0
  0
LINE
  5
12426
  8
YODOROGO
 10
31165.604341291921
 20
2027.749496429288
 30
0.0
 11
31165.604341291921
 21
1963.749496429286
 31
0.0
  0
LINE
  5
12427
  8
YODOROGO
 10
31533.604341291921
 20
1595.7494964292871
 30
0.0
 11
31533.60434129191
 21
1811.749496429288
 31
0.0
  0
LINE
  5
12428
  8
YODOROGO
 10
31461.60434129191
 20
1987.7494964292871
 30
0.0
 11
31461.60434129191
 21
1635.7494964292871
 31
0.0
  0
LINE
  5
12429
  8
YODOROGO
 10
31653.604341291921
 20
1427.749496429288
 30
0.0
 11
31653.60434129191
 21
1811.749496429288
 31
0.0
  0
LINE
  5
1242A
  8
YODOROGO
 10
31589.604341291921
 20
1811.749496429288
 30
0.0
 11
31589.604341291921
 21
1427.749496429288
 31
0.0
  0
LINE
  5
1242B
  8
YODOROGO
 10
31237.604341291921
 20
1595.7494964292871
 30
0.0
 11
31237.604341291921
 21
1707.749496429288
 31
0.0
  0
ARC
  5
1242C
  8
YODOROGO
 10
31353.914865116069
 20
1607.790351288558
 30
0.0
 40
180.0924485759885
 50
268.62849102169793
 51
356.16638457330322
  0
LINE
  5
1242D
  8
YODOROGO
 10
31349.604341291939
 20
1527.749496429288
 30
0.0
 11
31349.604341291939
 21
1427.749496429288
 31
0.0
  0
ARC
  5
1242E
  8
YODOROGO
 10
31351.518075724562
 20
1637.838957017655
 30
0.0
 40
110.1060929836122
 50
269.00410209305932
 51
358.91264455492478
  0
LINE
  5
1242F
  8
YODOROGO
 10
31589.604341291921
 20
1427.749496429288
 30
0.0
 11
31653.604341291921
 21
1427.749496429288
 31
0.0
  0
LINE
  5
12430
  8
YODOROGO
 10
31533.60434129191
 20
1811.749496429288
 30
0.0
 11
31589.604341291921
 21
1811.749496429288
 31
0.0
  0
LINE
  5
12431
  8
YODOROGO
 10
31621.604341291939
 20
1987.7494964292871
 30
0.0
 11
31461.60434129191
 21
1987.7494964292871
 31
0.0
  0
LINE
  5
12432
  8
YODOROGO
 10
31533.60434129191
 20
1915.7494964292871
 30
0.0
 11
31661.604341291939
 21
1915.7494964292871
 31
0.0
  0
LINE
  5
12433
  8
YODOROGO
 10
31701.604341291939
 20
1875.7494964292871
 30
0.0
 11
31533.60434129191
 21
1875.7494964292871
 31
0.0
  0
LINE
  5
12434
  8
YODOROGO
 10
31237.604341291921
 20
1779.749496429288
 30
0.0
 11
31349.604341291939
 21
1779.749496429288
 31
0.0
  0
LINE
  5
12435
  8
YODOROGO
 10
31237.604341291921
 20
1835.7494964292871
 30
0.0
 11
31237.604341291921
 21
1779.749496429288
 31
0.0
  0
LINE
  5
12436
  8
YODOROGO
 10
31349.604341291939
 20
1835.7494964292871
 30
0.0
 11
31237.604341291921
 21
1835.7494964292871
 31
0.0
  0
LINE
  5
12437
  8
YODOROGO
 10
31349.604341291939
 20
1779.749496429288
 30
0.0
 11
31349.604341291939
 21
1835.7494964292871
 31
0.0
  0
LINE
  5
12438
  8
YODOROGO
 10
31533.60434129191
 20
1875.7494964292871
 30
0.0
 11
31533.60434129191
 21
1915.7494964292871
 31
0.0
  0
LINE
  5
12439
  8
YODOROGO
 10
31413.604341291921
 20
1707.749496429288
 30
0.0
 11
31413.604341291921
 21
1907.7494964292871
 31
0.0
  0
LINE
  5
1243A
  8
YODOROGO
 10
31237.604341291921
 20
1707.749496429288
 30
0.0
 11
31413.604341291921
 21
1707.749496429288
 31
0.0
  0
LINE
  5
1243B
  8
YODOROGO
 10
31413.604341291921
 20
1963.749496429286
 30
0.0
 11
31413.604341291921
 21
2027.749496429288
 31
0.0
  0
ARC
  5
1243C
  8
YODOROGO
 10
31621.604341291939
 20
2003.749496429285
 30
0.0
 40
15.999999999994539
 50
270.0
 51
0.0000000000081422
  0
LINE
  5
1243D
  8
YODOROGO
 10
31637.604341291921
 20
2027.749496429288
 30
0.0
 11
31637.604341291921
 21
2003.7494964292871
 31
0.0
  0
LINE
  5
1243E
  8
YODOROGO
 10
31701.604341291939
 20
2027.749496429288
 30
0.0
 11
31637.604341291921
 21
2027.749496429288
 31
0.0
  0
LINE
  5
1243F
  8
YODOROGO
 10
31701.604341291939
 20
1955.7494964292871
 30
0.0
 11
31701.604341291939
 21
2027.749496429288
 31
0.0
  0
ARC
  5
12440
  8
YODOROGO
 10
31661.604341291939
 20
1955.7494964292871
 30
0.0
 40
40.0
 50
270.0
 51
0.0
  0
LINE
  5
12441
  8
YODOROGO
 10
31701.604341291939
 20
1811.749496429288
 30
0.0
 11
31701.604341291939
 21
1875.7494964292871
 31
0.0
  0
LINE
  5
12442
  8
YODOROGO
 10
31653.60434129191
 20
1811.749496429288
 30
0.0
 11
31701.604341291939
 21
1811.749496429288
 31
0.0
  0
LINE
  5
12443
  8
0-6
  6
CONTINUOUS
 62
     6
 10
12194.318370503101
 20
14060.561480451879
 30
0.0
 11
12056.740036757779
 21
14146.48689899999
 31
0.0
  0
LINE
  5
12444
  8
0-6
  6
CONTINUOUS
 62
     6
 10
12056.740036757779
 20
14146.48689899999
 30
0.0
 11
12159.014568571019
 21
14020.584463969821
 31
0.0
  0
LINE
  5
12445
  8
0-6
  6
CONTINUOUS
 62
     6
 10
12159.014568571019
 20
14020.584463969821
 30
0.0
 11
12194.318370503101
 21
14060.561480451879
 31
0.0
  0
LINE
  5
12446
  8
0-6
  6
CONTINUOUS
 62
     6
 10
11431.10675221748
 20
19128.76828863292
 30
0.0
 11
11369.90963551447
 21
19278.987755999991
 31
0.0
  0
LINE
  5
12447
  8
0-6
  6
CONTINUOUS
 62
     6
 10
11369.90963551447
 20
19278.987755999991
 30
0.0
 11
11476.52013993676
 21
19156.735134960742
 31
0.0
  0
LINE
  5
12448
  8
0-6
  6
CONTINUOUS
 62
     6
 10
11476.52013993676
 20
19156.735134960742
 30
0.0
 11
11431.10675221748
 21
19128.76828863292
 31
0.0
  0
LINE
  5
12449
  8
0-6
  6
CONTINUOUS
 62
     6
 10
11431.10675221748
 20
18014.266388632939
 30
0.0
 11
11369.90963551447
 21
18164.48585600001
 31
0.0
  0
LINE
  5
1244A
  8
0-6
  6
CONTINUOUS
 62
     6
 10
11369.90963551447
 20
18164.48585600001
 30
0.0
 11
11476.52013993676
 21
18042.23323496076
 31
0.0
  0
LINE
  5
1244B
  8
0-6
  6
CONTINUOUS
 62
     6
 10
11476.52013993676
 20
18042.23323496076
 30
0.0
 11
11431.10675221748
 21
18014.266388632939
 31
0.0
  0
LINE
  5
1244C
  8
0-6
  6
CONTINUOUS
 62
     6
 10
11431.10675221748
 20
15096.26638863295
 30
0.0
 11
11369.90963551447
 21
15246.48585600003
 31
0.0
  0
LINE
  5
1244D
  8
0-6
  6
CONTINUOUS
 62
     6
 10
11369.90963551447
 20
15246.48585600003
 30
0.0
 11
11476.52013993676
 21
15124.23323496078
 31
0.0
  0
LINE
  5
1244E
  8
0-6
  6
CONTINUOUS
 62
     6
 10
11476.52013993676
 20
15124.23323496078
 30
0.0
 11
11431.10675221748
 21
15096.26638863295
 31
0.0
  0
LINE
  5
1244F
  8
0-6
  6
CONTINUOUS
 62
     6
 10
11431.10675221748
 20
16555.26638963294
 30
0.0
 11
11369.90963551447
 21
16705.485857000011
 31
0.0
  0
LINE
  5
12450
  8
0-6
  6
CONTINUOUS
 62
     6
 10
11369.90963551447
 20
16705.485857000011
 30
0.0
 11
11476.52013993676
 21
16583.233235960761
 31
0.0
  0
LINE
  5
12451
  8
0-6
  6
CONTINUOUS
 62
     6
 10
11476.52013993676
 20
16583.233235960761
 30
0.0
 11
11431.10675221748
 21
16555.26638963294
 31
0.0
  0
LINE
  5
12452
  8
SUNPOU
  6
CONTINUOUS
 62
     4
 10
6257.1434624765943
 20
15291.48625200001
 30
0.0
 11
5546.4418544765967
 21
15291.48625200001
 31
0.0
  0
LINE
  5
12453
  8
SUNPOU
  6
CONTINUOUS
 62
     4
 10
6313.4419604765953
 20
14182.986252000001
 30
0.0
 11
5546.4418544765958
 21
14182.986252000001
 31
0.0
  0
LINE
  5
12454
  8
SUNPOU
  6
CONTINUOUS
 62
     4
 10
5626.441854476594
 20
15291.48625200001
 30
0.0
 11
5626.441854476594
 21
14182.986252000001
 31
0.0
  0
LINE
  5
12455
  8
SUNPOU
  6
CONTINUOUS
 62
     4
 10
6333.8629066003623
 20
16750.486251999999
 30
0.0
 11
5546.441854476594
 21
16750.486251999999
 31
0.0
  0
LINE
  5
12456
  8
SUNPOU
  6
CONTINUOUS
 62
     4
 10
6257.1434624765943
 20
15291.48625200001
 30
0.0
 11
5546.441854476594
 21
15291.48625200001
 31
0.0
  0
LINE
  5
12457
  8
SUNPOU
  6
CONTINUOUS
 62
     4
 10
5626.441854476594
 20
16750.486251999999
 30
0.0
 11
5626.441854476594
 21
15291.48625200001
 31
0.0
  0
LINE
  5
12458
  8
SUNPOU
  6
CONTINUOUS
 62
     4
 10
6257.1434624765943
 20
18209.48625200001
 30
0.0
 11
5546.441854476594
 21
18209.48625200001
 31
0.0
  0
LINE
  5
12459
  8
SUNPOU
  6
CONTINUOUS
 62
     4
 10
6333.8629066003623
 20
16750.486251999999
 30
0.0
 11
5546.441854476594
 21
16750.486251999999
 31
0.0
  0
LINE
  5
1245A
  8
SUNPOU
  6
CONTINUOUS
 62
     4
 10
5626.441854476594
 20
18209.48625200001
 30
0.0
 11
5626.441854476594
 21
16750.486251999999
 31
0.0
  0
LINE
  5
1245B
  8
SUNPOU
  6
CONTINUOUS
 62
     4
 10
6393.4413064765822
 20
13990.486252000001
 30
0.0
 11
5546.4415304765926
 21
13990.486252000001
 31
0.0
  0
LINE
  5
1245C
  8
SUNPOU
  6
CONTINUOUS
 62
     4
 10
5626.4415304765944
 20
14182.98552600002
 30
0.0
 11
5626.4415304765944
 21
13990.486252000001
 31
0.0
  0
LINE
  5
1245D
  8
SUNPOU
  6
CONTINUOUS
 62
     4
 10
6257.1434624765943
 20
18209.48625200001
 30
0.0
 11
5546.4415304765917
 21
18209.48625200001
 31
0.0
  0
LINE
  5
1245E
  8
SUNPOU
  6
CONTINUOUS
 62
     4
 10
5626.4415304765944
 20
19317.986251999992
 30
0.0
 11
5626.4415304765917
 21
18209.48625200001
 31
0.0
  0
LINE
  5
1245F
  8
SUNPOU
  6
CONTINUOUS
 62
     4
 10
5546.4415304765917
 20
19317.986251999992
 30
0.0
 11
5586.4415304765917
 21
19317.986251999992
 31
0.0
  0
LINE
  5
12460
  8
SUNPOU
  6
CONTINUOUS
 62
     4
 10
6398.4405804765784
 20
19540.486120000001
 30
0.0
 11
5586.4415304765917
 21
19540.486120000001
 31
0.0
  0
LINE
  5
12461
  8
SUNPOU
  6
CONTINUOUS
 62
     4
 10
5626.4415304765917
 20
19317.986251999992
 30
0.0
 11
5626.4415304765917
 21
19540.486120000001
 31
0.0
  0
LINE
  5
12462
  8
SUNPOU
  6
CONTINUOUS
 62
     4
 10
6411.4404034765721
 20
19500.485987999989
 30
0.0
 11
5946.4408714765923
 21
19500.485987999989
 31
0.0
  0
LINE
  5
12463
  8
SUNPOU
  6
CONTINUOUS
 62
     4
 10
6398.4405804765784
 20
19540.486120000001
 30
0.0
 11
5946.4408714765923
 21
19540.486120000001
 31
0.0
  0
LINE
  5
12464
  8
SUNPOU
  6
CONTINUOUS
 62
     4
 10
6026.4408714765914
 20
19500.485987999989
 30
0.0
 11
6026.4408714765914
 21
19260.485987999989
 31
0.0
  0
LINE
  5
12465
  8
SUNPOU
  6
CONTINUOUS
 62
     4
 10
6026.4408714765914
 20
19540.486120000001
 30
0.0
 11
6026.4408714765914
 21
19780.486120000001
 31
0.0
  0
LINE
  5
12466
  8
SUNPOU
  6
CONTINUOUS
 62
     4
 10
6026.4408714765914
 20
19500.485987999989
 30
0.0
 11
6026.4408714765914
 21
19540.486120000001
 31
0.0
  0
LINE
  5
12467
  8
SUNPOU
  6
CONTINUOUS
 62
     4
 10
12273.94163047658
 20
20165.488164999992
 30
0.0
 11
12273.94163047658
 21
20240.487175999991
 31
0.0
  0
LINE
  5
12468
  8
SUNPOU
  6
CONTINUOUS
 62
     4
 10
12359.44163047658
 20
19615.487834999982
 30
0.0
 11
12359.44163047658
 21
20240.487175999991
 31
0.0
  0
LINE
  5
12469
  8
SUNPOU
  6
CONTINUOUS
 62
     4
 10
12273.94163047658
 20
20160.487175999991
 30
0.0
 11
12033.94163047658
 21
20160.487175999991
 31
0.0
  0
LINE
  5
1246A
  8
SUNPOU
  6
CONTINUOUS
 62
     4
 10
12356.44163047658
 20
20160.487175999991
 30
0.0
 11
12596.44163047658
 21
20160.487175999991
 31
0.0
  0
LINE
  5
1246B
  8
SUNPOU
  6
CONTINUOUS
 62
     4
 10
12273.94163047658
 20
20160.487175999991
 30
0.0
 11
12356.44163047658
 21
20160.487175999991
 31
0.0
  0
LINE
  5
1246C
  8
SUNPOU
  6
CONTINUOUS
 62
     4
 10
9473.9416304765837
 20
20165.488164999992
 30
0.0
 11
9473.9416304765837
 21
20240.487175999991
 31
0.0
  0
LINE
  5
1246D
  8
SUNPOU
  6
CONTINUOUS
 62
     4
 10
12273.94163047658
 20
20165.488164999992
 30
0.0
 11
12273.94163047658
 21
20240.487175999991
 31
0.0
  0
LINE
  5
1246E
  8
SUNPOU
  6
CONTINUOUS
 62
     4
 10
9473.9416304765837
 20
20160.487175999991
 30
0.0
 11
12273.94163047658
 21
20160.487175999991
 31
0.0
  0
LINE
  5
1246F
  8
SUNPOU
  6
CONTINUOUS
 62
     4
 10
6555.9416304765828
 20
19690.487834999989
 30
0.0
 11
6555.9416304765828
 21
20240.487175999991
 31
0.0
  0
LINE
  5
12470
  8
SUNPOU
  6
CONTINUOUS
 62
     4
 10
9473.9416304765837
 20
20165.488164999992
 30
0.0
 11
9473.9416304765837
 21
20240.487175999991
 31
0.0
  0
LINE
  5
12471
  8
SUNPOU
  6
CONTINUOUS
 62
     4
 10
6555.9416304765828
 20
20160.487175999991
 30
0.0
 11
9473.9416304765837
 21
20160.487175999991
 31
0.0
  0
LINE
  5
12472
  8
SUNPOU
  6
CONTINUOUS
 62
     4
 10
6555.9416304765828
 20
19690.487834999989
 30
0.0
 11
6555.9416304765828
 21
20240.487175999991
 31
0.0
  0
LINE
  5
12473
  8
SUNPOU
  6
CONTINUOUS
 62
     4
 10
6470.4416304765837
 20
19610.487571999998
 30
0.0
 11
6470.4416304765837
 21
20240.487175999991
 31
0.0
  0
LINE
  5
12474
  8
SUNPOU
  6
CONTINUOUS
 62
     4
 10
6555.9416304765828
 20
20160.487175999991
 30
0.0
 11
6795.9416304765818
 21
20160.487175999991
 31
0.0
  0
LINE
  5
12475
  8
SUNPOU
  6
CONTINUOUS
 62
     4
 10
6473.4416304765837
 20
20160.487175999991
 30
0.0
 11
6233.4416304765828
 21
20160.487175999991
 31
0.0
  0
LINE
  5
12476
  8
SUNPOU
  6
CONTINUOUS
 62
     4
 10
6555.9416304765828
 20
20160.487175999991
 30
0.0
 11
6473.4416304765837
 21
20160.487175999991
 31
0.0
  0
LINE
  5
12477
  8
SUNPOU
  6
CONTINUOUS
 62
     4
 10
6470.4416304765837
 20
13910.486252000001
 30
0.0
 11
6470.4416304765837
 21
12620.485459999991
 31
0.0
  0
LINE
  5
12478
  8
SUNPOU
  6
CONTINUOUS
 62
     4
 10
12359.44163047658
 20
13910.486252000001
 30
0.0
 11
12359.44163047658
 21
12620.485459999991
 31
0.0
  0
LINE
  5
12479
  8
SUNPOU
  6
CONTINUOUS
 62
     4
 10
6473.4416304765837
 20
12700.485459999991
 30
0.0
 11
12356.44163047658
 21
12700.485459999991
 31
0.0
  0
LINE
  5
1247A
  8
0-6
  6
CONTINUOUS
 62
     6
 10
25376.139107882089
 20
19102.38947925335
 30
0.0
 11
25482.46713183005
 21
19224.885710999992
 31
0.0
  0
LINE
  5
1247B
  8
0-6
  6
CONTINUOUS
 62
     6
 10
25482.46713183005
 20
19224.885710999992
 30
0.0
 11
25421.615012236802
 21
19074.524404324551
 31
0.0
  0
LINE
  5
1247C
  8
0-6
  6
CONTINUOUS
 62
     6
 10
25421.615012236802
 20
19074.524404324551
 30
0.0
 11
25376.139107882089
 21
19102.38947925335
 31
0.0
  0
LINE
  5
1247D
  8
0-6
  6
CONTINUOUS
 62
     6
 10
25404.32345338806
 20
19518.2030359327
 30
0.0
 11
25473.36713183004
 21
19371.424475045871
 31
0.0
  0
LINE
  5
1247E
  8
0-6
  6
CONTINUOUS
 62
     6
 10
25473.36713183004
 20
19371.424475045871
 30
0.0
 11
25360.450131650901
 21
19487.877272670848
 31
0.0
  0
LINE
  5
1247F
  8
0-6
  6
CONTINUOUS
 62
     6
 10
25360.450131650901
 20
19487.877272670848
 30
0.0
 11
25404.32345338806
 21
19518.2030359327
 31
0.0
  0
LINE
  5
12480
  8
0-6
  6
CONTINUOUS
 62
     6
 10
25376.139107882089
 20
16935.082047746651
 30
0.0
 11
25482.46713183005
 21
16812.585815999992
 31
0.0
  0
LINE
  5
12481
  8
0-6
  6
CONTINUOUS
 62
     6
 10
25482.46713183005
 20
16812.585815999992
 30
0.0
 11
25421.615012236802
 21
16962.947122675439
 31
0.0
  0
LINE
  5
12482
  8
0-6
  6
CONTINUOUS
 62
     6
 10
25421.615012236802
 20
16962.947122675439
 30
0.0
 11
25376.139107882089
 21
16935.082047746651
 31
0.0
  0
LINE
  5
12483
  8
0-6
  6
CONTINUOUS
 62
     6
 10
25376.139107882089
 20
14378.08248374665
 30
0.0
 11
25482.46713183005
 21
14255.58625199999
 31
0.0
  0
LINE
  5
12484
  8
0-6
  6
CONTINUOUS
 62
     6
 10
25482.46713183005
 20
14255.58625199999
 30
0.0
 11
25421.615012236802
 21
14405.947558675451
 31
0.0
  0
LINE
  5
12485
  8
0-6
  6
CONTINUOUS
 62
     6
 10
25421.615012236802
 20
14405.947558675451
 30
0.0
 11
25376.139107882089
 21
14378.08248374665
 31
0.0
  0
LINE
  5
12486
  8
0-6
  6
CONTINUOUS
 62
     6
 10
25404.32345338806
 20
16519.268491067302
 30
0.0
 11
25473.36713183004
 21
16666.047051954109
 31
0.0
  0
LINE
  5
12487
  8
0-6
  6
CONTINUOUS
 62
     6
 10
25473.36713183004
 20
16666.047051954109
 30
0.0
 11
25360.450131650901
 21
16549.594254329138
 31
0.0
  0
LINE
  5
12488
  8
0-6
  6
CONTINUOUS
 62
     6
 10
25360.450131650901
 20
16549.594254329138
 30
0.0
 11
25404.32345338806
 21
16519.268491067302
 31
0.0
  0
LINE
  5
12489
  8
0-6
  6
CONTINUOUS
 62
     6
 10
25404.32345338806
 20
13982.207691113181
 30
0.0
 11
25473.36713183004
 21
14128.986252000001
 31
0.0
  0
LINE
  5
1248A
  8
0-6
  6
CONTINUOUS
 62
     6
 10
25473.36713183004
 20
14128.986252000001
 30
0.0
 11
25360.450131650901
 21
14012.53345437502
 31
0.0
  0
LINE
  5
1248B
  8
0-6
  6
CONTINUOUS
 62
     6
 10
25360.450131650901
 20
14012.53345437502
 30
0.0
 11
25404.32345338806
 21
13982.207691113181
 31
0.0
  0
LINE
  5
124B0
  8
SUNPOU
  6
CONTINUOUS
 62
     4
 10
22712.511953585152
 20
19440.48625200001
 30
0.0
 11
22712.511953585152
 21
20240.487175999991
 31
0.0
  0
LINE
  5
124B1
  8
SUNPOU
  6
CONTINUOUS
 62
     4
 10
22755.011953585141
 20
19440.48625200001
 30
0.0
 11
22755.011953585141
 21
20240.487175999991
 31
0.0
  0
LINE
  5
124B2
  8
SUNPOU
  6
CONTINUOUS
 62
     4
 10
22712.511953585152
 20
20160.487175999991
 30
0.0
 11
22472.511953585152
 21
20160.487175999991
 31
0.0
  0
LINE
  5
124B3
  8
SUNPOU
  6
CONTINUOUS
 62
     4
 10
22755.011953585141
 20
20160.487175999991
 30
0.0
 11
22995.011953585141
 21
20160.487175999991
 31
0.0
  0
LINE
  5
124B4
  8
SUNPOU
  6
CONTINUOUS
 62
     4
 10
22712.511953585152
 20
20160.487175999991
 30
0.0
 11
22755.011953585141
 21
20160.487175999991
 31
0.0
  0
LINE
  5
124B5
  8
SUNPOU
  6
CONTINUOUS
 62
     4
 10
21954.511953585141
 20
19440.48625200001
 30
0.0
 11
21954.511953585141
 21
20240.487175999991
 31
0.0
  0
LINE
  5
124B6
  8
SUNPOU
  6
CONTINUOUS
 62
     4
 10
22712.511953585152
 20
19440.48625200001
 30
0.0
 11
22712.511953585152
 21
20240.487175999991
 31
0.0
  0
LINE
  5
124B7
  8
SUNPOU
  6
CONTINUOUS
 62
     4
 10
21954.511953585141
 20
20160.487175999991
 30
0.0
 11
22712.511953585152
 21
20160.487175999991
 31
0.0
  0
LINE
  5
124B8
  8
SUNPOU
  6
CONTINUOUS
 62
     4
 10
21253.511953585141
 20
19440.48625200001
 30
0.0
 11
21253.511953585141
 21
20240.487175999991
 31
0.0
  0
LINE
  5
124B9
  8
SUNPOU
  6
CONTINUOUS
 62
     4
 10
21954.511953585141
 20
19440.48625200001
 30
0.0
 11
21954.511953585141
 21
20240.487175999991
 31
0.0
  0
LINE
  5
124BA
  8
SUNPOU
  6
CONTINUOUS
 62
     4
 10
21253.511953585141
 20
20160.487175999991
 30
0.0
 11
21954.511953585141
 21
20160.487175999991
 31
0.0
  0
LINE
  5
124BB
  8
SUNPOU
  6
CONTINUOUS
 62
     4
 10
20552.51195358513
 20
19440.48625200001
 30
0.0
 11
20552.51195358513
 21
20240.487175999991
 31
0.0
  0
LINE
  5
124BC
  8
SUNPOU
  6
CONTINUOUS
 62
     4
 10
21253.511953585141
 20
19440.48625200001
 30
0.0
 11
21253.511953585141
 21
20240.487175999991
 31
0.0
  0
LINE
  5
124BD
  8
SUNPOU
  6
CONTINUOUS
 62
     4
 10
20552.51195358513
 20
20160.487175999991
 30
0.0
 11
21253.511953585141
 21
20160.487175999991
 31
0.0
  0
LINE
  5
124BE
  8
SUNPOU
  6
CONTINUOUS
 62
     4
 10
19794.511953585141
 20
19520.488759
 30
0.0
 11
19794.511953585141
 21
20240.487175999991
 31
0.0
  0
LINE
  5
124BF
  8
SUNPOU
  6
CONTINUOUS
 62
     4
 10
20552.51195358513
 20
19440.48625200001
 30
0.0
 11
20552.51195358513
 21
20240.487175999991
 31
0.0
  0
LINE
  5
124C0
  8
SUNPOU
  6
CONTINUOUS
 62
     4
 10
19794.511953585141
 20
20160.487175999991
 30
0.0
 11
20552.51195358513
 21
20160.487175999991
 31
0.0
  0
LINE
  5
124C1
  8
SUNPOU
  6
CONTINUOUS
 62
     4
 10
19794.511953585141
 20
19520.488759
 30
0.0
 11
19794.511953585141
 21
20240.487175999991
 31
0.0
  0
LINE
  5
124C2
  8
SUNPOU
  6
CONTINUOUS
 62
     4
 10
19752.011953585141
 20
19440.48625200001
 30
0.0
 11
19752.011953585141
 21
20240.487175999991
 31
0.0
  0
LINE
  5
124C3
  8
SUNPOU
  6
CONTINUOUS
 62
     4
 10
19794.511953585141
 20
20160.487175999991
 30
0.0
 11
20034.511953585141
 21
20160.487175999991
 31
0.0
  0
LINE
  5
124C4
  8
SUNPOU
  6
CONTINUOUS
 62
     4
 10
19752.011953585141
 20
20160.487175999991
 30
0.0
 11
19512.011953585141
 21
20160.487175999991
 31
0.0
  0
LINE
  5
124C5
  8
SUNPOU
  6
CONTINUOUS
 62
     4
 10
19794.511953585141
 20
20160.487175999991
 30
0.0
 11
19752.011953585141
 21
20160.487175999991
 31
0.0
  0
LINE
  5
124D3
  8
SUNPOU
  6
CONTINUOUS
 62
     4
 10
22712.511953585152
 20
20560.487175999991
 30
0.0
 11
25512.511953585141
 21
20560.487175999991
 31
0.0
  0
LINE
  5
124D4
  8
SUNPOU
  6
CONTINUOUS
 62
     4
 10
19794.511953585141
 20
20560.487175999991
 30
0.0
 11
22712.511953585152
 21
20560.487175999991
 31
0.0
  0
LINE
  5
124D5
  8
SUNPOU
  6
CONTINUOUS
 62
     4
 10
25512.511953585141
 20
19684.93602587733
 30
0.0
 11
25512.511953585141
 21
20240.487175999991
 31
0.0
  0
LINE
  5
124D6
  8
SUNPOU
  6
CONTINUOUS
 62
     4
 10
25470.009710585138
 20
19523.83651600001
 30
0.0
 11
25470.009710585138
 21
20240.487175999991
 31
0.0
  0
LINE
  5
124D7
  8
SUNPOU
  6
CONTINUOUS
 62
     4
 10
25512.511953585141
 20
20160.487175999991
 30
0.0
 11
25752.51195358513
 21
20160.487175999991
 31
0.0
  0
LINE
  5
124D8
  8
SUNPOU
  6
CONTINUOUS
 62
     4
 10
25470.009710585138
 20
20160.487175999991
 30
0.0
 11
25230.009710585138
 21
20160.487175999991
 31
0.0
  0
LINE
  5
124D9
  8
SUNPOU
  6
CONTINUOUS
 62
     4
 10
25512.511953585141
 20
20160.487175999991
 30
0.0
 11
25470.009710585138
 21
20160.487175999991
 31
0.0
  0
LINE
  5
124DA
  8
SUNPOU
  6
CONTINUOUS
 62
     4
 10
25512.511953585141
 20
19684.93602587733
 30
0.0
 11
25512.511953585141
 21
20240.487175999991
 31
0.0
  0
LINE
  5
124DB
  8
SUNPOU
  6
CONTINUOUS
 62
     4
 10
25555.010238585121
 20
19520.488759
 30
0.0
 11
25555.010238585121
 21
20240.487175999991
 31
0.0
  0
LINE
  5
124DC
  8
SUNPOU
  6
CONTINUOUS
 62
     4
 10
25512.511953585141
 20
20160.487175999991
 30
0.0
 11
25272.511953585141
 21
20160.487175999991
 31
0.0
  0
LINE
  5
124DD
  8
SUNPOU
  6
CONTINUOUS
 62
     4
 10
25555.010238585121
 20
20160.487175999991
 30
0.0
 11
25795.010238585121
 21
20160.487175999991
 31
0.0
  0
LINE
  5
124DE
  8
SUNPOU
  6
CONTINUOUS
 62
     4
 10
25512.511953585141
 20
20160.487175999991
 30
0.0
 11
25555.010238585121
 21
20160.487175999991
 31
0.0
  0
LINE
  5
124DF
  8
SUNPOU
  6
CONTINUOUS
 62
     4
 10
25897.116789537082
 20
16750.486251999992
 30
0.0
 11
26810.355577953771
 21
16750.486251999992
 31
0.0
  0
LINE
  5
124E0
  8
SUNPOU
  6
CONTINUOUS
 62
     4
 10
25897.116789537082
 20
19317.986251999992
 30
0.0
 11
26810.355577953771
 21
19317.986251999992
 31
0.0
  0
LINE
  5
124E1
  8
SUNPOU
  6
CONTINUOUS
 62
     4
 10
26730.355577953771
 20
16750.486251999992
 30
0.0
 11
26730.355577953771
 21
19317.986251999992
 31
0.0
  0
LINE
  5
124E2
  8
SUNPOU
  6
CONTINUOUS
 62
     4
 10
25897.116789537082
 20
14182.986252000001
 30
0.0
 11
26810.355577953771
 21
14182.986252000001
 31
0.0
  0
LINE
  5
124E3
  8
SUNPOU
  6
CONTINUOUS
 62
     4
 10
25897.116789537082
 20
16750.486251999992
 30
0.0
 11
26810.355577953771
 21
16750.486251999992
 31
0.0
  0
LINE
  5
124E4
  8
SUNPOU
  6
CONTINUOUS
 62
     4
 10
26730.355577953771
 20
14182.986252000001
 30
0.0
 11
26730.355577953771
 21
16750.486251999992
 31
0.0
  0
ARC
  5
124FC
  8
1-前柱P
 10
25522.111953585129
 20
14251.386252
 30
0.0
 40
1.0
 50
90.0
 51
180.0
  0
LINE
  5
124FD
  8
1-前柱P
 10
25521.111953585129
 20
14251.386252
 30
0.0
 11
25521.111953585129
 21
14249.786252
 31
0.0
  0
LINE
  5
124FE
  8
1-前柱P
 10
25521.111953585129
 20
14249.786252
 30
0.0
 11
25509.911953585139
 21
14249.786252
 31
0.0
  0
LINE
  5
124FF
  8
1-前柱P
 10
25509.911953585139
 20
14249.786252
 30
0.0
 11
25509.911953585131
 21
14251.386252
 31
0.0
  0
ARC
  5
12500
  8
1-前柱P
 10
25508.911953585131
 20
14251.386252
 30
0.0
 40
1.0
 50
0.0
 51
90.0
  0
ARC
  5
12501
  8
1-中柱P
 10
25505.911953585131
 20
16818.786252000002
 30
0.0
 40
1.0
 50
0.0
 51
90.0
  0
LINE
  5
12502
  8
1-中柱P
 10
25506.911953585121
 20
16818.786252000002
 30
0.0
 11
25506.911953585121
 21
16817.18625200001
 31
0.0
  0
LINE
  5
12503
  8
1-中柱P
 10
25506.911953585121
 20
16817.18625200001
 30
0.0
 11
25518.111953585129
 21
16817.18625200001
 31
0.0
  0
LINE
  5
12504
  8
1-中柱P
 10
25518.111953585129
 20
16817.18625200001
 30
0.0
 11
25518.111953585129
 21
16818.786252000002
 31
0.0
  0
ARC
  5
12505
  8
1-中柱P
 10
25519.111953585129
 20
16818.786252000002
 30
0.0
 40
1.0
 50
90.0
 51
180.0
  0
ARC
  5
12506
  8
1-後柱P
 10
25502.91195358515
 20
19249.936251999989
 30
0.0
 40
1.0
 50
270.0
 51
0.0
  0
LINE
  5
12507
  8
1-後柱P
 10
25503.911953585139
 20
19249.936251999989
 30
0.0
 11
25503.911953585139
 21
19251.536252000002
 31
0.0
  0
LINE
  5
12508
  8
1-後柱P
 10
25503.911953585139
 20
19251.536252000002
 30
0.0
 11
25515.11195358515
 21
19251.536252000002
 31
0.0
  0
LINE
  5
12509
  8
1-後柱P
 10
25515.11195358515
 20
19251.536252000002
 30
0.0
 11
25515.11195358515
 21
19249.936251999989
 31
0.0
  0
ARC
  5
1250A
  8
1-後柱P
 10
25516.111953585139
 20
19249.936251999989
 30
0.0
 40
1.0
 50
180.0
 51
270.0
  0
LINE
  5
1250B
  8
SUNPOU
  6
CONTINUOUS
 62
     4
 10
6326.233570470944
 20
8478.188374000003
 30
0.0
 11
6326.233570470944
 21
9869.1883999999955
 31
0.0
  0
LINE
  5
1250C
  8
SUNPOU
  6
CONTINUOUS
 62
     4
 10
11876.233570470929
 20
8610.0781974124311
 30
0.0
 11
11876.233570470929
 21
9869.1883999999955
 31
0.0
  0
LINE
  5
1250D
  8
SUNPOU
  6
CONTINUOUS
 62
     4
 10
6326.233570470944
 20
9789.1883999999955
 30
0.0
 11
11876.233570470929
 21
9789.1883999999955
 31
0.0
  0
LINE
  5
1250E
  8
SUNPOU
  6
CONTINUOUS
 62
     4
 10
11726.23357047094
 20
8536.0984379999973
 30
0.0
 11
11726.23357047094
 21
9469.1900500000029
 31
0.0
  0
LINE
  5
1250F
  8
SUNPOU
  6
CONTINUOUS
 62
     4
 10
11876.233570470929
 20
8610.0781974124311
 30
0.0
 11
11876.233570470929
 21
9469.1900500000029
 31
0.0
  0
LINE
  5
12510
  8
SUNPOU
  6
CONTINUOUS
 62
     4
 10
11726.23357047094
 20
9389.1900500000029
 30
0.0
 11
11486.23357047094
 21
9389.1900500000029
 31
0.0
  0
LINE
  5
12511
  8
SUNPOU
  6
CONTINUOUS
 62
     4
 10
11876.233570470929
 20
9389.1900500000029
 30
0.0
 11
12116.23357047094
 21
9389.1900500000029
 31
0.0
  0
LINE
  5
12512
  8
SUNPOU
  6
CONTINUOUS
 62
     4
 10
11726.23357047094
 20
9389.1900500000029
 30
0.0
 11
11876.233570470929
 21
9389.1900500000029
 31
0.0
  0
LINE
  5
12513
  8
SUNPOU
  6
CONTINUOUS
 62
     4
 10
6506.233570470944
 20
8348.3741496838102
 30
0.0
 11
6506.233570470944
 21
9469.1900500000029
 31
0.0
  0
LINE
  5
12514
  8
SUNPOU
  6
CONTINUOUS
 62
     4
 10
11726.23357047094
 20
8536.0984379999973
 30
0.0
 11
11726.23357047094
 21
9469.1900500000029
 31
0.0
  0
LINE
  5
12515
  8
SUNPOU
  6
CONTINUOUS
 62
     4
 10
6506.233570470944
 20
9389.1900500000029
 30
0.0
 11
11726.23357047094
 21
9389.1900500000029
 31
0.0
  0
LINE
  5
12516
  8
SUNPOU
  6
CONTINUOUS
 62
     4
 10
6326.233570470944
 20
8478.188374000003
 30
0.0
 11
6326.233570470944
 21
9469.1900500000029
 31
0.0
  0
LINE
  5
12517
  8
SUNPOU
  6
CONTINUOUS
 62
     4
 10
6506.233570470944
 20
8348.3741496838102
 30
0.0
 11
6506.233570470944
 21
9469.1900500000029
 31
0.0
  0
LINE
  5
12518
  8
SUNPOU
  6
CONTINUOUS
 62
     4
 10
6326.233570470944
 20
9389.1900500000029
 30
0.0
 11
6506.233570470944
 21
9389.1900500000029
 31
0.0
  0
LINE
  5
12519
  8
SUNPOU
  6
CONTINUOUS
 62
     4
 10
11818.73357047094
 20
6241.1883740000021
 30
0.0
 11
12896.23396647094
 21
6241.1883740000021
 31
0.0
  0
LINE
  5
1251A
  8
SUNPOU
  6
CONTINUOUS
 62
     4
 10
11911.04083007032
 20
8590.188374000003
 30
0.0
 11
12896.23396647094
 21
8590.188374000003
 31
0.0
  0
LINE
  5
1251B
  8
SUNPOU
  6
CONTINUOUS
 62
     4
 10
12816.23396647094
 20
6241.1883740000021
 30
0.0
 11
12816.23396647094
 21
8590.188374000003
 31
0.0
  0
LINE
  5
1251C
  8
SUNPOU
  6
CONTINUOUS
 62
     4
 10
6418.7335704709449
 20
6241.1883740000021
 30
0.0
 11
5336.2331744709472
 21
6241.1883740000039
 31
0.0
  0
LINE
  5
1251D
  8
SUNPOU
  6
CONTINUOUS
 62
     4
 10
6246.233570470944
 20
8396.688374000003
 30
0.0
 11
5336.2331744709472
 21
8396.688374000003
 31
0.0
  0
LINE
  5
1251E
  8
SUNPOU
  6
CONTINUOUS
 62
     4
 10
5416.2331744709481
 20
6241.1883740000039
 30
0.0
 11
5416.2331744709481
 21
8396.688374000003
 31
0.0
  0
LINE
  5
1251F
  8
SUNPOU
  6
CONTINUOUS
 62
     4
 10
6506.233570470944
 20
6161.1883740000021
 30
0.0
 11
6506.233570470944
 21
4461.1887039999992
 31
0.0
  0
LINE
  5
12520
  8
SUNPOU
  6
CONTINUOUS
 62
     4
 10
11726.23357047094
 20
6161.1883740000021
 30
0.0
 11
11726.23357047094
 21
4461.1887039999992
 31
0.0
  0
LINE
  5
12521
  8
SUNPOU
  6
CONTINUOUS
 62
     4
 10
6506.233570470944
 20
4541.1887039999983
 30
0.0
 11
11726.23357047094
 21
4541.1887039999983
 31
0.0
  0
LINE
  5
12522
  8
SUNPOU
  6
CONTINUOUS
 62
     4
 10
11683.733570470929
 20
5798.5361160000011
 30
0.0
 11
11683.733570470929
 21
4861.1885389999998
 31
0.0
  0
LINE
  5
12523
  8
SUNPOU
  6
CONTINUOUS
 62
     4
 10
11726.23357047094
 20
6161.1883740000021
 30
0.0
 11
11726.23357047094
 21
4861.1885389999998
 31
0.0
  0
LINE
  5
12524
  8
SUNPOU
  6
CONTINUOUS
 62
     4
 10
11683.733570470929
 20
4941.1885390000016
 30
0.0
 11
11443.73357047094
 21
4941.1885390000016
 31
0.0
  0
LINE
  5
12525
  8
SUNPOU
  6
CONTINUOUS
 62
     4
 10
11726.23357047094
 20
4941.1885390000016
 30
0.0
 11
11966.23357047094
 21
4941.1885390000016
 31
0.0
  0
LINE
  5
12526
  8
SUNPOU
  6
CONTINUOUS
 62
     4
 10
11683.733570470929
 20
4941.1885390000016
 30
0.0
 11
11726.23357047094
 21
4941.1885390000016
 31
0.0
  0
LINE
  5
12527
  8
SUNPOU
  6
CONTINUOUS
 62
     4
 10
6548.7335704709431
 20
5798.5361160000011
 30
0.0
 11
6548.7335704709431
 21
4861.1885389999998
 31
0.0
  0
LINE
  5
12528
  8
SUNPOU
  6
CONTINUOUS
 62
     4
 10
6506.233570470944
 20
6161.1883740000021
 30
0.0
 11
6506.233570470944
 21
4861.1885389999998
 31
0.0
  0
LINE
  5
12529
  8
SUNPOU
  6
CONTINUOUS
 62
     4
 10
6548.7335704709431
 20
4941.1885390000016
 30
0.0
 11
6788.733570470944
 21
4941.1885390000016
 31
0.0
  0
LINE
  5
1252A
  8
SUNPOU
  6
CONTINUOUS
 62
     4
 10
6506.233570470944
 20
4941.1885390000016
 30
0.0
 11
6266.233570470944
 21
4941.1885390000016
 31
0.0
  0
LINE
  5
1252B
  8
SUNPOU
  6
CONTINUOUS
 62
     4
 10
6548.7335704709431
 20
4941.1885390000016
 30
0.0
 11
6506.233570470944
 21
4941.1885390000016
 31
0.0
  0
LINE
  5
1252C
  8
SUNPOU
  6
CONTINUOUS
 62
     4
 10
9116.233570470944
 20
5798.5361160000011
 30
0.0
 11
9116.233570470944
 21
4861.1885389999998
 31
0.0
  0
LINE
  5
1252D
  8
SUNPOU
  6
CONTINUOUS
 62
     4
 10
6548.7335704709431
 20
5798.5361160000011
 30
0.0
 11
6548.7335704709431
 21
4861.1885389999998
 31
0.0
  0
LINE
  5
1252E
  8
SUNPOU
  6
CONTINUOUS
 62
     4
 10
9116.233570470944
 20
4941.1885390000016
 30
0.0
 11
6548.7335704709431
 21
4941.1885390000016
 31
0.0
  0
LINE
  5
1252F
  8
SUNPOU
  6
CONTINUOUS
 62
     4
 10
9116.233570470944
 20
5798.5361160000011
 30
0.0
 11
9116.233570470944
 21
4861.1885389999998
 31
0.0
  0
LINE
  5
12530
  8
SUNPOU
  6
CONTINUOUS
 62
     4
 10
11683.733570470929
 20
5798.5361160000011
 30
0.0
 11
11683.733570470929
 21
4861.1885389999998
 31
0.0
  0
LINE
  5
12531
  8
SUNPOU
  6
CONTINUOUS
 62
     4
 10
9116.233570470944
 20
4941.1885390000016
 30
0.0
 11
11683.733570470929
 21
4941.1885390000016
 31
0.0
  0
LINE
  5
12532
  8
SUNPOU
  6
CONTINUOUS
 62
     4
 10
19688.010092585158
 20
8669.6883999999955
 30
0.0
 11
19688.010092585158
 21
9869.1329740000037
 31
0.0
  0
LINE
  5
12533
  8
SUNPOU
  6
CONTINUOUS
 62
     4
 10
25577.010092585158
 20
8669.6883999999955
 30
0.0
 11
25577.010092585158
 21
9869.1329740000037
 31
0.0
  0
LINE
  5
12534
  8
SUNPOU
  6
CONTINUOUS
 62
     4
 10
19691.010092585158
 20
9789.1329740000037
 30
0.0
 11
25574.010092585158
 21
9789.1329740000037
 31
0.0
  0
LINE
  5
12535
  8
SUNPOU
  6
CONTINUOUS
 62
     4
 10
25534.010092585158
 20
8669.6883999999955
 30
0.0
 11
25534.010092585158
 21
9469.1900500000029
 31
0.0
  0
LINE
  5
12536
  8
SUNPOU
  6
CONTINUOUS
 62
     4
 10
25577.010092585158
 20
8669.6883999999955
 30
0.0
 11
25577.010092585158
 21
9469.1900500000029
 31
0.0
  0
LINE
  5
12537
  8
SUNPOU
  6
CONTINUOUS
 62
     4
 10
25534.010092585158
 20
9389.1900500000029
 30
0.0
 11
25294.010092585158
 21
9389.1900500000029
 31
0.0
  0
LINE
  5
12538
  8
SUNPOU
  6
CONTINUOUS
 62
     4
 10
25574.010092585158
 20
9389.1900500000029
 30
0.0
 11
25814.010092585158
 21
9389.1900500000029
 31
0.0
  0
LINE
  5
12539
  8
SUNPOU
  6
CONTINUOUS
 62
     4
 10
25534.010092585158
 20
9389.1900500000029
 30
0.0
 11
25574.010092585158
 21
9389.1900500000029
 31
0.0
  0
LINE
  5
1253A
  8
SUNPOU
  6
CONTINUOUS
 62
     4
 10
19731.010092585158
 20
8539.6884659999996
 30
0.0
 11
19731.010092585158
 21
9469.1900500000029
 31
0.0
  0
LINE
  5
1253B
  8
SUNPOU
  6
CONTINUOUS
 62
     4
 10
19688.010092585158
 20
8669.6883999999955
 30
0.0
 11
19688.010092585158
 21
9469.1900500000029
 31
0.0
  0
LINE
  5
1253C
  8
SUNPOU
  6
CONTINUOUS
 62
     4
 10
19731.010092585158
 20
9389.1900500000029
 30
0.0
 11
19971.010092585158
 21
9389.1900500000029
 31
0.0
  0
LINE
  5
1253D
  8
SUNPOU
  6
CONTINUOUS
 62
     4
 10
19691.010092585158
 20
9389.1900500000029
 30
0.0
 11
19451.010092585158
 21
9389.1900500000029
 31
0.0
  0
LINE
  5
1253E
  8
SUNPOU
  6
CONTINUOUS
 62
     4
 10
19731.010092585158
 20
9389.1900500000029
 30
0.0
 11
19691.010092585158
 21
9389.1900500000029
 31
0.0
  0
LINE
  5
1253F
  8
SUNPOU
  6
CONTINUOUS
 62
     4
 10
22734.010092585158
 20
8539.6884659999996
 30
0.0
 11
22734.010092585158
 21
9469.1900500000029
 31
0.0
  0
LINE
  5
12540
  8
SUNPOU
  6
CONTINUOUS
 62
     4
 10
19731.010092585158
 20
8539.6884659999996
 30
0.0
 11
19731.010092585158
 21
9469.1900500000029
 31
0.0
  0
LINE
  5
12541
  8
SUNPOU
  6
CONTINUOUS
 62
     4
 10
22734.010092585158
 20
9389.1900500000029
 30
0.0
 11
19731.010092585158
 21
9389.1900500000029
 31
0.0
  0
LINE
  5
12542
  8
SUNPOU
  6
CONTINUOUS
 62
     4
 10
19643.50745358516
 20
6241.1883740000021
 30
0.0
 11
18443.50745358516
 21
6241.1883740000021
 31
0.0
  0
LINE
  5
12543
  8
SUNPOU
  6
CONTINUOUS
 62
     4
 10
19611.010092585158
 20
8590.1883999999973
 30
0.0
 11
18443.50745358516
 21
8590.1883999999973
 31
0.0
  0
LINE
  5
12544
  8
SUNPOU
  6
CONTINUOUS
 62
     4
 10
18523.50745358516
 20
6241.1883740000021
 30
0.0
 11
18523.50745358516
 21
8590.1883999999973
 31
0.0
  0
LINE
  5
12545
  8
SUNPOU
  6
CONTINUOUS
 62
     4
 10
19643.50745358516
 20
6241.1883740000021
 30
0.0
 11
18843.506793585169
 21
6241.1883740000021
 31
0.0
  0
LINE
  5
12546
  8
SUNPOU
  6
CONTINUOUS
 62
     4
 10
19736.00639758517
 20
8132.6883740000021
 30
0.0
 11
18843.506793585169
 21
8132.6883740000021
 31
0.0
  0
LINE
  5
12547
  8
SUNPOU
  6
CONTINUOUS
 62
     4
 10
18923.506793585158
 20
6241.1883740000021
 30
0.0
 11
18923.506793585158
 21
8132.6883740000021
 31
0.0
  0
LINE
  5
12548
  8
SUNPOU
  6
CONTINUOUS
 62
     4
 10
22737.010092585158
 20
6161.1883740000021
 30
0.0
 11
22737.010092585158
 21
5261.188374000003
 31
0.0
  0
LINE
  5
12549
  8
SUNPOU
  6
CONTINUOUS
 62
     4
 10
25449.010092585158
 20
6061.1885389999989
 30
0.0
 11
25449.010092585158
 21
5261.188374000003
 31
0.0
  0
LINE
  5
1254A
  8
SUNPOU
  6
CONTINUOUS
 62
     4
 10
22737.010092585158
 20
5341.188374000003
 30
0.0
 11
25449.010092585158
 21
5341.188374000003
 31
0.0
  0
LINE
  5
1254B
  8
SUNPOU
  6
CONTINUOUS
 62
     4
 10
19731.05004553268
 20
6161.1883740000021
 30
0.0
 11
19731.05004553268
 21
4461.1887040000574
 31
0.0
  0
LINE
  5
1254C
  8
SUNPOU
  6
CONTINUOUS
 62
     4
 10
25534.010092585158
 20
6061.1885389999989
 30
0.0
 11
25534.010092585158
 21
4461.1887040000574
 31
0.0
  0
LINE
  5
1254D
  8
SUNPOU
  6
CONTINUOUS
 62
     4
 10
19731.05004553268
 20
4541.1887040000556
 30
0.0
 11
25534.010092585158
 21
4541.1887040000556
 31
0.0
  0
LINE
  5
1254E
  8
SUNPOU
  6
CONTINUOUS
 62
     4
 10
19773.510092585158
 20
5798.5361160000011
 30
0.0
 11
19773.510092585158
 21
4861.1885389999998
 31
0.0
  0
LINE
  5
1254F
  8
SUNPOU
  6
CONTINUOUS
 62
     4
 10
19731.05004553268
 20
6161.1883740000021
 30
0.0
 11
19731.05004553268
 21
4861.1885389999998
 31
0.0
  0
LINE
  5
12550
  8
SUNPOU
  6
CONTINUOUS
 62
     4
 10
19773.510092585158
 20
4941.1885390000016
 30
0.0
 11
20013.510092585158
 21
4941.1885390000016
 31
0.0
  0
LINE
  5
12551
  8
SUNPOU
  6
CONTINUOUS
 62
     4
 10
19731.05004553268
 20
4941.1885390000016
 30
0.0
 11
19491.05004553268
 21
4941.1885390000016
 31
0.0
  0
LINE
  5
12552
  8
SUNPOU
  6
CONTINUOUS
 62
     4
 10
19773.510092585158
 20
4941.1885390000016
 30
0.0
 11
19731.05004553268
 21
4941.1885390000016
 31
0.0
  0
LINE
  5
12553
  8
SUNPOU
  6
CONTINUOUS
 62
     4
 10
22691.510092585158
 20
5798.5361160000011
 30
0.0
 11
22691.510092585158
 21
4861.1885389999998
 31
0.0
  0
LINE
  5
12554
  8
SUNPOU
  6
CONTINUOUS
 62
     4
 10
19773.510092585158
 20
5798.5361160000011
 30
0.0
 11
19773.510092585158
 21
4861.1885389999998
 31
0.0
  0
LINE
  5
12555
  8
SUNPOU
  6
CONTINUOUS
 62
     4
 10
22691.510092585158
 20
4941.1885390000016
 30
0.0
 11
19773.510092585158
 21
4941.1885390000016
 31
0.0
  0
LINE
  5
12556
  8
SUNPOU
  6
CONTINUOUS
 62
     4
 10
19867.510092585158
 20
6061.1885389999989
 30
0.0
 11
19867.510092585158
 21
5261.188374000003
 31
0.0
  0
LINE
  5
12557
  8
SUNPOU
  6
CONTINUOUS
 62
     4
 10
22597.510092585158
 20
6061.1885389999989
 30
0.0
 11
22597.510092585158
 21
5261.188374000003
 31
0.0
  0
LINE
  5
12558
  8
SUNPOU
  6
CONTINUOUS
 62
     4
 10
19867.510092585158
 20
5341.188374000003
 30
0.0
 11
22597.510092585158
 21
5341.188374000003
 31
0.0
  0
LINE
  5
12559
  8
SUNPOU
  6
CONTINUOUS
 62
     4
 10
25491.510092585158
 20
5798.5361160000011
 30
0.0
 11
25491.510092585158
 21
4861.1885389999998
 31
0.0
  0
LINE
  5
1255A
  8
SUNPOU
  6
CONTINUOUS
 62
     4
 10
25534.010092585158
 20
6061.1885389999989
 30
0.0
 11
25534.010092585158
 21
4861.1885389999998
 31
0.0
  0
LINE
  5
1255B
  8
SUNPOU
  6
CONTINUOUS
 62
     4
 10
25491.510092585158
 20
4941.1885390000016
 30
0.0
 11
25251.510092585158
 21
4941.1885390000016
 31
0.0
  0
LINE
  5
1255C
  8
SUNPOU
  6
CONTINUOUS
 62
     4
 10
25534.010092585158
 20
4941.1885390000016
 30
0.0
 11
25774.010092585158
 21
4941.1885390000016
 31
0.0
  0
LINE
  5
1255D
  8
SUNPOU
  6
CONTINUOUS
 62
     4
 10
25491.510092585158
 20
4941.1885390000016
 30
0.0
 11
25534.010092585158
 21
4941.1885390000016
 31
0.0
  0
LINE
  5
1255E
  8
SUNPOU
  6
CONTINUOUS
 62
     4
 10
22691.510092585158
 20
5798.5361160000011
 30
0.0
 11
22691.510092585158
 21
4861.1885389999998
 31
0.0
  0
LINE
  5
1255F
  8
SUNPOU
  6
CONTINUOUS
 62
     4
 10
25491.510092585158
 20
5798.5361160000011
 30
0.0
 11
25491.510092585158
 21
4861.1885389999998
 31
0.0
  0
LINE
  5
12560
  8
SUNPOU
  6
CONTINUOUS
 62
     4
 10
22691.510092585158
 20
4941.1885390000016
 30
0.0
 11
25491.510092585158
 21
4941.1885390000016
 31
0.0
  0
LINE
  5
12561
  8
SUNPOU
  6
CONTINUOUS
 62
     4
 10
22734.010092585158
 20
8539.6884659999996
 30
0.0
 11
22734.010092585158
 21
9469.1900500000029
 31
0.0
  0
LINE
  5
12562
  8
SUNPOU
  6
CONTINUOUS
 62
     4
 10
25534.010092585158
 20
8669.6883999999955
 30
0.0
 11
25534.010092585158
 21
9469.1900500000029
 31
0.0
  0
LINE
  5
12563
  8
SUNPOU
  6
CONTINUOUS
 62
     4
 10
22734.010092585158
 20
9389.1900500000029
 30
0.0
 11
25534.010092585158
 21
9389.1900500000029
 31
0.0
  0
LINE
  5
12564
  8
SUNPOU
  6
CONTINUOUS
 62
     4
 10
25614.010092585158
 20
6241.1883740000021
 30
0.0
 11
26823.83249087954
 21
6241.1883740000012
 31
0.0
  0
LINE
  5
12565
  8
SUNPOU
  6
CONTINUOUS
 62
     4
 10
25654.010092585158
 20
8261.1883740000048
 30
0.0
 11
26823.832490879551
 21
8261.1883740000048
 31
0.0
  0
LINE
  5
12566
  8
SUNPOU
  6
CONTINUOUS
 62
     4
 10
26743.832490879529
 20
6241.1883740000012
 30
0.0
 11
26743.832490879551
 21
8261.1883740000048
 31
0.0
  0
LINE
  5
12567
  8
0-6
  6
CONTINUOUS
 62
     6
 10
7381.6682107906163
 20
16544.76595363297
 30
0.0
 11
7442.8653274936096
 21
16694.98542100003
 31
0.0
  0
LINE
  5
12568
  8
0-6
  6
CONTINUOUS
 62
     6
 10
7442.8653274936096
 20
16694.98542100003
 30
0.0
 11
7336.2548230713264
 21
16572.732799960791
 31
0.0
  0
LINE
  5
12569
  8
0-6
  6
CONTINUOUS
 62
     6
 10
7336.2548230713264
 20
16572.732799960791
 30
0.0
 11
7381.6682107906163
 21
16544.76595363297
 31
0.0
  0
LINE
  5
1256A
  8
0-6
  6
CONTINUOUS
 62
     6
 10
7197.6094401649052
 20
15064.115488956189
 30
0.0
 11
7272.3291852355396
 21
15208.08748333491
 31
0.0
  0
LINE
  5
1256B
  8
0-6
  6
CONTINUOUS
 62
     6
 10
7272.3291852355396
 20
15208.08748333491
 30
0.0
 11
7154.9531422518812
 21
15096.13049365744
 31
0.0
  0
LINE
  5
1256C
  8
0-6
  6
CONTINUOUS
 62
     6
 10
7154.9531422518812
 20
15096.13049365744
 30
0.0
 11
7197.6094401649052
 21
15064.115488956189
 31
0.0
  0
LINE
  5
1256D
  8
0-6
  6
CONTINUOUS
 62
     6
 10
7197.6094401649052
 20
18020.51386162129
 30
0.0
 11
7272.3291852355396
 21
18164.485856000021
 31
0.0
  0
LINE
  5
1256E
  8
0-6
  6
CONTINUOUS
 62
     6
 10
7272.3291852355396
 20
18164.485856000021
 30
0.0
 11
7154.9531422518812
 21
18052.528866322551
 31
0.0
  0
LINE
  5
1256F
  8
0-6
  6
CONTINUOUS
 62
     6
 10
7154.9531422518812
 20
18052.528866322551
 30
0.0
 11
7197.6094401649052
 21
18020.51386162129
 31
0.0
  0
LINE
  5
12570
  8
0-6
  6
CONTINUOUS
 62
     6
 10
8612.4462500850095
 20
15532.84385411603
 30
0.0
 11
8734.6999755500183
 21
15639.450617873001
 31
0.0
  0
LINE
  5
12571
  8
0-6
  6
CONTINUOUS
 62
     6
 10
8734.6999755500183
 20
15639.450617873001
 30
0.0
 11
8584.4776647585786
 21
15578.25617086495
 31
0.0
  0
LINE
  5
12572
  8
0-6
  6
CONTINUOUS
 62
     6
 10
8584.4776647585786
 20
15578.25617086495
 30
0.0
 11
8612.4462500850095
 21
15532.84385411603
 31
0.0
  0
LINE
  5
12573
  8
0-6
  6
CONTINUOUS
 62
     6
 10
12174.65170781093
 20
14493.55966315482
 30
0.0
 11
12220.94199947659
 21
14649.02086206411
 31
0.0
  0
LINE
  5
12574
  8
0-6
  6
CONTINUOUS
 62
     6
 10
12220.94199947659
 20
14649.02086206411
 30
0.0
 11
12126.73261347986
 21
14516.97505715437
 31
0.0
  0
LINE
  5
12575
  8
0-6
  6
CONTINUOUS
 62
     6
 10
12126.73261347986
 20
14516.97505715437
 30
0.0
 11
12174.65170781093
 21
14493.55966315482
 31
0.0
  0
TEXT
  5
12576
  8
0
  6
CONTINUOUS
 62
     7
 10
26663.832490879529
 20
6588.1883740000058
 30
0.0
 40
160.0
  1
有効高サ2020
 50
90.0
  0
TEXT
  5
12577
  8
0
  6
CONTINUOUS
 62
     7
 10
23867.343425918501
 20
9469.1900500000029
 30
0.0
 40
160.0
  1
2800
  0
TEXT
  5
12578
  8
0
  6
CONTINUOUS
 62
     7
 10
23824.843425918501
 20
5021.1885389999998
 30
0.0
 40
160.0
  1
2800
  0
TEXT
  5
12579
  8
0
  6
CONTINUOUS
 62
     7
 10
25654.010752585149
 20
5021.1883080000007
 30
0.0
 40
160.0
  1
42.5
  0
TEXT
  5
1257A
  8
0
  6
CONTINUOUS
 62
     7
 10
20472.510092585158
 20
5421.188374000003
 30
0.0
 40
160.0
  1
有効開口巾2730
  0
TEXT
  5
1257B
  8
0
  6
CONTINUOUS
 62
     7
 10
20965.843425918501
 20
5021.1885389999998
 30
0.0
 40
160.0
  1
2918
  0
TEXT
  5
1257C
  8
0
  6
CONTINUOUS
 62
     7
 10
19151.187061585169
 20
5028.7357170000014
 30
0.0
 40
160.0
  1
42.5
  0
TEXT
  5
1257D
  8
0
  6
CONTINUOUS
 62
     7
 10
22352.530069058921
 20
4621.1887040000584
 30
0.0
 40
160.0
  1
5803
  0
TEXT
  5
1257E
  8
0
  6
CONTINUOUS
 62
     7
 10
23346.343425918501
 20
5421.188374000003
 30
0.0
 40
160.0
  1
有効開口巾2712
  0
TEXT
  5
1257F
  8
0
  6
CONTINUOUS
 62
     7
 10
18843.506793585169
 20
6264.2717073333397
 30
0.0
 40
160.0
  1
有効開口高サ1891.5
 50
90.0
  0
TEXT
  5
12580
  8
0
  6
CONTINUOUS
 62
     7
 10
18443.50745358516
 20
6610.3550536666689
 30
0.0
 40
160.0
  1
2349（2589）
 50
90.0
  0
TEXT
  5
12581
  8
0
  6
CONTINUOUS
 62
     7
 10
20965.843425918501
 20
9469.1900500000029
 30
0.0
 40
160.0
  1
3003
  0
TEXT
  5
12582
  8
0
  6
CONTINUOUS
 62
     7
 10
19361.202106585159
 20
9469.1893240000027
 30
0.0
 40
160.0
  1
43
  0
TEXT
  5
12583
  8
0
  6
CONTINUOUS
 62
     7
 10
25711.475912585182
 20
9469.1893240000027
 30
0.0
 40
160.0
  1
43
  0
TEXT
  5
12584
  8
0
  6
CONTINUOUS
 62
     7
 10
22339.17675925183
 20
9869.1329740000037
 30
0.0
 40
160.0
  1
5889
  0
TEXT
  5
12585
  8
0
  6
CONTINUOUS
 62
     7
 10
9999.9835704709458
 20
5021.1885389999998
 30
0.0
 40
160.0
  1
2567.5
  0
TEXT
  5
12586
  8
0
  6
CONTINUOUS
 62
     7
 10
7432.483570470944
 20
5021.1885389999998
 30
0.0
 40
160.0
  1
2567.5
  0
TEXT
  5
12587
  8
0
  6
CONTINUOUS
 62
     7
 10
5924.2439564709448
 20
5022.1790570000003
 30
0.0
 40
160.0
  1
42.5
  0
TEXT
  5
12588
  8
0
  6
CONTINUOUS
 62
     7
 10
11846.23522047094
 20
5021.1883080000007
 30
0.0
 40
160.0
  1
42.5
  0
TEXT
  5
12589
  8
0
  6
CONTINUOUS
 62
     7
 10
8836.2335704709421
 20
4621.1887039999983
 30
0.0
 40
160.0
  1
5220
  0
TEXT
  5
1258A
  8
0
  6
CONTINUOUS
 62
     7
 10
5336.2331744709472
 20
6326.9383740000048
 30
0.0
 40
160.0
  1
2155.5（2395.5）
 50
90.0
  0
TEXT
  5
1258B
  8
0
  6
CONTINUOUS
 62
     7
 10
12736.23396647094
 20
6610.35504066667
 30
0.0
 40
160.0
  1
2349（2589）
 50
90.0
  0
TEXT
  5
1258C
  8
0
  6
CONTINUOUS
 62
     7
 10
5871.8917553358378
 20
9469.1900500000029
 30
0.0
 40
160.0
  1
180
  0
TEXT
  5
1258D
  8
0
  6
CONTINUOUS
 62
     7
 10
8836.2335704709421
 20
9469.1900500000029
 30
0.0
 40
160.0
  1
5220
  0
TEXT
  5
1258E
  8
0
  6
CONTINUOUS
 62
     7
 10
11942.90023713761
 20
9469.1900500000029
 30
0.0
 40
160.0
  1
150
  0
TEXT
  5
1258F
  8
0
  6
CONTINUOUS
 62
     7
 10
8821.233570470944
 20
9869.1883999999955
 30
0.0
 40
160.0
  1
5550
  0
TEXT
  5
12595
  8
0
  6
CONTINUOUS
 62
     7
 10
26650.355577953771
 20
15066.73625200001
 30
0.0
 40
160.0
  1
2567.5
 50
90.0
  0
TEXT
  5
12596
  8
0
  6
CONTINUOUS
 62
     7
 10
26650.355577953771
 20
17634.23625200001
 30
0.0
 40
160.0
  1
2567.5
 50
90.0
  0
TEXT
  5
12597
  8
0
  6
CONTINUOUS
 62
     7
 10
25653.43388158513
 20
20240.485459999989
 30
0.0
 40
160.0
  1
42.5
  0
TEXT
  5
12598
  8
0
  6
CONTINUOUS
 62
     7
 10
24975.33791458514
 20
20259.829315999999
 30
0.0
 40
160.0
  1
42.5
  0
TEXT
  5
12599
  8
0
  6
CONTINUOUS
 62
     7
 10
20986.84528691848
 20
20640.487175999991
 30
0.0
 40
160.0
  1
2918
  0
TEXT
  5
1259A
  8
0
  6
CONTINUOUS
 62
     7
 10
23845.84528691848
 20
20640.487175999991
 30
0.0
 40
160.0
  1
2800
  0
TEXT
  5
1259E
  8
0
  6
CONTINUOUS
 62
     7
 10
19257.33791458515
 20
20259.829315999999
 30
0.0
 40
160.0
  1
42.5
  0
TEXT
  5
1259F
  8
0
  6
CONTINUOUS
 62
     7
 10
19959.608018460702
 20
20250.155768458
 30
0.0
 40
160.0
  1
758
  0
TEXT
  5
125A0
  8
0
  6
CONTINUOUS
 62
     7
 10
20730.187944965881
 20
20247.050029501839
 30
0.0
 40
160.0
  1
701
  0
TEXT
  5
125A1
  8
0
  6
CONTINUOUS
 62
     7
 10
21430.678620251801
 20
20240.487175999991
 30
0.0
 40
160.0
  1
701
  0
TEXT
  5
125A2
  8
0
  6
CONTINUOUS
 62
     7
 10
22120.178620251801
 20
20240.487175999991
 30
0.0
 40
160.0
  1
758
  0
TEXT
  5
125A3
  8
0
  6
CONTINUOUS
 62
     7
 10
22853.43388158513
 20
20240.487175999991
 30
0.0
 40
160.0
  1
42.5
  0
TEXT
  5
125B0
  8
0
  6
CONTINUOUS
 62
     7
 10
8646.9416304765855
 20
12780.485459999991
 30
0.0
 40
160.0
  1
ケラバ外寸5889
  0
TEXT
  5
125B1
  8
0
  6
CONTINUOUS
 62
     7
 10
5980.794486476595
 20
20240.485459999989
 30
0.0
 40
160.0
  1
85.5
  0
TEXT
  5
125B2
  8
0
  6
CONTINUOUS
 62
     7
 10
7748.2749638099158
 20
20240.487175999991
 30
0.0
 40
160.0
  1
2918
  0
TEXT
  5
125B3
  8
0
  6
CONTINUOUS
 62
     7
 10
10607.274963809919
 20
20240.487175999991
 30
0.0
 40
160.0
  1
2800
  0
TEXT
  5
125B4
  8
0
  6
CONTINUOUS
 62
     7
 10
12420.28941847659
 20
20240.485459999989
 30
0.0
 40
160.0
  1
85.5
  0
TEXT
  5
125B5
  8
0
  6
CONTINUOUS
 62
     7
 10
5946.4415964765922
 20
19685.248313999989
 30
0.0
 40
160.0
  1
22
 50
90.0
  0
TEXT
  5
125B6
  8
0
  6
CONTINUOUS
 62
     7
 10
5546.4415304765917
 20
19618.967774389239
 30
0.0
 40
160.0
  1
222.5
 50
90.0
  0
TEXT
  5
125B7
  8
0
  6
CONTINUOUS
 62
     7
 10
5546.4415304765889
 20
18321.509757731281
 30
0.0
 40
160.0
  1
1108.5
 50
90.0
  0
TEXT
  5
125B8
  8
0
  6
CONTINUOUS
 62
     7
 10
5546.4415304765771
 20
13326.496623590579
 30
0.0
 40
160.0
  1
192.5
 50
90.0
  0
TEXT
  5
125B9
  8
0
  6
CONTINUOUS
 62
     7
 10
5546.4418544765922
 20
17213.319585333331
 30
0.0
 40
160.0
  1
1459
 50
90.0
  0
TEXT
  5
125BA
  8
0
  6
CONTINUOUS
 62
     7
 10
5546.4418544765904
 20
15754.31958533334
 30
0.0
 40
160.0
  1
1459
 50
90.0
  0
TEXT
  5
125BB
  8
0
  6
CONTINUOUS
 62
     7
 10
5546.441854476594
 20
14403.90291866667
 30
0.0
 40
160.0
  1
1108.5
 50
90.0
  0
ARC
  5
125BC
  8
0
  6
BYBLOCK
 62
     0
 10
5626.441854476594
 20
15291.48625200001
 30
0.0
 40
15.0
 50
270.0
 51
90.0
  0
ARC
  5
125BD
  8
0
  6
BYBLOCK
 62
     0
 10
5626.441854476594
 20
15291.48625200001
 30
0.0
 40
15.0
 50
90.0
 51
270.0
  0
ARC
  5
125BE
  8
0
  6
BYBLOCK
 62
     0
 10
5626.441854476594
 20
14182.986252000001
 30
0.0
 40
15.0
 50
90.0
 51
270.0
  0
ARC
  5
125BF
  8
0
  6
BYBLOCK
 62
     0
 10
5626.441854476594
 20
14182.986252000001
 30
0.0
 40
15.0
 50
270.0
 51
90.0
  0
ARC
  5
125C0
  8
0
  6
BYBLOCK
 62
     0
 10
5626.441854476594
 20
16750.486251999999
 30
0.0
 40
15.0
 50
270.0
 51
90.0
  0
ARC
  5
125C1
  8
0
  6
BYBLOCK
 62
     0
 10
5626.441854476594
 20
16750.486251999999
 30
0.0
 40
15.0
 50
90.0
 51
270.0
  0
ARC
  5
125C2
  8
0
  6
BYBLOCK
 62
     0
 10
5626.441854476594
 20
15291.48625200001
 30
0.0
 40
15.0
 50
90.0
 51
270.0
  0
ARC
  5
125C3
  8
0
  6
BYBLOCK
 62
     0
 10
5626.441854476594
 20
15291.48625200001
 30
0.0
 40
15.0
 50
270.0
 51
90.0
  0
ARC
  5
125C4
  8
0
  6
BYBLOCK
 62
     0
 10
5626.441854476594
 20
18209.48625200001
 30
0.0
 40
15.0
 50
270.0
 51
90.0
  0
ARC
  5
125C5
  8
0
  6
BYBLOCK
 62
     0
 10
5626.441854476594
 20
18209.48625200001
 30
0.0
 40
15.0
 50
90.0
 51
270.0
  0
ARC
  5
125C6
  8
0
  6
BYBLOCK
 62
     0
 10
5626.441854476594
 20
16750.486251999999
 30
0.0
 40
15.0
 50
90.0
 51
270.0
  0
ARC
  5
125C7
  8
0
  6
BYBLOCK
 62
     0
 10
5626.441854476594
 20
16750.486251999999
 30
0.0
 40
15.0
 50
270.0
 51
90.0
  0
ARC
  5
125C8
  8
0
  6
BYBLOCK
 62
     0
 10
5626.4415304765944
 20
14182.98552600002
 30
0.0
 40
15.0
 50
270.0
 51
90.0
  0
ARC
  5
125C9
  8
0
  6
BYBLOCK
 62
     0
 10
5626.4415304765944
 20
14182.98552600002
 30
0.0
 40
15.0
 50
90.0
 51
270.0
  0
ARC
  5
125CA
  8
0
  6
BYBLOCK
 62
     0
 10
5626.4415304765944
 20
13990.486252000001
 30
0.0
 40
15.0
 50
90.0
 51
270.0
  0
ARC
  5
125CB
  8
0
  6
BYBLOCK
 62
     0
 10
5626.4415304765944
 20
13990.486252000001
 30
0.0
 40
15.0
 50
270.0
 51
90.0
  0
ARC
  5
125CC
  8
0
  6
BYBLOCK
 62
     0
 10
5626.4415304765944
 20
19317.986251999992
 30
0.0
 40
15.0
 50
270.0
 51
90.0
  0
ARC
  5
125CD
  8
0
  6
BYBLOCK
 62
     0
 10
5626.4415304765944
 20
19317.986251999992
 30
0.0
 40
15.0
 50
90.0
 51
270.0
  0
ARC
  5
125CE
  8
0
  6
BYBLOCK
 62
     0
 10
5626.4415304765917
 20
18209.48625200001
 30
0.0
 40
15.0
 50
90.0
 51
270.0
  0
ARC
  5
125CF
  8
0
  6
BYBLOCK
 62
     0
 10
5626.4415304765917
 20
18209.48625200001
 30
0.0
 40
15.0
 50
270.0
 51
90.0
  0
ARC
  5
125D0
  8
0
  6
BYBLOCK
 62
     0
 10
5626.4415304765917
 20
19317.986251999992
 30
0.0
 40
15.0
 50
90.0
 51
270.0
  0
ARC
  5
125D1
  8
0
  6
BYBLOCK
 62
     0
 10
5626.4415304765917
 20
19317.986251999992
 30
0.0
 40
15.0
 50
270.0
 51
90.0
  0
ARC
  5
125D2
  8
0
  6
BYBLOCK
 62
     0
 10
5626.4415304765917
 20
19540.486120000001
 30
0.0
 40
15.0
 50
270.0
 51
90.0
  0
ARC
  5
125D3
  8
0
  6
BYBLOCK
 62
     0
 10
5626.4415304765917
 20
19540.486120000001
 30
0.0
 40
15.0
 50
90.0
 51
270.0
  0
ARC
  5
125D4
  8
0
  6
BYBLOCK
 62
     0
 10
6026.4408714765914
 20
19500.485987999989
 30
0.0
 40
15.0
 50
270.0
 51
90.0
  0
ARC
  5
125D5
  8
0
  6
BYBLOCK
 62
     0
 10
6026.4408714765914
 20
19500.485987999989
 30
0.0
 40
15.0
 50
90.0
 51
270.0
  0
ARC
  5
125D6
  8
0
  6
BYBLOCK
 62
     0
 10
6026.4408714765914
 20
19540.486120000001
 30
0.0
 40
15.0
 50
90.0
 51
270.0
  0
ARC
  5
125D7
  8
0
  6
BYBLOCK
 62
     0
 10
6026.4408714765914
 20
19540.486120000001
 30
0.0
 40
15.0
 50
270.0
 51
90.0
  0
ARC
  5
125D8
  8
0
  6
BYBLOCK
 62
     0
 10
12273.94163047658
 20
20160.487175999991
 30
0.0
 40
15.0
 50
180.0
 51
0.0
  0
ARC
  5
125D9
  8
0
  6
BYBLOCK
 62
     0
 10
12273.94163047658
 20
20160.487175999991
 30
0.0
 40
15.0
 50
0.0
 51
180.0
  0
ARC
  5
125DA
  8
0
  6
BYBLOCK
 62
     0
 10
12359.44163047658
 20
20160.487175999991
 30
0.0
 40
15.0
 50
0.0
 51
180.0
  0
ARC
  5
125DB
  8
0
  6
BYBLOCK
 62
     0
 10
12359.44163047658
 20
20160.487175999991
 30
0.0
 40
15.0
 50
180.0
 51
0.0
  0
ARC
  5
125DC
  8
0
  6
BYBLOCK
 62
     0
 10
9473.9416304765837
 20
20160.487175999991
 30
0.0
 40
15.0
 50
0.0
 51
180.0
  0
ARC
  5
125DD
  8
0
  6
BYBLOCK
 62
     0
 10
9473.9416304765837
 20
20160.487175999991
 30
0.0
 40
15.0
 50
180.0
 51
0.0
  0
ARC
  5
125DE
  8
0
  6
BYBLOCK
 62
     0
 10
12273.94163047658
 20
20160.487175999991
 30
0.0
 40
15.0
 50
180.0
 51
0.0
  0
ARC
  5
125DF
  8
0
  6
BYBLOCK
 62
     0
 10
12273.94163047658
 20
20160.487175999991
 30
0.0
 40
15.0
 50
0.0
 51
180.0
  0
ARC
  5
125E0
  8
0
  6
BYBLOCK
 62
     0
 10
6555.9416304765828
 20
20160.487175999991
 30
0.0
 40
15.0
 50
0.0
 51
180.0
  0
ARC
  5
125E1
  8
0
  6
BYBLOCK
 62
     0
 10
6555.9416304765828
 20
20160.487175999991
 30
0.0
 40
15.0
 50
180.0
 51
0.0
  0
ARC
  5
125E2
  8
0
  6
BYBLOCK
 62
     0
 10
9473.9416304765837
 20
20160.487175999991
 30
0.0
 40
15.0
 50
180.0
 51
0.0
  0
ARC
  5
125E3
  8
0
  6
BYBLOCK
 62
     0
 10
9473.9416304765837
 20
20160.487175999991
 30
0.0
 40
15.0
 50
0.0
 51
180.0
  0
ARC
  5
125E4
  8
0
  6
BYBLOCK
 62
     0
 10
6555.9416304765828
 20
20160.487175999991
 30
0.0
 40
15.0
 50
0.0
 51
180.0
  0
ARC
  5
125E5
  8
0
  6
BYBLOCK
 62
     0
 10
6555.9416304765828
 20
20160.487175999991
 30
0.0
 40
15.0
 50
180.0
 51
0.0
  0
ARC
  5
125E6
  8
0
  6
BYBLOCK
 62
     0
 10
6470.4416304765837
 20
20160.487175999991
 30
0.0
 40
15.0
 50
180.0
 51
0.0
  0
ARC
  5
125E7
  8
0
  6
BYBLOCK
 62
     0
 10
6470.4416304765837
 20
20160.487175999991
 30
0.0
 40
15.0
 50
0.0
 51
180.0
  0
ARC
  5
125E8
  8
0
  6
BYBLOCK
 62
     0
 10
6470.4416304765837
 20
12700.485459999991
 30
0.0
 40
15.0
 50
0.0
 51
180.0
  0
ARC
  5
125E9
  8
0
  6
BYBLOCK
 62
     0
 10
6470.4416304765837
 20
12700.485459999991
 30
0.0
 40
15.0
 50
180.0
 51
0.0
  0
ARC
  5
125EA
  8
0
  6
BYBLOCK
 62
     0
 10
12359.44163047658
 20
12700.485459999991
 30
0.0
 40
15.0
 50
180.0
 51
0.0
  0
ARC
  5
125EB
  8
0
  6
BYBLOCK
 62
     0
 10
12359.44163047658
 20
12700.485459999991
 30
0.0
 40
15.0
 50
0.0
 51
180.0
  0
ARC
  5
1261C
  8
0
  6
BYBLOCK
 62
     0
 10
22712.511953585152
 20
20160.487175999991
 30
0.0
 40
15.0
 50
180.0
 51
0.0
  0
ARC
  5
1261D
  8
0
  6
BYBLOCK
 62
     0
 10
22712.511953585152
 20
20160.487175999991
 30
0.0
 40
15.0
 50
0.0
 51
180.0
  0
ARC
  5
1261E
  8
0
  6
BYBLOCK
 62
     0
 10
22755.011953585141
 20
20160.487175999991
 30
0.0
 40
15.0
 50
0.0
 51
180.0
  0
ARC
  5
1261F
  8
0
  6
BYBLOCK
 62
     0
 10
22755.011953585141
 20
20160.487175999991
 30
0.0
 40
15.0
 50
180.0
 51
0.0
  0
ARC
  5
12620
  8
0
  6
BYBLOCK
 62
     0
 10
21954.511953585141
 20
20160.487175999991
 30
0.0
 40
15.0
 50
0.0
 51
180.0
  0
ARC
  5
12621
  8
0
  6
BYBLOCK
 62
     0
 10
21954.511953585141
 20
20160.487175999991
 30
0.0
 40
15.0
 50
180.0
 51
0.0
  0
ARC
  5
12622
  8
0
  6
BYBLOCK
 62
     0
 10
22712.511953585152
 20
20160.487175999991
 30
0.0
 40
15.0
 50
180.0
 51
0.0
  0
ARC
  5
12623
  8
0
  6
BYBLOCK
 62
     0
 10
22712.511953585152
 20
20160.487175999991
 30
0.0
 40
15.0
 50
0.0
 51
180.0
  0
ARC
  5
12624
  8
0
  6
BYBLOCK
 62
     0
 10
21253.511953585141
 20
20160.487175999991
 30
0.0
 40
15.0
 50
0.0
 51
180.0
  0
ARC
  5
12625
  8
0
  6
BYBLOCK
 62
     0
 10
21253.511953585141
 20
20160.487175999991
 30
0.0
 40
15.0
 50
180.0
 51
0.0
  0
ARC
  5
12626
  8
0
  6
BYBLOCK
 62
     0
 10
21954.511953585141
 20
20160.487175999991
 30
0.0
 40
15.0
 50
180.0
 51
0.0
  0
ARC
  5
12627
  8
0
  6
BYBLOCK
 62
     0
 10
21954.511953585141
 20
20160.487175999991
 30
0.0
 40
15.0
 50
0.0
 51
180.0
  0
ARC
  5
12628
  8
0
  6
BYBLOCK
 62
     0
 10
20552.51195358513
 20
20160.487175999991
 30
0.0
 40
15.0
 50
0.0
 51
180.0
  0
ARC
  5
12629
  8
0
  6
BYBLOCK
 62
     0
 10
20552.51195358513
 20
20160.487175999991
 30
0.0
 40
15.0
 50
180.0
 51
0.0
  0
ARC
  5
1262A
  8
0
  6
BYBLOCK
 62
     0
 10
21253.511953585141
 20
20160.487175999991
 30
0.0
 40
15.0
 50
180.0
 51
0.0
  0
ARC
  5
1262B
  8
0
  6
BYBLOCK
 62
     0
 10
21253.511953585141
 20
20160.487175999991
 30
0.0
 40
15.0
 50
0.0
 51
180.0
  0
ARC
  5
1262C
  8
0
  6
BYBLOCK
 62
     0
 10
19794.511953585141
 20
20160.487175999991
 30
0.0
 40
15.0
 50
0.0
 51
180.0
  0
ARC
  5
1262D
  8
0
  6
BYBLOCK
 62
     0
 10
19794.511953585141
 20
20160.487175999991
 30
0.0
 40
15.0
 50
180.0
 51
0.0
  0
ARC
  5
1262E
  8
0
  6
BYBLOCK
 62
     0
 10
20552.51195358513
 20
20160.487175999991
 30
0.0
 40
15.0
 50
180.0
 51
0.0
  0
ARC
  5
1262F
  8
0
  6
BYBLOCK
 62
     0
 10
20552.51195358513
 20
20160.487175999991
 30
0.0
 40
15.0
 50
0.0
 51
180.0
  0
ARC
  5
12630
  8
0
  6
BYBLOCK
 62
     0
 10
19794.511953585141
 20
20160.487175999991
 30
0.0
 40
15.0
 50
0.0
 51
180.0
  0
ARC
  5
12631
  8
0
  6
BYBLOCK
 62
     0
 10
19794.511953585141
 20
20160.487175999991
 30
0.0
 40
15.0
 50
180.0
 51
0.0
  0
ARC
  5
12632
  8
0
  6
BYBLOCK
 62
     0
 10
19752.011953585141
 20
20160.487175999991
 30
0.0
 40
15.0
 50
180.0
 51
0.0
  0
ARC
  5
12633
  8
0
  6
BYBLOCK
 62
     0
 10
19752.011953585141
 20
20160.487175999991
 30
0.0
 40
15.0
 50
0.0
 51
180.0
  0
ARC
  5
12640
  8
0
  6
BYBLOCK
 62
     0
 10
22712.511953585152
 20
20560.487175999991
 30
0.0
 40
15.0
 50
0.0
 51
180.0
  0
ARC
  5
12641
  8
0
  6
BYBLOCK
 62
     0
 10
22712.511953585152
 20
20560.487175999991
 30
0.0
 40
15.0
 50
180.0
 51
0.0
  0
ARC
  5
12642
  8
0
  6
BYBLOCK
 62
     0
 10
25512.511953585141
 20
20560.487175999991
 30
0.0
 40
15.0
 50
180.0
 51
0.0
  0
ARC
  5
12643
  8
0
  6
BYBLOCK
 62
     0
 10
25512.511953585141
 20
20560.487175999991
 30
0.0
 40
15.0
 50
0.0
 51
180.0
  0
ARC
  5
12644
  8
0
  6
BYBLOCK
 62
     0
 10
19794.511953585141
 20
20560.487175999991
 30
0.0
 40
15.0
 50
0.0
 51
180.0
  0
ARC
  5
12645
  8
0
  6
BYBLOCK
 62
     0
 10
19794.511953585141
 20
20560.487175999991
 30
0.0
 40
15.0
 50
180.0
 51
0.0
  0
ARC
  5
12646
  8
0
  6
BYBLOCK
 62
     0
 10
22712.511953585152
 20
20560.487175999991
 30
0.0
 40
15.0
 50
180.0
 51
0.0
  0
ARC
  5
12647
  8
0
  6
BYBLOCK
 62
     0
 10
22712.511953585152
 20
20560.487175999991
 30
0.0
 40
15.0
 50
0.0
 51
180.0
  0
ARC
  5
12648
  8
0
  6
BYBLOCK
 62
     0
 10
25512.511953585141
 20
20160.487175999991
 30
0.0
 40
15.0
 50
0.0
 51
180.0
  0
ARC
  5
12649
  8
0
  6
BYBLOCK
 62
     0
 10
25512.511953585141
 20
20160.487175999991
 30
0.0
 40
15.0
 50
180.0
 51
0.0
  0
ARC
  5
1264A
  8
0
  6
BYBLOCK
 62
     0
 10
25470.009710585138
 20
20160.487175999991
 30
0.0
 40
15.0
 50
180.0
 51
0.0
  0
ARC
  5
1264B
  8
0
  6
BYBLOCK
 62
     0
 10
25470.009710585138
 20
20160.487175999991
 30
0.0
 40
15.0
 50
0.0
 51
180.0
  0
ARC
  5
1264C
  8
0
  6
BYBLOCK
 62
     0
 10
25512.511953585141
 20
20160.487175999991
 30
0.0
 40
15.0
 50
180.0
 51
0.0
  0
ARC
  5
1264D
  8
0
  6
BYBLOCK
 62
     0
 10
25512.511953585141
 20
20160.487175999991
 30
0.0
 40
15.0
 50
0.0
 51
180.0
  0
ARC
  5
1264E
  8
0
  6
BYBLOCK
 62
     0
 10
25555.010238585121
 20
20160.487175999991
 30
0.0
 40
15.0
 50
0.0
 51
180.0
  0
ARC
  5
1264F
  8
0
  6
BYBLOCK
 62
     0
 10
25555.010238585121
 20
20160.487175999991
 30
0.0
 40
15.0
 50
180.0
 51
0.0
  0
ARC
  5
12650
  8
0
  6
BYBLOCK
 62
     0
 10
26730.355577953771
 20
16750.486251999992
 30
0.0
 40
15.0
 50
90.0
 51
270.0
  0
ARC
  5
12651
  8
0
  6
BYBLOCK
 62
     0
 10
26730.355577953771
 20
16750.486251999992
 30
0.0
 40
15.0
 50
270.0
 51
90.0
  0
ARC
  5
12652
  8
0
  6
BYBLOCK
 62
     0
 10
26730.355577953771
 20
19317.986251999992
 30
0.0
 40
15.0
 50
270.0
 51
90.0
  0
ARC
  5
12653
  8
0
  6
BYBLOCK
 62
     0
 10
26730.355577953771
 20
19317.986251999992
 30
0.0
 40
15.0
 50
90.0
 51
270.0
  0
ARC
  5
12654
  8
0
  6
BYBLOCK
 62
     0
 10
26730.355577953771
 20
14182.986252000001
 30
0.0
 40
15.0
 50
90.0
 51
270.0
  0
ARC
  5
12655
  8
0
  6
BYBLOCK
 62
     0
 10
26730.355577953771
 20
14182.986252000001
 30
0.0
 40
15.0
 50
270.0
 51
90.0
  0
ARC
  5
12656
  8
0
  6
BYBLOCK
 62
     0
 10
26730.355577953771
 20
16750.486251999992
 30
0.0
 40
15.0
 50
270.0
 51
90.0
  0
ARC
  5
12657
  8
0
  6
BYBLOCK
 62
     0
 10
26730.355577953771
 20
16750.486251999992
 30
0.0
 40
15.0
 50
90.0
 51
270.0
  0
ARC
  5
1266C
  8
0
  6
BYBLOCK
 62
     0
 10
6326.233570470944
 20
9789.1883999999955
 30
0.0
 40
15.0
 50
0.0
 51
180.0
  0
ARC
  5
1266D
  8
0
  6
BYBLOCK
 62
     0
 10
6326.233570470944
 20
9789.1883999999955
 30
0.0
 40
15.0
 50
180.0
 51
0.0
  0
ARC
  5
1266E
  8
0
  6
BYBLOCK
 62
     0
 10
11876.233570470929
 20
9789.1883999999955
 30
0.0
 40
15.0
 50
180.0
 51
0.0
  0
ARC
  5
1266F
  8
0
  6
BYBLOCK
 62
     0
 10
11876.233570470929
 20
9789.1883999999955
 30
0.0
 40
15.0
 50
0.0
 51
180.0
  0
ARC
  5
12670
  8
0
  6
BYBLOCK
 62
     0
 10
11726.23357047094
 20
9389.1900500000029
 30
0.0
 40
15.0
 50
180.0
 51
0.0
  0
ARC
  5
12671
  8
0
  6
BYBLOCK
 62
     0
 10
11726.23357047094
 20
9389.1900500000029
 30
0.0
 40
15.0
 50
0.0
 51
180.0
  0
ARC
  5
12672
  8
0
  6
BYBLOCK
 62
     0
 10
11876.233570470929
 20
9389.1900500000029
 30
0.0
 40
15.0
 50
0.0
 51
180.0
  0
ARC
  5
12673
  8
0
  6
BYBLOCK
 62
     0
 10
11876.233570470929
 20
9389.1900500000029
 30
0.0
 40
15.0
 50
180.0
 51
0.0
  0
ARC
  5
12674
  8
0
  6
BYBLOCK
 62
     0
 10
6506.233570470944
 20
9389.1900500000029
 30
0.0
 40
15.0
 50
0.0
 51
180.0
  0
ARC
  5
12675
  8
0
  6
BYBLOCK
 62
     0
 10
6506.233570470944
 20
9389.1900500000029
 30
0.0
 40
15.0
 50
180.0
 51
0.0
  0
ARC
  5
12676
  8
0
  6
BYBLOCK
 62
     0
 10
11726.23357047094
 20
9389.1900500000029
 30
0.0
 40
15.0
 50
180.0
 51
0.0
  0
ARC
  5
12677
  8
0
  6
BYBLOCK
 62
     0
 10
11726.23357047094
 20
9389.1900500000029
 30
0.0
 40
15.0
 50
0.0
 51
180.0
  0
ARC
  5
12678
  8
0
  6
BYBLOCK
 62
     0
 10
6326.233570470944
 20
9389.1900500000029
 30
0.0
 40
15.0
 50
0.0
 51
180.0
  0
ARC
  5
12679
  8
0
  6
BYBLOCK
 62
     0
 10
6326.233570470944
 20
9389.1900500000029
 30
0.0
 40
15.0
 50
180.0
 51
0.0
  0
ARC
  5
1267A
  8
0
  6
BYBLOCK
 62
     0
 10
6506.233570470944
 20
9389.1900500000029
 30
0.0
 40
15.0
 50
180.0
 51
0.0
  0
ARC
  5
1267B
  8
0
  6
BYBLOCK
 62
     0
 10
6506.233570470944
 20
9389.1900500000029
 30
0.0
 40
15.0
 50
0.0
 51
180.0
  0
ARC
  5
1267C
  8
0
  6
BYBLOCK
 62
     0
 10
12816.23396647094
 20
6241.1883740000021
 30
0.0
 40
15.0
 50
90.0
 51
270.0
  0
ARC
  5
1267D
  8
0
  6
BYBLOCK
 62
     0
 10
12816.23396647094
 20
6241.1883740000021
 30
0.0
 40
15.0
 50
270.0
 51
90.0
  0
ARC
  5
1267E
  8
0
  6
BYBLOCK
 62
     0
 10
12816.23396647094
 20
8590.188374000003
 30
0.0
 40
15.0
 50
270.0
 51
90.0
  0
ARC
  5
1267F
  8
0
  6
BYBLOCK
 62
     0
 10
12816.23396647094
 20
8590.188374000003
 30
0.0
 40
15.0
 50
90.0
 51
270.0
  0
ARC
  5
12680
  8
0
  6
BYBLOCK
 62
     0
 10
5416.2331744709481
 20
6241.1883740000039
 30
0.0
 40
15.0
 50
90.0
 51
270.0
  0
ARC
  5
12681
  8
0
  6
BYBLOCK
 62
     0
 10
5416.2331744709481
 20
6241.1883740000039
 30
0.0
 40
15.0
 50
270.0
 51
90.0
  0
ARC
  5
12682
  8
0
  6
BYBLOCK
 62
     0
 10
5416.2331744709481
 20
8396.688374000003
 30
0.0
 40
15.0
 50
270.0
 51
90.0
  0
ARC
  5
12683
  8
0
  6
BYBLOCK
 62
     0
 10
5416.2331744709481
 20
8396.688374000003
 30
0.0
 40
15.0
 50
90.0
 51
270.0
  0
ARC
  5
12684
  8
0
  6
BYBLOCK
 62
     0
 10
6506.233570470944
 20
4541.1887039999983
 30
0.0
 40
15.0
 50
0.0
 51
180.0
  0
ARC
  5
12685
  8
0
  6
BYBLOCK
 62
     0
 10
6506.233570470944
 20
4541.1887039999983
 30
0.0
 40
15.0
 50
180.0
 51
0.0
  0
ARC
  5
12686
  8
0
  6
BYBLOCK
 62
     0
 10
11726.23357047094
 20
4541.1887039999983
 30
0.0
 40
15.0
 50
180.0
 51
0.0
  0
ARC
  5
12687
  8
0
  6
BYBLOCK
 62
     0
 10
11726.23357047094
 20
4541.1887039999983
 30
0.0
 40
15.0
 50
0.0
 51
180.0
  0
ARC
  5
12688
  8
0
  6
BYBLOCK
 62
     0
 10
11683.733570470929
 20
4941.1885390000016
 30
0.0
 40
15.0
 50
180.0
 51
0.0
  0
ARC
  5
12689
  8
0
  6
BYBLOCK
 62
     0
 10
11683.733570470929
 20
4941.1885390000016
 30
0.0
 40
15.0
 50
0.0
 51
180.0
  0
ARC
  5
1268A
  8
0
  6
BYBLOCK
 62
     0
 10
11726.23357047094
 20
4941.1885390000016
 30
0.0
 40
15.0
 50
0.0
 51
180.0
  0
ARC
  5
1268B
  8
0
  6
BYBLOCK
 62
     0
 10
11726.23357047094
 20
4941.1885390000016
 30
0.0
 40
15.0
 50
180.0
 51
0.0
  0
ARC
  5
1268C
  8
0
  6
BYBLOCK
 62
     0
 10
6548.7335704709431
 20
4941.1885390000016
 30
0.0
 40
15.0
 50
0.0
 51
180.0
  0
ARC
  5
1268D
  8
0
  6
BYBLOCK
 62
     0
 10
6548.7335704709431
 20
4941.1885390000016
 30
0.0
 40
15.0
 50
180.0
 51
0.0
  0
ARC
  5
1268E
  8
0
  6
BYBLOCK
 62
     0
 10
6506.233570470944
 20
4941.1885390000016
 30
0.0
 40
15.0
 50
180.0
 51
0.0
  0
ARC
  5
1268F
  8
0
  6
BYBLOCK
 62
     0
 10
6506.233570470944
 20
4941.1885390000016
 30
0.0
 40
15.0
 50
0.0
 51
180.0
  0
ARC
  5
12690
  8
0
  6
BYBLOCK
 62
     0
 10
9116.233570470944
 20
4941.1885390000016
 30
0.0
 40
15.0
 50
180.0
 51
0.0
  0
ARC
  5
12691
  8
0
  6
BYBLOCK
 62
     0
 10
9116.233570470944
 20
4941.1885390000016
 30
0.0
 40
15.0
 50
0.0
 51
180.0
  0
ARC
  5
12692
  8
0
  6
BYBLOCK
 62
     0
 10
6548.7335704709431
 20
4941.1885390000016
 30
0.0
 40
15.0
 50
0.0
 51
180.0
  0
ARC
  5
12693
  8
0
  6
BYBLOCK
 62
     0
 10
6548.7335704709431
 20
4941.1885390000016
 30
0.0
 40
15.0
 50
180.0
 51
0.0
  0
ARC
  5
12694
  8
0
  6
BYBLOCK
 62
     0
 10
9116.233570470944
 20
4941.1885390000016
 30
0.0
 40
15.0
 50
0.0
 51
180.0
  0
ARC
  5
12695
  8
0
  6
BYBLOCK
 62
     0
 10
9116.233570470944
 20
4941.1885390000016
 30
0.0
 40
15.0
 50
180.0
 51
0.0
  0
ARC
  5
12696
  8
0
  6
BYBLOCK
 62
     0
 10
11683.733570470929
 20
4941.1885390000016
 30
0.0
 40
15.0
 50
180.0
 51
0.0
  0
ARC
  5
12697
  8
0
  6
BYBLOCK
 62
     0
 10
11683.733570470929
 20
4941.1885390000016
 30
0.0
 40
15.0
 50
0.0
 51
180.0
  0
ARC
  5
12698
  8
0
  6
BYBLOCK
 62
     0
 10
19688.010092585158
 20
9789.1329740000037
 30
0.0
 40
15.0
 50
0.0
 51
180.0
  0
ARC
  5
12699
  8
0
  6
BYBLOCK
 62
     0
 10
19688.010092585158
 20
9789.1329740000037
 30
0.0
 40
15.0
 50
180.0
 51
0.0
  0
ARC
  5
1269A
  8
0
  6
BYBLOCK
 62
     0
 10
25577.010092585158
 20
9789.1329740000037
 30
0.0
 40
15.0
 50
180.0
 51
0.0
  0
ARC
  5
1269B
  8
0
  6
BYBLOCK
 62
     0
 10
25577.010092585158
 20
9789.1329740000037
 30
0.0
 40
15.0
 50
0.0
 51
180.0
  0
ARC
  5
1269C
  8
0
  6
BYBLOCK
 62
     0
 10
25534.010092585158
 20
9389.1900500000029
 30
0.0
 40
15.0
 50
180.0
 51
0.0
  0
ARC
  5
1269D
  8
0
  6
BYBLOCK
 62
     0
 10
25534.010092585158
 20
9389.1900500000029
 30
0.0
 40
15.0
 50
0.0
 51
180.0
  0
ARC
  5
1269E
  8
0
  6
BYBLOCK
 62
     0
 10
25577.010092585158
 20
9389.1900500000029
 30
0.0
 40
15.0
 50
0.0
 51
180.0
  0
ARC
  5
1269F
  8
0
  6
BYBLOCK
 62
     0
 10
25577.010092585158
 20
9389.1900500000029
 30
0.0
 40
15.0
 50
180.0
 51
0.0
  0
ARC
  5
126A0
  8
0
  6
BYBLOCK
 62
     0
 10
19731.010092585158
 20
9389.1900500000029
 30
0.0
 40
15.0
 50
0.0
 51
180.0
  0
ARC
  5
126A1
  8
0
  6
BYBLOCK
 62
     0
 10
19731.010092585158
 20
9389.1900500000029
 30
0.0
 40
15.0
 50
180.0
 51
0.0
  0
ARC
  5
126A2
  8
0
  6
BYBLOCK
 62
     0
 10
19688.010092585158
 20
9389.1900500000029
 30
0.0
 40
15.0
 50
180.0
 51
0.0
  0
ARC
  5
126A3
  8
0
  6
BYBLOCK
 62
     0
 10
19688.010092585158
 20
9389.1900500000029
 30
0.0
 40
15.0
 50
0.0
 51
180.0
  0
ARC
  5
126A4
  8
0
  6
BYBLOCK
 62
     0
 10
22734.010092585158
 20
9389.1900500000029
 30
0.0
 40
15.0
 50
180.0
 51
0.0
  0
ARC
  5
126A5
  8
0
  6
BYBLOCK
 62
     0
 10
22734.010092585158
 20
9389.1900500000029
 30
0.0
 40
15.0
 50
0.0
 51
180.0
  0
ARC
  5
126A6
  8
0
  6
BYBLOCK
 62
     0
 10
19731.010092585158
 20
9389.1900500000029
 30
0.0
 40
15.0
 50
0.0
 51
180.0
  0
ARC
  5
126A7
  8
0
  6
BYBLOCK
 62
     0
 10
19731.010092585158
 20
9389.1900500000029
 30
0.0
 40
15.0
 50
180.0
 51
0.0
  0
ARC
  5
126A8
  8
0
  6
BYBLOCK
 62
     0
 10
18523.50745358516
 20
6241.1883740000021
 30
0.0
 40
15.0
 50
90.0
 51
270.0
  0
ARC
  5
126A9
  8
0
  6
BYBLOCK
 62
     0
 10
18523.50745358516
 20
6241.1883740000021
 30
0.0
 40
15.0
 50
270.0
 51
90.0
  0
ARC
  5
126AA
  8
0
  6
BYBLOCK
 62
     0
 10
18523.50745358516
 20
8590.1883999999973
 30
0.0
 40
15.0
 50
270.0
 51
90.0
  0
ARC
  5
126AB
  8
0
  6
BYBLOCK
 62
     0
 10
18523.50745358516
 20
8590.1883999999973
 30
0.0
 40
15.0
 50
90.0
 51
270.0
  0
ARC
  5
126AC
  8
0
  6
BYBLOCK
 62
     0
 10
18923.506793585158
 20
6241.1883740000021
 30
0.0
 40
15.0
 50
90.0
 51
270.0
  0
ARC
  5
126AD
  8
0
  6
BYBLOCK
 62
     0
 10
18923.506793585158
 20
6241.1883740000021
 30
0.0
 40
15.0
 50
270.0
 51
90.0
  0
ARC
  5
126AE
  8
0
  6
BYBLOCK
 62
     0
 10
18923.506793585158
 20
8132.6883740000021
 30
0.0
 40
15.0
 50
270.0
 51
90.0
  0
ARC
  5
126AF
  8
0
  6
BYBLOCK
 62
     0
 10
18923.506793585158
 20
8132.6883740000021
 30
0.0
 40
15.0
 50
90.0
 51
270.0
  0
ARC
  5
126B0
  8
0
  6
BYBLOCK
 62
     0
 10
22737.010092585158
 20
5341.188374000003
 30
0.0
 40
15.0
 50
0.0
 51
180.0
  0
ARC
  5
126B1
  8
0
  6
BYBLOCK
 62
     0
 10
22737.010092585158
 20
5341.188374000003
 30
0.0
 40
15.0
 50
180.0
 51
0.0
  0
ARC
  5
126B2
  8
0
  6
BYBLOCK
 62
     0
 10
25449.010092585158
 20
5341.188374000003
 30
0.0
 40
15.0
 50
180.0
 51
0.0
  0
ARC
  5
126B3
  8
0
  6
BYBLOCK
 62
     0
 10
25449.010092585158
 20
5341.188374000003
 30
0.0
 40
15.0
 50
0.0
 51
180.0
  0
ARC
  5
126B4
  8
0
  6
BYBLOCK
 62
     0
 10
19731.05004553268
 20
4541.1887040000556
 30
0.0
 40
15.0
 50
0.0
 51
180.0
  0
ARC
  5
126B5
  8
0
  6
BYBLOCK
 62
     0
 10
19731.05004553268
 20
4541.1887040000556
 30
0.0
 40
15.0
 50
180.0
 51
0.0
  0
ARC
  5
126B6
  8
0
  6
BYBLOCK
 62
     0
 10
25534.010092585158
 20
4541.1887040000556
 30
0.0
 40
15.0
 50
180.0
 51
0.0
  0
ARC
  5
126B7
  8
0
  6
BYBLOCK
 62
     0
 10
25534.010092585158
 20
4541.1887040000556
 30
0.0
 40
15.0
 50
0.0
 51
180.0
  0
ARC
  5
126B8
  8
0
  6
BYBLOCK
 62
     0
 10
19773.510092585158
 20
4941.1885390000016
 30
0.0
 40
15.0
 50
0.0
 51
180.0
  0
ARC
  5
126B9
  8
0
  6
BYBLOCK
 62
     0
 10
19773.510092585158
 20
4941.1885390000016
 30
0.0
 40
15.0
 50
180.0
 51
0.0
  0
ARC
  5
126BA
  8
0
  6
BYBLOCK
 62
     0
 10
19731.05004553268
 20
4941.1885390000016
 30
0.0
 40
15.0
 50
180.0
 51
0.0
  0
ARC
  5
126BB
  8
0
  6
BYBLOCK
 62
     0
 10
19731.05004553268
 20
4941.1885390000016
 30
0.0
 40
15.0
 50
0.0
 51
180.0
  0
ARC
  5
126BC
  8
0
  6
BYBLOCK
 62
     0
 10
22691.510092585158
 20
4941.1885390000016
 30
0.0
 40
15.0
 50
180.0
 51
0.0
  0
ARC
  5
126BD
  8
0
  6
BYBLOCK
 62
     0
 10
22691.510092585158
 20
4941.1885390000016
 30
0.0
 40
15.0
 50
0.0
 51
180.0
  0
ARC
  5
126BE
  8
0
  6
BYBLOCK
 62
     0
 10
19773.510092585158
 20
4941.1885390000016
 30
0.0
 40
15.0
 50
0.0
 51
180.0
  0
ARC
  5
126BF
  8
0
  6
BYBLOCK
 62
     0
 10
19773.510092585158
 20
4941.1885390000016
 30
0.0
 40
15.0
 50
180.0
 51
0.0
  0
ARC
  5
126C0
  8
0
  6
BYBLOCK
 62
     0
 10
19867.510092585158
 20
5341.188374000003
 30
0.0
 40
15.0
 50
0.0
 51
180.0
  0
ARC
  5
126C1
  8
0
  6
BYBLOCK
 62
     0
 10
19867.510092585158
 20
5341.188374000003
 30
0.0
 40
15.0
 50
180.0
 51
0.0
  0
ARC
  5
126C2
  8
0
  6
BYBLOCK
 62
     0
 10
22597.510092585158
 20
5341.188374000003
 30
0.0
 40
15.0
 50
180.0
 51
0.0
  0
ARC
  5
126C3
  8
0
  6
BYBLOCK
 62
     0
 10
22597.510092585158
 20
5341.188374000003
 30
0.0
 40
15.0
 50
0.0
 51
180.0
  0
ARC
  5
126C4
  8
0
  6
BYBLOCK
 62
     0
 10
25491.510092585158
 20
4941.1885390000016
 30
0.0
 40
15.0
 50
180.0
 51
0.0
  0
ARC
  5
126C5
  8
0
  6
BYBLOCK
 62
     0
 10
25491.510092585158
 20
4941.1885390000016
 30
0.0
 40
15.0
 50
0.0
 51
180.0
  0
ARC
  5
126C6
  8
0
  6
BYBLOCK
 62
     0
 10
25534.010092585158
 20
4941.1885390000016
 30
0.0
 40
15.0
 50
0.0
 51
180.0
  0
ARC
  5
126C7
  8
0
  6
BYBLOCK
 62
     0
 10
25534.010092585158
 20
4941.1885390000016
 30
0.0
 40
15.0
 50
180.0
 51
0.0
  0
ARC
  5
126C8
  8
0
  6
BYBLOCK
 62
     0
 10
22691.510092585158
 20
4941.1885390000016
 30
0.0
 40
15.0
 50
0.0
 51
180.0
  0
ARC
  5
126C9
  8
0
  6
BYBLOCK
 62
     0
 10
22691.510092585158
 20
4941.1885390000016
 30
0.0
 40
15.0
 50
180.0
 51
0.0
  0
ARC
  5
126CA
  8
0
  6
BYBLOCK
 62
     0
 10
25491.510092585158
 20
4941.1885390000016
 30
0.0
 40
15.0
 50
180.0
 51
0.0
  0
ARC
  5
126CB
  8
0
  6
BYBLOCK
 62
     0
 10
25491.510092585158
 20
4941.1885390000016
 30
0.0
 40
15.0
 50
0.0
 51
180.0
  0
ARC
  5
126CC
  8
0
  6
BYBLOCK
 62
     0
 10
22734.010092585158
 20
9389.1900500000029
 30
0.0
 40
15.0
 50
0.0
 51
180.0
  0
ARC
  5
126CD
  8
0
  6
BYBLOCK
 62
     0
 10
22734.010092585158
 20
9389.1900500000029
 30
0.0
 40
15.0
 50
180.0
 51
0.0
  0
ARC
  5
126CE
  8
0
  6
BYBLOCK
 62
     0
 10
25534.010092585158
 20
9389.1900500000029
 30
0.0
 40
15.0
 50
180.0
 51
0.0
  0
ARC
  5
126CF
  8
0
  6
BYBLOCK
 62
     0
 10
25534.010092585158
 20
9389.1900500000029
 30
0.0
 40
15.0
 50
0.0
 51
180.0
  0
ARC
  5
126D0
  8
0
  6
BYBLOCK
 62
     0
 10
26743.832490879529
 20
6241.1883740000012
 30
0.0
 40
15.0
 50
90.0
 51
270.0
  0
ARC
  5
126D1
  8
0
  6
BYBLOCK
 62
     0
 10
26743.832490879529
 20
6241.1883740000012
 30
0.0
 40
15.0
 50
270.0
 51
90.0
  0
ARC
  5
126D2
  8
0
  6
BYBLOCK
 62
     0
 10
26743.832490879551
 20
8261.1883740000048
 30
0.0
 40
15.0
 50
270.0
 51
90.0
  0
ARC
  5
126D3
  8
0
  6
BYBLOCK
 62
     0
 10
26743.832490879551
 20
8261.1883740000048
 30
0.0
 40
15.0
 50
90.0
 51
270.0
  0
TEXT
  5
127B5
  8
NAME
 10
21595.82616625919
 20
1076.6369801169251
 30
0.0
 40
360.0
  1
VGCU-3052（H）+VKCU-2852（H）型-R（単棟）
 41
0.4200000000000001
  0
TEXT
  5
127B7
  8
NAME
 10
21933.552716389011
 20
1876.0
 30
0.0
 40
360.0
  1
ヨドガレージ ラヴィージュ
 41
0.75
  7
01
  0
LINE
  5
127B8
  8
NAME
  6
CONTINUOUS
 10
26067.886878884299
 20
2236.0
 30
0.0
 11
26067.886878884299
 21
1876.0
 31
0.0
  0
LINE
  5
127B9
  8
NAME
  6
CONTINUOUS
 10
26167.886878884299
 20
2236.0
 30
0.0
 11
26167.886878884299
 21
1876.0
 31
0.0
  0
LINE
  5
127BA
  8
NAME
  6
CONTINUOUS
 10
26267.88687888431
 20
2236.0
 30
0.0
 11
26267.88687888431
 21
1876.0
 31
0.0
  0
LINE
  5
127BB
  8
NAME
  6
CONTINUOUS
 10
26007.886878884299
 20
2236.0
 30
0.0
 11
26327.886878884299
 21
2236.0
 31
0.0
  0
LINE
  5
127BC
  8
NAME
  6
CONTINUOUS
 10
26327.886878884299
 20
1876.0
 30
0.0
 11
26007.886878884299
 21
1876.0
 31
0.0
  0
LINE
  5
12CF2
  8
2-0
  6
CENTER2
 62
     6
 10
22712.511953585141
 20
20960.488495000009
 30
0.0
 11
22712.511953585141
 21
13825.23237353158
 31
0.0
  0
LINE
  5
12CF5
  8
2-0
  6
CENTER2
 62
     6
 10
19794.511953585141
 20
20960.488495000009
 30
0.0
 11
19794.511953585141
 21
13825.23237353158
 31
0.0
  0
LINE
  5
134A5
  8
2-0
  6
CONTINUOUS
 62
     6
 10
21477.670869585148
 20
13542.985129999999
 30
0.0
 11
20477.677467585188
 21
13542.985129999999
 31
0.0
  0
LINE
  5
134A6
  8
2-0
  6
CONTINUOUS
 62
     6
 10
20009.737090585149
 20
14013.40584399999
 30
0.0
 11
20477.677467585188
 21
13542.985129999999
 31
0.0
  0
LINE
  5
134A7
  8
2-0
  6
CONTINUOUS
 62
     6
 10
21460.95977358516
 20
17871.605195
 30
0.0
 11
20442.984425585149
 21
17871.605195
 31
0.0
  0
LINE
  5
134A8
  8
2-0
  6
CONTINUOUS
 62
     6
 10
19986.558907585171
 20
18096.32014399999
 30
0.0
 11
20442.984425585149
 21
17871.605195
 31
0.0
  0
LINE
  5
134A9
  8
2-0
  6
CONTINUOUS
 62
     6
 10
20048.377293585148
 20
16854.513491000009
 30
0.0
 11
20353.072711585159
 21
16958.16702200002
 31
0.0
  0
LINE
  5
134AA
  8
2-0
  6
CONTINUOUS
 62
     6
 10
19893.355254585182
 20
16364.891447000011
 30
0.0
 11
20353.072711585159
 21
16120.978136000011
 31
0.0
  0
LINE
  5
134AB
  8
2-0
  6
CONTINUOUS
 62
     6
 10
21273.075746585149
 20
16120.978136000011
 30
0.0
 11
20353.072711585159
 21
16120.978136000011
 31
0.0
  0
LINE
  5
134AC
  8
2-0
  6
CONTINUOUS
 62
     6
 10
21553.066773585138
 20
16958.16702200002
 30
0.0
 11
20353.072711585159
 21
16958.16702200002
 31
0.0
  0
LINE
  5
134AD
  8
2-0
  6
CONTINUOUS
 62
     6
 10
19977.17796958514
 20
14335.08948999998
 30
0.0
 11
20353.072711585159
 21
14516.033325
 31
0.0
  0
LINE
  5
134AE
  8
2-0
  6
CONTINUOUS
 62
     6
 10
21460.95977358516
 20
14953.842737000001
 30
0.0
 11
20442.984425585149
 21
14953.842737000001
 31
0.0
  0
LINE
  5
134AF
  8
2-0
  6
CONTINUOUS
 62
     6
 10
20873.07442758515
 20
14516.033325
 30
0.0
 11
20353.072711585159
 21
14516.033325
 31
0.0
  0
LINE
  5
134B0
  8
2-0
  6
CONTINUOUS
 62
     6
 10
19986.558907585171
 20
15178.55570700001
 30
0.0
 11
20442.984425585149
 21
14953.842737000001
 31
0.0
  0
LINE
  5
134B1
  8
2-0
  6
CONTINUOUS
 62
     3
 10
22725.012613585139
 20
19251.484325999991
 30
0.0
 11
22725.012613585139
 21
19245.488364000019
 31
0.0
  0
LINE
  5
134B2
  8
2-0
  6
CONTINUOUS
 62
     3
 10
22725.012613585139
 20
19245.488364000019
 30
0.0
 11
22755.01023758516
 21
19245.488364000019
 31
0.0
  0
LINE
  5
134B3
  8
2-0
  6
CONTINUOUS
 62
     3
 10
22755.01023758516
 20
19275.487968000001
 30
0.0
 11
22674.008337585132
 21
19275.487968000001
 31
0.0
  0
LINE
  5
134B4
  8
2-0
  6
CONTINUOUS
 62
     3
 10
22725.012613585139
 20
19235.19090799999
 30
0.0
 11
22755.01023758516
 21
19235.19090799999
 31
0.0
  0
LINE
  5
134B5
  8
2-0
  6
CONTINUOUS
 62
     3
 10
22725.012613585139
 20
19253.192650000001
 30
0.0
 11
22725.012613585139
 21
19235.19090799999
 31
0.0
  0
LINE
  5
134B6
  8
2-0
  6
CONTINUOUS
 62
     3
 10
22750.009973585151
 20
19253.192650000001
 30
0.0
 11
22725.012613585139
 21
19253.192650000001
 31
0.0
  0
LINE
  5
134B7
  8
2-0
  6
CONTINUOUS
 62
     3
 10
22750.009973585151
 20
19248.184467999999
 30
0.0
 11
22750.009973585151
 21
19253.192650000001
 31
0.0
  0
LINE
  5
134B8
  8
2-0
  6
CONTINUOUS
 62
     3
 10
22743.008416585151
 20
19248.184467999999
 30
0.0
 11
22750.009973585151
 21
19248.184467999999
 31
0.0
  0
LINE
  5
134B9
  8
2-0
  6
CONTINUOUS
 62
     3
 10
22642.712148585149
 20
19348.484694999999
 30
0.0
 11
22642.712148585149
 21
19355.490211000011
 31
0.0
  0
LINE
  5
134BA
  8
2-0
  6
CONTINUOUS
 62
     3
 10
22642.712148585149
 20
19355.490211000011
 30
0.0
 11
22647.712412585141
 21
19355.490211000011
 31
0.0
  0
LINE
  5
134BB
  8
2-0
  6
CONTINUOUS
 62
     3
 10
22647.712412585141
 20
19355.490211000011
 30
0.0
 11
22647.712412585141
 21
19330.480973999998
 31
0.0
  0
LINE
  5
134BC
  8
2-0
  6
CONTINUOUS
 62
     3
 10
22647.712412585141
 20
19330.480973999998
 30
0.0
 11
22629.710670585129
 21
19330.480973999998
 31
0.0
  0
LINE
  5
134BD
  8
2-0
  6
CONTINUOUS
 62
     3
 10
22629.710670585129
 20
19330.480973999998
 30
0.0
 11
22629.710670585129
 21
19360.484537000018
 31
0.0
  0
LINE
  5
134BE
  8
2-0
  6
CONTINUOUS
 62
     3
 10
22640.008126585151
 20
19360.484537000018
 30
0.0
 11
22755.01023758516
 21
19360.484537000018
 31
0.0
  0
LINE
  5
134BF
  8
2-0
  6
CONTINUOUS
 62
     3
 10
22640.008126585151
 20
19330.480973999998
 30
0.0
 11
22640.008126585151
 21
19360.484537000018
 31
0.0
  0
LINE
  5
134C0
  8
2-0
  6
CONTINUOUS
 62
     3
 10
22646.010026585151
 20
19330.480973999998
 30
0.0
 11
22640.008126585151
 21
19330.480973999998
 31
0.0
  0
LINE
  5
134C1
  8
2-0
  6
CONTINUOUS
 62
     3
 10
22743.008416585151
 20
18894.887645499952
 30
0.0
 11
22750.009973585151
 21
18894.887645499952
 31
0.0
  0
LINE
  5
134C2
  8
2-0
  6
CONTINUOUS
 62
     3
 10
22750.009973585151
 20
18894.887645499952
 30
0.0
 11
22750.009973585151
 21
18899.88790949999
 31
0.0
  0
LINE
  5
134C3
  8
2-0
  6
CONTINUOUS
 62
     3
 10
22750.009973585151
 20
18899.88790949999
 30
0.0
 11
22725.012613585139
 21
18899.88790949999
 31
0.0
  0
LINE
  5
134C4
  8
2-0
  6
CONTINUOUS
 62
     3
 10
22725.012613585139
 20
18899.88790949999
 30
0.0
 11
22725.012613585139
 21
18881.892105499999
 31
0.0
  0
LINE
  5
134C5
  8
2-0
  6
CONTINUOUS
 62
     3
 10
22725.012613585139
 20
18881.892105499999
 30
0.0
 11
22755.01023758516
 21
18881.892105499999
 31
0.0
  0
LINE
  5
134C6
  8
2-0
  6
CONTINUOUS
 62
     3
 10
22725.012613585139
 20
18897.983612499978
 30
0.0
 11
22725.012613585139
 21
18891.985671499999
 31
0.0
  0
LINE
  5
134C7
  8
2-0
  6
CONTINUOUS
 62
     3
 10
22725.012613585139
 20
18891.985671499999
 30
0.0
 11
22755.01023758516
 21
18891.985671499999
 31
0.0
  0
LINE
  5
134C8
  8
2-0
  6
CONTINUOUS
 62
     3
 10
22755.01023758516
 20
18891.985671499999
 30
0.0
 11
22755.01023758516
 21
18928.986832499999
 31
0.0
  0
LINE
  5
134C9
  8
2-0
  6
CONTINUOUS
 62
     3
 10
22725.012613585139
 20
18928.986832499999
 30
0.0
 11
22755.01023758516
 21
18928.986832499999
 31
0.0
  0
LINE
  5
134CA
  8
2-0
  6
CONTINUOUS
 62
     3
 10
22725.012613585139
 20
18922.982952499991
 30
0.0
 11
22725.012613585139
 21
18928.986832499999
 31
0.0
  0
LINE
  5
134CB
  8
2-0
  6
CONTINUOUS
 62
     3
 10
22725.012613585139
 20
18939.082377499992
 30
0.0
 11
22755.01023758516
 21
18939.082377499992
 31
0.0
  0
LINE
  5
134CC
  8
2-0
  6
CONTINUOUS
 62
     3
 10
22725.012613585139
 20
18921.080635499999
 30
0.0
 11
22725.012613585139
 21
18939.082377499992
 31
0.0
  0
LINE
  5
134CD
  8
2-0
  6
CONTINUOUS
 62
     3
 10
22750.009973585151
 20
18921.080635499999
 30
0.0
 11
22725.012613585139
 21
18921.080635499999
 31
0.0
  0
LINE
  5
134CE
  8
2-0
  6
CONTINUOUS
 62
     3
 10
22750.009973585151
 20
18926.08089949999
 30
0.0
 11
22750.009973585151
 21
18921.080635499999
 31
0.0
  0
LINE
  5
134CF
  8
2-0
  6
CONTINUOUS
 62
     3
 10
22743.008416585151
 20
18926.08089949999
 30
0.0
 11
22750.009973585151
 21
18926.08089949999
 31
0.0
  0
LINE
  5
134D0
  8
2-0
  6
CONTINUOUS
 62
     3
 10
22743.008416585151
 20
18193.886655999999
 30
0.0
 11
22750.009973585151
 21
18193.886655999999
 31
0.0
  0
LINE
  5
134D1
  8
2-0
  6
CONTINUOUS
 62
     3
 10
22750.009973585151
 20
18193.886655999999
 30
0.0
 11
22750.009973585151
 21
18198.892857999988
 31
0.0
  0
LINE
  5
134D2
  8
2-0
  6
CONTINUOUS
 62
     3
 10
22750.009973585151
 20
18198.892857999988
 30
0.0
 11
22725.012613585139
 21
18198.892857999988
 31
0.0
  0
LINE
  5
134D3
  8
2-0
  6
CONTINUOUS
 62
     3
 10
22725.012613585139
 20
18198.892857999988
 30
0.0
 11
22725.012613585139
 21
18180.891115999999
 31
0.0
  0
LINE
  5
134D4
  8
2-0
  6
CONTINUOUS
 62
     3
 10
22725.012613585139
 20
18180.891115999999
 30
0.0
 11
22755.01023758516
 21
18180.891115999999
 31
0.0
  0
LINE
  5
134D5
  8
2-0
  6
CONTINUOUS
 62
     3
 10
22725.012613585139
 20
18196.982622999989
 30
0.0
 11
22725.012613585139
 21
18190.986660999981
 31
0.0
  0
LINE
  5
134D6
  8
2-0
  6
CONTINUOUS
 62
     3
 10
22725.012613585139
 20
18190.986660999981
 30
0.0
 11
22755.01023758516
 21
18190.986660999981
 31
0.0
  0
LINE
  5
134D7
  8
2-0
  6
CONTINUOUS
 62
     3
 10
22755.01023758516
 20
18190.986660999981
 30
0.0
 11
22755.01023758516
 21
18227.985842999999
 31
0.0
  0
LINE
  5
134D8
  8
2-0
  6
CONTINUOUS
 62
     3
 10
22725.012613585139
 20
18227.985842999999
 30
0.0
 11
22755.01023758516
 21
18227.985842999999
 31
0.0
  0
LINE
  5
134D9
  8
2-0
  6
CONTINUOUS
 62
     3
 10
22725.012613585139
 20
18221.989881000009
 30
0.0
 11
22725.012613585139
 21
18227.985842999999
 31
0.0
  0
LINE
  5
134DA
  8
2-0
  6
CONTINUOUS
 62
     3
 10
22725.012613585139
 20
18238.081387999999
 30
0.0
 11
22755.01023758516
 21
18238.081387999999
 31
0.0
  0
LINE
  5
134DB
  8
2-0
  6
CONTINUOUS
 62
     3
 10
22725.012613585139
 20
18220.079645999998
 30
0.0
 11
22725.012613585139
 21
18238.081387999999
 31
0.0
  0
LINE
  5
134DC
  8
2-0
  6
CONTINUOUS
 62
     3
 10
22750.009973585151
 20
18220.079645999998
 30
0.0
 11
22725.012613585139
 21
18220.079645999998
 31
0.0
  0
LINE
  5
134DD
  8
2-0
  6
CONTINUOUS
 62
     3
 10
22750.009973585151
 20
18225.085847999981
 30
0.0
 11
22750.009973585151
 21
18220.079645999998
 31
0.0
  0
LINE
  5
134DE
  8
2-0
  6
CONTINUOUS
 62
     3
 10
22743.008416585151
 20
18225.085847999981
 30
0.0
 11
22750.009973585151
 21
18225.085847999981
 31
0.0
  0
LINE
  5
134DF
  8
2-0
  6
CONTINUOUS
 62
     3
 10
22743.008416585151
 20
17524.07991
 30
0.0
 11
22750.009973585151
 21
17524.07991
 31
0.0
  0
LINE
  5
134E0
  8
2-0
  6
CONTINUOUS
 62
     3
 10
22750.009973585151
 20
17524.07991
 30
0.0
 11
22750.009973585151
 21
17519.091522999999
 31
0.0
  0
LINE
  5
134E1
  8
2-0
  6
CONTINUOUS
 62
     3
 10
22750.009973585151
 20
17519.091522999999
 30
0.0
 11
22725.012613585139
 21
17519.091522999999
 31
0.0
  0
LINE
  5
134E2
  8
2-0
  6
CONTINUOUS
 62
     3
 10
22725.012613585139
 20
17519.091522999999
 30
0.0
 11
22725.012613585139
 21
17537.08732599999
 31
0.0
  0
LINE
  5
134E3
  8
2-0
  6
CONTINUOUS
 62
     3
 10
22725.012613585139
 20
17537.08732599999
 30
0.0
 11
22755.01023758516
 21
17537.08732599999
 31
0.0
  0
LINE
  5
134E4
  8
2-0
  6
CONTINUOUS
 62
     3
 10
22725.012613585139
 20
17520.989881000001
 30
0.0
 11
22725.012613585139
 21
17526.985842999991
 31
0.0
  0
LINE
  5
134E5
  8
2-0
  6
CONTINUOUS
 62
     3
 10
22725.012613585139
 20
17526.985842999991
 30
0.0
 11
22755.01023758516
 21
17526.985842999991
 31
0.0
  0
LINE
  5
134E6
  8
2-0
  6
CONTINUOUS
 62
     3
 10
22755.01023758516
 20
17526.985842999991
 30
0.0
 11
22755.01023758516
 21
17489.986660999999
 31
0.0
  0
LINE
  5
134E7
  8
2-0
  6
CONTINUOUS
 62
     3
 10
22725.012613585139
 20
17489.986660999999
 30
0.0
 11
22755.01023758516
 21
17489.986660999999
 31
0.0
  0
LINE
  5
134E8
  8
2-0
  6
CONTINUOUS
 62
     3
 10
22725.012613585139
 20
17495.98856199998
 30
0.0
 11
22725.012613585139
 21
17489.986660999999
 31
0.0
  0
LINE
  5
134E9
  8
2-0
  6
CONTINUOUS
 62
     3
 10
22725.012613585139
 20
17479.897055000001
 30
0.0
 11
22755.01023758516
 21
17479.897055000001
 31
0.0
  0
LINE
  5
134EA
  8
2-0
  6
CONTINUOUS
 62
     3
 10
22725.012613585139
 20
17497.892857999999
 30
0.0
 11
22725.012613585139
 21
17479.897055000001
 31
0.0
  0
LINE
  5
134EB
  8
2-0
  6
CONTINUOUS
 62
     3
 10
22750.009973585151
 20
17497.892857999999
 30
0.0
 11
22725.012613585139
 21
17497.892857999999
 31
0.0
  0
LINE
  5
134EC
  8
2-0
  6
CONTINUOUS
 62
     3
 10
22750.009973585151
 20
17492.892595000008
 30
0.0
 11
22750.009973585151
 21
17497.892857999999
 31
0.0
  0
LINE
  5
134ED
  8
2-0
  6
CONTINUOUS
 62
     3
 10
22743.008416585151
 20
17492.892595000008
 30
0.0
 11
22750.009973585151
 21
17492.892595000008
 31
0.0
  0
LINE
  5
134EE
  8
2-0
  6
CONTINUOUS
 62
     3
 10
22752.124099585159
 20
16772.983480999988
 30
0.0
 11
22752.124099585159
 21
16792.984536
 31
0.0
  0
LINE
  5
134EF
  8
2-0
  6
CONTINUOUS
 62
     3
 10
22752.124099585159
 20
16792.984536
 30
0.0
 11
22667.127530585141
 21
16792.984536
 31
0.0
  0
LINE
  5
134F0
  8
2-0
  6
CONTINUOUS
 62
     3
 10
22743.008416585151
 20
16819.591246
 30
0.0
 11
22750.009973585151
 21
16819.591246
 31
0.0
  0
LINE
  5
134F1
  8
2-0
  6
CONTINUOUS
 62
     3
 10
22750.009973585151
 20
16819.591246
 30
0.0
 11
22750.009973585151
 21
16814.59692
 31
0.0
  0
LINE
  5
134F2
  8
2-0
  6
CONTINUOUS
 62
     3
 10
22750.009973585151
 20
16814.59692
 30
0.0
 11
22725.012613585139
 21
16814.59692
 31
0.0
  0
LINE
  5
134F3
  8
2-0
  6
CONTINUOUS
 62
     3
 10
22725.012613585139
 20
16814.59692
 30
0.0
 11
22725.012613585139
 21
16832.592723999998
 31
0.0
  0
LINE
  5
134F4
  8
2-0
  6
CONTINUOUS
 62
     3
 10
22725.012613585139
 20
16832.592723999998
 30
0.0
 11
22755.01023758516
 21
16832.592723999998
 31
0.0
  0
LINE
  5
134F5
  8
2-0
  6
CONTINUOUS
 62
     3
 10
22725.012613585139
 20
16822.98413999999
 30
0.0
 11
22725.012613585139
 21
16816.98223999999
 31
0.0
  0
LINE
  5
134F6
  8
2-0
  6
CONTINUOUS
 62
     3
 10
22755.01023758516
 20
16822.98413999999
 30
0.0
 11
22725.012613585139
 21
16822.98413999999
 31
0.0
  0
LINE
  5
134F7
  8
2-0
  6
CONTINUOUS
 62
     3
 10
22755.01023758516
 20
16832.592723999998
 30
0.0
 11
22755.01023758516
 21
17479.897055000001
 31
0.0
  0
LINE
  5
134F8
  8
2-0
  6
CONTINUOUS
 62
     3
 10
22755.01023758516
 20
17537.08732599999
 30
0.0
 11
22755.01023758516
 21
18180.891115999999
 31
0.0
  0
LINE
  5
134F9
  8
2-0
  6
CONTINUOUS
 62
     3
 10
22755.01023758516
 20
16677.982424999998
 30
0.0
 11
22725.012613585139
 21
16677.982424999998
 31
0.0
  0
LINE
  5
134FA
  8
2-0
  6
CONTINUOUS
 62
     3
 10
22725.012613585139
 20
16677.982424999998
 30
0.0
 11
22725.012613585139
 21
16683.98432499999
 31
0.0
  0
LINE
  5
134FB
  8
2-0
  6
CONTINUOUS
 62
     3
 10
22667.127530585141
 20
16707.987968000001
 30
0.0
 11
22752.124099585159
 21
16707.987968000001
 31
0.0
  0
LINE
  5
134FC
  8
2-0
  6
CONTINUOUS
 62
     3
 10
22752.124099585159
 20
16707.987968000001
 30
0.0
 11
22752.124099585159
 21
16727.983085
 31
0.0
  0
LINE
  5
134FD
  8
2-0
  6
CONTINUOUS
 62
     3
 10
22725.012613585139
 20
16668.373842000012
 30
0.0
 11
22755.01023758516
 21
16668.373842000012
 31
0.0
  0
LINE
  5
134FE
  8
2-0
  6
CONTINUOUS
 62
     3
 10
22725.012613585139
 20
16686.369644999992
 30
0.0
 11
22725.012613585139
 21
16668.373842000012
 31
0.0
  0
LINE
  5
134FF
  8
2-0
  6
CONTINUOUS
 62
     3
 10
22750.009973585151
 20
16686.369644999992
 30
0.0
 11
22725.012613585139
 21
16686.369644999992
 31
0.0
  0
LINE
  5
13500
  8
2-0
  6
CONTINUOUS
 62
     3
 10
22750.009973585151
 20
16681.36938099999
 30
0.0
 11
22750.009973585151
 21
16686.369644999992
 31
0.0
  0
LINE
  5
13501
  8
2-0
  6
CONTINUOUS
 62
     3
 10
22743.008416585151
 20
16681.36938099999
 30
0.0
 11
22750.009973585151
 21
16681.36938099999
 31
0.0
  0
LINE
  5
13502
  8
2-0
  6
CONTINUOUS
 62
     3
 10
22743.008416585151
 20
15976.887150499981
 30
0.0
 11
22750.009973585151
 21
15976.887150499981
 31
0.0
  0
LINE
  5
13503
  8
2-0
  6
CONTINUOUS
 62
     3
 10
22750.009973585151
 20
15976.887150499981
 30
0.0
 11
22750.009973585151
 21
15981.887414499981
 31
0.0
  0
LINE
  5
13504
  8
2-0
  6
CONTINUOUS
 62
     3
 10
22750.009973585151
 20
15981.887414499981
 30
0.0
 11
22725.012613585139
 21
15981.887414499981
 31
0.0
  0
LINE
  5
13505
  8
2-0
  6
CONTINUOUS
 62
     3
 10
22725.012613585139
 20
15981.887414499981
 30
0.0
 11
22725.012613585139
 21
15963.88567249999
 31
0.0
  0
LINE
  5
13506
  8
2-0
  6
CONTINUOUS
 62
     3
 10
22725.012613585139
 20
15963.88567249999
 30
0.0
 11
22755.01023758516
 21
15963.88567249999
 31
0.0
  0
LINE
  5
13507
  8
2-0
  6
CONTINUOUS
 62
     3
 10
22725.012613585139
 20
15979.983117499991
 30
0.0
 11
22725.012613585139
 21
15973.98616649999
 31
0.0
  0
LINE
  5
13508
  8
2-0
  6
CONTINUOUS
 62
     3
 10
22725.012613585139
 20
15973.98616649999
 30
0.0
 11
22755.01023758516
 21
15973.98616649999
 31
0.0
  0
LINE
  5
13509
  8
2-0
  6
CONTINUOUS
 62
     3
 10
22755.01023758516
 20
15973.98616649999
 30
0.0
 11
22755.01023758516
 21
16010.9863375
 31
0.0
  0
LINE
  5
1350A
  8
2-0
  6
CONTINUOUS
 62
     3
 10
22725.012613585139
 20
16010.9863375
 30
0.0
 11
22755.01023758516
 21
16010.9863375
 31
0.0
  0
LINE
  5
1350B
  8
2-0
  6
CONTINUOUS
 62
     3
 10
22725.012613585139
 20
16004.98344749999
 30
0.0
 11
22725.012613585139
 21
16010.9863375
 31
0.0
  0
LINE
  5
1350C
  8
2-0
  6
CONTINUOUS
 62
     3
 10
22725.012613585139
 20
16021.081882500001
 30
0.0
 11
22755.01023758516
 21
16021.081882500001
 31
0.0
  0
LINE
  5
1350D
  8
2-0
  6
CONTINUOUS
 62
     3
 10
22725.012613585139
 20
16003.074201499991
 30
0.0
 11
22725.012613585139
 21
16021.081882500001
 31
0.0
  0
LINE
  5
1350E
  8
2-0
  6
CONTINUOUS
 62
     3
 10
22750.009973585151
 20
16003.074201499991
 30
0.0
 11
22725.012613585139
 21
16003.074201499991
 31
0.0
  0
LINE
  5
1350F
  8
2-0
  6
CONTINUOUS
 62
     3
 10
22750.009973585151
 20
16008.0804045
 30
0.0
 11
22750.009973585151
 21
16003.074201499991
 31
0.0
  0
LINE
  5
13510
  8
2-0
  6
CONTINUOUS
 62
     3
 10
22743.008416585151
 20
16008.0804045
 30
0.0
 11
22750.009973585151
 21
16008.0804045
 31
0.0
  0
LINE
  5
13511
  8
2-0
  6
CONTINUOUS
 62
     3
 10
22743.008416585151
 20
15307.320421000009
 30
0.0
 11
22750.009973585151
 21
15307.320421000009
 31
0.0
  0
LINE
  5
13512
  8
2-0
  6
CONTINUOUS
 62
     3
 10
22750.009973585151
 20
15307.320421000009
 30
0.0
 11
22750.009973585151
 21
15302.326096000001
 31
0.0
  0
LINE
  5
13513
  8
2-0
  6
CONTINUOUS
 62
     3
 10
22750.009973585151
 20
15302.326096000001
 30
0.0
 11
22725.012613585139
 21
15302.326096000001
 31
0.0
  0
LINE
  5
13514
  8
2-0
  6
CONTINUOUS
 62
     3
 10
22725.012613585139
 20
15302.326096000001
 30
0.0
 11
22725.012613585139
 21
15320.321899
 31
0.0
  0
LINE
  5
13515
  8
2-0
  6
CONTINUOUS
 62
     3
 10
22725.012613585139
 20
15320.321899
 30
0.0
 11
22755.01023758516
 21
15320.321899
 31
0.0
  0
LINE
  5
13516
  8
2-0
  6
CONTINUOUS
 62
     3
 10
22725.012613585139
 20
15304.22445400001
 30
0.0
 11
22725.012613585139
 21
15310.226354000009
 31
0.0
  0
LINE
  5
13517
  8
2-0
  6
CONTINUOUS
 62
     3
 10
22725.012613585139
 20
15310.226354000009
 30
0.0
 11
22755.01023758516
 21
15310.226354000009
 31
0.0
  0
LINE
  5
13518
  8
2-0
  6
CONTINUOUS
 62
     3
 10
22755.01023758516
 20
15273.22717300001
 30
0.0
 11
22755.01023758516
 21
15310.226354000009
 31
0.0
  0
LINE
  5
13519
  8
2-0
  6
CONTINUOUS
 62
     3
 10
22725.012613585139
 20
15273.22717300001
 30
0.0
 11
22755.01023758516
 21
15273.22717300001
 31
0.0
  0
LINE
  5
1351A
  8
2-0
  6
CONTINUOUS
 62
     3
 10
22725.012613585139
 20
15279.224123999989
 30
0.0
 11
22725.012613585139
 21
15273.22717300001
 31
0.0
  0
LINE
  5
1351B
  8
2-0
  6
CONTINUOUS
 62
     3
 10
22725.012613585139
 20
15263.12568900001
 30
0.0
 11
22755.01023758516
 21
15263.12568900001
 31
0.0
  0
LINE
  5
1351C
  8
2-0
  6
CONTINUOUS
 62
     3
 10
22725.012613585139
 20
15281.13337
 30
0.0
 11
22725.012613585139
 21
15263.12568900001
 31
0.0
  0
LINE
  5
1351D
  8
2-0
  6
CONTINUOUS
 62
     3
 10
22750.009973585151
 20
15281.13337
 30
0.0
 11
22725.012613585139
 21
15281.13337
 31
0.0
  0
LINE
  5
1351E
  8
2-0
  6
CONTINUOUS
 62
     3
 10
22750.009973585151
 20
15276.13310600001
 30
0.0
 11
22750.009973585151
 21
15281.13337
 31
0.0
  0
LINE
  5
1351F
  8
2-0
  6
CONTINUOUS
 62
     3
 10
22743.008416585151
 20
15276.13310600001
 30
0.0
 11
22750.009973585151
 21
15276.13310600001
 31
0.0
  0
LINE
  5
13520
  8
2-0
  6
CONTINUOUS
 62
     3
 10
22755.01023758516
 20
16668.373842000012
 30
0.0
 11
22755.01023758516
 21
16021.081882500001
 31
0.0
  0
LINE
  5
13521
  8
2-0
  6
CONTINUOUS
 62
     3
 10
22755.01023758516
 20
16822.98413999999
 30
0.0
 11
22755.01023758516
 21
16677.982424999998
 31
0.0
  0
LINE
  5
13522
  8
2-0
  6
CONTINUOUS
 62
     3
 10
22667.127530585141
 20
16792.984536
 30
0.0
 11
22667.127530585141
 21
16707.987968000001
 31
0.0
  0
LINE
  5
13523
  8
2-0
  6
CONTINUOUS
 62
     6
 10
21378.10504358515
 20
18561.431801499992
 30
0.0
 11
20353.072711585159
 21
18561.431801499992
 31
0.0
  0
LINE
  5
13524
  8
2-0
  6
CONTINUOUS
 62
     3
 10
22743.008416585151
 20
14574.892099000001
 30
0.0
 11
22750.009973585151
 21
14574.892099000001
 31
0.0
  0
LINE
  5
13525
  8
2-0
  6
CONTINUOUS
 62
     3
 10
22750.009973585151
 20
14574.892099000001
 30
0.0
 11
22750.009973585151
 21
14579.886425000001
 31
0.0
  0
LINE
  5
13526
  8
2-0
  6
CONTINUOUS
 62
     3
 10
22750.009973585151
 20
14579.886425000001
 30
0.0
 11
22725.012613585139
 21
14579.886425000001
 31
0.0
  0
LINE
  5
13527
  8
2-0
  6
CONTINUOUS
 62
     3
 10
22725.012613585139
 20
14579.886425000001
 30
0.0
 11
22725.012613585139
 21
14561.890621
 31
0.0
  0
LINE
  5
13528
  8
2-0
  6
CONTINUOUS
 62
     3
 10
22725.012613585139
 20
14561.890621
 30
0.0
 11
22755.01023758516
 21
14561.890621
 31
0.0
  0
LINE
  5
13529
  8
2-0
  6
CONTINUOUS
 62
     3
 10
22725.012613585139
 20
14577.989056000009
 30
0.0
 11
22725.012613585139
 21
14571.986166000001
 31
0.0
  0
LINE
  5
1352A
  8
2-0
  6
CONTINUOUS
 62
     3
 10
22725.012613585139
 20
14571.986166000001
 30
0.0
 11
22755.01023758516
 21
14571.986166000001
 31
0.0
  0
LINE
  5
1352B
  8
2-0
  6
CONTINUOUS
 62
     3
 10
22755.01023758516
 20
14571.986166000001
 30
0.0
 11
22755.01023758516
 21
14608.986337999981
 31
0.0
  0
LINE
  5
1352C
  8
2-0
  6
CONTINUOUS
 62
     3
 10
22725.012613585139
 20
14608.986337999981
 30
0.0
 11
22755.01023758516
 21
14608.986337999981
 31
0.0
  0
LINE
  5
1352D
  8
2-0
  6
CONTINUOUS
 62
     3
 10
22725.012613585139
 20
14602.98938599999
 30
0.0
 11
22725.012613585139
 21
14608.986337999981
 31
0.0
  0
LINE
  5
1352E
  8
2-0
  6
CONTINUOUS
 62
     3
 10
22725.012613585139
 20
14619.086831000001
 30
0.0
 11
22755.01023758516
 21
14619.086831000001
 31
0.0
  0
LINE
  5
1352F
  8
2-0
  6
CONTINUOUS
 62
     3
 10
22725.012613585139
 20
14601.080140000009
 30
0.0
 11
22725.012613585139
 21
14619.086831000001
 31
0.0
  0
LINE
  5
13530
  8
2-0
  6
CONTINUOUS
 62
     3
 10
22750.009973585151
 20
14601.080140000009
 30
0.0
 11
22725.012613585139
 21
14601.080140000009
 31
0.0
  0
LINE
  5
13531
  8
2-0
  6
CONTINUOUS
 62
     3
 10
22750.009973585151
 20
14606.085353000009
 30
0.0
 11
22750.009973585151
 21
14601.080140000009
 31
0.0
  0
LINE
  5
13532
  8
2-0
  6
CONTINUOUS
 62
     3
 10
22743.008416585151
 20
14606.085353000009
 30
0.0
 11
22750.009973585151
 21
14606.085353000009
 31
0.0
  0
LINE
  5
13533
  8
2-0
  6
CONTINUOUS
 62
     3
 10
22725.012613585139
 20
14249.488178999991
 30
0.0
 11
22725.012613585139
 21
14255.493048
 31
0.0
  0
LINE
  5
13534
  8
2-0
  6
CONTINUOUS
 62
     3
 10
22725.012613585139
 20
14255.493048
 30
0.0
 11
22755.01023758516
 21
14255.493048
 31
0.0
  0
LINE
  5
13535
  8
2-0
  6
CONTINUOUS
 62
     3
 10
22755.01023758516
 20
14255.493048
 30
0.0
 11
22755.01023758516
 21
14140.48895699999
 31
0.0
  0
LINE
  5
13536
  8
2-0
  6
CONTINUOUS
 62
     3
 10
22755.01023758516
 20
14140.48895699999
 30
0.0
 11
22670.011689585161
 21
14140.48895699999
 31
0.0
  0
LINE
  5
13537
  8
2-0
  6
CONTINUOUS
 62
     3
 10
22670.011689585161
 20
14140.48895699999
 30
0.0
 11
22670.011689585161
 21
14225.484536
 31
0.0
  0
LINE
  5
13538
  8
2-0
  6
CONTINUOUS
 62
     3
 10
22670.011689585161
 20
14225.484536
 30
0.0
 11
22702.010607585151
 21
14225.484536
 31
0.0
  0
LINE
  5
13539
  8
2-0
  6
CONTINUOUS
 62
     3
 10
22743.008416585151
 20
14252.522780999991
 30
0.0
 11
22750.009973585151
 21
14252.522780999991
 31
0.0
  0
LINE
  5
1353A
  8
2-0
  6
CONTINUOUS
 62
     3
 10
22750.009973585151
 20
14252.522780999991
 30
0.0
 11
22750.009973585151
 21
14247.52548599998
 31
0.0
  0
LINE
  5
1353B
  8
2-0
  6
CONTINUOUS
 62
     3
 10
22750.009973585151
 20
14247.52548599998
 30
0.0
 11
22725.012613585139
 21
14247.52548599998
 31
0.0
  0
LINE
  5
1353C
  8
2-0
  6
CONTINUOUS
 62
     3
 10
22725.012613585139
 20
14247.52548599998
 30
0.0
 11
22725.012613585139
 21
14265.524259
 31
0.0
  0
LINE
  5
1353D
  8
2-0
  6
CONTINUOUS
 62
     3
 10
22725.012613585139
 20
14265.524259
 30
0.0
 11
22755.01023758516
 21
14265.524259
 31
0.0
  0
LINE
  5
1353E
  8
2-0
  6
CENTER2
 62
     6
 10
22712.511953585152
 20
13942.99139899999
 30
0.0
 11
22712.511953585152
 21
14748.36015700001
 31
0.0
  0
LINE
  5
1353F
  8
2-0
  6
CONTINUOUS
 62
     3
 10
22755.01023758516
 20
18238.081387999999
 30
0.0
 11
22755.01023758516
 21
18881.892105499999
 31
0.0
  0
LINE
  5
13540
  8
2-0
  6
CONTINUOUS
 62
     6
 10
19059.508786585149
 20
20090.487440000019
 30
0.0
 11
17859.514724585169
 21
20090.487440000019
 31
0.0
  0
LINE
  5
13541
  8
2-0
  6
CONTINUOUS
 62
     6
 10
19921.541619585169
 20
18803.586309499991
 30
0.0
 11
20353.072711585159
 21
18561.431801499992
 31
0.0
  0
LINE
  5
13542
  8
2-0
  6
CONTINUOUS
 62
     6
 10
19599.972785585189
 20
19503.164277
 30
0.0
 11
19059.508786585149
 21
20090.487440000019
 31
0.0
  0
LINE
  5
13543
  8
2-0
  6
CONTINUOUS
 62
     3
 10
22664.005830585142
 20
18166.984997999949
 30
0.0
 11
22711.011478585129
 21
18166.984997999949
 31
0.0
  0
LINE
  5
13544
  8
2-0
  6
CONTINUOUS
 62
     3
 10
22711.011478585129
 20
18251.985526
 30
0.0
 11
22664.005830585142
 21
18251.985526
 31
0.0
  0
LINE
  5
13545
  8
2-0
  6
CONTINUOUS
 62
     3
 10
22711.011478585129
 20
18166.984997999949
 30
0.0
 11
22711.011478585129
 21
18191.988296999989
 31
0.0
  0
LINE
  5
13546
  8
2-0
  6
CONTINUOUS
 62
     3
 10
22711.011478585129
 20
18226.984206000008
 30
0.0
 11
22711.011478585129
 21
18251.985526
 31
0.0
  0
LINE
  5
13547
  8
2-0
  6
CONTINUOUS
 62
     3
 10
22664.005830585142
 20
18251.985526
 30
0.0
 11
22664.005830585142
 21
18166.984997999949
 31
0.0
  0
LINE
  5
13548
  8
2-0
  6
CONTINUOUS
 62
     3
 10
22755.01023758516
 20
15963.88567249999
 30
0.0
 11
22755.01023758516
 21
15320.321899
 31
0.0
  0
LINE
  5
13549
  8
2-0
  6
CONTINUOUS
 62
     3
 10
22664.005830585142
 20
15248.98796800001
 30
0.0
 11
22711.011478585129
 21
15248.98796800001
 31
0.0
  0
LINE
  5
1354A
  8
2-0
  6
CONTINUOUS
 62
     3
 10
22711.011478585129
 20
15333.984535999991
 30
0.0
 11
22664.005830585142
 21
15333.984535999991
 31
0.0
  0
LINE
  5
1354B
  8
2-0
  6
CONTINUOUS
 62
     3
 10
22711.011478585129
 20
15248.98796800001
 30
0.0
 11
22711.011478585129
 21
15273.983349000009
 31
0.0
  0
LINE
  5
1354C
  8
2-0
  6
CONTINUOUS
 62
     3
 10
22711.011478585129
 20
15308.98321700001
 30
0.0
 11
22711.011478585129
 21
15333.984535999991
 31
0.0
  0
LINE
  5
1354D
  8
2-0
  6
CONTINUOUS
 62
     3
 10
22664.005830585142
 20
15333.984535999991
 30
0.0
 11
22664.005830585142
 21
15248.98796800001
 31
0.0
  0
LINE
  5
1354E
  8
2-0
  6
CONTINUOUS
 62
     6
 10
19934.598524585152
 20
18826.84565349999
 30
0.0
 11
19782.01129358515
 21
18881.892105499999
 31
0.0
  0
LINE
  5
1354F
  8
2-0
  6
CONTINUOUS
 62
     6
 10
19782.01129358515
 20
18881.892105499999
 30
0.0
 11
19908.492633585149
 21
18780.332905499949
 31
0.0
  0
LINE
  5
13550
  8
2-0
  6
CONTINUOUS
 62
     6
 10
19934.598524585152
 20
18826.84565349999
 30
0.0
 11
19908.492633585149
 21
18780.332905499949
 31
0.0
  0
LINE
  5
13551
  8
2-0
  6
CONTINUOUS
 62
     6
 10
19908.492633585149
 20
18780.332905499949
 30
0.0
 11
19782.01129358515
 21
18881.892105499999
 31
0.0
  0
LINE
  5
13552
  8
2-0
  6
CONTINUOUS
 62
     6
 10
19782.01129358515
 20
18881.892105499999
 30
0.0
 11
19934.598524585152
 21
18826.84565349999
 31
0.0
  0
LINE
  5
13553
  8
2-0
  6
CONTINUOUS
 62
     6
 10
19934.598524585152
 20
18826.84565349999
 30
0.0
 11
19782.01129358515
 21
18881.892105499999
 31
0.0
  0
LINE
  5
13554
  8
2-0
  6
CONTINUOUS
 62
     6
 10
19908.492633585149
 20
18780.332905499949
 30
0.0
 11
19782.01129358515
 21
18881.892105499999
 31
0.0
  0
LINE
  5
13555
  8
2-0
  6
CONTINUOUS
 62
     6
 10
19908.492633585149
 20
18780.332905499949
 30
0.0
 11
19934.598524585152
 21
18826.84565349999
 31
0.0
  0
LINE
  5
13556
  8
2-0
  6
CONTINUOUS
 62
     6
 10
19580.355756585159
 20
19485.10315000001
 30
0.0
 11
19708.31777658514
 21
19385.420532000011
 31
0.0
  0
LINE
  5
13557
  8
2-0
  6
CONTINUOUS
 62
     6
 10
19708.31777658514
 20
19385.420532000011
 30
0.0
 11
19619.603671585159
 21
19521.21748700002
 31
0.0
  0
LINE
  5
13558
  8
2-0
  6
CONTINUOUS
 62
     6
 10
19580.355756585159
 20
19485.10315000001
 30
0.0
 11
19619.603671585159
 21
19521.21748700002
 31
0.0
  0
LINE
  5
13559
  8
2-0
  6
CONTINUOUS
 62
     6
 10
19619.603671585159
 20
19521.21748700002
 30
0.0
 11
19708.31777658514
 21
19385.420532000011
 31
0.0
  0
LINE
  5
1355A
  8
2-0
  6
CONTINUOUS
 62
     6
 10
19708.31777658514
 20
19385.420532000011
 30
0.0
 11
19580.355756585159
 21
19485.10315000001
 31
0.0
  0
LINE
  5
1355B
  8
2-0
  6
CONTINUOUS
 62
     6
 10
19580.355756585159
 20
19485.10315000001
 30
0.0
 11
19708.31777658514
 21
19385.420532000011
 31
0.0
  0
LINE
  5
1355C
  8
2-0
  6
CONTINUOUS
 62
     6
 10
19619.603671585159
 20
19521.21748700002
 30
0.0
 11
19708.31777658514
 21
19385.420532000011
 31
0.0
  0
LINE
  5
1355D
  8
2-0
  6
CONTINUOUS
 62
     6
 10
19619.603671585159
 20
19521.21748700002
 30
0.0
 11
19580.355756585159
 21
19485.10315000001
 31
0.0
  0
LINE
  5
1355E
  8
2-0
  6
CONTINUOUS
 62
     6
 10
19998.33704358515
 20
15202.481158000001
 30
0.0
 11
19843.01807658514
 21
15249.22847900001
 31
0.0
  0
LINE
  5
1355F
  8
2-0
  6
CONTINUOUS
 62
     6
 10
19843.01807658514
 20
15249.22847900001
 30
0.0
 11
19974.778792585159
 21
15154.636194000021
 31
0.0
  0
LINE
  5
13560
  8
2-0
  6
CONTINUOUS
 62
     6
 10
19998.33704358515
 20
15202.481158000001
 30
0.0
 11
19974.778792585159
 21
15154.636194000021
 31
0.0
  0
LINE
  5
13561
  8
2-0
  6
CONTINUOUS
 62
     6
 10
19974.778792585159
 20
15154.636194000021
 30
0.0
 11
19843.01807658514
 21
15249.22847900001
 31
0.0
  0
LINE
  5
13562
  8
2-0
  6
CONTINUOUS
 62
     6
 10
19843.01807658514
 20
15249.22847900001
 30
0.0
 11
19998.33704358515
 21
15202.481158000001
 31
0.0
  0
LINE
  5
13563
  8
2-0
  6
CONTINUOUS
 62
     6
 10
19998.33704358515
 20
15202.481158000001
 30
0.0
 11
19843.01807658514
 21
15249.22847900001
 31
0.0
  0
LINE
  5
13564
  8
2-0
  6
CONTINUOUS
 62
     6
 10
19974.778792585159
 20
15154.636194000021
 30
0.0
 11
19843.01807658514
 21
15249.22847900001
 31
0.0
  0
LINE
  5
13565
  8
2-0
  6
CONTINUOUS
 62
     6
 10
19974.778792585159
 20
15154.636194000021
 30
0.0
 11
19998.33704358515
 21
15202.481158000001
 31
0.0
  0
LINE
  5
13566
  8
2-0
  6
CONTINUOUS
 62
     6
 10
20028.651390585139
 20
14032.216218999991
 30
0.0
 11
19896.90453158514
 21
14126.843145999999
 31
0.0
  0
LINE
  5
13567
  8
2-0
  6
CONTINUOUS
 62
     6
 10
19896.90453158514
 20
14126.843145999999
 30
0.0
 11
19990.834667585161
 21
13994.60437599999
 31
0.0
  0
LINE
  5
13568
  8
2-0
  6
CONTINUOUS
 62
     6
 10
20028.651390585139
 20
14032.216218999991
 30
0.0
 11
19990.834667585161
 21
13994.60437599999
 31
0.0
  0
LINE
  5
13569
  8
2-0
  6
CONTINUOUS
 62
     6
 10
19990.834667585161
 20
13994.60437599999
 30
0.0
 11
19896.90453158514
 21
14126.843145999999
 31
0.0
  0
LINE
  5
1356A
  8
2-0
  6
CONTINUOUS
 62
     6
 10
19896.90453158514
 20
14126.843145999999
 30
0.0
 11
20028.651390585139
 21
14032.216218999991
 31
0.0
  0
LINE
  5
1356B
  8
2-0
  6
CONTINUOUS
 62
     6
 10
20028.651390585139
 20
14032.216218999991
 30
0.0
 11
19896.90453158514
 21
14126.843145999999
 31
0.0
  0
LINE
  5
1356C
  8
2-0
  6
CONTINUOUS
 62
     6
 10
19990.834667585161
 20
13994.60437599999
 30
0.0
 11
19896.90453158514
 21
14126.843145999999
 31
0.0
  0
LINE
  5
1356D
  8
2-0
  6
CONTINUOUS
 62
     6
 10
19990.834667585161
 20
13994.60437599999
 30
0.0
 11
20028.651390585139
 21
14032.216218999991
 31
0.0
  0
LINE
  5
1356E
  8
2-0
  6
CONTINUOUS
 62
     6
 10
19965.615601585141
 20
14359.120845999991
 30
0.0
 11
19833.015569585172
 21
14265.692517999991
 31
0.0
  0
LINE
  5
1356F
  8
2-0
  6
CONTINUOUS
 62
     6
 10
19833.015569585172
 20
14265.692517999991
 30
0.0
 11
19988.748255585138
 21
14311.068031999999
 31
0.0
  0
LINE
  5
13570
  8
2-0
  6
CONTINUOUS
 62
     6
 10
19965.615601585141
 20
14359.120845999991
 30
0.0
 11
19988.748255585138
 21
14311.068031999999
 31
0.0
  0
LINE
  5
13571
  8
2-0
  6
CONTINUOUS
 62
     6
 10
19988.748255585138
 20
14311.068031999999
 30
0.0
 11
19833.015569585172
 21
14265.692517999991
 31
0.0
  0
LINE
  5
13572
  8
2-0
  6
CONTINUOUS
 62
     6
 10
19833.015569585172
 20
14265.692517999991
 30
0.0
 11
19965.615601585141
 21
14359.120845999991
 31
0.0
  0
LINE
  5
13573
  8
2-0
  6
CONTINUOUS
 62
     6
 10
19965.615601585141
 20
14359.120845999991
 30
0.0
 11
19833.015569585172
 21
14265.692517999991
 31
0.0
  0
LINE
  5
13574
  8
2-0
  6
CONTINUOUS
 62
     6
 10
19988.748255585138
 20
14311.068031999999
 30
0.0
 11
19833.015569585172
 21
14265.692517999991
 31
0.0
  0
LINE
  5
13575
  8
2-0
  6
CONTINUOUS
 62
     6
 10
19988.748255585138
 20
14311.068031999999
 30
0.0
 11
19965.615601585141
 21
14359.120845999991
 31
0.0
  0
LINE
  5
13576
  8
2-0
  6
CONTINUOUS
 62
     6
 10
19905.851955585149
 20
16388.441779000019
 30
0.0
 11
19752.01366958514
 21
16439.875610000021
 31
0.0
  0
LINE
  5
13577
  8
2-0
  6
CONTINUOUS
 62
     6
 10
19752.01366958514
 20
16439.875610000021
 30
0.0
 11
19880.84865658516
 21
16341.33517500002
 31
0.0
  0
LINE
  5
13578
  8
2-0
  6
CONTINUOUS
 62
     6
 10
19905.851955585149
 20
16388.441779000019
 30
0.0
 11
19880.84865658516
 21
16341.33517500002
 31
0.0
  0
LINE
  5
13579
  8
2-0
  6
CONTINUOUS
 62
     6
 10
19880.84865658516
 20
16341.33517500002
 30
0.0
 11
19752.01366958514
 21
16439.875610000021
 31
0.0
  0
LINE
  5
1357A
  8
2-0
  6
CONTINUOUS
 62
     6
 10
19752.01366958514
 20
16439.875610000021
 30
0.0
 11
19905.851955585149
 21
16388.441779000019
 31
0.0
  0
LINE
  5
1357B
  8
2-0
  6
CONTINUOUS
 62
     6
 10
19905.851955585149
 20
16388.441779000019
 30
0.0
 11
19752.01366958514
 21
16439.875610000021
 31
0.0
  0
LINE
  5
1357C
  8
2-0
  6
CONTINUOUS
 62
     6
 10
19880.84865658516
 20
16341.33517500002
 30
0.0
 11
19752.01366958514
 21
16439.875610000021
 31
0.0
  0
LINE
  5
1357D
  8
2-0
  6
CONTINUOUS
 62
     6
 10
19880.84865658516
 20
16341.33517500002
 30
0.0
 11
19905.851955585149
 21
16388.441779000019
 31
0.0
  0
LINE
  5
1357E
  8
2-0
  6
CONTINUOUS
 62
     6
 10
20039.788162585151
 20
16879.76027100001
 30
0.0
 11
19896.90453158514
 21
16802.984641999999
 31
0.0
  0
LINE
  5
1357F
  8
2-0
  6
CONTINUOUS
 62
     6
 10
19896.90453158514
 20
16802.984641999999
 30
0.0
 11
20056.966424585149
 21
16829.266711000018
 31
0.0
  0
LINE
  5
13580
  8
2-0
  6
CONTINUOUS
 62
     6
 10
20039.788162585151
 20
16879.76027100001
 30
0.0
 11
20056.966424585149
 21
16829.266711000018
 31
0.0
  0
LINE
  5
13581
  8
2-0
  6
CONTINUOUS
 62
     6
 10
20056.966424585149
 20
16829.266711000018
 30
0.0
 11
19896.90453158514
 21
16802.984641999999
 31
0.0
  0
LINE
  5
13582
  8
2-0
  6
CONTINUOUS
 62
     6
 10
19896.90453158514
 20
16802.984641999999
 30
0.0
 11
20039.788162585151
 21
16879.76027100001
 31
0.0
  0
LINE
  5
13583
  8
2-0
  6
CONTINUOUS
 62
     6
 10
20039.788162585151
 20
16879.76027100001
 30
0.0
 11
19896.90453158514
 21
16802.984641999999
 31
0.0
  0
LINE
  5
13584
  8
2-0
  6
CONTINUOUS
 62
     6
 10
20056.966424585149
 20
16829.266711000018
 30
0.0
 11
19896.90453158514
 21
16802.984641999999
 31
0.0
  0
LINE
  5
13585
  8
2-0
  6
CONTINUOUS
 62
     6
 10
20056.966424585149
 20
16829.266711000018
 30
0.0
 11
20039.788162585151
 21
16879.76027100001
 31
0.0
  0
LINE
  5
13586
  8
2-0
  6
CONTINUOUS
 62
     6
 10
19998.33704358515
 20
18120.240645999998
 30
0.0
 11
19843.01807658514
 21
18166.984997999949
 31
0.0
  0
LINE
  5
13587
  8
2-0
  6
CONTINUOUS
 62
     6
 10
19843.01807658514
 20
18166.984997999949
 30
0.0
 11
19974.778792585159
 21
18072.389743999989
 31
0.0
  0
LINE
  5
13588
  8
2-0
  6
CONTINUOUS
 62
     6
 10
19998.33704358515
 20
18120.240645999998
 30
0.0
 11
19974.778792585159
 21
18072.389743999989
 31
0.0
  0
LINE
  5
13589
  8
2-0
  6
CONTINUOUS
 62
     6
 10
19974.778792585159
 20
18072.389743999989
 30
0.0
 11
19843.01807658514
 21
18166.984997999949
 31
0.0
  0
LINE
  5
1358A
  8
2-0
  6
CONTINUOUS
 62
     6
 10
19843.01807658514
 20
18166.984997999949
 30
0.0
 11
19998.33704358515
 21
18120.240645999998
 31
0.0
  0
LINE
  5
1358B
  8
2-0
  6
CONTINUOUS
 62
     6
 10
19998.33704358515
 20
18120.240645999998
 30
0.0
 11
19843.01807658514
 21
18166.984997999949
 31
0.0
  0
LINE
  5
1358C
  8
2-0
  6
CONTINUOUS
 62
     6
 10
19974.778792585159
 20
18072.389743999989
 30
0.0
 11
19843.01807658514
 21
18166.984997999949
 31
0.0
  0
LINE
  5
1358D
  8
2-0
  6
CONTINUOUS
 62
     6
 10
19974.778792585159
 20
18072.389743999989
 30
0.0
 11
19998.33704358515
 21
18120.240645999998
 31
0.0
  0
LINE
  5
1358E
  8
2-0
  6
CONTINUOUS
 62
     3
 10
19782.013273585151
 20
19251.484325999991
 30
0.0
 11
19782.013273585151
 21
19245.488364000019
 31
0.0
  0
LINE
  5
1358F
  8
2-0
  6
CONTINUOUS
 62
     3
 10
19782.013273585151
 20
19245.488364000019
 30
0.0
 11
19752.015648585151
 21
19245.488364000019
 31
0.0
  0
LINE
  5
13590
  8
2-0
  6
CONTINUOUS
 62
     3
 10
19752.015648585151
 20
19245.488364000019
 30
0.0
 11
19752.015648585151
 21
19360.484537000018
 31
0.0
  0
LINE
  5
13591
  8
2-0
  6
CONTINUOUS
 62
     3
 10
19752.015648585151
 20
19275.487968000001
 30
0.0
 11
19833.01358958516
 21
19275.487968000001
 31
0.0
  0
LINE
  5
13592
  8
2-0
  6
CONTINUOUS
 62
     3
 10
19782.013273585151
 20
19235.19090799999
 30
0.0
 11
19752.015648585151
 21
19235.19090799999
 31
0.0
  0
LINE
  5
13593
  8
2-0
  6
CONTINUOUS
 62
     3
 10
19782.013273585151
 20
19253.192650000001
 30
0.0
 11
19782.013273585151
 21
19235.19090799999
 31
0.0
  0
LINE
  5
13594
  8
2-0
  6
CONTINUOUS
 62
     3
 10
19757.01987158514
 20
19253.192650000001
 30
0.0
 11
19782.013273585151
 21
19253.192650000001
 31
0.0
  0
LINE
  5
13595
  8
2-0
  6
CONTINUOUS
 62
     3
 10
19757.01987158514
 20
19248.184467999999
 30
0.0
 11
19757.01987158514
 21
19253.192650000001
 31
0.0
  0
LINE
  5
13596
  8
2-0
  6
CONTINUOUS
 62
     3
 10
19764.017469585131
 20
19248.184467999999
 30
0.0
 11
19757.01987158514
 21
19248.184467999999
 31
0.0
  0
LINE
  5
13597
  8
2-0
  6
CONTINUOUS
 62
     3
 10
19864.311758585129
 20
19348.484694999999
 30
0.0
 11
19864.311758585129
 21
19355.490211000011
 31
0.0
  0
LINE
  5
13598
  8
2-0
  6
CONTINUOUS
 62
     3
 10
19864.311758585129
 20
19355.490211000011
 30
0.0
 11
19859.309514585151
 21
19355.490211000011
 31
0.0
  0
LINE
  5
13599
  8
2-0
  6
CONTINUOUS
 62
     3
 10
19859.309514585151
 20
19355.490211000011
 30
0.0
 11
19859.309514585151
 21
19330.480973999998
 31
0.0
  0
LINE
  5
1359A
  8
2-0
  6
CONTINUOUS
 62
     3
 10
19859.309514585151
 20
19330.480973999998
 30
0.0
 11
19877.317195585139
 21
19330.480973999998
 31
0.0
  0
LINE
  5
1359B
  8
2-0
  6
CONTINUOUS
 62
     3
 10
19877.317195585139
 20
19330.480973999998
 30
0.0
 11
19877.317195585139
 21
19360.484537000018
 31
0.0
  0
LINE
  5
1359C
  8
2-0
  6
CONTINUOUS
 62
     3
 10
19867.017759585149
 20
19360.484537000018
 30
0.0
 11
19752.015648585151
 21
19360.484537000018
 31
0.0
  0
LINE
  5
1359D
  8
2-0
  6
CONTINUOUS
 62
     3
 10
19867.017759585149
 20
19330.480973999998
 30
0.0
 11
19867.017759585149
 21
19360.484537000018
 31
0.0
  0
LINE
  5
1359E
  8
2-0
  6
CONTINUOUS
 62
     3
 10
19861.013880585138
 20
19330.480973999998
 30
0.0
 11
19867.017759585149
 21
19330.480973999998
 31
0.0
  0
LINE
  5
1359F
  8
2-0
  6
CONTINUOUS
 62
     3
 10
19782.013273585151
 20
19251.484325999991
 30
0.0
 11
19782.013273585151
 21
19245.488364000019
 31
0.0
  0
LINE
  5
135A0
  8
2-0
  6
CONTINUOUS
 62
     3
 10
19782.013273585151
 20
19245.488364000019
 30
0.0
 11
19752.015648585151
 21
19245.488364000019
 31
0.0
  0
LINE
  5
135A1
  8
2-0
  6
CONTINUOUS
 62
     3
 10
19752.015648585151
 20
19245.488364000019
 30
0.0
 11
19752.015648585151
 21
19360.484537000018
 31
0.0
  0
LINE
  5
135A2
  8
2-0
  6
CONTINUOUS
 62
     3
 10
19752.015648585151
 20
19275.487968000001
 30
0.0
 11
19833.01358958516
 21
19275.487968000001
 31
0.0
  0
LINE
  5
135A3
  8
2-0
  6
CONTINUOUS
 62
     3
 10
19782.013273585151
 20
19235.19090799999
 30
0.0
 11
19752.015648585151
 21
19235.19090799999
 31
0.0
  0
LINE
  5
135A4
  8
2-0
  6
CONTINUOUS
 62
     3
 10
19782.013273585151
 20
19253.192650000001
 30
0.0
 11
19782.013273585151
 21
19235.19090799999
 31
0.0
  0
LINE
  5
135A5
  8
2-0
  6
CONTINUOUS
 62
     3
 10
19757.01987158514
 20
19253.192650000001
 30
0.0
 11
19782.013273585151
 21
19253.192650000001
 31
0.0
  0
LINE
  5
135A6
  8
2-0
  6
CONTINUOUS
 62
     3
 10
19757.01987158514
 20
19248.184467999999
 30
0.0
 11
19757.01987158514
 21
19253.192650000001
 31
0.0
  0
LINE
  5
135A7
  8
2-0
  6
CONTINUOUS
 62
     3
 10
19764.017469585131
 20
19248.184467999999
 30
0.0
 11
19757.01987158514
 21
19248.184467999999
 31
0.0
  0
LINE
  5
135A8
  8
2-0
  6
CONTINUOUS
 62
     3
 10
19764.017469585131
 20
18894.887645499952
 30
0.0
 11
19757.01987158514
 21
18894.887645499952
 31
0.0
  0
LINE
  5
135A9
  8
2-0
  6
CONTINUOUS
 62
     3
 10
19757.01987158514
 20
18894.887645499952
 30
0.0
 11
19757.01987158514
 21
18899.88790949999
 31
0.0
  0
LINE
  5
135AA
  8
2-0
  6
CONTINUOUS
 62
     3
 10
19757.01987158514
 20
18899.88790949999
 30
0.0
 11
19782.013273585151
 21
18899.88790949999
 31
0.0
  0
LINE
  5
135AB
  8
2-0
  6
CONTINUOUS
 62
     3
 10
19782.013273585151
 20
18899.88790949999
 30
0.0
 11
19782.013273585151
 21
18881.892105499981
 31
0.0
  0
LINE
  5
135AC
  8
2-0
  6
CONTINUOUS
 62
     3
 10
19782.013273585151
 20
18881.892105499981
 30
0.0
 11
19752.015648585151
 21
18881.892105499981
 31
0.0
  0
LINE
  5
135AD
  8
2-0
  6
CONTINUOUS
 62
     3
 10
19782.013273585151
 20
18897.98361249996
 30
0.0
 11
19782.013273585151
 21
18891.985671499991
 31
0.0
  0
LINE
  5
135AE
  8
2-0
  6
CONTINUOUS
 62
     3
 10
19782.013273585151
 20
18891.985671499991
 30
0.0
 11
19752.015648585151
 21
18891.985671499991
 31
0.0
  0
LINE
  5
135AF
  8
2-0
  6
CONTINUOUS
 62
     3
 10
19752.015648585151
 20
18891.985671499991
 30
0.0
 11
19752.015648585151
 21
18928.986832499981
 31
0.0
  0
LINE
  5
135B0
  8
2-0
  6
CONTINUOUS
 62
     3
 10
19782.013273585151
 20
18928.986832499981
 30
0.0
 11
19752.015648585151
 21
18928.986832499981
 31
0.0
  0
LINE
  5
135B1
  8
2-0
  6
CONTINUOUS
 62
     3
 10
19782.013273585151
 20
18922.982952499991
 30
0.0
 11
19782.013273585151
 21
18928.986832499981
 31
0.0
  0
LINE
  5
135B2
  8
2-0
  6
CONTINUOUS
 62
     3
 10
19782.013273585151
 20
18939.082377499959
 30
0.0
 11
19752.015648585151
 21
18939.082377499959
 31
0.0
  0
LINE
  5
135B3
  8
2-0
  6
CONTINUOUS
 62
     3
 10
19782.013273585151
 20
18921.080635499999
 30
0.0
 11
19782.013273585151
 21
18939.082377499959
 31
0.0
  0
LINE
  5
135B4
  8
2-0
  6
CONTINUOUS
 62
     3
 10
19757.01987158514
 20
18921.080635499999
 30
0.0
 11
19782.013273585151
 21
18921.080635499999
 31
0.0
  0
LINE
  5
135B5
  8
2-0
  6
CONTINUOUS
 62
     3
 10
19757.01987158514
 20
18926.08089949999
 30
0.0
 11
19757.01987158514
 21
18921.080635499999
 31
0.0
  0
LINE
  5
135B6
  8
2-0
  6
CONTINUOUS
 62
     3
 10
19764.017469585131
 20
18926.08089949999
 30
0.0
 11
19757.01987158514
 21
18926.08089949999
 31
0.0
  0
LINE
  5
135B7
  8
2-0
  6
CONTINUOUS
 62
     3
 10
19764.017469585131
 20
18193.886655999991
 30
0.0
 11
19757.01987158514
 21
18193.886655999991
 31
0.0
  0
LINE
  5
135B8
  8
2-0
  6
CONTINUOUS
 62
     3
 10
19757.01987158514
 20
18193.886655999991
 30
0.0
 11
19757.01987158514
 21
18198.892857999959
 31
0.0
  0
LINE
  5
135B9
  8
2-0
  6
CONTINUOUS
 62
     3
 10
19757.01987158514
 20
18198.892857999959
 30
0.0
 11
19782.013273585151
 21
18198.892857999959
 31
0.0
  0
LINE
  5
135BA
  8
2-0
  6
CONTINUOUS
 62
     3
 10
19782.013273585151
 20
18198.892857999959
 30
0.0
 11
19782.013273585151
 21
18180.891115999999
 31
0.0
  0
LINE
  5
135BB
  8
2-0
  6
CONTINUOUS
 62
     3
 10
19782.013273585151
 20
18180.891115999999
 30
0.0
 11
19752.015648585151
 21
18180.891115999999
 31
0.0
  0
LINE
  5
135BC
  8
2-0
  6
CONTINUOUS
 62
     3
 10
19782.013273585151
 20
18196.98262299996
 30
0.0
 11
19782.013273585151
 21
18190.986660999981
 31
0.0
  0
LINE
  5
135BD
  8
2-0
  6
CONTINUOUS
 62
     3
 10
19782.013273585151
 20
18190.986660999981
 30
0.0
 11
19752.015648585151
 21
18190.986660999981
 31
0.0
  0
LINE
  5
135BE
  8
2-0
  6
CONTINUOUS
 62
     3
 10
19752.015648585151
 20
18190.986660999981
 30
0.0
 11
19752.015648585151
 21
18227.985842999991
 31
0.0
  0
LINE
  5
135BF
  8
2-0
  6
CONTINUOUS
 62
     3
 10
19782.013273585151
 20
18227.985842999991
 30
0.0
 11
19752.015648585151
 21
18227.985842999991
 31
0.0
  0
LINE
  5
135C0
  8
2-0
  6
CONTINUOUS
 62
     3
 10
19782.013273585151
 20
18221.98988099999
 30
0.0
 11
19782.013273585151
 21
18227.985842999991
 31
0.0
  0
LINE
  5
135C1
  8
2-0
  6
CONTINUOUS
 62
     3
 10
19782.013273585151
 20
18238.081387999999
 30
0.0
 11
19752.015648585151
 21
18238.081387999999
 31
0.0
  0
LINE
  5
135C2
  8
2-0
  6
CONTINUOUS
 62
     3
 10
19782.013273585151
 20
18220.079645999991
 30
0.0
 11
19782.013273585151
 21
18238.081387999999
 31
0.0
  0
LINE
  5
135C3
  8
2-0
  6
CONTINUOUS
 62
     3
 10
19757.01987158514
 20
18220.079645999991
 30
0.0
 11
19782.013273585151
 21
18220.079645999991
 31
0.0
  0
LINE
  5
135C4
  8
2-0
  6
CONTINUOUS
 62
     3
 10
19757.01987158514
 20
18225.085847999981
 30
0.0
 11
19757.01987158514
 21
18220.079645999991
 31
0.0
  0
LINE
  5
135C5
  8
2-0
  6
CONTINUOUS
 62
     3
 10
19764.017469585131
 20
18225.085847999981
 30
0.0
 11
19757.01987158514
 21
18225.085847999981
 31
0.0
  0
LINE
  5
135C6
  8
2-0
  6
CONTINUOUS
 62
     3
 10
19764.017469585131
 20
17524.079909999989
 30
0.0
 11
19757.01987158514
 21
17524.079909999989
 31
0.0
  0
LINE
  5
135C7
  8
2-0
  6
CONTINUOUS
 62
     3
 10
19757.01987158514
 20
17524.079909999989
 30
0.0
 11
19757.01987158514
 21
17519.091522999988
 31
0.0
  0
LINE
  5
135C8
  8
2-0
  6
CONTINUOUS
 62
     3
 10
19757.01987158514
 20
17519.091522999988
 30
0.0
 11
19782.013273585151
 21
17519.091522999988
 31
0.0
  0
LINE
  5
135C9
  8
2-0
  6
CONTINUOUS
 62
     3
 10
19782.013273585151
 20
17519.091522999988
 30
0.0
 11
19782.013273585151
 21
17537.08732599999
 31
0.0
  0
LINE
  5
135CA
  8
2-0
  6
CONTINUOUS
 62
     3
 10
19782.013273585151
 20
17537.08732599999
 30
0.0
 11
19752.015648585151
 21
17537.08732599999
 31
0.0
  0
LINE
  5
135CB
  8
2-0
  6
CONTINUOUS
 62
     3
 10
19782.013273585151
 20
17520.98988099999
 30
0.0
 11
19782.013273585151
 21
17526.985842999991
 31
0.0
  0
LINE
  5
135CC
  8
2-0
  6
CONTINUOUS
 62
     3
 10
19782.013273585151
 20
17526.985842999991
 30
0.0
 11
19752.015648585151
 21
17526.985842999991
 31
0.0
  0
LINE
  5
135CD
  8
2-0
  6
CONTINUOUS
 62
     3
 10
19752.015648585151
 20
17526.985842999991
 30
0.0
 11
19752.015648585151
 21
17489.986660999992
 31
0.0
  0
LINE
  5
135CE
  8
2-0
  6
CONTINUOUS
 62
     3
 10
19782.013273585151
 20
17489.986660999992
 30
0.0
 11
19752.015648585151
 21
17489.986660999992
 31
0.0
  0
LINE
  5
135CF
  8
2-0
  6
CONTINUOUS
 62
     3
 10
19782.013273585151
 20
17495.98856199998
 30
0.0
 11
19782.013273585151
 21
17489.986660999992
 31
0.0
  0
LINE
  5
135D0
  8
2-0
  6
CONTINUOUS
 62
     3
 10
19782.013273585151
 20
17479.89705499999
 30
0.0
 11
19752.015648585151
 21
17479.89705499999
 31
0.0
  0
LINE
  5
135D1
  8
2-0
  6
CONTINUOUS
 62
     3
 10
19782.013273585151
 20
17497.892857999988
 30
0.0
 11
19782.013273585151
 21
17479.89705499999
 31
0.0
  0
LINE
  5
135D2
  8
2-0
  6
CONTINUOUS
 62
     3
 10
19757.01987158514
 20
17497.892857999988
 30
0.0
 11
19782.013273585151
 21
17497.892857999988
 31
0.0
  0
LINE
  5
135D3
  8
2-0
  6
CONTINUOUS
 62
     3
 10
19757.01987158514
 20
17492.89259499999
 30
0.0
 11
19757.01987158514
 21
17497.892857999988
 31
0.0
  0
LINE
  5
135D4
  8
2-0
  6
CONTINUOUS
 62
     3
 10
19764.017469585131
 20
17492.89259499999
 30
0.0
 11
19757.01987158514
 21
17492.89259499999
 31
0.0
  0
LINE
  5
135D5
  8
2-0
  6
CONTINUOUS
 62
     3
 10
19754.901786585138
 20
16772.983480999988
 30
0.0
 11
19754.901786585138
 21
16792.984536
 31
0.0
  0
LINE
  5
135D6
  8
2-0
  6
CONTINUOUS
 62
     3
 10
19754.901786585138
 20
16792.984536
 30
0.0
 11
19839.902314585139
 21
16792.984536
 31
0.0
  0
LINE
  5
135D7
  8
2-0
  6
CONTINUOUS
 62
     3
 10
19764.017469585131
 20
16819.591246
 30
0.0
 11
19757.01987158514
 21
16819.591246
 31
0.0
  0
LINE
  5
135D8
  8
2-0
  6
CONTINUOUS
 62
     3
 10
19757.01987158514
 20
16819.591246
 30
0.0
 11
19757.01987158514
 21
16814.59692
 31
0.0
  0
LINE
  5
135D9
  8
2-0
  6
CONTINUOUS
 62
     3
 10
19757.01987158514
 20
16814.59692
 30
0.0
 11
19782.013273585151
 21
16814.59692
 31
0.0
  0
LINE
  5
135DA
  8
2-0
  6
CONTINUOUS
 62
     3
 10
19782.013273585151
 20
16814.59692
 30
0.0
 11
19782.013273585151
 21
16832.592723999998
 31
0.0
  0
LINE
  5
135DB
  8
2-0
  6
CONTINUOUS
 62
     3
 10
19782.013273585151
 20
16832.592723999998
 30
0.0
 11
19752.015648585151
 21
16832.592723999998
 31
0.0
  0
LINE
  5
135DC
  8
2-0
  6
CONTINUOUS
 62
     3
 10
19782.013273585151
 20
16822.98413999999
 30
0.0
 11
19782.013273585151
 21
16816.98223999999
 31
0.0
  0
LINE
  5
135DD
  8
2-0
  6
CONTINUOUS
 62
     3
 10
19752.015648585151
 20
16822.98413999999
 30
0.0
 11
19782.013273585151
 21
16822.98413999999
 31
0.0
  0
LINE
  5
135DE
  8
2-0
  6
CONTINUOUS
 62
     3
 10
19752.015648585151
 20
16832.592723999998
 30
0.0
 11
19752.015648585151
 21
17479.89705499999
 31
0.0
  0
LINE
  5
135DF
  8
2-0
  6
CONTINUOUS
 62
     3
 10
19752.015648585151
 20
17537.08732599999
 30
0.0
 11
19752.015648585151
 21
18180.891115999999
 31
0.0
  0
LINE
  5
135E0
  8
2-0
  6
CONTINUOUS
 62
     3
 10
19752.015648585151
 20
16677.982424999998
 30
0.0
 11
19782.013273585151
 21
16677.982424999998
 31
0.0
  0
LINE
  5
135E1
  8
2-0
  6
CONTINUOUS
 62
     3
 10
19782.013273585151
 20
16677.982424999998
 30
0.0
 11
19782.013273585151
 21
16683.98432499999
 31
0.0
  0
LINE
  5
135E2
  8
2-0
  6
CONTINUOUS
 62
     3
 10
19839.902314585139
 20
16707.987968000001
 30
0.0
 11
19754.901786585138
 21
16707.987968000001
 31
0.0
  0
LINE
  5
135E3
  8
2-0
  6
CONTINUOUS
 62
     3
 10
19754.901786585138
 20
16707.987968000001
 30
0.0
 11
19754.901786585138
 21
16727.983085
 31
0.0
  0
LINE
  5
135E4
  8
2-0
  6
CONTINUOUS
 62
     3
 10
19782.013273585151
 20
16668.373842000012
 30
0.0
 11
19752.015648585151
 21
16668.373842000012
 31
0.0
  0
LINE
  5
135E5
  8
2-0
  6
CONTINUOUS
 62
     3
 10
19782.013273585151
 20
16686.369644999992
 30
0.0
 11
19782.013273585151
 21
16668.373842000012
 31
0.0
  0
LINE
  5
135E6
  8
2-0
  6
CONTINUOUS
 62
     3
 10
19757.01987158514
 20
16686.369644999992
 30
0.0
 11
19782.013273585151
 21
16686.369644999992
 31
0.0
  0
LINE
  5
135E7
  8
2-0
  6
CONTINUOUS
 62
     3
 10
19757.01987158514
 20
16681.36938099999
 30
0.0
 11
19757.01987158514
 21
16686.369644999992
 31
0.0
  0
LINE
  5
135E8
  8
2-0
  6
CONTINUOUS
 62
     3
 10
19764.017469585131
 20
16681.36938099999
 30
0.0
 11
19757.01987158514
 21
16681.36938099999
 31
0.0
  0
LINE
  5
135E9
  8
2-0
  6
CONTINUOUS
 62
     3
 10
19764.017469585131
 20
15976.887150499981
 30
0.0
 11
19757.01987158514
 21
15976.887150499981
 31
0.0
  0
LINE
  5
135EA
  8
2-0
  6
CONTINUOUS
 62
     3
 10
19757.01987158514
 20
15976.887150499981
 30
0.0
 11
19757.01987158514
 21
15981.887414499981
 31
0.0
  0
LINE
  5
135EB
  8
2-0
  6
CONTINUOUS
 62
     3
 10
19757.01987158514
 20
15981.887414499981
 30
0.0
 11
19782.013273585151
 21
15981.887414499981
 31
0.0
  0
LINE
  5
135EC
  8
2-0
  6
CONTINUOUS
 62
     3
 10
19782.013273585151
 20
15981.887414499981
 30
0.0
 11
19782.013273585151
 21
15963.885672499981
 31
0.0
  0
LINE
  5
135ED
  8
2-0
  6
CONTINUOUS
 62
     3
 10
19782.013273585151
 20
15963.885672499981
 30
0.0
 11
19752.015648585151
 21
15963.885672499981
 31
0.0
  0
LINE
  5
135EE
  8
2-0
  6
CONTINUOUS
 62
     3
 10
19782.013273585151
 20
15979.983117499991
 30
0.0
 11
19782.013273585151
 21
15973.98616649999
 31
0.0
  0
LINE
  5
135EF
  8
2-0
  6
CONTINUOUS
 62
     3
 10
19782.013273585151
 20
15973.98616649999
 30
0.0
 11
19752.015648585151
 21
15973.98616649999
 31
0.0
  0
LINE
  5
135F0
  8
2-0
  6
CONTINUOUS
 62
     3
 10
19752.015648585151
 20
15973.98616649999
 30
0.0
 11
19752.015648585151
 21
16010.9863375
 31
0.0
  0
LINE
  5
135F1
  8
2-0
  6
CONTINUOUS
 62
     3
 10
19782.013273585151
 20
16010.9863375
 30
0.0
 11
19752.015648585151
 21
16010.9863375
 31
0.0
  0
LINE
  5
135F2
  8
2-0
  6
CONTINUOUS
 62
     3
 10
19782.013273585151
 20
16004.98344749999
 30
0.0
 11
19782.013273585151
 21
16010.9863375
 31
0.0
  0
LINE
  5
135F3
  8
2-0
  6
CONTINUOUS
 62
     3
 10
19782.013273585151
 20
16021.081882500001
 30
0.0
 11
19752.015648585151
 21
16021.081882500001
 31
0.0
  0
LINE
  5
135F4
  8
2-0
  6
CONTINUOUS
 62
     3
 10
19782.013273585151
 20
16003.074201499991
 30
0.0
 11
19782.013273585151
 21
16021.081882500001
 31
0.0
  0
LINE
  5
135F5
  8
2-0
  6
CONTINUOUS
 62
     3
 10
19757.01987158514
 20
16003.074201499991
 30
0.0
 11
19782.013273585151
 21
16003.074201499991
 31
0.0
  0
LINE
  5
135F6
  8
2-0
  6
CONTINUOUS
 62
     3
 10
19757.01987158514
 20
16008.0804045
 30
0.0
 11
19757.01987158514
 21
16003.074201499991
 31
0.0
  0
LINE
  5
135F7
  8
2-0
  6
CONTINUOUS
 62
     3
 10
19764.017469585131
 20
16008.0804045
 30
0.0
 11
19757.01987158514
 21
16008.0804045
 31
0.0
  0
LINE
  5
135F8
  8
2-0
  6
CONTINUOUS
 62
     3
 10
19764.017469585131
 20
15307.320421000009
 30
0.0
 11
19757.01987158514
 21
15307.320421000009
 31
0.0
  0
LINE
  5
135F9
  8
2-0
  6
CONTINUOUS
 62
     3
 10
19757.01987158514
 20
15307.320421000009
 30
0.0
 11
19757.01987158514
 21
15302.326096000001
 31
0.0
  0
LINE
  5
135FA
  8
2-0
  6
CONTINUOUS
 62
     3
 10
19757.01987158514
 20
15302.326096000001
 30
0.0
 11
19782.013273585151
 21
15302.326096000001
 31
0.0
  0
LINE
  5
135FB
  8
2-0
  6
CONTINUOUS
 62
     3
 10
19782.013273585151
 20
15302.326096000001
 30
0.0
 11
19782.013273585151
 21
15320.321899
 31
0.0
  0
LINE
  5
135FC
  8
2-0
  6
CONTINUOUS
 62
     3
 10
19782.013273585151
 20
15320.321899
 30
0.0
 11
19752.015648585151
 21
15320.321899
 31
0.0
  0
LINE
  5
135FD
  8
2-0
  6
CONTINUOUS
 62
     3
 10
19782.013273585151
 20
15304.224453999999
 30
0.0
 11
19782.013273585151
 21
15310.226354000009
 31
0.0
  0
LINE
  5
135FE
  8
2-0
  6
CONTINUOUS
 62
     3
 10
19782.013273585151
 20
15310.226354000009
 30
0.0
 11
19752.015648585151
 21
15310.226354000009
 31
0.0
  0
LINE
  5
135FF
  8
2-0
  6
CONTINUOUS
 62
     3
 10
19752.015648585151
 20
15273.22717300001
 30
0.0
 11
19752.015648585151
 21
15310.226354000009
 31
0.0
  0
LINE
  5
13600
  8
2-0
  6
CONTINUOUS
 62
     3
 10
19782.013273585151
 20
15273.22717300001
 30
0.0
 11
19752.015648585151
 21
15273.22717300001
 31
0.0
  0
LINE
  5
13601
  8
2-0
  6
CONTINUOUS
 62
     3
 10
19782.013273585151
 20
15279.224123999989
 30
0.0
 11
19782.013273585151
 21
15273.22717300001
 31
0.0
  0
LINE
  5
13602
  8
2-0
  6
CONTINUOUS
 62
     3
 10
19782.013273585151
 20
15263.125689
 30
0.0
 11
19752.015648585151
 21
15263.125689
 31
0.0
  0
LINE
  5
13603
  8
2-0
  6
CONTINUOUS
 62
     3
 10
19782.013273585151
 20
15281.13337
 30
0.0
 11
19782.013273585151
 21
15263.125689
 31
0.0
  0
LINE
  5
13604
  8
2-0
  6
CONTINUOUS
 62
     3
 10
19757.01987158514
 20
15281.13337
 30
0.0
 11
19782.013273585151
 21
15281.13337
 31
0.0
  0
LINE
  5
13605
  8
2-0
  6
CONTINUOUS
 62
     3
 10
19757.01987158514
 20
15276.13310600001
 30
0.0
 11
19757.01987158514
 21
15281.13337
 31
0.0
  0
LINE
  5
13606
  8
2-0
  6
CONTINUOUS
 62
     3
 10
19764.017469585131
 20
15276.13310600001
 30
0.0
 11
19757.01987158514
 21
15276.13310600001
 31
0.0
  0
LINE
  5
13607
  8
2-0
  6
CONTINUOUS
 62
     3
 10
19752.015648585151
 20
16668.373842000012
 30
0.0
 11
19752.015648585151
 21
16021.081882500001
 31
0.0
  0
LINE
  5
13608
  8
2-0
  6
CONTINUOUS
 62
     3
 10
19752.015648585151
 20
16822.98413999999
 30
0.0
 11
19752.015648585151
 21
16677.982424999998
 31
0.0
  0
LINE
  5
13609
  8
2-0
  6
CONTINUOUS
 62
     3
 10
19839.902314585139
 20
16792.984536
 30
0.0
 11
19839.902314585139
 21
16707.987968000001
 31
0.0
  0
LINE
  5
1360A
  8
2-0
  6
CONTINUOUS
 62
     3
 10
19764.017469585131
 20
14574.892099000001
 30
0.0
 11
19757.01987158514
 21
14574.892099000001
 31
0.0
  0
LINE
  5
1360B
  8
2-0
  6
CONTINUOUS
 62
     3
 10
19757.01987158514
 20
14574.892099000001
 30
0.0
 11
19757.01987158514
 21
14579.886425000001
 31
0.0
  0
LINE
  5
1360C
  8
2-0
  6
CONTINUOUS
 62
     3
 10
19757.01987158514
 20
14579.886425000001
 30
0.0
 11
19782.013273585151
 21
14579.886425000001
 31
0.0
  0
LINE
  5
1360D
  8
2-0
  6
CONTINUOUS
 62
     3
 10
19782.013273585151
 20
14579.886425000001
 30
0.0
 11
19782.013273585151
 21
14561.890621
 31
0.0
  0
LINE
  5
1360E
  8
2-0
  6
CONTINUOUS
 62
     3
 10
19782.013273585151
 20
14561.890621
 30
0.0
 11
19752.015648585151
 21
14561.890621
 31
0.0
  0
LINE
  5
1360F
  8
2-0
  6
CONTINUOUS
 62
     3
 10
19782.013273585151
 20
14577.989056000009
 30
0.0
 11
19782.013273585151
 21
14571.986166000001
 31
0.0
  0
LINE
  5
13610
  8
2-0
  6
CONTINUOUS
 62
     3
 10
19782.013273585151
 20
14571.986166000001
 30
0.0
 11
19752.015648585151
 21
14571.986166000001
 31
0.0
  0
LINE
  5
13611
  8
2-0
  6
CONTINUOUS
 62
     3
 10
19752.015648585151
 20
14571.986166000001
 30
0.0
 11
19752.015648585151
 21
14608.986337999981
 31
0.0
  0
LINE
  5
13612
  8
2-0
  6
CONTINUOUS
 62
     3
 10
19782.013273585151
 20
14608.986337999981
 30
0.0
 11
19752.015648585151
 21
14608.986337999981
 31
0.0
  0
LINE
  5
13613
  8
2-0
  6
CONTINUOUS
 62
     3
 10
19782.013273585151
 20
14602.989385999999
 30
0.0
 11
19782.013273585151
 21
14608.986337999981
 31
0.0
  0
LINE
  5
13614
  8
2-0
  6
CONTINUOUS
 62
     3
 10
19782.013273585151
 20
14619.086831000001
 30
0.0
 11
19752.015648585151
 21
14619.086831000001
 31
0.0
  0
LINE
  5
13615
  8
2-0
  6
CONTINUOUS
 62
     3
 10
19782.013273585151
 20
14601.080140000009
 30
0.0
 11
19782.013273585151
 21
14619.086831000001
 31
0.0
  0
LINE
  5
13616
  8
2-0
  6
CONTINUOUS
 62
     3
 10
19757.01987158514
 20
14601.080140000009
 30
0.0
 11
19782.013273585151
 21
14601.080140000009
 31
0.0
  0
LINE
  5
13617
  8
2-0
  6
CONTINUOUS
 62
     3
 10
19757.01987158514
 20
14606.085353000009
 30
0.0
 11
19757.01987158514
 21
14601.080140000009
 31
0.0
  0
LINE
  5
13618
  8
2-0
  6
CONTINUOUS
 62
     3
 10
19764.017469585131
 20
14606.085353000009
 30
0.0
 11
19757.01987158514
 21
14606.085353000009
 31
0.0
  0
LINE
  5
13619
  8
2-0
  6
CONTINUOUS
 62
     3
 10
19782.013273585151
 20
14249.488178999991
 30
0.0
 11
19782.013273585151
 21
14255.493048
 31
0.0
  0
LINE
  5
1361A
  8
2-0
  6
CONTINUOUS
 62
     3
 10
19782.013273585151
 20
14255.493048
 30
0.0
 11
19752.015648585151
 21
14255.493048
 31
0.0
  0
LINE
  5
1361B
  8
2-0
  6
CONTINUOUS
 62
     3
 10
19752.015648585151
 20
14255.493048
 30
0.0
 11
19752.015648585151
 21
14140.48895699999
 31
0.0
  0
LINE
  5
1361C
  8
2-0
  6
CONTINUOUS
 62
     3
 10
19752.015648585151
 20
14140.48895699999
 30
0.0
 11
19837.01419658514
 21
14140.48895699999
 31
0.0
  0
LINE
  5
1361D
  8
2-0
  6
CONTINUOUS
 62
     3
 10
19837.01419658514
 20
14140.48895699999
 30
0.0
 11
19837.01419658514
 21
14225.484536
 31
0.0
  0
LINE
  5
1361E
  8
2-0
  6
CONTINUOUS
 62
     3
 10
19837.01419658514
 20
14225.484536
 30
0.0
 11
19805.01725858514
 21
14225.484536
 31
0.0
  0
LINE
  5
1361F
  8
2-0
  6
CONTINUOUS
 62
     3
 10
19764.017469585131
 20
14252.522780999991
 30
0.0
 11
19757.01987158514
 21
14252.522780999991
 31
0.0
  0
LINE
  5
13620
  8
2-0
  6
CONTINUOUS
 62
     3
 10
19757.01987158514
 20
14252.522780999991
 30
0.0
 11
19757.01987158514
 21
14247.52548599998
 31
0.0
  0
LINE
  5
13621
  8
2-0
  6
CONTINUOUS
 62
     3
 10
19757.01987158514
 20
14247.52548599998
 30
0.0
 11
19782.013273585151
 21
14247.52548599998
 31
0.0
  0
LINE
  5
13622
  8
2-0
  6
CONTINUOUS
 62
     3
 10
19782.013273585151
 20
14247.52548599998
 30
0.0
 11
19782.013273585151
 21
14265.524259
 31
0.0
  0
LINE
  5
13623
  8
2-0
  6
CONTINUOUS
 62
     3
 10
19782.013273585151
 20
14265.524259
 30
0.0
 11
19752.015648585151
 21
14265.524259
 31
0.0
  0
LINE
  5
13624
  8
2-0
  6
CONTINUOUS
 62
     3
 10
19752.015648585151
 20
14619.086831000001
 30
0.0
 11
19752.015648585151
 21
15263.125689
 31
0.0
  0
LINE
  5
13625
  8
2-0
  6
CONTINUOUS
 62
     3
 10
19752.015648585151
 20
18238.081387999999
 30
0.0
 11
19752.015648585151
 21
18881.892105499981
 31
0.0
  0
LINE
  5
13626
  8
2-0
  6
CONTINUOUS
 62
     3
 10
19843.01807658514
 20
18166.984997999949
 30
0.0
 11
19796.014407585139
 21
18166.984997999949
 31
0.0
  0
LINE
  5
13627
  8
2-0
  6
CONTINUOUS
 62
     3
 10
19796.014407585139
 20
18251.985526
 30
0.0
 11
19843.01807658514
 21
18251.985526
 31
0.0
  0
LINE
  5
13628
  8
2-0
  6
CONTINUOUS
 62
     3
 10
19796.014407585139
 20
18166.984997999949
 30
0.0
 11
19796.014407585139
 21
18191.988296999989
 31
0.0
  0
LINE
  5
13629
  8
2-0
  6
CONTINUOUS
 62
     3
 10
19796.014407585139
 20
18226.984206000001
 30
0.0
 11
19796.014407585139
 21
18251.985526
 31
0.0
  0
LINE
  5
1362A
  8
2-0
  6
CONTINUOUS
 62
     3
 10
19843.01807658514
 20
18251.985526
 30
0.0
 11
19843.01807658514
 21
18166.984997999949
 31
0.0
  0
LINE
  5
1362B
  8
2-0
  6
CONTINUOUS
 62
     3
 10
19752.015648585151
 20
15963.885672499981
 30
0.0
 11
19752.015648585151
 21
15320.321899
 31
0.0
  0
LINE
  5
1362C
  8
2-0
  6
CONTINUOUS
 62
     3
 10
19843.01807658514
 20
15248.987967999999
 30
0.0
 11
19796.014407585139
 21
15248.987967999999
 31
0.0
  0
LINE
  5
1362D
  8
2-0
  6
CONTINUOUS
 62
     3
 10
19796.014407585139
 20
15333.984535999991
 30
0.0
 11
19843.01807658514
 21
15333.984535999991
 31
0.0
  0
LINE
  5
1362E
  8
2-0
  6
CONTINUOUS
 62
     3
 10
19796.014407585139
 20
15248.987967999999
 30
0.0
 11
19796.014407585139
 21
15273.983349000009
 31
0.0
  0
LINE
  5
1362F
  8
2-0
  6
CONTINUOUS
 62
     3
 10
19796.014407585139
 20
15308.98321700001
 30
0.0
 11
19796.014407585139
 21
15333.984535999991
 31
0.0
  0
LINE
  5
13630
  8
2-0
  6
CONTINUOUS
 62
     3
 10
19843.01807658514
 20
15333.984535999991
 30
0.0
 11
19843.01807658514
 21
15248.987967999999
 31
0.0
  0
LINE
  5
13631
  8
2-0
  6
CONTINUOUS
 62
     3
 10
22755.01023758516
 20
19245.488364000019
 30
0.0
 11
22755.01023758516
 21
19360.484537000018
 31
0.0
  0
LINE
  5
13632
  8
2-0
  6
CONTINUOUS
 62
     3
 10
19752.015648585151
 20
19275.487968000001
 30
0.0
 11
22674.008337585132
 21
19275.487968000001
 31
0.0
  0
LINE
  5
13633
  8
2-0
  6
CONTINUOUS
 62
     3
 10
19752.015648585151
 20
14265.524259
 30
0.0
 11
19752.015648585151
 21
14561.890621
 31
0.0
  0
LINE
  5
13634
  8
2-0
  6
CONTINUOUS
 62
     3
 10
22755.01023758516
 20
19235.19090799999
 30
0.0
 11
22755.01023758516
 21
18939.082377499992
 31
0.0
  0
LINE
  5
13635
  8
2-0
  6
CONTINUOUS
 62
     3
 10
19752.015648585151
 20
19235.19090799999
 30
0.0
 11
19752.015648585151
 21
18939.082377499959
 31
0.0
  0
LINE
  5
13636
  8
2-0
  6
CONTINUOUS
 62
     3
 10
19833.01358958516
 20
14225.484536
 30
0.0
 11
19833.01358958516
 21
19360.484537000018
 31
0.0
  0
LINE
  5
13637
  8
2-0
  6
CONTINUOUS
 62
     3
 10
22674.008337585132
 20
14225.484536
 30
0.0
 11
22674.008337585132
 21
19360.484537000018
 31
0.0
  0
TEXT
  5
13638
  8
2-0
  6
CONTINUOUS
 62
     7
 10
20565.6666465909
 20
13622.99046700269
 30
0.0
 40
160.0
  1
前柱（右）
 50
359.99978700000003
 72
     4
 11
20981.666943992132
 21
13702.988920500789
 31
0.0
  0
TEXT
  5
13639
  8
2-0
  6
CONTINUOUS
 62
     7
 10
20559.63409425494
 20
17951.60715307459
 30
0.0
 40
160.0
  1
補強柱 後
 50
0.0001580000002033
 72
     4
 11
20970.300540310422
 21
18031.60828553699
 31
0.0
  0
TEXT
  5
1363A
  8
2-0
  6
CONTINUOUS
 62
     7
 10
20467.738190255292
 20
16200.97714927651
 30
0.0
 40
160.0
  1
壁パネル
 50
0.0001770000000167
 72
     4
 11
20830.404609781599
 21
16280.978269637881
 31
0.0
  0
TEXT
  5
1363B
  8
2-0
  6
CONTINUOUS
 62
     7
 10
20438.40776093824
 20
17038.173678652362
 30
0.0
 40
160.0
  1
中柱（左右）
 50
359.99964599999998
 72
     4
 11
20955.741588538938
 21
17118.170482324658
 31
0.0
  0
TEXT
  5
1363C
  8
2-0
  6
CONTINUOUS
 62
     7
 10
20451.738850310579
 20
14596.034972706109
 30
0.0
 40
160.0
  1
下枠
 50
359.99893700000001
 72
     4
 11
20622.40700117587
 21
14676.031806339281
 31
0.0
  0
TEXT
  5
1363D
  8
2-0
  6
CONTINUOUS
 62
     7
 10
20559.634094301498
 20
15033.840897968341
 30
0.0
 40
160.0
  1
補強柱 前
 50
0.0006300000000081
 72
     4
 11
20970.2998812974
 21
15113.845413479339
 31
0.0
  0
TEXT
  5
1363E
  8
2-0
  6
CONTINUOUS
 62
     7
 10
20455.44009291847
 20
18641.436024499981
 30
0.0
 40
160.0
  1
間柱（側）
 72
     4
 11
20876.773426251799
 21
18721.436024499981
 31
0.0
  0
TEXT
  5
1363F
  8
2-0
  6
CONTINUOUS
 62
     7
 10
17955.51644060469
 20
20170.490071748729
 30
0.0
 40
160.0
  1
後柱（左右）
 50
359.99964599999998
 72
     4
 11
18467.516934872168
 21
20250.48690837283
 31
0.0
  0
LINE
  5
13640
  8
2-0
  6
CONTINUOUS
 62
     3
 10
21973.012534585141
 20
19360.484537000018
 30
0.0
 11
21936.011372585159
 21
19360.484537000018
 31
0.0
  0
LINE
  5
13641
  8
2-0
  6
CONTINUOUS
 62
     3
 10
21973.012534585141
 20
19330.480973999998
 30
0.0
 11
21973.012534585141
 21
19360.484537000018
 31
0.0
  0
LINE
  5
13642
  8
2-0
  6
CONTINUOUS
 62
     3
 10
21967.012613585131
 20
19330.480973999998
 30
0.0
 11
21973.012534585141
 21
19330.480973999998
 31
0.0
  0
LINE
  5
13643
  8
2-0
  6
CONTINUOUS
 62
     3
 10
21983.110058585149
 20
19330.480973999998
 30
0.0
 11
21983.110058585149
 21
19360.484537000018
 31
0.0
  0
LINE
  5
13644
  8
2-0
  6
CONTINUOUS
 62
     3
 10
21965.106337585152
 20
19330.480973999998
 30
0.0
 11
21983.110058585149
 21
19330.480973999998
 31
0.0
  0
LINE
  5
13645
  8
2-0
  6
CONTINUOUS
 62
     3
 10
21965.106337585152
 20
19355.490211000011
 30
0.0
 11
21965.106337585152
 21
19330.480973999998
 31
0.0
  0
LINE
  5
13646
  8
2-0
  6
CONTINUOUS
 62
     3
 10
21970.10660158515
 20
19355.490211000011
 30
0.0
 11
21965.106337585152
 21
19355.490211000011
 31
0.0
  0
LINE
  5
13647
  8
2-0
  6
CONTINUOUS
 62
     3
 10
21970.10660158515
 20
19348.484694999999
 30
0.0
 11
21970.10660158515
 21
19355.490211000011
 31
0.0
  0
LINE
  5
13648
  8
2-0
  6
CONTINUOUS
 62
     3
 10
21938.917306585128
 20
19348.484694999999
 30
0.0
 11
21938.917306585128
 21
19355.490211000011
 31
0.0
  0
LINE
  5
13649
  8
2-0
  6
CONTINUOUS
 62
     3
 10
21938.917306585128
 20
19355.490211000011
 30
0.0
 11
21943.917570585148
 21
19355.490211000011
 31
0.0
  0
LINE
  5
1364A
  8
2-0
  6
CONTINUOUS
 62
     3
 10
21943.917570585148
 20
19355.490211000011
 30
0.0
 11
21943.917570585148
 21
19330.480973999998
 31
0.0
  0
LINE
  5
1364B
  8
2-0
  6
CONTINUOUS
 62
     3
 10
21943.917570585148
 20
19330.480973999998
 30
0.0
 11
21925.917807585149
 21
19330.480973999998
 31
0.0
  0
LINE
  5
1364C
  8
2-0
  6
CONTINUOUS
 62
     3
 10
21925.917807585149
 20
19330.480973999998
 30
0.0
 11
21925.917807585149
 21
19360.484537000018
 31
0.0
  0
LINE
  5
1364D
  8
2-0
  6
CONTINUOUS
 62
     3
 10
21942.01129358515
 20
19330.480973999998
 30
0.0
 11
21936.011372585159
 21
19330.480973999998
 31
0.0
  0
LINE
  5
1364E
  8
2-0
  6
CONTINUOUS
 62
     3
 10
21936.011372585159
 20
19330.480973999998
 30
0.0
 11
21936.011372585159
 21
19360.484537000018
 31
0.0
  0
LINE
  5
1364F
  8
2-0
  6
CONTINUOUS
 62
     3
 10
20568.101652085141
 20
19348.484694999999
 30
0.0
 11
20568.101652085141
 21
19355.490211000011
 31
0.0
  0
LINE
  5
13650
  8
2-0
  6
CONTINUOUS
 62
     3
 10
20568.101652085141
 20
19355.490211000011
 30
0.0
 11
20563.10138808515
 21
19355.490211000011
 31
0.0
  0
LINE
  5
13651
  8
2-0
  6
CONTINUOUS
 62
     3
 10
20563.10138808515
 20
19355.490211000011
 30
0.0
 11
20563.10138808515
 21
19330.480973999998
 31
0.0
  0
LINE
  5
13652
  8
2-0
  6
CONTINUOUS
 62
     3
 10
20563.10138808515
 20
19330.480973999998
 30
0.0
 11
20581.107089085152
 21
19330.480973999998
 31
0.0
  0
LINE
  5
13653
  8
2-0
  6
CONTINUOUS
 62
     3
 10
20581.107089085152
 20
19330.480973999998
 30
0.0
 11
20581.107089085152
 21
19360.484537000018
 31
0.0
  0
LINE
  5
13654
  8
2-0
  6
CONTINUOUS
 62
     3
 10
20565.009644085141
 20
19330.480973999998
 30
0.0
 11
20571.011544085151
 21
19330.480973999998
 31
0.0
  0
LINE
  5
13655
  8
2-0
  6
CONTINUOUS
 62
     3
 10
20571.011544085151
 20
19330.480973999998
 30
0.0
 11
20571.011544085151
 21
19360.484537000018
 31
0.0
  0
LINE
  5
13656
  8
2-0
  6
CONTINUOUS
 62
     3
 10
20534.012363085141
 20
19360.484537000018
 30
0.0
 11
20571.011544085151
 21
19360.484537000018
 31
0.0
  0
LINE
  5
13657
  8
2-0
  6
CONTINUOUS
 62
     3
 10
20534.012363085141
 20
19330.480973999998
 30
0.0
 11
20534.012363085141
 21
19360.484537000018
 31
0.0
  0
LINE
  5
13658
  8
2-0
  6
CONTINUOUS
 62
     3
 10
20540.006345085141
 20
19330.480973999998
 30
0.0
 11
20534.012363085141
 21
19330.480973999998
 31
0.0
  0
LINE
  5
13659
  8
2-0
  6
CONTINUOUS
 62
     3
 10
20523.916818085148
 20
19330.480973999998
 30
0.0
 11
20523.916818085148
 21
19360.484537000018
 31
0.0
  0
LINE
  5
1365A
  8
2-0
  6
CONTINUOUS
 62
     3
 10
20541.91262108515
 20
19330.480973999998
 30
0.0
 11
20523.916818085148
 21
19330.480973999998
 31
0.0
  0
LINE
  5
1365B
  8
2-0
  6
CONTINUOUS
 62
     3
 10
20541.91262108515
 20
19355.490211000011
 30
0.0
 11
20541.91262108515
 21
19330.480973999998
 31
0.0
  0
LINE
  5
1365C
  8
2-0
  6
CONTINUOUS
 62
     3
 10
20536.912357085152
 20
19355.490211000011
 30
0.0
 11
20541.91262108515
 21
19355.490211000011
 31
0.0
  0
LINE
  5
1365D
  8
2-0
  6
CONTINUOUS
 62
     3
 10
20536.912357085152
 20
19348.484694999999
 30
0.0
 11
20536.912357085152
 21
19355.490211000011
 31
0.0
  0
LINE
  5
1365E
  8
2-0
  6
CONTINUOUS
 62
     3
 10
21237.911368085141
 20
19348.484694999999
 30
0.0
 11
21237.911368085141
 21
19355.490211000011
 31
0.0
  0
LINE
  5
1365F
  8
2-0
  6
CONTINUOUS
 62
     3
 10
21237.911368085141
 20
19355.490211000011
 30
0.0
 11
21242.91163108515
 21
19355.490211000011
 31
0.0
  0
LINE
  5
13660
  8
2-0
  6
CONTINUOUS
 62
     3
 10
21242.91163108515
 20
19355.490211000011
 30
0.0
 11
21242.91163108515
 21
19330.480973999998
 31
0.0
  0
LINE
  5
13661
  8
2-0
  6
CONTINUOUS
 62
     3
 10
21242.91163108515
 20
19330.480973999998
 30
0.0
 11
21224.917808085142
 21
19330.480973999998
 31
0.0
  0
LINE
  5
13662
  8
2-0
  6
CONTINUOUS
 62
     3
 10
21224.917808085142
 20
19330.480973999998
 30
0.0
 11
21224.917808085142
 21
19360.484537000018
 31
0.0
  0
LINE
  5
13663
  8
2-0
  6
CONTINUOUS
 62
     3
 10
21241.00931408512
 20
19330.480973999998
 30
0.0
 11
21235.011373085141
 21
19330.480973999998
 31
0.0
  0
LINE
  5
13664
  8
2-0
  6
CONTINUOUS
 62
     3
 10
21235.011373085141
 20
19330.480973999998
 30
0.0
 11
21235.011373085141
 21
19360.484537000018
 31
0.0
  0
LINE
  5
13665
  8
2-0
  6
CONTINUOUS
 62
     3
 10
21272.012534085141
 20
19360.484537000018
 30
0.0
 11
21235.011373085141
 21
19360.484537000018
 31
0.0
  0
LINE
  5
13666
  8
2-0
  6
CONTINUOUS
 62
     3
 10
21272.012534085141
 20
19330.480973999998
 30
0.0
 11
21272.012534085141
 21
19360.484537000018
 31
0.0
  0
LINE
  5
13667
  8
2-0
  6
CONTINUOUS
 62
     3
 10
21266.006675085151
 20
19330.480973999998
 30
0.0
 11
21272.012534085141
 21
19330.480973999998
 31
0.0
  0
LINE
  5
13668
  8
2-0
  6
CONTINUOUS
 62
     3
 10
21282.106099085151
 20
19330.480973999998
 30
0.0
 11
21282.106099085151
 21
19360.484537000018
 31
0.0
  0
LINE
  5
13669
  8
2-0
  6
CONTINUOUS
 62
     3
 10
21264.110296085139
 20
19330.480973999998
 30
0.0
 11
21282.106099085151
 21
19330.480973999998
 31
0.0
  0
LINE
  5
1366A
  8
2-0
  6
CONTINUOUS
 62
     3
 10
21264.110296085139
 20
19355.490211000011
 30
0.0
 11
21264.110296085139
 21
19330.480973999998
 31
0.0
  0
LINE
  5
1366B
  8
2-0
  6
CONTINUOUS
 62
     3
 10
21269.10066208514
 20
19355.490211000011
 30
0.0
 11
21264.110296085139
 21
19355.490211000011
 31
0.0
  0
LINE
  5
1366C
  8
2-0
  6
CONTINUOUS
 62
     3
 10
21269.10066208514
 20
19348.484694999999
 30
0.0
 11
21269.10066208514
 21
19355.490211000011
 31
0.0
  0
LINE
  5
1366D
  8
2-0
  6
CONTINUOUS
 62
     3
 10
20581.107089085152
 20
19360.484537000018
 30
0.0
 11
21224.917808085142
 21
19360.484537000018
 31
0.0
  0
LINE
  5
1366E
  8
2-0
  6
CONTINUOUS
 62
     3
 10
19877.317195585139
 20
19360.484537000018
 30
0.0
 11
20523.916818085148
 21
19360.484537000018
 31
0.0
  0
LINE
  5
1366F
  8
2-0
  6
CONTINUOUS
 62
     3
 10
22630.395583585148
 20
19360.484537000018
 30
0.0
 11
21983.110058585149
 21
19360.484537000018
 31
0.0
  0
LINE
  5
13670
  8
2-0
  6
CONTINUOUS
 62
     3
 10
21925.917807585149
 20
19360.484537000018
 30
0.0
 11
21282.106099085151
 21
19360.484537000018
 31
0.0
  0
LINE
  5
13671
  8
2-0
  6
CONTINUOUS
 62
     3
 10
22755.01023758516
 20
15263.12568900001
 30
0.0
 11
22755.01023758516
 21
14619.086831000001
 31
0.0
  0
LINE
  5
13672
  8
2-0
  6
CONTINUOUS
 62
     3
 10
22755.01023758516
 20
14561.890621
 30
0.0
 11
22755.01023758516
 21
14265.524259
 31
0.0
  0
LINE
  5
13673
  8
0-6
  6
CONTINUOUS
 62
     6
 10
22711.687695085151
 20
18649.166309
 30
0.0
 11
21686.647445085138
 21
18649.166309
 31
0.0
  0
LINE
  5
13674
  8
0-6
  6
CONTINUOUS
 62
     6
 10
21386.722667085141
 20
19206.519561000019
 30
0.0
 11
21282.107089085141
 21
19330.480973999998
 31
0.0
  0
LINE
  5
13675
  8
0-6
  6
CONTINUOUS
 62
     6
 10
21282.107089085141
 20
19330.480973999998
 30
0.0
 11
21340.865139085148
 21
19179.289304000009
 31
0.0
  0
LINE
  5
13676
  8
0-6
  6
CONTINUOUS
 62
     6
 10
21282.107089085141
 20
19330.480973999998
 30
0.0
 11
21386.722667085141
 21
19206.519561000019
 31
0.0
  0
LINE
  5
13677
  8
0-6
  6
CONTINUOUS
 62
     6
 10
21386.722667085141
 20
19206.519561000019
 30
0.0
 11
21340.865139085148
 21
19179.289304000009
 31
0.0
  0
LINE
  5
13678
  8
0-6
  6
CONTINUOUS
 62
     6
 10
21340.865139085148
 20
19179.289304000009
 30
0.0
 11
21282.107089085141
 21
19330.480973999998
 31
0.0
  0
LINE
  5
13679
  8
0-6
  6
CONTINUOUS
 62
     6
 10
21340.865139085148
 20
19179.289304000009
 30
0.0
 11
21386.722667085141
 21
19206.519561000019
 31
0.0
  0
LINE
  5
1367A
  8
0-6
  6
CONTINUOUS
 62
     6
 10
21363.793903085148
 20
19192.906412000011
 30
0.0
 11
21686.647445085138
 21
18649.166309
 31
0.0
  0
TEXT
  5
1367B
  8
0-6
  6
CONTINUOUS
 62
     7
 10
21789.020764418481
 20
18729.168553
 30
0.0
 40
160.0
  1
間柱（後）
 72
     4
 11
22210.35409775181
 21
18809.168553
 31
0.0
  0
LINE
  5
1367C
  8
SUNPOU
  6
CONTINUOUS
 62
     4
 10
19672.01366958514
 20
14590.606507750001
 30
0.0
 11
18622.01234958514
 21
14590.606507750001
 31
0.0
  0
LINE
  5
1367D
  8
SUNPOU
  6
CONTINUOUS
 62
     4
 10
18822.01234958514
 20
14183.106507750001
 30
0.0
 11
18622.01234958514
 21
14183.106507750001
 31
0.0
  0
LINE
  5
1367E
  8
SUNPOU
  6
CONTINUOUS
 62
     4
 10
18702.01234958514
 20
14590.606507750001
 30
0.0
 11
18702.01234958514
 21
14183.106507750001
 31
0.0
  0
LINE
  5
1367F
  8
SUNPOU
  6
CONTINUOUS
 62
     4
 10
19672.01366958514
 20
18910.486251999992
 30
0.0
 11
18622.01234958514
 21
18910.486251999992
 31
0.0
  0
LINE
  5
13680
  8
SUNPOU
  6
CONTINUOUS
 62
     4
 10
18822.01234958514
 20
19317.986251999992
 30
0.0
 11
18622.01234958514
 21
19317.986251999992
 31
0.0
  0
LINE
  5
13681
  8
SUNPOU
  6
CONTINUOUS
 62
     4
 10
18702.01234958514
 20
18910.486251999992
 30
0.0
 11
18702.01234958514
 21
19317.986251999992
 31
0.0
  0
LINE
  5
13682
  8
SUNPOU
  6
CONTINUOUS
 62
     4
 10
19794.511953585152
 20
13477.222817999989
 30
0.0
 11
19794.511953585152
 21
13131.538167999999
 31
0.0
  0
LINE
  5
13683
  8
SUNPOU
  6
CONTINUOUS
 62
     4
 10
19752.009710585149
 20
14060.48895699999
 30
0.0
 11
19752.009710585149
 21
13131.538167999999
 31
0.0
  0
LINE
  5
13684
  8
SUNPOU
  6
CONTINUOUS
 62
     4
 10
19794.511953585152
 20
13211.538167999999
 30
0.0
 11
20034.511953585152
 21
13211.538167999999
 31
0.0
  0
LINE
  5
13685
  8
SUNPOU
  6
CONTINUOUS
 62
     4
 10
19752.009710585149
 20
13211.538167999999
 30
0.0
 11
19512.009710585149
 21
13211.538167999999
 31
0.0
  0
LINE
  5
13686
  8
SUNPOU
  6
CONTINUOUS
 62
     4
 10
19794.511953585152
 20
13211.538167999999
 30
0.0
 11
19752.009710585149
 21
13211.538167999999
 31
0.0
  0
LINE
  5
13687
  8
SUNPOU
  6
CONTINUOUS
 62
     4
 10
22712.511953585152
 20
14182.986252000001
 30
0.0
 11
22712.511953585152
 21
13131.538167999999
 31
0.0
  0
LINE
  5
13688
  8
SUNPOU
  6
CONTINUOUS
 62
     4
 10
22755.01419658514
 20
14060.48895699999
 30
0.0
 11
22755.01419658514
 21
13131.538167999999
 31
0.0
  0
LINE
  5
13689
  8
SUNPOU
  6
CONTINUOUS
 62
     4
 10
22712.511953585152
 20
13211.538167999999
 30
0.0
 11
22472.511953585152
 21
13211.538167999999
 31
0.0
  0
LINE
  5
1368A
  8
SUNPOU
  6
CONTINUOUS
 62
     4
 10
22755.01419658514
 20
13211.538167999999
 30
0.0
 11
22995.01419658514
 21
13211.538167999999
 31
0.0
  0
LINE
  5
1368B
  8
SUNPOU
  6
CONTINUOUS
 62
     4
 10
22712.511953585152
 20
13211.538167999999
 30
0.0
 11
22755.01419658514
 21
13211.538167999999
 31
0.0
  0
LINE
  5
1368C
  8
SUNPOU
  6
CONTINUOUS
 62
     4
 10
22712.511953585152
 20
14182.986252000001
 30
0.0
 11
22712.511953585152
 21
13131.538167999999
 31
0.0
  0
LINE
  5
1368D
  8
SUNPOU
  6
CONTINUOUS
 62
     4
 10
22670.009710585149
 20
14060.48895699999
 30
0.0
 11
22670.009710585149
 21
13131.538167999999
 31
0.0
  0
LINE
  5
1368E
  8
SUNPOU
  6
CONTINUOUS
 62
     4
 10
22712.511953585152
 20
13211.538167999999
 30
0.0
 11
22952.511953585152
 21
13211.538167999999
 31
0.0
  0
LINE
  5
1368F
  8
SUNPOU
  6
CONTINUOUS
 62
     4
 10
22670.009710585149
 20
13211.538167999999
 30
0.0
 11
22430.009710585149
 21
13211.538167999999
 31
0.0
  0
LINE
  5
13690
  8
SUNPOU
  6
CONTINUOUS
 62
     4
 10
22712.511953585152
 20
13211.538167999999
 30
0.0
 11
22670.009710585149
 21
13211.538167999999
 31
0.0
  0
LINE
  5
13691
  8
SUNPOU
  6
CONTINUOUS
 62
     4
 10
19794.511953585152
 20
14182.986252000001
 30
0.0
 11
19794.511953585152
 21
13131.538167999999
 31
0.0
  0
LINE
  5
13692
  8
SUNPOU
  6
CONTINUOUS
 62
     4
 10
19837.01419658514
 20
14060.48895699999
 30
0.0
 11
19837.01419658514
 21
13131.538167999999
 31
0.0
  0
LINE
  5
13693
  8
SUNPOU
  6
CONTINUOUS
 62
     4
 10
19794.511953585152
 20
13211.538167999999
 30
0.0
 11
19554.511953585141
 21
13211.538167999999
 31
0.0
  0
LINE
  5
13694
  8
SUNPOU
  6
CONTINUOUS
 62
     4
 10
19837.01419658514
 20
13211.538167999999
 30
0.0
 11
20077.014196585151
 21
13211.538167999999
 31
0.0
  0
LINE
  5
13695
  8
SUNPOU
  6
CONTINUOUS
 62
     4
 10
19794.511953585152
 20
13211.538167999999
 30
0.0
 11
19837.01419658514
 21
13211.538167999999
 31
0.0
  0
LINE
  5
13696
  8
SUNPOU
  6
CONTINUOUS
 62
     4
 10
19752.009710585149
 20
14060.48895699999
 30
0.0
 11
19752.009710585149
 21
12731.538167999999
 31
0.0
  0
LINE
  5
13697
  8
SUNPOU
  6
CONTINUOUS
 62
     4
 10
22755.01419658514
 20
14060.48895699999
 30
0.0
 11
22755.01419658514
 21
12731.538167999999
 31
0.0
  0
LINE
  5
13698
  8
SUNPOU
  6
CONTINUOUS
 62
     4
 10
19752.009710585149
 20
12811.538167999999
 30
0.0
 11
22755.01419658514
 21
12811.538167999999
 31
0.0
  0
LINE
  5
13699
  8
SUNPOU
  6
CONTINUOUS
 62
     4
 10
19672.01366958514
 20
15291.726763500021
 30
0.0
 11
18622.01234958514
 21
15291.726763500021
 31
0.0
  0
LINE
  5
1369A
  8
SUNPOU
  6
CONTINUOUS
 62
     4
 10
19672.01366958514
 20
14590.48625199999
 30
0.0
 11
18622.01234958514
 21
14590.48625199999
 31
0.0
  0
LINE
  5
1369B
  8
SUNPOU
  6
CONTINUOUS
 62
     4
 10
18702.01234958514
 20
15291.726763500021
 30
0.0
 11
18702.01234958514
 21
14590.48625199999
 31
0.0
  0
LINE
  5
1369C
  8
SUNPOU
  6
CONTINUOUS
 62
     4
 10
19672.01366958514
 20
15992.486252000001
 30
0.0
 11
18622.01234958514
 21
15992.486252000001
 31
0.0
  0
LINE
  5
1369D
  8
SUNPOU
  6
CONTINUOUS
 62
     4
 10
19672.01366958514
 20
15291.726763500021
 30
0.0
 11
18622.01234958514
 21
15291.726763500021
 31
0.0
  0
LINE
  5
1369E
  8
SUNPOU
  6
CONTINUOUS
 62
     4
 10
18702.01234958514
 20
15992.486252000001
 30
0.0
 11
18702.01234958514
 21
15291.726763500021
 31
0.0
  0
LINE
  5
1369F
  8
SUNPOU
  6
CONTINUOUS
 62
     4
 10
18822.01234958514
 20
16750.486251999992
 30
0.0
 11
18622.01234958514
 21
16750.486251999992
 31
0.0
  0
LINE
  5
136A0
  8
SUNPOU
  6
CONTINUOUS
 62
     4
 10
19672.01366958514
 20
15992.486252000001
 30
0.0
 11
18622.01234958514
 21
15992.486252000001
 31
0.0
  0
LINE
  5
136A1
  8
SUNPOU
  6
CONTINUOUS
 62
     4
 10
18702.01234958514
 20
16750.486251999992
 30
0.0
 11
18702.01234958514
 21
15992.486252000001
 31
0.0
  0
LINE
  5
136A2
  8
SUNPOU
  6
CONTINUOUS
 62
     4
 10
19672.01366958514
 20
17508.486251999981
 30
0.0
 11
18622.01234958514
 21
17508.486251999981
 31
0.0
  0
LINE
  5
136A3
  8
SUNPOU
  6
CONTINUOUS
 62
     4
 10
18822.01234958514
 20
16750.486251999992
 30
0.0
 11
18622.01234958514
 21
16750.486251999992
 31
0.0
  0
LINE
  5
136A4
  8
SUNPOU
  6
CONTINUOUS
 62
     4
 10
18702.01234958514
 20
17508.486251999981
 30
0.0
 11
18702.01234958514
 21
16750.486251999992
 31
0.0
  0
LINE
  5
136A5
  8
SUNPOU
  6
CONTINUOUS
 62
     4
 10
19672.01366958514
 20
18209.486251999981
 30
0.0
 11
18622.01234958514
 21
18209.486251999981
 31
0.0
  0
LINE
  5
136A6
  8
SUNPOU
  6
CONTINUOUS
 62
     4
 10
19672.01366958514
 20
17508.486251999981
 30
0.0
 11
18622.01234958514
 21
17508.486251999981
 31
0.0
  0
LINE
  5
136A7
  8
SUNPOU
  6
CONTINUOUS
 62
     4
 10
18702.01234958514
 20
18209.486251999981
 30
0.0
 11
18702.01234958514
 21
17508.486251999981
 31
0.0
  0
LINE
  5
136A8
  8
SUNPOU
  6
CONTINUOUS
 62
     4
 10
19672.01366958514
 20
18910.486251999992
 30
0.0
 11
18622.01234958514
 21
18910.486251999992
 31
0.0
  0
LINE
  5
136A9
  8
SUNPOU
  6
CONTINUOUS
 62
     4
 10
19672.01366958514
 20
18209.486251999981
 30
0.0
 11
18622.01234958514
 21
18209.486251999981
 31
0.0
  0
LINE
  5
136AA
  8
SUNPOU
  6
CONTINUOUS
 62
     4
 10
18702.01234958514
 20
18910.486251999992
 30
0.0
 11
18702.01234958514
 21
18209.486251999981
 31
0.0
  0
LINE
  5
136AB
  8
SUNPOU
  6
CONTINUOUS
 62
     4
 10
18822.01234958514
 20
16750.486251999992
 30
0.0
 11
18222.01234958514
 21
16750.486251999992
 31
0.0
  0
LINE
  5
136AC
  8
SUNPOU
  6
CONTINUOUS
 62
     4
 10
18822.01234958514
 20
19317.986251999992
 30
0.0
 11
18222.01234958514
 21
19317.986251999992
 31
0.0
  0
LINE
  5
136AD
  8
SUNPOU
  6
CONTINUOUS
 62
     4
 10
18822.01234958514
 20
14182.986252000001
 30
0.0
 11
18222.01234958514
 21
14182.986252000001
 31
0.0
  0
LINE
  5
136AE
  8
SUNPOU
  6
CONTINUOUS
 62
     4
 10
18822.01234958514
 20
16750.486251999992
 30
0.0
 11
18222.01234958514
 21
16750.486251999992
 31
0.0
  0
LINE
  5
136AF
  8
SUNPOU
  6
CONTINUOUS
 62
     4
 10
19672.01366958514
 20
19360.483547
 30
0.0
 11
17822.012349585151
 21
19360.483546999982
 31
0.0
  0
LINE
  5
136B0
  8
SUNPOU
  6
CONTINUOUS
 62
     4
 10
19672.01366958514
 20
14140.48895699999
 30
0.0
 11
17822.012349585151
 21
14140.48895699999
 31
0.0
  0
LINE
  5
136B1
  8
SUNPOU
  6
CONTINUOUS
 62
     4
 10
17902.012349585151
 20
19360.483547
 30
0.0
 11
17902.012349585151
 21
14140.48895699999
 31
0.0
  0
LINE
  5
136B2
  8
SUNPOU
  6
CONTINUOUS
 62
     4
 10
18822.01234958514
 20
19317.986251999992
 30
0.0
 11
18222.01234958514
 21
19317.986251999992
 31
0.0
  0
LINE
  5
136B3
  8
SUNPOU
  6
CONTINUOUS
 62
     4
 10
19672.01366958514
 20
19360.483547
 30
0.0
 11
18222.01234958514
 21
19360.483547
 31
0.0
  0
LINE
  5
136B4
  8
SUNPOU
  6
CONTINUOUS
 62
     4
 10
18302.012349585151
 20
19317.986251999992
 30
0.0
 11
18302.012349585151
 21
19077.986251999992
 31
0.0
  0
LINE
  5
136B5
  8
SUNPOU
  6
CONTINUOUS
 62
     4
 10
18302.012349585151
 20
19360.483547
 30
0.0
 11
18302.012349585151
 21
19600.483546999989
 31
0.0
  0
LINE
  5
136B6
  8
SUNPOU
  6
CONTINUOUS
 62
     4
 10
18702.012349585151
 20
19317.986251999992
 30
0.0
 11
18702.012349585151
 21
19985.684093442531
 31
0.0
  0
LINE
  5
136B7
  8
SUNPOU
  6
CONTINUOUS
 62
     4
 10
18302.012349585151
 20
19317.986251999992
 30
0.0
 11
18302.012349585151
 21
19360.483547
 31
0.0
  0
LINE
  5
136B8
  8
SUNPOU
  6
CONTINUOUS
 62
     4
 10
18822.01234958514
 20
14182.986252000001
 30
0.0
 11
18222.01234958514
 21
14182.986252000001
 31
0.0
  0
LINE
  5
136B9
  8
SUNPOU
  6
CONTINUOUS
 62
     4
 10
19672.01366958514
 20
14140.48895699999
 30
0.0
 11
18222.01234958514
 21
14140.48895699999
 31
0.0
  0
LINE
  5
136BA
  8
SUNPOU
  6
CONTINUOUS
 62
     4
 10
18302.012349585151
 20
14182.986252000001
 30
0.0
 11
18302.012349585151
 21
14422.986252000001
 31
0.0
  0
LINE
  5
136BB
  8
SUNPOU
  6
CONTINUOUS
 62
     4
 10
18302.012349585151
 20
14140.48895699999
 30
0.0
 11
18302.012349585151
 21
13900.48895699999
 31
0.0
  0
LINE
  5
136BC
  8
SUNPOU
  6
CONTINUOUS
 62
     4
 10
18702.012349585151
 20
14182.986252000001
 30
0.0
 11
18702.012349585151
 21
13453.208288238069
 31
0.0
  0
LINE
  5
136BD
  8
SUNPOU
  6
CONTINUOUS
 62
     4
 10
18302.012349585151
 20
14182.986252000001
 30
0.0
 11
18302.012349585151
 21
14140.48895699999
 31
0.0
  0
TEXT
  5
136BE
  8
0
  6
CONTINUOUS
 62
     7
 10
18222.01234958514
 20
13566.932720603199
 30
0.0
 40
160.0
  1
42.5
 50
90.0
  0
TEXT
  5
136BF
  8
0
  6
CONTINUOUS
 62
     7
 10
18222.01234958514
 20
19454.03978339678
 30
0.0
 40
160.0
  1
42.5
 50
90.0
  0
TEXT
  5
136C0
  8
0
  6
CONTINUOUS
 62
     7
 10
17822.012349585151
 20
16470.486251999999
 30
0.0
 40
160.0
  1
5220
 50
90.0
  0
TEXT
  5
136C1
  8
0
  6
CONTINUOUS
 62
     7
 10
18622.01234958514
 20
18386.65291866667
 30
0.0
 40
160.0
  1
701
 50
90.0
  0
TEXT
  5
136C2
  8
0
  6
CONTINUOUS
 62
     7
 10
18622.01234958514
 20
17685.65291866667
 30
0.0
 40
160.0
  1
701
 50
90.0
  0
TEXT
  5
136C3
  8
0
  6
CONTINUOUS
 62
     7
 10
18622.01234958514
 20
16916.15291866667
 30
0.0
 40
160.0
  1
758
 50
90.0
  0
TEXT
  5
136C4
  8
0
  6
CONTINUOUS
 62
     7
 10
18622.01234958514
 20
16158.15291866667
 30
0.0
 40
160.0
  1
758
 50
90.0
  0
TEXT
  5
136C5
  8
0
  6
CONTINUOUS
 62
     7
 10
18622.01234958514
 20
15468.77317441667
 30
0.0
 40
160.0
  1
701
 50
90.0
  0
TEXT
  5
136C6
  8
0
  6
CONTINUOUS
 62
     7
 10
18622.01234958514
 20
14767.77317441667
 30
0.0
 40
160.0
  1
701
 50
90.0
  0
TEXT
  5
136C7
  8
0
  6
CONTINUOUS
 62
     7
 10
20986.84528691848
 20
12891.538167999999
 30
0.0
 40
160.0
  1
3003
  0
TEXT
  5
136C8
  8
0
  6
CONTINUOUS
 62
     7
 10
19912.565625967229
 20
13291.538167999999
 30
0.0
 40
160.0
  1
42.5
  0
TEXT
  5
136C9
  8
0
  6
CONTINUOUS
 62
     7
 10
22114.45828120306
 20
13291.538167999999
 30
0.0
 40
160.0
  1
42.5
  0
TEXT
  5
136CA
  8
0
  6
CONTINUOUS
 62
     7
 10
22830.565625967229
 20
13291.538167999999
 30
0.0
 40
160.0
  1
42.5
  0
TEXT
  5
136CB
  8
0
  6
CONTINUOUS
 62
     7
 10
19196.458281203049
 20
13291.538167999999
 30
0.0
 40
160.0
  1
42.5
  0
TEXT
  5
136CC
  8
0
  6
CONTINUOUS
 62
     7
 10
18582.012349585169
 20
19378.290999994919
 30
0.0
 40
160.0
  1
407.5
 50
90.0
  0
TEXT
  5
136CD
  8
0
  6
CONTINUOUS
 62
     7
 10
18582.012349585169
 20
13479.664335040679
 30
0.0
 40
160.0
  1
407.5
 50
90.0
  0
ARC
  5
136CE
  8
0
  6
BYBLOCK
 62
     0
 10
18702.01234958514
 20
14590.606507750001
 30
0.0
 40
15.0
 50
90.0
 51
270.0
  0
ARC
  5
136CF
  8
0
  6
BYBLOCK
 62
     0
 10
18702.01234958514
 20
14590.606507750001
 30
0.0
 40
15.0
 50
270.0
 51
90.0
  0
ARC
  5
136D0
  8
0
  6
BYBLOCK
 62
     0
 10
18702.01234958514
 20
14183.106507750001
 30
0.0
 40
15.0
 50
270.0
 51
90.0
  0
ARC
  5
136D1
  8
0
  6
BYBLOCK
 62
     0
 10
18702.01234958514
 20
14183.106507750001
 30
0.0
 40
15.0
 50
90.0
 51
270.0
  0
ARC
  5
136D2
  8
0
  6
BYBLOCK
 62
     0
 10
18702.01234958514
 20
18910.486251999992
 30
0.0
 40
15.0
 50
270.0
 51
90.0
  0
ARC
  5
136D3
  8
0
  6
BYBLOCK
 62
     0
 10
18702.01234958514
 20
18910.486251999992
 30
0.0
 40
15.0
 50
90.0
 51
270.0
  0
ARC
  5
136D4
  8
0
  6
BYBLOCK
 62
     0
 10
18702.01234958514
 20
19317.986251999992
 30
0.0
 40
15.0
 50
90.0
 51
270.0
  0
ARC
  5
136D5
  8
0
  6
BYBLOCK
 62
     0
 10
18702.01234958514
 20
19317.986251999992
 30
0.0
 40
15.0
 50
270.0
 51
90.0
  0
ARC
  5
136D6
  8
0
  6
BYBLOCK
 62
     0
 10
19794.511953585152
 20
13211.538167999999
 30
0.0
 40
15.0
 50
0.0
 51
180.0
  0
ARC
  5
136D7
  8
0
  6
BYBLOCK
 62
     0
 10
19794.511953585152
 20
13211.538167999999
 30
0.0
 40
15.0
 50
180.0
 51
0.0
  0
ARC
  5
136D8
  8
0
  6
BYBLOCK
 62
     0
 10
19752.009710585149
 20
13211.538167999999
 30
0.0
 40
15.0
 50
180.0
 51
0.0
  0
ARC
  5
136D9
  8
0
  6
BYBLOCK
 62
     0
 10
19752.009710585149
 20
13211.538167999999
 30
0.0
 40
15.0
 50
0.0
 51
180.0
  0
ARC
  5
136DA
  8
0
  6
BYBLOCK
 62
     0
 10
22712.511953585152
 20
13211.538167999999
 30
0.0
 40
15.0
 50
180.0
 51
0.0
  0
ARC
  5
136DB
  8
0
  6
BYBLOCK
 62
     0
 10
22712.511953585152
 20
13211.538167999999
 30
0.0
 40
15.0
 50
0.0
 51
180.0
  0
ARC
  5
136DC
  8
0
  6
BYBLOCK
 62
     0
 10
22755.01419658514
 20
13211.538167999999
 30
0.0
 40
15.0
 50
0.0
 51
180.0
  0
ARC
  5
136DD
  8
0
  6
BYBLOCK
 62
     0
 10
22755.01419658514
 20
13211.538167999999
 30
0.0
 40
15.0
 50
180.0
 51
0.0
  0
ARC
  5
136DE
  8
0
  6
BYBLOCK
 62
     0
 10
22712.511953585152
 20
13211.538167999999
 30
0.0
 40
15.0
 50
0.0
 51
180.0
  0
ARC
  5
136DF
  8
0
  6
BYBLOCK
 62
     0
 10
22712.511953585152
 20
13211.538167999999
 30
0.0
 40
15.0
 50
180.0
 51
0.0
  0
ARC
  5
136E0
  8
0
  6
BYBLOCK
 62
     0
 10
22670.009710585149
 20
13211.538167999999
 30
0.0
 40
15.0
 50
180.0
 51
0.0
  0
ARC
  5
136E1
  8
0
  6
BYBLOCK
 62
     0
 10
22670.009710585149
 20
13211.538167999999
 30
0.0
 40
15.0
 50
0.0
 51
180.0
  0
ARC
  5
136E2
  8
0
  6
BYBLOCK
 62
     0
 10
19794.511953585152
 20
13211.538167999999
 30
0.0
 40
15.0
 50
180.0
 51
0.0
  0
ARC
  5
136E3
  8
0
  6
BYBLOCK
 62
     0
 10
19794.511953585152
 20
13211.538167999999
 30
0.0
 40
15.0
 50
0.0
 51
180.0
  0
ARC
  5
136E4
  8
0
  6
BYBLOCK
 62
     0
 10
19837.01419658514
 20
13211.538167999999
 30
0.0
 40
15.0
 50
0.0
 51
180.0
  0
ARC
  5
136E5
  8
0
  6
BYBLOCK
 62
     0
 10
19837.01419658514
 20
13211.538167999999
 30
0.0
 40
15.0
 50
180.0
 51
0.0
  0
ARC
  5
136E6
  8
0
  6
BYBLOCK
 62
     0
 10
19752.009710585149
 20
12811.538167999999
 30
0.0
 40
15.0
 50
0.0
 51
180.0
  0
ARC
  5
136E7
  8
0
  6
BYBLOCK
 62
     0
 10
19752.009710585149
 20
12811.538167999999
 30
0.0
 40
15.0
 50
180.0
 51
0.0
  0
ARC
  5
136E8
  8
0
  6
BYBLOCK
 62
     0
 10
22755.01419658514
 20
12811.538167999999
 30
0.0
 40
15.0
 50
180.0
 51
0.0
  0
ARC
  5
136E9
  8
0
  6
BYBLOCK
 62
     0
 10
22755.01419658514
 20
12811.538167999999
 30
0.0
 40
15.0
 50
0.0
 51
180.0
  0
ARC
  5
136EA
  8
0
  6
BYBLOCK
 62
     0
 10
18702.01234958514
 20
15291.726763500021
 30
0.0
 40
15.0
 50
90.0
 51
270.0
  0
ARC
  5
136EB
  8
0
  6
BYBLOCK
 62
     0
 10
18702.01234958514
 20
15291.726763500021
 30
0.0
 40
15.0
 50
270.0
 51
90.0
  0
ARC
  5
136EC
  8
0
  6
BYBLOCK
 62
     0
 10
18702.01234958514
 20
14590.48625199999
 30
0.0
 40
15.0
 50
270.0
 51
90.0
  0
ARC
  5
136ED
  8
0
  6
BYBLOCK
 62
     0
 10
18702.01234958514
 20
14590.48625199999
 30
0.0
 40
15.0
 50
90.0
 51
270.0
  0
ARC
  5
136EE
  8
0
  6
BYBLOCK
 62
     0
 10
18702.01234958514
 20
15992.486252000001
 30
0.0
 40
15.0
 50
90.0
 51
270.0
  0
ARC
  5
136EF
  8
0
  6
BYBLOCK
 62
     0
 10
18702.01234958514
 20
15992.486252000001
 30
0.0
 40
15.0
 50
270.0
 51
90.0
  0
ARC
  5
136F0
  8
0
  6
BYBLOCK
 62
     0
 10
18702.01234958514
 20
15291.726763500021
 30
0.0
 40
15.0
 50
270.0
 51
90.0
  0
ARC
  5
136F1
  8
0
  6
BYBLOCK
 62
     0
 10
18702.01234958514
 20
15291.726763500021
 30
0.0
 40
15.0
 50
90.0
 51
270.0
  0
ARC
  5
136F2
  8
0
  6
BYBLOCK
 62
     0
 10
18702.01234958514
 20
16750.486251999992
 30
0.0
 40
15.0
 50
90.0
 51
270.0
  0
ARC
  5
136F3
  8
0
  6
BYBLOCK
 62
     0
 10
18702.01234958514
 20
16750.486251999992
 30
0.0
 40
15.0
 50
270.0
 51
90.0
  0
ARC
  5
136F4
  8
0
  6
BYBLOCK
 62
     0
 10
18702.01234958514
 20
15992.486252000001
 30
0.0
 40
15.0
 50
270.0
 51
90.0
  0
ARC
  5
136F5
  8
0
  6
BYBLOCK
 62
     0
 10
18702.01234958514
 20
15992.486252000001
 30
0.0
 40
15.0
 50
90.0
 51
270.0
  0
ARC
  5
136F6
  8
0
  6
BYBLOCK
 62
     0
 10
18702.01234958514
 20
17508.486251999981
 30
0.0
 40
15.0
 50
90.0
 51
270.0
  0
ARC
  5
136F7
  8
0
  6
BYBLOCK
 62
     0
 10
18702.01234958514
 20
17508.486251999981
 30
0.0
 40
15.0
 50
270.0
 51
90.0
  0
ARC
  5
136F8
  8
0
  6
BYBLOCK
 62
     0
 10
18702.01234958514
 20
16750.486251999992
 30
0.0
 40
15.0
 50
270.0
 51
90.0
  0
ARC
  5
136F9
  8
0
  6
BYBLOCK
 62
     0
 10
18702.01234958514
 20
16750.486251999992
 30
0.0
 40
15.0
 50
90.0
 51
270.0
  0
ARC
  5
136FA
  8
0
  6
BYBLOCK
 62
     0
 10
18702.01234958514
 20
18209.486251999981
 30
0.0
 40
15.0
 50
90.0
 51
270.0
  0
ARC
  5
136FB
  8
0
  6
BYBLOCK
 62
     0
 10
18702.01234958514
 20
18209.486251999981
 30
0.0
 40
15.0
 50
270.0
 51
90.0
  0
ARC
  5
136FC
  8
0
  6
BYBLOCK
 62
     0
 10
18702.01234958514
 20
17508.486251999981
 30
0.0
 40
15.0
 50
270.0
 51
90.0
  0
ARC
  5
136FD
  8
0
  6
BYBLOCK
 62
     0
 10
18702.01234958514
 20
17508.486251999981
 30
0.0
 40
15.0
 50
90.0
 51
270.0
  0
ARC
  5
136FE
  8
0
  6
BYBLOCK
 62
     0
 10
18702.01234958514
 20
18910.486251999992
 30
0.0
 40
15.0
 50
90.0
 51
270.0
  0
ARC
  5
136FF
  8
0
  6
BYBLOCK
 62
     0
 10
18702.01234958514
 20
18910.486251999992
 30
0.0
 40
15.0
 50
270.0
 51
90.0
  0
ARC
  5
13700
  8
0
  6
BYBLOCK
 62
     0
 10
18702.01234958514
 20
18209.486251999981
 30
0.0
 40
15.0
 50
270.0
 51
90.0
  0
ARC
  5
13701
  8
0
  6
BYBLOCK
 62
     0
 10
18702.01234958514
 20
18209.486251999981
 30
0.0
 40
15.0
 50
90.0
 51
270.0
  0
ARC
  5
13702
  8
0
  6
BYBLOCK
 62
     0
 10
18302.012349585151
 20
16750.486251999992
 30
0.0
 40
15.0
 50
270.0
 51
90.0
  0
ARC
  5
13703
  8
0
  6
BYBLOCK
 62
     0
 10
18302.012349585151
 20
16750.486251999992
 30
0.0
 40
15.0
 50
90.0
 51
270.0
  0
ARC
  5
13704
  8
0
  6
BYBLOCK
 62
     0
 10
18302.012349585151
 20
19317.986251999992
 30
0.0
 40
15.0
 50
90.0
 51
270.0
  0
ARC
  5
13705
  8
0
  6
BYBLOCK
 62
     0
 10
18302.012349585151
 20
19317.986251999992
 30
0.0
 40
15.0
 50
270.0
 51
90.0
  0
ARC
  5
13706
  8
0
  6
BYBLOCK
 62
     0
 10
18302.012349585151
 20
14182.986252000001
 30
0.0
 40
15.0
 50
270.0
 51
90.0
  0
ARC
  5
13707
  8
0
  6
BYBLOCK
 62
     0
 10
18302.012349585151
 20
14182.986252000001
 30
0.0
 40
15.0
 50
90.0
 51
270.0
  0
ARC
  5
13708
  8
0
  6
BYBLOCK
 62
     0
 10
18302.012349585151
 20
16750.486251999992
 30
0.0
 40
15.0
 50
90.0
 51
270.0
  0
ARC
  5
13709
  8
0
  6
BYBLOCK
 62
     0
 10
18302.012349585151
 20
16750.486251999992
 30
0.0
 40
15.0
 50
270.0
 51
90.0
  0
ARC
  5
1370A
  8
0
  6
BYBLOCK
 62
     0
 10
17902.012349585151
 20
19360.483547
 30
0.0
 40
15.0
 50
90.0
 51
270.0
  0
ARC
  5
1370B
  8
0
  6
BYBLOCK
 62
     0
 10
17902.012349585151
 20
19360.483547
 30
0.0
 40
15.0
 50
270.0
 51
90.0
  0
ARC
  5
1370C
  8
0
  6
BYBLOCK
 62
     0
 10
17902.012349585151
 20
14140.48895699999
 30
0.0
 40
15.0
 50
270.0
 51
90.0
  0
ARC
  5
1370D
  8
0
  6
BYBLOCK
 62
     0
 10
17902.012349585151
 20
14140.48895699999
 30
0.0
 40
15.0
 50
90.0
 51
270.0
  0
ARC
  5
1370E
  8
0
  6
BYBLOCK
 62
     0
 10
18302.012349585151
 20
19317.986251999992
 30
0.0
 40
15.0
 50
90.0
 51
270.0
  0
ARC
  5
1370F
  8
0
  6
BYBLOCK
 62
     0
 10
18302.012349585151
 20
19317.986251999992
 30
0.0
 40
15.0
 50
270.0
 51
90.0
  0
ARC
  5
13710
  8
0
  6
BYBLOCK
 62
     0
 10
18302.012349585151
 20
19360.483547
 30
0.0
 40
15.0
 50
270.0
 51
90.0
  0
ARC
  5
13711
  8
0
  6
BYBLOCK
 62
     0
 10
18302.012349585151
 20
19360.483547
 30
0.0
 40
15.0
 50
90.0
 51
270.0
  0
ARC
  5
13712
  8
0
  6
BYBLOCK
 62
     0
 10
18302.012349585151
 20
14182.986252000001
 30
0.0
 40
15.0
 50
270.0
 51
90.0
  0
ARC
  5
13713
  8
0
  6
BYBLOCK
 62
     0
 10
18302.012349585151
 20
14182.986252000001
 30
0.0
 40
15.0
 50
90.0
 51
270.0
  0
ARC
  5
13714
  8
0
  6
BYBLOCK
 62
     0
 10
18302.012349585151
 20
14140.48895699999
 30
0.0
 40
15.0
 50
90.0
 51
270.0
  0
ARC
  5
13715
  8
0
  6
BYBLOCK
 62
     0
 10
18302.012349585151
 20
14140.48895699999
 30
0.0
 40
15.0
 50
270.0
 51
90.0
  0
LINE
  5
13716
  8
SUNPOU
  6
CONTINUOUS
 62
     4
 10
19108.970621585151
 20
18209.486251999981
 30
0.0
 11
18222.01234958514
 21
18209.486251999981
 31
0.0
  0
LINE
  5
13717
  8
SUNPOU
  6
CONTINUOUS
 62
     4
 10
18302.012349585151
 20
18209.486251999981
 30
0.0
 11
18302.012349585151
 21
19317.986251999992
 31
0.0
  0
LINE
  5
13718
  8
SUNPOU
  6
CONTINUOUS
 62
     4
 10
19108.970621585151
 20
18209.486251999981
 30
0.0
 11
18222.01234958514
 21
18209.486251999981
 31
0.0
  0
LINE
  5
13719
  8
SUNPOU
  6
CONTINUOUS
 62
     4
 10
18302.012349585151
 20
16750.486251999992
 30
0.0
 11
18302.012349585151
 21
18209.486251999981
 31
0.0
  0
LINE
  5
1371A
  8
SUNPOU
  6
CONTINUOUS
 62
     4
 10
19108.970621585151
 20
15291.726763500021
 30
0.0
 11
18222.01234958514
 21
15291.726763500021
 31
0.0
  0
LINE
  5
1371B
  8
SUNPOU
  6
CONTINUOUS
 62
     4
 10
18302.012349585151
 20
15291.726763500021
 30
0.0
 11
18302.012349585151
 21
16750.486251999992
 31
0.0
  0
LINE
  5
1371C
  8
SUNPOU
  6
CONTINUOUS
 62
     4
 10
19108.970621585151
 20
15291.726763500021
 30
0.0
 11
18222.01234958514
 21
15291.726763500021
 31
0.0
  0
LINE
  5
1371D
  8
SUNPOU
  6
CONTINUOUS
 62
     4
 10
18302.012349585151
 20
14182.986252000001
 30
0.0
 11
18302.012349585151
 21
15291.726763500021
 31
0.0
  0
TEXT
  5
1371E
  8
0
  6
CONTINUOUS
 62
     7
 10
18222.01234958514
 20
14404.02317441667
 30
0.0
 40
160.0
  1
1108.5
 50
90.0
  0
TEXT
  5
1371F
  8
0
  6
CONTINUOUS
 62
     7
 10
18222.01234958514
 20
15754.439841083329
 30
0.0
 40
160.0
  1
1459
 50
90.0
  0
TEXT
  5
13720
  8
0
  6
CONTINUOUS
 62
     7
 10
18222.01234958514
 20
17213.319585333309
 30
0.0
 40
160.0
  1
1459
 50
90.0
  0
TEXT
  5
13721
  8
0
  6
CONTINUOUS
 62
     7
 10
18222.01234958514
 20
18430.40291866667
 30
0.0
 40
160.0
  1
1108.5
 50
90.0
  0
ARC
  5
13722
  8
0
  6
BYBLOCK
 62
     0
 10
18302.012349585151
 20
18209.486251999981
 30
0.0
 40
15.0
 50
270.0
 51
90.0
  0
ARC
  5
13723
  8
0
  6
BYBLOCK
 62
     0
 10
18302.012349585151
 20
18209.486251999981
 30
0.0
 40
15.0
 50
90.0
 51
270.0
  0
ARC
  5
13724
  8
0
  6
BYBLOCK
 62
     0
 10
18302.012349585151
 20
19317.986251999992
 30
0.0
 40
15.0
 50
90.0
 51
270.0
  0
ARC
  5
13725
  8
0
  6
BYBLOCK
 62
     0
 10
18302.012349585151
 20
19317.986251999992
 30
0.0
 40
15.0
 50
270.0
 51
90.0
  0
ARC
  5
13726
  8
0
  6
BYBLOCK
 62
     0
 10
18302.012349585151
 20
16750.486251999992
 30
0.0
 40
15.0
 50
270.0
 51
90.0
  0
ARC
  5
13727
  8
0
  6
BYBLOCK
 62
     0
 10
18302.012349585151
 20
16750.486251999992
 30
0.0
 40
15.0
 50
90.0
 51
270.0
  0
ARC
  5
13728
  8
0
  6
BYBLOCK
 62
     0
 10
18302.012349585151
 20
18209.486251999981
 30
0.0
 40
15.0
 50
90.0
 51
270.0
  0
ARC
  5
13729
  8
0
  6
BYBLOCK
 62
     0
 10
18302.012349585151
 20
18209.486251999981
 30
0.0
 40
15.0
 50
270.0
 51
90.0
  0
ARC
  5
1372A
  8
0
  6
BYBLOCK
 62
     0
 10
18302.012349585151
 20
15291.726763500021
 30
0.0
 40
15.0
 50
270.0
 51
90.0
  0
ARC
  5
1372B
  8
0
  6
BYBLOCK
 62
     0
 10
18302.012349585151
 20
15291.726763500021
 30
0.0
 40
15.0
 50
90.0
 51
270.0
  0
ARC
  5
1372C
  8
0
  6
BYBLOCK
 62
     0
 10
18302.012349585151
 20
16750.486251999992
 30
0.0
 40
15.0
 50
90.0
 51
270.0
  0
ARC
  5
1372D
  8
0
  6
BYBLOCK
 62
     0
 10
18302.012349585151
 20
16750.486251999992
 30
0.0
 40
15.0
 50
270.0
 51
90.0
  0
ARC
  5
1372E
  8
0
  6
BYBLOCK
 62
     0
 10
18302.012349585151
 20
14182.986252000001
 30
0.0
 40
15.0
 50
270.0
 51
90.0
  0
ARC
  5
1372F
  8
0
  6
BYBLOCK
 62
     0
 10
18302.012349585151
 20
14182.986252000001
 30
0.0
 40
15.0
 50
90.0
 51
270.0
  0
ARC
  5
13730
  8
0
  6
BYBLOCK
 62
     0
 10
18302.012349585151
 20
15291.726763500021
 30
0.0
 40
15.0
 50
90.0
 51
270.0
  0
ARC
  5
13731
  8
0
  6
BYBLOCK
 62
     0
 10
18302.012349585151
 20
15291.726763500021
 30
0.0
 40
15.0
 50
270.0
 51
90.0
  0
TEXT
  5
1013828
  8
FILENAME
  6
CONTINUOUS
 10
26061.142857142851
 20
348.0
 30
0.0
 40
200.0
  1
＜VGCU-3052+VKCU-2852-R-1-A_0.DXF ＞
  7
FILENAME
 72
     2
 11
32764.0
 21
348.0
 31
0.0
  0
LINE
  5
101382E
  8
WAKUSEN-01
 10
868.00000000000193
 20
827.99999999999955
 30
0.0
 11
32764.000000000011
 21
827.99999999999943
 31
0.0
  0
LINE
  5
101382F
  8
WAKUSEN-01
 10
868.00000000000193
 20
827.99999999999955
 30
0.0
 11
868.00000000000193
 21
22484.000000000011
 31
0.0
  0
LINE
  5
1013830
  8
WAKUSEN-01
 10
32764.000000000011
 20
827.99999999999943
 30
0.0
 11
32764.000000000011
 21
22484.000000000011
 31
0.0
  0
LINE
  5
1013831
  8
WAKUSEN-01
 10
20560.0
 20
827.99999999999716
 30
0.0
 11
20560.0
 21
2484.0
 31
0.0
  0
LINE
  5
1013832
  8
WAKUSEN-02
 10
26868.0
 20
827.99999999999261
 30
0.0
 11
26868.0
 21
2484.0
 31
0.0
  0
ENDSEC
  0
EOF
