  0
SECTION
  2
HEADER
  9
$ACADVER
  1
AC1009
  9
$INSBASE
 10
0.0
 20
0.0
 30
0.0
  9
$EXTMIN
 10
867.99324330406671
 20
327.38164749855792
 30
-0.0000000000000057
  9
$EXTMAX
 10
32765.33210850941
 20
22484.553276491992
 30
0.0000000000000104
  9
$LIMMIN
 10
0.0
 20
0.0
  9
$LIMMAX
 10
33600.0
 20
23760.0
  9
$ORTHOMODE
 70
     1
  9
$REGENMODE
 70
     1
  9
$FILLMODE
 70
     1
  9
$QTEXTMODE
 70
     0
  9
$MIRRTEXT
 70
     0
  9
$DRAGMODE
 70
     2
  9
$LTSCALE
 40
80.0
  9
$OSMODE
 70
  3071
  9
$ATTMODE
 70
     1
  9
$TEXTSIZE
 40
0.2
  9
$TRACEWID
 40
0.05
  9
$TEXTSTYLE
  7
00
  9
$CLAYER
  8
0
  9
$CELTYPE
  6
BYLAYER
  9
$CECOLOR
 62
   256
  9
$DIMSCALE
 40
1.0
  9
$DIMASZ
 40
0.18
  9
$DIMEXO
 40
0.0625
  9
$DIMDLI
 40
0.38
  9
$DIMRND
 40
0.0
  9
$DIMDLE
 40
0.0
  9
$DIMEXE
 40
0.18
  9
$DIMTP
 40
0.0
  9
$DIMTM
 40
0.0
  9
$DIMTXT
 40
0.18
  9
$DIMCEN
 40
0.09
  9
$DIMTSZ
 40
0.0
  9
$DIMTOL
 70
     0
  9
$DIMLIM
 70
     0
  9
$DIMTIH
 70
     1
  9
$DIMTOH
 70
     1
  9
$DIMSE1
 70
     0
  9
$DIMSE2
 70
     0
  9
$DIMTAD
 70
     0
  9
$DIMZIN
 70
     0
  9
$DIMBLK
  1

  9
$DIMASO
 70
     1
  9
$DIMSHO
 70
     1
  9
$DIMPOST
  1

  9
$DIMAPOST
  1

  9
$DIMALT
 70
     0
  9
$DIMALTD
 70
     2
  9
$DIMALTF
 40
25.399999999999999
  9
$DIMLFAC
 40
1.0
  9
$DIMTOFL
 70
     0
  9
$DIMTVP
 40
0.0
  9
$DIMTIX
 70
     0
  9
$DIMSOXD
 70
     0
  9
$DIMSAH
 70
     0
  9
$DIMBLK1
  1

  9
$DIMBLK2
  1

  9
$DIMSTYLE
  2
STANDARD
  9
$DIMCLRD
 70
     0
  9
$DIMCLRE
 70
     0
  9
$DIMCLRT
 70
     0
  9
$DIMTFAC
 40
1.0
  9
$DIMGAP
 40
0.09
  9
$LUNITS
 70
     2
  9
$LUPREC
 70
     4
  9
$SKETCHINC
 40
0.1
  9
$FILLETRAD
 40
0.0
  9
$AUNITS
 70
     0
  9
$AUPREC
 70
     0
  9
$MENU
  1
acad
  9
$ELEVATION
 40
0.0
  9
$PELEVATION
 40
0.0
  9
$THICKNESS
 40
0.0
  9
$LIMCHECK
 70
     0
  9
$BLIPMODE
 70
     1
  9
$CHAMFERA
 40
0.0
  9
$CHAMFERB
 40
0.0
  9
$SKPOLY
 70
     0
  9
$TDCREATE
 40
2311940.075052408
  9
$TDUPDATE
 40
2458942.4618370491
  9
$TDINDWG
 40
0.3121139931
  9
$TDUSRTIMER
 40
0.3121134722
  9
$USRTIMER
 70
     1
  9
$ANGBASE
 50
0.0
  9
$ANGDIR
 70
     0
  9
$PDMODE
 70
     0
  9
$PDSIZE
 40
0.0
  9
$PLINEWID
 40
0.0
  9
$COORDS
 70
     1
  9
$SPLFRAME
 70
     0
  9
$SPLINETYPE
 70
     6
  9
$SPLINESEGS
 70
     8
  9
$ATTDIA
 70
     1
  9
$ATTREQ
 70
     1
  9
$HANDLING
 70
     1
  9
$HANDSEED
  5
10109B3
  9
$SURFTAB1
 70
     6
  9
$SURFTAB2
 70
     6
  9
$SURFTYPE
 70
     6
  9
$SURFU
 70
     6
  9
$SURFV
 70
     6
  9
$UCSNAME
  2

  9
$UCSORG
 10
0.0
 20
0.0
 30
0.0
  9
$UCSXDIR
 10
1.0
 20
0.0
 30
0.0
  9
$UCSYDIR
 10
0.0
 20
1.0
 30
0.0
  9
$PUCSNAME
  2

  9
$PUCSORG
 10
0.0
 20
0.0
 30
0.0
  9
$PUCSXDIR
 10
1.0
 20
0.0
 30
0.0
  9
$PUCSYDIR
 10
0.0
 20
1.0
 30
0.0
  9
$USERI1
 70
     0
  9
$USERI2
 70
     0
  9
$USERI3
 70
     0
  9
$USERI4
 70
     0
  9
$USERI5
 70
     0
  9
$USERR1
 40
0.0
  9
$USERR2
 40
0.0
  9
$USERR3
 40
0.0
  9
$USERR4
 40
0.0
  9
$USERR5
 40
0.0
  9
$WORLDVIEW
 70
     1
  9
$SHADEDGE
 70
     3
  9
$SHADEDIF
 70
    70
  9
$TILEMODE
 70
     1
  9
$MAXACTVP
 70
    16
  9
$PLIMCHECK
 70
     0
  9
$PEXTMIN
 10
1.0000000000000000E+020
 20
1.0000000000000000E+020
 30
1.0000000000000000E+020
  9
$PEXTMAX
 10
-1.0000000000000000E+020
 20
-1.0000000000000000E+020
 30
-1.0000000000000000E+020
  9
$PLIMMIN
 10
0.0
 20
0.0
  9
$PLIMMAX
 10
12.0
 20
9.0
  9
$UNITMODE
 70
     0
  9
$VISRETAIN
 70
     0
  9
$PLINEGEN
 70
     1
  9
$PSLTSCALE
 70
     0
  0
ENDSEC
  0
SECTION
  2
TABLES
  0
TABLE
  2
VPORT
 70
     1
  0
VPORT
  2
*ACTIVE
 70
     0
 10
0.0
 20
0.0
 11
1.0
 21
1.0
 12
16800.0
 22
11880.0
 13
0.0
 23
0.0
 14
1.0
 24
1.0
 15
0.0
 25
0.0
 16
0.0
 26
0.0
 36
1.0
 17
0.0
 27
0.0
 37
0.0
 40
23981.023255813951
 41
2.195652173913043
 42
50.0
 43
0.0
 44
0.0
 50
0.0
 51
0.0
 71
     0
 72
 10000
 73
     1
 74
     1
 75
     0
 76
     0
 77
     0
 78
     0
  0
ENDTAB
  0
TABLE
  2
LTYPE
 70
     6
  0
LTYPE
  2
CONTINUOUS
 70
     0
  3
Solid line
 72
    65
 73
     0
 40
0.0
  0
LTYPE
  2
DASHED3
 70
     0
  3
------  ------  ------  ------  
 72
    65
 73
     2
 40
5.0
 49
3.75
 49
-1.25
  0
LTYPE
  2
CENTER2
 70
     0
  3
----------  --  ----------  --  
 72
    65
 73
     4
 40
20.0
 49
12.5
 49
-2.5
 49
2.5
 49
-2.5
  0
LTYPE
  2
HIDE-M
 70
     0
  3

 72
    65
 73
     2
 40
2.0
 49
1.0
 49
-1.0
  0
LTYPE
  2
1PL-M
 70
     0
  3

 72
    65
 73
     4
 40
15.0
 49
12.0
 49
-1.0
 49
1.0
 49
-1.0
  0
LTYPE
  2
PHANTOM2
 70
     0
  3
___ _ _ ___ _ _ ___ _ _ ___ _ _
 72
    65
 73
     6
 40
1.25
 49
0.625
 49
-0.125
 49
0.125
 49
-0.125
 49
0.125
 49
-0.125
  0
ENDTAB
  0
TABLE
  2
LAYER
 70
    25
  0
LAYER
  2
0
 70
     0
 62
     7
  6
CONTINUOUS
  0
LAYER
  2
SUNPOU
 70
     0
 62
     4
  6
CONTINUOUS
  0
LAYER
  2
0-1
 70
     0
 62
     7
  6
CONTINUOUS
  0
LAYER
  2
0-2
 70
     0
 62
     7
  6
CONTINUOUS
  0
LAYER
  2
0-5
 70
     0
 62
     7
  6
CONTINUOUS
  0
LAYER
  2
0-6
 70
     0
 62
     7
  6
CONTINUOUS
  0
LAYER
  2
2-0
 70
     0
 62
     7
  6
CONTINUOUS
  0
LAYER
  2
0-8
 70
     0
 62
     7
  6
CONTINUOUS
  0
LAYER
  2
YODOROGO
 70
     0
 62
   130
  6
CONTINUOUS
  0
LAYER
  2
WAKUSEN-01
 70
     0
 62
    50
  6
CONTINUOUS
  0
LAYER
  2
WAKUSEN-02
 70
     0
 62
   130
  6
CONTINUOUS
  0
LAYER
  2
WAKUMOJI-01
 70
     0
 62
   130
  6
CONTINUOUS
  0
LAYER
  2
FILENAME
 70
     0
 62
     7
  6
CONTINUOUS
  0
LAYER
  2
NAME
 70
     0
 62
    20
  6
CONTINUOUS
  0
LAYER
  2
0-4
 70
     0
 62
     7
  6
CONTINUOUS
  0
LAYER
  2
1-前柱P
 70
     0
 62
     3
  6
CONTINUOUS
  0
LAYER
  2
1-前柱カバ-P
 70
     0
 62
     3
  6
CONTINUOUS
  0
LAYER
  2
1-桁前P28
 70
     0
 62
     3
  6
CONTINUOUS
  0
LAYER
  2
1-後柱P
 70
     0
 62
     3
  6
CONTINUOUS
  0
LAYER
  2
1-中柱P
 70
     0
 62
     3
  6
CONTINUOUS
  0
LAYER
  2
1-後柱カバ-P
 70
     0
 62
     7
  6
CONTINUOUS
  0
LAYER
  2
1-中柱カバ-P
 70
     0
 62
     7
  6
CONTINUOUS
  0
ENDTAB
  0
TABLE
  2
STYLE
 70
     5
  0
STYLE
  2
STANDARD
 70
     0
 40
0.0
 41
1.0
 50
0.0
 71
     0
 42
0.0
  3
txt
  4
BIGFONT
  0
STYLE
  2
00
 70
     0
 40
0.0
 41
0.6666666666666666
 50
0.0
 71
     0
 42
0.2
  3
ROMANS
  4
BIGFONT
  0
STYLE
  2
01
 70
     0
 40
3.0
 41
1.0
 50
0.0
 71
     0
 42
0.2
  3
ROMANS
  4
BIGFONT
  0
STYLE
  2
WAKUMOJI
 70
     0
 40
3.0
 41
1.0
 50
0.0
 71
     0
 42
3.0
  3
SIMPLEX
  4
BIGFONT
  0
STYLE
  2
FILENAME
 70
     0
 40
200.0
 41
1.0
 50
0.0
 71
     0
 42
200.0
  3
romans
  4
bigfont
  0
ENDTAB
  0
TABLE
  2
VIEW
 70
     0
  0
ENDTAB
  0
TABLE
  2
UCS
 70
     0
  0
ENDTAB
  0
TABLE
  2
APPID
 70
    17
  0
APPID
  2
ACAD
 70
     0
  0
APPID
  2
ACADANNOTATIVE
 70
     0
  0
APPID
  2
ACAD_PSEXT
 70
     0
  0
APPID
  2
DCO15
 70
     0
  0
APPID
  2
ACAD_MLEADERVER
 70
     0
  0
APPID
  2
AUTOCAD_POSTSCRIPT_FIGURE
 70
     0
  0
APPID
  2
ACAD_EXEMPT_FROM_CAD_STANDARDS
 70
     0
  0
APPID
  2
ACLAYERTOOLS
 70
     0
  0
APPID
  2
ACAD_DSTYLE_DIMJAG
 70
     0
  0
APPID
  2
ACAD_DSTYLE_DIMTALN
 70
     0
  0
APPID
  2
ACAECLAYERSTANDARD
 70
     0
  0
APPID
  2
ACAD_DSTYLE_DIMBREAK
 70
     0
  0
APPID
  2
ACAD_DSTYLE_DIM_LINETYPE
 70
     0
  0
APPID
  2
ACAD_DSTYLE_DIM_EXT1_LINETYPE
 70
     0
  0
APPID
  2
ACAD_DSTYLE_DIM_EXT2_LINETYPE
 70
     0
  0
APPID
  2
ACAD_DSTYLE_DIMFLIPARROW_W
 70
     0
  0
APPID
  2
ACAD_NAV_VCDISPLAY
 70
     0
  0
ENDTAB
  0
TABLE
  2
DIMSTYLE
 70
     2
  0
DIMSTYLE
  2
STANDARD
 70
     0
  3

  4

  5

  6

  7

 40
1.0
 41
0.18
 42
0.0625
 43
0.38
 44
0.18
 45
0.0
 46
0.0
 47
0.0
 48
0.0
140
0.18
141
0.09
142
0.0
143
25.399999999999999
144
1.0
145
0.0
146
1.0
147
0.09
 71
     0
 72
     0
 73
     1
 74
     1
 75
     0
 76
     0
 77
     0
 78
     0
170
     0
171
     2
172
     0
173
     0
174
     0
175
     0
176
     0
177
     0
178
     0
  0
ENDTAB
  0
ENDSEC
  0
SECTION
  2
BLOCKS
  0
BLOCK
  8
0
  2
$MODEL_SPACE
 70
     0
 10
0.0
 20
0.0
 30
0.0
  3
$MODEL_SPACE
  1

  0
ENDBLK
  5
F830
  8
0
  0
BLOCK
 67
     1
  8
0
  2
$PAPER_SPACE
 70
     0
 10
0.0
 20
0.0
 30
0.0
  3
$PAPER_SPACE
  1

  0
ENDBLK
  5
F82C
 67
     1
  8
0
  0
ENDSEC
  0
SECTION
  2
ENTITIES
  0
CIRCLE
  5
F86A
  8
0-5
  6
CONTINUOUS
 62
     4
 10
15128.71667799999
 20
1375.999982000001
 30
0.0
 40
20.0
  0
ARC
  5
F86B
  8
0-5
  6
CONTINUOUS
 62
     4
 10
15128.71667799999
 20
1375.999982000001
 30
0.0
 40
20.0
 50
180.0
 51
0.0
  0
ARC
  5
F86C
  8
0-5
  6
CONTINUOUS
 62
     4
 10
15128.71667799999
 20
1375.999982000001
 30
0.0
 40
20.0
 50
0.0
 51
179.99998500000001
  0
CIRCLE
  5
F86D
  8
0-5
  6
CONTINUOUS
 62
     4
 10
15128.71667799999
 20
1775.999321999999
 30
0.0
 40
20.0
  0
ARC
  5
F86E
  8
0-5
  6
CONTINUOUS
 62
     4
 10
15128.71667799999
 20
1775.999321999999
 30
0.0
 40
20.0
 50
180.0
 51
0.0
  0
ARC
  5
F86F
  8
0-5
  6
CONTINUOUS
 62
     4
 10
15128.71667799999
 20
1775.999321999999
 30
0.0
 40
20.0
 50
0.0
 51
179.99998500000001
  0
TEXT
  5
F870
  8
0-5
  6
CONTINUOUS
 62
     7
 10
16661.217403999992
 20
1655.999792000001
 30
0.0
 40
160.0
  1
H
  0
TEXT
  5
F871
  8
0-5
  6
CONTINUOUS
 62
     7
 10
15176.146933
 20
1655.999792000001
 30
0.0
 40
160.0
  1
（ ）内寸法ハ、  タイプヲ示ス。
  0
TEXT
  5
F872
  8
0-5
  6
CONTINUOUS
 62
     7
 10
15288.716216000001
 20
1255.999462
 30
0.0
 40
160.0
  1
有効高サハ、基礎高サヲ含ミマセン。
  0
TEXT
  5
F876
  8
2-0
  6
CONTINUOUS
 62
     7
 10
22172.668069228708
 20
11251.104441999991
 30
0.0
 40
160.0
  1
平　面　図
 72
     4
 11
22626.00140256204
 21
11325.77110866666
 31
0.0
  0
TEXT
  5
F877
  8
2-0
  6
CONTINUOUS
 62
     7
 10
9072.2249731349984
 20
11156.81700299998
 30
0.0
 40
160.0
  1
小 屋 伏 図
 72
     4
 11
9573.5583064683324
 21
11236.81700299998
 31
0.0
  0
TEXT
  5
F878
  8
2-0
  6
CONTINUOUS
 62
     7
 10
23977.493587699679
 20
11272.96647766667
 30
0.0
 40
160.0
  1
1
 72
     4
 11
24004.160254366339
 21
11352.96647766667
 31
0.0
  0
TEXT
  5
F879
  8
2-0
  6
CONTINUOUS
 62
     7
 10
24220.58230495036
 20
11192.967945666671
 30
0.0
 40
160.0
  1
80
 72
     4
 11
24340.58230495036
 21
11272.967945666671
 31
0.0
  0
TEXT
  5
F87A
  8
2-0
  6
CONTINUOUS
 62
     7
 10
23478.495553699671
 20
11245.77110866666
 30
0.0
 40
160.0
  1
(S=  /   )
 72
     4
 11
24038.495553699671
 21
11325.77110866666
 31
0.0
  0
TEXT
  5
F87B
  8
2-0
  6
CONTINUOUS
 62
     7
 10
10925.050491605951
 20
11184.012371999979
 30
0.0
 40
160.0
  1
1
 72
     4
 11
10951.717158272621
 21
11264.012371999979
 31
0.0
  0
TEXT
  5
F87C
  8
2-0
  6
CONTINUOUS
 62
     7
 10
11168.13920885665
 20
11104.01383999998
 30
0.0
 40
160.0
  1
80
 72
     4
 11
11288.13920885665
 21
11184.01383999998
 31
0.0
  0
TEXT
  5
F87D
  8
2-0
  6
CONTINUOUS
 62
     7
 10
10426.052457605951
 20
11156.81700299998
 30
0.0
 40
160.0
  1
(S=  /   )
 72
     4
 11
10986.052457605951
 21
11236.81700299998
 31
0.0
  0
TEXT
  5
F883
  8
2-0
  6
CONTINUOUS
 62
     7
 10
22472.73476422442
 20
3292.8025890000031
 30
0.0
 40
160.0
  1
正 面 立 面 図
 72
     4
 11
23118.068097557749
 21
3372.8025890000031
 31
0.0
  0
TEXT
  5
F884
  8
2-0
  6
CONTINUOUS
 62
     7
 10
8790.0232146297967
 20
3264.0669070000081
 30
0.0
 40
160.0
  1
側 面 立 面 図
 50
0.0001389999996588
 72
     4
 11
9435.3563538806193
 21
3344.0684725833789
 31
0.0
  0
TEXT
  5
F885
  8
2-0
  6
CONTINUOUS
 62
     7
 10
10786.84853901825
 20
3291.263841583379
 30
0.0
 40
160.0
  1
1
 72
     4
 11
10813.51520568492
 21
3371.263841583379
 31
0.0
  0
TEXT
  5
F886
  8
2-0
  6
CONTINUOUS
 62
     7
 10
11029.93725626894
 20
3211.2653095833812
 30
0.0
 40
160.0
  1
80
 72
     4
 11
11149.93725626894
 21
3291.2653095833798
 31
0.0
  0
TEXT
  5
F887
  8
2-0
  6
CONTINUOUS
 62
     7
 10
10287.85050501823
 20
3264.0684725833789
 30
0.0
 40
160.0
  1
(S=  /   )
 72
     4
 11
10847.85050501823
 21
3344.0684725833789
 31
0.0
  0
TEXT
  5
F888
  8
2-0
  6
CONTINUOUS
 62
     7
 10
24469.56028269534
 20
3319.9979580000049
 30
0.0
 40
160.0
  1
1
 72
     4
 11
24496.226949362012
 21
3399.9979580000049
 31
0.0
  0
TEXT
  5
F889
  8
2-0
  6
CONTINUOUS
 62
     7
 10
24712.648999946061
 20
3239.9994260000049
 30
0.0
 40
160.0
  1
80
 72
     4
 11
24832.648999946061
 21
3319.9994260000049
 31
0.0
  0
TEXT
  5
F88A
  8
2-0
  6
CONTINUOUS
 62
     7
 10
23970.562248695362
 20
3292.8025890000031
 30
0.0
 40
160.0
  1
(S=  /   )
 72
     4
 11
24530.562248695362
 21
3372.8025890000031
 31
0.0
  0
LINE
  5
F88B
  8
0-1
  6
CONTINUOUS
 62
     3
 10
26958.514223585142
 20
8132.6883740000021
 30
0.0
 11
24125.510792585181
 21
8132.6883740000021
 31
0.0
  0
LINE
  5
F88C
  8
0-1
  6
CONTINUOUS
 62
     3
 10
26958.514223585142
 20
8326.1887430000061
 30
0.0
 11
24125.510792585181
 21
8326.1887430000061
 31
0.0
  0
LINE
  5
F88D
  8
0-1
  6
CONTINUOUS
 62
     3
 10
27086.510528585171
 20
8264.002661999999
 30
0.0
 11
27086.510528585171
 21
8589.6883999999973
 31
0.0
  0
LINE
  5
F88E
  8
0-1
  6
CONTINUOUS
 62
     3
 10
24040.512243585181
 20
8459.6884660000014
 30
0.0
 11
27086.510528585171
 21
8459.6884660000014
 31
0.0
  0
LINE
  5
F88F
  8
0-1
  6
CONTINUOUS
 62
     3
 10
27086.510528585171
 20
8589.6883999999973
 30
0.0
 11
24060.50934058518
 21
8589.6883999999973
 31
0.0
  0
LINE
  5
F890
  8
0-1
  6
CONTINUOUS
 62
     3
 10
11737.54750569357
 20
8152.234418
 30
0.0
 11
11737.54750569357
 21
6291.1885390000016
 31
0.0
  0
LINE
  5
F891
  8
0-1
  6
CONTINUOUS
 62
     3
 10
11774.54569769356
 20
8152.234418
 30
0.0
 11
11774.54569769356
 21
6291.1885390000016
 31
0.0
  0
LINE
  5
F892
  8
0-1
  6
CONTINUOUS
 62
     3
 10
11037.54816569357
 20
8152.234418
 30
0.0
 11
11037.54816569357
 21
6291.1885390000016
 31
0.0
  0
LINE
  5
F893
  8
0-1
  6
CONTINUOUS
 62
     3
 10
11074.546357693571
 20
8152.234418
 30
0.0
 11
11074.546357693571
 21
6291.1885390000016
 31
0.0
  0
LINE
  5
F894
  8
0-1
  6
CONTINUOUS
 62
     3
 10
11416.04795469358
 20
6291.1885390000016
 30
0.0
 11
11416.04795469358
 21
8152.234418
 31
0.0
  0
LINE
  5
F895
  8
0-1
  6
CONTINUOUS
 62
     3
 10
11396.04689869355
 20
6291.1885390000016
 30
0.0
 11
11396.04689869355
 21
8152.234418
 31
0.0
  0
LINE
  5
F896
  8
0-1
  6
CONTINUOUS
 62
     3
 10
11466.046634693559
 20
6291.1885390000016
 30
0.0
 11
11466.046634693559
 21
8152.234418
 31
0.0
  0
LINE
  5
F897
  8
0-1
  6
CONTINUOUS
 62
     3
 10
11346.04722869356
 20
6291.1885390000016
 30
0.0
 11
11346.04722869356
 21
8152.234418
 31
0.0
  0
LINE
  5
F898
  8
0-1
  6
CONTINUOUS
 62
     3
 10
11213.047334693571
 20
6291.1885390000016
 30
0.0
 11
11213.047334693571
 21
8152.234418
 31
0.0
  0
LINE
  5
F899
  8
0-1
  6
CONTINUOUS
 62
     3
 10
11198.047532693559
 20
6291.1885390000016
 30
0.0
 11
11198.047532693559
 21
8152.234418
 31
0.0
  0
LINE
  5
F89A
  8
0-1
  6
CONTINUOUS
 62
     3
 10
11599.04751969356
 20
6291.1885390000016
 30
0.0
 11
11599.04751969356
 21
8152.234418
 31
0.0
  0
LINE
  5
F89B
  8
0-1
  6
CONTINUOUS
 62
     3
 10
11614.04633169356
 20
6291.1885390000016
 30
0.0
 11
11614.04633169356
 21
8152.234418
 31
0.0
  0
LINE
  5
F89C
  8
0-1
  6
CONTINUOUS
 62
     3
 10
11898.046872693551
 20
6291.1885390000016
 30
0.0
 11
11898.046872693551
 21
8152.234418
 31
0.0
  0
LINE
  5
F89D
  8
0-1
  6
CONTINUOUS
 62
     3
 10
11913.04766469356
 20
6291.1885390000016
 30
0.0
 11
11913.04766469356
 21
8152.234418
 31
0.0
  0
LINE
  5
F89E
  8
0-1
  6
CONTINUOUS
 62
     3
 10
12046.04656869358
 20
6291.1885390000016
 30
0.0
 11
12046.04656869358
 21
8152.234418
 31
0.0
  0
LINE
  5
F89F
  8
0-1
  6
CONTINUOUS
 62
     3
 10
12166.04795469356
 20
6291.1885390000016
 30
0.0
 11
12166.04795469356
 21
8152.234418
 31
0.0
  0
LINE
  5
F8A0
  8
0-1
  6
CONTINUOUS
 62
     3
 10
12096.04524969356
 20
6291.1885390000016
 30
0.0
 11
12096.04524969356
 21
8152.234418
 31
0.0
  0
LINE
  5
F8A1
  8
0-1
  6
CONTINUOUS
 62
     3
 10
12116.04630469356
 20
6291.1885390000016
 30
0.0
 11
12116.04630469356
 21
8152.234418
 31
0.0
  0
LINE
  5
F8A2
  8
0-1
  6
CONTINUOUS
 62
     3
 10
10914.04798069356
 20
6291.1885390000016
 30
0.0
 11
10914.04798069356
 21
8152.234418
 31
0.0
  0
LINE
  5
F8A3
  8
0-1
  6
CONTINUOUS
 62
     3
 10
10899.04718969356
 20
6291.1885390000016
 30
0.0
 11
10899.04718969356
 21
8152.234418
 31
0.0
  0
LINE
  5
F8A4
  8
0-1
  6
CONTINUOUS
 62
     3
 10
10766.04630469356
 20
6291.1885390000016
 30
0.0
 11
10766.04630469356
 21
8152.234418
 31
0.0
  0
LINE
  5
F8A5
  8
0-1
  6
CONTINUOUS
 62
     3
 10
10498.04720269356
 20
6291.1885390000016
 30
0.0
 11
10498.04720269356
 21
8152.234418
 31
0.0
  0
LINE
  5
F8A6
  8
0-1
  6
CONTINUOUS
 62
     3
 10
10513.04601469356
 20
6291.1885390000016
 30
0.0
 11
10513.04601469356
 21
8152.234418
 31
0.0
  0
LINE
  5
F8A7
  8
0-1
  6
CONTINUOUS
 62
     3
 10
10646.04689869357
 20
6291.1885390000016
 30
0.0
 11
10646.04689869357
 21
8152.234418
 31
0.0
  0
LINE
  5
F8A8
  8
0-1
  6
CONTINUOUS
 62
     3
 10
10696.04656869358
 20
6291.1885390000016
 30
0.0
 11
10696.04656869358
 21
8152.234418
 31
0.0
  0
LINE
  5
F8A9
  8
0-1
  6
CONTINUOUS
 62
     3
 10
10716.04564569355
 20
6291.1885390000016
 30
0.0
 11
10716.04564569355
 21
8152.234418
 31
0.0
  0
LINE
  5
F8AA
  8
0-1
  6
CONTINUOUS
 62
     3
 10
9888.0466746935726
 20
6291.1885390000016
 30
0.0
 11
9888.0466746935726
 21
8152.234418
 31
0.0
  0
LINE
  5
F8AB
  8
0-1
  6
CONTINUOUS
 62
     3
 10
9908.0457506935654
 20
6291.1885390000016
 30
0.0
 11
9908.0457506935654
 21
8152.234418
 31
0.0
  0
LINE
  5
F8AC
  8
0-1
  6
CONTINUOUS
 62
     3
 10
9838.0460146935802
 20
6291.1885390000016
 30
0.0
 11
9838.0460146935802
 21
8152.234418
 31
0.0
  0
LINE
  5
F8AD
  8
0-1
  6
CONTINUOUS
 62
     3
 10
9958.0464106935688
 20
6291.1885390000016
 30
0.0
 11
9958.0464106935688
 21
8152.234418
 31
0.0
  0
LINE
  5
F8AE
  8
0-1
  6
CONTINUOUS
 62
     3
 10
10091.04630469356
 20
6291.1885390000016
 30
0.0
 11
10091.04630469356
 21
8152.234418
 31
0.0
  0
LINE
  5
F8AF
  8
0-1
  6
CONTINUOUS
 62
     3
 10
10106.04808669357
 20
6291.1885390000016
 30
0.0
 11
10106.04808669357
 21
8152.234418
 31
0.0
  0
LINE
  5
F8B0
  8
0-1
  6
CONTINUOUS
 62
     3
 10
9705.0461206935724
 20
6291.1885390000016
 30
0.0
 11
9705.0461206935724
 21
8152.234418
 31
0.0
  0
LINE
  5
F8B1
  8
0-1
  6
CONTINUOUS
 62
     3
 10
9690.0473076935614
 20
6291.1885390000016
 30
0.0
 11
9690.0473076935614
 21
8152.234418
 31
0.0
  0
LINE
  5
F8B2
  8
0-1
  6
CONTINUOUS
 62
     3
 10
8488.0460146935638
 20
6291.1885390000016
 30
0.0
 11
8488.0460146935638
 21
8152.234418
 31
0.0
  0
LINE
  5
F8B3
  8
0-1
  6
CONTINUOUS
 62
     3
 10
8508.0470706935575
 20
6291.1885390000016
 30
0.0
 11
8508.0470706935575
 21
8152.234418
 31
0.0
  0
LINE
  5
F8B4
  8
0-1
  6
CONTINUOUS
 62
     3
 10
8438.0473346935614
 20
6291.1885390000016
 30
0.0
 11
8438.0473346935614
 21
8152.234418
 31
0.0
  0
LINE
  5
F8B5
  8
0-1
  6
CONTINUOUS
 62
     3
 10
8558.0457506935636
 20
6291.1885390000016
 30
0.0
 11
8558.0457506935636
 21
8152.234418
 31
0.0
  0
LINE
  5
F8B6
  8
0-1
  6
CONTINUOUS
 62
     3
 10
8691.0466346935646
 20
6291.1885390000016
 30
0.0
 11
8691.0466346935646
 21
8152.234418
 31
0.0
  0
LINE
  5
F8B7
  8
0-1
  6
CONTINUOUS
 62
     3
 10
8706.0464366935776
 20
6291.1885390000016
 30
0.0
 11
8706.0464366935776
 21
8152.234418
 31
0.0
  0
LINE
  5
F8B8
  8
0-1
  6
CONTINUOUS
 62
     3
 10
8305.048429693561
 20
6291.1885390000016
 30
0.0
 11
8305.048429693561
 21
8152.234418
 31
0.0
  0
LINE
  5
F8B9
  8
0-1
  6
CONTINUOUS
 62
     3
 10
8290.0466486935638
 20
6291.1885390000016
 30
0.0
 11
8290.0466486935638
 21
8152.234418
 31
0.0
  0
LINE
  5
F8BA
  8
0-1
  6
CONTINUOUS
 62
     3
 10
8990.0459886935714
 20
6291.1885390000016
 30
0.0
 11
8990.0459886935714
 21
8152.234418
 31
0.0
  0
LINE
  5
F8BB
  8
0-1
  6
CONTINUOUS
 62
     3
 10
9005.0477696935704
 20
6291.1885390000016
 30
0.0
 11
9005.0477696935704
 21
8152.234418
 31
0.0
  0
LINE
  5
F8BC
  8
0-1
  6
CONTINUOUS
 62
     3
 10
9406.0457776935637
 20
6291.1885390000016
 30
0.0
 11
9406.0457776935637
 21
8152.234418
 31
0.0
  0
LINE
  5
F8BD
  8
0-1
  6
CONTINUOUS
 62
     3
 10
9391.0469646935726
 20
6291.1885390000016
 30
0.0
 11
9391.0469646935726
 21
8152.234418
 31
0.0
  0
LINE
  5
F8BE
  8
0-1
  6
CONTINUOUS
 62
     3
 10
9258.0480606935598
 20
6291.1885390000016
 30
0.0
 11
9258.0480606935598
 21
8152.234418
 31
0.0
  0
LINE
  5
F8BF
  8
0-1
  6
CONTINUOUS
 62
     3
 10
9138.0466746935726
 20
6291.1885390000016
 30
0.0
 11
9138.0466746935726
 21
8152.234418
 31
0.0
  0
LINE
  5
F8C0
  8
0-1
  6
CONTINUOUS
 62
     3
 10
9208.0464106935833
 20
6291.1885390000016
 30
0.0
 11
9208.0464106935833
 21
8152.234418
 31
0.0
  0
LINE
  5
F8C1
  8
0-1
  6
CONTINUOUS
 62
     3
 10
9188.0473346935596
 20
6291.1885390000016
 30
0.0
 11
9188.0473346935596
 21
8152.234418
 31
0.0
  0
LINE
  5
F8C2
  8
0-1
  6
CONTINUOUS
 62
     3
 10
9529.5459616935677
 20
8152.234418
 30
0.0
 11
9529.5459616935677
 21
6291.1885390000016
 31
0.0
  0
LINE
  5
F8C3
  8
0-1
  6
CONTINUOUS
 62
     3
 10
9566.54712369357
 20
8152.234418
 30
0.0
 11
9566.54712369357
 21
6291.1885390000016
 31
0.0
  0
LINE
  5
F8C4
  8
0-1
  6
CONTINUOUS
 62
     3
 10
8129.5482716935658
 20
8152.234418
 30
0.0
 11
8129.5482716935658
 21
6291.1885390000016
 31
0.0
  0
LINE
  5
F8C5
  8
0-1
  6
CONTINUOUS
 62
     3
 10
8166.5474536935808
 20
8152.234418
 30
0.0
 11
8166.5474536935808
 21
6291.1885390000016
 31
0.0
  0
LINE
  5
F8C6
  8
0-1
  6
CONTINUOUS
 62
     3
 10
8829.5466216935747
 20
8152.234418
 30
0.0
 11
8829.5466216935747
 21
6291.1885390000016
 31
0.0
  0
LINE
  5
F8C7
  8
0-1
  6
CONTINUOUS
 62
     3
 10
8866.5467936935602
 20
8152.234418
 30
0.0
 11
8866.5467936935602
 21
6291.1885390000016
 31
0.0
  0
LINE
  5
F8C8
  8
0-1
  6
CONTINUOUS
 62
     3
 10
24033.011847585149
 20
6241.1883740000048
 30
0.0
 11
24133.011188585158
 21
6241.1883740000048
 31
0.0
  0
LINE
  5
F8C9
  8
0-1
  6
CONTINUOUS
 62
     3
 10
24133.011188585158
 20
6241.1883740000048
 30
0.0
 11
24133.011188585158
 21
6141.1885390000016
 31
0.0
  0
LINE
  5
F8CA
  8
0-1
  6
CONTINUOUS
 62
     3
 10
24033.011847585149
 20
6141.1885390000016
 30
0.0
 11
24033.011847585149
 21
6241.1883740000048
 31
0.0
  0
LINE
  5
F8CB
  8
0-1
  6
CONTINUOUS
 62
     3
 10
24125.510792585181
 20
8459.6884660000014
 30
0.0
 11
24125.510792585181
 21
6241.1883740000048
 31
0.0
  0
LINE
  5
F8CC
  8
0-1
  6
CONTINUOUS
 62
     3
 10
24177.010528585171
 20
8132.6883740000021
 30
0.0
 11
24177.010528585171
 21
6141.1885390000016
 31
0.0
  0
LINE
  5
F8CD
  8
0-1
  6
CONTINUOUS
 62
     3
 10
24060.50934058518
 20
8589.6883999999973
 30
0.0
 11
24060.50934058518
 21
6241.1883740000048
 31
0.0
  0
LINE
  5
F8CE
  8
0-1
  6
CONTINUOUS
 62
     3
 10
24040.510528585161
 20
8459.6884660000014
 30
0.0
 11
24040.510528585161
 21
6241.1883740000048
 31
0.0
  0
LINE
  5
F8CF
  8
0-1
  6
CONTINUOUS
 62
     3
 10
27086.510528585171
 20
8264.002661999999
 30
0.0
 11
27043.510528585171
 21
8264.002661999999
 31
0.0
  0
LINE
  5
F8D0
  8
0-1
  6
CONTINUOUS
 62
     3
 10
27051.013167585159
 20
6241.1883740000048
 30
0.0
 11
26951.013827585171
 21
6241.1883740000048
 31
0.0
  0
LINE
  5
F8D1
  8
0-1
  6
CONTINUOUS
 62
     3
 10
26951.013827585171
 20
6241.1883740000048
 30
0.0
 11
26951.013827585171
 21
6141.1885390000016
 31
0.0
  0
LINE
  5
F8D2
  8
0-1
  6
CONTINUOUS
 62
     3
 10
27051.013167585159
 20
6141.1885390000016
 30
0.0
 11
27051.013167585159
 21
6241.1883740000048
 31
0.0
  0
LINE
  5
F8D3
  8
0-1
  6
CONTINUOUS
 62
     3
 10
26907.010528585171
 20
8132.6883740000021
 30
0.0
 11
26907.010528585171
 21
6141.1885390000016
 31
0.0
  0
LINE
  5
F8D4
  8
0-1
  6
CONTINUOUS
 62
     3
 10
26958.514223585142
 20
8459.6884660000014
 30
0.0
 11
26958.514223585142
 21
6241.1883740000048
 31
0.0
  0
LINE
  5
F8D5
  8
0-1
  6
CONTINUOUS
 62
     3
 10
27023.513695585149
 20
8589.6883999999973
 30
0.0
 11
27023.513695585149
 21
6241.1883740000048
 31
0.0
  0
LINE
  5
F8D6
  8
0-1
  6
CONTINUOUS
 62
     3
 10
27043.510528585171
 20
8459.6884660000014
 30
0.0
 11
27043.510528585171
 21
6241.1883740000048
 31
0.0
  0
LINE
  5
F8D7
  8
0-1
  6
CONTINUOUS
 62
     3
 10
7679.547149693577
 20
6241.1883740000048
 30
0.0
 11
7679.547149693577
 21
6141.1885390000016
 31
0.0
  0
LINE
  5
F8D8
  8
0-1
  6
CONTINUOUS
 62
     3
 10
7712.0479406935801
 20
8455.5174490000081
 30
0.0
 11
7712.0479406935801
 21
6241.1883740000048
 31
0.0
  0
LINE
  5
F8D9
  8
0-1
  6
CONTINUOUS
 62
     3
 10
7692.0471496935697
 20
8456.0984380000027
 30
0.0
 11
7692.0471496935697
 21
6241.1883740000048
 31
0.0
  0
LINE
  5
F8DA
  8
0-1
  6
CONTINUOUS
 62
     3
 10
7807.0470176935851
 20
8152.234418
 30
0.0
 11
7807.0470176935851
 21
6241.1883740000048
 31
0.0
  0
LINE
  5
F8DB
  8
0-1
  6
CONTINUOUS
 62
     3
 10
10302.047149693581
 20
8356.9898810000013
 30
0.0
 11
10302.047149693581
 21
8152.234418
 31
0.0
  0
LINE
  5
F8DC
  8
0-1
  6
CONTINUOUS
 62
     3
 10
10374.54701769356
 20
8152.234418
 30
0.0
 11
10374.54701769356
 21
6241.1883740000048
 31
0.0
  0
LINE
  5
F8DD
  8
0-1
  6
CONTINUOUS
 62
     3
 10
10229.548271693569
 20
8152.234418
 30
0.0
 11
10229.548271693569
 21
6241.1883740000048
 31
0.0
  0
LINE
  5
F8DE
  8
0-1
  6
CONTINUOUS
 62
     3
 10
10229.548271693569
 20
6291.1885390000016
 30
0.0
 11
7807.0470176935851
 21
6291.1885390000016
 31
0.0
  0
LINE
  5
F8DF
  8
0-1
  6
CONTINUOUS
 62
     3
 10
26907.010528585171
 20
6661.1892650000009
 30
0.0
 11
24177.010528585171
 21
6661.1892650000009
 31
0.0
  0
LINE
  5
F8E0
  8
0-1
  6
CONTINUOUS
 62
     3
 10
26907.010528585171
 20
6596.1888030000027
 30
0.0
 11
24177.010528585171
 21
6596.1888030000027
 31
0.0
  0
LINE
  5
F8E1
  8
0-1
  6
CONTINUOUS
 62
     3
 10
26907.010528585171
 20
6531.1888360000012
 30
0.0
 11
24177.010528585171
 21
6531.1888360000012
 31
0.0
  0
LINE
  5
F8E2
  8
0-1
  6
CONTINUOUS
 62
     3
 10
26907.010528585171
 20
6466.1883740000048
 30
0.0
 11
24177.010528585171
 21
6466.1883740000048
 31
0.0
  0
LINE
  5
F8E3
  8
0-1
  6
CONTINUOUS
 62
     3
 10
26907.010528585171
 20
6401.1889020000099
 30
0.0
 11
24177.010528585171
 21
6401.1889020000099
 31
0.0
  0
LINE
  5
F8E4
  8
0-1
  6
CONTINUOUS
 62
     3
 10
26907.010528585171
 20
6336.1889350000083
 30
0.0
 11
24177.010528585171
 21
6336.1889350000083
 31
0.0
  0
LINE
  5
F8E5
  8
0-1
  6
CONTINUOUS
 62
     3
 10
26907.010528585171
 20
6271.1889680000022
 30
0.0
 11
24177.010528585171
 21
6271.1889680000022
 31
0.0
  0
LINE
  5
F8E6
  8
0-1
  6
CONTINUOUS
 62
     3
 10
26907.010528585171
 20
6206.1885060000059
 30
0.0
 11
24177.010528585171
 21
6206.1885060000059
 31
0.0
  0
LINE
  5
F8E7
  8
0-1
  6
CONTINUOUS
 62
     3
 10
26907.010528585171
 20
8026.1885720000073
 30
0.0
 11
24177.010528585171
 21
8026.1885720000073
 31
0.0
  0
LINE
  5
F8E8
  8
0-1
  6
CONTINUOUS
 62
     3
 10
26907.010528585171
 20
7961.1886050000021
 30
0.0
 11
24177.010528585171
 21
7961.1886050000021
 31
0.0
  0
LINE
  5
F8E9
  8
0-1
  6
CONTINUOUS
 62
     3
 10
26907.010528585171
 20
7896.1891330000062
 30
0.0
 11
24177.010528585171
 21
7896.1891330000062
 31
0.0
  0
LINE
  5
F8EA
  8
0-1
  6
CONTINUOUS
 62
     3
 10
26907.010528585171
 20
7831.1891659999974
 30
0.0
 11
24177.010528585171
 21
7831.1891659999974
 31
0.0
  0
LINE
  5
F8EB
  8
0-1
  6
CONTINUOUS
 62
     3
 10
26907.010528585171
 20
7766.1891990000058
 30
0.0
 11
24177.010528585171
 21
7766.1891990000058
 31
0.0
  0
LINE
  5
F8EC
  8
0-1
  6
CONTINUOUS
 62
     3
 10
26907.010528585171
 20
7701.188737000004
 30
0.0
 11
24177.010528585171
 21
7701.188737000004
 31
0.0
  0
LINE
  5
F8ED
  8
0-1
  6
CONTINUOUS
 62
     3
 10
26907.010528585171
 20
7636.1887699999979
 30
0.0
 11
24177.010528585171
 21
7636.1887699999979
 31
0.0
  0
LINE
  5
F8EE
  8
0-1
  6
CONTINUOUS
 62
     3
 10
26907.010528585171
 20
7571.1892980000039
 30
0.0
 11
24177.010528585171
 21
7571.1892980000039
 31
0.0
  0
LINE
  5
F8EF
  8
0-1
  6
CONTINUOUS
 62
     3
 10
26907.010528585171
 20
7506.1893310000032
 30
0.0
 11
24177.010528585171
 21
7506.1893310000032
 31
0.0
  0
LINE
  5
F8F0
  8
0-1
  6
CONTINUOUS
 62
     3
 10
26907.010528585171
 20
7441.1888690000051
 30
0.0
 11
24177.010528585171
 21
7441.1888690000051
 31
0.0
  0
LINE
  5
F8F1
  8
0-1
  6
CONTINUOUS
 62
     3
 10
26907.010528585171
 20
7376.188901999999
 30
0.0
 11
24177.010528585171
 21
7376.188901999999
 31
0.0
  0
LINE
  5
F8F2
  8
0-1
  6
CONTINUOUS
 62
     3
 10
26907.010528585171
 20
7311.1889350000029
 30
0.0
 11
24177.010528585171
 21
7311.1889350000029
 31
0.0
  0
LINE
  5
F8F3
  8
0-1
  6
CONTINUOUS
 62
     3
 10
26907.010528585171
 20
7246.1884730000029
 30
0.0
 11
24177.010528585171
 21
7246.1884730000029
 31
0.0
  0
LINE
  5
F8F4
  8
0-1
  6
CONTINUOUS
 62
     3
 10
26907.010528585171
 20
7181.1885059999986
 30
0.0
 11
24177.010528585171
 21
7181.1885059999986
 31
0.0
  0
LINE
  5
F8F5
  8
0-1
  6
CONTINUOUS
 62
     3
 10
26907.010528585171
 20
7116.1890340000027
 30
0.0
 11
24177.010528585171
 21
7116.1890340000027
 31
0.0
  0
LINE
  5
F8F6
  8
0-1
  6
CONTINUOUS
 62
     3
 10
26907.010528585171
 20
7051.1890670000003
 30
0.0
 11
24177.010528585171
 21
7051.1890670000003
 31
0.0
  0
LINE
  5
F8F7
  8
0-1
  6
CONTINUOUS
 62
     3
 10
26907.010528585171
 20
6986.1891000000032
 30
0.0
 11
24177.010528585171
 21
6986.1891000000032
 31
0.0
  0
LINE
  5
F8F8
  8
0-1
  6
CONTINUOUS
 62
     3
 10
26907.010528585171
 20
6921.1886380000069
 30
0.0
 11
24177.010528585171
 21
6921.1886380000069
 31
0.0
  0
LINE
  5
F8F9
  8
0-1
  6
CONTINUOUS
 62
     3
 10
26907.010528585171
 20
6856.1886710000053
 30
0.0
 11
24177.010528585171
 21
6856.1886710000053
 31
0.0
  0
LINE
  5
F8FA
  8
0-1
  6
CONTINUOUS
 62
     3
 10
26907.010528585171
 20
6791.1891990000004
 30
0.0
 11
24177.010528585171
 21
6791.1891990000004
 31
0.0
  0
LINE
  5
F8FB
  8
0-1
  6
CONTINUOUS
 62
     3
 10
26907.010528585171
 20
6726.1892320000024
 30
0.0
 11
24177.010528585171
 21
6726.1892320000024
 31
0.0
  0
LINE
  5
F8FC
  8
0-1
  6
CONTINUOUS
 62
     3
 10
26907.010528585171
 20
8080.6485920000059
 30
0.0
 11
24177.010528585171
 21
8080.6485920000059
 31
0.0
  0
LINE
  5
F8FD
  8
0-1
  6
CONTINUOUS
 62
     3
 10
27051.013167585159
 20
6141.1885390000016
 30
0.0
 11
20671.53215245996
 21
6141.1885390000016
 31
0.0
  0
LINE
  5
F8FE
  8
0-1
  6
CONTINUOUS
 62
     3
 10
12919.54714969357
 20
6141.1885390000016
 30
0.0
 11
12919.54714969357
 21
6241.1883740000048
 31
0.0
  0
LINE
  5
F8FF
  8
0-1
  6
CONTINUOUS
 62
     3
 10
12892.04734769356
 20
8268.9908770000056
 30
0.0
 11
12892.04734769356
 21
6241.1883740000048
 31
0.0
  0
LINE
  5
F900
  8
0-1
  6
CONTINUOUS
 62
     3
 10
12912.04714969357
 20
8268.3741496838138
 30
0.0
 11
12912.04714969357
 21
6241.1883740000048
 31
0.0
  0
LINE
  5
F901
  8
0-1
  6
CONTINUOUS
 62
     3
 10
12797.048270693571
 20
8152.234418
 30
0.0
 11
12797.048270693571
 21
6241.1883740000048
 31
0.0
  0
LINE
  5
F902
  8
0-1
  6
CONTINUOUS
 62
     3
 10
12919.54714969357
 20
6241.1883740000048
 30
0.0
 11
7679.547149693577
 21
6241.1883740000048
 31
0.0
  0
LINE
  5
F903
  8
0-1
  6
CONTINUOUS
 62
     3
 10
12797.048270693571
 20
6291.1885390000016
 30
0.0
 11
10374.54701769356
 21
6291.1885390000016
 31
0.0
  0
LINE
  5
F904
  8
0-1
  6
CONTINUOUS
 62
     3
 10
13602.04820469357
 20
6141.1885390000016
 30
0.0
 11
7679.547149693577
 21
6141.1885390000016
 31
0.0
  0
LINE
  5
F905
  8
0-1
  6
CONTINUOUS
 62
     3
 10
12892.04734769356
 20
8152.234418
 30
0.0
 11
7712.0479406935801
 21
8152.234418
 31
0.0
  0
LINE
  5
F906
  8
0-1
  6
CONTINUOUS
 62
     3
 10
26932.51126758516
 20
8335.1891200000027
 30
0.0
 11
26655.081737585158
 21
8335.1891200000027
 31
0.0
  0
LINE
  5
F907
  8
0-1
  6
CONTINUOUS
 62
     3
 10
26932.51126758516
 20
8377.188565000004
 30
0.0
 11
26623.084799585151
 21
8377.188565000004
 31
0.0
  0
LINE
  5
F908
  8
0-1
  6
CONTINUOUS
 62
     3
 10
26937.511530585161
 20
8340.1888889999973
 30
0.0
 11
26937.511530585161
 21
8372.1892910000024
 31
0.0
  0
LINE
  5
F909
  8
0-1
  6
CONTINUOUS
 62
     3
 10
26958.514223585142
 20
8386.1884470000005
 30
0.0
 11
24125.510792585181
 21
8386.1884470000005
 31
0.0
  0
LINE
  5
F90A
  8
0-1
  6
CONTINUOUS
 62
     3
 10
26651.548297585159
 20
8336.6529740000005
 30
0.0
 11
26619.547399585172
 21
8368.653376000002
 31
0.0
  0
LINE
  5
F90B
  8
0-1
  6
CONTINUOUS
 62
     3
 10
26937.511530585161
 20
8368.7889730000024
 30
0.0
 11
26619.418731585181
 21
8368.7889730000024
 31
0.0
  0
LINE
  5
F90C
  8
0-1
  6
CONTINUOUS
 62
     3
 10
26937.511530585161
 20
8360.3888860000006
 30
0.0
 11
26627.811889585151
 21
8360.3888860000006
 31
0.0
  0
LINE
  5
F90D
  8
0-1
  6
CONTINUOUS
 62
     3
 10
26937.511530585161
 20
8351.9892940000063
 30
0.0
 11
26636.21098758516
 21
8351.9892940000063
 31
0.0
  0
LINE
  5
F90E
  8
0-1
  6
CONTINUOUS
 62
     3
 10
26937.511530585161
 20
8343.5892070000064
 30
0.0
 11
26644.614043585159
 21
8343.5892070000064
 31
0.0
  0
LINE
  5
F90F
  8
0-1
  6
CONTINUOUS
 62
     3
 10
24146.51150458516
 20
8368.7889730000024
 30
0.0
 11
24464.604304585158
 21
8368.7889730000024
 31
0.0
  0
LINE
  5
F910
  8
0-1
  6
CONTINUOUS
 62
     3
 10
24146.51150458516
 20
8360.3888860000006
 30
0.0
 11
24456.209166585159
 21
8360.3888860000006
 31
0.0
  0
LINE
  5
F911
  8
0-1
  6
CONTINUOUS
 62
     3
 10
24146.51150458516
 20
8351.9892940000063
 30
0.0
 11
24447.810069585172
 21
8351.9892940000063
 31
0.0
  0
LINE
  5
F912
  8
0-1
  6
CONTINUOUS
 62
     3
 10
24146.51150458516
 20
8343.5892070000064
 30
0.0
 11
24439.410971585181
 21
8343.5892070000064
 31
0.0
  0
LINE
  5
F913
  8
0-1
  6
CONTINUOUS
 62
     3
 10
24151.511768585158
 20
8377.188565000004
 30
0.0
 11
24460.938236585189
 21
8377.188565000004
 31
0.0
  0
LINE
  5
F914
  8
0-1
  6
CONTINUOUS
 62
     3
 10
24151.511768585158
 20
8335.1891200000027
 30
0.0
 11
24428.941297585181
 21
8335.1891200000027
 31
0.0
  0
LINE
  5
F915
  8
0-1
  6
CONTINUOUS
 62
     3
 10
24146.51150458516
 20
8340.1888889999973
 30
0.0
 11
24146.51150458516
 21
8372.1892910000024
 31
0.0
  0
LINE
  5
F916
  8
0-1
  6
CONTINUOUS
 62
     3
 10
24432.47671858516
 20
8336.6529740000005
 30
0.0
 11
24464.473656585149
 21
8368.653376000002
 31
0.0
  0
LINE
  5
F917
  8
0-1
  6
CONTINUOUS
 62
     3
 10
13086.34897369357
 20
8303.1736990000081
 30
0.0
 11
7606.3574846935753
 21
8498.6897600000102
 31
0.0
  0
LINE
  5
F918
  8
0-1
  6
CONTINUOUS
 62
     3
 10
7607.8579596935742
 20
8548.6686450000016
 30
0.0
 11
13087.848458693579
 21
8353.151595000003
 31
0.0
  0
LINE
  5
F919
  8
0-1
  6
CONTINUOUS
 62
     3
 10
13090.938486693571
 20
8356.0604970000059
 30
0.0
 11
13091.898553693571
 21
8388.0460529999982
 31
0.0
  0
LINE
  5
F91A
  8
0-1
  6
CONTINUOUS
 62
     3
 10
13087.04972269356
 20
8393.1932959999976
 30
0.0
 11
7588.0885076935738
 21
8589.280448000005
 31
0.0
  0
LINE
  5
F91B
  8
0-1
  6
CONTINUOUS
 62
     3
 10
7584.183907693573
 20
8459.3389100000059
 30
0.0
 11
13083.14908169356
 21
8263.2522529999969
 31
0.0
  0
LINE
  5
F91C
  8
0-1
  6
CONTINUOUS
 62
     3
 10
13088.296819693571
 20
8268.099599000001
 30
0.0
 11
13089.25589669357
 21
8300.0856500000027
 31
0.0
  0
LINE
  5
F91D
  8
0-1
  6
CONTINUOUS
 62
     3
 10
13089.587465693559
 20
8311.0803910000013
 30
0.0
 11
13090.60790769356
 21
8345.0647660000031
 31
0.0
  0
LINE
  5
F91E
  8
0-1
  6
CONTINUOUS
 62
     3
 10
13087.69900469357
 20
8348.1538050000017
 30
0.0
 11
7607.7065266935751
 21
8543.6713500000023
 31
0.0
  0
LINE
  5
F91F
  8
0-1
  6
CONTINUOUS
 62
     3
 10
7606.5069386935793
 20
8503.6880440000023
 30
0.0
 11
13086.497436693569
 21
8308.1719840000005
 31
0.0
  0
LINE
  5
F920
  8
0-1
  6
CONTINUOUS
 62
     3
 10
10302.047149693581
 20
8356.9898810000013
 30
0.0
 11
10305.94977069356
 21
8486.9314190000005
 31
0.0
  0
LINE
  5
F921
  8
0-1
  6
CONTINUOUS
 62
     3
 10
7617.150809693574
 20
8458.3481610000017
 30
0.0
 11
7621.0524406935729
 21
8588.2896989999972
 31
0.0
  0
LINE
  5
F922
  8
0-1
  6
CONTINUOUS
 62
     3
 10
13074.55698069356
 20
8393.5684150000016
 30
0.0
 11
13070.65435969355
 21
8263.6273720000027
 31
0.0
  0
LINE
  5
F923
  8
0-2
  6
CONTINUOUS
 62
     4
 10
25178.322488085149
 20
6888.4152329999988
 30
0.0
 11
25278.321828085162
 21
6888.4152329999988
 31
0.0
  0
LINE
  5
F924
  8
0-2
  6
CONTINUOUS
 62
     4
 10
25905.706488085161
 20
6888.4152329999988
 30
0.0
 11
25805.70714808517
 21
6888.4152329999988
 31
0.0
  0
LINE
  5
F925
  8
0-5
  6
CONTINUOUS
 62
     4
 10
24083.010528585161
 20
4461.1889349999992
 30
0.0
 11
24083.010528585161
 21
4301.1893970000001
 31
0.0
  0
LINE
  5
F926
  8
0-5
  6
CONTINUOUS
 62
     4
 10
14899.909482739849
 20
6241.1883740000039
 30
0.0
 11
14779.909086739861
 21
6449.0353509999977
 31
0.0
  0
LINE
  5
F927
  8
0-5
  6
CONTINUOUS
 62
     4
 10
15019.907899739859
 20
6449.0353509999977
 30
0.0
 11
14899.909482739849
 21
6241.1883740000039
 31
0.0
  0
LINE
  5
F928
  8
0-5
  6
CONTINUOUS
 62
     4
 10
14779.909086739861
 20
6449.0353509999977
 30
0.0
 11
15019.907899739859
 21
6449.0353509999977
 31
0.0
  0
LINE
  5
F929
  8
0-5
  6
CONTINUOUS
 62
     4
 10
15377.61351497501
 20
6241.1883740000039
 30
0.0
 11
14002.04754569356
 21
6241.1883740000039
 31
0.0
  0
LINE
  5
F92A
  8
0-5
  6
CONTINUOUS
 62
     4
 10
27001.010528585171
 20
4461.1889349999992
 30
0.0
 11
27001.010528585171
 21
4301.1893970000001
 31
0.0
  0
LINE
  5
F92B
  8
0-5
  6
CONTINUOUS
 62
     4
 10
7734.5471496935788
 20
4461.1889349999992
 30
0.0
 11
7734.5471496935788
 21
4301.1893970000001
 31
0.0
  0
LINE
  5
F92C
  8
0-5
  6
CONTINUOUS
 62
     4
 10
10302.047149693581
 20
4461.1889349999992
 30
0.0
 11
10302.047149693581
 21
4301.1893970000001
 31
0.0
  0
LINE
  5
F92D
  8
0-5
  6
CONTINUOUS
 62
     4
 10
12869.54714969357
 20
4461.1889349999992
 30
0.0
 11
12869.54714969357
 21
4301.1893970000001
 31
0.0
  0
LINE
  5
F92E
  8
2-0
  6
CENTER2
 62
     6
 10
24083.010528585161
 20
5878.536116000002
 30
0.0
 11
24083.010528585161
 21
6915.6791430000012
 31
0.0
  0
LINE
  5
F92F
  8
2-0
  6
CENTER2
 62
     6
 10
27001.010528585171
 20
5878.536116000002
 30
0.0
 11
27001.010528585171
 21
6915.6791430000012
 31
0.0
  0
LINE
  5
F930
  8
2-0
  6
CENTER2
 62
     6
 10
7734.5471496935788
 20
5878.536116000002
 30
0.0
 11
7734.5471496935788
 21
6935.6787140000024
 31
0.0
  0
LINE
  5
F931
  8
2-0
  6
CENTER2
 62
     6
 10
10302.047149693581
 20
5878.536116000002
 30
0.0
 11
10302.047149693581
 21
6935.6787140000024
 31
0.0
  0
LINE
  5
F932
  8
2-0
  6
CENTER2
 62
     6
 10
12869.54714969357
 20
5878.536116000002
 30
0.0
 11
12869.54714969357
 21
6935.6787140000024
 31
0.0
  0
ARC
  5
F933
  8
0-1
  6
CONTINUOUS
 62
     3
 10
26932.51126758516
 20
8372.1892910000024
 30
0.0
 40
5.0
 50
0.0
 51
90.0
  0
ARC
  5
F934
  8
0-1
  6
CONTINUOUS
 62
     3
 10
26932.51126758516
 20
8340.1888889999973
 30
0.0
 40
5.0
 50
270.00001499981897
 51
0.0
  0
ARC
  5
F935
  8
0-1
  6
CONTINUOUS
 62
     3
 10
26655.081737585158
 20
8340.1888889999973
 30
0.0
 40
5.0
 50
225.00001499973911
 51
270.00001499981897
  0
ARC
  5
F936
  8
0-1
  6
CONTINUOUS
 62
     3
 10
26623.084799585151
 20
8372.1892910000024
 30
0.0
 40
5.0
 50
90.0
 51
225.00001499973911
  0
ARC
  5
F937
  8
0-1
  6
CONTINUOUS
 62
     3
 10
24151.511768585158
 20
8340.1888889999973
 30
0.0
 40
5.0
 50
180.0
 51
270.00001499981897
  0
ARC
  5
F938
  8
0-1
  6
CONTINUOUS
 62
     3
 10
24151.511768585158
 20
8372.1892910000024
 30
0.0
 40
5.0
 50
90.0
 51
180.0
  0
ARC
  5
F939
  8
0-1
  6
CONTINUOUS
 62
     3
 10
24460.938236585189
 20
8372.1892910000024
 30
0.0
 40
5.0
 50
315.00001500002458
 51
90.0
  0
ARC
  5
F93A
  8
0-1
  6
CONTINUOUS
 62
     3
 10
24428.941297585181
 20
8340.1888889999973
 30
0.0
 40
5.0
 50
270.00001499981897
 51
315.00001500002458
  0
ARC
  5
F93B
  8
0-1
  6
CONTINUOUS
 62
     3
 10
7607.1077226935813
 20
8523.6801919999998
 30
0.0
 40
24.999998999999999
 50
88.280013999973946
 51
268.2800139999739
  0
ARC
  5
F93C
  8
0-1
  6
CONTINUOUS
 62
     3
 10
13087.938526693561
 20
8356.1505650000054
 30
0.0
 40
3.0
 50
268.2800139999739
 51
358.28001399997981
  0
ARC
  5
F93D
  8
0-1
  6
CONTINUOUS
 62
     3
 10
13086.90125869357
 20
8388.195507000004
 30
0.0
 40
5.0
 50
358.28001399997981
 51
88.280013999973946
  0
ARC
  5
F93E
  8
0-1
  6
CONTINUOUS
 62
     3
 10
7612.1050166935893
 20
8523.5297490000103
 30
0.0
 40
69.999999000000003
 50
110.0668030000957
 51
246.49322500021549
  0
ARC
  5
F93F
  8
0-1
  6
CONTINUOUS
 62
     3
 10
13083.29754569356
 20
8268.250043
 30
0.0
 40
5.0
 50
268.2800139999739
 51
358.28001399997981
  0
ARC
  5
F940
  8
0-1
  6
CONTINUOUS
 62
     3
 10
13086.25890469357
 20
8300.1752230000075
 30
0.0
 40
3.0
 50
358.28001399997981
 51
88.280013999973946
  0
ARC
  5
F941
  8
0-1
  6
CONTINUOUS
 62
     3
 10
13086.274741693571
 20
8350.6979809999975
 30
0.0
 40
2.5
 50
88.280013999973946
 51
268.2800139999739
  0
ARC
  5
F942
  8
0-1
  6
CONTINUOUS
 62
     3
 10
13084.924709693571
 20
8305.7178750000021
 30
0.0
 40
2.5
 50
88.280013999973946
 51
268.2800139999739
  0
ARC
  5
F943
  8
0-1
  6
CONTINUOUS
 62
     3
 10
13087.608936693559
 20
8345.1553289999974
 30
0.0
 40
3.0
 50
358.28001399997981
 51
88.280013999973946
  0
ARC
  5
F944
  8
0-1
  6
CONTINUOUS
 62
     3
 10
7607.1077226935813
 20
8523.6801919999998
 30
0.0
 40
20.0
 50
88.280013999973946
 51
268.2800139999739
  0
ARC
  5
F945
  8
0-1
  6
CONTINUOUS
 62
     3
 10
13086.58849469356
 20
8311.1699640000006
 30
0.0
 40
3.0
 50
268.2800139999739
 51
358.28001399997981
  0
CIRCLE
  5
F946
  8
0-5
  6
CONTINUOUS
 62
     4
 10
24083.010528585161
 20
4101.1882420000047
 30
0.0
 40
199.9999949999999
  0
CIRCLE
  5
F947
  8
0-5
  6
CONTINUOUS
 62
     4
 10
10302.047149693581
 20
4101.1882420000047
 30
0.0
 40
199.9999949999999
  0
CIRCLE
  5
F948
  8
0-5
  6
CONTINUOUS
 62
     4
 10
7734.5471496935788
 20
4101.1882420000047
 30
0.0
 40
199.9999949999999
  0
CIRCLE
  5
F949
  8
0-5
  6
CONTINUOUS
 62
     4
 10
27001.010528585171
 20
4101.1882420000047
 30
0.0
 40
199.9999949999999
  0
CIRCLE
  5
F94A
  8
0-5
  6
CONTINUOUS
 62
     4
 10
12869.54714969357
 20
4101.1882420000047
 30
0.0
 40
199.9999949999999
  0
TEXT
  5
F94B
  8
0-5
  6
CONTINUOUS
 62
     7
 10
24028.256736918509
 20
4011.7132600000041
 30
0.0
 40
160.0
  1
2
 72
     4
 11
24081.590070251841
 21
4091.713260000005
 31
0.0
  0
TEXT
  5
F94C
  8
0-5
  6
CONTINUOUS
 62
     7
 10
28105.982293689322
 20
7195.369097493548
 30
0.0
 40
160.0
  1
(2131.5)
 50
90.0
 72
     4
 11
28025.982293689322
 21
7648.702430826881
 31
0.0
  0
TEXT
  5
F94D
  8
0-5
  6
CONTINUOUS
 62
     7
 10
14441.668078406519
 20
6529.0346249999966
 30
0.0
 40
160.0
  1
布基礎天端
 72
     4
 11
14900.334745073191
 21
6609.0346249999984
 31
0.0
  0
TEXT
  5
F94E
  8
0-5
  6
CONTINUOUS
 62
     7
 10
26947.677195251839
 20
4021.1882420000038
 30
0.0
 40
160.0
  1
3
 72
     4
 11
27001.010528585171
 21
4101.1882420000047
 31
0.0
  0
TEXT
  5
F94F
  8
0-5
  6
CONTINUOUS
 62
     7
 10
7674.8366430269061
 20
4017.9774460000049
 30
0.0
 40
160.0
  1
A
 72
     4
 11
7728.1699763602392
 21
4097.9774460000053
 31
0.0
  0
TEXT
  5
F950
  8
0-5
  6
CONTINUOUS
 62
     7
 10
10242.336643026891
 20
4017.9774460000049
 30
0.0
 40
160.0
  1
B
 72
     4
 11
10295.66997636023
 21
4097.9774460000053
 31
0.0
  0
TEXT
  5
F951
  8
0-5
  6
CONTINUOUS
 62
     7
 10
12809.836643026911
 20
4017.9774460000049
 30
0.0
 40
160.0
  1
C
 72
     4
 11
12863.169976360239
 21
4097.9774460000053
 31
0.0
  0
CIRCLE
  5
F952
  8
0-4
  6
CONTINUOUS
 62
     4
 10
25542.012508085161
 20
6627.2449750000023
 30
0.0
 40
18.487504999999981
  0
LINE
  5
F953
  8
1-前柱カバ-P
 10
21325.510528585161
 20
8459.6884660000014
 30
0.0
 11
21325.510528585161
 21
6141.1885390000016
 31
0.0
  0
LINE
  5
F954
  8
1-前柱カバ-P
 10
21240.510528585161
 20
8589.6883999999973
 30
0.0
 11
21240.510528585161
 21
6141.1885390000016
 31
0.0
  0
LINE
  5
F955
  8
0-1
  6
CONTINUOUS
 62
     3
 10
21197.510528585161
 20
8459.6884660000087
 30
0.0
 11
24125.510792585181
 21
8459.6884660000014
 31
0.0
  0
LINE
  5
F956
  8
0-1
  6
CONTINUOUS
 62
     3
 10
24060.50934058518
 20
8589.6883999999973
 30
0.0
 11
21197.510528585161
 21
8589.6883999999973
 31
0.0
  0
LINE
  5
F957
  8
0-1
  6
CONTINUOUS
 62
     3
 10
21197.510528585161
 20
8264.0026620000062
 30
0.0
 11
21197.510528585161
 21
8589.6883999999973
 31
0.0
  0
LINE
  5
F958
  8
0-1
  6
CONTINUOUS
 62
     3
 10
21197.510528585161
 20
8264.0026620000062
 30
0.0
 11
21240.510528585161
 21
8264.0026620000062
 31
0.0
  0
LINE
  5
F959
  8
2-0
  6
CENTER2
 62
     6
 10
21283.010528585161
 20
5878.536116000002
 30
0.0
 11
21283.010528585161
 21
6915.6791430000012
 31
0.0
  0
LINE
  5
F95A
  8
1-桁前P28
 10
21325.510528585161
 20
8261.1883740000048
 30
0.0
 11
24040.510528585161
 21
8261.1883740000048
 31
0.0
  0
LINE
  5
F95B
  8
0-5
  6
CONTINUOUS
 62
     4
 10
21283.010528585161
 20
4461.1889349999992
 30
0.0
 11
21283.010528585161
 21
4301.1893970000001
 31
0.0
  0
CIRCLE
  5
F95C
  8
0-5
  6
CONTINUOUS
 62
     4
 10
21283.010528585161
 20
4101.1882420000047
 30
0.0
 40
199.9999949999999
  0
TEXT
  5
F95D
  8
0-5
  6
CONTINUOUS
 62
     7
 10
21254.92340358517
 20
4011.7132600000041
 30
0.0
 40
160.0
  1
1
 72
     4
 11
21281.590070251841
 21
4091.713260000005
 31
0.0
  0
TEXT
  5
F95E
  8
0-5
  6
CONTINUOUS
 62
     7
 10
20395.13914132577
 20
7227.3884994165237
 30
0.0
 40
160.0
  1
(2260)
 50
90.0
 72
     4
 11
20315.13914132577
 21
7614.0551660831898
 31
0.0
  0
LINE
  5
F95F
  8
SUNPOU
  6
CONTINUOUS
 10
13092.04714969357
 20
9389.1900500000029
 30
0.0
 11
13596.835019586981
 21
9389.1900500000029
 31
0.0
  0
LINE
  5
F960
  8
0-5
  6
CONTINUOUS
 62
     4
 10
16702.927118549022
 20
6349.0350210000042
 30
0.0
 11
16582.928702549041
 21
6141.1885390000016
 31
0.0
  0
LINE
  5
F961
  8
0-5
  6
CONTINUOUS
 62
     4
 10
20633.936338198298
 20
6141.1885390000016
 30
0.0
 11
13675.607856058599
 21
6141.1885390000016
 31
0.0
  0
LINE
  5
F962
  8
0-5
  6
CONTINUOUS
 62
     4
 10
16582.928702549041
 20
6141.1885390000016
 30
0.0
 11
16462.928306549042
 21
6349.0350210000042
 31
0.0
  0
LINE
  5
F963
  8
0-5
  6
CONTINUOUS
 62
     4
 10
16462.928306549042
 20
6349.0350210000042
 30
0.0
 11
16702.927118549022
 21
6349.0350210000042
 31
0.0
  0
TEXT
  5
F964
  8
0-5
  6
CONTINUOUS
 62
     7
 10
16382.927118549011
 20
6429.0347900000024
 30
0.0
 40
160.0
  1
G.L
 72
     4
 11
16542.927118549022
 21
6509.0347900000043
 31
0.0
  0
LINE
  5
FABE
  8
2-0
  6
CENTER2
 62
     6
 10
29243.509736585129
 20
19317.986977999979
 30
0.0
 11
28723.51039658513
 21
19317.986977999979
 31
0.0
  0
LINE
  5
FABF
  8
2-0
  6
CENTER2
 62
     6
 10
28563.51039658513
 20
19317.986977999979
 30
0.0
 11
20978.403977633221
 21
19317.986977999979
 31
0.0
  0
LINE
  5
FAC0
  8
2-0
  6
CENTER2
 62
     6
 10
29243.509736585162
 20
16750.486977999979
 30
0.0
 11
28923.510396585141
 21
16750.486977999979
 31
0.0
  0
LINE
  5
FAC1
  8
2-0
  6
CENTER2
 62
     6
 10
28243.51105658515
 20
16750.486977999979
 30
0.0
 11
20978.403977633221
 21
16750.486977999979
 31
0.0
  0
LINE
  5
FAC2
  8
2-0
  6
CENTER2
 62
     6
 10
29243.509736585129
 20
14182.986977999981
 30
0.0
 11
28723.51039658513
 21
14182.986977999981
 31
0.0
  0
LINE
  5
FAC3
  8
2-0
  6
CENTER2
 62
     6
 10
28563.51039658513
 20
14182.986977999981
 30
0.0
 11
20978.403977633221
 21
14182.986977999981
 31
0.0
  0
CIRCLE
  5
FAC4
  8
0-5
  6
CONTINUOUS
 62
     4
 10
24083.008813585158
 20
21160.487901999972
 30
0.0
 40
199.9999949999999
  0
CIRCLE
  5
FAC5
  8
0-5
  6
CONTINUOUS
 62
     4
 10
29443.510396585119
 20
19317.986977999979
 30
0.0
 40
199.9999949999999
  0
CIRCLE
  5
FAC6
  8
0-5
  6
CONTINUOUS
 62
     4
 10
29443.510396585141
 20
16750.486977999979
 30
0.0
 40
199.9999949999999
  0
CIRCLE
  5
FAC7
  8
0-5
  6
CONTINUOUS
 62
     4
 10
29443.510396585119
 20
14182.986977999981
 30
0.0
 40
199.9999949999999
  0
CIRCLE
  5
FAC8
  8
0-5
  6
CONTINUOUS
 62
     4
 10
27001.008813585151
 20
21160.487901999972
 30
0.0
 40
199.9999949999999
  0
TEXT
  5
FAC9
  8
0-5
  6
CONTINUOUS
 62
     7
 10
24031.012490918481
 20
21074.262051999991
 30
0.0
 40
160.0
  1
2
 72
     4
 11
24084.345824251821
 21
21154.262051999991
 31
0.0
  0
TEXT
  5
FACA
  8
0-5
  6
CONTINUOUS
 62
     7
 10
26947.675480251819
 20
21080.487901999972
 30
0.0
 40
160.0
  1
3
 72
     4
 11
27001.008813585151
 21
21160.487901999972
 31
0.0
  0
TEXT
  5
FACB
  8
0-5
  6
CONTINUOUS
 62
     7
 10
29385.520091918472
 20
19226.368918999979
 30
0.0
 40
160.0
  1
C
 72
     4
 11
29438.8534252518
 21
19306.368918999979
 31
0.0
  0
TEXT
  5
FACC
  8
0-5
  6
CONTINUOUS
 62
     7
 10
29385.520091918472
 20
16658.868920000001
 30
0.0
 40
160.0
  1
B
 72
     4
 11
29438.8534252518
 21
16738.868920000001
 31
0.0
  0
TEXT
  5
FACD
  8
0-5
  6
CONTINUOUS
 62
     7
 10
29385.520091918472
 20
14091.36891899998
 30
0.0
 40
160.0
  1
A
 72
     4
 11
29438.8534252518
 21
14171.36891899998
 31
0.0
  0
LINE
  5
FACE
  8
2-0
  6
CENTER2
 62
     6
 10
21283.008813585151
 20
20960.489220999989
 30
0.0
 11
21283.008813585151
 21
13825.23309953157
 31
0.0
  0
CIRCLE
  5
FACF
  8
0-5
  6
CONTINUOUS
 62
     4
 10
21283.008813585151
 20
21160.487901999972
 30
0.0
 40
199.9999949999999
  0
TEXT
  5
FAD0
  8
0-5
  6
CONTINUOUS
 62
     7
 10
21257.67915758516
 20
21074.262051999991
 30
0.0
 40
160.0
  1
1
 72
     4
 11
21284.345824251832
 21
21154.262051999991
 31
0.0
  0
ARC
  5
FAD1
  8
1-後柱P
  6
HIDE-M
 62
     6
 10
21279.408813585142
 20
19249.936977999991
 30
0.0
 40
2.6000000000000001
 50
270.0
 51
0.000000000000007
  0
LINE
  5
FAD2
  8
1-後柱P
  6
HIDE-M
 62
     6
 10
21291.008813585158
 20
19247.887587846792
 30
0.0
 11
21291.008813585158
 21
19251.536977999989
 31
0.0
  0
LINE
  5
FAD3
  8
1-後柱P
  6
HIDE-M
 62
     6
 10
21281.008813585151
 20
19247.887587846792
 30
0.0
 11
21281.008813585151
 21
19251.536977999989
 31
0.0
  0
LINE
  5
FAD4
  8
1-後柱P
  6
1PL-M
 62
     6
 10
21286.008813585151
 20
19242.336977999988
 30
0.0
 11
21286.008813585151
 21
19256.536977999978
 31
0.0
  0
ARC
  5
FAD5
  8
1-後柱P
  6
HIDE-M
 62
     6
 10
21292.608813585131
 20
19249.936977999991
 30
0.0
 40
2.6000000000000001
 50
180.0
 51
270.0
  0
LINE
  5
FAD6
  8
1-後柱P
  6
HIDE-M
 62
     6
 10
21282.008813585158
 20
19249.936977999991
 30
0.0
 11
21282.008813585158
 21
19251.536977999989
 31
0.0
  0
LINE
  5
FAD7
  8
1-後柱P
  6
HIDE-M
 62
     6
 10
21290.008813585151
 20
19249.936977999991
 30
0.0
 11
21290.008813585151
 21
19251.536977999989
 31
0.0
  0
LINE
  5
FAD8
  8
1-後柱P
 10
21272.108813585139
 20
19362.23697799999
 30
0.0
 11
21293.908813585142
 21
19362.23697799999
 31
0.0
  0
LINE
  5
FAD9
  8
1-後柱P
 10
21323.908813585149
 20
19324.93697799998
 30
0.0
 11
21323.908813585149
 21
19332.23697799999
 31
0.0
  0
ARC
  5
FADA
  8
1-後柱P
 10
21293.908813585142
 20
19332.23697799999
 30
0.0
 40
30.0
 50
0.000000000000007
 51
90.0
  0
ARC
  5
FADB
  8
1-後柱P
 10
21293.908813585142
 20
19332.23697799999
 30
0.0
 40
31.600000000000001
 50
0.000000000000007
 51
90.0
  0
LINE
  5
FADC
  8
1-後柱P
 10
21272.108813585139
 20
19363.836977999999
 30
0.0
 11
21293.908813585142
 21
19363.836977999999
 31
0.0
  0
LINE
  5
FADD
  8
1-後柱P
 10
21325.508813585158
 20
19324.93697799998
 30
0.0
 11
21325.508813585158
 21
19332.23697799999
 31
0.0
  0
LINE
  5
FADE
  8
1-後柱P
 10
21302.508813585158
 20
19303.336977999988
 30
0.0
 11
21302.508813585158
 21
19313.336977999981
 31
0.0
  0
LINE
  5
FADF
  8
1-後柱P
 10
21300.908813585149
 20
19313.336977999981
 30
0.0
 11
21300.908813585149
 21
19303.336977999988
 31
0.0
  0
LINE
  5
FAE0
  8
1-後柱P
 10
21242.10881358515
 20
19324.93697799998
 30
0.0
 11
21242.10881358515
 21
19332.23697799999
 31
0.0
  0
ARC
  5
FAE1
  8
1-後柱P
 10
21272.108813585139
 20
19332.23697799999
 30
0.0
 40
30.0
 50
90.0
 51
180.0
  0
ARC
  5
FAE2
  8
1-後柱P
 10
21272.108813585139
 20
19332.23697799999
 30
0.0
 40
31.600000000000001
 50
90.0
 51
180.0
  0
LINE
  5
FAE3
  8
1-後柱P
 10
21240.508813585151
 20
19324.93697799998
 30
0.0
 11
21240.508813585151
 21
19332.23697799999
 31
0.0
  0
LINE
  5
FAE4
  8
1-後柱P
 10
21247.108813585131
 20
19318.336977999988
 30
0.0
 11
21258.508813585158
 21
19318.336977999988
 31
0.0
  0
ARC
  5
FAE5
  8
1-後柱P
 10
21247.108813585131
 20
19324.93697799998
 30
0.0
 40
6.599999999999997
 50
180.0
 51
270.0
  0
ARC
  5
FAE6
  8
1-後柱P
 10
21258.508813585158
 20
19313.336977999981
 30
0.0
 40
5.0
 50
0.000000000000007
 51
90.0
  0
LINE
  5
FAE7
  8
1-後柱P
 10
21247.108813585131
 20
19319.936977999991
 30
0.0
 11
21258.508813585158
 21
19319.936977999991
 31
0.0
  0
ARC
  5
FAE8
  8
1-後柱P
 10
21247.108813585131
 20
19324.93697799998
 30
0.0
 40
5.0
 50
180.0
 51
270.0
  0
LINE
  5
FAE9
  8
1-後柱P
 10
21263.508813585151
 20
19313.336977999981
 30
0.0
 11
21263.508813585151
 21
19253.93697799998
 31
0.0
  0
LINE
  5
FAEA
  8
1-後柱P
 10
21265.10881358515
 20
19313.336977999981
 30
0.0
 11
21265.10881358515
 21
19253.93697799998
 31
0.0
  0
ARC
  5
FAEB
  8
1-後柱P
 10
21258.508813585158
 20
19313.336977999981
 30
0.0
 40
6.599999999999997
 50
0.000000000000007
 51
90.0
  0
LINE
  5
FAEC
  8
1-後柱P
 10
21270.108813585139
 20
19247.336977999981
 30
0.0
 11
21303.508813585151
 21
19247.336977999981
 31
0.0
  0
ARC
  5
FAED
  8
1-後柱P
 10
21270.108813585139
 20
19253.93697799998
 30
0.0
 40
6.599999999999997
 50
180.0
 51
270.0
  0
LINE
  5
FAEE
  8
1-後柱P
 10
21270.108813585139
 20
19248.936977999991
 30
0.0
 11
21303.508813585151
 21
19248.936977999991
 31
0.0
  0
ARC
  5
FAEF
  8
1-後柱P
 10
21270.108813585139
 20
19253.93697799998
 30
0.0
 40
5.0
 50
180.0
 51
270.0
  0
LINE
  5
FAF0
  8
1-後柱P
 10
21303.508813585151
 20
19248.936977999991
 30
0.0
 11
21303.508813585151
 21
19247.336977999981
 31
0.0
  0
LINE
  5
FAF1
  8
1-後柱P
 10
21318.908813585142
 20
19318.336977999988
 30
0.0
 11
21307.508813585151
 21
19318.336977999988
 31
0.0
  0
ARC
  5
FAF2
  8
1-後柱P
 10
21318.908813585142
 20
19324.93697799998
 30
0.0
 40
6.599999999999997
 50
270.0
 51
0.000000000000007
  0
ARC
  5
FAF3
  8
1-後柱P
 10
21307.508813585151
 20
19313.336977999981
 30
0.0
 40
5.0
 50
90.0
 51
180.0
  0
LINE
  5
FAF4
  8
1-後柱P
 10
21307.508813585151
 20
19319.936977999991
 30
0.0
 11
21318.908813585142
 21
19319.936977999991
 31
0.0
  0
ARC
  5
FAF5
  8
1-後柱P
 10
21307.508813585151
 20
19313.336977999981
 30
0.0
 40
6.599999999999997
 50
90.0
 51
180.0
  0
ARC
  5
FAF6
  8
1-後柱P
 10
21318.908813585142
 20
19324.93697799998
 30
0.0
 40
5.0
 50
270.0
 51
0.000000000000007
  0
LINE
  5
FAF7
  8
1-後柱P
 10
21302.508813585158
 20
19303.336977999988
 30
0.0
 11
21300.908813585149
 21
19303.336977999988
 31
0.0
  0
LINE
  5
FAF8
  8
1-後柱カバ-P
 10
21325.508813585158
 20
19311.636977999991
 30
0.0
 11
21325.508813585158
 21
19252.336977999981
 31
0.0
  0
ARC
  5
FAF9
  8
1-後柱カバ-P
 10
21318.908813585142
 20
19252.336977999981
 30
0.0
 40
6.599999999999997
 50
270.0
 51
0.000000000000007
  0
LINE
  5
FAFA
  8
1-後柱カバ-P
 10
21323.908813585149
 20
19311.636977999991
 30
0.0
 11
21323.908813585149
 21
19252.336977999981
 31
0.0
  0
ARC
  5
FAFB
  8
1-後柱カバ-P
 10
21318.908813585142
 20
19311.636977999991
 30
0.0
 40
5.0
 50
0.000000000000007
 51
90.0
  0
LINE
  5
FAFC
  8
1-後柱カバ-P
 10
21318.908813585142
 20
19245.736977999979
 30
0.0
 11
21247.108813585131
 21
19245.736977999979
 31
0.0
  0
ARC
  5
FAFD
  8
1-後柱カバ-P
 10
21247.108813585131
 20
19252.336977999981
 30
0.0
 40
6.599999999999997
 50
180.0
 51
270.0
  0
LINE
  5
FAFE
  8
1-後柱カバ-P
 10
21318.908813585142
 20
19247.336977999981
 30
0.0
 11
21247.108813585131
 21
19247.336977999981
 31
0.0
  0
ARC
  5
FAFF
  8
1-後柱カバ-P
 10
21247.108813585131
 20
19252.336977999981
 30
0.0
 40
5.0
 50
180.0
 51
270.0
  0
ARC
  5
FB00
  8
1-後柱カバ-P
 10
21318.908813585142
 20
19252.336977999981
 30
0.0
 40
5.0
 50
270.0
 51
0.000000000000007
  0
LINE
  5
FB01
  8
1-後柱カバ-P
 10
21240.508813585151
 20
19252.336977999981
 30
0.0
 11
21240.508813585151
 21
19311.636977999991
 31
0.0
  0
LINE
  5
FB02
  8
1-後柱カバ-P
 10
21242.10881358515
 20
19252.336977999981
 30
0.0
 11
21242.10881358515
 21
19311.636977999991
 31
0.0
  0
ARC
  5
FB03
  8
1-後柱カバ-P
 10
21247.108813585131
 20
19311.636977999991
 30
0.0
 40
5.0
 50
90.0
 51
180.0
  0
LINE
  5
FB04
  8
1-後柱カバ-P
  6
1PL-M
 62
     6
 10
21283.008813585151
 20
19253.236977999979
 30
0.0
 11
21283.008813585151
 21
19240.23697799999
 31
0.0
  0
LINE
  5
FB05
  8
1-後柱カバ-P
  6
HIDE-M
 62
     6
 10
21290.008813585151
 20
19245.736977999979
 30
0.0
 11
21290.008813585151
 21
19247.336977999981
 31
0.0
  0
LINE
  5
FB06
  8
1-後柱カバ-P
  6
HIDE-M
 62
     6
 10
21276.008813585158
 20
19245.736977999979
 30
0.0
 11
21276.008813585158
 21
19247.336977999981
 31
0.0
  0
ARC
  5
FB07
  8
1-後柱カバ-P
 10
21318.908813585142
 20
19311.636977999991
 30
0.0
 40
6.599999999999997
 50
0.000000000000007
 51
90.0
  0
ARC
  5
FB08
  8
1-後柱カバ-P
 10
21247.108813585131
 20
19311.636977999991
 30
0.0
 40
6.599999999999997
 50
90.0
 51
180.0
  0
LINE
  5
FB09
  8
1-後柱カバ-P
 10
21255.508813585151
 20
19318.23697799999
 30
0.0
 11
21247.108813585131
 21
19318.23697799999
 31
0.0
  0
LINE
  5
FB0A
  8
1-後柱カバ-P
 10
21310.508813585158
 20
19318.23697799999
 30
0.0
 11
21318.908813585142
 21
19318.23697799999
 31
0.0
  0
LINE
  5
FB0B
  8
1-後柱カバ-P
 10
21255.508813585151
 20
19316.636977999991
 30
0.0
 11
21247.108813585131
 21
19316.636977999991
 31
0.0
  0
LINE
  5
FB0C
  8
1-後柱カバ-P
 10
21310.508813585158
 20
19316.636977999991
 30
0.0
 11
21318.908813585142
 21
19316.636977999991
 31
0.0
  0
LINE
  5
FB0D
  8
1-後柱カバ-P
 10
21310.508813585158
 20
19316.636977999991
 30
0.0
 11
21310.508813585158
 21
19318.23697799999
 31
0.0
  0
LINE
  5
FB0E
  8
1-後柱カバ-P
 10
21255.508813585151
 20
19318.23697799999
 30
0.0
 11
21255.508813585151
 21
19316.636977999991
 31
0.0
  0
LINE
  5
FB0F
  8
1-後柱カバ-P
  6
HIDE-M
 62
     6
 10
21251.60881358515
 20
19297.23697799999
 30
0.0
 11
21240.008813585158
 21
19297.23697799999
 31
0.0
  0
LINE
  5
FB10
  8
1-後柱カバ-P
  6
HIDE-M
 62
     6
 10
21251.60881358515
 20
19289.23697799999
 30
0.0
 11
21240.008813585158
 21
19289.23697799999
 31
0.0
  0
LINE
  5
FB11
  8
1-後柱カバ-P
  6
HIDE-M
 62
     6
 10
21251.60881358515
 20
19296.236977999979
 30
0.0
 11
21240.008813585158
 21
19296.236977999979
 31
0.0
  0
LINE
  5
FB12
  8
1-後柱カバ-P
  6
HIDE-M
 62
     6
 10
21251.60881358515
 20
19290.23697799999
 30
0.0
 11
21240.008813585158
 21
19290.23697799999
 31
0.0
  0
LINE
  5
FB13
  8
1-後柱カバ-P
 10
21250.60881358515
 20
19287.73697799999
 30
0.0
 11
21243.608813585139
 21
19287.73697799999
 31
0.0
  0
LINE
  5
FB14
  8
1-後柱カバ-P
 10
21243.608813585139
 20
19298.73697799999
 30
0.0
 11
21250.60881358515
 21
19298.73697799999
 31
0.0
  0
LINE
  5
FB15
  8
1-後柱カバ-P
 10
21243.608813585139
 20
19299.48697799999
 30
0.0
 11
21243.608813585139
 21
19286.98697799999
 31
0.0
  0
LINE
  5
FB16
  8
1-後柱カバ-P
 10
21240.008813585158
 20
19299.23697799999
 30
0.0
 11
21240.008813585158
 21
19287.23697799999
 31
0.0
  0
LINE
  5
FB17
  8
1-後柱カバ-P
  6
HIDE-M
 62
     6
 10
21242.10881358515
 20
19287.73697799999
 30
0.0
 11
21240.508813585151
 21
19287.73697799999
 31
0.0
  0
LINE
  5
FB18
  8
1-後柱カバ-P
 10
21240.008813585158
 20
19287.23697799999
 30
0.0
 11
21240.508813585151
 21
19287.73697799999
 31
0.0
  0
ARC
  5
FB19
  8
1-後柱カバ-P
 10
21242.85881358515
 20
19286.98697799999
 30
0.0
 40
0.75
 50
180.0
 51
0.000000000000007
  0
LINE
  5
FB1A
  8
1-後柱カバ-P
  6
HIDE-M
 62
     6
 10
21240.508813585151
 20
19298.73697799999
 30
0.0
 11
21242.10881358515
 21
19298.73697799999
 31
0.0
  0
LINE
  5
FB1B
  8
1-後柱カバ-P
 10
21240.008813585158
 20
19299.23697799999
 30
0.0
 11
21240.508813585151
 21
19298.73697799999
 31
0.0
  0
ARC
  5
FB1C
  8
1-後柱カバ-P
 10
21242.85881358515
 20
19299.48697799999
 30
0.0
 40
0.75
 50
0.000000000000007
 51
180.0
  0
LINE
  5
FB1D
  8
1-後柱カバ-P
 10
21251.60881358515
 20
19297.73697799999
 30
0.0
 11
21251.60881358515
 21
19288.73697799999
 31
0.0
  0
ARC
  5
FB1E
  8
1-後柱カバ-P
 10
21250.60881358515
 20
19288.73697799999
 30
0.0
 40
1.0
 50
270.0
 51
0.000000000000007
  0
ARC
  5
FB1F
  8
1-後柱カバ-P
 10
21250.60881358515
 20
19297.73697799999
 30
0.0
 40
1.0
 50
0.000000000000007
 51
90.0
  0
LINE
  5
FB20
  8
1-後柱カバ-P
  6
1PL-M
 62
     6
 10
21256.608813585131
 20
19293.23697799999
 30
0.0
 11
21235.008813585151
 21
19293.23697799999
 31
0.0
  0
LINE
  5
FB21
  8
1-後柱カバ-P
 10
21250.60881358515
 20
19277.73697799999
 30
0.0
 11
21243.608813585139
 21
19277.73697799999
 31
0.0
  0
LINE
  5
FB22
  8
1-後柱カバ-P
 10
21240.008813585158
 20
19285.23697799999
 30
0.0
 11
21240.008813585158
 21
19277.23697799999
 31
0.0
  0
LINE
  5
FB23
  8
1-後柱カバ-P
  6
HIDE-M
 62
     6
 10
21242.10881358515
 20
19277.73697799999
 30
0.0
 11
21240.508813585151
 21
19277.73697799999
 31
0.0
  0
LINE
  5
FB24
  8
1-後柱カバ-P
 10
21240.008813585158
 20
19277.23697799999
 30
0.0
 11
21240.508813585151
 21
19277.73697799999
 31
0.0
  0
ARC
  5
FB25
  8
1-後柱カバ-P
 10
21242.85881358515
 20
19276.986977999979
 30
0.0
 40
0.75
 50
180.0
 51
0.000000000000007
  0
LINE
  5
FB26
  8
1-後柱カバ-P
 10
21251.60881358515
 20
19286.736977999979
 30
0.0
 11
21251.60881358515
 21
19278.73697799999
 31
0.0
  0
ARC
  5
FB27
  8
1-後柱カバ-P
 10
21250.60881358515
 20
19278.73697799999
 30
0.0
 40
1.0
 50
270.0
 51
0.000000000000007
  0
LINE
  5
FB28
  8
1-後柱カバ-P
  6
1PL-M
 62
     6
 10
21256.608813585131
 20
19283.23697799999
 30
0.0
 11
21235.008813585151
 21
19283.23697799999
 31
0.0
  0
LINE
  5
FB29
  8
1-後柱カバ-P
 10
21243.608813585139
 20
19284.98697799999
 30
0.0
 11
21243.608813585139
 21
19276.986977999979
 31
0.0
  0
LINE
  5
FB2A
  8
1-後柱カバ-P
  6
HIDE-M
 62
     6
 10
21314.408813585149
 20
19297.23697799999
 30
0.0
 11
21326.008813585151
 21
19297.23697799999
 31
0.0
  0
LINE
  5
FB2B
  8
1-後柱カバ-P
  6
HIDE-M
 62
     6
 10
21314.408813585149
 20
19289.23697799999
 30
0.0
 11
21326.008813585151
 21
19289.23697799999
 31
0.0
  0
LINE
  5
FB2C
  8
1-後柱カバ-P
  6
HIDE-M
 62
     6
 10
21314.408813585149
 20
19296.236977999979
 30
0.0
 11
21326.008813585151
 21
19296.236977999979
 31
0.0
  0
LINE
  5
FB2D
  8
1-後柱カバ-P
  6
HIDE-M
 62
     6
 10
21314.408813585149
 20
19290.23697799999
 30
0.0
 11
21326.008813585151
 21
19290.23697799999
 31
0.0
  0
LINE
  5
FB2E
  8
1-後柱カバ-P
 10
21315.408813585142
 20
19287.73697799999
 30
0.0
 11
21322.408813585142
 21
19287.73697799999
 31
0.0
  0
LINE
  5
FB2F
  8
1-後柱カバ-P
 10
21322.408813585142
 20
19298.73697799999
 30
0.0
 11
21315.408813585142
 21
19298.73697799999
 31
0.0
  0
LINE
  5
FB30
  8
1-後柱カバ-P
 10
21322.408813585142
 20
19299.48697799999
 30
0.0
 11
21322.408813585142
 21
19286.98697799999
 31
0.0
  0
LINE
  5
FB31
  8
1-後柱カバ-P
 10
21326.008813585151
 20
19299.23697799999
 30
0.0
 11
21326.008813585151
 21
19287.23697799999
 31
0.0
  0
LINE
  5
FB32
  8
1-後柱カバ-P
  6
HIDE-M
 62
     6
 10
21323.908813585149
 20
19287.73697799999
 30
0.0
 11
21325.508813585158
 21
19287.73697799999
 31
0.0
  0
LINE
  5
FB33
  8
1-後柱カバ-P
 10
21326.008813585151
 20
19287.23697799999
 30
0.0
 11
21325.508813585158
 21
19287.73697799999
 31
0.0
  0
ARC
  5
FB34
  8
1-後柱カバ-P
 10
21323.158813585142
 20
19286.98697799999
 30
0.0
 40
0.75
 50
180.0
 51
0.000000000000007
  0
LINE
  5
FB35
  8
1-後柱カバ-P
  6
HIDE-M
 62
     6
 10
21325.508813585158
 20
19298.73697799999
 30
0.0
 11
21323.908813585149
 21
19298.73697799999
 31
0.0
  0
LINE
  5
FB36
  8
1-後柱カバ-P
 10
21326.008813585151
 20
19299.23697799999
 30
0.0
 11
21325.508813585158
 21
19298.73697799999
 31
0.0
  0
ARC
  5
FB37
  8
1-後柱カバ-P
 10
21323.158813585142
 20
19299.48697799999
 30
0.0
 40
0.75
 50
0.000000000000007
 51
180.0
  0
LINE
  5
FB38
  8
1-後柱カバ-P
 10
21314.408813585149
 20
19297.73697799999
 30
0.0
 11
21314.408813585149
 21
19288.73697799999
 31
0.0
  0
ARC
  5
FB39
  8
1-後柱カバ-P
 10
21315.408813585142
 20
19288.73697799999
 30
0.0
 40
1.0
 50
180.0
 51
270.0
  0
ARC
  5
FB3A
  8
1-後柱カバ-P
 10
21315.408813585142
 20
19297.73697799999
 30
0.0
 40
1.0
 50
90.0
 51
180.0
  0
LINE
  5
FB3B
  8
1-後柱カバ-P
  6
1PL-M
 62
     6
 10
21309.408813585142
 20
19293.23697799999
 30
0.0
 11
21331.008813585158
 21
19293.23697799999
 31
0.0
  0
LINE
  5
FB3C
  8
1-後柱カバ-P
 10
21315.408813585142
 20
19277.73697799999
 30
0.0
 11
21322.408813585142
 21
19277.73697799999
 31
0.0
  0
LINE
  5
FB3D
  8
1-後柱カバ-P
 10
21326.008813585151
 20
19285.23697799999
 30
0.0
 11
21326.008813585151
 21
19277.23697799999
 31
0.0
  0
LINE
  5
FB3E
  8
1-後柱カバ-P
  6
HIDE-M
 62
     6
 10
21323.908813585149
 20
19277.73697799999
 30
0.0
 11
21325.508813585158
 21
19277.73697799999
 31
0.0
  0
LINE
  5
FB3F
  8
1-後柱カバ-P
 10
21326.008813585151
 20
19277.23697799999
 30
0.0
 11
21325.508813585158
 21
19277.73697799999
 31
0.0
  0
ARC
  5
FB40
  8
1-後柱カバ-P
 10
21323.158813585142
 20
19276.986977999979
 30
0.0
 40
0.75
 50
180.0
 51
0.000000000000007
  0
LINE
  5
FB41
  8
1-後柱カバ-P
 10
21314.408813585149
 20
19286.736977999979
 30
0.0
 11
21314.408813585149
 21
19278.73697799999
 31
0.0
  0
ARC
  5
FB42
  8
1-後柱カバ-P
 10
21315.408813585142
 20
19278.73697799999
 30
0.0
 40
1.0
 50
180.0
 51
270.0
  0
LINE
  5
FB43
  8
1-後柱カバ-P
  6
1PL-M
 62
     6
 10
21309.408813585142
 20
19283.23697799999
 30
0.0
 11
21331.008813585158
 21
19283.23697799999
 31
0.0
  0
LINE
  5
FB44
  8
1-後柱カバ-P
 10
21322.408813585142
 20
19284.98697799999
 30
0.0
 11
21322.408813585142
 21
19276.986977999979
 31
0.0
  0
LINE
  5
FB45
  8
1-後柱カバ-P
  6
HIDE-M
 62
     6
 10
21251.60881358515
 20
19279.23697799999
 30
0.0
 11
21240.008813585158
 21
19279.23697799999
 31
0.0
  0
LINE
  5
FB46
  8
1-後柱カバ-P
  6
HIDE-M
 62
     6
 10
21251.60881358515
 20
19280.23697799999
 30
0.0
 11
21240.008813585158
 21
19280.23697799999
 31
0.0
  0
LINE
  5
FB47
  8
1-後柱カバ-P
  6
HIDE-M
 62
     6
 10
21314.408813585149
 20
19279.23697799999
 30
0.0
 11
21326.008813585151
 21
19279.23697799999
 31
0.0
  0
LINE
  5
FB48
  8
1-後柱カバ-P
  6
HIDE-M
 62
     6
 10
21314.408813585149
 20
19280.23697799999
 30
0.0
 11
21326.008813585151
 21
19280.23697799999
 31
0.0
  0
LINE
  5
FB49
  8
1-中柱P
 10
21247.108813585161
 20
16679.48697799999
 30
0.0
 11
21318.90881358516
 21
16679.48697799999
 31
0.0
  0
ARC
  5
FB4A
  8
1-中柱P
 10
21247.108813585161
 20
16684.48697799999
 30
0.0
 40
5.0
 50
180.0
 51
270.0
  0
ARC
  5
FB4B
  8
1-中柱P
 10
21318.90881358516
 20
16684.48697799999
 30
0.0
 40
5.0
 50
270.0
 51
0.000000000000007
  0
LINE
  5
FB4C
  8
1-中柱P
 10
21247.108813585161
 20
16677.886977999999
 30
0.0
 11
21318.90881358516
 21
16677.886977999999
 31
0.0
  0
ARC
  5
FB4D
  8
1-中柱P
 10
21247.108813585161
 20
16684.48697799999
 30
0.0
 40
6.599999999999997
 50
180.0
 51
270.0
  0
LINE
  5
FB4E
  8
1-中柱P
 10
21325.508813585158
 20
16743.786977999989
 30
0.0
 11
21325.508813585158
 21
16684.48697799999
 31
0.0
  0
ARC
  5
FB4F
  8
1-中柱P
 10
21318.90881358516
 20
16684.48697799999
 30
0.0
 40
6.599999999999997
 50
270.0
 51
0.000000000000007
  0
LINE
  5
FB50
  8
1-中柱P
 10
21323.908813585149
 20
16684.48697799999
 30
0.0
 11
21323.908813585149
 21
16743.786977999989
 31
0.0
  0
ARC
  5
FB51
  8
1-中柱P
 10
21318.90881358516
 20
16743.786977999989
 30
0.0
 40
5.0
 50
0.000000000000007
 51
90.0
  0
LINE
  5
FB52
  8
1-中柱P
 10
21240.508813585151
 20
16743.786977999989
 30
0.0
 11
21240.508813585151
 21
16684.48697799999
 31
0.0
  0
LINE
  5
FB53
  8
1-中柱P
 10
21242.108813585161
 20
16684.48697799999
 30
0.0
 11
21242.108813585161
 21
16743.786977999989
 31
0.0
  0
LINE
  5
FB54
  8
1-中柱P
 10
21247.108813585161
 20
16750.386977999991
 30
0.0
 11
21255.508813585151
 21
16750.386977999991
 31
0.0
  0
ARC
  5
FB55
  8
1-中柱P
 10
21247.108813585161
 20
16743.786977999989
 30
0.0
 40
6.599999999999997
 50
90.0
 51
180.0
  0
LINE
  5
FB56
  8
1-中柱P
 10
21247.108813585161
 20
16748.786977999978
 30
0.0
 11
21255.508813585151
 21
16748.786977999978
 31
0.0
  0
ARC
  5
FB57
  8
1-中柱P
 10
21255.508813585151
 20
16755.386977999991
 30
0.0
 40
6.599999999999997
 50
270.0
 51
0.000000000000007
  0
ARC
  5
FB58
  8
1-中柱P
 10
21247.108813585161
 20
16743.786977999989
 30
0.0
 40
5.0
 50
90.0
 51
180.0
  0
LINE
  5
FB59
  8
1-中柱P
 10
21260.508813585158
 20
16755.386977999991
 30
0.0
 11
21260.508813585158
 21
16814.786977999978
 31
0.0
  0
ARC
  5
FB5A
  8
1-中柱P
 10
21255.508813585151
 20
16755.386977999991
 30
0.0
 40
5.0
 50
270.0
 51
0.000000000000007
  0
LINE
  5
FB5B
  8
1-中柱P
 10
21262.108813585161
 20
16755.386977999991
 30
0.0
 11
21262.108813585161
 21
16814.786977999978
 31
0.0
  0
LINE
  5
FB5C
  8
1-中柱P
 10
21267.108813585161
 20
16821.386977999991
 30
0.0
 11
21300.508813585158
 21
16821.386977999991
 31
0.0
  0
ARC
  5
FB5D
  8
1-中柱P
 10
21267.108813585161
 20
16814.786977999978
 30
0.0
 40
6.599999999999997
 50
90.0
 51
180.0
  0
LINE
  5
FB5E
  8
1-中柱P
 10
21267.108813585161
 20
16819.786977999989
 30
0.0
 11
21300.508813585158
 21
16819.786977999989
 31
0.0
  0
ARC
  5
FB5F
  8
1-中柱P
 10
21267.108813585161
 20
16814.786977999978
 30
0.0
 40
5.0
 50
90.0
 51
180.0
  0
LINE
  5
FB60
  8
1-中柱P
 10
21300.508813585158
 20
16819.786977999989
 30
0.0
 11
21300.508813585158
 21
16821.386977999991
 31
0.0
  0
LINE
  5
FB61
  8
1-中柱P
 10
21318.90881358516
 20
16750.386977999991
 30
0.0
 11
21310.508813585158
 21
16750.386977999991
 31
0.0
  0
ARC
  5
FB62
  8
1-中柱P
 10
21318.90881358516
 20
16743.786977999989
 30
0.0
 40
6.599999999999997
 50
0.000000000000007
 51
90.0
  0
ARC
  5
FB63
  8
1-中柱P
 10
21310.508813585158
 20
16755.386977999991
 30
0.0
 40
5.0
 50
180.0
 51
270.0
  0
LINE
  5
FB64
  8
1-中柱P
 10
21310.508813585158
 20
16748.786977999978
 30
0.0
 11
21318.90881358516
 21
16748.786977999978
 31
0.0
  0
ARC
  5
FB65
  8
1-中柱P
 10
21310.508813585158
 20
16755.386977999991
 30
0.0
 40
6.599999999999997
 50
180.0
 51
270.0
  0
ARC
  5
FB66
  8
1-中柱P
  6
HIDE-M
 62
     6
 10
21276.408813585149
 20
16818.786977999989
 30
0.0
 40
2.6000000000000001
 50
0.000000000000007
 51
90.0
  0
LINE
  5
FB67
  8
1-中柱P
  6
HIDE-M
 62
     6
 10
21288.008813585151
 20
16820.836368153181
 30
0.0
 11
21288.008813585151
 21
16817.186978000002
 31
0.0
  0
LINE
  5
FB68
  8
1-中柱P
  6
HIDE-M
 62
     6
 10
21278.008813585158
 20
16820.836368153181
 30
0.0
 11
21278.008813585158
 21
16817.186978000002
 31
0.0
  0
LINE
  5
FB69
  8
1-中柱P
  6
1PL-M
 62
     6
 10
21283.008813585151
 20
16826.386977999991
 30
0.0
 11
21283.008813585151
 21
16812.186978000002
 31
0.0
  0
ARC
  5
FB6A
  8
1-中柱P
  6
HIDE-M
 62
     6
 10
21289.608813585161
 20
16818.786977999989
 30
0.0
 40
2.6000000000000001
 50
90.0
 51
180.0
  0
LINE
  5
FB6B
  8
1-中柱P
  6
HIDE-M
 62
     6
 10
21279.008813585151
 20
16818.786977999989
 30
0.0
 11
21279.008813585151
 21
16817.186978000002
 31
0.0
  0
LINE
  5
FB6C
  8
1-中柱P
  6
HIDE-M
 62
     6
 10
21287.008813585158
 20
16818.786977999989
 30
0.0
 11
21287.008813585158
 21
16817.186978000002
 31
0.0
  0
LINE
  5
FB6D
  8
1-中柱P
 10
21303.90881358516
 20
16755.386977999991
 30
0.0
 11
21303.90881358516
 21
16765.386977999991
 31
0.0
  0
LINE
  5
FB6E
  8
1-中柱P
 10
21305.508813585151
 20
16755.386977999991
 30
0.0
 11
21305.508813585151
 21
16765.386977999991
 31
0.0
  0
LINE
  5
FB6F
  8
1-中柱P
 10
21303.90881358516
 20
16765.386977999991
 30
0.0
 11
21305.508813585151
 21
16765.386977999991
 31
0.0
  0
LINE
  5
FB70
  8
1-中柱P
  6
1PL-M
 62
     6
 10
21255.508813585151
 20
16786.386977999991
 30
0.0
 11
21269.708813585152
 21
16786.386977999991
 31
0.0
  0
LINE
  5
FB71
  8
1-中柱P
  6
HIDE-M
 62
     6
 10
21251.608813585161
 20
16729.386977999999
 30
0.0
 11
21240.008813585158
 21
16729.386977999999
 31
0.0
  0
LINE
  5
FB72
  8
1-中柱P
  6
HIDE-M
 62
     6
 10
21251.608813585161
 20
16721.386977999991
 30
0.0
 11
21240.008813585158
 21
16721.386977999991
 31
0.0
  0
LINE
  5
FB73
  8
1-中柱P
  6
HIDE-M
 62
     6
 10
21251.608813585161
 20
16728.386977999999
 30
0.0
 11
21240.008813585158
 21
16728.386977999999
 31
0.0
  0
LINE
  5
FB74
  8
1-中柱P
  6
HIDE-M
 62
     6
 10
21251.608813585161
 20
16722.386977999991
 30
0.0
 11
21240.008813585158
 21
16722.386977999991
 31
0.0
  0
LINE
  5
FB75
  8
1-中柱P
 10
21250.608813585161
 20
16719.886977999991
 30
0.0
 11
21243.608813585161
 21
16719.886977999991
 31
0.0
  0
LINE
  5
FB76
  8
1-中柱P
 10
21243.608813585161
 20
16730.886977999991
 30
0.0
 11
21250.608813585161
 21
16730.886977999991
 31
0.0
  0
LINE
  5
FB77
  8
1-中柱P
 10
21243.608813585161
 20
16731.636977999991
 30
0.0
 11
21243.608813585161
 21
16719.136977999991
 31
0.0
  0
LINE
  5
FB78
  8
1-中柱P
 10
21240.008813585158
 20
16731.386977999991
 30
0.0
 11
21240.008813585158
 21
16719.386977999991
 31
0.0
  0
LINE
  5
FB79
  8
1-中柱P
  6
HIDE-M
 62
     6
 10
21242.108813585161
 20
16719.886977999991
 30
0.0
 11
21240.508813585151
 21
16719.886977999991
 31
0.0
  0
LINE
  5
FB7A
  8
1-中柱P
 10
21240.008813585158
 20
16719.386977999991
 30
0.0
 11
21240.508813585151
 21
16719.886977999991
 31
0.0
  0
ARC
  5
FB7B
  8
1-中柱P
 10
21242.858813585161
 20
16719.136977999991
 30
0.0
 40
0.75
 50
180.0
 51
0.000000000000007
  0
LINE
  5
FB7C
  8
1-中柱P
  6
HIDE-M
 62
     6
 10
21240.508813585151
 20
16730.886977999991
 30
0.0
 11
21242.108813585161
 21
16730.886977999991
 31
0.0
  0
LINE
  5
FB7D
  8
1-中柱P
 10
21240.008813585158
 20
16731.386977999991
 30
0.0
 11
21240.508813585151
 21
16730.886977999991
 31
0.0
  0
ARC
  5
FB7E
  8
1-中柱P
 10
21242.858813585161
 20
16731.636977999991
 30
0.0
 40
0.75
 50
0.000000000000007
 51
180.0
  0
LINE
  5
FB7F
  8
1-中柱P
 10
21251.608813585161
 20
16729.886977999991
 30
0.0
 11
21251.608813585161
 21
16720.886977999999
 31
0.0
  0
ARC
  5
FB80
  8
1-中柱P
 10
21250.608813585161
 20
16720.886977999999
 30
0.0
 40
1.0
 50
270.0
 51
0.000000000000007
  0
ARC
  5
FB81
  8
1-中柱P
 10
21250.608813585161
 20
16729.886977999991
 30
0.0
 40
1.0
 50
0.000000000000007
 51
90.0
  0
LINE
  5
FB82
  8
1-中柱P
  6
1PL-M
 62
     6
 10
21256.608813585161
 20
16725.386977999991
 30
0.0
 11
21235.008813585151
 21
16725.386977999991
 31
0.0
  0
LINE
  5
FB83
  8
1-中柱P
 10
21250.608813585161
 20
16709.886977999991
 30
0.0
 11
21243.608813585161
 21
16709.886977999991
 31
0.0
  0
LINE
  5
FB84
  8
1-中柱P
 10
21240.008813585158
 20
16717.386977999991
 30
0.0
 11
21240.008813585158
 21
16709.386977999999
 31
0.0
  0
LINE
  5
FB85
  8
1-中柱P
  6
HIDE-M
 62
     6
 10
21242.108813585161
 20
16709.886977999991
 30
0.0
 11
21240.508813585151
 21
16709.886977999991
 31
0.0
  0
LINE
  5
FB86
  8
1-中柱P
 10
21240.008813585158
 20
16709.386977999999
 30
0.0
 11
21240.508813585151
 21
16709.886977999991
 31
0.0
  0
ARC
  5
FB87
  8
1-中柱P
 10
21242.858813585161
 20
16709.136977999991
 30
0.0
 40
0.75
 50
180.0
 51
0.000000000000007
  0
LINE
  5
FB88
  8
1-中柱P
 10
21251.608813585161
 20
16718.886977999999
 30
0.0
 11
21251.608813585161
 21
16710.886977999991
 31
0.0
  0
ARC
  5
FB89
  8
1-中柱P
 10
21250.608813585161
 20
16710.886977999991
 30
0.0
 40
1.0
 50
270.0
 51
0.000000000000007
  0
LINE
  5
FB8A
  8
1-中柱P
  6
1PL-M
 62
     6
 10
21256.608813585161
 20
16715.386977999991
 30
0.0
 11
21235.008813585151
 21
16715.386977999991
 31
0.0
  0
LINE
  5
FB8B
  8
1-中柱P
 10
21243.608813585161
 20
16717.136977999999
 30
0.0
 11
21243.608813585161
 21
16709.136977999991
 31
0.0
  0
LINE
  5
FB8C
  8
1-中柱P
  6
HIDE-M
 62
     6
 10
21251.608813585161
 20
16711.386977999999
 30
0.0
 11
21240.008813585158
 21
16711.386977999999
 31
0.0
  0
LINE
  5
FB8D
  8
1-中柱P
  6
HIDE-M
 62
     6
 10
21251.608813585161
 20
16712.386977999991
 30
0.0
 11
21240.008813585158
 21
16712.386977999991
 31
0.0
  0
LINE
  5
FB8E
  8
1-中柱P
  6
HIDE-M
 62
     6
 10
21314.408813585149
 20
16729.386977999999
 30
0.0
 11
21326.008813585151
 21
16729.386977999999
 31
0.0
  0
LINE
  5
FB8F
  8
1-中柱P
  6
HIDE-M
 62
     6
 10
21314.408813585149
 20
16721.386977999991
 30
0.0
 11
21326.008813585151
 21
16721.386977999991
 31
0.0
  0
LINE
  5
FB90
  8
1-中柱P
  6
HIDE-M
 62
     6
 10
21314.408813585149
 20
16728.386977999999
 30
0.0
 11
21326.008813585151
 21
16728.386977999999
 31
0.0
  0
LINE
  5
FB91
  8
1-中柱P
  6
HIDE-M
 62
     6
 10
21314.408813585149
 20
16722.386977999991
 30
0.0
 11
21326.008813585151
 21
16722.386977999991
 31
0.0
  0
LINE
  5
FB92
  8
1-中柱P
 10
21315.40881358516
 20
16719.886977999991
 30
0.0
 11
21322.40881358516
 21
16719.886977999991
 31
0.0
  0
LINE
  5
FB93
  8
1-中柱P
 10
21322.40881358516
 20
16730.886977999991
 30
0.0
 11
21315.40881358516
 21
16730.886977999991
 31
0.0
  0
LINE
  5
FB94
  8
1-中柱P
 10
21322.40881358516
 20
16731.636977999991
 30
0.0
 11
21322.40881358516
 21
16719.136977999991
 31
0.0
  0
LINE
  5
FB95
  8
1-中柱P
 10
21326.008813585151
 20
16731.386977999991
 30
0.0
 11
21326.008813585151
 21
16719.386977999991
 31
0.0
  0
LINE
  5
FB96
  8
1-中柱P
  6
HIDE-M
 62
     6
 10
21323.908813585149
 20
16719.886977999991
 30
0.0
 11
21325.508813585158
 21
16719.886977999991
 31
0.0
  0
LINE
  5
FB97
  8
1-中柱P
 10
21326.008813585151
 20
16719.386977999991
 30
0.0
 11
21325.508813585158
 21
16719.886977999991
 31
0.0
  0
ARC
  5
FB98
  8
1-中柱P
 10
21323.158813585171
 20
16719.136977999991
 30
0.0
 40
0.75
 50
180.0
 51
0.000000000000007
  0
LINE
  5
FB99
  8
1-中柱P
  6
HIDE-M
 62
     6
 10
21325.508813585158
 20
16730.886977999991
 30
0.0
 11
21323.908813585149
 21
16730.886977999991
 31
0.0
  0
LINE
  5
FB9A
  8
1-中柱P
 10
21326.008813585151
 20
16731.386977999991
 30
0.0
 11
21325.508813585158
 21
16730.886977999991
 31
0.0
  0
ARC
  5
FB9B
  8
1-中柱P
 10
21323.158813585171
 20
16731.636977999991
 30
0.0
 40
0.75
 50
0.000000000000007
 51
180.0
  0
LINE
  5
FB9C
  8
1-中柱P
 10
21314.408813585149
 20
16729.886977999991
 30
0.0
 11
21314.408813585149
 21
16720.886977999999
 31
0.0
  0
ARC
  5
FB9D
  8
1-中柱P
 10
21315.40881358516
 20
16720.886977999999
 30
0.0
 40
1.0
 50
180.0
 51
270.0
  0
ARC
  5
FB9E
  8
1-中柱P
 10
21315.40881358516
 20
16729.886977999991
 30
0.0
 40
1.0
 50
90.0
 51
180.0
  0
LINE
  5
FB9F
  8
1-中柱P
  6
1PL-M
 62
     6
 10
21309.40881358516
 20
16725.386977999991
 30
0.0
 11
21331.008813585158
 21
16725.386977999991
 31
0.0
  0
LINE
  5
FBA0
  8
1-中柱P
 10
21315.40881358516
 20
16709.886977999991
 30
0.0
 11
21322.40881358516
 21
16709.886977999991
 31
0.0
  0
LINE
  5
FBA1
  8
1-中柱P
 10
21326.008813585151
 20
16717.386977999991
 30
0.0
 11
21326.008813585151
 21
16709.386977999999
 31
0.0
  0
LINE
  5
FBA2
  8
1-中柱P
  6
HIDE-M
 62
     6
 10
21323.908813585149
 20
16709.886977999991
 30
0.0
 11
21325.508813585158
 21
16709.886977999991
 31
0.0
  0
LINE
  5
FBA3
  8
1-中柱P
 10
21326.008813585151
 20
16709.386977999999
 30
0.0
 11
21325.508813585158
 21
16709.886977999991
 31
0.0
  0
ARC
  5
FBA4
  8
1-中柱P
 10
21323.158813585171
 20
16709.136977999991
 30
0.0
 40
0.75
 50
180.0
 51
0.000000000000007
  0
LINE
  5
FBA5
  8
1-中柱P
 10
21314.408813585149
 20
16718.886977999999
 30
0.0
 11
21314.408813585149
 21
16710.886977999991
 31
0.0
  0
ARC
  5
FBA6
  8
1-中柱P
 10
21315.40881358516
 20
16710.886977999991
 30
0.0
 40
1.0
 50
180.0
 51
270.0
  0
LINE
  5
FBA7
  8
1-中柱P
  6
1PL-M
 62
     6
 10
21309.40881358516
 20
16715.386977999991
 30
0.0
 11
21331.008813585158
 21
16715.386977999991
 31
0.0
  0
LINE
  5
FBA8
  8
1-中柱P
 10
21322.40881358516
 20
16717.136977999999
 30
0.0
 11
21322.40881358516
 21
16709.136977999991
 31
0.0
  0
LINE
  5
FBA9
  8
1-中柱P
  6
HIDE-M
 62
     6
 10
21314.408813585149
 20
16711.386977999999
 30
0.0
 11
21326.008813585151
 21
16711.386977999999
 31
0.0
  0
LINE
  5
FBAA
  8
1-中柱P
  6
HIDE-M
 62
     6
 10
21314.408813585149
 20
16712.386977999991
 30
0.0
 11
21326.008813585151
 21
16712.386977999991
 31
0.0
  0
LINE
  5
FBAB
  8
1-中柱カバ-P
 10
21325.508813585158
 20
16757.086977999999
 30
0.0
 11
21325.508813585158
 21
16816.386977999991
 31
0.0
  0
ARC
  5
FBAC
  8
1-中柱カバ-P
 10
21318.90881358516
 20
16816.386977999991
 30
0.0
 40
6.599999999999997
 50
0.000000000000007
 51
90.0
  0
LINE
  5
FBAD
  8
1-中柱カバ-P
 10
21323.908813585149
 20
16757.086977999999
 30
0.0
 11
21323.908813585149
 21
16816.386977999991
 31
0.0
  0
ARC
  5
FBAE
  8
1-中柱カバ-P
 10
21318.90881358516
 20
16757.086977999999
 30
0.0
 40
5.0
 50
270.0
 51
0.000000000000007
  0
LINE
  5
FBAF
  8
1-中柱カバ-P
 10
21318.90881358516
 20
16822.986977999979
 30
0.0
 11
21247.108813585161
 21
16822.986977999979
 31
0.0
  0
ARC
  5
FBB0
  8
1-中柱カバ-P
 10
21247.108813585161
 20
16816.386977999991
 30
0.0
 40
6.599999999999997
 50
90.0
 51
180.0
  0
LINE
  5
FBB1
  8
1-中柱カバ-P
 10
21318.90881358516
 20
16821.386977999991
 30
0.0
 11
21247.108813585161
 21
16821.386977999991
 31
0.0
  0
ARC
  5
FBB2
  8
1-中柱カバ-P
 10
21247.108813585161
 20
16816.386977999991
 30
0.0
 40
5.0
 50
90.0
 51
180.0
  0
ARC
  5
FBB3
  8
1-中柱カバ-P
 10
21318.90881358516
 20
16816.386977999991
 30
0.0
 40
5.0
 50
0.000000000000007
 51
90.0
  0
LINE
  5
FBB4
  8
1-中柱カバ-P
 10
21240.508813585151
 20
16816.386977999991
 30
0.0
 11
21240.508813585151
 21
16757.086977999999
 31
0.0
  0
LINE
  5
FBB5
  8
1-中柱カバ-P
 10
21242.108813585161
 20
16816.386977999991
 30
0.0
 11
21242.108813585161
 21
16757.086977999999
 31
0.0
  0
ARC
  5
FBB6
  8
1-中柱カバ-P
 10
21247.108813585161
 20
16757.086977999999
 30
0.0
 40
5.0
 50
180.0
 51
270.0
  0
LINE
  5
FBB7
  8
1-中柱カバ-P
  6
1PL-M
 62
     6
 10
21283.008813585151
 20
16815.48697799999
 30
0.0
 11
21283.008813585151
 21
16828.48697799999
 31
0.0
  0
LINE
  5
FBB8
  8
1-中柱カバ-P
  6
HIDE-M
 62
     6
 10
21290.008813585151
 20
16822.986977999979
 30
0.0
 11
21290.008813585151
 21
16821.386977999991
 31
0.0
  0
LINE
  5
FBB9
  8
1-中柱カバ-P
  6
HIDE-M
 62
     6
 10
21276.008813585158
 20
16822.986977999979
 30
0.0
 11
21276.008813585158
 21
16821.386977999991
 31
0.0
  0
ARC
  5
FBBA
  8
1-中柱カバ-P
 10
21318.90881358516
 20
16757.086977999999
 30
0.0
 40
6.599999999999997
 50
270.0
 51
0.000000000000007
  0
ARC
  5
FBBB
  8
1-中柱カバ-P
 10
21247.108813585161
 20
16757.086977999999
 30
0.0
 40
6.599999999999997
 50
180.0
 51
270.0
  0
LINE
  5
FBBC
  8
1-中柱カバ-P
 10
21255.508813585151
 20
16750.486977999979
 30
0.0
 11
21247.108813585161
 21
16750.486977999979
 31
0.0
  0
LINE
  5
FBBD
  8
1-中柱カバ-P
 10
21310.508813585158
 20
16750.486977999979
 30
0.0
 11
21318.90881358516
 21
16750.486977999979
 31
0.0
  0
LINE
  5
FBBE
  8
1-中柱カバ-P
 10
21255.508813585151
 20
16752.086977999981
 30
0.0
 11
21247.108813585161
 21
16752.086977999981
 31
0.0
  0
LINE
  5
FBBF
  8
1-中柱カバ-P
 10
21310.508813585158
 20
16752.086977999981
 30
0.0
 11
21318.90881358516
 21
16752.086977999981
 31
0.0
  0
LINE
  5
FBC0
  8
1-中柱カバ-P
 10
21310.508813585158
 20
16752.086977999981
 30
0.0
 11
21310.508813585158
 21
16750.486977999979
 31
0.0
  0
LINE
  5
FBC1
  8
1-中柱カバ-P
 10
21255.508813585151
 20
16750.486977999979
 30
0.0
 11
21255.508813585151
 21
16752.086977999981
 31
0.0
  0
LINE
  5
FBC2
  8
1-中柱カバ-P
  6
HIDE-M
 62
     6
 10
21251.608813585161
 20
16771.486977999979
 30
0.0
 11
21240.008813585158
 21
16771.486977999979
 31
0.0
  0
LINE
  5
FBC3
  8
1-中柱カバ-P
  6
HIDE-M
 62
     6
 10
21251.608813585161
 20
16779.48697799999
 30
0.0
 11
21240.008813585158
 21
16779.48697799999
 31
0.0
  0
LINE
  5
FBC4
  8
1-中柱カバ-P
  6
HIDE-M
 62
     6
 10
21251.608813585161
 20
16772.486977999979
 30
0.0
 11
21240.008813585158
 21
16772.486977999979
 31
0.0
  0
LINE
  5
FBC5
  8
1-中柱カバ-P
  6
HIDE-M
 62
     6
 10
21251.608813585161
 20
16778.48697799999
 30
0.0
 11
21240.008813585158
 21
16778.48697799999
 31
0.0
  0
LINE
  5
FBC6
  8
1-中柱カバ-P
 10
21250.608813585161
 20
16780.986977999979
 30
0.0
 11
21243.608813585161
 21
16780.986977999979
 31
0.0
  0
LINE
  5
FBC7
  8
1-中柱カバ-P
 10
21243.608813585161
 20
16769.98697799999
 30
0.0
 11
21250.608813585161
 21
16769.98697799999
 31
0.0
  0
LINE
  5
FBC8
  8
1-中柱カバ-P
 10
21243.608813585161
 20
16769.23697799999
 30
0.0
 11
21243.608813585161
 21
16781.73697799999
 31
0.0
  0
LINE
  5
FBC9
  8
1-中柱カバ-P
 10
21240.008813585158
 20
16769.486977999979
 30
0.0
 11
21240.008813585158
 21
16781.48697799999
 31
0.0
  0
LINE
  5
FBCA
  8
1-中柱カバ-P
  6
HIDE-M
 62
     6
 10
21242.108813585161
 20
16780.986977999979
 30
0.0
 11
21240.508813585151
 21
16780.986977999979
 31
0.0
  0
LINE
  5
FBCB
  8
1-中柱カバ-P
 10
21240.008813585158
 20
16781.48697799999
 30
0.0
 11
21240.508813585151
 21
16780.986977999979
 31
0.0
  0
ARC
  5
FBCC
  8
1-中柱カバ-P
 10
21242.858813585161
 20
16781.73697799999
 30
0.0
 40
0.75
 50
0.000000000000007
 51
180.0
  0
LINE
  5
FBCD
  8
1-中柱カバ-P
  6
HIDE-M
 62
     6
 10
21240.508813585151
 20
16769.98697799999
 30
0.0
 11
21242.108813585161
 21
16769.98697799999
 31
0.0
  0
LINE
  5
FBCE
  8
1-中柱カバ-P
 10
21240.008813585158
 20
16769.486977999979
 30
0.0
 11
21240.508813585151
 21
16769.98697799999
 31
0.0
  0
ARC
  5
FBCF
  8
1-中柱カバ-P
 10
21242.858813585161
 20
16769.23697799999
 30
0.0
 40
0.75
 50
180.0
 51
0.000000000000007
  0
LINE
  5
FBD0
  8
1-中柱カバ-P
 10
21251.608813585161
 20
16770.98697799999
 30
0.0
 11
21251.608813585161
 21
16779.986977999979
 31
0.0
  0
ARC
  5
FBD1
  8
1-中柱カバ-P
 10
21250.608813585161
 20
16779.986977999979
 30
0.0
 40
1.0
 50
0.000000000000007
 51
90.0
  0
ARC
  5
FBD2
  8
1-中柱カバ-P
 10
21250.608813585161
 20
16770.98697799999
 30
0.0
 40
1.0
 50
270.0
 51
0.000000000000007
  0
LINE
  5
FBD3
  8
1-中柱カバ-P
  6
1PL-M
 62
     6
 10
21256.608813585161
 20
16775.48697799999
 30
0.0
 11
21235.008813585151
 21
16775.48697799999
 31
0.0
  0
LINE
  5
FBD4
  8
1-中柱カバ-P
 10
21250.608813585161
 20
16790.98697799999
 30
0.0
 11
21243.608813585161
 21
16790.98697799999
 31
0.0
  0
LINE
  5
FBD5
  8
1-中柱カバ-P
 10
21240.008813585158
 20
16783.48697799999
 30
0.0
 11
21240.008813585158
 21
16791.486977999979
 31
0.0
  0
LINE
  5
FBD6
  8
1-中柱カバ-P
  6
HIDE-M
 62
     6
 10
21242.108813585161
 20
16790.98697799999
 30
0.0
 11
21240.508813585151
 21
16790.98697799999
 31
0.0
  0
LINE
  5
FBD7
  8
1-中柱カバ-P
 10
21240.008813585158
 20
16791.486977999979
 30
0.0
 11
21240.508813585151
 21
16790.98697799999
 31
0.0
  0
ARC
  5
FBD8
  8
1-中柱カバ-P
 10
21242.858813585161
 20
16791.73697799999
 30
0.0
 40
0.75
 50
0.000000000000007
 51
180.0
  0
LINE
  5
FBD9
  8
1-中柱カバ-P
 10
21251.608813585161
 20
16781.98697799999
 30
0.0
 11
21251.608813585161
 21
16789.98697799999
 31
0.0
  0
ARC
  5
FBDA
  8
1-中柱カバ-P
 10
21250.608813585161
 20
16789.98697799999
 30
0.0
 40
1.0
 50
0.000000000000007
 51
90.0
  0
LINE
  5
FBDB
  8
1-中柱カバ-P
  6
1PL-M
 62
     6
 10
21256.608813585161
 20
16785.48697799999
 30
0.0
 11
21235.008813585151
 21
16785.48697799999
 31
0.0
  0
LINE
  5
FBDC
  8
1-中柱カバ-P
 10
21243.608813585161
 20
16783.736977999979
 30
0.0
 11
21243.608813585161
 21
16791.73697799999
 31
0.0
  0
LINE
  5
FBDD
  8
1-中柱カバ-P
  6
HIDE-M
 62
     6
 10
21314.408813585149
 20
16771.486977999979
 30
0.0
 11
21326.008813585151
 21
16771.486977999979
 31
0.0
  0
LINE
  5
FBDE
  8
1-中柱カバ-P
  6
HIDE-M
 62
     6
 10
21314.408813585149
 20
16779.48697799999
 30
0.0
 11
21326.008813585151
 21
16779.48697799999
 31
0.0
  0
LINE
  5
FBDF
  8
1-中柱カバ-P
  6
HIDE-M
 62
     6
 10
21314.408813585149
 20
16772.486977999979
 30
0.0
 11
21326.008813585151
 21
16772.486977999979
 31
0.0
  0
LINE
  5
FBE0
  8
1-中柱カバ-P
  6
HIDE-M
 62
     6
 10
21314.408813585149
 20
16778.48697799999
 30
0.0
 11
21326.008813585151
 21
16778.48697799999
 31
0.0
  0
LINE
  5
FBE1
  8
1-中柱カバ-P
 10
21315.40881358516
 20
16780.986977999979
 30
0.0
 11
21322.40881358516
 21
16780.986977999979
 31
0.0
  0
LINE
  5
FBE2
  8
1-中柱カバ-P
 10
21322.40881358516
 20
16769.98697799999
 30
0.0
 11
21315.40881358516
 21
16769.98697799999
 31
0.0
  0
LINE
  5
FBE3
  8
1-中柱カバ-P
 10
21322.40881358516
 20
16769.23697799999
 30
0.0
 11
21322.40881358516
 21
16781.73697799999
 31
0.0
  0
LINE
  5
FBE4
  8
1-中柱カバ-P
 10
21326.008813585151
 20
16769.486977999979
 30
0.0
 11
21326.008813585151
 21
16781.48697799999
 31
0.0
  0
LINE
  5
FBE5
  8
1-中柱カバ-P
  6
HIDE-M
 62
     6
 10
21323.908813585149
 20
16780.986977999979
 30
0.0
 11
21325.508813585158
 21
16780.986977999979
 31
0.0
  0
LINE
  5
FBE6
  8
1-中柱カバ-P
 10
21326.008813585151
 20
16781.48697799999
 30
0.0
 11
21325.508813585158
 21
16780.986977999979
 31
0.0
  0
ARC
  5
FBE7
  8
1-中柱カバ-P
 10
21323.158813585171
 20
16781.73697799999
 30
0.0
 40
0.75
 50
0.000000000000007
 51
180.0
  0
LINE
  5
FBE8
  8
1-中柱カバ-P
  6
HIDE-M
 62
     6
 10
21325.508813585158
 20
16769.98697799999
 30
0.0
 11
21323.908813585149
 21
16769.98697799999
 31
0.0
  0
LINE
  5
FBE9
  8
1-中柱カバ-P
 10
21326.008813585151
 20
16769.486977999979
 30
0.0
 11
21325.508813585158
 21
16769.98697799999
 31
0.0
  0
ARC
  5
FBEA
  8
1-中柱カバ-P
 10
21323.158813585171
 20
16769.23697799999
 30
0.0
 40
0.75
 50
180.0
 51
0.000000000000007
  0
LINE
  5
FBEB
  8
1-中柱カバ-P
 10
21314.408813585149
 20
16770.98697799999
 30
0.0
 11
21314.408813585149
 21
16779.986977999979
 31
0.0
  0
ARC
  5
FBEC
  8
1-中柱カバ-P
 10
21315.40881358516
 20
16779.986977999979
 30
0.0
 40
1.0
 50
90.0
 51
180.0
  0
ARC
  5
FBED
  8
1-中柱カバ-P
 10
21315.40881358516
 20
16770.98697799999
 30
0.0
 40
1.0
 50
180.0
 51
270.0
  0
LINE
  5
FBEE
  8
1-中柱カバ-P
  6
1PL-M
 62
     6
 10
21309.40881358516
 20
16775.48697799999
 30
0.0
 11
21331.008813585158
 21
16775.48697799999
 31
0.0
  0
LINE
  5
FBEF
  8
1-中柱カバ-P
 10
21315.40881358516
 20
16790.98697799999
 30
0.0
 11
21322.40881358516
 21
16790.98697799999
 31
0.0
  0
LINE
  5
FBF0
  8
1-中柱カバ-P
 10
21326.008813585151
 20
16783.48697799999
 30
0.0
 11
21326.008813585151
 21
16791.486977999979
 31
0.0
  0
LINE
  5
FBF1
  8
1-中柱カバ-P
  6
HIDE-M
 62
     6
 10
21323.908813585149
 20
16790.98697799999
 30
0.0
 11
21325.508813585158
 21
16790.98697799999
 31
0.0
  0
LINE
  5
FBF2
  8
1-中柱カバ-P
 10
21326.008813585151
 20
16791.486977999979
 30
0.0
 11
21325.508813585158
 21
16790.98697799999
 31
0.0
  0
ARC
  5
FBF3
  8
1-中柱カバ-P
 10
21323.158813585171
 20
16791.73697799999
 30
0.0
 40
0.75
 50
0.000000000000007
 51
180.0
  0
LINE
  5
FBF4
  8
1-中柱カバ-P
 10
21314.408813585149
 20
16781.98697799999
 30
0.0
 11
21314.408813585149
 21
16789.98697799999
 31
0.0
  0
ARC
  5
FBF5
  8
1-中柱カバ-P
 10
21315.40881358516
 20
16789.98697799999
 30
0.0
 40
1.0
 50
90.0
 51
180.0
  0
LINE
  5
FBF6
  8
1-中柱カバ-P
  6
1PL-M
 62
     6
 10
21309.40881358516
 20
16785.48697799999
 30
0.0
 11
21331.008813585158
 21
16785.48697799999
 31
0.0
  0
LINE
  5
FBF7
  8
1-中柱カバ-P
 10
21322.40881358516
 20
16783.736977999979
 30
0.0
 11
21322.40881358516
 21
16791.73697799999
 31
0.0
  0
LINE
  5
FBF8
  8
1-中柱カバ-P
  6
HIDE-M
 62
     6
 10
21251.608813585161
 20
16789.48697799999
 30
0.0
 11
21240.008813585158
 21
16789.48697799999
 31
0.0
  0
LINE
  5
FBF9
  8
1-中柱カバ-P
  6
HIDE-M
 62
     6
 10
21251.608813585161
 20
16788.48697799999
 30
0.0
 11
21240.008813585158
 21
16788.48697799999
 31
0.0
  0
LINE
  5
FBFA
  8
1-中柱カバ-P
  6
HIDE-M
 62
     6
 10
21314.408813585149
 20
16789.48697799999
 30
0.0
 11
21326.008813585151
 21
16789.48697799999
 31
0.0
  0
LINE
  5
FBFB
  8
1-中柱カバ-P
  6
HIDE-M
 62
     6
 10
21314.408813585149
 20
16788.48697799999
 30
0.0
 11
21326.008813585151
 21
16788.48697799999
 31
0.0
  0
ARC
  5
FBFC
  8
1-前柱P
  6
HIDE-M
 62
     6
 10
21286.60881358515
 20
14251.386978
 30
0.0
 40
2.6000000000000001
 50
90.0
 51
180.0
  0
LINE
  5
FBFD
  8
1-前柱P
  6
HIDE-M
 62
     6
 10
21275.008813585151
 20
14253.43636815318
 30
0.0
 11
21275.008813585151
 21
14249.78697799998
 31
0.0
  0
LINE
  5
FBFE
  8
1-前柱P
  6
HIDE-M
 62
     6
 10
21285.008813585158
 20
14253.43636815318
 30
0.0
 11
21285.008813585158
 21
14249.78697799998
 31
0.0
  0
LINE
  5
FBFF
  8
1-前柱P
  6
1PL-M
 62
     6
 10
21280.008813585158
 20
14258.98697799999
 30
0.0
 11
21280.008813585158
 21
14244.78697799998
 31
0.0
  0
ARC
  5
FC00
  8
1-前柱P
  6
HIDE-M
 62
     6
 10
21273.408813585142
 20
14251.386978
 30
0.0
 40
2.6000000000000001
 50
0.000000000000007
 51
90.0
  0
LINE
  5
FC01
  8
1-前柱P
  6
HIDE-M
 62
     6
 10
21284.008813585158
 20
14251.386978
 30
0.0
 11
21284.008813585158
 21
14249.78697799998
 31
0.0
  0
LINE
  5
FC02
  8
1-前柱P
  6
HIDE-M
 62
     6
 10
21276.008813585158
 20
14251.386978
 30
0.0
 11
21276.008813585158
 21
14249.78697799998
 31
0.0
  0
LINE
  5
FC03
  8
1-前柱P
 10
21293.908813585142
 20
14139.08697799999
 30
0.0
 11
21272.108813585139
 21
14139.08697799999
 31
0.0
  0
LINE
  5
FC04
  8
1-前柱P
 10
21242.10881358515
 20
14176.386978
 30
0.0
 11
21242.10881358515
 21
14169.08697799999
 31
0.0
  0
ARC
  5
FC05
  8
1-前柱P
 10
21272.108813585139
 20
14169.08697799999
 30
0.0
 40
30.0
 50
180.0
 51
270.0
  0
ARC
  5
FC06
  8
1-前柱P
 10
21272.108813585139
 20
14169.08697799999
 30
0.0
 40
31.600000000000001
 50
180.0
 51
270.0
  0
LINE
  5
FC07
  8
1-前柱P
 10
21293.908813585142
 20
14137.48697799999
 30
0.0
 11
21272.108813585139
 21
14137.48697799999
 31
0.0
  0
LINE
  5
FC08
  8
1-前柱P
 10
21240.508813585151
 20
14176.386978
 30
0.0
 11
21240.508813585151
 21
14169.08697799999
 31
0.0
  0
LINE
  5
FC09
  8
1-前柱P
 10
21263.508813585151
 20
14197.98697799999
 30
0.0
 11
21263.508813585151
 21
14187.98697799999
 31
0.0
  0
LINE
  5
FC0A
  8
1-前柱P
 10
21265.10881358515
 20
14187.98697799999
 30
0.0
 11
21265.10881358515
 21
14197.98697799999
 31
0.0
  0
LINE
  5
FC0B
  8
1-前柱P
 10
21323.908813585149
 20
14176.386978
 30
0.0
 11
21323.908813585149
 21
14169.08697799999
 31
0.0
  0
ARC
  5
FC0C
  8
1-前柱P
 10
21293.908813585142
 20
14169.08697799999
 30
0.0
 40
30.0
 50
270.0
 51
0.000000000000007
  0
ARC
  5
FC0D
  8
1-前柱P
 10
21293.908813585142
 20
14169.08697799999
 30
0.0
 40
31.600000000000001
 50
270.0
 51
0.000000000000007
  0
LINE
  5
FC0E
  8
1-前柱P
 10
21325.508813585158
 20
14176.386978
 30
0.0
 11
21325.508813585158
 21
14169.08697799999
 31
0.0
  0
LINE
  5
FC0F
  8
1-前柱P
 10
21318.908813585142
 20
14182.986977999981
 30
0.0
 11
21307.508813585151
 21
14182.986977999981
 31
0.0
  0
ARC
  5
FC10
  8
1-前柱P
 10
21318.908813585142
 20
14176.386978
 30
0.0
 40
6.599999999999997
 50
0.000000000000007
 51
90.0
  0
ARC
  5
FC11
  8
1-前柱P
 10
21307.508813585151
 20
14187.98697799999
 30
0.0
 40
5.0
 50
180.0
 51
270.0
  0
LINE
  5
FC12
  8
1-前柱P
 10
21318.908813585142
 20
14181.38697799999
 30
0.0
 11
21307.508813585151
 21
14181.38697799999
 31
0.0
  0
ARC
  5
FC13
  8
1-前柱P
 10
21318.908813585142
 20
14176.386978
 30
0.0
 40
5.0
 50
0.000000000000007
 51
90.0
  0
LINE
  5
FC14
  8
1-前柱P
 10
21302.508813585158
 20
14187.98697799999
 30
0.0
 11
21302.508813585158
 21
14247.386978
 31
0.0
  0
LINE
  5
FC15
  8
1-前柱P
 10
21300.908813585149
 20
14187.98697799999
 30
0.0
 11
21300.908813585149
 21
14247.386978
 31
0.0
  0
ARC
  5
FC16
  8
1-前柱P
 10
21307.508813585151
 20
14187.98697799999
 30
0.0
 40
6.599999999999997
 50
180.0
 51
270.0
  0
LINE
  5
FC17
  8
1-前柱P
 10
21295.908813585142
 20
14253.98697799999
 30
0.0
 11
21262.508813585158
 21
14253.98697799999
 31
0.0
  0
ARC
  5
FC18
  8
1-前柱P
 10
21295.908813585142
 20
14247.386978
 30
0.0
 40
6.599999999999997
 50
0.000000000000007
 51
90.0
  0
LINE
  5
FC19
  8
1-前柱P
 10
21295.908813585142
 20
14252.386978
 30
0.0
 11
21262.508813585158
 21
14252.386978
 31
0.0
  0
ARC
  5
FC1A
  8
1-前柱P
 10
21295.908813585142
 20
14247.386978
 30
0.0
 40
5.0
 50
0.000000000000007
 51
90.0
  0
LINE
  5
FC1B
  8
1-前柱P
 10
21262.508813585158
 20
14252.386978
 30
0.0
 11
21262.508813585158
 21
14253.98697799999
 31
0.0
  0
LINE
  5
FC1C
  8
1-前柱P
 10
21247.108813585131
 20
14182.986977999981
 30
0.0
 11
21258.508813585158
 21
14182.986977999981
 31
0.0
  0
ARC
  5
FC1D
  8
1-前柱P
 10
21247.108813585131
 20
14176.386978
 30
0.0
 40
6.599999999999997
 50
90.0
 51
180.0
  0
ARC
  5
FC1E
  8
1-前柱P
 10
21258.508813585158
 20
14187.98697799999
 30
0.0
 40
5.0
 50
270.0
 51
0.000000000000007
  0
LINE
  5
FC1F
  8
1-前柱P
 10
21258.508813585158
 20
14181.38697799999
 30
0.0
 11
21247.108813585131
 21
14181.38697799999
 31
0.0
  0
ARC
  5
FC20
  8
1-前柱P
 10
21258.508813585158
 20
14187.98697799999
 30
0.0
 40
6.599999999999997
 50
270.0
 51
0.000000000000007
  0
ARC
  5
FC21
  8
1-前柱P
 10
21247.108813585131
 20
14176.386978
 30
0.0
 40
5.0
 50
90.0
 51
180.0
  0
LINE
  5
FC22
  8
1-前柱P
 10
21263.508813585151
 20
14197.98697799999
 30
0.0
 11
21265.10881358515
 21
14197.98697799999
 31
0.0
  0
LINE
  5
FC23
  8
1-前柱カバ-P
 10
21240.508813585151
 20
14189.686977999971
 30
0.0
 11
21240.508813585151
 21
14248.98697799999
 31
0.0
  0
ARC
  5
FC24
  8
1-前柱カバ-P
 10
21247.108813585131
 20
14248.98697799999
 30
0.0
 40
6.599999999999997
 50
90.0
 51
180.0
  0
LINE
  5
FC25
  8
1-前柱カバ-P
 10
21242.10881358515
 20
14189.686977999971
 30
0.0
 11
21242.10881358515
 21
14248.98697799999
 31
0.0
  0
ARC
  5
FC26
  8
1-前柱カバ-P
 10
21247.108813585131
 20
14189.686977999971
 30
0.0
 40
5.0
 50
180.0
 51
270.0
  0
LINE
  5
FC27
  8
1-前柱カバ-P
 10
21247.108813585131
 20
14255.586977999979
 30
0.0
 11
21318.908813585142
 21
14255.586977999979
 31
0.0
  0
ARC
  5
FC28
  8
1-前柱カバ-P
 10
21318.908813585142
 20
14248.98697799999
 30
0.0
 40
6.599999999999997
 50
0.000000000000007
 51
90.0
  0
LINE
  5
FC29
  8
1-前柱カバ-P
 10
21247.108813585131
 20
14253.98697799999
 30
0.0
 11
21318.908813585142
 21
14253.98697799999
 31
0.0
  0
ARC
  5
FC2A
  8
1-前柱カバ-P
 10
21318.908813585142
 20
14248.98697799999
 30
0.0
 40
5.0
 50
0.000000000000007
 51
90.0
  0
ARC
  5
FC2B
  8
1-前柱カバ-P
 10
21247.108813585131
 20
14248.98697799999
 30
0.0
 40
5.0
 50
90.0
 51
180.0
  0
LINE
  5
FC2C
  8
1-前柱カバ-P
 10
21325.508813585158
 20
14248.98697799999
 30
0.0
 11
21325.508813585158
 21
14189.686977999971
 31
0.0
  0
LINE
  5
FC2D
  8
1-前柱カバ-P
 10
21323.908813585149
 20
14248.98697799999
 30
0.0
 11
21323.908813585149
 21
14189.686977999971
 31
0.0
  0
ARC
  5
FC2E
  8
1-前柱カバ-P
 10
21318.908813585142
 20
14189.686977999971
 30
0.0
 40
5.0
 50
270.0
 51
0.000000000000007
  0
LINE
  5
FC2F
  8
1-前柱カバ-P
  6
1PL-M
 62
     6
 10
21283.008813585151
 20
14248.08697799999
 30
0.0
 11
21283.008813585151
 21
14261.08697799999
 31
0.0
  0
LINE
  5
FC30
  8
1-前柱カバ-P
  6
HIDE-M
 62
     6
 10
21276.008813585158
 20
14255.586977999979
 30
0.0
 11
21276.008813585158
 21
14253.98697799999
 31
0.0
  0
LINE
  5
FC31
  8
1-前柱カバ-P
  6
HIDE-M
 62
     6
 10
21290.008813585151
 20
14255.586977999979
 30
0.0
 11
21290.008813585151
 21
14253.98697799999
 31
0.0
  0
ARC
  5
FC32
  8
1-前柱カバ-P
 10
21247.108813585131
 20
14189.686977999971
 30
0.0
 40
6.599999999999997
 50
180.0
 51
270.0
  0
ARC
  5
FC33
  8
1-前柱カバ-P
 10
21318.908813585142
 20
14189.686977999971
 30
0.0
 40
6.599999999999997
 50
270.0
 51
0.000000000000007
  0
LINE
  5
FC34
  8
1-前柱カバ-P
 10
21310.508813585158
 20
14183.086977999979
 30
0.0
 11
21318.908813585142
 21
14183.086977999979
 31
0.0
  0
LINE
  5
FC35
  8
1-前柱カバ-P
 10
21255.508813585151
 20
14183.086977999979
 30
0.0
 11
21247.108813585131
 21
14183.086977999979
 31
0.0
  0
LINE
  5
FC36
  8
1-前柱カバ-P
 10
21310.508813585158
 20
14184.68697799998
 30
0.0
 11
21318.908813585142
 21
14184.68697799998
 31
0.0
  0
LINE
  5
FC37
  8
1-前柱カバ-P
 10
21255.508813585151
 20
14184.68697799998
 30
0.0
 11
21247.108813585131
 21
14184.68697799998
 31
0.0
  0
LINE
  5
FC38
  8
1-前柱カバ-P
 10
21255.508813585151
 20
14184.68697799998
 30
0.0
 11
21255.508813585151
 21
14183.086977999979
 31
0.0
  0
LINE
  5
FC39
  8
1-前柱カバ-P
 10
21310.508813585158
 20
14183.086977999979
 30
0.0
 11
21310.508813585158
 21
14184.68697799998
 31
0.0
  0
LINE
  5
FC3A
  8
1-前柱カバ-P
  6
HIDE-M
 62
     6
 10
21314.408813585149
 20
14204.08697799999
 30
0.0
 11
21326.008813585151
 21
14204.08697799999
 31
0.0
  0
LINE
  5
FC3B
  8
1-前柱カバ-P
  6
HIDE-M
 62
     6
 10
21314.408813585149
 20
14212.08697799999
 30
0.0
 11
21326.008813585151
 21
14212.08697799999
 31
0.0
  0
LINE
  5
FC3C
  8
1-前柱カバ-P
  6
HIDE-M
 62
     6
 10
21314.408813585149
 20
14205.086977999979
 30
0.0
 11
21326.008813585151
 21
14205.086977999979
 31
0.0
  0
LINE
  5
FC3D
  8
1-前柱カバ-P
  6
HIDE-M
 62
     6
 10
21314.408813585149
 20
14211.08697799999
 30
0.0
 11
21326.008813585151
 21
14211.08697799999
 31
0.0
  0
LINE
  5
FC3E
  8
1-前柱カバ-P
 10
21315.408813585142
 20
14213.586977999979
 30
0.0
 11
21322.408813585142
 21
14213.586977999979
 31
0.0
  0
LINE
  5
FC3F
  8
1-前柱カバ-P
 10
21322.408813585142
 20
14202.58697799999
 30
0.0
 11
21315.408813585142
 21
14202.58697799999
 31
0.0
  0
LINE
  5
FC40
  8
1-前柱カバ-P
 10
21322.408813585142
 20
14201.83697799999
 30
0.0
 11
21322.408813585142
 21
14214.33697799999
 31
0.0
  0
LINE
  5
FC41
  8
1-前柱カバ-P
 10
21326.008813585151
 20
14202.086977999979
 30
0.0
 11
21326.008813585151
 21
14214.08697799999
 31
0.0
  0
LINE
  5
FC42
  8
1-前柱カバ-P
  6
HIDE-M
 62
     6
 10
21323.908813585149
 20
14213.586977999979
 30
0.0
 11
21325.508813585158
 21
14213.586977999979
 31
0.0
  0
LINE
  5
FC43
  8
1-前柱カバ-P
 10
21326.008813585151
 20
14214.08697799999
 30
0.0
 11
21325.508813585158
 21
14213.586977999979
 31
0.0
  0
ARC
  5
FC44
  8
1-前柱カバ-P
 10
21323.158813585142
 20
14214.33697799999
 30
0.0
 40
0.75
 50
0.000000000000007
 51
180.0
  0
LINE
  5
FC45
  8
1-前柱カバ-P
  6
HIDE-M
 62
     6
 10
21325.508813585158
 20
14202.58697799999
 30
0.0
 11
21323.908813585149
 21
14202.58697799999
 31
0.0
  0
LINE
  5
FC46
  8
1-前柱カバ-P
 10
21326.008813585151
 20
14202.086977999979
 30
0.0
 11
21325.508813585158
 21
14202.58697799999
 31
0.0
  0
ARC
  5
FC47
  8
1-前柱カバ-P
 10
21323.158813585142
 20
14201.83697799999
 30
0.0
 40
0.75
 50
180.0
 51
0.000000000000007
  0
LINE
  5
FC48
  8
1-前柱カバ-P
 10
21314.408813585149
 20
14203.58697799999
 30
0.0
 11
21314.408813585149
 21
14212.58697799999
 31
0.0
  0
ARC
  5
FC49
  8
1-前柱カバ-P
 10
21315.408813585142
 20
14212.58697799999
 30
0.0
 40
1.0
 50
90.0
 51
180.0
  0
ARC
  5
FC4A
  8
1-前柱カバ-P
 10
21315.408813585142
 20
14203.58697799999
 30
0.0
 40
1.0
 50
180.0
 51
270.0
  0
LINE
  5
FC4B
  8
1-前柱カバ-P
  6
1PL-M
 62
     6
 10
21309.408813585142
 20
14208.08697799999
 30
0.0
 11
21331.008813585158
 21
14208.08697799999
 31
0.0
  0
LINE
  5
FC4C
  8
1-前柱カバ-P
 10
21315.408813585142
 20
14223.58697799999
 30
0.0
 11
21322.408813585142
 21
14223.58697799999
 31
0.0
  0
LINE
  5
FC4D
  8
1-前柱カバ-P
 10
21326.008813585151
 20
14216.08697799999
 30
0.0
 11
21326.008813585151
 21
14224.08697799999
 31
0.0
  0
LINE
  5
FC4E
  8
1-前柱カバ-P
  6
HIDE-M
 62
     6
 10
21323.908813585149
 20
14223.58697799999
 30
0.0
 11
21325.508813585158
 21
14223.58697799999
 31
0.0
  0
LINE
  5
FC4F
  8
1-前柱カバ-P
 10
21326.008813585151
 20
14224.08697799999
 30
0.0
 11
21325.508813585158
 21
14223.58697799999
 31
0.0
  0
ARC
  5
FC50
  8
1-前柱カバ-P
 10
21323.158813585142
 20
14224.33697799999
 30
0.0
 40
0.75
 50
0.000000000000007
 51
180.0
  0
LINE
  5
FC51
  8
1-前柱カバ-P
 10
21314.408813585149
 20
14214.58697799999
 30
0.0
 11
21314.408813585149
 21
14222.58697799999
 31
0.0
  0
ARC
  5
FC52
  8
1-前柱カバ-P
 10
21315.408813585142
 20
14222.58697799999
 30
0.0
 40
1.0
 50
90.0
 51
180.0
  0
LINE
  5
FC53
  8
1-前柱カバ-P
  6
1PL-M
 62
     6
 10
21309.408813585142
 20
14218.08697799999
 30
0.0
 11
21331.008813585158
 21
14218.08697799999
 31
0.0
  0
LINE
  5
FC54
  8
1-前柱カバ-P
 10
21322.408813585142
 20
14216.33697799999
 30
0.0
 11
21322.408813585142
 21
14224.33697799999
 31
0.0
  0
LINE
  5
FC55
  8
1-前柱カバ-P
  6
HIDE-M
 62
     6
 10
21251.60881358515
 20
14204.08697799999
 30
0.0
 11
21240.008813585158
 21
14204.08697799999
 31
0.0
  0
LINE
  5
FC56
  8
1-前柱カバ-P
  6
HIDE-M
 62
     6
 10
21251.60881358515
 20
14212.08697799999
 30
0.0
 11
21240.008813585158
 21
14212.08697799999
 31
0.0
  0
LINE
  5
FC57
  8
1-前柱カバ-P
  6
HIDE-M
 62
     6
 10
21251.60881358515
 20
14205.086977999979
 30
0.0
 11
21240.008813585158
 21
14205.086977999979
 31
0.0
  0
LINE
  5
FC58
  8
1-前柱カバ-P
  6
HIDE-M
 62
     6
 10
21251.60881358515
 20
14211.08697799999
 30
0.0
 11
21240.008813585158
 21
14211.08697799999
 31
0.0
  0
LINE
  5
FC59
  8
1-前柱カバ-P
 10
21250.60881358515
 20
14213.586977999979
 30
0.0
 11
21243.608813585139
 21
14213.586977999979
 31
0.0
  0
LINE
  5
FC5A
  8
1-前柱カバ-P
 10
21243.608813585139
 20
14202.58697799999
 30
0.0
 11
21250.60881358515
 21
14202.58697799999
 31
0.0
  0
LINE
  5
FC5B
  8
1-前柱カバ-P
 10
21243.608813585139
 20
14201.83697799999
 30
0.0
 11
21243.608813585139
 21
14214.33697799999
 31
0.0
  0
LINE
  5
FC5C
  8
1-前柱カバ-P
 10
21240.008813585158
 20
14202.086977999979
 30
0.0
 11
21240.008813585158
 21
14214.08697799999
 31
0.0
  0
LINE
  5
FC5D
  8
1-前柱カバ-P
  6
HIDE-M
 62
     6
 10
21242.10881358515
 20
14213.586977999979
 30
0.0
 11
21240.508813585151
 21
14213.586977999979
 31
0.0
  0
LINE
  5
FC5E
  8
1-前柱カバ-P
 10
21240.008813585158
 20
14214.08697799999
 30
0.0
 11
21240.508813585151
 21
14213.586977999979
 31
0.0
  0
ARC
  5
FC5F
  8
1-前柱カバ-P
 10
21242.85881358515
 20
14214.33697799999
 30
0.0
 40
0.75
 50
0.000000000000007
 51
180.0
  0
LINE
  5
FC60
  8
1-前柱カバ-P
  6
HIDE-M
 62
     6
 10
21240.508813585151
 20
14202.58697799999
 30
0.0
 11
21242.10881358515
 21
14202.58697799999
 31
0.0
  0
LINE
  5
FC61
  8
1-前柱カバ-P
 10
21240.008813585158
 20
14202.086977999979
 30
0.0
 11
21240.508813585151
 21
14202.58697799999
 31
0.0
  0
ARC
  5
FC62
  8
1-前柱カバ-P
 10
21242.85881358515
 20
14201.83697799999
 30
0.0
 40
0.75
 50
180.0
 51
0.000000000000007
  0
LINE
  5
FC63
  8
1-前柱カバ-P
 10
21251.60881358515
 20
14203.58697799999
 30
0.0
 11
21251.60881358515
 21
14212.58697799999
 31
0.0
  0
ARC
  5
FC64
  8
1-前柱カバ-P
 10
21250.60881358515
 20
14212.58697799999
 30
0.0
 40
1.0
 50
0.000000000000007
 51
90.0
  0
ARC
  5
FC65
  8
1-前柱カバ-P
 10
21250.60881358515
 20
14203.58697799999
 30
0.0
 40
1.0
 50
270.0
 51
0.000000000000007
  0
LINE
  5
FC66
  8
1-前柱カバ-P
  6
1PL-M
 62
     6
 10
21256.608813585131
 20
14208.08697799999
 30
0.0
 11
21235.008813585151
 21
14208.08697799999
 31
0.0
  0
LINE
  5
FC67
  8
1-前柱カバ-P
 10
21250.60881358515
 20
14223.58697799999
 30
0.0
 11
21243.608813585139
 21
14223.58697799999
 31
0.0
  0
LINE
  5
FC68
  8
1-前柱カバ-P
 10
21240.008813585158
 20
14216.08697799999
 30
0.0
 11
21240.008813585158
 21
14224.08697799999
 31
0.0
  0
LINE
  5
FC69
  8
1-前柱カバ-P
  6
HIDE-M
 62
     6
 10
21242.10881358515
 20
14223.58697799999
 30
0.0
 11
21240.508813585151
 21
14223.58697799999
 31
0.0
  0
LINE
  5
FC6A
  8
1-前柱カバ-P
 10
21240.008813585158
 20
14224.08697799999
 30
0.0
 11
21240.508813585151
 21
14223.58697799999
 31
0.0
  0
ARC
  5
FC6B
  8
1-前柱カバ-P
 10
21242.85881358515
 20
14224.33697799999
 30
0.0
 40
0.75
 50
0.000000000000007
 51
180.0
  0
LINE
  5
FC6C
  8
1-前柱カバ-P
 10
21251.60881358515
 20
14214.58697799999
 30
0.0
 11
21251.60881358515
 21
14222.58697799999
 31
0.0
  0
ARC
  5
FC6D
  8
1-前柱カバ-P
 10
21250.60881358515
 20
14222.58697799999
 30
0.0
 40
1.0
 50
0.000000000000007
 51
90.0
  0
LINE
  5
FC6E
  8
1-前柱カバ-P
  6
1PL-M
 62
     6
 10
21256.608813585131
 20
14218.08697799999
 30
0.0
 11
21235.008813585151
 21
14218.08697799999
 31
0.0
  0
LINE
  5
FC6F
  8
1-前柱カバ-P
 10
21243.608813585139
 20
14216.33697799999
 30
0.0
 11
21243.608813585139
 21
14224.33697799999
 31
0.0
  0
LINE
  5
FC70
  8
1-前柱カバ-P
  6
HIDE-M
 62
     6
 10
21314.408813585149
 20
14222.08697799999
 30
0.0
 11
21326.008813585151
 21
14222.08697799999
 31
0.0
  0
LINE
  5
FC71
  8
1-前柱カバ-P
  6
HIDE-M
 62
     6
 10
21314.408813585149
 20
14221.086977999979
 30
0.0
 11
21326.008813585151
 21
14221.086977999979
 31
0.0
  0
LINE
  5
FC72
  8
1-前柱カバ-P
  6
HIDE-M
 62
     6
 10
21251.60881358515
 20
14222.08697799999
 30
0.0
 11
21240.008813585158
 21
14222.08697799999
 31
0.0
  0
LINE
  5
FC73
  8
1-前柱カバ-P
  6
HIDE-M
 62
     6
 10
21251.60881358515
 20
14221.086977999979
 30
0.0
 11
21240.008813585158
 21
14221.086977999979
 31
0.0
  0
LINE
  5
FC87
  8
0-6
  6
CONTINUOUS
 62
     6
 10
22733.084518406558
 20
13542.98783599998
 30
0.0
 11
21733.08517740657
 21
13542.98783599998
 31
0.0
  0
TEXT
  5
FC88
  8
0-6
  6
CONTINUOUS
 62
     7
 10
21837.08425440656
 20
13622.98809999997
 30
0.0
 40
160.0
  1
前柱（P）
 72
     4
 11
22237.08425440656
 21
13702.98809999997
 31
0.0
  0
LINE
  5
FC89
  8
0-6
  6
CONTINUOUS
 62
     6
 10
21328.008813585151
 20
14128.98697799999
 30
0.0
 11
21733.08517740657
 21
13542.98783599998
 31
0.0
  0
LINE
  5
FC8A
  8
0-6
  6
CONTINUOUS
 62
     6
 10
22733.084518406558
 20
16080.048635954099
 30
0.0
 11
21733.08517740657
 21
16080.048635954099
 31
0.0
  0
TEXT
  5
FC8B
  8
0-6
  6
CONTINUOUS
 62
     7
 10
21837.08425440656
 20
16160.048899954099
 30
0.0
 40
160.0
  1
中柱（P）
 72
     4
 11
22237.08425440656
 21
16240.048899954099
 31
0.0
  0
LINE
  5
FC8C
  8
0-6
  6
CONTINUOUS
 62
     6
 10
21328.008813585151
 20
16666.047777954111
 30
0.0
 11
21733.08517740657
 21
16080.048635954099
 31
0.0
  0
LINE
  5
FC8D
  8
0-6
  6
CONTINUOUS
 62
     6
 10
23074.146408876069
 20
14743.97771582886
 30
0.0
 11
21618.146408876069
 21
14743.97771582886
 31
0.0
  0
TEXT
  5
FC8E
  8
0-6
  6
CONTINUOUS
 62
     7
 10
21658.141135623679
 20
14823.97797982884
 30
0.0
 40
160.0
  1
前柱カバー（P）
 72
     4
 11
22346.141135623679
 21
14903.97797982884
 31
0.0
  0
LINE
  5
FC8F
  8
0-6
  6
CONTINUOUS
 62
     6
 10
21318.908813585142
 20
14255.586977999979
 30
0.0
 11
21618.146408876069
 21
14743.97771582886
 31
0.0
  0
LINE
  5
FC90
  8
0-6
  6
CONTINUOUS
 62
     6
 10
23074.146408876069
 20
17300.977279828861
 30
0.0
 11
21618.146408876069
 21
17300.977279828861
 31
0.0
  0
TEXT
  5
FC91
  8
0-6
  6
CONTINUOUS
 62
     7
 10
21658.141135623679
 20
17380.977543828849
 30
0.0
 40
160.0
  1
中柱カバー（P）
 72
     4
 11
22346.141135623679
 21
17460.977543828849
 31
0.0
  0
LINE
  5
FC92
  8
0-6
  6
CONTINUOUS
 62
     6
 10
21318.908813585142
 20
16812.586541999979
 30
0.0
 11
21618.146408876069
 21
17300.977279828861
 31
0.0
  0
LINE
  5
FC93
  8
0-6
  6
CONTINUOUS
 62
     6
 10
22733.084518406558
 20
19957.424343045841
 30
0.0
 11
21733.08517740657
 21
19957.424343045841
 31
0.0
  0
TEXT
  5
FC94
  8
0-6
  6
CONTINUOUS
 62
     7
 10
21837.08425440656
 20
20037.42460704585
 30
0.0
 40
160.0
  1
後柱（P）
 72
     4
 11
22237.08425440656
 21
20117.42460704585
 31
0.0
  0
LINE
  5
FC95
  8
0-6
  6
CONTINUOUS
 62
     6
 10
21328.008813585151
 20
19371.425201045851
 30
0.0
 11
21733.08517740657
 21
19957.424343045841
 31
0.0
  0
LINE
  5
FC96
  8
0-6
  6
CONTINUOUS
 62
     6
 10
23074.146408876091
 20
18751.32531954204
 30
0.0
 11
21618.146408876091
 21
18751.32531954204
 31
0.0
  0
TEXT
  5
FC97
  8
0-6
  6
CONTINUOUS
 62
     7
 10
21658.141135623679
 20
18831.325583542039
 30
0.0
 40
160.0
  1
後柱カバー（P）
 72
     4
 11
22346.141135623679
 21
18911.325583542039
 31
0.0
  0
LINE
  5
FC98
  8
0-6
  6
CONTINUOUS
 62
     6
 10
21318.908813585142
 20
19224.88643699999
 30
0.0
 11
21618.146408876091
 21
18751.32531954204
 31
0.0
  0
LINE
  5
FCEF
  8
0-6
  6
CONTINUOUS
 62
     6
 10
11757.06383772606
 20
19237.710913999981
 30
0.0
 11
11613.162734726069
 21
19749.98656899995
 31
0.0
  0
LINE
  5
FCF0
  8
0-6
  6
CONTINUOUS
 62
     6
 10
12179.23470767521
 20
19486.164896999991
 30
0.0
 11
12072.53964567521
 21
19363.98900999999
 31
0.0
  0
LINE
  5
FCF1
  8
0-6
  6
CONTINUOUS
 62
     6
 10
12072.53964567521
 20
19363.98900999999
 30
0.0
 11
12133.845335675211
 21
19514.165186999981
 31
0.0
  0
LINE
  5
FCF2
  8
0-6
  6
CONTINUOUS
 62
     6
 10
12072.53964567521
 20
19363.98900999999
 30
0.0
 11
12179.23470767521
 21
19486.164896999991
 31
0.0
  0
LINE
  5
FCF3
  8
0-6
  6
CONTINUOUS
 62
     6
 10
12179.23470767521
 20
19486.164896999991
 30
0.0
 11
12133.845335675211
 21
19514.165186999981
 31
0.0
  0
LINE
  5
FCF4
  8
0-6
  6
CONTINUOUS
 62
     6
 10
12133.845335675211
 20
19514.165186999981
 30
0.0
 11
12072.53964567521
 21
19363.98900999999
 31
0.0
  0
LINE
  5
FCF5
  8
0-6
  6
CONTINUOUS
 62
     6
 10
12133.845335675211
 20
19514.165186999981
 30
0.0
 11
12179.23470767521
 21
19486.164896999991
 31
0.0
  0
LINE
  5
FCF6
  8
0-6
  6
CONTINUOUS
 62
     6
 10
12072.53964567521
 20
19363.98900999999
 30
0.0
 11
12366.46747267522
 21
19770.48710999998
 31
0.0
  0
LINE
  5
FCF7
  8
0-6
  6
CONTINUOUS
 62
     6
 10
11782.95198172607
 20
19244.11069799996
 30
0.0
 11
11795.453631726061
 21
19082.38600899998
 31
0.0
  0
LINE
  5
FCF8
  8
0-6
  6
CONTINUOUS
 62
     6
 10
11795.453631726061
 20
19082.38600899998
 30
0.0
 11
11731.178662726061
 21
19231.315089999989
 31
0.0
  0
LINE
  5
FCF9
  8
0-6
  6
CONTINUOUS
 62
     6
 10
11795.453631726061
 20
19082.38600899998
 30
0.0
 11
11782.95198172607
 21
19244.11069799996
 31
0.0
  0
LINE
  5
FCFA
  8
0-6
  6
CONTINUOUS
 62
     6
 10
11782.95198172607
 20
19244.11069799996
 30
0.0
 11
11731.178662726061
 21
19231.315089999989
 31
0.0
  0
LINE
  5
FCFB
  8
0-6
  6
CONTINUOUS
 62
     6
 10
11731.178662726061
 20
19231.315089999989
 30
0.0
 11
11795.453631726061
 21
19082.38600899998
 31
0.0
  0
LINE
  5
FCFC
  8
0-6
  6
CONTINUOUS
 62
     6
 10
11731.178662726061
 20
19231.315089999989
 30
0.0
 11
11782.95198172607
 21
19244.11069799996
 31
0.0
  0
LINE
  5
FCFD
  8
0-6
  6
CONTINUOUS
 62
     6
 10
11613.162734726069
 20
19749.98656899995
 30
0.0
 11
11095.474086726061
 21
19749.98656899995
 31
0.0
  0
LINE
  5
FCFE
  8
0-6
  6
CONTINUOUS
 62
     6
 10
13180.64153986886
 20
17431.977035286229
 30
0.0
 11
13270.45724686888
 21
17567.049486286222
 31
0.0
  0
LINE
  5
FCFF
  8
0-6
  6
CONTINUOUS
 62
     6
 10
13270.45724686888
 20
17567.049486286222
 30
0.0
 11
13229.30305586887
 21
17410.148884286231
 31
0.0
  0
LINE
  5
FD00
  8
0-6
  6
CONTINUOUS
 62
     6
 10
13270.45724686888
 20
17567.049486286222
 30
0.0
 11
13180.64153986886
 21
17431.977035286229
 31
0.0
  0
LINE
  5
FD01
  8
0-6
  6
CONTINUOUS
 62
     6
 10
13180.64153986886
 20
17431.977035286229
 30
0.0
 11
13229.30305586887
 21
17410.148884286231
 31
0.0
  0
LINE
  5
FD02
  8
0-6
  6
CONTINUOUS
 62
     6
 10
13229.30305586887
 20
17410.148884286231
 30
0.0
 11
13270.45724686888
 21
17567.049486286222
 31
0.0
  0
LINE
  5
FD03
  8
0-6
  6
CONTINUOUS
 62
     6
 10
13229.30305586887
 20
17410.148884286231
 30
0.0
 11
13180.64153986886
 21
17431.977035286229
 31
0.0
  0
LINE
  5
FD04
  8
0-6
  6
CONTINUOUS
 62
     6
 10
13166.469121675211
 20
19770.48710999998
 30
0.0
 11
12366.46747267522
 21
19770.48710999998
 31
0.0
  0
LINE
  5
FD05
  8
0-6
  6
CONTINUOUS
 62
     6
 10
16519.252151621571
 20
17087.77055234438
 30
0.0
 11
14524.80799962156
 21
17087.77055234438
 31
0.0
  0
LINE
  5
FD06
  8
0-6
  6
CONTINUOUS
 62
     6
 10
11066.46976445711
 20
15616.035130419599
 30
0.0
 11
11453.2222212995
 21
15444.46252839234
 31
0.0
  0
LINE
  5
FD07
  8
0-6
  6
CONTINUOUS
 62
     6
 10
12333.22314529952
 20
15444.46252839234
 30
0.0
 11
11453.2222212995
 21
15444.46252839234
 31
0.0
  0
LINE
  5
FD08
  8
0-6
  6
CONTINUOUS
 62
     6
 10
13105.93153986889
 20
17200.270426286232
 30
0.0
 11
12585.93081386887
 21
17200.270426286232
 31
0.0
  0
LINE
  5
FD09
  8
0-6
  6
CONTINUOUS
 62
     6
 10
12681.30400816982
 20
14052.950500396781
 30
0.0
 11
12471.69560223902
 21
13541.82657200504
 31
0.0
  0
LINE
  5
FD0A
  8
0-6
  6
CONTINUOUS
 62
     6
 10
12471.69560223902
 20
13541.82657200504
 30
0.0
 11
11671.69494223903
 21
13541.82657200504
 31
0.0
  0
LINE
  5
FD0B
  8
0-6
  6
CONTINUOUS
 62
     6
 10
11525.37351340595
 20
13867.93993099999
 30
0.0
 11
11631.643968405961
 21
13990.486978000001
 31
0.0
  0
LINE
  5
FD0C
  8
0-6
  6
CONTINUOUS
 62
     6
 10
11631.643968405961
 20
13990.486978000001
 30
0.0
 11
11570.861860405959
 21
13840.098002000001
 31
0.0
  0
LINE
  5
FD0D
  8
0-6
  6
CONTINUOUS
 62
     6
 10
11631.643968405961
 20
13990.486978000001
 30
0.0
 11
11525.37351340595
 21
13867.93993099999
 31
0.0
  0
LINE
  5
FD0E
  8
0-6
  6
CONTINUOUS
 62
     6
 10
11525.37351340595
 20
13867.93993099999
 30
0.0
 11
11570.861860405959
 21
13840.098002000001
 31
0.0
  0
LINE
  5
FD0F
  8
0-6
  6
CONTINUOUS
 62
     6
 10
11570.861860405959
 20
13840.098002000001
 30
0.0
 11
11631.643968405961
 21
13990.486978000001
 31
0.0
  0
LINE
  5
FD10
  8
0-6
  6
CONTINUOUS
 62
     6
 10
11570.861860405959
 20
13840.098002000001
 30
0.0
 11
11525.37351340595
 21
13867.93993099999
 31
0.0
  0
LINE
  5
FD11
  8
0-6
  6
CONTINUOUS
 62
     6
 10
12656.63252089223
 20
14063.06797652044
 30
0.0
 11
12742.014025275899
 21
14200.985512999971
 31
0.0
  0
LINE
  5
FD12
  8
0-6
  6
CONTINUOUS
 62
     6
 10
12742.014025275899
 20
14200.985512999971
 30
0.0
 11
12705.97689496852
 21
14042.832964929839
 31
0.0
  0
LINE
  5
FD13
  8
0-6
  6
CONTINUOUS
 62
     6
 10
12742.014025275899
 20
14200.985512999971
 30
0.0
 11
12656.63252089223
 21
14063.06797652044
 31
0.0
  0
LINE
  5
FD14
  8
0-6
  6
CONTINUOUS
 62
     6
 10
12656.63252089223
 20
14063.06797652044
 30
0.0
 11
12705.97689496852
 21
14042.832964929839
 31
0.0
  0
LINE
  5
FD15
  8
0-6
  6
CONTINUOUS
 62
     6
 10
12705.97689496852
 20
14042.832964929839
 30
0.0
 11
12742.014025275899
 21
14200.985512999971
 31
0.0
  0
LINE
  5
FD16
  8
0-6
  6
CONTINUOUS
 62
     6
 10
12705.97689496852
 20
14042.832964929839
 30
0.0
 11
12656.63252089223
 21
14063.06797652044
 31
0.0
  0
LINE
  5
FD17
  8
0-6
  6
CONTINUOUS
 62
     6
 10
11292.30835177185
 20
13436.062282934219
 30
0.0
 11
10429.72818077185
 21
13436.062282934219
 31
0.0
  0
LINE
  5
FD18
  8
0-6
  6
CONTINUOUS
 62
     6
 10
11548.117191405971
 20
13854.018967000011
 30
0.0
 11
11292.30835177185
 21
13436.062282934219
 31
0.0
  0
LINE
  5
FD19
  8
0-6
  6
CONTINUOUS
 62
     6
 10
13385.90938186888
 20
14180.776105999959
 30
0.0
 11
13363.45867186889
 21
14341.42195699996
 31
0.0
  0
LINE
  5
FD1A
  8
0-6
  6
CONTINUOUS
 62
     6
 10
13363.45867186889
 20
14341.42195699996
 30
0.0
 11
13436.795875868889
 21
14196.740922999979
 31
0.0
  0
LINE
  5
FD1B
  8
0-6
  6
CONTINUOUS
 62
     6
 10
13363.45867186889
 20
14341.42195699996
 30
0.0
 11
13385.90938186888
 21
14180.776105999959
 31
0.0
  0
LINE
  5
FD1C
  8
0-6
  6
CONTINUOUS
 62
     6
 10
13385.90938186888
 20
14180.776105999959
 30
0.0
 11
13436.795875868889
 21
14196.740922999979
 31
0.0
  0
LINE
  5
FD1D
  8
0-6
  6
CONTINUOUS
 62
     6
 10
13436.795875868889
 20
14196.740922999979
 30
0.0
 11
13363.45867186889
 21
14341.42195699996
 31
0.0
  0
LINE
  5
FD1E
  8
0-6
  6
CONTINUOUS
 62
     6
 10
13436.795875868889
 20
14196.740922999979
 30
0.0
 11
13385.90938186888
 21
14180.776105999959
 31
0.0
  0
LINE
  5
FD1F
  8
0-6
  6
CONTINUOUS
 62
     6
 10
15078.092922868889
 20
12668.985604999951
 30
0.0
 11
13998.09331886889
 21
12668.985604999951
 31
0.0
  0
LINE
  5
FD20
  8
0-6
  6
CONTINUOUS
 62
     6
 10
13411.353123868899
 20
14188.757524999961
 30
0.0
 11
13998.09331886889
 21
12668.985604999951
 31
0.0
  0
LINE
  5
FD21
  8
0-6
  6
CONTINUOUS
 62
     6
 10
13204.971802868869
 20
17421.06394928621
 30
0.0
 11
13105.93153986889
 21
17200.270426286232
 31
0.0
  0
LINE
  5
FD22
  8
0-6
  6
CONTINUOUS
 62
     6
 10
16556.77584359387
 20
18072.71599913896
 30
0.0
 11
14562.33169159385
 21
18072.71599913896
 31
0.0
  0
LINE
  5
FD23
  8
0-6
  6
CONTINUOUS
 62
     6
 10
7479.4236411484608
 20
19519.986304999991
 30
0.0
 11
7387.736299148447
 21
19653.793842999981
 31
0.0
  0
LINE
  5
FD24
  8
0-6
  6
CONTINUOUS
 62
     6
 10
7349.2950381484598
 20
19616.826332999979
 30
0.0
 11
7479.4236411484608
 21
19519.986304999991
 31
0.0
  0
LINE
  5
FD25
  8
0-6
  6
CONTINUOUS
 62
     6
 10
7349.2950381484598
 20
19616.826332999979
 30
0.0
 11
7387.736299148447
 21
19653.793842999981
 31
0.0
  0
LINE
  5
FD26
  8
0-6
  6
CONTINUOUS
 62
     6
 10
7368.5151731484511
 20
19635.309097999991
 30
0.0
 11
6851.5262851484586
 21
20139.987360999981
 31
0.0
  0
LINE
  5
FD27
  8
0-6
  6
CONTINUOUS
 62
     6
 10
6851.5262851484586
 20
20139.987360999981
 30
0.0
 11
5176.5269451484492
 21
20139.987360999981
 31
0.0
  0
CIRCLE
  5
FD28
  8
0-5
  6
CONTINUOUS
 62
     4
 10
10362.95899586889
 20
20760.487901999972
 30
0.0
 40
199.9999949999999
  0
CIRCLE
  5
FD29
  8
0-5
  6
CONTINUOUS
 62
     4
 10
13280.95867186889
 20
20760.487901999972
 30
0.0
 40
199.9999949999999
  0
CIRCLE
  5
FD2A
  8
0-5
  6
CONTINUOUS
 62
     4
 10
14810.45844786887
 20
19317.986977999961
 30
0.0
 40
199.9999949999999
  0
CIRCLE
  5
FD2B
  8
0-5
  6
CONTINUOUS
 62
     4
 10
14810.45844786887
 20
16750.486977999972
 30
0.0
 40
199.9999949999999
  0
CIRCLE
  5
FD2C
  8
0-5
  6
CONTINUOUS
 62
     4
 10
14810.45844786887
 20
14182.986977999981
 30
0.0
 40
199.9999949999999
  0
TEXT
  5
FD2D
  8
0-5
  6
CONTINUOUS
 62
     7
 10
10310.009535202191
 20
20671.27297899999
 30
0.0
 40
160.0
  1
2
 72
     4
 11
10363.34286853553
 21
20751.27297899999
 31
0.0
  0
TEXT
  5
FD2E
  8
0-5
  6
CONTINUOUS
 62
     7
 10
13227.625338535559
 20
20671.27297899999
 30
0.0
 40
160.0
  1
3
 72
     4
 11
13280.95867186889
 21
20751.27297899999
 31
0.0
  0
TEXT
  5
FD2F
  8
0-5
  6
CONTINUOUS
 62
     7
 10
14757.2516492022
 20
19238.39845399998
 30
0.0
 40
160.0
  1
C
 72
     4
 11
14810.584982535531
 21
19318.39845399998
 31
0.0
  0
TEXT
  5
FD30
  8
0-5
  6
CONTINUOUS
 62
     7
 10
14757.2516492022
 20
16670.899443999981
 30
0.0
 40
160.0
  1
B
 72
     4
 11
14810.584982535531
 21
16750.899443999981
 31
0.0
  0
TEXT
  5
FD31
  8
0-5
  6
CONTINUOUS
 62
     7
 10
14757.2516492022
 20
14103.39845399998
 30
0.0
 40
160.0
  1
A
 72
     4
 11
14810.584982535531
 21
14183.39845399998
 31
0.0
  0
TEXT
  5
FD32
  8
0-6
  6
CONTINUOUS
 62
     7
 10
11191.82913739273
 20
19829.986832999981
 30
0.0
 40
160.0
  1
屋根
 72
     4
 11
11362.495804059399
 21
19909.986832999981
 31
0.0
  0
TEXT
  5
FD33
  8
0-6
  6
CONTINUOUS
 62
     7
 10
12446.46786767521
 20
19850.48737399996
 30
0.0
 40
160.0
  1
桁（後）
 72
     4
 11
12766.46786767521
 21
19930.48737399996
 31
0.0
  0
TEXT
  5
FD34
  8
0-6
  6
CONTINUOUS
 62
     7
 10
11527.88855796616
 20
15534.96322839232
 30
0.0
 40
160.0
  1
ブレース
 72
     4
 11
11890.55522463283
 21
15620.29656172566
 31
0.0
  0
TEXT
  5
FD35
  8
0-6
  6
CONTINUOUS
 62
     7
 10
11751.69632823903
 20
13621.82683600505
 30
0.0
 40
160.0
  1
桁（前）
 72
     4
 11
12071.69632823903
 21
13701.82683600505
 31
0.0
  0
TEXT
  5
FD36
  8
0-6
  6
CONTINUOUS
 62
     7
 10
10486.97574443851
 20
13516.061556934221
 30
0.0
 40
160.0
  1
鼻隠し前
 72
     4
 11
10849.64241110518
 21
13596.061556934221
 31
0.0
  0
TEXT
  5
FD37
  8
0-6
  6
CONTINUOUS
 62
     7
 10
14166.092658868891
 20
12748.984878999971
 30
0.0
 40
160.0
  1
ケラバ 左
 72
     4
 11
14582.092658868891
 21
12828.984878999971
 31
0.0
  0
TEXT
  5
FD38
  8
0-6
  6
CONTINUOUS
 62
     7
 10
12684.597942535531
 20
17280.270690286219
 30
0.0
 40
160.0
  1
上枠
 72
     4
 11
12855.264609202201
 21
17360.270690286219
 31
0.0
  0
TEXT
  5
FD39
  8
0-6
  6
CONTINUOUS
 62
     7
 10
5278.192687815118
 20
20219.985644999972
 30
0.0
 40
160.0
  1
鼻隠しコーナー後
 72
     4
 11
6024.859354481785
 21
20299.985644999972
 31
0.0
  0
TEXT
  5
FD3A
  8
0-6
  6
CONTINUOUS
 62
     7
 10
14626.076809232911
 20
18168.767487028312
 30
0.0
 40
160.0
  1
桁中B +  桁中補強B
 72
     4
 11
15559.410142566239
 21
18248.767487028312
 31
0.0
  0
TEXT
  5
FD3B
  8
0-6
  6
CONTINUOUS
 62
     7
 10
14588.553117260601
 20
17183.824019233751
 30
0.0
 40
160.0
  1
桁中A +  桁中補強A
 72
     4
 11
15521.88645059394
 21
17263.824019233751
 31
0.0
  0
LINE
  5
FD3C
  8
0-6
  6
CONTINUOUS
 62
     6
 10
10157.59910299904
 20
19787.011124411769
 30
0.0
 11
8892.9295173613336
 21
19787.011124411769
 31
0.0
  0
TEXT
  5
FD3D
  8
0-6
  6
CONTINUOUS
 62
     7
 10
8968.2660006657316
 20
19867.01138841176
 30
0.0
 40
160.0
  1
桁（後）補強
  0
LINE
  5
FD3E
  8
0-6
  6
CONTINUOUS
 62
     6
 10
11130.42986586464
 20
19135.19243174696
 30
0.0
 11
10996.80033635912
 21
18832.684921748001
 31
0.0
  0
LINE
  5
FD3F
  8
0-6
  6
CONTINUOUS
 62
     6
 10
11195.08088877294
 20
19281.547956841161
 30
0.0
 11
11154.82298879942
 21
19124.416740316919
 31
0.0
  0
LINE
  5
FD40
  8
0-6
  6
CONTINUOUS
 62
     6
 10
11154.82298879942
 20
19124.416740316919
 30
0.0
 11
11106.036742929849
 21
19145.968123176961
 31
0.0
  0
LINE
  5
FD41
  8
0-6
  6
CONTINUOUS
 62
     6
 10
11106.036742929849
 20
19145.968123176961
 30
0.0
 11
11195.08088877294
 21
19281.547956841161
 31
0.0
  0
LINE
  5
FD42
  8
0-6
  6
CONTINUOUS
 62
     6
 10
10996.80033635912
 20
18832.684921748001
 30
0.0
 11
10157.59910299904
 21
19787.011124411769
 31
0.0
  0
CIRCLE
  5
FD43
  8
0-5
  6
CONTINUOUS
 62
     4
 10
7562.958995868893
 20
20760.489215999991
 30
0.0
 40
199.9999949999999
  0
TEXT
  5
FD44
  8
0-5
  6
CONTINUOUS
 62
     7
 10
7536.6762018688751
 20
20671.274292999999
 30
0.0
 40
160.0
  1
1
 72
     4
 11
7563.342868535542
 21
20751.274292999999
 31
0.0
  0
LINE
  5
FD45
  8
0-6
  6
CONTINUOUS
 62
     6
 10
7615.9586268688736
 20
14541.1368642711
 30
0.0
 11
8290.5490808689337
 21
13423.59018134379
 31
0.0
  0
LINE
  5
FD46
  8
0-6
  6
CONTINUOUS
 62
     6
 10
14562.33169159385
 20
18072.71599913896
 30
0.0
 11
12901.0264507134
 21
17646.786109777659
 31
0.0
  0
LINE
  5
FD47
  8
0-6
  6
CONTINUOUS
 62
     6
 10
12901.0264507134
 20
17646.786109777659
 30
0.0
 11
12524.083987217849
 21
18148.986093999989
 31
0.0
  0
LINE
  5
FD48
  8
0-6
  6
CONTINUOUS
 62
     6
 10
16556.77584359387
 20
15270.22495228638
 30
0.0
 11
14562.33169159385
 21
15270.22495228638
 31
0.0
  0
TEXT
  5
FD49
  8
0-6
  6
CONTINUOUS
 62
     7
 10
14626.076809232911
 20
15366.27644017573
 30
0.0
 40
160.0
  1
桁中B +  桁中補強B
 72
     4
 11
15559.410142566239
 21
15446.27644017573
 31
0.0
  0
LINE
  5
FD4A
  8
0-6
  6
CONTINUOUS
 62
     6
 10
14562.33169159385
 20
15270.22495228638
 30
0.0
 11
12946.72443581504
 21
14690.96324372464
 31
0.0
  0
LINE
  5
FD4B
  8
0-6
  6
CONTINUOUS
 62
     6
 10
12946.72443581504
 20
14690.96324372464
 30
0.0
 11
12528.946990445051
 21
15246.786015664071
 31
0.0
  0
LINE
  5
FD4C
  8
0-6
  6
CONTINUOUS
 62
     6
 10
14524.80799962156
 20
17087.77055234438
 30
0.0
 11
12611.172215750819
 21
16261.176586604601
 31
0.0
  0
LINE
  5
FD4D
  8
0-6
  6
CONTINUOUS
 62
     6
 10
12611.172215750819
 20
16261.176586604601
 30
0.0
 11
12353.547844959799
 21
16679.485659000009
 31
0.0
  0
LINE
  5
FD4E
  8
SUNPOU
  6
CONTINUOUS
 10
14210.45877186888
 20
19540.484866499999
 30
0.0
 11
14210.45877186888
 21
20337.452134278461
 31
0.0
  0
LINE
  5
FD4F
  8
SUNPOU
  6
CONTINUOUS
 10
14210.458771868891
 20
13217.673806847781
 30
0.0
 11
14210.458771868891
 21
13958.986396999981
 31
0.0
  0
LINE
  5
FD50
  8
0-6
  6
CONTINUOUS
 62
     6
 10
8430.5297417568254
 20
14485.55313326014
 30
0.0
 11
8573.7387918764362
 21
14299.562913486519
 31
0.0
  0
LINE
  5
FD51
  8
0-6
  6
CONTINUOUS
 62
     6
 10
9453.7397158764506
 20
14299.562913486519
 30
0.0
 11
8573.7387918764362
 21
14299.562913486519
 31
0.0
  0
TEXT
  5
FD52
  8
0-6
  6
CONTINUOUS
 62
     7
 10
8648.4051285431051
 20
14390.063613486511
 30
0.0
 40
160.0
  1
ブレース
 72
     4
 11
9011.0717952097712
 21
14475.39694681985
 31
0.0
  0
LINE
  5
FD53
  8
0-1
  6
CONTINUOUS
 62
     3
 10
12437.54882569355
 20
8152.234418
 30
0.0
 11
12437.54882569355
 21
6291.1885390000016
 31
0.0
  0
LINE
  5
FD54
  8
0-1
  6
CONTINUOUS
 62
     3
 10
12474.54701769356
 20
8152.234418
 30
0.0
 11
12474.54701769356
 21
6291.1885390000016
 31
0.0
  0
LINE
  5
FD55
  8
0-1
  6
CONTINUOUS
 62
     3
 10
12299.048839693571
 20
6291.1885390000016
 30
0.0
 11
12299.048839693571
 21
8152.234418
 31
0.0
  0
LINE
  5
FD56
  8
0-1
  6
CONTINUOUS
 62
     3
 10
12314.04765169356
 20
6291.1885390000016
 30
0.0
 11
12314.04765169356
 21
8152.234418
 31
0.0
  0
LINE
  5
FD57
  8
0-1
  6
CONTINUOUS
 62
     3
 10
12598.048192693561
 20
6291.1885390000016
 30
0.0
 11
12598.048192693561
 21
8152.234418
 31
0.0
  0
LINE
  5
FD58
  8
0-1
  6
CONTINUOUS
 62
     3
 10
12613.048984693571
 20
6291.1885390000016
 30
0.0
 11
12613.048984693571
 21
8152.234418
 31
0.0
  0
LINE
  5
FD5A
  8
0-1
  6
CONTINUOUS
 62
     3
 10
13280.95899586889
 20
16705.486582999991
 30
0.0
 11
10362.95899586889
 21
16705.486582999991
 31
0.0
  0
LINE
  5
FD5B
  8
0-1
  6
CONTINUOUS
 62
     3
 10
10362.95899586889
 20
16705.486582999991
 30
0.0
 11
7786.4334086073641
 21
16705.486582999991
 31
0.0
  0
LINE
  5
FD5C
  8
2-0
  6
DASHED3
 62
     6
 10
7786.4334086073641
 20
16705.486582999991
 30
0.0
 11
7562.958995868893
 21
16705.486582999991
 31
0.0
  0
LINE
  5
FD5D
  8
0-1
  6
CONTINUOUS
 62
     3
 10
10415.958626868871
 20
14146.487624999971
 30
0.0
 11
10415.958626868871
 21
17791.444550900931
 31
0.0
  0
LINE
  5
FD5E
  8
0-1
  6
CONTINUOUS
 62
     3
 10
13230.95837586888
 20
14022.48761099999
 30
0.0
 11
13230.95837586888
 21
18871.364086818641
 31
0.0
  0
LINE
  5
FD5F
  8
0-1
  6
CONTINUOUS
 62
     3
 10
13230.95837586888
 20
18871.364086818641
 30
0.0
 11
13230.95837586888
 21
19510.489220999982
 31
0.0
  0
LINE
  5
FD60
  8
0-1
  6
CONTINUOUS
 62
     3
 10
13366.45899586887
 20
13990.486977999981
 30
0.0
 11
13366.45899586889
 21
18927.272426365202
 31
0.0
  0
LINE
  5
FD61
  8
0-1
  6
CONTINUOUS
 62
     3
 10
13366.45899586889
 20
18927.272426365202
 30
0.0
 11
13366.45899586889
 21
19530.488297999989
 31
0.0
  0
LINE
  5
FD62
  8
0-1
  6
CONTINUOUS
 62
     3
 10
13323.45826986887
 20
14146.487624999971
 30
0.0
 11
7520.4577418688768
 21
14146.487624999971
 31
0.0
  0
LINE
  5
FD63
  8
0-1
  6
CONTINUOUS
 62
     3
 10
13280.95899586889
 20
14225.48724199999
 30
0.0
 11
7562.9589958688912
 21
14225.48724199999
 31
0.0
  0
LINE
  5
FD64
  8
0-1
  6
CONTINUOUS
 62
     3
 10
13366.45899586887
 20
13990.486977999981
 30
0.0
 11
7477.4589958688903
 21
13990.486977999981
 31
0.0
  0
LINE
  5
FD65
  8
0-1
  6
CONTINUOUS
 62
     3
 10
13366.45899586887
 20
14022.48761099999
 30
0.0
 11
7477.4589958688903
 21
14022.487611
 31
0.0
  0
LINE
  5
FD66
  8
0-1
  6
CONTINUOUS
 62
     3
 10
10362.95899586889
 20
14146.487624999971
 30
0.0
 11
10362.95899586889
 21
17769.8393054761
 31
0.0
  0
LINE
  5
FD67
  8
0-1
  6
CONTINUOUS
 62
     3
 10
10320.45774186887
 20
14146.487624999971
 30
0.0
 11
10320.45774186887
 21
17752.513712708602
 31
0.0
  0
LINE
  5
FD68
  8
0-1
  6
CONTINUOUS
 62
     3
 10
13280.95899586889
 20
14146.487624999971
 30
0.0
 11
13280.95899586889
 21
18959.35902401376
 31
0.0
  0
LINE
  5
FD69
  8
0-1
  6
CONTINUOUS
 62
     3
 10
13323.45826986887
 20
14146.487624999971
 30
0.0
 11
13323.45826986887
 21
18976.894547152879
 31
0.0
  0
LINE
  5
FD6A
  8
0-1
  6
CONTINUOUS
 62
     3
 10
11910.45754486887
 20
18400.67550782151
 30
0.0
 11
11910.45754486887
 21
19510.489220999982
 31
0.0
  0
LINE
  5
FD6B
  8
0-1
  6
CONTINUOUS
 62
     3
 10
11873.457372868879
 20
18385.592425510589
 30
0.0
 11
11873.457372868879
 21
19510.489220999982
 31
0.0
  0
LINE
  5
FD6C
  8
0-1
  6
CONTINUOUS
 62
     3
 10
11710.45787386888
 20
18319.145846287742
 30
0.0
 11
11710.45787386888
 21
19510.489220999982
 31
0.0
  0
LINE
  5
FD6D
  8
0-1
  6
CONTINUOUS
 62
     3
 10
11673.45671286889
 20
18304.06236081196
 30
0.0
 11
11673.45671286889
 21
19510.489220999982
 31
0.0
  0
LINE
  5
FD6E
  8
0-1
  6
CONTINUOUS
 62
     3
 10
11510.45820386887
 20
18237.61618516162
 30
0.0
 11
11510.45820386887
 21
19510.489220999982
 31
0.0
  0
LINE
  5
FD6F
  8
0-1
  6
CONTINUOUS
 62
     3
 10
11473.45902286887
 20
18222.53350683083
 30
0.0
 11
11473.45902286887
 21
19510.489220999982
 31
0.0
  0
LINE
  5
FD70
  8
0-1
  6
CONTINUOUS
 62
     3
 10
11310.45754486887
 20
18156.086120870641
 30
0.0
 11
11310.45754486887
 21
19510.489220999982
 31
0.0
  0
LINE
  5
FD71
  8
0-1
  6
CONTINUOUS
 62
     3
 10
11273.457372868879
 20
18141.00303855972
 30
0.0
 11
11273.457372868879
 21
19510.489220999982
 31
0.0
  0
LINE
  5
FD72
  8
0-1
  6
CONTINUOUS
 62
     3
 10
11110.457873868871
 20
18074.55645933688
 30
0.0
 11
11110.457873868871
 21
19510.489220999982
 31
0.0
  0
LINE
  5
FD73
  8
0-1
  6
CONTINUOUS
 62
     3
 10
11073.45671286889
 20
18059.472973861109
 30
0.0
 11
11073.45671286889
 21
19510.489220999982
 31
0.0
  0
LINE
  5
FD74
  8
0-1
  6
CONTINUOUS
 62
     3
 10
10910.45820386888
 20
17993.026798210762
 30
0.0
 11
10910.45820386888
 21
19510.489220999982
 31
0.0
  0
LINE
  5
FD75
  8
0-1
  6
CONTINUOUS
 62
     3
 10
10873.45803286889
 20
17977.943716307491
 30
0.0
 11
10873.45803286889
 21
19510.489220999982
 31
0.0
  0
LINE
  5
FD76
  8
0-1
  6
CONTINUOUS
 62
     3
 10
10710.457544868879
 20
17911.496733919801
 30
0.0
 11
10710.457544868879
 21
19510.489220999982
 31
0.0
  0
LINE
  5
FD77
  8
0-1
  6
CONTINUOUS
 62
     3
 10
10673.45737286887
 20
17896.413651608869
 30
0.0
 11
10673.45737286887
 21
19510.489220999982
 31
0.0
  0
LINE
  5
FD78
  8
0-1
  6
CONTINUOUS
 62
     3
 10
13280.95899586889
 20
15336.48836400001
 30
0.0
 11
10362.95899586889
 21
15336.48836400001
 31
0.0
  0
LINE
  5
FD79
  8
0-1
  6
CONTINUOUS
 62
     3
 10
13280.95899586889
 20
15246.48658200001
 30
0.0
 11
10362.95899586889
 21
15246.48658200001
 31
0.0
  0
LINE
  5
FD7A
  8
0-1
  6
CONTINUOUS
 62
     3
 10
13280.95899586889
 20
16795.48935399999
 30
0.0
 11
10362.95899586889
 21
16795.48935399999
 31
0.0
  0
LINE
  5
FD7B
  8
0-1
  6
CONTINUOUS
 62
     3
 10
10362.95899586889
 20
16795.489354000001
 30
0.0
 11
8005.2964091021413
 21
16795.48935399999
 31
0.0
  0
LINE
  5
FD7C
  8
2-0
  6
DASHED3
 62
     6
 10
8005.2964091021413
 20
16795.48935399999
 30
0.0
 11
7562.958995868893
 21
16795.48935399999
 31
0.0
  0
LINE
  5
FD7D
  8
0-1
  6
CONTINUOUS
 62
     3
 10
13266.81731486888
 20
18254.48935299999
 30
0.0
 11
11553.41326857445
 21
18254.489353000001
 31
0.0
  0
LINE
  5
FD7E
  8
0-1
  6
CONTINUOUS
 62
     3
 10
13266.81731486888
 20
18164.48658199999
 30
0.0
 11
11331.06463964284
 21
18164.48658199999
 31
0.0
  0
LINE
  5
FD7F
  8
0-1
  6
CONTINUOUS
 62
     3
 10
13210.95826986887
 20
16750.486977999979
 30
0.0
 11
10432.95774186888
 21
15291.48697799999
 31
0.0
  0
LINE
  5
FD80
  8
0-1
  6
CONTINUOUS
 62
     3
 10
10432.95774186888
 20
15291.48697799999
 30
0.0
 11
13210.95826986887
 21
14182.986977999981
 31
0.0
  0
LINE
  5
FD81
  8
0-1
  6
CONTINUOUS
 62
     3
 10
13210.95826986887
 20
15291.48697799999
 30
0.0
 11
10432.95774186888
 21
14182.986977999981
 31
0.0
  0
LINE
  5
FD82
  8
0-1
  6
CONTINUOUS
 62
     3
 10
13210.95826986887
 20
18209.486978000001
 30
0.0
 11
10432.95809622506
 21
16750.488879658838
 31
0.0
  0
LINE
  5
FD83
  8
0-1
  6
CONTINUOUS
 62
     3
 10
10432.95809622506
 20
16750.488879658838
 30
0.0
 11
13210.95826986887
 21
15291.48697799999
 31
0.0
  0
LINE
  5
FD84
  8
0-1
  6
CONTINUOUS
 62
     3
 10
12191.175574842129
 20
18515.10992591684
 30
0.0
 11
13210.95826986885
 21
18209.486978000001
 31
0.0
  0
LINE
  5
FD85
  8
0-1
  6
CONTINUOUS
 62
     3
 10
10898.37552264744
 20
17988.101305556302
 30
0.0
 11
13210.95826986887
 21
16750.486977999979
 31
0.0
  0
LINE
  5
FD86
  8
0-1
  6
CONTINUOUS
 62
     3
 10
13348.460222868889
 20
18985.86362081287
 30
0.0
 11
13348.460222868889
 21
19522.98790199995
 31
0.0
  0
LINE
  5
FD87
  8
0-1
  6
CONTINUOUS
 62
     3
 10
13292.959470868889
 20
19505.48895699998
 30
0.0
 11
13292.959470868889
 21
19535.488560999969
 31
0.0
  0
LINE
  5
FD88
  8
0-1
  6
CONTINUOUS
 62
     3
 10
13366.45899586889
 20
19535.488560999969
 30
0.0
 11
13366.45899586889
 21
19500.48671399997
 31
0.0
  0
LINE
  5
FD89
  8
0-1
  6
CONTINUOUS
 62
     3
 10
13297.959734868889
 20
19540.486845999982
 30
0.0
 11
13361.45972186889
 21
19540.486845999982
 31
0.0
  0
LINE
  5
FD8A
  8
0-1
  6
CONTINUOUS
 62
     3
 10
13348.460222868889
 20
19522.98790199995
 30
0.0
 11
13366.45899586889
 21
19522.98790199995
 31
0.0
  0
LINE
  5
FD8B
  8
0-1
  6
CONTINUOUS
 62
     3
 10
13348.460222868889
 20
19500.48671399997
 30
0.0
 11
13297.959734868889
 21
19500.48671399997
 31
0.0
  0
LINE
  5
FD8C
  8
0-1
  6
CONTINUOUS
 62
     3
 10
13289.95887686887
 20
19510.489220999982
 30
0.0
 11
7553.959509868876
 21
19510.489220999982
 31
0.0
  0
LINE
  5
FD8D
  8
2-0
  6
DASHED3
 62
     6
 10
13280.95899586889
 20
19278.98848199999
 30
0.0
 11
7562.958995868893
 21
19278.98848199999
 31
0.0
  0
LINE
  5
FD8E
  8
2-0
  6
DASHED3
 62
     6
 10
13323.45826986887
 20
18976.894547152879
 30
0.0
 11
13323.45826986887
 21
19363.98900999999
 31
0.0
  0
LINE
  5
FD8F
  8
2-0
  6
DASHED3
 62
     6
 10
13280.95899586889
 20
18959.35902401376
 30
0.0
 11
13280.95899586889
 21
19363.98900999999
 31
0.0
  0
LINE
  5
FD90
  8
2-0
  6
DASHED3
 62
     6
 10
13323.45826986887
 20
19363.98900999999
 30
0.0
 11
7562.958995868893
 21
19363.989009999961
 31
0.0
  0
LINE
  5
FD91
  8
2-0
  6
DASHED3
 62
     6
 10
10362.95899586889
 20
17769.8393054761
 30
0.0
 11
10362.95899586889
 21
19363.98900999999
 31
0.0
  0
LINE
  5
FD92
  8
2-0
  6
DASHED3
 62
     6
 10
10320.45774186887
 20
17752.513712708602
 30
0.0
 11
10320.45774186887
 21
19363.98900999999
 31
0.0
  0
LINE
  5
FD93
  8
2-0
  6
DASHED3
 62
     6
 10
11331.06463964284
 20
18164.48658199999
 30
0.0
 11
10362.95899586889
 21
18164.48658199999
 31
0.0
  0
LINE
  5
FD94
  8
2-0
  6
DASHED3
 62
     6
 10
11553.41326857445
 20
18254.489353000001
 30
0.0
 11
10362.95899586889
 21
18254.48935299999
 31
0.0
  0
LINE
  5
FD95
  8
2-0
  6
DASHED3
 62
     6
 10
13210.95826986887
 20
19317.986977999979
 30
0.0
 11
10415.958626868871
 21
18209.486978000001
 31
0.0
  0
LINE
  5
FD96
  8
2-0
  6
DASHED3
 62
     6
 10
10415.958626868871
 20
18209.48697799999
 30
0.0
 11
10898.37552264744
 21
17988.101305556302
 31
0.0
  0
LINE
  5
FD97
  8
2-0
  6
DASHED3
 62
     6
 10
10432.95774186888
 20
19317.986977999979
 30
0.0
 11
12191.175574842129
 21
18515.10992591684
 31
0.0
  0
LINE
  5
FD98
  8
2-0
  6
CENTER2
 62
     6
 10
10362.95899586889
 20
20560.489221
 30
0.0
 11
10362.95899586889
 21
19610.48856099998
 31
0.0
  0
LINE
  5
FD99
  8
2-0
  6
CENTER2
 62
     6
 10
14610.45910086888
 20
19317.986977999979
 30
0.0
 11
12963.95987986888
 21
19317.986977999979
 31
0.0
  0
LINE
  5
FD9A
  8
0-8
  6
CONTINUOUS
 62
     6
 10
13280.95899586889
 20
20560.489221
 30
0.0
 11
13280.95899586889
 21
19610.48856099998
 31
0.0
  0
LINE
  5
FD9B
  8
2-0
  6
CENTER2
 62
     6
 10
14610.45910086888
 20
16750.486977999979
 30
0.0
 11
7391.1595478688851
 21
16750.486977999979
 31
0.0
  0
LINE
  5
FD9C
  8
2-0
  6
CENTER2
 62
     6
 10
14610.45910086888
 20
14182.986977999981
 30
0.0
 11
12963.95987986888
 21
14182.986977999981
 31
0.0
  0
LINE
  5
FD9D
  8
2-0
  6
CENTER2
 62
     6
 10
13499.75716386887
 20
18209.486978000001
 30
0.0
 11
7391.1595478688851
 21
18209.486978000001
 31
0.0
  0
LINE
  5
FD9E
  8
2-0
  6
CENTER2
 62
     6
 10
13499.75716386887
 20
15291.48697799999
 30
0.0
 11
7391.1595478688851
 21
15291.48697799999
 31
0.0
  0
ARC
  5
FD9F
  8
0-1
  6
CONTINUOUS
 62
     3
 10
13297.959734868889
 20
19505.48895699998
 30
0.0
 40
5.0
 50
180.0
 51
270.00001499981897
  0
ARC
  5
FDA0
  8
0-1
  6
CONTINUOUS
 62
     3
 10
13297.959734868889
 20
19535.488560999969
 30
0.0
 40
5.0
 50
90.0
 51
180.0
  0
ARC
  5
FDA1
  8
0-1
  6
CONTINUOUS
 62
     3
 10
13361.45972186889
 20
19535.488560999969
 30
0.0
 40
5.0
 50
0.000000000000007
 51
90.0
  0
LINE
  5
FDA2
  8
2-0
  6
CENTER2
 62
     6
 10
7562.958995868893
 20
20560.489221
 30
0.0
 11
7562.958995868893
 21
19610.48856099998
 31
0.0
  0
LINE
  5
FDA3
  8
0-1
  6
CONTINUOUS
 62
     3
 10
7495.4587578688916
 20
16587.06311039098
 30
0.0
 11
7495.4587578688861
 21
19522.98790199995
 31
0.0
  0
LINE
  5
FDA4
  8
0-1
  6
CONTINUOUS
 62
     3
 10
7495.4587578688861
 20
19522.98790199995
 30
0.0
 11
7477.458995868893
 21
19522.98790199995
 31
0.0
  0
LINE
  5
FDA5
  8
0-1
  6
CONTINUOUS
 62
     3
 10
7550.959509868876
 20
19505.48895699998
 30
0.0
 11
7550.959509868876
 21
19535.488560999969
 31
0.0
  0
LINE
  5
FDA6
  8
0-1
  6
CONTINUOUS
 62
     3
 10
7495.4587578688861
 20
19500.48671399997
 30
0.0
 11
7545.9582558688753
 21
19500.48671399997
 31
0.0
  0
LINE
  5
FDA7
  8
0-1
  6
CONTINUOUS
 62
     3
 10
7477.458995868893
 20
19535.488560999969
 30
0.0
 11
7477.458995868893
 21
19500.48671399997
 31
0.0
  0
LINE
  5
FDA8
  8
0-1
  6
CONTINUOUS
 62
     3
 10
7545.9582558688753
 20
19540.486845999982
 30
0.0
 11
7482.4602488688943
 21
19540.486845999982
 31
0.0
  0
ARC
  5
FDA9
  8
0-1
  6
CONTINUOUS
 62
     3
 10
7482.4602488688943
 20
19535.488560999969
 30
0.0
 40
5.0
 50
90.0
 51
180.0
  0
ARC
  5
FDAA
  8
0-1
  6
CONTINUOUS
 62
     3
 10
7545.9582558688753
 20
19535.488560999969
 30
0.0
 40
5.0
 50
0.000000000000007
 51
90.0
  0
ARC
  5
FDAB
  8
0-1
  6
CONTINUOUS
 62
     3
 10
7545.9582558688753
 20
19505.48895699998
 30
0.0
 40
5.0
 50
270.00001499981897
 51
0.000000000000007
  0
LINE
  5
FDAC
  8
0-1
  6
CONTINUOUS
 62
     3
 10
10362.95899586889
 20
14146.487624999971
 30
0.0
 11
10362.95899586889
 21
13990.487703999979
 31
0.0
  0
LINE
  5
FDAD
  8
0-1
  6
CONTINUOUS
 62
     3
 10
13553.714306127211
 20
19070.547447553221
 30
0.0
 11
9954.1605425242415
 21
17603.19303365939
 31
0.0
  0
LINE
  5
FDAE
  8
0-1
  6
CONTINUOUS
 62
     3
 10
9029.7579368786028
 20
17216.777447804481
 30
0.0
 11
7183.8981773633086
 21
16457.706737551041
 31
0.0
  0
LINE
  5
FDAF
  8
0-1
  6
CONTINUOUS
 62
     3
 10
7612.9586268688736
 20
14022.48761099999
 30
0.0
 11
7612.9586268688772
 21
16635.900176312141
 31
0.0
  0
LINE
  5
FDB0
  8
0-1
  6
CONTINUOUS
 62
     3
 10
7477.4589958688903
 20
13990.486977999981
 30
0.0
 11
7477.458995868893
 21
16579.991428284091
 31
0.0
  0
LINE
  5
FDB1
  8
0-1
  6
CONTINUOUS
 62
     3
 10
7562.9589958688912
 20
14146.487624999971
 30
0.0
 11
7562.958995868893
 21
16613.587466435791
 31
0.0
  0
LINE
  5
FDB2
  8
0-1
  6
CONTINUOUS
 62
     3
 10
7520.4577418688768
 20
14146.487624999971
 30
0.0
 11
7520.4577418688832
 21
16596.10972637773
 31
0.0
  0
LINE
  5
FDB3
  8
0-1
  6
CONTINUOUS
 62
     3
 10
7612.9586268688772
 20
16635.900176312149
 30
0.0
 11
7612.9586268688772
 21
19510.489220999982
 31
0.0
  0
LINE
  5
FDB4
  8
0-1
  6
CONTINUOUS
 62
     3
 10
7477.458995868893
 20
16579.991428284091
 30
0.0
 11
7477.458995868893
 21
19522.98790199995
 31
0.0
  0
LINE
  5
FDB5
  8
2-0
  6
DASHED3
 62
     6
 10
7562.958995868893
 20
16613.587466435791
 30
0.0
 11
7562.958995868893
 21
19510.489220999982
 31
0.0
  0
LINE
  5
FDB6
  8
2-0
  6
DASHED3
 62
     6
 10
7520.4577418688832
 20
16596.10972637773
 30
0.0
 11
7520.4577418688832
 21
19500.48671399997
 31
0.0
  0
LINE
  5
FDB7
  8
0-1
  6
CONTINUOUS
 62
     3
 10
10510.45688486887
 20
17829.96666922119
 30
0.0
 11
10510.45688486887
 21
19510.489220999982
 31
0.0
  0
LINE
  5
FDB8
  8
0-1
  6
CONTINUOUS
 62
     3
 10
10473.45671286887
 20
17814.883586910251
 30
0.0
 11
10473.45671286887
 21
19510.489220999982
 31
0.0
  0
LINE
  5
FDB9
  8
0-1
  6
CONTINUOUS
 62
     3
 10
10310.45622486886
 20
17748.436604522591
 30
0.0
 11
10310.456224868871
 21
19510.489220999982
 31
0.0
  0
LINE
  5
FDBA
  8
0-1
  6
CONTINUOUS
 62
     3
 10
10273.45605286886
 20
17733.353522211652
 30
0.0
 11
10273.45605286886
 21
19510.489220999982
 31
0.0
  0
LINE
  5
FDBB
  8
0-1
  6
CONTINUOUS
 62
     3
 10
10110.45556486886
 20
17666.906539823962
 30
0.0
 11
10110.45556486886
 21
19510.489220999982
 31
0.0
  0
LINE
  5
FDBC
  8
0-1
  6
CONTINUOUS
 62
     3
 10
10073.45539286884
 20
17651.823457513041
 30
0.0
 11
10073.45539286884
 21
19510.489220999982
 31
0.0
  0
LINE
  5
FDBD
  8
0-1
  6
CONTINUOUS
 62
     3
 10
9910.4549048688496
 20
17709.118466013209
 30
0.0
 11
9910.4549048688568
 21
19510.489220999982
 31
0.0
  0
LINE
  5
FDBE
  8
0-1
  6
CONTINUOUS
 62
     3
 10
9873.4547328688459
 20
17798.79246292797
 30
0.0
 11
9873.4547328688459
 21
19510.489220999982
 31
0.0
  0
LINE
  5
FDBF
  8
0-1
  6
CONTINUOUS
 62
     3
 10
9710.4542448688426
 20
17663.714871947632
 30
0.0
 11
9710.4542448688426
 21
19510.489220999982
 31
0.0
  0
LINE
  5
FDC0
  8
0-1
  6
CONTINUOUS
 62
     3
 10
9673.4540728688316
 20
17621.171631558751
 30
0.0
 11
9673.4540728688316
 21
19510.489220999982
 31
0.0
  0
LINE
  5
FDC1
  8
0-1
  6
CONTINUOUS
 62
     3
 10
9510.4535848688283
 20
17431.377743966881
 30
0.0
 11
9510.453584868832
 21
19510.489220999982
 31
0.0
  0
LINE
  5
FDC2
  8
0-1
  6
CONTINUOUS
 62
     3
 10
9473.4534128688192
 20
17388.582352968799
 30
0.0
 11
9473.4534128688265
 21
19510.489220999982
 31
0.0
  0
LINE
  5
FDC3
  8
0-1
  6
CONTINUOUS
 62
     3
 10
9310.4529248688195
 20
17198.78851710165
 30
0.0
 11
9310.4529248688195
 21
19510.489220999982
 31
0.0
  0
LINE
  5
FDC4
  8
0-1
  6
CONTINUOUS
 62
     3
 10
9273.4527528688104
 20
17156.245276712762
 30
0.0
 11
9273.4527528688104
 21
19510.489220999982
 31
0.0
  0
LINE
  5
FDC5
  8
0-1
  6
CONTINUOUS
 62
     3
 10
9110.4522648688089
 20
17021.196504491822
 30
0.0
 11
9110.4522648688162
 21
19510.489220999982
 31
0.0
  0
LINE
  5
FDC6
  8
0-1
  6
CONTINUOUS
 62
     3
 10
9073.4520928688034
 20
17110.87478452373
 30
0.0
 11
9073.4520928688034
 21
19510.489220999982
 31
0.0
  0
LINE
  5
FDC7
  8
0-1
  6
CONTINUOUS
 62
     3
 10
8910.451604868802
 20
17167.715247001001
 30
0.0
 11
8910.451604868802
 21
19510.489220999982
 31
0.0
  0
LINE
  5
FDC8
  8
0-1
  6
CONTINUOUS
 62
     3
 10
8873.4514328687965
 20
17152.499710341312
 30
0.0
 11
8873.4514328687965
 21
19510.489220999982
 31
0.0
  0
LINE
  5
FDC9
  8
0-1
  6
CONTINUOUS
 62
     3
 10
8710.4509448687932
 20
17085.469213815231
 30
0.0
 11
8710.4509448687968
 21
19510.489220999982
 31
0.0
  0
LINE
  5
FDCA
  8
0-1
  6
CONTINUOUS
 62
     3
 10
8673.4507728687859
 20
17070.253677155531
 30
0.0
 11
8673.4507728687859
 21
19510.489220999982
 31
0.0
  0
LINE
  5
FDCB
  8
0-1
  6
CONTINUOUS
 62
     3
 10
8510.4502848687862
 20
17003.223180629459
 30
0.0
 11
8510.4502848687862
 21
19510.489220999982
 31
0.0
  0
LINE
  5
FDCC
  8
0-1
  6
CONTINUOUS
 62
     3
 10
8473.4501128687807
 20
16988.00764396978
 30
0.0
 11
8473.4501128687807
 21
19510.489220999982
 31
0.0
  0
LINE
  5
FDCD
  8
0-1
  6
CONTINUOUS
 62
     3
 10
8310.4496248687738
 20
16920.9771474437
 30
0.0
 11
8310.4496248687792
 21
19510.489220999982
 31
0.0
  0
LINE
  5
FDCE
  8
0-1
  6
CONTINUOUS
 62
     3
 10
8273.4494528687701
 20
16905.761610784011
 30
0.0
 11
8273.4494528687719
 21
19510.489220999982
 31
0.0
  0
LINE
  5
FDCF
  8
0-1
  6
CONTINUOUS
 62
     3
 10
8110.4489648687713
 20
16838.731114257931
 30
0.0
 11
8110.4489648687713
 21
19510.489220999982
 31
0.0
  0
LINE
  5
FDD0
  8
0-1
  6
CONTINUOUS
 62
     3
 10
8073.4487928687577
 20
16823.515577598231
 30
0.0
 11
8073.4487928687577
 21
19510.489220999982
 31
0.0
  0
LINE
  5
FDD1
  8
0-1
  6
CONTINUOUS
 62
     3
 10
10362.95899586889
 20
15336.48836400001
 30
0.0
 11
7562.958995868893
 21
15336.48836400001
 31
0.0
  0
LINE
  5
FDD2
  8
0-1
  6
CONTINUOUS
 62
     3
 10
10362.95899586889
 20
15246.48658200001
 30
0.0
 11
7562.958995868893
 21
15246.48658200001
 31
0.0
  0
LINE
  5
FDD3
  8
2-0
  6
DASHED3
 62
     6
 10
7562.958995868893
 20
18164.48658199999
 30
0.0
 11
10362.95899586889
 21
18164.48658199999
 31
0.0
  0
LINE
  5
FDD4
  8
2-0
  6
DASHED3
 62
     6
 10
7562.958995868893
 20
18254.489353000001
 30
0.0
 11
10362.95899586889
 21
18254.48935299999
 31
0.0
  0
LINE
  5
FDD5
  8
0-1
  6
CONTINUOUS
 62
     3
 10
7742.4586268688772
 20
15291.48697799999
 30
0.0
 11
10193.95774186887
 21
14182.986977999981
 31
0.0
  0
LINE
  5
FDD6
  8
0-1
  6
CONTINUOUS
 62
     3
 10
10193.95774186887
 20
16750.486977999979
 30
0.0
 11
7742.4586268688772
 21
15291.48697799999
 31
0.0
  0
LINE
  5
FDD7
  8
0-1
  6
CONTINUOUS
 62
     3
 10
10193.95774186887
 20
15291.48697799999
 30
0.0
 11
7805.1431146010545
 21
16713.18055311016
 31
0.0
  0
LINE
  5
FDD8
  8
0-1
  6
CONTINUOUS
 62
     3
 10
7742.4586268688736
 20
14182.986977999981
 30
0.0
 11
10193.95774186887
 21
15291.48697799999
 31
0.0
  0
LINE
  5
FDD9
  8
2-0
  6
DASHED3
 62
     6
 10
10193.95774186887
 20
18209.486978000001
 30
0.0
 11
7742.4586268688772
 21
16750.486977999979
 31
0.0
  0
LINE
  5
FDDA
  8
2-0
  6
DASHED3
 62
     6
 10
7742.4586268688772
 20
18209.486978000001
 30
0.0
 11
9353.9801186160275
 21
17250.39633747203
 31
0.0
  0
LINE
  5
FDDB
  8
0-1
  6
CONTINUOUS
 62
     3
 10
9353.9801186160275
 20
17250.39633747203
 30
0.0
 11
10193.95774186887
 21
16750.486977999979
 31
0.0
  0
LINE
  5
FDDC
  8
2-0
  6
DASHED3
 62
     6
 10
7742.4586268688772
 20
19317.986977999979
 30
0.0
 11
10193.95774186887
 21
18209.486978000001
 31
0.0
  0
LINE
  5
FDDD
  8
2-0
  6
DASHED3
 62
     6
 10
10193.95774186887
 20
19317.986977999979
 30
0.0
 11
7742.4586268688772
 21
18209.486978000001
 31
0.0
  0
LINE
  5
FDDE
  8
0-1
  6
CONTINUOUS
 62
     3
 10
9954.1610802840187
 20
17603.19173033928
 30
0.0
 11
9858.8070599604962
 21
17834.29271344548
 31
0.0
  0
LINE
  5
FDDF
  8
0-1
  6
CONTINUOUS
 62
     3
 10
9125.1075277772798
 20
16985.676162287851
 30
0.0
 11
9029.756878099759
 21
17216.78001399431
 31
0.0
  0
LINE
  5
FDE0
  8
0-1
  6
CONTINUOUS
 62
     3
 10
9125.1075277772798
 20
16985.676162287851
 30
0.0
 11
9858.8070599604962
 21
17834.29271344548
 31
0.0
  0
LINE
  5
FDE1
  8
2-0
  6
DASHED3
 62
     6
 10
7805.1431146010545
 20
16713.18055311016
 30
0.0
 11
7742.4586268688772
 21
16750.486977999979
 31
0.0
  0
LINE
  5
FDE2
  8
0-1
  6
CONTINUOUS
 62
     3
 10
12310.45787486888
 20
18563.73523364625
 30
0.0
 11
12310.45787486888
 21
19510.489220999982
 31
0.0
  0
LINE
  5
FDE3
  8
0-1
  6
CONTINUOUS
 62
     3
 10
12273.45869386887
 20
18548.652555315461
 30
0.0
 11
12273.45869386887
 21
19510.489220999982
 31
0.0
  0
LINE
  5
FDE4
  8
0-1
  6
CONTINUOUS
 62
     3
 10
12110.45721586887
 20
18482.205169355278
 30
0.0
 11
12110.45721586887
 21
19510.489220999982
 31
0.0
  0
LINE
  5
FDE5
  8
0-1
  6
CONTINUOUS
 62
     3
 10
12073.457043868881
 20
18467.12208704435
 30
0.0
 11
12073.457043868881
 21
19510.489220999982
 31
0.0
  0
LINE
  5
FDE6
  8
0-1
  6
CONTINUOUS
 62
     3
 10
12510.45754586888
 20
18645.26489518
 30
0.0
 11
12510.45754586888
 21
19510.489220999982
 31
0.0
  0
LINE
  5
FDE7
  8
0-1
  6
CONTINUOUS
 62
     3
 10
12473.45737386887
 20
18630.18181286909
 30
0.0
 11
12473.45737386887
 21
19510.489220999982
 31
0.0
  0
LINE
  5
FDE8
  8
0-1
  6
CONTINUOUS
 62
     3
 10
12910.457875868889
 20
18808.324621004758
 30
0.0
 11
12910.457875868889
 21
19510.489220999982
 31
0.0
  0
LINE
  5
FDE9
  8
0-1
  6
CONTINUOUS
 62
     3
 10
12873.458694868879
 20
18793.241942673969
 30
0.0
 11
12873.458694868879
 21
19510.489220999982
 31
0.0
  0
LINE
  5
FDEA
  8
0-1
  6
CONTINUOUS
 62
     3
 10
12710.45721686889
 20
18726.79455671379
 30
0.0
 11
12710.457216868879
 21
19510.489220999982
 31
0.0
  0
LINE
  5
FDEB
  8
0-1
  6
CONTINUOUS
 62
     3
 10
12673.45704486887
 20
18711.711474402869
 30
0.0
 11
12673.45704486887
 21
19510.489220999982
 31
0.0
  0
LINE
  5
FDEC
  8
0-1
  6
CONTINUOUS
 62
     3
 10
13110.457546868891
 20
18889.85428253853
 30
0.0
 11
13110.457546868891
 21
19510.489220999982
 31
0.0
  0
LINE
  5
FDED
  8
0-1
  6
CONTINUOUS
 62
     3
 10
13073.457374868891
 20
18874.771200227598
 30
0.0
 11
13073.457374868891
 21
19510.489220999982
 31
0.0
  0
LINE
  5
FDEE
  8
0-1
  6
CONTINUOUS
 62
     3
 10
7910.448304868758
 20
16756.485081072158
 30
0.0
 11
7910.448304868758
 21
19510.489221
 31
0.0
  0
LINE
  5
FDEF
  8
0-1
  6
CONTINUOUS
 62
     3
 10
7873.4481328687489
 20
16741.26954441248
 30
0.0
 11
7873.4481328687489
 21
19510.489221
 31
0.0
  0
LINE
  5
FDF0
  8
0-1
  6
CONTINUOUS
 62
     3
 10
7710.4476448687537
 20
16674.2390478864
 30
0.0
 11
7710.4476448687492
 21
19510.489221
 31
0.0
  0
LINE
  5
FDF1
  8
0-1
  6
CONTINUOUS
 62
     3
 10
7673.4474728687392
 20
16659.0235112267
 30
0.0
 11
7673.4474728687392
 21
19510.489221
 31
0.0
  0
LINE
  5
FDF3
  8
0-1
  6
CONTINUOUS
 62
     3
 10
7991.0482846935547
 20
6291.1885390000016
 30
0.0
 11
7991.0482846935547
 21
8152.234418
 31
0.0
  0
LINE
  5
FDF4
  8
0-1
  6
CONTINUOUS
 62
     3
 10
8006.048086693565
 20
6291.1885390000016
 30
0.0
 11
8006.048086693565
 21
8152.234418
 31
0.0
  0
TEXT
  5
FDF5
  8
0-6
  6
CONTINUOUS
 62
     7
 10
8363.3733794522341
 20
13503.58945534379
 30
0.0
 40
160.0
  1
梁（P）前
 72
     4
 11
8806.0400461189001
 21
13583.58945534379
 31
0.0
  0
LINE
  5
FDF6
  8
0-6
  6
CONTINUOUS
 62
     6
 10
9284.82288439082
 20
13423.59018134379
 30
0.0
 11
8290.5490808689337
 21
13423.59018134379
 31
0.0
  0
TEXT
  5
FDF7
  8
0-6
  6
CONTINUOUS
 62
     7
 10
4240.6840325140611
 20
13367.28261578345
 30
0.0
 40
160.0
  1
桁前（PU）+ 桁補強（PU）
 72
     4
 11
5488.6840325140611
 21
13447.28261578345
 31
0.0
  0
LINE
  5
FDF8
  8
0-6
  6
CONTINUOUS
 62
     6
 10
6777.3468941251303
 20
13265.73604859431
 30
0.0
 11
4194.6725613697454
 21
13265.73604859431
 31
0.0
  0
LINE
  5
FDF9
  8
0-6
  6
CONTINUOUS
 62
     6
 10
7768.3945928845578
 20
14146.487624999971
 30
0.0
 11
6777.3468941251303
 21
13265.73604859431
 31
0.0
  0
LINE
  5
FDFA
  8
0-6
  6
CONTINUOUS
 62
     6
 10
6714.6556147861256
 20
16745.972068012172
 30
0.0
 11
7776.8042861892009
 21
16287.177510604581
 31
0.0
  0
LINE
  5
FDFB
  8
0-6
  6
CONTINUOUS
 62
     6
 10
7776.8042861892009
 20
16287.177510604581
 30
0.0
 11
8034.4286569802352
 21
16705.486582999991
 31
0.0
  0
LINE
  5
FDFC
  8
0-6
  6
CONTINUOUS
 62
     6
 10
6714.6556147861256
 20
15286.97206701219
 30
0.0
 11
7776.8042861892009
 21
14828.1775096046
 31
0.0
  0
LINE
  5
FDFD
  8
0-6
  6
CONTINUOUS
 62
     6
 10
7776.8042861892009
 20
14828.1775096046
 30
0.0
 11
8034.4286569802352
 21
15246.486582
 31
0.0
  0
TEXT
  5
FDFE
  8
0-6
  6
CONTINUOUS
 62
     7
 10
4062.2158830784601
 20
15378.490164890551
 30
0.0
 40
160.0
  1
桁（PU）B + 桁補強（PU）
 72
     4
 11
5342.2158830784601
 21
15458.490164890551
 31
0.0
  0
LINE
  5
FDFF
  8
0-6
  6
CONTINUOUS
 62
     6
 10
6714.6556147861256
 20
15286.97206701219
 30
0.0
 11
3949.193678927636
 21
15286.97206701219
 31
0.0
  0
LINE
  5
FE00
  8
0-6
  6
CONTINUOUS
 62
     6
 10
6714.6556147861256
 20
18204.97206701215
 30
0.0
 11
7776.8042861892009
 21
17746.177509604571
 31
0.0
  0
LINE
  5
FE01
  8
0-6
  6
CONTINUOUS
 62
     6
 10
7776.8042861892009
 20
17746.177509604571
 30
0.0
 11
8034.4286569802352
 21
18164.48658199998
 31
0.0
  0
TEXT
  5
FE02
  8
0-6
  6
CONTINUOUS
 62
     7
 10
4062.2158830784601
 20
18296.49016489054
 30
0.0
 40
160.0
  1
桁（PU）B + 桁補強（PU）
 72
     4
 11
5342.2158830784601
 21
18376.49016489054
 31
0.0
  0
LINE
  5
FE03
  8
0-6
  6
CONTINUOUS
 62
     6
 10
6714.6556147861256
 20
18204.97206701215
 30
0.0
 11
3949.193678927636
 21
18204.97206701215
 31
0.0
  0
TEXT
  5
FE04
  8
0-6
  6
CONTINUOUS
 62
     7
 10
4062.2158830784601
 20
16837.490165890511
 30
0.0
 40
160.0
  1
桁（PU）A + 桁補強（PU）
 72
     4
 11
5342.2158830784601
 21
16917.490165890511
 31
0.0
  0
LINE
  5
FE05
  8
0-6
  6
CONTINUOUS
 62
     6
 10
6714.6556147861256
 20
16745.972068012172
 30
0.0
 11
3949.193678927636
 21
16745.972068012172
 31
0.0
  0
LINE
  5
FE06
  8
0-6
  6
CONTINUOUS
 62
     6
 10
6714.6556147861256
 20
19319.47396701216
 30
0.0
 11
7776.8042861892009
 21
18860.67940960456
 31
0.0
  0
LINE
  5
FE07
  8
0-6
  6
CONTINUOUS
 62
     6
 10
7776.8042861892009
 20
18860.67940960456
 30
0.0
 11
8034.4286569802352
 21
19278.98848199999
 31
0.0
  0
TEXT
  5
FE08
  8
0-6
  6
CONTINUOUS
 62
     7
 10
4062.215883078461
 20
19410.99206489051
 30
0.0
 40
160.0
  1
桁（PU）A + 桁補強（PU）
 72
     4
 11
5342.215883078461
 21
19490.99206489051
 31
0.0
  0
LINE
  5
FE09
  8
0-6
  6
CONTINUOUS
 62
     6
 10
6714.6556147861256
 20
19319.47396701216
 30
0.0
 11
3949.1936789276369
 21
19319.47396701216
 31
0.0
  0
LINE
  5
FE0C
  8
WAKUSEN-01
 10
868.00000000000193
 20
22484.000000000011
 30
0.0
 11
32764.000000000011
 21
22484.000000000011
 31
0.0
  0
LINE
  5
FE0F
  8
WAKUSEN-01
 10
20560.0
 20
2484.0
 30
0.0
 11
32764.0
 21
2484.0
 31
0.0
  0
LINE
  5
FE10
  8
WAKUSEN-02
 10
20560.0
 20
1655.9999999999991
 30
0.0
 11
26868.0
 21
1655.9999999999991
 31
0.0
  0
TEXT
  5
FE11
  8
WAKUMOJI-01
 10
20670.260259962761
 20
2125.9030093393221
 30
0.0
 40
240.0
  1
名　称
  7
WAKUMOJI
  0
TEXT
  5
FE12
  8
WAKUMOJI-01
 10
20656.505485091919
 20
1319.12897497982
 30
0.0
 40
240.0
  1
機種名
  7
WAKUMOJI
  0
LINE
  5
FE15
  8
YODOROGO
 10
29977.604341291921
 20
1995.7494964292871
 30
0.0
 11
29829.604341291921
 21
1995.7494964292871
 31
0.0
1001
AUTOCAD_POSTSCRIPT_FIGURE
1002
{
1000
PSFILL
1000
Grayscale
1000
Grayscale
1070
    25
1002
}
  0
LINE
  5
FE16
  8
YODOROGO
 10
29829.604341291921
 20
1947.749496429288
 30
0.0
 11
29977.604341291921
 21
1947.749496429288
 31
0.0
1001
AUTOCAD_POSTSCRIPT_FIGURE
1002
{
1000
PSFILL
1000
Grayscale
1000
Grayscale
1070
    25
1002
}
  0
LINE
  5
FE17
  8
YODOROGO
 10
29977.604341291921
 20
1907.7494964292871
 30
0.0
 11
29829.604341291921
 21
1907.7494964292871
 31
0.0
1001
AUTOCAD_POSTSCRIPT_FIGURE
1002
{
1000
PSFILL
1000
Grayscale
1000
Grayscale
1070
    25
1002
}
  0
LINE
  5
FE18
  8
YODOROGO
 10
29829.604341291921
 20
1859.749496429288
 30
0.0
 11
29977.604341291921
 21
1859.749496429288
 31
0.0
1001
AUTOCAD_POSTSCRIPT_FIGURE
1002
{
1000
PSFILL
1000
Grayscale
1000
Grayscale
1070
    25
1002
}
  0
LINE
  5
FE19
  8
YODOROGO
 10
29977.604341291921
 20
1819.7494964292871
 30
0.0
 11
29829.604341291921
 21
1819.7494964292871
 31
0.0
1001
AUTOCAD_POSTSCRIPT_FIGURE
1002
{
1000
PSFILL
1000
Grayscale
1000
Grayscale
1070
    25
1002
}
  0
LINE
  5
FE1A
  8
YODOROGO
 10
29921.60434129191
 20
1707.749496429288
 30
0.0
 11
29977.604341291921
 21
1707.749496429288
 31
0.0
1001
AUTOCAD_POSTSCRIPT_FIGURE
1002
{
1000
PSFILL
1000
Grayscale
1000
Grayscale
1070
    25
1002
}
  0
LINE
  5
FE1B
  8
YODOROGO
 10
29737.604341291921
 20
1427.749496429288
 30
0.0
 11
29937.604341291932
 21
1481.3393349155101
 31
0.0
  0
LINE
  5
FE1C
  8
YODOROGO
 10
29949.60434129191
 20
1707.749496429288
 30
0.0
 11
29885.604341291921
 21
1707.749496429288
 31
0.0
  0
ARC
  5
FE1D
  8
YODOROGO
 10
30254.34774982791
 20
1807.864609233261
 30
0.0
 40
381.88686420564721
 50
213.96111677667841
 51
264.47872074317792
  0
ARC
  5
FE1E
  8
YODOROGO
 10
30254.347749827921
 20
1807.864609233302
 30
0.0
 40
381.8868642056816
 50
208.14114420486601
 51
212.9210361185994
  0
LINE
  5
FE1F
  8
YODOROGO
 10
29771.409872985321
 20
1556.807661346234
 30
0.0
 11
29933.78413250855
 21
1600.3157130570869
 31
0.0
  0
LINE
  5
FE20
  8
YODOROGO
 10
29737.604341291921
 20
1427.749496429288
 30
0.0
 11
29937.604341291932
 21
1481.3393349155101
 31
0.0
  0
LINE
  5
FE21
  8
YODOROGO
 10
29949.60434129191
 20
1707.749496429288
 30
0.0
 11
29885.604341291921
 21
1707.749496429288
 31
0.0
  0
ARC
  5
FE22
  8
YODOROGO
 10
30254.34774982791
 20
1807.864609233261
 30
0.0
 40
381.88686420564721
 50
213.96111677667841
 51
264.47872074317792
  0
LINE
  5
FE23
  8
YODOROGO
 10
28793.60434129191
 20
1819.7494964292871
 30
0.0
 11
28433.60434129191
 21
1819.7494964292871
 31
0.0
  0
LINE
  5
FE24
  8
YODOROGO
 10
28513.60434129191
 20
1427.749496429288
 30
0.0
 11
28793.60434129191
 21
1427.749496429288
 31
0.0
  0
LINE
  5
FE25
  8
YODOROGO
 10
28729.604341291921
 20
1923.7494964292871
 30
0.0
 11
28497.60434129191
 21
1923.7494964292871
 31
0.0
  0
LINE
  5
FE26
  8
YODOROGO
 10
28585.604341291921
 20
2027.749496429288
 30
0.0
 11
28657.604341291921
 21
2027.749496429288
 31
0.0
  0
LINE
  5
FE27
  8
YODOROGO
 10
28433.60434129191
 20
1707.749496429288
 30
0.0
 11
28433.60434129191
 21
1507.749496429288
 31
0.0
  0
LINE
  5
FE28
  8
YODOROGO
 10
28497.60434129191
 20
1563.7494964292871
 30
0.0
 11
28497.60434129191
 21
1707.749496429288
 31
0.0
  0
LINE
  5
FE29
  8
YODOROGO
 10
28585.604341291921
 20
1747.74949642929
 30
0.0
 11
28585.604341291921
 21
1547.749496429288
 31
0.0
  0
LINE
  5
FE2A
  8
YODOROGO
 10
27857.604341291921
 20
1683.749496429288
 30
0.0
 11
27777.604341291921
 21
1619.9724140445701
 31
0.0
  0
LINE
  5
FE2B
  8
YODOROGO
 10
27937.604341291921
 20
1619.9724140445701
 30
0.0
 11
27857.604341291921
 21
1683.749496429288
 31
0.0
  0
LINE
  5
FE2C
  8
YODOROGO
 10
27857.604341291921
 20
1707.749496429288
 30
0.0
 11
27937.604341291921
 21
1643.9724140445701
 31
0.0
  0
LINE
  5
FE2D
  8
YODOROGO
 10
27777.604341291921
 20
1643.9724140445701
 30
0.0
 11
27857.604341291921
 21
1707.749496429288
 31
0.0
  0
LINE
  5
FE2E
  8
YODOROGO
 10
28040.913204016892
 20
1659.749496429288
 30
0.0
 11
28040.913204016892
 21
1683.7494964292871
 31
0.0
  0
LINE
  5
FE2F
  8
YODOROGO
 10
27977.604341291921
 20
1683.7494964292871
 30
0.0
 11
27977.604341291921
 21
1667.749496429285
 31
0.0
  0
LINE
  5
FE30
  8
YODOROGO
 10
28098.135520230931
 20
1707.749496429288
 30
0.0
 11
28098.135520230931
 21
1655.5036372746561
 31
0.0
1001
AUTOCAD_POSTSCRIPT_FIGURE
1002
{
1000
PSFILL
1000
Grayscale
1000
Grayscale
1070
   100
1002
}
  0
LINE
  5
FE31
  8
YODOROGO
 10
28082.135520230921
 20
1655.5036372746561
 30
0.0
 11
28082.135520230921
 21
1707.749496429288
 31
0.0
1001
AUTOCAD_POSTSCRIPT_FIGURE
1002
{
1000
PSFILL
1000
Grayscale
1000
Grayscale
1070
   100
1002
}
  0
LINE
  5
FE32
  8
YODOROGO
 10
27809.604341291921
 20
1608.771904043258
 30
0.0
 11
27809.604341291921
 21
1632.771904043258
 31
0.0
  0
LINE
  5
FE33
  8
YODOROGO
 10
27905.604341291921
 20
1608.771904043258
 30
0.0
 11
27809.604341291921
 21
1608.771904043258
 31
0.0
  0
LINE
  5
FE34
  8
YODOROGO
 10
27905.604341291921
 20
1632.771904043258
 30
0.0
 11
27905.604341291921
 21
1608.771904043258
 31
0.0
  0
LINE
  5
FE35
  8
YODOROGO
 10
27809.604341291921
 20
1632.771904043258
 30
0.0
 11
27905.604341291921
 21
1632.771904043258
 31
0.0
  0
LINE
  5
FE36
  8
YODOROGO
 10
27824.509588915738
 20
1568.5028573704751
 30
0.0
 11
27785.604341291921
 21
1475.7494964292871
 31
0.0
1001
AUTOCAD_POSTSCRIPT_FIGURE
1002
{
1000
PSFILL
1000
Grayscale
1000
Grayscale
1070
   100
1002
}
  0
LINE
  5
FE37
  8
YODOROGO
 10
27777.604341291921
 20
1568.5028573704751
 30
0.0
 11
27824.509588915738
 21
1568.5028573704751
 31
0.0
1001
AUTOCAD_POSTSCRIPT_FIGURE
1002
{
1000
PSFILL
1000
Grayscale
1000
Grayscale
1070
   100
1002
}
  0
LINE
  5
FE38
  8
YODOROGO
 10
27777.604341291921
 20
1588.5028573704751
 30
0.0
 11
27777.604341291921
 21
1568.5028573704751
 31
0.0
1001
AUTOCAD_POSTSCRIPT_FIGURE
1002
{
1000
PSFILL
1000
Grayscale
1000
Grayscale
1070
   100
1002
}
  0
LINE
  5
FE39
  8
YODOROGO
 10
27937.604341291921
 20
1588.5028573704751
 30
0.0
 11
27777.604341291921
 21
1588.5028573704751
 31
0.0
1001
AUTOCAD_POSTSCRIPT_FIGURE
1002
{
1000
PSFILL
1000
Grayscale
1000
Grayscale
1070
   100
1002
}
  0
LINE
  5
FE3A
  8
YODOROGO
 10
27937.604341291921
 20
1568.5028573704751
 30
0.0
 11
27937.604341291921
 21
1588.5028573704751
 31
0.0
1001
AUTOCAD_POSTSCRIPT_FIGURE
1002
{
1000
PSFILL
1000
Grayscale
1000
Grayscale
1070
   100
1002
}
  0
LINE
  5
FE3B
  8
YODOROGO
 10
27844.509588915738
 20
1568.5028573704751
 30
0.0
 11
27937.604341291921
 21
1568.5028573704751
 31
0.0
1001
AUTOCAD_POSTSCRIPT_FIGURE
1002
{
1000
PSFILL
1000
Grayscale
1000
Grayscale
1070
   100
1002
}
  0
LINE
  5
FE3C
  8
YODOROGO
 10
27815.546718284771
 20
1495.7494964292871
 30
0.0
 11
27844.509588915738
 21
1568.5028573704751
 31
0.0
1001
AUTOCAD_POSTSCRIPT_FIGURE
1002
{
1000
PSFILL
1000
Grayscale
1000
Grayscale
1070
   100
1002
}
  0
LINE
  5
FE3D
  8
YODOROGO
 10
27902.054790808648
 20
1495.7494964292871
 30
0.0
 11
27815.546718284771
 21
1495.7494964292871
 31
0.0
1001
AUTOCAD_POSTSCRIPT_FIGURE
1002
{
1000
PSFILL
1000
Grayscale
1000
Grayscale
1070
   100
1002
}
  0
LINE
  5
FE3E
  8
YODOROGO
 10
27885.065004790951
 20
1536.2338106976929
 30
0.0
 11
27902.054790808648
 21
1495.7494964292871
 31
0.0
1001
AUTOCAD_POSTSCRIPT_FIGURE
1002
{
1000
PSFILL
1000
Grayscale
1000
Grayscale
1070
   100
1002
}
  0
LINE
  5
FE3F
  8
YODOROGO
 10
27901.065004790951
 20
1536.2338106976929
 30
0.0
 11
27885.065004790951
 21
1536.2338106976929
 31
0.0
1001
AUTOCAD_POSTSCRIPT_FIGURE
1002
{
1000
PSFILL
1000
Grayscale
1000
Grayscale
1070
   100
1002
}
  0
LINE
  5
FE40
  8
YODOROGO
 10
27929.604341291921
 20
1475.7494964292871
 30
0.0
 11
27901.065004790951
 21
1536.2338106976929
 31
0.0
1001
AUTOCAD_POSTSCRIPT_FIGURE
1002
{
1000
PSFILL
1000
Grayscale
1000
Grayscale
1070
   100
1002
}
  0
LINE
  5
FE41
  8
YODOROGO
 10
27785.604341291921
 20
1475.7494964292871
 30
0.0
 11
27929.604341291921
 21
1475.7494964292871
 31
0.0
1001
AUTOCAD_POSTSCRIPT_FIGURE
1002
{
1000
PSFILL
1000
Grayscale
1000
Grayscale
1070
   100
1002
}
  0
LINE
  5
FE42
  8
YODOROGO
 10
27777.604341291921
 20
1619.9724140445701
 30
0.0
 11
27777.604341291921
 21
1643.9724140445701
 31
0.0
  0
LINE
  5
FE43
  8
YODOROGO
 10
27937.604341291921
 20
1643.9724140445701
 30
0.0
 11
27937.604341291921
 21
1619.9724140445701
 31
0.0
  0
ARC
  5
FE44
  8
YODOROGO
 10
28225.940442146959
 20
1600.877765325326
 30
0.0
 40
175.9999999999998
 50
280.3644312771313
 51
3.5414836592180561
  0
ARC
  5
FE45
  8
YODOROGO
 10
28235.756030759301
 20
1633.5978069619041
 30
0.0
 40
111.9999999999982
 50
281.24905825041549
 51
348.75094174958321
  0
LINE
  5
FE46
  8
YODOROGO
 10
28257.604341291921
 20
1523.7494964292871
 30
0.0
 11
28257.604341291921
 21
1427.749496429288
 31
0.0
  0
LINE
  5
FE47
  8
YODOROGO
 10
28020.088903736909
 20
1610.650565061914
 30
0.0
 11
28040.913204016892
 21
1659.749496429288
 31
0.0
  0
LINE
  5
FE48
  8
YODOROGO
 10
28041.604341291921
 20
1583.120489948401
 30
0.0
 11
28020.088903736909
 21
1610.650565061914
 31
0.0
  0
LINE
  5
FE49
  8
YODOROGO
 10
28041.604341291921
 20
1563.120489948398
 30
0.0
 11
28041.604341291921
 21
1583.120489948401
 31
0.0
  0
LINE
  5
FE4A
  8
YODOROGO
 10
28017.604341291921
 20
1585.2370637495301
 30
0.0
 11
28041.604341291921
 21
1563.120489948398
 31
0.0
  0
LINE
  5
FE4B
  8
YODOROGO
 10
28017.604341291921
 20
1475.7494964292871
 30
0.0
 11
28017.604341291921
 21
1585.2370637495301
 31
0.0
  0
LINE
  5
FE4C
  8
YODOROGO
 10
28001.604341291921
 20
1475.7494964292871
 30
0.0
 11
28017.604341291921
 21
1475.7494964292871
 31
0.0
  0
LINE
  5
FE4D
  8
YODOROGO
 10
28001.604341291921
 20
1580.0053496897469
 30
0.0
 11
28001.604341291921
 21
1475.7494964292871
 31
0.0
  0
LINE
  5
FE4E
  8
YODOROGO
 10
27977.604341291921
 20
1532.7680790334291
 30
0.0
 11
28001.604341291921
 21
1580.0053496897469
 31
0.0
  0
LINE
  5
FE4F
  8
YODOROGO
 10
27977.604341291921
 20
1556.76807903343
 30
0.0
 11
27977.604341291921
 21
1532.7680790334291
 31
0.0
  0
LINE
  5
FE50
  8
YODOROGO
 10
28025.828774291349
 20
1667.749496429285
 30
0.0
 11
27977.604341291921
 21
1556.76807903343
 31
0.0
  0
LINE
  5
FE51
  8
YODOROGO
 10
27977.604341291921
 20
1667.749496429285
 30
0.0
 11
28025.828774291349
 21
1667.749496429285
 31
0.0
  0
LINE
  5
FE52
  8
YODOROGO
 10
28050.135520230899
 20
1655.5036372746561
 30
0.0
 11
28082.135520230921
 21
1655.5036372746561
 31
0.0
1001
AUTOCAD_POSTSCRIPT_FIGURE
1002
{
1000
PSFILL
1000
Grayscale
1000
Grayscale
1070
   100
1002
}
  0
LINE
  5
FE53
  8
YODOROGO
 10
28050.135520230899
 20
1631.5036372746561
 30
0.0
 11
28050.135520230899
 21
1655.5036372746561
 31
0.0
1001
AUTOCAD_POSTSCRIPT_FIGURE
1002
{
1000
PSFILL
1000
Grayscale
1000
Grayscale
1070
   100
1002
}
  0
LINE
  5
FE54
  8
YODOROGO
 10
28082.135520230921
 20
1631.5036372746561
 30
0.0
 11
28050.135520230899
 21
1631.5036372746561
 31
0.0
1001
AUTOCAD_POSTSCRIPT_FIGURE
1002
{
1000
PSFILL
1000
Grayscale
1000
Grayscale
1070
   100
1002
}
  0
LINE
  5
FE55
  8
YODOROGO
 10
28082.135520230921
 20
1499.749496429288
 30
0.0
 11
28082.135520230921
 21
1631.5036372746561
 31
0.0
1001
AUTOCAD_POSTSCRIPT_FIGURE
1002
{
1000
PSFILL
1000
Grayscale
1000
Grayscale
1070
   100
1002
}
  0
LINE
  5
FE56
  8
YODOROGO
 10
28050.135520230921
 20
1499.749496429288
 30
0.0
 11
28082.135520230921
 21
1499.749496429288
 31
0.0
1001
AUTOCAD_POSTSCRIPT_FIGURE
1002
{
1000
PSFILL
1000
Grayscale
1000
Grayscale
1070
   100
1002
}
  0
LINE
  5
FE57
  8
YODOROGO
 10
28050.135520230921
 20
1475.7494964292871
 30
0.0
 11
28050.135520230921
 21
1499.749496429288
 31
0.0
1001
AUTOCAD_POSTSCRIPT_FIGURE
1002
{
1000
PSFILL
1000
Grayscale
1000
Grayscale
1070
   100
1002
}
  0
LINE
  5
FE58
  8
YODOROGO
 10
28137.604341291921
 20
1475.7494964292871
 30
0.0
 11
28050.135520230921
 21
1475.7494964292871
 31
0.0
1001
AUTOCAD_POSTSCRIPT_FIGURE
1002
{
1000
PSFILL
1000
Grayscale
1000
Grayscale
1070
   100
1002
}
  0
LINE
  5
FE59
  8
YODOROGO
 10
28137.604341291921
 20
1499.749496429288
 30
0.0
 11
28137.604341291921
 21
1475.7494964292871
 31
0.0
1001
AUTOCAD_POSTSCRIPT_FIGURE
1002
{
1000
PSFILL
1000
Grayscale
1000
Grayscale
1070
   100
1002
}
  0
LINE
  5
FE5A
  8
YODOROGO
 10
28098.135520230931
 20
1499.749496429288
 30
0.0
 11
28137.604341291921
 21
1499.749496429288
 31
0.0
1001
AUTOCAD_POSTSCRIPT_FIGURE
1002
{
1000
PSFILL
1000
Grayscale
1000
Grayscale
1070
   100
1002
}
  0
LINE
  5
FE5B
  8
YODOROGO
 10
28098.135520230931
 20
1631.5036372746561
 30
0.0
 11
28098.135520230931
 21
1499.749496429288
 31
0.0
1001
AUTOCAD_POSTSCRIPT_FIGURE
1002
{
1000
PSFILL
1000
Grayscale
1000
Grayscale
1070
   100
1002
}
  0
LINE
  5
FE5C
  8
YODOROGO
 10
28137.604341291921
 20
1631.5036372746561
 30
0.0
 11
28098.135520230931
 21
1631.5036372746561
 31
0.0
1001
AUTOCAD_POSTSCRIPT_FIGURE
1002
{
1000
PSFILL
1000
Grayscale
1000
Grayscale
1070
   100
1002
}
  0
LINE
  5
FE5D
  8
YODOROGO
 10
28137.604341291921
 20
1655.5036372746561
 30
0.0
 11
28137.604341291921
 21
1631.5036372746561
 31
0.0
1001
AUTOCAD_POSTSCRIPT_FIGURE
1002
{
1000
PSFILL
1000
Grayscale
1000
Grayscale
1070
   100
1002
}
  0
LINE
  5
FE5E
  8
YODOROGO
 10
28098.135520230931
 20
1655.5036372746561
 30
0.0
 11
28137.604341291921
 21
1655.5036372746561
 31
0.0
1001
AUTOCAD_POSTSCRIPT_FIGURE
1002
{
1000
PSFILL
1000
Grayscale
1000
Grayscale
1070
   100
1002
}
  0
LINE
  5
FE5F
  8
YODOROGO
 10
28401.60434129191
 20
1667.749496429288
 30
0.0
 11
28345.604341291921
 21
1667.749496429288
 31
0.0
  0
LINE
  5
FE60
  8
YODOROGO
 10
28401.60434129191
 20
1611.749496429288
 30
0.0
 11
28401.60434129191
 21
1667.749496429288
 31
0.0
  0
LINE
  5
FE61
  8
YODOROGO
 10
28345.604341291921
 20
1667.749496429288
 30
0.0
 11
28345.604341291921
 21
1611.749496429288
 31
0.0
  0
ARC
  5
FE62
  8
YODOROGO
 10
28513.60434129191
 20
1507.749496429288
 30
0.0
 40
80.0
 50
180.0
 51
270.0
  0
ARC
  5
FE63
  8
YODOROGO
 10
28537.604341291921
 20
1563.7494964292871
 30
0.0
 40
40.0
 50
180.0
 51
270.0
  0
LINE
  5
FE64
  8
YODOROGO
 10
28561.604341291932
 20
1523.7494964292871
 30
0.0
 11
28537.604341291921
 21
1523.7494964292871
 31
0.0
  0
ARC
  5
FE65
  8
YODOROGO
 10
28561.604341291932
 20
1547.749496429285
 30
0.0
 40
23.999999999996358
 50
270.0
 51
0.0000000000054281
  0
LINE
  5
FE66
  8
YODOROGO
 10
27801.604341291921
 20
1890.786580793706
 30
0.0
 11
27777.604341291921
 21
1843.776747951672
 31
0.0
1001
AUTOCAD_POSTSCRIPT_FIGURE
1002
{
1000
PSFILL
1000
Grayscale
1000
Grayscale
1070
   100
1002
}
  0
LINE
  5
FE67
  8
YODOROGO
 10
27801.604341291921
 20
1747.749496429286
 30
0.0
 11
27801.604341291921
 21
1890.786580793706
 31
0.0
1001
AUTOCAD_POSTSCRIPT_FIGURE
1002
{
1000
PSFILL
1000
Grayscale
1000
Grayscale
1070
   100
1002
}
  0
LINE
  5
FE68
  8
YODOROGO
 10
27817.604341291921
 20
1747.749496429286
 30
0.0
 11
27801.604341291921
 21
1747.749496429286
 31
0.0
1001
AUTOCAD_POSTSCRIPT_FIGURE
1002
{
1000
PSFILL
1000
Grayscale
1000
Grayscale
1070
   100
1002
}
  0
LINE
  5
FE69
  8
YODOROGO
 10
27817.604341291921
 20
1893.7713320852661
 30
0.0
 11
27817.604341291921
 21
1747.749496429286
 31
0.0
1001
AUTOCAD_POSTSCRIPT_FIGURE
1002
{
1000
PSFILL
1000
Grayscale
1000
Grayscale
1070
   100
1002
}
  0
LINE
  5
FE6A
  8
YODOROGO
 10
27841.604341291921
 20
1867.6547582841361
 30
0.0
 11
27817.604341291921
 21
1893.7713320852661
 31
0.0
1001
AUTOCAD_POSTSCRIPT_FIGURE
1002
{
1000
PSFILL
1000
Grayscale
1000
Grayscale
1070
   100
1002
}
  0
LINE
  5
FE6B
  8
YODOROGO
 10
27841.604341291921
 20
1883.6547582841361
 30
0.0
 11
27841.604341291921
 21
1867.6547582841361
 31
0.0
1001
AUTOCAD_POSTSCRIPT_FIGURE
1002
{
1000
PSFILL
1000
Grayscale
1000
Grayscale
1070
   100
1002
}
  0
LINE
  5
FE6C
  8
YODOROGO
 10
27817.604341291921
 20
1917.7713320852649
 30
0.0
 11
27841.604341291921
 21
1883.6547582841361
 31
0.0
1001
AUTOCAD_POSTSCRIPT_FIGURE
1002
{
1000
PSFILL
1000
Grayscale
1000
Grayscale
1070
   100
1002
}
  0
LINE
  5
FE6D
  8
YODOROGO
 10
27817.604341291921
 20
1939.749496429288
 30
0.0
 11
27817.604341291921
 21
1917.7713320852649
 31
0.0
1001
AUTOCAD_POSTSCRIPT_FIGURE
1002
{
1000
PSFILL
1000
Grayscale
1000
Grayscale
1070
   100
1002
}
  0
LINE
  5
FE6E
  8
YODOROGO
 10
27889.604341291921
 20
1939.749496429288
 30
0.0
 11
27817.604341291921
 21
1939.749496429288
 31
0.0
1001
AUTOCAD_POSTSCRIPT_FIGURE
1002
{
1000
PSFILL
1000
Grayscale
1000
Grayscale
1070
   100
1002
}
  0
LINE
  5
FE6F
  8
YODOROGO
 10
27889.604341291921
 20
1900.5683489363
 30
0.0
 11
27889.604341291921
 21
1939.749496429288
 31
0.0
1001
AUTOCAD_POSTSCRIPT_FIGURE
1002
{
1000
PSFILL
1000
Grayscale
1000
Grayscale
1070
   100
1002
}
  0
LINE
  5
FE70
  8
YODOROGO
 10
27857.604341291921
 20
1900.5683489363
 30
0.0
 11
27889.604341291921
 21
1900.5683489363
 31
0.0
1001
AUTOCAD_POSTSCRIPT_FIGURE
1002
{
1000
PSFILL
1000
Grayscale
1000
Grayscale
1070
   100
1002
}
  0
LINE
  5
FE71
  8
YODOROGO
 10
27857.604341291921
 20
1884.568348936298
 30
0.0
 11
27857.604341291921
 21
1900.5683489363
 31
0.0
1001
AUTOCAD_POSTSCRIPT_FIGURE
1002
{
1000
PSFILL
1000
Grayscale
1000
Grayscale
1070
   100
1002
}
  0
LINE
  5
FE72
  8
YODOROGO
 10
27889.604341291921
 20
1884.568348936298
 30
0.0
 11
27857.604341291921
 21
1884.568348936298
 31
0.0
1001
AUTOCAD_POSTSCRIPT_FIGURE
1002
{
1000
PSFILL
1000
Grayscale
1000
Grayscale
1070
   100
1002
}
  0
LINE
  5
FE73
  8
YODOROGO
 10
27889.604341291921
 20
1879.6191779644371
 30
0.0
 11
27889.604341291921
 21
1884.568348936298
 31
0.0
1001
AUTOCAD_POSTSCRIPT_FIGURE
1002
{
1000
PSFILL
1000
Grayscale
1000
Grayscale
1070
   100
1002
}
  0
LINE
  5
FE74
  8
YODOROGO
 10
27849.604341291921
 20
1812.974981161417
 30
0.0
 11
27889.604341291921
 21
1879.6191779644371
 31
0.0
1001
AUTOCAD_POSTSCRIPT_FIGURE
1002
{
1000
PSFILL
1000
Grayscale
1000
Grayscale
1070
   100
1002
}
  0
LINE
  5
FE75
  8
YODOROGO
 10
27849.604341291921
 20
1796.9749811614161
 30
0.0
 11
27849.604341291921
 21
1812.974981161417
 31
0.0
1001
AUTOCAD_POSTSCRIPT_FIGURE
1002
{
1000
PSFILL
1000
Grayscale
1000
Grayscale
1070
   100
1002
}
  0
LINE
  5
FE76
  8
YODOROGO
 10
27889.604341291921
 20
1847.6191779644359
 30
0.0
 11
27849.604341291921
 21
1796.9749811614161
 31
0.0
1001
AUTOCAD_POSTSCRIPT_FIGURE
1002
{
1000
PSFILL
1000
Grayscale
1000
Grayscale
1070
   100
1002
}
  0
LINE
  5
FE77
  8
YODOROGO
 10
27889.604341291921
 20
1747.749496429286
 30
0.0
 11
27889.604341291921
 21
1847.6191779644359
 31
0.0
1001
AUTOCAD_POSTSCRIPT_FIGURE
1002
{
1000
PSFILL
1000
Grayscale
1000
Grayscale
1070
   100
1002
}
  0
LINE
  5
FE78
  8
YODOROGO
 10
27905.604341291921
 20
1747.749496429286
 30
0.0
 11
27889.604341291921
 21
1747.749496429286
 31
0.0
1001
AUTOCAD_POSTSCRIPT_FIGURE
1002
{
1000
PSFILL
1000
Grayscale
1000
Grayscale
1070
   100
1002
}
  0
LINE
  5
FE79
  8
YODOROGO
 10
27905.604341291921
 20
1849.409012158806
 30
0.0
 11
27905.604341291921
 21
1747.749496429286
 31
0.0
1001
AUTOCAD_POSTSCRIPT_FIGURE
1002
{
1000
PSFILL
1000
Grayscale
1000
Grayscale
1070
   100
1002
}
  0
LINE
  5
FE7A
  8
YODOROGO
 10
27937.604341291921
 20
1796.9749811614161
 30
0.0
 11
27905.604341291921
 21
1849.409012158806
 31
0.0
1001
AUTOCAD_POSTSCRIPT_FIGURE
1002
{
1000
PSFILL
1000
Grayscale
1000
Grayscale
1070
   100
1002
}
  0
LINE
  5
FE7B
  8
YODOROGO
 10
27937.604341291921
 20
1812.974981161417
 30
0.0
 11
27937.604341291921
 21
1796.9749811614161
 31
0.0
1001
AUTOCAD_POSTSCRIPT_FIGURE
1002
{
1000
PSFILL
1000
Grayscale
1000
Grayscale
1070
   100
1002
}
  0
LINE
  5
FE7C
  8
YODOROGO
 10
27905.604341291921
 20
1881.4090121588081
 30
0.0
 11
27937.604341291921
 21
1812.974981161417
 31
0.0
1001
AUTOCAD_POSTSCRIPT_FIGURE
1002
{
1000
PSFILL
1000
Grayscale
1000
Grayscale
1070
   100
1002
}
  0
LINE
  5
FE7D
  8
YODOROGO
 10
27905.604341291921
 20
1884.5683489363
 30
0.0
 11
27905.604341291921
 21
1881.4090121588081
 31
0.0
1001
AUTOCAD_POSTSCRIPT_FIGURE
1002
{
1000
PSFILL
1000
Grayscale
1000
Grayscale
1070
   100
1002
}
  0
LINE
  5
FE7E
  8
YODOROGO
 10
27937.604341291921
 20
1884.568348936298
 30
0.0
 11
27905.604341291921
 21
1884.5683489363
 31
0.0
1001
AUTOCAD_POSTSCRIPT_FIGURE
1002
{
1000
PSFILL
1000
Grayscale
1000
Grayscale
1070
   100
1002
}
  0
LINE
  5
FE7F
  8
YODOROGO
 10
27937.604341291921
 20
1900.5683489363
 30
0.0
 11
27937.604341291921
 21
1884.568348936298
 31
0.0
1001
AUTOCAD_POSTSCRIPT_FIGURE
1002
{
1000
PSFILL
1000
Grayscale
1000
Grayscale
1070
   100
1002
}
  0
LINE
  5
FE80
  8
YODOROGO
 10
27905.604341291921
 20
1900.5683489363
 30
0.0
 11
27937.604341291921
 21
1900.5683489363
 31
0.0
1001
AUTOCAD_POSTSCRIPT_FIGURE
1002
{
1000
PSFILL
1000
Grayscale
1000
Grayscale
1070
   100
1002
}
  0
LINE
  5
FE81
  8
YODOROGO
 10
27905.604341291921
 20
1939.749496429288
 30
0.0
 11
27905.604341291921
 21
1900.5683489363
 31
0.0
1001
AUTOCAD_POSTSCRIPT_FIGURE
1002
{
1000
PSFILL
1000
Grayscale
1000
Grayscale
1070
   100
1002
}
  0
LINE
  5
FE82
  8
YODOROGO
 10
27937.604341291921
 20
1939.749496429288
 30
0.0
 11
27905.604341291921
 21
1939.749496429288
 31
0.0
1001
AUTOCAD_POSTSCRIPT_FIGURE
1002
{
1000
PSFILL
1000
Grayscale
1000
Grayscale
1070
   100
1002
}
  0
LINE
  5
FE83
  8
YODOROGO
 10
27937.604341291921
 20
1955.7494964292871
 30
0.0
 11
27937.604341291921
 21
1939.749496429288
 31
0.0
1001
AUTOCAD_POSTSCRIPT_FIGURE
1002
{
1000
PSFILL
1000
Grayscale
1000
Grayscale
1070
   100
1002
}
  0
LINE
  5
FE84
  8
YODOROGO
 10
27905.604341291921
 20
1955.7494964292871
 30
0.0
 11
27937.604341291921
 21
1955.7494964292871
 31
0.0
1001
AUTOCAD_POSTSCRIPT_FIGURE
1002
{
1000
PSFILL
1000
Grayscale
1000
Grayscale
1070
   100
1002
}
  0
LINE
  5
FE85
  8
YODOROGO
 10
27905.604341291921
 20
1979.749496429288
 30
0.0
 11
27905.604341291921
 21
1955.7494964292871
 31
0.0
1001
AUTOCAD_POSTSCRIPT_FIGURE
1002
{
1000
PSFILL
1000
Grayscale
1000
Grayscale
1070
   100
1002
}
  0
LINE
  5
FE86
  8
YODOROGO
 10
27889.604341291921
 20
1979.749496429288
 30
0.0
 11
27905.604341291921
 21
1979.749496429288
 31
0.0
1001
AUTOCAD_POSTSCRIPT_FIGURE
1002
{
1000
PSFILL
1000
Grayscale
1000
Grayscale
1070
   100
1002
}
  0
LINE
  5
FE87
  8
YODOROGO
 10
27889.604341291921
 20
1955.7494964292871
 30
0.0
 11
27889.604341291921
 21
1979.749496429288
 31
0.0
1001
AUTOCAD_POSTSCRIPT_FIGURE
1002
{
1000
PSFILL
1000
Grayscale
1000
Grayscale
1070
   100
1002
}
  0
LINE
  5
FE88
  8
YODOROGO
 10
27865.604341291921
 20
1955.7494964292871
 30
0.0
 11
27889.604341291921
 21
1955.7494964292871
 31
0.0
1001
AUTOCAD_POSTSCRIPT_FIGURE
1002
{
1000
PSFILL
1000
Grayscale
1000
Grayscale
1070
   100
1002
}
  0
LINE
  5
FE89
  8
YODOROGO
 10
27865.604341291921
 20
1979.749496429288
 30
0.0
 11
27865.604341291921
 21
1955.7494964292871
 31
0.0
1001
AUTOCAD_POSTSCRIPT_FIGURE
1002
{
1000
PSFILL
1000
Grayscale
1000
Grayscale
1070
   100
1002
}
  0
LINE
  5
FE8A
  8
YODOROGO
 10
27849.604341291921
 20
1979.749496429288
 30
0.0
 11
27865.604341291921
 21
1979.749496429288
 31
0.0
1001
AUTOCAD_POSTSCRIPT_FIGURE
1002
{
1000
PSFILL
1000
Grayscale
1000
Grayscale
1070
   100
1002
}
  0
LINE
  5
FE8B
  8
YODOROGO
 10
27849.604341291921
 20
1955.7494964292871
 30
0.0
 11
27849.604341291921
 21
1979.749496429288
 31
0.0
1001
AUTOCAD_POSTSCRIPT_FIGURE
1002
{
1000
PSFILL
1000
Grayscale
1000
Grayscale
1070
   100
1002
}
  0
LINE
  5
FE8C
  8
YODOROGO
 10
27817.604341291921
 20
1955.7494964292871
 30
0.0
 11
27849.604341291921
 21
1955.7494964292871
 31
0.0
1001
AUTOCAD_POSTSCRIPT_FIGURE
1002
{
1000
PSFILL
1000
Grayscale
1000
Grayscale
1070
   100
1002
}
  0
LINE
  5
FE8D
  8
YODOROGO
 10
27817.604341291921
 20
1979.749496429288
 30
0.0
 11
27817.604341291921
 21
1955.7494964292871
 31
0.0
1001
AUTOCAD_POSTSCRIPT_FIGURE
1002
{
1000
PSFILL
1000
Grayscale
1000
Grayscale
1070
   100
1002
}
  0
LINE
  5
FE8E
  8
YODOROGO
 10
27801.604341291921
 20
1979.749496429288
 30
0.0
 11
27817.604341291921
 21
1979.749496429288
 31
0.0
1001
AUTOCAD_POSTSCRIPT_FIGURE
1002
{
1000
PSFILL
1000
Grayscale
1000
Grayscale
1070
   100
1002
}
  0
LINE
  5
FE8F
  8
YODOROGO
 10
27801.604341291921
 20
1955.7494964292871
 30
0.0
 11
27801.604341291921
 21
1979.749496429288
 31
0.0
1001
AUTOCAD_POSTSCRIPT_FIGURE
1002
{
1000
PSFILL
1000
Grayscale
1000
Grayscale
1070
   100
1002
}
  0
LINE
  5
FE90
  8
YODOROGO
 10
27777.604341291921
 20
1955.7494964292871
 30
0.0
 11
27801.604341291921
 21
1955.7494964292871
 31
0.0
1001
AUTOCAD_POSTSCRIPT_FIGURE
1002
{
1000
PSFILL
1000
Grayscale
1000
Grayscale
1070
   100
1002
}
  0
LINE
  5
FE91
  8
YODOROGO
 10
27777.604341291921
 20
1939.749496429288
 30
0.0
 11
27777.604341291921
 21
1955.7494964292871
 31
0.0
1001
AUTOCAD_POSTSCRIPT_FIGURE
1002
{
1000
PSFILL
1000
Grayscale
1000
Grayscale
1070
   100
1002
}
  0
LINE
  5
FE92
  8
YODOROGO
 10
27801.604341291921
 20
1939.749496429288
 30
0.0
 11
27777.604341291921
 21
1939.749496429288
 31
0.0
1001
AUTOCAD_POSTSCRIPT_FIGURE
1002
{
1000
PSFILL
1000
Grayscale
1000
Grayscale
1070
   100
1002
}
  0
LINE
  5
FE93
  8
YODOROGO
 10
27801.604341291921
 20
1914.7865807937051
 30
0.0
 11
27801.604341291921
 21
1939.749496429288
 31
0.0
1001
AUTOCAD_POSTSCRIPT_FIGURE
1002
{
1000
PSFILL
1000
Grayscale
1000
Grayscale
1070
   100
1002
}
  0
LINE
  5
FE94
  8
YODOROGO
 10
27777.604341291921
 20
1859.776747951671
 30
0.0
 11
27801.604341291921
 21
1914.7865807937051
 31
0.0
1001
AUTOCAD_POSTSCRIPT_FIGURE
1002
{
1000
PSFILL
1000
Grayscale
1000
Grayscale
1070
   100
1002
}
  0
LINE
  5
FE95
  8
YODOROGO
 10
27777.604341291921
 20
1843.776747951672
 30
0.0
 11
27777.604341291921
 21
1859.776747951671
 31
0.0
1001
AUTOCAD_POSTSCRIPT_FIGURE
1002
{
1000
PSFILL
1000
Grayscale
1000
Grayscale
1070
   100
1002
}
  0
LINE
  5
FE96
  8
YODOROGO
 10
28257.604341291921
 20
1867.7494964292871
 30
0.0
 11
28401.60434129191
 21
1824.877625640306
 31
0.0
1001
AUTOCAD_POSTSCRIPT_FIGURE
1002
{
1000
PSFILL
1000
Grayscale
1000
Grayscale
1070
   100
1002
}
  0
LINE
  5
FE97
  8
YODOROGO
 10
28401.60434129191
 20
1752.877625640306
 30
0.0
 11
28257.604341291921
 21
1795.7494964292871
 31
0.0
1001
AUTOCAD_POSTSCRIPT_FIGURE
1002
{
1000
PSFILL
1000
Grayscale
1000
Grayscale
1070
   100
1002
}
  0
LINE
  5
FE98
  8
YODOROGO
 10
28401.60434129191
 20
1984.877625640306
 30
0.0
 11
28257.604341291921
 21
2027.749496429288
 31
0.0
1001
AUTOCAD_POSTSCRIPT_FIGURE
1002
{
1000
PSFILL
1000
Grayscale
1000
Grayscale
1070
   100
1002
}
  0
LINE
  5
FE99
  8
YODOROGO
 10
28257.604341291921
 20
1959.749496429288
 30
0.0
 11
28401.60434129191
 21
1916.8776256403071
 31
0.0
1001
AUTOCAD_POSTSCRIPT_FIGURE
1002
{
1000
PSFILL
1000
Grayscale
1000
Grayscale
1070
   100
1002
}
  0
LINE
  5
FE9A
  8
YODOROGO
 10
28257.604341291921
 20
1795.7494964292871
 30
0.0
 11
28257.604341291921
 21
1867.7494964292871
 31
0.0
1001
AUTOCAD_POSTSCRIPT_FIGURE
1002
{
1000
PSFILL
1000
Grayscale
1000
Grayscale
1070
   100
1002
}
  0
LINE
  5
FE9B
  8
YODOROGO
 10
28257.604341291921
 20
2027.749496429288
 30
0.0
 11
28257.604341291921
 21
1959.749496429288
 31
0.0
1001
AUTOCAD_POSTSCRIPT_FIGURE
1002
{
1000
PSFILL
1000
Grayscale
1000
Grayscale
1070
   100
1002
}
  0
LINE
  5
FE9C
  8
YODOROGO
 10
28080.236320206739
 20
1939.749496429288
 30
0.0
 11
28129.60434129191
 21
1747.749496429286
 31
0.0
1001
AUTOCAD_POSTSCRIPT_FIGURE
1002
{
1000
PSFILL
1000
Grayscale
1000
Grayscale
1070
   100
1002
}
  0
LINE
  5
FE9D
  8
YODOROGO
 10
27977.604341291921
 20
1939.749496429288
 30
0.0
 11
28080.236320206739
 21
1939.749496429288
 31
0.0
1001
AUTOCAD_POSTSCRIPT_FIGURE
1002
{
1000
PSFILL
1000
Grayscale
1000
Grayscale
1070
   100
1002
}
  0
LINE
  5
FE9E
  8
YODOROGO
 10
27977.604341291921
 20
1955.7494964292871
 30
0.0
 11
27977.604341291921
 21
1939.749496429288
 31
0.0
1001
AUTOCAD_POSTSCRIPT_FIGURE
1002
{
1000
PSFILL
1000
Grayscale
1000
Grayscale
1070
   100
1002
}
  0
LINE
  5
FE9F
  8
YODOROGO
 10
28076.60687851991
 20
1955.7494964292871
 30
0.0
 11
27977.604341291921
 21
1955.7494964292871
 31
0.0
1001
AUTOCAD_POSTSCRIPT_FIGURE
1002
{
1000
PSFILL
1000
Grayscale
1000
Grayscale
1070
   100
1002
}
  0
LINE
  5
FEA0
  8
YODOROGO
 10
28071.162715989711
 20
1979.749496429288
 30
0.0
 11
28076.60687851991
 21
1955.7494964292871
 31
0.0
1001
AUTOCAD_POSTSCRIPT_FIGURE
1002
{
1000
PSFILL
1000
Grayscale
1000
Grayscale
1070
   100
1002
}
  0
LINE
  5
FEA1
  8
YODOROGO
 10
28091.162715989711
 20
1979.749496429288
 30
0.0
 11
28071.162715989711
 21
1979.749496429288
 31
0.0
1001
AUTOCAD_POSTSCRIPT_FIGURE
1002
{
1000
PSFILL
1000
Grayscale
1000
Grayscale
1070
   100
1002
}
  0
LINE
  5
FEA2
  8
YODOROGO
 10
28095.806878519939
 20
1955.7494964292871
 30
0.0
 11
28091.162715989711
 21
1979.749496429288
 31
0.0
1001
AUTOCAD_POSTSCRIPT_FIGURE
1002
{
1000
PSFILL
1000
Grayscale
1000
Grayscale
1070
   100
1002
}
  0
LINE
  5
FEA3
  8
YODOROGO
 10
28121.604341291921
 20
1955.7494964292871
 30
0.0
 11
28095.806878519939
 21
1955.7494964292871
 31
0.0
1001
AUTOCAD_POSTSCRIPT_FIGURE
1002
{
1000
PSFILL
1000
Grayscale
1000
Grayscale
1070
   100
1002
}
  0
LINE
  5
FEA4
  8
YODOROGO
 10
28121.604341291921
 20
1979.749496429288
 30
0.0
 11
28121.604341291921
 21
1955.7494964292871
 31
0.0
1001
AUTOCAD_POSTSCRIPT_FIGURE
1002
{
1000
PSFILL
1000
Grayscale
1000
Grayscale
1070
   100
1002
}
  0
LINE
  5
FEA5
  8
YODOROGO
 10
28137.604341291921
 20
1979.749496429288
 30
0.0
 11
28121.604341291921
 21
1979.749496429288
 31
0.0
1001
AUTOCAD_POSTSCRIPT_FIGURE
1002
{
1000
PSFILL
1000
Grayscale
1000
Grayscale
1070
   100
1002
}
  0
LINE
  5
FEA6
  8
YODOROGO
 10
28137.604341291921
 20
1955.7494964292871
 30
0.0
 11
28137.604341291921
 21
1979.749496429288
 31
0.0
1001
AUTOCAD_POSTSCRIPT_FIGURE
1002
{
1000
PSFILL
1000
Grayscale
1000
Grayscale
1070
   100
1002
}
  0
LINE
  5
FEA7
  8
YODOROGO
 10
28137.604341291921
 20
1939.749496429288
 30
0.0
 11
28137.604341291921
 21
1955.7494964292871
 31
0.0
1001
AUTOCAD_POSTSCRIPT_FIGURE
1002
{
1000
PSFILL
1000
Grayscale
1000
Grayscale
1070
   100
1002
}
  0
LINE
  5
FEA8
  8
YODOROGO
 10
28098.902986873411
 20
1939.749496429288
 30
0.0
 11
28137.604341291921
 21
1939.749496429288
 31
0.0
1001
AUTOCAD_POSTSCRIPT_FIGURE
1002
{
1000
PSFILL
1000
Grayscale
1000
Grayscale
1070
   100
1002
}
  0
LINE
  5
FEA9
  8
YODOROGO
 10
28137.604341291921
 20
1747.749496429286
 30
0.0
 11
28098.902986873411
 21
1939.749496429288
 31
0.0
1001
AUTOCAD_POSTSCRIPT_FIGURE
1002
{
1000
PSFILL
1000
Grayscale
1000
Grayscale
1070
   100
1002
}
  0
LINE
  5
FEAA
  8
YODOROGO
 10
28129.60434129191
 20
1747.749496429286
 30
0.0
 11
28137.604341291921
 21
1747.749496429286
 31
0.0
1001
AUTOCAD_POSTSCRIPT_FIGURE
1002
{
1000
PSFILL
1000
Grayscale
1000
Grayscale
1070
   100
1002
}
  0
LINE
  5
FEAB
  8
YODOROGO
 10
28078.06921993379
 20
1775.7407762987939
 30
0.0
 11
27977.604341291921
 21
1747.749496429286
 31
0.0
  0
LINE
  5
FEAC
  8
YODOROGO
 10
28078.06921993379
 20
1798.6689795290731
 30
0.0
 11
28078.06921993379
 21
1775.7407762987939
 31
0.0
  0
LINE
  5
FEAD
  8
YODOROGO
 10
28033.83678061287
 20
1786.816933133767
 30
0.0
 11
28078.06921993379
 21
1798.6689795290731
 31
0.0
  0
LINE
  5
FEAE
  8
YODOROGO
 10
28033.83678061287
 20
1872.5683489362989
 30
0.0
 11
28033.83678061287
 21
1786.816933133767
 31
0.0
  0
LINE
  5
FEAF
  8
YODOROGO
 10
28078.06921993379
 20
1872.5683489362989
 30
0.0
 11
28033.83678061287
 21
1872.5683489362989
 31
0.0
  0
LINE
  5
FEB0
  8
YODOROGO
 10
28078.06921993379
 20
1892.568348936298
 30
0.0
 11
28078.06921993379
 21
1872.5683489362989
 31
0.0
  0
LINE
  5
FEB1
  8
YODOROGO
 10
27977.604341291921
 20
1892.568348936298
 30
0.0
 11
28078.06921993379
 21
1892.568348936298
 31
0.0
  0
LINE
  5
FEB2
  8
YODOROGO
 10
27977.604341291921
 20
1872.5683489362989
 30
0.0
 11
27977.604341291921
 21
1892.568348936298
 31
0.0
  0
LINE
  5
FEB3
  8
YODOROGO
 10
28021.836780612852
 20
1872.5683489362989
 30
0.0
 11
27977.604341291921
 21
1872.5683489362989
 31
0.0
  0
LINE
  5
FEB4
  8
YODOROGO
 10
28021.836780612852
 20
1784.673339594317
 30
0.0
 11
28021.836780612852
 21
1872.5683489362989
 31
0.0
  0
LINE
  5
FEB5
  8
YODOROGO
 10
27977.604341291921
 20
1771.749496429286
 30
0.0
 11
28021.836780612852
 21
1784.673339594317
 31
0.0
  0
LINE
  5
FEB6
  8
YODOROGO
 10
27977.604341291921
 20
1747.749496429286
 30
0.0
 11
27977.604341291921
 21
1771.749496429286
 31
0.0
  0
LINE
  5
FEB7
  8
YODOROGO
 10
28001.604341291921
 20
1707.749496429288
 30
0.0
 11
28001.604341291921
 21
1683.7494964292871
 31
0.0
  0
LINE
  5
FEB8
  8
YODOROGO
 10
28017.604341291921
 20
1707.749496429288
 30
0.0
 11
28001.604341291921
 21
1707.749496429288
 31
0.0
  0
LINE
  5
FEB9
  8
YODOROGO
 10
28017.604341291921
 20
1683.7494964292871
 30
0.0
 11
28017.604341291921
 21
1707.749496429288
 31
0.0
  0
LINE
  5
FEBA
  8
YODOROGO
 10
28040.913204016892
 20
1683.7494964292871
 30
0.0
 11
28017.604341291921
 21
1683.7494964292871
 31
0.0
  0
LINE
  5
FEBB
  8
YODOROGO
 10
28001.604341291921
 20
1683.7494964292871
 30
0.0
 11
27977.604341291921
 21
1683.7494964292871
 31
0.0
  0
LINE
  5
FEBC
  8
YODOROGO
 10
28082.135520230921
 20
1707.749496429288
 30
0.0
 11
28098.135520230931
 21
1707.749496429288
 31
0.0
1001
AUTOCAD_POSTSCRIPT_FIGURE
1002
{
1000
PSFILL
1000
Grayscale
1000
Grayscale
1070
   100
1002
}
  0
LINE
  5
FEBD
  8
YODOROGO
 10
28401.60434129191
 20
1824.877625640306
 30
0.0
 11
28401.60434129191
 21
1752.877625640306
 31
0.0
1001
AUTOCAD_POSTSCRIPT_FIGURE
1002
{
1000
PSFILL
1000
Grayscale
1000
Grayscale
1070
   100
1002
}
  0
LINE
  5
FEBE
  8
YODOROGO
 10
28401.60434129191
 20
1916.8776256403071
 30
0.0
 11
28401.60434129191
 21
1984.877625640306
 31
0.0
1001
AUTOCAD_POSTSCRIPT_FIGURE
1002
{
1000
PSFILL
1000
Grayscale
1000
Grayscale
1070
   100
1002
}
  0
LINE
  5
FEBF
  8
YODOROGO
 10
28433.60434129191
 20
1819.7494964292871
 30
0.0
 11
28433.60434129191
 21
1747.74949642929
 31
0.0
  0
LINE
  5
FEC0
  8
YODOROGO
 10
28497.60434129191
 20
1707.749496429288
 30
0.0
 11
28433.60434129191
 21
1707.749496429288
 31
0.0
  0
LINE
  5
FEC1
  8
YODOROGO
 10
28433.60434129191
 20
1747.74949642929
 30
0.0
 11
28585.604341291921
 21
1747.74949642929
 31
0.0
  0
LINE
  5
FEC2
  8
YODOROGO
 10
28497.60434129191
 20
1867.7494964292871
 30
0.0
 11
28433.60434129191
 21
1867.7494964292871
 31
0.0
  0
LINE
  5
FEC3
  8
YODOROGO
 10
28497.60434129191
 20
1923.7494964292871
 30
0.0
 11
28497.60434129191
 21
1867.7494964292871
 31
0.0
  0
LINE
  5
FEC4
  8
YODOROGO
 10
28585.604341291921
 20
1987.7494964292871
 30
0.0
 11
28585.604341291921
 21
2027.749496429288
 31
0.0
  0
LINE
  5
FEC5
  8
YODOROGO
 10
28433.60434129191
 20
1987.7494964292871
 30
0.0
 11
28585.604341291921
 21
1987.7494964292871
 31
0.0
  0
LINE
  5
FEC6
  8
YODOROGO
 10
28433.60434129191
 20
1867.7494964292871
 30
0.0
 11
28433.60434129191
 21
1987.7494964292871
 31
0.0
  0
LINE
  5
FEC7
  8
YODOROGO
 10
29001.60434129191
 20
2027.749496429288
 30
0.0
 11
29001.60434129191
 21
1619.749496429288
 31
0.0
  0
LINE
  5
FEC8
  8
YODOROGO
 10
29073.604341291921
 20
1579.749496429288
 30
0.0
 11
29073.604341291921
 21
2027.749496429288
 31
0.0
  0
LINE
  5
FEC9
  8
YODOROGO
 10
29261.604341291921
 20
1491.749496429286
 30
0.0
 11
29261.604341291921
 21
2007.749496429288
 31
0.0
  0
LINE
  5
FECA
  8
YODOROGO
 10
29197.604341291921
 20
2007.749496429288
 30
0.0
 11
29197.604341291921
 21
1491.749496429286
 31
0.0
  0
LINE
  5
FECB
  8
YODOROGO
 10
29385.604341291921
 20
2027.749496429288
 30
0.0
 11
29385.604341291921
 21
1427.749496429288
 31
0.0
  0
LINE
  5
FECC
  8
YODOROGO
 10
29457.604341291921
 20
1427.749496429288
 30
0.0
 11
29457.604341291921
 21
2027.749496429288
 31
0.0
  0
LINE
  5
FECD
  8
YODOROGO
 10
28657.604341291921
 20
1667.749496429288
 30
0.0
 11
28657.604341291921
 21
1747.74949642929
 31
0.0
  0
LINE
  5
FECE
  8
YODOROGO
 10
29885.604341291921
 20
1707.749496429288
 30
0.0
 11
29885.604341291921
 21
1667.749496429288
 31
0.0
  0
LINE
  5
FECF
  8
YODOROGO
 10
29885.604341291921
 20
1707.749496429288
 30
0.0
 11
29885.604341291921
 21
1667.749496429288
 31
0.0
  0
ARC
  5
FED0
  8
YODOROGO
 10
28906.911576186842
 20
1618.217864442272
 30
0.0
 40
94.705151178741644
 50
274.05244162907098
 51
0.9266642149310712
  0
ARC
  5
FED1
  8
YODOROGO
 10
28909.186170719819
 20
1592.61072861044
 30
0.0
 40
164.92042356085511
 50
271.5351210653775
 51
355.52727750585052
  0
LINE
  5
FED2
  8
YODOROGO
 10
28913.604341291921
 20
1523.7494964292871
 30
0.0
 11
28913.604341291921
 21
1427.749496429288
 31
0.0
  0
LINE
  5
FED3
  8
YODOROGO
 10
28793.60434129191
 20
1667.749496429288
 30
0.0
 11
28657.604341291921
 21
1667.749496429288
 31
0.0
  0
LINE
  5
FED4
  8
YODOROGO
 10
28793.60434129191
 20
1603.7494964292871
 30
0.0
 11
28793.60434129191
 21
1667.749496429288
 31
0.0
  0
LINE
  5
FED5
  8
YODOROGO
 10
28657.604341291921
 20
1603.7494964292871
 30
0.0
 11
28793.60434129191
 21
1603.7494964292871
 31
0.0
  0
LINE
  5
FED6
  8
YODOROGO
 10
28657.604341291921
 20
1523.7494964292871
 30
0.0
 11
28657.604341291921
 21
1603.7494964292871
 31
0.0
  0
LINE
  5
FED7
  8
YODOROGO
 10
28793.60434129191
 20
1523.7494964292871
 30
0.0
 11
28657.604341291921
 21
1523.7494964292871
 31
0.0
  0
LINE
  5
FED8
  8
YODOROGO
 10
28793.60434129191
 20
1427.749496429288
 30
0.0
 11
28793.60434129191
 21
1523.7494964292871
 31
0.0
  0
LINE
  5
FED9
  8
YODOROGO
 10
29197.604341291921
 20
1491.749496429286
 30
0.0
 11
29261.604341291921
 21
1491.749496429286
 31
0.0
  0
LINE
  5
FEDA
  8
YODOROGO
 10
29385.604341291921
 20
1427.749496429288
 30
0.0
 11
29457.604341291921
 21
1427.749496429288
 31
0.0
  0
LINE
  5
FEDB
  8
YODOROGO
 10
29737.604341291921
 20
1528.4414521705639
 30
0.0
 11
29737.604341291921
 21
1427.749496429288
 31
0.0
  0
LINE
  5
FEDC
  8
YODOROGO
 10
29617.604341291921
 20
1427.749496429288
 30
0.0
 11
29737.604341291921
 21
1528.4414521705639
 31
0.0
  0
LINE
  5
FEDD
  8
YODOROGO
 10
29617.604341291921
 20
1547.749496429288
 30
0.0
 11
29617.604341291921
 21
1427.749496429288
 31
0.0
  0
LINE
  5
FEDE
  8
YODOROGO
 10
29712.94462869945
 20
1627.749496429288
 30
0.0
 11
29617.604341291921
 21
1547.749496429288
 31
0.0
  0
LINE
  5
FEDF
  8
YODOROGO
 10
29617.604341291921
 20
1627.749496429288
 30
0.0
 11
29712.94462869945
 21
1627.749496429288
 31
0.0
  0
LINE
  5
FEE0
  8
YODOROGO
 10
29617.604341291921
 20
1667.749496429288
 30
0.0
 11
29617.604341291921
 21
1627.749496429288
 31
0.0
  0
LINE
  5
FEE1
  8
YODOROGO
 10
29885.604341291921
 20
1667.749496429288
 30
0.0
 11
29617.604341291921
 21
1667.749496429288
 31
0.0
  0
LINE
  5
FEE2
  8
YODOROGO
 10
29917.604341291921
 20
1627.749496429288
 30
0.0
 11
29777.604341291921
 21
1627.749496429288
 31
0.0
  0
LINE
  5
FEE3
  8
YODOROGO
 10
29777.604341291921
 20
1562.0054374176559
 30
0.0
 11
29771.409872985321
 21
1556.807661346234
 31
0.0
  0
LINE
  5
FEE4
  8
YODOROGO
 10
29777.604341291921
 20
1627.749496429288
 30
0.0
 11
29777.604341291921
 21
1562.0054374176559
 31
0.0
  0
LINE
  5
FEE5
  8
YODOROGO
 10
29737.604341291921
 20
1528.4414521705639
 30
0.0
 11
29737.604341291921
 21
1427.749496429288
 31
0.0
  0
LINE
  5
FEE6
  8
YODOROGO
 10
29617.604341291921
 20
1427.749496429288
 30
0.0
 11
29737.604341291921
 21
1528.4414521705639
 31
0.0
  0
LINE
  5
FEE7
  8
YODOROGO
 10
29617.604341291921
 20
1547.749496429288
 30
0.0
 11
29617.604341291921
 21
1427.749496429288
 31
0.0
  0
LINE
  5
FEE8
  8
YODOROGO
 10
29712.94462869945
 20
1627.749496429288
 30
0.0
 11
29617.604341291921
 21
1547.749496429288
 31
0.0
  0
LINE
  5
FEE9
  8
YODOROGO
 10
29617.604341291921
 20
1627.749496429288
 30
0.0
 11
29712.94462869945
 21
1627.749496429288
 31
0.0
  0
LINE
  5
FEEA
  8
YODOROGO
 10
29617.604341291921
 20
1667.749496429288
 30
0.0
 11
29617.604341291921
 21
1627.749496429288
 31
0.0
  0
LINE
  5
FEEB
  8
YODOROGO
 10
29885.604341291921
 20
1667.749496429288
 30
0.0
 11
29617.604341291921
 21
1667.749496429288
 31
0.0
  0
LINE
  5
FEEC
  8
YODOROGO
 10
28793.60434129191
 20
1747.74949642929
 30
0.0
 11
28793.60434129191
 21
1819.7494964292871
 31
0.0
  0
LINE
  5
FEED
  8
YODOROGO
 10
28657.604341291921
 20
1747.74949642929
 30
0.0
 11
28793.60434129191
 21
1747.74949642929
 31
0.0
  0
LINE
  5
FEEE
  8
YODOROGO
 10
28729.604341291921
 20
1867.7494964292871
 30
0.0
 11
28729.604341291921
 21
1923.7494964292871
 31
0.0
  0
LINE
  5
FEEF
  8
YODOROGO
 10
28793.60434129191
 20
1867.7494964292871
 30
0.0
 11
28729.604341291921
 21
1867.7494964292871
 31
0.0
  0
LINE
  5
FEF0
  8
YODOROGO
 10
28793.60434129191
 20
1947.749496429288
 30
0.0
 11
28793.60434129191
 21
1867.7494964292871
 31
0.0
  0
ARC
  5
FEF1
  8
YODOROGO
 10
28753.60434129191
 20
1947.749496429288
 30
0.0
 40
40.0
 50
0.0
 51
90.0
  0
LINE
  5
FEF2
  8
YODOROGO
 10
28657.604341291921
 20
1987.7494964292871
 30
0.0
 11
28753.60434129191
 21
1987.7494964292871
 31
0.0
  0
LINE
  5
FEF3
  8
YODOROGO
 10
28657.604341291921
 20
2027.749496429288
 30
0.0
 11
28657.604341291921
 21
1987.7494964292871
 31
0.0
  0
LINE
  5
FEF4
  8
YODOROGO
 10
29073.604341291921
 20
2027.749496429288
 30
0.0
 11
29001.60434129191
 21
2027.749496429288
 31
0.0
  0
LINE
  5
FEF5
  8
YODOROGO
 10
29261.604341291921
 20
2007.749496429288
 30
0.0
 11
29197.604341291921
 21
2007.749496429288
 31
0.0
  0
LINE
  5
FEF6
  8
YODOROGO
 10
29457.604341291921
 20
2027.749496429288
 30
0.0
 11
29385.604341291921
 21
2027.749496429288
 31
0.0
  0
LINE
  5
FEF7
  8
YODOROGO
 10
29673.604341291921
 20
1707.749496429288
 30
0.0
 11
29673.604341291921
 21
1771.7494964292871
 31
0.0
1001
AUTOCAD_POSTSCRIPT_FIGURE
1002
{
1000
PSFILL
1000
Grayscale
1000
Grayscale
1070
    25
1002
}
  0
LINE
  5
FEF8
  8
YODOROGO
 10
29617.604341291921
 20
1707.749496429288
 30
0.0
 11
29673.604341291921
 21
1707.749496429288
 31
0.0
1001
AUTOCAD_POSTSCRIPT_FIGURE
1002
{
1000
PSFILL
1000
Grayscale
1000
Grayscale
1070
    25
1002
}
  0
LINE
  5
FEF9
  8
YODOROGO
 10
29617.604341291921
 20
1819.7494964292871
 30
0.0
 11
29617.604341291921
 21
1707.749496429288
 31
0.0
1001
AUTOCAD_POSTSCRIPT_FIGURE
1002
{
1000
PSFILL
1000
Grayscale
1000
Grayscale
1070
    25
1002
}
  0
LINE
  5
FEFA
  8
YODOROGO
 10
29765.604341291921
 20
1819.7494964292871
 30
0.0
 11
29617.604341291921
 21
1819.7494964292871
 31
0.0
1001
AUTOCAD_POSTSCRIPT_FIGURE
1002
{
1000
PSFILL
1000
Grayscale
1000
Grayscale
1070
    25
1002
}
  0
LINE
  5
FEFB
  8
YODOROGO
 10
29765.604341291921
 20
1859.749496429288
 30
0.0
 11
29765.604341291921
 21
1819.7494964292871
 31
0.0
1001
AUTOCAD_POSTSCRIPT_FIGURE
1002
{
1000
PSFILL
1000
Grayscale
1000
Grayscale
1070
    25
1002
}
  0
LINE
  5
FEFC
  8
YODOROGO
 10
29617.604341291921
 20
1859.749496429288
 30
0.0
 11
29765.604341291921
 21
1859.749496429288
 31
0.0
1001
AUTOCAD_POSTSCRIPT_FIGURE
1002
{
1000
PSFILL
1000
Grayscale
1000
Grayscale
1070
    25
1002
}
  0
LINE
  5
FEFD
  8
YODOROGO
 10
29617.604341291921
 20
1907.7494964292871
 30
0.0
 11
29617.604341291921
 21
1859.749496429288
 31
0.0
1001
AUTOCAD_POSTSCRIPT_FIGURE
1002
{
1000
PSFILL
1000
Grayscale
1000
Grayscale
1070
    25
1002
}
  0
LINE
  5
FEFE
  8
YODOROGO
 10
29765.604341291921
 20
1907.7494964292871
 30
0.0
 11
29617.604341291921
 21
1907.7494964292871
 31
0.0
1001
AUTOCAD_POSTSCRIPT_FIGURE
1002
{
1000
PSFILL
1000
Grayscale
1000
Grayscale
1070
    25
1002
}
  0
LINE
  5
FEFF
  8
YODOROGO
 10
29765.604341291921
 20
1947.749496429288
 30
0.0
 11
29765.604341291921
 21
1907.7494964292871
 31
0.0
1001
AUTOCAD_POSTSCRIPT_FIGURE
1002
{
1000
PSFILL
1000
Grayscale
1000
Grayscale
1070
    25
1002
}
  0
LINE
  5
FF00
  8
YODOROGO
 10
29617.604341291921
 20
1947.749496429288
 30
0.0
 11
29765.604341291921
 21
1947.749496429288
 31
0.0
1001
AUTOCAD_POSTSCRIPT_FIGURE
1002
{
1000
PSFILL
1000
Grayscale
1000
Grayscale
1070
    25
1002
}
  0
LINE
  5
FF01
  8
YODOROGO
 10
29617.604341291921
 20
2027.749496429288
 30
0.0
 11
29617.604341291921
 21
1947.749496429288
 31
0.0
1001
AUTOCAD_POSTSCRIPT_FIGURE
1002
{
1000
PSFILL
1000
Grayscale
1000
Grayscale
1070
    25
1002
}
  0
LINE
  5
FF02
  8
YODOROGO
 10
29665.604341291921
 20
2027.749496429288
 30
0.0
 11
29617.604341291921
 21
2027.749496429288
 31
0.0
1001
AUTOCAD_POSTSCRIPT_FIGURE
1002
{
1000
PSFILL
1000
Grayscale
1000
Grayscale
1070
    25
1002
}
  0
LINE
  5
FF03
  8
YODOROGO
 10
29665.604341291921
 20
1995.7494964292871
 30
0.0
 11
29665.604341291921
 21
2027.749496429288
 31
0.0
1001
AUTOCAD_POSTSCRIPT_FIGURE
1002
{
1000
PSFILL
1000
Grayscale
1000
Grayscale
1070
    25
1002
}
  0
LINE
  5
FF04
  8
YODOROGO
 10
29765.604341291921
 20
1995.7494964292871
 30
0.0
 11
29665.604341291921
 21
1995.7494964292871
 31
0.0
1001
AUTOCAD_POSTSCRIPT_FIGURE
1002
{
1000
PSFILL
1000
Grayscale
1000
Grayscale
1070
    25
1002
}
  0
LINE
  5
FF05
  8
YODOROGO
 10
29765.604341291921
 20
2027.749496429288
 30
0.0
 11
29765.604341291921
 21
1995.7494964292871
 31
0.0
1001
AUTOCAD_POSTSCRIPT_FIGURE
1002
{
1000
PSFILL
1000
Grayscale
1000
Grayscale
1070
    25
1002
}
  0
LINE
  5
FF06
  8
YODOROGO
 10
29829.604341291921
 20
2027.749496429288
 30
0.0
 11
29765.604341291921
 21
2027.749496429288
 31
0.0
1001
AUTOCAD_POSTSCRIPT_FIGURE
1002
{
1000
PSFILL
1000
Grayscale
1000
Grayscale
1070
    25
1002
}
  0
LINE
  5
FF07
  8
YODOROGO
 10
29829.604341291921
 20
1995.7494964292871
 30
0.0
 11
29829.604341291921
 21
2027.749496429288
 31
0.0
1001
AUTOCAD_POSTSCRIPT_FIGURE
1002
{
1000
PSFILL
1000
Grayscale
1000
Grayscale
1070
    25
1002
}
  0
LINE
  5
FF08
  8
YODOROGO
 10
29829.604341291921
 20
1907.7494964292871
 30
0.0
 11
29829.604341291921
 21
1947.749496429288
 31
0.0
1001
AUTOCAD_POSTSCRIPT_FIGURE
1002
{
1000
PSFILL
1000
Grayscale
1000
Grayscale
1070
    25
1002
}
  0
LINE
  5
FF09
  8
YODOROGO
 10
29829.604341291921
 20
1819.7494964292871
 30
0.0
 11
29829.604341291921
 21
1859.749496429288
 31
0.0
1001
AUTOCAD_POSTSCRIPT_FIGURE
1002
{
1000
PSFILL
1000
Grayscale
1000
Grayscale
1070
    25
1002
}
  0
LINE
  5
FF0A
  8
YODOROGO
 10
29921.60434129191
 20
1771.7494964292871
 30
0.0
 11
29921.60434129191
 21
1707.749496429288
 31
0.0
1001
AUTOCAD_POSTSCRIPT_FIGURE
1002
{
1000
PSFILL
1000
Grayscale
1000
Grayscale
1070
    25
1002
}
  0
LINE
  5
FF0B
  8
YODOROGO
 10
29829.604341291921
 20
1771.7494964292871
 30
0.0
 11
29921.60434129191
 21
1771.7494964292871
 31
0.0
1001
AUTOCAD_POSTSCRIPT_FIGURE
1002
{
1000
PSFILL
1000
Grayscale
1000
Grayscale
1070
    25
1002
}
  0
LINE
  5
FF0C
  8
YODOROGO
 10
29829.604341291921
 20
1707.749496429288
 30
0.0
 11
29829.604341291921
 21
1771.7494964292871
 31
0.0
1001
AUTOCAD_POSTSCRIPT_FIGURE
1002
{
1000
PSFILL
1000
Grayscale
1000
Grayscale
1070
    25
1002
}
  0
LINE
  5
FF0D
  8
YODOROGO
 10
29765.604341291921
 20
1707.749496429288
 30
0.0
 11
29829.604341291921
 21
1707.749496429288
 31
0.0
1001
AUTOCAD_POSTSCRIPT_FIGURE
1002
{
1000
PSFILL
1000
Grayscale
1000
Grayscale
1070
    25
1002
}
  0
LINE
  5
FF0E
  8
YODOROGO
 10
29765.604341291921
 20
1771.7494964292871
 30
0.0
 11
29765.604341291921
 21
1707.749496429288
 31
0.0
1001
AUTOCAD_POSTSCRIPT_FIGURE
1002
{
1000
PSFILL
1000
Grayscale
1000
Grayscale
1070
    25
1002
}
  0
LINE
  5
FF0F
  8
YODOROGO
 10
29673.604341291921
 20
1771.7494964292871
 30
0.0
 11
29765.604341291921
 21
1771.7494964292871
 31
0.0
1001
AUTOCAD_POSTSCRIPT_FIGURE
1002
{
1000
PSFILL
1000
Grayscale
1000
Grayscale
1070
    25
1002
}
  0
ARC
  5
FF10
  8
YODOROGO
 10
31059.517893357912
 20
1602.6807375155761
 30
0.0
 40
178.22128111072141
 50
281.02627495425338
 51
357.77113575573799
  0
LINE
  5
FF11
  8
YODOROGO
 10
31413.604341291921
 20
1907.7494964292871
 30
0.0
 11
31165.604341291921
 21
1907.7494964292871
 31
0.0
  0
LINE
  5
FF12
  8
YODOROGO
 10
31413.604341291921
 20
2027.749496429288
 30
0.0
 11
31165.604341291921
 21
2027.749496429288
 31
0.0
  0
LINE
  5
FF13
  8
YODOROGO
 10
31165.604341291921
 20
1963.749496429286
 30
0.0
 11
31413.604341291921
 21
1963.749496429286
 31
0.0
  0
LINE
  5
FF14
  8
YODOROGO
 10
30791.604341291921
 20
1563.7494964292871
 30
0.0
 11
30791.604341291921
 21
1755.7494964292871
 31
0.0
  0
LINE
  5
FF15
  8
YODOROGO
 10
30763.604341291921
 20
1691.749496429288
 30
0.0
 11
30763.604341291921
 21
1563.7494964292871
 31
0.0
  0
LINE
  5
FF16
  8
YODOROGO
 10
30723.604341291921
 20
1491.749496429288
 30
0.0
 11
30723.604341291921
 21
1691.749496429288
 31
0.0
  0
LINE
  5
FF17
  8
YODOROGO
 10
30899.604341291932
 20
1691.749496429288
 30
0.0
 11
30899.604341291932
 21
1491.749496429288
 31
0.0
  0
LINE
  5
FF18
  8
YODOROGO
 10
30859.604341291932
 20
1563.7494964292871
 30
0.0
 11
30859.604341291932
 21
1691.749496429288
 31
0.0
  0
LINE
  5
FF19
  8
YODOROGO
 10
30831.604341291921
 20
1755.7494964292871
 30
0.0
 11
30831.604341291921
 21
1563.7494964292871
 31
0.0
  0
LINE
  5
FF1A
  8
YODOROGO
 10
30973.604341291921
 20
2027.749496429288
 30
0.0
 11
30973.604341291921
 21
1467.749496429288
 31
0.0
  0
LINE
  5
FF1B
  8
YODOROGO
 10
30645.604341291921
 20
1427.749496429288
 30
0.0
 11
30645.604341291921
 21
2027.749496429288
 31
0.0
  0
LINE
  5
FF1C
  8
YODOROGO
 10
30697.604341291932
 20
1963.749496429286
 30
0.0
 11
30697.604341291932
 21
1427.749496429288
 31
0.0
  0
LINE
  5
FF1D
  8
YODOROGO
 10
30925.604341291921
 20
1547.749496429288
 30
0.0
 11
30925.604341291921
 21
1963.749496429286
 31
0.0
  0
LINE
  5
FF1E
  8
YODOROGO
 10
30381.604341291932
 20
1627.749496429288
 30
0.0
 11
30381.604341291932
 21
1679.749496429288
 31
0.0
  0
LINE
  5
FF1F
  8
YODOROGO
 10
30617.604341291921
 20
1679.749496429288
 30
0.0
 11
30617.604341291921
 21
1627.749496429288
 31
0.0
  0
LINE
  5
FF20
  8
YODOROGO
 10
31165.604341291921
 20
1907.7494964292871
 30
0.0
 11
31165.604341291921
 21
1635.7494964292871
 31
0.0
  0
LINE
  5
FF21
  8
YODOROGO
 10
29949.60434129191
 20
1667.749496429288
 30
0.0
 11
29949.60434129191
 21
1707.749496429288
 31
0.0
  0
LINE
  5
FF22
  8
YODOROGO
 10
29949.60434129191
 20
1667.749496429288
 30
0.0
 11
29949.60434129191
 21
1707.749496429288
 31
0.0
  0
ARC
  5
FF23
  8
YODOROGO
 10
30537.604341291921
 20
1507.749496429288
 30
0.0
 40
80.0
 50
270.0
 51
0.0
  0
LINE
  5
FF24
  8
YODOROGO
 10
30569.604341291921
 20
1599.7494964292871
 30
0.0
 11
30617.604341291921
 21
1599.7494964292871
 31
0.0
  0
LINE
  5
FF25
  8
YODOROGO
 10
30617.604341291921
 20
1627.749496429288
 30
0.0
 11
30529.604341291939
 21
1627.749496429288
 31
0.0
  0
LINE
  5
FF26
  8
YODOROGO
 10
30217.604341291921
 20
1667.749496429288
 30
0.0
 11
29949.60434129191
 21
1667.749496429288
 31
0.0
  0
LINE
  5
FF27
  8
YODOROGO
 10
30217.604341291921
 20
1627.749496429288
 30
0.0
 11
30217.604341291921
 21
1667.749496429288
 31
0.0
  0
LINE
  5
FF28
  8
YODOROGO
 10
30017.604341291921
 20
1627.749496429288
 30
0.0
 11
30217.604341291921
 21
1627.749496429288
 31
0.0
  0
ARC
  5
FF29
  8
YODOROGO
 10
30230.05882870136
 20
1868.885714952901
 30
0.0
 40
321.37763628522822
 50
228.6181454618993
 51
245.660289248906
  0
LINE
  5
FF2A
  8
YODOROGO
 10
30105.604341291921
 20
1603.7494964292871
 30
0.0
 11
30097.60434129195
 21
1576.0728158699001
 31
0.0
  0
LINE
  5
FF2B
  8
YODOROGO
 10
30189.604341291921
 20
1603.7494964292871
 30
0.0
 11
30105.604341291921
 21
1603.7494964292871
 31
0.0
  0
LINE
  5
FF2C
  8
YODOROGO
 10
30177.604341291921
 20
1551.817722473427
 30
0.0
 11
30189.604341291921
 21
1603.7494964292871
 31
0.0
  0
ARC
  5
FF2D
  8
YODOROGO
 10
30230.05882870045
 20
1868.885714953002
 30
0.0
 40
321.37763628529081
 50
260.60629297969911
 51
267.77903556555862
  0
LINE
  5
FF2E
  8
YODOROGO
 10
30217.604341291921
 20
1427.749496429285
 30
0.0
 11
30217.604341291921
 21
1547.749496429288
 31
0.0
  0
LINE
  5
FF2F
  8
YODOROGO
 10
29937.604341291932
 20
1481.3393349155101
 30
0.0
 11
29937.604341291921
 21
1594.531090531141
 31
0.0
  0
LINE
  5
FF30
  8
YODOROGO
 10
30217.604341291921
 20
1667.749496429288
 30
0.0
 11
29949.60434129191
 21
1667.749496429288
 31
0.0
  0
LINE
  5
FF31
  8
YODOROGO
 10
30217.604341291921
 20
1627.749496429288
 30
0.0
 11
30217.604341291921
 21
1667.749496429288
 31
0.0
  0
LINE
  5
FF32
  8
YODOROGO
 10
30017.604341291921
 20
1627.749496429288
 30
0.0
 11
30217.604341291921
 21
1627.749496429288
 31
0.0
  0
ARC
  5
FF33
  8
YODOROGO
 10
30230.05882870136
 20
1868.885714952901
 30
0.0
 40
321.37763628522822
 50
228.6181454618993
 51
245.660289248906
  0
LINE
  5
FF34
  8
YODOROGO
 10
30105.604341291921
 20
1603.7494964292871
 30
0.0
 11
30097.60434129195
 21
1576.0728158699001
 31
0.0
  0
LINE
  5
FF35
  8
YODOROGO
 10
30189.604341291921
 20
1603.7494964292871
 30
0.0
 11
30105.604341291921
 21
1603.7494964292871
 31
0.0
  0
LINE
  5
FF36
  8
YODOROGO
 10
30177.604341291921
 20
1551.817722473427
 30
0.0
 11
30189.604341291921
 21
1603.7494964292871
 31
0.0
  0
ARC
  5
FF37
  8
YODOROGO
 10
30230.05882870045
 20
1868.885714953002
 30
0.0
 40
321.37763628529081
 50
260.60629297969911
 51
267.77903556555862
  0
LINE
  5
FF38
  8
YODOROGO
 10
30217.604341291921
 20
1427.749496429285
 30
0.0
 11
30217.604341291921
 21
1547.749496429288
 31
0.0
  0
LINE
  5
FF39
  8
YODOROGO
 10
29937.604341291932
 20
1481.3393349155101
 30
0.0
 11
29937.604341291921
 21
1594.531090531141
 31
0.0
  0
LINE
  5
FF3A
  8
YODOROGO
 10
30433.604341291921
 20
1573.749496429288
 30
0.0
 11
30381.604341291932
 21
1573.749496429288
 31
0.0
  0
LINE
  5
FF3B
  8
YODOROGO
 10
30433.604341291921
 20
1601.749496429285
 30
0.0
 11
30433.604341291921
 21
1573.749496429288
 31
0.0
  0
LINE
  5
FF3C
  8
YODOROGO
 10
30381.604341291932
 20
1601.749496429285
 30
0.0
 11
30433.604341291921
 21
1601.749496429285
 31
0.0
  0
LINE
  5
FF3D
  8
YODOROGO
 10
30381.604341291932
 20
1573.749496429288
 30
0.0
 11
30381.604341291932
 21
1601.749496429285
 31
0.0
  0
LINE
  5
FF3E
  8
YODOROGO
 10
30429.604341291921
 20
1577.7494964292871
 30
0.0
 11
30385.604341291921
 21
1577.7494964292871
 31
0.0
  0
LINE
  5
FF3F
  8
YODOROGO
 10
30429.604341291921
 20
1597.749496429288
 30
0.0
 11
30429.604341291921
 21
1577.7494964292871
 31
0.0
  0
LINE
  5
FF40
  8
YODOROGO
 10
30385.604341291921
 20
1597.749496429288
 30
0.0
 11
30429.604341291921
 21
1597.749496429288
 31
0.0
  0
LINE
  5
FF41
  8
YODOROGO
 10
30385.604341291921
 20
1577.7494964292871
 30
0.0
 11
30385.604341291921
 21
1597.749496429288
 31
0.0
  0
LINE
  5
FF42
  8
YODOROGO
 10
30425.604341291921
 20
1581.749496429286
 30
0.0
 11
30389.604341291921
 21
1581.749496429286
 31
0.0
  0
LINE
  5
FF43
  8
YODOROGO
 10
30425.604341291921
 20
1593.749496429288
 30
0.0
 11
30425.604341291921
 21
1581.749496429286
 31
0.0
  0
LINE
  5
FF44
  8
YODOROGO
 10
30389.604341291921
 20
1593.749496429288
 30
0.0
 11
30425.604341291921
 21
1593.749496429288
 31
0.0
  0
LINE
  5
FF45
  8
YODOROGO
 10
30389.604341291921
 20
1581.749496429286
 30
0.0
 11
30389.604341291921
 21
1593.749496429288
 31
0.0
  0
LINE
  5
FF46
  8
YODOROGO
 10
30421.604341291932
 20
1585.7494964292871
 30
0.0
 11
30393.604341291921
 21
1585.7494964292871
 31
0.0
  0
LINE
  5
FF47
  8
YODOROGO
 10
30421.604341291932
 20
1589.749496429288
 30
0.0
 11
30421.604341291932
 21
1585.7494964292871
 31
0.0
  0
LINE
  5
FF48
  8
YODOROGO
 10
30393.604341291921
 20
1589.749496429288
 30
0.0
 11
30421.604341291932
 21
1589.749496429288
 31
0.0
  0
LINE
  5
FF49
  8
YODOROGO
 10
30393.604341291921
 20
1585.7494964292871
 30
0.0
 11
30393.604341291921
 21
1589.749496429288
 31
0.0
  0
LINE
  5
FF4A
  8
YODOROGO
 10
30465.604341291921
 20
1627.749496429288
 30
0.0
 11
30381.604341291932
 21
1627.749496429288
 31
0.0
  0
LINE
  5
FF4B
  8
YODOROGO
 10
30465.604341291921
 20
1547.749496429288
 30
0.0
 11
30465.604341291921
 21
1627.749496429288
 31
0.0
  0
LINE
  5
FF4C
  8
YODOROGO
 10
30381.604341291932
 20
1547.749496429288
 30
0.0
 11
30465.604341291921
 21
1547.749496429288
 31
0.0
  0
LINE
  5
FF4D
  8
YODOROGO
 10
30381.604341291932
 20
1427.749496429288
 30
0.0
 11
30381.604341291932
 21
1547.749496429288
 31
0.0
  0
LINE
  5
FF4E
  8
YODOROGO
 10
30537.604341291921
 20
1427.749496429288
 30
0.0
 11
30381.604341291932
 21
1427.749496429288
 31
0.0
  0
LINE
  5
FF4F
  8
YODOROGO
 10
30569.604341291921
 20
1571.749496429285
 30
0.0
 11
30569.604341291921
 21
1599.7494964292871
 31
0.0
  0
ARC
  5
FF50
  8
YODOROGO
 10
30545.604341291921
 20
1571.749496429291
 30
0.0
 40
24.000000000003752
 50
270.0
 51
359.99999999998772
  0
LINE
  5
FF51
  8
YODOROGO
 10
30529.604341291939
 20
1547.749496429288
 30
0.0
 11
30545.604341291921
 21
1547.749496429288
 31
0.0
  0
LINE
  5
FF52
  8
YODOROGO
 10
30529.604341291939
 20
1627.749496429288
 30
0.0
 11
30529.604341291939
 21
1547.749496429288
 31
0.0
  0
LINE
  5
FF53
  8
YODOROGO
 10
30899.604341291932
 20
1547.749496429288
 30
0.0
 11
30925.604341291921
 21
1547.749496429288
 31
0.0
  0
LINE
  5
FF54
  8
YODOROGO
 10
30933.604341291921
 20
1427.749496429288
 30
0.0
 11
30899.604341291932
 21
1427.749496429288
 31
0.0
  0
LINE
  5
FF55
  8
YODOROGO
 10
30763.604341291921
 20
1563.7494964292871
 30
0.0
 11
30791.604341291921
 21
1563.7494964292871
 31
0.0
  0
LINE
  5
FF56
  8
YODOROGO
 10
30899.604341291932
 20
1491.749496429288
 30
0.0
 11
30723.604341291921
 21
1491.749496429288
 31
0.0
  0
LINE
  5
FF57
  8
YODOROGO
 10
30831.604341291921
 20
1563.7494964292871
 30
0.0
 11
30859.604341291932
 21
1563.7494964292871
 31
0.0
  0
LINE
  5
FF58
  8
YODOROGO
 10
30899.604341291932
 20
1427.749496429288
 30
0.0
 11
30899.604341291932
 21
1547.749496429288
 31
0.0
  0
LINE
  5
FF59
  8
YODOROGO
 10
30697.604341291932
 20
1427.749496429288
 30
0.0
 11
30645.604341291921
 21
1427.749496429288
 31
0.0
  0
LINE
  5
FF5A
  8
YODOROGO
 10
30617.604341291921
 20
1599.7494964292871
 30
0.0
 11
30617.604341291921
 21
1507.749496429288
 31
0.0
  0
ARC
  5
FF5B
  8
YODOROGO
 10
30933.604341291921
 20
1467.749496429288
 30
0.0
 40
40.0
 50
270.0
 51
0.0
  0
LINE
  5
FF5C
  8
YODOROGO
 10
31093.604341291921
 20
1523.7494964292871
 30
0.0
 11
31093.604341291921
 21
1427.749496429288
 31
0.0
  0
ARC
  5
FF5D
  8
YODOROGO
 10
31039.721395566768
 20
1637.5313901097329
 30
0.0
 40
125.8955565916754
 50
295.34052442160112
 51
359.18902303418679
  0
LINE
  5
FF5E
  8
YODOROGO
 10
30617.604341291921
 20
1859.749496429288
 30
0.0
 11
30497.604341291921
 21
1939.749496429288
 31
0.0
  0
LINE
  5
FF5F
  8
YODOROGO
 10
30497.604341291921
 20
2027.749496429288
 30
0.0
 11
30617.604341291921
 21
1947.749496429288
 31
0.0
  0
LINE
  5
FF60
  8
YODOROGO
 10
30529.604341291939
 20
1679.749496429288
 30
0.0
 11
30617.604341291921
 21
1679.749496429288
 31
0.0
  0
LINE
  5
FF61
  8
YODOROGO
 10
30617.604341291921
 20
1735.7494964292871
 30
0.0
 11
30529.604341291939
 21
1735.7494964292871
 31
0.0
  0
LINE
  5
FF62
  8
YODOROGO
 10
30381.604341291932
 20
1795.7494964292871
 30
0.0
 11
30617.604341291921
 21
1795.7494964292871
 31
0.0
  0
LINE
  5
FF63
  8
YODOROGO
 10
30081.604341291921
 20
2027.749496429288
 30
0.0
 11
30021.604341291921
 21
2027.749496429288
 31
0.0
  0
LINE
  5
FF64
  8
YODOROGO
 10
30081.604341291921
 20
1827.7494964292871
 30
0.0
 11
30081.604341291921
 21
2027.749496429288
 31
0.0
  0
LINE
  5
FF65
  8
YODOROGO
 10
30021.604341291921
 20
1827.7494964292871
 30
0.0
 11
30081.604341291921
 21
1827.7494964292871
 31
0.0
  0
LINE
  5
FF66
  8
YODOROGO
 10
30021.604341291921
 20
2027.749496429288
 30
0.0
 11
30021.604341291921
 21
1827.7494964292871
 31
0.0
  0
LINE
  5
FF67
  8
YODOROGO
 10
30161.604341291921
 20
2027.749496429288
 30
0.0
 11
30217.604341291921
 21
2027.749496429288
 31
0.0
  0
LINE
  5
FF68
  8
YODOROGO
 10
30161.604341291921
 20
1811.749496429288
 30
0.0
 11
30161.604341291921
 21
2027.749496429288
 31
0.0
  0
ARC
  5
FF69
  8
YODOROGO
 10
30121.604341291921
 20
1811.749496429288
 30
0.0
 40
40.0
 50
270.0
 51
0.0
  0
LINE
  5
FF6A
  8
YODOROGO
 10
30021.604341291921
 20
1771.7494964292871
 30
0.0
 11
30121.604341291921
 21
1771.7494964292871
 31
0.0
  0
LINE
  5
FF6B
  8
YODOROGO
 10
30021.604341291921
 20
1707.749496429288
 30
0.0
 11
30021.604341291921
 21
1771.7494964292871
 31
0.0
  0
LINE
  5
FF6C
  8
YODOROGO
 10
30137.604341291921
 20
1707.749496429288
 30
0.0
 11
30021.604341291921
 21
1707.749496429288
 31
0.0
  0
ARC
  5
FF6D
  8
YODOROGO
 10
30137.604341291921
 20
1787.7494964292871
 30
0.0
 40
80.0
 50
270.0
 51
0.0
  0
LINE
  5
FF6E
  8
YODOROGO
 10
30217.604341291921
 20
2027.749496429288
 30
0.0
 11
30217.604341291921
 21
1787.7494964292871
 31
0.0
  0
LINE
  5
FF6F
  8
YODOROGO
 10
29977.604341291921
 20
1947.749496429288
 30
0.0
 11
29977.604341291921
 21
1995.7494964292871
 31
0.0
1001
AUTOCAD_POSTSCRIPT_FIGURE
1002
{
1000
PSFILL
1000
Grayscale
1000
Grayscale
1070
    25
1002
}
  0
LINE
  5
FF70
  8
YODOROGO
 10
29977.604341291921
 20
1859.749496429288
 30
0.0
 11
29977.604341291921
 21
1907.7494964292871
 31
0.0
1001
AUTOCAD_POSTSCRIPT_FIGURE
1002
{
1000
PSFILL
1000
Grayscale
1000
Grayscale
1070
    25
1002
}
  0
LINE
  5
FF71
  8
YODOROGO
 10
29977.604341291921
 20
1707.749496429288
 30
0.0
 11
29977.604341291921
 21
1819.7494964292871
 31
0.0
1001
AUTOCAD_POSTSCRIPT_FIGURE
1002
{
1000
PSFILL
1000
Grayscale
1000
Grayscale
1070
    25
1002
}
  0
LINE
  5
FF72
  8
YODOROGO
 10
30381.604341291932
 20
1907.7494964292871
 30
0.0
 11
30497.604341291921
 21
2027.749496429288
 31
0.0
  0
LINE
  5
FF73
  8
YODOROGO
 10
30381.604341291932
 20
1819.7494964292871
 30
0.0
 11
30381.604341291932
 21
1907.7494964292871
 31
0.0
  0
LINE
  5
FF74
  8
YODOROGO
 10
30497.604341291921
 20
1939.749496429288
 30
0.0
 11
30381.604341291932
 21
1819.7494964292871
 31
0.0
  0
LINE
  5
FF75
  8
YODOROGO
 10
30465.604341291921
 20
1679.749496429288
 30
0.0
 11
30465.604341291921
 21
1735.7494964292871
 31
0.0
  0
LINE
  5
FF76
  8
YODOROGO
 10
30381.604341291932
 20
1679.749496429288
 30
0.0
 11
30465.604341291921
 21
1679.749496429288
 31
0.0
  0
LINE
  5
FF77
  8
YODOROGO
 10
30529.604341291939
 20
1735.7494964292871
 30
0.0
 11
30529.604341291939
 21
1679.749496429288
 31
0.0
  0
LINE
  5
FF78
  8
YODOROGO
 10
30381.604341291932
 20
1735.7494964292871
 30
0.0
 11
30381.604341291932
 21
1795.7494964292871
 31
0.0
  0
LINE
  5
FF79
  8
YODOROGO
 10
30465.604341291921
 20
1735.7494964292871
 30
0.0
 11
30381.604341291932
 21
1735.7494964292871
 31
0.0
  0
LINE
  5
FF7A
  8
YODOROGO
 10
30645.604341291921
 20
2027.749496429288
 30
0.0
 11
30973.604341291921
 21
2027.749496429288
 31
0.0
  0
LINE
  5
FF7B
  8
YODOROGO
 10
30925.604341291921
 20
1963.749496429286
 30
0.0
 11
30697.604341291932
 21
1963.749496429286
 31
0.0
  0
LINE
  5
FF7C
  8
YODOROGO
 10
30873.604341291921
 20
1819.7494964292871
 30
0.0
 11
30899.604341291932
 21
1819.7494964292871
 31
0.0
  0
LINE
  5
FF7D
  8
YODOROGO
 10
30899.604341291932
 20
1939.749496429288
 30
0.0
 11
30873.604341291921
 21
1819.7494964292871
 31
0.0
  0
LINE
  5
FF7E
  8
YODOROGO
 10
30851.604341291939
 20
1939.749496429288
 30
0.0
 11
30899.604341291932
 21
1939.749496429288
 31
0.0
  0
LINE
  5
FF7F
  8
YODOROGO
 10
30825.604341291921
 20
1819.7494964292871
 30
0.0
 11
30851.604341291939
 21
1939.749496429288
 31
0.0
  0
LINE
  5
FF80
  8
YODOROGO
 10
30797.604341291921
 20
1819.7494964292871
 30
0.0
 11
30825.604341291921
 21
1819.7494964292871
 31
0.0
  0
LINE
  5
FF81
  8
YODOROGO
 10
30771.604341291939
 20
1939.749496429288
 30
0.0
 11
30797.604341291921
 21
1819.7494964292871
 31
0.0
  0
LINE
  5
FF82
  8
YODOROGO
 10
30723.604341291921
 20
1939.749496429288
 30
0.0
 11
30771.604341291939
 21
1939.749496429288
 31
0.0
  0
LINE
  5
FF83
  8
YODOROGO
 10
30749.604341291921
 20
1819.7494964292871
 30
0.0
 11
30723.604341291921
 21
1939.749496429288
 31
0.0
  0
LINE
  5
FF84
  8
YODOROGO
 10
30723.604341291921
 20
1819.7494964292871
 30
0.0
 11
30749.604341291921
 21
1819.7494964292871
 31
0.0
  0
LINE
  5
FF85
  8
YODOROGO
 10
30723.604341291921
 20
1755.7494964292871
 30
0.0
 11
30723.604341291921
 21
1819.7494964292871
 31
0.0
  0
LINE
  5
FF86
  8
YODOROGO
 10
30899.604341291932
 20
1755.7494964292871
 30
0.0
 11
30723.604341291921
 21
1755.7494964292871
 31
0.0
  0
LINE
  5
FF87
  8
YODOROGO
 10
30899.604341291932
 20
1819.7494964292871
 30
0.0
 11
30899.604341291932
 21
1755.7494964292871
 31
0.0
  0
LINE
  5
FF88
  8
YODOROGO
 10
30617.604341291921
 20
1947.749496429288
 30
0.0
 11
30617.604341291921
 21
1859.749496429288
 31
0.0
  0
LINE
  5
FF89
  8
YODOROGO
 10
30791.604341291921
 20
1755.7494964292871
 30
0.0
 11
30831.604341291921
 21
1755.7494964292871
 31
0.0
  0
LINE
  5
FF8A
  8
YODOROGO
 10
30723.604341291921
 20
1691.749496429288
 30
0.0
 11
30763.604341291921
 21
1691.749496429288
 31
0.0
  0
LINE
  5
FF8B
  8
YODOROGO
 10
30859.604341291932
 20
1691.749496429288
 30
0.0
 11
30899.604341291932
 21
1691.749496429288
 31
0.0
  0
LINE
  5
FF8C
  8
YODOROGO
 10
30617.604341291921
 20
1795.7494964292871
 30
0.0
 11
30617.604341291921
 21
1735.7494964292871
 31
0.0
  0
LINE
  5
FF8D
  8
YODOROGO
 10
31165.604341291921
 20
2027.749496429288
 30
0.0
 11
31165.604341291921
 21
1963.749496429286
 31
0.0
  0
LINE
  5
FF8E
  8
YODOROGO
 10
31533.604341291921
 20
1595.7494964292871
 30
0.0
 11
31533.60434129191
 21
1811.749496429288
 31
0.0
  0
LINE
  5
FF8F
  8
YODOROGO
 10
31461.60434129191
 20
1987.7494964292871
 30
0.0
 11
31461.60434129191
 21
1635.7494964292871
 31
0.0
  0
LINE
  5
FF90
  8
YODOROGO
 10
31653.604341291921
 20
1427.749496429288
 30
0.0
 11
31653.60434129191
 21
1811.749496429288
 31
0.0
  0
LINE
  5
FF91
  8
YODOROGO
 10
31589.604341291921
 20
1811.749496429288
 30
0.0
 11
31589.604341291921
 21
1427.749496429288
 31
0.0
  0
LINE
  5
FF92
  8
YODOROGO
 10
31237.604341291921
 20
1595.7494964292871
 30
0.0
 11
31237.604341291921
 21
1707.749496429288
 31
0.0
  0
ARC
  5
FF93
  8
YODOROGO
 10
31353.914865116069
 20
1607.790351288558
 30
0.0
 40
180.0924485759885
 50
268.62849102169793
 51
356.16638457330322
  0
LINE
  5
FF94
  8
YODOROGO
 10
31349.604341291939
 20
1527.749496429288
 30
0.0
 11
31349.604341291939
 21
1427.749496429288
 31
0.0
  0
ARC
  5
FF95
  8
YODOROGO
 10
31351.518075724562
 20
1637.838957017655
 30
0.0
 40
110.1060929836122
 50
269.00410209305932
 51
358.91264455492478
  0
LINE
  5
FF96
  8
YODOROGO
 10
31589.604341291921
 20
1427.749496429288
 30
0.0
 11
31653.604341291921
 21
1427.749496429288
 31
0.0
  0
LINE
  5
FF97
  8
YODOROGO
 10
31533.60434129191
 20
1811.749496429288
 30
0.0
 11
31589.604341291921
 21
1811.749496429288
 31
0.0
  0
LINE
  5
FF98
  8
YODOROGO
 10
31621.604341291939
 20
1987.7494964292871
 30
0.0
 11
31461.60434129191
 21
1987.7494964292871
 31
0.0
  0
LINE
  5
FF99
  8
YODOROGO
 10
31533.60434129191
 20
1915.7494964292871
 30
0.0
 11
31661.604341291939
 21
1915.7494964292871
 31
0.0
  0
LINE
  5
FF9A
  8
YODOROGO
 10
31701.604341291939
 20
1875.7494964292871
 30
0.0
 11
31533.60434129191
 21
1875.7494964292871
 31
0.0
  0
LINE
  5
FF9B
  8
YODOROGO
 10
31237.604341291921
 20
1779.749496429288
 30
0.0
 11
31349.604341291939
 21
1779.749496429288
 31
0.0
  0
LINE
  5
FF9C
  8
YODOROGO
 10
31237.604341291921
 20
1835.7494964292871
 30
0.0
 11
31237.604341291921
 21
1779.749496429288
 31
0.0
  0
LINE
  5
FF9D
  8
YODOROGO
 10
31349.604341291939
 20
1835.7494964292871
 30
0.0
 11
31237.604341291921
 21
1835.7494964292871
 31
0.0
  0
LINE
  5
FF9E
  8
YODOROGO
 10
31349.604341291939
 20
1779.749496429288
 30
0.0
 11
31349.604341291939
 21
1835.7494964292871
 31
0.0
  0
LINE
  5
FF9F
  8
YODOROGO
 10
31533.60434129191
 20
1875.7494964292871
 30
0.0
 11
31533.60434129191
 21
1915.7494964292871
 31
0.0
  0
LINE
  5
FFA0
  8
YODOROGO
 10
31413.604341291921
 20
1707.749496429288
 30
0.0
 11
31413.604341291921
 21
1907.7494964292871
 31
0.0
  0
LINE
  5
FFA1
  8
YODOROGO
 10
31237.604341291921
 20
1707.749496429288
 30
0.0
 11
31413.604341291921
 21
1707.749496429288
 31
0.0
  0
LINE
  5
FFA2
  8
YODOROGO
 10
31413.604341291921
 20
1963.749496429286
 30
0.0
 11
31413.604341291921
 21
2027.749496429288
 31
0.0
  0
ARC
  5
FFA3
  8
YODOROGO
 10
31621.604341291939
 20
2003.749496429285
 30
0.0
 40
15.999999999994539
 50
270.0
 51
0.0000000000081422
  0
LINE
  5
FFA4
  8
YODOROGO
 10
31637.604341291921
 20
2027.749496429288
 30
0.0
 11
31637.604341291921
 21
2003.7494964292871
 31
0.0
  0
LINE
  5
FFA5
  8
YODOROGO
 10
31701.604341291939
 20
2027.749496429288
 30
0.0
 11
31637.604341291921
 21
2027.749496429288
 31
0.0
  0
LINE
  5
FFA6
  8
YODOROGO
 10
31701.604341291939
 20
1955.7494964292871
 30
0.0
 11
31701.604341291939
 21
2027.749496429288
 31
0.0
  0
ARC
  5
FFA7
  8
YODOROGO
 10
31661.604341291939
 20
1955.7494964292871
 30
0.0
 40
40.0
 50
270.0
 51
0.0
  0
LINE
  5
FFA8
  8
YODOROGO
 10
31701.604341291939
 20
1811.749496429288
 30
0.0
 11
31701.604341291939
 21
1875.7494964292871
 31
0.0
  0
LINE
  5
FFA9
  8
YODOROGO
 10
31653.60434129191
 20
1811.749496429288
 30
0.0
 11
31701.604341291939
 21
1811.749496429288
 31
0.0
  0
LINE
  5
FFAA
  8
0-6
  6
CONTINUOUS
 62
     6
 10
7973.2315402772374
 20
19128.769014632911
 30
0.0
 11
8034.4286569802352
 21
19278.98848199999
 31
0.0
  0
LINE
  5
FFAB
  8
0-6
  6
CONTINUOUS
 62
     6
 10
8034.4286569802352
 20
19278.98848199999
 30
0.0
 11
7927.8181525579548
 21
19156.735860960722
 31
0.0
  0
LINE
  5
FFAC
  8
0-6
  6
CONTINUOUS
 62
     6
 10
7927.8181525579548
 20
19156.735860960722
 30
0.0
 11
7973.2315402772374
 21
19128.769014632911
 31
0.0
  0
LINE
  5
FFAD
  8
0-6
  6
CONTINUOUS
 62
     6
 10
7973.2315402772338
 20
18014.267114632919
 30
0.0
 11
8034.4286569802352
 21
18164.48658199998
 31
0.0
  0
LINE
  5
FFAE
  8
0-6
  6
CONTINUOUS
 62
     6
 10
8034.4286569802352
 20
18164.48658199998
 30
0.0
 11
7927.8181525579548
 21
18042.23396096073
 31
0.0
  0
LINE
  5
FFAF
  8
0-6
  6
CONTINUOUS
 62
     6
 10
7927.8181525579548
 20
18042.23396096073
 30
0.0
 11
7973.2315402772338
 21
18014.267114632919
 31
0.0
  0
LINE
  5
FFB0
  8
0-6
  6
CONTINUOUS
 62
     6
 10
7973.2315402772338
 20
15096.26711463293
 30
0.0
 11
8034.4286569802352
 21
15246.486582
 31
0.0
  0
LINE
  5
FFB1
  8
0-6
  6
CONTINUOUS
 62
     6
 10
8034.4286569802352
 20
15246.486582
 30
0.0
 11
7927.8181525579548
 21
15124.233960960761
 31
0.0
  0
LINE
  5
FFB2
  8
0-6
  6
CONTINUOUS
 62
     6
 10
7927.8181525579548
 20
15124.233960960761
 30
0.0
 11
7973.2315402772338
 21
15096.26711463293
 31
0.0
  0
LINE
  5
FFB3
  8
0-6
  6
CONTINUOUS
 62
     6
 10
7973.2315402772338
 20
16555.267115632909
 30
0.0
 11
8034.4286569802352
 21
16705.486582999991
 31
0.0
  0
LINE
  5
FFB4
  8
0-6
  6
CONTINUOUS
 62
     6
 10
8034.4286569802352
 20
16705.486582999991
 30
0.0
 11
7927.8181525579548
 21
16583.23396196073
 31
0.0
  0
LINE
  5
FFB5
  8
0-6
  6
CONTINUOUS
 62
     6
 10
7927.8181525579548
 20
16583.23396196073
 30
0.0
 11
7973.2315402772338
 21
16555.267115632909
 31
0.0
  0
LINE
  5
FFB6
  8
0-6
  6
CONTINUOUS
 62
     6
 10
7630.8162591392338
 20
14060.562206451859
 30
0.0
 11
7768.3945928845578
 21
14146.487624999971
 31
0.0
  0
LINE
  5
FFB7
  8
0-6
  6
CONTINUOUS
 62
     6
 10
7768.3945928845578
 20
14146.487624999971
 30
0.0
 11
7666.120061071324
 21
14020.585189969819
 31
0.0
  0
LINE
  5
FFB8
  8
0-6
  6
CONTINUOUS
 62
     6
 10
7666.120061071324
 20
14020.585189969819
 30
0.0
 11
7630.8162591392338
 21
14060.562206451859
 31
0.0
  0
LINE
  5
FFB9
  8
0-6
  6
CONTINUOUS
 62
     6
 10
7678.32196466395
 20
14391.397792656961
 30
0.0
 11
7615.9586268688736
 21
14541.1368642711
 31
0.0
  0
LINE
  5
FFBA
  8
0-6
  6
CONTINUOUS
 62
     6
 10
7615.9586268688736
 20
14541.1368642711
 30
0.0
 11
7723.5165158508189
 21
14419.71691730239
 31
0.0
  0
LINE
  5
FFBB
  8
0-6
  6
CONTINUOUS
 62
     6
 10
7723.5165158508189
 20
14419.71691730239
 30
0.0
 11
7678.32196466395
 21
14391.397792656961
 31
0.0
  0
LINE
  5
FFBC
  8
0-6
  6
CONTINUOUS
 62
     6
 10
8510.2707807755469
 20
14344.300373410921
 30
0.0
 11
8430.5297417568254
 21
14485.55313326014
 31
0.0
  0
LINE
  5
FFBD
  8
0-6
  6
CONTINUOUS
 62
     6
 10
8430.5297417568254
 20
14485.55313326014
 30
0.0
 11
8551.7737670131573
 21
14377.79697638833
 31
0.0
  0
LINE
  5
FFBE
  8
0-6
  6
CONTINUOUS
 62
     6
 10
8551.7737670131573
 20
14377.79697638833
 30
0.0
 11
8510.2707807755469
 21
14344.300373410921
 31
0.0
  0
LINE
  5
FFBF
  8
SUNPOU
  6
CONTINUOUS
 62
     4
 10
13579.756839868871
 20
15291.48697799999
 30
0.0
 11
14290.45844786887
 21
15291.48697799999
 31
0.0
  0
LINE
  5
FFC0
  8
SUNPOU
  6
CONTINUOUS
 62
     4
 10
13523.458341868871
 20
14182.986977999981
 30
0.0
 11
14290.45844786887
 21
14182.986977999981
 31
0.0
  0
LINE
  5
FFC1
  8
SUNPOU
  6
CONTINUOUS
 62
     4
 10
14210.45844786887
 20
15291.48697799999
 30
0.0
 11
14210.45844786887
 21
14182.986977999981
 31
0.0
  0
LINE
  5
FFC2
  8
SUNPOU
  6
CONTINUOUS
 62
     4
 10
13503.037395745099
 20
16750.486977999979
 30
0.0
 11
14290.45844786887
 21
16750.486977999979
 31
0.0
  0
LINE
  5
FFC3
  8
SUNPOU
  6
CONTINUOUS
 62
     4
 10
13579.756839868871
 20
15291.48697799999
 30
0.0
 11
14290.45844786887
 21
15291.48697799999
 31
0.0
  0
LINE
  5
FFC4
  8
SUNPOU
  6
CONTINUOUS
 62
     4
 10
14210.458447868879
 20
16750.486977999979
 30
0.0
 11
14210.458447868879
 21
15291.48697799999
 31
0.0
  0
LINE
  5
FFC5
  8
SUNPOU
  6
CONTINUOUS
 62
     4
 10
13579.756839868871
 20
18209.48697799999
 30
0.0
 11
14290.45844786887
 21
18209.48697799999
 31
0.0
  0
LINE
  5
FFC6
  8
SUNPOU
  6
CONTINUOUS
 62
     4
 10
13503.037395745099
 20
16750.486977999979
 30
0.0
 11
14290.45844786887
 21
16750.486977999979
 31
0.0
  0
LINE
  5
FFC7
  8
SUNPOU
  6
CONTINUOUS
 62
     4
 10
14210.458447868879
 20
18209.48697799999
 30
0.0
 11
14210.458447868879
 21
16750.486977999979
 31
0.0
  0
LINE
  5
FFC8
  8
SUNPOU
  6
CONTINUOUS
 62
     4
 10
13443.45899586887
 20
13990.486977999981
 30
0.0
 11
14290.45877186888
 21
13990.486977999981
 31
0.0
  0
LINE
  5
FFC9
  8
SUNPOU
  6
CONTINUOUS
 62
     4
 10
14210.45877186888
 20
14182.986252000001
 30
0.0
 11
14210.45877186888
 21
13990.486977999981
 31
0.0
  0
LINE
  5
FFCA
  8
SUNPOU
  6
CONTINUOUS
 62
     4
 10
13579.756839868871
 20
18209.48697799999
 30
0.0
 11
14290.45877186888
 21
18209.48697799999
 31
0.0
  0
LINE
  5
FFCB
  8
SUNPOU
  6
CONTINUOUS
 62
     4
 10
14210.45877186888
 20
19317.986977999961
 30
0.0
 11
14210.45877186888
 21
18209.48697799999
 31
0.0
  0
LINE
  5
FFCC
  8
SUNPOU
  6
CONTINUOUS
 62
     4
 10
14130.45877186888
 20
19317.986977999961
 30
0.0
 11
14170.45877186888
 21
19317.986977999961
 31
0.0
  0
LINE
  5
FFCD
  8
SUNPOU
  6
CONTINUOUS
 62
     4
 10
13438.45972186888
 20
19540.486845999982
 30
0.0
 11
14250.45877186888
 21
19540.486845999982
 31
0.0
  0
LINE
  5
FFCE
  8
SUNPOU
  6
CONTINUOUS
 62
     4
 10
14210.45877186888
 20
19317.986977999961
 30
0.0
 11
14210.45877186888
 21
19540.486845999982
 31
0.0
  0
LINE
  5
FFCF
  8
SUNPOU
  6
CONTINUOUS
 62
     4
 10
13425.460222868889
 20
19500.48671399997
 30
0.0
 11
13890.459430868879
 21
19500.48671399997
 31
0.0
  0
LINE
  5
FFD0
  8
SUNPOU
  6
CONTINUOUS
 62
     4
 10
13438.45972186888
 20
19540.486845999982
 30
0.0
 11
13890.459430868879
 21
19540.486845999982
 31
0.0
  0
LINE
  5
FFD1
  8
SUNPOU
  6
CONTINUOUS
 62
     4
 10
13810.45943086887
 20
19500.48671399997
 30
0.0
 11
13810.45943086887
 21
19260.486713999981
 31
0.0
  0
LINE
  5
FFD2
  8
SUNPOU
  6
CONTINUOUS
 62
     4
 10
13810.45943086887
 20
19540.486845999982
 30
0.0
 11
13810.45943086887
 21
19780.486845999982
 31
0.0
  0
LINE
  5
FFD3
  8
SUNPOU
  6
CONTINUOUS
 62
     4
 10
13810.45943086887
 20
19500.48671399997
 30
0.0
 11
13810.45943086887
 21
19540.486845999982
 31
0.0
  0
LINE
  5
FFD4
  8
SUNPOU
  6
CONTINUOUS
 62
     4
 10
7562.958995868893
 20
20165.48889099999
 30
0.0
 11
7562.958995868893
 21
20240.487901999972
 31
0.0
  0
LINE
  5
FFD5
  8
SUNPOU
  6
CONTINUOUS
 62
     4
 10
7477.458995868893
 20
19615.48856099998
 30
0.0
 11
7477.458995868893
 21
20240.487901999972
 31
0.0
  0
LINE
  5
FFD6
  8
SUNPOU
  6
CONTINUOUS
 62
     4
 10
7562.958995868893
 20
20160.487901999972
 30
0.0
 11
7802.9589958688912
 21
20160.487901999972
 31
0.0
  0
LINE
  5
FFD7
  8
SUNPOU
  6
CONTINUOUS
 62
     4
 10
7480.458995868893
 20
20160.487901999972
 30
0.0
 11
7240.4589958688912
 21
20160.487901999972
 31
0.0
  0
LINE
  5
FFD8
  8
SUNPOU
  6
CONTINUOUS
 62
     4
 10
7562.958995868893
 20
20160.487901999972
 30
0.0
 11
7480.458995868893
 21
20160.487901999972
 31
0.0
  0
LINE
  5
FFD9
  8
SUNPOU
  6
CONTINUOUS
 62
     4
 10
10362.95899586889
 20
20165.48889099999
 30
0.0
 11
10362.95899586889
 21
20240.487901999972
 31
0.0
  0
LINE
  5
FFDA
  8
SUNPOU
  6
CONTINUOUS
 62
     4
 10
7562.958995868893
 20
20165.48889099999
 30
0.0
 11
7562.958995868893
 21
20240.487901999972
 31
0.0
  0
LINE
  5
FFDB
  8
SUNPOU
  6
CONTINUOUS
 62
     4
 10
10362.95899586889
 20
20160.487901999972
 30
0.0
 11
7562.958995868893
 21
20160.487901999972
 31
0.0
  0
LINE
  5
FFDC
  8
SUNPOU
  6
CONTINUOUS
 62
     4
 10
13280.95867186889
 20
19690.488560999969
 30
0.0
 11
13280.95867186889
 21
20240.487901999972
 31
0.0
  0
LINE
  5
FFDD
  8
SUNPOU
  6
CONTINUOUS
 62
     4
 10
10362.95899586889
 20
20165.48889099999
 30
0.0
 11
10362.95899586889
 21
20240.487901999972
 31
0.0
  0
LINE
  5
FFDE
  8
SUNPOU
  6
CONTINUOUS
 62
     4
 10
13280.95867186889
 20
20160.487901999972
 30
0.0
 11
10362.95899586889
 21
20160.487901999972
 31
0.0
  0
LINE
  5
FFDF
  8
SUNPOU
  6
CONTINUOUS
 62
     4
 10
13280.95867186889
 20
19690.488560999969
 30
0.0
 11
13280.95867186889
 21
20240.487901999972
 31
0.0
  0
LINE
  5
FFE0
  8
SUNPOU
  6
CONTINUOUS
 62
     4
 10
13366.45867186889
 20
19610.488297999989
 30
0.0
 11
13366.45867186889
 21
20240.487901999972
 31
0.0
  0
LINE
  5
FFE1
  8
SUNPOU
  6
CONTINUOUS
 62
     4
 10
13280.95867186889
 20
20160.487901999972
 30
0.0
 11
13040.95867186889
 21
20160.487901999972
 31
0.0
  0
LINE
  5
FFE2
  8
SUNPOU
  6
CONTINUOUS
 62
     4
 10
13363.45867186889
 20
20160.487901999972
 30
0.0
 11
13603.45867186889
 21
20160.487901999972
 31
0.0
  0
LINE
  5
FFE3
  8
SUNPOU
  6
CONTINUOUS
 62
     4
 10
13280.95867186889
 20
20160.487901999972
 30
0.0
 11
13363.45867186889
 21
20160.487901999972
 31
0.0
  0
LINE
  5
FFE4
  8
SUNPOU
  6
CONTINUOUS
 62
     4
 10
13366.45867186887
 20
13910.486977999981
 30
0.0
 11
13366.45867186887
 21
12620.48618599998
 31
0.0
  0
LINE
  5
FFE5
  8
SUNPOU
  6
CONTINUOUS
 62
     4
 10
7477.4589958688903
 20
13910.486977999981
 30
0.0
 11
7477.4589958688903
 21
12620.48618599998
 31
0.0
  0
LINE
  5
FFE6
  8
SUNPOU
  6
CONTINUOUS
 62
     4
 10
13363.45867186887
 20
12700.48618599998
 30
0.0
 11
7480.4589958688903
 21
12700.48618599998
 31
0.0
  0
LINE
  5
FFE7
  8
0-6
  6
CONTINUOUS
 62
     6
 10
12414.7449616628
 20
16529.266191632942
 30
0.0
 11
12353.547844959799
 21
16679.485659000009
 31
0.0
  0
LINE
  5
FFE8
  8
0-6
  6
CONTINUOUS
 62
     6
 10
12353.547844959799
 20
16679.485659000009
 30
0.0
 11
12460.15834938208
 21
16557.23303796077
 31
0.0
  0
LINE
  5
FFE9
  8
0-6
  6
CONTINUOUS
 62
     6
 10
12460.15834938208
 20
16557.23303796077
 30
0.0
 11
12414.7449616628
 21
16529.266191632942
 31
0.0
  0
LINE
  5
FFEA
  8
0-6
  6
CONTINUOUS
 62
     6
 10
12598.803732288499
 20
15110.07460336483
 30
0.0
 11
12528.946990445051
 21
15246.786015664071
 31
0.0
  0
LINE
  5
FFEB
  8
0-6
  6
CONTINUOUS
 62
     6
 10
12528.946990445051
 20
15246.786015664071
 30
0.0
 11
12641.46003020153
 21
15142.0896080661
 31
0.0
  0
LINE
  5
FFEC
  8
0-6
  6
CONTINUOUS
 62
     6
 10
12641.46003020153
 20
15142.0896080661
 30
0.0
 11
12598.803732288499
 21
15110.07460336483
 31
0.0
  0
LINE
  5
FFED
  8
0-6
  6
CONTINUOUS
 62
     6
 10
12598.803732288499
 20
18005.014099621269
 30
0.0
 11
12524.083987217869
 21
18148.986093999989
 31
0.0
  0
LINE
  5
FFEE
  8
0-6
  6
CONTINUOUS
 62
     6
 10
12524.083987217869
 20
18148.986093999989
 30
0.0
 11
12641.46003020153
 21
18037.02910432253
 31
0.0
  0
LINE
  5
FFEF
  8
0-6
  6
CONTINUOUS
 62
     6
 10
12641.46003020153
 20
18037.02910432253
 30
0.0
 11
12598.803732288499
 21
18005.014099621269
 31
0.0
  0
LINE
  5
FFF0
  8
0-6
  6
CONTINUOUS
 62
     6
 10
11203.91925539357
 20
15529.903760349711
 30
0.0
 11
11066.46976445711
 21
15616.035130419599
 31
0.0
  0
LINE
  5
FFF1
  8
0-6
  6
CONTINUOUS
 62
     6
 10
11066.46976445711
 20
15616.035130419599
 30
0.0
 11
11224.425769062071
 21
15579.13792709221
 31
0.0
  0
LINE
  5
FFF2
  8
0-6
  6
CONTINUOUS
 62
     6
 10
11224.425769062071
 20
15579.13792709221
 30
0.0
 11
11203.91925539357
 21
15529.903760349711
 31
0.0
  0
LINE
  5
FFF3
  8
SUNPOU
  6
CONTINUOUS
 62
     4
 10
27001.010792585152
 20
19440.48697799999
 30
0.0
 11
27001.010792585152
 21
20240.487901999972
 31
0.0
  0
LINE
  5
FFF4
  8
SUNPOU
  6
CONTINUOUS
 62
     4
 10
27043.510792585152
 20
19440.48697799999
 30
0.0
 11
27043.510792585152
 21
20240.487901999972
 31
0.0
  0
LINE
  5
FFF5
  8
SUNPOU
  6
CONTINUOUS
 62
     4
 10
27001.010792585152
 20
20160.487901999972
 30
0.0
 11
26761.010792585152
 21
20160.487901999972
 31
0.0
  0
LINE
  5
FFF6
  8
SUNPOU
  6
CONTINUOUS
 62
     4
 10
27043.510792585152
 20
20160.487901999972
 30
0.0
 11
27283.510792585152
 21
20160.487901999972
 31
0.0
  0
LINE
  5
FFF7
  8
SUNPOU
  6
CONTINUOUS
 62
     4
 10
27001.010792585152
 20
20160.487901999972
 30
0.0
 11
27043.510792585152
 21
20160.487901999972
 31
0.0
  0
LINE
  5
FFF8
  8
0-6
  6
CONTINUOUS
 62
     6
 10
21425.23683753311
 20
19102.390205253341
 30
0.0
 11
21318.908813585142
 21
19224.88643699999
 31
0.0
  0
LINE
  5
FFF9
  8
0-6
  6
CONTINUOUS
 62
     6
 10
21318.908813585142
 20
19224.88643699999
 30
0.0
 11
21379.760933178412
 21
19074.52513032452
 31
0.0
  0
LINE
  5
FFFA
  8
0-6
  6
CONTINUOUS
 62
     6
 10
21379.760933178412
 20
19074.52513032452
 30
0.0
 11
21425.23683753311
 21
19102.390205253341
 31
0.0
  0
LINE
  5
FFFB
  8
0-6
  6
CONTINUOUS
 62
     6
 10
21397.052492027131
 20
19518.20376193268
 30
0.0
 11
21328.008813585151
 21
19371.425201045851
 31
0.0
  0
LINE
  5
FFFC
  8
0-6
  6
CONTINUOUS
 62
     6
 10
21328.008813585151
 20
19371.425201045851
 30
0.0
 11
21440.925813764308
 21
19487.877998670829
 31
0.0
  0
LINE
  5
FFFD
  8
0-6
  6
CONTINUOUS
 62
     6
 10
21440.925813764308
 20
19487.877998670829
 30
0.0
 11
21397.052492027131
 21
19518.20376193268
 31
0.0
  0
LINE
  5
FFFE
  8
0-6
  6
CONTINUOUS
 62
     6
 10
21425.23683753311
 20
16935.082773746632
 30
0.0
 11
21318.908813585142
 21
16812.586541999979
 31
0.0
  0
LINE
  5
FFFF
  8
0-6
  6
CONTINUOUS
 62
     6
 10
21318.908813585142
 20
16812.586541999979
 30
0.0
 11
21379.760933178412
 21
16962.947848675431
 31
0.0
  0
LINE
  5
10000
  8
0-6
  6
CONTINUOUS
 62
     6
 10
21379.760933178412
 20
16962.947848675431
 30
0.0
 11
21425.23683753311
 21
16935.082773746632
 31
0.0
  0
LINE
  5
10001
  8
0-6
  6
CONTINUOUS
 62
     6
 10
21425.23683753311
 20
14378.083209746639
 30
0.0
 11
21318.908813585142
 21
14255.586977999979
 31
0.0
  0
LINE
  5
10002
  8
0-6
  6
CONTINUOUS
 62
     6
 10
21318.908813585142
 20
14255.586977999979
 30
0.0
 11
21379.760933178412
 21
14405.94828467544
 31
0.0
  0
LINE
  5
10003
  8
0-6
  6
CONTINUOUS
 62
     6
 10
21379.760933178412
 20
14405.94828467544
 30
0.0
 11
21425.23683753311
 21
14378.083209746639
 31
0.0
  0
LINE
  5
10004
  8
0-6
  6
CONTINUOUS
 62
     6
 10
21397.052492027131
 20
16519.269217067282
 30
0.0
 11
21328.008813585151
 21
16666.047777954111
 31
0.0
  0
LINE
  5
10005
  8
0-6
  6
CONTINUOUS
 62
     6
 10
21328.008813585151
 20
16666.047777954111
 30
0.0
 11
21440.925813764308
 21
16549.594980329141
 31
0.0
  0
LINE
  5
10006
  8
0-6
  6
CONTINUOUS
 62
     6
 10
21440.925813764308
 20
16549.594980329141
 30
0.0
 11
21397.052492027131
 21
16519.269217067282
 31
0.0
  0
LINE
  5
10007
  8
0-6
  6
CONTINUOUS
 62
     6
 10
21397.052492027131
 20
13982.20841711315
 30
0.0
 11
21328.008813585151
 21
14128.98697799999
 31
0.0
  0
LINE
  5
10008
  8
0-6
  6
CONTINUOUS
 62
     6
 10
21328.008813585151
 20
14128.98697799999
 30
0.0
 11
21440.925813764308
 21
14012.534180375011
 31
0.0
  0
LINE
  5
10009
  8
0-6
  6
CONTINUOUS
 62
     6
 10
21440.925813764308
 20
14012.534180375011
 30
0.0
 11
21397.052492027131
 21
13982.20841711315
 31
0.0
  0
LINE
  5
1002E
  8
SUNPOU
  6
CONTINUOUS
 62
     4
 10
26243.010792585152
 20
19440.48697799999
 30
0.0
 11
26243.010792585152
 21
20240.487901999972
 31
0.0
  0
LINE
  5
1002F
  8
SUNPOU
  6
CONTINUOUS
 62
     4
 10
27001.010792585152
 20
19440.48697799999
 30
0.0
 11
27001.010792585152
 21
20240.487901999972
 31
0.0
  0
LINE
  5
10030
  8
SUNPOU
  6
CONTINUOUS
 62
     4
 10
26243.010792585152
 20
20160.487901999972
 30
0.0
 11
27001.010792585152
 21
20160.487901999972
 31
0.0
  0
LINE
  5
10031
  8
SUNPOU
  6
CONTINUOUS
 62
     4
 10
25542.010792585152
 20
19440.48697799999
 30
0.0
 11
25542.010792585152
 21
20240.487901999972
 31
0.0
  0
LINE
  5
10032
  8
SUNPOU
  6
CONTINUOUS
 62
     4
 10
26243.010792585152
 20
19440.48697799999
 30
0.0
 11
26243.010792585152
 21
20240.487901999972
 31
0.0
  0
LINE
  5
10033
  8
SUNPOU
  6
CONTINUOUS
 62
     4
 10
25542.010792585152
 20
20160.487901999972
 30
0.0
 11
26243.010792585152
 21
20160.487901999972
 31
0.0
  0
LINE
  5
10034
  8
SUNPOU
  6
CONTINUOUS
 62
     4
 10
24841.010792585152
 20
19440.48697799999
 30
0.0
 11
24841.010792585152
 21
20240.487901999972
 31
0.0
  0
LINE
  5
10035
  8
SUNPOU
  6
CONTINUOUS
 62
     4
 10
25542.010792585152
 20
19440.48697799999
 30
0.0
 11
25542.010792585152
 21
20240.487901999972
 31
0.0
  0
LINE
  5
10036
  8
SUNPOU
  6
CONTINUOUS
 62
     4
 10
24841.010792585152
 20
20160.487901999972
 30
0.0
 11
25542.010792585152
 21
20160.487901999972
 31
0.0
  0
LINE
  5
10037
  8
SUNPOU
  6
CONTINUOUS
 62
     4
 10
24083.010792585152
 20
19520.48948499998
 30
0.0
 11
24083.010792585152
 21
20240.487901999972
 31
0.0
  0
LINE
  5
10038
  8
SUNPOU
  6
CONTINUOUS
 62
     4
 10
24841.010792585152
 20
19440.48697799999
 30
0.0
 11
24841.010792585152
 21
20240.487901999972
 31
0.0
  0
LINE
  5
10039
  8
SUNPOU
  6
CONTINUOUS
 62
     4
 10
24083.010792585152
 20
20160.487901999972
 30
0.0
 11
24841.010792585152
 21
20160.487901999972
 31
0.0
  0
LINE
  5
1003A
  8
SUNPOU
  6
CONTINUOUS
 62
     4
 10
24083.010792585152
 20
19520.48948499998
 30
0.0
 11
24083.010792585152
 21
20240.487901999972
 31
0.0
  0
LINE
  5
1003B
  8
SUNPOU
  6
CONTINUOUS
 62
     4
 10
24040.510792585152
 20
19440.48697799999
 30
0.0
 11
24040.510792585152
 21
20240.487901999972
 31
0.0
  0
LINE
  5
1003C
  8
SUNPOU
  6
CONTINUOUS
 62
     4
 10
24083.010792585152
 20
20160.487901999972
 30
0.0
 11
24323.010792585152
 21
20160.487901999972
 31
0.0
  0
LINE
  5
1003D
  8
SUNPOU
  6
CONTINUOUS
 62
     4
 10
24040.510792585152
 20
20160.487901999972
 30
0.0
 11
23800.510792585152
 21
20160.487901999972
 31
0.0
  0
LINE
  5
1003E
  8
SUNPOU
  6
CONTINUOUS
 62
     4
 10
24083.010792585152
 20
20160.487901999972
 30
0.0
 11
24040.510792585152
 21
20160.487901999972
 31
0.0
  0
LINE
  5
1004C
  8
SUNPOU
  6
CONTINUOUS
 62
     4
 10
24083.008813585158
 20
20560.487901999972
 30
0.0
 11
21283.008813585151
 21
20560.487901999972
 31
0.0
  0
LINE
  5
1004D
  8
SUNPOU
  6
CONTINUOUS
 62
     4
 10
27001.008813585151
 20
20560.487901999972
 30
0.0
 11
24083.008813585158
 21
20560.487901999972
 31
0.0
  0
LINE
  5
1004E
  8
SUNPOU
  6
CONTINUOUS
 62
     4
 10
21283.008813585151
 20
19684.936751877311
 30
0.0
 11
21283.008813585151
 21
20240.487901999972
 31
0.0
  0
LINE
  5
1004F
  8
SUNPOU
  6
CONTINUOUS
 62
     4
 10
21325.51105658515
 20
19523.837242000001
 30
0.0
 11
21325.51105658515
 21
20240.487901999972
 31
0.0
  0
LINE
  5
10050
  8
SUNPOU
  6
CONTINUOUS
 62
     4
 10
21283.008813585151
 20
20160.487901999972
 30
0.0
 11
21043.008813585158
 21
20160.487901999972
 31
0.0
  0
LINE
  5
10051
  8
SUNPOU
  6
CONTINUOUS
 62
     4
 10
21325.51105658515
 20
20160.487901999972
 30
0.0
 11
21565.51105658515
 21
20160.487901999972
 31
0.0
  0
LINE
  5
10052
  8
SUNPOU
  6
CONTINUOUS
 62
     4
 10
21283.008813585151
 20
20160.487901999972
 30
0.0
 11
21325.51105658515
 21
20160.487901999972
 31
0.0
  0
LINE
  5
10053
  8
SUNPOU
  6
CONTINUOUS
 62
     4
 10
21283.008813585151
 20
19684.936751877311
 30
0.0
 11
21283.008813585151
 21
20240.487901999972
 31
0.0
  0
LINE
  5
10054
  8
SUNPOU
  6
CONTINUOUS
 62
     4
 10
21240.510528585161
 20
19520.48948499998
 30
0.0
 11
21240.510528585161
 21
20240.487901999972
 31
0.0
  0
LINE
  5
10055
  8
SUNPOU
  6
CONTINUOUS
 62
     4
 10
21283.008813585151
 20
20160.487901999972
 30
0.0
 11
21523.008813585151
 21
20160.487901999972
 31
0.0
  0
LINE
  5
10056
  8
SUNPOU
  6
CONTINUOUS
 62
     4
 10
21240.510528585161
 20
20160.487901999972
 30
0.0
 11
21000.510528585161
 21
20160.487901999972
 31
0.0
  0
LINE
  5
10057
  8
SUNPOU
  6
CONTINUOUS
 62
     4
 10
21283.008813585151
 20
20160.487901999972
 30
0.0
 11
21240.510528585161
 21
20160.487901999972
 31
0.0
  0
LINE
  5
10058
  8
SUNPOU
  6
CONTINUOUS
 62
     4
 10
20898.403977633221
 20
16750.486977999979
 30
0.0
 11
19985.165189216521
 21
16750.486977999979
 31
0.0
  0
LINE
  5
10059
  8
SUNPOU
  6
CONTINUOUS
 62
     4
 10
20898.403977633221
 20
19317.986977999979
 30
0.0
 11
19985.165189216521
 21
19317.986977999979
 31
0.0
  0
LINE
  5
1005A
  8
SUNPOU
  6
CONTINUOUS
 62
     4
 10
20065.165189216521
 20
16750.486977999979
 30
0.0
 11
20065.165189216521
 21
19317.986977999979
 31
0.0
  0
LINE
  5
1005B
  8
SUNPOU
  6
CONTINUOUS
 62
     4
 10
20898.403977633221
 20
14182.986977999981
 30
0.0
 11
19985.165189216521
 21
14182.986978000001
 31
0.0
  0
LINE
  5
1005C
  8
SUNPOU
  6
CONTINUOUS
 62
     4
 10
20898.403977633221
 20
16750.486977999979
 30
0.0
 11
19985.165189216521
 21
16750.486977999979
 31
0.0
  0
LINE
  5
1005D
  8
SUNPOU
  6
CONTINUOUS
 62
     4
 10
20065.165189216521
 20
14182.986978000001
 30
0.0
 11
20065.165189216521
 21
16750.486977999979
 31
0.0
  0
ARC
  5
10075
  8
1-前柱P
 10
21273.408813585142
 20
14251.386978
 30
0.0
 40
1.0
 50
0.0
 51
90.0
  0
LINE
  5
10076
  8
1-前柱P
 10
21274.408813585149
 20
14251.386978
 30
0.0
 11
21274.408813585149
 21
14249.78697799998
 31
0.0
  0
LINE
  5
10077
  8
1-前柱P
 10
21274.408813585149
 20
14249.78697799998
 30
0.0
 11
21285.608813585139
 21
14249.78697799998
 31
0.0
  0
LINE
  5
10078
  8
1-前柱P
 10
21285.608813585139
 20
14249.78697799998
 30
0.0
 11
21285.608813585161
 21
14251.386978
 31
0.0
  0
ARC
  5
10079
  8
1-前柱P
 10
21286.60881358515
 20
14251.386978
 30
0.0
 40
1.0
 50
90.0
 51
180.0
  0
ARC
  5
1007A
  8
1-中柱P
 10
21289.608813585161
 20
16818.786977999989
 30
0.0
 40
1.0
 50
90.0
 51
180.0
  0
LINE
  5
1007B
  8
1-中柱P
 10
21288.608813585161
 20
16818.786977999989
 30
0.0
 11
21288.608813585161
 21
16817.186978000002
 31
0.0
  0
LINE
  5
1007C
  8
1-中柱P
 10
21288.608813585161
 20
16817.186978000002
 30
0.0
 11
21277.408813585171
 21
16817.186978000002
 31
0.0
  0
LINE
  5
1007D
  8
1-中柱P
 10
21277.408813585171
 20
16817.186978000002
 30
0.0
 11
21277.408813585171
 21
16818.786977999989
 31
0.0
  0
ARC
  5
1007E
  8
1-中柱P
 10
21276.408813585149
 20
16818.786977999989
 30
0.0
 40
1.0
 50
0.0
 51
90.0
  0
ARC
  5
1007F
  8
1-後柱P
 10
21292.608813585131
 20
19249.936977999991
 30
0.0
 40
1.0
 50
180.0
 51
270.0
  0
LINE
  5
10080
  8
1-後柱P
 10
21291.60881358515
 20
19249.936977999991
 30
0.0
 11
21291.60881358515
 21
19251.536977999989
 31
0.0
  0
LINE
  5
10081
  8
1-後柱P
 10
21291.60881358515
 20
19251.536977999989
 30
0.0
 11
21280.408813585142
 21
19251.536977999989
 31
0.0
  0
LINE
  5
10082
  8
1-後柱P
 10
21280.408813585142
 20
19251.536977999989
 30
0.0
 11
21280.408813585142
 21
19249.936977999991
 31
0.0
  0
ARC
  5
10083
  8
1-後柱P
 10
21279.408813585142
 20
19249.936977999991
 30
0.0
 40
1.0
 50
270.0
 51
0.0
  0
LINE
  5
10084
  8
SUNPOU
  6
CONTINUOUS
 62
     4
 10
13092.04714969357
 20
8478.188374000003
 30
0.0
 11
13092.04714969357
 21
9869.1883999999955
 31
0.0
  0
LINE
  5
10085
  8
SUNPOU
  6
CONTINUOUS
 62
     4
 10
7542.047149693577
 20
8610.0781974124311
 30
0.0
 11
7542.047149693577
 21
9869.1883999999955
 31
0.0
  0
LINE
  5
10086
  8
SUNPOU
  6
CONTINUOUS
 62
     4
 10
13092.04714969357
 20
9789.1883999999991
 30
0.0
 11
7542.047149693577
 21
9789.1883999999991
 31
0.0
  0
LINE
  5
10087
  8
SUNPOU
  6
CONTINUOUS
 62
     4
 10
7692.0471496935697
 20
8536.0984380000027
 30
0.0
 11
7692.0471496935697
 21
9469.1900500000029
 31
0.0
  0
LINE
  5
10088
  8
SUNPOU
  6
CONTINUOUS
 62
     4
 10
7542.047149693577
 20
8610.0781974124311
 30
0.0
 11
7542.047149693577
 21
9469.1900500000029
 31
0.0
  0
LINE
  5
10089
  8
SUNPOU
  6
CONTINUOUS
 62
     4
 10
7692.0471496935697
 20
9389.1900500000029
 30
0.0
 11
7932.0471496935706
 21
9389.1900500000029
 31
0.0
  0
LINE
  5
1008A
  8
SUNPOU
  6
CONTINUOUS
 62
     4
 10
7542.047149693577
 20
9389.1900500000029
 30
0.0
 11
7302.0471496935779
 21
9389.1900500000029
 31
0.0
  0
LINE
  5
1008B
  8
SUNPOU
  6
CONTINUOUS
 62
     4
 10
7692.0471496935697
 20
9389.1900500000029
 30
0.0
 11
7542.047149693577
 21
9389.1900500000029
 31
0.0
  0
LINE
  5
1008C
  8
SUNPOU
  6
CONTINUOUS
 62
     4
 10
12912.04714969357
 20
8348.3741496838102
 30
0.0
 11
12912.04714969357
 21
9469.1900500000029
 31
0.0
  0
LINE
  5
1008D
  8
SUNPOU
  6
CONTINUOUS
 62
     4
 10
7692.0471496935697
 20
8536.0984380000027
 30
0.0
 11
7692.0471496935697
 21
9469.1900500000029
 31
0.0
  0
LINE
  5
1008E
  8
SUNPOU
  6
CONTINUOUS
 62
     4
 10
12912.04714969357
 20
9389.1900500000029
 30
0.0
 11
7692.0471496935697
 21
9389.1900500000029
 31
0.0
  0
LINE
  5
1008F
  8
SUNPOU
  6
CONTINUOUS
 62
     4
 10
13092.04714969357
 20
8478.188374000003
 30
0.0
 11
13092.04714969357
 21
9469.1900500000029
 31
0.0
  0
LINE
  5
10090
  8
SUNPOU
  6
CONTINUOUS
 62
     4
 10
12912.04714969357
 20
8348.3741496838102
 30
0.0
 11
12912.04714969357
 21
9469.1900500000029
 31
0.0
  0
LINE
  5
10091
  8
SUNPOU
  6
CONTINUOUS
 62
     4
 10
13092.04714969357
 20
9389.1900500000029
 30
0.0
 11
12912.04714969357
 21
9389.1900500000029
 31
0.0
  0
LINE
  5
10092
  8
SUNPOU
  6
CONTINUOUS
 62
     4
 10
7599.547149693577
 20
6241.1883740000048
 30
0.0
 11
6522.0467536935757
 21
6241.1883740000048
 31
0.0
  0
LINE
  5
10093
  8
SUNPOU
  6
CONTINUOUS
 62
     4
 10
7507.2398900942007
 20
8590.188374000003
 30
0.0
 11
6522.0467536935757
 21
8590.188374000003
 31
0.0
  0
LINE
  5
10094
  8
SUNPOU
  6
CONTINUOUS
 62
     4
 10
6602.0467536935748
 20
6241.1883740000048
 30
0.0
 11
6602.0467536935748
 21
8590.188374000003
 31
0.0
  0
LINE
  5
10095
  8
SUNPOU
  6
CONTINUOUS
 62
     4
 10
12999.54714969357
 20
6241.1883740000048
 30
0.0
 11
14082.04754569356
 21
6241.1883740000048
 31
0.0
  0
LINE
  5
10096
  8
SUNPOU
  6
CONTINUOUS
 62
     4
 10
13172.04714969357
 20
8396.688374000003
 30
0.0
 11
14082.04754569356
 21
8396.688374000003
 31
0.0
  0
LINE
  5
10097
  8
SUNPOU
  6
CONTINUOUS
 62
     4
 10
14002.04754569356
 20
6241.1883740000048
 30
0.0
 11
14002.04754569356
 21
8396.688374000003
 31
0.0
  0
LINE
  5
10098
  8
SUNPOU
  6
CONTINUOUS
 62
     4
 10
12912.04714969357
 20
6161.1883740000048
 30
0.0
 11
12912.04714969357
 21
4461.1887040000001
 31
0.0
  0
LINE
  5
10099
  8
SUNPOU
  6
CONTINUOUS
 62
     4
 10
7692.0471496935697
 20
6161.1883740000048
 30
0.0
 11
7692.0471496935697
 21
4461.1887040000001
 31
0.0
  0
LINE
  5
1009A
  8
SUNPOU
  6
CONTINUOUS
 62
     4
 10
12912.04714969357
 20
4541.1887040000001
 30
0.0
 11
7692.0471496935697
 21
4541.1887040000001
 31
0.0
  0
LINE
  5
1009B
  8
SUNPOU
  6
CONTINUOUS
 62
     4
 10
7734.5471496935788
 20
5798.536116000002
 30
0.0
 11
7734.5471496935788
 21
4861.1885390000043
 31
0.0
  0
LINE
  5
1009C
  8
SUNPOU
  6
CONTINUOUS
 62
     4
 10
7692.0471496935697
 20
6161.1883740000048
 30
0.0
 11
7692.0471496935697
 21
4861.1885390000043
 31
0.0
  0
LINE
  5
1009D
  8
SUNPOU
  6
CONTINUOUS
 62
     4
 10
7734.5471496935788
 20
4941.1885390000016
 30
0.0
 11
7974.547149693577
 21
4941.1885390000016
 31
0.0
  0
LINE
  5
1009E
  8
SUNPOU
  6
CONTINUOUS
 62
     4
 10
7692.0471496935697
 20
4941.1885390000016
 30
0.0
 11
7452.0471496935706
 21
4941.1885390000016
 31
0.0
  0
LINE
  5
1009F
  8
SUNPOU
  6
CONTINUOUS
 62
     4
 10
7734.5471496935788
 20
4941.1885390000016
 30
0.0
 11
7692.0471496935697
 21
4941.1885390000016
 31
0.0
  0
LINE
  5
100A0
  8
SUNPOU
  6
CONTINUOUS
 62
     4
 10
12869.54714969357
 20
5798.536116000002
 30
0.0
 11
12869.54714969357
 21
4861.1885390000043
 31
0.0
  0
LINE
  5
100A1
  8
SUNPOU
  6
CONTINUOUS
 62
     4
 10
12912.04714969357
 20
6161.1883740000048
 30
0.0
 11
12912.04714969357
 21
4861.1885390000043
 31
0.0
  0
LINE
  5
100A2
  8
SUNPOU
  6
CONTINUOUS
 62
     4
 10
12869.54714969357
 20
4941.1885390000016
 30
0.0
 11
12629.54714969357
 21
4941.1885390000016
 31
0.0
  0
LINE
  5
100A3
  8
SUNPOU
  6
CONTINUOUS
 62
     4
 10
12912.04714969357
 20
4941.1885390000016
 30
0.0
 11
13152.04714969357
 21
4941.1885390000016
 31
0.0
  0
LINE
  5
100A4
  8
SUNPOU
  6
CONTINUOUS
 62
     4
 10
12869.54714969357
 20
4941.1885390000016
 30
0.0
 11
12912.04714969357
 21
4941.1885390000016
 31
0.0
  0
LINE
  5
100A5
  8
SUNPOU
  6
CONTINUOUS
 62
     4
 10
10302.047149693581
 20
5798.536116000002
 30
0.0
 11
10302.047149693581
 21
4861.1885390000043
 31
0.0
  0
LINE
  5
100A6
  8
SUNPOU
  6
CONTINUOUS
 62
     4
 10
12869.54714969357
 20
5798.536116000002
 30
0.0
 11
12869.54714969357
 21
4861.1885390000043
 31
0.0
  0
LINE
  5
100A7
  8
SUNPOU
  6
CONTINUOUS
 62
     4
 10
10302.047149693581
 20
4941.1885390000016
 30
0.0
 11
12869.54714969357
 21
4941.1885390000016
 31
0.0
  0
LINE
  5
100A8
  8
SUNPOU
  6
CONTINUOUS
 62
     4
 10
10302.047149693581
 20
5798.536116000002
 30
0.0
 11
10302.047149693581
 21
4861.1885390000043
 31
0.0
  0
LINE
  5
100A9
  8
SUNPOU
  6
CONTINUOUS
 62
     4
 10
7734.5471496935788
 20
5798.536116000002
 30
0.0
 11
7734.5471496935788
 21
4861.1885390000043
 31
0.0
  0
LINE
  5
100AA
  8
SUNPOU
  6
CONTINUOUS
 62
     4
 10
10302.047149693581
 20
4941.1885390000016
 30
0.0
 11
7734.5471496935788
 21
4941.1885390000016
 31
0.0
  0
LINE
  5
100AB
  8
SUNPOU
  6
CONTINUOUS
 62
     4
 10
27083.510528585171
 20
8669.6883999999955
 30
0.0
 11
27083.510528585171
 21
9869.1329740000092
 31
0.0
  0
LINE
  5
100AC
  8
SUNPOU
  6
CONTINUOUS
 62
     4
 10
21197.510528585161
 20
8669.6883999999955
 30
0.0
 11
21197.510528585161
 21
9869.1329740000092
 31
0.0
  0
LINE
  5
100AD
  8
SUNPOU
  6
CONTINUOUS
 62
     4
 10
27083.510528585171
 20
9789.1329740000092
 30
0.0
 11
21200.510528585161
 21
9789.1329740000092
 31
0.0
  0
LINE
  5
100AE
  8
SUNPOU
  6
CONTINUOUS
 62
     4
 10
21240.510528585161
 20
8669.6883999999955
 30
0.0
 11
21240.510528585161
 21
9469.1900500000029
 31
0.0
  0
LINE
  5
100AF
  8
SUNPOU
  6
CONTINUOUS
 62
     4
 10
21197.510528585161
 20
8669.6883999999955
 30
0.0
 11
21197.510528585161
 21
9469.1900500000029
 31
0.0
  0
LINE
  5
100B0
  8
SUNPOU
  6
CONTINUOUS
 62
     4
 10
21240.510528585161
 20
9389.1900500000029
 30
0.0
 11
21480.51052858515
 21
9389.1900500000029
 31
0.0
  0
LINE
  5
100B1
  8
SUNPOU
  6
CONTINUOUS
 62
     4
 10
21200.510528585161
 20
9389.1900500000029
 30
0.0
 11
20960.510528585161
 21
9389.1900500000029
 31
0.0
  0
LINE
  5
100B2
  8
SUNPOU
  6
CONTINUOUS
 62
     4
 10
21240.510528585161
 20
9389.1900500000029
 30
0.0
 11
21200.510528585161
 21
9389.1900500000029
 31
0.0
  0
LINE
  5
100B3
  8
SUNPOU
  6
CONTINUOUS
 62
     4
 10
27043.510528585171
 20
8539.6884659999996
 30
0.0
 11
27043.510528585171
 21
9469.1900500000029
 31
0.0
  0
LINE
  5
100B4
  8
SUNPOU
  6
CONTINUOUS
 62
     4
 10
27083.510528585171
 20
8669.6883999999955
 30
0.0
 11
27083.510528585171
 21
9469.1900500000029
 31
0.0
  0
LINE
  5
100B5
  8
SUNPOU
  6
CONTINUOUS
 62
     4
 10
27043.510528585171
 20
9389.1900500000029
 30
0.0
 11
26803.510528585171
 21
9389.1900500000029
 31
0.0
  0
LINE
  5
100B6
  8
SUNPOU
  6
CONTINUOUS
 62
     4
 10
27083.510528585171
 20
9389.1900500000029
 30
0.0
 11
27323.510528585171
 21
9389.1900500000029
 31
0.0
  0
LINE
  5
100B7
  8
SUNPOU
  6
CONTINUOUS
 62
     4
 10
27043.510528585171
 20
9389.1900500000029
 30
0.0
 11
27083.510528585171
 21
9389.1900500000029
 31
0.0
  0
LINE
  5
100B8
  8
SUNPOU
  6
CONTINUOUS
 62
     4
 10
24040.510528585161
 20
8539.6884659999996
 30
0.0
 11
24040.510528585161
 21
9469.1900500000029
 31
0.0
  0
LINE
  5
100B9
  8
SUNPOU
  6
CONTINUOUS
 62
     4
 10
27043.510528585171
 20
8539.6884659999996
 30
0.0
 11
27043.510528585171
 21
9469.1900500000029
 31
0.0
  0
LINE
  5
100BA
  8
SUNPOU
  6
CONTINUOUS
 62
     4
 10
24040.510528585161
 20
9389.1900500000029
 30
0.0
 11
27043.510528585171
 21
9389.1900500000029
 31
0.0
  0
LINE
  5
100BB
  8
SUNPOU
  6
CONTINUOUS
 62
     4
 10
27131.013167585159
 20
6241.1883740000048
 30
0.0
 11
28574.112779289891
 21
6241.1883740000048
 31
0.0
  0
LINE
  5
100BC
  8
SUNPOU
  6
CONTINUOUS
 62
     4
 10
27163.510528585171
 20
8590.1883999999973
 30
0.0
 11
28574.11277928991
 21
8590.1883999999973
 31
0.0
  0
LINE
  5
100BD
  8
SUNPOU
  6
CONTINUOUS
 62
     4
 10
28494.112779289891
 20
6241.1883740000048
 30
0.0
 11
28494.11277928991
 21
8590.1883999999973
 31
0.0
  0
LINE
  5
100BE
  8
SUNPOU
  6
CONTINUOUS
 62
     4
 10
27131.013167585159
 20
6241.1883740000048
 30
0.0
 11
27931.01382758516
 21
6241.1883740000048
 31
0.0
  0
LINE
  5
100BF
  8
SUNPOU
  6
CONTINUOUS
 62
     4
 10
27038.514223585142
 20
8132.6883740000021
 30
0.0
 11
27931.01382758516
 21
8132.6883740000021
 31
0.0
  0
LINE
  5
100C0
  8
SUNPOU
  6
CONTINUOUS
 62
     4
 10
27851.01382758516
 20
6241.1883740000048
 30
0.0
 11
27851.01382758516
 21
8132.6883740000021
 31
0.0
  0
LINE
  5
100C1
  8
SUNPOU
  6
CONTINUOUS
 62
     4
 10
24037.51052858515
 20
6161.1883740000048
 30
0.0
 11
24037.51052858515
 21
5261.1883740000048
 31
0.0
  0
LINE
  5
100C2
  8
SUNPOU
  6
CONTINUOUS
 62
     4
 10
21325.510528585161
 20
6061.1885390000034
 30
0.0
 11
21325.510528585161
 21
5261.1883740000048
 31
0.0
  0
LINE
  5
100C3
  8
SUNPOU
  6
CONTINUOUS
 62
     4
 10
24037.51052858515
 20
5341.1883740000048
 30
0.0
 11
21325.510528585161
 21
5341.1883740000048
 31
0.0
  0
LINE
  5
100C4
  8
SUNPOU
  6
CONTINUOUS
 62
     4
 10
27043.470575637639
 20
6161.1883740000048
 30
0.0
 11
27043.470575637639
 21
4461.1887040000574
 31
0.0
  0
LINE
  5
100C5
  8
SUNPOU
  6
CONTINUOUS
 62
     4
 10
21240.510528585161
 20
6061.1885390000034
 30
0.0
 11
21240.510528585161
 21
4461.1887040000574
 31
0.0
  0
LINE
  5
100C6
  8
SUNPOU
  6
CONTINUOUS
 62
     4
 10
27043.470575637639
 20
4541.1887040000593
 30
0.0
 11
21240.510528585161
 21
4541.1887040000593
 31
0.0
  0
LINE
  5
100C7
  8
SUNPOU
  6
CONTINUOUS
 62
     4
 10
27001.010528585171
 20
5798.536116000002
 30
0.0
 11
27001.010528585171
 21
4861.1885390000043
 31
0.0
  0
LINE
  5
100C8
  8
SUNPOU
  6
CONTINUOUS
 62
     4
 10
27043.470575637639
 20
6161.1883740000048
 30
0.0
 11
27043.470575637639
 21
4861.1885390000043
 31
0.0
  0
LINE
  5
100C9
  8
SUNPOU
  6
CONTINUOUS
 62
     4
 10
27001.010528585171
 20
4941.1885390000016
 30
0.0
 11
26761.010528585171
 21
4941.1885390000016
 31
0.0
  0
LINE
  5
100CA
  8
SUNPOU
  6
CONTINUOUS
 62
     4
 10
27043.470575637639
 20
4941.1885390000016
 30
0.0
 11
27283.470575637639
 21
4941.1885390000016
 31
0.0
  0
LINE
  5
100CB
  8
SUNPOU
  6
CONTINUOUS
 62
     4
 10
27001.010528585171
 20
4941.1885390000016
 30
0.0
 11
27043.470575637639
 21
4941.1885390000016
 31
0.0
  0
LINE
  5
100CC
  8
SUNPOU
  6
CONTINUOUS
 62
     4
 10
24083.010528585161
 20
5798.536116000002
 30
0.0
 11
24083.010528585161
 21
4861.1885390000043
 31
0.0
  0
LINE
  5
100CD
  8
SUNPOU
  6
CONTINUOUS
 62
     4
 10
27001.010528585171
 20
5798.536116000002
 30
0.0
 11
27001.010528585171
 21
4861.1885390000043
 31
0.0
  0
LINE
  5
100CE
  8
SUNPOU
  6
CONTINUOUS
 62
     4
 10
24083.010528585161
 20
4941.1885390000016
 30
0.0
 11
27001.010528585171
 21
4941.1885390000016
 31
0.0
  0
LINE
  5
100CF
  8
SUNPOU
  6
CONTINUOUS
 62
     4
 10
26907.010528585171
 20
6061.1885390000034
 30
0.0
 11
26907.010528585171
 21
5261.1883740000048
 31
0.0
  0
LINE
  5
100D0
  8
SUNPOU
  6
CONTINUOUS
 62
     4
 10
24177.010528585171
 20
6061.1885390000034
 30
0.0
 11
24177.010528585171
 21
5261.1883740000048
 31
0.0
  0
LINE
  5
100D1
  8
SUNPOU
  6
CONTINUOUS
 62
     4
 10
26907.010528585171
 20
5341.1883740000048
 30
0.0
 11
24177.010528585171
 21
5341.1883740000048
 31
0.0
  0
LINE
  5
100D2
  8
SUNPOU
  6
CONTINUOUS
 62
     4
 10
21283.010528585161
 20
5798.536116000002
 30
0.0
 11
21283.010528585161
 21
4861.1885390000043
 31
0.0
  0
LINE
  5
100D3
  8
SUNPOU
  6
CONTINUOUS
 62
     4
 10
21240.510528585161
 20
6061.1885390000034
 30
0.0
 11
21240.510528585161
 21
4861.1885390000043
 31
0.0
  0
LINE
  5
100D4
  8
SUNPOU
  6
CONTINUOUS
 62
     4
 10
21283.010528585161
 20
4941.1885390000016
 30
0.0
 11
21523.010528585161
 21
4941.1885390000016
 31
0.0
  0
LINE
  5
100D5
  8
SUNPOU
  6
CONTINUOUS
 62
     4
 10
21240.510528585161
 20
4941.1885390000016
 30
0.0
 11
21000.510528585161
 21
4941.1885390000016
 31
0.0
  0
LINE
  5
100D6
  8
SUNPOU
  6
CONTINUOUS
 62
     4
 10
21283.010528585161
 20
4941.1885390000016
 30
0.0
 11
21240.510528585161
 21
4941.1885390000016
 31
0.0
  0
LINE
  5
100D7
  8
SUNPOU
  6
CONTINUOUS
 62
     4
 10
24083.010528585161
 20
5798.536116000002
 30
0.0
 11
24083.010528585161
 21
4861.1885390000043
 31
0.0
  0
LINE
  5
100D8
  8
SUNPOU
  6
CONTINUOUS
 62
     4
 10
21283.010528585161
 20
5798.536116000002
 30
0.0
 11
21283.010528585161
 21
4861.1885390000043
 31
0.0
  0
LINE
  5
100D9
  8
SUNPOU
  6
CONTINUOUS
 62
     4
 10
24083.010528585161
 20
4941.1885390000016
 30
0.0
 11
21283.010528585161
 21
4941.1885390000016
 31
0.0
  0
LINE
  5
100DA
  8
SUNPOU
  6
CONTINUOUS
 62
     4
 10
24040.510528585161
 20
8539.6884659999996
 30
0.0
 11
24040.510528585161
 21
9469.1900500000029
 31
0.0
  0
LINE
  5
100DB
  8
SUNPOU
  6
CONTINUOUS
 62
     4
 10
21240.510528585161
 20
8669.6883999999955
 30
0.0
 11
21240.510528585161
 21
9469.1900500000029
 31
0.0
  0
LINE
  5
100DC
  8
SUNPOU
  6
CONTINUOUS
 62
     4
 10
24040.510528585161
 20
9389.1900500000029
 30
0.0
 11
21240.510528585161
 21
9389.1900500000029
 31
0.0
  0
LINE
  5
100DD
  8
SUNPOU
  6
CONTINUOUS
 62
     4
 10
21160.510528585161
 20
6241.1883740000048
 30
0.0
 11
20075.68813029076
 21
6241.1883740000048
 31
0.0
  0
LINE
  5
100DE
  8
SUNPOU
  6
CONTINUOUS
 62
     4
 10
21160.510528585161
 20
8261.1883740000048
 30
0.0
 11
20075.68813029076
 21
8261.1883740000067
 31
0.0
  0
LINE
  5
100DF
  8
SUNPOU
  6
CONTINUOUS
 62
     4
 10
20155.68813029076
 20
6241.1883740000048
 30
0.0
 11
20155.68813029076
 21
8261.1883740000067
 31
0.0
  0
TEXT
  5
100E0
  8
0
  6
CONTINUOUS
 62
     7
 10
20075.68813029076
 20
6588.1883740000094
 30
0.0
 40
160.0
  1
有効高サ2020
 50
90.0
  0
TEXT
  5
100E1
  8
0
  6
CONTINUOUS
 62
     7
 10
22373.843861918482
 20
9469.1900500000029
 30
0.0
 40
160.0
  1
2800
  0
TEXT
  5
100E2
  8
0
  6
CONTINUOUS
 62
     7
 10
22416.343861918482
 20
5021.1885390000043
 30
0.0
 40
160.0
  1
2800
  0
TEXT
  5
100E3
  8
0
  6
CONTINUOUS
 62
     7
 10
20640.509868585181
 20
5021.1883080000043
 30
0.0
 40
160.0
  1
42.5
  0
TEXT
  5
100E4
  8
0
  6
CONTINUOUS
 62
     7
 10
24782.010528585161
 20
5421.1883740000048
 30
0.0
 40
160.0
  1
有効開口巾2730
  0
TEXT
  5
100E5
  8
0
  6
CONTINUOUS
 62
     7
 10
25275.3438619185
 20
5021.1885390000043
 30
0.0
 40
160.0
  1
2918
  0
TEXT
  5
100E6
  8
0
  6
CONTINUOUS
 62
     7
 10
27143.33355958516
 20
5028.7357170000032
 30
0.0
 40
160.0
  1
42.5
  0
TEXT
  5
100E7
  8
0
  6
CONTINUOUS
 62
     7
 10
23861.990552111401
 20
4621.1887040000584
 30
0.0
 40
160.0
  1
5803
  0
TEXT
  5
100E8
  8
0
  6
CONTINUOUS
 62
     7
 10
21934.843861918482
 20
5421.1883740000048
 30
0.0
 40
160.0
  1
有効開口巾2712
  0
TEXT
  5
100E9
  8
0
  6
CONTINUOUS
 62
     7
 10
27771.01382758516
 20
6264.2717073333424
 30
0.0
 40
160.0
  1
有効開口高サ1891.5
 50
90.0
  0
TEXT
  5
100EA
  8
0
  6
CONTINUOUS
 62
     7
 10
28414.112779289891
 20
6610.3550536666726
 30
0.0
 40
160.0
  1
2349（2589）
 50
90.0
  0
TEXT
  5
100EB
  8
0
  6
CONTINUOUS
 62
     7
 10
25275.3438619185
 20
9469.1900500000029
 30
0.0
 40
160.0
  1
3003
  0
TEXT
  5
100EC
  8
0
  6
CONTINUOUS
 62
     7
 10
27173.318514585171
 20
9469.1893240000081
 30
0.0
 40
160.0
  1
43
  0
TEXT
  5
100ED
  8
0
  6
CONTINUOUS
 62
     7
 10
20823.044708585141
 20
9469.1893240000081
 30
0.0
 40
160.0
  1
43
  0
TEXT
  5
100EE
  8
0
  6
CONTINUOUS
 62
     7
 10
23848.677195251839
 20
9869.1329740000092
 30
0.0
 40
160.0
  1
5889
  0
TEXT
  5
100EF
  8
0
  6
CONTINUOUS
 62
     7
 10
8618.2971496935806
 20
5021.1885390000043
 30
0.0
 40
160.0
  1
2567.5
  0
TEXT
  5
100F0
  8
0
  6
CONTINUOUS
 62
     7
 10
11185.79714969357
 20
5021.1885390000043
 30
0.0
 40
160.0
  1
2567.5
  0
TEXT
  5
100F1
  8
0
  6
CONTINUOUS
 62
     7
 10
13014.03676369357
 20
5022.1790570000012
 30
0.0
 40
160.0
  1
42.5
  0
TEXT
  5
100F2
  8
0
  6
CONTINUOUS
 62
     7
 10
7092.0454996935732
 20
5021.1883080000043
 30
0.0
 40
160.0
  1
42.5
  0
TEXT
  5
100F3
  8
0
  6
CONTINUOUS
 62
     7
 10
10022.047149693561
 20
4621.1887040000001
 30
0.0
 40
160.0
  1
5220
  0
TEXT
  5
100F4
  8
0
  6
CONTINUOUS
 62
     7
 10
13922.04754569356
 20
6326.9383740000076
 30
0.0
 40
160.0
  1
2155.5（2395.5）
 50
90.0
  0
TEXT
  5
100F5
  8
0
  6
CONTINUOUS
 62
     7
 10
6522.0467536935739
 20
6610.3550406666718
 30
0.0
 40
160.0
  1
2349（2589）
 50
90.0
  0
TEXT
  5
100F6
  8
0
  6
CONTINUOUS
 62
     7
 10
13199.722298162011
 20
9469.1900500000029
 30
0.0
 40
160.0
  1
180
  0
TEXT
  5
100F7
  8
0
  6
CONTINUOUS
 62
     7
 10
10022.047149693561
 20
9469.1900500000029
 30
0.0
 40
160.0
  1
5220
  0
TEXT
  5
100F8
  8
0
  6
CONTINUOUS
 62
     7
 10
7128.7138163602458
 20
9469.1900500000029
 30
0.0
 40
160.0
  1
150
  0
TEXT
  5
100F9
  8
0
  6
CONTINUOUS
 62
     7
 10
10037.047149693581
 20
9869.1883999999955
 30
0.0
 40
160.0
  1
5550
  0
TEXT
  5
100FF
  8
0
  6
CONTINUOUS
 62
     7
 10
19985.165189216521
 20
15066.73697799999
 30
0.0
 40
160.0
  1
2567.5
 50
90.0
  0
TEXT
  5
10100
  8
0
  6
CONTINUOUS
 62
     7
 10
19985.165189216521
 20
17634.23697799999
 30
0.0
 40
160.0
  1
2567.5
 50
90.0
  0
TEXT
  5
10101
  8
0
  6
CONTINUOUS
 62
     7
 10
20662.086885585159
 20
20240.486185999969
 30
0.0
 40
160.0
  1
42.5
  0
TEXT
  5
10102
  8
0
  6
CONTINUOUS
 62
     7
 10
21340.182852585142
 20
20259.83004199999
 30
0.0
 40
160.0
  1
42.5
  0
TEXT
  5
10103
  8
0
  6
CONTINUOUS
 62
     7
 10
25275.34214691849
 20
20640.487901999972
 30
0.0
 40
160.0
  1
2918
  0
TEXT
  5
10104
  8
0
  6
CONTINUOUS
 62
     7
 10
22416.34214691849
 20
20640.487901999972
 30
0.0
 40
160.0
  1
2800
  0
TEXT
  5
10108
  8
0
  6
CONTINUOUS
 62
     7
 10
23490.88700046482
 20
20259.83004199999
 30
0.0
 40
160.0
  1
42.5
  0
TEXT
  5
10109
  8
0
  6
CONTINUOUS
 62
     7
 10
24251.53656899475
 20
20253.095746796189
 30
0.0
 40
160.0
  1
758
  0
TEXT
  5
1010A
  8
0
  6
CONTINUOUS
 62
     7
 10
25014.17509725182
 20
20250.673481649821
 30
0.0
 40
160.0
  1
701
  0
TEXT
  5
1010B
  8
0
  6
CONTINUOUS
 62
     7
 10
25719.177459251809
 20
20240.487901999972
 30
0.0
 40
160.0
  1
701
  0
TEXT
  5
1010C
  8
0
  6
CONTINUOUS
 62
     7
 10
26408.677459251809
 20
20240.487901999972
 30
0.0
 40
160.0
  1
758
  0
TEXT
  5
10119
  8
0
  6
CONTINUOUS
 62
     7
 10
27141.93272058513
 20
20240.487901999972
 30
0.0
 40
160.0
  1
42.5
  0
TEXT
  5
1011A
  8
0
  6
CONTINUOUS
 62
     7
 10
9653.9588338688845
 20
12780.48618599998
 30
0.0
 40
160.0
  1
ケラバ外寸5889
  0
TEXT
  5
1011B
  8
0
  6
CONTINUOUS
 62
     7
 10
13376.10581586887
 20
20240.486185999969
 30
0.0
 40
160.0
  1
85.5
  0
TEXT
  5
1011C
  8
0
  6
CONTINUOUS
 62
     7
 10
11555.29216720222
 20
20240.487901999972
 30
0.0
 40
160.0
  1
2918
  0
TEXT
  5
1011D
  8
0
  6
CONTINUOUS
 62
     7
 10
8696.2923292022278
 20
20240.487901999972
 30
0.0
 40
160.0
  1
2800
  0
TEXT
  5
1011E
  8
0
  6
CONTINUOUS
 62
     7
 10
6899.6404360419256
 20
20240.486185999969
 30
0.0
 40
160.0
  1
85.5
  0
TEXT
  5
1011F
  8
0
  6
CONTINUOUS
 62
     7
 10
13760.58475486301
 20
19685.249039999981
 30
0.0
 40
160.0
  1
22
 50
90.0
  0
TEXT
  5
10120
  8
0
  6
CONTINUOUS
 62
     7
 10
14130.45877186888
 20
19618.968500389201
 30
0.0
 40
160.0
  1
222.5
 50
90.0
  0
TEXT
  5
10121
  8
0
  6
CONTINUOUS
 62
     7
 10
14130.45877186888
 20
18321.510483731279
 30
0.0
 40
160.0
  1
1108.5
 50
90.0
  0
TEXT
  5
10122
  8
0
  6
CONTINUOUS
 62
     7
 10
14130.458771868891
 20
13326.49734959056
 30
0.0
 40
160.0
  1
192.5
 50
90.0
  0
TEXT
  5
10123
  8
0
  6
CONTINUOUS
 62
     7
 10
14130.458447868859
 20
17213.320311333329
 30
0.0
 40
160.0
  1
1459
 50
90.0
  0
TEXT
  5
10124
  8
0
  6
CONTINUOUS
 62
     7
 10
14130.458447868859
 20
15754.320311333309
 30
0.0
 40
160.0
  1
1459
 50
90.0
  0
TEXT
  5
10125
  8
0
  6
CONTINUOUS
 62
     7
 10
14130.458447868859
 20
14403.90364466666
 30
0.0
 40
160.0
  1
1108.5
 50
90.0
  0
ARC
  5
10126
  8
0
  6
BYBLOCK
 62
     0
 10
14210.45844786887
 20
15291.48697799999
 30
0.0
 40
15.0
 50
270.0
 51
90.0
  0
ARC
  5
10127
  8
0
  6
BYBLOCK
 62
     0
 10
14210.45844786887
 20
15291.48697799999
 30
0.0
 40
15.0
 50
90.0
 51
270.0
  0
ARC
  5
10128
  8
0
  6
BYBLOCK
 62
     0
 10
14210.45844786887
 20
14182.986977999981
 30
0.0
 40
15.0
 50
90.0
 51
270.0
  0
ARC
  5
10129
  8
0
  6
BYBLOCK
 62
     0
 10
14210.45844786887
 20
14182.986977999981
 30
0.0
 40
15.0
 50
270.0
 51
90.0
  0
ARC
  5
1012A
  8
0
  6
BYBLOCK
 62
     0
 10
14210.458447868879
 20
16750.486977999979
 30
0.0
 40
15.0
 50
270.0
 51
90.0
  0
ARC
  5
1012B
  8
0
  6
BYBLOCK
 62
     0
 10
14210.458447868879
 20
16750.486977999979
 30
0.0
 40
15.0
 50
90.0
 51
270.0
  0
ARC
  5
1012C
  8
0
  6
BYBLOCK
 62
     0
 10
14210.458447868879
 20
15291.48697799999
 30
0.0
 40
15.0
 50
90.0
 51
270.0
  0
ARC
  5
1012D
  8
0
  6
BYBLOCK
 62
     0
 10
14210.458447868879
 20
15291.48697799999
 30
0.0
 40
15.0
 50
270.0
 51
90.0
  0
ARC
  5
1012E
  8
0
  6
BYBLOCK
 62
     0
 10
14210.458447868879
 20
18209.48697799999
 30
0.0
 40
15.0
 50
270.0
 51
90.0
  0
ARC
  5
1012F
  8
0
  6
BYBLOCK
 62
     0
 10
14210.458447868879
 20
18209.48697799999
 30
0.0
 40
15.0
 50
90.0
 51
270.0
  0
ARC
  5
10130
  8
0
  6
BYBLOCK
 62
     0
 10
14210.458447868879
 20
16750.486977999979
 30
0.0
 40
15.0
 50
90.0
 51
270.0
  0
ARC
  5
10131
  8
0
  6
BYBLOCK
 62
     0
 10
14210.458447868879
 20
16750.486977999979
 30
0.0
 40
15.0
 50
270.0
 51
90.0
  0
ARC
  5
10132
  8
0
  6
BYBLOCK
 62
     0
 10
14210.45877186888
 20
14182.986252000001
 30
0.0
 40
15.0
 50
270.0
 51
90.0
  0
ARC
  5
10133
  8
0
  6
BYBLOCK
 62
     0
 10
14210.45877186888
 20
14182.986252000001
 30
0.0
 40
15.0
 50
90.0
 51
270.0
  0
ARC
  5
10134
  8
0
  6
BYBLOCK
 62
     0
 10
14210.45877186888
 20
13990.486977999981
 30
0.0
 40
15.0
 50
90.0
 51
270.0
  0
ARC
  5
10135
  8
0
  6
BYBLOCK
 62
     0
 10
14210.45877186888
 20
13990.486977999981
 30
0.0
 40
15.0
 50
270.0
 51
90.0
  0
ARC
  5
10136
  8
0
  6
BYBLOCK
 62
     0
 10
14210.45877186888
 20
19317.986977999961
 30
0.0
 40
15.0
 50
270.0
 51
90.0
  0
ARC
  5
10137
  8
0
  6
BYBLOCK
 62
     0
 10
14210.45877186888
 20
19317.986977999961
 30
0.0
 40
15.0
 50
90.0
 51
270.0
  0
ARC
  5
10138
  8
0
  6
BYBLOCK
 62
     0
 10
14210.45877186888
 20
18209.48697799999
 30
0.0
 40
15.0
 50
90.0
 51
270.0
  0
ARC
  5
10139
  8
0
  6
BYBLOCK
 62
     0
 10
14210.45877186888
 20
18209.48697799999
 30
0.0
 40
15.0
 50
270.0
 51
90.0
  0
ARC
  5
1013A
  8
0
  6
BYBLOCK
 62
     0
 10
14210.45877186888
 20
19317.986977999961
 30
0.0
 40
15.0
 50
90.0
 51
270.0
  0
ARC
  5
1013B
  8
0
  6
BYBLOCK
 62
     0
 10
14210.45877186888
 20
19317.986977999961
 30
0.0
 40
15.0
 50
270.0
 51
90.0
  0
ARC
  5
1013C
  8
0
  6
BYBLOCK
 62
     0
 10
14210.45877186888
 20
19540.486845999982
 30
0.0
 40
15.0
 50
270.0
 51
90.0
  0
ARC
  5
1013D
  8
0
  6
BYBLOCK
 62
     0
 10
14210.45877186888
 20
19540.486845999982
 30
0.0
 40
15.0
 50
90.0
 51
270.0
  0
ARC
  5
1013E
  8
0
  6
BYBLOCK
 62
     0
 10
13810.45943086887
 20
19500.48671399997
 30
0.0
 40
15.0
 50
270.0
 51
90.0
  0
ARC
  5
1013F
  8
0
  6
BYBLOCK
 62
     0
 10
13810.45943086887
 20
19500.48671399997
 30
0.0
 40
15.0
 50
90.0
 51
270.0
  0
ARC
  5
10140
  8
0
  6
BYBLOCK
 62
     0
 10
13810.45943086887
 20
19540.486845999982
 30
0.0
 40
15.0
 50
90.0
 51
270.0
  0
ARC
  5
10141
  8
0
  6
BYBLOCK
 62
     0
 10
13810.45943086887
 20
19540.486845999982
 30
0.0
 40
15.0
 50
270.0
 51
90.0
  0
ARC
  5
10142
  8
0
  6
BYBLOCK
 62
     0
 10
7562.958995868893
 20
20160.487901999972
 30
0.0
 40
15.0
 50
0.0
 51
180.0
  0
ARC
  5
10143
  8
0
  6
BYBLOCK
 62
     0
 10
7562.958995868893
 20
20160.487901999972
 30
0.0
 40
15.0
 50
180.0
 51
0.0
  0
ARC
  5
10144
  8
0
  6
BYBLOCK
 62
     0
 10
7477.458995868893
 20
20160.487901999972
 30
0.0
 40
15.0
 50
180.0
 51
0.0
  0
ARC
  5
10145
  8
0
  6
BYBLOCK
 62
     0
 10
7477.458995868893
 20
20160.487901999972
 30
0.0
 40
15.0
 50
0.0
 51
180.0
  0
ARC
  5
10146
  8
0
  6
BYBLOCK
 62
     0
 10
10362.95899586889
 20
20160.487901999972
 30
0.0
 40
15.0
 50
180.0
 51
0.0
  0
ARC
  5
10147
  8
0
  6
BYBLOCK
 62
     0
 10
10362.95899586889
 20
20160.487901999972
 30
0.0
 40
15.0
 50
0.0
 51
180.0
  0
ARC
  5
10148
  8
0
  6
BYBLOCK
 62
     0
 10
7562.958995868893
 20
20160.487901999972
 30
0.0
 40
15.0
 50
0.0
 51
180.0
  0
ARC
  5
10149
  8
0
  6
BYBLOCK
 62
     0
 10
7562.958995868893
 20
20160.487901999972
 30
0.0
 40
15.0
 50
180.0
 51
0.0
  0
ARC
  5
1014A
  8
0
  6
BYBLOCK
 62
     0
 10
13280.95867186889
 20
20160.487901999972
 30
0.0
 40
15.0
 50
180.0
 51
0.0
  0
ARC
  5
1014B
  8
0
  6
BYBLOCK
 62
     0
 10
13280.95867186889
 20
20160.487901999972
 30
0.0
 40
15.0
 50
0.0
 51
180.0
  0
ARC
  5
1014C
  8
0
  6
BYBLOCK
 62
     0
 10
10362.95899586889
 20
20160.487901999972
 30
0.0
 40
15.0
 50
0.0
 51
180.0
  0
ARC
  5
1014D
  8
0
  6
BYBLOCK
 62
     0
 10
10362.95899586889
 20
20160.487901999972
 30
0.0
 40
15.0
 50
180.0
 51
0.0
  0
ARC
  5
1014E
  8
0
  6
BYBLOCK
 62
     0
 10
13280.95867186889
 20
20160.487901999972
 30
0.0
 40
15.0
 50
180.0
 51
0.0
  0
ARC
  5
1014F
  8
0
  6
BYBLOCK
 62
     0
 10
13280.95867186889
 20
20160.487901999972
 30
0.0
 40
15.0
 50
0.0
 51
180.0
  0
ARC
  5
10150
  8
0
  6
BYBLOCK
 62
     0
 10
13366.45867186889
 20
20160.487901999972
 30
0.0
 40
15.0
 50
0.0
 51
180.0
  0
ARC
  5
10151
  8
0
  6
BYBLOCK
 62
     0
 10
13366.45867186889
 20
20160.487901999972
 30
0.0
 40
15.0
 50
180.0
 51
0.0
  0
ARC
  5
10152
  8
0
  6
BYBLOCK
 62
     0
 10
13366.45867186887
 20
12700.48618599998
 30
0.0
 40
15.0
 50
180.0
 51
0.0
  0
ARC
  5
10153
  8
0
  6
BYBLOCK
 62
     0
 10
13366.45867186887
 20
12700.48618599998
 30
0.0
 40
15.0
 50
0.0
 51
180.0
  0
ARC
  5
10154
  8
0
  6
BYBLOCK
 62
     0
 10
7477.4589958688903
 20
12700.48618599998
 30
0.0
 40
15.0
 50
0.0
 51
180.0
  0
ARC
  5
10155
  8
0
  6
BYBLOCK
 62
     0
 10
7477.4589958688903
 20
12700.48618599998
 30
0.0
 40
15.0
 50
180.0
 51
0.0
  0
ARC
  5
10156
  8
0
  6
BYBLOCK
 62
     0
 10
27001.010792585152
 20
20160.487901999972
 30
0.0
 40
15.0
 50
180.0
 51
0.0
  0
ARC
  5
10157
  8
0
  6
BYBLOCK
 62
     0
 10
27001.010792585152
 20
20160.487901999972
 30
0.0
 40
15.0
 50
0.0
 51
180.0
  0
ARC
  5
10158
  8
0
  6
BYBLOCK
 62
     0
 10
27043.510792585152
 20
20160.487901999972
 30
0.0
 40
15.0
 50
0.0
 51
180.0
  0
ARC
  5
10159
  8
0
  6
BYBLOCK
 62
     0
 10
27043.510792585152
 20
20160.487901999972
 30
0.0
 40
15.0
 50
180.0
 51
0.0
  0
ARC
  5
1018A
  8
0
  6
BYBLOCK
 62
     0
 10
26243.010792585152
 20
20160.487901999972
 30
0.0
 40
15.0
 50
0.0
 51
180.0
  0
ARC
  5
1018B
  8
0
  6
BYBLOCK
 62
     0
 10
26243.010792585152
 20
20160.487901999972
 30
0.0
 40
15.0
 50
180.0
 51
0.0
  0
ARC
  5
1018C
  8
0
  6
BYBLOCK
 62
     0
 10
27001.010792585152
 20
20160.487901999972
 30
0.0
 40
15.0
 50
180.0
 51
0.0
  0
ARC
  5
1018D
  8
0
  6
BYBLOCK
 62
     0
 10
27001.010792585152
 20
20160.487901999972
 30
0.0
 40
15.0
 50
0.0
 51
180.0
  0
ARC
  5
1018E
  8
0
  6
BYBLOCK
 62
     0
 10
25542.010792585152
 20
20160.487901999972
 30
0.0
 40
15.0
 50
0.0
 51
180.0
  0
ARC
  5
1018F
  8
0
  6
BYBLOCK
 62
     0
 10
25542.010792585152
 20
20160.487901999972
 30
0.0
 40
15.0
 50
180.0
 51
0.0
  0
ARC
  5
10190
  8
0
  6
BYBLOCK
 62
     0
 10
26243.010792585152
 20
20160.487901999972
 30
0.0
 40
15.0
 50
180.0
 51
0.0
  0
ARC
  5
10191
  8
0
  6
BYBLOCK
 62
     0
 10
26243.010792585152
 20
20160.487901999972
 30
0.0
 40
15.0
 50
0.0
 51
180.0
  0
ARC
  5
10192
  8
0
  6
BYBLOCK
 62
     0
 10
24841.010792585152
 20
20160.487901999972
 30
0.0
 40
15.0
 50
0.0
 51
180.0
  0
ARC
  5
10193
  8
0
  6
BYBLOCK
 62
     0
 10
24841.010792585152
 20
20160.487901999972
 30
0.0
 40
15.0
 50
180.0
 51
0.0
  0
ARC
  5
10194
  8
0
  6
BYBLOCK
 62
     0
 10
25542.010792585152
 20
20160.487901999972
 30
0.0
 40
15.0
 50
180.0
 51
0.0
  0
ARC
  5
10195
  8
0
  6
BYBLOCK
 62
     0
 10
25542.010792585152
 20
20160.487901999972
 30
0.0
 40
15.0
 50
0.0
 51
180.0
  0
ARC
  5
10196
  8
0
  6
BYBLOCK
 62
     0
 10
24083.010792585152
 20
20160.487901999972
 30
0.0
 40
15.0
 50
0.0
 51
180.0
  0
ARC
  5
10197
  8
0
  6
BYBLOCK
 62
     0
 10
24083.010792585152
 20
20160.487901999972
 30
0.0
 40
15.0
 50
180.0
 51
0.0
  0
ARC
  5
10198
  8
0
  6
BYBLOCK
 62
     0
 10
24841.010792585152
 20
20160.487901999972
 30
0.0
 40
15.0
 50
180.0
 51
0.0
  0
ARC
  5
10199
  8
0
  6
BYBLOCK
 62
     0
 10
24841.010792585152
 20
20160.487901999972
 30
0.0
 40
15.0
 50
0.0
 51
180.0
  0
ARC
  5
1019A
  8
0
  6
BYBLOCK
 62
     0
 10
24083.010792585152
 20
20160.487901999972
 30
0.0
 40
15.0
 50
0.0
 51
180.0
  0
ARC
  5
1019B
  8
0
  6
BYBLOCK
 62
     0
 10
24083.010792585152
 20
20160.487901999972
 30
0.0
 40
15.0
 50
180.0
 51
0.0
  0
ARC
  5
1019C
  8
0
  6
BYBLOCK
 62
     0
 10
24040.510792585152
 20
20160.487901999972
 30
0.0
 40
15.0
 50
180.0
 51
0.0
  0
ARC
  5
1019D
  8
0
  6
BYBLOCK
 62
     0
 10
24040.510792585152
 20
20160.487901999972
 30
0.0
 40
15.0
 50
0.0
 51
180.0
  0
ARC
  5
101AA
  8
0
  6
BYBLOCK
 62
     0
 10
24083.008813585158
 20
20560.487901999972
 30
0.0
 40
15.0
 50
180.0
 51
0.0
  0
ARC
  5
101AB
  8
0
  6
BYBLOCK
 62
     0
 10
24083.008813585158
 20
20560.487901999972
 30
0.0
 40
15.0
 50
0.0
 51
180.0
  0
ARC
  5
101AC
  8
0
  6
BYBLOCK
 62
     0
 10
21283.008813585151
 20
20560.487901999972
 30
0.0
 40
15.0
 50
0.0
 51
180.0
  0
ARC
  5
101AD
  8
0
  6
BYBLOCK
 62
     0
 10
21283.008813585151
 20
20560.487901999972
 30
0.0
 40
15.0
 50
180.0
 51
0.0
  0
ARC
  5
101AE
  8
0
  6
BYBLOCK
 62
     0
 10
27001.008813585151
 20
20560.487901999972
 30
0.0
 40
15.0
 50
180.0
 51
0.0
  0
ARC
  5
101AF
  8
0
  6
BYBLOCK
 62
     0
 10
27001.008813585151
 20
20560.487901999972
 30
0.0
 40
15.0
 50
0.0
 51
180.0
  0
ARC
  5
101B0
  8
0
  6
BYBLOCK
 62
     0
 10
24083.008813585158
 20
20560.487901999972
 30
0.0
 40
15.0
 50
0.0
 51
180.0
  0
ARC
  5
101B1
  8
0
  6
BYBLOCK
 62
     0
 10
24083.008813585158
 20
20560.487901999972
 30
0.0
 40
15.0
 50
180.0
 51
0.0
  0
ARC
  5
101B2
  8
0
  6
BYBLOCK
 62
     0
 10
21283.008813585151
 20
20160.487901999972
 30
0.0
 40
15.0
 50
180.0
 51
0.0
  0
ARC
  5
101B3
  8
0
  6
BYBLOCK
 62
     0
 10
21283.008813585151
 20
20160.487901999972
 30
0.0
 40
15.0
 50
0.0
 51
180.0
  0
ARC
  5
101B4
  8
0
  6
BYBLOCK
 62
     0
 10
21325.51105658515
 20
20160.487901999972
 30
0.0
 40
15.0
 50
0.0
 51
180.0
  0
ARC
  5
101B5
  8
0
  6
BYBLOCK
 62
     0
 10
21325.51105658515
 20
20160.487901999972
 30
0.0
 40
15.0
 50
180.0
 51
0.0
  0
ARC
  5
101B6
  8
0
  6
BYBLOCK
 62
     0
 10
21283.008813585151
 20
20160.487901999972
 30
0.0
 40
15.0
 50
0.0
 51
180.0
  0
ARC
  5
101B7
  8
0
  6
BYBLOCK
 62
     0
 10
21283.008813585151
 20
20160.487901999972
 30
0.0
 40
15.0
 50
180.0
 51
0.0
  0
ARC
  5
101B8
  8
0
  6
BYBLOCK
 62
     0
 10
21240.510528585161
 20
20160.487901999972
 30
0.0
 40
15.0
 50
180.0
 51
0.0
  0
ARC
  5
101B9
  8
0
  6
BYBLOCK
 62
     0
 10
21240.510528585161
 20
20160.487901999972
 30
0.0
 40
15.0
 50
0.0
 51
180.0
  0
ARC
  5
101BA
  8
0
  6
BYBLOCK
 62
     0
 10
20065.165189216521
 20
16750.486977999979
 30
0.0
 40
15.0
 50
90.0
 51
270.0
  0
ARC
  5
101BB
  8
0
  6
BYBLOCK
 62
     0
 10
20065.165189216521
 20
16750.486977999979
 30
0.0
 40
15.0
 50
270.0
 51
90.0
  0
ARC
  5
101BC
  8
0
  6
BYBLOCK
 62
     0
 10
20065.165189216521
 20
19317.986977999979
 30
0.0
 40
15.0
 50
270.0
 51
90.0
  0
ARC
  5
101BD
  8
0
  6
BYBLOCK
 62
     0
 10
20065.165189216521
 20
19317.986977999979
 30
0.0
 40
15.0
 50
90.0
 51
270.0
  0
ARC
  5
101BE
  8
0
  6
BYBLOCK
 62
     0
 10
20065.165189216521
 20
14182.986978000001
 30
0.0
 40
15.0
 50
90.0
 51
270.0
  0
ARC
  5
101BF
  8
0
  6
BYBLOCK
 62
     0
 10
20065.165189216521
 20
14182.986978000001
 30
0.0
 40
15.0
 50
270.0
 51
90.0
  0
ARC
  5
101C0
  8
0
  6
BYBLOCK
 62
     0
 10
20065.165189216521
 20
16750.486977999979
 30
0.0
 40
15.0
 50
270.0
 51
90.0
  0
ARC
  5
101C1
  8
0
  6
BYBLOCK
 62
     0
 10
20065.165189216521
 20
16750.486977999979
 30
0.0
 40
15.0
 50
90.0
 51
270.0
  0
ARC
  5
101D6
  8
0
  6
BYBLOCK
 62
     0
 10
13092.04714969357
 20
9789.1883999999991
 30
0.0
 40
15.0
 50
180.0
 51
0.0
  0
ARC
  5
101D7
  8
0
  6
BYBLOCK
 62
     0
 10
13092.04714969357
 20
9789.1883999999991
 30
0.0
 40
15.0
 50
0.0
 51
180.0
  0
ARC
  5
101D8
  8
0
  6
BYBLOCK
 62
     0
 10
7542.047149693577
 20
9789.1883999999991
 30
0.0
 40
15.0
 50
0.0
 51
180.0
  0
ARC
  5
101D9
  8
0
  6
BYBLOCK
 62
     0
 10
7542.047149693577
 20
9789.1883999999991
 30
0.0
 40
15.0
 50
180.0
 51
0.0
  0
ARC
  5
101DA
  8
0
  6
BYBLOCK
 62
     0
 10
7692.0471496935697
 20
9389.1900500000029
 30
0.0
 40
15.0
 50
0.0
 51
180.0
  0
ARC
  5
101DB
  8
0
  6
BYBLOCK
 62
     0
 10
7692.0471496935697
 20
9389.1900500000029
 30
0.0
 40
15.0
 50
180.0
 51
0.0
  0
ARC
  5
101DC
  8
0
  6
BYBLOCK
 62
     0
 10
7542.047149693577
 20
9389.1900500000029
 30
0.0
 40
15.0
 50
180.0
 51
0.0
  0
ARC
  5
101DD
  8
0
  6
BYBLOCK
 62
     0
 10
7542.047149693577
 20
9389.1900500000029
 30
0.0
 40
15.0
 50
0.0
 51
180.0
  0
ARC
  5
101DE
  8
0
  6
BYBLOCK
 62
     0
 10
12912.04714969357
 20
9389.1900500000029
 30
0.0
 40
15.0
 50
180.0
 51
0.0
  0
ARC
  5
101DF
  8
0
  6
BYBLOCK
 62
     0
 10
12912.04714969357
 20
9389.1900500000029
 30
0.0
 40
15.0
 50
0.0
 51
180.0
  0
ARC
  5
101E0
  8
0
  6
BYBLOCK
 62
     0
 10
7692.0471496935697
 20
9389.1900500000029
 30
0.0
 40
15.0
 50
0.0
 51
180.0
  0
ARC
  5
101E1
  8
0
  6
BYBLOCK
 62
     0
 10
7692.0471496935697
 20
9389.1900500000029
 30
0.0
 40
15.0
 50
180.0
 51
0.0
  0
ARC
  5
101E2
  8
0
  6
BYBLOCK
 62
     0
 10
13092.04714969357
 20
9389.1900500000029
 30
0.0
 40
15.0
 50
180.0
 51
0.0
  0
ARC
  5
101E3
  8
0
  6
BYBLOCK
 62
     0
 10
13092.04714969357
 20
9389.1900500000029
 30
0.0
 40
15.0
 50
0.0
 51
180.0
  0
ARC
  5
101E4
  8
0
  6
BYBLOCK
 62
     0
 10
12912.04714969357
 20
9389.1900500000029
 30
0.0
 40
15.0
 50
0.0
 51
180.0
  0
ARC
  5
101E5
  8
0
  6
BYBLOCK
 62
     0
 10
12912.04714969357
 20
9389.1900500000029
 30
0.0
 40
15.0
 50
180.0
 51
0.0
  0
ARC
  5
101E6
  8
0
  6
BYBLOCK
 62
     0
 10
6602.0467536935748
 20
6241.1883740000048
 30
0.0
 40
15.0
 50
90.0
 51
270.0
  0
ARC
  5
101E7
  8
0
  6
BYBLOCK
 62
     0
 10
6602.0467536935748
 20
6241.1883740000048
 30
0.0
 40
15.0
 50
270.0
 51
90.0
  0
ARC
  5
101E8
  8
0
  6
BYBLOCK
 62
     0
 10
6602.0467536935748
 20
8590.188374000003
 30
0.0
 40
15.0
 50
270.0
 51
90.0
  0
ARC
  5
101E9
  8
0
  6
BYBLOCK
 62
     0
 10
6602.0467536935748
 20
8590.188374000003
 30
0.0
 40
15.0
 50
90.0
 51
270.0
  0
ARC
  5
101EA
  8
0
  6
BYBLOCK
 62
     0
 10
14002.04754569356
 20
6241.1883740000048
 30
0.0
 40
15.0
 50
90.0
 51
270.0
  0
ARC
  5
101EB
  8
0
  6
BYBLOCK
 62
     0
 10
14002.04754569356
 20
6241.1883740000048
 30
0.0
 40
15.0
 50
270.0
 51
90.0
  0
ARC
  5
101EC
  8
0
  6
BYBLOCK
 62
     0
 10
14002.04754569356
 20
8396.688374000003
 30
0.0
 40
15.0
 50
270.0
 51
90.0
  0
ARC
  5
101ED
  8
0
  6
BYBLOCK
 62
     0
 10
14002.04754569356
 20
8396.688374000003
 30
0.0
 40
15.0
 50
90.0
 51
270.0
  0
ARC
  5
101EE
  8
0
  6
BYBLOCK
 62
     0
 10
12912.04714969357
 20
4541.1887040000001
 30
0.0
 40
15.0
 50
180.0
 51
0.0
  0
ARC
  5
101EF
  8
0
  6
BYBLOCK
 62
     0
 10
12912.04714969357
 20
4541.1887040000001
 30
0.0
 40
15.0
 50
0.0
 51
180.0
  0
ARC
  5
101F0
  8
0
  6
BYBLOCK
 62
     0
 10
7692.0471496935697
 20
4541.1887040000001
 30
0.0
 40
15.0
 50
0.0
 51
180.0
  0
ARC
  5
101F1
  8
0
  6
BYBLOCK
 62
     0
 10
7692.0471496935697
 20
4541.1887040000001
 30
0.0
 40
15.0
 50
180.0
 51
0.0
  0
ARC
  5
101F2
  8
0
  6
BYBLOCK
 62
     0
 10
7734.5471496935788
 20
4941.1885390000016
 30
0.0
 40
15.0
 50
0.0
 51
180.0
  0
ARC
  5
101F3
  8
0
  6
BYBLOCK
 62
     0
 10
7734.5471496935788
 20
4941.1885390000016
 30
0.0
 40
15.0
 50
180.0
 51
0.0
  0
ARC
  5
101F4
  8
0
  6
BYBLOCK
 62
     0
 10
7692.0471496935697
 20
4941.1885390000016
 30
0.0
 40
15.0
 50
180.0
 51
0.0
  0
ARC
  5
101F5
  8
0
  6
BYBLOCK
 62
     0
 10
7692.0471496935697
 20
4941.1885390000016
 30
0.0
 40
15.0
 50
0.0
 51
180.0
  0
ARC
  5
101F6
  8
0
  6
BYBLOCK
 62
     0
 10
12869.54714969357
 20
4941.1885390000016
 30
0.0
 40
15.0
 50
180.0
 51
0.0
  0
ARC
  5
101F7
  8
0
  6
BYBLOCK
 62
     0
 10
12869.54714969357
 20
4941.1885390000016
 30
0.0
 40
15.0
 50
0.0
 51
180.0
  0
ARC
  5
101F8
  8
0
  6
BYBLOCK
 62
     0
 10
12912.04714969357
 20
4941.1885390000016
 30
0.0
 40
15.0
 50
0.0
 51
180.0
  0
ARC
  5
101F9
  8
0
  6
BYBLOCK
 62
     0
 10
12912.04714969357
 20
4941.1885390000016
 30
0.0
 40
15.0
 50
180.0
 51
0.0
  0
ARC
  5
101FA
  8
0
  6
BYBLOCK
 62
     0
 10
10302.047149693581
 20
4941.1885390000016
 30
0.0
 40
15.0
 50
0.0
 51
180.0
  0
ARC
  5
101FB
  8
0
  6
BYBLOCK
 62
     0
 10
10302.047149693581
 20
4941.1885390000016
 30
0.0
 40
15.0
 50
180.0
 51
0.0
  0
ARC
  5
101FC
  8
0
  6
BYBLOCK
 62
     0
 10
12869.54714969357
 20
4941.1885390000016
 30
0.0
 40
15.0
 50
180.0
 51
0.0
  0
ARC
  5
101FD
  8
0
  6
BYBLOCK
 62
     0
 10
12869.54714969357
 20
4941.1885390000016
 30
0.0
 40
15.0
 50
0.0
 51
180.0
  0
ARC
  5
101FE
  8
0
  6
BYBLOCK
 62
     0
 10
10302.047149693581
 20
4941.1885390000016
 30
0.0
 40
15.0
 50
180.0
 51
0.0
  0
ARC
  5
101FF
  8
0
  6
BYBLOCK
 62
     0
 10
10302.047149693581
 20
4941.1885390000016
 30
0.0
 40
15.0
 50
0.0
 51
180.0
  0
ARC
  5
10200
  8
0
  6
BYBLOCK
 62
     0
 10
7734.5471496935788
 20
4941.1885390000016
 30
0.0
 40
15.0
 50
0.0
 51
180.0
  0
ARC
  5
10201
  8
0
  6
BYBLOCK
 62
     0
 10
7734.5471496935788
 20
4941.1885390000016
 30
0.0
 40
15.0
 50
180.0
 51
0.0
  0
ARC
  5
10202
  8
0
  6
BYBLOCK
 62
     0
 10
27083.510528585171
 20
9789.1329740000092
 30
0.0
 40
15.0
 50
180.0
 51
0.0
  0
ARC
  5
10203
  8
0
  6
BYBLOCK
 62
     0
 10
27083.510528585171
 20
9789.1329740000092
 30
0.0
 40
15.0
 50
0.0
 51
180.0
  0
ARC
  5
10204
  8
0
  6
BYBLOCK
 62
     0
 10
21197.510528585161
 20
9789.1329740000092
 30
0.0
 40
15.0
 50
0.0
 51
180.0
  0
ARC
  5
10205
  8
0
  6
BYBLOCK
 62
     0
 10
21197.510528585161
 20
9789.1329740000092
 30
0.0
 40
15.0
 50
180.0
 51
0.0
  0
ARC
  5
10206
  8
0
  6
BYBLOCK
 62
     0
 10
21240.510528585161
 20
9389.1900500000029
 30
0.0
 40
15.0
 50
0.0
 51
180.0
  0
ARC
  5
10207
  8
0
  6
BYBLOCK
 62
     0
 10
21240.510528585161
 20
9389.1900500000029
 30
0.0
 40
15.0
 50
180.0
 51
0.0
  0
ARC
  5
10208
  8
0
  6
BYBLOCK
 62
     0
 10
21197.510528585161
 20
9389.1900500000029
 30
0.0
 40
15.0
 50
180.0
 51
0.0
  0
ARC
  5
10209
  8
0
  6
BYBLOCK
 62
     0
 10
21197.510528585161
 20
9389.1900500000029
 30
0.0
 40
15.0
 50
0.0
 51
180.0
  0
ARC
  5
1020A
  8
0
  6
BYBLOCK
 62
     0
 10
27043.510528585171
 20
9389.1900500000029
 30
0.0
 40
15.0
 50
180.0
 51
0.0
  0
ARC
  5
1020B
  8
0
  6
BYBLOCK
 62
     0
 10
27043.510528585171
 20
9389.1900500000029
 30
0.0
 40
15.0
 50
0.0
 51
180.0
  0
ARC
  5
1020C
  8
0
  6
BYBLOCK
 62
     0
 10
27083.510528585171
 20
9389.1900500000029
 30
0.0
 40
15.0
 50
0.0
 51
180.0
  0
ARC
  5
1020D
  8
0
  6
BYBLOCK
 62
     0
 10
27083.510528585171
 20
9389.1900500000029
 30
0.0
 40
15.0
 50
180.0
 51
0.0
  0
ARC
  5
1020E
  8
0
  6
BYBLOCK
 62
     0
 10
24040.510528585161
 20
9389.1900500000029
 30
0.0
 40
15.0
 50
0.0
 51
180.0
  0
ARC
  5
1020F
  8
0
  6
BYBLOCK
 62
     0
 10
24040.510528585161
 20
9389.1900500000029
 30
0.0
 40
15.0
 50
180.0
 51
0.0
  0
ARC
  5
10210
  8
0
  6
BYBLOCK
 62
     0
 10
27043.510528585171
 20
9389.1900500000029
 30
0.0
 40
15.0
 50
180.0
 51
0.0
  0
ARC
  5
10211
  8
0
  6
BYBLOCK
 62
     0
 10
27043.510528585171
 20
9389.1900500000029
 30
0.0
 40
15.0
 50
0.0
 51
180.0
  0
ARC
  5
10212
  8
0
  6
BYBLOCK
 62
     0
 10
28494.112779289891
 20
6241.1883740000048
 30
0.0
 40
15.0
 50
90.0
 51
270.0
  0
ARC
  5
10213
  8
0
  6
BYBLOCK
 62
     0
 10
28494.112779289891
 20
6241.1883740000048
 30
0.0
 40
15.0
 50
270.0
 51
90.0
  0
ARC
  5
10214
  8
0
  6
BYBLOCK
 62
     0
 10
28494.11277928991
 20
8590.1883999999973
 30
0.0
 40
15.0
 50
270.0
 51
90.0
  0
ARC
  5
10215
  8
0
  6
BYBLOCK
 62
     0
 10
28494.11277928991
 20
8590.1883999999973
 30
0.0
 40
15.0
 50
90.0
 51
270.0
  0
ARC
  5
10216
  8
0
  6
BYBLOCK
 62
     0
 10
27851.01382758516
 20
6241.1883740000048
 30
0.0
 40
15.0
 50
90.0
 51
270.0
  0
ARC
  5
10217
  8
0
  6
BYBLOCK
 62
     0
 10
27851.01382758516
 20
6241.1883740000048
 30
0.0
 40
15.0
 50
270.0
 51
90.0
  0
ARC
  5
10218
  8
0
  6
BYBLOCK
 62
     0
 10
27851.01382758516
 20
8132.6883740000021
 30
0.0
 40
15.0
 50
270.0
 51
90.0
  0
ARC
  5
10219
  8
0
  6
BYBLOCK
 62
     0
 10
27851.01382758516
 20
8132.6883740000021
 30
0.0
 40
15.0
 50
90.0
 51
270.0
  0
ARC
  5
1021A
  8
0
  6
BYBLOCK
 62
     0
 10
24037.51052858515
 20
5341.1883740000048
 30
0.0
 40
15.0
 50
180.0
 51
0.0
  0
ARC
  5
1021B
  8
0
  6
BYBLOCK
 62
     0
 10
24037.51052858515
 20
5341.1883740000048
 30
0.0
 40
15.0
 50
0.0
 51
180.0
  0
ARC
  5
1021C
  8
0
  6
BYBLOCK
 62
     0
 10
21325.510528585161
 20
5341.1883740000048
 30
0.0
 40
15.0
 50
0.0
 51
180.0
  0
ARC
  5
1021D
  8
0
  6
BYBLOCK
 62
     0
 10
21325.510528585161
 20
5341.1883740000048
 30
0.0
 40
15.0
 50
180.0
 51
0.0
  0
ARC
  5
1021E
  8
0
  6
BYBLOCK
 62
     0
 10
27043.470575637639
 20
4541.1887040000593
 30
0.0
 40
15.0
 50
180.0
 51
0.0
  0
ARC
  5
1021F
  8
0
  6
BYBLOCK
 62
     0
 10
27043.470575637639
 20
4541.1887040000593
 30
0.0
 40
15.0
 50
0.0
 51
180.0
  0
ARC
  5
10220
  8
0
  6
BYBLOCK
 62
     0
 10
21240.510528585161
 20
4541.1887040000593
 30
0.0
 40
15.0
 50
0.0
 51
180.0
  0
ARC
  5
10221
  8
0
  6
BYBLOCK
 62
     0
 10
21240.510528585161
 20
4541.1887040000593
 30
0.0
 40
15.0
 50
180.0
 51
0.0
  0
ARC
  5
10222
  8
0
  6
BYBLOCK
 62
     0
 10
27001.010528585171
 20
4941.1885390000016
 30
0.0
 40
15.0
 50
180.0
 51
0.0
  0
ARC
  5
10223
  8
0
  6
BYBLOCK
 62
     0
 10
27001.010528585171
 20
4941.1885390000016
 30
0.0
 40
15.0
 50
0.0
 51
180.0
  0
ARC
  5
10224
  8
0
  6
BYBLOCK
 62
     0
 10
27043.470575637639
 20
4941.1885390000016
 30
0.0
 40
15.0
 50
0.0
 51
180.0
  0
ARC
  5
10225
  8
0
  6
BYBLOCK
 62
     0
 10
27043.470575637639
 20
4941.1885390000016
 30
0.0
 40
15.0
 50
180.0
 51
0.0
  0
ARC
  5
10226
  8
0
  6
BYBLOCK
 62
     0
 10
24083.010528585161
 20
4941.1885390000016
 30
0.0
 40
15.0
 50
0.0
 51
180.0
  0
ARC
  5
10227
  8
0
  6
BYBLOCK
 62
     0
 10
24083.010528585161
 20
4941.1885390000016
 30
0.0
 40
15.0
 50
180.0
 51
0.0
  0
ARC
  5
10228
  8
0
  6
BYBLOCK
 62
     0
 10
27001.010528585171
 20
4941.1885390000016
 30
0.0
 40
15.0
 50
180.0
 51
0.0
  0
ARC
  5
10229
  8
0
  6
BYBLOCK
 62
     0
 10
27001.010528585171
 20
4941.1885390000016
 30
0.0
 40
15.0
 50
0.0
 51
180.0
  0
ARC
  5
1022A
  8
0
  6
BYBLOCK
 62
     0
 10
26907.010528585171
 20
5341.1883740000048
 30
0.0
 40
15.0
 50
180.0
 51
0.0
  0
ARC
  5
1022B
  8
0
  6
BYBLOCK
 62
     0
 10
26907.010528585171
 20
5341.1883740000048
 30
0.0
 40
15.0
 50
0.0
 51
180.0
  0
ARC
  5
1022C
  8
0
  6
BYBLOCK
 62
     0
 10
24177.010528585171
 20
5341.1883740000048
 30
0.0
 40
15.0
 50
0.0
 51
180.0
  0
ARC
  5
1022D
  8
0
  6
BYBLOCK
 62
     0
 10
24177.010528585171
 20
5341.1883740000048
 30
0.0
 40
15.0
 50
180.0
 51
0.0
  0
ARC
  5
1022E
  8
0
  6
BYBLOCK
 62
     0
 10
21283.010528585161
 20
4941.1885390000016
 30
0.0
 40
15.0
 50
0.0
 51
180.0
  0
ARC
  5
1022F
  8
0
  6
BYBLOCK
 62
     0
 10
21283.010528585161
 20
4941.1885390000016
 30
0.0
 40
15.0
 50
180.0
 51
0.0
  0
ARC
  5
10230
  8
0
  6
BYBLOCK
 62
     0
 10
21240.510528585161
 20
4941.1885390000016
 30
0.0
 40
15.0
 50
180.0
 51
0.0
  0
ARC
  5
10231
  8
0
  6
BYBLOCK
 62
     0
 10
21240.510528585161
 20
4941.1885390000016
 30
0.0
 40
15.0
 50
0.0
 51
180.0
  0
ARC
  5
10232
  8
0
  6
BYBLOCK
 62
     0
 10
24083.010528585161
 20
4941.1885390000016
 30
0.0
 40
15.0
 50
180.0
 51
0.0
  0
ARC
  5
10233
  8
0
  6
BYBLOCK
 62
     0
 10
24083.010528585161
 20
4941.1885390000016
 30
0.0
 40
15.0
 50
0.0
 51
180.0
  0
ARC
  5
10234
  8
0
  6
BYBLOCK
 62
     0
 10
21283.010528585161
 20
4941.1885390000016
 30
0.0
 40
15.0
 50
0.0
 51
180.0
  0
ARC
  5
10235
  8
0
  6
BYBLOCK
 62
     0
 10
21283.010528585161
 20
4941.1885390000016
 30
0.0
 40
15.0
 50
180.0
 51
0.0
  0
ARC
  5
10236
  8
0
  6
BYBLOCK
 62
     0
 10
24040.510528585161
 20
9389.1900500000029
 30
0.0
 40
15.0
 50
180.0
 51
0.0
  0
ARC
  5
10237
  8
0
  6
BYBLOCK
 62
     0
 10
24040.510528585161
 20
9389.1900500000029
 30
0.0
 40
15.0
 50
0.0
 51
180.0
  0
ARC
  5
10238
  8
0
  6
BYBLOCK
 62
     0
 10
21240.510528585161
 20
9389.1900500000029
 30
0.0
 40
15.0
 50
0.0
 51
180.0
  0
ARC
  5
10239
  8
0
  6
BYBLOCK
 62
     0
 10
21240.510528585161
 20
9389.1900500000029
 30
0.0
 40
15.0
 50
180.0
 51
0.0
  0
ARC
  5
1023A
  8
0
  6
BYBLOCK
 62
     0
 10
20155.68813029076
 20
6241.1883740000048
 30
0.0
 40
15.0
 50
90.0
 51
270.0
  0
ARC
  5
1023B
  8
0
  6
BYBLOCK
 62
     0
 10
20155.68813029076
 20
6241.1883740000048
 30
0.0
 40
15.0
 50
270.0
 51
90.0
  0
ARC
  5
1023C
  8
0
  6
BYBLOCK
 62
     0
 10
20155.68813029076
 20
8261.1883740000067
 30
0.0
 40
15.0
 50
270.0
 51
90.0
  0
ARC
  5
1023D
  8
0
  6
BYBLOCK
 62
     0
 10
20155.68813029076
 20
8261.1883740000067
 30
0.0
 40
15.0
 50
90.0
 51
270.0
  0
TEXT
  5
10319
  8
NAME
 10
21595.82616625919
 20
1076.6369801169251
 30
0.0
 40
360.0
  1
VGCU-3052（H）+VKCU-2852（H）型-L（単棟）
 41
0.4200000000000001
  0
TEXT
  5
1031B
  8
NAME
 10
21933.552716389011
 20
1876.0
 30
0.0
 40
360.0
  1
ヨドガレージ ラヴィージュ
 41
0.75
  7
01
  0
LINE
  5
1031C
  8
NAME
  6
CONTINUOUS
 10
26067.886878884299
 20
2236.0
 30
0.0
 11
26067.886878884299
 21
1876.0
 31
0.0
  0
LINE
  5
1031D
  8
NAME
  6
CONTINUOUS
 10
26167.886878884299
 20
2236.0
 30
0.0
 11
26167.886878884299
 21
1876.0
 31
0.0
  0
LINE
  5
1031E
  8
NAME
  6
CONTINUOUS
 10
26267.88687888431
 20
2236.0
 30
0.0
 11
26267.88687888431
 21
1876.0
 31
0.0
  0
LINE
  5
1031F
  8
NAME
  6
CONTINUOUS
 10
26007.886878884299
 20
2236.0
 30
0.0
 11
26327.886878884299
 21
2236.0
 31
0.0
  0
LINE
  5
10320
  8
NAME
  6
CONTINUOUS
 10
26327.886878884299
 20
1876.0
 30
0.0
 11
26007.886878884299
 21
1876.0
 31
0.0
  0
LINE
  5
1033A
  8
2-0
  6
CENTER2
 62
     6
 10
24083.008813585151
 20
20960.489220999989
 30
0.0
 11
24083.008813585151
 21
13825.23309953157
 31
0.0
  0
LINE
  5
1033D
  8
2-0
  6
CENTER2
 62
     6
 10
27001.008813585151
 20
20960.489220999989
 30
0.0
 11
27001.008813585151
 21
13825.23309953157
 31
0.0
  0
LINE
  5
105D1
  8
2-0
  6
CONTINUOUS
 62
     6
 10
25317.84989758514
 20
13542.985855999979
 30
0.0
 11
26317.8432995851
 21
13542.985855999979
 31
0.0
  0
LINE
  5
105D2
  8
2-0
  6
CONTINUOUS
 62
     6
 10
26785.783676585139
 20
14013.40656999997
 30
0.0
 11
26317.8432995851
 21
13542.985855999979
 31
0.0
  0
LINE
  5
105D3
  8
2-0
  6
CONTINUOUS
 62
     6
 10
25334.560993585132
 20
17871.60592099998
 30
0.0
 11
26352.536341585139
 21
17871.60592099998
 31
0.0
  0
LINE
  5
105D4
  8
2-0
  6
CONTINUOUS
 62
     6
 10
26808.961859585121
 20
18096.320869999981
 30
0.0
 11
26352.536341585139
 21
17871.60592099998
 31
0.0
  0
LINE
  5
105D5
  8
2-0
  6
CONTINUOUS
 62
     6
 10
26747.14347358514
 20
16854.514216999989
 30
0.0
 11
26442.44805558513
 21
16958.167748
 31
0.0
  0
LINE
  5
105D6
  8
2-0
  6
CONTINUOUS
 62
     6
 10
26902.16551258511
 20
16364.892172999989
 30
0.0
 11
26442.44805558513
 21
16120.978861999991
 31
0.0
  0
LINE
  5
105D7
  8
2-0
  6
CONTINUOUS
 62
     6
 10
25522.445020585139
 20
16120.978861999991
 30
0.0
 11
26442.44805558513
 21
16120.978861999991
 31
0.0
  0
LINE
  5
105D8
  8
2-0
  6
CONTINUOUS
 62
     6
 10
25242.453993585139
 20
16958.167748
 30
0.0
 11
26442.44805558513
 21
16958.167748
 31
0.0
  0
LINE
  5
105D9
  8
2-0
  6
CONTINUOUS
 62
     6
 10
26818.342797585148
 20
14335.09021599996
 30
0.0
 11
26442.44805558513
 21
14516.034050999981
 31
0.0
  0
LINE
  5
105DA
  8
2-0
  6
CONTINUOUS
 62
     6
 10
25334.560993585132
 20
14953.843462999979
 30
0.0
 11
26352.536341585139
 21
14953.843462999979
 31
0.0
  0
LINE
  5
105DB
  8
2-0
  6
CONTINUOUS
 62
     6
 10
25922.446339585142
 20
14516.034050999981
 30
0.0
 11
26442.44805558513
 21
14516.034050999981
 31
0.0
  0
LINE
  5
105DC
  8
2-0
  6
CONTINUOUS
 62
     6
 10
26808.961859585121
 20
15178.556432999991
 30
0.0
 11
26352.536341585139
 21
14953.843462999979
 31
0.0
  0
LINE
  5
105DD
  8
2-0
  6
CONTINUOUS
 62
     3
 10
27013.509473585142
 20
19251.485051999971
 30
0.0
 11
27013.509473585142
 21
19245.489089999999
 31
0.0
  0
LINE
  5
105DE
  8
2-0
  6
CONTINUOUS
 62
     3
 10
27013.509473585142
 20
19245.489089999999
 30
0.0
 11
27043.507097585149
 21
19245.489089999999
 31
0.0
  0
LINE
  5
105DF
  8
2-0
  6
CONTINUOUS
 62
     3
 10
27043.507097585149
 20
19275.488693999981
 30
0.0
 11
26962.50519758512
 21
19275.488693999981
 31
0.0
  0
LINE
  5
105E0
  8
2-0
  6
CONTINUOUS
 62
     3
 10
27013.509473585142
 20
19235.19163399997
 30
0.0
 11
27043.507097585149
 21
19235.19163399997
 31
0.0
  0
LINE
  5
105E1
  8
2-0
  6
CONTINUOUS
 62
     3
 10
27013.509473585142
 20
19253.193375999988
 30
0.0
 11
27013.509473585142
 21
19235.19163399997
 31
0.0
  0
LINE
  5
105E2
  8
2-0
  6
CONTINUOUS
 62
     3
 10
27038.506833585139
 20
19253.193375999988
 30
0.0
 11
27013.509473585142
 21
19253.193375999988
 31
0.0
  0
LINE
  5
105E3
  8
2-0
  6
CONTINUOUS
 62
     3
 10
27038.506833585139
 20
19248.18519399998
 30
0.0
 11
27038.506833585139
 21
19253.193375999988
 31
0.0
  0
LINE
  5
105E4
  8
2-0
  6
CONTINUOUS
 62
     3
 10
27031.505276585151
 20
19248.18519399998
 30
0.0
 11
27038.506833585139
 21
19248.18519399998
 31
0.0
  0
LINE
  5
105E5
  8
2-0
  6
CONTINUOUS
 62
     3
 10
26931.209008585149
 20
19348.485420999979
 30
0.0
 11
26931.209008585149
 21
19355.490936999991
 31
0.0
  0
LINE
  5
105E6
  8
2-0
  6
CONTINUOUS
 62
     3
 10
26931.209008585149
 20
19355.490936999991
 30
0.0
 11
26936.209272585129
 21
19355.490936999991
 31
0.0
  0
LINE
  5
105E7
  8
2-0
  6
CONTINUOUS
 62
     3
 10
26936.209272585129
 20
19355.490936999991
 30
0.0
 11
26936.209272585129
 21
19330.481699999978
 31
0.0
  0
LINE
  5
105E8
  8
2-0
  6
CONTINUOUS
 62
     3
 10
26936.209272585129
 20
19330.481699999978
 30
0.0
 11
26918.207530585121
 21
19330.481699999978
 31
0.0
  0
LINE
  5
105E9
  8
2-0
  6
CONTINUOUS
 62
     3
 10
26918.207530585121
 20
19330.481699999978
 30
0.0
 11
26918.207530585121
 21
19360.485262999999
 31
0.0
  0
LINE
  5
105EA
  8
2-0
  6
CONTINUOUS
 62
     3
 10
26928.50498658514
 20
19360.485262999999
 30
0.0
 11
27043.507097585149
 21
19360.485262999999
 31
0.0
  0
LINE
  5
105EB
  8
2-0
  6
CONTINUOUS
 62
     3
 10
26928.50498658514
 20
19330.481699999978
 30
0.0
 11
26928.50498658514
 21
19360.485262999999
 31
0.0
  0
LINE
  5
105EC
  8
2-0
  6
CONTINUOUS
 62
     3
 10
26934.50688658515
 20
19330.481699999978
 30
0.0
 11
26928.50498658514
 21
19330.481699999978
 31
0.0
  0
LINE
  5
105ED
  8
2-0
  6
CONTINUOUS
 62
     3
 10
27031.505276585151
 20
18894.888371499928
 30
0.0
 11
27038.506833585139
 21
18894.888371499928
 31
0.0
  0
LINE
  5
105EE
  8
2-0
  6
CONTINUOUS
 62
     3
 10
27038.506833585139
 20
18894.888371499928
 30
0.0
 11
27038.506833585139
 21
18899.888635499959
 31
0.0
  0
LINE
  5
105EF
  8
2-0
  6
CONTINUOUS
 62
     3
 10
27038.506833585139
 20
18899.888635499959
 30
0.0
 11
27013.509473585142
 21
18899.888635499959
 31
0.0
  0
LINE
  5
105F0
  8
2-0
  6
CONTINUOUS
 62
     3
 10
27013.509473585142
 20
18899.888635499959
 30
0.0
 11
27013.509473585142
 21
18881.892831499979
 31
0.0
  0
LINE
  5
105F1
  8
2-0
  6
CONTINUOUS
 62
     3
 10
27013.509473585142
 20
18881.892831499979
 30
0.0
 11
27043.507097585149
 21
18881.892831499979
 31
0.0
  0
LINE
  5
105F2
  8
2-0
  6
CONTINUOUS
 62
     3
 10
27013.509473585142
 20
18897.984338499959
 30
0.0
 11
27013.509473585142
 21
18891.986397499979
 31
0.0
  0
LINE
  5
105F3
  8
2-0
  6
CONTINUOUS
 62
     3
 10
27013.509473585142
 20
18891.986397499979
 30
0.0
 11
27043.507097585149
 21
18891.986397499979
 31
0.0
  0
LINE
  5
105F4
  8
2-0
  6
CONTINUOUS
 62
     3
 10
27043.507097585149
 20
18891.986397499979
 30
0.0
 11
27043.507097585149
 21
18928.987558499979
 31
0.0
  0
LINE
  5
105F5
  8
2-0
  6
CONTINUOUS
 62
     3
 10
27013.509473585142
 20
18928.987558499979
 30
0.0
 11
27043.507097585149
 21
18928.987558499979
 31
0.0
  0
LINE
  5
105F6
  8
2-0
  6
CONTINUOUS
 62
     3
 10
27013.509473585142
 20
18922.983678499972
 30
0.0
 11
27013.509473585142
 21
18928.987558499979
 31
0.0
  0
LINE
  5
105F7
  8
2-0
  6
CONTINUOUS
 62
     3
 10
27013.509473585142
 20
18939.083103499968
 30
0.0
 11
27043.507097585149
 21
18939.083103499968
 31
0.0
  0
LINE
  5
105F8
  8
2-0
  6
CONTINUOUS
 62
     3
 10
27013.509473585142
 20
18921.081361499979
 30
0.0
 11
27013.509473585142
 21
18939.083103499968
 31
0.0
  0
LINE
  5
105F9
  8
2-0
  6
CONTINUOUS
 62
     3
 10
27038.506833585139
 20
18921.081361499979
 30
0.0
 11
27013.509473585142
 21
18921.081361499979
 31
0.0
  0
LINE
  5
105FA
  8
2-0
  6
CONTINUOUS
 62
     3
 10
27038.506833585139
 20
18926.08162549997
 30
0.0
 11
27038.506833585139
 21
18921.081361499979
 31
0.0
  0
LINE
  5
105FB
  8
2-0
  6
CONTINUOUS
 62
     3
 10
27031.505276585151
 20
18926.08162549997
 30
0.0
 11
27038.506833585139
 21
18926.08162549997
 31
0.0
  0
LINE
  5
105FC
  8
2-0
  6
CONTINUOUS
 62
     3
 10
27031.505276585151
 20
18193.887381999979
 30
0.0
 11
27038.506833585139
 21
18193.887381999979
 31
0.0
  0
LINE
  5
105FD
  8
2-0
  6
CONTINUOUS
 62
     3
 10
27038.506833585139
 20
18193.887381999979
 30
0.0
 11
27038.506833585139
 21
18198.893583999969
 31
0.0
  0
LINE
  5
105FE
  8
2-0
  6
CONTINUOUS
 62
     3
 10
27038.506833585139
 20
18198.893583999969
 30
0.0
 11
27013.509473585142
 21
18198.893583999969
 31
0.0
  0
LINE
  5
105FF
  8
2-0
  6
CONTINUOUS
 62
     3
 10
27013.509473585142
 20
18198.893583999969
 30
0.0
 11
27013.509473585142
 21
18180.891841999979
 31
0.0
  0
LINE
  5
10600
  8
2-0
  6
CONTINUOUS
 62
     3
 10
27013.509473585142
 20
18180.891841999979
 30
0.0
 11
27043.507097585149
 21
18180.891841999979
 31
0.0
  0
LINE
  5
10601
  8
2-0
  6
CONTINUOUS
 62
     3
 10
27013.509473585142
 20
18196.983348999969
 30
0.0
 11
27013.509473585142
 21
18190.987386999968
 31
0.0
  0
LINE
  5
10602
  8
2-0
  6
CONTINUOUS
 62
     3
 10
27013.509473585142
 20
18190.987386999968
 30
0.0
 11
27043.507097585149
 21
18190.987386999968
 31
0.0
  0
LINE
  5
10603
  8
2-0
  6
CONTINUOUS
 62
     3
 10
27043.507097585149
 20
18190.987386999968
 30
0.0
 11
27043.507097585149
 21
18227.986568999979
 31
0.0
  0
LINE
  5
10604
  8
2-0
  6
CONTINUOUS
 62
     3
 10
27013.509473585142
 20
18227.986568999979
 30
0.0
 11
27043.507097585149
 21
18227.986568999979
 31
0.0
  0
LINE
  5
10605
  8
2-0
  6
CONTINUOUS
 62
     3
 10
27013.509473585142
 20
18221.990606999989
 30
0.0
 11
27013.509473585142
 21
18227.986568999979
 31
0.0
  0
LINE
  5
10606
  8
2-0
  6
CONTINUOUS
 62
     3
 10
27013.509473585142
 20
18238.082113999979
 30
0.0
 11
27043.507097585149
 21
18238.082113999979
 31
0.0
  0
LINE
  5
10607
  8
2-0
  6
CONTINUOUS
 62
     3
 10
27013.509473585142
 20
18220.080371999979
 30
0.0
 11
27013.509473585142
 21
18238.082113999979
 31
0.0
  0
LINE
  5
10608
  8
2-0
  6
CONTINUOUS
 62
     3
 10
27038.506833585139
 20
18220.080371999979
 30
0.0
 11
27013.509473585142
 21
18220.080371999979
 31
0.0
  0
LINE
  5
10609
  8
2-0
  6
CONTINUOUS
 62
     3
 10
27038.506833585139
 20
18225.08657399995
 30
0.0
 11
27038.506833585139
 21
18220.080371999979
 31
0.0
  0
LINE
  5
1060A
  8
2-0
  6
CONTINUOUS
 62
     3
 10
27031.505276585151
 20
18225.08657399995
 30
0.0
 11
27038.506833585139
 21
18225.08657399995
 31
0.0
  0
LINE
  5
1060B
  8
2-0
  6
CONTINUOUS
 62
     3
 10
27031.505276585151
 20
17524.08063599997
 30
0.0
 11
27038.506833585139
 21
17524.08063599997
 31
0.0
  0
LINE
  5
1060C
  8
2-0
  6
CONTINUOUS
 62
     3
 10
27038.506833585139
 20
17524.08063599997
 30
0.0
 11
27038.506833585139
 21
17519.092248999979
 31
0.0
  0
LINE
  5
1060D
  8
2-0
  6
CONTINUOUS
 62
     3
 10
27038.506833585139
 20
17519.092248999979
 30
0.0
 11
27013.509473585142
 21
17519.092248999979
 31
0.0
  0
LINE
  5
1060E
  8
2-0
  6
CONTINUOUS
 62
     3
 10
27013.509473585142
 20
17519.092248999979
 30
0.0
 11
27013.509473585142
 21
17537.08805199997
 31
0.0
  0
LINE
  5
1060F
  8
2-0
  6
CONTINUOUS
 62
     3
 10
27013.509473585142
 20
17537.08805199997
 30
0.0
 11
27043.507097585149
 21
17537.08805199997
 31
0.0
  0
LINE
  5
10610
  8
2-0
  6
CONTINUOUS
 62
     3
 10
27013.509473585142
 20
17520.990606999982
 30
0.0
 11
27013.509473585142
 21
17526.986568999971
 31
0.0
  0
LINE
  5
10611
  8
2-0
  6
CONTINUOUS
 62
     3
 10
27013.509473585142
 20
17526.986568999971
 30
0.0
 11
27043.507097585149
 21
17526.986568999971
 31
0.0
  0
LINE
  5
10612
  8
2-0
  6
CONTINUOUS
 62
     3
 10
27043.507097585149
 20
17526.986568999971
 30
0.0
 11
27043.507097585149
 21
17489.987386999979
 31
0.0
  0
LINE
  5
10613
  8
2-0
  6
CONTINUOUS
 62
     3
 10
27013.509473585142
 20
17489.987386999979
 30
0.0
 11
27043.507097585149
 21
17489.987386999979
 31
0.0
  0
LINE
  5
10614
  8
2-0
  6
CONTINUOUS
 62
     3
 10
27013.509473585142
 20
17495.98928799995
 30
0.0
 11
27013.509473585142
 21
17489.987386999979
 31
0.0
  0
LINE
  5
10615
  8
2-0
  6
CONTINUOUS
 62
     3
 10
27013.509473585142
 20
17479.897780999981
 30
0.0
 11
27043.507097585149
 21
17479.897780999981
 31
0.0
  0
LINE
  5
10616
  8
2-0
  6
CONTINUOUS
 62
     3
 10
27013.509473585142
 20
17497.893583999979
 30
0.0
 11
27013.509473585142
 21
17479.897780999981
 31
0.0
  0
LINE
  5
10617
  8
2-0
  6
CONTINUOUS
 62
     3
 10
27038.506833585139
 20
17497.893583999979
 30
0.0
 11
27013.509473585142
 21
17497.893583999979
 31
0.0
  0
LINE
  5
10618
  8
2-0
  6
CONTINUOUS
 62
     3
 10
27038.506833585139
 20
17492.893320999989
 30
0.0
 11
27038.506833585139
 21
17497.893583999979
 31
0.0
  0
LINE
  5
10619
  8
2-0
  6
CONTINUOUS
 62
     3
 10
27031.505276585151
 20
17492.893320999989
 30
0.0
 11
27038.506833585139
 21
17492.893320999989
 31
0.0
  0
LINE
  5
1061A
  8
2-0
  6
CONTINUOUS
 62
     3
 10
27040.620959585151
 20
16772.984206999969
 30
0.0
 11
27040.620959585151
 21
16792.98526199998
 31
0.0
  0
LINE
  5
1061B
  8
2-0
  6
CONTINUOUS
 62
     3
 10
27040.620959585151
 20
16792.98526199998
 30
0.0
 11
26955.62439058513
 21
16792.98526199998
 31
0.0
  0
LINE
  5
1061C
  8
2-0
  6
CONTINUOUS
 62
     3
 10
27031.505276585151
 20
16819.59197199998
 30
0.0
 11
27038.506833585139
 21
16819.59197199998
 31
0.0
  0
LINE
  5
1061D
  8
2-0
  6
CONTINUOUS
 62
     3
 10
27038.506833585139
 20
16819.59197199998
 30
0.0
 11
27038.506833585139
 21
16814.59764599998
 31
0.0
  0
LINE
  5
1061E
  8
2-0
  6
CONTINUOUS
 62
     3
 10
27038.506833585139
 20
16814.59764599998
 30
0.0
 11
27013.509473585142
 21
16814.59764599998
 31
0.0
  0
LINE
  5
1061F
  8
2-0
  6
CONTINUOUS
 62
     3
 10
27013.509473585142
 20
16814.59764599998
 30
0.0
 11
27013.509473585142
 21
16832.593449999978
 31
0.0
  0
LINE
  5
10620
  8
2-0
  6
CONTINUOUS
 62
     3
 10
27013.509473585142
 20
16832.593449999978
 30
0.0
 11
27043.507097585149
 21
16832.593449999978
 31
0.0
  0
LINE
  5
10621
  8
2-0
  6
CONTINUOUS
 62
     3
 10
27013.509473585142
 20
16822.98486599997
 30
0.0
 11
27013.509473585142
 21
16816.98296599996
 31
0.0
  0
LINE
  5
10622
  8
2-0
  6
CONTINUOUS
 62
     3
 10
27043.507097585149
 20
16822.98486599997
 30
0.0
 11
27013.509473585142
 21
16822.98486599997
 31
0.0
  0
LINE
  5
10623
  8
2-0
  6
CONTINUOUS
 62
     3
 10
27043.507097585149
 20
16832.593449999978
 30
0.0
 11
27043.507097585149
 21
17479.897780999981
 31
0.0
  0
LINE
  5
10624
  8
2-0
  6
CONTINUOUS
 62
     3
 10
27043.507097585149
 20
17537.08805199997
 30
0.0
 11
27043.507097585149
 21
18180.891841999979
 31
0.0
  0
LINE
  5
10625
  8
2-0
  6
CONTINUOUS
 62
     3
 10
27043.507097585149
 20
16677.983150999979
 30
0.0
 11
27013.509473585142
 21
16677.983150999979
 31
0.0
  0
LINE
  5
10626
  8
2-0
  6
CONTINUOUS
 62
     3
 10
27013.509473585142
 20
16677.983150999979
 30
0.0
 11
27013.509473585142
 21
16683.985050999971
 31
0.0
  0
LINE
  5
10627
  8
2-0
  6
CONTINUOUS
 62
     3
 10
26955.62439058513
 20
16707.98869399996
 30
0.0
 11
27040.620959585151
 21
16707.98869399996
 31
0.0
  0
LINE
  5
10628
  8
2-0
  6
CONTINUOUS
 62
     3
 10
27040.620959585151
 20
16707.98869399996
 30
0.0
 11
27040.620959585151
 21
16727.98381099998
 31
0.0
  0
LINE
  5
10629
  8
2-0
  6
CONTINUOUS
 62
     3
 10
27013.509473585142
 20
16668.374567999988
 30
0.0
 11
27043.507097585149
 21
16668.374567999988
 31
0.0
  0
LINE
  5
1062A
  8
2-0
  6
CONTINUOUS
 62
     3
 10
27013.509473585142
 20
16686.370370999972
 30
0.0
 11
27013.509473585142
 21
16668.374567999988
 31
0.0
  0
LINE
  5
1062B
  8
2-0
  6
CONTINUOUS
 62
     3
 10
27038.506833585139
 20
16686.370370999972
 30
0.0
 11
27013.509473585142
 21
16686.370370999972
 31
0.0
  0
LINE
  5
1062C
  8
2-0
  6
CONTINUOUS
 62
     3
 10
27038.506833585139
 20
16681.370106999981
 30
0.0
 11
27038.506833585139
 21
16686.370370999972
 31
0.0
  0
LINE
  5
1062D
  8
2-0
  6
CONTINUOUS
 62
     3
 10
27031.505276585151
 20
16681.370106999981
 30
0.0
 11
27038.506833585139
 21
16681.370106999981
 31
0.0
  0
LINE
  5
1062E
  8
2-0
  6
CONTINUOUS
 62
     3
 10
27031.505276585151
 20
15976.887876499961
 30
0.0
 11
27038.506833585139
 21
15976.887876499961
 31
0.0
  0
LINE
  5
1062F
  8
2-0
  6
CONTINUOUS
 62
     3
 10
27038.506833585139
 20
15976.887876499961
 30
0.0
 11
27038.506833585139
 21
15981.888140499959
 31
0.0
  0
LINE
  5
10630
  8
2-0
  6
CONTINUOUS
 62
     3
 10
27038.506833585139
 20
15981.888140499959
 30
0.0
 11
27013.509473585142
 21
15981.888140499959
 31
0.0
  0
LINE
  5
10631
  8
2-0
  6
CONTINUOUS
 62
     3
 10
27013.509473585142
 20
15981.888140499959
 30
0.0
 11
27013.509473585142
 21
15963.88639849997
 31
0.0
  0
LINE
  5
10632
  8
2-0
  6
CONTINUOUS
 62
     3
 10
27013.509473585142
 20
15963.88639849997
 30
0.0
 11
27043.507097585149
 21
15963.88639849997
 31
0.0
  0
LINE
  5
10633
  8
2-0
  6
CONTINUOUS
 62
     3
 10
27013.509473585142
 20
15979.98384349996
 30
0.0
 11
27013.509473585142
 21
15973.98689249997
 31
0.0
  0
LINE
  5
10634
  8
2-0
  6
CONTINUOUS
 62
     3
 10
27013.509473585142
 20
15973.98689249997
 30
0.0
 11
27043.507097585149
 21
15973.98689249997
 31
0.0
  0
LINE
  5
10635
  8
2-0
  6
CONTINUOUS
 62
     3
 10
27043.507097585149
 20
15973.98689249997
 30
0.0
 11
27043.507097585149
 21
16010.987063499981
 31
0.0
  0
LINE
  5
10636
  8
2-0
  6
CONTINUOUS
 62
     3
 10
27013.509473585142
 20
16010.987063499981
 30
0.0
 11
27043.507097585149
 21
16010.987063499981
 31
0.0
  0
LINE
  5
10637
  8
2-0
  6
CONTINUOUS
 62
     3
 10
27013.509473585142
 20
16004.98417349997
 30
0.0
 11
27013.509473585142
 21
16010.987063499981
 31
0.0
  0
LINE
  5
10638
  8
2-0
  6
CONTINUOUS
 62
     3
 10
27013.509473585142
 20
16021.082608499981
 30
0.0
 11
27043.507097585149
 21
16021.082608499981
 31
0.0
  0
LINE
  5
10639
  8
2-0
  6
CONTINUOUS
 62
     3
 10
27013.509473585142
 20
16003.074927499971
 30
0.0
 11
27013.509473585142
 21
16021.082608499981
 31
0.0
  0
LINE
  5
1063A
  8
2-0
  6
CONTINUOUS
 62
     3
 10
27038.506833585139
 20
16003.074927499971
 30
0.0
 11
27013.509473585142
 21
16003.074927499971
 31
0.0
  0
LINE
  5
1063B
  8
2-0
  6
CONTINUOUS
 62
     3
 10
27038.506833585139
 20
16008.081130499981
 30
0.0
 11
27038.506833585139
 21
16003.074927499971
 31
0.0
  0
LINE
  5
1063C
  8
2-0
  6
CONTINUOUS
 62
     3
 10
27031.505276585151
 20
16008.081130499981
 30
0.0
 11
27038.506833585139
 21
16008.081130499981
 31
0.0
  0
LINE
  5
1063D
  8
2-0
  6
CONTINUOUS
 62
     3
 10
27031.505276585151
 20
15307.32114699999
 30
0.0
 11
27038.506833585139
 21
15307.32114699999
 31
0.0
  0
LINE
  5
1063E
  8
2-0
  6
CONTINUOUS
 62
     3
 10
27038.506833585139
 20
15307.32114699999
 30
0.0
 11
27038.506833585139
 21
15302.326821999981
 31
0.0
  0
LINE
  5
1063F
  8
2-0
  6
CONTINUOUS
 62
     3
 10
27038.506833585139
 20
15302.326821999981
 30
0.0
 11
27013.509473585142
 21
15302.326821999981
 31
0.0
  0
LINE
  5
10640
  8
2-0
  6
CONTINUOUS
 62
     3
 10
27013.509473585142
 20
15302.326821999981
 30
0.0
 11
27013.509473585142
 21
15320.322624999981
 31
0.0
  0
LINE
  5
10641
  8
2-0
  6
CONTINUOUS
 62
     3
 10
27013.509473585142
 20
15320.322624999981
 30
0.0
 11
27043.507097585149
 21
15320.322624999981
 31
0.0
  0
LINE
  5
10642
  8
2-0
  6
CONTINUOUS
 62
     3
 10
27013.509473585142
 20
15304.22517999999
 30
0.0
 11
27013.509473585142
 21
15310.22707999999
 31
0.0
  0
LINE
  5
10643
  8
2-0
  6
CONTINUOUS
 62
     3
 10
27013.509473585142
 20
15310.22707999999
 30
0.0
 11
27043.507097585149
 21
15310.22707999999
 31
0.0
  0
LINE
  5
10644
  8
2-0
  6
CONTINUOUS
 62
     3
 10
27043.507097585149
 20
15273.22789899999
 30
0.0
 11
27043.507097585149
 21
15310.22707999999
 31
0.0
  0
LINE
  5
10645
  8
2-0
  6
CONTINUOUS
 62
     3
 10
27013.509473585142
 20
15273.22789899999
 30
0.0
 11
27043.507097585149
 21
15273.22789899999
 31
0.0
  0
LINE
  5
10646
  8
2-0
  6
CONTINUOUS
 62
     3
 10
27013.509473585142
 20
15279.22484999997
 30
0.0
 11
27013.509473585142
 21
15273.22789899999
 31
0.0
  0
LINE
  5
10647
  8
2-0
  6
CONTINUOUS
 62
     3
 10
27013.509473585142
 20
15263.12641499999
 30
0.0
 11
27043.507097585149
 21
15263.12641499999
 31
0.0
  0
LINE
  5
10648
  8
2-0
  6
CONTINUOUS
 62
     3
 10
27013.509473585142
 20
15281.13409599998
 30
0.0
 11
27013.509473585142
 21
15263.12641499999
 31
0.0
  0
LINE
  5
10649
  8
2-0
  6
CONTINUOUS
 62
     3
 10
27038.506833585139
 20
15281.13409599998
 30
0.0
 11
27013.509473585142
 21
15281.13409599998
 31
0.0
  0
LINE
  5
1064A
  8
2-0
  6
CONTINUOUS
 62
     3
 10
27038.506833585139
 20
15276.13383199999
 30
0.0
 11
27038.506833585139
 21
15281.13409599998
 31
0.0
  0
LINE
  5
1064B
  8
2-0
  6
CONTINUOUS
 62
     3
 10
27031.505276585151
 20
15276.13383199999
 30
0.0
 11
27038.506833585139
 21
15276.13383199999
 31
0.0
  0
LINE
  5
1064C
  8
2-0
  6
CONTINUOUS
 62
     3
 10
27043.507097585149
 20
16668.374567999988
 30
0.0
 11
27043.507097585149
 21
16021.082608499981
 31
0.0
  0
LINE
  5
1064D
  8
2-0
  6
CONTINUOUS
 62
     3
 10
27043.507097585149
 20
16822.98486599997
 30
0.0
 11
27043.507097585149
 21
16677.983150999979
 31
0.0
  0
LINE
  5
1064E
  8
2-0
  6
CONTINUOUS
 62
     3
 10
26955.62439058513
 20
16792.98526199998
 30
0.0
 11
26955.62439058513
 21
16707.98869399996
 31
0.0
  0
LINE
  5
1064F
  8
2-0
  6
CONTINUOUS
 62
     6
 10
25417.415723585142
 20
18561.432527499968
 30
0.0
 11
26442.44805558513
 21
18561.432527499968
 31
0.0
  0
LINE
  5
10650
  8
2-0
  6
CONTINUOUS
 62
     3
 10
27031.505276585151
 20
14574.892824999981
 30
0.0
 11
27038.506833585139
 21
14574.892824999981
 31
0.0
  0
LINE
  5
10651
  8
2-0
  6
CONTINUOUS
 62
     3
 10
27038.506833585139
 20
14574.892824999981
 30
0.0
 11
27038.506833585139
 21
14579.887150999981
 31
0.0
  0
LINE
  5
10652
  8
2-0
  6
CONTINUOUS
 62
     3
 10
27038.506833585139
 20
14579.887150999981
 30
0.0
 11
27013.509473585142
 21
14579.887150999981
 31
0.0
  0
LINE
  5
10653
  8
2-0
  6
CONTINUOUS
 62
     3
 10
27013.509473585142
 20
14579.887150999981
 30
0.0
 11
27013.509473585142
 21
14561.891346999981
 31
0.0
  0
LINE
  5
10654
  8
2-0
  6
CONTINUOUS
 62
     3
 10
27013.509473585142
 20
14561.891346999981
 30
0.0
 11
27043.507097585149
 21
14561.891346999981
 31
0.0
  0
LINE
  5
10655
  8
2-0
  6
CONTINUOUS
 62
     3
 10
27013.509473585142
 20
14577.98978199999
 30
0.0
 11
27013.509473585142
 21
14571.986891999981
 31
0.0
  0
LINE
  5
10656
  8
2-0
  6
CONTINUOUS
 62
     3
 10
27013.509473585142
 20
14571.986891999981
 30
0.0
 11
27043.507097585149
 21
14571.986891999981
 31
0.0
  0
LINE
  5
10657
  8
2-0
  6
CONTINUOUS
 62
     3
 10
27043.507097585149
 20
14571.986891999981
 30
0.0
 11
27043.507097585149
 21
14608.987063999961
 31
0.0
  0
LINE
  5
10658
  8
2-0
  6
CONTINUOUS
 62
     3
 10
27013.509473585142
 20
14608.987063999961
 30
0.0
 11
27043.507097585149
 21
14608.987063999961
 31
0.0
  0
LINE
  5
10659
  8
2-0
  6
CONTINUOUS
 62
     3
 10
27013.509473585142
 20
14602.99011199997
 30
0.0
 11
27013.509473585142
 21
14608.987063999961
 31
0.0
  0
LINE
  5
1065A
  8
2-0
  6
CONTINUOUS
 62
     3
 10
27013.509473585142
 20
14619.087556999981
 30
0.0
 11
27043.507097585149
 21
14619.087556999981
 31
0.0
  0
LINE
  5
1065B
  8
2-0
  6
CONTINUOUS
 62
     3
 10
27013.509473585142
 20
14601.080865999989
 30
0.0
 11
27013.509473585142
 21
14619.087556999981
 31
0.0
  0
LINE
  5
1065C
  8
2-0
  6
CONTINUOUS
 62
     3
 10
27038.506833585139
 20
14601.080865999989
 30
0.0
 11
27013.509473585142
 21
14601.080865999989
 31
0.0
  0
LINE
  5
1065D
  8
2-0
  6
CONTINUOUS
 62
     3
 10
27038.506833585139
 20
14606.08607899999
 30
0.0
 11
27038.506833585139
 21
14601.080865999989
 31
0.0
  0
LINE
  5
1065E
  8
2-0
  6
CONTINUOUS
 62
     3
 10
27031.505276585151
 20
14606.08607899999
 30
0.0
 11
27038.506833585139
 21
14606.08607899999
 31
0.0
  0
LINE
  5
1065F
  8
2-0
  6
CONTINUOUS
 62
     3
 10
27013.509473585142
 20
14249.48890499996
 30
0.0
 11
27013.509473585142
 21
14255.49377399998
 31
0.0
  0
LINE
  5
10660
  8
2-0
  6
CONTINUOUS
 62
     3
 10
27013.509473585142
 20
14255.49377399998
 30
0.0
 11
27043.507097585149
 21
14255.49377399998
 31
0.0
  0
LINE
  5
10661
  8
2-0
  6
CONTINUOUS
 62
     3
 10
27043.507097585149
 20
14255.49377399998
 30
0.0
 11
27043.507097585149
 21
14140.489682999971
 31
0.0
  0
LINE
  5
10662
  8
2-0
  6
CONTINUOUS
 62
     3
 10
27043.507097585149
 20
14140.489682999971
 30
0.0
 11
26958.508549585149
 21
14140.489682999971
 31
0.0
  0
LINE
  5
10663
  8
2-0
  6
CONTINUOUS
 62
     3
 10
26958.508549585149
 20
14140.489682999971
 30
0.0
 11
26958.508549585149
 21
14225.48526199998
 31
0.0
  0
LINE
  5
10664
  8
2-0
  6
CONTINUOUS
 62
     3
 10
26958.508549585149
 20
14225.48526199998
 30
0.0
 11
26990.507467585139
 21
14225.48526199998
 31
0.0
  0
LINE
  5
10665
  8
2-0
  6
CONTINUOUS
 62
     3
 10
27031.505276585151
 20
14252.523506999971
 30
0.0
 11
27038.506833585139
 21
14252.523506999971
 31
0.0
  0
LINE
  5
10666
  8
2-0
  6
CONTINUOUS
 62
     3
 10
27038.506833585139
 20
14252.523506999971
 30
0.0
 11
27038.506833585139
 21
14247.526211999961
 31
0.0
  0
LINE
  5
10667
  8
2-0
  6
CONTINUOUS
 62
     3
 10
27038.506833585139
 20
14247.526211999961
 30
0.0
 11
27013.509473585142
 21
14247.526211999961
 31
0.0
  0
LINE
  5
10668
  8
2-0
  6
CONTINUOUS
 62
     3
 10
27013.509473585142
 20
14247.526211999961
 30
0.0
 11
27013.509473585142
 21
14265.52498499998
 31
0.0
  0
LINE
  5
10669
  8
2-0
  6
CONTINUOUS
 62
     3
 10
27013.509473585142
 20
14265.52498499998
 30
0.0
 11
27043.507097585149
 21
14265.52498499998
 31
0.0
  0
LINE
  5
1066A
  8
2-0
  6
CENTER2
 62
     6
 10
27001.008813585151
 20
13942.99212499997
 30
0.0
 11
27001.008813585151
 21
14748.36088299999
 31
0.0
  0
LINE
  5
1066B
  8
2-0
  6
CONTINUOUS
 62
     3
 10
27043.507097585149
 20
18238.082113999979
 30
0.0
 11
27043.507097585149
 21
18881.892831499979
 31
0.0
  0
LINE
  5
1066C
  8
2-0
  6
CONTINUOUS
 62
     6
 10
27736.011980585139
 20
20090.488165999999
 30
0.0
 11
28936.006042585119
 21
20090.488165999999
 31
0.0
  0
LINE
  5
1066D
  8
2-0
  6
CONTINUOUS
 62
     6
 10
26873.97914758512
 20
18803.587035499972
 30
0.0
 11
26442.44805558513
 21
18561.432527499968
 31
0.0
  0
LINE
  5
1066E
  8
2-0
  6
CONTINUOUS
 62
     6
 10
27195.547981585089
 20
19503.16500299998
 30
0.0
 11
27736.011980585139
 21
20090.488165999999
 31
0.0
  0
LINE
  5
1066F
  8
2-0
  6
CONTINUOUS
 62
     3
 10
26952.502690585141
 20
18166.98572399994
 30
0.0
 11
26999.508338585121
 21
18166.98572399994
 31
0.0
  0
LINE
  5
10670
  8
2-0
  6
CONTINUOUS
 62
     3
 10
26999.508338585121
 20
18251.986251999981
 30
0.0
 11
26952.502690585141
 21
18251.986251999981
 31
0.0
  0
LINE
  5
10671
  8
2-0
  6
CONTINUOUS
 62
     3
 10
26999.508338585121
 20
18166.98572399994
 30
0.0
 11
26999.508338585121
 21
18191.98902299998
 31
0.0
  0
LINE
  5
10672
  8
2-0
  6
CONTINUOUS
 62
     3
 10
26999.508338585121
 20
18226.984931999988
 30
0.0
 11
26999.508338585121
 21
18251.986251999981
 31
0.0
  0
LINE
  5
10673
  8
2-0
  6
CONTINUOUS
 62
     3
 10
26952.502690585141
 20
18251.986251999981
 30
0.0
 11
26952.502690585141
 21
18166.98572399994
 31
0.0
  0
LINE
  5
10674
  8
2-0
  6
CONTINUOUS
 62
     3
 10
27043.507097585149
 20
15963.88639849997
 30
0.0
 11
27043.507097585149
 21
15320.322624999981
 31
0.0
  0
LINE
  5
10675
  8
2-0
  6
CONTINUOUS
 62
     3
 10
26952.502690585141
 20
15248.988693999991
 30
0.0
 11
26999.508338585121
 21
15248.988693999991
 31
0.0
  0
LINE
  5
10676
  8
2-0
  6
CONTINUOUS
 62
     3
 10
26999.508338585121
 20
15333.98526199996
 30
0.0
 11
26952.502690585141
 21
15333.98526199996
 31
0.0
  0
LINE
  5
10677
  8
2-0
  6
CONTINUOUS
 62
     3
 10
26999.508338585121
 20
15248.988693999991
 30
0.0
 11
26999.508338585121
 21
15273.984074999989
 31
0.0
  0
LINE
  5
10678
  8
2-0
  6
CONTINUOUS
 62
     3
 10
26999.508338585121
 20
15308.98394299999
 30
0.0
 11
26999.508338585121
 21
15333.98526199996
 31
0.0
  0
LINE
  5
10679
  8
2-0
  6
CONTINUOUS
 62
     3
 10
26952.502690585141
 20
15333.98526199996
 30
0.0
 11
26952.502690585141
 21
15248.988693999991
 31
0.0
  0
LINE
  5
1067A
  8
2-0
  6
CONTINUOUS
 62
     6
 10
26860.92224258514
 20
18826.84637949997
 30
0.0
 11
27013.509473585142
 21
18881.892831499979
 31
0.0
  0
LINE
  5
1067B
  8
2-0
  6
CONTINUOUS
 62
     6
 10
27013.509473585142
 20
18881.892831499979
 30
0.0
 11
26887.02813358514
 21
18780.333631499929
 31
0.0
  0
LINE
  5
1067C
  8
2-0
  6
CONTINUOUS
 62
     6
 10
26860.92224258514
 20
18826.84637949997
 30
0.0
 11
26887.02813358514
 21
18780.333631499929
 31
0.0
  0
LINE
  5
1067D
  8
2-0
  6
CONTINUOUS
 62
     6
 10
26887.02813358514
 20
18780.333631499929
 30
0.0
 11
27013.509473585142
 21
18881.892831499979
 31
0.0
  0
LINE
  5
1067E
  8
2-0
  6
CONTINUOUS
 62
     6
 10
27013.509473585142
 20
18881.892831499979
 30
0.0
 11
26860.92224258514
 21
18826.84637949997
 31
0.0
  0
LINE
  5
1067F
  8
2-0
  6
CONTINUOUS
 62
     6
 10
26860.92224258514
 20
18826.84637949997
 30
0.0
 11
27013.509473585142
 21
18881.892831499979
 31
0.0
  0
LINE
  5
10680
  8
2-0
  6
CONTINUOUS
 62
     6
 10
26887.02813358514
 20
18780.333631499929
 30
0.0
 11
27013.509473585142
 21
18881.892831499979
 31
0.0
  0
LINE
  5
10681
  8
2-0
  6
CONTINUOUS
 62
     6
 10
26887.02813358514
 20
18780.333631499929
 30
0.0
 11
26860.92224258514
 21
18826.84637949997
 31
0.0
  0
LINE
  5
10682
  8
2-0
  6
CONTINUOUS
 62
     6
 10
27215.16501058514
 20
19485.10387599999
 30
0.0
 11
27087.202990585149
 21
19385.421257999991
 31
0.0
  0
LINE
  5
10683
  8
2-0
  6
CONTINUOUS
 62
     6
 10
27087.202990585149
 20
19385.421257999991
 30
0.0
 11
27175.91709558513
 21
19521.218213
 31
0.0
  0
LINE
  5
10684
  8
2-0
  6
CONTINUOUS
 62
     6
 10
27215.16501058514
 20
19485.10387599999
 30
0.0
 11
27175.91709558513
 21
19521.218213
 31
0.0
  0
LINE
  5
10685
  8
2-0
  6
CONTINUOUS
 62
     6
 10
27175.91709558513
 20
19521.218213
 30
0.0
 11
27087.202990585149
 21
19385.421257999991
 31
0.0
  0
LINE
  5
10686
  8
2-0
  6
CONTINUOUS
 62
     6
 10
27087.202990585149
 20
19385.421257999991
 30
0.0
 11
27215.16501058514
 21
19485.10387599999
 31
0.0
  0
LINE
  5
10687
  8
2-0
  6
CONTINUOUS
 62
     6
 10
27215.16501058514
 20
19485.10387599999
 30
0.0
 11
27087.202990585149
 21
19385.421257999991
 31
0.0
  0
LINE
  5
10688
  8
2-0
  6
CONTINUOUS
 62
     6
 10
27175.91709558513
 20
19521.218213
 30
0.0
 11
27087.202990585149
 21
19385.421257999991
 31
0.0
  0
LINE
  5
10689
  8
2-0
  6
CONTINUOUS
 62
     6
 10
27175.91709558513
 20
19521.218213
 30
0.0
 11
27215.16501058514
 21
19485.10387599999
 31
0.0
  0
LINE
  5
1068A
  8
2-0
  6
CONTINUOUS
 62
     6
 10
26797.183723585142
 20
15202.481883999981
 30
0.0
 11
26952.502690585141
 21
15249.229204999991
 31
0.0
  0
LINE
  5
1068B
  8
2-0
  6
CONTINUOUS
 62
     6
 10
26952.502690585141
 20
15249.229204999991
 30
0.0
 11
26820.74197458514
 21
15154.636920000001
 31
0.0
  0
LINE
  5
1068C
  8
2-0
  6
CONTINUOUS
 62
     6
 10
26797.183723585142
 20
15202.481883999981
 30
0.0
 11
26820.74197458514
 21
15154.636920000001
 31
0.0
  0
LINE
  5
1068D
  8
2-0
  6
CONTINUOUS
 62
     6
 10
26820.74197458514
 20
15154.636920000001
 30
0.0
 11
26952.502690585141
 21
15249.229204999991
 31
0.0
  0
LINE
  5
1068E
  8
2-0
  6
CONTINUOUS
 62
     6
 10
26952.502690585141
 20
15249.229204999991
 30
0.0
 11
26797.183723585142
 21
15202.481883999981
 31
0.0
  0
LINE
  5
1068F
  8
2-0
  6
CONTINUOUS
 62
     6
 10
26797.183723585142
 20
15202.481883999981
 30
0.0
 11
26952.502690585141
 21
15249.229204999991
 31
0.0
  0
LINE
  5
10690
  8
2-0
  6
CONTINUOUS
 62
     6
 10
26820.74197458514
 20
15154.636920000001
 30
0.0
 11
26952.502690585141
 21
15249.229204999991
 31
0.0
  0
LINE
  5
10691
  8
2-0
  6
CONTINUOUS
 62
     6
 10
26820.74197458514
 20
15154.636920000001
 30
0.0
 11
26797.183723585142
 21
15202.481883999981
 31
0.0
  0
LINE
  5
10692
  8
2-0
  6
CONTINUOUS
 62
     6
 10
26766.869376585149
 20
14032.216944999969
 30
0.0
 11
26898.616235585148
 21
14126.843871999979
 31
0.0
  0
LINE
  5
10693
  8
2-0
  6
CONTINUOUS
 62
     6
 10
26898.616235585148
 20
14126.843871999979
 30
0.0
 11
26804.686099585131
 21
13994.60510199997
 31
0.0
  0
LINE
  5
10694
  8
2-0
  6
CONTINUOUS
 62
     6
 10
26766.869376585149
 20
14032.216944999969
 30
0.0
 11
26804.686099585131
 21
13994.60510199997
 31
0.0
  0
LINE
  5
10695
  8
2-0
  6
CONTINUOUS
 62
     6
 10
26804.686099585131
 20
13994.60510199997
 30
0.0
 11
26898.616235585148
 21
14126.843871999979
 31
0.0
  0
LINE
  5
10696
  8
2-0
  6
CONTINUOUS
 62
     6
 10
26898.616235585148
 20
14126.843871999979
 30
0.0
 11
26766.869376585149
 21
14032.216944999969
 31
0.0
  0
LINE
  5
10697
  8
2-0
  6
CONTINUOUS
 62
     6
 10
26766.869376585149
 20
14032.216944999969
 30
0.0
 11
26898.616235585148
 21
14126.843871999979
 31
0.0
  0
LINE
  5
10698
  8
2-0
  6
CONTINUOUS
 62
     6
 10
26804.686099585131
 20
13994.60510199997
 30
0.0
 11
26898.616235585148
 21
14126.843871999979
 31
0.0
  0
LINE
  5
10699
  8
2-0
  6
CONTINUOUS
 62
     6
 10
26804.686099585131
 20
13994.60510199997
 30
0.0
 11
26766.869376585149
 21
14032.216944999969
 31
0.0
  0
LINE
  5
1069A
  8
2-0
  6
CONTINUOUS
 62
     6
 10
26829.905165585151
 20
14359.121571999969
 30
0.0
 11
26962.50519758512
 21
14265.693243999969
 31
0.0
  0
LINE
  5
1069B
  8
2-0
  6
CONTINUOUS
 62
     6
 10
26962.50519758512
 20
14265.693243999969
 30
0.0
 11
26806.772511585139
 21
14311.068757999979
 31
0.0
  0
LINE
  5
1069C
  8
2-0
  6
CONTINUOUS
 62
     6
 10
26829.905165585151
 20
14359.121571999969
 30
0.0
 11
26806.772511585139
 21
14311.068757999979
 31
0.0
  0
LINE
  5
1069D
  8
2-0
  6
CONTINUOUS
 62
     6
 10
26806.772511585139
 20
14311.068757999979
 30
0.0
 11
26962.50519758512
 21
14265.693243999969
 31
0.0
  0
LINE
  5
1069E
  8
2-0
  6
CONTINUOUS
 62
     6
 10
26962.50519758512
 20
14265.693243999969
 30
0.0
 11
26829.905165585151
 21
14359.121571999969
 31
0.0
  0
LINE
  5
1069F
  8
2-0
  6
CONTINUOUS
 62
     6
 10
26829.905165585151
 20
14359.121571999969
 30
0.0
 11
26962.50519758512
 21
14265.693243999969
 31
0.0
  0
LINE
  5
106A0
  8
2-0
  6
CONTINUOUS
 62
     6
 10
26806.772511585139
 20
14311.068757999979
 30
0.0
 11
26962.50519758512
 21
14265.693243999969
 31
0.0
  0
LINE
  5
106A1
  8
2-0
  6
CONTINUOUS
 62
     6
 10
26806.772511585139
 20
14311.068757999979
 30
0.0
 11
26829.905165585151
 21
14359.121571999969
 31
0.0
  0
LINE
  5
106A2
  8
2-0
  6
CONTINUOUS
 62
     6
 10
26889.668811585139
 20
16388.442504999999
 30
0.0
 11
27043.507097585149
 21
16439.876336000001
 31
0.0
  0
LINE
  5
106A3
  8
2-0
  6
CONTINUOUS
 62
     6
 10
27043.507097585149
 20
16439.876336000001
 30
0.0
 11
26914.672110585128
 21
16341.335901
 31
0.0
  0
LINE
  5
106A4
  8
2-0
  6
CONTINUOUS
 62
     6
 10
26889.668811585139
 20
16388.442504999999
 30
0.0
 11
26914.672110585128
 21
16341.335901
 31
0.0
  0
LINE
  5
106A5
  8
2-0
  6
CONTINUOUS
 62
     6
 10
26914.672110585128
 20
16341.335901
 30
0.0
 11
27043.507097585149
 21
16439.876336000001
 31
0.0
  0
LINE
  5
106A6
  8
2-0
  6
CONTINUOUS
 62
     6
 10
27043.507097585149
 20
16439.876336000001
 30
0.0
 11
26889.668811585139
 21
16388.442504999999
 31
0.0
  0
LINE
  5
106A7
  8
2-0
  6
CONTINUOUS
 62
     6
 10
26889.668811585139
 20
16388.442504999999
 30
0.0
 11
27043.507097585149
 21
16439.876336000001
 31
0.0
  0
LINE
  5
106A8
  8
2-0
  6
CONTINUOUS
 62
     6
 10
26914.672110585128
 20
16341.335901
 30
0.0
 11
27043.507097585149
 21
16439.876336000001
 31
0.0
  0
LINE
  5
106A9
  8
2-0
  6
CONTINUOUS
 62
     6
 10
26914.672110585128
 20
16341.335901
 30
0.0
 11
26889.668811585139
 21
16388.442504999999
 31
0.0
  0
LINE
  5
106AA
  8
2-0
  6
CONTINUOUS
 62
     6
 10
26755.732604585141
 20
16879.76099699999
 30
0.0
 11
26898.616235585148
 21
16802.98536799998
 31
0.0
  0
LINE
  5
106AB
  8
2-0
  6
CONTINUOUS
 62
     6
 10
26898.616235585148
 20
16802.98536799998
 30
0.0
 11
26738.55434258515
 21
16829.267436999999
 31
0.0
  0
LINE
  5
106AC
  8
2-0
  6
CONTINUOUS
 62
     6
 10
26755.732604585141
 20
16879.76099699999
 30
0.0
 11
26738.55434258515
 21
16829.267436999999
 31
0.0
  0
LINE
  5
106AD
  8
2-0
  6
CONTINUOUS
 62
     6
 10
26738.55434258515
 20
16829.267436999999
 30
0.0
 11
26898.616235585148
 21
16802.98536799998
 31
0.0
  0
LINE
  5
106AE
  8
2-0
  6
CONTINUOUS
 62
     6
 10
26898.616235585148
 20
16802.98536799998
 30
0.0
 11
26755.732604585141
 21
16879.76099699999
 31
0.0
  0
LINE
  5
106AF
  8
2-0
  6
CONTINUOUS
 62
     6
 10
26755.732604585141
 20
16879.76099699999
 30
0.0
 11
26898.616235585148
 21
16802.98536799998
 31
0.0
  0
LINE
  5
106B0
  8
2-0
  6
CONTINUOUS
 62
     6
 10
26738.55434258515
 20
16829.267436999999
 30
0.0
 11
26898.616235585148
 21
16802.98536799998
 31
0.0
  0
LINE
  5
106B1
  8
2-0
  6
CONTINUOUS
 62
     6
 10
26738.55434258515
 20
16829.267436999999
 30
0.0
 11
26755.732604585141
 21
16879.76099699999
 31
0.0
  0
LINE
  5
106B2
  8
2-0
  6
CONTINUOUS
 62
     6
 10
26797.183723585142
 20
18120.241371999979
 30
0.0
 11
26952.502690585141
 21
18166.98572399994
 31
0.0
  0
LINE
  5
106B3
  8
2-0
  6
CONTINUOUS
 62
     6
 10
26952.502690585141
 20
18166.98572399994
 30
0.0
 11
26820.74197458514
 21
18072.390469999969
 31
0.0
  0
LINE
  5
106B4
  8
2-0
  6
CONTINUOUS
 62
     6
 10
26797.183723585142
 20
18120.241371999979
 30
0.0
 11
26820.74197458514
 21
18072.390469999969
 31
0.0
  0
LINE
  5
106B5
  8
2-0
  6
CONTINUOUS
 62
     6
 10
26820.74197458514
 20
18072.390469999969
 30
0.0
 11
26952.502690585141
 21
18166.98572399994
 31
0.0
  0
LINE
  5
106B6
  8
2-0
  6
CONTINUOUS
 62
     6
 10
26952.502690585141
 20
18166.98572399994
 30
0.0
 11
26797.183723585142
 21
18120.241371999979
 31
0.0
  0
LINE
  5
106B7
  8
2-0
  6
CONTINUOUS
 62
     6
 10
26797.183723585142
 20
18120.241371999979
 30
0.0
 11
26952.502690585141
 21
18166.98572399994
 31
0.0
  0
LINE
  5
106B8
  8
2-0
  6
CONTINUOUS
 62
     6
 10
26820.74197458514
 20
18072.390469999969
 30
0.0
 11
26952.502690585141
 21
18166.98572399994
 31
0.0
  0
LINE
  5
106B9
  8
2-0
  6
CONTINUOUS
 62
     6
 10
26820.74197458514
 20
18072.390469999969
 30
0.0
 11
26797.183723585142
 21
18120.241371999979
 31
0.0
  0
LINE
  5
106BA
  8
2-0
  6
CONTINUOUS
 62
     3
 10
24070.51013358514
 20
19251.485051999971
 30
0.0
 11
24070.51013358514
 21
19245.489089999999
 31
0.0
  0
LINE
  5
106BB
  8
2-0
  6
CONTINUOUS
 62
     3
 10
24070.51013358514
 20
19245.489089999999
 30
0.0
 11
24040.51250858514
 21
19245.489089999999
 31
0.0
  0
LINE
  5
106BC
  8
2-0
  6
CONTINUOUS
 62
     3
 10
24040.51250858514
 20
19245.489089999999
 30
0.0
 11
24040.51250858514
 21
19360.485262999999
 31
0.0
  0
LINE
  5
106BD
  8
2-0
  6
CONTINUOUS
 62
     3
 10
24040.51250858514
 20
19275.488693999981
 30
0.0
 11
24121.510449585148
 21
19275.488693999981
 31
0.0
  0
LINE
  5
106BE
  8
2-0
  6
CONTINUOUS
 62
     3
 10
24070.51013358514
 20
19235.19163399997
 30
0.0
 11
24040.51250858514
 21
19235.19163399997
 31
0.0
  0
LINE
  5
106BF
  8
2-0
  6
CONTINUOUS
 62
     3
 10
24070.51013358514
 20
19253.193375999988
 30
0.0
 11
24070.51013358514
 21
19235.19163399997
 31
0.0
  0
LINE
  5
106C0
  8
2-0
  6
CONTINUOUS
 62
     3
 10
24045.516731585129
 20
19253.193375999988
 30
0.0
 11
24070.51013358514
 21
19253.193375999988
 31
0.0
  0
LINE
  5
106C1
  8
2-0
  6
CONTINUOUS
 62
     3
 10
24045.516731585129
 20
19248.18519399998
 30
0.0
 11
24045.516731585129
 21
19253.193375999988
 31
0.0
  0
LINE
  5
106C2
  8
2-0
  6
CONTINUOUS
 62
     3
 10
24052.514329585108
 20
19248.18519399998
 30
0.0
 11
24045.516731585129
 21
19248.18519399998
 31
0.0
  0
LINE
  5
106C3
  8
2-0
  6
CONTINUOUS
 62
     3
 10
24152.808618585132
 20
19348.485420999979
 30
0.0
 11
24152.808618585132
 21
19355.490936999991
 31
0.0
  0
LINE
  5
106C4
  8
2-0
  6
CONTINUOUS
 62
     3
 10
24152.808618585132
 20
19355.490936999991
 30
0.0
 11
24147.80637458515
 21
19355.490936999991
 31
0.0
  0
LINE
  5
106C5
  8
2-0
  6
CONTINUOUS
 62
     3
 10
24147.80637458515
 20
19355.490936999991
 30
0.0
 11
24147.80637458515
 21
19330.481699999978
 31
0.0
  0
LINE
  5
106C6
  8
2-0
  6
CONTINUOUS
 62
     3
 10
24147.80637458515
 20
19330.481699999978
 30
0.0
 11
24165.814055585139
 21
19330.481699999978
 31
0.0
  0
LINE
  5
106C7
  8
2-0
  6
CONTINUOUS
 62
     3
 10
24165.814055585139
 20
19330.481699999978
 30
0.0
 11
24165.814055585139
 21
19360.485262999999
 31
0.0
  0
LINE
  5
106C8
  8
2-0
  6
CONTINUOUS
 62
     3
 10
24155.514619585148
 20
19360.485262999999
 30
0.0
 11
24040.51250858514
 21
19360.485262999999
 31
0.0
  0
LINE
  5
106C9
  8
2-0
  6
CONTINUOUS
 62
     3
 10
24155.514619585148
 20
19330.481699999978
 30
0.0
 11
24155.514619585148
 21
19360.485262999999
 31
0.0
  0
LINE
  5
106CA
  8
2-0
  6
CONTINUOUS
 62
     3
 10
24149.510740585141
 20
19330.481699999978
 30
0.0
 11
24155.514619585148
 21
19330.481699999978
 31
0.0
  0
LINE
  5
106CB
  8
2-0
  6
CONTINUOUS
 62
     3
 10
24070.51013358514
 20
19251.485051999971
 30
0.0
 11
24070.51013358514
 21
19245.489089999999
 31
0.0
  0
LINE
  5
106CC
  8
2-0
  6
CONTINUOUS
 62
     3
 10
24070.51013358514
 20
19245.489089999999
 30
0.0
 11
24040.51250858514
 21
19245.489089999999
 31
0.0
  0
LINE
  5
106CD
  8
2-0
  6
CONTINUOUS
 62
     3
 10
24040.51250858514
 20
19245.489089999999
 30
0.0
 11
24040.51250858514
 21
19360.485262999999
 31
0.0
  0
LINE
  5
106CE
  8
2-0
  6
CONTINUOUS
 62
     3
 10
24040.51250858514
 20
19275.488693999981
 30
0.0
 11
24121.510449585148
 21
19275.488693999981
 31
0.0
  0
LINE
  5
106CF
  8
2-0
  6
CONTINUOUS
 62
     3
 10
24070.51013358514
 20
19235.19163399997
 30
0.0
 11
24040.51250858514
 21
19235.19163399997
 31
0.0
  0
LINE
  5
106D0
  8
2-0
  6
CONTINUOUS
 62
     3
 10
24070.51013358514
 20
19253.193375999988
 30
0.0
 11
24070.51013358514
 21
19235.19163399997
 31
0.0
  0
LINE
  5
106D1
  8
2-0
  6
CONTINUOUS
 62
     3
 10
24045.516731585129
 20
19253.193375999988
 30
0.0
 11
24070.51013358514
 21
19253.193375999988
 31
0.0
  0
LINE
  5
106D2
  8
2-0
  6
CONTINUOUS
 62
     3
 10
24045.516731585129
 20
19248.18519399998
 30
0.0
 11
24045.516731585129
 21
19253.193375999988
 31
0.0
  0
LINE
  5
106D3
  8
2-0
  6
CONTINUOUS
 62
     3
 10
24052.514329585108
 20
19248.18519399998
 30
0.0
 11
24045.516731585129
 21
19248.18519399998
 31
0.0
  0
LINE
  5
106D4
  8
2-0
  6
CONTINUOUS
 62
     3
 10
24052.514329585108
 20
18894.888371499928
 30
0.0
 11
24045.516731585129
 21
18894.888371499928
 31
0.0
  0
LINE
  5
106D5
  8
2-0
  6
CONTINUOUS
 62
     3
 10
24045.516731585129
 20
18894.888371499928
 30
0.0
 11
24045.516731585129
 21
18899.888635499959
 31
0.0
  0
LINE
  5
106D6
  8
2-0
  6
CONTINUOUS
 62
     3
 10
24045.516731585129
 20
18899.888635499959
 30
0.0
 11
24070.51013358514
 21
18899.888635499959
 31
0.0
  0
LINE
  5
106D7
  8
2-0
  6
CONTINUOUS
 62
     3
 10
24070.51013358514
 20
18899.888635499959
 30
0.0
 11
24070.51013358514
 21
18881.892831499961
 31
0.0
  0
LINE
  5
106D8
  8
2-0
  6
CONTINUOUS
 62
     3
 10
24070.51013358514
 20
18881.892831499961
 30
0.0
 11
24040.51250858514
 21
18881.892831499961
 31
0.0
  0
LINE
  5
106D9
  8
2-0
  6
CONTINUOUS
 62
     3
 10
24070.51013358514
 20
18897.98433849994
 30
0.0
 11
24070.51013358514
 21
18891.986397499972
 31
0.0
  0
LINE
  5
106DA
  8
2-0
  6
CONTINUOUS
 62
     3
 10
24070.51013358514
 20
18891.986397499972
 30
0.0
 11
24040.51250858514
 21
18891.986397499972
 31
0.0
  0
LINE
  5
106DB
  8
2-0
  6
CONTINUOUS
 62
     3
 10
24040.51250858514
 20
18891.986397499972
 30
0.0
 11
24040.51250858514
 21
18928.987558499961
 31
0.0
  0
LINE
  5
106DC
  8
2-0
  6
CONTINUOUS
 62
     3
 10
24070.51013358514
 20
18928.987558499961
 30
0.0
 11
24040.51250858514
 21
18928.987558499961
 31
0.0
  0
LINE
  5
106DD
  8
2-0
  6
CONTINUOUS
 62
     3
 10
24070.51013358514
 20
18922.983678499972
 30
0.0
 11
24070.51013358514
 21
18928.987558499961
 31
0.0
  0
LINE
  5
106DE
  8
2-0
  6
CONTINUOUS
 62
     3
 10
24070.51013358514
 20
18939.083103499939
 30
0.0
 11
24040.51250858514
 21
18939.083103499939
 31
0.0
  0
LINE
  5
106DF
  8
2-0
  6
CONTINUOUS
 62
     3
 10
24070.51013358514
 20
18921.081361499979
 30
0.0
 11
24070.51013358514
 21
18939.083103499939
 31
0.0
  0
LINE
  5
106E0
  8
2-0
  6
CONTINUOUS
 62
     3
 10
24045.516731585129
 20
18921.081361499979
 30
0.0
 11
24070.51013358514
 21
18921.081361499979
 31
0.0
  0
LINE
  5
106E1
  8
2-0
  6
CONTINUOUS
 62
     3
 10
24045.516731585129
 20
18926.08162549997
 30
0.0
 11
24045.516731585129
 21
18921.081361499979
 31
0.0
  0
LINE
  5
106E2
  8
2-0
  6
CONTINUOUS
 62
     3
 10
24052.514329585108
 20
18926.08162549997
 30
0.0
 11
24045.516731585129
 21
18926.08162549997
 31
0.0
  0
LINE
  5
106E3
  8
2-0
  6
CONTINUOUS
 62
     3
 10
24052.514329585108
 20
18193.887381999972
 30
0.0
 11
24045.516731585129
 21
18193.887381999972
 31
0.0
  0
LINE
  5
106E4
  8
2-0
  6
CONTINUOUS
 62
     3
 10
24045.516731585129
 20
18193.887381999972
 30
0.0
 11
24045.516731585129
 21
18198.89358399995
 31
0.0
  0
LINE
  5
106E5
  8
2-0
  6
CONTINUOUS
 62
     3
 10
24045.516731585129
 20
18198.89358399995
 30
0.0
 11
24070.51013358514
 21
18198.89358399995
 31
0.0
  0
LINE
  5
106E6
  8
2-0
  6
CONTINUOUS
 62
     3
 10
24070.51013358514
 20
18198.89358399995
 30
0.0
 11
24070.51013358514
 21
18180.891841999979
 31
0.0
  0
LINE
  5
106E7
  8
2-0
  6
CONTINUOUS
 62
     3
 10
24070.51013358514
 20
18180.891841999979
 30
0.0
 11
24040.51250858514
 21
18180.891841999979
 31
0.0
  0
LINE
  5
106E8
  8
2-0
  6
CONTINUOUS
 62
     3
 10
24070.51013358514
 20
18196.983348999929
 30
0.0
 11
24070.51013358514
 21
18190.987386999968
 31
0.0
  0
LINE
  5
106E9
  8
2-0
  6
CONTINUOUS
 62
     3
 10
24070.51013358514
 20
18190.987386999968
 30
0.0
 11
24040.51250858514
 21
18190.987386999968
 31
0.0
  0
LINE
  5
106EA
  8
2-0
  6
CONTINUOUS
 62
     3
 10
24040.51250858514
 20
18190.987386999968
 30
0.0
 11
24040.51250858514
 21
18227.986568999971
 31
0.0
  0
LINE
  5
106EB
  8
2-0
  6
CONTINUOUS
 62
     3
 10
24070.51013358514
 20
18227.986568999971
 30
0.0
 11
24040.51250858514
 21
18227.986568999971
 31
0.0
  0
LINE
  5
106EC
  8
2-0
  6
CONTINUOUS
 62
     3
 10
24070.51013358514
 20
18221.990606999971
 30
0.0
 11
24070.51013358514
 21
18227.986568999971
 31
0.0
  0
LINE
  5
106ED
  8
2-0
  6
CONTINUOUS
 62
     3
 10
24070.51013358514
 20
18238.082113999979
 30
0.0
 11
24040.51250858514
 21
18238.082113999979
 31
0.0
  0
LINE
  5
106EE
  8
2-0
  6
CONTINUOUS
 62
     3
 10
24070.51013358514
 20
18220.080371999971
 30
0.0
 11
24070.51013358514
 21
18238.082113999979
 31
0.0
  0
LINE
  5
106EF
  8
2-0
  6
CONTINUOUS
 62
     3
 10
24045.516731585129
 20
18220.080371999971
 30
0.0
 11
24070.51013358514
 21
18220.080371999971
 31
0.0
  0
LINE
  5
106F0
  8
2-0
  6
CONTINUOUS
 62
     3
 10
24045.516731585129
 20
18225.08657399995
 30
0.0
 11
24045.516731585129
 21
18220.080371999971
 31
0.0
  0
LINE
  5
106F1
  8
2-0
  6
CONTINUOUS
 62
     3
 10
24052.514329585108
 20
18225.08657399995
 30
0.0
 11
24045.516731585129
 21
18225.08657399995
 31
0.0
  0
LINE
  5
106F2
  8
2-0
  6
CONTINUOUS
 62
     3
 10
24052.514329585108
 20
17524.08063599997
 30
0.0
 11
24045.516731585129
 21
17524.08063599997
 31
0.0
  0
LINE
  5
106F3
  8
2-0
  6
CONTINUOUS
 62
     3
 10
24045.516731585129
 20
17524.08063599997
 30
0.0
 11
24045.516731585129
 21
17519.092248999968
 31
0.0
  0
LINE
  5
106F4
  8
2-0
  6
CONTINUOUS
 62
     3
 10
24045.516731585129
 20
17519.092248999968
 30
0.0
 11
24070.51013358514
 21
17519.092248999968
 31
0.0
  0
LINE
  5
106F5
  8
2-0
  6
CONTINUOUS
 62
     3
 10
24070.51013358514
 20
17519.092248999968
 30
0.0
 11
24070.51013358514
 21
17537.08805199997
 31
0.0
  0
LINE
  5
106F6
  8
2-0
  6
CONTINUOUS
 62
     3
 10
24070.51013358514
 20
17537.08805199997
 30
0.0
 11
24040.51250858514
 21
17537.08805199997
 31
0.0
  0
LINE
  5
106F7
  8
2-0
  6
CONTINUOUS
 62
     3
 10
24070.51013358514
 20
17520.990606999971
 30
0.0
 11
24070.51013358514
 21
17526.986568999971
 31
0.0
  0
LINE
  5
106F8
  8
2-0
  6
CONTINUOUS
 62
     3
 10
24070.51013358514
 20
17526.986568999971
 30
0.0
 11
24040.51250858514
 21
17526.986568999971
 31
0.0
  0
LINE
  5
106F9
  8
2-0
  6
CONTINUOUS
 62
     3
 10
24040.51250858514
 20
17526.986568999971
 30
0.0
 11
24040.51250858514
 21
17489.987386999968
 31
0.0
  0
LINE
  5
106FA
  8
2-0
  6
CONTINUOUS
 62
     3
 10
24070.51013358514
 20
17489.987386999968
 30
0.0
 11
24040.51250858514
 21
17489.987386999968
 31
0.0
  0
LINE
  5
106FB
  8
2-0
  6
CONTINUOUS
 62
     3
 10
24070.51013358514
 20
17495.98928799995
 30
0.0
 11
24070.51013358514
 21
17489.987386999968
 31
0.0
  0
LINE
  5
106FC
  8
2-0
  6
CONTINUOUS
 62
     3
 10
24070.51013358514
 20
17479.89778099996
 30
0.0
 11
24040.51250858514
 21
17479.89778099996
 31
0.0
  0
LINE
  5
106FD
  8
2-0
  6
CONTINUOUS
 62
     3
 10
24070.51013358514
 20
17497.893583999969
 30
0.0
 11
24070.51013358514
 21
17479.89778099996
 31
0.0
  0
LINE
  5
106FE
  8
2-0
  6
CONTINUOUS
 62
     3
 10
24045.516731585129
 20
17497.893583999969
 30
0.0
 11
24070.51013358514
 21
17497.893583999969
 31
0.0
  0
LINE
  5
106FF
  8
2-0
  6
CONTINUOUS
 62
     3
 10
24045.516731585129
 20
17492.89332099996
 30
0.0
 11
24045.516731585129
 21
17497.893583999969
 31
0.0
  0
LINE
  5
10700
  8
2-0
  6
CONTINUOUS
 62
     3
 10
24052.514329585108
 20
17492.89332099996
 30
0.0
 11
24045.516731585129
 21
17492.89332099996
 31
0.0
  0
LINE
  5
10701
  8
2-0
  6
CONTINUOUS
 62
     3
 10
24043.398646585141
 20
16772.984206999969
 30
0.0
 11
24043.398646585141
 21
16792.98526199998
 31
0.0
  0
LINE
  5
10702
  8
2-0
  6
CONTINUOUS
 62
     3
 10
24043.398646585141
 20
16792.98526199998
 30
0.0
 11
24128.399174585142
 21
16792.98526199998
 31
0.0
  0
LINE
  5
10703
  8
2-0
  6
CONTINUOUS
 62
     3
 10
24052.514329585108
 20
16819.59197199998
 30
0.0
 11
24045.516731585129
 21
16819.59197199998
 31
0.0
  0
LINE
  5
10704
  8
2-0
  6
CONTINUOUS
 62
     3
 10
24045.516731585129
 20
16819.59197199998
 30
0.0
 11
24045.516731585129
 21
16814.59764599998
 31
0.0
  0
LINE
  5
10705
  8
2-0
  6
CONTINUOUS
 62
     3
 10
24045.516731585129
 20
16814.59764599998
 30
0.0
 11
24070.51013358514
 21
16814.59764599998
 31
0.0
  0
LINE
  5
10706
  8
2-0
  6
CONTINUOUS
 62
     3
 10
24070.51013358514
 20
16814.59764599998
 30
0.0
 11
24070.51013358514
 21
16832.593449999978
 31
0.0
  0
LINE
  5
10707
  8
2-0
  6
CONTINUOUS
 62
     3
 10
24070.51013358514
 20
16832.593449999978
 30
0.0
 11
24040.51250858514
 21
16832.593449999978
 31
0.0
  0
LINE
  5
10708
  8
2-0
  6
CONTINUOUS
 62
     3
 10
24070.51013358514
 20
16822.98486599997
 30
0.0
 11
24070.51013358514
 21
16816.98296599996
 31
0.0
  0
LINE
  5
10709
  8
2-0
  6
CONTINUOUS
 62
     3
 10
24040.51250858514
 20
16822.98486599997
 30
0.0
 11
24070.51013358514
 21
16822.98486599997
 31
0.0
  0
LINE
  5
1070A
  8
2-0
  6
CONTINUOUS
 62
     3
 10
24040.51250858514
 20
16832.593449999978
 30
0.0
 11
24040.51250858514
 21
17479.89778099996
 31
0.0
  0
LINE
  5
1070B
  8
2-0
  6
CONTINUOUS
 62
     3
 10
24040.51250858514
 20
17537.08805199997
 30
0.0
 11
24040.51250858514
 21
18180.891841999979
 31
0.0
  0
LINE
  5
1070C
  8
2-0
  6
CONTINUOUS
 62
     3
 10
24040.51250858514
 20
16677.983150999979
 30
0.0
 11
24070.51013358514
 21
16677.983150999979
 31
0.0
  0
LINE
  5
1070D
  8
2-0
  6
CONTINUOUS
 62
     3
 10
24070.51013358514
 20
16677.983150999979
 30
0.0
 11
24070.51013358514
 21
16683.985050999971
 31
0.0
  0
LINE
  5
1070E
  8
2-0
  6
CONTINUOUS
 62
     3
 10
24128.399174585142
 20
16707.98869399996
 30
0.0
 11
24043.398646585141
 21
16707.98869399996
 31
0.0
  0
LINE
  5
1070F
  8
2-0
  6
CONTINUOUS
 62
     3
 10
24043.398646585141
 20
16707.98869399996
 30
0.0
 11
24043.398646585141
 21
16727.98381099998
 31
0.0
  0
LINE
  5
10710
  8
2-0
  6
CONTINUOUS
 62
     3
 10
24070.51013358514
 20
16668.374567999988
 30
0.0
 11
24040.51250858514
 21
16668.374567999988
 31
0.0
  0
LINE
  5
10711
  8
2-0
  6
CONTINUOUS
 62
     3
 10
24070.51013358514
 20
16686.370370999972
 30
0.0
 11
24070.51013358514
 21
16668.374567999988
 31
0.0
  0
LINE
  5
10712
  8
2-0
  6
CONTINUOUS
 62
     3
 10
24045.516731585129
 20
16686.370370999972
 30
0.0
 11
24070.51013358514
 21
16686.370370999972
 31
0.0
  0
LINE
  5
10713
  8
2-0
  6
CONTINUOUS
 62
     3
 10
24045.516731585129
 20
16681.370106999981
 30
0.0
 11
24045.516731585129
 21
16686.370370999972
 31
0.0
  0
LINE
  5
10714
  8
2-0
  6
CONTINUOUS
 62
     3
 10
24052.514329585108
 20
16681.370106999981
 30
0.0
 11
24045.516731585129
 21
16681.370106999981
 31
0.0
  0
LINE
  5
10715
  8
2-0
  6
CONTINUOUS
 62
     3
 10
24052.514329585108
 20
15976.887876499961
 30
0.0
 11
24045.516731585129
 21
15976.887876499961
 31
0.0
  0
LINE
  5
10716
  8
2-0
  6
CONTINUOUS
 62
     3
 10
24045.516731585129
 20
15976.887876499961
 30
0.0
 11
24045.516731585129
 21
15981.888140499959
 31
0.0
  0
LINE
  5
10717
  8
2-0
  6
CONTINUOUS
 62
     3
 10
24045.516731585129
 20
15981.888140499959
 30
0.0
 11
24070.51013358514
 21
15981.888140499959
 31
0.0
  0
LINE
  5
10718
  8
2-0
  6
CONTINUOUS
 62
     3
 10
24070.51013358514
 20
15981.888140499959
 30
0.0
 11
24070.51013358514
 21
15963.886398499961
 31
0.0
  0
LINE
  5
10719
  8
2-0
  6
CONTINUOUS
 62
     3
 10
24070.51013358514
 20
15963.886398499961
 30
0.0
 11
24040.51250858514
 21
15963.886398499961
 31
0.0
  0
LINE
  5
1071A
  8
2-0
  6
CONTINUOUS
 62
     3
 10
24070.51013358514
 20
15979.98384349996
 30
0.0
 11
24070.51013358514
 21
15973.98689249997
 31
0.0
  0
LINE
  5
1071B
  8
2-0
  6
CONTINUOUS
 62
     3
 10
24070.51013358514
 20
15973.98689249997
 30
0.0
 11
24040.51250858514
 21
15973.98689249997
 31
0.0
  0
LINE
  5
1071C
  8
2-0
  6
CONTINUOUS
 62
     3
 10
24040.51250858514
 20
15973.98689249997
 30
0.0
 11
24040.51250858514
 21
16010.987063499981
 31
0.0
  0
LINE
  5
1071D
  8
2-0
  6
CONTINUOUS
 62
     3
 10
24070.51013358514
 20
16010.987063499981
 30
0.0
 11
24040.51250858514
 21
16010.987063499981
 31
0.0
  0
LINE
  5
1071E
  8
2-0
  6
CONTINUOUS
 62
     3
 10
24070.51013358514
 20
16004.98417349997
 30
0.0
 11
24070.51013358514
 21
16010.987063499981
 31
0.0
  0
LINE
  5
1071F
  8
2-0
  6
CONTINUOUS
 62
     3
 10
24070.51013358514
 20
16021.082608499981
 30
0.0
 11
24040.51250858514
 21
16021.082608499981
 31
0.0
  0
LINE
  5
10720
  8
2-0
  6
CONTINUOUS
 62
     3
 10
24070.51013358514
 20
16003.074927499971
 30
0.0
 11
24070.51013358514
 21
16021.082608499981
 31
0.0
  0
LINE
  5
10721
  8
2-0
  6
CONTINUOUS
 62
     3
 10
24045.516731585129
 20
16003.074927499971
 30
0.0
 11
24070.51013358514
 21
16003.074927499971
 31
0.0
  0
LINE
  5
10722
  8
2-0
  6
CONTINUOUS
 62
     3
 10
24045.516731585129
 20
16008.081130499981
 30
0.0
 11
24045.516731585129
 21
16003.074927499971
 31
0.0
  0
LINE
  5
10723
  8
2-0
  6
CONTINUOUS
 62
     3
 10
24052.514329585108
 20
16008.081130499981
 30
0.0
 11
24045.516731585129
 21
16008.081130499981
 31
0.0
  0
LINE
  5
10724
  8
2-0
  6
CONTINUOUS
 62
     3
 10
24052.514329585108
 20
15307.32114699999
 30
0.0
 11
24045.516731585129
 21
15307.32114699999
 31
0.0
  0
LINE
  5
10725
  8
2-0
  6
CONTINUOUS
 62
     3
 10
24045.516731585129
 20
15307.32114699999
 30
0.0
 11
24045.516731585129
 21
15302.326821999981
 31
0.0
  0
LINE
  5
10726
  8
2-0
  6
CONTINUOUS
 62
     3
 10
24045.516731585129
 20
15302.326821999981
 30
0.0
 11
24070.51013358514
 21
15302.326821999981
 31
0.0
  0
LINE
  5
10727
  8
2-0
  6
CONTINUOUS
 62
     3
 10
24070.51013358514
 20
15302.326821999981
 30
0.0
 11
24070.51013358514
 21
15320.322624999981
 31
0.0
  0
LINE
  5
10728
  8
2-0
  6
CONTINUOUS
 62
     3
 10
24070.51013358514
 20
15320.322624999981
 30
0.0
 11
24040.51250858514
 21
15320.322624999981
 31
0.0
  0
LINE
  5
10729
  8
2-0
  6
CONTINUOUS
 62
     3
 10
24070.51013358514
 20
15304.225179999979
 30
0.0
 11
24070.51013358514
 21
15310.22707999999
 31
0.0
  0
LINE
  5
1072A
  8
2-0
  6
CONTINUOUS
 62
     3
 10
24070.51013358514
 20
15310.22707999999
 30
0.0
 11
24040.51250858514
 21
15310.22707999999
 31
0.0
  0
LINE
  5
1072B
  8
2-0
  6
CONTINUOUS
 62
     3
 10
24040.51250858514
 20
15273.22789899999
 30
0.0
 11
24040.51250858514
 21
15310.22707999999
 31
0.0
  0
LINE
  5
1072C
  8
2-0
  6
CONTINUOUS
 62
     3
 10
24070.51013358514
 20
15273.22789899999
 30
0.0
 11
24040.51250858514
 21
15273.22789899999
 31
0.0
  0
LINE
  5
1072D
  8
2-0
  6
CONTINUOUS
 62
     3
 10
24070.51013358514
 20
15279.22484999997
 30
0.0
 11
24070.51013358514
 21
15273.22789899999
 31
0.0
  0
LINE
  5
1072E
  8
2-0
  6
CONTINUOUS
 62
     3
 10
24070.51013358514
 20
15263.126414999981
 30
0.0
 11
24040.51250858514
 21
15263.126414999981
 31
0.0
  0
LINE
  5
1072F
  8
2-0
  6
CONTINUOUS
 62
     3
 10
24070.51013358514
 20
15281.13409599998
 30
0.0
 11
24070.51013358514
 21
15263.126414999981
 31
0.0
  0
LINE
  5
10730
  8
2-0
  6
CONTINUOUS
 62
     3
 10
24045.516731585129
 20
15281.13409599998
 30
0.0
 11
24070.51013358514
 21
15281.13409599998
 31
0.0
  0
LINE
  5
10731
  8
2-0
  6
CONTINUOUS
 62
     3
 10
24045.516731585129
 20
15276.13383199999
 30
0.0
 11
24045.516731585129
 21
15281.13409599998
 31
0.0
  0
LINE
  5
10732
  8
2-0
  6
CONTINUOUS
 62
     3
 10
24052.514329585108
 20
15276.13383199999
 30
0.0
 11
24045.516731585129
 21
15276.13383199999
 31
0.0
  0
LINE
  5
10733
  8
2-0
  6
CONTINUOUS
 62
     3
 10
24040.51250858514
 20
16668.374567999988
 30
0.0
 11
24040.51250858514
 21
16021.082608499981
 31
0.0
  0
LINE
  5
10734
  8
2-0
  6
CONTINUOUS
 62
     3
 10
24040.51250858514
 20
16822.98486599997
 30
0.0
 11
24040.51250858514
 21
16677.983150999979
 31
0.0
  0
LINE
  5
10735
  8
2-0
  6
CONTINUOUS
 62
     3
 10
24128.399174585142
 20
16792.98526199998
 30
0.0
 11
24128.399174585142
 21
16707.98869399996
 31
0.0
  0
LINE
  5
10736
  8
2-0
  6
CONTINUOUS
 62
     3
 10
24052.514329585108
 20
14574.892824999981
 30
0.0
 11
24045.516731585129
 21
14574.892824999981
 31
0.0
  0
LINE
  5
10737
  8
2-0
  6
CONTINUOUS
 62
     3
 10
24045.516731585129
 20
14574.892824999981
 30
0.0
 11
24045.516731585129
 21
14579.887150999981
 31
0.0
  0
LINE
  5
10738
  8
2-0
  6
CONTINUOUS
 62
     3
 10
24045.516731585129
 20
14579.887150999981
 30
0.0
 11
24070.51013358514
 21
14579.887150999981
 31
0.0
  0
LINE
  5
10739
  8
2-0
  6
CONTINUOUS
 62
     3
 10
24070.51013358514
 20
14579.887150999981
 30
0.0
 11
24070.51013358514
 21
14561.891346999981
 31
0.0
  0
LINE
  5
1073A
  8
2-0
  6
CONTINUOUS
 62
     3
 10
24070.51013358514
 20
14561.891346999981
 30
0.0
 11
24040.51250858514
 21
14561.891346999981
 31
0.0
  0
LINE
  5
1073B
  8
2-0
  6
CONTINUOUS
 62
     3
 10
24070.51013358514
 20
14577.98978199999
 30
0.0
 11
24070.51013358514
 21
14571.986891999981
 31
0.0
  0
LINE
  5
1073C
  8
2-0
  6
CONTINUOUS
 62
     3
 10
24070.51013358514
 20
14571.986891999981
 30
0.0
 11
24040.51250858514
 21
14571.986891999981
 31
0.0
  0
LINE
  5
1073D
  8
2-0
  6
CONTINUOUS
 62
     3
 10
24040.51250858514
 20
14571.986891999981
 30
0.0
 11
24040.51250858514
 21
14608.987063999961
 31
0.0
  0
LINE
  5
1073E
  8
2-0
  6
CONTINUOUS
 62
     3
 10
24070.51013358514
 20
14608.987063999961
 30
0.0
 11
24040.51250858514
 21
14608.987063999961
 31
0.0
  0
LINE
  5
1073F
  8
2-0
  6
CONTINUOUS
 62
     3
 10
24070.51013358514
 20
14602.990111999979
 30
0.0
 11
24070.51013358514
 21
14608.987063999961
 31
0.0
  0
LINE
  5
10740
  8
2-0
  6
CONTINUOUS
 62
     3
 10
24070.51013358514
 20
14619.087556999981
 30
0.0
 11
24040.51250858514
 21
14619.087556999981
 31
0.0
  0
LINE
  5
10741
  8
2-0
  6
CONTINUOUS
 62
     3
 10
24070.51013358514
 20
14601.080865999989
 30
0.0
 11
24070.51013358514
 21
14619.087556999981
 31
0.0
  0
LINE
  5
10742
  8
2-0
  6
CONTINUOUS
 62
     3
 10
24045.516731585129
 20
14601.080865999989
 30
0.0
 11
24070.51013358514
 21
14601.080865999989
 31
0.0
  0
LINE
  5
10743
  8
2-0
  6
CONTINUOUS
 62
     3
 10
24045.516731585129
 20
14606.08607899999
 30
0.0
 11
24045.516731585129
 21
14601.080865999989
 31
0.0
  0
LINE
  5
10744
  8
2-0
  6
CONTINUOUS
 62
     3
 10
24052.514329585108
 20
14606.08607899999
 30
0.0
 11
24045.516731585129
 21
14606.08607899999
 31
0.0
  0
LINE
  5
10745
  8
2-0
  6
CONTINUOUS
 62
     3
 10
24070.51013358514
 20
14249.48890499996
 30
0.0
 11
24070.51013358514
 21
14255.49377399998
 31
0.0
  0
LINE
  5
10746
  8
2-0
  6
CONTINUOUS
 62
     3
 10
24070.51013358514
 20
14255.49377399998
 30
0.0
 11
24040.51250858514
 21
14255.49377399998
 31
0.0
  0
LINE
  5
10747
  8
2-0
  6
CONTINUOUS
 62
     3
 10
24040.51250858514
 20
14255.49377399998
 30
0.0
 11
24040.51250858514
 21
14140.489682999971
 31
0.0
  0
LINE
  5
10748
  8
2-0
  6
CONTINUOUS
 62
     3
 10
24040.51250858514
 20
14140.489682999971
 30
0.0
 11
24125.511056585139
 21
14140.489682999971
 31
0.0
  0
LINE
  5
10749
  8
2-0
  6
CONTINUOUS
 62
     3
 10
24125.511056585139
 20
14140.489682999971
 30
0.0
 11
24125.511056585139
 21
14225.48526199998
 31
0.0
  0
LINE
  5
1074A
  8
2-0
  6
CONTINUOUS
 62
     3
 10
24125.511056585139
 20
14225.48526199998
 30
0.0
 11
24093.514118585132
 21
14225.48526199998
 31
0.0
  0
LINE
  5
1074B
  8
2-0
  6
CONTINUOUS
 62
     3
 10
24052.514329585108
 20
14252.523506999971
 30
0.0
 11
24045.516731585129
 21
14252.523506999971
 31
0.0
  0
LINE
  5
1074C
  8
2-0
  6
CONTINUOUS
 62
     3
 10
24045.516731585129
 20
14252.523506999971
 30
0.0
 11
24045.516731585129
 21
14247.526211999961
 31
0.0
  0
LINE
  5
1074D
  8
2-0
  6
CONTINUOUS
 62
     3
 10
24045.516731585129
 20
14247.526211999961
 30
0.0
 11
24070.51013358514
 21
14247.526211999961
 31
0.0
  0
LINE
  5
1074E
  8
2-0
  6
CONTINUOUS
 62
     3
 10
24070.51013358514
 20
14247.526211999961
 30
0.0
 11
24070.51013358514
 21
14265.52498499998
 31
0.0
  0
LINE
  5
1074F
  8
2-0
  6
CONTINUOUS
 62
     3
 10
24070.51013358514
 20
14265.52498499998
 30
0.0
 11
24040.51250858514
 21
14265.52498499998
 31
0.0
  0
LINE
  5
10750
  8
2-0
  6
CONTINUOUS
 62
     3
 10
24040.51250858514
 20
14619.087556999981
 30
0.0
 11
24040.51250858514
 21
15263.126414999981
 31
0.0
  0
LINE
  5
10751
  8
2-0
  6
CONTINUOUS
 62
     3
 10
24040.51250858514
 20
18238.082113999979
 30
0.0
 11
24040.51250858514
 21
18881.892831499961
 31
0.0
  0
LINE
  5
10752
  8
2-0
  6
CONTINUOUS
 62
     3
 10
24131.51493658515
 20
18166.98572399994
 30
0.0
 11
24084.511267585141
 21
18166.98572399994
 31
0.0
  0
LINE
  5
10753
  8
2-0
  6
CONTINUOUS
 62
     3
 10
24084.511267585141
 20
18251.986251999981
 30
0.0
 11
24131.51493658515
 21
18251.986251999981
 31
0.0
  0
LINE
  5
10754
  8
2-0
  6
CONTINUOUS
 62
     3
 10
24084.511267585141
 20
18166.98572399994
 30
0.0
 11
24084.511267585141
 21
18191.98902299998
 31
0.0
  0
LINE
  5
10755
  8
2-0
  6
CONTINUOUS
 62
     3
 10
24084.511267585141
 20
18226.984931999981
 30
0.0
 11
24084.511267585141
 21
18251.986251999981
 31
0.0
  0
LINE
  5
10756
  8
2-0
  6
CONTINUOUS
 62
     3
 10
24131.51493658515
 20
18251.986251999981
 30
0.0
 11
24131.51493658515
 21
18166.98572399994
 31
0.0
  0
LINE
  5
10757
  8
2-0
  6
CONTINUOUS
 62
     3
 10
24040.51250858514
 20
15963.886398499961
 30
0.0
 11
24040.51250858514
 21
15320.322624999981
 31
0.0
  0
LINE
  5
10758
  8
2-0
  6
CONTINUOUS
 62
     3
 10
24131.51493658515
 20
15248.98869399998
 30
0.0
 11
24084.511267585141
 21
15248.98869399998
 31
0.0
  0
LINE
  5
10759
  8
2-0
  6
CONTINUOUS
 62
     3
 10
24084.511267585141
 20
15333.98526199996
 30
0.0
 11
24131.51493658515
 21
15333.98526199996
 31
0.0
  0
LINE
  5
1075A
  8
2-0
  6
CONTINUOUS
 62
     3
 10
24084.511267585141
 20
15248.98869399998
 30
0.0
 11
24084.511267585141
 21
15273.984074999989
 31
0.0
  0
LINE
  5
1075B
  8
2-0
  6
CONTINUOUS
 62
     3
 10
24084.511267585141
 20
15308.98394299999
 30
0.0
 11
24084.511267585141
 21
15333.98526199996
 31
0.0
  0
LINE
  5
1075C
  8
2-0
  6
CONTINUOUS
 62
     3
 10
24131.51493658515
 20
15333.98526199996
 30
0.0
 11
24131.51493658515
 21
15248.98869399998
 31
0.0
  0
LINE
  5
1075D
  8
2-0
  6
CONTINUOUS
 62
     3
 10
27043.507097585149
 20
19245.489089999999
 30
0.0
 11
27043.507097585149
 21
19360.485262999999
 31
0.0
  0
LINE
  5
1075E
  8
2-0
  6
CONTINUOUS
 62
     3
 10
24040.51250858514
 20
19275.488693999981
 30
0.0
 11
26962.50519758512
 21
19275.488693999981
 31
0.0
  0
LINE
  5
1075F
  8
2-0
  6
CONTINUOUS
 62
     3
 10
24040.51250858514
 20
14265.52498499998
 30
0.0
 11
24040.51250858514
 21
14561.891346999981
 31
0.0
  0
LINE
  5
10760
  8
2-0
  6
CONTINUOUS
 62
     3
 10
27043.507097585149
 20
19235.19163399997
 30
0.0
 11
27043.507097585149
 21
18939.083103499968
 31
0.0
  0
LINE
  5
10761
  8
2-0
  6
CONTINUOUS
 62
     3
 10
24040.51250858514
 20
19235.19163399997
 30
0.0
 11
24040.51250858514
 21
18939.083103499939
 31
0.0
  0
LINE
  5
10762
  8
2-0
  6
CONTINUOUS
 62
     3
 10
24121.510449585148
 20
14225.48526199998
 30
0.0
 11
24121.510449585148
 21
19360.485262999999
 31
0.0
  0
LINE
  5
10763
  8
2-0
  6
CONTINUOUS
 62
     3
 10
26962.50519758512
 20
14225.48526199998
 30
0.0
 11
26962.50519758512
 21
19360.485262999999
 31
0.0
  0
TEXT
  5
10764
  8
2-0
  6
CONTINUOUS
 62
     7
 10
25397.85412058514
 20
13622.98809999998
 30
0.0
 40
160.0
  1
前柱（右）
 50
0.000213
 72
     4
 11
25813.85382317816
 21
13702.98964650077
 31
0.0
  0
TEXT
  5
10765
  8
2-0
  6
CONTINUOUS
 62
     7
 10
25414.553339585149
 20
17951.610143999969
 30
0.0
 40
160.0
  1
補強柱 後
 50
359.99984199999989
 72
     4
 11
25825.22022685987
 21
18031.609011536959
 31
0.0
  0
TEXT
  5
10766
  8
2-0
  6
CONTINUOUS
 62
     7
 10
25602.449243585139
 20
16200.98011599999
 30
0.0
 40
160.0
  1
壁パネル
 50
359.99982299999999
 72
     4
 11
25965.116157388689
 21
16280.978995637861
 31
0.0
  0
TEXT
  5
10767
  8
2-0
  6
CONTINUOUS
 62
     7
 10
25322.446339585131
 20
17038.168011999991
 30
0.0
 40
160.0
  1
中柱（左右）
 50
0.000354
 72
     4
 11
25839.77917863135
 21
17118.171208324638
 31
0.0
  0
TEXT
  5
10768
  8
2-0
  6
CONTINUOUS
 62
     7
 10
26002.448583585119
 20
14596.02936599997
 30
0.0
 40
160.0
  1
下枠
 50
0.001063
 72
     4
 11
26173.113765994422
 21
14676.032532339261
 31
0.0
  0
TEXT
  5
10769
  8
2-0
  6
CONTINUOUS
 62
     7
 10
25414.553339585109
 20
15033.850654999989
 30
0.0
 40
160.0
  1
補強柱 前
 50
359.99937
 72
     4
 11
25825.220885872892
 21
15113.846139479319
 31
0.0
  0
TEXT
  5
1076A
  8
2-0
  6
CONTINUOUS
 62
     7
 10
25497.414007585161
 20
18641.43675049995
 30
0.0
 40
160.0
  1
間柱（側）
 72
     4
 11
25918.747340918489
 21
18721.43675049995
 31
0.0
  0
TEXT
  5
1076B
  8
2-0
  6
CONTINUOUS
 62
     7
 10
27816.004326585131
 20
20170.484470999971
 30
0.0
 40
160.0
  1
後柱（左右）
 50
0.000354
 72
     4
 11
28328.00383229812
 21
20250.48763437281
 31
0.0
  0
LINE
  5
1076C
  8
2-0
  6
CONTINUOUS
 62
     3
 10
26261.50939458514
 20
19360.485262999999
 30
0.0
 11
26224.508232585151
 21
19360.485262999999
 31
0.0
  0
LINE
  5
1076D
  8
2-0
  6
CONTINUOUS
 62
     3
 10
26261.50939458514
 20
19330.481699999978
 30
0.0
 11
26261.50939458514
 21
19360.485262999999
 31
0.0
  0
LINE
  5
1076E
  8
2-0
  6
CONTINUOUS
 62
     3
 10
26255.509473585131
 20
19330.481699999978
 30
0.0
 11
26261.50939458514
 21
19330.481699999978
 31
0.0
  0
LINE
  5
1076F
  8
2-0
  6
CONTINUOUS
 62
     3
 10
26271.606918585148
 20
19330.481699999978
 30
0.0
 11
26271.606918585148
 21
19360.485262999999
 31
0.0
  0
LINE
  5
10770
  8
2-0
  6
CONTINUOUS
 62
     3
 10
26253.60319758514
 20
19330.481699999978
 30
0.0
 11
26271.606918585148
 21
19330.481699999978
 31
0.0
  0
LINE
  5
10771
  8
2-0
  6
CONTINUOUS
 62
     3
 10
26253.60319758514
 20
19355.490936999991
 30
0.0
 11
26253.60319758514
 21
19330.481699999978
 31
0.0
  0
LINE
  5
10772
  8
2-0
  6
CONTINUOUS
 62
     3
 10
26258.603461585139
 20
19355.490936999991
 30
0.0
 11
26253.60319758514
 21
19355.490936999991
 31
0.0
  0
LINE
  5
10773
  8
2-0
  6
CONTINUOUS
 62
     3
 10
26258.603461585139
 20
19348.485420999979
 30
0.0
 11
26258.603461585139
 21
19355.490936999991
 31
0.0
  0
LINE
  5
10774
  8
2-0
  6
CONTINUOUS
 62
     3
 10
26227.414166585131
 20
19348.485420999979
 30
0.0
 11
26227.414166585131
 21
19355.490936999991
 31
0.0
  0
LINE
  5
10775
  8
2-0
  6
CONTINUOUS
 62
     3
 10
26227.414166585131
 20
19355.490936999991
 30
0.0
 11
26232.414430585151
 21
19355.490936999991
 31
0.0
  0
LINE
  5
10776
  8
2-0
  6
CONTINUOUS
 62
     3
 10
26232.414430585151
 20
19355.490936999991
 30
0.0
 11
26232.414430585151
 21
19330.481699999978
 31
0.0
  0
LINE
  5
10777
  8
2-0
  6
CONTINUOUS
 62
     3
 10
26232.414430585151
 20
19330.481699999978
 30
0.0
 11
26214.414667585152
 21
19330.481699999978
 31
0.0
  0
LINE
  5
10778
  8
2-0
  6
CONTINUOUS
 62
     3
 10
26214.414667585152
 20
19330.481699999978
 30
0.0
 11
26214.414667585152
 21
19360.485262999999
 31
0.0
  0
LINE
  5
10779
  8
2-0
  6
CONTINUOUS
 62
     3
 10
26230.508153585139
 20
19330.481699999978
 30
0.0
 11
26224.508232585151
 21
19330.481699999978
 31
0.0
  0
LINE
  5
1077A
  8
2-0
  6
CONTINUOUS
 62
     3
 10
26224.508232585151
 20
19330.481699999978
 30
0.0
 11
26224.508232585151
 21
19360.485262999999
 31
0.0
  0
LINE
  5
1077B
  8
2-0
  6
CONTINUOUS
 62
     3
 10
24856.59851208514
 20
19348.485420999979
 30
0.0
 11
24856.59851208514
 21
19355.490936999991
 31
0.0
  0
LINE
  5
1077C
  8
2-0
  6
CONTINUOUS
 62
     3
 10
24856.59851208514
 20
19355.490936999991
 30
0.0
 11
24851.598248085142
 21
19355.490936999991
 31
0.0
  0
LINE
  5
1077D
  8
2-0
  6
CONTINUOUS
 62
     3
 10
24851.598248085142
 20
19355.490936999991
 30
0.0
 11
24851.598248085142
 21
19330.481699999978
 31
0.0
  0
LINE
  5
1077E
  8
2-0
  6
CONTINUOUS
 62
     3
 10
24851.598248085142
 20
19330.481699999978
 30
0.0
 11
24869.60394908514
 21
19330.481699999978
 31
0.0
  0
LINE
  5
1077F
  8
2-0
  6
CONTINUOUS
 62
     3
 10
24869.60394908514
 20
19330.481699999978
 30
0.0
 11
24869.60394908514
 21
19360.485262999999
 31
0.0
  0
LINE
  5
10780
  8
2-0
  6
CONTINUOUS
 62
     3
 10
24853.50650408513
 20
19330.481699999978
 30
0.0
 11
24859.508404085151
 21
19330.481699999978
 31
0.0
  0
LINE
  5
10781
  8
2-0
  6
CONTINUOUS
 62
     3
 10
24859.508404085151
 20
19330.481699999978
 30
0.0
 11
24859.508404085151
 21
19360.485262999999
 31
0.0
  0
LINE
  5
10782
  8
2-0
  6
CONTINUOUS
 62
     3
 10
24822.509223085141
 20
19360.485262999999
 30
0.0
 11
24859.508404085151
 21
19360.485262999999
 31
0.0
  0
LINE
  5
10783
  8
2-0
  6
CONTINUOUS
 62
     3
 10
24822.509223085141
 20
19330.481699999978
 30
0.0
 11
24822.509223085141
 21
19360.485262999999
 31
0.0
  0
LINE
  5
10784
  8
2-0
  6
CONTINUOUS
 62
     3
 10
24828.503205085141
 20
19330.481699999978
 30
0.0
 11
24822.509223085141
 21
19330.481699999978
 31
0.0
  0
LINE
  5
10785
  8
2-0
  6
CONTINUOUS
 62
     3
 10
24812.413678085151
 20
19330.481699999978
 30
0.0
 11
24812.413678085151
 21
19360.485262999999
 31
0.0
  0
LINE
  5
10786
  8
2-0
  6
CONTINUOUS
 62
     3
 10
24830.409481085138
 20
19330.481699999978
 30
0.0
 11
24812.413678085151
 21
19330.481699999978
 31
0.0
  0
LINE
  5
10787
  8
2-0
  6
CONTINUOUS
 62
     3
 10
24830.409481085138
 20
19355.490936999991
 30
0.0
 11
24830.409481085138
 21
19330.481699999978
 31
0.0
  0
LINE
  5
10788
  8
2-0
  6
CONTINUOUS
 62
     3
 10
24825.409217085151
 20
19355.490936999991
 30
0.0
 11
24830.409481085138
 21
19355.490936999991
 31
0.0
  0
LINE
  5
10789
  8
2-0
  6
CONTINUOUS
 62
     3
 10
24825.409217085151
 20
19348.485420999979
 30
0.0
 11
24825.409217085151
 21
19355.490936999991
 31
0.0
  0
LINE
  5
1078A
  8
2-0
  6
CONTINUOUS
 62
     3
 10
25526.40822808514
 20
19348.485420999979
 30
0.0
 11
25526.40822808514
 21
19355.490936999991
 31
0.0
  0
LINE
  5
1078B
  8
2-0
  6
CONTINUOUS
 62
     3
 10
25526.40822808514
 20
19355.490936999991
 30
0.0
 11
25531.408491085142
 21
19355.490936999991
 31
0.0
  0
LINE
  5
1078C
  8
2-0
  6
CONTINUOUS
 62
     3
 10
25531.408491085142
 20
19355.490936999991
 30
0.0
 11
25531.408491085142
 21
19330.481699999978
 31
0.0
  0
LINE
  5
1078D
  8
2-0
  6
CONTINUOUS
 62
     3
 10
25531.408491085142
 20
19330.481699999978
 30
0.0
 11
25513.414668085141
 21
19330.481699999978
 31
0.0
  0
LINE
  5
1078E
  8
2-0
  6
CONTINUOUS
 62
     3
 10
25513.414668085141
 20
19330.481699999978
 30
0.0
 11
25513.414668085141
 21
19360.485262999999
 31
0.0
  0
LINE
  5
1078F
  8
2-0
  6
CONTINUOUS
 62
     3
 10
25529.50617408512
 20
19330.481699999978
 30
0.0
 11
25523.50823308514
 21
19330.481699999978
 31
0.0
  0
LINE
  5
10790
  8
2-0
  6
CONTINUOUS
 62
     3
 10
25523.50823308514
 20
19330.481699999978
 30
0.0
 11
25523.50823308514
 21
19360.485262999999
 31
0.0
  0
LINE
  5
10791
  8
2-0
  6
CONTINUOUS
 62
     3
 10
25560.50939408514
 20
19360.485262999999
 30
0.0
 11
25523.50823308514
 21
19360.485262999999
 31
0.0
  0
LINE
  5
10792
  8
2-0
  6
CONTINUOUS
 62
     3
 10
25560.50939408514
 20
19330.481699999978
 30
0.0
 11
25560.50939408514
 21
19360.485262999999
 31
0.0
  0
LINE
  5
10793
  8
2-0
  6
CONTINUOUS
 62
     3
 10
25554.50353508515
 20
19330.481699999978
 30
0.0
 11
25560.50939408514
 21
19330.481699999978
 31
0.0
  0
LINE
  5
10794
  8
2-0
  6
CONTINUOUS
 62
     3
 10
25570.60295908515
 20
19330.481699999978
 30
0.0
 11
25570.60295908515
 21
19360.485262999999
 31
0.0
  0
LINE
  5
10795
  8
2-0
  6
CONTINUOUS
 62
     3
 10
25552.607156085141
 20
19330.481699999978
 30
0.0
 11
25570.60295908515
 21
19330.481699999978
 31
0.0
  0
LINE
  5
10796
  8
2-0
  6
CONTINUOUS
 62
     3
 10
25552.607156085141
 20
19355.490936999991
 30
0.0
 11
25552.607156085141
 21
19330.481699999978
 31
0.0
  0
LINE
  5
10797
  8
2-0
  6
CONTINUOUS
 62
     3
 10
25557.59752208514
 20
19355.490936999991
 30
0.0
 11
25552.607156085141
 21
19355.490936999991
 31
0.0
  0
LINE
  5
10798
  8
2-0
  6
CONTINUOUS
 62
     3
 10
25557.59752208514
 20
19348.485420999979
 30
0.0
 11
25557.59752208514
 21
19355.490936999991
 31
0.0
  0
LINE
  5
10799
  8
2-0
  6
CONTINUOUS
 62
     3
 10
24869.60394908514
 20
19360.485262999999
 30
0.0
 11
25513.414668085141
 21
19360.485262999999
 31
0.0
  0
LINE
  5
1079A
  8
2-0
  6
CONTINUOUS
 62
     3
 10
24165.814055585139
 20
19360.485262999999
 30
0.0
 11
24812.413678085151
 21
19360.485262999999
 31
0.0
  0
LINE
  5
1079B
  8
2-0
  6
CONTINUOUS
 62
     3
 10
26918.892443585151
 20
19360.485262999999
 30
0.0
 11
26271.606918585148
 21
19360.485262999999
 31
0.0
  0
LINE
  5
1079C
  8
2-0
  6
CONTINUOUS
 62
     3
 10
26214.414667585152
 20
19360.485262999999
 30
0.0
 11
25570.60295908515
 21
19360.485262999999
 31
0.0
  0
LINE
  5
1079D
  8
2-0
  6
CONTINUOUS
 62
     3
 10
27043.507097585149
 20
15263.12641499999
 30
0.0
 11
27043.507097585149
 21
14619.087556999981
 31
0.0
  0
LINE
  5
1079E
  8
2-0
  6
CONTINUOUS
 62
     3
 10
27043.507097585149
 20
14561.891346999981
 30
0.0
 11
27043.507097585149
 21
14265.52498499998
 31
0.0
  0
LINE
  5
1079F
  8
0-6
  6
CONTINUOUS
 62
     6
 10
24083.833072085141
 20
18649.16703499998
 30
0.0
 11
25108.87332208515
 21
18649.16703499998
 31
0.0
  0
LINE
  5
107A0
  8
0-6
  6
CONTINUOUS
 62
     6
 10
25408.798100085151
 20
19206.520286999999
 30
0.0
 11
25513.413678085151
 21
19330.481699999978
 31
0.0
  0
LINE
  5
107A1
  8
0-6
  6
CONTINUOUS
 62
     6
 10
25513.413678085151
 20
19330.481699999978
 30
0.0
 11
25454.65562808514
 21
19179.290029999989
 31
0.0
  0
LINE
  5
107A2
  8
0-6
  6
CONTINUOUS
 62
     6
 10
25513.413678085151
 20
19330.481699999978
 30
0.0
 11
25408.798100085151
 21
19206.520286999999
 31
0.0
  0
LINE
  5
107A3
  8
0-6
  6
CONTINUOUS
 62
     6
 10
25408.798100085151
 20
19206.520286999999
 30
0.0
 11
25454.65562808514
 21
19179.290029999989
 31
0.0
  0
LINE
  5
107A4
  8
0-6
  6
CONTINUOUS
 62
     6
 10
25454.65562808514
 20
19179.290029999989
 30
0.0
 11
25513.413678085151
 21
19330.481699999978
 31
0.0
  0
LINE
  5
107A5
  8
0-6
  6
CONTINUOUS
 62
     6
 10
25454.65562808514
 20
19179.290029999989
 30
0.0
 11
25408.798100085151
 21
19206.520286999999
 31
0.0
  0
LINE
  5
107A6
  8
0-6
  6
CONTINUOUS
 62
     6
 10
25431.72686408514
 20
19192.907137999991
 30
0.0
 11
25108.87332208515
 21
18649.16703499998
 31
0.0
  0
TEXT
  5
107A7
  8
0-6
  6
CONTINUOUS
 62
     7
 10
24163.83333608515
 20
18729.16927899998
 30
0.0
 40
160.0
  1
間柱（後）
 72
     4
 11
24585.166669418479
 21
18809.16927899998
 31
0.0
  0
LINE
  5
107A8
  8
SUNPOU
  6
CONTINUOUS
 62
     4
 10
27123.507097585149
 20
14590.607233749981
 30
0.0
 11
28173.508417585152
 21
14590.607233749981
 31
0.0
  0
LINE
  5
107A9
  8
SUNPOU
  6
CONTINUOUS
 62
     4
 10
27973.508417585152
 20
14183.107233749981
 30
0.0
 11
28173.508417585152
 21
14183.107233749981
 31
0.0
  0
LINE
  5
107AA
  8
SUNPOU
  6
CONTINUOUS
 62
     4
 10
28093.508417585152
 20
14590.607233749981
 30
0.0
 11
28093.508417585152
 21
14183.107233749981
 31
0.0
  0
LINE
  5
107AB
  8
SUNPOU
  6
CONTINUOUS
 62
     4
 10
27123.507097585149
 20
18910.486977999972
 30
0.0
 11
28173.508417585152
 21
18910.486977999972
 31
0.0
  0
LINE
  5
107AC
  8
SUNPOU
  6
CONTINUOUS
 62
     4
 10
27973.508417585152
 20
19317.986977999972
 30
0.0
 11
28173.508417585152
 21
19317.986977999972
 31
0.0
  0
LINE
  5
107AD
  8
SUNPOU
  6
CONTINUOUS
 62
     4
 10
28093.508417585152
 20
18910.486977999972
 30
0.0
 11
28093.508417585152
 21
19317.986977999972
 31
0.0
  0
LINE
  5
107AE
  8
SUNPOU
  6
CONTINUOUS
 62
     4
 10
24083.00881358514
 20
13477.223543999969
 30
0.0
 11
24083.00881358514
 21
13131.538893999979
 31
0.0
  0
LINE
  5
107AF
  8
SUNPOU
  6
CONTINUOUS
 62
     4
 10
24040.506570585148
 20
14060.489682999971
 30
0.0
 11
24040.506570585148
 21
13131.538893999979
 31
0.0
  0
LINE
  5
107B0
  8
SUNPOU
  6
CONTINUOUS
 62
     4
 10
24083.00881358514
 20
13211.538893999979
 30
0.0
 11
24323.00881358514
 21
13211.538893999979
 31
0.0
  0
LINE
  5
107B1
  8
SUNPOU
  6
CONTINUOUS
 62
     4
 10
24040.506570585148
 20
13211.538893999979
 30
0.0
 11
23800.506570585148
 21
13211.538893999979
 31
0.0
  0
LINE
  5
107B2
  8
SUNPOU
  6
CONTINUOUS
 62
     4
 10
24083.00881358514
 20
13211.538893999979
 30
0.0
 11
24040.506570585148
 21
13211.538893999979
 31
0.0
  0
LINE
  5
107B3
  8
SUNPOU
  6
CONTINUOUS
 62
     4
 10
27001.008813585151
 20
14182.986977999981
 30
0.0
 11
27001.008813585151
 21
13131.538893999979
 31
0.0
  0
LINE
  5
107B4
  8
SUNPOU
  6
CONTINUOUS
 62
     4
 10
27043.511056585139
 20
14060.489682999971
 30
0.0
 11
27043.511056585139
 21
13131.538893999979
 31
0.0
  0
LINE
  5
107B5
  8
SUNPOU
  6
CONTINUOUS
 62
     4
 10
27001.008813585151
 20
13211.538893999979
 30
0.0
 11
26761.008813585151
 21
13211.538893999979
 31
0.0
  0
LINE
  5
107B6
  8
SUNPOU
  6
CONTINUOUS
 62
     4
 10
27043.511056585139
 20
13211.538893999979
 30
0.0
 11
27283.511056585128
 21
13211.538893999979
 31
0.0
  0
LINE
  5
107B7
  8
SUNPOU
  6
CONTINUOUS
 62
     4
 10
27001.008813585151
 20
13211.538893999979
 30
0.0
 11
27043.511056585139
 21
13211.538893999979
 31
0.0
  0
LINE
  5
107B8
  8
SUNPOU
  6
CONTINUOUS
 62
     4
 10
27001.008813585151
 20
14182.986977999981
 30
0.0
 11
27001.008813585151
 21
13131.538893999979
 31
0.0
  0
LINE
  5
107B9
  8
SUNPOU
  6
CONTINUOUS
 62
     4
 10
26958.506570585141
 20
14060.489682999971
 30
0.0
 11
26958.506570585141
 21
13131.538893999979
 31
0.0
  0
LINE
  5
107BA
  8
SUNPOU
  6
CONTINUOUS
 62
     4
 10
27001.008813585151
 20
13211.538893999979
 30
0.0
 11
27241.008813585151
 21
13211.538893999979
 31
0.0
  0
LINE
  5
107BB
  8
SUNPOU
  6
CONTINUOUS
 62
     4
 10
26958.506570585141
 20
13211.538893999979
 30
0.0
 11
26718.506570585141
 21
13211.538893999979
 31
0.0
  0
LINE
  5
107BC
  8
SUNPOU
  6
CONTINUOUS
 62
     4
 10
27001.008813585151
 20
13211.538893999979
 30
0.0
 11
26958.506570585141
 21
13211.538893999979
 31
0.0
  0
LINE
  5
107BD
  8
SUNPOU
  6
CONTINUOUS
 62
     4
 10
24083.00881358514
 20
14182.986977999981
 30
0.0
 11
24083.00881358514
 21
13131.538893999979
 31
0.0
  0
LINE
  5
107BE
  8
SUNPOU
  6
CONTINUOUS
 62
     4
 10
24125.511056585139
 20
14060.489682999971
 30
0.0
 11
24125.511056585139
 21
13131.538893999979
 31
0.0
  0
LINE
  5
107BF
  8
SUNPOU
  6
CONTINUOUS
 62
     4
 10
24083.00881358514
 20
13211.538893999979
 30
0.0
 11
23843.008813585129
 21
13211.538893999979
 31
0.0
  0
LINE
  5
107C0
  8
SUNPOU
  6
CONTINUOUS
 62
     4
 10
24125.511056585139
 20
13211.538893999979
 30
0.0
 11
24365.51105658515
 21
13211.538893999979
 31
0.0
  0
LINE
  5
107C1
  8
SUNPOU
  6
CONTINUOUS
 62
     4
 10
24083.00881358514
 20
13211.538893999979
 30
0.0
 11
24125.511056585139
 21
13211.538893999979
 31
0.0
  0
LINE
  5
107C2
  8
SUNPOU
  6
CONTINUOUS
 62
     4
 10
24040.506570585148
 20
14060.489682999971
 30
0.0
 11
24040.506570585148
 21
12731.538893999979
 31
0.0
  0
LINE
  5
107C3
  8
SUNPOU
  6
CONTINUOUS
 62
     4
 10
27043.511056585139
 20
14060.489682999971
 30
0.0
 11
27043.511056585139
 21
12731.538893999979
 31
0.0
  0
LINE
  5
107C4
  8
SUNPOU
  6
CONTINUOUS
 62
     4
 10
24040.506570585148
 20
12811.538893999979
 30
0.0
 11
27043.511056585139
 21
12811.538893999979
 31
0.0
  0
LINE
  5
107C5
  8
SUNPOU
  6
CONTINUOUS
 62
     4
 10
27123.507097585149
 20
15291.727489499999
 30
0.0
 11
28173.508417585152
 21
15291.727489499999
 31
0.0
  0
LINE
  5
107C6
  8
SUNPOU
  6
CONTINUOUS
 62
     4
 10
27123.507097585149
 20
14590.48697799997
 30
0.0
 11
28173.508417585152
 21
14590.48697799997
 31
0.0
  0
LINE
  5
107C7
  8
SUNPOU
  6
CONTINUOUS
 62
     4
 10
28093.508417585152
 20
15291.727489499999
 30
0.0
 11
28093.508417585152
 21
14590.48697799997
 31
0.0
  0
LINE
  5
107C8
  8
SUNPOU
  6
CONTINUOUS
 62
     4
 10
27123.507097585149
 20
15992.486977999981
 30
0.0
 11
28173.508417585152
 21
15992.486977999981
 31
0.0
  0
LINE
  5
107C9
  8
SUNPOU
  6
CONTINUOUS
 62
     4
 10
27123.507097585149
 20
15291.727489499999
 30
0.0
 11
28173.508417585152
 21
15291.727489499999
 31
0.0
  0
LINE
  5
107CA
  8
SUNPOU
  6
CONTINUOUS
 62
     4
 10
28093.508417585152
 20
15992.486977999981
 30
0.0
 11
28093.508417585152
 21
15291.727489499999
 31
0.0
  0
LINE
  5
107CB
  8
SUNPOU
  6
CONTINUOUS
 62
     4
 10
27973.508417585152
 20
16750.486977999972
 30
0.0
 11
28173.508417585152
 21
16750.486977999972
 31
0.0
  0
LINE
  5
107CC
  8
SUNPOU
  6
CONTINUOUS
 62
     4
 10
27123.507097585149
 20
15992.486977999981
 30
0.0
 11
28173.508417585152
 21
15992.486977999981
 31
0.0
  0
LINE
  5
107CD
  8
SUNPOU
  6
CONTINUOUS
 62
     4
 10
28093.508417585152
 20
16750.486977999972
 30
0.0
 11
28093.508417585152
 21
15992.486977999981
 31
0.0
  0
LINE
  5
107CE
  8
SUNPOU
  6
CONTINUOUS
 62
     4
 10
27123.507097585149
 20
17508.48697799995
 30
0.0
 11
28173.508417585152
 21
17508.48697799995
 31
0.0
  0
LINE
  5
107CF
  8
SUNPOU
  6
CONTINUOUS
 62
     4
 10
27973.508417585152
 20
16750.486977999972
 30
0.0
 11
28173.508417585152
 21
16750.486977999972
 31
0.0
  0
LINE
  5
107D0
  8
SUNPOU
  6
CONTINUOUS
 62
     4
 10
28093.508417585152
 20
17508.48697799995
 30
0.0
 11
28093.508417585152
 21
16750.486977999972
 31
0.0
  0
LINE
  5
107D1
  8
SUNPOU
  6
CONTINUOUS
 62
     4
 10
27123.507097585149
 20
18209.486977999961
 30
0.0
 11
28173.508417585152
 21
18209.486977999961
 31
0.0
  0
LINE
  5
107D2
  8
SUNPOU
  6
CONTINUOUS
 62
     4
 10
27123.507097585149
 20
17508.48697799995
 30
0.0
 11
28173.508417585152
 21
17508.48697799995
 31
0.0
  0
LINE
  5
107D3
  8
SUNPOU
  6
CONTINUOUS
 62
     4
 10
28093.508417585152
 20
18209.486977999961
 30
0.0
 11
28093.508417585152
 21
17508.48697799995
 31
0.0
  0
LINE
  5
107D4
  8
SUNPOU
  6
CONTINUOUS
 62
     4
 10
27123.507097585149
 20
18910.486977999972
 30
0.0
 11
28173.508417585152
 21
18910.486977999972
 31
0.0
  0
LINE
  5
107D5
  8
SUNPOU
  6
CONTINUOUS
 62
     4
 10
27123.507097585149
 20
18209.486977999961
 30
0.0
 11
28173.508417585152
 21
18209.486977999961
 31
0.0
  0
LINE
  5
107D6
  8
SUNPOU
  6
CONTINUOUS
 62
     4
 10
28093.508417585152
 20
18910.486977999972
 30
0.0
 11
28093.508417585152
 21
18209.486977999961
 31
0.0
  0
LINE
  5
107D7
  8
SUNPOU
  6
CONTINUOUS
 62
     4
 10
27973.508417585152
 20
16750.486977999972
 30
0.0
 11
28573.508417585141
 21
16750.486977999972
 31
0.0
  0
LINE
  5
107D8
  8
SUNPOU
  6
CONTINUOUS
 62
     4
 10
27973.508417585152
 20
19317.986977999972
 30
0.0
 11
28573.508417585141
 21
19317.986977999972
 31
0.0
  0
LINE
  5
107D9
  8
SUNPOU
  6
CONTINUOUS
 62
     4
 10
27973.508417585152
 20
14182.986977999981
 30
0.0
 11
28573.508417585141
 21
14182.986977999981
 31
0.0
  0
LINE
  5
107DA
  8
SUNPOU
  6
CONTINUOUS
 62
     4
 10
27973.508417585152
 20
16750.486977999972
 30
0.0
 11
28573.508417585141
 21
16750.486977999972
 31
0.0
  0
LINE
  5
107DB
  8
SUNPOU
  6
CONTINUOUS
 62
     4
 10
27123.507097585149
 20
19360.48427299998
 30
0.0
 11
28973.508417585141
 21
19360.484272999951
 31
0.0
  0
LINE
  5
107DC
  8
SUNPOU
  6
CONTINUOUS
 62
     4
 10
27123.507097585149
 20
14140.489682999971
 30
0.0
 11
28973.508417585141
 21
14140.489682999971
 31
0.0
  0
LINE
  5
107DD
  8
SUNPOU
  6
CONTINUOUS
 62
     4
 10
28893.508417585141
 20
19360.48427299998
 30
0.0
 11
28893.508417585141
 21
14140.489682999971
 31
0.0
  0
LINE
  5
107DE
  8
SUNPOU
  6
CONTINUOUS
 62
     4
 10
27973.508417585152
 20
19317.986977999972
 30
0.0
 11
28573.508417585141
 21
19317.986977999972
 31
0.0
  0
LINE
  5
107DF
  8
SUNPOU
  6
CONTINUOUS
 62
     4
 10
27123.507097585149
 20
19360.48427299998
 30
0.0
 11
28573.508417585141
 21
19360.48427299998
 31
0.0
  0
LINE
  5
107E0
  8
SUNPOU
  6
CONTINUOUS
 62
     4
 10
28493.508417585141
 20
19317.986977999972
 30
0.0
 11
28493.508417585141
 21
19077.986977999972
 31
0.0
  0
LINE
  5
107E1
  8
SUNPOU
  6
CONTINUOUS
 62
     4
 10
28493.508417585141
 20
19360.48427299998
 30
0.0
 11
28493.508417585141
 21
19600.48427299998
 31
0.0
  0
LINE
  5
107E2
  8
SUNPOU
  6
CONTINUOUS
 62
     4
 10
28093.508417585141
 20
19317.986977999972
 30
0.0
 11
28093.508417585141
 21
19985.684819442518
 31
0.0
  0
LINE
  5
107E3
  8
SUNPOU
  6
CONTINUOUS
 62
     4
 10
28493.508417585141
 20
19317.986977999972
 30
0.0
 11
28493.508417585141
 21
19360.48427299998
 31
0.0
  0
LINE
  5
107E4
  8
SUNPOU
  6
CONTINUOUS
 62
     4
 10
27973.508417585152
 20
14182.986977999981
 30
0.0
 11
28573.508417585141
 21
14182.986977999981
 31
0.0
  0
LINE
  5
107E5
  8
SUNPOU
  6
CONTINUOUS
 62
     4
 10
27123.507097585149
 20
14140.489682999971
 30
0.0
 11
28573.508417585141
 21
14140.489682999971
 31
0.0
  0
LINE
  5
107E6
  8
SUNPOU
  6
CONTINUOUS
 62
     4
 10
28493.508417585141
 20
14182.986977999981
 30
0.0
 11
28493.508417585141
 21
14422.986977999981
 31
0.0
  0
LINE
  5
107E7
  8
SUNPOU
  6
CONTINUOUS
 62
     4
 10
28493.508417585141
 20
14140.489682999971
 30
0.0
 11
28493.508417585141
 21
13900.489682999971
 31
0.0
  0
LINE
  5
107E8
  8
SUNPOU
  6
CONTINUOUS
 62
     4
 10
28093.508417585141
 20
14182.986977999981
 30
0.0
 11
28093.508417585141
 21
13453.209014238049
 31
0.0
  0
LINE
  5
107E9
  8
SUNPOU
  6
CONTINUOUS
 62
     4
 10
28493.508417585141
 20
14182.986977999981
 30
0.0
 11
28493.508417585141
 21
14140.489682999971
 31
0.0
  0
TEXT
  5
107EA
  8
0
  6
CONTINUOUS
 62
     7
 10
28413.508417585141
 20
13566.93344660318
 30
0.0
 40
160.0
  1
42.5
 50
90.0
  0
TEXT
  5
107EB
  8
0
  6
CONTINUOUS
 62
     7
 10
28413.508417585141
 20
19454.04050939676
 30
0.0
 40
160.0
  1
42.5
 50
90.0
  0
TEXT
  5
107EC
  8
0
  6
CONTINUOUS
 62
     7
 10
28813.508417585141
 20
16470.486977999979
 30
0.0
 40
160.0
  1
5220
 50
90.0
  0
TEXT
  5
107ED
  8
0
  6
CONTINUOUS
 62
     7
 10
28013.50841758513
 20
18386.653644666651
 30
0.0
 40
160.0
  1
701
 50
90.0
  0
TEXT
  5
107EE
  8
0
  6
CONTINUOUS
 62
     7
 10
28013.50841758513
 20
17685.653644666651
 30
0.0
 40
160.0
  1
701
 50
90.0
  0
TEXT
  5
107EF
  8
0
  6
CONTINUOUS
 62
     7
 10
28013.50841758513
 20
16916.153644666651
 30
0.0
 40
160.0
  1
758
 50
90.0
  0
TEXT
  5
107F0
  8
0
  6
CONTINUOUS
 62
     7
 10
28013.50841758513
 20
16158.153644666651
 30
0.0
 40
160.0
  1
758
 50
90.0
  0
TEXT
  5
107F1
  8
0
  6
CONTINUOUS
 62
     7
 10
28013.50841758513
 20
15468.773900416651
 30
0.0
 40
160.0
  1
701
 50
90.0
  0
TEXT
  5
107F2
  8
0
  6
CONTINUOUS
 62
     7
 10
28013.50841758513
 20
14767.773900416651
 30
0.0
 40
160.0
  1
701
 50
90.0
  0
TEXT
  5
107F3
  8
0
  6
CONTINUOUS
 62
     7
 10
25275.34214691848
 20
12891.538893999979
 30
0.0
 40
160.0
  1
3003
  0
TEXT
  5
107F4
  8
0
  6
CONTINUOUS
 62
     7
 10
24201.062485967232
 20
13291.538893999979
 30
0.0
 40
160.0
  1
42.5
  0
TEXT
  5
107F5
  8
0
  6
CONTINUOUS
 62
     7
 10
26402.955141203049
 20
13291.538893999979
 30
0.0
 40
160.0
  1
42.5
  0
TEXT
  5
107F6
  8
0
  6
CONTINUOUS
 62
     7
 10
27119.062485967221
 20
13291.538893999979
 30
0.0
 40
160.0
  1
42.5
  0
TEXT
  5
107F7
  8
0
  6
CONTINUOUS
 62
     7
 10
23484.955141203049
 20
13291.538893999979
 30
0.0
 40
160.0
  1
42.5
  0
TEXT
  5
107F8
  8
0
  6
CONTINUOUS
 62
     7
 10
27973.508417585159
 20
19378.291725994899
 30
0.0
 40
160.0
  1
407.5
 50
90.0
  0
TEXT
  5
107F9
  8
0
  6
CONTINUOUS
 62
     7
 10
27973.508417585159
 20
13479.66506104066
 30
0.0
 40
160.0
  1
407.5
 50
90.0
  0
ARC
  5
107FA
  8
0
  6
BYBLOCK
 62
     0
 10
28093.508417585152
 20
14590.607233749981
 30
0.0
 40
15.0
 50
270.0
 51
90.0
  0
ARC
  5
107FB
  8
0
  6
BYBLOCK
 62
     0
 10
28093.508417585152
 20
14590.607233749981
 30
0.0
 40
15.0
 50
90.0
 51
270.0
  0
ARC
  5
107FC
  8
0
  6
BYBLOCK
 62
     0
 10
28093.508417585152
 20
14183.107233749981
 30
0.0
 40
15.0
 50
90.0
 51
270.0
  0
ARC
  5
107FD
  8
0
  6
BYBLOCK
 62
     0
 10
28093.508417585152
 20
14183.107233749981
 30
0.0
 40
15.0
 50
270.0
 51
90.0
  0
ARC
  5
107FE
  8
0
  6
BYBLOCK
 62
     0
 10
28093.508417585152
 20
18910.486977999972
 30
0.0
 40
15.0
 50
90.0
 51
270.0
  0
ARC
  5
107FF
  8
0
  6
BYBLOCK
 62
     0
 10
28093.508417585152
 20
18910.486977999972
 30
0.0
 40
15.0
 50
270.0
 51
90.0
  0
ARC
  5
10800
  8
0
  6
BYBLOCK
 62
     0
 10
28093.508417585152
 20
19317.986977999972
 30
0.0
 40
15.0
 50
270.0
 51
90.0
  0
ARC
  5
10801
  8
0
  6
BYBLOCK
 62
     0
 10
28093.508417585152
 20
19317.986977999972
 30
0.0
 40
15.0
 50
90.0
 51
270.0
  0
ARC
  5
10802
  8
0
  6
BYBLOCK
 62
     0
 10
24083.00881358514
 20
13211.538893999979
 30
0.0
 40
15.0
 50
0.0
 51
180.0
  0
ARC
  5
10803
  8
0
  6
BYBLOCK
 62
     0
 10
24083.00881358514
 20
13211.538893999979
 30
0.0
 40
15.0
 50
180.0
 51
0.0
  0
ARC
  5
10804
  8
0
  6
BYBLOCK
 62
     0
 10
24040.506570585148
 20
13211.538893999979
 30
0.0
 40
15.0
 50
180.0
 51
0.0
  0
ARC
  5
10805
  8
0
  6
BYBLOCK
 62
     0
 10
24040.506570585148
 20
13211.538893999979
 30
0.0
 40
15.0
 50
0.0
 51
180.0
  0
ARC
  5
10806
  8
0
  6
BYBLOCK
 62
     0
 10
27001.008813585151
 20
13211.538893999979
 30
0.0
 40
15.0
 50
180.0
 51
0.0
  0
ARC
  5
10807
  8
0
  6
BYBLOCK
 62
     0
 10
27001.008813585151
 20
13211.538893999979
 30
0.0
 40
15.0
 50
0.0
 51
180.0
  0
ARC
  5
10808
  8
0
  6
BYBLOCK
 62
     0
 10
27043.511056585139
 20
13211.538893999979
 30
0.0
 40
15.0
 50
0.0
 51
180.0
  0
ARC
  5
10809
  8
0
  6
BYBLOCK
 62
     0
 10
27043.511056585139
 20
13211.538893999979
 30
0.0
 40
15.0
 50
180.0
 51
0.0
  0
ARC
  5
1080A
  8
0
  6
BYBLOCK
 62
     0
 10
27001.008813585151
 20
13211.538893999979
 30
0.0
 40
15.0
 50
0.0
 51
180.0
  0
ARC
  5
1080B
  8
0
  6
BYBLOCK
 62
     0
 10
27001.008813585151
 20
13211.538893999979
 30
0.0
 40
15.0
 50
180.0
 51
0.0
  0
ARC
  5
1080C
  8
0
  6
BYBLOCK
 62
     0
 10
26958.506570585141
 20
13211.538893999979
 30
0.0
 40
15.0
 50
180.0
 51
0.0
  0
ARC
  5
1080D
  8
0
  6
BYBLOCK
 62
     0
 10
26958.506570585141
 20
13211.538893999979
 30
0.0
 40
15.0
 50
0.0
 51
180.0
  0
ARC
  5
1080E
  8
0
  6
BYBLOCK
 62
     0
 10
24083.00881358514
 20
13211.538893999979
 30
0.0
 40
15.0
 50
180.0
 51
0.0
  0
ARC
  5
1080F
  8
0
  6
BYBLOCK
 62
     0
 10
24083.00881358514
 20
13211.538893999979
 30
0.0
 40
15.0
 50
0.0
 51
180.0
  0
ARC
  5
10810
  8
0
  6
BYBLOCK
 62
     0
 10
24125.511056585139
 20
13211.538893999979
 30
0.0
 40
15.0
 50
0.0
 51
180.0
  0
ARC
  5
10811
  8
0
  6
BYBLOCK
 62
     0
 10
24125.511056585139
 20
13211.538893999979
 30
0.0
 40
15.0
 50
180.0
 51
0.0
  0
ARC
  5
10812
  8
0
  6
BYBLOCK
 62
     0
 10
24040.506570585148
 20
12811.538893999979
 30
0.0
 40
15.0
 50
0.0
 51
180.0
  0
ARC
  5
10813
  8
0
  6
BYBLOCK
 62
     0
 10
24040.506570585148
 20
12811.538893999979
 30
0.0
 40
15.0
 50
180.0
 51
0.0
  0
ARC
  5
10814
  8
0
  6
BYBLOCK
 62
     0
 10
27043.511056585139
 20
12811.538893999979
 30
0.0
 40
15.0
 50
180.0
 51
0.0
  0
ARC
  5
10815
  8
0
  6
BYBLOCK
 62
     0
 10
27043.511056585139
 20
12811.538893999979
 30
0.0
 40
15.0
 50
0.0
 51
180.0
  0
ARC
  5
10816
  8
0
  6
BYBLOCK
 62
     0
 10
28093.508417585152
 20
15291.727489499999
 30
0.0
 40
15.0
 50
270.0
 51
90.0
  0
ARC
  5
10817
  8
0
  6
BYBLOCK
 62
     0
 10
28093.508417585152
 20
15291.727489499999
 30
0.0
 40
15.0
 50
90.0
 51
270.0
  0
ARC
  5
10818
  8
0
  6
BYBLOCK
 62
     0
 10
28093.508417585152
 20
14590.48697799997
 30
0.0
 40
15.0
 50
90.0
 51
270.0
  0
ARC
  5
10819
  8
0
  6
BYBLOCK
 62
     0
 10
28093.508417585152
 20
14590.48697799997
 30
0.0
 40
15.0
 50
270.0
 51
90.0
  0
ARC
  5
1081A
  8
0
  6
BYBLOCK
 62
     0
 10
28093.508417585152
 20
15992.486977999981
 30
0.0
 40
15.0
 50
270.0
 51
90.0
  0
ARC
  5
1081B
  8
0
  6
BYBLOCK
 62
     0
 10
28093.508417585152
 20
15992.486977999981
 30
0.0
 40
15.0
 50
90.0
 51
270.0
  0
ARC
  5
1081C
  8
0
  6
BYBLOCK
 62
     0
 10
28093.508417585152
 20
15291.727489499999
 30
0.0
 40
15.0
 50
90.0
 51
270.0
  0
ARC
  5
1081D
  8
0
  6
BYBLOCK
 62
     0
 10
28093.508417585152
 20
15291.727489499999
 30
0.0
 40
15.0
 50
270.0
 51
90.0
  0
ARC
  5
1081E
  8
0
  6
BYBLOCK
 62
     0
 10
28093.508417585152
 20
16750.486977999972
 30
0.0
 40
15.0
 50
270.0
 51
90.0
  0
ARC
  5
1081F
  8
0
  6
BYBLOCK
 62
     0
 10
28093.508417585152
 20
16750.486977999972
 30
0.0
 40
15.0
 50
90.0
 51
270.0
  0
ARC
  5
10820
  8
0
  6
BYBLOCK
 62
     0
 10
28093.508417585152
 20
15992.486977999981
 30
0.0
 40
15.0
 50
90.0
 51
270.0
  0
ARC
  5
10821
  8
0
  6
BYBLOCK
 62
     0
 10
28093.508417585152
 20
15992.486977999981
 30
0.0
 40
15.0
 50
270.0
 51
90.0
  0
ARC
  5
10822
  8
0
  6
BYBLOCK
 62
     0
 10
28093.508417585152
 20
17508.48697799995
 30
0.0
 40
15.0
 50
270.0
 51
90.0
  0
ARC
  5
10823
  8
0
  6
BYBLOCK
 62
     0
 10
28093.508417585152
 20
17508.48697799995
 30
0.0
 40
15.0
 50
90.0
 51
270.0
  0
ARC
  5
10824
  8
0
  6
BYBLOCK
 62
     0
 10
28093.508417585152
 20
16750.486977999972
 30
0.0
 40
15.0
 50
90.0
 51
270.0
  0
ARC
  5
10825
  8
0
  6
BYBLOCK
 62
     0
 10
28093.508417585152
 20
16750.486977999972
 30
0.0
 40
15.0
 50
270.0
 51
90.0
  0
ARC
  5
10826
  8
0
  6
BYBLOCK
 62
     0
 10
28093.508417585152
 20
18209.486977999961
 30
0.0
 40
15.0
 50
270.0
 51
90.0
  0
ARC
  5
10827
  8
0
  6
BYBLOCK
 62
     0
 10
28093.508417585152
 20
18209.486977999961
 30
0.0
 40
15.0
 50
90.0
 51
270.0
  0
ARC
  5
10828
  8
0
  6
BYBLOCK
 62
     0
 10
28093.508417585152
 20
17508.48697799995
 30
0.0
 40
15.0
 50
90.0
 51
270.0
  0
ARC
  5
10829
  8
0
  6
BYBLOCK
 62
     0
 10
28093.508417585152
 20
17508.48697799995
 30
0.0
 40
15.0
 50
270.0
 51
90.0
  0
ARC
  5
1082A
  8
0
  6
BYBLOCK
 62
     0
 10
28093.508417585152
 20
18910.486977999972
 30
0.0
 40
15.0
 50
270.0
 51
90.0
  0
ARC
  5
1082B
  8
0
  6
BYBLOCK
 62
     0
 10
28093.508417585152
 20
18910.486977999972
 30
0.0
 40
15.0
 50
90.0
 51
270.0
  0
ARC
  5
1082C
  8
0
  6
BYBLOCK
 62
     0
 10
28093.508417585152
 20
18209.486977999961
 30
0.0
 40
15.0
 50
90.0
 51
270.0
  0
ARC
  5
1082D
  8
0
  6
BYBLOCK
 62
     0
 10
28093.508417585152
 20
18209.486977999961
 30
0.0
 40
15.0
 50
270.0
 51
90.0
  0
ARC
  5
1082E
  8
0
  6
BYBLOCK
 62
     0
 10
28493.508417585141
 20
16750.486977999972
 30
0.0
 40
15.0
 50
90.0
 51
270.0
  0
ARC
  5
1082F
  8
0
  6
BYBLOCK
 62
     0
 10
28493.508417585141
 20
16750.486977999972
 30
0.0
 40
15.0
 50
270.0
 51
90.0
  0
ARC
  5
10830
  8
0
  6
BYBLOCK
 62
     0
 10
28493.508417585141
 20
19317.986977999972
 30
0.0
 40
15.0
 50
270.0
 51
90.0
  0
ARC
  5
10831
  8
0
  6
BYBLOCK
 62
     0
 10
28493.508417585141
 20
19317.986977999972
 30
0.0
 40
15.0
 50
90.0
 51
270.0
  0
ARC
  5
10832
  8
0
  6
BYBLOCK
 62
     0
 10
28493.508417585141
 20
14182.986977999981
 30
0.0
 40
15.0
 50
90.0
 51
270.0
  0
ARC
  5
10833
  8
0
  6
BYBLOCK
 62
     0
 10
28493.508417585141
 20
14182.986977999981
 30
0.0
 40
15.0
 50
270.0
 51
90.0
  0
ARC
  5
10834
  8
0
  6
BYBLOCK
 62
     0
 10
28493.508417585141
 20
16750.486977999972
 30
0.0
 40
15.0
 50
270.0
 51
90.0
  0
ARC
  5
10835
  8
0
  6
BYBLOCK
 62
     0
 10
28493.508417585141
 20
16750.486977999972
 30
0.0
 40
15.0
 50
90.0
 51
270.0
  0
ARC
  5
10836
  8
0
  6
BYBLOCK
 62
     0
 10
28893.508417585141
 20
19360.48427299998
 30
0.0
 40
15.0
 50
270.0
 51
90.0
  0
ARC
  5
10837
  8
0
  6
BYBLOCK
 62
     0
 10
28893.508417585141
 20
19360.48427299998
 30
0.0
 40
15.0
 50
90.0
 51
270.0
  0
ARC
  5
10838
  8
0
  6
BYBLOCK
 62
     0
 10
28893.508417585141
 20
14140.489682999971
 30
0.0
 40
15.0
 50
90.0
 51
270.0
  0
ARC
  5
10839
  8
0
  6
BYBLOCK
 62
     0
 10
28893.508417585141
 20
14140.489682999971
 30
0.0
 40
15.0
 50
270.0
 51
90.0
  0
ARC
  5
1083A
  8
0
  6
BYBLOCK
 62
     0
 10
28493.508417585141
 20
19317.986977999972
 30
0.0
 40
15.0
 50
270.0
 51
90.0
  0
ARC
  5
1083B
  8
0
  6
BYBLOCK
 62
     0
 10
28493.508417585141
 20
19317.986977999972
 30
0.0
 40
15.0
 50
90.0
 51
270.0
  0
ARC
  5
1083C
  8
0
  6
BYBLOCK
 62
     0
 10
28493.508417585141
 20
19360.48427299998
 30
0.0
 40
15.0
 50
90.0
 51
270.0
  0
ARC
  5
1083D
  8
0
  6
BYBLOCK
 62
     0
 10
28493.508417585141
 20
19360.48427299998
 30
0.0
 40
15.0
 50
270.0
 51
90.0
  0
ARC
  5
1083E
  8
0
  6
BYBLOCK
 62
     0
 10
28493.508417585141
 20
14182.986977999981
 30
0.0
 40
15.0
 50
90.0
 51
270.0
  0
ARC
  5
1083F
  8
0
  6
BYBLOCK
 62
     0
 10
28493.508417585141
 20
14182.986977999981
 30
0.0
 40
15.0
 50
270.0
 51
90.0
  0
ARC
  5
10840
  8
0
  6
BYBLOCK
 62
     0
 10
28493.508417585141
 20
14140.489682999971
 30
0.0
 40
15.0
 50
270.0
 51
90.0
  0
ARC
  5
10841
  8
0
  6
BYBLOCK
 62
     0
 10
28493.508417585141
 20
14140.489682999971
 30
0.0
 40
15.0
 50
90.0
 51
270.0
  0
LINE
  5
10842
  8
SUNPOU
  6
CONTINUOUS
 62
     4
 10
27686.550145585141
 20
18209.486977999961
 30
0.0
 11
28573.508417585141
 21
18209.486977999961
 31
0.0
  0
LINE
  5
10843
  8
SUNPOU
  6
CONTINUOUS
 62
     4
 10
28493.508417585141
 20
18209.486977999961
 30
0.0
 11
28493.508417585141
 21
19317.986977999972
 31
0.0
  0
LINE
  5
10844
  8
SUNPOU
  6
CONTINUOUS
 62
     4
 10
27686.550145585141
 20
18209.486977999961
 30
0.0
 11
28573.508417585141
 21
18209.486977999961
 31
0.0
  0
LINE
  5
10845
  8
SUNPOU
  6
CONTINUOUS
 62
     4
 10
28493.508417585141
 20
16750.486977999972
 30
0.0
 11
28493.508417585141
 21
18209.486977999961
 31
0.0
  0
LINE
  5
10846
  8
SUNPOU
  6
CONTINUOUS
 62
     4
 10
27686.550145585141
 20
15291.727489499999
 30
0.0
 11
28573.508417585141
 21
15291.727489499999
 31
0.0
  0
LINE
  5
10847
  8
SUNPOU
  6
CONTINUOUS
 62
     4
 10
28493.508417585141
 20
15291.727489499999
 30
0.0
 11
28493.508417585141
 21
16750.486977999972
 31
0.0
  0
LINE
  5
10848
  8
SUNPOU
  6
CONTINUOUS
 62
     4
 10
27686.550145585141
 20
15291.727489499999
 30
0.0
 11
28573.508417585141
 21
15291.727489499999
 31
0.0
  0
LINE
  5
10849
  8
SUNPOU
  6
CONTINUOUS
 62
     4
 10
28493.508417585141
 20
14182.986977999981
 30
0.0
 11
28493.508417585141
 21
15291.727489499999
 31
0.0
  0
TEXT
  5
1084A
  8
0
  6
CONTINUOUS
 62
     7
 10
28413.508417585141
 20
14404.023900416651
 30
0.0
 40
160.0
  1
1108.5
 50
90.0
  0
TEXT
  5
1084B
  8
0
  6
CONTINUOUS
 62
     7
 10
28413.508417585141
 20
15754.440567083309
 30
0.0
 40
160.0
  1
1459
 50
90.0
  0
TEXT
  5
1084C
  8
0
  6
CONTINUOUS
 62
     7
 10
28413.508417585141
 20
17213.3203113333
 30
0.0
 40
160.0
  1
1459
 50
90.0
  0
TEXT
  5
1084D
  8
0
  6
CONTINUOUS
 62
     7
 10
28413.508417585141
 20
18430.403644666651
 30
0.0
 40
160.0
  1
1108.5
 50
90.0
  0
ARC
  5
1084E
  8
0
  6
BYBLOCK
 62
     0
 10
28493.508417585141
 20
18209.486977999961
 30
0.0
 40
15.0
 50
90.0
 51
270.0
  0
ARC
  5
1084F
  8
0
  6
BYBLOCK
 62
     0
 10
28493.508417585141
 20
18209.486977999961
 30
0.0
 40
15.0
 50
270.0
 51
90.0
  0
ARC
  5
10850
  8
0
  6
BYBLOCK
 62
     0
 10
28493.508417585141
 20
19317.986977999972
 30
0.0
 40
15.0
 50
270.0
 51
90.0
  0
ARC
  5
10851
  8
0
  6
BYBLOCK
 62
     0
 10
28493.508417585141
 20
19317.986977999972
 30
0.0
 40
15.0
 50
90.0
 51
270.0
  0
ARC
  5
10852
  8
0
  6
BYBLOCK
 62
     0
 10
28493.508417585141
 20
16750.486977999972
 30
0.0
 40
15.0
 50
90.0
 51
270.0
  0
ARC
  5
10853
  8
0
  6
BYBLOCK
 62
     0
 10
28493.508417585141
 20
16750.486977999972
 30
0.0
 40
15.0
 50
270.0
 51
90.0
  0
ARC
  5
10854
  8
0
  6
BYBLOCK
 62
     0
 10
28493.508417585141
 20
18209.486977999961
 30
0.0
 40
15.0
 50
270.0
 51
90.0
  0
ARC
  5
10855
  8
0
  6
BYBLOCK
 62
     0
 10
28493.508417585141
 20
18209.486977999961
 30
0.0
 40
15.0
 50
90.0
 51
270.0
  0
ARC
  5
10856
  8
0
  6
BYBLOCK
 62
     0
 10
28493.508417585141
 20
15291.727489499999
 30
0.0
 40
15.0
 50
90.0
 51
270.0
  0
ARC
  5
10857
  8
0
  6
BYBLOCK
 62
     0
 10
28493.508417585141
 20
15291.727489499999
 30
0.0
 40
15.0
 50
270.0
 51
90.0
  0
ARC
  5
10858
  8
0
  6
BYBLOCK
 62
     0
 10
28493.508417585141
 20
16750.486977999972
 30
0.0
 40
15.0
 50
270.0
 51
90.0
  0
ARC
  5
10859
  8
0
  6
BYBLOCK
 62
     0
 10
28493.508417585141
 20
16750.486977999972
 30
0.0
 40
15.0
 50
90.0
 51
270.0
  0
ARC
  5
1085A
  8
0
  6
BYBLOCK
 62
     0
 10
28493.508417585141
 20
14182.986977999981
 30
0.0
 40
15.0
 50
90.0
 51
270.0
  0
ARC
  5
1085B
  8
0
  6
BYBLOCK
 62
     0
 10
28493.508417585141
 20
14182.986977999981
 30
0.0
 40
15.0
 50
270.0
 51
90.0
  0
ARC
  5
1085C
  8
0
  6
BYBLOCK
 62
     0
 10
28493.508417585141
 20
15291.727489499999
 30
0.0
 40
15.0
 50
270.0
 51
90.0
  0
ARC
  5
1085D
  8
0
  6
BYBLOCK
 62
     0
 10
28493.508417585141
 20
15291.727489499999
 30
0.0
 40
15.0
 50
90.0
 51
270.0
  0
TEXT
  5
1010966
  8
FILENAME
  6
CONTINUOUS
 10
26099.238095238092
 20
348.0
 30
0.0
 40
200.0
  1
＜VGCU-3052+VKCU-2852-L-1-A_0.DXF ＞
  7
FILENAME
 72
     2
 11
32764.0
 21
348.0
 31
0.0
  0
LINE
  5
101096B
  8
WAKUSEN-01
 10
868.00000000000193
 20
827.99999999999955
 30
0.0
 11
32764.000000000011
 21
827.99999999999943
 31
0.0
  0
LINE
  5
101096C
  8
WAKUSEN-01
 10
868.00000000000193
 20
827.99999999999955
 30
0.0
 11
868.00000000000193
 21
22484.000000000011
 31
0.0
  0
LINE
  5
101096D
  8
WAKUSEN-01
 10
32764.000000000011
 20
827.99999999999943
 30
0.0
 11
32764.000000000011
 21
22484.000000000011
 31
0.0
  0
LINE
  5
101096E
  8
WAKUSEN-01
 10
20560.0
 20
827.99999999999716
 30
0.0
 11
20560.0
 21
2484.0
 31
0.0
  0
LINE
  5
101096F
  8
WAKUSEN-02
 10
26868.0
 20
827.99999999999261
 30
0.0
 11
26868.0
 21
2484.0
 31
0.0
  0
ENDSEC
  0
EOF
