  0
SECTION
  2
HEADER
  9
$ACADVER
  1
AC1009
  9
$INSBASE
 10
0.0
 20
0.0
 30
0.0
  9
$EXTMIN
 10
867.99324330406671
 20
327.38164749855792
 30
-0.0000000000000057
  9
$EXTMAX
 10
32765.33210850941
 20
22484.553276491992
 30
0.0000000000000104
  9
$LIMMIN
 10
0.0
 20
0.0
  9
$LIMMAX
 10
33600.0
 20
23760.0
  9
$ORTHOMODE
 70
     1
  9
$REGENMODE
 70
     1
  9
$FILLMODE
 70
     1
  9
$QTEXTMODE
 70
     0
  9
$MIRRTEXT
 70
     0
  9
$DRAGMODE
 70
     2
  9
$LTSCALE
 40
80.0
  9
$OSMODE
 70
  3071
  9
$ATTMODE
 70
     1
  9
$TEXTSIZE
 40
0.2
  9
$TRACEWID
 40
0.05
  9
$TEXTSTYLE
  7
00
  9
$CLAYER
  8
0
  9
$CELTYPE
  6
BYLAYER
  9
$CECOLOR
 62
   256
  9
$DIMSCALE
 40
80.0
  9
$DIMASZ
 40
3.0
  9
$DIMEXO
 40
1.0
  9
$DIMDLI
 40
0.38
  9
$DIMRND
 40
0.5
  9
$DIMDLE
 40
0.0
  9
$DIMEXE
 40
1.0
  9
$DIMTP
 40
0.0
  9
$DIMTM
 40
0.0
  9
$DIMTXT
 40
2.0
  9
$DIMCEN
 40
0.09
  9
$DIMTSZ
 40
0.0
  9
$DIMTOL
 70
     0
  9
$DIMLIM
 70
     0
  9
$DIMTIH
 70
     0
  9
$DIMTOH
 70
     0
  9
$DIMSE1
 70
     0
  9
$DIMSE2
 70
     0
  9
$DIMTAD
 70
     1
  9
$DIMZIN
 70
     8
  9
$DIMBLK
  1
DOTSMALL
  9
$DIMASO
 70
     1
  9
$DIMSHO
 70
     1
  9
$DIMPOST
  1

  9
$DIMAPOST
  1

  9
$DIMALT
 70
     0
  9
$DIMALTD
 70
     2
  9
$DIMALTF
 40
25.399999999999999
  9
$DIMLFAC
 40
1.0
  9
$DIMTOFL
 70
     1
  9
$DIMTVP
 40
0.0
  9
$DIMTIX
 70
     0
  9
$DIMSOXD
 70
     0
  9
$DIMSAH
 70
     0
  9
$DIMBLK1
  1

  9
$DIMBLK2
  1

  9
$DIMSTYLE
  2
SUNPOU
  9
$DIMCLRD
 70
     4
  9
$DIMCLRE
 70
     4
  9
$DIMCLRT
 70
     7
  9
$DIMTFAC
 40
1.0
  9
$DIMGAP
 40
1.0
  9
$LUNITS
 70
     2
  9
$LUPREC
 70
     4
  9
$SKETCHINC
 40
0.1
  9
$FILLETRAD
 40
0.0
  9
$AUNITS
 70
     0
  9
$AUPREC
 70
     0
  9
$MENU
  1
acad
  9
$ELEVATION
 40
0.0
  9
$PELEVATION
 40
0.0
  9
$THICKNESS
 40
0.0
  9
$LIMCHECK
 70
     0
  9
$BLIPMODE
 70
     1
  9
$CHAMFERA
 40
0.0
  9
$CHAMFERB
 40
0.0
  9
$SKPOLY
 70
     0
  9
$TDCREATE
 40
2311940.075052408
  9
$TDUPDATE
 40
2458942.4597033341
  9
$TDINDWG
 40
0.3082471528
  9
$TDUSRTIMER
 40
0.3082465741
  9
$USRTIMER
 70
     1
  9
$ANGBASE
 50
0.0
  9
$ANGDIR
 70
     0
  9
$PDMODE
 70
     0
  9
$PDSIZE
 40
0.0
  9
$PLINEWID
 40
0.0
  9
$COORDS
 70
     1
  9
$SPLFRAME
 70
     0
  9
$SPLINETYPE
 70
     6
  9
$SPLINESEGS
 70
     8
  9
$ATTDIA
 70
     1
  9
$ATTREQ
 70
     1
  9
$HANDLING
 70
     1
  9
$HANDSEED
  5
1012DA0
  9
$SURFTAB1
 70
     6
  9
$SURFTAB2
 70
     6
  9
$SURFTYPE
 70
     6
  9
$SURFU
 70
     6
  9
$SURFV
 70
     6
  9
$UCSNAME
  2

  9
$UCSORG
 10
0.0
 20
0.0
 30
0.0
  9
$UCSXDIR
 10
1.0
 20
0.0
 30
0.0
  9
$UCSYDIR
 10
0.0
 20
1.0
 30
0.0
  9
$PUCSNAME
  2

  9
$PUCSORG
 10
0.0
 20
0.0
 30
0.0
  9
$PUCSXDIR
 10
1.0
 20
0.0
 30
0.0
  9
$PUCSYDIR
 10
0.0
 20
1.0
 30
0.0
  9
$USERI1
 70
     0
  9
$USERI2
 70
     0
  9
$USERI3
 70
     0
  9
$USERI4
 70
     0
  9
$USERI5
 70
     0
  9
$USERR1
 40
0.0
  9
$USERR2
 40
0.0
  9
$USERR3
 40
0.0
  9
$USERR4
 40
0.0
  9
$USERR5
 40
0.0
  9
$WORLDVIEW
 70
     1
  9
$SHADEDGE
 70
     3
  9
$SHADEDIF
 70
    70
  9
$TILEMODE
 70
     1
  9
$MAXACTVP
 70
    16
  9
$PLIMCHECK
 70
     0
  9
$PEXTMIN
 10
1.0000000000000000E+020
 20
1.0000000000000000E+020
 30
1.0000000000000000E+020
  9
$PEXTMAX
 10
-1.0000000000000000E+020
 20
-1.0000000000000000E+020
 30
-1.0000000000000000E+020
  9
$PLIMMIN
 10
0.0
 20
0.0
  9
$PLIMMAX
 10
12.0
 20
9.0
  9
$UNITMODE
 70
     0
  9
$VISRETAIN
 70
     0
  9
$PLINEGEN
 70
     1
  9
$PSLTSCALE
 70
     0
  0
ENDSEC
  0
SECTION
  2
TABLES
  0
TABLE
  2
VPORT
 70
     1
  0
VPORT
  2
*ACTIVE
 70
     0
 10
0.0
 20
0.0
 11
1.0
 21
1.0
 12
16800.0
 22
11880.0
 13
0.0
 23
0.0
 14
1.0
 24
1.0
 15
0.0
 25
0.0
 16
0.0
 26
0.0
 36
1.0
 17
0.0
 27
0.0
 37
0.0
 40
23981.023255813951
 41
2.195652173913043
 42
50.0
 43
0.0
 44
0.0
 50
0.0
 51
0.0
 71
     0
 72
 10000
 73
     1
 74
     1
 75
     0
 76
     0
 77
     0
 78
     0
  0
ENDTAB
  0
TABLE
  2
LTYPE
 70
     6
  0
LTYPE
  2
CONTINUOUS
 70
     0
  3
Solid line
 72
    65
 73
     0
 40
0.0
  0
LTYPE
  2
DASHED3
 70
     0
  3
------  ------  ------  ------  
 72
    65
 73
     2
 40
5.0
 49
3.75
 49
-1.25
  0
LTYPE
  2
CENTER2
 70
     0
  3
----------  --  ----------  --  
 72
    65
 73
     4
 40
20.0
 49
12.5
 49
-2.5
 49
2.5
 49
-2.5
  0
LTYPE
  2
HIDE-M
 70
     0
  3

 72
    65
 73
     2
 40
2.0
 49
1.0
 49
-1.0
  0
LTYPE
  2
1PL-M
 70
     0
  3

 72
    65
 73
     4
 40
15.0
 49
12.0
 49
-1.0
 49
1.0
 49
-1.0
  0
LTYPE
  2
PHANTOM2
 70
     0
  3
___ _ _ ___ _ _ ___ _ _ ___ _ _
 72
    65
 73
     6
 40
1.25
 49
0.625
 49
-0.125
 49
0.125
 49
-0.125
 49
0.125
 49
-0.125
  0
ENDTAB
  0
TABLE
  2
LAYER
 70
    24
  0
LAYER
  2
0
 70
     0
 62
     7
  6
CONTINUOUS
  0
LAYER
  2
SUNPOU
 70
     0
 62
     4
  6
CONTINUOUS
  0
LAYER
  2
0-1
 70
     0
 62
     7
  6
CONTINUOUS
  0
LAYER
  2
0-2
 70
     0
 62
     7
  6
CONTINUOUS
  0
LAYER
  2
0-5
 70
     0
 62
     7
  6
CONTINUOUS
  0
LAYER
  2
0-6
 70
     0
 62
     7
  6
CONTINUOUS
  0
LAYER
  2
2-0
 70
     0
 62
     7
  6
CONTINUOUS
  0
LAYER
  2
0-8
 70
     0
 62
     7
  6
CONTINUOUS
  0
LAYER
  2
YODOROGO
 70
     0
 62
   130
  6
CONTINUOUS
  0
LAYER
  2
WAKUSEN-01
 70
     0
 62
    50
  6
CONTINUOUS
  0
LAYER
  2
WAKUSEN-02
 70
     0
 62
   130
  6
CONTINUOUS
  0
LAYER
  2
WAKUMOJI-01
 70
     0
 62
   130
  6
CONTINUOUS
  0
LAYER
  2
FILENAME
 70
     0
 62
     7
  6
CONTINUOUS
  0
LAYER
  2
NAME
 70
     0
 62
    20
  6
CONTINUOUS
  0
LAYER
  2
0-4
 70
     0
 62
     7
  6
CONTINUOUS
  0
LAYER
  2
1-前柱P
 70
     0
 62
     3
  6
CONTINUOUS
  0
LAYER
  2
1-前柱カバ-P
 70
     0
 62
     3
  6
CONTINUOUS
  0
LAYER
  2
1-桁前P28
 70
     0
 62
     3
  6
CONTINUOUS
  0
LAYER
  2
1-後柱P
 70
     0
 62
     3
  6
CONTINUOUS
  0
LAYER
  2
1-中柱P
 70
     0
 62
     3
  6
CONTINUOUS
  0
LAYER
  2
1-後柱カバ-P
 70
     0
 62
     7
  6
CONTINUOUS
  0
LAYER
  2
1-中柱カバ-P
 70
     0
 62
     7
  6
CONTINUOUS
  0
ENDTAB
  0
TABLE
  2
STYLE
 70
     5
  0
STYLE
  2
STANDARD
 70
     0
 40
0.0
 41
1.0
 50
0.0
 71
     0
 42
0.0
  3
txt
  4
BIGFONT
  0
STYLE
  2
00
 70
     0
 40
0.0
 41
0.6666666666666666
 50
0.0
 71
     0
 42
0.2
  3
ROMANS
  4
BIGFONT
  0
STYLE
  2
01
 70
     0
 40
3.0
 41
1.0
 50
0.0
 71
     0
 42
0.2
  3
ROMANS
  4
BIGFONT
  0
STYLE
  2
WAKUMOJI
 70
     0
 40
3.0
 41
1.0
 50
0.0
 71
     0
 42
3.0
  3
SIMPLEX
  4
BIGFONT
  0
STYLE
  2
FILENAME
 70
     0
 40
200.0
 41
1.0
 50
0.0
 71
     0
 42
200.0
  3
romans
  4
bigfont
  0
ENDTAB
  0
TABLE
  2
VIEW
 70
     0
  0
ENDTAB
  0
TABLE
  2
UCS
 70
     0
  0
ENDTAB
  0
TABLE
  2
APPID
 70
    17
  0
APPID
  2
ACAD
 70
     0
  0
APPID
  2
ACADANNOTATIVE
 70
     0
  0
APPID
  2
ACAD_PSEXT
 70
     0
  0
APPID
  2
DCO15
 70
     0
  0
APPID
  2
ACAD_MLEADERVER
 70
     0
  0
APPID
  2
AUTOCAD_POSTSCRIPT_FIGURE
 70
     0
  0
APPID
  2
ACAD_EXEMPT_FROM_CAD_STANDARDS
 70
     0
  0
APPID
  2
ACLAYERTOOLS
 70
     0
  0
APPID
  2
ACAD_DSTYLE_DIMJAG
 70
     0
  0
APPID
  2
ACAD_DSTYLE_DIMTALN
 70
     0
  0
APPID
  2
ACAECLAYERSTANDARD
 70
     0
  0
APPID
  2
ACAD_DSTYLE_DIMBREAK
 70
     0
  0
APPID
  2
ACAD_DSTYLE_DIM_LINETYPE
 70
     0
  0
APPID
  2
ACAD_DSTYLE_DIM_EXT1_LINETYPE
 70
     0
  0
APPID
  2
ACAD_DSTYLE_DIM_EXT2_LINETYPE
 70
     0
  0
APPID
  2
ACAD_DSTYLE_DIMFLIPARROW_W
 70
     0
  0
APPID
  2
ACAD_NAV_VCDISPLAY
 70
     0
  0
ENDTAB
  0
TABLE
  2
DIMSTYLE
 70
     2
  0
DIMSTYLE
  2
SUNPOU
 70
     0
  3

  4

  5

  6

  7

 40
80.0
 41
3.0
 42
1.0
 43
0.38
 44
1.0
 45
0.5
 46
0.0
 47
0.0
 48
0.0
140
2.0
141
0.09
142
0.0
143
25.399999999999999
144
1.0
145
0.0
146
1.0
147
1.0
 71
     0
 72
     0
 73
     0
 74
     0
 75
     0
 76
     0
 77
     1
 78
     8
170
     0
171
     2
172
     1
173
     0
174
     0
175
     0
176
     4
177
     4
178
     7
  0
ENDTAB
  0
ENDSEC
  0
SECTION
  2
BLOCKS
  0
BLOCK
  8
0
  2
$MODEL_SPACE
 70
     0
 10
0.0
 20
0.0
 30
0.0
  3
$MODEL_SPACE
  1

  0
ENDBLK
  5
11C71
  8
0
  0
BLOCK
 67
     1
  8
0
  2
$PAPER_SPACE
 70
     0
 10
0.0
 20
0.0
 30
0.0
  3
$PAPER_SPACE
  1

  0
ENDBLK
  5
11C6D
 67
     1
  8
0
  0
BLOCK
  8
0
  2
_DOTSMALL
 70
     0
 10
0.0
 20
0.0
 30
0.0
  3
_DOTSMALL
  1

  0
POLYLINE
  5
11CAD
  8
0
  6
BYBLOCK
 62
     0
 66
     1
 10
0.0
 20
0.0
 30
0.0
 70
     1
 40
0.5
 41
0.5
  0
VERTEX
  5
1012D68
  8
0
  6
BYBLOCK
 62
     0
 10
-0.0625
 20
0.0
 30
0.0
 42
1.0
  0
VERTEX
  5
1012D69
  8
0
  6
BYBLOCK
 62
     0
 10
0.0625
 20
0.0
 30
0.0
 42
1.0
  0
SEQEND
  5
1012D6A
  8
0
  6
BYBLOCK
 62
     0
  0
ENDBLK
  5
11CB1
  8
0
  0
ENDSEC
  0
SECTION
  2
ENTITIES
  0
LINE
  5
11CB2
  8
0-1
  6
CONTINUOUS
 62
     3
 10
8072.1053530427062
 20
16705.485856999989
 30
0.0
 11
10639.605353042711
 21
16705.485856999989
 31
0.0
  0
LINE
  5
11CB3
  8
0-1
  6
CONTINUOUS
 62
     3
 10
10586.60572204271
 20
13795.986899
 30
0.0
 11
10586.60572204271
 21
17791.443824900962
 31
0.0
  0
LINE
  5
11CB4
  8
0-1
  6
CONTINUOUS
 62
     3
 10
8122.1059730427187
 20
13671.986885
 30
0.0
 11
8122.1059730427187
 21
18794.39813538715
 31
0.0
  0
LINE
  5
11CB5
  8
0-1
  6
CONTINUOUS
 62
     3
 10
7986.6053530427089
 20
13639.986252000001
 30
0.0
 11
7986.6053530427089
 21
18850.306474933681
 31
0.0
  0
LINE
  5
11CB6
  8
0-1
  6
CONTINUOUS
 62
     3
 10
8029.6060790427182
 20
13795.986899
 30
0.0
 11
13482.10660704272
 21
13795.986899
 31
0.0
  0
LINE
  5
11CB7
  8
0-1
  6
CONTINUOUS
 62
     3
 10
8072.1053530427062
 20
13874.986516000001
 30
0.0
 11
13439.605353042711
 21
13874.986516000001
 31
0.0
  0
LINE
  5
11CB8
  8
0-1
  6
CONTINUOUS
 62
     3
 10
7986.6053530427089
 20
13639.986252000001
 30
0.0
 11
13525.105353042711
 21
13639.986252000001
 31
0.0
  0
LINE
  5
11CB9
  8
0-1
  6
CONTINUOUS
 62
     3
 10
7986.6053530427089
 20
13671.986885
 30
0.0
 11
13525.105353042711
 21
13671.986885
 31
0.0
  0
LINE
  5
11CBA
  8
0-1
  6
CONTINUOUS
 62
     3
 10
10639.605353042711
 20
13795.986899
 30
0.0
 11
10639.605353042711
 21
17769.83857947612
 31
0.0
  0
LINE
  5
11CBB
  8
0-1
  6
CONTINUOUS
 62
     3
 10
10682.10660704272
 20
13795.986899
 30
0.0
 11
10682.10660704272
 21
17752.512986708611
 31
0.0
  0
LINE
  5
11CBC
  8
0-1
  6
CONTINUOUS
 62
     3
 10
8072.1053530427062
 20
13795.986899
 30
0.0
 11
8072.1053530427062
 21
18816.266593620061
 31
0.0
  0
LINE
  5
11CBD
  8
0-1
  6
CONTINUOUS
 62
     3
 10
8029.6060790427182
 20
13795.986899
 30
0.0
 11
8029.6060790427182
 21
18833.80211675918
 31
0.0
  0
LINE
  5
11CBE
  8
0-1
  6
CONTINUOUS
 62
     3
 10
9092.1068040427199
 20
18400.67478182153
 30
0.0
 11
9092.1068040427199
 21
19860.988495000001
 31
0.0
  0
LINE
  5
11CBF
  8
0-1
  6
CONTINUOUS
 62
     3
 10
9129.1069760427199
 20
18385.591699510602
 30
0.0
 11
9129.1069760427199
 21
19860.988495000001
 31
0.0
  0
LINE
  5
11CC0
  8
0-1
  6
CONTINUOUS
 62
     3
 10
9292.1064750427195
 20
18319.145120287751
 30
0.0
 11
9292.1064750427195
 21
19860.988495000001
 31
0.0
  0
LINE
  5
11CC1
  8
0-1
  6
CONTINUOUS
 62
     3
 10
9329.1076360427123
 20
18304.061634811991
 30
0.0
 11
9329.1076360427123
 21
19860.988495000001
 31
0.0
  0
LINE
  5
11CC2
  8
0-1
  6
CONTINUOUS
 62
     3
 10
9492.1061450427187
 20
18237.615459161621
 30
0.0
 11
9492.1061450427187
 21
19860.988495000001
 31
0.0
  0
LINE
  5
11CC3
  8
0-1
  6
CONTINUOUS
 62
     3
 10
9529.1053260427216
 20
18222.532780830828
 30
0.0
 11
9529.1053260427216
 21
19860.988495000001
 31
0.0
  0
LINE
  5
11CC4
  8
0-1
  6
CONTINUOUS
 62
     3
 10
9692.1068040427217
 20
18156.085394870672
 30
0.0
 11
9692.1068040427217
 21
19860.988495000001
 31
0.0
  0
LINE
  5
11CC5
  8
0-1
  6
CONTINUOUS
 62
     3
 10
9729.1069760427217
 20
18141.002312559751
 30
0.0
 11
9729.1069760427217
 21
19860.988495000001
 31
0.0
  0
LINE
  5
11CC6
  8
0-1
  6
CONTINUOUS
 62
     3
 10
9892.1064750427249
 20
18074.5557333369
 30
0.0
 11
9892.1064750427249
 21
19860.988495000001
 31
0.0
  0
LINE
  5
11CC7
  8
0-1
  6
CONTINUOUS
 62
     3
 10
9929.1076360427123
 20
18059.472247861129
 30
0.0
 11
9929.1076360427123
 21
19860.988495000001
 31
0.0
  0
LINE
  5
11CC8
  8
0-1
  6
CONTINUOUS
 62
     3
 10
10092.106145042721
 20
17993.026072210771
 30
0.0
 11
10092.106145042721
 21
19860.988495000001
 31
0.0
  0
LINE
  5
11CC9
  8
0-1
  6
CONTINUOUS
 62
     3
 10
10129.1063160427
 20
17977.9429903075
 30
0.0
 11
10129.1063160427
 21
19860.988495000001
 31
0.0
  0
LINE
  5
11CCA
  8
0-1
  6
CONTINUOUS
 62
     3
 10
10292.106804042711
 20
17911.496007919821
 30
0.0
 11
10292.106804042711
 21
19860.988495000001
 31
0.0
  0
LINE
  5
11CCB
  8
0-1
  6
CONTINUOUS
 62
     3
 10
10329.10697604272
 20
17896.412925608882
 30
0.0
 11
10329.10697604272
 21
19860.988495000001
 31
0.0
  0
LINE
  5
11CCC
  8
0-1
  6
CONTINUOUS
 62
     3
 10
8072.1053530427062
 20
15336.487638000021
 30
0.0
 11
10639.605353042711
 21
15336.487638000021
 31
0.0
  0
LINE
  5
11CCD
  8
0-1
  6
CONTINUOUS
 62
     3
 10
8072.1053530427062
 20
15246.485856000019
 30
0.0
 11
10639.605353042711
 21
15246.485856000019
 31
0.0
  0
LINE
  5
11CCE
  8
0-1
  6
CONTINUOUS
 62
     3
 10
8072.1053530427062
 20
16795.488627999988
 30
0.0
 11
10639.605353042711
 21
16795.488627999988
 31
0.0
  0
LINE
  5
11CCF
  8
0-1
  6
CONTINUOUS
 62
     3
 10
8086.247034042719
 20
18254.488626999999
 30
0.0
 11
9449.1510803371493
 21
18254.488626999999
 31
0.0
  0
LINE
  5
11CD0
  8
0-1
  6
CONTINUOUS
 62
     3
 10
8086.247034042719
 20
18164.485855999999
 30
0.0
 11
9671.4997092687627
 21
18164.485855999999
 31
0.0
  0
LINE
  5
11CD1
  8
0-1
  6
CONTINUOUS
 62
     3
 10
8142.1060790427173
 20
16750.486251999992
 30
0.0
 11
10569.60660704272
 21
15291.48625200001
 31
0.0
  0
LINE
  5
11CD2
  8
0-1
  6
CONTINUOUS
 62
     3
 10
10569.60660704272
 20
15291.48625200001
 30
0.0
 11
8142.1060790427173
 21
13832.48625200001
 31
0.0
  0
LINE
  5
11CD3
  8
0-1
  6
CONTINUOUS
 62
     3
 10
8142.1060790427173
 20
15291.48625200001
 30
0.0
 11
10569.60660704272
 21
13832.48625200001
 31
0.0
  0
LINE
  5
11CD4
  8
0-1
  6
CONTINUOUS
 62
     3
 10
8142.1060790427173
 20
18209.48625200001
 30
0.0
 11
10569.606252686541
 21
16750.488153658851
 31
0.0
  0
LINE
  5
11CD5
  8
0-1
  6
CONTINUOUS
 62
     3
 10
10569.606252686541
 20
16750.488153658851
 30
0.0
 11
8142.1060790427173
 21
15291.48625200001
 31
0.0
  0
LINE
  5
11CD6
  8
0-1
  6
CONTINUOUS
 62
     3
 10
8715.5843797974776
 20
18554.163763353848
 30
0.0
 11
8142.1060790427264
 21
18209.486251999992
 31
0.0
  0
LINE
  5
11CD7
  8
0-1
  6
CONTINUOUS
 62
     3
 10
10104.18882626415
 20
17988.100579556321
 30
0.0
 11
8142.1060790427173
 21
16750.486251999992
 31
0.0
  0
LINE
  5
11CD8
  8
0-1
  6
CONTINUOUS
 62
     3
 10
8004.6041260426982
 20
18842.880044533551
 30
0.0
 11
8004.6041260426982
 21
19873.487175999991
 31
0.0
  0
LINE
  5
11CD9
  8
0-1
  6
CONTINUOUS
 62
     3
 10
8060.1048780427072
 20
19855.988230999988
 30
0.0
 11
8060.1048780427072
 21
19885.987834999982
 31
0.0
  0
LINE
  5
11CDA
  8
0-1
  6
CONTINUOUS
 62
     3
 10
7986.6053530427089
 20
19885.987834999982
 30
0.0
 11
7986.6053530427089
 21
19850.985987999979
 31
0.0
  0
LINE
  5
11CDB
  8
0-1
  6
CONTINUOUS
 62
     3
 10
8055.1046140426952
 20
19890.986120000001
 30
0.0
 11
7991.6046270427078
 21
19890.986120000001
 31
0.0
  0
LINE
  5
11CDC
  8
0-1
  6
CONTINUOUS
 62
     3
 10
8004.6041260426982
 20
19873.487175999991
 30
0.0
 11
7986.6053530427089
 21
19873.487175999991
 31
0.0
  0
LINE
  5
11CDD
  8
0-1
  6
CONTINUOUS
 62
     3
 10
8004.6041260426982
 20
19850.985987999979
 30
0.0
 11
8055.1046140426952
 21
19850.985987999979
 31
0.0
  0
LINE
  5
11CDE
  8
0-1
  6
CONTINUOUS
 62
     3
 10
8063.1054720427192
 20
19860.988495000001
 30
0.0
 11
13448.60483904272
 21
19860.988495000001
 31
0.0
  0
LINE
  5
11CDF
  8
0-6
  6
CONTINUOUS
 62
     6
 10
9471.9173080557266
 20
19588.210188000001
 30
0.0
 11
9615.8184110557195
 21
20100.485842999991
 31
0.0
  0
LINE
  5
11CE0
  8
0-6
  6
CONTINUOUS
 62
     6
 10
9302.5759330557175
 20
19836.664171
 30
0.0
 11
9409.2709950557237
 21
19714.488283999988
 31
0.0
  0
LINE
  5
11CE1
  8
0-6
  6
CONTINUOUS
 62
     6
 10
9409.2709950557237
 20
19714.488283999988
 30
0.0
 11
9347.9653050557172
 21
19864.664461
 31
0.0
  0
LINE
  5
11CE2
  8
0-6
  6
CONTINUOUS
 62
     6
 10
9409.2709950557237
 20
19714.488283999988
 30
0.0
 11
9302.5759330557175
 21
19836.664171
 31
0.0
  0
LINE
  5
11CE3
  8
0-6
  6
CONTINUOUS
 62
     6
 10
9302.5759330557175
 20
19836.664171
 30
0.0
 11
9347.9653050557172
 21
19864.664461
 31
0.0
  0
LINE
  5
11CE4
  8
0-6
  6
CONTINUOUS
 62
     6
 10
9347.9653050557172
 20
19864.664461
 30
0.0
 11
9409.2709950557237
 21
19714.488283999988
 31
0.0
  0
LINE
  5
11CE5
  8
0-6
  6
CONTINUOUS
 62
     6
 10
9347.9653050557172
 20
19864.664461
 30
0.0
 11
9302.5759330557175
 21
19836.664171
 31
0.0
  0
LINE
  5
11CE6
  8
0-6
  6
CONTINUOUS
 62
     6
 10
9409.2709950557237
 20
19714.488283999988
 30
0.0
 11
9115.3431680557169
 21
20120.986383999989
 31
0.0
  0
LINE
  5
11CE7
  8
0-6
  6
CONTINUOUS
 62
     6
 10
9446.0291640557261
 20
19594.609971999991
 30
0.0
 11
9433.5275140557296
 21
19432.885282999989
 31
0.0
  0
LINE
  5
11CE8
  8
0-6
  6
CONTINUOUS
 62
     6
 10
9433.5275140557296
 20
19432.885282999989
 30
0.0
 11
9497.8024830557279
 21
19581.814364000002
 31
0.0
  0
LINE
  5
11CE9
  8
0-6
  6
CONTINUOUS
 62
     6
 10
9433.5275140557296
 20
19432.885282999989
 30
0.0
 11
9446.0291640557261
 21
19594.609971999991
 31
0.0
  0
LINE
  5
11CEA
  8
0-6
  6
CONTINUOUS
 62
     6
 10
9446.0291640557261
 20
19594.609971999991
 30
0.0
 11
9497.8024830557279
 21
19581.814364000002
 31
0.0
  0
LINE
  5
11CEB
  8
0-6
  6
CONTINUOUS
 62
     6
 10
9497.8024830557279
 20
19581.814364000002
 30
0.0
 11
9433.5275140557296
 21
19432.885282999989
 31
0.0
  0
LINE
  5
11CEC
  8
0-6
  6
CONTINUOUS
 62
     6
 10
9497.8024830557279
 20
19581.814364000002
 30
0.0
 11
9446.0291640557261
 21
19594.609971999991
 31
0.0
  0
LINE
  5
11CED
  8
0-6
  6
CONTINUOUS
 62
     6
 10
9615.8184110557195
 20
20100.485842999991
 30
0.0
 11
10133.507059055721
 21
20100.485842999991
 31
0.0
  0
LINE
  5
11CEE
  8
0-6
  6
CONTINUOUS
 62
     6
 10
7971.7882210426978
 20
18560.50899831768
 30
0.0
 11
8061.6039280427094
 21
18695.58144931768
 31
0.0
  0
LINE
  5
11CEF
  8
0-6
  6
CONTINUOUS
 62
     6
 10
8061.6039280427094
 20
18695.58144931768
 30
0.0
 11
8020.4497370427007
 21
18538.680847317679
 31
0.0
  0
LINE
  5
11CF0
  8
0-6
  6
CONTINUOUS
 62
     6
 10
8061.6039280427094
 20
18695.58144931768
 30
0.0
 11
7971.7882210426978
 21
18560.50899831768
 31
0.0
  0
LINE
  5
11CF1
  8
0-6
  6
CONTINUOUS
 62
     6
 10
7971.7882210426978
 20
18560.50899831768
 30
0.0
 11
8020.4497370427007
 21
18538.680847317679
 31
0.0
  0
LINE
  5
11CF2
  8
0-6
  6
CONTINUOUS
 62
     6
 10
8020.4497370427007
 20
18538.680847317679
 30
0.0
 11
8061.6039280427094
 21
18695.58144931768
 31
0.0
  0
LINE
  5
11CF3
  8
0-6
  6
CONTINUOUS
 62
     6
 10
8020.4497370427007
 20
18538.680847317679
 30
0.0
 11
7971.7882210426978
 21
18560.50899831768
 31
0.0
  0
LINE
  5
11CF4
  8
0-6
  6
CONTINUOUS
 62
     6
 10
8315.3415190557171
 20
20120.986383999989
 30
0.0
 11
9115.3431680557169
 21
20120.986383999989
 31
0.0
  0
LINE
  5
11CF5
  8
0-6
  6
CONTINUOUS
 62
     6
 10
4833.8118732900166
 20
17087.7698263444
 30
0.0
 11
6828.2560252900312
 21
17087.7698263444
 31
0.0
  0
LINE
  5
11CF6
  8
0-6
  6
CONTINUOUS
 62
     6
 10
9855.2048401731172
 20
15666.6885485284
 30
0.0
 11
9468.4523833307267
 21
15495.11594650115
 31
0.0
  0
LINE
  5
11CF7
  8
0-6
  6
CONTINUOUS
 62
     6
 10
8588.4514593307158
 20
15495.11594650115
 30
0.0
 11
9468.4523833307267
 21
15495.11594650115
 31
0.0
  0
LINE
  5
11CF8
  8
0-6
  6
CONTINUOUS
 62
     6
 10
7897.0782210427087
 20
18328.80238931768
 30
0.0
 11
7377.0774950426976
 21
18328.80238931768
 31
0.0
  0
LINE
  5
11CF9
  8
0-6
  6
CONTINUOUS
 62
     6
 10
8971.0775089452254
 20
14134.88115581778
 30
0.0
 11
9771.078168945216
 21
14134.88115581778
 31
0.0
  0
LINE
  5
11CFA
  8
0-6
  6
CONTINUOUS
 62
     6
 10
9139.0312920427205
 20
13485.93862399998
 30
0.0
 11
9032.7608370427206
 21
13608.48567099998
 31
0.0
  0
LINE
  5
11CFB
  8
0-6
  6
CONTINUOUS
 62
     6
 10
9032.7608370427206
 20
13608.48567099998
 30
0.0
 11
9093.5429450427182
 21
13458.09669499998
 31
0.0
  0
LINE
  5
11CFC
  8
0-6
  6
CONTINUOUS
 62
     6
 10
9032.7608370427206
 20
13608.48567099998
 30
0.0
 11
9139.0312920427205
 21
13485.93862399998
 31
0.0
  0
LINE
  5
11CFD
  8
0-6
  6
CONTINUOUS
 62
     6
 10
9139.0312920427205
 20
13485.93862399998
 30
0.0
 11
9093.5429450427182
 21
13458.09669499998
 31
0.0
  0
LINE
  5
11CFE
  8
0-6
  6
CONTINUOUS
 62
     6
 10
9093.5429450427182
 20
13458.09669499998
 30
0.0
 11
9032.7608370427206
 21
13608.48567099998
 31
0.0
  0
LINE
  5
11CFF
  8
0-6
  6
CONTINUOUS
 62
     6
 10
9093.5429450427182
 20
13458.09669499998
 30
0.0
 11
9139.0312920427205
 21
13485.93862399998
 31
0.0
  0
LINE
  5
11D00
  8
0-6
  6
CONTINUOUS
 62
     6
 10
9522.3997070427213
 20
12808.48600099999
 30
0.0
 11
10384.97987804271
 21
12808.48600099999
 31
0.0
  0
LINE
  5
11D01
  8
0-6
  6
CONTINUOUS
 62
     6
 10
9116.2876140427088
 20
13472.01765999999
 30
0.0
 11
9522.3997070427213
 21
12808.48600099999
 31
0.0
  0
LINE
  5
11D02
  8
0-6
  6
CONTINUOUS
 62
     6
 10
7930.6569520427211
 20
14180.77537999999
 30
0.0
 11
7953.1076620427202
 21
14341.42123099998
 31
0.0
  0
LINE
  5
11D03
  8
0-6
  6
CONTINUOUS
 62
     6
 10
7953.1076620427202
 20
14341.42123099998
 30
0.0
 11
7879.7704580427098
 21
14196.74019699999
 31
0.0
  0
LINE
  5
11D04
  8
0-6
  6
CONTINUOUS
 62
     6
 10
7953.1076620427202
 20
14341.42123099998
 30
0.0
 11
7930.6569520427211
 21
14180.77537999999
 31
0.0
  0
LINE
  5
11D05
  8
0-6
  6
CONTINUOUS
 62
     6
 10
7930.6569520427211
 20
14180.77537999999
 30
0.0
 11
7879.7704580427098
 21
14196.74019699999
 31
0.0
  0
LINE
  5
11D06
  8
0-6
  6
CONTINUOUS
 62
     6
 10
7879.7704580427098
 20
14196.74019699999
 30
0.0
 11
7953.1076620427202
 21
14341.42123099998
 31
0.0
  0
LINE
  5
11D07
  8
0-6
  6
CONTINUOUS
 62
     6
 10
7879.7704580427098
 20
14196.74019699999
 30
0.0
 11
7930.6569520427211
 21
14180.77537999999
 31
0.0
  0
LINE
  5
11D08
  8
0-6
  6
CONTINUOUS
 62
     6
 10
6238.473411042718
 20
12318.48487899998
 30
0.0
 11
7318.4730150427195
 21
12318.48487899998
 31
0.0
  0
LINE
  5
11D09
  8
0-6
  6
CONTINUOUS
 62
     6
 10
7905.2132100427098
 20
14188.756798999981
 30
0.0
 11
7318.4730150427195
 21
12318.48487899998
 31
0.0
  0
LINE
  5
11D0A
  8
0-6
  6
CONTINUOUS
 62
     6
 10
7996.1184840427104
 20
18549.59591231768
 30
0.0
 11
7897.0782210427087
 21
18328.80238931768
 31
0.0
  0
LINE
  5
11D0B
  8
0-6
  6
CONTINUOUS
 62
     6
 10
4796.2881813177173
 20
18072.71527313898
 30
0.0
 11
6790.7323333177264
 21
18072.71527313898
 31
0.0
  0
LINE
  5
11D0C
  8
0-6
  6
CONTINUOUS
 62
     6
 10
13522.10673804271
 20
19870.485579
 30
0.0
 11
13613.79408004272
 21
20004.293117000001
 31
0.0
  0
LINE
  5
11D0D
  8
0-6
  6
CONTINUOUS
 62
     6
 10
13652.2353410427
 20
19967.325606999992
 30
0.0
 11
13522.10673804271
 21
19870.485579
 31
0.0
  0
LINE
  5
11D0E
  8
0-6
  6
CONTINUOUS
 62
     6
 10
13652.2353410427
 20
19967.325606999992
 30
0.0
 11
13613.79408004272
 21
20004.293117000001
 31
0.0
  0
LINE
  5
11D0F
  8
0-6
  6
CONTINUOUS
 62
     6
 10
13633.015206042721
 20
19985.808372
 30
0.0
 11
14150.004094042701
 21
20490.486634999979
 31
0.0
  0
LINE
  5
11D10
  8
0-6
  6
CONTINUOUS
 62
     6
 10
14150.004094042701
 20
20490.486634999979
 30
0.0
 11
15825.00343404271
 21
20490.486634999979
 31
0.0
  0
LINE
  5
11D11
  8
2-0
  6
DASHED3
 62
     6
 10
8072.1053530427062
 20
19629.487755999991
 30
0.0
 11
13439.6053530427
 21
19629.487755999991
 31
0.0
  0
LINE
  5
11D12
  8
2-0
  6
DASHED3
 62
     6
 10
8029.6060790427182
 20
18833.80211675918
 30
0.0
 11
8029.6060790427182
 21
19714.488283999988
 31
0.0
  0
LINE
  5
11D13
  8
2-0
  6
DASHED3
 62
     6
 10
8072.1053530427062
 20
18816.266593620068
 30
0.0
 11
8072.1053530427062
 21
19714.488283999988
 31
0.0
  0
LINE
  5
11D14
  8
2-0
  6
DASHED3
 62
     6
 10
8029.6060790427182
 20
19714.488283999988
 30
0.0
 11
13439.6053530427
 21
19714.488283999988
 31
0.0
  0
LINE
  5
11D15
  8
2-0
  6
DASHED3
 62
     6
 10
10639.605353042711
 20
17769.83857947612
 30
0.0
 11
10639.605353042711
 21
19714.488283999988
 31
0.0
  0
LINE
  5
11D16
  8
2-0
  6
DASHED3
 62
     6
 10
10682.10660704272
 20
17752.512986708611
 30
0.0
 11
10682.10660704272
 21
19714.488283999988
 31
0.0
  0
LINE
  5
11D17
  8
2-0
  6
DASHED3
 62
     6
 10
9671.4997092687627
 20
18164.485855999999
 30
0.0
 11
10639.605353042711
 21
18164.485855999999
 31
0.0
  0
LINE
  5
11D18
  8
2-0
  6
DASHED3
 62
     6
 10
9449.1510803371493
 20
18254.488626999999
 30
0.0
 11
10639.605353042711
 21
18254.488626999999
 31
0.0
  0
LINE
  5
11D19
  8
2-0
  6
DASHED3
 62
     6
 10
8142.1060790427173
 20
19668.486251999992
 30
0.0
 11
10586.60572204271
 21
18209.48625200001
 31
0.0
  0
LINE
  5
11D1A
  8
2-0
  6
DASHED3
 62
     6
 10
10586.60572204273
 20
18209.486251999992
 30
0.0
 11
10104.18882626415
 21
17988.100579556321
 31
0.0
  0
LINE
  5
11D1B
  8
2-0
  6
DASHED3
 62
     6
 10
10569.60660704272
 20
19668.486251999992
 30
0.0
 11
8715.5843797974776
 21
18554.163763353848
 31
0.0
  0
LINE
  5
11D1C
  8
2-0
  6
CENTER2
 62
     6
 10
10639.605353042711
 20
20910.988495000009
 30
0.0
 11
10639.605353042711
 21
19960.987834999989
 31
0.0
  0
LINE
  5
11D1D
  8
2-0
  6
CENTER2
 62
     6
 10
6742.6052480427179
 20
19668.486251999992
 30
0.0
 11
8389.1044690427079
 21
19668.486251999992
 31
0.0
  0
LINE
  5
11D1E
  8
0-8
  6
CONTINUOUS
 62
     6
 10
8072.1053530427062
 20
20910.988495000009
 30
0.0
 11
8072.1053530427062
 21
19960.987834999989
 31
0.0
  0
LINE
  5
11D1F
  8
2-0
  6
CENTER2
 62
     6
 10
6742.6052480427179
 20
16750.486251999992
 30
0.0
 11
13611.40480104271
 21
16750.486251999992
 31
0.0
  0
LINE
  5
11D20
  8
2-0
  6
CENTER2
 62
     6
 10
6742.6052480427179
 20
13832.48625200001
 30
0.0
 11
8389.1044690427079
 21
13832.48625200001
 31
0.0
  0
LINE
  5
11D21
  8
2-0
  6
CENTER2
 62
     6
 10
7853.3071850427186
 20
18209.48625200001
 30
0.0
 11
13611.40480104271
 21
18209.48625200001
 31
0.0
  0
LINE
  5
11D22
  8
2-0
  6
CENTER2
 62
     6
 10
7853.3071850427186
 20
15291.48625200001
 30
0.0
 11
13611.40480104271
 21
15291.48625200001
 31
0.0
  0
ARC
  5
11D23
  8
0-1
  6
CONTINUOUS
 62
     3
 10
8055.1046140426952
 20
19855.988230999988
 30
0.0
 40
5.0
 50
269.9999850001808
 51
0.0
  0
ARC
  5
11D24
  8
0-1
  6
CONTINUOUS
 62
     3
 10
8055.1046140426952
 20
19885.987834999982
 30
0.0
 40
5.0
 50
0.0
 51
90.0
  0
ARC
  5
11D25
  8
0-1
  6
CONTINUOUS
 62
     3
 10
7991.6046270427078
 20
19885.987834999982
 30
0.0
 40
5.0
 50
90.0
 51
180.0
  0
CIRCLE
  5
11D26
  8
0-5
  6
CONTINUOUS
 62
     4
 10
10639.605353042711
 20
21110.987175999999
 30
0.0
 40
199.9999949999999
  0
CIRCLE
  5
11D27
  8
0-5
  6
CONTINUOUS
 62
     4
 10
8072.1053530427062
 20
21110.987175999999
 30
0.0
 40
199.9999949999999
  0
CIRCLE
  5
11D28
  8
0-5
  6
CONTINUOUS
 62
     4
 10
6542.6055770427201
 20
19668.486251999992
 30
0.0
 40
199.9999949999999
  0
CIRCLE
  5
11D29
  8
0-5
  6
CONTINUOUS
 62
     4
 10
6542.6055770427201
 20
16750.486251999992
 30
0.0
 40
199.9999949999999
  0
CIRCLE
  5
11D2A
  8
0-5
  6
CONTINUOUS
 62
     4
 10
6542.6055770427201
 20
13832.48625200001
 30
0.0
 40
199.9999949999999
  0
TEXT
  5
11D2B
  8
0-5
  6
CONTINUOUS
 62
     7
 10
10585.88814704271
 20
21021.772252999999
 30
0.0
 40
160.0
  1
2
 72
     4
 11
10639.221480376051
 21
21101.772252999999
 31
0.0
  0
TEXT
  5
11D2C
  8
0-5
  6
CONTINUOUS
 62
     7
 10
8045.4386863760392
 20
21021.772252999999
 30
0.0
 40
160.0
  1
1
 72
     4
 11
8072.1053530427062
 21
21101.772252999999
 31
0.0
  0
TEXT
  5
11D2D
  8
0-5
  6
CONTINUOUS
 62
     7
 10
6489.1457090427211
 20
19588.897728
 30
0.0
 40
160.0
  1
C
 72
     4
 11
6542.4790423760533
 21
19668.897728
 31
0.0
  0
TEXT
  5
11D2E
  8
0-5
  6
CONTINUOUS
 62
     7
 10
6489.1457090427211
 20
16670.898717999989
 30
0.0
 40
160.0
  1
B
 72
     4
 11
6542.4790423760533
 21
16750.898717999989
 31
0.0
  0
TEXT
  5
11D2F
  8
0-5
  6
CONTINUOUS
 62
     7
 10
6489.1457090427211
 20
13752.897728000011
 30
0.0
 40
160.0
  1
A
 72
     4
 11
6542.4790423760533
 21
13832.897728000011
 31
0.0
  0
TEXT
  5
11D30
  8
0-6
  6
CONTINUOUS
 62
     7
 10
9695.8186750557215
 20
20180.486107000001
 30
0.0
 40
160.0
  1
屋根
 72
     4
 11
9866.4853417223876
 21
20260.486107000001
 31
0.0
  0
TEXT
  5
11D31
  8
0-6
  6
CONTINUOUS
 62
     7
 10
8395.3427730557269
 20
20200.986647999991
 30
0.0
 40
160.0
  1
桁（後）
 72
     4
 11
8715.3427730557269
 21
20280.986647999991
 31
0.0
  0
TEXT
  5
11D32
  8
0-6
  6
CONTINUOUS
 62
     7
 10
8668.4527133307311
 20
15585.61664650115
 30
0.0
 40
160.0
  1
ブレース
 72
     4
 11
9031.1193799973971
 21
15670.94997983449
 31
0.0
  0
TEXT
  5
11D33
  8
0-6
  6
CONTINUOUS
 62
     7
 10
9051.0767829452161
 20
14214.881419817801
 30
0.0
 40
160.0
  1
桁（前）
 72
     4
 11
9371.0767829452161
 21
14294.881419817801
 31
0.0
  0
TEXT
  5
11D34
  8
0-6
  6
CONTINUOUS
 62
     7
 10
9602.3989810427283
 20
12888.48527499999
 30
0.0
 40
160.0
  1
鼻隠し前
 72
     4
 11
9965.0656477093944
 21
12968.48527499999
 31
0.0
  0
TEXT
  5
11D35
  8
0-6
  6
CONTINUOUS
 62
     7
 10
6318.4736750427182
 20
12398.48415299999
 30
0.0
 40
160.0
  1
ケラバ 左
 72
     4
 11
6734.4736750427182
 21
12478.48415299999
 31
0.0
  0
TEXT
  5
11D36
  8
0-6
  6
CONTINUOUS
 62
     7
 10
7475.7446237093664
 20
18408.8026533177
 30
0.0
 40
160.0
  1
上枠
 72
     4
 11
7646.4112903760333
 21
18488.8026533177
 31
0.0
  0
TEXT
  5
11D37
  8
0-6
  6
CONTINUOUS
 62
     7
 10
14230.004358042719
 20
20570.484918999991
 30
0.0
 40
160.0
  1
鼻隠しコーナー後
 72
     4
 11
14976.671024709391
 21
20650.484918999991
 31
0.0
  0
TEXT
  5
11D38
  8
2-0
  6
CONTINUOUS
 62
     7
 10
22530.10043679818
 20
3292.802588999999
 30
0.0
 40
160.0
  1
正 面 立 面 図
 72
     4
 11
23175.433770131509
 21
3372.802588999999
 31
0.0
  0
TEXT
  5
11D39
  8
2-0
  6
CONTINUOUS
 62
     7
 10
9107.2321973700091
 20
3264.0669070000022
 30
0.0
 40
160.0
  1
側 面 立 面 図
 50
0.000139
 72
     4
 11
9752.5653366208335
 21
3344.0684725833762
 31
0.0
  0
TEXT
  5
11D3A
  8
0-6
  6
CONTINUOUS
 62
     7
 10
4860.3205490120226
 20
18168.766761028321
 30
0.0
 40
160.0
  1
桁中B +  桁中補強B
 72
     4
 11
5793.6538823453557
 21
18248.766761028321
 31
0.0
  0
TEXT
  5
11D3B
  8
0-6
  6
CONTINUOUS
 62
     7
 10
4897.844240984321
 20
17183.823293233771
 30
0.0
 40
160.0
  1
桁中A +  桁中補強A
 72
     4
 11
5831.1775743176549
 21
17263.823293233771
 31
0.0
  0
LINE
  5
11D3F
  8
0-6
  6
CONTINUOUS
 62
     6
 10
11195.46492191254
 20
20137.510398411781
 30
0.0
 11
12460.13450755026
 21
20137.510398411781
 31
0.0
  0
TEXT
  5
11D40
  8
0-6
  6
CONTINUOUS
 62
     7
 10
11275.46469091252
 20
20217.510662411791
 30
0.0
 40
160.0
  1
桁（後）補強
  0
LINE
  5
11D41
  8
0-6
  6
CONTINUOUS
 62
     6
 10
10222.63415904694
 20
19485.69170574698
 30
0.0
 11
10356.263688552481
 21
19183.18419574801
 31
0.0
  0
LINE
  5
11D42
  8
0-6
  6
CONTINUOUS
 62
     6
 10
10157.98313613865
 20
19632.047230841199
 30
0.0
 11
10198.24103611216
 21
19474.916014316928
 31
0.0
  0
LINE
  5
11D43
  8
0-6
  6
CONTINUOUS
 62
     6
 10
10198.24103611216
 20
19474.916014316928
 30
0.0
 11
10247.02728198172
 21
19496.467397176992
 31
0.0
  0
LINE
  5
11D44
  8
0-6
  6
CONTINUOUS
 62
     6
 10
10247.02728198172
 20
19496.467397176992
 30
0.0
 11
10157.98313613865
 21
19632.047230841199
 31
0.0
  0
LINE
  5
11D45
  8
0-6
  6
CONTINUOUS
 62
     6
 10
10356.263688552481
 20
19183.18419574801
 30
0.0
 11
11195.46492191254
 21
20137.510398411781
 31
0.0
  0
TEXT
  5
11D46
  8
2-0
  6
CONTINUOUS
 62
     7
 10
11104.05752175845
 20
3291.2638415833758
 30
0.0
 40
160.0
  1
1
 72
     4
 11
11130.72418842512
 21
3371.2638415833749
 31
0.0
  0
TEXT
  5
11D47
  8
2-0
  6
CONTINUOUS
 62
     7
 10
11347.14623900914
 20
3211.2653095833762
 30
0.0
 40
160.0
  1
80
 72
     4
 11
11467.14623900914
 21
3291.2653095833762
 31
0.0
  0
TEXT
  5
11D48
  8
2-0
  6
CONTINUOUS
 62
     7
 10
10605.05948775845
 20
3264.0684725833762
 30
0.0
 40
160.0
  1
(S=  /   )
 72
     4
 11
11165.05948775845
 21
3344.0684725833762
 31
0.0
  0
TEXT
  5
11D49
  8
2-0
  6
CONTINUOUS
 62
     7
 10
24526.925955269129
 20
3319.9979579999999
 30
0.0
 40
160.0
  1
1
 72
     4
 11
24553.592621935801
 21
3399.9979579999999
 31
0.0
  0
TEXT
  5
11D4A
  8
2-0
  6
CONTINUOUS
 62
     7
 10
24770.014672519821
 20
3239.9994260000021
 30
0.0
 40
160.0
  1
80
 72
     4
 11
24890.014672519821
 21
3319.9994260000012
 31
0.0
  0
TEXT
  5
11D4B
  8
2-0
  6
CONTINUOUS
 62
     7
 10
24027.927921269122
 20
3292.802588999999
 30
0.0
 40
160.0
  1
(S=  /   )
 72
     4
 11
24587.927921269122
 21
3372.802588999999
 31
0.0
  0
LINE
  5
11D4C
  8
2-0
  6
CENTER2
 62
     6
 10
13439.605353042711
 20
20910.988495000009
 30
0.0
 11
13439.605353042711
 21
19960.987834999989
 31
0.0
  0
CIRCLE
  5
11D4D
  8
0-5
  6
CONTINUOUS
 62
     4
 10
13439.605353042711
 20
21110.987175999999
 30
0.0
 40
199.9999949999999
  0
TEXT
  5
11D4E
  8
0-5
  6
CONTINUOUS
 62
     7
 10
13385.88814704271
 20
21021.772252999999
 30
0.0
 40
160.0
  1
3
 72
     4
 11
13439.221480376051
 21
21101.772252999999
 31
0.0
  0
LINE
  5
11D4F
  8
0-1
  6
CONTINUOUS
 62
     3
 10
13507.1055910427
 20
15682.35900486874
 30
0.0
 11
13507.1055910427
 21
19873.487175999991
 31
0.0
  0
LINE
  5
11D50
  8
0-1
  6
CONTINUOUS
 62
     3
 10
13507.1055910427
 20
19873.487175999991
 30
0.0
 11
13525.105353042711
 21
19873.487175999991
 31
0.0
  0
LINE
  5
11D51
  8
0-1
  6
CONTINUOUS
 62
     3
 10
13451.60483904272
 20
19855.988230999988
 30
0.0
 11
13451.60483904272
 21
19885.987834999982
 31
0.0
  0
LINE
  5
11D52
  8
0-1
  6
CONTINUOUS
 62
     3
 10
13507.1055910427
 20
19850.985987999979
 30
0.0
 11
13456.606093042719
 21
19850.985987999979
 31
0.0
  0
LINE
  5
11D53
  8
0-1
  6
CONTINUOUS
 62
     3
 10
13525.105353042711
 20
19885.987834999982
 30
0.0
 11
13525.105353042711
 21
19850.985987999979
 31
0.0
  0
LINE
  5
11D54
  8
0-1
  6
CONTINUOUS
 62
     3
 10
13456.606093042719
 20
19890.986120000001
 30
0.0
 11
13520.104100042699
 21
19890.986120000001
 31
0.0
  0
ARC
  5
11D55
  8
0-1
  6
CONTINUOUS
 62
     3
 10
13520.104100042699
 20
19885.987834999982
 30
0.0
 40
5.0
 50
0.0
 51
90.0
  0
ARC
  5
11D56
  8
0-1
  6
CONTINUOUS
 62
     3
 10
13456.606093042719
 20
19885.987834999982
 30
0.0
 40
5.0
 50
90.0
 51
180.0
  0
ARC
  5
11D57
  8
0-1
  6
CONTINUOUS
 62
     3
 10
13456.606093042719
 20
19855.988230999988
 30
0.0
 40
5.0
 50
180.0
 51
269.9999850001808
  0
LINE
  5
11D58
  8
0-1
  6
CONTINUOUS
 62
     3
 10
10639.605353042711
 20
13795.986899
 30
0.0
 11
10639.605353042711
 21
13639.986978000001
 31
0.0
  0
LINE
  5
11D59
  8
0-1
  6
CONTINUOUS
 62
     3
 10
7681.0275983031879
 20
18975.899778273069
 30
0.0
 11
11048.40380638735
 21
17603.19230765941
 31
0.0
  0
LINE
  5
11D5A
  8
0-1
  6
CONTINUOUS
 62
     3
 10
13389.60572204271
 20
13671.986885
 30
0.0
 11
13389.60572204271
 21
15731.196070789911
 31
0.0
  0
LINE
  5
11D5B
  8
0-1
  6
CONTINUOUS
 62
     3
 10
13525.105353042711
 20
13639.986252000001
 30
0.0
 11
13525.105353042711
 21
15675.28732276186
 31
0.0
  0
LINE
  5
11D5C
  8
0-1
  6
CONTINUOUS
 62
     3
 10
13439.605353042711
 20
13795.986899
 30
0.0
 11
13439.605353042711
 21
15708.88336091356
 31
0.0
  0
LINE
  5
11D5D
  8
0-1
  6
CONTINUOUS
 62
     3
 10
13482.10660704272
 20
13795.986899
 30
0.0
 11
13482.10660704272
 21
15691.405620855499
 31
0.0
  0
LINE
  5
11D5E
  8
0-1
  6
CONTINUOUS
 62
     3
 10
13389.60572204271
 20
15731.19607078992
 30
0.0
 11
13389.60572204271
 21
19860.988495000001
 31
0.0
  0
LINE
  5
11D5F
  8
0-1
  6
CONTINUOUS
 62
     3
 10
13525.105353042711
 20
15675.28732276186
 30
0.0
 11
13525.105353042711
 21
19873.487175999991
 31
0.0
  0
LINE
  5
11D60
  8
2-0
  6
DASHED3
 62
     6
 10
13439.605353042711
 20
15708.88336091356
 30
0.0
 11
13439.6053530427
 21
19860.988495000001
 31
0.0
  0
LINE
  5
11D61
  8
2-0
  6
DASHED3
 62
     6
 10
13482.10660704272
 20
15691.405620855499
 30
0.0
 11
13482.10660704272
 21
19850.985987999979
 31
0.0
  0
LINE
  5
11D62
  8
0-1
  6
CONTINUOUS
 62
     3
 10
7986.6053530427089
 20
18850.306474933681
 30
0.0
 11
7986.6053530427089
 21
19880.987571999991
 31
0.0
  0
LINE
  5
11D63
  8
0-1
  6
CONTINUOUS
 62
     3
 10
8122.1059730427187
 20
18794.39813538716
 30
0.0
 11
8122.1059730427187
 21
19860.988495000001
 31
0.0
  0
LINE
  5
11D64
  8
0-1
  6
CONTINUOUS
 62
     3
 10
10492.10746404271
 20
17829.965943221199
 30
0.0
 11
10492.10746404271
 21
19860.988495000001
 31
0.0
  0
LINE
  5
11D65
  8
0-1
  6
CONTINUOUS
 62
     3
 10
10529.107636042731
 20
17814.882860910271
 30
0.0
 11
10529.107636042731
 21
19860.988495000001
 31
0.0
  0
LINE
  5
11D66
  8
0-1
  6
CONTINUOUS
 62
     3
 10
10692.10812404273
 20
17748.435878522589
 30
0.0
 11
10692.10812404273
 21
19860.988495000001
 31
0.0
  0
LINE
  5
11D67
  8
0-1
  6
CONTINUOUS
 62
     3
 10
10729.10829604273
 20
17733.35279621166
 30
0.0
 11
10729.10829604273
 21
19860.988495000001
 31
0.0
  0
LINE
  5
11D68
  8
0-1
  6
CONTINUOUS
 62
     3
 10
10892.108784042741
 20
17666.905813823982
 30
0.0
 11
10892.108784042741
 21
19860.988495000001
 31
0.0
  0
LINE
  5
11D69
  8
0-1
  6
CONTINUOUS
 62
     3
 10
10929.10895604275
 20
17651.82273151305
 30
0.0
 11
10929.10895604275
 21
19860.988495000001
 31
0.0
  0
LINE
  5
11D6A
  8
0-1
  6
CONTINUOUS
 62
     3
 10
11092.10944404275
 20
17709.117740013218
 30
0.0
 11
11092.10944404275
 21
19860.988495000001
 31
0.0
  0
LINE
  5
11D6B
  8
0-1
  6
CONTINUOUS
 62
     3
 10
11129.10961604275
 20
17798.791736927971
 30
0.0
 11
11129.10961604275
 21
19860.988495000001
 31
0.0
  0
LINE
  5
11D6C
  8
0-1
  6
CONTINUOUS
 62
     3
 10
11292.110104042749
 20
17663.714145947641
 30
0.0
 11
11292.110104042749
 21
19860.988495000001
 31
0.0
  0
LINE
  5
11D6D
  8
0-1
  6
CONTINUOUS
 62
     3
 10
11329.110276042769
 20
17621.17090555876
 30
0.0
 11
11329.110276042769
 21
19860.988495000001
 31
0.0
  0
LINE
  5
11D6E
  8
0-1
  6
CONTINUOUS
 62
     3
 10
11492.110764042771
 20
17431.377017966901
 30
0.0
 11
11492.110764042771
 21
19860.988495000001
 31
0.0
  0
LINE
  5
11D6F
  8
0-1
  6
CONTINUOUS
 62
     3
 10
11529.11093604278
 20
17388.581626968818
 30
0.0
 11
11529.110936042771
 21
19860.988495000001
 31
0.0
  0
LINE
  5
11D70
  8
0-1
  6
CONTINUOUS
 62
     3
 10
11692.11142404278
 20
17198.787791101659
 30
0.0
 11
11692.11142404278
 21
19860.988495000001
 31
0.0
  0
LINE
  5
11D71
  8
0-1
  6
CONTINUOUS
 62
     3
 10
11729.111596042791
 20
17156.244550712781
 30
0.0
 11
11729.111596042791
 21
19860.988495000001
 31
0.0
  0
LINE
  5
11D72
  8
0-1
  6
CONTINUOUS
 62
     3
 10
11892.11208404279
 20
17021.195778491841
 30
0.0
 11
11892.112084042779
 21
19860.988495000001
 31
0.0
  0
LINE
  5
11D73
  8
0-1
  6
CONTINUOUS
 62
     3
 10
11929.11225604279
 20
17110.874058523728
 30
0.0
 11
11929.11225604279
 21
19860.988495000001
 31
0.0
  0
LINE
  5
11D74
  8
0-1
  6
CONTINUOUS
 62
     3
 10
12092.112744042801
 20
17167.714521001009
 30
0.0
 11
12092.112744042801
 21
19860.988495000001
 31
0.0
  0
LINE
  5
11D75
  8
0-1
  6
CONTINUOUS
 62
     3
 10
12129.11291604281
 20
17152.49898434131
 30
0.0
 11
12129.11291604281
 21
19860.988495000001
 31
0.0
  0
LINE
  5
11D76
  8
0-1
  6
CONTINUOUS
 62
     3
 10
12292.11340404281
 20
17085.468487815251
 30
0.0
 11
12292.113404042801
 21
19860.988495000001
 31
0.0
  0
LINE
  5
11D77
  8
0-1
  6
CONTINUOUS
 62
     3
 10
12329.113576042801
 20
17070.252951155551
 30
0.0
 11
12329.113576042801
 21
19860.988495000001
 31
0.0
  0
LINE
  5
11D78
  8
0-1
  6
CONTINUOUS
 62
     3
 10
12492.1140640428
 20
17003.22245462946
 30
0.0
 11
12492.1140640428
 21
19860.988495000001
 31
0.0
  0
LINE
  5
11D79
  8
0-1
  6
CONTINUOUS
 62
     3
 10
12529.114236042809
 20
16988.006917969789
 30
0.0
 11
12529.114236042809
 21
19860.988495000001
 31
0.0
  0
LINE
  5
11D7A
  8
2-0
  6
DASHED3
 62
     6
 10
12997.267939809461
 20
16795.488627999988
 30
0.0
 11
13439.605353042711
 21
16795.488627999988
 31
0.0
  0
LINE
  5
11D7B
  8
2-0
  6
DASHED3
 62
     6
 10
13216.130940304231
 20
16705.485856999989
 30
0.0
 11
13439.605353042711
 21
16705.485856999989
 31
0.0
  0
LINE
  5
11D7C
  8
0-1
  6
CONTINUOUS
 62
     3
 10
10639.605353042711
 20
16705.485856999989
 30
0.0
 11
13216.130940304231
 21
16705.485856999989
 31
0.0
  0
LINE
  5
11D7D
  8
0-1
  6
CONTINUOUS
 62
     3
 10
10639.605353042711
 20
16795.488627999999
 30
0.0
 11
12997.267939809461
 21
16795.488627999988
 31
0.0
  0
LINE
  5
11D7E
  8
0-1
  6
CONTINUOUS
 62
     3
 10
10639.605353042711
 20
15336.487638000021
 30
0.0
 11
13439.605353042711
 21
15336.487638000021
 31
0.0
  0
LINE
  5
11D7F
  8
0-1
  6
CONTINUOUS
 62
     3
 10
10639.605353042711
 20
15246.485856000019
 30
0.0
 11
13439.605353042711
 21
15246.485856000019
 31
0.0
  0
LINE
  5
11D80
  8
2-0
  6
DASHED3
 62
     6
 10
13439.605353042711
 20
18164.485855999999
 30
0.0
 11
10639.605353042711
 21
18164.485855999999
 31
0.0
  0
LINE
  5
11D81
  8
2-0
  6
DASHED3
 62
     6
 10
13439.605353042711
 20
18254.488626999999
 30
0.0
 11
10639.605353042711
 21
18254.488626999999
 31
0.0
  0
LINE
  5
11D82
  8
0-1
  6
CONTINUOUS
 62
     3
 10
13260.10572204271
 20
15291.48625200001
 30
0.0
 11
10808.60660704272
 21
13832.48625200001
 31
0.0
  0
LINE
  5
11D83
  8
0-1
  6
CONTINUOUS
 62
     3
 10
10808.60660704272
 20
16750.486251999992
 30
0.0
 11
13260.10572204271
 21
15291.48625200001
 31
0.0
  0
LINE
  5
11D84
  8
0-1
  6
CONTINUOUS
 62
     3
 10
10808.60660704272
 20
15291.48625200001
 30
0.0
 11
13197.421234310539
 21
16713.179827110162
 31
0.0
  0
LINE
  5
11D85
  8
0-1
  6
CONTINUOUS
 62
     3
 10
13260.10572204271
 20
13832.48625200001
 30
0.0
 11
10808.60660704272
 21
15291.48625200001
 31
0.0
  0
LINE
  5
11D86
  8
0-6
  6
CONTINUOUS
 62
     6
 10
13386.60572204271
 20
14298.52086206411
 30
0.0
 11
12487.16831261994
 21
12808.48600099999
 31
0.0
  0
LINE
  5
11D87
  8
2-0
  6
DASHED3
 62
     6
 10
10808.60660704272
 20
18209.48625200001
 30
0.0
 11
13260.10572204271
 21
16750.486251999992
 31
0.0
  0
LINE
  5
11D88
  8
2-0
  6
DASHED3
 62
     6
 10
13260.10572204271
 20
18209.48625200001
 30
0.0
 11
11648.58423029557
 21
17250.395611472039
 31
0.0
  0
LINE
  5
11D89
  8
0-1
  6
CONTINUOUS
 62
     3
 10
11648.58423029557
 20
17250.395611472039
 30
0.0
 11
10808.60660704272
 21
16750.486251999992
 31
0.0
  0
LINE
  5
11D8A
  8
2-0
  6
DASHED3
 62
     6
 10
13260.10572204271
 20
19668.486251999992
 30
0.0
 11
10808.60660704272
 21
18209.48625200001
 31
0.0
  0
LINE
  5
11D8B
  8
2-0
  6
DASHED3
 62
     6
 10
10808.60660704272
 20
19668.486251999992
 30
0.0
 11
13260.10572204271
 21
18209.48625200001
 31
0.0
  0
LINE
  5
11D8C
  8
0-6
  6
CONTINUOUS
 62
     6
 10
6790.7323333177264
 20
18072.71527313898
 30
0.0
 11
8367.7573980551242
 21
17534.4990079292
 31
0.0
  0
LINE
  5
11D8D
  8
0-6
  6
CONTINUOUS
 62
     6
 10
8367.7573980551242
 20
17534.4990079292
 30
0.0
 11
8828.9800376937255
 21
18148.985368000009
 31
0.0
  0
LINE
  5
11D8E
  8
0-1
  6
CONTINUOUS
 62
     3
 10
11048.40326862758
 20
17603.191004339282
 30
0.0
 11
11143.757288951099
 21
17834.291987445478
 31
0.0
  0
LINE
  5
11D8F
  8
0-1
  6
CONTINUOUS
 62
     3
 10
11877.456821134319
 20
16985.67543628786
 30
0.0
 11
11972.80747081184
 21
17216.77928799433
 31
0.0
  0
LINE
  5
11D90
  8
0-1
  6
CONTINUOUS
 62
     3
 10
11877.456821134319
 20
16985.67543628786
 30
0.0
 11
11143.757288951099
 21
17834.291987445478
 31
0.0
  0
LINE
  5
11D91
  8
0-1
  6
CONTINUOUS
 62
     3
 10
11972.806412033
 20
17216.776721804479
 30
0.0
 11
13830.30719315934
 21
16452.918888099852
 31
0.0
  0
TEXT
  5
11D92
  8
2-0
  6
CONTINUOUS
 62
     7
 10
22535.487742623489
 20
11251.104441999991
 30
0.0
 40
160.0
  1
平　面　図
 72
     4
 11
22988.821075956821
 21
11325.77110866666
 31
0.0
  0
TEXT
  5
11D93
  8
2-0
  6
CONTINUOUS
 62
     7
 10
9424.1482868376897
 20
11156.81700299998
 30
0.0
 40
160.0
  1
小 屋 伏 図
 72
     4
 11
9925.4816201710255
 21
11236.81700299998
 31
0.0
  0
TEXT
  5
11D94
  8
2-0
  6
CONTINUOUS
 62
     7
 10
24340.313261094441
 20
11272.96647766667
 30
0.0
 40
160.0
  1
1
 72
     4
 11
24366.979927761109
 21
11352.96647766667
 31
0.0
  0
TEXT
  5
11D95
  8
2-0
  6
CONTINUOUS
 62
     7
 10
24583.401978345151
 20
11192.967945666671
 30
0.0
 40
160.0
  1
80
 72
     4
 11
24703.401978345151
 21
11272.967945666671
 31
0.0
  0
TEXT
  5
11D96
  8
2-0
  6
CONTINUOUS
 62
     7
 10
23841.315227094448
 20
11245.77110866666
 30
0.0
 40
160.0
  1
(S=  /   )
 72
     4
 11
24401.315227094448
 21
11325.77110866666
 31
0.0
  0
TEXT
  5
11D97
  8
2-0
  6
CONTINUOUS
 62
     7
 10
11276.97380530864
 20
11184.012371999979
 30
0.0
 40
160.0
  1
1
 72
     4
 11
11303.64047197531
 21
11264.012371999979
 31
0.0
  0
TEXT
  5
11D98
  8
2-0
  6
CONTINUOUS
 62
     7
 10
11520.062522559339
 20
11104.01383999998
 30
0.0
 40
160.0
  1
80
 72
     4
 11
11640.062522559339
 21
11184.01383999998
 31
0.0
  0
TEXT
  5
11D99
  8
2-0
  6
CONTINUOUS
 62
     7
 10
10777.97577130864
 20
11156.81700299998
 30
0.0
 40
160.0
  1
(S=  /   )
 72
     4
 11
11337.97577130864
 21
11236.81700299998
 31
0.0
  0
LINE
  5
11D9A
  8
2-0
  6
DASHED3
 62
     6
 10
13197.421234310539
 20
16713.179827110162
 30
0.0
 11
13260.10572204271
 21
16750.486251999992
 31
0.0
  0
LINE
  5
11D9B
  8
0-6
  6
CONTINUOUS
 62
     6
 10
4796.2881813177173
 20
15116.31690047387
 30
0.0
 11
6790.7323333177264
 21
15116.31690047387
 31
0.0
  0
TEXT
  5
11D9C
  8
0-6
  6
CONTINUOUS
 62
     7
 10
4860.3205490120226
 20
15212.3683883632
 30
0.0
 40
160.0
  1
桁中B +  桁中補強B
 72
     4
 11
5793.6538823453557
 21
15292.3683883632
 31
0.0
  0
LINE
  5
11D9D
  8
0-6
  6
CONTINUOUS
 62
     6
 10
6790.7323333177264
 20
15116.31690047387
 30
0.0
 11
8406.3395890965494
 21
14629.50364131598
 31
0.0
  0
LINE
  5
11D9E
  8
0-6
  6
CONTINUOUS
 62
     6
 10
8406.3395890965494
 20
14629.50364131598
 30
0.0
 11
8828.9800376937255
 21
15192.58699533489
 31
0.0
  0
LINE
  5
11D9F
  8
0-6
  6
CONTINUOUS
 62
     6
 10
6828.2560252900312
 20
17087.7698263444
 30
0.0
 11
8741.8918091607648
 21
16261.175860604621
 31
0.0
  0
LINE
  5
11DA0
  8
0-6
  6
CONTINUOUS
 62
     6
 10
8741.8918091607648
 20
16261.175860604621
 30
0.0
 11
8999.5161799517973
 21
16679.484933000022
 31
0.0
  0
LINE
  5
11DA6
  8
0-1
  6
CONTINUOUS
 62
     3
 10
20413.538332484241
 20
8132.6883740000021
 30
0.0
 11
22896.041763484242
 21
8132.6883740000021
 31
0.0
  0
LINE
  5
11DA7
  8
0-1
  6
CONTINUOUS
 62
     3
 10
20413.538332484241
 20
8326.1887430000024
 30
0.0
 11
22896.041763484242
 21
8326.1887430000024
 31
0.0
  0
LINE
  5
11DA8
  8
0-1
  6
CONTINUOUS
 62
     3
 10
20285.54202748424
 20
8264.0026619999971
 30
0.0
 11
20285.54202748424
 21
8589.6883999999973
 31
0.0
  0
LINE
  5
11DA9
  8
0-1
  6
CONTINUOUS
 62
     3
 10
22981.040312484231
 20
8459.6884660000014
 30
0.0
 11
20285.54202748424
 21
8459.6884660000014
 31
0.0
  0
LINE
  5
11DAA
  8
0-1
  6
CONTINUOUS
 62
     3
 10
20285.54202748424
 20
8589.6883999999973
 30
0.0
 11
22961.043215484238
 21
8589.6883999999973
 31
0.0
  0
LINE
  5
11DAB
  8
0-1
  6
CONTINUOUS
 62
     3
 10
7900.7650303700239
 20
6291.1885390000007
 30
0.0
 11
7900.7650303700239
 21
8152.2344180000064
 31
0.0
  0
LINE
  5
11DAC
  8
0-1
  6
CONTINUOUS
 62
     3
 10
7920.7660863700194
 20
6291.1885390000007
 30
0.0
 11
7920.7660863700194
 21
8152.2344180000064
 31
0.0
  0
LINE
  5
11DAD
  8
0-1
  6
CONTINUOUS
 62
     3
 10
7850.7653603700292
 20
6291.1885390000007
 30
0.0
 11
7850.7653603700292
 21
8152.2344180000064
 31
0.0
  0
LINE
  5
11DAE
  8
0-1
  6
CONTINUOUS
 62
     3
 10
7970.7647663700272
 20
6291.1885390000007
 30
0.0
 11
7970.7647663700272
 21
8152.2344180000064
 31
0.0
  0
LINE
  5
11DAF
  8
0-1
  6
CONTINUOUS
 62
     3
 10
8103.7656503700164
 20
6291.1885390000007
 30
0.0
 11
8103.7656503700164
 21
8152.2344180000064
 31
0.0
  0
LINE
  5
11DB0
  8
0-1
  6
CONTINUOUS
 62
     3
 10
8118.7654523700248
 20
6291.1885390000007
 30
0.0
 11
8118.7654523700248
 21
8152.2344180000064
 31
0.0
  0
LINE
  5
11DB1
  8
0-1
  6
CONTINUOUS
 62
     3
 10
7717.7654653700274
 20
6291.1885390000007
 30
0.0
 11
7717.7654653700274
 21
8152.2344180000064
 31
0.0
  0
LINE
  5
11DB2
  8
0-1
  6
CONTINUOUS
 62
     3
 10
7702.765663370029
 20
6291.1885390000007
 30
0.0
 11
7702.765663370029
 21
8152.2344180000064
 31
0.0
  0
LINE
  5
11DB3
  8
0-1
  6
CONTINUOUS
 62
     3
 10
8979.2651493700287
 20
8152.2344180000064
 30
0.0
 11
8979.2651493700287
 21
6291.1885390000007
 31
0.0
  0
LINE
  5
11DB4
  8
0-1
  6
CONTINUOUS
 62
     3
 10
8942.2669573700277
 20
8152.2344180000064
 30
0.0
 11
8942.2669573700277
 21
6291.1885390000007
 31
0.0
  0
LINE
  5
11DB5
  8
0-1
  6
CONTINUOUS
 62
     3
 10
8279.2658083700244
 20
8152.2344180000064
 30
0.0
 11
8279.2658083700244
 21
6291.1885390000007
 31
0.0
  0
LINE
  5
11DB6
  8
0-1
  6
CONTINUOUS
 62
     3
 10
8242.265637370012
 20
8152.2344180000064
 30
0.0
 11
8242.265637370012
 21
6291.1885390000007
 31
0.0
  0
LINE
  5
11DB7
  8
0-1
  6
CONTINUOUS
 62
     3
 10
9679.2644893700199
 20
8152.2344180000064
 30
0.0
 11
9679.2644893700199
 21
6291.1885390000007
 31
0.0
  0
LINE
  5
11DB8
  8
0-1
  6
CONTINUOUS
 62
     3
 10
9642.2662973700153
 20
8152.2344180000064
 30
0.0
 11
9642.2662973700153
 21
6291.1885390000007
 31
0.0
  0
LINE
  5
11DB9
  8
0-1
  6
CONTINUOUS
 62
     3
 10
9300.7647003700167
 20
6291.1885390000007
 30
0.0
 11
9300.7647003700167
 21
8152.2344180000064
 31
0.0
  0
LINE
  5
11DBA
  8
0-1
  6
CONTINUOUS
 62
     3
 10
9320.765756370025
 20
6291.1885390000007
 30
0.0
 11
9320.765756370025
 21
8152.2344180000064
 31
0.0
  0
LINE
  5
11DBB
  8
0-1
  6
CONTINUOUS
 62
     3
 10
9250.7660203700252
 20
6291.1885390000007
 30
0.0
 11
9250.7660203700252
 21
8152.2344180000064
 31
0.0
  0
LINE
  5
11DBC
  8
0-1
  6
CONTINUOUS
 62
     3
 10
9370.7654263700279
 20
6291.1885390000007
 30
0.0
 11
9370.7654263700279
 21
8152.2344180000064
 31
0.0
  0
LINE
  5
11DBD
  8
0-1
  6
CONTINUOUS
 62
     3
 10
9503.765320370012
 20
6291.1885390000007
 30
0.0
 11
9503.765320370012
 21
8152.2344180000064
 31
0.0
  0
LINE
  5
11DBE
  8
0-1
  6
CONTINUOUS
 62
     3
 10
9518.765122370025
 20
6291.1885390000007
 30
0.0
 11
9518.765122370025
 21
8152.2344180000064
 31
0.0
  0
LINE
  5
11DBF
  8
0-1
  6
CONTINUOUS
 62
     3
 10
9117.7651353700239
 20
6291.1885390000007
 30
0.0
 11
9117.7651353700239
 21
8152.2344180000064
 31
0.0
  0
LINE
  5
11DC0
  8
0-1
  6
CONTINUOUS
 62
     3
 10
9102.7663233700259
 20
6291.1885390000007
 30
0.0
 11
9102.7663233700259
 21
8152.2344180000064
 31
0.0
  0
LINE
  5
11DC1
  8
0-1
  6
CONTINUOUS
 62
     3
 10
8402.7650033700265
 20
6291.1885390000007
 30
0.0
 11
8402.7650033700265
 21
8152.2344180000064
 31
0.0
  0
LINE
  5
11DC2
  8
0-1
  6
CONTINUOUS
 62
     3
 10
8417.7657953700145
 20
6291.1885390000007
 30
0.0
 11
8417.7657953700145
 21
8152.2344180000064
 31
0.0
  0
LINE
  5
11DC3
  8
0-1
  6
CONTINUOUS
 62
     3
 10
8818.7657823700247
 20
6291.1885390000007
 30
0.0
 11
8818.7657823700247
 21
8152.2344180000064
 31
0.0
  0
LINE
  5
11DC4
  8
0-1
  6
CONTINUOUS
 62
     3
 10
8803.7649903700258
 20
6291.1885390000007
 30
0.0
 11
8803.7649903700258
 21
8152.2344180000064
 31
0.0
  0
LINE
  5
11DC5
  8
0-1
  6
CONTINUOUS
 62
     3
 10
8670.7660863700203
 20
6291.1885390000007
 30
0.0
 11
8670.7660863700203
 21
8152.2344180000064
 31
0.0
  0
LINE
  5
11DC6
  8
0-1
  6
CONTINUOUS
 62
     3
 10
8550.7647003700258
 20
6291.1885390000007
 30
0.0
 11
8550.7647003700258
 21
8152.2344180000064
 31
0.0
  0
LINE
  5
11DC7
  8
0-1
  6
CONTINUOUS
 62
     3
 10
8620.7674053700284
 20
6291.1885390000007
 30
0.0
 11
8620.7674053700284
 21
8152.2344180000064
 31
0.0
  0
LINE
  5
11DC8
  8
0-1
  6
CONTINUOUS
 62
     3
 10
8600.7663503700296
 20
6291.1885390000007
 30
0.0
 11
8600.7663503700296
 21
8152.2344180000064
 31
0.0
  0
LINE
  5
11DC9
  8
0-1
  6
CONTINUOUS
 62
     3
 10
9802.7646743700188
 20
6291.1885390000007
 30
0.0
 11
9802.7646743700188
 21
8152.2344180000064
 31
0.0
  0
LINE
  5
11DCA
  8
0-1
  6
CONTINUOUS
 62
     3
 10
9817.7654653700301
 20
6291.1885390000007
 30
0.0
 11
9817.7654653700301
 21
8152.2344180000064
 31
0.0
  0
LINE
  5
11DCB
  8
0-1
  6
CONTINUOUS
 62
     3
 10
9950.7663503700296
 20
6291.1885390000007
 30
0.0
 11
9950.7663503700296
 21
8152.2344180000064
 31
0.0
  0
LINE
  5
11DCC
  8
0-1
  6
CONTINUOUS
 62
     3
 10
10218.765452370009
 20
6291.1885390000007
 30
0.0
 11
10218.765452370009
 21
8152.2344180000064
 31
0.0
  0
LINE
  5
11DCD
  8
0-1
  6
CONTINUOUS
 62
     3
 10
10203.76664037002
 20
6291.1885390000007
 30
0.0
 11
10203.76664037002
 21
8152.2344180000064
 31
0.0
  0
LINE
  5
11DCE
  8
0-1
  6
CONTINUOUS
 62
     3
 10
10070.76575637001
 20
6291.1885390000007
 30
0.0
 11
10070.76575637001
 21
8152.2344180000064
 31
0.0
  0
LINE
  5
11DCF
  8
0-1
  6
CONTINUOUS
 62
     3
 10
10020.76608637002
 20
6291.1885390000007
 30
0.0
 11
10020.76608637002
 21
8152.2344180000064
 31
0.0
  0
LINE
  5
11DD0
  8
0-1
  6
CONTINUOUS
 62
     3
 10
10000.767009370011
 20
6291.1885390000007
 30
0.0
 11
10000.767009370011
 21
8152.2344180000064
 31
0.0
  0
LINE
  5
11DD1
  8
0-1
  6
CONTINUOUS
 62
     3
 10
10828.76598037001
 20
6291.1885390000007
 30
0.0
 11
10828.76598037001
 21
8152.2344180000064
 31
0.0
  0
LINE
  5
11DD2
  8
0-1
  6
CONTINUOUS
 62
     3
 10
10808.76690437001
 20
6291.1885390000007
 30
0.0
 11
10808.76690437001
 21
8152.2344180000064
 31
0.0
  0
LINE
  5
11DD3
  8
0-1
  6
CONTINUOUS
 62
     3
 10
10878.76664037001
 20
6291.1885390000007
 30
0.0
 11
10878.76664037001
 21
8152.2344180000064
 31
0.0
  0
LINE
  5
11DD4
  8
0-1
  6
CONTINUOUS
 62
     3
 10
10758.76624437003
 20
6291.1885390000007
 30
0.0
 11
10758.76624437003
 21
8152.2344180000064
 31
0.0
  0
LINE
  5
11DD5
  8
0-1
  6
CONTINUOUS
 62
     3
 10
10625.76635037001
 20
6291.1885390000007
 30
0.0
 11
10625.76635037001
 21
8152.2344180000064
 31
0.0
  0
LINE
  5
11DD6
  8
0-1
  6
CONTINUOUS
 62
     3
 10
10610.76456837001
 20
6291.1885390000007
 30
0.0
 11
10610.76456837001
 21
8152.2344180000064
 31
0.0
  0
LINE
  5
11DD7
  8
0-1
  6
CONTINUOUS
 62
     3
 10
11011.76653437001
 20
6291.1885390000007
 30
0.0
 11
11011.76653437001
 21
8152.2344180000064
 31
0.0
  0
LINE
  5
11DD8
  8
0-1
  6
CONTINUOUS
 62
     3
 10
11026.765347370019
 20
6291.1885390000007
 30
0.0
 11
11026.765347370019
 21
8152.2344180000064
 31
0.0
  0
LINE
  5
11DD9
  8
0-1
  6
CONTINUOUS
 62
     3
 10
12710.765558370011
 20
6291.1885390000007
 30
0.0
 11
12710.765558370011
 21
8152.2344180000064
 31
0.0
  0
LINE
  5
11DDA
  8
0-1
  6
CONTINUOUS
 62
     3
 10
12725.76536037002
 20
6291.1885390000007
 30
0.0
 11
12725.76536037002
 21
8152.2344180000064
 31
0.0
  0
LINE
  5
11DDB
  8
0-1
  6
CONTINUOUS
 62
     3
 10
12858.76624437003
 20
6291.1885390000007
 30
0.0
 11
12858.76624437003
 21
8152.2344180000064
 31
0.0
  0
LINE
  5
11DDC
  8
0-1
  6
CONTINUOUS
 62
     3
 10
12978.76565037002
 20
6291.1885390000007
 30
0.0
 11
12978.76565037002
 21
8152.2344180000064
 31
0.0
  0
LINE
  5
11DDD
  8
0-1
  6
CONTINUOUS
 62
     3
 10
12908.76690437001
 20
6291.1885390000007
 30
0.0
 11
12908.76690437001
 21
8152.2344180000064
 31
0.0
  0
LINE
  5
11DDE
  8
0-1
  6
CONTINUOUS
 62
     3
 10
12928.765980370021
 20
6291.1885390000007
 30
0.0
 11
12928.765980370021
 21
8152.2344180000064
 31
0.0
  0
LINE
  5
11DDF
  8
0-1
  6
CONTINUOUS
 62
     3
 10
12228.76664037001
 20
6291.1885390000007
 30
0.0
 11
12228.76664037001
 21
8152.2344180000064
 31
0.0
  0
LINE
  5
11DE0
  8
0-1
  6
CONTINUOUS
 62
     3
 10
12208.765584370019
 20
6291.1885390000007
 30
0.0
 11
12208.765584370019
 21
8152.2344180000064
 31
0.0
  0
LINE
  5
11DE1
  8
0-1
  6
CONTINUOUS
 62
     3
 10
12278.76532037003
 20
6291.1885390000007
 30
0.0
 11
12278.76532037003
 21
8152.2344180000064
 31
0.0
  0
LINE
  5
11DE2
  8
0-1
  6
CONTINUOUS
 62
     3
 10
12158.76690437001
 20
6291.1885390000007
 30
0.0
 11
12158.76690437001
 21
8152.2344180000064
 31
0.0
  0
LINE
  5
11DE3
  8
0-1
  6
CONTINUOUS
 62
     3
 10
12025.76602037002
 20
6291.1885390000007
 30
0.0
 11
12025.76602037002
 21
8152.2344180000064
 31
0.0
  0
LINE
  5
11DE4
  8
0-1
  6
CONTINUOUS
 62
     3
 10
12010.76621837001
 20
6291.1885390000007
 30
0.0
 11
12010.76621837001
 21
8152.2344180000064
 31
0.0
  0
LINE
  5
11DE5
  8
0-1
  6
CONTINUOUS
 62
     3
 10
12411.764225370031
 20
6291.1885390000007
 30
0.0
 11
12411.764225370031
 21
8152.2344180000064
 31
0.0
  0
LINE
  5
11DE6
  8
0-1
  6
CONTINUOUS
 62
     3
 10
12426.76600637002
 20
6291.1885390000007
 30
0.0
 11
12426.76600637002
 21
8152.2344180000064
 31
0.0
  0
LINE
  5
11DE7
  8
0-1
  6
CONTINUOUS
 62
     3
 10
11726.76666637002
 20
6291.1885390000007
 30
0.0
 11
11726.76666637002
 21
8152.2344180000064
 31
0.0
  0
LINE
  5
11DE8
  8
0-1
  6
CONTINUOUS
 62
     3
 10
11711.76488537001
 20
6291.1885390000007
 30
0.0
 11
11711.76488537001
 21
8152.2344180000064
 31
0.0
  0
LINE
  5
11DE9
  8
0-1
  6
CONTINUOUS
 62
     3
 10
11310.76687737001
 20
6291.1885390000007
 30
0.0
 11
11310.76687737001
 21
8152.2344180000064
 31
0.0
  0
LINE
  5
11DEA
  8
0-1
  6
CONTINUOUS
 62
     3
 10
11325.76569037001
 20
6291.1885390000007
 30
0.0
 11
11325.76569037001
 21
8152.2344180000064
 31
0.0
  0
LINE
  5
11DEB
  8
0-1
  6
CONTINUOUS
 62
     3
 10
11458.76459437003
 20
6291.1885390000007
 30
0.0
 11
11458.76459437003
 21
8152.2344180000064
 31
0.0
  0
LINE
  5
11DEC
  8
0-1
  6
CONTINUOUS
 62
     3
 10
11578.765980370021
 20
6291.1885390000007
 30
0.0
 11
11578.765980370021
 21
8152.2344180000064
 31
0.0
  0
LINE
  5
11DED
  8
0-1
  6
CONTINUOUS
 62
     3
 10
11508.76624437001
 20
6291.1885390000007
 30
0.0
 11
11508.76624437001
 21
8152.2344180000064
 31
0.0
  0
LINE
  5
11DEE
  8
0-1
  6
CONTINUOUS
 62
     3
 10
11528.76532037003
 20
6291.1885390000007
 30
0.0
 11
11528.76532037003
 21
8152.2344180000064
 31
0.0
  0
LINE
  5
11DEF
  8
0-1
  6
CONTINUOUS
 62
     3
 10
11187.26669337002
 20
8152.2344180000064
 30
0.0
 11
11187.26669337002
 21
6291.1885390000007
 31
0.0
  0
LINE
  5
11DF0
  8
0-1
  6
CONTINUOUS
 62
     3
 10
11150.26553137002
 20
8152.2344180000064
 30
0.0
 11
11150.26553137002
 21
6291.1885390000007
 31
0.0
  0
LINE
  5
11DF1
  8
0-1
  6
CONTINUOUS
 62
     3
 10
12587.26438337002
 20
8152.2344180000064
 30
0.0
 11
12587.26438337002
 21
6291.1885390000007
 31
0.0
  0
LINE
  5
11DF2
  8
0-1
  6
CONTINUOUS
 62
     3
 10
12550.26520137001
 20
8152.2344180000064
 30
0.0
 11
12550.26520137001
 21
6291.1885390000007
 31
0.0
  0
LINE
  5
11DF3
  8
0-1
  6
CONTINUOUS
 62
     3
 10
11887.266033370001
 20
8152.2344180000064
 30
0.0
 11
11887.266033370001
 21
6291.1885390000007
 31
0.0
  0
LINE
  5
11DF4
  8
0-1
  6
CONTINUOUS
 62
     3
 10
11850.26586137001
 20
8152.2344180000064
 30
0.0
 11
11850.26586137001
 21
6291.1885390000007
 31
0.0
  0
LINE
  5
11DF5
  8
0-1
  6
CONTINUOUS
 62
     3
 10
22988.54070848423
 20
6241.1883740000021
 30
0.0
 11
22888.541367484231
 21
6241.1883740000021
 31
0.0
  0
LINE
  5
11DF6
  8
0-1
  6
CONTINUOUS
 62
     3
 10
22888.541367484231
 20
6241.1883740000021
 30
0.0
 11
22888.541367484231
 21
6141.1885390000007
 31
0.0
  0
LINE
  5
11DF7
  8
0-1
  6
CONTINUOUS
 62
     3
 10
22988.54070848423
 20
6141.1885390000007
 30
0.0
 11
22988.54070848423
 21
6241.1883740000021
 31
0.0
  0
LINE
  5
11DF8
  8
0-1
  6
CONTINUOUS
 62
     3
 10
22896.041763484242
 20
8459.6884660000014
 30
0.0
 11
22896.041763484242
 21
6241.1883740000021
 31
0.0
  0
LINE
  5
11DF9
  8
0-1
  6
CONTINUOUS
 62
     3
 10
22844.54202748424
 20
8132.6883740000021
 30
0.0
 11
22844.54202748424
 21
6141.1885390000007
 31
0.0
  0
LINE
  5
11DFA
  8
0-1
  6
CONTINUOUS
 62
     3
 10
22961.043215484238
 20
8589.6883999999973
 30
0.0
 11
22961.043215484238
 21
6241.1883740000021
 31
0.0
  0
LINE
  5
11DFB
  8
0-1
  6
CONTINUOUS
 62
     3
 10
22981.04202748424
 20
8459.6884660000014
 30
0.0
 11
22981.04202748424
 21
6241.1883740000021
 31
0.0
  0
LINE
  5
11DFC
  8
0-1
  6
CONTINUOUS
 62
     3
 10
20285.54202748424
 20
8264.0026619999971
 30
0.0
 11
20328.54202748424
 21
8264.0026619999971
 31
0.0
  0
LINE
  5
11DFD
  8
0-1
  6
CONTINUOUS
 62
     3
 10
20321.039388484241
 20
6241.1883740000021
 30
0.0
 11
20421.03872848424
 21
6241.1883740000021
 31
0.0
  0
LINE
  5
11DFE
  8
0-1
  6
CONTINUOUS
 62
     3
 10
20421.03872848424
 20
6241.1883740000021
 30
0.0
 11
20421.03872848424
 21
6141.1885390000007
 31
0.0
  0
LINE
  5
11DFF
  8
0-1
  6
CONTINUOUS
 62
     3
 10
20321.039388484241
 20
6141.1885390000007
 30
0.0
 11
20321.039388484241
 21
6241.1883740000021
 31
0.0
  0
LINE
  5
11E00
  8
0-1
  6
CONTINUOUS
 62
     3
 10
20465.042027484229
 20
8132.6883740000021
 30
0.0
 11
20465.042027484229
 21
6141.1885390000007
 31
0.0
  0
LINE
  5
11E01
  8
0-1
  6
CONTINUOUS
 62
     3
 10
20413.538332484241
 20
8459.6884660000014
 30
0.0
 11
20413.538332484241
 21
6241.1883740000021
 31
0.0
  0
LINE
  5
11E02
  8
0-1
  6
CONTINUOUS
 62
     3
 10
20348.538860484241
 20
8589.6883999999973
 30
0.0
 11
20348.538860484241
 21
6241.1883740000021
 31
0.0
  0
LINE
  5
11E03
  8
0-1
  6
CONTINUOUS
 62
     3
 10
20328.54202748424
 20
8459.6884660000014
 30
0.0
 11
20328.54202748424
 21
6241.1883740000021
 31
0.0
  0
LINE
  5
11E04
  8
0-1
  6
CONTINUOUS
 62
     3
 10
13387.76550537002
 20
6241.1883740000021
 30
0.0
 11
13387.76550537002
 21
6141.1885390000007
 31
0.0
  0
LINE
  5
11E05
  8
0-1
  6
CONTINUOUS
 62
     3
 10
13355.26471437002
 20
8455.5174490000027
 30
0.0
 11
13355.26471437002
 21
6241.1883740000021
 31
0.0
  0
LINE
  5
11E06
  8
0-1
  6
CONTINUOUS
 62
     3
 10
13375.265505370009
 20
8456.0984379999973
 30
0.0
 11
13375.265505370009
 21
6241.1883740000021
 31
0.0
  0
LINE
  5
11E07
  8
0-1
  6
CONTINUOUS
 62
     3
 10
13260.26563737001
 20
8152.2344180000064
 30
0.0
 11
13260.26563737001
 21
6241.1883740000021
 31
0.0
  0
LINE
  5
11E08
  8
0-1
  6
CONTINUOUS
 62
     3
 10
10414.76550537002
 20
8356.9898809999977
 30
0.0
 11
10414.76550537002
 21
8152.2344180000064
 31
0.0
  0
LINE
  5
11E09
  8
0-1
  6
CONTINUOUS
 62
     3
 10
10342.265637370019
 20
8152.2344180000064
 30
0.0
 11
10342.265637370019
 21
6241.1883740000021
 31
0.0
  0
LINE
  5
11E0A
  8
0-1
  6
CONTINUOUS
 62
     3
 10
10487.26438337
 20
8152.2344180000064
 30
0.0
 11
10487.26438337
 21
6241.1883740000021
 31
0.0
  0
LINE
  5
11E0B
  8
0-1
  6
CONTINUOUS
 62
     3
 10
10487.26438337
 20
6291.1885390000007
 30
0.0
 11
13260.26563737001
 21
6291.1885390000007
 31
0.0
  0
LINE
  5
11E0C
  8
0-1
  6
CONTINUOUS
 62
     3
 10
20465.042027484229
 20
6661.1892649999991
 30
0.0
 11
22844.54202748424
 21
6661.1892649999991
 31
0.0
  0
LINE
  5
11E0D
  8
0-1
  6
CONTINUOUS
 62
     3
 10
20465.042027484229
 20
6596.1888030000027
 30
0.0
 11
22844.54202748424
 21
6596.1888030000027
 31
0.0
  0
LINE
  5
11E0E
  8
0-1
  6
CONTINUOUS
 62
     3
 10
20465.042027484229
 20
6531.1888360000003
 30
0.0
 11
22844.54202748424
 21
6531.1888360000003
 31
0.0
  0
LINE
  5
11E0F
  8
0-1
  6
CONTINUOUS
 62
     3
 10
20465.042027484229
 20
6466.1883740000039
 30
0.0
 11
22844.54202748424
 21
6466.1883740000039
 31
0.0
  0
LINE
  5
11E10
  8
0-1
  6
CONTINUOUS
 62
     3
 10
20465.042027484229
 20
6401.1889020000071
 30
0.0
 11
22844.54202748424
 21
6401.1889020000071
 31
0.0
  0
LINE
  5
11E11
  8
0-1
  6
CONTINUOUS
 62
     3
 10
20465.042027484229
 20
6336.1889349999956
 30
0.0
 11
22844.54202748424
 21
6336.1889349999956
 31
0.0
  0
LINE
  5
11E12
  8
0-1
  6
CONTINUOUS
 62
     3
 10
20465.042027484229
 20
6271.1889680000004
 30
0.0
 11
22844.54202748424
 21
6271.1889680000004
 31
0.0
  0
LINE
  5
11E13
  8
0-1
  6
CONTINUOUS
 62
     3
 10
20465.042027484229
 20
6206.1885060000041
 30
0.0
 11
22844.54202748424
 21
6206.1885060000041
 31
0.0
  0
LINE
  5
11E14
  8
0-1
  6
CONTINUOUS
 62
     3
 10
20465.042027484229
 20
8026.1885719999982
 30
0.0
 11
22844.54202748424
 21
8026.1885719999982
 31
0.0
  0
LINE
  5
11E15
  8
0-1
  6
CONTINUOUS
 62
     3
 10
20465.042027484229
 20
7961.1886050000021
 30
0.0
 11
22844.54202748424
 21
7961.1886050000021
 31
0.0
  0
LINE
  5
11E16
  8
0-1
  6
CONTINUOUS
 62
     3
 10
20465.042027484229
 20
7896.1891330000062
 30
0.0
 11
22844.54202748424
 21
7896.1891330000062
 31
0.0
  0
LINE
  5
11E17
  8
0-1
  6
CONTINUOUS
 62
     3
 10
20465.042027484229
 20
7831.1891659999937
 30
0.0
 11
22844.54202748424
 21
7831.1891659999937
 31
0.0
  0
LINE
  5
11E18
  8
0-1
  6
CONTINUOUS
 62
     3
 10
20465.042027484229
 20
7766.1891989999967
 30
0.0
 11
22844.54202748424
 21
7766.1891989999967
 31
0.0
  0
LINE
  5
11E19
  8
0-1
  6
CONTINUOUS
 62
     3
 10
20465.042027484229
 20
7701.1887370000022
 30
0.0
 11
22844.54202748424
 21
7701.1887370000022
 31
0.0
  0
LINE
  5
11E1A
  8
0-1
  6
CONTINUOUS
 62
     3
 10
20465.042027484229
 20
7636.1887699999979
 30
0.0
 11
22844.54202748424
 21
7636.1887699999979
 31
0.0
  0
LINE
  5
11E1B
  8
0-1
  6
CONTINUOUS
 62
     3
 10
20465.042027484229
 20
7571.1892980000011
 30
0.0
 11
22844.54202748424
 21
7571.1892980000011
 31
0.0
  0
LINE
  5
11E1C
  8
0-1
  6
CONTINUOUS
 62
     3
 10
20465.042027484229
 20
7506.1893309999978
 30
0.0
 11
22844.54202748424
 21
7506.1893309999978
 31
0.0
  0
LINE
  5
11E1D
  8
0-1
  6
CONTINUOUS
 62
     3
 10
20465.042027484229
 20
7441.1888690000023
 30
0.0
 11
22844.54202748424
 21
7441.1888690000023
 31
0.0
  0
LINE
  5
11E1E
  8
0-1
  6
CONTINUOUS
 62
     3
 10
20465.042027484229
 20
7376.188901999999
 30
0.0
 11
22844.54202748424
 21
7376.188901999999
 31
0.0
  0
LINE
  5
11E1F
  8
0-1
  6
CONTINUOUS
 62
     3
 10
20465.042027484229
 20
7311.1889350000029
 30
0.0
 11
22844.54202748424
 21
7311.1889350000029
 31
0.0
  0
LINE
  5
11E20
  8
0-1
  6
CONTINUOUS
 62
     3
 10
20465.042027484229
 20
7246.1884730000029
 30
0.0
 11
22844.54202748424
 21
7246.1884730000029
 31
0.0
  0
LINE
  5
11E21
  8
0-1
  6
CONTINUOUS
 62
     3
 10
20465.042027484229
 20
7181.1885060000041
 30
0.0
 11
22844.54202748424
 21
7181.1885060000041
 31
0.0
  0
LINE
  5
11E22
  8
0-1
  6
CONTINUOUS
 62
     3
 10
20465.042027484229
 20
7116.1890340000009
 30
0.0
 11
22844.54202748424
 21
7116.1890340000009
 31
0.0
  0
LINE
  5
11E23
  8
0-1
  6
CONTINUOUS
 62
     3
 10
20465.042027484229
 20
7051.1890669999966
 30
0.0
 11
22844.54202748424
 21
7051.1890669999966
 31
0.0
  0
LINE
  5
11E24
  8
0-1
  6
CONTINUOUS
 62
     3
 10
20465.042027484229
 20
6986.1891000000032
 30
0.0
 11
22844.54202748424
 21
6986.1891000000032
 31
0.0
  0
LINE
  5
11E25
  8
0-1
  6
CONTINUOUS
 62
     3
 10
20465.042027484229
 20
6921.1886380000051
 30
0.0
 11
22844.54202748424
 21
6921.1886380000051
 31
0.0
  0
LINE
  5
11E26
  8
0-1
  6
CONTINUOUS
 62
     3
 10
20465.042027484229
 20
6856.1886710000017
 30
0.0
 11
22844.54202748424
 21
6856.1886710000017
 31
0.0
  0
LINE
  5
11E27
  8
0-1
  6
CONTINUOUS
 62
     3
 10
20465.042027484229
 20
6791.1891989999967
 30
0.0
 11
22844.54202748424
 21
6791.1891989999967
 31
0.0
  0
LINE
  5
11E28
  8
0-1
  6
CONTINUOUS
 62
     3
 10
20465.042027484229
 20
6726.1892320000024
 30
0.0
 11
22844.54202748424
 21
6726.1892320000024
 31
0.0
  0
LINE
  5
11E29
  8
0-1
  6
CONTINUOUS
 62
     3
 10
20465.042027484229
 20
8080.6485920000023
 30
0.0
 11
22844.54202748424
 21
8080.6485920000023
 31
0.0
  0
LINE
  5
11E2A
  8
0-1
  6
CONTINUOUS
 62
     3
 10
20321.039388484241
 20
6141.1885390000007
 30
0.0
 11
26350.020403609429
 21
6141.1885390000007
 31
0.0
  0
LINE
  5
11E2B
  8
0-1
  6
CONTINUOUS
 62
     3
 10
7446.7655053700182
 20
6141.1885390000007
 30
0.0
 11
7446.7655053700182
 21
6241.1883740000021
 31
0.0
  0
LINE
  5
11E2C
  8
0-1
  6
CONTINUOUS
 62
     3
 10
7474.2653073700212
 20
8268.990877000002
 30
0.0
 11
7474.2653073700212
 21
6241.1883740000021
 31
0.0
  0
LINE
  5
11E2D
  8
0-1
  6
CONTINUOUS
 62
     3
 10
7454.2655053700191
 20
8268.3741496838102
 30
0.0
 11
7454.2655053700191
 21
6241.1883740000021
 31
0.0
  0
LINE
  5
11E2E
  8
0-1
  6
CONTINUOUS
 62
     3
 10
7569.2643843700243
 20
8152.2344180000064
 30
0.0
 11
7569.2643843700243
 21
6241.1883740000021
 31
0.0
  0
LINE
  5
11E2F
  8
0-1
  6
CONTINUOUS
 62
     3
 10
7446.7655053700182
 20
6241.1883740000021
 30
0.0
 11
13387.76550537002
 21
6241.1883740000021
 31
0.0
  0
LINE
  5
11E30
  8
0-1
  6
CONTINUOUS
 62
     3
 10
7569.2643843700243
 20
6291.1885390000007
 30
0.0
 11
10342.265637370019
 21
6291.1885390000007
 31
0.0
  0
LINE
  5
11E31
  8
0-1
  6
CONTINUOUS
 62
     3
 10
6764.2644503700176
 20
6141.1885390000007
 30
0.0
 11
13387.76550537002
 21
6141.1885390000007
 31
0.0
  0
LINE
  5
11E32
  8
0-1
  6
CONTINUOUS
 62
     3
 10
7474.2653073700212
 20
8152.2344180000064
 30
0.0
 11
13355.26471437002
 21
8152.2344180000064
 31
0.0
  0
LINE
  5
11E33
  8
0-1
  6
CONTINUOUS
 62
     3
 10
20439.541288484252
 20
8335.1891200000064
 30
0.0
 11
20716.970818484238
 21
8335.1891200000064
 31
0.0
  0
LINE
  5
11E34
  8
0-1
  6
CONTINUOUS
 62
     3
 10
20439.541288484252
 20
8377.1885650000022
 30
0.0
 11
20748.967756484239
 21
8377.1885650000022
 31
0.0
  0
LINE
  5
11E35
  8
0-1
  6
CONTINUOUS
 62
     3
 10
20434.541025484239
 20
8340.1888889999937
 30
0.0
 11
20434.541025484239
 21
8372.1892910000006
 31
0.0
  0
LINE
  5
11E36
  8
0-1
  6
CONTINUOUS
 62
     3
 10
20413.538332484241
 20
8386.1884470000077
 30
0.0
 11
22896.041763484242
 21
8386.1884470000077
 31
0.0
  0
LINE
  5
11E37
  8
0-1
  6
CONTINUOUS
 62
     3
 10
20720.504258484241
 20
8336.6529740000005
 30
0.0
 11
20752.505156484229
 21
8368.653376000002
 31
0.0
  0
LINE
  5
11E38
  8
0-1
  6
CONTINUOUS
 62
     3
 10
20434.541025484239
 20
8368.7889730000006
 30
0.0
 11
20752.633824484241
 21
8368.7889730000006
 31
0.0
  0
LINE
  5
11E39
  8
0-1
  6
CONTINUOUS
 62
     3
 10
20434.541025484239
 20
8360.3888860000006
 30
0.0
 11
20744.240666484249
 21
8360.3888860000006
 31
0.0
  0
LINE
  5
11E3A
  8
0-1
  6
CONTINUOUS
 62
     3
 10
20434.541025484239
 20
8351.9892939999972
 30
0.0
 11
20735.84156848424
 21
8351.9892939999972
 31
0.0
  0
LINE
  5
11E3B
  8
0-1
  6
CONTINUOUS
 62
     3
 10
20434.541025484239
 20
8343.5892070000027
 30
0.0
 11
20727.438512484248
 21
8343.5892070000027
 31
0.0
  0
LINE
  5
11E3C
  8
0-1
  6
CONTINUOUS
 62
     3
 10
22875.04105148423
 20
8368.7889730000006
 30
0.0
 11
22556.948251484231
 21
8368.7889730000006
 31
0.0
  0
LINE
  5
11E3D
  8
0-1
  6
CONTINUOUS
 62
     3
 10
22875.04105148423
 20
8360.3888860000006
 30
0.0
 11
22565.343389484249
 21
8360.3888860000006
 31
0.0
  0
LINE
  5
11E3E
  8
0-1
  6
CONTINUOUS
 62
     3
 10
22875.04105148423
 20
8351.9892939999972
 30
0.0
 11
22573.742486484229
 21
8351.9892939999972
 31
0.0
  0
LINE
  5
11E3F
  8
0-1
  6
CONTINUOUS
 62
     3
 10
22875.04105148423
 20
8343.5892070000027
 30
0.0
 11
22582.14158448423
 21
8343.5892070000027
 31
0.0
  0
LINE
  5
11E40
  8
0-1
  6
CONTINUOUS
 62
     3
 10
22870.040787484239
 20
8377.1885650000022
 30
0.0
 11
22560.614319484241
 21
8377.1885650000022
 31
0.0
  0
LINE
  5
11E41
  8
0-1
  6
CONTINUOUS
 62
     3
 10
22870.040787484239
 20
8335.1891200000064
 30
0.0
 11
22592.611258484241
 21
8335.1891200000064
 31
0.0
  0
LINE
  5
11E42
  8
0-1
  6
CONTINUOUS
 62
     3
 10
22875.04105148423
 20
8340.1888889999937
 30
0.0
 11
22875.04105148423
 21
8372.1892910000006
 31
0.0
  0
LINE
  5
11E43
  8
0-1
  6
CONTINUOUS
 62
     3
 10
22589.075837484241
 20
8336.6529740000005
 30
0.0
 11
22557.07889948423
 21
8368.653376000002
 31
0.0
  0
LINE
  5
11E44
  8
0-1
  6
CONTINUOUS
 62
     3
 10
7279.9636813700199
 20
8303.1736990000027
 30
0.0
 11
13460.95517037002
 21
8498.6897600000066
 31
0.0
  0
LINE
  5
11E45
  8
0-1
  6
CONTINUOUS
 62
     3
 10
13459.45469537001
 20
8548.6686450000016
 30
0.0
 11
7278.464196370016
 21
8353.151595000003
 31
0.0
  0
LINE
  5
11E46
  8
0-1
  6
CONTINUOUS
 62
     3
 10
7275.3741683700227
 20
8356.0604969999968
 30
0.0
 11
7274.4141013700191
 21
8388.0460529999982
 31
0.0
  0
LINE
  5
11E47
  8
0-1
  6
CONTINUOUS
 62
     3
 10
7279.2629323700212
 20
8393.1932959999976
 30
0.0
 11
13479.22414737002
 21
8589.2804480000032
 31
0.0
  0
LINE
  5
11E48
  8
0-1
  6
CONTINUOUS
 62
     3
 10
13483.128747370019
 20
8459.338910000004
 30
0.0
 11
7283.1635733700214
 21
8263.2522529999969
 31
0.0
  0
LINE
  5
11E49
  8
0-1
  6
CONTINUOUS
 62
     3
 10
7278.0158353700208
 20
8268.099599000001
 30
0.0
 11
7277.0567583700204
 21
8300.0856499999973
 31
0.0
  0
LINE
  5
11E4A
  8
0-1
  6
CONTINUOUS
 62
     3
 10
7276.7251893700186
 20
8311.0803909999977
 30
0.0
 11
7275.7047473700177
 21
8345.0647660000086
 31
0.0
  0
LINE
  5
11E4B
  8
0-1
  6
CONTINUOUS
 62
     3
 10
7278.6136503700218
 20
8348.1538049999999
 30
0.0
 11
13459.60612837002
 21
8543.6713500000023
 31
0.0
  0
LINE
  5
11E4C
  8
0-1
  6
CONTINUOUS
 62
     3
 10
13460.80571637002
 20
8503.6880440000004
 30
0.0
 11
7279.8152183700176
 21
8308.1719839999969
 31
0.0
  0
LINE
  5
11E4D
  8
0-1
  6
CONTINUOUS
 62
     3
 10
10414.76550537002
 20
8356.9898809999977
 30
0.0
 11
10410.862884370021
 21
8486.9314189999968
 31
0.0
  0
LINE
  5
11E4E
  8
0-1
  6
CONTINUOUS
 62
     3
 10
13450.16184537001
 20
8458.3481610000017
 30
0.0
 11
13446.26021437001
 21
8588.2896989999972
 31
0.0
  0
LINE
  5
11E4F
  8
0-1
  6
CONTINUOUS
 62
     3
 10
7291.7556743700197
 20
8393.5684149999979
 30
0.0
 11
7295.6582953700208
 21
8263.6273720000008
 31
0.0
  0
LINE
  5
11E50
  8
0-2
  6
CONTINUOUS
 62
     4
 10
22018.480067984241
 20
6888.4152330000052
 30
0.0
 11
21918.480727984232
 21
6888.4152330000052
 31
0.0
  0
LINE
  5
11E51
  8
0-2
  6
CONTINUOUS
 62
     4
 10
21291.096067984239
 20
6888.4152330000052
 30
0.0
 11
21391.09540798423
 21
6888.4152330000052
 31
0.0
  0
LINE
  5
11E52
  8
0-5
  6
CONTINUOUS
 62
     4
 10
22938.542027484229
 20
4461.1889349999938
 30
0.0
 11
22938.542027484229
 21
4301.1893970000001
 31
0.0
  0
LINE
  5
11E53
  8
0-5
  6
CONTINUOUS
 62
     4
 10
18149.169007484252
 20
6349.0350210000024
 30
0.0
 11
18269.167423484239
 21
6141.1885390000007
 31
0.0
  0
LINE
  5
11E54
  8
0-5
  6
CONTINUOUS
 62
     4
 10
15092.850493370021
 20
6241.1883740000021
 30
0.0
 11
15212.85088937
 21
6449.0353509999959
 31
0.0
  0
LINE
  5
11E55
  8
0-5
  6
CONTINUOUS
 62
     4
 10
14972.85207637002
 20
6449.0353509999959
 30
0.0
 11
15092.850493370021
 21
6241.1883740000021
 31
0.0
  0
LINE
  5
11E56
  8
0-5
  6
CONTINUOUS
 62
     4
 10
15212.85088937
 20
6449.0353509999959
 30
0.0
 11
14972.85207637002
 21
6449.0353509999959
 31
0.0
  0
LINE
  5
11E57
  8
0-5
  6
CONTINUOUS
 62
     4
 10
13467.76280037003
 20
6241.1883740000021
 30
0.0
 11
15185.228686370019
 21
6241.1883740000021
 31
0.0
  0
LINE
  5
11E58
  8
0-5
  6
CONTINUOUS
 62
     4
 10
13467.76280037003
 20
6141.1885390000007
 30
0.0
 11
20241.04110448424
 21
6141.1885390000007
 31
0.0
  0
LINE
  5
11E59
  8
0-5
  6
CONTINUOUS
 62
     4
 10
18269.167423484239
 20
6141.1885390000007
 30
0.0
 11
18389.167819484239
 21
6349.0350210000024
 31
0.0
  0
LINE
  5
11E5A
  8
0-5
  6
CONTINUOUS
 62
     4
 10
18389.167819484239
 20
6349.0350210000024
 30
0.0
 11
18149.169007484252
 21
6349.0350210000024
 31
0.0
  0
LINE
  5
11E5B
  8
0-5
  6
CONTINUOUS
 62
     4
 10
20371.04202748424
 20
4461.1889349999938
 30
0.0
 11
20371.04202748424
 21
4301.1893970000001
 31
0.0
  0
LINE
  5
11E5C
  8
0-5
  6
CONTINUOUS
 62
     4
 10
13332.76550537002
 20
4461.1889349999938
 30
0.0
 11
13332.76550537002
 21
4301.1893970000001
 31
0.0
  0
LINE
  5
11E5D
  8
0-5
  6
CONTINUOUS
 62
     4
 10
10414.76550537002
 20
4461.1889349999938
 30
0.0
 11
10414.76550537002
 21
4301.1893970000001
 31
0.0
  0
LINE
  5
11E5E
  8
0-5
  6
CONTINUOUS
 62
     4
 10
7496.7655053700182
 20
4461.1889349999938
 30
0.0
 11
7496.7655053700182
 21
4301.1893970000001
 31
0.0
  0
LINE
  5
11E5F
  8
2-0
  6
CENTER2
 62
     6
 10
22938.542027484229
 20
5878.536116000002
 30
0.0
 11
22938.542027484229
 21
6915.6791430000003
 31
0.0
  0
LINE
  5
11E60
  8
2-0
  6
CENTER2
 62
     6
 10
20371.04202748424
 20
5878.536116000002
 30
0.0
 11
20371.04202748424
 21
6915.6791430000003
 31
0.0
  0
LINE
  5
11E61
  8
2-0
  6
CENTER2
 62
     6
 10
13332.76550537002
 20
5878.536116000002
 30
0.0
 11
13332.76550537002
 21
6935.6787139999988
 31
0.0
  0
LINE
  5
11E62
  8
2-0
  6
CENTER2
 62
     6
 10
10414.76550537002
 20
5878.536116000002
 30
0.0
 11
10414.76550537002
 21
6935.6787139999988
 31
0.0
  0
LINE
  5
11E63
  8
2-0
  6
CENTER2
 62
     6
 10
7496.7655053700182
 20
5878.536116000002
 30
0.0
 11
7496.7655053700182
 21
6935.6787139999988
 31
0.0
  0
ARC
  5
11E64
  8
0-1
  6
CONTINUOUS
 62
     3
 10
20439.541288484252
 20
8372.1892910000006
 30
0.0
 40
5.0
 50
90.0
 51
180.0
  0
ARC
  5
11E65
  8
0-1
  6
CONTINUOUS
 62
     3
 10
20439.541288484252
 20
8340.1888889999937
 30
0.0
 40
5.0
 50
180.0
 51
269.9999850001808
  0
ARC
  5
11E66
  8
0-1
  6
CONTINUOUS
 62
     3
 10
20716.970818484238
 20
8340.1888889999937
 30
0.0
 40
5.0
 50
269.9999850001808
 51
314.99998500026879
  0
ARC
  5
11E67
  8
0-1
  6
CONTINUOUS
 62
     3
 10
20748.967756484239
 20
8372.1892910000006
 30
0.0
 40
5.0
 50
314.99998500026879
 51
90.0
  0
ARC
  5
11E68
  8
0-1
  6
CONTINUOUS
 62
     3
 10
22870.040787484239
 20
8340.1888889999937
 30
0.0
 40
5.0
 50
269.9999850001808
 51
0.0
  0
ARC
  5
11E69
  8
0-1
  6
CONTINUOUS
 62
     3
 10
22870.040787484239
 20
8372.1892910000006
 30
0.0
 40
5.0
 50
0.0
 51
90.0
  0
ARC
  5
11E6A
  8
0-1
  6
CONTINUOUS
 62
     3
 10
22560.614319484241
 20
8372.1892910000006
 30
0.0
 40
5.0
 50
90.0
 51
224.99998499998549
  0
ARC
  5
11E6B
  8
0-1
  6
CONTINUOUS
 62
     3
 10
22592.611258484241
 20
8340.1888889999937
 30
0.0
 40
5.0
 50
224.99998499998549
 51
269.9999850001808
  0
ARC
  5
11E6C
  8
0-1
  6
CONTINUOUS
 62
     3
 10
13460.20493237001
 20
8523.680191999998
 30
0.0
 40
24.999998999999999
 50
271.71998600002632
 51
91.719986000026395
  0
ARC
  5
11E6D
  8
0-1
  6
CONTINUOUS
 62
     3
 10
7278.3741283700183
 20
8356.1505650000017
 30
0.0
 40
3.0
 50
181.71998600002601
 51
271.71998600002632
  0
ARC
  5
11E6E
  8
0-1
  6
CONTINUOUS
 62
     3
 10
7279.4113963700192
 20
8388.1955070000022
 30
0.0
 40
5.0
 50
91.719986000026395
 51
181.71998600002601
  0
ARC
  5
11E6F
  8
0-1
  6
CONTINUOUS
 62
     3
 10
13455.20763837001
 20
8523.5297490000066
 30
0.0
 40
69.999999000000003
 50
293.50677499976911
 51
69.933196999879755
  0
ARC
  5
11E70
  8
0-1
  6
CONTINUOUS
 62
     3
 10
7283.0151093700233
 20
8268.2500430000073
 30
0.0
 40
5.0
 50
181.71998600002601
 51
271.71998600002632
  0
ARC
  5
11E71
  8
0-1
  6
CONTINUOUS
 62
     3
 10
7280.0537503700207
 20
8300.1752229999984
 30
0.0
 40
3.0
 50
91.719986000026395
 51
181.71998600002601
  0
ARC
  5
11E72
  8
0-1
  6
CONTINUOUS
 62
     3
 10
7280.0379133700199
 20
8350.697981000003
 30
0.0
 40
2.5
 50
271.71998600002632
 51
91.719986000026395
  0
ARC
  5
11E73
  8
0-1
  6
CONTINUOUS
 62
     3
 10
7281.3879453700183
 20
8305.7178750000003
 30
0.0
 40
2.5
 50
271.71998600002632
 51
91.719986000026395
  0
ARC
  5
11E74
  8
0-1
  6
CONTINUOUS
 62
     3
 10
7278.7037183700186
 20
8345.1553289999974
 30
0.0
 40
3.0
 50
91.719986000026395
 51
181.71998600002601
  0
ARC
  5
11E75
  8
0-1
  6
CONTINUOUS
 62
     3
 10
13460.20493237001
 20
8523.680191999998
 30
0.0
 40
20.0
 50
271.71998600002632
 51
91.719986000026395
  0
ARC
  5
11E76
  8
0-1
  6
CONTINUOUS
 62
     3
 10
7279.7241603700149
 20
8311.1699640000006
 30
0.0
 40
3.0
 50
181.71998600002601
 51
271.71998600002632
  0
CIRCLE
  5
11E77
  8
0-5
  6
CONTINUOUS
 62
     4
 10
22938.542027484229
 20
4101.1882420000011
 30
0.0
 40
199.9999949999999
  0
CIRCLE
  5
11E78
  8
0-5
  6
CONTINUOUS
 62
     4
 10
10414.76550537002
 20
4101.1882420000011
 30
0.0
 40
199.9999949999999
  0
CIRCLE
  5
11E79
  8
0-5
  6
CONTINUOUS
 62
     4
 10
13332.76550537002
 20
4101.1882420000011
 30
0.0
 40
199.9999949999999
  0
CIRCLE
  5
11E7A
  8
0-5
  6
CONTINUOUS
 62
     4
 10
20371.04202748424
 20
4101.1882420000011
 30
0.0
 40
199.9999949999999
  0
CIRCLE
  5
11E7B
  8
0-5
  6
CONTINUOUS
 62
     4
 10
7496.7655053700182
 20
4101.1882420000011
 30
0.0
 40
199.9999949999999
  0
TEXT
  5
11E7C
  8
0-5
  6
CONTINUOUS
 62
     7
 10
22886.629152484231
 20
4011.7132600000009
 30
0.0
 40
160.0
  1
2
 72
     4
 11
22939.962485817559
 21
4091.7132600000009
 31
0.0
  0
TEXT
  5
11E7D
  8
0-5
  6
CONTINUOUS
 62
     7
 10
19761.04150048424
 20
6988.0104361594431
 30
0.0
 40
160.0
  1
(2131.5)
 50
90.0
 72
     4
 11
19681.04150048424
 21
7441.3437694927761
 31
0.0
  0
TEXT
  5
11E7E
  8
0-5
  6
CONTINUOUS
 62
     7
 10
14633.75856437002
 20
6529.0346249999966
 30
0.0
 40
160.0
  1
布基礎天端
 72
     4
 11
15092.42523103669
 21
6609.0346249999984
 31
0.0
  0
TEXT
  5
11E7F
  8
0-5
  6
CONTINUOUS
 62
     7
 10
18149.169007484252
 20
6429.0347900000024
 30
0.0
 40
160.0
  1
G.L
 72
     4
 11
18309.169007484252
 21
6509.0347900000043
 31
0.0
  0
TEXT
  5
11E80
  8
0-5
  6
CONTINUOUS
 62
     7
 10
20319.129153484249
 20
4011.7132600000009
 30
0.0
 40
160.0
  1
1
 72
     4
 11
20345.795820150921
 21
4091.7132600000009
 31
0.0
  0
TEXT
  5
11E81
  8
0-5
  6
CONTINUOUS
 62
     7
 10
13285.809345370009
 20
4017.9774460000021
 30
0.0
 40
160.0
  1
A
 72
     4
 11
13339.142678703351
 21
4097.9774460000026
 31
0.0
  0
TEXT
  5
11E82
  8
0-5
  6
CONTINUOUS
 62
     7
 10
10367.809345370009
 20
4017.9774460000021
 30
0.0
 40
160.0
  1
B
 72
     4
 11
10421.142678703351
 21
4097.9774460000026
 31
0.0
  0
TEXT
  5
11E83
  8
0-5
  6
CONTINUOUS
 62
     7
 10
7449.8093453700239
 20
4017.9774460000021
 30
0.0
 40
160.0
  1
C
 72
     4
 11
7503.142678703357
 21
4097.9774460000026
 31
0.0
  0
CIRCLE
  5
11E84
  8
0-4
  6
CONTINUOUS
 62
     4
 10
21654.790047984228
 20
6627.2449749999987
 30
0.0
 40
18.487504999999981
  0
LINE
  5
11E85
  8
1-前柱カバ-P
 10
25696.04202748424
 20
8459.6884660000014
 30
0.0
 11
25696.04202748424
 21
6141.1885390000007
 31
0.0
  0
LINE
  5
11E86
  8
1-前柱カバ-P
 10
25781.04202748424
 20
8589.6883999999973
 30
0.0
 11
25781.04202748424
 21
6141.1885390000007
 31
0.0
  0
LINE
  5
11E87
  8
0-1
  6
CONTINUOUS
 62
     3
 10
25824.04202748424
 20
8459.6884660000087
 30
0.0
 11
22896.041763484242
 21
8459.6884660000014
 31
0.0
  0
LINE
  5
11E88
  8
0-1
  6
CONTINUOUS
 62
     3
 10
22961.043215484238
 20
8589.6883999999973
 30
0.0
 11
25824.04202748424
 21
8589.6883999999973
 31
0.0
  0
LINE
  5
11E89
  8
0-1
  6
CONTINUOUS
 62
     3
 10
25824.04202748424
 20
8264.0026620000026
 30
0.0
 11
25824.04202748424
 21
8589.6883999999973
 31
0.0
  0
LINE
  5
11E8A
  8
0-1
  6
CONTINUOUS
 62
     3
 10
25824.04202748424
 20
8264.0026620000026
 30
0.0
 11
25781.04202748424
 21
8264.0026620000026
 31
0.0
  0
LINE
  5
11E8B
  8
2-0
  6
CENTER2
 62
     6
 10
25738.542027484251
 20
5878.536116000002
 30
0.0
 11
25738.542027484251
 21
6915.6791430000003
 31
0.0
  0
LINE
  5
11E8C
  8
1-桁前P28
 10
25696.04202748424
 20
8261.1883740000048
 30
0.0
 11
22981.04202748424
 21
8261.1883740000048
 31
0.0
  0
LINE
  5
11E8D
  8
0-5
  6
CONTINUOUS
 62
     4
 10
25738.542027484251
 20
4461.1889349999938
 30
0.0
 11
25738.542027484251
 21
4301.1893970000001
 31
0.0
  0
CIRCLE
  5
11E8E
  8
0-5
  6
CONTINUOUS
 62
     4
 10
25738.542027484251
 20
4101.1882420000011
 30
0.0
 40
199.9999949999999
  0
TEXT
  5
11E8F
  8
0-5
  6
CONTINUOUS
 62
     7
 10
25686.629152484249
 20
4011.7132600000009
 30
0.0
 40
160.0
  1
3
 72
     4
 11
25739.962485817581
 21
4091.7132600000009
 31
0.0
  0
TEXT
  5
11E90
  8
0-5
  6
CONTINUOUS
 62
     7
 10
27105.867197778622
 20
7221.5326156752399
 30
0.0
 40
160.0
  1
(2260)
 50
90.0
 72
     4
 11
27025.867197778622
 21
7608.1992823419068
 31
0.0
  0
LINE
  5
11E91
  8
SUNPOU
  6
CONTINUOUS
 10
7274.2655053700191
 20
9389.1900500000029
 30
0.0
 11
6769.4776354766018
 21
9389.1900500000029
 31
0.0
  0
LINE
  5
11FEB
  8
2-0
  6
CENTER2
 62
     6
 10
18349.542965484201
 20
19668.486251999992
 30
0.0
 11
18769.542305484221
 21
19668.486251999992
 31
0.0
  0
LINE
  5
11FEC
  8
2-0
  6
CENTER2
 62
     6
 10
18929.542305484221
 20
19668.486251999992
 30
0.0
 11
26064.14872443616
 21
19668.486251999992
 31
0.0
  0
LINE
  5
11FED
  8
2-0
  6
CENTER2
 62
     6
 10
18349.542965484201
 20
16750.486251999992
 30
0.0
 11
18544.402730911799
 21
16750.486251999992
 31
0.0
  0
LINE
  5
11FEE
  8
2-0
  6
CENTER2
 62
     6
 10
19064.149009910408
 20
16750.486251999992
 30
0.0
 11
26064.14872443616
 21
16750.486251999992
 31
0.0
  0
LINE
  5
11FEF
  8
2-0
  6
CENTER2
 62
     6
 10
18349.542965484201
 20
13832.486252000001
 30
0.0
 11
18819.54230548421
 21
13832.486252000001
 31
0.0
  0
LINE
  5
11FF0
  8
2-0
  6
CENTER2
 62
     6
 10
18979.54230548421
 20
13832.486252000001
 30
0.0
 11
26064.14872443616
 21
13832.48625200001
 31
0.0
  0
CIRCLE
  5
11FF1
  8
0-5
  6
CONTINUOUS
 62
     4
 10
22959.543888484211
 20
21510.987175999999
 30
0.0
 40
199.9999949999999
  0
CIRCLE
  5
11FF2
  8
0-5
  6
CONTINUOUS
 62
     4
 10
18149.542305484229
 20
19668.486251999992
 30
0.0
 40
199.9999949999999
  0
CIRCLE
  5
11FF3
  8
0-5
  6
CONTINUOUS
 62
     4
 10
18149.542305484229
 20
16750.486251999992
 30
0.0
 40
199.9999949999999
  0
CIRCLE
  5
11FF4
  8
0-5
  6
CONTINUOUS
 62
     4
 10
18149.542305484229
 20
13832.486252000001
 30
0.0
 40
199.9999949999999
  0
CIRCLE
  5
11FF5
  8
0-5
  6
CONTINUOUS
 62
     4
 10
20392.043888484211
 20
21510.987175999999
 30
0.0
 40
199.9999949999999
  0
TEXT
  5
11FF6
  8
0-5
  6
CONTINUOUS
 62
     7
 10
22904.87354448422
 20
21424.761326000011
 30
0.0
 40
160.0
  1
2
 72
     4
 11
22958.206877817549
 21
21504.761326000011
 31
0.0
  0
TEXT
  5
11FF7
  8
0-5
  6
CONTINUOUS
 62
     7
 10
20337.37354448422
 20
21424.761326000011
 30
0.0
 40
160.0
  1
1
 72
     4
 11
20364.040211150881
 21
21504.761326000011
 31
0.0
  0
TEXT
  5
11FF8
  8
0-5
  6
CONTINUOUS
 62
     7
 10
18100.865943484241
 20
19576.868192999991
 30
0.0
 40
160.0
  1
C
 72
     4
 11
18154.19927681757
 21
19656.868192999991
 31
0.0
  0
TEXT
  5
11FF9
  8
0-5
  6
CONTINUOUS
 62
     7
 10
18100.86594348423
 20
16658.868193999999
 30
0.0
 40
160.0
  1
B
 72
     4
 11
18154.199276817559
 21
16738.868193999999
 31
0.0
  0
TEXT
  5
11FFA
  8
0-5
  6
CONTINUOUS
 62
     7
 10
18100.865943484241
 20
13740.868192999989
 30
0.0
 40
160.0
  1
A
 72
     4
 11
18154.19927681757
 21
13820.868192999989
 31
0.0
  0
LINE
  5
11FFB
  8
2-0
  6
CENTER2
 62
     6
 10
25759.543888484211
 20
21310.988495000009
 30
0.0
 11
25759.543888484211
 21
13474.73237353158
 31
0.0
  0
CIRCLE
  5
11FFC
  8
0-5
  6
CONTINUOUS
 62
     4
 10
25759.543888484211
 20
21510.987175999999
 30
0.0
 40
199.9999949999999
  0
TEXT
  5
11FFD
  8
0-5
  6
CONTINUOUS
 62
     7
 10
25704.87354448421
 20
21424.761326000011
 30
0.0
 40
160.0
  1
3
 72
     4
 11
25758.206877817542
 21
21504.761326000011
 31
0.0
  0
ARC
  5
11FFE
  8
1-後柱P
  6
HIDE-M
 62
     6
 10
25763.143888484221
 20
19600.436251999989
 30
0.0
 40
2.6000000000000001
 50
180.0
 51
270.0
  0
LINE
  5
11FFF
  8
1-後柱P
  6
HIDE-M
 62
     6
 10
25751.543888484211
 20
19598.3868618468
 30
0.0
 11
25751.543888484211
 21
19602.036252000002
 31
0.0
  0
LINE
  5
12000
  8
1-後柱P
  6
HIDE-M
 62
     6
 10
25761.543888484211
 20
19598.3868618468
 30
0.0
 11
25761.543888484211
 21
19602.036252000002
 31
0.0
  0
LINE
  5
12001
  8
1-後柱P
  6
1PL-M
 62
     6
 10
25756.543888484211
 20
19592.836252000008
 30
0.0
 11
25756.543888484211
 21
19607.036252000002
 31
0.0
  0
ARC
  5
12002
  8
1-後柱P
  6
HIDE-M
 62
     6
 10
25749.943888484231
 20
19600.436251999989
 30
0.0
 40
2.6000000000000001
 50
270.0
 51
0.0
  0
LINE
  5
12003
  8
1-後柱P
  6
HIDE-M
 62
     6
 10
25760.543888484211
 20
19600.436251999989
 30
0.0
 11
25760.543888484211
 21
19602.036252000002
 31
0.0
  0
LINE
  5
12004
  8
1-後柱P
  6
HIDE-M
 62
     6
 10
25752.543888484211
 20
19600.436251999989
 30
0.0
 11
25752.543888484211
 21
19602.036252000002
 31
0.0
  0
LINE
  5
12005
  8
1-後柱P
 10
25770.443888484238
 20
19712.736251999999
 30
0.0
 11
25748.643888484228
 21
19712.736251999999
 31
0.0
  0
LINE
  5
12006
  8
1-後柱P
 10
25718.643888484221
 20
19675.436252
 30
0.0
 11
25718.643888484221
 21
19682.736251999992
 31
0.0
  0
ARC
  5
12007
  8
1-後柱P
 10
25748.643888484228
 20
19682.736251999992
 30
0.0
 40
30.0
 50
90.0
 51
180.0
  0
ARC
  5
12008
  8
1-後柱P
 10
25748.643888484228
 20
19682.736251999992
 30
0.0
 40
31.600000000000001
 50
90.0
 51
180.0
  0
LINE
  5
12009
  8
1-後柱P
 10
25770.443888484238
 20
19714.336252000001
 30
0.0
 11
25748.643888484228
 21
19714.336252000001
 31
0.0
  0
LINE
  5
1200A
  8
1-後柱P
 10
25717.043888484211
 20
19675.436252
 30
0.0
 11
25717.043888484211
 21
19682.736251999992
 31
0.0
  0
LINE
  5
1200B
  8
1-後柱P
 10
25740.043888484201
 20
19653.836252000008
 30
0.0
 11
25740.043888484201
 21
19663.836252000001
 31
0.0
  0
LINE
  5
1200C
  8
1-後柱P
 10
25741.643888484221
 20
19663.836252000001
 30
0.0
 11
25741.643888484221
 21
19653.836252000008
 31
0.0
  0
LINE
  5
1200D
  8
1-後柱P
 10
25800.443888484238
 20
19675.436252
 30
0.0
 11
25800.443888484238
 21
19682.736251999992
 31
0.0
  0
ARC
  5
1200E
  8
1-後柱P
 10
25770.443888484238
 20
19682.736251999992
 30
0.0
 40
30.0
 50
0.0
 51
90.0
  0
ARC
  5
1200F
  8
1-後柱P
 10
25770.443888484238
 20
19682.736251999992
 30
0.0
 40
31.600000000000001
 50
0.0
 51
90.0
  0
LINE
  5
12010
  8
1-後柱P
 10
25802.043888484211
 20
19675.436252
 30
0.0
 11
25802.043888484211
 21
19682.736251999992
 31
0.0
  0
LINE
  5
12011
  8
1-後柱P
 10
25795.443888484231
 20
19668.836252000001
 30
0.0
 11
25784.043888484211
 21
19668.836252000001
 31
0.0
  0
ARC
  5
12012
  8
1-後柱P
 10
25795.443888484231
 20
19675.436252
 30
0.0
 40
6.599999999999997
 50
270.0
 51
0.0
  0
ARC
  5
12013
  8
1-後柱P
 10
25784.043888484211
 20
19663.836252000001
 30
0.0
 40
5.0
 50
90.0
 51
180.0
  0
LINE
  5
12014
  8
1-後柱P
 10
25795.443888484231
 20
19670.436252
 30
0.0
 11
25784.043888484211
 21
19670.436252
 31
0.0
  0
ARC
  5
12015
  8
1-後柱P
 10
25795.443888484231
 20
19675.436252
 30
0.0
 40
5.0
 50
270.0
 51
0.0
  0
LINE
  5
12016
  8
1-後柱P
 10
25779.043888484211
 20
19663.836252000001
 30
0.0
 11
25779.043888484211
 21
19604.436252
 31
0.0
  0
LINE
  5
12017
  8
1-後柱P
 10
25777.443888484238
 20
19663.836252000001
 30
0.0
 11
25777.443888484238
 21
19604.436252
 31
0.0
  0
ARC
  5
12018
  8
1-後柱P
 10
25784.043888484211
 20
19663.836252000001
 30
0.0
 40
6.599999999999997
 50
90.0
 51
180.0
  0
LINE
  5
12019
  8
1-後柱P
 10
25772.443888484231
 20
19597.836252000001
 30
0.0
 11
25739.043888484211
 21
19597.836252000001
 31
0.0
  0
ARC
  5
1201A
  8
1-後柱P
 10
25772.443888484231
 20
19604.436252
 30
0.0
 40
6.599999999999997
 50
270.0
 51
0.0
  0
LINE
  5
1201B
  8
1-後柱P
 10
25772.443888484231
 20
19599.436252
 30
0.0
 11
25739.043888484211
 21
19599.436252
 31
0.0
  0
ARC
  5
1201C
  8
1-後柱P
 10
25772.443888484231
 20
19604.436252
 30
0.0
 40
5.0
 50
270.0
 51
0.0
  0
LINE
  5
1201D
  8
1-後柱P
 10
25739.043888484211
 20
19599.436252
 30
0.0
 11
25739.043888484211
 21
19597.836252000001
 31
0.0
  0
LINE
  5
1201E
  8
1-後柱P
 10
25723.643888484228
 20
19668.836252000001
 30
0.0
 11
25735.043888484211
 21
19668.836252000001
 31
0.0
  0
ARC
  5
1201F
  8
1-後柱P
 10
25723.643888484228
 20
19675.436252
 30
0.0
 40
6.599999999999997
 50
180.0
 51
270.0
  0
ARC
  5
12020
  8
1-後柱P
 10
25735.043888484211
 20
19663.836252000001
 30
0.0
 40
5.0
 50
0.0
 51
90.0
  0
LINE
  5
12021
  8
1-後柱P
 10
25735.043888484211
 20
19670.436252
 30
0.0
 11
25723.643888484228
 21
19670.436252
 31
0.0
  0
ARC
  5
12022
  8
1-後柱P
 10
25735.043888484211
 20
19663.836252000001
 30
0.0
 40
6.599999999999997
 50
0.0
 51
90.0
  0
ARC
  5
12023
  8
1-後柱P
 10
25723.643888484228
 20
19675.436252
 30
0.0
 40
5.0
 50
180.0
 51
270.0
  0
LINE
  5
12024
  8
1-後柱P
 10
25740.043888484201
 20
19653.836252000008
 30
0.0
 11
25741.643888484221
 21
19653.836252000008
 31
0.0
  0
LINE
  5
12025
  8
1-後柱カバ-P
 10
25717.043888484211
 20
19662.136252
 30
0.0
 11
25717.043888484211
 21
19602.836252000001
 31
0.0
  0
ARC
  5
12026
  8
1-後柱カバ-P
 10
25723.643888484228
 20
19602.836252000001
 30
0.0
 40
6.599999999999997
 50
180.0
 51
270.0
  0
LINE
  5
12027
  8
1-後柱カバ-P
 10
25718.643888484221
 20
19662.136252
 30
0.0
 11
25718.643888484221
 21
19602.836252000001
 31
0.0
  0
ARC
  5
12028
  8
1-後柱カバ-P
 10
25723.643888484228
 20
19662.136252
 30
0.0
 40
5.0
 50
90.0
 51
180.0
  0
LINE
  5
12029
  8
1-後柱カバ-P
 10
25723.643888484228
 20
19596.236251999992
 30
0.0
 11
25795.443888484231
 21
19596.236251999992
 31
0.0
  0
ARC
  5
1202A
  8
1-後柱カバ-P
 10
25795.443888484231
 20
19602.836252000001
 30
0.0
 40
6.599999999999997
 50
270.0
 51
0.0
  0
LINE
  5
1202B
  8
1-後柱カバ-P
 10
25723.643888484228
 20
19597.836252000001
 30
0.0
 11
25795.443888484231
 21
19597.836252000001
 31
0.0
  0
ARC
  5
1202C
  8
1-後柱カバ-P
 10
25795.443888484231
 20
19602.836252000001
 30
0.0
 40
5.0
 50
270.0
 51
0.0
  0
ARC
  5
1202D
  8
1-後柱カバ-P
 10
25723.643888484228
 20
19602.836252000001
 30
0.0
 40
5.0
 50
180.0
 51
270.0
  0
LINE
  5
1202E
  8
1-後柱カバ-P
 10
25802.043888484211
 20
19602.836252000001
 30
0.0
 11
25802.043888484211
 21
19662.136252
 31
0.0
  0
LINE
  5
1202F
  8
1-後柱カバ-P
 10
25800.443888484238
 20
19602.836252000001
 30
0.0
 11
25800.443888484238
 21
19662.136252
 31
0.0
  0
ARC
  5
12030
  8
1-後柱カバ-P
 10
25795.443888484231
 20
19662.136252
 30
0.0
 40
5.0
 50
0.0
 51
90.0
  0
LINE
  5
12031
  8
1-後柱カバ-P
  6
1PL-M
 62
     6
 10
25759.543888484211
 20
19603.736251999992
 30
0.0
 11
25759.543888484211
 21
19590.736251999999
 31
0.0
  0
LINE
  5
12032
  8
1-後柱カバ-P
  6
HIDE-M
 62
     6
 10
25752.543888484211
 20
19596.236251999992
 30
0.0
 11
25752.543888484211
 21
19597.836252000001
 31
0.0
  0
LINE
  5
12033
  8
1-後柱カバ-P
  6
HIDE-M
 62
     6
 10
25766.543888484211
 20
19596.236251999992
 30
0.0
 11
25766.543888484211
 21
19597.836252000001
 31
0.0
  0
ARC
  5
12034
  8
1-後柱カバ-P
 10
25723.643888484228
 20
19662.136252
 30
0.0
 40
6.599999999999997
 50
90.0
 51
180.0
  0
ARC
  5
12035
  8
1-後柱カバ-P
 10
25795.443888484231
 20
19662.136252
 30
0.0
 40
6.599999999999997
 50
0.0
 51
90.0
  0
LINE
  5
12036
  8
1-後柱カバ-P
 10
25787.043888484211
 20
19668.736251999992
 30
0.0
 11
25795.443888484231
 21
19668.736251999992
 31
0.0
  0
LINE
  5
12037
  8
1-後柱カバ-P
 10
25732.043888484211
 20
19668.736251999992
 30
0.0
 11
25723.643888484228
 21
19668.736251999992
 31
0.0
  0
LINE
  5
12038
  8
1-後柱カバ-P
 10
25787.043888484211
 20
19667.136252
 30
0.0
 11
25795.443888484231
 21
19667.136252
 31
0.0
  0
LINE
  5
12039
  8
1-後柱カバ-P
 10
25732.043888484211
 20
19667.136252
 30
0.0
 11
25723.643888484228
 21
19667.136252
 31
0.0
  0
LINE
  5
1203A
  8
1-後柱カバ-P
 10
25732.043888484211
 20
19667.136252
 30
0.0
 11
25732.043888484211
 21
19668.736251999992
 31
0.0
  0
LINE
  5
1203B
  8
1-後柱カバ-P
 10
25787.043888484211
 20
19668.736251999992
 30
0.0
 11
25787.043888484211
 21
19667.136252
 31
0.0
  0
LINE
  5
1203C
  8
1-後柱カバ-P
  6
HIDE-M
 62
     6
 10
25790.943888484238
 20
19647.736251999992
 30
0.0
 11
25802.543888484211
 21
19647.736251999992
 31
0.0
  0
LINE
  5
1203D
  8
1-後柱カバ-P
  6
HIDE-M
 62
     6
 10
25790.943888484238
 20
19639.736251999992
 30
0.0
 11
25802.543888484211
 21
19639.736251999992
 31
0.0
  0
LINE
  5
1203E
  8
1-後柱カバ-P
  6
HIDE-M
 62
     6
 10
25790.943888484238
 20
19646.736251999992
 30
0.0
 11
25802.543888484211
 21
19646.736251999992
 31
0.0
  0
LINE
  5
1203F
  8
1-後柱カバ-P
  6
HIDE-M
 62
     6
 10
25790.943888484238
 20
19640.736251999992
 30
0.0
 11
25802.543888484211
 21
19640.736251999992
 31
0.0
  0
LINE
  5
12040
  8
1-後柱カバ-P
 10
25791.943888484231
 20
19638.236251999992
 30
0.0
 11
25798.943888484238
 21
19638.236251999992
 31
0.0
  0
LINE
  5
12041
  8
1-後柱カバ-P
 10
25798.943888484238
 20
19649.236251999992
 30
0.0
 11
25791.943888484231
 21
19649.236251999992
 31
0.0
  0
LINE
  5
12042
  8
1-後柱カバ-P
 10
25798.943888484238
 20
19649.986251999992
 30
0.0
 11
25798.943888484238
 21
19637.486251999999
 31
0.0
  0
LINE
  5
12043
  8
1-後柱カバ-P
 10
25802.543888484211
 20
19649.736251999999
 30
0.0
 11
25802.543888484211
 21
19637.736251999992
 31
0.0
  0
LINE
  5
12044
  8
1-後柱カバ-P
  6
HIDE-M
 62
     6
 10
25800.443888484238
 20
19638.236251999992
 30
0.0
 11
25802.043888484211
 21
19638.236251999992
 31
0.0
  0
LINE
  5
12045
  8
1-後柱カバ-P
 10
25802.543888484211
 20
19637.736251999992
 30
0.0
 11
25802.043888484211
 21
19638.236251999992
 31
0.0
  0
ARC
  5
12046
  8
1-後柱カバ-P
 10
25799.693888484231
 20
19637.486251999999
 30
0.0
 40
0.75
 50
180.0
 51
0.0
  0
LINE
  5
12047
  8
1-後柱カバ-P
  6
HIDE-M
 62
     6
 10
25802.043888484211
 20
19649.236251999992
 30
0.0
 11
25800.443888484238
 21
19649.236251999992
 31
0.0
  0
LINE
  5
12048
  8
1-後柱カバ-P
 10
25802.543888484211
 20
19649.736251999999
 30
0.0
 11
25802.043888484211
 21
19649.236251999992
 31
0.0
  0
ARC
  5
12049
  8
1-後柱カバ-P
 10
25799.693888484231
 20
19649.986251999992
 30
0.0
 40
0.75
 50
0.0
 51
180.0
  0
LINE
  5
1204A
  8
1-後柱カバ-P
 10
25790.943888484238
 20
19648.236251999999
 30
0.0
 11
25790.943888484238
 21
19639.236251999992
 31
0.0
  0
ARC
  5
1204B
  8
1-後柱カバ-P
 10
25791.943888484231
 20
19639.236251999992
 30
0.0
 40
1.0
 50
180.0
 51
270.0
  0
ARC
  5
1204C
  8
1-後柱カバ-P
 10
25791.943888484231
 20
19648.236251999999
 30
0.0
 40
1.0
 50
90.0
 51
180.0
  0
LINE
  5
1204D
  8
1-後柱カバ-P
  6
1PL-M
 62
     6
 10
25785.943888484231
 20
19643.736251999999
 30
0.0
 11
25807.543888484211
 21
19643.736251999999
 31
0.0
  0
LINE
  5
1204E
  8
1-後柱カバ-P
 10
25791.943888484231
 20
19628.236251999999
 30
0.0
 11
25798.943888484238
 21
19628.236251999999
 31
0.0
  0
LINE
  5
1204F
  8
1-後柱カバ-P
 10
25802.543888484211
 20
19635.736251999999
 30
0.0
 11
25802.543888484211
 21
19627.736251999992
 31
0.0
  0
LINE
  5
12050
  8
1-後柱カバ-P
  6
HIDE-M
 62
     6
 10
25800.443888484238
 20
19628.236251999999
 30
0.0
 11
25802.043888484211
 21
19628.236251999999
 31
0.0
  0
LINE
  5
12051
  8
1-後柱カバ-P
 10
25802.543888484211
 20
19627.736251999992
 30
0.0
 11
25802.043888484211
 21
19628.236251999999
 31
0.0
  0
ARC
  5
12052
  8
1-後柱カバ-P
 10
25799.693888484231
 20
19627.486251999992
 30
0.0
 40
0.75
 50
180.0
 51
0.0
  0
LINE
  5
12053
  8
1-後柱カバ-P
 10
25790.943888484238
 20
19637.236251999992
 30
0.0
 11
25790.943888484238
 21
19629.236251999999
 31
0.0
  0
ARC
  5
12054
  8
1-後柱カバ-P
 10
25791.943888484231
 20
19629.236251999999
 30
0.0
 40
1.0
 50
180.0
 51
270.0
  0
LINE
  5
12055
  8
1-後柱カバ-P
  6
1PL-M
 62
     6
 10
25785.943888484231
 20
19633.736251999999
 30
0.0
 11
25807.543888484211
 21
19633.736251999999
 31
0.0
  0
LINE
  5
12056
  8
1-後柱カバ-P
 10
25798.943888484238
 20
19635.486251999992
 30
0.0
 11
25798.943888484238
 21
19627.486251999992
 31
0.0
  0
LINE
  5
12057
  8
1-後柱カバ-P
  6
HIDE-M
 62
     6
 10
25728.143888484221
 20
19647.736251999992
 30
0.0
 11
25716.543888484211
 21
19647.736251999992
 31
0.0
  0
LINE
  5
12058
  8
1-後柱カバ-P
  6
HIDE-M
 62
     6
 10
25728.143888484221
 20
19639.736251999992
 30
0.0
 11
25716.543888484211
 21
19639.736251999992
 31
0.0
  0
LINE
  5
12059
  8
1-後柱カバ-P
  6
HIDE-M
 62
     6
 10
25728.143888484221
 20
19646.736251999992
 30
0.0
 11
25716.543888484211
 21
19646.736251999992
 31
0.0
  0
LINE
  5
1205A
  8
1-後柱カバ-P
  6
HIDE-M
 62
     6
 10
25728.143888484221
 20
19640.736251999992
 30
0.0
 11
25716.543888484211
 21
19640.736251999992
 31
0.0
  0
LINE
  5
1205B
  8
1-後柱カバ-P
 10
25727.143888484221
 20
19638.236251999992
 30
0.0
 11
25720.143888484228
 21
19638.236251999992
 31
0.0
  0
LINE
  5
1205C
  8
1-後柱カバ-P
 10
25720.143888484228
 20
19649.236251999992
 30
0.0
 11
25727.143888484221
 21
19649.236251999992
 31
0.0
  0
LINE
  5
1205D
  8
1-後柱カバ-P
 10
25720.143888484228
 20
19649.986251999992
 30
0.0
 11
25720.143888484228
 21
19637.486251999999
 31
0.0
  0
LINE
  5
1205E
  8
1-後柱カバ-P
 10
25716.543888484211
 20
19649.736251999999
 30
0.0
 11
25716.543888484211
 21
19637.736251999992
 31
0.0
  0
LINE
  5
1205F
  8
1-後柱カバ-P
  6
HIDE-M
 62
     6
 10
25718.643888484221
 20
19638.236251999992
 30
0.0
 11
25717.043888484211
 21
19638.236251999992
 31
0.0
  0
LINE
  5
12060
  8
1-後柱カバ-P
 10
25716.543888484211
 20
19637.736251999992
 30
0.0
 11
25717.043888484211
 21
19638.236251999992
 31
0.0
  0
ARC
  5
12061
  8
1-後柱カバ-P
 10
25719.393888484221
 20
19637.486251999999
 30
0.0
 40
0.75
 50
180.0
 51
0.0
  0
LINE
  5
12062
  8
1-後柱カバ-P
  6
HIDE-M
 62
     6
 10
25717.043888484211
 20
19649.236251999992
 30
0.0
 11
25718.643888484221
 21
19649.236251999992
 31
0.0
  0
LINE
  5
12063
  8
1-後柱カバ-P
 10
25716.543888484211
 20
19649.736251999999
 30
0.0
 11
25717.043888484211
 21
19649.236251999992
 31
0.0
  0
ARC
  5
12064
  8
1-後柱カバ-P
 10
25719.393888484221
 20
19649.986251999992
 30
0.0
 40
0.75
 50
0.0
 51
180.0
  0
LINE
  5
12065
  8
1-後柱カバ-P
 10
25728.143888484221
 20
19648.236251999999
 30
0.0
 11
25728.143888484221
 21
19639.236251999992
 31
0.0
  0
ARC
  5
12066
  8
1-後柱カバ-P
 10
25727.143888484221
 20
19639.236251999992
 30
0.0
 40
1.0
 50
270.0
 51
0.0
  0
ARC
  5
12067
  8
1-後柱カバ-P
 10
25727.143888484221
 20
19648.236251999999
 30
0.0
 40
1.0
 50
0.0
 51
90.0
  0
LINE
  5
12068
  8
1-後柱カバ-P
  6
1PL-M
 62
     6
 10
25733.143888484228
 20
19643.736251999999
 30
0.0
 11
25711.543888484211
 21
19643.736251999999
 31
0.0
  0
LINE
  5
12069
  8
1-後柱カバ-P
 10
25727.143888484221
 20
19628.236251999999
 30
0.0
 11
25720.143888484228
 21
19628.236251999999
 31
0.0
  0
LINE
  5
1206A
  8
1-後柱カバ-P
 10
25716.543888484211
 20
19635.736251999999
 30
0.0
 11
25716.543888484211
 21
19627.736251999992
 31
0.0
  0
LINE
  5
1206B
  8
1-後柱カバ-P
  6
HIDE-M
 62
     6
 10
25718.643888484221
 20
19628.236251999999
 30
0.0
 11
25717.043888484211
 21
19628.236251999999
 31
0.0
  0
LINE
  5
1206C
  8
1-後柱カバ-P
 10
25716.543888484211
 20
19627.736251999992
 30
0.0
 11
25717.043888484211
 21
19628.236251999999
 31
0.0
  0
ARC
  5
1206D
  8
1-後柱カバ-P
 10
25719.393888484221
 20
19627.486251999992
 30
0.0
 40
0.75
 50
180.0
 51
0.0
  0
LINE
  5
1206E
  8
1-後柱カバ-P
 10
25728.143888484221
 20
19637.236251999992
 30
0.0
 11
25728.143888484221
 21
19629.236251999999
 31
0.0
  0
ARC
  5
1206F
  8
1-後柱カバ-P
 10
25727.143888484221
 20
19629.236251999999
 30
0.0
 40
1.0
 50
270.0
 51
0.0
  0
LINE
  5
12070
  8
1-後柱カバ-P
  6
1PL-M
 62
     6
 10
25733.143888484228
 20
19633.736251999999
 30
0.0
 11
25711.543888484211
 21
19633.736251999999
 31
0.0
  0
LINE
  5
12071
  8
1-後柱カバ-P
 10
25720.143888484228
 20
19635.486251999992
 30
0.0
 11
25720.143888484228
 21
19627.486251999992
 31
0.0
  0
LINE
  5
12072
  8
1-後柱カバ-P
  6
HIDE-M
 62
     6
 10
25790.943888484238
 20
19629.736251999999
 30
0.0
 11
25802.543888484211
 21
19629.736251999999
 31
0.0
  0
LINE
  5
12073
  8
1-後柱カバ-P
  6
HIDE-M
 62
     6
 10
25790.943888484238
 20
19630.736251999999
 30
0.0
 11
25802.543888484211
 21
19630.736251999999
 31
0.0
  0
LINE
  5
12074
  8
1-後柱カバ-P
  6
HIDE-M
 62
     6
 10
25728.143888484221
 20
19629.736251999999
 30
0.0
 11
25716.543888484211
 21
19629.736251999999
 31
0.0
  0
LINE
  5
12075
  8
1-後柱カバ-P
  6
HIDE-M
 62
     6
 10
25728.143888484221
 20
19630.736251999999
 30
0.0
 11
25716.543888484211
 21
19630.736251999999
 31
0.0
  0
LINE
  5
12076
  8
1-中柱P
 10
25795.443888484198
 20
16679.486251999999
 30
0.0
 11
25723.64388848421
 21
16679.486251999999
 31
0.0
  0
ARC
  5
12077
  8
1-中柱P
 10
25795.443888484198
 20
16684.486251999992
 30
0.0
 40
5.0
 50
270.0
 51
0.0
  0
ARC
  5
12078
  8
1-中柱P
 10
25723.64388848421
 20
16684.486251999992
 30
0.0
 40
5.0
 50
180.0
 51
270.0
  0
LINE
  5
12079
  8
1-中柱P
 10
25795.443888484198
 20
16677.886252000011
 30
0.0
 11
25723.64388848421
 21
16677.886252000011
 31
0.0
  0
ARC
  5
1207A
  8
1-中柱P
 10
25795.443888484198
 20
16684.486251999992
 30
0.0
 40
6.599999999999997
 50
270.0
 51
0.0
  0
LINE
  5
1207B
  8
1-中柱P
 10
25717.043888484211
 20
16743.786252000002
 30
0.0
 11
25717.043888484211
 21
16684.486251999992
 31
0.0
  0
ARC
  5
1207C
  8
1-中柱P
 10
25723.64388848421
 20
16684.486251999992
 30
0.0
 40
6.599999999999997
 50
180.0
 51
270.0
  0
LINE
  5
1207D
  8
1-中柱P
 10
25718.64388848421
 20
16684.486251999992
 30
0.0
 11
25718.64388848421
 21
16743.786252000002
 31
0.0
  0
ARC
  5
1207E
  8
1-中柱P
 10
25723.64388848421
 20
16743.786252000002
 30
0.0
 40
5.0
 50
90.0
 51
180.0
  0
LINE
  5
1207F
  8
1-中柱P
 10
25802.043888484211
 20
16743.786252000002
 30
0.0
 11
25802.043888484211
 21
16684.486251999992
 31
0.0
  0
LINE
  5
12080
  8
1-中柱P
 10
25800.443888484209
 20
16684.486251999992
 30
0.0
 11
25800.443888484209
 21
16743.786252000002
 31
0.0
  0
LINE
  5
12081
  8
1-中柱P
 10
25795.443888484198
 20
16750.386252000011
 30
0.0
 11
25787.043888484211
 21
16750.386252000011
 31
0.0
  0
ARC
  5
12082
  8
1-中柱P
 10
25795.443888484198
 20
16743.786252000002
 30
0.0
 40
6.599999999999997
 50
0.0
 51
90.0
  0
LINE
  5
12083
  8
1-中柱P
 10
25795.443888484198
 20
16748.786252000002
 30
0.0
 11
25787.043888484211
 21
16748.786252000002
 31
0.0
  0
ARC
  5
12084
  8
1-中柱P
 10
25787.043888484211
 20
16755.386252000011
 30
0.0
 40
6.599999999999997
 50
180.0
 51
270.0
  0
ARC
  5
12085
  8
1-中柱P
 10
25795.443888484198
 20
16743.786252000002
 30
0.0
 40
5.0
 50
0.0
 51
90.0
  0
LINE
  5
12086
  8
1-中柱P
 10
25782.043888484211
 20
16755.386252000011
 30
0.0
 11
25782.043888484211
 21
16814.786252000002
 31
0.0
  0
ARC
  5
12087
  8
1-中柱P
 10
25787.043888484211
 20
16755.386252000011
 30
0.0
 40
5.0
 50
180.0
 51
270.0
  0
LINE
  5
12088
  8
1-中柱P
 10
25780.443888484209
 20
16755.386252000011
 30
0.0
 11
25780.443888484209
 21
16814.786252000002
 31
0.0
  0
LINE
  5
12089
  8
1-中柱P
 10
25775.443888484209
 20
16821.386252000011
 30
0.0
 11
25742.043888484211
 21
16821.386252000011
 31
0.0
  0
ARC
  5
1208A
  8
1-中柱P
 10
25775.443888484209
 20
16814.786252000002
 30
0.0
 40
6.599999999999997
 50
0.0
 51
90.0
  0
LINE
  5
1208B
  8
1-中柱P
 10
25775.443888484209
 20
16819.786252000002
 30
0.0
 11
25742.043888484211
 21
16819.786252000002
 31
0.0
  0
ARC
  5
1208C
  8
1-中柱P
 10
25775.443888484209
 20
16814.786252000002
 30
0.0
 40
5.0
 50
0.0
 51
90.0
  0
LINE
  5
1208D
  8
1-中柱P
 10
25742.043888484211
 20
16819.786252000002
 30
0.0
 11
25742.043888484211
 21
16821.386252000011
 31
0.0
  0
LINE
  5
1208E
  8
1-中柱P
 10
25723.64388848421
 20
16750.386252000011
 30
0.0
 11
25732.043888484211
 21
16750.386252000011
 31
0.0
  0
ARC
  5
1208F
  8
1-中柱P
 10
25723.64388848421
 20
16743.786252000002
 30
0.0
 40
6.599999999999997
 50
90.0
 51
180.0
  0
ARC
  5
12090
  8
1-中柱P
 10
25732.043888484211
 20
16755.386252000011
 30
0.0
 40
5.0
 50
270.0
 51
0.0
  0
LINE
  5
12091
  8
1-中柱P
 10
25732.043888484211
 20
16748.786252000002
 30
0.0
 11
25723.64388848421
 21
16748.786252000002
 31
0.0
  0
ARC
  5
12092
  8
1-中柱P
 10
25732.043888484211
 20
16755.386252000011
 30
0.0
 40
6.599999999999997
 50
270.0
 51
0.0
  0
ARC
  5
12093
  8
1-中柱P
  6
HIDE-M
 62
     6
 10
25766.14388848421
 20
16818.786252000002
 30
0.0
 40
2.6000000000000001
 50
90.0
 51
180.0
  0
LINE
  5
12094
  8
1-中柱P
  6
HIDE-M
 62
     6
 10
25754.543888484211
 20
16820.83564215319
 30
0.0
 11
25754.543888484211
 21
16817.18625200001
 31
0.0
  0
LINE
  5
12095
  8
1-中柱P
  6
HIDE-M
 62
     6
 10
25764.543888484211
 20
16820.83564215319
 30
0.0
 11
25764.543888484211
 21
16817.18625200001
 31
0.0
  0
LINE
  5
12096
  8
1-中柱P
  6
1PL-M
 62
     6
 10
25759.543888484211
 20
16826.386252000011
 30
0.0
 11
25759.543888484211
 21
16812.18625200001
 31
0.0
  0
ARC
  5
12097
  8
1-中柱P
  6
HIDE-M
 62
     6
 10
25752.943888484198
 20
16818.786252000002
 30
0.0
 40
2.6000000000000001
 50
0.0
 51
90.0
  0
LINE
  5
12098
  8
1-中柱P
  6
HIDE-M
 62
     6
 10
25763.543888484211
 20
16818.786252000002
 30
0.0
 11
25763.543888484211
 21
16817.18625200001
 31
0.0
  0
LINE
  5
12099
  8
1-中柱P
  6
HIDE-M
 62
     6
 10
25755.543888484211
 20
16818.786252000002
 30
0.0
 11
25755.543888484211
 21
16817.18625200001
 31
0.0
  0
LINE
  5
1209A
  8
1-中柱P
 10
25738.643888484199
 20
16755.386252000011
 30
0.0
 11
25738.643888484199
 21
16765.386252000011
 31
0.0
  0
LINE
  5
1209B
  8
1-中柱P
 10
25737.043888484211
 20
16755.386252000011
 30
0.0
 11
25737.043888484211
 21
16765.386252000011
 31
0.0
  0
LINE
  5
1209C
  8
1-中柱P
 10
25738.643888484199
 20
16765.386252000011
 30
0.0
 11
25737.043888484211
 21
16765.386252000011
 31
0.0
  0
LINE
  5
1209D
  8
1-中柱P
  6
1PL-M
 62
     6
 10
25787.043888484211
 20
16786.386252000011
 30
0.0
 11
25772.843888484222
 21
16786.386252000011
 31
0.0
  0
LINE
  5
1209E
  8
1-中柱P
  6
HIDE-M
 62
     6
 10
25790.943888484209
 20
16729.386252000011
 30
0.0
 11
25802.543888484211
 21
16729.386252000011
 31
0.0
  0
LINE
  5
1209F
  8
1-中柱P
  6
HIDE-M
 62
     6
 10
25790.943888484209
 20
16721.386252000011
 30
0.0
 11
25802.543888484211
 21
16721.386252000011
 31
0.0
  0
LINE
  5
120A0
  8
1-中柱P
  6
HIDE-M
 62
     6
 10
25790.943888484209
 20
16728.386252000011
 30
0.0
 11
25802.543888484211
 21
16728.386252000011
 31
0.0
  0
LINE
  5
120A1
  8
1-中柱P
  6
HIDE-M
 62
     6
 10
25790.943888484209
 20
16722.386252000011
 30
0.0
 11
25802.543888484211
 21
16722.386252000011
 31
0.0
  0
LINE
  5
120A2
  8
1-中柱P
 10
25791.943888484209
 20
16719.886252000011
 30
0.0
 11
25798.943888484198
 21
16719.886252000011
 31
0.0
  0
LINE
  5
120A3
  8
1-中柱P
 10
25798.943888484198
 20
16730.886252000011
 30
0.0
 11
25791.943888484209
 21
16730.886252000011
 31
0.0
  0
LINE
  5
120A4
  8
1-中柱P
 10
25798.943888484198
 20
16731.636252000011
 30
0.0
 11
25798.943888484198
 21
16719.136252000011
 31
0.0
  0
LINE
  5
120A5
  8
1-中柱P
 10
25802.543888484211
 20
16731.386252000011
 30
0.0
 11
25802.543888484211
 21
16719.386252000011
 31
0.0
  0
LINE
  5
120A6
  8
1-中柱P
  6
HIDE-M
 62
     6
 10
25800.443888484209
 20
16719.886252000011
 30
0.0
 11
25802.043888484211
 21
16719.886252000011
 31
0.0
  0
LINE
  5
120A7
  8
1-中柱P
 10
25802.543888484211
 20
16719.386252000011
 30
0.0
 11
25802.043888484211
 21
16719.886252000011
 31
0.0
  0
ARC
  5
120A8
  8
1-中柱P
 10
25799.693888484209
 20
16719.136252000011
 30
0.0
 40
0.75
 50
180.0
 51
0.0
  0
LINE
  5
120A9
  8
1-中柱P
  6
HIDE-M
 62
     6
 10
25802.043888484211
 20
16730.886252000011
 30
0.0
 11
25800.443888484209
 21
16730.886252000011
 31
0.0
  0
LINE
  5
120AA
  8
1-中柱P
 10
25802.543888484211
 20
16731.386252000011
 30
0.0
 11
25802.043888484211
 21
16730.886252000011
 31
0.0
  0
ARC
  5
120AB
  8
1-中柱P
 10
25799.693888484209
 20
16731.636252000011
 30
0.0
 40
0.75
 50
0.0
 51
180.0
  0
LINE
  5
120AC
  8
1-中柱P
 10
25790.943888484209
 20
16729.886252000011
 30
0.0
 11
25790.943888484209
 21
16720.886252000011
 31
0.0
  0
ARC
  5
120AD
  8
1-中柱P
 10
25791.943888484209
 20
16720.886252000011
 30
0.0
 40
1.0
 50
180.0
 51
270.0
  0
ARC
  5
120AE
  8
1-中柱P
 10
25791.943888484209
 20
16729.886252000011
 30
0.0
 40
1.0
 50
90.0
 51
180.0
  0
LINE
  5
120AF
  8
1-中柱P
  6
1PL-M
 62
     6
 10
25785.943888484198
 20
16725.386252000011
 30
0.0
 11
25807.543888484211
 21
16725.386252000011
 31
0.0
  0
LINE
  5
120B0
  8
1-中柱P
 10
25791.943888484209
 20
16709.886252000011
 30
0.0
 11
25798.943888484198
 21
16709.886252000011
 31
0.0
  0
LINE
  5
120B1
  8
1-中柱P
 10
25802.543888484211
 20
16717.386252000011
 30
0.0
 11
25802.543888484211
 21
16709.386252000011
 31
0.0
  0
LINE
  5
120B2
  8
1-中柱P
  6
HIDE-M
 62
     6
 10
25800.443888484209
 20
16709.886252000011
 30
0.0
 11
25802.043888484211
 21
16709.886252000011
 31
0.0
  0
LINE
  5
120B3
  8
1-中柱P
 10
25802.543888484211
 20
16709.386252000011
 30
0.0
 11
25802.043888484211
 21
16709.886252000011
 31
0.0
  0
ARC
  5
120B4
  8
1-中柱P
 10
25799.693888484209
 20
16709.136252000011
 30
0.0
 40
0.75
 50
180.0
 51
0.0
  0
LINE
  5
120B5
  8
1-中柱P
 10
25790.943888484209
 20
16718.886252000011
 30
0.0
 11
25790.943888484209
 21
16710.886252000011
 31
0.0
  0
ARC
  5
120B6
  8
1-中柱P
 10
25791.943888484209
 20
16710.886252000011
 30
0.0
 40
1.0
 50
180.0
 51
270.0
  0
LINE
  5
120B7
  8
1-中柱P
  6
1PL-M
 62
     6
 10
25785.943888484198
 20
16715.386252000011
 30
0.0
 11
25807.543888484211
 21
16715.386252000011
 31
0.0
  0
LINE
  5
120B8
  8
1-中柱P
 10
25798.943888484198
 20
16717.136252000011
 30
0.0
 11
25798.943888484198
 21
16709.136252000011
 31
0.0
  0
LINE
  5
120B9
  8
1-中柱P
  6
HIDE-M
 62
     6
 10
25790.943888484209
 20
16711.386252000011
 30
0.0
 11
25802.543888484211
 21
16711.386252000011
 31
0.0
  0
LINE
  5
120BA
  8
1-中柱P
  6
HIDE-M
 62
     6
 10
25790.943888484209
 20
16712.386252000011
 30
0.0
 11
25802.543888484211
 21
16712.386252000011
 31
0.0
  0
LINE
  5
120BB
  8
1-中柱P
  6
HIDE-M
 62
     6
 10
25728.14388848421
 20
16729.386252000011
 30
0.0
 11
25716.543888484211
 21
16729.386252000011
 31
0.0
  0
LINE
  5
120BC
  8
1-中柱P
  6
HIDE-M
 62
     6
 10
25728.14388848421
 20
16721.386252000011
 30
0.0
 11
25716.543888484211
 21
16721.386252000011
 31
0.0
  0
LINE
  5
120BD
  8
1-中柱P
  6
HIDE-M
 62
     6
 10
25728.14388848421
 20
16728.386252000011
 30
0.0
 11
25716.543888484211
 21
16728.386252000011
 31
0.0
  0
LINE
  5
120BE
  8
1-中柱P
  6
HIDE-M
 62
     6
 10
25728.14388848421
 20
16722.386252000011
 30
0.0
 11
25716.543888484211
 21
16722.386252000011
 31
0.0
  0
LINE
  5
120BF
  8
1-中柱P
 10
25727.143888484199
 20
16719.886252000011
 30
0.0
 11
25720.14388848421
 21
16719.886252000011
 31
0.0
  0
LINE
  5
120C0
  8
1-中柱P
 10
25720.14388848421
 20
16730.886252000011
 30
0.0
 11
25727.143888484199
 21
16730.886252000011
 31
0.0
  0
LINE
  5
120C1
  8
1-中柱P
 10
25720.14388848421
 20
16731.636252000011
 30
0.0
 11
25720.14388848421
 21
16719.136252000011
 31
0.0
  0
LINE
  5
120C2
  8
1-中柱P
 10
25716.543888484211
 20
16731.386252000011
 30
0.0
 11
25716.543888484211
 21
16719.386252000011
 31
0.0
  0
LINE
  5
120C3
  8
1-中柱P
  6
HIDE-M
 62
     6
 10
25718.64388848421
 20
16719.886252000011
 30
0.0
 11
25717.043888484211
 21
16719.886252000011
 31
0.0
  0
LINE
  5
120C4
  8
1-中柱P
 10
25716.543888484211
 20
16719.386252000011
 30
0.0
 11
25717.043888484211
 21
16719.886252000011
 31
0.0
  0
ARC
  5
120C5
  8
1-中柱P
 10
25719.393888484199
 20
16719.136252000011
 30
0.0
 40
0.75
 50
180.0
 51
0.0
  0
LINE
  5
120C6
  8
1-中柱P
  6
HIDE-M
 62
     6
 10
25717.043888484211
 20
16730.886252000011
 30
0.0
 11
25718.64388848421
 21
16730.886252000011
 31
0.0
  0
LINE
  5
120C7
  8
1-中柱P
 10
25716.543888484211
 20
16731.386252000011
 30
0.0
 11
25717.043888484211
 21
16730.886252000011
 31
0.0
  0
ARC
  5
120C8
  8
1-中柱P
 10
25719.393888484199
 20
16731.636252000011
 30
0.0
 40
0.75
 50
0.0
 51
180.0
  0
LINE
  5
120C9
  8
1-中柱P
 10
25728.14388848421
 20
16729.886252000011
 30
0.0
 11
25728.14388848421
 21
16720.886252000011
 31
0.0
  0
ARC
  5
120CA
  8
1-中柱P
 10
25727.143888484199
 20
16720.886252000011
 30
0.0
 40
1.0
 50
270.0
 51
0.0
  0
ARC
  5
120CB
  8
1-中柱P
 10
25727.143888484199
 20
16729.886252000011
 30
0.0
 40
1.0
 50
0.0
 51
90.0
  0
LINE
  5
120CC
  8
1-中柱P
  6
1PL-M
 62
     6
 10
25733.14388848421
 20
16725.386252000011
 30
0.0
 11
25711.543888484211
 21
16725.386252000011
 31
0.0
  0
LINE
  5
120CD
  8
1-中柱P
 10
25727.143888484199
 20
16709.886252000011
 30
0.0
 11
25720.14388848421
 21
16709.886252000011
 31
0.0
  0
LINE
  5
120CE
  8
1-中柱P
 10
25716.543888484211
 20
16717.386252000011
 30
0.0
 11
25716.543888484211
 21
16709.386252000011
 31
0.0
  0
LINE
  5
120CF
  8
1-中柱P
  6
HIDE-M
 62
     6
 10
25718.64388848421
 20
16709.886252000011
 30
0.0
 11
25717.043888484211
 21
16709.886252000011
 31
0.0
  0
LINE
  5
120D0
  8
1-中柱P
 10
25716.543888484211
 20
16709.386252000011
 30
0.0
 11
25717.043888484211
 21
16709.886252000011
 31
0.0
  0
ARC
  5
120D1
  8
1-中柱P
 10
25719.393888484199
 20
16709.136252000011
 30
0.0
 40
0.75
 50
180.0
 51
0.0
  0
LINE
  5
120D2
  8
1-中柱P
 10
25728.14388848421
 20
16718.886252000011
 30
0.0
 11
25728.14388848421
 21
16710.886252000011
 31
0.0
  0
ARC
  5
120D3
  8
1-中柱P
 10
25727.143888484199
 20
16710.886252000011
 30
0.0
 40
1.0
 50
270.0
 51
0.0
  0
LINE
  5
120D4
  8
1-中柱P
  6
1PL-M
 62
     6
 10
25733.14388848421
 20
16715.386252000011
 30
0.0
 11
25711.543888484211
 21
16715.386252000011
 31
0.0
  0
LINE
  5
120D5
  8
1-中柱P
 10
25720.14388848421
 20
16717.136252000011
 30
0.0
 11
25720.14388848421
 21
16709.136252000011
 31
0.0
  0
LINE
  5
120D6
  8
1-中柱P
  6
HIDE-M
 62
     6
 10
25728.14388848421
 20
16711.386252000011
 30
0.0
 11
25716.543888484211
 21
16711.386252000011
 31
0.0
  0
LINE
  5
120D7
  8
1-中柱P
  6
HIDE-M
 62
     6
 10
25728.14388848421
 20
16712.386252000011
 30
0.0
 11
25716.543888484211
 21
16712.386252000011
 31
0.0
  0
LINE
  5
120D8
  8
1-中柱カバ-P
 10
25717.043888484211
 20
16757.086252000001
 30
0.0
 11
25717.043888484211
 21
16816.386252000011
 31
0.0
  0
ARC
  5
120D9
  8
1-中柱カバ-P
 10
25723.64388848421
 20
16816.386252000011
 30
0.0
 40
6.599999999999997
 50
90.0
 51
180.0
  0
LINE
  5
120DA
  8
1-中柱カバ-P
 10
25718.64388848421
 20
16757.086252000001
 30
0.0
 11
25718.64388848421
 21
16816.386252000011
 31
0.0
  0
ARC
  5
120DB
  8
1-中柱カバ-P
 10
25723.64388848421
 20
16757.086252000001
 30
0.0
 40
5.0
 50
180.0
 51
270.0
  0
LINE
  5
120DC
  8
1-中柱カバ-P
 10
25723.64388848421
 20
16822.986251999999
 30
0.0
 11
25795.443888484198
 21
16822.986251999999
 31
0.0
  0
ARC
  5
120DD
  8
1-中柱カバ-P
 10
25795.443888484198
 20
16816.386252000011
 30
0.0
 40
6.599999999999997
 50
0.0
 51
90.0
  0
LINE
  5
120DE
  8
1-中柱カバ-P
 10
25723.64388848421
 20
16821.386252000011
 30
0.0
 11
25795.443888484198
 21
16821.386252000011
 31
0.0
  0
ARC
  5
120DF
  8
1-中柱カバ-P
 10
25795.443888484198
 20
16816.386252000011
 30
0.0
 40
5.0
 50
0.0
 51
90.0
  0
ARC
  5
120E0
  8
1-中柱カバ-P
 10
25723.64388848421
 20
16816.386252000011
 30
0.0
 40
5.0
 50
90.0
 51
180.0
  0
LINE
  5
120E1
  8
1-中柱カバ-P
 10
25802.043888484211
 20
16816.386252000011
 30
0.0
 11
25802.043888484211
 21
16757.086252000001
 31
0.0
  0
LINE
  5
120E2
  8
1-中柱カバ-P
 10
25800.443888484209
 20
16816.386252000011
 30
0.0
 11
25800.443888484209
 21
16757.086252000001
 31
0.0
  0
ARC
  5
120E3
  8
1-中柱カバ-P
 10
25795.443888484198
 20
16757.086252000001
 30
0.0
 40
5.0
 50
270.0
 51
0.0
  0
LINE
  5
120E4
  8
1-中柱カバ-P
  6
1PL-M
 62
     6
 10
25759.543888484211
 20
16815.486251999999
 30
0.0
 11
25759.543888484211
 21
16828.486251999992
 31
0.0
  0
LINE
  5
120E5
  8
1-中柱カバ-P
  6
HIDE-M
 62
     6
 10
25752.543888484211
 20
16822.986251999999
 30
0.0
 11
25752.543888484211
 21
16821.386252000011
 31
0.0
  0
LINE
  5
120E6
  8
1-中柱カバ-P
  6
HIDE-M
 62
     6
 10
25766.543888484211
 20
16822.986251999999
 30
0.0
 11
25766.543888484211
 21
16821.386252000011
 31
0.0
  0
ARC
  5
120E7
  8
1-中柱カバ-P
 10
25723.64388848421
 20
16757.086252000001
 30
0.0
 40
6.599999999999997
 50
180.0
 51
270.0
  0
ARC
  5
120E8
  8
1-中柱カバ-P
 10
25795.443888484198
 20
16757.086252000001
 30
0.0
 40
6.599999999999997
 50
270.0
 51
0.0
  0
LINE
  5
120E9
  8
1-中柱カバ-P
 10
25787.043888484211
 20
16750.486251999992
 30
0.0
 11
25795.443888484198
 21
16750.486251999992
 31
0.0
  0
LINE
  5
120EA
  8
1-中柱カバ-P
 10
25732.043888484211
 20
16750.486251999992
 30
0.0
 11
25723.64388848421
 21
16750.486251999992
 31
0.0
  0
LINE
  5
120EB
  8
1-中柱カバ-P
 10
25787.043888484211
 20
16752.086252000001
 30
0.0
 11
25795.443888484198
 21
16752.086252000001
 31
0.0
  0
LINE
  5
120EC
  8
1-中柱カバ-P
 10
25732.043888484211
 20
16752.086252000001
 30
0.0
 11
25723.64388848421
 21
16752.086252000001
 31
0.0
  0
LINE
  5
120ED
  8
1-中柱カバ-P
 10
25732.043888484211
 20
16752.086252000001
 30
0.0
 11
25732.043888484211
 21
16750.486251999992
 31
0.0
  0
LINE
  5
120EE
  8
1-中柱カバ-P
 10
25787.043888484211
 20
16750.486251999992
 30
0.0
 11
25787.043888484211
 21
16752.086252000001
 31
0.0
  0
LINE
  5
120EF
  8
1-中柱カバ-P
  6
HIDE-M
 62
     6
 10
25790.943888484209
 20
16771.486251999992
 30
0.0
 11
25802.543888484211
 21
16771.486251999992
 31
0.0
  0
LINE
  5
120F0
  8
1-中柱カバ-P
  6
HIDE-M
 62
     6
 10
25790.943888484209
 20
16779.486251999992
 30
0.0
 11
25802.543888484211
 21
16779.486251999992
 31
0.0
  0
LINE
  5
120F1
  8
1-中柱カバ-P
  6
HIDE-M
 62
     6
 10
25790.943888484209
 20
16772.486251999999
 30
0.0
 11
25802.543888484211
 21
16772.486251999999
 31
0.0
  0
LINE
  5
120F2
  8
1-中柱カバ-P
  6
HIDE-M
 62
     6
 10
25790.943888484209
 20
16778.486251999999
 30
0.0
 11
25802.543888484211
 21
16778.486251999999
 31
0.0
  0
LINE
  5
120F3
  8
1-中柱カバ-P
 10
25791.943888484209
 20
16780.986251999992
 30
0.0
 11
25798.943888484198
 21
16780.986251999992
 31
0.0
  0
LINE
  5
120F4
  8
1-中柱カバ-P
 10
25798.943888484198
 20
16769.986251999992
 30
0.0
 11
25791.943888484209
 21
16769.986251999992
 31
0.0
  0
LINE
  5
120F5
  8
1-中柱カバ-P
 10
25798.943888484198
 20
16769.236251999992
 30
0.0
 11
25798.943888484198
 21
16781.736251999992
 31
0.0
  0
LINE
  5
120F6
  8
1-中柱カバ-P
 10
25802.543888484211
 20
16769.486251999992
 30
0.0
 11
25802.543888484211
 21
16781.486251999992
 31
0.0
  0
LINE
  5
120F7
  8
1-中柱カバ-P
  6
HIDE-M
 62
     6
 10
25800.443888484209
 20
16780.986251999992
 30
0.0
 11
25802.043888484211
 21
16780.986251999992
 31
0.0
  0
LINE
  5
120F8
  8
1-中柱カバ-P
 10
25802.543888484211
 20
16781.486251999992
 30
0.0
 11
25802.043888484211
 21
16780.986251999992
 31
0.0
  0
ARC
  5
120F9
  8
1-中柱カバ-P
 10
25799.693888484209
 20
16781.736251999992
 30
0.0
 40
0.75
 50
0.0
 51
180.0
  0
LINE
  5
120FA
  8
1-中柱カバ-P
  6
HIDE-M
 62
     6
 10
25802.043888484211
 20
16769.986251999992
 30
0.0
 11
25800.443888484209
 21
16769.986251999992
 31
0.0
  0
LINE
  5
120FB
  8
1-中柱カバ-P
 10
25802.543888484211
 20
16769.486251999992
 30
0.0
 11
25802.043888484211
 21
16769.986251999992
 31
0.0
  0
ARC
  5
120FC
  8
1-中柱カバ-P
 10
25799.693888484209
 20
16769.236251999992
 30
0.0
 40
0.75
 50
180.0
 51
0.0
  0
LINE
  5
120FD
  8
1-中柱カバ-P
 10
25790.943888484209
 20
16770.986251999999
 30
0.0
 11
25790.943888484209
 21
16779.986251999992
 31
0.0
  0
ARC
  5
120FE
  8
1-中柱カバ-P
 10
25791.943888484209
 20
16779.986251999992
 30
0.0
 40
1.0
 50
90.0
 51
180.0
  0
ARC
  5
120FF
  8
1-中柱カバ-P
 10
25791.943888484209
 20
16770.986251999999
 30
0.0
 40
1.0
 50
180.0
 51
270.0
  0
LINE
  5
12100
  8
1-中柱カバ-P
  6
1PL-M
 62
     6
 10
25785.943888484198
 20
16775.486251999999
 30
0.0
 11
25807.543888484211
 21
16775.486251999999
 31
0.0
  0
LINE
  5
12101
  8
1-中柱カバ-P
 10
25791.943888484209
 20
16790.986251999992
 30
0.0
 11
25798.943888484198
 21
16790.986251999992
 31
0.0
  0
LINE
  5
12102
  8
1-中柱カバ-P
 10
25802.543888484211
 20
16783.486251999992
 30
0.0
 11
25802.543888484211
 21
16791.486251999992
 31
0.0
  0
LINE
  5
12103
  8
1-中柱カバ-P
  6
HIDE-M
 62
     6
 10
25800.443888484209
 20
16790.986251999992
 30
0.0
 11
25802.043888484211
 21
16790.986251999992
 31
0.0
  0
LINE
  5
12104
  8
1-中柱カバ-P
 10
25802.543888484211
 20
16791.486251999992
 30
0.0
 11
25802.043888484211
 21
16790.986251999992
 31
0.0
  0
ARC
  5
12105
  8
1-中柱カバ-P
 10
25799.693888484209
 20
16791.736251999992
 30
0.0
 40
0.75
 50
0.0
 51
180.0
  0
LINE
  5
12106
  8
1-中柱カバ-P
 10
25790.943888484209
 20
16781.986251999992
 30
0.0
 11
25790.943888484209
 21
16789.986251999999
 31
0.0
  0
ARC
  5
12107
  8
1-中柱カバ-P
 10
25791.943888484209
 20
16789.986251999999
 30
0.0
 40
1.0
 50
90.0
 51
180.0
  0
LINE
  5
12108
  8
1-中柱カバ-P
  6
1PL-M
 62
     6
 10
25785.943888484198
 20
16785.486251999992
 30
0.0
 11
25807.543888484211
 21
16785.486251999992
 31
0.0
  0
LINE
  5
12109
  8
1-中柱カバ-P
 10
25798.943888484198
 20
16783.736251999992
 30
0.0
 11
25798.943888484198
 21
16791.736251999992
 31
0.0
  0
LINE
  5
1210A
  8
1-中柱カバ-P
  6
HIDE-M
 62
     6
 10
25728.14388848421
 20
16771.486251999992
 30
0.0
 11
25716.543888484211
 21
16771.486251999992
 31
0.0
  0
LINE
  5
1210B
  8
1-中柱カバ-P
  6
HIDE-M
 62
     6
 10
25728.14388848421
 20
16779.486251999992
 30
0.0
 11
25716.543888484211
 21
16779.486251999992
 31
0.0
  0
LINE
  5
1210C
  8
1-中柱カバ-P
  6
HIDE-M
 62
     6
 10
25728.14388848421
 20
16772.486251999999
 30
0.0
 11
25716.543888484211
 21
16772.486251999999
 31
0.0
  0
LINE
  5
1210D
  8
1-中柱カバ-P
  6
HIDE-M
 62
     6
 10
25728.14388848421
 20
16778.486251999999
 30
0.0
 11
25716.543888484211
 21
16778.486251999999
 31
0.0
  0
LINE
  5
1210E
  8
1-中柱カバ-P
 10
25727.143888484199
 20
16780.986251999992
 30
0.0
 11
25720.14388848421
 21
16780.986251999992
 31
0.0
  0
LINE
  5
1210F
  8
1-中柱カバ-P
 10
25720.14388848421
 20
16769.986251999992
 30
0.0
 11
25727.143888484199
 21
16769.986251999992
 31
0.0
  0
LINE
  5
12110
  8
1-中柱カバ-P
 10
25720.14388848421
 20
16769.236251999992
 30
0.0
 11
25720.14388848421
 21
16781.736251999992
 31
0.0
  0
LINE
  5
12111
  8
1-中柱カバ-P
 10
25716.543888484211
 20
16769.486251999992
 30
0.0
 11
25716.543888484211
 21
16781.486251999992
 31
0.0
  0
LINE
  5
12112
  8
1-中柱カバ-P
  6
HIDE-M
 62
     6
 10
25718.64388848421
 20
16780.986251999992
 30
0.0
 11
25717.043888484211
 21
16780.986251999992
 31
0.0
  0
LINE
  5
12113
  8
1-中柱カバ-P
 10
25716.543888484211
 20
16781.486251999992
 30
0.0
 11
25717.043888484211
 21
16780.986251999992
 31
0.0
  0
ARC
  5
12114
  8
1-中柱カバ-P
 10
25719.393888484199
 20
16781.736251999992
 30
0.0
 40
0.75
 50
0.0
 51
180.0
  0
LINE
  5
12115
  8
1-中柱カバ-P
  6
HIDE-M
 62
     6
 10
25717.043888484211
 20
16769.986251999992
 30
0.0
 11
25718.64388848421
 21
16769.986251999992
 31
0.0
  0
LINE
  5
12116
  8
1-中柱カバ-P
 10
25716.543888484211
 20
16769.486251999992
 30
0.0
 11
25717.043888484211
 21
16769.986251999992
 31
0.0
  0
ARC
  5
12117
  8
1-中柱カバ-P
 10
25719.393888484199
 20
16769.236251999992
 30
0.0
 40
0.75
 50
180.0
 51
0.0
  0
LINE
  5
12118
  8
1-中柱カバ-P
 10
25728.14388848421
 20
16770.986251999999
 30
0.0
 11
25728.14388848421
 21
16779.986251999992
 31
0.0
  0
ARC
  5
12119
  8
1-中柱カバ-P
 10
25727.143888484199
 20
16779.986251999992
 30
0.0
 40
1.0
 50
0.0
 51
90.0
  0
ARC
  5
1211A
  8
1-中柱カバ-P
 10
25727.143888484199
 20
16770.986251999999
 30
0.0
 40
1.0
 50
270.0
 51
0.0
  0
LINE
  5
1211B
  8
1-中柱カバ-P
  6
1PL-M
 62
     6
 10
25733.14388848421
 20
16775.486251999999
 30
0.0
 11
25711.543888484211
 21
16775.486251999999
 31
0.0
  0
LINE
  5
1211C
  8
1-中柱カバ-P
 10
25727.143888484199
 20
16790.986251999992
 30
0.0
 11
25720.14388848421
 21
16790.986251999992
 31
0.0
  0
LINE
  5
1211D
  8
1-中柱カバ-P
 10
25716.543888484211
 20
16783.486251999992
 30
0.0
 11
25716.543888484211
 21
16791.486251999992
 31
0.0
  0
LINE
  5
1211E
  8
1-中柱カバ-P
  6
HIDE-M
 62
     6
 10
25718.64388848421
 20
16790.986251999992
 30
0.0
 11
25717.043888484211
 21
16790.986251999992
 31
0.0
  0
LINE
  5
1211F
  8
1-中柱カバ-P
 10
25716.543888484211
 20
16791.486251999992
 30
0.0
 11
25717.043888484211
 21
16790.986251999992
 31
0.0
  0
ARC
  5
12120
  8
1-中柱カバ-P
 10
25719.393888484199
 20
16791.736251999992
 30
0.0
 40
0.75
 50
0.0
 51
180.0
  0
LINE
  5
12121
  8
1-中柱カバ-P
 10
25728.14388848421
 20
16781.986251999992
 30
0.0
 11
25728.14388848421
 21
16789.986251999999
 31
0.0
  0
ARC
  5
12122
  8
1-中柱カバ-P
 10
25727.143888484199
 20
16789.986251999999
 30
0.0
 40
1.0
 50
0.0
 51
90.0
  0
LINE
  5
12123
  8
1-中柱カバ-P
  6
1PL-M
 62
     6
 10
25733.14388848421
 20
16785.486251999992
 30
0.0
 11
25711.543888484211
 21
16785.486251999992
 31
0.0
  0
LINE
  5
12124
  8
1-中柱カバ-P
 10
25720.14388848421
 20
16783.736251999992
 30
0.0
 11
25720.14388848421
 21
16791.736251999992
 31
0.0
  0
LINE
  5
12125
  8
1-中柱カバ-P
  6
HIDE-M
 62
     6
 10
25790.943888484209
 20
16789.486251999992
 30
0.0
 11
25802.543888484211
 21
16789.486251999992
 31
0.0
  0
LINE
  5
12126
  8
1-中柱カバ-P
  6
HIDE-M
 62
     6
 10
25790.943888484209
 20
16788.486251999992
 30
0.0
 11
25802.543888484211
 21
16788.486251999992
 31
0.0
  0
LINE
  5
12127
  8
1-中柱カバ-P
  6
HIDE-M
 62
     6
 10
25728.14388848421
 20
16789.486251999992
 30
0.0
 11
25716.543888484211
 21
16789.486251999992
 31
0.0
  0
LINE
  5
12128
  8
1-中柱カバ-P
  6
HIDE-M
 62
     6
 10
25728.14388848421
 20
16788.486251999992
 30
0.0
 11
25716.543888484211
 21
16788.486251999992
 31
0.0
  0
ARC
  5
12129
  8
1-前柱P
  6
HIDE-M
 62
     6
 10
25755.94388848422
 20
13900.886252
 30
0.0
 40
2.6000000000000001
 50
0.0
 51
90.0
  0
LINE
  5
1212A
  8
1-前柱P
  6
HIDE-M
 62
     6
 10
25767.543888484211
 20
13902.935642153199
 30
0.0
 11
25767.543888484211
 21
13899.286252
 31
0.0
  0
LINE
  5
1212B
  8
1-前柱P
  6
HIDE-M
 62
     6
 10
25757.543888484211
 20
13902.935642153199
 30
0.0
 11
25757.543888484211
 21
13899.286252
 31
0.0
  0
LINE
  5
1212C
  8
1-前柱P
  6
1PL-M
 62
     6
 10
25762.543888484211
 20
13908.486252000001
 30
0.0
 11
25762.543888484211
 21
13894.286252
 31
0.0
  0
ARC
  5
1212D
  8
1-前柱P
  6
HIDE-M
 62
     6
 10
25769.14388848421
 20
13900.886252
 30
0.0
 40
2.6000000000000001
 50
90.0
 51
180.0
  0
LINE
  5
1212E
  8
1-前柱P
  6
HIDE-M
 62
     6
 10
25758.543888484211
 20
13900.886252
 30
0.0
 11
25758.543888484211
 21
13899.286252
 31
0.0
  0
LINE
  5
1212F
  8
1-前柱P
  6
HIDE-M
 62
     6
 10
25766.543888484211
 20
13900.886252
 30
0.0
 11
25766.543888484211
 21
13899.286252
 31
0.0
  0
LINE
  5
12130
  8
1-前柱P
 10
25748.64388848421
 20
13788.58625200001
 30
0.0
 11
25770.44388848422
 21
13788.58625200001
 31
0.0
  0
LINE
  5
12131
  8
1-前柱P
 10
25800.44388848422
 20
13825.886252
 30
0.0
 11
25800.44388848422
 21
13818.586251999999
 31
0.0
  0
ARC
  5
12132
  8
1-前柱P
 10
25770.44388848422
 20
13818.586251999999
 30
0.0
 40
30.0
 50
270.0
 51
0.0
  0
ARC
  5
12133
  8
1-前柱P
 10
25770.44388848422
 20
13818.586251999999
 30
0.0
 40
31.600000000000001
 50
270.0
 51
0.0
  0
LINE
  5
12134
  8
1-前柱P
 10
25748.64388848421
 20
13786.986252000001
 30
0.0
 11
25770.44388848422
 21
13786.986252000001
 31
0.0
  0
LINE
  5
12135
  8
1-前柱P
 10
25802.043888484211
 20
13825.886252
 30
0.0
 11
25802.043888484211
 21
13818.586251999999
 31
0.0
  0
LINE
  5
12136
  8
1-前柱P
 10
25779.043888484211
 20
13847.486252000001
 30
0.0
 11
25779.043888484211
 21
13837.486252000001
 31
0.0
  0
LINE
  5
12137
  8
1-前柱P
 10
25777.443888484209
 20
13837.486252000001
 30
0.0
 11
25777.443888484209
 21
13847.486252000001
 31
0.0
  0
LINE
  5
12138
  8
1-前柱P
 10
25718.643888484221
 20
13825.886252
 30
0.0
 11
25718.643888484221
 21
13818.586251999999
 31
0.0
  0
ARC
  5
12139
  8
1-前柱P
 10
25748.64388848421
 20
13818.586251999999
 30
0.0
 40
30.0
 50
180.0
 51
270.0
  0
ARC
  5
1213A
  8
1-前柱P
 10
25748.64388848421
 20
13818.586251999999
 30
0.0
 40
31.600000000000001
 50
180.0
 51
270.0
  0
LINE
  5
1213B
  8
1-前柱P
 10
25717.043888484211
 20
13825.886252
 30
0.0
 11
25717.043888484211
 21
13818.586251999999
 31
0.0
  0
LINE
  5
1213C
  8
1-前柱P
 10
25723.64388848421
 20
13832.486252000001
 30
0.0
 11
25735.043888484211
 21
13832.486252000001
 31
0.0
  0
ARC
  5
1213D
  8
1-前柱P
 10
25723.64388848421
 20
13825.886252
 30
0.0
 40
6.599999999999997
 50
90.0
 51
180.0
  0
ARC
  5
1213E
  8
1-前柱P
 10
25735.043888484211
 20
13837.486252000001
 30
0.0
 40
5.0
 50
270.0
 51
0.0
  0
LINE
  5
1213F
  8
1-前柱P
 10
25723.64388848421
 20
13830.886252
 30
0.0
 11
25735.043888484211
 21
13830.886252
 31
0.0
  0
ARC
  5
12140
  8
1-前柱P
 10
25723.64388848421
 20
13825.886252
 30
0.0
 40
5.0
 50
90.0
 51
180.0
  0
LINE
  5
12141
  8
1-前柱P
 10
25740.043888484201
 20
13837.486252000001
 30
0.0
 11
25740.043888484201
 21
13896.886252
 31
0.0
  0
LINE
  5
12142
  8
1-前柱P
 10
25741.643888484221
 20
13837.486252000001
 30
0.0
 11
25741.643888484221
 21
13896.886252
 31
0.0
  0
ARC
  5
12143
  8
1-前柱P
 10
25735.043888484211
 20
13837.486252000001
 30
0.0
 40
6.599999999999997
 50
270.0
 51
0.0
  0
LINE
  5
12144
  8
1-前柱P
 10
25746.64388848421
 20
13903.486252000001
 30
0.0
 11
25780.043888484201
 21
13903.486252000001
 31
0.0
  0
ARC
  5
12145
  8
1-前柱P
 10
25746.64388848421
 20
13896.886252
 30
0.0
 40
6.599999999999997
 50
90.0
 51
180.0
  0
LINE
  5
12146
  8
1-前柱P
 10
25746.64388848421
 20
13901.886252
 30
0.0
 11
25780.043888484201
 21
13901.886252
 31
0.0
  0
ARC
  5
12147
  8
1-前柱P
 10
25746.64388848421
 20
13896.886252
 30
0.0
 40
5.0
 50
90.0
 51
180.0
  0
LINE
  5
12148
  8
1-前柱P
 10
25780.043888484201
 20
13901.886252
 30
0.0
 11
25780.043888484201
 21
13903.486252000001
 31
0.0
  0
LINE
  5
12149
  8
1-前柱P
 10
25795.44388848422
 20
13832.486252000001
 30
0.0
 11
25784.043888484211
 21
13832.486252000001
 31
0.0
  0
ARC
  5
1214A
  8
1-前柱P
 10
25795.44388848422
 20
13825.886252
 30
0.0
 40
6.599999999999997
 50
0.0
 51
90.0
  0
ARC
  5
1214B
  8
1-前柱P
 10
25784.043888484211
 20
13837.486252000001
 30
0.0
 40
5.0
 50
180.0
 51
270.0
  0
LINE
  5
1214C
  8
1-前柱P
 10
25784.043888484211
 20
13830.886252
 30
0.0
 11
25795.44388848422
 21
13830.886252
 31
0.0
  0
ARC
  5
1214D
  8
1-前柱P
 10
25784.043888484211
 20
13837.486252000001
 30
0.0
 40
6.599999999999997
 50
180.0
 51
270.0
  0
ARC
  5
1214E
  8
1-前柱P
 10
25795.44388848422
 20
13825.886252
 30
0.0
 40
5.0
 50
0.0
 51
90.0
  0
LINE
  5
1214F
  8
1-前柱P
 10
25779.043888484211
 20
13847.486252000001
 30
0.0
 11
25777.443888484209
 21
13847.486252000001
 31
0.0
  0
LINE
  5
12150
  8
1-前柱カバ-P
 10
25802.043888484211
 20
13839.18625199999
 30
0.0
 11
25802.043888484211
 21
13898.486252000001
 31
0.0
  0
ARC
  5
12151
  8
1-前柱カバ-P
 10
25795.44388848422
 20
13898.486252000001
 30
0.0
 40
6.599999999999997
 50
0.0
 51
90.0
  0
LINE
  5
12152
  8
1-前柱カバ-P
 10
25800.44388848422
 20
13839.18625199999
 30
0.0
 11
25800.44388848422
 21
13898.486252000001
 31
0.0
  0
ARC
  5
12153
  8
1-前柱カバ-P
 10
25795.44388848422
 20
13839.18625199999
 30
0.0
 40
5.0
 50
270.0
 51
0.0
  0
LINE
  5
12154
  8
1-前柱カバ-P
 10
25795.44388848422
 20
13905.086251999999
 30
0.0
 11
25723.64388848421
 21
13905.086251999999
 31
0.0
  0
ARC
  5
12155
  8
1-前柱カバ-P
 10
25723.64388848421
 20
13898.486252000001
 30
0.0
 40
6.599999999999997
 50
90.0
 51
180.0
  0
LINE
  5
12156
  8
1-前柱カバ-P
 10
25795.44388848422
 20
13903.486252000001
 30
0.0
 11
25723.64388848421
 21
13903.486252000001
 31
0.0
  0
ARC
  5
12157
  8
1-前柱カバ-P
 10
25723.64388848421
 20
13898.486252000001
 30
0.0
 40
5.0
 50
90.0
 51
180.0
  0
ARC
  5
12158
  8
1-前柱カバ-P
 10
25795.44388848422
 20
13898.486252000001
 30
0.0
 40
5.0
 50
0.0
 51
90.0
  0
LINE
  5
12159
  8
1-前柱カバ-P
 10
25717.043888484211
 20
13898.486252000001
 30
0.0
 11
25717.043888484211
 21
13839.18625199999
 31
0.0
  0
LINE
  5
1215A
  8
1-前柱カバ-P
 10
25718.643888484221
 20
13898.486252000001
 30
0.0
 11
25718.643888484221
 21
13839.18625199999
 31
0.0
  0
ARC
  5
1215B
  8
1-前柱カバ-P
 10
25723.64388848421
 20
13839.18625199999
 30
0.0
 40
5.0
 50
180.0
 51
270.0
  0
LINE
  5
1215C
  8
1-前柱カバ-P
  6
1PL-M
 62
     6
 10
25759.543888484211
 20
13897.586251999999
 30
0.0
 11
25759.543888484211
 21
13910.58625200001
 31
0.0
  0
LINE
  5
1215D
  8
1-前柱カバ-P
  6
HIDE-M
 62
     6
 10
25766.543888484211
 20
13905.086251999999
 30
0.0
 11
25766.543888484211
 21
13903.486252000001
 31
0.0
  0
LINE
  5
1215E
  8
1-前柱カバ-P
  6
HIDE-M
 62
     6
 10
25752.543888484211
 20
13905.086251999999
 30
0.0
 11
25752.543888484211
 21
13903.486252000001
 31
0.0
  0
ARC
  5
1215F
  8
1-前柱カバ-P
 10
25795.44388848422
 20
13839.18625199999
 30
0.0
 40
6.599999999999997
 50
270.0
 51
0.0
  0
ARC
  5
12160
  8
1-前柱カバ-P
 10
25723.64388848421
 20
13839.18625199999
 30
0.0
 40
6.599999999999997
 50
180.0
 51
270.0
  0
LINE
  5
12161
  8
1-前柱カバ-P
 10
25732.043888484211
 20
13832.586251999999
 30
0.0
 11
25723.64388848421
 21
13832.586251999999
 31
0.0
  0
LINE
  5
12162
  8
1-前柱カバ-P
 10
25787.043888484211
 20
13832.586251999999
 30
0.0
 11
25795.44388848422
 21
13832.586251999999
 31
0.0
  0
LINE
  5
12163
  8
1-前柱カバ-P
 10
25732.043888484211
 20
13834.186252
 30
0.0
 11
25723.64388848421
 21
13834.186252
 31
0.0
  0
LINE
  5
12164
  8
1-前柱カバ-P
 10
25787.043888484211
 20
13834.186252
 30
0.0
 11
25795.44388848422
 21
13834.186252
 31
0.0
  0
LINE
  5
12165
  8
1-前柱カバ-P
 10
25787.043888484211
 20
13834.186252
 30
0.0
 11
25787.043888484211
 21
13832.586251999999
 31
0.0
  0
LINE
  5
12166
  8
1-前柱カバ-P
 10
25732.043888484211
 20
13832.586251999999
 30
0.0
 11
25732.043888484211
 21
13834.186252
 31
0.0
  0
LINE
  5
12167
  8
1-前柱カバ-P
  6
HIDE-M
 62
     6
 10
25728.143888484221
 20
13853.586251999999
 30
0.0
 11
25716.543888484211
 21
13853.586251999999
 31
0.0
  0
LINE
  5
12168
  8
1-前柱カバ-P
  6
HIDE-M
 62
     6
 10
25728.143888484221
 20
13861.586251999999
 30
0.0
 11
25716.543888484211
 21
13861.586251999999
 31
0.0
  0
LINE
  5
12169
  8
1-前柱カバ-P
  6
HIDE-M
 62
     6
 10
25728.143888484221
 20
13854.586251999999
 30
0.0
 11
25716.543888484211
 21
13854.586251999999
 31
0.0
  0
LINE
  5
1216A
  8
1-前柱カバ-P
  6
HIDE-M
 62
     6
 10
25728.143888484221
 20
13860.586251999999
 30
0.0
 11
25716.543888484211
 21
13860.586251999999
 31
0.0
  0
LINE
  5
1216B
  8
1-前柱カバ-P
 10
25727.14388848421
 20
13863.086251999999
 30
0.0
 11
25720.14388848421
 21
13863.086251999999
 31
0.0
  0
LINE
  5
1216C
  8
1-前柱カバ-P
 10
25720.14388848421
 20
13852.08625199999
 30
0.0
 11
25727.14388848421
 21
13852.08625199999
 31
0.0
  0
LINE
  5
1216D
  8
1-前柱カバ-P
 10
25720.14388848421
 20
13851.33625199999
 30
0.0
 11
25720.14388848421
 21
13863.83625200001
 31
0.0
  0
LINE
  5
1216E
  8
1-前柱カバ-P
 10
25716.543888484211
 20
13851.58625199999
 30
0.0
 11
25716.543888484211
 21
13863.58625199999
 31
0.0
  0
LINE
  5
1216F
  8
1-前柱カバ-P
  6
HIDE-M
 62
     6
 10
25718.643888484221
 20
13863.086251999999
 30
0.0
 11
25717.043888484211
 21
13863.086251999999
 31
0.0
  0
LINE
  5
12170
  8
1-前柱カバ-P
 10
25716.543888484211
 20
13863.58625199999
 30
0.0
 11
25717.043888484211
 21
13863.086251999999
 31
0.0
  0
ARC
  5
12171
  8
1-前柱カバ-P
 10
25719.39388848421
 20
13863.83625200001
 30
0.0
 40
0.75
 50
0.0
 51
180.0
  0
LINE
  5
12172
  8
1-前柱カバ-P
  6
HIDE-M
 62
     6
 10
25717.043888484211
 20
13852.08625199999
 30
0.0
 11
25718.643888484221
 21
13852.08625199999
 31
0.0
  0
LINE
  5
12173
  8
1-前柱カバ-P
 10
25716.543888484211
 20
13851.58625199999
 30
0.0
 11
25717.043888484211
 21
13852.08625199999
 31
0.0
  0
ARC
  5
12174
  8
1-前柱カバ-P
 10
25719.39388848421
 20
13851.33625199999
 30
0.0
 40
0.75
 50
180.0
 51
0.0
  0
LINE
  5
12175
  8
1-前柱カバ-P
 10
25728.143888484221
 20
13853.08625199999
 30
0.0
 11
25728.143888484221
 21
13862.08625199999
 31
0.0
  0
ARC
  5
12176
  8
1-前柱カバ-P
 10
25727.14388848421
 20
13862.08625199999
 30
0.0
 40
1.0
 50
0.0
 51
90.0
  0
ARC
  5
12177
  8
1-前柱カバ-P
 10
25727.14388848421
 20
13853.08625199999
 30
0.0
 40
1.0
 50
270.0
 51
0.0
  0
LINE
  5
12178
  8
1-前柱カバ-P
  6
1PL-M
 62
     6
 10
25733.14388848421
 20
13857.586251999999
 30
0.0
 11
25711.543888484211
 21
13857.586251999999
 31
0.0
  0
LINE
  5
12179
  8
1-前柱カバ-P
 10
25727.14388848421
 20
13873.08625199999
 30
0.0
 11
25720.14388848421
 21
13873.08625199999
 31
0.0
  0
LINE
  5
1217A
  8
1-前柱カバ-P
 10
25716.543888484211
 20
13865.58625199999
 30
0.0
 11
25716.543888484211
 21
13873.586251999999
 31
0.0
  0
LINE
  5
1217B
  8
1-前柱カバ-P
  6
HIDE-M
 62
     6
 10
25718.643888484221
 20
13873.08625199999
 30
0.0
 11
25717.043888484211
 21
13873.08625199999
 31
0.0
  0
LINE
  5
1217C
  8
1-前柱カバ-P
 10
25716.543888484211
 20
13873.586251999999
 30
0.0
 11
25717.043888484211
 21
13873.08625199999
 31
0.0
  0
ARC
  5
1217D
  8
1-前柱カバ-P
 10
25719.39388848421
 20
13873.836251999999
 30
0.0
 40
0.75
 50
0.0
 51
180.0
  0
LINE
  5
1217E
  8
1-前柱カバ-P
 10
25728.143888484221
 20
13864.086251999999
 30
0.0
 11
25728.143888484221
 21
13872.08625199999
 31
0.0
  0
ARC
  5
1217F
  8
1-前柱カバ-P
 10
25727.14388848421
 20
13872.08625199999
 30
0.0
 40
1.0
 50
0.0
 51
90.0
  0
LINE
  5
12180
  8
1-前柱カバ-P
  6
1PL-M
 62
     6
 10
25733.14388848421
 20
13867.58625200001
 30
0.0
 11
25711.543888484211
 21
13867.58625200001
 31
0.0
  0
LINE
  5
12181
  8
1-前柱カバ-P
 10
25720.14388848421
 20
13865.83625200001
 30
0.0
 11
25720.14388848421
 21
13873.836251999999
 31
0.0
  0
LINE
  5
12182
  8
1-前柱カバ-P
  6
HIDE-M
 62
     6
 10
25790.94388848422
 20
13853.586251999999
 30
0.0
 11
25802.543888484211
 21
13853.586251999999
 31
0.0
  0
LINE
  5
12183
  8
1-前柱カバ-P
  6
HIDE-M
 62
     6
 10
25790.94388848422
 20
13861.586251999999
 30
0.0
 11
25802.543888484211
 21
13861.586251999999
 31
0.0
  0
LINE
  5
12184
  8
1-前柱カバ-P
  6
HIDE-M
 62
     6
 10
25790.94388848422
 20
13854.586251999999
 30
0.0
 11
25802.543888484211
 21
13854.586251999999
 31
0.0
  0
LINE
  5
12185
  8
1-前柱カバ-P
  6
HIDE-M
 62
     6
 10
25790.94388848422
 20
13860.586251999999
 30
0.0
 11
25802.543888484211
 21
13860.586251999999
 31
0.0
  0
LINE
  5
12186
  8
1-前柱カバ-P
 10
25791.94388848422
 20
13863.086251999999
 30
0.0
 11
25798.94388848422
 21
13863.086251999999
 31
0.0
  0
LINE
  5
12187
  8
1-前柱カバ-P
 10
25798.94388848422
 20
13852.08625199999
 30
0.0
 11
25791.94388848422
 21
13852.08625199999
 31
0.0
  0
LINE
  5
12188
  8
1-前柱カバ-P
 10
25798.94388848422
 20
13851.33625199999
 30
0.0
 11
25798.94388848422
 21
13863.83625200001
 31
0.0
  0
LINE
  5
12189
  8
1-前柱カバ-P
 10
25802.543888484211
 20
13851.58625199999
 30
0.0
 11
25802.543888484211
 21
13863.58625199999
 31
0.0
  0
LINE
  5
1218A
  8
1-前柱カバ-P
  6
HIDE-M
 62
     6
 10
25800.44388848422
 20
13863.086251999999
 30
0.0
 11
25802.043888484211
 21
13863.086251999999
 31
0.0
  0
LINE
  5
1218B
  8
1-前柱カバ-P
 10
25802.543888484211
 20
13863.58625199999
 30
0.0
 11
25802.043888484211
 21
13863.086251999999
 31
0.0
  0
ARC
  5
1218C
  8
1-前柱カバ-P
 10
25799.69388848422
 20
13863.83625200001
 30
0.0
 40
0.75
 50
0.0
 51
180.0
  0
LINE
  5
1218D
  8
1-前柱カバ-P
  6
HIDE-M
 62
     6
 10
25802.043888484211
 20
13852.08625199999
 30
0.0
 11
25800.44388848422
 21
13852.08625199999
 31
0.0
  0
LINE
  5
1218E
  8
1-前柱カバ-P
 10
25802.543888484211
 20
13851.58625199999
 30
0.0
 11
25802.043888484211
 21
13852.08625199999
 31
0.0
  0
ARC
  5
1218F
  8
1-前柱カバ-P
 10
25799.69388848422
 20
13851.33625199999
 30
0.0
 40
0.75
 50
180.0
 51
0.0
  0
LINE
  5
12190
  8
1-前柱カバ-P
 10
25790.94388848422
 20
13853.08625199999
 30
0.0
 11
25790.94388848422
 21
13862.08625199999
 31
0.0
  0
ARC
  5
12191
  8
1-前柱カバ-P
 10
25791.94388848422
 20
13862.08625199999
 30
0.0
 40
1.0
 50
90.0
 51
180.0
  0
ARC
  5
12192
  8
1-前柱カバ-P
 10
25791.94388848422
 20
13853.08625199999
 30
0.0
 40
1.0
 50
180.0
 51
270.0
  0
LINE
  5
12193
  8
1-前柱カバ-P
  6
1PL-M
 62
     6
 10
25785.94388848422
 20
13857.586251999999
 30
0.0
 11
25807.543888484211
 21
13857.586251999999
 31
0.0
  0
LINE
  5
12194
  8
1-前柱カバ-P
 10
25791.94388848422
 20
13873.08625199999
 30
0.0
 11
25798.94388848422
 21
13873.08625199999
 31
0.0
  0
LINE
  5
12195
  8
1-前柱カバ-P
 10
25802.543888484211
 20
13865.58625199999
 30
0.0
 11
25802.543888484211
 21
13873.586251999999
 31
0.0
  0
LINE
  5
12196
  8
1-前柱カバ-P
  6
HIDE-M
 62
     6
 10
25800.44388848422
 20
13873.08625199999
 30
0.0
 11
25802.043888484211
 21
13873.08625199999
 31
0.0
  0
LINE
  5
12197
  8
1-前柱カバ-P
 10
25802.543888484211
 20
13873.586251999999
 30
0.0
 11
25802.043888484211
 21
13873.08625199999
 31
0.0
  0
ARC
  5
12198
  8
1-前柱カバ-P
 10
25799.69388848422
 20
13873.836251999999
 30
0.0
 40
0.75
 50
0.0
 51
180.0
  0
LINE
  5
12199
  8
1-前柱カバ-P
 10
25790.94388848422
 20
13864.086251999999
 30
0.0
 11
25790.94388848422
 21
13872.08625199999
 31
0.0
  0
ARC
  5
1219A
  8
1-前柱カバ-P
 10
25791.94388848422
 20
13872.08625199999
 30
0.0
 40
1.0
 50
90.0
 51
180.0
  0
LINE
  5
1219B
  8
1-前柱カバ-P
  6
1PL-M
 62
     6
 10
25785.94388848422
 20
13867.58625200001
 30
0.0
 11
25807.543888484211
 21
13867.58625200001
 31
0.0
  0
LINE
  5
1219C
  8
1-前柱カバ-P
 10
25798.94388848422
 20
13865.83625200001
 30
0.0
 11
25798.94388848422
 21
13873.836251999999
 31
0.0
  0
LINE
  5
1219D
  8
1-前柱カバ-P
  6
HIDE-M
 62
     6
 10
25728.143888484221
 20
13871.58625199999
 30
0.0
 11
25716.543888484211
 21
13871.58625199999
 31
0.0
  0
LINE
  5
1219E
  8
1-前柱カバ-P
  6
HIDE-M
 62
     6
 10
25728.143888484221
 20
13870.58625199999
 30
0.0
 11
25716.543888484211
 21
13870.58625199999
 31
0.0
  0
LINE
  5
1219F
  8
1-前柱カバ-P
  6
HIDE-M
 62
     6
 10
25790.94388848422
 20
13871.58625199999
 30
0.0
 11
25802.543888484211
 21
13871.58625199999
 31
0.0
  0
LINE
  5
121A0
  8
1-前柱カバ-P
  6
HIDE-M
 62
     6
 10
25790.94388848422
 20
13870.58625199999
 30
0.0
 11
25802.543888484211
 21
13870.58625199999
 31
0.0
  0
LINE
  5
121B3
  8
0-6
  6
CONTINUOUS
 62
     6
 10
24309.468183662811
 20
13192.487109999989
 30
0.0
 11
25309.467524662799
 21
13192.487109999989
 31
0.0
  0
TEXT
  5
121B4
  8
0-6
  6
CONTINUOUS
 62
     7
 10
24405.468447662799
 20
13272.48737399998
 30
0.0
 40
160.0
  1
前柱（P）
 72
     4
 11
24805.468447662799
 21
13352.48737399998
 31
0.0
  0
LINE
  5
121B5
  8
0-6
  6
CONTINUOUS
 62
     6
 10
25714.543888484211
 20
13778.486252000001
 30
0.0
 11
25309.467524662799
 21
13192.487109999989
 31
0.0
  0
LINE
  5
121B6
  8
0-6
  6
CONTINUOUS
 62
     6
 10
24309.468183662811
 20
16080.047909954121
 30
0.0
 11
25309.467524662799
 21
16080.047909954121
 31
0.0
  0
TEXT
  5
121B7
  8
0-6
  6
CONTINUOUS
 62
     7
 10
24405.468447662799
 20
16160.048173954099
 30
0.0
 40
160.0
  1
中柱（P）
 72
     4
 11
24805.468447662799
 21
16240.048173954099
 31
0.0
  0
LINE
  5
121B8
  8
0-6
  6
CONTINUOUS
 62
     6
 10
25714.543888484211
 20
16666.047051954109
 30
0.0
 11
25309.467524662799
 21
16080.047909954121
 31
0.0
  0
LINE
  5
121B9
  8
0-6
  6
CONTINUOUS
 62
     6
 10
23968.406293193279
 20
14393.476989828871
 30
0.0
 11
25424.406293193279
 21
14393.47698982888
 31
0.0
  0
TEXT
  5
121BA
  8
0-6
  6
CONTINUOUS
 62
     7
 10
24008.411566445691
 20
14473.47725382886
 30
0.0
 40
160.0
  1
前柱カバー（P）
 72
     4
 11
24696.411566445691
 21
14553.47725382886
 31
0.0
  0
LINE
  5
121BB
  8
0-6
  6
CONTINUOUS
 62
     6
 10
25723.643888484228
 20
13905.086251999999
 30
0.0
 11
25424.406293193279
 21
14393.47698982888
 31
0.0
  0
LINE
  5
121BC
  8
0-6
  6
CONTINUOUS
 62
     6
 10
23968.406293193279
 20
17300.976553828881
 30
0.0
 11
25424.406293193279
 21
17300.976553828881
 31
0.0
  0
TEXT
  5
121BD
  8
0-6
  6
CONTINUOUS
 62
     7
 10
24008.411566445691
 20
17380.976817828861
 30
0.0
 40
160.0
  1
中柱カバー（P）
 72
     4
 11
24696.411566445691
 21
17460.976817828861
 31
0.0
  0
LINE
  5
121BE
  8
0-6
  6
CONTINUOUS
 62
     6
 10
25723.643888484228
 20
16812.585815999999
 30
0.0
 11
25424.406293193279
 21
17300.976553828881
 31
0.0
  0
LINE
  5
121BF
  8
0-6
  6
CONTINUOUS
 62
     6
 10
24309.468183662811
 20
20307.923617045872
 30
0.0
 11
25309.467524662799
 21
20307.923617045872
 31
0.0
  0
TEXT
  5
121C0
  8
0-6
  6
CONTINUOUS
 62
     7
 10
24405.468447662792
 20
20387.923881045848
 30
0.0
 40
160.0
  1
後柱（P）
 72
     4
 11
24805.468447662792
 21
20467.923881045848
 31
0.0
  0
LINE
  5
121C1
  8
0-6
  6
CONTINUOUS
 62
     6
 10
25714.543888484211
 20
19721.924475045871
 30
0.0
 11
25309.467524662799
 21
20307.923617045872
 31
0.0
  0
LINE
  5
121C2
  8
0-6
  6
CONTINUOUS
 62
     6
 10
23968.406293193271
 20
19086.994973171109
 30
0.0
 11
25424.406293193279
 21
19086.994973171109
 31
0.0
  0
TEXT
  5
121C3
  8
0-6
  6
CONTINUOUS
 62
     7
 10
24008.411566445691
 20
19166.995237171112
 30
0.0
 40
160.0
  1
後柱カバー（P）
 72
     4
 11
24696.411566445691
 21
19246.995237171112
 31
0.0
  0
LINE
  5
121C4
  8
0-6
  6
CONTINUOUS
 62
     6
 10
25723.64388848421
 20
19575.385710999992
 30
0.0
 11
25424.406293193279
 21
19086.994973171109
 31
0.0
  0
LINE
  5
12216
  8
SUNPOU
  6
CONTINUOUS
 10
7142.6052530427178
 20
19890.984140500012
 30
0.0
 11
7142.6052530427178
 21
20687.951408278459
 31
0.0
  0
LINE
  5
12217
  8
SUNPOU
  6
CONTINUOUS
 10
7142.6052530427041
 20
12867.17308084781
 30
0.0
 11
7142.6052530427041
 21
13608.48567099998
 31
0.0
  0
LINE
  5
1221D
  8
0-1
  6
CONTINUOUS
 62
     3
 10
13126.766336370019
 20
6291.1885389999998
 30
0.0
 11
13126.766336370019
 21
8152.2344180000036
 31
0.0
  0
LINE
  5
1221E
  8
0-1
  6
CONTINUOUS
 62
     3
 10
13111.76455537002
 20
6291.1885389999998
 30
0.0
 11
13111.76455537002
 21
8152.2344180000036
 31
0.0
  0
LINE
  5
1221F
  8
0-1
  6
CONTINUOUS
 62
     3
 10
12692.11472404282
 20
16920.976421443698
 30
0.0
 11
12692.11472404282
 21
19860.988495000001
 31
0.0
  0
LINE
  5
12220
  8
0-1
  6
CONTINUOUS
 62
     3
 10
12729.114896042831
 20
16905.760884784031
 30
0.0
 11
12729.114896042831
 21
19860.988495000001
 31
0.0
  0
LINE
  5
12221
  8
0-1
  6
CONTINUOUS
 62
     3
 10
12892.115384042831
 20
16838.730388257951
 30
0.0
 11
12892.115384042831
 21
19860.988495000001
 31
0.0
  0
LINE
  5
12222
  8
0-1
  6
CONTINUOUS
 62
     3
 10
12929.11555604284
 20
16823.514851598251
 30
0.0
 11
12929.11555604284
 21
19860.988495000001
 31
0.0
  0
LINE
  5
12223
  8
0-1
  6
CONTINUOUS
 62
     3
 10
13092.116044042839
 20
16756.484355072182
 30
0.0
 11
13092.116044042839
 21
19860.988495000001
 31
0.0
  0
LINE
  5
12224
  8
0-1
  6
CONTINUOUS
 62
     3
 10
13129.116216042839
 20
16741.268818412482
 30
0.0
 11
13129.116216042839
 21
19860.988495000001
 31
0.0
  0
LINE
  5
12225
  8
0-1
  6
CONTINUOUS
 62
     3
 10
13292.11670404285
 20
16674.238321886402
 30
0.0
 11
13292.11670404285
 21
19860.988495000001
 31
0.0
  0
LINE
  5
12226
  8
0-1
  6
CONTINUOUS
 62
     3
 10
13329.11687604285
 20
16659.02278522672
 30
0.0
 11
13329.11687604285
 21
19860.988495000001
 31
0.0
  0
LINE
  5
12227
  8
0-6
  6
CONTINUOUS
 62
     6
 10
12599.424465206461
 20
14225.688088307459
 30
0.0
 11
12373.0755598496
 21
13997.962313412751
 31
0.0
  0
LINE
  5
12228
  8
0-6
  6
CONTINUOUS
 62
     6
 10
11493.074635849591
 20
13997.962313412751
 30
0.0
 11
12373.0755598496
 21
13997.962313412751
 31
0.0
  0
TEXT
  5
12229
  8
0-6
  6
CONTINUOUS
 62
     7
 10
11573.07588984959
 20
14088.463013412749
 30
0.0
 40
160.0
  1
ブレース
 72
     4
 11
11935.742556516259
 21
14173.79634674609
 31
0.0
  0
TEXT
  5
1222A
  8
0-6
  6
CONTINUOUS
 62
     7
 10
11565.718807681351
 20
12888.48527499999
 30
0.0
 40
160.0
  1
梁（P）前
 72
     4
 11
12008.385474348021
 21
12968.48527499999
 31
0.0
  0
LINE
  5
1222B
  8
0-6
  6
CONTINUOUS
 62
     6
 10
12487.16831261994
 20
12808.48600099999
 30
0.0
 11
11492.894509098051
 21
12808.48600099999
 31
0.0
  0
TEXT
  5
1222C
  8
0-6
  6
CONTINUOUS
 62
     7
 10
14259.46292922765
 20
13016.78188978347
 30
0.0
 40
160.0
  1
桁前（PU）+ 桁補強（PU）
 72
     4
 11
15507.46292922765
 21
13096.78188978347
 31
0.0
  0
LINE
  5
1222D
  8
0-6
  6
CONTINUOUS
 62
     6
 10
16796.12579083872
 20
12915.235322594341
 30
0.0
 11
14213.45145808332
 21
12915.235322594341
 31
0.0
  0
TEXT
  5
1222E
  8
0-6
  6
CONTINUOUS
 62
     7
 10
13968.36860442553
 20
15378.48943889057
 30
0.0
 40
160.0
  1
桁（PU）B + 桁補強（PU）
 72
     4
 11
15248.36860442553
 21
15458.48943889057
 31
0.0
  0
LINE
  5
1222F
  8
0-6
  6
CONTINUOUS
 62
     6
 10
16620.808336133181
 20
15286.9713410122
 30
0.0
 11
13855.3464002747
 21
15286.9713410122
 31
0.0
  0
TEXT
  5
12230
  8
0-6
  6
CONTINUOUS
 62
     7
 10
13968.36860442553
 20
18296.489438890541
 30
0.0
 40
160.0
  1
桁（PU）B + 桁補強（PU）
 72
     4
 11
15248.36860442553
 21
18376.489438890541
 31
0.0
  0
LINE
  5
12231
  8
0-6
  6
CONTINUOUS
 62
     6
 10
16620.808336133181
 20
18204.971341012191
 30
0.0
 11
13855.3464002747
 21
18204.971341012191
 31
0.0
  0
TEXT
  5
12232
  8
0-6
  6
CONTINUOUS
 62
     7
 10
13968.36860442553
 20
16837.489439890542
 30
0.0
 40
160.0
  1
桁（PU）A + 桁補強（PU）
 72
     4
 11
15248.36860442553
 21
16917.489439890542
 31
0.0
  0
LINE
  5
12233
  8
0-6
  6
CONTINUOUS
 62
     6
 10
16620.808336133181
 20
16745.971342012192
 30
0.0
 11
13855.3464002747
 21
16745.971342012192
 31
0.0
  0
TEXT
  5
12234
  8
0-6
  6
CONTINUOUS
 62
     7
 10
13968.36860442553
 20
19761.491338890552
 30
0.0
 40
160.0
  1
桁（PU）A + 桁補強（PU）
 72
     4
 11
15248.36860442553
 21
19841.491338890552
 31
0.0
  0
LINE
  5
12235
  8
0-6
  6
CONTINUOUS
 62
     6
 10
16620.808336133181
 20
19669.973241012191
 30
0.0
 11
13855.3464002747
 21
19669.973241012191
 31
0.0
  0
LINE
  5
12236
  8
0-6
  6
CONTINUOUS
 62
     6
 10
13222.40375932389
 20
13795.986899
 30
0.0
 11
14213.45145808332
 21
12915.235322594341
 31
0.0
  0
LINE
  5
12237
  8
0-6
  6
CONTINUOUS
 62
     6
 10
13855.3464002747
 20
16745.971342012192
 30
0.0
 11
12793.19772887163
 21
16287.17678460459
 31
0.0
  0
LINE
  5
12238
  8
0-6
  6
CONTINUOUS
 62
     6
 10
12793.19772887163
 20
16287.17678460459
 30
0.0
 11
12535.573358080601
 21
16705.485857000011
 31
0.0
  0
LINE
  5
12239
  8
0-6
  6
CONTINUOUS
 62
     6
 10
13855.3464002747
 20
15286.9713410122
 30
0.0
 11
12793.19772887163
 21
14828.1767836046
 31
0.0
  0
LINE
  5
1223A
  8
0-6
  6
CONTINUOUS
 62
     6
 10
12793.19772887163
 20
14828.1767836046
 30
0.0
 11
12535.573358080601
 21
15246.48585600003
 31
0.0
  0
LINE
  5
1223B
  8
0-6
  6
CONTINUOUS
 62
     6
 10
13855.3464002747
 20
18204.971341012191
 30
0.0
 11
12793.19772887163
 21
17746.176783604591
 31
0.0
  0
LINE
  5
1223C
  8
0-6
  6
CONTINUOUS
 62
     6
 10
12793.19772887163
 20
17746.176783604591
 30
0.0
 11
12535.573358080601
 21
18164.485855999999
 31
0.0
  0
LINE
  5
1223D
  8
0-6
  6
CONTINUOUS
 62
     6
 10
13855.3464002747
 20
19669.973241012191
 30
0.0
 11
12793.19772887163
 21
19211.17868360459
 31
0.0
  0
LINE
  5
1223E
  8
0-6
  6
CONTINUOUS
 62
     6
 10
12793.19772887163
 20
19211.17868360459
 30
0.0
 11
12535.573358080601
 21
19629.487755999991
 31
0.0
  0
CIRCLE
  5
1223F
  8
0-5
  6
CONTINUOUS
 62
     4
 10
15128.71667799999
 20
1375.999981999998
 30
0.0
 40
20.0
  0
ARC
  5
12240
  8
0-5
  6
CONTINUOUS
 62
     4
 10
15128.71667799999
 20
1375.999981999998
 30
0.0
 40
20.0
 50
180.0
 51
0.0
  0
ARC
  5
12241
  8
0-5
  6
CONTINUOUS
 62
     4
 10
15128.71667799999
 20
1375.999981999998
 30
0.0
 40
20.0
 50
0.0
 51
179.99998499999839
  0
CIRCLE
  5
12242
  8
0-5
  6
CONTINUOUS
 62
     4
 10
15128.71667799999
 20
1775.999321999996
 30
0.0
 40
20.0
  0
ARC
  5
12243
  8
0-5
  6
CONTINUOUS
 62
     4
 10
15128.71667799999
 20
1775.999321999996
 30
0.0
 40
20.0
 50
180.0
 51
0.0
  0
ARC
  5
12244
  8
0-5
  6
CONTINUOUS
 62
     4
 10
15128.71667799999
 20
1775.999321999996
 30
0.0
 40
20.0
 50
0.0
 51
179.99998499999839
  0
TEXT
  5
12245
  8
0-5
  6
CONTINUOUS
 62
     7
 10
16661.217403999992
 20
1655.999791999998
 30
0.0
 40
160.0
  1
H
  0
TEXT
  5
12246
  8
0-5
  6
CONTINUOUS
 62
     7
 10
15176.146933
 20
1655.999791999998
 30
0.0
 40
160.0
  1
（ ）内寸法ハ、  タイプヲ示ス。
  0
TEXT
  5
12247
  8
0-5
  6
CONTINUOUS
 62
     7
 10
15288.716216000001
 20
1255.9994619999991
 30
0.0
 40
160.0
  1
有効高サハ、基礎高サヲ含ミマセン。
  0
LINE
  5
12248
  8
0-1
  6
CONTINUOUS
 62
     3
 10
8692.1074630427229
 20
18563.73410448142
 30
0.0
 11
8692.1074630427229
 21
19860.988495000001
 31
0.0
  0
LINE
  5
12249
  8
0-1
  6
CONTINUOUS
 62
     3
 10
8729.1076350427229
 20
18548.651022170488
 30
0.0
 11
8729.1076350427229
 21
19860.988495000001
 31
0.0
  0
LINE
  5
1224A
  8
0-1
  6
CONTINUOUS
 62
     3
 10
8892.1071340427261
 20
18482.204442947641
 30
0.0
 11
8892.1071340427261
 21
19860.988495000001
 31
0.0
  0
LINE
  5
1224B
  8
0-1
  6
CONTINUOUS
 62
     3
 10
8929.1082950427135
 20
18467.120957471881
 30
0.0
 11
8929.1082950427135
 21
19860.988495000001
 31
0.0
  0
LINE
  5
1224C
  8
0-1
  6
CONTINUOUS
 62
     3
 10
8292.1081220427295
 20
18726.7934271413
 30
0.0
 11
8292.1081220427295
 21
19860.988495000001
 31
0.0
  0
LINE
  5
1224D
  8
0-1
  6
CONTINUOUS
 62
     3
 10
8329.1082940427314
 20
18711.710344830361
 30
0.0
 11
8329.1082940427314
 21
19860.988495000001
 31
0.0
  0
LINE
  5
1224E
  8
0-1
  6
CONTINUOUS
 62
     3
 10
8492.1077930427327
 20
18645.26376560752
 30
0.0
 11
8492.1077930427327
 21
19860.988495000001
 31
0.0
  0
LINE
  5
1224F
  8
0-1
  6
CONTINUOUS
 62
     3
 10
8529.1089540427201
 20
18630.180280131761
 30
0.0
 11
8529.1089540427201
 21
19860.988495000001
 31
0.0
  0
LINE
  5
12250
  8
0-6
  6
CONTINUOUS
 62
     6
 10
8712.5830649452291
 20
13882.54202431779
 30
0.0
 11
8804.2704069452466
 21
14016.349562317801
 31
0.0
  0
LINE
  5
12251
  8
0-6
  6
CONTINUOUS
 62
     6
 10
8842.7116679452283
 20
13979.38205231778
 30
0.0
 11
8712.5830649452291
 21
13882.54202431779
 31
0.0
  0
LINE
  5
12252
  8
0-6
  6
CONTINUOUS
 62
     6
 10
8842.7116679452283
 20
13979.38205231778
 30
0.0
 11
8804.2704069452466
 21
14016.349562317801
 31
0.0
  0
LINE
  5
12253
  8
0-6
  6
CONTINUOUS
 62
     6
 10
8823.4915329452415
 20
13997.86481731779
 30
0.0
 11
8971.0775089452254
 21
14134.88115581778
 31
0.0
  0
LINE
  5
12256
  8
WAKUSEN-01
 10
868.00000000000193
 20
22484.000000000011
 30
0.0
 11
32764.000000000011
 21
22484.000000000011
 31
0.0
  0
LINE
  5
12259
  8
WAKUSEN-01
 10
20560.0
 20
2484.0
 30
0.0
 11
32764.0
 21
2484.0
 31
0.0
  0
LINE
  5
1225A
  8
WAKUSEN-02
 10
20560.0
 20
1655.9999999999991
 30
0.0
 11
26868.0
 21
1655.9999999999991
 31
0.0
  0
TEXT
  5
1225B
  8
WAKUMOJI-01
 10
20670.260259962761
 20
2125.9030093393221
 30
0.0
 40
240.0
  1
名　称
  7
WAKUMOJI
  0
TEXT
  5
1225C
  8
WAKUMOJI-01
 10
20656.505485091919
 20
1319.12897497982
 30
0.0
 40
240.0
  1
機種名
  7
WAKUMOJI
  0
LINE
  5
1225F
  8
YODOROGO
 10
29977.604341291921
 20
1995.7494964292871
 30
0.0
 11
29829.604341291921
 21
1995.7494964292871
 31
0.0
1001
AUTOCAD_POSTSCRIPT_FIGURE
1002
{
1000
PSFILL
1000
Grayscale
1000
Grayscale
1070
    25
1002
}
  0
LINE
  5
12260
  8
YODOROGO
 10
29829.604341291921
 20
1947.749496429288
 30
0.0
 11
29977.604341291921
 21
1947.749496429288
 31
0.0
1001
AUTOCAD_POSTSCRIPT_FIGURE
1002
{
1000
PSFILL
1000
Grayscale
1000
Grayscale
1070
    25
1002
}
  0
LINE
  5
12261
  8
YODOROGO
 10
29977.604341291921
 20
1907.7494964292871
 30
0.0
 11
29829.604341291921
 21
1907.7494964292871
 31
0.0
1001
AUTOCAD_POSTSCRIPT_FIGURE
1002
{
1000
PSFILL
1000
Grayscale
1000
Grayscale
1070
    25
1002
}
  0
LINE
  5
12262
  8
YODOROGO
 10
29829.604341291921
 20
1859.749496429288
 30
0.0
 11
29977.604341291921
 21
1859.749496429288
 31
0.0
1001
AUTOCAD_POSTSCRIPT_FIGURE
1002
{
1000
PSFILL
1000
Grayscale
1000
Grayscale
1070
    25
1002
}
  0
LINE
  5
12263
  8
YODOROGO
 10
29977.604341291921
 20
1819.7494964292871
 30
0.0
 11
29829.604341291921
 21
1819.7494964292871
 31
0.0
1001
AUTOCAD_POSTSCRIPT_FIGURE
1002
{
1000
PSFILL
1000
Grayscale
1000
Grayscale
1070
    25
1002
}
  0
LINE
  5
12264
  8
YODOROGO
 10
29921.60434129191
 20
1707.749496429288
 30
0.0
 11
29977.604341291921
 21
1707.749496429288
 31
0.0
1001
AUTOCAD_POSTSCRIPT_FIGURE
1002
{
1000
PSFILL
1000
Grayscale
1000
Grayscale
1070
    25
1002
}
  0
LINE
  5
12265
  8
YODOROGO
 10
29737.604341291921
 20
1427.749496429288
 30
0.0
 11
29937.604341291932
 21
1481.3393349155101
 31
0.0
  0
LINE
  5
12266
  8
YODOROGO
 10
29949.60434129191
 20
1707.749496429288
 30
0.0
 11
29885.604341291921
 21
1707.749496429288
 31
0.0
  0
ARC
  5
12267
  8
YODOROGO
 10
30254.34774982791
 20
1807.864609233261
 30
0.0
 40
381.88686420564721
 50
213.96111677667841
 51
264.47872074317792
  0
ARC
  5
12268
  8
YODOROGO
 10
30254.347749827921
 20
1807.864609233302
 30
0.0
 40
381.8868642056816
 50
208.14114420486601
 51
212.9210361185994
  0
LINE
  5
12269
  8
YODOROGO
 10
29771.409872985321
 20
1556.807661346234
 30
0.0
 11
29933.78413250855
 21
1600.3157130570869
 31
0.0
  0
LINE
  5
1226A
  8
YODOROGO
 10
29737.604341291921
 20
1427.749496429288
 30
0.0
 11
29937.604341291932
 21
1481.3393349155101
 31
0.0
  0
LINE
  5
1226B
  8
YODOROGO
 10
29949.60434129191
 20
1707.749496429288
 30
0.0
 11
29885.604341291921
 21
1707.749496429288
 31
0.0
  0
ARC
  5
1226C
  8
YODOROGO
 10
30254.34774982791
 20
1807.864609233261
 30
0.0
 40
381.88686420564721
 50
213.96111677667841
 51
264.47872074317792
  0
LINE
  5
1226D
  8
YODOROGO
 10
28793.60434129191
 20
1819.7494964292871
 30
0.0
 11
28433.60434129191
 21
1819.7494964292871
 31
0.0
  0
LINE
  5
1226E
  8
YODOROGO
 10
28513.60434129191
 20
1427.749496429288
 30
0.0
 11
28793.60434129191
 21
1427.749496429288
 31
0.0
  0
LINE
  5
1226F
  8
YODOROGO
 10
28729.604341291921
 20
1923.7494964292871
 30
0.0
 11
28497.60434129191
 21
1923.7494964292871
 31
0.0
  0
LINE
  5
12270
  8
YODOROGO
 10
28585.604341291921
 20
2027.749496429288
 30
0.0
 11
28657.604341291921
 21
2027.749496429288
 31
0.0
  0
LINE
  5
12271
  8
YODOROGO
 10
28433.60434129191
 20
1707.749496429288
 30
0.0
 11
28433.60434129191
 21
1507.749496429288
 31
0.0
  0
LINE
  5
12272
  8
YODOROGO
 10
28497.60434129191
 20
1563.7494964292871
 30
0.0
 11
28497.60434129191
 21
1707.749496429288
 31
0.0
  0
LINE
  5
12273
  8
YODOROGO
 10
28585.604341291921
 20
1747.74949642929
 30
0.0
 11
28585.604341291921
 21
1547.749496429288
 31
0.0
  0
LINE
  5
12274
  8
YODOROGO
 10
27857.604341291921
 20
1683.749496429288
 30
0.0
 11
27777.604341291921
 21
1619.9724140445701
 31
0.0
  0
LINE
  5
12275
  8
YODOROGO
 10
27937.604341291921
 20
1619.9724140445701
 30
0.0
 11
27857.604341291921
 21
1683.749496429288
 31
0.0
  0
LINE
  5
12276
  8
YODOROGO
 10
27857.604341291921
 20
1707.749496429288
 30
0.0
 11
27937.604341291921
 21
1643.9724140445701
 31
0.0
  0
LINE
  5
12277
  8
YODOROGO
 10
27777.604341291921
 20
1643.9724140445701
 30
0.0
 11
27857.604341291921
 21
1707.749496429288
 31
0.0
  0
LINE
  5
12278
  8
YODOROGO
 10
28040.913204016892
 20
1659.749496429288
 30
0.0
 11
28040.913204016892
 21
1683.7494964292871
 31
0.0
  0
LINE
  5
12279
  8
YODOROGO
 10
27977.604341291921
 20
1683.7494964292871
 30
0.0
 11
27977.604341291921
 21
1667.749496429285
 31
0.0
  0
LINE
  5
1227A
  8
YODOROGO
 10
28098.135520230931
 20
1707.749496429288
 30
0.0
 11
28098.135520230931
 21
1655.5036372746561
 31
0.0
1001
AUTOCAD_POSTSCRIPT_FIGURE
1002
{
1000
PSFILL
1000
Grayscale
1000
Grayscale
1070
   100
1002
}
  0
LINE
  5
1227B
  8
YODOROGO
 10
28082.135520230921
 20
1655.5036372746561
 30
0.0
 11
28082.135520230921
 21
1707.749496429288
 31
0.0
1001
AUTOCAD_POSTSCRIPT_FIGURE
1002
{
1000
PSFILL
1000
Grayscale
1000
Grayscale
1070
   100
1002
}
  0
LINE
  5
1227C
  8
YODOROGO
 10
27809.604341291921
 20
1608.771904043258
 30
0.0
 11
27809.604341291921
 21
1632.771904043258
 31
0.0
  0
LINE
  5
1227D
  8
YODOROGO
 10
27905.604341291921
 20
1608.771904043258
 30
0.0
 11
27809.604341291921
 21
1608.771904043258
 31
0.0
  0
LINE
  5
1227E
  8
YODOROGO
 10
27905.604341291921
 20
1632.771904043258
 30
0.0
 11
27905.604341291921
 21
1608.771904043258
 31
0.0
  0
LINE
  5
1227F
  8
YODOROGO
 10
27809.604341291921
 20
1632.771904043258
 30
0.0
 11
27905.604341291921
 21
1632.771904043258
 31
0.0
  0
LINE
  5
12280
  8
YODOROGO
 10
27824.509588915738
 20
1568.5028573704751
 30
0.0
 11
27785.604341291921
 21
1475.7494964292871
 31
0.0
1001
AUTOCAD_POSTSCRIPT_FIGURE
1002
{
1000
PSFILL
1000
Grayscale
1000
Grayscale
1070
   100
1002
}
  0
LINE
  5
12281
  8
YODOROGO
 10
27777.604341291921
 20
1568.5028573704751
 30
0.0
 11
27824.509588915738
 21
1568.5028573704751
 31
0.0
1001
AUTOCAD_POSTSCRIPT_FIGURE
1002
{
1000
PSFILL
1000
Grayscale
1000
Grayscale
1070
   100
1002
}
  0
LINE
  5
12282
  8
YODOROGO
 10
27777.604341291921
 20
1588.5028573704751
 30
0.0
 11
27777.604341291921
 21
1568.5028573704751
 31
0.0
1001
AUTOCAD_POSTSCRIPT_FIGURE
1002
{
1000
PSFILL
1000
Grayscale
1000
Grayscale
1070
   100
1002
}
  0
LINE
  5
12283
  8
YODOROGO
 10
27937.604341291921
 20
1588.5028573704751
 30
0.0
 11
27777.604341291921
 21
1588.5028573704751
 31
0.0
1001
AUTOCAD_POSTSCRIPT_FIGURE
1002
{
1000
PSFILL
1000
Grayscale
1000
Grayscale
1070
   100
1002
}
  0
LINE
  5
12284
  8
YODOROGO
 10
27937.604341291921
 20
1568.5028573704751
 30
0.0
 11
27937.604341291921
 21
1588.5028573704751
 31
0.0
1001
AUTOCAD_POSTSCRIPT_FIGURE
1002
{
1000
PSFILL
1000
Grayscale
1000
Grayscale
1070
   100
1002
}
  0
LINE
  5
12285
  8
YODOROGO
 10
27844.509588915738
 20
1568.5028573704751
 30
0.0
 11
27937.604341291921
 21
1568.5028573704751
 31
0.0
1001
AUTOCAD_POSTSCRIPT_FIGURE
1002
{
1000
PSFILL
1000
Grayscale
1000
Grayscale
1070
   100
1002
}
  0
LINE
  5
12286
  8
YODOROGO
 10
27815.546718284771
 20
1495.7494964292871
 30
0.0
 11
27844.509588915738
 21
1568.5028573704751
 31
0.0
1001
AUTOCAD_POSTSCRIPT_FIGURE
1002
{
1000
PSFILL
1000
Grayscale
1000
Grayscale
1070
   100
1002
}
  0
LINE
  5
12287
  8
YODOROGO
 10
27902.054790808648
 20
1495.7494964292871
 30
0.0
 11
27815.546718284771
 21
1495.7494964292871
 31
0.0
1001
AUTOCAD_POSTSCRIPT_FIGURE
1002
{
1000
PSFILL
1000
Grayscale
1000
Grayscale
1070
   100
1002
}
  0
LINE
  5
12288
  8
YODOROGO
 10
27885.065004790951
 20
1536.2338106976929
 30
0.0
 11
27902.054790808648
 21
1495.7494964292871
 31
0.0
1001
AUTOCAD_POSTSCRIPT_FIGURE
1002
{
1000
PSFILL
1000
Grayscale
1000
Grayscale
1070
   100
1002
}
  0
LINE
  5
12289
  8
YODOROGO
 10
27901.065004790951
 20
1536.2338106976929
 30
0.0
 11
27885.065004790951
 21
1536.2338106976929
 31
0.0
1001
AUTOCAD_POSTSCRIPT_FIGURE
1002
{
1000
PSFILL
1000
Grayscale
1000
Grayscale
1070
   100
1002
}
  0
LINE
  5
1228A
  8
YODOROGO
 10
27929.604341291921
 20
1475.7494964292871
 30
0.0
 11
27901.065004790951
 21
1536.2338106976929
 31
0.0
1001
AUTOCAD_POSTSCRIPT_FIGURE
1002
{
1000
PSFILL
1000
Grayscale
1000
Grayscale
1070
   100
1002
}
  0
LINE
  5
1228B
  8
YODOROGO
 10
27785.604341291921
 20
1475.7494964292871
 30
0.0
 11
27929.604341291921
 21
1475.7494964292871
 31
0.0
1001
AUTOCAD_POSTSCRIPT_FIGURE
1002
{
1000
PSFILL
1000
Grayscale
1000
Grayscale
1070
   100
1002
}
  0
LINE
  5
1228C
  8
YODOROGO
 10
27777.604341291921
 20
1619.9724140445701
 30
0.0
 11
27777.604341291921
 21
1643.9724140445701
 31
0.0
  0
LINE
  5
1228D
  8
YODOROGO
 10
27937.604341291921
 20
1643.9724140445701
 30
0.0
 11
27937.604341291921
 21
1619.9724140445701
 31
0.0
  0
ARC
  5
1228E
  8
YODOROGO
 10
28225.940442146959
 20
1600.877765325326
 30
0.0
 40
175.9999999999998
 50
280.3644312771313
 51
3.5414836592180561
  0
ARC
  5
1228F
  8
YODOROGO
 10
28235.756030759301
 20
1633.5978069619041
 30
0.0
 40
111.9999999999982
 50
281.24905825041549
 51
348.75094174958321
  0
LINE
  5
12290
  8
YODOROGO
 10
28257.604341291921
 20
1523.7494964292871
 30
0.0
 11
28257.604341291921
 21
1427.749496429288
 31
0.0
  0
LINE
  5
12291
  8
YODOROGO
 10
28020.088903736909
 20
1610.650565061914
 30
0.0
 11
28040.913204016892
 21
1659.749496429288
 31
0.0
  0
LINE
  5
12292
  8
YODOROGO
 10
28041.604341291921
 20
1583.120489948401
 30
0.0
 11
28020.088903736909
 21
1610.650565061914
 31
0.0
  0
LINE
  5
12293
  8
YODOROGO
 10
28041.604341291921
 20
1563.120489948398
 30
0.0
 11
28041.604341291921
 21
1583.120489948401
 31
0.0
  0
LINE
  5
12294
  8
YODOROGO
 10
28017.604341291921
 20
1585.2370637495301
 30
0.0
 11
28041.604341291921
 21
1563.120489948398
 31
0.0
  0
LINE
  5
12295
  8
YODOROGO
 10
28017.604341291921
 20
1475.7494964292871
 30
0.0
 11
28017.604341291921
 21
1585.2370637495301
 31
0.0
  0
LINE
  5
12296
  8
YODOROGO
 10
28001.604341291921
 20
1475.7494964292871
 30
0.0
 11
28017.604341291921
 21
1475.7494964292871
 31
0.0
  0
LINE
  5
12297
  8
YODOROGO
 10
28001.604341291921
 20
1580.0053496897469
 30
0.0
 11
28001.604341291921
 21
1475.7494964292871
 31
0.0
  0
LINE
  5
12298
  8
YODOROGO
 10
27977.604341291921
 20
1532.7680790334291
 30
0.0
 11
28001.604341291921
 21
1580.0053496897469
 31
0.0
  0
LINE
  5
12299
  8
YODOROGO
 10
27977.604341291921
 20
1556.76807903343
 30
0.0
 11
27977.604341291921
 21
1532.7680790334291
 31
0.0
  0
LINE
  5
1229A
  8
YODOROGO
 10
28025.828774291349
 20
1667.749496429285
 30
0.0
 11
27977.604341291921
 21
1556.76807903343
 31
0.0
  0
LINE
  5
1229B
  8
YODOROGO
 10
27977.604341291921
 20
1667.749496429285
 30
0.0
 11
28025.828774291349
 21
1667.749496429285
 31
0.0
  0
LINE
  5
1229C
  8
YODOROGO
 10
28050.135520230899
 20
1655.5036372746561
 30
0.0
 11
28082.135520230921
 21
1655.5036372746561
 31
0.0
1001
AUTOCAD_POSTSCRIPT_FIGURE
1002
{
1000
PSFILL
1000
Grayscale
1000
Grayscale
1070
   100
1002
}
  0
LINE
  5
1229D
  8
YODOROGO
 10
28050.135520230899
 20
1631.5036372746561
 30
0.0
 11
28050.135520230899
 21
1655.5036372746561
 31
0.0
1001
AUTOCAD_POSTSCRIPT_FIGURE
1002
{
1000
PSFILL
1000
Grayscale
1000
Grayscale
1070
   100
1002
}
  0
LINE
  5
1229E
  8
YODOROGO
 10
28082.135520230921
 20
1631.5036372746561
 30
0.0
 11
28050.135520230899
 21
1631.5036372746561
 31
0.0
1001
AUTOCAD_POSTSCRIPT_FIGURE
1002
{
1000
PSFILL
1000
Grayscale
1000
Grayscale
1070
   100
1002
}
  0
LINE
  5
1229F
  8
YODOROGO
 10
28082.135520230921
 20
1499.749496429288
 30
0.0
 11
28082.135520230921
 21
1631.5036372746561
 31
0.0
1001
AUTOCAD_POSTSCRIPT_FIGURE
1002
{
1000
PSFILL
1000
Grayscale
1000
Grayscale
1070
   100
1002
}
  0
LINE
  5
122A0
  8
YODOROGO
 10
28050.135520230921
 20
1499.749496429288
 30
0.0
 11
28082.135520230921
 21
1499.749496429288
 31
0.0
1001
AUTOCAD_POSTSCRIPT_FIGURE
1002
{
1000
PSFILL
1000
Grayscale
1000
Grayscale
1070
   100
1002
}
  0
LINE
  5
122A1
  8
YODOROGO
 10
28050.135520230921
 20
1475.7494964292871
 30
0.0
 11
28050.135520230921
 21
1499.749496429288
 31
0.0
1001
AUTOCAD_POSTSCRIPT_FIGURE
1002
{
1000
PSFILL
1000
Grayscale
1000
Grayscale
1070
   100
1002
}
  0
LINE
  5
122A2
  8
YODOROGO
 10
28137.604341291921
 20
1475.7494964292871
 30
0.0
 11
28050.135520230921
 21
1475.7494964292871
 31
0.0
1001
AUTOCAD_POSTSCRIPT_FIGURE
1002
{
1000
PSFILL
1000
Grayscale
1000
Grayscale
1070
   100
1002
}
  0
LINE
  5
122A3
  8
YODOROGO
 10
28137.604341291921
 20
1499.749496429288
 30
0.0
 11
28137.604341291921
 21
1475.7494964292871
 31
0.0
1001
AUTOCAD_POSTSCRIPT_FIGURE
1002
{
1000
PSFILL
1000
Grayscale
1000
Grayscale
1070
   100
1002
}
  0
LINE
  5
122A4
  8
YODOROGO
 10
28098.135520230931
 20
1499.749496429288
 30
0.0
 11
28137.604341291921
 21
1499.749496429288
 31
0.0
1001
AUTOCAD_POSTSCRIPT_FIGURE
1002
{
1000
PSFILL
1000
Grayscale
1000
Grayscale
1070
   100
1002
}
  0
LINE
  5
122A5
  8
YODOROGO
 10
28098.135520230931
 20
1631.5036372746561
 30
0.0
 11
28098.135520230931
 21
1499.749496429288
 31
0.0
1001
AUTOCAD_POSTSCRIPT_FIGURE
1002
{
1000
PSFILL
1000
Grayscale
1000
Grayscale
1070
   100
1002
}
  0
LINE
  5
122A6
  8
YODOROGO
 10
28137.604341291921
 20
1631.5036372746561
 30
0.0
 11
28098.135520230931
 21
1631.5036372746561
 31
0.0
1001
AUTOCAD_POSTSCRIPT_FIGURE
1002
{
1000
PSFILL
1000
Grayscale
1000
Grayscale
1070
   100
1002
}
  0
LINE
  5
122A7
  8
YODOROGO
 10
28137.604341291921
 20
1655.5036372746561
 30
0.0
 11
28137.604341291921
 21
1631.5036372746561
 31
0.0
1001
AUTOCAD_POSTSCRIPT_FIGURE
1002
{
1000
PSFILL
1000
Grayscale
1000
Grayscale
1070
   100
1002
}
  0
LINE
  5
122A8
  8
YODOROGO
 10
28098.135520230931
 20
1655.5036372746561
 30
0.0
 11
28137.604341291921
 21
1655.5036372746561
 31
0.0
1001
AUTOCAD_POSTSCRIPT_FIGURE
1002
{
1000
PSFILL
1000
Grayscale
1000
Grayscale
1070
   100
1002
}
  0
LINE
  5
122A9
  8
YODOROGO
 10
28401.60434129191
 20
1667.749496429288
 30
0.0
 11
28345.604341291921
 21
1667.749496429288
 31
0.0
  0
LINE
  5
122AA
  8
YODOROGO
 10
28401.60434129191
 20
1611.749496429288
 30
0.0
 11
28401.60434129191
 21
1667.749496429288
 31
0.0
  0
LINE
  5
122AB
  8
YODOROGO
 10
28345.604341291921
 20
1667.749496429288
 30
0.0
 11
28345.604341291921
 21
1611.749496429288
 31
0.0
  0
ARC
  5
122AC
  8
YODOROGO
 10
28513.60434129191
 20
1507.749496429288
 30
0.0
 40
80.0
 50
180.0
 51
270.0
  0
ARC
  5
122AD
  8
YODOROGO
 10
28537.604341291921
 20
1563.7494964292871
 30
0.0
 40
40.0
 50
180.0
 51
270.0
  0
LINE
  5
122AE
  8
YODOROGO
 10
28561.604341291932
 20
1523.7494964292871
 30
0.0
 11
28537.604341291921
 21
1523.7494964292871
 31
0.0
  0
ARC
  5
122AF
  8
YODOROGO
 10
28561.604341291932
 20
1547.749496429285
 30
0.0
 40
23.999999999996358
 50
270.0
 51
0.0000000000054281
  0
LINE
  5
122B0
  8
YODOROGO
 10
27801.604341291921
 20
1890.786580793706
 30
0.0
 11
27777.604341291921
 21
1843.776747951672
 31
0.0
1001
AUTOCAD_POSTSCRIPT_FIGURE
1002
{
1000
PSFILL
1000
Grayscale
1000
Grayscale
1070
   100
1002
}
  0
LINE
  5
122B1
  8
YODOROGO
 10
27801.604341291921
 20
1747.749496429286
 30
0.0
 11
27801.604341291921
 21
1890.786580793706
 31
0.0
1001
AUTOCAD_POSTSCRIPT_FIGURE
1002
{
1000
PSFILL
1000
Grayscale
1000
Grayscale
1070
   100
1002
}
  0
LINE
  5
122B2
  8
YODOROGO
 10
27817.604341291921
 20
1747.749496429286
 30
0.0
 11
27801.604341291921
 21
1747.749496429286
 31
0.0
1001
AUTOCAD_POSTSCRIPT_FIGURE
1002
{
1000
PSFILL
1000
Grayscale
1000
Grayscale
1070
   100
1002
}
  0
LINE
  5
122B3
  8
YODOROGO
 10
27817.604341291921
 20
1893.7713320852661
 30
0.0
 11
27817.604341291921
 21
1747.749496429286
 31
0.0
1001
AUTOCAD_POSTSCRIPT_FIGURE
1002
{
1000
PSFILL
1000
Grayscale
1000
Grayscale
1070
   100
1002
}
  0
LINE
  5
122B4
  8
YODOROGO
 10
27841.604341291921
 20
1867.6547582841361
 30
0.0
 11
27817.604341291921
 21
1893.7713320852661
 31
0.0
1001
AUTOCAD_POSTSCRIPT_FIGURE
1002
{
1000
PSFILL
1000
Grayscale
1000
Grayscale
1070
   100
1002
}
  0
LINE
  5
122B5
  8
YODOROGO
 10
27841.604341291921
 20
1883.6547582841361
 30
0.0
 11
27841.604341291921
 21
1867.6547582841361
 31
0.0
1001
AUTOCAD_POSTSCRIPT_FIGURE
1002
{
1000
PSFILL
1000
Grayscale
1000
Grayscale
1070
   100
1002
}
  0
LINE
  5
122B6
  8
YODOROGO
 10
27817.604341291921
 20
1917.7713320852649
 30
0.0
 11
27841.604341291921
 21
1883.6547582841361
 31
0.0
1001
AUTOCAD_POSTSCRIPT_FIGURE
1002
{
1000
PSFILL
1000
Grayscale
1000
Grayscale
1070
   100
1002
}
  0
LINE
  5
122B7
  8
YODOROGO
 10
27817.604341291921
 20
1939.749496429288
 30
0.0
 11
27817.604341291921
 21
1917.7713320852649
 31
0.0
1001
AUTOCAD_POSTSCRIPT_FIGURE
1002
{
1000
PSFILL
1000
Grayscale
1000
Grayscale
1070
   100
1002
}
  0
LINE
  5
122B8
  8
YODOROGO
 10
27889.604341291921
 20
1939.749496429288
 30
0.0
 11
27817.604341291921
 21
1939.749496429288
 31
0.0
1001
AUTOCAD_POSTSCRIPT_FIGURE
1002
{
1000
PSFILL
1000
Grayscale
1000
Grayscale
1070
   100
1002
}
  0
LINE
  5
122B9
  8
YODOROGO
 10
27889.604341291921
 20
1900.5683489363
 30
0.0
 11
27889.604341291921
 21
1939.749496429288
 31
0.0
1001
AUTOCAD_POSTSCRIPT_FIGURE
1002
{
1000
PSFILL
1000
Grayscale
1000
Grayscale
1070
   100
1002
}
  0
LINE
  5
122BA
  8
YODOROGO
 10
27857.604341291921
 20
1900.5683489363
 30
0.0
 11
27889.604341291921
 21
1900.5683489363
 31
0.0
1001
AUTOCAD_POSTSCRIPT_FIGURE
1002
{
1000
PSFILL
1000
Grayscale
1000
Grayscale
1070
   100
1002
}
  0
LINE
  5
122BB
  8
YODOROGO
 10
27857.604341291921
 20
1884.568348936298
 30
0.0
 11
27857.604341291921
 21
1900.5683489363
 31
0.0
1001
AUTOCAD_POSTSCRIPT_FIGURE
1002
{
1000
PSFILL
1000
Grayscale
1000
Grayscale
1070
   100
1002
}
  0
LINE
  5
122BC
  8
YODOROGO
 10
27889.604341291921
 20
1884.568348936298
 30
0.0
 11
27857.604341291921
 21
1884.568348936298
 31
0.0
1001
AUTOCAD_POSTSCRIPT_FIGURE
1002
{
1000
PSFILL
1000
Grayscale
1000
Grayscale
1070
   100
1002
}
  0
LINE
  5
122BD
  8
YODOROGO
 10
27889.604341291921
 20
1879.6191779644371
 30
0.0
 11
27889.604341291921
 21
1884.568348936298
 31
0.0
1001
AUTOCAD_POSTSCRIPT_FIGURE
1002
{
1000
PSFILL
1000
Grayscale
1000
Grayscale
1070
   100
1002
}
  0
LINE
  5
122BE
  8
YODOROGO
 10
27849.604341291921
 20
1812.974981161417
 30
0.0
 11
27889.604341291921
 21
1879.6191779644371
 31
0.0
1001
AUTOCAD_POSTSCRIPT_FIGURE
1002
{
1000
PSFILL
1000
Grayscale
1000
Grayscale
1070
   100
1002
}
  0
LINE
  5
122BF
  8
YODOROGO
 10
27849.604341291921
 20
1796.9749811614161
 30
0.0
 11
27849.604341291921
 21
1812.974981161417
 31
0.0
1001
AUTOCAD_POSTSCRIPT_FIGURE
1002
{
1000
PSFILL
1000
Grayscale
1000
Grayscale
1070
   100
1002
}
  0
LINE
  5
122C0
  8
YODOROGO
 10
27889.604341291921
 20
1847.6191779644359
 30
0.0
 11
27849.604341291921
 21
1796.9749811614161
 31
0.0
1001
AUTOCAD_POSTSCRIPT_FIGURE
1002
{
1000
PSFILL
1000
Grayscale
1000
Grayscale
1070
   100
1002
}
  0
LINE
  5
122C1
  8
YODOROGO
 10
27889.604341291921
 20
1747.749496429286
 30
0.0
 11
27889.604341291921
 21
1847.6191779644359
 31
0.0
1001
AUTOCAD_POSTSCRIPT_FIGURE
1002
{
1000
PSFILL
1000
Grayscale
1000
Grayscale
1070
   100
1002
}
  0
LINE
  5
122C2
  8
YODOROGO
 10
27905.604341291921
 20
1747.749496429286
 30
0.0
 11
27889.604341291921
 21
1747.749496429286
 31
0.0
1001
AUTOCAD_POSTSCRIPT_FIGURE
1002
{
1000
PSFILL
1000
Grayscale
1000
Grayscale
1070
   100
1002
}
  0
LINE
  5
122C3
  8
YODOROGO
 10
27905.604341291921
 20
1849.409012158806
 30
0.0
 11
27905.604341291921
 21
1747.749496429286
 31
0.0
1001
AUTOCAD_POSTSCRIPT_FIGURE
1002
{
1000
PSFILL
1000
Grayscale
1000
Grayscale
1070
   100
1002
}
  0
LINE
  5
122C4
  8
YODOROGO
 10
27937.604341291921
 20
1796.9749811614161
 30
0.0
 11
27905.604341291921
 21
1849.409012158806
 31
0.0
1001
AUTOCAD_POSTSCRIPT_FIGURE
1002
{
1000
PSFILL
1000
Grayscale
1000
Grayscale
1070
   100
1002
}
  0
LINE
  5
122C5
  8
YODOROGO
 10
27937.604341291921
 20
1812.974981161417
 30
0.0
 11
27937.604341291921
 21
1796.9749811614161
 31
0.0
1001
AUTOCAD_POSTSCRIPT_FIGURE
1002
{
1000
PSFILL
1000
Grayscale
1000
Grayscale
1070
   100
1002
}
  0
LINE
  5
122C6
  8
YODOROGO
 10
27905.604341291921
 20
1881.4090121588081
 30
0.0
 11
27937.604341291921
 21
1812.974981161417
 31
0.0
1001
AUTOCAD_POSTSCRIPT_FIGURE
1002
{
1000
PSFILL
1000
Grayscale
1000
Grayscale
1070
   100
1002
}
  0
LINE
  5
122C7
  8
YODOROGO
 10
27905.604341291921
 20
1884.5683489363
 30
0.0
 11
27905.604341291921
 21
1881.4090121588081
 31
0.0
1001
AUTOCAD_POSTSCRIPT_FIGURE
1002
{
1000
PSFILL
1000
Grayscale
1000
Grayscale
1070
   100
1002
}
  0
LINE
  5
122C8
  8
YODOROGO
 10
27937.604341291921
 20
1884.568348936298
 30
0.0
 11
27905.604341291921
 21
1884.5683489363
 31
0.0
1001
AUTOCAD_POSTSCRIPT_FIGURE
1002
{
1000
PSFILL
1000
Grayscale
1000
Grayscale
1070
   100
1002
}
  0
LINE
  5
122C9
  8
YODOROGO
 10
27937.604341291921
 20
1900.5683489363
 30
0.0
 11
27937.604341291921
 21
1884.568348936298
 31
0.0
1001
AUTOCAD_POSTSCRIPT_FIGURE
1002
{
1000
PSFILL
1000
Grayscale
1000
Grayscale
1070
   100
1002
}
  0
LINE
  5
122CA
  8
YODOROGO
 10
27905.604341291921
 20
1900.5683489363
 30
0.0
 11
27937.604341291921
 21
1900.5683489363
 31
0.0
1001
AUTOCAD_POSTSCRIPT_FIGURE
1002
{
1000
PSFILL
1000
Grayscale
1000
Grayscale
1070
   100
1002
}
  0
LINE
  5
122CB
  8
YODOROGO
 10
27905.604341291921
 20
1939.749496429288
 30
0.0
 11
27905.604341291921
 21
1900.5683489363
 31
0.0
1001
AUTOCAD_POSTSCRIPT_FIGURE
1002
{
1000
PSFILL
1000
Grayscale
1000
Grayscale
1070
   100
1002
}
  0
LINE
  5
122CC
  8
YODOROGO
 10
27937.604341291921
 20
1939.749496429288
 30
0.0
 11
27905.604341291921
 21
1939.749496429288
 31
0.0
1001
AUTOCAD_POSTSCRIPT_FIGURE
1002
{
1000
PSFILL
1000
Grayscale
1000
Grayscale
1070
   100
1002
}
  0
LINE
  5
122CD
  8
YODOROGO
 10
27937.604341291921
 20
1955.7494964292871
 30
0.0
 11
27937.604341291921
 21
1939.749496429288
 31
0.0
1001
AUTOCAD_POSTSCRIPT_FIGURE
1002
{
1000
PSFILL
1000
Grayscale
1000
Grayscale
1070
   100
1002
}
  0
LINE
  5
122CE
  8
YODOROGO
 10
27905.604341291921
 20
1955.7494964292871
 30
0.0
 11
27937.604341291921
 21
1955.7494964292871
 31
0.0
1001
AUTOCAD_POSTSCRIPT_FIGURE
1002
{
1000
PSFILL
1000
Grayscale
1000
Grayscale
1070
   100
1002
}
  0
LINE
  5
122CF
  8
YODOROGO
 10
27905.604341291921
 20
1979.749496429288
 30
0.0
 11
27905.604341291921
 21
1955.7494964292871
 31
0.0
1001
AUTOCAD_POSTSCRIPT_FIGURE
1002
{
1000
PSFILL
1000
Grayscale
1000
Grayscale
1070
   100
1002
}
  0
LINE
  5
122D0
  8
YODOROGO
 10
27889.604341291921
 20
1979.749496429288
 30
0.0
 11
27905.604341291921
 21
1979.749496429288
 31
0.0
1001
AUTOCAD_POSTSCRIPT_FIGURE
1002
{
1000
PSFILL
1000
Grayscale
1000
Grayscale
1070
   100
1002
}
  0
LINE
  5
122D1
  8
YODOROGO
 10
27889.604341291921
 20
1955.7494964292871
 30
0.0
 11
27889.604341291921
 21
1979.749496429288
 31
0.0
1001
AUTOCAD_POSTSCRIPT_FIGURE
1002
{
1000
PSFILL
1000
Grayscale
1000
Grayscale
1070
   100
1002
}
  0
LINE
  5
122D2
  8
YODOROGO
 10
27865.604341291921
 20
1955.7494964292871
 30
0.0
 11
27889.604341291921
 21
1955.7494964292871
 31
0.0
1001
AUTOCAD_POSTSCRIPT_FIGURE
1002
{
1000
PSFILL
1000
Grayscale
1000
Grayscale
1070
   100
1002
}
  0
LINE
  5
122D3
  8
YODOROGO
 10
27865.604341291921
 20
1979.749496429288
 30
0.0
 11
27865.604341291921
 21
1955.7494964292871
 31
0.0
1001
AUTOCAD_POSTSCRIPT_FIGURE
1002
{
1000
PSFILL
1000
Grayscale
1000
Grayscale
1070
   100
1002
}
  0
LINE
  5
122D4
  8
YODOROGO
 10
27849.604341291921
 20
1979.749496429288
 30
0.0
 11
27865.604341291921
 21
1979.749496429288
 31
0.0
1001
AUTOCAD_POSTSCRIPT_FIGURE
1002
{
1000
PSFILL
1000
Grayscale
1000
Grayscale
1070
   100
1002
}
  0
LINE
  5
122D5
  8
YODOROGO
 10
27849.604341291921
 20
1955.7494964292871
 30
0.0
 11
27849.604341291921
 21
1979.749496429288
 31
0.0
1001
AUTOCAD_POSTSCRIPT_FIGURE
1002
{
1000
PSFILL
1000
Grayscale
1000
Grayscale
1070
   100
1002
}
  0
LINE
  5
122D6
  8
YODOROGO
 10
27817.604341291921
 20
1955.7494964292871
 30
0.0
 11
27849.604341291921
 21
1955.7494964292871
 31
0.0
1001
AUTOCAD_POSTSCRIPT_FIGURE
1002
{
1000
PSFILL
1000
Grayscale
1000
Grayscale
1070
   100
1002
}
  0
LINE
  5
122D7
  8
YODOROGO
 10
27817.604341291921
 20
1979.749496429288
 30
0.0
 11
27817.604341291921
 21
1955.7494964292871
 31
0.0
1001
AUTOCAD_POSTSCRIPT_FIGURE
1002
{
1000
PSFILL
1000
Grayscale
1000
Grayscale
1070
   100
1002
}
  0
LINE
  5
122D8
  8
YODOROGO
 10
27801.604341291921
 20
1979.749496429288
 30
0.0
 11
27817.604341291921
 21
1979.749496429288
 31
0.0
1001
AUTOCAD_POSTSCRIPT_FIGURE
1002
{
1000
PSFILL
1000
Grayscale
1000
Grayscale
1070
   100
1002
}
  0
LINE
  5
122D9
  8
YODOROGO
 10
27801.604341291921
 20
1955.7494964292871
 30
0.0
 11
27801.604341291921
 21
1979.749496429288
 31
0.0
1001
AUTOCAD_POSTSCRIPT_FIGURE
1002
{
1000
PSFILL
1000
Grayscale
1000
Grayscale
1070
   100
1002
}
  0
LINE
  5
122DA
  8
YODOROGO
 10
27777.604341291921
 20
1955.7494964292871
 30
0.0
 11
27801.604341291921
 21
1955.7494964292871
 31
0.0
1001
AUTOCAD_POSTSCRIPT_FIGURE
1002
{
1000
PSFILL
1000
Grayscale
1000
Grayscale
1070
   100
1002
}
  0
LINE
  5
122DB
  8
YODOROGO
 10
27777.604341291921
 20
1939.749496429288
 30
0.0
 11
27777.604341291921
 21
1955.7494964292871
 31
0.0
1001
AUTOCAD_POSTSCRIPT_FIGURE
1002
{
1000
PSFILL
1000
Grayscale
1000
Grayscale
1070
   100
1002
}
  0
LINE
  5
122DC
  8
YODOROGO
 10
27801.604341291921
 20
1939.749496429288
 30
0.0
 11
27777.604341291921
 21
1939.749496429288
 31
0.0
1001
AUTOCAD_POSTSCRIPT_FIGURE
1002
{
1000
PSFILL
1000
Grayscale
1000
Grayscale
1070
   100
1002
}
  0
LINE
  5
122DD
  8
YODOROGO
 10
27801.604341291921
 20
1914.7865807937051
 30
0.0
 11
27801.604341291921
 21
1939.749496429288
 31
0.0
1001
AUTOCAD_POSTSCRIPT_FIGURE
1002
{
1000
PSFILL
1000
Grayscale
1000
Grayscale
1070
   100
1002
}
  0
LINE
  5
122DE
  8
YODOROGO
 10
27777.604341291921
 20
1859.776747951671
 30
0.0
 11
27801.604341291921
 21
1914.7865807937051
 31
0.0
1001
AUTOCAD_POSTSCRIPT_FIGURE
1002
{
1000
PSFILL
1000
Grayscale
1000
Grayscale
1070
   100
1002
}
  0
LINE
  5
122DF
  8
YODOROGO
 10
27777.604341291921
 20
1843.776747951672
 30
0.0
 11
27777.604341291921
 21
1859.776747951671
 31
0.0
1001
AUTOCAD_POSTSCRIPT_FIGURE
1002
{
1000
PSFILL
1000
Grayscale
1000
Grayscale
1070
   100
1002
}
  0
LINE
  5
122E0
  8
YODOROGO
 10
28257.604341291921
 20
1867.7494964292871
 30
0.0
 11
28401.60434129191
 21
1824.877625640306
 31
0.0
1001
AUTOCAD_POSTSCRIPT_FIGURE
1002
{
1000
PSFILL
1000
Grayscale
1000
Grayscale
1070
   100
1002
}
  0
LINE
  5
122E1
  8
YODOROGO
 10
28401.60434129191
 20
1752.877625640306
 30
0.0
 11
28257.604341291921
 21
1795.7494964292871
 31
0.0
1001
AUTOCAD_POSTSCRIPT_FIGURE
1002
{
1000
PSFILL
1000
Grayscale
1000
Grayscale
1070
   100
1002
}
  0
LINE
  5
122E2
  8
YODOROGO
 10
28401.60434129191
 20
1984.877625640306
 30
0.0
 11
28257.604341291921
 21
2027.749496429288
 31
0.0
1001
AUTOCAD_POSTSCRIPT_FIGURE
1002
{
1000
PSFILL
1000
Grayscale
1000
Grayscale
1070
   100
1002
}
  0
LINE
  5
122E3
  8
YODOROGO
 10
28257.604341291921
 20
1959.749496429288
 30
0.0
 11
28401.60434129191
 21
1916.8776256403071
 31
0.0
1001
AUTOCAD_POSTSCRIPT_FIGURE
1002
{
1000
PSFILL
1000
Grayscale
1000
Grayscale
1070
   100
1002
}
  0
LINE
  5
122E4
  8
YODOROGO
 10
28257.604341291921
 20
1795.7494964292871
 30
0.0
 11
28257.604341291921
 21
1867.7494964292871
 31
0.0
1001
AUTOCAD_POSTSCRIPT_FIGURE
1002
{
1000
PSFILL
1000
Grayscale
1000
Grayscale
1070
   100
1002
}
  0
LINE
  5
122E5
  8
YODOROGO
 10
28257.604341291921
 20
2027.749496429288
 30
0.0
 11
28257.604341291921
 21
1959.749496429288
 31
0.0
1001
AUTOCAD_POSTSCRIPT_FIGURE
1002
{
1000
PSFILL
1000
Grayscale
1000
Grayscale
1070
   100
1002
}
  0
LINE
  5
122E6
  8
YODOROGO
 10
28080.236320206739
 20
1939.749496429288
 30
0.0
 11
28129.60434129191
 21
1747.749496429286
 31
0.0
1001
AUTOCAD_POSTSCRIPT_FIGURE
1002
{
1000
PSFILL
1000
Grayscale
1000
Grayscale
1070
   100
1002
}
  0
LINE
  5
122E7
  8
YODOROGO
 10
27977.604341291921
 20
1939.749496429288
 30
0.0
 11
28080.236320206739
 21
1939.749496429288
 31
0.0
1001
AUTOCAD_POSTSCRIPT_FIGURE
1002
{
1000
PSFILL
1000
Grayscale
1000
Grayscale
1070
   100
1002
}
  0
LINE
  5
122E8
  8
YODOROGO
 10
27977.604341291921
 20
1955.7494964292871
 30
0.0
 11
27977.604341291921
 21
1939.749496429288
 31
0.0
1001
AUTOCAD_POSTSCRIPT_FIGURE
1002
{
1000
PSFILL
1000
Grayscale
1000
Grayscale
1070
   100
1002
}
  0
LINE
  5
122E9
  8
YODOROGO
 10
28076.60687851991
 20
1955.7494964292871
 30
0.0
 11
27977.604341291921
 21
1955.7494964292871
 31
0.0
1001
AUTOCAD_POSTSCRIPT_FIGURE
1002
{
1000
PSFILL
1000
Grayscale
1000
Grayscale
1070
   100
1002
}
  0
LINE
  5
122EA
  8
YODOROGO
 10
28071.162715989711
 20
1979.749496429288
 30
0.0
 11
28076.60687851991
 21
1955.7494964292871
 31
0.0
1001
AUTOCAD_POSTSCRIPT_FIGURE
1002
{
1000
PSFILL
1000
Grayscale
1000
Grayscale
1070
   100
1002
}
  0
LINE
  5
122EB
  8
YODOROGO
 10
28091.162715989711
 20
1979.749496429288
 30
0.0
 11
28071.162715989711
 21
1979.749496429288
 31
0.0
1001
AUTOCAD_POSTSCRIPT_FIGURE
1002
{
1000
PSFILL
1000
Grayscale
1000
Grayscale
1070
   100
1002
}
  0
LINE
  5
122EC
  8
YODOROGO
 10
28095.806878519939
 20
1955.7494964292871
 30
0.0
 11
28091.162715989711
 21
1979.749496429288
 31
0.0
1001
AUTOCAD_POSTSCRIPT_FIGURE
1002
{
1000
PSFILL
1000
Grayscale
1000
Grayscale
1070
   100
1002
}
  0
LINE
  5
122ED
  8
YODOROGO
 10
28121.604341291921
 20
1955.7494964292871
 30
0.0
 11
28095.806878519939
 21
1955.7494964292871
 31
0.0
1001
AUTOCAD_POSTSCRIPT_FIGURE
1002
{
1000
PSFILL
1000
Grayscale
1000
Grayscale
1070
   100
1002
}
  0
LINE
  5
122EE
  8
YODOROGO
 10
28121.604341291921
 20
1979.749496429288
 30
0.0
 11
28121.604341291921
 21
1955.7494964292871
 31
0.0
1001
AUTOCAD_POSTSCRIPT_FIGURE
1002
{
1000
PSFILL
1000
Grayscale
1000
Grayscale
1070
   100
1002
}
  0
LINE
  5
122EF
  8
YODOROGO
 10
28137.604341291921
 20
1979.749496429288
 30
0.0
 11
28121.604341291921
 21
1979.749496429288
 31
0.0
1001
AUTOCAD_POSTSCRIPT_FIGURE
1002
{
1000
PSFILL
1000
Grayscale
1000
Grayscale
1070
   100
1002
}
  0
LINE
  5
122F0
  8
YODOROGO
 10
28137.604341291921
 20
1955.7494964292871
 30
0.0
 11
28137.604341291921
 21
1979.749496429288
 31
0.0
1001
AUTOCAD_POSTSCRIPT_FIGURE
1002
{
1000
PSFILL
1000
Grayscale
1000
Grayscale
1070
   100
1002
}
  0
LINE
  5
122F1
  8
YODOROGO
 10
28137.604341291921
 20
1939.749496429288
 30
0.0
 11
28137.604341291921
 21
1955.7494964292871
 31
0.0
1001
AUTOCAD_POSTSCRIPT_FIGURE
1002
{
1000
PSFILL
1000
Grayscale
1000
Grayscale
1070
   100
1002
}
  0
LINE
  5
122F2
  8
YODOROGO
 10
28098.902986873411
 20
1939.749496429288
 30
0.0
 11
28137.604341291921
 21
1939.749496429288
 31
0.0
1001
AUTOCAD_POSTSCRIPT_FIGURE
1002
{
1000
PSFILL
1000
Grayscale
1000
Grayscale
1070
   100
1002
}
  0
LINE
  5
122F3
  8
YODOROGO
 10
28137.604341291921
 20
1747.749496429286
 30
0.0
 11
28098.902986873411
 21
1939.749496429288
 31
0.0
1001
AUTOCAD_POSTSCRIPT_FIGURE
1002
{
1000
PSFILL
1000
Grayscale
1000
Grayscale
1070
   100
1002
}
  0
LINE
  5
122F4
  8
YODOROGO
 10
28129.60434129191
 20
1747.749496429286
 30
0.0
 11
28137.604341291921
 21
1747.749496429286
 31
0.0
1001
AUTOCAD_POSTSCRIPT_FIGURE
1002
{
1000
PSFILL
1000
Grayscale
1000
Grayscale
1070
   100
1002
}
  0
LINE
  5
122F5
  8
YODOROGO
 10
28078.06921993379
 20
1775.7407762987939
 30
0.0
 11
27977.604341291921
 21
1747.749496429286
 31
0.0
  0
LINE
  5
122F6
  8
YODOROGO
 10
28078.06921993379
 20
1798.6689795290731
 30
0.0
 11
28078.06921993379
 21
1775.7407762987939
 31
0.0
  0
LINE
  5
122F7
  8
YODOROGO
 10
28033.83678061287
 20
1786.816933133767
 30
0.0
 11
28078.06921993379
 21
1798.6689795290731
 31
0.0
  0
LINE
  5
122F8
  8
YODOROGO
 10
28033.83678061287
 20
1872.5683489362989
 30
0.0
 11
28033.83678061287
 21
1786.816933133767
 31
0.0
  0
LINE
  5
122F9
  8
YODOROGO
 10
28078.06921993379
 20
1872.5683489362989
 30
0.0
 11
28033.83678061287
 21
1872.5683489362989
 31
0.0
  0
LINE
  5
122FA
  8
YODOROGO
 10
28078.06921993379
 20
1892.568348936298
 30
0.0
 11
28078.06921993379
 21
1872.5683489362989
 31
0.0
  0
LINE
  5
122FB
  8
YODOROGO
 10
27977.604341291921
 20
1892.568348936298
 30
0.0
 11
28078.06921993379
 21
1892.568348936298
 31
0.0
  0
LINE
  5
122FC
  8
YODOROGO
 10
27977.604341291921
 20
1872.5683489362989
 30
0.0
 11
27977.604341291921
 21
1892.568348936298
 31
0.0
  0
LINE
  5
122FD
  8
YODOROGO
 10
28021.836780612852
 20
1872.5683489362989
 30
0.0
 11
27977.604341291921
 21
1872.5683489362989
 31
0.0
  0
LINE
  5
122FE
  8
YODOROGO
 10
28021.836780612852
 20
1784.673339594317
 30
0.0
 11
28021.836780612852
 21
1872.5683489362989
 31
0.0
  0
LINE
  5
122FF
  8
YODOROGO
 10
27977.604341291921
 20
1771.749496429286
 30
0.0
 11
28021.836780612852
 21
1784.673339594317
 31
0.0
  0
LINE
  5
12300
  8
YODOROGO
 10
27977.604341291921
 20
1747.749496429286
 30
0.0
 11
27977.604341291921
 21
1771.749496429286
 31
0.0
  0
LINE
  5
12301
  8
YODOROGO
 10
28001.604341291921
 20
1707.749496429288
 30
0.0
 11
28001.604341291921
 21
1683.7494964292871
 31
0.0
  0
LINE
  5
12302
  8
YODOROGO
 10
28017.604341291921
 20
1707.749496429288
 30
0.0
 11
28001.604341291921
 21
1707.749496429288
 31
0.0
  0
LINE
  5
12303
  8
YODOROGO
 10
28017.604341291921
 20
1683.7494964292871
 30
0.0
 11
28017.604341291921
 21
1707.749496429288
 31
0.0
  0
LINE
  5
12304
  8
YODOROGO
 10
28040.913204016892
 20
1683.7494964292871
 30
0.0
 11
28017.604341291921
 21
1683.7494964292871
 31
0.0
  0
LINE
  5
12305
  8
YODOROGO
 10
28001.604341291921
 20
1683.7494964292871
 30
0.0
 11
27977.604341291921
 21
1683.7494964292871
 31
0.0
  0
LINE
  5
12306
  8
YODOROGO
 10
28082.135520230921
 20
1707.749496429288
 30
0.0
 11
28098.135520230931
 21
1707.749496429288
 31
0.0
1001
AUTOCAD_POSTSCRIPT_FIGURE
1002
{
1000
PSFILL
1000
Grayscale
1000
Grayscale
1070
   100
1002
}
  0
LINE
  5
12307
  8
YODOROGO
 10
28401.60434129191
 20
1824.877625640306
 30
0.0
 11
28401.60434129191
 21
1752.877625640306
 31
0.0
1001
AUTOCAD_POSTSCRIPT_FIGURE
1002
{
1000
PSFILL
1000
Grayscale
1000
Grayscale
1070
   100
1002
}
  0
LINE
  5
12308
  8
YODOROGO
 10
28401.60434129191
 20
1916.8776256403071
 30
0.0
 11
28401.60434129191
 21
1984.877625640306
 31
0.0
1001
AUTOCAD_POSTSCRIPT_FIGURE
1002
{
1000
PSFILL
1000
Grayscale
1000
Grayscale
1070
   100
1002
}
  0
LINE
  5
12309
  8
YODOROGO
 10
28433.60434129191
 20
1819.7494964292871
 30
0.0
 11
28433.60434129191
 21
1747.74949642929
 31
0.0
  0
LINE
  5
1230A
  8
YODOROGO
 10
28497.60434129191
 20
1707.749496429288
 30
0.0
 11
28433.60434129191
 21
1707.749496429288
 31
0.0
  0
LINE
  5
1230B
  8
YODOROGO
 10
28433.60434129191
 20
1747.74949642929
 30
0.0
 11
28585.604341291921
 21
1747.74949642929
 31
0.0
  0
LINE
  5
1230C
  8
YODOROGO
 10
28497.60434129191
 20
1867.7494964292871
 30
0.0
 11
28433.60434129191
 21
1867.7494964292871
 31
0.0
  0
LINE
  5
1230D
  8
YODOROGO
 10
28497.60434129191
 20
1923.7494964292871
 30
0.0
 11
28497.60434129191
 21
1867.7494964292871
 31
0.0
  0
LINE
  5
1230E
  8
YODOROGO
 10
28585.604341291921
 20
1987.7494964292871
 30
0.0
 11
28585.604341291921
 21
2027.749496429288
 31
0.0
  0
LINE
  5
1230F
  8
YODOROGO
 10
28433.60434129191
 20
1987.7494964292871
 30
0.0
 11
28585.604341291921
 21
1987.7494964292871
 31
0.0
  0
LINE
  5
12310
  8
YODOROGO
 10
28433.60434129191
 20
1867.7494964292871
 30
0.0
 11
28433.60434129191
 21
1987.7494964292871
 31
0.0
  0
LINE
  5
12311
  8
YODOROGO
 10
29001.60434129191
 20
2027.749496429288
 30
0.0
 11
29001.60434129191
 21
1619.749496429288
 31
0.0
  0
LINE
  5
12312
  8
YODOROGO
 10
29073.604341291921
 20
1579.749496429288
 30
0.0
 11
29073.604341291921
 21
2027.749496429288
 31
0.0
  0
LINE
  5
12313
  8
YODOROGO
 10
29261.604341291921
 20
1491.749496429286
 30
0.0
 11
29261.604341291921
 21
2007.749496429288
 31
0.0
  0
LINE
  5
12314
  8
YODOROGO
 10
29197.604341291921
 20
2007.749496429288
 30
0.0
 11
29197.604341291921
 21
1491.749496429286
 31
0.0
  0
LINE
  5
12315
  8
YODOROGO
 10
29385.604341291921
 20
2027.749496429288
 30
0.0
 11
29385.604341291921
 21
1427.749496429288
 31
0.0
  0
LINE
  5
12316
  8
YODOROGO
 10
29457.604341291921
 20
1427.749496429288
 30
0.0
 11
29457.604341291921
 21
2027.749496429288
 31
0.0
  0
LINE
  5
12317
  8
YODOROGO
 10
28657.604341291921
 20
1667.749496429288
 30
0.0
 11
28657.604341291921
 21
1747.74949642929
 31
0.0
  0
LINE
  5
12318
  8
YODOROGO
 10
29885.604341291921
 20
1707.749496429288
 30
0.0
 11
29885.604341291921
 21
1667.749496429288
 31
0.0
  0
LINE
  5
12319
  8
YODOROGO
 10
29885.604341291921
 20
1707.749496429288
 30
0.0
 11
29885.604341291921
 21
1667.749496429288
 31
0.0
  0
ARC
  5
1231A
  8
YODOROGO
 10
28906.911576186842
 20
1618.217864442272
 30
0.0
 40
94.705151178741644
 50
274.05244162907098
 51
0.9266642149310712
  0
ARC
  5
1231B
  8
YODOROGO
 10
28909.186170719819
 20
1592.61072861044
 30
0.0
 40
164.92042356085511
 50
271.5351210653775
 51
355.52727750585052
  0
LINE
  5
1231C
  8
YODOROGO
 10
28913.604341291921
 20
1523.7494964292871
 30
0.0
 11
28913.604341291921
 21
1427.749496429288
 31
0.0
  0
LINE
  5
1231D
  8
YODOROGO
 10
28793.60434129191
 20
1667.749496429288
 30
0.0
 11
28657.604341291921
 21
1667.749496429288
 31
0.0
  0
LINE
  5
1231E
  8
YODOROGO
 10
28793.60434129191
 20
1603.7494964292871
 30
0.0
 11
28793.60434129191
 21
1667.749496429288
 31
0.0
  0
LINE
  5
1231F
  8
YODOROGO
 10
28657.604341291921
 20
1603.7494964292871
 30
0.0
 11
28793.60434129191
 21
1603.7494964292871
 31
0.0
  0
LINE
  5
12320
  8
YODOROGO
 10
28657.604341291921
 20
1523.7494964292871
 30
0.0
 11
28657.604341291921
 21
1603.7494964292871
 31
0.0
  0
LINE
  5
12321
  8
YODOROGO
 10
28793.60434129191
 20
1523.7494964292871
 30
0.0
 11
28657.604341291921
 21
1523.7494964292871
 31
0.0
  0
LINE
  5
12322
  8
YODOROGO
 10
28793.60434129191
 20
1427.749496429288
 30
0.0
 11
28793.60434129191
 21
1523.7494964292871
 31
0.0
  0
LINE
  5
12323
  8
YODOROGO
 10
29197.604341291921
 20
1491.749496429286
 30
0.0
 11
29261.604341291921
 21
1491.749496429286
 31
0.0
  0
LINE
  5
12324
  8
YODOROGO
 10
29385.604341291921
 20
1427.749496429288
 30
0.0
 11
29457.604341291921
 21
1427.749496429288
 31
0.0
  0
LINE
  5
12325
  8
YODOROGO
 10
29737.604341291921
 20
1528.4414521705639
 30
0.0
 11
29737.604341291921
 21
1427.749496429288
 31
0.0
  0
LINE
  5
12326
  8
YODOROGO
 10
29617.604341291921
 20
1427.749496429288
 30
0.0
 11
29737.604341291921
 21
1528.4414521705639
 31
0.0
  0
LINE
  5
12327
  8
YODOROGO
 10
29617.604341291921
 20
1547.749496429288
 30
0.0
 11
29617.604341291921
 21
1427.749496429288
 31
0.0
  0
LINE
  5
12328
  8
YODOROGO
 10
29712.94462869945
 20
1627.749496429288
 30
0.0
 11
29617.604341291921
 21
1547.749496429288
 31
0.0
  0
LINE
  5
12329
  8
YODOROGO
 10
29617.604341291921
 20
1627.749496429288
 30
0.0
 11
29712.94462869945
 21
1627.749496429288
 31
0.0
  0
LINE
  5
1232A
  8
YODOROGO
 10
29617.604341291921
 20
1667.749496429288
 30
0.0
 11
29617.604341291921
 21
1627.749496429288
 31
0.0
  0
LINE
  5
1232B
  8
YODOROGO
 10
29885.604341291921
 20
1667.749496429288
 30
0.0
 11
29617.604341291921
 21
1667.749496429288
 31
0.0
  0
LINE
  5
1232C
  8
YODOROGO
 10
29917.604341291921
 20
1627.749496429288
 30
0.0
 11
29777.604341291921
 21
1627.749496429288
 31
0.0
  0
LINE
  5
1232D
  8
YODOROGO
 10
29777.604341291921
 20
1562.0054374176559
 30
0.0
 11
29771.409872985321
 21
1556.807661346234
 31
0.0
  0
LINE
  5
1232E
  8
YODOROGO
 10
29777.604341291921
 20
1627.749496429288
 30
0.0
 11
29777.604341291921
 21
1562.0054374176559
 31
0.0
  0
LINE
  5
1232F
  8
YODOROGO
 10
29737.604341291921
 20
1528.4414521705639
 30
0.0
 11
29737.604341291921
 21
1427.749496429288
 31
0.0
  0
LINE
  5
12330
  8
YODOROGO
 10
29617.604341291921
 20
1427.749496429288
 30
0.0
 11
29737.604341291921
 21
1528.4414521705639
 31
0.0
  0
LINE
  5
12331
  8
YODOROGO
 10
29617.604341291921
 20
1547.749496429288
 30
0.0
 11
29617.604341291921
 21
1427.749496429288
 31
0.0
  0
LINE
  5
12332
  8
YODOROGO
 10
29712.94462869945
 20
1627.749496429288
 30
0.0
 11
29617.604341291921
 21
1547.749496429288
 31
0.0
  0
LINE
  5
12333
  8
YODOROGO
 10
29617.604341291921
 20
1627.749496429288
 30
0.0
 11
29712.94462869945
 21
1627.749496429288
 31
0.0
  0
LINE
  5
12334
  8
YODOROGO
 10
29617.604341291921
 20
1667.749496429288
 30
0.0
 11
29617.604341291921
 21
1627.749496429288
 31
0.0
  0
LINE
  5
12335
  8
YODOROGO
 10
29885.604341291921
 20
1667.749496429288
 30
0.0
 11
29617.604341291921
 21
1667.749496429288
 31
0.0
  0
LINE
  5
12336
  8
YODOROGO
 10
28793.60434129191
 20
1747.74949642929
 30
0.0
 11
28793.60434129191
 21
1819.7494964292871
 31
0.0
  0
LINE
  5
12337
  8
YODOROGO
 10
28657.604341291921
 20
1747.74949642929
 30
0.0
 11
28793.60434129191
 21
1747.74949642929
 31
0.0
  0
LINE
  5
12338
  8
YODOROGO
 10
28729.604341291921
 20
1867.7494964292871
 30
0.0
 11
28729.604341291921
 21
1923.7494964292871
 31
0.0
  0
LINE
  5
12339
  8
YODOROGO
 10
28793.60434129191
 20
1867.7494964292871
 30
0.0
 11
28729.604341291921
 21
1867.7494964292871
 31
0.0
  0
LINE
  5
1233A
  8
YODOROGO
 10
28793.60434129191
 20
1947.749496429288
 30
0.0
 11
28793.60434129191
 21
1867.7494964292871
 31
0.0
  0
ARC
  5
1233B
  8
YODOROGO
 10
28753.60434129191
 20
1947.749496429288
 30
0.0
 40
40.0
 50
0.0
 51
90.0
  0
LINE
  5
1233C
  8
YODOROGO
 10
28657.604341291921
 20
1987.7494964292871
 30
0.0
 11
28753.60434129191
 21
1987.7494964292871
 31
0.0
  0
LINE
  5
1233D
  8
YODOROGO
 10
28657.604341291921
 20
2027.749496429288
 30
0.0
 11
28657.604341291921
 21
1987.7494964292871
 31
0.0
  0
LINE
  5
1233E
  8
YODOROGO
 10
29073.604341291921
 20
2027.749496429288
 30
0.0
 11
29001.60434129191
 21
2027.749496429288
 31
0.0
  0
LINE
  5
1233F
  8
YODOROGO
 10
29261.604341291921
 20
2007.749496429288
 30
0.0
 11
29197.604341291921
 21
2007.749496429288
 31
0.0
  0
LINE
  5
12340
  8
YODOROGO
 10
29457.604341291921
 20
2027.749496429288
 30
0.0
 11
29385.604341291921
 21
2027.749496429288
 31
0.0
  0
LINE
  5
12341
  8
YODOROGO
 10
29673.604341291921
 20
1707.749496429288
 30
0.0
 11
29673.604341291921
 21
1771.7494964292871
 31
0.0
1001
AUTOCAD_POSTSCRIPT_FIGURE
1002
{
1000
PSFILL
1000
Grayscale
1000
Grayscale
1070
    25
1002
}
  0
LINE
  5
12342
  8
YODOROGO
 10
29617.604341291921
 20
1707.749496429288
 30
0.0
 11
29673.604341291921
 21
1707.749496429288
 31
0.0
1001
AUTOCAD_POSTSCRIPT_FIGURE
1002
{
1000
PSFILL
1000
Grayscale
1000
Grayscale
1070
    25
1002
}
  0
LINE
  5
12343
  8
YODOROGO
 10
29617.604341291921
 20
1819.7494964292871
 30
0.0
 11
29617.604341291921
 21
1707.749496429288
 31
0.0
1001
AUTOCAD_POSTSCRIPT_FIGURE
1002
{
1000
PSFILL
1000
Grayscale
1000
Grayscale
1070
    25
1002
}
  0
LINE
  5
12344
  8
YODOROGO
 10
29765.604341291921
 20
1819.7494964292871
 30
0.0
 11
29617.604341291921
 21
1819.7494964292871
 31
0.0
1001
AUTOCAD_POSTSCRIPT_FIGURE
1002
{
1000
PSFILL
1000
Grayscale
1000
Grayscale
1070
    25
1002
}
  0
LINE
  5
12345
  8
YODOROGO
 10
29765.604341291921
 20
1859.749496429288
 30
0.0
 11
29765.604341291921
 21
1819.7494964292871
 31
0.0
1001
AUTOCAD_POSTSCRIPT_FIGURE
1002
{
1000
PSFILL
1000
Grayscale
1000
Grayscale
1070
    25
1002
}
  0
LINE
  5
12346
  8
YODOROGO
 10
29617.604341291921
 20
1859.749496429288
 30
0.0
 11
29765.604341291921
 21
1859.749496429288
 31
0.0
1001
AUTOCAD_POSTSCRIPT_FIGURE
1002
{
1000
PSFILL
1000
Grayscale
1000
Grayscale
1070
    25
1002
}
  0
LINE
  5
12347
  8
YODOROGO
 10
29617.604341291921
 20
1907.7494964292871
 30
0.0
 11
29617.604341291921
 21
1859.749496429288
 31
0.0
1001
AUTOCAD_POSTSCRIPT_FIGURE
1002
{
1000
PSFILL
1000
Grayscale
1000
Grayscale
1070
    25
1002
}
  0
LINE
  5
12348
  8
YODOROGO
 10
29765.604341291921
 20
1907.7494964292871
 30
0.0
 11
29617.604341291921
 21
1907.7494964292871
 31
0.0
1001
AUTOCAD_POSTSCRIPT_FIGURE
1002
{
1000
PSFILL
1000
Grayscale
1000
Grayscale
1070
    25
1002
}
  0
LINE
  5
12349
  8
YODOROGO
 10
29765.604341291921
 20
1947.749496429288
 30
0.0
 11
29765.604341291921
 21
1907.7494964292871
 31
0.0
1001
AUTOCAD_POSTSCRIPT_FIGURE
1002
{
1000
PSFILL
1000
Grayscale
1000
Grayscale
1070
    25
1002
}
  0
LINE
  5
1234A
  8
YODOROGO
 10
29617.604341291921
 20
1947.749496429288
 30
0.0
 11
29765.604341291921
 21
1947.749496429288
 31
0.0
1001
AUTOCAD_POSTSCRIPT_FIGURE
1002
{
1000
PSFILL
1000
Grayscale
1000
Grayscale
1070
    25
1002
}
  0
LINE
  5
1234B
  8
YODOROGO
 10
29617.604341291921
 20
2027.749496429288
 30
0.0
 11
29617.604341291921
 21
1947.749496429288
 31
0.0
1001
AUTOCAD_POSTSCRIPT_FIGURE
1002
{
1000
PSFILL
1000
Grayscale
1000
Grayscale
1070
    25
1002
}
  0
LINE
  5
1234C
  8
YODOROGO
 10
29665.604341291921
 20
2027.749496429288
 30
0.0
 11
29617.604341291921
 21
2027.749496429288
 31
0.0
1001
AUTOCAD_POSTSCRIPT_FIGURE
1002
{
1000
PSFILL
1000
Grayscale
1000
Grayscale
1070
    25
1002
}
  0
LINE
  5
1234D
  8
YODOROGO
 10
29665.604341291921
 20
1995.7494964292871
 30
0.0
 11
29665.604341291921
 21
2027.749496429288
 31
0.0
1001
AUTOCAD_POSTSCRIPT_FIGURE
1002
{
1000
PSFILL
1000
Grayscale
1000
Grayscale
1070
    25
1002
}
  0
LINE
  5
1234E
  8
YODOROGO
 10
29765.604341291921
 20
1995.7494964292871
 30
0.0
 11
29665.604341291921
 21
1995.7494964292871
 31
0.0
1001
AUTOCAD_POSTSCRIPT_FIGURE
1002
{
1000
PSFILL
1000
Grayscale
1000
Grayscale
1070
    25
1002
}
  0
LINE
  5
1234F
  8
YODOROGO
 10
29765.604341291921
 20
2027.749496429288
 30
0.0
 11
29765.604341291921
 21
1995.7494964292871
 31
0.0
1001
AUTOCAD_POSTSCRIPT_FIGURE
1002
{
1000
PSFILL
1000
Grayscale
1000
Grayscale
1070
    25
1002
}
  0
LINE
  5
12350
  8
YODOROGO
 10
29829.604341291921
 20
2027.749496429288
 30
0.0
 11
29765.604341291921
 21
2027.749496429288
 31
0.0
1001
AUTOCAD_POSTSCRIPT_FIGURE
1002
{
1000
PSFILL
1000
Grayscale
1000
Grayscale
1070
    25
1002
}
  0
LINE
  5
12351
  8
YODOROGO
 10
29829.604341291921
 20
1995.7494964292871
 30
0.0
 11
29829.604341291921
 21
2027.749496429288
 31
0.0
1001
AUTOCAD_POSTSCRIPT_FIGURE
1002
{
1000
PSFILL
1000
Grayscale
1000
Grayscale
1070
    25
1002
}
  0
LINE
  5
12352
  8
YODOROGO
 10
29829.604341291921
 20
1907.7494964292871
 30
0.0
 11
29829.604341291921
 21
1947.749496429288
 31
0.0
1001
AUTOCAD_POSTSCRIPT_FIGURE
1002
{
1000
PSFILL
1000
Grayscale
1000
Grayscale
1070
    25
1002
}
  0
LINE
  5
12353
  8
YODOROGO
 10
29829.604341291921
 20
1819.7494964292871
 30
0.0
 11
29829.604341291921
 21
1859.749496429288
 31
0.0
1001
AUTOCAD_POSTSCRIPT_FIGURE
1002
{
1000
PSFILL
1000
Grayscale
1000
Grayscale
1070
    25
1002
}
  0
LINE
  5
12354
  8
YODOROGO
 10
29921.60434129191
 20
1771.7494964292871
 30
0.0
 11
29921.60434129191
 21
1707.749496429288
 31
0.0
1001
AUTOCAD_POSTSCRIPT_FIGURE
1002
{
1000
PSFILL
1000
Grayscale
1000
Grayscale
1070
    25
1002
}
  0
LINE
  5
12355
  8
YODOROGO
 10
29829.604341291921
 20
1771.7494964292871
 30
0.0
 11
29921.60434129191
 21
1771.7494964292871
 31
0.0
1001
AUTOCAD_POSTSCRIPT_FIGURE
1002
{
1000
PSFILL
1000
Grayscale
1000
Grayscale
1070
    25
1002
}
  0
LINE
  5
12356
  8
YODOROGO
 10
29829.604341291921
 20
1707.749496429288
 30
0.0
 11
29829.604341291921
 21
1771.7494964292871
 31
0.0
1001
AUTOCAD_POSTSCRIPT_FIGURE
1002
{
1000
PSFILL
1000
Grayscale
1000
Grayscale
1070
    25
1002
}
  0
LINE
  5
12357
  8
YODOROGO
 10
29765.604341291921
 20
1707.749496429288
 30
0.0
 11
29829.604341291921
 21
1707.749496429288
 31
0.0
1001
AUTOCAD_POSTSCRIPT_FIGURE
1002
{
1000
PSFILL
1000
Grayscale
1000
Grayscale
1070
    25
1002
}
  0
LINE
  5
12358
  8
YODOROGO
 10
29765.604341291921
 20
1771.7494964292871
 30
0.0
 11
29765.604341291921
 21
1707.749496429288
 31
0.0
1001
AUTOCAD_POSTSCRIPT_FIGURE
1002
{
1000
PSFILL
1000
Grayscale
1000
Grayscale
1070
    25
1002
}
  0
LINE
  5
12359
  8
YODOROGO
 10
29673.604341291921
 20
1771.7494964292871
 30
0.0
 11
29765.604341291921
 21
1771.7494964292871
 31
0.0
1001
AUTOCAD_POSTSCRIPT_FIGURE
1002
{
1000
PSFILL
1000
Grayscale
1000
Grayscale
1070
    25
1002
}
  0
ARC
  5
1235A
  8
YODOROGO
 10
31059.517893357912
 20
1602.6807375155761
 30
0.0
 40
178.22128111072141
 50
281.02627495425338
 51
357.77113575573799
  0
LINE
  5
1235B
  8
YODOROGO
 10
31413.604341291921
 20
1907.7494964292871
 30
0.0
 11
31165.604341291921
 21
1907.7494964292871
 31
0.0
  0
LINE
  5
1235C
  8
YODOROGO
 10
31413.604341291921
 20
2027.749496429288
 30
0.0
 11
31165.604341291921
 21
2027.749496429288
 31
0.0
  0
LINE
  5
1235D
  8
YODOROGO
 10
31165.604341291921
 20
1963.749496429286
 30
0.0
 11
31413.604341291921
 21
1963.749496429286
 31
0.0
  0
LINE
  5
1235E
  8
YODOROGO
 10
30791.604341291921
 20
1563.7494964292871
 30
0.0
 11
30791.604341291921
 21
1755.7494964292871
 31
0.0
  0
LINE
  5
1235F
  8
YODOROGO
 10
30763.604341291921
 20
1691.749496429288
 30
0.0
 11
30763.604341291921
 21
1563.7494964292871
 31
0.0
  0
LINE
  5
12360
  8
YODOROGO
 10
30723.604341291921
 20
1491.749496429288
 30
0.0
 11
30723.604341291921
 21
1691.749496429288
 31
0.0
  0
LINE
  5
12361
  8
YODOROGO
 10
30899.604341291932
 20
1691.749496429288
 30
0.0
 11
30899.604341291932
 21
1491.749496429288
 31
0.0
  0
LINE
  5
12362
  8
YODOROGO
 10
30859.604341291932
 20
1563.7494964292871
 30
0.0
 11
30859.604341291932
 21
1691.749496429288
 31
0.0
  0
LINE
  5
12363
  8
YODOROGO
 10
30831.604341291921
 20
1755.7494964292871
 30
0.0
 11
30831.604341291921
 21
1563.7494964292871
 31
0.0
  0
LINE
  5
12364
  8
YODOROGO
 10
30973.604341291921
 20
2027.749496429288
 30
0.0
 11
30973.604341291921
 21
1467.749496429288
 31
0.0
  0
LINE
  5
12365
  8
YODOROGO
 10
30645.604341291921
 20
1427.749496429288
 30
0.0
 11
30645.604341291921
 21
2027.749496429288
 31
0.0
  0
LINE
  5
12366
  8
YODOROGO
 10
30697.604341291932
 20
1963.749496429286
 30
0.0
 11
30697.604341291932
 21
1427.749496429288
 31
0.0
  0
LINE
  5
12367
  8
YODOROGO
 10
30925.604341291921
 20
1547.749496429288
 30
0.0
 11
30925.604341291921
 21
1963.749496429286
 31
0.0
  0
LINE
  5
12368
  8
YODOROGO
 10
30381.604341291932
 20
1627.749496429288
 30
0.0
 11
30381.604341291932
 21
1679.749496429288
 31
0.0
  0
LINE
  5
12369
  8
YODOROGO
 10
30617.604341291921
 20
1679.749496429288
 30
0.0
 11
30617.604341291921
 21
1627.749496429288
 31
0.0
  0
LINE
  5
1236A
  8
YODOROGO
 10
31165.604341291921
 20
1907.7494964292871
 30
0.0
 11
31165.604341291921
 21
1635.7494964292871
 31
0.0
  0
LINE
  5
1236B
  8
YODOROGO
 10
29949.60434129191
 20
1667.749496429288
 30
0.0
 11
29949.60434129191
 21
1707.749496429288
 31
0.0
  0
LINE
  5
1236C
  8
YODOROGO
 10
29949.60434129191
 20
1667.749496429288
 30
0.0
 11
29949.60434129191
 21
1707.749496429288
 31
0.0
  0
ARC
  5
1236D
  8
YODOROGO
 10
30537.604341291921
 20
1507.749496429288
 30
0.0
 40
80.0
 50
270.0
 51
0.0
  0
LINE
  5
1236E
  8
YODOROGO
 10
30569.604341291921
 20
1599.7494964292871
 30
0.0
 11
30617.604341291921
 21
1599.7494964292871
 31
0.0
  0
LINE
  5
1236F
  8
YODOROGO
 10
30617.604341291921
 20
1627.749496429288
 30
0.0
 11
30529.604341291939
 21
1627.749496429288
 31
0.0
  0
LINE
  5
12370
  8
YODOROGO
 10
30217.604341291921
 20
1667.749496429288
 30
0.0
 11
29949.60434129191
 21
1667.749496429288
 31
0.0
  0
LINE
  5
12371
  8
YODOROGO
 10
30217.604341291921
 20
1627.749496429288
 30
0.0
 11
30217.604341291921
 21
1667.749496429288
 31
0.0
  0
LINE
  5
12372
  8
YODOROGO
 10
30017.604341291921
 20
1627.749496429288
 30
0.0
 11
30217.604341291921
 21
1627.749496429288
 31
0.0
  0
ARC
  5
12373
  8
YODOROGO
 10
30230.05882870136
 20
1868.885714952901
 30
0.0
 40
321.37763628522822
 50
228.6181454618993
 51
245.660289248906
  0
LINE
  5
12374
  8
YODOROGO
 10
30105.604341291921
 20
1603.7494964292871
 30
0.0
 11
30097.60434129195
 21
1576.0728158699001
 31
0.0
  0
LINE
  5
12375
  8
YODOROGO
 10
30189.604341291921
 20
1603.7494964292871
 30
0.0
 11
30105.604341291921
 21
1603.7494964292871
 31
0.0
  0
LINE
  5
12376
  8
YODOROGO
 10
30177.604341291921
 20
1551.817722473427
 30
0.0
 11
30189.604341291921
 21
1603.7494964292871
 31
0.0
  0
ARC
  5
12377
  8
YODOROGO
 10
30230.05882870045
 20
1868.885714953002
 30
0.0
 40
321.37763628529081
 50
260.60629297969911
 51
267.77903556555862
  0
LINE
  5
12378
  8
YODOROGO
 10
30217.604341291921
 20
1427.749496429285
 30
0.0
 11
30217.604341291921
 21
1547.749496429288
 31
0.0
  0
LINE
  5
12379
  8
YODOROGO
 10
29937.604341291932
 20
1481.3393349155101
 30
0.0
 11
29937.604341291921
 21
1594.531090531141
 31
0.0
  0
LINE
  5
1237A
  8
YODOROGO
 10
30217.604341291921
 20
1667.749496429288
 30
0.0
 11
29949.60434129191
 21
1667.749496429288
 31
0.0
  0
LINE
  5
1237B
  8
YODOROGO
 10
30217.604341291921
 20
1627.749496429288
 30
0.0
 11
30217.604341291921
 21
1667.749496429288
 31
0.0
  0
LINE
  5
1237C
  8
YODOROGO
 10
30017.604341291921
 20
1627.749496429288
 30
0.0
 11
30217.604341291921
 21
1627.749496429288
 31
0.0
  0
ARC
  5
1237D
  8
YODOROGO
 10
30230.05882870136
 20
1868.885714952901
 30
0.0
 40
321.37763628522822
 50
228.6181454618993
 51
245.660289248906
  0
LINE
  5
1237E
  8
YODOROGO
 10
30105.604341291921
 20
1603.7494964292871
 30
0.0
 11
30097.60434129195
 21
1576.0728158699001
 31
0.0
  0
LINE
  5
1237F
  8
YODOROGO
 10
30189.604341291921
 20
1603.7494964292871
 30
0.0
 11
30105.604341291921
 21
1603.7494964292871
 31
0.0
  0
LINE
  5
12380
  8
YODOROGO
 10
30177.604341291921
 20
1551.817722473427
 30
0.0
 11
30189.604341291921
 21
1603.7494964292871
 31
0.0
  0
ARC
  5
12381
  8
YODOROGO
 10
30230.05882870045
 20
1868.885714953002
 30
0.0
 40
321.37763628529081
 50
260.60629297969911
 51
267.77903556555862
  0
LINE
  5
12382
  8
YODOROGO
 10
30217.604341291921
 20
1427.749496429285
 30
0.0
 11
30217.604341291921
 21
1547.749496429288
 31
0.0
  0
LINE
  5
12383
  8
YODOROGO
 10
29937.604341291932
 20
1481.3393349155101
 30
0.0
 11
29937.604341291921
 21
1594.531090531141
 31
0.0
  0
LINE
  5
12384
  8
YODOROGO
 10
30433.604341291921
 20
1573.749496429288
 30
0.0
 11
30381.604341291932
 21
1573.749496429288
 31
0.0
  0
LINE
  5
12385
  8
YODOROGO
 10
30433.604341291921
 20
1601.749496429285
 30
0.0
 11
30433.604341291921
 21
1573.749496429288
 31
0.0
  0
LINE
  5
12386
  8
YODOROGO
 10
30381.604341291932
 20
1601.749496429285
 30
0.0
 11
30433.604341291921
 21
1601.749496429285
 31
0.0
  0
LINE
  5
12387
  8
YODOROGO
 10
30381.604341291932
 20
1573.749496429288
 30
0.0
 11
30381.604341291932
 21
1601.749496429285
 31
0.0
  0
LINE
  5
12388
  8
YODOROGO
 10
30429.604341291921
 20
1577.7494964292871
 30
0.0
 11
30385.604341291921
 21
1577.7494964292871
 31
0.0
  0
LINE
  5
12389
  8
YODOROGO
 10
30429.604341291921
 20
1597.749496429288
 30
0.0
 11
30429.604341291921
 21
1577.7494964292871
 31
0.0
  0
LINE
  5
1238A
  8
YODOROGO
 10
30385.604341291921
 20
1597.749496429288
 30
0.0
 11
30429.604341291921
 21
1597.749496429288
 31
0.0
  0
LINE
  5
1238B
  8
YODOROGO
 10
30385.604341291921
 20
1577.7494964292871
 30
0.0
 11
30385.604341291921
 21
1597.749496429288
 31
0.0
  0
LINE
  5
1238C
  8
YODOROGO
 10
30425.604341291921
 20
1581.749496429286
 30
0.0
 11
30389.604341291921
 21
1581.749496429286
 31
0.0
  0
LINE
  5
1238D
  8
YODOROGO
 10
30425.604341291921
 20
1593.749496429288
 30
0.0
 11
30425.604341291921
 21
1581.749496429286
 31
0.0
  0
LINE
  5
1238E
  8
YODOROGO
 10
30389.604341291921
 20
1593.749496429288
 30
0.0
 11
30425.604341291921
 21
1593.749496429288
 31
0.0
  0
LINE
  5
1238F
  8
YODOROGO
 10
30389.604341291921
 20
1581.749496429286
 30
0.0
 11
30389.604341291921
 21
1593.749496429288
 31
0.0
  0
LINE
  5
12390
  8
YODOROGO
 10
30421.604341291932
 20
1585.7494964292871
 30
0.0
 11
30393.604341291921
 21
1585.7494964292871
 31
0.0
  0
LINE
  5
12391
  8
YODOROGO
 10
30421.604341291932
 20
1589.749496429288
 30
0.0
 11
30421.604341291932
 21
1585.7494964292871
 31
0.0
  0
LINE
  5
12392
  8
YODOROGO
 10
30393.604341291921
 20
1589.749496429288
 30
0.0
 11
30421.604341291932
 21
1589.749496429288
 31
0.0
  0
LINE
  5
12393
  8
YODOROGO
 10
30393.604341291921
 20
1585.7494964292871
 30
0.0
 11
30393.604341291921
 21
1589.749496429288
 31
0.0
  0
LINE
  5
12394
  8
YODOROGO
 10
30465.604341291921
 20
1627.749496429288
 30
0.0
 11
30381.604341291932
 21
1627.749496429288
 31
0.0
  0
LINE
  5
12395
  8
YODOROGO
 10
30465.604341291921
 20
1547.749496429288
 30
0.0
 11
30465.604341291921
 21
1627.749496429288
 31
0.0
  0
LINE
  5
12396
  8
YODOROGO
 10
30381.604341291932
 20
1547.749496429288
 30
0.0
 11
30465.604341291921
 21
1547.749496429288
 31
0.0
  0
LINE
  5
12397
  8
YODOROGO
 10
30381.604341291932
 20
1427.749496429288
 30
0.0
 11
30381.604341291932
 21
1547.749496429288
 31
0.0
  0
LINE
  5
12398
  8
YODOROGO
 10
30537.604341291921
 20
1427.749496429288
 30
0.0
 11
30381.604341291932
 21
1427.749496429288
 31
0.0
  0
LINE
  5
12399
  8
YODOROGO
 10
30569.604341291921
 20
1571.749496429285
 30
0.0
 11
30569.604341291921
 21
1599.7494964292871
 31
0.0
  0
ARC
  5
1239A
  8
YODOROGO
 10
30545.604341291921
 20
1571.749496429291
 30
0.0
 40
24.000000000003752
 50
270.0
 51
359.99999999998772
  0
LINE
  5
1239B
  8
YODOROGO
 10
30529.604341291939
 20
1547.749496429288
 30
0.0
 11
30545.604341291921
 21
1547.749496429288
 31
0.0
  0
LINE
  5
1239C
  8
YODOROGO
 10
30529.604341291939
 20
1627.749496429288
 30
0.0
 11
30529.604341291939
 21
1547.749496429288
 31
0.0
  0
LINE
  5
1239D
  8
YODOROGO
 10
30899.604341291932
 20
1547.749496429288
 30
0.0
 11
30925.604341291921
 21
1547.749496429288
 31
0.0
  0
LINE
  5
1239E
  8
YODOROGO
 10
30933.604341291921
 20
1427.749496429288
 30
0.0
 11
30899.604341291932
 21
1427.749496429288
 31
0.0
  0
LINE
  5
1239F
  8
YODOROGO
 10
30763.604341291921
 20
1563.7494964292871
 30
0.0
 11
30791.604341291921
 21
1563.7494964292871
 31
0.0
  0
LINE
  5
123A0
  8
YODOROGO
 10
30899.604341291932
 20
1491.749496429288
 30
0.0
 11
30723.604341291921
 21
1491.749496429288
 31
0.0
  0
LINE
  5
123A1
  8
YODOROGO
 10
30831.604341291921
 20
1563.7494964292871
 30
0.0
 11
30859.604341291932
 21
1563.7494964292871
 31
0.0
  0
LINE
  5
123A2
  8
YODOROGO
 10
30899.604341291932
 20
1427.749496429288
 30
0.0
 11
30899.604341291932
 21
1547.749496429288
 31
0.0
  0
LINE
  5
123A3
  8
YODOROGO
 10
30697.604341291932
 20
1427.749496429288
 30
0.0
 11
30645.604341291921
 21
1427.749496429288
 31
0.0
  0
LINE
  5
123A4
  8
YODOROGO
 10
30617.604341291921
 20
1599.7494964292871
 30
0.0
 11
30617.604341291921
 21
1507.749496429288
 31
0.0
  0
ARC
  5
123A5
  8
YODOROGO
 10
30933.604341291921
 20
1467.749496429288
 30
0.0
 40
40.0
 50
270.0
 51
0.0
  0
LINE
  5
123A6
  8
YODOROGO
 10
31093.604341291921
 20
1523.7494964292871
 30
0.0
 11
31093.604341291921
 21
1427.749496429288
 31
0.0
  0
ARC
  5
123A7
  8
YODOROGO
 10
31039.721395566768
 20
1637.5313901097329
 30
0.0
 40
125.8955565916754
 50
295.34052442160112
 51
359.18902303418679
  0
LINE
  5
123A8
  8
YODOROGO
 10
30617.604341291921
 20
1859.749496429288
 30
0.0
 11
30497.604341291921
 21
1939.749496429288
 31
0.0
  0
LINE
  5
123A9
  8
YODOROGO
 10
30497.604341291921
 20
2027.749496429288
 30
0.0
 11
30617.604341291921
 21
1947.749496429288
 31
0.0
  0
LINE
  5
123AA
  8
YODOROGO
 10
30529.604341291939
 20
1679.749496429288
 30
0.0
 11
30617.604341291921
 21
1679.749496429288
 31
0.0
  0
LINE
  5
123AB
  8
YODOROGO
 10
30617.604341291921
 20
1735.7494964292871
 30
0.0
 11
30529.604341291939
 21
1735.7494964292871
 31
0.0
  0
LINE
  5
123AC
  8
YODOROGO
 10
30381.604341291932
 20
1795.7494964292871
 30
0.0
 11
30617.604341291921
 21
1795.7494964292871
 31
0.0
  0
LINE
  5
123AD
  8
YODOROGO
 10
30081.604341291921
 20
2027.749496429288
 30
0.0
 11
30021.604341291921
 21
2027.749496429288
 31
0.0
  0
LINE
  5
123AE
  8
YODOROGO
 10
30081.604341291921
 20
1827.7494964292871
 30
0.0
 11
30081.604341291921
 21
2027.749496429288
 31
0.0
  0
LINE
  5
123AF
  8
YODOROGO
 10
30021.604341291921
 20
1827.7494964292871
 30
0.0
 11
30081.604341291921
 21
1827.7494964292871
 31
0.0
  0
LINE
  5
123B0
  8
YODOROGO
 10
30021.604341291921
 20
2027.749496429288
 30
0.0
 11
30021.604341291921
 21
1827.7494964292871
 31
0.0
  0
LINE
  5
123B1
  8
YODOROGO
 10
30161.604341291921
 20
2027.749496429288
 30
0.0
 11
30217.604341291921
 21
2027.749496429288
 31
0.0
  0
LINE
  5
123B2
  8
YODOROGO
 10
30161.604341291921
 20
1811.749496429288
 30
0.0
 11
30161.604341291921
 21
2027.749496429288
 31
0.0
  0
ARC
  5
123B3
  8
YODOROGO
 10
30121.604341291921
 20
1811.749496429288
 30
0.0
 40
40.0
 50
270.0
 51
0.0
  0
LINE
  5
123B4
  8
YODOROGO
 10
30021.604341291921
 20
1771.7494964292871
 30
0.0
 11
30121.604341291921
 21
1771.7494964292871
 31
0.0
  0
LINE
  5
123B5
  8
YODOROGO
 10
30021.604341291921
 20
1707.749496429288
 30
0.0
 11
30021.604341291921
 21
1771.7494964292871
 31
0.0
  0
LINE
  5
123B6
  8
YODOROGO
 10
30137.604341291921
 20
1707.749496429288
 30
0.0
 11
30021.604341291921
 21
1707.749496429288
 31
0.0
  0
ARC
  5
123B7
  8
YODOROGO
 10
30137.604341291921
 20
1787.7494964292871
 30
0.0
 40
80.0
 50
270.0
 51
0.0
  0
LINE
  5
123B8
  8
YODOROGO
 10
30217.604341291921
 20
2027.749496429288
 30
0.0
 11
30217.604341291921
 21
1787.7494964292871
 31
0.0
  0
LINE
  5
123B9
  8
YODOROGO
 10
29977.604341291921
 20
1947.749496429288
 30
0.0
 11
29977.604341291921
 21
1995.7494964292871
 31
0.0
1001
AUTOCAD_POSTSCRIPT_FIGURE
1002
{
1000
PSFILL
1000
Grayscale
1000
Grayscale
1070
    25
1002
}
  0
LINE
  5
123BA
  8
YODOROGO
 10
29977.604341291921
 20
1859.749496429288
 30
0.0
 11
29977.604341291921
 21
1907.7494964292871
 31
0.0
1001
AUTOCAD_POSTSCRIPT_FIGURE
1002
{
1000
PSFILL
1000
Grayscale
1000
Grayscale
1070
    25
1002
}
  0
LINE
  5
123BB
  8
YODOROGO
 10
29977.604341291921
 20
1707.749496429288
 30
0.0
 11
29977.604341291921
 21
1819.7494964292871
 31
0.0
1001
AUTOCAD_POSTSCRIPT_FIGURE
1002
{
1000
PSFILL
1000
Grayscale
1000
Grayscale
1070
    25
1002
}
  0
LINE
  5
123BC
  8
YODOROGO
 10
30381.604341291932
 20
1907.7494964292871
 30
0.0
 11
30497.604341291921
 21
2027.749496429288
 31
0.0
  0
LINE
  5
123BD
  8
YODOROGO
 10
30381.604341291932
 20
1819.7494964292871
 30
0.0
 11
30381.604341291932
 21
1907.7494964292871
 31
0.0
  0
LINE
  5
123BE
  8
YODOROGO
 10
30497.604341291921
 20
1939.749496429288
 30
0.0
 11
30381.604341291932
 21
1819.7494964292871
 31
0.0
  0
LINE
  5
123BF
  8
YODOROGO
 10
30465.604341291921
 20
1679.749496429288
 30
0.0
 11
30465.604341291921
 21
1735.7494964292871
 31
0.0
  0
LINE
  5
123C0
  8
YODOROGO
 10
30381.604341291932
 20
1679.749496429288
 30
0.0
 11
30465.604341291921
 21
1679.749496429288
 31
0.0
  0
LINE
  5
123C1
  8
YODOROGO
 10
30529.604341291939
 20
1735.7494964292871
 30
0.0
 11
30529.604341291939
 21
1679.749496429288
 31
0.0
  0
LINE
  5
123C2
  8
YODOROGO
 10
30381.604341291932
 20
1735.7494964292871
 30
0.0
 11
30381.604341291932
 21
1795.7494964292871
 31
0.0
  0
LINE
  5
123C3
  8
YODOROGO
 10
30465.604341291921
 20
1735.7494964292871
 30
0.0
 11
30381.604341291932
 21
1735.7494964292871
 31
0.0
  0
LINE
  5
123C4
  8
YODOROGO
 10
30645.604341291921
 20
2027.749496429288
 30
0.0
 11
30973.604341291921
 21
2027.749496429288
 31
0.0
  0
LINE
  5
123C5
  8
YODOROGO
 10
30925.604341291921
 20
1963.749496429286
 30
0.0
 11
30697.604341291932
 21
1963.749496429286
 31
0.0
  0
LINE
  5
123C6
  8
YODOROGO
 10
30873.604341291921
 20
1819.7494964292871
 30
0.0
 11
30899.604341291932
 21
1819.7494964292871
 31
0.0
  0
LINE
  5
123C7
  8
YODOROGO
 10
30899.604341291932
 20
1939.749496429288
 30
0.0
 11
30873.604341291921
 21
1819.7494964292871
 31
0.0
  0
LINE
  5
123C8
  8
YODOROGO
 10
30851.604341291939
 20
1939.749496429288
 30
0.0
 11
30899.604341291932
 21
1939.749496429288
 31
0.0
  0
LINE
  5
123C9
  8
YODOROGO
 10
30825.604341291921
 20
1819.7494964292871
 30
0.0
 11
30851.604341291939
 21
1939.749496429288
 31
0.0
  0
LINE
  5
123CA
  8
YODOROGO
 10
30797.604341291921
 20
1819.7494964292871
 30
0.0
 11
30825.604341291921
 21
1819.7494964292871
 31
0.0
  0
LINE
  5
123CB
  8
YODOROGO
 10
30771.604341291939
 20
1939.749496429288
 30
0.0
 11
30797.604341291921
 21
1819.7494964292871
 31
0.0
  0
LINE
  5
123CC
  8
YODOROGO
 10
30723.604341291921
 20
1939.749496429288
 30
0.0
 11
30771.604341291939
 21
1939.749496429288
 31
0.0
  0
LINE
  5
123CD
  8
YODOROGO
 10
30749.604341291921
 20
1819.7494964292871
 30
0.0
 11
30723.604341291921
 21
1939.749496429288
 31
0.0
  0
LINE
  5
123CE
  8
YODOROGO
 10
30723.604341291921
 20
1819.7494964292871
 30
0.0
 11
30749.604341291921
 21
1819.7494964292871
 31
0.0
  0
LINE
  5
123CF
  8
YODOROGO
 10
30723.604341291921
 20
1755.7494964292871
 30
0.0
 11
30723.604341291921
 21
1819.7494964292871
 31
0.0
  0
LINE
  5
123D0
  8
YODOROGO
 10
30899.604341291932
 20
1755.7494964292871
 30
0.0
 11
30723.604341291921
 21
1755.7494964292871
 31
0.0
  0
LINE
  5
123D1
  8
YODOROGO
 10
30899.604341291932
 20
1819.7494964292871
 30
0.0
 11
30899.604341291932
 21
1755.7494964292871
 31
0.0
  0
LINE
  5
123D2
  8
YODOROGO
 10
30617.604341291921
 20
1947.749496429288
 30
0.0
 11
30617.604341291921
 21
1859.749496429288
 31
0.0
  0
LINE
  5
123D3
  8
YODOROGO
 10
30791.604341291921
 20
1755.7494964292871
 30
0.0
 11
30831.604341291921
 21
1755.7494964292871
 31
0.0
  0
LINE
  5
123D4
  8
YODOROGO
 10
30723.604341291921
 20
1691.749496429288
 30
0.0
 11
30763.604341291921
 21
1691.749496429288
 31
0.0
  0
LINE
  5
123D5
  8
YODOROGO
 10
30859.604341291932
 20
1691.749496429288
 30
0.0
 11
30899.604341291932
 21
1691.749496429288
 31
0.0
  0
LINE
  5
123D6
  8
YODOROGO
 10
30617.604341291921
 20
1795.7494964292871
 30
0.0
 11
30617.604341291921
 21
1735.7494964292871
 31
0.0
  0
LINE
  5
123D7
  8
YODOROGO
 10
31165.604341291921
 20
2027.749496429288
 30
0.0
 11
31165.604341291921
 21
1963.749496429286
 31
0.0
  0
LINE
  5
123D8
  8
YODOROGO
 10
31533.604341291921
 20
1595.7494964292871
 30
0.0
 11
31533.60434129191
 21
1811.749496429288
 31
0.0
  0
LINE
  5
123D9
  8
YODOROGO
 10
31461.60434129191
 20
1987.7494964292871
 30
0.0
 11
31461.60434129191
 21
1635.7494964292871
 31
0.0
  0
LINE
  5
123DA
  8
YODOROGO
 10
31653.604341291921
 20
1427.749496429288
 30
0.0
 11
31653.60434129191
 21
1811.749496429288
 31
0.0
  0
LINE
  5
123DB
  8
YODOROGO
 10
31589.604341291921
 20
1811.749496429288
 30
0.0
 11
31589.604341291921
 21
1427.749496429288
 31
0.0
  0
LINE
  5
123DC
  8
YODOROGO
 10
31237.604341291921
 20
1595.7494964292871
 30
0.0
 11
31237.604341291921
 21
1707.749496429288
 31
0.0
  0
ARC
  5
123DD
  8
YODOROGO
 10
31353.914865116069
 20
1607.790351288558
 30
0.0
 40
180.0924485759885
 50
268.62849102169793
 51
356.16638457330322
  0
LINE
  5
123DE
  8
YODOROGO
 10
31349.604341291939
 20
1527.749496429288
 30
0.0
 11
31349.604341291939
 21
1427.749496429288
 31
0.0
  0
ARC
  5
123DF
  8
YODOROGO
 10
31351.518075724562
 20
1637.838957017655
 30
0.0
 40
110.1060929836122
 50
269.00410209305932
 51
358.91264455492478
  0
LINE
  5
123E0
  8
YODOROGO
 10
31589.604341291921
 20
1427.749496429288
 30
0.0
 11
31653.604341291921
 21
1427.749496429288
 31
0.0
  0
LINE
  5
123E1
  8
YODOROGO
 10
31533.60434129191
 20
1811.749496429288
 30
0.0
 11
31589.604341291921
 21
1811.749496429288
 31
0.0
  0
LINE
  5
123E2
  8
YODOROGO
 10
31621.604341291939
 20
1987.7494964292871
 30
0.0
 11
31461.60434129191
 21
1987.7494964292871
 31
0.0
  0
LINE
  5
123E3
  8
YODOROGO
 10
31533.60434129191
 20
1915.7494964292871
 30
0.0
 11
31661.604341291939
 21
1915.7494964292871
 31
0.0
  0
LINE
  5
123E4
  8
YODOROGO
 10
31701.604341291939
 20
1875.7494964292871
 30
0.0
 11
31533.60434129191
 21
1875.7494964292871
 31
0.0
  0
LINE
  5
123E5
  8
YODOROGO
 10
31237.604341291921
 20
1779.749496429288
 30
0.0
 11
31349.604341291939
 21
1779.749496429288
 31
0.0
  0
LINE
  5
123E6
  8
YODOROGO
 10
31237.604341291921
 20
1835.7494964292871
 30
0.0
 11
31237.604341291921
 21
1779.749496429288
 31
0.0
  0
LINE
  5
123E7
  8
YODOROGO
 10
31349.604341291939
 20
1835.7494964292871
 30
0.0
 11
31237.604341291921
 21
1835.7494964292871
 31
0.0
  0
LINE
  5
123E8
  8
YODOROGO
 10
31349.604341291939
 20
1779.749496429288
 30
0.0
 11
31349.604341291939
 21
1835.7494964292871
 31
0.0
  0
LINE
  5
123E9
  8
YODOROGO
 10
31533.60434129191
 20
1875.7494964292871
 30
0.0
 11
31533.60434129191
 21
1915.7494964292871
 31
0.0
  0
LINE
  5
123EA
  8
YODOROGO
 10
31413.604341291921
 20
1707.749496429288
 30
0.0
 11
31413.604341291921
 21
1907.7494964292871
 31
0.0
  0
LINE
  5
123EB
  8
YODOROGO
 10
31237.604341291921
 20
1707.749496429288
 30
0.0
 11
31413.604341291921
 21
1707.749496429288
 31
0.0
  0
LINE
  5
123EC
  8
YODOROGO
 10
31413.604341291921
 20
1963.749496429286
 30
0.0
 11
31413.604341291921
 21
2027.749496429288
 31
0.0
  0
ARC
  5
123ED
  8
YODOROGO
 10
31621.604341291939
 20
2003.749496429285
 30
0.0
 40
15.999999999994539
 50
270.0
 51
0.0000000000081422
  0
LINE
  5
123EE
  8
YODOROGO
 10
31637.604341291921
 20
2027.749496429288
 30
0.0
 11
31637.604341291921
 21
2003.7494964292871
 31
0.0
  0
LINE
  5
123EF
  8
YODOROGO
 10
31701.604341291939
 20
2027.749496429288
 30
0.0
 11
31637.604341291921
 21
2027.749496429288
 31
0.0
  0
LINE
  5
123F0
  8
YODOROGO
 10
31701.604341291939
 20
1955.7494964292871
 30
0.0
 11
31701.604341291939
 21
2027.749496429288
 31
0.0
  0
ARC
  5
123F1
  8
YODOROGO
 10
31661.604341291939
 20
1955.7494964292871
 30
0.0
 40
40.0
 50
270.0
 51
0.0
  0
LINE
  5
123F2
  8
YODOROGO
 10
31701.604341291939
 20
1811.749496429288
 30
0.0
 11
31701.604341291939
 21
1875.7494964292871
 31
0.0
  0
LINE
  5
123F3
  8
YODOROGO
 10
31653.60434129191
 20
1811.749496429288
 30
0.0
 11
31701.604341291939
 21
1811.749496429288
 31
0.0
  0
LINE
  5
123F4
  8
0-6
  6
CONTINUOUS
 62
     6
 10
13359.98209306922
 20
13710.061480451879
 30
0.0
 11
13222.40375932389
 21
13795.986899
 31
0.0
  0
LINE
  5
123F5
  8
0-6
  6
CONTINUOUS
 62
     6
 10
13222.40375932389
 20
13795.986899
 30
0.0
 11
13324.678291137139
 21
13670.08446396983
 31
0.0
  0
LINE
  5
123F6
  8
0-6
  6
CONTINUOUS
 62
     6
 10
13324.678291137139
 20
13670.08446396983
 30
0.0
 11
13359.98209306922
 21
13710.061480451879
 31
0.0
  0
LINE
  5
123F7
  8
0-6
  6
CONTINUOUS
 62
     6
 10
12596.770474783591
 20
19479.268288632931
 30
0.0
 11
12535.573358080601
 21
19629.487755999991
 31
0.0
  0
LINE
  5
123F8
  8
0-6
  6
CONTINUOUS
 62
     6
 10
12535.573358080601
 20
19629.487755999991
 30
0.0
 11
12642.18386250287
 21
19507.235134960742
 31
0.0
  0
LINE
  5
123F9
  8
0-6
  6
CONTINUOUS
 62
     6
 10
12642.18386250287
 20
19507.235134960742
 30
0.0
 11
12596.770474783591
 21
19479.268288632931
 31
0.0
  0
LINE
  5
123FA
  8
0-6
  6
CONTINUOUS
 62
     6
 10
12596.770474783591
 20
18014.266388632939
 30
0.0
 11
12535.573358080601
 21
18164.485855999999
 31
0.0
  0
LINE
  5
123FB
  8
0-6
  6
CONTINUOUS
 62
     6
 10
12535.573358080601
 20
18164.485855999999
 30
0.0
 11
12642.18386250287
 21
18042.23323496076
 31
0.0
  0
LINE
  5
123FC
  8
0-6
  6
CONTINUOUS
 62
     6
 10
12642.18386250287
 20
18042.23323496076
 30
0.0
 11
12596.770474783591
 21
18014.266388632939
 31
0.0
  0
LINE
  5
123FD
  8
0-6
  6
CONTINUOUS
 62
     6
 10
12596.770474783591
 20
15096.26638863295
 30
0.0
 11
12535.573358080601
 21
15246.48585600003
 31
0.0
  0
LINE
  5
123FE
  8
0-6
  6
CONTINUOUS
 62
     6
 10
12535.573358080601
 20
15246.48585600003
 30
0.0
 11
12642.18386250287
 21
15124.23323496078
 31
0.0
  0
LINE
  5
123FF
  8
0-6
  6
CONTINUOUS
 62
     6
 10
12642.18386250287
 20
15124.23323496078
 30
0.0
 11
12596.770474783591
 21
15096.26638863295
 31
0.0
  0
LINE
  5
12400
  8
0-6
  6
CONTINUOUS
 62
     6
 10
12596.770474783591
 20
16555.26638963294
 30
0.0
 11
12535.573358080601
 21
16705.485857000011
 31
0.0
  0
LINE
  5
12401
  8
0-6
  6
CONTINUOUS
 62
     6
 10
12535.573358080601
 20
16705.485857000011
 30
0.0
 11
12642.18386250287
 21
16583.233235960761
 31
0.0
  0
LINE
  5
12402
  8
0-6
  6
CONTINUOUS
 62
     6
 10
12642.18386250287
 20
16583.233235960761
 30
0.0
 11
12596.770474783591
 21
16555.26638963294
 31
0.0
  0
LINE
  5
12403
  8
0-6
  6
CONTINUOUS
 62
     6
 10
12502.53892470917
 20
14095.595169548
 30
0.0
 11
12599.42446520645
 21
14225.688088307459
 31
0.0
  0
LINE
  5
12404
  8
0-6
  6
CONTINUOUS
 62
     6
 10
12599.42446520645
 20
14225.688088307459
 30
0.0
 11
12465.582008434731
 21
14134.049124054
 31
0.0
  0
LINE
  5
12405
  8
0-6
  6
CONTINUOUS
 62
     6
 10
12465.582008434731
 20
14134.049124054
 30
0.0
 11
12502.53892470917
 21
14095.595169548
 31
0.0
  0
LINE
  5
12406
  8
SUNPOU
  6
CONTINUOUS
 62
     4
 10
7773.3071850427186
 20
15291.48625200001
 30
0.0
 11
7062.6055770427211
 21
15291.48625200001
 31
0.0
  0
LINE
  5
12407
  8
SUNPOU
  6
CONTINUOUS
 62
     4
 10
7829.6056830427187
 20
13832.48625200001
 30
0.0
 11
7062.6055770427211
 21
13832.48625200001
 31
0.0
  0
LINE
  5
12408
  8
SUNPOU
  6
CONTINUOUS
 62
     4
 10
7142.605577042722
 20
15291.48625200001
 30
0.0
 11
7142.6055770427211
 21
13832.48625200001
 31
0.0
  0
LINE
  5
12409
  8
SUNPOU
  6
CONTINUOUS
 62
     4
 10
7850.0266291664902
 20
16750.486251999999
 30
0.0
 11
7062.6055770427201
 21
16750.486251999999
 31
0.0
  0
LINE
  5
1240A
  8
SUNPOU
  6
CONTINUOUS
 62
     4
 10
7773.3071850427186
 20
15291.48625200001
 30
0.0
 11
7062.6055770427201
 21
15291.48625200001
 31
0.0
  0
LINE
  5
1240B
  8
SUNPOU
  6
CONTINUOUS
 62
     4
 10
7142.6055770427192
 20
16750.486251999999
 30
0.0
 11
7142.6055770427192
 21
15291.48625200001
 31
0.0
  0
LINE
  5
1240C
  8
SUNPOU
  6
CONTINUOUS
 62
     4
 10
7773.3071850427186
 20
18209.48625200001
 30
0.0
 11
7062.6055770427201
 21
18209.48625200001
 31
0.0
  0
LINE
  5
1240D
  8
SUNPOU
  6
CONTINUOUS
 62
     4
 10
7850.0266291664902
 20
16750.486251999999
 30
0.0
 11
7062.6055770427201
 21
16750.486251999999
 31
0.0
  0
LINE
  5
1240E
  8
SUNPOU
  6
CONTINUOUS
 62
     4
 10
7142.6055770427192
 20
18209.48625200001
 30
0.0
 11
7142.6055770427192
 21
16750.486251999999
 31
0.0
  0
LINE
  5
1240F
  8
SUNPOU
  6
CONTINUOUS
 62
     4
 10
7909.6050290427074
 20
13639.986252000001
 30
0.0
 11
7062.6052530427169
 21
13639.986252000001
 31
0.0
  0
LINE
  5
12410
  8
SUNPOU
  6
CONTINUOUS
 62
     4
 10
7142.6052530427178
 20
13832.48552600002
 30
0.0
 11
7142.6052530427178
 21
13639.986252000001
 31
0.0
  0
LINE
  5
12411
  8
SUNPOU
  6
CONTINUOUS
 62
     4
 10
7773.3071850427186
 20
18209.48625200001
 30
0.0
 11
7062.6052530427169
 21
18209.48625200001
 31
0.0
  0
LINE
  5
12412
  8
SUNPOU
  6
CONTINUOUS
 62
     4
 10
7142.6052530427178
 20
19668.486251999992
 30
0.0
 11
7142.6052530427169
 21
18209.48625200001
 31
0.0
  0
LINE
  5
12413
  8
SUNPOU
  6
CONTINUOUS
 62
     4
 10
7062.6052530427169
 20
19668.486251999992
 30
0.0
 11
7102.6052530427169
 21
19668.486251999992
 31
0.0
  0
LINE
  5
12414
  8
SUNPOU
  6
CONTINUOUS
 62
     4
 10
7914.6043030427018
 20
19890.986120000001
 30
0.0
 11
7102.6052530427169
 21
19890.986120000001
 31
0.0
  0
LINE
  5
12415
  8
SUNPOU
  6
CONTINUOUS
 62
     4
 10
7142.6052530427169
 20
19668.486251999992
 30
0.0
 11
7142.6052530427169
 21
19890.986120000001
 31
0.0
  0
LINE
  5
12416
  8
SUNPOU
  6
CONTINUOUS
 62
     4
 10
7927.6041260426982
 20
19850.985987999979
 30
0.0
 11
7462.6045940427148
 21
19850.985987999979
 31
0.0
  0
LINE
  5
12417
  8
SUNPOU
  6
CONTINUOUS
 62
     4
 10
7914.6043030427018
 20
19890.986120000001
 30
0.0
 11
7462.6045940427148
 21
19890.986120000001
 31
0.0
  0
LINE
  5
12418
  8
SUNPOU
  6
CONTINUOUS
 62
     4
 10
7542.6045940427139
 20
19850.985987999979
 30
0.0
 11
7542.6045940427139
 21
19610.985987999989
 31
0.0
  0
LINE
  5
12419
  8
SUNPOU
  6
CONTINUOUS
 62
     4
 10
7542.6045940427139
 20
19890.986120000001
 30
0.0
 11
7542.6045940427139
 21
20130.986120000001
 31
0.0
  0
LINE
  5
1241A
  8
SUNPOU
  6
CONTINUOUS
 62
     4
 10
7542.6045940427139
 20
19850.985987999979
 30
0.0
 11
7542.6045940427139
 21
19890.986120000001
 31
0.0
  0
LINE
  5
1241B
  8
SUNPOU
  6
CONTINUOUS
 62
     4
 10
13439.605353042711
 20
20515.988164999992
 30
0.0
 11
13439.605353042711
 21
20590.987175999991
 31
0.0
  0
LINE
  5
1241C
  8
SUNPOU
  6
CONTINUOUS
 62
     4
 10
13525.105353042711
 20
19965.987834999982
 30
0.0
 11
13525.105353042711
 21
20590.987175999991
 31
0.0
  0
LINE
  5
1241D
  8
SUNPOU
  6
CONTINUOUS
 62
     4
 10
13439.605353042711
 20
20510.987175999991
 30
0.0
 11
13199.605353042711
 21
20510.987175999991
 31
0.0
  0
LINE
  5
1241E
  8
SUNPOU
  6
CONTINUOUS
 62
     4
 10
13522.105353042711
 20
20510.987175999991
 30
0.0
 11
13762.105353042711
 21
20510.987175999991
 31
0.0
  0
LINE
  5
1241F
  8
SUNPOU
  6
CONTINUOUS
 62
     4
 10
13439.605353042711
 20
20510.987175999991
 30
0.0
 11
13522.105353042711
 21
20510.987175999991
 31
0.0
  0
LINE
  5
12420
  8
SUNPOU
  6
CONTINUOUS
 62
     4
 10
10639.605353042711
 20
20515.988164999992
 30
0.0
 11
10639.605353042711
 21
20590.987175999991
 31
0.0
  0
LINE
  5
12421
  8
SUNPOU
  6
CONTINUOUS
 62
     4
 10
13439.605353042711
 20
20515.988164999992
 30
0.0
 11
13439.605353042711
 21
20590.987175999991
 31
0.0
  0
LINE
  5
12422
  8
SUNPOU
  6
CONTINUOUS
 62
     4
 10
10639.605353042711
 20
20510.987175999991
 30
0.0
 11
13439.605353042711
 21
20510.987175999991
 31
0.0
  0
LINE
  5
12423
  8
SUNPOU
  6
CONTINUOUS
 62
     4
 10
8072.1053530427062
 20
20040.987834999989
 30
0.0
 11
8072.1053530427062
 21
20590.987175999991
 31
0.0
  0
LINE
  5
12424
  8
SUNPOU
  6
CONTINUOUS
 62
     4
 10
10639.605353042711
 20
20515.988164999992
 30
0.0
 11
10639.605353042711
 21
20590.987175999991
 31
0.0
  0
LINE
  5
12425
  8
SUNPOU
  6
CONTINUOUS
 62
     4
 10
8072.1053530427062
 20
20510.987175999991
 30
0.0
 11
10639.605353042711
 21
20510.987175999991
 31
0.0
  0
LINE
  5
12426
  8
SUNPOU
  6
CONTINUOUS
 62
     4
 10
8072.1053530427062
 20
20040.987834999989
 30
0.0
 11
8072.1053530427062
 21
20590.987175999991
 31
0.0
  0
LINE
  5
12427
  8
SUNPOU
  6
CONTINUOUS
 62
     4
 10
7986.6053530427071
 20
19960.987571999998
 30
0.0
 11
7986.6053530427071
 21
20590.987175999991
 31
0.0
  0
LINE
  5
12428
  8
SUNPOU
  6
CONTINUOUS
 62
     4
 10
8072.1053530427062
 20
20510.987175999991
 30
0.0
 11
8312.1053530427089
 21
20510.987175999991
 31
0.0
  0
LINE
  5
12429
  8
SUNPOU
  6
CONTINUOUS
 62
     4
 10
7989.6053530427071
 20
20510.987175999991
 30
0.0
 11
7749.6053530427071
 21
20510.987175999991
 31
0.0
  0
LINE
  5
1242A
  8
SUNPOU
  6
CONTINUOUS
 62
     4
 10
8072.1053530427062
 20
20510.987175999991
 30
0.0
 11
7989.6053530427071
 21
20510.987175999991
 31
0.0
  0
LINE
  5
1242B
  8
SUNPOU
  6
CONTINUOUS
 62
     4
 10
7986.6053530427089
 20
13559.98625200001
 30
0.0
 11
7986.6053530427089
 21
12269.98546
 31
0.0
  0
LINE
  5
1242C
  8
SUNPOU
  6
CONTINUOUS
 62
     4
 10
13525.105353042711
 20
13559.986252000001
 30
0.0
 11
13525.105353042711
 21
12269.98546
 31
0.0
  0
LINE
  5
1242D
  8
SUNPOU
  6
CONTINUOUS
 62
     4
 10
7989.6053530427089
 20
12349.98546
 30
0.0
 11
13522.105353042711
 21
12349.98546
 31
0.0
  0
LINE
  5
1242E
  8
0-6
  6
CONTINUOUS
 62
     6
 10
25617.31586453626
 20
19452.88947925335
 30
0.0
 11
25723.643888484228
 21
19575.385710999992
 31
0.0
  0
LINE
  5
1242F
  8
0-6
  6
CONTINUOUS
 62
     6
 10
25723.643888484228
 20
19575.385710999992
 30
0.0
 11
25662.791768890958
 21
19425.024404324551
 31
0.0
  0
LINE
  5
12430
  8
0-6
  6
CONTINUOUS
 62
     6
 10
25662.791768890958
 20
19425.024404324551
 30
0.0
 11
25617.31586453626
 21
19452.88947925335
 31
0.0
  0
LINE
  5
12431
  8
0-6
  6
CONTINUOUS
 62
     6
 10
25645.500210042232
 20
19868.7030359327
 30
0.0
 11
25714.543888484211
 21
19721.924475045871
 31
0.0
  0
LINE
  5
12432
  8
0-6
  6
CONTINUOUS
 62
     6
 10
25714.543888484211
 20
19721.924475045871
 30
0.0
 11
25601.626888305062
 21
19838.377272670841
 31
0.0
  0
LINE
  5
12433
  8
0-6
  6
CONTINUOUS
 62
     6
 10
25601.626888305062
 20
19838.377272670841
 30
0.0
 11
25645.500210042232
 21
19868.7030359327
 31
0.0
  0
LINE
  5
12434
  8
0-6
  6
CONTINUOUS
 62
     6
 10
25617.31586453626
 20
16935.082047746651
 30
0.0
 11
25723.643888484228
 21
16812.585815999992
 31
0.0
  0
LINE
  5
12435
  8
0-6
  6
CONTINUOUS
 62
     6
 10
25723.643888484228
 20
16812.585815999992
 30
0.0
 11
25662.791768890958
 21
16962.947122675439
 31
0.0
  0
LINE
  5
12436
  8
0-6
  6
CONTINUOUS
 62
     6
 10
25662.791768890958
 20
16962.947122675439
 30
0.0
 11
25617.31586453626
 21
16935.082047746651
 31
0.0
  0
LINE
  5
12437
  8
0-6
  6
CONTINUOUS
 62
     6
 10
25617.31586453626
 20
14027.58248374665
 30
0.0
 11
25723.643888484228
 21
13905.086251999999
 31
0.0
  0
LINE
  5
12438
  8
0-6
  6
CONTINUOUS
 62
     6
 10
25723.643888484228
 20
13905.086251999999
 30
0.0
 11
25662.791768890958
 21
14055.447558675451
 31
0.0
  0
LINE
  5
12439
  8
0-6
  6
CONTINUOUS
 62
     6
 10
25662.791768890958
 20
14055.447558675451
 30
0.0
 11
25617.31586453626
 21
14027.58248374665
 31
0.0
  0
LINE
  5
1243A
  8
0-6
  6
CONTINUOUS
 62
     6
 10
25645.500210042232
 20
16519.268491067302
 30
0.0
 11
25714.543888484211
 21
16666.047051954109
 31
0.0
  0
LINE
  5
1243B
  8
0-6
  6
CONTINUOUS
 62
     6
 10
25714.543888484211
 20
16666.047051954109
 30
0.0
 11
25601.626888305062
 21
16549.594254329138
 31
0.0
  0
LINE
  5
1243C
  8
0-6
  6
CONTINUOUS
 62
     6
 10
25601.626888305062
 20
16549.594254329138
 30
0.0
 11
25645.500210042232
 21
16519.268491067302
 31
0.0
  0
LINE
  5
1243D
  8
0-6
  6
CONTINUOUS
 62
     6
 10
25645.500210042232
 20
13631.707691113181
 30
0.0
 11
25714.543888484211
 21
13778.486252000001
 31
0.0
  0
LINE
  5
1243E
  8
0-6
  6
CONTINUOUS
 62
     6
 10
25714.543888484211
 20
13778.486252000001
 30
0.0
 11
25601.626888305062
 21
13662.03345437501
 31
0.0
  0
LINE
  5
1243F
  8
0-6
  6
CONTINUOUS
 62
     6
 10
25601.626888305062
 20
13662.03345437501
 30
0.0
 11
25645.500210042232
 21
13631.707691113181
 31
0.0
  0
LINE
  5
12464
  8
SUNPOU
  6
CONTINUOUS
 62
     4
 10
22959.543888484211
 20
19790.98625200001
 30
0.0
 11
22959.543888484211
 21
20590.987175999991
 31
0.0
  0
LINE
  5
12465
  8
SUNPOU
  6
CONTINUOUS
 62
     4
 10
23002.043888484211
 20
19790.98625200001
 30
0.0
 11
23002.043888484211
 21
20590.987175999991
 31
0.0
  0
LINE
  5
12466
  8
SUNPOU
  6
CONTINUOUS
 62
     4
 10
22959.543888484211
 20
20510.987175999991
 30
0.0
 11
22719.543888484211
 21
20510.987175999991
 31
0.0
  0
LINE
  5
12467
  8
SUNPOU
  6
CONTINUOUS
 62
     4
 10
23002.043888484211
 20
20510.987175999991
 30
0.0
 11
23242.043888484211
 21
20510.987175999991
 31
0.0
  0
LINE
  5
12468
  8
SUNPOU
  6
CONTINUOUS
 62
     4
 10
22959.543888484211
 20
20510.987175999991
 30
0.0
 11
23002.043888484211
 21
20510.987175999991
 31
0.0
  0
LINE
  5
12469
  8
SUNPOU
  6
CONTINUOUS
 62
     4
 10
22201.543888484201
 20
19790.98625200001
 30
0.0
 11
22201.543888484201
 21
20590.987175999991
 31
0.0
  0
LINE
  5
1246A
  8
SUNPOU
  6
CONTINUOUS
 62
     4
 10
22959.543888484211
 20
19790.98625200001
 30
0.0
 11
22959.543888484211
 21
20590.987175999991
 31
0.0
  0
LINE
  5
1246B
  8
SUNPOU
  6
CONTINUOUS
 62
     4
 10
22201.543888484201
 20
20510.987175999991
 30
0.0
 11
22959.543888484211
 21
20510.987175999991
 31
0.0
  0
LINE
  5
1246C
  8
SUNPOU
  6
CONTINUOUS
 62
     4
 10
21500.543888484211
 20
19790.98625200001
 30
0.0
 11
21500.543888484211
 21
20590.987175999991
 31
0.0
  0
LINE
  5
1246D
  8
SUNPOU
  6
CONTINUOUS
 62
     4
 10
22201.543888484201
 20
19790.98625200001
 30
0.0
 11
22201.543888484201
 21
20590.987175999991
 31
0.0
  0
LINE
  5
1246E
  8
SUNPOU
  6
CONTINUOUS
 62
     4
 10
21500.543888484211
 20
20510.987175999991
 30
0.0
 11
22201.543888484201
 21
20510.987175999991
 31
0.0
  0
LINE
  5
1246F
  8
SUNPOU
  6
CONTINUOUS
 62
     4
 10
20799.543888484211
 20
19790.98625200001
 30
0.0
 11
20799.543888484211
 21
20590.987175999991
 31
0.0
  0
LINE
  5
12470
  8
SUNPOU
  6
CONTINUOUS
 62
     4
 10
21500.543888484211
 20
19790.98625200001
 30
0.0
 11
21500.543888484211
 21
20590.987175999991
 31
0.0
  0
LINE
  5
12471
  8
SUNPOU
  6
CONTINUOUS
 62
     4
 10
20799.543888484211
 20
20510.987175999991
 30
0.0
 11
21500.543888484211
 21
20510.987175999991
 31
0.0
  0
LINE
  5
12472
  8
SUNPOU
  6
CONTINUOUS
 62
     4
 10
20392.043888484211
 20
19870.988759
 30
0.0
 11
20392.043888484211
 21
20590.987175999991
 31
0.0
  0
LINE
  5
12473
  8
SUNPOU
  6
CONTINUOUS
 62
     4
 10
20799.543888484211
 20
19790.98625200001
 30
0.0
 11
20799.543888484211
 21
20590.987175999991
 31
0.0
  0
LINE
  5
12474
  8
SUNPOU
  6
CONTINUOUS
 62
     4
 10
20392.043888484211
 20
20510.987175999991
 30
0.0
 11
20799.543888484211
 21
20510.987175999991
 31
0.0
  0
LINE
  5
12475
  8
SUNPOU
  6
CONTINUOUS
 62
     4
 10
20392.043888484211
 20
19870.988759
 30
0.0
 11
20392.043888484211
 21
20590.987175999991
 31
0.0
  0
LINE
  5
12476
  8
SUNPOU
  6
CONTINUOUS
 62
     4
 10
20349.543888484201
 20
19790.98625200001
 30
0.0
 11
20349.543888484201
 21
20590.987175999991
 31
0.0
  0
LINE
  5
12477
  8
SUNPOU
  6
CONTINUOUS
 62
     4
 10
20392.043888484211
 20
20510.987175999991
 30
0.0
 11
20632.043888484211
 21
20510.987175999991
 31
0.0
  0
LINE
  5
12478
  8
SUNPOU
  6
CONTINUOUS
 62
     4
 10
20349.543888484201
 20
20510.987175999991
 30
0.0
 11
20109.543888484211
 21
20510.987175999991
 31
0.0
  0
LINE
  5
12479
  8
SUNPOU
  6
CONTINUOUS
 62
     4
 10
20392.043888484211
 20
20510.987175999991
 30
0.0
 11
20349.543888484201
 21
20510.987175999991
 31
0.0
  0
LINE
  5
12487
  8
SUNPOU
  6
CONTINUOUS
 62
     4
 10
22959.543888484211
 20
20910.987175999991
 30
0.0
 11
25759.543888484211
 21
20910.987175999991
 31
0.0
  0
LINE
  5
12488
  8
SUNPOU
  6
CONTINUOUS
 62
     4
 10
20392.043888484211
 20
20910.987175999991
 30
0.0
 11
22959.543888484211
 21
20910.987175999991
 31
0.0
  0
LINE
  5
12489
  8
SUNPOU
  6
CONTINUOUS
 62
     4
 10
25759.543888484211
 20
20035.436025877341
 30
0.0
 11
25759.543888484211
 21
20590.987175999991
 31
0.0
  0
LINE
  5
1248A
  8
SUNPOU
  6
CONTINUOUS
 62
     4
 10
25717.041645484209
 20
19874.33651600001
 30
0.0
 11
25717.041645484209
 21
20590.987175999991
 31
0.0
  0
LINE
  5
1248B
  8
SUNPOU
  6
CONTINUOUS
 62
     4
 10
25759.543888484211
 20
20510.987175999991
 30
0.0
 11
25999.543888484211
 21
20510.987175999991
 31
0.0
  0
LINE
  5
1248C
  8
SUNPOU
  6
CONTINUOUS
 62
     4
 10
25717.041645484209
 20
20510.987175999991
 30
0.0
 11
25477.041645484209
 21
20510.987175999991
 31
0.0
  0
LINE
  5
1248D
  8
SUNPOU
  6
CONTINUOUS
 62
     4
 10
25759.543888484211
 20
20510.987175999991
 30
0.0
 11
25717.041645484209
 21
20510.987175999991
 31
0.0
  0
LINE
  5
1248E
  8
SUNPOU
  6
CONTINUOUS
 62
     4
 10
25759.543888484211
 20
20035.436025877341
 30
0.0
 11
25759.543888484211
 21
20590.987175999991
 31
0.0
  0
LINE
  5
1248F
  8
SUNPOU
  6
CONTINUOUS
 62
     4
 10
25802.042173484209
 20
19870.988759
 30
0.0
 11
25802.042173484209
 21
20590.987175999991
 31
0.0
  0
LINE
  5
12490
  8
SUNPOU
  6
CONTINUOUS
 62
     4
 10
25759.543888484211
 20
20510.987175999991
 30
0.0
 11
25519.543888484211
 21
20510.987175999991
 31
0.0
  0
LINE
  5
12491
  8
SUNPOU
  6
CONTINUOUS
 62
     4
 10
25802.042173484209
 20
20510.987175999991
 30
0.0
 11
26042.042173484209
 21
20510.987175999991
 31
0.0
  0
LINE
  5
12492
  8
SUNPOU
  6
CONTINUOUS
 62
     4
 10
25759.543888484211
 20
20510.987175999991
 30
0.0
 11
25802.042173484209
 21
20510.987175999991
 31
0.0
  0
LINE
  5
12493
  8
SUNPOU
  6
CONTINUOUS
 62
     4
 10
26144.148724436149
 20
16750.486251999992
 30
0.0
 11
27057.387512852842
 21
16750.486251999992
 31
0.0
  0
LINE
  5
12494
  8
SUNPOU
  6
CONTINUOUS
 62
     4
 10
26144.148724436149
 20
19668.486251999992
 30
0.0
 11
27057.387512852842
 21
19668.486251999992
 31
0.0
  0
LINE
  5
12495
  8
SUNPOU
  6
CONTINUOUS
 62
     4
 10
26977.387512852842
 20
16750.486251999992
 30
0.0
 11
26977.387512852842
 21
19668.486251999992
 31
0.0
  0
LINE
  5
12496
  8
SUNPOU
  6
CONTINUOUS
 62
     4
 10
26144.148724436149
 20
13832.48625200001
 30
0.0
 11
27057.387512852842
 21
13832.48625200001
 31
0.0
  0
LINE
  5
12497
  8
SUNPOU
  6
CONTINUOUS
 62
     4
 10
26144.148724436149
 20
16750.486251999992
 30
0.0
 11
27057.387512852842
 21
16750.486251999992
 31
0.0
  0
LINE
  5
12498
  8
SUNPOU
  6
CONTINUOUS
 62
     4
 10
26977.387512852842
 20
13832.48625200001
 30
0.0
 11
26977.387512852842
 21
16750.486251999992
 31
0.0
  0
ARC
  5
124B0
  8
1-前柱P
 10
25769.14388848421
 20
13900.886252
 30
0.0
 40
1.0
 50
90.0
 51
180.0
  0
LINE
  5
124B1
  8
1-前柱P
 10
25768.143888484221
 20
13900.886252
 30
0.0
 11
25768.143888484221
 21
13899.286252
 31
0.0
  0
LINE
  5
124B2
  8
1-前柱P
 10
25768.143888484221
 20
13899.286252
 30
0.0
 11
25756.94388848422
 21
13899.286252
 31
0.0
  0
LINE
  5
124B3
  8
1-前柱P
 10
25756.94388848422
 20
13899.286252
 30
0.0
 11
25756.943888484198
 21
13900.886252
 31
0.0
  0
ARC
  5
124B4
  8
1-前柱P
 10
25755.94388848422
 20
13900.886252
 30
0.0
 40
1.0
 50
0.0
 51
90.0
  0
ARC
  5
124B5
  8
1-中柱P
 10
25752.943888484198
 20
16818.786252000002
 30
0.0
 40
1.0
 50
0.0
 51
90.0
  0
LINE
  5
124B6
  8
1-中柱P
 10
25753.943888484209
 20
16818.786252000002
 30
0.0
 11
25753.943888484209
 21
16817.18625200001
 31
0.0
  0
LINE
  5
124B7
  8
1-中柱P
 10
25753.943888484209
 20
16817.18625200001
 30
0.0
 11
25765.143888484199
 21
16817.18625200001
 31
0.0
  0
LINE
  5
124B8
  8
1-中柱P
 10
25765.143888484199
 20
16817.18625200001
 30
0.0
 11
25765.143888484199
 21
16818.786252000002
 31
0.0
  0
ARC
  5
124B9
  8
1-中柱P
 10
25766.14388848421
 20
16818.786252000002
 30
0.0
 40
1.0
 50
90.0
 51
180.0
  0
ARC
  5
124BA
  8
1-後柱P
 10
25749.943888484231
 20
19600.436251999989
 30
0.0
 40
1.0
 50
270.0
 51
0.0
  0
LINE
  5
124BB
  8
1-後柱P
 10
25750.943888484238
 20
19600.436251999989
 30
0.0
 11
25750.943888484238
 21
19602.036252000002
 31
0.0
  0
LINE
  5
124BC
  8
1-後柱P
 10
25750.943888484238
 20
19602.036252000002
 30
0.0
 11
25762.143888484228
 21
19602.036252000002
 31
0.0
  0
LINE
  5
124BD
  8
1-後柱P
 10
25762.143888484228
 20
19602.036252000002
 30
0.0
 11
25762.143888484228
 21
19600.436251999989
 31
0.0
  0
ARC
  5
124BE
  8
1-後柱P
 10
25763.143888484221
 20
19600.436251999989
 30
0.0
 40
1.0
 50
180.0
 51
270.0
  0
LINE
  5
124BF
  8
SUNPOU
  6
CONTINUOUS
 62
     4
 10
7274.2655053700191
 20
8478.188374000003
 30
0.0
 11
7274.2655053700191
 21
9869.1883999999955
 31
0.0
  0
LINE
  5
124C0
  8
SUNPOU
  6
CONTINUOUS
 62
     4
 10
13525.26550537002
 20
8610.0781974124311
 30
0.0
 11
13525.26550537002
 21
9869.1883999999955
 31
0.0
  0
LINE
  5
124C1
  8
SUNPOU
  6
CONTINUOUS
 62
     4
 10
7274.2655053700191
 20
9789.1883999999955
 30
0.0
 11
13525.26550537002
 21
9789.1883999999955
 31
0.0
  0
LINE
  5
124C2
  8
SUNPOU
  6
CONTINUOUS
 62
     4
 10
13375.265505370009
 20
8536.0984379999973
 30
0.0
 11
13375.265505370009
 21
9469.1900500000029
 31
0.0
  0
LINE
  5
124C3
  8
SUNPOU
  6
CONTINUOUS
 62
     4
 10
13525.26550537002
 20
8610.0781974124311
 30
0.0
 11
13525.26550537002
 21
9469.1900500000029
 31
0.0
  0
LINE
  5
124C4
  8
SUNPOU
  6
CONTINUOUS
 62
     4
 10
13375.265505370009
 20
9389.1900500000029
 30
0.0
 11
13135.265505370009
 21
9389.1900500000029
 31
0.0
  0
LINE
  5
124C5
  8
SUNPOU
  6
CONTINUOUS
 62
     4
 10
13525.26550537002
 20
9389.1900500000029
 30
0.0
 11
13765.26550537002
 21
9389.1900500000029
 31
0.0
  0
LINE
  5
124C6
  8
SUNPOU
  6
CONTINUOUS
 62
     4
 10
13375.265505370009
 20
9389.1900500000029
 30
0.0
 11
13525.26550537002
 21
9389.1900500000029
 31
0.0
  0
LINE
  5
124C7
  8
SUNPOU
  6
CONTINUOUS
 62
     4
 10
7454.2655053700191
 20
8348.3741496838102
 30
0.0
 11
7454.2655053700191
 21
9469.1900500000029
 31
0.0
  0
LINE
  5
124C8
  8
SUNPOU
  6
CONTINUOUS
 62
     4
 10
13375.265505370009
 20
8536.0984379999973
 30
0.0
 11
13375.265505370009
 21
9469.1900500000029
 31
0.0
  0
LINE
  5
124C9
  8
SUNPOU
  6
CONTINUOUS
 62
     4
 10
7454.2655053700191
 20
9389.1900500000029
 30
0.0
 11
13375.265505370009
 21
9389.1900500000029
 31
0.0
  0
LINE
  5
124CA
  8
SUNPOU
  6
CONTINUOUS
 62
     4
 10
7274.2655053700191
 20
8478.188374000003
 30
0.0
 11
7274.2655053700191
 21
9469.1900500000029
 31
0.0
  0
LINE
  5
124CB
  8
SUNPOU
  6
CONTINUOUS
 62
     4
 10
7454.2655053700191
 20
8348.3741496838102
 30
0.0
 11
7454.2655053700191
 21
9469.1900500000029
 31
0.0
  0
LINE
  5
124CC
  8
SUNPOU
  6
CONTINUOUS
 62
     4
 10
7274.2655053700191
 20
9389.1900500000029
 30
0.0
 11
7454.2655053700191
 21
9389.1900500000029
 31
0.0
  0
LINE
  5
124CD
  8
SUNPOU
  6
CONTINUOUS
 62
     4
 10
13467.765505370009
 20
6241.1883740000021
 30
0.0
 11
14545.26590137001
 21
6241.1883740000021
 31
0.0
  0
LINE
  5
124CE
  8
SUNPOU
  6
CONTINUOUS
 62
     4
 10
13560.072764969391
 20
8589.688374000003
 30
0.0
 11
14545.26590137001
 21
8589.688374000003
 31
0.0
  0
LINE
  5
124CF
  8
SUNPOU
  6
CONTINUOUS
 62
     4
 10
14465.26590137001
 20
6241.1883740000021
 30
0.0
 11
14465.26590137001
 21
8589.688374000003
 31
0.0
  0
LINE
  5
124D0
  8
SUNPOU
  6
CONTINUOUS
 62
     4
 10
7366.7655053700182
 20
6241.1883740000021
 30
0.0
 11
6284.2651093700224
 21
6241.1883740000021
 31
0.0
  0
LINE
  5
124D1
  8
SUNPOU
  6
CONTINUOUS
 62
     4
 10
7194.2655053700182
 20
8397.688374000003
 30
0.0
 11
6284.2651093700224
 21
8397.688374000003
 31
0.0
  0
LINE
  5
124D2
  8
SUNPOU
  6
CONTINUOUS
 62
     4
 10
6364.2651093700224
 20
6241.1883740000021
 30
0.0
 11
6364.2651093700224
 21
8397.688374000003
 31
0.0
  0
LINE
  5
124D3
  8
SUNPOU
  6
CONTINUOUS
 62
     4
 10
7454.2655053700191
 20
6161.1883740000021
 30
0.0
 11
7454.2655053700191
 21
4461.1887039999992
 31
0.0
  0
LINE
  5
124D4
  8
SUNPOU
  6
CONTINUOUS
 62
     4
 10
13375.265505370009
 20
6161.1883740000021
 30
0.0
 11
13375.265505370009
 21
4461.1887039999992
 31
0.0
  0
LINE
  5
124D5
  8
SUNPOU
  6
CONTINUOUS
 62
     4
 10
7454.2655053700191
 20
4541.1887039999983
 30
0.0
 11
13375.265505370009
 21
4541.1887039999983
 31
0.0
  0
LINE
  5
124D6
  8
SUNPOU
  6
CONTINUOUS
 62
     4
 10
13332.76550537002
 20
5798.5361160000011
 30
0.0
 11
13332.76550537002
 21
4861.1885389999998
 31
0.0
  0
LINE
  5
124D7
  8
SUNPOU
  6
CONTINUOUS
 62
     4
 10
13375.265505370009
 20
6161.1883740000021
 30
0.0
 11
13375.265505370009
 21
4861.1885389999998
 31
0.0
  0
LINE
  5
124D8
  8
SUNPOU
  6
CONTINUOUS
 62
     4
 10
13332.76550537002
 20
4941.1885390000016
 30
0.0
 11
13092.76550537002
 21
4941.1885390000016
 31
0.0
  0
LINE
  5
124D9
  8
SUNPOU
  6
CONTINUOUS
 62
     4
 10
13375.265505370009
 20
4941.1885390000016
 30
0.0
 11
13615.26550537002
 21
4941.1885390000016
 31
0.0
  0
LINE
  5
124DA
  8
SUNPOU
  6
CONTINUOUS
 62
     4
 10
13332.76550537002
 20
4941.1885390000016
 30
0.0
 11
13375.265505370009
 21
4941.1885390000016
 31
0.0
  0
LINE
  5
124DB
  8
SUNPOU
  6
CONTINUOUS
 62
     4
 10
7496.7655053700182
 20
5798.5361160000011
 30
0.0
 11
7496.7655053700182
 21
4861.1885389999998
 31
0.0
  0
LINE
  5
124DC
  8
SUNPOU
  6
CONTINUOUS
 62
     4
 10
7454.2655053700191
 20
6161.1883740000021
 30
0.0
 11
7454.2655053700191
 21
4861.1885389999998
 31
0.0
  0
LINE
  5
124DD
  8
SUNPOU
  6
CONTINUOUS
 62
     4
 10
7496.7655053700182
 20
4941.1885390000016
 30
0.0
 11
7736.7655053700191
 21
4941.1885390000016
 31
0.0
  0
LINE
  5
124DE
  8
SUNPOU
  6
CONTINUOUS
 62
     4
 10
7454.2655053700191
 20
4941.1885390000016
 30
0.0
 11
7214.2655053700182
 21
4941.1885390000016
 31
0.0
  0
LINE
  5
124DF
  8
SUNPOU
  6
CONTINUOUS
 62
     4
 10
7496.7655053700182
 20
4941.1885390000016
 30
0.0
 11
7454.2655053700191
 21
4941.1885390000016
 31
0.0
  0
LINE
  5
124E0
  8
SUNPOU
  6
CONTINUOUS
 62
     4
 10
10414.76550537002
 20
5798.5361160000011
 30
0.0
 11
10414.76550537002
 21
4861.1885389999998
 31
0.0
  0
LINE
  5
124E1
  8
SUNPOU
  6
CONTINUOUS
 62
     4
 10
7496.7655053700182
 20
5798.5361160000011
 30
0.0
 11
7496.7655053700182
 21
4861.1885389999998
 31
0.0
  0
LINE
  5
124E2
  8
SUNPOU
  6
CONTINUOUS
 62
     4
 10
10414.76550537002
 20
4941.1885390000016
 30
0.0
 11
7496.7655053700182
 21
4941.1885390000016
 31
0.0
  0
LINE
  5
124E3
  8
SUNPOU
  6
CONTINUOUS
 62
     4
 10
10414.76550537002
 20
5798.5361160000011
 30
0.0
 11
10414.76550537002
 21
4861.1885389999998
 31
0.0
  0
LINE
  5
124E4
  8
SUNPOU
  6
CONTINUOUS
 62
     4
 10
13332.76550537002
 20
5798.5361160000011
 30
0.0
 11
13332.76550537002
 21
4861.1885389999998
 31
0.0
  0
LINE
  5
124E5
  8
SUNPOU
  6
CONTINUOUS
 62
     4
 10
10414.76550537002
 20
4941.1885390000016
 30
0.0
 11
13332.76550537002
 21
4941.1885390000016
 31
0.0
  0
LINE
  5
124E6
  8
SUNPOU
  6
CONTINUOUS
 62
     4
 10
20285.54202748424
 20
8669.6883999999955
 30
0.0
 11
20285.54202748424
 21
9869.1329740000037
 31
0.0
  0
LINE
  5
124E7
  8
SUNPOU
  6
CONTINUOUS
 62
     4
 10
25824.04202748424
 20
8669.6883999999955
 30
0.0
 11
25824.04202748424
 21
9869.1329740000037
 31
0.0
  0
LINE
  5
124E8
  8
SUNPOU
  6
CONTINUOUS
 62
     4
 10
20288.54202748424
 20
9789.1329740000037
 30
0.0
 11
25821.04202748424
 21
9789.1329740000037
 31
0.0
  0
LINE
  5
124E9
  8
SUNPOU
  6
CONTINUOUS
 62
     4
 10
25781.04202748424
 20
8669.6883999999955
 30
0.0
 11
25781.04202748424
 21
9469.1900500000029
 31
0.0
  0
LINE
  5
124EA
  8
SUNPOU
  6
CONTINUOUS
 62
     4
 10
25824.04202748424
 20
8669.6883999999955
 30
0.0
 11
25824.04202748424
 21
9469.1900500000029
 31
0.0
  0
LINE
  5
124EB
  8
SUNPOU
  6
CONTINUOUS
 62
     4
 10
25781.04202748424
 20
9389.1900500000029
 30
0.0
 11
25541.042027484229
 21
9389.1900500000029
 31
0.0
  0
LINE
  5
124EC
  8
SUNPOU
  6
CONTINUOUS
 62
     4
 10
25821.04202748424
 20
9389.1900500000029
 30
0.0
 11
26061.04202748424
 21
9389.1900500000029
 31
0.0
  0
LINE
  5
124ED
  8
SUNPOU
  6
CONTINUOUS
 62
     4
 10
25781.04202748424
 20
9389.1900500000029
 30
0.0
 11
25821.04202748424
 21
9389.1900500000029
 31
0.0
  0
LINE
  5
124EE
  8
SUNPOU
  6
CONTINUOUS
 62
     4
 10
20328.54202748424
 20
8539.6884659999996
 30
0.0
 11
20328.54202748424
 21
9469.1900500000029
 31
0.0
  0
LINE
  5
124EF
  8
SUNPOU
  6
CONTINUOUS
 62
     4
 10
20285.54202748424
 20
8669.6883999999955
 30
0.0
 11
20285.54202748424
 21
9469.1900500000029
 31
0.0
  0
LINE
  5
124F0
  8
SUNPOU
  6
CONTINUOUS
 62
     4
 10
20328.54202748424
 20
9389.1900500000029
 30
0.0
 11
20568.54202748424
 21
9389.1900500000029
 31
0.0
  0
LINE
  5
124F1
  8
SUNPOU
  6
CONTINUOUS
 62
     4
 10
20288.54202748424
 20
9389.1900500000029
 30
0.0
 11
20048.54202748424
 21
9389.1900500000029
 31
0.0
  0
LINE
  5
124F2
  8
SUNPOU
  6
CONTINUOUS
 62
     4
 10
20328.54202748424
 20
9389.1900500000029
 30
0.0
 11
20288.54202748424
 21
9389.1900500000029
 31
0.0
  0
LINE
  5
124F3
  8
SUNPOU
  6
CONTINUOUS
 62
     4
 10
22981.04202748424
 20
8539.6884659999996
 30
0.0
 11
22981.04202748424
 21
9469.1900500000029
 31
0.0
  0
LINE
  5
124F4
  8
SUNPOU
  6
CONTINUOUS
 62
     4
 10
20328.54202748424
 20
8539.6884659999996
 30
0.0
 11
20328.54202748424
 21
9469.1900500000029
 31
0.0
  0
LINE
  5
124F5
  8
SUNPOU
  6
CONTINUOUS
 62
     4
 10
22981.04202748424
 20
9389.1900500000029
 30
0.0
 11
20328.54202748424
 21
9389.1900500000029
 31
0.0
  0
LINE
  5
124F6
  8
SUNPOU
  6
CONTINUOUS
 62
     4
 10
20241.039388484241
 20
6241.1883740000021
 30
0.0
 11
19041.039388484241
 21
6241.1883740000021
 31
0.0
  0
LINE
  5
124F7
  8
SUNPOU
  6
CONTINUOUS
 62
     4
 10
20208.54202748424
 20
8589.6883999999973
 30
0.0
 11
19041.039388484241
 21
8589.6883999999973
 31
0.0
  0
LINE
  5
124F8
  8
SUNPOU
  6
CONTINUOUS
 62
     4
 10
19121.039388484241
 20
6241.1883740000021
 30
0.0
 11
19121.039388484241
 21
8589.6883999999973
 31
0.0
  0
LINE
  5
124F9
  8
SUNPOU
  6
CONTINUOUS
 62
     4
 10
20241.039388484241
 20
6241.1883740000021
 30
0.0
 11
19441.03872848424
 21
6241.1883740000021
 31
0.0
  0
LINE
  5
124FA
  8
SUNPOU
  6
CONTINUOUS
 62
     4
 10
20333.538332484241
 20
8132.6883740000021
 30
0.0
 11
19441.03872848424
 21
8132.6883740000021
 31
0.0
  0
LINE
  5
124FB
  8
SUNPOU
  6
CONTINUOUS
 62
     4
 10
19521.03872848424
 20
6241.1883740000021
 30
0.0
 11
19521.03872848424
 21
8132.6883740000021
 31
0.0
  0
LINE
  5
124FC
  8
SUNPOU
  6
CONTINUOUS
 62
     4
 10
22984.042027484229
 20
6161.1883740000021
 30
0.0
 11
22984.042027484229
 21
5261.188374000003
 31
0.0
  0
LINE
  5
124FD
  8
SUNPOU
  6
CONTINUOUS
 62
     4
 10
25696.04202748424
 20
6061.1885389999989
 30
0.0
 11
25696.04202748424
 21
5261.188374000003
 31
0.0
  0
LINE
  5
124FE
  8
SUNPOU
  6
CONTINUOUS
 62
     4
 10
22984.042027484229
 20
5341.188374000003
 30
0.0
 11
25696.04202748424
 21
5341.188374000003
 31
0.0
  0
LINE
  5
124FF
  8
SUNPOU
  6
CONTINUOUS
 62
     4
 10
20328.581980431769
 20
6161.1883740000021
 30
0.0
 11
20328.581980431769
 21
4461.1887040000574
 31
0.0
  0
LINE
  5
12500
  8
SUNPOU
  6
CONTINUOUS
 62
     4
 10
25781.04202748424
 20
6061.1885389999989
 30
0.0
 11
25781.04202748424
 21
4461.1887040000574
 31
0.0
  0
LINE
  5
12501
  8
SUNPOU
  6
CONTINUOUS
 62
     4
 10
20328.581980431769
 20
4541.1887040000556
 30
0.0
 11
25781.04202748424
 21
4541.1887040000556
 31
0.0
  0
LINE
  5
12502
  8
SUNPOU
  6
CONTINUOUS
 62
     4
 10
20371.04202748424
 20
5798.5361160000011
 30
0.0
 11
20371.04202748424
 21
4861.1885389999998
 31
0.0
  0
LINE
  5
12503
  8
SUNPOU
  6
CONTINUOUS
 62
     4
 10
20328.581980431769
 20
6161.1883740000021
 30
0.0
 11
20328.581980431769
 21
4861.1885389999998
 31
0.0
  0
LINE
  5
12504
  8
SUNPOU
  6
CONTINUOUS
 62
     4
 10
20371.04202748424
 20
4941.1885390000016
 30
0.0
 11
20611.04202748424
 21
4941.1885390000016
 31
0.0
  0
LINE
  5
12505
  8
SUNPOU
  6
CONTINUOUS
 62
     4
 10
20328.581980431769
 20
4941.1885390000016
 30
0.0
 11
20088.581980431769
 21
4941.1885390000016
 31
0.0
  0
LINE
  5
12506
  8
SUNPOU
  6
CONTINUOUS
 62
     4
 10
20371.04202748424
 20
4941.1885390000016
 30
0.0
 11
20328.581980431769
 21
4941.1885390000016
 31
0.0
  0
LINE
  5
12507
  8
SUNPOU
  6
CONTINUOUS
 62
     4
 10
22938.542027484229
 20
5798.5361160000011
 30
0.0
 11
22938.542027484229
 21
4861.1885389999998
 31
0.0
  0
LINE
  5
12508
  8
SUNPOU
  6
CONTINUOUS
 62
     4
 10
20371.04202748424
 20
5798.5361160000011
 30
0.0
 11
20371.04202748424
 21
4861.1885389999998
 31
0.0
  0
LINE
  5
12509
  8
SUNPOU
  6
CONTINUOUS
 62
     4
 10
22938.542027484229
 20
4941.1885390000016
 30
0.0
 11
20371.04202748424
 21
4941.1885390000016
 31
0.0
  0
LINE
  5
1250A
  8
SUNPOU
  6
CONTINUOUS
 62
     4
 10
20465.042027484229
 20
6061.1885389999989
 30
0.0
 11
20465.042027484229
 21
5261.188374000003
 31
0.0
  0
LINE
  5
1250B
  8
SUNPOU
  6
CONTINUOUS
 62
     4
 10
22844.54202748424
 20
6061.1885389999989
 30
0.0
 11
22844.54202748424
 21
5261.188374000003
 31
0.0
  0
LINE
  5
1250C
  8
SUNPOU
  6
CONTINUOUS
 62
     4
 10
20465.042027484229
 20
5341.188374000003
 30
0.0
 11
22844.54202748424
 21
5341.188374000003
 31
0.0
  0
LINE
  5
1250D
  8
SUNPOU
  6
CONTINUOUS
 62
     4
 10
25738.542027484251
 20
5798.5361160000011
 30
0.0
 11
25738.542027484251
 21
4861.1885389999998
 31
0.0
  0
LINE
  5
1250E
  8
SUNPOU
  6
CONTINUOUS
 62
     4
 10
25781.04202748424
 20
6061.1885389999989
 30
0.0
 11
25781.04202748424
 21
4861.1885389999998
 31
0.0
  0
LINE
  5
1250F
  8
SUNPOU
  6
CONTINUOUS
 62
     4
 10
25738.542027484251
 20
4941.1885390000016
 30
0.0
 11
25498.542027484251
 21
4941.1885390000016
 31
0.0
  0
LINE
  5
12510
  8
SUNPOU
  6
CONTINUOUS
 62
     4
 10
25781.04202748424
 20
4941.1885390000016
 30
0.0
 11
26021.04202748424
 21
4941.1885390000016
 31
0.0
  0
LINE
  5
12511
  8
SUNPOU
  6
CONTINUOUS
 62
     4
 10
25738.542027484251
 20
4941.1885390000016
 30
0.0
 11
25781.04202748424
 21
4941.1885390000016
 31
0.0
  0
LINE
  5
12512
  8
SUNPOU
  6
CONTINUOUS
 62
     4
 10
22938.542027484229
 20
5798.5361160000011
 30
0.0
 11
22938.542027484229
 21
4861.1885389999998
 31
0.0
  0
LINE
  5
12513
  8
SUNPOU
  6
CONTINUOUS
 62
     4
 10
25738.542027484251
 20
5798.5361160000011
 30
0.0
 11
25738.542027484251
 21
4861.1885389999998
 31
0.0
  0
LINE
  5
12514
  8
SUNPOU
  6
CONTINUOUS
 62
     4
 10
22938.542027484229
 20
4941.1885390000016
 30
0.0
 11
25738.542027484251
 21
4941.1885390000016
 31
0.0
  0
LINE
  5
12515
  8
SUNPOU
  6
CONTINUOUS
 62
     4
 10
22981.04202748424
 20
8539.6884659999996
 30
0.0
 11
22981.04202748424
 21
9469.1900500000029
 31
0.0
  0
LINE
  5
12516
  8
SUNPOU
  6
CONTINUOUS
 62
     4
 10
25781.04202748424
 20
8669.6883999999955
 30
0.0
 11
25781.04202748424
 21
9469.1900500000029
 31
0.0
  0
LINE
  5
12517
  8
SUNPOU
  6
CONTINUOUS
 62
     4
 10
22981.04202748424
 20
9389.1900500000029
 30
0.0
 11
25781.04202748424
 21
9389.1900500000029
 31
0.0
  0
LINE
  5
12518
  8
SUNPOU
  6
CONTINUOUS
 62
     4
 10
25861.04202748424
 20
6241.1883740000021
 30
0.0
 11
26945.864425778622
 21
6241.1883740000021
 31
0.0
  0
LINE
  5
12519
  8
SUNPOU
  6
CONTINUOUS
 62
     4
 10
25861.04202748424
 20
8261.1883740000048
 30
0.0
 11
26945.864425778622
 21
8261.1883740000048
 31
0.0
  0
LINE
  5
1251A
  8
SUNPOU
  6
CONTINUOUS
 62
     4
 10
26865.864425778622
 20
6241.1883740000021
 30
0.0
 11
26865.864425778622
 21
8261.1883740000048
 31
0.0
  0
LINE
  5
1251B
  8
0-6
  6
CONTINUOUS
 62
     6
 10
8938.3190632488022
 20
16529.265465632951
 30
0.0
 11
8999.5161799517955
 21
16679.484933000022
 31
0.0
  0
LINE
  5
1251C
  8
0-6
  6
CONTINUOUS
 62
     6
 10
8999.5161799517955
 20
16679.484933000022
 30
0.0
 11
8892.9056755295151
 21
16557.232311960772
 31
0.0
  0
LINE
  5
1251D
  8
0-6
  6
CONTINUOUS
 62
     6
 10
8892.9056755295151
 20
16557.232311960772
 30
0.0
 11
8938.3190632488022
 21
16529.265465632951
 31
0.0
  0
LINE
  5
1251E
  8
0-6
  6
CONTINUOUS
 62
     6
 10
8754.2602926230902
 20
15048.615000956181
 30
0.0
 11
8828.9800376937237
 21
15192.586995334899
 31
0.0
  0
LINE
  5
1251F
  8
0-6
  6
CONTINUOUS
 62
     6
 10
8828.9800376937237
 20
15192.586995334899
 30
0.0
 11
8711.6039947100653
 21
15080.63000565742
 31
0.0
  0
LINE
  5
12520
  8
0-6
  6
CONTINUOUS
 62
     6
 10
8711.6039947100653
 20
15080.63000565742
 30
0.0
 11
8754.2602926230902
 21
15048.615000956181
 31
0.0
  0
LINE
  5
12521
  8
0-6
  6
CONTINUOUS
 62
     6
 10
8754.2602926230902
 20
18005.013373621288
 30
0.0
 11
8828.9800376937237
 21
18148.985368000009
 31
0.0
  0
LINE
  5
12522
  8
0-6
  6
CONTINUOUS
 62
     6
 10
8828.9800376937237
 20
18148.985368000009
 30
0.0
 11
8711.6039947100653
 21
18037.02837832252
 31
0.0
  0
LINE
  5
12523
  8
0-6
  6
CONTINUOUS
 62
     6
 10
8711.6039947100653
 20
18037.02837832252
 30
0.0
 11
8754.2602926230902
 21
18005.013373621288
 31
0.0
  0
LINE
  5
12524
  8
0-6
  6
CONTINUOUS
 62
     6
 10
9717.7553492366678
 20
15580.557178458521
 30
0.0
 11
9855.2048401731172
 21
15666.6885485284
 31
0.0
  0
LINE
  5
12525
  8
0-6
  6
CONTINUOUS
 62
     6
 10
9855.2048401731172
 20
15666.6885485284
 30
0.0
 11
9697.2488355681671
 21
15629.79134520104
 31
0.0
  0
LINE
  5
12526
  8
0-6
  6
CONTINUOUS
 62
     6
 10
9697.2488355681671
 20
15629.79134520104
 30
0.0
 11
9717.7553492366678
 21
15580.557178458521
 31
0.0
  0
LINE
  5
12527
  8
0-6
  6
CONTINUOUS
 62
     6
 10
13340.315430377061
 20
14143.059663154811
 30
0.0
 11
13386.60572204271
 21
14298.52086206411
 31
0.0
  0
LINE
  5
12528
  8
0-6
  6
CONTINUOUS
 62
     6
 10
13386.60572204271
 20
14298.52086206411
 30
0.0
 11
13292.396336045969
 21
14166.47505715437
 31
0.0
  0
LINE
  5
12529
  8
0-6
  6
CONTINUOUS
 62
     6
 10
13292.396336045969
 20
14166.47505715437
 30
0.0
 11
13340.315430377061
 21
14143.059663154811
 31
0.0
  0
TEXT
  5
1252A
  8
0
  6
CONTINUOUS
 62
     7
 10
26785.864425778622
 20
6588.1883740000094
 30
0.0
 40
160.0
  1
有効高サ2020
 50
90.0
  0
TEXT
  5
1252B
  8
0
  6
CONTINUOUS
 62
     7
 10
24114.375360817568
 20
9469.1900500000029
 30
0.0
 40
160.0
  1
2800
  0
TEXT
  5
1252C
  8
0
  6
CONTINUOUS
 62
     7
 10
24071.875360817579
 20
5021.1885389999998
 30
0.0
 40
160.0
  1
2800
  0
TEXT
  5
1252D
  8
0
  6
CONTINUOUS
 62
     7
 10
25901.042687484241
 20
5021.1883080000007
 30
0.0
 40
160.0
  1
42.5
  0
TEXT
  5
1252E
  8
0
  6
CONTINUOUS
 62
     7
 10
20774.79202748424
 20
5421.188374000003
 30
0.0
 40
160.0
  1
有効開口巾2379.5
  0
TEXT
  5
1252F
  8
0
  6
CONTINUOUS
 62
     7
 10
21254.79202748424
 20
5021.1885389999998
 30
0.0
 40
160.0
  1
2567.5
  0
TEXT
  5
12530
  8
0
  6
CONTINUOUS
 62
     7
 10
19748.71899648424
 20
5028.7357170000014
 30
0.0
 40
160.0
  1
42.5
  0
TEXT
  5
12531
  8
0
  6
CONTINUOUS
 62
     7
 10
22654.812003957999
 20
4621.1887040000584
 30
0.0
 40
160.0
  1
5452.5
  0
TEXT
  5
12532
  8
0
  6
CONTINUOUS
 62
     7
 10
23593.37536081759
 20
5421.188374000003
 30
0.0
 40
160.0
  1
有効開口巾2712
  0
TEXT
  5
12533
  8
0
  6
CONTINUOUS
 62
     7
 10
19441.03872848424
 20
6264.2717073333397
 30
0.0
 40
160.0
  1
有効開口高サ1891.5
 50
90.0
  0
TEXT
  5
12534
  8
0
  6
CONTINUOUS
 62
     7
 10
19041.039388484241
 20
6396.7717203333359
 30
0.0
 40
160.0
  1
2348.5（2588.5）
 50
90.0
  0
TEXT
  5
12535
  8
0
  6
CONTINUOUS
 62
     7
 10
21254.79202748424
 20
9469.1900500000029
 30
0.0
 40
160.0
  1
2652.5
  0
TEXT
  5
12536
  8
0
  6
CONTINUOUS
 62
     7
 10
19958.73404148424
 20
9469.1893240000027
 30
0.0
 40
160.0
  1
43
  0
TEXT
  5
12537
  8
0
  6
CONTINUOUS
 62
     7
 10
25958.507847484259
 20
9469.1893240000027
 30
0.0
 40
160.0
  1
43
  0
TEXT
  5
12538
  8
0
  6
CONTINUOUS
 62
     7
 10
22654.79202748424
 20
9869.1329740000037
 30
0.0
 40
160.0
  1
5538.5
  0
TEXT
  5
12539
  8
0
  6
CONTINUOUS
 62
     7
 10
11607.09883870335
 20
5021.1885389999998
 30
0.0
 40
160.0
  1
2918
  0
TEXT
  5
1253A
  8
0
  6
CONTINUOUS
 62
     7
 10
8689.0988387033485
 20
5021.1885389999998
 30
0.0
 40
160.0
  1
2918
  0
TEXT
  5
1253B
  8
0
  6
CONTINUOUS
 62
     7
 10
6872.27589137002
 20
5022.1790570000003
 30
0.0
 40
160.0
  1
42.5
  0
TEXT
  5
1253C
  8
0
  6
CONTINUOUS
 62
     7
 10
13495.26715537002
 20
5021.1883080000007
 30
0.0
 40
160.0
  1
42.5
  0
TEXT
  5
1253D
  8
0
  6
CONTINUOUS
 62
     7
 10
10148.098838703339
 20
4621.1887039999983
 30
0.0
 40
160.0
  1
5921
  0
TEXT
  5
1253E
  8
0
  6
CONTINUOUS
 62
     7
 10
6284.2651093700206
 20
6327.4383740000048
 30
0.0
 40
160.0
  1
2156.5（2396.5）
 50
90.0
  0
TEXT
  5
1253F
  8
0
  6
CONTINUOUS
 62
     7
 10
14385.26590137001
 20
6396.7717073333361
 30
0.0
 40
160.0
  1
2348.5（2588.5）
 50
90.0
  0
TEXT
  5
12540
  8
0
  6
CONTINUOUS
 62
     7
 10
6819.9236902349148
 20
9469.1900500000029
 30
0.0
 40
160.0
  1
180
  0
TEXT
  5
12541
  8
0
  6
CONTINUOUS
 62
     7
 10
10148.098838703339
 20
9469.1900500000029
 30
0.0
 40
160.0
  1
5921
  0
TEXT
  5
12542
  8
0
  6
CONTINUOUS
 62
     7
 10
13591.932172036681
 20
9469.1900500000029
 30
0.0
 40
160.0
  1
150
  0
TEXT
  5
12543
  8
0
  6
CONTINUOUS
 62
     7
 10
10133.09883870335
 20
9869.1883999999955
 30
0.0
 40
160.0
  1
6251
  0
TEXT
  5
12549
  8
0
  6
CONTINUOUS
 62
     7
 10
26897.387512852842
 20
15024.819585333331
 30
0.0
 40
160.0
  1
2918
 50
90.0
  0
TEXT
  5
1254A
  8
0
  6
CONTINUOUS
 62
     7
 10
26897.387512852842
 20
17942.819585333331
 30
0.0
 40
160.0
  1
2918
 50
90.0
  0
TEXT
  5
1254B
  8
0
  6
CONTINUOUS
 62
     7
 10
25900.4658164842
 20
20590.985459999989
 30
0.0
 40
160.0
  1
42.5
  0
TEXT
  5
1254C
  8
0
  6
CONTINUOUS
 62
     7
 10
25222.369849484221
 20
20610.329315999999
 30
0.0
 40
160.0
  1
42.5
  0
TEXT
  5
1254D
  8
0
  6
CONTINUOUS
 62
     7
 10
21275.793888484211
 20
20990.987175999991
 30
0.0
 40
160.0
  1
2567.5
  0
TEXT
  5
1254E
  8
0
  6
CONTINUOUS
 62
     7
 10
24092.877221817562
 20
20990.987175999991
 30
0.0
 40
160.0
  1
2800
  0
TEXT
  5
12552
  8
0
  6
CONTINUOUS
 62
     7
 10
19854.869849484221
 20
20610.329315999999
 30
0.0
 40
160.0
  1
42.5
  0
TEXT
  5
12553
  8
0
  6
CONTINUOUS
 62
     7
 10
20417.78705529853
 20
20590.987175999991
 30
0.0
 40
160.0
  1
407.5
  0
TEXT
  5
12554
  8
0
  6
CONTINUOUS
 62
     7
 10
20978.696426576142
 20
20266.685621724559
 30
0.0
 40
160.0
  1
701
  0
TEXT
  5
12555
  8
0
  6
CONTINUOUS
 62
     7
 10
21677.71055515089
 20
20590.987175999991
 30
0.0
 40
160.0
  1
701
  0
TEXT
  5
12556
  8
0
  6
CONTINUOUS
 62
     7
 10
22367.21055515089
 20
20590.987175999991
 30
0.0
 40
160.0
  1
758
  0
TEXT
  5
12557
  8
0
  6
CONTINUOUS
 62
     7
 10
23100.4658164842
 20
20590.987175999991
 30
0.0
 40
160.0
  1
42.5
  0
TEXT
  5
12564
  8
0
  6
CONTINUOUS
 62
     7
 10
9881.1886863760428
 20
12429.98546
 30
0.0
 40
160.0
  1
ケラバ外寸5538.5
  0
TEXT
  5
12565
  8
0
  6
CONTINUOUS
 62
     7
 10
7496.958209042722
 20
20590.985459999989
 30
0.0
 40
160.0
  1
85.5
  0
TEXT
  5
12566
  8
0
  6
CONTINUOUS
 62
     7
 10
8955.8553530427089
 20
20590.987175999991
 30
0.0
 40
160.0
  1
2567.5
  0
TEXT
  5
12567
  8
0
  6
CONTINUOUS
 62
     7
 10
11772.93868637603
 20
20590.987175999991
 30
0.0
 40
160.0
  1
2800
  0
TEXT
  5
12568
  8
0
  6
CONTINUOUS
 62
     7
 10
13585.95314104271
 20
20590.985459999989
 30
0.0
 40
160.0
  1
85.5
  0
TEXT
  5
12569
  8
0
  6
CONTINUOUS
 62
     7
 10
7462.6053190427174
 20
20035.748313999989
 30
0.0
 40
160.0
  1
22
 50
90.0
  0
TEXT
  5
1256A
  8
0
  6
CONTINUOUS
 62
     7
 10
7062.6052530427169
 20
19969.467774389239
 30
0.0
 40
160.0
  1
222.5
 50
90.0
  0
TEXT
  5
1256B
  8
0
  6
CONTINUOUS
 62
     7
 10
7062.605253042715
 20
18738.67642439796
 30
0.0
 40
160.0
  1
1459
 50
90.0
  0
TEXT
  5
1256C
  8
0
  6
CONTINUOUS
 62
     7
 10
7062.6052530427032
 20
12975.996623590579
 30
0.0
 40
160.0
  1
192.5
 50
90.0
  0
TEXT
  5
1256D
  8
0
  6
CONTINUOUS
 62
     7
 10
7062.6055770427174
 20
17213.319585333331
 30
0.0
 40
160.0
  1
1459
 50
90.0
  0
TEXT
  5
1256E
  8
0
  6
CONTINUOUS
 62
     7
 10
7062.6055770427174
 20
15754.31958533334
 30
0.0
 40
160.0
  1
1459
 50
90.0
  0
TEXT
  5
1256F
  8
0
  6
CONTINUOUS
 62
     7
 10
7062.6055770427201
 20
14295.31958533334
 30
0.0
 40
160.0
  1
1459
 50
90.0
  0
ARC
  5
12570
  8
0
  6
BYBLOCK
 62
     0
 10
7142.605577042722
 20
15291.48625200001
 30
0.0
 40
15.0
 50
270.0
 51
90.0
  0
ARC
  5
12571
  8
0
  6
BYBLOCK
 62
     0
 10
7142.605577042722
 20
15291.48625200001
 30
0.0
 40
15.0
 50
90.0
 51
270.0
  0
ARC
  5
12572
  8
0
  6
BYBLOCK
 62
     0
 10
7142.6055770427211
 20
13832.48625200001
 30
0.0
 40
15.0
 50
90.0
 51
270.0
  0
ARC
  5
12573
  8
0
  6
BYBLOCK
 62
     0
 10
7142.6055770427211
 20
13832.48625200001
 30
0.0
 40
15.0
 50
270.0
 51
90.0
  0
ARC
  5
12574
  8
0
  6
BYBLOCK
 62
     0
 10
7142.6055770427192
 20
16750.486251999999
 30
0.0
 40
15.0
 50
270.0
 51
90.0
  0
ARC
  5
12575
  8
0
  6
BYBLOCK
 62
     0
 10
7142.6055770427192
 20
16750.486251999999
 30
0.0
 40
15.0
 50
90.0
 51
270.0
  0
ARC
  5
12576
  8
0
  6
BYBLOCK
 62
     0
 10
7142.6055770427192
 20
15291.48625200001
 30
0.0
 40
15.0
 50
90.0
 51
270.0
  0
ARC
  5
12577
  8
0
  6
BYBLOCK
 62
     0
 10
7142.6055770427192
 20
15291.48625200001
 30
0.0
 40
15.0
 50
270.0
 51
90.0
  0
ARC
  5
12578
  8
0
  6
BYBLOCK
 62
     0
 10
7142.6055770427192
 20
18209.48625200001
 30
0.0
 40
15.0
 50
270.0
 51
90.0
  0
ARC
  5
12579
  8
0
  6
BYBLOCK
 62
     0
 10
7142.6055770427192
 20
18209.48625200001
 30
0.0
 40
15.0
 50
90.0
 51
270.0
  0
ARC
  5
1257A
  8
0
  6
BYBLOCK
 62
     0
 10
7142.6055770427192
 20
16750.486251999999
 30
0.0
 40
15.0
 50
90.0
 51
270.0
  0
ARC
  5
1257B
  8
0
  6
BYBLOCK
 62
     0
 10
7142.6055770427192
 20
16750.486251999999
 30
0.0
 40
15.0
 50
270.0
 51
90.0
  0
ARC
  5
1257C
  8
0
  6
BYBLOCK
 62
     0
 10
7142.6052530427178
 20
13832.48552600002
 30
0.0
 40
15.0
 50
270.0
 51
90.0
  0
ARC
  5
1257D
  8
0
  6
BYBLOCK
 62
     0
 10
7142.6052530427178
 20
13832.48552600002
 30
0.0
 40
15.0
 50
90.0
 51
270.0
  0
ARC
  5
1257E
  8
0
  6
BYBLOCK
 62
     0
 10
7142.6052530427178
 20
13639.986252000001
 30
0.0
 40
15.0
 50
90.0
 51
270.0
  0
ARC
  5
1257F
  8
0
  6
BYBLOCK
 62
     0
 10
7142.6052530427178
 20
13639.986252000001
 30
0.0
 40
15.0
 50
270.0
 51
90.0
  0
ARC
  5
12580
  8
0
  6
BYBLOCK
 62
     0
 10
7142.6052530427178
 20
19668.486251999992
 30
0.0
 40
15.0
 50
270.0
 51
90.0
  0
ARC
  5
12581
  8
0
  6
BYBLOCK
 62
     0
 10
7142.6052530427178
 20
19668.486251999992
 30
0.0
 40
15.0
 50
90.0
 51
270.0
  0
ARC
  5
12582
  8
0
  6
BYBLOCK
 62
     0
 10
7142.6052530427169
 20
18209.48625200001
 30
0.0
 40
15.0
 50
90.0
 51
270.0
  0
ARC
  5
12583
  8
0
  6
BYBLOCK
 62
     0
 10
7142.6052530427169
 20
18209.48625200001
 30
0.0
 40
15.0
 50
270.0
 51
90.0
  0
ARC
  5
12584
  8
0
  6
BYBLOCK
 62
     0
 10
7142.6052530427169
 20
19668.486251999992
 30
0.0
 40
15.0
 50
90.0
 51
270.0
  0
ARC
  5
12585
  8
0
  6
BYBLOCK
 62
     0
 10
7142.6052530427169
 20
19668.486251999992
 30
0.0
 40
15.0
 50
270.0
 51
90.0
  0
ARC
  5
12586
  8
0
  6
BYBLOCK
 62
     0
 10
7142.6052530427169
 20
19890.986120000001
 30
0.0
 40
15.0
 50
270.0
 51
90.0
  0
ARC
  5
12587
  8
0
  6
BYBLOCK
 62
     0
 10
7142.6052530427169
 20
19890.986120000001
 30
0.0
 40
15.0
 50
90.0
 51
270.0
  0
ARC
  5
12588
  8
0
  6
BYBLOCK
 62
     0
 10
7542.6045940427139
 20
19850.985987999979
 30
0.0
 40
15.0
 50
270.0
 51
90.0
  0
ARC
  5
12589
  8
0
  6
BYBLOCK
 62
     0
 10
7542.6045940427139
 20
19850.985987999979
 30
0.0
 40
15.0
 50
90.0
 51
270.0
  0
ARC
  5
1258A
  8
0
  6
BYBLOCK
 62
     0
 10
7542.6045940427139
 20
19890.986120000001
 30
0.0
 40
15.0
 50
90.0
 51
270.0
  0
ARC
  5
1258B
  8
0
  6
BYBLOCK
 62
     0
 10
7542.6045940427139
 20
19890.986120000001
 30
0.0
 40
15.0
 50
270.0
 51
90.0
  0
ARC
  5
1258C
  8
0
  6
BYBLOCK
 62
     0
 10
13439.605353042711
 20
20510.987175999991
 30
0.0
 40
15.0
 50
180.0
 51
0.0
  0
ARC
  5
1258D
  8
0
  6
BYBLOCK
 62
     0
 10
13439.605353042711
 20
20510.987175999991
 30
0.0
 40
15.0
 50
0.0
 51
180.0
  0
ARC
  5
1258E
  8
0
  6
BYBLOCK
 62
     0
 10
13525.105353042711
 20
20510.987175999991
 30
0.0
 40
15.0
 50
0.0
 51
180.0
  0
ARC
  5
1258F
  8
0
  6
BYBLOCK
 62
     0
 10
13525.105353042711
 20
20510.987175999991
 30
0.0
 40
15.0
 50
180.0
 51
0.0
  0
ARC
  5
12590
  8
0
  6
BYBLOCK
 62
     0
 10
10639.605353042711
 20
20510.987175999991
 30
0.0
 40
15.0
 50
0.0
 51
180.0
  0
ARC
  5
12591
  8
0
  6
BYBLOCK
 62
     0
 10
10639.605353042711
 20
20510.987175999991
 30
0.0
 40
15.0
 50
180.0
 51
0.0
  0
ARC
  5
12592
  8
0
  6
BYBLOCK
 62
     0
 10
13439.605353042711
 20
20510.987175999991
 30
0.0
 40
15.0
 50
180.0
 51
0.0
  0
ARC
  5
12593
  8
0
  6
BYBLOCK
 62
     0
 10
13439.605353042711
 20
20510.987175999991
 30
0.0
 40
15.0
 50
0.0
 51
180.0
  0
ARC
  5
12594
  8
0
  6
BYBLOCK
 62
     0
 10
8072.1053530427062
 20
20510.987175999991
 30
0.0
 40
15.0
 50
0.0
 51
180.0
  0
ARC
  5
12595
  8
0
  6
BYBLOCK
 62
     0
 10
8072.1053530427062
 20
20510.987175999991
 30
0.0
 40
15.0
 50
180.0
 51
0.0
  0
ARC
  5
12596
  8
0
  6
BYBLOCK
 62
     0
 10
10639.605353042711
 20
20510.987175999991
 30
0.0
 40
15.0
 50
180.0
 51
0.0
  0
ARC
  5
12597
  8
0
  6
BYBLOCK
 62
     0
 10
10639.605353042711
 20
20510.987175999991
 30
0.0
 40
15.0
 50
0.0
 51
180.0
  0
ARC
  5
12598
  8
0
  6
BYBLOCK
 62
     0
 10
8072.1053530427062
 20
20510.987175999991
 30
0.0
 40
15.0
 50
0.0
 51
180.0
  0
ARC
  5
12599
  8
0
  6
BYBLOCK
 62
     0
 10
8072.1053530427062
 20
20510.987175999991
 30
0.0
 40
15.0
 50
180.0
 51
0.0
  0
ARC
  5
1259A
  8
0
  6
BYBLOCK
 62
     0
 10
7986.6053530427071
 20
20510.987175999991
 30
0.0
 40
15.0
 50
180.0
 51
0.0
  0
ARC
  5
1259B
  8
0
  6
BYBLOCK
 62
     0
 10
7986.6053530427071
 20
20510.987175999991
 30
0.0
 40
15.0
 50
0.0
 51
180.0
  0
ARC
  5
1259C
  8
0
  6
BYBLOCK
 62
     0
 10
7986.6053530427089
 20
12349.98546
 30
0.0
 40
15.0
 50
0.0
 51
180.0
  0
ARC
  5
1259D
  8
0
  6
BYBLOCK
 62
     0
 10
7986.6053530427089
 20
12349.98546
 30
0.0
 40
15.0
 50
180.0
 51
0.0
  0
ARC
  5
1259E
  8
0
  6
BYBLOCK
 62
     0
 10
13525.105353042711
 20
12349.98546
 30
0.0
 40
15.0
 50
180.0
 51
0.0
  0
ARC
  5
1259F
  8
0
  6
BYBLOCK
 62
     0
 10
13525.105353042711
 20
12349.98546
 30
0.0
 40
15.0
 50
0.0
 51
180.0
  0
ARC
  5
125D0
  8
0
  6
BYBLOCK
 62
     0
 10
22959.543888484211
 20
20510.987175999991
 30
0.0
 40
15.0
 50
180.0
 51
0.0
  0
ARC
  5
125D1
  8
0
  6
BYBLOCK
 62
     0
 10
22959.543888484211
 20
20510.987175999991
 30
0.0
 40
15.0
 50
0.0
 51
180.0
  0
ARC
  5
125D2
  8
0
  6
BYBLOCK
 62
     0
 10
23002.043888484211
 20
20510.987175999991
 30
0.0
 40
15.0
 50
0.0
 51
180.0
  0
ARC
  5
125D3
  8
0
  6
BYBLOCK
 62
     0
 10
23002.043888484211
 20
20510.987175999991
 30
0.0
 40
15.0
 50
180.0
 51
0.0
  0
ARC
  5
125D4
  8
0
  6
BYBLOCK
 62
     0
 10
22201.543888484201
 20
20510.987175999991
 30
0.0
 40
15.0
 50
0.0
 51
180.0
  0
ARC
  5
125D5
  8
0
  6
BYBLOCK
 62
     0
 10
22201.543888484201
 20
20510.987175999991
 30
0.0
 40
15.0
 50
180.0
 51
0.0
  0
ARC
  5
125D6
  8
0
  6
BYBLOCK
 62
     0
 10
22959.543888484211
 20
20510.987175999991
 30
0.0
 40
15.0
 50
180.0
 51
0.0
  0
ARC
  5
125D7
  8
0
  6
BYBLOCK
 62
     0
 10
22959.543888484211
 20
20510.987175999991
 30
0.0
 40
15.0
 50
0.0
 51
180.0
  0
ARC
  5
125D8
  8
0
  6
BYBLOCK
 62
     0
 10
21500.543888484211
 20
20510.987175999991
 30
0.0
 40
15.0
 50
0.0
 51
180.0
  0
ARC
  5
125D9
  8
0
  6
BYBLOCK
 62
     0
 10
21500.543888484211
 20
20510.987175999991
 30
0.0
 40
15.0
 50
180.0
 51
0.0
  0
ARC
  5
125DA
  8
0
  6
BYBLOCK
 62
     0
 10
22201.543888484201
 20
20510.987175999991
 30
0.0
 40
15.0
 50
180.0
 51
0.0
  0
ARC
  5
125DB
  8
0
  6
BYBLOCK
 62
     0
 10
22201.543888484201
 20
20510.987175999991
 30
0.0
 40
15.0
 50
0.0
 51
180.0
  0
ARC
  5
125DC
  8
0
  6
BYBLOCK
 62
     0
 10
20799.543888484211
 20
20510.987175999991
 30
0.0
 40
15.0
 50
0.0
 51
180.0
  0
ARC
  5
125DD
  8
0
  6
BYBLOCK
 62
     0
 10
20799.543888484211
 20
20510.987175999991
 30
0.0
 40
15.0
 50
180.0
 51
0.0
  0
ARC
  5
125DE
  8
0
  6
BYBLOCK
 62
     0
 10
21500.543888484211
 20
20510.987175999991
 30
0.0
 40
15.0
 50
180.0
 51
0.0
  0
ARC
  5
125DF
  8
0
  6
BYBLOCK
 62
     0
 10
21500.543888484211
 20
20510.987175999991
 30
0.0
 40
15.0
 50
0.0
 51
180.0
  0
ARC
  5
125E0
  8
0
  6
BYBLOCK
 62
     0
 10
20392.043888484211
 20
20510.987175999991
 30
0.0
 40
15.0
 50
0.0
 51
180.0
  0
ARC
  5
125E1
  8
0
  6
BYBLOCK
 62
     0
 10
20392.043888484211
 20
20510.987175999991
 30
0.0
 40
15.0
 50
180.0
 51
0.0
  0
ARC
  5
125E2
  8
0
  6
BYBLOCK
 62
     0
 10
20799.543888484211
 20
20510.987175999991
 30
0.0
 40
15.0
 50
180.0
 51
0.0
  0
ARC
  5
125E3
  8
0
  6
BYBLOCK
 62
     0
 10
20799.543888484211
 20
20510.987175999991
 30
0.0
 40
15.0
 50
0.0
 51
180.0
  0
ARC
  5
125E4
  8
0
  6
BYBLOCK
 62
     0
 10
20392.043888484211
 20
20510.987175999991
 30
0.0
 40
15.0
 50
0.0
 51
180.0
  0
ARC
  5
125E5
  8
0
  6
BYBLOCK
 62
     0
 10
20392.043888484211
 20
20510.987175999991
 30
0.0
 40
15.0
 50
180.0
 51
0.0
  0
ARC
  5
125E6
  8
0
  6
BYBLOCK
 62
     0
 10
20349.543888484201
 20
20510.987175999991
 30
0.0
 40
15.0
 50
180.0
 51
0.0
  0
ARC
  5
125E7
  8
0
  6
BYBLOCK
 62
     0
 10
20349.543888484201
 20
20510.987175999991
 30
0.0
 40
15.0
 50
0.0
 51
180.0
  0
ARC
  5
125F4
  8
0
  6
BYBLOCK
 62
     0
 10
22959.543888484211
 20
20910.987175999991
 30
0.0
 40
15.0
 50
0.0
 51
180.0
  0
ARC
  5
125F5
  8
0
  6
BYBLOCK
 62
     0
 10
22959.543888484211
 20
20910.987175999991
 30
0.0
 40
15.0
 50
180.0
 51
0.0
  0
ARC
  5
125F6
  8
0
  6
BYBLOCK
 62
     0
 10
25759.543888484211
 20
20910.987175999991
 30
0.0
 40
15.0
 50
180.0
 51
0.0
  0
ARC
  5
125F7
  8
0
  6
BYBLOCK
 62
     0
 10
25759.543888484211
 20
20910.987175999991
 30
0.0
 40
15.0
 50
0.0
 51
180.0
  0
ARC
  5
125F8
  8
0
  6
BYBLOCK
 62
     0
 10
20392.043888484211
 20
20910.987175999991
 30
0.0
 40
15.0
 50
0.0
 51
180.0
  0
ARC
  5
125F9
  8
0
  6
BYBLOCK
 62
     0
 10
20392.043888484211
 20
20910.987175999991
 30
0.0
 40
15.0
 50
180.0
 51
0.0
  0
ARC
  5
125FA
  8
0
  6
BYBLOCK
 62
     0
 10
22959.543888484211
 20
20910.987175999991
 30
0.0
 40
15.0
 50
180.0
 51
0.0
  0
ARC
  5
125FB
  8
0
  6
BYBLOCK
 62
     0
 10
22959.543888484211
 20
20910.987175999991
 30
0.0
 40
15.0
 50
0.0
 51
180.0
  0
ARC
  5
125FC
  8
0
  6
BYBLOCK
 62
     0
 10
25759.543888484211
 20
20510.987175999991
 30
0.0
 40
15.0
 50
0.0
 51
180.0
  0
ARC
  5
125FD
  8
0
  6
BYBLOCK
 62
     0
 10
25759.543888484211
 20
20510.987175999991
 30
0.0
 40
15.0
 50
180.0
 51
0.0
  0
ARC
  5
125FE
  8
0
  6
BYBLOCK
 62
     0
 10
25717.041645484209
 20
20510.987175999991
 30
0.0
 40
15.0
 50
180.0
 51
0.0
  0
ARC
  5
125FF
  8
0
  6
BYBLOCK
 62
     0
 10
25717.041645484209
 20
20510.987175999991
 30
0.0
 40
15.0
 50
0.0
 51
180.0
  0
ARC
  5
12600
  8
0
  6
BYBLOCK
 62
     0
 10
25759.543888484211
 20
20510.987175999991
 30
0.0
 40
15.0
 50
180.0
 51
0.0
  0
ARC
  5
12601
  8
0
  6
BYBLOCK
 62
     0
 10
25759.543888484211
 20
20510.987175999991
 30
0.0
 40
15.0
 50
0.0
 51
180.0
  0
ARC
  5
12602
  8
0
  6
BYBLOCK
 62
     0
 10
25802.042173484209
 20
20510.987175999991
 30
0.0
 40
15.0
 50
0.0
 51
180.0
  0
ARC
  5
12603
  8
0
  6
BYBLOCK
 62
     0
 10
25802.042173484209
 20
20510.987175999991
 30
0.0
 40
15.0
 50
180.0
 51
0.0
  0
ARC
  5
12604
  8
0
  6
BYBLOCK
 62
     0
 10
26977.387512852842
 20
16750.486251999992
 30
0.0
 40
15.0
 50
90.0
 51
270.0
  0
ARC
  5
12605
  8
0
  6
BYBLOCK
 62
     0
 10
26977.387512852842
 20
16750.486251999992
 30
0.0
 40
15.0
 50
270.0
 51
90.0
  0
ARC
  5
12606
  8
0
  6
BYBLOCK
 62
     0
 10
26977.387512852842
 20
19668.486251999992
 30
0.0
 40
15.0
 50
270.0
 51
90.0
  0
ARC
  5
12607
  8
0
  6
BYBLOCK
 62
     0
 10
26977.387512852842
 20
19668.486251999992
 30
0.0
 40
15.0
 50
90.0
 51
270.0
  0
ARC
  5
12608
  8
0
  6
BYBLOCK
 62
     0
 10
26977.387512852842
 20
13832.48625200001
 30
0.0
 40
15.0
 50
90.0
 51
270.0
  0
ARC
  5
12609
  8
0
  6
BYBLOCK
 62
     0
 10
26977.387512852842
 20
13832.48625200001
 30
0.0
 40
15.0
 50
270.0
 51
90.0
  0
ARC
  5
1260A
  8
0
  6
BYBLOCK
 62
     0
 10
26977.387512852842
 20
16750.486251999992
 30
0.0
 40
15.0
 50
270.0
 51
90.0
  0
ARC
  5
1260B
  8
0
  6
BYBLOCK
 62
     0
 10
26977.387512852842
 20
16750.486251999992
 30
0.0
 40
15.0
 50
90.0
 51
270.0
  0
ARC
  5
12620
  8
0
  6
BYBLOCK
 62
     0
 10
7274.2655053700191
 20
9789.1883999999955
 30
0.0
 40
15.0
 50
0.0
 51
180.0
  0
ARC
  5
12621
  8
0
  6
BYBLOCK
 62
     0
 10
7274.2655053700191
 20
9789.1883999999955
 30
0.0
 40
15.0
 50
180.0
 51
0.0
  0
ARC
  5
12622
  8
0
  6
BYBLOCK
 62
     0
 10
13525.26550537002
 20
9789.1883999999955
 30
0.0
 40
15.0
 50
180.0
 51
0.0
  0
ARC
  5
12623
  8
0
  6
BYBLOCK
 62
     0
 10
13525.26550537002
 20
9789.1883999999955
 30
0.0
 40
15.0
 50
0.0
 51
180.0
  0
ARC
  5
12624
  8
0
  6
BYBLOCK
 62
     0
 10
13375.265505370009
 20
9389.1900500000029
 30
0.0
 40
15.0
 50
180.0
 51
0.0
  0
ARC
  5
12625
  8
0
  6
BYBLOCK
 62
     0
 10
13375.265505370009
 20
9389.1900500000029
 30
0.0
 40
15.0
 50
0.0
 51
180.0
  0
ARC
  5
12626
  8
0
  6
BYBLOCK
 62
     0
 10
13525.26550537002
 20
9389.1900500000029
 30
0.0
 40
15.0
 50
0.0
 51
180.0
  0
ARC
  5
12627
  8
0
  6
BYBLOCK
 62
     0
 10
13525.26550537002
 20
9389.1900500000029
 30
0.0
 40
15.0
 50
180.0
 51
0.0
  0
ARC
  5
12628
  8
0
  6
BYBLOCK
 62
     0
 10
7454.2655053700191
 20
9389.1900500000029
 30
0.0
 40
15.0
 50
0.0
 51
180.0
  0
ARC
  5
12629
  8
0
  6
BYBLOCK
 62
     0
 10
7454.2655053700191
 20
9389.1900500000029
 30
0.0
 40
15.0
 50
180.0
 51
0.0
  0
ARC
  5
1262A
  8
0
  6
BYBLOCK
 62
     0
 10
13375.265505370009
 20
9389.1900500000029
 30
0.0
 40
15.0
 50
180.0
 51
0.0
  0
ARC
  5
1262B
  8
0
  6
BYBLOCK
 62
     0
 10
13375.265505370009
 20
9389.1900500000029
 30
0.0
 40
15.0
 50
0.0
 51
180.0
  0
ARC
  5
1262C
  8
0
  6
BYBLOCK
 62
     0
 10
7274.2655053700191
 20
9389.1900500000029
 30
0.0
 40
15.0
 50
0.0
 51
180.0
  0
ARC
  5
1262D
  8
0
  6
BYBLOCK
 62
     0
 10
7274.2655053700191
 20
9389.1900500000029
 30
0.0
 40
15.0
 50
180.0
 51
0.0
  0
ARC
  5
1262E
  8
0
  6
BYBLOCK
 62
     0
 10
7454.2655053700191
 20
9389.1900500000029
 30
0.0
 40
15.0
 50
180.0
 51
0.0
  0
ARC
  5
1262F
  8
0
  6
BYBLOCK
 62
     0
 10
7454.2655053700191
 20
9389.1900500000029
 30
0.0
 40
15.0
 50
0.0
 51
180.0
  0
ARC
  5
12630
  8
0
  6
BYBLOCK
 62
     0
 10
14465.26590137001
 20
6241.1883740000021
 30
0.0
 40
15.0
 50
90.0
 51
270.0
  0
ARC
  5
12631
  8
0
  6
BYBLOCK
 62
     0
 10
14465.26590137001
 20
6241.1883740000021
 30
0.0
 40
15.0
 50
270.0
 51
90.0
  0
ARC
  5
12632
  8
0
  6
BYBLOCK
 62
     0
 10
14465.26590137001
 20
8589.688374000003
 30
0.0
 40
15.0
 50
270.0
 51
90.0
  0
ARC
  5
12633
  8
0
  6
BYBLOCK
 62
     0
 10
14465.26590137001
 20
8589.688374000003
 30
0.0
 40
15.0
 50
90.0
 51
270.0
  0
ARC
  5
12634
  8
0
  6
BYBLOCK
 62
     0
 10
6364.2651093700224
 20
6241.1883740000021
 30
0.0
 40
15.0
 50
90.0
 51
270.0
  0
ARC
  5
12635
  8
0
  6
BYBLOCK
 62
     0
 10
6364.2651093700224
 20
6241.1883740000021
 30
0.0
 40
15.0
 50
270.0
 51
90.0
  0
ARC
  5
12636
  8
0
  6
BYBLOCK
 62
     0
 10
6364.2651093700224
 20
8397.688374000003
 30
0.0
 40
15.0
 50
270.0
 51
90.0
  0
ARC
  5
12637
  8
0
  6
BYBLOCK
 62
     0
 10
6364.2651093700224
 20
8397.688374000003
 30
0.0
 40
15.0
 50
90.0
 51
270.0
  0
ARC
  5
12638
  8
0
  6
BYBLOCK
 62
     0
 10
7454.2655053700191
 20
4541.1887039999983
 30
0.0
 40
15.0
 50
0.0
 51
180.0
  0
ARC
  5
12639
  8
0
  6
BYBLOCK
 62
     0
 10
7454.2655053700191
 20
4541.1887039999983
 30
0.0
 40
15.0
 50
180.0
 51
0.0
  0
ARC
  5
1263A
  8
0
  6
BYBLOCK
 62
     0
 10
13375.265505370009
 20
4541.1887039999983
 30
0.0
 40
15.0
 50
180.0
 51
0.0
  0
ARC
  5
1263B
  8
0
  6
BYBLOCK
 62
     0
 10
13375.265505370009
 20
4541.1887039999983
 30
0.0
 40
15.0
 50
0.0
 51
180.0
  0
ARC
  5
1263C
  8
0
  6
BYBLOCK
 62
     0
 10
13332.76550537002
 20
4941.1885390000016
 30
0.0
 40
15.0
 50
180.0
 51
0.0
  0
ARC
  5
1263D
  8
0
  6
BYBLOCK
 62
     0
 10
13332.76550537002
 20
4941.1885390000016
 30
0.0
 40
15.0
 50
0.0
 51
180.0
  0
ARC
  5
1263E
  8
0
  6
BYBLOCK
 62
     0
 10
13375.265505370009
 20
4941.1885390000016
 30
0.0
 40
15.0
 50
0.0
 51
180.0
  0
ARC
  5
1263F
  8
0
  6
BYBLOCK
 62
     0
 10
13375.265505370009
 20
4941.1885390000016
 30
0.0
 40
15.0
 50
180.0
 51
0.0
  0
ARC
  5
12640
  8
0
  6
BYBLOCK
 62
     0
 10
7496.7655053700182
 20
4941.1885390000016
 30
0.0
 40
15.0
 50
0.0
 51
180.0
  0
ARC
  5
12641
  8
0
  6
BYBLOCK
 62
     0
 10
7496.7655053700182
 20
4941.1885390000016
 30
0.0
 40
15.0
 50
180.0
 51
0.0
  0
ARC
  5
12642
  8
0
  6
BYBLOCK
 62
     0
 10
7454.2655053700191
 20
4941.1885390000016
 30
0.0
 40
15.0
 50
180.0
 51
0.0
  0
ARC
  5
12643
  8
0
  6
BYBLOCK
 62
     0
 10
7454.2655053700191
 20
4941.1885390000016
 30
0.0
 40
15.0
 50
0.0
 51
180.0
  0
ARC
  5
12644
  8
0
  6
BYBLOCK
 62
     0
 10
10414.76550537002
 20
4941.1885390000016
 30
0.0
 40
15.0
 50
180.0
 51
0.0
  0
ARC
  5
12645
  8
0
  6
BYBLOCK
 62
     0
 10
10414.76550537002
 20
4941.1885390000016
 30
0.0
 40
15.0
 50
0.0
 51
180.0
  0
ARC
  5
12646
  8
0
  6
BYBLOCK
 62
     0
 10
7496.7655053700182
 20
4941.1885390000016
 30
0.0
 40
15.0
 50
0.0
 51
180.0
  0
ARC
  5
12647
  8
0
  6
BYBLOCK
 62
     0
 10
7496.7655053700182
 20
4941.1885390000016
 30
0.0
 40
15.0
 50
180.0
 51
0.0
  0
ARC
  5
12648
  8
0
  6
BYBLOCK
 62
     0
 10
10414.76550537002
 20
4941.1885390000016
 30
0.0
 40
15.0
 50
0.0
 51
180.0
  0
ARC
  5
12649
  8
0
  6
BYBLOCK
 62
     0
 10
10414.76550537002
 20
4941.1885390000016
 30
0.0
 40
15.0
 50
180.0
 51
0.0
  0
ARC
  5
1264A
  8
0
  6
BYBLOCK
 62
     0
 10
13332.76550537002
 20
4941.1885390000016
 30
0.0
 40
15.0
 50
180.0
 51
0.0
  0
ARC
  5
1264B
  8
0
  6
BYBLOCK
 62
     0
 10
13332.76550537002
 20
4941.1885390000016
 30
0.0
 40
15.0
 50
0.0
 51
180.0
  0
ARC
  5
1264C
  8
0
  6
BYBLOCK
 62
     0
 10
20285.54202748424
 20
9789.1329740000037
 30
0.0
 40
15.0
 50
0.0
 51
180.0
  0
ARC
  5
1264D
  8
0
  6
BYBLOCK
 62
     0
 10
20285.54202748424
 20
9789.1329740000037
 30
0.0
 40
15.0
 50
180.0
 51
0.0
  0
ARC
  5
1264E
  8
0
  6
BYBLOCK
 62
     0
 10
25824.04202748424
 20
9789.1329740000037
 30
0.0
 40
15.0
 50
180.0
 51
0.0
  0
ARC
  5
1264F
  8
0
  6
BYBLOCK
 62
     0
 10
25824.04202748424
 20
9789.1329740000037
 30
0.0
 40
15.0
 50
0.0
 51
180.0
  0
ARC
  5
12650
  8
0
  6
BYBLOCK
 62
     0
 10
25781.04202748424
 20
9389.1900500000029
 30
0.0
 40
15.0
 50
180.0
 51
0.0
  0
ARC
  5
12651
  8
0
  6
BYBLOCK
 62
     0
 10
25781.04202748424
 20
9389.1900500000029
 30
0.0
 40
15.0
 50
0.0
 51
180.0
  0
ARC
  5
12652
  8
0
  6
BYBLOCK
 62
     0
 10
25824.04202748424
 20
9389.1900500000029
 30
0.0
 40
15.0
 50
0.0
 51
180.0
  0
ARC
  5
12653
  8
0
  6
BYBLOCK
 62
     0
 10
25824.04202748424
 20
9389.1900500000029
 30
0.0
 40
15.0
 50
180.0
 51
0.0
  0
ARC
  5
12654
  8
0
  6
BYBLOCK
 62
     0
 10
20328.54202748424
 20
9389.1900500000029
 30
0.0
 40
15.0
 50
0.0
 51
180.0
  0
ARC
  5
12655
  8
0
  6
BYBLOCK
 62
     0
 10
20328.54202748424
 20
9389.1900500000029
 30
0.0
 40
15.0
 50
180.0
 51
0.0
  0
ARC
  5
12656
  8
0
  6
BYBLOCK
 62
     0
 10
20285.54202748424
 20
9389.1900500000029
 30
0.0
 40
15.0
 50
180.0
 51
0.0
  0
ARC
  5
12657
  8
0
  6
BYBLOCK
 62
     0
 10
20285.54202748424
 20
9389.1900500000029
 30
0.0
 40
15.0
 50
0.0
 51
180.0
  0
ARC
  5
12658
  8
0
  6
BYBLOCK
 62
     0
 10
22981.04202748424
 20
9389.1900500000029
 30
0.0
 40
15.0
 50
180.0
 51
0.0
  0
ARC
  5
12659
  8
0
  6
BYBLOCK
 62
     0
 10
22981.04202748424
 20
9389.1900500000029
 30
0.0
 40
15.0
 50
0.0
 51
180.0
  0
ARC
  5
1265A
  8
0
  6
BYBLOCK
 62
     0
 10
20328.54202748424
 20
9389.1900500000029
 30
0.0
 40
15.0
 50
0.0
 51
180.0
  0
ARC
  5
1265B
  8
0
  6
BYBLOCK
 62
     0
 10
20328.54202748424
 20
9389.1900500000029
 30
0.0
 40
15.0
 50
180.0
 51
0.0
  0
ARC
  5
1265C
  8
0
  6
BYBLOCK
 62
     0
 10
19121.039388484241
 20
6241.1883740000021
 30
0.0
 40
15.0
 50
90.0
 51
270.0
  0
ARC
  5
1265D
  8
0
  6
BYBLOCK
 62
     0
 10
19121.039388484241
 20
6241.1883740000021
 30
0.0
 40
15.0
 50
270.0
 51
90.0
  0
ARC
  5
1265E
  8
0
  6
BYBLOCK
 62
     0
 10
19121.039388484241
 20
8589.6883999999973
 30
0.0
 40
15.0
 50
270.0
 51
90.0
  0
ARC
  5
1265F
  8
0
  6
BYBLOCK
 62
     0
 10
19121.039388484241
 20
8589.6883999999973
 30
0.0
 40
15.0
 50
90.0
 51
270.0
  0
ARC
  5
12660
  8
0
  6
BYBLOCK
 62
     0
 10
19521.03872848424
 20
6241.1883740000021
 30
0.0
 40
15.0
 50
90.0
 51
270.0
  0
ARC
  5
12661
  8
0
  6
BYBLOCK
 62
     0
 10
19521.03872848424
 20
6241.1883740000021
 30
0.0
 40
15.0
 50
270.0
 51
90.0
  0
ARC
  5
12662
  8
0
  6
BYBLOCK
 62
     0
 10
19521.03872848424
 20
8132.6883740000021
 30
0.0
 40
15.0
 50
270.0
 51
90.0
  0
ARC
  5
12663
  8
0
  6
BYBLOCK
 62
     0
 10
19521.03872848424
 20
8132.6883740000021
 30
0.0
 40
15.0
 50
90.0
 51
270.0
  0
ARC
  5
12664
  8
0
  6
BYBLOCK
 62
     0
 10
22984.042027484229
 20
5341.188374000003
 30
0.0
 40
15.0
 50
0.0
 51
180.0
  0
ARC
  5
12665
  8
0
  6
BYBLOCK
 62
     0
 10
22984.042027484229
 20
5341.188374000003
 30
0.0
 40
15.0
 50
180.0
 51
0.0
  0
ARC
  5
12666
  8
0
  6
BYBLOCK
 62
     0
 10
25696.04202748424
 20
5341.188374000003
 30
0.0
 40
15.0
 50
180.0
 51
0.0
  0
ARC
  5
12667
  8
0
  6
BYBLOCK
 62
     0
 10
25696.04202748424
 20
5341.188374000003
 30
0.0
 40
15.0
 50
0.0
 51
180.0
  0
ARC
  5
12668
  8
0
  6
BYBLOCK
 62
     0
 10
20328.581980431769
 20
4541.1887040000556
 30
0.0
 40
15.0
 50
0.0
 51
180.0
  0
ARC
  5
12669
  8
0
  6
BYBLOCK
 62
     0
 10
20328.581980431769
 20
4541.1887040000556
 30
0.0
 40
15.0
 50
180.0
 51
0.0
  0
ARC
  5
1266A
  8
0
  6
BYBLOCK
 62
     0
 10
25781.04202748424
 20
4541.1887040000556
 30
0.0
 40
15.0
 50
180.0
 51
0.0
  0
ARC
  5
1266B
  8
0
  6
BYBLOCK
 62
     0
 10
25781.04202748424
 20
4541.1887040000556
 30
0.0
 40
15.0
 50
0.0
 51
180.0
  0
ARC
  5
1266C
  8
0
  6
BYBLOCK
 62
     0
 10
20371.04202748424
 20
4941.1885390000016
 30
0.0
 40
15.0
 50
0.0
 51
180.0
  0
ARC
  5
1266D
  8
0
  6
BYBLOCK
 62
     0
 10
20371.04202748424
 20
4941.1885390000016
 30
0.0
 40
15.0
 50
180.0
 51
0.0
  0
ARC
  5
1266E
  8
0
  6
BYBLOCK
 62
     0
 10
20328.581980431769
 20
4941.1885390000016
 30
0.0
 40
15.0
 50
180.0
 51
0.0
  0
ARC
  5
1266F
  8
0
  6
BYBLOCK
 62
     0
 10
20328.581980431769
 20
4941.1885390000016
 30
0.0
 40
15.0
 50
0.0
 51
180.0
  0
ARC
  5
12670
  8
0
  6
BYBLOCK
 62
     0
 10
22938.542027484229
 20
4941.1885390000016
 30
0.0
 40
15.0
 50
180.0
 51
0.0
  0
ARC
  5
12671
  8
0
  6
BYBLOCK
 62
     0
 10
22938.542027484229
 20
4941.1885390000016
 30
0.0
 40
15.0
 50
0.0
 51
180.0
  0
ARC
  5
12672
  8
0
  6
BYBLOCK
 62
     0
 10
20371.04202748424
 20
4941.1885390000016
 30
0.0
 40
15.0
 50
0.0
 51
180.0
  0
ARC
  5
12673
  8
0
  6
BYBLOCK
 62
     0
 10
20371.04202748424
 20
4941.1885390000016
 30
0.0
 40
15.0
 50
180.0
 51
0.0
  0
ARC
  5
12674
  8
0
  6
BYBLOCK
 62
     0
 10
20465.042027484229
 20
5341.188374000003
 30
0.0
 40
15.0
 50
0.0
 51
180.0
  0
ARC
  5
12675
  8
0
  6
BYBLOCK
 62
     0
 10
20465.042027484229
 20
5341.188374000003
 30
0.0
 40
15.0
 50
180.0
 51
0.0
  0
ARC
  5
12676
  8
0
  6
BYBLOCK
 62
     0
 10
22844.54202748424
 20
5341.188374000003
 30
0.0
 40
15.0
 50
180.0
 51
0.0
  0
ARC
  5
12677
  8
0
  6
BYBLOCK
 62
     0
 10
22844.54202748424
 20
5341.188374000003
 30
0.0
 40
15.0
 50
0.0
 51
180.0
  0
ARC
  5
12678
  8
0
  6
BYBLOCK
 62
     0
 10
25738.542027484251
 20
4941.1885390000016
 30
0.0
 40
15.0
 50
180.0
 51
0.0
  0
ARC
  5
12679
  8
0
  6
BYBLOCK
 62
     0
 10
25738.542027484251
 20
4941.1885390000016
 30
0.0
 40
15.0
 50
0.0
 51
180.0
  0
ARC
  5
1267A
  8
0
  6
BYBLOCK
 62
     0
 10
25781.04202748424
 20
4941.1885390000016
 30
0.0
 40
15.0
 50
0.0
 51
180.0
  0
ARC
  5
1267B
  8
0
  6
BYBLOCK
 62
     0
 10
25781.04202748424
 20
4941.1885390000016
 30
0.0
 40
15.0
 50
180.0
 51
0.0
  0
ARC
  5
1267C
  8
0
  6
BYBLOCK
 62
     0
 10
22938.542027484229
 20
4941.1885390000016
 30
0.0
 40
15.0
 50
0.0
 51
180.0
  0
ARC
  5
1267D
  8
0
  6
BYBLOCK
 62
     0
 10
22938.542027484229
 20
4941.1885390000016
 30
0.0
 40
15.0
 50
180.0
 51
0.0
  0
ARC
  5
1267E
  8
0
  6
BYBLOCK
 62
     0
 10
25738.542027484251
 20
4941.1885390000016
 30
0.0
 40
15.0
 50
180.0
 51
0.0
  0
ARC
  5
1267F
  8
0
  6
BYBLOCK
 62
     0
 10
25738.542027484251
 20
4941.1885390000016
 30
0.0
 40
15.0
 50
0.0
 51
180.0
  0
ARC
  5
12680
  8
0
  6
BYBLOCK
 62
     0
 10
22981.04202748424
 20
9389.1900500000029
 30
0.0
 40
15.0
 50
0.0
 51
180.0
  0
ARC
  5
12681
  8
0
  6
BYBLOCK
 62
     0
 10
22981.04202748424
 20
9389.1900500000029
 30
0.0
 40
15.0
 50
180.0
 51
0.0
  0
ARC
  5
12682
  8
0
  6
BYBLOCK
 62
     0
 10
25781.04202748424
 20
9389.1900500000029
 30
0.0
 40
15.0
 50
180.0
 51
0.0
  0
ARC
  5
12683
  8
0
  6
BYBLOCK
 62
     0
 10
25781.04202748424
 20
9389.1900500000029
 30
0.0
 40
15.0
 50
0.0
 51
180.0
  0
ARC
  5
12684
  8
0
  6
BYBLOCK
 62
     0
 10
26865.864425778622
 20
6241.1883740000021
 30
0.0
 40
15.0
 50
90.0
 51
270.0
  0
ARC
  5
12685
  8
0
  6
BYBLOCK
 62
     0
 10
26865.864425778622
 20
6241.1883740000021
 30
0.0
 40
15.0
 50
270.0
 51
90.0
  0
ARC
  5
12686
  8
0
  6
BYBLOCK
 62
     0
 10
26865.864425778622
 20
8261.1883740000048
 30
0.0
 40
15.0
 50
270.0
 51
90.0
  0
ARC
  5
12687
  8
0
  6
BYBLOCK
 62
     0
 10
26865.864425778622
 20
8261.1883740000048
 30
0.0
 40
15.0
 50
90.0
 51
270.0
  0
TEXT
  5
1275D
  8
NAME
 10
21595.82616625919
 20
1076.6369801169251
 30
0.0
 40
360.0
  1
VGCU-2659（H）+VKCU-2859（H）型-R（単棟）
 41
0.4200000000000001
  0
TEXT
  5
1275F
  8
NAME
 10
21933.552716389011
 20
1876.0
 30
0.0
 40
360.0
  1
ヨドガレージ ラヴィージュ
 41
0.75
  7
01
  0
LINE
  5
12760
  8
NAME
  6
CONTINUOUS
 10
26067.886878884299
 20
2236.0
 30
0.0
 11
26067.886878884299
 21
1876.0
 31
0.0
  0
LINE
  5
12761
  8
NAME
  6
CONTINUOUS
 10
26167.886878884299
 20
2236.0
 30
0.0
 11
26167.886878884299
 21
1876.0
 31
0.0
  0
LINE
  5
12762
  8
NAME
  6
CONTINUOUS
 10
26267.88687888431
 20
2236.0
 30
0.0
 11
26267.88687888431
 21
1876.0
 31
0.0
  0
LINE
  5
12763
  8
NAME
  6
CONTINUOUS
 10
26007.886878884299
 20
2236.0
 30
0.0
 11
26327.886878884299
 21
2236.0
 31
0.0
  0
LINE
  5
12764
  8
NAME
  6
CONTINUOUS
 10
26327.886878884299
 20
1876.0
 30
0.0
 11
26007.886878884299
 21
1876.0
 31
0.0
  0
LINE
  5
12770
  8
2-0
  6
CENTER2
 62
     6
 10
22959.543888484211
 20
21310.988495000009
 30
0.0
 11
22959.543888484211
 21
13474.73237353158
 31
0.0
  0
LINE
  5
12773
  8
2-0
  6
CENTER2
 62
     6
 10
20392.043888484211
 20
21310.988495000009
 30
0.0
 11
20392.043888484211
 21
13474.73237353158
 31
0.0
  0
LINE
  5
129FF
  8
2-0
  6
CONTINUOUS
 62
     6
 10
22075.202804484212
 20
13192.485129999999
 30
0.0
 11
21075.209402484259
 21
13192.485129999999
 31
0.0
  0
LINE
  5
12A00
  8
2-0
  6
CONTINUOUS
 62
     6
 10
20607.269025484209
 20
13662.905844000001
 30
0.0
 11
21075.209402484259
 21
13192.485129999999
 31
0.0
  0
LINE
  5
12A01
  8
2-0
  6
CONTINUOUS
 62
     6
 10
22058.491708484238
 20
17871.605194999989
 30
0.0
 11
21040.516360484231
 21
17871.605194999989
 31
0.0
  0
LINE
  5
12A02
  8
2-0
  6
CONTINUOUS
 62
     6
 10
20584.090842484231
 20
18096.320144000001
 30
0.0
 11
21040.516360484231
 21
17871.605194999989
 31
0.0
  0
LINE
  5
12A03
  8
2-0
  6
CONTINUOUS
 62
     6
 10
20645.909228484212
 20
16854.513491000002
 30
0.0
 11
20950.604646484211
 21
16958.16702200002
 31
0.0
  0
LINE
  5
12A04
  8
2-0
  6
CONTINUOUS
 62
     6
 10
20490.887189484249
 20
16364.89144700002
 30
0.0
 11
20950.604646484211
 21
16120.978136000011
 31
0.0
  0
LINE
  5
12A05
  8
2-0
  6
CONTINUOUS
 62
     6
 10
21870.607681484231
 20
16120.978136000011
 30
0.0
 11
20950.604646484211
 21
16120.978136000011
 31
0.0
  0
LINE
  5
12A06
  8
2-0
  6
CONTINUOUS
 62
     6
 10
22150.59870848422
 20
16958.16702200002
 30
0.0
 11
20950.604646484211
 21
16958.16702200002
 31
0.0
  0
LINE
  5
12A07
  8
2-0
  6
CONTINUOUS
 62
     6
 10
20574.709904484211
 20
13984.58948999998
 30
0.0
 11
20950.604646484211
 21
14165.533325
 31
0.0
  0
LINE
  5
12A08
  8
2-0
  6
CONTINUOUS
 62
     6
 10
22058.491708484238
 20
14953.84273700001
 30
0.0
 11
21040.516360484231
 21
14953.84273700001
 31
0.0
  0
LINE
  5
12A09
  8
2-0
  6
CONTINUOUS
 62
     6
 10
21470.60636248421
 20
14165.533325
 30
0.0
 11
20950.604646484211
 21
14165.533325
 31
0.0
  0
LINE
  5
12A0A
  8
2-0
  6
CONTINUOUS
 62
     6
 10
20584.090842484231
 20
15178.55570700001
 30
0.0
 11
21040.516360484231
 21
14953.84273700001
 31
0.0
  0
LINE
  5
12A0B
  8
2-0
  6
CONTINUOUS
 62
     3
 10
22972.044548484198
 20
19601.984326000009
 30
0.0
 11
22972.044548484198
 21
19595.988364000012
 31
0.0
  0
LINE
  5
12A0C
  8
2-0
  6
CONTINUOUS
 62
     3
 10
22972.044548484198
 20
19595.988364000012
 30
0.0
 11
23002.042172484202
 21
19595.988364000012
 31
0.0
  0
LINE
  5
12A0D
  8
2-0
  6
CONTINUOUS
 62
     3
 10
23002.042172484202
 20
19625.987968000001
 30
0.0
 11
22921.040272484199
 21
19625.987968000001
 31
0.0
  0
LINE
  5
12A0E
  8
2-0
  6
CONTINUOUS
 62
     3
 10
22972.044548484198
 20
19585.690908
 30
0.0
 11
23002.042172484202
 21
19585.690908
 31
0.0
  0
LINE
  5
12A0F
  8
2-0
  6
CONTINUOUS
 62
     3
 10
22972.044548484198
 20
19603.692650000001
 30
0.0
 11
22972.044548484198
 21
19585.690908
 31
0.0
  0
LINE
  5
12A10
  8
2-0
  6
CONTINUOUS
 62
     3
 10
22997.041908484211
 20
19603.692650000001
 30
0.0
 11
22972.044548484198
 21
19603.692650000001
 31
0.0
  0
LINE
  5
12A11
  8
2-0
  6
CONTINUOUS
 62
     3
 10
22997.041908484211
 20
19598.68446800001
 30
0.0
 11
22997.041908484211
 21
19603.692650000001
 31
0.0
  0
LINE
  5
12A12
  8
2-0
  6
CONTINUOUS
 62
     3
 10
22990.040351484218
 20
19598.68446800001
 30
0.0
 11
22997.041908484211
 21
19598.68446800001
 31
0.0
  0
LINE
  5
12A13
  8
2-0
  6
CONTINUOUS
 62
     3
 10
22889.744083484198
 20
19698.984695000021
 30
0.0
 11
22889.744083484198
 21
19705.990211000011
 31
0.0
  0
LINE
  5
12A14
  8
2-0
  6
CONTINUOUS
 62
     3
 10
22889.744083484198
 20
19705.990211000011
 30
0.0
 11
22894.744347484189
 21
19705.990211000011
 31
0.0
  0
LINE
  5
12A15
  8
2-0
  6
CONTINUOUS
 62
     3
 10
22894.744347484189
 20
19705.990211000011
 30
0.0
 11
22894.744347484189
 21
19680.980973999998
 31
0.0
  0
LINE
  5
12A16
  8
2-0
  6
CONTINUOUS
 62
     3
 10
22894.744347484189
 20
19680.980973999998
 30
0.0
 11
22876.742605484182
 21
19680.980973999998
 31
0.0
  0
LINE
  5
12A17
  8
2-0
  6
CONTINUOUS
 62
     3
 10
22876.742605484182
 20
19680.980973999998
 30
0.0
 11
22876.742605484182
 21
19710.984537000011
 31
0.0
  0
LINE
  5
12A18
  8
2-0
  6
CONTINUOUS
 62
     3
 10
22887.040061484211
 20
19710.984537000011
 30
0.0
 11
23002.042172484202
 21
19710.984537000011
 31
0.0
  0
LINE
  5
12A19
  8
2-0
  6
CONTINUOUS
 62
     3
 10
22887.040061484211
 20
19680.980973999998
 30
0.0
 11
22887.040061484211
 21
19710.984537000011
 31
0.0
  0
LINE
  5
12A1A
  8
2-0
  6
CONTINUOUS
 62
     3
 10
22893.04196148421
 20
19680.980973999998
 30
0.0
 11
22887.040061484211
 21
19680.980973999998
 31
0.0
  0
LINE
  5
12A1B
  8
2-0
  6
CONTINUOUS
 62
     3
 10
22990.040351484218
 20
18894.887645499992
 30
0.0
 11
22997.041908484211
 21
18894.887645499992
 31
0.0
  0
LINE
  5
12A1C
  8
2-0
  6
CONTINUOUS
 62
     3
 10
22997.041908484211
 20
18894.887645499992
 30
0.0
 11
22997.041908484211
 21
18899.887909500001
 31
0.0
  0
LINE
  5
12A1D
  8
2-0
  6
CONTINUOUS
 62
     3
 10
22997.041908484211
 20
18899.887909500001
 30
0.0
 11
22972.044548484198
 21
18899.887909500001
 31
0.0
  0
LINE
  5
12A1E
  8
2-0
  6
CONTINUOUS
 62
     3
 10
22972.044548484198
 20
18899.887909500001
 30
0.0
 11
22972.044548484198
 21
18881.892105499999
 31
0.0
  0
LINE
  5
12A1F
  8
2-0
  6
CONTINUOUS
 62
     3
 10
22972.044548484198
 20
18881.892105499999
 30
0.0
 11
23002.042172484202
 21
18881.892105499999
 31
0.0
  0
LINE
  5
12A20
  8
2-0
  6
CONTINUOUS
 62
     3
 10
22972.044548484198
 20
18897.98361249996
 30
0.0
 11
22972.044548484198
 21
18891.985671499999
 31
0.0
  0
LINE
  5
12A21
  8
2-0
  6
CONTINUOUS
 62
     3
 10
22972.044548484198
 20
18891.985671499999
 30
0.0
 11
23002.042172484202
 21
18891.985671499999
 31
0.0
  0
LINE
  5
12A22
  8
2-0
  6
CONTINUOUS
 62
     3
 10
23002.042172484202
 20
18891.985671499999
 30
0.0
 11
23002.042172484202
 21
18928.986832499992
 31
0.0
  0
LINE
  5
12A23
  8
2-0
  6
CONTINUOUS
 62
     3
 10
22972.044548484198
 20
18928.986832499992
 30
0.0
 11
23002.042172484202
 21
18928.986832499992
 31
0.0
  0
LINE
  5
12A24
  8
2-0
  6
CONTINUOUS
 62
     3
 10
22972.044548484198
 20
18922.982952499991
 30
0.0
 11
22972.044548484198
 21
18928.986832499992
 31
0.0
  0
LINE
  5
12A25
  8
2-0
  6
CONTINUOUS
 62
     3
 10
22972.044548484198
 20
18939.082377499992
 30
0.0
 11
23002.042172484202
 21
18939.082377499992
 31
0.0
  0
LINE
  5
12A26
  8
2-0
  6
CONTINUOUS
 62
     3
 10
22972.044548484198
 20
18921.080635499999
 30
0.0
 11
22972.044548484198
 21
18939.082377499992
 31
0.0
  0
LINE
  5
12A27
  8
2-0
  6
CONTINUOUS
 62
     3
 10
22997.041908484211
 20
18921.080635499999
 30
0.0
 11
22972.044548484198
 21
18921.080635499999
 31
0.0
  0
LINE
  5
12A28
  8
2-0
  6
CONTINUOUS
 62
     3
 10
22997.041908484211
 20
18926.080899500001
 30
0.0
 11
22997.041908484211
 21
18921.080635499999
 31
0.0
  0
LINE
  5
12A29
  8
2-0
  6
CONTINUOUS
 62
     3
 10
22990.040351484218
 20
18926.080899500001
 30
0.0
 11
22997.041908484211
 21
18926.080899500001
 31
0.0
  0
LINE
  5
12A2A
  8
2-0
  6
CONTINUOUS
 62
     3
 10
22990.040351484218
 20
18193.886655999999
 30
0.0
 11
22997.041908484211
 21
18193.886655999999
 31
0.0
  0
LINE
  5
12A2B
  8
2-0
  6
CONTINUOUS
 62
     3
 10
22997.041908484211
 20
18193.886655999999
 30
0.0
 11
22997.041908484211
 21
18198.892857999999
 31
0.0
  0
LINE
  5
12A2C
  8
2-0
  6
CONTINUOUS
 62
     3
 10
22997.041908484211
 20
18198.892857999999
 30
0.0
 11
22972.044548484198
 21
18198.892857999999
 31
0.0
  0
LINE
  5
12A2D
  8
2-0
  6
CONTINUOUS
 62
     3
 10
22972.044548484198
 20
18198.892857999999
 30
0.0
 11
22972.044548484198
 21
18180.89111600001
 31
0.0
  0
LINE
  5
12A2E
  8
2-0
  6
CONTINUOUS
 62
     3
 10
22972.044548484198
 20
18180.89111600001
 30
0.0
 11
23002.042172484202
 21
18180.89111600001
 31
0.0
  0
LINE
  5
12A2F
  8
2-0
  6
CONTINUOUS
 62
     3
 10
22972.044548484198
 20
18196.982622999989
 30
0.0
 11
22972.044548484198
 21
18190.986660999999
 31
0.0
  0
LINE
  5
12A30
  8
2-0
  6
CONTINUOUS
 62
     3
 10
22972.044548484198
 20
18190.986660999999
 30
0.0
 11
23002.042172484202
 21
18190.986660999999
 31
0.0
  0
LINE
  5
12A31
  8
2-0
  6
CONTINUOUS
 62
     3
 10
23002.042172484202
 20
18190.986660999999
 30
0.0
 11
23002.042172484202
 21
18227.985842999991
 31
0.0
  0
LINE
  5
12A32
  8
2-0
  6
CONTINUOUS
 62
     3
 10
22972.044548484198
 20
18227.985842999991
 30
0.0
 11
23002.042172484202
 21
18227.985842999991
 31
0.0
  0
LINE
  5
12A33
  8
2-0
  6
CONTINUOUS
 62
     3
 10
22972.044548484198
 20
18221.989881000001
 30
0.0
 11
22972.044548484198
 21
18227.985842999991
 31
0.0
  0
LINE
  5
12A34
  8
2-0
  6
CONTINUOUS
 62
     3
 10
22972.044548484198
 20
18238.08138800001
 30
0.0
 11
23002.042172484202
 21
18238.08138800001
 31
0.0
  0
LINE
  5
12A35
  8
2-0
  6
CONTINUOUS
 62
     3
 10
22972.044548484198
 20
18220.079645999998
 30
0.0
 11
22972.044548484198
 21
18238.08138800001
 31
0.0
  0
LINE
  5
12A36
  8
2-0
  6
CONTINUOUS
 62
     3
 10
22997.041908484211
 20
18220.079645999998
 30
0.0
 11
22972.044548484198
 21
18220.079645999998
 31
0.0
  0
LINE
  5
12A37
  8
2-0
  6
CONTINUOUS
 62
     3
 10
22997.041908484211
 20
18225.085847999992
 30
0.0
 11
22997.041908484211
 21
18220.079645999998
 31
0.0
  0
LINE
  5
12A38
  8
2-0
  6
CONTINUOUS
 62
     3
 10
22990.040351484218
 20
18225.085847999992
 30
0.0
 11
22997.041908484211
 21
18225.085847999992
 31
0.0
  0
LINE
  5
12A39
  8
2-0
  6
CONTINUOUS
 62
     3
 10
22990.040351484218
 20
17524.07991
 30
0.0
 11
22997.041908484211
 21
17524.07991
 31
0.0
  0
LINE
  5
12A3A
  8
2-0
  6
CONTINUOUS
 62
     3
 10
22997.041908484211
 20
17524.07991
 30
0.0
 11
22997.041908484211
 21
17519.091522999999
 31
0.0
  0
LINE
  5
12A3B
  8
2-0
  6
CONTINUOUS
 62
     3
 10
22997.041908484211
 20
17519.091522999999
 30
0.0
 11
22972.044548484198
 21
17519.091522999999
 31
0.0
  0
LINE
  5
12A3C
  8
2-0
  6
CONTINUOUS
 62
     3
 10
22972.044548484198
 20
17519.091522999999
 30
0.0
 11
22972.044548484198
 21
17537.087326000001
 31
0.0
  0
LINE
  5
12A3D
  8
2-0
  6
CONTINUOUS
 62
     3
 10
22972.044548484198
 20
17537.087326000001
 30
0.0
 11
23002.042172484202
 21
17537.087326000001
 31
0.0
  0
LINE
  5
12A3E
  8
2-0
  6
CONTINUOUS
 62
     3
 10
22972.044548484198
 20
17520.989881000001
 30
0.0
 11
22972.044548484198
 21
17526.985842999999
 31
0.0
  0
LINE
  5
12A3F
  8
2-0
  6
CONTINUOUS
 62
     3
 10
22972.044548484198
 20
17526.985842999999
 30
0.0
 11
23002.042172484202
 21
17526.985842999999
 31
0.0
  0
LINE
  5
12A40
  8
2-0
  6
CONTINUOUS
 62
     3
 10
23002.042172484202
 20
17526.985842999999
 30
0.0
 11
23002.042172484202
 21
17489.98666100001
 31
0.0
  0
LINE
  5
12A41
  8
2-0
  6
CONTINUOUS
 62
     3
 10
22972.044548484198
 20
17489.98666100001
 30
0.0
 11
23002.042172484202
 21
17489.98666100001
 31
0.0
  0
LINE
  5
12A42
  8
2-0
  6
CONTINUOUS
 62
     3
 10
22972.044548484198
 20
17495.988561999991
 30
0.0
 11
22972.044548484198
 21
17489.98666100001
 31
0.0
  0
LINE
  5
12A43
  8
2-0
  6
CONTINUOUS
 62
     3
 10
22972.044548484198
 20
17479.897055000001
 30
0.0
 11
23002.042172484202
 21
17479.897055000001
 31
0.0
  0
LINE
  5
12A44
  8
2-0
  6
CONTINUOUS
 62
     3
 10
22972.044548484198
 20
17497.892857999988
 30
0.0
 11
22972.044548484198
 21
17479.897055000001
 31
0.0
  0
LINE
  5
12A45
  8
2-0
  6
CONTINUOUS
 62
     3
 10
22997.041908484211
 20
17497.892857999988
 30
0.0
 11
22972.044548484198
 21
17497.892857999988
 31
0.0
  0
LINE
  5
12A46
  8
2-0
  6
CONTINUOUS
 62
     3
 10
22997.041908484211
 20
17492.892595000001
 30
0.0
 11
22997.041908484211
 21
17497.892857999988
 31
0.0
  0
LINE
  5
12A47
  8
2-0
  6
CONTINUOUS
 62
     3
 10
22990.040351484218
 20
17492.892595000001
 30
0.0
 11
22997.041908484211
 21
17492.892595000001
 31
0.0
  0
LINE
  5
12A48
  8
2-0
  6
CONTINUOUS
 62
     3
 10
22999.156034484211
 20
16772.983480999999
 30
0.0
 11
22999.156034484211
 21
16792.984536
 31
0.0
  0
LINE
  5
12A49
  8
2-0
  6
CONTINUOUS
 62
     3
 10
22999.156034484211
 20
16792.984536
 30
0.0
 11
22914.159465484201
 21
16792.984536
 31
0.0
  0
LINE
  5
12A4A
  8
2-0
  6
CONTINUOUS
 62
     3
 10
22990.040351484218
 20
16819.591246
 30
0.0
 11
22997.041908484211
 21
16819.591246
 31
0.0
  0
LINE
  5
12A4B
  8
2-0
  6
CONTINUOUS
 62
     3
 10
22997.041908484211
 20
16819.591246
 30
0.0
 11
22997.041908484211
 21
16814.596920000011
 31
0.0
  0
LINE
  5
12A4C
  8
2-0
  6
CONTINUOUS
 62
     3
 10
22997.041908484211
 20
16814.596920000011
 30
0.0
 11
22972.044548484198
 21
16814.596920000011
 31
0.0
  0
LINE
  5
12A4D
  8
2-0
  6
CONTINUOUS
 62
     3
 10
22972.044548484198
 20
16814.596920000011
 30
0.0
 11
22972.044548484198
 21
16832.592723999991
 31
0.0
  0
LINE
  5
12A4E
  8
2-0
  6
CONTINUOUS
 62
     3
 10
22972.044548484198
 20
16832.592723999991
 30
0.0
 11
23002.042172484202
 21
16832.592723999991
 31
0.0
  0
LINE
  5
12A4F
  8
2-0
  6
CONTINUOUS
 62
     3
 10
22972.044548484198
 20
16822.98413999999
 30
0.0
 11
22972.044548484198
 21
16816.982240000001
 31
0.0
  0
LINE
  5
12A50
  8
2-0
  6
CONTINUOUS
 62
     3
 10
23002.042172484202
 20
16822.98413999999
 30
0.0
 11
22972.044548484198
 21
16822.98413999999
 31
0.0
  0
LINE
  5
12A51
  8
2-0
  6
CONTINUOUS
 62
     3
 10
23002.042172484202
 20
16832.592723999991
 30
0.0
 11
23002.042172484202
 21
17479.897055000001
 31
0.0
  0
LINE
  5
12A52
  8
2-0
  6
CONTINUOUS
 62
     3
 10
23002.042172484202
 20
17537.087326000001
 30
0.0
 11
23002.042172484202
 21
18180.89111600001
 31
0.0
  0
LINE
  5
12A53
  8
2-0
  6
CONTINUOUS
 62
     3
 10
23002.042172484202
 20
16677.982424999991
 30
0.0
 11
22972.044548484198
 21
16677.982424999991
 31
0.0
  0
LINE
  5
12A54
  8
2-0
  6
CONTINUOUS
 62
     3
 10
22972.044548484198
 20
16677.982424999991
 30
0.0
 11
22972.044548484198
 21
16683.984325000001
 31
0.0
  0
LINE
  5
12A55
  8
2-0
  6
CONTINUOUS
 62
     3
 10
22914.159465484201
 20
16707.987968000001
 30
0.0
 11
22999.156034484211
 21
16707.987968000001
 31
0.0
  0
LINE
  5
12A56
  8
2-0
  6
CONTINUOUS
 62
     3
 10
22999.156034484211
 20
16707.987968000001
 30
0.0
 11
22999.156034484211
 21
16727.983085000011
 31
0.0
  0
LINE
  5
12A57
  8
2-0
  6
CONTINUOUS
 62
     3
 10
22972.044548484198
 20
16668.373842000012
 30
0.0
 11
23002.042172484202
 21
16668.373842000012
 31
0.0
  0
LINE
  5
12A58
  8
2-0
  6
CONTINUOUS
 62
     3
 10
22972.044548484198
 20
16686.369644999992
 30
0.0
 11
22972.044548484198
 21
16668.373842000012
 31
0.0
  0
LINE
  5
12A59
  8
2-0
  6
CONTINUOUS
 62
     3
 10
22997.041908484211
 20
16686.369644999992
 30
0.0
 11
22972.044548484198
 21
16686.369644999992
 31
0.0
  0
LINE
  5
12A5A
  8
2-0
  6
CONTINUOUS
 62
     3
 10
22997.041908484211
 20
16681.369381000011
 30
0.0
 11
22997.041908484211
 21
16686.369644999992
 31
0.0
  0
LINE
  5
12A5B
  8
2-0
  6
CONTINUOUS
 62
     3
 10
22990.040351484218
 20
16681.369381000011
 30
0.0
 11
22997.041908484211
 21
16681.369381000011
 31
0.0
  0
LINE
  5
12A5C
  8
2-0
  6
CONTINUOUS
 62
     3
 10
22990.040351484218
 20
15976.887150499981
 30
0.0
 11
22997.041908484211
 21
15976.887150499981
 31
0.0
  0
LINE
  5
12A5D
  8
2-0
  6
CONTINUOUS
 62
     3
 10
22997.041908484211
 20
15976.887150499981
 30
0.0
 11
22997.041908484211
 21
15981.88741449999
 31
0.0
  0
LINE
  5
12A5E
  8
2-0
  6
CONTINUOUS
 62
     3
 10
22997.041908484211
 20
15981.88741449999
 30
0.0
 11
22972.044548484198
 21
15981.88741449999
 31
0.0
  0
LINE
  5
12A5F
  8
2-0
  6
CONTINUOUS
 62
     3
 10
22972.044548484198
 20
15981.88741449999
 30
0.0
 11
22972.044548484198
 21
15963.885672500001
 31
0.0
  0
LINE
  5
12A60
  8
2-0
  6
CONTINUOUS
 62
     3
 10
22972.044548484198
 20
15963.885672500001
 30
0.0
 11
23002.042172484202
 21
15963.885672500001
 31
0.0
  0
LINE
  5
12A61
  8
2-0
  6
CONTINUOUS
 62
     3
 10
22972.044548484198
 20
15979.9831175
 30
0.0
 11
22972.044548484198
 21
15973.986166500001
 31
0.0
  0
LINE
  5
12A62
  8
2-0
  6
CONTINUOUS
 62
     3
 10
22972.044548484198
 20
15973.986166500001
 30
0.0
 11
23002.042172484202
 21
15973.986166500001
 31
0.0
  0
LINE
  5
12A63
  8
2-0
  6
CONTINUOUS
 62
     3
 10
23002.042172484202
 20
15973.986166500001
 30
0.0
 11
23002.042172484202
 21
16010.9863375
 31
0.0
  0
LINE
  5
12A64
  8
2-0
  6
CONTINUOUS
 62
     3
 10
22972.044548484198
 20
16010.9863375
 30
0.0
 11
23002.042172484202
 21
16010.9863375
 31
0.0
  0
LINE
  5
12A65
  8
2-0
  6
CONTINUOUS
 62
     3
 10
22972.044548484198
 20
16004.983447500001
 30
0.0
 11
22972.044548484198
 21
16010.9863375
 31
0.0
  0
LINE
  5
12A66
  8
2-0
  6
CONTINUOUS
 62
     3
 10
22972.044548484198
 20
16021.081882500001
 30
0.0
 11
23002.042172484202
 21
16021.081882500001
 31
0.0
  0
LINE
  5
12A67
  8
2-0
  6
CONTINUOUS
 62
     3
 10
22972.044548484198
 20
16003.074201499991
 30
0.0
 11
22972.044548484198
 21
16021.081882500001
 31
0.0
  0
LINE
  5
12A68
  8
2-0
  6
CONTINUOUS
 62
     3
 10
22997.041908484211
 20
16003.074201499991
 30
0.0
 11
22972.044548484198
 21
16003.074201499991
 31
0.0
  0
LINE
  5
12A69
  8
2-0
  6
CONTINUOUS
 62
     3
 10
22997.041908484211
 20
16008.0804045
 30
0.0
 11
22997.041908484211
 21
16003.074201499991
 31
0.0
  0
LINE
  5
12A6A
  8
2-0
  6
CONTINUOUS
 62
     3
 10
22990.040351484218
 20
16008.0804045
 30
0.0
 11
22997.041908484211
 21
16008.0804045
 31
0.0
  0
LINE
  5
12A6B
  8
2-0
  6
CONTINUOUS
 62
     3
 10
22990.040351484218
 20
15307.320421
 30
0.0
 11
22997.041908484211
 21
15307.320421
 31
0.0
  0
LINE
  5
12A6C
  8
2-0
  6
CONTINUOUS
 62
     3
 10
22997.041908484211
 20
15307.320421
 30
0.0
 11
22997.041908484211
 21
15302.326096000001
 31
0.0
  0
LINE
  5
12A6D
  8
2-0
  6
CONTINUOUS
 62
     3
 10
22997.041908484211
 20
15302.326096000001
 30
0.0
 11
22972.044548484198
 21
15302.326096000001
 31
0.0
  0
LINE
  5
12A6E
  8
2-0
  6
CONTINUOUS
 62
     3
 10
22972.044548484198
 20
15302.326096000001
 30
0.0
 11
22972.044548484198
 21
15320.32189900001
 31
0.0
  0
LINE
  5
12A6F
  8
2-0
  6
CONTINUOUS
 62
     3
 10
22972.044548484198
 20
15320.32189900001
 30
0.0
 11
23002.042172484202
 21
15320.32189900001
 31
0.0
  0
LINE
  5
12A70
  8
2-0
  6
CONTINUOUS
 62
     3
 10
22972.044548484198
 20
15304.22445400001
 30
0.0
 11
22972.044548484198
 21
15310.226354
 31
0.0
  0
LINE
  5
12A71
  8
2-0
  6
CONTINUOUS
 62
     3
 10
22972.044548484198
 20
15310.226354
 30
0.0
 11
23002.042172484202
 21
15310.226354
 31
0.0
  0
LINE
  5
12A72
  8
2-0
  6
CONTINUOUS
 62
     3
 10
23002.042172484202
 20
15273.22717300001
 30
0.0
 11
23002.042172484202
 21
15310.226354
 31
0.0
  0
LINE
  5
12A73
  8
2-0
  6
CONTINUOUS
 62
     3
 10
22972.044548484198
 20
15273.22717300001
 30
0.0
 11
23002.042172484202
 21
15273.22717300001
 31
0.0
  0
LINE
  5
12A74
  8
2-0
  6
CONTINUOUS
 62
     3
 10
22972.044548484198
 20
15279.224124
 30
0.0
 11
22972.044548484198
 21
15273.22717300001
 31
0.0
  0
LINE
  5
12A75
  8
2-0
  6
CONTINUOUS
 62
     3
 10
22972.044548484198
 20
15263.12568899999
 30
0.0
 11
23002.042172484202
 21
15263.12568899999
 31
0.0
  0
LINE
  5
12A76
  8
2-0
  6
CONTINUOUS
 62
     3
 10
22972.044548484198
 20
15281.13336999999
 30
0.0
 11
22972.044548484198
 21
15263.12568899999
 31
0.0
  0
LINE
  5
12A77
  8
2-0
  6
CONTINUOUS
 62
     3
 10
22997.041908484211
 20
15281.13336999999
 30
0.0
 11
22972.044548484198
 21
15281.13336999999
 31
0.0
  0
LINE
  5
12A78
  8
2-0
  6
CONTINUOUS
 62
     3
 10
22997.041908484211
 20
15276.133106000019
 30
0.0
 11
22997.041908484211
 21
15281.13336999999
 31
0.0
  0
LINE
  5
12A79
  8
2-0
  6
CONTINUOUS
 62
     3
 10
22990.040351484218
 20
15276.133106000019
 30
0.0
 11
22997.041908484211
 21
15276.133106000019
 31
0.0
  0
LINE
  5
12A7A
  8
2-0
  6
CONTINUOUS
 62
     3
 10
23002.042172484202
 20
16668.373842000012
 30
0.0
 11
23002.042172484202
 21
16021.081882500001
 31
0.0
  0
LINE
  5
12A7B
  8
2-0
  6
CONTINUOUS
 62
     3
 10
23002.042172484202
 20
16822.98413999999
 30
0.0
 11
23002.042172484202
 21
16677.982424999991
 31
0.0
  0
LINE
  5
12A7C
  8
2-0
  6
CONTINUOUS
 62
     3
 10
22914.159465484201
 20
16792.984536
 30
0.0
 11
22914.159465484201
 21
16707.987968000001
 31
0.0
  0
LINE
  5
12A7D
  8
2-0
  6
CONTINUOUS
 62
     6
 10
21975.636978484221
 20
18561.431801499992
 30
0.0
 11
20950.604646484211
 21
18561.431801499992
 31
0.0
  0
LINE
  5
12A7E
  8
2-0
  6
CONTINUOUS
 62
     3
 10
22990.040351484218
 20
14574.892099000001
 30
0.0
 11
22997.041908484211
 21
14574.892099000001
 31
0.0
  0
LINE
  5
12A7F
  8
2-0
  6
CONTINUOUS
 62
     3
 10
22997.041908484211
 20
14574.892099000001
 30
0.0
 11
22997.041908484211
 21
14579.886425000001
 31
0.0
  0
LINE
  5
12A80
  8
2-0
  6
CONTINUOUS
 62
     3
 10
22997.041908484211
 20
14579.886425000001
 30
0.0
 11
22972.044548484198
 21
14579.886425000001
 31
0.0
  0
LINE
  5
12A81
  8
2-0
  6
CONTINUOUS
 62
     3
 10
22972.044548484198
 20
14579.886425000001
 30
0.0
 11
22972.044548484198
 21
14561.890621
 31
0.0
  0
LINE
  5
12A82
  8
2-0
  6
CONTINUOUS
 62
     3
 10
22972.044548484198
 20
14561.890621
 30
0.0
 11
23002.042172484202
 21
14561.890621
 31
0.0
  0
LINE
  5
12A83
  8
2-0
  6
CONTINUOUS
 62
     3
 10
22972.044548484198
 20
14577.989056
 30
0.0
 11
22972.044548484198
 21
14571.98616600001
 31
0.0
  0
LINE
  5
12A84
  8
2-0
  6
CONTINUOUS
 62
     3
 10
22972.044548484198
 20
14571.98616600001
 30
0.0
 11
23002.042172484202
 21
14571.98616600001
 31
0.0
  0
LINE
  5
12A85
  8
2-0
  6
CONTINUOUS
 62
     3
 10
23002.042172484202
 20
14571.98616600001
 30
0.0
 11
23002.042172484202
 21
14608.986337999981
 31
0.0
  0
LINE
  5
12A86
  8
2-0
  6
CONTINUOUS
 62
     3
 10
22972.044548484198
 20
14608.986337999981
 30
0.0
 11
23002.042172484202
 21
14608.986337999981
 31
0.0
  0
LINE
  5
12A87
  8
2-0
  6
CONTINUOUS
 62
     3
 10
22972.044548484198
 20
14602.98938599999
 30
0.0
 11
22972.044548484198
 21
14608.986337999981
 31
0.0
  0
LINE
  5
12A88
  8
2-0
  6
CONTINUOUS
 62
     3
 10
22972.044548484198
 20
14619.086831000001
 30
0.0
 11
23002.042172484202
 21
14619.086831000001
 31
0.0
  0
LINE
  5
12A89
  8
2-0
  6
CONTINUOUS
 62
     3
 10
22972.044548484198
 20
14601.08014
 30
0.0
 11
22972.044548484198
 21
14619.086831000001
 31
0.0
  0
LINE
  5
12A8A
  8
2-0
  6
CONTINUOUS
 62
     3
 10
22997.041908484211
 20
14601.08014
 30
0.0
 11
22972.044548484198
 21
14601.08014
 31
0.0
  0
LINE
  5
12A8B
  8
2-0
  6
CONTINUOUS
 62
     3
 10
22997.041908484211
 20
14606.085353
 30
0.0
 11
22997.041908484211
 21
14601.08014
 31
0.0
  0
LINE
  5
12A8C
  8
2-0
  6
CONTINUOUS
 62
     3
 10
22990.040351484218
 20
14606.085353
 30
0.0
 11
22997.041908484211
 21
14606.085353
 31
0.0
  0
LINE
  5
12A8D
  8
2-0
  6
CONTINUOUS
 62
     3
 10
22972.044548484198
 20
13898.988179
 30
0.0
 11
22972.044548484198
 21
13904.993047999989
 31
0.0
  0
LINE
  5
12A8E
  8
2-0
  6
CONTINUOUS
 62
     3
 10
22972.044548484198
 20
13904.993047999989
 30
0.0
 11
23002.042172484202
 21
13904.993047999989
 31
0.0
  0
LINE
  5
12A8F
  8
2-0
  6
CONTINUOUS
 62
     3
 10
23002.042172484202
 20
13904.993047999989
 30
0.0
 11
23002.042172484202
 21
13789.988957
 31
0.0
  0
LINE
  5
12A90
  8
2-0
  6
CONTINUOUS
 62
     3
 10
23002.042172484202
 20
13789.988957
 30
0.0
 11
22917.043624484199
 21
13789.988957
 31
0.0
  0
LINE
  5
12A91
  8
2-0
  6
CONTINUOUS
 62
     3
 10
22917.043624484199
 20
13789.988957
 30
0.0
 11
22917.043624484199
 21
13874.984536
 31
0.0
  0
LINE
  5
12A92
  8
2-0
  6
CONTINUOUS
 62
     3
 10
22917.043624484199
 20
13874.984536
 30
0.0
 11
22949.0425424842
 21
13874.984536
 31
0.0
  0
LINE
  5
12A93
  8
2-0
  6
CONTINUOUS
 62
     3
 10
22990.040351484218
 20
13902.022781
 30
0.0
 11
22997.041908484211
 21
13902.022781
 31
0.0
  0
LINE
  5
12A94
  8
2-0
  6
CONTINUOUS
 62
     3
 10
22997.041908484211
 20
13902.022781
 30
0.0
 11
22997.041908484211
 21
13897.02548599998
 31
0.0
  0
LINE
  5
12A95
  8
2-0
  6
CONTINUOUS
 62
     3
 10
22997.041908484211
 20
13897.02548599998
 30
0.0
 11
22972.044548484198
 21
13897.02548599998
 31
0.0
  0
LINE
  5
12A96
  8
2-0
  6
CONTINUOUS
 62
     3
 10
22972.044548484198
 20
13897.02548599998
 30
0.0
 11
22972.044548484198
 21
13915.024258999991
 31
0.0
  0
LINE
  5
12A97
  8
2-0
  6
CONTINUOUS
 62
     3
 10
22972.044548484198
 20
13915.024258999991
 30
0.0
 11
23002.042172484202
 21
13915.024258999991
 31
0.0
  0
LINE
  5
12A98
  8
2-0
  6
CENTER2
 62
     6
 10
22959.543888484211
 20
13592.49139899999
 30
0.0
 11
22959.543888484211
 21
14748.360157000019
 31
0.0
  0
LINE
  5
12A99
  8
2-0
  6
CONTINUOUS
 62
     3
 10
23002.042172484202
 20
18238.08138800001
 30
0.0
 11
23002.042172484202
 21
18881.892105499999
 31
0.0
  0
LINE
  5
12A9A
  8
2-0
  6
CONTINUOUS
 62
     6
 10
19657.040721484231
 20
20440.987440000012
 30
0.0
 11
18457.046659484251
 21
20440.987440000012
 31
0.0
  0
LINE
  5
12A9B
  8
2-0
  6
CONTINUOUS
 62
     6
 10
20519.073554484228
 20
18803.586309499991
 30
0.0
 11
20950.604646484211
 21
18561.431801499992
 31
0.0
  0
LINE
  5
12A9C
  8
2-0
  6
CONTINUOUS
 62
     6
 10
20197.504720484241
 20
19853.664277000022
 30
0.0
 11
19657.040721484231
 21
20440.987440000012
 31
0.0
  0
LINE
  5
12A9D
  8
2-0
  6
CONTINUOUS
 62
     3
 10
22911.037765484209
 20
18166.984997999989
 30
0.0
 11
22958.043413484171
 21
18166.984997999989
 31
0.0
  0
LINE
  5
12A9E
  8
2-0
  6
CONTINUOUS
 62
     3
 10
22958.043413484171
 20
18251.985526
 30
0.0
 11
22911.037765484209
 21
18251.985526
 31
0.0
  0
LINE
  5
12A9F
  8
2-0
  6
CONTINUOUS
 62
     3
 10
22958.043413484171
 20
18166.984997999989
 30
0.0
 11
22958.043413484171
 21
18191.988297
 31
0.0
  0
LINE
  5
12AA0
  8
2-0
  6
CONTINUOUS
 62
     3
 10
22958.043413484171
 20
18226.984206000001
 30
0.0
 11
22958.043413484171
 21
18251.985526
 31
0.0
  0
LINE
  5
12AA1
  8
2-0
  6
CONTINUOUS
 62
     3
 10
22911.037765484209
 20
18251.985526
 30
0.0
 11
22911.037765484209
 21
18166.984997999989
 31
0.0
  0
LINE
  5
12AA2
  8
2-0
  6
CONTINUOUS
 62
     3
 10
23002.042172484202
 20
15963.885672500001
 30
0.0
 11
23002.042172484202
 21
15320.32189900001
 31
0.0
  0
LINE
  5
12AA3
  8
2-0
  6
CONTINUOUS
 62
     3
 10
22911.037765484209
 20
15248.987967999999
 30
0.0
 11
22958.043413484171
 21
15248.987967999999
 31
0.0
  0
LINE
  5
12AA4
  8
2-0
  6
CONTINUOUS
 62
     3
 10
22958.043413484171
 20
15333.984535999991
 30
0.0
 11
22911.037765484209
 21
15333.984535999991
 31
0.0
  0
LINE
  5
12AA5
  8
2-0
  6
CONTINUOUS
 62
     3
 10
22958.043413484171
 20
15248.987967999999
 30
0.0
 11
22958.043413484171
 21
15273.983349
 31
0.0
  0
LINE
  5
12AA6
  8
2-0
  6
CONTINUOUS
 62
     3
 10
22958.043413484171
 20
15308.98321700001
 30
0.0
 11
22958.043413484171
 21
15333.984535999991
 31
0.0
  0
LINE
  5
12AA7
  8
2-0
  6
CONTINUOUS
 62
     3
 10
22911.037765484209
 20
15333.984535999991
 30
0.0
 11
22911.037765484209
 21
15248.987967999999
 31
0.0
  0
LINE
  5
12AA8
  8
2-0
  6
CONTINUOUS
 62
     6
 10
20532.130459484211
 20
18826.84565349999
 30
0.0
 11
20379.543228484221
 21
18881.892105499999
 31
0.0
  0
LINE
  5
12AA9
  8
2-0
  6
CONTINUOUS
 62
     6
 10
20379.543228484221
 20
18881.892105499999
 30
0.0
 11
20506.024568484208
 21
18780.332905499981
 31
0.0
  0
LINE
  5
12AAA
  8
2-0
  6
CONTINUOUS
 62
     6
 10
20532.130459484211
 20
18826.84565349999
 30
0.0
 11
20506.024568484208
 21
18780.332905499981
 31
0.0
  0
LINE
  5
12AAB
  8
2-0
  6
CONTINUOUS
 62
     6
 10
20506.024568484208
 20
18780.332905499981
 30
0.0
 11
20379.543228484221
 21
18881.892105499999
 31
0.0
  0
LINE
  5
12AAC
  8
2-0
  6
CONTINUOUS
 62
     6
 10
20379.543228484221
 20
18881.892105499999
 30
0.0
 11
20532.130459484211
 21
18826.84565349999
 31
0.0
  0
LINE
  5
12AAD
  8
2-0
  6
CONTINUOUS
 62
     6
 10
20532.130459484211
 20
18826.84565349999
 30
0.0
 11
20379.543228484221
 21
18881.892105499999
 31
0.0
  0
LINE
  5
12AAE
  8
2-0
  6
CONTINUOUS
 62
     6
 10
20506.024568484208
 20
18780.332905499981
 30
0.0
 11
20379.543228484221
 21
18881.892105499999
 31
0.0
  0
LINE
  5
12AAF
  8
2-0
  6
CONTINUOUS
 62
     6
 10
20506.024568484208
 20
18780.332905499981
 30
0.0
 11
20532.130459484211
 21
18826.84565349999
 31
0.0
  0
LINE
  5
12AB0
  8
2-0
  6
CONTINUOUS
 62
     6
 10
20177.887691484219
 20
19835.603150000021
 30
0.0
 11
20305.849711484221
 21
19735.920532000011
 31
0.0
  0
LINE
  5
12AB1
  8
2-0
  6
CONTINUOUS
 62
     6
 10
20305.849711484221
 20
19735.920532000011
 30
0.0
 11
20217.135606484229
 21
19871.717487000009
 31
0.0
  0
LINE
  5
12AB2
  8
2-0
  6
CONTINUOUS
 62
     6
 10
20177.887691484219
 20
19835.603150000021
 30
0.0
 11
20217.135606484229
 21
19871.717487000009
 31
0.0
  0
LINE
  5
12AB3
  8
2-0
  6
CONTINUOUS
 62
     6
 10
20217.135606484229
 20
19871.717487000009
 30
0.0
 11
20305.849711484221
 21
19735.920532000011
 31
0.0
  0
LINE
  5
12AB4
  8
2-0
  6
CONTINUOUS
 62
     6
 10
20305.849711484221
 20
19735.920532000011
 30
0.0
 11
20177.887691484219
 21
19835.603150000021
 31
0.0
  0
LINE
  5
12AB5
  8
2-0
  6
CONTINUOUS
 62
     6
 10
20177.887691484219
 20
19835.603150000021
 30
0.0
 11
20305.849711484221
 21
19735.920532000011
 31
0.0
  0
LINE
  5
12AB6
  8
2-0
  6
CONTINUOUS
 62
     6
 10
20217.135606484229
 20
19871.717487000009
 30
0.0
 11
20305.849711484221
 21
19735.920532000011
 31
0.0
  0
LINE
  5
12AB7
  8
2-0
  6
CONTINUOUS
 62
     6
 10
20217.135606484229
 20
19871.717487000009
 30
0.0
 11
20177.887691484219
 21
19835.603150000021
 31
0.0
  0
LINE
  5
12AB8
  8
2-0
  6
CONTINUOUS
 62
     6
 10
20595.868978484221
 20
15202.48115800001
 30
0.0
 11
20440.550011484211
 21
15249.22847900001
 31
0.0
  0
LINE
  5
12AB9
  8
2-0
  6
CONTINUOUS
 62
     6
 10
20440.550011484211
 20
15249.22847900001
 30
0.0
 11
20572.31072748424
 21
15154.63619400001
 31
0.0
  0
LINE
  5
12ABA
  8
2-0
  6
CONTINUOUS
 62
     6
 10
20595.868978484221
 20
15202.48115800001
 30
0.0
 11
20572.31072748424
 21
15154.63619400001
 31
0.0
  0
LINE
  5
12ABB
  8
2-0
  6
CONTINUOUS
 62
     6
 10
20572.31072748424
 20
15154.63619400001
 30
0.0
 11
20440.550011484211
 21
15249.22847900001
 31
0.0
  0
LINE
  5
12ABC
  8
2-0
  6
CONTINUOUS
 62
     6
 10
20440.550011484211
 20
15249.22847900001
 30
0.0
 11
20595.868978484221
 21
15202.48115800001
 31
0.0
  0
LINE
  5
12ABD
  8
2-0
  6
CONTINUOUS
 62
     6
 10
20595.868978484221
 20
15202.48115800001
 30
0.0
 11
20440.550011484211
 21
15249.22847900001
 31
0.0
  0
LINE
  5
12ABE
  8
2-0
  6
CONTINUOUS
 62
     6
 10
20572.31072748424
 20
15154.63619400001
 30
0.0
 11
20440.550011484211
 21
15249.22847900001
 31
0.0
  0
LINE
  5
12ABF
  8
2-0
  6
CONTINUOUS
 62
     6
 10
20572.31072748424
 20
15154.63619400001
 30
0.0
 11
20595.868978484221
 21
15202.48115800001
 31
0.0
  0
LINE
  5
12AC0
  8
2-0
  6
CONTINUOUS
 62
     6
 10
20626.183325484209
 20
13681.716218999991
 30
0.0
 11
20494.436466484221
 21
13776.343145999999
 31
0.0
  0
LINE
  5
12AC1
  8
2-0
  6
CONTINUOUS
 62
     6
 10
20494.436466484221
 20
13776.343145999999
 30
0.0
 11
20588.36660248422
 21
13644.10437599999
 31
0.0
  0
LINE
  5
12AC2
  8
2-0
  6
CONTINUOUS
 62
     6
 10
20626.183325484209
 20
13681.716218999991
 30
0.0
 11
20588.36660248422
 21
13644.10437599999
 31
0.0
  0
LINE
  5
12AC3
  8
2-0
  6
CONTINUOUS
 62
     6
 10
20588.36660248422
 20
13644.10437599999
 30
0.0
 11
20494.436466484221
 21
13776.343145999999
 31
0.0
  0
LINE
  5
12AC4
  8
2-0
  6
CONTINUOUS
 62
     6
 10
20494.436466484221
 20
13776.343145999999
 30
0.0
 11
20626.183325484209
 21
13681.716218999991
 31
0.0
  0
LINE
  5
12AC5
  8
2-0
  6
CONTINUOUS
 62
     6
 10
20626.183325484209
 20
13681.716218999991
 30
0.0
 11
20494.436466484221
 21
13776.343145999999
 31
0.0
  0
LINE
  5
12AC6
  8
2-0
  6
CONTINUOUS
 62
     6
 10
20588.36660248422
 20
13644.10437599999
 30
0.0
 11
20494.436466484221
 21
13776.343145999999
 31
0.0
  0
LINE
  5
12AC7
  8
2-0
  6
CONTINUOUS
 62
     6
 10
20588.36660248422
 20
13644.10437599999
 30
0.0
 11
20626.183325484209
 21
13681.716218999991
 31
0.0
  0
LINE
  5
12AC8
  8
2-0
  6
CONTINUOUS
 62
     6
 10
20563.147536484219
 20
14008.620845999991
 30
0.0
 11
20430.547504484221
 21
13915.192517999991
 31
0.0
  0
LINE
  5
12AC9
  8
2-0
  6
CONTINUOUS
 62
     6
 10
20430.547504484221
 20
13915.192517999991
 30
0.0
 11
20586.280190484209
 21
13960.568031999999
 31
0.0
  0
LINE
  5
12ACA
  8
2-0
  6
CONTINUOUS
 62
     6
 10
20563.147536484219
 20
14008.620845999991
 30
0.0
 11
20586.280190484209
 21
13960.568031999999
 31
0.0
  0
LINE
  5
12ACB
  8
2-0
  6
CONTINUOUS
 62
     6
 10
20586.280190484209
 20
13960.568031999999
 30
0.0
 11
20430.547504484221
 21
13915.192517999991
 31
0.0
  0
LINE
  5
12ACC
  8
2-0
  6
CONTINUOUS
 62
     6
 10
20430.547504484221
 20
13915.192517999991
 30
0.0
 11
20563.147536484219
 21
14008.620845999991
 31
0.0
  0
LINE
  5
12ACD
  8
2-0
  6
CONTINUOUS
 62
     6
 10
20563.147536484219
 20
14008.620845999991
 30
0.0
 11
20430.547504484221
 21
13915.192517999991
 31
0.0
  0
LINE
  5
12ACE
  8
2-0
  6
CONTINUOUS
 62
     6
 10
20586.280190484209
 20
13960.568031999999
 30
0.0
 11
20430.547504484221
 21
13915.192517999991
 31
0.0
  0
LINE
  5
12ACF
  8
2-0
  6
CONTINUOUS
 62
     6
 10
20586.280190484209
 20
13960.568031999999
 30
0.0
 11
20563.147536484219
 21
14008.620845999991
 31
0.0
  0
LINE
  5
12AD0
  8
2-0
  6
CONTINUOUS
 62
     6
 10
20503.38389048422
 20
16388.441779000019
 30
0.0
 11
20349.545604484221
 21
16439.875610000021
 31
0.0
  0
LINE
  5
12AD1
  8
2-0
  6
CONTINUOUS
 62
     6
 10
20349.545604484221
 20
16439.875610000021
 30
0.0
 11
20478.380591484241
 21
16341.33517500002
 31
0.0
  0
LINE
  5
12AD2
  8
2-0
  6
CONTINUOUS
 62
     6
 10
20503.38389048422
 20
16388.441779000019
 30
0.0
 11
20478.380591484241
 21
16341.33517500002
 31
0.0
  0
LINE
  5
12AD3
  8
2-0
  6
CONTINUOUS
 62
     6
 10
20478.380591484241
 20
16341.33517500002
 30
0.0
 11
20349.545604484221
 21
16439.875610000021
 31
0.0
  0
LINE
  5
12AD4
  8
2-0
  6
CONTINUOUS
 62
     6
 10
20349.545604484221
 20
16439.875610000021
 30
0.0
 11
20503.38389048422
 21
16388.441779000019
 31
0.0
  0
LINE
  5
12AD5
  8
2-0
  6
CONTINUOUS
 62
     6
 10
20503.38389048422
 20
16388.441779000019
 30
0.0
 11
20349.545604484221
 21
16439.875610000021
 31
0.0
  0
LINE
  5
12AD6
  8
2-0
  6
CONTINUOUS
 62
     6
 10
20478.380591484241
 20
16341.33517500002
 30
0.0
 11
20349.545604484221
 21
16439.875610000021
 31
0.0
  0
LINE
  5
12AD7
  8
2-0
  6
CONTINUOUS
 62
     6
 10
20478.380591484241
 20
16341.33517500002
 30
0.0
 11
20503.38389048422
 21
16388.441779000019
 31
0.0
  0
LINE
  5
12AD8
  8
2-0
  6
CONTINUOUS
 62
     6
 10
20637.320097484211
 20
16879.76027100001
 30
0.0
 11
20494.436466484221
 21
16802.984641999999
 31
0.0
  0
LINE
  5
12AD9
  8
2-0
  6
CONTINUOUS
 62
     6
 10
20494.436466484221
 20
16802.984641999999
 30
0.0
 11
20654.498359484209
 21
16829.266711000011
 31
0.0
  0
LINE
  5
12ADA
  8
2-0
  6
CONTINUOUS
 62
     6
 10
20637.320097484211
 20
16879.76027100001
 30
0.0
 11
20654.498359484209
 21
16829.266711000011
 31
0.0
  0
LINE
  5
12ADB
  8
2-0
  6
CONTINUOUS
 62
     6
 10
20654.498359484209
 20
16829.266711000011
 30
0.0
 11
20494.436466484221
 21
16802.984641999999
 31
0.0
  0
LINE
  5
12ADC
  8
2-0
  6
CONTINUOUS
 62
     6
 10
20494.436466484221
 20
16802.984641999999
 30
0.0
 11
20637.320097484211
 21
16879.76027100001
 31
0.0
  0
LINE
  5
12ADD
  8
2-0
  6
CONTINUOUS
 62
     6
 10
20637.320097484211
 20
16879.76027100001
 30
0.0
 11
20494.436466484221
 21
16802.984641999999
 31
0.0
  0
LINE
  5
12ADE
  8
2-0
  6
CONTINUOUS
 62
     6
 10
20654.498359484209
 20
16829.266711000011
 30
0.0
 11
20494.436466484221
 21
16802.984641999999
 31
0.0
  0
LINE
  5
12ADF
  8
2-0
  6
CONTINUOUS
 62
     6
 10
20654.498359484209
 20
16829.266711000011
 30
0.0
 11
20637.320097484211
 21
16879.76027100001
 31
0.0
  0
LINE
  5
12AE0
  8
2-0
  6
CONTINUOUS
 62
     6
 10
20595.868978484221
 20
18120.240645999991
 30
0.0
 11
20440.550011484211
 21
18166.984997999989
 31
0.0
  0
LINE
  5
12AE1
  8
2-0
  6
CONTINUOUS
 62
     6
 10
20440.550011484211
 20
18166.984997999989
 30
0.0
 11
20572.31072748424
 21
18072.389744
 31
0.0
  0
LINE
  5
12AE2
  8
2-0
  6
CONTINUOUS
 62
     6
 10
20595.868978484221
 20
18120.240645999991
 30
0.0
 11
20572.31072748424
 21
18072.389744
 31
0.0
  0
LINE
  5
12AE3
  8
2-0
  6
CONTINUOUS
 62
     6
 10
20572.31072748424
 20
18072.389744
 30
0.0
 11
20440.550011484211
 21
18166.984997999989
 31
0.0
  0
LINE
  5
12AE4
  8
2-0
  6
CONTINUOUS
 62
     6
 10
20440.550011484211
 20
18166.984997999989
 30
0.0
 11
20595.868978484221
 21
18120.240645999991
 31
0.0
  0
LINE
  5
12AE5
  8
2-0
  6
CONTINUOUS
 62
     6
 10
20595.868978484221
 20
18120.240645999991
 30
0.0
 11
20440.550011484211
 21
18166.984997999989
 31
0.0
  0
LINE
  5
12AE6
  8
2-0
  6
CONTINUOUS
 62
     6
 10
20572.31072748424
 20
18072.389744
 30
0.0
 11
20440.550011484211
 21
18166.984997999989
 31
0.0
  0
LINE
  5
12AE7
  8
2-0
  6
CONTINUOUS
 62
     6
 10
20572.31072748424
 20
18072.389744
 30
0.0
 11
20595.868978484221
 21
18120.240645999991
 31
0.0
  0
LINE
  5
12AE8
  8
2-0
  6
CONTINUOUS
 62
     3
 10
20379.545208484189
 20
19601.984326000009
 30
0.0
 11
20379.545208484189
 21
19595.988364000012
 31
0.0
  0
LINE
  5
12AE9
  8
2-0
  6
CONTINUOUS
 62
     3
 10
20379.545208484189
 20
19595.988364000012
 30
0.0
 11
20349.5475834842
 21
19595.988364000012
 31
0.0
  0
LINE
  5
12AEA
  8
2-0
  6
CONTINUOUS
 62
     3
 10
20349.5475834842
 20
19595.988364000012
 30
0.0
 11
20349.5475834842
 21
19710.984537000011
 31
0.0
  0
LINE
  5
12AEB
  8
2-0
  6
CONTINUOUS
 62
     3
 10
20349.5475834842
 20
19625.987968000001
 30
0.0
 11
20430.545524484209
 21
19625.987968000001
 31
0.0
  0
LINE
  5
12AEC
  8
2-0
  6
CONTINUOUS
 62
     3
 10
20379.545208484189
 20
19585.690908
 30
0.0
 11
20349.5475834842
 21
19585.690908
 31
0.0
  0
LINE
  5
12AED
  8
2-0
  6
CONTINUOUS
 62
     3
 10
20379.545208484189
 20
19603.692650000001
 30
0.0
 11
20379.545208484189
 21
19585.690908
 31
0.0
  0
LINE
  5
12AEE
  8
2-0
  6
CONTINUOUS
 62
     3
 10
20354.5518064842
 20
19603.692650000001
 30
0.0
 11
20379.545208484189
 21
19603.692650000001
 31
0.0
  0
LINE
  5
12AEF
  8
2-0
  6
CONTINUOUS
 62
     3
 10
20354.5518064842
 20
19598.68446800001
 30
0.0
 11
20354.5518064842
 21
19603.692650000001
 31
0.0
  0
LINE
  5
12AF0
  8
2-0
  6
CONTINUOUS
 62
     3
 10
20361.54940448418
 20
19598.68446800001
 30
0.0
 11
20354.5518064842
 21
19598.68446800001
 31
0.0
  0
LINE
  5
12AF1
  8
2-0
  6
CONTINUOUS
 62
     3
 10
20461.843693484199
 20
19698.984695000021
 30
0.0
 11
20461.843693484199
 21
19705.990211000011
 31
0.0
  0
LINE
  5
12AF2
  8
2-0
  6
CONTINUOUS
 62
     3
 10
20461.843693484199
 20
19705.990211000011
 30
0.0
 11
20456.841449484189
 21
19705.990211000011
 31
0.0
  0
LINE
  5
12AF3
  8
2-0
  6
CONTINUOUS
 62
     3
 10
20456.841449484189
 20
19705.990211000011
 30
0.0
 11
20456.841449484189
 21
19680.980973999998
 31
0.0
  0
LINE
  5
12AF4
  8
2-0
  6
CONTINUOUS
 62
     3
 10
20456.841449484189
 20
19680.980973999998
 30
0.0
 11
20474.849130484188
 21
19680.980973999998
 31
0.0
  0
LINE
  5
12AF5
  8
2-0
  6
CONTINUOUS
 62
     3
 10
20474.849130484188
 20
19680.980973999998
 30
0.0
 11
20474.849130484188
 21
19710.984537000011
 31
0.0
  0
LINE
  5
12AF6
  8
2-0
  6
CONTINUOUS
 62
     3
 10
20464.549694484191
 20
19710.984537000011
 30
0.0
 11
20349.5475834842
 21
19710.984537000011
 31
0.0
  0
LINE
  5
12AF7
  8
2-0
  6
CONTINUOUS
 62
     3
 10
20464.549694484191
 20
19680.980973999998
 30
0.0
 11
20464.549694484191
 21
19710.984537000011
 31
0.0
  0
LINE
  5
12AF8
  8
2-0
  6
CONTINUOUS
 62
     3
 10
20458.545815484202
 20
19680.980973999998
 30
0.0
 11
20464.549694484191
 21
19680.980973999998
 31
0.0
  0
LINE
  5
12AF9
  8
2-0
  6
CONTINUOUS
 62
     3
 10
20379.545208484189
 20
19601.984326000009
 30
0.0
 11
20379.545208484189
 21
19595.988364000012
 31
0.0
  0
LINE
  5
12AFA
  8
2-0
  6
CONTINUOUS
 62
     3
 10
20379.545208484189
 20
19595.988364000012
 30
0.0
 11
20349.5475834842
 21
19595.988364000012
 31
0.0
  0
LINE
  5
12AFB
  8
2-0
  6
CONTINUOUS
 62
     3
 10
20349.5475834842
 20
19595.988364000012
 30
0.0
 11
20349.5475834842
 21
19710.984537000011
 31
0.0
  0
LINE
  5
12AFC
  8
2-0
  6
CONTINUOUS
 62
     3
 10
20349.5475834842
 20
19625.987968000001
 30
0.0
 11
20430.545524484209
 21
19625.987968000001
 31
0.0
  0
LINE
  5
12AFD
  8
2-0
  6
CONTINUOUS
 62
     3
 10
20379.545208484189
 20
19585.690908
 30
0.0
 11
20349.5475834842
 21
19585.690908
 31
0.0
  0
LINE
  5
12AFE
  8
2-0
  6
CONTINUOUS
 62
     3
 10
20379.545208484189
 20
19603.692650000001
 30
0.0
 11
20379.545208484189
 21
19585.690908
 31
0.0
  0
LINE
  5
12AFF
  8
2-0
  6
CONTINUOUS
 62
     3
 10
20354.5518064842
 20
19603.692650000001
 30
0.0
 11
20379.545208484189
 21
19603.692650000001
 31
0.0
  0
LINE
  5
12B00
  8
2-0
  6
CONTINUOUS
 62
     3
 10
20354.5518064842
 20
19598.68446800001
 30
0.0
 11
20354.5518064842
 21
19603.692650000001
 31
0.0
  0
LINE
  5
12B01
  8
2-0
  6
CONTINUOUS
 62
     3
 10
20361.54940448418
 20
19598.68446800001
 30
0.0
 11
20354.5518064842
 21
19598.68446800001
 31
0.0
  0
LINE
  5
12B02
  8
2-0
  6
CONTINUOUS
 62
     3
 10
20361.54940448418
 20
18894.887645499992
 30
0.0
 11
20354.5518064842
 21
18894.887645499992
 31
0.0
  0
LINE
  5
12B03
  8
2-0
  6
CONTINUOUS
 62
     3
 10
20354.5518064842
 20
18894.887645499992
 30
0.0
 11
20354.5518064842
 21
18899.887909500001
 31
0.0
  0
LINE
  5
12B04
  8
2-0
  6
CONTINUOUS
 62
     3
 10
20354.5518064842
 20
18899.887909500001
 30
0.0
 11
20379.545208484189
 21
18899.887909500001
 31
0.0
  0
LINE
  5
12B05
  8
2-0
  6
CONTINUOUS
 62
     3
 10
20379.545208484189
 20
18899.887909500001
 30
0.0
 11
20379.545208484189
 21
18881.892105499981
 31
0.0
  0
LINE
  5
12B06
  8
2-0
  6
CONTINUOUS
 62
     3
 10
20379.545208484189
 20
18881.892105499981
 30
0.0
 11
20349.5475834842
 21
18881.892105499981
 31
0.0
  0
LINE
  5
12B07
  8
2-0
  6
CONTINUOUS
 62
     3
 10
20379.545208484189
 20
18897.98361249996
 30
0.0
 11
20379.545208484189
 21
18891.985671499991
 31
0.0
  0
LINE
  5
12B08
  8
2-0
  6
CONTINUOUS
 62
     3
 10
20379.545208484189
 20
18891.985671499991
 30
0.0
 11
20349.5475834842
 21
18891.985671499991
 31
0.0
  0
LINE
  5
12B09
  8
2-0
  6
CONTINUOUS
 62
     3
 10
20349.5475834842
 20
18891.985671499991
 30
0.0
 11
20349.5475834842
 21
18928.986832499992
 31
0.0
  0
LINE
  5
12B0A
  8
2-0
  6
CONTINUOUS
 62
     3
 10
20379.545208484189
 20
18928.986832499992
 30
0.0
 11
20349.5475834842
 21
18928.986832499992
 31
0.0
  0
LINE
  5
12B0B
  8
2-0
  6
CONTINUOUS
 62
     3
 10
20379.545208484189
 20
18922.982952499991
 30
0.0
 11
20379.545208484189
 21
18928.986832499992
 31
0.0
  0
LINE
  5
12B0C
  8
2-0
  6
CONTINUOUS
 62
     3
 10
20379.545208484189
 20
18939.082377499981
 30
0.0
 11
20349.5475834842
 21
18939.082377499981
 31
0.0
  0
LINE
  5
12B0D
  8
2-0
  6
CONTINUOUS
 62
     3
 10
20379.545208484189
 20
18921.080635499999
 30
0.0
 11
20379.545208484189
 21
18939.082377499981
 31
0.0
  0
LINE
  5
12B0E
  8
2-0
  6
CONTINUOUS
 62
     3
 10
20354.5518064842
 20
18921.080635499999
 30
0.0
 11
20379.545208484189
 21
18921.080635499999
 31
0.0
  0
LINE
  5
12B0F
  8
2-0
  6
CONTINUOUS
 62
     3
 10
20354.5518064842
 20
18926.080899499979
 30
0.0
 11
20354.5518064842
 21
18921.080635499999
 31
0.0
  0
LINE
  5
12B10
  8
2-0
  6
CONTINUOUS
 62
     3
 10
20361.54940448418
 20
18926.080899499979
 30
0.0
 11
20354.5518064842
 21
18926.080899499979
 31
0.0
  0
LINE
  5
12B11
  8
2-0
  6
CONTINUOUS
 62
     3
 10
20361.54940448418
 20
18193.886655999999
 30
0.0
 11
20354.5518064842
 21
18193.886655999999
 31
0.0
  0
LINE
  5
12B12
  8
2-0
  6
CONTINUOUS
 62
     3
 10
20354.5518064842
 20
18193.886655999999
 30
0.0
 11
20354.5518064842
 21
18198.892857999999
 31
0.0
  0
LINE
  5
12B13
  8
2-0
  6
CONTINUOUS
 62
     3
 10
20354.5518064842
 20
18198.892857999999
 30
0.0
 11
20379.545208484189
 21
18198.892857999999
 31
0.0
  0
LINE
  5
12B14
  8
2-0
  6
CONTINUOUS
 62
     3
 10
20379.545208484189
 20
18198.892857999999
 30
0.0
 11
20379.545208484189
 21
18180.891115999992
 31
0.0
  0
LINE
  5
12B15
  8
2-0
  6
CONTINUOUS
 62
     3
 10
20379.545208484189
 20
18180.891115999992
 30
0.0
 11
20349.5475834842
 21
18180.891115999992
 31
0.0
  0
LINE
  5
12B16
  8
2-0
  6
CONTINUOUS
 62
     3
 10
20379.545208484189
 20
18196.982622999982
 30
0.0
 11
20379.545208484189
 21
18190.986660999999
 31
0.0
  0
LINE
  5
12B17
  8
2-0
  6
CONTINUOUS
 62
     3
 10
20379.545208484189
 20
18190.986660999999
 30
0.0
 11
20349.5475834842
 21
18190.986660999999
 31
0.0
  0
LINE
  5
12B18
  8
2-0
  6
CONTINUOUS
 62
     3
 10
20349.5475834842
 20
18190.986660999999
 30
0.0
 11
20349.5475834842
 21
18227.985842999991
 31
0.0
  0
LINE
  5
12B19
  8
2-0
  6
CONTINUOUS
 62
     3
 10
20379.545208484189
 20
18227.985842999991
 30
0.0
 11
20349.5475834842
 21
18227.985842999991
 31
0.0
  0
LINE
  5
12B1A
  8
2-0
  6
CONTINUOUS
 62
     3
 10
20379.545208484189
 20
18221.989881000001
 30
0.0
 11
20379.545208484189
 21
18227.985842999991
 31
0.0
  0
LINE
  5
12B1B
  8
2-0
  6
CONTINUOUS
 62
     3
 10
20379.545208484189
 20
18238.081387999999
 30
0.0
 11
20349.5475834842
 21
18238.081387999999
 31
0.0
  0
LINE
  5
12B1C
  8
2-0
  6
CONTINUOUS
 62
     3
 10
20379.545208484189
 20
18220.079645999991
 30
0.0
 11
20379.545208484189
 21
18238.081387999999
 31
0.0
  0
LINE
  5
12B1D
  8
2-0
  6
CONTINUOUS
 62
     3
 10
20354.5518064842
 20
18220.079645999991
 30
0.0
 11
20379.545208484189
 21
18220.079645999991
 31
0.0
  0
LINE
  5
12B1E
  8
2-0
  6
CONTINUOUS
 62
     3
 10
20354.5518064842
 20
18225.085847999992
 30
0.0
 11
20354.5518064842
 21
18220.079645999991
 31
0.0
  0
LINE
  5
12B1F
  8
2-0
  6
CONTINUOUS
 62
     3
 10
20361.54940448418
 20
18225.085847999992
 30
0.0
 11
20354.5518064842
 21
18225.085847999992
 31
0.0
  0
LINE
  5
12B20
  8
2-0
  6
CONTINUOUS
 62
     3
 10
20361.54940448418
 20
17524.079909999989
 30
0.0
 11
20354.5518064842
 21
17524.079909999989
 31
0.0
  0
LINE
  5
12B21
  8
2-0
  6
CONTINUOUS
 62
     3
 10
20354.5518064842
 20
17524.079909999989
 30
0.0
 11
20354.5518064842
 21
17519.091522999999
 31
0.0
  0
LINE
  5
12B22
  8
2-0
  6
CONTINUOUS
 62
     3
 10
20354.5518064842
 20
17519.091522999999
 30
0.0
 11
20379.545208484189
 21
17519.091522999999
 31
0.0
  0
LINE
  5
12B23
  8
2-0
  6
CONTINUOUS
 62
     3
 10
20379.545208484189
 20
17519.091522999999
 30
0.0
 11
20379.545208484189
 21
17537.08732599999
 31
0.0
  0
LINE
  5
12B24
  8
2-0
  6
CONTINUOUS
 62
     3
 10
20379.545208484189
 20
17537.08732599999
 30
0.0
 11
20349.5475834842
 21
17537.08732599999
 31
0.0
  0
LINE
  5
12B25
  8
2-0
  6
CONTINUOUS
 62
     3
 10
20379.545208484189
 20
17520.989881000001
 30
0.0
 11
20379.545208484189
 21
17526.985842999991
 31
0.0
  0
LINE
  5
12B26
  8
2-0
  6
CONTINUOUS
 62
     3
 10
20379.545208484189
 20
17526.985842999991
 30
0.0
 11
20349.5475834842
 21
17526.985842999991
 31
0.0
  0
LINE
  5
12B27
  8
2-0
  6
CONTINUOUS
 62
     3
 10
20349.5475834842
 20
17526.985842999991
 30
0.0
 11
20349.5475834842
 21
17489.986660999992
 31
0.0
  0
LINE
  5
12B28
  8
2-0
  6
CONTINUOUS
 62
     3
 10
20379.545208484189
 20
17489.986660999992
 30
0.0
 11
20349.5475834842
 21
17489.986660999992
 31
0.0
  0
LINE
  5
12B29
  8
2-0
  6
CONTINUOUS
 62
     3
 10
20379.545208484189
 20
17495.988561999991
 30
0.0
 11
20379.545208484189
 21
17489.986660999992
 31
0.0
  0
LINE
  5
12B2A
  8
2-0
  6
CONTINUOUS
 62
     3
 10
20379.545208484189
 20
17479.897055000001
 30
0.0
 11
20349.5475834842
 21
17479.897055000001
 31
0.0
  0
LINE
  5
12B2B
  8
2-0
  6
CONTINUOUS
 62
     3
 10
20379.545208484189
 20
17497.892857999981
 30
0.0
 11
20379.545208484189
 21
17479.897055000001
 31
0.0
  0
LINE
  5
12B2C
  8
2-0
  6
CONTINUOUS
 62
     3
 10
20354.5518064842
 20
17497.892857999981
 30
0.0
 11
20379.545208484189
 21
17497.892857999981
 31
0.0
  0
LINE
  5
12B2D
  8
2-0
  6
CONTINUOUS
 62
     3
 10
20354.5518064842
 20
17492.892595000001
 30
0.0
 11
20354.5518064842
 21
17497.892857999981
 31
0.0
  0
LINE
  5
12B2E
  8
2-0
  6
CONTINUOUS
 62
     3
 10
20361.54940448418
 20
17492.892595000001
 30
0.0
 11
20354.5518064842
 21
17492.892595000001
 31
0.0
  0
LINE
  5
12B2F
  8
2-0
  6
CONTINUOUS
 62
     3
 10
20352.433721484202
 20
16772.983480999999
 30
0.0
 11
20352.433721484202
 21
16792.984536
 31
0.0
  0
LINE
  5
12B30
  8
2-0
  6
CONTINUOUS
 62
     3
 10
20352.433721484202
 20
16792.984536
 30
0.0
 11
20437.434249484199
 21
16792.984536
 31
0.0
  0
LINE
  5
12B31
  8
2-0
  6
CONTINUOUS
 62
     3
 10
20361.54940448418
 20
16819.591246
 30
0.0
 11
20354.5518064842
 21
16819.591246
 31
0.0
  0
LINE
  5
12B32
  8
2-0
  6
CONTINUOUS
 62
     3
 10
20354.5518064842
 20
16819.591246
 30
0.0
 11
20354.5518064842
 21
16814.596920000011
 31
0.0
  0
LINE
  5
12B33
  8
2-0
  6
CONTINUOUS
 62
     3
 10
20354.5518064842
 20
16814.596920000011
 30
0.0
 11
20379.545208484189
 21
16814.596920000011
 31
0.0
  0
LINE
  5
12B34
  8
2-0
  6
CONTINUOUS
 62
     3
 10
20379.545208484189
 20
16814.596920000011
 30
0.0
 11
20379.545208484189
 21
16832.592723999991
 31
0.0
  0
LINE
  5
12B35
  8
2-0
  6
CONTINUOUS
 62
     3
 10
20379.545208484189
 20
16832.592723999991
 30
0.0
 11
20349.5475834842
 21
16832.592723999991
 31
0.0
  0
LINE
  5
12B36
  8
2-0
  6
CONTINUOUS
 62
     3
 10
20379.545208484189
 20
16822.98413999999
 30
0.0
 11
20379.545208484189
 21
16816.982240000001
 31
0.0
  0
LINE
  5
12B37
  8
2-0
  6
CONTINUOUS
 62
     3
 10
20349.5475834842
 20
16822.98413999999
 30
0.0
 11
20379.545208484189
 21
16822.98413999999
 31
0.0
  0
LINE
  5
12B38
  8
2-0
  6
CONTINUOUS
 62
     3
 10
20349.5475834842
 20
16832.592723999991
 30
0.0
 11
20349.5475834842
 21
17479.897055000001
 31
0.0
  0
LINE
  5
12B39
  8
2-0
  6
CONTINUOUS
 62
     3
 10
20349.5475834842
 20
17537.08732599999
 30
0.0
 11
20349.5475834842
 21
18180.891115999992
 31
0.0
  0
LINE
  5
12B3A
  8
2-0
  6
CONTINUOUS
 62
     3
 10
20349.5475834842
 20
16677.982424999991
 30
0.0
 11
20379.545208484189
 21
16677.982424999991
 31
0.0
  0
LINE
  5
12B3B
  8
2-0
  6
CONTINUOUS
 62
     3
 10
20379.545208484189
 20
16677.982424999991
 30
0.0
 11
20379.545208484189
 21
16683.984325000001
 31
0.0
  0
LINE
  5
12B3C
  8
2-0
  6
CONTINUOUS
 62
     3
 10
20437.434249484199
 20
16707.987968000001
 30
0.0
 11
20352.433721484202
 21
16707.987968000001
 31
0.0
  0
LINE
  5
12B3D
  8
2-0
  6
CONTINUOUS
 62
     3
 10
20352.433721484202
 20
16707.987968000001
 30
0.0
 11
20352.433721484202
 21
16727.983085000011
 31
0.0
  0
LINE
  5
12B3E
  8
2-0
  6
CONTINUOUS
 62
     3
 10
20379.545208484189
 20
16668.373842000012
 30
0.0
 11
20349.5475834842
 21
16668.373842000012
 31
0.0
  0
LINE
  5
12B3F
  8
2-0
  6
CONTINUOUS
 62
     3
 10
20379.545208484189
 20
16686.369644999992
 30
0.0
 11
20379.545208484189
 21
16668.373842000012
 31
0.0
  0
LINE
  5
12B40
  8
2-0
  6
CONTINUOUS
 62
     3
 10
20354.5518064842
 20
16686.369644999992
 30
0.0
 11
20379.545208484189
 21
16686.369644999992
 31
0.0
  0
LINE
  5
12B41
  8
2-0
  6
CONTINUOUS
 62
     3
 10
20354.5518064842
 20
16681.369381000011
 30
0.0
 11
20354.5518064842
 21
16686.369644999992
 31
0.0
  0
LINE
  5
12B42
  8
2-0
  6
CONTINUOUS
 62
     3
 10
20361.54940448418
 20
16681.369381000011
 30
0.0
 11
20354.5518064842
 21
16681.369381000011
 31
0.0
  0
LINE
  5
12B43
  8
2-0
  6
CONTINUOUS
 62
     3
 10
20361.54940448418
 20
15976.887150499981
 30
0.0
 11
20354.5518064842
 21
15976.887150499981
 31
0.0
  0
LINE
  5
12B44
  8
2-0
  6
CONTINUOUS
 62
     3
 10
20354.5518064842
 20
15976.887150499981
 30
0.0
 11
20354.5518064842
 21
15981.88741449999
 31
0.0
  0
LINE
  5
12B45
  8
2-0
  6
CONTINUOUS
 62
     3
 10
20354.5518064842
 20
15981.88741449999
 30
0.0
 11
20379.545208484189
 21
15981.88741449999
 31
0.0
  0
LINE
  5
12B46
  8
2-0
  6
CONTINUOUS
 62
     3
 10
20379.545208484189
 20
15981.88741449999
 30
0.0
 11
20379.545208484189
 21
15963.88567249999
 31
0.0
  0
LINE
  5
12B47
  8
2-0
  6
CONTINUOUS
 62
     3
 10
20379.545208484189
 20
15963.88567249999
 30
0.0
 11
20349.5475834842
 21
15963.88567249999
 31
0.0
  0
LINE
  5
12B48
  8
2-0
  6
CONTINUOUS
 62
     3
 10
20379.545208484189
 20
15979.9831175
 30
0.0
 11
20379.545208484189
 21
15973.986166500001
 31
0.0
  0
LINE
  5
12B49
  8
2-0
  6
CONTINUOUS
 62
     3
 10
20379.545208484189
 20
15973.986166500001
 30
0.0
 11
20349.5475834842
 21
15973.986166500001
 31
0.0
  0
LINE
  5
12B4A
  8
2-0
  6
CONTINUOUS
 62
     3
 10
20349.5475834842
 20
15973.986166500001
 30
0.0
 11
20349.5475834842
 21
16010.9863375
 31
0.0
  0
LINE
  5
12B4B
  8
2-0
  6
CONTINUOUS
 62
     3
 10
20379.545208484189
 20
16010.9863375
 30
0.0
 11
20349.5475834842
 21
16010.9863375
 31
0.0
  0
LINE
  5
12B4C
  8
2-0
  6
CONTINUOUS
 62
     3
 10
20379.545208484189
 20
16004.983447500001
 30
0.0
 11
20379.545208484189
 21
16010.9863375
 31
0.0
  0
LINE
  5
12B4D
  8
2-0
  6
CONTINUOUS
 62
     3
 10
20379.545208484189
 20
16021.08188249999
 30
0.0
 11
20349.5475834842
 21
16021.08188249999
 31
0.0
  0
LINE
  5
12B4E
  8
2-0
  6
CONTINUOUS
 62
     3
 10
20379.545208484189
 20
16003.074201499991
 30
0.0
 11
20379.545208484189
 21
16021.08188249999
 31
0.0
  0
LINE
  5
12B4F
  8
2-0
  6
CONTINUOUS
 62
     3
 10
20354.5518064842
 20
16003.074201499991
 30
0.0
 11
20379.545208484189
 21
16003.074201499991
 31
0.0
  0
LINE
  5
12B50
  8
2-0
  6
CONTINUOUS
 62
     3
 10
20354.5518064842
 20
16008.0804045
 30
0.0
 11
20354.5518064842
 21
16003.074201499991
 31
0.0
  0
LINE
  5
12B51
  8
2-0
  6
CONTINUOUS
 62
     3
 10
20361.54940448418
 20
16008.0804045
 30
0.0
 11
20354.5518064842
 21
16008.0804045
 31
0.0
  0
LINE
  5
12B52
  8
2-0
  6
CONTINUOUS
 62
     3
 10
20361.54940448418
 20
15307.320421
 30
0.0
 11
20354.5518064842
 21
15307.320421
 31
0.0
  0
LINE
  5
12B53
  8
2-0
  6
CONTINUOUS
 62
     3
 10
20354.5518064842
 20
15307.320421
 30
0.0
 11
20354.5518064842
 21
15302.326096000001
 31
0.0
  0
LINE
  5
12B54
  8
2-0
  6
CONTINUOUS
 62
     3
 10
20354.5518064842
 20
15302.326096000001
 30
0.0
 11
20379.545208484189
 21
15302.326096000001
 31
0.0
  0
LINE
  5
12B55
  8
2-0
  6
CONTINUOUS
 62
     3
 10
20379.545208484189
 20
15302.326096000001
 30
0.0
 11
20379.545208484189
 21
15320.32189900001
 31
0.0
  0
LINE
  5
12B56
  8
2-0
  6
CONTINUOUS
 62
     3
 10
20379.545208484189
 20
15320.32189900001
 30
0.0
 11
20349.5475834842
 21
15320.32189900001
 31
0.0
  0
LINE
  5
12B57
  8
2-0
  6
CONTINUOUS
 62
     3
 10
20379.545208484189
 20
15304.22445399999
 30
0.0
 11
20379.545208484189
 21
15310.226354
 31
0.0
  0
LINE
  5
12B58
  8
2-0
  6
CONTINUOUS
 62
     3
 10
20379.545208484189
 20
15310.226354
 30
0.0
 11
20349.5475834842
 21
15310.226354
 31
0.0
  0
LINE
  5
12B59
  8
2-0
  6
CONTINUOUS
 62
     3
 10
20349.5475834842
 20
15273.22717300001
 30
0.0
 11
20349.5475834842
 21
15310.226354
 31
0.0
  0
LINE
  5
12B5A
  8
2-0
  6
CONTINUOUS
 62
     3
 10
20379.545208484189
 20
15273.22717300001
 30
0.0
 11
20349.5475834842
 21
15273.22717300001
 31
0.0
  0
LINE
  5
12B5B
  8
2-0
  6
CONTINUOUS
 62
     3
 10
20379.545208484189
 20
15279.224124
 30
0.0
 11
20379.545208484189
 21
15273.22717300001
 31
0.0
  0
LINE
  5
12B5C
  8
2-0
  6
CONTINUOUS
 62
     3
 10
20379.545208484189
 20
15263.12568899999
 30
0.0
 11
20349.5475834842
 21
15263.12568899999
 31
0.0
  0
LINE
  5
12B5D
  8
2-0
  6
CONTINUOUS
 62
     3
 10
20379.545208484189
 20
15281.13336999999
 30
0.0
 11
20379.545208484189
 21
15263.12568899999
 31
0.0
  0
LINE
  5
12B5E
  8
2-0
  6
CONTINUOUS
 62
     3
 10
20354.5518064842
 20
15281.13336999999
 30
0.0
 11
20379.545208484189
 21
15281.13336999999
 31
0.0
  0
LINE
  5
12B5F
  8
2-0
  6
CONTINUOUS
 62
     3
 10
20354.5518064842
 20
15276.133106000019
 30
0.0
 11
20354.5518064842
 21
15281.13336999999
 31
0.0
  0
LINE
  5
12B60
  8
2-0
  6
CONTINUOUS
 62
     3
 10
20361.54940448418
 20
15276.133106000019
 30
0.0
 11
20354.5518064842
 21
15276.133106000019
 31
0.0
  0
LINE
  5
12B61
  8
2-0
  6
CONTINUOUS
 62
     3
 10
20349.5475834842
 20
16668.373842000012
 30
0.0
 11
20349.5475834842
 21
16021.08188249999
 31
0.0
  0
LINE
  5
12B62
  8
2-0
  6
CONTINUOUS
 62
     3
 10
20349.5475834842
 20
16822.98413999999
 30
0.0
 11
20349.5475834842
 21
16677.982424999991
 31
0.0
  0
LINE
  5
12B63
  8
2-0
  6
CONTINUOUS
 62
     3
 10
20437.434249484199
 20
16792.984536
 30
0.0
 11
20437.434249484199
 21
16707.987968000001
 31
0.0
  0
LINE
  5
12B64
  8
2-0
  6
CONTINUOUS
 62
     3
 10
20361.54940448418
 20
14574.892099000001
 30
0.0
 11
20354.5518064842
 21
14574.892099000001
 31
0.0
  0
LINE
  5
12B65
  8
2-0
  6
CONTINUOUS
 62
     3
 10
20354.5518064842
 20
14574.892099000001
 30
0.0
 11
20354.5518064842
 21
14579.88642500001
 31
0.0
  0
LINE
  5
12B66
  8
2-0
  6
CONTINUOUS
 62
     3
 10
20354.5518064842
 20
14579.88642500001
 30
0.0
 11
20379.545208484189
 21
14579.88642500001
 31
0.0
  0
LINE
  5
12B67
  8
2-0
  6
CONTINUOUS
 62
     3
 10
20379.545208484189
 20
14579.88642500001
 30
0.0
 11
20379.545208484189
 21
14561.890621
 31
0.0
  0
LINE
  5
12B68
  8
2-0
  6
CONTINUOUS
 62
     3
 10
20379.545208484189
 20
14561.890621
 30
0.0
 11
20349.5475834842
 21
14561.890621
 31
0.0
  0
LINE
  5
12B69
  8
2-0
  6
CONTINUOUS
 62
     3
 10
20379.545208484189
 20
14577.989056
 30
0.0
 11
20379.545208484189
 21
14571.98616600001
 31
0.0
  0
LINE
  5
12B6A
  8
2-0
  6
CONTINUOUS
 62
     3
 10
20379.545208484189
 20
14571.98616600001
 30
0.0
 11
20349.5475834842
 21
14571.98616600001
 31
0.0
  0
LINE
  5
12B6B
  8
2-0
  6
CONTINUOUS
 62
     3
 10
20349.5475834842
 20
14571.98616600001
 30
0.0
 11
20349.5475834842
 21
14608.986337999981
 31
0.0
  0
LINE
  5
12B6C
  8
2-0
  6
CONTINUOUS
 62
     3
 10
20379.545208484189
 20
14608.986337999981
 30
0.0
 11
20349.5475834842
 21
14608.986337999981
 31
0.0
  0
LINE
  5
12B6D
  8
2-0
  6
CONTINUOUS
 62
     3
 10
20379.545208484189
 20
14602.989385999999
 30
0.0
 11
20379.545208484189
 21
14608.986337999981
 31
0.0
  0
LINE
  5
12B6E
  8
2-0
  6
CONTINUOUS
 62
     3
 10
20379.545208484189
 20
14619.086831000001
 30
0.0
 11
20349.5475834842
 21
14619.086831000001
 31
0.0
  0
LINE
  5
12B6F
  8
2-0
  6
CONTINUOUS
 62
     3
 10
20379.545208484189
 20
14601.08014
 30
0.0
 11
20379.545208484189
 21
14619.086831000001
 31
0.0
  0
LINE
  5
12B70
  8
2-0
  6
CONTINUOUS
 62
     3
 10
20354.5518064842
 20
14601.08014
 30
0.0
 11
20379.545208484189
 21
14601.08014
 31
0.0
  0
LINE
  5
12B71
  8
2-0
  6
CONTINUOUS
 62
     3
 10
20354.5518064842
 20
14606.085353
 30
0.0
 11
20354.5518064842
 21
14601.08014
 31
0.0
  0
LINE
  5
12B72
  8
2-0
  6
CONTINUOUS
 62
     3
 10
20361.54940448418
 20
14606.085353
 30
0.0
 11
20354.5518064842
 21
14606.085353
 31
0.0
  0
LINE
  5
12B73
  8
2-0
  6
CONTINUOUS
 62
     3
 10
20379.545208484189
 20
13898.988179
 30
0.0
 11
20379.545208484189
 21
13904.993047999989
 31
0.0
  0
LINE
  5
12B74
  8
2-0
  6
CONTINUOUS
 62
     3
 10
20379.545208484189
 20
13904.993047999989
 30
0.0
 11
20349.5475834842
 21
13904.993047999989
 31
0.0
  0
LINE
  5
12B75
  8
2-0
  6
CONTINUOUS
 62
     3
 10
20349.5475834842
 20
13904.993047999989
 30
0.0
 11
20349.5475834842
 21
13789.988957
 31
0.0
  0
LINE
  5
12B76
  8
2-0
  6
CONTINUOUS
 62
     3
 10
20349.5475834842
 20
13789.988957
 30
0.0
 11
20434.54613148421
 21
13789.988957
 31
0.0
  0
LINE
  5
12B77
  8
2-0
  6
CONTINUOUS
 62
     3
 10
20434.54613148421
 20
13789.988957
 30
0.0
 11
20434.54613148421
 21
13874.984536
 31
0.0
  0
LINE
  5
12B78
  8
2-0
  6
CONTINUOUS
 62
     3
 10
20434.54613148421
 20
13874.984536
 30
0.0
 11
20402.549193484188
 21
13874.984536
 31
0.0
  0
LINE
  5
12B79
  8
2-0
  6
CONTINUOUS
 62
     3
 10
20361.54940448418
 20
13902.022781
 30
0.0
 11
20354.5518064842
 21
13902.022781
 31
0.0
  0
LINE
  5
12B7A
  8
2-0
  6
CONTINUOUS
 62
     3
 10
20354.5518064842
 20
13902.022781
 30
0.0
 11
20354.5518064842
 21
13897.02548599998
 31
0.0
  0
LINE
  5
12B7B
  8
2-0
  6
CONTINUOUS
 62
     3
 10
20354.5518064842
 20
13897.02548599998
 30
0.0
 11
20379.545208484189
 21
13897.02548599998
 31
0.0
  0
LINE
  5
12B7C
  8
2-0
  6
CONTINUOUS
 62
     3
 10
20379.545208484189
 20
13897.02548599998
 30
0.0
 11
20379.545208484189
 21
13915.024258999991
 31
0.0
  0
LINE
  5
12B7D
  8
2-0
  6
CONTINUOUS
 62
     3
 10
20379.545208484189
 20
13915.024258999991
 30
0.0
 11
20349.5475834842
 21
13915.024258999991
 31
0.0
  0
LINE
  5
12B7E
  8
2-0
  6
CONTINUOUS
 62
     3
 10
20349.5475834842
 20
14619.086831000001
 30
0.0
 11
20349.5475834842
 21
15263.12568899999
 31
0.0
  0
LINE
  5
12B7F
  8
2-0
  6
CONTINUOUS
 62
     3
 10
20349.5475834842
 20
18238.081387999999
 30
0.0
 11
20349.5475834842
 21
18881.892105499981
 31
0.0
  0
LINE
  5
12B80
  8
2-0
  6
CONTINUOUS
 62
     3
 10
20440.550011484211
 20
18166.984997999982
 30
0.0
 11
20393.546342484191
 21
18166.984997999982
 31
0.0
  0
LINE
  5
12B81
  8
2-0
  6
CONTINUOUS
 62
     3
 10
20393.546342484191
 20
18251.985526
 30
0.0
 11
20440.550011484211
 21
18251.985526
 31
0.0
  0
LINE
  5
12B82
  8
2-0
  6
CONTINUOUS
 62
     3
 10
20393.546342484191
 20
18166.984997999982
 30
0.0
 11
20393.546342484191
 21
18191.988297
 31
0.0
  0
LINE
  5
12B83
  8
2-0
  6
CONTINUOUS
 62
     3
 10
20393.546342484191
 20
18226.984206000001
 30
0.0
 11
20393.546342484191
 21
18251.985526
 31
0.0
  0
LINE
  5
12B84
  8
2-0
  6
CONTINUOUS
 62
     3
 10
20440.550011484211
 20
18251.985526
 30
0.0
 11
20440.550011484211
 21
18166.984997999982
 31
0.0
  0
LINE
  5
12B85
  8
2-0
  6
CONTINUOUS
 62
     3
 10
20349.5475834842
 20
15963.88567249999
 30
0.0
 11
20349.5475834842
 21
15320.32189900001
 31
0.0
  0
LINE
  5
12B86
  8
2-0
  6
CONTINUOUS
 62
     3
 10
20440.550011484211
 20
15248.987967999999
 30
0.0
 11
20393.546342484191
 21
15248.987967999999
 31
0.0
  0
LINE
  5
12B87
  8
2-0
  6
CONTINUOUS
 62
     3
 10
20393.546342484191
 20
15333.984535999991
 30
0.0
 11
20440.550011484211
 21
15333.984535999991
 31
0.0
  0
LINE
  5
12B88
  8
2-0
  6
CONTINUOUS
 62
     3
 10
20393.546342484191
 20
15248.987967999999
 30
0.0
 11
20393.546342484191
 21
15273.983349
 31
0.0
  0
LINE
  5
12B89
  8
2-0
  6
CONTINUOUS
 62
     3
 10
20393.546342484191
 20
15308.98321700001
 30
0.0
 11
20393.546342484191
 21
15333.984535999991
 31
0.0
  0
LINE
  5
12B8A
  8
2-0
  6
CONTINUOUS
 62
     3
 10
20440.550011484211
 20
15333.984535999991
 30
0.0
 11
20440.550011484211
 21
15248.987967999999
 31
0.0
  0
LINE
  5
12B8B
  8
2-0
  6
CONTINUOUS
 62
     3
 10
23002.042172484202
 20
19595.988364000012
 30
0.0
 11
23002.042172484202
 21
19710.984537000011
 31
0.0
  0
LINE
  5
12B8C
  8
2-0
  6
CONTINUOUS
 62
     3
 10
20349.5475834842
 20
19625.987968000001
 30
0.0
 11
22921.040272484199
 21
19625.987968000001
 31
0.0
  0
LINE
  5
12B8D
  8
2-0
  6
CONTINUOUS
 62
     3
 10
20349.5475834842
 20
13915.024258999991
 30
0.0
 11
20349.5475834842
 21
14561.890621
 31
0.0
  0
LINE
  5
12B8E
  8
2-0
  6
CONTINUOUS
 62
     3
 10
23002.042172484202
 20
19585.690908
 30
0.0
 11
23002.042172484202
 21
18939.082377499992
 31
0.0
  0
LINE
  5
12B8F
  8
2-0
  6
CONTINUOUS
 62
     3
 10
20349.5475834842
 20
19585.690908
 30
0.0
 11
20349.5475834842
 21
18939.082377499981
 31
0.0
  0
LINE
  5
12B90
  8
2-0
  6
CONTINUOUS
 62
     3
 10
20430.545524484209
 20
13874.984536
 30
0.0
 11
20430.545524484209
 21
19710.984537000011
 31
0.0
  0
LINE
  5
12B91
  8
2-0
  6
CONTINUOUS
 62
     3
 10
22921.040272484199
 20
13874.984536
 30
0.0
 11
22921.040272484199
 21
19710.984537000011
 31
0.0
  0
TEXT
  5
12B92
  8
2-0
  6
CONTINUOUS
 62
     7
 10
21163.198581489982
 20
13272.49046700267
 30
0.0
 40
160.0
  1
前柱（右）
 50
359.99978700000003
 72
     4
 11
21579.198878891209
 21
13352.48892050078
 31
0.0
  0
TEXT
  5
12B93
  8
2-0
  6
CONTINUOUS
 62
     7
 10
21157.166029154021
 20
17951.607153074601
 30
0.0
 40
160.0
  1
補強柱 後
 50
0.0001580000002033
 72
     4
 11
21567.83247520951
 21
18031.608285537
 31
0.0
  0
TEXT
  5
12B94
  8
2-0
  6
CONTINUOUS
 62
     7
 10
21065.27012515434
 20
16200.97714927651
 30
0.0
 40
160.0
  1
壁パネル
 50
0.0001770000000167
 72
     4
 11
21427.936544680659
 21
16280.978269637881
 31
0.0
  0
TEXT
  5
12B95
  8
2-0
  6
CONTINUOUS
 62
     7
 10
21035.939695837311
 20
17038.173678652369
 30
0.0
 40
160.0
  1
中柱（左右）
 50
359.99964599999998
 72
     4
 11
21553.273523438009
 21
17118.170482324669
 31
0.0
  0
TEXT
  5
12B96
  8
2-0
  6
CONTINUOUS
 62
     7
 10
21049.270785209639
 20
14245.534972706109
 30
0.0
 40
160.0
  1
下枠
 50
359.99893700000001
 72
     4
 11
21219.93893607493
 21
14325.531806339281
 31
0.0
  0
TEXT
  5
12B97
  8
2-0
  6
CONTINUOUS
 62
     7
 10
21157.166029200529
 20
15033.840897968341
 30
0.0
 40
160.0
  1
補強柱 前
 50
0.0006300000000081
 72
     4
 11
21567.831816196431
 21
15113.845413479339
 31
0.0
  0
TEXT
  5
12B98
  8
2-0
  6
CONTINUOUS
 62
     7
 10
21052.972027817548
 20
18641.436024499992
 30
0.0
 40
160.0
  1
間柱（側）
 72
     4
 11
21474.30536115088
 21
18721.436024499992
 31
0.0
  0
TEXT
  5
12B99
  8
2-0
  6
CONTINUOUS
 62
     7
 10
18553.04837550376
 20
20520.990071748729
 30
0.0
 40
160.0
  1
後柱（左右）
 50
359.99964599999998
 72
     4
 11
19065.048869771232
 21
20600.986908372841
 31
0.0
  0
LINE
  5
12B9A
  8
2-0
  6
CONTINUOUS
 62
     3
 10
22220.04446948419
 20
19710.984537000011
 30
0.0
 11
22183.0433074842
 21
19710.984537000011
 31
0.0
  0
LINE
  5
12B9B
  8
2-0
  6
CONTINUOUS
 62
     3
 10
22220.04446948419
 20
19680.980973999998
 30
0.0
 11
22220.04446948419
 21
19710.984537000011
 31
0.0
  0
LINE
  5
12B9C
  8
2-0
  6
CONTINUOUS
 62
     3
 10
22214.044548484191
 20
19680.980973999998
 30
0.0
 11
22220.04446948419
 21
19680.980973999998
 31
0.0
  0
LINE
  5
12B9D
  8
2-0
  6
CONTINUOUS
 62
     3
 10
22230.141993484202
 20
19680.980973999998
 30
0.0
 11
22230.141993484202
 21
19710.984537000011
 31
0.0
  0
LINE
  5
12B9E
  8
2-0
  6
CONTINUOUS
 62
     3
 10
22212.138272484201
 20
19680.980973999998
 30
0.0
 11
22230.141993484202
 21
19680.980973999998
 31
0.0
  0
LINE
  5
12B9F
  8
2-0
  6
CONTINUOUS
 62
     3
 10
22212.138272484201
 20
19705.990211000011
 30
0.0
 11
22212.138272484201
 21
19680.980973999998
 31
0.0
  0
LINE
  5
12BA0
  8
2-0
  6
CONTINUOUS
 62
     3
 10
22217.13853648421
 20
19705.990211000011
 30
0.0
 11
22212.138272484201
 21
19705.990211000011
 31
0.0
  0
LINE
  5
12BA1
  8
2-0
  6
CONTINUOUS
 62
     3
 10
22217.13853648421
 20
19698.984695000021
 30
0.0
 11
22217.13853648421
 21
19705.990211000011
 31
0.0
  0
LINE
  5
12BA2
  8
2-0
  6
CONTINUOUS
 62
     3
 10
22185.949241484192
 20
19698.984695000021
 30
0.0
 11
22185.949241484192
 21
19705.990211000011
 31
0.0
  0
LINE
  5
12BA3
  8
2-0
  6
CONTINUOUS
 62
     3
 10
22185.949241484192
 20
19705.990211000011
 30
0.0
 11
22190.949505484201
 21
19705.990211000011
 31
0.0
  0
LINE
  5
12BA4
  8
2-0
  6
CONTINUOUS
 62
     3
 10
22190.949505484201
 20
19705.990211000011
 30
0.0
 11
22190.949505484201
 21
19680.980973999998
 31
0.0
  0
LINE
  5
12BA5
  8
2-0
  6
CONTINUOUS
 62
     3
 10
22190.949505484201
 20
19680.980973999998
 30
0.0
 11
22172.949742484201
 21
19680.980973999998
 31
0.0
  0
LINE
  5
12BA6
  8
2-0
  6
CONTINUOUS
 62
     3
 10
22172.949742484201
 20
19680.980973999998
 30
0.0
 11
22172.949742484201
 21
19710.984537000011
 31
0.0
  0
LINE
  5
12BA7
  8
2-0
  6
CONTINUOUS
 62
     3
 10
22189.043228484199
 20
19680.980973999998
 30
0.0
 11
22183.0433074842
 21
19680.980973999998
 31
0.0
  0
LINE
  5
12BA8
  8
2-0
  6
CONTINUOUS
 62
     3
 10
22183.0433074842
 20
19680.980973999998
 30
0.0
 11
22183.0433074842
 21
19710.984537000011
 31
0.0
  0
LINE
  5
12BA9
  8
2-0
  6
CONTINUOUS
 62
     3
 10
21484.9433029842
 20
19698.984695000021
 30
0.0
 11
21484.9433029842
 21
19705.990211000011
 31
0.0
  0
LINE
  5
12BAA
  8
2-0
  6
CONTINUOUS
 62
     3
 10
21484.9433029842
 20
19705.990211000011
 30
0.0
 11
21489.943565984209
 21
19705.990211000011
 31
0.0
  0
LINE
  5
12BAB
  8
2-0
  6
CONTINUOUS
 62
     3
 10
21489.943565984209
 20
19705.990211000011
 30
0.0
 11
21489.943565984209
 21
19680.980973999998
 31
0.0
  0
LINE
  5
12BAC
  8
2-0
  6
CONTINUOUS
 62
     3
 10
21489.943565984209
 20
19680.980973999998
 30
0.0
 11
21471.94974298419
 21
19680.980973999998
 31
0.0
  0
LINE
  5
12BAD
  8
2-0
  6
CONTINUOUS
 62
     3
 10
21471.94974298419
 20
19680.980973999998
 30
0.0
 11
21471.94974298419
 21
19710.984537000011
 31
0.0
  0
LINE
  5
12BAE
  8
2-0
  6
CONTINUOUS
 62
     3
 10
21488.041248984169
 20
19680.980973999998
 30
0.0
 11
21482.043307984201
 21
19680.980973999998
 31
0.0
  0
LINE
  5
12BAF
  8
2-0
  6
CONTINUOUS
 62
     3
 10
21482.043307984201
 20
19680.980973999998
 30
0.0
 11
21482.043307984201
 21
19710.984537000011
 31
0.0
  0
LINE
  5
12BB0
  8
2-0
  6
CONTINUOUS
 62
     3
 10
21519.044468984201
 20
19710.984537000011
 30
0.0
 11
21482.043307984201
 21
19710.984537000011
 31
0.0
  0
LINE
  5
12BB1
  8
2-0
  6
CONTINUOUS
 62
     3
 10
21519.044468984201
 20
19680.980973999998
 30
0.0
 11
21519.044468984201
 21
19710.984537000011
 31
0.0
  0
LINE
  5
12BB2
  8
2-0
  6
CONTINUOUS
 62
     3
 10
21513.038609984211
 20
19680.980973999998
 30
0.0
 11
21519.044468984201
 21
19680.980973999998
 31
0.0
  0
LINE
  5
12BB3
  8
2-0
  6
CONTINUOUS
 62
     3
 10
21529.138033984211
 20
19680.980973999998
 30
0.0
 11
21529.138033984211
 21
19710.984537000011
 31
0.0
  0
LINE
  5
12BB4
  8
2-0
  6
CONTINUOUS
 62
     3
 10
21511.142230984191
 20
19680.980973999998
 30
0.0
 11
21529.138033984211
 21
19680.980973999998
 31
0.0
  0
LINE
  5
12BB5
  8
2-0
  6
CONTINUOUS
 62
     3
 10
21511.142230984191
 20
19705.990211000011
 30
0.0
 11
21511.142230984191
 21
19680.980973999998
 31
0.0
  0
LINE
  5
12BB6
  8
2-0
  6
CONTINUOUS
 62
     3
 10
21516.132596984211
 20
19705.990211000011
 30
0.0
 11
21511.142230984191
 21
19705.990211000011
 31
0.0
  0
LINE
  5
12BB7
  8
2-0
  6
CONTINUOUS
 62
     3
 10
21516.132596984211
 20
19698.984695000021
 30
0.0
 11
21516.132596984211
 21
19705.990211000011
 31
0.0
  0
LINE
  5
12BB8
  8
2-0
  6
CONTINUOUS
 62
     3
 10
20828.13704448421
 20
19710.984537000011
 30
0.0
 11
21471.94974298419
 21
19710.984537000011
 31
0.0
  0
LINE
  5
12BB9
  8
2-0
  6
CONTINUOUS
 62
     3
 10
22877.427518484212
 20
19710.984537000011
 30
0.0
 11
22230.141993484202
 21
19710.984537000011
 31
0.0
  0
LINE
  5
12BBA
  8
2-0
  6
CONTINUOUS
 62
     3
 10
22172.949742484201
 20
19710.984537000011
 30
0.0
 11
21529.138033984211
 21
19710.984537000011
 31
0.0
  0
LINE
  5
12BBB
  8
2-0
  6
CONTINUOUS
 62
     3
 10
20815.135566484201
 20
19698.984695000021
 30
0.0
 11
20815.135566484201
 21
19705.990211000011
 31
0.0
  0
LINE
  5
12BBC
  8
2-0
  6
CONTINUOUS
 62
     3
 10
20815.135566484201
 20
19705.990211000011
 30
0.0
 11
20810.135302484199
 21
19705.990211000011
 31
0.0
  0
LINE
  5
12BBD
  8
2-0
  6
CONTINUOUS
 62
     3
 10
20810.135302484199
 20
19705.990211000011
 30
0.0
 11
20810.135302484199
 21
19680.980973999998
 31
0.0
  0
LINE
  5
12BBE
  8
2-0
  6
CONTINUOUS
 62
     3
 10
20810.135302484199
 20
19680.980973999998
 30
0.0
 11
20828.13704448421
 21
19680.980973999998
 31
0.0
  0
LINE
  5
12BBF
  8
2-0
  6
CONTINUOUS
 62
     3
 10
20828.13704448421
 20
19680.980973999998
 30
0.0
 11
20828.13704448421
 21
19710.984537000011
 31
0.0
  0
LINE
  5
12BC0
  8
2-0
  6
CONTINUOUS
 62
     3
 10
20812.037619484221
 20
19680.980973999998
 30
0.0
 11
20818.04149948421
 21
19680.980973999998
 31
0.0
  0
LINE
  5
12BC1
  8
2-0
  6
CONTINUOUS
 62
     3
 10
20818.04149948421
 20
19680.980973999998
 30
0.0
 11
20818.04149948421
 21
19710.984537000011
 31
0.0
  0
LINE
  5
12BC2
  8
2-0
  6
CONTINUOUS
 62
     3
 10
20781.046277484202
 20
19710.984537000011
 30
0.0
 11
20818.04149948421
 21
19710.984537000011
 31
0.0
  0
LINE
  5
12BC3
  8
2-0
  6
CONTINUOUS
 62
     3
 10
20781.046277484202
 20
19680.980973999998
 30
0.0
 11
20781.046277484202
 21
19710.984537000011
 31
0.0
  0
LINE
  5
12BC4
  8
2-0
  6
CONTINUOUS
 62
     3
 10
20787.040259484191
 20
19680.980973999998
 30
0.0
 11
20781.046277484202
 21
19680.980973999998
 31
0.0
  0
LINE
  5
12BC5
  8
2-0
  6
CONTINUOUS
 62
     3
 10
20770.950732484209
 20
19680.980973999998
 30
0.0
 11
20770.950732484209
 21
19710.984537000011
 31
0.0
  0
LINE
  5
12BC6
  8
2-0
  6
CONTINUOUS
 62
     3
 10
20788.9465354842
 20
19680.980973999998
 30
0.0
 11
20770.950732484209
 21
19680.980973999998
 31
0.0
  0
LINE
  5
12BC7
  8
2-0
  6
CONTINUOUS
 62
     3
 10
20788.9465354842
 20
19705.990211000011
 30
0.0
 11
20788.9465354842
 21
19680.980973999998
 31
0.0
  0
LINE
  5
12BC8
  8
2-0
  6
CONTINUOUS
 62
     3
 10
20783.948251484209
 20
19705.990211000011
 30
0.0
 11
20788.9465354842
 21
19705.990211000011
 31
0.0
  0
LINE
  5
12BC9
  8
2-0
  6
CONTINUOUS
 62
     3
 10
20783.948251484209
 20
19698.984695000021
 30
0.0
 11
20783.948251484209
 21
19705.990211000011
 31
0.0
  0
LINE
  5
12BCA
  8
2-0
  6
CONTINUOUS
 62
     3
 10
20474.849130484188
 20
19710.984537000011
 30
0.0
 11
20770.950732484209
 21
19710.984537000011
 31
0.0
  0
LINE
  5
12BCB
  8
2-0
  6
CONTINUOUS
 62
     3
 10
23002.042172484202
 20
15263.12568899999
 30
0.0
 11
23002.042172484202
 21
14619.086831000001
 31
0.0
  0
LINE
  5
12BCC
  8
2-0
  6
CONTINUOUS
 62
     3
 10
23002.042172484202
 20
14561.890621
 30
0.0
 11
23002.042172484202
 21
13915.024258999991
 31
0.0
  0
LINE
  5
12BCD
  8
0-6
  6
CONTINUOUS
 62
     6
 10
22118.908396984221
 20
18999.666309
 30
0.0
 11
21093.868146984201
 21
18999.666309
 31
0.0
  0
LINE
  5
12BCE
  8
0-6
  6
CONTINUOUS
 62
     6
 10
22418.833174984218
 20
19557.019561000008
 30
0.0
 11
22523.448752984212
 21
19680.980973999998
 31
0.0
  0
LINE
  5
12BCF
  8
0-6
  6
CONTINUOUS
 62
     6
 10
22523.448752984212
 20
19680.980973999998
 30
0.0
 11
22464.690702984211
 21
19529.78930400002
 31
0.0
  0
LINE
  5
12BD0
  8
0-6
  6
CONTINUOUS
 62
     6
 10
22523.448752984212
 20
19680.980973999998
 30
0.0
 11
22418.833174984218
 21
19557.019561000008
 31
0.0
  0
LINE
  5
12BD1
  8
0-6
  6
CONTINUOUS
 62
     6
 10
22418.833174984218
 20
19557.019561000008
 30
0.0
 11
22464.690702984211
 21
19529.78930400002
 31
0.0
  0
LINE
  5
12BD2
  8
0-6
  6
CONTINUOUS
 62
     6
 10
22464.690702984211
 20
19529.78930400002
 30
0.0
 11
22523.448752984212
 21
19680.980973999998
 31
0.0
  0
LINE
  5
12BD3
  8
0-6
  6
CONTINUOUS
 62
     6
 10
22464.690702984211
 20
19529.78930400002
 30
0.0
 11
22418.833174984218
 21
19557.019561000008
 31
0.0
  0
LINE
  5
12BD4
  8
0-6
  6
CONTINUOUS
 62
     6
 10
22441.761938984211
 20
19543.406412000011
 30
0.0
 11
22118.908396984221
 21
18999.666309
 31
0.0
  0
TEXT
  5
12BD5
  8
0-6
  6
CONTINUOUS
 62
     7
 10
21196.241466317551
 20
19079.668553000021
 30
0.0
 40
160.0
  1
間柱（後）
 72
     4
 11
21617.57479965088
 21
19159.668553000021
 31
0.0
  0
LINE
  5
12BD6
  8
SUNPOU
  6
CONTINUOUS
 62
     4
 10
19706.502556484211
 20
18209.486251999992
 30
0.0
 11
19219.544284484218
 21
18209.486251999992
 31
0.0
  0
LINE
  5
12BD7
  8
SUNPOU
  6
CONTINUOUS
 62
     4
 10
19299.544284484211
 20
18209.486251999992
 30
0.0
 11
19299.544284484211
 21
19668.486251999992
 31
0.0
  0
LINE
  5
12BD8
  8
SUNPOU
  6
CONTINUOUS
 62
     4
 10
19706.502556484211
 20
18209.486251999992
 30
0.0
 11
19219.544284484218
 21
18209.486251999992
 31
0.0
  0
LINE
  5
12BD9
  8
SUNPOU
  6
CONTINUOUS
 62
     4
 10
19299.544284484211
 20
16750.486251999992
 30
0.0
 11
19299.544284484211
 21
18209.486251999992
 31
0.0
  0
LINE
  5
12BDA
  8
SUNPOU
  6
CONTINUOUS
 62
     4
 10
19706.502556484211
 20
15291.72676350001
 30
0.0
 11
19219.544284484218
 21
15291.72676350001
 31
0.0
  0
LINE
  5
12BDB
  8
SUNPOU
  6
CONTINUOUS
 62
     4
 10
19299.544284484211
 20
15291.72676350001
 30
0.0
 11
19299.544284484211
 21
16750.486251999992
 31
0.0
  0
LINE
  5
12BDC
  8
SUNPOU
  6
CONTINUOUS
 62
     4
 10
19706.502556484211
 20
15291.72676350001
 30
0.0
 11
19219.544284484218
 21
15291.72676350001
 31
0.0
  0
LINE
  5
12BDD
  8
SUNPOU
  6
CONTINUOUS
 62
     4
 10
19299.544284484211
 20
13832.486252000001
 30
0.0
 11
19299.544284484211
 21
15291.72676350001
 31
0.0
  0
LINE
  5
12BDE
  8
SUNPOU
  6
CONTINUOUS
 62
     4
 10
20392.043888484211
 20
13126.722818
 30
0.0
 11
20392.043888484211
 21
12781.038167999999
 31
0.0
  0
LINE
  5
12BDF
  8
SUNPOU
  6
CONTINUOUS
 62
     4
 10
20349.541645484209
 20
13709.988957
 30
0.0
 11
20349.541645484209
 21
12781.038167999999
 31
0.0
  0
LINE
  5
12BE0
  8
SUNPOU
  6
CONTINUOUS
 62
     4
 10
20392.043888484211
 20
12861.038167999999
 30
0.0
 11
20632.043888484211
 21
12861.038167999999
 31
0.0
  0
LINE
  5
12BE1
  8
SUNPOU
  6
CONTINUOUS
 62
     4
 10
20349.541645484209
 20
12861.038167999999
 30
0.0
 11
20109.541645484209
 21
12861.038167999999
 31
0.0
  0
LINE
  5
12BE2
  8
SUNPOU
  6
CONTINUOUS
 62
     4
 10
20392.043888484211
 20
12861.038167999999
 30
0.0
 11
20349.541645484209
 21
12861.038167999999
 31
0.0
  0
LINE
  5
12BE3
  8
SUNPOU
  6
CONTINUOUS
 62
     4
 10
22959.543888484211
 20
13126.722818
 30
0.0
 11
22959.543888484211
 21
12781.038167999999
 31
0.0
  0
LINE
  5
12BE4
  8
SUNPOU
  6
CONTINUOUS
 62
     4
 10
23002.046131484189
 20
13709.988957
 30
0.0
 11
23002.046131484189
 21
12781.038167999999
 31
0.0
  0
LINE
  5
12BE5
  8
SUNPOU
  6
CONTINUOUS
 62
     4
 10
22959.543888484211
 20
12861.038167999999
 30
0.0
 11
22719.543888484211
 21
12861.038167999999
 31
0.0
  0
LINE
  5
12BE6
  8
SUNPOU
  6
CONTINUOUS
 62
     4
 10
23002.046131484189
 20
12861.038167999999
 30
0.0
 11
23242.046131484189
 21
12861.038167999999
 31
0.0
  0
LINE
  5
12BE7
  8
SUNPOU
  6
CONTINUOUS
 62
     4
 10
22959.543888484211
 20
12861.038167999999
 30
0.0
 11
23002.046131484189
 21
12861.038167999999
 31
0.0
  0
LINE
  5
12BE8
  8
SUNPOU
  6
CONTINUOUS
 62
     4
 10
22959.543888484211
 20
13126.722818
 30
0.0
 11
22959.543888484211
 21
12781.038167999999
 31
0.0
  0
LINE
  5
12BE9
  8
SUNPOU
  6
CONTINUOUS
 62
     4
 10
22917.041645484202
 20
13709.988957
 30
0.0
 11
22917.041645484202
 21
12781.038167999999
 31
0.0
  0
LINE
  5
12BEA
  8
SUNPOU
  6
CONTINUOUS
 62
     4
 10
22959.543888484211
 20
12861.038167999999
 30
0.0
 11
23199.543888484211
 21
12861.038167999999
 31
0.0
  0
LINE
  5
12BEB
  8
SUNPOU
  6
CONTINUOUS
 62
     4
 10
22917.041645484202
 20
12861.038167999999
 30
0.0
 11
22677.041645484202
 21
12861.038167999999
 31
0.0
  0
LINE
  5
12BEC
  8
SUNPOU
  6
CONTINUOUS
 62
     4
 10
22959.543888484211
 20
12861.038167999999
 30
0.0
 11
22917.041645484202
 21
12861.038167999999
 31
0.0
  0
LINE
  5
12BED
  8
SUNPOU
  6
CONTINUOUS
 62
     4
 10
20392.043888484211
 20
13126.722818
 30
0.0
 11
20392.043888484211
 21
12781.038167999999
 31
0.0
  0
LINE
  5
12BEE
  8
SUNPOU
  6
CONTINUOUS
 62
     4
 10
20434.54613148421
 20
13709.988957
 30
0.0
 11
20434.54613148421
 21
12781.038167999999
 31
0.0
  0
LINE
  5
12BEF
  8
SUNPOU
  6
CONTINUOUS
 62
     4
 10
20392.043888484211
 20
12861.038167999999
 30
0.0
 11
20152.043888484211
 21
12861.038167999999
 31
0.0
  0
LINE
  5
12BF0
  8
SUNPOU
  6
CONTINUOUS
 62
     4
 10
20434.54613148421
 20
12861.038167999999
 30
0.0
 11
20674.54613148421
 21
12861.038167999999
 31
0.0
  0
LINE
  5
12BF1
  8
SUNPOU
  6
CONTINUOUS
 62
     4
 10
20392.043888484211
 20
12861.038167999999
 30
0.0
 11
20434.54613148421
 21
12861.038167999999
 31
0.0
  0
LINE
  5
12BF2
  8
SUNPOU
  6
CONTINUOUS
 62
     4
 10
20349.541645484209
 20
13709.988957
 30
0.0
 11
20349.541645484209
 21
12381.038167999999
 31
0.0
  0
LINE
  5
12BF3
  8
SUNPOU
  6
CONTINUOUS
 62
     4
 10
23002.046131484189
 20
13709.988957
 30
0.0
 11
23002.046131484189
 21
12381.038167999999
 31
0.0
  0
LINE
  5
12BF4
  8
SUNPOU
  6
CONTINUOUS
 62
     4
 10
20349.541645484209
 20
12461.038167999999
 30
0.0
 11
23002.046131484189
 21
12461.038167999999
 31
0.0
  0
LINE
  5
12BF5
  8
SUNPOU
  6
CONTINUOUS
 62
     4
 10
20269.545604484221
 20
14590.486252000001
 30
0.0
 11
19619.5442844842
 21
14590.486252000001
 31
0.0
  0
LINE
  5
12BF6
  8
SUNPOU
  6
CONTINUOUS
 62
     4
 10
19819.5442844842
 20
13832.486252000001
 30
0.0
 11
19619.5442844842
 21
13832.486252000001
 31
0.0
  0
LINE
  5
12BF7
  8
SUNPOU
  6
CONTINUOUS
 62
     4
 10
19699.5442844842
 20
14590.486252000001
 30
0.0
 11
19699.5442844842
 21
13832.486252000001
 31
0.0
  0
LINE
  5
12BF8
  8
SUNPOU
  6
CONTINUOUS
 62
     4
 10
20269.545604484221
 20
15291.72676350001
 30
0.0
 11
19619.5442844842
 21
15291.72676350001
 31
0.0
  0
LINE
  5
12BF9
  8
SUNPOU
  6
CONTINUOUS
 62
     4
 10
20269.545604484221
 20
14590.486252000001
 30
0.0
 11
19619.5442844842
 21
14590.486252000001
 31
0.0
  0
LINE
  5
12BFA
  8
SUNPOU
  6
CONTINUOUS
 62
     4
 10
19699.5442844842
 20
15291.72676350001
 30
0.0
 11
19699.5442844842
 21
14590.486252000001
 31
0.0
  0
LINE
  5
12BFB
  8
SUNPOU
  6
CONTINUOUS
 62
     4
 10
20269.545604484221
 20
15992.486252000001
 30
0.0
 11
19619.5442844842
 21
15992.486252000001
 31
0.0
  0
LINE
  5
12BFC
  8
SUNPOU
  6
CONTINUOUS
 62
     4
 10
20269.545604484221
 20
15291.72676350001
 30
0.0
 11
19619.5442844842
 21
15291.72676350001
 31
0.0
  0
LINE
  5
12BFD
  8
SUNPOU
  6
CONTINUOUS
 62
     4
 10
19699.5442844842
 20
15992.486252000001
 30
0.0
 11
19699.5442844842
 21
15291.72676350001
 31
0.0
  0
LINE
  5
12BFE
  8
SUNPOU
  6
CONTINUOUS
 62
     4
 10
19819.5442844842
 20
16750.486251999992
 30
0.0
 11
19619.5442844842
 21
16750.486251999992
 31
0.0
  0
LINE
  5
12BFF
  8
SUNPOU
  6
CONTINUOUS
 62
     4
 10
20269.545604484221
 20
15992.486252000001
 30
0.0
 11
19619.5442844842
 21
15992.486252000001
 31
0.0
  0
LINE
  5
12C00
  8
SUNPOU
  6
CONTINUOUS
 62
     4
 10
19699.5442844842
 20
16750.486251999992
 30
0.0
 11
19699.5442844842
 21
15992.486252000001
 31
0.0
  0
LINE
  5
12C01
  8
SUNPOU
  6
CONTINUOUS
 62
     4
 10
20269.545604484221
 20
17508.486251999992
 30
0.0
 11
19619.5442844842
 21
17508.486251999992
 31
0.0
  0
LINE
  5
12C02
  8
SUNPOU
  6
CONTINUOUS
 62
     4
 10
19819.5442844842
 20
16750.486251999992
 30
0.0
 11
19619.5442844842
 21
16750.486251999992
 31
0.0
  0
LINE
  5
12C03
  8
SUNPOU
  6
CONTINUOUS
 62
     4
 10
19699.5442844842
 20
17508.486251999992
 30
0.0
 11
19699.5442844842
 21
16750.486251999992
 31
0.0
  0
LINE
  5
12C04
  8
SUNPOU
  6
CONTINUOUS
 62
     4
 10
20269.545604484221
 20
18209.486251999992
 30
0.0
 11
19619.5442844842
 21
18209.486251999992
 31
0.0
  0
LINE
  5
12C05
  8
SUNPOU
  6
CONTINUOUS
 62
     4
 10
20269.545604484221
 20
17508.486251999992
 30
0.0
 11
19619.5442844842
 21
17508.486251999992
 31
0.0
  0
LINE
  5
12C06
  8
SUNPOU
  6
CONTINUOUS
 62
     4
 10
19699.5442844842
 20
18209.486251999992
 30
0.0
 11
19699.5442844842
 21
17508.486251999992
 31
0.0
  0
LINE
  5
12C07
  8
SUNPOU
  6
CONTINUOUS
 62
     4
 10
20269.545604484221
 20
18910.486251999999
 30
0.0
 11
19619.5442844842
 21
18910.486251999992
 31
0.0
  0
LINE
  5
12C08
  8
SUNPOU
  6
CONTINUOUS
 62
     4
 10
20269.545604484221
 20
18209.486251999992
 30
0.0
 11
19619.5442844842
 21
18209.486251999992
 31
0.0
  0
LINE
  5
12C09
  8
SUNPOU
  6
CONTINUOUS
 62
     4
 10
19699.5442844842
 20
18910.486251999992
 30
0.0
 11
19699.5442844842
 21
18209.486251999992
 31
0.0
  0
LINE
  5
12C0A
  8
SUNPOU
  6
CONTINUOUS
 62
     4
 10
19819.5442844842
 20
19668.486251999992
 30
0.0
 11
19619.5442844842
 21
19668.486251999992
 31
0.0
  0
LINE
  5
12C0B
  8
SUNPOU
  6
CONTINUOUS
 62
     4
 10
20269.545604484221
 20
18910.486251999999
 30
0.0
 11
19619.5442844842
 21
18910.486251999992
 31
0.0
  0
LINE
  5
12C0C
  8
SUNPOU
  6
CONTINUOUS
 62
     4
 10
19699.5442844842
 20
19668.486251999992
 30
0.0
 11
19699.5442844842
 21
18910.486251999992
 31
0.0
  0
LINE
  5
12C0D
  8
SUNPOU
  6
CONTINUOUS
 62
     4
 10
19819.5442844842
 20
19668.486251999992
 30
0.0
 11
19619.5442844842
 21
19668.486251999992
 31
0.0
  0
LINE
  5
12C0E
  8
SUNPOU
  6
CONTINUOUS
 62
     4
 10
19819.5442844842
 20
13832.486252000001
 30
0.0
 11
19619.5442844842
 21
13832.486252000001
 31
0.0
  0
LINE
  5
12C0F
  8
SUNPOU
  6
CONTINUOUS
 62
     4
 10
20269.545604484221
 20
19710.983547
 30
0.0
 11
18819.544284484211
 21
19710.983546999982
 31
0.0
  0
LINE
  5
12C10
  8
SUNPOU
  6
CONTINUOUS
 62
     4
 10
20269.545604484221
 20
13789.988957
 30
0.0
 11
18819.544284484211
 21
13789.988957
 31
0.0
  0
LINE
  5
12C11
  8
SUNPOU
  6
CONTINUOUS
 62
     4
 10
18899.544284484211
 20
19710.983546999982
 30
0.0
 11
18899.544284484211
 21
13789.988957
 31
0.0
  0
LINE
  5
12C12
  8
SUNPOU
  6
CONTINUOUS
 62
     4
 10
19819.5442844842
 20
19668.486251999992
 30
0.0
 11
19619.5442844842
 21
19668.486251999992
 31
0.0
  0
LINE
  5
12C13
  8
SUNPOU
  6
CONTINUOUS
 62
     4
 10
20269.545604484221
 20
19710.983547
 30
0.0
 11
19619.5442844842
 21
19710.983546999982
 31
0.0
  0
LINE
  5
12C14
  8
SUNPOU
  6
CONTINUOUS
 62
     4
 10
19699.5442844842
 20
19668.486251999992
 30
0.0
 11
19699.5442844842
 21
19428.486251999992
 31
0.0
  0
LINE
  5
12C15
  8
SUNPOU
  6
CONTINUOUS
 62
     4
 10
19699.5442844842
 20
19710.983546999982
 30
0.0
 11
19699.5442844842
 21
19950.983546999982
 31
0.0
  0
LINE
  5
12C16
  8
SUNPOU
  6
CONTINUOUS
 62
     4
 10
19699.5442844842
 20
19668.486251999992
 30
0.0
 11
19699.5442844842
 21
19710.983546999982
 31
0.0
  0
LINE
  5
12C17
  8
SUNPOU
  6
CONTINUOUS
 62
     4
 10
19819.5442844842
 20
13832.486252000001
 30
0.0
 11
19619.5442844842
 21
13832.486252000001
 31
0.0
  0
LINE
  5
12C18
  8
SUNPOU
  6
CONTINUOUS
 62
     4
 10
20269.545604484221
 20
13789.988957
 30
0.0
 11
19619.5442844842
 21
13789.988957
 31
0.0
  0
LINE
  5
12C19
  8
SUNPOU
  6
CONTINUOUS
 62
     4
 10
19699.5442844842
 20
13832.486252000001
 30
0.0
 11
19699.5442844842
 21
14072.486252000001
 31
0.0
  0
LINE
  5
12C1A
  8
SUNPOU
  6
CONTINUOUS
 62
     4
 10
19699.5442844842
 20
13789.988957
 30
0.0
 11
19699.5442844842
 21
13549.988957
 31
0.0
  0
LINE
  5
12C1B
  8
SUNPOU
  6
CONTINUOUS
 62
     4
 10
19699.5442844842
 20
13832.486252000001
 30
0.0
 11
19699.5442844842
 21
13789.988957
 31
0.0
  0
TEXT
  5
12C1C
  8
0
  6
CONTINUOUS
 62
     7
 10
19619.5442844842
 20
13216.43272060321
 30
0.0
 40
160.0
  1
42.5
 50
90.0
  0
TEXT
  5
12C1D
  8
0
  6
CONTINUOUS
 62
     7
 10
19619.5442844842
 20
19804.539783396791
 30
0.0
 40
160.0
  1
42.5
 50
90.0
  0
TEXT
  5
12C1E
  8
0
  6
CONTINUOUS
 62
     7
 10
18819.544284484189
 20
16483.819585333331
 30
0.0
 40
160.0
  1
5921
 50
90.0
  0
TEXT
  5
12C1F
  8
0
  6
CONTINUOUS
 62
     7
 10
19619.5442844842
 20
19076.15291866667
 30
0.0
 40
160.0
  1
758
 50
90.0
  0
TEXT
  5
12C20
  8
0
  6
CONTINUOUS
 62
     7
 10
19619.5442844842
 20
18386.652918666659
 30
0.0
 40
160.0
  1
701
 50
90.0
  0
TEXT
  5
12C21
  8
0
  6
CONTINUOUS
 62
     7
 10
19619.5442844842
 20
17685.65291866667
 30
0.0
 40
160.0
  1
701
 50
90.0
  0
TEXT
  5
12C22
  8
0
  6
CONTINUOUS
 62
     7
 10
19619.5442844842
 20
16916.15291866667
 30
0.0
 40
160.0
  1
758
 50
90.0
  0
TEXT
  5
12C23
  8
0
  6
CONTINUOUS
 62
     7
 10
19619.5442844842
 20
16158.15291866667
 30
0.0
 40
160.0
  1
758
 50
90.0
  0
TEXT
  5
12C24
  8
0
  6
CONTINUOUS
 62
     7
 10
19619.5442844842
 20
15468.773174416679
 30
0.0
 40
160.0
  1
701
 50
90.0
  0
TEXT
  5
12C25
  8
0
  6
CONTINUOUS
 62
     7
 10
19619.5442844842
 20
14767.773174416679
 30
0.0
 40
160.0
  1
701
 50
90.0
  0
TEXT
  5
12C26
  8
0
  6
CONTINUOUS
 62
     7
 10
19619.5442844842
 20
13998.15291866667
 30
0.0
 40
160.0
  1
758
 50
90.0
  0
TEXT
  5
12C27
  8
0
  6
CONTINUOUS
 62
     7
 10
21275.793888484211
 20
12541.038167999999
 30
0.0
 40
160.0
  1
2652.5
  0
TEXT
  5
12C28
  8
0
  6
CONTINUOUS
 62
     7
 10
20510.097560866288
 20
12941.038167999999
 30
0.0
 40
160.0
  1
42.5
  0
TEXT
  5
12C29
  8
0
  6
CONTINUOUS
 62
     7
 10
22361.490216102091
 20
12941.038167999999
 30
0.0
 40
160.0
  1
42.5
  0
TEXT
  5
12C2A
  8
0
  6
CONTINUOUS
 62
     7
 10
23077.597560866288
 20
12941.038167999999
 30
0.0
 40
160.0
  1
42.5
  0
TEXT
  5
12C2B
  8
0
  6
CONTINUOUS
 62
     7
 10
19793.990216102091
 20
12941.038167999999
 30
0.0
 40
160.0
  1
42.5
  0
TEXT
  5
12C2C
  8
0
  6
CONTINUOUS
 62
     7
 10
19219.544284484218
 20
14295.43984108334
 30
0.0
 40
160.0
  1
1459
 50
90.0
  0
TEXT
  5
12C2D
  8
0
  6
CONTINUOUS
 62
     7
 10
19219.544284484218
 20
15754.43984108334
 30
0.0
 40
160.0
  1
1459
 50
90.0
  0
TEXT
  5
12C2E
  8
0
  6
CONTINUOUS
 62
     7
 10
19219.544284484218
 20
17213.319585333331
 30
0.0
 40
160.0
  1
1459
 50
90.0
  0
TEXT
  5
12C2F
  8
0
  6
CONTINUOUS
 62
     7
 10
19219.544284484218
 20
18672.319585333309
 30
0.0
 40
160.0
  1
1459
 50
90.0
  0
ARC
  5
12C30
  8
0
  6
BYBLOCK
 62
     0
 10
19299.544284484211
 20
18209.486251999992
 30
0.0
 40
15.0
 50
270.0
 51
90.0
  0
ARC
  5
12C31
  8
0
  6
BYBLOCK
 62
     0
 10
19299.544284484211
 20
18209.486251999992
 30
0.0
 40
15.0
 50
90.0
 51
270.0
  0
ARC
  5
12C32
  8
0
  6
BYBLOCK
 62
     0
 10
19299.544284484211
 20
19668.486251999992
 30
0.0
 40
15.0
 50
90.0
 51
270.0
  0
ARC
  5
12C33
  8
0
  6
BYBLOCK
 62
     0
 10
19299.544284484211
 20
19668.486251999992
 30
0.0
 40
15.0
 50
270.0
 51
90.0
  0
ARC
  5
12C34
  8
0
  6
BYBLOCK
 62
     0
 10
19299.544284484211
 20
16750.486251999992
 30
0.0
 40
15.0
 50
270.0
 51
90.0
  0
ARC
  5
12C35
  8
0
  6
BYBLOCK
 62
     0
 10
19299.544284484211
 20
16750.486251999992
 30
0.0
 40
15.0
 50
90.0
 51
270.0
  0
ARC
  5
12C36
  8
0
  6
BYBLOCK
 62
     0
 10
19299.544284484211
 20
18209.486251999992
 30
0.0
 40
15.0
 50
90.0
 51
270.0
  0
ARC
  5
12C37
  8
0
  6
BYBLOCK
 62
     0
 10
19299.544284484211
 20
18209.486251999992
 30
0.0
 40
15.0
 50
270.0
 51
90.0
  0
ARC
  5
12C38
  8
0
  6
BYBLOCK
 62
     0
 10
19299.544284484211
 20
15291.72676350001
 30
0.0
 40
15.0
 50
270.0
 51
90.0
  0
ARC
  5
12C39
  8
0
  6
BYBLOCK
 62
     0
 10
19299.544284484211
 20
15291.72676350001
 30
0.0
 40
15.0
 50
90.0
 51
270.0
  0
ARC
  5
12C3A
  8
0
  6
BYBLOCK
 62
     0
 10
19299.544284484211
 20
16750.486251999992
 30
0.0
 40
15.0
 50
90.0
 51
270.0
  0
ARC
  5
12C3B
  8
0
  6
BYBLOCK
 62
     0
 10
19299.544284484211
 20
16750.486251999992
 30
0.0
 40
15.0
 50
270.0
 51
90.0
  0
ARC
  5
12C3C
  8
0
  6
BYBLOCK
 62
     0
 10
19299.544284484211
 20
13832.486252000001
 30
0.0
 40
15.0
 50
270.0
 51
90.0
  0
ARC
  5
12C3D
  8
0
  6
BYBLOCK
 62
     0
 10
19299.544284484211
 20
13832.486252000001
 30
0.0
 40
15.0
 50
90.0
 51
270.0
  0
ARC
  5
12C3E
  8
0
  6
BYBLOCK
 62
     0
 10
19299.544284484211
 20
15291.72676350001
 30
0.0
 40
15.0
 50
90.0
 51
270.0
  0
ARC
  5
12C3F
  8
0
  6
BYBLOCK
 62
     0
 10
19299.544284484211
 20
15291.72676350001
 30
0.0
 40
15.0
 50
270.0
 51
90.0
  0
ARC
  5
12C40
  8
0
  6
BYBLOCK
 62
     0
 10
20392.043888484211
 20
12861.038167999999
 30
0.0
 40
15.0
 50
0.0
 51
180.0
  0
ARC
  5
12C41
  8
0
  6
BYBLOCK
 62
     0
 10
20392.043888484211
 20
12861.038167999999
 30
0.0
 40
15.0
 50
180.0
 51
0.0
  0
ARC
  5
12C42
  8
0
  6
BYBLOCK
 62
     0
 10
20349.541645484209
 20
12861.038167999999
 30
0.0
 40
15.0
 50
180.0
 51
0.0
  0
ARC
  5
12C43
  8
0
  6
BYBLOCK
 62
     0
 10
20349.541645484209
 20
12861.038167999999
 30
0.0
 40
15.0
 50
0.0
 51
180.0
  0
ARC
  5
12C44
  8
0
  6
BYBLOCK
 62
     0
 10
22959.543888484211
 20
12861.038167999999
 30
0.0
 40
15.0
 50
180.0
 51
0.0
  0
ARC
  5
12C45
  8
0
  6
BYBLOCK
 62
     0
 10
22959.543888484211
 20
12861.038167999999
 30
0.0
 40
15.0
 50
0.0
 51
180.0
  0
ARC
  5
12C46
  8
0
  6
BYBLOCK
 62
     0
 10
23002.046131484189
 20
12861.038167999999
 30
0.0
 40
15.0
 50
0.0
 51
180.0
  0
ARC
  5
12C47
  8
0
  6
BYBLOCK
 62
     0
 10
23002.046131484189
 20
12861.038167999999
 30
0.0
 40
15.0
 50
180.0
 51
0.0
  0
ARC
  5
12C48
  8
0
  6
BYBLOCK
 62
     0
 10
22959.543888484211
 20
12861.038167999999
 30
0.0
 40
15.0
 50
0.0
 51
180.0
  0
ARC
  5
12C49
  8
0
  6
BYBLOCK
 62
     0
 10
22959.543888484211
 20
12861.038167999999
 30
0.0
 40
15.0
 50
180.0
 51
0.0
  0
ARC
  5
12C4A
  8
0
  6
BYBLOCK
 62
     0
 10
22917.041645484202
 20
12861.038167999999
 30
0.0
 40
15.0
 50
180.0
 51
0.0
  0
ARC
  5
12C4B
  8
0
  6
BYBLOCK
 62
     0
 10
22917.041645484202
 20
12861.038167999999
 30
0.0
 40
15.0
 50
0.0
 51
180.0
  0
ARC
  5
12C4C
  8
0
  6
BYBLOCK
 62
     0
 10
20392.043888484211
 20
12861.038167999999
 30
0.0
 40
15.0
 50
180.0
 51
0.0
  0
ARC
  5
12C4D
  8
0
  6
BYBLOCK
 62
     0
 10
20392.043888484211
 20
12861.038167999999
 30
0.0
 40
15.0
 50
0.0
 51
180.0
  0
ARC
  5
12C4E
  8
0
  6
BYBLOCK
 62
     0
 10
20434.54613148421
 20
12861.038167999999
 30
0.0
 40
15.0
 50
0.0
 51
180.0
  0
ARC
  5
12C4F
  8
0
  6
BYBLOCK
 62
     0
 10
20434.54613148421
 20
12861.038167999999
 30
0.0
 40
15.0
 50
180.0
 51
0.0
  0
ARC
  5
12C50
  8
0
  6
BYBLOCK
 62
     0
 10
20349.541645484209
 20
12461.038167999999
 30
0.0
 40
15.0
 50
0.0
 51
180.0
  0
ARC
  5
12C51
  8
0
  6
BYBLOCK
 62
     0
 10
20349.541645484209
 20
12461.038167999999
 30
0.0
 40
15.0
 50
180.0
 51
0.0
  0
ARC
  5
12C52
  8
0
  6
BYBLOCK
 62
     0
 10
23002.046131484189
 20
12461.038167999999
 30
0.0
 40
15.0
 50
180.0
 51
0.0
  0
ARC
  5
12C53
  8
0
  6
BYBLOCK
 62
     0
 10
23002.046131484189
 20
12461.038167999999
 30
0.0
 40
15.0
 50
0.0
 51
180.0
  0
ARC
  5
12C54
  8
0
  6
BYBLOCK
 62
     0
 10
19699.5442844842
 20
14590.486252000001
 30
0.0
 40
15.0
 50
90.0
 51
270.0
  0
ARC
  5
12C55
  8
0
  6
BYBLOCK
 62
     0
 10
19699.5442844842
 20
14590.486252000001
 30
0.0
 40
15.0
 50
270.0
 51
90.0
  0
ARC
  5
12C56
  8
0
  6
BYBLOCK
 62
     0
 10
19699.5442844842
 20
13832.486252000001
 30
0.0
 40
15.0
 50
270.0
 51
90.0
  0
ARC
  5
12C57
  8
0
  6
BYBLOCK
 62
     0
 10
19699.5442844842
 20
13832.486252000001
 30
0.0
 40
15.0
 50
90.0
 51
270.0
  0
ARC
  5
12C58
  8
0
  6
BYBLOCK
 62
     0
 10
19699.5442844842
 20
15291.72676350001
 30
0.0
 40
15.0
 50
90.0
 51
270.0
  0
ARC
  5
12C59
  8
0
  6
BYBLOCK
 62
     0
 10
19699.5442844842
 20
15291.72676350001
 30
0.0
 40
15.0
 50
270.0
 51
90.0
  0
ARC
  5
12C5A
  8
0
  6
BYBLOCK
 62
     0
 10
19699.5442844842
 20
14590.486252000001
 30
0.0
 40
15.0
 50
270.0
 51
90.0
  0
ARC
  5
12C5B
  8
0
  6
BYBLOCK
 62
     0
 10
19699.5442844842
 20
14590.486252000001
 30
0.0
 40
15.0
 50
90.0
 51
270.0
  0
ARC
  5
12C5C
  8
0
  6
BYBLOCK
 62
     0
 10
19699.5442844842
 20
15992.486252000001
 30
0.0
 40
15.0
 50
90.0
 51
270.0
  0
ARC
  5
12C5D
  8
0
  6
BYBLOCK
 62
     0
 10
19699.5442844842
 20
15992.486252000001
 30
0.0
 40
15.0
 50
270.0
 51
90.0
  0
ARC
  5
12C5E
  8
0
  6
BYBLOCK
 62
     0
 10
19699.5442844842
 20
15291.72676350001
 30
0.0
 40
15.0
 50
270.0
 51
90.0
  0
ARC
  5
12C5F
  8
0
  6
BYBLOCK
 62
     0
 10
19699.5442844842
 20
15291.72676350001
 30
0.0
 40
15.0
 50
90.0
 51
270.0
  0
ARC
  5
12C60
  8
0
  6
BYBLOCK
 62
     0
 10
19699.5442844842
 20
16750.486251999992
 30
0.0
 40
15.0
 50
90.0
 51
270.0
  0
ARC
  5
12C61
  8
0
  6
BYBLOCK
 62
     0
 10
19699.5442844842
 20
16750.486251999992
 30
0.0
 40
15.0
 50
270.0
 51
90.0
  0
ARC
  5
12C62
  8
0
  6
BYBLOCK
 62
     0
 10
19699.5442844842
 20
15992.486252000001
 30
0.0
 40
15.0
 50
270.0
 51
90.0
  0
ARC
  5
12C63
  8
0
  6
BYBLOCK
 62
     0
 10
19699.5442844842
 20
15992.486252000001
 30
0.0
 40
15.0
 50
90.0
 51
270.0
  0
ARC
  5
12C64
  8
0
  6
BYBLOCK
 62
     0
 10
19699.5442844842
 20
17508.486251999992
 30
0.0
 40
15.0
 50
90.0
 51
270.0
  0
ARC
  5
12C65
  8
0
  6
BYBLOCK
 62
     0
 10
19699.5442844842
 20
17508.486251999992
 30
0.0
 40
15.0
 50
270.0
 51
90.0
  0
ARC
  5
12C66
  8
0
  6
BYBLOCK
 62
     0
 10
19699.5442844842
 20
16750.486251999992
 30
0.0
 40
15.0
 50
270.0
 51
90.0
  0
ARC
  5
12C67
  8
0
  6
BYBLOCK
 62
     0
 10
19699.5442844842
 20
16750.486251999992
 30
0.0
 40
15.0
 50
90.0
 51
270.0
  0
ARC
  5
12C68
  8
0
  6
BYBLOCK
 62
     0
 10
19699.5442844842
 20
18209.486251999992
 30
0.0
 40
15.0
 50
90.0
 51
270.0
  0
ARC
  5
12C69
  8
0
  6
BYBLOCK
 62
     0
 10
19699.5442844842
 20
18209.486251999992
 30
0.0
 40
15.0
 50
270.0
 51
90.0
  0
ARC
  5
12C6A
  8
0
  6
BYBLOCK
 62
     0
 10
19699.5442844842
 20
17508.486251999992
 30
0.0
 40
15.0
 50
270.0
 51
90.0
  0
ARC
  5
12C6B
  8
0
  6
BYBLOCK
 62
     0
 10
19699.5442844842
 20
17508.486251999992
 30
0.0
 40
15.0
 50
90.0
 51
270.0
  0
ARC
  5
12C6C
  8
0
  6
BYBLOCK
 62
     0
 10
19699.5442844842
 20
18910.486251999992
 30
0.0
 40
15.0
 50
90.0
 51
270.0
  0
ARC
  5
12C6D
  8
0
  6
BYBLOCK
 62
     0
 10
19699.5442844842
 20
18910.486251999992
 30
0.0
 40
15.0
 50
270.0
 51
90.0
  0
ARC
  5
12C6E
  8
0
  6
BYBLOCK
 62
     0
 10
19699.5442844842
 20
18209.486251999992
 30
0.0
 40
15.0
 50
270.0
 51
90.0
  0
ARC
  5
12C6F
  8
0
  6
BYBLOCK
 62
     0
 10
19699.5442844842
 20
18209.486251999992
 30
0.0
 40
15.0
 50
90.0
 51
270.0
  0
ARC
  5
12C70
  8
0
  6
BYBLOCK
 62
     0
 10
19699.5442844842
 20
19668.486251999992
 30
0.0
 40
15.0
 50
90.0
 51
270.0
  0
ARC
  5
12C71
  8
0
  6
BYBLOCK
 62
     0
 10
19699.5442844842
 20
19668.486251999992
 30
0.0
 40
15.0
 50
270.0
 51
90.0
  0
ARC
  5
12C72
  8
0
  6
BYBLOCK
 62
     0
 10
19699.5442844842
 20
18910.486251999992
 30
0.0
 40
15.0
 50
270.0
 51
90.0
  0
ARC
  5
12C73
  8
0
  6
BYBLOCK
 62
     0
 10
19699.5442844842
 20
18910.486251999992
 30
0.0
 40
15.0
 50
90.0
 51
270.0
  0
ARC
  5
12C74
  8
0
  6
BYBLOCK
 62
     0
 10
19699.5442844842
 20
19668.486251999992
 30
0.0
 40
15.0
 50
90.0
 51
270.0
  0
ARC
  5
12C75
  8
0
  6
BYBLOCK
 62
     0
 10
19699.5442844842
 20
19668.486251999992
 30
0.0
 40
15.0
 50
270.0
 51
90.0
  0
ARC
  5
12C76
  8
0
  6
BYBLOCK
 62
     0
 10
19699.5442844842
 20
13832.486252000001
 30
0.0
 40
15.0
 50
270.0
 51
90.0
  0
ARC
  5
12C77
  8
0
  6
BYBLOCK
 62
     0
 10
19699.5442844842
 20
13832.486252000001
 30
0.0
 40
15.0
 50
90.0
 51
270.0
  0
ARC
  5
12C78
  8
0
  6
BYBLOCK
 62
     0
 10
18899.544284484211
 20
19710.983546999982
 30
0.0
 40
15.0
 50
90.0
 51
270.0
  0
ARC
  5
12C79
  8
0
  6
BYBLOCK
 62
     0
 10
18899.544284484211
 20
19710.983546999982
 30
0.0
 40
15.0
 50
270.0
 51
90.0
  0
ARC
  5
12C7A
  8
0
  6
BYBLOCK
 62
     0
 10
18899.544284484211
 20
13789.988957
 30
0.0
 40
15.0
 50
270.0
 51
90.0
  0
ARC
  5
12C7B
  8
0
  6
BYBLOCK
 62
     0
 10
18899.544284484211
 20
13789.988957
 30
0.0
 40
15.0
 50
90.0
 51
270.0
  0
ARC
  5
12C7C
  8
0
  6
BYBLOCK
 62
     0
 10
19699.5442844842
 20
19668.486251999992
 30
0.0
 40
15.0
 50
90.0
 51
270.0
  0
ARC
  5
12C7D
  8
0
  6
BYBLOCK
 62
     0
 10
19699.5442844842
 20
19668.486251999992
 30
0.0
 40
15.0
 50
270.0
 51
90.0
  0
ARC
  5
12C7E
  8
0
  6
BYBLOCK
 62
     0
 10
19699.5442844842
 20
19710.983546999982
 30
0.0
 40
15.0
 50
270.0
 51
90.0
  0
ARC
  5
12C7F
  8
0
  6
BYBLOCK
 62
     0
 10
19699.5442844842
 20
19710.983546999982
 30
0.0
 40
15.0
 50
90.0
 51
270.0
  0
ARC
  5
12C80
  8
0
  6
BYBLOCK
 62
     0
 10
19699.5442844842
 20
13832.486252000001
 30
0.0
 40
15.0
 50
270.0
 51
90.0
  0
ARC
  5
12C81
  8
0
  6
BYBLOCK
 62
     0
 10
19699.5442844842
 20
13832.486252000001
 30
0.0
 40
15.0
 50
90.0
 51
270.0
  0
ARC
  5
12C82
  8
0
  6
BYBLOCK
 62
     0
 10
19699.5442844842
 20
13789.988957
 30
0.0
 40
15.0
 50
90.0
 51
270.0
  0
ARC
  5
12C83
  8
0
  6
BYBLOCK
 62
     0
 10
19699.5442844842
 20
13789.988957
 30
0.0
 40
15.0
 50
270.0
 51
90.0
  0
TEXT
  5
1012D50
  8
FILENAME
  6
CONTINUOUS
 10
26061.142857142859
 20
348.0
 30
0.0
 40
200.0
  1
＜VGCU-2659+VKCU-2859-R-1-A_0.DXF ＞
  7
FILENAME
 72
     2
 11
32764.0
 21
348.0
 31
0.0
  0
LINE
  5
1012D55
  8
WAKUSEN-01
 10
868.00000000000193
 20
827.99999999999955
 30
0.0
 11
32764.000000000011
 21
827.99999999999943
 31
0.0
  0
LINE
  5
1012D56
  8
WAKUSEN-01
 10
868.00000000000193
 20
827.99999999999955
 30
0.0
 11
868.00000000000193
 21
22484.000000000011
 31
0.0
  0
LINE
  5
1012D57
  8
WAKUSEN-01
 10
32764.000000000011
 20
827.99999999999943
 30
0.0
 11
32764.000000000011
 21
22484.000000000011
 31
0.0
  0
LINE
  5
1012D58
  8
WAKUSEN-01
 10
20560.0
 20
827.99999999999716
 30
0.0
 11
20560.0
 21
2484.0
 31
0.0
  0
LINE
  5
1012D59
  8
WAKUSEN-02
 10
26868.0
 20
827.99999999999261
 30
0.0
 11
26868.0
 21
2484.0
 31
0.0
  0
ENDSEC
  0
EOF
