  0
SECTION
  2
HEADER
  9
$ACADVER
  1
AC1009
  9
$INSBASE
 10
0.0
 20
0.0
 30
0.0
  9
$EXTMIN
 10
867.99324330406671
 20
327.38164749855792
 30
-0.0000000000000057
  9
$EXTMAX
 10
32765.33210850941
 20
22484.553276491992
 30
0.0000000000000104
  9
$LIMMIN
 10
0.0
 20
0.0
  9
$LIMMAX
 10
33600.0
 20
23760.0
  9
$ORTHOMODE
 70
     1
  9
$REGENMODE
 70
     1
  9
$FILLMODE
 70
     1
  9
$QTEXTMODE
 70
     0
  9
$MIRRTEXT
 70
     0
  9
$DRAGMODE
 70
     2
  9
$LTSCALE
 40
80.0
  9
$OSMODE
 70
  3071
  9
$ATTMODE
 70
     1
  9
$TEXTSIZE
 40
0.2
  9
$TRACEWID
 40
0.05
  9
$TEXTSTYLE
  7
00
  9
$CLAYER
  8
0
  9
$CELTYPE
  6
BYLAYER
  9
$CECOLOR
 62
   256
  9
$DIMSCALE
 40
80.0
  9
$DIMASZ
 40
3.0
  9
$DIMEXO
 40
1.0
  9
$DIMDLI
 40
0.38
  9
$DIMRND
 40
0.5
  9
$DIMDLE
 40
0.0
  9
$DIMEXE
 40
1.0
  9
$DIMTP
 40
0.0
  9
$DIMTM
 40
0.0
  9
$DIMTXT
 40
2.0
  9
$DIMCEN
 40
0.09
  9
$DIMTSZ
 40
0.0
  9
$DIMTOL
 70
     0
  9
$DIMLIM
 70
     0
  9
$DIMTIH
 70
     0
  9
$DIMTOH
 70
     0
  9
$DIMSE1
 70
     0
  9
$DIMSE2
 70
     0
  9
$DIMTAD
 70
     1
  9
$DIMZIN
 70
     8
  9
$DIMBLK
  1
DOTSMALL
  9
$DIMASO
 70
     1
  9
$DIMSHO
 70
     1
  9
$DIMPOST
  1

  9
$DIMAPOST
  1

  9
$DIMALT
 70
     0
  9
$DIMALTD
 70
     2
  9
$DIMALTF
 40
25.399999999999999
  9
$DIMLFAC
 40
1.0
  9
$DIMTOFL
 70
     1
  9
$DIMTVP
 40
0.0
  9
$DIMTIX
 70
     0
  9
$DIMSOXD
 70
     0
  9
$DIMSAH
 70
     0
  9
$DIMBLK1
  1

  9
$DIMBLK2
  1

  9
$DIMSTYLE
  2
SUNPOU
  9
$DIMCLRD
 70
     4
  9
$DIMCLRE
 70
     4
  9
$DIMCLRT
 70
     7
  9
$DIMTFAC
 40
1.0
  9
$DIMGAP
 40
1.0
  9
$LUNITS
 70
     2
  9
$LUPREC
 70
     4
  9
$SKETCHINC
 40
0.1
  9
$FILLETRAD
 40
0.0
  9
$AUNITS
 70
     0
  9
$AUPREC
 70
     0
  9
$MENU
  1
acad
  9
$ELEVATION
 40
0.0
  9
$PELEVATION
 40
0.0
  9
$THICKNESS
 40
0.0
  9
$LIMCHECK
 70
     0
  9
$BLIPMODE
 70
     1
  9
$CHAMFERA
 40
0.0
  9
$CHAMFERB
 40
0.0
  9
$SKPOLY
 70
     0
  9
$TDCREATE
 40
2311940.075052408
  9
$TDUPDATE
 40
2458942.4599765632
  9
$TDINDWG
 40
0.3038031019
  9
$TDUSRTIMER
 40
0.3037907523
  9
$USRTIMER
 70
     1
  9
$ANGBASE
 50
0.0
  9
$ANGDIR
 70
     0
  9
$PDMODE
 70
     0
  9
$PDSIZE
 40
0.0
  9
$PLINEWID
 40
0.0
  9
$COORDS
 70
     1
  9
$SPLFRAME
 70
     0
  9
$SPLINETYPE
 70
     6
  9
$SPLINESEGS
 70
     8
  9
$ATTDIA
 70
     1
  9
$ATTREQ
 70
     1
  9
$HANDLING
 70
     1
  9
$HANDSEED
  5
10130F3
  9
$SURFTAB1
 70
     6
  9
$SURFTAB2
 70
     6
  9
$SURFTYPE
 70
     6
  9
$SURFU
 70
     6
  9
$SURFV
 70
     6
  9
$UCSNAME
  2

  9
$UCSORG
 10
0.0
 20
0.0
 30
0.0
  9
$UCSXDIR
 10
1.0
 20
0.0
 30
0.0
  9
$UCSYDIR
 10
0.0
 20
1.0
 30
0.0
  9
$PUCSNAME
  2

  9
$PUCSORG
 10
0.0
 20
0.0
 30
0.0
  9
$PUCSXDIR
 10
1.0
 20
0.0
 30
0.0
  9
$PUCSYDIR
 10
0.0
 20
1.0
 30
0.0
  9
$USERI1
 70
     0
  9
$USERI2
 70
     0
  9
$USERI3
 70
     0
  9
$USERI4
 70
     0
  9
$USERI5
 70
     0
  9
$USERR1
 40
0.0
  9
$USERR2
 40
0.0
  9
$USERR3
 40
0.0
  9
$USERR4
 40
0.0
  9
$USERR5
 40
0.0
  9
$WORLDVIEW
 70
     1
  9
$SHADEDGE
 70
     3
  9
$SHADEDIF
 70
    70
  9
$TILEMODE
 70
     1
  9
$MAXACTVP
 70
    16
  9
$PLIMCHECK
 70
     0
  9
$PEXTMIN
 10
1.0000000000000000E+020
 20
1.0000000000000000E+020
 30
1.0000000000000000E+020
  9
$PEXTMAX
 10
-1.0000000000000000E+020
 20
-1.0000000000000000E+020
 30
-1.0000000000000000E+020
  9
$PLIMMIN
 10
0.0
 20
0.0
  9
$PLIMMAX
 10
12.0
 20
9.0
  9
$UNITMODE
 70
     0
  9
$VISRETAIN
 70
     0
  9
$PLINEGEN
 70
     1
  9
$PSLTSCALE
 70
     0
  0
ENDSEC
  0
SECTION
  2
TABLES
  0
TABLE
  2
VPORT
 70
     1
  0
VPORT
  2
*ACTIVE
 70
     0
 10
0.0
 20
0.0
 11
1.0
 21
1.0
 12
16800.0
 22
11880.0
 13
0.0
 23
0.0
 14
1.0
 24
1.0
 15
0.0
 25
0.0
 16
0.0
 26
0.0
 36
1.0
 17
0.0
 27
0.0
 37
0.0
 40
23981.023255813951
 41
2.195652173913043
 42
50.0
 43
0.0
 44
0.0
 50
0.0
 51
0.0
 71
     0
 72
 10000
 73
     1
 74
     1
 75
     0
 76
     0
 77
     0
 78
     0
  0
ENDTAB
  0
TABLE
  2
LTYPE
 70
     6
  0
LTYPE
  2
CONTINUOUS
 70
     0
  3
Solid line
 72
    65
 73
     0
 40
0.0
  0
LTYPE
  2
DASHED3
 70
     0
  3
------  ------  ------  ------  
 72
    65
 73
     2
 40
5.0
 49
3.75
 49
-1.25
  0
LTYPE
  2
CENTER2
 70
     0
  3
----------  --  ----------  --  
 72
    65
 73
     4
 40
20.0
 49
12.5
 49
-2.5
 49
2.5
 49
-2.5
  0
LTYPE
  2
HIDE-M
 70
     0
  3

 72
    65
 73
     2
 40
2.0
 49
1.0
 49
-1.0
  0
LTYPE
  2
1PL-M
 70
     0
  3

 72
    65
 73
     4
 40
15.0
 49
12.0
 49
-1.0
 49
1.0
 49
-1.0
  0
LTYPE
  2
PHANTOM2
 70
     0
  3
___ _ _ ___ _ _ ___ _ _ ___ _ _
 72
    65
 73
     6
 40
1.25
 49
0.625
 49
-0.125
 49
0.125
 49
-0.125
 49
0.125
 49
-0.125
  0
ENDTAB
  0
TABLE
  2
LAYER
 70
    25
  0
LAYER
  2
0
 70
     0
 62
     7
  6
CONTINUOUS
  0
LAYER
  2
SUNPOU
 70
     0
 62
     4
  6
CONTINUOUS
  0
LAYER
  2
0-1
 70
     0
 62
     7
  6
CONTINUOUS
  0
LAYER
  2
0-2
 70
     0
 62
     7
  6
CONTINUOUS
  0
LAYER
  2
0-5
 70
     0
 62
     7
  6
CONTINUOUS
  0
LAYER
  2
0-6
 70
     0
 62
     7
  6
CONTINUOUS
  0
LAYER
  2
2-0
 70
     0
 62
     7
  6
CONTINUOUS
  0
LAYER
  2
0-8
 70
     0
 62
     7
  6
CONTINUOUS
  0
LAYER
  2
YODOROGO
 70
     0
 62
   130
  6
CONTINUOUS
  0
LAYER
  2
WAKUSEN-01
 70
     0
 62
    50
  6
CONTINUOUS
  0
LAYER
  2
WAKUSEN-02
 70
     0
 62
   130
  6
CONTINUOUS
  0
LAYER
  2
WAKUMOJI-01
 70
     0
 62
   130
  6
CONTINUOUS
  0
LAYER
  2
FILENAME
 70
     0
 62
     7
  6
CONTINUOUS
  0
LAYER
  2
NAME
 70
     0
 62
    20
  6
CONTINUOUS
  0
LAYER
  2
0-4
 70
     0
 62
     7
  6
CONTINUOUS
  0
LAYER
  2
1-前柱P
 70
     0
 62
     3
  6
CONTINUOUS
  0
LAYER
  2
1-前柱カバ-P
 70
     0
 62
     3
  6
CONTINUOUS
  0
LAYER
  2
1-桁前P28
 70
     0
 62
     3
  6
CONTINUOUS
  0
LAYER
  2
1-後柱P
 70
     0
 62
     3
  6
CONTINUOUS
  0
LAYER
  2
1-中柱P
 70
     0
 62
     3
  6
CONTINUOUS
  0
LAYER
  2
1-後柱カバ-P
 70
     0
 62
     7
  6
CONTINUOUS
  0
LAYER
  2
1-中柱カバ-P
 70
     0
 62
     7
  6
CONTINUOUS
  0
ENDTAB
  0
TABLE
  2
STYLE
 70
     5
  0
STYLE
  2
STANDARD
 70
     0
 40
0.0
 41
1.0
 50
0.0
 71
     0
 42
0.0
  3
txt
  4
BIGFONT
  0
STYLE
  2
00
 70
     0
 40
0.0
 41
0.6666666666666666
 50
0.0
 71
     0
 42
0.2
  3
ROMANS
  4
BIGFONT
  0
STYLE
  2
01
 70
     0
 40
3.0
 41
1.0
 50
0.0
 71
     0
 42
0.2
  3
ROMANS
  4
BIGFONT
  0
STYLE
  2
WAKUMOJI
 70
     0
 40
3.0
 41
1.0
 50
0.0
 71
     0
 42
3.0
  3
SIMPLEX
  4
BIGFONT
  0
STYLE
  2
FILENAME
 70
     0
 40
200.0
 41
1.0
 50
0.0
 71
     0
 42
200.0
  3
romans
  4
bigfont
  0
ENDTAB
  0
TABLE
  2
VIEW
 70
     0
  0
ENDTAB
  0
TABLE
  2
UCS
 70
     0
  0
ENDTAB
  0
TABLE
  2
APPID
 70
    17
  0
APPID
  2
ACAD
 70
     0
  0
APPID
  2
ACADANNOTATIVE
 70
     0
  0
APPID
  2
ACAD_PSEXT
 70
     0
  0
APPID
  2
DCO15
 70
     0
  0
APPID
  2
ACAD_MLEADERVER
 70
     0
  0
APPID
  2
AUTOCAD_POSTSCRIPT_FIGURE
 70
     0
  0
APPID
  2
ACAD_EXEMPT_FROM_CAD_STANDARDS
 70
     0
  0
APPID
  2
ACLAYERTOOLS
 70
     0
  0
APPID
  2
ACAD_DSTYLE_DIMJAG
 70
     0
  0
APPID
  2
ACAD_DSTYLE_DIMTALN
 70
     0
  0
APPID
  2
ACAECLAYERSTANDARD
 70
     0
  0
APPID
  2
ACAD_DSTYLE_DIMBREAK
 70
     0
  0
APPID
  2
ACAD_DSTYLE_DIM_LINETYPE
 70
     0
  0
APPID
  2
ACAD_DSTYLE_DIM_EXT1_LINETYPE
 70
     0
  0
APPID
  2
ACAD_DSTYLE_DIM_EXT2_LINETYPE
 70
     0
  0
APPID
  2
ACAD_DSTYLE_DIMFLIPARROW_W
 70
     0
  0
APPID
  2
ACAD_NAV_VCDISPLAY
 70
     0
  0
ENDTAB
  0
TABLE
  2
DIMSTYLE
 70
     2
  0
DIMSTYLE
  2
SUNPOU
 70
     0
  3

  4

  5

  6

  7

 40
80.0
 41
3.0
 42
1.0
 43
0.38
 44
1.0
 45
0.5
 46
0.0
 47
0.0
 48
0.0
140
2.0
141
0.09
142
0.0
143
25.399999999999999
144
1.0
145
0.0
146
1.0
147
1.0
 71
     0
 72
     0
 73
     0
 74
     0
 75
     0
 76
     0
 77
     1
 78
     8
170
     0
171
     2
172
     1
173
     0
174
     0
175
     0
176
     4
177
     4
178
     7
  0
ENDTAB
  0
ENDSEC
  0
SECTION
  2
BLOCKS
  0
BLOCK
  8
0
  2
$MODEL_SPACE
 70
     0
 10
0.0
 20
0.0
 30
0.0
  3
$MODEL_SPACE
  1

  0
ENDBLK
  5
11A6F
  8
0
  0
BLOCK
 67
     1
  8
0
  2
$PAPER_SPACE
 70
     0
 10
0.0
 20
0.0
 30
0.0
  3
$PAPER_SPACE
  1

  0
ENDBLK
  5
11A6B
 67
     1
  8
0
  0
BLOCK
  8
0
  2
_DOTSMALL
 70
     0
 10
0.0
 20
0.0
 30
0.0
  3
_DOTSMALL
  1

  0
POLYLINE
  5
11AAB
  8
0
  6
BYBLOCK
 62
     0
 66
     1
 10
0.0
 20
0.0
 30
0.0
 70
     1
 40
0.5
 41
0.5
  0
VERTEX
  5
10130BB
  8
0
  6
BYBLOCK
 62
     0
 10
-0.0625
 20
0.0
 30
0.0
 42
1.0
  0
VERTEX
  5
10130BC
  8
0
  6
BYBLOCK
 62
     0
 10
0.0625
 20
0.0
 30
0.0
 42
1.0
  0
SEQEND
  5
10130BD
  8
0
  6
BYBLOCK
 62
     0
  0
ENDBLK
  5
11AAF
  8
0
  0
ENDSEC
  0
SECTION
  2
ENTITIES
  0
LINE
  5
11AB0
  8
0-1
  6
CONTINUOUS
 62
     3
 10
6906.4416304765837
 20
16705.485856999989
 30
0.0
 11
9473.9416304765837
 21
16705.485856999989
 31
0.0
  0
LINE
  5
11AB1
  8
0-1
  6
CONTINUOUS
 62
     3
 10
9420.9419994765958
 20
13795.986899
 30
0.0
 11
9420.9419994765958
 21
17791.443824900962
 31
0.0
  0
LINE
  5
11AB2
  8
0-1
  6
CONTINUOUS
 62
     3
 10
6956.4422504765953
 20
13671.986885
 30
0.0
 11
6956.4422504765953
 21
18871.363360818661
 31
0.0
  0
LINE
  5
11AB3
  8
0-1
  6
CONTINUOUS
 62
     3
 10
6820.9416304765846
 20
13639.986252000001
 30
0.0
 11
6820.9416304765846
 21
18784.390733488079
 31
0.0
  0
LINE
  5
11AB4
  8
0-1
  6
CONTINUOUS
 62
     3
 10
6863.942356476593
 20
13795.986899
 30
0.0
 11
12316.44288447659
 21
13795.986899
 31
0.0
  0
LINE
  5
11AB5
  8
0-1
  6
CONTINUOUS
 62
     3
 10
6906.4416304765837
 20
13874.986516000001
 30
0.0
 11
12273.94163047658
 21
13874.986516000001
 31
0.0
  0
LINE
  5
11AB6
  8
0-1
  6
CONTINUOUS
 62
     3
 10
6820.9416304765846
 20
13639.986252000001
 30
0.0
 11
12359.44163047658
 21
13639.986252000001
 31
0.0
  0
LINE
  5
11AB7
  8
0-1
  6
CONTINUOUS
 62
     3
 10
6820.9416304765846
 20
13671.986885
 30
0.0
 11
12359.44163047658
 21
13671.986885
 31
0.0
  0
LINE
  5
11AB8
  8
0-1
  6
CONTINUOUS
 62
     3
 10
9473.9416304765837
 20
13795.986899
 30
0.0
 11
9473.9416304765837
 21
17769.83857947612
 31
0.0
  0
LINE
  5
11AB9
  8
0-1
  6
CONTINUOUS
 62
     3
 10
9516.4428844765916
 20
13795.986899
 30
0.0
 11
9516.4428844765916
 21
17752.512986708611
 31
0.0
  0
LINE
  5
11ABA
  8
0-1
  6
CONTINUOUS
 62
     3
 10
6906.4416304765837
 20
13795.986899
 30
0.0
 11
6906.4416304765837
 21
18816.477331136641
 31
0.0
  0
LINE
  5
11ABB
  8
0-1
  6
CONTINUOUS
 62
     3
 10
6863.942356476593
 20
13795.986899
 30
0.0
 11
6863.942356476593
 21
18834.012854275759
 31
0.0
  0
LINE
  5
11ABC
  8
0-1
  6
CONTINUOUS
 62
     3
 10
8126.442752476597
 20
18319.145120287751
 30
0.0
 11
8126.442752476597
 21
19510.488495000001
 31
0.0
  0
LINE
  5
11ABD
  8
0-1
  6
CONTINUOUS
 62
     3
 10
8163.4439134765844
 20
18304.061634811991
 30
0.0
 11
8163.4439134765844
 21
19510.488495000001
 31
0.0
  0
LINE
  5
11ABE
  8
0-1
  6
CONTINUOUS
 62
     3
 10
8326.4424224765862
 20
18237.615459161621
 30
0.0
 11
8326.4424224765899
 21
19510.488495000001
 31
0.0
  0
LINE
  5
11ABF
  8
0-1
  6
CONTINUOUS
 62
     3
 10
8363.4416034765945
 20
18222.532780830828
 30
0.0
 11
8363.4416034765964
 21
19510.488495000001
 31
0.0
  0
LINE
  5
11AC0
  8
0-1
  6
CONTINUOUS
 62
     3
 10
8526.4430814765947
 20
18156.085394870672
 30
0.0
 11
8526.4430814765947
 21
19510.488495000001
 31
0.0
  0
LINE
  5
11AC1
  8
0-1
  6
CONTINUOUS
 62
     3
 10
8563.4432534765947
 20
18141.002312559751
 30
0.0
 11
8563.4432534765947
 21
19510.488495000001
 31
0.0
  0
LINE
  5
11AC2
  8
0-1
  6
CONTINUOUS
 62
     3
 10
8726.4427524765979
 20
18074.5557333369
 30
0.0
 11
8726.4427524765979
 21
19510.488495000001
 31
0.0
  0
LINE
  5
11AC3
  8
0-1
  6
CONTINUOUS
 62
     3
 10
8763.4439134765853
 20
18059.472247861129
 30
0.0
 11
8763.4439134765853
 21
19510.488495000001
 31
0.0
  0
LINE
  5
11AC4
  8
0-1
  6
CONTINUOUS
 62
     3
 10
8926.4424224765953
 20
17993.026072210771
 30
0.0
 11
8926.4424224765971
 21
19510.488495000001
 31
0.0
  0
LINE
  5
11AC5
  8
0-1
  6
CONTINUOUS
 62
     3
 10
8963.4425934765841
 20
17977.9429903075
 30
0.0
 11
8963.4425934765877
 21
19510.488495000001
 31
0.0
  0
LINE
  5
11AC6
  8
0-1
  6
CONTINUOUS
 62
     3
 10
9126.4430814765874
 20
17911.496007919821
 30
0.0
 11
9126.4430814765874
 21
19510.488495000001
 31
0.0
  0
LINE
  5
11AC7
  8
0-1
  6
CONTINUOUS
 62
     3
 10
9163.4432534765983
 20
17896.412925608882
 30
0.0
 11
9163.4432534765947
 21
19510.488495000001
 31
0.0
  0
LINE
  5
11AC8
  8
0-1
  6
CONTINUOUS
 62
     3
 10
6906.4416304765837
 20
15336.487638000021
 30
0.0
 11
9473.9416304765837
 21
15336.487638000021
 31
0.0
  0
LINE
  5
11AC9
  8
0-1
  6
CONTINUOUS
 62
     3
 10
6906.4416304765837
 20
15246.485856000019
 30
0.0
 11
9473.9416304765837
 21
15246.485856000019
 31
0.0
  0
LINE
  5
11ACA
  8
0-1
  6
CONTINUOUS
 62
     3
 10
6906.4416304765837
 20
16795.488627999988
 30
0.0
 11
9473.9416304765837
 21
16795.488627999988
 31
0.0
  0
LINE
  5
11ACB
  8
0-1
  6
CONTINUOUS
 62
     3
 10
6920.5833114765919
 20
18254.488626999999
 30
0.0
 11
8283.4873577710241
 21
18254.488626999999
 31
0.0
  0
LINE
  5
11ACC
  8
0-1
  6
CONTINUOUS
 62
     3
 10
6920.5833114765919
 20
18164.485855999999
 30
0.0
 11
8505.8359867026338
 21
18164.485855999999
 31
0.0
  0
LINE
  5
11ACD
  8
0-1
  6
CONTINUOUS
 62
     3
 10
6976.442356476593
 20
16750.486251999992
 30
0.0
 11
9403.9428844765916
 21
15291.48625200001
 31
0.0
  0
LINE
  5
11ACE
  8
0-1
  6
CONTINUOUS
 62
     3
 10
9403.9428844765916
 20
15291.48625200001
 30
0.0
 11
6976.442356476593
 21
13832.48625200001
 31
0.0
  0
LINE
  5
11ACF
  8
0-1
  6
CONTINUOUS
 62
     3
 10
6976.442356476593
 20
15291.48625200001
 30
0.0
 11
9403.9428844765916
 21
13832.48625200001
 31
0.0
  0
LINE
  5
11AD0
  8
0-1
  6
CONTINUOUS
 62
     3
 10
6976.442356476593
 20
18209.48625200001
 30
0.0
 11
9403.9425301204192
 21
16750.488153658851
 31
0.0
  0
LINE
  5
11AD1
  8
0-1
  6
CONTINUOUS
 62
     3
 10
9403.9425301204192
 20
16750.488153658851
 30
0.0
 11
6976.442356476593
 21
15291.48625200001
 31
0.0
  0
LINE
  5
11AD2
  8
0-1
  6
CONTINUOUS
 62
     3
 10
7645.7250515033329
 20
18515.109199916871
 30
0.0
 11
6976.4423564766221
 21
18209.48625200001
 31
0.0
  0
LINE
  5
11AD3
  8
0-1
  6
CONTINUOUS
 62
     3
 10
9004.7719783205248
 20
17961.095108804111
 30
0.0
 11
6976.442356476593
 21
16750.486251999992
 31
0.0
  0
LINE
  5
11AD4
  8
0-1
  6
CONTINUOUS
 62
     3
 10
6838.9404034765721
 20
18842.981927935751
 30
0.0
 11
6838.9404034765721
 21
19522.987175999991
 31
0.0
  0
LINE
  5
11AD5
  8
0-1
  6
CONTINUOUS
 62
     3
 10
6894.4411554765838
 20
19505.488230999988
 30
0.0
 11
6894.4411554765838
 21
19535.487834999982
 31
0.0
  0
LINE
  5
11AD6
  8
0-1
  6
CONTINUOUS
 62
     3
 10
6820.9416304765846
 20
19535.487834999982
 30
0.0
 11
6820.9416304765846
 21
19500.485987999989
 31
0.0
  0
LINE
  5
11AD7
  8
0-1
  6
CONTINUOUS
 62
     3
 10
6889.4408914765727
 20
19540.486120000001
 30
0.0
 11
6825.9409044765798
 21
19540.486120000001
 31
0.0
  0
LINE
  5
11AD8
  8
0-1
  6
CONTINUOUS
 62
     3
 10
6838.9404034765721
 20
19522.987175999991
 30
0.0
 11
6820.9416304765846
 21
19522.987175999991
 31
0.0
  0
LINE
  5
11AD9
  8
0-1
  6
CONTINUOUS
 62
     3
 10
6838.9404034765721
 20
19500.485987999989
 30
0.0
 11
6889.4408914765727
 21
19500.485987999989
 31
0.0
  0
LINE
  5
11ADA
  8
0-1
  6
CONTINUOUS
 62
     3
 10
6897.4417494765958
 20
19510.488495000001
 30
0.0
 11
12282.941116476601
 21
19510.488495000001
 31
0.0
  0
LINE
  5
11ADB
  8
0-6
  6
CONTINUOUS
 62
     6
 10
8238.7610026411312
 20
19237.710188000001
 30
0.0
 11
8382.6621056411223
 21
19749.985842999991
 31
0.0
  0
LINE
  5
11ADC
  8
0-6
  6
CONTINUOUS
 62
     6
 10
7982.9900224765888
 20
19486.164171
 30
0.0
 11
8089.6850844765931
 21
19363.988283999988
 31
0.0
  0
LINE
  5
11ADD
  8
0-6
  6
CONTINUOUS
 62
     6
 10
8089.6850844765931
 20
19363.988283999988
 30
0.0
 11
8028.3793944765848
 21
19514.164461
 31
0.0
  0
LINE
  5
11ADE
  8
0-6
  6
CONTINUOUS
 62
     6
 10
8089.6850844765931
 20
19363.988283999988
 30
0.0
 11
7982.9900224765888
 21
19486.164171
 31
0.0
  0
LINE
  5
11ADF
  8
0-6
  6
CONTINUOUS
 62
     6
 10
7982.9900224765888
 20
19486.164171
 30
0.0
 11
8028.3793944765848
 21
19514.164461
 31
0.0
  0
LINE
  5
11AE0
  8
0-6
  6
CONTINUOUS
 62
     6
 10
8028.3793944765848
 20
19514.164461
 30
0.0
 11
8089.6850844765931
 21
19363.988283999988
 31
0.0
  0
LINE
  5
11AE1
  8
0-6
  6
CONTINUOUS
 62
     6
 10
8028.3793944765848
 20
19514.164461
 30
0.0
 11
7982.9900224765888
 21
19486.164171
 31
0.0
  0
LINE
  5
11AE2
  8
0-6
  6
CONTINUOUS
 62
     6
 10
8089.6850844765931
 20
19363.988283999988
 30
0.0
 11
7795.7572574765873
 21
19770.486383999989
 31
0.0
  0
LINE
  5
11AE3
  8
0-6
  6
CONTINUOUS
 62
     6
 10
8212.8728586411326
 20
19244.109971999991
 30
0.0
 11
8200.3712086411324
 21
19082.385282999989
 31
0.0
  0
LINE
  5
11AE4
  8
0-6
  6
CONTINUOUS
 62
     6
 10
8200.3712086411324
 20
19082.385282999989
 30
0.0
 11
8264.6461776411325
 21
19231.314364000002
 31
0.0
  0
LINE
  5
11AE5
  8
0-6
  6
CONTINUOUS
 62
     6
 10
8200.3712086411324
 20
19082.385282999989
 30
0.0
 11
8212.8728586411326
 21
19244.109971999991
 31
0.0
  0
LINE
  5
11AE6
  8
0-6
  6
CONTINUOUS
 62
     6
 10
8212.8728586411326
 20
19244.109971999991
 30
0.0
 11
8264.6461776411325
 21
19231.314364000002
 31
0.0
  0
LINE
  5
11AE7
  8
0-6
  6
CONTINUOUS
 62
     6
 10
8264.6461776411325
 20
19231.314364000002
 30
0.0
 11
8200.3712086411324
 21
19082.385282999989
 31
0.0
  0
LINE
  5
11AE8
  8
0-6
  6
CONTINUOUS
 62
     6
 10
8264.6461776411325
 20
19231.314364000002
 30
0.0
 11
8212.8728586411326
 21
19244.109971999991
 31
0.0
  0
LINE
  5
11AE9
  8
0-6
  6
CONTINUOUS
 62
     6
 10
8382.6621056411223
 20
19749.985842999991
 30
0.0
 11
8900.3507536411307
 21
19749.985842999991
 31
0.0
  0
LINE
  5
11AEA
  8
0-6
  6
CONTINUOUS
 62
     6
 10
6995.7556084765847
 20
19770.486383999989
 30
0.0
 11
7795.7572574765873
 21
19770.486383999989
 31
0.0
  0
LINE
  5
11AEB
  8
0-6
  6
CONTINUOUS
 62
     6
 10
3627.661020831832
 20
17103.270314344409
 30
0.0
 11
5622.1051728318444
 21
17103.270314344409
 31
0.0
  0
LINE
  5
11AEC
  8
0-6
  6
CONTINUOUS
 62
     6
 10
8808.3943941214857
 20
15640.5283247312
 30
0.0
 11
8521.8263507479132
 21
15468.95572270394
 31
0.0
  0
LINE
  5
11AED
  8
0-6
  6
CONTINUOUS
 62
     6
 10
7641.8254267479006
 20
15468.95572270394
 30
0.0
 11
8521.8263507479132
 21
15468.95572270394
 31
0.0
  0
LINE
  5
11AEE
  8
0-6
  6
CONTINUOUS
 62
     6
 10
7128.0826857628172
 20
17147.675105459512
 30
0.0
 11
7648.0834117628292
 21
17147.675105459512
 31
0.0
  0
LINE
  5
11AEF
  8
0-6
  6
CONTINUOUS
 62
     6
 10
7719.5545503138064
 20
13995.375648999991
 30
0.0
 11
7768.0685171480982
 21
14098.937573099651
 31
0.0
  0
LINE
  5
11AF0
  8
0-6
  6
CONTINUOUS
 62
     6
 10
7768.0685171480982
 20
14098.937573099651
 30
0.0
 11
8568.0691771480888
 21
14098.937573099651
 31
0.0
  0
LINE
  5
11AF1
  8
0-6
  6
CONTINUOUS
 62
     6
 10
7973.3675694765952
 20
13485.93862399998
 30
0.0
 11
7867.0971144765936
 21
13608.48567099998
 31
0.0
  0
LINE
  5
11AF2
  8
0-6
  6
CONTINUOUS
 62
     6
 10
7867.0971144765936
 20
13608.48567099998
 30
0.0
 11
7927.8792224765966
 21
13458.09669499998
 31
0.0
  0
LINE
  5
11AF3
  8
0-6
  6
CONTINUOUS
 62
     6
 10
7867.0971144765936
 20
13608.48567099998
 30
0.0
 11
7973.3675694765952
 21
13485.93862399998
 31
0.0
  0
LINE
  5
11AF4
  8
0-6
  6
CONTINUOUS
 62
     6
 10
7973.3675694765952
 20
13485.93862399998
 30
0.0
 11
7927.8792224765966
 21
13458.09669499998
 31
0.0
  0
LINE
  5
11AF5
  8
0-6
  6
CONTINUOUS
 62
     6
 10
7927.8792224765966
 20
13458.09669499998
 30
0.0
 11
7867.0971144765936
 21
13608.48567099998
 31
0.0
  0
LINE
  5
11AF6
  8
0-6
  6
CONTINUOUS
 62
     6
 10
7927.8792224765966
 20
13458.09669499998
 30
0.0
 11
7973.3675694765952
 21
13485.93862399998
 31
0.0
  0
LINE
  5
11AF7
  8
0-6
  6
CONTINUOUS
 62
     6
 10
7695.407393313797
 20
14006.68760799998
 30
0.0
 11
7651.6818073137974
 21
13850.48478699999
 31
0.0
  0
LINE
  5
11AF8
  8
0-6
  6
CONTINUOUS
 62
     6
 10
7651.6818073137974
 20
13850.48478699999
 30
0.0
 11
7743.7026983138048
 21
13984.06269999998
 31
0.0
  0
LINE
  5
11AF9
  8
0-6
  6
CONTINUOUS
 62
     6
 10
7651.6818073137974
 20
13850.48478699999
 30
0.0
 11
7695.407393313797
 21
14006.68760799998
 31
0.0
  0
LINE
  5
11AFA
  8
0-6
  6
CONTINUOUS
 62
     6
 10
7695.407393313797
 20
14006.68760799998
 30
0.0
 11
7743.7026983138048
 21
13984.06269999998
 31
0.0
  0
LINE
  5
11AFB
  8
0-6
  6
CONTINUOUS
 62
     6
 10
7743.7026983138048
 20
13984.06269999998
 30
0.0
 11
7651.6818073137974
 21
13850.48478699999
 31
0.0
  0
LINE
  5
11AFC
  8
0-6
  6
CONTINUOUS
 62
     6
 10
7743.7026983138048
 20
13984.06269999998
 30
0.0
 11
7695.407393313797
 21
14006.68760799998
 31
0.0
  0
LINE
  5
11AFD
  8
0-6
  6
CONTINUOUS
 62
     6
 10
8356.7359844765961
 20
12808.48600099999
 30
0.0
 11
9219.3161554765957
 21
12808.48600099999
 31
0.0
  0
LINE
  5
11AFE
  8
0-6
  6
CONTINUOUS
 62
     6
 10
7950.6238914765863
 20
13472.01765999999
 30
0.0
 11
8356.7359844765961
 21
12808.48600099999
 31
0.0
  0
LINE
  5
11AFF
  8
0-6
  6
CONTINUOUS
 62
     6
 10
6801.4909204765872
 20
14025.81030354018
 30
0.0
 11
6823.9416304765864
 21
14186.456154540179
 31
0.0
  0
LINE
  5
11B00
  8
0-6
  6
CONTINUOUS
 62
     6
 10
6823.9416304765864
 20
14186.456154540179
 30
0.0
 11
6750.6044264765742
 21
14041.77512054018
 31
0.0
  0
LINE
  5
11B01
  8
0-6
  6
CONTINUOUS
 62
     6
 10
6823.9416304765864
 20
14186.456154540179
 30
0.0
 11
6801.4909204765872
 21
14025.81030354018
 31
0.0
  0
LINE
  5
11B02
  8
0-6
  6
CONTINUOUS
 62
     6
 10
6801.4909204765872
 20
14025.81030354018
 30
0.0
 11
6750.6044264765742
 21
14041.77512054018
 31
0.0
  0
LINE
  5
11B03
  8
0-6
  6
CONTINUOUS
 62
     6
 10
6750.6044264765742
 20
14041.77512054018
 30
0.0
 11
6823.9416304765864
 21
14186.456154540179
 31
0.0
  0
LINE
  5
11B04
  8
0-6
  6
CONTINUOUS
 62
     6
 10
6750.6044264765742
 20
14041.77512054018
 30
0.0
 11
6801.4909204765872
 21
14025.81030354018
 31
0.0
  0
LINE
  5
11B05
  8
0-6
  6
CONTINUOUS
 62
     6
 10
5109.3073794765842
 20
12163.519802540181
 30
0.0
 11
6189.3069834765838
 21
12163.519802540181
 31
0.0
  0
LINE
  5
11B06
  8
0-6
  6
CONTINUOUS
 62
     6
 10
6776.047178476575
 20
14033.79172254018
 30
0.0
 11
6189.3069834765838
 21
12163.519802540181
 31
0.0
  0
LINE
  5
11B07
  8
0-6
  6
CONTINUOUS
 62
     6
 10
7029.0424227628182
 20
17368.468628459501
 30
0.0
 11
7128.0826857628172
 21
17147.675105459512
 31
0.0
  0
LINE
  5
11B08
  8
0-6
  6
CONTINUOUS
 62
     6
 10
3590.1373288595291
 20
18088.215761138981
 30
0.0
 11
5584.5814808595396
 21
18088.215761138981
 31
0.0
  0
LINE
  5
11B09
  8
0-6
  6
CONTINUOUS
 62
     6
 10
12356.443015476571
 20
19519.985579
 30
0.0
 11
12448.13035747659
 21
19653.79311699999
 31
0.0
  0
LINE
  5
11B0A
  8
0-6
  6
CONTINUOUS
 62
     6
 10
12486.57161847657
 20
19616.825606999992
 30
0.0
 11
12356.443015476571
 21
19519.985579
 31
0.0
  0
LINE
  5
11B0B
  8
0-6
  6
CONTINUOUS
 62
     6
 10
12486.57161847657
 20
19616.825606999992
 30
0.0
 11
12448.13035747659
 21
19653.79311699999
 31
0.0
  0
LINE
  5
11B0C
  8
0-6
  6
CONTINUOUS
 62
     6
 10
12467.351483476599
 20
19635.30837200001
 30
0.0
 11
12984.34037147659
 21
20139.986634999979
 31
0.0
  0
LINE
  5
11B0D
  8
0-6
  6
CONTINUOUS
 62
     6
 10
12984.34037147659
 20
20139.986634999979
 30
0.0
 11
14659.33971147659
 21
20139.986634999979
 31
0.0
  0
LINE
  5
11B0E
  8
2-0
  6
DASHED3
 62
     6
 10
6906.4416304765837
 20
19278.987755999991
 30
0.0
 11
12273.94163047658
 21
19278.987755999991
 31
0.0
  0
LINE
  5
11B0F
  8
2-0
  6
DASHED3
 62
     6
 10
6863.942356476593
 20
18834.012854275759
 30
0.0
 11
6863.942356476593
 21
19363.988283999988
 31
0.0
  0
LINE
  5
11B10
  8
2-0
  6
DASHED3
 62
     6
 10
6906.4416304765837
 20
18816.477331136641
 30
0.0
 11
6906.4416304765837
 21
19363.988283999988
 31
0.0
  0
LINE
  5
11B11
  8
2-0
  6
DASHED3
 62
     6
 10
6863.942356476593
 20
19363.988283999988
 30
0.0
 11
12273.94163047658
 21
19363.988283999988
 31
0.0
  0
LINE
  5
11B12
  8
2-0
  6
DASHED3
 62
     6
 10
9473.9416304765837
 20
17769.83857947612
 30
0.0
 11
9473.9416304765837
 21
19363.988283999988
 31
0.0
  0
LINE
  5
11B13
  8
2-0
  6
DASHED3
 62
     6
 10
9516.4428844765916
 20
17752.512986708611
 30
0.0
 11
9516.4428844765916
 21
19363.988283999988
 31
0.0
  0
LINE
  5
11B14
  8
2-0
  6
DASHED3
 62
     6
 10
8505.8359867026338
 20
18164.485855999999
 30
0.0
 11
9473.9416304765782
 21
18164.485855999999
 31
0.0
  0
LINE
  5
11B15
  8
2-0
  6
DASHED3
 62
     6
 10
8283.4873577710241
 20
18254.488626999999
 30
0.0
 11
9473.9416304765782
 21
18254.488626999999
 31
0.0
  0
LINE
  5
11B16
  8
2-0
  6
DASHED3
 62
     6
 10
6976.442356476593
 20
19317.986251999992
 30
0.0
 11
9420.9419994765958
 21
18209.48625200001
 31
0.0
  0
LINE
  5
11B17
  8
2-0
  6
DASHED3
 62
     6
 10
9420.9419994766085
 20
18209.486251999992
 30
0.0
 11
8992.6404243793586
 21
17953.854388908381
 31
0.0
  0
LINE
  5
11B18
  8
2-0
  6
DASHED3
 62
     6
 10
9403.9428844765916
 20
19317.986251999992
 30
0.0
 11
7645.7250515033329
 21
18515.109199916871
 31
0.0
  0
LINE
  5
11B19
  8
2-0
  6
CENTER2
 62
     6
 10
9473.9416304765837
 20
20560.488495000009
 30
0.0
 11
9473.9416304765837
 21
19610.487834999989
 31
0.0
  0
LINE
  5
11B1A
  8
2-0
  6
CENTER2
 62
     6
 10
5576.9415254765909
 20
19317.986251999992
 30
0.0
 11
7223.4407464765818
 21
19317.986251999992
 31
0.0
  0
LINE
  5
11B1B
  8
0-8
  6
CONTINUOUS
 62
     6
 10
6906.4416304765837
 20
20560.488495000009
 30
0.0
 11
6906.4416304765837
 21
19610.487834999989
 31
0.0
  0
LINE
  5
11B1C
  8
2-0
  6
CENTER2
 62
     6
 10
5576.9415254765909
 20
16750.486251999992
 30
0.0
 11
12445.741078476591
 21
16750.486251999992
 31
0.0
  0
LINE
  5
11B1D
  8
2-0
  6
CENTER2
 62
     6
 10
5576.9415254765909
 20
13832.48625200001
 30
0.0
 11
7223.4407464765818
 21
13832.48625200001
 31
0.0
  0
LINE
  5
11B1E
  8
2-0
  6
CENTER2
 62
     6
 10
6687.6434624765952
 20
18209.48625200001
 30
0.0
 11
12445.741078476591
 21
18209.48625200001
 31
0.0
  0
LINE
  5
11B1F
  8
2-0
  6
CENTER2
 62
     6
 10
6687.6434624765952
 20
15291.48625200001
 30
0.0
 11
12445.741078476591
 21
15291.48625200001
 31
0.0
  0
ARC
  5
11B20
  8
0-1
  6
CONTINUOUS
 62
     3
 10
6889.4408914765727
 20
19505.488230999988
 30
0.0
 40
5.0
 50
269.9999850001808
 51
0.0
  0
ARC
  5
11B21
  8
0-1
  6
CONTINUOUS
 62
     3
 10
6889.4408914765727
 20
19535.487834999982
 30
0.0
 40
5.0
 50
0.0
 51
90.0
  0
ARC
  5
11B22
  8
0-1
  6
CONTINUOUS
 62
     3
 10
6825.9409044765798
 20
19535.487834999982
 30
0.0
 40
5.0
 50
90.0
 51
180.0
  0
CIRCLE
  5
11B23
  8
0-5
  6
CONTINUOUS
 62
     4
 10
9473.9416304765837
 20
20760.487175999991
 30
0.0
 40
199.9999949999999
  0
CIRCLE
  5
11B24
  8
0-5
  6
CONTINUOUS
 62
     4
 10
6906.4416304765837
 20
20760.487175999991
 30
0.0
 40
199.9999949999999
  0
CIRCLE
  5
11B25
  8
0-5
  6
CONTINUOUS
 62
     4
 10
5376.941854476594
 20
19317.986251999992
 30
0.0
 40
199.9999949999999
  0
CIRCLE
  5
11B26
  8
0-5
  6
CONTINUOUS
 62
     4
 10
5376.941854476594
 20
16750.486251999992
 30
0.0
 40
199.9999949999999
  0
CIRCLE
  5
11B27
  8
0-5
  6
CONTINUOUS
 62
     4
 10
5376.941854476594
 20
13832.48625200001
 30
0.0
 40
199.9999949999999
  0
TEXT
  5
11B28
  8
0-5
  6
CONTINUOUS
 62
     7
 10
9420.2244244765934
 20
20671.27225300001
 30
0.0
 40
160.0
  1
2
 72
     4
 11
9473.5577578099274
 21
20751.27225300001
 31
0.0
  0
TEXT
  5
11B29
  8
0-5
  6
CONTINUOUS
 62
     7
 10
6879.7749638099176
 20
20671.27225300001
 30
0.0
 40
160.0
  1
1
 72
     4
 11
6906.4416304765837
 21
20751.27225300001
 31
0.0
  0
TEXT
  5
11B2A
  8
0-5
  6
CONTINUOUS
 62
     7
 10
5323.481986476595
 20
19238.397728
 30
0.0
 40
160.0
  1
C
 72
     4
 11
5376.815319809928
 21
19318.397728
 31
0.0
  0
TEXT
  5
11B2B
  8
0-5
  6
CONTINUOUS
 62
     7
 10
5323.481986476595
 20
16670.898717999989
 30
0.0
 40
160.0
  1
B
 72
     4
 11
5376.815319809928
 21
16750.898717999989
 31
0.0
  0
TEXT
  5
11B2C
  8
0-5
  6
CONTINUOUS
 62
     7
 10
5323.481986476595
 20
13752.897728000011
 30
0.0
 40
160.0
  1
A
 72
     4
 11
5376.815319809928
 21
13832.897728000011
 31
0.0
  0
TEXT
  5
11B2D
  8
0-6
  6
CONTINUOUS
 62
     7
 10
8462.6623696411261
 20
19829.98610699999
 30
0.0
 40
160.0
  1
屋根
 72
     4
 11
8633.3290363077922
 21
19909.98610699999
 31
0.0
  0
TEXT
  5
11B2E
  8
0-6
  6
CONTINUOUS
 62
     7
 10
7075.7568624765954
 20
19850.486647999991
 30
0.0
 40
160.0
  1
桁（後）
 72
     4
 11
7395.7568624765954
 21
19930.486647999991
 31
0.0
  0
TEXT
  5
11B2F
  8
0-6
  6
CONTINUOUS
 62
     7
 10
7721.8266807479131
 20
15559.456422703921
 30
0.0
 40
160.0
  1
ブレース
 72
     4
 11
8084.4933474145791
 21
15644.789756037249
 31
0.0
  0
TEXT
  5
11B30
  8
0-6
  6
CONTINUOUS
 62
     7
 10
7848.0677911480889
 20
14178.937837099649
 30
0.0
 40
160.0
  1
桁（前）
 72
     4
 11
8168.0677911480889
 21
14258.937837099649
 31
0.0
  0
TEXT
  5
11B31
  8
0-6
  6
CONTINUOUS
 62
     7
 10
8436.7352584765995
 20
12888.48527499999
 30
0.0
 40
160.0
  1
鼻隠し前
 72
     4
 11
8799.4019251432674
 21
12968.48527499999
 31
0.0
  0
TEXT
  5
11B32
  8
0-6
  6
CONTINUOUS
 62
     7
 10
5189.3076434765808
 20
12243.51907654018
 30
0.0
 40
160.0
  1
ケラバ 左
 72
     4
 11
5605.3076434765817
 21
12323.51907654018
 31
0.0
  0
TEXT
  5
11B33
  8
0-6
  6
CONTINUOUS
 62
     7
 10
7208.082949762832
 20
17227.67536945951
 30
0.0
 40
160.0
  1
上枠
 72
     4
 11
7378.749616429498
 21
17307.67536945951
 31
0.0
  0
TEXT
  5
11B34
  8
0-6
  6
CONTINUOUS
 62
     7
 10
13064.340635476599
 20
20219.984918999991
 30
0.0
 40
160.0
  1
鼻隠しコーナー後
 72
     4
 11
13811.007302143271
 21
20299.984918999991
 31
0.0
  0
TEXT
  5
11B35
  8
2-0
  6
CONTINUOUS
 62
     7
 10
21841.769232999432
 20
3292.802588999999
 30
0.0
 40
160.0
  1
正 面 立 面 図
 72
     4
 11
22487.102566332771
 21
3372.802588999999
 31
0.0
  0
TEXT
  5
11B36
  8
2-0
  6
CONTINUOUS
 62
     7
 10
7808.7002624709367
 20
3264.0669070000022
 30
0.0
 40
160.0
  1
側 面 立 面 図
 50
0.000139
 72
     4
 11
8454.0334017217574
 21
3344.0684725833762
 31
0.0
  0
TEXT
  5
11B37
  8
0-6
  6
CONTINUOUS
 62
     7
 10
3654.1696965538349
 20
18184.267249028311
 30
0.0
 40
160.0
  1
桁中B +  桁中補強B
 72
     4
 11
4587.5030298871689
 21
18264.267249028318
 31
0.0
  0
TEXT
  5
11B38
  8
0-6
  6
CONTINUOUS
 62
     7
 10
3691.6933885261351
 20
17199.323781233761
 30
0.0
 40
160.0
  1
桁中A +  桁中補強A
 72
     4
 11
4625.026721859469
 21
17279.323781233761
 31
0.0
  0
LINE
  5
11B3C
  8
0-6
  6
CONTINUOUS
 62
     6
 10
10029.80119934641
 20
19787.010398411789
 30
0.0
 11
11294.47078498414
 21
19787.010398411789
 31
0.0
  0
TEXT
  5
11B3D
  8
0-6
  6
CONTINUOUS
 62
     7
 10
10109.800968346401
 20
19867.010662411791
 30
0.0
 40
160.0
  1
桁（後）補強
  0
LINE
  5
11B3E
  8
0-6
  6
CONTINUOUS
 62
     6
 10
9056.9704364808331
 20
19135.191705746962
 30
0.0
 11
9190.5999659863519
 21
18832.68419574801
 31
0.0
  0
LINE
  5
11B3F
  8
0-6
  6
CONTINUOUS
 62
     6
 10
8992.3194135725298
 20
19281.547230841199
 30
0.0
 11
9032.5773135460495
 21
19124.416014316921
 31
0.0
  0
LINE
  5
11B40
  8
0-6
  6
CONTINUOUS
 62
     6
 10
9032.5773135460495
 20
19124.416014316921
 30
0.0
 11
9081.3635594156112
 21
19145.967397176992
 31
0.0
  0
LINE
  5
11B41
  8
0-6
  6
CONTINUOUS
 62
     6
 10
9081.3635594156112
 20
19145.967397176992
 30
0.0
 11
8992.3194135725298
 21
19281.547230841199
 31
0.0
  0
LINE
  5
11B42
  8
0-6
  6
CONTINUOUS
 62
     6
 10
9190.5999659863483
 20
18832.68419574801
 30
0.0
 11
10029.80119934641
 21
19787.010398411789
 31
0.0
  0
TEXT
  5
11B43
  8
2-0
  6
CONTINUOUS
 62
     7
 10
9805.5255868593831
 20
3291.2638415833758
 30
0.0
 40
160.0
  1
1
 72
     4
 11
9832.1922535260492
 21
3371.2638415833749
 31
0.0
  0
TEXT
  5
11B44
  8
2-0
  6
CONTINUOUS
 62
     7
 10
10048.61430411006
 20
3211.2653095833748
 30
0.0
 40
160.0
  1
80
 72
     4
 11
10168.61430411006
 21
3291.2653095833748
 31
0.0
  0
TEXT
  5
11B45
  8
2-0
  6
CONTINUOUS
 62
     7
 10
9306.5275528593793
 20
3264.0684725833762
 30
0.0
 40
160.0
  1
(S=  /   )
 72
     4
 11
9866.5275528593793
 21
3344.0684725833762
 31
0.0
  0
TEXT
  5
11B46
  8
2-0
  6
CONTINUOUS
 62
     7
 10
23838.594751470391
 20
3319.9979579999999
 30
0.0
 40
160.0
  1
1
 72
     4
 11
23865.261418137059
 21
3399.9979579999999
 31
0.0
  0
TEXT
  5
11B47
  8
2-0
  6
CONTINUOUS
 62
     7
 10
24081.683468721101
 20
3239.9994259999989
 30
0.0
 40
160.0
  1
80
 72
     4
 11
24201.683468721101
 21
3319.9994259999989
 31
0.0
  0
TEXT
  5
11B48
  8
2-0
  6
CONTINUOUS
 62
     7
 10
23339.596717470398
 20
3292.802588999999
 30
0.0
 40
160.0
  1
(S=  /   )
 72
     4
 11
23899.596717470398
 21
3372.802588999999
 31
0.0
  0
LINE
  5
11B49
  8
2-0
  6
CENTER2
 62
     6
 10
12273.94163047658
 20
20560.488495000009
 30
0.0
 11
12273.94163047658
 21
19610.487834999989
 31
0.0
  0
CIRCLE
  5
11B4A
  8
0-5
  6
CONTINUOUS
 62
     4
 10
12273.94163047658
 20
20760.487175999991
 30
0.0
 40
199.9999949999999
  0
TEXT
  5
11B4B
  8
0-5
  6
CONTINUOUS
 62
     7
 10
12220.224424476581
 20
20671.27225300001
 30
0.0
 40
160.0
  1
3
 72
     4
 11
12273.55775780992
 21
20751.27225300001
 31
0.0
  0
LINE
  5
11B4C
  8
0-1
  6
CONTINUOUS
 62
     3
 10
12341.44186847657
 20
16587.062384390982
 30
0.0
 11
12341.44186847659
 21
19522.987175999991
 31
0.0
  0
LINE
  5
11B4D
  8
0-1
  6
CONTINUOUS
 62
     3
 10
12341.44186847659
 20
19522.987175999991
 30
0.0
 11
12359.44163047658
 21
19522.987175999991
 31
0.0
  0
LINE
  5
11B4E
  8
0-1
  6
CONTINUOUS
 62
     3
 10
12285.941116476601
 20
19505.488230999988
 30
0.0
 11
12285.941116476601
 21
19535.487834999982
 31
0.0
  0
LINE
  5
11B4F
  8
0-1
  6
CONTINUOUS
 62
     3
 10
12341.44186847659
 20
19500.485987999989
 30
0.0
 11
12290.9423704766
 21
19500.485987999989
 31
0.0
  0
LINE
  5
11B50
  8
0-1
  6
CONTINUOUS
 62
     3
 10
12359.44163047658
 20
19535.487834999982
 30
0.0
 11
12359.44163047658
 21
19500.485987999989
 31
0.0
  0
LINE
  5
11B51
  8
0-1
  6
CONTINUOUS
 62
     3
 10
12290.9423704766
 20
19540.486120000001
 30
0.0
 11
12354.44037747658
 21
19540.486120000001
 31
0.0
  0
ARC
  5
11B52
  8
0-1
  6
CONTINUOUS
 62
     3
 10
12354.44037747658
 20
19535.487834999982
 30
0.0
 40
5.0
 50
0.0
 51
90.0
  0
ARC
  5
11B53
  8
0-1
  6
CONTINUOUS
 62
     3
 10
12290.9423704766
 20
19535.487834999982
 30
0.0
 40
5.0
 50
90.0
 51
180.0
  0
ARC
  5
11B54
  8
0-1
  6
CONTINUOUS
 62
     3
 10
12290.9423704766
 20
19505.488230999988
 30
0.0
 40
5.0
 50
180.0
 51
269.9999850001808
  0
LINE
  5
11B55
  8
0-1
  6
CONTINUOUS
 62
     3
 10
9473.9416304765837
 20
13795.986899
 30
0.0
 11
9473.9416304765837
 21
13639.986978000001
 31
0.0
  0
LINE
  5
11B56
  8
0-1
  6
CONTINUOUS
 62
     3
 10
6565.0193427080039
 20
18955.657777897781
 30
0.0
 11
9882.7400838212343
 21
17603.19230765941
 31
0.0
  0
LINE
  5
11B57
  8
0-1
  6
CONTINUOUS
 62
     3
 10
12223.94199947659
 20
13671.986885
 30
0.0
 11
12223.94199947659
 21
16635.899450312161
 31
0.0
  0
LINE
  5
11B58
  8
0-1
  6
CONTINUOUS
 62
     3
 10
12359.44163047658
 20
13639.986252000001
 30
0.0
 11
12359.44163047658
 21
16579.990702284111
 31
0.0
  0
LINE
  5
11B59
  8
0-1
  6
CONTINUOUS
 62
     3
 10
12273.94163047658
 20
13795.986899
 30
0.0
 11
12273.94163047658
 21
16613.58674043581
 31
0.0
  0
LINE
  5
11B5A
  8
0-1
  6
CONTINUOUS
 62
     3
 10
12316.44288447659
 20
13795.986899
 30
0.0
 11
12316.44288447659
 21
16596.109000377732
 31
0.0
  0
LINE
  5
11B5B
  8
0-1
  6
CONTINUOUS
 62
     3
 10
12223.94199947659
 20
16635.899450312161
 30
0.0
 11
12223.94199947659
 21
19510.488495000001
 31
0.0
  0
LINE
  5
11B5C
  8
0-1
  6
CONTINUOUS
 62
     3
 10
12359.44163047658
 20
16579.990702284111
 30
0.0
 11
12359.44163047658
 21
19522.987175999991
 31
0.0
  0
LINE
  5
11B5D
  8
2-0
  6
DASHED3
 62
     6
 10
12273.94163047658
 20
16613.58674043581
 30
0.0
 11
12273.94163047658
 21
19510.488495000001
 31
0.0
  0
LINE
  5
11B5E
  8
2-0
  6
DASHED3
 62
     6
 10
12316.44288447659
 20
16596.109000377732
 30
0.0
 11
12316.44288447659
 21
19500.485987999989
 31
0.0
  0
LINE
  5
11B5F
  8
0-1
  6
CONTINUOUS
 62
     3
 10
6820.9416304765846
 20
18784.390733488079
 30
0.0
 11
6820.9416304765846
 21
19530.487571999991
 31
0.0
  0
LINE
  5
11B60
  8
0-1
  6
CONTINUOUS
 62
     3
 10
6956.4422504765953
 20
18871.363360818679
 30
0.0
 11
6956.4422504765953
 21
19510.488495000001
 31
0.0
  0
LINE
  5
11B61
  8
0-1
  6
CONTINUOUS
 62
     3
 10
9326.443741476598
 20
17829.965943221199
 30
0.0
 11
9326.443741476598
 21
19510.488495000001
 31
0.0
  0
LINE
  5
11B62
  8
0-1
  6
CONTINUOUS
 62
     3
 10
9363.4439134766035
 20
17814.882860910271
 30
0.0
 11
9363.4439134766035
 21
19510.488495000001
 31
0.0
  0
LINE
  5
11B63
  8
0-1
  6
CONTINUOUS
 62
     3
 10
9526.4444014766086
 20
17748.435878522589
 30
0.0
 11
9526.4444014766086
 21
19510.488495000001
 31
0.0
  0
LINE
  5
11B64
  8
0-1
  6
CONTINUOUS
 62
     3
 10
9563.4445734766141
 20
17733.35279621166
 30
0.0
 11
9563.4445734766141
 21
19510.488495000001
 31
0.0
  0
LINE
  5
11B65
  8
0-1
  6
CONTINUOUS
 62
     3
 10
9726.4450614766192
 20
17666.905813823982
 30
0.0
 11
9726.4450614766174
 21
19510.488495000001
 31
0.0
  0
LINE
  5
11B66
  8
0-1
  6
CONTINUOUS
 62
     3
 10
9763.4452334766229
 20
17651.82273151305
 30
0.0
 11
9763.4452334766229
 21
19510.488495000001
 31
0.0
  0
LINE
  5
11B67
  8
0-1
  6
CONTINUOUS
 62
     3
 10
9926.445721476628
 20
17709.117740013218
 30
0.0
 11
9926.4457214766244
 21
19510.488495000001
 31
0.0
  0
LINE
  5
11B68
  8
0-1
  6
CONTINUOUS
 62
     3
 10
9963.4458934766353
 20
17798.791736927971
 30
0.0
 11
9963.4458934766353
 21
19510.488495000001
 31
0.0
  0
LINE
  5
11B69
  8
0-1
  6
CONTINUOUS
 62
     3
 10
10126.44638147663
 20
17663.714145947641
 30
0.0
 11
10126.44638147663
 21
19510.488495000001
 31
0.0
  0
LINE
  5
11B6A
  8
0-1
  6
CONTINUOUS
 62
     3
 10
10163.44655347664
 20
17621.17090555876
 30
0.0
 11
10163.44655347664
 21
19510.488495000001
 31
0.0
  0
LINE
  5
11B6B
  8
0-1
  6
CONTINUOUS
 62
     3
 10
10326.44704147664
 20
17431.377017966901
 30
0.0
 11
10326.44704147664
 21
19510.488495000001
 31
0.0
  0
LINE
  5
11B6C
  8
0-1
  6
CONTINUOUS
 62
     3
 10
10363.44721347664
 20
17388.581626968818
 30
0.0
 11
10363.44721347664
 21
19510.488495000001
 31
0.0
  0
LINE
  5
11B6D
  8
0-1
  6
CONTINUOUS
 62
     3
 10
10526.447701476651
 20
17198.787791101659
 30
0.0
 11
10526.447701476651
 21
19510.488495000001
 31
0.0
  0
LINE
  5
11B6E
  8
0-1
  6
CONTINUOUS
 62
     3
 10
10563.447873476651
 20
17156.244550712781
 30
0.0
 11
10563.447873476651
 21
19510.488495000001
 31
0.0
  0
LINE
  5
11B6F
  8
0-1
  6
CONTINUOUS
 62
     3
 10
10726.44836147665
 20
17021.195778491841
 30
0.0
 11
10726.44836147665
 21
19510.488495000001
 31
0.0
  0
LINE
  5
11B70
  8
0-1
  6
CONTINUOUS
 62
     3
 10
10763.44853347667
 20
17110.874058523728
 30
0.0
 11
10763.44853347667
 21
19510.488495000001
 31
0.0
  0
LINE
  5
11B71
  8
0-1
  6
CONTINUOUS
 62
     3
 10
10926.449021476659
 20
17167.714521001009
 30
0.0
 11
10926.449021476659
 21
19510.488495000001
 31
0.0
  0
LINE
  5
11B72
  8
0-1
  6
CONTINUOUS
 62
     3
 10
10963.44919347667
 20
17152.49898434131
 30
0.0
 11
10963.44919347667
 21
19510.488495000001
 31
0.0
  0
LINE
  5
11B73
  8
0-1
  6
CONTINUOUS
 62
     3
 10
11126.449681476681
 20
17085.468487815251
 30
0.0
 11
11126.449681476681
 21
19510.488495000001
 31
0.0
  0
LINE
  5
11B74
  8
0-1
  6
CONTINUOUS
 62
     3
 10
11163.44985347669
 20
17070.252951155551
 30
0.0
 11
11163.44985347669
 21
19510.488495000001
 31
0.0
  0
LINE
  5
11B75
  8
0-1
  6
CONTINUOUS
 62
     3
 10
11326.45034147669
 20
17003.22245462946
 30
0.0
 11
11326.45034147669
 21
19510.488495000001
 31
0.0
  0
LINE
  5
11B76
  8
0-1
  6
CONTINUOUS
 62
     3
 10
11363.45051347669
 20
16988.006917969789
 30
0.0
 11
11363.45051347669
 21
19510.488495000001
 31
0.0
  0
LINE
  5
11B77
  8
0-1
  6
CONTINUOUS
 62
     3
 10
11526.451001476689
 20
16920.976421443698
 30
0.0
 11
11526.45100147668
 21
19510.488495000001
 31
0.0
  0
LINE
  5
11B78
  8
0-1
  6
CONTINUOUS
 62
     3
 10
11563.451173476709
 20
16905.760884784031
 30
0.0
 11
11563.451173476689
 21
19510.488495000001
 31
0.0
  0
LINE
  5
11B79
  8
0-1
  6
CONTINUOUS
 62
     3
 10
11726.4516614767
 20
16838.730388257951
 30
0.0
 11
11726.451661476711
 21
19510.488495000001
 31
0.0
  0
LINE
  5
11B7A
  8
0-1
  6
CONTINUOUS
 62
     3
 10
11763.451833476711
 20
16823.514851598251
 30
0.0
 11
11763.451833476711
 21
19510.488495000001
 31
0.0
  0
LINE
  5
11B7B
  8
2-0
  6
DASHED3
 62
     6
 10
11831.604217243321
 20
16795.488627999988
 30
0.0
 11
12273.94163047658
 21
16795.488627999988
 31
0.0
  0
LINE
  5
11B7C
  8
2-0
  6
DASHED3
 62
     6
 10
12050.467217738111
 20
16705.485856999989
 30
0.0
 11
12273.94163047658
 21
16705.485856999989
 31
0.0
  0
LINE
  5
11B7D
  8
0-1
  6
CONTINUOUS
 62
     3
 10
9473.9416304765837
 20
16705.485856999989
 30
0.0
 11
12050.467217738111
 21
16705.485856999989
 31
0.0
  0
LINE
  5
11B7E
  8
0-1
  6
CONTINUOUS
 62
     3
 10
9473.9416304765837
 20
16795.488627999999
 30
0.0
 11
11831.604217243321
 21
16795.488627999988
 31
0.0
  0
LINE
  5
11B7F
  8
0-1
  6
CONTINUOUS
 62
     3
 10
9473.9416304765837
 20
15336.487638000021
 30
0.0
 11
12273.94163047658
 21
15336.487638000021
 31
0.0
  0
LINE
  5
11B80
  8
0-1
  6
CONTINUOUS
 62
     3
 10
9473.9416304765837
 20
15246.485856000019
 30
0.0
 11
12273.94163047658
 21
15246.485856000019
 31
0.0
  0
LINE
  5
11B81
  8
2-0
  6
DASHED3
 62
     6
 10
12273.94163047658
 20
18164.485855999999
 30
0.0
 11
9473.9416304765782
 21
18164.485855999999
 31
0.0
  0
LINE
  5
11B82
  8
2-0
  6
DASHED3
 62
     6
 10
12273.94163047658
 20
18254.488626999999
 30
0.0
 11
9473.9416304765782
 21
18254.488626999999
 31
0.0
  0
LINE
  5
11B83
  8
0-1
  6
CONTINUOUS
 62
     3
 10
12094.44199947659
 20
15291.48625200001
 30
0.0
 11
9642.9428844765953
 21
13832.48625200001
 31
0.0
  0
LINE
  5
11B84
  8
0-1
  6
CONTINUOUS
 62
     3
 10
9642.9428844765953
 20
16750.486251999992
 30
0.0
 11
12094.44199947659
 21
15291.48625200001
 31
0.0
  0
LINE
  5
11B85
  8
0-1
  6
CONTINUOUS
 62
     3
 10
9642.9428844765916
 20
15291.48625200001
 30
0.0
 11
12031.757511744419
 21
16713.179827110162
 31
0.0
  0
LINE
  5
11B86
  8
0-1
  6
CONTINUOUS
 62
     3
 10
12094.44199947659
 20
13832.48625200001
 30
0.0
 11
9642.9428844765916
 21
15291.48625200001
 31
0.0
  0
LINE
  5
11B87
  8
0-6
  6
CONTINUOUS
 62
     6
 10
12220.94199947659
 20
14298.52086206411
 30
0.0
 11
11321.504590053821
 21
12808.48600099999
 31
0.0
  0
LINE
  5
11B88
  8
2-0
  6
DASHED3
 62
     6
 10
9642.9428844765916
 20
18209.48625200001
 30
0.0
 11
12094.44199947659
 21
16750.486251999992
 31
0.0
  0
LINE
  5
11B89
  8
2-0
  6
DASHED3
 62
     6
 10
12094.44199947659
 20
18209.48625200001
 30
0.0
 11
10482.920507729439
 21
17250.395611472039
 31
0.0
  0
LINE
  5
11B8A
  8
0-1
  6
CONTINUOUS
 62
     3
 10
10482.920507729439
 20
17250.395611472039
 30
0.0
 11
9642.9428844765953
 21
16750.486251999992
 31
0.0
  0
LINE
  5
11B8B
  8
2-0
  6
DASHED3
 62
     6
 10
12094.44199947659
 20
19317.986251999992
 30
0.0
 11
9642.9428844765916
 21
18209.48625200001
 31
0.0
  0
LINE
  5
11B8C
  8
2-0
  6
DASHED3
 62
     6
 10
9642.9428844765953
 20
19317.986251999992
 30
0.0
 11
12094.44199947659
 21
18209.48625200001
 31
0.0
  0
LINE
  5
11B8D
  8
0-6
  6
CONTINUOUS
 62
     6
 10
5584.5814808595396
 20
18088.215761138981
 30
0.0
 11
7271.7374540387173
 21
17696.726770879792
 31
0.0
  0
LINE
  5
11B8E
  8
0-6
  6
CONTINUOUS
 62
     6
 10
7271.7374540387173
 20
17696.726770879792
 30
0.0
 11
7622.8291852355414
 21
18164.485856000021
 31
0.0
  0
LINE
  5
11B8F
  8
0-1
  6
CONTINUOUS
 62
     3
 10
9882.7395460614607
 20
17603.191004339282
 30
0.0
 11
9978.0935663849814
 21
17834.291987445478
 31
0.0
  0
LINE
  5
11B90
  8
0-1
  6
CONTINUOUS
 62
     3
 10
10711.793098568191
 20
16985.67543628786
 30
0.0
 11
10807.14374824571
 21
17216.77928799433
 31
0.0
  0
LINE
  5
11B91
  8
0-1
  6
CONTINUOUS
 62
     3
 10
10711.793098568191
 20
16985.67543628786
 30
0.0
 11
9978.0935663849814
 21
17834.291987445478
 31
0.0
  0
LINE
  5
11B92
  8
0-1
  6
CONTINUOUS
 62
     3
 10
10807.14268946686
 20
17216.776721804479
 30
0.0
 11
12653.00244898217
 21
16457.70601155105
 31
0.0
  0
TEXT
  5
11B93
  8
2-0
  6
CONTINUOUS
 62
     7
 10
21935.765181876552
 20
11251.104441999991
 30
0.0
 40
160.0
  1
平　面　図
 72
     4
 11
22389.09851520988
 21
11325.77110866666
 31
0.0
  0
TEXT
  5
11B94
  8
2-0
  6
CONTINUOUS
 62
     7
 10
8012.9000086175347
 20
11156.81700299998
 30
0.0
 40
160.0
  1
小 屋 伏 図
 72
     4
 11
8514.2333419508686
 21
11236.81700299998
 31
0.0
  0
TEXT
  5
11B95
  8
2-0
  6
CONTINUOUS
 62
     7
 10
23740.5907003475
 20
11272.96647766667
 30
0.0
 40
160.0
  1
1
 72
     4
 11
23767.257367014168
 21
11352.96647766667
 31
0.0
  0
TEXT
  5
11B96
  8
2-0
  6
CONTINUOUS
 62
     7
 10
23983.6794175982
 20
11192.967945666671
 30
0.0
 40
160.0
  1
80
 72
     4
 11
24103.6794175982
 21
11272.967945666671
 31
0.0
  0
TEXT
  5
11B97
  8
2-0
  6
CONTINUOUS
 62
     7
 10
23241.592666347511
 20
11245.77110866666
 30
0.0
 40
160.0
  1
(S=  /   )
 72
     4
 11
23801.592666347511
 21
11325.77110866666
 31
0.0
  0
TEXT
  5
11B98
  8
2-0
  6
CONTINUOUS
 62
     7
 10
9865.7255270884998
 20
11184.012371999979
 30
0.0
 40
160.0
  1
1
 72
     4
 11
9892.3921937551622
 21
11264.012371999979
 31
0.0
  0
TEXT
  5
11B99
  8
2-0
  6
CONTINUOUS
 62
     7
 10
10108.81424433919
 20
11104.01383999998
 30
0.0
 40
160.0
  1
80
 72
     4
 11
10228.81424433919
 21
11184.01383999998
 31
0.0
  0
TEXT
  5
11B9A
  8
2-0
  6
CONTINUOUS
 62
     7
 10
9366.7274930884923
 20
11156.81700299998
 30
0.0
 40
160.0
  1
(S=  /   )
 72
     4
 11
9926.7274930884923
 21
11236.81700299998
 31
0.0
  0
LINE
  5
11B9B
  8
2-0
  6
DASHED3
 62
     6
 10
12031.757511744419
 20
16713.179827110162
 30
0.0
 11
12094.44199947659
 21
16750.486251999992
 31
0.0
  0
LINE
  5
11B9C
  8
0-6
  6
CONTINUOUS
 62
     6
 10
3590.1373288595291
 20
15131.817388473881
 30
0.0
 11
5584.5814808595396
 21
15131.817388473881
 31
0.0
  0
TEXT
  5
11B9D
  8
0-6
  6
CONTINUOUS
 62
     7
 10
3654.1696965538349
 20
15227.868876363211
 30
0.0
 40
160.0
  1
桁中B +  桁中補強B
 72
     4
 11
4587.5030298871689
 21
15307.868876363211
 31
0.0
  0
LINE
  5
11B9E
  8
0-6
  6
CONTINUOUS
 62
     6
 10
5584.5814808595396
 20
15131.817388473881
 30
0.0
 11
7200.1887366383662
 21
14645.00412931599
 31
0.0
  0
LINE
  5
11B9F
  8
0-6
  6
CONTINUOUS
 62
     6
 10
7200.1887366383662
 20
14645.00412931599
 30
0.0
 11
7622.8291852355414
 21
15208.087483334901
 31
0.0
  0
LINE
  5
11BA0
  8
0-6
  6
CONTINUOUS
 62
     6
 10
5622.1051728318444
 20
17103.270314344409
 30
0.0
 11
7535.740956702577
 21
16276.676348604609
 31
0.0
  0
LINE
  5
11BA1
  8
0-6
  6
CONTINUOUS
 62
     6
 10
7535.740956702577
 20
16276.676348604609
 30
0.0
 11
7793.3653274936141
 21
16694.98542100003
 31
0.0
  0
LINE
  5
11BA7
  8
0-1
  6
CONTINUOUS
 62
     3
 10
19816.006397585181
 20
8132.6883740000021
 30
0.0
 11
22298.509828585142
 21
8132.6883740000021
 31
0.0
  0
LINE
  5
11BA8
  8
0-1
  6
CONTINUOUS
 62
     3
 10
19816.006397585181
 20
8326.1887430000024
 30
0.0
 11
22298.509828585142
 21
8326.1887430000024
 31
0.0
  0
LINE
  5
11BA9
  8
0-1
  6
CONTINUOUS
 62
     3
 10
19688.010092585158
 20
8264.0026619999971
 30
0.0
 11
19688.010092585158
 21
8589.6883999999973
 31
0.0
  0
LINE
  5
11BAA
  8
0-1
  6
CONTINUOUS
 62
     3
 10
22383.508377585149
 20
8459.6884660000014
 30
0.0
 11
19688.010092585158
 21
8459.6884660000014
 31
0.0
  0
LINE
  5
11BAB
  8
0-1
  6
CONTINUOUS
 62
     3
 10
19688.010092585158
 20
8589.6883999999973
 30
0.0
 11
22363.51128058515
 21
8589.6883999999973
 31
0.0
  0
LINE
  5
11BAC
  8
0-1
  6
CONTINUOUS
 62
     3
 10
7680.7332144709544
 20
8152.2344180000064
 30
0.0
 11
7680.7332144709544
 21
6291.1885390000007
 31
0.0
  0
LINE
  5
11BAD
  8
0-1
  6
CONTINUOUS
 62
     3
 10
7643.7350224709498
 20
8152.2344180000064
 30
0.0
 11
7643.7350224709498
 21
6291.1885390000007
 31
0.0
  0
LINE
  5
11BAE
  8
0-1
  6
CONTINUOUS
 62
     3
 10
8380.7325544709438
 20
8152.2344180000064
 30
0.0
 11
8380.7325544709438
 21
6291.1885390000007
 31
0.0
  0
LINE
  5
11BAF
  8
0-1
  6
CONTINUOUS
 62
     3
 10
8343.7343624709429
 20
8152.2344180000064
 30
0.0
 11
8343.7343624709429
 21
6291.1885390000007
 31
0.0
  0
LINE
  5
11BB0
  8
0-1
  6
CONTINUOUS
 62
     3
 10
8002.2327654709406
 20
6291.1885390000007
 30
0.0
 11
8002.2327654709406
 21
8152.2344180000064
 31
0.0
  0
LINE
  5
11BB1
  8
0-1
  6
CONTINUOUS
 62
     3
 10
8022.2338214709553
 20
6291.1885390000007
 30
0.0
 11
8022.2338214709553
 21
8152.2344180000064
 31
0.0
  0
LINE
  5
11BB2
  8
0-1
  6
CONTINUOUS
 62
     3
 10
7952.234085470951
 20
6291.1885390000007
 30
0.0
 11
7952.234085470951
 21
8152.2344180000064
 31
0.0
  0
LINE
  5
11BB3
  8
0-1
  6
CONTINUOUS
 62
     3
 10
8072.2334914709509
 20
6291.1885390000007
 30
0.0
 11
8072.2334914709509
 21
8152.2344180000064
 31
0.0
  0
LINE
  5
11BB4
  8
0-1
  6
CONTINUOUS
 62
     3
 10
8205.2333854709432
 20
6291.1885390000007
 30
0.0
 11
8205.2333854709432
 21
8152.2344180000064
 31
0.0
  0
LINE
  5
11BB5
  8
0-1
  6
CONTINUOUS
 62
     3
 10
8220.2331874709525
 20
6291.1885390000007
 30
0.0
 11
8220.2331874709525
 21
8152.2344180000064
 31
0.0
  0
LINE
  5
11BB6
  8
0-1
  6
CONTINUOUS
 62
     3
 10
7819.2332004709469
 20
6291.1885390000007
 30
0.0
 11
7819.2332004709469
 21
8152.2344180000064
 31
0.0
  0
LINE
  5
11BB7
  8
0-1
  6
CONTINUOUS
 62
     3
 10
7804.234388470948
 20
6291.1885390000007
 30
0.0
 11
7804.234388470948
 21
8152.2344180000064
 31
0.0
  0
LINE
  5
11BB8
  8
0-1
  6
CONTINUOUS
 62
     3
 10
7520.2338474709468
 20
6291.1885390000007
 30
0.0
 11
7520.2338474709468
 21
8152.2344180000064
 31
0.0
  0
LINE
  5
11BB9
  8
0-1
  6
CONTINUOUS
 62
     3
 10
7505.2330554709488
 20
6291.1885390000007
 30
0.0
 11
7505.2330554709488
 21
8152.2344180000064
 31
0.0
  0
LINE
  5
11BBA
  8
0-1
  6
CONTINUOUS
 62
     3
 10
7372.2341514709442
 20
6291.1885390000007
 30
0.0
 11
7372.2341514709442
 21
8152.2344180000064
 31
0.0
  0
LINE
  5
11BBB
  8
0-1
  6
CONTINUOUS
 62
     3
 10
7252.232765470947
 20
6291.1885390000007
 30
0.0
 11
7252.232765470947
 21
8152.2344180000064
 31
0.0
  0
LINE
  5
11BBC
  8
0-1
  6
CONTINUOUS
 62
     3
 10
7322.2354704709542
 20
6291.1885390000007
 30
0.0
 11
7322.2354704709542
 21
8152.2344180000064
 31
0.0
  0
LINE
  5
11BBD
  8
0-1
  6
CONTINUOUS
 62
     3
 10
7302.2344154709544
 20
6291.1885390000007
 30
0.0
 11
7302.2344154709544
 21
8152.2344180000064
 31
0.0
  0
LINE
  5
11BBE
  8
0-1
  6
CONTINUOUS
 62
     3
 10
8504.2327394709464
 20
6291.1885390000007
 30
0.0
 11
8504.2327394709464
 21
8152.2344180000064
 31
0.0
  0
LINE
  5
11BBF
  8
0-1
  6
CONTINUOUS
 62
     3
 10
8519.2335304709541
 20
6291.1885390000007
 30
0.0
 11
8519.2335304709541
 21
8152.2344180000064
 31
0.0
  0
LINE
  5
11BC0
  8
0-1
  6
CONTINUOUS
 62
     3
 10
8652.2344154709554
 20
6291.1885390000007
 30
0.0
 11
8652.2344154709554
 21
8152.2344180000064
 31
0.0
  0
LINE
  5
11BC1
  8
0-1
  6
CONTINUOUS
 62
     3
 10
8920.2335174709515
 20
6291.1885390000007
 30
0.0
 11
8920.2335174709515
 21
8152.2344180000064
 31
0.0
  0
LINE
  5
11BC2
  8
0-1
  6
CONTINUOUS
 62
     3
 10
8905.2347054709517
 20
6291.1885390000007
 30
0.0
 11
8905.2347054709517
 21
8152.2344180000064
 31
0.0
  0
LINE
  5
11BC3
  8
0-1
  6
CONTINUOUS
 62
     3
 10
8772.2338214709416
 20
6291.1885390000007
 30
0.0
 11
8772.2338214709416
 21
8152.2344180000064
 31
0.0
  0
LINE
  5
11BC4
  8
0-1
  6
CONTINUOUS
 62
     3
 10
8722.2341514709442
 20
6291.1885390000007
 30
0.0
 11
8722.2341514709442
 21
8152.2344180000064
 31
0.0
  0
LINE
  5
11BC5
  8
0-1
  6
CONTINUOUS
 62
     3
 10
8702.2350744709547
 20
6291.1885390000007
 30
0.0
 11
8702.2350744709547
 21
8152.2344180000064
 31
0.0
  0
LINE
  5
11BC6
  8
0-1
  6
CONTINUOUS
 62
     3
 10
9530.2340454709465
 20
6291.1885390000007
 30
0.0
 11
9530.2340454709465
 21
8152.2344180000064
 31
0.0
  0
LINE
  5
11BC7
  8
0-1
  6
CONTINUOUS
 62
     3
 10
9510.2349694709555
 20
6291.1885390000007
 30
0.0
 11
9510.2349694709555
 21
8152.2344180000064
 31
0.0
  0
LINE
  5
11BC8
  8
0-1
  6
CONTINUOUS
 62
     3
 10
9580.2347054709426
 20
6291.1885390000007
 30
0.0
 11
9580.2347054709426
 21
8152.2344180000064
 31
0.0
  0
LINE
  5
11BC9
  8
0-1
  6
CONTINUOUS
 62
     3
 10
9460.2343094709522
 20
6291.1885390000007
 30
0.0
 11
9460.2343094709522
 21
8152.2344180000064
 31
0.0
  0
LINE
  5
11BCA
  8
0-1
  6
CONTINUOUS
 62
     3
 10
9327.2344154709444
 20
6291.1885390000007
 30
0.0
 11
9327.2344154709444
 21
8152.2344180000064
 31
0.0
  0
LINE
  5
11BCB
  8
0-1
  6
CONTINUOUS
 62
     3
 10
9312.2326334709396
 20
6291.1885390000007
 30
0.0
 11
9312.2326334709396
 21
8152.2344180000064
 31
0.0
  0
LINE
  5
11BCC
  8
0-1
  6
CONTINUOUS
 62
     3
 10
9713.2345994709522
 20
6291.1885390000007
 30
0.0
 11
9713.2345994709522
 21
8152.2344180000064
 31
0.0
  0
LINE
  5
11BCD
  8
0-1
  6
CONTINUOUS
 62
     3
 10
9728.2334124709523
 20
6291.1885390000007
 30
0.0
 11
9728.2334124709523
 21
8152.2344180000064
 31
0.0
  0
LINE
  5
11BCE
  8
0-1
  6
CONTINUOUS
 62
     3
 10
11412.233623470929
 20
6291.1885390000007
 30
0.0
 11
11412.233623470929
 21
8152.2344180000064
 31
0.0
  0
LINE
  5
11BCF
  8
0-1
  6
CONTINUOUS
 62
     3
 10
11427.23342547094
 20
6291.1885390000007
 30
0.0
 11
11427.23342547094
 21
8152.2344180000064
 31
0.0
  0
LINE
  5
11BD0
  8
0-1
  6
CONTINUOUS
 62
     3
 10
11560.23430947095
 20
6291.1885390000007
 30
0.0
 11
11560.23430947095
 21
8152.2344180000064
 31
0.0
  0
LINE
  5
11BD1
  8
0-1
  6
CONTINUOUS
 62
     3
 10
11680.23371547094
 20
6291.1885390000007
 30
0.0
 11
11680.23371547094
 21
8152.2344180000064
 31
0.0
  0
LINE
  5
11BD2
  8
0-1
  6
CONTINUOUS
 62
     3
 10
11610.23496947095
 20
6291.1885390000007
 30
0.0
 11
11610.23496947095
 21
8152.2344180000064
 31
0.0
  0
LINE
  5
11BD3
  8
0-1
  6
CONTINUOUS
 62
     3
 10
11630.23404547095
 20
6291.1885390000007
 30
0.0
 11
11630.23404547095
 21
8152.2344180000064
 31
0.0
  0
LINE
  5
11BD4
  8
0-1
  6
CONTINUOUS
 62
     3
 10
10930.23470547095
 20
6291.1885390000007
 30
0.0
 11
10930.23470547095
 21
8152.2344180000064
 31
0.0
  0
LINE
  5
11BD5
  8
0-1
  6
CONTINUOUS
 62
     3
 10
10910.233649470951
 20
6291.1885390000007
 30
0.0
 11
10910.233649470951
 21
8152.2344180000064
 31
0.0
  0
LINE
  5
11BD6
  8
0-1
  6
CONTINUOUS
 62
     3
 10
10980.23338547094
 20
6291.1885390000007
 30
0.0
 11
10980.23338547094
 21
8152.2344180000064
 31
0.0
  0
LINE
  5
11BD7
  8
0-1
  6
CONTINUOUS
 62
     3
 10
10860.234969470939
 20
6291.1885390000007
 30
0.0
 11
10860.234969470939
 21
8152.2344180000064
 31
0.0
  0
LINE
  5
11BD8
  8
0-1
  6
CONTINUOUS
 62
     3
 10
10727.23408547094
 20
6291.1885390000007
 30
0.0
 11
10727.23408547094
 21
8152.2344180000064
 31
0.0
  0
LINE
  5
11BD9
  8
0-1
  6
CONTINUOUS
 62
     3
 10
10712.23428347094
 20
6291.1885390000007
 30
0.0
 11
10712.23428347094
 21
8152.2344180000064
 31
0.0
  0
LINE
  5
11BDA
  8
0-1
  6
CONTINUOUS
 62
     3
 10
11113.232290470951
 20
6291.1885390000007
 30
0.0
 11
11113.232290470951
 21
8152.2344180000064
 31
0.0
  0
LINE
  5
11BDB
  8
0-1
  6
CONTINUOUS
 62
     3
 10
11128.23407147095
 20
6291.1885390000007
 30
0.0
 11
11128.23407147095
 21
8152.2344180000064
 31
0.0
  0
LINE
  5
11BDC
  8
0-1
  6
CONTINUOUS
 62
     3
 10
10428.23473147095
 20
6291.1885390000007
 30
0.0
 11
10428.23473147095
 21
8152.2344180000064
 31
0.0
  0
LINE
  5
11BDD
  8
0-1
  6
CONTINUOUS
 62
     3
 10
10413.232950470951
 20
6291.1885390000007
 30
0.0
 11
10413.232950470951
 21
8152.2344180000064
 31
0.0
  0
LINE
  5
11BDE
  8
0-1
  6
CONTINUOUS
 62
     3
 10
10012.23494247095
 20
6291.1885390000007
 30
0.0
 11
10012.23494247095
 21
8152.2344180000064
 31
0.0
  0
LINE
  5
11BDF
  8
0-1
  6
CONTINUOUS
 62
     3
 10
10027.23375547093
 20
6291.1885390000007
 30
0.0
 11
10027.23375547093
 21
8152.2344180000064
 31
0.0
  0
LINE
  5
11BE0
  8
0-1
  6
CONTINUOUS
 62
     3
 10
10160.23265947095
 20
6291.1885390000007
 30
0.0
 11
10160.23265947095
 21
8152.2344180000064
 31
0.0
  0
LINE
  5
11BE1
  8
0-1
  6
CONTINUOUS
 62
     3
 10
10280.23404547095
 20
6291.1885390000007
 30
0.0
 11
10280.23404547095
 21
8152.2344180000064
 31
0.0
  0
LINE
  5
11BE2
  8
0-1
  6
CONTINUOUS
 62
     3
 10
10210.234309470939
 20
6291.1885390000007
 30
0.0
 11
10210.234309470939
 21
8152.2344180000064
 31
0.0
  0
LINE
  5
11BE3
  8
0-1
  6
CONTINUOUS
 62
     3
 10
10230.23338547095
 20
6291.1885390000007
 30
0.0
 11
10230.23338547095
 21
8152.2344180000064
 31
0.0
  0
LINE
  5
11BE4
  8
0-1
  6
CONTINUOUS
 62
     3
 10
9888.7347584709532
 20
8152.2344180000064
 30
0.0
 11
9888.7347584709532
 21
6291.1885390000007
 31
0.0
  0
LINE
  5
11BE5
  8
0-1
  6
CONTINUOUS
 62
     3
 10
9851.7335964709564
 20
8152.2344180000064
 30
0.0
 11
9851.7335964709564
 21
6291.1885390000007
 31
0.0
  0
LINE
  5
11BE6
  8
0-1
  6
CONTINUOUS
 62
     3
 10
11288.73244847095
 20
8152.2344180000064
 30
0.0
 11
11288.73244847095
 21
6291.1885390000007
 31
0.0
  0
LINE
  5
11BE7
  8
0-1
  6
CONTINUOUS
 62
     3
 10
11251.733266470939
 20
8152.2344180000064
 30
0.0
 11
11251.733266470939
 21
6291.1885390000007
 31
0.0
  0
LINE
  5
11BE8
  8
0-1
  6
CONTINUOUS
 62
     3
 10
10588.734098470941
 20
8152.2344180000064
 30
0.0
 11
10588.734098470941
 21
6291.1885390000007
 31
0.0
  0
LINE
  5
11BE9
  8
0-1
  6
CONTINUOUS
 62
     3
 10
10551.733926470941
 20
8152.2344180000064
 30
0.0
 11
10551.733926470941
 21
6291.1885390000007
 31
0.0
  0
LINE
  5
11BEA
  8
0-1
  6
CONTINUOUS
 62
     3
 10
22391.00877358517
 20
6241.1883740000021
 30
0.0
 11
22291.009432585161
 21
6241.1883740000021
 31
0.0
  0
LINE
  5
11BEB
  8
0-1
  6
CONTINUOUS
 62
     3
 10
22291.009432585161
 20
6241.1883740000021
 30
0.0
 11
22291.009432585161
 21
6141.1885390000007
 31
0.0
  0
LINE
  5
11BEC
  8
0-1
  6
CONTINUOUS
 62
     3
 10
22391.00877358517
 20
6141.1885390000007
 30
0.0
 11
22391.00877358517
 21
6241.1883740000021
 31
0.0
  0
LINE
  5
11BED
  8
0-1
  6
CONTINUOUS
 62
     3
 10
22298.509828585142
 20
8459.6884660000014
 30
0.0
 11
22298.509828585142
 21
6241.1883740000021
 31
0.0
  0
LINE
  5
11BEE
  8
0-1
  6
CONTINUOUS
 62
     3
 10
22247.010092585158
 20
8132.6883740000021
 30
0.0
 11
22247.010092585158
 21
6141.1885390000007
 31
0.0
  0
LINE
  5
11BEF
  8
0-1
  6
CONTINUOUS
 62
     3
 10
22363.51128058516
 20
8589.6883999999973
 30
0.0
 11
22363.51128058516
 21
6241.1883740000021
 31
0.0
  0
LINE
  5
11BF0
  8
0-1
  6
CONTINUOUS
 62
     3
 10
22383.510092585158
 20
8459.6884660000014
 30
0.0
 11
22383.510092585158
 21
6241.1883740000021
 31
0.0
  0
LINE
  5
11BF1
  8
0-1
  6
CONTINUOUS
 62
     3
 10
19688.010092585158
 20
8264.0026619999971
 30
0.0
 11
19731.010092585158
 21
8264.0026619999971
 31
0.0
  0
LINE
  5
11BF2
  8
0-1
  6
CONTINUOUS
 62
     3
 10
19723.50745358516
 20
6241.1883740000021
 30
0.0
 11
19823.506793585169
 21
6241.1883740000021
 31
0.0
  0
LINE
  5
11BF3
  8
0-1
  6
CONTINUOUS
 62
     3
 10
19823.506793585169
 20
6241.1883740000021
 30
0.0
 11
19823.506793585169
 21
6141.1885390000007
 31
0.0
  0
LINE
  5
11BF4
  8
0-1
  6
CONTINUOUS
 62
     3
 10
19723.50745358516
 20
6141.1885390000007
 30
0.0
 11
19723.50745358516
 21
6241.1883740000021
 31
0.0
  0
LINE
  5
11BF5
  8
0-1
  6
CONTINUOUS
 62
     3
 10
19867.510092585158
 20
8132.6883740000021
 30
0.0
 11
19867.510092585158
 21
6141.1885390000007
 31
0.0
  0
LINE
  5
11BF6
  8
0-1
  6
CONTINUOUS
 62
     3
 10
19816.006397585181
 20
8459.6884660000014
 30
0.0
 11
19816.006397585181
 21
6241.1883740000021
 31
0.0
  0
LINE
  5
11BF7
  8
0-1
  6
CONTINUOUS
 62
     3
 10
19751.006925585149
 20
8589.6883999999973
 30
0.0
 11
19751.006925585149
 21
6241.1883740000021
 31
0.0
  0
LINE
  5
11BF8
  8
0-1
  6
CONTINUOUS
 62
     3
 10
19731.010092585158
 20
8459.6884660000014
 30
0.0
 11
19731.010092585158
 21
6241.1883740000021
 31
0.0
  0
LINE
  5
11BF9
  8
0-1
  6
CONTINUOUS
 62
     3
 10
12089.23357047094
 20
6241.1883740000021
 30
0.0
 11
12089.23357047094
 21
6141.1885390000007
 31
0.0
  0
LINE
  5
11BFA
  8
0-1
  6
CONTINUOUS
 62
     3
 10
12056.73277947094
 20
8455.5174490000027
 30
0.0
 11
12056.73277947094
 21
6241.1883740000021
 31
0.0
  0
LINE
  5
11BFB
  8
0-1
  6
CONTINUOUS
 62
     3
 10
12076.73357047094
 20
8456.0984379999973
 30
0.0
 11
12076.73357047094
 21
6241.1883740000021
 31
0.0
  0
LINE
  5
11BFC
  8
0-1
  6
CONTINUOUS
 62
     3
 10
11961.73370247093
 20
8152.2344180000064
 30
0.0
 11
11961.73370247093
 21
6241.1883740000021
 31
0.0
  0
LINE
  5
11BFD
  8
0-1
  6
CONTINUOUS
 62
     3
 10
9116.233570470944
 20
8356.9898809999977
 30
0.0
 11
9116.233570470944
 21
8152.2344180000064
 31
0.0
  0
LINE
  5
11BFE
  8
0-1
  6
CONTINUOUS
 62
     3
 10
9043.7337024709523
 20
8152.2344180000064
 30
0.0
 11
9043.7337024709523
 21
6241.1883740000021
 31
0.0
  0
LINE
  5
11BFF
  8
0-1
  6
CONTINUOUS
 62
     3
 10
9188.7324484709425
 20
8152.2344180000064
 30
0.0
 11
9188.7324484709425
 21
6241.1883740000021
 31
0.0
  0
LINE
  5
11C00
  8
0-1
  6
CONTINUOUS
 62
     3
 10
9188.7324484709425
 20
6291.1885390000007
 30
0.0
 11
11961.73370247093
 21
6291.1885390000007
 31
0.0
  0
LINE
  5
11C01
  8
0-1
  6
CONTINUOUS
 62
     3
 10
19867.510092585158
 20
6661.1892649999991
 30
0.0
 11
22247.010092585158
 21
6661.1892649999991
 31
0.0
  0
LINE
  5
11C02
  8
0-1
  6
CONTINUOUS
 62
     3
 10
19867.510092585158
 20
6596.1888030000027
 30
0.0
 11
22247.010092585158
 21
6596.1888030000027
 31
0.0
  0
LINE
  5
11C03
  8
0-1
  6
CONTINUOUS
 62
     3
 10
19867.510092585158
 20
6531.1888360000003
 30
0.0
 11
22247.010092585158
 21
6531.1888360000003
 31
0.0
  0
LINE
  5
11C04
  8
0-1
  6
CONTINUOUS
 62
     3
 10
19867.510092585158
 20
6466.1883740000039
 30
0.0
 11
22247.010092585158
 21
6466.1883740000039
 31
0.0
  0
LINE
  5
11C05
  8
0-1
  6
CONTINUOUS
 62
     3
 10
19867.510092585158
 20
6401.1889020000071
 30
0.0
 11
22247.010092585158
 21
6401.1889020000071
 31
0.0
  0
LINE
  5
11C06
  8
0-1
  6
CONTINUOUS
 62
     3
 10
19867.510092585158
 20
6336.1889349999956
 30
0.0
 11
22247.010092585158
 21
6336.1889349999956
 31
0.0
  0
LINE
  5
11C07
  8
0-1
  6
CONTINUOUS
 62
     3
 10
19867.510092585158
 20
6271.1889680000004
 30
0.0
 11
22247.010092585158
 21
6271.1889680000004
 31
0.0
  0
LINE
  5
11C08
  8
0-1
  6
CONTINUOUS
 62
     3
 10
19867.510092585158
 20
6206.1885060000041
 30
0.0
 11
22247.010092585158
 21
6206.1885060000041
 31
0.0
  0
LINE
  5
11C09
  8
0-1
  6
CONTINUOUS
 62
     3
 10
19867.510092585158
 20
8026.1885719999982
 30
0.0
 11
22247.010092585158
 21
8026.1885719999982
 31
0.0
  0
LINE
  5
11C0A
  8
0-1
  6
CONTINUOUS
 62
     3
 10
19867.510092585158
 20
7961.1886050000021
 30
0.0
 11
22247.010092585158
 21
7961.1886050000021
 31
0.0
  0
LINE
  5
11C0B
  8
0-1
  6
CONTINUOUS
 62
     3
 10
19867.510092585158
 20
7896.1891330000062
 30
0.0
 11
22247.010092585158
 21
7896.1891330000062
 31
0.0
  0
LINE
  5
11C0C
  8
0-1
  6
CONTINUOUS
 62
     3
 10
19867.510092585158
 20
7831.1891659999937
 30
0.0
 11
22247.010092585158
 21
7831.1891659999937
 31
0.0
  0
LINE
  5
11C0D
  8
0-1
  6
CONTINUOUS
 62
     3
 10
19867.510092585158
 20
7766.1891989999967
 30
0.0
 11
22247.010092585158
 21
7766.1891989999967
 31
0.0
  0
LINE
  5
11C0E
  8
0-1
  6
CONTINUOUS
 62
     3
 10
19867.510092585158
 20
7701.1887370000022
 30
0.0
 11
22247.010092585158
 21
7701.1887370000022
 31
0.0
  0
LINE
  5
11C0F
  8
0-1
  6
CONTINUOUS
 62
     3
 10
19867.510092585158
 20
7636.1887699999979
 30
0.0
 11
22247.010092585158
 21
7636.1887699999979
 31
0.0
  0
LINE
  5
11C10
  8
0-1
  6
CONTINUOUS
 62
     3
 10
19867.510092585158
 20
7571.1892980000011
 30
0.0
 11
22247.010092585158
 21
7571.1892980000011
 31
0.0
  0
LINE
  5
11C11
  8
0-1
  6
CONTINUOUS
 62
     3
 10
19867.510092585158
 20
7506.1893309999978
 30
0.0
 11
22247.010092585158
 21
7506.1893309999978
 31
0.0
  0
LINE
  5
11C12
  8
0-1
  6
CONTINUOUS
 62
     3
 10
19867.510092585158
 20
7441.1888690000023
 30
0.0
 11
22247.010092585158
 21
7441.1888690000023
 31
0.0
  0
LINE
  5
11C13
  8
0-1
  6
CONTINUOUS
 62
     3
 10
19867.510092585158
 20
7376.188901999999
 30
0.0
 11
22247.010092585158
 21
7376.188901999999
 31
0.0
  0
LINE
  5
11C14
  8
0-1
  6
CONTINUOUS
 62
     3
 10
19867.510092585158
 20
7311.1889350000029
 30
0.0
 11
22247.010092585158
 21
7311.1889350000029
 31
0.0
  0
LINE
  5
11C15
  8
0-1
  6
CONTINUOUS
 62
     3
 10
19867.510092585158
 20
7246.1884730000029
 30
0.0
 11
22247.010092585158
 21
7246.1884730000029
 31
0.0
  0
LINE
  5
11C16
  8
0-1
  6
CONTINUOUS
 62
     3
 10
19867.510092585158
 20
7181.1885060000041
 30
0.0
 11
22247.010092585158
 21
7181.1885060000041
 31
0.0
  0
LINE
  5
11C17
  8
0-1
  6
CONTINUOUS
 62
     3
 10
19867.510092585158
 20
7116.1890340000009
 30
0.0
 11
22247.010092585158
 21
7116.1890340000009
 31
0.0
  0
LINE
  5
11C18
  8
0-1
  6
CONTINUOUS
 62
     3
 10
19867.510092585158
 20
7051.1890669999966
 30
0.0
 11
22247.010092585158
 21
7051.1890669999966
 31
0.0
  0
LINE
  5
11C19
  8
0-1
  6
CONTINUOUS
 62
     3
 10
19867.510092585158
 20
6986.1891000000032
 30
0.0
 11
22247.010092585158
 21
6986.1891000000032
 31
0.0
  0
LINE
  5
11C1A
  8
0-1
  6
CONTINUOUS
 62
     3
 10
19867.510092585158
 20
6921.1886380000051
 30
0.0
 11
22247.010092585158
 21
6921.1886380000051
 31
0.0
  0
LINE
  5
11C1B
  8
0-1
  6
CONTINUOUS
 62
     3
 10
19867.510092585158
 20
6856.1886710000017
 30
0.0
 11
22247.010092585158
 21
6856.1886710000017
 31
0.0
  0
LINE
  5
11C1C
  8
0-1
  6
CONTINUOUS
 62
     3
 10
19867.510092585158
 20
6791.1891989999967
 30
0.0
 11
22247.010092585158
 21
6791.1891989999967
 31
0.0
  0
LINE
  5
11C1D
  8
0-1
  6
CONTINUOUS
 62
     3
 10
19867.510092585158
 20
6726.1892320000024
 30
0.0
 11
22247.010092585158
 21
6726.1892320000024
 31
0.0
  0
LINE
  5
11C1E
  8
0-1
  6
CONTINUOUS
 62
     3
 10
19867.510092585158
 20
8080.6485920000023
 30
0.0
 11
22247.010092585158
 21
8080.6485920000023
 31
0.0
  0
LINE
  5
11C1F
  8
0-1
  6
CONTINUOUS
 62
     3
 10
19723.50745358516
 20
6141.1885390000007
 30
0.0
 11
25752.488468710359
 21
6141.1885390000007
 31
0.0
  0
LINE
  5
11C20
  8
0-1
  6
CONTINUOUS
 62
     3
 10
6498.7335704709431
 20
6141.1885390000007
 30
0.0
 11
6498.7335704709431
 21
6241.1883740000021
 31
0.0
  0
LINE
  5
11C21
  8
0-1
  6
CONTINUOUS
 62
     3
 10
6526.2333724709461
 20
8268.990877000002
 30
0.0
 11
6526.2333724709461
 21
6241.1883740000021
 31
0.0
  0
LINE
  5
11C22
  8
0-1
  6
CONTINUOUS
 62
     3
 10
6506.233570470944
 20
8268.3741496838102
 30
0.0
 11
6506.233570470944
 21
6241.1883740000021
 31
0.0
  0
LINE
  5
11C23
  8
0-1
  6
CONTINUOUS
 62
     3
 10
6498.7335704709431
 20
6241.1883740000021
 30
0.0
 11
12089.23357047094
 21
6241.1883740000021
 31
0.0
  0
LINE
  5
11C24
  8
0-1
  6
CONTINUOUS
 62
     3
 10
6621.232449470951
 20
6291.1885390000007
 30
0.0
 11
9043.7337024709523
 21
6291.1885390000007
 31
0.0
  0
LINE
  5
11C25
  8
0-1
  6
CONTINUOUS
 62
     3
 10
5816.2325154709433
 20
6141.1885390000007
 30
0.0
 11
12089.23357047094
 21
6141.1885390000007
 31
0.0
  0
LINE
  5
11C26
  8
0-1
  6
CONTINUOUS
 62
     3
 10
6526.2333724709461
 20
8152.2344180000064
 30
0.0
 11
12056.73277947094
 21
8152.2344180000064
 31
0.0
  0
LINE
  5
11C27
  8
0-1
  6
CONTINUOUS
 62
     3
 10
19842.00935358517
 20
8335.1891200000064
 30
0.0
 11
20119.438883585171
 21
8335.1891200000064
 31
0.0
  0
LINE
  5
11C28
  8
0-1
  6
CONTINUOUS
 62
     3
 10
19842.00935358517
 20
8377.1885650000022
 30
0.0
 11
20151.435821585172
 21
8377.1885650000022
 31
0.0
  0
LINE
  5
11C29
  8
0-1
  6
CONTINUOUS
 62
     3
 10
19837.009090585161
 20
8340.1888889999937
 30
0.0
 11
19837.009090585161
 21
8372.1892910000006
 31
0.0
  0
LINE
  5
11C2A
  8
0-1
  6
CONTINUOUS
 62
     3
 10
19816.006397585181
 20
8386.1884470000077
 30
0.0
 11
22298.509828585142
 21
8386.1884470000077
 31
0.0
  0
LINE
  5
11C2B
  8
0-1
  6
CONTINUOUS
 62
     3
 10
20122.97232358516
 20
8336.6529740000005
 30
0.0
 11
20154.973221585169
 21
8368.653376000002
 31
0.0
  0
LINE
  5
11C2C
  8
0-1
  6
CONTINUOUS
 62
     3
 10
19837.009090585161
 20
8368.7889730000006
 30
0.0
 11
20155.101889585148
 21
8368.7889730000006
 31
0.0
  0
LINE
  5
11C2D
  8
0-1
  6
CONTINUOUS
 62
     3
 10
19837.009090585161
 20
8360.3888860000006
 30
0.0
 11
20146.708731585171
 21
8360.3888860000006
 31
0.0
  0
LINE
  5
11C2E
  8
0-1
  6
CONTINUOUS
 62
     3
 10
19837.009090585161
 20
8351.9892939999972
 30
0.0
 11
20138.309633585159
 21
8351.9892939999972
 31
0.0
  0
LINE
  5
11C2F
  8
0-1
  6
CONTINUOUS
 62
     3
 10
19837.009090585161
 20
8343.5892070000027
 30
0.0
 11
20129.906577585181
 21
8343.5892070000027
 31
0.0
  0
LINE
  5
11C30
  8
0-1
  6
CONTINUOUS
 62
     3
 10
22277.50911658517
 20
8368.7889730000006
 30
0.0
 11
21959.416316585161
 21
8368.7889730000006
 31
0.0
  0
LINE
  5
11C31
  8
0-1
  6
CONTINUOUS
 62
     3
 10
22277.50911658517
 20
8360.3888860000006
 30
0.0
 11
21967.811454585171
 21
8360.3888860000006
 31
0.0
  0
LINE
  5
11C32
  8
0-1
  6
CONTINUOUS
 62
     3
 10
22277.50911658517
 20
8351.9892939999972
 30
0.0
 11
21976.210551585151
 21
8351.9892939999972
 31
0.0
  0
LINE
  5
11C33
  8
0-1
  6
CONTINUOUS
 62
     3
 10
22277.50911658517
 20
8343.5892070000027
 30
0.0
 11
21984.60964958516
 21
8343.5892070000027
 31
0.0
  0
LINE
  5
11C34
  8
0-1
  6
CONTINUOUS
 62
     3
 10
22272.50885258515
 20
8377.1885650000022
 30
0.0
 11
21963.082384585141
 21
8377.1885650000022
 31
0.0
  0
LINE
  5
11C35
  8
0-1
  6
CONTINUOUS
 62
     3
 10
22272.50885258515
 20
8335.1891200000064
 30
0.0
 11
21995.07932358516
 21
8335.1891200000064
 31
0.0
  0
LINE
  5
11C36
  8
0-1
  6
CONTINUOUS
 62
     3
 10
22277.50911658517
 20
8340.1888889999937
 30
0.0
 11
22277.50911658517
 21
8372.1892910000006
 31
0.0
  0
LINE
  5
11C37
  8
0-1
  6
CONTINUOUS
 62
     3
 10
21991.543902585159
 20
8336.6529740000005
 30
0.0
 11
21959.54696458517
 21
8368.653376000002
 31
0.0
  0
LINE
  5
11C38
  8
0-1
  6
CONTINUOUS
 62
     3
 10
6331.9317464709457
 20
8303.1736990000027
 30
0.0
 11
12162.42323547094
 21
8498.6897600000066
 31
0.0
  0
LINE
  5
11C39
  8
0-1
  6
CONTINUOUS
 62
     3
 10
12160.922760470939
 20
8548.6686450000016
 30
0.0
 11
6330.4322614709417
 21
8353.151595000003
 31
0.0
  0
LINE
  5
11C3A
  8
0-1
  6
CONTINUOUS
 62
     3
 10
6327.3422334709494
 20
8356.0604969999968
 30
0.0
 11
6326.382166470944
 21
8388.0460529999982
 31
0.0
  0
LINE
  5
11C3B
  8
0-1
  6
CONTINUOUS
 62
     3
 10
6331.230997470946
 20
8393.1932959999976
 30
0.0
 11
12180.69221247094
 21
8589.2804480000032
 31
0.0
  0
LINE
  5
11C3C
  8
0-1
  6
CONTINUOUS
 62
     3
 10
12184.59681247094
 20
8459.338910000004
 30
0.0
 11
6335.1316384709462
 21
8263.2522529999969
 31
0.0
  0
LINE
  5
11C3D
  8
0-1
  6
CONTINUOUS
 62
     3
 10
6329.9839004709474
 20
8268.099599000001
 30
0.0
 11
6329.024823470947
 21
8300.0856499999973
 31
0.0
  0
LINE
  5
11C3E
  8
0-1
  6
CONTINUOUS
 62
     3
 10
6328.6932544709452
 20
8311.0803909999977
 30
0.0
 11
6327.6728124709434
 21
8345.0647660000086
 31
0.0
  0
LINE
  5
11C3F
  8
0-1
  6
CONTINUOUS
 62
     3
 10
6330.5817154709484
 20
8348.1538049999999
 30
0.0
 11
12161.074193470929
 21
8543.6713500000023
 31
0.0
  0
LINE
  5
11C40
  8
0-1
  6
CONTINUOUS
 62
     3
 10
12162.27378147094
 20
8503.6880440000004
 30
0.0
 11
6331.7832834709443
 21
8308.1719839999969
 31
0.0
  0
LINE
  5
11C41
  8
0-1
  6
CONTINUOUS
 62
     3
 10
9116.233570470944
 20
8356.9898809999977
 30
0.0
 11
9112.3309494709483
 21
8486.9314189999968
 31
0.0
  0
LINE
  5
11C42
  8
0-1
  6
CONTINUOUS
 62
     3
 10
12151.62991047094
 20
8458.3481610000017
 30
0.0
 11
12147.728279470941
 21
8588.2896989999972
 31
0.0
  0
LINE
  5
11C43
  8
0-1
  6
CONTINUOUS
 62
     3
 10
6343.7237394709446
 20
8393.5684149999979
 30
0.0
 11
6347.6263604709457
 21
8263.6273720000008
 31
0.0
  0
LINE
  5
11C44
  8
0-2
  6
CONTINUOUS
 62
     4
 10
21420.948133085159
 20
6888.415233000007
 30
0.0
 11
21320.948793085161
 21
6888.415233000007
 31
0.0
  0
LINE
  5
11C45
  8
0-2
  6
CONTINUOUS
 62
     4
 10
20693.564133085161
 20
6888.415233000007
 30
0.0
 11
20793.563473085149
 21
6888.415233000007
 31
0.0
  0
LINE
  5
11C46
  8
0-5
  6
CONTINUOUS
 62
     4
 10
22341.010092585158
 20
4461.1889349999938
 30
0.0
 11
22341.010092585158
 21
4301.1893970000001
 31
0.0
  0
LINE
  5
11C47
  8
0-5
  6
CONTINUOUS
 62
     4
 10
17551.63707258517
 20
6349.0350210000024
 30
0.0
 11
17671.635488585162
 21
6141.1885390000007
 31
0.0
  0
LINE
  5
11C48
  8
0-5
  6
CONTINUOUS
 62
     4
 10
13794.318558470941
 20
6241.1883740000021
 30
0.0
 11
13914.31895447094
 21
6449.0353509999959
 31
0.0
  0
LINE
  5
11C49
  8
0-5
  6
CONTINUOUS
 62
     4
 10
13674.32014147094
 20
6449.0353509999959
 30
0.0
 11
13794.318558470941
 21
6241.1883740000021
 31
0.0
  0
LINE
  5
11C4A
  8
0-5
  6
CONTINUOUS
 62
     4
 10
13914.31895447094
 20
6449.0353509999959
 30
0.0
 11
13674.32014147094
 21
6449.0353509999959
 31
0.0
  0
LINE
  5
11C4B
  8
0-5
  6
CONTINUOUS
 62
     4
 10
12169.23086547093
 20
6241.1883740000021
 30
0.0
 11
13886.69675147093
 21
6241.1883740000021
 31
0.0
  0
LINE
  5
11C4C
  8
0-5
  6
CONTINUOUS
 62
     4
 10
12169.23086547093
 20
6141.1885390000007
 30
0.0
 11
19643.509169585159
 21
6141.1885390000007
 31
0.0
  0
LINE
  5
11C4D
  8
0-5
  6
CONTINUOUS
 62
     4
 10
17671.635488585162
 20
6141.1885390000007
 30
0.0
 11
17791.635884585161
 21
6349.0350210000024
 31
0.0
  0
LINE
  5
11C4E
  8
0-5
  6
CONTINUOUS
 62
     4
 10
17791.635884585161
 20
6349.0350210000024
 30
0.0
 11
17551.63707258517
 21
6349.0350210000024
 31
0.0
  0
LINE
  5
11C4F
  8
0-5
  6
CONTINUOUS
 62
     4
 10
19773.510092585158
 20
4461.1889349999938
 30
0.0
 11
19773.510092585158
 21
4301.1893970000001
 31
0.0
  0
LINE
  5
11C50
  8
0-5
  6
CONTINUOUS
 62
     4
 10
12034.23357047094
 20
4461.1889349999938
 30
0.0
 11
12034.23357047094
 21
4301.1893970000001
 31
0.0
  0
LINE
  5
11C51
  8
0-5
  6
CONTINUOUS
 62
     4
 10
9116.233570470944
 20
4461.1889349999938
 30
0.0
 11
9116.233570470944
 21
4301.1893970000001
 31
0.0
  0
LINE
  5
11C52
  8
0-5
  6
CONTINUOUS
 62
     4
 10
6548.7335704709431
 20
4461.1889349999938
 30
0.0
 11
6548.7335704709431
 21
4301.1893970000001
 31
0.0
  0
LINE
  5
11C53
  8
2-0
  6
CENTER2
 62
     6
 10
22341.010092585158
 20
5878.536116000002
 30
0.0
 11
22341.010092585158
 21
6915.6791430000003
 31
0.0
  0
LINE
  5
11C54
  8
2-0
  6
CENTER2
 62
     6
 10
19773.510092585158
 20
5878.536116000002
 30
0.0
 11
19773.510092585158
 21
6915.6791430000003
 31
0.0
  0
LINE
  5
11C55
  8
2-0
  6
CENTER2
 62
     6
 10
12034.23357047094
 20
5878.536116000002
 30
0.0
 11
12034.23357047094
 21
6935.6787139999988
 31
0.0
  0
LINE
  5
11C56
  8
2-0
  6
CENTER2
 62
     6
 10
9116.233570470944
 20
5878.536116000002
 30
0.0
 11
9116.233570470944
 21
6935.6787139999988
 31
0.0
  0
LINE
  5
11C57
  8
2-0
  6
CENTER2
 62
     6
 10
6548.7335704709431
 20
5878.536116000002
 30
0.0
 11
6548.7335704709431
 21
6935.6787139999988
 31
0.0
  0
ARC
  5
11C58
  8
0-1
  6
CONTINUOUS
 62
     3
 10
19842.00935358517
 20
8372.1892910000006
 30
0.0
 40
5.0
 50
90.0
 51
180.0
  0
ARC
  5
11C59
  8
0-1
  6
CONTINUOUS
 62
     3
 10
19842.00935358517
 20
8340.1888889999937
 30
0.0
 40
5.0
 50
180.0
 51
269.9999850001808
  0
ARC
  5
11C5A
  8
0-1
  6
CONTINUOUS
 62
     3
 10
20119.438883585171
 20
8340.1888889999937
 30
0.0
 40
5.0
 50
269.9999850001808
 51
314.99998500026879
  0
ARC
  5
11C5B
  8
0-1
  6
CONTINUOUS
 62
     3
 10
20151.435821585172
 20
8372.1892910000006
 30
0.0
 40
5.0
 50
314.99998500026879
 51
90.0
  0
ARC
  5
11C5C
  8
0-1
  6
CONTINUOUS
 62
     3
 10
22272.50885258515
 20
8340.1888889999937
 30
0.0
 40
5.0
 50
269.9999850001808
 51
0.0
  0
ARC
  5
11C5D
  8
0-1
  6
CONTINUOUS
 62
     3
 10
22272.50885258515
 20
8372.1892910000006
 30
0.0
 40
5.0
 50
0.0
 51
90.0
  0
ARC
  5
11C5E
  8
0-1
  6
CONTINUOUS
 62
     3
 10
21963.082384585141
 20
8372.1892910000006
 30
0.0
 40
5.0
 50
90.0
 51
224.99998499998549
  0
ARC
  5
11C5F
  8
0-1
  6
CONTINUOUS
 62
     3
 10
21995.07932358516
 20
8340.1888889999937
 30
0.0
 40
5.0
 50
224.99998499998549
 51
269.9999850001808
  0
ARC
  5
11C60
  8
0-1
  6
CONTINUOUS
 62
     3
 10
12161.67299747094
 20
8523.680191999998
 30
0.0
 40
24.999998999999999
 50
271.71998600002632
 51
91.719986000026395
  0
ARC
  5
11C61
  8
0-1
  6
CONTINUOUS
 62
     3
 10
6330.342193470944
 20
8356.1505650000017
 30
0.0
 40
3.0
 50
181.71998600002601
 51
271.71998600002632
  0
ARC
  5
11C62
  8
0-1
  6
CONTINUOUS
 62
     3
 10
6331.379461470945
 20
8388.1955070000022
 30
0.0
 40
5.0
 50
91.719986000026395
 51
181.71998600002601
  0
ARC
  5
11C63
  8
0-1
  6
CONTINUOUS
 62
     3
 10
12156.675703470921
 20
8523.5297490000066
 30
0.0
 40
69.999999000000003
 50
293.50677499976911
 51
69.933196999879755
  0
ARC
  5
11C64
  8
0-1
  6
CONTINUOUS
 62
     3
 10
6334.9831744709491
 20
8268.2500430000073
 30
0.0
 40
5.0
 50
181.71998600002601
 51
271.71998600002632
  0
ARC
  5
11C65
  8
0-1
  6
CONTINUOUS
 62
     3
 10
6332.0218154709473
 20
8300.1752229999984
 30
0.0
 40
3.0
 50
91.719986000026395
 51
181.71998600002601
  0
ARC
  5
11C66
  8
0-1
  6
CONTINUOUS
 62
     3
 10
6332.0059784709447
 20
8350.697981000003
 30
0.0
 40
2.5
 50
271.71998600002632
 51
91.719986000026395
  0
ARC
  5
11C67
  8
0-1
  6
CONTINUOUS
 62
     3
 10
6333.3560104709441
 20
8305.7178750000003
 30
0.0
 40
2.5
 50
271.71998600002632
 51
91.719986000026395
  0
ARC
  5
11C68
  8
0-1
  6
CONTINUOUS
 62
     3
 10
6330.6717834709452
 20
8345.1553289999974
 30
0.0
 40
3.0
 50
91.719986000026395
 51
181.71998600002601
  0
ARC
  5
11C69
  8
0-1
  6
CONTINUOUS
 62
     3
 10
12161.67299747094
 20
8523.680191999998
 30
0.0
 40
20.0
 50
271.71998600002632
 51
91.719986000026395
  0
ARC
  5
11C6A
  8
0-1
  6
CONTINUOUS
 62
     3
 10
6331.6922254709416
 20
8311.1699640000006
 30
0.0
 40
3.0
 50
181.71998600002601
 51
271.71998600002632
  0
CIRCLE
  5
11C6B
  8
0-5
  6
CONTINUOUS
 62
     4
 10
22341.010092585158
 20
4101.1882420000011
 30
0.0
 40
199.9999949999999
  0
CIRCLE
  5
11C6C
  8
0-5
  6
CONTINUOUS
 62
     4
 10
9116.233570470944
 20
4101.1882420000011
 30
0.0
 40
199.9999949999999
  0
CIRCLE
  5
11C6D
  8
0-5
  6
CONTINUOUS
 62
     4
 10
12034.23357047094
 20
4101.1882420000011
 30
0.0
 40
199.9999949999999
  0
CIRCLE
  5
11C6E
  8
0-5
  6
CONTINUOUS
 62
     4
 10
19773.510092585158
 20
4101.1882420000011
 30
0.0
 40
199.9999949999999
  0
CIRCLE
  5
11C6F
  8
0-5
  6
CONTINUOUS
 62
     4
 10
6548.7335704709431
 20
4101.1882420000011
 30
0.0
 40
199.9999949999999
  0
TEXT
  5
11C70
  8
0-5
  6
CONTINUOUS
 62
     7
 10
22289.097217585149
 20
4011.7132600000009
 30
0.0
 40
160.0
  1
2
 72
     4
 11
22342.430550918481
 21
4091.7132600000009
 31
0.0
  0
TEXT
  5
11C71
  8
0-5
  6
CONTINUOUS
 62
     7
 10
19163.509565585169
 20
6988.0104361594431
 30
0.0
 40
160.0
  1
(2131.5)
 50
90.0
 72
     4
 11
19083.509565585169
 21
7441.3437694927761
 31
0.0
  0
TEXT
  5
11C72
  8
0-5
  6
CONTINUOUS
 62
     7
 10
13335.226629470941
 20
6529.0346249999966
 30
0.0
 40
160.0
  1
布基礎天端
 72
     4
 11
13793.89329613761
 21
6609.0346249999984
 31
0.0
  0
TEXT
  5
11C73
  8
0-5
  6
CONTINUOUS
 62
     7
 10
17551.63707258517
 20
6429.0347900000024
 30
0.0
 40
160.0
  1
G.L
 72
     4
 11
17711.63707258517
 21
6509.0347900000043
 31
0.0
  0
TEXT
  5
11C74
  8
0-5
  6
CONTINUOUS
 62
     7
 10
19721.597218585161
 20
4011.7132600000009
 30
0.0
 40
160.0
  1
1
 72
     4
 11
19748.263885251828
 21
4091.7132600000009
 31
0.0
  0
TEXT
  5
11C75
  8
0-5
  6
CONTINUOUS
 62
     7
 10
11987.277410470941
 20
4017.9774460000021
 30
0.0
 40
160.0
  1
A
 72
     4
 11
12040.61074380428
 21
4097.9774460000026
 31
0.0
  0
TEXT
  5
11C76
  8
0-5
  6
CONTINUOUS
 62
     7
 10
9069.2774104709424
 20
4017.9774460000021
 30
0.0
 40
160.0
  1
B
 72
     4
 11
9122.6107438042745
 21
4097.9774460000026
 31
0.0
  0
TEXT
  5
11C77
  8
0-5
  6
CONTINUOUS
 62
     7
 10
6501.7774104709488
 20
4017.9774460000021
 30
0.0
 40
160.0
  1
C
 72
     4
 11
6555.1107438042818
 21
4097.9774460000026
 31
0.0
  0
CIRCLE
  5
11C78
  8
0-4
  6
CONTINUOUS
 62
     4
 10
21057.258113085161
 20
6627.2449749999987
 30
0.0
 40
18.487504999999981
  0
LINE
  5
11C79
  8
1-前柱カバ-P
 10
25098.510092585158
 20
8459.6884660000014
 30
0.0
 11
25098.510092585158
 21
6141.1885390000007
 31
0.0
  0
LINE
  5
11C7A
  8
1-前柱カバ-P
 10
25183.510092585158
 20
8589.6883999999973
 30
0.0
 11
25183.510092585158
 21
6141.1885390000007
 31
0.0
  0
LINE
  5
11C7B
  8
0-1
  6
CONTINUOUS
 62
     3
 10
25226.510092585158
 20
8459.6884660000087
 30
0.0
 11
22298.509828585142
 21
8459.6884660000014
 31
0.0
  0
LINE
  5
11C7C
  8
0-1
  6
CONTINUOUS
 62
     3
 10
22363.51128058515
 20
8589.6883999999973
 30
0.0
 11
25226.510092585158
 21
8589.6883999999973
 31
0.0
  0
LINE
  5
11C7D
  8
0-1
  6
CONTINUOUS
 62
     3
 10
25226.510092585158
 20
8264.0026620000026
 30
0.0
 11
25226.510092585158
 21
8589.6883999999973
 31
0.0
  0
LINE
  5
11C7E
  8
0-1
  6
CONTINUOUS
 62
     3
 10
25226.510092585158
 20
8264.0026620000026
 30
0.0
 11
25183.510092585158
 21
8264.0026620000026
 31
0.0
  0
LINE
  5
11C7F
  8
2-0
  6
CENTER2
 62
     6
 10
25141.010092585158
 20
5878.536116000002
 30
0.0
 11
25141.010092585158
 21
6915.6791430000003
 31
0.0
  0
LINE
  5
11C80
  8
1-桁前P28
 10
25098.510092585158
 20
8261.1883740000048
 30
0.0
 11
22383.510092585158
 21
8261.1883740000048
 31
0.0
  0
LINE
  5
11C81
  8
0-5
  6
CONTINUOUS
 62
     4
 10
25141.010092585158
 20
4461.1889349999938
 30
0.0
 11
25141.010092585158
 21
4301.1893970000001
 31
0.0
  0
CIRCLE
  5
11C82
  8
0-5
  6
CONTINUOUS
 62
     4
 10
25141.010092585158
 20
4101.1882420000011
 30
0.0
 40
199.9999949999999
  0
TEXT
  5
11C83
  8
0-5
  6
CONTINUOUS
 62
     7
 10
25089.097217585178
 20
4011.7132600000009
 30
0.0
 40
160.0
  1
3
 72
     4
 11
25142.430550918511
 21
4091.7132600000009
 31
0.0
  0
TEXT
  5
11C84
  8
0-5
  6
CONTINUOUS
 62
     7
 10
26508.335262879551
 20
7248.0474985551718
 30
0.0
 40
160.0
  1
(2260)
 50
90.0
 72
     4
 11
26428.335262879551
 21
7634.7141652218379
 31
0.0
  0
LINE
  5
11C85
  8
SUNPOU
  6
CONTINUOUS
 10
6326.233570470944
 20
9389.1900500000029
 30
0.0
 11
5821.4457005775294
 21
9389.1900500000029
 31
0.0
  0
LINE
  5
11DE0
  8
2-0
  6
CENTER2
 62
     6
 10
17352.01036558516
 20
19317.986251999992
 30
0.0
 11
18072.010370585162
 21
19317.986251999992
 31
0.0
  0
LINE
  5
11DE1
  8
2-0
  6
CENTER2
 62
     6
 10
18232.010370585162
 20
19317.986251999992
 30
0.0
 11
25466.616789537082
 21
19317.986251999992
 31
0.0
  0
LINE
  5
11DE2
  8
2-0
  6
CENTER2
 62
     6
 10
17352.010365585149
 20
16750.486251999992
 30
0.0
 11
17598.14236106574
 21
16750.486251999992
 31
0.0
  0
LINE
  5
11DE3
  8
2-0
  6
CENTER2
 62
     6
 10
18232.010370585151
 20
16750.486251999992
 30
0.0
 11
25466.616789537082
 21
16750.486251999992
 31
0.0
  0
LINE
  5
11DE4
  8
2-0
  6
CENTER2
 62
     6
 10
17352.01036558516
 20
13832.486252000001
 30
0.0
 11
18072.010370585162
 21
13832.486252000001
 31
0.0
  0
LINE
  5
11DE5
  8
2-0
  6
CENTER2
 62
     6
 10
18232.010370585162
 20
13832.486252000001
 30
0.0
 11
25466.616789537082
 21
13832.48625200001
 31
0.0
  0
CIRCLE
  5
11DE6
  8
0-5
  6
CONTINUOUS
 62
     4
 10
22362.011953585152
 20
21160.487175999999
 30
0.0
 40
199.9999949999999
  0
CIRCLE
  5
11DE7
  8
0-5
  6
CONTINUOUS
 62
     4
 10
17152.010370585151
 20
19317.986251999992
 30
0.0
 40
199.9999949999999
  0
CIRCLE
  5
11DE8
  8
0-5
  6
CONTINUOUS
 62
     4
 10
17152.010370585151
 20
16750.486251999992
 30
0.0
 40
199.9999949999999
  0
CIRCLE
  5
11DE9
  8
0-5
  6
CONTINUOUS
 62
     4
 10
17152.010370585151
 20
13832.486252000001
 30
0.0
 40
199.9999949999999
  0
CIRCLE
  5
11DEA
  8
0-5
  6
CONTINUOUS
 62
     4
 10
19794.511953585141
 20
21160.487175999999
 30
0.0
 40
199.9999949999999
  0
TEXT
  5
11DEB
  8
0-5
  6
CONTINUOUS
 62
     7
 10
22307.34160958515
 20
21074.261326000011
 30
0.0
 40
160.0
  1
2
 72
     4
 11
22360.674942918478
 21
21154.261326000011
 31
0.0
  0
TEXT
  5
11DEC
  8
0-5
  6
CONTINUOUS
 62
     7
 10
19739.841609585139
 20
21074.261326000011
 30
0.0
 40
160.0
  1
1
 72
     4
 11
19766.50827625181
 21
21154.261326000011
 31
0.0
  0
TEXT
  5
11DED
  8
0-5
  6
CONTINUOUS
 62
     7
 10
17103.334008585171
 20
19226.368192999991
 30
0.0
 40
160.0
  1
C
 72
     4
 11
17156.667341918499
 21
19306.368192999991
 31
0.0
  0
TEXT
  5
11DEE
  8
0-5
  6
CONTINUOUS
 62
     7
 10
17103.33400858516
 20
16658.868193999999
 30
0.0
 40
160.0
  1
B
 72
     4
 11
17156.667341918492
 21
16738.868193999999
 31
0.0
  0
TEXT
  5
11DEF
  8
0-5
  6
CONTINUOUS
 62
     7
 10
17103.334008585171
 20
13740.868192999989
 30
0.0
 40
160.0
  1
A
 72
     4
 11
17156.667341918499
 21
13820.868192999989
 31
0.0
  0
LINE
  5
11DF0
  8
2-0
  6
CENTER2
 62
     6
 10
25162.011953585141
 20
20960.488495000009
 30
0.0
 11
25162.011953585141
 21
13474.73237353158
 31
0.0
  0
CIRCLE
  5
11DF1
  8
0-5
  6
CONTINUOUS
 62
     4
 10
25162.011953585141
 20
21160.487175999999
 30
0.0
 40
199.9999949999999
  0
TEXT
  5
11DF2
  8
0-5
  6
CONTINUOUS
 62
     7
 10
25107.341609585139
 20
21074.261326000011
 30
0.0
 40
160.0
  1
3
 72
     4
 11
25160.674942918471
 21
21154.261326000011
 31
0.0
  0
ARC
  5
11DF3
  8
1-後柱P
  6
HIDE-M
 62
     6
 10
25165.611953585139
 20
19249.936251999989
 30
0.0
 40
2.6000000000000001
 50
180.0
 51
270.0
  0
LINE
  5
11DF4
  8
1-後柱P
  6
HIDE-M
 62
     6
 10
25154.011953585141
 20
19247.8868618468
 30
0.0
 11
25154.011953585141
 21
19251.536252000002
 31
0.0
  0
LINE
  5
11DF5
  8
1-後柱P
  6
HIDE-M
 62
     6
 10
25164.011953585141
 20
19247.8868618468
 30
0.0
 11
25164.011953585141
 21
19251.536252000002
 31
0.0
  0
LINE
  5
11DF6
  8
1-後柱P
  6
1PL-M
 62
     6
 10
25159.011953585152
 20
19242.336252000008
 30
0.0
 11
25159.011953585152
 21
19256.536252000002
 31
0.0
  0
ARC
  5
11DF7
  8
1-後柱P
  6
HIDE-M
 62
     6
 10
25152.411953585161
 20
19249.936251999989
 30
0.0
 40
2.6000000000000001
 50
270.0
 51
0.0
  0
LINE
  5
11DF8
  8
1-後柱P
  6
HIDE-M
 62
     6
 10
25163.011953585152
 20
19249.936251999989
 30
0.0
 11
25163.011953585152
 21
19251.536252000002
 31
0.0
  0
LINE
  5
11DF9
  8
1-後柱P
  6
HIDE-M
 62
     6
 10
25155.011953585152
 20
19249.936251999989
 30
0.0
 11
25155.011953585152
 21
19251.536252000002
 31
0.0
  0
LINE
  5
11DFA
  8
1-後柱P
 10
25172.911953585139
 20
19362.236251999999
 30
0.0
 11
25151.11195358515
 21
19362.236251999999
 31
0.0
  0
LINE
  5
11DFB
  8
1-後柱P
 10
25121.11195358515
 20
19324.936252
 30
0.0
 11
25121.11195358515
 21
19332.236251999992
 31
0.0
  0
ARC
  5
11DFC
  8
1-後柱P
 10
25151.11195358515
 20
19332.236251999992
 30
0.0
 40
30.0
 50
90.0
 51
180.0
  0
ARC
  5
11DFD
  8
1-後柱P
 10
25151.11195358515
 20
19332.236251999992
 30
0.0
 40
31.600000000000001
 50
90.0
 51
180.0
  0
LINE
  5
11DFE
  8
1-後柱P
 10
25172.911953585139
 20
19363.836252000001
 30
0.0
 11
25151.11195358515
 21
19363.836252000001
 31
0.0
  0
LINE
  5
11DFF
  8
1-後柱P
 10
25119.511953585141
 20
19324.936252
 30
0.0
 11
25119.511953585141
 21
19332.236251999992
 31
0.0
  0
LINE
  5
11E00
  8
1-後柱P
 10
25142.511953585141
 20
19303.336252000008
 30
0.0
 11
25142.511953585141
 21
19313.336252000001
 31
0.0
  0
LINE
  5
11E01
  8
1-後柱P
 10
25144.11195358515
 20
19313.336252000001
 30
0.0
 11
25144.11195358515
 21
19303.336252000008
 31
0.0
  0
LINE
  5
11E02
  8
1-後柱P
 10
25202.911953585139
 20
19324.936252
 30
0.0
 11
25202.911953585139
 21
19332.236251999992
 31
0.0
  0
ARC
  5
11E03
  8
1-後柱P
 10
25172.911953585139
 20
19332.236251999992
 30
0.0
 40
30.0
 50
0.0
 51
90.0
  0
ARC
  5
11E04
  8
1-後柱P
 10
25172.911953585139
 20
19332.236251999992
 30
0.0
 40
31.600000000000001
 50
0.0
 51
90.0
  0
LINE
  5
11E05
  8
1-後柱P
 10
25204.511953585152
 20
19324.936252
 30
0.0
 11
25204.511953585152
 21
19332.236251999992
 31
0.0
  0
LINE
  5
11E06
  8
1-後柱P
 10
25197.91195358515
 20
19318.336252000008
 30
0.0
 11
25186.511953585141
 21
19318.336252000008
 31
0.0
  0
ARC
  5
11E07
  8
1-後柱P
 10
25197.91195358515
 20
19324.936252
 30
0.0
 40
6.599999999999997
 50
270.0
 51
0.0
  0
ARC
  5
11E08
  8
1-後柱P
 10
25186.511953585141
 20
19313.336252000001
 30
0.0
 40
5.0
 50
90.0
 51
180.0
  0
LINE
  5
11E09
  8
1-後柱P
 10
25197.91195358515
 20
19319.936252
 30
0.0
 11
25186.511953585141
 21
19319.936252
 31
0.0
  0
ARC
  5
11E0A
  8
1-後柱P
 10
25197.91195358515
 20
19324.936252
 30
0.0
 40
5.0
 50
270.0
 51
0.0
  0
LINE
  5
11E0B
  8
1-後柱P
 10
25181.511953585152
 20
19313.336252000001
 30
0.0
 11
25181.511953585152
 21
19253.936252
 31
0.0
  0
LINE
  5
11E0C
  8
1-後柱P
 10
25179.91195358515
 20
19313.336252000001
 30
0.0
 11
25179.91195358515
 21
19253.936252
 31
0.0
  0
ARC
  5
11E0D
  8
1-後柱P
 10
25186.511953585141
 20
19313.336252000001
 30
0.0
 40
6.599999999999997
 50
90.0
 51
180.0
  0
LINE
  5
11E0E
  8
1-後柱P
 10
25174.91195358515
 20
19247.336252000001
 30
0.0
 11
25141.511953585152
 21
19247.336252000001
 31
0.0
  0
ARC
  5
11E0F
  8
1-後柱P
 10
25174.91195358515
 20
19253.936252
 30
0.0
 40
6.599999999999997
 50
270.0
 51
0.0
  0
LINE
  5
11E10
  8
1-後柱P
 10
25174.91195358515
 20
19248.936252
 30
0.0
 11
25141.511953585152
 21
19248.936252
 31
0.0
  0
ARC
  5
11E11
  8
1-後柱P
 10
25174.91195358515
 20
19253.936252
 30
0.0
 40
5.0
 50
270.0
 51
0.0
  0
LINE
  5
11E12
  8
1-後柱P
 10
25141.511953585152
 20
19248.936252
 30
0.0
 11
25141.511953585152
 21
19247.336252000001
 31
0.0
  0
LINE
  5
11E13
  8
1-後柱P
 10
25126.11195358515
 20
19318.336252000008
 30
0.0
 11
25137.511953585152
 21
19318.336252000008
 31
0.0
  0
ARC
  5
11E14
  8
1-後柱P
 10
25126.11195358515
 20
19324.936252
 30
0.0
 40
6.599999999999997
 50
180.0
 51
270.0
  0
ARC
  5
11E15
  8
1-後柱P
 10
25137.511953585152
 20
19313.336252000001
 30
0.0
 40
5.0
 50
0.0
 51
90.0
  0
LINE
  5
11E16
  8
1-後柱P
 10
25137.511953585152
 20
19319.936252
 30
0.0
 11
25126.11195358515
 21
19319.936252
 31
0.0
  0
ARC
  5
11E17
  8
1-後柱P
 10
25137.511953585152
 20
19313.336252000001
 30
0.0
 40
6.599999999999997
 50
0.0
 51
90.0
  0
ARC
  5
11E18
  8
1-後柱P
 10
25126.11195358515
 20
19324.936252
 30
0.0
 40
5.0
 50
180.0
 51
270.0
  0
LINE
  5
11E19
  8
1-後柱P
 10
25142.511953585141
 20
19303.336252000008
 30
0.0
 11
25144.11195358515
 21
19303.336252000008
 31
0.0
  0
LINE
  5
11E1A
  8
1-後柱カバ-P
 10
25119.511953585141
 20
19311.636252
 30
0.0
 11
25119.511953585141
 21
19252.336252000001
 31
0.0
  0
ARC
  5
11E1B
  8
1-後柱カバ-P
 10
25126.11195358515
 20
19252.336252000001
 30
0.0
 40
6.599999999999997
 50
180.0
 51
270.0
  0
LINE
  5
11E1C
  8
1-後柱カバ-P
 10
25121.11195358515
 20
19311.636252
 30
0.0
 11
25121.11195358515
 21
19252.336252000001
 31
0.0
  0
ARC
  5
11E1D
  8
1-後柱カバ-P
 10
25126.11195358515
 20
19311.636252
 30
0.0
 40
5.0
 50
90.0
 51
180.0
  0
LINE
  5
11E1E
  8
1-後柱カバ-P
 10
25126.11195358515
 20
19245.736251999992
 30
0.0
 11
25197.91195358515
 21
19245.736251999992
 31
0.0
  0
ARC
  5
11E1F
  8
1-後柱カバ-P
 10
25197.91195358515
 20
19252.336252000001
 30
0.0
 40
6.599999999999997
 50
270.0
 51
0.0
  0
LINE
  5
11E20
  8
1-後柱カバ-P
 10
25126.11195358515
 20
19247.336252000001
 30
0.0
 11
25197.91195358515
 21
19247.336252000001
 31
0.0
  0
ARC
  5
11E21
  8
1-後柱カバ-P
 10
25197.91195358515
 20
19252.336252000001
 30
0.0
 40
5.0
 50
270.0
 51
0.0
  0
ARC
  5
11E22
  8
1-後柱カバ-P
 10
25126.11195358515
 20
19252.336252000001
 30
0.0
 40
5.0
 50
180.0
 51
270.0
  0
LINE
  5
11E23
  8
1-後柱カバ-P
 10
25204.511953585152
 20
19252.336252000001
 30
0.0
 11
25204.511953585152
 21
19311.636252
 31
0.0
  0
LINE
  5
11E24
  8
1-後柱カバ-P
 10
25202.911953585139
 20
19252.336252000001
 30
0.0
 11
25202.911953585139
 21
19311.636252
 31
0.0
  0
ARC
  5
11E25
  8
1-後柱カバ-P
 10
25197.91195358515
 20
19311.636252
 30
0.0
 40
5.0
 50
0.0
 51
90.0
  0
LINE
  5
11E26
  8
1-後柱カバ-P
  6
1PL-M
 62
     6
 10
25162.011953585141
 20
19253.236251999992
 30
0.0
 11
25162.011953585141
 21
19240.236251999999
 31
0.0
  0
LINE
  5
11E27
  8
1-後柱カバ-P
  6
HIDE-M
 62
     6
 10
25155.011953585152
 20
19245.736251999992
 30
0.0
 11
25155.011953585152
 21
19247.336252000001
 31
0.0
  0
LINE
  5
11E28
  8
1-後柱カバ-P
  6
HIDE-M
 62
     6
 10
25169.011953585141
 20
19245.736251999992
 30
0.0
 11
25169.011953585141
 21
19247.336252000001
 31
0.0
  0
ARC
  5
11E29
  8
1-後柱カバ-P
 10
25126.11195358515
 20
19311.636252
 30
0.0
 40
6.599999999999997
 50
90.0
 51
180.0
  0
ARC
  5
11E2A
  8
1-後柱カバ-P
 10
25197.91195358515
 20
19311.636252
 30
0.0
 40
6.599999999999997
 50
0.0
 51
90.0
  0
LINE
  5
11E2B
  8
1-後柱カバ-P
 10
25189.511953585152
 20
19318.236251999999
 30
0.0
 11
25197.91195358515
 21
19318.236251999999
 31
0.0
  0
LINE
  5
11E2C
  8
1-後柱カバ-P
 10
25134.511953585152
 20
19318.236251999999
 30
0.0
 11
25126.11195358515
 21
19318.236251999999
 31
0.0
  0
LINE
  5
11E2D
  8
1-後柱カバ-P
 10
25189.511953585152
 20
19316.636252
 30
0.0
 11
25197.91195358515
 21
19316.636252
 31
0.0
  0
LINE
  5
11E2E
  8
1-後柱カバ-P
 10
25134.511953585152
 20
19316.636252
 30
0.0
 11
25126.11195358515
 21
19316.636252
 31
0.0
  0
LINE
  5
11E2F
  8
1-後柱カバ-P
 10
25134.511953585152
 20
19316.636252
 30
0.0
 11
25134.511953585152
 21
19318.236251999999
 31
0.0
  0
LINE
  5
11E30
  8
1-後柱カバ-P
 10
25189.511953585152
 20
19318.236251999999
 30
0.0
 11
25189.511953585152
 21
19316.636252
 31
0.0
  0
LINE
  5
11E31
  8
1-後柱カバ-P
  6
HIDE-M
 62
     6
 10
25193.411953585139
 20
19297.236251999999
 30
0.0
 11
25205.011953585152
 21
19297.236251999999
 31
0.0
  0
LINE
  5
11E32
  8
1-後柱カバ-P
  6
HIDE-M
 62
     6
 10
25193.411953585139
 20
19289.236251999992
 30
0.0
 11
25205.011953585152
 21
19289.236251999992
 31
0.0
  0
LINE
  5
11E33
  8
1-後柱カバ-P
  6
HIDE-M
 62
     6
 10
25193.411953585139
 20
19296.236251999992
 30
0.0
 11
25205.011953585152
 21
19296.236251999992
 31
0.0
  0
LINE
  5
11E34
  8
1-後柱カバ-P
  6
HIDE-M
 62
     6
 10
25193.411953585139
 20
19290.236251999992
 30
0.0
 11
25205.011953585152
 21
19290.236251999992
 31
0.0
  0
LINE
  5
11E35
  8
1-後柱カバ-P
 10
25194.411953585161
 20
19287.736251999999
 30
0.0
 11
25201.411953585139
 21
19287.736251999999
 31
0.0
  0
LINE
  5
11E36
  8
1-後柱カバ-P
 10
25201.411953585139
 20
19298.736251999992
 30
0.0
 11
25194.411953585161
 21
19298.736251999992
 31
0.0
  0
LINE
  5
11E37
  8
1-後柱カバ-P
 10
25201.411953585139
 20
19299.486251999992
 30
0.0
 11
25201.411953585139
 21
19286.986251999999
 31
0.0
  0
LINE
  5
11E38
  8
1-後柱カバ-P
 10
25205.011953585152
 20
19299.236251999999
 30
0.0
 11
25205.011953585152
 21
19287.236251999992
 31
0.0
  0
LINE
  5
11E39
  8
1-後柱カバ-P
  6
HIDE-M
 62
     6
 10
25202.911953585139
 20
19287.736251999999
 30
0.0
 11
25204.511953585152
 21
19287.736251999999
 31
0.0
  0
LINE
  5
11E3A
  8
1-後柱カバ-P
 10
25205.011953585152
 20
19287.236251999992
 30
0.0
 11
25204.511953585152
 21
19287.736251999999
 31
0.0
  0
ARC
  5
11E3B
  8
1-後柱カバ-P
 10
25202.161953585161
 20
19286.986251999999
 30
0.0
 40
0.75
 50
180.0
 51
0.0
  0
LINE
  5
11E3C
  8
1-後柱カバ-P
  6
HIDE-M
 62
     6
 10
25204.511953585152
 20
19298.736251999992
 30
0.0
 11
25202.911953585139
 21
19298.736251999992
 31
0.0
  0
LINE
  5
11E3D
  8
1-後柱カバ-P
 10
25205.011953585152
 20
19299.236251999999
 30
0.0
 11
25204.511953585152
 21
19298.736251999992
 31
0.0
  0
ARC
  5
11E3E
  8
1-後柱カバ-P
 10
25202.161953585161
 20
19299.486251999992
 30
0.0
 40
0.75
 50
0.0
 51
180.0
  0
LINE
  5
11E3F
  8
1-後柱カバ-P
 10
25193.411953585139
 20
19297.736251999992
 30
0.0
 11
25193.411953585139
 21
19288.736251999992
 31
0.0
  0
ARC
  5
11E40
  8
1-後柱カバ-P
 10
25194.411953585161
 20
19288.736251999992
 30
0.0
 40
1.0
 50
180.0
 51
270.0
  0
ARC
  5
11E41
  8
1-後柱カバ-P
 10
25194.411953585161
 20
19297.736251999992
 30
0.0
 40
1.0
 50
90.0
 51
180.0
  0
LINE
  5
11E42
  8
1-後柱カバ-P
  6
1PL-M
 62
     6
 10
25188.41195358515
 20
19293.236251999992
 30
0.0
 11
25210.011953585152
 21
19293.236251999992
 31
0.0
  0
LINE
  5
11E43
  8
1-後柱カバ-P
 10
25194.411953585161
 20
19277.736251999999
 30
0.0
 11
25201.411953585139
 21
19277.736251999999
 31
0.0
  0
LINE
  5
11E44
  8
1-後柱カバ-P
 10
25205.011953585152
 20
19285.236251999999
 30
0.0
 11
25205.011953585152
 21
19277.236251999999
 31
0.0
  0
LINE
  5
11E45
  8
1-後柱カバ-P
  6
HIDE-M
 62
     6
 10
25202.911953585139
 20
19277.736251999999
 30
0.0
 11
25204.511953585152
 21
19277.736251999999
 31
0.0
  0
LINE
  5
11E46
  8
1-後柱カバ-P
 10
25205.011953585152
 20
19277.236251999999
 30
0.0
 11
25204.511953585152
 21
19277.736251999999
 31
0.0
  0
ARC
  5
11E47
  8
1-後柱カバ-P
 10
25202.161953585161
 20
19276.986251999992
 30
0.0
 40
0.75
 50
180.0
 51
0.0
  0
LINE
  5
11E48
  8
1-後柱カバ-P
 10
25193.411953585139
 20
19286.736251999999
 30
0.0
 11
25193.411953585139
 21
19278.736251999992
 31
0.0
  0
ARC
  5
11E49
  8
1-後柱カバ-P
 10
25194.411953585161
 20
19278.736251999992
 30
0.0
 40
1.0
 50
180.0
 51
270.0
  0
LINE
  5
11E4A
  8
1-後柱カバ-P
  6
1PL-M
 62
     6
 10
25188.41195358515
 20
19283.236251999999
 30
0.0
 11
25210.011953585152
 21
19283.236251999999
 31
0.0
  0
LINE
  5
11E4B
  8
1-後柱カバ-P
 10
25201.411953585139
 20
19284.986251999992
 30
0.0
 11
25201.411953585139
 21
19276.986251999992
 31
0.0
  0
LINE
  5
11E4C
  8
1-後柱カバ-P
  6
HIDE-M
 62
     6
 10
25130.61195358515
 20
19297.236251999999
 30
0.0
 11
25119.011953585152
 21
19297.236251999999
 31
0.0
  0
LINE
  5
11E4D
  8
1-後柱カバ-P
  6
HIDE-M
 62
     6
 10
25130.61195358515
 20
19289.236251999992
 30
0.0
 11
25119.011953585152
 21
19289.236251999992
 31
0.0
  0
LINE
  5
11E4E
  8
1-後柱カバ-P
  6
HIDE-M
 62
     6
 10
25130.61195358515
 20
19296.236251999992
 30
0.0
 11
25119.011953585152
 21
19296.236251999992
 31
0.0
  0
LINE
  5
11E4F
  8
1-後柱カバ-P
  6
HIDE-M
 62
     6
 10
25130.61195358515
 20
19290.236251999992
 30
0.0
 11
25119.011953585152
 21
19290.236251999992
 31
0.0
  0
LINE
  5
11E50
  8
1-後柱カバ-P
 10
25129.61195358515
 20
19287.736251999999
 30
0.0
 11
25122.61195358515
 21
19287.736251999999
 31
0.0
  0
LINE
  5
11E51
  8
1-後柱カバ-P
 10
25122.61195358515
 20
19298.736251999992
 30
0.0
 11
25129.61195358515
 21
19298.736251999992
 31
0.0
  0
LINE
  5
11E52
  8
1-後柱カバ-P
 10
25122.61195358515
 20
19299.486251999992
 30
0.0
 11
25122.61195358515
 21
19286.986251999999
 31
0.0
  0
LINE
  5
11E53
  8
1-後柱カバ-P
 10
25119.011953585152
 20
19299.236251999999
 30
0.0
 11
25119.011953585152
 21
19287.236251999992
 31
0.0
  0
LINE
  5
11E54
  8
1-後柱カバ-P
  6
HIDE-M
 62
     6
 10
25121.11195358515
 20
19287.736251999999
 30
0.0
 11
25119.511953585141
 21
19287.736251999999
 31
0.0
  0
LINE
  5
11E55
  8
1-後柱カバ-P
 10
25119.011953585152
 20
19287.236251999992
 30
0.0
 11
25119.511953585141
 21
19287.736251999999
 31
0.0
  0
ARC
  5
11E56
  8
1-後柱カバ-P
 10
25121.861953585139
 20
19286.986251999999
 30
0.0
 40
0.75
 50
180.0
 51
0.0
  0
LINE
  5
11E57
  8
1-後柱カバ-P
  6
HIDE-M
 62
     6
 10
25119.511953585141
 20
19298.736251999992
 30
0.0
 11
25121.11195358515
 21
19298.736251999992
 31
0.0
  0
LINE
  5
11E58
  8
1-後柱カバ-P
 10
25119.011953585152
 20
19299.236251999999
 30
0.0
 11
25119.511953585141
 21
19298.736251999992
 31
0.0
  0
ARC
  5
11E59
  8
1-後柱カバ-P
 10
25121.861953585139
 20
19299.486251999992
 30
0.0
 40
0.75
 50
0.0
 51
180.0
  0
LINE
  5
11E5A
  8
1-後柱カバ-P
 10
25130.61195358515
 20
19297.736251999992
 30
0.0
 11
25130.61195358515
 21
19288.736251999992
 31
0.0
  0
ARC
  5
11E5B
  8
1-後柱カバ-P
 10
25129.61195358515
 20
19288.736251999992
 30
0.0
 40
1.0
 50
270.0
 51
0.0
  0
ARC
  5
11E5C
  8
1-後柱カバ-P
 10
25129.61195358515
 20
19297.736251999992
 30
0.0
 40
1.0
 50
0.0
 51
90.0
  0
LINE
  5
11E5D
  8
1-後柱カバ-P
  6
1PL-M
 62
     6
 10
25135.61195358515
 20
19293.236251999992
 30
0.0
 11
25114.011953585141
 21
19293.236251999992
 31
0.0
  0
LINE
  5
11E5E
  8
1-後柱カバ-P
 10
25129.61195358515
 20
19277.736251999999
 30
0.0
 11
25122.61195358515
 21
19277.736251999999
 31
0.0
  0
LINE
  5
11E5F
  8
1-後柱カバ-P
 10
25119.011953585152
 20
19285.236251999999
 30
0.0
 11
25119.011953585152
 21
19277.236251999999
 31
0.0
  0
LINE
  5
11E60
  8
1-後柱カバ-P
  6
HIDE-M
 62
     6
 10
25121.11195358515
 20
19277.736251999999
 30
0.0
 11
25119.511953585141
 21
19277.736251999999
 31
0.0
  0
LINE
  5
11E61
  8
1-後柱カバ-P
 10
25119.011953585152
 20
19277.236251999999
 30
0.0
 11
25119.511953585141
 21
19277.736251999999
 31
0.0
  0
ARC
  5
11E62
  8
1-後柱カバ-P
 10
25121.861953585139
 20
19276.986251999992
 30
0.0
 40
0.75
 50
180.0
 51
0.0
  0
LINE
  5
11E63
  8
1-後柱カバ-P
 10
25130.61195358515
 20
19286.736251999999
 30
0.0
 11
25130.61195358515
 21
19278.736251999992
 31
0.0
  0
ARC
  5
11E64
  8
1-後柱カバ-P
 10
25129.61195358515
 20
19278.736251999992
 30
0.0
 40
1.0
 50
270.0
 51
0.0
  0
LINE
  5
11E65
  8
1-後柱カバ-P
  6
1PL-M
 62
     6
 10
25135.61195358515
 20
19283.236251999999
 30
0.0
 11
25114.011953585141
 21
19283.236251999999
 31
0.0
  0
LINE
  5
11E66
  8
1-後柱カバ-P
 10
25122.61195358515
 20
19284.986251999992
 30
0.0
 11
25122.61195358515
 21
19276.986251999992
 31
0.0
  0
LINE
  5
11E67
  8
1-後柱カバ-P
  6
HIDE-M
 62
     6
 10
25193.411953585139
 20
19279.236251999999
 30
0.0
 11
25205.011953585152
 21
19279.236251999999
 31
0.0
  0
LINE
  5
11E68
  8
1-後柱カバ-P
  6
HIDE-M
 62
     6
 10
25193.411953585139
 20
19280.236251999992
 30
0.0
 11
25205.011953585152
 21
19280.236251999992
 31
0.0
  0
LINE
  5
11E69
  8
1-後柱カバ-P
  6
HIDE-M
 62
     6
 10
25130.61195358515
 20
19279.236251999999
 30
0.0
 11
25119.011953585152
 21
19279.236251999999
 31
0.0
  0
LINE
  5
11E6A
  8
1-後柱カバ-P
  6
HIDE-M
 62
     6
 10
25130.61195358515
 20
19280.236251999992
 30
0.0
 11
25119.011953585152
 21
19280.236251999992
 31
0.0
  0
LINE
  5
11E6B
  8
1-中柱P
 10
25197.911953585131
 20
16679.486251999999
 30
0.0
 11
25126.111953585129
 21
16679.486251999999
 31
0.0
  0
ARC
  5
11E6C
  8
1-中柱P
 10
25197.911953585131
 20
16684.486251999992
 30
0.0
 40
5.0
 50
270.0
 51
0.0
  0
ARC
  5
11E6D
  8
1-中柱P
 10
25126.111953585129
 20
16684.486251999992
 30
0.0
 40
5.0
 50
180.0
 51
270.0
  0
LINE
  5
11E6E
  8
1-中柱P
 10
25197.911953585131
 20
16677.886252000011
 30
0.0
 11
25126.111953585129
 21
16677.886252000011
 31
0.0
  0
ARC
  5
11E6F
  8
1-中柱P
 10
25197.911953585131
 20
16684.486251999992
 30
0.0
 40
6.599999999999997
 50
270.0
 51
0.0
  0
LINE
  5
11E70
  8
1-中柱P
 10
25119.511953585141
 20
16743.786252000002
 30
0.0
 11
25119.511953585141
 21
16684.486251999992
 31
0.0
  0
ARC
  5
11E71
  8
1-中柱P
 10
25126.111953585129
 20
16684.486251999992
 30
0.0
 40
6.599999999999997
 50
180.0
 51
270.0
  0
LINE
  5
11E72
  8
1-中柱P
 10
25121.111953585129
 20
16684.486251999992
 30
0.0
 11
25121.111953585129
 21
16743.786252000002
 31
0.0
  0
ARC
  5
11E73
  8
1-中柱P
 10
25126.111953585129
 20
16743.786252000002
 30
0.0
 40
5.0
 50
90.0
 51
180.0
  0
LINE
  5
11E74
  8
1-中柱P
 10
25204.511953585152
 20
16743.786252000002
 30
0.0
 11
25204.511953585152
 21
16684.486251999992
 31
0.0
  0
LINE
  5
11E75
  8
1-中柱P
 10
25202.911953585131
 20
16684.486251999992
 30
0.0
 11
25202.911953585131
 21
16743.786252000002
 31
0.0
  0
LINE
  5
11E76
  8
1-中柱P
 10
25197.911953585131
 20
16750.386252000011
 30
0.0
 11
25189.511953585152
 21
16750.386252000011
 31
0.0
  0
ARC
  5
11E77
  8
1-中柱P
 10
25197.911953585131
 20
16743.786252000002
 30
0.0
 40
6.599999999999997
 50
0.0
 51
90.0
  0
LINE
  5
11E78
  8
1-中柱P
 10
25197.911953585131
 20
16748.786252000002
 30
0.0
 11
25189.511953585152
 21
16748.786252000002
 31
0.0
  0
ARC
  5
11E79
  8
1-中柱P
 10
25189.511953585152
 20
16755.386252000011
 30
0.0
 40
6.599999999999997
 50
180.0
 51
270.0
  0
ARC
  5
11E7A
  8
1-中柱P
 10
25197.911953585131
 20
16743.786252000002
 30
0.0
 40
5.0
 50
0.0
 51
90.0
  0
LINE
  5
11E7B
  8
1-中柱P
 10
25184.511953585141
 20
16755.386252000011
 30
0.0
 11
25184.511953585141
 21
16814.786252000002
 31
0.0
  0
ARC
  5
11E7C
  8
1-中柱P
 10
25189.511953585152
 20
16755.386252000011
 30
0.0
 40
5.0
 50
180.0
 51
270.0
  0
LINE
  5
11E7D
  8
1-中柱P
 10
25182.911953585121
 20
16755.386252000011
 30
0.0
 11
25182.911953585121
 21
16814.786252000002
 31
0.0
  0
LINE
  5
11E7E
  8
1-中柱P
 10
25177.911953585131
 20
16821.386252000011
 30
0.0
 11
25144.511953585141
 21
16821.386252000011
 31
0.0
  0
ARC
  5
11E7F
  8
1-中柱P
 10
25177.911953585131
 20
16814.786252000002
 30
0.0
 40
6.599999999999997
 50
0.0
 51
90.0
  0
LINE
  5
11E80
  8
1-中柱P
 10
25177.911953585131
 20
16819.786252000002
 30
0.0
 11
25144.511953585141
 21
16819.786252000002
 31
0.0
  0
ARC
  5
11E81
  8
1-中柱P
 10
25177.911953585131
 20
16814.786252000002
 30
0.0
 40
5.0
 50
0.0
 51
90.0
  0
LINE
  5
11E82
  8
1-中柱P
 10
25144.511953585141
 20
16819.786252000002
 30
0.0
 11
25144.511953585141
 21
16821.386252000011
 31
0.0
  0
LINE
  5
11E83
  8
1-中柱P
 10
25126.111953585129
 20
16750.386252000011
 30
0.0
 11
25134.511953585152
 21
16750.386252000011
 31
0.0
  0
ARC
  5
11E84
  8
1-中柱P
 10
25126.111953585129
 20
16743.786252000002
 30
0.0
 40
6.599999999999997
 50
90.0
 51
180.0
  0
ARC
  5
11E85
  8
1-中柱P
 10
25134.511953585152
 20
16755.386252000011
 30
0.0
 40
5.0
 50
270.0
 51
0.0
  0
LINE
  5
11E86
  8
1-中柱P
 10
25134.511953585152
 20
16748.786252000002
 30
0.0
 11
25126.111953585129
 21
16748.786252000002
 31
0.0
  0
ARC
  5
11E87
  8
1-中柱P
 10
25134.511953585152
 20
16755.386252000011
 30
0.0
 40
6.599999999999997
 50
270.0
 51
0.0
  0
ARC
  5
11E88
  8
1-中柱P
  6
HIDE-M
 62
     6
 10
25168.611953585129
 20
16818.786252000002
 30
0.0
 40
2.6000000000000001
 50
90.0
 51
180.0
  0
LINE
  5
11E89
  8
1-中柱P
  6
HIDE-M
 62
     6
 10
25157.011953585152
 20
16820.83564215319
 30
0.0
 11
25157.011953585152
 21
16817.18625200001
 31
0.0
  0
LINE
  5
11E8A
  8
1-中柱P
  6
HIDE-M
 62
     6
 10
25167.011953585141
 20
16820.83564215319
 30
0.0
 11
25167.011953585141
 21
16817.18625200001
 31
0.0
  0
LINE
  5
11E8B
  8
1-中柱P
  6
1PL-M
 62
     6
 10
25162.011953585141
 20
16826.386252000011
 30
0.0
 11
25162.011953585141
 21
16812.18625200001
 31
0.0
  0
ARC
  5
11E8C
  8
1-中柱P
  6
HIDE-M
 62
     6
 10
25155.411953585131
 20
16818.786252000002
 30
0.0
 40
2.6000000000000001
 50
0.0
 51
90.0
  0
LINE
  5
11E8D
  8
1-中柱P
  6
HIDE-M
 62
     6
 10
25166.011953585152
 20
16818.786252000002
 30
0.0
 11
25166.011953585152
 21
16817.18625200001
 31
0.0
  0
LINE
  5
11E8E
  8
1-中柱P
  6
HIDE-M
 62
     6
 10
25158.01195358513
 20
16818.786252000002
 30
0.0
 11
25158.01195358513
 21
16817.18625200001
 31
0.0
  0
LINE
  5
11E8F
  8
1-中柱P
 10
25141.111953585129
 20
16755.386252000011
 30
0.0
 11
25141.111953585129
 21
16765.386252000011
 31
0.0
  0
LINE
  5
11E90
  8
1-中柱P
 10
25139.511953585152
 20
16755.386252000011
 30
0.0
 11
25139.511953585152
 21
16765.386252000011
 31
0.0
  0
LINE
  5
11E91
  8
1-中柱P
 10
25141.111953585129
 20
16765.386252000011
 30
0.0
 11
25139.511953585152
 21
16765.386252000011
 31
0.0
  0
LINE
  5
11E92
  8
1-中柱P
  6
1PL-M
 62
     6
 10
25189.511953585152
 20
16786.386252000011
 30
0.0
 11
25175.311953585151
 21
16786.386252000011
 31
0.0
  0
LINE
  5
11E93
  8
1-中柱P
  6
HIDE-M
 62
     6
 10
25193.411953585131
 20
16729.386252000011
 30
0.0
 11
25205.011953585152
 21
16729.386252000011
 31
0.0
  0
LINE
  5
11E94
  8
1-中柱P
  6
HIDE-M
 62
     6
 10
25193.411953585131
 20
16721.386252000011
 30
0.0
 11
25205.011953585152
 21
16721.386252000011
 31
0.0
  0
LINE
  5
11E95
  8
1-中柱P
  6
HIDE-M
 62
     6
 10
25193.411953585131
 20
16728.386252000011
 30
0.0
 11
25205.011953585152
 21
16728.386252000011
 31
0.0
  0
LINE
  5
11E96
  8
1-中柱P
  6
HIDE-M
 62
     6
 10
25193.411953585131
 20
16722.386252000011
 30
0.0
 11
25205.011953585152
 21
16722.386252000011
 31
0.0
  0
LINE
  5
11E97
  8
1-中柱P
 10
25194.411953585121
 20
16719.886252000011
 30
0.0
 11
25201.411953585131
 21
16719.886252000011
 31
0.0
  0
LINE
  5
11E98
  8
1-中柱P
 10
25201.411953585131
 20
16730.886252000011
 30
0.0
 11
25194.411953585121
 21
16730.886252000011
 31
0.0
  0
LINE
  5
11E99
  8
1-中柱P
 10
25201.411953585131
 20
16731.636252000011
 30
0.0
 11
25201.411953585131
 21
16719.136252000011
 31
0.0
  0
LINE
  5
11E9A
  8
1-中柱P
 10
25205.011953585152
 20
16731.386252000011
 30
0.0
 11
25205.011953585152
 21
16719.386252000011
 31
0.0
  0
LINE
  5
11E9B
  8
1-中柱P
  6
HIDE-M
 62
     6
 10
25202.911953585131
 20
16719.886252000011
 30
0.0
 11
25204.511953585152
 21
16719.886252000011
 31
0.0
  0
LINE
  5
11E9C
  8
1-中柱P
 10
25205.011953585152
 20
16719.386252000011
 30
0.0
 11
25204.511953585152
 21
16719.886252000011
 31
0.0
  0
ARC
  5
11E9D
  8
1-中柱P
 10
25202.161953585131
 20
16719.136252000011
 30
0.0
 40
0.75
 50
180.0
 51
0.0
  0
LINE
  5
11E9E
  8
1-中柱P
  6
HIDE-M
 62
     6
 10
25204.511953585152
 20
16730.886252000011
 30
0.0
 11
25202.911953585131
 21
16730.886252000011
 31
0.0
  0
LINE
  5
11E9F
  8
1-中柱P
 10
25205.011953585152
 20
16731.386252000011
 30
0.0
 11
25204.511953585152
 21
16730.886252000011
 31
0.0
  0
ARC
  5
11EA0
  8
1-中柱P
 10
25202.161953585131
 20
16731.636252000011
 30
0.0
 40
0.75
 50
0.0
 51
180.0
  0
LINE
  5
11EA1
  8
1-中柱P
 10
25193.411953585131
 20
16729.886252000011
 30
0.0
 11
25193.411953585131
 21
16720.886252000011
 31
0.0
  0
ARC
  5
11EA2
  8
1-中柱P
 10
25194.411953585121
 20
16720.886252000011
 30
0.0
 40
1.0
 50
180.0
 51
270.0
  0
ARC
  5
11EA3
  8
1-中柱P
 10
25194.411953585121
 20
16729.886252000011
 30
0.0
 40
1.0
 50
90.0
 51
180.0
  0
LINE
  5
11EA4
  8
1-中柱P
  6
1PL-M
 62
     6
 10
25188.411953585131
 20
16725.386252000011
 30
0.0
 11
25210.011953585152
 21
16725.386252000011
 31
0.0
  0
LINE
  5
11EA5
  8
1-中柱P
 10
25194.411953585121
 20
16709.886252000011
 30
0.0
 11
25201.411953585131
 21
16709.886252000011
 31
0.0
  0
LINE
  5
11EA6
  8
1-中柱P
 10
25205.011953585152
 20
16717.386252000011
 30
0.0
 11
25205.011953585152
 21
16709.386252000011
 31
0.0
  0
LINE
  5
11EA7
  8
1-中柱P
  6
HIDE-M
 62
     6
 10
25202.911953585131
 20
16709.886252000011
 30
0.0
 11
25204.511953585152
 21
16709.886252000011
 31
0.0
  0
LINE
  5
11EA8
  8
1-中柱P
 10
25205.011953585152
 20
16709.386252000011
 30
0.0
 11
25204.511953585152
 21
16709.886252000011
 31
0.0
  0
ARC
  5
11EA9
  8
1-中柱P
 10
25202.161953585131
 20
16709.136252000011
 30
0.0
 40
0.75
 50
180.0
 51
0.0
  0
LINE
  5
11EAA
  8
1-中柱P
 10
25193.411953585131
 20
16718.886252000011
 30
0.0
 11
25193.411953585131
 21
16710.886252000011
 31
0.0
  0
ARC
  5
11EAB
  8
1-中柱P
 10
25194.411953585121
 20
16710.886252000011
 30
0.0
 40
1.0
 50
180.0
 51
270.0
  0
LINE
  5
11EAC
  8
1-中柱P
  6
1PL-M
 62
     6
 10
25188.411953585131
 20
16715.386252000011
 30
0.0
 11
25210.011953585152
 21
16715.386252000011
 31
0.0
  0
LINE
  5
11EAD
  8
1-中柱P
 10
25201.411953585131
 20
16717.136252000011
 30
0.0
 11
25201.411953585131
 21
16709.136252000011
 31
0.0
  0
LINE
  5
11EAE
  8
1-中柱P
  6
HIDE-M
 62
     6
 10
25193.411953585131
 20
16711.386252000011
 30
0.0
 11
25205.011953585152
 21
16711.386252000011
 31
0.0
  0
LINE
  5
11EAF
  8
1-中柱P
  6
HIDE-M
 62
     6
 10
25193.411953585131
 20
16712.386252000011
 30
0.0
 11
25205.011953585152
 21
16712.386252000011
 31
0.0
  0
LINE
  5
11EB0
  8
1-中柱P
  6
HIDE-M
 62
     6
 10
25130.611953585129
 20
16729.386252000011
 30
0.0
 11
25119.011953585152
 21
16729.386252000011
 31
0.0
  0
LINE
  5
11EB1
  8
1-中柱P
  6
HIDE-M
 62
     6
 10
25130.611953585129
 20
16721.386252000011
 30
0.0
 11
25119.011953585152
 21
16721.386252000011
 31
0.0
  0
LINE
  5
11EB2
  8
1-中柱P
  6
HIDE-M
 62
     6
 10
25130.611953585129
 20
16728.386252000011
 30
0.0
 11
25119.011953585152
 21
16728.386252000011
 31
0.0
  0
LINE
  5
11EB3
  8
1-中柱P
  6
HIDE-M
 62
     6
 10
25130.611953585129
 20
16722.386252000011
 30
0.0
 11
25119.011953585152
 21
16722.386252000011
 31
0.0
  0
LINE
  5
11EB4
  8
1-中柱P
 10
25129.611953585129
 20
16719.886252000011
 30
0.0
 11
25122.611953585129
 21
16719.886252000011
 31
0.0
  0
LINE
  5
11EB5
  8
1-中柱P
 10
25122.611953585129
 20
16730.886252000011
 30
0.0
 11
25129.611953585129
 21
16730.886252000011
 31
0.0
  0
LINE
  5
11EB6
  8
1-中柱P
 10
25122.611953585129
 20
16731.636252000011
 30
0.0
 11
25122.611953585129
 21
16719.136252000011
 31
0.0
  0
LINE
  5
11EB7
  8
1-中柱P
 10
25119.011953585152
 20
16731.386252000011
 30
0.0
 11
25119.011953585152
 21
16719.386252000011
 31
0.0
  0
LINE
  5
11EB8
  8
1-中柱P
  6
HIDE-M
 62
     6
 10
25121.111953585129
 20
16719.886252000011
 30
0.0
 11
25119.511953585141
 21
16719.886252000011
 31
0.0
  0
LINE
  5
11EB9
  8
1-中柱P
 10
25119.011953585152
 20
16719.386252000011
 30
0.0
 11
25119.511953585141
 21
16719.886252000011
 31
0.0
  0
ARC
  5
11EBA
  8
1-中柱P
 10
25121.861953585129
 20
16719.136252000011
 30
0.0
 40
0.75
 50
180.0
 51
0.0
  0
LINE
  5
11EBB
  8
1-中柱P
  6
HIDE-M
 62
     6
 10
25119.511953585141
 20
16730.886252000011
 30
0.0
 11
25121.111953585129
 21
16730.886252000011
 31
0.0
  0
LINE
  5
11EBC
  8
1-中柱P
 10
25119.011953585152
 20
16731.386252000011
 30
0.0
 11
25119.511953585141
 21
16730.886252000011
 31
0.0
  0
ARC
  5
11EBD
  8
1-中柱P
 10
25121.861953585129
 20
16731.636252000011
 30
0.0
 40
0.75
 50
0.0
 51
180.0
  0
LINE
  5
11EBE
  8
1-中柱P
 10
25130.611953585129
 20
16729.886252000011
 30
0.0
 11
25130.611953585129
 21
16720.886252000011
 31
0.0
  0
ARC
  5
11EBF
  8
1-中柱P
 10
25129.611953585129
 20
16720.886252000011
 30
0.0
 40
1.0
 50
270.0
 51
0.0
  0
ARC
  5
11EC0
  8
1-中柱P
 10
25129.611953585129
 20
16729.886252000011
 30
0.0
 40
1.0
 50
0.0
 51
90.0
  0
LINE
  5
11EC1
  8
1-中柱P
  6
1PL-M
 62
     6
 10
25135.611953585129
 20
16725.386252000011
 30
0.0
 11
25114.011953585141
 21
16725.386252000011
 31
0.0
  0
LINE
  5
11EC2
  8
1-中柱P
 10
25129.611953585129
 20
16709.886252000011
 30
0.0
 11
25122.611953585129
 21
16709.886252000011
 31
0.0
  0
LINE
  5
11EC3
  8
1-中柱P
 10
25119.011953585152
 20
16717.386252000011
 30
0.0
 11
25119.011953585152
 21
16709.386252000011
 31
0.0
  0
LINE
  5
11EC4
  8
1-中柱P
  6
HIDE-M
 62
     6
 10
25121.111953585129
 20
16709.886252000011
 30
0.0
 11
25119.511953585141
 21
16709.886252000011
 31
0.0
  0
LINE
  5
11EC5
  8
1-中柱P
 10
25119.011953585152
 20
16709.386252000011
 30
0.0
 11
25119.511953585141
 21
16709.886252000011
 31
0.0
  0
ARC
  5
11EC6
  8
1-中柱P
 10
25121.861953585129
 20
16709.136252000011
 30
0.0
 40
0.75
 50
180.0
 51
0.0
  0
LINE
  5
11EC7
  8
1-中柱P
 10
25130.611953585129
 20
16718.886252000011
 30
0.0
 11
25130.611953585129
 21
16710.886252000011
 31
0.0
  0
ARC
  5
11EC8
  8
1-中柱P
 10
25129.611953585129
 20
16710.886252000011
 30
0.0
 40
1.0
 50
270.0
 51
0.0
  0
LINE
  5
11EC9
  8
1-中柱P
  6
1PL-M
 62
     6
 10
25135.611953585129
 20
16715.386252000011
 30
0.0
 11
25114.011953585141
 21
16715.386252000011
 31
0.0
  0
LINE
  5
11ECA
  8
1-中柱P
 10
25122.611953585129
 20
16717.136252000011
 30
0.0
 11
25122.611953585129
 21
16709.136252000011
 31
0.0
  0
LINE
  5
11ECB
  8
1-中柱P
  6
HIDE-M
 62
     6
 10
25130.611953585129
 20
16711.386252000011
 30
0.0
 11
25119.011953585152
 21
16711.386252000011
 31
0.0
  0
LINE
  5
11ECC
  8
1-中柱P
  6
HIDE-M
 62
     6
 10
25130.611953585129
 20
16712.386252000011
 30
0.0
 11
25119.011953585152
 21
16712.386252000011
 31
0.0
  0
LINE
  5
11ECD
  8
1-中柱カバ-P
 10
25119.511953585141
 20
16757.086252000001
 30
0.0
 11
25119.511953585141
 21
16816.386252000011
 31
0.0
  0
ARC
  5
11ECE
  8
1-中柱カバ-P
 10
25126.111953585129
 20
16816.386252000011
 30
0.0
 40
6.599999999999997
 50
90.0
 51
180.0
  0
LINE
  5
11ECF
  8
1-中柱カバ-P
 10
25121.111953585129
 20
16757.086252000001
 30
0.0
 11
25121.111953585129
 21
16816.386252000011
 31
0.0
  0
ARC
  5
11ED0
  8
1-中柱カバ-P
 10
25126.111953585129
 20
16757.086252000001
 30
0.0
 40
5.0
 50
180.0
 51
270.0
  0
LINE
  5
11ED1
  8
1-中柱カバ-P
 10
25126.111953585129
 20
16822.986251999999
 30
0.0
 11
25197.911953585131
 21
16822.986251999999
 31
0.0
  0
ARC
  5
11ED2
  8
1-中柱カバ-P
 10
25197.911953585131
 20
16816.386252000011
 30
0.0
 40
6.599999999999997
 50
0.0
 51
90.0
  0
LINE
  5
11ED3
  8
1-中柱カバ-P
 10
25126.111953585129
 20
16821.386252000011
 30
0.0
 11
25197.911953585131
 21
16821.386252000011
 31
0.0
  0
ARC
  5
11ED4
  8
1-中柱カバ-P
 10
25197.911953585131
 20
16816.386252000011
 30
0.0
 40
5.0
 50
0.0
 51
90.0
  0
ARC
  5
11ED5
  8
1-中柱カバ-P
 10
25126.111953585129
 20
16816.386252000011
 30
0.0
 40
5.0
 50
90.0
 51
180.0
  0
LINE
  5
11ED6
  8
1-中柱カバ-P
 10
25204.511953585152
 20
16816.386252000011
 30
0.0
 11
25204.511953585152
 21
16757.086252000001
 31
0.0
  0
LINE
  5
11ED7
  8
1-中柱カバ-P
 10
25202.911953585131
 20
16816.386252000011
 30
0.0
 11
25202.911953585131
 21
16757.086252000001
 31
0.0
  0
ARC
  5
11ED8
  8
1-中柱カバ-P
 10
25197.911953585131
 20
16757.086252000001
 30
0.0
 40
5.0
 50
270.0
 51
0.0
  0
LINE
  5
11ED9
  8
1-中柱カバ-P
  6
1PL-M
 62
     6
 10
25162.011953585141
 20
16815.486251999999
 30
0.0
 11
25162.011953585141
 21
16828.486251999992
 31
0.0
  0
LINE
  5
11EDA
  8
1-中柱カバ-P
  6
HIDE-M
 62
     6
 10
25155.011953585152
 20
16822.986251999999
 30
0.0
 11
25155.011953585152
 21
16821.386252000011
 31
0.0
  0
LINE
  5
11EDB
  8
1-中柱カバ-P
  6
HIDE-M
 62
     6
 10
25169.011953585141
 20
16822.986251999999
 30
0.0
 11
25169.011953585141
 21
16821.386252000011
 31
0.0
  0
ARC
  5
11EDC
  8
1-中柱カバ-P
 10
25126.111953585129
 20
16757.086252000001
 30
0.0
 40
6.599999999999997
 50
180.0
 51
270.0
  0
ARC
  5
11EDD
  8
1-中柱カバ-P
 10
25197.911953585131
 20
16757.086252000001
 30
0.0
 40
6.599999999999997
 50
270.0
 51
0.0
  0
LINE
  5
11EDE
  8
1-中柱カバ-P
 10
25189.511953585152
 20
16750.486251999992
 30
0.0
 11
25197.911953585131
 21
16750.486251999992
 31
0.0
  0
LINE
  5
11EDF
  8
1-中柱カバ-P
 10
25134.511953585152
 20
16750.486251999992
 30
0.0
 11
25126.111953585129
 21
16750.486251999992
 31
0.0
  0
LINE
  5
11EE0
  8
1-中柱カバ-P
 10
25189.511953585152
 20
16752.086252000001
 30
0.0
 11
25197.911953585131
 21
16752.086252000001
 31
0.0
  0
LINE
  5
11EE1
  8
1-中柱カバ-P
 10
25134.511953585152
 20
16752.086252000001
 30
0.0
 11
25126.111953585129
 21
16752.086252000001
 31
0.0
  0
LINE
  5
11EE2
  8
1-中柱カバ-P
 10
25134.511953585152
 20
16752.086252000001
 30
0.0
 11
25134.511953585152
 21
16750.486251999992
 31
0.0
  0
LINE
  5
11EE3
  8
1-中柱カバ-P
 10
25189.511953585152
 20
16750.486251999992
 30
0.0
 11
25189.511953585152
 21
16752.086252000001
 31
0.0
  0
LINE
  5
11EE4
  8
1-中柱カバ-P
  6
HIDE-M
 62
     6
 10
25193.411953585131
 20
16771.486251999992
 30
0.0
 11
25205.011953585152
 21
16771.486251999992
 31
0.0
  0
LINE
  5
11EE5
  8
1-中柱カバ-P
  6
HIDE-M
 62
     6
 10
25193.411953585131
 20
16779.486251999992
 30
0.0
 11
25205.011953585152
 21
16779.486251999992
 31
0.0
  0
LINE
  5
11EE6
  8
1-中柱カバ-P
  6
HIDE-M
 62
     6
 10
25193.411953585131
 20
16772.486251999999
 30
0.0
 11
25205.011953585152
 21
16772.486251999999
 31
0.0
  0
LINE
  5
11EE7
  8
1-中柱カバ-P
  6
HIDE-M
 62
     6
 10
25193.411953585131
 20
16778.486251999999
 30
0.0
 11
25205.011953585152
 21
16778.486251999999
 31
0.0
  0
LINE
  5
11EE8
  8
1-中柱カバ-P
 10
25194.411953585121
 20
16780.986251999992
 30
0.0
 11
25201.411953585131
 21
16780.986251999992
 31
0.0
  0
LINE
  5
11EE9
  8
1-中柱カバ-P
 10
25201.411953585131
 20
16769.986251999992
 30
0.0
 11
25194.411953585121
 21
16769.986251999992
 31
0.0
  0
LINE
  5
11EEA
  8
1-中柱カバ-P
 10
25201.411953585131
 20
16769.236251999992
 30
0.0
 11
25201.411953585131
 21
16781.736251999992
 31
0.0
  0
LINE
  5
11EEB
  8
1-中柱カバ-P
 10
25205.011953585152
 20
16769.486251999992
 30
0.0
 11
25205.011953585152
 21
16781.486251999992
 31
0.0
  0
LINE
  5
11EEC
  8
1-中柱カバ-P
  6
HIDE-M
 62
     6
 10
25202.911953585131
 20
16780.986251999992
 30
0.0
 11
25204.511953585152
 21
16780.986251999992
 31
0.0
  0
LINE
  5
11EED
  8
1-中柱カバ-P
 10
25205.011953585152
 20
16781.486251999992
 30
0.0
 11
25204.511953585152
 21
16780.986251999992
 31
0.0
  0
ARC
  5
11EEE
  8
1-中柱カバ-P
 10
25202.161953585131
 20
16781.736251999992
 30
0.0
 40
0.75
 50
0.0
 51
180.0
  0
LINE
  5
11EEF
  8
1-中柱カバ-P
  6
HIDE-M
 62
     6
 10
25204.511953585152
 20
16769.986251999992
 30
0.0
 11
25202.911953585131
 21
16769.986251999992
 31
0.0
  0
LINE
  5
11EF0
  8
1-中柱カバ-P
 10
25205.011953585152
 20
16769.486251999992
 30
0.0
 11
25204.511953585152
 21
16769.986251999992
 31
0.0
  0
ARC
  5
11EF1
  8
1-中柱カバ-P
 10
25202.161953585131
 20
16769.236251999992
 30
0.0
 40
0.75
 50
180.0
 51
0.0
  0
LINE
  5
11EF2
  8
1-中柱カバ-P
 10
25193.411953585131
 20
16770.986251999999
 30
0.0
 11
25193.411953585131
 21
16779.986251999992
 31
0.0
  0
ARC
  5
11EF3
  8
1-中柱カバ-P
 10
25194.411953585121
 20
16779.986251999992
 30
0.0
 40
1.0
 50
90.0
 51
180.0
  0
ARC
  5
11EF4
  8
1-中柱カバ-P
 10
25194.411953585121
 20
16770.986251999999
 30
0.0
 40
1.0
 50
180.0
 51
270.0
  0
LINE
  5
11EF5
  8
1-中柱カバ-P
  6
1PL-M
 62
     6
 10
25188.411953585131
 20
16775.486251999999
 30
0.0
 11
25210.011953585152
 21
16775.486251999999
 31
0.0
  0
LINE
  5
11EF6
  8
1-中柱カバ-P
 10
25194.411953585121
 20
16790.986251999992
 30
0.0
 11
25201.411953585131
 21
16790.986251999992
 31
0.0
  0
LINE
  5
11EF7
  8
1-中柱カバ-P
 10
25205.011953585152
 20
16783.486251999992
 30
0.0
 11
25205.011953585152
 21
16791.486251999992
 31
0.0
  0
LINE
  5
11EF8
  8
1-中柱カバ-P
  6
HIDE-M
 62
     6
 10
25202.911953585131
 20
16790.986251999992
 30
0.0
 11
25204.511953585152
 21
16790.986251999992
 31
0.0
  0
LINE
  5
11EF9
  8
1-中柱カバ-P
 10
25205.011953585152
 20
16791.486251999992
 30
0.0
 11
25204.511953585152
 21
16790.986251999992
 31
0.0
  0
ARC
  5
11EFA
  8
1-中柱カバ-P
 10
25202.161953585131
 20
16791.736251999992
 30
0.0
 40
0.75
 50
0.0
 51
180.0
  0
LINE
  5
11EFB
  8
1-中柱カバ-P
 10
25193.411953585131
 20
16781.986251999992
 30
0.0
 11
25193.411953585131
 21
16789.986251999999
 31
0.0
  0
ARC
  5
11EFC
  8
1-中柱カバ-P
 10
25194.411953585121
 20
16789.986251999999
 30
0.0
 40
1.0
 50
90.0
 51
180.0
  0
LINE
  5
11EFD
  8
1-中柱カバ-P
  6
1PL-M
 62
     6
 10
25188.411953585131
 20
16785.486251999992
 30
0.0
 11
25210.011953585152
 21
16785.486251999992
 31
0.0
  0
LINE
  5
11EFE
  8
1-中柱カバ-P
 10
25201.411953585131
 20
16783.736251999992
 30
0.0
 11
25201.411953585131
 21
16791.736251999992
 31
0.0
  0
LINE
  5
11EFF
  8
1-中柱カバ-P
  6
HIDE-M
 62
     6
 10
25130.611953585129
 20
16771.486251999992
 30
0.0
 11
25119.011953585152
 21
16771.486251999992
 31
0.0
  0
LINE
  5
11F00
  8
1-中柱カバ-P
  6
HIDE-M
 62
     6
 10
25130.611953585129
 20
16779.486251999992
 30
0.0
 11
25119.011953585152
 21
16779.486251999992
 31
0.0
  0
LINE
  5
11F01
  8
1-中柱カバ-P
  6
HIDE-M
 62
     6
 10
25130.611953585129
 20
16772.486251999999
 30
0.0
 11
25119.011953585152
 21
16772.486251999999
 31
0.0
  0
LINE
  5
11F02
  8
1-中柱カバ-P
  6
HIDE-M
 62
     6
 10
25130.611953585129
 20
16778.486251999999
 30
0.0
 11
25119.011953585152
 21
16778.486251999999
 31
0.0
  0
LINE
  5
11F03
  8
1-中柱カバ-P
 10
25129.611953585129
 20
16780.986251999992
 30
0.0
 11
25122.611953585129
 21
16780.986251999992
 31
0.0
  0
LINE
  5
11F04
  8
1-中柱カバ-P
 10
25122.611953585129
 20
16769.986251999992
 30
0.0
 11
25129.611953585129
 21
16769.986251999992
 31
0.0
  0
LINE
  5
11F05
  8
1-中柱カバ-P
 10
25122.611953585129
 20
16769.236251999992
 30
0.0
 11
25122.611953585129
 21
16781.736251999992
 31
0.0
  0
LINE
  5
11F06
  8
1-中柱カバ-P
 10
25119.011953585152
 20
16769.486251999992
 30
0.0
 11
25119.011953585152
 21
16781.486251999992
 31
0.0
  0
LINE
  5
11F07
  8
1-中柱カバ-P
  6
HIDE-M
 62
     6
 10
25121.111953585129
 20
16780.986251999992
 30
0.0
 11
25119.511953585141
 21
16780.986251999992
 31
0.0
  0
LINE
  5
11F08
  8
1-中柱カバ-P
 10
25119.011953585152
 20
16781.486251999992
 30
0.0
 11
25119.511953585141
 21
16780.986251999992
 31
0.0
  0
ARC
  5
11F09
  8
1-中柱カバ-P
 10
25121.861953585129
 20
16781.736251999992
 30
0.0
 40
0.75
 50
0.0
 51
180.0
  0
LINE
  5
11F0A
  8
1-中柱カバ-P
  6
HIDE-M
 62
     6
 10
25119.511953585141
 20
16769.986251999992
 30
0.0
 11
25121.111953585129
 21
16769.986251999992
 31
0.0
  0
LINE
  5
11F0B
  8
1-中柱カバ-P
 10
25119.011953585152
 20
16769.486251999992
 30
0.0
 11
25119.511953585141
 21
16769.986251999992
 31
0.0
  0
ARC
  5
11F0C
  8
1-中柱カバ-P
 10
25121.861953585129
 20
16769.236251999992
 30
0.0
 40
0.75
 50
180.0
 51
0.0
  0
LINE
  5
11F0D
  8
1-中柱カバ-P
 10
25130.611953585129
 20
16770.986251999999
 30
0.0
 11
25130.611953585129
 21
16779.986251999992
 31
0.0
  0
ARC
  5
11F0E
  8
1-中柱カバ-P
 10
25129.611953585129
 20
16779.986251999992
 30
0.0
 40
1.0
 50
0.0
 51
90.0
  0
ARC
  5
11F0F
  8
1-中柱カバ-P
 10
25129.611953585129
 20
16770.986251999999
 30
0.0
 40
1.0
 50
270.0
 51
0.0
  0
LINE
  5
11F10
  8
1-中柱カバ-P
  6
1PL-M
 62
     6
 10
25135.611953585129
 20
16775.486251999999
 30
0.0
 11
25114.011953585141
 21
16775.486251999999
 31
0.0
  0
LINE
  5
11F11
  8
1-中柱カバ-P
 10
25129.611953585129
 20
16790.986251999992
 30
0.0
 11
25122.611953585129
 21
16790.986251999992
 31
0.0
  0
LINE
  5
11F12
  8
1-中柱カバ-P
 10
25119.011953585152
 20
16783.486251999992
 30
0.0
 11
25119.011953585152
 21
16791.486251999992
 31
0.0
  0
LINE
  5
11F13
  8
1-中柱カバ-P
  6
HIDE-M
 62
     6
 10
25121.111953585129
 20
16790.986251999992
 30
0.0
 11
25119.511953585141
 21
16790.986251999992
 31
0.0
  0
LINE
  5
11F14
  8
1-中柱カバ-P
 10
25119.011953585152
 20
16791.486251999992
 30
0.0
 11
25119.511953585141
 21
16790.986251999992
 31
0.0
  0
ARC
  5
11F15
  8
1-中柱カバ-P
 10
25121.861953585129
 20
16791.736251999992
 30
0.0
 40
0.75
 50
0.0
 51
180.0
  0
LINE
  5
11F16
  8
1-中柱カバ-P
 10
25130.611953585129
 20
16781.986251999992
 30
0.0
 11
25130.611953585129
 21
16789.986251999999
 31
0.0
  0
ARC
  5
11F17
  8
1-中柱カバ-P
 10
25129.611953585129
 20
16789.986251999999
 30
0.0
 40
1.0
 50
0.0
 51
90.0
  0
LINE
  5
11F18
  8
1-中柱カバ-P
  6
1PL-M
 62
     6
 10
25135.611953585129
 20
16785.486251999992
 30
0.0
 11
25114.011953585141
 21
16785.486251999992
 31
0.0
  0
LINE
  5
11F19
  8
1-中柱カバ-P
 10
25122.611953585129
 20
16783.736251999992
 30
0.0
 11
25122.611953585129
 21
16791.736251999992
 31
0.0
  0
LINE
  5
11F1A
  8
1-中柱カバ-P
  6
HIDE-M
 62
     6
 10
25193.411953585131
 20
16789.486251999992
 30
0.0
 11
25205.011953585152
 21
16789.486251999992
 31
0.0
  0
LINE
  5
11F1B
  8
1-中柱カバ-P
  6
HIDE-M
 62
     6
 10
25193.411953585131
 20
16788.486251999992
 30
0.0
 11
25205.011953585152
 21
16788.486251999992
 31
0.0
  0
LINE
  5
11F1C
  8
1-中柱カバ-P
  6
HIDE-M
 62
     6
 10
25130.611953585129
 20
16789.486251999992
 30
0.0
 11
25119.011953585152
 21
16789.486251999992
 31
0.0
  0
LINE
  5
11F1D
  8
1-中柱カバ-P
  6
HIDE-M
 62
     6
 10
25130.611953585129
 20
16788.486251999992
 30
0.0
 11
25119.011953585152
 21
16788.486251999992
 31
0.0
  0
ARC
  5
11F1E
  8
1-前柱P
  6
HIDE-M
 62
     6
 10
25158.411953585131
 20
13900.886252
 30
0.0
 40
2.6000000000000001
 50
0.0
 51
90.0
  0
LINE
  5
11F1F
  8
1-前柱P
  6
HIDE-M
 62
     6
 10
25170.011953585152
 20
13902.935642153199
 30
0.0
 11
25170.011953585152
 21
13899.286252
 31
0.0
  0
LINE
  5
11F20
  8
1-前柱P
  6
HIDE-M
 62
     6
 10
25160.011953585141
 20
13902.935642153199
 30
0.0
 11
25160.011953585141
 21
13899.286252
 31
0.0
  0
LINE
  5
11F21
  8
1-前柱P
  6
1PL-M
 62
     6
 10
25165.011953585152
 20
13908.486252000001
 30
0.0
 11
25165.011953585152
 21
13894.286252
 31
0.0
  0
ARC
  5
11F22
  8
1-前柱P
  6
HIDE-M
 62
     6
 10
25171.611953585129
 20
13900.886252
 30
0.0
 40
2.6000000000000001
 50
90.0
 51
180.0
  0
LINE
  5
11F23
  8
1-前柱P
  6
HIDE-M
 62
     6
 10
25161.011953585152
 20
13900.886252
 30
0.0
 11
25161.011953585152
 21
13899.286252
 31
0.0
  0
LINE
  5
11F24
  8
1-前柱P
  6
HIDE-M
 62
     6
 10
25169.011953585141
 20
13900.886252
 30
0.0
 11
25169.011953585141
 21
13899.286252
 31
0.0
  0
LINE
  5
11F25
  8
1-前柱P
 10
25151.111953585129
 20
13788.58625200001
 30
0.0
 11
25172.911953585139
 21
13788.58625200001
 31
0.0
  0
LINE
  5
11F26
  8
1-前柱P
 10
25202.911953585131
 20
13825.886252
 30
0.0
 11
25202.911953585131
 21
13818.586251999999
 31
0.0
  0
ARC
  5
11F27
  8
1-前柱P
 10
25172.911953585139
 20
13818.586251999999
 30
0.0
 40
30.0
 50
270.0
 51
0.0
  0
ARC
  5
11F28
  8
1-前柱P
 10
25172.911953585139
 20
13818.586251999999
 30
0.0
 40
31.600000000000001
 50
270.0
 51
0.0
  0
LINE
  5
11F29
  8
1-前柱P
 10
25151.111953585129
 20
13786.986252000001
 30
0.0
 11
25172.911953585139
 21
13786.986252000001
 31
0.0
  0
LINE
  5
11F2A
  8
1-前柱P
 10
25204.511953585152
 20
13825.886252
 30
0.0
 11
25204.511953585152
 21
13818.586251999999
 31
0.0
  0
LINE
  5
11F2B
  8
1-前柱P
 10
25181.511953585152
 20
13847.486252000001
 30
0.0
 11
25181.511953585152
 21
13837.486252000001
 31
0.0
  0
LINE
  5
11F2C
  8
1-前柱P
 10
25179.91195358515
 20
13837.486252000001
 30
0.0
 11
25179.91195358515
 21
13847.486252000001
 31
0.0
  0
LINE
  5
11F2D
  8
1-前柱P
 10
25121.111953585129
 20
13825.886252
 30
0.0
 11
25121.111953585129
 21
13818.586251999999
 31
0.0
  0
ARC
  5
11F2E
  8
1-前柱P
 10
25151.111953585129
 20
13818.586251999999
 30
0.0
 40
30.0
 50
180.0
 51
270.0
  0
ARC
  5
11F2F
  8
1-前柱P
 10
25151.111953585129
 20
13818.586251999999
 30
0.0
 40
31.600000000000001
 50
180.0
 51
270.0
  0
LINE
  5
11F30
  8
1-前柱P
 10
25119.511953585141
 20
13825.886252
 30
0.0
 11
25119.511953585141
 21
13818.586251999999
 31
0.0
  0
LINE
  5
11F31
  8
1-前柱P
 10
25126.111953585129
 20
13832.486252000001
 30
0.0
 11
25137.511953585152
 21
13832.486252000001
 31
0.0
  0
ARC
  5
11F32
  8
1-前柱P
 10
25126.111953585129
 20
13825.886252
 30
0.0
 40
6.599999999999997
 50
90.0
 51
180.0
  0
ARC
  5
11F33
  8
1-前柱P
 10
25137.511953585152
 20
13837.486252000001
 30
0.0
 40
5.0
 50
270.0
 51
0.0
  0
LINE
  5
11F34
  8
1-前柱P
 10
25126.111953585129
 20
13830.886252
 30
0.0
 11
25137.511953585152
 21
13830.886252
 31
0.0
  0
ARC
  5
11F35
  8
1-前柱P
 10
25126.111953585129
 20
13825.886252
 30
0.0
 40
5.0
 50
90.0
 51
180.0
  0
LINE
  5
11F36
  8
1-前柱P
 10
25142.511953585141
 20
13837.486252000001
 30
0.0
 11
25142.511953585141
 21
13896.886252
 31
0.0
  0
LINE
  5
11F37
  8
1-前柱P
 10
25144.111953585129
 20
13837.486252000001
 30
0.0
 11
25144.111953585129
 21
13896.886252
 31
0.0
  0
ARC
  5
11F38
  8
1-前柱P
 10
25137.511953585152
 20
13837.486252000001
 30
0.0
 40
6.599999999999997
 50
270.0
 51
0.0
  0
LINE
  5
11F39
  8
1-前柱P
 10
25149.111953585129
 20
13903.486252000001
 30
0.0
 11
25182.511953585141
 21
13903.486252000001
 31
0.0
  0
ARC
  5
11F3A
  8
1-前柱P
 10
25149.111953585129
 20
13896.886252
 30
0.0
 40
6.599999999999997
 50
90.0
 51
180.0
  0
LINE
  5
11F3B
  8
1-前柱P
 10
25149.111953585129
 20
13901.886252
 30
0.0
 11
25182.511953585141
 21
13901.886252
 31
0.0
  0
ARC
  5
11F3C
  8
1-前柱P
 10
25149.111953585129
 20
13896.886252
 30
0.0
 40
5.0
 50
90.0
 51
180.0
  0
LINE
  5
11F3D
  8
1-前柱P
 10
25182.511953585141
 20
13901.886252
 30
0.0
 11
25182.511953585141
 21
13903.486252000001
 31
0.0
  0
LINE
  5
11F3E
  8
1-前柱P
 10
25197.91195358515
 20
13832.486252000001
 30
0.0
 11
25186.511953585141
 21
13832.486252000001
 31
0.0
  0
ARC
  5
11F3F
  8
1-前柱P
 10
25197.91195358515
 20
13825.886252
 30
0.0
 40
6.599999999999997
 50
0.0
 51
90.0
  0
ARC
  5
11F40
  8
1-前柱P
 10
25186.511953585141
 20
13837.486252000001
 30
0.0
 40
5.0
 50
180.0
 51
270.0
  0
LINE
  5
11F41
  8
1-前柱P
 10
25186.511953585141
 20
13830.886252
 30
0.0
 11
25197.91195358515
 21
13830.886252
 31
0.0
  0
ARC
  5
11F42
  8
1-前柱P
 10
25186.511953585141
 20
13837.486252000001
 30
0.0
 40
6.599999999999997
 50
180.0
 51
270.0
  0
ARC
  5
11F43
  8
1-前柱P
 10
25197.91195358515
 20
13825.886252
 30
0.0
 40
5.0
 50
0.0
 51
90.0
  0
LINE
  5
11F44
  8
1-前柱P
 10
25181.511953585152
 20
13847.486252000001
 30
0.0
 11
25179.91195358515
 21
13847.486252000001
 31
0.0
  0
LINE
  5
11F45
  8
1-前柱カバ-P
 10
25204.511953585152
 20
13839.18625199999
 30
0.0
 11
25204.511953585152
 21
13898.486252000001
 31
0.0
  0
ARC
  5
11F46
  8
1-前柱カバ-P
 10
25197.91195358515
 20
13898.486252000001
 30
0.0
 40
6.599999999999997
 50
0.0
 51
90.0
  0
LINE
  5
11F47
  8
1-前柱カバ-P
 10
25202.911953585131
 20
13839.18625199999
 30
0.0
 11
25202.911953585131
 21
13898.486252000001
 31
0.0
  0
ARC
  5
11F48
  8
1-前柱カバ-P
 10
25197.91195358515
 20
13839.18625199999
 30
0.0
 40
5.0
 50
270.0
 51
0.0
  0
LINE
  5
11F49
  8
1-前柱カバ-P
 10
25197.91195358515
 20
13905.086251999999
 30
0.0
 11
25126.111953585129
 21
13905.086251999999
 31
0.0
  0
ARC
  5
11F4A
  8
1-前柱カバ-P
 10
25126.111953585129
 20
13898.486252000001
 30
0.0
 40
6.599999999999997
 50
90.0
 51
180.0
  0
LINE
  5
11F4B
  8
1-前柱カバ-P
 10
25197.91195358515
 20
13903.486252000001
 30
0.0
 11
25126.111953585129
 21
13903.486252000001
 31
0.0
  0
ARC
  5
11F4C
  8
1-前柱カバ-P
 10
25126.111953585129
 20
13898.486252000001
 30
0.0
 40
5.0
 50
90.0
 51
180.0
  0
ARC
  5
11F4D
  8
1-前柱カバ-P
 10
25197.91195358515
 20
13898.486252000001
 30
0.0
 40
5.0
 50
0.0
 51
90.0
  0
LINE
  5
11F4E
  8
1-前柱カバ-P
 10
25119.511953585141
 20
13898.486252000001
 30
0.0
 11
25119.511953585141
 21
13839.18625199999
 31
0.0
  0
LINE
  5
11F4F
  8
1-前柱カバ-P
 10
25121.111953585129
 20
13898.486252000001
 30
0.0
 11
25121.111953585129
 21
13839.18625199999
 31
0.0
  0
ARC
  5
11F50
  8
1-前柱カバ-P
 10
25126.111953585129
 20
13839.18625199999
 30
0.0
 40
5.0
 50
180.0
 51
270.0
  0
LINE
  5
11F51
  8
1-前柱カバ-P
  6
1PL-M
 62
     6
 10
25162.011953585141
 20
13897.586251999999
 30
0.0
 11
25162.011953585141
 21
13910.58625200001
 31
0.0
  0
LINE
  5
11F52
  8
1-前柱カバ-P
  6
HIDE-M
 62
     6
 10
25169.011953585141
 20
13905.086251999999
 30
0.0
 11
25169.011953585141
 21
13903.486252000001
 31
0.0
  0
LINE
  5
11F53
  8
1-前柱カバ-P
  6
HIDE-M
 62
     6
 10
25155.011953585152
 20
13905.086251999999
 30
0.0
 11
25155.011953585152
 21
13903.486252000001
 31
0.0
  0
ARC
  5
11F54
  8
1-前柱カバ-P
 10
25197.91195358515
 20
13839.18625199999
 30
0.0
 40
6.599999999999997
 50
270.0
 51
0.0
  0
ARC
  5
11F55
  8
1-前柱カバ-P
 10
25126.111953585129
 20
13839.18625199999
 30
0.0
 40
6.599999999999997
 50
180.0
 51
270.0
  0
LINE
  5
11F56
  8
1-前柱カバ-P
 10
25134.511953585152
 20
13832.586251999999
 30
0.0
 11
25126.111953585129
 21
13832.586251999999
 31
0.0
  0
LINE
  5
11F57
  8
1-前柱カバ-P
 10
25189.511953585152
 20
13832.586251999999
 30
0.0
 11
25197.91195358515
 21
13832.586251999999
 31
0.0
  0
LINE
  5
11F58
  8
1-前柱カバ-P
 10
25134.511953585152
 20
13834.186252
 30
0.0
 11
25126.111953585129
 21
13834.186252
 31
0.0
  0
LINE
  5
11F59
  8
1-前柱カバ-P
 10
25189.511953585152
 20
13834.186252
 30
0.0
 11
25197.91195358515
 21
13834.186252
 31
0.0
  0
LINE
  5
11F5A
  8
1-前柱カバ-P
 10
25189.511953585152
 20
13834.186252
 30
0.0
 11
25189.511953585152
 21
13832.586251999999
 31
0.0
  0
LINE
  5
11F5B
  8
1-前柱カバ-P
 10
25134.511953585152
 20
13832.586251999999
 30
0.0
 11
25134.511953585152
 21
13834.186252
 31
0.0
  0
LINE
  5
11F5C
  8
1-前柱カバ-P
  6
HIDE-M
 62
     6
 10
25130.611953585129
 20
13853.586251999999
 30
0.0
 11
25119.011953585152
 21
13853.586251999999
 31
0.0
  0
LINE
  5
11F5D
  8
1-前柱カバ-P
  6
HIDE-M
 62
     6
 10
25130.611953585129
 20
13861.586251999999
 30
0.0
 11
25119.011953585152
 21
13861.586251999999
 31
0.0
  0
LINE
  5
11F5E
  8
1-前柱カバ-P
  6
HIDE-M
 62
     6
 10
25130.611953585129
 20
13854.586251999999
 30
0.0
 11
25119.011953585152
 21
13854.586251999999
 31
0.0
  0
LINE
  5
11F5F
  8
1-前柱カバ-P
  6
HIDE-M
 62
     6
 10
25130.611953585129
 20
13860.586251999999
 30
0.0
 11
25119.011953585152
 21
13860.586251999999
 31
0.0
  0
LINE
  5
11F60
  8
1-前柱カバ-P
 10
25129.611953585129
 20
13863.086251999999
 30
0.0
 11
25122.611953585129
 21
13863.086251999999
 31
0.0
  0
LINE
  5
11F61
  8
1-前柱カバ-P
 10
25122.611953585129
 20
13852.08625199999
 30
0.0
 11
25129.611953585129
 21
13852.08625199999
 31
0.0
  0
LINE
  5
11F62
  8
1-前柱カバ-P
 10
25122.611953585129
 20
13851.33625199999
 30
0.0
 11
25122.611953585129
 21
13863.83625200001
 31
0.0
  0
LINE
  5
11F63
  8
1-前柱カバ-P
 10
25119.011953585152
 20
13851.58625199999
 30
0.0
 11
25119.011953585152
 21
13863.58625199999
 31
0.0
  0
LINE
  5
11F64
  8
1-前柱カバ-P
  6
HIDE-M
 62
     6
 10
25121.111953585129
 20
13863.086251999999
 30
0.0
 11
25119.511953585141
 21
13863.086251999999
 31
0.0
  0
LINE
  5
11F65
  8
1-前柱カバ-P
 10
25119.011953585152
 20
13863.58625199999
 30
0.0
 11
25119.511953585141
 21
13863.086251999999
 31
0.0
  0
ARC
  5
11F66
  8
1-前柱カバ-P
 10
25121.861953585129
 20
13863.83625200001
 30
0.0
 40
0.75
 50
0.0
 51
180.0
  0
LINE
  5
11F67
  8
1-前柱カバ-P
  6
HIDE-M
 62
     6
 10
25119.511953585141
 20
13852.08625199999
 30
0.0
 11
25121.111953585129
 21
13852.08625199999
 31
0.0
  0
LINE
  5
11F68
  8
1-前柱カバ-P
 10
25119.011953585152
 20
13851.58625199999
 30
0.0
 11
25119.511953585141
 21
13852.08625199999
 31
0.0
  0
ARC
  5
11F69
  8
1-前柱カバ-P
 10
25121.861953585129
 20
13851.33625199999
 30
0.0
 40
0.75
 50
180.0
 51
0.0
  0
LINE
  5
11F6A
  8
1-前柱カバ-P
 10
25130.611953585129
 20
13853.08625199999
 30
0.0
 11
25130.611953585129
 21
13862.08625199999
 31
0.0
  0
ARC
  5
11F6B
  8
1-前柱カバ-P
 10
25129.611953585129
 20
13862.08625199999
 30
0.0
 40
1.0
 50
0.0
 51
90.0
  0
ARC
  5
11F6C
  8
1-前柱カバ-P
 10
25129.611953585129
 20
13853.08625199999
 30
0.0
 40
1.0
 50
270.0
 51
0.0
  0
LINE
  5
11F6D
  8
1-前柱カバ-P
  6
1PL-M
 62
     6
 10
25135.611953585129
 20
13857.586251999999
 30
0.0
 11
25114.011953585141
 21
13857.586251999999
 31
0.0
  0
LINE
  5
11F6E
  8
1-前柱カバ-P
 10
25129.611953585129
 20
13873.08625199999
 30
0.0
 11
25122.611953585129
 21
13873.08625199999
 31
0.0
  0
LINE
  5
11F6F
  8
1-前柱カバ-P
 10
25119.011953585152
 20
13865.58625199999
 30
0.0
 11
25119.011953585152
 21
13873.586251999999
 31
0.0
  0
LINE
  5
11F70
  8
1-前柱カバ-P
  6
HIDE-M
 62
     6
 10
25121.111953585129
 20
13873.08625199999
 30
0.0
 11
25119.511953585141
 21
13873.08625199999
 31
0.0
  0
LINE
  5
11F71
  8
1-前柱カバ-P
 10
25119.011953585152
 20
13873.586251999999
 30
0.0
 11
25119.511953585141
 21
13873.08625199999
 31
0.0
  0
ARC
  5
11F72
  8
1-前柱カバ-P
 10
25121.861953585129
 20
13873.836251999999
 30
0.0
 40
0.75
 50
0.0
 51
180.0
  0
LINE
  5
11F73
  8
1-前柱カバ-P
 10
25130.611953585129
 20
13864.086251999999
 30
0.0
 11
25130.611953585129
 21
13872.08625199999
 31
0.0
  0
ARC
  5
11F74
  8
1-前柱カバ-P
 10
25129.611953585129
 20
13872.08625199999
 30
0.0
 40
1.0
 50
0.0
 51
90.0
  0
LINE
  5
11F75
  8
1-前柱カバ-P
  6
1PL-M
 62
     6
 10
25135.611953585129
 20
13867.58625200001
 30
0.0
 11
25114.011953585141
 21
13867.58625200001
 31
0.0
  0
LINE
  5
11F76
  8
1-前柱カバ-P
 10
25122.611953585129
 20
13865.83625200001
 30
0.0
 11
25122.611953585129
 21
13873.836251999999
 31
0.0
  0
LINE
  5
11F77
  8
1-前柱カバ-P
  6
HIDE-M
 62
     6
 10
25193.411953585131
 20
13853.586251999999
 30
0.0
 11
25205.011953585152
 21
13853.586251999999
 31
0.0
  0
LINE
  5
11F78
  8
1-前柱カバ-P
  6
HIDE-M
 62
     6
 10
25193.411953585131
 20
13861.586251999999
 30
0.0
 11
25205.011953585152
 21
13861.586251999999
 31
0.0
  0
LINE
  5
11F79
  8
1-前柱カバ-P
  6
HIDE-M
 62
     6
 10
25193.411953585131
 20
13854.586251999999
 30
0.0
 11
25205.011953585152
 21
13854.586251999999
 31
0.0
  0
LINE
  5
11F7A
  8
1-前柱カバ-P
  6
HIDE-M
 62
     6
 10
25193.411953585131
 20
13860.586251999999
 30
0.0
 11
25205.011953585152
 21
13860.586251999999
 31
0.0
  0
LINE
  5
11F7B
  8
1-前柱カバ-P
 10
25194.41195358515
 20
13863.086251999999
 30
0.0
 11
25201.411953585139
 21
13863.086251999999
 31
0.0
  0
LINE
  5
11F7C
  8
1-前柱カバ-P
 10
25201.411953585139
 20
13852.08625199999
 30
0.0
 11
25194.41195358515
 21
13852.08625199999
 31
0.0
  0
LINE
  5
11F7D
  8
1-前柱カバ-P
 10
25201.411953585139
 20
13851.33625199999
 30
0.0
 11
25201.411953585139
 21
13863.83625200001
 31
0.0
  0
LINE
  5
11F7E
  8
1-前柱カバ-P
 10
25205.011953585152
 20
13851.58625199999
 30
0.0
 11
25205.011953585152
 21
13863.58625199999
 31
0.0
  0
LINE
  5
11F7F
  8
1-前柱カバ-P
  6
HIDE-M
 62
     6
 10
25202.911953585131
 20
13863.086251999999
 30
0.0
 11
25204.511953585152
 21
13863.086251999999
 31
0.0
  0
LINE
  5
11F80
  8
1-前柱カバ-P
 10
25205.011953585152
 20
13863.58625199999
 30
0.0
 11
25204.511953585152
 21
13863.086251999999
 31
0.0
  0
ARC
  5
11F81
  8
1-前柱カバ-P
 10
25202.16195358515
 20
13863.83625200001
 30
0.0
 40
0.75
 50
0.0
 51
180.0
  0
LINE
  5
11F82
  8
1-前柱カバ-P
  6
HIDE-M
 62
     6
 10
25204.511953585152
 20
13852.08625199999
 30
0.0
 11
25202.911953585131
 21
13852.08625199999
 31
0.0
  0
LINE
  5
11F83
  8
1-前柱カバ-P
 10
25205.011953585152
 20
13851.58625199999
 30
0.0
 11
25204.511953585152
 21
13852.08625199999
 31
0.0
  0
ARC
  5
11F84
  8
1-前柱カバ-P
 10
25202.16195358515
 20
13851.33625199999
 30
0.0
 40
0.75
 50
180.0
 51
0.0
  0
LINE
  5
11F85
  8
1-前柱カバ-P
 10
25193.411953585131
 20
13853.08625199999
 30
0.0
 11
25193.411953585131
 21
13862.08625199999
 31
0.0
  0
ARC
  5
11F86
  8
1-前柱カバ-P
 10
25194.41195358515
 20
13862.08625199999
 30
0.0
 40
1.0
 50
90.0
 51
180.0
  0
ARC
  5
11F87
  8
1-前柱カバ-P
 10
25194.41195358515
 20
13853.08625199999
 30
0.0
 40
1.0
 50
180.0
 51
270.0
  0
LINE
  5
11F88
  8
1-前柱カバ-P
  6
1PL-M
 62
     6
 10
25188.41195358515
 20
13857.586251999999
 30
0.0
 11
25210.011953585152
 21
13857.586251999999
 31
0.0
  0
LINE
  5
11F89
  8
1-前柱カバ-P
 10
25194.41195358515
 20
13873.08625199999
 30
0.0
 11
25201.411953585139
 21
13873.08625199999
 31
0.0
  0
LINE
  5
11F8A
  8
1-前柱カバ-P
 10
25205.011953585152
 20
13865.58625199999
 30
0.0
 11
25205.011953585152
 21
13873.586251999999
 31
0.0
  0
LINE
  5
11F8B
  8
1-前柱カバ-P
  6
HIDE-M
 62
     6
 10
25202.911953585131
 20
13873.08625199999
 30
0.0
 11
25204.511953585152
 21
13873.08625199999
 31
0.0
  0
LINE
  5
11F8C
  8
1-前柱カバ-P
 10
25205.011953585152
 20
13873.586251999999
 30
0.0
 11
25204.511953585152
 21
13873.08625199999
 31
0.0
  0
ARC
  5
11F8D
  8
1-前柱カバ-P
 10
25202.16195358515
 20
13873.836251999999
 30
0.0
 40
0.75
 50
0.0
 51
180.0
  0
LINE
  5
11F8E
  8
1-前柱カバ-P
 10
25193.411953585131
 20
13864.086251999999
 30
0.0
 11
25193.411953585131
 21
13872.08625199999
 31
0.0
  0
ARC
  5
11F8F
  8
1-前柱カバ-P
 10
25194.41195358515
 20
13872.08625199999
 30
0.0
 40
1.0
 50
90.0
 51
180.0
  0
LINE
  5
11F90
  8
1-前柱カバ-P
  6
1PL-M
 62
     6
 10
25188.41195358515
 20
13867.58625200001
 30
0.0
 11
25210.011953585152
 21
13867.58625200001
 31
0.0
  0
LINE
  5
11F91
  8
1-前柱カバ-P
 10
25201.411953585139
 20
13865.83625200001
 30
0.0
 11
25201.411953585139
 21
13873.836251999999
 31
0.0
  0
LINE
  5
11F92
  8
1-前柱カバ-P
  6
HIDE-M
 62
     6
 10
25130.611953585129
 20
13871.58625199999
 30
0.0
 11
25119.011953585152
 21
13871.58625199999
 31
0.0
  0
LINE
  5
11F93
  8
1-前柱カバ-P
  6
HIDE-M
 62
     6
 10
25130.611953585129
 20
13870.58625199999
 30
0.0
 11
25119.011953585152
 21
13870.58625199999
 31
0.0
  0
LINE
  5
11F94
  8
1-前柱カバ-P
  6
HIDE-M
 62
     6
 10
25193.411953585131
 20
13871.58625199999
 30
0.0
 11
25205.011953585152
 21
13871.58625199999
 31
0.0
  0
LINE
  5
11F95
  8
1-前柱カバ-P
  6
HIDE-M
 62
     6
 10
25193.411953585131
 20
13870.58625199999
 30
0.0
 11
25205.011953585152
 21
13870.58625199999
 31
0.0
  0
LINE
  5
11FA8
  8
0-6
  6
CONTINUOUS
 62
     6
 10
23717.79142700864
 20
13192.487109999989
 30
0.0
 11
24717.790768008639
 21
13192.487109999989
 31
0.0
  0
TEXT
  5
11FA9
  8
0-6
  6
CONTINUOUS
 62
     7
 10
23813.791691008631
 20
13272.48737399998
 30
0.0
 40
160.0
  1
前柱（P）
 72
     4
 11
24213.791691008631
 21
13352.48737399998
 31
0.0
  0
LINE
  5
11FAA
  8
0-6
  6
CONTINUOUS
 62
     6
 10
25122.86713183004
 20
13778.486252000001
 30
0.0
 11
24717.790768008639
 21
13192.487109999989
 31
0.0
  0
LINE
  5
11FAB
  8
0-6
  6
CONTINUOUS
 62
     6
 10
23717.79142700864
 20
16080.047909954121
 30
0.0
 11
24717.790768008639
 21
16080.047909954121
 31
0.0
  0
TEXT
  5
11FAC
  8
0-6
  6
CONTINUOUS
 62
     7
 10
23813.791691008631
 20
16160.048173954099
 30
0.0
 40
160.0
  1
中柱（P）
 72
     4
 11
24213.791691008631
 21
16240.048173954099
 31
0.0
  0
LINE
  5
11FAD
  8
0-6
  6
CONTINUOUS
 62
     6
 10
25122.86713183004
 20
16666.047051954109
 30
0.0
 11
24717.790768008639
 21
16080.047909954121
 31
0.0
  0
LINE
  5
11FAE
  8
0-6
  6
CONTINUOUS
 62
     6
 10
23376.729536539111
 20
14393.476989828871
 30
0.0
 11
24832.729536539118
 21
14393.47698982888
 31
0.0
  0
TEXT
  5
11FAF
  8
0-6
  6
CONTINUOUS
 62
     7
 10
23416.734809791531
 20
14473.47725382886
 30
0.0
 40
160.0
  1
前柱カバー（P）
 72
     4
 11
24104.734809791531
 21
14553.47725382886
 31
0.0
  0
LINE
  5
11FB0
  8
0-6
  6
CONTINUOUS
 62
     6
 10
25131.96713183005
 20
13905.086251999999
 30
0.0
 11
24832.729536539118
 21
14393.47698982888
 31
0.0
  0
LINE
  5
11FB1
  8
0-6
  6
CONTINUOUS
 62
     6
 10
23376.729536539111
 20
17300.976553828881
 30
0.0
 11
24832.729536539118
 21
17300.976553828881
 31
0.0
  0
TEXT
  5
11FB2
  8
0-6
  6
CONTINUOUS
 62
     7
 10
23416.734809791531
 20
17380.976817828861
 30
0.0
 40
160.0
  1
中柱カバー（P）
 72
     4
 11
24104.734809791531
 21
17460.976817828861
 31
0.0
  0
LINE
  5
11FB3
  8
0-6
  6
CONTINUOUS
 62
     6
 10
25131.96713183005
 20
16812.585815999999
 30
0.0
 11
24832.729536539118
 21
17300.976553828881
 31
0.0
  0
LINE
  5
11FB4
  8
0-6
  6
CONTINUOUS
 62
     6
 10
23717.79142700864
 20
19957.423617045872
 30
0.0
 11
24717.790768008621
 21
19957.423617045872
 31
0.0
  0
TEXT
  5
11FB5
  8
0-6
  6
CONTINUOUS
 62
     7
 10
23813.791691008631
 20
20037.423881045848
 30
0.0
 40
160.0
  1
後柱（P）
 72
     4
 11
24213.791691008631
 21
20117.423881045848
 31
0.0
  0
LINE
  5
11FB6
  8
0-6
  6
CONTINUOUS
 62
     6
 10
25122.86713183004
 20
19371.424475045871
 30
0.0
 11
24717.790768008621
 21
19957.423617045872
 31
0.0
  0
LINE
  5
11FB7
  8
0-6
  6
CONTINUOUS
 62
     6
 10
23376.729536539111
 20
18736.494973171109
 30
0.0
 11
24832.729536539111
 21
18736.494973171109
 31
0.0
  0
TEXT
  5
11FB8
  8
0-6
  6
CONTINUOUS
 62
     7
 10
23416.73480979152
 20
18816.495237171112
 30
0.0
 40
160.0
  1
後柱カバー（P）
 72
     4
 11
24104.73480979152
 21
18896.495237171112
 31
0.0
  0
LINE
  5
11FB9
  8
0-6
  6
CONTINUOUS
 62
     6
 10
25131.96713183005
 20
19224.885710999992
 30
0.0
 11
24832.729536539111
 21
18736.494973171109
 31
0.0
  0
LINE
  5
1200B
  8
SUNPOU
  6
CONTINUOUS
 10
5976.9415304765889
 20
19540.484140500012
 30
0.0
 11
5976.9415304765889
 21
20337.45140827847
 31
0.0
  0
LINE
  5
1200C
  8
SUNPOU
  6
CONTINUOUS
 10
5976.9415304765771
 20
12867.17308084781
 30
0.0
 11
5976.9415304765771
 21
13608.48567099998
 31
0.0
  0
LINE
  5
12012
  8
0-1
  6
CONTINUOUS
 62
     3
 10
11828.234401470951
 20
6291.1885389999998
 30
0.0
 11
11828.234401470951
 21
8152.2344180000036
 31
0.0
  0
LINE
  5
12013
  8
0-1
  6
CONTINUOUS
 62
     3
 10
11813.23262047095
 20
6291.1885389999998
 30
0.0
 11
11813.23262047095
 21
8152.2344180000036
 31
0.0
  0
LINE
  5
12014
  8
0-6
  6
CONTINUOUS
 62
     6
 10
6964.3913998545167
 20
17514.824153553742
 30
0.0
 11
7004.6492998280337
 21
17357.69293702946
 31
0.0
  0
LINE
  5
12015
  8
0-6
  6
CONTINUOUS
 62
     6
 10
7004.6492998280337
 20
17357.69293702946
 30
0.0
 11
7053.4355456975991
 21
17379.244319889542
 31
0.0
  0
LINE
  5
12016
  8
0-6
  6
CONTINUOUS
 62
     6
 10
7053.4355456975991
 20
17379.244319889542
 30
0.0
 11
6964.3913998545167
 21
17514.824153553742
 31
0.0
  0
LINE
  5
12017
  8
0-1
  6
CONTINUOUS
 62
     3
 10
6980.73090447094
 20
8152.2344180000036
 30
0.0
 11
6980.73090447094
 21
6291.1885389999998
 31
0.0
  0
LINE
  5
12018
  8
0-1
  6
CONTINUOUS
 62
     3
 10
6943.7327124709409
 20
8152.2344180000036
 30
0.0
 11
6943.7327124709409
 21
6291.1885389999998
 31
0.0
  0
LINE
  5
12019
  8
0-1
  6
CONTINUOUS
 62
     3
 10
6805.2317354709367
 20
6291.1885389999998
 30
0.0
 11
6805.2317354709367
 21
8152.2344180000036
 31
0.0
  0
LINE
  5
1201A
  8
0-1
  6
CONTINUOUS
 62
     3
 10
6820.2315374709506
 20
6291.1885389999998
 30
0.0
 11
6820.2315374709506
 21
8152.2344180000036
 31
0.0
  0
LINE
  5
1201B
  8
0-1
  6
CONTINUOUS
 62
     3
 10
7104.2310894709426
 20
6291.1885389999998
 30
0.0
 11
7104.2310894709426
 21
8152.2344180000036
 31
0.0
  0
LINE
  5
1201C
  8
0-1
  6
CONTINUOUS
 62
     3
 10
7119.2318804709503
 20
6291.1885389999998
 30
0.0
 11
7119.2318804709503
 21
8152.2344180000036
 31
0.0
  0
LINE
  5
1201D
  8
0-1
  6
CONTINUOUS
 62
     3
 10
6621.232449470951
 20
8152.2344180000064
 30
0.0
 11
6621.232449470951
 21
6241.1883740000021
 31
0.0
  0
LINE
  5
1201E
  8
0-1
  6
CONTINUOUS
 62
     3
 10
11926.45232147672
 20
16756.484355072182
 30
0.0
 11
11926.4523214767
 21
19510.488495000001
 31
0.0
  0
LINE
  5
1201F
  8
0-1
  6
CONTINUOUS
 62
     3
 10
11963.45249347672
 20
16741.268818412482
 30
0.0
 11
11963.45249347672
 21
19510.488495000001
 31
0.0
  0
LINE
  5
12020
  8
0-1
  6
CONTINUOUS
 62
     3
 10
12126.452981476719
 20
16674.238321886402
 30
0.0
 11
12126.452981476719
 21
19510.488495000001
 31
0.0
  0
LINE
  5
12021
  8
0-1
  6
CONTINUOUS
 62
     3
 10
12163.453153476719
 20
16659.02278522672
 30
0.0
 11
12163.453153476719
 21
19510.488495000001
 31
0.0
  0
TEXT
  5
12022
  8
0-6
  6
CONTINUOUS
 62
     7
 10
10400.05508511522
 20
12888.48527499999
 30
0.0
 40
160.0
  1
梁（P）前
 72
     4
 11
10842.72175178189
 21
12968.48527499999
 31
0.0
  0
LINE
  5
12023
  8
0-6
  6
CONTINUOUS
 62
     6
 10
11321.504590053801
 20
12808.48600099999
 30
0.0
 11
10327.230786531931
 21
12808.48600099999
 31
0.0
  0
TEXT
  5
12024
  8
0-6
  6
CONTINUOUS
 62
     7
 10
12802.704881859399
 20
15378.48943889057
 30
0.0
 40
160.0
  1
桁（PU）B + 桁補強（PU）
 72
     4
 11
14082.704881859399
 21
15458.48943889057
 31
0.0
  0
LINE
  5
12025
  8
0-6
  6
CONTINUOUS
 62
     6
 10
15455.144613567079
 20
15286.9713410122
 30
0.0
 11
12689.68267770859
 21
15286.9713410122
 31
0.0
  0
TEXT
  5
12026
  8
0-6
  6
CONTINUOUS
 62
     7
 10
12802.704881859399
 20
18296.489438890541
 30
0.0
 40
160.0
  1
桁（PU）B + 桁補強（PU）
 72
     4
 11
14082.704881859399
 21
18376.489438890541
 31
0.0
  0
LINE
  5
12027
  8
0-6
  6
CONTINUOUS
 62
     6
 10
15455.144613567079
 20
18204.97134101218
 30
0.0
 11
12689.68267770859
 21
18204.97134101218
 31
0.0
  0
TEXT
  5
12028
  8
0-6
  6
CONTINUOUS
 62
     7
 10
12802.704881859399
 20
16837.489439890542
 30
0.0
 40
160.0
  1
桁（PU）A + 桁補強（PU）
 72
     4
 11
14082.704881859399
 21
16917.489439890542
 31
0.0
  0
LINE
  5
12029
  8
0-6
  6
CONTINUOUS
 62
     6
 10
15455.144613567079
 20
16745.971342012192
 30
0.0
 11
12689.68267770859
 21
16745.971342012192
 31
0.0
  0
TEXT
  5
1202A
  8
0-6
  6
CONTINUOUS
 62
     7
 10
12802.704881859399
 20
19410.991338890552
 30
0.0
 40
160.0
  1
桁（PU）A + 桁補強（PU）
 72
     4
 11
14082.704881859399
 21
19490.991338890552
 31
0.0
  0
LINE
  5
1202B
  8
0-6
  6
CONTINUOUS
 62
     6
 10
15455.144613567079
 20
19319.473241012191
 30
0.0
 11
12689.68267770859
 21
19319.473241012191
 31
0.0
  0
LINE
  5
1202C
  8
0-6
  6
CONTINUOUS
 62
     6
 10
12689.68267770859
 20
16745.971342012192
 30
0.0
 11
11627.53400630551
 21
16287.17678460459
 31
0.0
  0
LINE
  5
1202D
  8
0-6
  6
CONTINUOUS
 62
     6
 10
11627.53400630551
 20
16287.17678460459
 30
0.0
 11
11369.90963551447
 21
16705.485856999989
 31
0.0
  0
LINE
  5
1202E
  8
0-6
  6
CONTINUOUS
 62
     6
 10
12689.68267770859
 20
15286.9713410122
 30
0.0
 11
11627.53400630551
 21
14828.1767836046
 31
0.0
  0
LINE
  5
1202F
  8
0-6
  6
CONTINUOUS
 62
     6
 10
11627.53400630551
 20
14828.1767836046
 30
0.0
 11
11369.90963551447
 21
15246.485856000019
 31
0.0
  0
LINE
  5
12030
  8
0-6
  6
CONTINUOUS
 62
     6
 10
12689.68267770859
 20
18204.97134101218
 30
0.0
 11
11627.53400630551
 21
17746.176783604591
 31
0.0
  0
LINE
  5
12031
  8
0-6
  6
CONTINUOUS
 62
     6
 10
11627.53400630551
 20
17746.176783604591
 30
0.0
 11
11369.90963551447
 21
18164.485855999999
 31
0.0
  0
LINE
  5
12032
  8
0-6
  6
CONTINUOUS
 62
     6
 10
12689.68267770859
 20
19319.473241012191
 30
0.0
 11
11627.53400630551
 21
18860.678683604579
 31
0.0
  0
LINE
  5
12033
  8
0-6
  6
CONTINUOUS
 62
     6
 10
11627.53400630551
 20
18860.678683604579
 30
0.0
 11
11369.90963551447
 21
19278.987755999991
 31
0.0
  0
TEXT
  5
12034
  8
0-6
  6
CONTINUOUS
 62
     7
 10
13093.799206661521
 20
13007.84770638002
 30
0.0
 40
160.0
  1
桁前（PU）+ 桁補強（PU）
 72
     4
 11
14341.799206661521
 21
13087.84770638002
 31
0.0
  0
LINE
  5
12035
  8
0-6
  6
CONTINUOUS
 62
     6
 10
15630.462068272591
 20
12906.3011391909
 30
0.0
 11
13047.78773551721
 21
12906.3011391909
 31
0.0
  0
LINE
  5
12036
  8
0-6
  6
CONTINUOUS
 62
     6
 10
12056.740036757779
 20
13787.05271559655
 30
0.0
 11
13047.78773551721
 21
12906.3011391909
 31
0.0
  0
CIRCLE
  5
12037
  8
0-5
  6
CONTINUOUS
 62
     4
 10
15128.71667799999
 20
1375.999982000001
 30
0.0
 40
20.0
  0
ARC
  5
12038
  8
0-5
  6
CONTINUOUS
 62
     4
 10
15128.71667799999
 20
1375.999982000001
 30
0.0
 40
20.0
 50
180.0
 51
0.0
  0
ARC
  5
12039
  8
0-5
  6
CONTINUOUS
 62
     4
 10
15128.71667799999
 20
1375.999982000001
 30
0.0
 40
20.0
 50
0.0
 51
179.99998499999839
  0
CIRCLE
  5
1203A
  8
0-5
  6
CONTINUOUS
 62
     4
 10
15128.71667799999
 20
1775.999321999999
 30
0.0
 40
20.0
  0
ARC
  5
1203B
  8
0-5
  6
CONTINUOUS
 62
     4
 10
15128.71667799999
 20
1775.999321999999
 30
0.0
 40
20.0
 50
180.0
 51
0.0
  0
ARC
  5
1203C
  8
0-5
  6
CONTINUOUS
 62
     4
 10
15128.71667799999
 20
1775.999321999999
 30
0.0
 40
20.0
 50
0.0
 51
179.99998499999839
  0
TEXT
  5
1203D
  8
0-5
  6
CONTINUOUS
 62
     7
 10
16661.217403999992
 20
1655.999792000001
 30
0.0
 40
160.0
  1
H
  0
TEXT
  5
1203E
  8
0-5
  6
CONTINUOUS
 62
     7
 10
15176.146933
 20
1655.999792000001
 30
0.0
 40
160.0
  1
（ ）内寸法ハ、  タイプヲ示ス。
  0
TEXT
  5
1203F
  8
0-5
  6
CONTINUOUS
 62
     7
 10
15288.716216000001
 20
1255.999462
 30
0.0
 40
160.0
  1
有効高サハ、基礎高サヲ含ミマセン。
  0
LINE
  5
12040
  8
0-1
  6
CONTINUOUS
 62
     3
 10
7726.4424234765984
 20
18482.20484570484
 30
0.0
 11
7726.4424234765984
 21
19510.488495000001
 31
0.0
  0
LINE
  5
12041
  8
0-1
  6
CONTINUOUS
 62
     3
 10
7763.4435844765858
 20
18467.12136022907
 30
0.0
 11
7763.4435844765858
 21
19510.488495000001
 31
0.0
  0
LINE
  5
12042
  8
0-1
  6
CONTINUOUS
 62
     3
 10
7926.4420934765894
 20
18400.6751845787
 30
0.0
 11
7926.4420934765913
 21
19510.488495000001
 31
0.0
  0
LINE
  5
12043
  8
0-1
  6
CONTINUOUS
 62
     3
 10
7963.441274476595
 20
18385.592506247911
 30
0.0
 11
7963.4412744765978
 21
19510.488495000001
 31
0.0
  0
LINE
  5
12044
  8
0-1
  6
CONTINUOUS
 62
     3
 10
7326.4420944765989
 20
18645.264571121919
 30
0.0
 11
7326.4420944765989
 21
19510.488495000001
 31
0.0
  0
LINE
  5
12045
  8
0-1
  6
CONTINUOUS
 62
     3
 10
7363.443255476589
 20
18630.18108564616
 30
0.0
 11
7363.443255476589
 21
19510.488495000001
 31
0.0
  0
LINE
  5
12046
  8
0-1
  6
CONTINUOUS
 62
     3
 10
7526.4417644765908
 20
18563.734909995801
 30
0.0
 11
7526.4417644765908
 21
19510.488495000001
 31
0.0
  0
LINE
  5
12047
  8
0-1
  6
CONTINUOUS
 62
     3
 10
7563.4409454765973
 20
18548.652231665001
 30
0.0
 11
7563.4409454765992
 21
19510.488495000001
 31
0.0
  0
LINE
  5
12048
  8
0-1
  6
CONTINUOUS
 62
     3
 10
7126.442424476606
 20
18726.794232248041
 30
0.0
 11
7126.442424476606
 21
19510.488495000001
 31
0.0
  0
LINE
  5
12049
  8
0-1
  6
CONTINUOUS
 62
     3
 10
7163.4435854765961
 20
18711.710746772282
 30
0.0
 11
7163.4435854765961
 21
19510.488495000001
 31
0.0
  0
LINE
  5
1204C
  8
WAKUSEN-01
 10
868.00000000000193
 20
22484.000000000011
 30
0.0
 11
32764.000000000011
 21
22484.000000000011
 31
0.0
  0
LINE
  5
1204F
  8
WAKUSEN-01
 10
20560.0
 20
2484.0
 30
0.0
 11
32764.0
 21
2484.0
 31
0.0
  0
LINE
  5
12050
  8
WAKUSEN-02
 10
20560.0
 20
1655.9999999999991
 30
0.0
 11
26868.0
 21
1655.9999999999991
 31
0.0
  0
TEXT
  5
12051
  8
WAKUMOJI-01
 10
20670.260259962761
 20
2125.9030093393221
 30
0.0
 40
240.0
  1
名　称
  7
WAKUMOJI
  0
TEXT
  5
12052
  8
WAKUMOJI-01
 10
20656.505485091919
 20
1319.12897497982
 30
0.0
 40
240.0
  1
機種名
  7
WAKUMOJI
  0
LINE
  5
12055
  8
YODOROGO
 10
29977.604341291921
 20
1995.7494964292871
 30
0.0
 11
29829.604341291921
 21
1995.7494964292871
 31
0.0
1001
AUTOCAD_POSTSCRIPT_FIGURE
1002
{
1000
PSFILL
1000
Grayscale
1000
Grayscale
1070
    25
1002
}
  0
LINE
  5
12056
  8
YODOROGO
 10
29829.604341291921
 20
1947.749496429288
 30
0.0
 11
29977.604341291921
 21
1947.749496429288
 31
0.0
1001
AUTOCAD_POSTSCRIPT_FIGURE
1002
{
1000
PSFILL
1000
Grayscale
1000
Grayscale
1070
    25
1002
}
  0
LINE
  5
12057
  8
YODOROGO
 10
29977.604341291921
 20
1907.7494964292871
 30
0.0
 11
29829.604341291921
 21
1907.7494964292871
 31
0.0
1001
AUTOCAD_POSTSCRIPT_FIGURE
1002
{
1000
PSFILL
1000
Grayscale
1000
Grayscale
1070
    25
1002
}
  0
LINE
  5
12058
  8
YODOROGO
 10
29829.604341291921
 20
1859.749496429288
 30
0.0
 11
29977.604341291921
 21
1859.749496429288
 31
0.0
1001
AUTOCAD_POSTSCRIPT_FIGURE
1002
{
1000
PSFILL
1000
Grayscale
1000
Grayscale
1070
    25
1002
}
  0
LINE
  5
12059
  8
YODOROGO
 10
29977.604341291921
 20
1819.7494964292871
 30
0.0
 11
29829.604341291921
 21
1819.7494964292871
 31
0.0
1001
AUTOCAD_POSTSCRIPT_FIGURE
1002
{
1000
PSFILL
1000
Grayscale
1000
Grayscale
1070
    25
1002
}
  0
LINE
  5
1205A
  8
YODOROGO
 10
29921.60434129191
 20
1707.749496429288
 30
0.0
 11
29977.604341291921
 21
1707.749496429288
 31
0.0
1001
AUTOCAD_POSTSCRIPT_FIGURE
1002
{
1000
PSFILL
1000
Grayscale
1000
Grayscale
1070
    25
1002
}
  0
LINE
  5
1205B
  8
YODOROGO
 10
29737.604341291921
 20
1427.749496429288
 30
0.0
 11
29937.604341291932
 21
1481.3393349155101
 31
0.0
  0
LINE
  5
1205C
  8
YODOROGO
 10
29949.60434129191
 20
1707.749496429288
 30
0.0
 11
29885.604341291921
 21
1707.749496429288
 31
0.0
  0
ARC
  5
1205D
  8
YODOROGO
 10
30254.34774982791
 20
1807.864609233261
 30
0.0
 40
381.88686420564721
 50
213.96111677667841
 51
264.47872074317792
  0
ARC
  5
1205E
  8
YODOROGO
 10
30254.347749827921
 20
1807.864609233302
 30
0.0
 40
381.8868642056816
 50
208.14114420486601
 51
212.9210361185994
  0
LINE
  5
1205F
  8
YODOROGO
 10
29771.409872985321
 20
1556.807661346234
 30
0.0
 11
29933.78413250855
 21
1600.3157130570869
 31
0.0
  0
LINE
  5
12060
  8
YODOROGO
 10
29737.604341291921
 20
1427.749496429288
 30
0.0
 11
29937.604341291932
 21
1481.3393349155101
 31
0.0
  0
LINE
  5
12061
  8
YODOROGO
 10
29949.60434129191
 20
1707.749496429288
 30
0.0
 11
29885.604341291921
 21
1707.749496429288
 31
0.0
  0
ARC
  5
12062
  8
YODOROGO
 10
30254.34774982791
 20
1807.864609233261
 30
0.0
 40
381.88686420564721
 50
213.96111677667841
 51
264.47872074317792
  0
LINE
  5
12063
  8
YODOROGO
 10
28793.60434129191
 20
1819.7494964292871
 30
0.0
 11
28433.60434129191
 21
1819.7494964292871
 31
0.0
  0
LINE
  5
12064
  8
YODOROGO
 10
28513.60434129191
 20
1427.749496429288
 30
0.0
 11
28793.60434129191
 21
1427.749496429288
 31
0.0
  0
LINE
  5
12065
  8
YODOROGO
 10
28729.604341291921
 20
1923.7494964292871
 30
0.0
 11
28497.60434129191
 21
1923.7494964292871
 31
0.0
  0
LINE
  5
12066
  8
YODOROGO
 10
28585.604341291921
 20
2027.749496429288
 30
0.0
 11
28657.604341291921
 21
2027.749496429288
 31
0.0
  0
LINE
  5
12067
  8
YODOROGO
 10
28433.60434129191
 20
1707.749496429288
 30
0.0
 11
28433.60434129191
 21
1507.749496429288
 31
0.0
  0
LINE
  5
12068
  8
YODOROGO
 10
28497.60434129191
 20
1563.7494964292871
 30
0.0
 11
28497.60434129191
 21
1707.749496429288
 31
0.0
  0
LINE
  5
12069
  8
YODOROGO
 10
28585.604341291921
 20
1747.74949642929
 30
0.0
 11
28585.604341291921
 21
1547.749496429288
 31
0.0
  0
LINE
  5
1206A
  8
YODOROGO
 10
27857.604341291921
 20
1683.749496429288
 30
0.0
 11
27777.604341291921
 21
1619.9724140445701
 31
0.0
  0
LINE
  5
1206B
  8
YODOROGO
 10
27937.604341291921
 20
1619.9724140445701
 30
0.0
 11
27857.604341291921
 21
1683.749496429288
 31
0.0
  0
LINE
  5
1206C
  8
YODOROGO
 10
27857.604341291921
 20
1707.749496429288
 30
0.0
 11
27937.604341291921
 21
1643.9724140445701
 31
0.0
  0
LINE
  5
1206D
  8
YODOROGO
 10
27777.604341291921
 20
1643.9724140445701
 30
0.0
 11
27857.604341291921
 21
1707.749496429288
 31
0.0
  0
LINE
  5
1206E
  8
YODOROGO
 10
28040.913204016892
 20
1659.749496429288
 30
0.0
 11
28040.913204016892
 21
1683.7494964292871
 31
0.0
  0
LINE
  5
1206F
  8
YODOROGO
 10
27977.604341291921
 20
1683.7494964292871
 30
0.0
 11
27977.604341291921
 21
1667.749496429285
 31
0.0
  0
LINE
  5
12070
  8
YODOROGO
 10
28098.135520230931
 20
1707.749496429288
 30
0.0
 11
28098.135520230931
 21
1655.5036372746561
 31
0.0
1001
AUTOCAD_POSTSCRIPT_FIGURE
1002
{
1000
PSFILL
1000
Grayscale
1000
Grayscale
1070
   100
1002
}
  0
LINE
  5
12071
  8
YODOROGO
 10
28082.135520230921
 20
1655.5036372746561
 30
0.0
 11
28082.135520230921
 21
1707.749496429288
 31
0.0
1001
AUTOCAD_POSTSCRIPT_FIGURE
1002
{
1000
PSFILL
1000
Grayscale
1000
Grayscale
1070
   100
1002
}
  0
LINE
  5
12072
  8
YODOROGO
 10
27809.604341291921
 20
1608.771904043258
 30
0.0
 11
27809.604341291921
 21
1632.771904043258
 31
0.0
  0
LINE
  5
12073
  8
YODOROGO
 10
27905.604341291921
 20
1608.771904043258
 30
0.0
 11
27809.604341291921
 21
1608.771904043258
 31
0.0
  0
LINE
  5
12074
  8
YODOROGO
 10
27905.604341291921
 20
1632.771904043258
 30
0.0
 11
27905.604341291921
 21
1608.771904043258
 31
0.0
  0
LINE
  5
12075
  8
YODOROGO
 10
27809.604341291921
 20
1632.771904043258
 30
0.0
 11
27905.604341291921
 21
1632.771904043258
 31
0.0
  0
LINE
  5
12076
  8
YODOROGO
 10
27824.509588915738
 20
1568.5028573704751
 30
0.0
 11
27785.604341291921
 21
1475.7494964292871
 31
0.0
1001
AUTOCAD_POSTSCRIPT_FIGURE
1002
{
1000
PSFILL
1000
Grayscale
1000
Grayscale
1070
   100
1002
}
  0
LINE
  5
12077
  8
YODOROGO
 10
27777.604341291921
 20
1568.5028573704751
 30
0.0
 11
27824.509588915738
 21
1568.5028573704751
 31
0.0
1001
AUTOCAD_POSTSCRIPT_FIGURE
1002
{
1000
PSFILL
1000
Grayscale
1000
Grayscale
1070
   100
1002
}
  0
LINE
  5
12078
  8
YODOROGO
 10
27777.604341291921
 20
1588.5028573704751
 30
0.0
 11
27777.604341291921
 21
1568.5028573704751
 31
0.0
1001
AUTOCAD_POSTSCRIPT_FIGURE
1002
{
1000
PSFILL
1000
Grayscale
1000
Grayscale
1070
   100
1002
}
  0
LINE
  5
12079
  8
YODOROGO
 10
27937.604341291921
 20
1588.5028573704751
 30
0.0
 11
27777.604341291921
 21
1588.5028573704751
 31
0.0
1001
AUTOCAD_POSTSCRIPT_FIGURE
1002
{
1000
PSFILL
1000
Grayscale
1000
Grayscale
1070
   100
1002
}
  0
LINE
  5
1207A
  8
YODOROGO
 10
27937.604341291921
 20
1568.5028573704751
 30
0.0
 11
27937.604341291921
 21
1588.5028573704751
 31
0.0
1001
AUTOCAD_POSTSCRIPT_FIGURE
1002
{
1000
PSFILL
1000
Grayscale
1000
Grayscale
1070
   100
1002
}
  0
LINE
  5
1207B
  8
YODOROGO
 10
27844.509588915738
 20
1568.5028573704751
 30
0.0
 11
27937.604341291921
 21
1568.5028573704751
 31
0.0
1001
AUTOCAD_POSTSCRIPT_FIGURE
1002
{
1000
PSFILL
1000
Grayscale
1000
Grayscale
1070
   100
1002
}
  0
LINE
  5
1207C
  8
YODOROGO
 10
27815.546718284771
 20
1495.7494964292871
 30
0.0
 11
27844.509588915738
 21
1568.5028573704751
 31
0.0
1001
AUTOCAD_POSTSCRIPT_FIGURE
1002
{
1000
PSFILL
1000
Grayscale
1000
Grayscale
1070
   100
1002
}
  0
LINE
  5
1207D
  8
YODOROGO
 10
27902.054790808648
 20
1495.7494964292871
 30
0.0
 11
27815.546718284771
 21
1495.7494964292871
 31
0.0
1001
AUTOCAD_POSTSCRIPT_FIGURE
1002
{
1000
PSFILL
1000
Grayscale
1000
Grayscale
1070
   100
1002
}
  0
LINE
  5
1207E
  8
YODOROGO
 10
27885.065004790951
 20
1536.2338106976929
 30
0.0
 11
27902.054790808648
 21
1495.7494964292871
 31
0.0
1001
AUTOCAD_POSTSCRIPT_FIGURE
1002
{
1000
PSFILL
1000
Grayscale
1000
Grayscale
1070
   100
1002
}
  0
LINE
  5
1207F
  8
YODOROGO
 10
27901.065004790951
 20
1536.2338106976929
 30
0.0
 11
27885.065004790951
 21
1536.2338106976929
 31
0.0
1001
AUTOCAD_POSTSCRIPT_FIGURE
1002
{
1000
PSFILL
1000
Grayscale
1000
Grayscale
1070
   100
1002
}
  0
LINE
  5
12080
  8
YODOROGO
 10
27929.604341291921
 20
1475.7494964292871
 30
0.0
 11
27901.065004790951
 21
1536.2338106976929
 31
0.0
1001
AUTOCAD_POSTSCRIPT_FIGURE
1002
{
1000
PSFILL
1000
Grayscale
1000
Grayscale
1070
   100
1002
}
  0
LINE
  5
12081
  8
YODOROGO
 10
27785.604341291921
 20
1475.7494964292871
 30
0.0
 11
27929.604341291921
 21
1475.7494964292871
 31
0.0
1001
AUTOCAD_POSTSCRIPT_FIGURE
1002
{
1000
PSFILL
1000
Grayscale
1000
Grayscale
1070
   100
1002
}
  0
LINE
  5
12082
  8
YODOROGO
 10
27777.604341291921
 20
1619.9724140445701
 30
0.0
 11
27777.604341291921
 21
1643.9724140445701
 31
0.0
  0
LINE
  5
12083
  8
YODOROGO
 10
27937.604341291921
 20
1643.9724140445701
 30
0.0
 11
27937.604341291921
 21
1619.9724140445701
 31
0.0
  0
ARC
  5
12084
  8
YODOROGO
 10
28225.940442146959
 20
1600.877765325326
 30
0.0
 40
175.9999999999998
 50
280.3644312771313
 51
3.5414836592180561
  0
ARC
  5
12085
  8
YODOROGO
 10
28235.756030759301
 20
1633.5978069619041
 30
0.0
 40
111.9999999999982
 50
281.24905825041549
 51
348.75094174958321
  0
LINE
  5
12086
  8
YODOROGO
 10
28257.604341291921
 20
1523.7494964292871
 30
0.0
 11
28257.604341291921
 21
1427.749496429288
 31
0.0
  0
LINE
  5
12087
  8
YODOROGO
 10
28020.088903736909
 20
1610.650565061914
 30
0.0
 11
28040.913204016892
 21
1659.749496429288
 31
0.0
  0
LINE
  5
12088
  8
YODOROGO
 10
28041.604341291921
 20
1583.120489948401
 30
0.0
 11
28020.088903736909
 21
1610.650565061914
 31
0.0
  0
LINE
  5
12089
  8
YODOROGO
 10
28041.604341291921
 20
1563.120489948398
 30
0.0
 11
28041.604341291921
 21
1583.120489948401
 31
0.0
  0
LINE
  5
1208A
  8
YODOROGO
 10
28017.604341291921
 20
1585.2370637495301
 30
0.0
 11
28041.604341291921
 21
1563.120489948398
 31
0.0
  0
LINE
  5
1208B
  8
YODOROGO
 10
28017.604341291921
 20
1475.7494964292871
 30
0.0
 11
28017.604341291921
 21
1585.2370637495301
 31
0.0
  0
LINE
  5
1208C
  8
YODOROGO
 10
28001.604341291921
 20
1475.7494964292871
 30
0.0
 11
28017.604341291921
 21
1475.7494964292871
 31
0.0
  0
LINE
  5
1208D
  8
YODOROGO
 10
28001.604341291921
 20
1580.0053496897469
 30
0.0
 11
28001.604341291921
 21
1475.7494964292871
 31
0.0
  0
LINE
  5
1208E
  8
YODOROGO
 10
27977.604341291921
 20
1532.7680790334291
 30
0.0
 11
28001.604341291921
 21
1580.0053496897469
 31
0.0
  0
LINE
  5
1208F
  8
YODOROGO
 10
27977.604341291921
 20
1556.76807903343
 30
0.0
 11
27977.604341291921
 21
1532.7680790334291
 31
0.0
  0
LINE
  5
12090
  8
YODOROGO
 10
28025.828774291349
 20
1667.749496429285
 30
0.0
 11
27977.604341291921
 21
1556.76807903343
 31
0.0
  0
LINE
  5
12091
  8
YODOROGO
 10
27977.604341291921
 20
1667.749496429285
 30
0.0
 11
28025.828774291349
 21
1667.749496429285
 31
0.0
  0
LINE
  5
12092
  8
YODOROGO
 10
28050.135520230899
 20
1655.5036372746561
 30
0.0
 11
28082.135520230921
 21
1655.5036372746561
 31
0.0
1001
AUTOCAD_POSTSCRIPT_FIGURE
1002
{
1000
PSFILL
1000
Grayscale
1000
Grayscale
1070
   100
1002
}
  0
LINE
  5
12093
  8
YODOROGO
 10
28050.135520230899
 20
1631.5036372746561
 30
0.0
 11
28050.135520230899
 21
1655.5036372746561
 31
0.0
1001
AUTOCAD_POSTSCRIPT_FIGURE
1002
{
1000
PSFILL
1000
Grayscale
1000
Grayscale
1070
   100
1002
}
  0
LINE
  5
12094
  8
YODOROGO
 10
28082.135520230921
 20
1631.5036372746561
 30
0.0
 11
28050.135520230899
 21
1631.5036372746561
 31
0.0
1001
AUTOCAD_POSTSCRIPT_FIGURE
1002
{
1000
PSFILL
1000
Grayscale
1000
Grayscale
1070
   100
1002
}
  0
LINE
  5
12095
  8
YODOROGO
 10
28082.135520230921
 20
1499.749496429288
 30
0.0
 11
28082.135520230921
 21
1631.5036372746561
 31
0.0
1001
AUTOCAD_POSTSCRIPT_FIGURE
1002
{
1000
PSFILL
1000
Grayscale
1000
Grayscale
1070
   100
1002
}
  0
LINE
  5
12096
  8
YODOROGO
 10
28050.135520230921
 20
1499.749496429288
 30
0.0
 11
28082.135520230921
 21
1499.749496429288
 31
0.0
1001
AUTOCAD_POSTSCRIPT_FIGURE
1002
{
1000
PSFILL
1000
Grayscale
1000
Grayscale
1070
   100
1002
}
  0
LINE
  5
12097
  8
YODOROGO
 10
28050.135520230921
 20
1475.7494964292871
 30
0.0
 11
28050.135520230921
 21
1499.749496429288
 31
0.0
1001
AUTOCAD_POSTSCRIPT_FIGURE
1002
{
1000
PSFILL
1000
Grayscale
1000
Grayscale
1070
   100
1002
}
  0
LINE
  5
12098
  8
YODOROGO
 10
28137.604341291921
 20
1475.7494964292871
 30
0.0
 11
28050.135520230921
 21
1475.7494964292871
 31
0.0
1001
AUTOCAD_POSTSCRIPT_FIGURE
1002
{
1000
PSFILL
1000
Grayscale
1000
Grayscale
1070
   100
1002
}
  0
LINE
  5
12099
  8
YODOROGO
 10
28137.604341291921
 20
1499.749496429288
 30
0.0
 11
28137.604341291921
 21
1475.7494964292871
 31
0.0
1001
AUTOCAD_POSTSCRIPT_FIGURE
1002
{
1000
PSFILL
1000
Grayscale
1000
Grayscale
1070
   100
1002
}
  0
LINE
  5
1209A
  8
YODOROGO
 10
28098.135520230931
 20
1499.749496429288
 30
0.0
 11
28137.604341291921
 21
1499.749496429288
 31
0.0
1001
AUTOCAD_POSTSCRIPT_FIGURE
1002
{
1000
PSFILL
1000
Grayscale
1000
Grayscale
1070
   100
1002
}
  0
LINE
  5
1209B
  8
YODOROGO
 10
28098.135520230931
 20
1631.5036372746561
 30
0.0
 11
28098.135520230931
 21
1499.749496429288
 31
0.0
1001
AUTOCAD_POSTSCRIPT_FIGURE
1002
{
1000
PSFILL
1000
Grayscale
1000
Grayscale
1070
   100
1002
}
  0
LINE
  5
1209C
  8
YODOROGO
 10
28137.604341291921
 20
1631.5036372746561
 30
0.0
 11
28098.135520230931
 21
1631.5036372746561
 31
0.0
1001
AUTOCAD_POSTSCRIPT_FIGURE
1002
{
1000
PSFILL
1000
Grayscale
1000
Grayscale
1070
   100
1002
}
  0
LINE
  5
1209D
  8
YODOROGO
 10
28137.604341291921
 20
1655.5036372746561
 30
0.0
 11
28137.604341291921
 21
1631.5036372746561
 31
0.0
1001
AUTOCAD_POSTSCRIPT_FIGURE
1002
{
1000
PSFILL
1000
Grayscale
1000
Grayscale
1070
   100
1002
}
  0
LINE
  5
1209E
  8
YODOROGO
 10
28098.135520230931
 20
1655.5036372746561
 30
0.0
 11
28137.604341291921
 21
1655.5036372746561
 31
0.0
1001
AUTOCAD_POSTSCRIPT_FIGURE
1002
{
1000
PSFILL
1000
Grayscale
1000
Grayscale
1070
   100
1002
}
  0
LINE
  5
1209F
  8
YODOROGO
 10
28401.60434129191
 20
1667.749496429288
 30
0.0
 11
28345.604341291921
 21
1667.749496429288
 31
0.0
  0
LINE
  5
120A0
  8
YODOROGO
 10
28401.60434129191
 20
1611.749496429288
 30
0.0
 11
28401.60434129191
 21
1667.749496429288
 31
0.0
  0
LINE
  5
120A1
  8
YODOROGO
 10
28345.604341291921
 20
1667.749496429288
 30
0.0
 11
28345.604341291921
 21
1611.749496429288
 31
0.0
  0
ARC
  5
120A2
  8
YODOROGO
 10
28513.60434129191
 20
1507.749496429288
 30
0.0
 40
80.0
 50
180.0
 51
270.0
  0
ARC
  5
120A3
  8
YODOROGO
 10
28537.604341291921
 20
1563.7494964292871
 30
0.0
 40
40.0
 50
180.0
 51
270.0
  0
LINE
  5
120A4
  8
YODOROGO
 10
28561.604341291932
 20
1523.7494964292871
 30
0.0
 11
28537.604341291921
 21
1523.7494964292871
 31
0.0
  0
ARC
  5
120A5
  8
YODOROGO
 10
28561.604341291932
 20
1547.749496429285
 30
0.0
 40
23.999999999996358
 50
270.0
 51
0.0000000000054281
  0
LINE
  5
120A6
  8
YODOROGO
 10
27801.604341291921
 20
1890.786580793706
 30
0.0
 11
27777.604341291921
 21
1843.776747951672
 31
0.0
1001
AUTOCAD_POSTSCRIPT_FIGURE
1002
{
1000
PSFILL
1000
Grayscale
1000
Grayscale
1070
   100
1002
}
  0
LINE
  5
120A7
  8
YODOROGO
 10
27801.604341291921
 20
1747.749496429286
 30
0.0
 11
27801.604341291921
 21
1890.786580793706
 31
0.0
1001
AUTOCAD_POSTSCRIPT_FIGURE
1002
{
1000
PSFILL
1000
Grayscale
1000
Grayscale
1070
   100
1002
}
  0
LINE
  5
120A8
  8
YODOROGO
 10
27817.604341291921
 20
1747.749496429286
 30
0.0
 11
27801.604341291921
 21
1747.749496429286
 31
0.0
1001
AUTOCAD_POSTSCRIPT_FIGURE
1002
{
1000
PSFILL
1000
Grayscale
1000
Grayscale
1070
   100
1002
}
  0
LINE
  5
120A9
  8
YODOROGO
 10
27817.604341291921
 20
1893.7713320852661
 30
0.0
 11
27817.604341291921
 21
1747.749496429286
 31
0.0
1001
AUTOCAD_POSTSCRIPT_FIGURE
1002
{
1000
PSFILL
1000
Grayscale
1000
Grayscale
1070
   100
1002
}
  0
LINE
  5
120AA
  8
YODOROGO
 10
27841.604341291921
 20
1867.6547582841361
 30
0.0
 11
27817.604341291921
 21
1893.7713320852661
 31
0.0
1001
AUTOCAD_POSTSCRIPT_FIGURE
1002
{
1000
PSFILL
1000
Grayscale
1000
Grayscale
1070
   100
1002
}
  0
LINE
  5
120AB
  8
YODOROGO
 10
27841.604341291921
 20
1883.6547582841361
 30
0.0
 11
27841.604341291921
 21
1867.6547582841361
 31
0.0
1001
AUTOCAD_POSTSCRIPT_FIGURE
1002
{
1000
PSFILL
1000
Grayscale
1000
Grayscale
1070
   100
1002
}
  0
LINE
  5
120AC
  8
YODOROGO
 10
27817.604341291921
 20
1917.7713320852649
 30
0.0
 11
27841.604341291921
 21
1883.6547582841361
 31
0.0
1001
AUTOCAD_POSTSCRIPT_FIGURE
1002
{
1000
PSFILL
1000
Grayscale
1000
Grayscale
1070
   100
1002
}
  0
LINE
  5
120AD
  8
YODOROGO
 10
27817.604341291921
 20
1939.749496429288
 30
0.0
 11
27817.604341291921
 21
1917.7713320852649
 31
0.0
1001
AUTOCAD_POSTSCRIPT_FIGURE
1002
{
1000
PSFILL
1000
Grayscale
1000
Grayscale
1070
   100
1002
}
  0
LINE
  5
120AE
  8
YODOROGO
 10
27889.604341291921
 20
1939.749496429288
 30
0.0
 11
27817.604341291921
 21
1939.749496429288
 31
0.0
1001
AUTOCAD_POSTSCRIPT_FIGURE
1002
{
1000
PSFILL
1000
Grayscale
1000
Grayscale
1070
   100
1002
}
  0
LINE
  5
120AF
  8
YODOROGO
 10
27889.604341291921
 20
1900.5683489363
 30
0.0
 11
27889.604341291921
 21
1939.749496429288
 31
0.0
1001
AUTOCAD_POSTSCRIPT_FIGURE
1002
{
1000
PSFILL
1000
Grayscale
1000
Grayscale
1070
   100
1002
}
  0
LINE
  5
120B0
  8
YODOROGO
 10
27857.604341291921
 20
1900.5683489363
 30
0.0
 11
27889.604341291921
 21
1900.5683489363
 31
0.0
1001
AUTOCAD_POSTSCRIPT_FIGURE
1002
{
1000
PSFILL
1000
Grayscale
1000
Grayscale
1070
   100
1002
}
  0
LINE
  5
120B1
  8
YODOROGO
 10
27857.604341291921
 20
1884.568348936298
 30
0.0
 11
27857.604341291921
 21
1900.5683489363
 31
0.0
1001
AUTOCAD_POSTSCRIPT_FIGURE
1002
{
1000
PSFILL
1000
Grayscale
1000
Grayscale
1070
   100
1002
}
  0
LINE
  5
120B2
  8
YODOROGO
 10
27889.604341291921
 20
1884.568348936298
 30
0.0
 11
27857.604341291921
 21
1884.568348936298
 31
0.0
1001
AUTOCAD_POSTSCRIPT_FIGURE
1002
{
1000
PSFILL
1000
Grayscale
1000
Grayscale
1070
   100
1002
}
  0
LINE
  5
120B3
  8
YODOROGO
 10
27889.604341291921
 20
1879.6191779644371
 30
0.0
 11
27889.604341291921
 21
1884.568348936298
 31
0.0
1001
AUTOCAD_POSTSCRIPT_FIGURE
1002
{
1000
PSFILL
1000
Grayscale
1000
Grayscale
1070
   100
1002
}
  0
LINE
  5
120B4
  8
YODOROGO
 10
27849.604341291921
 20
1812.974981161417
 30
0.0
 11
27889.604341291921
 21
1879.6191779644371
 31
0.0
1001
AUTOCAD_POSTSCRIPT_FIGURE
1002
{
1000
PSFILL
1000
Grayscale
1000
Grayscale
1070
   100
1002
}
  0
LINE
  5
120B5
  8
YODOROGO
 10
27849.604341291921
 20
1796.9749811614161
 30
0.0
 11
27849.604341291921
 21
1812.974981161417
 31
0.0
1001
AUTOCAD_POSTSCRIPT_FIGURE
1002
{
1000
PSFILL
1000
Grayscale
1000
Grayscale
1070
   100
1002
}
  0
LINE
  5
120B6
  8
YODOROGO
 10
27889.604341291921
 20
1847.6191779644359
 30
0.0
 11
27849.604341291921
 21
1796.9749811614161
 31
0.0
1001
AUTOCAD_POSTSCRIPT_FIGURE
1002
{
1000
PSFILL
1000
Grayscale
1000
Grayscale
1070
   100
1002
}
  0
LINE
  5
120B7
  8
YODOROGO
 10
27889.604341291921
 20
1747.749496429286
 30
0.0
 11
27889.604341291921
 21
1847.6191779644359
 31
0.0
1001
AUTOCAD_POSTSCRIPT_FIGURE
1002
{
1000
PSFILL
1000
Grayscale
1000
Grayscale
1070
   100
1002
}
  0
LINE
  5
120B8
  8
YODOROGO
 10
27905.604341291921
 20
1747.749496429286
 30
0.0
 11
27889.604341291921
 21
1747.749496429286
 31
0.0
1001
AUTOCAD_POSTSCRIPT_FIGURE
1002
{
1000
PSFILL
1000
Grayscale
1000
Grayscale
1070
   100
1002
}
  0
LINE
  5
120B9
  8
YODOROGO
 10
27905.604341291921
 20
1849.409012158806
 30
0.0
 11
27905.604341291921
 21
1747.749496429286
 31
0.0
1001
AUTOCAD_POSTSCRIPT_FIGURE
1002
{
1000
PSFILL
1000
Grayscale
1000
Grayscale
1070
   100
1002
}
  0
LINE
  5
120BA
  8
YODOROGO
 10
27937.604341291921
 20
1796.9749811614161
 30
0.0
 11
27905.604341291921
 21
1849.409012158806
 31
0.0
1001
AUTOCAD_POSTSCRIPT_FIGURE
1002
{
1000
PSFILL
1000
Grayscale
1000
Grayscale
1070
   100
1002
}
  0
LINE
  5
120BB
  8
YODOROGO
 10
27937.604341291921
 20
1812.974981161417
 30
0.0
 11
27937.604341291921
 21
1796.9749811614161
 31
0.0
1001
AUTOCAD_POSTSCRIPT_FIGURE
1002
{
1000
PSFILL
1000
Grayscale
1000
Grayscale
1070
   100
1002
}
  0
LINE
  5
120BC
  8
YODOROGO
 10
27905.604341291921
 20
1881.4090121588081
 30
0.0
 11
27937.604341291921
 21
1812.974981161417
 31
0.0
1001
AUTOCAD_POSTSCRIPT_FIGURE
1002
{
1000
PSFILL
1000
Grayscale
1000
Grayscale
1070
   100
1002
}
  0
LINE
  5
120BD
  8
YODOROGO
 10
27905.604341291921
 20
1884.5683489363
 30
0.0
 11
27905.604341291921
 21
1881.4090121588081
 31
0.0
1001
AUTOCAD_POSTSCRIPT_FIGURE
1002
{
1000
PSFILL
1000
Grayscale
1000
Grayscale
1070
   100
1002
}
  0
LINE
  5
120BE
  8
YODOROGO
 10
27937.604341291921
 20
1884.568348936298
 30
0.0
 11
27905.604341291921
 21
1884.5683489363
 31
0.0
1001
AUTOCAD_POSTSCRIPT_FIGURE
1002
{
1000
PSFILL
1000
Grayscale
1000
Grayscale
1070
   100
1002
}
  0
LINE
  5
120BF
  8
YODOROGO
 10
27937.604341291921
 20
1900.5683489363
 30
0.0
 11
27937.604341291921
 21
1884.568348936298
 31
0.0
1001
AUTOCAD_POSTSCRIPT_FIGURE
1002
{
1000
PSFILL
1000
Grayscale
1000
Grayscale
1070
   100
1002
}
  0
LINE
  5
120C0
  8
YODOROGO
 10
27905.604341291921
 20
1900.5683489363
 30
0.0
 11
27937.604341291921
 21
1900.5683489363
 31
0.0
1001
AUTOCAD_POSTSCRIPT_FIGURE
1002
{
1000
PSFILL
1000
Grayscale
1000
Grayscale
1070
   100
1002
}
  0
LINE
  5
120C1
  8
YODOROGO
 10
27905.604341291921
 20
1939.749496429288
 30
0.0
 11
27905.604341291921
 21
1900.5683489363
 31
0.0
1001
AUTOCAD_POSTSCRIPT_FIGURE
1002
{
1000
PSFILL
1000
Grayscale
1000
Grayscale
1070
   100
1002
}
  0
LINE
  5
120C2
  8
YODOROGO
 10
27937.604341291921
 20
1939.749496429288
 30
0.0
 11
27905.604341291921
 21
1939.749496429288
 31
0.0
1001
AUTOCAD_POSTSCRIPT_FIGURE
1002
{
1000
PSFILL
1000
Grayscale
1000
Grayscale
1070
   100
1002
}
  0
LINE
  5
120C3
  8
YODOROGO
 10
27937.604341291921
 20
1955.7494964292871
 30
0.0
 11
27937.604341291921
 21
1939.749496429288
 31
0.0
1001
AUTOCAD_POSTSCRIPT_FIGURE
1002
{
1000
PSFILL
1000
Grayscale
1000
Grayscale
1070
   100
1002
}
  0
LINE
  5
120C4
  8
YODOROGO
 10
27905.604341291921
 20
1955.7494964292871
 30
0.0
 11
27937.604341291921
 21
1955.7494964292871
 31
0.0
1001
AUTOCAD_POSTSCRIPT_FIGURE
1002
{
1000
PSFILL
1000
Grayscale
1000
Grayscale
1070
   100
1002
}
  0
LINE
  5
120C5
  8
YODOROGO
 10
27905.604341291921
 20
1979.749496429288
 30
0.0
 11
27905.604341291921
 21
1955.7494964292871
 31
0.0
1001
AUTOCAD_POSTSCRIPT_FIGURE
1002
{
1000
PSFILL
1000
Grayscale
1000
Grayscale
1070
   100
1002
}
  0
LINE
  5
120C6
  8
YODOROGO
 10
27889.604341291921
 20
1979.749496429288
 30
0.0
 11
27905.604341291921
 21
1979.749496429288
 31
0.0
1001
AUTOCAD_POSTSCRIPT_FIGURE
1002
{
1000
PSFILL
1000
Grayscale
1000
Grayscale
1070
   100
1002
}
  0
LINE
  5
120C7
  8
YODOROGO
 10
27889.604341291921
 20
1955.7494964292871
 30
0.0
 11
27889.604341291921
 21
1979.749496429288
 31
0.0
1001
AUTOCAD_POSTSCRIPT_FIGURE
1002
{
1000
PSFILL
1000
Grayscale
1000
Grayscale
1070
   100
1002
}
  0
LINE
  5
120C8
  8
YODOROGO
 10
27865.604341291921
 20
1955.7494964292871
 30
0.0
 11
27889.604341291921
 21
1955.7494964292871
 31
0.0
1001
AUTOCAD_POSTSCRIPT_FIGURE
1002
{
1000
PSFILL
1000
Grayscale
1000
Grayscale
1070
   100
1002
}
  0
LINE
  5
120C9
  8
YODOROGO
 10
27865.604341291921
 20
1979.749496429288
 30
0.0
 11
27865.604341291921
 21
1955.7494964292871
 31
0.0
1001
AUTOCAD_POSTSCRIPT_FIGURE
1002
{
1000
PSFILL
1000
Grayscale
1000
Grayscale
1070
   100
1002
}
  0
LINE
  5
120CA
  8
YODOROGO
 10
27849.604341291921
 20
1979.749496429288
 30
0.0
 11
27865.604341291921
 21
1979.749496429288
 31
0.0
1001
AUTOCAD_POSTSCRIPT_FIGURE
1002
{
1000
PSFILL
1000
Grayscale
1000
Grayscale
1070
   100
1002
}
  0
LINE
  5
120CB
  8
YODOROGO
 10
27849.604341291921
 20
1955.7494964292871
 30
0.0
 11
27849.604341291921
 21
1979.749496429288
 31
0.0
1001
AUTOCAD_POSTSCRIPT_FIGURE
1002
{
1000
PSFILL
1000
Grayscale
1000
Grayscale
1070
   100
1002
}
  0
LINE
  5
120CC
  8
YODOROGO
 10
27817.604341291921
 20
1955.7494964292871
 30
0.0
 11
27849.604341291921
 21
1955.7494964292871
 31
0.0
1001
AUTOCAD_POSTSCRIPT_FIGURE
1002
{
1000
PSFILL
1000
Grayscale
1000
Grayscale
1070
   100
1002
}
  0
LINE
  5
120CD
  8
YODOROGO
 10
27817.604341291921
 20
1979.749496429288
 30
0.0
 11
27817.604341291921
 21
1955.7494964292871
 31
0.0
1001
AUTOCAD_POSTSCRIPT_FIGURE
1002
{
1000
PSFILL
1000
Grayscale
1000
Grayscale
1070
   100
1002
}
  0
LINE
  5
120CE
  8
YODOROGO
 10
27801.604341291921
 20
1979.749496429288
 30
0.0
 11
27817.604341291921
 21
1979.749496429288
 31
0.0
1001
AUTOCAD_POSTSCRIPT_FIGURE
1002
{
1000
PSFILL
1000
Grayscale
1000
Grayscale
1070
   100
1002
}
  0
LINE
  5
120CF
  8
YODOROGO
 10
27801.604341291921
 20
1955.7494964292871
 30
0.0
 11
27801.604341291921
 21
1979.749496429288
 31
0.0
1001
AUTOCAD_POSTSCRIPT_FIGURE
1002
{
1000
PSFILL
1000
Grayscale
1000
Grayscale
1070
   100
1002
}
  0
LINE
  5
120D0
  8
YODOROGO
 10
27777.604341291921
 20
1955.7494964292871
 30
0.0
 11
27801.604341291921
 21
1955.7494964292871
 31
0.0
1001
AUTOCAD_POSTSCRIPT_FIGURE
1002
{
1000
PSFILL
1000
Grayscale
1000
Grayscale
1070
   100
1002
}
  0
LINE
  5
120D1
  8
YODOROGO
 10
27777.604341291921
 20
1939.749496429288
 30
0.0
 11
27777.604341291921
 21
1955.7494964292871
 31
0.0
1001
AUTOCAD_POSTSCRIPT_FIGURE
1002
{
1000
PSFILL
1000
Grayscale
1000
Grayscale
1070
   100
1002
}
  0
LINE
  5
120D2
  8
YODOROGO
 10
27801.604341291921
 20
1939.749496429288
 30
0.0
 11
27777.604341291921
 21
1939.749496429288
 31
0.0
1001
AUTOCAD_POSTSCRIPT_FIGURE
1002
{
1000
PSFILL
1000
Grayscale
1000
Grayscale
1070
   100
1002
}
  0
LINE
  5
120D3
  8
YODOROGO
 10
27801.604341291921
 20
1914.7865807937051
 30
0.0
 11
27801.604341291921
 21
1939.749496429288
 31
0.0
1001
AUTOCAD_POSTSCRIPT_FIGURE
1002
{
1000
PSFILL
1000
Grayscale
1000
Grayscale
1070
   100
1002
}
  0
LINE
  5
120D4
  8
YODOROGO
 10
27777.604341291921
 20
1859.776747951671
 30
0.0
 11
27801.604341291921
 21
1914.7865807937051
 31
0.0
1001
AUTOCAD_POSTSCRIPT_FIGURE
1002
{
1000
PSFILL
1000
Grayscale
1000
Grayscale
1070
   100
1002
}
  0
LINE
  5
120D5
  8
YODOROGO
 10
27777.604341291921
 20
1843.776747951672
 30
0.0
 11
27777.604341291921
 21
1859.776747951671
 31
0.0
1001
AUTOCAD_POSTSCRIPT_FIGURE
1002
{
1000
PSFILL
1000
Grayscale
1000
Grayscale
1070
   100
1002
}
  0
LINE
  5
120D6
  8
YODOROGO
 10
28257.604341291921
 20
1867.7494964292871
 30
0.0
 11
28401.60434129191
 21
1824.877625640306
 31
0.0
1001
AUTOCAD_POSTSCRIPT_FIGURE
1002
{
1000
PSFILL
1000
Grayscale
1000
Grayscale
1070
   100
1002
}
  0
LINE
  5
120D7
  8
YODOROGO
 10
28401.60434129191
 20
1752.877625640306
 30
0.0
 11
28257.604341291921
 21
1795.7494964292871
 31
0.0
1001
AUTOCAD_POSTSCRIPT_FIGURE
1002
{
1000
PSFILL
1000
Grayscale
1000
Grayscale
1070
   100
1002
}
  0
LINE
  5
120D8
  8
YODOROGO
 10
28401.60434129191
 20
1984.877625640306
 30
0.0
 11
28257.604341291921
 21
2027.749496429288
 31
0.0
1001
AUTOCAD_POSTSCRIPT_FIGURE
1002
{
1000
PSFILL
1000
Grayscale
1000
Grayscale
1070
   100
1002
}
  0
LINE
  5
120D9
  8
YODOROGO
 10
28257.604341291921
 20
1959.749496429288
 30
0.0
 11
28401.60434129191
 21
1916.8776256403071
 31
0.0
1001
AUTOCAD_POSTSCRIPT_FIGURE
1002
{
1000
PSFILL
1000
Grayscale
1000
Grayscale
1070
   100
1002
}
  0
LINE
  5
120DA
  8
YODOROGO
 10
28257.604341291921
 20
1795.7494964292871
 30
0.0
 11
28257.604341291921
 21
1867.7494964292871
 31
0.0
1001
AUTOCAD_POSTSCRIPT_FIGURE
1002
{
1000
PSFILL
1000
Grayscale
1000
Grayscale
1070
   100
1002
}
  0
LINE
  5
120DB
  8
YODOROGO
 10
28257.604341291921
 20
2027.749496429288
 30
0.0
 11
28257.604341291921
 21
1959.749496429288
 31
0.0
1001
AUTOCAD_POSTSCRIPT_FIGURE
1002
{
1000
PSFILL
1000
Grayscale
1000
Grayscale
1070
   100
1002
}
  0
LINE
  5
120DC
  8
YODOROGO
 10
28080.236320206739
 20
1939.749496429288
 30
0.0
 11
28129.60434129191
 21
1747.749496429286
 31
0.0
1001
AUTOCAD_POSTSCRIPT_FIGURE
1002
{
1000
PSFILL
1000
Grayscale
1000
Grayscale
1070
   100
1002
}
  0
LINE
  5
120DD
  8
YODOROGO
 10
27977.604341291921
 20
1939.749496429288
 30
0.0
 11
28080.236320206739
 21
1939.749496429288
 31
0.0
1001
AUTOCAD_POSTSCRIPT_FIGURE
1002
{
1000
PSFILL
1000
Grayscale
1000
Grayscale
1070
   100
1002
}
  0
LINE
  5
120DE
  8
YODOROGO
 10
27977.604341291921
 20
1955.7494964292871
 30
0.0
 11
27977.604341291921
 21
1939.749496429288
 31
0.0
1001
AUTOCAD_POSTSCRIPT_FIGURE
1002
{
1000
PSFILL
1000
Grayscale
1000
Grayscale
1070
   100
1002
}
  0
LINE
  5
120DF
  8
YODOROGO
 10
28076.60687851991
 20
1955.7494964292871
 30
0.0
 11
27977.604341291921
 21
1955.7494964292871
 31
0.0
1001
AUTOCAD_POSTSCRIPT_FIGURE
1002
{
1000
PSFILL
1000
Grayscale
1000
Grayscale
1070
   100
1002
}
  0
LINE
  5
120E0
  8
YODOROGO
 10
28071.162715989711
 20
1979.749496429288
 30
0.0
 11
28076.60687851991
 21
1955.7494964292871
 31
0.0
1001
AUTOCAD_POSTSCRIPT_FIGURE
1002
{
1000
PSFILL
1000
Grayscale
1000
Grayscale
1070
   100
1002
}
  0
LINE
  5
120E1
  8
YODOROGO
 10
28091.162715989711
 20
1979.749496429288
 30
0.0
 11
28071.162715989711
 21
1979.749496429288
 31
0.0
1001
AUTOCAD_POSTSCRIPT_FIGURE
1002
{
1000
PSFILL
1000
Grayscale
1000
Grayscale
1070
   100
1002
}
  0
LINE
  5
120E2
  8
YODOROGO
 10
28095.806878519939
 20
1955.7494964292871
 30
0.0
 11
28091.162715989711
 21
1979.749496429288
 31
0.0
1001
AUTOCAD_POSTSCRIPT_FIGURE
1002
{
1000
PSFILL
1000
Grayscale
1000
Grayscale
1070
   100
1002
}
  0
LINE
  5
120E3
  8
YODOROGO
 10
28121.604341291921
 20
1955.7494964292871
 30
0.0
 11
28095.806878519939
 21
1955.7494964292871
 31
0.0
1001
AUTOCAD_POSTSCRIPT_FIGURE
1002
{
1000
PSFILL
1000
Grayscale
1000
Grayscale
1070
   100
1002
}
  0
LINE
  5
120E4
  8
YODOROGO
 10
28121.604341291921
 20
1979.749496429288
 30
0.0
 11
28121.604341291921
 21
1955.7494964292871
 31
0.0
1001
AUTOCAD_POSTSCRIPT_FIGURE
1002
{
1000
PSFILL
1000
Grayscale
1000
Grayscale
1070
   100
1002
}
  0
LINE
  5
120E5
  8
YODOROGO
 10
28137.604341291921
 20
1979.749496429288
 30
0.0
 11
28121.604341291921
 21
1979.749496429288
 31
0.0
1001
AUTOCAD_POSTSCRIPT_FIGURE
1002
{
1000
PSFILL
1000
Grayscale
1000
Grayscale
1070
   100
1002
}
  0
LINE
  5
120E6
  8
YODOROGO
 10
28137.604341291921
 20
1955.7494964292871
 30
0.0
 11
28137.604341291921
 21
1979.749496429288
 31
0.0
1001
AUTOCAD_POSTSCRIPT_FIGURE
1002
{
1000
PSFILL
1000
Grayscale
1000
Grayscale
1070
   100
1002
}
  0
LINE
  5
120E7
  8
YODOROGO
 10
28137.604341291921
 20
1939.749496429288
 30
0.0
 11
28137.604341291921
 21
1955.7494964292871
 31
0.0
1001
AUTOCAD_POSTSCRIPT_FIGURE
1002
{
1000
PSFILL
1000
Grayscale
1000
Grayscale
1070
   100
1002
}
  0
LINE
  5
120E8
  8
YODOROGO
 10
28098.902986873411
 20
1939.749496429288
 30
0.0
 11
28137.604341291921
 21
1939.749496429288
 31
0.0
1001
AUTOCAD_POSTSCRIPT_FIGURE
1002
{
1000
PSFILL
1000
Grayscale
1000
Grayscale
1070
   100
1002
}
  0
LINE
  5
120E9
  8
YODOROGO
 10
28137.604341291921
 20
1747.749496429286
 30
0.0
 11
28098.902986873411
 21
1939.749496429288
 31
0.0
1001
AUTOCAD_POSTSCRIPT_FIGURE
1002
{
1000
PSFILL
1000
Grayscale
1000
Grayscale
1070
   100
1002
}
  0
LINE
  5
120EA
  8
YODOROGO
 10
28129.60434129191
 20
1747.749496429286
 30
0.0
 11
28137.604341291921
 21
1747.749496429286
 31
0.0
1001
AUTOCAD_POSTSCRIPT_FIGURE
1002
{
1000
PSFILL
1000
Grayscale
1000
Grayscale
1070
   100
1002
}
  0
LINE
  5
120EB
  8
YODOROGO
 10
28078.06921993379
 20
1775.7407762987939
 30
0.0
 11
27977.604341291921
 21
1747.749496429286
 31
0.0
  0
LINE
  5
120EC
  8
YODOROGO
 10
28078.06921993379
 20
1798.6689795290731
 30
0.0
 11
28078.06921993379
 21
1775.7407762987939
 31
0.0
  0
LINE
  5
120ED
  8
YODOROGO
 10
28033.83678061287
 20
1786.816933133767
 30
0.0
 11
28078.06921993379
 21
1798.6689795290731
 31
0.0
  0
LINE
  5
120EE
  8
YODOROGO
 10
28033.83678061287
 20
1872.5683489362989
 30
0.0
 11
28033.83678061287
 21
1786.816933133767
 31
0.0
  0
LINE
  5
120EF
  8
YODOROGO
 10
28078.06921993379
 20
1872.5683489362989
 30
0.0
 11
28033.83678061287
 21
1872.5683489362989
 31
0.0
  0
LINE
  5
120F0
  8
YODOROGO
 10
28078.06921993379
 20
1892.568348936298
 30
0.0
 11
28078.06921993379
 21
1872.5683489362989
 31
0.0
  0
LINE
  5
120F1
  8
YODOROGO
 10
27977.604341291921
 20
1892.568348936298
 30
0.0
 11
28078.06921993379
 21
1892.568348936298
 31
0.0
  0
LINE
  5
120F2
  8
YODOROGO
 10
27977.604341291921
 20
1872.5683489362989
 30
0.0
 11
27977.604341291921
 21
1892.568348936298
 31
0.0
  0
LINE
  5
120F3
  8
YODOROGO
 10
28021.836780612852
 20
1872.5683489362989
 30
0.0
 11
27977.604341291921
 21
1872.5683489362989
 31
0.0
  0
LINE
  5
120F4
  8
YODOROGO
 10
28021.836780612852
 20
1784.673339594317
 30
0.0
 11
28021.836780612852
 21
1872.5683489362989
 31
0.0
  0
LINE
  5
120F5
  8
YODOROGO
 10
27977.604341291921
 20
1771.749496429286
 30
0.0
 11
28021.836780612852
 21
1784.673339594317
 31
0.0
  0
LINE
  5
120F6
  8
YODOROGO
 10
27977.604341291921
 20
1747.749496429286
 30
0.0
 11
27977.604341291921
 21
1771.749496429286
 31
0.0
  0
LINE
  5
120F7
  8
YODOROGO
 10
28001.604341291921
 20
1707.749496429288
 30
0.0
 11
28001.604341291921
 21
1683.7494964292871
 31
0.0
  0
LINE
  5
120F8
  8
YODOROGO
 10
28017.604341291921
 20
1707.749496429288
 30
0.0
 11
28001.604341291921
 21
1707.749496429288
 31
0.0
  0
LINE
  5
120F9
  8
YODOROGO
 10
28017.604341291921
 20
1683.7494964292871
 30
0.0
 11
28017.604341291921
 21
1707.749496429288
 31
0.0
  0
LINE
  5
120FA
  8
YODOROGO
 10
28040.913204016892
 20
1683.7494964292871
 30
0.0
 11
28017.604341291921
 21
1683.7494964292871
 31
0.0
  0
LINE
  5
120FB
  8
YODOROGO
 10
28001.604341291921
 20
1683.7494964292871
 30
0.0
 11
27977.604341291921
 21
1683.7494964292871
 31
0.0
  0
LINE
  5
120FC
  8
YODOROGO
 10
28082.135520230921
 20
1707.749496429288
 30
0.0
 11
28098.135520230931
 21
1707.749496429288
 31
0.0
1001
AUTOCAD_POSTSCRIPT_FIGURE
1002
{
1000
PSFILL
1000
Grayscale
1000
Grayscale
1070
   100
1002
}
  0
LINE
  5
120FD
  8
YODOROGO
 10
28401.60434129191
 20
1824.877625640306
 30
0.0
 11
28401.60434129191
 21
1752.877625640306
 31
0.0
1001
AUTOCAD_POSTSCRIPT_FIGURE
1002
{
1000
PSFILL
1000
Grayscale
1000
Grayscale
1070
   100
1002
}
  0
LINE
  5
120FE
  8
YODOROGO
 10
28401.60434129191
 20
1916.8776256403071
 30
0.0
 11
28401.60434129191
 21
1984.877625640306
 31
0.0
1001
AUTOCAD_POSTSCRIPT_FIGURE
1002
{
1000
PSFILL
1000
Grayscale
1000
Grayscale
1070
   100
1002
}
  0
LINE
  5
120FF
  8
YODOROGO
 10
28433.60434129191
 20
1819.7494964292871
 30
0.0
 11
28433.60434129191
 21
1747.74949642929
 31
0.0
  0
LINE
  5
12100
  8
YODOROGO
 10
28497.60434129191
 20
1707.749496429288
 30
0.0
 11
28433.60434129191
 21
1707.749496429288
 31
0.0
  0
LINE
  5
12101
  8
YODOROGO
 10
28433.60434129191
 20
1747.74949642929
 30
0.0
 11
28585.604341291921
 21
1747.74949642929
 31
0.0
  0
LINE
  5
12102
  8
YODOROGO
 10
28497.60434129191
 20
1867.7494964292871
 30
0.0
 11
28433.60434129191
 21
1867.7494964292871
 31
0.0
  0
LINE
  5
12103
  8
YODOROGO
 10
28497.60434129191
 20
1923.7494964292871
 30
0.0
 11
28497.60434129191
 21
1867.7494964292871
 31
0.0
  0
LINE
  5
12104
  8
YODOROGO
 10
28585.604341291921
 20
1987.7494964292871
 30
0.0
 11
28585.604341291921
 21
2027.749496429288
 31
0.0
  0
LINE
  5
12105
  8
YODOROGO
 10
28433.60434129191
 20
1987.7494964292871
 30
0.0
 11
28585.604341291921
 21
1987.7494964292871
 31
0.0
  0
LINE
  5
12106
  8
YODOROGO
 10
28433.60434129191
 20
1867.7494964292871
 30
0.0
 11
28433.60434129191
 21
1987.7494964292871
 31
0.0
  0
LINE
  5
12107
  8
YODOROGO
 10
29001.60434129191
 20
2027.749496429288
 30
0.0
 11
29001.60434129191
 21
1619.749496429288
 31
0.0
  0
LINE
  5
12108
  8
YODOROGO
 10
29073.604341291921
 20
1579.749496429288
 30
0.0
 11
29073.604341291921
 21
2027.749496429288
 31
0.0
  0
LINE
  5
12109
  8
YODOROGO
 10
29261.604341291921
 20
1491.749496429286
 30
0.0
 11
29261.604341291921
 21
2007.749496429288
 31
0.0
  0
LINE
  5
1210A
  8
YODOROGO
 10
29197.604341291921
 20
2007.749496429288
 30
0.0
 11
29197.604341291921
 21
1491.749496429286
 31
0.0
  0
LINE
  5
1210B
  8
YODOROGO
 10
29385.604341291921
 20
2027.749496429288
 30
0.0
 11
29385.604341291921
 21
1427.749496429288
 31
0.0
  0
LINE
  5
1210C
  8
YODOROGO
 10
29457.604341291921
 20
1427.749496429288
 30
0.0
 11
29457.604341291921
 21
2027.749496429288
 31
0.0
  0
LINE
  5
1210D
  8
YODOROGO
 10
28657.604341291921
 20
1667.749496429288
 30
0.0
 11
28657.604341291921
 21
1747.74949642929
 31
0.0
  0
LINE
  5
1210E
  8
YODOROGO
 10
29885.604341291921
 20
1707.749496429288
 30
0.0
 11
29885.604341291921
 21
1667.749496429288
 31
0.0
  0
LINE
  5
1210F
  8
YODOROGO
 10
29885.604341291921
 20
1707.749496429288
 30
0.0
 11
29885.604341291921
 21
1667.749496429288
 31
0.0
  0
ARC
  5
12110
  8
YODOROGO
 10
28906.911576186842
 20
1618.217864442272
 30
0.0
 40
94.705151178741644
 50
274.05244162907098
 51
0.9266642149310712
  0
ARC
  5
12111
  8
YODOROGO
 10
28909.186170719819
 20
1592.61072861044
 30
0.0
 40
164.92042356085511
 50
271.5351210653775
 51
355.52727750585052
  0
LINE
  5
12112
  8
YODOROGO
 10
28913.604341291921
 20
1523.7494964292871
 30
0.0
 11
28913.604341291921
 21
1427.749496429288
 31
0.0
  0
LINE
  5
12113
  8
YODOROGO
 10
28793.60434129191
 20
1667.749496429288
 30
0.0
 11
28657.604341291921
 21
1667.749496429288
 31
0.0
  0
LINE
  5
12114
  8
YODOROGO
 10
28793.60434129191
 20
1603.7494964292871
 30
0.0
 11
28793.60434129191
 21
1667.749496429288
 31
0.0
  0
LINE
  5
12115
  8
YODOROGO
 10
28657.604341291921
 20
1603.7494964292871
 30
0.0
 11
28793.60434129191
 21
1603.7494964292871
 31
0.0
  0
LINE
  5
12116
  8
YODOROGO
 10
28657.604341291921
 20
1523.7494964292871
 30
0.0
 11
28657.604341291921
 21
1603.7494964292871
 31
0.0
  0
LINE
  5
12117
  8
YODOROGO
 10
28793.60434129191
 20
1523.7494964292871
 30
0.0
 11
28657.604341291921
 21
1523.7494964292871
 31
0.0
  0
LINE
  5
12118
  8
YODOROGO
 10
28793.60434129191
 20
1427.749496429288
 30
0.0
 11
28793.60434129191
 21
1523.7494964292871
 31
0.0
  0
LINE
  5
12119
  8
YODOROGO
 10
29197.604341291921
 20
1491.749496429286
 30
0.0
 11
29261.604341291921
 21
1491.749496429286
 31
0.0
  0
LINE
  5
1211A
  8
YODOROGO
 10
29385.604341291921
 20
1427.749496429288
 30
0.0
 11
29457.604341291921
 21
1427.749496429288
 31
0.0
  0
LINE
  5
1211B
  8
YODOROGO
 10
29737.604341291921
 20
1528.4414521705639
 30
0.0
 11
29737.604341291921
 21
1427.749496429288
 31
0.0
  0
LINE
  5
1211C
  8
YODOROGO
 10
29617.604341291921
 20
1427.749496429288
 30
0.0
 11
29737.604341291921
 21
1528.4414521705639
 31
0.0
  0
LINE
  5
1211D
  8
YODOROGO
 10
29617.604341291921
 20
1547.749496429288
 30
0.0
 11
29617.604341291921
 21
1427.749496429288
 31
0.0
  0
LINE
  5
1211E
  8
YODOROGO
 10
29712.94462869945
 20
1627.749496429288
 30
0.0
 11
29617.604341291921
 21
1547.749496429288
 31
0.0
  0
LINE
  5
1211F
  8
YODOROGO
 10
29617.604341291921
 20
1627.749496429288
 30
0.0
 11
29712.94462869945
 21
1627.749496429288
 31
0.0
  0
LINE
  5
12120
  8
YODOROGO
 10
29617.604341291921
 20
1667.749496429288
 30
0.0
 11
29617.604341291921
 21
1627.749496429288
 31
0.0
  0
LINE
  5
12121
  8
YODOROGO
 10
29885.604341291921
 20
1667.749496429288
 30
0.0
 11
29617.604341291921
 21
1667.749496429288
 31
0.0
  0
LINE
  5
12122
  8
YODOROGO
 10
29917.604341291921
 20
1627.749496429288
 30
0.0
 11
29777.604341291921
 21
1627.749496429288
 31
0.0
  0
LINE
  5
12123
  8
YODOROGO
 10
29777.604341291921
 20
1562.0054374176559
 30
0.0
 11
29771.409872985321
 21
1556.807661346234
 31
0.0
  0
LINE
  5
12124
  8
YODOROGO
 10
29777.604341291921
 20
1627.749496429288
 30
0.0
 11
29777.604341291921
 21
1562.0054374176559
 31
0.0
  0
LINE
  5
12125
  8
YODOROGO
 10
29737.604341291921
 20
1528.4414521705639
 30
0.0
 11
29737.604341291921
 21
1427.749496429288
 31
0.0
  0
LINE
  5
12126
  8
YODOROGO
 10
29617.604341291921
 20
1427.749496429288
 30
0.0
 11
29737.604341291921
 21
1528.4414521705639
 31
0.0
  0
LINE
  5
12127
  8
YODOROGO
 10
29617.604341291921
 20
1547.749496429288
 30
0.0
 11
29617.604341291921
 21
1427.749496429288
 31
0.0
  0
LINE
  5
12128
  8
YODOROGO
 10
29712.94462869945
 20
1627.749496429288
 30
0.0
 11
29617.604341291921
 21
1547.749496429288
 31
0.0
  0
LINE
  5
12129
  8
YODOROGO
 10
29617.604341291921
 20
1627.749496429288
 30
0.0
 11
29712.94462869945
 21
1627.749496429288
 31
0.0
  0
LINE
  5
1212A
  8
YODOROGO
 10
29617.604341291921
 20
1667.749496429288
 30
0.0
 11
29617.604341291921
 21
1627.749496429288
 31
0.0
  0
LINE
  5
1212B
  8
YODOROGO
 10
29885.604341291921
 20
1667.749496429288
 30
0.0
 11
29617.604341291921
 21
1667.749496429288
 31
0.0
  0
LINE
  5
1212C
  8
YODOROGO
 10
28793.60434129191
 20
1747.74949642929
 30
0.0
 11
28793.60434129191
 21
1819.7494964292871
 31
0.0
  0
LINE
  5
1212D
  8
YODOROGO
 10
28657.604341291921
 20
1747.74949642929
 30
0.0
 11
28793.60434129191
 21
1747.74949642929
 31
0.0
  0
LINE
  5
1212E
  8
YODOROGO
 10
28729.604341291921
 20
1867.7494964292871
 30
0.0
 11
28729.604341291921
 21
1923.7494964292871
 31
0.0
  0
LINE
  5
1212F
  8
YODOROGO
 10
28793.60434129191
 20
1867.7494964292871
 30
0.0
 11
28729.604341291921
 21
1867.7494964292871
 31
0.0
  0
LINE
  5
12130
  8
YODOROGO
 10
28793.60434129191
 20
1947.749496429288
 30
0.0
 11
28793.60434129191
 21
1867.7494964292871
 31
0.0
  0
ARC
  5
12131
  8
YODOROGO
 10
28753.60434129191
 20
1947.749496429288
 30
0.0
 40
40.0
 50
0.0
 51
90.0
  0
LINE
  5
12132
  8
YODOROGO
 10
28657.604341291921
 20
1987.7494964292871
 30
0.0
 11
28753.60434129191
 21
1987.7494964292871
 31
0.0
  0
LINE
  5
12133
  8
YODOROGO
 10
28657.604341291921
 20
2027.749496429288
 30
0.0
 11
28657.604341291921
 21
1987.7494964292871
 31
0.0
  0
LINE
  5
12134
  8
YODOROGO
 10
29073.604341291921
 20
2027.749496429288
 30
0.0
 11
29001.60434129191
 21
2027.749496429288
 31
0.0
  0
LINE
  5
12135
  8
YODOROGO
 10
29261.604341291921
 20
2007.749496429288
 30
0.0
 11
29197.604341291921
 21
2007.749496429288
 31
0.0
  0
LINE
  5
12136
  8
YODOROGO
 10
29457.604341291921
 20
2027.749496429288
 30
0.0
 11
29385.604341291921
 21
2027.749496429288
 31
0.0
  0
LINE
  5
12137
  8
YODOROGO
 10
29673.604341291921
 20
1707.749496429288
 30
0.0
 11
29673.604341291921
 21
1771.7494964292871
 31
0.0
1001
AUTOCAD_POSTSCRIPT_FIGURE
1002
{
1000
PSFILL
1000
Grayscale
1000
Grayscale
1070
    25
1002
}
  0
LINE
  5
12138
  8
YODOROGO
 10
29617.604341291921
 20
1707.749496429288
 30
0.0
 11
29673.604341291921
 21
1707.749496429288
 31
0.0
1001
AUTOCAD_POSTSCRIPT_FIGURE
1002
{
1000
PSFILL
1000
Grayscale
1000
Grayscale
1070
    25
1002
}
  0
LINE
  5
12139
  8
YODOROGO
 10
29617.604341291921
 20
1819.7494964292871
 30
0.0
 11
29617.604341291921
 21
1707.749496429288
 31
0.0
1001
AUTOCAD_POSTSCRIPT_FIGURE
1002
{
1000
PSFILL
1000
Grayscale
1000
Grayscale
1070
    25
1002
}
  0
LINE
  5
1213A
  8
YODOROGO
 10
29765.604341291921
 20
1819.7494964292871
 30
0.0
 11
29617.604341291921
 21
1819.7494964292871
 31
0.0
1001
AUTOCAD_POSTSCRIPT_FIGURE
1002
{
1000
PSFILL
1000
Grayscale
1000
Grayscale
1070
    25
1002
}
  0
LINE
  5
1213B
  8
YODOROGO
 10
29765.604341291921
 20
1859.749496429288
 30
0.0
 11
29765.604341291921
 21
1819.7494964292871
 31
0.0
1001
AUTOCAD_POSTSCRIPT_FIGURE
1002
{
1000
PSFILL
1000
Grayscale
1000
Grayscale
1070
    25
1002
}
  0
LINE
  5
1213C
  8
YODOROGO
 10
29617.604341291921
 20
1859.749496429288
 30
0.0
 11
29765.604341291921
 21
1859.749496429288
 31
0.0
1001
AUTOCAD_POSTSCRIPT_FIGURE
1002
{
1000
PSFILL
1000
Grayscale
1000
Grayscale
1070
    25
1002
}
  0
LINE
  5
1213D
  8
YODOROGO
 10
29617.604341291921
 20
1907.7494964292871
 30
0.0
 11
29617.604341291921
 21
1859.749496429288
 31
0.0
1001
AUTOCAD_POSTSCRIPT_FIGURE
1002
{
1000
PSFILL
1000
Grayscale
1000
Grayscale
1070
    25
1002
}
  0
LINE
  5
1213E
  8
YODOROGO
 10
29765.604341291921
 20
1907.7494964292871
 30
0.0
 11
29617.604341291921
 21
1907.7494964292871
 31
0.0
1001
AUTOCAD_POSTSCRIPT_FIGURE
1002
{
1000
PSFILL
1000
Grayscale
1000
Grayscale
1070
    25
1002
}
  0
LINE
  5
1213F
  8
YODOROGO
 10
29765.604341291921
 20
1947.749496429288
 30
0.0
 11
29765.604341291921
 21
1907.7494964292871
 31
0.0
1001
AUTOCAD_POSTSCRIPT_FIGURE
1002
{
1000
PSFILL
1000
Grayscale
1000
Grayscale
1070
    25
1002
}
  0
LINE
  5
12140
  8
YODOROGO
 10
29617.604341291921
 20
1947.749496429288
 30
0.0
 11
29765.604341291921
 21
1947.749496429288
 31
0.0
1001
AUTOCAD_POSTSCRIPT_FIGURE
1002
{
1000
PSFILL
1000
Grayscale
1000
Grayscale
1070
    25
1002
}
  0
LINE
  5
12141
  8
YODOROGO
 10
29617.604341291921
 20
2027.749496429288
 30
0.0
 11
29617.604341291921
 21
1947.749496429288
 31
0.0
1001
AUTOCAD_POSTSCRIPT_FIGURE
1002
{
1000
PSFILL
1000
Grayscale
1000
Grayscale
1070
    25
1002
}
  0
LINE
  5
12142
  8
YODOROGO
 10
29665.604341291921
 20
2027.749496429288
 30
0.0
 11
29617.604341291921
 21
2027.749496429288
 31
0.0
1001
AUTOCAD_POSTSCRIPT_FIGURE
1002
{
1000
PSFILL
1000
Grayscale
1000
Grayscale
1070
    25
1002
}
  0
LINE
  5
12143
  8
YODOROGO
 10
29665.604341291921
 20
1995.7494964292871
 30
0.0
 11
29665.604341291921
 21
2027.749496429288
 31
0.0
1001
AUTOCAD_POSTSCRIPT_FIGURE
1002
{
1000
PSFILL
1000
Grayscale
1000
Grayscale
1070
    25
1002
}
  0
LINE
  5
12144
  8
YODOROGO
 10
29765.604341291921
 20
1995.7494964292871
 30
0.0
 11
29665.604341291921
 21
1995.7494964292871
 31
0.0
1001
AUTOCAD_POSTSCRIPT_FIGURE
1002
{
1000
PSFILL
1000
Grayscale
1000
Grayscale
1070
    25
1002
}
  0
LINE
  5
12145
  8
YODOROGO
 10
29765.604341291921
 20
2027.749496429288
 30
0.0
 11
29765.604341291921
 21
1995.7494964292871
 31
0.0
1001
AUTOCAD_POSTSCRIPT_FIGURE
1002
{
1000
PSFILL
1000
Grayscale
1000
Grayscale
1070
    25
1002
}
  0
LINE
  5
12146
  8
YODOROGO
 10
29829.604341291921
 20
2027.749496429288
 30
0.0
 11
29765.604341291921
 21
2027.749496429288
 31
0.0
1001
AUTOCAD_POSTSCRIPT_FIGURE
1002
{
1000
PSFILL
1000
Grayscale
1000
Grayscale
1070
    25
1002
}
  0
LINE
  5
12147
  8
YODOROGO
 10
29829.604341291921
 20
1995.7494964292871
 30
0.0
 11
29829.604341291921
 21
2027.749496429288
 31
0.0
1001
AUTOCAD_POSTSCRIPT_FIGURE
1002
{
1000
PSFILL
1000
Grayscale
1000
Grayscale
1070
    25
1002
}
  0
LINE
  5
12148
  8
YODOROGO
 10
29829.604341291921
 20
1907.7494964292871
 30
0.0
 11
29829.604341291921
 21
1947.749496429288
 31
0.0
1001
AUTOCAD_POSTSCRIPT_FIGURE
1002
{
1000
PSFILL
1000
Grayscale
1000
Grayscale
1070
    25
1002
}
  0
LINE
  5
12149
  8
YODOROGO
 10
29829.604341291921
 20
1819.7494964292871
 30
0.0
 11
29829.604341291921
 21
1859.749496429288
 31
0.0
1001
AUTOCAD_POSTSCRIPT_FIGURE
1002
{
1000
PSFILL
1000
Grayscale
1000
Grayscale
1070
    25
1002
}
  0
LINE
  5
1214A
  8
YODOROGO
 10
29921.60434129191
 20
1771.7494964292871
 30
0.0
 11
29921.60434129191
 21
1707.749496429288
 31
0.0
1001
AUTOCAD_POSTSCRIPT_FIGURE
1002
{
1000
PSFILL
1000
Grayscale
1000
Grayscale
1070
    25
1002
}
  0
LINE
  5
1214B
  8
YODOROGO
 10
29829.604341291921
 20
1771.7494964292871
 30
0.0
 11
29921.60434129191
 21
1771.7494964292871
 31
0.0
1001
AUTOCAD_POSTSCRIPT_FIGURE
1002
{
1000
PSFILL
1000
Grayscale
1000
Grayscale
1070
    25
1002
}
  0
LINE
  5
1214C
  8
YODOROGO
 10
29829.604341291921
 20
1707.749496429288
 30
0.0
 11
29829.604341291921
 21
1771.7494964292871
 31
0.0
1001
AUTOCAD_POSTSCRIPT_FIGURE
1002
{
1000
PSFILL
1000
Grayscale
1000
Grayscale
1070
    25
1002
}
  0
LINE
  5
1214D
  8
YODOROGO
 10
29765.604341291921
 20
1707.749496429288
 30
0.0
 11
29829.604341291921
 21
1707.749496429288
 31
0.0
1001
AUTOCAD_POSTSCRIPT_FIGURE
1002
{
1000
PSFILL
1000
Grayscale
1000
Grayscale
1070
    25
1002
}
  0
LINE
  5
1214E
  8
YODOROGO
 10
29765.604341291921
 20
1771.7494964292871
 30
0.0
 11
29765.604341291921
 21
1707.749496429288
 31
0.0
1001
AUTOCAD_POSTSCRIPT_FIGURE
1002
{
1000
PSFILL
1000
Grayscale
1000
Grayscale
1070
    25
1002
}
  0
LINE
  5
1214F
  8
YODOROGO
 10
29673.604341291921
 20
1771.7494964292871
 30
0.0
 11
29765.604341291921
 21
1771.7494964292871
 31
0.0
1001
AUTOCAD_POSTSCRIPT_FIGURE
1002
{
1000
PSFILL
1000
Grayscale
1000
Grayscale
1070
    25
1002
}
  0
ARC
  5
12150
  8
YODOROGO
 10
31059.517893357912
 20
1602.6807375155761
 30
0.0
 40
178.22128111072141
 50
281.02627495425338
 51
357.77113575573799
  0
LINE
  5
12151
  8
YODOROGO
 10
31413.604341291921
 20
1907.7494964292871
 30
0.0
 11
31165.604341291921
 21
1907.7494964292871
 31
0.0
  0
LINE
  5
12152
  8
YODOROGO
 10
31413.604341291921
 20
2027.749496429288
 30
0.0
 11
31165.604341291921
 21
2027.749496429288
 31
0.0
  0
LINE
  5
12153
  8
YODOROGO
 10
31165.604341291921
 20
1963.749496429286
 30
0.0
 11
31413.604341291921
 21
1963.749496429286
 31
0.0
  0
LINE
  5
12154
  8
YODOROGO
 10
30791.604341291921
 20
1563.7494964292871
 30
0.0
 11
30791.604341291921
 21
1755.7494964292871
 31
0.0
  0
LINE
  5
12155
  8
YODOROGO
 10
30763.604341291921
 20
1691.749496429288
 30
0.0
 11
30763.604341291921
 21
1563.7494964292871
 31
0.0
  0
LINE
  5
12156
  8
YODOROGO
 10
30723.604341291921
 20
1491.749496429288
 30
0.0
 11
30723.604341291921
 21
1691.749496429288
 31
0.0
  0
LINE
  5
12157
  8
YODOROGO
 10
30899.604341291932
 20
1691.749496429288
 30
0.0
 11
30899.604341291932
 21
1491.749496429288
 31
0.0
  0
LINE
  5
12158
  8
YODOROGO
 10
30859.604341291932
 20
1563.7494964292871
 30
0.0
 11
30859.604341291932
 21
1691.749496429288
 31
0.0
  0
LINE
  5
12159
  8
YODOROGO
 10
30831.604341291921
 20
1755.7494964292871
 30
0.0
 11
30831.604341291921
 21
1563.7494964292871
 31
0.0
  0
LINE
  5
1215A
  8
YODOROGO
 10
30973.604341291921
 20
2027.749496429288
 30
0.0
 11
30973.604341291921
 21
1467.749496429288
 31
0.0
  0
LINE
  5
1215B
  8
YODOROGO
 10
30645.604341291921
 20
1427.749496429288
 30
0.0
 11
30645.604341291921
 21
2027.749496429288
 31
0.0
  0
LINE
  5
1215C
  8
YODOROGO
 10
30697.604341291932
 20
1963.749496429286
 30
0.0
 11
30697.604341291932
 21
1427.749496429288
 31
0.0
  0
LINE
  5
1215D
  8
YODOROGO
 10
30925.604341291921
 20
1547.749496429288
 30
0.0
 11
30925.604341291921
 21
1963.749496429286
 31
0.0
  0
LINE
  5
1215E
  8
YODOROGO
 10
30381.604341291932
 20
1627.749496429288
 30
0.0
 11
30381.604341291932
 21
1679.749496429288
 31
0.0
  0
LINE
  5
1215F
  8
YODOROGO
 10
30617.604341291921
 20
1679.749496429288
 30
0.0
 11
30617.604341291921
 21
1627.749496429288
 31
0.0
  0
LINE
  5
12160
  8
YODOROGO
 10
31165.604341291921
 20
1907.7494964292871
 30
0.0
 11
31165.604341291921
 21
1635.7494964292871
 31
0.0
  0
LINE
  5
12161
  8
YODOROGO
 10
29949.60434129191
 20
1667.749496429288
 30
0.0
 11
29949.60434129191
 21
1707.749496429288
 31
0.0
  0
LINE
  5
12162
  8
YODOROGO
 10
29949.60434129191
 20
1667.749496429288
 30
0.0
 11
29949.60434129191
 21
1707.749496429288
 31
0.0
  0
ARC
  5
12163
  8
YODOROGO
 10
30537.604341291921
 20
1507.749496429288
 30
0.0
 40
80.0
 50
270.0
 51
0.0
  0
LINE
  5
12164
  8
YODOROGO
 10
30569.604341291921
 20
1599.7494964292871
 30
0.0
 11
30617.604341291921
 21
1599.7494964292871
 31
0.0
  0
LINE
  5
12165
  8
YODOROGO
 10
30617.604341291921
 20
1627.749496429288
 30
0.0
 11
30529.604341291939
 21
1627.749496429288
 31
0.0
  0
LINE
  5
12166
  8
YODOROGO
 10
30217.604341291921
 20
1667.749496429288
 30
0.0
 11
29949.60434129191
 21
1667.749496429288
 31
0.0
  0
LINE
  5
12167
  8
YODOROGO
 10
30217.604341291921
 20
1627.749496429288
 30
0.0
 11
30217.604341291921
 21
1667.749496429288
 31
0.0
  0
LINE
  5
12168
  8
YODOROGO
 10
30017.604341291921
 20
1627.749496429288
 30
0.0
 11
30217.604341291921
 21
1627.749496429288
 31
0.0
  0
ARC
  5
12169
  8
YODOROGO
 10
30230.05882870136
 20
1868.885714952901
 30
0.0
 40
321.37763628522822
 50
228.6181454618993
 51
245.660289248906
  0
LINE
  5
1216A
  8
YODOROGO
 10
30105.604341291921
 20
1603.7494964292871
 30
0.0
 11
30097.60434129195
 21
1576.0728158699001
 31
0.0
  0
LINE
  5
1216B
  8
YODOROGO
 10
30189.604341291921
 20
1603.7494964292871
 30
0.0
 11
30105.604341291921
 21
1603.7494964292871
 31
0.0
  0
LINE
  5
1216C
  8
YODOROGO
 10
30177.604341291921
 20
1551.817722473427
 30
0.0
 11
30189.604341291921
 21
1603.7494964292871
 31
0.0
  0
ARC
  5
1216D
  8
YODOROGO
 10
30230.05882870045
 20
1868.885714953002
 30
0.0
 40
321.37763628529081
 50
260.60629297969911
 51
267.77903556555862
  0
LINE
  5
1216E
  8
YODOROGO
 10
30217.604341291921
 20
1427.749496429285
 30
0.0
 11
30217.604341291921
 21
1547.749496429288
 31
0.0
  0
LINE
  5
1216F
  8
YODOROGO
 10
29937.604341291932
 20
1481.3393349155101
 30
0.0
 11
29937.604341291921
 21
1594.531090531141
 31
0.0
  0
LINE
  5
12170
  8
YODOROGO
 10
30217.604341291921
 20
1667.749496429288
 30
0.0
 11
29949.60434129191
 21
1667.749496429288
 31
0.0
  0
LINE
  5
12171
  8
YODOROGO
 10
30217.604341291921
 20
1627.749496429288
 30
0.0
 11
30217.604341291921
 21
1667.749496429288
 31
0.0
  0
LINE
  5
12172
  8
YODOROGO
 10
30017.604341291921
 20
1627.749496429288
 30
0.0
 11
30217.604341291921
 21
1627.749496429288
 31
0.0
  0
ARC
  5
12173
  8
YODOROGO
 10
30230.05882870136
 20
1868.885714952901
 30
0.0
 40
321.37763628522822
 50
228.6181454618993
 51
245.660289248906
  0
LINE
  5
12174
  8
YODOROGO
 10
30105.604341291921
 20
1603.7494964292871
 30
0.0
 11
30097.60434129195
 21
1576.0728158699001
 31
0.0
  0
LINE
  5
12175
  8
YODOROGO
 10
30189.604341291921
 20
1603.7494964292871
 30
0.0
 11
30105.604341291921
 21
1603.7494964292871
 31
0.0
  0
LINE
  5
12176
  8
YODOROGO
 10
30177.604341291921
 20
1551.817722473427
 30
0.0
 11
30189.604341291921
 21
1603.7494964292871
 31
0.0
  0
ARC
  5
12177
  8
YODOROGO
 10
30230.05882870045
 20
1868.885714953002
 30
0.0
 40
321.37763628529081
 50
260.60629297969911
 51
267.77903556555862
  0
LINE
  5
12178
  8
YODOROGO
 10
30217.604341291921
 20
1427.749496429285
 30
0.0
 11
30217.604341291921
 21
1547.749496429288
 31
0.0
  0
LINE
  5
12179
  8
YODOROGO
 10
29937.604341291932
 20
1481.3393349155101
 30
0.0
 11
29937.604341291921
 21
1594.531090531141
 31
0.0
  0
LINE
  5
1217A
  8
YODOROGO
 10
30433.604341291921
 20
1573.749496429288
 30
0.0
 11
30381.604341291932
 21
1573.749496429288
 31
0.0
  0
LINE
  5
1217B
  8
YODOROGO
 10
30433.604341291921
 20
1601.749496429285
 30
0.0
 11
30433.604341291921
 21
1573.749496429288
 31
0.0
  0
LINE
  5
1217C
  8
YODOROGO
 10
30381.604341291932
 20
1601.749496429285
 30
0.0
 11
30433.604341291921
 21
1601.749496429285
 31
0.0
  0
LINE
  5
1217D
  8
YODOROGO
 10
30381.604341291932
 20
1573.749496429288
 30
0.0
 11
30381.604341291932
 21
1601.749496429285
 31
0.0
  0
LINE
  5
1217E
  8
YODOROGO
 10
30429.604341291921
 20
1577.7494964292871
 30
0.0
 11
30385.604341291921
 21
1577.7494964292871
 31
0.0
  0
LINE
  5
1217F
  8
YODOROGO
 10
30429.604341291921
 20
1597.749496429288
 30
0.0
 11
30429.604341291921
 21
1577.7494964292871
 31
0.0
  0
LINE
  5
12180
  8
YODOROGO
 10
30385.604341291921
 20
1597.749496429288
 30
0.0
 11
30429.604341291921
 21
1597.749496429288
 31
0.0
  0
LINE
  5
12181
  8
YODOROGO
 10
30385.604341291921
 20
1577.7494964292871
 30
0.0
 11
30385.604341291921
 21
1597.749496429288
 31
0.0
  0
LINE
  5
12182
  8
YODOROGO
 10
30425.604341291921
 20
1581.749496429286
 30
0.0
 11
30389.604341291921
 21
1581.749496429286
 31
0.0
  0
LINE
  5
12183
  8
YODOROGO
 10
30425.604341291921
 20
1593.749496429288
 30
0.0
 11
30425.604341291921
 21
1581.749496429286
 31
0.0
  0
LINE
  5
12184
  8
YODOROGO
 10
30389.604341291921
 20
1593.749496429288
 30
0.0
 11
30425.604341291921
 21
1593.749496429288
 31
0.0
  0
LINE
  5
12185
  8
YODOROGO
 10
30389.604341291921
 20
1581.749496429286
 30
0.0
 11
30389.604341291921
 21
1593.749496429288
 31
0.0
  0
LINE
  5
12186
  8
YODOROGO
 10
30421.604341291932
 20
1585.7494964292871
 30
0.0
 11
30393.604341291921
 21
1585.7494964292871
 31
0.0
  0
LINE
  5
12187
  8
YODOROGO
 10
30421.604341291932
 20
1589.749496429288
 30
0.0
 11
30421.604341291932
 21
1585.7494964292871
 31
0.0
  0
LINE
  5
12188
  8
YODOROGO
 10
30393.604341291921
 20
1589.749496429288
 30
0.0
 11
30421.604341291932
 21
1589.749496429288
 31
0.0
  0
LINE
  5
12189
  8
YODOROGO
 10
30393.604341291921
 20
1585.7494964292871
 30
0.0
 11
30393.604341291921
 21
1589.749496429288
 31
0.0
  0
LINE
  5
1218A
  8
YODOROGO
 10
30465.604341291921
 20
1627.749496429288
 30
0.0
 11
30381.604341291932
 21
1627.749496429288
 31
0.0
  0
LINE
  5
1218B
  8
YODOROGO
 10
30465.604341291921
 20
1547.749496429288
 30
0.0
 11
30465.604341291921
 21
1627.749496429288
 31
0.0
  0
LINE
  5
1218C
  8
YODOROGO
 10
30381.604341291932
 20
1547.749496429288
 30
0.0
 11
30465.604341291921
 21
1547.749496429288
 31
0.0
  0
LINE
  5
1218D
  8
YODOROGO
 10
30381.604341291932
 20
1427.749496429288
 30
0.0
 11
30381.604341291932
 21
1547.749496429288
 31
0.0
  0
LINE
  5
1218E
  8
YODOROGO
 10
30537.604341291921
 20
1427.749496429288
 30
0.0
 11
30381.604341291932
 21
1427.749496429288
 31
0.0
  0
LINE
  5
1218F
  8
YODOROGO
 10
30569.604341291921
 20
1571.749496429285
 30
0.0
 11
30569.604341291921
 21
1599.7494964292871
 31
0.0
  0
ARC
  5
12190
  8
YODOROGO
 10
30545.604341291921
 20
1571.749496429291
 30
0.0
 40
24.000000000003752
 50
270.0
 51
359.99999999998772
  0
LINE
  5
12191
  8
YODOROGO
 10
30529.604341291939
 20
1547.749496429288
 30
0.0
 11
30545.604341291921
 21
1547.749496429288
 31
0.0
  0
LINE
  5
12192
  8
YODOROGO
 10
30529.604341291939
 20
1627.749496429288
 30
0.0
 11
30529.604341291939
 21
1547.749496429288
 31
0.0
  0
LINE
  5
12193
  8
YODOROGO
 10
30899.604341291932
 20
1547.749496429288
 30
0.0
 11
30925.604341291921
 21
1547.749496429288
 31
0.0
  0
LINE
  5
12194
  8
YODOROGO
 10
30933.604341291921
 20
1427.749496429288
 30
0.0
 11
30899.604341291932
 21
1427.749496429288
 31
0.0
  0
LINE
  5
12195
  8
YODOROGO
 10
30763.604341291921
 20
1563.7494964292871
 30
0.0
 11
30791.604341291921
 21
1563.7494964292871
 31
0.0
  0
LINE
  5
12196
  8
YODOROGO
 10
30899.604341291932
 20
1491.749496429288
 30
0.0
 11
30723.604341291921
 21
1491.749496429288
 31
0.0
  0
LINE
  5
12197
  8
YODOROGO
 10
30831.604341291921
 20
1563.7494964292871
 30
0.0
 11
30859.604341291932
 21
1563.7494964292871
 31
0.0
  0
LINE
  5
12198
  8
YODOROGO
 10
30899.604341291932
 20
1427.749496429288
 30
0.0
 11
30899.604341291932
 21
1547.749496429288
 31
0.0
  0
LINE
  5
12199
  8
YODOROGO
 10
30697.604341291932
 20
1427.749496429288
 30
0.0
 11
30645.604341291921
 21
1427.749496429288
 31
0.0
  0
LINE
  5
1219A
  8
YODOROGO
 10
30617.604341291921
 20
1599.7494964292871
 30
0.0
 11
30617.604341291921
 21
1507.749496429288
 31
0.0
  0
ARC
  5
1219B
  8
YODOROGO
 10
30933.604341291921
 20
1467.749496429288
 30
0.0
 40
40.0
 50
270.0
 51
0.0
  0
LINE
  5
1219C
  8
YODOROGO
 10
31093.604341291921
 20
1523.7494964292871
 30
0.0
 11
31093.604341291921
 21
1427.749496429288
 31
0.0
  0
ARC
  5
1219D
  8
YODOROGO
 10
31039.721395566768
 20
1637.5313901097329
 30
0.0
 40
125.8955565916754
 50
295.34052442160112
 51
359.18902303418679
  0
LINE
  5
1219E
  8
YODOROGO
 10
30617.604341291921
 20
1859.749496429288
 30
0.0
 11
30497.604341291921
 21
1939.749496429288
 31
0.0
  0
LINE
  5
1219F
  8
YODOROGO
 10
30497.604341291921
 20
2027.749496429288
 30
0.0
 11
30617.604341291921
 21
1947.749496429288
 31
0.0
  0
LINE
  5
121A0
  8
YODOROGO
 10
30529.604341291939
 20
1679.749496429288
 30
0.0
 11
30617.604341291921
 21
1679.749496429288
 31
0.0
  0
LINE
  5
121A1
  8
YODOROGO
 10
30617.604341291921
 20
1735.7494964292871
 30
0.0
 11
30529.604341291939
 21
1735.7494964292871
 31
0.0
  0
LINE
  5
121A2
  8
YODOROGO
 10
30381.604341291932
 20
1795.7494964292871
 30
0.0
 11
30617.604341291921
 21
1795.7494964292871
 31
0.0
  0
LINE
  5
121A3
  8
YODOROGO
 10
30081.604341291921
 20
2027.749496429288
 30
0.0
 11
30021.604341291921
 21
2027.749496429288
 31
0.0
  0
LINE
  5
121A4
  8
YODOROGO
 10
30081.604341291921
 20
1827.7494964292871
 30
0.0
 11
30081.604341291921
 21
2027.749496429288
 31
0.0
  0
LINE
  5
121A5
  8
YODOROGO
 10
30021.604341291921
 20
1827.7494964292871
 30
0.0
 11
30081.604341291921
 21
1827.7494964292871
 31
0.0
  0
LINE
  5
121A6
  8
YODOROGO
 10
30021.604341291921
 20
2027.749496429288
 30
0.0
 11
30021.604341291921
 21
1827.7494964292871
 31
0.0
  0
LINE
  5
121A7
  8
YODOROGO
 10
30161.604341291921
 20
2027.749496429288
 30
0.0
 11
30217.604341291921
 21
2027.749496429288
 31
0.0
  0
LINE
  5
121A8
  8
YODOROGO
 10
30161.604341291921
 20
1811.749496429288
 30
0.0
 11
30161.604341291921
 21
2027.749496429288
 31
0.0
  0
ARC
  5
121A9
  8
YODOROGO
 10
30121.604341291921
 20
1811.749496429288
 30
0.0
 40
40.0
 50
270.0
 51
0.0
  0
LINE
  5
121AA
  8
YODOROGO
 10
30021.604341291921
 20
1771.7494964292871
 30
0.0
 11
30121.604341291921
 21
1771.7494964292871
 31
0.0
  0
LINE
  5
121AB
  8
YODOROGO
 10
30021.604341291921
 20
1707.749496429288
 30
0.0
 11
30021.604341291921
 21
1771.7494964292871
 31
0.0
  0
LINE
  5
121AC
  8
YODOROGO
 10
30137.604341291921
 20
1707.749496429288
 30
0.0
 11
30021.604341291921
 21
1707.749496429288
 31
0.0
  0
ARC
  5
121AD
  8
YODOROGO
 10
30137.604341291921
 20
1787.7494964292871
 30
0.0
 40
80.0
 50
270.0
 51
0.0
  0
LINE
  5
121AE
  8
YODOROGO
 10
30217.604341291921
 20
2027.749496429288
 30
0.0
 11
30217.604341291921
 21
1787.7494964292871
 31
0.0
  0
LINE
  5
121AF
  8
YODOROGO
 10
29977.604341291921
 20
1947.749496429288
 30
0.0
 11
29977.604341291921
 21
1995.7494964292871
 31
0.0
1001
AUTOCAD_POSTSCRIPT_FIGURE
1002
{
1000
PSFILL
1000
Grayscale
1000
Grayscale
1070
    25
1002
}
  0
LINE
  5
121B0
  8
YODOROGO
 10
29977.604341291921
 20
1859.749496429288
 30
0.0
 11
29977.604341291921
 21
1907.7494964292871
 31
0.0
1001
AUTOCAD_POSTSCRIPT_FIGURE
1002
{
1000
PSFILL
1000
Grayscale
1000
Grayscale
1070
    25
1002
}
  0
LINE
  5
121B1
  8
YODOROGO
 10
29977.604341291921
 20
1707.749496429288
 30
0.0
 11
29977.604341291921
 21
1819.7494964292871
 31
0.0
1001
AUTOCAD_POSTSCRIPT_FIGURE
1002
{
1000
PSFILL
1000
Grayscale
1000
Grayscale
1070
    25
1002
}
  0
LINE
  5
121B2
  8
YODOROGO
 10
30381.604341291932
 20
1907.7494964292871
 30
0.0
 11
30497.604341291921
 21
2027.749496429288
 31
0.0
  0
LINE
  5
121B3
  8
YODOROGO
 10
30381.604341291932
 20
1819.7494964292871
 30
0.0
 11
30381.604341291932
 21
1907.7494964292871
 31
0.0
  0
LINE
  5
121B4
  8
YODOROGO
 10
30497.604341291921
 20
1939.749496429288
 30
0.0
 11
30381.604341291932
 21
1819.7494964292871
 31
0.0
  0
LINE
  5
121B5
  8
YODOROGO
 10
30465.604341291921
 20
1679.749496429288
 30
0.0
 11
30465.604341291921
 21
1735.7494964292871
 31
0.0
  0
LINE
  5
121B6
  8
YODOROGO
 10
30381.604341291932
 20
1679.749496429288
 30
0.0
 11
30465.604341291921
 21
1679.749496429288
 31
0.0
  0
LINE
  5
121B7
  8
YODOROGO
 10
30529.604341291939
 20
1735.7494964292871
 30
0.0
 11
30529.604341291939
 21
1679.749496429288
 31
0.0
  0
LINE
  5
121B8
  8
YODOROGO
 10
30381.604341291932
 20
1735.7494964292871
 30
0.0
 11
30381.604341291932
 21
1795.7494964292871
 31
0.0
  0
LINE
  5
121B9
  8
YODOROGO
 10
30465.604341291921
 20
1735.7494964292871
 30
0.0
 11
30381.604341291932
 21
1735.7494964292871
 31
0.0
  0
LINE
  5
121BA
  8
YODOROGO
 10
30645.604341291921
 20
2027.749496429288
 30
0.0
 11
30973.604341291921
 21
2027.749496429288
 31
0.0
  0
LINE
  5
121BB
  8
YODOROGO
 10
30925.604341291921
 20
1963.749496429286
 30
0.0
 11
30697.604341291932
 21
1963.749496429286
 31
0.0
  0
LINE
  5
121BC
  8
YODOROGO
 10
30873.604341291921
 20
1819.7494964292871
 30
0.0
 11
30899.604341291932
 21
1819.7494964292871
 31
0.0
  0
LINE
  5
121BD
  8
YODOROGO
 10
30899.604341291932
 20
1939.749496429288
 30
0.0
 11
30873.604341291921
 21
1819.7494964292871
 31
0.0
  0
LINE
  5
121BE
  8
YODOROGO
 10
30851.604341291939
 20
1939.749496429288
 30
0.0
 11
30899.604341291932
 21
1939.749496429288
 31
0.0
  0
LINE
  5
121BF
  8
YODOROGO
 10
30825.604341291921
 20
1819.7494964292871
 30
0.0
 11
30851.604341291939
 21
1939.749496429288
 31
0.0
  0
LINE
  5
121C0
  8
YODOROGO
 10
30797.604341291921
 20
1819.7494964292871
 30
0.0
 11
30825.604341291921
 21
1819.7494964292871
 31
0.0
  0
LINE
  5
121C1
  8
YODOROGO
 10
30771.604341291939
 20
1939.749496429288
 30
0.0
 11
30797.604341291921
 21
1819.7494964292871
 31
0.0
  0
LINE
  5
121C2
  8
YODOROGO
 10
30723.604341291921
 20
1939.749496429288
 30
0.0
 11
30771.604341291939
 21
1939.749496429288
 31
0.0
  0
LINE
  5
121C3
  8
YODOROGO
 10
30749.604341291921
 20
1819.7494964292871
 30
0.0
 11
30723.604341291921
 21
1939.749496429288
 31
0.0
  0
LINE
  5
121C4
  8
YODOROGO
 10
30723.604341291921
 20
1819.7494964292871
 30
0.0
 11
30749.604341291921
 21
1819.7494964292871
 31
0.0
  0
LINE
  5
121C5
  8
YODOROGO
 10
30723.604341291921
 20
1755.7494964292871
 30
0.0
 11
30723.604341291921
 21
1819.7494964292871
 31
0.0
  0
LINE
  5
121C6
  8
YODOROGO
 10
30899.604341291932
 20
1755.7494964292871
 30
0.0
 11
30723.604341291921
 21
1755.7494964292871
 31
0.0
  0
LINE
  5
121C7
  8
YODOROGO
 10
30899.604341291932
 20
1819.7494964292871
 30
0.0
 11
30899.604341291932
 21
1755.7494964292871
 31
0.0
  0
LINE
  5
121C8
  8
YODOROGO
 10
30617.604341291921
 20
1947.749496429288
 30
0.0
 11
30617.604341291921
 21
1859.749496429288
 31
0.0
  0
LINE
  5
121C9
  8
YODOROGO
 10
30791.604341291921
 20
1755.7494964292871
 30
0.0
 11
30831.604341291921
 21
1755.7494964292871
 31
0.0
  0
LINE
  5
121CA
  8
YODOROGO
 10
30723.604341291921
 20
1691.749496429288
 30
0.0
 11
30763.604341291921
 21
1691.749496429288
 31
0.0
  0
LINE
  5
121CB
  8
YODOROGO
 10
30859.604341291932
 20
1691.749496429288
 30
0.0
 11
30899.604341291932
 21
1691.749496429288
 31
0.0
  0
LINE
  5
121CC
  8
YODOROGO
 10
30617.604341291921
 20
1795.7494964292871
 30
0.0
 11
30617.604341291921
 21
1735.7494964292871
 31
0.0
  0
LINE
  5
121CD
  8
YODOROGO
 10
31165.604341291921
 20
2027.749496429288
 30
0.0
 11
31165.604341291921
 21
1963.749496429286
 31
0.0
  0
LINE
  5
121CE
  8
YODOROGO
 10
31533.604341291921
 20
1595.7494964292871
 30
0.0
 11
31533.60434129191
 21
1811.749496429288
 31
0.0
  0
LINE
  5
121CF
  8
YODOROGO
 10
31461.60434129191
 20
1987.7494964292871
 30
0.0
 11
31461.60434129191
 21
1635.7494964292871
 31
0.0
  0
LINE
  5
121D0
  8
YODOROGO
 10
31653.604341291921
 20
1427.749496429288
 30
0.0
 11
31653.60434129191
 21
1811.749496429288
 31
0.0
  0
LINE
  5
121D1
  8
YODOROGO
 10
31589.604341291921
 20
1811.749496429288
 30
0.0
 11
31589.604341291921
 21
1427.749496429288
 31
0.0
  0
LINE
  5
121D2
  8
YODOROGO
 10
31237.604341291921
 20
1595.7494964292871
 30
0.0
 11
31237.604341291921
 21
1707.749496429288
 31
0.0
  0
ARC
  5
121D3
  8
YODOROGO
 10
31353.914865116069
 20
1607.790351288558
 30
0.0
 40
180.0924485759885
 50
268.62849102169793
 51
356.16638457330322
  0
LINE
  5
121D4
  8
YODOROGO
 10
31349.604341291939
 20
1527.749496429288
 30
0.0
 11
31349.604341291939
 21
1427.749496429288
 31
0.0
  0
ARC
  5
121D5
  8
YODOROGO
 10
31351.518075724562
 20
1637.838957017655
 30
0.0
 40
110.1060929836122
 50
269.00410209305932
 51
358.91264455492478
  0
LINE
  5
121D6
  8
YODOROGO
 10
31589.604341291921
 20
1427.749496429288
 30
0.0
 11
31653.604341291921
 21
1427.749496429288
 31
0.0
  0
LINE
  5
121D7
  8
YODOROGO
 10
31533.60434129191
 20
1811.749496429288
 30
0.0
 11
31589.604341291921
 21
1811.749496429288
 31
0.0
  0
LINE
  5
121D8
  8
YODOROGO
 10
31621.604341291939
 20
1987.7494964292871
 30
0.0
 11
31461.60434129191
 21
1987.7494964292871
 31
0.0
  0
LINE
  5
121D9
  8
YODOROGO
 10
31533.60434129191
 20
1915.7494964292871
 30
0.0
 11
31661.604341291939
 21
1915.7494964292871
 31
0.0
  0
LINE
  5
121DA
  8
YODOROGO
 10
31701.604341291939
 20
1875.7494964292871
 30
0.0
 11
31533.60434129191
 21
1875.7494964292871
 31
0.0
  0
LINE
  5
121DB
  8
YODOROGO
 10
31237.604341291921
 20
1779.749496429288
 30
0.0
 11
31349.604341291939
 21
1779.749496429288
 31
0.0
  0
LINE
  5
121DC
  8
YODOROGO
 10
31237.604341291921
 20
1835.7494964292871
 30
0.0
 11
31237.604341291921
 21
1779.749496429288
 31
0.0
  0
LINE
  5
121DD
  8
YODOROGO
 10
31349.604341291939
 20
1835.7494964292871
 30
0.0
 11
31237.604341291921
 21
1835.7494964292871
 31
0.0
  0
LINE
  5
121DE
  8
YODOROGO
 10
31349.604341291939
 20
1779.749496429288
 30
0.0
 11
31349.604341291939
 21
1835.7494964292871
 31
0.0
  0
LINE
  5
121DF
  8
YODOROGO
 10
31533.60434129191
 20
1875.7494964292871
 30
0.0
 11
31533.60434129191
 21
1915.7494964292871
 31
0.0
  0
LINE
  5
121E0
  8
YODOROGO
 10
31413.604341291921
 20
1707.749496429288
 30
0.0
 11
31413.604341291921
 21
1907.7494964292871
 31
0.0
  0
LINE
  5
121E1
  8
YODOROGO
 10
31237.604341291921
 20
1707.749496429288
 30
0.0
 11
31413.604341291921
 21
1707.749496429288
 31
0.0
  0
LINE
  5
121E2
  8
YODOROGO
 10
31413.604341291921
 20
1963.749496429286
 30
0.0
 11
31413.604341291921
 21
2027.749496429288
 31
0.0
  0
ARC
  5
121E3
  8
YODOROGO
 10
31621.604341291939
 20
2003.749496429285
 30
0.0
 40
15.999999999994539
 50
270.0
 51
0.0000000000081422
  0
LINE
  5
121E4
  8
YODOROGO
 10
31637.604341291921
 20
2027.749496429288
 30
0.0
 11
31637.604341291921
 21
2003.7494964292871
 31
0.0
  0
LINE
  5
121E5
  8
YODOROGO
 10
31701.604341291939
 20
2027.749496429288
 30
0.0
 11
31637.604341291921
 21
2027.749496429288
 31
0.0
  0
LINE
  5
121E6
  8
YODOROGO
 10
31701.604341291939
 20
1955.7494964292871
 30
0.0
 11
31701.604341291939
 21
2027.749496429288
 31
0.0
  0
ARC
  5
121E7
  8
YODOROGO
 10
31661.604341291939
 20
1955.7494964292871
 30
0.0
 40
40.0
 50
270.0
 51
0.0
  0
LINE
  5
121E8
  8
YODOROGO
 10
31701.604341291939
 20
1811.749496429288
 30
0.0
 11
31701.604341291939
 21
1875.7494964292871
 31
0.0
  0
LINE
  5
121E9
  8
YODOROGO
 10
31653.60434129191
 20
1811.749496429288
 30
0.0
 11
31701.604341291939
 21
1811.749496429288
 31
0.0
  0
LINE
  5
121EA
  8
0-6
  6
CONTINUOUS
 62
     6
 10
12194.318370503101
 20
13701.127297048441
 30
0.0
 11
12056.740036757779
 21
13787.05271559655
 31
0.0
  0
LINE
  5
121EB
  8
0-6
  6
CONTINUOUS
 62
     6
 10
12056.740036757779
 20
13787.05271559655
 30
0.0
 11
12159.014568570999
 21
13661.150280566389
 31
0.0
  0
LINE
  5
121EC
  8
0-6
  6
CONTINUOUS
 62
     6
 10
12159.014568570999
 20
13661.150280566389
 30
0.0
 11
12194.318370503101
 21
13701.127297048441
 31
0.0
  0
LINE
  5
121ED
  8
0-6
  6
CONTINUOUS
 62
     6
 10
11431.10675221748
 20
19128.76828863292
 30
0.0
 11
11369.90963551447
 21
19278.987755999991
 31
0.0
  0
LINE
  5
121EE
  8
0-6
  6
CONTINUOUS
 62
     6
 10
11369.90963551447
 20
19278.987755999991
 30
0.0
 11
11476.52013993676
 21
19156.735134960742
 31
0.0
  0
LINE
  5
121EF
  8
0-6
  6
CONTINUOUS
 62
     6
 10
11476.52013993676
 20
19156.735134960742
 30
0.0
 11
11431.10675221748
 21
19128.76828863292
 31
0.0
  0
LINE
  5
121F0
  8
0-6
  6
CONTINUOUS
 62
     6
 10
11431.10675221748
 20
18014.266388632921
 30
0.0
 11
11369.90963551447
 21
18164.485855999999
 31
0.0
  0
LINE
  5
121F1
  8
0-6
  6
CONTINUOUS
 62
     6
 10
11369.90963551447
 20
18164.485855999999
 30
0.0
 11
11476.52013993676
 21
18042.23323496076
 31
0.0
  0
LINE
  5
121F2
  8
0-6
  6
CONTINUOUS
 62
     6
 10
11476.52013993676
 20
18042.23323496076
 30
0.0
 11
11431.10675221748
 21
18014.266388632921
 31
0.0
  0
LINE
  5
121F3
  8
0-6
  6
CONTINUOUS
 62
     6
 10
11431.10675221748
 20
15096.26638863295
 30
0.0
 11
11369.90963551447
 21
15246.485856000019
 31
0.0
  0
LINE
  5
121F4
  8
0-6
  6
CONTINUOUS
 62
     6
 10
11369.90963551447
 20
15246.485856000019
 30
0.0
 11
11476.52013993676
 21
15124.23323496078
 31
0.0
  0
LINE
  5
121F5
  8
0-6
  6
CONTINUOUS
 62
     6
 10
11476.52013993676
 20
15124.23323496078
 30
0.0
 11
11431.10675221748
 21
15096.26638863295
 31
0.0
  0
LINE
  5
121F6
  8
0-6
  6
CONTINUOUS
 62
     6
 10
11431.10675221748
 20
16555.266389632921
 30
0.0
 11
11369.90963551447
 21
16705.485856999989
 31
0.0
  0
LINE
  5
121F7
  8
0-6
  6
CONTINUOUS
 62
     6
 10
11369.90963551447
 20
16705.485856999989
 30
0.0
 11
11476.52013993676
 21
16583.23323596075
 31
0.0
  0
LINE
  5
121F8
  8
0-6
  6
CONTINUOUS
 62
     6
 10
11476.52013993676
 20
16583.23323596075
 30
0.0
 11
11431.10675221748
 21
16555.266389632921
 31
0.0
  0
LINE
  5
121F9
  8
SUNPOU
  6
CONTINUOUS
 62
     4
 10
6607.6434624765943
 20
15291.48625200001
 30
0.0
 11
5896.9418544765967
 21
15291.48625200001
 31
0.0
  0
LINE
  5
121FA
  8
SUNPOU
  6
CONTINUOUS
 62
     4
 10
6663.9419604765953
 20
13832.48625200001
 30
0.0
 11
5896.9418544765958
 21
13832.48625200001
 31
0.0
  0
LINE
  5
121FB
  8
SUNPOU
  6
CONTINUOUS
 62
     4
 10
5976.9418544765967
 20
15291.48625200001
 30
0.0
 11
5976.9418544765958
 21
13832.48625200001
 31
0.0
  0
LINE
  5
121FC
  8
SUNPOU
  6
CONTINUOUS
 62
     4
 10
6684.3629066003623
 20
16750.486251999999
 30
0.0
 11
5896.941854476594
 21
16750.486251999999
 31
0.0
  0
LINE
  5
121FD
  8
SUNPOU
  6
CONTINUOUS
 62
     4
 10
6607.6434624765943
 20
15291.48625200001
 30
0.0
 11
5896.941854476594
 21
15291.48625200001
 31
0.0
  0
LINE
  5
121FE
  8
SUNPOU
  6
CONTINUOUS
 62
     4
 10
5976.941854476594
 20
16750.486251999999
 30
0.0
 11
5976.941854476594
 21
15291.48625200001
 31
0.0
  0
LINE
  5
121FF
  8
SUNPOU
  6
CONTINUOUS
 62
     4
 10
6607.6434624765943
 20
18209.48625200001
 30
0.0
 11
5896.941854476594
 21
18209.48625200001
 31
0.0
  0
LINE
  5
12200
  8
SUNPOU
  6
CONTINUOUS
 62
     4
 10
6684.3629066003623
 20
16750.486251999999
 30
0.0
 11
5896.941854476594
 21
16750.486251999999
 31
0.0
  0
LINE
  5
12201
  8
SUNPOU
  6
CONTINUOUS
 62
     4
 10
5976.941854476594
 20
18209.48625200001
 30
0.0
 11
5976.941854476594
 21
16750.486251999999
 31
0.0
  0
LINE
  5
12202
  8
SUNPOU
  6
CONTINUOUS
 62
     4
 10
6743.9413064765831
 20
13639.986252000001
 30
0.0
 11
5896.9415304765917
 21
13639.986252000001
 31
0.0
  0
LINE
  5
12203
  8
SUNPOU
  6
CONTINUOUS
 62
     4
 10
5976.9415304765944
 20
13832.48552600002
 30
0.0
 11
5976.9415304765944
 21
13639.986252000001
 31
0.0
  0
LINE
  5
12204
  8
SUNPOU
  6
CONTINUOUS
 62
     4
 10
6607.6434624765943
 20
18209.48625200001
 30
0.0
 11
5896.9415304765917
 21
18209.48625200001
 31
0.0
  0
LINE
  5
12205
  8
SUNPOU
  6
CONTINUOUS
 62
     4
 10
5976.9415304765944
 20
19317.986251999992
 30
0.0
 11
5976.9415304765889
 21
18209.48625200001
 31
0.0
  0
LINE
  5
12206
  8
SUNPOU
  6
CONTINUOUS
 62
     4
 10
5896.9415304765917
 20
19317.986251999992
 30
0.0
 11
5936.9415304765907
 21
19317.986251999992
 31
0.0
  0
LINE
  5
12207
  8
SUNPOU
  6
CONTINUOUS
 62
     4
 10
6748.9405804765784
 20
19540.486120000001
 30
0.0
 11
5936.9415304765907
 21
19540.486120000001
 31
0.0
  0
LINE
  5
12208
  8
SUNPOU
  6
CONTINUOUS
 62
     4
 10
5976.9415304765889
 20
19317.986251999992
 30
0.0
 11
5976.9415304765889
 21
19540.486120000001
 31
0.0
  0
LINE
  5
12209
  8
SUNPOU
  6
CONTINUOUS
 62
     4
 10
6761.9404034765721
 20
19500.485987999989
 30
0.0
 11
6296.9408714765887
 21
19500.485987999989
 31
0.0
  0
LINE
  5
1220A
  8
SUNPOU
  6
CONTINUOUS
 62
     4
 10
6748.9405804765784
 20
19540.486120000001
 30
0.0
 11
6296.9408714765887
 21
19540.486120000001
 31
0.0
  0
LINE
  5
1220B
  8
SUNPOU
  6
CONTINUOUS
 62
     4
 10
6376.9408714765914
 20
19500.485987999989
 30
0.0
 11
6376.9408714765914
 21
19260.485987999989
 31
0.0
  0
LINE
  5
1220C
  8
SUNPOU
  6
CONTINUOUS
 62
     4
 10
6376.9408714765914
 20
19540.486120000001
 30
0.0
 11
6376.9408714765914
 21
19780.486120000001
 31
0.0
  0
LINE
  5
1220D
  8
SUNPOU
  6
CONTINUOUS
 62
     4
 10
6376.9408714765914
 20
19500.485987999989
 30
0.0
 11
6376.9408714765914
 21
19540.486120000001
 31
0.0
  0
LINE
  5
1220E
  8
SUNPOU
  6
CONTINUOUS
 62
     4
 10
12273.94163047658
 20
20165.488164999992
 30
0.0
 11
12273.94163047658
 21
20240.487175999991
 31
0.0
  0
LINE
  5
1220F
  8
SUNPOU
  6
CONTINUOUS
 62
     4
 10
12359.44163047658
 20
19615.487834999982
 30
0.0
 11
12359.44163047658
 21
20240.487175999991
 31
0.0
  0
LINE
  5
12210
  8
SUNPOU
  6
CONTINUOUS
 62
     4
 10
12273.94163047658
 20
20160.487175999991
 30
0.0
 11
12033.94163047658
 21
20160.487175999991
 31
0.0
  0
LINE
  5
12211
  8
SUNPOU
  6
CONTINUOUS
 62
     4
 10
12356.44163047658
 20
20160.487175999991
 30
0.0
 11
12596.44163047658
 21
20160.487175999991
 31
0.0
  0
LINE
  5
12212
  8
SUNPOU
  6
CONTINUOUS
 62
     4
 10
12273.94163047658
 20
20160.487175999991
 30
0.0
 11
12356.44163047658
 21
20160.487175999991
 31
0.0
  0
LINE
  5
12213
  8
SUNPOU
  6
CONTINUOUS
 62
     4
 10
9473.9416304765837
 20
20165.488164999992
 30
0.0
 11
9473.9416304765837
 21
20240.487175999991
 31
0.0
  0
LINE
  5
12214
  8
SUNPOU
  6
CONTINUOUS
 62
     4
 10
12273.94163047658
 20
20165.488164999992
 30
0.0
 11
12273.94163047658
 21
20240.487175999991
 31
0.0
  0
LINE
  5
12215
  8
SUNPOU
  6
CONTINUOUS
 62
     4
 10
9473.9416304765837
 20
20160.487175999991
 30
0.0
 11
12273.94163047658
 21
20160.487175999991
 31
0.0
  0
LINE
  5
12216
  8
SUNPOU
  6
CONTINUOUS
 62
     4
 10
6906.4416304765818
 20
19690.487834999989
 30
0.0
 11
6906.4416304765818
 21
20240.487175999991
 31
0.0
  0
LINE
  5
12217
  8
SUNPOU
  6
CONTINUOUS
 62
     4
 10
9473.9416304765837
 20
20165.488164999992
 30
0.0
 11
9473.9416304765837
 21
20240.487175999991
 31
0.0
  0
LINE
  5
12218
  8
SUNPOU
  6
CONTINUOUS
 62
     4
 10
6906.4416304765818
 20
20160.487175999991
 30
0.0
 11
9473.9416304765837
 21
20160.487175999991
 31
0.0
  0
LINE
  5
12219
  8
SUNPOU
  6
CONTINUOUS
 62
     4
 10
6906.4416304765818
 20
19690.487834999989
 30
0.0
 11
6906.4416304765818
 21
20240.487175999991
 31
0.0
  0
LINE
  5
1221A
  8
SUNPOU
  6
CONTINUOUS
 62
     4
 10
6820.9416304765818
 20
19610.487571999998
 30
0.0
 11
6820.9416304765818
 21
20240.487175999991
 31
0.0
  0
LINE
  5
1221B
  8
SUNPOU
  6
CONTINUOUS
 62
     4
 10
6906.4416304765818
 20
20160.487175999991
 30
0.0
 11
7146.4416304765837
 21
20160.487175999991
 31
0.0
  0
LINE
  5
1221C
  8
SUNPOU
  6
CONTINUOUS
 62
     4
 10
6823.9416304765818
 20
20160.487175999991
 30
0.0
 11
6583.9416304765837
 21
20160.487175999991
 31
0.0
  0
LINE
  5
1221D
  8
SUNPOU
  6
CONTINUOUS
 62
     4
 10
6906.4416304765818
 20
20160.487175999991
 30
0.0
 11
6823.9416304765818
 21
20160.487175999991
 31
0.0
  0
LINE
  5
1221E
  8
SUNPOU
  6
CONTINUOUS
 62
     4
 10
6820.9416304765846
 20
13559.98625200001
 30
0.0
 11
6820.9416304765846
 21
12269.98546
 31
0.0
  0
LINE
  5
1221F
  8
SUNPOU
  6
CONTINUOUS
 62
     4
 10
12359.44163047658
 20
13559.986252000001
 30
0.0
 11
12359.44163047658
 21
12269.98546
 31
0.0
  0
LINE
  5
12220
  8
SUNPOU
  6
CONTINUOUS
 62
     4
 10
6823.9416304765864
 20
12349.98546
 30
0.0
 11
12356.44163047658
 21
12349.98546
 31
0.0
  0
LINE
  5
12221
  8
0-6
  6
CONTINUOUS
 62
     6
 10
25025.639107882089
 20
19102.38947925335
 30
0.0
 11
25131.96713183005
 21
19224.885710999992
 31
0.0
  0
LINE
  5
12222
  8
0-6
  6
CONTINUOUS
 62
     6
 10
25131.96713183005
 20
19224.885710999992
 30
0.0
 11
25071.115012236802
 21
19074.524404324551
 31
0.0
  0
LINE
  5
12223
  8
0-6
  6
CONTINUOUS
 62
     6
 10
25071.115012236802
 20
19074.524404324551
 30
0.0
 11
25025.639107882089
 21
19102.38947925335
 31
0.0
  0
LINE
  5
12224
  8
0-6
  6
CONTINUOUS
 62
     6
 10
25053.82345338805
 20
19518.2030359327
 30
0.0
 11
25122.86713183004
 21
19371.424475045871
 31
0.0
  0
LINE
  5
12225
  8
0-6
  6
CONTINUOUS
 62
     6
 10
25122.86713183004
 20
19371.424475045871
 30
0.0
 11
25009.95013165089
 21
19487.877272670848
 31
0.0
  0
LINE
  5
12226
  8
0-6
  6
CONTINUOUS
 62
     6
 10
25009.95013165089
 20
19487.877272670848
 30
0.0
 11
25053.82345338805
 21
19518.2030359327
 31
0.0
  0
LINE
  5
12227
  8
0-6
  6
CONTINUOUS
 62
     6
 10
25025.639107882089
 20
16935.082047746651
 30
0.0
 11
25131.96713183005
 21
16812.585815999992
 31
0.0
  0
LINE
  5
12228
  8
0-6
  6
CONTINUOUS
 62
     6
 10
25131.96713183005
 20
16812.585815999992
 30
0.0
 11
25071.115012236802
 21
16962.947122675439
 31
0.0
  0
LINE
  5
12229
  8
0-6
  6
CONTINUOUS
 62
     6
 10
25071.115012236802
 20
16962.947122675439
 30
0.0
 11
25025.639107882089
 21
16935.082047746651
 31
0.0
  0
LINE
  5
1222A
  8
0-6
  6
CONTINUOUS
 62
     6
 10
25025.639107882089
 20
14027.58248374665
 30
0.0
 11
25131.96713183005
 21
13905.086251999999
 31
0.0
  0
LINE
  5
1222B
  8
0-6
  6
CONTINUOUS
 62
     6
 10
25131.96713183005
 20
13905.086251999999
 30
0.0
 11
25071.115012236802
 21
14055.447558675451
 31
0.0
  0
LINE
  5
1222C
  8
0-6
  6
CONTINUOUS
 62
     6
 10
25071.115012236802
 20
14055.447558675451
 30
0.0
 11
25025.639107882089
 21
14027.58248374665
 31
0.0
  0
LINE
  5
1222D
  8
0-6
  6
CONTINUOUS
 62
     6
 10
25053.82345338805
 20
16519.268491067302
 30
0.0
 11
25122.86713183004
 21
16666.047051954109
 31
0.0
  0
LINE
  5
1222E
  8
0-6
  6
CONTINUOUS
 62
     6
 10
25122.86713183004
 20
16666.047051954109
 30
0.0
 11
25009.95013165089
 21
16549.594254329138
 31
0.0
  0
LINE
  5
1222F
  8
0-6
  6
CONTINUOUS
 62
     6
 10
25009.95013165089
 20
16549.594254329138
 30
0.0
 11
25053.82345338805
 21
16519.268491067302
 31
0.0
  0
LINE
  5
12230
  8
0-6
  6
CONTINUOUS
 62
     6
 10
25053.82345338805
 20
13631.707691113181
 30
0.0
 11
25122.86713183004
 21
13778.486252000001
 31
0.0
  0
LINE
  5
12231
  8
0-6
  6
CONTINUOUS
 62
     6
 10
25122.86713183004
 20
13778.486252000001
 30
0.0
 11
25009.95013165089
 21
13662.03345437501
 31
0.0
  0
LINE
  5
12232
  8
0-6
  6
CONTINUOUS
 62
     6
 10
25009.95013165089
 20
13662.03345437501
 30
0.0
 11
25053.82345338805
 21
13631.707691113181
 31
0.0
  0
LINE
  5
12257
  8
SUNPOU
  6
CONTINUOUS
 62
     4
 10
22362.011953585152
 20
19440.48625200001
 30
0.0
 11
22362.011953585152
 21
20240.487175999991
 31
0.0
  0
LINE
  5
12258
  8
SUNPOU
  6
CONTINUOUS
 62
     4
 10
22404.511953585141
 20
19440.48625200001
 30
0.0
 11
22404.511953585141
 21
20240.487175999991
 31
0.0
  0
LINE
  5
12259
  8
SUNPOU
  6
CONTINUOUS
 62
     4
 10
22362.011953585152
 20
20160.487175999991
 30
0.0
 11
22122.011953585152
 21
20160.487175999991
 31
0.0
  0
LINE
  5
1225A
  8
SUNPOU
  6
CONTINUOUS
 62
     4
 10
22404.511953585141
 20
20160.487175999991
 30
0.0
 11
22644.511953585141
 21
20160.487175999991
 31
0.0
  0
LINE
  5
1225B
  8
SUNPOU
  6
CONTINUOUS
 62
     4
 10
22362.011953585152
 20
20160.487175999991
 30
0.0
 11
22404.511953585141
 21
20160.487175999991
 31
0.0
  0
LINE
  5
1225C
  8
SUNPOU
  6
CONTINUOUS
 62
     4
 10
21604.011953585141
 20
19440.48625200001
 30
0.0
 11
21604.011953585141
 21
20240.487175999991
 31
0.0
  0
LINE
  5
1225D
  8
SUNPOU
  6
CONTINUOUS
 62
     4
 10
22362.011953585152
 20
19440.48625200001
 30
0.0
 11
22362.011953585152
 21
20240.487175999991
 31
0.0
  0
LINE
  5
1225E
  8
SUNPOU
  6
CONTINUOUS
 62
     4
 10
21604.011953585141
 20
20160.487175999991
 30
0.0
 11
22362.011953585152
 21
20160.487175999991
 31
0.0
  0
LINE
  5
1225F
  8
SUNPOU
  6
CONTINUOUS
 62
     4
 10
20903.01195358513
 20
19440.48625200001
 30
0.0
 11
20903.01195358513
 21
20240.487175999991
 31
0.0
  0
LINE
  5
12260
  8
SUNPOU
  6
CONTINUOUS
 62
     4
 10
21604.011953585141
 20
19440.48625200001
 30
0.0
 11
21604.011953585141
 21
20240.487175999991
 31
0.0
  0
LINE
  5
12261
  8
SUNPOU
  6
CONTINUOUS
 62
     4
 10
20903.01195358513
 20
20160.487175999991
 30
0.0
 11
21604.011953585141
 21
20160.487175999991
 31
0.0
  0
LINE
  5
12262
  8
SUNPOU
  6
CONTINUOUS
 62
     4
 10
20202.011953585141
 20
19440.48625200001
 30
0.0
 11
20202.011953585141
 21
20240.487175999991
 31
0.0
  0
LINE
  5
12263
  8
SUNPOU
  6
CONTINUOUS
 62
     4
 10
20903.01195358513
 20
19440.48625200001
 30
0.0
 11
20903.01195358513
 21
20240.487175999991
 31
0.0
  0
LINE
  5
12264
  8
SUNPOU
  6
CONTINUOUS
 62
     4
 10
20202.011953585141
 20
20160.487175999991
 30
0.0
 11
20903.01195358513
 21
20160.487175999991
 31
0.0
  0
LINE
  5
12265
  8
SUNPOU
  6
CONTINUOUS
 62
     4
 10
19794.511953585141
 20
19520.488759
 30
0.0
 11
19794.511953585141
 21
20240.487175999991
 31
0.0
  0
LINE
  5
12266
  8
SUNPOU
  6
CONTINUOUS
 62
     4
 10
20202.011953585141
 20
19440.48625200001
 30
0.0
 11
20202.011953585141
 21
20240.487175999991
 31
0.0
  0
LINE
  5
12267
  8
SUNPOU
  6
CONTINUOUS
 62
     4
 10
19794.511953585141
 20
20160.487175999991
 30
0.0
 11
20202.011953585141
 21
20160.487175999991
 31
0.0
  0
LINE
  5
12268
  8
SUNPOU
  6
CONTINUOUS
 62
     4
 10
19794.511953585141
 20
19520.488759
 30
0.0
 11
19794.511953585141
 21
20240.487175999991
 31
0.0
  0
LINE
  5
12269
  8
SUNPOU
  6
CONTINUOUS
 62
     4
 10
19752.011953585141
 20
19440.48625200001
 30
0.0
 11
19752.011953585141
 21
20240.487175999991
 31
0.0
  0
LINE
  5
1226A
  8
SUNPOU
  6
CONTINUOUS
 62
     4
 10
19794.511953585141
 20
20160.487175999991
 30
0.0
 11
20034.511953585141
 21
20160.487175999991
 31
0.0
  0
LINE
  5
1226B
  8
SUNPOU
  6
CONTINUOUS
 62
     4
 10
19752.011953585141
 20
20160.487175999991
 30
0.0
 11
19512.011953585141
 21
20160.487175999991
 31
0.0
  0
LINE
  5
1226C
  8
SUNPOU
  6
CONTINUOUS
 62
     4
 10
19794.511953585141
 20
20160.487175999991
 30
0.0
 11
19752.011953585141
 21
20160.487175999991
 31
0.0
  0
LINE
  5
1227A
  8
SUNPOU
  6
CONTINUOUS
 62
     4
 10
22362.011953585152
 20
20560.487175999991
 30
0.0
 11
25162.011953585141
 21
20560.487175999991
 31
0.0
  0
LINE
  5
1227B
  8
SUNPOU
  6
CONTINUOUS
 62
     4
 10
19794.511953585141
 20
20560.487175999991
 30
0.0
 11
22362.011953585152
 21
20560.487175999991
 31
0.0
  0
LINE
  5
1227C
  8
SUNPOU
  6
CONTINUOUS
 62
     4
 10
25162.011953585141
 20
19684.93602587733
 30
0.0
 11
25162.011953585141
 21
20240.487175999991
 31
0.0
  0
LINE
  5
1227D
  8
SUNPOU
  6
CONTINUOUS
 62
     4
 10
25119.509710585138
 20
19523.83651600001
 30
0.0
 11
25119.509710585138
 21
20240.487175999991
 31
0.0
  0
LINE
  5
1227E
  8
SUNPOU
  6
CONTINUOUS
 62
     4
 10
25162.011953585141
 20
20160.487175999991
 30
0.0
 11
25402.011953585141
 21
20160.487175999991
 31
0.0
  0
LINE
  5
1227F
  8
SUNPOU
  6
CONTINUOUS
 62
     4
 10
25119.509710585138
 20
20160.487175999991
 30
0.0
 11
24879.509710585138
 21
20160.487175999991
 31
0.0
  0
LINE
  5
12280
  8
SUNPOU
  6
CONTINUOUS
 62
     4
 10
25162.011953585141
 20
20160.487175999991
 30
0.0
 11
25119.509710585138
 21
20160.487175999991
 31
0.0
  0
LINE
  5
12281
  8
SUNPOU
  6
CONTINUOUS
 62
     4
 10
25162.011953585141
 20
19684.93602587733
 30
0.0
 11
25162.011953585141
 21
20240.487175999991
 31
0.0
  0
LINE
  5
12282
  8
SUNPOU
  6
CONTINUOUS
 62
     4
 10
25204.510238585131
 20
19520.488759
 30
0.0
 11
25204.510238585131
 21
20240.487175999991
 31
0.0
  0
LINE
  5
12283
  8
SUNPOU
  6
CONTINUOUS
 62
     4
 10
25162.011953585141
 20
20160.487175999991
 30
0.0
 11
24922.011953585141
 21
20160.487175999991
 31
0.0
  0
LINE
  5
12284
  8
SUNPOU
  6
CONTINUOUS
 62
     4
 10
25204.510238585131
 20
20160.487175999991
 30
0.0
 11
25444.510238585131
 21
20160.487175999991
 31
0.0
  0
LINE
  5
12285
  8
SUNPOU
  6
CONTINUOUS
 62
     4
 10
25162.011953585141
 20
20160.487175999991
 30
0.0
 11
25204.510238585131
 21
20160.487175999991
 31
0.0
  0
LINE
  5
12286
  8
SUNPOU
  6
CONTINUOUS
 62
     4
 10
25546.616789537082
 20
16750.486251999992
 30
0.0
 11
26459.855577953771
 21
16750.486251999992
 31
0.0
  0
LINE
  5
12287
  8
SUNPOU
  6
CONTINUOUS
 62
     4
 10
25546.616789537082
 20
19317.986251999992
 30
0.0
 11
26459.855577953771
 21
19317.986251999992
 31
0.0
  0
LINE
  5
12288
  8
SUNPOU
  6
CONTINUOUS
 62
     4
 10
26379.855577953771
 20
16750.486251999992
 30
0.0
 11
26379.855577953771
 21
19317.986251999992
 31
0.0
  0
LINE
  5
12289
  8
SUNPOU
  6
CONTINUOUS
 62
     4
 10
25546.616789537082
 20
13832.48625200001
 30
0.0
 11
26459.855577953771
 21
13832.48625200001
 31
0.0
  0
LINE
  5
1228A
  8
SUNPOU
  6
CONTINUOUS
 62
     4
 10
25546.616789537082
 20
16750.486251999992
 30
0.0
 11
26459.855577953771
 21
16750.486251999992
 31
0.0
  0
LINE
  5
1228B
  8
SUNPOU
  6
CONTINUOUS
 62
     4
 10
26379.855577953771
 20
13832.48625200001
 30
0.0
 11
26379.855577953771
 21
16750.486251999992
 31
0.0
  0
ARC
  5
122A3
  8
1-前柱P
 10
25171.611953585129
 20
13900.886252
 30
0.0
 40
1.0
 50
90.0
 51
180.0
  0
LINE
  5
122A4
  8
1-前柱P
 10
25170.611953585129
 20
13900.886252
 30
0.0
 11
25170.611953585129
 21
13899.286252
 31
0.0
  0
LINE
  5
122A5
  8
1-前柱P
 10
25170.611953585129
 20
13899.286252
 30
0.0
 11
25159.411953585139
 21
13899.286252
 31
0.0
  0
LINE
  5
122A6
  8
1-前柱P
 10
25159.411953585139
 20
13899.286252
 30
0.0
 11
25159.411953585131
 21
13900.886252
 31
0.0
  0
ARC
  5
122A7
  8
1-前柱P
 10
25158.411953585131
 20
13900.886252
 30
0.0
 40
1.0
 50
0.0
 51
90.0
  0
ARC
  5
122A8
  8
1-中柱P
 10
25155.411953585131
 20
16818.786252000002
 30
0.0
 40
1.0
 50
0.0
 51
90.0
  0
LINE
  5
122A9
  8
1-中柱P
 10
25156.411953585131
 20
16818.786252000002
 30
0.0
 11
25156.411953585131
 21
16817.18625200001
 31
0.0
  0
LINE
  5
122AA
  8
1-中柱P
 10
25156.411953585131
 20
16817.18625200001
 30
0.0
 11
25167.611953585129
 21
16817.18625200001
 31
0.0
  0
LINE
  5
122AB
  8
1-中柱P
 10
25167.611953585129
 20
16817.18625200001
 30
0.0
 11
25167.611953585129
 21
16818.786252000002
 31
0.0
  0
ARC
  5
122AC
  8
1-中柱P
 10
25168.611953585129
 20
16818.786252000002
 30
0.0
 40
1.0
 50
90.0
 51
180.0
  0
ARC
  5
122AD
  8
1-後柱P
 10
25152.411953585161
 20
19249.936251999989
 30
0.0
 40
1.0
 50
270.0
 51
0.0
  0
LINE
  5
122AE
  8
1-後柱P
 10
25153.411953585139
 20
19249.936251999989
 30
0.0
 11
25153.411953585139
 21
19251.536252000002
 31
0.0
  0
LINE
  5
122AF
  8
1-後柱P
 10
25153.411953585139
 20
19251.536252000002
 30
0.0
 11
25164.61195358515
 21
19251.536252000002
 31
0.0
  0
LINE
  5
122B0
  8
1-後柱P
 10
25164.61195358515
 20
19251.536252000002
 30
0.0
 11
25164.61195358515
 21
19249.936251999989
 31
0.0
  0
ARC
  5
122B1
  8
1-後柱P
 10
25165.611953585139
 20
19249.936251999989
 30
0.0
 40
1.0
 50
180.0
 51
270.0
  0
LINE
  5
122B2
  8
SUNPOU
  6
CONTINUOUS
 62
     4
 10
6326.233570470944
 20
8478.188374000003
 30
0.0
 11
6326.233570470944
 21
9869.1883999999955
 31
0.0
  0
LINE
  5
122B3
  8
SUNPOU
  6
CONTINUOUS
 62
     4
 10
12226.73357047094
 20
8610.0781974124311
 30
0.0
 11
12226.73357047094
 21
9869.1883999999955
 31
0.0
  0
LINE
  5
122B4
  8
SUNPOU
  6
CONTINUOUS
 62
     4
 10
6326.233570470944
 20
9789.1883999999955
 30
0.0
 11
12226.73357047094
 21
9789.1883999999955
 31
0.0
  0
LINE
  5
122B5
  8
SUNPOU
  6
CONTINUOUS
 62
     4
 10
12076.73357047094
 20
8536.0984379999973
 30
0.0
 11
12076.73357047094
 21
9469.1900500000029
 31
0.0
  0
LINE
  5
122B6
  8
SUNPOU
  6
CONTINUOUS
 62
     4
 10
12226.73357047094
 20
8610.0781974124311
 30
0.0
 11
12226.73357047094
 21
9469.1900500000029
 31
0.0
  0
LINE
  5
122B7
  8
SUNPOU
  6
CONTINUOUS
 62
     4
 10
12076.73357047094
 20
9389.1900500000029
 30
0.0
 11
11836.73357047094
 21
9389.1900500000029
 31
0.0
  0
LINE
  5
122B8
  8
SUNPOU
  6
CONTINUOUS
 62
     4
 10
12226.73357047094
 20
9389.1900500000029
 30
0.0
 11
12466.73357047094
 21
9389.1900500000029
 31
0.0
  0
LINE
  5
122B9
  8
SUNPOU
  6
CONTINUOUS
 62
     4
 10
12076.73357047094
 20
9389.1900500000029
 30
0.0
 11
12226.73357047094
 21
9389.1900500000029
 31
0.0
  0
LINE
  5
122BA
  8
SUNPOU
  6
CONTINUOUS
 62
     4
 10
6506.233570470944
 20
8348.3741496838102
 30
0.0
 11
6506.233570470944
 21
9469.1900500000029
 31
0.0
  0
LINE
  5
122BB
  8
SUNPOU
  6
CONTINUOUS
 62
     4
 10
12076.73357047094
 20
8536.0984379999973
 30
0.0
 11
12076.73357047094
 21
9469.1900500000029
 31
0.0
  0
LINE
  5
122BC
  8
SUNPOU
  6
CONTINUOUS
 62
     4
 10
6506.233570470944
 20
9389.1900500000029
 30
0.0
 11
12076.73357047094
 21
9389.1900500000029
 31
0.0
  0
LINE
  5
122BD
  8
SUNPOU
  6
CONTINUOUS
 62
     4
 10
6326.233570470944
 20
8478.188374000003
 30
0.0
 11
6326.233570470944
 21
9469.1900500000029
 31
0.0
  0
LINE
  5
122BE
  8
SUNPOU
  6
CONTINUOUS
 62
     4
 10
6506.233570470944
 20
8348.3741496838102
 30
0.0
 11
6506.233570470944
 21
9469.1900500000029
 31
0.0
  0
LINE
  5
122BF
  8
SUNPOU
  6
CONTINUOUS
 62
     4
 10
6326.233570470944
 20
9389.1900500000029
 30
0.0
 11
6506.233570470944
 21
9389.1900500000029
 31
0.0
  0
LINE
  5
122C0
  8
SUNPOU
  6
CONTINUOUS
 62
     4
 10
12169.23357047094
 20
6241.1883740000021
 30
0.0
 11
13246.73396647094
 21
6241.1883740000021
 31
0.0
  0
LINE
  5
122C1
  8
SUNPOU
  6
CONTINUOUS
 62
     4
 10
12261.54083007032
 20
8589.688374000003
 30
0.0
 11
13246.73396647094
 21
8589.688374000003
 31
0.0
  0
LINE
  5
122C2
  8
SUNPOU
  6
CONTINUOUS
 62
     4
 10
13166.73396647094
 20
6241.1883740000021
 30
0.0
 11
13166.73396647094
 21
8589.688374000003
 31
0.0
  0
LINE
  5
122C3
  8
SUNPOU
  6
CONTINUOUS
 62
     4
 10
6418.7335704709449
 20
6241.1883740000021
 30
0.0
 11
5336.2331744709472
 21
6241.1883740000039
 31
0.0
  0
LINE
  5
122C4
  8
SUNPOU
  6
CONTINUOUS
 62
     4
 10
6246.233570470944
 20
8397.1883740000048
 30
0.0
 11
5336.2331744709472
 21
8397.1883740000048
 31
0.0
  0
LINE
  5
122C5
  8
SUNPOU
  6
CONTINUOUS
 62
     4
 10
5416.2331744709481
 20
6241.1883740000039
 30
0.0
 11
5416.2331744709481
 21
8397.1883740000048
 31
0.0
  0
LINE
  5
122C6
  8
SUNPOU
  6
CONTINUOUS
 62
     4
 10
6506.233570470944
 20
6161.1883740000021
 30
0.0
 11
6506.233570470944
 21
4461.1887039999992
 31
0.0
  0
LINE
  5
122C7
  8
SUNPOU
  6
CONTINUOUS
 62
     4
 10
12076.73357047094
 20
6161.1883740000021
 30
0.0
 11
12076.73357047094
 21
4461.1887039999992
 31
0.0
  0
LINE
  5
122C8
  8
SUNPOU
  6
CONTINUOUS
 62
     4
 10
6506.233570470944
 20
4541.1887039999983
 30
0.0
 11
12076.73357047094
 21
4541.1887039999983
 31
0.0
  0
LINE
  5
122C9
  8
SUNPOU
  6
CONTINUOUS
 62
     4
 10
12034.23357047094
 20
5798.5361160000011
 30
0.0
 11
12034.23357047094
 21
4861.1885389999998
 31
0.0
  0
LINE
  5
122CA
  8
SUNPOU
  6
CONTINUOUS
 62
     4
 10
12076.73357047094
 20
6161.1883740000021
 30
0.0
 11
12076.73357047094
 21
4861.1885389999998
 31
0.0
  0
LINE
  5
122CB
  8
SUNPOU
  6
CONTINUOUS
 62
     4
 10
12034.23357047094
 20
4941.1885390000016
 30
0.0
 11
11794.23357047094
 21
4941.1885390000016
 31
0.0
  0
LINE
  5
122CC
  8
SUNPOU
  6
CONTINUOUS
 62
     4
 10
12076.73357047094
 20
4941.1885390000016
 30
0.0
 11
12316.73357047094
 21
4941.1885390000016
 31
0.0
  0
LINE
  5
122CD
  8
SUNPOU
  6
CONTINUOUS
 62
     4
 10
12034.23357047094
 20
4941.1885390000016
 30
0.0
 11
12076.73357047094
 21
4941.1885390000016
 31
0.0
  0
LINE
  5
122CE
  8
SUNPOU
  6
CONTINUOUS
 62
     4
 10
6548.7335704709431
 20
5798.5361160000011
 30
0.0
 11
6548.7335704709431
 21
4861.1885389999998
 31
0.0
  0
LINE
  5
122CF
  8
SUNPOU
  6
CONTINUOUS
 62
     4
 10
6506.233570470944
 20
6161.1883740000021
 30
0.0
 11
6506.233570470944
 21
4861.1885389999998
 31
0.0
  0
LINE
  5
122D0
  8
SUNPOU
  6
CONTINUOUS
 62
     4
 10
6548.7335704709431
 20
4941.1885390000016
 30
0.0
 11
6788.733570470944
 21
4941.1885390000016
 31
0.0
  0
LINE
  5
122D1
  8
SUNPOU
  6
CONTINUOUS
 62
     4
 10
6506.233570470944
 20
4941.1885390000016
 30
0.0
 11
6266.233570470944
 21
4941.1885390000016
 31
0.0
  0
LINE
  5
122D2
  8
SUNPOU
  6
CONTINUOUS
 62
     4
 10
6548.7335704709431
 20
4941.1885390000016
 30
0.0
 11
6506.233570470944
 21
4941.1885390000016
 31
0.0
  0
LINE
  5
122D3
  8
SUNPOU
  6
CONTINUOUS
 62
     4
 10
9116.233570470944
 20
5798.5361160000011
 30
0.0
 11
9116.233570470944
 21
4861.1885389999998
 31
0.0
  0
LINE
  5
122D4
  8
SUNPOU
  6
CONTINUOUS
 62
     4
 10
6548.7335704709431
 20
5798.5361160000011
 30
0.0
 11
6548.7335704709431
 21
4861.1885389999998
 31
0.0
  0
LINE
  5
122D5
  8
SUNPOU
  6
CONTINUOUS
 62
     4
 10
9116.233570470944
 20
4941.1885390000016
 30
0.0
 11
6548.7335704709431
 21
4941.1885390000016
 31
0.0
  0
LINE
  5
122D6
  8
SUNPOU
  6
CONTINUOUS
 62
     4
 10
9116.233570470944
 20
5798.5361160000011
 30
0.0
 11
9116.233570470944
 21
4861.1885389999998
 31
0.0
  0
LINE
  5
122D7
  8
SUNPOU
  6
CONTINUOUS
 62
     4
 10
12034.23357047094
 20
5798.5361160000011
 30
0.0
 11
12034.23357047094
 21
4861.1885389999998
 31
0.0
  0
LINE
  5
122D8
  8
SUNPOU
  6
CONTINUOUS
 62
     4
 10
9116.233570470944
 20
4941.1885390000016
 30
0.0
 11
12034.23357047094
 21
4941.1885390000016
 31
0.0
  0
LINE
  5
122D9
  8
SUNPOU
  6
CONTINUOUS
 62
     4
 10
19688.010092585158
 20
8669.6883999999955
 30
0.0
 11
19688.010092585158
 21
9869.1329740000037
 31
0.0
  0
LINE
  5
122DA
  8
SUNPOU
  6
CONTINUOUS
 62
     4
 10
25226.510092585158
 20
8669.6883999999955
 30
0.0
 11
25226.510092585158
 21
9869.1329740000037
 31
0.0
  0
LINE
  5
122DB
  8
SUNPOU
  6
CONTINUOUS
 62
     4
 10
19691.010092585158
 20
9789.1329740000037
 30
0.0
 11
25223.510092585158
 21
9789.1329740000037
 31
0.0
  0
LINE
  5
122DC
  8
SUNPOU
  6
CONTINUOUS
 62
     4
 10
25183.510092585158
 20
8669.6883999999955
 30
0.0
 11
25183.510092585158
 21
9469.1900500000029
 31
0.0
  0
LINE
  5
122DD
  8
SUNPOU
  6
CONTINUOUS
 62
     4
 10
25226.510092585158
 20
8669.6883999999955
 30
0.0
 11
25226.510092585158
 21
9469.1900500000029
 31
0.0
  0
LINE
  5
122DE
  8
SUNPOU
  6
CONTINUOUS
 62
     4
 10
25183.510092585158
 20
9389.1900500000029
 30
0.0
 11
24943.510092585158
 21
9389.1900500000029
 31
0.0
  0
LINE
  5
122DF
  8
SUNPOU
  6
CONTINUOUS
 62
     4
 10
25223.510092585158
 20
9389.1900500000029
 30
0.0
 11
25463.510092585158
 21
9389.1900500000029
 31
0.0
  0
LINE
  5
122E0
  8
SUNPOU
  6
CONTINUOUS
 62
     4
 10
25183.510092585158
 20
9389.1900500000029
 30
0.0
 11
25223.510092585158
 21
9389.1900500000029
 31
0.0
  0
LINE
  5
122E1
  8
SUNPOU
  6
CONTINUOUS
 62
     4
 10
19731.010092585158
 20
8539.6884659999996
 30
0.0
 11
19731.010092585158
 21
9469.1900500000029
 31
0.0
  0
LINE
  5
122E2
  8
SUNPOU
  6
CONTINUOUS
 62
     4
 10
19688.010092585158
 20
8669.6883999999955
 30
0.0
 11
19688.010092585158
 21
9469.1900500000029
 31
0.0
  0
LINE
  5
122E3
  8
SUNPOU
  6
CONTINUOUS
 62
     4
 10
19731.010092585158
 20
9389.1900500000029
 30
0.0
 11
19971.010092585158
 21
9389.1900500000029
 31
0.0
  0
LINE
  5
122E4
  8
SUNPOU
  6
CONTINUOUS
 62
     4
 10
19691.010092585158
 20
9389.1900500000029
 30
0.0
 11
19451.010092585158
 21
9389.1900500000029
 31
0.0
  0
LINE
  5
122E5
  8
SUNPOU
  6
CONTINUOUS
 62
     4
 10
19731.010092585158
 20
9389.1900500000029
 30
0.0
 11
19691.010092585158
 21
9389.1900500000029
 31
0.0
  0
LINE
  5
122E6
  8
SUNPOU
  6
CONTINUOUS
 62
     4
 10
22383.510092585158
 20
8539.6884659999996
 30
0.0
 11
22383.510092585158
 21
9469.1900500000029
 31
0.0
  0
LINE
  5
122E7
  8
SUNPOU
  6
CONTINUOUS
 62
     4
 10
19731.010092585158
 20
8539.6884659999996
 30
0.0
 11
19731.010092585158
 21
9469.1900500000029
 31
0.0
  0
LINE
  5
122E8
  8
SUNPOU
  6
CONTINUOUS
 62
     4
 10
22383.510092585158
 20
9389.1900500000029
 30
0.0
 11
19731.010092585158
 21
9389.1900500000029
 31
0.0
  0
LINE
  5
122E9
  8
SUNPOU
  6
CONTINUOUS
 62
     4
 10
19643.50745358516
 20
6241.1883740000021
 30
0.0
 11
18443.50745358516
 21
6241.1883740000021
 31
0.0
  0
LINE
  5
122EA
  8
SUNPOU
  6
CONTINUOUS
 62
     4
 10
19611.010092585158
 20
8589.6883999999973
 30
0.0
 11
18443.50745358516
 21
8589.6883999999973
 31
0.0
  0
LINE
  5
122EB
  8
SUNPOU
  6
CONTINUOUS
 62
     4
 10
18523.50745358516
 20
6241.1883740000021
 30
0.0
 11
18523.50745358516
 21
8589.6883999999973
 31
0.0
  0
LINE
  5
122EC
  8
SUNPOU
  6
CONTINUOUS
 62
     4
 10
19643.50745358516
 20
6241.1883740000021
 30
0.0
 11
18843.506793585169
 21
6241.1883740000021
 31
0.0
  0
LINE
  5
122ED
  8
SUNPOU
  6
CONTINUOUS
 62
     4
 10
19736.00639758517
 20
8132.6883740000021
 30
0.0
 11
18843.506793585169
 21
8132.6883740000021
 31
0.0
  0
LINE
  5
122EE
  8
SUNPOU
  6
CONTINUOUS
 62
     4
 10
18923.506793585158
 20
6241.1883740000021
 30
0.0
 11
18923.506793585158
 21
8132.6883740000021
 31
0.0
  0
LINE
  5
122EF
  8
SUNPOU
  6
CONTINUOUS
 62
     4
 10
22386.510092585158
 20
6161.1883740000021
 30
0.0
 11
22386.510092585158
 21
5261.188374000003
 31
0.0
  0
LINE
  5
122F0
  8
SUNPOU
  6
CONTINUOUS
 62
     4
 10
25098.510092585158
 20
6061.1885389999989
 30
0.0
 11
25098.510092585158
 21
5261.188374000003
 31
0.0
  0
LINE
  5
122F1
  8
SUNPOU
  6
CONTINUOUS
 62
     4
 10
22386.510092585158
 20
5341.188374000003
 30
0.0
 11
25098.510092585158
 21
5341.188374000003
 31
0.0
  0
LINE
  5
122F2
  8
SUNPOU
  6
CONTINUOUS
 62
     4
 10
19731.05004553268
 20
6161.1883740000021
 30
0.0
 11
19731.05004553268
 21
4461.1887040000574
 31
0.0
  0
LINE
  5
122F3
  8
SUNPOU
  6
CONTINUOUS
 62
     4
 10
25183.510092585158
 20
6061.1885389999989
 30
0.0
 11
25183.510092585158
 21
4461.1887040000574
 31
0.0
  0
LINE
  5
122F4
  8
SUNPOU
  6
CONTINUOUS
 62
     4
 10
19731.05004553268
 20
4541.1887040000556
 30
0.0
 11
25183.510092585158
 21
4541.1887040000556
 31
0.0
  0
LINE
  5
122F5
  8
SUNPOU
  6
CONTINUOUS
 62
     4
 10
19773.510092585158
 20
5798.5361160000011
 30
0.0
 11
19773.510092585158
 21
4861.1885389999998
 31
0.0
  0
LINE
  5
122F6
  8
SUNPOU
  6
CONTINUOUS
 62
     4
 10
19731.05004553268
 20
6161.1883740000021
 30
0.0
 11
19731.05004553268
 21
4861.1885389999998
 31
0.0
  0
LINE
  5
122F7
  8
SUNPOU
  6
CONTINUOUS
 62
     4
 10
19773.510092585158
 20
4941.1885390000016
 30
0.0
 11
20013.510092585158
 21
4941.1885390000016
 31
0.0
  0
LINE
  5
122F8
  8
SUNPOU
  6
CONTINUOUS
 62
     4
 10
19731.05004553268
 20
4941.1885390000016
 30
0.0
 11
19491.05004553268
 21
4941.1885390000016
 31
0.0
  0
LINE
  5
122F9
  8
SUNPOU
  6
CONTINUOUS
 62
     4
 10
19773.510092585158
 20
4941.1885390000016
 30
0.0
 11
19731.05004553268
 21
4941.1885390000016
 31
0.0
  0
LINE
  5
122FA
  8
SUNPOU
  6
CONTINUOUS
 62
     4
 10
22341.010092585158
 20
5798.5361160000011
 30
0.0
 11
22341.010092585158
 21
4861.1885389999998
 31
0.0
  0
LINE
  5
122FB
  8
SUNPOU
  6
CONTINUOUS
 62
     4
 10
19773.510092585158
 20
5798.5361160000011
 30
0.0
 11
19773.510092585158
 21
4861.1885389999998
 31
0.0
  0
LINE
  5
122FC
  8
SUNPOU
  6
CONTINUOUS
 62
     4
 10
22341.010092585158
 20
4941.1885390000016
 30
0.0
 11
19773.510092585158
 21
4941.1885390000016
 31
0.0
  0
LINE
  5
122FD
  8
SUNPOU
  6
CONTINUOUS
 62
     4
 10
19867.510092585158
 20
6061.1885389999989
 30
0.0
 11
19867.510092585158
 21
5261.188374000003
 31
0.0
  0
LINE
  5
122FE
  8
SUNPOU
  6
CONTINUOUS
 62
     4
 10
22247.010092585158
 20
6061.1885389999989
 30
0.0
 11
22247.010092585158
 21
5261.188374000003
 31
0.0
  0
LINE
  5
122FF
  8
SUNPOU
  6
CONTINUOUS
 62
     4
 10
19867.510092585158
 20
5341.188374000003
 30
0.0
 11
22247.010092585158
 21
5341.188374000003
 31
0.0
  0
LINE
  5
12300
  8
SUNPOU
  6
CONTINUOUS
 62
     4
 10
25141.010092585158
 20
5798.5361160000011
 30
0.0
 11
25141.010092585158
 21
4861.1885389999998
 31
0.0
  0
LINE
  5
12301
  8
SUNPOU
  6
CONTINUOUS
 62
     4
 10
25183.510092585158
 20
6061.1885389999989
 30
0.0
 11
25183.510092585158
 21
4861.1885389999998
 31
0.0
  0
LINE
  5
12302
  8
SUNPOU
  6
CONTINUOUS
 62
     4
 10
25141.010092585158
 20
4941.1885390000016
 30
0.0
 11
24901.010092585158
 21
4941.1885390000016
 31
0.0
  0
LINE
  5
12303
  8
SUNPOU
  6
CONTINUOUS
 62
     4
 10
25183.510092585158
 20
4941.1885390000016
 30
0.0
 11
25423.510092585158
 21
4941.1885390000016
 31
0.0
  0
LINE
  5
12304
  8
SUNPOU
  6
CONTINUOUS
 62
     4
 10
25141.010092585158
 20
4941.1885390000016
 30
0.0
 11
25183.510092585158
 21
4941.1885390000016
 31
0.0
  0
LINE
  5
12305
  8
SUNPOU
  6
CONTINUOUS
 62
     4
 10
22341.010092585158
 20
5798.5361160000011
 30
0.0
 11
22341.010092585158
 21
4861.1885389999998
 31
0.0
  0
LINE
  5
12306
  8
SUNPOU
  6
CONTINUOUS
 62
     4
 10
25141.010092585158
 20
5798.5361160000011
 30
0.0
 11
25141.010092585158
 21
4861.1885389999998
 31
0.0
  0
LINE
  5
12307
  8
SUNPOU
  6
CONTINUOUS
 62
     4
 10
22341.010092585158
 20
4941.1885390000016
 30
0.0
 11
25141.010092585158
 21
4941.1885390000016
 31
0.0
  0
LINE
  5
12308
  8
SUNPOU
  6
CONTINUOUS
 62
     4
 10
22383.510092585158
 20
8539.6884659999996
 30
0.0
 11
22383.510092585158
 21
9469.1900500000029
 31
0.0
  0
LINE
  5
12309
  8
SUNPOU
  6
CONTINUOUS
 62
     4
 10
25183.510092585158
 20
8669.6883999999955
 30
0.0
 11
25183.510092585158
 21
9469.1900500000029
 31
0.0
  0
LINE
  5
1230A
  8
SUNPOU
  6
CONTINUOUS
 62
     4
 10
22383.510092585158
 20
9389.1900500000029
 30
0.0
 11
25183.510092585158
 21
9389.1900500000029
 31
0.0
  0
LINE
  5
1230B
  8
SUNPOU
  6
CONTINUOUS
 62
     4
 10
25263.510092585158
 20
6241.1883740000021
 30
0.0
 11
26348.33249087954
 21
6241.1883740000021
 31
0.0
  0
LINE
  5
1230C
  8
SUNPOU
  6
CONTINUOUS
 62
     4
 10
25263.510092585158
 20
8261.1883740000048
 30
0.0
 11
26348.332490879551
 21
8261.1883740000048
 31
0.0
  0
LINE
  5
1230D
  8
SUNPOU
  6
CONTINUOUS
 62
     4
 10
26268.33249087954
 20
6241.1883740000021
 30
0.0
 11
26268.332490879551
 21
8261.1883740000048
 31
0.0
  0
LINE
  5
1230E
  8
0-6
  6
CONTINUOUS
 62
     6
 10
7732.1682107906181
 20
16544.76595363297
 30
0.0
 11
7793.3653274936087
 21
16694.98542100003
 31
0.0
  0
LINE
  5
1230F
  8
0-6
  6
CONTINUOUS
 62
     6
 10
7793.3653274936087
 20
16694.98542100003
 30
0.0
 11
7686.7548230713246
 21
16572.732799960791
 31
0.0
  0
LINE
  5
12310
  8
0-6
  6
CONTINUOUS
 62
     6
 10
7686.7548230713246
 20
16572.732799960791
 30
0.0
 11
7732.1682107906181
 21
16544.76595363297
 31
0.0
  0
LINE
  5
12311
  8
0-6
  6
CONTINUOUS
 62
     6
 10
7548.1094401649061
 20
15064.115488956189
 30
0.0
 11
7622.8291852355414
 21
15208.08748333491
 31
0.0
  0
LINE
  5
12312
  8
0-6
  6
CONTINUOUS
 62
     6
 10
7622.8291852355414
 20
15208.08748333491
 30
0.0
 11
7505.4531422518803
 21
15096.13049365744
 31
0.0
  0
LINE
  5
12313
  8
0-6
  6
CONTINUOUS
 62
     6
 10
7505.4531422518803
 20
15096.13049365744
 30
0.0
 11
7548.1094401649061
 21
15064.115488956189
 31
0.0
  0
LINE
  5
12314
  8
0-6
  6
CONTINUOUS
 62
     6
 10
7548.1094401649061
 20
18020.51386162129
 30
0.0
 11
7622.8291852355414
 21
18164.485856000021
 31
0.0
  0
LINE
  5
12315
  8
0-6
  6
CONTINUOUS
 62
     6
 10
7622.8291852355414
 20
18164.485856000021
 30
0.0
 11
7505.4531422518803
 21
18052.528866322551
 31
0.0
  0
LINE
  5
12316
  8
0-6
  6
CONTINUOUS
 62
     6
 10
7505.4531422518803
 20
18052.528866322551
 30
0.0
 11
7548.1094401649061
 21
18020.51386162129
 31
0.0
  0
LINE
  5
12317
  8
0-6
  6
CONTINUOUS
 62
     6
 10
8686.1406686564787
 20
15533.92156097423
 30
0.0
 11
8808.3943941214857
 21
15640.5283247312
 31
0.0
  0
LINE
  5
12318
  8
0-6
  6
CONTINUOUS
 62
     6
 10
8808.3943941214857
 20
15640.5283247312
 30
0.0
 11
8658.1720833300406
 21
15579.333877723149
 31
0.0
  0
LINE
  5
12319
  8
0-6
  6
CONTINUOUS
 62
     6
 10
8658.1720833300406
 20
15579.333877723149
 30
0.0
 11
8686.1406686564787
 21
15533.92156097423
 31
0.0
  0
LINE
  5
1231A
  8
0-6
  6
CONTINUOUS
 62
     6
 10
12174.65170781093
 20
14143.059663154811
 30
0.0
 11
12220.94199947659
 21
14298.52086206411
 31
0.0
  0
LINE
  5
1231B
  8
0-6
  6
CONTINUOUS
 62
     6
 10
12220.94199947659
 20
14298.52086206411
 30
0.0
 11
12126.73261347986
 21
14166.47505715437
 31
0.0
  0
LINE
  5
1231C
  8
0-6
  6
CONTINUOUS
 62
     6
 10
12126.73261347986
 20
14166.47505715437
 30
0.0
 11
12174.65170781093
 21
14143.059663154811
 31
0.0
  0
TEXT
  5
1231D
  8
0
  6
CONTINUOUS
 62
     7
 10
26188.33249087954
 20
6588.1883740000094
 30
0.0
 40
160.0
  1
有効高サ2020
 50
90.0
  0
TEXT
  5
1231E
  8
0
  6
CONTINUOUS
 62
     7
 10
23516.843425918501
 20
9469.1900500000029
 30
0.0
 40
160.0
  1
2800
  0
TEXT
  5
1231F
  8
0
  6
CONTINUOUS
 62
     7
 10
23474.343425918501
 20
5021.1885389999998
 30
0.0
 40
160.0
  1
2800
  0
TEXT
  5
12320
  8
0
  6
CONTINUOUS
 62
     7
 10
25303.51075258516
 20
5021.1883080000007
 30
0.0
 40
160.0
  1
42.5
  0
TEXT
  5
12321
  8
0
  6
CONTINUOUS
 62
     7
 10
20177.260092585158
 20
5421.188374000003
 30
0.0
 40
160.0
  1
有効開口巾2379.5
  0
TEXT
  5
12322
  8
0
  6
CONTINUOUS
 62
     7
 10
20657.260092585169
 20
5021.1885389999998
 30
0.0
 40
160.0
  1
2567.5
  0
TEXT
  5
12323
  8
0
  6
CONTINUOUS
 62
     7
 10
19151.187061585169
 20
5028.7357170000014
 30
0.0
 40
160.0
  1
42.5
  0
TEXT
  5
12324
  8
0
  6
CONTINUOUS
 62
     7
 10
22057.28006905891
 20
4621.1887040000584
 30
0.0
 40
160.0
  1
5452.5
  0
TEXT
  5
12325
  8
0
  6
CONTINUOUS
 62
     7
 10
22995.843425918501
 20
5421.188374000003
 30
0.0
 40
160.0
  1
有効開口巾2712
  0
TEXT
  5
12326
  8
0
  6
CONTINUOUS
 62
     7
 10
18843.506793585169
 20
6264.2717073333397
 30
0.0
 40
160.0
  1
有効開口高サ1891.5
 50
90.0
  0
TEXT
  5
12327
  8
0
  6
CONTINUOUS
 62
     7
 10
18443.50745358516
 20
6396.7717203333359
 30
0.0
 40
160.0
  1
2348.5（2588.5）
 50
90.0
  0
TEXT
  5
12328
  8
0
  6
CONTINUOUS
 62
     7
 10
20657.260092585169
 20
9469.1900500000029
 30
0.0
 40
160.0
  1
2652.5
  0
TEXT
  5
12329
  8
0
  6
CONTINUOUS
 62
     7
 10
19361.202106585159
 20
9469.1893240000027
 30
0.0
 40
160.0
  1
43
  0
TEXT
  5
1232A
  8
0
  6
CONTINUOUS
 62
     7
 10
25360.975912585182
 20
9469.1893240000027
 30
0.0
 40
160.0
  1
43
  0
TEXT
  5
1232B
  8
0
  6
CONTINUOUS
 62
     7
 10
22057.260092585158
 20
9869.1329740000037
 30
0.0
 40
160.0
  1
5538.5
  0
TEXT
  5
1232C
  8
0
  6
CONTINUOUS
 62
     7
 10
10308.566903804271
 20
5021.1885389999998
 30
0.0
 40
160.0
  1
2918
  0
TEXT
  5
1232D
  8
0
  6
CONTINUOUS
 62
     7
 10
7432.483570470944
 20
5021.1885389999998
 30
0.0
 40
160.0
  1
2567.5
  0
TEXT
  5
1232E
  8
0
  6
CONTINUOUS
 62
     7
 10
5924.2439564709448
 20
5022.1790570000003
 30
0.0
 40
160.0
  1
42.5
  0
TEXT
  5
1232F
  8
0
  6
CONTINUOUS
 62
     7
 10
12196.73522047094
 20
5021.1883080000007
 30
0.0
 40
160.0
  1
42.5
  0
TEXT
  5
12330
  8
0
  6
CONTINUOUS
 62
     7
 10
8904.8169038042797
 20
4621.1887039999983
 30
0.0
 40
160.0
  1
5570.5
  0
TEXT
  5
12331
  8
0
  6
CONTINUOUS
 62
     7
 10
5336.2331744709472
 20
6540.521707333337
 30
0.0
 40
160.0
  1
2156（2396）
 50
90.0
  0
TEXT
  5
12332
  8
0
  6
CONTINUOUS
 62
     7
 10
13086.73396647094
 20
6396.7717073333361
 30
0.0
 40
160.0
  1
2348.5（2588.5）
 50
90.0
  0
TEXT
  5
12333
  8
0
  6
CONTINUOUS
 62
     7
 10
5871.8917553358378
 20
9469.1900500000029
 30
0.0
 40
160.0
  1
180
  0
TEXT
  5
12334
  8
0
  6
CONTINUOUS
 62
     7
 10
8904.8169038042797
 20
9469.1900500000029
 30
0.0
 40
160.0
  1
5570.5
  0
TEXT
  5
12335
  8
0
  6
CONTINUOUS
 62
     7
 10
12293.40023713761
 20
9469.1900500000029
 30
0.0
 40
160.0
  1
150
  0
TEXT
  5
12336
  8
0
  6
CONTINUOUS
 62
     7
 10
8903.1502371376137
 20
9869.1883999999955
 30
0.0
 40
160.0
  1
5900.5
  0
TEXT
  5
1233C
  8
0
  6
CONTINUOUS
 62
     7
 10
26299.855577953771
 20
15024.819585333331
 30
0.0
 40
160.0
  1
2918
 50
90.0
  0
TEXT
  5
1233D
  8
0
  6
CONTINUOUS
 62
     7
 10
26299.855577953771
 20
17634.23625200001
 30
0.0
 40
160.0
  1
2567.5
 50
90.0
  0
TEXT
  5
1233E
  8
0
  6
CONTINUOUS
 62
     7
 10
25302.93388158513
 20
20240.485459999989
 30
0.0
 40
160.0
  1
42.5
  0
TEXT
  5
1233F
  8
0
  6
CONTINUOUS
 62
     7
 10
24624.83791458515
 20
20259.829315999999
 30
0.0
 40
160.0
  1
42.5
  0
TEXT
  5
12340
  8
0
  6
CONTINUOUS
 62
     7
 10
20678.26195358513
 20
20640.487175999991
 30
0.0
 40
160.0
  1
2567.5
  0
TEXT
  5
12341
  8
0
  6
CONTINUOUS
 62
     7
 10
23495.34528691848
 20
20640.487175999991
 30
0.0
 40
160.0
  1
2800
  0
TEXT
  5
12345
  8
0
  6
CONTINUOUS
 62
     7
 10
19257.33791458515
 20
20259.829315999999
 30
0.0
 40
160.0
  1
42.5
  0
TEXT
  5
12346
  8
0
  6
CONTINUOUS
 62
     7
 10
19866.274685127359
 20
20250.155768458
 30
0.0
 40
160.0
  1
407.5
  0
TEXT
  5
12347
  8
0
  6
CONTINUOUS
 62
     7
 10
20365.33204574469
 20
19903.890681470832
 30
0.0
 40
160.0
  1
701
  0
TEXT
  5
12348
  8
0
  6
CONTINUOUS
 62
     7
 10
21080.178620251801
 20
20240.487175999991
 30
0.0
 40
160.0
  1
701
  0
TEXT
  5
12349
  8
0
  6
CONTINUOUS
 62
     7
 10
21769.678620251801
 20
20240.487175999991
 30
0.0
 40
160.0
  1
758
  0
TEXT
  5
1234A
  8
0
  6
CONTINUOUS
 62
     7
 10
22502.933881585119
 20
20240.487175999991
 30
0.0
 40
160.0
  1
42.5
  0
TEXT
  5
12357
  8
0
  6
CONTINUOUS
 62
     7
 10
8715.5249638099176
 20
12429.98546
 30
0.0
 40
160.0
  1
ケラバ外寸5538.5
  0
TEXT
  5
12358
  8
0
  6
CONTINUOUS
 62
     7
 10
6331.294486476595
 20
20240.485459999989
 30
0.0
 40
160.0
  1
85.5
  0
TEXT
  5
12359
  8
0
  6
CONTINUOUS
 62
     7
 10
7790.1916304765818
 20
20240.487175999991
 30
0.0
 40
160.0
  1
2567.5
  0
TEXT
  5
1235A
  8
0
  6
CONTINUOUS
 62
     7
 10
10607.274963809919
 20
20240.487175999991
 30
0.0
 40
160.0
  1
2800
  0
TEXT
  5
1235B
  8
0
  6
CONTINUOUS
 62
     7
 10
12420.28941847659
 20
20240.485459999989
 30
0.0
 40
160.0
  1
85.5
  0
TEXT
  5
1235C
  8
0
  6
CONTINUOUS
 62
     7
 10
6296.9415964765922
 20
19685.248313999989
 30
0.0
 40
160.0
  1
22
 50
90.0
  0
TEXT
  5
1235D
  8
0
  6
CONTINUOUS
 62
     7
 10
5896.9415304765917
 20
19618.967774389239
 30
0.0
 40
160.0
  1
222.5
 50
90.0
  0
TEXT
  5
1235E
  8
0
  6
CONTINUOUS
 62
     7
 10
5896.941530476588
 20
18321.509757731281
 30
0.0
 40
160.0
  1
1108.5
 50
90.0
  0
TEXT
  5
1235F
  8
0
  6
CONTINUOUS
 62
     7
 10
5896.941530476578
 20
12975.996623590579
 30
0.0
 40
160.0
  1
192.5
 50
90.0
  0
TEXT
  5
12360
  8
0
  6
CONTINUOUS
 62
     7
 10
5896.9418544765922
 20
17213.319585333331
 30
0.0
 40
160.0
  1
1459
 50
90.0
  0
TEXT
  5
12361
  8
0
  6
CONTINUOUS
 62
     7
 10
5896.9418544765886
 20
15754.31958533334
 30
0.0
 40
160.0
  1
1459
 50
90.0
  0
TEXT
  5
12362
  8
0
  6
CONTINUOUS
 62
     7
 10
5896.941854476594
 20
14295.31958533334
 30
0.0
 40
160.0
  1
1459
 50
90.0
  0
ARC
  5
12363
  8
0
  6
BYBLOCK
 62
     0
 10
5976.9418544765967
 20
15291.48625200001
 30
0.0
 40
15.0
 50
270.0
 51
90.0
  0
ARC
  5
12364
  8
0
  6
BYBLOCK
 62
     0
 10
5976.9418544765967
 20
15291.48625200001
 30
0.0
 40
15.0
 50
90.0
 51
270.0
  0
ARC
  5
12365
  8
0
  6
BYBLOCK
 62
     0
 10
5976.9418544765958
 20
13832.48625200001
 30
0.0
 40
15.0
 50
90.0
 51
270.0
  0
ARC
  5
12366
  8
0
  6
BYBLOCK
 62
     0
 10
5976.9418544765958
 20
13832.48625200001
 30
0.0
 40
15.0
 50
270.0
 51
90.0
  0
ARC
  5
12367
  8
0
  6
BYBLOCK
 62
     0
 10
5976.941854476594
 20
16750.486251999999
 30
0.0
 40
15.0
 50
270.0
 51
90.0
  0
ARC
  5
12368
  8
0
  6
BYBLOCK
 62
     0
 10
5976.941854476594
 20
16750.486251999999
 30
0.0
 40
15.0
 50
90.0
 51
270.0
  0
ARC
  5
12369
  8
0
  6
BYBLOCK
 62
     0
 10
5976.941854476594
 20
15291.48625200001
 30
0.0
 40
15.0
 50
90.0
 51
270.0
  0
ARC
  5
1236A
  8
0
  6
BYBLOCK
 62
     0
 10
5976.941854476594
 20
15291.48625200001
 30
0.0
 40
15.0
 50
270.0
 51
90.0
  0
ARC
  5
1236B
  8
0
  6
BYBLOCK
 62
     0
 10
5976.941854476594
 20
18209.48625200001
 30
0.0
 40
15.0
 50
270.0
 51
90.0
  0
ARC
  5
1236C
  8
0
  6
BYBLOCK
 62
     0
 10
5976.941854476594
 20
18209.48625200001
 30
0.0
 40
15.0
 50
90.0
 51
270.0
  0
ARC
  5
1236D
  8
0
  6
BYBLOCK
 62
     0
 10
5976.941854476594
 20
16750.486251999999
 30
0.0
 40
15.0
 50
90.0
 51
270.0
  0
ARC
  5
1236E
  8
0
  6
BYBLOCK
 62
     0
 10
5976.941854476594
 20
16750.486251999999
 30
0.0
 40
15.0
 50
270.0
 51
90.0
  0
ARC
  5
1236F
  8
0
  6
BYBLOCK
 62
     0
 10
5976.9415304765944
 20
13832.48552600002
 30
0.0
 40
15.0
 50
270.0
 51
90.0
  0
ARC
  5
12370
  8
0
  6
BYBLOCK
 62
     0
 10
5976.9415304765944
 20
13832.48552600002
 30
0.0
 40
15.0
 50
90.0
 51
270.0
  0
ARC
  5
12371
  8
0
  6
BYBLOCK
 62
     0
 10
5976.9415304765944
 20
13639.986252000001
 30
0.0
 40
15.0
 50
90.0
 51
270.0
  0
ARC
  5
12372
  8
0
  6
BYBLOCK
 62
     0
 10
5976.9415304765944
 20
13639.986252000001
 30
0.0
 40
15.0
 50
270.0
 51
90.0
  0
ARC
  5
12373
  8
0
  6
BYBLOCK
 62
     0
 10
5976.9415304765944
 20
19317.986251999992
 30
0.0
 40
15.0
 50
270.0
 51
90.0
  0
ARC
  5
12374
  8
0
  6
BYBLOCK
 62
     0
 10
5976.9415304765944
 20
19317.986251999992
 30
0.0
 40
15.0
 50
90.0
 51
270.0
  0
ARC
  5
12375
  8
0
  6
BYBLOCK
 62
     0
 10
5976.9415304765889
 20
18209.48625200001
 30
0.0
 40
15.0
 50
90.0
 51
270.0
  0
ARC
  5
12376
  8
0
  6
BYBLOCK
 62
     0
 10
5976.9415304765889
 20
18209.48625200001
 30
0.0
 40
15.0
 50
270.0
 51
90.0
  0
ARC
  5
12377
  8
0
  6
BYBLOCK
 62
     0
 10
5976.9415304765889
 20
19317.986251999992
 30
0.0
 40
15.0
 50
90.0
 51
270.0
  0
ARC
  5
12378
  8
0
  6
BYBLOCK
 62
     0
 10
5976.9415304765889
 20
19317.986251999992
 30
0.0
 40
15.0
 50
270.0
 51
90.0
  0
ARC
  5
12379
  8
0
  6
BYBLOCK
 62
     0
 10
5976.9415304765889
 20
19540.486120000001
 30
0.0
 40
15.0
 50
270.0
 51
90.0
  0
ARC
  5
1237A
  8
0
  6
BYBLOCK
 62
     0
 10
5976.9415304765889
 20
19540.486120000001
 30
0.0
 40
15.0
 50
90.0
 51
270.0
  0
ARC
  5
1237B
  8
0
  6
BYBLOCK
 62
     0
 10
6376.9408714765914
 20
19500.485987999989
 30
0.0
 40
15.0
 50
270.0
 51
90.0
  0
ARC
  5
1237C
  8
0
  6
BYBLOCK
 62
     0
 10
6376.9408714765914
 20
19500.485987999989
 30
0.0
 40
15.0
 50
90.0
 51
270.0
  0
ARC
  5
1237D
  8
0
  6
BYBLOCK
 62
     0
 10
6376.9408714765914
 20
19540.486120000001
 30
0.0
 40
15.0
 50
90.0
 51
270.0
  0
ARC
  5
1237E
  8
0
  6
BYBLOCK
 62
     0
 10
6376.9408714765914
 20
19540.486120000001
 30
0.0
 40
15.0
 50
270.0
 51
90.0
  0
ARC
  5
1237F
  8
0
  6
BYBLOCK
 62
     0
 10
12273.94163047658
 20
20160.487175999991
 30
0.0
 40
15.0
 50
180.0
 51
0.0
  0
ARC
  5
12380
  8
0
  6
BYBLOCK
 62
     0
 10
12273.94163047658
 20
20160.487175999991
 30
0.0
 40
15.0
 50
0.0
 51
180.0
  0
ARC
  5
12381
  8
0
  6
BYBLOCK
 62
     0
 10
12359.44163047658
 20
20160.487175999991
 30
0.0
 40
15.0
 50
0.0
 51
180.0
  0
ARC
  5
12382
  8
0
  6
BYBLOCK
 62
     0
 10
12359.44163047658
 20
20160.487175999991
 30
0.0
 40
15.0
 50
180.0
 51
0.0
  0
ARC
  5
12383
  8
0
  6
BYBLOCK
 62
     0
 10
9473.9416304765837
 20
20160.487175999991
 30
0.0
 40
15.0
 50
0.0
 51
180.0
  0
ARC
  5
12384
  8
0
  6
BYBLOCK
 62
     0
 10
9473.9416304765837
 20
20160.487175999991
 30
0.0
 40
15.0
 50
180.0
 51
0.0
  0
ARC
  5
12385
  8
0
  6
BYBLOCK
 62
     0
 10
12273.94163047658
 20
20160.487175999991
 30
0.0
 40
15.0
 50
180.0
 51
0.0
  0
ARC
  5
12386
  8
0
  6
BYBLOCK
 62
     0
 10
12273.94163047658
 20
20160.487175999991
 30
0.0
 40
15.0
 50
0.0
 51
180.0
  0
ARC
  5
12387
  8
0
  6
BYBLOCK
 62
     0
 10
6906.4416304765818
 20
20160.487175999991
 30
0.0
 40
15.0
 50
0.0
 51
180.0
  0
ARC
  5
12388
  8
0
  6
BYBLOCK
 62
     0
 10
6906.4416304765818
 20
20160.487175999991
 30
0.0
 40
15.0
 50
180.0
 51
0.0
  0
ARC
  5
12389
  8
0
  6
BYBLOCK
 62
     0
 10
9473.9416304765837
 20
20160.487175999991
 30
0.0
 40
15.0
 50
180.0
 51
0.0
  0
ARC
  5
1238A
  8
0
  6
BYBLOCK
 62
     0
 10
9473.9416304765837
 20
20160.487175999991
 30
0.0
 40
15.0
 50
0.0
 51
180.0
  0
ARC
  5
1238B
  8
0
  6
BYBLOCK
 62
     0
 10
6906.4416304765818
 20
20160.487175999991
 30
0.0
 40
15.0
 50
0.0
 51
180.0
  0
ARC
  5
1238C
  8
0
  6
BYBLOCK
 62
     0
 10
6906.4416304765818
 20
20160.487175999991
 30
0.0
 40
15.0
 50
180.0
 51
0.0
  0
ARC
  5
1238D
  8
0
  6
BYBLOCK
 62
     0
 10
6820.9416304765818
 20
20160.487175999991
 30
0.0
 40
15.0
 50
180.0
 51
0.0
  0
ARC
  5
1238E
  8
0
  6
BYBLOCK
 62
     0
 10
6820.9416304765818
 20
20160.487175999991
 30
0.0
 40
15.0
 50
0.0
 51
180.0
  0
ARC
  5
1238F
  8
0
  6
BYBLOCK
 62
     0
 10
6820.9416304765846
 20
12349.98546
 30
0.0
 40
15.0
 50
0.0
 51
180.0
  0
ARC
  5
12390
  8
0
  6
BYBLOCK
 62
     0
 10
6820.9416304765846
 20
12349.98546
 30
0.0
 40
15.0
 50
180.0
 51
0.0
  0
ARC
  5
12391
  8
0
  6
BYBLOCK
 62
     0
 10
12359.44163047658
 20
12349.98546
 30
0.0
 40
15.0
 50
180.0
 51
0.0
  0
ARC
  5
12392
  8
0
  6
BYBLOCK
 62
     0
 10
12359.44163047658
 20
12349.98546
 30
0.0
 40
15.0
 50
0.0
 51
180.0
  0
ARC
  5
123C3
  8
0
  6
BYBLOCK
 62
     0
 10
22362.011953585152
 20
20160.487175999991
 30
0.0
 40
15.0
 50
180.0
 51
0.0
  0
ARC
  5
123C4
  8
0
  6
BYBLOCK
 62
     0
 10
22362.011953585152
 20
20160.487175999991
 30
0.0
 40
15.0
 50
0.0
 51
180.0
  0
ARC
  5
123C5
  8
0
  6
BYBLOCK
 62
     0
 10
22404.511953585141
 20
20160.487175999991
 30
0.0
 40
15.0
 50
0.0
 51
180.0
  0
ARC
  5
123C6
  8
0
  6
BYBLOCK
 62
     0
 10
22404.511953585141
 20
20160.487175999991
 30
0.0
 40
15.0
 50
180.0
 51
0.0
  0
ARC
  5
123C7
  8
0
  6
BYBLOCK
 62
     0
 10
21604.011953585141
 20
20160.487175999991
 30
0.0
 40
15.0
 50
0.0
 51
180.0
  0
ARC
  5
123C8
  8
0
  6
BYBLOCK
 62
     0
 10
21604.011953585141
 20
20160.487175999991
 30
0.0
 40
15.0
 50
180.0
 51
0.0
  0
ARC
  5
123C9
  8
0
  6
BYBLOCK
 62
     0
 10
22362.011953585152
 20
20160.487175999991
 30
0.0
 40
15.0
 50
180.0
 51
0.0
  0
ARC
  5
123CA
  8
0
  6
BYBLOCK
 62
     0
 10
22362.011953585152
 20
20160.487175999991
 30
0.0
 40
15.0
 50
0.0
 51
180.0
  0
ARC
  5
123CB
  8
0
  6
BYBLOCK
 62
     0
 10
20903.01195358513
 20
20160.487175999991
 30
0.0
 40
15.0
 50
0.0
 51
180.0
  0
ARC
  5
123CC
  8
0
  6
BYBLOCK
 62
     0
 10
20903.01195358513
 20
20160.487175999991
 30
0.0
 40
15.0
 50
180.0
 51
0.0
  0
ARC
  5
123CD
  8
0
  6
BYBLOCK
 62
     0
 10
21604.011953585141
 20
20160.487175999991
 30
0.0
 40
15.0
 50
180.0
 51
0.0
  0
ARC
  5
123CE
  8
0
  6
BYBLOCK
 62
     0
 10
21604.011953585141
 20
20160.487175999991
 30
0.0
 40
15.0
 50
0.0
 51
180.0
  0
ARC
  5
123CF
  8
0
  6
BYBLOCK
 62
     0
 10
20202.011953585141
 20
20160.487175999991
 30
0.0
 40
15.0
 50
0.0
 51
180.0
  0
ARC
  5
123D0
  8
0
  6
BYBLOCK
 62
     0
 10
20202.011953585141
 20
20160.487175999991
 30
0.0
 40
15.0
 50
180.0
 51
0.0
  0
ARC
  5
123D1
  8
0
  6
BYBLOCK
 62
     0
 10
20903.01195358513
 20
20160.487175999991
 30
0.0
 40
15.0
 50
180.0
 51
0.0
  0
ARC
  5
123D2
  8
0
  6
BYBLOCK
 62
     0
 10
20903.01195358513
 20
20160.487175999991
 30
0.0
 40
15.0
 50
0.0
 51
180.0
  0
ARC
  5
123D3
  8
0
  6
BYBLOCK
 62
     0
 10
19794.511953585141
 20
20160.487175999991
 30
0.0
 40
15.0
 50
0.0
 51
180.0
  0
ARC
  5
123D4
  8
0
  6
BYBLOCK
 62
     0
 10
19794.511953585141
 20
20160.487175999991
 30
0.0
 40
15.0
 50
180.0
 51
0.0
  0
ARC
  5
123D5
  8
0
  6
BYBLOCK
 62
     0
 10
20202.011953585141
 20
20160.487175999991
 30
0.0
 40
15.0
 50
180.0
 51
0.0
  0
ARC
  5
123D6
  8
0
  6
BYBLOCK
 62
     0
 10
20202.011953585141
 20
20160.487175999991
 30
0.0
 40
15.0
 50
0.0
 51
180.0
  0
ARC
  5
123D7
  8
0
  6
BYBLOCK
 62
     0
 10
19794.511953585141
 20
20160.487175999991
 30
0.0
 40
15.0
 50
0.0
 51
180.0
  0
ARC
  5
123D8
  8
0
  6
BYBLOCK
 62
     0
 10
19794.511953585141
 20
20160.487175999991
 30
0.0
 40
15.0
 50
180.0
 51
0.0
  0
ARC
  5
123D9
  8
0
  6
BYBLOCK
 62
     0
 10
19752.011953585141
 20
20160.487175999991
 30
0.0
 40
15.0
 50
180.0
 51
0.0
  0
ARC
  5
123DA
  8
0
  6
BYBLOCK
 62
     0
 10
19752.011953585141
 20
20160.487175999991
 30
0.0
 40
15.0
 50
0.0
 51
180.0
  0
ARC
  5
123E7
  8
0
  6
BYBLOCK
 62
     0
 10
22362.011953585152
 20
20560.487175999991
 30
0.0
 40
15.0
 50
0.0
 51
180.0
  0
ARC
  5
123E8
  8
0
  6
BYBLOCK
 62
     0
 10
22362.011953585152
 20
20560.487175999991
 30
0.0
 40
15.0
 50
180.0
 51
0.0
  0
ARC
  5
123E9
  8
0
  6
BYBLOCK
 62
     0
 10
25162.011953585141
 20
20560.487175999991
 30
0.0
 40
15.0
 50
180.0
 51
0.0
  0
ARC
  5
123EA
  8
0
  6
BYBLOCK
 62
     0
 10
25162.011953585141
 20
20560.487175999991
 30
0.0
 40
15.0
 50
0.0
 51
180.0
  0
ARC
  5
123EB
  8
0
  6
BYBLOCK
 62
     0
 10
19794.511953585141
 20
20560.487175999991
 30
0.0
 40
15.0
 50
0.0
 51
180.0
  0
ARC
  5
123EC
  8
0
  6
BYBLOCK
 62
     0
 10
19794.511953585141
 20
20560.487175999991
 30
0.0
 40
15.0
 50
180.0
 51
0.0
  0
ARC
  5
123ED
  8
0
  6
BYBLOCK
 62
     0
 10
22362.011953585152
 20
20560.487175999991
 30
0.0
 40
15.0
 50
180.0
 51
0.0
  0
ARC
  5
123EE
  8
0
  6
BYBLOCK
 62
     0
 10
22362.011953585152
 20
20560.487175999991
 30
0.0
 40
15.0
 50
0.0
 51
180.0
  0
ARC
  5
123EF
  8
0
  6
BYBLOCK
 62
     0
 10
25162.011953585141
 20
20160.487175999991
 30
0.0
 40
15.0
 50
0.0
 51
180.0
  0
ARC
  5
123F0
  8
0
  6
BYBLOCK
 62
     0
 10
25162.011953585141
 20
20160.487175999991
 30
0.0
 40
15.0
 50
180.0
 51
0.0
  0
ARC
  5
123F1
  8
0
  6
BYBLOCK
 62
     0
 10
25119.509710585138
 20
20160.487175999991
 30
0.0
 40
15.0
 50
180.0
 51
0.0
  0
ARC
  5
123F2
  8
0
  6
BYBLOCK
 62
     0
 10
25119.509710585138
 20
20160.487175999991
 30
0.0
 40
15.0
 50
0.0
 51
180.0
  0
ARC
  5
123F3
  8
0
  6
BYBLOCK
 62
     0
 10
25162.011953585141
 20
20160.487175999991
 30
0.0
 40
15.0
 50
180.0
 51
0.0
  0
ARC
  5
123F4
  8
0
  6
BYBLOCK
 62
     0
 10
25162.011953585141
 20
20160.487175999991
 30
0.0
 40
15.0
 50
0.0
 51
180.0
  0
ARC
  5
123F5
  8
0
  6
BYBLOCK
 62
     0
 10
25204.510238585131
 20
20160.487175999991
 30
0.0
 40
15.0
 50
0.0
 51
180.0
  0
ARC
  5
123F6
  8
0
  6
BYBLOCK
 62
     0
 10
25204.510238585131
 20
20160.487175999991
 30
0.0
 40
15.0
 50
180.0
 51
0.0
  0
ARC
  5
123F7
  8
0
  6
BYBLOCK
 62
     0
 10
26379.855577953771
 20
16750.486251999992
 30
0.0
 40
15.0
 50
90.0
 51
270.0
  0
ARC
  5
123F8
  8
0
  6
BYBLOCK
 62
     0
 10
26379.855577953771
 20
16750.486251999992
 30
0.0
 40
15.0
 50
270.0
 51
90.0
  0
ARC
  5
123F9
  8
0
  6
BYBLOCK
 62
     0
 10
26379.855577953771
 20
19317.986251999992
 30
0.0
 40
15.0
 50
270.0
 51
90.0
  0
ARC
  5
123FA
  8
0
  6
BYBLOCK
 62
     0
 10
26379.855577953771
 20
19317.986251999992
 30
0.0
 40
15.0
 50
90.0
 51
270.0
  0
ARC
  5
123FB
  8
0
  6
BYBLOCK
 62
     0
 10
26379.855577953771
 20
13832.48625200001
 30
0.0
 40
15.0
 50
90.0
 51
270.0
  0
ARC
  5
123FC
  8
0
  6
BYBLOCK
 62
     0
 10
26379.855577953771
 20
13832.48625200001
 30
0.0
 40
15.0
 50
270.0
 51
90.0
  0
ARC
  5
123FD
  8
0
  6
BYBLOCK
 62
     0
 10
26379.855577953771
 20
16750.486251999992
 30
0.0
 40
15.0
 50
270.0
 51
90.0
  0
ARC
  5
123FE
  8
0
  6
BYBLOCK
 62
     0
 10
26379.855577953771
 20
16750.486251999992
 30
0.0
 40
15.0
 50
90.0
 51
270.0
  0
ARC
  5
12413
  8
0
  6
BYBLOCK
 62
     0
 10
6326.233570470944
 20
9789.1883999999955
 30
0.0
 40
15.0
 50
0.0
 51
180.0
  0
ARC
  5
12414
  8
0
  6
BYBLOCK
 62
     0
 10
6326.233570470944
 20
9789.1883999999955
 30
0.0
 40
15.0
 50
180.0
 51
0.0
  0
ARC
  5
12415
  8
0
  6
BYBLOCK
 62
     0
 10
12226.73357047094
 20
9789.1883999999955
 30
0.0
 40
15.0
 50
180.0
 51
0.0
  0
ARC
  5
12416
  8
0
  6
BYBLOCK
 62
     0
 10
12226.73357047094
 20
9789.1883999999955
 30
0.0
 40
15.0
 50
0.0
 51
180.0
  0
ARC
  5
12417
  8
0
  6
BYBLOCK
 62
     0
 10
12076.73357047094
 20
9389.1900500000029
 30
0.0
 40
15.0
 50
180.0
 51
0.0
  0
ARC
  5
12418
  8
0
  6
BYBLOCK
 62
     0
 10
12076.73357047094
 20
9389.1900500000029
 30
0.0
 40
15.0
 50
0.0
 51
180.0
  0
ARC
  5
12419
  8
0
  6
BYBLOCK
 62
     0
 10
12226.73357047094
 20
9389.1900500000029
 30
0.0
 40
15.0
 50
0.0
 51
180.0
  0
ARC
  5
1241A
  8
0
  6
BYBLOCK
 62
     0
 10
12226.73357047094
 20
9389.1900500000029
 30
0.0
 40
15.0
 50
180.0
 51
0.0
  0
ARC
  5
1241B
  8
0
  6
BYBLOCK
 62
     0
 10
6506.233570470944
 20
9389.1900500000029
 30
0.0
 40
15.0
 50
0.0
 51
180.0
  0
ARC
  5
1241C
  8
0
  6
BYBLOCK
 62
     0
 10
6506.233570470944
 20
9389.1900500000029
 30
0.0
 40
15.0
 50
180.0
 51
0.0
  0
ARC
  5
1241D
  8
0
  6
BYBLOCK
 62
     0
 10
12076.73357047094
 20
9389.1900500000029
 30
0.0
 40
15.0
 50
180.0
 51
0.0
  0
ARC
  5
1241E
  8
0
  6
BYBLOCK
 62
     0
 10
12076.73357047094
 20
9389.1900500000029
 30
0.0
 40
15.0
 50
0.0
 51
180.0
  0
ARC
  5
1241F
  8
0
  6
BYBLOCK
 62
     0
 10
6326.233570470944
 20
9389.1900500000029
 30
0.0
 40
15.0
 50
0.0
 51
180.0
  0
ARC
  5
12420
  8
0
  6
BYBLOCK
 62
     0
 10
6326.233570470944
 20
9389.1900500000029
 30
0.0
 40
15.0
 50
180.0
 51
0.0
  0
ARC
  5
12421
  8
0
  6
BYBLOCK
 62
     0
 10
6506.233570470944
 20
9389.1900500000029
 30
0.0
 40
15.0
 50
180.0
 51
0.0
  0
ARC
  5
12422
  8
0
  6
BYBLOCK
 62
     0
 10
6506.233570470944
 20
9389.1900500000029
 30
0.0
 40
15.0
 50
0.0
 51
180.0
  0
ARC
  5
12423
  8
0
  6
BYBLOCK
 62
     0
 10
13166.73396647094
 20
6241.1883740000021
 30
0.0
 40
15.0
 50
90.0
 51
270.0
  0
ARC
  5
12424
  8
0
  6
BYBLOCK
 62
     0
 10
13166.73396647094
 20
6241.1883740000021
 30
0.0
 40
15.0
 50
270.0
 51
90.0
  0
ARC
  5
12425
  8
0
  6
BYBLOCK
 62
     0
 10
13166.73396647094
 20
8589.688374000003
 30
0.0
 40
15.0
 50
270.0
 51
90.0
  0
ARC
  5
12426
  8
0
  6
BYBLOCK
 62
     0
 10
13166.73396647094
 20
8589.688374000003
 30
0.0
 40
15.0
 50
90.0
 51
270.0
  0
ARC
  5
12427
  8
0
  6
BYBLOCK
 62
     0
 10
5416.2331744709481
 20
6241.1883740000039
 30
0.0
 40
15.0
 50
90.0
 51
270.0
  0
ARC
  5
12428
  8
0
  6
BYBLOCK
 62
     0
 10
5416.2331744709481
 20
6241.1883740000039
 30
0.0
 40
15.0
 50
270.0
 51
90.0
  0
ARC
  5
12429
  8
0
  6
BYBLOCK
 62
     0
 10
5416.2331744709481
 20
8397.1883740000048
 30
0.0
 40
15.0
 50
270.0
 51
90.0
  0
ARC
  5
1242A
  8
0
  6
BYBLOCK
 62
     0
 10
5416.2331744709481
 20
8397.1883740000048
 30
0.0
 40
15.0
 50
90.0
 51
270.0
  0
ARC
  5
1242B
  8
0
  6
BYBLOCK
 62
     0
 10
6506.233570470944
 20
4541.1887039999983
 30
0.0
 40
15.0
 50
0.0
 51
180.0
  0
ARC
  5
1242C
  8
0
  6
BYBLOCK
 62
     0
 10
6506.233570470944
 20
4541.1887039999983
 30
0.0
 40
15.0
 50
180.0
 51
0.0
  0
ARC
  5
1242D
  8
0
  6
BYBLOCK
 62
     0
 10
12076.73357047094
 20
4541.1887039999983
 30
0.0
 40
15.0
 50
180.0
 51
0.0
  0
ARC
  5
1242E
  8
0
  6
BYBLOCK
 62
     0
 10
12076.73357047094
 20
4541.1887039999983
 30
0.0
 40
15.0
 50
0.0
 51
180.0
  0
ARC
  5
1242F
  8
0
  6
BYBLOCK
 62
     0
 10
12034.23357047094
 20
4941.1885390000016
 30
0.0
 40
15.0
 50
180.0
 51
0.0
  0
ARC
  5
12430
  8
0
  6
BYBLOCK
 62
     0
 10
12034.23357047094
 20
4941.1885390000016
 30
0.0
 40
15.0
 50
0.0
 51
180.0
  0
ARC
  5
12431
  8
0
  6
BYBLOCK
 62
     0
 10
12076.73357047094
 20
4941.1885390000016
 30
0.0
 40
15.0
 50
0.0
 51
180.0
  0
ARC
  5
12432
  8
0
  6
BYBLOCK
 62
     0
 10
12076.73357047094
 20
4941.1885390000016
 30
0.0
 40
15.0
 50
180.0
 51
0.0
  0
ARC
  5
12433
  8
0
  6
BYBLOCK
 62
     0
 10
6548.7335704709431
 20
4941.1885390000016
 30
0.0
 40
15.0
 50
0.0
 51
180.0
  0
ARC
  5
12434
  8
0
  6
BYBLOCK
 62
     0
 10
6548.7335704709431
 20
4941.1885390000016
 30
0.0
 40
15.0
 50
180.0
 51
0.0
  0
ARC
  5
12435
  8
0
  6
BYBLOCK
 62
     0
 10
6506.233570470944
 20
4941.1885390000016
 30
0.0
 40
15.0
 50
180.0
 51
0.0
  0
ARC
  5
12436
  8
0
  6
BYBLOCK
 62
     0
 10
6506.233570470944
 20
4941.1885390000016
 30
0.0
 40
15.0
 50
0.0
 51
180.0
  0
ARC
  5
12437
  8
0
  6
BYBLOCK
 62
     0
 10
9116.233570470944
 20
4941.1885390000016
 30
0.0
 40
15.0
 50
180.0
 51
0.0
  0
ARC
  5
12438
  8
0
  6
BYBLOCK
 62
     0
 10
9116.233570470944
 20
4941.1885390000016
 30
0.0
 40
15.0
 50
0.0
 51
180.0
  0
ARC
  5
12439
  8
0
  6
BYBLOCK
 62
     0
 10
6548.7335704709431
 20
4941.1885390000016
 30
0.0
 40
15.0
 50
0.0
 51
180.0
  0
ARC
  5
1243A
  8
0
  6
BYBLOCK
 62
     0
 10
6548.7335704709431
 20
4941.1885390000016
 30
0.0
 40
15.0
 50
180.0
 51
0.0
  0
ARC
  5
1243B
  8
0
  6
BYBLOCK
 62
     0
 10
9116.233570470944
 20
4941.1885390000016
 30
0.0
 40
15.0
 50
0.0
 51
180.0
  0
ARC
  5
1243C
  8
0
  6
BYBLOCK
 62
     0
 10
9116.233570470944
 20
4941.1885390000016
 30
0.0
 40
15.0
 50
180.0
 51
0.0
  0
ARC
  5
1243D
  8
0
  6
BYBLOCK
 62
     0
 10
12034.23357047094
 20
4941.1885390000016
 30
0.0
 40
15.0
 50
180.0
 51
0.0
  0
ARC
  5
1243E
  8
0
  6
BYBLOCK
 62
     0
 10
12034.23357047094
 20
4941.1885390000016
 30
0.0
 40
15.0
 50
0.0
 51
180.0
  0
ARC
  5
1243F
  8
0
  6
BYBLOCK
 62
     0
 10
19688.010092585158
 20
9789.1329740000037
 30
0.0
 40
15.0
 50
0.0
 51
180.0
  0
ARC
  5
12440
  8
0
  6
BYBLOCK
 62
     0
 10
19688.010092585158
 20
9789.1329740000037
 30
0.0
 40
15.0
 50
180.0
 51
0.0
  0
ARC
  5
12441
  8
0
  6
BYBLOCK
 62
     0
 10
25226.510092585158
 20
9789.1329740000037
 30
0.0
 40
15.0
 50
180.0
 51
0.0
  0
ARC
  5
12442
  8
0
  6
BYBLOCK
 62
     0
 10
25226.510092585158
 20
9789.1329740000037
 30
0.0
 40
15.0
 50
0.0
 51
180.0
  0
ARC
  5
12443
  8
0
  6
BYBLOCK
 62
     0
 10
25183.510092585158
 20
9389.1900500000029
 30
0.0
 40
15.0
 50
180.0
 51
0.0
  0
ARC
  5
12444
  8
0
  6
BYBLOCK
 62
     0
 10
25183.510092585158
 20
9389.1900500000029
 30
0.0
 40
15.0
 50
0.0
 51
180.0
  0
ARC
  5
12445
  8
0
  6
BYBLOCK
 62
     0
 10
25226.510092585158
 20
9389.1900500000029
 30
0.0
 40
15.0
 50
0.0
 51
180.0
  0
ARC
  5
12446
  8
0
  6
BYBLOCK
 62
     0
 10
25226.510092585158
 20
9389.1900500000029
 30
0.0
 40
15.0
 50
180.0
 51
0.0
  0
ARC
  5
12447
  8
0
  6
BYBLOCK
 62
     0
 10
19731.010092585158
 20
9389.1900500000029
 30
0.0
 40
15.0
 50
0.0
 51
180.0
  0
ARC
  5
12448
  8
0
  6
BYBLOCK
 62
     0
 10
19731.010092585158
 20
9389.1900500000029
 30
0.0
 40
15.0
 50
180.0
 51
0.0
  0
ARC
  5
12449
  8
0
  6
BYBLOCK
 62
     0
 10
19688.010092585158
 20
9389.1900500000029
 30
0.0
 40
15.0
 50
180.0
 51
0.0
  0
ARC
  5
1244A
  8
0
  6
BYBLOCK
 62
     0
 10
19688.010092585158
 20
9389.1900500000029
 30
0.0
 40
15.0
 50
0.0
 51
180.0
  0
ARC
  5
1244B
  8
0
  6
BYBLOCK
 62
     0
 10
22383.510092585158
 20
9389.1900500000029
 30
0.0
 40
15.0
 50
180.0
 51
0.0
  0
ARC
  5
1244C
  8
0
  6
BYBLOCK
 62
     0
 10
22383.510092585158
 20
9389.1900500000029
 30
0.0
 40
15.0
 50
0.0
 51
180.0
  0
ARC
  5
1244D
  8
0
  6
BYBLOCK
 62
     0
 10
19731.010092585158
 20
9389.1900500000029
 30
0.0
 40
15.0
 50
0.0
 51
180.0
  0
ARC
  5
1244E
  8
0
  6
BYBLOCK
 62
     0
 10
19731.010092585158
 20
9389.1900500000029
 30
0.0
 40
15.0
 50
180.0
 51
0.0
  0
ARC
  5
1244F
  8
0
  6
BYBLOCK
 62
     0
 10
18523.50745358516
 20
6241.1883740000021
 30
0.0
 40
15.0
 50
90.0
 51
270.0
  0
ARC
  5
12450
  8
0
  6
BYBLOCK
 62
     0
 10
18523.50745358516
 20
6241.1883740000021
 30
0.0
 40
15.0
 50
270.0
 51
90.0
  0
ARC
  5
12451
  8
0
  6
BYBLOCK
 62
     0
 10
18523.50745358516
 20
8589.6883999999973
 30
0.0
 40
15.0
 50
270.0
 51
90.0
  0
ARC
  5
12452
  8
0
  6
BYBLOCK
 62
     0
 10
18523.50745358516
 20
8589.6883999999973
 30
0.0
 40
15.0
 50
90.0
 51
270.0
  0
ARC
  5
12453
  8
0
  6
BYBLOCK
 62
     0
 10
18923.506793585158
 20
6241.1883740000021
 30
0.0
 40
15.0
 50
90.0
 51
270.0
  0
ARC
  5
12454
  8
0
  6
BYBLOCK
 62
     0
 10
18923.506793585158
 20
6241.1883740000021
 30
0.0
 40
15.0
 50
270.0
 51
90.0
  0
ARC
  5
12455
  8
0
  6
BYBLOCK
 62
     0
 10
18923.506793585158
 20
8132.6883740000021
 30
0.0
 40
15.0
 50
270.0
 51
90.0
  0
ARC
  5
12456
  8
0
  6
BYBLOCK
 62
     0
 10
18923.506793585158
 20
8132.6883740000021
 30
0.0
 40
15.0
 50
90.0
 51
270.0
  0
ARC
  5
12457
  8
0
  6
BYBLOCK
 62
     0
 10
22386.510092585158
 20
5341.188374000003
 30
0.0
 40
15.0
 50
0.0
 51
180.0
  0
ARC
  5
12458
  8
0
  6
BYBLOCK
 62
     0
 10
22386.510092585158
 20
5341.188374000003
 30
0.0
 40
15.0
 50
180.0
 51
0.0
  0
ARC
  5
12459
  8
0
  6
BYBLOCK
 62
     0
 10
25098.510092585158
 20
5341.188374000003
 30
0.0
 40
15.0
 50
180.0
 51
0.0
  0
ARC
  5
1245A
  8
0
  6
BYBLOCK
 62
     0
 10
25098.510092585158
 20
5341.188374000003
 30
0.0
 40
15.0
 50
0.0
 51
180.0
  0
ARC
  5
1245B
  8
0
  6
BYBLOCK
 62
     0
 10
19731.05004553268
 20
4541.1887040000556
 30
0.0
 40
15.0
 50
0.0
 51
180.0
  0
ARC
  5
1245C
  8
0
  6
BYBLOCK
 62
     0
 10
19731.05004553268
 20
4541.1887040000556
 30
0.0
 40
15.0
 50
180.0
 51
0.0
  0
ARC
  5
1245D
  8
0
  6
BYBLOCK
 62
     0
 10
25183.510092585158
 20
4541.1887040000556
 30
0.0
 40
15.0
 50
180.0
 51
0.0
  0
ARC
  5
1245E
  8
0
  6
BYBLOCK
 62
     0
 10
25183.510092585158
 20
4541.1887040000556
 30
0.0
 40
15.0
 50
0.0
 51
180.0
  0
ARC
  5
1245F
  8
0
  6
BYBLOCK
 62
     0
 10
19773.510092585158
 20
4941.1885390000016
 30
0.0
 40
15.0
 50
0.0
 51
180.0
  0
ARC
  5
12460
  8
0
  6
BYBLOCK
 62
     0
 10
19773.510092585158
 20
4941.1885390000016
 30
0.0
 40
15.0
 50
180.0
 51
0.0
  0
ARC
  5
12461
  8
0
  6
BYBLOCK
 62
     0
 10
19731.05004553268
 20
4941.1885390000016
 30
0.0
 40
15.0
 50
180.0
 51
0.0
  0
ARC
  5
12462
  8
0
  6
BYBLOCK
 62
     0
 10
19731.05004553268
 20
4941.1885390000016
 30
0.0
 40
15.0
 50
0.0
 51
180.0
  0
ARC
  5
12463
  8
0
  6
BYBLOCK
 62
     0
 10
22341.010092585158
 20
4941.1885390000016
 30
0.0
 40
15.0
 50
180.0
 51
0.0
  0
ARC
  5
12464
  8
0
  6
BYBLOCK
 62
     0
 10
22341.010092585158
 20
4941.1885390000016
 30
0.0
 40
15.0
 50
0.0
 51
180.0
  0
ARC
  5
12465
  8
0
  6
BYBLOCK
 62
     0
 10
19773.510092585158
 20
4941.1885390000016
 30
0.0
 40
15.0
 50
0.0
 51
180.0
  0
ARC
  5
12466
  8
0
  6
BYBLOCK
 62
     0
 10
19773.510092585158
 20
4941.1885390000016
 30
0.0
 40
15.0
 50
180.0
 51
0.0
  0
ARC
  5
12467
  8
0
  6
BYBLOCK
 62
     0
 10
19867.510092585158
 20
5341.188374000003
 30
0.0
 40
15.0
 50
0.0
 51
180.0
  0
ARC
  5
12468
  8
0
  6
BYBLOCK
 62
     0
 10
19867.510092585158
 20
5341.188374000003
 30
0.0
 40
15.0
 50
180.0
 51
0.0
  0
ARC
  5
12469
  8
0
  6
BYBLOCK
 62
     0
 10
22247.010092585158
 20
5341.188374000003
 30
0.0
 40
15.0
 50
180.0
 51
0.0
  0
ARC
  5
1246A
  8
0
  6
BYBLOCK
 62
     0
 10
22247.010092585158
 20
5341.188374000003
 30
0.0
 40
15.0
 50
0.0
 51
180.0
  0
ARC
  5
1246B
  8
0
  6
BYBLOCK
 62
     0
 10
25141.010092585158
 20
4941.1885390000016
 30
0.0
 40
15.0
 50
180.0
 51
0.0
  0
ARC
  5
1246C
  8
0
  6
BYBLOCK
 62
     0
 10
25141.010092585158
 20
4941.1885390000016
 30
0.0
 40
15.0
 50
0.0
 51
180.0
  0
ARC
  5
1246D
  8
0
  6
BYBLOCK
 62
     0
 10
25183.510092585158
 20
4941.1885390000016
 30
0.0
 40
15.0
 50
0.0
 51
180.0
  0
ARC
  5
1246E
  8
0
  6
BYBLOCK
 62
     0
 10
25183.510092585158
 20
4941.1885390000016
 30
0.0
 40
15.0
 50
180.0
 51
0.0
  0
ARC
  5
1246F
  8
0
  6
BYBLOCK
 62
     0
 10
22341.010092585158
 20
4941.1885390000016
 30
0.0
 40
15.0
 50
0.0
 51
180.0
  0
ARC
  5
12470
  8
0
  6
BYBLOCK
 62
     0
 10
22341.010092585158
 20
4941.1885390000016
 30
0.0
 40
15.0
 50
180.0
 51
0.0
  0
ARC
  5
12471
  8
0
  6
BYBLOCK
 62
     0
 10
25141.010092585158
 20
4941.1885390000016
 30
0.0
 40
15.0
 50
180.0
 51
0.0
  0
ARC
  5
12472
  8
0
  6
BYBLOCK
 62
     0
 10
25141.010092585158
 20
4941.1885390000016
 30
0.0
 40
15.0
 50
0.0
 51
180.0
  0
ARC
  5
12473
  8
0
  6
BYBLOCK
 62
     0
 10
22383.510092585158
 20
9389.1900500000029
 30
0.0
 40
15.0
 50
0.0
 51
180.0
  0
ARC
  5
12474
  8
0
  6
BYBLOCK
 62
     0
 10
22383.510092585158
 20
9389.1900500000029
 30
0.0
 40
15.0
 50
180.0
 51
0.0
  0
ARC
  5
12475
  8
0
  6
BYBLOCK
 62
     0
 10
25183.510092585158
 20
9389.1900500000029
 30
0.0
 40
15.0
 50
180.0
 51
0.0
  0
ARC
  5
12476
  8
0
  6
BYBLOCK
 62
     0
 10
25183.510092585158
 20
9389.1900500000029
 30
0.0
 40
15.0
 50
0.0
 51
180.0
  0
ARC
  5
12477
  8
0
  6
BYBLOCK
 62
     0
 10
26268.33249087954
 20
6241.1883740000021
 30
0.0
 40
15.0
 50
90.0
 51
270.0
  0
ARC
  5
12478
  8
0
  6
BYBLOCK
 62
     0
 10
26268.33249087954
 20
6241.1883740000021
 30
0.0
 40
15.0
 50
270.0
 51
90.0
  0
ARC
  5
12479
  8
0
  6
BYBLOCK
 62
     0
 10
26268.332490879551
 20
8261.1883740000048
 30
0.0
 40
15.0
 50
270.0
 51
90.0
  0
ARC
  5
1247A
  8
0
  6
BYBLOCK
 62
     0
 10
26268.332490879551
 20
8261.1883740000048
 30
0.0
 40
15.0
 50
90.0
 51
270.0
  0
TEXT
  5
12550
  8
NAME
 10
21595.82616625919
 20
1076.6369801169251
 30
0.0
 40
360.0
  1
VGCU-2655（H）+VKCU-2855（H）型-R（単棟）
 41
0.4200000000000001
  0
TEXT
  5
12552
  8
NAME
 10
21933.552716389011
 20
1876.0
 30
0.0
 40
360.0
  1
ヨドガレージ ラヴィージュ
 41
0.75
  7
01
  0
LINE
  5
12553
  8
NAME
  6
CONTINUOUS
 10
26067.886878884299
 20
2236.0
 30
0.0
 11
26067.886878884299
 21
1876.0
 31
0.0
  0
LINE
  5
12554
  8
NAME
  6
CONTINUOUS
 10
26167.886878884299
 20
2236.0
 30
0.0
 11
26167.886878884299
 21
1876.0
 31
0.0
  0
LINE
  5
12555
  8
NAME
  6
CONTINUOUS
 10
26267.88687888431
 20
2236.0
 30
0.0
 11
26267.88687888431
 21
1876.0
 31
0.0
  0
LINE
  5
12556
  8
NAME
  6
CONTINUOUS
 10
26007.886878884299
 20
2236.0
 30
0.0
 11
26327.886878884299
 21
2236.0
 31
0.0
  0
LINE
  5
12557
  8
NAME
  6
CONTINUOUS
 10
26327.886878884299
 20
1876.0
 30
0.0
 11
26007.886878884299
 21
1876.0
 31
0.0
  0
LINE
  5
12A78
  8
2-0
  6
CENTER2
 62
     6
 10
22362.011953585141
 20
20960.488495000009
 30
0.0
 11
22362.011953585141
 21
13474.73237353158
 31
0.0
  0
LINE
  5
12A7B
  8
2-0
  6
CENTER2
 62
     6
 10
19794.511953585141
 20
20960.488495000009
 30
0.0
 11
19794.511953585141
 21
13474.73237353158
 31
0.0
  0
LINE
  5
12D09
  8
2-0
  6
CONTINUOUS
 62
     6
 10
21477.670869585141
 20
13192.48513000001
 30
0.0
 11
20477.677467585188
 21
13192.48513000001
 31
0.0
  0
LINE
  5
12D0A
  8
2-0
  6
CONTINUOUS
 62
     6
 10
20009.737090585139
 20
13662.90584400001
 30
0.0
 11
20477.677467585188
 21
13192.48513000001
 31
0.0
  0
LINE
  5
12D0B
  8
2-0
  6
CONTINUOUS
 62
     6
 10
21460.95977358516
 20
17871.605195000011
 30
0.0
 11
20442.984425585149
 21
17871.605195000011
 31
0.0
  0
LINE
  5
12D0C
  8
2-0
  6
CONTINUOUS
 62
     6
 10
19986.55890758516
 20
18096.320144000001
 30
0.0
 11
20442.984425585149
 21
17871.605195000011
 31
0.0
  0
LINE
  5
12D0D
  8
2-0
  6
CONTINUOUS
 62
     6
 10
20048.377293585159
 20
16854.51349100002
 30
0.0
 11
20353.072711585151
 21
16958.167022000031
 31
0.0
  0
LINE
  5
12D0E
  8
2-0
  6
CONTINUOUS
 62
     6
 10
19893.355254585171
 20
16364.891447000031
 30
0.0
 11
20353.072711585151
 21
16120.978136000011
 31
0.0
  0
LINE
  5
12D0F
  8
2-0
  6
CONTINUOUS
 62
     6
 10
21273.07574658516
 20
16120.978136000011
 30
0.0
 11
20353.072711585151
 21
16120.978136000011
 31
0.0
  0
LINE
  5
12D10
  8
2-0
  6
CONTINUOUS
 62
     6
 10
21553.066773585149
 20
16958.167022000031
 30
0.0
 11
20353.072711585151
 21
16958.167022000031
 31
0.0
  0
LINE
  5
12D11
  8
2-0
  6
CONTINUOUS
 62
     6
 10
19977.177969585151
 20
13984.58949
 30
0.0
 11
20353.072711585151
 21
14165.533325000009
 31
0.0
  0
LINE
  5
12D12
  8
2-0
  6
CONTINUOUS
 62
     6
 10
21460.95977358516
 20
14953.842737000021
 30
0.0
 11
20442.984425585149
 21
14953.842737000021
 31
0.0
  0
LINE
  5
12D13
  8
2-0
  6
CONTINUOUS
 62
     6
 10
20873.07442758515
 20
14165.533325000009
 30
0.0
 11
20353.072711585151
 21
14165.533325000009
 31
0.0
  0
LINE
  5
12D14
  8
2-0
  6
CONTINUOUS
 62
     6
 10
19986.55890758516
 20
15178.55570700003
 30
0.0
 11
20442.984425585149
 21
14953.842737000021
 31
0.0
  0
LINE
  5
12D15
  8
2-0
  6
CONTINUOUS
 62
     3
 10
22374.512613585139
 20
19251.48432600002
 30
0.0
 11
22374.512613585139
 21
19245.488364000019
 31
0.0
  0
LINE
  5
12D16
  8
2-0
  6
CONTINUOUS
 62
     3
 10
22374.512613585139
 20
19245.488364000019
 30
0.0
 11
22404.510237585131
 21
19245.488364000019
 31
0.0
  0
LINE
  5
12D17
  8
2-0
  6
CONTINUOUS
 62
     3
 10
22404.510237585131
 20
19275.487968000001
 30
0.0
 11
22323.508337585132
 21
19275.487968000001
 31
0.0
  0
LINE
  5
12D18
  8
2-0
  6
CONTINUOUS
 62
     3
 10
22374.512613585139
 20
19235.190908000011
 30
0.0
 11
22404.510237585131
 21
19235.190908000011
 31
0.0
  0
LINE
  5
12D19
  8
2-0
  6
CONTINUOUS
 62
     3
 10
22374.512613585139
 20
19253.19265000003
 30
0.0
 11
22374.512613585139
 21
19235.190908000011
 31
0.0
  0
LINE
  5
12D1A
  8
2-0
  6
CONTINUOUS
 62
     3
 10
22399.50997358514
 20
19253.19265000003
 30
0.0
 11
22374.512613585139
 21
19253.19265000003
 31
0.0
  0
LINE
  5
12D1B
  8
2-0
  6
CONTINUOUS
 62
     3
 10
22399.50997358514
 20
19248.184468000021
 30
0.0
 11
22399.50997358514
 21
19253.19265000003
 31
0.0
  0
LINE
  5
12D1C
  8
2-0
  6
CONTINUOUS
 62
     3
 10
22392.508416585151
 20
19248.184468000021
 30
0.0
 11
22399.50997358514
 21
19248.184468000021
 31
0.0
  0
LINE
  5
12D1D
  8
2-0
  6
CONTINUOUS
 62
     3
 10
22292.212148585138
 20
19348.48469500001
 30
0.0
 11
22292.212148585138
 21
19355.490211000018
 31
0.0
  0
LINE
  5
12D1E
  8
2-0
  6
CONTINUOUS
 62
     3
 10
22292.212148585138
 20
19355.490211000018
 30
0.0
 11
22297.212412585119
 21
19355.490211000018
 31
0.0
  0
LINE
  5
12D1F
  8
2-0
  6
CONTINUOUS
 62
     3
 10
22297.212412585119
 20
19355.490211000018
 30
0.0
 11
22297.212412585119
 21
19330.48097400002
 31
0.0
  0
LINE
  5
12D20
  8
2-0
  6
CONTINUOUS
 62
     3
 10
22297.212412585119
 20
19330.48097400002
 30
0.0
 11
22279.210670585118
 21
19330.48097400002
 31
0.0
  0
LINE
  5
12D21
  8
2-0
  6
CONTINUOUS
 62
     3
 10
22279.210670585118
 20
19330.48097400002
 30
0.0
 11
22279.210670585118
 21
19360.484537000018
 31
0.0
  0
LINE
  5
12D22
  8
2-0
  6
CONTINUOUS
 62
     3
 10
22289.50812658514
 20
19360.484537000018
 30
0.0
 11
22404.510237585131
 21
19360.484537000018
 31
0.0
  0
LINE
  5
12D23
  8
2-0
  6
CONTINUOUS
 62
     3
 10
22289.50812658514
 20
19330.48097400002
 30
0.0
 11
22289.50812658514
 21
19360.484537000018
 31
0.0
  0
LINE
  5
12D24
  8
2-0
  6
CONTINUOUS
 62
     3
 10
22295.510026585151
 20
19330.48097400002
 30
0.0
 11
22289.50812658514
 21
19330.48097400002
 31
0.0
  0
LINE
  5
12D25
  8
2-0
  6
CONTINUOUS
 62
     3
 10
22392.508416585151
 20
18894.887645499999
 30
0.0
 11
22399.50997358514
 21
18894.887645499999
 31
0.0
  0
LINE
  5
12D26
  8
2-0
  6
CONTINUOUS
 62
     3
 10
22399.50997358514
 20
18894.887645499999
 30
0.0
 11
22399.50997358514
 21
18899.887909500001
 31
0.0
  0
LINE
  5
12D27
  8
2-0
  6
CONTINUOUS
 62
     3
 10
22399.50997358514
 20
18899.887909500001
 30
0.0
 11
22374.512613585139
 21
18899.887909500001
 31
0.0
  0
LINE
  5
12D28
  8
2-0
  6
CONTINUOUS
 62
     3
 10
22374.512613585139
 20
18899.887909500001
 30
0.0
 11
22374.512613585139
 21
18881.89210550001
 31
0.0
  0
LINE
  5
12D29
  8
2-0
  6
CONTINUOUS
 62
     3
 10
22374.512613585139
 20
18881.89210550001
 30
0.0
 11
22404.510237585131
 21
18881.89210550001
 31
0.0
  0
LINE
  5
12D2A
  8
2-0
  6
CONTINUOUS
 62
     3
 10
22374.512613585139
 20
18897.983612499971
 30
0.0
 11
22374.512613585139
 21
18891.98567150001
 31
0.0
  0
LINE
  5
12D2B
  8
2-0
  6
CONTINUOUS
 62
     3
 10
22374.512613585139
 20
18891.98567150001
 30
0.0
 11
22404.510237585131
 21
18891.98567150001
 31
0.0
  0
LINE
  5
12D2C
  8
2-0
  6
CONTINUOUS
 62
     3
 10
22404.510237585131
 20
18891.98567150001
 30
0.0
 11
22404.510237585131
 21
18928.98683250001
 31
0.0
  0
LINE
  5
12D2D
  8
2-0
  6
CONTINUOUS
 62
     3
 10
22374.512613585139
 20
18928.98683250001
 30
0.0
 11
22404.510237585131
 21
18928.98683250001
 31
0.0
  0
LINE
  5
12D2E
  8
2-0
  6
CONTINUOUS
 62
     3
 10
22374.512613585139
 20
18922.982952499991
 30
0.0
 11
22374.512613585139
 21
18928.98683250001
 31
0.0
  0
LINE
  5
12D2F
  8
2-0
  6
CONTINUOUS
 62
     3
 10
22374.512613585139
 20
18939.082377499999
 30
0.0
 11
22404.510237585131
 21
18939.082377499999
 31
0.0
  0
LINE
  5
12D30
  8
2-0
  6
CONTINUOUS
 62
     3
 10
22374.512613585139
 20
18921.080635499999
 30
0.0
 11
22374.512613585139
 21
18939.082377499999
 31
0.0
  0
LINE
  5
12D31
  8
2-0
  6
CONTINUOUS
 62
     3
 10
22399.50997358514
 20
18921.080635499999
 30
0.0
 11
22374.512613585139
 21
18921.080635499999
 31
0.0
  0
LINE
  5
12D32
  8
2-0
  6
CONTINUOUS
 62
     3
 10
22399.50997358514
 20
18926.080899500012
 30
0.0
 11
22399.50997358514
 21
18921.080635499999
 31
0.0
  0
LINE
  5
12D33
  8
2-0
  6
CONTINUOUS
 62
     3
 10
22392.508416585151
 20
18926.080899500012
 30
0.0
 11
22399.50997358514
 21
18926.080899500012
 31
0.0
  0
LINE
  5
12D34
  8
2-0
  6
CONTINUOUS
 62
     3
 10
22392.508416585151
 20
18193.88665600001
 30
0.0
 11
22399.50997358514
 21
18193.88665600001
 31
0.0
  0
LINE
  5
12D35
  8
2-0
  6
CONTINUOUS
 62
     3
 10
22399.50997358514
 20
18193.88665600001
 30
0.0
 11
22399.50997358514
 21
18198.89285800001
 31
0.0
  0
LINE
  5
12D36
  8
2-0
  6
CONTINUOUS
 62
     3
 10
22399.50997358514
 20
18198.89285800001
 30
0.0
 11
22374.512613585139
 21
18198.89285800001
 31
0.0
  0
LINE
  5
12D37
  8
2-0
  6
CONTINUOUS
 62
     3
 10
22374.512613585139
 20
18198.89285800001
 30
0.0
 11
22374.512613585139
 21
18180.89111600001
 31
0.0
  0
LINE
  5
12D38
  8
2-0
  6
CONTINUOUS
 62
     3
 10
22374.512613585139
 20
18180.89111600001
 30
0.0
 11
22404.510237585131
 21
18180.89111600001
 31
0.0
  0
LINE
  5
12D39
  8
2-0
  6
CONTINUOUS
 62
     3
 10
22374.512613585139
 20
18196.982623
 30
0.0
 11
22374.512613585139
 21
18190.98666100001
 31
0.0
  0
LINE
  5
12D3A
  8
2-0
  6
CONTINUOUS
 62
     3
 10
22374.512613585139
 20
18190.98666100001
 30
0.0
 11
22404.510237585131
 21
18190.98666100001
 31
0.0
  0
LINE
  5
12D3B
  8
2-0
  6
CONTINUOUS
 62
     3
 10
22404.510237585131
 20
18190.98666100001
 30
0.0
 11
22404.510237585131
 21
18227.985842999999
 31
0.0
  0
LINE
  5
12D3C
  8
2-0
  6
CONTINUOUS
 62
     3
 10
22374.512613585139
 20
18227.985842999999
 30
0.0
 11
22404.510237585131
 21
18227.985842999999
 31
0.0
  0
LINE
  5
12D3D
  8
2-0
  6
CONTINUOUS
 62
     3
 10
22374.512613585139
 20
18221.98988100002
 30
0.0
 11
22374.512613585139
 21
18227.985842999999
 31
0.0
  0
LINE
  5
12D3E
  8
2-0
  6
CONTINUOUS
 62
     3
 10
22374.512613585139
 20
18238.08138800001
 30
0.0
 11
22404.510237585131
 21
18238.08138800001
 31
0.0
  0
LINE
  5
12D3F
  8
2-0
  6
CONTINUOUS
 62
     3
 10
22374.512613585139
 20
18220.079645999998
 30
0.0
 11
22374.512613585139
 21
18238.08138800001
 31
0.0
  0
LINE
  5
12D40
  8
2-0
  6
CONTINUOUS
 62
     3
 10
22399.50997358514
 20
18220.079645999998
 30
0.0
 11
22374.512613585139
 21
18220.079645999998
 31
0.0
  0
LINE
  5
12D41
  8
2-0
  6
CONTINUOUS
 62
     3
 10
22399.50997358514
 20
18225.08584800001
 30
0.0
 11
22399.50997358514
 21
18220.079645999998
 31
0.0
  0
LINE
  5
12D42
  8
2-0
  6
CONTINUOUS
 62
     3
 10
22392.508416585151
 20
18225.08584800001
 30
0.0
 11
22399.50997358514
 21
18225.08584800001
 31
0.0
  0
LINE
  5
12D43
  8
2-0
  6
CONTINUOUS
 62
     3
 10
22392.508416585151
 20
17524.079910000011
 30
0.0
 11
22399.50997358514
 21
17524.079910000011
 31
0.0
  0
LINE
  5
12D44
  8
2-0
  6
CONTINUOUS
 62
     3
 10
22399.50997358514
 20
17524.079910000011
 30
0.0
 11
22399.50997358514
 21
17519.091523000021
 31
0.0
  0
LINE
  5
12D45
  8
2-0
  6
CONTINUOUS
 62
     3
 10
22399.50997358514
 20
17519.091523000021
 30
0.0
 11
22374.512613585139
 21
17519.091523000021
 31
0.0
  0
LINE
  5
12D46
  8
2-0
  6
CONTINUOUS
 62
     3
 10
22374.512613585139
 20
17519.091523000021
 30
0.0
 11
22374.512613585139
 21
17537.087326000012
 31
0.0
  0
LINE
  5
12D47
  8
2-0
  6
CONTINUOUS
 62
     3
 10
22374.512613585139
 20
17537.087326000012
 30
0.0
 11
22404.510237585131
 21
17537.087326000012
 31
0.0
  0
LINE
  5
12D48
  8
2-0
  6
CONTINUOUS
 62
     3
 10
22374.512613585139
 20
17520.989881000001
 30
0.0
 11
22374.512613585139
 21
17526.985842999999
 31
0.0
  0
LINE
  5
12D49
  8
2-0
  6
CONTINUOUS
 62
     3
 10
22374.512613585139
 20
17526.985842999999
 30
0.0
 11
22404.510237585131
 21
17526.985842999999
 31
0.0
  0
LINE
  5
12D4A
  8
2-0
  6
CONTINUOUS
 62
     3
 10
22404.510237585131
 20
17526.985842999999
 30
0.0
 11
22404.510237585131
 21
17489.986661000021
 31
0.0
  0
LINE
  5
12D4B
  8
2-0
  6
CONTINUOUS
 62
     3
 10
22374.512613585139
 20
17489.986661000021
 30
0.0
 11
22404.510237585131
 21
17489.986661000021
 31
0.0
  0
LINE
  5
12D4C
  8
2-0
  6
CONTINUOUS
 62
     3
 10
22374.512613585139
 20
17495.988561999999
 30
0.0
 11
22374.512613585139
 21
17489.986661000021
 31
0.0
  0
LINE
  5
12D4D
  8
2-0
  6
CONTINUOUS
 62
     3
 10
22374.512613585139
 20
17479.897055000001
 30
0.0
 11
22404.510237585131
 21
17479.897055000001
 31
0.0
  0
LINE
  5
12D4E
  8
2-0
  6
CONTINUOUS
 62
     3
 10
22374.512613585139
 20
17497.89285800001
 30
0.0
 11
22374.512613585139
 21
17479.897055000001
 31
0.0
  0
LINE
  5
12D4F
  8
2-0
  6
CONTINUOUS
 62
     3
 10
22399.50997358514
 20
17497.89285800001
 30
0.0
 11
22374.512613585139
 21
17497.89285800001
 31
0.0
  0
LINE
  5
12D50
  8
2-0
  6
CONTINUOUS
 62
     3
 10
22399.50997358514
 20
17492.892595000001
 30
0.0
 11
22399.50997358514
 21
17497.89285800001
 31
0.0
  0
LINE
  5
12D51
  8
2-0
  6
CONTINUOUS
 62
     3
 10
22392.508416585151
 20
17492.892595000001
 30
0.0
 11
22399.50997358514
 21
17492.892595000001
 31
0.0
  0
LINE
  5
12D52
  8
2-0
  6
CONTINUOUS
 62
     3
 10
22401.62409958514
 20
16772.98348100001
 30
0.0
 11
22401.62409958514
 21
16792.984536000011
 31
0.0
  0
LINE
  5
12D53
  8
2-0
  6
CONTINUOUS
 62
     3
 10
22401.62409958514
 20
16792.984536000011
 30
0.0
 11
22316.62753058513
 21
16792.984536000011
 31
0.0
  0
LINE
  5
12D54
  8
2-0
  6
CONTINUOUS
 62
     3
 10
22392.508416585151
 20
16819.591246000022
 30
0.0
 11
22399.50997358514
 21
16819.591246000022
 31
0.0
  0
LINE
  5
12D55
  8
2-0
  6
CONTINUOUS
 62
     3
 10
22399.50997358514
 20
16819.591246000022
 30
0.0
 11
22399.50997358514
 21
16814.596920000022
 31
0.0
  0
LINE
  5
12D56
  8
2-0
  6
CONTINUOUS
 62
     3
 10
22399.50997358514
 20
16814.596920000022
 30
0.0
 11
22374.512613585139
 21
16814.596920000022
 31
0.0
  0
LINE
  5
12D57
  8
2-0
  6
CONTINUOUS
 62
     3
 10
22374.512613585139
 20
16814.596920000022
 30
0.0
 11
22374.512613585139
 21
16832.592724000009
 31
0.0
  0
LINE
  5
12D58
  8
2-0
  6
CONTINUOUS
 62
     3
 10
22374.512613585139
 20
16832.592724000009
 30
0.0
 11
22404.510237585131
 21
16832.592724000009
 31
0.0
  0
LINE
  5
12D59
  8
2-0
  6
CONTINUOUS
 62
     3
 10
22374.512613585139
 20
16822.98414
 30
0.0
 11
22374.512613585139
 21
16816.982240000001
 31
0.0
  0
LINE
  5
12D5A
  8
2-0
  6
CONTINUOUS
 62
     3
 10
22404.510237585131
 20
16822.98414
 30
0.0
 11
22374.512613585139
 21
16822.98414
 31
0.0
  0
LINE
  5
12D5B
  8
2-0
  6
CONTINUOUS
 62
     3
 10
22404.510237585131
 20
16832.592724000009
 30
0.0
 11
22404.510237585131
 21
17479.897055000001
 31
0.0
  0
LINE
  5
12D5C
  8
2-0
  6
CONTINUOUS
 62
     3
 10
22404.510237585131
 20
17537.087326000012
 30
0.0
 11
22404.510237585131
 21
18180.89111600001
 31
0.0
  0
LINE
  5
12D5D
  8
2-0
  6
CONTINUOUS
 62
     3
 10
22404.510237585131
 20
16677.98242500002
 30
0.0
 11
22374.512613585139
 21
16677.98242500002
 31
0.0
  0
LINE
  5
12D5E
  8
2-0
  6
CONTINUOUS
 62
     3
 10
22374.512613585139
 20
16677.98242500002
 30
0.0
 11
22374.512613585139
 21
16683.984325000001
 31
0.0
  0
LINE
  5
12D5F
  8
2-0
  6
CONTINUOUS
 62
     3
 10
22316.62753058513
 20
16707.987968000001
 30
0.0
 11
22401.62409958514
 21
16707.987968000001
 31
0.0
  0
LINE
  5
12D60
  8
2-0
  6
CONTINUOUS
 62
     3
 10
22401.62409958514
 20
16707.987968000001
 30
0.0
 11
22401.62409958514
 21
16727.983085000011
 31
0.0
  0
LINE
  5
12D61
  8
2-0
  6
CONTINUOUS
 62
     3
 10
22374.512613585139
 20
16668.373842000012
 30
0.0
 11
22404.510237585131
 21
16668.373842000012
 31
0.0
  0
LINE
  5
12D62
  8
2-0
  6
CONTINUOUS
 62
     3
 10
22374.512613585139
 20
16686.369644999992
 30
0.0
 11
22374.512613585139
 21
16668.373842000012
 31
0.0
  0
LINE
  5
12D63
  8
2-0
  6
CONTINUOUS
 62
     3
 10
22399.50997358514
 20
16686.369644999992
 30
0.0
 11
22374.512613585139
 21
16686.369644999992
 31
0.0
  0
LINE
  5
12D64
  8
2-0
  6
CONTINUOUS
 62
     3
 10
22399.50997358514
 20
16681.369381000019
 30
0.0
 11
22399.50997358514
 21
16686.369644999992
 31
0.0
  0
LINE
  5
12D65
  8
2-0
  6
CONTINUOUS
 62
     3
 10
22392.508416585151
 20
16681.369381000019
 30
0.0
 11
22399.50997358514
 21
16681.369381000019
 31
0.0
  0
LINE
  5
12D66
  8
2-0
  6
CONTINUOUS
 62
     3
 10
22392.508416585151
 20
15976.88715049999
 30
0.0
 11
22399.50997358514
 21
15976.88715049999
 31
0.0
  0
LINE
  5
12D67
  8
2-0
  6
CONTINUOUS
 62
     3
 10
22399.50997358514
 20
15976.88715049999
 30
0.0
 11
22399.50997358514
 21
15981.887414500001
 31
0.0
  0
LINE
  5
12D68
  8
2-0
  6
CONTINUOUS
 62
     3
 10
22399.50997358514
 20
15981.887414500001
 30
0.0
 11
22374.512613585139
 21
15981.887414500001
 31
0.0
  0
LINE
  5
12D69
  8
2-0
  6
CONTINUOUS
 62
     3
 10
22374.512613585139
 20
15981.887414500001
 30
0.0
 11
22374.512613585139
 21
15963.88567250001
 31
0.0
  0
LINE
  5
12D6A
  8
2-0
  6
CONTINUOUS
 62
     3
 10
22374.512613585139
 20
15963.88567250001
 30
0.0
 11
22404.510237585131
 21
15963.88567250001
 31
0.0
  0
LINE
  5
12D6B
  8
2-0
  6
CONTINUOUS
 62
     3
 10
22374.512613585139
 20
15979.983117500011
 30
0.0
 11
22374.512613585139
 21
15973.98616650001
 31
0.0
  0
LINE
  5
12D6C
  8
2-0
  6
CONTINUOUS
 62
     3
 10
22374.512613585139
 20
15973.98616650001
 30
0.0
 11
22404.510237585131
 21
15973.98616650001
 31
0.0
  0
LINE
  5
12D6D
  8
2-0
  6
CONTINUOUS
 62
     3
 10
22404.510237585131
 20
15973.98616650001
 30
0.0
 11
22404.510237585131
 21
16010.98633750001
 31
0.0
  0
LINE
  5
12D6E
  8
2-0
  6
CONTINUOUS
 62
     3
 10
22374.512613585139
 20
16010.98633750001
 30
0.0
 11
22404.510237585131
 21
16010.98633750001
 31
0.0
  0
LINE
  5
12D6F
  8
2-0
  6
CONTINUOUS
 62
     3
 10
22374.512613585139
 20
16004.983447500001
 30
0.0
 11
22374.512613585139
 21
16010.98633750001
 31
0.0
  0
LINE
  5
12D70
  8
2-0
  6
CONTINUOUS
 62
     3
 10
22374.512613585139
 20
16021.08188250001
 30
0.0
 11
22404.510237585131
 21
16021.08188250001
 31
0.0
  0
LINE
  5
12D71
  8
2-0
  6
CONTINUOUS
 62
     3
 10
22374.512613585139
 20
16003.074201500011
 30
0.0
 11
22374.512613585139
 21
16021.08188250001
 31
0.0
  0
LINE
  5
12D72
  8
2-0
  6
CONTINUOUS
 62
     3
 10
22399.50997358514
 20
16003.074201500011
 30
0.0
 11
22374.512613585139
 21
16003.074201500011
 31
0.0
  0
LINE
  5
12D73
  8
2-0
  6
CONTINUOUS
 62
     3
 10
22399.50997358514
 20
16008.08040450001
 30
0.0
 11
22399.50997358514
 21
16003.074201500011
 31
0.0
  0
LINE
  5
12D74
  8
2-0
  6
CONTINUOUS
 62
     3
 10
22392.508416585151
 20
16008.08040450001
 30
0.0
 11
22399.50997358514
 21
16008.08040450001
 31
0.0
  0
LINE
  5
12D75
  8
2-0
  6
CONTINUOUS
 62
     3
 10
22392.508416585151
 20
15307.32042100002
 30
0.0
 11
22399.50997358514
 21
15307.32042100002
 31
0.0
  0
LINE
  5
12D76
  8
2-0
  6
CONTINUOUS
 62
     3
 10
22399.50997358514
 20
15307.32042100002
 30
0.0
 11
22399.50997358514
 21
15302.326096000021
 31
0.0
  0
LINE
  5
12D77
  8
2-0
  6
CONTINUOUS
 62
     3
 10
22399.50997358514
 20
15302.326096000021
 30
0.0
 11
22374.512613585139
 21
15302.326096000021
 31
0.0
  0
LINE
  5
12D78
  8
2-0
  6
CONTINUOUS
 62
     3
 10
22374.512613585139
 20
15302.326096000021
 30
0.0
 11
22374.512613585139
 21
15320.32189900002
 31
0.0
  0
LINE
  5
12D79
  8
2-0
  6
CONTINUOUS
 62
     3
 10
22374.512613585139
 20
15320.32189900002
 30
0.0
 11
22404.510237585131
 21
15320.32189900002
 31
0.0
  0
LINE
  5
12D7A
  8
2-0
  6
CONTINUOUS
 62
     3
 10
22374.512613585139
 20
15304.22445400001
 30
0.0
 11
22374.512613585139
 21
15310.22635400002
 31
0.0
  0
LINE
  5
12D7B
  8
2-0
  6
CONTINUOUS
 62
     3
 10
22374.512613585139
 20
15310.22635400002
 30
0.0
 11
22404.510237585131
 21
15310.22635400002
 31
0.0
  0
LINE
  5
12D7C
  8
2-0
  6
CONTINUOUS
 62
     3
 10
22404.510237585131
 20
15273.22717300003
 30
0.0
 11
22404.510237585131
 21
15310.22635400002
 31
0.0
  0
LINE
  5
12D7D
  8
2-0
  6
CONTINUOUS
 62
     3
 10
22374.512613585139
 20
15273.22717300003
 30
0.0
 11
22404.510237585131
 21
15273.22717300003
 31
0.0
  0
LINE
  5
12D7E
  8
2-0
  6
CONTINUOUS
 62
     3
 10
22374.512613585139
 20
15279.22412400002
 30
0.0
 11
22374.512613585139
 21
15273.22717300003
 31
0.0
  0
LINE
  5
12D7F
  8
2-0
  6
CONTINUOUS
 62
     3
 10
22374.512613585139
 20
15263.12568900002
 30
0.0
 11
22404.510237585131
 21
15263.12568900002
 31
0.0
  0
LINE
  5
12D80
  8
2-0
  6
CONTINUOUS
 62
     3
 10
22374.512613585139
 20
15281.13337000001
 30
0.0
 11
22374.512613585139
 21
15263.12568900002
 31
0.0
  0
LINE
  5
12D81
  8
2-0
  6
CONTINUOUS
 62
     3
 10
22399.50997358514
 20
15281.13337000001
 30
0.0
 11
22374.512613585139
 21
15281.13337000001
 31
0.0
  0
LINE
  5
12D82
  8
2-0
  6
CONTINUOUS
 62
     3
 10
22399.50997358514
 20
15276.13310600003
 30
0.0
 11
22399.50997358514
 21
15281.13337000001
 31
0.0
  0
LINE
  5
12D83
  8
2-0
  6
CONTINUOUS
 62
     3
 10
22392.508416585151
 20
15276.13310600003
 30
0.0
 11
22399.50997358514
 21
15276.13310600003
 31
0.0
  0
LINE
  5
12D84
  8
2-0
  6
CONTINUOUS
 62
     3
 10
22404.510237585131
 20
16668.373842000012
 30
0.0
 11
22404.510237585131
 21
16021.08188250001
 31
0.0
  0
LINE
  5
12D85
  8
2-0
  6
CONTINUOUS
 62
     3
 10
22404.510237585131
 20
16822.98414
 30
0.0
 11
22404.510237585131
 21
16677.98242500002
 31
0.0
  0
LINE
  5
12D86
  8
2-0
  6
CONTINUOUS
 62
     3
 10
22316.62753058513
 20
16792.984536000011
 30
0.0
 11
22316.62753058513
 21
16707.987968000001
 31
0.0
  0
LINE
  5
12D87
  8
2-0
  6
CONTINUOUS
 62
     6
 10
21378.10504358515
 20
18561.431801499992
 30
0.0
 11
20353.072711585151
 21
18561.431801499992
 31
0.0
  0
LINE
  5
12D88
  8
2-0
  6
CONTINUOUS
 62
     3
 10
22392.508416585151
 20
14574.89209900001
 30
0.0
 11
22399.50997358514
 21
14574.89209900001
 31
0.0
  0
LINE
  5
12D89
  8
2-0
  6
CONTINUOUS
 62
     3
 10
22399.50997358514
 20
14574.89209900001
 30
0.0
 11
22399.50997358514
 21
14579.886425000021
 31
0.0
  0
LINE
  5
12D8A
  8
2-0
  6
CONTINUOUS
 62
     3
 10
22399.50997358514
 20
14579.886425000021
 30
0.0
 11
22374.512613585139
 21
14579.886425000021
 31
0.0
  0
LINE
  5
12D8B
  8
2-0
  6
CONTINUOUS
 62
     3
 10
22374.512613585139
 20
14579.886425000021
 30
0.0
 11
22374.512613585139
 21
14561.89062100001
 31
0.0
  0
LINE
  5
12D8C
  8
2-0
  6
CONTINUOUS
 62
     3
 10
22374.512613585139
 20
14561.89062100001
 30
0.0
 11
22404.510237585131
 21
14561.89062100001
 31
0.0
  0
LINE
  5
12D8D
  8
2-0
  6
CONTINUOUS
 62
     3
 10
22374.512613585139
 20
14577.98905600002
 30
0.0
 11
22374.512613585139
 21
14571.986166000021
 31
0.0
  0
LINE
  5
12D8E
  8
2-0
  6
CONTINUOUS
 62
     3
 10
22374.512613585139
 20
14571.986166000021
 30
0.0
 11
22404.510237585131
 21
14571.986166000021
 31
0.0
  0
LINE
  5
12D8F
  8
2-0
  6
CONTINUOUS
 62
     3
 10
22404.510237585131
 20
14571.986166000021
 30
0.0
 11
22404.510237585131
 21
14608.986338000001
 31
0.0
  0
LINE
  5
12D90
  8
2-0
  6
CONTINUOUS
 62
     3
 10
22374.512613585139
 20
14608.986338000001
 30
0.0
 11
22404.510237585131
 21
14608.986338000001
 31
0.0
  0
LINE
  5
12D91
  8
2-0
  6
CONTINUOUS
 62
     3
 10
22374.512613585139
 20
14602.98938600001
 30
0.0
 11
22374.512613585139
 21
14608.986338000001
 31
0.0
  0
LINE
  5
12D92
  8
2-0
  6
CONTINUOUS
 62
     3
 10
22374.512613585139
 20
14619.086831000021
 30
0.0
 11
22404.510237585131
 21
14619.086831000021
 31
0.0
  0
LINE
  5
12D93
  8
2-0
  6
CONTINUOUS
 62
     3
 10
22374.512613585139
 20
14601.08014000002
 30
0.0
 11
22374.512613585139
 21
14619.086831000021
 31
0.0
  0
LINE
  5
12D94
  8
2-0
  6
CONTINUOUS
 62
     3
 10
22399.50997358514
 20
14601.08014000002
 30
0.0
 11
22374.512613585139
 21
14601.08014000002
 31
0.0
  0
LINE
  5
12D95
  8
2-0
  6
CONTINUOUS
 62
     3
 10
22399.50997358514
 20
14606.08535300002
 30
0.0
 11
22399.50997358514
 21
14601.08014000002
 31
0.0
  0
LINE
  5
12D96
  8
2-0
  6
CONTINUOUS
 62
     3
 10
22392.508416585151
 20
14606.08535300002
 30
0.0
 11
22399.50997358514
 21
14606.08535300002
 31
0.0
  0
LINE
  5
12D97
  8
2-0
  6
CONTINUOUS
 62
     3
 10
22374.512613585139
 20
13898.988179000011
 30
0.0
 11
22374.512613585139
 21
13904.993048000009
 31
0.0
  0
LINE
  5
12D98
  8
2-0
  6
CONTINUOUS
 62
     3
 10
22374.512613585139
 20
13904.993048000009
 30
0.0
 11
22404.510237585131
 21
13904.993048000009
 31
0.0
  0
LINE
  5
12D99
  8
2-0
  6
CONTINUOUS
 62
     3
 10
22404.510237585131
 20
13904.993048000009
 30
0.0
 11
22404.510237585131
 21
13789.98895700001
 31
0.0
  0
LINE
  5
12D9A
  8
2-0
  6
CONTINUOUS
 62
     3
 10
22404.510237585131
 20
13789.98895700001
 30
0.0
 11
22319.511689585139
 21
13789.98895700001
 31
0.0
  0
LINE
  5
12D9B
  8
2-0
  6
CONTINUOUS
 62
     3
 10
22319.511689585139
 20
13789.98895700001
 30
0.0
 11
22319.511689585139
 21
13874.984536000011
 31
0.0
  0
LINE
  5
12D9C
  8
2-0
  6
CONTINUOUS
 62
     3
 10
22319.511689585139
 20
13874.984536000011
 30
0.0
 11
22351.510607585129
 21
13874.984536000011
 31
0.0
  0
LINE
  5
12D9D
  8
2-0
  6
CONTINUOUS
 62
     3
 10
22392.508416585151
 20
13902.022781000011
 30
0.0
 11
22399.50997358514
 21
13902.022781000011
 31
0.0
  0
LINE
  5
12D9E
  8
2-0
  6
CONTINUOUS
 62
     3
 10
22399.50997358514
 20
13902.022781000011
 30
0.0
 11
22399.50997358514
 21
13897.02548599999
 31
0.0
  0
LINE
  5
12D9F
  8
2-0
  6
CONTINUOUS
 62
     3
 10
22399.50997358514
 20
13897.02548599999
 30
0.0
 11
22374.512613585139
 21
13897.02548599999
 31
0.0
  0
LINE
  5
12DA0
  8
2-0
  6
CONTINUOUS
 62
     3
 10
22374.512613585139
 20
13897.02548599999
 30
0.0
 11
22374.512613585139
 21
13915.024259000011
 31
0.0
  0
LINE
  5
12DA1
  8
2-0
  6
CONTINUOUS
 62
     3
 10
22374.512613585139
 20
13915.024259000011
 30
0.0
 11
22404.510237585131
 21
13915.024259000011
 31
0.0
  0
LINE
  5
12DA2
  8
2-0
  6
CENTER2
 62
     6
 10
22362.011953585152
 20
13592.491399
 30
0.0
 11
22362.011953585152
 21
14748.36015700003
 31
0.0
  0
LINE
  5
12DA3
  8
2-0
  6
CONTINUOUS
 62
     3
 10
22404.510237585131
 20
18238.08138800001
 30
0.0
 11
22404.510237585131
 21
18881.89210550001
 31
0.0
  0
LINE
  5
12DA4
  8
2-0
  6
CONTINUOUS
 62
     6
 10
19059.508786585149
 20
20090.487440000041
 30
0.0
 11
17859.51472458518
 21
20090.487440000041
 31
0.0
  0
LINE
  5
12DA5
  8
2-0
  6
CONTINUOUS
 62
     6
 10
19921.541619585161
 20
18803.58630950001
 30
0.0
 11
20353.072711585151
 21
18561.431801499992
 31
0.0
  0
LINE
  5
12DA6
  8
2-0
  6
CONTINUOUS
 62
     6
 10
19599.972785585182
 20
19503.164277000011
 30
0.0
 11
19059.508786585149
 21
20090.487440000041
 31
0.0
  0
LINE
  5
12DA7
  8
2-0
  6
CONTINUOUS
 62
     3
 10
22313.505830585149
 20
18166.984998
 30
0.0
 11
22360.511478585118
 21
18166.984998
 31
0.0
  0
LINE
  5
12DA8
  8
2-0
  6
CONTINUOUS
 62
     3
 10
22360.511478585118
 20
18251.985526000011
 30
0.0
 11
22313.505830585149
 21
18251.985526000011
 31
0.0
  0
LINE
  5
12DA9
  8
2-0
  6
CONTINUOUS
 62
     3
 10
22360.511478585118
 20
18166.984998
 30
0.0
 11
22360.511478585118
 21
18191.988297000011
 31
0.0
  0
LINE
  5
12DAA
  8
2-0
  6
CONTINUOUS
 62
     3
 10
22360.511478585118
 20
18226.984206000001
 30
0.0
 11
22360.511478585118
 21
18251.985526000011
 31
0.0
  0
LINE
  5
12DAB
  8
2-0
  6
CONTINUOUS
 62
     3
 10
22313.505830585149
 20
18251.985526000011
 30
0.0
 11
22313.505830585149
 21
18166.984998
 31
0.0
  0
LINE
  5
12DAC
  8
2-0
  6
CONTINUOUS
 62
     3
 10
22404.510237585131
 20
15963.88567250001
 30
0.0
 11
22404.510237585131
 21
15320.32189900002
 31
0.0
  0
LINE
  5
12DAD
  8
2-0
  6
CONTINUOUS
 62
     3
 10
22313.505830585149
 20
15248.98796800001
 30
0.0
 11
22360.511478585118
 21
15248.98796800001
 31
0.0
  0
LINE
  5
12DAE
  8
2-0
  6
CONTINUOUS
 62
     3
 10
22360.511478585118
 20
15333.984536
 30
0.0
 11
22313.505830585149
 21
15333.984536
 31
0.0
  0
LINE
  5
12DAF
  8
2-0
  6
CONTINUOUS
 62
     3
 10
22360.511478585118
 20
15248.98796800001
 30
0.0
 11
22360.511478585118
 21
15273.98334900002
 31
0.0
  0
LINE
  5
12DB0
  8
2-0
  6
CONTINUOUS
 62
     3
 10
22360.511478585118
 20
15308.983217000021
 30
0.0
 11
22360.511478585118
 21
15333.984536
 31
0.0
  0
LINE
  5
12DB1
  8
2-0
  6
CONTINUOUS
 62
     3
 10
22313.505830585149
 20
15333.984536
 30
0.0
 11
22313.505830585149
 21
15248.98796800001
 31
0.0
  0
LINE
  5
12DB2
  8
2-0
  6
CONTINUOUS
 62
     6
 10
19934.598524585152
 20
18826.845653500011
 30
0.0
 11
19782.01129358515
 21
18881.89210550001
 31
0.0
  0
LINE
  5
12DB3
  8
2-0
  6
CONTINUOUS
 62
     6
 10
19782.01129358515
 20
18881.89210550001
 30
0.0
 11
19908.492633585149
 21
18780.332905499989
 31
0.0
  0
LINE
  5
12DB4
  8
2-0
  6
CONTINUOUS
 62
     6
 10
19934.598524585152
 20
18826.845653500011
 30
0.0
 11
19908.492633585149
 21
18780.332905499989
 31
0.0
  0
LINE
  5
12DB5
  8
2-0
  6
CONTINUOUS
 62
     6
 10
19908.492633585149
 20
18780.332905499989
 30
0.0
 11
19782.01129358515
 21
18881.89210550001
 31
0.0
  0
LINE
  5
12DB6
  8
2-0
  6
CONTINUOUS
 62
     6
 10
19782.01129358515
 20
18881.89210550001
 30
0.0
 11
19934.598524585152
 21
18826.845653500011
 31
0.0
  0
LINE
  5
12DB7
  8
2-0
  6
CONTINUOUS
 62
     6
 10
19934.598524585152
 20
18826.845653500011
 30
0.0
 11
19782.01129358515
 21
18881.89210550001
 31
0.0
  0
LINE
  5
12DB8
  8
2-0
  6
CONTINUOUS
 62
     6
 10
19908.492633585149
 20
18780.332905499989
 30
0.0
 11
19782.01129358515
 21
18881.89210550001
 31
0.0
  0
LINE
  5
12DB9
  8
2-0
  6
CONTINUOUS
 62
     6
 10
19908.492633585149
 20
18780.332905499989
 30
0.0
 11
19934.598524585152
 21
18826.845653500011
 31
0.0
  0
LINE
  5
12DBA
  8
2-0
  6
CONTINUOUS
 62
     6
 10
19580.355756585152
 20
19485.103150000032
 30
0.0
 11
19708.31777658514
 21
19385.420532000011
 31
0.0
  0
LINE
  5
12DBB
  8
2-0
  6
CONTINUOUS
 62
     6
 10
19708.31777658514
 20
19385.420532000011
 30
0.0
 11
19619.603671585159
 21
19521.217487000031
 31
0.0
  0
LINE
  5
12DBC
  8
2-0
  6
CONTINUOUS
 62
     6
 10
19580.355756585152
 20
19485.103150000032
 30
0.0
 11
19619.603671585159
 21
19521.217487000031
 31
0.0
  0
LINE
  5
12DBD
  8
2-0
  6
CONTINUOUS
 62
     6
 10
19619.603671585159
 20
19521.217487000031
 30
0.0
 11
19708.31777658514
 21
19385.420532000011
 31
0.0
  0
LINE
  5
12DBE
  8
2-0
  6
CONTINUOUS
 62
     6
 10
19708.31777658514
 20
19385.420532000011
 30
0.0
 11
19580.355756585152
 21
19485.103150000032
 31
0.0
  0
LINE
  5
12DBF
  8
2-0
  6
CONTINUOUS
 62
     6
 10
19580.355756585152
 20
19485.103150000032
 30
0.0
 11
19708.31777658514
 21
19385.420532000011
 31
0.0
  0
LINE
  5
12DC0
  8
2-0
  6
CONTINUOUS
 62
     6
 10
19619.603671585159
 20
19521.217487000031
 30
0.0
 11
19708.31777658514
 21
19385.420532000011
 31
0.0
  0
LINE
  5
12DC1
  8
2-0
  6
CONTINUOUS
 62
     6
 10
19619.603671585159
 20
19521.217487000031
 30
0.0
 11
19580.355756585152
 21
19485.103150000032
 31
0.0
  0
LINE
  5
12DC2
  8
2-0
  6
CONTINUOUS
 62
     6
 10
19998.337043585161
 20
15202.481158000021
 30
0.0
 11
19843.01807658514
 21
15249.22847900003
 31
0.0
  0
LINE
  5
12DC3
  8
2-0
  6
CONTINUOUS
 62
     6
 10
19843.01807658514
 20
15249.22847900003
 30
0.0
 11
19974.778792585181
 21
15154.63619400003
 31
0.0
  0
LINE
  5
12DC4
  8
2-0
  6
CONTINUOUS
 62
     6
 10
19998.337043585161
 20
15202.481158000021
 30
0.0
 11
19974.778792585181
 21
15154.63619400003
 31
0.0
  0
LINE
  5
12DC5
  8
2-0
  6
CONTINUOUS
 62
     6
 10
19974.778792585181
 20
15154.63619400003
 30
0.0
 11
19843.01807658514
 21
15249.22847900003
 31
0.0
  0
LINE
  5
12DC6
  8
2-0
  6
CONTINUOUS
 62
     6
 10
19843.01807658514
 20
15249.22847900003
 30
0.0
 11
19998.337043585161
 21
15202.481158000021
 31
0.0
  0
LINE
  5
12DC7
  8
2-0
  6
CONTINUOUS
 62
     6
 10
19998.337043585161
 20
15202.481158000021
 30
0.0
 11
19843.01807658514
 21
15249.22847900003
 31
0.0
  0
LINE
  5
12DC8
  8
2-0
  6
CONTINUOUS
 62
     6
 10
19974.778792585181
 20
15154.63619400003
 30
0.0
 11
19843.01807658514
 21
15249.22847900003
 31
0.0
  0
LINE
  5
12DC9
  8
2-0
  6
CONTINUOUS
 62
     6
 10
19974.778792585181
 20
15154.63619400003
 30
0.0
 11
19998.337043585161
 21
15202.481158000021
 31
0.0
  0
LINE
  5
12DCA
  8
2-0
  6
CONTINUOUS
 62
     6
 10
20028.65139058515
 20
13681.716219
 30
0.0
 11
19896.90453158514
 21
13776.34314600001
 31
0.0
  0
LINE
  5
12DCB
  8
2-0
  6
CONTINUOUS
 62
     6
 10
19896.90453158514
 20
13776.34314600001
 30
0.0
 11
19990.83466758515
 21
13644.10437599999
 31
0.0
  0
LINE
  5
12DCC
  8
2-0
  6
CONTINUOUS
 62
     6
 10
20028.65139058515
 20
13681.716219
 30
0.0
 11
19990.83466758515
 21
13644.10437599999
 31
0.0
  0
LINE
  5
12DCD
  8
2-0
  6
CONTINUOUS
 62
     6
 10
19990.83466758515
 20
13644.10437599999
 30
0.0
 11
19896.90453158514
 21
13776.34314600001
 31
0.0
  0
LINE
  5
12DCE
  8
2-0
  6
CONTINUOUS
 62
     6
 10
19896.90453158514
 20
13776.34314600001
 30
0.0
 11
20028.65139058515
 21
13681.716219
 31
0.0
  0
LINE
  5
12DCF
  8
2-0
  6
CONTINUOUS
 62
     6
 10
20028.65139058515
 20
13681.716219
 30
0.0
 11
19896.90453158514
 21
13776.34314600001
 31
0.0
  0
LINE
  5
12DD0
  8
2-0
  6
CONTINUOUS
 62
     6
 10
19990.83466758515
 20
13644.10437599999
 30
0.0
 11
19896.90453158514
 21
13776.34314600001
 31
0.0
  0
LINE
  5
12DD1
  8
2-0
  6
CONTINUOUS
 62
     6
 10
19990.83466758515
 20
13644.10437599999
 30
0.0
 11
20028.65139058515
 21
13681.716219
 31
0.0
  0
LINE
  5
12DD2
  8
2-0
  6
CONTINUOUS
 62
     6
 10
19965.615601585148
 20
14008.620845999991
 30
0.0
 11
19833.01556958515
 21
13915.192517999991
 31
0.0
  0
LINE
  5
12DD3
  8
2-0
  6
CONTINUOUS
 62
     6
 10
19833.01556958515
 20
13915.192517999991
 30
0.0
 11
19988.748255585149
 21
13960.56803200001
 31
0.0
  0
LINE
  5
12DD4
  8
2-0
  6
CONTINUOUS
 62
     6
 10
19965.615601585148
 20
14008.620845999991
 30
0.0
 11
19988.748255585149
 21
13960.56803200001
 31
0.0
  0
LINE
  5
12DD5
  8
2-0
  6
CONTINUOUS
 62
     6
 10
19988.748255585149
 20
13960.56803200001
 30
0.0
 11
19833.01556958515
 21
13915.192517999991
 31
0.0
  0
LINE
  5
12DD6
  8
2-0
  6
CONTINUOUS
 62
     6
 10
19833.01556958515
 20
13915.192517999991
 30
0.0
 11
19965.615601585148
 21
14008.620845999991
 31
0.0
  0
LINE
  5
12DD7
  8
2-0
  6
CONTINUOUS
 62
     6
 10
19965.615601585148
 20
14008.620845999991
 30
0.0
 11
19833.01556958515
 21
13915.192517999991
 31
0.0
  0
LINE
  5
12DD8
  8
2-0
  6
CONTINUOUS
 62
     6
 10
19988.748255585149
 20
13960.56803200001
 30
0.0
 11
19833.01556958515
 21
13915.192517999991
 31
0.0
  0
LINE
  5
12DD9
  8
2-0
  6
CONTINUOUS
 62
     6
 10
19988.748255585149
 20
13960.56803200001
 30
0.0
 11
19965.615601585148
 21
14008.620845999991
 31
0.0
  0
LINE
  5
12DDA
  8
2-0
  6
CONTINUOUS
 62
     6
 10
19905.851955585149
 20
16388.441779000019
 30
0.0
 11
19752.013669585162
 21
16439.875610000021
 31
0.0
  0
LINE
  5
12DDB
  8
2-0
  6
CONTINUOUS
 62
     6
 10
19752.013669585162
 20
16439.875610000021
 30
0.0
 11
19880.848656585182
 21
16341.33517500002
 31
0.0
  0
LINE
  5
12DDC
  8
2-0
  6
CONTINUOUS
 62
     6
 10
19905.851955585149
 20
16388.441779000019
 30
0.0
 11
19880.848656585182
 21
16341.33517500002
 31
0.0
  0
LINE
  5
12DDD
  8
2-0
  6
CONTINUOUS
 62
     6
 10
19880.848656585182
 20
16341.33517500002
 30
0.0
 11
19752.013669585162
 21
16439.875610000021
 31
0.0
  0
LINE
  5
12DDE
  8
2-0
  6
CONTINUOUS
 62
     6
 10
19752.013669585162
 20
16439.875610000021
 30
0.0
 11
19905.851955585149
 21
16388.441779000019
 31
0.0
  0
LINE
  5
12DDF
  8
2-0
  6
CONTINUOUS
 62
     6
 10
19905.851955585149
 20
16388.441779000019
 30
0.0
 11
19752.013669585162
 21
16439.875610000021
 31
0.0
  0
LINE
  5
12DE0
  8
2-0
  6
CONTINUOUS
 62
     6
 10
19880.848656585182
 20
16341.33517500002
 30
0.0
 11
19752.013669585162
 21
16439.875610000021
 31
0.0
  0
LINE
  5
12DE1
  8
2-0
  6
CONTINUOUS
 62
     6
 10
19880.848656585182
 20
16341.33517500002
 30
0.0
 11
19905.851955585149
 21
16388.441779000019
 31
0.0
  0
LINE
  5
12DE2
  8
2-0
  6
CONTINUOUS
 62
     6
 10
20039.788162585159
 20
16879.760271000021
 30
0.0
 11
19896.90453158514
 21
16802.984642000021
 31
0.0
  0
LINE
  5
12DE3
  8
2-0
  6
CONTINUOUS
 62
     6
 10
19896.90453158514
 20
16802.984642000021
 30
0.0
 11
20056.96642458516
 21
16829.266711000029
 31
0.0
  0
LINE
  5
12DE4
  8
2-0
  6
CONTINUOUS
 62
     6
 10
20039.788162585159
 20
16879.760271000021
 30
0.0
 11
20056.96642458516
 21
16829.266711000029
 31
0.0
  0
LINE
  5
12DE5
  8
2-0
  6
CONTINUOUS
 62
     6
 10
20056.96642458516
 20
16829.266711000029
 30
0.0
 11
19896.90453158514
 21
16802.984642000021
 31
0.0
  0
LINE
  5
12DE6
  8
2-0
  6
CONTINUOUS
 62
     6
 10
19896.90453158514
 20
16802.984642000021
 30
0.0
 11
20039.788162585159
 21
16879.760271000021
 31
0.0
  0
LINE
  5
12DE7
  8
2-0
  6
CONTINUOUS
 62
     6
 10
20039.788162585159
 20
16879.760271000021
 30
0.0
 11
19896.90453158514
 21
16802.984642000021
 31
0.0
  0
LINE
  5
12DE8
  8
2-0
  6
CONTINUOUS
 62
     6
 10
20056.96642458516
 20
16829.266711000029
 30
0.0
 11
19896.90453158514
 21
16802.984642000021
 31
0.0
  0
LINE
  5
12DE9
  8
2-0
  6
CONTINUOUS
 62
     6
 10
20056.96642458516
 20
16829.266711000029
 30
0.0
 11
20039.788162585159
 21
16879.760271000021
 31
0.0
  0
LINE
  5
12DEA
  8
2-0
  6
CONTINUOUS
 62
     6
 10
19998.337043585161
 20
18120.240645999998
 30
0.0
 11
19843.01807658514
 21
18166.984998
 31
0.0
  0
LINE
  5
12DEB
  8
2-0
  6
CONTINUOUS
 62
     6
 10
19843.01807658514
 20
18166.984998
 30
0.0
 11
19974.778792585181
 21
18072.389744000018
 31
0.0
  0
LINE
  5
12DEC
  8
2-0
  6
CONTINUOUS
 62
     6
 10
19998.337043585161
 20
18120.240645999998
 30
0.0
 11
19974.778792585181
 21
18072.389744000018
 31
0.0
  0
LINE
  5
12DED
  8
2-0
  6
CONTINUOUS
 62
     6
 10
19974.778792585181
 20
18072.389744000018
 30
0.0
 11
19843.01807658514
 21
18166.984998
 31
0.0
  0
LINE
  5
12DEE
  8
2-0
  6
CONTINUOUS
 62
     6
 10
19843.01807658514
 20
18166.984998
 30
0.0
 11
19998.337043585161
 21
18120.240645999998
 31
0.0
  0
LINE
  5
12DEF
  8
2-0
  6
CONTINUOUS
 62
     6
 10
19998.337043585161
 20
18120.240645999998
 30
0.0
 11
19843.01807658514
 21
18166.984998
 31
0.0
  0
LINE
  5
12DF0
  8
2-0
  6
CONTINUOUS
 62
     6
 10
19974.778792585181
 20
18072.389744000018
 30
0.0
 11
19843.01807658514
 21
18166.984998
 31
0.0
  0
LINE
  5
12DF1
  8
2-0
  6
CONTINUOUS
 62
     6
 10
19974.778792585181
 20
18072.389744000018
 30
0.0
 11
19998.337043585161
 21
18120.240645999998
 31
0.0
  0
LINE
  5
12DF2
  8
2-0
  6
CONTINUOUS
 62
     3
 10
19782.013273585129
 20
19251.48432600002
 30
0.0
 11
19782.013273585129
 21
19245.488364000019
 31
0.0
  0
LINE
  5
12DF3
  8
2-0
  6
CONTINUOUS
 62
     3
 10
19782.013273585129
 20
19245.488364000019
 30
0.0
 11
19752.015648585129
 21
19245.488364000019
 31
0.0
  0
LINE
  5
12DF4
  8
2-0
  6
CONTINUOUS
 62
     3
 10
19752.015648585129
 20
19245.488364000019
 30
0.0
 11
19752.015648585129
 21
19360.484537000018
 31
0.0
  0
LINE
  5
12DF5
  8
2-0
  6
CONTINUOUS
 62
     3
 10
19752.015648585129
 20
19275.487968000001
 30
0.0
 11
19833.013589585149
 21
19275.487968000001
 31
0.0
  0
LINE
  5
12DF6
  8
2-0
  6
CONTINUOUS
 62
     3
 10
19782.013273585129
 20
19235.190908000011
 30
0.0
 11
19752.015648585129
 21
19235.190908000011
 31
0.0
  0
LINE
  5
12DF7
  8
2-0
  6
CONTINUOUS
 62
     3
 10
19782.013273585129
 20
19253.19265000003
 30
0.0
 11
19782.013273585129
 21
19235.190908000011
 31
0.0
  0
LINE
  5
12DF8
  8
2-0
  6
CONTINUOUS
 62
     3
 10
19757.019871585129
 20
19253.19265000003
 30
0.0
 11
19782.013273585129
 21
19253.19265000003
 31
0.0
  0
LINE
  5
12DF9
  8
2-0
  6
CONTINUOUS
 62
     3
 10
19757.019871585129
 20
19248.184468000021
 30
0.0
 11
19757.019871585129
 21
19253.19265000003
 31
0.0
  0
LINE
  5
12DFA
  8
2-0
  6
CONTINUOUS
 62
     3
 10
19764.01746958512
 20
19248.184468000021
 30
0.0
 11
19757.019871585129
 21
19248.184468000021
 31
0.0
  0
LINE
  5
12DFB
  8
2-0
  6
CONTINUOUS
 62
     3
 10
19864.311758585129
 20
19348.48469500001
 30
0.0
 11
19864.311758585129
 21
19355.490211000018
 31
0.0
  0
LINE
  5
12DFC
  8
2-0
  6
CONTINUOUS
 62
     3
 10
19864.311758585129
 20
19355.490211000018
 30
0.0
 11
19859.309514585129
 21
19355.490211000018
 31
0.0
  0
LINE
  5
12DFD
  8
2-0
  6
CONTINUOUS
 62
     3
 10
19859.309514585129
 20
19355.490211000018
 30
0.0
 11
19859.309514585129
 21
19330.48097400002
 31
0.0
  0
LINE
  5
12DFE
  8
2-0
  6
CONTINUOUS
 62
     3
 10
19859.309514585129
 20
19330.48097400002
 30
0.0
 11
19877.317195585129
 21
19330.48097400002
 31
0.0
  0
LINE
  5
12DFF
  8
2-0
  6
CONTINUOUS
 62
     3
 10
19877.317195585129
 20
19330.48097400002
 30
0.0
 11
19877.317195585129
 21
19360.484537000018
 31
0.0
  0
LINE
  5
12E00
  8
2-0
  6
CONTINUOUS
 62
     3
 10
19867.017759585138
 20
19360.484537000018
 30
0.0
 11
19752.015648585129
 21
19360.484537000018
 31
0.0
  0
LINE
  5
12E01
  8
2-0
  6
CONTINUOUS
 62
     3
 10
19867.017759585138
 20
19330.48097400002
 30
0.0
 11
19867.017759585138
 21
19360.484537000018
 31
0.0
  0
LINE
  5
12E02
  8
2-0
  6
CONTINUOUS
 62
     3
 10
19861.013880585138
 20
19330.48097400002
 30
0.0
 11
19867.017759585138
 21
19330.48097400002
 31
0.0
  0
LINE
  5
12E03
  8
2-0
  6
CONTINUOUS
 62
     3
 10
19782.013273585129
 20
19251.48432600002
 30
0.0
 11
19782.013273585129
 21
19245.488364000019
 31
0.0
  0
LINE
  5
12E04
  8
2-0
  6
CONTINUOUS
 62
     3
 10
19782.013273585129
 20
19245.488364000019
 30
0.0
 11
19752.015648585129
 21
19245.488364000019
 31
0.0
  0
LINE
  5
12E05
  8
2-0
  6
CONTINUOUS
 62
     3
 10
19752.015648585129
 20
19245.488364000019
 30
0.0
 11
19752.015648585129
 21
19360.484537000018
 31
0.0
  0
LINE
  5
12E06
  8
2-0
  6
CONTINUOUS
 62
     3
 10
19752.015648585129
 20
19275.487968000001
 30
0.0
 11
19833.013589585149
 21
19275.487968000001
 31
0.0
  0
LINE
  5
12E07
  8
2-0
  6
CONTINUOUS
 62
     3
 10
19782.013273585129
 20
19235.190908000011
 30
0.0
 11
19752.015648585129
 21
19235.190908000011
 31
0.0
  0
LINE
  5
12E08
  8
2-0
  6
CONTINUOUS
 62
     3
 10
19782.013273585129
 20
19253.19265000003
 30
0.0
 11
19782.013273585129
 21
19235.190908000011
 31
0.0
  0
LINE
  5
12E09
  8
2-0
  6
CONTINUOUS
 62
     3
 10
19757.019871585129
 20
19253.19265000003
 30
0.0
 11
19782.013273585129
 21
19253.19265000003
 31
0.0
  0
LINE
  5
12E0A
  8
2-0
  6
CONTINUOUS
 62
     3
 10
19757.019871585129
 20
19248.184468000021
 30
0.0
 11
19757.019871585129
 21
19253.19265000003
 31
0.0
  0
LINE
  5
12E0B
  8
2-0
  6
CONTINUOUS
 62
     3
 10
19764.01746958512
 20
19248.184468000021
 30
0.0
 11
19757.019871585129
 21
19248.184468000021
 31
0.0
  0
LINE
  5
12E0C
  8
2-0
  6
CONTINUOUS
 62
     3
 10
19764.01746958512
 20
18894.887645499999
 30
0.0
 11
19757.019871585129
 21
18894.887645499999
 31
0.0
  0
LINE
  5
12E0D
  8
2-0
  6
CONTINUOUS
 62
     3
 10
19757.019871585129
 20
18894.887645499999
 30
0.0
 11
19757.019871585129
 21
18899.887909500001
 31
0.0
  0
LINE
  5
12E0E
  8
2-0
  6
CONTINUOUS
 62
     3
 10
19757.019871585129
 20
18899.887909500001
 30
0.0
 11
19782.013273585129
 21
18899.887909500001
 31
0.0
  0
LINE
  5
12E0F
  8
2-0
  6
CONTINUOUS
 62
     3
 10
19782.013273585129
 20
18899.887909500001
 30
0.0
 11
19782.013273585129
 21
18881.892105499999
 31
0.0
  0
LINE
  5
12E10
  8
2-0
  6
CONTINUOUS
 62
     3
 10
19782.013273585129
 20
18881.892105499999
 30
0.0
 11
19752.015648585129
 21
18881.892105499999
 31
0.0
  0
LINE
  5
12E11
  8
2-0
  6
CONTINUOUS
 62
     3
 10
19782.013273585129
 20
18897.983612499971
 30
0.0
 11
19782.013273585129
 21
18891.985671499999
 31
0.0
  0
LINE
  5
12E12
  8
2-0
  6
CONTINUOUS
 62
     3
 10
19782.013273585129
 20
18891.985671499999
 30
0.0
 11
19752.015648585129
 21
18891.985671499999
 31
0.0
  0
LINE
  5
12E13
  8
2-0
  6
CONTINUOUS
 62
     3
 10
19752.015648585129
 20
18891.985671499999
 30
0.0
 11
19752.015648585129
 21
18928.98683250001
 31
0.0
  0
LINE
  5
12E14
  8
2-0
  6
CONTINUOUS
 62
     3
 10
19782.013273585129
 20
18928.98683250001
 30
0.0
 11
19752.015648585129
 21
18928.98683250001
 31
0.0
  0
LINE
  5
12E15
  8
2-0
  6
CONTINUOUS
 62
     3
 10
19782.013273585129
 20
18922.982952499991
 30
0.0
 11
19782.013273585129
 21
18928.98683250001
 31
0.0
  0
LINE
  5
12E16
  8
2-0
  6
CONTINUOUS
 62
     3
 10
19782.013273585129
 20
18939.082377499992
 30
0.0
 11
19752.015648585129
 21
18939.082377499992
 31
0.0
  0
LINE
  5
12E17
  8
2-0
  6
CONTINUOUS
 62
     3
 10
19782.013273585129
 20
18921.080635499999
 30
0.0
 11
19782.013273585129
 21
18939.082377499992
 31
0.0
  0
LINE
  5
12E18
  8
2-0
  6
CONTINUOUS
 62
     3
 10
19757.019871585129
 20
18921.080635499999
 30
0.0
 11
19782.013273585129
 21
18921.080635499999
 31
0.0
  0
LINE
  5
12E19
  8
2-0
  6
CONTINUOUS
 62
     3
 10
19757.019871585129
 20
18926.080899500001
 30
0.0
 11
19757.019871585129
 21
18921.080635499999
 31
0.0
  0
LINE
  5
12E1A
  8
2-0
  6
CONTINUOUS
 62
     3
 10
19764.01746958512
 20
18926.080899500001
 30
0.0
 11
19757.019871585129
 21
18926.080899500001
 31
0.0
  0
LINE
  5
12E1B
  8
2-0
  6
CONTINUOUS
 62
     3
 10
19764.01746958512
 20
18193.88665600001
 30
0.0
 11
19757.019871585129
 21
18193.88665600001
 31
0.0
  0
LINE
  5
12E1C
  8
2-0
  6
CONTINUOUS
 62
     3
 10
19757.019871585129
 20
18193.88665600001
 30
0.0
 11
19757.019871585129
 21
18198.892857999999
 31
0.0
  0
LINE
  5
12E1D
  8
2-0
  6
CONTINUOUS
 62
     3
 10
19757.019871585129
 20
18198.892857999999
 30
0.0
 11
19782.013273585129
 21
18198.892857999999
 31
0.0
  0
LINE
  5
12E1E
  8
2-0
  6
CONTINUOUS
 62
     3
 10
19782.013273585129
 20
18198.892857999999
 30
0.0
 11
19782.013273585129
 21
18180.89111600001
 31
0.0
  0
LINE
  5
12E1F
  8
2-0
  6
CONTINUOUS
 62
     3
 10
19782.013273585129
 20
18180.89111600001
 30
0.0
 11
19752.015648585129
 21
18180.89111600001
 31
0.0
  0
LINE
  5
12E20
  8
2-0
  6
CONTINUOUS
 62
     3
 10
19782.013273585129
 20
18196.982623
 30
0.0
 11
19782.013273585129
 21
18190.986660999999
 31
0.0
  0
LINE
  5
12E21
  8
2-0
  6
CONTINUOUS
 62
     3
 10
19782.013273585129
 20
18190.986660999999
 30
0.0
 11
19752.015648585129
 21
18190.986660999999
 31
0.0
  0
LINE
  5
12E22
  8
2-0
  6
CONTINUOUS
 62
     3
 10
19752.015648585129
 20
18190.986660999999
 30
0.0
 11
19752.015648585129
 21
18227.985842999999
 31
0.0
  0
LINE
  5
12E23
  8
2-0
  6
CONTINUOUS
 62
     3
 10
19782.013273585129
 20
18227.985842999999
 30
0.0
 11
19752.015648585129
 21
18227.985842999999
 31
0.0
  0
LINE
  5
12E24
  8
2-0
  6
CONTINUOUS
 62
     3
 10
19782.013273585129
 20
18221.989881000001
 30
0.0
 11
19782.013273585129
 21
18227.985842999999
 31
0.0
  0
LINE
  5
12E25
  8
2-0
  6
CONTINUOUS
 62
     3
 10
19782.013273585129
 20
18238.08138800001
 30
0.0
 11
19752.015648585129
 21
18238.08138800001
 31
0.0
  0
LINE
  5
12E26
  8
2-0
  6
CONTINUOUS
 62
     3
 10
19782.013273585129
 20
18220.079645999991
 30
0.0
 11
19782.013273585129
 21
18238.08138800001
 31
0.0
  0
LINE
  5
12E27
  8
2-0
  6
CONTINUOUS
 62
     3
 10
19757.019871585129
 20
18220.079645999991
 30
0.0
 11
19782.013273585129
 21
18220.079645999991
 31
0.0
  0
LINE
  5
12E28
  8
2-0
  6
CONTINUOUS
 62
     3
 10
19757.019871585129
 20
18225.085847999999
 30
0.0
 11
19757.019871585129
 21
18220.079645999991
 31
0.0
  0
LINE
  5
12E29
  8
2-0
  6
CONTINUOUS
 62
     3
 10
19764.01746958512
 20
18225.085847999999
 30
0.0
 11
19757.019871585129
 21
18225.085847999999
 31
0.0
  0
LINE
  5
12E2A
  8
2-0
  6
CONTINUOUS
 62
     3
 10
19764.01746958512
 20
17524.07991
 30
0.0
 11
19757.019871585129
 21
17524.07991
 31
0.0
  0
LINE
  5
12E2B
  8
2-0
  6
CONTINUOUS
 62
     3
 10
19757.019871585129
 20
17524.07991
 30
0.0
 11
19757.019871585129
 21
17519.09152300001
 31
0.0
  0
LINE
  5
12E2C
  8
2-0
  6
CONTINUOUS
 62
     3
 10
19757.019871585129
 20
17519.09152300001
 30
0.0
 11
19782.013273585129
 21
17519.09152300001
 31
0.0
  0
LINE
  5
12E2D
  8
2-0
  6
CONTINUOUS
 62
     3
 10
19782.013273585129
 20
17519.09152300001
 30
0.0
 11
19782.013273585129
 21
17537.087326000012
 31
0.0
  0
LINE
  5
12E2E
  8
2-0
  6
CONTINUOUS
 62
     3
 10
19782.013273585129
 20
17537.087326000012
 30
0.0
 11
19752.015648585129
 21
17537.087326000012
 31
0.0
  0
LINE
  5
12E2F
  8
2-0
  6
CONTINUOUS
 62
     3
 10
19782.013273585129
 20
17520.989881000001
 30
0.0
 11
19782.013273585129
 21
17526.985842999991
 31
0.0
  0
LINE
  5
12E30
  8
2-0
  6
CONTINUOUS
 62
     3
 10
19782.013273585129
 20
17526.985842999991
 30
0.0
 11
19752.015648585129
 21
17526.985842999991
 31
0.0
  0
LINE
  5
12E31
  8
2-0
  6
CONTINUOUS
 62
     3
 10
19752.015648585129
 20
17526.985842999991
 30
0.0
 11
19752.015648585129
 21
17489.98666100001
 31
0.0
  0
LINE
  5
12E32
  8
2-0
  6
CONTINUOUS
 62
     3
 10
19782.013273585129
 20
17489.98666100001
 30
0.0
 11
19752.015648585129
 21
17489.98666100001
 31
0.0
  0
LINE
  5
12E33
  8
2-0
  6
CONTINUOUS
 62
     3
 10
19782.013273585129
 20
17495.988561999999
 30
0.0
 11
19782.013273585129
 21
17489.98666100001
 31
0.0
  0
LINE
  5
12E34
  8
2-0
  6
CONTINUOUS
 62
     3
 10
19782.013273585129
 20
17479.897055000001
 30
0.0
 11
19752.015648585129
 21
17479.897055000001
 31
0.0
  0
LINE
  5
12E35
  8
2-0
  6
CONTINUOUS
 62
     3
 10
19782.013273585129
 20
17497.892857999999
 30
0.0
 11
19782.013273585129
 21
17479.897055000001
 31
0.0
  0
LINE
  5
12E36
  8
2-0
  6
CONTINUOUS
 62
     3
 10
19757.019871585129
 20
17497.892857999999
 30
0.0
 11
19782.013273585129
 21
17497.892857999999
 31
0.0
  0
LINE
  5
12E37
  8
2-0
  6
CONTINUOUS
 62
     3
 10
19757.019871585129
 20
17492.892595000001
 30
0.0
 11
19757.019871585129
 21
17497.892857999999
 31
0.0
  0
LINE
  5
12E38
  8
2-0
  6
CONTINUOUS
 62
     3
 10
19764.01746958512
 20
17492.892595000001
 30
0.0
 11
19757.019871585129
 21
17492.892595000001
 31
0.0
  0
LINE
  5
12E39
  8
2-0
  6
CONTINUOUS
 62
     3
 10
19754.901786585138
 20
16772.98348100001
 30
0.0
 11
19754.901786585138
 21
16792.984536000011
 31
0.0
  0
LINE
  5
12E3A
  8
2-0
  6
CONTINUOUS
 62
     3
 10
19754.901786585138
 20
16792.984536000011
 30
0.0
 11
19839.902314585139
 21
16792.984536000011
 31
0.0
  0
LINE
  5
12E3B
  8
2-0
  6
CONTINUOUS
 62
     3
 10
19764.01746958512
 20
16819.591246000022
 30
0.0
 11
19757.019871585129
 21
16819.591246000022
 31
0.0
  0
LINE
  5
12E3C
  8
2-0
  6
CONTINUOUS
 62
     3
 10
19757.019871585129
 20
16819.591246000022
 30
0.0
 11
19757.019871585129
 21
16814.596920000022
 31
0.0
  0
LINE
  5
12E3D
  8
2-0
  6
CONTINUOUS
 62
     3
 10
19757.019871585129
 20
16814.596920000022
 30
0.0
 11
19782.013273585129
 21
16814.596920000022
 31
0.0
  0
LINE
  5
12E3E
  8
2-0
  6
CONTINUOUS
 62
     3
 10
19782.013273585129
 20
16814.596920000022
 30
0.0
 11
19782.013273585129
 21
16832.592724000009
 31
0.0
  0
LINE
  5
12E3F
  8
2-0
  6
CONTINUOUS
 62
     3
 10
19782.013273585129
 20
16832.592724000009
 30
0.0
 11
19752.015648585129
 21
16832.592724000009
 31
0.0
  0
LINE
  5
12E40
  8
2-0
  6
CONTINUOUS
 62
     3
 10
19782.013273585129
 20
16822.98414
 30
0.0
 11
19782.013273585129
 21
16816.982240000001
 31
0.0
  0
LINE
  5
12E41
  8
2-0
  6
CONTINUOUS
 62
     3
 10
19752.015648585129
 20
16822.98414
 30
0.0
 11
19782.013273585129
 21
16822.98414
 31
0.0
  0
LINE
  5
12E42
  8
2-0
  6
CONTINUOUS
 62
     3
 10
19752.015648585129
 20
16832.592724000009
 30
0.0
 11
19752.015648585129
 21
17479.897055000001
 31
0.0
  0
LINE
  5
12E43
  8
2-0
  6
CONTINUOUS
 62
     3
 10
19752.015648585129
 20
17537.087326000012
 30
0.0
 11
19752.015648585129
 21
18180.89111600001
 31
0.0
  0
LINE
  5
12E44
  8
2-0
  6
CONTINUOUS
 62
     3
 10
19752.015648585129
 20
16677.98242500002
 30
0.0
 11
19782.013273585129
 21
16677.98242500002
 31
0.0
  0
LINE
  5
12E45
  8
2-0
  6
CONTINUOUS
 62
     3
 10
19782.013273585129
 20
16677.98242500002
 30
0.0
 11
19782.013273585129
 21
16683.984325000001
 31
0.0
  0
LINE
  5
12E46
  8
2-0
  6
CONTINUOUS
 62
     3
 10
19839.902314585139
 20
16707.987968000001
 30
0.0
 11
19754.901786585138
 21
16707.987968000001
 31
0.0
  0
LINE
  5
12E47
  8
2-0
  6
CONTINUOUS
 62
     3
 10
19754.901786585138
 20
16707.987968000001
 30
0.0
 11
19754.901786585138
 21
16727.983085000011
 31
0.0
  0
LINE
  5
12E48
  8
2-0
  6
CONTINUOUS
 62
     3
 10
19782.013273585129
 20
16668.373842000012
 30
0.0
 11
19752.015648585129
 21
16668.373842000012
 31
0.0
  0
LINE
  5
12E49
  8
2-0
  6
CONTINUOUS
 62
     3
 10
19782.013273585129
 20
16686.369644999992
 30
0.0
 11
19782.013273585129
 21
16668.373842000012
 31
0.0
  0
LINE
  5
12E4A
  8
2-0
  6
CONTINUOUS
 62
     3
 10
19757.019871585129
 20
16686.369644999992
 30
0.0
 11
19782.013273585129
 21
16686.369644999992
 31
0.0
  0
LINE
  5
12E4B
  8
2-0
  6
CONTINUOUS
 62
     3
 10
19757.019871585129
 20
16681.369381000019
 30
0.0
 11
19757.019871585129
 21
16686.369644999992
 31
0.0
  0
LINE
  5
12E4C
  8
2-0
  6
CONTINUOUS
 62
     3
 10
19764.01746958512
 20
16681.369381000019
 30
0.0
 11
19757.019871585129
 21
16681.369381000019
 31
0.0
  0
LINE
  5
12E4D
  8
2-0
  6
CONTINUOUS
 62
     3
 10
19764.01746958512
 20
15976.88715049999
 30
0.0
 11
19757.019871585129
 21
15976.88715049999
 31
0.0
  0
LINE
  5
12E4E
  8
2-0
  6
CONTINUOUS
 62
     3
 10
19757.019871585129
 20
15976.88715049999
 30
0.0
 11
19757.019871585129
 21
15981.887414500001
 31
0.0
  0
LINE
  5
12E4F
  8
2-0
  6
CONTINUOUS
 62
     3
 10
19757.019871585129
 20
15981.887414500001
 30
0.0
 11
19782.013273585129
 21
15981.887414500001
 31
0.0
  0
LINE
  5
12E50
  8
2-0
  6
CONTINUOUS
 62
     3
 10
19782.013273585129
 20
15981.887414500001
 30
0.0
 11
19782.013273585129
 21
15963.88567250001
 31
0.0
  0
LINE
  5
12E51
  8
2-0
  6
CONTINUOUS
 62
     3
 10
19782.013273585129
 20
15963.88567250001
 30
0.0
 11
19752.015648585129
 21
15963.88567250001
 31
0.0
  0
LINE
  5
12E52
  8
2-0
  6
CONTINUOUS
 62
     3
 10
19782.013273585129
 20
15979.983117500011
 30
0.0
 11
19782.013273585129
 21
15973.98616650001
 31
0.0
  0
LINE
  5
12E53
  8
2-0
  6
CONTINUOUS
 62
     3
 10
19782.013273585129
 20
15973.98616650001
 30
0.0
 11
19752.015648585129
 21
15973.98616650001
 31
0.0
  0
LINE
  5
12E54
  8
2-0
  6
CONTINUOUS
 62
     3
 10
19752.015648585129
 20
15973.98616650001
 30
0.0
 11
19752.015648585129
 21
16010.98633750001
 31
0.0
  0
LINE
  5
12E55
  8
2-0
  6
CONTINUOUS
 62
     3
 10
19782.013273585129
 20
16010.98633750001
 30
0.0
 11
19752.015648585129
 21
16010.98633750001
 31
0.0
  0
LINE
  5
12E56
  8
2-0
  6
CONTINUOUS
 62
     3
 10
19782.013273585129
 20
16004.983447500001
 30
0.0
 11
19782.013273585129
 21
16010.98633750001
 31
0.0
  0
LINE
  5
12E57
  8
2-0
  6
CONTINUOUS
 62
     3
 10
19782.013273585129
 20
16021.08188250001
 30
0.0
 11
19752.015648585129
 21
16021.08188250001
 31
0.0
  0
LINE
  5
12E58
  8
2-0
  6
CONTINUOUS
 62
     3
 10
19782.013273585129
 20
16003.074201500011
 30
0.0
 11
19782.013273585129
 21
16021.08188250001
 31
0.0
  0
LINE
  5
12E59
  8
2-0
  6
CONTINUOUS
 62
     3
 10
19757.019871585129
 20
16003.074201500011
 30
0.0
 11
19782.013273585129
 21
16003.074201500011
 31
0.0
  0
LINE
  5
12E5A
  8
2-0
  6
CONTINUOUS
 62
     3
 10
19757.019871585129
 20
16008.08040450001
 30
0.0
 11
19757.019871585129
 21
16003.074201500011
 31
0.0
  0
LINE
  5
12E5B
  8
2-0
  6
CONTINUOUS
 62
     3
 10
19764.01746958512
 20
16008.08040450001
 30
0.0
 11
19757.019871585129
 21
16008.08040450001
 31
0.0
  0
LINE
  5
12E5C
  8
2-0
  6
CONTINUOUS
 62
     3
 10
19764.01746958512
 20
15307.32042100002
 30
0.0
 11
19757.019871585129
 21
15307.32042100002
 31
0.0
  0
LINE
  5
12E5D
  8
2-0
  6
CONTINUOUS
 62
     3
 10
19757.019871585129
 20
15307.32042100002
 30
0.0
 11
19757.019871585129
 21
15302.326096000021
 31
0.0
  0
LINE
  5
12E5E
  8
2-0
  6
CONTINUOUS
 62
     3
 10
19757.019871585129
 20
15302.326096000021
 30
0.0
 11
19782.013273585129
 21
15302.326096000021
 31
0.0
  0
LINE
  5
12E5F
  8
2-0
  6
CONTINUOUS
 62
     3
 10
19782.013273585129
 20
15302.326096000021
 30
0.0
 11
19782.013273585129
 21
15320.32189900002
 31
0.0
  0
LINE
  5
12E60
  8
2-0
  6
CONTINUOUS
 62
     3
 10
19782.013273585129
 20
15320.32189900002
 30
0.0
 11
19752.015648585129
 21
15320.32189900002
 31
0.0
  0
LINE
  5
12E61
  8
2-0
  6
CONTINUOUS
 62
     3
 10
19782.013273585129
 20
15304.22445400001
 30
0.0
 11
19782.013273585129
 21
15310.22635400002
 31
0.0
  0
LINE
  5
12E62
  8
2-0
  6
CONTINUOUS
 62
     3
 10
19782.013273585129
 20
15310.22635400002
 30
0.0
 11
19752.015648585129
 21
15310.22635400002
 31
0.0
  0
LINE
  5
12E63
  8
2-0
  6
CONTINUOUS
 62
     3
 10
19752.015648585129
 20
15273.22717300003
 30
0.0
 11
19752.015648585129
 21
15310.22635400002
 31
0.0
  0
LINE
  5
12E64
  8
2-0
  6
CONTINUOUS
 62
     3
 10
19782.013273585129
 20
15273.22717300003
 30
0.0
 11
19752.015648585129
 21
15273.22717300003
 31
0.0
  0
LINE
  5
12E65
  8
2-0
  6
CONTINUOUS
 62
     3
 10
19782.013273585129
 20
15279.224124000009
 30
0.0
 11
19782.013273585129
 21
15273.22717300003
 31
0.0
  0
LINE
  5
12E66
  8
2-0
  6
CONTINUOUS
 62
     3
 10
19782.013273585129
 20
15263.12568900001
 30
0.0
 11
19752.015648585129
 21
15263.12568900001
 31
0.0
  0
LINE
  5
12E67
  8
2-0
  6
CONTINUOUS
 62
     3
 10
19782.013273585129
 20
15281.13337000001
 30
0.0
 11
19782.013273585129
 21
15263.12568900001
 31
0.0
  0
LINE
  5
12E68
  8
2-0
  6
CONTINUOUS
 62
     3
 10
19757.019871585129
 20
15281.13337000001
 30
0.0
 11
19782.013273585129
 21
15281.13337000001
 31
0.0
  0
LINE
  5
12E69
  8
2-0
  6
CONTINUOUS
 62
     3
 10
19757.019871585129
 20
15276.13310600003
 30
0.0
 11
19757.019871585129
 21
15281.13337000001
 31
0.0
  0
LINE
  5
12E6A
  8
2-0
  6
CONTINUOUS
 62
     3
 10
19764.01746958512
 20
15276.13310600003
 30
0.0
 11
19757.019871585129
 21
15276.13310600003
 31
0.0
  0
LINE
  5
12E6B
  8
2-0
  6
CONTINUOUS
 62
     3
 10
19752.015648585129
 20
16668.373842000012
 30
0.0
 11
19752.015648585129
 21
16021.08188250001
 31
0.0
  0
LINE
  5
12E6C
  8
2-0
  6
CONTINUOUS
 62
     3
 10
19752.015648585129
 20
16822.98414
 30
0.0
 11
19752.015648585129
 21
16677.98242500002
 31
0.0
  0
LINE
  5
12E6D
  8
2-0
  6
CONTINUOUS
 62
     3
 10
19839.902314585139
 20
16792.984536000011
 30
0.0
 11
19839.902314585139
 21
16707.987968000001
 31
0.0
  0
LINE
  5
12E6E
  8
2-0
  6
CONTINUOUS
 62
     3
 10
19764.01746958512
 20
14574.89209900001
 30
0.0
 11
19757.019871585129
 21
14574.89209900001
 31
0.0
  0
LINE
  5
12E6F
  8
2-0
  6
CONTINUOUS
 62
     3
 10
19757.019871585129
 20
14574.89209900001
 30
0.0
 11
19757.019871585129
 21
14579.886425000021
 31
0.0
  0
LINE
  5
12E70
  8
2-0
  6
CONTINUOUS
 62
     3
 10
19757.019871585129
 20
14579.886425000021
 30
0.0
 11
19782.013273585129
 21
14579.886425000021
 31
0.0
  0
LINE
  5
12E71
  8
2-0
  6
CONTINUOUS
 62
     3
 10
19782.013273585129
 20
14579.886425000021
 30
0.0
 11
19782.013273585129
 21
14561.89062100002
 31
0.0
  0
LINE
  5
12E72
  8
2-0
  6
CONTINUOUS
 62
     3
 10
19782.013273585129
 20
14561.89062100002
 30
0.0
 11
19752.015648585129
 21
14561.89062100002
 31
0.0
  0
LINE
  5
12E73
  8
2-0
  6
CONTINUOUS
 62
     3
 10
19782.013273585129
 20
14577.98905600002
 30
0.0
 11
19782.013273585129
 21
14571.986166000021
 31
0.0
  0
LINE
  5
12E74
  8
2-0
  6
CONTINUOUS
 62
     3
 10
19782.013273585129
 20
14571.986166000021
 30
0.0
 11
19752.015648585129
 21
14571.986166000021
 31
0.0
  0
LINE
  5
12E75
  8
2-0
  6
CONTINUOUS
 62
     3
 10
19752.015648585129
 20
14571.986166000021
 30
0.0
 11
19752.015648585129
 21
14608.986338000001
 31
0.0
  0
LINE
  5
12E76
  8
2-0
  6
CONTINUOUS
 62
     3
 10
19782.013273585129
 20
14608.986338000001
 30
0.0
 11
19752.015648585129
 21
14608.986338000001
 31
0.0
  0
LINE
  5
12E77
  8
2-0
  6
CONTINUOUS
 62
     3
 10
19782.013273585129
 20
14602.98938600001
 30
0.0
 11
19782.013273585129
 21
14608.986338000001
 31
0.0
  0
LINE
  5
12E78
  8
2-0
  6
CONTINUOUS
 62
     3
 10
19782.013273585129
 20
14619.086831000021
 30
0.0
 11
19752.015648585129
 21
14619.086831000021
 31
0.0
  0
LINE
  5
12E79
  8
2-0
  6
CONTINUOUS
 62
     3
 10
19782.013273585129
 20
14601.08014000002
 30
0.0
 11
19782.013273585129
 21
14619.086831000021
 31
0.0
  0
LINE
  5
12E7A
  8
2-0
  6
CONTINUOUS
 62
     3
 10
19757.019871585129
 20
14601.08014000002
 30
0.0
 11
19782.013273585129
 21
14601.08014000002
 31
0.0
  0
LINE
  5
12E7B
  8
2-0
  6
CONTINUOUS
 62
     3
 10
19757.019871585129
 20
14606.08535300002
 30
0.0
 11
19757.019871585129
 21
14601.08014000002
 31
0.0
  0
LINE
  5
12E7C
  8
2-0
  6
CONTINUOUS
 62
     3
 10
19764.01746958512
 20
14606.08535300002
 30
0.0
 11
19757.019871585129
 21
14606.08535300002
 31
0.0
  0
LINE
  5
12E7D
  8
2-0
  6
CONTINUOUS
 62
     3
 10
19782.013273585129
 20
13898.988179000011
 30
0.0
 11
19782.013273585129
 21
13904.993048000009
 31
0.0
  0
LINE
  5
12E7E
  8
2-0
  6
CONTINUOUS
 62
     3
 10
19782.013273585129
 20
13904.993048000009
 30
0.0
 11
19752.015648585129
 21
13904.993048000009
 31
0.0
  0
LINE
  5
12E7F
  8
2-0
  6
CONTINUOUS
 62
     3
 10
19752.015648585129
 20
13904.993048000009
 30
0.0
 11
19752.015648585129
 21
13789.98895700001
 31
0.0
  0
LINE
  5
12E80
  8
2-0
  6
CONTINUOUS
 62
     3
 10
19752.015648585129
 20
13789.98895700001
 30
0.0
 11
19837.014196585129
 21
13789.98895700001
 31
0.0
  0
LINE
  5
12E81
  8
2-0
  6
CONTINUOUS
 62
     3
 10
19837.014196585129
 20
13789.98895700001
 30
0.0
 11
19837.014196585129
 21
13874.984536000011
 31
0.0
  0
LINE
  5
12E82
  8
2-0
  6
CONTINUOUS
 62
     3
 10
19837.014196585129
 20
13874.984536000011
 30
0.0
 11
19805.017258585129
 21
13874.984536000011
 31
0.0
  0
LINE
  5
12E83
  8
2-0
  6
CONTINUOUS
 62
     3
 10
19764.01746958512
 20
13902.022781000011
 30
0.0
 11
19757.019871585129
 21
13902.022781000011
 31
0.0
  0
LINE
  5
12E84
  8
2-0
  6
CONTINUOUS
 62
     3
 10
19757.019871585129
 20
13902.022781000011
 30
0.0
 11
19757.019871585129
 21
13897.02548599999
 31
0.0
  0
LINE
  5
12E85
  8
2-0
  6
CONTINUOUS
 62
     3
 10
19757.019871585129
 20
13897.02548599999
 30
0.0
 11
19782.013273585129
 21
13897.02548599999
 31
0.0
  0
LINE
  5
12E86
  8
2-0
  6
CONTINUOUS
 62
     3
 10
19782.013273585129
 20
13897.02548599999
 30
0.0
 11
19782.013273585129
 21
13915.024259000011
 31
0.0
  0
LINE
  5
12E87
  8
2-0
  6
CONTINUOUS
 62
     3
 10
19782.013273585129
 20
13915.024259000011
 30
0.0
 11
19752.015648585129
 21
13915.024259000011
 31
0.0
  0
LINE
  5
12E88
  8
2-0
  6
CONTINUOUS
 62
     3
 10
19752.015648585129
 20
14619.086831000021
 30
0.0
 11
19752.015648585129
 21
15263.12568900001
 31
0.0
  0
LINE
  5
12E89
  8
2-0
  6
CONTINUOUS
 62
     3
 10
19752.015648585129
 20
18238.08138800001
 30
0.0
 11
19752.015648585129
 21
18881.892105499999
 31
0.0
  0
LINE
  5
12E8A
  8
2-0
  6
CONTINUOUS
 62
     3
 10
19843.01807658514
 20
18166.984997999971
 30
0.0
 11
19796.014407585149
 21
18166.984997999971
 31
0.0
  0
LINE
  5
12E8B
  8
2-0
  6
CONTINUOUS
 62
     3
 10
19796.014407585149
 20
18251.985526000011
 30
0.0
 11
19843.01807658514
 21
18251.985526000011
 31
0.0
  0
LINE
  5
12E8C
  8
2-0
  6
CONTINUOUS
 62
     3
 10
19796.014407585149
 20
18166.984997999971
 30
0.0
 11
19796.014407585149
 21
18191.988297000011
 31
0.0
  0
LINE
  5
12E8D
  8
2-0
  6
CONTINUOUS
 62
     3
 10
19796.014407585149
 20
18226.984206000001
 30
0.0
 11
19796.014407585149
 21
18251.985526000011
 31
0.0
  0
LINE
  5
12E8E
  8
2-0
  6
CONTINUOUS
 62
     3
 10
19843.01807658514
 20
18251.985526000011
 30
0.0
 11
19843.01807658514
 21
18166.984997999971
 31
0.0
  0
LINE
  5
12E8F
  8
2-0
  6
CONTINUOUS
 62
     3
 10
19752.015648585129
 20
15963.88567250001
 30
0.0
 11
19752.015648585129
 21
15320.32189900002
 31
0.0
  0
LINE
  5
12E90
  8
2-0
  6
CONTINUOUS
 62
     3
 10
19843.01807658514
 20
15248.98796800001
 30
0.0
 11
19796.014407585149
 21
15248.98796800001
 31
0.0
  0
LINE
  5
12E91
  8
2-0
  6
CONTINUOUS
 62
     3
 10
19796.014407585149
 20
15333.984536
 30
0.0
 11
19843.01807658514
 21
15333.984536
 31
0.0
  0
LINE
  5
12E92
  8
2-0
  6
CONTINUOUS
 62
     3
 10
19796.014407585149
 20
15248.98796800001
 30
0.0
 11
19796.014407585149
 21
15273.98334900002
 31
0.0
  0
LINE
  5
12E93
  8
2-0
  6
CONTINUOUS
 62
     3
 10
19796.014407585149
 20
15308.983217000021
 30
0.0
 11
19796.014407585149
 21
15333.984536
 31
0.0
  0
LINE
  5
12E94
  8
2-0
  6
CONTINUOUS
 62
     3
 10
19843.01807658514
 20
15333.984536
 30
0.0
 11
19843.01807658514
 21
15248.98796800001
 31
0.0
  0
LINE
  5
12E95
  8
2-0
  6
CONTINUOUS
 62
     3
 10
22404.510237585131
 20
19245.488364000019
 30
0.0
 11
22404.510237585131
 21
19360.484537000018
 31
0.0
  0
LINE
  5
12E96
  8
2-0
  6
CONTINUOUS
 62
     3
 10
19752.015648585129
 20
19275.487968000001
 30
0.0
 11
22323.508337585132
 21
19275.487968000001
 31
0.0
  0
LINE
  5
12E97
  8
2-0
  6
CONTINUOUS
 62
     3
 10
19752.015648585129
 20
13915.024259000011
 30
0.0
 11
19752.015648585129
 21
14561.89062100002
 31
0.0
  0
LINE
  5
12E98
  8
2-0
  6
CONTINUOUS
 62
     3
 10
22404.510237585131
 20
19235.190908000011
 30
0.0
 11
22404.510237585131
 21
18939.082377499999
 31
0.0
  0
LINE
  5
12E99
  8
2-0
  6
CONTINUOUS
 62
     3
 10
19752.015648585129
 20
19235.190908000011
 30
0.0
 11
19752.015648585129
 21
18939.082377499992
 31
0.0
  0
LINE
  5
12E9A
  8
2-0
  6
CONTINUOUS
 62
     3
 10
19833.013589585149
 20
13874.984536000011
 30
0.0
 11
19833.013589585149
 21
19360.484537000018
 31
0.0
  0
LINE
  5
12E9B
  8
2-0
  6
CONTINUOUS
 62
     3
 10
22323.508337585132
 20
13874.984536000011
 30
0.0
 11
22323.508337585132
 21
19360.484537000018
 31
0.0
  0
TEXT
  5
12E9C
  8
2-0
  6
CONTINUOUS
 62
     7
 10
20565.666646590911
 20
13272.49046700269
 30
0.0
 40
160.0
  1
前柱（右）
 50
359.99978700000003
 72
     4
 11
20981.666943992139
 21
13352.4889205008
 31
0.0
  0
TEXT
  5
12E9D
  8
2-0
  6
CONTINUOUS
 62
     7
 10
20559.63409425495
 20
17951.607153074601
 30
0.0
 40
160.0
  1
補強柱 後
 50
0.0001580000002033
 72
     4
 11
20970.300540310429
 21
18031.608285537
 31
0.0
  0
TEXT
  5
12E9E
  8
2-0
  6
CONTINUOUS
 62
     7
 10
20467.738190255281
 20
16200.97714927653
 30
0.0
 40
160.0
  1
壁パネル
 50
0.0001770000000167
 72
     4
 11
20830.404609781592
 21
16280.978269637901
 31
0.0
  0
TEXT
  5
12E9F
  8
2-0
  6
CONTINUOUS
 62
     7
 10
20438.407760938251
 20
17038.173678652369
 30
0.0
 40
160.0
  1
中柱（左右）
 50
359.99964599999998
 72
     4
 11
20955.741588538949
 21
17118.170482324669
 31
0.0
  0
TEXT
  5
12EA0
  8
2-0
  6
CONTINUOUS
 62
     7
 10
20451.738850310569
 20
14245.53497270612
 30
0.0
 40
160.0
  1
下枠
 50
359.99893700000001
 72
     4
 11
20622.407001175859
 21
14325.531806339301
 31
0.0
  0
TEXT
  5
12EA1
  8
2-0
  6
CONTINUOUS
 62
     7
 10
20559.634094301469
 20
15033.840897968341
 30
0.0
 40
160.0
  1
補強柱 前
 50
0.0006300000000081
 72
     4
 11
20970.299881297371
 21
15113.845413479339
 31
0.0
  0
TEXT
  5
12EA2
  8
2-0
  6
CONTINUOUS
 62
     7
 10
20455.440092918481
 20
18641.436024499999
 30
0.0
 40
160.0
  1
間柱（側）
 72
     4
 11
20876.77342625181
 21
18721.436024499999
 31
0.0
  0
TEXT
  5
12EA3
  8
2-0
  6
CONTINUOUS
 62
     7
 10
17955.51644060469
 20
20170.490071748751
 30
0.0
 40
160.0
  1
後柱（左右）
 50
359.99964599999998
 72
     4
 11
18467.516934872168
 21
20250.486908372859
 31
0.0
  0
LINE
  5
12EA4
  8
2-0
  6
CONTINUOUS
 62
     3
 10
21622.512534585108
 20
19360.484537000018
 30
0.0
 11
21585.511372585141
 21
19360.484537000018
 31
0.0
  0
LINE
  5
12EA5
  8
2-0
  6
CONTINUOUS
 62
     3
 10
21622.512534585108
 20
19330.48097400002
 30
0.0
 11
21622.512534585108
 21
19360.484537000018
 31
0.0
  0
LINE
  5
12EA6
  8
2-0
  6
CONTINUOUS
 62
     3
 10
21616.51261358511
 20
19330.48097400002
 30
0.0
 11
21622.512534585108
 21
19330.48097400002
 31
0.0
  0
LINE
  5
12EA7
  8
2-0
  6
CONTINUOUS
 62
     3
 10
21632.610058585142
 20
19330.48097400002
 30
0.0
 11
21632.610058585142
 21
19360.484537000018
 31
0.0
  0
LINE
  5
12EA8
  8
2-0
  6
CONTINUOUS
 62
     3
 10
21614.606337585152
 20
19330.48097400002
 30
0.0
 11
21632.610058585142
 21
19330.48097400002
 31
0.0
  0
LINE
  5
12EA9
  8
2-0
  6
CONTINUOUS
 62
     3
 10
21614.606337585152
 20
19355.490211000018
 30
0.0
 11
21614.606337585152
 21
19330.48097400002
 31
0.0
  0
LINE
  5
12EAA
  8
2-0
  6
CONTINUOUS
 62
     3
 10
21619.60660158515
 20
19355.490211000018
 30
0.0
 11
21614.606337585152
 21
19355.490211000018
 31
0.0
  0
LINE
  5
12EAB
  8
2-0
  6
CONTINUOUS
 62
     3
 10
21619.60660158515
 20
19348.48469500001
 30
0.0
 11
21619.60660158515
 21
19355.490211000018
 31
0.0
  0
LINE
  5
12EAC
  8
2-0
  6
CONTINUOUS
 62
     3
 10
21588.417306585128
 20
19348.48469500001
 30
0.0
 11
21588.417306585128
 21
19355.490211000018
 31
0.0
  0
LINE
  5
12EAD
  8
2-0
  6
CONTINUOUS
 62
     3
 10
21588.417306585128
 20
19355.490211000018
 30
0.0
 11
21593.417570585148
 21
19355.490211000018
 31
0.0
  0
LINE
  5
12EAE
  8
2-0
  6
CONTINUOUS
 62
     3
 10
21593.417570585148
 20
19355.490211000018
 30
0.0
 11
21593.417570585148
 21
19330.48097400002
 31
0.0
  0
LINE
  5
12EAF
  8
2-0
  6
CONTINUOUS
 62
     3
 10
21593.417570585148
 20
19330.48097400002
 30
0.0
 11
21575.417807585141
 21
19330.48097400002
 31
0.0
  0
LINE
  5
12EB0
  8
2-0
  6
CONTINUOUS
 62
     3
 10
21575.417807585141
 20
19330.48097400002
 30
0.0
 11
21575.417807585141
 21
19360.484537000018
 31
0.0
  0
LINE
  5
12EB1
  8
2-0
  6
CONTINUOUS
 62
     3
 10
21591.51129358515
 20
19330.48097400002
 30
0.0
 11
21585.511372585141
 21
19330.48097400002
 31
0.0
  0
LINE
  5
12EB2
  8
2-0
  6
CONTINUOUS
 62
     3
 10
21585.511372585141
 20
19330.48097400002
 30
0.0
 11
21585.511372585141
 21
19360.484537000018
 31
0.0
  0
LINE
  5
12EB3
  8
2-0
  6
CONTINUOUS
 62
     3
 10
20887.411368085141
 20
19348.48469500001
 30
0.0
 11
20887.411368085141
 21
19355.490211000018
 31
0.0
  0
LINE
  5
12EB4
  8
2-0
  6
CONTINUOUS
 62
     3
 10
20887.411368085141
 20
19355.490211000018
 30
0.0
 11
20892.41163108515
 21
19355.490211000018
 31
0.0
  0
LINE
  5
12EB5
  8
2-0
  6
CONTINUOUS
 62
     3
 10
20892.41163108515
 20
19355.490211000018
 30
0.0
 11
20892.41163108515
 21
19330.48097400002
 31
0.0
  0
LINE
  5
12EB6
  8
2-0
  6
CONTINUOUS
 62
     3
 10
20892.41163108515
 20
19330.48097400002
 30
0.0
 11
20874.417808085142
 21
19330.48097400002
 31
0.0
  0
LINE
  5
12EB7
  8
2-0
  6
CONTINUOUS
 62
     3
 10
20874.417808085142
 20
19330.48097400002
 30
0.0
 11
20874.417808085142
 21
19360.484537000018
 31
0.0
  0
LINE
  5
12EB8
  8
2-0
  6
CONTINUOUS
 62
     3
 10
20890.50931408512
 20
19330.48097400002
 30
0.0
 11
20884.511373085141
 21
19330.48097400002
 31
0.0
  0
LINE
  5
12EB9
  8
2-0
  6
CONTINUOUS
 62
     3
 10
20884.511373085141
 20
19330.48097400002
 30
0.0
 11
20884.511373085141
 21
19360.484537000018
 31
0.0
  0
LINE
  5
12EBA
  8
2-0
  6
CONTINUOUS
 62
     3
 10
20921.512534085148
 20
19360.484537000018
 30
0.0
 11
20884.511373085141
 21
19360.484537000018
 31
0.0
  0
LINE
  5
12EBB
  8
2-0
  6
CONTINUOUS
 62
     3
 10
20921.512534085148
 20
19330.48097400002
 30
0.0
 11
20921.512534085148
 21
19360.484537000018
 31
0.0
  0
LINE
  5
12EBC
  8
2-0
  6
CONTINUOUS
 62
     3
 10
20915.506675085151
 20
19330.48097400002
 30
0.0
 11
20921.512534085148
 21
19330.48097400002
 31
0.0
  0
LINE
  5
12EBD
  8
2-0
  6
CONTINUOUS
 62
     3
 10
20931.606099085151
 20
19330.48097400002
 30
0.0
 11
20931.606099085151
 21
19360.484537000018
 31
0.0
  0
LINE
  5
12EBE
  8
2-0
  6
CONTINUOUS
 62
     3
 10
20913.610296085139
 20
19330.48097400002
 30
0.0
 11
20931.606099085151
 21
19330.48097400002
 31
0.0
  0
LINE
  5
12EBF
  8
2-0
  6
CONTINUOUS
 62
     3
 10
20913.610296085139
 20
19355.490211000018
 30
0.0
 11
20913.610296085139
 21
19330.48097400002
 31
0.0
  0
LINE
  5
12EC0
  8
2-0
  6
CONTINUOUS
 62
     3
 10
20918.600662085151
 20
19355.490211000018
 30
0.0
 11
20913.610296085139
 21
19355.490211000018
 31
0.0
  0
LINE
  5
12EC1
  8
2-0
  6
CONTINUOUS
 62
     3
 10
20918.600662085151
 20
19348.48469500001
 30
0.0
 11
20918.600662085151
 21
19355.490211000018
 31
0.0
  0
LINE
  5
12EC2
  8
2-0
  6
CONTINUOUS
 62
     3
 10
20230.605109585151
 20
19360.484537000018
 30
0.0
 11
20874.417808085142
 21
19360.484537000018
 31
0.0
  0
LINE
  5
12EC3
  8
2-0
  6
CONTINUOUS
 62
     3
 10
22279.895583585148
 20
19360.484537000018
 30
0.0
 11
21632.610058585142
 21
19360.484537000018
 31
0.0
  0
LINE
  5
12EC4
  8
2-0
  6
CONTINUOUS
 62
     3
 10
21575.417807585141
 20
19360.484537000018
 30
0.0
 11
20931.606099085151
 21
19360.484537000018
 31
0.0
  0
LINE
  5
12EC5
  8
2-0
  6
CONTINUOUS
 62
     3
 10
20217.603631585142
 20
19348.48469500001
 30
0.0
 11
20217.603631585142
 21
19355.490211000018
 31
0.0
  0
LINE
  5
12EC6
  8
2-0
  6
CONTINUOUS
 62
     3
 10
20217.603631585142
 20
19355.490211000018
 30
0.0
 11
20212.603367585139
 21
19355.490211000018
 31
0.0
  0
LINE
  5
12EC7
  8
2-0
  6
CONTINUOUS
 62
     3
 10
20212.603367585139
 20
19355.490211000018
 30
0.0
 11
20212.603367585139
 21
19330.48097400002
 31
0.0
  0
LINE
  5
12EC8
  8
2-0
  6
CONTINUOUS
 62
     3
 10
20212.603367585139
 20
19330.48097400002
 30
0.0
 11
20230.605109585151
 21
19330.48097400002
 31
0.0
  0
LINE
  5
12EC9
  8
2-0
  6
CONTINUOUS
 62
     3
 10
20230.605109585151
 20
19330.48097400002
 30
0.0
 11
20230.605109585151
 21
19360.484537000018
 31
0.0
  0
LINE
  5
12ECA
  8
2-0
  6
CONTINUOUS
 62
     3
 10
20214.505684585161
 20
19330.48097400002
 30
0.0
 11
20220.50956458514
 21
19330.48097400002
 31
0.0
  0
LINE
  5
12ECB
  8
2-0
  6
CONTINUOUS
 62
     3
 10
20220.50956458514
 20
19330.48097400002
 30
0.0
 11
20220.50956458514
 21
19360.484537000018
 31
0.0
  0
LINE
  5
12ECC
  8
2-0
  6
CONTINUOUS
 62
     3
 10
20183.514342585131
 20
19360.484537000018
 30
0.0
 11
20220.50956458514
 21
19360.484537000018
 31
0.0
  0
LINE
  5
12ECD
  8
2-0
  6
CONTINUOUS
 62
     3
 10
20183.514342585131
 20
19330.48097400002
 30
0.0
 11
20183.514342585131
 21
19360.484537000018
 31
0.0
  0
LINE
  5
12ECE
  8
2-0
  6
CONTINUOUS
 62
     3
 10
20189.508324585149
 20
19330.48097400002
 30
0.0
 11
20183.514342585131
 21
19330.48097400002
 31
0.0
  0
LINE
  5
12ECF
  8
2-0
  6
CONTINUOUS
 62
     3
 10
20173.418797585149
 20
19330.48097400002
 30
0.0
 11
20173.418797585149
 21
19360.484537000018
 31
0.0
  0
LINE
  5
12ED0
  8
2-0
  6
CONTINUOUS
 62
     3
 10
20191.414600585162
 20
19330.48097400002
 30
0.0
 11
20173.418797585149
 21
19330.48097400002
 31
0.0
  0
LINE
  5
12ED1
  8
2-0
  6
CONTINUOUS
 62
     3
 10
20191.414600585162
 20
19355.490211000018
 30
0.0
 11
20191.414600585162
 21
19330.48097400002
 31
0.0
  0
LINE
  5
12ED2
  8
2-0
  6
CONTINUOUS
 62
     3
 10
20186.41631658515
 20
19355.490211000018
 30
0.0
 11
20191.414600585162
 21
19355.490211000018
 31
0.0
  0
LINE
  5
12ED3
  8
2-0
  6
CONTINUOUS
 62
     3
 10
20186.41631658515
 20
19348.48469500001
 30
0.0
 11
20186.41631658515
 21
19355.490211000018
 31
0.0
  0
LINE
  5
12ED4
  8
2-0
  6
CONTINUOUS
 62
     3
 10
19877.317195585129
 20
19360.484537000018
 30
0.0
 11
20173.418797585149
 21
19360.484537000018
 31
0.0
  0
LINE
  5
12ED5
  8
2-0
  6
CONTINUOUS
 62
     3
 10
22404.510237585131
 20
15263.12568900002
 30
0.0
 11
22404.510237585131
 21
14619.086831000021
 31
0.0
  0
LINE
  5
12ED6
  8
2-0
  6
CONTINUOUS
 62
     3
 10
22404.510237585131
 20
14561.89062100001
 30
0.0
 11
22404.510237585131
 21
13915.024259000011
 31
0.0
  0
LINE
  5
12ED7
  8
0-6
  6
CONTINUOUS
 62
     6
 10
22111.13695990188
 20
18913.599176532309
 30
0.0
 11
21086.096709901871
 21
18913.599176532309
 31
0.0
  0
TEXT
  5
12ED8
  8
0-6
  6
CONTINUOUS
 62
     7
 10
21188.470029235221
 20
18993.601420532301
 30
0.0
 40
160.0
  1
間柱（後）
 72
     4
 11
21609.803362568549
 21
19073.601420532301
 31
0.0
  0
LINE
  5
12ED9
  8
SUNPOU
  6
CONTINUOUS
 62
     4
 10
19672.013669585162
 20
18910.486251999999
 30
0.0
 11
18622.012349585159
 21
18910.486251999999
 31
0.0
  0
LINE
  5
12EDA
  8
SUNPOU
  6
CONTINUOUS
 62
     4
 10
18822.012349585159
 20
19317.98625200001
 30
0.0
 11
18622.012349585159
 21
19317.98625200001
 31
0.0
  0
LINE
  5
12EDB
  8
SUNPOU
  6
CONTINUOUS
 62
     4
 10
18702.012349585159
 20
18910.486251999999
 30
0.0
 11
18702.012349585159
 21
19317.98625200001
 31
0.0
  0
LINE
  5
12EDC
  8
SUNPOU
  6
CONTINUOUS
 62
     4
 10
19794.511953585152
 20
13126.722818
 30
0.0
 11
19794.511953585152
 21
12781.038167999999
 31
0.0
  0
LINE
  5
12EDD
  8
SUNPOU
  6
CONTINUOUS
 62
     4
 10
19752.009710585149
 20
13709.98895700001
 30
0.0
 11
19752.009710585149
 21
12781.038167999999
 31
0.0
  0
LINE
  5
12EDE
  8
SUNPOU
  6
CONTINUOUS
 62
     4
 10
19794.511953585152
 20
12861.03816800001
 30
0.0
 11
20034.511953585152
 21
12861.03816800001
 31
0.0
  0
LINE
  5
12EDF
  8
SUNPOU
  6
CONTINUOUS
 62
     4
 10
19752.009710585149
 20
12861.03816800001
 30
0.0
 11
19512.009710585149
 21
12861.03816800001
 31
0.0
  0
LINE
  5
12EE0
  8
SUNPOU
  6
CONTINUOUS
 62
     4
 10
19794.511953585152
 20
12861.03816800001
 30
0.0
 11
19752.009710585149
 21
12861.03816800001
 31
0.0
  0
LINE
  5
12EE1
  8
SUNPOU
  6
CONTINUOUS
 62
     4
 10
22362.011953585152
 20
13126.722818
 30
0.0
 11
22362.011953585152
 21
12781.038167999999
 31
0.0
  0
LINE
  5
12EE2
  8
SUNPOU
  6
CONTINUOUS
 62
     4
 10
22404.51419658514
 20
13709.98895700001
 30
0.0
 11
22404.51419658514
 21
12781.038167999999
 31
0.0
  0
LINE
  5
12EE3
  8
SUNPOU
  6
CONTINUOUS
 62
     4
 10
22362.011953585152
 20
12861.03816800001
 30
0.0
 11
22122.011953585152
 21
12861.03816800001
 31
0.0
  0
LINE
  5
12EE4
  8
SUNPOU
  6
CONTINUOUS
 62
     4
 10
22404.51419658514
 20
12861.03816800001
 30
0.0
 11
22644.51419658514
 21
12861.03816800001
 31
0.0
  0
LINE
  5
12EE5
  8
SUNPOU
  6
CONTINUOUS
 62
     4
 10
22362.011953585152
 20
12861.03816800001
 30
0.0
 11
22404.51419658514
 21
12861.03816800001
 31
0.0
  0
LINE
  5
12EE6
  8
SUNPOU
  6
CONTINUOUS
 62
     4
 10
22362.011953585152
 20
13126.722818
 30
0.0
 11
22362.011953585152
 21
12781.038167999999
 31
0.0
  0
LINE
  5
12EE7
  8
SUNPOU
  6
CONTINUOUS
 62
     4
 10
22319.509710585138
 20
13709.98895700001
 30
0.0
 11
22319.509710585138
 21
12781.038167999999
 31
0.0
  0
LINE
  5
12EE8
  8
SUNPOU
  6
CONTINUOUS
 62
     4
 10
22362.011953585152
 20
12861.03816800001
 30
0.0
 11
22602.011953585152
 21
12861.03816800001
 31
0.0
  0
LINE
  5
12EE9
  8
SUNPOU
  6
CONTINUOUS
 62
     4
 10
22319.509710585138
 20
12861.03816800001
 30
0.0
 11
22079.509710585138
 21
12861.03816800001
 31
0.0
  0
LINE
  5
12EEA
  8
SUNPOU
  6
CONTINUOUS
 62
     4
 10
22362.011953585152
 20
12861.03816800001
 30
0.0
 11
22319.509710585138
 21
12861.03816800001
 31
0.0
  0
LINE
  5
12EEB
  8
SUNPOU
  6
CONTINUOUS
 62
     4
 10
19794.511953585152
 20
13126.722818
 30
0.0
 11
19794.511953585152
 21
12781.038167999999
 31
0.0
  0
LINE
  5
12EEC
  8
SUNPOU
  6
CONTINUOUS
 62
     4
 10
19837.014196585129
 20
13709.98895700001
 30
0.0
 11
19837.014196585129
 21
12781.038167999999
 31
0.0
  0
LINE
  5
12EED
  8
SUNPOU
  6
CONTINUOUS
 62
     4
 10
19794.511953585152
 20
12861.03816800001
 30
0.0
 11
19554.511953585152
 21
12861.03816800001
 31
0.0
  0
LINE
  5
12EEE
  8
SUNPOU
  6
CONTINUOUS
 62
     4
 10
19837.014196585129
 20
12861.03816800001
 30
0.0
 11
20077.014196585129
 21
12861.03816800001
 31
0.0
  0
LINE
  5
12EEF
  8
SUNPOU
  6
CONTINUOUS
 62
     4
 10
19794.511953585152
 20
12861.03816800001
 30
0.0
 11
19837.014196585129
 21
12861.03816800001
 31
0.0
  0
LINE
  5
12EF0
  8
SUNPOU
  6
CONTINUOUS
 62
     4
 10
19752.009710585149
 20
13709.98895700001
 30
0.0
 11
19752.009710585149
 21
12381.038167999999
 31
0.0
  0
LINE
  5
12EF1
  8
SUNPOU
  6
CONTINUOUS
 62
     4
 10
22404.51419658514
 20
13709.98895700001
 30
0.0
 11
22404.51419658514
 21
12381.038167999999
 31
0.0
  0
LINE
  5
12EF2
  8
SUNPOU
  6
CONTINUOUS
 62
     4
 10
19752.009710585149
 20
12461.038167999999
 30
0.0
 11
22404.51419658514
 21
12461.038167999999
 31
0.0
  0
LINE
  5
12EF3
  8
SUNPOU
  6
CONTINUOUS
 62
     4
 10
19672.013669585162
 20
14590.48625200001
 30
0.0
 11
18622.012349585159
 21
14590.48625200001
 31
0.0
  0
LINE
  5
12EF4
  8
SUNPOU
  6
CONTINUOUS
 62
     4
 10
18822.012349585159
 20
13832.486252000001
 30
0.0
 11
18622.012349585159
 21
13832.486252000001
 31
0.0
  0
LINE
  5
12EF5
  8
SUNPOU
  6
CONTINUOUS
 62
     4
 10
18702.012349585159
 20
14590.48625200001
 30
0.0
 11
18702.012349585159
 21
13832.486252000001
 31
0.0
  0
LINE
  5
12EF6
  8
SUNPOU
  6
CONTINUOUS
 62
     4
 10
19672.013669585162
 20
15291.72676350003
 30
0.0
 11
18622.012349585159
 21
15291.72676350003
 31
0.0
  0
LINE
  5
12EF7
  8
SUNPOU
  6
CONTINUOUS
 62
     4
 10
19672.013669585162
 20
14590.48625200001
 30
0.0
 11
18622.012349585159
 21
14590.48625200001
 31
0.0
  0
LINE
  5
12EF8
  8
SUNPOU
  6
CONTINUOUS
 62
     4
 10
18702.012349585159
 20
15291.72676350003
 30
0.0
 11
18702.012349585159
 21
14590.48625200001
 31
0.0
  0
LINE
  5
12EF9
  8
SUNPOU
  6
CONTINUOUS
 62
     4
 10
19672.013669585162
 20
15992.48625200001
 30
0.0
 11
18622.012349585159
 21
15992.48625200001
 31
0.0
  0
LINE
  5
12EFA
  8
SUNPOU
  6
CONTINUOUS
 62
     4
 10
19672.013669585162
 20
15291.72676350003
 30
0.0
 11
18622.012349585159
 21
15291.72676350003
 31
0.0
  0
LINE
  5
12EFB
  8
SUNPOU
  6
CONTINUOUS
 62
     4
 10
18702.012349585159
 20
15992.48625200001
 30
0.0
 11
18702.012349585159
 21
15291.72676350003
 31
0.0
  0
LINE
  5
12EFC
  8
SUNPOU
  6
CONTINUOUS
 62
     4
 10
18822.012349585159
 20
16750.48625200001
 30
0.0
 11
18622.012349585159
 21
16750.48625200001
 31
0.0
  0
LINE
  5
12EFD
  8
SUNPOU
  6
CONTINUOUS
 62
     4
 10
19672.013669585162
 20
15992.48625200001
 30
0.0
 11
18622.012349585159
 21
15992.48625200001
 31
0.0
  0
LINE
  5
12EFE
  8
SUNPOU
  6
CONTINUOUS
 62
     4
 10
18702.012349585159
 20
16750.48625200001
 30
0.0
 11
18702.012349585159
 21
15992.48625200001
 31
0.0
  0
LINE
  5
12EFF
  8
SUNPOU
  6
CONTINUOUS
 62
     4
 10
19672.013669585162
 20
17508.48625200001
 30
0.0
 11
18622.012349585159
 21
17508.48625200001
 31
0.0
  0
LINE
  5
12F00
  8
SUNPOU
  6
CONTINUOUS
 62
     4
 10
18822.012349585159
 20
16750.48625200001
 30
0.0
 11
18622.012349585159
 21
16750.48625200001
 31
0.0
  0
LINE
  5
12F01
  8
SUNPOU
  6
CONTINUOUS
 62
     4
 10
18702.012349585159
 20
17508.48625200001
 30
0.0
 11
18702.012349585159
 21
16750.48625200001
 31
0.0
  0
LINE
  5
12F02
  8
SUNPOU
  6
CONTINUOUS
 62
     4
 10
19672.013669585162
 20
18209.48625200001
 30
0.0
 11
18622.012349585159
 21
18209.48625200001
 31
0.0
  0
LINE
  5
12F03
  8
SUNPOU
  6
CONTINUOUS
 62
     4
 10
19672.013669585162
 20
17508.48625200001
 30
0.0
 11
18622.012349585159
 21
17508.48625200001
 31
0.0
  0
LINE
  5
12F04
  8
SUNPOU
  6
CONTINUOUS
 62
     4
 10
18702.012349585159
 20
18209.48625200001
 30
0.0
 11
18702.012349585159
 21
17508.48625200001
 31
0.0
  0
LINE
  5
12F05
  8
SUNPOU
  6
CONTINUOUS
 62
     4
 10
19672.013669585162
 20
18910.486251999999
 30
0.0
 11
18622.012349585159
 21
18910.486251999999
 31
0.0
  0
LINE
  5
12F06
  8
SUNPOU
  6
CONTINUOUS
 62
     4
 10
19672.013669585162
 20
18209.48625200001
 30
0.0
 11
18622.012349585159
 21
18209.48625200001
 31
0.0
  0
LINE
  5
12F07
  8
SUNPOU
  6
CONTINUOUS
 62
     4
 10
18702.012349585159
 20
18910.486251999999
 30
0.0
 11
18702.012349585159
 21
18209.48625200001
 31
0.0
  0
LINE
  5
12F08
  8
SUNPOU
  6
CONTINUOUS
 62
     4
 10
18822.012349585159
 20
19317.98625200001
 30
0.0
 11
18622.012349585159
 21
19317.986251999992
 31
0.0
  0
LINE
  5
12F09
  8
SUNPOU
  6
CONTINUOUS
 62
     4
 10
18822.012349585159
 20
13832.486252000001
 30
0.0
 11
18622.012349585159
 21
13832.486252000001
 31
0.0
  0
LINE
  5
12F0A
  8
SUNPOU
  6
CONTINUOUS
 62
     4
 10
19672.013669585162
 20
19360.483547000011
 30
0.0
 11
17822.012349585151
 21
19360.483547000011
 31
0.0
  0
LINE
  5
12F0B
  8
SUNPOU
  6
CONTINUOUS
 62
     4
 10
19672.013669585162
 20
13789.98895700001
 30
0.0
 11
17822.012349585151
 21
13789.98895700001
 31
0.0
  0
LINE
  5
12F0C
  8
SUNPOU
  6
CONTINUOUS
 62
     4
 10
17902.012349585151
 20
19360.483547000011
 30
0.0
 11
17902.012349585151
 21
13789.98895700001
 31
0.0
  0
LINE
  5
12F0D
  8
SUNPOU
  6
CONTINUOUS
 62
     4
 10
18822.012349585159
 20
19317.98625200001
 30
0.0
 11
18622.012349585159
 21
19317.986251999992
 31
0.0
  0
LINE
  5
12F0E
  8
SUNPOU
  6
CONTINUOUS
 62
     4
 10
19672.013669585162
 20
19360.483547000011
 30
0.0
 11
18622.012349585159
 21
19360.483547000011
 31
0.0
  0
LINE
  5
12F0F
  8
SUNPOU
  6
CONTINUOUS
 62
     4
 10
18702.012349585159
 20
19317.986251999992
 30
0.0
 11
18702.012349585159
 21
19077.986251999992
 31
0.0
  0
LINE
  5
12F10
  8
SUNPOU
  6
CONTINUOUS
 62
     4
 10
18702.012349585159
 20
19360.483547000011
 30
0.0
 11
18702.012349585159
 21
19600.483547000011
 31
0.0
  0
LINE
  5
12F11
  8
SUNPOU
  6
CONTINUOUS
 62
     4
 10
18702.012349585159
 20
19317.986251999992
 30
0.0
 11
18702.012349585159
 21
19360.483547000011
 31
0.0
  0
LINE
  5
12F12
  8
SUNPOU
  6
CONTINUOUS
 62
     4
 10
18822.012349585159
 20
13832.486252000001
 30
0.0
 11
18622.012349585159
 21
13832.486252000001
 31
0.0
  0
LINE
  5
12F13
  8
SUNPOU
  6
CONTINUOUS
 62
     4
 10
19672.013669585162
 20
13789.98895700001
 30
0.0
 11
18622.012349585159
 21
13789.98895700001
 31
0.0
  0
LINE
  5
12F14
  8
SUNPOU
  6
CONTINUOUS
 62
     4
 10
18702.012349585159
 20
13832.486252000001
 30
0.0
 11
18702.012349585159
 21
14072.486252000001
 31
0.0
  0
LINE
  5
12F15
  8
SUNPOU
  6
CONTINUOUS
 62
     4
 10
18702.012349585159
 20
13789.98895700001
 30
0.0
 11
18702.012349585159
 21
13549.98895700001
 31
0.0
  0
LINE
  5
12F16
  8
SUNPOU
  6
CONTINUOUS
 62
     4
 10
18702.012349585159
 20
13832.486252000001
 30
0.0
 11
18702.012349585159
 21
13789.98895700001
 31
0.0
  0
TEXT
  5
12F17
  8
0
  6
CONTINUOUS
 62
     7
 10
18622.012349585159
 20
13216.43272060321
 30
0.0
 40
160.0
  1
42.5
 50
90.0
  0
TEXT
  5
12F18
  8
0
  6
CONTINUOUS
 62
     7
 10
18622.012349585159
 20
19454.039783396802
 30
0.0
 40
160.0
  1
42.5
 50
90.0
  0
TEXT
  5
12F19
  8
0
  6
CONTINUOUS
 62
     7
 10
17822.012349585129
 20
16188.569585333349
 30
0.0
 40
160.0
  1
5570.5
 50
90.0
  0
TEXT
  5
12F1A
  8
0
  6
CONTINUOUS
 62
     7
 10
18942.012349585159
 20
18386.652918666681
 30
0.0
 40
160.0
  1
701
 50
90.0
  0
TEXT
  5
12F1B
  8
0
  6
CONTINUOUS
 62
     7
 10
18622.012349585159
 20
17685.652918666681
 30
0.0
 40
160.0
  1
701
 50
90.0
  0
TEXT
  5
12F1C
  8
0
  6
CONTINUOUS
 62
     7
 10
18622.012349585159
 20
16916.152918666681
 30
0.0
 40
160.0
  1
758
 50
90.0
  0
TEXT
  5
12F1D
  8
0
  6
CONTINUOUS
 62
     7
 10
18622.012349585159
 20
16158.152918666679
 30
0.0
 40
160.0
  1
758
 50
90.0
  0
TEXT
  5
12F1E
  8
0
  6
CONTINUOUS
 62
     7
 10
18622.012349585159
 20
15468.77317441669
 30
0.0
 40
160.0
  1
701
 50
90.0
  0
TEXT
  5
12F1F
  8
0
  6
CONTINUOUS
 62
     7
 10
18622.012349585159
 20
14767.77317441669
 30
0.0
 40
160.0
  1
701
 50
90.0
  0
TEXT
  5
12F20
  8
0
  6
CONTINUOUS
 62
     7
 10
18622.012349585159
 20
13998.15291866667
 30
0.0
 40
160.0
  1
758
 50
90.0
  0
TEXT
  5
12F21
  8
0
  6
CONTINUOUS
 62
     7
 10
20678.261953585141
 20
12541.038167999999
 30
0.0
 40
160.0
  1
2652.5
  0
TEXT
  5
12F22
  8
0
  6
CONTINUOUS
 62
     7
 10
19912.565625967229
 20
12941.03816800001
 30
0.0
 40
160.0
  1
42.5
  0
TEXT
  5
12F23
  8
0
  6
CONTINUOUS
 62
     7
 10
21763.95828120306
 20
12941.03816800001
 30
0.0
 40
160.0
  1
42.5
  0
TEXT
  5
12F24
  8
0
  6
CONTINUOUS
 62
     7
 10
22480.065625967229
 20
12941.03816800001
 30
0.0
 40
160.0
  1
42.5
  0
TEXT
  5
12F25
  8
0
  6
CONTINUOUS
 62
     7
 10
19196.458281203049
 20
12941.03816800001
 30
0.0
 40
160.0
  1
42.5
  0
TEXT
  5
12F26
  8
0
  6
CONTINUOUS
 62
     7
 10
18582.012349585159
 20
18619.864219643219
 30
0.0
 40
160.0
  1
407.5
 50
90.0
  0
ARC
  5
12F27
  8
0
  6
BYBLOCK
 62
     0
 10
18702.012349585159
 20
18910.486251999999
 30
0.0
 40
15.0
 50
270.0
 51
90.0
  0
ARC
  5
12F28
  8
0
  6
BYBLOCK
 62
     0
 10
18702.012349585159
 20
18910.486251999999
 30
0.0
 40
15.0
 50
90.0
 51
270.0
  0
ARC
  5
12F29
  8
0
  6
BYBLOCK
 62
     0
 10
18702.012349585159
 20
19317.98625200001
 30
0.0
 40
15.0
 50
90.0
 51
270.0
  0
ARC
  5
12F2A
  8
0
  6
BYBLOCK
 62
     0
 10
18702.012349585159
 20
19317.98625200001
 30
0.0
 40
15.0
 50
270.0
 51
90.0
  0
ARC
  5
12F2B
  8
0
  6
BYBLOCK
 62
     0
 10
19794.511953585152
 20
12861.03816800001
 30
0.0
 40
15.0
 50
0.0
 51
180.0
  0
ARC
  5
12F2C
  8
0
  6
BYBLOCK
 62
     0
 10
19794.511953585152
 20
12861.03816800001
 30
0.0
 40
15.0
 50
180.0
 51
0.0
  0
ARC
  5
12F2D
  8
0
  6
BYBLOCK
 62
     0
 10
19752.009710585149
 20
12861.03816800001
 30
0.0
 40
15.0
 50
180.0
 51
0.0
  0
ARC
  5
12F2E
  8
0
  6
BYBLOCK
 62
     0
 10
19752.009710585149
 20
12861.03816800001
 30
0.0
 40
15.0
 50
0.0
 51
180.0
  0
ARC
  5
12F2F
  8
0
  6
BYBLOCK
 62
     0
 10
22362.011953585152
 20
12861.03816800001
 30
0.0
 40
15.0
 50
180.0
 51
0.0
  0
ARC
  5
12F30
  8
0
  6
BYBLOCK
 62
     0
 10
22362.011953585152
 20
12861.03816800001
 30
0.0
 40
15.0
 50
0.0
 51
180.0
  0
ARC
  5
12F31
  8
0
  6
BYBLOCK
 62
     0
 10
22404.51419658514
 20
12861.03816800001
 30
0.0
 40
15.0
 50
0.0
 51
180.0
  0
ARC
  5
12F32
  8
0
  6
BYBLOCK
 62
     0
 10
22404.51419658514
 20
12861.03816800001
 30
0.0
 40
15.0
 50
180.0
 51
0.0
  0
ARC
  5
12F33
  8
0
  6
BYBLOCK
 62
     0
 10
22362.011953585152
 20
12861.03816800001
 30
0.0
 40
15.0
 50
0.0
 51
180.0
  0
ARC
  5
12F34
  8
0
  6
BYBLOCK
 62
     0
 10
22362.011953585152
 20
12861.03816800001
 30
0.0
 40
15.0
 50
180.0
 51
0.0
  0
ARC
  5
12F35
  8
0
  6
BYBLOCK
 62
     0
 10
22319.509710585138
 20
12861.03816800001
 30
0.0
 40
15.0
 50
180.0
 51
0.0
  0
ARC
  5
12F36
  8
0
  6
BYBLOCK
 62
     0
 10
22319.509710585138
 20
12861.03816800001
 30
0.0
 40
15.0
 50
0.0
 51
180.0
  0
ARC
  5
12F37
  8
0
  6
BYBLOCK
 62
     0
 10
19794.511953585152
 20
12861.03816800001
 30
0.0
 40
15.0
 50
180.0
 51
0.0
  0
ARC
  5
12F38
  8
0
  6
BYBLOCK
 62
     0
 10
19794.511953585152
 20
12861.03816800001
 30
0.0
 40
15.0
 50
0.0
 51
180.0
  0
ARC
  5
12F39
  8
0
  6
BYBLOCK
 62
     0
 10
19837.014196585129
 20
12861.03816800001
 30
0.0
 40
15.0
 50
0.0
 51
180.0
  0
ARC
  5
12F3A
  8
0
  6
BYBLOCK
 62
     0
 10
19837.014196585129
 20
12861.03816800001
 30
0.0
 40
15.0
 50
180.0
 51
0.0
  0
ARC
  5
12F3B
  8
0
  6
BYBLOCK
 62
     0
 10
19752.009710585149
 20
12461.038167999999
 30
0.0
 40
15.0
 50
0.0
 51
180.0
  0
ARC
  5
12F3C
  8
0
  6
BYBLOCK
 62
     0
 10
19752.009710585149
 20
12461.038167999999
 30
0.0
 40
15.0
 50
180.0
 51
0.0
  0
ARC
  5
12F3D
  8
0
  6
BYBLOCK
 62
     0
 10
22404.51419658514
 20
12461.038167999999
 30
0.0
 40
15.0
 50
180.0
 51
0.0
  0
ARC
  5
12F3E
  8
0
  6
BYBLOCK
 62
     0
 10
22404.51419658514
 20
12461.038167999999
 30
0.0
 40
15.0
 50
0.0
 51
180.0
  0
ARC
  5
12F3F
  8
0
  6
BYBLOCK
 62
     0
 10
18702.012349585159
 20
14590.48625200001
 30
0.0
 40
15.0
 50
90.0
 51
270.0
  0
ARC
  5
12F40
  8
0
  6
BYBLOCK
 62
     0
 10
18702.012349585159
 20
14590.48625200001
 30
0.0
 40
15.0
 50
270.0
 51
90.0
  0
ARC
  5
12F41
  8
0
  6
BYBLOCK
 62
     0
 10
18702.012349585159
 20
13832.486252000001
 30
0.0
 40
15.0
 50
270.0
 51
90.0
  0
ARC
  5
12F42
  8
0
  6
BYBLOCK
 62
     0
 10
18702.012349585159
 20
13832.486252000001
 30
0.0
 40
15.0
 50
90.0
 51
270.0
  0
ARC
  5
12F43
  8
0
  6
BYBLOCK
 62
     0
 10
18702.012349585159
 20
15291.72676350003
 30
0.0
 40
15.0
 50
90.0
 51
270.0
  0
ARC
  5
12F44
  8
0
  6
BYBLOCK
 62
     0
 10
18702.012349585159
 20
15291.72676350003
 30
0.0
 40
15.0
 50
270.0
 51
90.0
  0
ARC
  5
12F45
  8
0
  6
BYBLOCK
 62
     0
 10
18702.012349585159
 20
14590.48625200001
 30
0.0
 40
15.0
 50
270.0
 51
90.0
  0
ARC
  5
12F46
  8
0
  6
BYBLOCK
 62
     0
 10
18702.012349585159
 20
14590.48625200001
 30
0.0
 40
15.0
 50
90.0
 51
270.0
  0
ARC
  5
12F47
  8
0
  6
BYBLOCK
 62
     0
 10
18702.012349585159
 20
15992.48625200001
 30
0.0
 40
15.0
 50
90.0
 51
270.0
  0
ARC
  5
12F48
  8
0
  6
BYBLOCK
 62
     0
 10
18702.012349585159
 20
15992.48625200001
 30
0.0
 40
15.0
 50
270.0
 51
90.0
  0
ARC
  5
12F49
  8
0
  6
BYBLOCK
 62
     0
 10
18702.012349585159
 20
15291.72676350003
 30
0.0
 40
15.0
 50
270.0
 51
90.0
  0
ARC
  5
12F4A
  8
0
  6
BYBLOCK
 62
     0
 10
18702.012349585159
 20
15291.72676350003
 30
0.0
 40
15.0
 50
90.0
 51
270.0
  0
ARC
  5
12F4B
  8
0
  6
BYBLOCK
 62
     0
 10
18702.012349585159
 20
16750.48625200001
 30
0.0
 40
15.0
 50
90.0
 51
270.0
  0
ARC
  5
12F4C
  8
0
  6
BYBLOCK
 62
     0
 10
18702.012349585159
 20
16750.48625200001
 30
0.0
 40
15.0
 50
270.0
 51
90.0
  0
ARC
  5
12F4D
  8
0
  6
BYBLOCK
 62
     0
 10
18702.012349585159
 20
15992.48625200001
 30
0.0
 40
15.0
 50
270.0
 51
90.0
  0
ARC
  5
12F4E
  8
0
  6
BYBLOCK
 62
     0
 10
18702.012349585159
 20
15992.48625200001
 30
0.0
 40
15.0
 50
90.0
 51
270.0
  0
ARC
  5
12F4F
  8
0
  6
BYBLOCK
 62
     0
 10
18702.012349585159
 20
17508.48625200001
 30
0.0
 40
15.0
 50
90.0
 51
270.0
  0
ARC
  5
12F50
  8
0
  6
BYBLOCK
 62
     0
 10
18702.012349585159
 20
17508.48625200001
 30
0.0
 40
15.0
 50
270.0
 51
90.0
  0
ARC
  5
12F51
  8
0
  6
BYBLOCK
 62
     0
 10
18702.012349585159
 20
16750.48625200001
 30
0.0
 40
15.0
 50
270.0
 51
90.0
  0
ARC
  5
12F52
  8
0
  6
BYBLOCK
 62
     0
 10
18702.012349585159
 20
16750.48625200001
 30
0.0
 40
15.0
 50
90.0
 51
270.0
  0
ARC
  5
12F53
  8
0
  6
BYBLOCK
 62
     0
 10
18702.012349585159
 20
18209.48625200001
 30
0.0
 40
15.0
 50
90.0
 51
270.0
  0
ARC
  5
12F54
  8
0
  6
BYBLOCK
 62
     0
 10
18702.012349585159
 20
18209.48625200001
 30
0.0
 40
15.0
 50
270.0
 51
90.0
  0
ARC
  5
12F55
  8
0
  6
BYBLOCK
 62
     0
 10
18702.012349585159
 20
17508.48625200001
 30
0.0
 40
15.0
 50
270.0
 51
90.0
  0
ARC
  5
12F56
  8
0
  6
BYBLOCK
 62
     0
 10
18702.012349585159
 20
17508.48625200001
 30
0.0
 40
15.0
 50
90.0
 51
270.0
  0
ARC
  5
12F57
  8
0
  6
BYBLOCK
 62
     0
 10
18702.012349585159
 20
18910.486251999999
 30
0.0
 40
15.0
 50
90.0
 51
270.0
  0
ARC
  5
12F58
  8
0
  6
BYBLOCK
 62
     0
 10
18702.012349585159
 20
18910.486251999999
 30
0.0
 40
15.0
 50
270.0
 51
90.0
  0
ARC
  5
12F59
  8
0
  6
BYBLOCK
 62
     0
 10
18702.012349585159
 20
18209.48625200001
 30
0.0
 40
15.0
 50
270.0
 51
90.0
  0
ARC
  5
12F5A
  8
0
  6
BYBLOCK
 62
     0
 10
18702.012349585159
 20
18209.48625200001
 30
0.0
 40
15.0
 50
90.0
 51
270.0
  0
ARC
  5
12F5B
  8
0
  6
BYBLOCK
 62
     0
 10
18702.012349585159
 20
19317.986251999992
 30
0.0
 40
15.0
 50
90.0
 51
270.0
  0
ARC
  5
12F5C
  8
0
  6
BYBLOCK
 62
     0
 10
18702.012349585159
 20
19317.986251999992
 30
0.0
 40
15.0
 50
270.0
 51
90.0
  0
ARC
  5
12F5D
  8
0
  6
BYBLOCK
 62
     0
 10
18702.012349585159
 20
13832.486252000001
 30
0.0
 40
15.0
 50
270.0
 51
90.0
  0
ARC
  5
12F5E
  8
0
  6
BYBLOCK
 62
     0
 10
18702.012349585159
 20
13832.486252000001
 30
0.0
 40
15.0
 50
90.0
 51
270.0
  0
ARC
  5
12F5F
  8
0
  6
BYBLOCK
 62
     0
 10
17902.012349585151
 20
19360.483547000011
 30
0.0
 40
15.0
 50
90.0
 51
270.0
  0
ARC
  5
12F60
  8
0
  6
BYBLOCK
 62
     0
 10
17902.012349585151
 20
19360.483547000011
 30
0.0
 40
15.0
 50
270.0
 51
90.0
  0
ARC
  5
12F61
  8
0
  6
BYBLOCK
 62
     0
 10
17902.012349585151
 20
13789.98895700001
 30
0.0
 40
15.0
 50
270.0
 51
90.0
  0
ARC
  5
12F62
  8
0
  6
BYBLOCK
 62
     0
 10
17902.012349585151
 20
13789.98895700001
 30
0.0
 40
15.0
 50
90.0
 51
270.0
  0
ARC
  5
12F63
  8
0
  6
BYBLOCK
 62
     0
 10
18702.012349585159
 20
19317.986251999992
 30
0.0
 40
15.0
 50
90.0
 51
270.0
  0
ARC
  5
12F64
  8
0
  6
BYBLOCK
 62
     0
 10
18702.012349585159
 20
19317.986251999992
 30
0.0
 40
15.0
 50
270.0
 51
90.0
  0
ARC
  5
12F65
  8
0
  6
BYBLOCK
 62
     0
 10
18702.012349585159
 20
19360.483547000011
 30
0.0
 40
15.0
 50
270.0
 51
90.0
  0
ARC
  5
12F66
  8
0
  6
BYBLOCK
 62
     0
 10
18702.012349585159
 20
19360.483547000011
 30
0.0
 40
15.0
 50
90.0
 51
270.0
  0
ARC
  5
12F67
  8
0
  6
BYBLOCK
 62
     0
 10
18702.012349585159
 20
13832.486252000001
 30
0.0
 40
15.0
 50
270.0
 51
90.0
  0
ARC
  5
12F68
  8
0
  6
BYBLOCK
 62
     0
 10
18702.012349585159
 20
13832.486252000001
 30
0.0
 40
15.0
 50
90.0
 51
270.0
  0
ARC
  5
12F69
  8
0
  6
BYBLOCK
 62
     0
 10
18702.012349585159
 20
13789.98895700001
 30
0.0
 40
15.0
 50
90.0
 51
270.0
  0
ARC
  5
12F6A
  8
0
  6
BYBLOCK
 62
     0
 10
18702.012349585159
 20
13789.98895700001
 30
0.0
 40
15.0
 50
270.0
 51
90.0
  0
LINE
  5
12F6B
  8
2-0
  6
CONTINUOUS
 62
     6
 10
20704.4919248363
 20
19228.6161238899
 30
0.0
 11
21086.096709901871
 21
18913.599176532309
 31
0.0
  0
LINE
  5
12F6C
  8
2-0
  6
CONTINUOUS
 62
     6
 10
20721.476006883931
 20
19249.18359355655
 30
0.0
 11
20581.106099585151
 21
19330.48097400002
 31
0.0
  0
LINE
  5
12F6D
  8
2-0
  6
CONTINUOUS
 62
     6
 10
20581.106099585151
 20
19330.48097400002
 30
0.0
 11
20687.516691680969
 21
19208.053091707388
 31
0.0
  0
LINE
  5
12F6E
  8
2-0
  6
CONTINUOUS
 62
     6
 10
20721.476006883931
 20
19249.18359355655
 30
0.0
 11
20687.516691680969
 21
19208.053091707388
 31
0.0
  0
LINE
  5
12F6F
  8
2-0
  6
CONTINUOUS
 62
     6
 10
20687.516691680969
 20
19208.053091707388
 30
0.0
 11
20581.106099585151
 21
19330.48097400002
 31
0.0
  0
LINE
  5
12F70
  8
2-0
  6
CONTINUOUS
 62
     6
 10
20581.106099585151
 20
19330.48097400002
 30
0.0
 11
20721.476006883931
 21
19249.18359355655
 31
0.0
  0
LINE
  5
12F71
  8
2-0
  6
CONTINUOUS
 62
     6
 10
20721.476006883931
 20
19249.18359355655
 30
0.0
 11
20581.106099585151
 21
19330.48097400002
 31
0.0
  0
LINE
  5
12F72
  8
2-0
  6
CONTINUOUS
 62
     6
 10
20687.516691680969
 20
19208.053091707388
 30
0.0
 11
20581.106099585151
 21
19330.48097400002
 31
0.0
  0
LINE
  5
12F73
  8
2-0
  6
CONTINUOUS
 62
     6
 10
20687.516691680969
 20
19208.053091707388
 30
0.0
 11
20721.476006883931
 21
19249.18359355655
 31
0.0
  0
LINE
  5
12F74
  8
SUNPOU
  6
CONTINUOUS
 62
     4
 10
19108.970621585158
 20
18209.48625200001
 30
0.0
 11
18222.012349585169
 21
18209.48625200001
 31
0.0
  0
LINE
  5
12F75
  8
SUNPOU
  6
CONTINUOUS
 62
     4
 10
18302.012349585159
 20
18209.48625200001
 30
0.0
 11
18302.012349585159
 21
19317.98625200001
 31
0.0
  0
LINE
  5
12F76
  8
SUNPOU
  6
CONTINUOUS
 62
     4
 10
19108.970621585158
 20
18209.48625200001
 30
0.0
 11
18222.012349585169
 21
18209.48625200001
 31
0.0
  0
LINE
  5
12F77
  8
SUNPOU
  6
CONTINUOUS
 62
     4
 10
18302.012349585159
 20
16750.48625200001
 30
0.0
 11
18302.012349585159
 21
18209.48625200001
 31
0.0
  0
LINE
  5
12F78
  8
SUNPOU
  6
CONTINUOUS
 62
     4
 10
19108.970621585158
 20
15291.72676350003
 30
0.0
 11
18222.012349585169
 21
15291.72676350003
 31
0.0
  0
LINE
  5
12F79
  8
SUNPOU
  6
CONTINUOUS
 62
     4
 10
18302.012349585159
 20
15291.72676350003
 30
0.0
 11
18302.012349585159
 21
16750.48625200001
 31
0.0
  0
LINE
  5
12F7A
  8
SUNPOU
  6
CONTINUOUS
 62
     4
 10
19108.970621585158
 20
15291.72676350003
 30
0.0
 11
18222.012349585169
 21
15291.72676350003
 31
0.0
  0
LINE
  5
12F7B
  8
SUNPOU
  6
CONTINUOUS
 62
     4
 10
18302.012349585159
 20
13832.486252000001
 30
0.0
 11
18302.012349585159
 21
15291.72676350003
 31
0.0
  0
TEXT
  5
12F7C
  8
0
  6
CONTINUOUS
 62
     7
 10
18222.012349585169
 20
14295.439841083349
 30
0.0
 40
160.0
  1
1459
 50
90.0
  0
TEXT
  5
12F7D
  8
0
  6
CONTINUOUS
 62
     7
 10
18222.012349585169
 20
15754.43984108336
 30
0.0
 40
160.0
  1
1459
 50
90.0
  0
TEXT
  5
12F7E
  8
0
  6
CONTINUOUS
 62
     7
 10
18222.012349585169
 20
17213.319585333338
 30
0.0
 40
160.0
  1
1459
 50
90.0
  0
TEXT
  5
12F7F
  8
0
  6
CONTINUOUS
 62
     7
 10
18222.012349585169
 20
18430.402918666681
 30
0.0
 40
160.0
  1
1108.5
 50
90.0
  0
ARC
  5
12F80
  8
0
  6
BYBLOCK
 62
     0
 10
18302.012349585159
 20
18209.48625200001
 30
0.0
 40
15.0
 50
270.0
 51
90.0
  0
ARC
  5
12F81
  8
0
  6
BYBLOCK
 62
     0
 10
18302.012349585159
 20
18209.48625200001
 30
0.0
 40
15.0
 50
90.0
 51
270.0
  0
ARC
  5
12F82
  8
0
  6
BYBLOCK
 62
     0
 10
18302.012349585159
 20
19317.98625200001
 30
0.0
 40
15.0
 50
90.0
 51
270.0
  0
ARC
  5
12F83
  8
0
  6
BYBLOCK
 62
     0
 10
18302.012349585159
 20
19317.98625200001
 30
0.0
 40
15.0
 50
270.0
 51
90.0
  0
ARC
  5
12F84
  8
0
  6
BYBLOCK
 62
     0
 10
18302.012349585159
 20
16750.48625200001
 30
0.0
 40
15.0
 50
270.0
 51
90.0
  0
ARC
  5
12F85
  8
0
  6
BYBLOCK
 62
     0
 10
18302.012349585159
 20
16750.48625200001
 30
0.0
 40
15.0
 50
90.0
 51
270.0
  0
ARC
  5
12F86
  8
0
  6
BYBLOCK
 62
     0
 10
18302.012349585159
 20
18209.48625200001
 30
0.0
 40
15.0
 50
90.0
 51
270.0
  0
ARC
  5
12F87
  8
0
  6
BYBLOCK
 62
     0
 10
18302.012349585159
 20
18209.48625200001
 30
0.0
 40
15.0
 50
270.0
 51
90.0
  0
ARC
  5
12F88
  8
0
  6
BYBLOCK
 62
     0
 10
18302.012349585159
 20
15291.72676350003
 30
0.0
 40
15.0
 50
270.0
 51
90.0
  0
ARC
  5
12F89
  8
0
  6
BYBLOCK
 62
     0
 10
18302.012349585159
 20
15291.72676350003
 30
0.0
 40
15.0
 50
90.0
 51
270.0
  0
ARC
  5
12F8A
  8
0
  6
BYBLOCK
 62
     0
 10
18302.012349585159
 20
16750.48625200001
 30
0.0
 40
15.0
 50
90.0
 51
270.0
  0
ARC
  5
12F8B
  8
0
  6
BYBLOCK
 62
     0
 10
18302.012349585159
 20
16750.48625200001
 30
0.0
 40
15.0
 50
270.0
 51
90.0
  0
ARC
  5
12F8C
  8
0
  6
BYBLOCK
 62
     0
 10
18302.012349585159
 20
13832.486252000001
 30
0.0
 40
15.0
 50
270.0
 51
90.0
  0
ARC
  5
12F8D
  8
0
  6
BYBLOCK
 62
     0
 10
18302.012349585159
 20
13832.486252000001
 30
0.0
 40
15.0
 50
90.0
 51
270.0
  0
ARC
  5
12F8E
  8
0
  6
BYBLOCK
 62
     0
 10
18302.012349585159
 20
15291.72676350003
 30
0.0
 40
15.0
 50
90.0
 51
270.0
  0
ARC
  5
12F8F
  8
0
  6
BYBLOCK
 62
     0
 10
18302.012349585159
 20
15291.72676350003
 30
0.0
 40
15.0
 50
270.0
 51
90.0
  0
TEXT
  5
10130A3
  8
FILENAME
  6
CONTINUOUS
 10
26061.142857142859
 20
348.0
 30
0.0
 40
200.0
  1
＜VGCU-2655+VKCU-2855-R-1-A_0.DXF ＞
  7
FILENAME
 72
     2
 11
32764.0
 21
348.0
 31
0.0
  0
LINE
  5
10130A8
  8
WAKUSEN-01
 10
868.00000000000193
 20
827.99999999999955
 30
0.0
 11
32764.000000000011
 21
827.99999999999943
 31
0.0
  0
LINE
  5
10130A9
  8
WAKUSEN-01
 10
868.00000000000193
 20
827.99999999999955
 30
0.0
 11
868.00000000000193
 21
22484.000000000011
 31
0.0
  0
LINE
  5
10130AA
  8
WAKUSEN-01
 10
32764.000000000011
 20
827.99999999999943
 30
0.0
 11
32764.000000000011
 21
22484.000000000011
 31
0.0
  0
LINE
  5
10130AB
  8
WAKUSEN-01
 10
20560.0
 20
827.99999999999716
 30
0.0
 11
20560.0
 21
2484.0
 31
0.0
  0
LINE
  5
10130AC
  8
WAKUSEN-02
 10
26868.0
 20
827.99999999999261
 30
0.0
 11
26868.0
 21
2484.0
 31
0.0
  0
ENDSEC
  0
EOF
