  0
SECTION
  2
HEADER
  9
$ACADVER
  1
AC1009
  9
$INSBASE
 10
0.0
 20
0.0
 30
0.0
  9
$EXTMIN
 10
867.99324330406671
 20
327.38164749855792
 30
-0.0000000000000057
  9
$EXTMAX
 10
32765.33210850941
 20
22484.553276491992
 30
0.0000000000000104
  9
$LIMMIN
 10
0.0
 20
0.0
  9
$LIMMAX
 10
33600.0
 20
23760.0
  9
$ORTHOMODE
 70
     1
  9
$REGENMODE
 70
     1
  9
$FILLMODE
 70
     1
  9
$QTEXTMODE
 70
     0
  9
$MIRRTEXT
 70
     0
  9
$DRAGMODE
 70
     2
  9
$LTSCALE
 40
80.0
  9
$OSMODE
 70
  3071
  9
$ATTMODE
 70
     1
  9
$TEXTSIZE
 40
0.2
  9
$TRACEWID
 40
0.05
  9
$TEXTSTYLE
  7
00
  9
$CLAYER
  8
0
  9
$CELTYPE
  6
BYLAYER
  9
$CECOLOR
 62
   256
  9
$DIMSCALE
 40
80.0
  9
$DIMASZ
 40
3.0
  9
$DIMEXO
 40
1.0
  9
$DIMDLI
 40
0.38
  9
$DIMRND
 40
0.5
  9
$DIMDLE
 40
0.0
  9
$DIMEXE
 40
1.0
  9
$DIMTP
 40
0.0
  9
$DIMTM
 40
0.0
  9
$DIMTXT
 40
2.0
  9
$DIMCEN
 40
0.09
  9
$DIMTSZ
 40
0.0
  9
$DIMTOL
 70
     0
  9
$DIMLIM
 70
     0
  9
$DIMTIH
 70
     0
  9
$DIMTOH
 70
     0
  9
$DIMSE1
 70
     0
  9
$DIMSE2
 70
     0
  9
$DIMTAD
 70
     1
  9
$DIMZIN
 70
     8
  9
$DIMBLK
  1
DOTSMALL
  9
$DIMASO
 70
     1
  9
$DIMSHO
 70
     1
  9
$DIMPOST
  1

  9
$DIMAPOST
  1

  9
$DIMALT
 70
     0
  9
$DIMALTD
 70
     2
  9
$DIMALTF
 40
25.399999999999999
  9
$DIMLFAC
 40
1.0
  9
$DIMTOFL
 70
     1
  9
$DIMTVP
 40
0.0
  9
$DIMTIX
 70
     0
  9
$DIMSOXD
 70
     0
  9
$DIMSAH
 70
     0
  9
$DIMBLK1
  1

  9
$DIMBLK2
  1

  9
$DIMSTYLE
  2
SUNPOU
  9
$DIMCLRD
 70
     4
  9
$DIMCLRE
 70
     4
  9
$DIMCLRT
 70
     7
  9
$DIMTFAC
 40
1.0
  9
$DIMGAP
 40
1.0
  9
$LUNITS
 70
     2
  9
$LUPREC
 70
     4
  9
$SKETCHINC
 40
0.1
  9
$FILLETRAD
 40
0.0
  9
$AUNITS
 70
     0
  9
$AUPREC
 70
     0
  9
$MENU
  1
acad
  9
$ELEVATION
 40
0.0
  9
$PELEVATION
 40
0.0
  9
$THICKNESS
 40
0.0
  9
$LIMCHECK
 70
     0
  9
$BLIPMODE
 70
     1
  9
$CHAMFERA
 40
0.0
  9
$CHAMFERB
 40
0.0
  9
$SKPOLY
 70
     0
  9
$TDCREATE
 40
2311940.075052408
  9
$TDUPDATE
 40
2458942.460289537
  9
$TDINDWG
 40
0.3226322222
  9
$TDUSRTIMER
 40
0.3226315509
  9
$USRTIMER
 70
     1
  9
$ANGBASE
 50
0.0
  9
$ANGDIR
 70
     0
  9
$PDMODE
 70
     0
  9
$PDSIZE
 40
0.0
  9
$PLINEWID
 40
0.0
  9
$COORDS
 70
     1
  9
$SPLFRAME
 70
     0
  9
$SPLINETYPE
 70
     6
  9
$SPLINESEGS
 70
     8
  9
$ATTDIA
 70
     1
  9
$ATTREQ
 70
     1
  9
$HANDLING
 70
     1
  9
$HANDSEED
  5
1013526
  9
$SURFTAB1
 70
     6
  9
$SURFTAB2
 70
     6
  9
$SURFTYPE
 70
     6
  9
$SURFU
 70
     6
  9
$SURFV
 70
     6
  9
$UCSNAME
  2

  9
$UCSORG
 10
0.0
 20
0.0
 30
0.0
  9
$UCSXDIR
 10
1.0
 20
0.0
 30
0.0
  9
$UCSYDIR
 10
0.0
 20
1.0
 30
0.0
  9
$PUCSNAME
  2

  9
$PUCSORG
 10
0.0
 20
0.0
 30
0.0
  9
$PUCSXDIR
 10
1.0
 20
0.0
 30
0.0
  9
$PUCSYDIR
 10
0.0
 20
1.0
 30
0.0
  9
$USERI1
 70
     0
  9
$USERI2
 70
     0
  9
$USERI3
 70
     0
  9
$USERI4
 70
     0
  9
$USERI5
 70
     0
  9
$USERR1
 40
0.0
  9
$USERR2
 40
0.0
  9
$USERR3
 40
0.0
  9
$USERR4
 40
0.0
  9
$USERR5
 40
0.0
  9
$WORLDVIEW
 70
     1
  9
$SHADEDGE
 70
     3
  9
$SHADEDIF
 70
    70
  9
$TILEMODE
 70
     1
  9
$MAXACTVP
 70
    16
  9
$PLIMCHECK
 70
     0
  9
$PEXTMIN
 10
1.0000000000000000E+020
 20
1.0000000000000000E+020
 30
1.0000000000000000E+020
  9
$PEXTMAX
 10
-1.0000000000000000E+020
 20
-1.0000000000000000E+020
 30
-1.0000000000000000E+020
  9
$PLIMMIN
 10
0.0
 20
0.0
  9
$PLIMMAX
 10
12.0
 20
9.0
  9
$UNITMODE
 70
     0
  9
$VISRETAIN
 70
     0
  9
$PLINEGEN
 70
     1
  9
$PSLTSCALE
 70
     0
  0
ENDSEC
  0
SECTION
  2
TABLES
  0
TABLE
  2
VPORT
 70
     1
  0
VPORT
  2
*ACTIVE
 70
     0
 10
0.0
 20
0.0
 11
1.0
 21
1.0
 12
16800.0
 22
11880.0
 13
0.0
 23
0.0
 14
1.0
 24
1.0
 15
0.0
 25
0.0
 16
0.0
 26
0.0
 36
1.0
 17
0.0
 27
0.0
 37
0.0
 40
23981.023255813951
 41
2.195652173913043
 42
50.0
 43
0.0
 44
0.0
 50
0.0
 51
0.0
 71
     0
 72
 10000
 73
     1
 74
     1
 75
     0
 76
     0
 77
     0
 78
     0
  0
ENDTAB
  0
TABLE
  2
LTYPE
 70
     6
  0
LTYPE
  2
CONTINUOUS
 70
     0
  3
Solid line
 72
    65
 73
     0
 40
0.0
  0
LTYPE
  2
DASHED3
 70
     0
  3
------  ------  ------  ------  
 72
    65
 73
     2
 40
5.0
 49
3.75
 49
-1.25
  0
LTYPE
  2
CENTER2
 70
     0
  3
----------  --  ----------  --  
 72
    65
 73
     4
 40
20.0
 49
12.5
 49
-2.5
 49
2.5
 49
-2.5
  0
LTYPE
  2
HIDE-M
 70
     0
  3

 72
    65
 73
     2
 40
2.0
 49
1.0
 49
-1.0
  0
LTYPE
  2
1PL-M
 70
     0
  3

 72
    65
 73
     4
 40
15.0
 49
12.0
 49
-1.0
 49
1.0
 49
-1.0
  0
LTYPE
  2
PHANTOM2
 70
     0
  3
___ _ _ ___ _ _ ___ _ _ ___ _ _
 72
    65
 73
     6
 40
1.25
 49
0.625
 49
-0.125
 49
0.125
 49
-0.125
 49
0.125
 49
-0.125
  0
ENDTAB
  0
TABLE
  2
LAYER
 70
    24
  0
LAYER
  2
0
 70
     0
 62
     7
  6
CONTINUOUS
  0
LAYER
  2
SUNPOU
 70
     0
 62
     4
  6
CONTINUOUS
  0
LAYER
  2
0-1
 70
     0
 62
     7
  6
CONTINUOUS
  0
LAYER
  2
0-2
 70
     0
 62
     7
  6
CONTINUOUS
  0
LAYER
  2
0-5
 70
     0
 62
     7
  6
CONTINUOUS
  0
LAYER
  2
0-6
 70
     0
 62
     7
  6
CONTINUOUS
  0
LAYER
  2
2-0
 70
     0
 62
     7
  6
CONTINUOUS
  0
LAYER
  2
0-8
 70
     0
 62
     7
  6
CONTINUOUS
  0
LAYER
  2
YODOROGO
 70
     0
 62
   130
  6
CONTINUOUS
  0
LAYER
  2
WAKUSEN-01
 70
     0
 62
    50
  6
CONTINUOUS
  0
LAYER
  2
WAKUSEN-02
 70
     0
 62
   130
  6
CONTINUOUS
  0
LAYER
  2
WAKUMOJI-01
 70
     0
 62
   130
  6
CONTINUOUS
  0
LAYER
  2
FILENAME
 70
     0
 62
     7
  6
CONTINUOUS
  0
LAYER
  2
NAME
 70
     0
 62
    20
  6
CONTINUOUS
  0
LAYER
  2
0-4
 70
     0
 62
     7
  6
CONTINUOUS
  0
LAYER
  2
1-前柱P
 70
     0
 62
     3
  6
CONTINUOUS
  0
LAYER
  2
1-前柱カバ-P
 70
     0
 62
     3
  6
CONTINUOUS
  0
LAYER
  2
1-桁前P28
 70
     0
 62
     3
  6
CONTINUOUS
  0
LAYER
  2
1-後柱P
 70
     0
 62
     3
  6
CONTINUOUS
  0
LAYER
  2
1-中柱P
 70
     0
 62
     3
  6
CONTINUOUS
  0
LAYER
  2
1-後柱カバ-P
 70
     0
 62
     7
  6
CONTINUOUS
  0
LAYER
  2
1-中柱カバ-P
 70
     0
 62
     7
  6
CONTINUOUS
  0
ENDTAB
  0
TABLE
  2
STYLE
 70
     5
  0
STYLE
  2
STANDARD
 70
     0
 40
0.0
 41
1.0
 50
0.0
 71
     0
 42
0.0
  3
txt
  4
BIGFONT
  0
STYLE
  2
00
 70
     0
 40
0.0
 41
0.6666666666666666
 50
0.0
 71
     0
 42
0.2
  3
ROMANS
  4
BIGFONT
  0
STYLE
  2
01
 70
     0
 40
3.0
 41
1.0
 50
0.0
 71
     0
 42
0.2
  3
ROMANS
  4
BIGFONT
  0
STYLE
  2
WAKUMOJI
 70
     0
 40
3.0
 41
1.0
 50
0.0
 71
     0
 42
3.0
  3
SIMPLEX
  4
BIGFONT
  0
STYLE
  2
FILENAME
 70
     0
 40
200.0
 41
1.0
 50
0.0
 71
     0
 42
200.0
  3
romans
  4
bigfont
  0
ENDTAB
  0
TABLE
  2
VIEW
 70
     0
  0
ENDTAB
  0
TABLE
  2
UCS
 70
     0
  0
ENDTAB
  0
TABLE
  2
APPID
 70
    17
  0
APPID
  2
ACAD
 70
     0
  0
APPID
  2
ACADANNOTATIVE
 70
     0
  0
APPID
  2
ACAD_PSEXT
 70
     0
  0
APPID
  2
DCO15
 70
     0
  0
APPID
  2
ACAD_MLEADERVER
 70
     0
  0
APPID
  2
AUTOCAD_POSTSCRIPT_FIGURE
 70
     0
  0
APPID
  2
ACAD_EXEMPT_FROM_CAD_STANDARDS
 70
     0
  0
APPID
  2
ACLAYERTOOLS
 70
     0
  0
APPID
  2
ACAD_DSTYLE_DIMJAG
 70
     0
  0
APPID
  2
ACAD_DSTYLE_DIMTALN
 70
     0
  0
APPID
  2
ACAECLAYERSTANDARD
 70
     0
  0
APPID
  2
ACAD_DSTYLE_DIMBREAK
 70
     0
  0
APPID
  2
ACAD_DSTYLE_DIM_LINETYPE
 70
     0
  0
APPID
  2
ACAD_DSTYLE_DIM_EXT1_LINETYPE
 70
     0
  0
APPID
  2
ACAD_DSTYLE_DIM_EXT2_LINETYPE
 70
     0
  0
APPID
  2
ACAD_DSTYLE_DIMFLIPARROW_W
 70
     0
  0
APPID
  2
ACAD_NAV_VCDISPLAY
 70
     0
  0
ENDTAB
  0
TABLE
  2
DIMSTYLE
 70
     2
  0
DIMSTYLE
  2
SUNPOU
 70
     0
  3

  4

  5

  6

  7

 40
80.0
 41
3.0
 42
1.0
 43
0.38
 44
1.0
 45
0.5
 46
0.0
 47
0.0
 48
0.0
140
2.0
141
0.09
142
0.0
143
25.399999999999999
144
1.0
145
0.0
146
1.0
147
1.0
 71
     0
 72
     0
 73
     0
 74
     0
 75
     0
 76
     0
 77
     1
 78
     8
170
     0
171
     2
172
     1
173
     0
174
     0
175
     0
176
     4
177
     4
178
     7
  0
ENDTAB
  0
ENDSEC
  0
SECTION
  2
BLOCKS
  0
BLOCK
  8
0
  2
$MODEL_SPACE
 70
     0
 10
0.0
 20
0.0
 30
0.0
  3
$MODEL_SPACE
  1

  0
ENDBLK
  5
11E3E
  8
0
  0
BLOCK
 67
     1
  8
0
  2
$PAPER_SPACE
 70
     0
 10
0.0
 20
0.0
 30
0.0
  3
$PAPER_SPACE
  1

  0
ENDBLK
  5
11E3A
 67
     1
  8
0
  0
BLOCK
  8
0
  2
_DOTSMALL
 70
     0
 10
0.0
 20
0.0
 30
0.0
  3
_DOTSMALL
  1

  0
POLYLINE
  5
11E7A
  8
0
  6
BYBLOCK
 62
     0
 66
     1
 10
0.0
 20
0.0
 30
0.0
 70
     1
 40
0.5
 41
0.5
  0
VERTEX
  5
10134EE
  8
0
  6
BYBLOCK
 62
     0
 10
-0.0625
 20
0.0
 30
0.0
 42
1.0
  0
VERTEX
  5
10134EF
  8
0
  6
BYBLOCK
 62
     0
 10
0.0625
 20
0.0
 30
0.0
 42
1.0
  0
SEQEND
  5
10134F0
  8
0
  6
BYBLOCK
 62
     0
  0
ENDBLK
  5
11E7E
  8
0
  0
ENDSEC
  0
SECTION
  2
ENTITIES
  0
LINE
  5
11E7F
  8
0-1
  6
CONTINUOUS
 62
     3
 10
6906.4416304765837
 20
16705.485856999989
 30
0.0
 11
9473.9416304765837
 21
16705.485856999989
 31
0.0
  0
LINE
  5
11E80
  8
0-1
  6
CONTINUOUS
 62
     3
 10
9420.9419994765958
 20
14146.486899
 30
0.0
 11
9420.9419994765958
 21
17791.443824900962
 31
0.0
  0
LINE
  5
11E81
  8
0-1
  6
CONTINUOUS
 62
     3
 10
6956.4422504765953
 20
14022.486885
 30
0.0
 11
6956.4422504765953
 21
18871.363360818661
 31
0.0
  0
LINE
  5
11E82
  8
0-1
  6
CONTINUOUS
 62
     3
 10
6820.9416304765846
 20
13990.486252000001
 30
0.0
 11
6820.9416304765846
 21
18850.108371842391
 31
0.0
  0
LINE
  5
11E83
  8
0-1
  6
CONTINUOUS
 62
     3
 10
6863.942356476593
 20
14146.486899
 30
0.0
 11
12316.44288447659
 21
14146.486899
 31
0.0
  0
LINE
  5
11E84
  8
0-1
  6
CONTINUOUS
 62
     3
 10
6906.4416304765837
 20
14225.486516000001
 30
0.0
 11
12273.94163047658
 21
14225.486516000001
 31
0.0
  0
LINE
  5
11E85
  8
0-1
  6
CONTINUOUS
 62
     3
 10
6820.9416304765846
 20
13990.486252000001
 30
0.0
 11
12359.44163047658
 21
13990.486252000001
 31
0.0
  0
LINE
  5
11E86
  8
0-1
  6
CONTINUOUS
 62
     3
 10
6820.9416304765846
 20
14022.486885
 30
0.0
 11
12356.44163047658
 21
14022.486885
 31
0.0
  0
LINE
  5
11E87
  8
0-1
  6
CONTINUOUS
 62
     3
 10
9473.9416304765837
 20
14146.486899
 30
0.0
 11
9473.9416304765837
 21
17769.83857947612
 31
0.0
  0
LINE
  5
11E88
  8
0-1
  6
CONTINUOUS
 62
     3
 10
9516.4428844765916
 20
14146.486899
 30
0.0
 11
9516.4428844765916
 21
17752.512986708611
 31
0.0
  0
LINE
  5
11E89
  8
0-1
  6
CONTINUOUS
 62
     3
 10
6906.4416304765837
 20
14146.486899
 30
0.0
 11
6906.4416304765837
 21
18816.266593620061
 31
0.0
  0
LINE
  5
11E8A
  8
0-1
  6
CONTINUOUS
 62
     3
 10
6863.942356476593
 20
14146.486899
 30
0.0
 11
6863.942356476593
 21
18833.80211675918
 31
0.0
  0
LINE
  5
11E8B
  8
0-1
  6
CONTINUOUS
 62
     3
 10
8126.442752476597
 20
18319.145120287751
 30
0.0
 11
8126.442752476597
 21
19510.488495000001
 31
0.0
  0
LINE
  5
11E8C
  8
0-1
  6
CONTINUOUS
 62
     3
 10
8163.4439134765844
 20
18304.061634811991
 30
0.0
 11
8163.4439134765844
 21
19510.488495000001
 31
0.0
  0
LINE
  5
11E8D
  8
0-1
  6
CONTINUOUS
 62
     3
 10
8326.4424224765862
 20
18237.615459161621
 30
0.0
 11
8326.4424224765899
 21
19510.488495000001
 31
0.0
  0
LINE
  5
11E8E
  8
0-1
  6
CONTINUOUS
 62
     3
 10
8363.4416034765945
 20
18222.532780830828
 30
0.0
 11
8363.4416034765964
 21
19510.488495000001
 31
0.0
  0
LINE
  5
11E8F
  8
0-1
  6
CONTINUOUS
 62
     3
 10
8526.4430814765947
 20
18156.085394870672
 30
0.0
 11
8526.4430814765947
 21
19510.488495000001
 31
0.0
  0
LINE
  5
11E90
  8
0-1
  6
CONTINUOUS
 62
     3
 10
8563.4432534765947
 20
18141.002312559751
 30
0.0
 11
8563.4432534765947
 21
19510.488495000001
 31
0.0
  0
LINE
  5
11E91
  8
0-1
  6
CONTINUOUS
 62
     3
 10
8726.4427524765979
 20
18074.5557333369
 30
0.0
 11
8726.4427524765979
 21
19510.488495000001
 31
0.0
  0
LINE
  5
11E92
  8
0-1
  6
CONTINUOUS
 62
     3
 10
8763.4439134765853
 20
18059.472247861129
 30
0.0
 11
8763.4439134765853
 21
19510.488495000001
 31
0.0
  0
LINE
  5
11E93
  8
0-1
  6
CONTINUOUS
 62
     3
 10
8926.4424224765953
 20
17993.026072210771
 30
0.0
 11
8926.4424224765971
 21
19510.488495000001
 31
0.0
  0
LINE
  5
11E94
  8
0-1
  6
CONTINUOUS
 62
     3
 10
8963.4425934765841
 20
17977.9429903075
 30
0.0
 11
8963.4425934765877
 21
19510.488495000001
 31
0.0
  0
LINE
  5
11E95
  8
0-1
  6
CONTINUOUS
 62
     3
 10
9126.4430814765874
 20
17911.496007919821
 30
0.0
 11
9126.4430814765874
 21
19510.488495000001
 31
0.0
  0
LINE
  5
11E96
  8
0-1
  6
CONTINUOUS
 62
     3
 10
9163.4432534765983
 20
17896.412925608882
 30
0.0
 11
9163.4432534765947
 21
19510.488495000001
 31
0.0
  0
LINE
  5
11E97
  8
0-1
  6
CONTINUOUS
 62
     3
 10
6906.4416304765837
 20
15336.487638000021
 30
0.0
 11
9473.9416304765837
 21
15336.487638000021
 31
0.0
  0
LINE
  5
11E98
  8
0-1
  6
CONTINUOUS
 62
     3
 10
6906.4416304765837
 20
15246.485856000019
 30
0.0
 11
9473.9416304765837
 21
15246.485856000019
 31
0.0
  0
LINE
  5
11E99
  8
0-1
  6
CONTINUOUS
 62
     3
 10
6906.4416304765837
 20
16795.488627999988
 30
0.0
 11
9473.9416304765837
 21
16795.488627999988
 31
0.0
  0
LINE
  5
11E9A
  8
0-1
  6
CONTINUOUS
 62
     3
 10
6920.5833114765919
 20
18254.488626999999
 30
0.0
 11
8283.4873577710241
 21
18254.488626999999
 31
0.0
  0
LINE
  5
11E9B
  8
0-1
  6
CONTINUOUS
 62
     3
 10
6920.5833114765919
 20
18164.485855999999
 30
0.0
 11
8505.8359867026338
 21
18164.485855999999
 31
0.0
  0
LINE
  5
11E9C
  8
0-1
  6
CONTINUOUS
 62
     3
 10
6976.442356476593
 20
16750.486251999992
 30
0.0
 11
9403.9428844765916
 21
15291.48625200001
 31
0.0
  0
LINE
  5
11E9D
  8
0-1
  6
CONTINUOUS
 62
     3
 10
9403.9428844765916
 20
15291.48625200001
 30
0.0
 11
6976.442356476593
 21
14182.986252000001
 31
0.0
  0
LINE
  5
11E9E
  8
0-1
  6
CONTINUOUS
 62
     3
 10
6976.442356476593
 20
15291.48625200001
 30
0.0
 11
9403.9428844765916
 21
14182.986252000001
 31
0.0
  0
LINE
  5
11E9F
  8
0-1
  6
CONTINUOUS
 62
     3
 10
6976.442356476593
 20
18209.48625200001
 30
0.0
 11
9403.9425301204192
 21
16750.488153658851
 31
0.0
  0
LINE
  5
11EA0
  8
0-1
  6
CONTINUOUS
 62
     3
 10
9403.9425301204192
 20
16750.488153658851
 30
0.0
 11
6976.442356476593
 21
15291.48625200001
 31
0.0
  0
LINE
  5
11EA1
  8
0-1
  6
CONTINUOUS
 62
     3
 10
7645.7250515033329
 20
18515.109199916871
 30
0.0
 11
6976.4423564766221
 21
18209.48625200001
 31
0.0
  0
LINE
  5
11EA2
  8
0-1
  6
CONTINUOUS
 62
     3
 10
8938.5251036980335
 20
17988.100579556321
 30
0.0
 11
6976.442356476593
 21
16750.486251999992
 31
0.0
  0
LINE
  5
11EA3
  8
0-1
  6
CONTINUOUS
 62
     3
 10
6838.9404034765721
 20
18842.77119041916
 30
0.0
 11
6838.9404034765721
 21
19522.987175999991
 31
0.0
  0
LINE
  5
11EA4
  8
0-1
  6
CONTINUOUS
 62
     3
 10
6894.4411554765838
 20
19505.488230999988
 30
0.0
 11
6894.4411554765838
 21
19535.487834999982
 31
0.0
  0
LINE
  5
11EA5
  8
0-1
  6
CONTINUOUS
 62
     3
 10
6820.9416304765846
 20
19535.487834999982
 30
0.0
 11
6820.9416304765846
 21
19500.485987999989
 31
0.0
  0
LINE
  5
11EA6
  8
0-1
  6
CONTINUOUS
 62
     3
 10
6889.4408914765727
 20
19540.486120000001
 30
0.0
 11
6825.9409044765798
 21
19540.486120000001
 31
0.0
  0
LINE
  5
11EA7
  8
0-1
  6
CONTINUOUS
 62
     3
 10
6838.9404034765721
 20
19522.987175999991
 30
0.0
 11
6820.9416304765846
 21
19522.987175999991
 31
0.0
  0
LINE
  5
11EA8
  8
0-1
  6
CONTINUOUS
 62
     3
 10
6838.9404034765721
 20
19500.485987999989
 30
0.0
 11
6889.4408914765727
 21
19500.485987999989
 31
0.0
  0
LINE
  5
11EA9
  8
0-1
  6
CONTINUOUS
 62
     3
 10
6897.4417494765958
 20
19510.488495000001
 30
0.0
 11
12282.941116476601
 21
19510.488495000001
 31
0.0
  0
LINE
  5
11EAA
  8
0-6
  6
CONTINUOUS
 62
     6
 10
8238.7610026411312
 20
19237.710188000001
 30
0.0
 11
8382.6621056411223
 21
19749.985842999991
 31
0.0
  0
LINE
  5
11EAB
  8
0-6
  6
CONTINUOUS
 62
     6
 10
7982.9900224765888
 20
19486.164171
 30
0.0
 11
8089.6850844765931
 21
19363.988283999988
 31
0.0
  0
LINE
  5
11EAC
  8
0-6
  6
CONTINUOUS
 62
     6
 10
8089.6850844765931
 20
19363.988283999988
 30
0.0
 11
8028.3793944765848
 21
19514.164461
 31
0.0
  0
LINE
  5
11EAD
  8
0-6
  6
CONTINUOUS
 62
     6
 10
8089.6850844765931
 20
19363.988283999988
 30
0.0
 11
7982.9900224765888
 21
19486.164171
 31
0.0
  0
LINE
  5
11EAE
  8
0-6
  6
CONTINUOUS
 62
     6
 10
7982.9900224765888
 20
19486.164171
 30
0.0
 11
8028.3793944765848
 21
19514.164461
 31
0.0
  0
LINE
  5
11EAF
  8
0-6
  6
CONTINUOUS
 62
     6
 10
8028.3793944765848
 20
19514.164461
 30
0.0
 11
8089.6850844765931
 21
19363.988283999988
 31
0.0
  0
LINE
  5
11EB0
  8
0-6
  6
CONTINUOUS
 62
     6
 10
8028.3793944765848
 20
19514.164461
 30
0.0
 11
7982.9900224765888
 21
19486.164171
 31
0.0
  0
LINE
  5
11EB1
  8
0-6
  6
CONTINUOUS
 62
     6
 10
8089.6850844765931
 20
19363.988283999988
 30
0.0
 11
7795.7572574765873
 21
19770.486383999989
 31
0.0
  0
LINE
  5
11EB2
  8
0-6
  6
CONTINUOUS
 62
     6
 10
8212.8728586411326
 20
19244.109971999991
 30
0.0
 11
8200.3712086411324
 21
19082.385282999989
 31
0.0
  0
LINE
  5
11EB3
  8
0-6
  6
CONTINUOUS
 62
     6
 10
8200.3712086411324
 20
19082.385282999989
 30
0.0
 11
8264.6461776411325
 21
19231.314364000002
 31
0.0
  0
LINE
  5
11EB4
  8
0-6
  6
CONTINUOUS
 62
     6
 10
8200.3712086411324
 20
19082.385282999989
 30
0.0
 11
8212.8728586411326
 21
19244.109971999991
 31
0.0
  0
LINE
  5
11EB5
  8
0-6
  6
CONTINUOUS
 62
     6
 10
8212.8728586411326
 20
19244.109971999991
 30
0.0
 11
8264.6461776411325
 21
19231.314364000002
 31
0.0
  0
LINE
  5
11EB6
  8
0-6
  6
CONTINUOUS
 62
     6
 10
8264.6461776411325
 20
19231.314364000002
 30
0.0
 11
8200.3712086411324
 21
19082.385282999989
 31
0.0
  0
LINE
  5
11EB7
  8
0-6
  6
CONTINUOUS
 62
     6
 10
8264.6461776411325
 20
19231.314364000002
 30
0.0
 11
8212.8728586411326
 21
19244.109971999991
 31
0.0
  0
LINE
  5
11EB8
  8
0-6
  6
CONTINUOUS
 62
     6
 10
8382.6621056411223
 20
19749.985842999991
 30
0.0
 11
8900.3507536411307
 21
19749.985842999991
 31
0.0
  0
LINE
  5
11EB9
  8
0-6
  6
CONTINUOUS
 62
     6
 10
6995.7556084765847
 20
19770.486383999989
 30
0.0
 11
7795.7572574765873
 21
19770.486383999989
 31
0.0
  0
LINE
  5
11EBA
  8
0-6
  6
CONTINUOUS
 62
     6
 10
3627.661020831832
 20
17103.270314344409
 30
0.0
 11
5622.1051728318444
 21
17103.270314344409
 31
0.0
  0
LINE
  5
11EBB
  8
0-6
  6
CONTINUOUS
 62
     6
 10
8734.6999755500165
 20
15639.45061787299
 30
0.0
 11
8448.1319321764458
 21
15467.87801584573
 31
0.0
  0
LINE
  5
11EBC
  8
0-6
  6
CONTINUOUS
 62
     6
 10
7568.1310081764359
 20
15467.87801584573
 30
0.0
 11
8448.1319321764458
 21
15467.87801584573
 31
0.0
  0
LINE
  5
11EBD
  8
0-6
  6
CONTINUOUS
 62
     6
 10
7128.0826857628172
 20
17147.675105459512
 30
0.0
 11
7648.0834117628292
 21
17147.675105459512
 31
0.0
  0
LINE
  5
11EBE
  8
0-6
  6
CONTINUOUS
 62
     6
 10
7230.920646802374
 20
14043.039163439251
 30
0.0
 11
7487.7230921246546
 21
13613.372022545989
 31
0.0
  0
LINE
  5
11EBF
  8
0-6
  6
CONTINUOUS
 62
     6
 10
7487.7230921246546
 20
13613.372022545989
 30
0.0
 11
8287.7237521246461
 21
13613.372022545989
 31
0.0
  0
LINE
  5
11EC0
  8
0-6
  6
CONTINUOUS
 62
     6
 10
8437.8522767923678
 20
13836.43862399998
 30
0.0
 11
8331.5818217923661
 21
13958.98567099998
 31
0.0
  0
LINE
  5
11EC1
  8
0-6
  6
CONTINUOUS
 62
     6
 10
8331.5818217923661
 20
13958.98567099998
 30
0.0
 11
8392.3639297923655
 21
13808.59669499998
 31
0.0
  0
LINE
  5
11EC2
  8
0-6
  6
CONTINUOUS
 62
     6
 10
8331.5818217923661
 20
13958.98567099998
 30
0.0
 11
8437.8522767923678
 21
13836.43862399998
 31
0.0
  0
LINE
  5
11EC3
  8
0-6
  6
CONTINUOUS
 62
     6
 10
8437.8522767923678
 20
13836.43862399998
 30
0.0
 11
8392.3639297923655
 21
13808.59669499998
 31
0.0
  0
LINE
  5
11EC4
  8
0-6
  6
CONTINUOUS
 62
     6
 10
8392.3639297923655
 20
13808.59669499998
 30
0.0
 11
8331.5818217923661
 21
13958.98567099998
 31
0.0
  0
LINE
  5
11EC5
  8
0-6
  6
CONTINUOUS
 62
     6
 10
8392.3639297923655
 20
13808.59669499998
 30
0.0
 11
8437.8522767923678
 21
13836.43862399998
 31
0.0
  0
LINE
  5
11EC6
  8
0-6
  6
CONTINUOUS
 62
     6
 10
7253.8095516019712
 20
14056.7192089317
 30
0.0
 11
7148.8343639604736
 21
14180.37784445318
 31
0.0
  0
LINE
  5
11EC7
  8
0-6
  6
CONTINUOUS
 62
     6
 10
7148.8343639604736
 20
14180.37784445318
 30
0.0
 11
7208.0303669400482
 21
14029.358850769901
 31
0.0
  0
LINE
  5
11EC8
  8
0-6
  6
CONTINUOUS
 62
     6
 10
7148.8343639604736
 20
14180.37784445318
 30
0.0
 11
7253.8095516019712
 21
14056.7192089317
 31
0.0
  0
LINE
  5
11EC9
  8
0-6
  6
CONTINUOUS
 62
     6
 10
7253.8095516019712
 20
14056.7192089317
 30
0.0
 11
7208.0303669400482
 21
14029.358850769901
 31
0.0
  0
LINE
  5
11ECA
  8
0-6
  6
CONTINUOUS
 62
     6
 10
7208.0303669400482
 20
14029.358850769901
 30
0.0
 11
7148.8343639604736
 21
14180.37784445318
 31
0.0
  0
LINE
  5
11ECB
  8
0-6
  6
CONTINUOUS
 62
     6
 10
7208.0303669400482
 20
14029.358850769901
 30
0.0
 11
7253.8095516019712
 21
14056.7192089317
 31
0.0
  0
LINE
  5
11ECC
  8
0-6
  6
CONTINUOUS
 62
     6
 10
8618.1646452923633
 20
13490.75183049999
 30
0.0
 11
9480.7448162923647
 21
13490.75183049999
 31
0.0
  0
LINE
  5
11ECD
  8
0-6
  6
CONTINUOUS
 62
     6
 10
8415.1085987923561
 20
13822.51765999999
 30
0.0
 11
8618.1646452923633
 21
13490.75183049999
 31
0.0
  0
LINE
  5
11ECE
  8
0-6
  6
CONTINUOUS
 62
     6
 10
6801.4909204765872
 20
14376.31030354018
 30
0.0
 11
6823.9416304765864
 21
14536.956154540179
 31
0.0
  0
LINE
  5
11ECF
  8
0-6
  6
CONTINUOUS
 62
     6
 10
6823.9416304765864
 20
14536.956154540179
 30
0.0
 11
6750.6044264765742
 21
14392.27512054018
 31
0.0
  0
LINE
  5
11ED0
  8
0-6
  6
CONTINUOUS
 62
     6
 10
6823.9416304765864
 20
14536.956154540179
 30
0.0
 11
6801.4909204765872
 21
14376.31030354018
 31
0.0
  0
LINE
  5
11ED1
  8
0-6
  6
CONTINUOUS
 62
     6
 10
6801.4909204765872
 20
14376.31030354018
 30
0.0
 11
6750.6044264765742
 21
14392.27512054018
 31
0.0
  0
LINE
  5
11ED2
  8
0-6
  6
CONTINUOUS
 62
     6
 10
6750.6044264765742
 20
14392.27512054018
 30
0.0
 11
6823.9416304765864
 21
14536.956154540179
 31
0.0
  0
LINE
  5
11ED3
  8
0-6
  6
CONTINUOUS
 62
     6
 10
6750.6044264765742
 20
14392.27512054018
 30
0.0
 11
6801.4909204765872
 21
14376.31030354018
 31
0.0
  0
LINE
  5
11ED4
  8
0-6
  6
CONTINUOUS
 62
     6
 10
5109.3073794765842
 20
12514.019802540181
 30
0.0
 11
6189.3069834765838
 21
12514.019802540181
 31
0.0
  0
LINE
  5
11ED5
  8
0-6
  6
CONTINUOUS
 62
     6
 10
6776.047178476575
 20
14384.29172254018
 30
0.0
 11
6189.3069834765838
 21
12514.019802540181
 31
0.0
  0
LINE
  5
11ED6
  8
0-6
  6
CONTINUOUS
 62
     6
 10
7029.0424227628182
 20
17368.468628459501
 30
0.0
 11
7128.0826857628172
 21
17147.675105459512
 31
0.0
  0
LINE
  5
11ED7
  8
0-6
  6
CONTINUOUS
 62
     6
 10
3590.1373288595291
 20
18088.215761138981
 30
0.0
 11
5584.5814808595396
 21
18088.215761138981
 31
0.0
  0
LINE
  5
11ED8
  8
0-6
  6
CONTINUOUS
 62
     6
 10
12356.443015476571
 20
19519.985579
 30
0.0
 11
12448.13035747659
 21
19653.79311699999
 31
0.0
  0
LINE
  5
11ED9
  8
0-6
  6
CONTINUOUS
 62
     6
 10
12486.57161847657
 20
19616.825606999992
 30
0.0
 11
12356.443015476571
 21
19519.985579
 31
0.0
  0
LINE
  5
11EDA
  8
0-6
  6
CONTINUOUS
 62
     6
 10
12486.57161847657
 20
19616.825606999992
 30
0.0
 11
12448.13035747659
 21
19653.79311699999
 31
0.0
  0
LINE
  5
11EDB
  8
0-6
  6
CONTINUOUS
 62
     6
 10
12467.351483476599
 20
19635.30837200001
 30
0.0
 11
12984.34037147659
 21
20139.986634999979
 31
0.0
  0
LINE
  5
11EDC
  8
0-6
  6
CONTINUOUS
 62
     6
 10
12984.34037147659
 20
20139.986634999979
 30
0.0
 11
14659.33971147659
 21
20139.986634999979
 31
0.0
  0
LINE
  5
11EDD
  8
2-0
  6
DASHED3
 62
     6
 10
6906.4416304765837
 20
19278.987755999991
 30
0.0
 11
12273.94163047658
 21
19278.987755999991
 31
0.0
  0
LINE
  5
11EDE
  8
2-0
  6
DASHED3
 62
     6
 10
6863.942356476593
 20
18833.80211675918
 30
0.0
 11
6863.942356476593
 21
19363.988283999988
 31
0.0
  0
LINE
  5
11EDF
  8
2-0
  6
DASHED3
 62
     6
 10
6906.4416304765837
 20
18816.266593620068
 30
0.0
 11
6906.4416304765837
 21
19363.988283999988
 31
0.0
  0
LINE
  5
11EE0
  8
2-0
  6
DASHED3
 62
     6
 10
6863.942356476593
 20
19363.988283999988
 30
0.0
 11
12273.94163047658
 21
19363.988283999988
 31
0.0
  0
LINE
  5
11EE1
  8
2-0
  6
DASHED3
 62
     6
 10
9473.9416304765837
 20
17769.83857947612
 30
0.0
 11
9473.9416304765837
 21
19363.988283999988
 31
0.0
  0
LINE
  5
11EE2
  8
2-0
  6
DASHED3
 62
     6
 10
9516.4428844765916
 20
17752.512986708611
 30
0.0
 11
9516.4428844765916
 21
19363.988283999988
 31
0.0
  0
LINE
  5
11EE3
  8
2-0
  6
DASHED3
 62
     6
 10
8505.8359867026338
 20
18164.485855999999
 30
0.0
 11
9473.9416304765782
 21
18164.485855999999
 31
0.0
  0
LINE
  5
11EE4
  8
2-0
  6
DASHED3
 62
     6
 10
8283.4873577710241
 20
18254.488626999999
 30
0.0
 11
9473.9416304765782
 21
18254.488626999999
 31
0.0
  0
LINE
  5
11EE5
  8
2-0
  6
DASHED3
 62
     6
 10
6976.442356476593
 20
19317.986251999992
 30
0.0
 11
9420.9419994765958
 21
18209.48625200001
 31
0.0
  0
LINE
  5
11EE6
  8
2-0
  6
DASHED3
 62
     6
 10
9420.9419994766085
 20
18209.486251999992
 30
0.0
 11
8938.5251036980335
 21
17988.100579556321
 31
0.0
  0
LINE
  5
11EE7
  8
2-0
  6
DASHED3
 62
     6
 10
9403.9428844765916
 20
19317.986251999992
 30
0.0
 11
7645.7250515033384
 21
18515.109199916871
 31
0.0
  0
LINE
  5
11EE8
  8
2-0
  6
CENTER2
 62
     6
 10
9473.9416304765837
 20
20560.488495000009
 30
0.0
 11
9473.9416304765837
 21
19610.487834999989
 31
0.0
  0
LINE
  5
11EE9
  8
2-0
  6
CENTER2
 62
     6
 10
5576.9415254765909
 20
19317.986251999992
 30
0.0
 11
7223.4407464765818
 21
19317.986251999992
 31
0.0
  0
LINE
  5
11EEA
  8
0-8
  6
CONTINUOUS
 62
     6
 10
6906.4416304765837
 20
20560.488495000009
 30
0.0
 11
6906.4416304765837
 21
19610.487834999989
 31
0.0
  0
LINE
  5
11EEB
  8
2-0
  6
CENTER2
 62
     6
 10
5576.9415254765909
 20
16750.486251999992
 30
0.0
 11
12445.741078476591
 21
16750.486251999992
 31
0.0
  0
LINE
  5
11EEC
  8
2-0
  6
CENTER2
 62
     6
 10
5576.9415254765909
 20
14182.986252000001
 30
0.0
 11
7223.4407464765818
 21
14182.986252000001
 31
0.0
  0
LINE
  5
11EED
  8
2-0
  6
CENTER2
 62
     6
 10
6687.6434624765952
 20
18209.48625200001
 30
0.0
 11
12445.741078476591
 21
18209.48625200001
 31
0.0
  0
LINE
  5
11EEE
  8
2-0
  6
CENTER2
 62
     6
 10
6687.6434624765952
 20
15291.48625200001
 30
0.0
 11
12445.741078476591
 21
15291.48625200001
 31
0.0
  0
ARC
  5
11EEF
  8
0-1
  6
CONTINUOUS
 62
     3
 10
6889.4408914765727
 20
19505.488230999988
 30
0.0
 40
5.0
 50
269.9999850001808
 51
0.0
  0
ARC
  5
11EF0
  8
0-1
  6
CONTINUOUS
 62
     3
 10
6889.4408914765727
 20
19535.487834999982
 30
0.0
 40
5.0
 50
0.0
 51
90.0
  0
ARC
  5
11EF1
  8
0-1
  6
CONTINUOUS
 62
     3
 10
6825.9409044765798
 20
19535.487834999982
 30
0.0
 40
5.0
 50
90.0
 51
180.0
  0
CIRCLE
  5
11EF2
  8
0-5
  6
CONTINUOUS
 62
     4
 10
9473.9416304765837
 20
20760.487175999991
 30
0.0
 40
199.9999949999999
  0
CIRCLE
  5
11EF3
  8
0-5
  6
CONTINUOUS
 62
     4
 10
6906.4416304765837
 20
20760.487175999991
 30
0.0
 40
199.9999949999999
  0
CIRCLE
  5
11EF4
  8
0-5
  6
CONTINUOUS
 62
     4
 10
5376.941854476594
 20
19317.986251999992
 30
0.0
 40
199.9999949999999
  0
CIRCLE
  5
11EF5
  8
0-5
  6
CONTINUOUS
 62
     4
 10
5376.941854476594
 20
16750.486251999992
 30
0.0
 40
199.9999949999999
  0
CIRCLE
  5
11EF6
  8
0-5
  6
CONTINUOUS
 62
     4
 10
5376.941854476594
 20
14182.986252000001
 30
0.0
 40
199.9999949999999
  0
CIRCLE
  5
11EF7
  8
0-5
  6
CONTINUOUS
 62
     4
 10
15128.71667799999
 20
1375.999982000001
 30
0.0
 40
20.0
  0
ARC
  5
11EF8
  8
0-5
  6
CONTINUOUS
 62
     4
 10
15128.71667799999
 20
1375.999982000001
 30
0.0
 40
20.0
 50
180.0
 51
0.0
  0
ARC
  5
11EF9
  8
0-5
  6
CONTINUOUS
 62
     4
 10
15128.71667799999
 20
1375.999982000001
 30
0.0
 40
20.0
 50
0.0
 51
179.99998500000001
  0
CIRCLE
  5
11EFA
  8
0-5
  6
CONTINUOUS
 62
     4
 10
15128.71667799999
 20
1775.9993219999981
 30
0.0
 40
20.0
  0
ARC
  5
11EFB
  8
0-5
  6
CONTINUOUS
 62
     4
 10
15128.71667799999
 20
1775.9993219999981
 30
0.0
 40
20.0
 50
180.0
 51
0.0
  0
ARC
  5
11EFC
  8
0-5
  6
CONTINUOUS
 62
     4
 10
15128.71667799999
 20
1775.9993219999981
 30
0.0
 40
20.0
 50
0.0
 51
179.99998500000001
  0
TEXT
  5
11EFD
  8
0-5
  6
CONTINUOUS
 62
     7
 10
9420.2244244765934
 20
20671.27225300001
 30
0.0
 40
160.0
  1
2
 72
     4
 11
9473.5577578099274
 21
20751.27225300001
 31
0.0
  0
TEXT
  5
11EFE
  8
0-5
  6
CONTINUOUS
 62
     7
 10
6879.7749638099176
 20
20671.27225300001
 30
0.0
 40
160.0
  1
1
 72
     4
 11
6906.4416304765837
 21
20751.27225300001
 31
0.0
  0
TEXT
  5
11EFF
  8
0-5
  6
CONTINUOUS
 62
     7
 10
5323.481986476595
 20
19238.397728
 30
0.0
 40
160.0
  1
C
 72
     4
 11
5376.815319809928
 21
19318.397728
 31
0.0
  0
TEXT
  5
11F00
  8
0-5
  6
CONTINUOUS
 62
     7
 10
5323.481986476595
 20
16670.898717999989
 30
0.0
 40
160.0
  1
B
 72
     4
 11
5376.815319809928
 21
16750.898717999989
 31
0.0
  0
TEXT
  5
11F01
  8
0-5
  6
CONTINUOUS
 62
     7
 10
5323.481986476595
 20
14103.397728000011
 30
0.0
 40
160.0
  1
A
 72
     4
 11
5376.815319809928
 21
14183.397728000011
 31
0.0
  0
TEXT
  5
11F02
  8
0-5
  6
CONTINUOUS
 62
     7
 10
16661.217403999992
 20
1655.999792000001
 30
0.0
 40
160.0
  1
H
  0
TEXT
  5
11F03
  8
0-5
  6
CONTINUOUS
 62
     7
 10
15176.146933
 20
1655.999792000001
 30
0.0
 40
160.0
  1
（ ）内寸法ハ、  タイプヲ示ス。
  0
TEXT
  5
11F04
  8
0-5
  6
CONTINUOUS
 62
     7
 10
15288.716216000001
 20
1255.999462
 30
0.0
 40
160.0
  1
有効高サハ、基礎高サヲ含ミマセン。
  0
TEXT
  5
11F05
  8
0-6
  6
CONTINUOUS
 62
     7
 10
8462.6623696411261
 20
19829.98610699999
 30
0.0
 40
160.0
  1
屋根
 72
     4
 11
8633.3290363077922
 21
19909.98610699999
 31
0.0
  0
TEXT
  5
11F06
  8
0-6
  6
CONTINUOUS
 62
     7
 10
7075.7568624765954
 20
19850.486647999991
 30
0.0
 40
160.0
  1
桁（後）
 72
     4
 11
7395.7568624765954
 21
19930.486647999991
 31
0.0
  0
TEXT
  5
11F07
  8
0-6
  6
CONTINUOUS
 62
     7
 10
7648.1322621764421
 20
15558.378715845731
 30
0.0
 40
160.0
  1
ブレース
 72
     4
 11
8010.7989288431081
 21
15643.71204917907
 31
0.0
  0
TEXT
  5
11F08
  8
0-6
  6
CONTINUOUS
 62
     7
 10
7567.7223661246453
 20
13693.372286546
 30
0.0
 40
160.0
  1
桁（前）
 72
     4
 11
7887.7223661246462
 21
13773.372286546
 31
0.0
  0
TEXT
  5
11F09
  8
0-6
  6
CONTINUOUS
 62
     7
 10
8698.1639192923703
 20
13570.75110449999
 30
0.0
 40
160.0
  1
鼻隠し前
 72
     4
 11
9060.8305859590364
 21
13650.75110449999
 31
0.0
  0
TEXT
  5
11F0A
  8
0-6
  6
CONTINUOUS
 62
     7
 10
5189.3076434765808
 20
12594.01907654018
 30
0.0
 40
160.0
  1
ケラバ 左
 72
     4
 11
5605.3076434765817
 21
12674.01907654018
 31
0.0
  0
TEXT
  5
11F0B
  8
0-6
  6
CONTINUOUS
 62
     7
 10
7208.082949762832
 20
17227.67536945951
 30
0.0
 40
160.0
  1
上枠
 72
     4
 11
7378.749616429498
 21
17307.67536945951
 31
0.0
  0
TEXT
  5
11F0C
  8
0-6
  6
CONTINUOUS
 62
     7
 10
13064.340635476599
 20
20219.984918999991
 30
0.0
 40
160.0
  1
鼻隠しコーナー後
 72
     4
 11
13811.007302143271
 21
20299.984918999991
 31
0.0
  0
TEXT
  5
11F0D
  8
2-0
  6
CONTINUOUS
 62
     7
 10
21841.769232999432
 20
3292.802588999999
 30
0.0
 40
160.0
  1
正 面 立 面 図
 72
     4
 11
22487.102566332771
 21
3372.802588999999
 31
0.0
  0
TEXT
  5
11F0E
  8
2-0
  6
CONTINUOUS
 62
     7
 10
7808.7002624709367
 20
3264.0669070000022
 30
0.0
 40
160.0
  1
側 面 立 面 図
 50
0.000139
 72
     4
 11
8454.0334017217574
 21
3344.0684725833762
 31
0.0
  0
TEXT
  5
11F0F
  8
0-6
  6
CONTINUOUS
 62
     7
 10
3654.1696965538349
 20
18184.267249028311
 30
0.0
 40
160.0
  1
桁中B +  桁中補強B
 72
     4
 11
4587.5030298871689
 21
18264.267249028318
 31
0.0
  0
TEXT
  5
11F10
  8
0-6
  6
CONTINUOUS
 62
     7
 10
3691.6933885261351
 20
17199.323781233761
 30
0.0
 40
160.0
  1
桁中A +  桁中補強A
 72
     4
 11
4625.026721859469
 21
17279.323781233761
 31
0.0
  0
LINE
  5
11F14
  8
0-6
  6
CONTINUOUS
 62
     6
 10
10029.80119934641
 20
19787.010398411789
 30
0.0
 11
11294.47078498414
 21
19787.010398411789
 31
0.0
  0
TEXT
  5
11F15
  8
0-6
  6
CONTINUOUS
 62
     7
 10
10109.800968346401
 20
19867.010662411791
 30
0.0
 40
160.0
  1
桁（後）補強
  0
LINE
  5
11F16
  8
0-6
  6
CONTINUOUS
 62
     6
 10
9056.9704364808331
 20
19135.191705746962
 30
0.0
 11
9190.5999659863519
 21
18832.68419574801
 31
0.0
  0
LINE
  5
11F17
  8
0-6
  6
CONTINUOUS
 62
     6
 10
8992.3194135725298
 20
19281.547230841199
 30
0.0
 11
9032.5773135460495
 21
19124.416014316921
 31
0.0
  0
LINE
  5
11F18
  8
0-6
  6
CONTINUOUS
 62
     6
 10
9032.5773135460495
 20
19124.416014316921
 30
0.0
 11
9081.3635594156112
 21
19145.967397176992
 31
0.0
  0
LINE
  5
11F19
  8
0-6
  6
CONTINUOUS
 62
     6
 10
9081.3635594156112
 20
19145.967397176992
 30
0.0
 11
8992.3194135725298
 21
19281.547230841199
 31
0.0
  0
LINE
  5
11F1A
  8
0-6
  6
CONTINUOUS
 62
     6
 10
9190.5999659863483
 20
18832.68419574801
 30
0.0
 11
10029.80119934641
 21
19787.010398411789
 31
0.0
  0
TEXT
  5
11F1B
  8
2-0
  6
CONTINUOUS
 62
     7
 10
9805.5255868593831
 20
3291.2638415833758
 30
0.0
 40
160.0
  1
1
 72
     4
 11
9832.1922535260492
 21
3371.2638415833749
 31
0.0
  0
TEXT
  5
11F1C
  8
2-0
  6
CONTINUOUS
 62
     7
 10
10048.61430411006
 20
3211.2653095833748
 30
0.0
 40
160.0
  1
80
 72
     4
 11
10168.61430411006
 21
3291.2653095833748
 31
0.0
  0
TEXT
  5
11F1D
  8
2-0
  6
CONTINUOUS
 62
     7
 10
9306.5275528593793
 20
3264.0684725833762
 30
0.0
 40
160.0
  1
(S=  /   )
 72
     4
 11
9866.5275528593793
 21
3344.0684725833762
 31
0.0
  0
TEXT
  5
11F1E
  8
2-0
  6
CONTINUOUS
 62
     7
 10
23838.594751470391
 20
3319.9979579999999
 30
0.0
 40
160.0
  1
1
 72
     4
 11
23865.261418137059
 21
3399.9979579999999
 31
0.0
  0
TEXT
  5
11F1F
  8
2-0
  6
CONTINUOUS
 62
     7
 10
24081.683468721101
 20
3239.9994259999989
 30
0.0
 40
160.0
  1
80
 72
     4
 11
24201.683468721101
 21
3319.9994259999989
 31
0.0
  0
TEXT
  5
11F20
  8
2-0
  6
CONTINUOUS
 62
     7
 10
23339.596717470398
 20
3292.802588999999
 30
0.0
 40
160.0
  1
(S=  /   )
 72
     4
 11
23899.596717470398
 21
3372.802588999999
 31
0.0
  0
LINE
  5
11F21
  8
2-0
  6
CENTER2
 62
     6
 10
12273.94163047658
 20
20560.488495000009
 30
0.0
 11
12273.94163047658
 21
19610.487834999989
 31
0.0
  0
CIRCLE
  5
11F22
  8
0-5
  6
CONTINUOUS
 62
     4
 10
12273.94163047658
 20
20760.487175999991
 30
0.0
 40
199.9999949999999
  0
TEXT
  5
11F23
  8
0-5
  6
CONTINUOUS
 62
     7
 10
12220.224424476581
 20
20671.27225300001
 30
0.0
 40
160.0
  1
3
 72
     4
 11
12273.55775780992
 21
20751.27225300001
 31
0.0
  0
LINE
  5
11F24
  8
0-1
  6
CONTINUOUS
 62
     3
 10
12341.44186847657
 20
16587.062384390982
 30
0.0
 11
12341.44186847659
 21
19522.987175999991
 31
0.0
  0
LINE
  5
11F25
  8
0-1
  6
CONTINUOUS
 62
     3
 10
12341.44186847659
 20
19522.987175999991
 30
0.0
 11
12359.44163047658
 21
19522.987175999991
 31
0.0
  0
LINE
  5
11F26
  8
0-1
  6
CONTINUOUS
 62
     3
 10
12285.941116476601
 20
19505.488230999988
 30
0.0
 11
12285.941116476601
 21
19535.487834999982
 31
0.0
  0
LINE
  5
11F27
  8
0-1
  6
CONTINUOUS
 62
     3
 10
12341.44186847659
 20
19500.485987999989
 30
0.0
 11
12290.9423704766
 21
19500.485987999989
 31
0.0
  0
LINE
  5
11F28
  8
0-1
  6
CONTINUOUS
 62
     3
 10
12359.44163047658
 20
19535.487834999982
 30
0.0
 11
12359.44163047658
 21
19500.485987999989
 31
0.0
  0
LINE
  5
11F29
  8
0-1
  6
CONTINUOUS
 62
     3
 10
12290.9423704766
 20
19540.486120000001
 30
0.0
 11
12354.44037747658
 21
19540.486120000001
 31
0.0
  0
ARC
  5
11F2A
  8
0-1
  6
CONTINUOUS
 62
     3
 10
12354.44037747658
 20
19535.487834999982
 30
0.0
 40
5.0
 50
0.0
 51
90.0
  0
ARC
  5
11F2B
  8
0-1
  6
CONTINUOUS
 62
     3
 10
12290.9423704766
 20
19535.487834999982
 30
0.0
 40
5.0
 50
90.0
 51
180.0
  0
ARC
  5
11F2C
  8
0-1
  6
CONTINUOUS
 62
     3
 10
12290.9423704766
 20
19505.488230999988
 30
0.0
 40
5.0
 50
180.0
 51
269.9999850001808
  0
LINE
  5
11F2D
  8
0-1
  6
CONTINUOUS
 62
     3
 10
9473.9416304765837
 20
14146.486899
 30
0.0
 11
9473.9416304765837
 21
13990.486978000001
 31
0.0
  0
LINE
  5
11F2E
  8
0-1
  6
CONTINUOUS
 62
     3
 10
6600.385737047417
 20
18941.24070338087
 30
0.0
 11
9882.7400838212343
 21
17603.19230765941
 31
0.0
  0
LINE
  5
11F2F
  8
0-1
  6
CONTINUOUS
 62
     3
 10
12223.94199947659
 20
14022.486885
 30
0.0
 11
12223.94199947659
 21
16635.899450312161
 31
0.0
  0
LINE
  5
11F30
  8
0-1
  6
CONTINUOUS
 62
     3
 10
12359.44163047658
 20
13990.486252000001
 30
0.0
 11
12359.44163047658
 21
16579.990702284111
 31
0.0
  0
LINE
  5
11F31
  8
0-1
  6
CONTINUOUS
 62
     3
 10
12273.94163047658
 20
14146.486899
 30
0.0
 11
12273.94163047658
 21
16613.58674043581
 31
0.0
  0
LINE
  5
11F32
  8
0-1
  6
CONTINUOUS
 62
     3
 10
12316.44288447659
 20
14146.486899
 30
0.0
 11
12316.44288447659
 21
16596.109000377732
 31
0.0
  0
LINE
  5
11F33
  8
0-1
  6
CONTINUOUS
 62
     3
 10
12223.94199947659
 20
16635.899450312161
 30
0.0
 11
12223.94199947659
 21
19510.488495000001
 31
0.0
  0
LINE
  5
11F34
  8
0-1
  6
CONTINUOUS
 62
     3
 10
12359.44163047658
 20
16579.990702284111
 30
0.0
 11
12359.44163047658
 21
19522.987175999991
 31
0.0
  0
LINE
  5
11F35
  8
2-0
  6
DASHED3
 62
     6
 10
12273.94163047658
 20
16613.58674043581
 30
0.0
 11
12273.94163047658
 21
19510.488495000001
 31
0.0
  0
LINE
  5
11F36
  8
2-0
  6
DASHED3
 62
     6
 10
12316.44288447659
 20
16596.109000377732
 30
0.0
 11
12316.44288447659
 21
19500.485987999989
 31
0.0
  0
LINE
  5
11F37
  8
0-1
  6
CONTINUOUS
 62
     3
 10
6820.9416304765846
 20
18850.108371842391
 30
0.0
 11
6820.9416304765846
 21
19530.487571999991
 31
0.0
  0
LINE
  5
11F38
  8
0-1
  6
CONTINUOUS
 62
     3
 10
6956.4422504765953
 20
18871.363360818679
 30
0.0
 11
6956.4422504765953
 21
19510.488495000001
 31
0.0
  0
LINE
  5
11F39
  8
0-1
  6
CONTINUOUS
 62
     3
 10
9326.443741476598
 20
17829.965943221199
 30
0.0
 11
9326.443741476598
 21
19510.488495000001
 31
0.0
  0
LINE
  5
11F3A
  8
0-1
  6
CONTINUOUS
 62
     3
 10
9363.4439134766035
 20
17814.882860910271
 30
0.0
 11
9363.4439134766035
 21
19510.488495000001
 31
0.0
  0
LINE
  5
11F3B
  8
0-1
  6
CONTINUOUS
 62
     3
 10
9526.4444014766086
 20
17748.435878522589
 30
0.0
 11
9526.4444014766086
 21
19510.488495000001
 31
0.0
  0
LINE
  5
11F3C
  8
0-1
  6
CONTINUOUS
 62
     3
 10
9563.4445734766141
 20
17733.35279621166
 30
0.0
 11
9563.4445734766141
 21
19510.488495000001
 31
0.0
  0
LINE
  5
11F3D
  8
0-1
  6
CONTINUOUS
 62
     3
 10
9726.4450614766192
 20
17666.905813823982
 30
0.0
 11
9726.4450614766174
 21
19510.488495000001
 31
0.0
  0
LINE
  5
11F3E
  8
0-1
  6
CONTINUOUS
 62
     3
 10
9763.4452334766229
 20
17651.82273151305
 30
0.0
 11
9763.4452334766229
 21
19510.488495000001
 31
0.0
  0
LINE
  5
11F3F
  8
0-1
  6
CONTINUOUS
 62
     3
 10
9926.445721476628
 20
17709.117740013218
 30
0.0
 11
9926.4457214766244
 21
19510.488495000001
 31
0.0
  0
LINE
  5
11F40
  8
0-1
  6
CONTINUOUS
 62
     3
 10
9963.4458934766353
 20
17798.791736927971
 30
0.0
 11
9963.4458934766353
 21
19510.488495000001
 31
0.0
  0
LINE
  5
11F41
  8
0-1
  6
CONTINUOUS
 62
     3
 10
10126.44638147663
 20
17663.714145947641
 30
0.0
 11
10126.44638147663
 21
19510.488495000001
 31
0.0
  0
LINE
  5
11F42
  8
0-1
  6
CONTINUOUS
 62
     3
 10
10163.44655347664
 20
17621.17090555876
 30
0.0
 11
10163.44655347664
 21
19510.488495000001
 31
0.0
  0
LINE
  5
11F43
  8
0-1
  6
CONTINUOUS
 62
     3
 10
10326.44704147664
 20
17431.377017966901
 30
0.0
 11
10326.44704147664
 21
19510.488495000001
 31
0.0
  0
LINE
  5
11F44
  8
0-1
  6
CONTINUOUS
 62
     3
 10
10363.44721347664
 20
17388.581626968818
 30
0.0
 11
10363.44721347664
 21
19510.488495000001
 31
0.0
  0
LINE
  5
11F45
  8
0-1
  6
CONTINUOUS
 62
     3
 10
10526.447701476651
 20
17198.787791101659
 30
0.0
 11
10526.447701476651
 21
19510.488495000001
 31
0.0
  0
LINE
  5
11F46
  8
0-1
  6
CONTINUOUS
 62
     3
 10
10563.447873476651
 20
17156.244550712781
 30
0.0
 11
10563.447873476651
 21
19510.488495000001
 31
0.0
  0
LINE
  5
11F47
  8
0-1
  6
CONTINUOUS
 62
     3
 10
10726.44836147665
 20
17021.195778491841
 30
0.0
 11
10726.44836147665
 21
19510.488495000001
 31
0.0
  0
LINE
  5
11F48
  8
0-1
  6
CONTINUOUS
 62
     3
 10
10763.44853347667
 20
17110.874058523728
 30
0.0
 11
10763.44853347667
 21
19510.488495000001
 31
0.0
  0
LINE
  5
11F49
  8
0-1
  6
CONTINUOUS
 62
     3
 10
10926.449021476659
 20
17167.714521001009
 30
0.0
 11
10926.449021476659
 21
19510.488495000001
 31
0.0
  0
LINE
  5
11F4A
  8
0-1
  6
CONTINUOUS
 62
     3
 10
10963.44919347667
 20
17152.49898434131
 30
0.0
 11
10963.44919347667
 21
19510.488495000001
 31
0.0
  0
LINE
  5
11F4B
  8
0-1
  6
CONTINUOUS
 62
     3
 10
11126.449681476681
 20
17085.468487815251
 30
0.0
 11
11126.449681476681
 21
19510.488495000001
 31
0.0
  0
LINE
  5
11F4C
  8
0-1
  6
CONTINUOUS
 62
     3
 10
11163.44985347669
 20
17070.252951155551
 30
0.0
 11
11163.44985347669
 21
19510.488495000001
 31
0.0
  0
LINE
  5
11F4D
  8
0-1
  6
CONTINUOUS
 62
     3
 10
11326.45034147669
 20
17003.22245462946
 30
0.0
 11
11326.45034147669
 21
19510.488495000001
 31
0.0
  0
LINE
  5
11F4E
  8
0-1
  6
CONTINUOUS
 62
     3
 10
11363.45051347669
 20
16988.006917969789
 30
0.0
 11
11363.45051347669
 21
19510.488495000001
 31
0.0
  0
LINE
  5
11F4F
  8
0-1
  6
CONTINUOUS
 62
     3
 10
11526.451001476689
 20
16920.976421443698
 30
0.0
 11
11526.45100147668
 21
19510.488495000001
 31
0.0
  0
LINE
  5
11F50
  8
0-1
  6
CONTINUOUS
 62
     3
 10
11563.451173476709
 20
16905.760884784031
 30
0.0
 11
11563.451173476689
 21
19510.488495000001
 31
0.0
  0
LINE
  5
11F51
  8
0-1
  6
CONTINUOUS
 62
     3
 10
11726.4516614767
 20
16838.730388257951
 30
0.0
 11
11726.451661476711
 21
19510.488495000001
 31
0.0
  0
LINE
  5
11F52
  8
0-1
  6
CONTINUOUS
 62
     3
 10
11763.451833476711
 20
16823.514851598251
 30
0.0
 11
11763.451833476711
 21
19510.488495000001
 31
0.0
  0
LINE
  5
11F53
  8
2-0
  6
DASHED3
 62
     6
 10
11831.604217243321
 20
16795.488627999988
 30
0.0
 11
12273.94163047658
 21
16795.488627999988
 31
0.0
  0
LINE
  5
11F54
  8
2-0
  6
DASHED3
 62
     6
 10
12050.467217738111
 20
16705.485856999989
 30
0.0
 11
12273.94163047658
 21
16705.485856999989
 31
0.0
  0
LINE
  5
11F55
  8
0-1
  6
CONTINUOUS
 62
     3
 10
9473.9416304765837
 20
16705.485856999989
 30
0.0
 11
12050.467217738111
 21
16705.485856999989
 31
0.0
  0
LINE
  5
11F56
  8
0-1
  6
CONTINUOUS
 62
     3
 10
9473.9416304765837
 20
16795.488627999999
 30
0.0
 11
11831.604217243321
 21
16795.488627999988
 31
0.0
  0
LINE
  5
11F57
  8
0-1
  6
CONTINUOUS
 62
     3
 10
9473.9416304765837
 20
15336.487638000021
 30
0.0
 11
12273.94163047658
 21
15336.487638000021
 31
0.0
  0
LINE
  5
11F58
  8
0-1
  6
CONTINUOUS
 62
     3
 10
9473.9416304765837
 20
15246.485856000019
 30
0.0
 11
12273.94163047658
 21
15246.485856000019
 31
0.0
  0
LINE
  5
11F59
  8
2-0
  6
DASHED3
 62
     6
 10
12273.94163047658
 20
18164.485855999999
 30
0.0
 11
9473.9416304765782
 21
18164.485855999999
 31
0.0
  0
LINE
  5
11F5A
  8
2-0
  6
DASHED3
 62
     6
 10
12273.94163047658
 20
18254.488626999999
 30
0.0
 11
9473.9416304765782
 21
18254.488626999999
 31
0.0
  0
LINE
  5
11F5B
  8
0-1
  6
CONTINUOUS
 62
     3
 10
12094.44199947659
 20
15291.48625200001
 30
0.0
 11
9642.9428844765953
 21
14182.986252000001
 31
0.0
  0
LINE
  5
11F5C
  8
0-1
  6
CONTINUOUS
 62
     3
 10
9642.9428844765953
 20
16750.486251999992
 30
0.0
 11
12094.44199947659
 21
15291.48625200001
 31
0.0
  0
LINE
  5
11F5D
  8
0-1
  6
CONTINUOUS
 62
     3
 10
9642.9428844765916
 20
15291.48625200001
 30
0.0
 11
12031.757511744419
 21
16713.179827110162
 31
0.0
  0
LINE
  5
11F5E
  8
0-1
  6
CONTINUOUS
 62
     3
 10
12094.44199947659
 20
14182.986252000001
 30
0.0
 11
9642.9428844765916
 21
15291.48625200001
 31
0.0
  0
LINE
  5
11F5F
  8
0-6
  6
CONTINUOUS
 62
     6
 10
12220.94199947659
 20
14649.02086206411
 30
0.0
 11
11516.663644288779
 21
13482.292315831861
 31
0.0
  0
LINE
  5
11F60
  8
2-0
  6
DASHED3
 62
     6
 10
9642.9428844765916
 20
18209.48625200001
 30
0.0
 11
12094.44199947659
 21
16750.486251999992
 31
0.0
  0
LINE
  5
11F61
  8
2-0
  6
DASHED3
 62
     6
 10
12094.44199947659
 20
18209.48625200001
 30
0.0
 11
10482.920507729439
 21
17250.395611472039
 31
0.0
  0
LINE
  5
11F62
  8
0-1
  6
CONTINUOUS
 62
     3
 10
10482.920507729439
 20
17250.395611472039
 30
0.0
 11
9642.9428844765953
 21
16750.486251999992
 31
0.0
  0
LINE
  5
11F63
  8
2-0
  6
DASHED3
 62
     6
 10
12094.44199947659
 20
19317.986251999992
 30
0.0
 11
9642.9428844765916
 21
18209.48625200001
 31
0.0
  0
LINE
  5
11F64
  8
2-0
  6
DASHED3
 62
     6
 10
9642.9428844765953
 20
19317.986251999992
 30
0.0
 11
12094.44199947659
 21
18209.48625200001
 31
0.0
  0
LINE
  5
11F65
  8
0-6
  6
CONTINUOUS
 62
     6
 10
5584.5814808595396
 20
18088.215761138981
 30
0.0
 11
7271.7374540387173
 21
17696.726770879792
 31
0.0
  0
LINE
  5
11F66
  8
0-6
  6
CONTINUOUS
 62
     6
 10
7271.7374540387173
 20
17696.726770879792
 30
0.0
 11
7622.8291852355414
 21
18164.485856000021
 31
0.0
  0
LINE
  5
11F67
  8
0-1
  6
CONTINUOUS
 62
     3
 10
9882.7395460614607
 20
17603.191004339282
 30
0.0
 11
9978.0935663849814
 21
17834.291987445478
 31
0.0
  0
LINE
  5
11F68
  8
0-1
  6
CONTINUOUS
 62
     3
 10
10711.793098568191
 20
16985.67543628786
 30
0.0
 11
10807.14374824571
 21
17216.77928799433
 31
0.0
  0
LINE
  5
11F69
  8
0-1
  6
CONTINUOUS
 62
     3
 10
10711.793098568191
 20
16985.67543628786
 30
0.0
 11
9978.0935663849814
 21
17834.291987445478
 31
0.0
  0
LINE
  5
11F6A
  8
0-1
  6
CONTINUOUS
 62
     3
 10
10807.14268946686
 20
17216.776721804479
 30
0.0
 11
12653.00244898217
 21
16457.70601155105
 31
0.0
  0
TEXT
  5
11F6B
  8
2-0
  6
CONTINUOUS
 62
     7
 10
21935.765181876552
 20
11251.104441999991
 30
0.0
 40
160.0
  1
平　面　図
 72
     4
 11
22389.09851520988
 21
11325.77110866666
 31
0.0
  0
TEXT
  5
11F6C
  8
2-0
  6
CONTINUOUS
 62
     7
 10
8012.9000086175347
 20
11156.81700299998
 30
0.0
 40
160.0
  1
小 屋 伏 図
 72
     4
 11
8514.2333419508686
 21
11236.81700299998
 31
0.0
  0
TEXT
  5
11F6D
  8
2-0
  6
CONTINUOUS
 62
     7
 10
23740.5907003475
 20
11272.96647766667
 30
0.0
 40
160.0
  1
1
 72
     4
 11
23767.257367014168
 21
11352.96647766667
 31
0.0
  0
TEXT
  5
11F6E
  8
2-0
  6
CONTINUOUS
 62
     7
 10
23983.6794175982
 20
11192.967945666671
 30
0.0
 40
160.0
  1
80
 72
     4
 11
24103.6794175982
 21
11272.967945666671
 31
0.0
  0
TEXT
  5
11F6F
  8
2-0
  6
CONTINUOUS
 62
     7
 10
23241.592666347511
 20
11245.77110866666
 30
0.0
 40
160.0
  1
(S=  /   )
 72
     4
 11
23801.592666347511
 21
11325.77110866666
 31
0.0
  0
TEXT
  5
11F70
  8
2-0
  6
CONTINUOUS
 62
     7
 10
9865.7255270884998
 20
11184.012371999979
 30
0.0
 40
160.0
  1
1
 72
     4
 11
9892.3921937551622
 21
11264.012371999979
 31
0.0
  0
TEXT
  5
11F71
  8
2-0
  6
CONTINUOUS
 62
     7
 10
10108.81424433919
 20
11104.01383999998
 30
0.0
 40
160.0
  1
80
 72
     4
 11
10228.81424433919
 21
11184.01383999998
 31
0.0
  0
TEXT
  5
11F72
  8
2-0
  6
CONTINUOUS
 62
     7
 10
9366.7274930884923
 20
11156.81700299998
 30
0.0
 40
160.0
  1
(S=  /   )
 72
     4
 11
9926.7274930884923
 21
11236.81700299998
 31
0.0
  0
LINE
  5
11F73
  8
2-0
  6
DASHED3
 62
     6
 10
12031.757511744419
 20
16713.179827110162
 30
0.0
 11
12094.44199947659
 21
16750.486251999992
 31
0.0
  0
LINE
  5
11F74
  8
0-6
  6
CONTINUOUS
 62
     6
 10
3590.1373288595291
 20
15264.03238181716
 30
0.0
 11
5584.5814808595396
 21
15264.03238181716
 31
0.0
  0
TEXT
  5
11F75
  8
0-6
  6
CONTINUOUS
 62
     7
 10
3654.1696965538349
 20
15360.083869706519
 30
0.0
 40
160.0
  1
桁中B +  桁中補強B
 72
     4
 11
4587.5030298871689
 21
15440.083869706519
 31
0.0
  0
LINE
  5
11F76
  8
0-6
  6
CONTINUOUS
 62
     6
 10
5584.5814808595396
 20
15264.03238181716
 30
0.0
 11
7200.1887366383662
 21
14645.00412931599
 31
0.0
  0
LINE
  5
11F77
  8
0-6
  6
CONTINUOUS
 62
     6
 10
7200.1887366383662
 20
14645.00412931599
 30
0.0
 11
7622.8291852355414
 21
15208.087483334901
 31
0.0
  0
LINE
  5
11F78
  8
0-6
  6
CONTINUOUS
 62
     6
 10
5622.1051728318444
 20
17103.270314344409
 30
0.0
 11
7535.740956702577
 21
16276.676348604609
 31
0.0
  0
LINE
  5
11F79
  8
0-6
  6
CONTINUOUS
 62
     6
 10
7535.740956702577
 20
16276.676348604609
 30
0.0
 11
7793.3653274936141
 21
16694.98542100003
 31
0.0
  0
LINE
  5
11F7F
  8
0-1
  6
CONTINUOUS
 62
     3
 10
19816.006397585181
 20
8132.6883740000021
 30
0.0
 11
22298.509828585142
 21
8132.6883740000021
 31
0.0
  0
LINE
  5
11F80
  8
0-1
  6
CONTINUOUS
 62
     3
 10
19816.006397585181
 20
8326.1887430000024
 30
0.0
 11
22298.509828585142
 21
8326.1887430000024
 31
0.0
  0
LINE
  5
11F81
  8
0-1
  6
CONTINUOUS
 62
     3
 10
19688.010092585158
 20
8264.0026619999971
 30
0.0
 11
19688.010092585158
 21
8589.6883999999973
 31
0.0
  0
LINE
  5
11F82
  8
0-1
  6
CONTINUOUS
 62
     3
 10
22383.508377585149
 20
8459.6884660000014
 30
0.0
 11
19688.010092585158
 21
8459.6884660000014
 31
0.0
  0
LINE
  5
11F83
  8
0-1
  6
CONTINUOUS
 62
     3
 10
19688.010092585158
 20
8589.6883999999973
 30
0.0
 11
22363.51128058515
 21
8589.6883999999973
 31
0.0
  0
LINE
  5
11F84
  8
0-1
  6
CONTINUOUS
 62
     3
 10
7680.7332144709544
 20
8152.2344180000064
 30
0.0
 11
7680.7332144709544
 21
6291.1885390000007
 31
0.0
  0
LINE
  5
11F85
  8
0-1
  6
CONTINUOUS
 62
     3
 10
7643.7350224709498
 20
8152.2344180000064
 30
0.0
 11
7643.7350224709498
 21
6291.1885390000007
 31
0.0
  0
LINE
  5
11F86
  8
0-1
  6
CONTINUOUS
 62
     3
 10
8380.7325544709438
 20
8152.2344180000064
 30
0.0
 11
8380.7325544709438
 21
6291.1885390000007
 31
0.0
  0
LINE
  5
11F87
  8
0-1
  6
CONTINUOUS
 62
     3
 10
8343.7343624709429
 20
8152.2344180000064
 30
0.0
 11
8343.7343624709429
 21
6291.1885390000007
 31
0.0
  0
LINE
  5
11F88
  8
0-1
  6
CONTINUOUS
 62
     3
 10
8002.2327654709406
 20
6291.1885390000007
 30
0.0
 11
8002.2327654709406
 21
8152.2344180000064
 31
0.0
  0
LINE
  5
11F89
  8
0-1
  6
CONTINUOUS
 62
     3
 10
8022.2338214709553
 20
6291.1885390000007
 30
0.0
 11
8022.2338214709553
 21
8152.2344180000064
 31
0.0
  0
LINE
  5
11F8A
  8
0-1
  6
CONTINUOUS
 62
     3
 10
7952.234085470951
 20
6291.1885390000007
 30
0.0
 11
7952.234085470951
 21
8152.2344180000064
 31
0.0
  0
LINE
  5
11F8B
  8
0-1
  6
CONTINUOUS
 62
     3
 10
8072.2334914709509
 20
6291.1885390000007
 30
0.0
 11
8072.2334914709509
 21
8152.2344180000064
 31
0.0
  0
LINE
  5
11F8C
  8
0-1
  6
CONTINUOUS
 62
     3
 10
8205.2333854709432
 20
6291.1885390000007
 30
0.0
 11
8205.2333854709432
 21
8152.2344180000064
 31
0.0
  0
LINE
  5
11F8D
  8
0-1
  6
CONTINUOUS
 62
     3
 10
8220.2331874709525
 20
6291.1885390000007
 30
0.0
 11
8220.2331874709525
 21
8152.2344180000064
 31
0.0
  0
LINE
  5
11F8E
  8
0-1
  6
CONTINUOUS
 62
     3
 10
7819.2332004709469
 20
6291.1885390000007
 30
0.0
 11
7819.2332004709469
 21
8152.2344180000064
 31
0.0
  0
LINE
  5
11F8F
  8
0-1
  6
CONTINUOUS
 62
     3
 10
7804.234388470948
 20
6291.1885390000007
 30
0.0
 11
7804.234388470948
 21
8152.2344180000064
 31
0.0
  0
LINE
  5
11F90
  8
0-1
  6
CONTINUOUS
 62
     3
 10
7520.2338474709468
 20
6291.1885390000007
 30
0.0
 11
7520.2338474709468
 21
8152.2344180000064
 31
0.0
  0
LINE
  5
11F91
  8
0-1
  6
CONTINUOUS
 62
     3
 10
7505.2330554709488
 20
6291.1885390000007
 30
0.0
 11
7505.2330554709488
 21
8152.2344180000064
 31
0.0
  0
LINE
  5
11F92
  8
0-1
  6
CONTINUOUS
 62
     3
 10
7372.2341514709442
 20
6291.1885390000007
 30
0.0
 11
7372.2341514709442
 21
8152.2344180000064
 31
0.0
  0
LINE
  5
11F93
  8
0-1
  6
CONTINUOUS
 62
     3
 10
7252.232765470947
 20
6291.1885390000007
 30
0.0
 11
7252.232765470947
 21
8152.2344180000064
 31
0.0
  0
LINE
  5
11F94
  8
0-1
  6
CONTINUOUS
 62
     3
 10
7322.2354704709542
 20
6291.1885390000007
 30
0.0
 11
7322.2354704709542
 21
8152.2344180000064
 31
0.0
  0
LINE
  5
11F95
  8
0-1
  6
CONTINUOUS
 62
     3
 10
7302.2344154709544
 20
6291.1885390000007
 30
0.0
 11
7302.2344154709544
 21
8152.2344180000064
 31
0.0
  0
LINE
  5
11F96
  8
0-1
  6
CONTINUOUS
 62
     3
 10
8504.2327394709464
 20
6291.1885390000007
 30
0.0
 11
8504.2327394709464
 21
8152.2344180000064
 31
0.0
  0
LINE
  5
11F97
  8
0-1
  6
CONTINUOUS
 62
     3
 10
8519.2335304709541
 20
6291.1885390000007
 30
0.0
 11
8519.2335304709541
 21
8152.2344180000064
 31
0.0
  0
LINE
  5
11F98
  8
0-1
  6
CONTINUOUS
 62
     3
 10
8652.2344154709554
 20
6291.1885390000007
 30
0.0
 11
8652.2344154709554
 21
8152.2344180000064
 31
0.0
  0
LINE
  5
11F99
  8
0-1
  6
CONTINUOUS
 62
     3
 10
8920.2335174709515
 20
6291.1885390000007
 30
0.0
 11
8920.2335174709515
 21
8152.2344180000064
 31
0.0
  0
LINE
  5
11F9A
  8
0-1
  6
CONTINUOUS
 62
     3
 10
8905.2347054709517
 20
6291.1885390000007
 30
0.0
 11
8905.2347054709517
 21
8152.2344180000064
 31
0.0
  0
LINE
  5
11F9B
  8
0-1
  6
CONTINUOUS
 62
     3
 10
8772.2338214709416
 20
6291.1885390000007
 30
0.0
 11
8772.2338214709416
 21
8152.2344180000064
 31
0.0
  0
LINE
  5
11F9C
  8
0-1
  6
CONTINUOUS
 62
     3
 10
8722.2341514709442
 20
6291.1885390000007
 30
0.0
 11
8722.2341514709442
 21
8152.2344180000064
 31
0.0
  0
LINE
  5
11F9D
  8
0-1
  6
CONTINUOUS
 62
     3
 10
8702.2350744709547
 20
6291.1885390000007
 30
0.0
 11
8702.2350744709547
 21
8152.2344180000064
 31
0.0
  0
LINE
  5
11F9E
  8
0-1
  6
CONTINUOUS
 62
     3
 10
9530.2340454709465
 20
6291.1885390000007
 30
0.0
 11
9530.2340454709465
 21
8152.2344180000064
 31
0.0
  0
LINE
  5
11F9F
  8
0-1
  6
CONTINUOUS
 62
     3
 10
9510.2349694709555
 20
6291.1885390000007
 30
0.0
 11
9510.2349694709555
 21
8152.2344180000064
 31
0.0
  0
LINE
  5
11FA0
  8
0-1
  6
CONTINUOUS
 62
     3
 10
9580.2347054709426
 20
6291.1885390000007
 30
0.0
 11
9580.2347054709426
 21
8152.2344180000064
 31
0.0
  0
LINE
  5
11FA1
  8
0-1
  6
CONTINUOUS
 62
     3
 10
9460.2343094709522
 20
6291.1885390000007
 30
0.0
 11
9460.2343094709522
 21
8152.2344180000064
 31
0.0
  0
LINE
  5
11FA2
  8
0-1
  6
CONTINUOUS
 62
     3
 10
9327.2344154709444
 20
6291.1885390000007
 30
0.0
 11
9327.2344154709444
 21
8152.2344180000064
 31
0.0
  0
LINE
  5
11FA3
  8
0-1
  6
CONTINUOUS
 62
     3
 10
9312.2326334709396
 20
6291.1885390000007
 30
0.0
 11
9312.2326334709396
 21
8152.2344180000064
 31
0.0
  0
LINE
  5
11FA4
  8
0-1
  6
CONTINUOUS
 62
     3
 10
9713.2345994709522
 20
6291.1885390000007
 30
0.0
 11
9713.2345994709522
 21
8152.2344180000064
 31
0.0
  0
LINE
  5
11FA5
  8
0-1
  6
CONTINUOUS
 62
     3
 10
9728.2334124709523
 20
6291.1885390000007
 30
0.0
 11
9728.2334124709523
 21
8152.2344180000064
 31
0.0
  0
LINE
  5
11FA6
  8
0-1
  6
CONTINUOUS
 62
     3
 10
11412.233623470929
 20
6291.1885390000007
 30
0.0
 11
11412.233623470929
 21
8152.2344180000064
 31
0.0
  0
LINE
  5
11FA7
  8
0-1
  6
CONTINUOUS
 62
     3
 10
11427.23342547094
 20
6291.1885390000007
 30
0.0
 11
11427.23342547094
 21
8152.2344180000064
 31
0.0
  0
LINE
  5
11FA8
  8
0-1
  6
CONTINUOUS
 62
     3
 10
10930.23470547095
 20
6291.1885390000007
 30
0.0
 11
10930.23470547095
 21
8152.2344180000064
 31
0.0
  0
LINE
  5
11FA9
  8
0-1
  6
CONTINUOUS
 62
     3
 10
10910.233649470951
 20
6291.1885390000007
 30
0.0
 11
10910.233649470951
 21
8152.2344180000064
 31
0.0
  0
LINE
  5
11FAA
  8
0-1
  6
CONTINUOUS
 62
     3
 10
10980.23338547094
 20
6291.1885390000007
 30
0.0
 11
10980.23338547094
 21
8152.2344180000064
 31
0.0
  0
LINE
  5
11FAB
  8
0-1
  6
CONTINUOUS
 62
     3
 10
10860.234969470939
 20
6291.1885390000007
 30
0.0
 11
10860.234969470939
 21
8152.2344180000064
 31
0.0
  0
LINE
  5
11FAC
  8
0-1
  6
CONTINUOUS
 62
     3
 10
10727.23408547094
 20
6291.1885390000007
 30
0.0
 11
10727.23408547094
 21
8152.2344180000064
 31
0.0
  0
LINE
  5
11FAD
  8
0-1
  6
CONTINUOUS
 62
     3
 10
10712.23428347094
 20
6291.1885390000007
 30
0.0
 11
10712.23428347094
 21
8152.2344180000064
 31
0.0
  0
LINE
  5
11FAE
  8
0-1
  6
CONTINUOUS
 62
     3
 10
11113.232290470951
 20
6291.1885390000007
 30
0.0
 11
11113.232290470951
 21
8152.2344180000064
 31
0.0
  0
LINE
  5
11FAF
  8
0-1
  6
CONTINUOUS
 62
     3
 10
11128.23407147095
 20
6291.1885390000007
 30
0.0
 11
11128.23407147095
 21
8152.2344180000064
 31
0.0
  0
LINE
  5
11FB0
  8
0-1
  6
CONTINUOUS
 62
     3
 10
10428.23473147095
 20
6291.1885390000007
 30
0.0
 11
10428.23473147095
 21
8152.2344180000064
 31
0.0
  0
LINE
  5
11FB1
  8
0-1
  6
CONTINUOUS
 62
     3
 10
10413.232950470951
 20
6291.1885390000007
 30
0.0
 11
10413.232950470951
 21
8152.2344180000064
 31
0.0
  0
LINE
  5
11FB2
  8
0-1
  6
CONTINUOUS
 62
     3
 10
10012.23494247095
 20
6291.1885390000007
 30
0.0
 11
10012.23494247095
 21
8152.2344180000064
 31
0.0
  0
LINE
  5
11FB3
  8
0-1
  6
CONTINUOUS
 62
     3
 10
10027.23375547093
 20
6291.1885390000007
 30
0.0
 11
10027.23375547093
 21
8152.2344180000064
 31
0.0
  0
LINE
  5
11FB4
  8
0-1
  6
CONTINUOUS
 62
     3
 10
10160.23265947095
 20
6291.1885390000007
 30
0.0
 11
10160.23265947095
 21
8152.2344180000064
 31
0.0
  0
LINE
  5
11FB5
  8
0-1
  6
CONTINUOUS
 62
     3
 10
10280.23404547095
 20
6291.1885390000007
 30
0.0
 11
10280.23404547095
 21
8152.2344180000064
 31
0.0
  0
LINE
  5
11FB6
  8
0-1
  6
CONTINUOUS
 62
     3
 10
10210.234309470939
 20
6291.1885390000007
 30
0.0
 11
10210.234309470939
 21
8152.2344180000064
 31
0.0
  0
LINE
  5
11FB7
  8
0-1
  6
CONTINUOUS
 62
     3
 10
10230.23338547095
 20
6291.1885390000007
 30
0.0
 11
10230.23338547095
 21
8152.2344180000064
 31
0.0
  0
LINE
  5
11FB8
  8
0-1
  6
CONTINUOUS
 62
     3
 10
9888.7347584709532
 20
8152.2344180000064
 30
0.0
 11
9888.7347584709532
 21
6291.1885390000007
 31
0.0
  0
LINE
  5
11FB9
  8
0-1
  6
CONTINUOUS
 62
     3
 10
9851.7335964709564
 20
8152.2344180000064
 30
0.0
 11
9851.7335964709564
 21
6291.1885390000007
 31
0.0
  0
LINE
  5
11FBA
  8
0-1
  6
CONTINUOUS
 62
     3
 10
11288.73244847095
 20
8152.2344180000064
 30
0.0
 11
11288.73244847095
 21
6291.1885390000007
 31
0.0
  0
LINE
  5
11FBB
  8
0-1
  6
CONTINUOUS
 62
     3
 10
11251.733266470939
 20
8152.2344180000064
 30
0.0
 11
11251.733266470939
 21
6291.1885390000007
 31
0.0
  0
LINE
  5
11FBC
  8
0-1
  6
CONTINUOUS
 62
     3
 10
10588.734098470941
 20
8152.2344180000064
 30
0.0
 11
10588.734098470941
 21
6291.1885390000007
 31
0.0
  0
LINE
  5
11FBD
  8
0-1
  6
CONTINUOUS
 62
     3
 10
10551.733926470941
 20
8152.2344180000064
 30
0.0
 11
10551.733926470941
 21
6291.1885390000007
 31
0.0
  0
LINE
  5
11FBE
  8
0-1
  6
CONTINUOUS
 62
     3
 10
22391.00877358517
 20
6241.1883740000021
 30
0.0
 11
22291.009432585161
 21
6241.1883740000021
 31
0.0
  0
LINE
  5
11FBF
  8
0-1
  6
CONTINUOUS
 62
     3
 10
22291.009432585161
 20
6241.1883740000021
 30
0.0
 11
22291.009432585161
 21
6141.1885390000007
 31
0.0
  0
LINE
  5
11FC0
  8
0-1
  6
CONTINUOUS
 62
     3
 10
22391.00877358517
 20
6141.1885390000007
 30
0.0
 11
22391.00877358517
 21
6241.1883740000021
 31
0.0
  0
LINE
  5
11FC1
  8
0-1
  6
CONTINUOUS
 62
     3
 10
22298.509828585142
 20
8459.6884660000014
 30
0.0
 11
22298.509828585142
 21
6241.1883740000021
 31
0.0
  0
LINE
  5
11FC2
  8
0-1
  6
CONTINUOUS
 62
     3
 10
22247.010092585158
 20
8132.6883740000021
 30
0.0
 11
22247.010092585158
 21
6141.1885390000007
 31
0.0
  0
LINE
  5
11FC3
  8
0-1
  6
CONTINUOUS
 62
     3
 10
22363.51128058516
 20
8589.6883999999973
 30
0.0
 11
22363.51128058516
 21
6241.1883740000021
 31
0.0
  0
LINE
  5
11FC4
  8
0-1
  6
CONTINUOUS
 62
     3
 10
22383.510092585158
 20
8459.6884660000014
 30
0.0
 11
22383.510092585158
 21
6241.1883740000021
 31
0.0
  0
LINE
  5
11FC5
  8
0-1
  6
CONTINUOUS
 62
     3
 10
19688.010092585158
 20
8264.0026619999971
 30
0.0
 11
19731.010092585158
 21
8264.0026619999971
 31
0.0
  0
LINE
  5
11FC6
  8
0-1
  6
CONTINUOUS
 62
     3
 10
19723.50745358516
 20
6241.1883740000021
 30
0.0
 11
19823.506793585169
 21
6241.1883740000021
 31
0.0
  0
LINE
  5
11FC7
  8
0-1
  6
CONTINUOUS
 62
     3
 10
19823.506793585169
 20
6241.1883740000021
 30
0.0
 11
19823.506793585169
 21
6141.1885390000007
 31
0.0
  0
LINE
  5
11FC8
  8
0-1
  6
CONTINUOUS
 62
     3
 10
19723.50745358516
 20
6141.1885390000007
 30
0.0
 11
19723.50745358516
 21
6241.1883740000021
 31
0.0
  0
LINE
  5
11FC9
  8
0-1
  6
CONTINUOUS
 62
     3
 10
19867.510092585158
 20
8132.6883740000021
 30
0.0
 11
19867.510092585158
 21
6141.1885390000007
 31
0.0
  0
LINE
  5
11FCA
  8
0-1
  6
CONTINUOUS
 62
     3
 10
19816.006397585181
 20
8459.6884660000014
 30
0.0
 11
19816.006397585181
 21
6241.1883740000021
 31
0.0
  0
LINE
  5
11FCB
  8
0-1
  6
CONTINUOUS
 62
     3
 10
19751.006925585149
 20
8589.6883999999973
 30
0.0
 11
19751.006925585149
 21
6241.1883740000021
 31
0.0
  0
LINE
  5
11FCC
  8
0-1
  6
CONTINUOUS
 62
     3
 10
19731.010092585158
 20
8459.6884660000014
 30
0.0
 11
19731.010092585158
 21
6241.1883740000021
 31
0.0
  0
LINE
  5
11FCD
  8
0-1
  6
CONTINUOUS
 62
     3
 10
11738.73357047094
 20
6241.1883740000021
 30
0.0
 11
11738.73357047094
 21
6141.1885390000007
 31
0.0
  0
LINE
  5
11FCE
  8
0-1
  6
CONTINUOUS
 62
     3
 10
11706.232779470931
 20
8455.5174490000027
 30
0.0
 11
11706.232779470931
 21
6241.1883740000021
 31
0.0
  0
LINE
  5
11FCF
  8
0-1
  6
CONTINUOUS
 62
     3
 10
11726.23357047094
 20
8456.0984379999973
 30
0.0
 11
11726.23357047094
 21
6241.1883740000021
 31
0.0
  0
LINE
  5
11FD0
  8
0-1
  6
CONTINUOUS
 62
     3
 10
11611.23370247093
 20
8152.2344180000064
 30
0.0
 11
11611.23370247093
 21
6241.1883740000021
 31
0.0
  0
LINE
  5
11FD1
  8
0-1
  6
CONTINUOUS
 62
     3
 10
9116.233570470944
 20
8356.9898809999977
 30
0.0
 11
9116.233570470944
 21
8152.2344180000064
 31
0.0
  0
LINE
  5
11FD2
  8
0-1
  6
CONTINUOUS
 62
     3
 10
9043.7337024709523
 20
8152.2344180000064
 30
0.0
 11
9043.7337024709523
 21
6241.1883740000021
 31
0.0
  0
LINE
  5
11FD3
  8
0-1
  6
CONTINUOUS
 62
     3
 10
9188.7324484709425
 20
8152.2344180000064
 30
0.0
 11
9188.7324484709425
 21
6241.1883740000021
 31
0.0
  0
LINE
  5
11FD4
  8
0-1
  6
CONTINUOUS
 62
     3
 10
9188.7324484709425
 20
6291.1885390000007
 30
0.0
 11
11611.23370247093
 21
6291.1885390000007
 31
0.0
  0
LINE
  5
11FD5
  8
0-1
  6
CONTINUOUS
 62
     3
 10
19867.510092585158
 20
6661.1892649999991
 30
0.0
 11
22247.010092585158
 21
6661.1892649999991
 31
0.0
  0
LINE
  5
11FD6
  8
0-1
  6
CONTINUOUS
 62
     3
 10
19867.510092585158
 20
6596.1888030000027
 30
0.0
 11
22247.010092585158
 21
6596.1888030000027
 31
0.0
  0
LINE
  5
11FD7
  8
0-1
  6
CONTINUOUS
 62
     3
 10
19867.510092585158
 20
6531.1888360000003
 30
0.0
 11
22247.010092585158
 21
6531.1888360000003
 31
0.0
  0
LINE
  5
11FD8
  8
0-1
  6
CONTINUOUS
 62
     3
 10
19867.510092585158
 20
6466.1883740000039
 30
0.0
 11
22247.010092585158
 21
6466.1883740000039
 31
0.0
  0
LINE
  5
11FD9
  8
0-1
  6
CONTINUOUS
 62
     3
 10
19867.510092585158
 20
6401.1889020000071
 30
0.0
 11
22247.010092585158
 21
6401.1889020000071
 31
0.0
  0
LINE
  5
11FDA
  8
0-1
  6
CONTINUOUS
 62
     3
 10
19867.510092585158
 20
6336.1889349999956
 30
0.0
 11
22247.010092585158
 21
6336.1889349999956
 31
0.0
  0
LINE
  5
11FDB
  8
0-1
  6
CONTINUOUS
 62
     3
 10
19867.510092585158
 20
6271.1889680000004
 30
0.0
 11
22247.010092585158
 21
6271.1889680000004
 31
0.0
  0
LINE
  5
11FDC
  8
0-1
  6
CONTINUOUS
 62
     3
 10
19867.510092585158
 20
6206.1885060000041
 30
0.0
 11
22247.010092585158
 21
6206.1885060000041
 31
0.0
  0
LINE
  5
11FDD
  8
0-1
  6
CONTINUOUS
 62
     3
 10
19867.510092585158
 20
8026.1885719999982
 30
0.0
 11
22247.010092585158
 21
8026.1885719999982
 31
0.0
  0
LINE
  5
11FDE
  8
0-1
  6
CONTINUOUS
 62
     3
 10
19867.510092585158
 20
7961.1886050000021
 30
0.0
 11
22247.010092585158
 21
7961.1886050000021
 31
0.0
  0
LINE
  5
11FDF
  8
0-1
  6
CONTINUOUS
 62
     3
 10
19867.510092585158
 20
7896.1891330000062
 30
0.0
 11
22247.010092585158
 21
7896.1891330000062
 31
0.0
  0
LINE
  5
11FE0
  8
0-1
  6
CONTINUOUS
 62
     3
 10
19867.510092585158
 20
7831.1891659999937
 30
0.0
 11
22247.010092585158
 21
7831.1891659999937
 31
0.0
  0
LINE
  5
11FE1
  8
0-1
  6
CONTINUOUS
 62
     3
 10
19867.510092585158
 20
7766.1891989999967
 30
0.0
 11
22247.010092585158
 21
7766.1891989999967
 31
0.0
  0
LINE
  5
11FE2
  8
0-1
  6
CONTINUOUS
 62
     3
 10
19867.510092585158
 20
7701.1887370000022
 30
0.0
 11
22247.010092585158
 21
7701.1887370000022
 31
0.0
  0
LINE
  5
11FE3
  8
0-1
  6
CONTINUOUS
 62
     3
 10
19867.510092585158
 20
7636.1887699999979
 30
0.0
 11
22247.010092585158
 21
7636.1887699999979
 31
0.0
  0
LINE
  5
11FE4
  8
0-1
  6
CONTINUOUS
 62
     3
 10
19867.510092585158
 20
7571.1892980000011
 30
0.0
 11
22247.010092585158
 21
7571.1892980000011
 31
0.0
  0
LINE
  5
11FE5
  8
0-1
  6
CONTINUOUS
 62
     3
 10
19867.510092585158
 20
7506.1893309999978
 30
0.0
 11
22247.010092585158
 21
7506.1893309999978
 31
0.0
  0
LINE
  5
11FE6
  8
0-1
  6
CONTINUOUS
 62
     3
 10
19867.510092585158
 20
7441.1888690000023
 30
0.0
 11
22247.010092585158
 21
7441.1888690000023
 31
0.0
  0
LINE
  5
11FE7
  8
0-1
  6
CONTINUOUS
 62
     3
 10
19867.510092585158
 20
7376.188901999999
 30
0.0
 11
22247.010092585158
 21
7376.188901999999
 31
0.0
  0
LINE
  5
11FE8
  8
0-1
  6
CONTINUOUS
 62
     3
 10
19867.510092585158
 20
7311.1889350000029
 30
0.0
 11
22247.010092585158
 21
7311.1889350000029
 31
0.0
  0
LINE
  5
11FE9
  8
0-1
  6
CONTINUOUS
 62
     3
 10
19867.510092585158
 20
7246.1884730000029
 30
0.0
 11
22247.010092585158
 21
7246.1884730000029
 31
0.0
  0
LINE
  5
11FEA
  8
0-1
  6
CONTINUOUS
 62
     3
 10
19867.510092585158
 20
7181.1885060000041
 30
0.0
 11
22247.010092585158
 21
7181.1885060000041
 31
0.0
  0
LINE
  5
11FEB
  8
0-1
  6
CONTINUOUS
 62
     3
 10
19867.510092585158
 20
7116.1890340000009
 30
0.0
 11
22247.010092585158
 21
7116.1890340000009
 31
0.0
  0
LINE
  5
11FEC
  8
0-1
  6
CONTINUOUS
 62
     3
 10
19867.510092585158
 20
7051.1890669999966
 30
0.0
 11
22247.010092585158
 21
7051.1890669999966
 31
0.0
  0
LINE
  5
11FED
  8
0-1
  6
CONTINUOUS
 62
     3
 10
19867.510092585158
 20
6986.1891000000032
 30
0.0
 11
22247.010092585158
 21
6986.1891000000032
 31
0.0
  0
LINE
  5
11FEE
  8
0-1
  6
CONTINUOUS
 62
     3
 10
19867.510092585158
 20
6921.1886380000051
 30
0.0
 11
22247.010092585158
 21
6921.1886380000051
 31
0.0
  0
LINE
  5
11FEF
  8
0-1
  6
CONTINUOUS
 62
     3
 10
19867.510092585158
 20
6856.1886710000017
 30
0.0
 11
22247.010092585158
 21
6856.1886710000017
 31
0.0
  0
LINE
  5
11FF0
  8
0-1
  6
CONTINUOUS
 62
     3
 10
19867.510092585158
 20
6791.1891989999967
 30
0.0
 11
22247.010092585158
 21
6791.1891989999967
 31
0.0
  0
LINE
  5
11FF1
  8
0-1
  6
CONTINUOUS
 62
     3
 10
19867.510092585158
 20
6726.1892320000024
 30
0.0
 11
22247.010092585158
 21
6726.1892320000024
 31
0.0
  0
LINE
  5
11FF2
  8
0-1
  6
CONTINUOUS
 62
     3
 10
19867.510092585158
 20
8080.6485920000023
 30
0.0
 11
22247.010092585158
 21
8080.6485920000023
 31
0.0
  0
LINE
  5
11FF3
  8
0-1
  6
CONTINUOUS
 62
     3
 10
19723.50745358516
 20
6141.1885390000007
 30
0.0
 11
25752.488468710359
 21
6141.1885390000007
 31
0.0
  0
LINE
  5
11FF4
  8
0-1
  6
CONTINUOUS
 62
     3
 10
6498.7335704709431
 20
6141.1885390000007
 30
0.0
 11
6498.7335704709431
 21
6241.1883740000021
 31
0.0
  0
LINE
  5
11FF5
  8
0-1
  6
CONTINUOUS
 62
     3
 10
6526.2333724709461
 20
8268.990877000002
 30
0.0
 11
6526.2333724709461
 21
6241.1883740000021
 31
0.0
  0
LINE
  5
11FF6
  8
0-1
  6
CONTINUOUS
 62
     3
 10
6506.233570470944
 20
8268.3741496838102
 30
0.0
 11
6506.233570470944
 21
6241.1883740000021
 31
0.0
  0
LINE
  5
11FF7
  8
0-1
  6
CONTINUOUS
 62
     3
 10
6498.7335704709431
 20
6241.1883740000021
 30
0.0
 11
11738.73357047094
 21
6241.1883740000021
 31
0.0
  0
LINE
  5
11FF8
  8
0-1
  6
CONTINUOUS
 62
     3
 10
6621.232449470951
 20
6291.1885390000007
 30
0.0
 11
9043.7337024709523
 21
6291.1885390000007
 31
0.0
  0
LINE
  5
11FF9
  8
0-1
  6
CONTINUOUS
 62
     3
 10
5816.2325154709433
 20
6141.1885390000007
 30
0.0
 11
11738.73357047094
 21
6141.1885390000007
 31
0.0
  0
LINE
  5
11FFA
  8
0-1
  6
CONTINUOUS
 62
     3
 10
6526.2333724709461
 20
8152.2344180000064
 30
0.0
 11
11706.232779470931
 21
8152.2344180000064
 31
0.0
  0
LINE
  5
11FFB
  8
0-1
  6
CONTINUOUS
 62
     3
 10
19842.00935358517
 20
8335.1891200000064
 30
0.0
 11
20119.438883585171
 21
8335.1891200000064
 31
0.0
  0
LINE
  5
11FFC
  8
0-1
  6
CONTINUOUS
 62
     3
 10
19842.00935358517
 20
8377.1885650000022
 30
0.0
 11
20151.435821585172
 21
8377.1885650000022
 31
0.0
  0
LINE
  5
11FFD
  8
0-1
  6
CONTINUOUS
 62
     3
 10
19837.009090585161
 20
8340.1888889999937
 30
0.0
 11
19837.009090585161
 21
8372.1892910000006
 31
0.0
  0
LINE
  5
11FFE
  8
0-1
  6
CONTINUOUS
 62
     3
 10
19816.006397585181
 20
8386.1884470000077
 30
0.0
 11
22298.509828585142
 21
8386.1884470000077
 31
0.0
  0
LINE
  5
11FFF
  8
0-1
  6
CONTINUOUS
 62
     3
 10
20122.97232358516
 20
8336.6529740000005
 30
0.0
 11
20154.973221585169
 21
8368.653376000002
 31
0.0
  0
LINE
  5
12000
  8
0-1
  6
CONTINUOUS
 62
     3
 10
19837.009090585161
 20
8368.7889730000006
 30
0.0
 11
20155.101889585148
 21
8368.7889730000006
 31
0.0
  0
LINE
  5
12001
  8
0-1
  6
CONTINUOUS
 62
     3
 10
19837.009090585161
 20
8360.3888860000006
 30
0.0
 11
20146.708731585171
 21
8360.3888860000006
 31
0.0
  0
LINE
  5
12002
  8
0-1
  6
CONTINUOUS
 62
     3
 10
19837.009090585161
 20
8351.9892939999972
 30
0.0
 11
20138.309633585159
 21
8351.9892939999972
 31
0.0
  0
LINE
  5
12003
  8
0-1
  6
CONTINUOUS
 62
     3
 10
19837.009090585161
 20
8343.5892070000027
 30
0.0
 11
20129.906577585181
 21
8343.5892070000027
 31
0.0
  0
LINE
  5
12004
  8
0-1
  6
CONTINUOUS
 62
     3
 10
22277.50911658517
 20
8368.7889730000006
 30
0.0
 11
21959.416316585161
 21
8368.7889730000006
 31
0.0
  0
LINE
  5
12005
  8
0-1
  6
CONTINUOUS
 62
     3
 10
22277.50911658517
 20
8360.3888860000006
 30
0.0
 11
21967.811454585171
 21
8360.3888860000006
 31
0.0
  0
LINE
  5
12006
  8
0-1
  6
CONTINUOUS
 62
     3
 10
22277.50911658517
 20
8351.9892939999972
 30
0.0
 11
21976.210551585151
 21
8351.9892939999972
 31
0.0
  0
LINE
  5
12007
  8
0-1
  6
CONTINUOUS
 62
     3
 10
22277.50911658517
 20
8343.5892070000027
 30
0.0
 11
21984.60964958516
 21
8343.5892070000027
 31
0.0
  0
LINE
  5
12008
  8
0-1
  6
CONTINUOUS
 62
     3
 10
22272.50885258515
 20
8377.1885650000022
 30
0.0
 11
21963.082384585141
 21
8377.1885650000022
 31
0.0
  0
LINE
  5
12009
  8
0-1
  6
CONTINUOUS
 62
     3
 10
22272.50885258515
 20
8335.1891200000064
 30
0.0
 11
21995.07932358516
 21
8335.1891200000064
 31
0.0
  0
LINE
  5
1200A
  8
0-1
  6
CONTINUOUS
 62
     3
 10
22277.50911658517
 20
8340.1888889999937
 30
0.0
 11
22277.50911658517
 21
8372.1892910000006
 31
0.0
  0
LINE
  5
1200B
  8
0-1
  6
CONTINUOUS
 62
     3
 10
21991.543902585159
 20
8336.6529740000005
 30
0.0
 11
21959.54696458517
 21
8368.653376000002
 31
0.0
  0
LINE
  5
1200C
  8
0-1
  6
CONTINUOUS
 62
     3
 10
6331.9317464709457
 20
8303.1736990000027
 30
0.0
 11
11811.92323547094
 21
8498.6897600000066
 31
0.0
  0
LINE
  5
1200D
  8
0-1
  6
CONTINUOUS
 62
     3
 10
11810.422760470939
 20
8548.6686450000016
 30
0.0
 11
6330.4322614709417
 21
8353.151595000003
 31
0.0
  0
LINE
  5
1200E
  8
0-1
  6
CONTINUOUS
 62
     3
 10
6327.3422334709494
 20
8356.0604969999968
 30
0.0
 11
6326.382166470944
 21
8388.0460529999982
 31
0.0
  0
LINE
  5
1200F
  8
0-1
  6
CONTINUOUS
 62
     3
 10
6331.230997470946
 20
8393.1932959999976
 30
0.0
 11
11830.19221247094
 21
8589.2804480000032
 31
0.0
  0
LINE
  5
12010
  8
0-1
  6
CONTINUOUS
 62
     3
 10
11834.09681247094
 20
8459.338910000004
 30
0.0
 11
6335.1316384709462
 21
8263.2522529999969
 31
0.0
  0
LINE
  5
12011
  8
0-1
  6
CONTINUOUS
 62
     3
 10
6329.9839004709474
 20
8268.099599000001
 30
0.0
 11
6329.024823470947
 21
8300.0856499999973
 31
0.0
  0
LINE
  5
12012
  8
0-1
  6
CONTINUOUS
 62
     3
 10
6328.6932544709452
 20
8311.0803909999977
 30
0.0
 11
6327.6728124709434
 21
8345.0647660000086
 31
0.0
  0
LINE
  5
12013
  8
0-1
  6
CONTINUOUS
 62
     3
 10
6330.5817154709484
 20
8348.1538049999999
 30
0.0
 11
11810.57419347094
 21
8543.6713500000023
 31
0.0
  0
LINE
  5
12014
  8
0-1
  6
CONTINUOUS
 62
     3
 10
11811.77378147094
 20
8503.6880440000004
 30
0.0
 11
6331.7832834709443
 21
8308.1719839999969
 31
0.0
  0
LINE
  5
12015
  8
0-1
  6
CONTINUOUS
 62
     3
 10
9116.233570470944
 20
8356.9898809999977
 30
0.0
 11
9112.3309494709483
 21
8486.9314189999968
 31
0.0
  0
LINE
  5
12016
  8
0-1
  6
CONTINUOUS
 62
     3
 10
11801.129910470931
 20
8458.3481610000017
 30
0.0
 11
11797.228279470941
 21
8588.2896989999972
 31
0.0
  0
LINE
  5
12017
  8
0-1
  6
CONTINUOUS
 62
     3
 10
6343.7237394709446
 20
8393.5684149999979
 30
0.0
 11
6347.6263604709457
 21
8263.6273720000008
 31
0.0
  0
LINE
  5
12018
  8
0-2
  6
CONTINUOUS
 62
     4
 10
21420.948133085159
 20
6888.415233000007
 30
0.0
 11
21320.948793085161
 21
6888.415233000007
 31
0.0
  0
LINE
  5
12019
  8
0-2
  6
CONTINUOUS
 62
     4
 10
20693.564133085161
 20
6888.415233000007
 30
0.0
 11
20793.563473085149
 21
6888.415233000007
 31
0.0
  0
LINE
  5
1201A
  8
0-5
  6
CONTINUOUS
 62
     4
 10
22341.010092585158
 20
4461.1889349999938
 30
0.0
 11
22341.010092585158
 21
4301.1893970000001
 31
0.0
  0
LINE
  5
1201B
  8
0-5
  6
CONTINUOUS
 62
     4
 10
17551.63707258517
 20
6349.0350210000024
 30
0.0
 11
17671.635488585162
 21
6141.1885390000007
 31
0.0
  0
LINE
  5
1201C
  8
0-5
  6
CONTINUOUS
 62
     4
 10
13443.818558470941
 20
6241.1883740000021
 30
0.0
 11
13563.81895447094
 21
6449.0353509999959
 31
0.0
  0
LINE
  5
1201D
  8
0-5
  6
CONTINUOUS
 62
     4
 10
13323.82014147094
 20
6449.0353509999959
 30
0.0
 11
13443.818558470941
 21
6241.1883740000021
 31
0.0
  0
LINE
  5
1201E
  8
0-5
  6
CONTINUOUS
 62
     4
 10
13563.81895447094
 20
6449.0353509999959
 30
0.0
 11
13323.82014147094
 21
6449.0353509999959
 31
0.0
  0
LINE
  5
1201F
  8
0-5
  6
CONTINUOUS
 62
     4
 10
11818.73086547094
 20
6241.1883740000021
 30
0.0
 11
13536.19675147093
 21
6241.1883740000021
 31
0.0
  0
LINE
  5
12020
  8
0-5
  6
CONTINUOUS
 62
     4
 10
11818.73086547094
 20
6141.1885390000007
 30
0.0
 11
19643.509169585159
 21
6141.1885390000007
 31
0.0
  0
LINE
  5
12021
  8
0-5
  6
CONTINUOUS
 62
     4
 10
17671.635488585162
 20
6141.1885390000007
 30
0.0
 11
17791.635884585161
 21
6349.0350210000024
 31
0.0
  0
LINE
  5
12022
  8
0-5
  6
CONTINUOUS
 62
     4
 10
17791.635884585161
 20
6349.0350210000024
 30
0.0
 11
17551.63707258517
 21
6349.0350210000024
 31
0.0
  0
LINE
  5
12023
  8
0-5
  6
CONTINUOUS
 62
     4
 10
19773.510092585158
 20
4461.1889349999938
 30
0.0
 11
19773.510092585158
 21
4301.1893970000001
 31
0.0
  0
LINE
  5
12024
  8
0-5
  6
CONTINUOUS
 62
     4
 10
11683.733570470929
 20
4461.1889349999938
 30
0.0
 11
11683.733570470929
 21
4301.1893970000001
 31
0.0
  0
LINE
  5
12025
  8
0-5
  6
CONTINUOUS
 62
     4
 10
9116.233570470944
 20
4461.1889349999938
 30
0.0
 11
9116.233570470944
 21
4301.1893970000001
 31
0.0
  0
LINE
  5
12026
  8
0-5
  6
CONTINUOUS
 62
     4
 10
6548.7335704709431
 20
4461.1889349999938
 30
0.0
 11
6548.7335704709431
 21
4301.1893970000001
 31
0.0
  0
LINE
  5
12027
  8
2-0
  6
CENTER2
 62
     6
 10
22341.010092585158
 20
5878.536116000002
 30
0.0
 11
22341.010092585158
 21
6915.6791430000003
 31
0.0
  0
LINE
  5
12028
  8
2-0
  6
CENTER2
 62
     6
 10
19773.510092585158
 20
5878.536116000002
 30
0.0
 11
19773.510092585158
 21
6915.6791430000003
 31
0.0
  0
LINE
  5
12029
  8
2-0
  6
CENTER2
 62
     6
 10
11683.733570470929
 20
5878.536116000002
 30
0.0
 11
11683.733570470929
 21
6935.6787139999988
 31
0.0
  0
LINE
  5
1202A
  8
2-0
  6
CENTER2
 62
     6
 10
9116.233570470944
 20
5878.536116000002
 30
0.0
 11
9116.233570470944
 21
6935.6787139999988
 31
0.0
  0
LINE
  5
1202B
  8
2-0
  6
CENTER2
 62
     6
 10
6548.7335704709431
 20
5878.536116000002
 30
0.0
 11
6548.7335704709431
 21
6935.6787139999988
 31
0.0
  0
ARC
  5
1202C
  8
0-1
  6
CONTINUOUS
 62
     3
 10
19842.00935358517
 20
8372.1892910000006
 30
0.0
 40
5.0
 50
90.0
 51
180.0
  0
ARC
  5
1202D
  8
0-1
  6
CONTINUOUS
 62
     3
 10
19842.00935358517
 20
8340.1888889999937
 30
0.0
 40
5.0
 50
180.0
 51
269.9999850001808
  0
ARC
  5
1202E
  8
0-1
  6
CONTINUOUS
 62
     3
 10
20119.438883585171
 20
8340.1888889999937
 30
0.0
 40
5.0
 50
269.9999850001808
 51
314.99998500026879
  0
ARC
  5
1202F
  8
0-1
  6
CONTINUOUS
 62
     3
 10
20151.435821585172
 20
8372.1892910000006
 30
0.0
 40
5.0
 50
314.99998500026879
 51
90.0
  0
ARC
  5
12030
  8
0-1
  6
CONTINUOUS
 62
     3
 10
22272.50885258515
 20
8340.1888889999937
 30
0.0
 40
5.0
 50
269.9999850001808
 51
0.0
  0
ARC
  5
12031
  8
0-1
  6
CONTINUOUS
 62
     3
 10
22272.50885258515
 20
8372.1892910000006
 30
0.0
 40
5.0
 50
0.0
 51
90.0
  0
ARC
  5
12032
  8
0-1
  6
CONTINUOUS
 62
     3
 10
21963.082384585141
 20
8372.1892910000006
 30
0.0
 40
5.0
 50
90.0
 51
224.99998499998549
  0
ARC
  5
12033
  8
0-1
  6
CONTINUOUS
 62
     3
 10
21995.07932358516
 20
8340.1888889999937
 30
0.0
 40
5.0
 50
224.99998499998549
 51
269.9999850001808
  0
ARC
  5
12034
  8
0-1
  6
CONTINUOUS
 62
     3
 10
11811.17299747094
 20
8523.680191999998
 30
0.0
 40
24.999998999999999
 50
271.71998600002632
 51
91.719986000026395
  0
ARC
  5
12035
  8
0-1
  6
CONTINUOUS
 62
     3
 10
6330.342193470944
 20
8356.1505650000017
 30
0.0
 40
3.0
 50
181.71998600002601
 51
271.71998600002632
  0
ARC
  5
12036
  8
0-1
  6
CONTINUOUS
 62
     3
 10
6331.379461470945
 20
8388.1955070000022
 30
0.0
 40
5.0
 50
91.719986000026395
 51
181.71998600002601
  0
ARC
  5
12037
  8
0-1
  6
CONTINUOUS
 62
     3
 10
11806.17570347093
 20
8523.5297490000066
 30
0.0
 40
69.999999000000003
 50
293.50677499976911
 51
69.933196999879755
  0
ARC
  5
12038
  8
0-1
  6
CONTINUOUS
 62
     3
 10
6334.9831744709491
 20
8268.2500430000073
 30
0.0
 40
5.0
 50
181.71998600002601
 51
271.71998600002632
  0
ARC
  5
12039
  8
0-1
  6
CONTINUOUS
 62
     3
 10
6332.0218154709473
 20
8300.1752229999984
 30
0.0
 40
3.0
 50
91.719986000026395
 51
181.71998600002601
  0
ARC
  5
1203A
  8
0-1
  6
CONTINUOUS
 62
     3
 10
6332.0059784709447
 20
8350.697981000003
 30
0.0
 40
2.5
 50
271.71998600002632
 51
91.719986000026395
  0
ARC
  5
1203B
  8
0-1
  6
CONTINUOUS
 62
     3
 10
6333.3560104709441
 20
8305.7178750000003
 30
0.0
 40
2.5
 50
271.71998600002632
 51
91.719986000026395
  0
ARC
  5
1203C
  8
0-1
  6
CONTINUOUS
 62
     3
 10
6330.6717834709452
 20
8345.1553289999974
 30
0.0
 40
3.0
 50
91.719986000026395
 51
181.71998600002601
  0
ARC
  5
1203D
  8
0-1
  6
CONTINUOUS
 62
     3
 10
11811.17299747094
 20
8523.680191999998
 30
0.0
 40
20.0
 50
271.71998600002632
 51
91.719986000026395
  0
ARC
  5
1203E
  8
0-1
  6
CONTINUOUS
 62
     3
 10
6331.6922254709416
 20
8311.1699640000006
 30
0.0
 40
3.0
 50
181.71998600002601
 51
271.71998600002632
  0
CIRCLE
  5
1203F
  8
0-5
  6
CONTINUOUS
 62
     4
 10
22341.010092585158
 20
4101.1882420000011
 30
0.0
 40
199.9999949999999
  0
CIRCLE
  5
12040
  8
0-5
  6
CONTINUOUS
 62
     4
 10
9116.233570470944
 20
4101.1882420000011
 30
0.0
 40
199.9999949999999
  0
CIRCLE
  5
12041
  8
0-5
  6
CONTINUOUS
 62
     4
 10
11683.733570470929
 20
4101.1882420000011
 30
0.0
 40
199.9999949999999
  0
CIRCLE
  5
12042
  8
0-5
  6
CONTINUOUS
 62
     4
 10
19773.510092585158
 20
4101.1882420000011
 30
0.0
 40
199.9999949999999
  0
CIRCLE
  5
12043
  8
0-5
  6
CONTINUOUS
 62
     4
 10
6548.7335704709431
 20
4101.1882420000011
 30
0.0
 40
199.9999949999999
  0
TEXT
  5
12044
  8
0-5
  6
CONTINUOUS
 62
     7
 10
22289.097217585149
 20
4011.7132600000009
 30
0.0
 40
160.0
  1
2
 72
     4
 11
22342.430550918481
 21
4091.7132600000009
 31
0.0
  0
TEXT
  5
12045
  8
0-5
  6
CONTINUOUS
 62
     7
 10
19163.509565585169
 20
6988.0104361594431
 30
0.0
 40
160.0
  1
(2131.5)
 50
90.0
 72
     4
 11
19083.509565585169
 21
7441.3437694927761
 31
0.0
  0
TEXT
  5
12046
  8
0-5
  6
CONTINUOUS
 62
     7
 10
12984.726629470941
 20
6529.0346249999966
 30
0.0
 40
160.0
  1
布基礎天端
 72
     4
 11
13443.39329613761
 21
6609.0346249999984
 31
0.0
  0
TEXT
  5
12047
  8
0-5
  6
CONTINUOUS
 62
     7
 10
17551.63707258517
 20
6429.0347900000024
 30
0.0
 40
160.0
  1
G.L
 72
     4
 11
17711.63707258517
 21
6509.0347900000043
 31
0.0
  0
TEXT
  5
12048
  8
0-5
  6
CONTINUOUS
 62
     7
 10
19721.597218585161
 20
4011.7132600000009
 30
0.0
 40
160.0
  1
1
 72
     4
 11
19748.263885251828
 21
4091.7132600000009
 31
0.0
  0
TEXT
  5
12049
  8
0-5
  6
CONTINUOUS
 62
     7
 10
11636.777410470941
 20
4017.9774460000021
 30
0.0
 40
160.0
  1
A
 72
     4
 11
11690.11074380428
 21
4097.9774460000026
 31
0.0
  0
TEXT
  5
1204A
  8
0-5
  6
CONTINUOUS
 62
     7
 10
9069.2774104709424
 20
4017.9774460000021
 30
0.0
 40
160.0
  1
B
 72
     4
 11
9122.6107438042745
 21
4097.9774460000026
 31
0.0
  0
TEXT
  5
1204B
  8
0-5
  6
CONTINUOUS
 62
     7
 10
6501.7774104709488
 20
4017.9774460000021
 30
0.0
 40
160.0
  1
C
 72
     4
 11
6555.1107438042818
 21
4097.9774460000026
 31
0.0
  0
CIRCLE
  5
1204C
  8
0-4
  6
CONTINUOUS
 62
     4
 10
21057.258113085161
 20
6627.2449749999987
 30
0.0
 40
18.487504999999981
  0
LINE
  5
1204D
  8
1-前柱カバ-P
 10
25098.510092585158
 20
8459.6884660000014
 30
0.0
 11
25098.510092585158
 21
6141.1885390000007
 31
0.0
  0
LINE
  5
1204E
  8
1-前柱カバ-P
 10
25183.510092585158
 20
8589.6883999999973
 30
0.0
 11
25183.510092585158
 21
6141.1885390000007
 31
0.0
  0
LINE
  5
1204F
  8
0-1
  6
CONTINUOUS
 62
     3
 10
25226.510092585158
 20
8459.6884660000087
 30
0.0
 11
22298.509828585142
 21
8459.6884660000014
 31
0.0
  0
LINE
  5
12050
  8
0-1
  6
CONTINUOUS
 62
     3
 10
22363.51128058515
 20
8589.6883999999973
 30
0.0
 11
25226.510092585158
 21
8589.6883999999973
 31
0.0
  0
LINE
  5
12051
  8
0-1
  6
CONTINUOUS
 62
     3
 10
25226.510092585158
 20
8264.0026620000026
 30
0.0
 11
25226.510092585158
 21
8589.6883999999973
 31
0.0
  0
LINE
  5
12052
  8
0-1
  6
CONTINUOUS
 62
     3
 10
25226.510092585158
 20
8264.0026620000026
 30
0.0
 11
25183.510092585158
 21
8264.0026620000026
 31
0.0
  0
LINE
  5
12053
  8
2-0
  6
CENTER2
 62
     6
 10
25141.010092585158
 20
5878.536116000002
 30
0.0
 11
25141.010092585158
 21
6915.6791430000003
 31
0.0
  0
LINE
  5
12054
  8
1-桁前P28
 10
25098.510092585158
 20
8261.1883740000048
 30
0.0
 11
22383.510092585158
 21
8261.1883740000048
 31
0.0
  0
LINE
  5
12055
  8
0-5
  6
CONTINUOUS
 62
     4
 10
25141.010092585158
 20
4461.1889349999938
 30
0.0
 11
25141.010092585158
 21
4301.1893970000001
 31
0.0
  0
CIRCLE
  5
12056
  8
0-5
  6
CONTINUOUS
 62
     4
 10
25141.010092585158
 20
4101.1882420000011
 30
0.0
 40
199.9999949999999
  0
TEXT
  5
12057
  8
0-5
  6
CONTINUOUS
 62
     7
 10
25089.097217585178
 20
4011.7132600000009
 30
0.0
 40
160.0
  1
3
 72
     4
 11
25142.430550918511
 21
4091.7132600000009
 31
0.0
  0
TEXT
  5
12058
  8
0-5
  6
CONTINUOUS
 62
     7
 10
26633.335262879551
 20
7235.8515268217006
 30
0.0
 40
160.0
  1
(2260)
 50
90.0
 72
     4
 11
26553.335262879551
 21
7622.5181934883667
 31
0.0
  0
LINE
  5
12059
  8
SUNPOU
  6
CONTINUOUS
 10
6326.233570470944
 20
9389.1900500000029
 30
0.0
 11
5821.4457005775294
 21
9389.1900500000029
 31
0.0
  0
LINE
  5
121B4
  8
2-0
  6
CENTER2
 62
     6
 10
17352.011030585141
 20
19317.986251999992
 30
0.0
 11
18072.010370585162
 21
19317.986251999992
 31
0.0
  0
LINE
  5
121B5
  8
2-0
  6
CENTER2
 62
     6
 10
18232.010370585162
 20
19317.986251999992
 30
0.0
 11
25466.616789537082
 21
19317.986251999992
 31
0.0
  0
LINE
  5
121B6
  8
2-0
  6
CENTER2
 62
     6
 10
17352.01103058513
 20
16750.486251999992
 30
0.0
 11
17648.00044000561
 21
16750.486251999992
 31
0.0
  0
LINE
  5
121B7
  8
2-0
  6
CENTER2
 62
     6
 10
18032.010370585151
 20
16750.486251999992
 30
0.0
 11
25466.616789537082
 21
16750.486251999992
 31
0.0
  0
LINE
  5
121B8
  8
2-0
  6
CENTER2
 62
     6
 10
17352.011030585141
 20
14182.986252000001
 30
0.0
 11
18072.010370585162
 21
14182.986252000001
 31
0.0
  0
LINE
  5
121B9
  8
2-0
  6
CENTER2
 62
     6
 10
18232.010370585162
 20
14182.986252000001
 30
0.0
 11
25466.616789537082
 21
14182.986252000001
 31
0.0
  0
CIRCLE
  5
121BA
  8
0-5
  6
CONTINUOUS
 62
     4
 10
22362.011953585152
 20
21160.487175999999
 30
0.0
 40
199.9999949999999
  0
CIRCLE
  5
121BB
  8
0-5
  6
CONTINUOUS
 62
     4
 10
17152.010370585151
 20
19317.986251999992
 30
0.0
 40
199.9999949999999
  0
CIRCLE
  5
121BC
  8
0-5
  6
CONTINUOUS
 62
     4
 10
17152.010370585151
 20
16750.486251999992
 30
0.0
 40
199.9999949999999
  0
CIRCLE
  5
121BD
  8
0-5
  6
CONTINUOUS
 62
     4
 10
17152.010370585151
 20
14182.986252000001
 30
0.0
 40
199.9999949999999
  0
CIRCLE
  5
121BE
  8
0-5
  6
CONTINUOUS
 62
     4
 10
19794.511953585141
 20
21160.487175999999
 30
0.0
 40
199.9999949999999
  0
TEXT
  5
121BF
  8
0-5
  6
CONTINUOUS
 62
     7
 10
22307.34160958515
 20
21074.261326000011
 30
0.0
 40
160.0
  1
2
 72
     4
 11
22360.674942918478
 21
21154.261326000011
 31
0.0
  0
TEXT
  5
121C0
  8
0-5
  6
CONTINUOUS
 62
     7
 10
19739.841609585139
 20
21074.261326000011
 30
0.0
 40
160.0
  1
1
 72
     4
 11
19766.50827625181
 21
21154.261326000011
 31
0.0
  0
TEXT
  5
121C1
  8
0-5
  6
CONTINUOUS
 62
     7
 10
17103.334008585171
 20
19226.368192999991
 30
0.0
 40
160.0
  1
C
 72
     4
 11
17156.667341918499
 21
19306.368192999991
 31
0.0
  0
TEXT
  5
121C2
  8
0-5
  6
CONTINUOUS
 62
     7
 10
17103.33400858516
 20
16658.868193999999
 30
0.0
 40
160.0
  1
B
 72
     4
 11
17156.667341918492
 21
16738.868193999999
 31
0.0
  0
TEXT
  5
121C3
  8
0-5
  6
CONTINUOUS
 62
     7
 10
17103.334008585171
 20
14091.368193
 30
0.0
 40
160.0
  1
A
 72
     4
 11
17156.667341918499
 21
14171.368193
 31
0.0
  0
LINE
  5
121C4
  8
2-0
  6
CENTER2
 62
     6
 10
25162.011953585141
 20
20960.488495000009
 30
0.0
 11
25162.011953585141
 21
13825.23237353158
 31
0.0
  0
CIRCLE
  5
121C5
  8
0-5
  6
CONTINUOUS
 62
     4
 10
25162.011953585141
 20
21160.487175999999
 30
0.0
 40
199.9999949999999
  0
TEXT
  5
121C6
  8
0-5
  6
CONTINUOUS
 62
     7
 10
25107.341609585139
 20
21074.261326000011
 30
0.0
 40
160.0
  1
3
 72
     4
 11
25160.674942918471
 21
21154.261326000011
 31
0.0
  0
ARC
  5
121C7
  8
1-後柱P
  6
HIDE-M
 62
     6
 10
25165.611953585139
 20
19249.936251999989
 30
0.0
 40
2.6000000000000001
 50
180.0
 51
270.0
  0
LINE
  5
121C8
  8
1-後柱P
  6
HIDE-M
 62
     6
 10
25154.011953585141
 20
19247.8868618468
 30
0.0
 11
25154.011953585141
 21
19251.536252000002
 31
0.0
  0
LINE
  5
121C9
  8
1-後柱P
  6
HIDE-M
 62
     6
 10
25164.011953585141
 20
19247.8868618468
 30
0.0
 11
25164.011953585141
 21
19251.536252000002
 31
0.0
  0
LINE
  5
121CA
  8
1-後柱P
  6
1PL-M
 62
     6
 10
25159.011953585152
 20
19242.336252000008
 30
0.0
 11
25159.011953585152
 21
19256.536252000002
 31
0.0
  0
ARC
  5
121CB
  8
1-後柱P
  6
HIDE-M
 62
     6
 10
25152.411953585161
 20
19249.936251999989
 30
0.0
 40
2.6000000000000001
 50
270.0
 51
0.0
  0
LINE
  5
121CC
  8
1-後柱P
  6
HIDE-M
 62
     6
 10
25163.011953585152
 20
19249.936251999989
 30
0.0
 11
25163.011953585152
 21
19251.536252000002
 31
0.0
  0
LINE
  5
121CD
  8
1-後柱P
  6
HIDE-M
 62
     6
 10
25155.011953585152
 20
19249.936251999989
 30
0.0
 11
25155.011953585152
 21
19251.536252000002
 31
0.0
  0
LINE
  5
121CE
  8
1-後柱P
 10
25172.911953585139
 20
19362.236251999999
 30
0.0
 11
25151.11195358515
 21
19362.236251999999
 31
0.0
  0
LINE
  5
121CF
  8
1-後柱P
 10
25121.11195358515
 20
19324.936252
 30
0.0
 11
25121.11195358515
 21
19332.236251999992
 31
0.0
  0
ARC
  5
121D0
  8
1-後柱P
 10
25151.11195358515
 20
19332.236251999992
 30
0.0
 40
30.0
 50
90.0
 51
180.0
  0
ARC
  5
121D1
  8
1-後柱P
 10
25151.11195358515
 20
19332.236251999992
 30
0.0
 40
31.600000000000001
 50
90.0
 51
180.0
  0
LINE
  5
121D2
  8
1-後柱P
 10
25172.911953585139
 20
19363.836252000001
 30
0.0
 11
25151.11195358515
 21
19363.836252000001
 31
0.0
  0
LINE
  5
121D3
  8
1-後柱P
 10
25119.511953585141
 20
19324.936252
 30
0.0
 11
25119.511953585141
 21
19332.236251999992
 31
0.0
  0
LINE
  5
121D4
  8
1-後柱P
 10
25142.511953585141
 20
19303.336252000008
 30
0.0
 11
25142.511953585141
 21
19313.336252000001
 31
0.0
  0
LINE
  5
121D5
  8
1-後柱P
 10
25144.11195358515
 20
19313.336252000001
 30
0.0
 11
25144.11195358515
 21
19303.336252000008
 31
0.0
  0
LINE
  5
121D6
  8
1-後柱P
 10
25202.911953585139
 20
19324.936252
 30
0.0
 11
25202.911953585139
 21
19332.236251999992
 31
0.0
  0
ARC
  5
121D7
  8
1-後柱P
 10
25172.911953585139
 20
19332.236251999992
 30
0.0
 40
30.0
 50
0.0
 51
90.0
  0
ARC
  5
121D8
  8
1-後柱P
 10
25172.911953585139
 20
19332.236251999992
 30
0.0
 40
31.600000000000001
 50
0.0
 51
90.0
  0
LINE
  5
121D9
  8
1-後柱P
 10
25204.511953585152
 20
19324.936252
 30
0.0
 11
25204.511953585152
 21
19332.236251999992
 31
0.0
  0
LINE
  5
121DA
  8
1-後柱P
 10
25197.91195358515
 20
19318.336252000008
 30
0.0
 11
25186.511953585141
 21
19318.336252000008
 31
0.0
  0
ARC
  5
121DB
  8
1-後柱P
 10
25197.91195358515
 20
19324.936252
 30
0.0
 40
6.599999999999997
 50
270.0
 51
0.0
  0
ARC
  5
121DC
  8
1-後柱P
 10
25186.511953585141
 20
19313.336252000001
 30
0.0
 40
5.0
 50
90.0
 51
180.0
  0
LINE
  5
121DD
  8
1-後柱P
 10
25197.91195358515
 20
19319.936252
 30
0.0
 11
25186.511953585141
 21
19319.936252
 31
0.0
  0
ARC
  5
121DE
  8
1-後柱P
 10
25197.91195358515
 20
19324.936252
 30
0.0
 40
5.0
 50
270.0
 51
0.0
  0
LINE
  5
121DF
  8
1-後柱P
 10
25181.511953585152
 20
19313.336252000001
 30
0.0
 11
25181.511953585152
 21
19253.936252
 31
0.0
  0
LINE
  5
121E0
  8
1-後柱P
 10
25179.91195358515
 20
19313.336252000001
 30
0.0
 11
25179.91195358515
 21
19253.936252
 31
0.0
  0
ARC
  5
121E1
  8
1-後柱P
 10
25186.511953585141
 20
19313.336252000001
 30
0.0
 40
6.599999999999997
 50
90.0
 51
180.0
  0
LINE
  5
121E2
  8
1-後柱P
 10
25174.91195358515
 20
19247.336252000001
 30
0.0
 11
25141.511953585152
 21
19247.336252000001
 31
0.0
  0
ARC
  5
121E3
  8
1-後柱P
 10
25174.91195358515
 20
19253.936252
 30
0.0
 40
6.599999999999997
 50
270.0
 51
0.0
  0
LINE
  5
121E4
  8
1-後柱P
 10
25174.91195358515
 20
19248.936252
 30
0.0
 11
25141.511953585152
 21
19248.936252
 31
0.0
  0
ARC
  5
121E5
  8
1-後柱P
 10
25174.91195358515
 20
19253.936252
 30
0.0
 40
5.0
 50
270.0
 51
0.0
  0
LINE
  5
121E6
  8
1-後柱P
 10
25141.511953585152
 20
19248.936252
 30
0.0
 11
25141.511953585152
 21
19247.336252000001
 31
0.0
  0
LINE
  5
121E7
  8
1-後柱P
 10
25126.11195358515
 20
19318.336252000008
 30
0.0
 11
25137.511953585152
 21
19318.336252000008
 31
0.0
  0
ARC
  5
121E8
  8
1-後柱P
 10
25126.11195358515
 20
19324.936252
 30
0.0
 40
6.599999999999997
 50
180.0
 51
270.0
  0
ARC
  5
121E9
  8
1-後柱P
 10
25137.511953585152
 20
19313.336252000001
 30
0.0
 40
5.0
 50
0.0
 51
90.0
  0
LINE
  5
121EA
  8
1-後柱P
 10
25137.511953585152
 20
19319.936252
 30
0.0
 11
25126.11195358515
 21
19319.936252
 31
0.0
  0
ARC
  5
121EB
  8
1-後柱P
 10
25137.511953585152
 20
19313.336252000001
 30
0.0
 40
6.599999999999997
 50
0.0
 51
90.0
  0
ARC
  5
121EC
  8
1-後柱P
 10
25126.11195358515
 20
19324.936252
 30
0.0
 40
5.0
 50
180.0
 51
270.0
  0
LINE
  5
121ED
  8
1-後柱P
 10
25142.511953585141
 20
19303.336252000008
 30
0.0
 11
25144.11195358515
 21
19303.336252000008
 31
0.0
  0
LINE
  5
121EE
  8
1-後柱カバ-P
 10
25119.511953585141
 20
19311.636252
 30
0.0
 11
25119.511953585141
 21
19252.336252000001
 31
0.0
  0
ARC
  5
121EF
  8
1-後柱カバ-P
 10
25126.11195358515
 20
19252.336252000001
 30
0.0
 40
6.599999999999997
 50
180.0
 51
270.0
  0
LINE
  5
121F0
  8
1-後柱カバ-P
 10
25121.11195358515
 20
19311.636252
 30
0.0
 11
25121.11195358515
 21
19252.336252000001
 31
0.0
  0
ARC
  5
121F1
  8
1-後柱カバ-P
 10
25126.11195358515
 20
19311.636252
 30
0.0
 40
5.0
 50
90.0
 51
180.0
  0
LINE
  5
121F2
  8
1-後柱カバ-P
 10
25126.11195358515
 20
19245.736251999992
 30
0.0
 11
25197.91195358515
 21
19245.736251999992
 31
0.0
  0
ARC
  5
121F3
  8
1-後柱カバ-P
 10
25197.91195358515
 20
19252.336252000001
 30
0.0
 40
6.599999999999997
 50
270.0
 51
0.0
  0
LINE
  5
121F4
  8
1-後柱カバ-P
 10
25126.11195358515
 20
19247.336252000001
 30
0.0
 11
25197.91195358515
 21
19247.336252000001
 31
0.0
  0
ARC
  5
121F5
  8
1-後柱カバ-P
 10
25197.91195358515
 20
19252.336252000001
 30
0.0
 40
5.0
 50
270.0
 51
0.0
  0
ARC
  5
121F6
  8
1-後柱カバ-P
 10
25126.11195358515
 20
19252.336252000001
 30
0.0
 40
5.0
 50
180.0
 51
270.0
  0
LINE
  5
121F7
  8
1-後柱カバ-P
 10
25204.511953585152
 20
19252.336252000001
 30
0.0
 11
25204.511953585152
 21
19311.636252
 31
0.0
  0
LINE
  5
121F8
  8
1-後柱カバ-P
 10
25202.911953585139
 20
19252.336252000001
 30
0.0
 11
25202.911953585139
 21
19311.636252
 31
0.0
  0
ARC
  5
121F9
  8
1-後柱カバ-P
 10
25197.91195358515
 20
19311.636252
 30
0.0
 40
5.0
 50
0.0
 51
90.0
  0
LINE
  5
121FA
  8
1-後柱カバ-P
  6
1PL-M
 62
     6
 10
25162.011953585141
 20
19253.236251999992
 30
0.0
 11
25162.011953585141
 21
19240.236251999999
 31
0.0
  0
LINE
  5
121FB
  8
1-後柱カバ-P
  6
HIDE-M
 62
     6
 10
25155.011953585152
 20
19245.736251999992
 30
0.0
 11
25155.011953585152
 21
19247.336252000001
 31
0.0
  0
LINE
  5
121FC
  8
1-後柱カバ-P
  6
HIDE-M
 62
     6
 10
25169.011953585141
 20
19245.736251999992
 30
0.0
 11
25169.011953585141
 21
19247.336252000001
 31
0.0
  0
ARC
  5
121FD
  8
1-後柱カバ-P
 10
25126.11195358515
 20
19311.636252
 30
0.0
 40
6.599999999999997
 50
90.0
 51
180.0
  0
ARC
  5
121FE
  8
1-後柱カバ-P
 10
25197.91195358515
 20
19311.636252
 30
0.0
 40
6.599999999999997
 50
0.0
 51
90.0
  0
LINE
  5
121FF
  8
1-後柱カバ-P
 10
25189.511953585152
 20
19318.236251999999
 30
0.0
 11
25197.91195358515
 21
19318.236251999999
 31
0.0
  0
LINE
  5
12200
  8
1-後柱カバ-P
 10
25134.511953585152
 20
19318.236251999999
 30
0.0
 11
25126.11195358515
 21
19318.236251999999
 31
0.0
  0
LINE
  5
12201
  8
1-後柱カバ-P
 10
25189.511953585152
 20
19316.636252
 30
0.0
 11
25197.91195358515
 21
19316.636252
 31
0.0
  0
LINE
  5
12202
  8
1-後柱カバ-P
 10
25134.511953585152
 20
19316.636252
 30
0.0
 11
25126.11195358515
 21
19316.636252
 31
0.0
  0
LINE
  5
12203
  8
1-後柱カバ-P
 10
25134.511953585152
 20
19316.636252
 30
0.0
 11
25134.511953585152
 21
19318.236251999999
 31
0.0
  0
LINE
  5
12204
  8
1-後柱カバ-P
 10
25189.511953585152
 20
19318.236251999999
 30
0.0
 11
25189.511953585152
 21
19316.636252
 31
0.0
  0
LINE
  5
12205
  8
1-後柱カバ-P
  6
HIDE-M
 62
     6
 10
25193.411953585139
 20
19297.236251999999
 30
0.0
 11
25205.011953585152
 21
19297.236251999999
 31
0.0
  0
LINE
  5
12206
  8
1-後柱カバ-P
  6
HIDE-M
 62
     6
 10
25193.411953585139
 20
19289.236251999992
 30
0.0
 11
25205.011953585152
 21
19289.236251999992
 31
0.0
  0
LINE
  5
12207
  8
1-後柱カバ-P
  6
HIDE-M
 62
     6
 10
25193.411953585139
 20
19296.236251999992
 30
0.0
 11
25205.011953585152
 21
19296.236251999992
 31
0.0
  0
LINE
  5
12208
  8
1-後柱カバ-P
  6
HIDE-M
 62
     6
 10
25193.411953585139
 20
19290.236251999992
 30
0.0
 11
25205.011953585152
 21
19290.236251999992
 31
0.0
  0
LINE
  5
12209
  8
1-後柱カバ-P
 10
25194.411953585161
 20
19287.736251999999
 30
0.0
 11
25201.411953585139
 21
19287.736251999999
 31
0.0
  0
LINE
  5
1220A
  8
1-後柱カバ-P
 10
25201.411953585139
 20
19298.736251999992
 30
0.0
 11
25194.411953585161
 21
19298.736251999992
 31
0.0
  0
LINE
  5
1220B
  8
1-後柱カバ-P
 10
25201.411953585139
 20
19299.486251999992
 30
0.0
 11
25201.411953585139
 21
19286.986251999999
 31
0.0
  0
LINE
  5
1220C
  8
1-後柱カバ-P
 10
25205.011953585152
 20
19299.236251999999
 30
0.0
 11
25205.011953585152
 21
19287.236251999992
 31
0.0
  0
LINE
  5
1220D
  8
1-後柱カバ-P
  6
HIDE-M
 62
     6
 10
25202.911953585139
 20
19287.736251999999
 30
0.0
 11
25204.511953585152
 21
19287.736251999999
 31
0.0
  0
LINE
  5
1220E
  8
1-後柱カバ-P
 10
25205.011953585152
 20
19287.236251999992
 30
0.0
 11
25204.511953585152
 21
19287.736251999999
 31
0.0
  0
ARC
  5
1220F
  8
1-後柱カバ-P
 10
25202.161953585161
 20
19286.986251999999
 30
0.0
 40
0.75
 50
180.0
 51
0.0
  0
LINE
  5
12210
  8
1-後柱カバ-P
  6
HIDE-M
 62
     6
 10
25204.511953585152
 20
19298.736251999992
 30
0.0
 11
25202.911953585139
 21
19298.736251999992
 31
0.0
  0
LINE
  5
12211
  8
1-後柱カバ-P
 10
25205.011953585152
 20
19299.236251999999
 30
0.0
 11
25204.511953585152
 21
19298.736251999992
 31
0.0
  0
ARC
  5
12212
  8
1-後柱カバ-P
 10
25202.161953585161
 20
19299.486251999992
 30
0.0
 40
0.75
 50
0.0
 51
180.0
  0
LINE
  5
12213
  8
1-後柱カバ-P
 10
25193.411953585139
 20
19297.736251999992
 30
0.0
 11
25193.411953585139
 21
19288.736251999992
 31
0.0
  0
ARC
  5
12214
  8
1-後柱カバ-P
 10
25194.411953585161
 20
19288.736251999992
 30
0.0
 40
1.0
 50
180.0
 51
270.0
  0
ARC
  5
12215
  8
1-後柱カバ-P
 10
25194.411953585161
 20
19297.736251999992
 30
0.0
 40
1.0
 50
90.0
 51
180.0
  0
LINE
  5
12216
  8
1-後柱カバ-P
  6
1PL-M
 62
     6
 10
25188.41195358515
 20
19293.236251999992
 30
0.0
 11
25210.011953585152
 21
19293.236251999992
 31
0.0
  0
LINE
  5
12217
  8
1-後柱カバ-P
 10
25194.411953585161
 20
19277.736251999999
 30
0.0
 11
25201.411953585139
 21
19277.736251999999
 31
0.0
  0
LINE
  5
12218
  8
1-後柱カバ-P
 10
25205.011953585152
 20
19285.236251999999
 30
0.0
 11
25205.011953585152
 21
19277.236251999999
 31
0.0
  0
LINE
  5
12219
  8
1-後柱カバ-P
  6
HIDE-M
 62
     6
 10
25202.911953585139
 20
19277.736251999999
 30
0.0
 11
25204.511953585152
 21
19277.736251999999
 31
0.0
  0
LINE
  5
1221A
  8
1-後柱カバ-P
 10
25205.011953585152
 20
19277.236251999999
 30
0.0
 11
25204.511953585152
 21
19277.736251999999
 31
0.0
  0
ARC
  5
1221B
  8
1-後柱カバ-P
 10
25202.161953585161
 20
19276.986251999992
 30
0.0
 40
0.75
 50
180.0
 51
0.0
  0
LINE
  5
1221C
  8
1-後柱カバ-P
 10
25193.411953585139
 20
19286.736251999999
 30
0.0
 11
25193.411953585139
 21
19278.736251999992
 31
0.0
  0
ARC
  5
1221D
  8
1-後柱カバ-P
 10
25194.411953585161
 20
19278.736251999992
 30
0.0
 40
1.0
 50
180.0
 51
270.0
  0
LINE
  5
1221E
  8
1-後柱カバ-P
  6
1PL-M
 62
     6
 10
25188.41195358515
 20
19283.236251999999
 30
0.0
 11
25210.011953585152
 21
19283.236251999999
 31
0.0
  0
LINE
  5
1221F
  8
1-後柱カバ-P
 10
25201.411953585139
 20
19284.986251999992
 30
0.0
 11
25201.411953585139
 21
19276.986251999992
 31
0.0
  0
LINE
  5
12220
  8
1-後柱カバ-P
  6
HIDE-M
 62
     6
 10
25130.61195358515
 20
19297.236251999999
 30
0.0
 11
25119.011953585152
 21
19297.236251999999
 31
0.0
  0
LINE
  5
12221
  8
1-後柱カバ-P
  6
HIDE-M
 62
     6
 10
25130.61195358515
 20
19289.236251999992
 30
0.0
 11
25119.011953585152
 21
19289.236251999992
 31
0.0
  0
LINE
  5
12222
  8
1-後柱カバ-P
  6
HIDE-M
 62
     6
 10
25130.61195358515
 20
19296.236251999992
 30
0.0
 11
25119.011953585152
 21
19296.236251999992
 31
0.0
  0
LINE
  5
12223
  8
1-後柱カバ-P
  6
HIDE-M
 62
     6
 10
25130.61195358515
 20
19290.236251999992
 30
0.0
 11
25119.011953585152
 21
19290.236251999992
 31
0.0
  0
LINE
  5
12224
  8
1-後柱カバ-P
 10
25129.61195358515
 20
19287.736251999999
 30
0.0
 11
25122.61195358515
 21
19287.736251999999
 31
0.0
  0
LINE
  5
12225
  8
1-後柱カバ-P
 10
25122.61195358515
 20
19298.736251999992
 30
0.0
 11
25129.61195358515
 21
19298.736251999992
 31
0.0
  0
LINE
  5
12226
  8
1-後柱カバ-P
 10
25122.61195358515
 20
19299.486251999992
 30
0.0
 11
25122.61195358515
 21
19286.986251999999
 31
0.0
  0
LINE
  5
12227
  8
1-後柱カバ-P
 10
25119.011953585152
 20
19299.236251999999
 30
0.0
 11
25119.011953585152
 21
19287.236251999992
 31
0.0
  0
LINE
  5
12228
  8
1-後柱カバ-P
  6
HIDE-M
 62
     6
 10
25121.11195358515
 20
19287.736251999999
 30
0.0
 11
25119.511953585141
 21
19287.736251999999
 31
0.0
  0
LINE
  5
12229
  8
1-後柱カバ-P
 10
25119.011953585152
 20
19287.236251999992
 30
0.0
 11
25119.511953585141
 21
19287.736251999999
 31
0.0
  0
ARC
  5
1222A
  8
1-後柱カバ-P
 10
25121.861953585139
 20
19286.986251999999
 30
0.0
 40
0.75
 50
180.0
 51
0.0
  0
LINE
  5
1222B
  8
1-後柱カバ-P
  6
HIDE-M
 62
     6
 10
25119.511953585141
 20
19298.736251999992
 30
0.0
 11
25121.11195358515
 21
19298.736251999992
 31
0.0
  0
LINE
  5
1222C
  8
1-後柱カバ-P
 10
25119.011953585152
 20
19299.236251999999
 30
0.0
 11
25119.511953585141
 21
19298.736251999992
 31
0.0
  0
ARC
  5
1222D
  8
1-後柱カバ-P
 10
25121.861953585139
 20
19299.486251999992
 30
0.0
 40
0.75
 50
0.0
 51
180.0
  0
LINE
  5
1222E
  8
1-後柱カバ-P
 10
25130.61195358515
 20
19297.736251999992
 30
0.0
 11
25130.61195358515
 21
19288.736251999992
 31
0.0
  0
ARC
  5
1222F
  8
1-後柱カバ-P
 10
25129.61195358515
 20
19288.736251999992
 30
0.0
 40
1.0
 50
270.0
 51
0.0
  0
ARC
  5
12230
  8
1-後柱カバ-P
 10
25129.61195358515
 20
19297.736251999992
 30
0.0
 40
1.0
 50
0.0
 51
90.0
  0
LINE
  5
12231
  8
1-後柱カバ-P
  6
1PL-M
 62
     6
 10
25135.61195358515
 20
19293.236251999992
 30
0.0
 11
25114.011953585141
 21
19293.236251999992
 31
0.0
  0
LINE
  5
12232
  8
1-後柱カバ-P
 10
25129.61195358515
 20
19277.736251999999
 30
0.0
 11
25122.61195358515
 21
19277.736251999999
 31
0.0
  0
LINE
  5
12233
  8
1-後柱カバ-P
 10
25119.011953585152
 20
19285.236251999999
 30
0.0
 11
25119.011953585152
 21
19277.236251999999
 31
0.0
  0
LINE
  5
12234
  8
1-後柱カバ-P
  6
HIDE-M
 62
     6
 10
25121.11195358515
 20
19277.736251999999
 30
0.0
 11
25119.511953585141
 21
19277.736251999999
 31
0.0
  0
LINE
  5
12235
  8
1-後柱カバ-P
 10
25119.011953585152
 20
19277.236251999999
 30
0.0
 11
25119.511953585141
 21
19277.736251999999
 31
0.0
  0
ARC
  5
12236
  8
1-後柱カバ-P
 10
25121.861953585139
 20
19276.986251999992
 30
0.0
 40
0.75
 50
180.0
 51
0.0
  0
LINE
  5
12237
  8
1-後柱カバ-P
 10
25130.61195358515
 20
19286.736251999999
 30
0.0
 11
25130.61195358515
 21
19278.736251999992
 31
0.0
  0
ARC
  5
12238
  8
1-後柱カバ-P
 10
25129.61195358515
 20
19278.736251999992
 30
0.0
 40
1.0
 50
270.0
 51
0.0
  0
LINE
  5
12239
  8
1-後柱カバ-P
  6
1PL-M
 62
     6
 10
25135.61195358515
 20
19283.236251999999
 30
0.0
 11
25114.011953585141
 21
19283.236251999999
 31
0.0
  0
LINE
  5
1223A
  8
1-後柱カバ-P
 10
25122.61195358515
 20
19284.986251999992
 30
0.0
 11
25122.61195358515
 21
19276.986251999992
 31
0.0
  0
LINE
  5
1223B
  8
1-後柱カバ-P
  6
HIDE-M
 62
     6
 10
25193.411953585139
 20
19279.236251999999
 30
0.0
 11
25205.011953585152
 21
19279.236251999999
 31
0.0
  0
LINE
  5
1223C
  8
1-後柱カバ-P
  6
HIDE-M
 62
     6
 10
25193.411953585139
 20
19280.236251999992
 30
0.0
 11
25205.011953585152
 21
19280.236251999992
 31
0.0
  0
LINE
  5
1223D
  8
1-後柱カバ-P
  6
HIDE-M
 62
     6
 10
25130.61195358515
 20
19279.236251999999
 30
0.0
 11
25119.011953585152
 21
19279.236251999999
 31
0.0
  0
LINE
  5
1223E
  8
1-後柱カバ-P
  6
HIDE-M
 62
     6
 10
25130.61195358515
 20
19280.236251999992
 30
0.0
 11
25119.011953585152
 21
19280.236251999992
 31
0.0
  0
LINE
  5
1223F
  8
1-中柱P
 10
25197.911953585131
 20
16679.486251999999
 30
0.0
 11
25126.111953585129
 21
16679.486251999999
 31
0.0
  0
ARC
  5
12240
  8
1-中柱P
 10
25197.911953585131
 20
16684.486251999992
 30
0.0
 40
5.0
 50
270.0
 51
0.0
  0
ARC
  5
12241
  8
1-中柱P
 10
25126.111953585129
 20
16684.486251999992
 30
0.0
 40
5.0
 50
180.0
 51
270.0
  0
LINE
  5
12242
  8
1-中柱P
 10
25197.911953585131
 20
16677.886252000011
 30
0.0
 11
25126.111953585129
 21
16677.886252000011
 31
0.0
  0
ARC
  5
12243
  8
1-中柱P
 10
25197.911953585131
 20
16684.486251999992
 30
0.0
 40
6.599999999999997
 50
270.0
 51
0.0
  0
LINE
  5
12244
  8
1-中柱P
 10
25119.511953585141
 20
16743.786252000002
 30
0.0
 11
25119.511953585141
 21
16684.486251999992
 31
0.0
  0
ARC
  5
12245
  8
1-中柱P
 10
25126.111953585129
 20
16684.486251999992
 30
0.0
 40
6.599999999999997
 50
180.0
 51
270.0
  0
LINE
  5
12246
  8
1-中柱P
 10
25121.111953585129
 20
16684.486251999992
 30
0.0
 11
25121.111953585129
 21
16743.786252000002
 31
0.0
  0
ARC
  5
12247
  8
1-中柱P
 10
25126.111953585129
 20
16743.786252000002
 30
0.0
 40
5.0
 50
90.0
 51
180.0
  0
LINE
  5
12248
  8
1-中柱P
 10
25204.511953585152
 20
16743.786252000002
 30
0.0
 11
25204.511953585152
 21
16684.486251999992
 31
0.0
  0
LINE
  5
12249
  8
1-中柱P
 10
25202.911953585131
 20
16684.486251999992
 30
0.0
 11
25202.911953585131
 21
16743.786252000002
 31
0.0
  0
LINE
  5
1224A
  8
1-中柱P
 10
25197.911953585131
 20
16750.386252000011
 30
0.0
 11
25189.511953585152
 21
16750.386252000011
 31
0.0
  0
ARC
  5
1224B
  8
1-中柱P
 10
25197.911953585131
 20
16743.786252000002
 30
0.0
 40
6.599999999999997
 50
0.0
 51
90.0
  0
LINE
  5
1224C
  8
1-中柱P
 10
25197.911953585131
 20
16748.786252000002
 30
0.0
 11
25189.511953585152
 21
16748.786252000002
 31
0.0
  0
ARC
  5
1224D
  8
1-中柱P
 10
25189.511953585152
 20
16755.386252000011
 30
0.0
 40
6.599999999999997
 50
180.0
 51
270.0
  0
ARC
  5
1224E
  8
1-中柱P
 10
25197.911953585131
 20
16743.786252000002
 30
0.0
 40
5.0
 50
0.0
 51
90.0
  0
LINE
  5
1224F
  8
1-中柱P
 10
25184.511953585141
 20
16755.386252000011
 30
0.0
 11
25184.511953585141
 21
16814.786252000002
 31
0.0
  0
ARC
  5
12250
  8
1-中柱P
 10
25189.511953585152
 20
16755.386252000011
 30
0.0
 40
5.0
 50
180.0
 51
270.0
  0
LINE
  5
12251
  8
1-中柱P
 10
25182.911953585121
 20
16755.386252000011
 30
0.0
 11
25182.911953585121
 21
16814.786252000002
 31
0.0
  0
LINE
  5
12252
  8
1-中柱P
 10
25177.911953585131
 20
16821.386252000011
 30
0.0
 11
25144.511953585141
 21
16821.386252000011
 31
0.0
  0
ARC
  5
12253
  8
1-中柱P
 10
25177.911953585131
 20
16814.786252000002
 30
0.0
 40
6.599999999999997
 50
0.0
 51
90.0
  0
LINE
  5
12254
  8
1-中柱P
 10
25177.911953585131
 20
16819.786252000002
 30
0.0
 11
25144.511953585141
 21
16819.786252000002
 31
0.0
  0
ARC
  5
12255
  8
1-中柱P
 10
25177.911953585131
 20
16814.786252000002
 30
0.0
 40
5.0
 50
0.0
 51
90.0
  0
LINE
  5
12256
  8
1-中柱P
 10
25144.511953585141
 20
16819.786252000002
 30
0.0
 11
25144.511953585141
 21
16821.386252000011
 31
0.0
  0
LINE
  5
12257
  8
1-中柱P
 10
25126.111953585129
 20
16750.386252000011
 30
0.0
 11
25134.511953585152
 21
16750.386252000011
 31
0.0
  0
ARC
  5
12258
  8
1-中柱P
 10
25126.111953585129
 20
16743.786252000002
 30
0.0
 40
6.599999999999997
 50
90.0
 51
180.0
  0
ARC
  5
12259
  8
1-中柱P
 10
25134.511953585152
 20
16755.386252000011
 30
0.0
 40
5.0
 50
270.0
 51
0.0
  0
LINE
  5
1225A
  8
1-中柱P
 10
25134.511953585152
 20
16748.786252000002
 30
0.0
 11
25126.111953585129
 21
16748.786252000002
 31
0.0
  0
ARC
  5
1225B
  8
1-中柱P
 10
25134.511953585152
 20
16755.386252000011
 30
0.0
 40
6.599999999999997
 50
270.0
 51
0.0
  0
ARC
  5
1225C
  8
1-中柱P
  6
HIDE-M
 62
     6
 10
25168.611953585129
 20
16818.786252000002
 30
0.0
 40
2.6000000000000001
 50
90.0
 51
180.0
  0
LINE
  5
1225D
  8
1-中柱P
  6
HIDE-M
 62
     6
 10
25157.011953585152
 20
16820.83564215319
 30
0.0
 11
25157.011953585152
 21
16817.18625200001
 31
0.0
  0
LINE
  5
1225E
  8
1-中柱P
  6
HIDE-M
 62
     6
 10
25167.011953585141
 20
16820.83564215319
 30
0.0
 11
25167.011953585141
 21
16817.18625200001
 31
0.0
  0
LINE
  5
1225F
  8
1-中柱P
  6
1PL-M
 62
     6
 10
25162.011953585141
 20
16826.386252000011
 30
0.0
 11
25162.011953585141
 21
16812.18625200001
 31
0.0
  0
ARC
  5
12260
  8
1-中柱P
  6
HIDE-M
 62
     6
 10
25155.411953585131
 20
16818.786252000002
 30
0.0
 40
2.6000000000000001
 50
0.0
 51
90.0
  0
LINE
  5
12261
  8
1-中柱P
  6
HIDE-M
 62
     6
 10
25166.011953585152
 20
16818.786252000002
 30
0.0
 11
25166.011953585152
 21
16817.18625200001
 31
0.0
  0
LINE
  5
12262
  8
1-中柱P
  6
HIDE-M
 62
     6
 10
25158.01195358513
 20
16818.786252000002
 30
0.0
 11
25158.01195358513
 21
16817.18625200001
 31
0.0
  0
LINE
  5
12263
  8
1-中柱P
 10
25141.111953585129
 20
16755.386252000011
 30
0.0
 11
25141.111953585129
 21
16765.386252000011
 31
0.0
  0
LINE
  5
12264
  8
1-中柱P
 10
25139.511953585152
 20
16755.386252000011
 30
0.0
 11
25139.511953585152
 21
16765.386252000011
 31
0.0
  0
LINE
  5
12265
  8
1-中柱P
 10
25141.111953585129
 20
16765.386252000011
 30
0.0
 11
25139.511953585152
 21
16765.386252000011
 31
0.0
  0
LINE
  5
12266
  8
1-中柱P
  6
1PL-M
 62
     6
 10
25189.511953585152
 20
16786.386252000011
 30
0.0
 11
25175.311953585151
 21
16786.386252000011
 31
0.0
  0
LINE
  5
12267
  8
1-中柱P
  6
HIDE-M
 62
     6
 10
25193.411953585131
 20
16729.386252000011
 30
0.0
 11
25205.011953585152
 21
16729.386252000011
 31
0.0
  0
LINE
  5
12268
  8
1-中柱P
  6
HIDE-M
 62
     6
 10
25193.411953585131
 20
16721.386252000011
 30
0.0
 11
25205.011953585152
 21
16721.386252000011
 31
0.0
  0
LINE
  5
12269
  8
1-中柱P
  6
HIDE-M
 62
     6
 10
25193.411953585131
 20
16728.386252000011
 30
0.0
 11
25205.011953585152
 21
16728.386252000011
 31
0.0
  0
LINE
  5
1226A
  8
1-中柱P
  6
HIDE-M
 62
     6
 10
25193.411953585131
 20
16722.386252000011
 30
0.0
 11
25205.011953585152
 21
16722.386252000011
 31
0.0
  0
LINE
  5
1226B
  8
1-中柱P
 10
25194.411953585121
 20
16719.886252000011
 30
0.0
 11
25201.411953585131
 21
16719.886252000011
 31
0.0
  0
LINE
  5
1226C
  8
1-中柱P
 10
25201.411953585131
 20
16730.886252000011
 30
0.0
 11
25194.411953585121
 21
16730.886252000011
 31
0.0
  0
LINE
  5
1226D
  8
1-中柱P
 10
25201.411953585131
 20
16731.636252000011
 30
0.0
 11
25201.411953585131
 21
16719.136252000011
 31
0.0
  0
LINE
  5
1226E
  8
1-中柱P
 10
25205.011953585152
 20
16731.386252000011
 30
0.0
 11
25205.011953585152
 21
16719.386252000011
 31
0.0
  0
LINE
  5
1226F
  8
1-中柱P
  6
HIDE-M
 62
     6
 10
25202.911953585131
 20
16719.886252000011
 30
0.0
 11
25204.511953585152
 21
16719.886252000011
 31
0.0
  0
LINE
  5
12270
  8
1-中柱P
 10
25205.011953585152
 20
16719.386252000011
 30
0.0
 11
25204.511953585152
 21
16719.886252000011
 31
0.0
  0
ARC
  5
12271
  8
1-中柱P
 10
25202.161953585131
 20
16719.136252000011
 30
0.0
 40
0.75
 50
180.0
 51
0.0
  0
LINE
  5
12272
  8
1-中柱P
  6
HIDE-M
 62
     6
 10
25204.511953585152
 20
16730.886252000011
 30
0.0
 11
25202.911953585131
 21
16730.886252000011
 31
0.0
  0
LINE
  5
12273
  8
1-中柱P
 10
25205.011953585152
 20
16731.386252000011
 30
0.0
 11
25204.511953585152
 21
16730.886252000011
 31
0.0
  0
ARC
  5
12274
  8
1-中柱P
 10
25202.161953585131
 20
16731.636252000011
 30
0.0
 40
0.75
 50
0.0
 51
180.0
  0
LINE
  5
12275
  8
1-中柱P
 10
25193.411953585131
 20
16729.886252000011
 30
0.0
 11
25193.411953585131
 21
16720.886252000011
 31
0.0
  0
ARC
  5
12276
  8
1-中柱P
 10
25194.411953585121
 20
16720.886252000011
 30
0.0
 40
1.0
 50
180.0
 51
270.0
  0
ARC
  5
12277
  8
1-中柱P
 10
25194.411953585121
 20
16729.886252000011
 30
0.0
 40
1.0
 50
90.0
 51
180.0
  0
LINE
  5
12278
  8
1-中柱P
  6
1PL-M
 62
     6
 10
25188.411953585131
 20
16725.386252000011
 30
0.0
 11
25210.011953585152
 21
16725.386252000011
 31
0.0
  0
LINE
  5
12279
  8
1-中柱P
 10
25194.411953585121
 20
16709.886252000011
 30
0.0
 11
25201.411953585131
 21
16709.886252000011
 31
0.0
  0
LINE
  5
1227A
  8
1-中柱P
 10
25205.011953585152
 20
16717.386252000011
 30
0.0
 11
25205.011953585152
 21
16709.386252000011
 31
0.0
  0
LINE
  5
1227B
  8
1-中柱P
  6
HIDE-M
 62
     6
 10
25202.911953585131
 20
16709.886252000011
 30
0.0
 11
25204.511953585152
 21
16709.886252000011
 31
0.0
  0
LINE
  5
1227C
  8
1-中柱P
 10
25205.011953585152
 20
16709.386252000011
 30
0.0
 11
25204.511953585152
 21
16709.886252000011
 31
0.0
  0
ARC
  5
1227D
  8
1-中柱P
 10
25202.161953585131
 20
16709.136252000011
 30
0.0
 40
0.75
 50
180.0
 51
0.0
  0
LINE
  5
1227E
  8
1-中柱P
 10
25193.411953585131
 20
16718.886252000011
 30
0.0
 11
25193.411953585131
 21
16710.886252000011
 31
0.0
  0
ARC
  5
1227F
  8
1-中柱P
 10
25194.411953585121
 20
16710.886252000011
 30
0.0
 40
1.0
 50
180.0
 51
270.0
  0
LINE
  5
12280
  8
1-中柱P
  6
1PL-M
 62
     6
 10
25188.411953585131
 20
16715.386252000011
 30
0.0
 11
25210.011953585152
 21
16715.386252000011
 31
0.0
  0
LINE
  5
12281
  8
1-中柱P
 10
25201.411953585131
 20
16717.136252000011
 30
0.0
 11
25201.411953585131
 21
16709.136252000011
 31
0.0
  0
LINE
  5
12282
  8
1-中柱P
  6
HIDE-M
 62
     6
 10
25193.411953585131
 20
16711.386252000011
 30
0.0
 11
25205.011953585152
 21
16711.386252000011
 31
0.0
  0
LINE
  5
12283
  8
1-中柱P
  6
HIDE-M
 62
     6
 10
25193.411953585131
 20
16712.386252000011
 30
0.0
 11
25205.011953585152
 21
16712.386252000011
 31
0.0
  0
LINE
  5
12284
  8
1-中柱P
  6
HIDE-M
 62
     6
 10
25130.611953585129
 20
16729.386252000011
 30
0.0
 11
25119.011953585152
 21
16729.386252000011
 31
0.0
  0
LINE
  5
12285
  8
1-中柱P
  6
HIDE-M
 62
     6
 10
25130.611953585129
 20
16721.386252000011
 30
0.0
 11
25119.011953585152
 21
16721.386252000011
 31
0.0
  0
LINE
  5
12286
  8
1-中柱P
  6
HIDE-M
 62
     6
 10
25130.611953585129
 20
16728.386252000011
 30
0.0
 11
25119.011953585152
 21
16728.386252000011
 31
0.0
  0
LINE
  5
12287
  8
1-中柱P
  6
HIDE-M
 62
     6
 10
25130.611953585129
 20
16722.386252000011
 30
0.0
 11
25119.011953585152
 21
16722.386252000011
 31
0.0
  0
LINE
  5
12288
  8
1-中柱P
 10
25129.611953585129
 20
16719.886252000011
 30
0.0
 11
25122.611953585129
 21
16719.886252000011
 31
0.0
  0
LINE
  5
12289
  8
1-中柱P
 10
25122.611953585129
 20
16730.886252000011
 30
0.0
 11
25129.611953585129
 21
16730.886252000011
 31
0.0
  0
LINE
  5
1228A
  8
1-中柱P
 10
25122.611953585129
 20
16731.636252000011
 30
0.0
 11
25122.611953585129
 21
16719.136252000011
 31
0.0
  0
LINE
  5
1228B
  8
1-中柱P
 10
25119.011953585152
 20
16731.386252000011
 30
0.0
 11
25119.011953585152
 21
16719.386252000011
 31
0.0
  0
LINE
  5
1228C
  8
1-中柱P
  6
HIDE-M
 62
     6
 10
25121.111953585129
 20
16719.886252000011
 30
0.0
 11
25119.511953585141
 21
16719.886252000011
 31
0.0
  0
LINE
  5
1228D
  8
1-中柱P
 10
25119.011953585152
 20
16719.386252000011
 30
0.0
 11
25119.511953585141
 21
16719.886252000011
 31
0.0
  0
ARC
  5
1228E
  8
1-中柱P
 10
25121.861953585129
 20
16719.136252000011
 30
0.0
 40
0.75
 50
180.0
 51
0.0
  0
LINE
  5
1228F
  8
1-中柱P
  6
HIDE-M
 62
     6
 10
25119.511953585141
 20
16730.886252000011
 30
0.0
 11
25121.111953585129
 21
16730.886252000011
 31
0.0
  0
LINE
  5
12290
  8
1-中柱P
 10
25119.011953585152
 20
16731.386252000011
 30
0.0
 11
25119.511953585141
 21
16730.886252000011
 31
0.0
  0
ARC
  5
12291
  8
1-中柱P
 10
25121.861953585129
 20
16731.636252000011
 30
0.0
 40
0.75
 50
0.0
 51
180.0
  0
LINE
  5
12292
  8
1-中柱P
 10
25130.611953585129
 20
16729.886252000011
 30
0.0
 11
25130.611953585129
 21
16720.886252000011
 31
0.0
  0
ARC
  5
12293
  8
1-中柱P
 10
25129.611953585129
 20
16720.886252000011
 30
0.0
 40
1.0
 50
270.0
 51
0.0
  0
ARC
  5
12294
  8
1-中柱P
 10
25129.611953585129
 20
16729.886252000011
 30
0.0
 40
1.0
 50
0.0
 51
90.0
  0
LINE
  5
12295
  8
1-中柱P
  6
1PL-M
 62
     6
 10
25135.611953585129
 20
16725.386252000011
 30
0.0
 11
25114.011953585141
 21
16725.386252000011
 31
0.0
  0
LINE
  5
12296
  8
1-中柱P
 10
25129.611953585129
 20
16709.886252000011
 30
0.0
 11
25122.611953585129
 21
16709.886252000011
 31
0.0
  0
LINE
  5
12297
  8
1-中柱P
 10
25119.011953585152
 20
16717.386252000011
 30
0.0
 11
25119.011953585152
 21
16709.386252000011
 31
0.0
  0
LINE
  5
12298
  8
1-中柱P
  6
HIDE-M
 62
     6
 10
25121.111953585129
 20
16709.886252000011
 30
0.0
 11
25119.511953585141
 21
16709.886252000011
 31
0.0
  0
LINE
  5
12299
  8
1-中柱P
 10
25119.011953585152
 20
16709.386252000011
 30
0.0
 11
25119.511953585141
 21
16709.886252000011
 31
0.0
  0
ARC
  5
1229A
  8
1-中柱P
 10
25121.861953585129
 20
16709.136252000011
 30
0.0
 40
0.75
 50
180.0
 51
0.0
  0
LINE
  5
1229B
  8
1-中柱P
 10
25130.611953585129
 20
16718.886252000011
 30
0.0
 11
25130.611953585129
 21
16710.886252000011
 31
0.0
  0
ARC
  5
1229C
  8
1-中柱P
 10
25129.611953585129
 20
16710.886252000011
 30
0.0
 40
1.0
 50
270.0
 51
0.0
  0
LINE
  5
1229D
  8
1-中柱P
  6
1PL-M
 62
     6
 10
25135.611953585129
 20
16715.386252000011
 30
0.0
 11
25114.011953585141
 21
16715.386252000011
 31
0.0
  0
LINE
  5
1229E
  8
1-中柱P
 10
25122.611953585129
 20
16717.136252000011
 30
0.0
 11
25122.611953585129
 21
16709.136252000011
 31
0.0
  0
LINE
  5
1229F
  8
1-中柱P
  6
HIDE-M
 62
     6
 10
25130.611953585129
 20
16711.386252000011
 30
0.0
 11
25119.011953585152
 21
16711.386252000011
 31
0.0
  0
LINE
  5
122A0
  8
1-中柱P
  6
HIDE-M
 62
     6
 10
25130.611953585129
 20
16712.386252000011
 30
0.0
 11
25119.011953585152
 21
16712.386252000011
 31
0.0
  0
LINE
  5
122A1
  8
1-中柱カバ-P
 10
25119.511953585141
 20
16757.086252000001
 30
0.0
 11
25119.511953585141
 21
16816.386252000011
 31
0.0
  0
ARC
  5
122A2
  8
1-中柱カバ-P
 10
25126.111953585129
 20
16816.386252000011
 30
0.0
 40
6.599999999999997
 50
90.0
 51
180.0
  0
LINE
  5
122A3
  8
1-中柱カバ-P
 10
25121.111953585129
 20
16757.086252000001
 30
0.0
 11
25121.111953585129
 21
16816.386252000011
 31
0.0
  0
ARC
  5
122A4
  8
1-中柱カバ-P
 10
25126.111953585129
 20
16757.086252000001
 30
0.0
 40
5.0
 50
180.0
 51
270.0
  0
LINE
  5
122A5
  8
1-中柱カバ-P
 10
25126.111953585129
 20
16822.986251999999
 30
0.0
 11
25197.911953585131
 21
16822.986251999999
 31
0.0
  0
ARC
  5
122A6
  8
1-中柱カバ-P
 10
25197.911953585131
 20
16816.386252000011
 30
0.0
 40
6.599999999999997
 50
0.0
 51
90.0
  0
LINE
  5
122A7
  8
1-中柱カバ-P
 10
25126.111953585129
 20
16821.386252000011
 30
0.0
 11
25197.911953585131
 21
16821.386252000011
 31
0.0
  0
ARC
  5
122A8
  8
1-中柱カバ-P
 10
25197.911953585131
 20
16816.386252000011
 30
0.0
 40
5.0
 50
0.0
 51
90.0
  0
ARC
  5
122A9
  8
1-中柱カバ-P
 10
25126.111953585129
 20
16816.386252000011
 30
0.0
 40
5.0
 50
90.0
 51
180.0
  0
LINE
  5
122AA
  8
1-中柱カバ-P
 10
25204.511953585152
 20
16816.386252000011
 30
0.0
 11
25204.511953585152
 21
16757.086252000001
 31
0.0
  0
LINE
  5
122AB
  8
1-中柱カバ-P
 10
25202.911953585131
 20
16816.386252000011
 30
0.0
 11
25202.911953585131
 21
16757.086252000001
 31
0.0
  0
ARC
  5
122AC
  8
1-中柱カバ-P
 10
25197.911953585131
 20
16757.086252000001
 30
0.0
 40
5.0
 50
270.0
 51
0.0
  0
LINE
  5
122AD
  8
1-中柱カバ-P
  6
1PL-M
 62
     6
 10
25162.011953585141
 20
16815.486251999999
 30
0.0
 11
25162.011953585141
 21
16828.486251999992
 31
0.0
  0
LINE
  5
122AE
  8
1-中柱カバ-P
  6
HIDE-M
 62
     6
 10
25155.011953585152
 20
16822.986251999999
 30
0.0
 11
25155.011953585152
 21
16821.386252000011
 31
0.0
  0
LINE
  5
122AF
  8
1-中柱カバ-P
  6
HIDE-M
 62
     6
 10
25169.011953585141
 20
16822.986251999999
 30
0.0
 11
25169.011953585141
 21
16821.386252000011
 31
0.0
  0
ARC
  5
122B0
  8
1-中柱カバ-P
 10
25126.111953585129
 20
16757.086252000001
 30
0.0
 40
6.599999999999997
 50
180.0
 51
270.0
  0
ARC
  5
122B1
  8
1-中柱カバ-P
 10
25197.911953585131
 20
16757.086252000001
 30
0.0
 40
6.599999999999997
 50
270.0
 51
0.0
  0
LINE
  5
122B2
  8
1-中柱カバ-P
 10
25189.511953585152
 20
16750.486251999992
 30
0.0
 11
25197.911953585131
 21
16750.486251999992
 31
0.0
  0
LINE
  5
122B3
  8
1-中柱カバ-P
 10
25134.511953585152
 20
16750.486251999992
 30
0.0
 11
25126.111953585129
 21
16750.486251999992
 31
0.0
  0
LINE
  5
122B4
  8
1-中柱カバ-P
 10
25189.511953585152
 20
16752.086252000001
 30
0.0
 11
25197.911953585131
 21
16752.086252000001
 31
0.0
  0
LINE
  5
122B5
  8
1-中柱カバ-P
 10
25134.511953585152
 20
16752.086252000001
 30
0.0
 11
25126.111953585129
 21
16752.086252000001
 31
0.0
  0
LINE
  5
122B6
  8
1-中柱カバ-P
 10
25134.511953585152
 20
16752.086252000001
 30
0.0
 11
25134.511953585152
 21
16750.486251999992
 31
0.0
  0
LINE
  5
122B7
  8
1-中柱カバ-P
 10
25189.511953585152
 20
16750.486251999992
 30
0.0
 11
25189.511953585152
 21
16752.086252000001
 31
0.0
  0
LINE
  5
122B8
  8
1-中柱カバ-P
  6
HIDE-M
 62
     6
 10
25193.411953585131
 20
16771.486251999992
 30
0.0
 11
25205.011953585152
 21
16771.486251999992
 31
0.0
  0
LINE
  5
122B9
  8
1-中柱カバ-P
  6
HIDE-M
 62
     6
 10
25193.411953585131
 20
16779.486251999992
 30
0.0
 11
25205.011953585152
 21
16779.486251999992
 31
0.0
  0
LINE
  5
122BA
  8
1-中柱カバ-P
  6
HIDE-M
 62
     6
 10
25193.411953585131
 20
16772.486251999999
 30
0.0
 11
25205.011953585152
 21
16772.486251999999
 31
0.0
  0
LINE
  5
122BB
  8
1-中柱カバ-P
  6
HIDE-M
 62
     6
 10
25193.411953585131
 20
16778.486251999999
 30
0.0
 11
25205.011953585152
 21
16778.486251999999
 31
0.0
  0
LINE
  5
122BC
  8
1-中柱カバ-P
 10
25194.411953585121
 20
16780.986251999992
 30
0.0
 11
25201.411953585131
 21
16780.986251999992
 31
0.0
  0
LINE
  5
122BD
  8
1-中柱カバ-P
 10
25201.411953585131
 20
16769.986251999992
 30
0.0
 11
25194.411953585121
 21
16769.986251999992
 31
0.0
  0
LINE
  5
122BE
  8
1-中柱カバ-P
 10
25201.411953585131
 20
16769.236251999992
 30
0.0
 11
25201.411953585131
 21
16781.736251999992
 31
0.0
  0
LINE
  5
122BF
  8
1-中柱カバ-P
 10
25205.011953585152
 20
16769.486251999992
 30
0.0
 11
25205.011953585152
 21
16781.486251999992
 31
0.0
  0
LINE
  5
122C0
  8
1-中柱カバ-P
  6
HIDE-M
 62
     6
 10
25202.911953585131
 20
16780.986251999992
 30
0.0
 11
25204.511953585152
 21
16780.986251999992
 31
0.0
  0
LINE
  5
122C1
  8
1-中柱カバ-P
 10
25205.011953585152
 20
16781.486251999992
 30
0.0
 11
25204.511953585152
 21
16780.986251999992
 31
0.0
  0
ARC
  5
122C2
  8
1-中柱カバ-P
 10
25202.161953585131
 20
16781.736251999992
 30
0.0
 40
0.75
 50
0.0
 51
180.0
  0
LINE
  5
122C3
  8
1-中柱カバ-P
  6
HIDE-M
 62
     6
 10
25204.511953585152
 20
16769.986251999992
 30
0.0
 11
25202.911953585131
 21
16769.986251999992
 31
0.0
  0
LINE
  5
122C4
  8
1-中柱カバ-P
 10
25205.011953585152
 20
16769.486251999992
 30
0.0
 11
25204.511953585152
 21
16769.986251999992
 31
0.0
  0
ARC
  5
122C5
  8
1-中柱カバ-P
 10
25202.161953585131
 20
16769.236251999992
 30
0.0
 40
0.75
 50
180.0
 51
0.0
  0
LINE
  5
122C6
  8
1-中柱カバ-P
 10
25193.411953585131
 20
16770.986251999999
 30
0.0
 11
25193.411953585131
 21
16779.986251999992
 31
0.0
  0
ARC
  5
122C7
  8
1-中柱カバ-P
 10
25194.411953585121
 20
16779.986251999992
 30
0.0
 40
1.0
 50
90.0
 51
180.0
  0
ARC
  5
122C8
  8
1-中柱カバ-P
 10
25194.411953585121
 20
16770.986251999999
 30
0.0
 40
1.0
 50
180.0
 51
270.0
  0
LINE
  5
122C9
  8
1-中柱カバ-P
  6
1PL-M
 62
     6
 10
25188.411953585131
 20
16775.486251999999
 30
0.0
 11
25210.011953585152
 21
16775.486251999999
 31
0.0
  0
LINE
  5
122CA
  8
1-中柱カバ-P
 10
25194.411953585121
 20
16790.986251999992
 30
0.0
 11
25201.411953585131
 21
16790.986251999992
 31
0.0
  0
LINE
  5
122CB
  8
1-中柱カバ-P
 10
25205.011953585152
 20
16783.486251999992
 30
0.0
 11
25205.011953585152
 21
16791.486251999992
 31
0.0
  0
LINE
  5
122CC
  8
1-中柱カバ-P
  6
HIDE-M
 62
     6
 10
25202.911953585131
 20
16790.986251999992
 30
0.0
 11
25204.511953585152
 21
16790.986251999992
 31
0.0
  0
LINE
  5
122CD
  8
1-中柱カバ-P
 10
25205.011953585152
 20
16791.486251999992
 30
0.0
 11
25204.511953585152
 21
16790.986251999992
 31
0.0
  0
ARC
  5
122CE
  8
1-中柱カバ-P
 10
25202.161953585131
 20
16791.736251999992
 30
0.0
 40
0.75
 50
0.0
 51
180.0
  0
LINE
  5
122CF
  8
1-中柱カバ-P
 10
25193.411953585131
 20
16781.986251999992
 30
0.0
 11
25193.411953585131
 21
16789.986251999999
 31
0.0
  0
ARC
  5
122D0
  8
1-中柱カバ-P
 10
25194.411953585121
 20
16789.986251999999
 30
0.0
 40
1.0
 50
90.0
 51
180.0
  0
LINE
  5
122D1
  8
1-中柱カバ-P
  6
1PL-M
 62
     6
 10
25188.411953585131
 20
16785.486251999992
 30
0.0
 11
25210.011953585152
 21
16785.486251999992
 31
0.0
  0
LINE
  5
122D2
  8
1-中柱カバ-P
 10
25201.411953585131
 20
16783.736251999992
 30
0.0
 11
25201.411953585131
 21
16791.736251999992
 31
0.0
  0
LINE
  5
122D3
  8
1-中柱カバ-P
  6
HIDE-M
 62
     6
 10
25130.611953585129
 20
16771.486251999992
 30
0.0
 11
25119.011953585152
 21
16771.486251999992
 31
0.0
  0
LINE
  5
122D4
  8
1-中柱カバ-P
  6
HIDE-M
 62
     6
 10
25130.611953585129
 20
16779.486251999992
 30
0.0
 11
25119.011953585152
 21
16779.486251999992
 31
0.0
  0
LINE
  5
122D5
  8
1-中柱カバ-P
  6
HIDE-M
 62
     6
 10
25130.611953585129
 20
16772.486251999999
 30
0.0
 11
25119.011953585152
 21
16772.486251999999
 31
0.0
  0
LINE
  5
122D6
  8
1-中柱カバ-P
  6
HIDE-M
 62
     6
 10
25130.611953585129
 20
16778.486251999999
 30
0.0
 11
25119.011953585152
 21
16778.486251999999
 31
0.0
  0
LINE
  5
122D7
  8
1-中柱カバ-P
 10
25129.611953585129
 20
16780.986251999992
 30
0.0
 11
25122.611953585129
 21
16780.986251999992
 31
0.0
  0
LINE
  5
122D8
  8
1-中柱カバ-P
 10
25122.611953585129
 20
16769.986251999992
 30
0.0
 11
25129.611953585129
 21
16769.986251999992
 31
0.0
  0
LINE
  5
122D9
  8
1-中柱カバ-P
 10
25122.611953585129
 20
16769.236251999992
 30
0.0
 11
25122.611953585129
 21
16781.736251999992
 31
0.0
  0
LINE
  5
122DA
  8
1-中柱カバ-P
 10
25119.011953585152
 20
16769.486251999992
 30
0.0
 11
25119.011953585152
 21
16781.486251999992
 31
0.0
  0
LINE
  5
122DB
  8
1-中柱カバ-P
  6
HIDE-M
 62
     6
 10
25121.111953585129
 20
16780.986251999992
 30
0.0
 11
25119.511953585141
 21
16780.986251999992
 31
0.0
  0
LINE
  5
122DC
  8
1-中柱カバ-P
 10
25119.011953585152
 20
16781.486251999992
 30
0.0
 11
25119.511953585141
 21
16780.986251999992
 31
0.0
  0
ARC
  5
122DD
  8
1-中柱カバ-P
 10
25121.861953585129
 20
16781.736251999992
 30
0.0
 40
0.75
 50
0.0
 51
180.0
  0
LINE
  5
122DE
  8
1-中柱カバ-P
  6
HIDE-M
 62
     6
 10
25119.511953585141
 20
16769.986251999992
 30
0.0
 11
25121.111953585129
 21
16769.986251999992
 31
0.0
  0
LINE
  5
122DF
  8
1-中柱カバ-P
 10
25119.011953585152
 20
16769.486251999992
 30
0.0
 11
25119.511953585141
 21
16769.986251999992
 31
0.0
  0
ARC
  5
122E0
  8
1-中柱カバ-P
 10
25121.861953585129
 20
16769.236251999992
 30
0.0
 40
0.75
 50
180.0
 51
0.0
  0
LINE
  5
122E1
  8
1-中柱カバ-P
 10
25130.611953585129
 20
16770.986251999999
 30
0.0
 11
25130.611953585129
 21
16779.986251999992
 31
0.0
  0
ARC
  5
122E2
  8
1-中柱カバ-P
 10
25129.611953585129
 20
16779.986251999992
 30
0.0
 40
1.0
 50
0.0
 51
90.0
  0
ARC
  5
122E3
  8
1-中柱カバ-P
 10
25129.611953585129
 20
16770.986251999999
 30
0.0
 40
1.0
 50
270.0
 51
0.0
  0
LINE
  5
122E4
  8
1-中柱カバ-P
  6
1PL-M
 62
     6
 10
25135.611953585129
 20
16775.486251999999
 30
0.0
 11
25114.011953585141
 21
16775.486251999999
 31
0.0
  0
LINE
  5
122E5
  8
1-中柱カバ-P
 10
25129.611953585129
 20
16790.986251999992
 30
0.0
 11
25122.611953585129
 21
16790.986251999992
 31
0.0
  0
LINE
  5
122E6
  8
1-中柱カバ-P
 10
25119.011953585152
 20
16783.486251999992
 30
0.0
 11
25119.011953585152
 21
16791.486251999992
 31
0.0
  0
LINE
  5
122E7
  8
1-中柱カバ-P
  6
HIDE-M
 62
     6
 10
25121.111953585129
 20
16790.986251999992
 30
0.0
 11
25119.511953585141
 21
16790.986251999992
 31
0.0
  0
LINE
  5
122E8
  8
1-中柱カバ-P
 10
25119.011953585152
 20
16791.486251999992
 30
0.0
 11
25119.511953585141
 21
16790.986251999992
 31
0.0
  0
ARC
  5
122E9
  8
1-中柱カバ-P
 10
25121.861953585129
 20
16791.736251999992
 30
0.0
 40
0.75
 50
0.0
 51
180.0
  0
LINE
  5
122EA
  8
1-中柱カバ-P
 10
25130.611953585129
 20
16781.986251999992
 30
0.0
 11
25130.611953585129
 21
16789.986251999999
 31
0.0
  0
ARC
  5
122EB
  8
1-中柱カバ-P
 10
25129.611953585129
 20
16789.986251999999
 30
0.0
 40
1.0
 50
0.0
 51
90.0
  0
LINE
  5
122EC
  8
1-中柱カバ-P
  6
1PL-M
 62
     6
 10
25135.611953585129
 20
16785.486251999992
 30
0.0
 11
25114.011953585141
 21
16785.486251999992
 31
0.0
  0
LINE
  5
122ED
  8
1-中柱カバ-P
 10
25122.611953585129
 20
16783.736251999992
 30
0.0
 11
25122.611953585129
 21
16791.736251999992
 31
0.0
  0
LINE
  5
122EE
  8
1-中柱カバ-P
  6
HIDE-M
 62
     6
 10
25193.411953585131
 20
16789.486251999992
 30
0.0
 11
25205.011953585152
 21
16789.486251999992
 31
0.0
  0
LINE
  5
122EF
  8
1-中柱カバ-P
  6
HIDE-M
 62
     6
 10
25193.411953585131
 20
16788.486251999992
 30
0.0
 11
25205.011953585152
 21
16788.486251999992
 31
0.0
  0
LINE
  5
122F0
  8
1-中柱カバ-P
  6
HIDE-M
 62
     6
 10
25130.611953585129
 20
16789.486251999992
 30
0.0
 11
25119.011953585152
 21
16789.486251999992
 31
0.0
  0
LINE
  5
122F1
  8
1-中柱カバ-P
  6
HIDE-M
 62
     6
 10
25130.611953585129
 20
16788.486251999992
 30
0.0
 11
25119.011953585152
 21
16788.486251999992
 31
0.0
  0
ARC
  5
122F2
  8
1-前柱P
  6
HIDE-M
 62
     6
 10
25158.411953585131
 20
14251.386252
 30
0.0
 40
2.6000000000000001
 50
0.0
 51
90.0
  0
LINE
  5
122F3
  8
1-前柱P
  6
HIDE-M
 62
     6
 10
25170.011953585152
 20
14253.435642153199
 30
0.0
 11
25170.011953585152
 21
14249.786252
 31
0.0
  0
LINE
  5
122F4
  8
1-前柱P
  6
HIDE-M
 62
     6
 10
25160.011953585141
 20
14253.435642153199
 30
0.0
 11
25160.011953585141
 21
14249.786252
 31
0.0
  0
LINE
  5
122F5
  8
1-前柱P
  6
1PL-M
 62
     6
 10
25165.011953585152
 20
14258.986252000001
 30
0.0
 11
25165.011953585152
 21
14244.786252
 31
0.0
  0
ARC
  5
122F6
  8
1-前柱P
  6
HIDE-M
 62
     6
 10
25171.611953585129
 20
14251.386252
 30
0.0
 40
2.6000000000000001
 50
90.0
 51
180.0
  0
LINE
  5
122F7
  8
1-前柱P
  6
HIDE-M
 62
     6
 10
25161.011953585152
 20
14251.386252
 30
0.0
 11
25161.011953585152
 21
14249.786252
 31
0.0
  0
LINE
  5
122F8
  8
1-前柱P
  6
HIDE-M
 62
     6
 10
25169.011953585141
 20
14251.386252
 30
0.0
 11
25169.011953585141
 21
14249.786252
 31
0.0
  0
LINE
  5
122F9
  8
1-前柱P
 10
25151.111953585129
 20
14139.08625199999
 30
0.0
 11
25172.911953585139
 21
14139.08625199999
 31
0.0
  0
LINE
  5
122FA
  8
1-前柱P
 10
25202.911953585131
 20
14176.386252
 30
0.0
 11
25202.911953585131
 21
14169.086251999999
 31
0.0
  0
ARC
  5
122FB
  8
1-前柱P
 10
25172.911953585139
 20
14169.086251999999
 30
0.0
 40
30.0
 50
270.0
 51
0.0
  0
ARC
  5
122FC
  8
1-前柱P
 10
25172.911953585139
 20
14169.086251999999
 30
0.0
 40
31.600000000000001
 50
270.0
 51
0.0
  0
LINE
  5
122FD
  8
1-前柱P
 10
25151.111953585129
 20
14137.486252000001
 30
0.0
 11
25172.911953585139
 21
14137.486252000001
 31
0.0
  0
LINE
  5
122FE
  8
1-前柱P
 10
25204.511953585152
 20
14176.386252
 30
0.0
 11
25204.511953585152
 21
14169.086251999999
 31
0.0
  0
LINE
  5
122FF
  8
1-前柱P
 10
25181.511953585152
 20
14197.986252000001
 30
0.0
 11
25181.511953585152
 21
14187.986252000001
 31
0.0
  0
LINE
  5
12300
  8
1-前柱P
 10
25179.91195358515
 20
14187.986252000001
 30
0.0
 11
25179.91195358515
 21
14197.986252000001
 31
0.0
  0
LINE
  5
12301
  8
1-前柱P
 10
25121.111953585129
 20
14176.386252
 30
0.0
 11
25121.111953585129
 21
14169.086251999999
 31
0.0
  0
ARC
  5
12302
  8
1-前柱P
 10
25151.111953585129
 20
14169.086251999999
 30
0.0
 40
30.0
 50
180.0
 51
270.0
  0
ARC
  5
12303
  8
1-前柱P
 10
25151.111953585129
 20
14169.086251999999
 30
0.0
 40
31.600000000000001
 50
180.0
 51
270.0
  0
LINE
  5
12304
  8
1-前柱P
 10
25119.511953585141
 20
14176.386252
 30
0.0
 11
25119.511953585141
 21
14169.086251999999
 31
0.0
  0
LINE
  5
12305
  8
1-前柱P
 10
25126.111953585129
 20
14182.986252000001
 30
0.0
 11
25137.511953585152
 21
14182.986252000001
 31
0.0
  0
ARC
  5
12306
  8
1-前柱P
 10
25126.111953585129
 20
14176.386252
 30
0.0
 40
6.599999999999997
 50
90.0
 51
180.0
  0
ARC
  5
12307
  8
1-前柱P
 10
25137.511953585152
 20
14187.986252000001
 30
0.0
 40
5.0
 50
270.0
 51
0.0
  0
LINE
  5
12308
  8
1-前柱P
 10
25126.111953585129
 20
14181.386252
 30
0.0
 11
25137.511953585152
 21
14181.386252
 31
0.0
  0
ARC
  5
12309
  8
1-前柱P
 10
25126.111953585129
 20
14176.386252
 30
0.0
 40
5.0
 50
90.0
 51
180.0
  0
LINE
  5
1230A
  8
1-前柱P
 10
25142.511953585141
 20
14187.986252000001
 30
0.0
 11
25142.511953585141
 21
14247.386252
 31
0.0
  0
LINE
  5
1230B
  8
1-前柱P
 10
25144.111953585129
 20
14187.986252000001
 30
0.0
 11
25144.111953585129
 21
14247.386252
 31
0.0
  0
ARC
  5
1230C
  8
1-前柱P
 10
25137.511953585152
 20
14187.986252000001
 30
0.0
 40
6.599999999999997
 50
270.0
 51
0.0
  0
LINE
  5
1230D
  8
1-前柱P
 10
25149.111953585129
 20
14253.986252000001
 30
0.0
 11
25182.511953585141
 21
14253.986252000001
 31
0.0
  0
ARC
  5
1230E
  8
1-前柱P
 10
25149.111953585129
 20
14247.386252
 30
0.0
 40
6.599999999999997
 50
90.0
 51
180.0
  0
LINE
  5
1230F
  8
1-前柱P
 10
25149.111953585129
 20
14252.386252
 30
0.0
 11
25182.511953585141
 21
14252.386252
 31
0.0
  0
ARC
  5
12310
  8
1-前柱P
 10
25149.111953585129
 20
14247.386252
 30
0.0
 40
5.0
 50
90.0
 51
180.0
  0
LINE
  5
12311
  8
1-前柱P
 10
25182.511953585141
 20
14252.386252
 30
0.0
 11
25182.511953585141
 21
14253.986252000001
 31
0.0
  0
LINE
  5
12312
  8
1-前柱P
 10
25197.91195358515
 20
14182.986252000001
 30
0.0
 11
25186.511953585141
 21
14182.986252000001
 31
0.0
  0
ARC
  5
12313
  8
1-前柱P
 10
25197.91195358515
 20
14176.386252
 30
0.0
 40
6.599999999999997
 50
0.0
 51
90.0
  0
ARC
  5
12314
  8
1-前柱P
 10
25186.511953585141
 20
14187.986252000001
 30
0.0
 40
5.0
 50
180.0
 51
270.0
  0
LINE
  5
12315
  8
1-前柱P
 10
25186.511953585141
 20
14181.386252
 30
0.0
 11
25197.91195358515
 21
14181.386252
 31
0.0
  0
ARC
  5
12316
  8
1-前柱P
 10
25186.511953585141
 20
14187.986252000001
 30
0.0
 40
6.599999999999997
 50
180.0
 51
270.0
  0
ARC
  5
12317
  8
1-前柱P
 10
25197.91195358515
 20
14176.386252
 30
0.0
 40
5.0
 50
0.0
 51
90.0
  0
LINE
  5
12318
  8
1-前柱P
 10
25181.511953585152
 20
14197.986252000001
 30
0.0
 11
25179.91195358515
 21
14197.986252000001
 31
0.0
  0
LINE
  5
12319
  8
1-前柱カバ-P
 10
25204.511953585152
 20
14189.68625199999
 30
0.0
 11
25204.511953585152
 21
14248.986252000001
 31
0.0
  0
ARC
  5
1231A
  8
1-前柱カバ-P
 10
25197.91195358515
 20
14248.986252000001
 30
0.0
 40
6.599999999999997
 50
0.0
 51
90.0
  0
LINE
  5
1231B
  8
1-前柱カバ-P
 10
25202.911953585131
 20
14189.68625199999
 30
0.0
 11
25202.911953585131
 21
14248.986252000001
 31
0.0
  0
ARC
  5
1231C
  8
1-前柱カバ-P
 10
25197.91195358515
 20
14189.68625199999
 30
0.0
 40
5.0
 50
270.0
 51
0.0
  0
LINE
  5
1231D
  8
1-前柱カバ-P
 10
25197.91195358515
 20
14255.58625199999
 30
0.0
 11
25126.111953585129
 21
14255.58625199999
 31
0.0
  0
ARC
  5
1231E
  8
1-前柱カバ-P
 10
25126.111953585129
 20
14248.986252000001
 30
0.0
 40
6.599999999999997
 50
90.0
 51
180.0
  0
LINE
  5
1231F
  8
1-前柱カバ-P
 10
25197.91195358515
 20
14253.986252000001
 30
0.0
 11
25126.111953585129
 21
14253.986252000001
 31
0.0
  0
ARC
  5
12320
  8
1-前柱カバ-P
 10
25126.111953585129
 20
14248.986252000001
 30
0.0
 40
5.0
 50
90.0
 51
180.0
  0
ARC
  5
12321
  8
1-前柱カバ-P
 10
25197.91195358515
 20
14248.986252000001
 30
0.0
 40
5.0
 50
0.0
 51
90.0
  0
LINE
  5
12322
  8
1-前柱カバ-P
 10
25119.511953585141
 20
14248.986252000001
 30
0.0
 11
25119.511953585141
 21
14189.68625199999
 31
0.0
  0
LINE
  5
12323
  8
1-前柱カバ-P
 10
25121.111953585129
 20
14248.986252000001
 30
0.0
 11
25121.111953585129
 21
14189.68625199999
 31
0.0
  0
ARC
  5
12324
  8
1-前柱カバ-P
 10
25126.111953585129
 20
14189.68625199999
 30
0.0
 40
5.0
 50
180.0
 51
270.0
  0
LINE
  5
12325
  8
1-前柱カバ-P
  6
1PL-M
 62
     6
 10
25162.011953585141
 20
14248.086251999999
 30
0.0
 11
25162.011953585141
 21
14261.08625200001
 31
0.0
  0
LINE
  5
12326
  8
1-前柱カバ-P
  6
HIDE-M
 62
     6
 10
25169.011953585141
 20
14255.58625199999
 30
0.0
 11
25169.011953585141
 21
14253.986252000001
 31
0.0
  0
LINE
  5
12327
  8
1-前柱カバ-P
  6
HIDE-M
 62
     6
 10
25155.011953585152
 20
14255.58625199999
 30
0.0
 11
25155.011953585152
 21
14253.986252000001
 31
0.0
  0
ARC
  5
12328
  8
1-前柱カバ-P
 10
25197.91195358515
 20
14189.68625199999
 30
0.0
 40
6.599999999999997
 50
270.0
 51
0.0
  0
ARC
  5
12329
  8
1-前柱カバ-P
 10
25126.111953585129
 20
14189.68625199999
 30
0.0
 40
6.599999999999997
 50
180.0
 51
270.0
  0
LINE
  5
1232A
  8
1-前柱カバ-P
 10
25134.511953585152
 20
14183.08625199999
 30
0.0
 11
25126.111953585129
 21
14183.08625199999
 31
0.0
  0
LINE
  5
1232B
  8
1-前柱カバ-P
 10
25189.511953585152
 20
14183.08625199999
 30
0.0
 11
25197.91195358515
 21
14183.08625199999
 31
0.0
  0
LINE
  5
1232C
  8
1-前柱カバ-P
 10
25134.511953585152
 20
14184.686252
 30
0.0
 11
25126.111953585129
 21
14184.686252
 31
0.0
  0
LINE
  5
1232D
  8
1-前柱カバ-P
 10
25189.511953585152
 20
14184.686252
 30
0.0
 11
25197.91195358515
 21
14184.686252
 31
0.0
  0
LINE
  5
1232E
  8
1-前柱カバ-P
 10
25189.511953585152
 20
14184.686252
 30
0.0
 11
25189.511953585152
 21
14183.08625199999
 31
0.0
  0
LINE
  5
1232F
  8
1-前柱カバ-P
 10
25134.511953585152
 20
14183.08625199999
 30
0.0
 11
25134.511953585152
 21
14184.686252
 31
0.0
  0
LINE
  5
12330
  8
1-前柱カバ-P
  6
HIDE-M
 62
     6
 10
25130.611953585129
 20
14204.08625200001
 30
0.0
 11
25119.011953585152
 21
14204.08625200001
 31
0.0
  0
LINE
  5
12331
  8
1-前柱カバ-P
  6
HIDE-M
 62
     6
 10
25130.611953585129
 20
14212.086251999999
 30
0.0
 11
25119.011953585152
 21
14212.086251999999
 31
0.0
  0
LINE
  5
12332
  8
1-前柱カバ-P
  6
HIDE-M
 62
     6
 10
25130.611953585129
 20
14205.08625199999
 30
0.0
 11
25119.011953585152
 21
14205.08625199999
 31
0.0
  0
LINE
  5
12333
  8
1-前柱カバ-P
  6
HIDE-M
 62
     6
 10
25130.611953585129
 20
14211.086251999999
 30
0.0
 11
25119.011953585152
 21
14211.086251999999
 31
0.0
  0
LINE
  5
12334
  8
1-前柱カバ-P
 10
25129.611953585129
 20
14213.58625199999
 30
0.0
 11
25122.611953585129
 21
14213.58625199999
 31
0.0
  0
LINE
  5
12335
  8
1-前柱カバ-P
 10
25122.611953585129
 20
14202.58625199999
 30
0.0
 11
25129.611953585129
 21
14202.58625199999
 31
0.0
  0
LINE
  5
12336
  8
1-前柱カバ-P
 10
25122.611953585129
 20
14201.83625199999
 30
0.0
 11
25122.611953585129
 21
14214.33625199999
 31
0.0
  0
LINE
  5
12337
  8
1-前柱カバ-P
 10
25119.011953585152
 20
14202.08625199999
 30
0.0
 11
25119.011953585152
 21
14214.08625199999
 31
0.0
  0
LINE
  5
12338
  8
1-前柱カバ-P
  6
HIDE-M
 62
     6
 10
25121.111953585129
 20
14213.58625199999
 30
0.0
 11
25119.511953585141
 21
14213.58625199999
 31
0.0
  0
LINE
  5
12339
  8
1-前柱カバ-P
 10
25119.011953585152
 20
14214.08625199999
 30
0.0
 11
25119.511953585141
 21
14213.58625199999
 31
0.0
  0
ARC
  5
1233A
  8
1-前柱カバ-P
 10
25121.861953585129
 20
14214.33625199999
 30
0.0
 40
0.75
 50
0.0
 51
180.0
  0
LINE
  5
1233B
  8
1-前柱カバ-P
  6
HIDE-M
 62
     6
 10
25119.511953585141
 20
14202.58625199999
 30
0.0
 11
25121.111953585129
 21
14202.58625199999
 31
0.0
  0
LINE
  5
1233C
  8
1-前柱カバ-P
 10
25119.011953585152
 20
14202.08625199999
 30
0.0
 11
25119.511953585141
 21
14202.58625199999
 31
0.0
  0
ARC
  5
1233D
  8
1-前柱カバ-P
 10
25121.861953585129
 20
14201.83625199999
 30
0.0
 40
0.75
 50
180.0
 51
0.0
  0
LINE
  5
1233E
  8
1-前柱カバ-P
 10
25130.611953585129
 20
14203.586251999999
 30
0.0
 11
25130.611953585129
 21
14212.58625200001
 31
0.0
  0
ARC
  5
1233F
  8
1-前柱カバ-P
 10
25129.611953585129
 20
14212.58625200001
 30
0.0
 40
1.0
 50
0.0
 51
90.0
  0
ARC
  5
12340
  8
1-前柱カバ-P
 10
25129.611953585129
 20
14203.586251999999
 30
0.0
 40
1.0
 50
270.0
 51
0.0
  0
LINE
  5
12341
  8
1-前柱カバ-P
  6
1PL-M
 62
     6
 10
25135.611953585129
 20
14208.086251999999
 30
0.0
 11
25114.011953585141
 21
14208.086251999999
 31
0.0
  0
LINE
  5
12342
  8
1-前柱カバ-P
 10
25129.611953585129
 20
14223.586251999999
 30
0.0
 11
25122.611953585129
 21
14223.586251999999
 31
0.0
  0
LINE
  5
12343
  8
1-前柱カバ-P
 10
25119.011953585152
 20
14216.086251999999
 30
0.0
 11
25119.011953585152
 21
14224.08625199999
 31
0.0
  0
LINE
  5
12344
  8
1-前柱カバ-P
  6
HIDE-M
 62
     6
 10
25121.111953585129
 20
14223.586251999999
 30
0.0
 11
25119.511953585141
 21
14223.586251999999
 31
0.0
  0
LINE
  5
12345
  8
1-前柱カバ-P
 10
25119.011953585152
 20
14224.08625199999
 30
0.0
 11
25119.511953585141
 21
14223.586251999999
 31
0.0
  0
ARC
  5
12346
  8
1-前柱カバ-P
 10
25121.861953585129
 20
14224.336251999999
 30
0.0
 40
0.75
 50
0.0
 51
180.0
  0
LINE
  5
12347
  8
1-前柱カバ-P
 10
25130.611953585129
 20
14214.58625199999
 30
0.0
 11
25130.611953585129
 21
14222.586251999999
 31
0.0
  0
ARC
  5
12348
  8
1-前柱カバ-P
 10
25129.611953585129
 20
14222.586251999999
 30
0.0
 40
1.0
 50
0.0
 51
90.0
  0
LINE
  5
12349
  8
1-前柱カバ-P
  6
1PL-M
 62
     6
 10
25135.611953585129
 20
14218.08625199999
 30
0.0
 11
25114.011953585141
 21
14218.08625199999
 31
0.0
  0
LINE
  5
1234A
  8
1-前柱カバ-P
 10
25122.611953585129
 20
14216.33625200001
 30
0.0
 11
25122.611953585129
 21
14224.336251999999
 31
0.0
  0
LINE
  5
1234B
  8
1-前柱カバ-P
  6
HIDE-M
 62
     6
 10
25193.411953585131
 20
14204.08625200001
 30
0.0
 11
25205.011953585152
 21
14204.08625200001
 31
0.0
  0
LINE
  5
1234C
  8
1-前柱カバ-P
  6
HIDE-M
 62
     6
 10
25193.411953585131
 20
14212.086251999999
 30
0.0
 11
25205.011953585152
 21
14212.086251999999
 31
0.0
  0
LINE
  5
1234D
  8
1-前柱カバ-P
  6
HIDE-M
 62
     6
 10
25193.411953585131
 20
14205.08625199999
 30
0.0
 11
25205.011953585152
 21
14205.08625199999
 31
0.0
  0
LINE
  5
1234E
  8
1-前柱カバ-P
  6
HIDE-M
 62
     6
 10
25193.411953585131
 20
14211.086251999999
 30
0.0
 11
25205.011953585152
 21
14211.086251999999
 31
0.0
  0
LINE
  5
1234F
  8
1-前柱カバ-P
 10
25194.41195358515
 20
14213.58625199999
 30
0.0
 11
25201.411953585139
 21
14213.58625199999
 31
0.0
  0
LINE
  5
12350
  8
1-前柱カバ-P
 10
25201.411953585139
 20
14202.58625199999
 30
0.0
 11
25194.41195358515
 21
14202.58625199999
 31
0.0
  0
LINE
  5
12351
  8
1-前柱カバ-P
 10
25201.411953585139
 20
14201.83625199999
 30
0.0
 11
25201.411953585139
 21
14214.33625199999
 31
0.0
  0
LINE
  5
12352
  8
1-前柱カバ-P
 10
25205.011953585152
 20
14202.08625199999
 30
0.0
 11
25205.011953585152
 21
14214.08625199999
 31
0.0
  0
LINE
  5
12353
  8
1-前柱カバ-P
  6
HIDE-M
 62
     6
 10
25202.911953585131
 20
14213.58625199999
 30
0.0
 11
25204.511953585152
 21
14213.58625199999
 31
0.0
  0
LINE
  5
12354
  8
1-前柱カバ-P
 10
25205.011953585152
 20
14214.08625199999
 30
0.0
 11
25204.511953585152
 21
14213.58625199999
 31
0.0
  0
ARC
  5
12355
  8
1-前柱カバ-P
 10
25202.16195358515
 20
14214.33625199999
 30
0.0
 40
0.75
 50
0.0
 51
180.0
  0
LINE
  5
12356
  8
1-前柱カバ-P
  6
HIDE-M
 62
     6
 10
25204.511953585152
 20
14202.58625199999
 30
0.0
 11
25202.911953585131
 21
14202.58625199999
 31
0.0
  0
LINE
  5
12357
  8
1-前柱カバ-P
 10
25205.011953585152
 20
14202.08625199999
 30
0.0
 11
25204.511953585152
 21
14202.58625199999
 31
0.0
  0
ARC
  5
12358
  8
1-前柱カバ-P
 10
25202.16195358515
 20
14201.83625199999
 30
0.0
 40
0.75
 50
180.0
 51
0.0
  0
LINE
  5
12359
  8
1-前柱カバ-P
 10
25193.411953585131
 20
14203.586251999999
 30
0.0
 11
25193.411953585131
 21
14212.58625200001
 31
0.0
  0
ARC
  5
1235A
  8
1-前柱カバ-P
 10
25194.41195358515
 20
14212.58625200001
 30
0.0
 40
1.0
 50
90.0
 51
180.0
  0
ARC
  5
1235B
  8
1-前柱カバ-P
 10
25194.41195358515
 20
14203.586251999999
 30
0.0
 40
1.0
 50
180.0
 51
270.0
  0
LINE
  5
1235C
  8
1-前柱カバ-P
  6
1PL-M
 62
     6
 10
25188.41195358515
 20
14208.086251999999
 30
0.0
 11
25210.011953585152
 21
14208.086251999999
 31
0.0
  0
LINE
  5
1235D
  8
1-前柱カバ-P
 10
25194.41195358515
 20
14223.586251999999
 30
0.0
 11
25201.411953585139
 21
14223.586251999999
 31
0.0
  0
LINE
  5
1235E
  8
1-前柱カバ-P
 10
25205.011953585152
 20
14216.086251999999
 30
0.0
 11
25205.011953585152
 21
14224.08625199999
 31
0.0
  0
LINE
  5
1235F
  8
1-前柱カバ-P
  6
HIDE-M
 62
     6
 10
25202.911953585131
 20
14223.586251999999
 30
0.0
 11
25204.511953585152
 21
14223.586251999999
 31
0.0
  0
LINE
  5
12360
  8
1-前柱カバ-P
 10
25205.011953585152
 20
14224.08625199999
 30
0.0
 11
25204.511953585152
 21
14223.586251999999
 31
0.0
  0
ARC
  5
12361
  8
1-前柱カバ-P
 10
25202.16195358515
 20
14224.336251999999
 30
0.0
 40
0.75
 50
0.0
 51
180.0
  0
LINE
  5
12362
  8
1-前柱カバ-P
 10
25193.411953585131
 20
14214.58625199999
 30
0.0
 11
25193.411953585131
 21
14222.586251999999
 31
0.0
  0
ARC
  5
12363
  8
1-前柱カバ-P
 10
25194.41195358515
 20
14222.586251999999
 30
0.0
 40
1.0
 50
90.0
 51
180.0
  0
LINE
  5
12364
  8
1-前柱カバ-P
  6
1PL-M
 62
     6
 10
25188.41195358515
 20
14218.08625199999
 30
0.0
 11
25210.011953585152
 21
14218.08625199999
 31
0.0
  0
LINE
  5
12365
  8
1-前柱カバ-P
 10
25201.411953585139
 20
14216.33625200001
 30
0.0
 11
25201.411953585139
 21
14224.336251999999
 31
0.0
  0
LINE
  5
12366
  8
1-前柱カバ-P
  6
HIDE-M
 62
     6
 10
25130.611953585129
 20
14222.08625200001
 30
0.0
 11
25119.011953585152
 21
14222.08625200001
 31
0.0
  0
LINE
  5
12367
  8
1-前柱カバ-P
  6
HIDE-M
 62
     6
 10
25130.611953585129
 20
14221.08625199999
 30
0.0
 11
25119.011953585152
 21
14221.08625199999
 31
0.0
  0
LINE
  5
12368
  8
1-前柱カバ-P
  6
HIDE-M
 62
     6
 10
25193.411953585131
 20
14222.08625200001
 30
0.0
 11
25205.011953585152
 21
14222.08625200001
 31
0.0
  0
LINE
  5
12369
  8
1-前柱カバ-P
  6
HIDE-M
 62
     6
 10
25193.411953585131
 20
14221.08625199999
 30
0.0
 11
25205.011953585152
 21
14221.08625199999
 31
0.0
  0
LINE
  5
1237C
  8
0-6
  6
CONTINUOUS
 62
     6
 10
23717.79142700864
 20
13542.987109999989
 30
0.0
 11
24717.790768008639
 21
13542.987109999989
 31
0.0
  0
TEXT
  5
1237D
  8
0-6
  6
CONTINUOUS
 62
     7
 10
23813.791691008631
 20
13622.98737399998
 30
0.0
 40
160.0
  1
前柱（P）
 72
     4
 11
24213.791691008631
 21
13702.98737399998
 31
0.0
  0
LINE
  5
1237E
  8
0-6
  6
CONTINUOUS
 62
     6
 10
25122.86713183004
 20
14128.986252000001
 30
0.0
 11
24717.790768008639
 21
13542.987109999989
 31
0.0
  0
LINE
  5
1237F
  8
0-6
  6
CONTINUOUS
 62
     6
 10
23717.79142700864
 20
16080.047909954121
 30
0.0
 11
24717.790768008639
 21
16080.047909954121
 31
0.0
  0
TEXT
  5
12380
  8
0-6
  6
CONTINUOUS
 62
     7
 10
23813.791691008631
 20
16160.048173954099
 30
0.0
 40
160.0
  1
中柱（P）
 72
     4
 11
24213.791691008631
 21
16240.048173954099
 31
0.0
  0
LINE
  5
12381
  8
0-6
  6
CONTINUOUS
 62
     6
 10
25122.86713183004
 20
16666.047051954109
 30
0.0
 11
24717.790768008639
 21
16080.047909954121
 31
0.0
  0
LINE
  5
12382
  8
0-6
  6
CONTINUOUS
 62
     6
 10
23376.729536539111
 20
14743.97698982888
 30
0.0
 11
24832.729536539118
 21
14743.97698982888
 31
0.0
  0
TEXT
  5
12383
  8
0-6
  6
CONTINUOUS
 62
     7
 10
23416.734809791531
 20
14823.977253828851
 30
0.0
 40
160.0
  1
前柱カバー（P）
 72
     4
 11
24104.734809791531
 21
14903.977253828851
 31
0.0
  0
LINE
  5
12384
  8
0-6
  6
CONTINUOUS
 62
     6
 10
25131.96713183005
 20
14255.58625199999
 30
0.0
 11
24832.729536539118
 21
14743.97698982888
 31
0.0
  0
LINE
  5
12385
  8
0-6
  6
CONTINUOUS
 62
     6
 10
23376.729536539111
 20
17300.976553828881
 30
0.0
 11
24832.729536539118
 21
17300.976553828881
 31
0.0
  0
TEXT
  5
12386
  8
0-6
  6
CONTINUOUS
 62
     7
 10
23416.734809791531
 20
17380.976817828861
 30
0.0
 40
160.0
  1
中柱カバー（P）
 72
     4
 11
24104.734809791531
 21
17460.976817828861
 31
0.0
  0
LINE
  5
12387
  8
0-6
  6
CONTINUOUS
 62
     6
 10
25131.96713183005
 20
16812.585815999999
 30
0.0
 11
24832.729536539118
 21
17300.976553828881
 31
0.0
  0
LINE
  5
12388
  8
0-6
  6
CONTINUOUS
 62
     6
 10
23717.79142700864
 20
19957.423617045872
 30
0.0
 11
24717.790768008621
 21
19957.423617045872
 31
0.0
  0
TEXT
  5
12389
  8
0-6
  6
CONTINUOUS
 62
     7
 10
23813.791691008631
 20
20037.423881045848
 30
0.0
 40
160.0
  1
後柱（P）
 72
     4
 11
24213.791691008631
 21
20117.423881045848
 31
0.0
  0
LINE
  5
1238A
  8
0-6
  6
CONTINUOUS
 62
     6
 10
25122.86713183004
 20
19371.424475045871
 30
0.0
 11
24717.790768008621
 21
19957.423617045872
 31
0.0
  0
LINE
  5
1238B
  8
0-6
  6
CONTINUOUS
 62
     6
 10
23376.729536539111
 20
18736.494973171109
 30
0.0
 11
24832.729536539111
 21
18736.494973171109
 31
0.0
  0
TEXT
  5
1238C
  8
0-6
  6
CONTINUOUS
 62
     7
 10
23416.73480979152
 20
18816.495237171112
 30
0.0
 40
160.0
  1
後柱カバー（P）
 72
     4
 11
24104.73480979152
 21
18896.495237171112
 31
0.0
  0
LINE
  5
1238D
  8
0-6
  6
CONTINUOUS
 62
     6
 10
25131.96713183005
 20
19224.885710999992
 30
0.0
 11
24832.729536539111
 21
18736.494973171109
 31
0.0
  0
LINE
  5
123DF
  8
SUNPOU
  6
CONTINUOUS
 10
5976.9415304765889
 20
19540.484140500012
 30
0.0
 11
5976.9415304765889
 21
20337.45140827847
 31
0.0
  0
LINE
  5
123E0
  8
SUNPOU
  6
CONTINUOUS
 10
5976.9415304765771
 20
13217.673080847801
 30
0.0
 11
5976.9415304765771
 21
13958.98567099998
 31
0.0
  0
LINE
  5
123E6
  8
0-6
  6
CONTINUOUS
 62
     6
 10
6964.3913998545167
 20
17514.824153553742
 30
0.0
 11
7004.6492998280337
 21
17357.69293702946
 31
0.0
  0
LINE
  5
123E7
  8
0-6
  6
CONTINUOUS
 62
     6
 10
7004.6492998280337
 20
17357.69293702946
 30
0.0
 11
7053.4355456975991
 21
17379.244319889542
 31
0.0
  0
LINE
  5
123E8
  8
0-6
  6
CONTINUOUS
 62
     6
 10
7053.4355456975991
 20
17379.244319889542
 30
0.0
 11
6964.3913998545167
 21
17514.824153553742
 31
0.0
  0
LINE
  5
123E9
  8
0-1
  6
CONTINUOUS
 62
     3
 10
6980.73090447094
 20
8152.2344180000036
 30
0.0
 11
6980.73090447094
 21
6291.1885389999998
 31
0.0
  0
LINE
  5
123EA
  8
0-1
  6
CONTINUOUS
 62
     3
 10
6943.7327124709409
 20
8152.2344180000036
 30
0.0
 11
6943.7327124709409
 21
6291.1885389999998
 31
0.0
  0
LINE
  5
123EB
  8
0-1
  6
CONTINUOUS
 62
     3
 10
6805.2317354709367
 20
6291.1885389999998
 30
0.0
 11
6805.2317354709367
 21
8152.2344180000036
 31
0.0
  0
LINE
  5
123EC
  8
0-1
  6
CONTINUOUS
 62
     3
 10
6820.2315374709506
 20
6291.1885389999998
 30
0.0
 11
6820.2315374709506
 21
8152.2344180000036
 31
0.0
  0
LINE
  5
123ED
  8
0-1
  6
CONTINUOUS
 62
     3
 10
7104.2310894709426
 20
6291.1885389999998
 30
0.0
 11
7104.2310894709426
 21
8152.2344180000036
 31
0.0
  0
LINE
  5
123EE
  8
0-1
  6
CONTINUOUS
 62
     3
 10
7119.2318804709503
 20
6291.1885389999998
 30
0.0
 11
7119.2318804709503
 21
8152.2344180000036
 31
0.0
  0
LINE
  5
123EF
  8
0-1
  6
CONTINUOUS
 62
     3
 10
6621.232449470951
 20
8152.2344180000064
 30
0.0
 11
6621.232449470951
 21
6241.1883740000021
 31
0.0
  0
LINE
  5
123F0
  8
0-1
  6
CONTINUOUS
 62
     3
 10
11926.45232147672
 20
16756.484355072182
 30
0.0
 11
11926.4523214767
 21
19510.488495000001
 31
0.0
  0
LINE
  5
123F1
  8
0-1
  6
CONTINUOUS
 62
     3
 10
11963.45249347672
 20
16741.268818412482
 30
0.0
 11
11963.45249347672
 21
19510.488495000001
 31
0.0
  0
LINE
  5
123F2
  8
0-1
  6
CONTINUOUS
 62
     3
 10
12126.452981476719
 20
16674.238321886402
 30
0.0
 11
12126.452981476719
 21
19510.488495000001
 31
0.0
  0
LINE
  5
123F3
  8
0-1
  6
CONTINUOUS
 62
     3
 10
12163.453153476719
 20
16659.02278522672
 30
0.0
 11
12163.453153476719
 21
19510.488495000001
 31
0.0
  0
TEXT
  5
123F4
  8
0-6
  6
CONTINUOUS
 62
     7
 10
10595.21413935019
 20
13562.291589831861
 30
0.0
 40
160.0
  1
梁（P）前
 72
     4
 11
11037.880806016859
 21
13642.291589831861
 31
0.0
  0
LINE
  5
123F5
  8
0-6
  6
CONTINUOUS
 62
     6
 10
11516.663644288779
 20
13482.292315831861
 30
0.0
 11
10522.38984076688
 21
13482.292315831861
 31
0.0
  0
TEXT
  5
123F6
  8
0-6
  6
CONTINUOUS
 62
     7
 10
13093.79920666153
 20
13367.28188978346
 30
0.0
 40
160.0
  1
桁前（PU）+ 桁補強（PU）
 72
     4
 11
14341.79920666153
 21
13447.28188978346
 31
0.0
  0
LINE
  5
123F7
  8
0-6
  6
CONTINUOUS
 62
     6
 10
15630.4620682726
 20
13265.735322594341
 30
0.0
 11
13047.78773551722
 21
13265.735322594341
 31
0.0
  0
TEXT
  5
123F8
  8
0-6
  6
CONTINUOUS
 62
     7
 10
12802.704881859399
 20
15378.48943889058
 30
0.0
 40
160.0
  1
桁（PU）B + 桁補強（PU）
 72
     4
 11
14082.704881859399
 21
15458.48943889058
 31
0.0
  0
LINE
  5
123F9
  8
0-6
  6
CONTINUOUS
 62
     6
 10
15455.144613567079
 20
15286.9713410122
 30
0.0
 11
12689.68267770859
 21
15286.9713410122
 31
0.0
  0
TEXT
  5
123FA
  8
0-6
  6
CONTINUOUS
 62
     7
 10
12802.704881859399
 20
18296.489438890541
 30
0.0
 40
160.0
  1
桁（PU）B + 桁補強（PU）
 72
     4
 11
14082.704881859399
 21
18376.489438890541
 31
0.0
  0
LINE
  5
123FB
  8
0-6
  6
CONTINUOUS
 62
     6
 10
15455.144613567079
 20
18204.971341012191
 30
0.0
 11
12689.68267770859
 21
18204.971341012191
 31
0.0
  0
TEXT
  5
123FC
  8
0-6
  6
CONTINUOUS
 62
     7
 10
12802.704881859399
 20
16837.489439890542
 30
0.0
 40
160.0
  1
桁（PU）A + 桁補強（PU）
 72
     4
 11
14082.704881859399
 21
16917.489439890542
 31
0.0
  0
LINE
  5
123FD
  8
0-6
  6
CONTINUOUS
 62
     6
 10
15455.144613567079
 20
16745.971342012192
 30
0.0
 11
12689.68267770859
 21
16745.971342012192
 31
0.0
  0
TEXT
  5
123FE
  8
0-6
  6
CONTINUOUS
 62
     7
 10
12802.704881859399
 20
19410.991338890552
 30
0.0
 40
160.0
  1
桁（PU）A + 桁補強（PU）
 72
     4
 11
14082.704881859399
 21
19490.991338890552
 31
0.0
  0
LINE
  5
123FF
  8
0-6
  6
CONTINUOUS
 62
     6
 10
15455.144613567079
 20
19319.473241012191
 30
0.0
 11
12689.68267770859
 21
19319.473241012191
 31
0.0
  0
LINE
  5
12400
  8
0-6
  6
CONTINUOUS
 62
     6
 10
12056.740036757779
 20
14146.48689899999
 30
0.0
 11
13047.78773551722
 21
13265.735322594341
 31
0.0
  0
LINE
  5
12401
  8
0-6
  6
CONTINUOUS
 62
     6
 10
12689.68267770859
 20
16745.971342012192
 30
0.0
 11
11627.53400630551
 21
16287.1767846046
 31
0.0
  0
LINE
  5
12402
  8
0-6
  6
CONTINUOUS
 62
     6
 10
11627.53400630551
 20
16287.1767846046
 30
0.0
 11
11369.90963551447
 21
16705.485857000011
 31
0.0
  0
LINE
  5
12403
  8
0-6
  6
CONTINUOUS
 62
     6
 10
12689.68267770859
 20
15286.9713410122
 30
0.0
 11
11627.53400630551
 21
14828.1767836046
 31
0.0
  0
LINE
  5
12404
  8
0-6
  6
CONTINUOUS
 62
     6
 10
11627.53400630551
 20
14828.1767836046
 30
0.0
 11
11369.90963551447
 21
15246.48585600003
 31
0.0
  0
LINE
  5
12405
  8
0-6
  6
CONTINUOUS
 62
     6
 10
12689.68267770859
 20
18204.971341012191
 30
0.0
 11
11627.53400630551
 21
17746.176783604591
 31
0.0
  0
LINE
  5
12406
  8
0-6
  6
CONTINUOUS
 62
     6
 10
11627.53400630551
 20
17746.176783604591
 30
0.0
 11
11369.90963551447
 21
18164.48585600001
 31
0.0
  0
LINE
  5
12407
  8
0-6
  6
CONTINUOUS
 62
     6
 10
12689.68267770859
 20
19319.473241012191
 30
0.0
 11
11627.53400630551
 21
18860.678683604579
 31
0.0
  0
LINE
  5
12408
  8
0-6
  6
CONTINUOUS
 62
     6
 10
11627.53400630551
 20
18860.678683604579
 30
0.0
 11
11369.90963551447
 21
19278.987755999991
 31
0.0
  0
LINE
  5
12409
  8
0-1
  6
CONTINUOUS
 62
     3
 10
7526.4427524765952
 20
18563.734507238602
 30
0.0
 11
7526.4427524765952
 21
19510.488495000001
 31
0.0
  0
LINE
  5
1240A
  8
0-1
  6
CONTINUOUS
 62
     3
 10
7563.4439134765862
 20
18548.651021762849
 30
0.0
 11
7563.4439134765862
 21
19510.488495000001
 31
0.0
  0
LINE
  5
1240B
  8
0-1
  6
CONTINUOUS
 62
     3
 10
7726.4424224765871
 20
18482.20484611249
 30
0.0
 11
7726.4424224765908
 21
19510.488495000001
 31
0.0
  0
LINE
  5
1240C
  8
0-1
  6
CONTINUOUS
 62
     3
 10
7763.4416034765918
 20
18467.12216778169
 30
0.0
 11
7763.4416034765964
 21
19510.488495000001
 31
0.0
  0
LINE
  5
1240D
  8
0-1
  6
CONTINUOUS
 62
     3
 10
7926.4430814765956
 20
18400.674781821519
 30
0.0
 11
7926.4430814765956
 21
19510.488495000001
 31
0.0
  0
LINE
  5
1240E
  8
0-1
  6
CONTINUOUS
 62
     3
 10
7963.4432534765956
 20
18385.591699510602
 30
0.0
 11
7963.4432534765956
 21
19510.488495000001
 31
0.0
  0
LINE
  5
1240F
  8
0-1
  6
CONTINUOUS
 62
     3
 10
7126.4424234765984
 20
18726.79423265568
 30
0.0
 11
7126.4424234765984
 21
19510.488495000001
 31
0.0
  0
LINE
  5
12410
  8
0-1
  6
CONTINUOUS
 62
     3
 10
7163.4435844765876
 20
18711.710747179921
 30
0.0
 11
7163.4435844765876
 21
19510.488495000001
 31
0.0
  0
LINE
  5
12411
  8
0-1
  6
CONTINUOUS
 62
     3
 10
7326.4420934765913
 20
18645.264571529558
 30
0.0
 11
7326.4420934765922
 21
19510.488495000001
 31
0.0
  0
LINE
  5
12412
  8
0-1
  6
CONTINUOUS
 62
     3
 10
7363.4412744765959
 20
18630.18189319878
 30
0.0
 11
7363.4412744765978
 21
19510.488495000001
 31
0.0
  0
LINE
  5
12415
  8
WAKUSEN-01
 10
868.00000000000193
 20
22484.000000000011
 30
0.0
 11
32764.000000000011
 21
22484.000000000011
 31
0.0
  0
LINE
  5
12418
  8
WAKUSEN-01
 10
20560.0
 20
2484.0
 30
0.0
 11
32764.0
 21
2484.0
 31
0.0
  0
LINE
  5
12419
  8
WAKUSEN-02
 10
20560.0
 20
1655.9999999999991
 30
0.0
 11
26868.0
 21
1655.9999999999991
 31
0.0
  0
TEXT
  5
1241A
  8
WAKUMOJI-01
 10
20670.260259962761
 20
2125.9030093393221
 30
0.0
 40
240.0
  1
名　称
  7
WAKUMOJI
  0
TEXT
  5
1241B
  8
WAKUMOJI-01
 10
20656.505485091919
 20
1319.12897497982
 30
0.0
 40
240.0
  1
機種名
  7
WAKUMOJI
  0
LINE
  5
1241E
  8
YODOROGO
 10
29977.604341291921
 20
1995.7494964292871
 30
0.0
 11
29829.604341291921
 21
1995.7494964292871
 31
0.0
1001
AUTOCAD_POSTSCRIPT_FIGURE
1002
{
1000
PSFILL
1000
Grayscale
1000
Grayscale
1070
    25
1002
}
  0
LINE
  5
1241F
  8
YODOROGO
 10
29829.604341291921
 20
1947.749496429288
 30
0.0
 11
29977.604341291921
 21
1947.749496429288
 31
0.0
1001
AUTOCAD_POSTSCRIPT_FIGURE
1002
{
1000
PSFILL
1000
Grayscale
1000
Grayscale
1070
    25
1002
}
  0
LINE
  5
12420
  8
YODOROGO
 10
29977.604341291921
 20
1907.7494964292871
 30
0.0
 11
29829.604341291921
 21
1907.7494964292871
 31
0.0
1001
AUTOCAD_POSTSCRIPT_FIGURE
1002
{
1000
PSFILL
1000
Grayscale
1000
Grayscale
1070
    25
1002
}
  0
LINE
  5
12421
  8
YODOROGO
 10
29829.604341291921
 20
1859.749496429288
 30
0.0
 11
29977.604341291921
 21
1859.749496429288
 31
0.0
1001
AUTOCAD_POSTSCRIPT_FIGURE
1002
{
1000
PSFILL
1000
Grayscale
1000
Grayscale
1070
    25
1002
}
  0
LINE
  5
12422
  8
YODOROGO
 10
29977.604341291921
 20
1819.7494964292871
 30
0.0
 11
29829.604341291921
 21
1819.7494964292871
 31
0.0
1001
AUTOCAD_POSTSCRIPT_FIGURE
1002
{
1000
PSFILL
1000
Grayscale
1000
Grayscale
1070
    25
1002
}
  0
LINE
  5
12423
  8
YODOROGO
 10
29921.60434129191
 20
1707.749496429288
 30
0.0
 11
29977.604341291921
 21
1707.749496429288
 31
0.0
1001
AUTOCAD_POSTSCRIPT_FIGURE
1002
{
1000
PSFILL
1000
Grayscale
1000
Grayscale
1070
    25
1002
}
  0
LINE
  5
12424
  8
YODOROGO
 10
29737.604341291921
 20
1427.749496429288
 30
0.0
 11
29937.604341291932
 21
1481.3393349155101
 31
0.0
  0
LINE
  5
12425
  8
YODOROGO
 10
29949.60434129191
 20
1707.749496429288
 30
0.0
 11
29885.604341291921
 21
1707.749496429288
 31
0.0
  0
ARC
  5
12426
  8
YODOROGO
 10
30254.34774982791
 20
1807.864609233261
 30
0.0
 40
381.88686420564721
 50
213.96111677667841
 51
264.47872074317792
  0
ARC
  5
12427
  8
YODOROGO
 10
30254.347749827921
 20
1807.864609233302
 30
0.0
 40
381.8868642056816
 50
208.14114420486601
 51
212.9210361185994
  0
LINE
  5
12428
  8
YODOROGO
 10
29771.409872985321
 20
1556.807661346234
 30
0.0
 11
29933.78413250855
 21
1600.3157130570869
 31
0.0
  0
LINE
  5
12429
  8
YODOROGO
 10
29737.604341291921
 20
1427.749496429288
 30
0.0
 11
29937.604341291932
 21
1481.3393349155101
 31
0.0
  0
LINE
  5
1242A
  8
YODOROGO
 10
29949.60434129191
 20
1707.749496429288
 30
0.0
 11
29885.604341291921
 21
1707.749496429288
 31
0.0
  0
ARC
  5
1242B
  8
YODOROGO
 10
30254.34774982791
 20
1807.864609233261
 30
0.0
 40
381.88686420564721
 50
213.96111677667841
 51
264.47872074317792
  0
LINE
  5
1242C
  8
YODOROGO
 10
28793.60434129191
 20
1819.7494964292871
 30
0.0
 11
28433.60434129191
 21
1819.7494964292871
 31
0.0
  0
LINE
  5
1242D
  8
YODOROGO
 10
28513.60434129191
 20
1427.749496429288
 30
0.0
 11
28793.60434129191
 21
1427.749496429288
 31
0.0
  0
LINE
  5
1242E
  8
YODOROGO
 10
28729.604341291921
 20
1923.7494964292871
 30
0.0
 11
28497.60434129191
 21
1923.7494964292871
 31
0.0
  0
LINE
  5
1242F
  8
YODOROGO
 10
28585.604341291921
 20
2027.749496429288
 30
0.0
 11
28657.604341291921
 21
2027.749496429288
 31
0.0
  0
LINE
  5
12430
  8
YODOROGO
 10
28433.60434129191
 20
1707.749496429288
 30
0.0
 11
28433.60434129191
 21
1507.749496429288
 31
0.0
  0
LINE
  5
12431
  8
YODOROGO
 10
28497.60434129191
 20
1563.7494964292871
 30
0.0
 11
28497.60434129191
 21
1707.749496429288
 31
0.0
  0
LINE
  5
12432
  8
YODOROGO
 10
28585.604341291921
 20
1747.74949642929
 30
0.0
 11
28585.604341291921
 21
1547.749496429288
 31
0.0
  0
LINE
  5
12433
  8
YODOROGO
 10
27857.604341291921
 20
1683.749496429288
 30
0.0
 11
27777.604341291921
 21
1619.9724140445701
 31
0.0
  0
LINE
  5
12434
  8
YODOROGO
 10
27937.604341291921
 20
1619.9724140445701
 30
0.0
 11
27857.604341291921
 21
1683.749496429288
 31
0.0
  0
LINE
  5
12435
  8
YODOROGO
 10
27857.604341291921
 20
1707.749496429288
 30
0.0
 11
27937.604341291921
 21
1643.9724140445701
 31
0.0
  0
LINE
  5
12436
  8
YODOROGO
 10
27777.604341291921
 20
1643.9724140445701
 30
0.0
 11
27857.604341291921
 21
1707.749496429288
 31
0.0
  0
LINE
  5
12437
  8
YODOROGO
 10
28040.913204016892
 20
1659.749496429288
 30
0.0
 11
28040.913204016892
 21
1683.7494964292871
 31
0.0
  0
LINE
  5
12438
  8
YODOROGO
 10
27977.604341291921
 20
1683.7494964292871
 30
0.0
 11
27977.604341291921
 21
1667.749496429285
 31
0.0
  0
LINE
  5
12439
  8
YODOROGO
 10
28098.135520230931
 20
1707.749496429288
 30
0.0
 11
28098.135520230931
 21
1655.5036372746561
 31
0.0
1001
AUTOCAD_POSTSCRIPT_FIGURE
1002
{
1000
PSFILL
1000
Grayscale
1000
Grayscale
1070
   100
1002
}
  0
LINE
  5
1243A
  8
YODOROGO
 10
28082.135520230921
 20
1655.5036372746561
 30
0.0
 11
28082.135520230921
 21
1707.749496429288
 31
0.0
1001
AUTOCAD_POSTSCRIPT_FIGURE
1002
{
1000
PSFILL
1000
Grayscale
1000
Grayscale
1070
   100
1002
}
  0
LINE
  5
1243B
  8
YODOROGO
 10
27809.604341291921
 20
1608.771904043258
 30
0.0
 11
27809.604341291921
 21
1632.771904043258
 31
0.0
  0
LINE
  5
1243C
  8
YODOROGO
 10
27905.604341291921
 20
1608.771904043258
 30
0.0
 11
27809.604341291921
 21
1608.771904043258
 31
0.0
  0
LINE
  5
1243D
  8
YODOROGO
 10
27905.604341291921
 20
1632.771904043258
 30
0.0
 11
27905.604341291921
 21
1608.771904043258
 31
0.0
  0
LINE
  5
1243E
  8
YODOROGO
 10
27809.604341291921
 20
1632.771904043258
 30
0.0
 11
27905.604341291921
 21
1632.771904043258
 31
0.0
  0
LINE
  5
1243F
  8
YODOROGO
 10
27824.509588915738
 20
1568.5028573704751
 30
0.0
 11
27785.604341291921
 21
1475.7494964292871
 31
0.0
1001
AUTOCAD_POSTSCRIPT_FIGURE
1002
{
1000
PSFILL
1000
Grayscale
1000
Grayscale
1070
   100
1002
}
  0
LINE
  5
12440
  8
YODOROGO
 10
27777.604341291921
 20
1568.5028573704751
 30
0.0
 11
27824.509588915738
 21
1568.5028573704751
 31
0.0
1001
AUTOCAD_POSTSCRIPT_FIGURE
1002
{
1000
PSFILL
1000
Grayscale
1000
Grayscale
1070
   100
1002
}
  0
LINE
  5
12441
  8
YODOROGO
 10
27777.604341291921
 20
1588.5028573704751
 30
0.0
 11
27777.604341291921
 21
1568.5028573704751
 31
0.0
1001
AUTOCAD_POSTSCRIPT_FIGURE
1002
{
1000
PSFILL
1000
Grayscale
1000
Grayscale
1070
   100
1002
}
  0
LINE
  5
12442
  8
YODOROGO
 10
27937.604341291921
 20
1588.5028573704751
 30
0.0
 11
27777.604341291921
 21
1588.5028573704751
 31
0.0
1001
AUTOCAD_POSTSCRIPT_FIGURE
1002
{
1000
PSFILL
1000
Grayscale
1000
Grayscale
1070
   100
1002
}
  0
LINE
  5
12443
  8
YODOROGO
 10
27937.604341291921
 20
1568.5028573704751
 30
0.0
 11
27937.604341291921
 21
1588.5028573704751
 31
0.0
1001
AUTOCAD_POSTSCRIPT_FIGURE
1002
{
1000
PSFILL
1000
Grayscale
1000
Grayscale
1070
   100
1002
}
  0
LINE
  5
12444
  8
YODOROGO
 10
27844.509588915738
 20
1568.5028573704751
 30
0.0
 11
27937.604341291921
 21
1568.5028573704751
 31
0.0
1001
AUTOCAD_POSTSCRIPT_FIGURE
1002
{
1000
PSFILL
1000
Grayscale
1000
Grayscale
1070
   100
1002
}
  0
LINE
  5
12445
  8
YODOROGO
 10
27815.546718284771
 20
1495.7494964292871
 30
0.0
 11
27844.509588915738
 21
1568.5028573704751
 31
0.0
1001
AUTOCAD_POSTSCRIPT_FIGURE
1002
{
1000
PSFILL
1000
Grayscale
1000
Grayscale
1070
   100
1002
}
  0
LINE
  5
12446
  8
YODOROGO
 10
27902.054790808648
 20
1495.7494964292871
 30
0.0
 11
27815.546718284771
 21
1495.7494964292871
 31
0.0
1001
AUTOCAD_POSTSCRIPT_FIGURE
1002
{
1000
PSFILL
1000
Grayscale
1000
Grayscale
1070
   100
1002
}
  0
LINE
  5
12447
  8
YODOROGO
 10
27885.065004790951
 20
1536.2338106976929
 30
0.0
 11
27902.054790808648
 21
1495.7494964292871
 31
0.0
1001
AUTOCAD_POSTSCRIPT_FIGURE
1002
{
1000
PSFILL
1000
Grayscale
1000
Grayscale
1070
   100
1002
}
  0
LINE
  5
12448
  8
YODOROGO
 10
27901.065004790951
 20
1536.2338106976929
 30
0.0
 11
27885.065004790951
 21
1536.2338106976929
 31
0.0
1001
AUTOCAD_POSTSCRIPT_FIGURE
1002
{
1000
PSFILL
1000
Grayscale
1000
Grayscale
1070
   100
1002
}
  0
LINE
  5
12449
  8
YODOROGO
 10
27929.604341291921
 20
1475.7494964292871
 30
0.0
 11
27901.065004790951
 21
1536.2338106976929
 31
0.0
1001
AUTOCAD_POSTSCRIPT_FIGURE
1002
{
1000
PSFILL
1000
Grayscale
1000
Grayscale
1070
   100
1002
}
  0
LINE
  5
1244A
  8
YODOROGO
 10
27785.604341291921
 20
1475.7494964292871
 30
0.0
 11
27929.604341291921
 21
1475.7494964292871
 31
0.0
1001
AUTOCAD_POSTSCRIPT_FIGURE
1002
{
1000
PSFILL
1000
Grayscale
1000
Grayscale
1070
   100
1002
}
  0
LINE
  5
1244B
  8
YODOROGO
 10
27777.604341291921
 20
1619.9724140445701
 30
0.0
 11
27777.604341291921
 21
1643.9724140445701
 31
0.0
  0
LINE
  5
1244C
  8
YODOROGO
 10
27937.604341291921
 20
1643.9724140445701
 30
0.0
 11
27937.604341291921
 21
1619.9724140445701
 31
0.0
  0
ARC
  5
1244D
  8
YODOROGO
 10
28225.940442146959
 20
1600.877765325326
 30
0.0
 40
175.9999999999998
 50
280.3644312771313
 51
3.5414836592180561
  0
ARC
  5
1244E
  8
YODOROGO
 10
28235.756030759301
 20
1633.5978069619041
 30
0.0
 40
111.9999999999982
 50
281.24905825041549
 51
348.75094174958321
  0
LINE
  5
1244F
  8
YODOROGO
 10
28257.604341291921
 20
1523.7494964292871
 30
0.0
 11
28257.604341291921
 21
1427.749496429288
 31
0.0
  0
LINE
  5
12450
  8
YODOROGO
 10
28020.088903736909
 20
1610.650565061914
 30
0.0
 11
28040.913204016892
 21
1659.749496429288
 31
0.0
  0
LINE
  5
12451
  8
YODOROGO
 10
28041.604341291921
 20
1583.120489948401
 30
0.0
 11
28020.088903736909
 21
1610.650565061914
 31
0.0
  0
LINE
  5
12452
  8
YODOROGO
 10
28041.604341291921
 20
1563.120489948398
 30
0.0
 11
28041.604341291921
 21
1583.120489948401
 31
0.0
  0
LINE
  5
12453
  8
YODOROGO
 10
28017.604341291921
 20
1585.2370637495301
 30
0.0
 11
28041.604341291921
 21
1563.120489948398
 31
0.0
  0
LINE
  5
12454
  8
YODOROGO
 10
28017.604341291921
 20
1475.7494964292871
 30
0.0
 11
28017.604341291921
 21
1585.2370637495301
 31
0.0
  0
LINE
  5
12455
  8
YODOROGO
 10
28001.604341291921
 20
1475.7494964292871
 30
0.0
 11
28017.604341291921
 21
1475.7494964292871
 31
0.0
  0
LINE
  5
12456
  8
YODOROGO
 10
28001.604341291921
 20
1580.0053496897469
 30
0.0
 11
28001.604341291921
 21
1475.7494964292871
 31
0.0
  0
LINE
  5
12457
  8
YODOROGO
 10
27977.604341291921
 20
1532.7680790334291
 30
0.0
 11
28001.604341291921
 21
1580.0053496897469
 31
0.0
  0
LINE
  5
12458
  8
YODOROGO
 10
27977.604341291921
 20
1556.76807903343
 30
0.0
 11
27977.604341291921
 21
1532.7680790334291
 31
0.0
  0
LINE
  5
12459
  8
YODOROGO
 10
28025.828774291349
 20
1667.749496429285
 30
0.0
 11
27977.604341291921
 21
1556.76807903343
 31
0.0
  0
LINE
  5
1245A
  8
YODOROGO
 10
27977.604341291921
 20
1667.749496429285
 30
0.0
 11
28025.828774291349
 21
1667.749496429285
 31
0.0
  0
LINE
  5
1245B
  8
YODOROGO
 10
28050.135520230899
 20
1655.5036372746561
 30
0.0
 11
28082.135520230921
 21
1655.5036372746561
 31
0.0
1001
AUTOCAD_POSTSCRIPT_FIGURE
1002
{
1000
PSFILL
1000
Grayscale
1000
Grayscale
1070
   100
1002
}
  0
LINE
  5
1245C
  8
YODOROGO
 10
28050.135520230899
 20
1631.5036372746561
 30
0.0
 11
28050.135520230899
 21
1655.5036372746561
 31
0.0
1001
AUTOCAD_POSTSCRIPT_FIGURE
1002
{
1000
PSFILL
1000
Grayscale
1000
Grayscale
1070
   100
1002
}
  0
LINE
  5
1245D
  8
YODOROGO
 10
28082.135520230921
 20
1631.5036372746561
 30
0.0
 11
28050.135520230899
 21
1631.5036372746561
 31
0.0
1001
AUTOCAD_POSTSCRIPT_FIGURE
1002
{
1000
PSFILL
1000
Grayscale
1000
Grayscale
1070
   100
1002
}
  0
LINE
  5
1245E
  8
YODOROGO
 10
28082.135520230921
 20
1499.749496429288
 30
0.0
 11
28082.135520230921
 21
1631.5036372746561
 31
0.0
1001
AUTOCAD_POSTSCRIPT_FIGURE
1002
{
1000
PSFILL
1000
Grayscale
1000
Grayscale
1070
   100
1002
}
  0
LINE
  5
1245F
  8
YODOROGO
 10
28050.135520230921
 20
1499.749496429288
 30
0.0
 11
28082.135520230921
 21
1499.749496429288
 31
0.0
1001
AUTOCAD_POSTSCRIPT_FIGURE
1002
{
1000
PSFILL
1000
Grayscale
1000
Grayscale
1070
   100
1002
}
  0
LINE
  5
12460
  8
YODOROGO
 10
28050.135520230921
 20
1475.7494964292871
 30
0.0
 11
28050.135520230921
 21
1499.749496429288
 31
0.0
1001
AUTOCAD_POSTSCRIPT_FIGURE
1002
{
1000
PSFILL
1000
Grayscale
1000
Grayscale
1070
   100
1002
}
  0
LINE
  5
12461
  8
YODOROGO
 10
28137.604341291921
 20
1475.7494964292871
 30
0.0
 11
28050.135520230921
 21
1475.7494964292871
 31
0.0
1001
AUTOCAD_POSTSCRIPT_FIGURE
1002
{
1000
PSFILL
1000
Grayscale
1000
Grayscale
1070
   100
1002
}
  0
LINE
  5
12462
  8
YODOROGO
 10
28137.604341291921
 20
1499.749496429288
 30
0.0
 11
28137.604341291921
 21
1475.7494964292871
 31
0.0
1001
AUTOCAD_POSTSCRIPT_FIGURE
1002
{
1000
PSFILL
1000
Grayscale
1000
Grayscale
1070
   100
1002
}
  0
LINE
  5
12463
  8
YODOROGO
 10
28098.135520230931
 20
1499.749496429288
 30
0.0
 11
28137.604341291921
 21
1499.749496429288
 31
0.0
1001
AUTOCAD_POSTSCRIPT_FIGURE
1002
{
1000
PSFILL
1000
Grayscale
1000
Grayscale
1070
   100
1002
}
  0
LINE
  5
12464
  8
YODOROGO
 10
28098.135520230931
 20
1631.5036372746561
 30
0.0
 11
28098.135520230931
 21
1499.749496429288
 31
0.0
1001
AUTOCAD_POSTSCRIPT_FIGURE
1002
{
1000
PSFILL
1000
Grayscale
1000
Grayscale
1070
   100
1002
}
  0
LINE
  5
12465
  8
YODOROGO
 10
28137.604341291921
 20
1631.5036372746561
 30
0.0
 11
28098.135520230931
 21
1631.5036372746561
 31
0.0
1001
AUTOCAD_POSTSCRIPT_FIGURE
1002
{
1000
PSFILL
1000
Grayscale
1000
Grayscale
1070
   100
1002
}
  0
LINE
  5
12466
  8
YODOROGO
 10
28137.604341291921
 20
1655.5036372746561
 30
0.0
 11
28137.604341291921
 21
1631.5036372746561
 31
0.0
1001
AUTOCAD_POSTSCRIPT_FIGURE
1002
{
1000
PSFILL
1000
Grayscale
1000
Grayscale
1070
   100
1002
}
  0
LINE
  5
12467
  8
YODOROGO
 10
28098.135520230931
 20
1655.5036372746561
 30
0.0
 11
28137.604341291921
 21
1655.5036372746561
 31
0.0
1001
AUTOCAD_POSTSCRIPT_FIGURE
1002
{
1000
PSFILL
1000
Grayscale
1000
Grayscale
1070
   100
1002
}
  0
LINE
  5
12468
  8
YODOROGO
 10
28401.60434129191
 20
1667.749496429288
 30
0.0
 11
28345.604341291921
 21
1667.749496429288
 31
0.0
  0
LINE
  5
12469
  8
YODOROGO
 10
28401.60434129191
 20
1611.749496429288
 30
0.0
 11
28401.60434129191
 21
1667.749496429288
 31
0.0
  0
LINE
  5
1246A
  8
YODOROGO
 10
28345.604341291921
 20
1667.749496429288
 30
0.0
 11
28345.604341291921
 21
1611.749496429288
 31
0.0
  0
ARC
  5
1246B
  8
YODOROGO
 10
28513.60434129191
 20
1507.749496429288
 30
0.0
 40
80.0
 50
180.0
 51
270.0
  0
ARC
  5
1246C
  8
YODOROGO
 10
28537.604341291921
 20
1563.7494964292871
 30
0.0
 40
40.0
 50
180.0
 51
270.0
  0
LINE
  5
1246D
  8
YODOROGO
 10
28561.604341291932
 20
1523.7494964292871
 30
0.0
 11
28537.604341291921
 21
1523.7494964292871
 31
0.0
  0
ARC
  5
1246E
  8
YODOROGO
 10
28561.604341291932
 20
1547.749496429285
 30
0.0
 40
23.999999999996358
 50
270.0
 51
0.0000000000054281
  0
LINE
  5
1246F
  8
YODOROGO
 10
27801.604341291921
 20
1890.786580793706
 30
0.0
 11
27777.604341291921
 21
1843.776747951672
 31
0.0
1001
AUTOCAD_POSTSCRIPT_FIGURE
1002
{
1000
PSFILL
1000
Grayscale
1000
Grayscale
1070
   100
1002
}
  0
LINE
  5
12470
  8
YODOROGO
 10
27801.604341291921
 20
1747.749496429286
 30
0.0
 11
27801.604341291921
 21
1890.786580793706
 31
0.0
1001
AUTOCAD_POSTSCRIPT_FIGURE
1002
{
1000
PSFILL
1000
Grayscale
1000
Grayscale
1070
   100
1002
}
  0
LINE
  5
12471
  8
YODOROGO
 10
27817.604341291921
 20
1747.749496429286
 30
0.0
 11
27801.604341291921
 21
1747.749496429286
 31
0.0
1001
AUTOCAD_POSTSCRIPT_FIGURE
1002
{
1000
PSFILL
1000
Grayscale
1000
Grayscale
1070
   100
1002
}
  0
LINE
  5
12472
  8
YODOROGO
 10
27817.604341291921
 20
1893.7713320852661
 30
0.0
 11
27817.604341291921
 21
1747.749496429286
 31
0.0
1001
AUTOCAD_POSTSCRIPT_FIGURE
1002
{
1000
PSFILL
1000
Grayscale
1000
Grayscale
1070
   100
1002
}
  0
LINE
  5
12473
  8
YODOROGO
 10
27841.604341291921
 20
1867.6547582841361
 30
0.0
 11
27817.604341291921
 21
1893.7713320852661
 31
0.0
1001
AUTOCAD_POSTSCRIPT_FIGURE
1002
{
1000
PSFILL
1000
Grayscale
1000
Grayscale
1070
   100
1002
}
  0
LINE
  5
12474
  8
YODOROGO
 10
27841.604341291921
 20
1883.6547582841361
 30
0.0
 11
27841.604341291921
 21
1867.6547582841361
 31
0.0
1001
AUTOCAD_POSTSCRIPT_FIGURE
1002
{
1000
PSFILL
1000
Grayscale
1000
Grayscale
1070
   100
1002
}
  0
LINE
  5
12475
  8
YODOROGO
 10
27817.604341291921
 20
1917.7713320852649
 30
0.0
 11
27841.604341291921
 21
1883.6547582841361
 31
0.0
1001
AUTOCAD_POSTSCRIPT_FIGURE
1002
{
1000
PSFILL
1000
Grayscale
1000
Grayscale
1070
   100
1002
}
  0
LINE
  5
12476
  8
YODOROGO
 10
27817.604341291921
 20
1939.749496429288
 30
0.0
 11
27817.604341291921
 21
1917.7713320852649
 31
0.0
1001
AUTOCAD_POSTSCRIPT_FIGURE
1002
{
1000
PSFILL
1000
Grayscale
1000
Grayscale
1070
   100
1002
}
  0
LINE
  5
12477
  8
YODOROGO
 10
27889.604341291921
 20
1939.749496429288
 30
0.0
 11
27817.604341291921
 21
1939.749496429288
 31
0.0
1001
AUTOCAD_POSTSCRIPT_FIGURE
1002
{
1000
PSFILL
1000
Grayscale
1000
Grayscale
1070
   100
1002
}
  0
LINE
  5
12478
  8
YODOROGO
 10
27889.604341291921
 20
1900.5683489363
 30
0.0
 11
27889.604341291921
 21
1939.749496429288
 31
0.0
1001
AUTOCAD_POSTSCRIPT_FIGURE
1002
{
1000
PSFILL
1000
Grayscale
1000
Grayscale
1070
   100
1002
}
  0
LINE
  5
12479
  8
YODOROGO
 10
27857.604341291921
 20
1900.5683489363
 30
0.0
 11
27889.604341291921
 21
1900.5683489363
 31
0.0
1001
AUTOCAD_POSTSCRIPT_FIGURE
1002
{
1000
PSFILL
1000
Grayscale
1000
Grayscale
1070
   100
1002
}
  0
LINE
  5
1247A
  8
YODOROGO
 10
27857.604341291921
 20
1884.568348936298
 30
0.0
 11
27857.604341291921
 21
1900.5683489363
 31
0.0
1001
AUTOCAD_POSTSCRIPT_FIGURE
1002
{
1000
PSFILL
1000
Grayscale
1000
Grayscale
1070
   100
1002
}
  0
LINE
  5
1247B
  8
YODOROGO
 10
27889.604341291921
 20
1884.568348936298
 30
0.0
 11
27857.604341291921
 21
1884.568348936298
 31
0.0
1001
AUTOCAD_POSTSCRIPT_FIGURE
1002
{
1000
PSFILL
1000
Grayscale
1000
Grayscale
1070
   100
1002
}
  0
LINE
  5
1247C
  8
YODOROGO
 10
27889.604341291921
 20
1879.6191779644371
 30
0.0
 11
27889.604341291921
 21
1884.568348936298
 31
0.0
1001
AUTOCAD_POSTSCRIPT_FIGURE
1002
{
1000
PSFILL
1000
Grayscale
1000
Grayscale
1070
   100
1002
}
  0
LINE
  5
1247D
  8
YODOROGO
 10
27849.604341291921
 20
1812.974981161417
 30
0.0
 11
27889.604341291921
 21
1879.6191779644371
 31
0.0
1001
AUTOCAD_POSTSCRIPT_FIGURE
1002
{
1000
PSFILL
1000
Grayscale
1000
Grayscale
1070
   100
1002
}
  0
LINE
  5
1247E
  8
YODOROGO
 10
27849.604341291921
 20
1796.9749811614161
 30
0.0
 11
27849.604341291921
 21
1812.974981161417
 31
0.0
1001
AUTOCAD_POSTSCRIPT_FIGURE
1002
{
1000
PSFILL
1000
Grayscale
1000
Grayscale
1070
   100
1002
}
  0
LINE
  5
1247F
  8
YODOROGO
 10
27889.604341291921
 20
1847.6191779644359
 30
0.0
 11
27849.604341291921
 21
1796.9749811614161
 31
0.0
1001
AUTOCAD_POSTSCRIPT_FIGURE
1002
{
1000
PSFILL
1000
Grayscale
1000
Grayscale
1070
   100
1002
}
  0
LINE
  5
12480
  8
YODOROGO
 10
27889.604341291921
 20
1747.749496429286
 30
0.0
 11
27889.604341291921
 21
1847.6191779644359
 31
0.0
1001
AUTOCAD_POSTSCRIPT_FIGURE
1002
{
1000
PSFILL
1000
Grayscale
1000
Grayscale
1070
   100
1002
}
  0
LINE
  5
12481
  8
YODOROGO
 10
27905.604341291921
 20
1747.749496429286
 30
0.0
 11
27889.604341291921
 21
1747.749496429286
 31
0.0
1001
AUTOCAD_POSTSCRIPT_FIGURE
1002
{
1000
PSFILL
1000
Grayscale
1000
Grayscale
1070
   100
1002
}
  0
LINE
  5
12482
  8
YODOROGO
 10
27905.604341291921
 20
1849.409012158806
 30
0.0
 11
27905.604341291921
 21
1747.749496429286
 31
0.0
1001
AUTOCAD_POSTSCRIPT_FIGURE
1002
{
1000
PSFILL
1000
Grayscale
1000
Grayscale
1070
   100
1002
}
  0
LINE
  5
12483
  8
YODOROGO
 10
27937.604341291921
 20
1796.9749811614161
 30
0.0
 11
27905.604341291921
 21
1849.409012158806
 31
0.0
1001
AUTOCAD_POSTSCRIPT_FIGURE
1002
{
1000
PSFILL
1000
Grayscale
1000
Grayscale
1070
   100
1002
}
  0
LINE
  5
12484
  8
YODOROGO
 10
27937.604341291921
 20
1812.974981161417
 30
0.0
 11
27937.604341291921
 21
1796.9749811614161
 31
0.0
1001
AUTOCAD_POSTSCRIPT_FIGURE
1002
{
1000
PSFILL
1000
Grayscale
1000
Grayscale
1070
   100
1002
}
  0
LINE
  5
12485
  8
YODOROGO
 10
27905.604341291921
 20
1881.4090121588081
 30
0.0
 11
27937.604341291921
 21
1812.974981161417
 31
0.0
1001
AUTOCAD_POSTSCRIPT_FIGURE
1002
{
1000
PSFILL
1000
Grayscale
1000
Grayscale
1070
   100
1002
}
  0
LINE
  5
12486
  8
YODOROGO
 10
27905.604341291921
 20
1884.5683489363
 30
0.0
 11
27905.604341291921
 21
1881.4090121588081
 31
0.0
1001
AUTOCAD_POSTSCRIPT_FIGURE
1002
{
1000
PSFILL
1000
Grayscale
1000
Grayscale
1070
   100
1002
}
  0
LINE
  5
12487
  8
YODOROGO
 10
27937.604341291921
 20
1884.568348936298
 30
0.0
 11
27905.604341291921
 21
1884.5683489363
 31
0.0
1001
AUTOCAD_POSTSCRIPT_FIGURE
1002
{
1000
PSFILL
1000
Grayscale
1000
Grayscale
1070
   100
1002
}
  0
LINE
  5
12488
  8
YODOROGO
 10
27937.604341291921
 20
1900.5683489363
 30
0.0
 11
27937.604341291921
 21
1884.568348936298
 31
0.0
1001
AUTOCAD_POSTSCRIPT_FIGURE
1002
{
1000
PSFILL
1000
Grayscale
1000
Grayscale
1070
   100
1002
}
  0
LINE
  5
12489
  8
YODOROGO
 10
27905.604341291921
 20
1900.5683489363
 30
0.0
 11
27937.604341291921
 21
1900.5683489363
 31
0.0
1001
AUTOCAD_POSTSCRIPT_FIGURE
1002
{
1000
PSFILL
1000
Grayscale
1000
Grayscale
1070
   100
1002
}
  0
LINE
  5
1248A
  8
YODOROGO
 10
27905.604341291921
 20
1939.749496429288
 30
0.0
 11
27905.604341291921
 21
1900.5683489363
 31
0.0
1001
AUTOCAD_POSTSCRIPT_FIGURE
1002
{
1000
PSFILL
1000
Grayscale
1000
Grayscale
1070
   100
1002
}
  0
LINE
  5
1248B
  8
YODOROGO
 10
27937.604341291921
 20
1939.749496429288
 30
0.0
 11
27905.604341291921
 21
1939.749496429288
 31
0.0
1001
AUTOCAD_POSTSCRIPT_FIGURE
1002
{
1000
PSFILL
1000
Grayscale
1000
Grayscale
1070
   100
1002
}
  0
LINE
  5
1248C
  8
YODOROGO
 10
27937.604341291921
 20
1955.7494964292871
 30
0.0
 11
27937.604341291921
 21
1939.749496429288
 31
0.0
1001
AUTOCAD_POSTSCRIPT_FIGURE
1002
{
1000
PSFILL
1000
Grayscale
1000
Grayscale
1070
   100
1002
}
  0
LINE
  5
1248D
  8
YODOROGO
 10
27905.604341291921
 20
1955.7494964292871
 30
0.0
 11
27937.604341291921
 21
1955.7494964292871
 31
0.0
1001
AUTOCAD_POSTSCRIPT_FIGURE
1002
{
1000
PSFILL
1000
Grayscale
1000
Grayscale
1070
   100
1002
}
  0
LINE
  5
1248E
  8
YODOROGO
 10
27905.604341291921
 20
1979.749496429288
 30
0.0
 11
27905.604341291921
 21
1955.7494964292871
 31
0.0
1001
AUTOCAD_POSTSCRIPT_FIGURE
1002
{
1000
PSFILL
1000
Grayscale
1000
Grayscale
1070
   100
1002
}
  0
LINE
  5
1248F
  8
YODOROGO
 10
27889.604341291921
 20
1979.749496429288
 30
0.0
 11
27905.604341291921
 21
1979.749496429288
 31
0.0
1001
AUTOCAD_POSTSCRIPT_FIGURE
1002
{
1000
PSFILL
1000
Grayscale
1000
Grayscale
1070
   100
1002
}
  0
LINE
  5
12490
  8
YODOROGO
 10
27889.604341291921
 20
1955.7494964292871
 30
0.0
 11
27889.604341291921
 21
1979.749496429288
 31
0.0
1001
AUTOCAD_POSTSCRIPT_FIGURE
1002
{
1000
PSFILL
1000
Grayscale
1000
Grayscale
1070
   100
1002
}
  0
LINE
  5
12491
  8
YODOROGO
 10
27865.604341291921
 20
1955.7494964292871
 30
0.0
 11
27889.604341291921
 21
1955.7494964292871
 31
0.0
1001
AUTOCAD_POSTSCRIPT_FIGURE
1002
{
1000
PSFILL
1000
Grayscale
1000
Grayscale
1070
   100
1002
}
  0
LINE
  5
12492
  8
YODOROGO
 10
27865.604341291921
 20
1979.749496429288
 30
0.0
 11
27865.604341291921
 21
1955.7494964292871
 31
0.0
1001
AUTOCAD_POSTSCRIPT_FIGURE
1002
{
1000
PSFILL
1000
Grayscale
1000
Grayscale
1070
   100
1002
}
  0
LINE
  5
12493
  8
YODOROGO
 10
27849.604341291921
 20
1979.749496429288
 30
0.0
 11
27865.604341291921
 21
1979.749496429288
 31
0.0
1001
AUTOCAD_POSTSCRIPT_FIGURE
1002
{
1000
PSFILL
1000
Grayscale
1000
Grayscale
1070
   100
1002
}
  0
LINE
  5
12494
  8
YODOROGO
 10
27849.604341291921
 20
1955.7494964292871
 30
0.0
 11
27849.604341291921
 21
1979.749496429288
 31
0.0
1001
AUTOCAD_POSTSCRIPT_FIGURE
1002
{
1000
PSFILL
1000
Grayscale
1000
Grayscale
1070
   100
1002
}
  0
LINE
  5
12495
  8
YODOROGO
 10
27817.604341291921
 20
1955.7494964292871
 30
0.0
 11
27849.604341291921
 21
1955.7494964292871
 31
0.0
1001
AUTOCAD_POSTSCRIPT_FIGURE
1002
{
1000
PSFILL
1000
Grayscale
1000
Grayscale
1070
   100
1002
}
  0
LINE
  5
12496
  8
YODOROGO
 10
27817.604341291921
 20
1979.749496429288
 30
0.0
 11
27817.604341291921
 21
1955.7494964292871
 31
0.0
1001
AUTOCAD_POSTSCRIPT_FIGURE
1002
{
1000
PSFILL
1000
Grayscale
1000
Grayscale
1070
   100
1002
}
  0
LINE
  5
12497
  8
YODOROGO
 10
27801.604341291921
 20
1979.749496429288
 30
0.0
 11
27817.604341291921
 21
1979.749496429288
 31
0.0
1001
AUTOCAD_POSTSCRIPT_FIGURE
1002
{
1000
PSFILL
1000
Grayscale
1000
Grayscale
1070
   100
1002
}
  0
LINE
  5
12498
  8
YODOROGO
 10
27801.604341291921
 20
1955.7494964292871
 30
0.0
 11
27801.604341291921
 21
1979.749496429288
 31
0.0
1001
AUTOCAD_POSTSCRIPT_FIGURE
1002
{
1000
PSFILL
1000
Grayscale
1000
Grayscale
1070
   100
1002
}
  0
LINE
  5
12499
  8
YODOROGO
 10
27777.604341291921
 20
1955.7494964292871
 30
0.0
 11
27801.604341291921
 21
1955.7494964292871
 31
0.0
1001
AUTOCAD_POSTSCRIPT_FIGURE
1002
{
1000
PSFILL
1000
Grayscale
1000
Grayscale
1070
   100
1002
}
  0
LINE
  5
1249A
  8
YODOROGO
 10
27777.604341291921
 20
1939.749496429288
 30
0.0
 11
27777.604341291921
 21
1955.7494964292871
 31
0.0
1001
AUTOCAD_POSTSCRIPT_FIGURE
1002
{
1000
PSFILL
1000
Grayscale
1000
Grayscale
1070
   100
1002
}
  0
LINE
  5
1249B
  8
YODOROGO
 10
27801.604341291921
 20
1939.749496429288
 30
0.0
 11
27777.604341291921
 21
1939.749496429288
 31
0.0
1001
AUTOCAD_POSTSCRIPT_FIGURE
1002
{
1000
PSFILL
1000
Grayscale
1000
Grayscale
1070
   100
1002
}
  0
LINE
  5
1249C
  8
YODOROGO
 10
27801.604341291921
 20
1914.7865807937051
 30
0.0
 11
27801.604341291921
 21
1939.749496429288
 31
0.0
1001
AUTOCAD_POSTSCRIPT_FIGURE
1002
{
1000
PSFILL
1000
Grayscale
1000
Grayscale
1070
   100
1002
}
  0
LINE
  5
1249D
  8
YODOROGO
 10
27777.604341291921
 20
1859.776747951671
 30
0.0
 11
27801.604341291921
 21
1914.7865807937051
 31
0.0
1001
AUTOCAD_POSTSCRIPT_FIGURE
1002
{
1000
PSFILL
1000
Grayscale
1000
Grayscale
1070
   100
1002
}
  0
LINE
  5
1249E
  8
YODOROGO
 10
27777.604341291921
 20
1843.776747951672
 30
0.0
 11
27777.604341291921
 21
1859.776747951671
 31
0.0
1001
AUTOCAD_POSTSCRIPT_FIGURE
1002
{
1000
PSFILL
1000
Grayscale
1000
Grayscale
1070
   100
1002
}
  0
LINE
  5
1249F
  8
YODOROGO
 10
28257.604341291921
 20
1867.7494964292871
 30
0.0
 11
28401.60434129191
 21
1824.877625640306
 31
0.0
1001
AUTOCAD_POSTSCRIPT_FIGURE
1002
{
1000
PSFILL
1000
Grayscale
1000
Grayscale
1070
   100
1002
}
  0
LINE
  5
124A0
  8
YODOROGO
 10
28401.60434129191
 20
1752.877625640306
 30
0.0
 11
28257.604341291921
 21
1795.7494964292871
 31
0.0
1001
AUTOCAD_POSTSCRIPT_FIGURE
1002
{
1000
PSFILL
1000
Grayscale
1000
Grayscale
1070
   100
1002
}
  0
LINE
  5
124A1
  8
YODOROGO
 10
28401.60434129191
 20
1984.877625640306
 30
0.0
 11
28257.604341291921
 21
2027.749496429288
 31
0.0
1001
AUTOCAD_POSTSCRIPT_FIGURE
1002
{
1000
PSFILL
1000
Grayscale
1000
Grayscale
1070
   100
1002
}
  0
LINE
  5
124A2
  8
YODOROGO
 10
28257.604341291921
 20
1959.749496429288
 30
0.0
 11
28401.60434129191
 21
1916.8776256403071
 31
0.0
1001
AUTOCAD_POSTSCRIPT_FIGURE
1002
{
1000
PSFILL
1000
Grayscale
1000
Grayscale
1070
   100
1002
}
  0
LINE
  5
124A3
  8
YODOROGO
 10
28257.604341291921
 20
1795.7494964292871
 30
0.0
 11
28257.604341291921
 21
1867.7494964292871
 31
0.0
1001
AUTOCAD_POSTSCRIPT_FIGURE
1002
{
1000
PSFILL
1000
Grayscale
1000
Grayscale
1070
   100
1002
}
  0
LINE
  5
124A4
  8
YODOROGO
 10
28257.604341291921
 20
2027.749496429288
 30
0.0
 11
28257.604341291921
 21
1959.749496429288
 31
0.0
1001
AUTOCAD_POSTSCRIPT_FIGURE
1002
{
1000
PSFILL
1000
Grayscale
1000
Grayscale
1070
   100
1002
}
  0
LINE
  5
124A5
  8
YODOROGO
 10
28080.236320206739
 20
1939.749496429288
 30
0.0
 11
28129.60434129191
 21
1747.749496429286
 31
0.0
1001
AUTOCAD_POSTSCRIPT_FIGURE
1002
{
1000
PSFILL
1000
Grayscale
1000
Grayscale
1070
   100
1002
}
  0
LINE
  5
124A6
  8
YODOROGO
 10
27977.604341291921
 20
1939.749496429288
 30
0.0
 11
28080.236320206739
 21
1939.749496429288
 31
0.0
1001
AUTOCAD_POSTSCRIPT_FIGURE
1002
{
1000
PSFILL
1000
Grayscale
1000
Grayscale
1070
   100
1002
}
  0
LINE
  5
124A7
  8
YODOROGO
 10
27977.604341291921
 20
1955.7494964292871
 30
0.0
 11
27977.604341291921
 21
1939.749496429288
 31
0.0
1001
AUTOCAD_POSTSCRIPT_FIGURE
1002
{
1000
PSFILL
1000
Grayscale
1000
Grayscale
1070
   100
1002
}
  0
LINE
  5
124A8
  8
YODOROGO
 10
28076.60687851991
 20
1955.7494964292871
 30
0.0
 11
27977.604341291921
 21
1955.7494964292871
 31
0.0
1001
AUTOCAD_POSTSCRIPT_FIGURE
1002
{
1000
PSFILL
1000
Grayscale
1000
Grayscale
1070
   100
1002
}
  0
LINE
  5
124A9
  8
YODOROGO
 10
28071.162715989711
 20
1979.749496429288
 30
0.0
 11
28076.60687851991
 21
1955.7494964292871
 31
0.0
1001
AUTOCAD_POSTSCRIPT_FIGURE
1002
{
1000
PSFILL
1000
Grayscale
1000
Grayscale
1070
   100
1002
}
  0
LINE
  5
124AA
  8
YODOROGO
 10
28091.162715989711
 20
1979.749496429288
 30
0.0
 11
28071.162715989711
 21
1979.749496429288
 31
0.0
1001
AUTOCAD_POSTSCRIPT_FIGURE
1002
{
1000
PSFILL
1000
Grayscale
1000
Grayscale
1070
   100
1002
}
  0
LINE
  5
124AB
  8
YODOROGO
 10
28095.806878519939
 20
1955.7494964292871
 30
0.0
 11
28091.162715989711
 21
1979.749496429288
 31
0.0
1001
AUTOCAD_POSTSCRIPT_FIGURE
1002
{
1000
PSFILL
1000
Grayscale
1000
Grayscale
1070
   100
1002
}
  0
LINE
  5
124AC
  8
YODOROGO
 10
28121.604341291921
 20
1955.7494964292871
 30
0.0
 11
28095.806878519939
 21
1955.7494964292871
 31
0.0
1001
AUTOCAD_POSTSCRIPT_FIGURE
1002
{
1000
PSFILL
1000
Grayscale
1000
Grayscale
1070
   100
1002
}
  0
LINE
  5
124AD
  8
YODOROGO
 10
28121.604341291921
 20
1979.749496429288
 30
0.0
 11
28121.604341291921
 21
1955.7494964292871
 31
0.0
1001
AUTOCAD_POSTSCRIPT_FIGURE
1002
{
1000
PSFILL
1000
Grayscale
1000
Grayscale
1070
   100
1002
}
  0
LINE
  5
124AE
  8
YODOROGO
 10
28137.604341291921
 20
1979.749496429288
 30
0.0
 11
28121.604341291921
 21
1979.749496429288
 31
0.0
1001
AUTOCAD_POSTSCRIPT_FIGURE
1002
{
1000
PSFILL
1000
Grayscale
1000
Grayscale
1070
   100
1002
}
  0
LINE
  5
124AF
  8
YODOROGO
 10
28137.604341291921
 20
1955.7494964292871
 30
0.0
 11
28137.604341291921
 21
1979.749496429288
 31
0.0
1001
AUTOCAD_POSTSCRIPT_FIGURE
1002
{
1000
PSFILL
1000
Grayscale
1000
Grayscale
1070
   100
1002
}
  0
LINE
  5
124B0
  8
YODOROGO
 10
28137.604341291921
 20
1939.749496429288
 30
0.0
 11
28137.604341291921
 21
1955.7494964292871
 31
0.0
1001
AUTOCAD_POSTSCRIPT_FIGURE
1002
{
1000
PSFILL
1000
Grayscale
1000
Grayscale
1070
   100
1002
}
  0
LINE
  5
124B1
  8
YODOROGO
 10
28098.902986873411
 20
1939.749496429288
 30
0.0
 11
28137.604341291921
 21
1939.749496429288
 31
0.0
1001
AUTOCAD_POSTSCRIPT_FIGURE
1002
{
1000
PSFILL
1000
Grayscale
1000
Grayscale
1070
   100
1002
}
  0
LINE
  5
124B2
  8
YODOROGO
 10
28137.604341291921
 20
1747.749496429286
 30
0.0
 11
28098.902986873411
 21
1939.749496429288
 31
0.0
1001
AUTOCAD_POSTSCRIPT_FIGURE
1002
{
1000
PSFILL
1000
Grayscale
1000
Grayscale
1070
   100
1002
}
  0
LINE
  5
124B3
  8
YODOROGO
 10
28129.60434129191
 20
1747.749496429286
 30
0.0
 11
28137.604341291921
 21
1747.749496429286
 31
0.0
1001
AUTOCAD_POSTSCRIPT_FIGURE
1002
{
1000
PSFILL
1000
Grayscale
1000
Grayscale
1070
   100
1002
}
  0
LINE
  5
124B4
  8
YODOROGO
 10
28078.06921993379
 20
1775.7407762987939
 30
0.0
 11
27977.604341291921
 21
1747.749496429286
 31
0.0
  0
LINE
  5
124B5
  8
YODOROGO
 10
28078.06921993379
 20
1798.6689795290731
 30
0.0
 11
28078.06921993379
 21
1775.7407762987939
 31
0.0
  0
LINE
  5
124B6
  8
YODOROGO
 10
28033.83678061287
 20
1786.816933133767
 30
0.0
 11
28078.06921993379
 21
1798.6689795290731
 31
0.0
  0
LINE
  5
124B7
  8
YODOROGO
 10
28033.83678061287
 20
1872.5683489362989
 30
0.0
 11
28033.83678061287
 21
1786.816933133767
 31
0.0
  0
LINE
  5
124B8
  8
YODOROGO
 10
28078.06921993379
 20
1872.5683489362989
 30
0.0
 11
28033.83678061287
 21
1872.5683489362989
 31
0.0
  0
LINE
  5
124B9
  8
YODOROGO
 10
28078.06921993379
 20
1892.568348936298
 30
0.0
 11
28078.06921993379
 21
1872.5683489362989
 31
0.0
  0
LINE
  5
124BA
  8
YODOROGO
 10
27977.604341291921
 20
1892.568348936298
 30
0.0
 11
28078.06921993379
 21
1892.568348936298
 31
0.0
  0
LINE
  5
124BB
  8
YODOROGO
 10
27977.604341291921
 20
1872.5683489362989
 30
0.0
 11
27977.604341291921
 21
1892.568348936298
 31
0.0
  0
LINE
  5
124BC
  8
YODOROGO
 10
28021.836780612852
 20
1872.5683489362989
 30
0.0
 11
27977.604341291921
 21
1872.5683489362989
 31
0.0
  0
LINE
  5
124BD
  8
YODOROGO
 10
28021.836780612852
 20
1784.673339594317
 30
0.0
 11
28021.836780612852
 21
1872.5683489362989
 31
0.0
  0
LINE
  5
124BE
  8
YODOROGO
 10
27977.604341291921
 20
1771.749496429286
 30
0.0
 11
28021.836780612852
 21
1784.673339594317
 31
0.0
  0
LINE
  5
124BF
  8
YODOROGO
 10
27977.604341291921
 20
1747.749496429286
 30
0.0
 11
27977.604341291921
 21
1771.749496429286
 31
0.0
  0
LINE
  5
124C0
  8
YODOROGO
 10
28001.604341291921
 20
1707.749496429288
 30
0.0
 11
28001.604341291921
 21
1683.7494964292871
 31
0.0
  0
LINE
  5
124C1
  8
YODOROGO
 10
28017.604341291921
 20
1707.749496429288
 30
0.0
 11
28001.604341291921
 21
1707.749496429288
 31
0.0
  0
LINE
  5
124C2
  8
YODOROGO
 10
28017.604341291921
 20
1683.7494964292871
 30
0.0
 11
28017.604341291921
 21
1707.749496429288
 31
0.0
  0
LINE
  5
124C3
  8
YODOROGO
 10
28040.913204016892
 20
1683.7494964292871
 30
0.0
 11
28017.604341291921
 21
1683.7494964292871
 31
0.0
  0
LINE
  5
124C4
  8
YODOROGO
 10
28001.604341291921
 20
1683.7494964292871
 30
0.0
 11
27977.604341291921
 21
1683.7494964292871
 31
0.0
  0
LINE
  5
124C5
  8
YODOROGO
 10
28082.135520230921
 20
1707.749496429288
 30
0.0
 11
28098.135520230931
 21
1707.749496429288
 31
0.0
1001
AUTOCAD_POSTSCRIPT_FIGURE
1002
{
1000
PSFILL
1000
Grayscale
1000
Grayscale
1070
   100
1002
}
  0
LINE
  5
124C6
  8
YODOROGO
 10
28401.60434129191
 20
1824.877625640306
 30
0.0
 11
28401.60434129191
 21
1752.877625640306
 31
0.0
1001
AUTOCAD_POSTSCRIPT_FIGURE
1002
{
1000
PSFILL
1000
Grayscale
1000
Grayscale
1070
   100
1002
}
  0
LINE
  5
124C7
  8
YODOROGO
 10
28401.60434129191
 20
1916.8776256403071
 30
0.0
 11
28401.60434129191
 21
1984.877625640306
 31
0.0
1001
AUTOCAD_POSTSCRIPT_FIGURE
1002
{
1000
PSFILL
1000
Grayscale
1000
Grayscale
1070
   100
1002
}
  0
LINE
  5
124C8
  8
YODOROGO
 10
28433.60434129191
 20
1819.7494964292871
 30
0.0
 11
28433.60434129191
 21
1747.74949642929
 31
0.0
  0
LINE
  5
124C9
  8
YODOROGO
 10
28497.60434129191
 20
1707.749496429288
 30
0.0
 11
28433.60434129191
 21
1707.749496429288
 31
0.0
  0
LINE
  5
124CA
  8
YODOROGO
 10
28433.60434129191
 20
1747.74949642929
 30
0.0
 11
28585.604341291921
 21
1747.74949642929
 31
0.0
  0
LINE
  5
124CB
  8
YODOROGO
 10
28497.60434129191
 20
1867.7494964292871
 30
0.0
 11
28433.60434129191
 21
1867.7494964292871
 31
0.0
  0
LINE
  5
124CC
  8
YODOROGO
 10
28497.60434129191
 20
1923.7494964292871
 30
0.0
 11
28497.60434129191
 21
1867.7494964292871
 31
0.0
  0
LINE
  5
124CD
  8
YODOROGO
 10
28585.604341291921
 20
1987.7494964292871
 30
0.0
 11
28585.604341291921
 21
2027.749496429288
 31
0.0
  0
LINE
  5
124CE
  8
YODOROGO
 10
28433.60434129191
 20
1987.7494964292871
 30
0.0
 11
28585.604341291921
 21
1987.7494964292871
 31
0.0
  0
LINE
  5
124CF
  8
YODOROGO
 10
28433.60434129191
 20
1867.7494964292871
 30
0.0
 11
28433.60434129191
 21
1987.7494964292871
 31
0.0
  0
LINE
  5
124D0
  8
YODOROGO
 10
29001.60434129191
 20
2027.749496429288
 30
0.0
 11
29001.60434129191
 21
1619.749496429288
 31
0.0
  0
LINE
  5
124D1
  8
YODOROGO
 10
29073.604341291921
 20
1579.749496429288
 30
0.0
 11
29073.604341291921
 21
2027.749496429288
 31
0.0
  0
LINE
  5
124D2
  8
YODOROGO
 10
29261.604341291921
 20
1491.749496429286
 30
0.0
 11
29261.604341291921
 21
2007.749496429288
 31
0.0
  0
LINE
  5
124D3
  8
YODOROGO
 10
29197.604341291921
 20
2007.749496429288
 30
0.0
 11
29197.604341291921
 21
1491.749496429286
 31
0.0
  0
LINE
  5
124D4
  8
YODOROGO
 10
29385.604341291921
 20
2027.749496429288
 30
0.0
 11
29385.604341291921
 21
1427.749496429288
 31
0.0
  0
LINE
  5
124D5
  8
YODOROGO
 10
29457.604341291921
 20
1427.749496429288
 30
0.0
 11
29457.604341291921
 21
2027.749496429288
 31
0.0
  0
LINE
  5
124D6
  8
YODOROGO
 10
28657.604341291921
 20
1667.749496429288
 30
0.0
 11
28657.604341291921
 21
1747.74949642929
 31
0.0
  0
LINE
  5
124D7
  8
YODOROGO
 10
29885.604341291921
 20
1707.749496429288
 30
0.0
 11
29885.604341291921
 21
1667.749496429288
 31
0.0
  0
LINE
  5
124D8
  8
YODOROGO
 10
29885.604341291921
 20
1707.749496429288
 30
0.0
 11
29885.604341291921
 21
1667.749496429288
 31
0.0
  0
ARC
  5
124D9
  8
YODOROGO
 10
28906.911576186842
 20
1618.217864442272
 30
0.0
 40
94.705151178741644
 50
274.05244162907098
 51
0.9266642149310712
  0
ARC
  5
124DA
  8
YODOROGO
 10
28909.186170719819
 20
1592.61072861044
 30
0.0
 40
164.92042356085511
 50
271.5351210653775
 51
355.52727750585052
  0
LINE
  5
124DB
  8
YODOROGO
 10
28913.604341291921
 20
1523.7494964292871
 30
0.0
 11
28913.604341291921
 21
1427.749496429288
 31
0.0
  0
LINE
  5
124DC
  8
YODOROGO
 10
28793.60434129191
 20
1667.749496429288
 30
0.0
 11
28657.604341291921
 21
1667.749496429288
 31
0.0
  0
LINE
  5
124DD
  8
YODOROGO
 10
28793.60434129191
 20
1603.7494964292871
 30
0.0
 11
28793.60434129191
 21
1667.749496429288
 31
0.0
  0
LINE
  5
124DE
  8
YODOROGO
 10
28657.604341291921
 20
1603.7494964292871
 30
0.0
 11
28793.60434129191
 21
1603.7494964292871
 31
0.0
  0
LINE
  5
124DF
  8
YODOROGO
 10
28657.604341291921
 20
1523.7494964292871
 30
0.0
 11
28657.604341291921
 21
1603.7494964292871
 31
0.0
  0
LINE
  5
124E0
  8
YODOROGO
 10
28793.60434129191
 20
1523.7494964292871
 30
0.0
 11
28657.604341291921
 21
1523.7494964292871
 31
0.0
  0
LINE
  5
124E1
  8
YODOROGO
 10
28793.60434129191
 20
1427.749496429288
 30
0.0
 11
28793.60434129191
 21
1523.7494964292871
 31
0.0
  0
LINE
  5
124E2
  8
YODOROGO
 10
29197.604341291921
 20
1491.749496429286
 30
0.0
 11
29261.604341291921
 21
1491.749496429286
 31
0.0
  0
LINE
  5
124E3
  8
YODOROGO
 10
29385.604341291921
 20
1427.749496429288
 30
0.0
 11
29457.604341291921
 21
1427.749496429288
 31
0.0
  0
LINE
  5
124E4
  8
YODOROGO
 10
29737.604341291921
 20
1528.4414521705639
 30
0.0
 11
29737.604341291921
 21
1427.749496429288
 31
0.0
  0
LINE
  5
124E5
  8
YODOROGO
 10
29617.604341291921
 20
1427.749496429288
 30
0.0
 11
29737.604341291921
 21
1528.4414521705639
 31
0.0
  0
LINE
  5
124E6
  8
YODOROGO
 10
29617.604341291921
 20
1547.749496429288
 30
0.0
 11
29617.604341291921
 21
1427.749496429288
 31
0.0
  0
LINE
  5
124E7
  8
YODOROGO
 10
29712.94462869945
 20
1627.749496429288
 30
0.0
 11
29617.604341291921
 21
1547.749496429288
 31
0.0
  0
LINE
  5
124E8
  8
YODOROGO
 10
29617.604341291921
 20
1627.749496429288
 30
0.0
 11
29712.94462869945
 21
1627.749496429288
 31
0.0
  0
LINE
  5
124E9
  8
YODOROGO
 10
29617.604341291921
 20
1667.749496429288
 30
0.0
 11
29617.604341291921
 21
1627.749496429288
 31
0.0
  0
LINE
  5
124EA
  8
YODOROGO
 10
29885.604341291921
 20
1667.749496429288
 30
0.0
 11
29617.604341291921
 21
1667.749496429288
 31
0.0
  0
LINE
  5
124EB
  8
YODOROGO
 10
29917.604341291921
 20
1627.749496429288
 30
0.0
 11
29777.604341291921
 21
1627.749496429288
 31
0.0
  0
LINE
  5
124EC
  8
YODOROGO
 10
29777.604341291921
 20
1562.0054374176559
 30
0.0
 11
29771.409872985321
 21
1556.807661346234
 31
0.0
  0
LINE
  5
124ED
  8
YODOROGO
 10
29777.604341291921
 20
1627.749496429288
 30
0.0
 11
29777.604341291921
 21
1562.0054374176559
 31
0.0
  0
LINE
  5
124EE
  8
YODOROGO
 10
29737.604341291921
 20
1528.4414521705639
 30
0.0
 11
29737.604341291921
 21
1427.749496429288
 31
0.0
  0
LINE
  5
124EF
  8
YODOROGO
 10
29617.604341291921
 20
1427.749496429288
 30
0.0
 11
29737.604341291921
 21
1528.4414521705639
 31
0.0
  0
LINE
  5
124F0
  8
YODOROGO
 10
29617.604341291921
 20
1547.749496429288
 30
0.0
 11
29617.604341291921
 21
1427.749496429288
 31
0.0
  0
LINE
  5
124F1
  8
YODOROGO
 10
29712.94462869945
 20
1627.749496429288
 30
0.0
 11
29617.604341291921
 21
1547.749496429288
 31
0.0
  0
LINE
  5
124F2
  8
YODOROGO
 10
29617.604341291921
 20
1627.749496429288
 30
0.0
 11
29712.94462869945
 21
1627.749496429288
 31
0.0
  0
LINE
  5
124F3
  8
YODOROGO
 10
29617.604341291921
 20
1667.749496429288
 30
0.0
 11
29617.604341291921
 21
1627.749496429288
 31
0.0
  0
LINE
  5
124F4
  8
YODOROGO
 10
29885.604341291921
 20
1667.749496429288
 30
0.0
 11
29617.604341291921
 21
1667.749496429288
 31
0.0
  0
LINE
  5
124F5
  8
YODOROGO
 10
28793.60434129191
 20
1747.74949642929
 30
0.0
 11
28793.60434129191
 21
1819.7494964292871
 31
0.0
  0
LINE
  5
124F6
  8
YODOROGO
 10
28657.604341291921
 20
1747.74949642929
 30
0.0
 11
28793.60434129191
 21
1747.74949642929
 31
0.0
  0
LINE
  5
124F7
  8
YODOROGO
 10
28729.604341291921
 20
1867.7494964292871
 30
0.0
 11
28729.604341291921
 21
1923.7494964292871
 31
0.0
  0
LINE
  5
124F8
  8
YODOROGO
 10
28793.60434129191
 20
1867.7494964292871
 30
0.0
 11
28729.604341291921
 21
1867.7494964292871
 31
0.0
  0
LINE
  5
124F9
  8
YODOROGO
 10
28793.60434129191
 20
1947.749496429288
 30
0.0
 11
28793.60434129191
 21
1867.7494964292871
 31
0.0
  0
ARC
  5
124FA
  8
YODOROGO
 10
28753.60434129191
 20
1947.749496429288
 30
0.0
 40
40.0
 50
0.0
 51
90.0
  0
LINE
  5
124FB
  8
YODOROGO
 10
28657.604341291921
 20
1987.7494964292871
 30
0.0
 11
28753.60434129191
 21
1987.7494964292871
 31
0.0
  0
LINE
  5
124FC
  8
YODOROGO
 10
28657.604341291921
 20
2027.749496429288
 30
0.0
 11
28657.604341291921
 21
1987.7494964292871
 31
0.0
  0
LINE
  5
124FD
  8
YODOROGO
 10
29073.604341291921
 20
2027.749496429288
 30
0.0
 11
29001.60434129191
 21
2027.749496429288
 31
0.0
  0
LINE
  5
124FE
  8
YODOROGO
 10
29261.604341291921
 20
2007.749496429288
 30
0.0
 11
29197.604341291921
 21
2007.749496429288
 31
0.0
  0
LINE
  5
124FF
  8
YODOROGO
 10
29457.604341291921
 20
2027.749496429288
 30
0.0
 11
29385.604341291921
 21
2027.749496429288
 31
0.0
  0
LINE
  5
12500
  8
YODOROGO
 10
29673.604341291921
 20
1707.749496429288
 30
0.0
 11
29673.604341291921
 21
1771.7494964292871
 31
0.0
1001
AUTOCAD_POSTSCRIPT_FIGURE
1002
{
1000
PSFILL
1000
Grayscale
1000
Grayscale
1070
    25
1002
}
  0
LINE
  5
12501
  8
YODOROGO
 10
29617.604341291921
 20
1707.749496429288
 30
0.0
 11
29673.604341291921
 21
1707.749496429288
 31
0.0
1001
AUTOCAD_POSTSCRIPT_FIGURE
1002
{
1000
PSFILL
1000
Grayscale
1000
Grayscale
1070
    25
1002
}
  0
LINE
  5
12502
  8
YODOROGO
 10
29617.604341291921
 20
1819.7494964292871
 30
0.0
 11
29617.604341291921
 21
1707.749496429288
 31
0.0
1001
AUTOCAD_POSTSCRIPT_FIGURE
1002
{
1000
PSFILL
1000
Grayscale
1000
Grayscale
1070
    25
1002
}
  0
LINE
  5
12503
  8
YODOROGO
 10
29765.604341291921
 20
1819.7494964292871
 30
0.0
 11
29617.604341291921
 21
1819.7494964292871
 31
0.0
1001
AUTOCAD_POSTSCRIPT_FIGURE
1002
{
1000
PSFILL
1000
Grayscale
1000
Grayscale
1070
    25
1002
}
  0
LINE
  5
12504
  8
YODOROGO
 10
29765.604341291921
 20
1859.749496429288
 30
0.0
 11
29765.604341291921
 21
1819.7494964292871
 31
0.0
1001
AUTOCAD_POSTSCRIPT_FIGURE
1002
{
1000
PSFILL
1000
Grayscale
1000
Grayscale
1070
    25
1002
}
  0
LINE
  5
12505
  8
YODOROGO
 10
29617.604341291921
 20
1859.749496429288
 30
0.0
 11
29765.604341291921
 21
1859.749496429288
 31
0.0
1001
AUTOCAD_POSTSCRIPT_FIGURE
1002
{
1000
PSFILL
1000
Grayscale
1000
Grayscale
1070
    25
1002
}
  0
LINE
  5
12506
  8
YODOROGO
 10
29617.604341291921
 20
1907.7494964292871
 30
0.0
 11
29617.604341291921
 21
1859.749496429288
 31
0.0
1001
AUTOCAD_POSTSCRIPT_FIGURE
1002
{
1000
PSFILL
1000
Grayscale
1000
Grayscale
1070
    25
1002
}
  0
LINE
  5
12507
  8
YODOROGO
 10
29765.604341291921
 20
1907.7494964292871
 30
0.0
 11
29617.604341291921
 21
1907.7494964292871
 31
0.0
1001
AUTOCAD_POSTSCRIPT_FIGURE
1002
{
1000
PSFILL
1000
Grayscale
1000
Grayscale
1070
    25
1002
}
  0
LINE
  5
12508
  8
YODOROGO
 10
29765.604341291921
 20
1947.749496429288
 30
0.0
 11
29765.604341291921
 21
1907.7494964292871
 31
0.0
1001
AUTOCAD_POSTSCRIPT_FIGURE
1002
{
1000
PSFILL
1000
Grayscale
1000
Grayscale
1070
    25
1002
}
  0
LINE
  5
12509
  8
YODOROGO
 10
29617.604341291921
 20
1947.749496429288
 30
0.0
 11
29765.604341291921
 21
1947.749496429288
 31
0.0
1001
AUTOCAD_POSTSCRIPT_FIGURE
1002
{
1000
PSFILL
1000
Grayscale
1000
Grayscale
1070
    25
1002
}
  0
LINE
  5
1250A
  8
YODOROGO
 10
29617.604341291921
 20
2027.749496429288
 30
0.0
 11
29617.604341291921
 21
1947.749496429288
 31
0.0
1001
AUTOCAD_POSTSCRIPT_FIGURE
1002
{
1000
PSFILL
1000
Grayscale
1000
Grayscale
1070
    25
1002
}
  0
LINE
  5
1250B
  8
YODOROGO
 10
29665.604341291921
 20
2027.749496429288
 30
0.0
 11
29617.604341291921
 21
2027.749496429288
 31
0.0
1001
AUTOCAD_POSTSCRIPT_FIGURE
1002
{
1000
PSFILL
1000
Grayscale
1000
Grayscale
1070
    25
1002
}
  0
LINE
  5
1250C
  8
YODOROGO
 10
29665.604341291921
 20
1995.7494964292871
 30
0.0
 11
29665.604341291921
 21
2027.749496429288
 31
0.0
1001
AUTOCAD_POSTSCRIPT_FIGURE
1002
{
1000
PSFILL
1000
Grayscale
1000
Grayscale
1070
    25
1002
}
  0
LINE
  5
1250D
  8
YODOROGO
 10
29765.604341291921
 20
1995.7494964292871
 30
0.0
 11
29665.604341291921
 21
1995.7494964292871
 31
0.0
1001
AUTOCAD_POSTSCRIPT_FIGURE
1002
{
1000
PSFILL
1000
Grayscale
1000
Grayscale
1070
    25
1002
}
  0
LINE
  5
1250E
  8
YODOROGO
 10
29765.604341291921
 20
2027.749496429288
 30
0.0
 11
29765.604341291921
 21
1995.7494964292871
 31
0.0
1001
AUTOCAD_POSTSCRIPT_FIGURE
1002
{
1000
PSFILL
1000
Grayscale
1000
Grayscale
1070
    25
1002
}
  0
LINE
  5
1250F
  8
YODOROGO
 10
29829.604341291921
 20
2027.749496429288
 30
0.0
 11
29765.604341291921
 21
2027.749496429288
 31
0.0
1001
AUTOCAD_POSTSCRIPT_FIGURE
1002
{
1000
PSFILL
1000
Grayscale
1000
Grayscale
1070
    25
1002
}
  0
LINE
  5
12510
  8
YODOROGO
 10
29829.604341291921
 20
1995.7494964292871
 30
0.0
 11
29829.604341291921
 21
2027.749496429288
 31
0.0
1001
AUTOCAD_POSTSCRIPT_FIGURE
1002
{
1000
PSFILL
1000
Grayscale
1000
Grayscale
1070
    25
1002
}
  0
LINE
  5
12511
  8
YODOROGO
 10
29829.604341291921
 20
1907.7494964292871
 30
0.0
 11
29829.604341291921
 21
1947.749496429288
 31
0.0
1001
AUTOCAD_POSTSCRIPT_FIGURE
1002
{
1000
PSFILL
1000
Grayscale
1000
Grayscale
1070
    25
1002
}
  0
LINE
  5
12512
  8
YODOROGO
 10
29829.604341291921
 20
1819.7494964292871
 30
0.0
 11
29829.604341291921
 21
1859.749496429288
 31
0.0
1001
AUTOCAD_POSTSCRIPT_FIGURE
1002
{
1000
PSFILL
1000
Grayscale
1000
Grayscale
1070
    25
1002
}
  0
LINE
  5
12513
  8
YODOROGO
 10
29921.60434129191
 20
1771.7494964292871
 30
0.0
 11
29921.60434129191
 21
1707.749496429288
 31
0.0
1001
AUTOCAD_POSTSCRIPT_FIGURE
1002
{
1000
PSFILL
1000
Grayscale
1000
Grayscale
1070
    25
1002
}
  0
LINE
  5
12514
  8
YODOROGO
 10
29829.604341291921
 20
1771.7494964292871
 30
0.0
 11
29921.60434129191
 21
1771.7494964292871
 31
0.0
1001
AUTOCAD_POSTSCRIPT_FIGURE
1002
{
1000
PSFILL
1000
Grayscale
1000
Grayscale
1070
    25
1002
}
  0
LINE
  5
12515
  8
YODOROGO
 10
29829.604341291921
 20
1707.749496429288
 30
0.0
 11
29829.604341291921
 21
1771.7494964292871
 31
0.0
1001
AUTOCAD_POSTSCRIPT_FIGURE
1002
{
1000
PSFILL
1000
Grayscale
1000
Grayscale
1070
    25
1002
}
  0
LINE
  5
12516
  8
YODOROGO
 10
29765.604341291921
 20
1707.749496429288
 30
0.0
 11
29829.604341291921
 21
1707.749496429288
 31
0.0
1001
AUTOCAD_POSTSCRIPT_FIGURE
1002
{
1000
PSFILL
1000
Grayscale
1000
Grayscale
1070
    25
1002
}
  0
LINE
  5
12517
  8
YODOROGO
 10
29765.604341291921
 20
1771.7494964292871
 30
0.0
 11
29765.604341291921
 21
1707.749496429288
 31
0.0
1001
AUTOCAD_POSTSCRIPT_FIGURE
1002
{
1000
PSFILL
1000
Grayscale
1000
Grayscale
1070
    25
1002
}
  0
LINE
  5
12518
  8
YODOROGO
 10
29673.604341291921
 20
1771.7494964292871
 30
0.0
 11
29765.604341291921
 21
1771.7494964292871
 31
0.0
1001
AUTOCAD_POSTSCRIPT_FIGURE
1002
{
1000
PSFILL
1000
Grayscale
1000
Grayscale
1070
    25
1002
}
  0
ARC
  5
12519
  8
YODOROGO
 10
31059.517893357912
 20
1602.6807375155761
 30
0.0
 40
178.22128111072141
 50
281.02627495425338
 51
357.77113575573799
  0
LINE
  5
1251A
  8
YODOROGO
 10
31413.604341291921
 20
1907.7494964292871
 30
0.0
 11
31165.604341291921
 21
1907.7494964292871
 31
0.0
  0
LINE
  5
1251B
  8
YODOROGO
 10
31413.604341291921
 20
2027.749496429288
 30
0.0
 11
31165.604341291921
 21
2027.749496429288
 31
0.0
  0
LINE
  5
1251C
  8
YODOROGO
 10
31165.604341291921
 20
1963.749496429286
 30
0.0
 11
31413.604341291921
 21
1963.749496429286
 31
0.0
  0
LINE
  5
1251D
  8
YODOROGO
 10
30791.604341291921
 20
1563.7494964292871
 30
0.0
 11
30791.604341291921
 21
1755.7494964292871
 31
0.0
  0
LINE
  5
1251E
  8
YODOROGO
 10
30763.604341291921
 20
1691.749496429288
 30
0.0
 11
30763.604341291921
 21
1563.7494964292871
 31
0.0
  0
LINE
  5
1251F
  8
YODOROGO
 10
30723.604341291921
 20
1491.749496429288
 30
0.0
 11
30723.604341291921
 21
1691.749496429288
 31
0.0
  0
LINE
  5
12520
  8
YODOROGO
 10
30899.604341291932
 20
1691.749496429288
 30
0.0
 11
30899.604341291932
 21
1491.749496429288
 31
0.0
  0
LINE
  5
12521
  8
YODOROGO
 10
30859.604341291932
 20
1563.7494964292871
 30
0.0
 11
30859.604341291932
 21
1691.749496429288
 31
0.0
  0
LINE
  5
12522
  8
YODOROGO
 10
30831.604341291921
 20
1755.7494964292871
 30
0.0
 11
30831.604341291921
 21
1563.7494964292871
 31
0.0
  0
LINE
  5
12523
  8
YODOROGO
 10
30973.604341291921
 20
2027.749496429288
 30
0.0
 11
30973.604341291921
 21
1467.749496429288
 31
0.0
  0
LINE
  5
12524
  8
YODOROGO
 10
30645.604341291921
 20
1427.749496429288
 30
0.0
 11
30645.604341291921
 21
2027.749496429288
 31
0.0
  0
LINE
  5
12525
  8
YODOROGO
 10
30697.604341291932
 20
1963.749496429286
 30
0.0
 11
30697.604341291932
 21
1427.749496429288
 31
0.0
  0
LINE
  5
12526
  8
YODOROGO
 10
30925.604341291921
 20
1547.749496429288
 30
0.0
 11
30925.604341291921
 21
1963.749496429286
 31
0.0
  0
LINE
  5
12527
  8
YODOROGO
 10
30381.604341291932
 20
1627.749496429288
 30
0.0
 11
30381.604341291932
 21
1679.749496429288
 31
0.0
  0
LINE
  5
12528
  8
YODOROGO
 10
30617.604341291921
 20
1679.749496429288
 30
0.0
 11
30617.604341291921
 21
1627.749496429288
 31
0.0
  0
LINE
  5
12529
  8
YODOROGO
 10
31165.604341291921
 20
1907.7494964292871
 30
0.0
 11
31165.604341291921
 21
1635.7494964292871
 31
0.0
  0
LINE
  5
1252A
  8
YODOROGO
 10
29949.60434129191
 20
1667.749496429288
 30
0.0
 11
29949.60434129191
 21
1707.749496429288
 31
0.0
  0
LINE
  5
1252B
  8
YODOROGO
 10
29949.60434129191
 20
1667.749496429288
 30
0.0
 11
29949.60434129191
 21
1707.749496429288
 31
0.0
  0
ARC
  5
1252C
  8
YODOROGO
 10
30537.604341291921
 20
1507.749496429288
 30
0.0
 40
80.0
 50
270.0
 51
0.0
  0
LINE
  5
1252D
  8
YODOROGO
 10
30569.604341291921
 20
1599.7494964292871
 30
0.0
 11
30617.604341291921
 21
1599.7494964292871
 31
0.0
  0
LINE
  5
1252E
  8
YODOROGO
 10
30617.604341291921
 20
1627.749496429288
 30
0.0
 11
30529.604341291939
 21
1627.749496429288
 31
0.0
  0
LINE
  5
1252F
  8
YODOROGO
 10
30217.604341291921
 20
1667.749496429288
 30
0.0
 11
29949.60434129191
 21
1667.749496429288
 31
0.0
  0
LINE
  5
12530
  8
YODOROGO
 10
30217.604341291921
 20
1627.749496429288
 30
0.0
 11
30217.604341291921
 21
1667.749496429288
 31
0.0
  0
LINE
  5
12531
  8
YODOROGO
 10
30017.604341291921
 20
1627.749496429288
 30
0.0
 11
30217.604341291921
 21
1627.749496429288
 31
0.0
  0
ARC
  5
12532
  8
YODOROGO
 10
30230.05882870136
 20
1868.885714952901
 30
0.0
 40
321.37763628522822
 50
228.6181454618993
 51
245.660289248906
  0
LINE
  5
12533
  8
YODOROGO
 10
30105.604341291921
 20
1603.7494964292871
 30
0.0
 11
30097.60434129195
 21
1576.0728158699001
 31
0.0
  0
LINE
  5
12534
  8
YODOROGO
 10
30189.604341291921
 20
1603.7494964292871
 30
0.0
 11
30105.604341291921
 21
1603.7494964292871
 31
0.0
  0
LINE
  5
12535
  8
YODOROGO
 10
30177.604341291921
 20
1551.817722473427
 30
0.0
 11
30189.604341291921
 21
1603.7494964292871
 31
0.0
  0
ARC
  5
12536
  8
YODOROGO
 10
30230.05882870045
 20
1868.885714953002
 30
0.0
 40
321.37763628529081
 50
260.60629297969911
 51
267.77903556555862
  0
LINE
  5
12537
  8
YODOROGO
 10
30217.604341291921
 20
1427.749496429285
 30
0.0
 11
30217.604341291921
 21
1547.749496429288
 31
0.0
  0
LINE
  5
12538
  8
YODOROGO
 10
29937.604341291932
 20
1481.3393349155101
 30
0.0
 11
29937.604341291921
 21
1594.531090531141
 31
0.0
  0
LINE
  5
12539
  8
YODOROGO
 10
30217.604341291921
 20
1667.749496429288
 30
0.0
 11
29949.60434129191
 21
1667.749496429288
 31
0.0
  0
LINE
  5
1253A
  8
YODOROGO
 10
30217.604341291921
 20
1627.749496429288
 30
0.0
 11
30217.604341291921
 21
1667.749496429288
 31
0.0
  0
LINE
  5
1253B
  8
YODOROGO
 10
30017.604341291921
 20
1627.749496429288
 30
0.0
 11
30217.604341291921
 21
1627.749496429288
 31
0.0
  0
ARC
  5
1253C
  8
YODOROGO
 10
30230.05882870136
 20
1868.885714952901
 30
0.0
 40
321.37763628522822
 50
228.6181454618993
 51
245.660289248906
  0
LINE
  5
1253D
  8
YODOROGO
 10
30105.604341291921
 20
1603.7494964292871
 30
0.0
 11
30097.60434129195
 21
1576.0728158699001
 31
0.0
  0
LINE
  5
1253E
  8
YODOROGO
 10
30189.604341291921
 20
1603.7494964292871
 30
0.0
 11
30105.604341291921
 21
1603.7494964292871
 31
0.0
  0
LINE
  5
1253F
  8
YODOROGO
 10
30177.604341291921
 20
1551.817722473427
 30
0.0
 11
30189.604341291921
 21
1603.7494964292871
 31
0.0
  0
ARC
  5
12540
  8
YODOROGO
 10
30230.05882870045
 20
1868.885714953002
 30
0.0
 40
321.37763628529081
 50
260.60629297969911
 51
267.77903556555862
  0
LINE
  5
12541
  8
YODOROGO
 10
30217.604341291921
 20
1427.749496429285
 30
0.0
 11
30217.604341291921
 21
1547.749496429288
 31
0.0
  0
LINE
  5
12542
  8
YODOROGO
 10
29937.604341291932
 20
1481.3393349155101
 30
0.0
 11
29937.604341291921
 21
1594.531090531141
 31
0.0
  0
LINE
  5
12543
  8
YODOROGO
 10
30433.604341291921
 20
1573.749496429288
 30
0.0
 11
30381.604341291932
 21
1573.749496429288
 31
0.0
  0
LINE
  5
12544
  8
YODOROGO
 10
30433.604341291921
 20
1601.749496429285
 30
0.0
 11
30433.604341291921
 21
1573.749496429288
 31
0.0
  0
LINE
  5
12545
  8
YODOROGO
 10
30381.604341291932
 20
1601.749496429285
 30
0.0
 11
30433.604341291921
 21
1601.749496429285
 31
0.0
  0
LINE
  5
12546
  8
YODOROGO
 10
30381.604341291932
 20
1573.749496429288
 30
0.0
 11
30381.604341291932
 21
1601.749496429285
 31
0.0
  0
LINE
  5
12547
  8
YODOROGO
 10
30429.604341291921
 20
1577.7494964292871
 30
0.0
 11
30385.604341291921
 21
1577.7494964292871
 31
0.0
  0
LINE
  5
12548
  8
YODOROGO
 10
30429.604341291921
 20
1597.749496429288
 30
0.0
 11
30429.604341291921
 21
1577.7494964292871
 31
0.0
  0
LINE
  5
12549
  8
YODOROGO
 10
30385.604341291921
 20
1597.749496429288
 30
0.0
 11
30429.604341291921
 21
1597.749496429288
 31
0.0
  0
LINE
  5
1254A
  8
YODOROGO
 10
30385.604341291921
 20
1577.7494964292871
 30
0.0
 11
30385.604341291921
 21
1597.749496429288
 31
0.0
  0
LINE
  5
1254B
  8
YODOROGO
 10
30425.604341291921
 20
1581.749496429286
 30
0.0
 11
30389.604341291921
 21
1581.749496429286
 31
0.0
  0
LINE
  5
1254C
  8
YODOROGO
 10
30425.604341291921
 20
1593.749496429288
 30
0.0
 11
30425.604341291921
 21
1581.749496429286
 31
0.0
  0
LINE
  5
1254D
  8
YODOROGO
 10
30389.604341291921
 20
1593.749496429288
 30
0.0
 11
30425.604341291921
 21
1593.749496429288
 31
0.0
  0
LINE
  5
1254E
  8
YODOROGO
 10
30389.604341291921
 20
1581.749496429286
 30
0.0
 11
30389.604341291921
 21
1593.749496429288
 31
0.0
  0
LINE
  5
1254F
  8
YODOROGO
 10
30421.604341291932
 20
1585.7494964292871
 30
0.0
 11
30393.604341291921
 21
1585.7494964292871
 31
0.0
  0
LINE
  5
12550
  8
YODOROGO
 10
30421.604341291932
 20
1589.749496429288
 30
0.0
 11
30421.604341291932
 21
1585.7494964292871
 31
0.0
  0
LINE
  5
12551
  8
YODOROGO
 10
30393.604341291921
 20
1589.749496429288
 30
0.0
 11
30421.604341291932
 21
1589.749496429288
 31
0.0
  0
LINE
  5
12552
  8
YODOROGO
 10
30393.604341291921
 20
1585.7494964292871
 30
0.0
 11
30393.604341291921
 21
1589.749496429288
 31
0.0
  0
LINE
  5
12553
  8
YODOROGO
 10
30465.604341291921
 20
1627.749496429288
 30
0.0
 11
30381.604341291932
 21
1627.749496429288
 31
0.0
  0
LINE
  5
12554
  8
YODOROGO
 10
30465.604341291921
 20
1547.749496429288
 30
0.0
 11
30465.604341291921
 21
1627.749496429288
 31
0.0
  0
LINE
  5
12555
  8
YODOROGO
 10
30381.604341291932
 20
1547.749496429288
 30
0.0
 11
30465.604341291921
 21
1547.749496429288
 31
0.0
  0
LINE
  5
12556
  8
YODOROGO
 10
30381.604341291932
 20
1427.749496429288
 30
0.0
 11
30381.604341291932
 21
1547.749496429288
 31
0.0
  0
LINE
  5
12557
  8
YODOROGO
 10
30537.604341291921
 20
1427.749496429288
 30
0.0
 11
30381.604341291932
 21
1427.749496429288
 31
0.0
  0
LINE
  5
12558
  8
YODOROGO
 10
30569.604341291921
 20
1571.749496429285
 30
0.0
 11
30569.604341291921
 21
1599.7494964292871
 31
0.0
  0
ARC
  5
12559
  8
YODOROGO
 10
30545.604341291921
 20
1571.749496429291
 30
0.0
 40
24.000000000003752
 50
270.0
 51
359.99999999998772
  0
LINE
  5
1255A
  8
YODOROGO
 10
30529.604341291939
 20
1547.749496429288
 30
0.0
 11
30545.604341291921
 21
1547.749496429288
 31
0.0
  0
LINE
  5
1255B
  8
YODOROGO
 10
30529.604341291939
 20
1627.749496429288
 30
0.0
 11
30529.604341291939
 21
1547.749496429288
 31
0.0
  0
LINE
  5
1255C
  8
YODOROGO
 10
30899.604341291932
 20
1547.749496429288
 30
0.0
 11
30925.604341291921
 21
1547.749496429288
 31
0.0
  0
LINE
  5
1255D
  8
YODOROGO
 10
30933.604341291921
 20
1427.749496429288
 30
0.0
 11
30899.604341291932
 21
1427.749496429288
 31
0.0
  0
LINE
  5
1255E
  8
YODOROGO
 10
30763.604341291921
 20
1563.7494964292871
 30
0.0
 11
30791.604341291921
 21
1563.7494964292871
 31
0.0
  0
LINE
  5
1255F
  8
YODOROGO
 10
30899.604341291932
 20
1491.749496429288
 30
0.0
 11
30723.604341291921
 21
1491.749496429288
 31
0.0
  0
LINE
  5
12560
  8
YODOROGO
 10
30831.604341291921
 20
1563.7494964292871
 30
0.0
 11
30859.604341291932
 21
1563.7494964292871
 31
0.0
  0
LINE
  5
12561
  8
YODOROGO
 10
30899.604341291932
 20
1427.749496429288
 30
0.0
 11
30899.604341291932
 21
1547.749496429288
 31
0.0
  0
LINE
  5
12562
  8
YODOROGO
 10
30697.604341291932
 20
1427.749496429288
 30
0.0
 11
30645.604341291921
 21
1427.749496429288
 31
0.0
  0
LINE
  5
12563
  8
YODOROGO
 10
30617.604341291921
 20
1599.7494964292871
 30
0.0
 11
30617.604341291921
 21
1507.749496429288
 31
0.0
  0
ARC
  5
12564
  8
YODOROGO
 10
30933.604341291921
 20
1467.749496429288
 30
0.0
 40
40.0
 50
270.0
 51
0.0
  0
LINE
  5
12565
  8
YODOROGO
 10
31093.604341291921
 20
1523.7494964292871
 30
0.0
 11
31093.604341291921
 21
1427.749496429288
 31
0.0
  0
ARC
  5
12566
  8
YODOROGO
 10
31039.721395566768
 20
1637.5313901097329
 30
0.0
 40
125.8955565916754
 50
295.34052442160112
 51
359.18902303418679
  0
LINE
  5
12567
  8
YODOROGO
 10
30617.604341291921
 20
1859.749496429288
 30
0.0
 11
30497.604341291921
 21
1939.749496429288
 31
0.0
  0
LINE
  5
12568
  8
YODOROGO
 10
30497.604341291921
 20
2027.749496429288
 30
0.0
 11
30617.604341291921
 21
1947.749496429288
 31
0.0
  0
LINE
  5
12569
  8
YODOROGO
 10
30529.604341291939
 20
1679.749496429288
 30
0.0
 11
30617.604341291921
 21
1679.749496429288
 31
0.0
  0
LINE
  5
1256A
  8
YODOROGO
 10
30617.604341291921
 20
1735.7494964292871
 30
0.0
 11
30529.604341291939
 21
1735.7494964292871
 31
0.0
  0
LINE
  5
1256B
  8
YODOROGO
 10
30381.604341291932
 20
1795.7494964292871
 30
0.0
 11
30617.604341291921
 21
1795.7494964292871
 31
0.0
  0
LINE
  5
1256C
  8
YODOROGO
 10
30081.604341291921
 20
2027.749496429288
 30
0.0
 11
30021.604341291921
 21
2027.749496429288
 31
0.0
  0
LINE
  5
1256D
  8
YODOROGO
 10
30081.604341291921
 20
1827.7494964292871
 30
0.0
 11
30081.604341291921
 21
2027.749496429288
 31
0.0
  0
LINE
  5
1256E
  8
YODOROGO
 10
30021.604341291921
 20
1827.7494964292871
 30
0.0
 11
30081.604341291921
 21
1827.7494964292871
 31
0.0
  0
LINE
  5
1256F
  8
YODOROGO
 10
30021.604341291921
 20
2027.749496429288
 30
0.0
 11
30021.604341291921
 21
1827.7494964292871
 31
0.0
  0
LINE
  5
12570
  8
YODOROGO
 10
30161.604341291921
 20
2027.749496429288
 30
0.0
 11
30217.604341291921
 21
2027.749496429288
 31
0.0
  0
LINE
  5
12571
  8
YODOROGO
 10
30161.604341291921
 20
1811.749496429288
 30
0.0
 11
30161.604341291921
 21
2027.749496429288
 31
0.0
  0
ARC
  5
12572
  8
YODOROGO
 10
30121.604341291921
 20
1811.749496429288
 30
0.0
 40
40.0
 50
270.0
 51
0.0
  0
LINE
  5
12573
  8
YODOROGO
 10
30021.604341291921
 20
1771.7494964292871
 30
0.0
 11
30121.604341291921
 21
1771.7494964292871
 31
0.0
  0
LINE
  5
12574
  8
YODOROGO
 10
30021.604341291921
 20
1707.749496429288
 30
0.0
 11
30021.604341291921
 21
1771.7494964292871
 31
0.0
  0
LINE
  5
12575
  8
YODOROGO
 10
30137.604341291921
 20
1707.749496429288
 30
0.0
 11
30021.604341291921
 21
1707.749496429288
 31
0.0
  0
ARC
  5
12576
  8
YODOROGO
 10
30137.604341291921
 20
1787.7494964292871
 30
0.0
 40
80.0
 50
270.0
 51
0.0
  0
LINE
  5
12577
  8
YODOROGO
 10
30217.604341291921
 20
2027.749496429288
 30
0.0
 11
30217.604341291921
 21
1787.7494964292871
 31
0.0
  0
LINE
  5
12578
  8
YODOROGO
 10
29977.604341291921
 20
1947.749496429288
 30
0.0
 11
29977.604341291921
 21
1995.7494964292871
 31
0.0
1001
AUTOCAD_POSTSCRIPT_FIGURE
1002
{
1000
PSFILL
1000
Grayscale
1000
Grayscale
1070
    25
1002
}
  0
LINE
  5
12579
  8
YODOROGO
 10
29977.604341291921
 20
1859.749496429288
 30
0.0
 11
29977.604341291921
 21
1907.7494964292871
 31
0.0
1001
AUTOCAD_POSTSCRIPT_FIGURE
1002
{
1000
PSFILL
1000
Grayscale
1000
Grayscale
1070
    25
1002
}
  0
LINE
  5
1257A
  8
YODOROGO
 10
29977.604341291921
 20
1707.749496429288
 30
0.0
 11
29977.604341291921
 21
1819.7494964292871
 31
0.0
1001
AUTOCAD_POSTSCRIPT_FIGURE
1002
{
1000
PSFILL
1000
Grayscale
1000
Grayscale
1070
    25
1002
}
  0
LINE
  5
1257B
  8
YODOROGO
 10
30381.604341291932
 20
1907.7494964292871
 30
0.0
 11
30497.604341291921
 21
2027.749496429288
 31
0.0
  0
LINE
  5
1257C
  8
YODOROGO
 10
30381.604341291932
 20
1819.7494964292871
 30
0.0
 11
30381.604341291932
 21
1907.7494964292871
 31
0.0
  0
LINE
  5
1257D
  8
YODOROGO
 10
30497.604341291921
 20
1939.749496429288
 30
0.0
 11
30381.604341291932
 21
1819.7494964292871
 31
0.0
  0
LINE
  5
1257E
  8
YODOROGO
 10
30465.604341291921
 20
1679.749496429288
 30
0.0
 11
30465.604341291921
 21
1735.7494964292871
 31
0.0
  0
LINE
  5
1257F
  8
YODOROGO
 10
30381.604341291932
 20
1679.749496429288
 30
0.0
 11
30465.604341291921
 21
1679.749496429288
 31
0.0
  0
LINE
  5
12580
  8
YODOROGO
 10
30529.604341291939
 20
1735.7494964292871
 30
0.0
 11
30529.604341291939
 21
1679.749496429288
 31
0.0
  0
LINE
  5
12581
  8
YODOROGO
 10
30381.604341291932
 20
1735.7494964292871
 30
0.0
 11
30381.604341291932
 21
1795.7494964292871
 31
0.0
  0
LINE
  5
12582
  8
YODOROGO
 10
30465.604341291921
 20
1735.7494964292871
 30
0.0
 11
30381.604341291932
 21
1735.7494964292871
 31
0.0
  0
LINE
  5
12583
  8
YODOROGO
 10
30645.604341291921
 20
2027.749496429288
 30
0.0
 11
30973.604341291921
 21
2027.749496429288
 31
0.0
  0
LINE
  5
12584
  8
YODOROGO
 10
30925.604341291921
 20
1963.749496429286
 30
0.0
 11
30697.604341291932
 21
1963.749496429286
 31
0.0
  0
LINE
  5
12585
  8
YODOROGO
 10
30873.604341291921
 20
1819.7494964292871
 30
0.0
 11
30899.604341291932
 21
1819.7494964292871
 31
0.0
  0
LINE
  5
12586
  8
YODOROGO
 10
30899.604341291932
 20
1939.749496429288
 30
0.0
 11
30873.604341291921
 21
1819.7494964292871
 31
0.0
  0
LINE
  5
12587
  8
YODOROGO
 10
30851.604341291939
 20
1939.749496429288
 30
0.0
 11
30899.604341291932
 21
1939.749496429288
 31
0.0
  0
LINE
  5
12588
  8
YODOROGO
 10
30825.604341291921
 20
1819.7494964292871
 30
0.0
 11
30851.604341291939
 21
1939.749496429288
 31
0.0
  0
LINE
  5
12589
  8
YODOROGO
 10
30797.604341291921
 20
1819.7494964292871
 30
0.0
 11
30825.604341291921
 21
1819.7494964292871
 31
0.0
  0
LINE
  5
1258A
  8
YODOROGO
 10
30771.604341291939
 20
1939.749496429288
 30
0.0
 11
30797.604341291921
 21
1819.7494964292871
 31
0.0
  0
LINE
  5
1258B
  8
YODOROGO
 10
30723.604341291921
 20
1939.749496429288
 30
0.0
 11
30771.604341291939
 21
1939.749496429288
 31
0.0
  0
LINE
  5
1258C
  8
YODOROGO
 10
30749.604341291921
 20
1819.7494964292871
 30
0.0
 11
30723.604341291921
 21
1939.749496429288
 31
0.0
  0
LINE
  5
1258D
  8
YODOROGO
 10
30723.604341291921
 20
1819.7494964292871
 30
0.0
 11
30749.604341291921
 21
1819.7494964292871
 31
0.0
  0
LINE
  5
1258E
  8
YODOROGO
 10
30723.604341291921
 20
1755.7494964292871
 30
0.0
 11
30723.604341291921
 21
1819.7494964292871
 31
0.0
  0
LINE
  5
1258F
  8
YODOROGO
 10
30899.604341291932
 20
1755.7494964292871
 30
0.0
 11
30723.604341291921
 21
1755.7494964292871
 31
0.0
  0
LINE
  5
12590
  8
YODOROGO
 10
30899.604341291932
 20
1819.7494964292871
 30
0.0
 11
30899.604341291932
 21
1755.7494964292871
 31
0.0
  0
LINE
  5
12591
  8
YODOROGO
 10
30617.604341291921
 20
1947.749496429288
 30
0.0
 11
30617.604341291921
 21
1859.749496429288
 31
0.0
  0
LINE
  5
12592
  8
YODOROGO
 10
30791.604341291921
 20
1755.7494964292871
 30
0.0
 11
30831.604341291921
 21
1755.7494964292871
 31
0.0
  0
LINE
  5
12593
  8
YODOROGO
 10
30723.604341291921
 20
1691.749496429288
 30
0.0
 11
30763.604341291921
 21
1691.749496429288
 31
0.0
  0
LINE
  5
12594
  8
YODOROGO
 10
30859.604341291932
 20
1691.749496429288
 30
0.0
 11
30899.604341291932
 21
1691.749496429288
 31
0.0
  0
LINE
  5
12595
  8
YODOROGO
 10
30617.604341291921
 20
1795.7494964292871
 30
0.0
 11
30617.604341291921
 21
1735.7494964292871
 31
0.0
  0
LINE
  5
12596
  8
YODOROGO
 10
31165.604341291921
 20
2027.749496429288
 30
0.0
 11
31165.604341291921
 21
1963.749496429286
 31
0.0
  0
LINE
  5
12597
  8
YODOROGO
 10
31533.604341291921
 20
1595.7494964292871
 30
0.0
 11
31533.60434129191
 21
1811.749496429288
 31
0.0
  0
LINE
  5
12598
  8
YODOROGO
 10
31461.60434129191
 20
1987.7494964292871
 30
0.0
 11
31461.60434129191
 21
1635.7494964292871
 31
0.0
  0
LINE
  5
12599
  8
YODOROGO
 10
31653.604341291921
 20
1427.749496429288
 30
0.0
 11
31653.60434129191
 21
1811.749496429288
 31
0.0
  0
LINE
  5
1259A
  8
YODOROGO
 10
31589.604341291921
 20
1811.749496429288
 30
0.0
 11
31589.604341291921
 21
1427.749496429288
 31
0.0
  0
LINE
  5
1259B
  8
YODOROGO
 10
31237.604341291921
 20
1595.7494964292871
 30
0.0
 11
31237.604341291921
 21
1707.749496429288
 31
0.0
  0
ARC
  5
1259C
  8
YODOROGO
 10
31353.914865116069
 20
1607.790351288558
 30
0.0
 40
180.0924485759885
 50
268.62849102169793
 51
356.16638457330322
  0
LINE
  5
1259D
  8
YODOROGO
 10
31349.604341291939
 20
1527.749496429288
 30
0.0
 11
31349.604341291939
 21
1427.749496429288
 31
0.0
  0
ARC
  5
1259E
  8
YODOROGO
 10
31351.518075724562
 20
1637.838957017655
 30
0.0
 40
110.1060929836122
 50
269.00410209305932
 51
358.91264455492478
  0
LINE
  5
1259F
  8
YODOROGO
 10
31589.604341291921
 20
1427.749496429288
 30
0.0
 11
31653.604341291921
 21
1427.749496429288
 31
0.0
  0
LINE
  5
125A0
  8
YODOROGO
 10
31533.60434129191
 20
1811.749496429288
 30
0.0
 11
31589.604341291921
 21
1811.749496429288
 31
0.0
  0
LINE
  5
125A1
  8
YODOROGO
 10
31621.604341291939
 20
1987.7494964292871
 30
0.0
 11
31461.60434129191
 21
1987.7494964292871
 31
0.0
  0
LINE
  5
125A2
  8
YODOROGO
 10
31533.60434129191
 20
1915.7494964292871
 30
0.0
 11
31661.604341291939
 21
1915.7494964292871
 31
0.0
  0
LINE
  5
125A3
  8
YODOROGO
 10
31701.604341291939
 20
1875.7494964292871
 30
0.0
 11
31533.60434129191
 21
1875.7494964292871
 31
0.0
  0
LINE
  5
125A4
  8
YODOROGO
 10
31237.604341291921
 20
1779.749496429288
 30
0.0
 11
31349.604341291939
 21
1779.749496429288
 31
0.0
  0
LINE
  5
125A5
  8
YODOROGO
 10
31237.604341291921
 20
1835.7494964292871
 30
0.0
 11
31237.604341291921
 21
1779.749496429288
 31
0.0
  0
LINE
  5
125A6
  8
YODOROGO
 10
31349.604341291939
 20
1835.7494964292871
 30
0.0
 11
31237.604341291921
 21
1835.7494964292871
 31
0.0
  0
LINE
  5
125A7
  8
YODOROGO
 10
31349.604341291939
 20
1779.749496429288
 30
0.0
 11
31349.604341291939
 21
1835.7494964292871
 31
0.0
  0
LINE
  5
125A8
  8
YODOROGO
 10
31533.60434129191
 20
1875.7494964292871
 30
0.0
 11
31533.60434129191
 21
1915.7494964292871
 31
0.0
  0
LINE
  5
125A9
  8
YODOROGO
 10
31413.604341291921
 20
1707.749496429288
 30
0.0
 11
31413.604341291921
 21
1907.7494964292871
 31
0.0
  0
LINE
  5
125AA
  8
YODOROGO
 10
31237.604341291921
 20
1707.749496429288
 30
0.0
 11
31413.604341291921
 21
1707.749496429288
 31
0.0
  0
LINE
  5
125AB
  8
YODOROGO
 10
31413.604341291921
 20
1963.749496429286
 30
0.0
 11
31413.604341291921
 21
2027.749496429288
 31
0.0
  0
ARC
  5
125AC
  8
YODOROGO
 10
31621.604341291939
 20
2003.749496429285
 30
0.0
 40
15.999999999994539
 50
270.0
 51
0.0000000000081422
  0
LINE
  5
125AD
  8
YODOROGO
 10
31637.604341291921
 20
2027.749496429288
 30
0.0
 11
31637.604341291921
 21
2003.7494964292871
 31
0.0
  0
LINE
  5
125AE
  8
YODOROGO
 10
31701.604341291939
 20
2027.749496429288
 30
0.0
 11
31637.604341291921
 21
2027.749496429288
 31
0.0
  0
LINE
  5
125AF
  8
YODOROGO
 10
31701.604341291939
 20
1955.7494964292871
 30
0.0
 11
31701.604341291939
 21
2027.749496429288
 31
0.0
  0
ARC
  5
125B0
  8
YODOROGO
 10
31661.604341291939
 20
1955.7494964292871
 30
0.0
 40
40.0
 50
270.0
 51
0.0
  0
LINE
  5
125B1
  8
YODOROGO
 10
31701.604341291939
 20
1811.749496429288
 30
0.0
 11
31701.604341291939
 21
1875.7494964292871
 31
0.0
  0
LINE
  5
125B2
  8
YODOROGO
 10
31653.60434129191
 20
1811.749496429288
 30
0.0
 11
31701.604341291939
 21
1811.749496429288
 31
0.0
  0
LINE
  5
125B3
  8
0-6
  6
CONTINUOUS
 62
     6
 10
12194.318370503101
 20
14060.561480451879
 30
0.0
 11
12056.740036757779
 21
14146.48689899999
 31
0.0
  0
LINE
  5
125B4
  8
0-6
  6
CONTINUOUS
 62
     6
 10
12056.740036757779
 20
14146.48689899999
 30
0.0
 11
12159.014568571019
 21
14020.584463969821
 31
0.0
  0
LINE
  5
125B5
  8
0-6
  6
CONTINUOUS
 62
     6
 10
12159.014568571019
 20
14020.584463969821
 30
0.0
 11
12194.318370503101
 21
14060.561480451879
 31
0.0
  0
LINE
  5
125B6
  8
0-6
  6
CONTINUOUS
 62
     6
 10
11431.10675221748
 20
19128.76828863292
 30
0.0
 11
11369.90963551447
 21
19278.987755999991
 31
0.0
  0
LINE
  5
125B7
  8
0-6
  6
CONTINUOUS
 62
     6
 10
11369.90963551447
 20
19278.987755999991
 30
0.0
 11
11476.52013993676
 21
19156.735134960742
 31
0.0
  0
LINE
  5
125B8
  8
0-6
  6
CONTINUOUS
 62
     6
 10
11476.52013993676
 20
19156.735134960742
 30
0.0
 11
11431.10675221748
 21
19128.76828863292
 31
0.0
  0
LINE
  5
125B9
  8
0-6
  6
CONTINUOUS
 62
     6
 10
11431.10675221748
 20
18014.266388632939
 30
0.0
 11
11369.90963551447
 21
18164.48585600001
 31
0.0
  0
LINE
  5
125BA
  8
0-6
  6
CONTINUOUS
 62
     6
 10
11369.90963551447
 20
18164.48585600001
 30
0.0
 11
11476.52013993676
 21
18042.23323496076
 31
0.0
  0
LINE
  5
125BB
  8
0-6
  6
CONTINUOUS
 62
     6
 10
11476.52013993676
 20
18042.23323496076
 30
0.0
 11
11431.10675221748
 21
18014.266388632939
 31
0.0
  0
LINE
  5
125BC
  8
0-6
  6
CONTINUOUS
 62
     6
 10
11431.10675221748
 20
15096.26638863295
 30
0.0
 11
11369.90963551447
 21
15246.48585600003
 31
0.0
  0
LINE
  5
125BD
  8
0-6
  6
CONTINUOUS
 62
     6
 10
11369.90963551447
 20
15246.48585600003
 30
0.0
 11
11476.52013993676
 21
15124.23323496078
 31
0.0
  0
LINE
  5
125BE
  8
0-6
  6
CONTINUOUS
 62
     6
 10
11476.52013993676
 20
15124.23323496078
 30
0.0
 11
11431.10675221748
 21
15096.26638863295
 31
0.0
  0
LINE
  5
125BF
  8
0-6
  6
CONTINUOUS
 62
     6
 10
11431.10675221748
 20
16555.26638963294
 30
0.0
 11
11369.90963551447
 21
16705.485857000011
 31
0.0
  0
LINE
  5
125C0
  8
0-6
  6
CONTINUOUS
 62
     6
 10
11369.90963551447
 20
16705.485857000011
 30
0.0
 11
11476.52013993676
 21
16583.233235960761
 31
0.0
  0
LINE
  5
125C1
  8
0-6
  6
CONTINUOUS
 62
     6
 10
11476.52013993676
 20
16583.233235960761
 30
0.0
 11
11431.10675221748
 21
16555.26638963294
 31
0.0
  0
LINE
  5
125C2
  8
SUNPOU
  6
CONTINUOUS
 62
     4
 10
6607.6434624765943
 20
15291.48625200001
 30
0.0
 11
5896.9418544765967
 21
15291.48625200001
 31
0.0
  0
LINE
  5
125C3
  8
SUNPOU
  6
CONTINUOUS
 62
     4
 10
6663.9419604765953
 20
14182.986252000001
 30
0.0
 11
5896.9418544765958
 21
14182.986252000001
 31
0.0
  0
LINE
  5
125C4
  8
SUNPOU
  6
CONTINUOUS
 62
     4
 10
5976.9418544765967
 20
15291.48625200001
 30
0.0
 11
5976.9418544765958
 21
14182.986252000001
 31
0.0
  0
LINE
  5
125C5
  8
SUNPOU
  6
CONTINUOUS
 62
     4
 10
6684.3629066003623
 20
16750.486251999999
 30
0.0
 11
5896.941854476594
 21
16750.486251999999
 31
0.0
  0
LINE
  5
125C6
  8
SUNPOU
  6
CONTINUOUS
 62
     4
 10
6607.6434624765943
 20
15291.48625200001
 30
0.0
 11
5896.941854476594
 21
15291.48625200001
 31
0.0
  0
LINE
  5
125C7
  8
SUNPOU
  6
CONTINUOUS
 62
     4
 10
5976.941854476594
 20
16750.486251999999
 30
0.0
 11
5976.941854476594
 21
15291.48625200001
 31
0.0
  0
LINE
  5
125C8
  8
SUNPOU
  6
CONTINUOUS
 62
     4
 10
6607.6434624765943
 20
18209.48625200001
 30
0.0
 11
5896.941854476594
 21
18209.48625200001
 31
0.0
  0
LINE
  5
125C9
  8
SUNPOU
  6
CONTINUOUS
 62
     4
 10
6684.3629066003623
 20
16750.486251999999
 30
0.0
 11
5896.941854476594
 21
16750.486251999999
 31
0.0
  0
LINE
  5
125CA
  8
SUNPOU
  6
CONTINUOUS
 62
     4
 10
5976.941854476594
 20
18209.48625200001
 30
0.0
 11
5976.941854476594
 21
16750.486251999999
 31
0.0
  0
LINE
  5
125CB
  8
SUNPOU
  6
CONTINUOUS
 62
     4
 10
6743.9413064765831
 20
13990.486252000001
 30
0.0
 11
5896.9415304765917
 21
13990.486252000001
 31
0.0
  0
LINE
  5
125CC
  8
SUNPOU
  6
CONTINUOUS
 62
     4
 10
5976.9415304765944
 20
14182.98552600002
 30
0.0
 11
5976.9415304765944
 21
13990.486252000001
 31
0.0
  0
LINE
  5
125CD
  8
SUNPOU
  6
CONTINUOUS
 62
     4
 10
6607.6434624765943
 20
18209.48625200001
 30
0.0
 11
5896.9415304765917
 21
18209.48625200001
 31
0.0
  0
LINE
  5
125CE
  8
SUNPOU
  6
CONTINUOUS
 62
     4
 10
5976.9415304765944
 20
19317.986251999992
 30
0.0
 11
5976.9415304765889
 21
18209.48625200001
 31
0.0
  0
LINE
  5
125CF
  8
SUNPOU
  6
CONTINUOUS
 62
     4
 10
5896.9415304765917
 20
19317.986251999992
 30
0.0
 11
5936.9415304765907
 21
19317.986251999992
 31
0.0
  0
LINE
  5
125D0
  8
SUNPOU
  6
CONTINUOUS
 62
     4
 10
6748.9405804765784
 20
19540.486120000001
 30
0.0
 11
5936.9415304765907
 21
19540.486120000001
 31
0.0
  0
LINE
  5
125D1
  8
SUNPOU
  6
CONTINUOUS
 62
     4
 10
5976.9415304765889
 20
19317.986251999992
 30
0.0
 11
5976.9415304765889
 21
19540.486120000001
 31
0.0
  0
LINE
  5
125D2
  8
SUNPOU
  6
CONTINUOUS
 62
     4
 10
6761.9404034765721
 20
19500.485987999989
 30
0.0
 11
6296.9408714765887
 21
19500.485987999989
 31
0.0
  0
LINE
  5
125D3
  8
SUNPOU
  6
CONTINUOUS
 62
     4
 10
6748.9405804765784
 20
19540.486120000001
 30
0.0
 11
6296.9408714765887
 21
19540.486120000001
 31
0.0
  0
LINE
  5
125D4
  8
SUNPOU
  6
CONTINUOUS
 62
     4
 10
6376.9408714765914
 20
19500.485987999989
 30
0.0
 11
6376.9408714765914
 21
19260.485987999989
 31
0.0
  0
LINE
  5
125D5
  8
SUNPOU
  6
CONTINUOUS
 62
     4
 10
6376.9408714765914
 20
19540.486120000001
 30
0.0
 11
6376.9408714765914
 21
19780.486120000001
 31
0.0
  0
LINE
  5
125D6
  8
SUNPOU
  6
CONTINUOUS
 62
     4
 10
6376.9408714765914
 20
19500.485987999989
 30
0.0
 11
6376.9408714765914
 21
19540.486120000001
 31
0.0
  0
LINE
  5
125D7
  8
SUNPOU
  6
CONTINUOUS
 62
     4
 10
12273.94163047658
 20
20165.488164999992
 30
0.0
 11
12273.94163047658
 21
20240.487175999991
 31
0.0
  0
LINE
  5
125D8
  8
SUNPOU
  6
CONTINUOUS
 62
     4
 10
12359.44163047658
 20
19615.487834999982
 30
0.0
 11
12359.44163047658
 21
20240.487175999991
 31
0.0
  0
LINE
  5
125D9
  8
SUNPOU
  6
CONTINUOUS
 62
     4
 10
12273.94163047658
 20
20160.487175999991
 30
0.0
 11
12033.94163047658
 21
20160.487175999991
 31
0.0
  0
LINE
  5
125DA
  8
SUNPOU
  6
CONTINUOUS
 62
     4
 10
12356.44163047658
 20
20160.487175999991
 30
0.0
 11
12596.44163047658
 21
20160.487175999991
 31
0.0
  0
LINE
  5
125DB
  8
SUNPOU
  6
CONTINUOUS
 62
     4
 10
12273.94163047658
 20
20160.487175999991
 30
0.0
 11
12356.44163047658
 21
20160.487175999991
 31
0.0
  0
LINE
  5
125DC
  8
SUNPOU
  6
CONTINUOUS
 62
     4
 10
9473.9416304765837
 20
20165.488164999992
 30
0.0
 11
9473.9416304765837
 21
20240.487175999991
 31
0.0
  0
LINE
  5
125DD
  8
SUNPOU
  6
CONTINUOUS
 62
     4
 10
12273.94163047658
 20
20165.488164999992
 30
0.0
 11
12273.94163047658
 21
20240.487175999991
 31
0.0
  0
LINE
  5
125DE
  8
SUNPOU
  6
CONTINUOUS
 62
     4
 10
9473.9416304765837
 20
20160.487175999991
 30
0.0
 11
12273.94163047658
 21
20160.487175999991
 31
0.0
  0
LINE
  5
125DF
  8
SUNPOU
  6
CONTINUOUS
 62
     4
 10
6906.4416304765818
 20
19690.487834999989
 30
0.0
 11
6906.4416304765818
 21
20240.487175999991
 31
0.0
  0
LINE
  5
125E0
  8
SUNPOU
  6
CONTINUOUS
 62
     4
 10
9473.9416304765837
 20
20165.488164999992
 30
0.0
 11
9473.9416304765837
 21
20240.487175999991
 31
0.0
  0
LINE
  5
125E1
  8
SUNPOU
  6
CONTINUOUS
 62
     4
 10
6906.4416304765818
 20
20160.487175999991
 30
0.0
 11
9473.9416304765837
 21
20160.487175999991
 31
0.0
  0
LINE
  5
125E2
  8
SUNPOU
  6
CONTINUOUS
 62
     4
 10
6906.4416304765818
 20
19690.487834999989
 30
0.0
 11
6906.4416304765818
 21
20240.487175999991
 31
0.0
  0
LINE
  5
125E3
  8
SUNPOU
  6
CONTINUOUS
 62
     4
 10
6820.9416304765818
 20
19610.487571999998
 30
0.0
 11
6820.9416304765818
 21
20240.487175999991
 31
0.0
  0
LINE
  5
125E4
  8
SUNPOU
  6
CONTINUOUS
 62
     4
 10
6906.4416304765818
 20
20160.487175999991
 30
0.0
 11
7146.4416304765837
 21
20160.487175999991
 31
0.0
  0
LINE
  5
125E5
  8
SUNPOU
  6
CONTINUOUS
 62
     4
 10
6823.9416304765818
 20
20160.487175999991
 30
0.0
 11
6583.9416304765837
 21
20160.487175999991
 31
0.0
  0
LINE
  5
125E6
  8
SUNPOU
  6
CONTINUOUS
 62
     4
 10
6906.4416304765818
 20
20160.487175999991
 30
0.0
 11
6823.9416304765818
 21
20160.487175999991
 31
0.0
  0
LINE
  5
125E7
  8
SUNPOU
  6
CONTINUOUS
 62
     4
 10
6820.9416304765846
 20
13910.486252000001
 30
0.0
 11
6820.9416304765846
 21
12620.485459999991
 31
0.0
  0
LINE
  5
125E8
  8
SUNPOU
  6
CONTINUOUS
 62
     4
 10
12359.44163047658
 20
13910.486252000001
 30
0.0
 11
12359.44163047658
 21
12620.485459999991
 31
0.0
  0
LINE
  5
125E9
  8
SUNPOU
  6
CONTINUOUS
 62
     4
 10
6823.9416304765864
 20
12700.485459999991
 30
0.0
 11
12356.44163047658
 21
12700.485459999991
 31
0.0
  0
LINE
  5
125EA
  8
0-6
  6
CONTINUOUS
 62
     6
 10
25025.639107882089
 20
19102.38947925335
 30
0.0
 11
25131.96713183005
 21
19224.885710999992
 31
0.0
  0
LINE
  5
125EB
  8
0-6
  6
CONTINUOUS
 62
     6
 10
25131.96713183005
 20
19224.885710999992
 30
0.0
 11
25071.115012236802
 21
19074.524404324551
 31
0.0
  0
LINE
  5
125EC
  8
0-6
  6
CONTINUOUS
 62
     6
 10
25071.115012236802
 20
19074.524404324551
 30
0.0
 11
25025.639107882089
 21
19102.38947925335
 31
0.0
  0
LINE
  5
125ED
  8
0-6
  6
CONTINUOUS
 62
     6
 10
25053.82345338805
 20
19518.2030359327
 30
0.0
 11
25122.86713183004
 21
19371.424475045871
 31
0.0
  0
LINE
  5
125EE
  8
0-6
  6
CONTINUOUS
 62
     6
 10
25122.86713183004
 20
19371.424475045871
 30
0.0
 11
25009.95013165089
 21
19487.877272670848
 31
0.0
  0
LINE
  5
125EF
  8
0-6
  6
CONTINUOUS
 62
     6
 10
25009.95013165089
 20
19487.877272670848
 30
0.0
 11
25053.82345338805
 21
19518.2030359327
 31
0.0
  0
LINE
  5
125F0
  8
0-6
  6
CONTINUOUS
 62
     6
 10
25025.639107882089
 20
16935.082047746651
 30
0.0
 11
25131.96713183005
 21
16812.585815999992
 31
0.0
  0
LINE
  5
125F1
  8
0-6
  6
CONTINUOUS
 62
     6
 10
25131.96713183005
 20
16812.585815999992
 30
0.0
 11
25071.115012236802
 21
16962.947122675439
 31
0.0
  0
LINE
  5
125F2
  8
0-6
  6
CONTINUOUS
 62
     6
 10
25071.115012236802
 20
16962.947122675439
 30
0.0
 11
25025.639107882089
 21
16935.082047746651
 31
0.0
  0
LINE
  5
125F3
  8
0-6
  6
CONTINUOUS
 62
     6
 10
25025.639107882089
 20
14378.08248374665
 30
0.0
 11
25131.96713183005
 21
14255.58625199999
 31
0.0
  0
LINE
  5
125F4
  8
0-6
  6
CONTINUOUS
 62
     6
 10
25131.96713183005
 20
14255.58625199999
 30
0.0
 11
25071.115012236802
 21
14405.947558675451
 31
0.0
  0
LINE
  5
125F5
  8
0-6
  6
CONTINUOUS
 62
     6
 10
25071.115012236802
 20
14405.947558675451
 30
0.0
 11
25025.639107882089
 21
14378.08248374665
 31
0.0
  0
LINE
  5
125F6
  8
0-6
  6
CONTINUOUS
 62
     6
 10
25053.82345338805
 20
16519.268491067302
 30
0.0
 11
25122.86713183004
 21
16666.047051954109
 31
0.0
  0
LINE
  5
125F7
  8
0-6
  6
CONTINUOUS
 62
     6
 10
25122.86713183004
 20
16666.047051954109
 30
0.0
 11
25009.95013165089
 21
16549.594254329138
 31
0.0
  0
LINE
  5
125F8
  8
0-6
  6
CONTINUOUS
 62
     6
 10
25009.95013165089
 20
16549.594254329138
 30
0.0
 11
25053.82345338805
 21
16519.268491067302
 31
0.0
  0
LINE
  5
125F9
  8
0-6
  6
CONTINUOUS
 62
     6
 10
25053.82345338805
 20
13982.207691113181
 30
0.0
 11
25122.86713183004
 21
14128.986252000001
 31
0.0
  0
LINE
  5
125FA
  8
0-6
  6
CONTINUOUS
 62
     6
 10
25122.86713183004
 20
14128.986252000001
 30
0.0
 11
25009.95013165089
 21
14012.53345437502
 31
0.0
  0
LINE
  5
125FB
  8
0-6
  6
CONTINUOUS
 62
     6
 10
25009.95013165089
 20
14012.53345437502
 30
0.0
 11
25053.82345338805
 21
13982.207691113181
 31
0.0
  0
LINE
  5
12620
  8
SUNPOU
  6
CONTINUOUS
 62
     4
 10
22362.011953585152
 20
19440.48625200001
 30
0.0
 11
22362.011953585152
 21
20240.487175999991
 31
0.0
  0
LINE
  5
12621
  8
SUNPOU
  6
CONTINUOUS
 62
     4
 10
22404.511953585141
 20
19440.48625200001
 30
0.0
 11
22404.511953585141
 21
20240.487175999991
 31
0.0
  0
LINE
  5
12622
  8
SUNPOU
  6
CONTINUOUS
 62
     4
 10
22362.011953585152
 20
20160.487175999991
 30
0.0
 11
22122.011953585152
 21
20160.487175999991
 31
0.0
  0
LINE
  5
12623
  8
SUNPOU
  6
CONTINUOUS
 62
     4
 10
22404.511953585141
 20
20160.487175999991
 30
0.0
 11
22644.511953585141
 21
20160.487175999991
 31
0.0
  0
LINE
  5
12624
  8
SUNPOU
  6
CONTINUOUS
 62
     4
 10
22362.011953585152
 20
20160.487175999991
 30
0.0
 11
22404.511953585141
 21
20160.487175999991
 31
0.0
  0
LINE
  5
12625
  8
SUNPOU
  6
CONTINUOUS
 62
     4
 10
21604.011953585141
 20
19440.48625200001
 30
0.0
 11
21604.011953585141
 21
20240.487175999991
 31
0.0
  0
LINE
  5
12626
  8
SUNPOU
  6
CONTINUOUS
 62
     4
 10
22362.011953585152
 20
19440.48625200001
 30
0.0
 11
22362.011953585152
 21
20240.487175999991
 31
0.0
  0
LINE
  5
12627
  8
SUNPOU
  6
CONTINUOUS
 62
     4
 10
21604.011953585141
 20
20160.487175999991
 30
0.0
 11
22362.011953585152
 21
20160.487175999991
 31
0.0
  0
LINE
  5
12628
  8
SUNPOU
  6
CONTINUOUS
 62
     4
 10
20903.01195358513
 20
19440.48625200001
 30
0.0
 11
20903.01195358513
 21
20240.487175999991
 31
0.0
  0
LINE
  5
12629
  8
SUNPOU
  6
CONTINUOUS
 62
     4
 10
21604.011953585141
 20
19440.48625200001
 30
0.0
 11
21604.011953585141
 21
20240.487175999991
 31
0.0
  0
LINE
  5
1262A
  8
SUNPOU
  6
CONTINUOUS
 62
     4
 10
20903.01195358513
 20
20160.487175999991
 30
0.0
 11
21604.011953585141
 21
20160.487175999991
 31
0.0
  0
LINE
  5
1262B
  8
SUNPOU
  6
CONTINUOUS
 62
     4
 10
20202.011953585141
 20
19440.48625200001
 30
0.0
 11
20202.011953585141
 21
20240.487175999991
 31
0.0
  0
LINE
  5
1262C
  8
SUNPOU
  6
CONTINUOUS
 62
     4
 10
20903.01195358513
 20
19440.48625200001
 30
0.0
 11
20903.01195358513
 21
20240.487175999991
 31
0.0
  0
LINE
  5
1262D
  8
SUNPOU
  6
CONTINUOUS
 62
     4
 10
20202.011953585141
 20
20160.487175999991
 30
0.0
 11
20903.01195358513
 21
20160.487175999991
 31
0.0
  0
LINE
  5
1262E
  8
SUNPOU
  6
CONTINUOUS
 62
     4
 10
19794.511953585141
 20
19520.488759
 30
0.0
 11
19794.511953585141
 21
20240.487175999991
 31
0.0
  0
LINE
  5
1262F
  8
SUNPOU
  6
CONTINUOUS
 62
     4
 10
20202.011953585141
 20
19440.48625200001
 30
0.0
 11
20202.011953585141
 21
20240.487175999991
 31
0.0
  0
LINE
  5
12630
  8
SUNPOU
  6
CONTINUOUS
 62
     4
 10
19794.511953585141
 20
20160.487175999991
 30
0.0
 11
20202.011953585141
 21
20160.487175999991
 31
0.0
  0
LINE
  5
12631
  8
SUNPOU
  6
CONTINUOUS
 62
     4
 10
19794.511953585141
 20
19520.488759
 30
0.0
 11
19794.511953585141
 21
20240.487175999991
 31
0.0
  0
LINE
  5
12632
  8
SUNPOU
  6
CONTINUOUS
 62
     4
 10
19752.011953585141
 20
19440.48625200001
 30
0.0
 11
19752.011953585141
 21
20240.487175999991
 31
0.0
  0
LINE
  5
12633
  8
SUNPOU
  6
CONTINUOUS
 62
     4
 10
19794.511953585141
 20
20160.487175999991
 30
0.0
 11
20034.511953585141
 21
20160.487175999991
 31
0.0
  0
LINE
  5
12634
  8
SUNPOU
  6
CONTINUOUS
 62
     4
 10
19752.011953585141
 20
20160.487175999991
 30
0.0
 11
19512.011953585141
 21
20160.487175999991
 31
0.0
  0
LINE
  5
12635
  8
SUNPOU
  6
CONTINUOUS
 62
     4
 10
19794.511953585141
 20
20160.487175999991
 30
0.0
 11
19752.011953585141
 21
20160.487175999991
 31
0.0
  0
LINE
  5
12643
  8
SUNPOU
  6
CONTINUOUS
 62
     4
 10
22362.011953585152
 20
20560.487175999991
 30
0.0
 11
25162.011953585141
 21
20560.487175999991
 31
0.0
  0
LINE
  5
12644
  8
SUNPOU
  6
CONTINUOUS
 62
     4
 10
19794.511953585141
 20
20560.487175999991
 30
0.0
 11
22362.011953585152
 21
20560.487175999991
 31
0.0
  0
LINE
  5
12645
  8
SUNPOU
  6
CONTINUOUS
 62
     4
 10
25162.011953585141
 20
19684.93602587733
 30
0.0
 11
25162.011953585141
 21
20240.487175999991
 31
0.0
  0
LINE
  5
12646
  8
SUNPOU
  6
CONTINUOUS
 62
     4
 10
25119.509710585138
 20
19523.83651600001
 30
0.0
 11
25119.509710585138
 21
20240.487175999991
 31
0.0
  0
LINE
  5
12647
  8
SUNPOU
  6
CONTINUOUS
 62
     4
 10
25162.011953585141
 20
20160.487175999991
 30
0.0
 11
25402.011953585141
 21
20160.487175999991
 31
0.0
  0
LINE
  5
12648
  8
SUNPOU
  6
CONTINUOUS
 62
     4
 10
25119.509710585138
 20
20160.487175999991
 30
0.0
 11
24879.509710585138
 21
20160.487175999991
 31
0.0
  0
LINE
  5
12649
  8
SUNPOU
  6
CONTINUOUS
 62
     4
 10
25162.011953585141
 20
20160.487175999991
 30
0.0
 11
25119.509710585138
 21
20160.487175999991
 31
0.0
  0
LINE
  5
1264A
  8
SUNPOU
  6
CONTINUOUS
 62
     4
 10
25162.011953585141
 20
19684.93602587733
 30
0.0
 11
25162.011953585141
 21
20240.487175999991
 31
0.0
  0
LINE
  5
1264B
  8
SUNPOU
  6
CONTINUOUS
 62
     4
 10
25204.510238585131
 20
19520.488759
 30
0.0
 11
25204.510238585131
 21
20240.487175999991
 31
0.0
  0
LINE
  5
1264C
  8
SUNPOU
  6
CONTINUOUS
 62
     4
 10
25162.011953585141
 20
20160.487175999991
 30
0.0
 11
24922.011953585141
 21
20160.487175999991
 31
0.0
  0
LINE
  5
1264D
  8
SUNPOU
  6
CONTINUOUS
 62
     4
 10
25204.510238585131
 20
20160.487175999991
 30
0.0
 11
25444.510238585131
 21
20160.487175999991
 31
0.0
  0
LINE
  5
1264E
  8
SUNPOU
  6
CONTINUOUS
 62
     4
 10
25162.011953585141
 20
20160.487175999991
 30
0.0
 11
25204.510238585131
 21
20160.487175999991
 31
0.0
  0
LINE
  5
1264F
  8
SUNPOU
  6
CONTINUOUS
 62
     4
 10
25546.616789537082
 20
16750.486251999992
 30
0.0
 11
26459.855577953771
 21
16750.486251999992
 31
0.0
  0
LINE
  5
12650
  8
SUNPOU
  6
CONTINUOUS
 62
     4
 10
25546.616789537082
 20
19317.986251999992
 30
0.0
 11
26459.855577953771
 21
19317.986251999992
 31
0.0
  0
LINE
  5
12651
  8
SUNPOU
  6
CONTINUOUS
 62
     4
 10
26379.855577953771
 20
16750.486251999992
 30
0.0
 11
26379.855577953771
 21
19317.986251999992
 31
0.0
  0
LINE
  5
12652
  8
SUNPOU
  6
CONTINUOUS
 62
     4
 10
25546.616789537082
 20
14182.986252000001
 30
0.0
 11
26459.855577953771
 21
14182.986252000001
 31
0.0
  0
LINE
  5
12653
  8
SUNPOU
  6
CONTINUOUS
 62
     4
 10
25546.616789537082
 20
16750.486251999992
 30
0.0
 11
26459.855577953771
 21
16750.486251999992
 31
0.0
  0
LINE
  5
12654
  8
SUNPOU
  6
CONTINUOUS
 62
     4
 10
26379.855577953771
 20
14182.986252000001
 30
0.0
 11
26379.855577953771
 21
16750.486251999992
 31
0.0
  0
ARC
  5
1266C
  8
1-前柱P
 10
25171.611953585129
 20
14251.386252
 30
0.0
 40
1.0
 50
90.0
 51
180.0
  0
LINE
  5
1266D
  8
1-前柱P
 10
25170.611953585129
 20
14251.386252
 30
0.0
 11
25170.611953585129
 21
14249.786252
 31
0.0
  0
LINE
  5
1266E
  8
1-前柱P
 10
25170.611953585129
 20
14249.786252
 30
0.0
 11
25159.411953585139
 21
14249.786252
 31
0.0
  0
LINE
  5
1266F
  8
1-前柱P
 10
25159.411953585139
 20
14249.786252
 30
0.0
 11
25159.411953585131
 21
14251.386252
 31
0.0
  0
ARC
  5
12670
  8
1-前柱P
 10
25158.411953585131
 20
14251.386252
 30
0.0
 40
1.0
 50
0.0
 51
90.0
  0
ARC
  5
12671
  8
1-中柱P
 10
25155.411953585131
 20
16818.786252000002
 30
0.0
 40
1.0
 50
0.0
 51
90.0
  0
LINE
  5
12672
  8
1-中柱P
 10
25156.411953585131
 20
16818.786252000002
 30
0.0
 11
25156.411953585131
 21
16817.18625200001
 31
0.0
  0
LINE
  5
12673
  8
1-中柱P
 10
25156.411953585131
 20
16817.18625200001
 30
0.0
 11
25167.611953585129
 21
16817.18625200001
 31
0.0
  0
LINE
  5
12674
  8
1-中柱P
 10
25167.611953585129
 20
16817.18625200001
 30
0.0
 11
25167.611953585129
 21
16818.786252000002
 31
0.0
  0
ARC
  5
12675
  8
1-中柱P
 10
25168.611953585129
 20
16818.786252000002
 30
0.0
 40
1.0
 50
90.0
 51
180.0
  0
ARC
  5
12676
  8
1-後柱P
 10
25152.411953585161
 20
19249.936251999989
 30
0.0
 40
1.0
 50
270.0
 51
0.0
  0
LINE
  5
12677
  8
1-後柱P
 10
25153.411953585139
 20
19249.936251999989
 30
0.0
 11
25153.411953585139
 21
19251.536252000002
 31
0.0
  0
LINE
  5
12678
  8
1-後柱P
 10
25153.411953585139
 20
19251.536252000002
 30
0.0
 11
25164.61195358515
 21
19251.536252000002
 31
0.0
  0
LINE
  5
12679
  8
1-後柱P
 10
25164.61195358515
 20
19251.536252000002
 30
0.0
 11
25164.61195358515
 21
19249.936251999989
 31
0.0
  0
ARC
  5
1267A
  8
1-後柱P
 10
25165.611953585139
 20
19249.936251999989
 30
0.0
 40
1.0
 50
180.0
 51
270.0
  0
LINE
  5
1267B
  8
SUNPOU
  6
CONTINUOUS
 62
     4
 10
6326.233570470944
 20
8478.188374000003
 30
0.0
 11
6326.233570470944
 21
9869.1883999999955
 31
0.0
  0
LINE
  5
1267C
  8
SUNPOU
  6
CONTINUOUS
 62
     4
 10
11876.233570470929
 20
8610.0781974124311
 30
0.0
 11
11876.233570470929
 21
9869.1883999999955
 31
0.0
  0
LINE
  5
1267D
  8
SUNPOU
  6
CONTINUOUS
 62
     4
 10
6326.233570470944
 20
9789.1883999999955
 30
0.0
 11
11876.233570470929
 21
9789.1883999999955
 31
0.0
  0
LINE
  5
1267E
  8
SUNPOU
  6
CONTINUOUS
 62
     4
 10
11726.23357047094
 20
8536.0984379999973
 30
0.0
 11
11726.23357047094
 21
9469.1900500000029
 31
0.0
  0
LINE
  5
1267F
  8
SUNPOU
  6
CONTINUOUS
 62
     4
 10
11876.233570470929
 20
8610.0781974124311
 30
0.0
 11
11876.233570470929
 21
9469.1900500000029
 31
0.0
  0
LINE
  5
12680
  8
SUNPOU
  6
CONTINUOUS
 62
     4
 10
11726.23357047094
 20
9389.1900500000029
 30
0.0
 11
11486.23357047094
 21
9389.1900500000029
 31
0.0
  0
LINE
  5
12681
  8
SUNPOU
  6
CONTINUOUS
 62
     4
 10
11876.233570470929
 20
9389.1900500000029
 30
0.0
 11
12116.23357047094
 21
9389.1900500000029
 31
0.0
  0
LINE
  5
12682
  8
SUNPOU
  6
CONTINUOUS
 62
     4
 10
11726.23357047094
 20
9389.1900500000029
 30
0.0
 11
11876.233570470929
 21
9389.1900500000029
 31
0.0
  0
LINE
  5
12683
  8
SUNPOU
  6
CONTINUOUS
 62
     4
 10
6506.233570470944
 20
8348.3741496838102
 30
0.0
 11
6506.233570470944
 21
9469.1900500000029
 31
0.0
  0
LINE
  5
12684
  8
SUNPOU
  6
CONTINUOUS
 62
     4
 10
11726.23357047094
 20
8536.0984379999973
 30
0.0
 11
11726.23357047094
 21
9469.1900500000029
 31
0.0
  0
LINE
  5
12685
  8
SUNPOU
  6
CONTINUOUS
 62
     4
 10
6506.233570470944
 20
9389.1900500000029
 30
0.0
 11
11726.23357047094
 21
9389.1900500000029
 31
0.0
  0
LINE
  5
12686
  8
SUNPOU
  6
CONTINUOUS
 62
     4
 10
6326.233570470944
 20
8478.188374000003
 30
0.0
 11
6326.233570470944
 21
9469.1900500000029
 31
0.0
  0
LINE
  5
12687
  8
SUNPOU
  6
CONTINUOUS
 62
     4
 10
6506.233570470944
 20
8348.3741496838102
 30
0.0
 11
6506.233570470944
 21
9469.1900500000029
 31
0.0
  0
LINE
  5
12688
  8
SUNPOU
  6
CONTINUOUS
 62
     4
 10
6326.233570470944
 20
9389.1900500000029
 30
0.0
 11
6506.233570470944
 21
9389.1900500000029
 31
0.0
  0
LINE
  5
12689
  8
SUNPOU
  6
CONTINUOUS
 62
     4
 10
11818.73357047094
 20
6241.1883740000021
 30
0.0
 11
12896.23396647094
 21
6241.1883740000021
 31
0.0
  0
LINE
  5
1268A
  8
SUNPOU
  6
CONTINUOUS
 62
     4
 10
11911.04083007032
 20
8590.188374000003
 30
0.0
 11
12896.23396647094
 21
8590.188374000003
 31
0.0
  0
LINE
  5
1268B
  8
SUNPOU
  6
CONTINUOUS
 62
     4
 10
12816.23396647094
 20
6241.1883740000021
 30
0.0
 11
12816.23396647094
 21
8590.188374000003
 31
0.0
  0
LINE
  5
1268C
  8
SUNPOU
  6
CONTINUOUS
 62
     4
 10
6418.7335704709449
 20
6241.1883740000021
 30
0.0
 11
5336.2331744709472
 21
6241.1883740000039
 31
0.0
  0
LINE
  5
1268D
  8
SUNPOU
  6
CONTINUOUS
 62
     4
 10
6246.233570470944
 20
8396.688374000003
 30
0.0
 11
5336.2331744709472
 21
8396.688374000003
 31
0.0
  0
LINE
  5
1268E
  8
SUNPOU
  6
CONTINUOUS
 62
     4
 10
5416.2331744709481
 20
6241.1883740000039
 30
0.0
 11
5416.2331744709481
 21
8396.688374000003
 31
0.0
  0
LINE
  5
1268F
  8
SUNPOU
  6
CONTINUOUS
 62
     4
 10
6506.233570470944
 20
6161.1883740000021
 30
0.0
 11
6506.233570470944
 21
4461.1887039999992
 31
0.0
  0
LINE
  5
12690
  8
SUNPOU
  6
CONTINUOUS
 62
     4
 10
11726.23357047094
 20
6161.1883740000021
 30
0.0
 11
11726.23357047094
 21
4461.1887039999992
 31
0.0
  0
LINE
  5
12691
  8
SUNPOU
  6
CONTINUOUS
 62
     4
 10
6506.233570470944
 20
4541.1887039999983
 30
0.0
 11
11726.23357047094
 21
4541.1887039999983
 31
0.0
  0
LINE
  5
12692
  8
SUNPOU
  6
CONTINUOUS
 62
     4
 10
11683.733570470929
 20
5798.5361160000011
 30
0.0
 11
11683.733570470929
 21
4861.1885389999998
 31
0.0
  0
LINE
  5
12693
  8
SUNPOU
  6
CONTINUOUS
 62
     4
 10
11726.23357047094
 20
6161.1883740000021
 30
0.0
 11
11726.23357047094
 21
4861.1885389999998
 31
0.0
  0
LINE
  5
12694
  8
SUNPOU
  6
CONTINUOUS
 62
     4
 10
11683.733570470929
 20
4941.1885390000016
 30
0.0
 11
11443.73357047094
 21
4941.1885390000016
 31
0.0
  0
LINE
  5
12695
  8
SUNPOU
  6
CONTINUOUS
 62
     4
 10
11726.23357047094
 20
4941.1885390000016
 30
0.0
 11
11966.23357047094
 21
4941.1885390000016
 31
0.0
  0
LINE
  5
12696
  8
SUNPOU
  6
CONTINUOUS
 62
     4
 10
11683.733570470929
 20
4941.1885390000016
 30
0.0
 11
11726.23357047094
 21
4941.1885390000016
 31
0.0
  0
LINE
  5
12697
  8
SUNPOU
  6
CONTINUOUS
 62
     4
 10
6548.7335704709431
 20
5798.5361160000011
 30
0.0
 11
6548.7335704709431
 21
4861.1885389999998
 31
0.0
  0
LINE
  5
12698
  8
SUNPOU
  6
CONTINUOUS
 62
     4
 10
6506.233570470944
 20
6161.1883740000021
 30
0.0
 11
6506.233570470944
 21
4861.1885389999998
 31
0.0
  0
LINE
  5
12699
  8
SUNPOU
  6
CONTINUOUS
 62
     4
 10
6548.7335704709431
 20
4941.1885390000016
 30
0.0
 11
6788.733570470944
 21
4941.1885390000016
 31
0.0
  0
LINE
  5
1269A
  8
SUNPOU
  6
CONTINUOUS
 62
     4
 10
6506.233570470944
 20
4941.1885390000016
 30
0.0
 11
6266.233570470944
 21
4941.1885390000016
 31
0.0
  0
LINE
  5
1269B
  8
SUNPOU
  6
CONTINUOUS
 62
     4
 10
6548.7335704709431
 20
4941.1885390000016
 30
0.0
 11
6506.233570470944
 21
4941.1885390000016
 31
0.0
  0
LINE
  5
1269C
  8
SUNPOU
  6
CONTINUOUS
 62
     4
 10
9116.233570470944
 20
5798.5361160000011
 30
0.0
 11
9116.233570470944
 21
4861.1885389999998
 31
0.0
  0
LINE
  5
1269D
  8
SUNPOU
  6
CONTINUOUS
 62
     4
 10
6548.7335704709431
 20
5798.5361160000011
 30
0.0
 11
6548.7335704709431
 21
4861.1885389999998
 31
0.0
  0
LINE
  5
1269E
  8
SUNPOU
  6
CONTINUOUS
 62
     4
 10
9116.233570470944
 20
4941.1885390000016
 30
0.0
 11
6548.7335704709431
 21
4941.1885390000016
 31
0.0
  0
LINE
  5
1269F
  8
SUNPOU
  6
CONTINUOUS
 62
     4
 10
9116.233570470944
 20
5798.5361160000011
 30
0.0
 11
9116.233570470944
 21
4861.1885389999998
 31
0.0
  0
LINE
  5
126A0
  8
SUNPOU
  6
CONTINUOUS
 62
     4
 10
11683.733570470929
 20
5798.5361160000011
 30
0.0
 11
11683.733570470929
 21
4861.1885389999998
 31
0.0
  0
LINE
  5
126A1
  8
SUNPOU
  6
CONTINUOUS
 62
     4
 10
9116.233570470944
 20
4941.1885390000016
 30
0.0
 11
11683.733570470929
 21
4941.1885390000016
 31
0.0
  0
LINE
  5
126A2
  8
SUNPOU
  6
CONTINUOUS
 62
     4
 10
19688.010092585158
 20
8669.6883999999955
 30
0.0
 11
19688.010092585158
 21
9869.1329740000037
 31
0.0
  0
LINE
  5
126A3
  8
SUNPOU
  6
CONTINUOUS
 62
     4
 10
25226.510092585158
 20
8669.6883999999955
 30
0.0
 11
25226.510092585158
 21
9869.1329740000037
 31
0.0
  0
LINE
  5
126A4
  8
SUNPOU
  6
CONTINUOUS
 62
     4
 10
19691.010092585158
 20
9789.1329740000037
 30
0.0
 11
25223.510092585158
 21
9789.1329740000037
 31
0.0
  0
LINE
  5
126A5
  8
SUNPOU
  6
CONTINUOUS
 62
     4
 10
25183.510092585158
 20
8669.6883999999955
 30
0.0
 11
25183.510092585158
 21
9469.1900500000029
 31
0.0
  0
LINE
  5
126A6
  8
SUNPOU
  6
CONTINUOUS
 62
     4
 10
25226.510092585158
 20
8669.6883999999955
 30
0.0
 11
25226.510092585158
 21
9469.1900500000029
 31
0.0
  0
LINE
  5
126A7
  8
SUNPOU
  6
CONTINUOUS
 62
     4
 10
25183.510092585158
 20
9389.1900500000029
 30
0.0
 11
24943.510092585158
 21
9389.1900500000029
 31
0.0
  0
LINE
  5
126A8
  8
SUNPOU
  6
CONTINUOUS
 62
     4
 10
25223.510092585158
 20
9389.1900500000029
 30
0.0
 11
25463.510092585158
 21
9389.1900500000029
 31
0.0
  0
LINE
  5
126A9
  8
SUNPOU
  6
CONTINUOUS
 62
     4
 10
25183.510092585158
 20
9389.1900500000029
 30
0.0
 11
25223.510092585158
 21
9389.1900500000029
 31
0.0
  0
LINE
  5
126AA
  8
SUNPOU
  6
CONTINUOUS
 62
     4
 10
19731.010092585158
 20
8539.6884659999996
 30
0.0
 11
19731.010092585158
 21
9469.1900500000029
 31
0.0
  0
LINE
  5
126AB
  8
SUNPOU
  6
CONTINUOUS
 62
     4
 10
19688.010092585158
 20
8669.6883999999955
 30
0.0
 11
19688.010092585158
 21
9469.1900500000029
 31
0.0
  0
LINE
  5
126AC
  8
SUNPOU
  6
CONTINUOUS
 62
     4
 10
19731.010092585158
 20
9389.1900500000029
 30
0.0
 11
19971.010092585158
 21
9389.1900500000029
 31
0.0
  0
LINE
  5
126AD
  8
SUNPOU
  6
CONTINUOUS
 62
     4
 10
19691.010092585158
 20
9389.1900500000029
 30
0.0
 11
19451.010092585158
 21
9389.1900500000029
 31
0.0
  0
LINE
  5
126AE
  8
SUNPOU
  6
CONTINUOUS
 62
     4
 10
19728.010092585158
 20
9389.1900500000029
 30
0.0
 11
19688.010092585158
 21
9389.1900500000029
 31
0.0
  0
LINE
  5
126AF
  8
SUNPOU
  6
CONTINUOUS
 62
     4
 10
22383.510092585158
 20
8539.6884659999996
 30
0.0
 11
22383.510092585158
 21
9469.1900500000029
 31
0.0
  0
LINE
  5
126B0
  8
SUNPOU
  6
CONTINUOUS
 62
     4
 10
19731.010092585158
 20
8539.6884659999996
 30
0.0
 11
19731.010092585158
 21
9469.1900500000029
 31
0.0
  0
LINE
  5
126B1
  8
SUNPOU
  6
CONTINUOUS
 62
     4
 10
22383.510092585158
 20
9389.1900500000029
 30
0.0
 11
19731.010092585158
 21
9389.1900500000029
 31
0.0
  0
LINE
  5
126B2
  8
SUNPOU
  6
CONTINUOUS
 62
     4
 10
19643.50745358516
 20
6241.1883740000021
 30
0.0
 11
18443.50745358516
 21
6241.1883740000021
 31
0.0
  0
LINE
  5
126B3
  8
SUNPOU
  6
CONTINUOUS
 62
     4
 10
19611.010092585158
 20
8590.1883999999973
 30
0.0
 11
18443.50745358516
 21
8590.1883999999973
 31
0.0
  0
LINE
  5
126B4
  8
SUNPOU
  6
CONTINUOUS
 62
     4
 10
18523.50745358516
 20
6241.1883740000021
 30
0.0
 11
18523.50745358516
 21
8590.1883999999973
 31
0.0
  0
LINE
  5
126B5
  8
SUNPOU
  6
CONTINUOUS
 62
     4
 10
19643.50745358516
 20
6241.1883740000021
 30
0.0
 11
18843.506793585169
 21
6241.1883740000021
 31
0.0
  0
LINE
  5
126B6
  8
SUNPOU
  6
CONTINUOUS
 62
     4
 10
19736.00639758517
 20
8132.6883740000021
 30
0.0
 11
18843.506793585169
 21
8132.6883740000021
 31
0.0
  0
LINE
  5
126B7
  8
SUNPOU
  6
CONTINUOUS
 62
     4
 10
18923.506793585158
 20
6241.1883740000021
 30
0.0
 11
18923.506793585158
 21
8132.6883740000021
 31
0.0
  0
LINE
  5
126B8
  8
SUNPOU
  6
CONTINUOUS
 62
     4
 10
22386.510092585158
 20
6161.1883740000021
 30
0.0
 11
22386.510092585158
 21
5261.188374000003
 31
0.0
  0
LINE
  5
126B9
  8
SUNPOU
  6
CONTINUOUS
 62
     4
 10
25098.510092585158
 20
6061.1885389999989
 30
0.0
 11
25098.510092585158
 21
5261.188374000003
 31
0.0
  0
LINE
  5
126BA
  8
SUNPOU
  6
CONTINUOUS
 62
     4
 10
22386.510092585158
 20
5341.188374000003
 30
0.0
 11
25098.510092585158
 21
5341.188374000003
 31
0.0
  0
LINE
  5
126BB
  8
SUNPOU
  6
CONTINUOUS
 62
     4
 10
19731.05004553268
 20
6161.1883740000021
 30
0.0
 11
19731.05004553268
 21
4461.1887040000574
 31
0.0
  0
LINE
  5
126BC
  8
SUNPOU
  6
CONTINUOUS
 62
     4
 10
25183.510092585158
 20
6061.1885389999989
 30
0.0
 11
25183.510092585158
 21
4461.1887040000574
 31
0.0
  0
LINE
  5
126BD
  8
SUNPOU
  6
CONTINUOUS
 62
     4
 10
19731.05004553268
 20
4541.1887040000556
 30
0.0
 11
25183.510092585158
 21
4541.1887040000556
 31
0.0
  0
LINE
  5
126BE
  8
SUNPOU
  6
CONTINUOUS
 62
     4
 10
19773.510092585158
 20
5798.5361160000011
 30
0.0
 11
19773.510092585158
 21
4861.1885389999998
 31
0.0
  0
LINE
  5
126BF
  8
SUNPOU
  6
CONTINUOUS
 62
     4
 10
19731.05004553268
 20
6161.1883740000021
 30
0.0
 11
19731.05004553268
 21
4861.1885389999998
 31
0.0
  0
LINE
  5
126C0
  8
SUNPOU
  6
CONTINUOUS
 62
     4
 10
19773.510092585158
 20
4941.1885390000016
 30
0.0
 11
20013.510092585158
 21
4941.1885390000016
 31
0.0
  0
LINE
  5
126C1
  8
SUNPOU
  6
CONTINUOUS
 62
     4
 10
19731.05004553268
 20
4941.1885390000016
 30
0.0
 11
19491.05004553268
 21
4941.1885390000016
 31
0.0
  0
LINE
  5
126C2
  8
SUNPOU
  6
CONTINUOUS
 62
     4
 10
19773.510092585158
 20
4941.1885390000016
 30
0.0
 11
19731.05004553268
 21
4941.1885390000016
 31
0.0
  0
LINE
  5
126C3
  8
SUNPOU
  6
CONTINUOUS
 62
     4
 10
22341.010092585158
 20
5798.5361160000011
 30
0.0
 11
22341.010092585158
 21
4861.1885389999998
 31
0.0
  0
LINE
  5
126C4
  8
SUNPOU
  6
CONTINUOUS
 62
     4
 10
19773.510092585158
 20
5798.5361160000011
 30
0.0
 11
19773.510092585158
 21
4861.1885389999998
 31
0.0
  0
LINE
  5
126C5
  8
SUNPOU
  6
CONTINUOUS
 62
     4
 10
22341.010092585158
 20
4941.1885390000016
 30
0.0
 11
19773.510092585158
 21
4941.1885390000016
 31
0.0
  0
LINE
  5
126C6
  8
SUNPOU
  6
CONTINUOUS
 62
     4
 10
19867.510092585158
 20
6061.1885389999989
 30
0.0
 11
19867.510092585158
 21
5261.188374000003
 31
0.0
  0
LINE
  5
126C7
  8
SUNPOU
  6
CONTINUOUS
 62
     4
 10
22247.010092585158
 20
6061.1885389999989
 30
0.0
 11
22247.010092585158
 21
5261.188374000003
 31
0.0
  0
LINE
  5
126C8
  8
SUNPOU
  6
CONTINUOUS
 62
     4
 10
19867.510092585158
 20
5341.188374000003
 30
0.0
 11
22247.010092585158
 21
5341.188374000003
 31
0.0
  0
LINE
  5
126C9
  8
SUNPOU
  6
CONTINUOUS
 62
     4
 10
25141.010092585158
 20
5798.5361160000011
 30
0.0
 11
25141.010092585158
 21
4861.1885389999998
 31
0.0
  0
LINE
  5
126CA
  8
SUNPOU
  6
CONTINUOUS
 62
     4
 10
25183.510092585158
 20
6061.1885389999989
 30
0.0
 11
25183.510092585158
 21
4861.1885389999998
 31
0.0
  0
LINE
  5
126CB
  8
SUNPOU
  6
CONTINUOUS
 62
     4
 10
25141.010092585158
 20
4941.1885390000016
 30
0.0
 11
24901.010092585158
 21
4941.1885390000016
 31
0.0
  0
LINE
  5
126CC
  8
SUNPOU
  6
CONTINUOUS
 62
     4
 10
25183.510092585158
 20
4941.1885390000016
 30
0.0
 11
25423.510092585158
 21
4941.1885390000016
 31
0.0
  0
LINE
  5
126CD
  8
SUNPOU
  6
CONTINUOUS
 62
     4
 10
25141.010092585158
 20
4941.1885390000016
 30
0.0
 11
25183.510092585158
 21
4941.1885390000016
 31
0.0
  0
LINE
  5
126CE
  8
SUNPOU
  6
CONTINUOUS
 62
     4
 10
22341.010092585158
 20
5798.5361160000011
 30
0.0
 11
22341.010092585158
 21
4861.1885389999998
 31
0.0
  0
LINE
  5
126CF
  8
SUNPOU
  6
CONTINUOUS
 62
     4
 10
25141.010092585158
 20
5798.5361160000011
 30
0.0
 11
25141.010092585158
 21
4861.1885389999998
 31
0.0
  0
LINE
  5
126D0
  8
SUNPOU
  6
CONTINUOUS
 62
     4
 10
22341.010092585158
 20
4941.1885390000016
 30
0.0
 11
25141.010092585158
 21
4941.1885390000016
 31
0.0
  0
LINE
  5
126D1
  8
SUNPOU
  6
CONTINUOUS
 62
     4
 10
22383.510092585158
 20
8539.6884659999996
 30
0.0
 11
22383.510092585158
 21
9469.1900500000029
 31
0.0
  0
LINE
  5
126D2
  8
SUNPOU
  6
CONTINUOUS
 62
     4
 10
25183.510092585158
 20
8669.6883999999955
 30
0.0
 11
25183.510092585158
 21
9469.1900500000029
 31
0.0
  0
LINE
  5
126D3
  8
SUNPOU
  6
CONTINUOUS
 62
     4
 10
22383.510092585158
 20
9389.1900500000029
 30
0.0
 11
25183.510092585158
 21
9389.1900500000029
 31
0.0
  0
LINE
  5
126D4
  8
SUNPOU
  6
CONTINUOUS
 62
     4
 10
25263.510092585158
 20
6241.1883740000021
 30
0.0
 11
26473.332490879529
 21
6241.1883740000021
 31
0.0
  0
LINE
  5
126D5
  8
SUNPOU
  6
CONTINUOUS
 62
     4
 10
25303.510092585158
 20
8261.1883740000048
 30
0.0
 11
26473.332490879551
 21
8261.1883740000048
 31
0.0
  0
LINE
  5
126D6
  8
SUNPOU
  6
CONTINUOUS
 62
     4
 10
26393.332490879529
 20
6241.1883740000021
 30
0.0
 11
26393.332490879551
 21
8261.1883740000048
 31
0.0
  0
LINE
  5
126D7
  8
0-6
  6
CONTINUOUS
 62
     6
 10
7732.1682107906181
 20
16544.76595363297
 30
0.0
 11
7793.3653274936087
 21
16694.98542100003
 31
0.0
  0
LINE
  5
126D8
  8
0-6
  6
CONTINUOUS
 62
     6
 10
7793.3653274936087
 20
16694.98542100003
 30
0.0
 11
7686.7548230713246
 21
16572.732799960791
 31
0.0
  0
LINE
  5
126D9
  8
0-6
  6
CONTINUOUS
 62
     6
 10
7686.7548230713246
 20
16572.732799960791
 30
0.0
 11
7732.1682107906181
 21
16544.76595363297
 31
0.0
  0
LINE
  5
126DA
  8
0-6
  6
CONTINUOUS
 62
     6
 10
7548.1094401649061
 20
15064.115488956189
 30
0.0
 11
7622.8291852355414
 21
15208.08748333491
 31
0.0
  0
LINE
  5
126DB
  8
0-6
  6
CONTINUOUS
 62
     6
 10
7622.8291852355414
 20
15208.08748333491
 30
0.0
 11
7505.4531422518803
 21
15096.13049365744
 31
0.0
  0
LINE
  5
126DC
  8
0-6
  6
CONTINUOUS
 62
     6
 10
7505.4531422518803
 20
15096.13049365744
 30
0.0
 11
7548.1094401649061
 21
15064.115488956189
 31
0.0
  0
LINE
  5
126DD
  8
0-6
  6
CONTINUOUS
 62
     6
 10
7548.1094401649061
 20
18020.51386162129
 30
0.0
 11
7622.8291852355414
 21
18164.485856000021
 31
0.0
  0
LINE
  5
126DE
  8
0-6
  6
CONTINUOUS
 62
     6
 10
7622.8291852355414
 20
18164.485856000021
 30
0.0
 11
7505.4531422518803
 21
18052.528866322551
 31
0.0
  0
LINE
  5
126DF
  8
0-6
  6
CONTINUOUS
 62
     6
 10
7505.4531422518803
 20
18052.528866322551
 30
0.0
 11
7548.1094401649061
 21
18020.51386162129
 31
0.0
  0
LINE
  5
126E0
  8
0-6
  6
CONTINUOUS
 62
     6
 10
8612.4462500850095
 20
15532.84385411603
 30
0.0
 11
8734.6999755500183
 21
15639.450617873001
 31
0.0
  0
LINE
  5
126E1
  8
0-6
  6
CONTINUOUS
 62
     6
 10
8734.6999755500183
 20
15639.450617873001
 30
0.0
 11
8584.4776647585786
 21
15578.25617086495
 31
0.0
  0
LINE
  5
126E2
  8
0-6
  6
CONTINUOUS
 62
     6
 10
8584.4776647585786
 20
15578.25617086495
 30
0.0
 11
8612.4462500850095
 21
15532.84385411603
 31
0.0
  0
LINE
  5
126E3
  8
0-6
  6
CONTINUOUS
 62
     6
 10
12174.65170781093
 20
14493.55966315482
 30
0.0
 11
12220.94199947659
 21
14649.02086206411
 31
0.0
  0
LINE
  5
126E4
  8
0-6
  6
CONTINUOUS
 62
     6
 10
12220.94199947659
 20
14649.02086206411
 30
0.0
 11
12126.73261347986
 21
14516.97505715437
 31
0.0
  0
LINE
  5
126E5
  8
0-6
  6
CONTINUOUS
 62
     6
 10
12126.73261347986
 20
14516.97505715437
 30
0.0
 11
12174.65170781093
 21
14493.55966315482
 31
0.0
  0
TEXT
  5
126E6
  8
0
  6
CONTINUOUS
 62
     7
 10
26313.332490879529
 20
6588.1883740000058
 30
0.0
 40
160.0
  1
有効高サ2020
 50
90.0
  0
TEXT
  5
126E7
  8
0
  6
CONTINUOUS
 62
     7
 10
23516.843425918501
 20
9469.1900500000029
 30
0.0
 40
160.0
  1
2800
  0
TEXT
  5
126E8
  8
0
  6
CONTINUOUS
 62
     7
 10
23474.343425918501
 20
5021.1885389999998
 30
0.0
 40
160.0
  1
2800
  0
TEXT
  5
126E9
  8
0
  6
CONTINUOUS
 62
     7
 10
25303.51075258516
 20
5021.1883080000007
 30
0.0
 40
160.0
  1
42.5
  0
TEXT
  5
126EA
  8
0
  6
CONTINUOUS
 62
     7
 10
20177.260092585158
 20
5421.188374000003
 30
0.0
 40
160.0
  1
有効開口巾2379.5
  0
TEXT
  5
126EB
  8
0
  6
CONTINUOUS
 62
     7
 10
20657.260092585169
 20
5021.1885389999998
 30
0.0
 40
160.0
  1
2567.5
  0
TEXT
  5
126EC
  8
0
  6
CONTINUOUS
 62
     7
 10
19151.187061585169
 20
5028.7357170000014
 30
0.0
 40
160.0
  1
42.5
  0
TEXT
  5
126ED
  8
0
  6
CONTINUOUS
 62
     7
 10
22057.28006905891
 20
4621.1887040000584
 30
0.0
 40
160.0
  1
5452.5
  0
TEXT
  5
126EE
  8
0
  6
CONTINUOUS
 62
     7
 10
22995.843425918501
 20
5421.188374000003
 30
0.0
 40
160.0
  1
有効開口巾2712
  0
TEXT
  5
126EF
  8
0
  6
CONTINUOUS
 62
     7
 10
18843.506793585169
 20
6264.2717073333397
 30
0.0
 40
160.0
  1
有効開口高サ1891.5
 50
90.0
  0
TEXT
  5
126F0
  8
0
  6
CONTINUOUS
 62
     7
 10
18443.50745358516
 20
6610.3550536666689
 30
0.0
 40
160.0
  1
2349（2589）
 50
90.0
  0
TEXT
  5
126F1
  8
0
  6
CONTINUOUS
 62
     7
 10
20657.260092585169
 20
9469.1900500000029
 30
0.0
 40
160.0
  1
2652.5
  0
TEXT
  5
126F2
  8
0
  6
CONTINUOUS
 62
     7
 10
19361.202106585159
 20
9469.1893240000027
 30
0.0
 40
160.0
  1
43
  0
TEXT
  5
126F3
  8
0
  6
CONTINUOUS
 62
     7
 10
25360.975912585182
 20
9469.1893240000027
 30
0.0
 40
160.0
  1
43
  0
TEXT
  5
126F4
  8
0
  6
CONTINUOUS
 62
     7
 10
22057.260092585158
 20
9869.1329740000037
 30
0.0
 40
160.0
  1
5538.5
  0
TEXT
  5
126F5
  8
0
  6
CONTINUOUS
 62
     7
 10
9999.9835704709458
 20
5021.1885389999998
 30
0.0
 40
160.0
  1
2567.5
  0
TEXT
  5
126F6
  8
0
  6
CONTINUOUS
 62
     7
 10
7432.483570470944
 20
5021.1885389999998
 30
0.0
 40
160.0
  1
2567.5
  0
TEXT
  5
126F7
  8
0
  6
CONTINUOUS
 62
     7
 10
5924.2439564709448
 20
5022.1790570000003
 30
0.0
 40
160.0
  1
42.5
  0
TEXT
  5
126F8
  8
0
  6
CONTINUOUS
 62
     7
 10
11846.23522047094
 20
5021.1883080000007
 30
0.0
 40
160.0
  1
42.5
  0
TEXT
  5
126F9
  8
0
  6
CONTINUOUS
 62
     7
 10
8836.2335704709421
 20
4621.1887039999983
 30
0.0
 40
160.0
  1
5220
  0
TEXT
  5
126FA
  8
0
  6
CONTINUOUS
 62
     7
 10
5336.2331744709472
 20
6326.9383740000048
 30
0.0
 40
160.0
  1
2155.5（2395.5）
 50
90.0
  0
TEXT
  5
126FB
  8
0
  6
CONTINUOUS
 62
     7
 10
12736.23396647094
 20
6610.35504066667
 30
0.0
 40
160.0
  1
2349（2589）
 50
90.0
  0
TEXT
  5
126FC
  8
0
  6
CONTINUOUS
 62
     7
 10
5871.8917553358378
 20
9469.1900500000029
 30
0.0
 40
160.0
  1
180
  0
TEXT
  5
126FD
  8
0
  6
CONTINUOUS
 62
     7
 10
8836.2335704709421
 20
9469.1900500000029
 30
0.0
 40
160.0
  1
5220
  0
TEXT
  5
126FE
  8
0
  6
CONTINUOUS
 62
     7
 10
11942.90023713761
 20
9469.1900500000029
 30
0.0
 40
160.0
  1
150
  0
TEXT
  5
126FF
  8
0
  6
CONTINUOUS
 62
     7
 10
8821.233570470944
 20
9869.1883999999955
 30
0.0
 40
160.0
  1
5550
  0
TEXT
  5
12705
  8
0
  6
CONTINUOUS
 62
     7
 10
26299.855577953771
 20
15066.73625200001
 30
0.0
 40
160.0
  1
2567.5
 50
90.0
  0
TEXT
  5
12706
  8
0
  6
CONTINUOUS
 62
     7
 10
26299.855577953771
 20
17634.23625200001
 30
0.0
 40
160.0
  1
2567.5
 50
90.0
  0
TEXT
  5
12707
  8
0
  6
CONTINUOUS
 62
     7
 10
25302.93388158513
 20
20240.485459999989
 30
0.0
 40
160.0
  1
42.5
  0
TEXT
  5
12708
  8
0
  6
CONTINUOUS
 62
     7
 10
24624.83791458515
 20
20259.829315999999
 30
0.0
 40
160.0
  1
42.5
  0
TEXT
  5
12709
  8
0
  6
CONTINUOUS
 62
     7
 10
20678.26195358513
 20
20640.487175999991
 30
0.0
 40
160.0
  1
2567.5
  0
TEXT
  5
1270A
  8
0
  6
CONTINUOUS
 62
     7
 10
23495.34528691848
 20
20640.487175999991
 30
0.0
 40
160.0
  1
2800
  0
TEXT
  5
1270E
  8
0
  6
CONTINUOUS
 62
     7
 10
19257.33791458515
 20
20259.829315999999
 30
0.0
 40
160.0
  1
42.5
  0
TEXT
  5
1270F
  8
0
  6
CONTINUOUS
 62
     7
 10
19866.274685127359
 20
20250.155768458
 30
0.0
 40
160.0
  1
407.5
  0
TEXT
  5
12710
  8
0
  6
CONTINUOUS
 62
     7
 10
20375.340117145151
 20
19919.88899528834
 30
0.0
 40
160.0
  1
701
  0
TEXT
  5
12711
  8
0
  6
CONTINUOUS
 62
     7
 10
21080.178620251801
 20
20240.487175999991
 30
0.0
 40
160.0
  1
701
  0
TEXT
  5
12712
  8
0
  6
CONTINUOUS
 62
     7
 10
21769.678620251801
 20
20240.487175999991
 30
0.0
 40
160.0
  1
758
  0
TEXT
  5
12713
  8
0
  6
CONTINUOUS
 62
     7
 10
22502.933881585119
 20
20240.487175999991
 30
0.0
 40
160.0
  1
42.5
  0
TEXT
  5
12720
  8
0
  6
CONTINUOUS
 62
     7
 10
8715.5249638099176
 20
12780.485459999991
 30
0.0
 40
160.0
  1
ケラバ外寸5538.5
  0
TEXT
  5
12721
  8
0
  6
CONTINUOUS
 62
     7
 10
6331.294486476595
 20
20240.485459999989
 30
0.0
 40
160.0
  1
85.5
  0
TEXT
  5
12722
  8
0
  6
CONTINUOUS
 62
     7
 10
7790.1916304765818
 20
20240.487175999991
 30
0.0
 40
160.0
  1
2567.5
  0
TEXT
  5
12723
  8
0
  6
CONTINUOUS
 62
     7
 10
10607.274963809919
 20
20240.487175999991
 30
0.0
 40
160.0
  1
2800
  0
TEXT
  5
12724
  8
0
  6
CONTINUOUS
 62
     7
 10
12420.28941847659
 20
20240.485459999989
 30
0.0
 40
160.0
  1
85.5
  0
TEXT
  5
12725
  8
0
  6
CONTINUOUS
 62
     7
 10
6296.9415964765922
 20
19685.248313999989
 30
0.0
 40
160.0
  1
22
 50
90.0
  0
TEXT
  5
12726
  8
0
  6
CONTINUOUS
 62
     7
 10
5896.9415304765917
 20
19618.967774389239
 30
0.0
 40
160.0
  1
222.5
 50
90.0
  0
TEXT
  5
12727
  8
0
  6
CONTINUOUS
 62
     7
 10
5896.941530476588
 20
18321.509757731281
 30
0.0
 40
160.0
  1
1108.5
 50
90.0
  0
TEXT
  5
12728
  8
0
  6
CONTINUOUS
 62
     7
 10
5896.941530476578
 20
13326.496623590579
 30
0.0
 40
160.0
  1
192.5
 50
90.0
  0
TEXT
  5
12729
  8
0
  6
CONTINUOUS
 62
     7
 10
5896.9418544765922
 20
17213.319585333331
 30
0.0
 40
160.0
  1
1459
 50
90.0
  0
TEXT
  5
1272A
  8
0
  6
CONTINUOUS
 62
     7
 10
5896.9418544765886
 20
15754.31958533334
 30
0.0
 40
160.0
  1
1459
 50
90.0
  0
TEXT
  5
1272B
  8
0
  6
CONTINUOUS
 62
     7
 10
5896.941854476594
 20
14403.90291866667
 30
0.0
 40
160.0
  1
1108.5
 50
90.0
  0
ARC
  5
1272C
  8
0
  6
BYBLOCK
 62
     0
 10
5976.9418544765967
 20
15291.48625200001
 30
0.0
 40
15.0
 50
270.0
 51
90.0
  0
ARC
  5
1272D
  8
0
  6
BYBLOCK
 62
     0
 10
5976.9418544765967
 20
15291.48625200001
 30
0.0
 40
15.0
 50
90.0
 51
270.0
  0
ARC
  5
1272E
  8
0
  6
BYBLOCK
 62
     0
 10
5976.9418544765958
 20
14182.986252000001
 30
0.0
 40
15.0
 50
90.0
 51
270.0
  0
ARC
  5
1272F
  8
0
  6
BYBLOCK
 62
     0
 10
5976.9418544765958
 20
14182.986252000001
 30
0.0
 40
15.0
 50
270.0
 51
90.0
  0
ARC
  5
12730
  8
0
  6
BYBLOCK
 62
     0
 10
5976.941854476594
 20
16750.486251999999
 30
0.0
 40
15.0
 50
270.0
 51
90.0
  0
ARC
  5
12731
  8
0
  6
BYBLOCK
 62
     0
 10
5976.941854476594
 20
16750.486251999999
 30
0.0
 40
15.0
 50
90.0
 51
270.0
  0
ARC
  5
12732
  8
0
  6
BYBLOCK
 62
     0
 10
5976.941854476594
 20
15291.48625200001
 30
0.0
 40
15.0
 50
90.0
 51
270.0
  0
ARC
  5
12733
  8
0
  6
BYBLOCK
 62
     0
 10
5976.941854476594
 20
15291.48625200001
 30
0.0
 40
15.0
 50
270.0
 51
90.0
  0
ARC
  5
12734
  8
0
  6
BYBLOCK
 62
     0
 10
5976.941854476594
 20
18209.48625200001
 30
0.0
 40
15.0
 50
270.0
 51
90.0
  0
ARC
  5
12735
  8
0
  6
BYBLOCK
 62
     0
 10
5976.941854476594
 20
18209.48625200001
 30
0.0
 40
15.0
 50
90.0
 51
270.0
  0
ARC
  5
12736
  8
0
  6
BYBLOCK
 62
     0
 10
5976.941854476594
 20
16750.486251999999
 30
0.0
 40
15.0
 50
90.0
 51
270.0
  0
ARC
  5
12737
  8
0
  6
BYBLOCK
 62
     0
 10
5976.941854476594
 20
16750.486251999999
 30
0.0
 40
15.0
 50
270.0
 51
90.0
  0
ARC
  5
12738
  8
0
  6
BYBLOCK
 62
     0
 10
5976.9415304765944
 20
14182.98552600002
 30
0.0
 40
15.0
 50
270.0
 51
90.0
  0
ARC
  5
12739
  8
0
  6
BYBLOCK
 62
     0
 10
5976.9415304765944
 20
14182.98552600002
 30
0.0
 40
15.0
 50
90.0
 51
270.0
  0
ARC
  5
1273A
  8
0
  6
BYBLOCK
 62
     0
 10
5976.9415304765944
 20
13990.486252000001
 30
0.0
 40
15.0
 50
90.0
 51
270.0
  0
ARC
  5
1273B
  8
0
  6
BYBLOCK
 62
     0
 10
5976.9415304765944
 20
13990.486252000001
 30
0.0
 40
15.0
 50
270.0
 51
90.0
  0
ARC
  5
1273C
  8
0
  6
BYBLOCK
 62
     0
 10
5976.9415304765944
 20
19317.986251999992
 30
0.0
 40
15.0
 50
270.0
 51
90.0
  0
ARC
  5
1273D
  8
0
  6
BYBLOCK
 62
     0
 10
5976.9415304765944
 20
19317.986251999992
 30
0.0
 40
15.0
 50
90.0
 51
270.0
  0
ARC
  5
1273E
  8
0
  6
BYBLOCK
 62
     0
 10
5976.9415304765889
 20
18209.48625200001
 30
0.0
 40
15.0
 50
90.0
 51
270.0
  0
ARC
  5
1273F
  8
0
  6
BYBLOCK
 62
     0
 10
5976.9415304765889
 20
18209.48625200001
 30
0.0
 40
15.0
 50
270.0
 51
90.0
  0
ARC
  5
12740
  8
0
  6
BYBLOCK
 62
     0
 10
5976.9415304765889
 20
19317.986251999992
 30
0.0
 40
15.0
 50
90.0
 51
270.0
  0
ARC
  5
12741
  8
0
  6
BYBLOCK
 62
     0
 10
5976.9415304765889
 20
19317.986251999992
 30
0.0
 40
15.0
 50
270.0
 51
90.0
  0
ARC
  5
12742
  8
0
  6
BYBLOCK
 62
     0
 10
5976.9415304765889
 20
19540.486120000001
 30
0.0
 40
15.0
 50
270.0
 51
90.0
  0
ARC
  5
12743
  8
0
  6
BYBLOCK
 62
     0
 10
5976.9415304765889
 20
19540.486120000001
 30
0.0
 40
15.0
 50
90.0
 51
270.0
  0
ARC
  5
12744
  8
0
  6
BYBLOCK
 62
     0
 10
6376.9408714765914
 20
19500.485987999989
 30
0.0
 40
15.0
 50
270.0
 51
90.0
  0
ARC
  5
12745
  8
0
  6
BYBLOCK
 62
     0
 10
6376.9408714765914
 20
19500.485987999989
 30
0.0
 40
15.0
 50
90.0
 51
270.0
  0
ARC
  5
12746
  8
0
  6
BYBLOCK
 62
     0
 10
6376.9408714765914
 20
19540.486120000001
 30
0.0
 40
15.0
 50
90.0
 51
270.0
  0
ARC
  5
12747
  8
0
  6
BYBLOCK
 62
     0
 10
6376.9408714765914
 20
19540.486120000001
 30
0.0
 40
15.0
 50
270.0
 51
90.0
  0
ARC
  5
12748
  8
0
  6
BYBLOCK
 62
     0
 10
12273.94163047658
 20
20160.487175999991
 30
0.0
 40
15.0
 50
180.0
 51
0.0
  0
ARC
  5
12749
  8
0
  6
BYBLOCK
 62
     0
 10
12273.94163047658
 20
20160.487175999991
 30
0.0
 40
15.0
 50
0.0
 51
180.0
  0
ARC
  5
1274A
  8
0
  6
BYBLOCK
 62
     0
 10
12359.44163047658
 20
20160.487175999991
 30
0.0
 40
15.0
 50
0.0
 51
180.0
  0
ARC
  5
1274B
  8
0
  6
BYBLOCK
 62
     0
 10
12359.44163047658
 20
20160.487175999991
 30
0.0
 40
15.0
 50
180.0
 51
0.0
  0
ARC
  5
1274C
  8
0
  6
BYBLOCK
 62
     0
 10
9473.9416304765837
 20
20160.487175999991
 30
0.0
 40
15.0
 50
0.0
 51
180.0
  0
ARC
  5
1274D
  8
0
  6
BYBLOCK
 62
     0
 10
9473.9416304765837
 20
20160.487175999991
 30
0.0
 40
15.0
 50
180.0
 51
0.0
  0
ARC
  5
1274E
  8
0
  6
BYBLOCK
 62
     0
 10
12273.94163047658
 20
20160.487175999991
 30
0.0
 40
15.0
 50
180.0
 51
0.0
  0
ARC
  5
1274F
  8
0
  6
BYBLOCK
 62
     0
 10
12273.94163047658
 20
20160.487175999991
 30
0.0
 40
15.0
 50
0.0
 51
180.0
  0
ARC
  5
12750
  8
0
  6
BYBLOCK
 62
     0
 10
6906.4416304765818
 20
20160.487175999991
 30
0.0
 40
15.0
 50
0.0
 51
180.0
  0
ARC
  5
12751
  8
0
  6
BYBLOCK
 62
     0
 10
6906.4416304765818
 20
20160.487175999991
 30
0.0
 40
15.0
 50
180.0
 51
0.0
  0
ARC
  5
12752
  8
0
  6
BYBLOCK
 62
     0
 10
9473.9416304765837
 20
20160.487175999991
 30
0.0
 40
15.0
 50
180.0
 51
0.0
  0
ARC
  5
12753
  8
0
  6
BYBLOCK
 62
     0
 10
9473.9416304765837
 20
20160.487175999991
 30
0.0
 40
15.0
 50
0.0
 51
180.0
  0
ARC
  5
12754
  8
0
  6
BYBLOCK
 62
     0
 10
6906.4416304765818
 20
20160.487175999991
 30
0.0
 40
15.0
 50
0.0
 51
180.0
  0
ARC
  5
12755
  8
0
  6
BYBLOCK
 62
     0
 10
6906.4416304765818
 20
20160.487175999991
 30
0.0
 40
15.0
 50
180.0
 51
0.0
  0
ARC
  5
12756
  8
0
  6
BYBLOCK
 62
     0
 10
6820.9416304765818
 20
20160.487175999991
 30
0.0
 40
15.0
 50
180.0
 51
0.0
  0
ARC
  5
12757
  8
0
  6
BYBLOCK
 62
     0
 10
6820.9416304765818
 20
20160.487175999991
 30
0.0
 40
15.0
 50
0.0
 51
180.0
  0
ARC
  5
12758
  8
0
  6
BYBLOCK
 62
     0
 10
6820.9416304765846
 20
12700.485459999991
 30
0.0
 40
15.0
 50
0.0
 51
180.0
  0
ARC
  5
12759
  8
0
  6
BYBLOCK
 62
     0
 10
6820.9416304765846
 20
12700.485459999991
 30
0.0
 40
15.0
 50
180.0
 51
0.0
  0
ARC
  5
1275A
  8
0
  6
BYBLOCK
 62
     0
 10
12359.44163047658
 20
12700.485459999991
 30
0.0
 40
15.0
 50
180.0
 51
0.0
  0
ARC
  5
1275B
  8
0
  6
BYBLOCK
 62
     0
 10
12359.44163047658
 20
12700.485459999991
 30
0.0
 40
15.0
 50
0.0
 51
180.0
  0
ARC
  5
1278C
  8
0
  6
BYBLOCK
 62
     0
 10
22362.011953585152
 20
20160.487175999991
 30
0.0
 40
15.0
 50
180.0
 51
0.0
  0
ARC
  5
1278D
  8
0
  6
BYBLOCK
 62
     0
 10
22362.011953585152
 20
20160.487175999991
 30
0.0
 40
15.0
 50
0.0
 51
180.0
  0
ARC
  5
1278E
  8
0
  6
BYBLOCK
 62
     0
 10
22404.511953585141
 20
20160.487175999991
 30
0.0
 40
15.0
 50
0.0
 51
180.0
  0
ARC
  5
1278F
  8
0
  6
BYBLOCK
 62
     0
 10
22404.511953585141
 20
20160.487175999991
 30
0.0
 40
15.0
 50
180.0
 51
0.0
  0
ARC
  5
12790
  8
0
  6
BYBLOCK
 62
     0
 10
21604.011953585141
 20
20160.487175999991
 30
0.0
 40
15.0
 50
0.0
 51
180.0
  0
ARC
  5
12791
  8
0
  6
BYBLOCK
 62
     0
 10
21604.011953585141
 20
20160.487175999991
 30
0.0
 40
15.0
 50
180.0
 51
0.0
  0
ARC
  5
12792
  8
0
  6
BYBLOCK
 62
     0
 10
22362.011953585152
 20
20160.487175999991
 30
0.0
 40
15.0
 50
180.0
 51
0.0
  0
ARC
  5
12793
  8
0
  6
BYBLOCK
 62
     0
 10
22362.011953585152
 20
20160.487175999991
 30
0.0
 40
15.0
 50
0.0
 51
180.0
  0
ARC
  5
12794
  8
0
  6
BYBLOCK
 62
     0
 10
20903.01195358513
 20
20160.487175999991
 30
0.0
 40
15.0
 50
0.0
 51
180.0
  0
ARC
  5
12795
  8
0
  6
BYBLOCK
 62
     0
 10
20903.01195358513
 20
20160.487175999991
 30
0.0
 40
15.0
 50
180.0
 51
0.0
  0
ARC
  5
12796
  8
0
  6
BYBLOCK
 62
     0
 10
21604.011953585141
 20
20160.487175999991
 30
0.0
 40
15.0
 50
180.0
 51
0.0
  0
ARC
  5
12797
  8
0
  6
BYBLOCK
 62
     0
 10
21604.011953585141
 20
20160.487175999991
 30
0.0
 40
15.0
 50
0.0
 51
180.0
  0
ARC
  5
12798
  8
0
  6
BYBLOCK
 62
     0
 10
20202.011953585141
 20
20160.487175999991
 30
0.0
 40
15.0
 50
0.0
 51
180.0
  0
ARC
  5
12799
  8
0
  6
BYBLOCK
 62
     0
 10
20202.011953585141
 20
20160.487175999991
 30
0.0
 40
15.0
 50
180.0
 51
0.0
  0
ARC
  5
1279A
  8
0
  6
BYBLOCK
 62
     0
 10
20903.01195358513
 20
20160.487175999991
 30
0.0
 40
15.0
 50
180.0
 51
0.0
  0
ARC
  5
1279B
  8
0
  6
BYBLOCK
 62
     0
 10
20903.01195358513
 20
20160.487175999991
 30
0.0
 40
15.0
 50
0.0
 51
180.0
  0
ARC
  5
1279C
  8
0
  6
BYBLOCK
 62
     0
 10
19794.511953585141
 20
20160.487175999991
 30
0.0
 40
15.0
 50
0.0
 51
180.0
  0
ARC
  5
1279D
  8
0
  6
BYBLOCK
 62
     0
 10
19794.511953585141
 20
20160.487175999991
 30
0.0
 40
15.0
 50
180.0
 51
0.0
  0
ARC
  5
1279E
  8
0
  6
BYBLOCK
 62
     0
 10
20202.011953585141
 20
20160.487175999991
 30
0.0
 40
15.0
 50
180.0
 51
0.0
  0
ARC
  5
1279F
  8
0
  6
BYBLOCK
 62
     0
 10
20202.011953585141
 20
20160.487175999991
 30
0.0
 40
15.0
 50
0.0
 51
180.0
  0
ARC
  5
127A0
  8
0
  6
BYBLOCK
 62
     0
 10
19794.511953585141
 20
20160.487175999991
 30
0.0
 40
15.0
 50
0.0
 51
180.0
  0
ARC
  5
127A1
  8
0
  6
BYBLOCK
 62
     0
 10
19794.511953585141
 20
20160.487175999991
 30
0.0
 40
15.0
 50
180.0
 51
0.0
  0
ARC
  5
127A2
  8
0
  6
BYBLOCK
 62
     0
 10
19752.011953585141
 20
20160.487175999991
 30
0.0
 40
15.0
 50
180.0
 51
0.0
  0
ARC
  5
127A3
  8
0
  6
BYBLOCK
 62
     0
 10
19752.011953585141
 20
20160.487175999991
 30
0.0
 40
15.0
 50
0.0
 51
180.0
  0
ARC
  5
127B0
  8
0
  6
BYBLOCK
 62
     0
 10
22362.011953585152
 20
20560.487175999991
 30
0.0
 40
15.0
 50
0.0
 51
180.0
  0
ARC
  5
127B1
  8
0
  6
BYBLOCK
 62
     0
 10
22362.011953585152
 20
20560.487175999991
 30
0.0
 40
15.0
 50
180.0
 51
0.0
  0
ARC
  5
127B2
  8
0
  6
BYBLOCK
 62
     0
 10
25162.011953585141
 20
20560.487175999991
 30
0.0
 40
15.0
 50
180.0
 51
0.0
  0
ARC
  5
127B3
  8
0
  6
BYBLOCK
 62
     0
 10
25162.011953585141
 20
20560.487175999991
 30
0.0
 40
15.0
 50
0.0
 51
180.0
  0
ARC
  5
127B4
  8
0
  6
BYBLOCK
 62
     0
 10
19794.511953585141
 20
20560.487175999991
 30
0.0
 40
15.0
 50
0.0
 51
180.0
  0
ARC
  5
127B5
  8
0
  6
BYBLOCK
 62
     0
 10
19794.511953585141
 20
20560.487175999991
 30
0.0
 40
15.0
 50
180.0
 51
0.0
  0
ARC
  5
127B6
  8
0
  6
BYBLOCK
 62
     0
 10
22362.011953585152
 20
20560.487175999991
 30
0.0
 40
15.0
 50
180.0
 51
0.0
  0
ARC
  5
127B7
  8
0
  6
BYBLOCK
 62
     0
 10
22362.011953585152
 20
20560.487175999991
 30
0.0
 40
15.0
 50
0.0
 51
180.0
  0
ARC
  5
127B8
  8
0
  6
BYBLOCK
 62
     0
 10
25162.011953585141
 20
20160.487175999991
 30
0.0
 40
15.0
 50
0.0
 51
180.0
  0
ARC
  5
127B9
  8
0
  6
BYBLOCK
 62
     0
 10
25162.011953585141
 20
20160.487175999991
 30
0.0
 40
15.0
 50
180.0
 51
0.0
  0
ARC
  5
127BA
  8
0
  6
BYBLOCK
 62
     0
 10
25119.509710585138
 20
20160.487175999991
 30
0.0
 40
15.0
 50
180.0
 51
0.0
  0
ARC
  5
127BB
  8
0
  6
BYBLOCK
 62
     0
 10
25119.509710585138
 20
20160.487175999991
 30
0.0
 40
15.0
 50
0.0
 51
180.0
  0
ARC
  5
127BC
  8
0
  6
BYBLOCK
 62
     0
 10
25162.011953585141
 20
20160.487175999991
 30
0.0
 40
15.0
 50
180.0
 51
0.0
  0
ARC
  5
127BD
  8
0
  6
BYBLOCK
 62
     0
 10
25162.011953585141
 20
20160.487175999991
 30
0.0
 40
15.0
 50
0.0
 51
180.0
  0
ARC
  5
127BE
  8
0
  6
BYBLOCK
 62
     0
 10
25204.510238585131
 20
20160.487175999991
 30
0.0
 40
15.0
 50
0.0
 51
180.0
  0
ARC
  5
127BF
  8
0
  6
BYBLOCK
 62
     0
 10
25204.510238585131
 20
20160.487175999991
 30
0.0
 40
15.0
 50
180.0
 51
0.0
  0
ARC
  5
127C0
  8
0
  6
BYBLOCK
 62
     0
 10
26379.855577953771
 20
16750.486251999992
 30
0.0
 40
15.0
 50
90.0
 51
270.0
  0
ARC
  5
127C1
  8
0
  6
BYBLOCK
 62
     0
 10
26379.855577953771
 20
16750.486251999992
 30
0.0
 40
15.0
 50
270.0
 51
90.0
  0
ARC
  5
127C2
  8
0
  6
BYBLOCK
 62
     0
 10
26379.855577953771
 20
19317.986251999992
 30
0.0
 40
15.0
 50
270.0
 51
90.0
  0
ARC
  5
127C3
  8
0
  6
BYBLOCK
 62
     0
 10
26379.855577953771
 20
19317.986251999992
 30
0.0
 40
15.0
 50
90.0
 51
270.0
  0
ARC
  5
127C4
  8
0
  6
BYBLOCK
 62
     0
 10
26379.855577953771
 20
14182.986252000001
 30
0.0
 40
15.0
 50
90.0
 51
270.0
  0
ARC
  5
127C5
  8
0
  6
BYBLOCK
 62
     0
 10
26379.855577953771
 20
14182.986252000001
 30
0.0
 40
15.0
 50
270.0
 51
90.0
  0
ARC
  5
127C6
  8
0
  6
BYBLOCK
 62
     0
 10
26379.855577953771
 20
16750.486251999992
 30
0.0
 40
15.0
 50
270.0
 51
90.0
  0
ARC
  5
127C7
  8
0
  6
BYBLOCK
 62
     0
 10
26379.855577953771
 20
16750.486251999992
 30
0.0
 40
15.0
 50
90.0
 51
270.0
  0
ARC
  5
127DC
  8
0
  6
BYBLOCK
 62
     0
 10
6326.233570470944
 20
9789.1883999999955
 30
0.0
 40
15.0
 50
0.0
 51
180.0
  0
ARC
  5
127DD
  8
0
  6
BYBLOCK
 62
     0
 10
6326.233570470944
 20
9789.1883999999955
 30
0.0
 40
15.0
 50
180.0
 51
0.0
  0
ARC
  5
127DE
  8
0
  6
BYBLOCK
 62
     0
 10
11876.233570470929
 20
9789.1883999999955
 30
0.0
 40
15.0
 50
180.0
 51
0.0
  0
ARC
  5
127DF
  8
0
  6
BYBLOCK
 62
     0
 10
11876.233570470929
 20
9789.1883999999955
 30
0.0
 40
15.0
 50
0.0
 51
180.0
  0
ARC
  5
127E0
  8
0
  6
BYBLOCK
 62
     0
 10
11726.23357047094
 20
9389.1900500000029
 30
0.0
 40
15.0
 50
180.0
 51
0.0
  0
ARC
  5
127E1
  8
0
  6
BYBLOCK
 62
     0
 10
11726.23357047094
 20
9389.1900500000029
 30
0.0
 40
15.0
 50
0.0
 51
180.0
  0
ARC
  5
127E2
  8
0
  6
BYBLOCK
 62
     0
 10
11876.233570470929
 20
9389.1900500000029
 30
0.0
 40
15.0
 50
0.0
 51
180.0
  0
ARC
  5
127E3
  8
0
  6
BYBLOCK
 62
     0
 10
11876.233570470929
 20
9389.1900500000029
 30
0.0
 40
15.0
 50
180.0
 51
0.0
  0
ARC
  5
127E4
  8
0
  6
BYBLOCK
 62
     0
 10
6506.233570470944
 20
9389.1900500000029
 30
0.0
 40
15.0
 50
0.0
 51
180.0
  0
ARC
  5
127E5
  8
0
  6
BYBLOCK
 62
     0
 10
6506.233570470944
 20
9389.1900500000029
 30
0.0
 40
15.0
 50
180.0
 51
0.0
  0
ARC
  5
127E6
  8
0
  6
BYBLOCK
 62
     0
 10
11726.23357047094
 20
9389.1900500000029
 30
0.0
 40
15.0
 50
180.0
 51
0.0
  0
ARC
  5
127E7
  8
0
  6
BYBLOCK
 62
     0
 10
11726.23357047094
 20
9389.1900500000029
 30
0.0
 40
15.0
 50
0.0
 51
180.0
  0
ARC
  5
127E8
  8
0
  6
BYBLOCK
 62
     0
 10
6326.233570470944
 20
9389.1900500000029
 30
0.0
 40
15.0
 50
0.0
 51
180.0
  0
ARC
  5
127E9
  8
0
  6
BYBLOCK
 62
     0
 10
6326.233570470944
 20
9389.1900500000029
 30
0.0
 40
15.0
 50
180.0
 51
0.0
  0
ARC
  5
127EA
  8
0
  6
BYBLOCK
 62
     0
 10
6506.233570470944
 20
9389.1900500000029
 30
0.0
 40
15.0
 50
180.0
 51
0.0
  0
ARC
  5
127EB
  8
0
  6
BYBLOCK
 62
     0
 10
6506.233570470944
 20
9389.1900500000029
 30
0.0
 40
15.0
 50
0.0
 51
180.0
  0
ARC
  5
127EC
  8
0
  6
BYBLOCK
 62
     0
 10
12816.23396647094
 20
6241.1883740000021
 30
0.0
 40
15.0
 50
90.0
 51
270.0
  0
ARC
  5
127ED
  8
0
  6
BYBLOCK
 62
     0
 10
12816.23396647094
 20
6241.1883740000021
 30
0.0
 40
15.0
 50
270.0
 51
90.0
  0
ARC
  5
127EE
  8
0
  6
BYBLOCK
 62
     0
 10
12816.23396647094
 20
8590.188374000003
 30
0.0
 40
15.0
 50
270.0
 51
90.0
  0
ARC
  5
127EF
  8
0
  6
BYBLOCK
 62
     0
 10
12816.23396647094
 20
8590.188374000003
 30
0.0
 40
15.0
 50
90.0
 51
270.0
  0
ARC
  5
127F0
  8
0
  6
BYBLOCK
 62
     0
 10
5416.2331744709481
 20
6241.1883740000039
 30
0.0
 40
15.0
 50
90.0
 51
270.0
  0
ARC
  5
127F1
  8
0
  6
BYBLOCK
 62
     0
 10
5416.2331744709481
 20
6241.1883740000039
 30
0.0
 40
15.0
 50
270.0
 51
90.0
  0
ARC
  5
127F2
  8
0
  6
BYBLOCK
 62
     0
 10
5416.2331744709481
 20
8396.688374000003
 30
0.0
 40
15.0
 50
270.0
 51
90.0
  0
ARC
  5
127F3
  8
0
  6
BYBLOCK
 62
     0
 10
5416.2331744709481
 20
8396.688374000003
 30
0.0
 40
15.0
 50
90.0
 51
270.0
  0
ARC
  5
127F4
  8
0
  6
BYBLOCK
 62
     0
 10
6506.233570470944
 20
4541.1887039999983
 30
0.0
 40
15.0
 50
0.0
 51
180.0
  0
ARC
  5
127F5
  8
0
  6
BYBLOCK
 62
     0
 10
6506.233570470944
 20
4541.1887039999983
 30
0.0
 40
15.0
 50
180.0
 51
0.0
  0
ARC
  5
127F6
  8
0
  6
BYBLOCK
 62
     0
 10
11726.23357047094
 20
4541.1887039999983
 30
0.0
 40
15.0
 50
180.0
 51
0.0
  0
ARC
  5
127F7
  8
0
  6
BYBLOCK
 62
     0
 10
11726.23357047094
 20
4541.1887039999983
 30
0.0
 40
15.0
 50
0.0
 51
180.0
  0
ARC
  5
127F8
  8
0
  6
BYBLOCK
 62
     0
 10
11683.733570470929
 20
4941.1885390000016
 30
0.0
 40
15.0
 50
180.0
 51
0.0
  0
ARC
  5
127F9
  8
0
  6
BYBLOCK
 62
     0
 10
11683.733570470929
 20
4941.1885390000016
 30
0.0
 40
15.0
 50
0.0
 51
180.0
  0
ARC
  5
127FA
  8
0
  6
BYBLOCK
 62
     0
 10
11726.23357047094
 20
4941.1885390000016
 30
0.0
 40
15.0
 50
0.0
 51
180.0
  0
ARC
  5
127FB
  8
0
  6
BYBLOCK
 62
     0
 10
11726.23357047094
 20
4941.1885390000016
 30
0.0
 40
15.0
 50
180.0
 51
0.0
  0
ARC
  5
127FC
  8
0
  6
BYBLOCK
 62
     0
 10
6548.7335704709431
 20
4941.1885390000016
 30
0.0
 40
15.0
 50
0.0
 51
180.0
  0
ARC
  5
127FD
  8
0
  6
BYBLOCK
 62
     0
 10
6548.7335704709431
 20
4941.1885390000016
 30
0.0
 40
15.0
 50
180.0
 51
0.0
  0
ARC
  5
127FE
  8
0
  6
BYBLOCK
 62
     0
 10
6506.233570470944
 20
4941.1885390000016
 30
0.0
 40
15.0
 50
180.0
 51
0.0
  0
ARC
  5
127FF
  8
0
  6
BYBLOCK
 62
     0
 10
6506.233570470944
 20
4941.1885390000016
 30
0.0
 40
15.0
 50
0.0
 51
180.0
  0
ARC
  5
12800
  8
0
  6
BYBLOCK
 62
     0
 10
9116.233570470944
 20
4941.1885390000016
 30
0.0
 40
15.0
 50
180.0
 51
0.0
  0
ARC
  5
12801
  8
0
  6
BYBLOCK
 62
     0
 10
9116.233570470944
 20
4941.1885390000016
 30
0.0
 40
15.0
 50
0.0
 51
180.0
  0
ARC
  5
12802
  8
0
  6
BYBLOCK
 62
     0
 10
6548.7335704709431
 20
4941.1885390000016
 30
0.0
 40
15.0
 50
0.0
 51
180.0
  0
ARC
  5
12803
  8
0
  6
BYBLOCK
 62
     0
 10
6548.7335704709431
 20
4941.1885390000016
 30
0.0
 40
15.0
 50
180.0
 51
0.0
  0
ARC
  5
12804
  8
0
  6
BYBLOCK
 62
     0
 10
9116.233570470944
 20
4941.1885390000016
 30
0.0
 40
15.0
 50
0.0
 51
180.0
  0
ARC
  5
12805
  8
0
  6
BYBLOCK
 62
     0
 10
9116.233570470944
 20
4941.1885390000016
 30
0.0
 40
15.0
 50
180.0
 51
0.0
  0
ARC
  5
12806
  8
0
  6
BYBLOCK
 62
     0
 10
11683.733570470929
 20
4941.1885390000016
 30
0.0
 40
15.0
 50
180.0
 51
0.0
  0
ARC
  5
12807
  8
0
  6
BYBLOCK
 62
     0
 10
11683.733570470929
 20
4941.1885390000016
 30
0.0
 40
15.0
 50
0.0
 51
180.0
  0
ARC
  5
12808
  8
0
  6
BYBLOCK
 62
     0
 10
19688.010092585158
 20
9789.1329740000037
 30
0.0
 40
15.0
 50
0.0
 51
180.0
  0
ARC
  5
12809
  8
0
  6
BYBLOCK
 62
     0
 10
19688.010092585158
 20
9789.1329740000037
 30
0.0
 40
15.0
 50
180.0
 51
0.0
  0
ARC
  5
1280A
  8
0
  6
BYBLOCK
 62
     0
 10
25226.510092585158
 20
9789.1329740000037
 30
0.0
 40
15.0
 50
180.0
 51
0.0
  0
ARC
  5
1280B
  8
0
  6
BYBLOCK
 62
     0
 10
25226.510092585158
 20
9789.1329740000037
 30
0.0
 40
15.0
 50
0.0
 51
180.0
  0
ARC
  5
1280C
  8
0
  6
BYBLOCK
 62
     0
 10
25183.510092585158
 20
9389.1900500000029
 30
0.0
 40
15.0
 50
180.0
 51
0.0
  0
ARC
  5
1280D
  8
0
  6
BYBLOCK
 62
     0
 10
25183.510092585158
 20
9389.1900500000029
 30
0.0
 40
15.0
 50
0.0
 51
180.0
  0
ARC
  5
1280E
  8
0
  6
BYBLOCK
 62
     0
 10
25226.510092585158
 20
9389.1900500000029
 30
0.0
 40
15.0
 50
0.0
 51
180.0
  0
ARC
  5
1280F
  8
0
  6
BYBLOCK
 62
     0
 10
25226.510092585158
 20
9389.1900500000029
 30
0.0
 40
15.0
 50
180.0
 51
0.0
  0
ARC
  5
12810
  8
0
  6
BYBLOCK
 62
     0
 10
19731.010092585158
 20
9389.1900500000029
 30
0.0
 40
15.0
 50
0.0
 51
180.0
  0
ARC
  5
12811
  8
0
  6
BYBLOCK
 62
     0
 10
19731.010092585158
 20
9389.1900500000029
 30
0.0
 40
15.0
 50
180.0
 51
0.0
  0
ARC
  5
12812
  8
0
  6
BYBLOCK
 62
     0
 10
19688.010092585158
 20
9389.1900500000029
 30
0.0
 40
15.0
 50
180.0
 51
0.0
  0
ARC
  5
12813
  8
0
  6
BYBLOCK
 62
     0
 10
19688.010092585158
 20
9389.1900500000029
 30
0.0
 40
15.0
 50
0.0
 51
180.0
  0
ARC
  5
12814
  8
0
  6
BYBLOCK
 62
     0
 10
22383.510092585158
 20
9389.1900500000029
 30
0.0
 40
15.0
 50
180.0
 51
0.0
  0
ARC
  5
12815
  8
0
  6
BYBLOCK
 62
     0
 10
22383.510092585158
 20
9389.1900500000029
 30
0.0
 40
15.0
 50
0.0
 51
180.0
  0
ARC
  5
12816
  8
0
  6
BYBLOCK
 62
     0
 10
19731.010092585158
 20
9389.1900500000029
 30
0.0
 40
15.0
 50
0.0
 51
180.0
  0
ARC
  5
12817
  8
0
  6
BYBLOCK
 62
     0
 10
19731.010092585158
 20
9389.1900500000029
 30
0.0
 40
15.0
 50
180.0
 51
0.0
  0
ARC
  5
12818
  8
0
  6
BYBLOCK
 62
     0
 10
18523.50745358516
 20
6241.1883740000021
 30
0.0
 40
15.0
 50
90.0
 51
270.0
  0
ARC
  5
12819
  8
0
  6
BYBLOCK
 62
     0
 10
18523.50745358516
 20
6241.1883740000021
 30
0.0
 40
15.0
 50
270.0
 51
90.0
  0
ARC
  5
1281A
  8
0
  6
BYBLOCK
 62
     0
 10
18523.50745358516
 20
8590.1883999999973
 30
0.0
 40
15.0
 50
270.0
 51
90.0
  0
ARC
  5
1281B
  8
0
  6
BYBLOCK
 62
     0
 10
18523.50745358516
 20
8590.1883999999973
 30
0.0
 40
15.0
 50
90.0
 51
270.0
  0
ARC
  5
1281C
  8
0
  6
BYBLOCK
 62
     0
 10
18923.506793585158
 20
6241.1883740000021
 30
0.0
 40
15.0
 50
90.0
 51
270.0
  0
ARC
  5
1281D
  8
0
  6
BYBLOCK
 62
     0
 10
18923.506793585158
 20
6241.1883740000021
 30
0.0
 40
15.0
 50
270.0
 51
90.0
  0
ARC
  5
1281E
  8
0
  6
BYBLOCK
 62
     0
 10
18923.506793585158
 20
8132.6883740000021
 30
0.0
 40
15.0
 50
270.0
 51
90.0
  0
ARC
  5
1281F
  8
0
  6
BYBLOCK
 62
     0
 10
18923.506793585158
 20
8132.6883740000021
 30
0.0
 40
15.0
 50
90.0
 51
270.0
  0
ARC
  5
12820
  8
0
  6
BYBLOCK
 62
     0
 10
22386.510092585158
 20
5341.188374000003
 30
0.0
 40
15.0
 50
0.0
 51
180.0
  0
ARC
  5
12821
  8
0
  6
BYBLOCK
 62
     0
 10
22386.510092585158
 20
5341.188374000003
 30
0.0
 40
15.0
 50
180.0
 51
0.0
  0
ARC
  5
12822
  8
0
  6
BYBLOCK
 62
     0
 10
25098.510092585158
 20
5341.188374000003
 30
0.0
 40
15.0
 50
180.0
 51
0.0
  0
ARC
  5
12823
  8
0
  6
BYBLOCK
 62
     0
 10
25098.510092585158
 20
5341.188374000003
 30
0.0
 40
15.0
 50
0.0
 51
180.0
  0
ARC
  5
12824
  8
0
  6
BYBLOCK
 62
     0
 10
19731.05004553268
 20
4541.1887040000556
 30
0.0
 40
15.0
 50
0.0
 51
180.0
  0
ARC
  5
12825
  8
0
  6
BYBLOCK
 62
     0
 10
19731.05004553268
 20
4541.1887040000556
 30
0.0
 40
15.0
 50
180.0
 51
0.0
  0
ARC
  5
12826
  8
0
  6
BYBLOCK
 62
     0
 10
25183.510092585158
 20
4541.1887040000556
 30
0.0
 40
15.0
 50
180.0
 51
0.0
  0
ARC
  5
12827
  8
0
  6
BYBLOCK
 62
     0
 10
25183.510092585158
 20
4541.1887040000556
 30
0.0
 40
15.0
 50
0.0
 51
180.0
  0
ARC
  5
12828
  8
0
  6
BYBLOCK
 62
     0
 10
19773.510092585158
 20
4941.1885390000016
 30
0.0
 40
15.0
 50
0.0
 51
180.0
  0
ARC
  5
12829
  8
0
  6
BYBLOCK
 62
     0
 10
19773.510092585158
 20
4941.1885390000016
 30
0.0
 40
15.0
 50
180.0
 51
0.0
  0
ARC
  5
1282A
  8
0
  6
BYBLOCK
 62
     0
 10
19731.05004553268
 20
4941.1885390000016
 30
0.0
 40
15.0
 50
180.0
 51
0.0
  0
ARC
  5
1282B
  8
0
  6
BYBLOCK
 62
     0
 10
19731.05004553268
 20
4941.1885390000016
 30
0.0
 40
15.0
 50
0.0
 51
180.0
  0
ARC
  5
1282C
  8
0
  6
BYBLOCK
 62
     0
 10
22341.010092585158
 20
4941.1885390000016
 30
0.0
 40
15.0
 50
180.0
 51
0.0
  0
ARC
  5
1282D
  8
0
  6
BYBLOCK
 62
     0
 10
22341.010092585158
 20
4941.1885390000016
 30
0.0
 40
15.0
 50
0.0
 51
180.0
  0
ARC
  5
1282E
  8
0
  6
BYBLOCK
 62
     0
 10
19773.510092585158
 20
4941.1885390000016
 30
0.0
 40
15.0
 50
0.0
 51
180.0
  0
ARC
  5
1282F
  8
0
  6
BYBLOCK
 62
     0
 10
19773.510092585158
 20
4941.1885390000016
 30
0.0
 40
15.0
 50
180.0
 51
0.0
  0
ARC
  5
12830
  8
0
  6
BYBLOCK
 62
     0
 10
19867.510092585158
 20
5341.188374000003
 30
0.0
 40
15.0
 50
0.0
 51
180.0
  0
ARC
  5
12831
  8
0
  6
BYBLOCK
 62
     0
 10
19867.510092585158
 20
5341.188374000003
 30
0.0
 40
15.0
 50
180.0
 51
0.0
  0
ARC
  5
12832
  8
0
  6
BYBLOCK
 62
     0
 10
22247.010092585158
 20
5341.188374000003
 30
0.0
 40
15.0
 50
180.0
 51
0.0
  0
ARC
  5
12833
  8
0
  6
BYBLOCK
 62
     0
 10
22247.010092585158
 20
5341.188374000003
 30
0.0
 40
15.0
 50
0.0
 51
180.0
  0
ARC
  5
12834
  8
0
  6
BYBLOCK
 62
     0
 10
25141.010092585158
 20
4941.1885390000016
 30
0.0
 40
15.0
 50
180.0
 51
0.0
  0
ARC
  5
12835
  8
0
  6
BYBLOCK
 62
     0
 10
25141.010092585158
 20
4941.1885390000016
 30
0.0
 40
15.0
 50
0.0
 51
180.0
  0
ARC
  5
12836
  8
0
  6
BYBLOCK
 62
     0
 10
25183.510092585158
 20
4941.1885390000016
 30
0.0
 40
15.0
 50
0.0
 51
180.0
  0
ARC
  5
12837
  8
0
  6
BYBLOCK
 62
     0
 10
25183.510092585158
 20
4941.1885390000016
 30
0.0
 40
15.0
 50
180.0
 51
0.0
  0
ARC
  5
12838
  8
0
  6
BYBLOCK
 62
     0
 10
22341.010092585158
 20
4941.1885390000016
 30
0.0
 40
15.0
 50
0.0
 51
180.0
  0
ARC
  5
12839
  8
0
  6
BYBLOCK
 62
     0
 10
22341.010092585158
 20
4941.1885390000016
 30
0.0
 40
15.0
 50
180.0
 51
0.0
  0
ARC
  5
1283A
  8
0
  6
BYBLOCK
 62
     0
 10
25141.010092585158
 20
4941.1885390000016
 30
0.0
 40
15.0
 50
180.0
 51
0.0
  0
ARC
  5
1283B
  8
0
  6
BYBLOCK
 62
     0
 10
25141.010092585158
 20
4941.1885390000016
 30
0.0
 40
15.0
 50
0.0
 51
180.0
  0
ARC
  5
1283C
  8
0
  6
BYBLOCK
 62
     0
 10
22383.510092585158
 20
9389.1900500000029
 30
0.0
 40
15.0
 50
0.0
 51
180.0
  0
ARC
  5
1283D
  8
0
  6
BYBLOCK
 62
     0
 10
22383.510092585158
 20
9389.1900500000029
 30
0.0
 40
15.0
 50
180.0
 51
0.0
  0
ARC
  5
1283E
  8
0
  6
BYBLOCK
 62
     0
 10
25183.510092585158
 20
9389.1900500000029
 30
0.0
 40
15.0
 50
180.0
 51
0.0
  0
ARC
  5
1283F
  8
0
  6
BYBLOCK
 62
     0
 10
25183.510092585158
 20
9389.1900500000029
 30
0.0
 40
15.0
 50
0.0
 51
180.0
  0
ARC
  5
12840
  8
0
  6
BYBLOCK
 62
     0
 10
26393.332490879529
 20
6241.1883740000021
 30
0.0
 40
15.0
 50
90.0
 51
270.0
  0
ARC
  5
12841
  8
0
  6
BYBLOCK
 62
     0
 10
26393.332490879529
 20
6241.1883740000021
 30
0.0
 40
15.0
 50
270.0
 51
90.0
  0
ARC
  5
12842
  8
0
  6
BYBLOCK
 62
     0
 10
26393.332490879551
 20
8261.1883740000048
 30
0.0
 40
15.0
 50
270.0
 51
90.0
  0
ARC
  5
12843
  8
0
  6
BYBLOCK
 62
     0
 10
26393.332490879551
 20
8261.1883740000048
 30
0.0
 40
15.0
 50
90.0
 51
270.0
  0
TEXT
  5
12919
  8
NAME
 10
21595.82616625919
 20
1076.6369801169251
 30
0.0
 40
360.0
  1
VGCU-2652（H）+VKCU-2852（H）型-R（単棟）
 41
0.4200000000000001
  0
TEXT
  5
1291B
  8
NAME
 10
21933.552716389011
 20
1876.0
 30
0.0
 40
360.0
  1
ヨドガレージ ラヴィージュ
 41
0.75
  7
01
  0
LINE
  5
1291C
  8
NAME
  6
CONTINUOUS
 10
26067.886878884299
 20
2236.0
 30
0.0
 11
26067.886878884299
 21
1876.0
 31
0.0
  0
LINE
  5
1291D
  8
NAME
  6
CONTINUOUS
 10
26167.886878884299
 20
2236.0
 30
0.0
 11
26167.886878884299
 21
1876.0
 31
0.0
  0
LINE
  5
1291E
  8
NAME
  6
CONTINUOUS
 10
26267.88687888431
 20
2236.0
 30
0.0
 11
26267.88687888431
 21
1876.0
 31
0.0
  0
LINE
  5
1291F
  8
NAME
  6
CONTINUOUS
 10
26007.886878884299
 20
2236.0
 30
0.0
 11
26327.886878884299
 21
2236.0
 31
0.0
  0
LINE
  5
12920
  8
NAME
  6
CONTINUOUS
 10
26327.886878884299
 20
1876.0
 30
0.0
 11
26007.886878884299
 21
1876.0
 31
0.0
  0
LINE
  5
13102
  8
2-0
  6
CONTINUOUS
 62
     6
 10
21477.670869585148
 20
13542.985129999999
 30
0.0
 11
20477.677467585181
 21
13542.985129999999
 31
0.0
  0
LINE
  5
13103
  8
2-0
  6
CONTINUOUS
 62
     6
 10
20009.737090585149
 20
14013.40584399999
 30
0.0
 11
20477.677467585181
 21
13542.985129999999
 31
0.0
  0
LINE
  5
13104
  8
2-0
  6
CONTINUOUS
 62
     6
 10
21460.95977358516
 20
17871.605195
 30
0.0
 11
20442.984425585149
 21
17871.605195
 31
0.0
  0
LINE
  5
13105
  8
2-0
  6
CONTINUOUS
 62
     6
 10
19986.558907585171
 20
18096.32014399999
 30
0.0
 11
20442.984425585149
 21
17871.605195
 31
0.0
  0
LINE
  5
13106
  8
2-0
  6
CONTINUOUS
 62
     6
 10
20048.377293585148
 20
16854.513491000009
 30
0.0
 11
20353.072711585159
 21
16958.16702200002
 31
0.0
  0
LINE
  5
13107
  8
2-0
  6
CONTINUOUS
 62
     6
 10
19893.355254585182
 20
16364.891447000011
 30
0.0
 11
20353.072711585159
 21
16120.978136000011
 31
0.0
  0
LINE
  5
13108
  8
2-0
  6
CONTINUOUS
 62
     6
 10
21273.07574658516
 20
16120.978136000011
 30
0.0
 11
20353.072711585159
 21
16120.978136000011
 31
0.0
  0
LINE
  5
13109
  8
2-0
  6
CONTINUOUS
 62
     6
 10
21553.066773585138
 20
16958.16702200002
 30
0.0
 11
20353.072711585159
 21
16958.16702200002
 31
0.0
  0
LINE
  5
1310A
  8
2-0
  6
CONTINUOUS
 62
     6
 10
19977.17796958514
 20
14335.08948999998
 30
0.0
 11
20353.072711585159
 21
14516.033325
 31
0.0
  0
LINE
  5
1310B
  8
2-0
  6
CONTINUOUS
 62
     6
 10
21460.95977358516
 20
14953.842737000001
 30
0.0
 11
20442.984425585149
 21
14953.842737000001
 31
0.0
  0
LINE
  5
1310C
  8
2-0
  6
CONTINUOUS
 62
     6
 10
20873.07442758515
 20
14516.033325
 30
0.0
 11
20353.072711585159
 21
14516.033325
 31
0.0
  0
LINE
  5
1310D
  8
2-0
  6
CONTINUOUS
 62
     6
 10
19986.558907585171
 20
15178.55570700001
 30
0.0
 11
20442.984425585149
 21
14953.842737000001
 31
0.0
  0
LINE
  5
1310E
  8
2-0
  6
CONTINUOUS
 62
     3
 10
22374.512613585131
 20
19251.484325999991
 30
0.0
 11
22374.512613585131
 21
19245.488364000019
 31
0.0
  0
LINE
  5
1310F
  8
2-0
  6
CONTINUOUS
 62
     3
 10
22374.512613585131
 20
19245.488364000019
 30
0.0
 11
22404.510237585138
 21
19245.488364000019
 31
0.0
  0
LINE
  5
13110
  8
2-0
  6
CONTINUOUS
 62
     3
 10
22404.510237585138
 20
19275.487968000001
 30
0.0
 11
22323.50833758511
 21
19275.487968000001
 31
0.0
  0
LINE
  5
13111
  8
2-0
  6
CONTINUOUS
 62
     3
 10
22374.512613585131
 20
19235.19090799999
 30
0.0
 11
22404.510237585138
 21
19235.19090799999
 31
0.0
  0
LINE
  5
13112
  8
2-0
  6
CONTINUOUS
 62
     3
 10
22374.512613585131
 20
19253.192650000001
 30
0.0
 11
22374.512613585131
 21
19235.19090799999
 31
0.0
  0
LINE
  5
13113
  8
2-0
  6
CONTINUOUS
 62
     3
 10
22399.509973585129
 20
19253.192650000001
 30
0.0
 11
22374.512613585131
 21
19253.192650000001
 31
0.0
  0
LINE
  5
13114
  8
2-0
  6
CONTINUOUS
 62
     3
 10
22399.509973585129
 20
19248.184467999999
 30
0.0
 11
22399.509973585129
 21
19253.192650000001
 31
0.0
  0
LINE
  5
13115
  8
2-0
  6
CONTINUOUS
 62
     3
 10
22392.508416585129
 20
19248.184467999999
 30
0.0
 11
22399.509973585129
 21
19248.184467999999
 31
0.0
  0
LINE
  5
13116
  8
2-0
  6
CONTINUOUS
 62
     3
 10
22292.212148585138
 20
19348.484694999999
 30
0.0
 11
22292.212148585138
 21
19355.490211000011
 31
0.0
  0
LINE
  5
13117
  8
2-0
  6
CONTINUOUS
 62
     3
 10
22292.212148585138
 20
19355.490211000011
 30
0.0
 11
22297.21241258513
 21
19355.490211000011
 31
0.0
  0
LINE
  5
13118
  8
2-0
  6
CONTINUOUS
 62
     3
 10
22297.21241258513
 20
19355.490211000011
 30
0.0
 11
22297.21241258513
 21
19330.480973999998
 31
0.0
  0
LINE
  5
13119
  8
2-0
  6
CONTINUOUS
 62
     3
 10
22297.21241258513
 20
19330.480973999998
 30
0.0
 11
22279.210670585111
 21
19330.480973999998
 31
0.0
  0
LINE
  5
1311A
  8
2-0
  6
CONTINUOUS
 62
     3
 10
22279.210670585111
 20
19330.480973999998
 30
0.0
 11
22279.210670585111
 21
19360.484537000018
 31
0.0
  0
LINE
  5
1311B
  8
2-0
  6
CONTINUOUS
 62
     3
 10
22289.50812658514
 20
19360.484537000018
 30
0.0
 11
22404.510237585138
 21
19360.484537000018
 31
0.0
  0
LINE
  5
1311C
  8
2-0
  6
CONTINUOUS
 62
     3
 10
22289.50812658514
 20
19330.480973999998
 30
0.0
 11
22289.50812658514
 21
19360.484537000018
 31
0.0
  0
LINE
  5
1311D
  8
2-0
  6
CONTINUOUS
 62
     3
 10
22295.510026585151
 20
19330.480973999998
 30
0.0
 11
22289.50812658514
 21
19330.480973999998
 31
0.0
  0
LINE
  5
1311E
  8
2-0
  6
CONTINUOUS
 62
     3
 10
22392.508416585129
 20
18894.887645499952
 30
0.0
 11
22399.509973585129
 21
18894.887645499952
 31
0.0
  0
LINE
  5
1311F
  8
2-0
  6
CONTINUOUS
 62
     3
 10
22399.509973585129
 20
18894.887645499952
 30
0.0
 11
22399.509973585129
 21
18899.88790949999
 31
0.0
  0
LINE
  5
13120
  8
2-0
  6
CONTINUOUS
 62
     3
 10
22399.509973585129
 20
18899.88790949999
 30
0.0
 11
22374.512613585131
 21
18899.88790949999
 31
0.0
  0
LINE
  5
13121
  8
2-0
  6
CONTINUOUS
 62
     3
 10
22374.512613585131
 20
18899.88790949999
 30
0.0
 11
22374.512613585131
 21
18881.892105499999
 31
0.0
  0
LINE
  5
13122
  8
2-0
  6
CONTINUOUS
 62
     3
 10
22374.512613585131
 20
18881.892105499999
 30
0.0
 11
22404.510237585138
 21
18881.892105499999
 31
0.0
  0
LINE
  5
13123
  8
2-0
  6
CONTINUOUS
 62
     3
 10
22374.512613585131
 20
18897.983612499978
 30
0.0
 11
22374.512613585131
 21
18891.985671499999
 31
0.0
  0
LINE
  5
13124
  8
2-0
  6
CONTINUOUS
 62
     3
 10
22374.512613585131
 20
18891.985671499999
 30
0.0
 11
22404.510237585138
 21
18891.985671499999
 31
0.0
  0
LINE
  5
13125
  8
2-0
  6
CONTINUOUS
 62
     3
 10
22404.510237585138
 20
18891.985671499999
 30
0.0
 11
22404.510237585138
 21
18928.986832499999
 31
0.0
  0
LINE
  5
13126
  8
2-0
  6
CONTINUOUS
 62
     3
 10
22374.512613585131
 20
18928.986832499999
 30
0.0
 11
22404.510237585138
 21
18928.986832499999
 31
0.0
  0
LINE
  5
13127
  8
2-0
  6
CONTINUOUS
 62
     3
 10
22374.512613585131
 20
18922.982952499991
 30
0.0
 11
22374.512613585131
 21
18928.986832499999
 31
0.0
  0
LINE
  5
13128
  8
2-0
  6
CONTINUOUS
 62
     3
 10
22374.512613585131
 20
18939.082377499992
 30
0.0
 11
22404.510237585138
 21
18939.082377499992
 31
0.0
  0
LINE
  5
13129
  8
2-0
  6
CONTINUOUS
 62
     3
 10
22374.512613585131
 20
18921.080635499999
 30
0.0
 11
22374.512613585131
 21
18939.082377499992
 31
0.0
  0
LINE
  5
1312A
  8
2-0
  6
CONTINUOUS
 62
     3
 10
22399.509973585129
 20
18921.080635499999
 30
0.0
 11
22374.512613585131
 21
18921.080635499999
 31
0.0
  0
LINE
  5
1312B
  8
2-0
  6
CONTINUOUS
 62
     3
 10
22399.509973585129
 20
18926.08089949999
 30
0.0
 11
22399.509973585129
 21
18921.080635499999
 31
0.0
  0
LINE
  5
1312C
  8
2-0
  6
CONTINUOUS
 62
     3
 10
22392.508416585129
 20
18926.08089949999
 30
0.0
 11
22399.509973585129
 21
18926.08089949999
 31
0.0
  0
LINE
  5
1312D
  8
2-0
  6
CONTINUOUS
 62
     3
 10
22392.508416585129
 20
18193.886655999999
 30
0.0
 11
22399.509973585129
 21
18193.886655999999
 31
0.0
  0
LINE
  5
1312E
  8
2-0
  6
CONTINUOUS
 62
     3
 10
22399.509973585129
 20
18193.886655999999
 30
0.0
 11
22399.509973585129
 21
18198.892857999988
 31
0.0
  0
LINE
  5
1312F
  8
2-0
  6
CONTINUOUS
 62
     3
 10
22399.509973585129
 20
18198.892857999988
 30
0.0
 11
22374.512613585131
 21
18198.892857999988
 31
0.0
  0
LINE
  5
13130
  8
2-0
  6
CONTINUOUS
 62
     3
 10
22374.512613585131
 20
18198.892857999988
 30
0.0
 11
22374.512613585131
 21
18180.891115999999
 31
0.0
  0
LINE
  5
13131
  8
2-0
  6
CONTINUOUS
 62
     3
 10
22374.512613585131
 20
18180.891115999999
 30
0.0
 11
22404.510237585138
 21
18180.891115999999
 31
0.0
  0
LINE
  5
13132
  8
2-0
  6
CONTINUOUS
 62
     3
 10
22374.512613585131
 20
18196.982622999989
 30
0.0
 11
22374.512613585131
 21
18190.986660999981
 31
0.0
  0
LINE
  5
13133
  8
2-0
  6
CONTINUOUS
 62
     3
 10
22374.512613585131
 20
18190.986660999981
 30
0.0
 11
22404.510237585138
 21
18190.986660999981
 31
0.0
  0
LINE
  5
13134
  8
2-0
  6
CONTINUOUS
 62
     3
 10
22404.510237585138
 20
18190.986660999981
 30
0.0
 11
22404.510237585138
 21
18227.985842999999
 31
0.0
  0
LINE
  5
13135
  8
2-0
  6
CONTINUOUS
 62
     3
 10
22374.512613585131
 20
18227.985842999999
 30
0.0
 11
22404.510237585138
 21
18227.985842999999
 31
0.0
  0
LINE
  5
13136
  8
2-0
  6
CONTINUOUS
 62
     3
 10
22374.512613585131
 20
18221.989881000009
 30
0.0
 11
22374.512613585131
 21
18227.985842999999
 31
0.0
  0
LINE
  5
13137
  8
2-0
  6
CONTINUOUS
 62
     3
 10
22374.512613585131
 20
18238.081387999999
 30
0.0
 11
22404.510237585138
 21
18238.081387999999
 31
0.0
  0
LINE
  5
13138
  8
2-0
  6
CONTINUOUS
 62
     3
 10
22374.512613585131
 20
18220.079645999998
 30
0.0
 11
22374.512613585131
 21
18238.081387999999
 31
0.0
  0
LINE
  5
13139
  8
2-0
  6
CONTINUOUS
 62
     3
 10
22399.509973585129
 20
18220.079645999998
 30
0.0
 11
22374.512613585131
 21
18220.079645999998
 31
0.0
  0
LINE
  5
1313A
  8
2-0
  6
CONTINUOUS
 62
     3
 10
22399.509973585129
 20
18225.085847999981
 30
0.0
 11
22399.509973585129
 21
18220.079645999998
 31
0.0
  0
LINE
  5
1313B
  8
2-0
  6
CONTINUOUS
 62
     3
 10
22392.508416585129
 20
18225.085847999981
 30
0.0
 11
22399.509973585129
 21
18225.085847999981
 31
0.0
  0
LINE
  5
1313C
  8
2-0
  6
CONTINUOUS
 62
     3
 10
22392.508416585129
 20
17524.07991
 30
0.0
 11
22399.509973585129
 21
17524.07991
 31
0.0
  0
LINE
  5
1313D
  8
2-0
  6
CONTINUOUS
 62
     3
 10
22399.509973585129
 20
17524.07991
 30
0.0
 11
22399.509973585129
 21
17519.091522999999
 31
0.0
  0
LINE
  5
1313E
  8
2-0
  6
CONTINUOUS
 62
     3
 10
22399.509973585129
 20
17519.091522999999
 30
0.0
 11
22374.512613585131
 21
17519.091522999999
 31
0.0
  0
LINE
  5
1313F
  8
2-0
  6
CONTINUOUS
 62
     3
 10
22374.512613585131
 20
17519.091522999999
 30
0.0
 11
22374.512613585131
 21
17537.08732599999
 31
0.0
  0
LINE
  5
13140
  8
2-0
  6
CONTINUOUS
 62
     3
 10
22374.512613585131
 20
17537.08732599999
 30
0.0
 11
22404.510237585138
 21
17537.08732599999
 31
0.0
  0
LINE
  5
13141
  8
2-0
  6
CONTINUOUS
 62
     3
 10
22374.512613585131
 20
17520.989881000001
 30
0.0
 11
22374.512613585131
 21
17526.985842999991
 31
0.0
  0
LINE
  5
13142
  8
2-0
  6
CONTINUOUS
 62
     3
 10
22374.512613585131
 20
17526.985842999991
 30
0.0
 11
22404.510237585138
 21
17526.985842999991
 31
0.0
  0
LINE
  5
13143
  8
2-0
  6
CONTINUOUS
 62
     3
 10
22404.510237585138
 20
17526.985842999991
 30
0.0
 11
22404.510237585138
 21
17489.986660999999
 31
0.0
  0
LINE
  5
13144
  8
2-0
  6
CONTINUOUS
 62
     3
 10
22374.512613585131
 20
17489.986660999999
 30
0.0
 11
22404.510237585138
 21
17489.986660999999
 31
0.0
  0
LINE
  5
13145
  8
2-0
  6
CONTINUOUS
 62
     3
 10
22374.512613585131
 20
17495.98856199998
 30
0.0
 11
22374.512613585131
 21
17489.986660999999
 31
0.0
  0
LINE
  5
13146
  8
2-0
  6
CONTINUOUS
 62
     3
 10
22374.512613585131
 20
17479.897055000001
 30
0.0
 11
22404.510237585138
 21
17479.897055000001
 31
0.0
  0
LINE
  5
13147
  8
2-0
  6
CONTINUOUS
 62
     3
 10
22374.512613585131
 20
17497.892857999999
 30
0.0
 11
22374.512613585131
 21
17479.897055000001
 31
0.0
  0
LINE
  5
13148
  8
2-0
  6
CONTINUOUS
 62
     3
 10
22399.509973585129
 20
17497.892857999999
 30
0.0
 11
22374.512613585131
 21
17497.892857999999
 31
0.0
  0
LINE
  5
13149
  8
2-0
  6
CONTINUOUS
 62
     3
 10
22399.509973585129
 20
17492.892595000008
 30
0.0
 11
22399.509973585129
 21
17497.892857999999
 31
0.0
  0
LINE
  5
1314A
  8
2-0
  6
CONTINUOUS
 62
     3
 10
22392.508416585129
 20
17492.892595000008
 30
0.0
 11
22399.509973585129
 21
17492.892595000008
 31
0.0
  0
LINE
  5
1314B
  8
2-0
  6
CONTINUOUS
 62
     3
 10
22401.62409958514
 20
16772.983480999988
 30
0.0
 11
22401.62409958514
 21
16792.984536
 31
0.0
  0
LINE
  5
1314C
  8
2-0
  6
CONTINUOUS
 62
     3
 10
22401.62409958514
 20
16792.984536
 30
0.0
 11
22316.62753058512
 21
16792.984536
 31
0.0
  0
LINE
  5
1314D
  8
2-0
  6
CONTINUOUS
 62
     3
 10
22392.508416585129
 20
16819.591246
 30
0.0
 11
22399.509973585129
 21
16819.591246
 31
0.0
  0
LINE
  5
1314E
  8
2-0
  6
CONTINUOUS
 62
     3
 10
22399.509973585129
 20
16819.591246
 30
0.0
 11
22399.509973585129
 21
16814.59692
 31
0.0
  0
LINE
  5
1314F
  8
2-0
  6
CONTINUOUS
 62
     3
 10
22399.509973585129
 20
16814.59692
 30
0.0
 11
22374.512613585131
 21
16814.59692
 31
0.0
  0
LINE
  5
13150
  8
2-0
  6
CONTINUOUS
 62
     3
 10
22374.512613585131
 20
16814.59692
 30
0.0
 11
22374.512613585131
 21
16832.592723999998
 31
0.0
  0
LINE
  5
13151
  8
2-0
  6
CONTINUOUS
 62
     3
 10
22374.512613585131
 20
16832.592723999998
 30
0.0
 11
22404.510237585138
 21
16832.592723999998
 31
0.0
  0
LINE
  5
13152
  8
2-0
  6
CONTINUOUS
 62
     3
 10
22374.512613585131
 20
16822.98413999999
 30
0.0
 11
22374.512613585131
 21
16816.98223999999
 31
0.0
  0
LINE
  5
13153
  8
2-0
  6
CONTINUOUS
 62
     3
 10
22404.510237585138
 20
16822.98413999999
 30
0.0
 11
22374.512613585131
 21
16822.98413999999
 31
0.0
  0
LINE
  5
13154
  8
2-0
  6
CONTINUOUS
 62
     3
 10
22404.510237585138
 20
16832.592723999998
 30
0.0
 11
22404.510237585138
 21
17479.897055000001
 31
0.0
  0
LINE
  5
13155
  8
2-0
  6
CONTINUOUS
 62
     3
 10
22404.510237585138
 20
17537.08732599999
 30
0.0
 11
22404.510237585138
 21
18180.891115999999
 31
0.0
  0
LINE
  5
13156
  8
2-0
  6
CONTINUOUS
 62
     3
 10
22404.510237585138
 20
16677.982424999998
 30
0.0
 11
22374.512613585131
 21
16677.982424999998
 31
0.0
  0
LINE
  5
13157
  8
2-0
  6
CONTINUOUS
 62
     3
 10
22374.512613585131
 20
16677.982424999998
 30
0.0
 11
22374.512613585131
 21
16683.98432499999
 31
0.0
  0
LINE
  5
13158
  8
2-0
  6
CONTINUOUS
 62
     3
 10
22316.62753058512
 20
16707.987968000001
 30
0.0
 11
22401.62409958514
 21
16707.987968000001
 31
0.0
  0
LINE
  5
13159
  8
2-0
  6
CONTINUOUS
 62
     3
 10
22401.62409958514
 20
16707.987968000001
 30
0.0
 11
22401.62409958514
 21
16727.983085
 31
0.0
  0
LINE
  5
1315A
  8
2-0
  6
CONTINUOUS
 62
     3
 10
22374.512613585131
 20
16668.373842000012
 30
0.0
 11
22404.510237585138
 21
16668.373842000012
 31
0.0
  0
LINE
  5
1315B
  8
2-0
  6
CONTINUOUS
 62
     3
 10
22374.512613585131
 20
16686.369644999992
 30
0.0
 11
22374.512613585131
 21
16668.373842000012
 31
0.0
  0
LINE
  5
1315C
  8
2-0
  6
CONTINUOUS
 62
     3
 10
22399.509973585129
 20
16686.369644999992
 30
0.0
 11
22374.512613585131
 21
16686.369644999992
 31
0.0
  0
LINE
  5
1315D
  8
2-0
  6
CONTINUOUS
 62
     3
 10
22399.509973585129
 20
16681.36938099999
 30
0.0
 11
22399.509973585129
 21
16686.369644999992
 31
0.0
  0
LINE
  5
1315E
  8
2-0
  6
CONTINUOUS
 62
     3
 10
22392.508416585129
 20
16681.36938099999
 30
0.0
 11
22399.509973585129
 21
16681.36938099999
 31
0.0
  0
LINE
  5
1315F
  8
2-0
  6
CONTINUOUS
 62
     3
 10
22392.508416585129
 20
15976.887150499981
 30
0.0
 11
22399.509973585129
 21
15976.887150499981
 31
0.0
  0
LINE
  5
13160
  8
2-0
  6
CONTINUOUS
 62
     3
 10
22399.509973585129
 20
15976.887150499981
 30
0.0
 11
22399.509973585129
 21
15981.887414499981
 31
0.0
  0
LINE
  5
13161
  8
2-0
  6
CONTINUOUS
 62
     3
 10
22399.509973585129
 20
15981.887414499981
 30
0.0
 11
22374.512613585131
 21
15981.887414499981
 31
0.0
  0
LINE
  5
13162
  8
2-0
  6
CONTINUOUS
 62
     3
 10
22374.512613585131
 20
15981.887414499981
 30
0.0
 11
22374.512613585131
 21
15963.88567249999
 31
0.0
  0
LINE
  5
13163
  8
2-0
  6
CONTINUOUS
 62
     3
 10
22374.512613585131
 20
15963.88567249999
 30
0.0
 11
22404.510237585138
 21
15963.88567249999
 31
0.0
  0
LINE
  5
13164
  8
2-0
  6
CONTINUOUS
 62
     3
 10
22374.512613585131
 20
15979.983117499991
 30
0.0
 11
22374.512613585131
 21
15973.98616649999
 31
0.0
  0
LINE
  5
13165
  8
2-0
  6
CONTINUOUS
 62
     3
 10
22374.512613585131
 20
15973.98616649999
 30
0.0
 11
22404.510237585138
 21
15973.98616649999
 31
0.0
  0
LINE
  5
13166
  8
2-0
  6
CONTINUOUS
 62
     3
 10
22404.510237585138
 20
15973.98616649999
 30
0.0
 11
22404.510237585138
 21
16010.9863375
 31
0.0
  0
LINE
  5
13167
  8
2-0
  6
CONTINUOUS
 62
     3
 10
22374.512613585131
 20
16010.9863375
 30
0.0
 11
22404.510237585138
 21
16010.9863375
 31
0.0
  0
LINE
  5
13168
  8
2-0
  6
CONTINUOUS
 62
     3
 10
22374.512613585131
 20
16004.98344749999
 30
0.0
 11
22374.512613585131
 21
16010.9863375
 31
0.0
  0
LINE
  5
13169
  8
2-0
  6
CONTINUOUS
 62
     3
 10
22374.512613585131
 20
16021.081882500001
 30
0.0
 11
22404.510237585138
 21
16021.081882500001
 31
0.0
  0
LINE
  5
1316A
  8
2-0
  6
CONTINUOUS
 62
     3
 10
22374.512613585131
 20
16003.074201499991
 30
0.0
 11
22374.512613585131
 21
16021.081882500001
 31
0.0
  0
LINE
  5
1316B
  8
2-0
  6
CONTINUOUS
 62
     3
 10
22399.509973585129
 20
16003.074201499991
 30
0.0
 11
22374.512613585131
 21
16003.074201499991
 31
0.0
  0
LINE
  5
1316C
  8
2-0
  6
CONTINUOUS
 62
     3
 10
22399.509973585129
 20
16008.0804045
 30
0.0
 11
22399.509973585129
 21
16003.074201499991
 31
0.0
  0
LINE
  5
1316D
  8
2-0
  6
CONTINUOUS
 62
     3
 10
22392.508416585129
 20
16008.0804045
 30
0.0
 11
22399.509973585129
 21
16008.0804045
 31
0.0
  0
LINE
  5
1316E
  8
2-0
  6
CONTINUOUS
 62
     3
 10
22392.508416585129
 20
15307.320421000009
 30
0.0
 11
22399.509973585129
 21
15307.320421000009
 31
0.0
  0
LINE
  5
1316F
  8
2-0
  6
CONTINUOUS
 62
     3
 10
22399.509973585129
 20
15307.320421000009
 30
0.0
 11
22399.509973585129
 21
15302.326096000001
 31
0.0
  0
LINE
  5
13170
  8
2-0
  6
CONTINUOUS
 62
     3
 10
22399.509973585129
 20
15302.326096000001
 30
0.0
 11
22374.512613585131
 21
15302.326096000001
 31
0.0
  0
LINE
  5
13171
  8
2-0
  6
CONTINUOUS
 62
     3
 10
22374.512613585131
 20
15302.326096000001
 30
0.0
 11
22374.512613585131
 21
15320.321899
 31
0.0
  0
LINE
  5
13172
  8
2-0
  6
CONTINUOUS
 62
     3
 10
22374.512613585131
 20
15320.321899
 30
0.0
 11
22404.510237585138
 21
15320.321899
 31
0.0
  0
LINE
  5
13173
  8
2-0
  6
CONTINUOUS
 62
     3
 10
22374.512613585131
 20
15304.22445400001
 30
0.0
 11
22374.512613585131
 21
15310.226354000009
 31
0.0
  0
LINE
  5
13174
  8
2-0
  6
CONTINUOUS
 62
     3
 10
22374.512613585131
 20
15310.226354000009
 30
0.0
 11
22404.510237585138
 21
15310.226354000009
 31
0.0
  0
LINE
  5
13175
  8
2-0
  6
CONTINUOUS
 62
     3
 10
22404.510237585138
 20
15273.22717300001
 30
0.0
 11
22404.510237585138
 21
15310.226354000009
 31
0.0
  0
LINE
  5
13176
  8
2-0
  6
CONTINUOUS
 62
     3
 10
22374.512613585131
 20
15273.22717300001
 30
0.0
 11
22404.510237585138
 21
15273.22717300001
 31
0.0
  0
LINE
  5
13177
  8
2-0
  6
CONTINUOUS
 62
     3
 10
22374.512613585131
 20
15279.224123999989
 30
0.0
 11
22374.512613585131
 21
15273.22717300001
 31
0.0
  0
LINE
  5
13178
  8
2-0
  6
CONTINUOUS
 62
     3
 10
22374.512613585131
 20
15263.12568900001
 30
0.0
 11
22404.510237585138
 21
15263.12568900001
 31
0.0
  0
LINE
  5
13179
  8
2-0
  6
CONTINUOUS
 62
     3
 10
22374.512613585131
 20
15281.13337
 30
0.0
 11
22374.512613585131
 21
15263.12568900001
 31
0.0
  0
LINE
  5
1317A
  8
2-0
  6
CONTINUOUS
 62
     3
 10
22399.509973585129
 20
15281.13337
 30
0.0
 11
22374.512613585131
 21
15281.13337
 31
0.0
  0
LINE
  5
1317B
  8
2-0
  6
CONTINUOUS
 62
     3
 10
22399.509973585129
 20
15276.13310600001
 30
0.0
 11
22399.509973585129
 21
15281.13337
 31
0.0
  0
LINE
  5
1317C
  8
2-0
  6
CONTINUOUS
 62
     3
 10
22392.508416585129
 20
15276.13310600001
 30
0.0
 11
22399.509973585129
 21
15276.13310600001
 31
0.0
  0
LINE
  5
1317D
  8
2-0
  6
CONTINUOUS
 62
     3
 10
22404.510237585138
 20
16668.373842000012
 30
0.0
 11
22404.510237585138
 21
16021.081882500001
 31
0.0
  0
LINE
  5
1317E
  8
2-0
  6
CONTINUOUS
 62
     3
 10
22404.510237585138
 20
16822.98413999999
 30
0.0
 11
22404.510237585138
 21
16677.982424999998
 31
0.0
  0
LINE
  5
1317F
  8
2-0
  6
CONTINUOUS
 62
     3
 10
22316.62753058512
 20
16792.984536
 30
0.0
 11
22316.62753058512
 21
16707.987968000001
 31
0.0
  0
LINE
  5
13180
  8
2-0
  6
CONTINUOUS
 62
     6
 10
21378.10504358515
 20
18561.431801499992
 30
0.0
 11
20353.072711585159
 21
18561.431801499992
 31
0.0
  0
LINE
  5
13181
  8
2-0
  6
CONTINUOUS
 62
     3
 10
22392.508416585129
 20
14574.892099000001
 30
0.0
 11
22399.509973585129
 21
14574.892099000001
 31
0.0
  0
LINE
  5
13182
  8
2-0
  6
CONTINUOUS
 62
     3
 10
22399.509973585129
 20
14574.892099000001
 30
0.0
 11
22399.509973585129
 21
14579.886425000001
 31
0.0
  0
LINE
  5
13183
  8
2-0
  6
CONTINUOUS
 62
     3
 10
22399.509973585129
 20
14579.886425000001
 30
0.0
 11
22374.512613585131
 21
14579.886425000001
 31
0.0
  0
LINE
  5
13184
  8
2-0
  6
CONTINUOUS
 62
     3
 10
22374.512613585131
 20
14579.886425000001
 30
0.0
 11
22374.512613585131
 21
14561.890621
 31
0.0
  0
LINE
  5
13185
  8
2-0
  6
CONTINUOUS
 62
     3
 10
22374.512613585131
 20
14561.890621
 30
0.0
 11
22404.510237585138
 21
14561.890621
 31
0.0
  0
LINE
  5
13186
  8
2-0
  6
CONTINUOUS
 62
     3
 10
22374.512613585131
 20
14577.989056000009
 30
0.0
 11
22374.512613585131
 21
14571.986166000001
 31
0.0
  0
LINE
  5
13187
  8
2-0
  6
CONTINUOUS
 62
     3
 10
22374.512613585131
 20
14571.986166000001
 30
0.0
 11
22404.510237585138
 21
14571.986166000001
 31
0.0
  0
LINE
  5
13188
  8
2-0
  6
CONTINUOUS
 62
     3
 10
22404.510237585138
 20
14571.986166000001
 30
0.0
 11
22404.510237585138
 21
14608.986337999981
 31
0.0
  0
LINE
  5
13189
  8
2-0
  6
CONTINUOUS
 62
     3
 10
22374.512613585131
 20
14608.986337999981
 30
0.0
 11
22404.510237585138
 21
14608.986337999981
 31
0.0
  0
LINE
  5
1318A
  8
2-0
  6
CONTINUOUS
 62
     3
 10
22374.512613585131
 20
14602.98938599999
 30
0.0
 11
22374.512613585131
 21
14608.986337999981
 31
0.0
  0
LINE
  5
1318B
  8
2-0
  6
CONTINUOUS
 62
     3
 10
22374.512613585131
 20
14619.086831000001
 30
0.0
 11
22404.510237585138
 21
14619.086831000001
 31
0.0
  0
LINE
  5
1318C
  8
2-0
  6
CONTINUOUS
 62
     3
 10
22374.512613585131
 20
14601.080140000009
 30
0.0
 11
22374.512613585131
 21
14619.086831000001
 31
0.0
  0
LINE
  5
1318D
  8
2-0
  6
CONTINUOUS
 62
     3
 10
22399.509973585129
 20
14601.080140000009
 30
0.0
 11
22374.512613585131
 21
14601.080140000009
 31
0.0
  0
LINE
  5
1318E
  8
2-0
  6
CONTINUOUS
 62
     3
 10
22399.509973585129
 20
14606.085353000009
 30
0.0
 11
22399.509973585129
 21
14601.080140000009
 31
0.0
  0
LINE
  5
1318F
  8
2-0
  6
CONTINUOUS
 62
     3
 10
22392.508416585129
 20
14606.085353000009
 30
0.0
 11
22399.509973585129
 21
14606.085353000009
 31
0.0
  0
LINE
  5
13190
  8
2-0
  6
CONTINUOUS
 62
     3
 10
22374.512613585131
 20
14249.488178999991
 30
0.0
 11
22374.512613585131
 21
14255.493048
 31
0.0
  0
LINE
  5
13191
  8
2-0
  6
CONTINUOUS
 62
     3
 10
22374.512613585131
 20
14255.493048
 30
0.0
 11
22404.510237585138
 21
14255.493048
 31
0.0
  0
LINE
  5
13192
  8
2-0
  6
CONTINUOUS
 62
     3
 10
22404.510237585138
 20
14255.493048
 30
0.0
 11
22404.510237585138
 21
14140.48895699999
 31
0.0
  0
LINE
  5
13193
  8
2-0
  6
CONTINUOUS
 62
     3
 10
22404.510237585138
 20
14140.48895699999
 30
0.0
 11
22319.511689585139
 21
14140.48895699999
 31
0.0
  0
LINE
  5
13194
  8
2-0
  6
CONTINUOUS
 62
     3
 10
22319.511689585139
 20
14140.48895699999
 30
0.0
 11
22319.511689585139
 21
14225.484536
 31
0.0
  0
LINE
  5
13195
  8
2-0
  6
CONTINUOUS
 62
     3
 10
22319.511689585139
 20
14225.484536
 30
0.0
 11
22351.51060758514
 21
14225.484536
 31
0.0
  0
LINE
  5
13196
  8
2-0
  6
CONTINUOUS
 62
     3
 10
22392.508416585129
 20
14252.522780999991
 30
0.0
 11
22399.509973585129
 21
14252.522780999991
 31
0.0
  0
LINE
  5
13197
  8
2-0
  6
CONTINUOUS
 62
     3
 10
22399.509973585129
 20
14252.522780999991
 30
0.0
 11
22399.509973585129
 21
14247.52548599998
 31
0.0
  0
LINE
  5
13198
  8
2-0
  6
CONTINUOUS
 62
     3
 10
22399.509973585129
 20
14247.52548599998
 30
0.0
 11
22374.512613585131
 21
14247.52548599998
 31
0.0
  0
LINE
  5
13199
  8
2-0
  6
CONTINUOUS
 62
     3
 10
22374.512613585131
 20
14247.52548599998
 30
0.0
 11
22374.512613585131
 21
14265.524259
 31
0.0
  0
LINE
  5
1319A
  8
2-0
  6
CONTINUOUS
 62
     3
 10
22374.512613585131
 20
14265.524259
 30
0.0
 11
22404.510237585138
 21
14265.524259
 31
0.0
  0
LINE
  5
1319B
  8
2-0
  6
CENTER2
 62
     6
 10
22362.011953585141
 20
13942.99139899999
 30
0.0
 11
22362.011953585141
 21
14748.36015700001
 31
0.0
  0
LINE
  5
1319C
  8
2-0
  6
CONTINUOUS
 62
     3
 10
22404.510237585138
 20
18238.081387999999
 30
0.0
 11
22404.510237585138
 21
18881.892105499999
 31
0.0
  0
LINE
  5
1319D
  8
2-0
  6
CONTINUOUS
 62
     6
 10
19059.508786585149
 20
20090.487440000019
 30
0.0
 11
17859.514724585169
 21
20090.487440000019
 31
0.0
  0
LINE
  5
1319E
  8
2-0
  6
CONTINUOUS
 62
     6
 10
19921.541619585169
 20
18803.586309499991
 30
0.0
 11
20353.072711585159
 21
18561.431801499992
 31
0.0
  0
LINE
  5
1319F
  8
2-0
  6
CONTINUOUS
 62
     6
 10
19599.972785585189
 20
19503.164277
 30
0.0
 11
19059.508786585149
 21
20090.487440000019
 31
0.0
  0
LINE
  5
131A0
  8
2-0
  6
CONTINUOUS
 62
     3
 10
22313.505830585131
 20
18166.984997999949
 30
0.0
 11
22360.511478585111
 21
18166.984997999949
 31
0.0
  0
LINE
  5
131A1
  8
2-0
  6
CONTINUOUS
 62
     3
 10
22360.511478585111
 20
18251.985526
 30
0.0
 11
22313.505830585131
 21
18251.985526
 31
0.0
  0
LINE
  5
131A2
  8
2-0
  6
CONTINUOUS
 62
     3
 10
22360.511478585111
 20
18166.984997999949
 30
0.0
 11
22360.511478585111
 21
18191.988296999989
 31
0.0
  0
LINE
  5
131A3
  8
2-0
  6
CONTINUOUS
 62
     3
 10
22360.511478585111
 20
18226.984206000008
 30
0.0
 11
22360.511478585111
 21
18251.985526
 31
0.0
  0
LINE
  5
131A4
  8
2-0
  6
CONTINUOUS
 62
     3
 10
22313.505830585131
 20
18251.985526
 30
0.0
 11
22313.505830585131
 21
18166.984997999949
 31
0.0
  0
LINE
  5
131A5
  8
2-0
  6
CONTINUOUS
 62
     3
 10
22404.510237585138
 20
15963.88567249999
 30
0.0
 11
22404.510237585138
 21
15320.321899
 31
0.0
  0
LINE
  5
131A6
  8
2-0
  6
CONTINUOUS
 62
     3
 10
22313.505830585131
 20
15248.98796800001
 30
0.0
 11
22360.511478585111
 21
15248.98796800001
 31
0.0
  0
LINE
  5
131A7
  8
2-0
  6
CONTINUOUS
 62
     3
 10
22360.511478585111
 20
15333.984535999991
 30
0.0
 11
22313.505830585131
 21
15333.984535999991
 31
0.0
  0
LINE
  5
131A8
  8
2-0
  6
CONTINUOUS
 62
     3
 10
22360.511478585111
 20
15248.98796800001
 30
0.0
 11
22360.511478585111
 21
15273.983349000009
 31
0.0
  0
LINE
  5
131A9
  8
2-0
  6
CONTINUOUS
 62
     3
 10
22360.511478585111
 20
15308.98321700001
 30
0.0
 11
22360.511478585111
 21
15333.984535999991
 31
0.0
  0
LINE
  5
131AA
  8
2-0
  6
CONTINUOUS
 62
     3
 10
22313.505830585131
 20
15333.984535999991
 30
0.0
 11
22313.505830585131
 21
15248.98796800001
 31
0.0
  0
LINE
  5
131AB
  8
2-0
  6
CONTINUOUS
 62
     6
 10
19934.598524585152
 20
18826.84565349999
 30
0.0
 11
19782.01129358515
 21
18881.892105499999
 31
0.0
  0
LINE
  5
131AC
  8
2-0
  6
CONTINUOUS
 62
     6
 10
19782.01129358515
 20
18881.892105499999
 30
0.0
 11
19908.492633585149
 21
18780.332905499949
 31
0.0
  0
LINE
  5
131AD
  8
2-0
  6
CONTINUOUS
 62
     6
 10
19934.598524585152
 20
18826.84565349999
 30
0.0
 11
19908.492633585149
 21
18780.332905499949
 31
0.0
  0
LINE
  5
131AE
  8
2-0
  6
CONTINUOUS
 62
     6
 10
19908.492633585149
 20
18780.332905499949
 30
0.0
 11
19782.01129358515
 21
18881.892105499999
 31
0.0
  0
LINE
  5
131AF
  8
2-0
  6
CONTINUOUS
 62
     6
 10
19782.01129358515
 20
18881.892105499999
 30
0.0
 11
19934.598524585152
 21
18826.84565349999
 31
0.0
  0
LINE
  5
131B0
  8
2-0
  6
CONTINUOUS
 62
     6
 10
19934.598524585152
 20
18826.84565349999
 30
0.0
 11
19782.01129358515
 21
18881.892105499999
 31
0.0
  0
LINE
  5
131B1
  8
2-0
  6
CONTINUOUS
 62
     6
 10
19908.492633585149
 20
18780.332905499949
 30
0.0
 11
19782.01129358515
 21
18881.892105499999
 31
0.0
  0
LINE
  5
131B2
  8
2-0
  6
CONTINUOUS
 62
     6
 10
19908.492633585149
 20
18780.332905499949
 30
0.0
 11
19934.598524585152
 21
18826.84565349999
 31
0.0
  0
LINE
  5
131B3
  8
2-0
  6
CONTINUOUS
 62
     6
 10
19580.355756585159
 20
19485.10315000001
 30
0.0
 11
19708.31777658514
 21
19385.420532000011
 31
0.0
  0
LINE
  5
131B4
  8
2-0
  6
CONTINUOUS
 62
     6
 10
19708.31777658514
 20
19385.420532000011
 30
0.0
 11
19619.603671585159
 21
19521.21748700002
 31
0.0
  0
LINE
  5
131B5
  8
2-0
  6
CONTINUOUS
 62
     6
 10
19580.355756585159
 20
19485.10315000001
 30
0.0
 11
19619.603671585159
 21
19521.21748700002
 31
0.0
  0
LINE
  5
131B6
  8
2-0
  6
CONTINUOUS
 62
     6
 10
19619.603671585159
 20
19521.21748700002
 30
0.0
 11
19708.31777658514
 21
19385.420532000011
 31
0.0
  0
LINE
  5
131B7
  8
2-0
  6
CONTINUOUS
 62
     6
 10
19708.31777658514
 20
19385.420532000011
 30
0.0
 11
19580.355756585159
 21
19485.10315000001
 31
0.0
  0
LINE
  5
131B8
  8
2-0
  6
CONTINUOUS
 62
     6
 10
19580.355756585159
 20
19485.10315000001
 30
0.0
 11
19708.31777658514
 21
19385.420532000011
 31
0.0
  0
LINE
  5
131B9
  8
2-0
  6
CONTINUOUS
 62
     6
 10
19619.603671585159
 20
19521.21748700002
 30
0.0
 11
19708.31777658514
 21
19385.420532000011
 31
0.0
  0
LINE
  5
131BA
  8
2-0
  6
CONTINUOUS
 62
     6
 10
19619.603671585159
 20
19521.21748700002
 30
0.0
 11
19580.355756585159
 21
19485.10315000001
 31
0.0
  0
LINE
  5
131BB
  8
2-0
  6
CONTINUOUS
 62
     6
 10
19998.33704358515
 20
15202.481158000001
 30
0.0
 11
19843.01807658514
 21
15249.22847900001
 31
0.0
  0
LINE
  5
131BC
  8
2-0
  6
CONTINUOUS
 62
     6
 10
19843.01807658514
 20
15249.22847900001
 30
0.0
 11
19974.778792585159
 21
15154.636194000021
 31
0.0
  0
LINE
  5
131BD
  8
2-0
  6
CONTINUOUS
 62
     6
 10
19998.33704358515
 20
15202.481158000001
 30
0.0
 11
19974.778792585159
 21
15154.636194000021
 31
0.0
  0
LINE
  5
131BE
  8
2-0
  6
CONTINUOUS
 62
     6
 10
19974.778792585159
 20
15154.636194000021
 30
0.0
 11
19843.01807658514
 21
15249.22847900001
 31
0.0
  0
LINE
  5
131BF
  8
2-0
  6
CONTINUOUS
 62
     6
 10
19843.01807658514
 20
15249.22847900001
 30
0.0
 11
19998.33704358515
 21
15202.481158000001
 31
0.0
  0
LINE
  5
131C0
  8
2-0
  6
CONTINUOUS
 62
     6
 10
19998.33704358515
 20
15202.481158000001
 30
0.0
 11
19843.01807658514
 21
15249.22847900001
 31
0.0
  0
LINE
  5
131C1
  8
2-0
  6
CONTINUOUS
 62
     6
 10
19974.778792585159
 20
15154.636194000021
 30
0.0
 11
19843.01807658514
 21
15249.22847900001
 31
0.0
  0
LINE
  5
131C2
  8
2-0
  6
CONTINUOUS
 62
     6
 10
19974.778792585159
 20
15154.636194000021
 30
0.0
 11
19998.33704358515
 21
15202.481158000001
 31
0.0
  0
LINE
  5
131C3
  8
2-0
  6
CONTINUOUS
 62
     6
 10
20028.651390585139
 20
14032.216218999991
 30
0.0
 11
19896.90453158514
 21
14126.843145999999
 31
0.0
  0
LINE
  5
131C4
  8
2-0
  6
CONTINUOUS
 62
     6
 10
19896.90453158514
 20
14126.843145999999
 30
0.0
 11
19990.834667585161
 21
13994.60437599999
 31
0.0
  0
LINE
  5
131C5
  8
2-0
  6
CONTINUOUS
 62
     6
 10
20028.651390585139
 20
14032.216218999991
 30
0.0
 11
19990.834667585161
 21
13994.60437599999
 31
0.0
  0
LINE
  5
131C6
  8
2-0
  6
CONTINUOUS
 62
     6
 10
19990.834667585161
 20
13994.60437599999
 30
0.0
 11
19896.90453158514
 21
14126.843145999999
 31
0.0
  0
LINE
  5
131C7
  8
2-0
  6
CONTINUOUS
 62
     6
 10
19896.90453158514
 20
14126.843145999999
 30
0.0
 11
20028.651390585139
 21
14032.216218999991
 31
0.0
  0
LINE
  5
131C8
  8
2-0
  6
CONTINUOUS
 62
     6
 10
20028.651390585139
 20
14032.216218999991
 30
0.0
 11
19896.90453158514
 21
14126.843145999999
 31
0.0
  0
LINE
  5
131C9
  8
2-0
  6
CONTINUOUS
 62
     6
 10
19990.834667585161
 20
13994.60437599999
 30
0.0
 11
19896.90453158514
 21
14126.843145999999
 31
0.0
  0
LINE
  5
131CA
  8
2-0
  6
CONTINUOUS
 62
     6
 10
19990.834667585161
 20
13994.60437599999
 30
0.0
 11
20028.651390585139
 21
14032.216218999991
 31
0.0
  0
LINE
  5
131CB
  8
2-0
  6
CONTINUOUS
 62
     6
 10
19965.615601585141
 20
14359.120845999991
 30
0.0
 11
19833.015569585172
 21
14265.692517999991
 31
0.0
  0
LINE
  5
131CC
  8
2-0
  6
CONTINUOUS
 62
     6
 10
19833.015569585172
 20
14265.692517999991
 30
0.0
 11
19988.748255585138
 21
14311.068031999999
 31
0.0
  0
LINE
  5
131CD
  8
2-0
  6
CONTINUOUS
 62
     6
 10
19965.615601585141
 20
14359.120845999991
 30
0.0
 11
19988.748255585138
 21
14311.068031999999
 31
0.0
  0
LINE
  5
131CE
  8
2-0
  6
CONTINUOUS
 62
     6
 10
19988.748255585138
 20
14311.068031999999
 30
0.0
 11
19833.015569585172
 21
14265.692517999991
 31
0.0
  0
LINE
  5
131CF
  8
2-0
  6
CONTINUOUS
 62
     6
 10
19833.015569585172
 20
14265.692517999991
 30
0.0
 11
19965.615601585141
 21
14359.120845999991
 31
0.0
  0
LINE
  5
131D0
  8
2-0
  6
CONTINUOUS
 62
     6
 10
19965.615601585141
 20
14359.120845999991
 30
0.0
 11
19833.015569585172
 21
14265.692517999991
 31
0.0
  0
LINE
  5
131D1
  8
2-0
  6
CONTINUOUS
 62
     6
 10
19988.748255585138
 20
14311.068031999999
 30
0.0
 11
19833.015569585172
 21
14265.692517999991
 31
0.0
  0
LINE
  5
131D2
  8
2-0
  6
CONTINUOUS
 62
     6
 10
19988.748255585138
 20
14311.068031999999
 30
0.0
 11
19965.615601585141
 21
14359.120845999991
 31
0.0
  0
LINE
  5
131D3
  8
2-0
  6
CONTINUOUS
 62
     6
 10
19905.851955585149
 20
16388.441779000019
 30
0.0
 11
19752.01366958514
 21
16439.875610000021
 31
0.0
  0
LINE
  5
131D4
  8
2-0
  6
CONTINUOUS
 62
     6
 10
19752.01366958514
 20
16439.875610000021
 30
0.0
 11
19880.84865658516
 21
16341.33517500002
 31
0.0
  0
LINE
  5
131D5
  8
2-0
  6
CONTINUOUS
 62
     6
 10
19905.851955585149
 20
16388.441779000019
 30
0.0
 11
19880.84865658516
 21
16341.33517500002
 31
0.0
  0
LINE
  5
131D6
  8
2-0
  6
CONTINUOUS
 62
     6
 10
19880.84865658516
 20
16341.33517500002
 30
0.0
 11
19752.01366958514
 21
16439.875610000021
 31
0.0
  0
LINE
  5
131D7
  8
2-0
  6
CONTINUOUS
 62
     6
 10
19752.01366958514
 20
16439.875610000021
 30
0.0
 11
19905.851955585149
 21
16388.441779000019
 31
0.0
  0
LINE
  5
131D8
  8
2-0
  6
CONTINUOUS
 62
     6
 10
19905.851955585149
 20
16388.441779000019
 30
0.0
 11
19752.01366958514
 21
16439.875610000021
 31
0.0
  0
LINE
  5
131D9
  8
2-0
  6
CONTINUOUS
 62
     6
 10
19880.84865658516
 20
16341.33517500002
 30
0.0
 11
19752.01366958514
 21
16439.875610000021
 31
0.0
  0
LINE
  5
131DA
  8
2-0
  6
CONTINUOUS
 62
     6
 10
19880.84865658516
 20
16341.33517500002
 30
0.0
 11
19905.851955585149
 21
16388.441779000019
 31
0.0
  0
LINE
  5
131DB
  8
2-0
  6
CONTINUOUS
 62
     6
 10
20039.788162585151
 20
16879.76027100001
 30
0.0
 11
19896.90453158514
 21
16802.984641999999
 31
0.0
  0
LINE
  5
131DC
  8
2-0
  6
CONTINUOUS
 62
     6
 10
19896.90453158514
 20
16802.984641999999
 30
0.0
 11
20056.966424585149
 21
16829.266711000018
 31
0.0
  0
LINE
  5
131DD
  8
2-0
  6
CONTINUOUS
 62
     6
 10
20039.788162585151
 20
16879.76027100001
 30
0.0
 11
20056.966424585149
 21
16829.266711000018
 31
0.0
  0
LINE
  5
131DE
  8
2-0
  6
CONTINUOUS
 62
     6
 10
20056.966424585149
 20
16829.266711000018
 30
0.0
 11
19896.90453158514
 21
16802.984641999999
 31
0.0
  0
LINE
  5
131DF
  8
2-0
  6
CONTINUOUS
 62
     6
 10
19896.90453158514
 20
16802.984641999999
 30
0.0
 11
20039.788162585151
 21
16879.76027100001
 31
0.0
  0
LINE
  5
131E0
  8
2-0
  6
CONTINUOUS
 62
     6
 10
20039.788162585151
 20
16879.76027100001
 30
0.0
 11
19896.90453158514
 21
16802.984641999999
 31
0.0
  0
LINE
  5
131E1
  8
2-0
  6
CONTINUOUS
 62
     6
 10
20056.966424585149
 20
16829.266711000018
 30
0.0
 11
19896.90453158514
 21
16802.984641999999
 31
0.0
  0
LINE
  5
131E2
  8
2-0
  6
CONTINUOUS
 62
     6
 10
20056.966424585149
 20
16829.266711000018
 30
0.0
 11
20039.788162585151
 21
16879.76027100001
 31
0.0
  0
LINE
  5
131E3
  8
2-0
  6
CONTINUOUS
 62
     6
 10
19998.33704358515
 20
18120.240645999998
 30
0.0
 11
19843.01807658514
 21
18166.984997999949
 31
0.0
  0
LINE
  5
131E4
  8
2-0
  6
CONTINUOUS
 62
     6
 10
19843.01807658514
 20
18166.984997999949
 30
0.0
 11
19974.778792585159
 21
18072.389743999989
 31
0.0
  0
LINE
  5
131E5
  8
2-0
  6
CONTINUOUS
 62
     6
 10
19998.33704358515
 20
18120.240645999998
 30
0.0
 11
19974.778792585159
 21
18072.389743999989
 31
0.0
  0
LINE
  5
131E6
  8
2-0
  6
CONTINUOUS
 62
     6
 10
19974.778792585159
 20
18072.389743999989
 30
0.0
 11
19843.01807658514
 21
18166.984997999949
 31
0.0
  0
LINE
  5
131E7
  8
2-0
  6
CONTINUOUS
 62
     6
 10
19843.01807658514
 20
18166.984997999949
 30
0.0
 11
19998.33704358515
 21
18120.240645999998
 31
0.0
  0
LINE
  5
131E8
  8
2-0
  6
CONTINUOUS
 62
     6
 10
19998.33704358515
 20
18120.240645999998
 30
0.0
 11
19843.01807658514
 21
18166.984997999949
 31
0.0
  0
LINE
  5
131E9
  8
2-0
  6
CONTINUOUS
 62
     6
 10
19974.778792585159
 20
18072.389743999989
 30
0.0
 11
19843.01807658514
 21
18166.984997999949
 31
0.0
  0
LINE
  5
131EA
  8
2-0
  6
CONTINUOUS
 62
     6
 10
19974.778792585159
 20
18072.389743999989
 30
0.0
 11
19998.33704358515
 21
18120.240645999998
 31
0.0
  0
LINE
  5
131EB
  8
2-0
  6
CONTINUOUS
 62
     3
 10
19782.013273585129
 20
19251.484325999991
 30
0.0
 11
19782.013273585129
 21
19245.488364000019
 31
0.0
  0
LINE
  5
131EC
  8
2-0
  6
CONTINUOUS
 62
     3
 10
19782.013273585129
 20
19245.488364000019
 30
0.0
 11
19752.015648585129
 21
19245.488364000019
 31
0.0
  0
LINE
  5
131ED
  8
2-0
  6
CONTINUOUS
 62
     3
 10
19752.015648585129
 20
19245.488364000019
 30
0.0
 11
19752.015648585129
 21
19360.484537000018
 31
0.0
  0
LINE
  5
131EE
  8
2-0
  6
CONTINUOUS
 62
     3
 10
19752.015648585129
 20
19275.487968000001
 30
0.0
 11
19833.013589585131
 21
19275.487968000001
 31
0.0
  0
LINE
  5
131EF
  8
2-0
  6
CONTINUOUS
 62
     3
 10
19782.013273585129
 20
19235.19090799999
 30
0.0
 11
19752.015648585129
 21
19235.19090799999
 31
0.0
  0
LINE
  5
131F0
  8
2-0
  6
CONTINUOUS
 62
     3
 10
19782.013273585129
 20
19253.192650000001
 30
0.0
 11
19782.013273585129
 21
19235.19090799999
 31
0.0
  0
LINE
  5
131F1
  8
2-0
  6
CONTINUOUS
 62
     3
 10
19757.019871585129
 20
19253.192650000001
 30
0.0
 11
19782.013273585129
 21
19253.192650000001
 31
0.0
  0
LINE
  5
131F2
  8
2-0
  6
CONTINUOUS
 62
     3
 10
19757.019871585129
 20
19248.184467999999
 30
0.0
 11
19757.019871585129
 21
19253.192650000001
 31
0.0
  0
LINE
  5
131F3
  8
2-0
  6
CONTINUOUS
 62
     3
 10
19764.01746958512
 20
19248.184467999999
 30
0.0
 11
19757.019871585129
 21
19248.184467999999
 31
0.0
  0
LINE
  5
131F4
  8
2-0
  6
CONTINUOUS
 62
     3
 10
19864.311758585129
 20
19348.484694999999
 30
0.0
 11
19864.311758585129
 21
19355.490211000011
 31
0.0
  0
LINE
  5
131F5
  8
2-0
  6
CONTINUOUS
 62
     3
 10
19864.311758585129
 20
19355.490211000011
 30
0.0
 11
19859.309514585118
 21
19355.490211000011
 31
0.0
  0
LINE
  5
131F6
  8
2-0
  6
CONTINUOUS
 62
     3
 10
19859.309514585118
 20
19355.490211000011
 30
0.0
 11
19859.309514585118
 21
19330.480973999998
 31
0.0
  0
LINE
  5
131F7
  8
2-0
  6
CONTINUOUS
 62
     3
 10
19859.309514585118
 20
19330.480973999998
 30
0.0
 11
19877.317195585121
 21
19330.480973999998
 31
0.0
  0
LINE
  5
131F8
  8
2-0
  6
CONTINUOUS
 62
     3
 10
19877.317195585121
 20
19330.480973999998
 30
0.0
 11
19877.317195585121
 21
19360.484537000018
 31
0.0
  0
LINE
  5
131F9
  8
2-0
  6
CONTINUOUS
 62
     3
 10
19867.017759585131
 20
19360.484537000018
 30
0.0
 11
19752.015648585129
 21
19360.484537000018
 31
0.0
  0
LINE
  5
131FA
  8
2-0
  6
CONTINUOUS
 62
     3
 10
19867.017759585131
 20
19330.480973999998
 30
0.0
 11
19867.017759585131
 21
19360.484537000018
 31
0.0
  0
LINE
  5
131FB
  8
2-0
  6
CONTINUOUS
 62
     3
 10
19861.013880585131
 20
19330.480973999998
 30
0.0
 11
19867.017759585131
 21
19330.480973999998
 31
0.0
  0
LINE
  5
131FC
  8
2-0
  6
CONTINUOUS
 62
     3
 10
19782.013273585129
 20
19251.484325999991
 30
0.0
 11
19782.013273585129
 21
19245.488364000019
 31
0.0
  0
LINE
  5
131FD
  8
2-0
  6
CONTINUOUS
 62
     3
 10
19782.013273585129
 20
19245.488364000019
 30
0.0
 11
19752.015648585129
 21
19245.488364000019
 31
0.0
  0
LINE
  5
131FE
  8
2-0
  6
CONTINUOUS
 62
     3
 10
19752.015648585129
 20
19245.488364000019
 30
0.0
 11
19752.015648585129
 21
19360.484537000018
 31
0.0
  0
LINE
  5
131FF
  8
2-0
  6
CONTINUOUS
 62
     3
 10
19752.015648585129
 20
19275.487968000001
 30
0.0
 11
19833.013589585131
 21
19275.487968000001
 31
0.0
  0
LINE
  5
13200
  8
2-0
  6
CONTINUOUS
 62
     3
 10
19782.013273585129
 20
19235.19090799999
 30
0.0
 11
19752.015648585129
 21
19235.19090799999
 31
0.0
  0
LINE
  5
13201
  8
2-0
  6
CONTINUOUS
 62
     3
 10
19782.013273585129
 20
19253.192650000001
 30
0.0
 11
19782.013273585129
 21
19235.19090799999
 31
0.0
  0
LINE
  5
13202
  8
2-0
  6
CONTINUOUS
 62
     3
 10
19757.019871585129
 20
19253.192650000001
 30
0.0
 11
19782.013273585129
 21
19253.192650000001
 31
0.0
  0
LINE
  5
13203
  8
2-0
  6
CONTINUOUS
 62
     3
 10
19757.019871585129
 20
19248.184467999999
 30
0.0
 11
19757.019871585129
 21
19253.192650000001
 31
0.0
  0
LINE
  5
13204
  8
2-0
  6
CONTINUOUS
 62
     3
 10
19764.01746958512
 20
19248.184467999999
 30
0.0
 11
19757.019871585129
 21
19248.184467999999
 31
0.0
  0
LINE
  5
13205
  8
2-0
  6
CONTINUOUS
 62
     3
 10
19764.01746958512
 20
18894.887645499952
 30
0.0
 11
19757.019871585129
 21
18894.887645499952
 31
0.0
  0
LINE
  5
13206
  8
2-0
  6
CONTINUOUS
 62
     3
 10
19757.019871585129
 20
18894.887645499952
 30
0.0
 11
19757.019871585129
 21
18899.88790949999
 31
0.0
  0
LINE
  5
13207
  8
2-0
  6
CONTINUOUS
 62
     3
 10
19757.019871585129
 20
18899.88790949999
 30
0.0
 11
19782.013273585129
 21
18899.88790949999
 31
0.0
  0
LINE
  5
13208
  8
2-0
  6
CONTINUOUS
 62
     3
 10
19782.013273585129
 20
18899.88790949999
 30
0.0
 11
19782.013273585129
 21
18881.892105499981
 31
0.0
  0
LINE
  5
13209
  8
2-0
  6
CONTINUOUS
 62
     3
 10
19782.013273585129
 20
18881.892105499981
 30
0.0
 11
19752.015648585129
 21
18881.892105499981
 31
0.0
  0
LINE
  5
1320A
  8
2-0
  6
CONTINUOUS
 62
     3
 10
19782.013273585129
 20
18897.98361249996
 30
0.0
 11
19782.013273585129
 21
18891.985671499991
 31
0.0
  0
LINE
  5
1320B
  8
2-0
  6
CONTINUOUS
 62
     3
 10
19782.013273585129
 20
18891.985671499991
 30
0.0
 11
19752.015648585129
 21
18891.985671499991
 31
0.0
  0
LINE
  5
1320C
  8
2-0
  6
CONTINUOUS
 62
     3
 10
19752.015648585129
 20
18891.985671499991
 30
0.0
 11
19752.015648585129
 21
18928.986832499981
 31
0.0
  0
LINE
  5
1320D
  8
2-0
  6
CONTINUOUS
 62
     3
 10
19782.013273585129
 20
18928.986832499981
 30
0.0
 11
19752.015648585129
 21
18928.986832499981
 31
0.0
  0
LINE
  5
1320E
  8
2-0
  6
CONTINUOUS
 62
     3
 10
19782.013273585129
 20
18922.982952499991
 30
0.0
 11
19782.013273585129
 21
18928.986832499981
 31
0.0
  0
LINE
  5
1320F
  8
2-0
  6
CONTINUOUS
 62
     3
 10
19782.013273585129
 20
18939.082377499959
 30
0.0
 11
19752.015648585129
 21
18939.082377499959
 31
0.0
  0
LINE
  5
13210
  8
2-0
  6
CONTINUOUS
 62
     3
 10
19782.013273585129
 20
18921.080635499999
 30
0.0
 11
19782.013273585129
 21
18939.082377499959
 31
0.0
  0
LINE
  5
13211
  8
2-0
  6
CONTINUOUS
 62
     3
 10
19757.019871585129
 20
18921.080635499999
 30
0.0
 11
19782.013273585129
 21
18921.080635499999
 31
0.0
  0
LINE
  5
13212
  8
2-0
  6
CONTINUOUS
 62
     3
 10
19757.019871585129
 20
18926.08089949999
 30
0.0
 11
19757.019871585129
 21
18921.080635499999
 31
0.0
  0
LINE
  5
13213
  8
2-0
  6
CONTINUOUS
 62
     3
 10
19764.01746958512
 20
18926.08089949999
 30
0.0
 11
19757.019871585129
 21
18926.08089949999
 31
0.0
  0
LINE
  5
13214
  8
2-0
  6
CONTINUOUS
 62
     3
 10
19764.01746958512
 20
18193.886655999991
 30
0.0
 11
19757.019871585129
 21
18193.886655999991
 31
0.0
  0
LINE
  5
13215
  8
2-0
  6
CONTINUOUS
 62
     3
 10
19757.019871585129
 20
18193.886655999991
 30
0.0
 11
19757.019871585129
 21
18198.892857999959
 31
0.0
  0
LINE
  5
13216
  8
2-0
  6
CONTINUOUS
 62
     3
 10
19757.019871585129
 20
18198.892857999959
 30
0.0
 11
19782.013273585129
 21
18198.892857999959
 31
0.0
  0
LINE
  5
13217
  8
2-0
  6
CONTINUOUS
 62
     3
 10
19782.013273585129
 20
18198.892857999959
 30
0.0
 11
19782.013273585129
 21
18180.891115999999
 31
0.0
  0
LINE
  5
13218
  8
2-0
  6
CONTINUOUS
 62
     3
 10
19782.013273585129
 20
18180.891115999999
 30
0.0
 11
19752.015648585129
 21
18180.891115999999
 31
0.0
  0
LINE
  5
13219
  8
2-0
  6
CONTINUOUS
 62
     3
 10
19782.013273585129
 20
18196.98262299996
 30
0.0
 11
19782.013273585129
 21
18190.986660999981
 31
0.0
  0
LINE
  5
1321A
  8
2-0
  6
CONTINUOUS
 62
     3
 10
19782.013273585129
 20
18190.986660999981
 30
0.0
 11
19752.015648585129
 21
18190.986660999981
 31
0.0
  0
LINE
  5
1321B
  8
2-0
  6
CONTINUOUS
 62
     3
 10
19752.015648585129
 20
18190.986660999981
 30
0.0
 11
19752.015648585129
 21
18227.985842999991
 31
0.0
  0
LINE
  5
1321C
  8
2-0
  6
CONTINUOUS
 62
     3
 10
19782.013273585129
 20
18227.985842999991
 30
0.0
 11
19752.015648585129
 21
18227.985842999991
 31
0.0
  0
LINE
  5
1321D
  8
2-0
  6
CONTINUOUS
 62
     3
 10
19782.013273585129
 20
18221.98988099999
 30
0.0
 11
19782.013273585129
 21
18227.985842999991
 31
0.0
  0
LINE
  5
1321E
  8
2-0
  6
CONTINUOUS
 62
     3
 10
19782.013273585129
 20
18238.081387999999
 30
0.0
 11
19752.015648585129
 21
18238.081387999999
 31
0.0
  0
LINE
  5
1321F
  8
2-0
  6
CONTINUOUS
 62
     3
 10
19782.013273585129
 20
18220.079645999991
 30
0.0
 11
19782.013273585129
 21
18238.081387999999
 31
0.0
  0
LINE
  5
13220
  8
2-0
  6
CONTINUOUS
 62
     3
 10
19757.019871585129
 20
18220.079645999991
 30
0.0
 11
19782.013273585129
 21
18220.079645999991
 31
0.0
  0
LINE
  5
13221
  8
2-0
  6
CONTINUOUS
 62
     3
 10
19757.019871585129
 20
18225.085847999981
 30
0.0
 11
19757.019871585129
 21
18220.079645999991
 31
0.0
  0
LINE
  5
13222
  8
2-0
  6
CONTINUOUS
 62
     3
 10
19764.01746958512
 20
18225.085847999981
 30
0.0
 11
19757.019871585129
 21
18225.085847999981
 31
0.0
  0
LINE
  5
13223
  8
2-0
  6
CONTINUOUS
 62
     3
 10
19764.01746958512
 20
17524.079909999989
 30
0.0
 11
19757.019871585129
 21
17524.079909999989
 31
0.0
  0
LINE
  5
13224
  8
2-0
  6
CONTINUOUS
 62
     3
 10
19757.019871585129
 20
17524.079909999989
 30
0.0
 11
19757.019871585129
 21
17519.091522999988
 31
0.0
  0
LINE
  5
13225
  8
2-0
  6
CONTINUOUS
 62
     3
 10
19757.019871585129
 20
17519.091522999988
 30
0.0
 11
19782.013273585129
 21
17519.091522999988
 31
0.0
  0
LINE
  5
13226
  8
2-0
  6
CONTINUOUS
 62
     3
 10
19782.013273585129
 20
17519.091522999988
 30
0.0
 11
19782.013273585129
 21
17537.08732599999
 31
0.0
  0
LINE
  5
13227
  8
2-0
  6
CONTINUOUS
 62
     3
 10
19782.013273585129
 20
17537.08732599999
 30
0.0
 11
19752.015648585129
 21
17537.08732599999
 31
0.0
  0
LINE
  5
13228
  8
2-0
  6
CONTINUOUS
 62
     3
 10
19782.013273585129
 20
17520.98988099999
 30
0.0
 11
19782.013273585129
 21
17526.985842999991
 31
0.0
  0
LINE
  5
13229
  8
2-0
  6
CONTINUOUS
 62
     3
 10
19782.013273585129
 20
17526.985842999991
 30
0.0
 11
19752.015648585129
 21
17526.985842999991
 31
0.0
  0
LINE
  5
1322A
  8
2-0
  6
CONTINUOUS
 62
     3
 10
19752.015648585129
 20
17526.985842999991
 30
0.0
 11
19752.015648585129
 21
17489.986660999992
 31
0.0
  0
LINE
  5
1322B
  8
2-0
  6
CONTINUOUS
 62
     3
 10
19782.013273585129
 20
17489.986660999992
 30
0.0
 11
19752.015648585129
 21
17489.986660999992
 31
0.0
  0
LINE
  5
1322C
  8
2-0
  6
CONTINUOUS
 62
     3
 10
19782.013273585129
 20
17495.98856199998
 30
0.0
 11
19782.013273585129
 21
17489.986660999992
 31
0.0
  0
LINE
  5
1322D
  8
2-0
  6
CONTINUOUS
 62
     3
 10
19782.013273585129
 20
17479.89705499999
 30
0.0
 11
19752.015648585129
 21
17479.89705499999
 31
0.0
  0
LINE
  5
1322E
  8
2-0
  6
CONTINUOUS
 62
     3
 10
19782.013273585129
 20
17497.892857999988
 30
0.0
 11
19782.013273585129
 21
17479.89705499999
 31
0.0
  0
LINE
  5
1322F
  8
2-0
  6
CONTINUOUS
 62
     3
 10
19757.019871585129
 20
17497.892857999988
 30
0.0
 11
19782.013273585129
 21
17497.892857999988
 31
0.0
  0
LINE
  5
13230
  8
2-0
  6
CONTINUOUS
 62
     3
 10
19757.019871585129
 20
17492.89259499999
 30
0.0
 11
19757.019871585129
 21
17497.892857999988
 31
0.0
  0
LINE
  5
13231
  8
2-0
  6
CONTINUOUS
 62
     3
 10
19764.01746958512
 20
17492.89259499999
 30
0.0
 11
19757.019871585129
 21
17492.89259499999
 31
0.0
  0
LINE
  5
13232
  8
2-0
  6
CONTINUOUS
 62
     3
 10
19754.901786585131
 20
16772.983480999988
 30
0.0
 11
19754.901786585131
 21
16792.984536
 31
0.0
  0
LINE
  5
13233
  8
2-0
  6
CONTINUOUS
 62
     3
 10
19754.901786585131
 20
16792.984536
 30
0.0
 11
19839.902314585132
 21
16792.984536
 31
0.0
  0
LINE
  5
13234
  8
2-0
  6
CONTINUOUS
 62
     3
 10
19764.01746958512
 20
16819.591246
 30
0.0
 11
19757.019871585129
 21
16819.591246
 31
0.0
  0
LINE
  5
13235
  8
2-0
  6
CONTINUOUS
 62
     3
 10
19757.019871585129
 20
16819.591246
 30
0.0
 11
19757.019871585129
 21
16814.59692
 31
0.0
  0
LINE
  5
13236
  8
2-0
  6
CONTINUOUS
 62
     3
 10
19757.019871585129
 20
16814.59692
 30
0.0
 11
19782.013273585129
 21
16814.59692
 31
0.0
  0
LINE
  5
13237
  8
2-0
  6
CONTINUOUS
 62
     3
 10
19782.013273585129
 20
16814.59692
 30
0.0
 11
19782.013273585129
 21
16832.592723999998
 31
0.0
  0
LINE
  5
13238
  8
2-0
  6
CONTINUOUS
 62
     3
 10
19782.013273585129
 20
16832.592723999998
 30
0.0
 11
19752.015648585129
 21
16832.592723999998
 31
0.0
  0
LINE
  5
13239
  8
2-0
  6
CONTINUOUS
 62
     3
 10
19782.013273585129
 20
16822.98413999999
 30
0.0
 11
19782.013273585129
 21
16816.98223999999
 31
0.0
  0
LINE
  5
1323A
  8
2-0
  6
CONTINUOUS
 62
     3
 10
19752.015648585129
 20
16822.98413999999
 30
0.0
 11
19782.013273585129
 21
16822.98413999999
 31
0.0
  0
LINE
  5
1323B
  8
2-0
  6
CONTINUOUS
 62
     3
 10
19752.015648585129
 20
16832.592723999998
 30
0.0
 11
19752.015648585129
 21
17479.89705499999
 31
0.0
  0
LINE
  5
1323C
  8
2-0
  6
CONTINUOUS
 62
     3
 10
19752.015648585129
 20
17537.08732599999
 30
0.0
 11
19752.015648585129
 21
18180.891115999999
 31
0.0
  0
LINE
  5
1323D
  8
2-0
  6
CONTINUOUS
 62
     3
 10
19752.015648585129
 20
16677.982424999998
 30
0.0
 11
19782.013273585129
 21
16677.982424999998
 31
0.0
  0
LINE
  5
1323E
  8
2-0
  6
CONTINUOUS
 62
     3
 10
19782.013273585129
 20
16677.982424999998
 30
0.0
 11
19782.013273585129
 21
16683.98432499999
 31
0.0
  0
LINE
  5
1323F
  8
2-0
  6
CONTINUOUS
 62
     3
 10
19839.902314585132
 20
16707.987968000001
 30
0.0
 11
19754.901786585131
 21
16707.987968000001
 31
0.0
  0
LINE
  5
13240
  8
2-0
  6
CONTINUOUS
 62
     3
 10
19754.901786585131
 20
16707.987968000001
 30
0.0
 11
19754.901786585131
 21
16727.983085
 31
0.0
  0
LINE
  5
13241
  8
2-0
  6
CONTINUOUS
 62
     3
 10
19782.013273585129
 20
16668.373842000012
 30
0.0
 11
19752.015648585129
 21
16668.373842000012
 31
0.0
  0
LINE
  5
13242
  8
2-0
  6
CONTINUOUS
 62
     3
 10
19782.013273585129
 20
16686.369644999992
 30
0.0
 11
19782.013273585129
 21
16668.373842000012
 31
0.0
  0
LINE
  5
13243
  8
2-0
  6
CONTINUOUS
 62
     3
 10
19757.019871585129
 20
16686.369644999992
 30
0.0
 11
19782.013273585129
 21
16686.369644999992
 31
0.0
  0
LINE
  5
13244
  8
2-0
  6
CONTINUOUS
 62
     3
 10
19757.019871585129
 20
16681.36938099999
 30
0.0
 11
19757.019871585129
 21
16686.369644999992
 31
0.0
  0
LINE
  5
13245
  8
2-0
  6
CONTINUOUS
 62
     3
 10
19764.01746958512
 20
16681.36938099999
 30
0.0
 11
19757.019871585129
 21
16681.36938099999
 31
0.0
  0
LINE
  5
13246
  8
2-0
  6
CONTINUOUS
 62
     3
 10
19764.01746958512
 20
15976.887150499981
 30
0.0
 11
19757.019871585129
 21
15976.887150499981
 31
0.0
  0
LINE
  5
13247
  8
2-0
  6
CONTINUOUS
 62
     3
 10
19757.019871585129
 20
15976.887150499981
 30
0.0
 11
19757.019871585129
 21
15981.887414499981
 31
0.0
  0
LINE
  5
13248
  8
2-0
  6
CONTINUOUS
 62
     3
 10
19757.019871585129
 20
15981.887414499981
 30
0.0
 11
19782.013273585129
 21
15981.887414499981
 31
0.0
  0
LINE
  5
13249
  8
2-0
  6
CONTINUOUS
 62
     3
 10
19782.013273585129
 20
15981.887414499981
 30
0.0
 11
19782.013273585129
 21
15963.885672499981
 31
0.0
  0
LINE
  5
1324A
  8
2-0
  6
CONTINUOUS
 62
     3
 10
19782.013273585129
 20
15963.885672499981
 30
0.0
 11
19752.015648585129
 21
15963.885672499981
 31
0.0
  0
LINE
  5
1324B
  8
2-0
  6
CONTINUOUS
 62
     3
 10
19782.013273585129
 20
15979.983117499991
 30
0.0
 11
19782.013273585129
 21
15973.98616649999
 31
0.0
  0
LINE
  5
1324C
  8
2-0
  6
CONTINUOUS
 62
     3
 10
19782.013273585129
 20
15973.98616649999
 30
0.0
 11
19752.015648585129
 21
15973.98616649999
 31
0.0
  0
LINE
  5
1324D
  8
2-0
  6
CONTINUOUS
 62
     3
 10
19752.015648585129
 20
15973.98616649999
 30
0.0
 11
19752.015648585129
 21
16010.9863375
 31
0.0
  0
LINE
  5
1324E
  8
2-0
  6
CONTINUOUS
 62
     3
 10
19782.013273585129
 20
16010.9863375
 30
0.0
 11
19752.015648585129
 21
16010.9863375
 31
0.0
  0
LINE
  5
1324F
  8
2-0
  6
CONTINUOUS
 62
     3
 10
19782.013273585129
 20
16004.98344749999
 30
0.0
 11
19782.013273585129
 21
16010.9863375
 31
0.0
  0
LINE
  5
13250
  8
2-0
  6
CONTINUOUS
 62
     3
 10
19782.013273585129
 20
16021.081882500001
 30
0.0
 11
19752.015648585129
 21
16021.081882500001
 31
0.0
  0
LINE
  5
13251
  8
2-0
  6
CONTINUOUS
 62
     3
 10
19782.013273585129
 20
16003.074201499991
 30
0.0
 11
19782.013273585129
 21
16021.081882500001
 31
0.0
  0
LINE
  5
13252
  8
2-0
  6
CONTINUOUS
 62
     3
 10
19757.019871585129
 20
16003.074201499991
 30
0.0
 11
19782.013273585129
 21
16003.074201499991
 31
0.0
  0
LINE
  5
13253
  8
2-0
  6
CONTINUOUS
 62
     3
 10
19757.019871585129
 20
16008.0804045
 30
0.0
 11
19757.019871585129
 21
16003.074201499991
 31
0.0
  0
LINE
  5
13254
  8
2-0
  6
CONTINUOUS
 62
     3
 10
19764.01746958512
 20
16008.0804045
 30
0.0
 11
19757.019871585129
 21
16008.0804045
 31
0.0
  0
LINE
  5
13255
  8
2-0
  6
CONTINUOUS
 62
     3
 10
19764.01746958512
 20
15307.320421000009
 30
0.0
 11
19757.019871585129
 21
15307.320421000009
 31
0.0
  0
LINE
  5
13256
  8
2-0
  6
CONTINUOUS
 62
     3
 10
19757.019871585129
 20
15307.320421000009
 30
0.0
 11
19757.019871585129
 21
15302.326096000001
 31
0.0
  0
LINE
  5
13257
  8
2-0
  6
CONTINUOUS
 62
     3
 10
19757.019871585129
 20
15302.326096000001
 30
0.0
 11
19782.013273585129
 21
15302.326096000001
 31
0.0
  0
LINE
  5
13258
  8
2-0
  6
CONTINUOUS
 62
     3
 10
19782.013273585129
 20
15302.326096000001
 30
0.0
 11
19782.013273585129
 21
15320.321899
 31
0.0
  0
LINE
  5
13259
  8
2-0
  6
CONTINUOUS
 62
     3
 10
19782.013273585129
 20
15320.321899
 30
0.0
 11
19752.015648585129
 21
15320.321899
 31
0.0
  0
LINE
  5
1325A
  8
2-0
  6
CONTINUOUS
 62
     3
 10
19782.013273585129
 20
15304.224453999999
 30
0.0
 11
19782.013273585129
 21
15310.226354000009
 31
0.0
  0
LINE
  5
1325B
  8
2-0
  6
CONTINUOUS
 62
     3
 10
19782.013273585129
 20
15310.226354000009
 30
0.0
 11
19752.015648585129
 21
15310.226354000009
 31
0.0
  0
LINE
  5
1325C
  8
2-0
  6
CONTINUOUS
 62
     3
 10
19752.015648585129
 20
15273.22717300001
 30
0.0
 11
19752.015648585129
 21
15310.226354000009
 31
0.0
  0
LINE
  5
1325D
  8
2-0
  6
CONTINUOUS
 62
     3
 10
19782.013273585129
 20
15273.22717300001
 30
0.0
 11
19752.015648585129
 21
15273.22717300001
 31
0.0
  0
LINE
  5
1325E
  8
2-0
  6
CONTINUOUS
 62
     3
 10
19782.013273585129
 20
15279.224123999989
 30
0.0
 11
19782.013273585129
 21
15273.22717300001
 31
0.0
  0
LINE
  5
1325F
  8
2-0
  6
CONTINUOUS
 62
     3
 10
19782.013273585129
 20
15263.125689
 30
0.0
 11
19752.015648585129
 21
15263.125689
 31
0.0
  0
LINE
  5
13260
  8
2-0
  6
CONTINUOUS
 62
     3
 10
19782.013273585129
 20
15281.13337
 30
0.0
 11
19782.013273585129
 21
15263.125689
 31
0.0
  0
LINE
  5
13261
  8
2-0
  6
CONTINUOUS
 62
     3
 10
19757.019871585129
 20
15281.13337
 30
0.0
 11
19782.013273585129
 21
15281.13337
 31
0.0
  0
LINE
  5
13262
  8
2-0
  6
CONTINUOUS
 62
     3
 10
19757.019871585129
 20
15276.13310600001
 30
0.0
 11
19757.019871585129
 21
15281.13337
 31
0.0
  0
LINE
  5
13263
  8
2-0
  6
CONTINUOUS
 62
     3
 10
19764.01746958512
 20
15276.13310600001
 30
0.0
 11
19757.019871585129
 21
15276.13310600001
 31
0.0
  0
LINE
  5
13264
  8
2-0
  6
CONTINUOUS
 62
     3
 10
19752.015648585129
 20
16668.373842000012
 30
0.0
 11
19752.015648585129
 21
16021.081882500001
 31
0.0
  0
LINE
  5
13265
  8
2-0
  6
CONTINUOUS
 62
     3
 10
19752.015648585129
 20
16822.98413999999
 30
0.0
 11
19752.015648585129
 21
16677.982424999998
 31
0.0
  0
LINE
  5
13266
  8
2-0
  6
CONTINUOUS
 62
     3
 10
19839.902314585132
 20
16792.984536
 30
0.0
 11
19839.902314585132
 21
16707.987968000001
 31
0.0
  0
LINE
  5
13267
  8
2-0
  6
CONTINUOUS
 62
     3
 10
19764.01746958512
 20
14574.892099000001
 30
0.0
 11
19757.019871585129
 21
14574.892099000001
 31
0.0
  0
LINE
  5
13268
  8
2-0
  6
CONTINUOUS
 62
     3
 10
19757.019871585129
 20
14574.892099000001
 30
0.0
 11
19757.019871585129
 21
14579.886425000001
 31
0.0
  0
LINE
  5
13269
  8
2-0
  6
CONTINUOUS
 62
     3
 10
19757.019871585129
 20
14579.886425000001
 30
0.0
 11
19782.013273585129
 21
14579.886425000001
 31
0.0
  0
LINE
  5
1326A
  8
2-0
  6
CONTINUOUS
 62
     3
 10
19782.013273585129
 20
14579.886425000001
 30
0.0
 11
19782.013273585129
 21
14561.890621
 31
0.0
  0
LINE
  5
1326B
  8
2-0
  6
CONTINUOUS
 62
     3
 10
19782.013273585129
 20
14561.890621
 30
0.0
 11
19752.015648585129
 21
14561.890621
 31
0.0
  0
LINE
  5
1326C
  8
2-0
  6
CONTINUOUS
 62
     3
 10
19782.013273585129
 20
14577.989056000009
 30
0.0
 11
19782.013273585129
 21
14571.986166000001
 31
0.0
  0
LINE
  5
1326D
  8
2-0
  6
CONTINUOUS
 62
     3
 10
19782.013273585129
 20
14571.986166000001
 30
0.0
 11
19752.015648585129
 21
14571.986166000001
 31
0.0
  0
LINE
  5
1326E
  8
2-0
  6
CONTINUOUS
 62
     3
 10
19752.015648585129
 20
14571.986166000001
 30
0.0
 11
19752.015648585129
 21
14608.986337999981
 31
0.0
  0
LINE
  5
1326F
  8
2-0
  6
CONTINUOUS
 62
     3
 10
19782.013273585129
 20
14608.986337999981
 30
0.0
 11
19752.015648585129
 21
14608.986337999981
 31
0.0
  0
LINE
  5
13270
  8
2-0
  6
CONTINUOUS
 62
     3
 10
19782.013273585129
 20
14602.989385999999
 30
0.0
 11
19782.013273585129
 21
14608.986337999981
 31
0.0
  0
LINE
  5
13271
  8
2-0
  6
CONTINUOUS
 62
     3
 10
19782.013273585129
 20
14619.086831000001
 30
0.0
 11
19752.015648585129
 21
14619.086831000001
 31
0.0
  0
LINE
  5
13272
  8
2-0
  6
CONTINUOUS
 62
     3
 10
19782.013273585129
 20
14601.080140000009
 30
0.0
 11
19782.013273585129
 21
14619.086831000001
 31
0.0
  0
LINE
  5
13273
  8
2-0
  6
CONTINUOUS
 62
     3
 10
19757.019871585129
 20
14601.080140000009
 30
0.0
 11
19782.013273585129
 21
14601.080140000009
 31
0.0
  0
LINE
  5
13274
  8
2-0
  6
CONTINUOUS
 62
     3
 10
19757.019871585129
 20
14606.085353000009
 30
0.0
 11
19757.019871585129
 21
14601.080140000009
 31
0.0
  0
LINE
  5
13275
  8
2-0
  6
CONTINUOUS
 62
     3
 10
19764.01746958512
 20
14606.085353000009
 30
0.0
 11
19757.019871585129
 21
14606.085353000009
 31
0.0
  0
LINE
  5
13276
  8
2-0
  6
CONTINUOUS
 62
     3
 10
19782.013273585129
 20
14249.488178999991
 30
0.0
 11
19782.013273585129
 21
14255.493048
 31
0.0
  0
LINE
  5
13277
  8
2-0
  6
CONTINUOUS
 62
     3
 10
19782.013273585129
 20
14255.493048
 30
0.0
 11
19752.015648585129
 21
14255.493048
 31
0.0
  0
LINE
  5
13278
  8
2-0
  6
CONTINUOUS
 62
     3
 10
19752.015648585129
 20
14255.493048
 30
0.0
 11
19752.015648585129
 21
14140.48895699999
 31
0.0
  0
LINE
  5
13279
  8
2-0
  6
CONTINUOUS
 62
     3
 10
19752.015648585129
 20
14140.48895699999
 30
0.0
 11
19837.014196585129
 21
14140.48895699999
 31
0.0
  0
LINE
  5
1327A
  8
2-0
  6
CONTINUOUS
 62
     3
 10
19837.014196585129
 20
14140.48895699999
 30
0.0
 11
19837.014196585129
 21
14225.484536
 31
0.0
  0
LINE
  5
1327B
  8
2-0
  6
CONTINUOUS
 62
     3
 10
19837.014196585129
 20
14225.484536
 30
0.0
 11
19805.017258585121
 21
14225.484536
 31
0.0
  0
LINE
  5
1327C
  8
2-0
  6
CONTINUOUS
 62
     3
 10
19764.01746958512
 20
14252.522780999991
 30
0.0
 11
19757.019871585129
 21
14252.522780999991
 31
0.0
  0
LINE
  5
1327D
  8
2-0
  6
CONTINUOUS
 62
     3
 10
19757.019871585129
 20
14252.522780999991
 30
0.0
 11
19757.019871585129
 21
14247.52548599998
 31
0.0
  0
LINE
  5
1327E
  8
2-0
  6
CONTINUOUS
 62
     3
 10
19757.019871585129
 20
14247.52548599998
 30
0.0
 11
19782.013273585129
 21
14247.52548599998
 31
0.0
  0
LINE
  5
1327F
  8
2-0
  6
CONTINUOUS
 62
     3
 10
19782.013273585129
 20
14247.52548599998
 30
0.0
 11
19782.013273585129
 21
14265.524259
 31
0.0
  0
LINE
  5
13280
  8
2-0
  6
CONTINUOUS
 62
     3
 10
19782.013273585129
 20
14265.524259
 30
0.0
 11
19752.015648585129
 21
14265.524259
 31
0.0
  0
LINE
  5
13281
  8
2-0
  6
CONTINUOUS
 62
     3
 10
19752.015648585129
 20
14619.086831000001
 30
0.0
 11
19752.015648585129
 21
15263.125689
 31
0.0
  0
LINE
  5
13282
  8
2-0
  6
CONTINUOUS
 62
     3
 10
19752.015648585129
 20
18238.081387999999
 30
0.0
 11
19752.015648585129
 21
18881.892105499981
 31
0.0
  0
LINE
  5
13283
  8
2-0
  6
CONTINUOUS
 62
     3
 10
19843.018076585129
 20
18166.984997999949
 30
0.0
 11
19796.014407585131
 21
18166.984997999949
 31
0.0
  0
LINE
  5
13284
  8
2-0
  6
CONTINUOUS
 62
     3
 10
19796.014407585131
 20
18251.985526
 30
0.0
 11
19843.018076585129
 21
18251.985526
 31
0.0
  0
LINE
  5
13285
  8
2-0
  6
CONTINUOUS
 62
     3
 10
19796.014407585131
 20
18166.984997999949
 30
0.0
 11
19796.014407585131
 21
18191.988296999989
 31
0.0
  0
LINE
  5
13286
  8
2-0
  6
CONTINUOUS
 62
     3
 10
19796.014407585131
 20
18226.984206000001
 30
0.0
 11
19796.014407585131
 21
18251.985526
 31
0.0
  0
LINE
  5
13287
  8
2-0
  6
CONTINUOUS
 62
     3
 10
19843.018076585129
 20
18251.985526
 30
0.0
 11
19843.018076585129
 21
18166.984997999949
 31
0.0
  0
LINE
  5
13288
  8
2-0
  6
CONTINUOUS
 62
     3
 10
19752.015648585129
 20
15963.885672499981
 30
0.0
 11
19752.015648585129
 21
15320.321899
 31
0.0
  0
LINE
  5
13289
  8
2-0
  6
CONTINUOUS
 62
     3
 10
19843.018076585129
 20
15248.987967999999
 30
0.0
 11
19796.014407585131
 21
15248.987967999999
 31
0.0
  0
LINE
  5
1328A
  8
2-0
  6
CONTINUOUS
 62
     3
 10
19796.014407585131
 20
15333.984535999991
 30
0.0
 11
19843.018076585129
 21
15333.984535999991
 31
0.0
  0
LINE
  5
1328B
  8
2-0
  6
CONTINUOUS
 62
     3
 10
19796.014407585131
 20
15248.987967999999
 30
0.0
 11
19796.014407585131
 21
15273.983349000009
 31
0.0
  0
LINE
  5
1328C
  8
2-0
  6
CONTINUOUS
 62
     3
 10
19796.014407585131
 20
15308.98321700001
 30
0.0
 11
19796.014407585131
 21
15333.984535999991
 31
0.0
  0
LINE
  5
1328D
  8
2-0
  6
CONTINUOUS
 62
     3
 10
19843.018076585129
 20
15333.984535999991
 30
0.0
 11
19843.018076585129
 21
15248.987967999999
 31
0.0
  0
LINE
  5
1328E
  8
2-0
  6
CONTINUOUS
 62
     3
 10
22404.510237585138
 20
19245.488364000019
 30
0.0
 11
22404.510237585138
 21
19360.484537000018
 31
0.0
  0
LINE
  5
1328F
  8
2-0
  6
CONTINUOUS
 62
     3
 10
19752.015648585129
 20
19275.487968000001
 30
0.0
 11
22323.50833758511
 21
19275.487968000001
 31
0.0
  0
LINE
  5
13290
  8
2-0
  6
CONTINUOUS
 62
     3
 10
19752.015648585129
 20
14265.524259
 30
0.0
 11
19752.015648585129
 21
14561.890621
 31
0.0
  0
LINE
  5
13291
  8
2-0
  6
CONTINUOUS
 62
     3
 10
22404.510237585138
 20
19235.19090799999
 30
0.0
 11
22404.510237585138
 21
18939.082377499992
 31
0.0
  0
LINE
  5
13292
  8
2-0
  6
CONTINUOUS
 62
     3
 10
19752.015648585129
 20
19235.19090799999
 30
0.0
 11
19752.015648585129
 21
18939.082377499959
 31
0.0
  0
LINE
  5
13293
  8
2-0
  6
CONTINUOUS
 62
     3
 10
19833.013589585131
 20
14225.484536
 30
0.0
 11
19833.013589585131
 21
19360.484537000018
 31
0.0
  0
LINE
  5
13294
  8
2-0
  6
CONTINUOUS
 62
     3
 10
22323.50833758511
 20
14225.484536
 30
0.0
 11
22323.50833758511
 21
19360.484537000018
 31
0.0
  0
TEXT
  5
13295
  8
2-0
  6
CONTINUOUS
 62
     7
 10
20565.6666465909
 20
13622.99046700269
 30
0.0
 40
160.0
  1
前柱（左）
 50
359.99978700000003
 72
     4
 11
20981.666943992132
 21
13702.988920500789
 31
0.0
  0
TEXT
  5
13296
  8
2-0
  6
CONTINUOUS
 62
     7
 10
20559.63409425494
 20
17951.60715307459
 30
0.0
 40
160.0
  1
補強柱 後
 50
0.0001580000002033
 72
     4
 11
20970.300540310422
 21
18031.60828553699
 31
0.0
  0
TEXT
  5
13297
  8
2-0
  6
CONTINUOUS
 62
     7
 10
20467.738190255292
 20
16200.97714927651
 30
0.0
 40
160.0
  1
壁パネル
 50
0.0001770000000167
 72
     4
 11
20830.404609781599
 21
16280.978269637881
 31
0.0
  0
TEXT
  5
13298
  8
2-0
  6
CONTINUOUS
 62
     7
 10
20438.40776093824
 20
17038.173678652362
 30
0.0
 40
160.0
  1
中柱（左右）
 50
359.99964599999998
 72
     4
 11
20955.741588538938
 21
17118.170482324658
 31
0.0
  0
TEXT
  5
13299
  8
2-0
  6
CONTINUOUS
 62
     7
 10
20451.738850310579
 20
14596.034972706109
 30
0.0
 40
160.0
  1
下枠
 50
359.99893700000001
 72
     4
 11
20622.40700117587
 21
14676.031806339281
 31
0.0
  0
TEXT
  5
1329A
  8
2-0
  6
CONTINUOUS
 62
     7
 10
20559.634094301498
 20
15033.840897968341
 30
0.0
 40
160.0
  1
補強柱 前
 50
0.0006300000000081
 72
     4
 11
20970.2998812974
 21
15113.845413479339
 31
0.0
  0
TEXT
  5
1329B
  8
2-0
  6
CONTINUOUS
 62
     7
 10
20455.44009291847
 20
18641.436024499981
 30
0.0
 40
160.0
  1
間柱（側）
 72
     4
 11
20876.773426251799
 21
18721.436024499981
 31
0.0
  0
TEXT
  5
1329C
  8
2-0
  6
CONTINUOUS
 62
     7
 10
17955.51644060469
 20
20170.490071748729
 30
0.0
 40
160.0
  1
後柱（左右）
 50
359.99964599999998
 72
     4
 11
18467.516934872168
 21
20250.48690837283
 31
0.0
  0
LINE
  5
1329D
  8
2-0
  6
CONTINUOUS
 62
     3
 10
21622.51253458513
 20
19360.484537000018
 30
0.0
 11
21585.511372585141
 21
19360.484537000018
 31
0.0
  0
LINE
  5
1329E
  8
2-0
  6
CONTINUOUS
 62
     3
 10
21622.51253458513
 20
19330.480973999998
 30
0.0
 11
21622.51253458513
 21
19360.484537000018
 31
0.0
  0
LINE
  5
1329F
  8
2-0
  6
CONTINUOUS
 62
     3
 10
21616.512613585121
 20
19330.480973999998
 30
0.0
 11
21622.51253458513
 21
19330.480973999998
 31
0.0
  0
LINE
  5
132A0
  8
2-0
  6
CONTINUOUS
 62
     3
 10
21632.610058585142
 20
19330.480973999998
 30
0.0
 11
21632.610058585142
 21
19360.484537000018
 31
0.0
  0
LINE
  5
132A1
  8
2-0
  6
CONTINUOUS
 62
     3
 10
21614.606337585141
 20
19330.480973999998
 30
0.0
 11
21632.610058585142
 21
19330.480973999998
 31
0.0
  0
LINE
  5
132A2
  8
2-0
  6
CONTINUOUS
 62
     3
 10
21614.606337585141
 20
19355.490211000011
 30
0.0
 11
21614.606337585141
 21
19330.480973999998
 31
0.0
  0
LINE
  5
132A3
  8
2-0
  6
CONTINUOUS
 62
     3
 10
21619.606601585128
 20
19355.490211000011
 30
0.0
 11
21614.606337585141
 21
19355.490211000011
 31
0.0
  0
LINE
  5
132A4
  8
2-0
  6
CONTINUOUS
 62
     3
 10
21619.606601585128
 20
19348.484694999999
 30
0.0
 11
21619.606601585128
 21
19355.490211000011
 31
0.0
  0
LINE
  5
132A5
  8
2-0
  6
CONTINUOUS
 62
     3
 10
21588.417306585121
 20
19348.484694999999
 30
0.0
 11
21588.417306585121
 21
19355.490211000011
 31
0.0
  0
LINE
  5
132A6
  8
2-0
  6
CONTINUOUS
 62
     3
 10
21588.417306585121
 20
19355.490211000011
 30
0.0
 11
21593.417570585141
 21
19355.490211000011
 31
0.0
  0
LINE
  5
132A7
  8
2-0
  6
CONTINUOUS
 62
     3
 10
21593.417570585141
 20
19355.490211000011
 30
0.0
 11
21593.417570585141
 21
19330.480973999998
 31
0.0
  0
LINE
  5
132A8
  8
2-0
  6
CONTINUOUS
 62
     3
 10
21593.417570585141
 20
19330.480973999998
 30
0.0
 11
21575.417807585141
 21
19330.480973999998
 31
0.0
  0
LINE
  5
132A9
  8
2-0
  6
CONTINUOUS
 62
     3
 10
21575.417807585141
 20
19330.480973999998
 30
0.0
 11
21575.417807585141
 21
19360.484537000018
 31
0.0
  0
LINE
  5
132AA
  8
2-0
  6
CONTINUOUS
 62
     3
 10
21591.51129358515
 20
19330.480973999998
 30
0.0
 11
21585.511372585141
 21
19330.480973999998
 31
0.0
  0
LINE
  5
132AB
  8
2-0
  6
CONTINUOUS
 62
     3
 10
21585.511372585141
 20
19330.480973999998
 30
0.0
 11
21585.511372585141
 21
19360.484537000018
 31
0.0
  0
LINE
  5
132AC
  8
2-0
  6
CONTINUOUS
 62
     3
 10
20918.601652085141
 20
19348.484694999999
 30
0.0
 11
20918.601652085141
 21
19355.490211000011
 31
0.0
  0
LINE
  5
132AD
  8
2-0
  6
CONTINUOUS
 62
     3
 10
20918.601652085141
 20
19355.490211000011
 30
0.0
 11
20913.601388085131
 21
19355.490211000011
 31
0.0
  0
LINE
  5
132AE
  8
2-0
  6
CONTINUOUS
 62
     3
 10
20913.601388085131
 20
19355.490211000011
 30
0.0
 11
20913.601388085131
 21
19330.480973999998
 31
0.0
  0
LINE
  5
132AF
  8
2-0
  6
CONTINUOUS
 62
     3
 10
20913.601388085131
 20
19330.480973999998
 30
0.0
 11
20931.60708908513
 21
19330.480973999998
 31
0.0
  0
LINE
  5
132B0
  8
2-0
  6
CONTINUOUS
 62
     3
 10
20931.60708908513
 20
19330.480973999998
 30
0.0
 11
20931.60708908513
 21
19360.484537000018
 31
0.0
  0
LINE
  5
132B1
  8
2-0
  6
CONTINUOUS
 62
     3
 10
20915.509644085119
 20
19330.480973999998
 30
0.0
 11
20921.51154408514
 21
19330.480973999998
 31
0.0
  0
LINE
  5
132B2
  8
2-0
  6
CONTINUOUS
 62
     3
 10
20921.51154408514
 20
19330.480973999998
 30
0.0
 11
20921.51154408514
 21
19360.484537000018
 31
0.0
  0
LINE
  5
132B3
  8
2-0
  6
CONTINUOUS
 62
     3
 10
20884.512363085119
 20
19360.484537000018
 30
0.0
 11
20921.51154408514
 21
19360.484537000018
 31
0.0
  0
LINE
  5
132B4
  8
2-0
  6
CONTINUOUS
 62
     3
 10
20884.512363085119
 20
19330.480973999998
 30
0.0
 11
20884.512363085119
 21
19360.484537000018
 31
0.0
  0
LINE
  5
132B5
  8
2-0
  6
CONTINUOUS
 62
     3
 10
20890.50634508513
 20
19330.480973999998
 30
0.0
 11
20884.512363085119
 21
19330.480973999998
 31
0.0
  0
LINE
  5
132B6
  8
2-0
  6
CONTINUOUS
 62
     3
 10
20874.416818085141
 20
19330.480973999998
 30
0.0
 11
20874.416818085141
 21
19360.484537000018
 31
0.0
  0
LINE
  5
132B7
  8
2-0
  6
CONTINUOUS
 62
     3
 10
20892.412621085128
 20
19330.480973999998
 30
0.0
 11
20874.416818085141
 21
19330.480973999998
 31
0.0
  0
LINE
  5
132B8
  8
2-0
  6
CONTINUOUS
 62
     3
 10
20892.412621085128
 20
19355.490211000011
 30
0.0
 11
20892.412621085128
 21
19330.480973999998
 31
0.0
  0
LINE
  5
132B9
  8
2-0
  6
CONTINUOUS
 62
     3
 10
20887.412357085141
 20
19355.490211000011
 30
0.0
 11
20892.412621085128
 21
19355.490211000011
 31
0.0
  0
LINE
  5
132BA
  8
2-0
  6
CONTINUOUS
 62
     3
 10
20887.412357085141
 20
19348.484694999999
 30
0.0
 11
20887.412357085141
 21
19355.490211000011
 31
0.0
  0
LINE
  5
132BB
  8
2-0
  6
CONTINUOUS
 62
     3
 10
20887.411368085141
 20
19348.484694999999
 30
0.0
 11
20887.411368085141
 21
19355.490211000011
 31
0.0
  0
LINE
  5
132BC
  8
2-0
  6
CONTINUOUS
 62
     3
 10
20887.411368085141
 20
19355.490211000011
 30
0.0
 11
20892.411631085131
 21
19355.490211000011
 31
0.0
  0
LINE
  5
132BD
  8
2-0
  6
CONTINUOUS
 62
     3
 10
20892.411631085131
 20
19355.490211000011
 30
0.0
 11
20892.411631085131
 21
19330.480973999998
 31
0.0
  0
LINE
  5
132BE
  8
2-0
  6
CONTINUOUS
 62
     3
 10
20892.411631085131
 20
19330.480973999998
 30
0.0
 11
20874.417808085131
 21
19330.480973999998
 31
0.0
  0
LINE
  5
132BF
  8
2-0
  6
CONTINUOUS
 62
     3
 10
20874.417808085131
 20
19330.480973999998
 30
0.0
 11
20874.417808085131
 21
19360.484537000018
 31
0.0
  0
LINE
  5
132C0
  8
2-0
  6
CONTINUOUS
 62
     3
 10
20890.50931408511
 20
19330.480973999998
 30
0.0
 11
20884.51137308513
 21
19330.480973999998
 31
0.0
  0
LINE
  5
132C1
  8
2-0
  6
CONTINUOUS
 62
     3
 10
20884.51137308513
 20
19330.480973999998
 30
0.0
 11
20884.51137308513
 21
19360.484537000018
 31
0.0
  0
LINE
  5
132C2
  8
2-0
  6
CONTINUOUS
 62
     3
 10
20921.51253408513
 20
19360.484537000018
 30
0.0
 11
20884.51137308513
 21
19360.484537000018
 31
0.0
  0
LINE
  5
132C3
  8
2-0
  6
CONTINUOUS
 62
     3
 10
20921.51253408513
 20
19330.480973999998
 30
0.0
 11
20921.51253408513
 21
19360.484537000018
 31
0.0
  0
LINE
  5
132C4
  8
2-0
  6
CONTINUOUS
 62
     3
 10
20915.50667508514
 20
19330.480973999998
 30
0.0
 11
20921.51253408513
 21
19330.480973999998
 31
0.0
  0
LINE
  5
132C5
  8
2-0
  6
CONTINUOUS
 62
     3
 10
20931.60609908514
 20
19330.480973999998
 30
0.0
 11
20931.60609908514
 21
19360.484537000018
 31
0.0
  0
LINE
  5
132C6
  8
2-0
  6
CONTINUOUS
 62
     3
 10
20913.610296085131
 20
19330.480973999998
 30
0.0
 11
20931.60609908514
 21
19330.480973999998
 31
0.0
  0
LINE
  5
132C7
  8
2-0
  6
CONTINUOUS
 62
     3
 10
20913.610296085131
 20
19355.490211000011
 30
0.0
 11
20913.610296085131
 21
19330.480973999998
 31
0.0
  0
LINE
  5
132C8
  8
2-0
  6
CONTINUOUS
 62
     3
 10
20918.600662085119
 20
19355.490211000011
 30
0.0
 11
20913.610296085131
 21
19355.490211000011
 31
0.0
  0
LINE
  5
132C9
  8
2-0
  6
CONTINUOUS
 62
     3
 10
20918.600662085119
 20
19348.484694999999
 30
0.0
 11
20918.600662085119
 21
19355.490211000011
 31
0.0
  0
LINE
  5
132CA
  8
2-0
  6
CONTINUOUS
 62
     3
 10
20931.60708908513
 20
19360.484537000018
 30
0.0
 11
20874.417808085131
 21
19360.484537000018
 31
0.0
  0
LINE
  5
132CB
  8
2-0
  6
CONTINUOUS
 62
     3
 10
20230.810979585149
 20
19360.484537000018
 30
0.0
 11
20874.416818085141
 21
19360.484537000018
 31
0.0
  0
LINE
  5
132CC
  8
2-0
  6
CONTINUOUS
 62
     3
 10
22279.895583585141
 20
19360.484537000018
 30
0.0
 11
21632.610058585142
 21
19360.484537000018
 31
0.0
  0
LINE
  5
132CD
  8
2-0
  6
CONTINUOUS
 62
     3
 10
21575.417807585141
 20
19360.484537000018
 30
0.0
 11
20931.60609908514
 21
19360.484537000018
 31
0.0
  0
LINE
  5
132CE
  8
2-0
  6
CONTINUOUS
 62
     3
 10
20217.603631585142
 20
19348.484694999999
 30
0.0
 11
20217.603631585142
 21
19355.490211000011
 31
0.0
  0
LINE
  5
132CF
  8
2-0
  6
CONTINUOUS
 62
     3
 10
20217.603631585142
 20
19355.490211000011
 30
0.0
 11
20212.603367585121
 21
19355.490211000011
 31
0.0
  0
LINE
  5
132D0
  8
2-0
  6
CONTINUOUS
 62
     3
 10
20212.603367585121
 20
19355.490211000011
 30
0.0
 11
20212.603367585121
 21
19330.480973999998
 31
0.0
  0
LINE
  5
132D1
  8
2-0
  6
CONTINUOUS
 62
     3
 10
20212.603367585121
 20
19330.480973999998
 30
0.0
 11
20230.605109585129
 21
19330.480973999998
 31
0.0
  0
LINE
  5
132D2
  8
2-0
  6
CONTINUOUS
 62
     3
 10
20230.605109585129
 20
19330.480973999998
 30
0.0
 11
20230.605109585129
 21
19360.484537000018
 31
0.0
  0
LINE
  5
132D3
  8
2-0
  6
CONTINUOUS
 62
     3
 10
20214.50568458515
 20
19330.480973999998
 30
0.0
 11
20220.509564585129
 21
19330.480973999998
 31
0.0
  0
LINE
  5
132D4
  8
2-0
  6
CONTINUOUS
 62
     3
 10
20220.509564585129
 20
19330.480973999998
 30
0.0
 11
20220.509564585129
 21
19360.484537000018
 31
0.0
  0
LINE
  5
132D5
  8
2-0
  6
CONTINUOUS
 62
     3
 10
20183.514342585131
 20
19360.484537000018
 30
0.0
 11
20220.509564585129
 21
19360.484537000018
 31
0.0
  0
LINE
  5
132D6
  8
2-0
  6
CONTINUOUS
 62
     3
 10
20183.514342585131
 20
19330.480973999998
 30
0.0
 11
20183.514342585131
 21
19360.484537000018
 31
0.0
  0
LINE
  5
132D7
  8
2-0
  6
CONTINUOUS
 62
     3
 10
20189.508324585131
 20
19330.480973999998
 30
0.0
 11
20183.514342585131
 21
19330.480973999998
 31
0.0
  0
LINE
  5
132D8
  8
2-0
  6
CONTINUOUS
 62
     3
 10
20173.418797585138
 20
19330.480973999998
 30
0.0
 11
20173.418797585138
 21
19360.484537000018
 31
0.0
  0
LINE
  5
132D9
  8
2-0
  6
CONTINUOUS
 62
     3
 10
20191.41460058514
 20
19330.480973999998
 30
0.0
 11
20173.418797585138
 21
19330.480973999998
 31
0.0
  0
LINE
  5
132DA
  8
2-0
  6
CONTINUOUS
 62
     3
 10
20191.41460058514
 20
19355.490211000011
 30
0.0
 11
20191.41460058514
 21
19330.480973999998
 31
0.0
  0
LINE
  5
132DB
  8
2-0
  6
CONTINUOUS
 62
     3
 10
20186.41631658515
 20
19355.490211000011
 30
0.0
 11
20191.41460058514
 21
19355.490211000011
 31
0.0
  0
LINE
  5
132DC
  8
2-0
  6
CONTINUOUS
 62
     3
 10
20186.41631658515
 20
19348.484694999999
 30
0.0
 11
20186.41631658515
 21
19355.490211000011
 31
0.0
  0
LINE
  5
132DD
  8
2-0
  6
CONTINUOUS
 62
     3
 10
19877.317195585121
 20
19360.484537000018
 30
0.0
 11
20173.418797585138
 21
19360.484537000018
 31
0.0
  0
LINE
  5
132DE
  8
2-0
  6
CONTINUOUS
 62
     3
 10
22404.510237585138
 20
15263.12568900001
 30
0.0
 11
22404.510237585138
 21
14619.086831000001
 31
0.0
  0
LINE
  5
132DF
  8
2-0
  6
CONTINUOUS
 62
     3
 10
22404.510237585138
 20
14561.890621
 30
0.0
 11
22404.510237585138
 21
14265.524259
 31
0.0
  0
LINE
  5
132E0
  8
0-6
  6
CONTINUOUS
 62
     6
 10
22143.52993950239
 20
18961.033153465251
 30
0.0
 11
21118.489689502389
 21
18961.033153465251
 31
0.0
  0
TEXT
  5
132E1
  8
0-6
  6
CONTINUOUS
 62
     7
 10
21220.863008835739
 20
19041.035397465239
 30
0.0
 40
160.0
  1
間柱（後）
 72
     4
 11
21642.196342169071
 21
19121.035397465239
 31
0.0
  0
LINE
  5
132E2
  8
SUNPOU
  6
CONTINUOUS
 62
     4
 10
19672.01366958514
 20
14590.606507750001
 30
0.0
 11
18622.01234958514
 21
14590.606507750001
 31
0.0
  0
LINE
  5
132E3
  8
SUNPOU
  6
CONTINUOUS
 62
     4
 10
18822.01234958514
 20
14183.106507750001
 30
0.0
 11
18622.01234958514
 21
14183.106507750001
 31
0.0
  0
LINE
  5
132E4
  8
SUNPOU
  6
CONTINUOUS
 62
     4
 10
18702.01234958514
 20
14590.606507750001
 30
0.0
 11
18702.01234958514
 21
14183.106507750001
 31
0.0
  0
LINE
  5
132E5
  8
SUNPOU
  6
CONTINUOUS
 62
     4
 10
19672.01366958514
 20
18910.486251999992
 30
0.0
 11
18622.01234958514
 21
18910.486251999992
 31
0.0
  0
LINE
  5
132E6
  8
SUNPOU
  6
CONTINUOUS
 62
     4
 10
18822.01234958514
 20
19317.986251999992
 30
0.0
 11
18622.01234958514
 21
19317.986251999992
 31
0.0
  0
LINE
  5
132E7
  8
SUNPOU
  6
CONTINUOUS
 62
     4
 10
18702.01234958514
 20
18910.486251999992
 30
0.0
 11
18702.01234958514
 21
19317.986251999992
 31
0.0
  0
LINE
  5
132E8
  8
SUNPOU
  6
CONTINUOUS
 62
     4
 10
19794.51195358513
 20
13477.222817999989
 30
0.0
 11
19794.51195358513
 21
13131.538167999999
 31
0.0
  0
LINE
  5
132E9
  8
SUNPOU
  6
CONTINUOUS
 62
     4
 10
19752.009710585138
 20
14060.48895699999
 30
0.0
 11
19752.009710585138
 21
13131.538167999999
 31
0.0
  0
LINE
  5
132EA
  8
SUNPOU
  6
CONTINUOUS
 62
     4
 10
19794.51195358513
 20
13211.538167999999
 30
0.0
 11
20034.51195358513
 21
13211.538167999999
 31
0.0
  0
LINE
  5
132EB
  8
SUNPOU
  6
CONTINUOUS
 62
     4
 10
19752.009710585138
 20
13211.538167999999
 30
0.0
 11
19512.009710585149
 21
13211.538167999999
 31
0.0
  0
LINE
  5
132EC
  8
SUNPOU
  6
CONTINUOUS
 62
     4
 10
19794.51195358513
 20
13211.538167999999
 30
0.0
 11
19752.009710585138
 21
13211.538167999999
 31
0.0
  0
LINE
  5
132ED
  8
SUNPOU
  6
CONTINUOUS
 62
     4
 10
22362.011953585141
 20
13477.222817999989
 30
0.0
 11
22362.011953585141
 21
13131.538167999999
 31
0.0
  0
LINE
  5
132EE
  8
SUNPOU
  6
CONTINUOUS
 62
     4
 10
22404.514196585129
 20
14060.48895699999
 30
0.0
 11
22404.514196585129
 21
13131.538167999999
 31
0.0
  0
LINE
  5
132EF
  8
SUNPOU
  6
CONTINUOUS
 62
     4
 10
22362.011953585141
 20
13211.538167999999
 30
0.0
 11
22122.011953585141
 21
13211.538167999999
 31
0.0
  0
LINE
  5
132F0
  8
SUNPOU
  6
CONTINUOUS
 62
     4
 10
22404.514196585129
 20
13211.538167999999
 30
0.0
 11
22644.514196585129
 21
13211.538167999999
 31
0.0
  0
LINE
  5
132F1
  8
SUNPOU
  6
CONTINUOUS
 62
     4
 10
22362.011953585141
 20
13211.538167999999
 30
0.0
 11
22404.514196585129
 21
13211.538167999999
 31
0.0
  0
LINE
  5
132F2
  8
SUNPOU
  6
CONTINUOUS
 62
     4
 10
22362.011953585141
 20
14182.986252000001
 30
0.0
 11
22362.011953585141
 21
13131.538167999999
 31
0.0
  0
LINE
  5
132F3
  8
SUNPOU
  6
CONTINUOUS
 62
     4
 10
22319.509710585131
 20
14060.48895699999
 30
0.0
 11
22319.509710585131
 21
13131.538167999999
 31
0.0
  0
LINE
  5
132F4
  8
SUNPOU
  6
CONTINUOUS
 62
     4
 10
22362.011953585141
 20
13211.538167999999
 30
0.0
 11
22602.011953585141
 21
13211.538167999999
 31
0.0
  0
LINE
  5
132F5
  8
SUNPOU
  6
CONTINUOUS
 62
     4
 10
22319.509710585131
 20
13211.538167999999
 30
0.0
 11
22079.509710585131
 21
13211.538167999999
 31
0.0
  0
LINE
  5
132F6
  8
SUNPOU
  6
CONTINUOUS
 62
     4
 10
22362.011953585141
 20
13211.538167999999
 30
0.0
 11
22319.509710585131
 21
13211.538167999999
 31
0.0
  0
LINE
  5
132F7
  8
SUNPOU
  6
CONTINUOUS
 62
     4
 10
19794.51195358513
 20
14182.986252000001
 30
0.0
 11
19794.51195358513
 21
13131.538167999999
 31
0.0
  0
LINE
  5
132F8
  8
SUNPOU
  6
CONTINUOUS
 62
     4
 10
19837.014196585129
 20
14060.48895699999
 30
0.0
 11
19837.014196585129
 21
13131.538167999999
 31
0.0
  0
LINE
  5
132F9
  8
SUNPOU
  6
CONTINUOUS
 62
     4
 10
19794.51195358513
 20
13211.538167999999
 30
0.0
 11
19554.51195358513
 21
13211.538167999999
 31
0.0
  0
LINE
  5
132FA
  8
SUNPOU
  6
CONTINUOUS
 62
     4
 10
19837.014196585129
 20
13211.538167999999
 30
0.0
 11
20077.014196585129
 21
13211.538167999999
 31
0.0
  0
LINE
  5
132FB
  8
SUNPOU
  6
CONTINUOUS
 62
     4
 10
19794.51195358513
 20
13211.538167999999
 30
0.0
 11
19837.014196585129
 21
13211.538167999999
 31
0.0
  0
LINE
  5
132FC
  8
SUNPOU
  6
CONTINUOUS
 62
     4
 10
19752.009710585138
 20
14060.48895699999
 30
0.0
 11
19752.009710585138
 21
12731.538167999999
 31
0.0
  0
LINE
  5
132FD
  8
SUNPOU
  6
CONTINUOUS
 62
     4
 10
22404.514196585129
 20
14060.48895699999
 30
0.0
 11
22404.514196585129
 21
12731.538167999999
 31
0.0
  0
LINE
  5
132FE
  8
SUNPOU
  6
CONTINUOUS
 62
     4
 10
19752.009710585138
 20
12811.538167999999
 30
0.0
 11
22404.514196585129
 21
12811.538167999999
 31
0.0
  0
LINE
  5
132FF
  8
SUNPOU
  6
CONTINUOUS
 62
     4
 10
19672.01366958514
 20
15291.726763500021
 30
0.0
 11
18622.01234958514
 21
15291.726763500021
 31
0.0
  0
LINE
  5
13300
  8
SUNPOU
  6
CONTINUOUS
 62
     4
 10
19672.01366958514
 20
14590.48625199999
 30
0.0
 11
18622.01234958514
 21
14590.48625199999
 31
0.0
  0
LINE
  5
13301
  8
SUNPOU
  6
CONTINUOUS
 62
     4
 10
18702.01234958514
 20
15291.726763500021
 30
0.0
 11
18702.01234958514
 21
14590.48625199999
 31
0.0
  0
LINE
  5
13302
  8
SUNPOU
  6
CONTINUOUS
 62
     4
 10
19672.01366958514
 20
15992.486252000001
 30
0.0
 11
18622.01234958514
 21
15992.486252000001
 31
0.0
  0
LINE
  5
13303
  8
SUNPOU
  6
CONTINUOUS
 62
     4
 10
19672.01366958514
 20
15291.726763500021
 30
0.0
 11
18622.01234958514
 21
15291.726763500021
 31
0.0
  0
LINE
  5
13304
  8
SUNPOU
  6
CONTINUOUS
 62
     4
 10
18702.01234958514
 20
15992.486252000001
 30
0.0
 11
18702.01234958514
 21
15291.726763500021
 31
0.0
  0
LINE
  5
13305
  8
SUNPOU
  6
CONTINUOUS
 62
     4
 10
18822.01234958514
 20
16750.486251999992
 30
0.0
 11
18622.01234958514
 21
16750.486251999992
 31
0.0
  0
LINE
  5
13306
  8
SUNPOU
  6
CONTINUOUS
 62
     4
 10
19672.01366958514
 20
15992.486252000001
 30
0.0
 11
18622.01234958514
 21
15992.486252000001
 31
0.0
  0
LINE
  5
13307
  8
SUNPOU
  6
CONTINUOUS
 62
     4
 10
18702.01234958514
 20
16750.486251999992
 30
0.0
 11
18702.01234958514
 21
15992.486252000001
 31
0.0
  0
LINE
  5
13308
  8
SUNPOU
  6
CONTINUOUS
 62
     4
 10
19672.01366958514
 20
17508.486251999981
 30
0.0
 11
18622.01234958514
 21
17508.486251999981
 31
0.0
  0
LINE
  5
13309
  8
SUNPOU
  6
CONTINUOUS
 62
     4
 10
18822.01234958514
 20
16750.486251999992
 30
0.0
 11
18622.01234958514
 21
16750.486251999992
 31
0.0
  0
LINE
  5
1330A
  8
SUNPOU
  6
CONTINUOUS
 62
     4
 10
18702.01234958514
 20
17508.486251999981
 30
0.0
 11
18702.01234958514
 21
16750.486251999992
 31
0.0
  0
LINE
  5
1330B
  8
SUNPOU
  6
CONTINUOUS
 62
     4
 10
19672.01366958514
 20
18209.486251999981
 30
0.0
 11
18622.01234958514
 21
18209.486251999981
 31
0.0
  0
LINE
  5
1330C
  8
SUNPOU
  6
CONTINUOUS
 62
     4
 10
19672.01366958514
 20
17508.486251999981
 30
0.0
 11
18622.01234958514
 21
17508.486251999981
 31
0.0
  0
LINE
  5
1330D
  8
SUNPOU
  6
CONTINUOUS
 62
     4
 10
18702.01234958514
 20
18209.486251999981
 30
0.0
 11
18702.01234958514
 21
17508.486251999981
 31
0.0
  0
LINE
  5
1330E
  8
SUNPOU
  6
CONTINUOUS
 62
     4
 10
19672.01366958514
 20
18910.486251999992
 30
0.0
 11
18622.01234958514
 21
18910.486251999992
 31
0.0
  0
LINE
  5
1330F
  8
SUNPOU
  6
CONTINUOUS
 62
     4
 10
19672.01366958514
 20
18209.486251999981
 30
0.0
 11
18622.01234958514
 21
18209.486251999981
 31
0.0
  0
LINE
  5
13310
  8
SUNPOU
  6
CONTINUOUS
 62
     4
 10
18702.01234958514
 20
18910.486251999992
 30
0.0
 11
18702.01234958514
 21
18209.486251999981
 31
0.0
  0
LINE
  5
13311
  8
SUNPOU
  6
CONTINUOUS
 62
     4
 10
18822.01234958514
 20
19317.986251999992
 30
0.0
 11
18622.01234958514
 21
19317.986251999992
 31
0.0
  0
LINE
  5
13312
  8
SUNPOU
  6
CONTINUOUS
 62
     4
 10
18822.01234958514
 20
14182.986252000001
 30
0.0
 11
18622.01234958514
 21
14182.986252000001
 31
0.0
  0
LINE
  5
13313
  8
SUNPOU
  6
CONTINUOUS
 62
     4
 10
19672.01366958514
 20
19360.483547
 30
0.0
 11
17822.01234958514
 21
19360.483547
 31
0.0
  0
LINE
  5
13314
  8
SUNPOU
  6
CONTINUOUS
 62
     4
 10
19672.01366958514
 20
14140.48895699999
 30
0.0
 11
17822.01234958514
 21
14140.48895699999
 31
0.0
  0
LINE
  5
13315
  8
SUNPOU
  6
CONTINUOUS
 62
     4
 10
17902.01234958514
 20
19360.483547
 30
0.0
 11
17902.01234958514
 21
14140.48895699999
 31
0.0
  0
LINE
  5
13316
  8
SUNPOU
  6
CONTINUOUS
 62
     4
 10
18822.01234958514
 20
19317.986251999992
 30
0.0
 11
18622.01234958514
 21
19317.986251999992
 31
0.0
  0
LINE
  5
13317
  8
SUNPOU
  6
CONTINUOUS
 62
     4
 10
19672.01366958514
 20
19360.483547
 30
0.0
 11
18622.01234958514
 21
19360.483547
 31
0.0
  0
LINE
  5
13318
  8
SUNPOU
  6
CONTINUOUS
 62
     4
 10
18702.01234958514
 20
19317.986251999992
 30
0.0
 11
18702.01234958514
 21
19077.986251999992
 31
0.0
  0
LINE
  5
13319
  8
SUNPOU
  6
CONTINUOUS
 62
     4
 10
18702.01234958514
 20
19317.986251999992
 30
0.0
 11
18702.01234958514
 21
20025.16588976598
 31
0.0
  0
LINE
  5
1331A
  8
SUNPOU
  6
CONTINUOUS
 62
     4
 10
18302.01234958514
 20
19317.986251999992
 30
0.0
 11
18302.01234958514
 21
20025.16588976598
 31
0.0
  0
LINE
  5
1331B
  8
SUNPOU
  6
CONTINUOUS
 62
     4
 10
18822.01234958514
 20
14182.986252000001
 30
0.0
 11
18622.01234958514
 21
14182.986252000001
 31
0.0
  0
LINE
  5
1331C
  8
SUNPOU
  6
CONTINUOUS
 62
     4
 10
19672.01366958514
 20
14140.48895699999
 30
0.0
 11
18622.01234958514
 21
14140.48895699999
 31
0.0
  0
LINE
  5
1331D
  8
SUNPOU
  6
CONTINUOUS
 62
     4
 10
18702.01234958514
 20
14182.986252000001
 30
0.0
 11
18702.01234958514
 21
14422.986252000001
 31
0.0
  0
LINE
  5
1331E
  8
SUNPOU
  6
CONTINUOUS
 62
     4
 10
18302.01234958514
 20
14140.48895699999
 30
0.0
 11
18302.01234958514
 21
13900.48895699999
 31
0.0
  0
LINE
  5
1331F
  8
SUNPOU
  6
CONTINUOUS
 62
     4
 10
18702.01234958514
 20
14182.986252000001
 30
0.0
 11
18702.01234958514
 21
13396.549107928709
 31
0.0
  0
LINE
  5
13320
  8
SUNPOU
  6
CONTINUOUS
 62
     4
 10
18302.01234958514
 20
14182.986252000001
 30
0.0
 11
18302.01234958514
 21
13396.549107928709
 31
0.0
  0
TEXT
  5
13321
  8
0
  6
CONTINUOUS
 62
     7
 10
18222.01234958514
 20
13566.932720603199
 30
0.0
 40
160.0
  1
42.5
 50
90.0
  0
TEXT
  5
13322
  8
0
  6
CONTINUOUS
 62
     7
 10
18222.01234958514
 20
19454.03978339678
 30
0.0
 40
160.0
  1
42.5
 50
90.0
  0
TEXT
  5
13323
  8
0
  6
CONTINUOUS
 62
     7
 10
17822.01234958514
 20
16470.486251999999
 30
0.0
 40
160.0
  1
5220
 50
90.0
  0
TEXT
  5
13324
  8
0
  6
CONTINUOUS
 62
     7
 10
18622.012349585129
 20
18386.65291866667
 30
0.0
 40
160.0
  1
701
 50
90.0
  0
TEXT
  5
13325
  8
0
  6
CONTINUOUS
 62
     7
 10
18622.012349585129
 20
17685.65291866667
 30
0.0
 40
160.0
  1
701
 50
90.0
  0
TEXT
  5
13326
  8
0
  6
CONTINUOUS
 62
     7
 10
18622.012349585129
 20
16916.15291866667
 30
0.0
 40
160.0
  1
758
 50
90.0
  0
TEXT
  5
13327
  8
0
  6
CONTINUOUS
 62
     7
 10
18622.012349585129
 20
16158.15291866667
 30
0.0
 40
160.0
  1
758
 50
90.0
  0
TEXT
  5
13328
  8
0
  6
CONTINUOUS
 62
     7
 10
18622.012349585129
 20
15468.77317441667
 30
0.0
 40
160.0
  1
701
 50
90.0
  0
TEXT
  5
13329
  8
0
  6
CONTINUOUS
 62
     7
 10
18622.012349585129
 20
14767.77317441667
 30
0.0
 40
160.0
  1
701
 50
90.0
  0
TEXT
  5
1332A
  8
0
  6
CONTINUOUS
 62
     7
 10
20678.26195358513
 20
12891.538167999999
 30
0.0
 40
160.0
  1
2652.5
  0
TEXT
  5
1332B
  8
0
  6
CONTINUOUS
 62
     7
 10
19912.565625967221
 20
13291.538167999999
 30
0.0
 40
160.0
  1
42.5
  0
TEXT
  5
1332C
  8
0
  6
CONTINUOUS
 62
     7
 10
21763.95828120306
 20
13291.538167999999
 30
0.0
 40
160.0
  1
42.5
  0
TEXT
  5
1332D
  8
0
  6
CONTINUOUS
 62
     7
 10
22480.065625967229
 20
13291.538167999999
 30
0.0
 40
160.0
  1
42.5
  0
TEXT
  5
1332E
  8
0
  6
CONTINUOUS
 62
     7
 10
19196.458281203038
 20
13291.538167999999
 30
0.0
 40
160.0
  1
42.5
  0
TEXT
  5
1332F
  8
0
  6
CONTINUOUS
 62
     7
 10
18582.012349585159
 20
19397.076951939369
 30
0.0
 40
160.0
  1
407.5
 50
90.0
  0
TEXT
  5
13330
  8
0
  6
CONTINUOUS
 62
     7
 10
18582.012349585159
 20
13449.859131171281
 30
0.0
 40
160.0
  1
407.5
 50
90.0
  0
ARC
  5
13331
  8
0
  6
BYBLOCK
 62
     0
 10
18702.01234958514
 20
14590.606507750001
 30
0.0
 40
15.0
 50
90.0
 51
270.0
  0
ARC
  5
13332
  8
0
  6
BYBLOCK
 62
     0
 10
18702.01234958514
 20
14590.606507750001
 30
0.0
 40
15.0
 50
270.0
 51
90.0
  0
ARC
  5
13333
  8
0
  6
BYBLOCK
 62
     0
 10
18702.01234958514
 20
14183.106507750001
 30
0.0
 40
15.0
 50
270.0
 51
90.0
  0
ARC
  5
13334
  8
0
  6
BYBLOCK
 62
     0
 10
18702.01234958514
 20
14183.106507750001
 30
0.0
 40
15.0
 50
90.0
 51
270.0
  0
ARC
  5
13335
  8
0
  6
BYBLOCK
 62
     0
 10
18702.01234958514
 20
18910.486251999992
 30
0.0
 40
15.0
 50
270.0
 51
90.0
  0
ARC
  5
13336
  8
0
  6
BYBLOCK
 62
     0
 10
18702.01234958514
 20
18910.486251999992
 30
0.0
 40
15.0
 50
90.0
 51
270.0
  0
ARC
  5
13337
  8
0
  6
BYBLOCK
 62
     0
 10
18702.01234958514
 20
19317.986251999992
 30
0.0
 40
15.0
 50
90.0
 51
270.0
  0
ARC
  5
13338
  8
0
  6
BYBLOCK
 62
     0
 10
18702.01234958514
 20
19317.986251999992
 30
0.0
 40
15.0
 50
270.0
 51
90.0
  0
ARC
  5
13339
  8
0
  6
BYBLOCK
 62
     0
 10
19794.51195358513
 20
13211.538167999999
 30
0.0
 40
15.0
 50
0.0
 51
180.0
  0
ARC
  5
1333A
  8
0
  6
BYBLOCK
 62
     0
 10
19794.51195358513
 20
13211.538167999999
 30
0.0
 40
15.0
 50
180.0
 51
0.0
  0
ARC
  5
1333B
  8
0
  6
BYBLOCK
 62
     0
 10
19752.009710585138
 20
13211.538167999999
 30
0.0
 40
15.0
 50
180.0
 51
0.0
  0
ARC
  5
1333C
  8
0
  6
BYBLOCK
 62
     0
 10
19752.009710585138
 20
13211.538167999999
 30
0.0
 40
15.0
 50
0.0
 51
180.0
  0
ARC
  5
1333D
  8
0
  6
BYBLOCK
 62
     0
 10
22362.011953585141
 20
13211.538167999999
 30
0.0
 40
15.0
 50
180.0
 51
0.0
  0
ARC
  5
1333E
  8
0
  6
BYBLOCK
 62
     0
 10
22362.011953585141
 20
13211.538167999999
 30
0.0
 40
15.0
 50
0.0
 51
180.0
  0
ARC
  5
1333F
  8
0
  6
BYBLOCK
 62
     0
 10
22404.514196585129
 20
13211.538167999999
 30
0.0
 40
15.0
 50
0.0
 51
180.0
  0
ARC
  5
13340
  8
0
  6
BYBLOCK
 62
     0
 10
22404.514196585129
 20
13211.538167999999
 30
0.0
 40
15.0
 50
180.0
 51
0.0
  0
ARC
  5
13341
  8
0
  6
BYBLOCK
 62
     0
 10
22362.011953585141
 20
13211.538167999999
 30
0.0
 40
15.0
 50
0.0
 51
180.0
  0
ARC
  5
13342
  8
0
  6
BYBLOCK
 62
     0
 10
22362.011953585141
 20
13211.538167999999
 30
0.0
 40
15.0
 50
180.0
 51
0.0
  0
ARC
  5
13343
  8
0
  6
BYBLOCK
 62
     0
 10
22319.509710585131
 20
13211.538167999999
 30
0.0
 40
15.0
 50
180.0
 51
0.0
  0
ARC
  5
13344
  8
0
  6
BYBLOCK
 62
     0
 10
22319.509710585131
 20
13211.538167999999
 30
0.0
 40
15.0
 50
0.0
 51
180.0
  0
ARC
  5
13345
  8
0
  6
BYBLOCK
 62
     0
 10
19794.51195358513
 20
13211.538167999999
 30
0.0
 40
15.0
 50
180.0
 51
0.0
  0
ARC
  5
13346
  8
0
  6
BYBLOCK
 62
     0
 10
19794.51195358513
 20
13211.538167999999
 30
0.0
 40
15.0
 50
0.0
 51
180.0
  0
ARC
  5
13347
  8
0
  6
BYBLOCK
 62
     0
 10
19837.014196585129
 20
13211.538167999999
 30
0.0
 40
15.0
 50
0.0
 51
180.0
  0
ARC
  5
13348
  8
0
  6
BYBLOCK
 62
     0
 10
19837.014196585129
 20
13211.538167999999
 30
0.0
 40
15.0
 50
180.0
 51
0.0
  0
ARC
  5
13349
  8
0
  6
BYBLOCK
 62
     0
 10
19752.009710585138
 20
12811.538167999999
 30
0.0
 40
15.0
 50
0.0
 51
180.0
  0
ARC
  5
1334A
  8
0
  6
BYBLOCK
 62
     0
 10
19752.009710585138
 20
12811.538167999999
 30
0.0
 40
15.0
 50
180.0
 51
0.0
  0
ARC
  5
1334B
  8
0
  6
BYBLOCK
 62
     0
 10
22404.514196585129
 20
12811.538167999999
 30
0.0
 40
15.0
 50
180.0
 51
0.0
  0
ARC
  5
1334C
  8
0
  6
BYBLOCK
 62
     0
 10
22404.514196585129
 20
12811.538167999999
 30
0.0
 40
15.0
 50
0.0
 51
180.0
  0
ARC
  5
1334D
  8
0
  6
BYBLOCK
 62
     0
 10
18702.01234958514
 20
15291.726763500021
 30
0.0
 40
15.0
 50
90.0
 51
270.0
  0
ARC
  5
1334E
  8
0
  6
BYBLOCK
 62
     0
 10
18702.01234958514
 20
15291.726763500021
 30
0.0
 40
15.0
 50
270.0
 51
90.0
  0
ARC
  5
1334F
  8
0
  6
BYBLOCK
 62
     0
 10
18702.01234958514
 20
14590.48625199999
 30
0.0
 40
15.0
 50
270.0
 51
90.0
  0
ARC
  5
13350
  8
0
  6
BYBLOCK
 62
     0
 10
18702.01234958514
 20
14590.48625199999
 30
0.0
 40
15.0
 50
90.0
 51
270.0
  0
ARC
  5
13351
  8
0
  6
BYBLOCK
 62
     0
 10
18702.01234958514
 20
15992.486252000001
 30
0.0
 40
15.0
 50
90.0
 51
270.0
  0
ARC
  5
13352
  8
0
  6
BYBLOCK
 62
     0
 10
18702.01234958514
 20
15992.486252000001
 30
0.0
 40
15.0
 50
270.0
 51
90.0
  0
ARC
  5
13353
  8
0
  6
BYBLOCK
 62
     0
 10
18702.01234958514
 20
15291.726763500021
 30
0.0
 40
15.0
 50
270.0
 51
90.0
  0
ARC
  5
13354
  8
0
  6
BYBLOCK
 62
     0
 10
18702.01234958514
 20
15291.726763500021
 30
0.0
 40
15.0
 50
90.0
 51
270.0
  0
ARC
  5
13355
  8
0
  6
BYBLOCK
 62
     0
 10
18702.01234958514
 20
16750.486251999992
 30
0.0
 40
15.0
 50
90.0
 51
270.0
  0
ARC
  5
13356
  8
0
  6
BYBLOCK
 62
     0
 10
18702.01234958514
 20
16750.486251999992
 30
0.0
 40
15.0
 50
270.0
 51
90.0
  0
ARC
  5
13357
  8
0
  6
BYBLOCK
 62
     0
 10
18702.01234958514
 20
15992.486252000001
 30
0.0
 40
15.0
 50
270.0
 51
90.0
  0
ARC
  5
13358
  8
0
  6
BYBLOCK
 62
     0
 10
18702.01234958514
 20
15992.486252000001
 30
0.0
 40
15.0
 50
90.0
 51
270.0
  0
ARC
  5
13359
  8
0
  6
BYBLOCK
 62
     0
 10
18702.01234958514
 20
17508.486251999981
 30
0.0
 40
15.0
 50
90.0
 51
270.0
  0
ARC
  5
1335A
  8
0
  6
BYBLOCK
 62
     0
 10
18702.01234958514
 20
17508.486251999981
 30
0.0
 40
15.0
 50
270.0
 51
90.0
  0
ARC
  5
1335B
  8
0
  6
BYBLOCK
 62
     0
 10
18702.01234958514
 20
16750.486251999992
 30
0.0
 40
15.0
 50
270.0
 51
90.0
  0
ARC
  5
1335C
  8
0
  6
BYBLOCK
 62
     0
 10
18702.01234958514
 20
16750.486251999992
 30
0.0
 40
15.0
 50
90.0
 51
270.0
  0
ARC
  5
1335D
  8
0
  6
BYBLOCK
 62
     0
 10
18702.01234958514
 20
18209.486251999981
 30
0.0
 40
15.0
 50
90.0
 51
270.0
  0
ARC
  5
1335E
  8
0
  6
BYBLOCK
 62
     0
 10
18702.01234958514
 20
18209.486251999981
 30
0.0
 40
15.0
 50
270.0
 51
90.0
  0
ARC
  5
1335F
  8
0
  6
BYBLOCK
 62
     0
 10
18702.01234958514
 20
17508.486251999981
 30
0.0
 40
15.0
 50
270.0
 51
90.0
  0
ARC
  5
13360
  8
0
  6
BYBLOCK
 62
     0
 10
18702.01234958514
 20
17508.486251999981
 30
0.0
 40
15.0
 50
90.0
 51
270.0
  0
ARC
  5
13361
  8
0
  6
BYBLOCK
 62
     0
 10
18702.01234958514
 20
18910.486251999992
 30
0.0
 40
15.0
 50
90.0
 51
270.0
  0
ARC
  5
13362
  8
0
  6
BYBLOCK
 62
     0
 10
18702.01234958514
 20
18910.486251999992
 30
0.0
 40
15.0
 50
270.0
 51
90.0
  0
ARC
  5
13363
  8
0
  6
BYBLOCK
 62
     0
 10
18702.01234958514
 20
18209.486251999981
 30
0.0
 40
15.0
 50
270.0
 51
90.0
  0
ARC
  5
13364
  8
0
  6
BYBLOCK
 62
     0
 10
18702.01234958514
 20
18209.486251999981
 30
0.0
 40
15.0
 50
90.0
 51
270.0
  0
ARC
  5
13365
  8
0
  6
BYBLOCK
 62
     0
 10
18702.01234958514
 20
19317.986251999992
 30
0.0
 40
15.0
 50
90.0
 51
270.0
  0
ARC
  5
13366
  8
0
  6
BYBLOCK
 62
     0
 10
18702.01234958514
 20
19317.986251999992
 30
0.0
 40
15.0
 50
270.0
 51
90.0
  0
ARC
  5
13367
  8
0
  6
BYBLOCK
 62
     0
 10
18702.01234958514
 20
14182.986252000001
 30
0.0
 40
15.0
 50
270.0
 51
90.0
  0
ARC
  5
13368
  8
0
  6
BYBLOCK
 62
     0
 10
18702.01234958514
 20
14182.986252000001
 30
0.0
 40
15.0
 50
90.0
 51
270.0
  0
ARC
  5
13369
  8
0
  6
BYBLOCK
 62
     0
 10
17902.01234958514
 20
19360.483547
 30
0.0
 40
15.0
 50
90.0
 51
270.0
  0
ARC
  5
1336A
  8
0
  6
BYBLOCK
 62
     0
 10
17902.01234958514
 20
19360.483547
 30
0.0
 40
15.0
 50
270.0
 51
90.0
  0
ARC
  5
1336B
  8
0
  6
BYBLOCK
 62
     0
 10
17902.01234958514
 20
14140.48895699999
 30
0.0
 40
15.0
 50
270.0
 51
90.0
  0
ARC
  5
1336C
  8
0
  6
BYBLOCK
 62
     0
 10
17902.01234958514
 20
14140.48895699999
 30
0.0
 40
15.0
 50
90.0
 51
270.0
  0
ARC
  5
1336D
  8
0
  6
BYBLOCK
 62
     0
 10
18702.01234958514
 20
19317.986251999992
 30
0.0
 40
15.0
 50
90.0
 51
270.0
  0
ARC
  5
1336E
  8
0
  6
BYBLOCK
 62
     0
 10
18702.01234958514
 20
19317.986251999992
 30
0.0
 40
15.0
 50
270.0
 51
90.0
  0
ARC
  5
1336F
  8
0
  6
BYBLOCK
 62
     0
 10
18302.01234958514
 20
19360.483547
 30
0.0
 40
15.0
 50
270.0
 51
90.0
  0
ARC
  5
13370
  8
0
  6
BYBLOCK
 62
     0
 10
18302.01234958514
 20
19360.483547
 30
0.0
 40
15.0
 50
90.0
 51
270.0
  0
ARC
  5
13371
  8
0
  6
BYBLOCK
 62
     0
 10
18702.01234958514
 20
14182.986252000001
 30
0.0
 40
15.0
 50
270.0
 51
90.0
  0
ARC
  5
13372
  8
0
  6
BYBLOCK
 62
     0
 10
18702.01234958514
 20
14182.986252000001
 30
0.0
 40
15.0
 50
90.0
 51
270.0
  0
ARC
  5
13373
  8
0
  6
BYBLOCK
 62
     0
 10
18302.01234958514
 20
14140.48895699999
 30
0.0
 40
15.0
 50
90.0
 51
270.0
  0
ARC
  5
13374
  8
0
  6
BYBLOCK
 62
     0
 10
18302.01234958514
 20
14140.48895699999
 30
0.0
 40
15.0
 50
270.0
 51
90.0
  0
LINE
  5
13375
  8
2-0
  6
CONTINUOUS
 62
     6
 10
20712.951494954032
 20
19239.83164261312
 30
0.0
 11
21120.717360180151
 21
18959.50167942006
 31
0.0
  0
LINE
  5
13376
  8
2-0
  6
CONTINUOUS
 62
     6
 10
20728.06602075394
 20
19261.809607972398
 30
0.0
 11
20581.10609958514
 21
19330.480973999998
 31
0.0
  0
LINE
  5
13377
  8
2-0
  6
CONTINUOUS
 62
     6
 10
20581.10609958514
 20
19330.480973999998
 30
0.0
 11
20697.845394701311
 21
19217.85887382146
 31
0.0
  0
LINE
  5
13378
  8
2-0
  6
CONTINUOUS
 62
     6
 10
20728.06602075394
 20
19261.809607972398
 30
0.0
 11
20697.845394701311
 21
19217.85887382146
 31
0.0
  0
LINE
  5
13379
  8
2-0
  6
CONTINUOUS
 62
     6
 10
20697.845394701311
 20
19217.85887382146
 30
0.0
 11
20581.10609958514
 21
19330.480973999998
 31
0.0
  0
LINE
  5
1337A
  8
2-0
  6
CONTINUOUS
 62
     6
 10
20581.10609958514
 20
19330.480973999998
 30
0.0
 11
20728.06602075394
 21
19261.809607972398
 31
0.0
  0
LINE
  5
1337B
  8
2-0
  6
CONTINUOUS
 62
     6
 10
20728.06602075394
 20
19261.809607972398
 30
0.0
 11
20581.10609958514
 21
19330.480973999998
 31
0.0
  0
LINE
  5
1337C
  8
2-0
  6
CONTINUOUS
 62
     6
 10
20697.845394701311
 20
19217.85887382146
 30
0.0
 11
20581.10609958514
 21
19330.480973999998
 31
0.0
  0
LINE
  5
1337D
  8
2-0
  6
CONTINUOUS
 62
     6
 10
20697.845394701311
 20
19217.85887382146
 30
0.0
 11
20728.06602075394
 21
19261.809607972398
 31
0.0
  0
LINE
  5
1337E
  8
SUNPOU
  6
CONTINUOUS
 62
     4
 10
19108.97062158514
 20
18209.486251999981
 30
0.0
 11
18222.01234958514
 21
18209.486251999981
 31
0.0
  0
LINE
  5
1337F
  8
SUNPOU
  6
CONTINUOUS
 62
     4
 10
18302.01234958514
 20
18209.486251999981
 30
0.0
 11
18302.01234958514
 21
19317.986251999992
 31
0.0
  0
LINE
  5
13380
  8
SUNPOU
  6
CONTINUOUS
 62
     4
 10
19108.97062158514
 20
18209.486251999981
 30
0.0
 11
18222.01234958514
 21
18209.486251999981
 31
0.0
  0
LINE
  5
13381
  8
SUNPOU
  6
CONTINUOUS
 62
     4
 10
18302.01234958514
 20
16750.486251999992
 30
0.0
 11
18302.01234958514
 21
18209.486251999981
 31
0.0
  0
LINE
  5
13382
  8
SUNPOU
  6
CONTINUOUS
 62
     4
 10
19108.97062158514
 20
15291.726763500021
 30
0.0
 11
18222.01234958514
 21
15291.726763500021
 31
0.0
  0
LINE
  5
13383
  8
SUNPOU
  6
CONTINUOUS
 62
     4
 10
18302.01234958514
 20
15291.726763500021
 30
0.0
 11
18302.01234958514
 21
16750.486251999992
 31
0.0
  0
LINE
  5
13384
  8
SUNPOU
  6
CONTINUOUS
 62
     4
 10
19108.97062158514
 20
15291.726763500021
 30
0.0
 11
18222.01234958514
 21
15291.726763500021
 31
0.0
  0
LINE
  5
13385
  8
SUNPOU
  6
CONTINUOUS
 62
     4
 10
18302.01234958514
 20
14182.986252000001
 30
0.0
 11
18302.01234958514
 21
15291.726763500021
 31
0.0
  0
TEXT
  5
13386
  8
0
  6
CONTINUOUS
 62
     7
 10
18222.01234958514
 20
14404.02317441667
 30
0.0
 40
160.0
  1
1108.5
 50
90.0
  0
TEXT
  5
13387
  8
0
  6
CONTINUOUS
 62
     7
 10
18222.01234958514
 20
15754.439841083329
 30
0.0
 40
160.0
  1
1459
 50
90.0
  0
TEXT
  5
13388
  8
0
  6
CONTINUOUS
 62
     7
 10
18222.01234958514
 20
17213.319585333309
 30
0.0
 40
160.0
  1
1459
 50
90.0
  0
TEXT
  5
13389
  8
0
  6
CONTINUOUS
 62
     7
 10
18222.01234958514
 20
18430.40291866667
 30
0.0
 40
160.0
  1
1108.5
 50
90.0
  0
ARC
  5
1338A
  8
0
  6
BYBLOCK
 62
     0
 10
18302.01234958514
 20
18209.486251999981
 30
0.0
 40
15.0
 50
270.0
 51
90.0
  0
ARC
  5
1338B
  8
0
  6
BYBLOCK
 62
     0
 10
18302.01234958514
 20
18209.486251999981
 30
0.0
 40
15.0
 50
90.0
 51
270.0
  0
ARC
  5
1338C
  8
0
  6
BYBLOCK
 62
     0
 10
18302.01234958514
 20
19317.986251999992
 30
0.0
 40
15.0
 50
90.0
 51
270.0
  0
ARC
  5
1338D
  8
0
  6
BYBLOCK
 62
     0
 10
18302.01234958514
 20
19317.986251999992
 30
0.0
 40
15.0
 50
270.0
 51
90.0
  0
ARC
  5
1338E
  8
0
  6
BYBLOCK
 62
     0
 10
18302.01234958514
 20
16750.486251999992
 30
0.0
 40
15.0
 50
270.0
 51
90.0
  0
ARC
  5
1338F
  8
0
  6
BYBLOCK
 62
     0
 10
18302.01234958514
 20
16750.486251999992
 30
0.0
 40
15.0
 50
90.0
 51
270.0
  0
ARC
  5
13390
  8
0
  6
BYBLOCK
 62
     0
 10
18302.01234958514
 20
18209.486251999981
 30
0.0
 40
15.0
 50
90.0
 51
270.0
  0
ARC
  5
13391
  8
0
  6
BYBLOCK
 62
     0
 10
18302.01234958514
 20
18209.486251999981
 30
0.0
 40
15.0
 50
270.0
 51
90.0
  0
ARC
  5
13392
  8
0
  6
BYBLOCK
 62
     0
 10
18302.01234958514
 20
15291.726763500021
 30
0.0
 40
15.0
 50
270.0
 51
90.0
  0
ARC
  5
13393
  8
0
  6
BYBLOCK
 62
     0
 10
18302.01234958514
 20
15291.726763500021
 30
0.0
 40
15.0
 50
90.0
 51
270.0
  0
ARC
  5
13394
  8
0
  6
BYBLOCK
 62
     0
 10
18302.01234958514
 20
16750.486251999992
 30
0.0
 40
15.0
 50
90.0
 51
270.0
  0
ARC
  5
13395
  8
0
  6
BYBLOCK
 62
     0
 10
18302.01234958514
 20
16750.486251999992
 30
0.0
 40
15.0
 50
270.0
 51
90.0
  0
ARC
  5
13396
  8
0
  6
BYBLOCK
 62
     0
 10
18302.01234958514
 20
14182.986252000001
 30
0.0
 40
15.0
 50
270.0
 51
90.0
  0
ARC
  5
13397
  8
0
  6
BYBLOCK
 62
     0
 10
18302.01234958514
 20
14182.986252000001
 30
0.0
 40
15.0
 50
90.0
 51
270.0
  0
ARC
  5
13398
  8
0
  6
BYBLOCK
 62
     0
 10
18302.01234958514
 20
15291.726763500021
 30
0.0
 40
15.0
 50
90.0
 51
270.0
  0
ARC
  5
13399
  8
0
  6
BYBLOCK
 62
     0
 10
18302.01234958514
 20
15291.726763500021
 30
0.0
 40
15.0
 50
270.0
 51
90.0
  0
LINE
  5
133A0
  8
2-0
  6
CENTER2
 62
     6
 10
22362.011953585141
 20
20960.488495000009
 30
0.0
 11
22362.011953585141
 21
13825.23237353158
 31
0.0
  0
LINE
  5
133A3
  8
2-0
  6
CENTER2
 62
     6
 10
19794.511953585141
 20
20960.488495000009
 30
0.0
 11
19794.511953585141
 21
13825.23237353158
 31
0.0
  0
TEXT
  5
10134D6
  8
FILENAME
  6
CONTINUOUS
 10
26061.142857142851
 20
348.0
 30
0.0
 40
200.0
  1
＜VGCU-2652+VKCU-2852-R-1-A_0.DXF ＞
  7
FILENAME
 72
     2
 11
32764.0
 21
348.0
 31
0.0
  0
LINE
  5
10134DB
  8
WAKUSEN-01
 10
868.00000000000193
 20
827.99999999999955
 30
0.0
 11
32764.000000000011
 21
827.99999999999943
 31
0.0
  0
LINE
  5
10134DC
  8
WAKUSEN-01
 10
868.00000000000193
 20
827.99999999999955
 30
0.0
 11
868.00000000000193
 21
22484.000000000011
 31
0.0
  0
LINE
  5
10134DD
  8
WAKUSEN-01
 10
32764.000000000011
 20
827.99999999999943
 30
0.0
 11
32764.000000000011
 21
22484.000000000011
 31
0.0
  0
LINE
  5
10134DE
  8
WAKUSEN-01
 10
20560.0
 20
827.99999999999716
 30
0.0
 11
20560.0
 21
2484.0
 31
0.0
  0
LINE
  5
10134DF
  8
WAKUSEN-02
 10
26868.0
 20
827.99999999999261
 30
0.0
 11
26868.0
 21
2484.0
 31
0.0
  0
ENDSEC
  0
EOF
