  0
SECTION
  2
HEADER
  9
$ACADVER
  1
AC1009
  9
$INSBASE
 10
0.0
 20
0.0
 30
0.0
  9
$EXTMIN
 10
867.99324330406671
 20
327.38164749855792
 30
-0.0000000000000057
  9
$EXTMAX
 10
32765.33210850941
 20
22484.553276491992
 30
0.0000000000000104
  9
$LIMMIN
 10
0.0
 20
0.0
  9
$LIMMAX
 10
33600.0
 20
23760.0
  9
$ORTHOMODE
 70
     1
  9
$REGENMODE
 70
     1
  9
$FILLMODE
 70
     1
  9
$QTEXTMODE
 70
     0
  9
$MIRRTEXT
 70
     0
  9
$DRAGMODE
 70
     2
  9
$LTSCALE
 40
80.0
  9
$OSMODE
 70
  3071
  9
$ATTMODE
 70
     1
  9
$TEXTSIZE
 40
0.2
  9
$TRACEWID
 40
0.05
  9
$TEXTSTYLE
  7
00
  9
$CLAYER
  8
0
  9
$CELTYPE
  6
BYLAYER
  9
$CECOLOR
 62
   256
  9
$DIMSCALE
 40
1.0
  9
$DIMASZ
 40
0.18
  9
$DIMEXO
 40
0.0625
  9
$DIMDLI
 40
0.38
  9
$DIMRND
 40
0.0
  9
$DIMDLE
 40
0.0
  9
$DIMEXE
 40
0.18
  9
$DIMTP
 40
0.0
  9
$DIMTM
 40
0.0
  9
$DIMTXT
 40
0.18
  9
$DIMCEN
 40
0.09
  9
$DIMTSZ
 40
0.0
  9
$DIMTOL
 70
     0
  9
$DIMLIM
 70
     0
  9
$DIMTIH
 70
     1
  9
$DIMTOH
 70
     1
  9
$DIMSE1
 70
     0
  9
$DIMSE2
 70
     0
  9
$DIMTAD
 70
     0
  9
$DIMZIN
 70
     0
  9
$DIMBLK
  1

  9
$DIMASO
 70
     1
  9
$DIMSHO
 70
     1
  9
$DIMPOST
  1

  9
$DIMAPOST
  1

  9
$DIMALT
 70
     0
  9
$DIMALTD
 70
     2
  9
$DIMALTF
 40
25.399999999999999
  9
$DIMLFAC
 40
1.0
  9
$DIMTOFL
 70
     0
  9
$DIMTVP
 40
0.0
  9
$DIMTIX
 70
     0
  9
$DIMSOXD
 70
     0
  9
$DIMSAH
 70
     0
  9
$DIMBLK1
  1

  9
$DIMBLK2
  1

  9
$DIMSTYLE
  2
STANDARD
  9
$DIMCLRD
 70
     0
  9
$DIMCLRE
 70
     0
  9
$DIMCLRT
 70
     0
  9
$DIMTFAC
 40
1.0
  9
$DIMGAP
 40
0.09
  9
$LUNITS
 70
     2
  9
$LUPREC
 70
     4
  9
$SKETCHINC
 40
0.1
  9
$FILLETRAD
 40
0.0
  9
$AUNITS
 70
     0
  9
$AUPREC
 70
     0
  9
$MENU
  1
acad
  9
$ELEVATION
 40
0.0
  9
$PELEVATION
 40
0.0
  9
$THICKNESS
 40
0.0
  9
$LIMCHECK
 70
     0
  9
$BLIPMODE
 70
     1
  9
$CHAMFERA
 40
0.0
  9
$CHAMFERB
 40
0.0
  9
$SKPOLY
 70
     0
  9
$TDCREATE
 40
2311940.075052408
  9
$TDUPDATE
 40
2458942.460422813
  9
$TDINDWG
 40
0.320310463
  9
$TDUSRTIMER
 40
0.3203096644
  9
$USRTIMER
 70
     1
  9
$ANGBASE
 50
0.0
  9
$ANGDIR
 70
     0
  9
$PDMODE
 70
     0
  9
$PDSIZE
 40
0.0
  9
$PLINEWID
 40
0.0
  9
$COORDS
 70
     1
  9
$SPLFRAME
 70
     0
  9
$SPLINETYPE
 70
     6
  9
$SPLINESEGS
 70
     8
  9
$ATTDIA
 70
     1
  9
$ATTREQ
 70
     1
  9
$HANDLING
 70
     1
  9
$HANDSEED
  5
10110E8
  9
$SURFTAB1
 70
     6
  9
$SURFTAB2
 70
     6
  9
$SURFTYPE
 70
     6
  9
$SURFU
 70
     6
  9
$SURFV
 70
     6
  9
$UCSNAME
  2

  9
$UCSORG
 10
0.0
 20
0.0
 30
0.0
  9
$UCSXDIR
 10
1.0
 20
0.0
 30
0.0
  9
$UCSYDIR
 10
0.0
 20
1.0
 30
0.0
  9
$PUCSNAME
  2

  9
$PUCSORG
 10
0.0
 20
0.0
 30
0.0
  9
$PUCSXDIR
 10
1.0
 20
0.0
 30
0.0
  9
$PUCSYDIR
 10
0.0
 20
1.0
 30
0.0
  9
$USERI1
 70
     0
  9
$USERI2
 70
     0
  9
$USERI3
 70
     0
  9
$USERI4
 70
     0
  9
$USERI5
 70
     0
  9
$USERR1
 40
0.0
  9
$USERR2
 40
0.0
  9
$USERR3
 40
0.0
  9
$USERR4
 40
0.0
  9
$USERR5
 40
0.0
  9
$WORLDVIEW
 70
     1
  9
$SHADEDGE
 70
     3
  9
$SHADEDIF
 70
    70
  9
$TILEMODE
 70
     1
  9
$MAXACTVP
 70
    16
  9
$PLIMCHECK
 70
     0
  9
$PEXTMIN
 10
1.0000000000000000E+020
 20
1.0000000000000000E+020
 30
1.0000000000000000E+020
  9
$PEXTMAX
 10
-1.0000000000000000E+020
 20
-1.0000000000000000E+020
 30
-1.0000000000000000E+020
  9
$PLIMMIN
 10
0.0
 20
0.0
  9
$PLIMMAX
 10
12.0
 20
9.0
  9
$UNITMODE
 70
     0
  9
$VISRETAIN
 70
     0
  9
$PLINEGEN
 70
     1
  9
$PSLTSCALE
 70
     0
  0
ENDSEC
  0
SECTION
  2
TABLES
  0
TABLE
  2
VPORT
 70
     1
  0
VPORT
  2
*ACTIVE
 70
     0
 10
0.0
 20
0.0
 11
1.0
 21
1.0
 12
16800.0
 22
11880.0
 13
0.0
 23
0.0
 14
1.0
 24
1.0
 15
0.0
 25
0.0
 16
0.0
 26
0.0
 36
1.0
 17
0.0
 27
0.0
 37
0.0
 40
23981.023255813951
 41
2.195652173913043
 42
50.0
 43
0.0
 44
0.0
 50
0.0
 51
0.0
 71
     0
 72
 10000
 73
     1
 74
     1
 75
     0
 76
     0
 77
     0
 78
     0
  0
ENDTAB
  0
TABLE
  2
LTYPE
 70
     6
  0
LTYPE
  2
CONTINUOUS
 70
     0
  3
Solid line
 72
    65
 73
     0
 40
0.0
  0
LTYPE
  2
DASHED3
 70
     0
  3
------  ------  ------  ------  
 72
    65
 73
     2
 40
5.0
 49
3.75
 49
-1.25
  0
LTYPE
  2
CENTER2
 70
     0
  3
----------  --  ----------  --  
 72
    65
 73
     4
 40
20.0
 49
12.5
 49
-2.5
 49
2.5
 49
-2.5
  0
LTYPE
  2
HIDE-M
 70
     0
  3

 72
    65
 73
     2
 40
2.0
 49
1.0
 49
-1.0
  0
LTYPE
  2
1PL-M
 70
     0
  3

 72
    65
 73
     4
 40
15.0
 49
12.0
 49
-1.0
 49
1.0
 49
-1.0
  0
LTYPE
  2
PHANTOM2
 70
     0
  3
___ _ _ ___ _ _ ___ _ _ ___ _ _
 72
    65
 73
     6
 40
1.25
 49
0.625
 49
-0.125
 49
0.125
 49
-0.125
 49
0.125
 49
-0.125
  0
ENDTAB
  0
TABLE
  2
LAYER
 70
    24
  0
LAYER
  2
0
 70
     0
 62
     7
  6
CONTINUOUS
  0
LAYER
  2
SUNPOU
 70
     0
 62
     4
  6
CONTINUOUS
  0
LAYER
  2
0-1
 70
     0
 62
     7
  6
CONTINUOUS
  0
LAYER
  2
0-2
 70
     0
 62
     7
  6
CONTINUOUS
  0
LAYER
  2
0-5
 70
     0
 62
     7
  6
CONTINUOUS
  0
LAYER
  2
0-6
 70
     0
 62
     7
  6
CONTINUOUS
  0
LAYER
  2
2-0
 70
     0
 62
     7
  6
CONTINUOUS
  0
LAYER
  2
0-8
 70
     0
 62
     7
  6
CONTINUOUS
  0
LAYER
  2
YODOROGO
 70
     0
 62
   130
  6
CONTINUOUS
  0
LAYER
  2
WAKUSEN-01
 70
     0
 62
    50
  6
CONTINUOUS
  0
LAYER
  2
WAKUSEN-02
 70
     0
 62
   130
  6
CONTINUOUS
  0
LAYER
  2
WAKUMOJI-01
 70
     0
 62
   130
  6
CONTINUOUS
  0
LAYER
  2
FILENAME
 70
     0
 62
     7
  6
CONTINUOUS
  0
LAYER
  2
NAME
 70
     0
 62
    20
  6
CONTINUOUS
  0
LAYER
  2
0-4
 70
     0
 62
     7
  6
CONTINUOUS
  0
LAYER
  2
1-前柱P
 70
     0
 62
     3
  6
CONTINUOUS
  0
LAYER
  2
1-前柱カバ-P
 70
     0
 62
     3
  6
CONTINUOUS
  0
LAYER
  2
1-桁前P28
 70
     0
 62
     3
  6
CONTINUOUS
  0
LAYER
  2
1-後柱P
 70
     0
 62
     3
  6
CONTINUOUS
  0
LAYER
  2
1-中柱P
 70
     0
 62
     3
  6
CONTINUOUS
  0
LAYER
  2
1-後柱カバ-P
 70
     0
 62
     7
  6
CONTINUOUS
  0
LAYER
  2
1-中柱カバ-P
 70
     0
 62
     7
  6
CONTINUOUS
  0
ENDTAB
  0
TABLE
  2
STYLE
 70
     5
  0
STYLE
  2
STANDARD
 70
     0
 40
0.0
 41
1.0
 50
0.0
 71
     0
 42
0.0
  3
txt
  4
BIGFONT
  0
STYLE
  2
00
 70
     0
 40
0.0
 41
0.6666666666666666
 50
0.0
 71
     0
 42
0.2
  3
ROMANS
  4
BIGFONT
  0
STYLE
  2
01
 70
     0
 40
3.0
 41
1.0
 50
0.0
 71
     0
 42
0.2
  3
ROMANS
  4
BIGFONT
  0
STYLE
  2
WAKUMOJI
 70
     0
 40
3.0
 41
1.0
 50
0.0
 71
     0
 42
3.0
  3
SIMPLEX
  4
BIGFONT
  0
STYLE
  2
FILENAME
 70
     0
 40
200.0
 41
1.0
 50
0.0
 71
     0
 42
200.0
  3
romans
  4
bigfont
  0
ENDTAB
  0
TABLE
  2
VIEW
 70
     0
  0
ENDTAB
  0
TABLE
  2
UCS
 70
     0
  0
ENDTAB
  0
TABLE
  2
APPID
 70
    17
  0
APPID
  2
ACAD
 70
     0
  0
APPID
  2
ACADANNOTATIVE
 70
     0
  0
APPID
  2
ACAD_PSEXT
 70
     0
  0
APPID
  2
DCO15
 70
     0
  0
APPID
  2
ACAD_MLEADERVER
 70
     0
  0
APPID
  2
AUTOCAD_POSTSCRIPT_FIGURE
 70
     0
  0
APPID
  2
ACAD_EXEMPT_FROM_CAD_STANDARDS
 70
     0
  0
APPID
  2
ACLAYERTOOLS
 70
     0
  0
APPID
  2
ACAD_DSTYLE_DIMJAG
 70
     0
  0
APPID
  2
ACAD_DSTYLE_DIMTALN
 70
     0
  0
APPID
  2
ACAECLAYERSTANDARD
 70
     0
  0
APPID
  2
ACAD_DSTYLE_DIMBREAK
 70
     0
  0
APPID
  2
ACAD_DSTYLE_DIM_LINETYPE
 70
     0
  0
APPID
  2
ACAD_DSTYLE_DIM_EXT1_LINETYPE
 70
     0
  0
APPID
  2
ACAD_DSTYLE_DIM_EXT2_LINETYPE
 70
     0
  0
APPID
  2
ACAD_DSTYLE_DIMFLIPARROW_W
 70
     0
  0
APPID
  2
ACAD_NAV_VCDISPLAY
 70
     0
  0
ENDTAB
  0
TABLE
  2
DIMSTYLE
 70
     2
  0
DIMSTYLE
  2
STANDARD
 70
     0
  3

  4

  5

  6

  7

 40
1.0
 41
0.18
 42
0.0625
 43
0.38
 44
0.18
 45
0.0
 46
0.0
 47
0.0
 48
0.0
140
0.18
141
0.09
142
0.0
143
25.399999999999999
144
1.0
145
0.0
146
1.0
147
0.09
 71
     0
 72
     0
 73
     1
 74
     1
 75
     0
 76
     0
 77
     0
 78
     0
170
     0
171
     2
172
     0
173
     0
174
     0
175
     0
176
     0
177
     0
178
     0
  0
ENDTAB
  0
ENDSEC
  0
SECTION
  2
BLOCKS
  0
BLOCK
  8
0
  2
$MODEL_SPACE
 70
     0
 10
0.0
 20
0.0
 30
0.0
  3
$MODEL_SPACE
  1

  0
ENDBLK
  5
F9ED
  8
0
  0
BLOCK
 67
     1
  8
0
  2
$PAPER_SPACE
 70
     0
 10
0.0
 20
0.0
 30
0.0
  3
$PAPER_SPACE
  1

  0
ENDBLK
  5
F9E9
 67
     1
  8
0
  0
ENDSEC
  0
SECTION
  2
ENTITIES
  0
CIRCLE
  5
FA27
  8
0-5
  6
CONTINUOUS
 62
     4
 10
15128.71667799999
 20
1375.999982000001
 30
0.0
 40
20.0
  0
ARC
  5
FA28
  8
0-5
  6
CONTINUOUS
 62
     4
 10
15128.71667799999
 20
1375.999982000001
 30
0.0
 40
20.0
 50
180.0
 51
0.0
  0
ARC
  5
FA29
  8
0-5
  6
CONTINUOUS
 62
     4
 10
15128.71667799999
 20
1375.999982000001
 30
0.0
 40
20.0
 50
0.0
 51
179.99998500000001
  0
CIRCLE
  5
FA2A
  8
0-5
  6
CONTINUOUS
 62
     4
 10
15128.71667799999
 20
1775.999321999999
 30
0.0
 40
20.0
  0
ARC
  5
FA2B
  8
0-5
  6
CONTINUOUS
 62
     4
 10
15128.71667799999
 20
1775.999321999999
 30
0.0
 40
20.0
 50
180.0
 51
0.0
  0
ARC
  5
FA2C
  8
0-5
  6
CONTINUOUS
 62
     4
 10
15128.71667799999
 20
1775.999321999999
 30
0.0
 40
20.0
 50
0.0
 51
179.99998500000001
  0
TEXT
  5
FA2D
  8
0-5
  6
CONTINUOUS
 62
     7
 10
16661.217403999992
 20
1655.999792000001
 30
0.0
 40
160.0
  1
H
  0
TEXT
  5
FA2E
  8
0-5
  6
CONTINUOUS
 62
     7
 10
15176.146933
 20
1655.999792000001
 30
0.0
 40
160.0
  1
（ ）内寸法ハ、  タイプヲ示ス。
  0
TEXT
  5
FA2F
  8
0-5
  6
CONTINUOUS
 62
     7
 10
15288.716216000001
 20
1255.999462
 30
0.0
 40
160.0
  1
有効高サハ、基礎高サヲ含ミマセン。
  0
TEXT
  5
FA33
  8
2-0
  6
CONTINUOUS
 62
     7
 10
22172.668069228708
 20
11251.104441999991
 30
0.0
 40
160.0
  1
平　面　図
 72
     4
 11
22626.00140256204
 21
11325.77110866666
 31
0.0
  0
TEXT
  5
FA34
  8
2-0
  6
CONTINUOUS
 62
     7
 10
9072.2249731349984
 20
11156.81700299998
 30
0.0
 40
160.0
  1
小 屋 伏 図
 72
     4
 11
9573.5583064683324
 21
11236.81700299998
 31
0.0
  0
TEXT
  5
FA35
  8
2-0
  6
CONTINUOUS
 62
     7
 10
23977.493587699679
 20
11272.96647766667
 30
0.0
 40
160.0
  1
1
 72
     4
 11
24004.160254366339
 21
11352.96647766667
 31
0.0
  0
TEXT
  5
FA36
  8
2-0
  6
CONTINUOUS
 62
     7
 10
24220.58230495036
 20
11192.967945666671
 30
0.0
 40
160.0
  1
80
 72
     4
 11
24340.58230495036
 21
11272.967945666671
 31
0.0
  0
TEXT
  5
FA37
  8
2-0
  6
CONTINUOUS
 62
     7
 10
23478.495553699671
 20
11245.77110866666
 30
0.0
 40
160.0
  1
(S=  /   )
 72
     4
 11
24038.495553699671
 21
11325.77110866666
 31
0.0
  0
TEXT
  5
FA38
  8
2-0
  6
CONTINUOUS
 62
     7
 10
10925.050491605951
 20
11184.012371999979
 30
0.0
 40
160.0
  1
1
 72
     4
 11
10951.717158272621
 21
11264.012371999979
 31
0.0
  0
TEXT
  5
FA39
  8
2-0
  6
CONTINUOUS
 62
     7
 10
11168.13920885665
 20
11104.01383999998
 30
0.0
 40
160.0
  1
80
 72
     4
 11
11288.13920885665
 21
11184.01383999998
 31
0.0
  0
TEXT
  5
FA3A
  8
2-0
  6
CONTINUOUS
 62
     7
 10
10426.052457605951
 20
11156.81700299998
 30
0.0
 40
160.0
  1
(S=  /   )
 72
     4
 11
10986.052457605951
 21
11236.81700299998
 31
0.0
  0
TEXT
  5
FA40
  8
2-0
  6
CONTINUOUS
 62
     7
 10
22472.73476422442
 20
3292.8025890000031
 30
0.0
 40
160.0
  1
正 面 立 面 図
 72
     4
 11
23118.068097557749
 21
3372.8025890000031
 31
0.0
  0
TEXT
  5
FA41
  8
2-0
  6
CONTINUOUS
 62
     7
 10
8790.0232146297967
 20
3264.0669070000081
 30
0.0
 40
160.0
  1
側 面 立 面 図
 50
0.0001389999996588
 72
     4
 11
9435.3563538806193
 21
3344.0684725833789
 31
0.0
  0
TEXT
  5
FA42
  8
2-0
  6
CONTINUOUS
 62
     7
 10
10786.84853901825
 20
3291.263841583379
 30
0.0
 40
160.0
  1
1
 72
     4
 11
10813.51520568492
 21
3371.263841583379
 31
0.0
  0
TEXT
  5
FA43
  8
2-0
  6
CONTINUOUS
 62
     7
 10
11029.93725626894
 20
3211.2653095833812
 30
0.0
 40
160.0
  1
80
 72
     4
 11
11149.93725626894
 21
3291.2653095833798
 31
0.0
  0
TEXT
  5
FA44
  8
2-0
  6
CONTINUOUS
 62
     7
 10
10287.85050501823
 20
3264.0684725833789
 30
0.0
 40
160.0
  1
(S=  /   )
 72
     4
 11
10847.85050501823
 21
3344.0684725833789
 31
0.0
  0
TEXT
  5
FA45
  8
2-0
  6
CONTINUOUS
 62
     7
 10
24469.56028269534
 20
3319.9979580000049
 30
0.0
 40
160.0
  1
1
 72
     4
 11
24496.226949362012
 21
3399.9979580000049
 31
0.0
  0
TEXT
  5
FA46
  8
2-0
  6
CONTINUOUS
 62
     7
 10
24712.648999946061
 20
3239.9994260000049
 30
0.0
 40
160.0
  1
80
 72
     4
 11
24832.648999946061
 21
3319.9994260000049
 31
0.0
  0
TEXT
  5
FA47
  8
2-0
  6
CONTINUOUS
 62
     7
 10
23970.562248695362
 20
3292.8025890000031
 30
0.0
 40
160.0
  1
(S=  /   )
 72
     4
 11
24530.562248695362
 21
3372.8025890000031
 31
0.0
  0
LINE
  5
FA48
  8
0-1
  6
CONTINUOUS
 62
     3
 10
26608.014223585142
 20
8132.6883740000021
 30
0.0
 11
24125.510792585181
 21
8132.6883740000021
 31
0.0
  0
LINE
  5
FA49
  8
0-1
  6
CONTINUOUS
 62
     3
 10
26608.014223585142
 20
8326.1887430000061
 30
0.0
 11
24125.510792585181
 21
8326.1887430000061
 31
0.0
  0
LINE
  5
FA4A
  8
0-1
  6
CONTINUOUS
 62
     3
 10
26736.010528585171
 20
8264.002661999999
 30
0.0
 11
26736.010528585171
 21
8589.6883999999973
 31
0.0
  0
LINE
  5
FA4B
  8
0-1
  6
CONTINUOUS
 62
     3
 10
24040.512243585181
 20
8459.6884660000014
 30
0.0
 11
26736.010528585171
 21
8459.6884660000014
 31
0.0
  0
LINE
  5
FA4C
  8
0-1
  6
CONTINUOUS
 62
     3
 10
26736.010528585171
 20
8589.6883999999973
 30
0.0
 11
24060.50934058518
 21
8589.6883999999973
 31
0.0
  0
LINE
  5
FA4D
  8
0-1
  6
CONTINUOUS
 62
     3
 10
11737.54750569357
 20
8152.234418
 30
0.0
 11
11737.54750569357
 21
6291.1885390000016
 31
0.0
  0
LINE
  5
FA4E
  8
0-1
  6
CONTINUOUS
 62
     3
 10
11774.54569769356
 20
8152.234418
 30
0.0
 11
11774.54569769356
 21
6291.1885390000016
 31
0.0
  0
LINE
  5
FA4F
  8
0-1
  6
CONTINUOUS
 62
     3
 10
11037.54816569357
 20
8152.234418
 30
0.0
 11
11037.54816569357
 21
6291.1885390000016
 31
0.0
  0
LINE
  5
FA50
  8
0-1
  6
CONTINUOUS
 62
     3
 10
11074.546357693571
 20
8152.234418
 30
0.0
 11
11074.546357693571
 21
6291.1885390000016
 31
0.0
  0
LINE
  5
FA51
  8
0-1
  6
CONTINUOUS
 62
     3
 10
11416.04795469358
 20
6291.1885390000016
 30
0.0
 11
11416.04795469358
 21
8152.234418
 31
0.0
  0
LINE
  5
FA52
  8
0-1
  6
CONTINUOUS
 62
     3
 10
11396.04689869355
 20
6291.1885390000016
 30
0.0
 11
11396.04689869355
 21
8152.234418
 31
0.0
  0
LINE
  5
FA53
  8
0-1
  6
CONTINUOUS
 62
     3
 10
11466.046634693559
 20
6291.1885390000016
 30
0.0
 11
11466.046634693559
 21
8152.234418
 31
0.0
  0
LINE
  5
FA54
  8
0-1
  6
CONTINUOUS
 62
     3
 10
11346.04722869356
 20
6291.1885390000016
 30
0.0
 11
11346.04722869356
 21
8152.234418
 31
0.0
  0
LINE
  5
FA55
  8
0-1
  6
CONTINUOUS
 62
     3
 10
11213.047334693571
 20
6291.1885390000016
 30
0.0
 11
11213.047334693571
 21
8152.234418
 31
0.0
  0
LINE
  5
FA56
  8
0-1
  6
CONTINUOUS
 62
     3
 10
11198.047532693559
 20
6291.1885390000016
 30
0.0
 11
11198.047532693559
 21
8152.234418
 31
0.0
  0
LINE
  5
FA57
  8
0-1
  6
CONTINUOUS
 62
     3
 10
11599.04751969356
 20
6291.1885390000016
 30
0.0
 11
11599.04751969356
 21
8152.234418
 31
0.0
  0
LINE
  5
FA58
  8
0-1
  6
CONTINUOUS
 62
     3
 10
11614.04633169356
 20
6291.1885390000016
 30
0.0
 11
11614.04633169356
 21
8152.234418
 31
0.0
  0
LINE
  5
FA59
  8
0-1
  6
CONTINUOUS
 62
     3
 10
11898.046872693551
 20
6291.1885390000016
 30
0.0
 11
11898.046872693551
 21
8152.234418
 31
0.0
  0
LINE
  5
FA5A
  8
0-1
  6
CONTINUOUS
 62
     3
 10
11913.04766469356
 20
6291.1885390000016
 30
0.0
 11
11913.04766469356
 21
8152.234418
 31
0.0
  0
LINE
  5
FA5B
  8
0-1
  6
CONTINUOUS
 62
     3
 10
12046.04656869358
 20
6291.1885390000016
 30
0.0
 11
12046.04656869358
 21
8152.234418
 31
0.0
  0
LINE
  5
FA5C
  8
0-1
  6
CONTINUOUS
 62
     3
 10
12166.04795469356
 20
6291.1885390000016
 30
0.0
 11
12166.04795469356
 21
8152.234418
 31
0.0
  0
LINE
  5
FA5D
  8
0-1
  6
CONTINUOUS
 62
     3
 10
12096.04524969356
 20
6291.1885390000016
 30
0.0
 11
12096.04524969356
 21
8152.234418
 31
0.0
  0
LINE
  5
FA5E
  8
0-1
  6
CONTINUOUS
 62
     3
 10
12116.04630469356
 20
6291.1885390000016
 30
0.0
 11
12116.04630469356
 21
8152.234418
 31
0.0
  0
LINE
  5
FA5F
  8
0-1
  6
CONTINUOUS
 62
     3
 10
10914.04798069356
 20
6291.1885390000016
 30
0.0
 11
10914.04798069356
 21
8152.234418
 31
0.0
  0
LINE
  5
FA60
  8
0-1
  6
CONTINUOUS
 62
     3
 10
10899.04718969356
 20
6291.1885390000016
 30
0.0
 11
10899.04718969356
 21
8152.234418
 31
0.0
  0
LINE
  5
FA61
  8
0-1
  6
CONTINUOUS
 62
     3
 10
10766.04630469356
 20
6291.1885390000016
 30
0.0
 11
10766.04630469356
 21
8152.234418
 31
0.0
  0
LINE
  5
FA62
  8
0-1
  6
CONTINUOUS
 62
     3
 10
10498.04720269356
 20
6291.1885390000016
 30
0.0
 11
10498.04720269356
 21
8152.234418
 31
0.0
  0
LINE
  5
FA63
  8
0-1
  6
CONTINUOUS
 62
     3
 10
10513.04601469356
 20
6291.1885390000016
 30
0.0
 11
10513.04601469356
 21
8152.234418
 31
0.0
  0
LINE
  5
FA64
  8
0-1
  6
CONTINUOUS
 62
     3
 10
10646.04689869357
 20
6291.1885390000016
 30
0.0
 11
10646.04689869357
 21
8152.234418
 31
0.0
  0
LINE
  5
FA65
  8
0-1
  6
CONTINUOUS
 62
     3
 10
10696.04656869358
 20
6291.1885390000016
 30
0.0
 11
10696.04656869358
 21
8152.234418
 31
0.0
  0
LINE
  5
FA66
  8
0-1
  6
CONTINUOUS
 62
     3
 10
10716.04564569355
 20
6291.1885390000016
 30
0.0
 11
10716.04564569355
 21
8152.234418
 31
0.0
  0
LINE
  5
FA67
  8
0-1
  6
CONTINUOUS
 62
     3
 10
9888.0466746935726
 20
6291.1885390000016
 30
0.0
 11
9888.0466746935726
 21
8152.234418
 31
0.0
  0
LINE
  5
FA68
  8
0-1
  6
CONTINUOUS
 62
     3
 10
9908.0457506935654
 20
6291.1885390000016
 30
0.0
 11
9908.0457506935654
 21
8152.234418
 31
0.0
  0
LINE
  5
FA69
  8
0-1
  6
CONTINUOUS
 62
     3
 10
9838.0460146935802
 20
6291.1885390000016
 30
0.0
 11
9838.0460146935802
 21
8152.234418
 31
0.0
  0
LINE
  5
FA6A
  8
0-1
  6
CONTINUOUS
 62
     3
 10
9958.0464106935688
 20
6291.1885390000016
 30
0.0
 11
9958.0464106935688
 21
8152.234418
 31
0.0
  0
LINE
  5
FA6B
  8
0-1
  6
CONTINUOUS
 62
     3
 10
10091.04630469356
 20
6291.1885390000016
 30
0.0
 11
10091.04630469356
 21
8152.234418
 31
0.0
  0
LINE
  5
FA6C
  8
0-1
  6
CONTINUOUS
 62
     3
 10
10106.04808669357
 20
6291.1885390000016
 30
0.0
 11
10106.04808669357
 21
8152.234418
 31
0.0
  0
LINE
  5
FA6D
  8
0-1
  6
CONTINUOUS
 62
     3
 10
9705.0461206935724
 20
6291.1885390000016
 30
0.0
 11
9705.0461206935724
 21
8152.234418
 31
0.0
  0
LINE
  5
FA6E
  8
0-1
  6
CONTINUOUS
 62
     3
 10
9690.0473076935614
 20
6291.1885390000016
 30
0.0
 11
9690.0473076935614
 21
8152.234418
 31
0.0
  0
LINE
  5
FA6F
  8
0-1
  6
CONTINUOUS
 62
     3
 10
8488.0460146935638
 20
6291.1885390000016
 30
0.0
 11
8488.0460146935638
 21
8152.234418
 31
0.0
  0
LINE
  5
FA70
  8
0-1
  6
CONTINUOUS
 62
     3
 10
8508.0470706935575
 20
6291.1885390000016
 30
0.0
 11
8508.0470706935575
 21
8152.234418
 31
0.0
  0
LINE
  5
FA71
  8
0-1
  6
CONTINUOUS
 62
     3
 10
8438.0473346935614
 20
6291.1885390000016
 30
0.0
 11
8438.0473346935614
 21
8152.234418
 31
0.0
  0
LINE
  5
FA72
  8
0-1
  6
CONTINUOUS
 62
     3
 10
8558.0457506935636
 20
6291.1885390000016
 30
0.0
 11
8558.0457506935636
 21
8152.234418
 31
0.0
  0
LINE
  5
FA73
  8
0-1
  6
CONTINUOUS
 62
     3
 10
8691.0466346935646
 20
6291.1885390000016
 30
0.0
 11
8691.0466346935646
 21
8152.234418
 31
0.0
  0
LINE
  5
FA74
  8
0-1
  6
CONTINUOUS
 62
     3
 10
8706.0464366935776
 20
6291.1885390000016
 30
0.0
 11
8706.0464366935776
 21
8152.234418
 31
0.0
  0
LINE
  5
FA75
  8
0-1
  6
CONTINUOUS
 62
     3
 10
8305.048429693561
 20
6291.1885390000016
 30
0.0
 11
8305.048429693561
 21
8152.234418
 31
0.0
  0
LINE
  5
FA76
  8
0-1
  6
CONTINUOUS
 62
     3
 10
8290.0466486935638
 20
6291.1885390000016
 30
0.0
 11
8290.0466486935638
 21
8152.234418
 31
0.0
  0
LINE
  5
FA77
  8
0-1
  6
CONTINUOUS
 62
     3
 10
8990.0459886935714
 20
6291.1885390000016
 30
0.0
 11
8990.0459886935714
 21
8152.234418
 31
0.0
  0
LINE
  5
FA78
  8
0-1
  6
CONTINUOUS
 62
     3
 10
9005.0477696935704
 20
6291.1885390000016
 30
0.0
 11
9005.0477696935704
 21
8152.234418
 31
0.0
  0
LINE
  5
FA79
  8
0-1
  6
CONTINUOUS
 62
     3
 10
9406.0457776935637
 20
6291.1885390000016
 30
0.0
 11
9406.0457776935637
 21
8152.234418
 31
0.0
  0
LINE
  5
FA7A
  8
0-1
  6
CONTINUOUS
 62
     3
 10
9391.0469646935726
 20
6291.1885390000016
 30
0.0
 11
9391.0469646935726
 21
8152.234418
 31
0.0
  0
LINE
  5
FA7B
  8
0-1
  6
CONTINUOUS
 62
     3
 10
9258.0480606935598
 20
6291.1885390000016
 30
0.0
 11
9258.0480606935598
 21
8152.234418
 31
0.0
  0
LINE
  5
FA7C
  8
0-1
  6
CONTINUOUS
 62
     3
 10
9138.0466746935726
 20
6291.1885390000016
 30
0.0
 11
9138.0466746935726
 21
8152.234418
 31
0.0
  0
LINE
  5
FA7D
  8
0-1
  6
CONTINUOUS
 62
     3
 10
9208.0464106935833
 20
6291.1885390000016
 30
0.0
 11
9208.0464106935833
 21
8152.234418
 31
0.0
  0
LINE
  5
FA7E
  8
0-1
  6
CONTINUOUS
 62
     3
 10
9188.0473346935596
 20
6291.1885390000016
 30
0.0
 11
9188.0473346935596
 21
8152.234418
 31
0.0
  0
LINE
  5
FA7F
  8
0-1
  6
CONTINUOUS
 62
     3
 10
9529.5459616935677
 20
8152.234418
 30
0.0
 11
9529.5459616935677
 21
6291.1885390000016
 31
0.0
  0
LINE
  5
FA80
  8
0-1
  6
CONTINUOUS
 62
     3
 10
9566.54712369357
 20
8152.234418
 30
0.0
 11
9566.54712369357
 21
6291.1885390000016
 31
0.0
  0
LINE
  5
FA81
  8
0-1
  6
CONTINUOUS
 62
     3
 10
8129.5482716935658
 20
8152.234418
 30
0.0
 11
8129.5482716935658
 21
6291.1885390000016
 31
0.0
  0
LINE
  5
FA82
  8
0-1
  6
CONTINUOUS
 62
     3
 10
8166.5474536935808
 20
8152.234418
 30
0.0
 11
8166.5474536935808
 21
6291.1885390000016
 31
0.0
  0
LINE
  5
FA83
  8
0-1
  6
CONTINUOUS
 62
     3
 10
8829.5466216935747
 20
8152.234418
 30
0.0
 11
8829.5466216935747
 21
6291.1885390000016
 31
0.0
  0
LINE
  5
FA84
  8
0-1
  6
CONTINUOUS
 62
     3
 10
8866.5467936935602
 20
8152.234418
 30
0.0
 11
8866.5467936935602
 21
6291.1885390000016
 31
0.0
  0
LINE
  5
FA85
  8
0-1
  6
CONTINUOUS
 62
     3
 10
24033.011847585149
 20
6241.1883740000048
 30
0.0
 11
24133.011188585158
 21
6241.1883740000048
 31
0.0
  0
LINE
  5
FA86
  8
0-1
  6
CONTINUOUS
 62
     3
 10
24133.011188585158
 20
6241.1883740000048
 30
0.0
 11
24133.011188585158
 21
6141.1885390000016
 31
0.0
  0
LINE
  5
FA87
  8
0-1
  6
CONTINUOUS
 62
     3
 10
24033.011847585149
 20
6141.1885390000016
 30
0.0
 11
24033.011847585149
 21
6241.1883740000048
 31
0.0
  0
LINE
  5
FA88
  8
0-1
  6
CONTINUOUS
 62
     3
 10
24125.510792585181
 20
8459.6884660000014
 30
0.0
 11
24125.510792585181
 21
6241.1883740000048
 31
0.0
  0
LINE
  5
FA89
  8
0-1
  6
CONTINUOUS
 62
     3
 10
24177.010528585171
 20
8132.6883740000021
 30
0.0
 11
24177.010528585171
 21
6141.1885390000016
 31
0.0
  0
LINE
  5
FA8A
  8
0-1
  6
CONTINUOUS
 62
     3
 10
24060.50934058518
 20
8589.6883999999973
 30
0.0
 11
24060.50934058518
 21
6241.1883740000048
 31
0.0
  0
LINE
  5
FA8B
  8
0-1
  6
CONTINUOUS
 62
     3
 10
24040.510528585161
 20
8459.6884660000014
 30
0.0
 11
24040.510528585161
 21
6241.1883740000048
 31
0.0
  0
LINE
  5
FA8C
  8
0-1
  6
CONTINUOUS
 62
     3
 10
26736.010528585171
 20
8264.002661999999
 30
0.0
 11
26693.010528585171
 21
8264.002661999999
 31
0.0
  0
LINE
  5
FA8D
  8
0-1
  6
CONTINUOUS
 62
     3
 10
26700.513167585159
 20
6241.1883740000048
 30
0.0
 11
26600.513827585171
 21
6241.1883740000048
 31
0.0
  0
LINE
  5
FA8E
  8
0-1
  6
CONTINUOUS
 62
     3
 10
26600.513827585171
 20
6241.1883740000048
 30
0.0
 11
26600.513827585171
 21
6141.1885390000016
 31
0.0
  0
LINE
  5
FA8F
  8
0-1
  6
CONTINUOUS
 62
     3
 10
26700.513167585159
 20
6141.1885390000016
 30
0.0
 11
26700.513167585159
 21
6241.1883740000048
 31
0.0
  0
LINE
  5
FA90
  8
0-1
  6
CONTINUOUS
 62
     3
 10
26556.510528585171
 20
8132.6883740000021
 30
0.0
 11
26556.510528585171
 21
6141.1885390000016
 31
0.0
  0
LINE
  5
FA91
  8
0-1
  6
CONTINUOUS
 62
     3
 10
26608.014223585142
 20
8459.6884660000014
 30
0.0
 11
26608.014223585142
 21
6241.1883740000048
 31
0.0
  0
LINE
  5
FA92
  8
0-1
  6
CONTINUOUS
 62
     3
 10
26673.013695585149
 20
8589.6883999999973
 30
0.0
 11
26673.013695585149
 21
6241.1883740000048
 31
0.0
  0
LINE
  5
FA93
  8
0-1
  6
CONTINUOUS
 62
     3
 10
26693.010528585171
 20
8459.6884660000014
 30
0.0
 11
26693.010528585171
 21
6241.1883740000048
 31
0.0
  0
LINE
  5
FA94
  8
0-1
  6
CONTINUOUS
 62
     3
 10
7679.547149693577
 20
6241.1883740000048
 30
0.0
 11
7679.547149693577
 21
6141.1885390000016
 31
0.0
  0
LINE
  5
FA95
  8
0-1
  6
CONTINUOUS
 62
     3
 10
7712.0479406935801
 20
8455.5174490000081
 30
0.0
 11
7712.0479406935801
 21
6241.1883740000048
 31
0.0
  0
LINE
  5
FA96
  8
0-1
  6
CONTINUOUS
 62
     3
 10
7692.0471496935697
 20
8456.0984380000027
 30
0.0
 11
7692.0471496935697
 21
6241.1883740000048
 31
0.0
  0
LINE
  5
FA97
  8
0-1
  6
CONTINUOUS
 62
     3
 10
7807.0470176935851
 20
8152.234418
 30
0.0
 11
7807.0470176935851
 21
6241.1883740000048
 31
0.0
  0
LINE
  5
FA98
  8
0-1
  6
CONTINUOUS
 62
     3
 10
10302.047149693581
 20
8356.9898810000013
 30
0.0
 11
10302.047149693581
 21
8152.234418
 31
0.0
  0
LINE
  5
FA99
  8
0-1
  6
CONTINUOUS
 62
     3
 10
10374.54701769356
 20
8152.234418
 30
0.0
 11
10374.54701769356
 21
6241.1883740000048
 31
0.0
  0
LINE
  5
FA9A
  8
0-1
  6
CONTINUOUS
 62
     3
 10
10229.548271693569
 20
8152.234418
 30
0.0
 11
10229.548271693569
 21
6241.1883740000048
 31
0.0
  0
LINE
  5
FA9B
  8
0-1
  6
CONTINUOUS
 62
     3
 10
10229.548271693569
 20
6291.1885390000016
 30
0.0
 11
7807.0470176935851
 21
6291.1885390000016
 31
0.0
  0
LINE
  5
FA9C
  8
0-1
  6
CONTINUOUS
 62
     3
 10
26556.510528585171
 20
6661.1892650000009
 30
0.0
 11
24177.010528585171
 21
6661.1892650000009
 31
0.0
  0
LINE
  5
FA9D
  8
0-1
  6
CONTINUOUS
 62
     3
 10
26556.510528585171
 20
6596.1888030000027
 30
0.0
 11
24177.010528585171
 21
6596.1888030000027
 31
0.0
  0
LINE
  5
FA9E
  8
0-1
  6
CONTINUOUS
 62
     3
 10
26556.510528585171
 20
6531.1888360000012
 30
0.0
 11
24177.010528585171
 21
6531.1888360000012
 31
0.0
  0
LINE
  5
FA9F
  8
0-1
  6
CONTINUOUS
 62
     3
 10
26556.510528585171
 20
6466.1883740000048
 30
0.0
 11
24177.010528585171
 21
6466.1883740000048
 31
0.0
  0
LINE
  5
FAA0
  8
0-1
  6
CONTINUOUS
 62
     3
 10
26556.510528585171
 20
6401.1889020000099
 30
0.0
 11
24177.010528585171
 21
6401.1889020000099
 31
0.0
  0
LINE
  5
FAA1
  8
0-1
  6
CONTINUOUS
 62
     3
 10
26556.510528585171
 20
6336.1889350000083
 30
0.0
 11
24177.010528585171
 21
6336.1889350000083
 31
0.0
  0
LINE
  5
FAA2
  8
0-1
  6
CONTINUOUS
 62
     3
 10
26556.510528585171
 20
6271.1889680000022
 30
0.0
 11
24177.010528585171
 21
6271.1889680000022
 31
0.0
  0
LINE
  5
FAA3
  8
0-1
  6
CONTINUOUS
 62
     3
 10
26556.510528585171
 20
6206.1885060000059
 30
0.0
 11
24177.010528585171
 21
6206.1885060000059
 31
0.0
  0
LINE
  5
FAA4
  8
0-1
  6
CONTINUOUS
 62
     3
 10
26556.510528585171
 20
8026.1885720000073
 30
0.0
 11
24177.010528585171
 21
8026.1885720000073
 31
0.0
  0
LINE
  5
FAA5
  8
0-1
  6
CONTINUOUS
 62
     3
 10
26556.510528585171
 20
7961.1886050000021
 30
0.0
 11
24177.010528585171
 21
7961.1886050000021
 31
0.0
  0
LINE
  5
FAA6
  8
0-1
  6
CONTINUOUS
 62
     3
 10
26556.510528585171
 20
7896.1891330000062
 30
0.0
 11
24177.010528585171
 21
7896.1891330000062
 31
0.0
  0
LINE
  5
FAA7
  8
0-1
  6
CONTINUOUS
 62
     3
 10
26556.510528585171
 20
7831.1891659999974
 30
0.0
 11
24177.010528585171
 21
7831.1891659999974
 31
0.0
  0
LINE
  5
FAA8
  8
0-1
  6
CONTINUOUS
 62
     3
 10
26556.510528585171
 20
7766.1891990000058
 30
0.0
 11
24177.010528585171
 21
7766.1891990000058
 31
0.0
  0
LINE
  5
FAA9
  8
0-1
  6
CONTINUOUS
 62
     3
 10
26556.510528585171
 20
7701.188737000004
 30
0.0
 11
24177.010528585171
 21
7701.188737000004
 31
0.0
  0
LINE
  5
FAAA
  8
0-1
  6
CONTINUOUS
 62
     3
 10
26556.510528585171
 20
7636.1887699999979
 30
0.0
 11
24177.010528585171
 21
7636.1887699999979
 31
0.0
  0
LINE
  5
FAAB
  8
0-1
  6
CONTINUOUS
 62
     3
 10
26556.510528585171
 20
7571.1892980000039
 30
0.0
 11
24177.010528585171
 21
7571.1892980000039
 31
0.0
  0
LINE
  5
FAAC
  8
0-1
  6
CONTINUOUS
 62
     3
 10
26556.510528585171
 20
7506.1893310000032
 30
0.0
 11
24177.010528585171
 21
7506.1893310000032
 31
0.0
  0
LINE
  5
FAAD
  8
0-1
  6
CONTINUOUS
 62
     3
 10
26556.510528585171
 20
7441.1888690000051
 30
0.0
 11
24177.010528585171
 21
7441.1888690000051
 31
0.0
  0
LINE
  5
FAAE
  8
0-1
  6
CONTINUOUS
 62
     3
 10
26556.510528585171
 20
7376.188901999999
 30
0.0
 11
24177.010528585171
 21
7376.188901999999
 31
0.0
  0
LINE
  5
FAAF
  8
0-1
  6
CONTINUOUS
 62
     3
 10
26556.510528585171
 20
7311.1889350000029
 30
0.0
 11
24177.010528585171
 21
7311.1889350000029
 31
0.0
  0
LINE
  5
FAB0
  8
0-1
  6
CONTINUOUS
 62
     3
 10
26556.510528585171
 20
7246.1884730000029
 30
0.0
 11
24177.010528585171
 21
7246.1884730000029
 31
0.0
  0
LINE
  5
FAB1
  8
0-1
  6
CONTINUOUS
 62
     3
 10
26556.510528585171
 20
7181.1885059999986
 30
0.0
 11
24177.010528585171
 21
7181.1885059999986
 31
0.0
  0
LINE
  5
FAB2
  8
0-1
  6
CONTINUOUS
 62
     3
 10
26556.510528585171
 20
7116.1890340000027
 30
0.0
 11
24177.010528585171
 21
7116.1890340000027
 31
0.0
  0
LINE
  5
FAB3
  8
0-1
  6
CONTINUOUS
 62
     3
 10
26556.510528585171
 20
7051.1890670000003
 30
0.0
 11
24177.010528585171
 21
7051.1890670000003
 31
0.0
  0
LINE
  5
FAB4
  8
0-1
  6
CONTINUOUS
 62
     3
 10
26556.510528585171
 20
6986.1891000000032
 30
0.0
 11
24177.010528585171
 21
6986.1891000000032
 31
0.0
  0
LINE
  5
FAB5
  8
0-1
  6
CONTINUOUS
 62
     3
 10
26556.510528585171
 20
6921.1886380000069
 30
0.0
 11
24177.010528585171
 21
6921.1886380000069
 31
0.0
  0
LINE
  5
FAB6
  8
0-1
  6
CONTINUOUS
 62
     3
 10
26556.510528585171
 20
6856.1886710000053
 30
0.0
 11
24177.010528585171
 21
6856.1886710000053
 31
0.0
  0
LINE
  5
FAB7
  8
0-1
  6
CONTINUOUS
 62
     3
 10
26556.510528585171
 20
6791.1891990000004
 30
0.0
 11
24177.010528585171
 21
6791.1891990000004
 31
0.0
  0
LINE
  5
FAB8
  8
0-1
  6
CONTINUOUS
 62
     3
 10
26556.510528585171
 20
6726.1892320000024
 30
0.0
 11
24177.010528585171
 21
6726.1892320000024
 31
0.0
  0
LINE
  5
FAB9
  8
0-1
  6
CONTINUOUS
 62
     3
 10
26556.510528585171
 20
8080.6485920000059
 30
0.0
 11
24177.010528585171
 21
8080.6485920000059
 31
0.0
  0
LINE
  5
FABA
  8
0-1
  6
CONTINUOUS
 62
     3
 10
26700.513167585159
 20
6141.1885390000016
 30
0.0
 11
20671.53215245996
 21
6141.1885390000016
 31
0.0
  0
LINE
  5
FABB
  8
0-1
  6
CONTINUOUS
 62
     3
 10
12919.54714969357
 20
6141.1885390000016
 30
0.0
 11
12919.54714969357
 21
6241.1883740000048
 31
0.0
  0
LINE
  5
FABC
  8
0-1
  6
CONTINUOUS
 62
     3
 10
12892.04734769356
 20
8268.9908770000056
 30
0.0
 11
12892.04734769356
 21
6241.1883740000048
 31
0.0
  0
LINE
  5
FABD
  8
0-1
  6
CONTINUOUS
 62
     3
 10
12912.04714969357
 20
8268.3741496838138
 30
0.0
 11
12912.04714969357
 21
6241.1883740000048
 31
0.0
  0
LINE
  5
FABE
  8
0-1
  6
CONTINUOUS
 62
     3
 10
12797.048270693571
 20
8152.234418
 30
0.0
 11
12797.048270693571
 21
6241.1883740000048
 31
0.0
  0
LINE
  5
FABF
  8
0-1
  6
CONTINUOUS
 62
     3
 10
12919.54714969357
 20
6241.1883740000048
 30
0.0
 11
7679.547149693577
 21
6241.1883740000048
 31
0.0
  0
LINE
  5
FAC0
  8
0-1
  6
CONTINUOUS
 62
     3
 10
12797.048270693571
 20
6291.1885390000016
 30
0.0
 11
10374.54701769356
 21
6291.1885390000016
 31
0.0
  0
LINE
  5
FAC1
  8
0-1
  6
CONTINUOUS
 62
     3
 10
13602.04820469357
 20
6141.1885390000016
 30
0.0
 11
7679.547149693577
 21
6141.1885390000016
 31
0.0
  0
LINE
  5
FAC2
  8
0-1
  6
CONTINUOUS
 62
     3
 10
12892.04734769356
 20
8152.234418
 30
0.0
 11
7712.0479406935801
 21
8152.234418
 31
0.0
  0
LINE
  5
FAC3
  8
0-1
  6
CONTINUOUS
 62
     3
 10
26582.01126758516
 20
8335.1891200000027
 30
0.0
 11
26304.581737585158
 21
8335.1891200000027
 31
0.0
  0
LINE
  5
FAC4
  8
0-1
  6
CONTINUOUS
 62
     3
 10
26582.01126758516
 20
8377.188565000004
 30
0.0
 11
26272.584799585151
 21
8377.188565000004
 31
0.0
  0
LINE
  5
FAC5
  8
0-1
  6
CONTINUOUS
 62
     3
 10
26587.011530585161
 20
8340.1888889999973
 30
0.0
 11
26587.011530585161
 21
8372.1892910000024
 31
0.0
  0
LINE
  5
FAC6
  8
0-1
  6
CONTINUOUS
 62
     3
 10
26608.014223585142
 20
8386.1884470000005
 30
0.0
 11
24125.510792585181
 21
8386.1884470000005
 31
0.0
  0
LINE
  5
FAC7
  8
0-1
  6
CONTINUOUS
 62
     3
 10
26301.048297585159
 20
8336.6529740000005
 30
0.0
 11
26269.047399585172
 21
8368.653376000002
 31
0.0
  0
LINE
  5
FAC8
  8
0-1
  6
CONTINUOUS
 62
     3
 10
26587.011530585161
 20
8368.7889730000024
 30
0.0
 11
26268.918731585181
 21
8368.7889730000024
 31
0.0
  0
LINE
  5
FAC9
  8
0-1
  6
CONTINUOUS
 62
     3
 10
26587.011530585161
 20
8360.3888860000006
 30
0.0
 11
26277.311889585151
 21
8360.3888860000006
 31
0.0
  0
LINE
  5
FACA
  8
0-1
  6
CONTINUOUS
 62
     3
 10
26587.011530585161
 20
8351.9892940000063
 30
0.0
 11
26285.71098758516
 21
8351.9892940000063
 31
0.0
  0
LINE
  5
FACB
  8
0-1
  6
CONTINUOUS
 62
     3
 10
26587.011530585161
 20
8343.5892070000064
 30
0.0
 11
26294.114043585159
 21
8343.5892070000064
 31
0.0
  0
LINE
  5
FACC
  8
0-1
  6
CONTINUOUS
 62
     3
 10
24146.51150458516
 20
8368.7889730000024
 30
0.0
 11
24464.604304585158
 21
8368.7889730000024
 31
0.0
  0
LINE
  5
FACD
  8
0-1
  6
CONTINUOUS
 62
     3
 10
24146.51150458516
 20
8360.3888860000006
 30
0.0
 11
24456.209166585159
 21
8360.3888860000006
 31
0.0
  0
LINE
  5
FACE
  8
0-1
  6
CONTINUOUS
 62
     3
 10
24146.51150458516
 20
8351.9892940000063
 30
0.0
 11
24447.810069585172
 21
8351.9892940000063
 31
0.0
  0
LINE
  5
FACF
  8
0-1
  6
CONTINUOUS
 62
     3
 10
24146.51150458516
 20
8343.5892070000064
 30
0.0
 11
24439.410971585181
 21
8343.5892070000064
 31
0.0
  0
LINE
  5
FAD0
  8
0-1
  6
CONTINUOUS
 62
     3
 10
24151.511768585158
 20
8377.188565000004
 30
0.0
 11
24460.938236585189
 21
8377.188565000004
 31
0.0
  0
LINE
  5
FAD1
  8
0-1
  6
CONTINUOUS
 62
     3
 10
24151.511768585158
 20
8335.1891200000027
 30
0.0
 11
24428.941297585181
 21
8335.1891200000027
 31
0.0
  0
LINE
  5
FAD2
  8
0-1
  6
CONTINUOUS
 62
     3
 10
24146.51150458516
 20
8340.1888889999973
 30
0.0
 11
24146.51150458516
 21
8372.1892910000024
 31
0.0
  0
LINE
  5
FAD3
  8
0-1
  6
CONTINUOUS
 62
     3
 10
24432.47671858516
 20
8336.6529740000005
 30
0.0
 11
24464.473656585149
 21
8368.653376000002
 31
0.0
  0
LINE
  5
FAD4
  8
0-1
  6
CONTINUOUS
 62
     3
 10
13086.34897369357
 20
8303.1736990000081
 30
0.0
 11
7606.3574846935753
 21
8498.6897600000102
 31
0.0
  0
LINE
  5
FAD5
  8
0-1
  6
CONTINUOUS
 62
     3
 10
7607.8579596935742
 20
8548.6686450000016
 30
0.0
 11
13087.848458693579
 21
8353.151595000003
 31
0.0
  0
LINE
  5
FAD6
  8
0-1
  6
CONTINUOUS
 62
     3
 10
13090.938486693571
 20
8356.0604970000059
 30
0.0
 11
13091.898553693571
 21
8388.0460529999982
 31
0.0
  0
LINE
  5
FAD7
  8
0-1
  6
CONTINUOUS
 62
     3
 10
13087.04972269356
 20
8393.1932959999976
 30
0.0
 11
7588.0885076935738
 21
8589.280448000005
 31
0.0
  0
LINE
  5
FAD8
  8
0-1
  6
CONTINUOUS
 62
     3
 10
7584.183907693573
 20
8459.3389100000059
 30
0.0
 11
13083.14908169356
 21
8263.2522529999969
 31
0.0
  0
LINE
  5
FAD9
  8
0-1
  6
CONTINUOUS
 62
     3
 10
13088.296819693571
 20
8268.099599000001
 30
0.0
 11
13089.25589669357
 21
8300.0856500000027
 31
0.0
  0
LINE
  5
FADA
  8
0-1
  6
CONTINUOUS
 62
     3
 10
13089.587465693559
 20
8311.0803910000013
 30
0.0
 11
13090.60790769356
 21
8345.0647660000031
 31
0.0
  0
LINE
  5
FADB
  8
0-1
  6
CONTINUOUS
 62
     3
 10
13087.69900469357
 20
8348.1538050000017
 30
0.0
 11
7607.7065266935751
 21
8543.6713500000023
 31
0.0
  0
LINE
  5
FADC
  8
0-1
  6
CONTINUOUS
 62
     3
 10
7606.5069386935793
 20
8503.6880440000023
 30
0.0
 11
13086.497436693569
 21
8308.1719840000005
 31
0.0
  0
LINE
  5
FADD
  8
0-1
  6
CONTINUOUS
 62
     3
 10
10302.047149693581
 20
8356.9898810000013
 30
0.0
 11
10305.94977069356
 21
8486.9314190000005
 31
0.0
  0
LINE
  5
FADE
  8
0-1
  6
CONTINUOUS
 62
     3
 10
7617.150809693574
 20
8458.3481610000017
 30
0.0
 11
7621.0524406935729
 21
8588.2896989999972
 31
0.0
  0
LINE
  5
FADF
  8
0-1
  6
CONTINUOUS
 62
     3
 10
13074.55698069356
 20
8393.5684150000016
 30
0.0
 11
13070.65435969355
 21
8263.6273720000027
 31
0.0
  0
LINE
  5
FAE0
  8
0-2
  6
CONTINUOUS
 62
     4
 10
25003.072488085149
 20
6888.4152329999988
 30
0.0
 11
25103.071828085162
 21
6888.4152329999988
 31
0.0
  0
LINE
  5
FAE1
  8
0-2
  6
CONTINUOUS
 62
     4
 10
25730.456488085161
 20
6888.4152329999988
 30
0.0
 11
25630.45714808517
 21
6888.4152329999988
 31
0.0
  0
LINE
  5
FAE2
  8
0-5
  6
CONTINUOUS
 62
     4
 10
24083.010528585161
 20
4461.1889349999992
 30
0.0
 11
24083.010528585161
 21
4301.1893970000001
 31
0.0
  0
LINE
  5
FAE3
  8
0-5
  6
CONTINUOUS
 62
     4
 10
14899.909482739849
 20
6241.1883740000039
 30
0.0
 11
14779.909086739861
 21
6449.0353509999977
 31
0.0
  0
LINE
  5
FAE4
  8
0-5
  6
CONTINUOUS
 62
     4
 10
15019.907899739859
 20
6449.0353509999977
 30
0.0
 11
14899.909482739849
 21
6241.1883740000039
 31
0.0
  0
LINE
  5
FAE5
  8
0-5
  6
CONTINUOUS
 62
     4
 10
14779.909086739861
 20
6449.0353509999977
 30
0.0
 11
15019.907899739859
 21
6449.0353509999977
 31
0.0
  0
LINE
  5
FAE6
  8
0-5
  6
CONTINUOUS
 62
     4
 10
15377.61351497501
 20
6241.1883740000039
 30
0.0
 11
14002.04754569356
 21
6241.1883740000039
 31
0.0
  0
LINE
  5
FAE7
  8
0-5
  6
CONTINUOUS
 62
     4
 10
26650.510528585171
 20
4461.1889349999992
 30
0.0
 11
26650.510528585171
 21
4301.1893970000001
 31
0.0
  0
LINE
  5
FAE8
  8
0-5
  6
CONTINUOUS
 62
     4
 10
7734.5471496935788
 20
4461.1889349999992
 30
0.0
 11
7734.5471496935788
 21
4301.1893970000001
 31
0.0
  0
LINE
  5
FAE9
  8
0-5
  6
CONTINUOUS
 62
     4
 10
10302.047149693581
 20
4461.1889349999992
 30
0.0
 11
10302.047149693581
 21
4301.1893970000001
 31
0.0
  0
LINE
  5
FAEA
  8
0-5
  6
CONTINUOUS
 62
     4
 10
12869.54714969357
 20
4461.1889349999992
 30
0.0
 11
12869.54714969357
 21
4301.1893970000001
 31
0.0
  0
LINE
  5
FAEB
  8
2-0
  6
CENTER2
 62
     6
 10
24083.010528585161
 20
5878.536116000002
 30
0.0
 11
24083.010528585161
 21
6915.6791430000012
 31
0.0
  0
LINE
  5
FAEC
  8
2-0
  6
CENTER2
 62
     6
 10
26650.510528585171
 20
5878.536116000002
 30
0.0
 11
26650.510528585171
 21
6915.6791430000012
 31
0.0
  0
LINE
  5
FAED
  8
2-0
  6
CENTER2
 62
     6
 10
7734.5471496935788
 20
5878.536116000002
 30
0.0
 11
7734.5471496935788
 21
6935.6787140000024
 31
0.0
  0
LINE
  5
FAEE
  8
2-0
  6
CENTER2
 62
     6
 10
10302.047149693581
 20
5878.536116000002
 30
0.0
 11
10302.047149693581
 21
6935.6787140000024
 31
0.0
  0
LINE
  5
FAEF
  8
2-0
  6
CENTER2
 62
     6
 10
12869.54714969357
 20
5878.536116000002
 30
0.0
 11
12869.54714969357
 21
6935.6787140000024
 31
0.0
  0
ARC
  5
FAF0
  8
0-1
  6
CONTINUOUS
 62
     3
 10
26582.01126758516
 20
8372.1892910000024
 30
0.0
 40
5.0
 50
0.0
 51
90.0
  0
ARC
  5
FAF1
  8
0-1
  6
CONTINUOUS
 62
     3
 10
26582.01126758516
 20
8340.1888889999973
 30
0.0
 40
5.0
 50
270.00001499981897
 51
0.0
  0
ARC
  5
FAF2
  8
0-1
  6
CONTINUOUS
 62
     3
 10
26304.581737585158
 20
8340.1888889999973
 30
0.0
 40
5.0
 50
225.00001499973911
 51
270.00001499981897
  0
ARC
  5
FAF3
  8
0-1
  6
CONTINUOUS
 62
     3
 10
26272.584799585151
 20
8372.1892910000024
 30
0.0
 40
5.0
 50
90.0
 51
225.00001499973911
  0
ARC
  5
FAF4
  8
0-1
  6
CONTINUOUS
 62
     3
 10
24151.511768585158
 20
8340.1888889999973
 30
0.0
 40
5.0
 50
180.0
 51
270.00001499981897
  0
ARC
  5
FAF5
  8
0-1
  6
CONTINUOUS
 62
     3
 10
24151.511768585158
 20
8372.1892910000024
 30
0.0
 40
5.0
 50
90.0
 51
180.0
  0
ARC
  5
FAF6
  8
0-1
  6
CONTINUOUS
 62
     3
 10
24460.938236585189
 20
8372.1892910000024
 30
0.0
 40
5.0
 50
315.00001500002458
 51
90.0
  0
ARC
  5
FAF7
  8
0-1
  6
CONTINUOUS
 62
     3
 10
24428.941297585181
 20
8340.1888889999973
 30
0.0
 40
5.0
 50
270.00001499981897
 51
315.00001500002458
  0
ARC
  5
FAF8
  8
0-1
  6
CONTINUOUS
 62
     3
 10
7607.1077226935813
 20
8523.6801919999998
 30
0.0
 40
24.999998999999999
 50
88.280013999973946
 51
268.2800139999739
  0
ARC
  5
FAF9
  8
0-1
  6
CONTINUOUS
 62
     3
 10
13087.938526693561
 20
8356.1505650000054
 30
0.0
 40
3.0
 50
268.2800139999739
 51
358.28001399997981
  0
ARC
  5
FAFA
  8
0-1
  6
CONTINUOUS
 62
     3
 10
13086.90125869357
 20
8388.195507000004
 30
0.0
 40
5.0
 50
358.28001399997981
 51
88.280013999973946
  0
ARC
  5
FAFB
  8
0-1
  6
CONTINUOUS
 62
     3
 10
7612.1050166935893
 20
8523.5297490000103
 30
0.0
 40
69.999999000000003
 50
110.0668030000957
 51
246.49322500021549
  0
ARC
  5
FAFC
  8
0-1
  6
CONTINUOUS
 62
     3
 10
13083.29754569356
 20
8268.250043
 30
0.0
 40
5.0
 50
268.2800139999739
 51
358.28001399997981
  0
ARC
  5
FAFD
  8
0-1
  6
CONTINUOUS
 62
     3
 10
13086.25890469357
 20
8300.1752230000075
 30
0.0
 40
3.0
 50
358.28001399997981
 51
88.280013999973946
  0
ARC
  5
FAFE
  8
0-1
  6
CONTINUOUS
 62
     3
 10
13086.274741693571
 20
8350.6979809999975
 30
0.0
 40
2.5
 50
88.280013999973946
 51
268.2800139999739
  0
ARC
  5
FAFF
  8
0-1
  6
CONTINUOUS
 62
     3
 10
13084.924709693571
 20
8305.7178750000021
 30
0.0
 40
2.5
 50
88.280013999973946
 51
268.2800139999739
  0
ARC
  5
FB00
  8
0-1
  6
CONTINUOUS
 62
     3
 10
13087.608936693559
 20
8345.1553289999974
 30
0.0
 40
3.0
 50
358.28001399997981
 51
88.280013999973946
  0
ARC
  5
FB01
  8
0-1
  6
CONTINUOUS
 62
     3
 10
7607.1077226935813
 20
8523.6801919999998
 30
0.0
 40
20.0
 50
88.280013999973946
 51
268.2800139999739
  0
ARC
  5
FB02
  8
0-1
  6
CONTINUOUS
 62
     3
 10
13086.58849469356
 20
8311.1699640000006
 30
0.0
 40
3.0
 50
268.2800139999739
 51
358.28001399997981
  0
CIRCLE
  5
FB03
  8
0-5
  6
CONTINUOUS
 62
     4
 10
24083.010528585161
 20
4101.1882420000047
 30
0.0
 40
199.9999949999999
  0
CIRCLE
  5
FB04
  8
0-5
  6
CONTINUOUS
 62
     4
 10
10302.047149693581
 20
4101.1882420000047
 30
0.0
 40
199.9999949999999
  0
CIRCLE
  5
FB05
  8
0-5
  6
CONTINUOUS
 62
     4
 10
7734.5471496935788
 20
4101.1882420000047
 30
0.0
 40
199.9999949999999
  0
CIRCLE
  5
FB06
  8
0-5
  6
CONTINUOUS
 62
     4
 10
26650.510528585171
 20
4101.1882420000047
 30
0.0
 40
199.9999949999999
  0
CIRCLE
  5
FB07
  8
0-5
  6
CONTINUOUS
 62
     4
 10
12869.54714969357
 20
4101.1882420000047
 30
0.0
 40
199.9999949999999
  0
TEXT
  5
FB08
  8
0-5
  6
CONTINUOUS
 62
     7
 10
24028.256736918509
 20
4011.7132600000041
 30
0.0
 40
160.0
  1
2
 72
     4
 11
24081.590070251841
 21
4091.713260000005
 31
0.0
  0
TEXT
  5
FB09
  8
0-5
  6
CONTINUOUS
 62
     7
 10
27755.482293689322
 20
7195.369097493548
 30
0.0
 40
160.0
  1
(2131.5)
 50
90.0
 72
     4
 11
27675.482293689322
 21
7648.702430826881
 31
0.0
  0
TEXT
  5
FB0A
  8
0-5
  6
CONTINUOUS
 62
     7
 10
14441.668078406519
 20
6529.0346249999966
 30
0.0
 40
160.0
  1
布基礎天端
 72
     4
 11
14900.334745073191
 21
6609.0346249999984
 31
0.0
  0
TEXT
  5
FB0B
  8
0-5
  6
CONTINUOUS
 62
     7
 10
26597.177195251839
 20
4021.1882420000038
 30
0.0
 40
160.0
  1
3
 72
     4
 11
26650.510528585171
 21
4101.1882420000047
 31
0.0
  0
TEXT
  5
FB0C
  8
0-5
  6
CONTINUOUS
 62
     7
 10
7674.8366430269061
 20
4017.9774460000049
 30
0.0
 40
160.0
  1
A
 72
     4
 11
7728.1699763602392
 21
4097.9774460000053
 31
0.0
  0
TEXT
  5
FB0D
  8
0-5
  6
CONTINUOUS
 62
     7
 10
10242.336643026891
 20
4017.9774460000049
 30
0.0
 40
160.0
  1
B
 72
     4
 11
10295.66997636023
 21
4097.9774460000053
 31
0.0
  0
TEXT
  5
FB0E
  8
0-5
  6
CONTINUOUS
 62
     7
 10
12809.836643026911
 20
4017.9774460000049
 30
0.0
 40
160.0
  1
C
 72
     4
 11
12863.169976360239
 21
4097.9774460000053
 31
0.0
  0
CIRCLE
  5
FB0F
  8
0-4
  6
CONTINUOUS
 62
     4
 10
25366.762508085161
 20
6627.2449750000023
 30
0.0
 40
18.487504999999981
  0
LINE
  5
FB10
  8
1-前柱カバ-P
 10
21325.510528585161
 20
8459.6884660000014
 30
0.0
 11
21325.510528585161
 21
6141.1885390000016
 31
0.0
  0
LINE
  5
FB11
  8
1-前柱カバ-P
 10
21240.510528585161
 20
8589.6883999999973
 30
0.0
 11
21240.510528585161
 21
6141.1885390000016
 31
0.0
  0
LINE
  5
FB12
  8
0-1
  6
CONTINUOUS
 62
     3
 10
21197.510528585161
 20
8459.6884660000087
 30
0.0
 11
24125.510792585181
 21
8459.6884660000014
 31
0.0
  0
LINE
  5
FB13
  8
0-1
  6
CONTINUOUS
 62
     3
 10
24060.50934058518
 20
8589.6883999999973
 30
0.0
 11
21197.510528585161
 21
8589.6883999999973
 31
0.0
  0
LINE
  5
FB14
  8
0-1
  6
CONTINUOUS
 62
     3
 10
21197.510528585161
 20
8264.0026620000062
 30
0.0
 11
21197.510528585161
 21
8589.6883999999973
 31
0.0
  0
LINE
  5
FB15
  8
0-1
  6
CONTINUOUS
 62
     3
 10
21197.510528585161
 20
8264.0026620000062
 30
0.0
 11
21240.510528585161
 21
8264.0026620000062
 31
0.0
  0
LINE
  5
FB16
  8
2-0
  6
CENTER2
 62
     6
 10
21283.010528585161
 20
5878.536116000002
 30
0.0
 11
21283.010528585161
 21
6915.6791430000012
 31
0.0
  0
LINE
  5
FB17
  8
1-桁前P28
 10
21325.510528585161
 20
8261.1883740000048
 30
0.0
 11
24040.510528585161
 21
8261.1883740000048
 31
0.0
  0
LINE
  5
FB18
  8
0-5
  6
CONTINUOUS
 62
     4
 10
21283.010528585161
 20
4461.1889349999992
 30
0.0
 11
21283.010528585161
 21
4301.1893970000001
 31
0.0
  0
CIRCLE
  5
FB19
  8
0-5
  6
CONTINUOUS
 62
     4
 10
21283.010528585161
 20
4101.1882420000047
 30
0.0
 40
199.9999949999999
  0
TEXT
  5
FB1A
  8
0-5
  6
CONTINUOUS
 62
     7
 10
21254.92340358517
 20
4011.7132600000041
 30
0.0
 40
160.0
  1
1
 72
     4
 11
21281.590070251841
 21
4091.713260000005
 31
0.0
  0
TEXT
  5
FB1B
  8
0-5
  6
CONTINUOUS
 62
     7
 10
20395.13914132577
 20
7227.3884994165237
 30
0.0
 40
160.0
  1
(2260)
 50
90.0
 72
     4
 11
20315.13914132577
 21
7614.0551660831898
 31
0.0
  0
LINE
  5
FB1C
  8
SUNPOU
  6
CONTINUOUS
 10
13092.04714969357
 20
9389.1900500000029
 30
0.0
 11
13596.835019586981
 21
9389.1900500000029
 31
0.0
  0
LINE
  5
FB1D
  8
0-5
  6
CONTINUOUS
 62
     4
 10
16702.927118549022
 20
6349.0350210000042
 30
0.0
 11
16582.928702549041
 21
6141.1885390000016
 31
0.0
  0
LINE
  5
FB1E
  8
0-5
  6
CONTINUOUS
 62
     4
 10
20633.936338198298
 20
6141.1885390000016
 30
0.0
 11
13675.607856058599
 21
6141.1885390000016
 31
0.0
  0
LINE
  5
FB1F
  8
0-5
  6
CONTINUOUS
 62
     4
 10
16582.928702549041
 20
6141.1885390000016
 30
0.0
 11
16462.928306549042
 21
6349.0350210000042
 31
0.0
  0
LINE
  5
FB20
  8
0-5
  6
CONTINUOUS
 62
     4
 10
16462.928306549042
 20
6349.0350210000042
 30
0.0
 11
16702.927118549022
 21
6349.0350210000042
 31
0.0
  0
TEXT
  5
FB21
  8
0-5
  6
CONTINUOUS
 62
     7
 10
16382.927118549011
 20
6429.0347900000024
 30
0.0
 40
160.0
  1
G.L
 72
     4
 11
16542.927118549022
 21
6509.0347900000043
 31
0.0
  0
LINE
  5
FC7B
  8
2-0
  6
CENTER2
 62
     6
 10
29093.009736585129
 20
19317.986977999979
 30
0.0
 11
28373.010396585119
 21
19317.986977999979
 31
0.0
  0
LINE
  5
FC7C
  8
2-0
  6
CENTER2
 62
     6
 10
28213.010396585119
 20
19317.986977999979
 30
0.0
 11
20978.403977633221
 21
19317.986977999979
 31
0.0
  0
LINE
  5
FC7D
  8
2-0
  6
CENTER2
 62
     6
 10
29093.009736585169
 20
16750.486977999979
 30
0.0
 11
28577.365378161248
 21
16750.486977999979
 31
0.0
  0
LINE
  5
FC7E
  8
2-0
  6
CENTER2
 62
     6
 10
28293.01105658515
 20
16750.486977999979
 30
0.0
 11
20978.403977633221
 21
16750.486977999979
 31
0.0
  0
LINE
  5
FC7F
  8
2-0
  6
CENTER2
 62
     6
 10
29093.009736585129
 20
14182.986977999981
 30
0.0
 11
28373.010396585119
 21
14182.986977999981
 31
0.0
  0
LINE
  5
FC80
  8
2-0
  6
CENTER2
 62
     6
 10
28213.010396585119
 20
14182.986977999981
 30
0.0
 11
20978.403977633221
 21
14182.986977999981
 31
0.0
  0
CIRCLE
  5
FC81
  8
0-5
  6
CONTINUOUS
 62
     4
 10
24083.008813585158
 20
21160.487901999972
 30
0.0
 40
199.9999949999999
  0
CIRCLE
  5
FC82
  8
0-5
  6
CONTINUOUS
 62
     4
 10
29293.010396585119
 20
19317.986977999979
 30
0.0
 40
199.9999949999999
  0
CIRCLE
  5
FC83
  8
0-5
  6
CONTINUOUS
 62
     4
 10
29293.010396585141
 20
16750.486977999979
 30
0.0
 40
199.9999949999999
  0
CIRCLE
  5
FC84
  8
0-5
  6
CONTINUOUS
 62
     4
 10
29293.010396585119
 20
14182.986977999981
 30
0.0
 40
199.9999949999999
  0
CIRCLE
  5
FC85
  8
0-5
  6
CONTINUOUS
 62
     4
 10
26650.508813585151
 20
21160.487901999972
 30
0.0
 40
199.9999949999999
  0
TEXT
  5
FC86
  8
0-5
  6
CONTINUOUS
 62
     7
 10
24031.012490918481
 20
21074.262051999991
 30
0.0
 40
160.0
  1
2
 72
     4
 11
24084.345824251821
 21
21154.262051999991
 31
0.0
  0
TEXT
  5
FC87
  8
0-5
  6
CONTINUOUS
 62
     7
 10
26597.175480251819
 20
21080.487901999972
 30
0.0
 40
160.0
  1
3
 72
     4
 11
26650.508813585151
 21
21160.487901999972
 31
0.0
  0
TEXT
  5
FC88
  8
0-5
  6
CONTINUOUS
 62
     7
 10
29235.020091918472
 20
19226.368918999979
 30
0.0
 40
160.0
  1
C
 72
     4
 11
29288.3534252518
 21
19306.368918999979
 31
0.0
  0
TEXT
  5
FC89
  8
0-5
  6
CONTINUOUS
 62
     7
 10
29235.020091918472
 20
16658.868920000001
 30
0.0
 40
160.0
  1
B
 72
     4
 11
29288.3534252518
 21
16738.868920000001
 31
0.0
  0
TEXT
  5
FC8A
  8
0-5
  6
CONTINUOUS
 62
     7
 10
29235.020091918472
 20
14091.36891899998
 30
0.0
 40
160.0
  1
A
 72
     4
 11
29288.3534252518
 21
14171.36891899998
 31
0.0
  0
LINE
  5
FC8B
  8
2-0
  6
CENTER2
 62
     6
 10
21283.008813585151
 20
20960.489220999989
 30
0.0
 11
21283.008813585151
 21
13825.23309953157
 31
0.0
  0
CIRCLE
  5
FC8C
  8
0-5
  6
CONTINUOUS
 62
     4
 10
21283.008813585151
 20
21160.487901999972
 30
0.0
 40
199.9999949999999
  0
TEXT
  5
FC8D
  8
0-5
  6
CONTINUOUS
 62
     7
 10
21257.67915758516
 20
21074.262051999991
 30
0.0
 40
160.0
  1
1
 72
     4
 11
21284.345824251832
 21
21154.262051999991
 31
0.0
  0
ARC
  5
FC8E
  8
1-後柱P
  6
HIDE-M
 62
     6
 10
21279.408813585142
 20
19249.936977999991
 30
0.0
 40
2.6000000000000001
 50
270.0
 51
0.000000000000007
  0
LINE
  5
FC8F
  8
1-後柱P
  6
HIDE-M
 62
     6
 10
21291.008813585158
 20
19247.887587846792
 30
0.0
 11
21291.008813585158
 21
19251.536977999989
 31
0.0
  0
LINE
  5
FC90
  8
1-後柱P
  6
HIDE-M
 62
     6
 10
21281.008813585151
 20
19247.887587846792
 30
0.0
 11
21281.008813585151
 21
19251.536977999989
 31
0.0
  0
LINE
  5
FC91
  8
1-後柱P
  6
1PL-M
 62
     6
 10
21286.008813585151
 20
19242.336977999988
 30
0.0
 11
21286.008813585151
 21
19256.536977999978
 31
0.0
  0
ARC
  5
FC92
  8
1-後柱P
  6
HIDE-M
 62
     6
 10
21292.608813585131
 20
19249.936977999991
 30
0.0
 40
2.6000000000000001
 50
180.0
 51
270.0
  0
LINE
  5
FC93
  8
1-後柱P
  6
HIDE-M
 62
     6
 10
21282.008813585158
 20
19249.936977999991
 30
0.0
 11
21282.008813585158
 21
19251.536977999989
 31
0.0
  0
LINE
  5
FC94
  8
1-後柱P
  6
HIDE-M
 62
     6
 10
21290.008813585151
 20
19249.936977999991
 30
0.0
 11
21290.008813585151
 21
19251.536977999989
 31
0.0
  0
LINE
  5
FC95
  8
1-後柱P
 10
21272.108813585139
 20
19362.23697799999
 30
0.0
 11
21293.908813585142
 21
19362.23697799999
 31
0.0
  0
LINE
  5
FC96
  8
1-後柱P
 10
21323.908813585149
 20
19324.93697799998
 30
0.0
 11
21323.908813585149
 21
19332.23697799999
 31
0.0
  0
ARC
  5
FC97
  8
1-後柱P
 10
21293.908813585142
 20
19332.23697799999
 30
0.0
 40
30.0
 50
0.000000000000007
 51
90.0
  0
ARC
  5
FC98
  8
1-後柱P
 10
21293.908813585142
 20
19332.23697799999
 30
0.0
 40
31.600000000000001
 50
0.000000000000007
 51
90.0
  0
LINE
  5
FC99
  8
1-後柱P
 10
21272.108813585139
 20
19363.836977999999
 30
0.0
 11
21293.908813585142
 21
19363.836977999999
 31
0.0
  0
LINE
  5
FC9A
  8
1-後柱P
 10
21325.508813585158
 20
19324.93697799998
 30
0.0
 11
21325.508813585158
 21
19332.23697799999
 31
0.0
  0
LINE
  5
FC9B
  8
1-後柱P
 10
21302.508813585158
 20
19303.336977999988
 30
0.0
 11
21302.508813585158
 21
19313.336977999981
 31
0.0
  0
LINE
  5
FC9C
  8
1-後柱P
 10
21300.908813585149
 20
19313.336977999981
 30
0.0
 11
21300.908813585149
 21
19303.336977999988
 31
0.0
  0
LINE
  5
FC9D
  8
1-後柱P
 10
21242.10881358515
 20
19324.93697799998
 30
0.0
 11
21242.10881358515
 21
19332.23697799999
 31
0.0
  0
ARC
  5
FC9E
  8
1-後柱P
 10
21272.108813585139
 20
19332.23697799999
 30
0.0
 40
30.0
 50
90.0
 51
180.0
  0
ARC
  5
FC9F
  8
1-後柱P
 10
21272.108813585139
 20
19332.23697799999
 30
0.0
 40
31.600000000000001
 50
90.0
 51
180.0
  0
LINE
  5
FCA0
  8
1-後柱P
 10
21240.508813585151
 20
19324.93697799998
 30
0.0
 11
21240.508813585151
 21
19332.23697799999
 31
0.0
  0
LINE
  5
FCA1
  8
1-後柱P
 10
21247.108813585131
 20
19318.336977999988
 30
0.0
 11
21258.508813585158
 21
19318.336977999988
 31
0.0
  0
ARC
  5
FCA2
  8
1-後柱P
 10
21247.108813585131
 20
19324.93697799998
 30
0.0
 40
6.599999999999997
 50
180.0
 51
270.0
  0
ARC
  5
FCA3
  8
1-後柱P
 10
21258.508813585158
 20
19313.336977999981
 30
0.0
 40
5.0
 50
0.000000000000007
 51
90.0
  0
LINE
  5
FCA4
  8
1-後柱P
 10
21247.108813585131
 20
19319.936977999991
 30
0.0
 11
21258.508813585158
 21
19319.936977999991
 31
0.0
  0
ARC
  5
FCA5
  8
1-後柱P
 10
21247.108813585131
 20
19324.93697799998
 30
0.0
 40
5.0
 50
180.0
 51
270.0
  0
LINE
  5
FCA6
  8
1-後柱P
 10
21263.508813585151
 20
19313.336977999981
 30
0.0
 11
21263.508813585151
 21
19253.93697799998
 31
0.0
  0
LINE
  5
FCA7
  8
1-後柱P
 10
21265.10881358515
 20
19313.336977999981
 30
0.0
 11
21265.10881358515
 21
19253.93697799998
 31
0.0
  0
ARC
  5
FCA8
  8
1-後柱P
 10
21258.508813585158
 20
19313.336977999981
 30
0.0
 40
6.599999999999997
 50
0.000000000000007
 51
90.0
  0
LINE
  5
FCA9
  8
1-後柱P
 10
21270.108813585139
 20
19247.336977999981
 30
0.0
 11
21303.508813585151
 21
19247.336977999981
 31
0.0
  0
ARC
  5
FCAA
  8
1-後柱P
 10
21270.108813585139
 20
19253.93697799998
 30
0.0
 40
6.599999999999997
 50
180.0
 51
270.0
  0
LINE
  5
FCAB
  8
1-後柱P
 10
21270.108813585139
 20
19248.936977999991
 30
0.0
 11
21303.508813585151
 21
19248.936977999991
 31
0.0
  0
ARC
  5
FCAC
  8
1-後柱P
 10
21270.108813585139
 20
19253.93697799998
 30
0.0
 40
5.0
 50
180.0
 51
270.0
  0
LINE
  5
FCAD
  8
1-後柱P
 10
21303.508813585151
 20
19248.936977999991
 30
0.0
 11
21303.508813585151
 21
19247.336977999981
 31
0.0
  0
LINE
  5
FCAE
  8
1-後柱P
 10
21318.908813585142
 20
19318.336977999988
 30
0.0
 11
21307.508813585151
 21
19318.336977999988
 31
0.0
  0
ARC
  5
FCAF
  8
1-後柱P
 10
21318.908813585142
 20
19324.93697799998
 30
0.0
 40
6.599999999999997
 50
270.0
 51
0.000000000000007
  0
ARC
  5
FCB0
  8
1-後柱P
 10
21307.508813585151
 20
19313.336977999981
 30
0.0
 40
5.0
 50
90.0
 51
180.0
  0
LINE
  5
FCB1
  8
1-後柱P
 10
21307.508813585151
 20
19319.936977999991
 30
0.0
 11
21318.908813585142
 21
19319.936977999991
 31
0.0
  0
ARC
  5
FCB2
  8
1-後柱P
 10
21307.508813585151
 20
19313.336977999981
 30
0.0
 40
6.599999999999997
 50
90.0
 51
180.0
  0
ARC
  5
FCB3
  8
1-後柱P
 10
21318.908813585142
 20
19324.93697799998
 30
0.0
 40
5.0
 50
270.0
 51
0.000000000000007
  0
LINE
  5
FCB4
  8
1-後柱P
 10
21302.508813585158
 20
19303.336977999988
 30
0.0
 11
21300.908813585149
 21
19303.336977999988
 31
0.0
  0
LINE
  5
FCB5
  8
1-後柱カバ-P
 10
21325.508813585158
 20
19311.636977999991
 30
0.0
 11
21325.508813585158
 21
19252.336977999981
 31
0.0
  0
ARC
  5
FCB6
  8
1-後柱カバ-P
 10
21318.908813585142
 20
19252.336977999981
 30
0.0
 40
6.599999999999997
 50
270.0
 51
0.000000000000007
  0
LINE
  5
FCB7
  8
1-後柱カバ-P
 10
21323.908813585149
 20
19311.636977999991
 30
0.0
 11
21323.908813585149
 21
19252.336977999981
 31
0.0
  0
ARC
  5
FCB8
  8
1-後柱カバ-P
 10
21318.908813585142
 20
19311.636977999991
 30
0.0
 40
5.0
 50
0.000000000000007
 51
90.0
  0
LINE
  5
FCB9
  8
1-後柱カバ-P
 10
21318.908813585142
 20
19245.736977999979
 30
0.0
 11
21247.108813585131
 21
19245.736977999979
 31
0.0
  0
ARC
  5
FCBA
  8
1-後柱カバ-P
 10
21247.108813585131
 20
19252.336977999981
 30
0.0
 40
6.599999999999997
 50
180.0
 51
270.0
  0
LINE
  5
FCBB
  8
1-後柱カバ-P
 10
21318.908813585142
 20
19247.336977999981
 30
0.0
 11
21247.108813585131
 21
19247.336977999981
 31
0.0
  0
ARC
  5
FCBC
  8
1-後柱カバ-P
 10
21247.108813585131
 20
19252.336977999981
 30
0.0
 40
5.0
 50
180.0
 51
270.0
  0
ARC
  5
FCBD
  8
1-後柱カバ-P
 10
21318.908813585142
 20
19252.336977999981
 30
0.0
 40
5.0
 50
270.0
 51
0.000000000000007
  0
LINE
  5
FCBE
  8
1-後柱カバ-P
 10
21240.508813585151
 20
19252.336977999981
 30
0.0
 11
21240.508813585151
 21
19311.636977999991
 31
0.0
  0
LINE
  5
FCBF
  8
1-後柱カバ-P
 10
21242.10881358515
 20
19252.336977999981
 30
0.0
 11
21242.10881358515
 21
19311.636977999991
 31
0.0
  0
ARC
  5
FCC0
  8
1-後柱カバ-P
 10
21247.108813585131
 20
19311.636977999991
 30
0.0
 40
5.0
 50
90.0
 51
180.0
  0
LINE
  5
FCC1
  8
1-後柱カバ-P
  6
1PL-M
 62
     6
 10
21283.008813585151
 20
19253.236977999979
 30
0.0
 11
21283.008813585151
 21
19240.23697799999
 31
0.0
  0
LINE
  5
FCC2
  8
1-後柱カバ-P
  6
HIDE-M
 62
     6
 10
21290.008813585151
 20
19245.736977999979
 30
0.0
 11
21290.008813585151
 21
19247.336977999981
 31
0.0
  0
LINE
  5
FCC3
  8
1-後柱カバ-P
  6
HIDE-M
 62
     6
 10
21276.008813585158
 20
19245.736977999979
 30
0.0
 11
21276.008813585158
 21
19247.336977999981
 31
0.0
  0
ARC
  5
FCC4
  8
1-後柱カバ-P
 10
21318.908813585142
 20
19311.636977999991
 30
0.0
 40
6.599999999999997
 50
0.000000000000007
 51
90.0
  0
ARC
  5
FCC5
  8
1-後柱カバ-P
 10
21247.108813585131
 20
19311.636977999991
 30
0.0
 40
6.599999999999997
 50
90.0
 51
180.0
  0
LINE
  5
FCC6
  8
1-後柱カバ-P
 10
21255.508813585151
 20
19318.23697799999
 30
0.0
 11
21247.108813585131
 21
19318.23697799999
 31
0.0
  0
LINE
  5
FCC7
  8
1-後柱カバ-P
 10
21310.508813585158
 20
19318.23697799999
 30
0.0
 11
21318.908813585142
 21
19318.23697799999
 31
0.0
  0
LINE
  5
FCC8
  8
1-後柱カバ-P
 10
21255.508813585151
 20
19316.636977999991
 30
0.0
 11
21247.108813585131
 21
19316.636977999991
 31
0.0
  0
LINE
  5
FCC9
  8
1-後柱カバ-P
 10
21310.508813585158
 20
19316.636977999991
 30
0.0
 11
21318.908813585142
 21
19316.636977999991
 31
0.0
  0
LINE
  5
FCCA
  8
1-後柱カバ-P
 10
21310.508813585158
 20
19316.636977999991
 30
0.0
 11
21310.508813585158
 21
19318.23697799999
 31
0.0
  0
LINE
  5
FCCB
  8
1-後柱カバ-P
 10
21255.508813585151
 20
19318.23697799999
 30
0.0
 11
21255.508813585151
 21
19316.636977999991
 31
0.0
  0
LINE
  5
FCCC
  8
1-後柱カバ-P
  6
HIDE-M
 62
     6
 10
21251.60881358515
 20
19297.23697799999
 30
0.0
 11
21240.008813585158
 21
19297.23697799999
 31
0.0
  0
LINE
  5
FCCD
  8
1-後柱カバ-P
  6
HIDE-M
 62
     6
 10
21251.60881358515
 20
19289.23697799999
 30
0.0
 11
21240.008813585158
 21
19289.23697799999
 31
0.0
  0
LINE
  5
FCCE
  8
1-後柱カバ-P
  6
HIDE-M
 62
     6
 10
21251.60881358515
 20
19296.236977999979
 30
0.0
 11
21240.008813585158
 21
19296.236977999979
 31
0.0
  0
LINE
  5
FCCF
  8
1-後柱カバ-P
  6
HIDE-M
 62
     6
 10
21251.60881358515
 20
19290.23697799999
 30
0.0
 11
21240.008813585158
 21
19290.23697799999
 31
0.0
  0
LINE
  5
FCD0
  8
1-後柱カバ-P
 10
21250.60881358515
 20
19287.73697799999
 30
0.0
 11
21243.608813585139
 21
19287.73697799999
 31
0.0
  0
LINE
  5
FCD1
  8
1-後柱カバ-P
 10
21243.608813585139
 20
19298.73697799999
 30
0.0
 11
21250.60881358515
 21
19298.73697799999
 31
0.0
  0
LINE
  5
FCD2
  8
1-後柱カバ-P
 10
21243.608813585139
 20
19299.48697799999
 30
0.0
 11
21243.608813585139
 21
19286.98697799999
 31
0.0
  0
LINE
  5
FCD3
  8
1-後柱カバ-P
 10
21240.008813585158
 20
19299.23697799999
 30
0.0
 11
21240.008813585158
 21
19287.23697799999
 31
0.0
  0
LINE
  5
FCD4
  8
1-後柱カバ-P
  6
HIDE-M
 62
     6
 10
21242.10881358515
 20
19287.73697799999
 30
0.0
 11
21240.508813585151
 21
19287.73697799999
 31
0.0
  0
LINE
  5
FCD5
  8
1-後柱カバ-P
 10
21240.008813585158
 20
19287.23697799999
 30
0.0
 11
21240.508813585151
 21
19287.73697799999
 31
0.0
  0
ARC
  5
FCD6
  8
1-後柱カバ-P
 10
21242.85881358515
 20
19286.98697799999
 30
0.0
 40
0.75
 50
180.0
 51
0.000000000000007
  0
LINE
  5
FCD7
  8
1-後柱カバ-P
  6
HIDE-M
 62
     6
 10
21240.508813585151
 20
19298.73697799999
 30
0.0
 11
21242.10881358515
 21
19298.73697799999
 31
0.0
  0
LINE
  5
FCD8
  8
1-後柱カバ-P
 10
21240.008813585158
 20
19299.23697799999
 30
0.0
 11
21240.508813585151
 21
19298.73697799999
 31
0.0
  0
ARC
  5
FCD9
  8
1-後柱カバ-P
 10
21242.85881358515
 20
19299.48697799999
 30
0.0
 40
0.75
 50
0.000000000000007
 51
180.0
  0
LINE
  5
FCDA
  8
1-後柱カバ-P
 10
21251.60881358515
 20
19297.73697799999
 30
0.0
 11
21251.60881358515
 21
19288.73697799999
 31
0.0
  0
ARC
  5
FCDB
  8
1-後柱カバ-P
 10
21250.60881358515
 20
19288.73697799999
 30
0.0
 40
1.0
 50
270.0
 51
0.000000000000007
  0
ARC
  5
FCDC
  8
1-後柱カバ-P
 10
21250.60881358515
 20
19297.73697799999
 30
0.0
 40
1.0
 50
0.000000000000007
 51
90.0
  0
LINE
  5
FCDD
  8
1-後柱カバ-P
  6
1PL-M
 62
     6
 10
21256.608813585131
 20
19293.23697799999
 30
0.0
 11
21235.008813585151
 21
19293.23697799999
 31
0.0
  0
LINE
  5
FCDE
  8
1-後柱カバ-P
 10
21250.60881358515
 20
19277.73697799999
 30
0.0
 11
21243.608813585139
 21
19277.73697799999
 31
0.0
  0
LINE
  5
FCDF
  8
1-後柱カバ-P
 10
21240.008813585158
 20
19285.23697799999
 30
0.0
 11
21240.008813585158
 21
19277.23697799999
 31
0.0
  0
LINE
  5
FCE0
  8
1-後柱カバ-P
  6
HIDE-M
 62
     6
 10
21242.10881358515
 20
19277.73697799999
 30
0.0
 11
21240.508813585151
 21
19277.73697799999
 31
0.0
  0
LINE
  5
FCE1
  8
1-後柱カバ-P
 10
21240.008813585158
 20
19277.23697799999
 30
0.0
 11
21240.508813585151
 21
19277.73697799999
 31
0.0
  0
ARC
  5
FCE2
  8
1-後柱カバ-P
 10
21242.85881358515
 20
19276.986977999979
 30
0.0
 40
0.75
 50
180.0
 51
0.000000000000007
  0
LINE
  5
FCE3
  8
1-後柱カバ-P
 10
21251.60881358515
 20
19286.736977999979
 30
0.0
 11
21251.60881358515
 21
19278.73697799999
 31
0.0
  0
ARC
  5
FCE4
  8
1-後柱カバ-P
 10
21250.60881358515
 20
19278.73697799999
 30
0.0
 40
1.0
 50
270.0
 51
0.000000000000007
  0
LINE
  5
FCE5
  8
1-後柱カバ-P
  6
1PL-M
 62
     6
 10
21256.608813585131
 20
19283.23697799999
 30
0.0
 11
21235.008813585151
 21
19283.23697799999
 31
0.0
  0
LINE
  5
FCE6
  8
1-後柱カバ-P
 10
21243.608813585139
 20
19284.98697799999
 30
0.0
 11
21243.608813585139
 21
19276.986977999979
 31
0.0
  0
LINE
  5
FCE7
  8
1-後柱カバ-P
  6
HIDE-M
 62
     6
 10
21314.408813585149
 20
19297.23697799999
 30
0.0
 11
21326.008813585151
 21
19297.23697799999
 31
0.0
  0
LINE
  5
FCE8
  8
1-後柱カバ-P
  6
HIDE-M
 62
     6
 10
21314.408813585149
 20
19289.23697799999
 30
0.0
 11
21326.008813585151
 21
19289.23697799999
 31
0.0
  0
LINE
  5
FCE9
  8
1-後柱カバ-P
  6
HIDE-M
 62
     6
 10
21314.408813585149
 20
19296.236977999979
 30
0.0
 11
21326.008813585151
 21
19296.236977999979
 31
0.0
  0
LINE
  5
FCEA
  8
1-後柱カバ-P
  6
HIDE-M
 62
     6
 10
21314.408813585149
 20
19290.23697799999
 30
0.0
 11
21326.008813585151
 21
19290.23697799999
 31
0.0
  0
LINE
  5
FCEB
  8
1-後柱カバ-P
 10
21315.408813585142
 20
19287.73697799999
 30
0.0
 11
21322.408813585142
 21
19287.73697799999
 31
0.0
  0
LINE
  5
FCEC
  8
1-後柱カバ-P
 10
21322.408813585142
 20
19298.73697799999
 30
0.0
 11
21315.408813585142
 21
19298.73697799999
 31
0.0
  0
LINE
  5
FCED
  8
1-後柱カバ-P
 10
21322.408813585142
 20
19299.48697799999
 30
0.0
 11
21322.408813585142
 21
19286.98697799999
 31
0.0
  0
LINE
  5
FCEE
  8
1-後柱カバ-P
 10
21326.008813585151
 20
19299.23697799999
 30
0.0
 11
21326.008813585151
 21
19287.23697799999
 31
0.0
  0
LINE
  5
FCEF
  8
1-後柱カバ-P
  6
HIDE-M
 62
     6
 10
21323.908813585149
 20
19287.73697799999
 30
0.0
 11
21325.508813585158
 21
19287.73697799999
 31
0.0
  0
LINE
  5
FCF0
  8
1-後柱カバ-P
 10
21326.008813585151
 20
19287.23697799999
 30
0.0
 11
21325.508813585158
 21
19287.73697799999
 31
0.0
  0
ARC
  5
FCF1
  8
1-後柱カバ-P
 10
21323.158813585142
 20
19286.98697799999
 30
0.0
 40
0.75
 50
180.0
 51
0.000000000000007
  0
LINE
  5
FCF2
  8
1-後柱カバ-P
  6
HIDE-M
 62
     6
 10
21325.508813585158
 20
19298.73697799999
 30
0.0
 11
21323.908813585149
 21
19298.73697799999
 31
0.0
  0
LINE
  5
FCF3
  8
1-後柱カバ-P
 10
21326.008813585151
 20
19299.23697799999
 30
0.0
 11
21325.508813585158
 21
19298.73697799999
 31
0.0
  0
ARC
  5
FCF4
  8
1-後柱カバ-P
 10
21323.158813585142
 20
19299.48697799999
 30
0.0
 40
0.75
 50
0.000000000000007
 51
180.0
  0
LINE
  5
FCF5
  8
1-後柱カバ-P
 10
21314.408813585149
 20
19297.73697799999
 30
0.0
 11
21314.408813585149
 21
19288.73697799999
 31
0.0
  0
ARC
  5
FCF6
  8
1-後柱カバ-P
 10
21315.408813585142
 20
19288.73697799999
 30
0.0
 40
1.0
 50
180.0
 51
270.0
  0
ARC
  5
FCF7
  8
1-後柱カバ-P
 10
21315.408813585142
 20
19297.73697799999
 30
0.0
 40
1.0
 50
90.0
 51
180.0
  0
LINE
  5
FCF8
  8
1-後柱カバ-P
  6
1PL-M
 62
     6
 10
21309.408813585142
 20
19293.23697799999
 30
0.0
 11
21331.008813585158
 21
19293.23697799999
 31
0.0
  0
LINE
  5
FCF9
  8
1-後柱カバ-P
 10
21315.408813585142
 20
19277.73697799999
 30
0.0
 11
21322.408813585142
 21
19277.73697799999
 31
0.0
  0
LINE
  5
FCFA
  8
1-後柱カバ-P
 10
21326.008813585151
 20
19285.23697799999
 30
0.0
 11
21326.008813585151
 21
19277.23697799999
 31
0.0
  0
LINE
  5
FCFB
  8
1-後柱カバ-P
  6
HIDE-M
 62
     6
 10
21323.908813585149
 20
19277.73697799999
 30
0.0
 11
21325.508813585158
 21
19277.73697799999
 31
0.0
  0
LINE
  5
FCFC
  8
1-後柱カバ-P
 10
21326.008813585151
 20
19277.23697799999
 30
0.0
 11
21325.508813585158
 21
19277.73697799999
 31
0.0
  0
ARC
  5
FCFD
  8
1-後柱カバ-P
 10
21323.158813585142
 20
19276.986977999979
 30
0.0
 40
0.75
 50
180.0
 51
0.000000000000007
  0
LINE
  5
FCFE
  8
1-後柱カバ-P
 10
21314.408813585149
 20
19286.736977999979
 30
0.0
 11
21314.408813585149
 21
19278.73697799999
 31
0.0
  0
ARC
  5
FCFF
  8
1-後柱カバ-P
 10
21315.408813585142
 20
19278.73697799999
 30
0.0
 40
1.0
 50
180.0
 51
270.0
  0
LINE
  5
FD00
  8
1-後柱カバ-P
  6
1PL-M
 62
     6
 10
21309.408813585142
 20
19283.23697799999
 30
0.0
 11
21331.008813585158
 21
19283.23697799999
 31
0.0
  0
LINE
  5
FD01
  8
1-後柱カバ-P
 10
21322.408813585142
 20
19284.98697799999
 30
0.0
 11
21322.408813585142
 21
19276.986977999979
 31
0.0
  0
LINE
  5
FD02
  8
1-後柱カバ-P
  6
HIDE-M
 62
     6
 10
21251.60881358515
 20
19279.23697799999
 30
0.0
 11
21240.008813585158
 21
19279.23697799999
 31
0.0
  0
LINE
  5
FD03
  8
1-後柱カバ-P
  6
HIDE-M
 62
     6
 10
21251.60881358515
 20
19280.23697799999
 30
0.0
 11
21240.008813585158
 21
19280.23697799999
 31
0.0
  0
LINE
  5
FD04
  8
1-後柱カバ-P
  6
HIDE-M
 62
     6
 10
21314.408813585149
 20
19279.23697799999
 30
0.0
 11
21326.008813585151
 21
19279.23697799999
 31
0.0
  0
LINE
  5
FD05
  8
1-後柱カバ-P
  6
HIDE-M
 62
     6
 10
21314.408813585149
 20
19280.23697799999
 30
0.0
 11
21326.008813585151
 21
19280.23697799999
 31
0.0
  0
LINE
  5
FD06
  8
1-中柱P
 10
21247.108813585161
 20
16679.48697799999
 30
0.0
 11
21318.90881358516
 21
16679.48697799999
 31
0.0
  0
ARC
  5
FD07
  8
1-中柱P
 10
21247.108813585161
 20
16684.48697799999
 30
0.0
 40
5.0
 50
180.0
 51
270.0
  0
ARC
  5
FD08
  8
1-中柱P
 10
21318.90881358516
 20
16684.48697799999
 30
0.0
 40
5.0
 50
270.0
 51
0.000000000000007
  0
LINE
  5
FD09
  8
1-中柱P
 10
21247.108813585161
 20
16677.886977999999
 30
0.0
 11
21318.90881358516
 21
16677.886977999999
 31
0.0
  0
ARC
  5
FD0A
  8
1-中柱P
 10
21247.108813585161
 20
16684.48697799999
 30
0.0
 40
6.599999999999997
 50
180.0
 51
270.0
  0
LINE
  5
FD0B
  8
1-中柱P
 10
21325.508813585158
 20
16743.786977999989
 30
0.0
 11
21325.508813585158
 21
16684.48697799999
 31
0.0
  0
ARC
  5
FD0C
  8
1-中柱P
 10
21318.90881358516
 20
16684.48697799999
 30
0.0
 40
6.599999999999997
 50
270.0
 51
0.000000000000007
  0
LINE
  5
FD0D
  8
1-中柱P
 10
21323.908813585149
 20
16684.48697799999
 30
0.0
 11
21323.908813585149
 21
16743.786977999989
 31
0.0
  0
ARC
  5
FD0E
  8
1-中柱P
 10
21318.90881358516
 20
16743.786977999989
 30
0.0
 40
5.0
 50
0.000000000000007
 51
90.0
  0
LINE
  5
FD0F
  8
1-中柱P
 10
21240.508813585151
 20
16743.786977999989
 30
0.0
 11
21240.508813585151
 21
16684.48697799999
 31
0.0
  0
LINE
  5
FD10
  8
1-中柱P
 10
21242.108813585161
 20
16684.48697799999
 30
0.0
 11
21242.108813585161
 21
16743.786977999989
 31
0.0
  0
LINE
  5
FD11
  8
1-中柱P
 10
21247.108813585161
 20
16750.386977999991
 30
0.0
 11
21255.508813585151
 21
16750.386977999991
 31
0.0
  0
ARC
  5
FD12
  8
1-中柱P
 10
21247.108813585161
 20
16743.786977999989
 30
0.0
 40
6.599999999999997
 50
90.0
 51
180.0
  0
LINE
  5
FD13
  8
1-中柱P
 10
21247.108813585161
 20
16748.786977999978
 30
0.0
 11
21255.508813585151
 21
16748.786977999978
 31
0.0
  0
ARC
  5
FD14
  8
1-中柱P
 10
21255.508813585151
 20
16755.386977999991
 30
0.0
 40
6.599999999999997
 50
270.0
 51
0.000000000000007
  0
ARC
  5
FD15
  8
1-中柱P
 10
21247.108813585161
 20
16743.786977999989
 30
0.0
 40
5.0
 50
90.0
 51
180.0
  0
LINE
  5
FD16
  8
1-中柱P
 10
21260.508813585158
 20
16755.386977999991
 30
0.0
 11
21260.508813585158
 21
16814.786977999978
 31
0.0
  0
ARC
  5
FD17
  8
1-中柱P
 10
21255.508813585151
 20
16755.386977999991
 30
0.0
 40
5.0
 50
270.0
 51
0.000000000000007
  0
LINE
  5
FD18
  8
1-中柱P
 10
21262.108813585161
 20
16755.386977999991
 30
0.0
 11
21262.108813585161
 21
16814.786977999978
 31
0.0
  0
LINE
  5
FD19
  8
1-中柱P
 10
21267.108813585161
 20
16821.386977999991
 30
0.0
 11
21300.508813585158
 21
16821.386977999991
 31
0.0
  0
ARC
  5
FD1A
  8
1-中柱P
 10
21267.108813585161
 20
16814.786977999978
 30
0.0
 40
6.599999999999997
 50
90.0
 51
180.0
  0
LINE
  5
FD1B
  8
1-中柱P
 10
21267.108813585161
 20
16819.786977999989
 30
0.0
 11
21300.508813585158
 21
16819.786977999989
 31
0.0
  0
ARC
  5
FD1C
  8
1-中柱P
 10
21267.108813585161
 20
16814.786977999978
 30
0.0
 40
5.0
 50
90.0
 51
180.0
  0
LINE
  5
FD1D
  8
1-中柱P
 10
21300.508813585158
 20
16819.786977999989
 30
0.0
 11
21300.508813585158
 21
16821.386977999991
 31
0.0
  0
LINE
  5
FD1E
  8
1-中柱P
 10
21318.90881358516
 20
16750.386977999991
 30
0.0
 11
21310.508813585158
 21
16750.386977999991
 31
0.0
  0
ARC
  5
FD1F
  8
1-中柱P
 10
21318.90881358516
 20
16743.786977999989
 30
0.0
 40
6.599999999999997
 50
0.000000000000007
 51
90.0
  0
ARC
  5
FD20
  8
1-中柱P
 10
21310.508813585158
 20
16755.386977999991
 30
0.0
 40
5.0
 50
180.0
 51
270.0
  0
LINE
  5
FD21
  8
1-中柱P
 10
21310.508813585158
 20
16748.786977999978
 30
0.0
 11
21318.90881358516
 21
16748.786977999978
 31
0.0
  0
ARC
  5
FD22
  8
1-中柱P
 10
21310.508813585158
 20
16755.386977999991
 30
0.0
 40
6.599999999999997
 50
180.0
 51
270.0
  0
ARC
  5
FD23
  8
1-中柱P
  6
HIDE-M
 62
     6
 10
21276.408813585149
 20
16818.786977999989
 30
0.0
 40
2.6000000000000001
 50
0.000000000000007
 51
90.0
  0
LINE
  5
FD24
  8
1-中柱P
  6
HIDE-M
 62
     6
 10
21288.008813585151
 20
16820.836368153181
 30
0.0
 11
21288.008813585151
 21
16817.186978000002
 31
0.0
  0
LINE
  5
FD25
  8
1-中柱P
  6
HIDE-M
 62
     6
 10
21278.008813585158
 20
16820.836368153181
 30
0.0
 11
21278.008813585158
 21
16817.186978000002
 31
0.0
  0
LINE
  5
FD26
  8
1-中柱P
  6
1PL-M
 62
     6
 10
21283.008813585151
 20
16826.386977999991
 30
0.0
 11
21283.008813585151
 21
16812.186978000002
 31
0.0
  0
ARC
  5
FD27
  8
1-中柱P
  6
HIDE-M
 62
     6
 10
21289.608813585161
 20
16818.786977999989
 30
0.0
 40
2.6000000000000001
 50
90.0
 51
180.0
  0
LINE
  5
FD28
  8
1-中柱P
  6
HIDE-M
 62
     6
 10
21279.008813585151
 20
16818.786977999989
 30
0.0
 11
21279.008813585151
 21
16817.186978000002
 31
0.0
  0
LINE
  5
FD29
  8
1-中柱P
  6
HIDE-M
 62
     6
 10
21287.008813585158
 20
16818.786977999989
 30
0.0
 11
21287.008813585158
 21
16817.186978000002
 31
0.0
  0
LINE
  5
FD2A
  8
1-中柱P
 10
21303.90881358516
 20
16755.386977999991
 30
0.0
 11
21303.90881358516
 21
16765.386977999991
 31
0.0
  0
LINE
  5
FD2B
  8
1-中柱P
 10
21305.508813585151
 20
16755.386977999991
 30
0.0
 11
21305.508813585151
 21
16765.386977999991
 31
0.0
  0
LINE
  5
FD2C
  8
1-中柱P
 10
21303.90881358516
 20
16765.386977999991
 30
0.0
 11
21305.508813585151
 21
16765.386977999991
 31
0.0
  0
LINE
  5
FD2D
  8
1-中柱P
  6
1PL-M
 62
     6
 10
21255.508813585151
 20
16786.386977999991
 30
0.0
 11
21269.708813585152
 21
16786.386977999991
 31
0.0
  0
LINE
  5
FD2E
  8
1-中柱P
  6
HIDE-M
 62
     6
 10
21251.608813585161
 20
16729.386977999999
 30
0.0
 11
21240.008813585158
 21
16729.386977999999
 31
0.0
  0
LINE
  5
FD2F
  8
1-中柱P
  6
HIDE-M
 62
     6
 10
21251.608813585161
 20
16721.386977999991
 30
0.0
 11
21240.008813585158
 21
16721.386977999991
 31
0.0
  0
LINE
  5
FD30
  8
1-中柱P
  6
HIDE-M
 62
     6
 10
21251.608813585161
 20
16728.386977999999
 30
0.0
 11
21240.008813585158
 21
16728.386977999999
 31
0.0
  0
LINE
  5
FD31
  8
1-中柱P
  6
HIDE-M
 62
     6
 10
21251.608813585161
 20
16722.386977999991
 30
0.0
 11
21240.008813585158
 21
16722.386977999991
 31
0.0
  0
LINE
  5
FD32
  8
1-中柱P
 10
21250.608813585161
 20
16719.886977999991
 30
0.0
 11
21243.608813585161
 21
16719.886977999991
 31
0.0
  0
LINE
  5
FD33
  8
1-中柱P
 10
21243.608813585161
 20
16730.886977999991
 30
0.0
 11
21250.608813585161
 21
16730.886977999991
 31
0.0
  0
LINE
  5
FD34
  8
1-中柱P
 10
21243.608813585161
 20
16731.636977999991
 30
0.0
 11
21243.608813585161
 21
16719.136977999991
 31
0.0
  0
LINE
  5
FD35
  8
1-中柱P
 10
21240.008813585158
 20
16731.386977999991
 30
0.0
 11
21240.008813585158
 21
16719.386977999991
 31
0.0
  0
LINE
  5
FD36
  8
1-中柱P
  6
HIDE-M
 62
     6
 10
21242.108813585161
 20
16719.886977999991
 30
0.0
 11
21240.508813585151
 21
16719.886977999991
 31
0.0
  0
LINE
  5
FD37
  8
1-中柱P
 10
21240.008813585158
 20
16719.386977999991
 30
0.0
 11
21240.508813585151
 21
16719.886977999991
 31
0.0
  0
ARC
  5
FD38
  8
1-中柱P
 10
21242.858813585161
 20
16719.136977999991
 30
0.0
 40
0.75
 50
180.0
 51
0.000000000000007
  0
LINE
  5
FD39
  8
1-中柱P
  6
HIDE-M
 62
     6
 10
21240.508813585151
 20
16730.886977999991
 30
0.0
 11
21242.108813585161
 21
16730.886977999991
 31
0.0
  0
LINE
  5
FD3A
  8
1-中柱P
 10
21240.008813585158
 20
16731.386977999991
 30
0.0
 11
21240.508813585151
 21
16730.886977999991
 31
0.0
  0
ARC
  5
FD3B
  8
1-中柱P
 10
21242.858813585161
 20
16731.636977999991
 30
0.0
 40
0.75
 50
0.000000000000007
 51
180.0
  0
LINE
  5
FD3C
  8
1-中柱P
 10
21251.608813585161
 20
16729.886977999991
 30
0.0
 11
21251.608813585161
 21
16720.886977999999
 31
0.0
  0
ARC
  5
FD3D
  8
1-中柱P
 10
21250.608813585161
 20
16720.886977999999
 30
0.0
 40
1.0
 50
270.0
 51
0.000000000000007
  0
ARC
  5
FD3E
  8
1-中柱P
 10
21250.608813585161
 20
16729.886977999991
 30
0.0
 40
1.0
 50
0.000000000000007
 51
90.0
  0
LINE
  5
FD3F
  8
1-中柱P
  6
1PL-M
 62
     6
 10
21256.608813585161
 20
16725.386977999991
 30
0.0
 11
21235.008813585151
 21
16725.386977999991
 31
0.0
  0
LINE
  5
FD40
  8
1-中柱P
 10
21250.608813585161
 20
16709.886977999991
 30
0.0
 11
21243.608813585161
 21
16709.886977999991
 31
0.0
  0
LINE
  5
FD41
  8
1-中柱P
 10
21240.008813585158
 20
16717.386977999991
 30
0.0
 11
21240.008813585158
 21
16709.386977999999
 31
0.0
  0
LINE
  5
FD42
  8
1-中柱P
  6
HIDE-M
 62
     6
 10
21242.108813585161
 20
16709.886977999991
 30
0.0
 11
21240.508813585151
 21
16709.886977999991
 31
0.0
  0
LINE
  5
FD43
  8
1-中柱P
 10
21240.008813585158
 20
16709.386977999999
 30
0.0
 11
21240.508813585151
 21
16709.886977999991
 31
0.0
  0
ARC
  5
FD44
  8
1-中柱P
 10
21242.858813585161
 20
16709.136977999991
 30
0.0
 40
0.75
 50
180.0
 51
0.000000000000007
  0
LINE
  5
FD45
  8
1-中柱P
 10
21251.608813585161
 20
16718.886977999999
 30
0.0
 11
21251.608813585161
 21
16710.886977999991
 31
0.0
  0
ARC
  5
FD46
  8
1-中柱P
 10
21250.608813585161
 20
16710.886977999991
 30
0.0
 40
1.0
 50
270.0
 51
0.000000000000007
  0
LINE
  5
FD47
  8
1-中柱P
  6
1PL-M
 62
     6
 10
21256.608813585161
 20
16715.386977999991
 30
0.0
 11
21235.008813585151
 21
16715.386977999991
 31
0.0
  0
LINE
  5
FD48
  8
1-中柱P
 10
21243.608813585161
 20
16717.136977999999
 30
0.0
 11
21243.608813585161
 21
16709.136977999991
 31
0.0
  0
LINE
  5
FD49
  8
1-中柱P
  6
HIDE-M
 62
     6
 10
21251.608813585161
 20
16711.386977999999
 30
0.0
 11
21240.008813585158
 21
16711.386977999999
 31
0.0
  0
LINE
  5
FD4A
  8
1-中柱P
  6
HIDE-M
 62
     6
 10
21251.608813585161
 20
16712.386977999991
 30
0.0
 11
21240.008813585158
 21
16712.386977999991
 31
0.0
  0
LINE
  5
FD4B
  8
1-中柱P
  6
HIDE-M
 62
     6
 10
21314.408813585149
 20
16729.386977999999
 30
0.0
 11
21326.008813585151
 21
16729.386977999999
 31
0.0
  0
LINE
  5
FD4C
  8
1-中柱P
  6
HIDE-M
 62
     6
 10
21314.408813585149
 20
16721.386977999991
 30
0.0
 11
21326.008813585151
 21
16721.386977999991
 31
0.0
  0
LINE
  5
FD4D
  8
1-中柱P
  6
HIDE-M
 62
     6
 10
21314.408813585149
 20
16728.386977999999
 30
0.0
 11
21326.008813585151
 21
16728.386977999999
 31
0.0
  0
LINE
  5
FD4E
  8
1-中柱P
  6
HIDE-M
 62
     6
 10
21314.408813585149
 20
16722.386977999991
 30
0.0
 11
21326.008813585151
 21
16722.386977999991
 31
0.0
  0
LINE
  5
FD4F
  8
1-中柱P
 10
21315.40881358516
 20
16719.886977999991
 30
0.0
 11
21322.40881358516
 21
16719.886977999991
 31
0.0
  0
LINE
  5
FD50
  8
1-中柱P
 10
21322.40881358516
 20
16730.886977999991
 30
0.0
 11
21315.40881358516
 21
16730.886977999991
 31
0.0
  0
LINE
  5
FD51
  8
1-中柱P
 10
21322.40881358516
 20
16731.636977999991
 30
0.0
 11
21322.40881358516
 21
16719.136977999991
 31
0.0
  0
LINE
  5
FD52
  8
1-中柱P
 10
21326.008813585151
 20
16731.386977999991
 30
0.0
 11
21326.008813585151
 21
16719.386977999991
 31
0.0
  0
LINE
  5
FD53
  8
1-中柱P
  6
HIDE-M
 62
     6
 10
21323.908813585149
 20
16719.886977999991
 30
0.0
 11
21325.508813585158
 21
16719.886977999991
 31
0.0
  0
LINE
  5
FD54
  8
1-中柱P
 10
21326.008813585151
 20
16719.386977999991
 30
0.0
 11
21325.508813585158
 21
16719.886977999991
 31
0.0
  0
ARC
  5
FD55
  8
1-中柱P
 10
21323.158813585171
 20
16719.136977999991
 30
0.0
 40
0.75
 50
180.0
 51
0.000000000000007
  0
LINE
  5
FD56
  8
1-中柱P
  6
HIDE-M
 62
     6
 10
21325.508813585158
 20
16730.886977999991
 30
0.0
 11
21323.908813585149
 21
16730.886977999991
 31
0.0
  0
LINE
  5
FD57
  8
1-中柱P
 10
21326.008813585151
 20
16731.386977999991
 30
0.0
 11
21325.508813585158
 21
16730.886977999991
 31
0.0
  0
ARC
  5
FD58
  8
1-中柱P
 10
21323.158813585171
 20
16731.636977999991
 30
0.0
 40
0.75
 50
0.000000000000007
 51
180.0
  0
LINE
  5
FD59
  8
1-中柱P
 10
21314.408813585149
 20
16729.886977999991
 30
0.0
 11
21314.408813585149
 21
16720.886977999999
 31
0.0
  0
ARC
  5
FD5A
  8
1-中柱P
 10
21315.40881358516
 20
16720.886977999999
 30
0.0
 40
1.0
 50
180.0
 51
270.0
  0
ARC
  5
FD5B
  8
1-中柱P
 10
21315.40881358516
 20
16729.886977999991
 30
0.0
 40
1.0
 50
90.0
 51
180.0
  0
LINE
  5
FD5C
  8
1-中柱P
  6
1PL-M
 62
     6
 10
21309.40881358516
 20
16725.386977999991
 30
0.0
 11
21331.008813585158
 21
16725.386977999991
 31
0.0
  0
LINE
  5
FD5D
  8
1-中柱P
 10
21315.40881358516
 20
16709.886977999991
 30
0.0
 11
21322.40881358516
 21
16709.886977999991
 31
0.0
  0
LINE
  5
FD5E
  8
1-中柱P
 10
21326.008813585151
 20
16717.386977999991
 30
0.0
 11
21326.008813585151
 21
16709.386977999999
 31
0.0
  0
LINE
  5
FD5F
  8
1-中柱P
  6
HIDE-M
 62
     6
 10
21323.908813585149
 20
16709.886977999991
 30
0.0
 11
21325.508813585158
 21
16709.886977999991
 31
0.0
  0
LINE
  5
FD60
  8
1-中柱P
 10
21326.008813585151
 20
16709.386977999999
 30
0.0
 11
21325.508813585158
 21
16709.886977999991
 31
0.0
  0
ARC
  5
FD61
  8
1-中柱P
 10
21323.158813585171
 20
16709.136977999991
 30
0.0
 40
0.75
 50
180.0
 51
0.000000000000007
  0
LINE
  5
FD62
  8
1-中柱P
 10
21314.408813585149
 20
16718.886977999999
 30
0.0
 11
21314.408813585149
 21
16710.886977999991
 31
0.0
  0
ARC
  5
FD63
  8
1-中柱P
 10
21315.40881358516
 20
16710.886977999991
 30
0.0
 40
1.0
 50
180.0
 51
270.0
  0
LINE
  5
FD64
  8
1-中柱P
  6
1PL-M
 62
     6
 10
21309.40881358516
 20
16715.386977999991
 30
0.0
 11
21331.008813585158
 21
16715.386977999991
 31
0.0
  0
LINE
  5
FD65
  8
1-中柱P
 10
21322.40881358516
 20
16717.136977999999
 30
0.0
 11
21322.40881358516
 21
16709.136977999991
 31
0.0
  0
LINE
  5
FD66
  8
1-中柱P
  6
HIDE-M
 62
     6
 10
21314.408813585149
 20
16711.386977999999
 30
0.0
 11
21326.008813585151
 21
16711.386977999999
 31
0.0
  0
LINE
  5
FD67
  8
1-中柱P
  6
HIDE-M
 62
     6
 10
21314.408813585149
 20
16712.386977999991
 30
0.0
 11
21326.008813585151
 21
16712.386977999991
 31
0.0
  0
LINE
  5
FD68
  8
1-中柱カバ-P
 10
21325.508813585158
 20
16757.086977999999
 30
0.0
 11
21325.508813585158
 21
16816.386977999991
 31
0.0
  0
ARC
  5
FD69
  8
1-中柱カバ-P
 10
21318.90881358516
 20
16816.386977999991
 30
0.0
 40
6.599999999999997
 50
0.000000000000007
 51
90.0
  0
LINE
  5
FD6A
  8
1-中柱カバ-P
 10
21323.908813585149
 20
16757.086977999999
 30
0.0
 11
21323.908813585149
 21
16816.386977999991
 31
0.0
  0
ARC
  5
FD6B
  8
1-中柱カバ-P
 10
21318.90881358516
 20
16757.086977999999
 30
0.0
 40
5.0
 50
270.0
 51
0.000000000000007
  0
LINE
  5
FD6C
  8
1-中柱カバ-P
 10
21318.90881358516
 20
16822.986977999979
 30
0.0
 11
21247.108813585161
 21
16822.986977999979
 31
0.0
  0
ARC
  5
FD6D
  8
1-中柱カバ-P
 10
21247.108813585161
 20
16816.386977999991
 30
0.0
 40
6.599999999999997
 50
90.0
 51
180.0
  0
LINE
  5
FD6E
  8
1-中柱カバ-P
 10
21318.90881358516
 20
16821.386977999991
 30
0.0
 11
21247.108813585161
 21
16821.386977999991
 31
0.0
  0
ARC
  5
FD6F
  8
1-中柱カバ-P
 10
21247.108813585161
 20
16816.386977999991
 30
0.0
 40
5.0
 50
90.0
 51
180.0
  0
ARC
  5
FD70
  8
1-中柱カバ-P
 10
21318.90881358516
 20
16816.386977999991
 30
0.0
 40
5.0
 50
0.000000000000007
 51
90.0
  0
LINE
  5
FD71
  8
1-中柱カバ-P
 10
21240.508813585151
 20
16816.386977999991
 30
0.0
 11
21240.508813585151
 21
16757.086977999999
 31
0.0
  0
LINE
  5
FD72
  8
1-中柱カバ-P
 10
21242.108813585161
 20
16816.386977999991
 30
0.0
 11
21242.108813585161
 21
16757.086977999999
 31
0.0
  0
ARC
  5
FD73
  8
1-中柱カバ-P
 10
21247.108813585161
 20
16757.086977999999
 30
0.0
 40
5.0
 50
180.0
 51
270.0
  0
LINE
  5
FD74
  8
1-中柱カバ-P
  6
1PL-M
 62
     6
 10
21283.008813585151
 20
16815.48697799999
 30
0.0
 11
21283.008813585151
 21
16828.48697799999
 31
0.0
  0
LINE
  5
FD75
  8
1-中柱カバ-P
  6
HIDE-M
 62
     6
 10
21290.008813585151
 20
16822.986977999979
 30
0.0
 11
21290.008813585151
 21
16821.386977999991
 31
0.0
  0
LINE
  5
FD76
  8
1-中柱カバ-P
  6
HIDE-M
 62
     6
 10
21276.008813585158
 20
16822.986977999979
 30
0.0
 11
21276.008813585158
 21
16821.386977999991
 31
0.0
  0
ARC
  5
FD77
  8
1-中柱カバ-P
 10
21318.90881358516
 20
16757.086977999999
 30
0.0
 40
6.599999999999997
 50
270.0
 51
0.000000000000007
  0
ARC
  5
FD78
  8
1-中柱カバ-P
 10
21247.108813585161
 20
16757.086977999999
 30
0.0
 40
6.599999999999997
 50
180.0
 51
270.0
  0
LINE
  5
FD79
  8
1-中柱カバ-P
 10
21255.508813585151
 20
16750.486977999979
 30
0.0
 11
21247.108813585161
 21
16750.486977999979
 31
0.0
  0
LINE
  5
FD7A
  8
1-中柱カバ-P
 10
21310.508813585158
 20
16750.486977999979
 30
0.0
 11
21318.90881358516
 21
16750.486977999979
 31
0.0
  0
LINE
  5
FD7B
  8
1-中柱カバ-P
 10
21255.508813585151
 20
16752.086977999981
 30
0.0
 11
21247.108813585161
 21
16752.086977999981
 31
0.0
  0
LINE
  5
FD7C
  8
1-中柱カバ-P
 10
21310.508813585158
 20
16752.086977999981
 30
0.0
 11
21318.90881358516
 21
16752.086977999981
 31
0.0
  0
LINE
  5
FD7D
  8
1-中柱カバ-P
 10
21310.508813585158
 20
16752.086977999981
 30
0.0
 11
21310.508813585158
 21
16750.486977999979
 31
0.0
  0
LINE
  5
FD7E
  8
1-中柱カバ-P
 10
21255.508813585151
 20
16750.486977999979
 30
0.0
 11
21255.508813585151
 21
16752.086977999981
 31
0.0
  0
LINE
  5
FD7F
  8
1-中柱カバ-P
  6
HIDE-M
 62
     6
 10
21251.608813585161
 20
16771.486977999979
 30
0.0
 11
21240.008813585158
 21
16771.486977999979
 31
0.0
  0
LINE
  5
FD80
  8
1-中柱カバ-P
  6
HIDE-M
 62
     6
 10
21251.608813585161
 20
16779.48697799999
 30
0.0
 11
21240.008813585158
 21
16779.48697799999
 31
0.0
  0
LINE
  5
FD81
  8
1-中柱カバ-P
  6
HIDE-M
 62
     6
 10
21251.608813585161
 20
16772.486977999979
 30
0.0
 11
21240.008813585158
 21
16772.486977999979
 31
0.0
  0
LINE
  5
FD82
  8
1-中柱カバ-P
  6
HIDE-M
 62
     6
 10
21251.608813585161
 20
16778.48697799999
 30
0.0
 11
21240.008813585158
 21
16778.48697799999
 31
0.0
  0
LINE
  5
FD83
  8
1-中柱カバ-P
 10
21250.608813585161
 20
16780.986977999979
 30
0.0
 11
21243.608813585161
 21
16780.986977999979
 31
0.0
  0
LINE
  5
FD84
  8
1-中柱カバ-P
 10
21243.608813585161
 20
16769.98697799999
 30
0.0
 11
21250.608813585161
 21
16769.98697799999
 31
0.0
  0
LINE
  5
FD85
  8
1-中柱カバ-P
 10
21243.608813585161
 20
16769.23697799999
 30
0.0
 11
21243.608813585161
 21
16781.73697799999
 31
0.0
  0
LINE
  5
FD86
  8
1-中柱カバ-P
 10
21240.008813585158
 20
16769.486977999979
 30
0.0
 11
21240.008813585158
 21
16781.48697799999
 31
0.0
  0
LINE
  5
FD87
  8
1-中柱カバ-P
  6
HIDE-M
 62
     6
 10
21242.108813585161
 20
16780.986977999979
 30
0.0
 11
21240.508813585151
 21
16780.986977999979
 31
0.0
  0
LINE
  5
FD88
  8
1-中柱カバ-P
 10
21240.008813585158
 20
16781.48697799999
 30
0.0
 11
21240.508813585151
 21
16780.986977999979
 31
0.0
  0
ARC
  5
FD89
  8
1-中柱カバ-P
 10
21242.858813585161
 20
16781.73697799999
 30
0.0
 40
0.75
 50
0.000000000000007
 51
180.0
  0
LINE
  5
FD8A
  8
1-中柱カバ-P
  6
HIDE-M
 62
     6
 10
21240.508813585151
 20
16769.98697799999
 30
0.0
 11
21242.108813585161
 21
16769.98697799999
 31
0.0
  0
LINE
  5
FD8B
  8
1-中柱カバ-P
 10
21240.008813585158
 20
16769.486977999979
 30
0.0
 11
21240.508813585151
 21
16769.98697799999
 31
0.0
  0
ARC
  5
FD8C
  8
1-中柱カバ-P
 10
21242.858813585161
 20
16769.23697799999
 30
0.0
 40
0.75
 50
180.0
 51
0.000000000000007
  0
LINE
  5
FD8D
  8
1-中柱カバ-P
 10
21251.608813585161
 20
16770.98697799999
 30
0.0
 11
21251.608813585161
 21
16779.986977999979
 31
0.0
  0
ARC
  5
FD8E
  8
1-中柱カバ-P
 10
21250.608813585161
 20
16779.986977999979
 30
0.0
 40
1.0
 50
0.000000000000007
 51
90.0
  0
ARC
  5
FD8F
  8
1-中柱カバ-P
 10
21250.608813585161
 20
16770.98697799999
 30
0.0
 40
1.0
 50
270.0
 51
0.000000000000007
  0
LINE
  5
FD90
  8
1-中柱カバ-P
  6
1PL-M
 62
     6
 10
21256.608813585161
 20
16775.48697799999
 30
0.0
 11
21235.008813585151
 21
16775.48697799999
 31
0.0
  0
LINE
  5
FD91
  8
1-中柱カバ-P
 10
21250.608813585161
 20
16790.98697799999
 30
0.0
 11
21243.608813585161
 21
16790.98697799999
 31
0.0
  0
LINE
  5
FD92
  8
1-中柱カバ-P
 10
21240.008813585158
 20
16783.48697799999
 30
0.0
 11
21240.008813585158
 21
16791.486977999979
 31
0.0
  0
LINE
  5
FD93
  8
1-中柱カバ-P
  6
HIDE-M
 62
     6
 10
21242.108813585161
 20
16790.98697799999
 30
0.0
 11
21240.508813585151
 21
16790.98697799999
 31
0.0
  0
LINE
  5
FD94
  8
1-中柱カバ-P
 10
21240.008813585158
 20
16791.486977999979
 30
0.0
 11
21240.508813585151
 21
16790.98697799999
 31
0.0
  0
ARC
  5
FD95
  8
1-中柱カバ-P
 10
21242.858813585161
 20
16791.73697799999
 30
0.0
 40
0.75
 50
0.000000000000007
 51
180.0
  0
LINE
  5
FD96
  8
1-中柱カバ-P
 10
21251.608813585161
 20
16781.98697799999
 30
0.0
 11
21251.608813585161
 21
16789.98697799999
 31
0.0
  0
ARC
  5
FD97
  8
1-中柱カバ-P
 10
21250.608813585161
 20
16789.98697799999
 30
0.0
 40
1.0
 50
0.000000000000007
 51
90.0
  0
LINE
  5
FD98
  8
1-中柱カバ-P
  6
1PL-M
 62
     6
 10
21256.608813585161
 20
16785.48697799999
 30
0.0
 11
21235.008813585151
 21
16785.48697799999
 31
0.0
  0
LINE
  5
FD99
  8
1-中柱カバ-P
 10
21243.608813585161
 20
16783.736977999979
 30
0.0
 11
21243.608813585161
 21
16791.73697799999
 31
0.0
  0
LINE
  5
FD9A
  8
1-中柱カバ-P
  6
HIDE-M
 62
     6
 10
21314.408813585149
 20
16771.486977999979
 30
0.0
 11
21326.008813585151
 21
16771.486977999979
 31
0.0
  0
LINE
  5
FD9B
  8
1-中柱カバ-P
  6
HIDE-M
 62
     6
 10
21314.408813585149
 20
16779.48697799999
 30
0.0
 11
21326.008813585151
 21
16779.48697799999
 31
0.0
  0
LINE
  5
FD9C
  8
1-中柱カバ-P
  6
HIDE-M
 62
     6
 10
21314.408813585149
 20
16772.486977999979
 30
0.0
 11
21326.008813585151
 21
16772.486977999979
 31
0.0
  0
LINE
  5
FD9D
  8
1-中柱カバ-P
  6
HIDE-M
 62
     6
 10
21314.408813585149
 20
16778.48697799999
 30
0.0
 11
21326.008813585151
 21
16778.48697799999
 31
0.0
  0
LINE
  5
FD9E
  8
1-中柱カバ-P
 10
21315.40881358516
 20
16780.986977999979
 30
0.0
 11
21322.40881358516
 21
16780.986977999979
 31
0.0
  0
LINE
  5
FD9F
  8
1-中柱カバ-P
 10
21322.40881358516
 20
16769.98697799999
 30
0.0
 11
21315.40881358516
 21
16769.98697799999
 31
0.0
  0
LINE
  5
FDA0
  8
1-中柱カバ-P
 10
21322.40881358516
 20
16769.23697799999
 30
0.0
 11
21322.40881358516
 21
16781.73697799999
 31
0.0
  0
LINE
  5
FDA1
  8
1-中柱カバ-P
 10
21326.008813585151
 20
16769.486977999979
 30
0.0
 11
21326.008813585151
 21
16781.48697799999
 31
0.0
  0
LINE
  5
FDA2
  8
1-中柱カバ-P
  6
HIDE-M
 62
     6
 10
21323.908813585149
 20
16780.986977999979
 30
0.0
 11
21325.508813585158
 21
16780.986977999979
 31
0.0
  0
LINE
  5
FDA3
  8
1-中柱カバ-P
 10
21326.008813585151
 20
16781.48697799999
 30
0.0
 11
21325.508813585158
 21
16780.986977999979
 31
0.0
  0
ARC
  5
FDA4
  8
1-中柱カバ-P
 10
21323.158813585171
 20
16781.73697799999
 30
0.0
 40
0.75
 50
0.000000000000007
 51
180.0
  0
LINE
  5
FDA5
  8
1-中柱カバ-P
  6
HIDE-M
 62
     6
 10
21325.508813585158
 20
16769.98697799999
 30
0.0
 11
21323.908813585149
 21
16769.98697799999
 31
0.0
  0
LINE
  5
FDA6
  8
1-中柱カバ-P
 10
21326.008813585151
 20
16769.486977999979
 30
0.0
 11
21325.508813585158
 21
16769.98697799999
 31
0.0
  0
ARC
  5
FDA7
  8
1-中柱カバ-P
 10
21323.158813585171
 20
16769.23697799999
 30
0.0
 40
0.75
 50
180.0
 51
0.000000000000007
  0
LINE
  5
FDA8
  8
1-中柱カバ-P
 10
21314.408813585149
 20
16770.98697799999
 30
0.0
 11
21314.408813585149
 21
16779.986977999979
 31
0.0
  0
ARC
  5
FDA9
  8
1-中柱カバ-P
 10
21315.40881358516
 20
16779.986977999979
 30
0.0
 40
1.0
 50
90.0
 51
180.0
  0
ARC
  5
FDAA
  8
1-中柱カバ-P
 10
21315.40881358516
 20
16770.98697799999
 30
0.0
 40
1.0
 50
180.0
 51
270.0
  0
LINE
  5
FDAB
  8
1-中柱カバ-P
  6
1PL-M
 62
     6
 10
21309.40881358516
 20
16775.48697799999
 30
0.0
 11
21331.008813585158
 21
16775.48697799999
 31
0.0
  0
LINE
  5
FDAC
  8
1-中柱カバ-P
 10
21315.40881358516
 20
16790.98697799999
 30
0.0
 11
21322.40881358516
 21
16790.98697799999
 31
0.0
  0
LINE
  5
FDAD
  8
1-中柱カバ-P
 10
21326.008813585151
 20
16783.48697799999
 30
0.0
 11
21326.008813585151
 21
16791.486977999979
 31
0.0
  0
LINE
  5
FDAE
  8
1-中柱カバ-P
  6
HIDE-M
 62
     6
 10
21323.908813585149
 20
16790.98697799999
 30
0.0
 11
21325.508813585158
 21
16790.98697799999
 31
0.0
  0
LINE
  5
FDAF
  8
1-中柱カバ-P
 10
21326.008813585151
 20
16791.486977999979
 30
0.0
 11
21325.508813585158
 21
16790.98697799999
 31
0.0
  0
ARC
  5
FDB0
  8
1-中柱カバ-P
 10
21323.158813585171
 20
16791.73697799999
 30
0.0
 40
0.75
 50
0.000000000000007
 51
180.0
  0
LINE
  5
FDB1
  8
1-中柱カバ-P
 10
21314.408813585149
 20
16781.98697799999
 30
0.0
 11
21314.408813585149
 21
16789.98697799999
 31
0.0
  0
ARC
  5
FDB2
  8
1-中柱カバ-P
 10
21315.40881358516
 20
16789.98697799999
 30
0.0
 40
1.0
 50
90.0
 51
180.0
  0
LINE
  5
FDB3
  8
1-中柱カバ-P
  6
1PL-M
 62
     6
 10
21309.40881358516
 20
16785.48697799999
 30
0.0
 11
21331.008813585158
 21
16785.48697799999
 31
0.0
  0
LINE
  5
FDB4
  8
1-中柱カバ-P
 10
21322.40881358516
 20
16783.736977999979
 30
0.0
 11
21322.40881358516
 21
16791.73697799999
 31
0.0
  0
LINE
  5
FDB5
  8
1-中柱カバ-P
  6
HIDE-M
 62
     6
 10
21251.608813585161
 20
16789.48697799999
 30
0.0
 11
21240.008813585158
 21
16789.48697799999
 31
0.0
  0
LINE
  5
FDB6
  8
1-中柱カバ-P
  6
HIDE-M
 62
     6
 10
21251.608813585161
 20
16788.48697799999
 30
0.0
 11
21240.008813585158
 21
16788.48697799999
 31
0.0
  0
LINE
  5
FDB7
  8
1-中柱カバ-P
  6
HIDE-M
 62
     6
 10
21314.408813585149
 20
16789.48697799999
 30
0.0
 11
21326.008813585151
 21
16789.48697799999
 31
0.0
  0
LINE
  5
FDB8
  8
1-中柱カバ-P
  6
HIDE-M
 62
     6
 10
21314.408813585149
 20
16788.48697799999
 30
0.0
 11
21326.008813585151
 21
16788.48697799999
 31
0.0
  0
ARC
  5
FDB9
  8
1-前柱P
  6
HIDE-M
 62
     6
 10
21286.60881358515
 20
14251.386978
 30
0.0
 40
2.6000000000000001
 50
90.0
 51
180.0
  0
LINE
  5
FDBA
  8
1-前柱P
  6
HIDE-M
 62
     6
 10
21275.008813585151
 20
14253.43636815318
 30
0.0
 11
21275.008813585151
 21
14249.78697799998
 31
0.0
  0
LINE
  5
FDBB
  8
1-前柱P
  6
HIDE-M
 62
     6
 10
21285.008813585158
 20
14253.43636815318
 30
0.0
 11
21285.008813585158
 21
14249.78697799998
 31
0.0
  0
LINE
  5
FDBC
  8
1-前柱P
  6
1PL-M
 62
     6
 10
21280.008813585158
 20
14258.98697799999
 30
0.0
 11
21280.008813585158
 21
14244.78697799998
 31
0.0
  0
ARC
  5
FDBD
  8
1-前柱P
  6
HIDE-M
 62
     6
 10
21273.408813585142
 20
14251.386978
 30
0.0
 40
2.6000000000000001
 50
0.000000000000007
 51
90.0
  0
LINE
  5
FDBE
  8
1-前柱P
  6
HIDE-M
 62
     6
 10
21284.008813585158
 20
14251.386978
 30
0.0
 11
21284.008813585158
 21
14249.78697799998
 31
0.0
  0
LINE
  5
FDBF
  8
1-前柱P
  6
HIDE-M
 62
     6
 10
21276.008813585158
 20
14251.386978
 30
0.0
 11
21276.008813585158
 21
14249.78697799998
 31
0.0
  0
LINE
  5
FDC0
  8
1-前柱P
 10
21293.908813585142
 20
14139.08697799999
 30
0.0
 11
21272.108813585139
 21
14139.08697799999
 31
0.0
  0
LINE
  5
FDC1
  8
1-前柱P
 10
21242.10881358515
 20
14176.386978
 30
0.0
 11
21242.10881358515
 21
14169.08697799999
 31
0.0
  0
ARC
  5
FDC2
  8
1-前柱P
 10
21272.108813585139
 20
14169.08697799999
 30
0.0
 40
30.0
 50
180.0
 51
270.0
  0
ARC
  5
FDC3
  8
1-前柱P
 10
21272.108813585139
 20
14169.08697799999
 30
0.0
 40
31.600000000000001
 50
180.0
 51
270.0
  0
LINE
  5
FDC4
  8
1-前柱P
 10
21293.908813585142
 20
14137.48697799999
 30
0.0
 11
21272.108813585139
 21
14137.48697799999
 31
0.0
  0
LINE
  5
FDC5
  8
1-前柱P
 10
21240.508813585151
 20
14176.386978
 30
0.0
 11
21240.508813585151
 21
14169.08697799999
 31
0.0
  0
LINE
  5
FDC6
  8
1-前柱P
 10
21263.508813585151
 20
14197.98697799999
 30
0.0
 11
21263.508813585151
 21
14187.98697799999
 31
0.0
  0
LINE
  5
FDC7
  8
1-前柱P
 10
21265.10881358515
 20
14187.98697799999
 30
0.0
 11
21265.10881358515
 21
14197.98697799999
 31
0.0
  0
LINE
  5
FDC8
  8
1-前柱P
 10
21323.908813585149
 20
14176.386978
 30
0.0
 11
21323.908813585149
 21
14169.08697799999
 31
0.0
  0
ARC
  5
FDC9
  8
1-前柱P
 10
21293.908813585142
 20
14169.08697799999
 30
0.0
 40
30.0
 50
270.0
 51
0.000000000000007
  0
ARC
  5
FDCA
  8
1-前柱P
 10
21293.908813585142
 20
14169.08697799999
 30
0.0
 40
31.600000000000001
 50
270.0
 51
0.000000000000007
  0
LINE
  5
FDCB
  8
1-前柱P
 10
21325.508813585158
 20
14176.386978
 30
0.0
 11
21325.508813585158
 21
14169.08697799999
 31
0.0
  0
LINE
  5
FDCC
  8
1-前柱P
 10
21318.908813585142
 20
14182.986977999981
 30
0.0
 11
21307.508813585151
 21
14182.986977999981
 31
0.0
  0
ARC
  5
FDCD
  8
1-前柱P
 10
21318.908813585142
 20
14176.386978
 30
0.0
 40
6.599999999999997
 50
0.000000000000007
 51
90.0
  0
ARC
  5
FDCE
  8
1-前柱P
 10
21307.508813585151
 20
14187.98697799999
 30
0.0
 40
5.0
 50
180.0
 51
270.0
  0
LINE
  5
FDCF
  8
1-前柱P
 10
21318.908813585142
 20
14181.38697799999
 30
0.0
 11
21307.508813585151
 21
14181.38697799999
 31
0.0
  0
ARC
  5
FDD0
  8
1-前柱P
 10
21318.908813585142
 20
14176.386978
 30
0.0
 40
5.0
 50
0.000000000000007
 51
90.0
  0
LINE
  5
FDD1
  8
1-前柱P
 10
21302.508813585158
 20
14187.98697799999
 30
0.0
 11
21302.508813585158
 21
14247.386978
 31
0.0
  0
LINE
  5
FDD2
  8
1-前柱P
 10
21300.908813585149
 20
14187.98697799999
 30
0.0
 11
21300.908813585149
 21
14247.386978
 31
0.0
  0
ARC
  5
FDD3
  8
1-前柱P
 10
21307.508813585151
 20
14187.98697799999
 30
0.0
 40
6.599999999999997
 50
180.0
 51
270.0
  0
LINE
  5
FDD4
  8
1-前柱P
 10
21295.908813585142
 20
14253.98697799999
 30
0.0
 11
21262.508813585158
 21
14253.98697799999
 31
0.0
  0
ARC
  5
FDD5
  8
1-前柱P
 10
21295.908813585142
 20
14247.386978
 30
0.0
 40
6.599999999999997
 50
0.000000000000007
 51
90.0
  0
LINE
  5
FDD6
  8
1-前柱P
 10
21295.908813585142
 20
14252.386978
 30
0.0
 11
21262.508813585158
 21
14252.386978
 31
0.0
  0
ARC
  5
FDD7
  8
1-前柱P
 10
21295.908813585142
 20
14247.386978
 30
0.0
 40
5.0
 50
0.000000000000007
 51
90.0
  0
LINE
  5
FDD8
  8
1-前柱P
 10
21262.508813585158
 20
14252.386978
 30
0.0
 11
21262.508813585158
 21
14253.98697799999
 31
0.0
  0
LINE
  5
FDD9
  8
1-前柱P
 10
21247.108813585131
 20
14182.986977999981
 30
0.0
 11
21258.508813585158
 21
14182.986977999981
 31
0.0
  0
ARC
  5
FDDA
  8
1-前柱P
 10
21247.108813585131
 20
14176.386978
 30
0.0
 40
6.599999999999997
 50
90.0
 51
180.0
  0
ARC
  5
FDDB
  8
1-前柱P
 10
21258.508813585158
 20
14187.98697799999
 30
0.0
 40
5.0
 50
270.0
 51
0.000000000000007
  0
LINE
  5
FDDC
  8
1-前柱P
 10
21258.508813585158
 20
14181.38697799999
 30
0.0
 11
21247.108813585131
 21
14181.38697799999
 31
0.0
  0
ARC
  5
FDDD
  8
1-前柱P
 10
21258.508813585158
 20
14187.98697799999
 30
0.0
 40
6.599999999999997
 50
270.0
 51
0.000000000000007
  0
ARC
  5
FDDE
  8
1-前柱P
 10
21247.108813585131
 20
14176.386978
 30
0.0
 40
5.0
 50
90.0
 51
180.0
  0
LINE
  5
FDDF
  8
1-前柱P
 10
21263.508813585151
 20
14197.98697799999
 30
0.0
 11
21265.10881358515
 21
14197.98697799999
 31
0.0
  0
LINE
  5
FDE0
  8
1-前柱カバ-P
 10
21240.508813585151
 20
14189.686977999971
 30
0.0
 11
21240.508813585151
 21
14248.98697799999
 31
0.0
  0
ARC
  5
FDE1
  8
1-前柱カバ-P
 10
21247.108813585131
 20
14248.98697799999
 30
0.0
 40
6.599999999999997
 50
90.0
 51
180.0
  0
LINE
  5
FDE2
  8
1-前柱カバ-P
 10
21242.10881358515
 20
14189.686977999971
 30
0.0
 11
21242.10881358515
 21
14248.98697799999
 31
0.0
  0
ARC
  5
FDE3
  8
1-前柱カバ-P
 10
21247.108813585131
 20
14189.686977999971
 30
0.0
 40
5.0
 50
180.0
 51
270.0
  0
LINE
  5
FDE4
  8
1-前柱カバ-P
 10
21247.108813585131
 20
14255.586977999979
 30
0.0
 11
21318.908813585142
 21
14255.586977999979
 31
0.0
  0
ARC
  5
FDE5
  8
1-前柱カバ-P
 10
21318.908813585142
 20
14248.98697799999
 30
0.0
 40
6.599999999999997
 50
0.000000000000007
 51
90.0
  0
LINE
  5
FDE6
  8
1-前柱カバ-P
 10
21247.108813585131
 20
14253.98697799999
 30
0.0
 11
21318.908813585142
 21
14253.98697799999
 31
0.0
  0
ARC
  5
FDE7
  8
1-前柱カバ-P
 10
21318.908813585142
 20
14248.98697799999
 30
0.0
 40
5.0
 50
0.000000000000007
 51
90.0
  0
ARC
  5
FDE8
  8
1-前柱カバ-P
 10
21247.108813585131
 20
14248.98697799999
 30
0.0
 40
5.0
 50
90.0
 51
180.0
  0
LINE
  5
FDE9
  8
1-前柱カバ-P
 10
21325.508813585158
 20
14248.98697799999
 30
0.0
 11
21325.508813585158
 21
14189.686977999971
 31
0.0
  0
LINE
  5
FDEA
  8
1-前柱カバ-P
 10
21323.908813585149
 20
14248.98697799999
 30
0.0
 11
21323.908813585149
 21
14189.686977999971
 31
0.0
  0
ARC
  5
FDEB
  8
1-前柱カバ-P
 10
21318.908813585142
 20
14189.686977999971
 30
0.0
 40
5.0
 50
270.0
 51
0.000000000000007
  0
LINE
  5
FDEC
  8
1-前柱カバ-P
  6
1PL-M
 62
     6
 10
21283.008813585151
 20
14248.08697799999
 30
0.0
 11
21283.008813585151
 21
14261.08697799999
 31
0.0
  0
LINE
  5
FDED
  8
1-前柱カバ-P
  6
HIDE-M
 62
     6
 10
21276.008813585158
 20
14255.586977999979
 30
0.0
 11
21276.008813585158
 21
14253.98697799999
 31
0.0
  0
LINE
  5
FDEE
  8
1-前柱カバ-P
  6
HIDE-M
 62
     6
 10
21290.008813585151
 20
14255.586977999979
 30
0.0
 11
21290.008813585151
 21
14253.98697799999
 31
0.0
  0
ARC
  5
FDEF
  8
1-前柱カバ-P
 10
21247.108813585131
 20
14189.686977999971
 30
0.0
 40
6.599999999999997
 50
180.0
 51
270.0
  0
ARC
  5
FDF0
  8
1-前柱カバ-P
 10
21318.908813585142
 20
14189.686977999971
 30
0.0
 40
6.599999999999997
 50
270.0
 51
0.000000000000007
  0
LINE
  5
FDF1
  8
1-前柱カバ-P
 10
21310.508813585158
 20
14183.086977999979
 30
0.0
 11
21318.908813585142
 21
14183.086977999979
 31
0.0
  0
LINE
  5
FDF2
  8
1-前柱カバ-P
 10
21255.508813585151
 20
14183.086977999979
 30
0.0
 11
21247.108813585131
 21
14183.086977999979
 31
0.0
  0
LINE
  5
FDF3
  8
1-前柱カバ-P
 10
21310.508813585158
 20
14184.68697799998
 30
0.0
 11
21318.908813585142
 21
14184.68697799998
 31
0.0
  0
LINE
  5
FDF4
  8
1-前柱カバ-P
 10
21255.508813585151
 20
14184.68697799998
 30
0.0
 11
21247.108813585131
 21
14184.68697799998
 31
0.0
  0
LINE
  5
FDF5
  8
1-前柱カバ-P
 10
21255.508813585151
 20
14184.68697799998
 30
0.0
 11
21255.508813585151
 21
14183.086977999979
 31
0.0
  0
LINE
  5
FDF6
  8
1-前柱カバ-P
 10
21310.508813585158
 20
14183.086977999979
 30
0.0
 11
21310.508813585158
 21
14184.68697799998
 31
0.0
  0
LINE
  5
FDF7
  8
1-前柱カバ-P
  6
HIDE-M
 62
     6
 10
21314.408813585149
 20
14204.08697799999
 30
0.0
 11
21326.008813585151
 21
14204.08697799999
 31
0.0
  0
LINE
  5
FDF8
  8
1-前柱カバ-P
  6
HIDE-M
 62
     6
 10
21314.408813585149
 20
14212.08697799999
 30
0.0
 11
21326.008813585151
 21
14212.08697799999
 31
0.0
  0
LINE
  5
FDF9
  8
1-前柱カバ-P
  6
HIDE-M
 62
     6
 10
21314.408813585149
 20
14205.086977999979
 30
0.0
 11
21326.008813585151
 21
14205.086977999979
 31
0.0
  0
LINE
  5
FDFA
  8
1-前柱カバ-P
  6
HIDE-M
 62
     6
 10
21314.408813585149
 20
14211.08697799999
 30
0.0
 11
21326.008813585151
 21
14211.08697799999
 31
0.0
  0
LINE
  5
FDFB
  8
1-前柱カバ-P
 10
21315.408813585142
 20
14213.586977999979
 30
0.0
 11
21322.408813585142
 21
14213.586977999979
 31
0.0
  0
LINE
  5
FDFC
  8
1-前柱カバ-P
 10
21322.408813585142
 20
14202.58697799999
 30
0.0
 11
21315.408813585142
 21
14202.58697799999
 31
0.0
  0
LINE
  5
FDFD
  8
1-前柱カバ-P
 10
21322.408813585142
 20
14201.83697799999
 30
0.0
 11
21322.408813585142
 21
14214.33697799999
 31
0.0
  0
LINE
  5
FDFE
  8
1-前柱カバ-P
 10
21326.008813585151
 20
14202.086977999979
 30
0.0
 11
21326.008813585151
 21
14214.08697799999
 31
0.0
  0
LINE
  5
FDFF
  8
1-前柱カバ-P
  6
HIDE-M
 62
     6
 10
21323.908813585149
 20
14213.586977999979
 30
0.0
 11
21325.508813585158
 21
14213.586977999979
 31
0.0
  0
LINE
  5
FE00
  8
1-前柱カバ-P
 10
21326.008813585151
 20
14214.08697799999
 30
0.0
 11
21325.508813585158
 21
14213.586977999979
 31
0.0
  0
ARC
  5
FE01
  8
1-前柱カバ-P
 10
21323.158813585142
 20
14214.33697799999
 30
0.0
 40
0.75
 50
0.000000000000007
 51
180.0
  0
LINE
  5
FE02
  8
1-前柱カバ-P
  6
HIDE-M
 62
     6
 10
21325.508813585158
 20
14202.58697799999
 30
0.0
 11
21323.908813585149
 21
14202.58697799999
 31
0.0
  0
LINE
  5
FE03
  8
1-前柱カバ-P
 10
21326.008813585151
 20
14202.086977999979
 30
0.0
 11
21325.508813585158
 21
14202.58697799999
 31
0.0
  0
ARC
  5
FE04
  8
1-前柱カバ-P
 10
21323.158813585142
 20
14201.83697799999
 30
0.0
 40
0.75
 50
180.0
 51
0.000000000000007
  0
LINE
  5
FE05
  8
1-前柱カバ-P
 10
21314.408813585149
 20
14203.58697799999
 30
0.0
 11
21314.408813585149
 21
14212.58697799999
 31
0.0
  0
ARC
  5
FE06
  8
1-前柱カバ-P
 10
21315.408813585142
 20
14212.58697799999
 30
0.0
 40
1.0
 50
90.0
 51
180.0
  0
ARC
  5
FE07
  8
1-前柱カバ-P
 10
21315.408813585142
 20
14203.58697799999
 30
0.0
 40
1.0
 50
180.0
 51
270.0
  0
LINE
  5
FE08
  8
1-前柱カバ-P
  6
1PL-M
 62
     6
 10
21309.408813585142
 20
14208.08697799999
 30
0.0
 11
21331.008813585158
 21
14208.08697799999
 31
0.0
  0
LINE
  5
FE09
  8
1-前柱カバ-P
 10
21315.408813585142
 20
14223.58697799999
 30
0.0
 11
21322.408813585142
 21
14223.58697799999
 31
0.0
  0
LINE
  5
FE0A
  8
1-前柱カバ-P
 10
21326.008813585151
 20
14216.08697799999
 30
0.0
 11
21326.008813585151
 21
14224.08697799999
 31
0.0
  0
LINE
  5
FE0B
  8
1-前柱カバ-P
  6
HIDE-M
 62
     6
 10
21323.908813585149
 20
14223.58697799999
 30
0.0
 11
21325.508813585158
 21
14223.58697799999
 31
0.0
  0
LINE
  5
FE0C
  8
1-前柱カバ-P
 10
21326.008813585151
 20
14224.08697799999
 30
0.0
 11
21325.508813585158
 21
14223.58697799999
 31
0.0
  0
ARC
  5
FE0D
  8
1-前柱カバ-P
 10
21323.158813585142
 20
14224.33697799999
 30
0.0
 40
0.75
 50
0.000000000000007
 51
180.0
  0
LINE
  5
FE0E
  8
1-前柱カバ-P
 10
21314.408813585149
 20
14214.58697799999
 30
0.0
 11
21314.408813585149
 21
14222.58697799999
 31
0.0
  0
ARC
  5
FE0F
  8
1-前柱カバ-P
 10
21315.408813585142
 20
14222.58697799999
 30
0.0
 40
1.0
 50
90.0
 51
180.0
  0
LINE
  5
FE10
  8
1-前柱カバ-P
  6
1PL-M
 62
     6
 10
21309.408813585142
 20
14218.08697799999
 30
0.0
 11
21331.008813585158
 21
14218.08697799999
 31
0.0
  0
LINE
  5
FE11
  8
1-前柱カバ-P
 10
21322.408813585142
 20
14216.33697799999
 30
0.0
 11
21322.408813585142
 21
14224.33697799999
 31
0.0
  0
LINE
  5
FE12
  8
1-前柱カバ-P
  6
HIDE-M
 62
     6
 10
21251.60881358515
 20
14204.08697799999
 30
0.0
 11
21240.008813585158
 21
14204.08697799999
 31
0.0
  0
LINE
  5
FE13
  8
1-前柱カバ-P
  6
HIDE-M
 62
     6
 10
21251.60881358515
 20
14212.08697799999
 30
0.0
 11
21240.008813585158
 21
14212.08697799999
 31
0.0
  0
LINE
  5
FE14
  8
1-前柱カバ-P
  6
HIDE-M
 62
     6
 10
21251.60881358515
 20
14205.086977999979
 30
0.0
 11
21240.008813585158
 21
14205.086977999979
 31
0.0
  0
LINE
  5
FE15
  8
1-前柱カバ-P
  6
HIDE-M
 62
     6
 10
21251.60881358515
 20
14211.08697799999
 30
0.0
 11
21240.008813585158
 21
14211.08697799999
 31
0.0
  0
LINE
  5
FE16
  8
1-前柱カバ-P
 10
21250.60881358515
 20
14213.586977999979
 30
0.0
 11
21243.608813585139
 21
14213.586977999979
 31
0.0
  0
LINE
  5
FE17
  8
1-前柱カバ-P
 10
21243.608813585139
 20
14202.58697799999
 30
0.0
 11
21250.60881358515
 21
14202.58697799999
 31
0.0
  0
LINE
  5
FE18
  8
1-前柱カバ-P
 10
21243.608813585139
 20
14201.83697799999
 30
0.0
 11
21243.608813585139
 21
14214.33697799999
 31
0.0
  0
LINE
  5
FE19
  8
1-前柱カバ-P
 10
21240.008813585158
 20
14202.086977999979
 30
0.0
 11
21240.008813585158
 21
14214.08697799999
 31
0.0
  0
LINE
  5
FE1A
  8
1-前柱カバ-P
  6
HIDE-M
 62
     6
 10
21242.10881358515
 20
14213.586977999979
 30
0.0
 11
21240.508813585151
 21
14213.586977999979
 31
0.0
  0
LINE
  5
FE1B
  8
1-前柱カバ-P
 10
21240.008813585158
 20
14214.08697799999
 30
0.0
 11
21240.508813585151
 21
14213.586977999979
 31
0.0
  0
ARC
  5
FE1C
  8
1-前柱カバ-P
 10
21242.85881358515
 20
14214.33697799999
 30
0.0
 40
0.75
 50
0.000000000000007
 51
180.0
  0
LINE
  5
FE1D
  8
1-前柱カバ-P
  6
HIDE-M
 62
     6
 10
21240.508813585151
 20
14202.58697799999
 30
0.0
 11
21242.10881358515
 21
14202.58697799999
 31
0.0
  0
LINE
  5
FE1E
  8
1-前柱カバ-P
 10
21240.008813585158
 20
14202.086977999979
 30
0.0
 11
21240.508813585151
 21
14202.58697799999
 31
0.0
  0
ARC
  5
FE1F
  8
1-前柱カバ-P
 10
21242.85881358515
 20
14201.83697799999
 30
0.0
 40
0.75
 50
180.0
 51
0.000000000000007
  0
LINE
  5
FE20
  8
1-前柱カバ-P
 10
21251.60881358515
 20
14203.58697799999
 30
0.0
 11
21251.60881358515
 21
14212.58697799999
 31
0.0
  0
ARC
  5
FE21
  8
1-前柱カバ-P
 10
21250.60881358515
 20
14212.58697799999
 30
0.0
 40
1.0
 50
0.000000000000007
 51
90.0
  0
ARC
  5
FE22
  8
1-前柱カバ-P
 10
21250.60881358515
 20
14203.58697799999
 30
0.0
 40
1.0
 50
270.0
 51
0.000000000000007
  0
LINE
  5
FE23
  8
1-前柱カバ-P
  6
1PL-M
 62
     6
 10
21256.608813585131
 20
14208.08697799999
 30
0.0
 11
21235.008813585151
 21
14208.08697799999
 31
0.0
  0
LINE
  5
FE24
  8
1-前柱カバ-P
 10
21250.60881358515
 20
14223.58697799999
 30
0.0
 11
21243.608813585139
 21
14223.58697799999
 31
0.0
  0
LINE
  5
FE25
  8
1-前柱カバ-P
 10
21240.008813585158
 20
14216.08697799999
 30
0.0
 11
21240.008813585158
 21
14224.08697799999
 31
0.0
  0
LINE
  5
FE26
  8
1-前柱カバ-P
  6
HIDE-M
 62
     6
 10
21242.10881358515
 20
14223.58697799999
 30
0.0
 11
21240.508813585151
 21
14223.58697799999
 31
0.0
  0
LINE
  5
FE27
  8
1-前柱カバ-P
 10
21240.008813585158
 20
14224.08697799999
 30
0.0
 11
21240.508813585151
 21
14223.58697799999
 31
0.0
  0
ARC
  5
FE28
  8
1-前柱カバ-P
 10
21242.85881358515
 20
14224.33697799999
 30
0.0
 40
0.75
 50
0.000000000000007
 51
180.0
  0
LINE
  5
FE29
  8
1-前柱カバ-P
 10
21251.60881358515
 20
14214.58697799999
 30
0.0
 11
21251.60881358515
 21
14222.58697799999
 31
0.0
  0
ARC
  5
FE2A
  8
1-前柱カバ-P
 10
21250.60881358515
 20
14222.58697799999
 30
0.0
 40
1.0
 50
0.000000000000007
 51
90.0
  0
LINE
  5
FE2B
  8
1-前柱カバ-P
  6
1PL-M
 62
     6
 10
21256.608813585131
 20
14218.08697799999
 30
0.0
 11
21235.008813585151
 21
14218.08697799999
 31
0.0
  0
LINE
  5
FE2C
  8
1-前柱カバ-P
 10
21243.608813585139
 20
14216.33697799999
 30
0.0
 11
21243.608813585139
 21
14224.33697799999
 31
0.0
  0
LINE
  5
FE2D
  8
1-前柱カバ-P
  6
HIDE-M
 62
     6
 10
21314.408813585149
 20
14222.08697799999
 30
0.0
 11
21326.008813585151
 21
14222.08697799999
 31
0.0
  0
LINE
  5
FE2E
  8
1-前柱カバ-P
  6
HIDE-M
 62
     6
 10
21314.408813585149
 20
14221.086977999979
 30
0.0
 11
21326.008813585151
 21
14221.086977999979
 31
0.0
  0
LINE
  5
FE2F
  8
1-前柱カバ-P
  6
HIDE-M
 62
     6
 10
21251.60881358515
 20
14222.08697799999
 30
0.0
 11
21240.008813585158
 21
14222.08697799999
 31
0.0
  0
LINE
  5
FE30
  8
1-前柱カバ-P
  6
HIDE-M
 62
     6
 10
21251.60881358515
 20
14221.086977999979
 30
0.0
 11
21240.008813585158
 21
14221.086977999979
 31
0.0
  0
LINE
  5
FE44
  8
0-6
  6
CONTINUOUS
 62
     6
 10
22733.084518406558
 20
13542.98783599998
 30
0.0
 11
21733.08517740657
 21
13542.98783599998
 31
0.0
  0
TEXT
  5
FE45
  8
0-6
  6
CONTINUOUS
 62
     7
 10
21837.08425440656
 20
13622.98809999997
 30
0.0
 40
160.0
  1
前柱（P）
 72
     4
 11
22237.08425440656
 21
13702.98809999997
 31
0.0
  0
LINE
  5
FE46
  8
0-6
  6
CONTINUOUS
 62
     6
 10
21328.008813585151
 20
14128.98697799999
 30
0.0
 11
21733.08517740657
 21
13542.98783599998
 31
0.0
  0
LINE
  5
FE47
  8
0-6
  6
CONTINUOUS
 62
     6
 10
22733.084518406558
 20
16080.048635954099
 30
0.0
 11
21733.08517740657
 21
16080.048635954099
 31
0.0
  0
TEXT
  5
FE48
  8
0-6
  6
CONTINUOUS
 62
     7
 10
21837.08425440656
 20
16160.048899954099
 30
0.0
 40
160.0
  1
中柱（P）
 72
     4
 11
22237.08425440656
 21
16240.048899954099
 31
0.0
  0
LINE
  5
FE49
  8
0-6
  6
CONTINUOUS
 62
     6
 10
21328.008813585151
 20
16666.047777954111
 30
0.0
 11
21733.08517740657
 21
16080.048635954099
 31
0.0
  0
LINE
  5
FE4A
  8
0-6
  6
CONTINUOUS
 62
     6
 10
23074.146408876069
 20
14743.97771582886
 30
0.0
 11
21618.146408876069
 21
14743.97771582886
 31
0.0
  0
TEXT
  5
FE4B
  8
0-6
  6
CONTINUOUS
 62
     7
 10
21658.141135623679
 20
14823.97797982884
 30
0.0
 40
160.0
  1
前柱カバー（P）
 72
     4
 11
22346.141135623679
 21
14903.97797982884
 31
0.0
  0
LINE
  5
FE4C
  8
0-6
  6
CONTINUOUS
 62
     6
 10
21318.908813585142
 20
14255.586977999979
 30
0.0
 11
21618.146408876069
 21
14743.97771582886
 31
0.0
  0
LINE
  5
FE4D
  8
0-6
  6
CONTINUOUS
 62
     6
 10
23074.146408876069
 20
17300.977279828861
 30
0.0
 11
21618.146408876069
 21
17300.977279828861
 31
0.0
  0
TEXT
  5
FE4E
  8
0-6
  6
CONTINUOUS
 62
     7
 10
21658.141135623679
 20
17380.977543828849
 30
0.0
 40
160.0
  1
中柱カバー（P）
 72
     4
 11
22346.141135623679
 21
17460.977543828849
 31
0.0
  0
LINE
  5
FE4F
  8
0-6
  6
CONTINUOUS
 62
     6
 10
21318.908813585142
 20
16812.586541999979
 30
0.0
 11
21618.146408876069
 21
17300.977279828861
 31
0.0
  0
LINE
  5
FE50
  8
0-6
  6
CONTINUOUS
 62
     6
 10
22733.084518406558
 20
19957.424343045841
 30
0.0
 11
21733.08517740657
 21
19957.424343045841
 31
0.0
  0
TEXT
  5
FE51
  8
0-6
  6
CONTINUOUS
 62
     7
 10
21837.08425440656
 20
20037.42460704585
 30
0.0
 40
160.0
  1
後柱（P）
 72
     4
 11
22237.08425440656
 21
20117.42460704585
 31
0.0
  0
LINE
  5
FE52
  8
0-6
  6
CONTINUOUS
 62
     6
 10
21328.008813585151
 20
19371.425201045851
 30
0.0
 11
21733.08517740657
 21
19957.424343045841
 31
0.0
  0
LINE
  5
FE53
  8
0-6
  6
CONTINUOUS
 62
     6
 10
23074.146408876091
 20
18751.32531954204
 30
0.0
 11
21618.146408876091
 21
18751.32531954204
 31
0.0
  0
TEXT
  5
FE54
  8
0-6
  6
CONTINUOUS
 62
     7
 10
21658.141135623679
 20
18831.325583542039
 30
0.0
 40
160.0
  1
後柱カバー（P）
 72
     4
 11
22346.141135623679
 21
18911.325583542039
 31
0.0
  0
LINE
  5
FE55
  8
0-6
  6
CONTINUOUS
 62
     6
 10
21318.908813585142
 20
19224.88643699999
 30
0.0
 11
21618.146408876091
 21
18751.32531954204
 31
0.0
  0
LINE
  5
FEAC
  8
0-6
  6
CONTINUOUS
 62
     6
 10
11515.39570463625
 20
19237.710913999981
 30
0.0
 11
11371.494601636259
 21
19749.98656899995
 31
0.0
  0
LINE
  5
FEAD
  8
0-6
  6
CONTINUOUS
 62
     6
 10
11770.50150218696
 20
19486.164896999991
 30
0.0
 11
11663.806440186971
 21
19363.98900999999
 31
0.0
  0
LINE
  5
FEAE
  8
0-6
  6
CONTINUOUS
 62
     6
 10
11663.806440186971
 20
19363.98900999999
 30
0.0
 11
11725.112130186981
 21
19514.165186999981
 31
0.0
  0
LINE
  5
FEAF
  8
0-6
  6
CONTINUOUS
 62
     6
 10
11663.806440186971
 20
19363.98900999999
 30
0.0
 11
11770.50150218696
 21
19486.164896999991
 31
0.0
  0
LINE
  5
FEB0
  8
0-6
  6
CONTINUOUS
 62
     6
 10
11770.50150218696
 20
19486.164896999991
 30
0.0
 11
11725.112130186981
 21
19514.165186999981
 31
0.0
  0
LINE
  5
FEB1
  8
0-6
  6
CONTINUOUS
 62
     6
 10
11725.112130186981
 20
19514.165186999981
 30
0.0
 11
11663.806440186971
 21
19363.98900999999
 31
0.0
  0
LINE
  5
FEB2
  8
0-6
  6
CONTINUOUS
 62
     6
 10
11725.112130186981
 20
19514.165186999981
 30
0.0
 11
11770.50150218696
 21
19486.164896999991
 31
0.0
  0
LINE
  5
FEB3
  8
0-6
  6
CONTINUOUS
 62
     6
 10
11663.806440186971
 20
19363.98900999999
 30
0.0
 11
11957.73426718697
 21
19770.48710999998
 31
0.0
  0
LINE
  5
FEB4
  8
0-6
  6
CONTINUOUS
 62
     6
 10
11541.28384863626
 20
19244.11069799996
 30
0.0
 11
11553.785498636251
 21
19082.38600899998
 31
0.0
  0
LINE
  5
FEB5
  8
0-6
  6
CONTINUOUS
 62
     6
 10
11553.785498636251
 20
19082.38600899998
 30
0.0
 11
11489.510529636251
 21
19231.315089999989
 31
0.0
  0
LINE
  5
FEB6
  8
0-6
  6
CONTINUOUS
 62
     6
 10
11553.785498636251
 20
19082.38600899998
 30
0.0
 11
11541.28384863626
 21
19244.11069799996
 31
0.0
  0
LINE
  5
FEB7
  8
0-6
  6
CONTINUOUS
 62
     6
 10
11541.28384863626
 20
19244.11069799996
 30
0.0
 11
11489.510529636251
 21
19231.315089999989
 31
0.0
  0
LINE
  5
FEB8
  8
0-6
  6
CONTINUOUS
 62
     6
 10
11489.510529636251
 20
19231.315089999989
 30
0.0
 11
11553.785498636251
 21
19082.38600899998
 31
0.0
  0
LINE
  5
FEB9
  8
0-6
  6
CONTINUOUS
 62
     6
 10
11489.510529636251
 20
19231.315089999989
 30
0.0
 11
11541.28384863626
 21
19244.11069799996
 31
0.0
  0
LINE
  5
FEBA
  8
0-6
  6
CONTINUOUS
 62
     6
 10
11371.494601636259
 20
19749.98656899995
 30
0.0
 11
10853.805953636251
 21
19749.98656899995
 31
0.0
  0
LINE
  5
FEBB
  8
0-6
  6
CONTINUOUS
 62
     6
 10
12830.14153986887
 20
17431.977035286229
 30
0.0
 11
12919.95724686888
 21
17567.049486286222
 31
0.0
  0
LINE
  5
FEBC
  8
0-6
  6
CONTINUOUS
 62
     6
 10
12919.95724686888
 20
17567.049486286222
 30
0.0
 11
12878.80305586887
 21
17410.148884286231
 31
0.0
  0
LINE
  5
FEBD
  8
0-6
  6
CONTINUOUS
 62
     6
 10
12919.95724686888
 20
17567.049486286222
 30
0.0
 11
12830.14153986887
 21
17431.977035286229
 31
0.0
  0
LINE
  5
FEBE
  8
0-6
  6
CONTINUOUS
 62
     6
 10
12830.14153986887
 20
17431.977035286229
 30
0.0
 11
12878.80305586887
 21
17410.148884286231
 31
0.0
  0
LINE
  5
FEBF
  8
0-6
  6
CONTINUOUS
 62
     6
 10
12878.80305586887
 20
17410.148884286231
 30
0.0
 11
12919.95724686888
 21
17567.049486286222
 31
0.0
  0
LINE
  5
FEC0
  8
0-6
  6
CONTINUOUS
 62
     6
 10
12878.80305586887
 20
17410.148884286231
 30
0.0
 11
12830.14153986887
 21
17431.977035286229
 31
0.0
  0
LINE
  5
FEC1
  8
0-6
  6
CONTINUOUS
 62
     6
 10
12757.735916186981
 20
19770.48710999998
 30
0.0
 11
11957.73426718697
 21
19770.48710999998
 31
0.0
  0
LINE
  5
FEC2
  8
0-6
  6
CONTINUOUS
 62
     6
 10
16168.75215162158
 20
17087.77055234438
 30
0.0
 11
14174.30799962156
 21
17087.77055234438
 31
0.0
  0
LINE
  5
FEC3
  8
0-6
  6
CONTINUOUS
 62
     6
 10
10993.029439962311
 20
15628.106722503841
 30
0.0
 11
11379.78189680469
 21
15456.53412047657
 31
0.0
  0
LINE
  5
FEC4
  8
0-6
  6
CONTINUOUS
 62
     6
 10
12259.782820804699
 20
15456.53412047657
 30
0.0
 11
11379.78189680469
 21
15456.53412047657
 31
0.0
  0
LINE
  5
FEC5
  8
0-6
  6
CONTINUOUS
 62
     6
 10
12755.43153986889
 20
17200.270426286232
 30
0.0
 11
12235.43081386887
 21
17200.270426286232
 31
0.0
  0
LINE
  5
FEC6
  8
0-6
  6
CONTINUOUS
 62
     6
 10
12681.30400816982
 20
14052.950500396781
 30
0.0
 11
12471.69560223902
 21
13541.82657200504
 31
0.0
  0
LINE
  5
FEC7
  8
0-6
  6
CONTINUOUS
 62
     6
 10
12471.69560223902
 20
13541.82657200504
 30
0.0
 11
11671.69494223903
 21
13541.82657200504
 31
0.0
  0
LINE
  5
FEC8
  8
0-6
  6
CONTINUOUS
 62
     6
 10
11525.37351340595
 20
13867.93993099999
 30
0.0
 11
11631.643968405961
 21
13990.486978000001
 31
0.0
  0
LINE
  5
FEC9
  8
0-6
  6
CONTINUOUS
 62
     6
 10
11631.643968405961
 20
13990.486978000001
 30
0.0
 11
11570.861860405959
 21
13840.098002000001
 31
0.0
  0
LINE
  5
FECA
  8
0-6
  6
CONTINUOUS
 62
     6
 10
11631.643968405961
 20
13990.486978000001
 30
0.0
 11
11525.37351340595
 21
13867.93993099999
 31
0.0
  0
LINE
  5
FECB
  8
0-6
  6
CONTINUOUS
 62
     6
 10
11525.37351340595
 20
13867.93993099999
 30
0.0
 11
11570.861860405959
 21
13840.098002000001
 31
0.0
  0
LINE
  5
FECC
  8
0-6
  6
CONTINUOUS
 62
     6
 10
11570.861860405959
 20
13840.098002000001
 30
0.0
 11
11631.643968405961
 21
13990.486978000001
 31
0.0
  0
LINE
  5
FECD
  8
0-6
  6
CONTINUOUS
 62
     6
 10
11570.861860405959
 20
13840.098002000001
 30
0.0
 11
11525.37351340595
 21
13867.93993099999
 31
0.0
  0
LINE
  5
FECE
  8
0-6
  6
CONTINUOUS
 62
     6
 10
12656.63252089223
 20
14063.06797652044
 30
0.0
 11
12742.014025275899
 21
14200.985512999971
 31
0.0
  0
LINE
  5
FECF
  8
0-6
  6
CONTINUOUS
 62
     6
 10
12742.014025275899
 20
14200.985512999971
 30
0.0
 11
12705.97689496852
 21
14042.832964929839
 31
0.0
  0
LINE
  5
FED0
  8
0-6
  6
CONTINUOUS
 62
     6
 10
12742.014025275899
 20
14200.985512999971
 30
0.0
 11
12656.63252089223
 21
14063.06797652044
 31
0.0
  0
LINE
  5
FED1
  8
0-6
  6
CONTINUOUS
 62
     6
 10
12656.63252089223
 20
14063.06797652044
 30
0.0
 11
12705.97689496852
 21
14042.832964929839
 31
0.0
  0
LINE
  5
FED2
  8
0-6
  6
CONTINUOUS
 62
     6
 10
12705.97689496852
 20
14042.832964929839
 30
0.0
 11
12742.014025275899
 21
14200.985512999971
 31
0.0
  0
LINE
  5
FED3
  8
0-6
  6
CONTINUOUS
 62
     6
 10
12705.97689496852
 20
14042.832964929839
 30
0.0
 11
12656.63252089223
 21
14063.06797652044
 31
0.0
  0
LINE
  5
FED4
  8
0-6
  6
CONTINUOUS
 62
     6
 10
11292.30835177185
 20
13436.062282934219
 30
0.0
 11
10429.72818077185
 21
13436.062282934219
 31
0.0
  0
LINE
  5
FED5
  8
0-6
  6
CONTINUOUS
 62
     6
 10
11548.117191405971
 20
13854.018967000011
 30
0.0
 11
11292.30835177185
 21
13436.062282934219
 31
0.0
  0
LINE
  5
FED6
  8
0-6
  6
CONTINUOUS
 62
     6
 10
13035.40938186888
 20
14180.776105999959
 30
0.0
 11
13012.95867186889
 21
14341.42195699996
 31
0.0
  0
LINE
  5
FED7
  8
0-6
  6
CONTINUOUS
 62
     6
 10
13012.95867186889
 20
14341.42195699996
 30
0.0
 11
13086.295875868889
 21
14196.740922999979
 31
0.0
  0
LINE
  5
FED8
  8
0-6
  6
CONTINUOUS
 62
     6
 10
13012.95867186889
 20
14341.42195699996
 30
0.0
 11
13035.40938186888
 21
14180.776105999959
 31
0.0
  0
LINE
  5
FED9
  8
0-6
  6
CONTINUOUS
 62
     6
 10
13035.40938186888
 20
14180.776105999959
 30
0.0
 11
13086.295875868889
 21
14196.740922999979
 31
0.0
  0
LINE
  5
FEDA
  8
0-6
  6
CONTINUOUS
 62
     6
 10
13086.295875868889
 20
14196.740922999979
 30
0.0
 11
13012.95867186889
 21
14341.42195699996
 31
0.0
  0
LINE
  5
FEDB
  8
0-6
  6
CONTINUOUS
 62
     6
 10
13086.295875868889
 20
14196.740922999979
 30
0.0
 11
13035.40938186888
 21
14180.776105999959
 31
0.0
  0
LINE
  5
FEDC
  8
0-6
  6
CONTINUOUS
 62
     6
 10
14727.592922868889
 20
12668.985604999951
 30
0.0
 11
13647.59331886889
 21
12668.985604999951
 31
0.0
  0
LINE
  5
FEDD
  8
0-6
  6
CONTINUOUS
 62
     6
 10
13060.853123868899
 20
14188.757524999961
 30
0.0
 11
13647.59331886889
 21
12668.985604999951
 31
0.0
  0
LINE
  5
FEDE
  8
0-6
  6
CONTINUOUS
 62
     6
 10
12854.471802868869
 20
17421.06394928621
 30
0.0
 11
12755.43153986889
 21
17200.270426286232
 31
0.0
  0
LINE
  5
FEDF
  8
0-6
  6
CONTINUOUS
 62
     6
 10
16206.27584359387
 20
18072.71599913896
 30
0.0
 11
14211.83169159385
 21
18072.71599913896
 31
0.0
  0
LINE
  5
FEE0
  8
0-6
  6
CONTINUOUS
 62
     6
 10
7479.4236411484608
 20
19519.986304999991
 30
0.0
 11
7387.736299148447
 21
19653.793842999981
 31
0.0
  0
LINE
  5
FEE1
  8
0-6
  6
CONTINUOUS
 62
     6
 10
7349.2950381484598
 20
19616.826332999979
 30
0.0
 11
7479.4236411484608
 21
19519.986304999991
 31
0.0
  0
LINE
  5
FEE2
  8
0-6
  6
CONTINUOUS
 62
     6
 10
7349.2950381484598
 20
19616.826332999979
 30
0.0
 11
7387.736299148447
 21
19653.793842999981
 31
0.0
  0
LINE
  5
FEE3
  8
0-6
  6
CONTINUOUS
 62
     6
 10
7368.5151731484511
 20
19635.309097999991
 30
0.0
 11
6851.5262851484586
 21
20139.987360999981
 31
0.0
  0
LINE
  5
FEE4
  8
0-6
  6
CONTINUOUS
 62
     6
 10
6851.5262851484586
 20
20139.987360999981
 30
0.0
 11
5176.5269451484492
 21
20139.987360999981
 31
0.0
  0
CIRCLE
  5
FEE5
  8
0-5
  6
CONTINUOUS
 62
     4
 10
10362.95899586889
 20
20760.487901999972
 30
0.0
 40
199.9999949999999
  0
CIRCLE
  5
FEE6
  8
0-5
  6
CONTINUOUS
 62
     4
 10
12930.45867186889
 20
20760.487901999972
 30
0.0
 40
199.9999949999999
  0
CIRCLE
  5
FEE7
  8
0-5
  6
CONTINUOUS
 62
     4
 10
14459.95844786887
 20
19317.986977999961
 30
0.0
 40
199.9999949999999
  0
CIRCLE
  5
FEE8
  8
0-5
  6
CONTINUOUS
 62
     4
 10
14459.95844786887
 20
16750.486977999972
 30
0.0
 40
199.9999949999999
  0
CIRCLE
  5
FEE9
  8
0-5
  6
CONTINUOUS
 62
     4
 10
14459.95844786887
 20
14182.986977999981
 30
0.0
 40
199.9999949999999
  0
TEXT
  5
FEEA
  8
0-5
  6
CONTINUOUS
 62
     7
 10
10310.009535202191
 20
20671.27297899999
 30
0.0
 40
160.0
  1
2
 72
     4
 11
10363.34286853553
 21
20751.27297899999
 31
0.0
  0
TEXT
  5
FEEB
  8
0-5
  6
CONTINUOUS
 62
     7
 10
12877.12533853555
 20
20671.27297899999
 30
0.0
 40
160.0
  1
3
 72
     4
 11
12930.45867186889
 21
20751.27297899999
 31
0.0
  0
TEXT
  5
FEEC
  8
0-5
  6
CONTINUOUS
 62
     7
 10
14406.75164920221
 20
19238.39845399998
 30
0.0
 40
160.0
  1
C
 72
     4
 11
14460.08498253554
 21
19318.39845399998
 31
0.0
  0
TEXT
  5
FEED
  8
0-5
  6
CONTINUOUS
 62
     7
 10
14406.75164920221
 20
16670.899443999981
 30
0.0
 40
160.0
  1
B
 72
     4
 11
14460.08498253554
 21
16750.899443999981
 31
0.0
  0
TEXT
  5
FEEE
  8
0-5
  6
CONTINUOUS
 62
     7
 10
14406.75164920221
 20
14103.39845399998
 30
0.0
 40
160.0
  1
A
 72
     4
 11
14460.08498253554
 21
14183.39845399998
 31
0.0
  0
TEXT
  5
FEEF
  8
0-6
  6
CONTINUOUS
 62
     7
 10
10950.16100430291
 20
19829.986832999981
 30
0.0
 40
160.0
  1
屋根
 72
     4
 11
11120.82767096958
 21
19909.986832999981
 31
0.0
  0
TEXT
  5
FEF0
  8
0-6
  6
CONTINUOUS
 62
     7
 10
12037.73466218696
 20
19850.48737399996
 30
0.0
 40
160.0
  1
桁（後）
 72
     4
 11
12357.73466218696
 21
19930.48737399996
 31
0.0
  0
TEXT
  5
FEF1
  8
0-6
  6
CONTINUOUS
 62
     7
 10
11454.448233471359
 20
15547.034820476571
 30
0.0
 40
160.0
  1
ブレース
 72
     4
 11
11817.114900138031
 21
15632.36815380991
 31
0.0
  0
TEXT
  5
FEF2
  8
0-6
  6
CONTINUOUS
 62
     7
 10
11751.69632823903
 20
13621.82683600505
 30
0.0
 40
160.0
  1
桁（前）
 72
     4
 11
12071.69632823903
 21
13701.82683600505
 31
0.0
  0
TEXT
  5
FEF3
  8
0-6
  6
CONTINUOUS
 62
     7
 10
10486.97574443851
 20
13516.061556934221
 30
0.0
 40
160.0
  1
鼻隠し前
 72
     4
 11
10849.64241110518
 21
13596.061556934221
 31
0.0
  0
TEXT
  5
FEF4
  8
0-6
  6
CONTINUOUS
 62
     7
 10
13815.592658868891
 20
12748.984878999971
 30
0.0
 40
160.0
  1
ケラバ 左
 72
     4
 11
14231.592658868891
 21
12828.984878999971
 31
0.0
  0
TEXT
  5
FEF5
  8
0-6
  6
CONTINUOUS
 62
     7
 10
12334.097942535531
 20
17280.270690286219
 30
0.0
 40
160.0
  1
上枠
 72
     4
 11
12504.764609202201
 21
17360.270690286219
 31
0.0
  0
TEXT
  5
FEF6
  8
0-6
  6
CONTINUOUS
 62
     7
 10
5278.192687815118
 20
20219.985644999972
 30
0.0
 40
160.0
  1
鼻隠しコーナー後
 72
     4
 11
6024.859354481785
 21
20299.985644999972
 31
0.0
  0
TEXT
  5
FEF7
  8
0-6
  6
CONTINUOUS
 62
     7
 10
14275.576809232911
 20
18168.767487028312
 30
0.0
 40
160.0
  1
桁中B +  桁中補強B
 72
     4
 11
15208.910142566239
 21
18248.767487028312
 31
0.0
  0
TEXT
  5
FEF8
  8
0-6
  6
CONTINUOUS
 62
     7
 10
14238.053117260601
 20
17183.824019233751
 30
0.0
 40
160.0
  1
桁中A +  桁中補強A
 72
     4
 11
15171.386450593929
 21
17263.824019233751
 31
0.0
  0
LINE
  5
FEF9
  8
0-6
  6
CONTINUOUS
 62
     6
 10
10157.59910299904
 20
19787.011124411769
 30
0.0
 11
8892.9295173613336
 21
19787.011124411769
 31
0.0
  0
TEXT
  5
FEFA
  8
0-6
  6
CONTINUOUS
 62
     7
 10
8968.2660006657316
 20
19867.01138841176
 30
0.0
 40
160.0
  1
桁（後）補強
  0
LINE
  5
FEFB
  8
0-6
  6
CONTINUOUS
 62
     6
 10
11130.42986586464
 20
19135.19243174696
 30
0.0
 11
10996.80033635912
 21
18832.684921748001
 31
0.0
  0
LINE
  5
FEFC
  8
0-6
  6
CONTINUOUS
 62
     6
 10
11195.08088877294
 20
19281.547956841161
 30
0.0
 11
11154.82298879942
 21
19124.416740316919
 31
0.0
  0
LINE
  5
FEFD
  8
0-6
  6
CONTINUOUS
 62
     6
 10
11154.82298879942
 20
19124.416740316919
 30
0.0
 11
11106.036742929849
 21
19145.968123176961
 31
0.0
  0
LINE
  5
FEFE
  8
0-6
  6
CONTINUOUS
 62
     6
 10
11106.036742929849
 20
19145.968123176961
 30
0.0
 11
11195.08088877294
 21
19281.547956841161
 31
0.0
  0
LINE
  5
FEFF
  8
0-6
  6
CONTINUOUS
 62
     6
 10
10996.80033635912
 20
18832.684921748001
 30
0.0
 11
10157.59910299904
 21
19787.011124411769
 31
0.0
  0
CIRCLE
  5
FF00
  8
0-5
  6
CONTINUOUS
 62
     4
 10
7562.958995868893
 20
20760.489215999991
 30
0.0
 40
199.9999949999999
  0
TEXT
  5
FF01
  8
0-5
  6
CONTINUOUS
 62
     7
 10
7536.6762018688751
 20
20671.274292999999
 30
0.0
 40
160.0
  1
1
 72
     4
 11
7563.342868535542
 21
20751.274292999999
 31
0.0
  0
LINE
  5
FF02
  8
0-6
  6
CONTINUOUS
 62
     6
 10
7615.9586268688736
 20
14541.1368642711
 30
0.0
 11
8290.5490808689337
 21
13423.59018134379
 31
0.0
  0
LINE
  5
FF03
  8
0-6
  6
CONTINUOUS
 62
     6
 10
14211.83169159385
 20
18072.71599913896
 30
0.0
 11
12550.5264507134
 21
17646.786109777659
 31
0.0
  0
LINE
  5
FF04
  8
0-6
  6
CONTINUOUS
 62
     6
 10
12550.5264507134
 20
17646.786109777659
 30
0.0
 11
12173.583987217849
 21
18148.986093999989
 31
0.0
  0
LINE
  5
FF05
  8
0-6
  6
CONTINUOUS
 62
     6
 10
16206.27584359387
 20
15270.22495228638
 30
0.0
 11
14211.83169159385
 21
15270.22495228638
 31
0.0
  0
TEXT
  5
FF06
  8
0-6
  6
CONTINUOUS
 62
     7
 10
14275.576809232911
 20
15366.27644017573
 30
0.0
 40
160.0
  1
桁中B +  桁中補強B
 72
     4
 11
15208.910142566239
 21
15446.27644017573
 31
0.0
  0
LINE
  5
FF07
  8
0-6
  6
CONTINUOUS
 62
     6
 10
14211.83169159385
 20
15270.22495228638
 30
0.0
 11
12596.22443581504
 21
14690.96324372464
 31
0.0
  0
LINE
  5
FF08
  8
0-6
  6
CONTINUOUS
 62
     6
 10
12596.22443581504
 20
14690.96324372464
 30
0.0
 11
12178.446990445051
 21
15246.786015664071
 31
0.0
  0
LINE
  5
FF09
  8
0-6
  6
CONTINUOUS
 62
     6
 10
14174.30799962156
 20
17087.77055234438
 30
0.0
 11
12260.67221575083
 21
16261.176586604601
 31
0.0
  0
LINE
  5
FF0A
  8
0-6
  6
CONTINUOUS
 62
     6
 10
12260.67221575083
 20
16261.176586604601
 30
0.0
 11
12003.04784495979
 21
16679.485659000009
 31
0.0
  0
LINE
  5
FF0B
  8
SUNPOU
  6
CONTINUOUS
 10
13859.95877186888
 20
19540.484866499999
 30
0.0
 11
13859.95877186888
 21
20337.452134278461
 31
0.0
  0
LINE
  5
FF0C
  8
SUNPOU
  6
CONTINUOUS
 10
13859.958771868891
 20
13217.673806847781
 30
0.0
 11
13859.958771868891
 21
13958.986396999981
 31
0.0
  0
LINE
  5
FF0D
  8
0-6
  6
CONTINUOUS
 62
     6
 10
8430.5297417568254
 20
14485.55313326014
 30
0.0
 11
8573.7387918764362
 21
14299.562913486519
 31
0.0
  0
LINE
  5
FF0E
  8
0-6
  6
CONTINUOUS
 62
     6
 10
9453.7397158764506
 20
14299.562913486519
 30
0.0
 11
8573.7387918764362
 21
14299.562913486519
 31
0.0
  0
TEXT
  5
FF0F
  8
0-6
  6
CONTINUOUS
 62
     7
 10
8648.4051285431051
 20
14390.063613486511
 30
0.0
 40
160.0
  1
ブレース
 72
     4
 11
9011.0717952097712
 21
14475.39694681985
 31
0.0
  0
LINE
  5
FF10
  8
0-1
  6
CONTINUOUS
 62
     3
 10
12437.54882569355
 20
8152.234418
 30
0.0
 11
12437.54882569355
 21
6291.1885390000016
 31
0.0
  0
LINE
  5
FF11
  8
0-1
  6
CONTINUOUS
 62
     3
 10
12474.54701769356
 20
8152.234418
 30
0.0
 11
12474.54701769356
 21
6291.1885390000016
 31
0.0
  0
LINE
  5
FF12
  8
0-1
  6
CONTINUOUS
 62
     3
 10
12299.048839693571
 20
6291.1885390000016
 30
0.0
 11
12299.048839693571
 21
8152.234418
 31
0.0
  0
LINE
  5
FF13
  8
0-1
  6
CONTINUOUS
 62
     3
 10
12314.04765169356
 20
6291.1885390000016
 30
0.0
 11
12314.04765169356
 21
8152.234418
 31
0.0
  0
LINE
  5
FF14
  8
0-1
  6
CONTINUOUS
 62
     3
 10
12598.048192693561
 20
6291.1885390000016
 30
0.0
 11
12598.048192693561
 21
8152.234418
 31
0.0
  0
LINE
  5
FF15
  8
0-1
  6
CONTINUOUS
 62
     3
 10
12613.048984693571
 20
6291.1885390000016
 30
0.0
 11
12613.048984693571
 21
8152.234418
 31
0.0
  0
LINE
  5
FF17
  8
0-1
  6
CONTINUOUS
 62
     3
 10
12930.45899586889
 20
16705.486582999991
 30
0.0
 11
10362.95899586889
 21
16705.486582999991
 31
0.0
  0
LINE
  5
FF18
  8
0-1
  6
CONTINUOUS
 62
     3
 10
10362.95899586889
 20
16705.486582999991
 30
0.0
 11
7786.4334086073641
 21
16705.486582999991
 31
0.0
  0
LINE
  5
FF19
  8
2-0
  6
DASHED3
 62
     6
 10
7786.4334086073641
 20
16705.486582999991
 30
0.0
 11
7562.958995868893
 21
16705.486582999991
 31
0.0
  0
LINE
  5
FF1A
  8
0-1
  6
CONTINUOUS
 62
     3
 10
10415.958626868871
 20
14146.487624999971
 30
0.0
 11
10415.958626868871
 21
17791.444550900931
 31
0.0
  0
LINE
  5
FF1B
  8
0-1
  6
CONTINUOUS
 62
     3
 10
12880.45837586887
 20
14022.48761099999
 30
0.0
 11
12880.45837586887
 21
18728.48311994152
 31
0.0
  0
LINE
  5
FF1C
  8
0-1
  6
CONTINUOUS
 62
     3
 10
12880.45837586887
 20
18728.48311994152
 30
0.0
 11
12880.45837586887
 21
19510.489220999982
 31
0.0
  0
LINE
  5
FF1D
  8
0-1
  6
CONTINUOUS
 62
     3
 10
13015.95899586887
 20
13990.486977999981
 30
0.0
 11
13015.95899586889
 21
18784.39145948807
 31
0.0
  0
LINE
  5
FF1E
  8
0-1
  6
CONTINUOUS
 62
     3
 10
13015.95899586889
 20
18784.39145948807
 30
0.0
 11
13015.95899586889
 21
19530.488297999989
 31
0.0
  0
LINE
  5
FF1F
  8
0-1
  6
CONTINUOUS
 62
     3
 10
12972.95826986887
 20
14146.487624999971
 30
0.0
 11
7520.4577418688768
 21
14146.487624999971
 31
0.0
  0
LINE
  5
FF20
  8
0-1
  6
CONTINUOUS
 62
     3
 10
12930.458995868879
 20
14225.48724199999
 30
0.0
 11
7562.9589958688912
 21
14225.48724199999
 31
0.0
  0
LINE
  5
FF21
  8
0-1
  6
CONTINUOUS
 62
     3
 10
13015.95899586887
 20
13990.486977999981
 30
0.0
 11
7477.4589958688903
 21
13990.486977999981
 31
0.0
  0
LINE
  5
FF22
  8
0-1
  6
CONTINUOUS
 62
     3
 10
13015.95899586887
 20
14022.48761099999
 30
0.0
 11
7477.4589958688903
 21
14022.487611
 31
0.0
  0
LINE
  5
FF23
  8
0-1
  6
CONTINUOUS
 62
     3
 10
10362.95899586889
 20
14146.487624999971
 30
0.0
 11
10362.95899586889
 21
17769.8393054761
 31
0.0
  0
LINE
  5
FF24
  8
0-1
  6
CONTINUOUS
 62
     3
 10
10320.45774186887
 20
14146.487624999971
 30
0.0
 11
10320.45774186887
 21
17752.513712708602
 31
0.0
  0
LINE
  5
FF25
  8
0-1
  6
CONTINUOUS
 62
     3
 10
12930.458995868879
 20
14146.487624999971
 30
0.0
 11
12930.45899586889
 21
18816.478057136621
 31
0.0
  0
LINE
  5
FF26
  8
0-1
  6
CONTINUOUS
 62
     3
 10
12972.95826986887
 20
14146.487624999971
 30
0.0
 11
12972.95826986887
 21
18834.01358027574
 31
0.0
  0
LINE
  5
FF27
  8
0-1
  6
CONTINUOUS
 62
     3
 10
11110.457873868871
 20
18074.55645933688
 30
0.0
 11
11110.457873868871
 21
19510.489220999982
 31
0.0
  0
LINE
  5
FF28
  8
0-1
  6
CONTINUOUS
 62
     3
 10
11073.45671286889
 20
18059.472973861109
 30
0.0
 11
11073.45671286889
 21
19510.489220999982
 31
0.0
  0
LINE
  5
FF29
  8
0-1
  6
CONTINUOUS
 62
     3
 10
10910.45820386888
 20
17993.026798210762
 30
0.0
 11
10910.45820386888
 21
19510.489220999982
 31
0.0
  0
LINE
  5
FF2A
  8
0-1
  6
CONTINUOUS
 62
     3
 10
10873.45803286889
 20
17977.943716307491
 30
0.0
 11
10873.45803286889
 21
19510.489220999982
 31
0.0
  0
LINE
  5
FF2B
  8
0-1
  6
CONTINUOUS
 62
     3
 10
10710.457544868879
 20
17911.496733919801
 30
0.0
 11
10710.457544868879
 21
19510.489220999982
 31
0.0
  0
LINE
  5
FF2C
  8
0-1
  6
CONTINUOUS
 62
     3
 10
10673.45737286887
 20
17896.413651608869
 30
0.0
 11
10673.45737286887
 21
19510.489220999982
 31
0.0
  0
LINE
  5
FF2D
  8
0-1
  6
CONTINUOUS
 62
     3
 10
12930.45899586889
 20
15336.48836400001
 30
0.0
 11
10362.95899586889
 21
15336.48836400001
 31
0.0
  0
LINE
  5
FF2E
  8
0-1
  6
CONTINUOUS
 62
     3
 10
12930.45899586889
 20
15246.48658200001
 30
0.0
 11
10362.95899586889
 21
15246.48658200001
 31
0.0
  0
LINE
  5
FF2F
  8
0-1
  6
CONTINUOUS
 62
     3
 10
12930.45899586889
 20
16795.48935399999
 30
0.0
 11
10362.95899586889
 21
16795.48935399999
 31
0.0
  0
LINE
  5
FF30
  8
0-1
  6
CONTINUOUS
 62
     3
 10
10362.95899586889
 20
16795.489354000001
 30
0.0
 11
8005.2964091021413
 21
16795.48935399999
 31
0.0
  0
LINE
  5
FF31
  8
2-0
  6
DASHED3
 62
     6
 10
8005.2964091021413
 20
16795.48935399999
 30
0.0
 11
7562.958995868893
 21
16795.48935399999
 31
0.0
  0
LINE
  5
FF32
  8
0-1
  6
CONTINUOUS
 62
     3
 10
12916.31731486888
 20
18254.48935299999
 30
0.0
 11
11553.41326857445
 21
18254.489353000001
 31
0.0
  0
LINE
  5
FF33
  8
0-1
  6
CONTINUOUS
 62
     3
 10
12916.31731486888
 20
18164.48658199999
 30
0.0
 11
11331.06463964284
 21
18164.48658199999
 31
0.0
  0
LINE
  5
FF34
  8
0-1
  6
CONTINUOUS
 62
     3
 10
12860.45826986887
 20
16750.486977999979
 30
0.0
 11
10432.95774186888
 21
15291.48697799999
 31
0.0
  0
LINE
  5
FF35
  8
0-1
  6
CONTINUOUS
 62
     3
 10
10432.95774186888
 20
15291.48697799999
 30
0.0
 11
12860.45826986887
 21
14182.986977999981
 31
0.0
  0
LINE
  5
FF36
  8
0-1
  6
CONTINUOUS
 62
     3
 10
12860.45826986887
 20
15291.48697799999
 30
0.0
 11
10432.95774186888
 21
14182.986977999981
 31
0.0
  0
LINE
  5
FF37
  8
0-1
  6
CONTINUOUS
 62
     3
 10
12860.45826986887
 20
18209.486978000001
 30
0.0
 11
10432.95809622506
 21
16750.488879658838
 31
0.0
  0
LINE
  5
FF38
  8
0-1
  6
CONTINUOUS
 62
     3
 10
10432.95809622506
 20
16750.488879658838
 30
0.0
 11
12860.45826986887
 21
15291.48697799999
 31
0.0
  0
LINE
  5
FF39
  8
0-1
  6
CONTINUOUS
 62
     3
 10
12191.17557484214
 20
18515.109925916851
 30
0.0
 11
12860.45826986885
 21
18209.486978000001
 31
0.0
  0
LINE
  5
FF3A
  8
0-1
  6
CONTINUOUS
 62
     3
 10
10832.12864802496
 20
17961.095834804091
 30
0.0
 11
12860.45826986887
 21
16750.486977999979
 31
0.0
  0
LINE
  5
FF3B
  8
0-1
  6
CONTINUOUS
 62
     3
 10
12997.960222868889
 20
18842.98265393572
 30
0.0
 11
12997.960222868889
 21
19522.98790199995
 31
0.0
  0
LINE
  5
FF3C
  8
0-1
  6
CONTINUOUS
 62
     3
 10
12942.459470868889
 20
19505.48895699998
 30
0.0
 11
12942.459470868889
 21
19535.488560999969
 31
0.0
  0
LINE
  5
FF3D
  8
0-1
  6
CONTINUOUS
 62
     3
 10
13015.95899586889
 20
19535.488560999969
 30
0.0
 11
13015.95899586889
 21
19500.48671399997
 31
0.0
  0
LINE
  5
FF3E
  8
0-1
  6
CONTINUOUS
 62
     3
 10
12947.459734868889
 20
19540.486845999982
 30
0.0
 11
13010.95972186889
 21
19540.486845999982
 31
0.0
  0
LINE
  5
FF3F
  8
0-1
  6
CONTINUOUS
 62
     3
 10
12997.960222868889
 20
19522.98790199995
 30
0.0
 11
13015.95899586889
 21
19522.98790199995
 31
0.0
  0
LINE
  5
FF40
  8
0-1
  6
CONTINUOUS
 62
     3
 10
12997.960222868889
 20
19500.48671399997
 30
0.0
 11
12947.459734868889
 21
19500.48671399997
 31
0.0
  0
LINE
  5
FF41
  8
0-1
  6
CONTINUOUS
 62
     3
 10
12939.45887686887
 20
19510.489220999982
 30
0.0
 11
7553.959509868876
 21
19510.489220999982
 31
0.0
  0
LINE
  5
FF42
  8
2-0
  6
DASHED3
 62
     6
 10
12930.45899586889
 20
19278.98848199999
 30
0.0
 11
7562.958995868893
 21
19278.98848199999
 31
0.0
  0
LINE
  5
FF43
  8
2-0
  6
DASHED3
 62
     6
 10
12972.95826986887
 20
18834.01358027574
 30
0.0
 11
12972.95826986887
 21
19363.98900999999
 31
0.0
  0
LINE
  5
FF44
  8
2-0
  6
DASHED3
 62
     6
 10
12930.45899586889
 20
18816.478057136639
 30
0.0
 11
12930.45899586889
 21
19363.98900999999
 31
0.0
  0
LINE
  5
FF45
  8
2-0
  6
DASHED3
 62
     6
 10
12972.95826986887
 20
19363.98900999999
 30
0.0
 11
7562.958995868893
 21
19363.989009999961
 31
0.0
  0
LINE
  5
FF46
  8
2-0
  6
DASHED3
 62
     6
 10
10362.95899586889
 20
17769.8393054761
 30
0.0
 11
10362.95899586889
 21
19363.98900999999
 31
0.0
  0
LINE
  5
FF47
  8
2-0
  6
DASHED3
 62
     6
 10
10320.45774186887
 20
17752.513712708602
 30
0.0
 11
10320.45774186887
 21
19363.98900999999
 31
0.0
  0
LINE
  5
FF48
  8
2-0
  6
DASHED3
 62
     6
 10
11331.06463964284
 20
18164.48658199999
 30
0.0
 11
10362.95899586889
 21
18164.48658199999
 31
0.0
  0
LINE
  5
FF49
  8
2-0
  6
DASHED3
 62
     6
 10
11553.41326857445
 20
18254.489353000001
 30
0.0
 11
10362.95899586889
 21
18254.48935299999
 31
0.0
  0
LINE
  5
FF4A
  8
2-0
  6
DASHED3
 62
     6
 10
12860.45826986887
 20
19317.986977999979
 30
0.0
 11
10415.958626868871
 21
18209.486978000001
 31
0.0
  0
LINE
  5
FF4B
  8
2-0
  6
DASHED3
 62
     6
 10
10415.958626868871
 20
18209.48697799999
 30
0.0
 11
10832.12864802496
 21
17961.095834804091
 31
0.0
  0
LINE
  5
FF4C
  8
2-0
  6
DASHED3
 62
     6
 10
10432.95774186888
 20
19317.986977999979
 30
0.0
 11
12191.17557484214
 21
18515.109925916851
 31
0.0
  0
LINE
  5
FF4D
  8
2-0
  6
CENTER2
 62
     6
 10
10362.95899586889
 20
20560.489221
 30
0.0
 11
10362.95899586889
 21
19610.48856099998
 31
0.0
  0
LINE
  5
FF4E
  8
2-0
  6
CENTER2
 62
     6
 10
14259.95910086888
 20
19317.986977999979
 30
0.0
 11
12613.45987986888
 21
19317.986977999979
 31
0.0
  0
LINE
  5
FF4F
  8
0-8
  6
CONTINUOUS
 62
     6
 10
12930.45899586889
 20
20560.489221
 30
0.0
 11
12930.45899586889
 21
19610.48856099998
 31
0.0
  0
LINE
  5
FF50
  8
2-0
  6
CENTER2
 62
     6
 10
14259.95910086888
 20
16750.486977999979
 30
0.0
 11
7391.1595478688851
 21
16750.486977999979
 31
0.0
  0
LINE
  5
FF51
  8
2-0
  6
CENTER2
 62
     6
 10
14259.95910086888
 20
14182.986977999981
 30
0.0
 11
12613.45987986888
 21
14182.986977999981
 31
0.0
  0
LINE
  5
FF52
  8
2-0
  6
CENTER2
 62
     6
 10
13149.25716386887
 20
18209.486978000001
 30
0.0
 11
7391.1595478688851
 21
18209.486978000001
 31
0.0
  0
LINE
  5
FF53
  8
2-0
  6
CENTER2
 62
     6
 10
13149.25716386887
 20
15291.48697799999
 30
0.0
 11
7391.1595478688851
 21
15291.48697799999
 31
0.0
  0
ARC
  5
FF54
  8
0-1
  6
CONTINUOUS
 62
     3
 10
12947.459734868889
 20
19505.48895699998
 30
0.0
 40
5.0
 50
180.0
 51
270.00001499981897
  0
ARC
  5
FF55
  8
0-1
  6
CONTINUOUS
 62
     3
 10
12947.459734868889
 20
19535.488560999969
 30
0.0
 40
5.0
 50
90.0
 51
180.0
  0
ARC
  5
FF56
  8
0-1
  6
CONTINUOUS
 62
     3
 10
13010.95972186889
 20
19535.488560999969
 30
0.0
 40
5.0
 50
0.000000000000007
 51
90.0
  0
LINE
  5
FF57
  8
2-0
  6
CENTER2
 62
     6
 10
7562.958995868893
 20
20560.489221
 30
0.0
 11
7562.958995868893
 21
19610.48856099998
 31
0.0
  0
LINE
  5
FF58
  8
0-1
  6
CONTINUOUS
 62
     3
 10
7495.4587578688916
 20
16587.06311039098
 30
0.0
 11
7495.4587578688861
 21
19522.98790199995
 31
0.0
  0
LINE
  5
FF59
  8
0-1
  6
CONTINUOUS
 62
     3
 10
7495.4587578688861
 20
19522.98790199995
 30
0.0
 11
7477.458995868893
 21
19522.98790199995
 31
0.0
  0
LINE
  5
FF5A
  8
0-1
  6
CONTINUOUS
 62
     3
 10
7550.959509868876
 20
19505.48895699998
 30
0.0
 11
7550.959509868876
 21
19535.488560999969
 31
0.0
  0
LINE
  5
FF5B
  8
0-1
  6
CONTINUOUS
 62
     3
 10
7495.4587578688861
 20
19500.48671399997
 30
0.0
 11
7545.9582558688753
 21
19500.48671399997
 31
0.0
  0
LINE
  5
FF5C
  8
0-1
  6
CONTINUOUS
 62
     3
 10
7477.458995868893
 20
19535.488560999969
 30
0.0
 11
7477.458995868893
 21
19500.48671399997
 31
0.0
  0
LINE
  5
FF5D
  8
0-1
  6
CONTINUOUS
 62
     3
 10
7545.9582558688753
 20
19540.486845999982
 30
0.0
 11
7482.4602488688943
 21
19540.486845999982
 31
0.0
  0
ARC
  5
FF5E
  8
0-1
  6
CONTINUOUS
 62
     3
 10
7482.4602488688943
 20
19535.488560999969
 30
0.0
 40
5.0
 50
90.0
 51
180.0
  0
ARC
  5
FF5F
  8
0-1
  6
CONTINUOUS
 62
     3
 10
7545.9582558688753
 20
19535.488560999969
 30
0.0
 40
5.0
 50
0.000000000000007
 51
90.0
  0
ARC
  5
FF60
  8
0-1
  6
CONTINUOUS
 62
     3
 10
7545.9582558688753
 20
19505.48895699998
 30
0.0
 40
5.0
 50
270.00001499981897
 51
0.000000000000007
  0
LINE
  5
FF61
  8
0-1
  6
CONTINUOUS
 62
     3
 10
10362.95899586889
 20
14146.487624999971
 30
0.0
 11
10362.95899586889
 21
13990.487703999979
 31
0.0
  0
LINE
  5
FF62
  8
0-1
  6
CONTINUOUS
 62
     3
 10
13270.89527001575
 20
18955.256556452321
 30
0.0
 11
9954.1605425242415
 21
17603.19303365939
 31
0.0
  0
LINE
  5
FF63
  8
0-1
  6
CONTINUOUS
 62
     3
 10
9029.7579368786028
 20
17216.777447804481
 30
0.0
 11
7183.8981773633086
 21
16457.706737551041
 31
0.0
  0
LINE
  5
FF64
  8
0-1
  6
CONTINUOUS
 62
     3
 10
7612.9586268688736
 20
14022.48761099999
 30
0.0
 11
7612.9586268688772
 21
16635.900176312141
 31
0.0
  0
LINE
  5
FF65
  8
0-1
  6
CONTINUOUS
 62
     3
 10
7477.4589958688903
 20
13990.486977999981
 30
0.0
 11
7477.458995868893
 21
16579.991428284091
 31
0.0
  0
LINE
  5
FF66
  8
0-1
  6
CONTINUOUS
 62
     3
 10
7562.9589958688912
 20
14146.487624999971
 30
0.0
 11
7562.958995868893
 21
16613.587466435791
 31
0.0
  0
LINE
  5
FF67
  8
0-1
  6
CONTINUOUS
 62
     3
 10
7520.4577418688768
 20
14146.487624999971
 30
0.0
 11
7520.4577418688832
 21
16596.10972637773
 31
0.0
  0
LINE
  5
FF68
  8
0-1
  6
CONTINUOUS
 62
     3
 10
7612.9586268688772
 20
16635.900176312149
 30
0.0
 11
7612.9586268688772
 21
19510.489220999982
 31
0.0
  0
LINE
  5
FF69
  8
0-1
  6
CONTINUOUS
 62
     3
 10
7477.458995868893
 20
16579.991428284091
 30
0.0
 11
7477.458995868893
 21
19522.98790199995
 31
0.0
  0
LINE
  5
FF6A
  8
2-0
  6
DASHED3
 62
     6
 10
7562.958995868893
 20
16613.587466435791
 30
0.0
 11
7562.958995868893
 21
19510.489220999982
 31
0.0
  0
LINE
  5
FF6B
  8
2-0
  6
DASHED3
 62
     6
 10
7520.4577418688832
 20
16596.10972637773
 30
0.0
 11
7520.4577418688832
 21
19500.48671399997
 31
0.0
  0
LINE
  5
FF6C
  8
0-1
  6
CONTINUOUS
 62
     3
 10
10510.45688486887
 20
17829.96666922119
 30
0.0
 11
10510.45688486887
 21
19510.489220999982
 31
0.0
  0
LINE
  5
FF6D
  8
0-1
  6
CONTINUOUS
 62
     3
 10
10473.45671286887
 20
17814.883586910251
 30
0.0
 11
10473.45671286887
 21
19510.489220999982
 31
0.0
  0
LINE
  5
FF6E
  8
0-1
  6
CONTINUOUS
 62
     3
 10
10310.45622486886
 20
17748.436604522591
 30
0.0
 11
10310.456224868871
 21
19510.489220999982
 31
0.0
  0
LINE
  5
FF6F
  8
0-1
  6
CONTINUOUS
 62
     3
 10
10273.45605286886
 20
17733.353522211652
 30
0.0
 11
10273.45605286886
 21
19510.489220999982
 31
0.0
  0
LINE
  5
FF70
  8
0-1
  6
CONTINUOUS
 62
     3
 10
10110.45556486886
 20
17666.906539823962
 30
0.0
 11
10110.45556486886
 21
19510.489220999982
 31
0.0
  0
LINE
  5
FF71
  8
0-1
  6
CONTINUOUS
 62
     3
 10
10073.45539286884
 20
17651.823457513041
 30
0.0
 11
10073.45539286884
 21
19510.489220999982
 31
0.0
  0
LINE
  5
FF72
  8
0-1
  6
CONTINUOUS
 62
     3
 10
9910.4549048688496
 20
17709.118466013209
 30
0.0
 11
9910.4549048688568
 21
19510.489220999982
 31
0.0
  0
LINE
  5
FF73
  8
0-1
  6
CONTINUOUS
 62
     3
 10
9873.4547328688459
 20
17798.79246292797
 30
0.0
 11
9873.4547328688459
 21
19510.489220999982
 31
0.0
  0
LINE
  5
FF74
  8
0-1
  6
CONTINUOUS
 62
     3
 10
9710.4542448688426
 20
17663.714871947632
 30
0.0
 11
9710.4542448688426
 21
19510.489220999982
 31
0.0
  0
LINE
  5
FF75
  8
0-1
  6
CONTINUOUS
 62
     3
 10
9673.4540728688316
 20
17621.171631558751
 30
0.0
 11
9673.4540728688316
 21
19510.489220999982
 31
0.0
  0
LINE
  5
FF76
  8
0-1
  6
CONTINUOUS
 62
     3
 10
9510.4535848688283
 20
17431.377743966881
 30
0.0
 11
9510.453584868832
 21
19510.489220999982
 31
0.0
  0
LINE
  5
FF77
  8
0-1
  6
CONTINUOUS
 62
     3
 10
9473.4534128688192
 20
17388.582352968799
 30
0.0
 11
9473.4534128688265
 21
19510.489220999982
 31
0.0
  0
LINE
  5
FF78
  8
0-1
  6
CONTINUOUS
 62
     3
 10
9310.4529248688195
 20
17198.78851710165
 30
0.0
 11
9310.4529248688195
 21
19510.489220999982
 31
0.0
  0
LINE
  5
FF79
  8
0-1
  6
CONTINUOUS
 62
     3
 10
9273.4527528688104
 20
17156.245276712762
 30
0.0
 11
9273.4527528688104
 21
19510.489220999982
 31
0.0
  0
LINE
  5
FF7A
  8
0-1
  6
CONTINUOUS
 62
     3
 10
9110.4522648688089
 20
17021.196504491822
 30
0.0
 11
9110.4522648688162
 21
19510.489220999982
 31
0.0
  0
LINE
  5
FF7B
  8
0-1
  6
CONTINUOUS
 62
     3
 10
9073.4520928688034
 20
17110.87478452373
 30
0.0
 11
9073.4520928688034
 21
19510.489220999982
 31
0.0
  0
LINE
  5
FF7C
  8
0-1
  6
CONTINUOUS
 62
     3
 10
8910.451604868802
 20
17167.715247001001
 30
0.0
 11
8910.451604868802
 21
19510.489220999982
 31
0.0
  0
LINE
  5
FF7D
  8
0-1
  6
CONTINUOUS
 62
     3
 10
8873.4514328687965
 20
17152.499710341312
 30
0.0
 11
8873.4514328687965
 21
19510.489220999982
 31
0.0
  0
LINE
  5
FF7E
  8
0-1
  6
CONTINUOUS
 62
     3
 10
8710.4509448687932
 20
17085.469213815231
 30
0.0
 11
8710.4509448687968
 21
19510.489220999982
 31
0.0
  0
LINE
  5
FF7F
  8
0-1
  6
CONTINUOUS
 62
     3
 10
8673.4507728687859
 20
17070.253677155531
 30
0.0
 11
8673.4507728687859
 21
19510.489220999982
 31
0.0
  0
LINE
  5
FF80
  8
0-1
  6
CONTINUOUS
 62
     3
 10
8510.4502848687862
 20
17003.223180629459
 30
0.0
 11
8510.4502848687862
 21
19510.489220999982
 31
0.0
  0
LINE
  5
FF81
  8
0-1
  6
CONTINUOUS
 62
     3
 10
8473.4501128687807
 20
16988.00764396978
 30
0.0
 11
8473.4501128687807
 21
19510.489220999982
 31
0.0
  0
LINE
  5
FF82
  8
0-1
  6
CONTINUOUS
 62
     3
 10
8310.4496248687738
 20
16920.9771474437
 30
0.0
 11
8310.4496248687792
 21
19510.489220999982
 31
0.0
  0
LINE
  5
FF83
  8
0-1
  6
CONTINUOUS
 62
     3
 10
8273.4494528687701
 20
16905.761610784011
 30
0.0
 11
8273.4494528687719
 21
19510.489220999982
 31
0.0
  0
LINE
  5
FF84
  8
0-1
  6
CONTINUOUS
 62
     3
 10
8110.4489648687713
 20
16838.731114257931
 30
0.0
 11
8110.4489648687713
 21
19510.489220999982
 31
0.0
  0
LINE
  5
FF85
  8
0-1
  6
CONTINUOUS
 62
     3
 10
8073.4487928687577
 20
16823.515577598231
 30
0.0
 11
8073.4487928687577
 21
19510.489220999982
 31
0.0
  0
LINE
  5
FF86
  8
0-1
  6
CONTINUOUS
 62
     3
 10
10362.95899586889
 20
15336.48836400001
 30
0.0
 11
7562.958995868893
 21
15336.48836400001
 31
0.0
  0
LINE
  5
FF87
  8
0-1
  6
CONTINUOUS
 62
     3
 10
10362.95899586889
 20
15246.48658200001
 30
0.0
 11
7562.958995868893
 21
15246.48658200001
 31
0.0
  0
LINE
  5
FF88
  8
2-0
  6
DASHED3
 62
     6
 10
7562.958995868893
 20
18164.48658199999
 30
0.0
 11
10362.95899586889
 21
18164.48658199999
 31
0.0
  0
LINE
  5
FF89
  8
2-0
  6
DASHED3
 62
     6
 10
7562.958995868893
 20
18254.489353000001
 30
0.0
 11
10362.95899586889
 21
18254.48935299999
 31
0.0
  0
LINE
  5
FF8A
  8
0-1
  6
CONTINUOUS
 62
     3
 10
7742.4586268688772
 20
15291.48697799999
 30
0.0
 11
10193.95774186887
 21
14182.986977999981
 31
0.0
  0
LINE
  5
FF8B
  8
0-1
  6
CONTINUOUS
 62
     3
 10
10193.95774186887
 20
16750.486977999979
 30
0.0
 11
7742.4586268688772
 21
15291.48697799999
 31
0.0
  0
LINE
  5
FF8C
  8
0-1
  6
CONTINUOUS
 62
     3
 10
10193.95774186887
 20
15291.48697799999
 30
0.0
 11
7805.1431146010545
 21
16713.18055311016
 31
0.0
  0
LINE
  5
FF8D
  8
0-1
  6
CONTINUOUS
 62
     3
 10
7742.4586268688736
 20
14182.986977999981
 30
0.0
 11
10193.95774186887
 21
15291.48697799999
 31
0.0
  0
LINE
  5
FF8E
  8
2-0
  6
DASHED3
 62
     6
 10
10193.95774186887
 20
18209.486978000001
 30
0.0
 11
7742.4586268688772
 21
16750.486977999979
 31
0.0
  0
LINE
  5
FF8F
  8
2-0
  6
DASHED3
 62
     6
 10
7742.4586268688772
 20
18209.486978000001
 30
0.0
 11
9353.9801186160275
 21
17250.39633747203
 31
0.0
  0
LINE
  5
FF90
  8
0-1
  6
CONTINUOUS
 62
     3
 10
9353.9801186160275
 20
17250.39633747203
 30
0.0
 11
10193.95774186887
 21
16750.486977999979
 31
0.0
  0
LINE
  5
FF91
  8
2-0
  6
DASHED3
 62
     6
 10
7742.4586268688772
 20
19317.986977999979
 30
0.0
 11
10193.95774186887
 21
18209.486978000001
 31
0.0
  0
LINE
  5
FF92
  8
2-0
  6
DASHED3
 62
     6
 10
10193.95774186887
 20
19317.986977999979
 30
0.0
 11
7742.4586268688772
 21
18209.486978000001
 31
0.0
  0
LINE
  5
FF93
  8
0-1
  6
CONTINUOUS
 62
     3
 10
9954.1610802840187
 20
17603.19173033928
 30
0.0
 11
9858.8070599604962
 21
17834.29271344548
 31
0.0
  0
LINE
  5
FF94
  8
0-1
  6
CONTINUOUS
 62
     3
 10
9125.1075277772798
 20
16985.676162287851
 30
0.0
 11
9029.756878099759
 21
17216.78001399431
 31
0.0
  0
LINE
  5
FF95
  8
0-1
  6
CONTINUOUS
 62
     3
 10
9125.1075277772798
 20
16985.676162287851
 30
0.0
 11
9858.8070599604962
 21
17834.29271344548
 31
0.0
  0
LINE
  5
FF96
  8
2-0
  6
DASHED3
 62
     6
 10
7805.1431146010545
 20
16713.18055311016
 30
0.0
 11
7742.4586268688772
 21
16750.486977999979
 31
0.0
  0
LINE
  5
FF97
  8
0-1
  6
CONTINUOUS
 62
     3
 10
7910.448304868758
 20
16756.485081072158
 30
0.0
 11
7910.448304868758
 21
19510.489221
 31
0.0
  0
LINE
  5
FF98
  8
0-1
  6
CONTINUOUS
 62
     3
 10
7873.4481328687489
 20
16741.26954441248
 30
0.0
 11
7873.4481328687489
 21
19510.489221
 31
0.0
  0
LINE
  5
FF99
  8
0-1
  6
CONTINUOUS
 62
     3
 10
7710.4476448687537
 20
16674.2390478864
 30
0.0
 11
7710.4476448687492
 21
19510.489221
 31
0.0
  0
LINE
  5
FF9A
  8
0-1
  6
CONTINUOUS
 62
     3
 10
7673.4474728687392
 20
16659.0235112267
 30
0.0
 11
7673.4474728687392
 21
19510.489221
 31
0.0
  0
LINE
  5
FF9C
  8
0-1
  6
CONTINUOUS
 62
     3
 10
7991.0482846935547
 20
6291.1885390000016
 30
0.0
 11
7991.0482846935547
 21
8152.234418
 31
0.0
  0
LINE
  5
FF9D
  8
0-1
  6
CONTINUOUS
 62
     3
 10
8006.048086693565
 20
6291.1885390000016
 30
0.0
 11
8006.048086693565
 21
8152.234418
 31
0.0
  0
TEXT
  5
FF9E
  8
0-6
  6
CONTINUOUS
 62
     7
 10
8363.3733794522341
 20
13503.58945534379
 30
0.0
 40
160.0
  1
梁（P）前
 72
     4
 11
8806.0400461189001
 21
13583.58945534379
 31
0.0
  0
LINE
  5
FF9F
  8
0-6
  6
CONTINUOUS
 62
     6
 10
9284.82288439082
 20
13423.59018134379
 30
0.0
 11
8290.5490808689337
 21
13423.59018134379
 31
0.0
  0
TEXT
  5
FFA0
  8
0-6
  6
CONTINUOUS
 62
     7
 10
4240.6840325140611
 20
13367.28261578345
 30
0.0
 40
160.0
  1
桁前（PU）+ 桁補強（PU）
 72
     4
 11
5488.6840325140611
 21
13447.28261578345
 31
0.0
  0
LINE
  5
FFA1
  8
0-6
  6
CONTINUOUS
 62
     6
 10
6777.3468941251303
 20
13265.73604859431
 30
0.0
 11
4194.6725613697454
 21
13265.73604859431
 31
0.0
  0
LINE
  5
FFA2
  8
0-6
  6
CONTINUOUS
 62
     6
 10
7768.3945928845578
 20
14146.487624999971
 30
0.0
 11
6777.3468941251303
 21
13265.73604859431
 31
0.0
  0
LINE
  5
FFA3
  8
0-6
  6
CONTINUOUS
 62
     6
 10
6714.6556147861256
 20
16745.972068012172
 30
0.0
 11
7776.8042861892009
 21
16287.177510604581
 31
0.0
  0
LINE
  5
FFA4
  8
0-6
  6
CONTINUOUS
 62
     6
 10
7776.8042861892009
 20
16287.177510604581
 30
0.0
 11
8034.4286569802352
 21
16705.486582999991
 31
0.0
  0
LINE
  5
FFA5
  8
0-6
  6
CONTINUOUS
 62
     6
 10
6714.6556147861256
 20
15286.97206701219
 30
0.0
 11
7776.8042861892009
 21
14828.1775096046
 31
0.0
  0
LINE
  5
FFA6
  8
0-6
  6
CONTINUOUS
 62
     6
 10
7776.8042861892009
 20
14828.1775096046
 30
0.0
 11
8034.4286569802352
 21
15246.486582
 31
0.0
  0
TEXT
  5
FFA7
  8
0-6
  6
CONTINUOUS
 62
     7
 10
4062.2158830784601
 20
15378.490164890551
 30
0.0
 40
160.0
  1
桁（PU）B + 桁補強（PU）
 72
     4
 11
5342.2158830784601
 21
15458.490164890551
 31
0.0
  0
LINE
  5
FFA8
  8
0-6
  6
CONTINUOUS
 62
     6
 10
6714.6556147861256
 20
15286.97206701219
 30
0.0
 11
3949.193678927636
 21
15286.97206701219
 31
0.0
  0
LINE
  5
FFA9
  8
0-6
  6
CONTINUOUS
 62
     6
 10
6714.6556147861256
 20
18204.97206701215
 30
0.0
 11
7776.8042861892009
 21
17746.177509604571
 31
0.0
  0
LINE
  5
FFAA
  8
0-6
  6
CONTINUOUS
 62
     6
 10
7776.8042861892009
 20
17746.177509604571
 30
0.0
 11
8034.4286569802352
 21
18164.48658199998
 31
0.0
  0
TEXT
  5
FFAB
  8
0-6
  6
CONTINUOUS
 62
     7
 10
4062.2158830784601
 20
18296.49016489054
 30
0.0
 40
160.0
  1
桁（PU）B + 桁補強（PU）
 72
     4
 11
5342.2158830784601
 21
18376.49016489054
 31
0.0
  0
LINE
  5
FFAC
  8
0-6
  6
CONTINUOUS
 62
     6
 10
6714.6556147861256
 20
18204.97206701215
 30
0.0
 11
3949.193678927636
 21
18204.97206701215
 31
0.0
  0
TEXT
  5
FFAD
  8
0-6
  6
CONTINUOUS
 62
     7
 10
4062.2158830784601
 20
16837.490165890511
 30
0.0
 40
160.0
  1
桁（PU）A + 桁補強（PU）
 72
     4
 11
5342.2158830784601
 21
16917.490165890511
 31
0.0
  0
LINE
  5
FFAE
  8
0-6
  6
CONTINUOUS
 62
     6
 10
6714.6556147861256
 20
16745.972068012172
 30
0.0
 11
3949.193678927636
 21
16745.972068012172
 31
0.0
  0
LINE
  5
FFAF
  8
0-6
  6
CONTINUOUS
 62
     6
 10
6714.6556147861256
 20
19319.47396701216
 30
0.0
 11
7776.8042861892009
 21
18860.67940960456
 31
0.0
  0
LINE
  5
FFB0
  8
0-6
  6
CONTINUOUS
 62
     6
 10
7776.8042861892009
 20
18860.67940960456
 30
0.0
 11
8034.4286569802352
 21
19278.98848199999
 31
0.0
  0
TEXT
  5
FFB1
  8
0-6
  6
CONTINUOUS
 62
     7
 10
4062.215883078461
 20
19410.99206489051
 30
0.0
 40
160.0
  1
桁（PU）A + 桁補強（PU）
 72
     4
 11
5342.215883078461
 21
19490.99206489051
 31
0.0
  0
LINE
  5
FFB2
  8
0-6
  6
CONTINUOUS
 62
     6
 10
6714.6556147861256
 20
19319.47396701216
 30
0.0
 11
3949.1936789276369
 21
19319.47396701216
 31
0.0
  0
LINE
  5
FFB3
  8
0-1
  6
CONTINUOUS
 62
     3
 10
11710.458862868871
 20
18319.146249452569
 30
0.0
 11
11710.458862868871
 21
19510.489220999982
 31
0.0
  0
LINE
  5
FFB4
  8
0-1
  6
CONTINUOUS
 62
     3
 10
11673.457701868891
 20
18304.06276397681
 30
0.0
 11
11673.457701868891
 21
19510.489220999982
 31
0.0
  0
LINE
  5
FFB5
  8
0-1
  6
CONTINUOUS
 62
     3
 10
11510.45919286887
 20
18237.61658832644
 30
0.0
 11
11510.45919286887
 21
19510.489220999982
 31
0.0
  0
LINE
  5
FFB6
  8
0-1
  6
CONTINUOUS
 62
     3
 10
11473.45902186889
 20
18222.533506423191
 30
0.0
 11
11473.45902186889
 21
19510.489220999982
 31
0.0
  0
LINE
  5
FFB7
  8
0-1
  6
CONTINUOUS
 62
     3
 10
11310.45853386889
 20
18156.086524035501
 30
0.0
 11
11310.45853386889
 21
19510.489220999982
 31
0.0
  0
LINE
  5
FFB8
  8
0-1
  6
CONTINUOUS
 62
     3
 10
11273.45836186887
 20
18141.003441724559
 30
0.0
 11
11273.45836186887
 21
19510.489220999982
 31
0.0
  0
LINE
  5
FFB9
  8
0-1
  6
CONTINUOUS
 62
     3
 10
12110.45919186886
 20
18482.205974869648
 30
0.0
 11
12110.45919186886
 21
19510.489220999982
 31
0.0
  0
LINE
  5
FFBA
  8
0-1
  6
CONTINUOUS
 62
     3
 10
12073.458030868869
 20
18467.1224893939
 30
0.0
 11
12073.458030868869
 21
19510.489220999982
 31
0.0
  0
LINE
  5
FFBB
  8
0-1
  6
CONTINUOUS
 62
     3
 10
11910.45952186887
 20
18400.676313743541
 30
0.0
 11
11910.45952186887
 21
19510.489220999982
 31
0.0
  0
LINE
  5
FFBC
  8
0-1
  6
CONTINUOUS
 62
     3
 10
11873.45935086889
 20
18385.59323184027
 30
0.0
 11
11873.459350868879
 21
19510.489220999982
 31
0.0
  0
LINE
  5
FFBD
  8
0-1
  6
CONTINUOUS
 62
     3
 10
12310.45886186887
 20
18563.735635995781
 30
0.0
 11
12310.45886186887
 21
19510.489220999982
 31
0.0
  0
LINE
  5
FFBE
  8
0-1
  6
CONTINUOUS
 62
     3
 10
12273.45770086887
 20
18548.652150520022
 30
0.0
 11
12273.45770086887
 21
19510.489220999982
 31
0.0
  0
LINE
  5
FFBF
  8
0-1
  6
CONTINUOUS
 62
     3
 10
12710.459190868871
 20
18726.795361412871
 30
0.0
 11
12710.459190868871
 21
19510.489220999982
 31
0.0
  0
LINE
  5
FFC0
  8
0-1
  6
CONTINUOUS
 62
     3
 10
12673.45802986888
 20
18711.71187593709
 30
0.0
 11
12673.45802986888
 21
19510.489220999982
 31
0.0
  0
LINE
  5
FFC1
  8
0-1
  6
CONTINUOUS
 62
     3
 10
12510.459520868861
 20
18645.265700286742
 30
0.0
 11
12510.459520868861
 21
19510.489220999982
 31
0.0
  0
LINE
  5
FFC2
  8
0-1
  6
CONTINUOUS
 62
     3
 10
12473.459349868879
 20
18630.182618383471
 30
0.0
 11
12473.459349868879
 21
19510.489220999982
 31
0.0
  0
LINE
  5
FFC5
  8
WAKUSEN-01
 10
868.00000000000193
 20
22484.000000000011
 30
0.0
 11
32764.000000000011
 21
22484.000000000011
 31
0.0
  0
LINE
  5
FFC8
  8
WAKUSEN-01
 10
20560.0
 20
2484.0
 30
0.0
 11
32764.0
 21
2484.0
 31
0.0
  0
LINE
  5
FFC9
  8
WAKUSEN-02
 10
20560.0
 20
1655.9999999999991
 30
0.0
 11
26868.0
 21
1655.9999999999991
 31
0.0
  0
TEXT
  5
FFCA
  8
WAKUMOJI-01
 10
20670.260259962761
 20
2125.9030093393221
 30
0.0
 40
240.0
  1
名　称
  7
WAKUMOJI
  0
TEXT
  5
FFCB
  8
WAKUMOJI-01
 10
20656.505485091919
 20
1319.12897497982
 30
0.0
 40
240.0
  1
機種名
  7
WAKUMOJI
  0
LINE
  5
FFCE
  8
YODOROGO
 10
29977.604341291921
 20
1995.7494964292871
 30
0.0
 11
29829.604341291921
 21
1995.7494964292871
 31
0.0
1001
AUTOCAD_POSTSCRIPT_FIGURE
1002
{
1000
PSFILL
1000
Grayscale
1000
Grayscale
1070
    25
1002
}
  0
LINE
  5
FFCF
  8
YODOROGO
 10
29829.604341291921
 20
1947.749496429288
 30
0.0
 11
29977.604341291921
 21
1947.749496429288
 31
0.0
1001
AUTOCAD_POSTSCRIPT_FIGURE
1002
{
1000
PSFILL
1000
Grayscale
1000
Grayscale
1070
    25
1002
}
  0
LINE
  5
FFD0
  8
YODOROGO
 10
29977.604341291921
 20
1907.7494964292871
 30
0.0
 11
29829.604341291921
 21
1907.7494964292871
 31
0.0
1001
AUTOCAD_POSTSCRIPT_FIGURE
1002
{
1000
PSFILL
1000
Grayscale
1000
Grayscale
1070
    25
1002
}
  0
LINE
  5
FFD1
  8
YODOROGO
 10
29829.604341291921
 20
1859.749496429288
 30
0.0
 11
29977.604341291921
 21
1859.749496429288
 31
0.0
1001
AUTOCAD_POSTSCRIPT_FIGURE
1002
{
1000
PSFILL
1000
Grayscale
1000
Grayscale
1070
    25
1002
}
  0
LINE
  5
FFD2
  8
YODOROGO
 10
29977.604341291921
 20
1819.7494964292871
 30
0.0
 11
29829.604341291921
 21
1819.7494964292871
 31
0.0
1001
AUTOCAD_POSTSCRIPT_FIGURE
1002
{
1000
PSFILL
1000
Grayscale
1000
Grayscale
1070
    25
1002
}
  0
LINE
  5
FFD3
  8
YODOROGO
 10
29921.60434129191
 20
1707.749496429288
 30
0.0
 11
29977.604341291921
 21
1707.749496429288
 31
0.0
1001
AUTOCAD_POSTSCRIPT_FIGURE
1002
{
1000
PSFILL
1000
Grayscale
1000
Grayscale
1070
    25
1002
}
  0
LINE
  5
FFD4
  8
YODOROGO
 10
29737.604341291921
 20
1427.749496429288
 30
0.0
 11
29937.604341291932
 21
1481.3393349155101
 31
0.0
  0
LINE
  5
FFD5
  8
YODOROGO
 10
29949.60434129191
 20
1707.749496429288
 30
0.0
 11
29885.604341291921
 21
1707.749496429288
 31
0.0
  0
ARC
  5
FFD6
  8
YODOROGO
 10
30254.34774982791
 20
1807.864609233261
 30
0.0
 40
381.88686420564721
 50
213.96111677667841
 51
264.47872074317792
  0
ARC
  5
FFD7
  8
YODOROGO
 10
30254.347749827921
 20
1807.864609233302
 30
0.0
 40
381.8868642056816
 50
208.14114420486601
 51
212.9210361185994
  0
LINE
  5
FFD8
  8
YODOROGO
 10
29771.409872985321
 20
1556.807661346234
 30
0.0
 11
29933.78413250855
 21
1600.3157130570869
 31
0.0
  0
LINE
  5
FFD9
  8
YODOROGO
 10
29737.604341291921
 20
1427.749496429288
 30
0.0
 11
29937.604341291932
 21
1481.3393349155101
 31
0.0
  0
LINE
  5
FFDA
  8
YODOROGO
 10
29949.60434129191
 20
1707.749496429288
 30
0.0
 11
29885.604341291921
 21
1707.749496429288
 31
0.0
  0
ARC
  5
FFDB
  8
YODOROGO
 10
30254.34774982791
 20
1807.864609233261
 30
0.0
 40
381.88686420564721
 50
213.96111677667841
 51
264.47872074317792
  0
LINE
  5
FFDC
  8
YODOROGO
 10
28793.60434129191
 20
1819.7494964292871
 30
0.0
 11
28433.60434129191
 21
1819.7494964292871
 31
0.0
  0
LINE
  5
FFDD
  8
YODOROGO
 10
28513.60434129191
 20
1427.749496429288
 30
0.0
 11
28793.60434129191
 21
1427.749496429288
 31
0.0
  0
LINE
  5
FFDE
  8
YODOROGO
 10
28729.604341291921
 20
1923.7494964292871
 30
0.0
 11
28497.60434129191
 21
1923.7494964292871
 31
0.0
  0
LINE
  5
FFDF
  8
YODOROGO
 10
28585.604341291921
 20
2027.749496429288
 30
0.0
 11
28657.604341291921
 21
2027.749496429288
 31
0.0
  0
LINE
  5
FFE0
  8
YODOROGO
 10
28433.60434129191
 20
1707.749496429288
 30
0.0
 11
28433.60434129191
 21
1507.749496429288
 31
0.0
  0
LINE
  5
FFE1
  8
YODOROGO
 10
28497.60434129191
 20
1563.7494964292871
 30
0.0
 11
28497.60434129191
 21
1707.749496429288
 31
0.0
  0
LINE
  5
FFE2
  8
YODOROGO
 10
28585.604341291921
 20
1747.74949642929
 30
0.0
 11
28585.604341291921
 21
1547.749496429288
 31
0.0
  0
LINE
  5
FFE3
  8
YODOROGO
 10
27857.604341291921
 20
1683.749496429288
 30
0.0
 11
27777.604341291921
 21
1619.9724140445701
 31
0.0
  0
LINE
  5
FFE4
  8
YODOROGO
 10
27937.604341291921
 20
1619.9724140445701
 30
0.0
 11
27857.604341291921
 21
1683.749496429288
 31
0.0
  0
LINE
  5
FFE5
  8
YODOROGO
 10
27857.604341291921
 20
1707.749496429288
 30
0.0
 11
27937.604341291921
 21
1643.9724140445701
 31
0.0
  0
LINE
  5
FFE6
  8
YODOROGO
 10
27777.604341291921
 20
1643.9724140445701
 30
0.0
 11
27857.604341291921
 21
1707.749496429288
 31
0.0
  0
LINE
  5
FFE7
  8
YODOROGO
 10
28040.913204016892
 20
1659.749496429288
 30
0.0
 11
28040.913204016892
 21
1683.7494964292871
 31
0.0
  0
LINE
  5
FFE8
  8
YODOROGO
 10
27977.604341291921
 20
1683.7494964292871
 30
0.0
 11
27977.604341291921
 21
1667.749496429285
 31
0.0
  0
LINE
  5
FFE9
  8
YODOROGO
 10
28098.135520230931
 20
1707.749496429288
 30
0.0
 11
28098.135520230931
 21
1655.5036372746561
 31
0.0
1001
AUTOCAD_POSTSCRIPT_FIGURE
1002
{
1000
PSFILL
1000
Grayscale
1000
Grayscale
1070
   100
1002
}
  0
LINE
  5
FFEA
  8
YODOROGO
 10
28082.135520230921
 20
1655.5036372746561
 30
0.0
 11
28082.135520230921
 21
1707.749496429288
 31
0.0
1001
AUTOCAD_POSTSCRIPT_FIGURE
1002
{
1000
PSFILL
1000
Grayscale
1000
Grayscale
1070
   100
1002
}
  0
LINE
  5
FFEB
  8
YODOROGO
 10
27809.604341291921
 20
1608.771904043258
 30
0.0
 11
27809.604341291921
 21
1632.771904043258
 31
0.0
  0
LINE
  5
FFEC
  8
YODOROGO
 10
27905.604341291921
 20
1608.771904043258
 30
0.0
 11
27809.604341291921
 21
1608.771904043258
 31
0.0
  0
LINE
  5
FFED
  8
YODOROGO
 10
27905.604341291921
 20
1632.771904043258
 30
0.0
 11
27905.604341291921
 21
1608.771904043258
 31
0.0
  0
LINE
  5
FFEE
  8
YODOROGO
 10
27809.604341291921
 20
1632.771904043258
 30
0.0
 11
27905.604341291921
 21
1632.771904043258
 31
0.0
  0
LINE
  5
FFEF
  8
YODOROGO
 10
27824.509588915738
 20
1568.5028573704751
 30
0.0
 11
27785.604341291921
 21
1475.7494964292871
 31
0.0
1001
AUTOCAD_POSTSCRIPT_FIGURE
1002
{
1000
PSFILL
1000
Grayscale
1000
Grayscale
1070
   100
1002
}
  0
LINE
  5
FFF0
  8
YODOROGO
 10
27777.604341291921
 20
1568.5028573704751
 30
0.0
 11
27824.509588915738
 21
1568.5028573704751
 31
0.0
1001
AUTOCAD_POSTSCRIPT_FIGURE
1002
{
1000
PSFILL
1000
Grayscale
1000
Grayscale
1070
   100
1002
}
  0
LINE
  5
FFF1
  8
YODOROGO
 10
27777.604341291921
 20
1588.5028573704751
 30
0.0
 11
27777.604341291921
 21
1568.5028573704751
 31
0.0
1001
AUTOCAD_POSTSCRIPT_FIGURE
1002
{
1000
PSFILL
1000
Grayscale
1000
Grayscale
1070
   100
1002
}
  0
LINE
  5
FFF2
  8
YODOROGO
 10
27937.604341291921
 20
1588.5028573704751
 30
0.0
 11
27777.604341291921
 21
1588.5028573704751
 31
0.0
1001
AUTOCAD_POSTSCRIPT_FIGURE
1002
{
1000
PSFILL
1000
Grayscale
1000
Grayscale
1070
   100
1002
}
  0
LINE
  5
FFF3
  8
YODOROGO
 10
27937.604341291921
 20
1568.5028573704751
 30
0.0
 11
27937.604341291921
 21
1588.5028573704751
 31
0.0
1001
AUTOCAD_POSTSCRIPT_FIGURE
1002
{
1000
PSFILL
1000
Grayscale
1000
Grayscale
1070
   100
1002
}
  0
LINE
  5
FFF4
  8
YODOROGO
 10
27844.509588915738
 20
1568.5028573704751
 30
0.0
 11
27937.604341291921
 21
1568.5028573704751
 31
0.0
1001
AUTOCAD_POSTSCRIPT_FIGURE
1002
{
1000
PSFILL
1000
Grayscale
1000
Grayscale
1070
   100
1002
}
  0
LINE
  5
FFF5
  8
YODOROGO
 10
27815.546718284771
 20
1495.7494964292871
 30
0.0
 11
27844.509588915738
 21
1568.5028573704751
 31
0.0
1001
AUTOCAD_POSTSCRIPT_FIGURE
1002
{
1000
PSFILL
1000
Grayscale
1000
Grayscale
1070
   100
1002
}
  0
LINE
  5
FFF6
  8
YODOROGO
 10
27902.054790808648
 20
1495.7494964292871
 30
0.0
 11
27815.546718284771
 21
1495.7494964292871
 31
0.0
1001
AUTOCAD_POSTSCRIPT_FIGURE
1002
{
1000
PSFILL
1000
Grayscale
1000
Grayscale
1070
   100
1002
}
  0
LINE
  5
FFF7
  8
YODOROGO
 10
27885.065004790951
 20
1536.2338106976929
 30
0.0
 11
27902.054790808648
 21
1495.7494964292871
 31
0.0
1001
AUTOCAD_POSTSCRIPT_FIGURE
1002
{
1000
PSFILL
1000
Grayscale
1000
Grayscale
1070
   100
1002
}
  0
LINE
  5
FFF8
  8
YODOROGO
 10
27901.065004790951
 20
1536.2338106976929
 30
0.0
 11
27885.065004790951
 21
1536.2338106976929
 31
0.0
1001
AUTOCAD_POSTSCRIPT_FIGURE
1002
{
1000
PSFILL
1000
Grayscale
1000
Grayscale
1070
   100
1002
}
  0
LINE
  5
FFF9
  8
YODOROGO
 10
27929.604341291921
 20
1475.7494964292871
 30
0.0
 11
27901.065004790951
 21
1536.2338106976929
 31
0.0
1001
AUTOCAD_POSTSCRIPT_FIGURE
1002
{
1000
PSFILL
1000
Grayscale
1000
Grayscale
1070
   100
1002
}
  0
LINE
  5
FFFA
  8
YODOROGO
 10
27785.604341291921
 20
1475.7494964292871
 30
0.0
 11
27929.604341291921
 21
1475.7494964292871
 31
0.0
1001
AUTOCAD_POSTSCRIPT_FIGURE
1002
{
1000
PSFILL
1000
Grayscale
1000
Grayscale
1070
   100
1002
}
  0
LINE
  5
FFFB
  8
YODOROGO
 10
27777.604341291921
 20
1619.9724140445701
 30
0.0
 11
27777.604341291921
 21
1643.9724140445701
 31
0.0
  0
LINE
  5
FFFC
  8
YODOROGO
 10
27937.604341291921
 20
1643.9724140445701
 30
0.0
 11
27937.604341291921
 21
1619.9724140445701
 31
0.0
  0
ARC
  5
FFFD
  8
YODOROGO
 10
28225.940442146959
 20
1600.877765325326
 30
0.0
 40
175.9999999999998
 50
280.3644312771313
 51
3.5414836592180561
  0
ARC
  5
FFFE
  8
YODOROGO
 10
28235.756030759301
 20
1633.5978069619041
 30
0.0
 40
111.9999999999982
 50
281.24905825041549
 51
348.75094174958321
  0
LINE
  5
FFFF
  8
YODOROGO
 10
28257.604341291921
 20
1523.7494964292871
 30
0.0
 11
28257.604341291921
 21
1427.749496429288
 31
0.0
  0
LINE
  5
10000
  8
YODOROGO
 10
28020.088903736909
 20
1610.650565061914
 30
0.0
 11
28040.913204016892
 21
1659.749496429288
 31
0.0
  0
LINE
  5
10001
  8
YODOROGO
 10
28041.604341291921
 20
1583.120489948401
 30
0.0
 11
28020.088903736909
 21
1610.650565061914
 31
0.0
  0
LINE
  5
10002
  8
YODOROGO
 10
28041.604341291921
 20
1563.120489948398
 30
0.0
 11
28041.604341291921
 21
1583.120489948401
 31
0.0
  0
LINE
  5
10003
  8
YODOROGO
 10
28017.604341291921
 20
1585.2370637495301
 30
0.0
 11
28041.604341291921
 21
1563.120489948398
 31
0.0
  0
LINE
  5
10004
  8
YODOROGO
 10
28017.604341291921
 20
1475.7494964292871
 30
0.0
 11
28017.604341291921
 21
1585.2370637495301
 31
0.0
  0
LINE
  5
10005
  8
YODOROGO
 10
28001.604341291921
 20
1475.7494964292871
 30
0.0
 11
28017.604341291921
 21
1475.7494964292871
 31
0.0
  0
LINE
  5
10006
  8
YODOROGO
 10
28001.604341291921
 20
1580.0053496897469
 30
0.0
 11
28001.604341291921
 21
1475.7494964292871
 31
0.0
  0
LINE
  5
10007
  8
YODOROGO
 10
27977.604341291921
 20
1532.7680790334291
 30
0.0
 11
28001.604341291921
 21
1580.0053496897469
 31
0.0
  0
LINE
  5
10008
  8
YODOROGO
 10
27977.604341291921
 20
1556.76807903343
 30
0.0
 11
27977.604341291921
 21
1532.7680790334291
 31
0.0
  0
LINE
  5
10009
  8
YODOROGO
 10
28025.828774291349
 20
1667.749496429285
 30
0.0
 11
27977.604341291921
 21
1556.76807903343
 31
0.0
  0
LINE
  5
1000A
  8
YODOROGO
 10
27977.604341291921
 20
1667.749496429285
 30
0.0
 11
28025.828774291349
 21
1667.749496429285
 31
0.0
  0
LINE
  5
1000B
  8
YODOROGO
 10
28050.135520230899
 20
1655.5036372746561
 30
0.0
 11
28082.135520230921
 21
1655.5036372746561
 31
0.0
1001
AUTOCAD_POSTSCRIPT_FIGURE
1002
{
1000
PSFILL
1000
Grayscale
1000
Grayscale
1070
   100
1002
}
  0
LINE
  5
1000C
  8
YODOROGO
 10
28050.135520230899
 20
1631.5036372746561
 30
0.0
 11
28050.135520230899
 21
1655.5036372746561
 31
0.0
1001
AUTOCAD_POSTSCRIPT_FIGURE
1002
{
1000
PSFILL
1000
Grayscale
1000
Grayscale
1070
   100
1002
}
  0
LINE
  5
1000D
  8
YODOROGO
 10
28082.135520230921
 20
1631.5036372746561
 30
0.0
 11
28050.135520230899
 21
1631.5036372746561
 31
0.0
1001
AUTOCAD_POSTSCRIPT_FIGURE
1002
{
1000
PSFILL
1000
Grayscale
1000
Grayscale
1070
   100
1002
}
  0
LINE
  5
1000E
  8
YODOROGO
 10
28082.135520230921
 20
1499.749496429288
 30
0.0
 11
28082.135520230921
 21
1631.5036372746561
 31
0.0
1001
AUTOCAD_POSTSCRIPT_FIGURE
1002
{
1000
PSFILL
1000
Grayscale
1000
Grayscale
1070
   100
1002
}
  0
LINE
  5
1000F
  8
YODOROGO
 10
28050.135520230921
 20
1499.749496429288
 30
0.0
 11
28082.135520230921
 21
1499.749496429288
 31
0.0
1001
AUTOCAD_POSTSCRIPT_FIGURE
1002
{
1000
PSFILL
1000
Grayscale
1000
Grayscale
1070
   100
1002
}
  0
LINE
  5
10010
  8
YODOROGO
 10
28050.135520230921
 20
1475.7494964292871
 30
0.0
 11
28050.135520230921
 21
1499.749496429288
 31
0.0
1001
AUTOCAD_POSTSCRIPT_FIGURE
1002
{
1000
PSFILL
1000
Grayscale
1000
Grayscale
1070
   100
1002
}
  0
LINE
  5
10011
  8
YODOROGO
 10
28137.604341291921
 20
1475.7494964292871
 30
0.0
 11
28050.135520230921
 21
1475.7494964292871
 31
0.0
1001
AUTOCAD_POSTSCRIPT_FIGURE
1002
{
1000
PSFILL
1000
Grayscale
1000
Grayscale
1070
   100
1002
}
  0
LINE
  5
10012
  8
YODOROGO
 10
28137.604341291921
 20
1499.749496429288
 30
0.0
 11
28137.604341291921
 21
1475.7494964292871
 31
0.0
1001
AUTOCAD_POSTSCRIPT_FIGURE
1002
{
1000
PSFILL
1000
Grayscale
1000
Grayscale
1070
   100
1002
}
  0
LINE
  5
10013
  8
YODOROGO
 10
28098.135520230931
 20
1499.749496429288
 30
0.0
 11
28137.604341291921
 21
1499.749496429288
 31
0.0
1001
AUTOCAD_POSTSCRIPT_FIGURE
1002
{
1000
PSFILL
1000
Grayscale
1000
Grayscale
1070
   100
1002
}
  0
LINE
  5
10014
  8
YODOROGO
 10
28098.135520230931
 20
1631.5036372746561
 30
0.0
 11
28098.135520230931
 21
1499.749496429288
 31
0.0
1001
AUTOCAD_POSTSCRIPT_FIGURE
1002
{
1000
PSFILL
1000
Grayscale
1000
Grayscale
1070
   100
1002
}
  0
LINE
  5
10015
  8
YODOROGO
 10
28137.604341291921
 20
1631.5036372746561
 30
0.0
 11
28098.135520230931
 21
1631.5036372746561
 31
0.0
1001
AUTOCAD_POSTSCRIPT_FIGURE
1002
{
1000
PSFILL
1000
Grayscale
1000
Grayscale
1070
   100
1002
}
  0
LINE
  5
10016
  8
YODOROGO
 10
28137.604341291921
 20
1655.5036372746561
 30
0.0
 11
28137.604341291921
 21
1631.5036372746561
 31
0.0
1001
AUTOCAD_POSTSCRIPT_FIGURE
1002
{
1000
PSFILL
1000
Grayscale
1000
Grayscale
1070
   100
1002
}
  0
LINE
  5
10017
  8
YODOROGO
 10
28098.135520230931
 20
1655.5036372746561
 30
0.0
 11
28137.604341291921
 21
1655.5036372746561
 31
0.0
1001
AUTOCAD_POSTSCRIPT_FIGURE
1002
{
1000
PSFILL
1000
Grayscale
1000
Grayscale
1070
   100
1002
}
  0
LINE
  5
10018
  8
YODOROGO
 10
28401.60434129191
 20
1667.749496429288
 30
0.0
 11
28345.604341291921
 21
1667.749496429288
 31
0.0
  0
LINE
  5
10019
  8
YODOROGO
 10
28401.60434129191
 20
1611.749496429288
 30
0.0
 11
28401.60434129191
 21
1667.749496429288
 31
0.0
  0
LINE
  5
1001A
  8
YODOROGO
 10
28345.604341291921
 20
1667.749496429288
 30
0.0
 11
28345.604341291921
 21
1611.749496429288
 31
0.0
  0
ARC
  5
1001B
  8
YODOROGO
 10
28513.60434129191
 20
1507.749496429288
 30
0.0
 40
80.0
 50
180.0
 51
270.0
  0
ARC
  5
1001C
  8
YODOROGO
 10
28537.604341291921
 20
1563.7494964292871
 30
0.0
 40
40.0
 50
180.0
 51
270.0
  0
LINE
  5
1001D
  8
YODOROGO
 10
28561.604341291932
 20
1523.7494964292871
 30
0.0
 11
28537.604341291921
 21
1523.7494964292871
 31
0.0
  0
ARC
  5
1001E
  8
YODOROGO
 10
28561.604341291932
 20
1547.749496429285
 30
0.0
 40
23.999999999996358
 50
270.0
 51
0.0000000000054281
  0
LINE
  5
1001F
  8
YODOROGO
 10
27801.604341291921
 20
1890.786580793706
 30
0.0
 11
27777.604341291921
 21
1843.776747951672
 31
0.0
1001
AUTOCAD_POSTSCRIPT_FIGURE
1002
{
1000
PSFILL
1000
Grayscale
1000
Grayscale
1070
   100
1002
}
  0
LINE
  5
10020
  8
YODOROGO
 10
27801.604341291921
 20
1747.749496429286
 30
0.0
 11
27801.604341291921
 21
1890.786580793706
 31
0.0
1001
AUTOCAD_POSTSCRIPT_FIGURE
1002
{
1000
PSFILL
1000
Grayscale
1000
Grayscale
1070
   100
1002
}
  0
LINE
  5
10021
  8
YODOROGO
 10
27817.604341291921
 20
1747.749496429286
 30
0.0
 11
27801.604341291921
 21
1747.749496429286
 31
0.0
1001
AUTOCAD_POSTSCRIPT_FIGURE
1002
{
1000
PSFILL
1000
Grayscale
1000
Grayscale
1070
   100
1002
}
  0
LINE
  5
10022
  8
YODOROGO
 10
27817.604341291921
 20
1893.7713320852661
 30
0.0
 11
27817.604341291921
 21
1747.749496429286
 31
0.0
1001
AUTOCAD_POSTSCRIPT_FIGURE
1002
{
1000
PSFILL
1000
Grayscale
1000
Grayscale
1070
   100
1002
}
  0
LINE
  5
10023
  8
YODOROGO
 10
27841.604341291921
 20
1867.6547582841361
 30
0.0
 11
27817.604341291921
 21
1893.7713320852661
 31
0.0
1001
AUTOCAD_POSTSCRIPT_FIGURE
1002
{
1000
PSFILL
1000
Grayscale
1000
Grayscale
1070
   100
1002
}
  0
LINE
  5
10024
  8
YODOROGO
 10
27841.604341291921
 20
1883.6547582841361
 30
0.0
 11
27841.604341291921
 21
1867.6547582841361
 31
0.0
1001
AUTOCAD_POSTSCRIPT_FIGURE
1002
{
1000
PSFILL
1000
Grayscale
1000
Grayscale
1070
   100
1002
}
  0
LINE
  5
10025
  8
YODOROGO
 10
27817.604341291921
 20
1917.7713320852649
 30
0.0
 11
27841.604341291921
 21
1883.6547582841361
 31
0.0
1001
AUTOCAD_POSTSCRIPT_FIGURE
1002
{
1000
PSFILL
1000
Grayscale
1000
Grayscale
1070
   100
1002
}
  0
LINE
  5
10026
  8
YODOROGO
 10
27817.604341291921
 20
1939.749496429288
 30
0.0
 11
27817.604341291921
 21
1917.7713320852649
 31
0.0
1001
AUTOCAD_POSTSCRIPT_FIGURE
1002
{
1000
PSFILL
1000
Grayscale
1000
Grayscale
1070
   100
1002
}
  0
LINE
  5
10027
  8
YODOROGO
 10
27889.604341291921
 20
1939.749496429288
 30
0.0
 11
27817.604341291921
 21
1939.749496429288
 31
0.0
1001
AUTOCAD_POSTSCRIPT_FIGURE
1002
{
1000
PSFILL
1000
Grayscale
1000
Grayscale
1070
   100
1002
}
  0
LINE
  5
10028
  8
YODOROGO
 10
27889.604341291921
 20
1900.5683489363
 30
0.0
 11
27889.604341291921
 21
1939.749496429288
 31
0.0
1001
AUTOCAD_POSTSCRIPT_FIGURE
1002
{
1000
PSFILL
1000
Grayscale
1000
Grayscale
1070
   100
1002
}
  0
LINE
  5
10029
  8
YODOROGO
 10
27857.604341291921
 20
1900.5683489363
 30
0.0
 11
27889.604341291921
 21
1900.5683489363
 31
0.0
1001
AUTOCAD_POSTSCRIPT_FIGURE
1002
{
1000
PSFILL
1000
Grayscale
1000
Grayscale
1070
   100
1002
}
  0
LINE
  5
1002A
  8
YODOROGO
 10
27857.604341291921
 20
1884.568348936298
 30
0.0
 11
27857.604341291921
 21
1900.5683489363
 31
0.0
1001
AUTOCAD_POSTSCRIPT_FIGURE
1002
{
1000
PSFILL
1000
Grayscale
1000
Grayscale
1070
   100
1002
}
  0
LINE
  5
1002B
  8
YODOROGO
 10
27889.604341291921
 20
1884.568348936298
 30
0.0
 11
27857.604341291921
 21
1884.568348936298
 31
0.0
1001
AUTOCAD_POSTSCRIPT_FIGURE
1002
{
1000
PSFILL
1000
Grayscale
1000
Grayscale
1070
   100
1002
}
  0
LINE
  5
1002C
  8
YODOROGO
 10
27889.604341291921
 20
1879.6191779644371
 30
0.0
 11
27889.604341291921
 21
1884.568348936298
 31
0.0
1001
AUTOCAD_POSTSCRIPT_FIGURE
1002
{
1000
PSFILL
1000
Grayscale
1000
Grayscale
1070
   100
1002
}
  0
LINE
  5
1002D
  8
YODOROGO
 10
27849.604341291921
 20
1812.974981161417
 30
0.0
 11
27889.604341291921
 21
1879.6191779644371
 31
0.0
1001
AUTOCAD_POSTSCRIPT_FIGURE
1002
{
1000
PSFILL
1000
Grayscale
1000
Grayscale
1070
   100
1002
}
  0
LINE
  5
1002E
  8
YODOROGO
 10
27849.604341291921
 20
1796.9749811614161
 30
0.0
 11
27849.604341291921
 21
1812.974981161417
 31
0.0
1001
AUTOCAD_POSTSCRIPT_FIGURE
1002
{
1000
PSFILL
1000
Grayscale
1000
Grayscale
1070
   100
1002
}
  0
LINE
  5
1002F
  8
YODOROGO
 10
27889.604341291921
 20
1847.6191779644359
 30
0.0
 11
27849.604341291921
 21
1796.9749811614161
 31
0.0
1001
AUTOCAD_POSTSCRIPT_FIGURE
1002
{
1000
PSFILL
1000
Grayscale
1000
Grayscale
1070
   100
1002
}
  0
LINE
  5
10030
  8
YODOROGO
 10
27889.604341291921
 20
1747.749496429286
 30
0.0
 11
27889.604341291921
 21
1847.6191779644359
 31
0.0
1001
AUTOCAD_POSTSCRIPT_FIGURE
1002
{
1000
PSFILL
1000
Grayscale
1000
Grayscale
1070
   100
1002
}
  0
LINE
  5
10031
  8
YODOROGO
 10
27905.604341291921
 20
1747.749496429286
 30
0.0
 11
27889.604341291921
 21
1747.749496429286
 31
0.0
1001
AUTOCAD_POSTSCRIPT_FIGURE
1002
{
1000
PSFILL
1000
Grayscale
1000
Grayscale
1070
   100
1002
}
  0
LINE
  5
10032
  8
YODOROGO
 10
27905.604341291921
 20
1849.409012158806
 30
0.0
 11
27905.604341291921
 21
1747.749496429286
 31
0.0
1001
AUTOCAD_POSTSCRIPT_FIGURE
1002
{
1000
PSFILL
1000
Grayscale
1000
Grayscale
1070
   100
1002
}
  0
LINE
  5
10033
  8
YODOROGO
 10
27937.604341291921
 20
1796.9749811614161
 30
0.0
 11
27905.604341291921
 21
1849.409012158806
 31
0.0
1001
AUTOCAD_POSTSCRIPT_FIGURE
1002
{
1000
PSFILL
1000
Grayscale
1000
Grayscale
1070
   100
1002
}
  0
LINE
  5
10034
  8
YODOROGO
 10
27937.604341291921
 20
1812.974981161417
 30
0.0
 11
27937.604341291921
 21
1796.9749811614161
 31
0.0
1001
AUTOCAD_POSTSCRIPT_FIGURE
1002
{
1000
PSFILL
1000
Grayscale
1000
Grayscale
1070
   100
1002
}
  0
LINE
  5
10035
  8
YODOROGO
 10
27905.604341291921
 20
1881.4090121588081
 30
0.0
 11
27937.604341291921
 21
1812.974981161417
 31
0.0
1001
AUTOCAD_POSTSCRIPT_FIGURE
1002
{
1000
PSFILL
1000
Grayscale
1000
Grayscale
1070
   100
1002
}
  0
LINE
  5
10036
  8
YODOROGO
 10
27905.604341291921
 20
1884.5683489363
 30
0.0
 11
27905.604341291921
 21
1881.4090121588081
 31
0.0
1001
AUTOCAD_POSTSCRIPT_FIGURE
1002
{
1000
PSFILL
1000
Grayscale
1000
Grayscale
1070
   100
1002
}
  0
LINE
  5
10037
  8
YODOROGO
 10
27937.604341291921
 20
1884.568348936298
 30
0.0
 11
27905.604341291921
 21
1884.5683489363
 31
0.0
1001
AUTOCAD_POSTSCRIPT_FIGURE
1002
{
1000
PSFILL
1000
Grayscale
1000
Grayscale
1070
   100
1002
}
  0
LINE
  5
10038
  8
YODOROGO
 10
27937.604341291921
 20
1900.5683489363
 30
0.0
 11
27937.604341291921
 21
1884.568348936298
 31
0.0
1001
AUTOCAD_POSTSCRIPT_FIGURE
1002
{
1000
PSFILL
1000
Grayscale
1000
Grayscale
1070
   100
1002
}
  0
LINE
  5
10039
  8
YODOROGO
 10
27905.604341291921
 20
1900.5683489363
 30
0.0
 11
27937.604341291921
 21
1900.5683489363
 31
0.0
1001
AUTOCAD_POSTSCRIPT_FIGURE
1002
{
1000
PSFILL
1000
Grayscale
1000
Grayscale
1070
   100
1002
}
  0
LINE
  5
1003A
  8
YODOROGO
 10
27905.604341291921
 20
1939.749496429288
 30
0.0
 11
27905.604341291921
 21
1900.5683489363
 31
0.0
1001
AUTOCAD_POSTSCRIPT_FIGURE
1002
{
1000
PSFILL
1000
Grayscale
1000
Grayscale
1070
   100
1002
}
  0
LINE
  5
1003B
  8
YODOROGO
 10
27937.604341291921
 20
1939.749496429288
 30
0.0
 11
27905.604341291921
 21
1939.749496429288
 31
0.0
1001
AUTOCAD_POSTSCRIPT_FIGURE
1002
{
1000
PSFILL
1000
Grayscale
1000
Grayscale
1070
   100
1002
}
  0
LINE
  5
1003C
  8
YODOROGO
 10
27937.604341291921
 20
1955.7494964292871
 30
0.0
 11
27937.604341291921
 21
1939.749496429288
 31
0.0
1001
AUTOCAD_POSTSCRIPT_FIGURE
1002
{
1000
PSFILL
1000
Grayscale
1000
Grayscale
1070
   100
1002
}
  0
LINE
  5
1003D
  8
YODOROGO
 10
27905.604341291921
 20
1955.7494964292871
 30
0.0
 11
27937.604341291921
 21
1955.7494964292871
 31
0.0
1001
AUTOCAD_POSTSCRIPT_FIGURE
1002
{
1000
PSFILL
1000
Grayscale
1000
Grayscale
1070
   100
1002
}
  0
LINE
  5
1003E
  8
YODOROGO
 10
27905.604341291921
 20
1979.749496429288
 30
0.0
 11
27905.604341291921
 21
1955.7494964292871
 31
0.0
1001
AUTOCAD_POSTSCRIPT_FIGURE
1002
{
1000
PSFILL
1000
Grayscale
1000
Grayscale
1070
   100
1002
}
  0
LINE
  5
1003F
  8
YODOROGO
 10
27889.604341291921
 20
1979.749496429288
 30
0.0
 11
27905.604341291921
 21
1979.749496429288
 31
0.0
1001
AUTOCAD_POSTSCRIPT_FIGURE
1002
{
1000
PSFILL
1000
Grayscale
1000
Grayscale
1070
   100
1002
}
  0
LINE
  5
10040
  8
YODOROGO
 10
27889.604341291921
 20
1955.7494964292871
 30
0.0
 11
27889.604341291921
 21
1979.749496429288
 31
0.0
1001
AUTOCAD_POSTSCRIPT_FIGURE
1002
{
1000
PSFILL
1000
Grayscale
1000
Grayscale
1070
   100
1002
}
  0
LINE
  5
10041
  8
YODOROGO
 10
27865.604341291921
 20
1955.7494964292871
 30
0.0
 11
27889.604341291921
 21
1955.7494964292871
 31
0.0
1001
AUTOCAD_POSTSCRIPT_FIGURE
1002
{
1000
PSFILL
1000
Grayscale
1000
Grayscale
1070
   100
1002
}
  0
LINE
  5
10042
  8
YODOROGO
 10
27865.604341291921
 20
1979.749496429288
 30
0.0
 11
27865.604341291921
 21
1955.7494964292871
 31
0.0
1001
AUTOCAD_POSTSCRIPT_FIGURE
1002
{
1000
PSFILL
1000
Grayscale
1000
Grayscale
1070
   100
1002
}
  0
LINE
  5
10043
  8
YODOROGO
 10
27849.604341291921
 20
1979.749496429288
 30
0.0
 11
27865.604341291921
 21
1979.749496429288
 31
0.0
1001
AUTOCAD_POSTSCRIPT_FIGURE
1002
{
1000
PSFILL
1000
Grayscale
1000
Grayscale
1070
   100
1002
}
  0
LINE
  5
10044
  8
YODOROGO
 10
27849.604341291921
 20
1955.7494964292871
 30
0.0
 11
27849.604341291921
 21
1979.749496429288
 31
0.0
1001
AUTOCAD_POSTSCRIPT_FIGURE
1002
{
1000
PSFILL
1000
Grayscale
1000
Grayscale
1070
   100
1002
}
  0
LINE
  5
10045
  8
YODOROGO
 10
27817.604341291921
 20
1955.7494964292871
 30
0.0
 11
27849.604341291921
 21
1955.7494964292871
 31
0.0
1001
AUTOCAD_POSTSCRIPT_FIGURE
1002
{
1000
PSFILL
1000
Grayscale
1000
Grayscale
1070
   100
1002
}
  0
LINE
  5
10046
  8
YODOROGO
 10
27817.604341291921
 20
1979.749496429288
 30
0.0
 11
27817.604341291921
 21
1955.7494964292871
 31
0.0
1001
AUTOCAD_POSTSCRIPT_FIGURE
1002
{
1000
PSFILL
1000
Grayscale
1000
Grayscale
1070
   100
1002
}
  0
LINE
  5
10047
  8
YODOROGO
 10
27801.604341291921
 20
1979.749496429288
 30
0.0
 11
27817.604341291921
 21
1979.749496429288
 31
0.0
1001
AUTOCAD_POSTSCRIPT_FIGURE
1002
{
1000
PSFILL
1000
Grayscale
1000
Grayscale
1070
   100
1002
}
  0
LINE
  5
10048
  8
YODOROGO
 10
27801.604341291921
 20
1955.7494964292871
 30
0.0
 11
27801.604341291921
 21
1979.749496429288
 31
0.0
1001
AUTOCAD_POSTSCRIPT_FIGURE
1002
{
1000
PSFILL
1000
Grayscale
1000
Grayscale
1070
   100
1002
}
  0
LINE
  5
10049
  8
YODOROGO
 10
27777.604341291921
 20
1955.7494964292871
 30
0.0
 11
27801.604341291921
 21
1955.7494964292871
 31
0.0
1001
AUTOCAD_POSTSCRIPT_FIGURE
1002
{
1000
PSFILL
1000
Grayscale
1000
Grayscale
1070
   100
1002
}
  0
LINE
  5
1004A
  8
YODOROGO
 10
27777.604341291921
 20
1939.749496429288
 30
0.0
 11
27777.604341291921
 21
1955.7494964292871
 31
0.0
1001
AUTOCAD_POSTSCRIPT_FIGURE
1002
{
1000
PSFILL
1000
Grayscale
1000
Grayscale
1070
   100
1002
}
  0
LINE
  5
1004B
  8
YODOROGO
 10
27801.604341291921
 20
1939.749496429288
 30
0.0
 11
27777.604341291921
 21
1939.749496429288
 31
0.0
1001
AUTOCAD_POSTSCRIPT_FIGURE
1002
{
1000
PSFILL
1000
Grayscale
1000
Grayscale
1070
   100
1002
}
  0
LINE
  5
1004C
  8
YODOROGO
 10
27801.604341291921
 20
1914.7865807937051
 30
0.0
 11
27801.604341291921
 21
1939.749496429288
 31
0.0
1001
AUTOCAD_POSTSCRIPT_FIGURE
1002
{
1000
PSFILL
1000
Grayscale
1000
Grayscale
1070
   100
1002
}
  0
LINE
  5
1004D
  8
YODOROGO
 10
27777.604341291921
 20
1859.776747951671
 30
0.0
 11
27801.604341291921
 21
1914.7865807937051
 31
0.0
1001
AUTOCAD_POSTSCRIPT_FIGURE
1002
{
1000
PSFILL
1000
Grayscale
1000
Grayscale
1070
   100
1002
}
  0
LINE
  5
1004E
  8
YODOROGO
 10
27777.604341291921
 20
1843.776747951672
 30
0.0
 11
27777.604341291921
 21
1859.776747951671
 31
0.0
1001
AUTOCAD_POSTSCRIPT_FIGURE
1002
{
1000
PSFILL
1000
Grayscale
1000
Grayscale
1070
   100
1002
}
  0
LINE
  5
1004F
  8
YODOROGO
 10
28257.604341291921
 20
1867.7494964292871
 30
0.0
 11
28401.60434129191
 21
1824.877625640306
 31
0.0
1001
AUTOCAD_POSTSCRIPT_FIGURE
1002
{
1000
PSFILL
1000
Grayscale
1000
Grayscale
1070
   100
1002
}
  0
LINE
  5
10050
  8
YODOROGO
 10
28401.60434129191
 20
1752.877625640306
 30
0.0
 11
28257.604341291921
 21
1795.7494964292871
 31
0.0
1001
AUTOCAD_POSTSCRIPT_FIGURE
1002
{
1000
PSFILL
1000
Grayscale
1000
Grayscale
1070
   100
1002
}
  0
LINE
  5
10051
  8
YODOROGO
 10
28401.60434129191
 20
1984.877625640306
 30
0.0
 11
28257.604341291921
 21
2027.749496429288
 31
0.0
1001
AUTOCAD_POSTSCRIPT_FIGURE
1002
{
1000
PSFILL
1000
Grayscale
1000
Grayscale
1070
   100
1002
}
  0
LINE
  5
10052
  8
YODOROGO
 10
28257.604341291921
 20
1959.749496429288
 30
0.0
 11
28401.60434129191
 21
1916.8776256403071
 31
0.0
1001
AUTOCAD_POSTSCRIPT_FIGURE
1002
{
1000
PSFILL
1000
Grayscale
1000
Grayscale
1070
   100
1002
}
  0
LINE
  5
10053
  8
YODOROGO
 10
28257.604341291921
 20
1795.7494964292871
 30
0.0
 11
28257.604341291921
 21
1867.7494964292871
 31
0.0
1001
AUTOCAD_POSTSCRIPT_FIGURE
1002
{
1000
PSFILL
1000
Grayscale
1000
Grayscale
1070
   100
1002
}
  0
LINE
  5
10054
  8
YODOROGO
 10
28257.604341291921
 20
2027.749496429288
 30
0.0
 11
28257.604341291921
 21
1959.749496429288
 31
0.0
1001
AUTOCAD_POSTSCRIPT_FIGURE
1002
{
1000
PSFILL
1000
Grayscale
1000
Grayscale
1070
   100
1002
}
  0
LINE
  5
10055
  8
YODOROGO
 10
28080.236320206739
 20
1939.749496429288
 30
0.0
 11
28129.60434129191
 21
1747.749496429286
 31
0.0
1001
AUTOCAD_POSTSCRIPT_FIGURE
1002
{
1000
PSFILL
1000
Grayscale
1000
Grayscale
1070
   100
1002
}
  0
LINE
  5
10056
  8
YODOROGO
 10
27977.604341291921
 20
1939.749496429288
 30
0.0
 11
28080.236320206739
 21
1939.749496429288
 31
0.0
1001
AUTOCAD_POSTSCRIPT_FIGURE
1002
{
1000
PSFILL
1000
Grayscale
1000
Grayscale
1070
   100
1002
}
  0
LINE
  5
10057
  8
YODOROGO
 10
27977.604341291921
 20
1955.7494964292871
 30
0.0
 11
27977.604341291921
 21
1939.749496429288
 31
0.0
1001
AUTOCAD_POSTSCRIPT_FIGURE
1002
{
1000
PSFILL
1000
Grayscale
1000
Grayscale
1070
   100
1002
}
  0
LINE
  5
10058
  8
YODOROGO
 10
28076.60687851991
 20
1955.7494964292871
 30
0.0
 11
27977.604341291921
 21
1955.7494964292871
 31
0.0
1001
AUTOCAD_POSTSCRIPT_FIGURE
1002
{
1000
PSFILL
1000
Grayscale
1000
Grayscale
1070
   100
1002
}
  0
LINE
  5
10059
  8
YODOROGO
 10
28071.162715989711
 20
1979.749496429288
 30
0.0
 11
28076.60687851991
 21
1955.7494964292871
 31
0.0
1001
AUTOCAD_POSTSCRIPT_FIGURE
1002
{
1000
PSFILL
1000
Grayscale
1000
Grayscale
1070
   100
1002
}
  0
LINE
  5
1005A
  8
YODOROGO
 10
28091.162715989711
 20
1979.749496429288
 30
0.0
 11
28071.162715989711
 21
1979.749496429288
 31
0.0
1001
AUTOCAD_POSTSCRIPT_FIGURE
1002
{
1000
PSFILL
1000
Grayscale
1000
Grayscale
1070
   100
1002
}
  0
LINE
  5
1005B
  8
YODOROGO
 10
28095.806878519939
 20
1955.7494964292871
 30
0.0
 11
28091.162715989711
 21
1979.749496429288
 31
0.0
1001
AUTOCAD_POSTSCRIPT_FIGURE
1002
{
1000
PSFILL
1000
Grayscale
1000
Grayscale
1070
   100
1002
}
  0
LINE
  5
1005C
  8
YODOROGO
 10
28121.604341291921
 20
1955.7494964292871
 30
0.0
 11
28095.806878519939
 21
1955.7494964292871
 31
0.0
1001
AUTOCAD_POSTSCRIPT_FIGURE
1002
{
1000
PSFILL
1000
Grayscale
1000
Grayscale
1070
   100
1002
}
  0
LINE
  5
1005D
  8
YODOROGO
 10
28121.604341291921
 20
1979.749496429288
 30
0.0
 11
28121.604341291921
 21
1955.7494964292871
 31
0.0
1001
AUTOCAD_POSTSCRIPT_FIGURE
1002
{
1000
PSFILL
1000
Grayscale
1000
Grayscale
1070
   100
1002
}
  0
LINE
  5
1005E
  8
YODOROGO
 10
28137.604341291921
 20
1979.749496429288
 30
0.0
 11
28121.604341291921
 21
1979.749496429288
 31
0.0
1001
AUTOCAD_POSTSCRIPT_FIGURE
1002
{
1000
PSFILL
1000
Grayscale
1000
Grayscale
1070
   100
1002
}
  0
LINE
  5
1005F
  8
YODOROGO
 10
28137.604341291921
 20
1955.7494964292871
 30
0.0
 11
28137.604341291921
 21
1979.749496429288
 31
0.0
1001
AUTOCAD_POSTSCRIPT_FIGURE
1002
{
1000
PSFILL
1000
Grayscale
1000
Grayscale
1070
   100
1002
}
  0
LINE
  5
10060
  8
YODOROGO
 10
28137.604341291921
 20
1939.749496429288
 30
0.0
 11
28137.604341291921
 21
1955.7494964292871
 31
0.0
1001
AUTOCAD_POSTSCRIPT_FIGURE
1002
{
1000
PSFILL
1000
Grayscale
1000
Grayscale
1070
   100
1002
}
  0
LINE
  5
10061
  8
YODOROGO
 10
28098.902986873411
 20
1939.749496429288
 30
0.0
 11
28137.604341291921
 21
1939.749496429288
 31
0.0
1001
AUTOCAD_POSTSCRIPT_FIGURE
1002
{
1000
PSFILL
1000
Grayscale
1000
Grayscale
1070
   100
1002
}
  0
LINE
  5
10062
  8
YODOROGO
 10
28137.604341291921
 20
1747.749496429286
 30
0.0
 11
28098.902986873411
 21
1939.749496429288
 31
0.0
1001
AUTOCAD_POSTSCRIPT_FIGURE
1002
{
1000
PSFILL
1000
Grayscale
1000
Grayscale
1070
   100
1002
}
  0
LINE
  5
10063
  8
YODOROGO
 10
28129.60434129191
 20
1747.749496429286
 30
0.0
 11
28137.604341291921
 21
1747.749496429286
 31
0.0
1001
AUTOCAD_POSTSCRIPT_FIGURE
1002
{
1000
PSFILL
1000
Grayscale
1000
Grayscale
1070
   100
1002
}
  0
LINE
  5
10064
  8
YODOROGO
 10
28078.06921993379
 20
1775.7407762987939
 30
0.0
 11
27977.604341291921
 21
1747.749496429286
 31
0.0
  0
LINE
  5
10065
  8
YODOROGO
 10
28078.06921993379
 20
1798.6689795290731
 30
0.0
 11
28078.06921993379
 21
1775.7407762987939
 31
0.0
  0
LINE
  5
10066
  8
YODOROGO
 10
28033.83678061287
 20
1786.816933133767
 30
0.0
 11
28078.06921993379
 21
1798.6689795290731
 31
0.0
  0
LINE
  5
10067
  8
YODOROGO
 10
28033.83678061287
 20
1872.5683489362989
 30
0.0
 11
28033.83678061287
 21
1786.816933133767
 31
0.0
  0
LINE
  5
10068
  8
YODOROGO
 10
28078.06921993379
 20
1872.5683489362989
 30
0.0
 11
28033.83678061287
 21
1872.5683489362989
 31
0.0
  0
LINE
  5
10069
  8
YODOROGO
 10
28078.06921993379
 20
1892.568348936298
 30
0.0
 11
28078.06921993379
 21
1872.5683489362989
 31
0.0
  0
LINE
  5
1006A
  8
YODOROGO
 10
27977.604341291921
 20
1892.568348936298
 30
0.0
 11
28078.06921993379
 21
1892.568348936298
 31
0.0
  0
LINE
  5
1006B
  8
YODOROGO
 10
27977.604341291921
 20
1872.5683489362989
 30
0.0
 11
27977.604341291921
 21
1892.568348936298
 31
0.0
  0
LINE
  5
1006C
  8
YODOROGO
 10
28021.836780612852
 20
1872.5683489362989
 30
0.0
 11
27977.604341291921
 21
1872.5683489362989
 31
0.0
  0
LINE
  5
1006D
  8
YODOROGO
 10
28021.836780612852
 20
1784.673339594317
 30
0.0
 11
28021.836780612852
 21
1872.5683489362989
 31
0.0
  0
LINE
  5
1006E
  8
YODOROGO
 10
27977.604341291921
 20
1771.749496429286
 30
0.0
 11
28021.836780612852
 21
1784.673339594317
 31
0.0
  0
LINE
  5
1006F
  8
YODOROGO
 10
27977.604341291921
 20
1747.749496429286
 30
0.0
 11
27977.604341291921
 21
1771.749496429286
 31
0.0
  0
LINE
  5
10070
  8
YODOROGO
 10
28001.604341291921
 20
1707.749496429288
 30
0.0
 11
28001.604341291921
 21
1683.7494964292871
 31
0.0
  0
LINE
  5
10071
  8
YODOROGO
 10
28017.604341291921
 20
1707.749496429288
 30
0.0
 11
28001.604341291921
 21
1707.749496429288
 31
0.0
  0
LINE
  5
10072
  8
YODOROGO
 10
28017.604341291921
 20
1683.7494964292871
 30
0.0
 11
28017.604341291921
 21
1707.749496429288
 31
0.0
  0
LINE
  5
10073
  8
YODOROGO
 10
28040.913204016892
 20
1683.7494964292871
 30
0.0
 11
28017.604341291921
 21
1683.7494964292871
 31
0.0
  0
LINE
  5
10074
  8
YODOROGO
 10
28001.604341291921
 20
1683.7494964292871
 30
0.0
 11
27977.604341291921
 21
1683.7494964292871
 31
0.0
  0
LINE
  5
10075
  8
YODOROGO
 10
28082.135520230921
 20
1707.749496429288
 30
0.0
 11
28098.135520230931
 21
1707.749496429288
 31
0.0
1001
AUTOCAD_POSTSCRIPT_FIGURE
1002
{
1000
PSFILL
1000
Grayscale
1000
Grayscale
1070
   100
1002
}
  0
LINE
  5
10076
  8
YODOROGO
 10
28401.60434129191
 20
1824.877625640306
 30
0.0
 11
28401.60434129191
 21
1752.877625640306
 31
0.0
1001
AUTOCAD_POSTSCRIPT_FIGURE
1002
{
1000
PSFILL
1000
Grayscale
1000
Grayscale
1070
   100
1002
}
  0
LINE
  5
10077
  8
YODOROGO
 10
28401.60434129191
 20
1916.8776256403071
 30
0.0
 11
28401.60434129191
 21
1984.877625640306
 31
0.0
1001
AUTOCAD_POSTSCRIPT_FIGURE
1002
{
1000
PSFILL
1000
Grayscale
1000
Grayscale
1070
   100
1002
}
  0
LINE
  5
10078
  8
YODOROGO
 10
28433.60434129191
 20
1819.7494964292871
 30
0.0
 11
28433.60434129191
 21
1747.74949642929
 31
0.0
  0
LINE
  5
10079
  8
YODOROGO
 10
28497.60434129191
 20
1707.749496429288
 30
0.0
 11
28433.60434129191
 21
1707.749496429288
 31
0.0
  0
LINE
  5
1007A
  8
YODOROGO
 10
28433.60434129191
 20
1747.74949642929
 30
0.0
 11
28585.604341291921
 21
1747.74949642929
 31
0.0
  0
LINE
  5
1007B
  8
YODOROGO
 10
28497.60434129191
 20
1867.7494964292871
 30
0.0
 11
28433.60434129191
 21
1867.7494964292871
 31
0.0
  0
LINE
  5
1007C
  8
YODOROGO
 10
28497.60434129191
 20
1923.7494964292871
 30
0.0
 11
28497.60434129191
 21
1867.7494964292871
 31
0.0
  0
LINE
  5
1007D
  8
YODOROGO
 10
28585.604341291921
 20
1987.7494964292871
 30
0.0
 11
28585.604341291921
 21
2027.749496429288
 31
0.0
  0
LINE
  5
1007E
  8
YODOROGO
 10
28433.60434129191
 20
1987.7494964292871
 30
0.0
 11
28585.604341291921
 21
1987.7494964292871
 31
0.0
  0
LINE
  5
1007F
  8
YODOROGO
 10
28433.60434129191
 20
1867.7494964292871
 30
0.0
 11
28433.60434129191
 21
1987.7494964292871
 31
0.0
  0
LINE
  5
10080
  8
YODOROGO
 10
29001.60434129191
 20
2027.749496429288
 30
0.0
 11
29001.60434129191
 21
1619.749496429288
 31
0.0
  0
LINE
  5
10081
  8
YODOROGO
 10
29073.604341291921
 20
1579.749496429288
 30
0.0
 11
29073.604341291921
 21
2027.749496429288
 31
0.0
  0
LINE
  5
10082
  8
YODOROGO
 10
29261.604341291921
 20
1491.749496429286
 30
0.0
 11
29261.604341291921
 21
2007.749496429288
 31
0.0
  0
LINE
  5
10083
  8
YODOROGO
 10
29197.604341291921
 20
2007.749496429288
 30
0.0
 11
29197.604341291921
 21
1491.749496429286
 31
0.0
  0
LINE
  5
10084
  8
YODOROGO
 10
29385.604341291921
 20
2027.749496429288
 30
0.0
 11
29385.604341291921
 21
1427.749496429288
 31
0.0
  0
LINE
  5
10085
  8
YODOROGO
 10
29457.604341291921
 20
1427.749496429288
 30
0.0
 11
29457.604341291921
 21
2027.749496429288
 31
0.0
  0
LINE
  5
10086
  8
YODOROGO
 10
28657.604341291921
 20
1667.749496429288
 30
0.0
 11
28657.604341291921
 21
1747.74949642929
 31
0.0
  0
LINE
  5
10087
  8
YODOROGO
 10
29885.604341291921
 20
1707.749496429288
 30
0.0
 11
29885.604341291921
 21
1667.749496429288
 31
0.0
  0
LINE
  5
10088
  8
YODOROGO
 10
29885.604341291921
 20
1707.749496429288
 30
0.0
 11
29885.604341291921
 21
1667.749496429288
 31
0.0
  0
ARC
  5
10089
  8
YODOROGO
 10
28906.911576186842
 20
1618.217864442272
 30
0.0
 40
94.705151178741644
 50
274.05244162907098
 51
0.9266642149310712
  0
ARC
  5
1008A
  8
YODOROGO
 10
28909.186170719819
 20
1592.61072861044
 30
0.0
 40
164.92042356085511
 50
271.5351210653775
 51
355.52727750585052
  0
LINE
  5
1008B
  8
YODOROGO
 10
28913.604341291921
 20
1523.7494964292871
 30
0.0
 11
28913.604341291921
 21
1427.749496429288
 31
0.0
  0
LINE
  5
1008C
  8
YODOROGO
 10
28793.60434129191
 20
1667.749496429288
 30
0.0
 11
28657.604341291921
 21
1667.749496429288
 31
0.0
  0
LINE
  5
1008D
  8
YODOROGO
 10
28793.60434129191
 20
1603.7494964292871
 30
0.0
 11
28793.60434129191
 21
1667.749496429288
 31
0.0
  0
LINE
  5
1008E
  8
YODOROGO
 10
28657.604341291921
 20
1603.7494964292871
 30
0.0
 11
28793.60434129191
 21
1603.7494964292871
 31
0.0
  0
LINE
  5
1008F
  8
YODOROGO
 10
28657.604341291921
 20
1523.7494964292871
 30
0.0
 11
28657.604341291921
 21
1603.7494964292871
 31
0.0
  0
LINE
  5
10090
  8
YODOROGO
 10
28793.60434129191
 20
1523.7494964292871
 30
0.0
 11
28657.604341291921
 21
1523.7494964292871
 31
0.0
  0
LINE
  5
10091
  8
YODOROGO
 10
28793.60434129191
 20
1427.749496429288
 30
0.0
 11
28793.60434129191
 21
1523.7494964292871
 31
0.0
  0
LINE
  5
10092
  8
YODOROGO
 10
29197.604341291921
 20
1491.749496429286
 30
0.0
 11
29261.604341291921
 21
1491.749496429286
 31
0.0
  0
LINE
  5
10093
  8
YODOROGO
 10
29385.604341291921
 20
1427.749496429288
 30
0.0
 11
29457.604341291921
 21
1427.749496429288
 31
0.0
  0
LINE
  5
10094
  8
YODOROGO
 10
29737.604341291921
 20
1528.4414521705639
 30
0.0
 11
29737.604341291921
 21
1427.749496429288
 31
0.0
  0
LINE
  5
10095
  8
YODOROGO
 10
29617.604341291921
 20
1427.749496429288
 30
0.0
 11
29737.604341291921
 21
1528.4414521705639
 31
0.0
  0
LINE
  5
10096
  8
YODOROGO
 10
29617.604341291921
 20
1547.749496429288
 30
0.0
 11
29617.604341291921
 21
1427.749496429288
 31
0.0
  0
LINE
  5
10097
  8
YODOROGO
 10
29712.94462869945
 20
1627.749496429288
 30
0.0
 11
29617.604341291921
 21
1547.749496429288
 31
0.0
  0
LINE
  5
10098
  8
YODOROGO
 10
29617.604341291921
 20
1627.749496429288
 30
0.0
 11
29712.94462869945
 21
1627.749496429288
 31
0.0
  0
LINE
  5
10099
  8
YODOROGO
 10
29617.604341291921
 20
1667.749496429288
 30
0.0
 11
29617.604341291921
 21
1627.749496429288
 31
0.0
  0
LINE
  5
1009A
  8
YODOROGO
 10
29885.604341291921
 20
1667.749496429288
 30
0.0
 11
29617.604341291921
 21
1667.749496429288
 31
0.0
  0
LINE
  5
1009B
  8
YODOROGO
 10
29917.604341291921
 20
1627.749496429288
 30
0.0
 11
29777.604341291921
 21
1627.749496429288
 31
0.0
  0
LINE
  5
1009C
  8
YODOROGO
 10
29777.604341291921
 20
1562.0054374176559
 30
0.0
 11
29771.409872985321
 21
1556.807661346234
 31
0.0
  0
LINE
  5
1009D
  8
YODOROGO
 10
29777.604341291921
 20
1627.749496429288
 30
0.0
 11
29777.604341291921
 21
1562.0054374176559
 31
0.0
  0
LINE
  5
1009E
  8
YODOROGO
 10
29737.604341291921
 20
1528.4414521705639
 30
0.0
 11
29737.604341291921
 21
1427.749496429288
 31
0.0
  0
LINE
  5
1009F
  8
YODOROGO
 10
29617.604341291921
 20
1427.749496429288
 30
0.0
 11
29737.604341291921
 21
1528.4414521705639
 31
0.0
  0
LINE
  5
100A0
  8
YODOROGO
 10
29617.604341291921
 20
1547.749496429288
 30
0.0
 11
29617.604341291921
 21
1427.749496429288
 31
0.0
  0
LINE
  5
100A1
  8
YODOROGO
 10
29712.94462869945
 20
1627.749496429288
 30
0.0
 11
29617.604341291921
 21
1547.749496429288
 31
0.0
  0
LINE
  5
100A2
  8
YODOROGO
 10
29617.604341291921
 20
1627.749496429288
 30
0.0
 11
29712.94462869945
 21
1627.749496429288
 31
0.0
  0
LINE
  5
100A3
  8
YODOROGO
 10
29617.604341291921
 20
1667.749496429288
 30
0.0
 11
29617.604341291921
 21
1627.749496429288
 31
0.0
  0
LINE
  5
100A4
  8
YODOROGO
 10
29885.604341291921
 20
1667.749496429288
 30
0.0
 11
29617.604341291921
 21
1667.749496429288
 31
0.0
  0
LINE
  5
100A5
  8
YODOROGO
 10
28793.60434129191
 20
1747.74949642929
 30
0.0
 11
28793.60434129191
 21
1819.7494964292871
 31
0.0
  0
LINE
  5
100A6
  8
YODOROGO
 10
28657.604341291921
 20
1747.74949642929
 30
0.0
 11
28793.60434129191
 21
1747.74949642929
 31
0.0
  0
LINE
  5
100A7
  8
YODOROGO
 10
28729.604341291921
 20
1867.7494964292871
 30
0.0
 11
28729.604341291921
 21
1923.7494964292871
 31
0.0
  0
LINE
  5
100A8
  8
YODOROGO
 10
28793.60434129191
 20
1867.7494964292871
 30
0.0
 11
28729.604341291921
 21
1867.7494964292871
 31
0.0
  0
LINE
  5
100A9
  8
YODOROGO
 10
28793.60434129191
 20
1947.749496429288
 30
0.0
 11
28793.60434129191
 21
1867.7494964292871
 31
0.0
  0
ARC
  5
100AA
  8
YODOROGO
 10
28753.60434129191
 20
1947.749496429288
 30
0.0
 40
40.0
 50
0.0
 51
90.0
  0
LINE
  5
100AB
  8
YODOROGO
 10
28657.604341291921
 20
1987.7494964292871
 30
0.0
 11
28753.60434129191
 21
1987.7494964292871
 31
0.0
  0
LINE
  5
100AC
  8
YODOROGO
 10
28657.604341291921
 20
2027.749496429288
 30
0.0
 11
28657.604341291921
 21
1987.7494964292871
 31
0.0
  0
LINE
  5
100AD
  8
YODOROGO
 10
29073.604341291921
 20
2027.749496429288
 30
0.0
 11
29001.60434129191
 21
2027.749496429288
 31
0.0
  0
LINE
  5
100AE
  8
YODOROGO
 10
29261.604341291921
 20
2007.749496429288
 30
0.0
 11
29197.604341291921
 21
2007.749496429288
 31
0.0
  0
LINE
  5
100AF
  8
YODOROGO
 10
29457.604341291921
 20
2027.749496429288
 30
0.0
 11
29385.604341291921
 21
2027.749496429288
 31
0.0
  0
LINE
  5
100B0
  8
YODOROGO
 10
29673.604341291921
 20
1707.749496429288
 30
0.0
 11
29673.604341291921
 21
1771.7494964292871
 31
0.0
1001
AUTOCAD_POSTSCRIPT_FIGURE
1002
{
1000
PSFILL
1000
Grayscale
1000
Grayscale
1070
    25
1002
}
  0
LINE
  5
100B1
  8
YODOROGO
 10
29617.604341291921
 20
1707.749496429288
 30
0.0
 11
29673.604341291921
 21
1707.749496429288
 31
0.0
1001
AUTOCAD_POSTSCRIPT_FIGURE
1002
{
1000
PSFILL
1000
Grayscale
1000
Grayscale
1070
    25
1002
}
  0
LINE
  5
100B2
  8
YODOROGO
 10
29617.604341291921
 20
1819.7494964292871
 30
0.0
 11
29617.604341291921
 21
1707.749496429288
 31
0.0
1001
AUTOCAD_POSTSCRIPT_FIGURE
1002
{
1000
PSFILL
1000
Grayscale
1000
Grayscale
1070
    25
1002
}
  0
LINE
  5
100B3
  8
YODOROGO
 10
29765.604341291921
 20
1819.7494964292871
 30
0.0
 11
29617.604341291921
 21
1819.7494964292871
 31
0.0
1001
AUTOCAD_POSTSCRIPT_FIGURE
1002
{
1000
PSFILL
1000
Grayscale
1000
Grayscale
1070
    25
1002
}
  0
LINE
  5
100B4
  8
YODOROGO
 10
29765.604341291921
 20
1859.749496429288
 30
0.0
 11
29765.604341291921
 21
1819.7494964292871
 31
0.0
1001
AUTOCAD_POSTSCRIPT_FIGURE
1002
{
1000
PSFILL
1000
Grayscale
1000
Grayscale
1070
    25
1002
}
  0
LINE
  5
100B5
  8
YODOROGO
 10
29617.604341291921
 20
1859.749496429288
 30
0.0
 11
29765.604341291921
 21
1859.749496429288
 31
0.0
1001
AUTOCAD_POSTSCRIPT_FIGURE
1002
{
1000
PSFILL
1000
Grayscale
1000
Grayscale
1070
    25
1002
}
  0
LINE
  5
100B6
  8
YODOROGO
 10
29617.604341291921
 20
1907.7494964292871
 30
0.0
 11
29617.604341291921
 21
1859.749496429288
 31
0.0
1001
AUTOCAD_POSTSCRIPT_FIGURE
1002
{
1000
PSFILL
1000
Grayscale
1000
Grayscale
1070
    25
1002
}
  0
LINE
  5
100B7
  8
YODOROGO
 10
29765.604341291921
 20
1907.7494964292871
 30
0.0
 11
29617.604341291921
 21
1907.7494964292871
 31
0.0
1001
AUTOCAD_POSTSCRIPT_FIGURE
1002
{
1000
PSFILL
1000
Grayscale
1000
Grayscale
1070
    25
1002
}
  0
LINE
  5
100B8
  8
YODOROGO
 10
29765.604341291921
 20
1947.749496429288
 30
0.0
 11
29765.604341291921
 21
1907.7494964292871
 31
0.0
1001
AUTOCAD_POSTSCRIPT_FIGURE
1002
{
1000
PSFILL
1000
Grayscale
1000
Grayscale
1070
    25
1002
}
  0
LINE
  5
100B9
  8
YODOROGO
 10
29617.604341291921
 20
1947.749496429288
 30
0.0
 11
29765.604341291921
 21
1947.749496429288
 31
0.0
1001
AUTOCAD_POSTSCRIPT_FIGURE
1002
{
1000
PSFILL
1000
Grayscale
1000
Grayscale
1070
    25
1002
}
  0
LINE
  5
100BA
  8
YODOROGO
 10
29617.604341291921
 20
2027.749496429288
 30
0.0
 11
29617.604341291921
 21
1947.749496429288
 31
0.0
1001
AUTOCAD_POSTSCRIPT_FIGURE
1002
{
1000
PSFILL
1000
Grayscale
1000
Grayscale
1070
    25
1002
}
  0
LINE
  5
100BB
  8
YODOROGO
 10
29665.604341291921
 20
2027.749496429288
 30
0.0
 11
29617.604341291921
 21
2027.749496429288
 31
0.0
1001
AUTOCAD_POSTSCRIPT_FIGURE
1002
{
1000
PSFILL
1000
Grayscale
1000
Grayscale
1070
    25
1002
}
  0
LINE
  5
100BC
  8
YODOROGO
 10
29665.604341291921
 20
1995.7494964292871
 30
0.0
 11
29665.604341291921
 21
2027.749496429288
 31
0.0
1001
AUTOCAD_POSTSCRIPT_FIGURE
1002
{
1000
PSFILL
1000
Grayscale
1000
Grayscale
1070
    25
1002
}
  0
LINE
  5
100BD
  8
YODOROGO
 10
29765.604341291921
 20
1995.7494964292871
 30
0.0
 11
29665.604341291921
 21
1995.7494964292871
 31
0.0
1001
AUTOCAD_POSTSCRIPT_FIGURE
1002
{
1000
PSFILL
1000
Grayscale
1000
Grayscale
1070
    25
1002
}
  0
LINE
  5
100BE
  8
YODOROGO
 10
29765.604341291921
 20
2027.749496429288
 30
0.0
 11
29765.604341291921
 21
1995.7494964292871
 31
0.0
1001
AUTOCAD_POSTSCRIPT_FIGURE
1002
{
1000
PSFILL
1000
Grayscale
1000
Grayscale
1070
    25
1002
}
  0
LINE
  5
100BF
  8
YODOROGO
 10
29829.604341291921
 20
2027.749496429288
 30
0.0
 11
29765.604341291921
 21
2027.749496429288
 31
0.0
1001
AUTOCAD_POSTSCRIPT_FIGURE
1002
{
1000
PSFILL
1000
Grayscale
1000
Grayscale
1070
    25
1002
}
  0
LINE
  5
100C0
  8
YODOROGO
 10
29829.604341291921
 20
1995.7494964292871
 30
0.0
 11
29829.604341291921
 21
2027.749496429288
 31
0.0
1001
AUTOCAD_POSTSCRIPT_FIGURE
1002
{
1000
PSFILL
1000
Grayscale
1000
Grayscale
1070
    25
1002
}
  0
LINE
  5
100C1
  8
YODOROGO
 10
29829.604341291921
 20
1907.7494964292871
 30
0.0
 11
29829.604341291921
 21
1947.749496429288
 31
0.0
1001
AUTOCAD_POSTSCRIPT_FIGURE
1002
{
1000
PSFILL
1000
Grayscale
1000
Grayscale
1070
    25
1002
}
  0
LINE
  5
100C2
  8
YODOROGO
 10
29829.604341291921
 20
1819.7494964292871
 30
0.0
 11
29829.604341291921
 21
1859.749496429288
 31
0.0
1001
AUTOCAD_POSTSCRIPT_FIGURE
1002
{
1000
PSFILL
1000
Grayscale
1000
Grayscale
1070
    25
1002
}
  0
LINE
  5
100C3
  8
YODOROGO
 10
29921.60434129191
 20
1771.7494964292871
 30
0.0
 11
29921.60434129191
 21
1707.749496429288
 31
0.0
1001
AUTOCAD_POSTSCRIPT_FIGURE
1002
{
1000
PSFILL
1000
Grayscale
1000
Grayscale
1070
    25
1002
}
  0
LINE
  5
100C4
  8
YODOROGO
 10
29829.604341291921
 20
1771.7494964292871
 30
0.0
 11
29921.60434129191
 21
1771.7494964292871
 31
0.0
1001
AUTOCAD_POSTSCRIPT_FIGURE
1002
{
1000
PSFILL
1000
Grayscale
1000
Grayscale
1070
    25
1002
}
  0
LINE
  5
100C5
  8
YODOROGO
 10
29829.604341291921
 20
1707.749496429288
 30
0.0
 11
29829.604341291921
 21
1771.7494964292871
 31
0.0
1001
AUTOCAD_POSTSCRIPT_FIGURE
1002
{
1000
PSFILL
1000
Grayscale
1000
Grayscale
1070
    25
1002
}
  0
LINE
  5
100C6
  8
YODOROGO
 10
29765.604341291921
 20
1707.749496429288
 30
0.0
 11
29829.604341291921
 21
1707.749496429288
 31
0.0
1001
AUTOCAD_POSTSCRIPT_FIGURE
1002
{
1000
PSFILL
1000
Grayscale
1000
Grayscale
1070
    25
1002
}
  0
LINE
  5
100C7
  8
YODOROGO
 10
29765.604341291921
 20
1771.7494964292871
 30
0.0
 11
29765.604341291921
 21
1707.749496429288
 31
0.0
1001
AUTOCAD_POSTSCRIPT_FIGURE
1002
{
1000
PSFILL
1000
Grayscale
1000
Grayscale
1070
    25
1002
}
  0
LINE
  5
100C8
  8
YODOROGO
 10
29673.604341291921
 20
1771.7494964292871
 30
0.0
 11
29765.604341291921
 21
1771.7494964292871
 31
0.0
1001
AUTOCAD_POSTSCRIPT_FIGURE
1002
{
1000
PSFILL
1000
Grayscale
1000
Grayscale
1070
    25
1002
}
  0
ARC
  5
100C9
  8
YODOROGO
 10
31059.517893357912
 20
1602.6807375155761
 30
0.0
 40
178.22128111072141
 50
281.02627495425338
 51
357.77113575573799
  0
LINE
  5
100CA
  8
YODOROGO
 10
31413.604341291921
 20
1907.7494964292871
 30
0.0
 11
31165.604341291921
 21
1907.7494964292871
 31
0.0
  0
LINE
  5
100CB
  8
YODOROGO
 10
31413.604341291921
 20
2027.749496429288
 30
0.0
 11
31165.604341291921
 21
2027.749496429288
 31
0.0
  0
LINE
  5
100CC
  8
YODOROGO
 10
31165.604341291921
 20
1963.749496429286
 30
0.0
 11
31413.604341291921
 21
1963.749496429286
 31
0.0
  0
LINE
  5
100CD
  8
YODOROGO
 10
30791.604341291921
 20
1563.7494964292871
 30
0.0
 11
30791.604341291921
 21
1755.7494964292871
 31
0.0
  0
LINE
  5
100CE
  8
YODOROGO
 10
30763.604341291921
 20
1691.749496429288
 30
0.0
 11
30763.604341291921
 21
1563.7494964292871
 31
0.0
  0
LINE
  5
100CF
  8
YODOROGO
 10
30723.604341291921
 20
1491.749496429288
 30
0.0
 11
30723.604341291921
 21
1691.749496429288
 31
0.0
  0
LINE
  5
100D0
  8
YODOROGO
 10
30899.604341291932
 20
1691.749496429288
 30
0.0
 11
30899.604341291932
 21
1491.749496429288
 31
0.0
  0
LINE
  5
100D1
  8
YODOROGO
 10
30859.604341291932
 20
1563.7494964292871
 30
0.0
 11
30859.604341291932
 21
1691.749496429288
 31
0.0
  0
LINE
  5
100D2
  8
YODOROGO
 10
30831.604341291921
 20
1755.7494964292871
 30
0.0
 11
30831.604341291921
 21
1563.7494964292871
 31
0.0
  0
LINE
  5
100D3
  8
YODOROGO
 10
30973.604341291921
 20
2027.749496429288
 30
0.0
 11
30973.604341291921
 21
1467.749496429288
 31
0.0
  0
LINE
  5
100D4
  8
YODOROGO
 10
30645.604341291921
 20
1427.749496429288
 30
0.0
 11
30645.604341291921
 21
2027.749496429288
 31
0.0
  0
LINE
  5
100D5
  8
YODOROGO
 10
30697.604341291932
 20
1963.749496429286
 30
0.0
 11
30697.604341291932
 21
1427.749496429288
 31
0.0
  0
LINE
  5
100D6
  8
YODOROGO
 10
30925.604341291921
 20
1547.749496429288
 30
0.0
 11
30925.604341291921
 21
1963.749496429286
 31
0.0
  0
LINE
  5
100D7
  8
YODOROGO
 10
30381.604341291932
 20
1627.749496429288
 30
0.0
 11
30381.604341291932
 21
1679.749496429288
 31
0.0
  0
LINE
  5
100D8
  8
YODOROGO
 10
30617.604341291921
 20
1679.749496429288
 30
0.0
 11
30617.604341291921
 21
1627.749496429288
 31
0.0
  0
LINE
  5
100D9
  8
YODOROGO
 10
31165.604341291921
 20
1907.7494964292871
 30
0.0
 11
31165.604341291921
 21
1635.7494964292871
 31
0.0
  0
LINE
  5
100DA
  8
YODOROGO
 10
29949.60434129191
 20
1667.749496429288
 30
0.0
 11
29949.60434129191
 21
1707.749496429288
 31
0.0
  0
LINE
  5
100DB
  8
YODOROGO
 10
29949.60434129191
 20
1667.749496429288
 30
0.0
 11
29949.60434129191
 21
1707.749496429288
 31
0.0
  0
ARC
  5
100DC
  8
YODOROGO
 10
30537.604341291921
 20
1507.749496429288
 30
0.0
 40
80.0
 50
270.0
 51
0.0
  0
LINE
  5
100DD
  8
YODOROGO
 10
30569.604341291921
 20
1599.7494964292871
 30
0.0
 11
30617.604341291921
 21
1599.7494964292871
 31
0.0
  0
LINE
  5
100DE
  8
YODOROGO
 10
30617.604341291921
 20
1627.749496429288
 30
0.0
 11
30529.604341291939
 21
1627.749496429288
 31
0.0
  0
LINE
  5
100DF
  8
YODOROGO
 10
30217.604341291921
 20
1667.749496429288
 30
0.0
 11
29949.60434129191
 21
1667.749496429288
 31
0.0
  0
LINE
  5
100E0
  8
YODOROGO
 10
30217.604341291921
 20
1627.749496429288
 30
0.0
 11
30217.604341291921
 21
1667.749496429288
 31
0.0
  0
LINE
  5
100E1
  8
YODOROGO
 10
30017.604341291921
 20
1627.749496429288
 30
0.0
 11
30217.604341291921
 21
1627.749496429288
 31
0.0
  0
ARC
  5
100E2
  8
YODOROGO
 10
30230.05882870136
 20
1868.885714952901
 30
0.0
 40
321.37763628522822
 50
228.6181454618993
 51
245.660289248906
  0
LINE
  5
100E3
  8
YODOROGO
 10
30105.604341291921
 20
1603.7494964292871
 30
0.0
 11
30097.60434129195
 21
1576.0728158699001
 31
0.0
  0
LINE
  5
100E4
  8
YODOROGO
 10
30189.604341291921
 20
1603.7494964292871
 30
0.0
 11
30105.604341291921
 21
1603.7494964292871
 31
0.0
  0
LINE
  5
100E5
  8
YODOROGO
 10
30177.604341291921
 20
1551.817722473427
 30
0.0
 11
30189.604341291921
 21
1603.7494964292871
 31
0.0
  0
ARC
  5
100E6
  8
YODOROGO
 10
30230.05882870045
 20
1868.885714953002
 30
0.0
 40
321.37763628529081
 50
260.60629297969911
 51
267.77903556555862
  0
LINE
  5
100E7
  8
YODOROGO
 10
30217.604341291921
 20
1427.749496429285
 30
0.0
 11
30217.604341291921
 21
1547.749496429288
 31
0.0
  0
LINE
  5
100E8
  8
YODOROGO
 10
29937.604341291932
 20
1481.3393349155101
 30
0.0
 11
29937.604341291921
 21
1594.531090531141
 31
0.0
  0
LINE
  5
100E9
  8
YODOROGO
 10
30217.604341291921
 20
1667.749496429288
 30
0.0
 11
29949.60434129191
 21
1667.749496429288
 31
0.0
  0
LINE
  5
100EA
  8
YODOROGO
 10
30217.604341291921
 20
1627.749496429288
 30
0.0
 11
30217.604341291921
 21
1667.749496429288
 31
0.0
  0
LINE
  5
100EB
  8
YODOROGO
 10
30017.604341291921
 20
1627.749496429288
 30
0.0
 11
30217.604341291921
 21
1627.749496429288
 31
0.0
  0
ARC
  5
100EC
  8
YODOROGO
 10
30230.05882870136
 20
1868.885714952901
 30
0.0
 40
321.37763628522822
 50
228.6181454618993
 51
245.660289248906
  0
LINE
  5
100ED
  8
YODOROGO
 10
30105.604341291921
 20
1603.7494964292871
 30
0.0
 11
30097.60434129195
 21
1576.0728158699001
 31
0.0
  0
LINE
  5
100EE
  8
YODOROGO
 10
30189.604341291921
 20
1603.7494964292871
 30
0.0
 11
30105.604341291921
 21
1603.7494964292871
 31
0.0
  0
LINE
  5
100EF
  8
YODOROGO
 10
30177.604341291921
 20
1551.817722473427
 30
0.0
 11
30189.604341291921
 21
1603.7494964292871
 31
0.0
  0
ARC
  5
100F0
  8
YODOROGO
 10
30230.05882870045
 20
1868.885714953002
 30
0.0
 40
321.37763628529081
 50
260.60629297969911
 51
267.77903556555862
  0
LINE
  5
100F1
  8
YODOROGO
 10
30217.604341291921
 20
1427.749496429285
 30
0.0
 11
30217.604341291921
 21
1547.749496429288
 31
0.0
  0
LINE
  5
100F2
  8
YODOROGO
 10
29937.604341291932
 20
1481.3393349155101
 30
0.0
 11
29937.604341291921
 21
1594.531090531141
 31
0.0
  0
LINE
  5
100F3
  8
YODOROGO
 10
30433.604341291921
 20
1573.749496429288
 30
0.0
 11
30381.604341291932
 21
1573.749496429288
 31
0.0
  0
LINE
  5
100F4
  8
YODOROGO
 10
30433.604341291921
 20
1601.749496429285
 30
0.0
 11
30433.604341291921
 21
1573.749496429288
 31
0.0
  0
LINE
  5
100F5
  8
YODOROGO
 10
30381.604341291932
 20
1601.749496429285
 30
0.0
 11
30433.604341291921
 21
1601.749496429285
 31
0.0
  0
LINE
  5
100F6
  8
YODOROGO
 10
30381.604341291932
 20
1573.749496429288
 30
0.0
 11
30381.604341291932
 21
1601.749496429285
 31
0.0
  0
LINE
  5
100F7
  8
YODOROGO
 10
30429.604341291921
 20
1577.7494964292871
 30
0.0
 11
30385.604341291921
 21
1577.7494964292871
 31
0.0
  0
LINE
  5
100F8
  8
YODOROGO
 10
30429.604341291921
 20
1597.749496429288
 30
0.0
 11
30429.604341291921
 21
1577.7494964292871
 31
0.0
  0
LINE
  5
100F9
  8
YODOROGO
 10
30385.604341291921
 20
1597.749496429288
 30
0.0
 11
30429.604341291921
 21
1597.749496429288
 31
0.0
  0
LINE
  5
100FA
  8
YODOROGO
 10
30385.604341291921
 20
1577.7494964292871
 30
0.0
 11
30385.604341291921
 21
1597.749496429288
 31
0.0
  0
LINE
  5
100FB
  8
YODOROGO
 10
30425.604341291921
 20
1581.749496429286
 30
0.0
 11
30389.604341291921
 21
1581.749496429286
 31
0.0
  0
LINE
  5
100FC
  8
YODOROGO
 10
30425.604341291921
 20
1593.749496429288
 30
0.0
 11
30425.604341291921
 21
1581.749496429286
 31
0.0
  0
LINE
  5
100FD
  8
YODOROGO
 10
30389.604341291921
 20
1593.749496429288
 30
0.0
 11
30425.604341291921
 21
1593.749496429288
 31
0.0
  0
LINE
  5
100FE
  8
YODOROGO
 10
30389.604341291921
 20
1581.749496429286
 30
0.0
 11
30389.604341291921
 21
1593.749496429288
 31
0.0
  0
LINE
  5
100FF
  8
YODOROGO
 10
30421.604341291932
 20
1585.7494964292871
 30
0.0
 11
30393.604341291921
 21
1585.7494964292871
 31
0.0
  0
LINE
  5
10100
  8
YODOROGO
 10
30421.604341291932
 20
1589.749496429288
 30
0.0
 11
30421.604341291932
 21
1585.7494964292871
 31
0.0
  0
LINE
  5
10101
  8
YODOROGO
 10
30393.604341291921
 20
1589.749496429288
 30
0.0
 11
30421.604341291932
 21
1589.749496429288
 31
0.0
  0
LINE
  5
10102
  8
YODOROGO
 10
30393.604341291921
 20
1585.7494964292871
 30
0.0
 11
30393.604341291921
 21
1589.749496429288
 31
0.0
  0
LINE
  5
10103
  8
YODOROGO
 10
30465.604341291921
 20
1627.749496429288
 30
0.0
 11
30381.604341291932
 21
1627.749496429288
 31
0.0
  0
LINE
  5
10104
  8
YODOROGO
 10
30465.604341291921
 20
1547.749496429288
 30
0.0
 11
30465.604341291921
 21
1627.749496429288
 31
0.0
  0
LINE
  5
10105
  8
YODOROGO
 10
30381.604341291932
 20
1547.749496429288
 30
0.0
 11
30465.604341291921
 21
1547.749496429288
 31
0.0
  0
LINE
  5
10106
  8
YODOROGO
 10
30381.604341291932
 20
1427.749496429288
 30
0.0
 11
30381.604341291932
 21
1547.749496429288
 31
0.0
  0
LINE
  5
10107
  8
YODOROGO
 10
30537.604341291921
 20
1427.749496429288
 30
0.0
 11
30381.604341291932
 21
1427.749496429288
 31
0.0
  0
LINE
  5
10108
  8
YODOROGO
 10
30569.604341291921
 20
1571.749496429285
 30
0.0
 11
30569.604341291921
 21
1599.7494964292871
 31
0.0
  0
ARC
  5
10109
  8
YODOROGO
 10
30545.604341291921
 20
1571.749496429291
 30
0.0
 40
24.000000000003752
 50
270.0
 51
359.99999999998772
  0
LINE
  5
1010A
  8
YODOROGO
 10
30529.604341291939
 20
1547.749496429288
 30
0.0
 11
30545.604341291921
 21
1547.749496429288
 31
0.0
  0
LINE
  5
1010B
  8
YODOROGO
 10
30529.604341291939
 20
1627.749496429288
 30
0.0
 11
30529.604341291939
 21
1547.749496429288
 31
0.0
  0
LINE
  5
1010C
  8
YODOROGO
 10
30899.604341291932
 20
1547.749496429288
 30
0.0
 11
30925.604341291921
 21
1547.749496429288
 31
0.0
  0
LINE
  5
1010D
  8
YODOROGO
 10
30933.604341291921
 20
1427.749496429288
 30
0.0
 11
30899.604341291932
 21
1427.749496429288
 31
0.0
  0
LINE
  5
1010E
  8
YODOROGO
 10
30763.604341291921
 20
1563.7494964292871
 30
0.0
 11
30791.604341291921
 21
1563.7494964292871
 31
0.0
  0
LINE
  5
1010F
  8
YODOROGO
 10
30899.604341291932
 20
1491.749496429288
 30
0.0
 11
30723.604341291921
 21
1491.749496429288
 31
0.0
  0
LINE
  5
10110
  8
YODOROGO
 10
30831.604341291921
 20
1563.7494964292871
 30
0.0
 11
30859.604341291932
 21
1563.7494964292871
 31
0.0
  0
LINE
  5
10111
  8
YODOROGO
 10
30899.604341291932
 20
1427.749496429288
 30
0.0
 11
30899.604341291932
 21
1547.749496429288
 31
0.0
  0
LINE
  5
10112
  8
YODOROGO
 10
30697.604341291932
 20
1427.749496429288
 30
0.0
 11
30645.604341291921
 21
1427.749496429288
 31
0.0
  0
LINE
  5
10113
  8
YODOROGO
 10
30617.604341291921
 20
1599.7494964292871
 30
0.0
 11
30617.604341291921
 21
1507.749496429288
 31
0.0
  0
ARC
  5
10114
  8
YODOROGO
 10
30933.604341291921
 20
1467.749496429288
 30
0.0
 40
40.0
 50
270.0
 51
0.0
  0
LINE
  5
10115
  8
YODOROGO
 10
31093.604341291921
 20
1523.7494964292871
 30
0.0
 11
31093.604341291921
 21
1427.749496429288
 31
0.0
  0
ARC
  5
10116
  8
YODOROGO
 10
31039.721395566768
 20
1637.5313901097329
 30
0.0
 40
125.8955565916754
 50
295.34052442160112
 51
359.18902303418679
  0
LINE
  5
10117
  8
YODOROGO
 10
30617.604341291921
 20
1859.749496429288
 30
0.0
 11
30497.604341291921
 21
1939.749496429288
 31
0.0
  0
LINE
  5
10118
  8
YODOROGO
 10
30497.604341291921
 20
2027.749496429288
 30
0.0
 11
30617.604341291921
 21
1947.749496429288
 31
0.0
  0
LINE
  5
10119
  8
YODOROGO
 10
30529.604341291939
 20
1679.749496429288
 30
0.0
 11
30617.604341291921
 21
1679.749496429288
 31
0.0
  0
LINE
  5
1011A
  8
YODOROGO
 10
30617.604341291921
 20
1735.7494964292871
 30
0.0
 11
30529.604341291939
 21
1735.7494964292871
 31
0.0
  0
LINE
  5
1011B
  8
YODOROGO
 10
30381.604341291932
 20
1795.7494964292871
 30
0.0
 11
30617.604341291921
 21
1795.7494964292871
 31
0.0
  0
LINE
  5
1011C
  8
YODOROGO
 10
30081.604341291921
 20
2027.749496429288
 30
0.0
 11
30021.604341291921
 21
2027.749496429288
 31
0.0
  0
LINE
  5
1011D
  8
YODOROGO
 10
30081.604341291921
 20
1827.7494964292871
 30
0.0
 11
30081.604341291921
 21
2027.749496429288
 31
0.0
  0
LINE
  5
1011E
  8
YODOROGO
 10
30021.604341291921
 20
1827.7494964292871
 30
0.0
 11
30081.604341291921
 21
1827.7494964292871
 31
0.0
  0
LINE
  5
1011F
  8
YODOROGO
 10
30021.604341291921
 20
2027.749496429288
 30
0.0
 11
30021.604341291921
 21
1827.7494964292871
 31
0.0
  0
LINE
  5
10120
  8
YODOROGO
 10
30161.604341291921
 20
2027.749496429288
 30
0.0
 11
30217.604341291921
 21
2027.749496429288
 31
0.0
  0
LINE
  5
10121
  8
YODOROGO
 10
30161.604341291921
 20
1811.749496429288
 30
0.0
 11
30161.604341291921
 21
2027.749496429288
 31
0.0
  0
ARC
  5
10122
  8
YODOROGO
 10
30121.604341291921
 20
1811.749496429288
 30
0.0
 40
40.0
 50
270.0
 51
0.0
  0
LINE
  5
10123
  8
YODOROGO
 10
30021.604341291921
 20
1771.7494964292871
 30
0.0
 11
30121.604341291921
 21
1771.7494964292871
 31
0.0
  0
LINE
  5
10124
  8
YODOROGO
 10
30021.604341291921
 20
1707.749496429288
 30
0.0
 11
30021.604341291921
 21
1771.7494964292871
 31
0.0
  0
LINE
  5
10125
  8
YODOROGO
 10
30137.604341291921
 20
1707.749496429288
 30
0.0
 11
30021.604341291921
 21
1707.749496429288
 31
0.0
  0
ARC
  5
10126
  8
YODOROGO
 10
30137.604341291921
 20
1787.7494964292871
 30
0.0
 40
80.0
 50
270.0
 51
0.0
  0
LINE
  5
10127
  8
YODOROGO
 10
30217.604341291921
 20
2027.749496429288
 30
0.0
 11
30217.604341291921
 21
1787.7494964292871
 31
0.0
  0
LINE
  5
10128
  8
YODOROGO
 10
29977.604341291921
 20
1947.749496429288
 30
0.0
 11
29977.604341291921
 21
1995.7494964292871
 31
0.0
1001
AUTOCAD_POSTSCRIPT_FIGURE
1002
{
1000
PSFILL
1000
Grayscale
1000
Grayscale
1070
    25
1002
}
  0
LINE
  5
10129
  8
YODOROGO
 10
29977.604341291921
 20
1859.749496429288
 30
0.0
 11
29977.604341291921
 21
1907.7494964292871
 31
0.0
1001
AUTOCAD_POSTSCRIPT_FIGURE
1002
{
1000
PSFILL
1000
Grayscale
1000
Grayscale
1070
    25
1002
}
  0
LINE
  5
1012A
  8
YODOROGO
 10
29977.604341291921
 20
1707.749496429288
 30
0.0
 11
29977.604341291921
 21
1819.7494964292871
 31
0.0
1001
AUTOCAD_POSTSCRIPT_FIGURE
1002
{
1000
PSFILL
1000
Grayscale
1000
Grayscale
1070
    25
1002
}
  0
LINE
  5
1012B
  8
YODOROGO
 10
30381.604341291932
 20
1907.7494964292871
 30
0.0
 11
30497.604341291921
 21
2027.749496429288
 31
0.0
  0
LINE
  5
1012C
  8
YODOROGO
 10
30381.604341291932
 20
1819.7494964292871
 30
0.0
 11
30381.604341291932
 21
1907.7494964292871
 31
0.0
  0
LINE
  5
1012D
  8
YODOROGO
 10
30497.604341291921
 20
1939.749496429288
 30
0.0
 11
30381.604341291932
 21
1819.7494964292871
 31
0.0
  0
LINE
  5
1012E
  8
YODOROGO
 10
30465.604341291921
 20
1679.749496429288
 30
0.0
 11
30465.604341291921
 21
1735.7494964292871
 31
0.0
  0
LINE
  5
1012F
  8
YODOROGO
 10
30381.604341291932
 20
1679.749496429288
 30
0.0
 11
30465.604341291921
 21
1679.749496429288
 31
0.0
  0
LINE
  5
10130
  8
YODOROGO
 10
30529.604341291939
 20
1735.7494964292871
 30
0.0
 11
30529.604341291939
 21
1679.749496429288
 31
0.0
  0
LINE
  5
10131
  8
YODOROGO
 10
30381.604341291932
 20
1735.7494964292871
 30
0.0
 11
30381.604341291932
 21
1795.7494964292871
 31
0.0
  0
LINE
  5
10132
  8
YODOROGO
 10
30465.604341291921
 20
1735.7494964292871
 30
0.0
 11
30381.604341291932
 21
1735.7494964292871
 31
0.0
  0
LINE
  5
10133
  8
YODOROGO
 10
30645.604341291921
 20
2027.749496429288
 30
0.0
 11
30973.604341291921
 21
2027.749496429288
 31
0.0
  0
LINE
  5
10134
  8
YODOROGO
 10
30925.604341291921
 20
1963.749496429286
 30
0.0
 11
30697.604341291932
 21
1963.749496429286
 31
0.0
  0
LINE
  5
10135
  8
YODOROGO
 10
30873.604341291921
 20
1819.7494964292871
 30
0.0
 11
30899.604341291932
 21
1819.7494964292871
 31
0.0
  0
LINE
  5
10136
  8
YODOROGO
 10
30899.604341291932
 20
1939.749496429288
 30
0.0
 11
30873.604341291921
 21
1819.7494964292871
 31
0.0
  0
LINE
  5
10137
  8
YODOROGO
 10
30851.604341291939
 20
1939.749496429288
 30
0.0
 11
30899.604341291932
 21
1939.749496429288
 31
0.0
  0
LINE
  5
10138
  8
YODOROGO
 10
30825.604341291921
 20
1819.7494964292871
 30
0.0
 11
30851.604341291939
 21
1939.749496429288
 31
0.0
  0
LINE
  5
10139
  8
YODOROGO
 10
30797.604341291921
 20
1819.7494964292871
 30
0.0
 11
30825.604341291921
 21
1819.7494964292871
 31
0.0
  0
LINE
  5
1013A
  8
YODOROGO
 10
30771.604341291939
 20
1939.749496429288
 30
0.0
 11
30797.604341291921
 21
1819.7494964292871
 31
0.0
  0
LINE
  5
1013B
  8
YODOROGO
 10
30723.604341291921
 20
1939.749496429288
 30
0.0
 11
30771.604341291939
 21
1939.749496429288
 31
0.0
  0
LINE
  5
1013C
  8
YODOROGO
 10
30749.604341291921
 20
1819.7494964292871
 30
0.0
 11
30723.604341291921
 21
1939.749496429288
 31
0.0
  0
LINE
  5
1013D
  8
YODOROGO
 10
30723.604341291921
 20
1819.7494964292871
 30
0.0
 11
30749.604341291921
 21
1819.7494964292871
 31
0.0
  0
LINE
  5
1013E
  8
YODOROGO
 10
30723.604341291921
 20
1755.7494964292871
 30
0.0
 11
30723.604341291921
 21
1819.7494964292871
 31
0.0
  0
LINE
  5
1013F
  8
YODOROGO
 10
30899.604341291932
 20
1755.7494964292871
 30
0.0
 11
30723.604341291921
 21
1755.7494964292871
 31
0.0
  0
LINE
  5
10140
  8
YODOROGO
 10
30899.604341291932
 20
1819.7494964292871
 30
0.0
 11
30899.604341291932
 21
1755.7494964292871
 31
0.0
  0
LINE
  5
10141
  8
YODOROGO
 10
30617.604341291921
 20
1947.749496429288
 30
0.0
 11
30617.604341291921
 21
1859.749496429288
 31
0.0
  0
LINE
  5
10142
  8
YODOROGO
 10
30791.604341291921
 20
1755.7494964292871
 30
0.0
 11
30831.604341291921
 21
1755.7494964292871
 31
0.0
  0
LINE
  5
10143
  8
YODOROGO
 10
30723.604341291921
 20
1691.749496429288
 30
0.0
 11
30763.604341291921
 21
1691.749496429288
 31
0.0
  0
LINE
  5
10144
  8
YODOROGO
 10
30859.604341291932
 20
1691.749496429288
 30
0.0
 11
30899.604341291932
 21
1691.749496429288
 31
0.0
  0
LINE
  5
10145
  8
YODOROGO
 10
30617.604341291921
 20
1795.7494964292871
 30
0.0
 11
30617.604341291921
 21
1735.7494964292871
 31
0.0
  0
LINE
  5
10146
  8
YODOROGO
 10
31165.604341291921
 20
2027.749496429288
 30
0.0
 11
31165.604341291921
 21
1963.749496429286
 31
0.0
  0
LINE
  5
10147
  8
YODOROGO
 10
31533.604341291921
 20
1595.7494964292871
 30
0.0
 11
31533.60434129191
 21
1811.749496429288
 31
0.0
  0
LINE
  5
10148
  8
YODOROGO
 10
31461.60434129191
 20
1987.7494964292871
 30
0.0
 11
31461.60434129191
 21
1635.7494964292871
 31
0.0
  0
LINE
  5
10149
  8
YODOROGO
 10
31653.604341291921
 20
1427.749496429288
 30
0.0
 11
31653.60434129191
 21
1811.749496429288
 31
0.0
  0
LINE
  5
1014A
  8
YODOROGO
 10
31589.604341291921
 20
1811.749496429288
 30
0.0
 11
31589.604341291921
 21
1427.749496429288
 31
0.0
  0
LINE
  5
1014B
  8
YODOROGO
 10
31237.604341291921
 20
1595.7494964292871
 30
0.0
 11
31237.604341291921
 21
1707.749496429288
 31
0.0
  0
ARC
  5
1014C
  8
YODOROGO
 10
31353.914865116069
 20
1607.790351288558
 30
0.0
 40
180.0924485759885
 50
268.62849102169793
 51
356.16638457330322
  0
LINE
  5
1014D
  8
YODOROGO
 10
31349.604341291939
 20
1527.749496429288
 30
0.0
 11
31349.604341291939
 21
1427.749496429288
 31
0.0
  0
ARC
  5
1014E
  8
YODOROGO
 10
31351.518075724562
 20
1637.838957017655
 30
0.0
 40
110.1060929836122
 50
269.00410209305932
 51
358.91264455492478
  0
LINE
  5
1014F
  8
YODOROGO
 10
31589.604341291921
 20
1427.749496429288
 30
0.0
 11
31653.604341291921
 21
1427.749496429288
 31
0.0
  0
LINE
  5
10150
  8
YODOROGO
 10
31533.60434129191
 20
1811.749496429288
 30
0.0
 11
31589.604341291921
 21
1811.749496429288
 31
0.0
  0
LINE
  5
10151
  8
YODOROGO
 10
31621.604341291939
 20
1987.7494964292871
 30
0.0
 11
31461.60434129191
 21
1987.7494964292871
 31
0.0
  0
LINE
  5
10152
  8
YODOROGO
 10
31533.60434129191
 20
1915.7494964292871
 30
0.0
 11
31661.604341291939
 21
1915.7494964292871
 31
0.0
  0
LINE
  5
10153
  8
YODOROGO
 10
31701.604341291939
 20
1875.7494964292871
 30
0.0
 11
31533.60434129191
 21
1875.7494964292871
 31
0.0
  0
LINE
  5
10154
  8
YODOROGO
 10
31237.604341291921
 20
1779.749496429288
 30
0.0
 11
31349.604341291939
 21
1779.749496429288
 31
0.0
  0
LINE
  5
10155
  8
YODOROGO
 10
31237.604341291921
 20
1835.7494964292871
 30
0.0
 11
31237.604341291921
 21
1779.749496429288
 31
0.0
  0
LINE
  5
10156
  8
YODOROGO
 10
31349.604341291939
 20
1835.7494964292871
 30
0.0
 11
31237.604341291921
 21
1835.7494964292871
 31
0.0
  0
LINE
  5
10157
  8
YODOROGO
 10
31349.604341291939
 20
1779.749496429288
 30
0.0
 11
31349.604341291939
 21
1835.7494964292871
 31
0.0
  0
LINE
  5
10158
  8
YODOROGO
 10
31533.60434129191
 20
1875.7494964292871
 30
0.0
 11
31533.60434129191
 21
1915.7494964292871
 31
0.0
  0
LINE
  5
10159
  8
YODOROGO
 10
31413.604341291921
 20
1707.749496429288
 30
0.0
 11
31413.604341291921
 21
1907.7494964292871
 31
0.0
  0
LINE
  5
1015A
  8
YODOROGO
 10
31237.604341291921
 20
1707.749496429288
 30
0.0
 11
31413.604341291921
 21
1707.749496429288
 31
0.0
  0
LINE
  5
1015B
  8
YODOROGO
 10
31413.604341291921
 20
1963.749496429286
 30
0.0
 11
31413.604341291921
 21
2027.749496429288
 31
0.0
  0
ARC
  5
1015C
  8
YODOROGO
 10
31621.604341291939
 20
2003.749496429285
 30
0.0
 40
15.999999999994539
 50
270.0
 51
0.0000000000081422
  0
LINE
  5
1015D
  8
YODOROGO
 10
31637.604341291921
 20
2027.749496429288
 30
0.0
 11
31637.604341291921
 21
2003.7494964292871
 31
0.0
  0
LINE
  5
1015E
  8
YODOROGO
 10
31701.604341291939
 20
2027.749496429288
 30
0.0
 11
31637.604341291921
 21
2027.749496429288
 31
0.0
  0
LINE
  5
1015F
  8
YODOROGO
 10
31701.604341291939
 20
1955.7494964292871
 30
0.0
 11
31701.604341291939
 21
2027.749496429288
 31
0.0
  0
ARC
  5
10160
  8
YODOROGO
 10
31661.604341291939
 20
1955.7494964292871
 30
0.0
 40
40.0
 50
270.0
 51
0.0
  0
LINE
  5
10161
  8
YODOROGO
 10
31701.604341291939
 20
1811.749496429288
 30
0.0
 11
31701.604341291939
 21
1875.7494964292871
 31
0.0
  0
LINE
  5
10162
  8
YODOROGO
 10
31653.60434129191
 20
1811.749496429288
 30
0.0
 11
31701.604341291939
 21
1811.749496429288
 31
0.0
  0
LINE
  5
10163
  8
0-6
  6
CONTINUOUS
 62
     6
 10
7973.2315402772374
 20
19128.769014632911
 30
0.0
 11
8034.4286569802352
 21
19278.98848199999
 31
0.0
  0
LINE
  5
10164
  8
0-6
  6
CONTINUOUS
 62
     6
 10
8034.4286569802352
 20
19278.98848199999
 30
0.0
 11
7927.8181525579548
 21
19156.735860960722
 31
0.0
  0
LINE
  5
10165
  8
0-6
  6
CONTINUOUS
 62
     6
 10
7927.8181525579548
 20
19156.735860960722
 30
0.0
 11
7973.2315402772374
 21
19128.769014632911
 31
0.0
  0
LINE
  5
10166
  8
0-6
  6
CONTINUOUS
 62
     6
 10
7973.2315402772338
 20
18014.267114632919
 30
0.0
 11
8034.4286569802352
 21
18164.48658199998
 31
0.0
  0
LINE
  5
10167
  8
0-6
  6
CONTINUOUS
 62
     6
 10
8034.4286569802352
 20
18164.48658199998
 30
0.0
 11
7927.8181525579548
 21
18042.23396096073
 31
0.0
  0
LINE
  5
10168
  8
0-6
  6
CONTINUOUS
 62
     6
 10
7927.8181525579548
 20
18042.23396096073
 30
0.0
 11
7973.2315402772338
 21
18014.267114632919
 31
0.0
  0
LINE
  5
10169
  8
0-6
  6
CONTINUOUS
 62
     6
 10
7973.2315402772338
 20
15096.26711463293
 30
0.0
 11
8034.4286569802352
 21
15246.486582
 31
0.0
  0
LINE
  5
1016A
  8
0-6
  6
CONTINUOUS
 62
     6
 10
8034.4286569802352
 20
15246.486582
 30
0.0
 11
7927.8181525579548
 21
15124.233960960761
 31
0.0
  0
LINE
  5
1016B
  8
0-6
  6
CONTINUOUS
 62
     6
 10
7927.8181525579548
 20
15124.233960960761
 30
0.0
 11
7973.2315402772338
 21
15096.26711463293
 31
0.0
  0
LINE
  5
1016C
  8
0-6
  6
CONTINUOUS
 62
     6
 10
7973.2315402772338
 20
16555.267115632909
 30
0.0
 11
8034.4286569802352
 21
16705.486582999991
 31
0.0
  0
LINE
  5
1016D
  8
0-6
  6
CONTINUOUS
 62
     6
 10
8034.4286569802352
 20
16705.486582999991
 30
0.0
 11
7927.8181525579548
 21
16583.23396196073
 31
0.0
  0
LINE
  5
1016E
  8
0-6
  6
CONTINUOUS
 62
     6
 10
7927.8181525579548
 20
16583.23396196073
 30
0.0
 11
7973.2315402772338
 21
16555.267115632909
 31
0.0
  0
LINE
  5
1016F
  8
0-6
  6
CONTINUOUS
 62
     6
 10
7630.8162591392338
 20
14060.562206451859
 30
0.0
 11
7768.3945928845578
 21
14146.487624999971
 31
0.0
  0
LINE
  5
10170
  8
0-6
  6
CONTINUOUS
 62
     6
 10
7768.3945928845578
 20
14146.487624999971
 30
0.0
 11
7666.120061071324
 21
14020.585189969819
 31
0.0
  0
LINE
  5
10171
  8
0-6
  6
CONTINUOUS
 62
     6
 10
7666.120061071324
 20
14020.585189969819
 30
0.0
 11
7630.8162591392338
 21
14060.562206451859
 31
0.0
  0
LINE
  5
10172
  8
0-6
  6
CONTINUOUS
 62
     6
 10
7678.32196466395
 20
14391.397792656961
 30
0.0
 11
7615.9586268688736
 21
14541.1368642711
 31
0.0
  0
LINE
  5
10173
  8
0-6
  6
CONTINUOUS
 62
     6
 10
7615.9586268688736
 20
14541.1368642711
 30
0.0
 11
7723.5165158508189
 21
14419.71691730239
 31
0.0
  0
LINE
  5
10174
  8
0-6
  6
CONTINUOUS
 62
     6
 10
7723.5165158508189
 20
14419.71691730239
 30
0.0
 11
7678.32196466395
 21
14391.397792656961
 31
0.0
  0
LINE
  5
10175
  8
0-6
  6
CONTINUOUS
 62
     6
 10
8510.2707807755469
 20
14344.300373410921
 30
0.0
 11
8430.5297417568254
 21
14485.55313326014
 31
0.0
  0
LINE
  5
10176
  8
0-6
  6
CONTINUOUS
 62
     6
 10
8430.5297417568254
 20
14485.55313326014
 30
0.0
 11
8551.7737670131573
 21
14377.79697638833
 31
0.0
  0
LINE
  5
10177
  8
0-6
  6
CONTINUOUS
 62
     6
 10
8551.7737670131573
 20
14377.79697638833
 30
0.0
 11
8510.2707807755469
 21
14344.300373410921
 31
0.0
  0
LINE
  5
10178
  8
SUNPOU
  6
CONTINUOUS
 62
     4
 10
13229.256839868871
 20
15291.48697799999
 30
0.0
 11
13939.958447868859
 21
15291.48697799999
 31
0.0
  0
LINE
  5
10179
  8
SUNPOU
  6
CONTINUOUS
 62
     4
 10
13172.958341868871
 20
14182.986977999981
 30
0.0
 11
13939.958447868859
 21
14182.986977999981
 31
0.0
  0
LINE
  5
1017A
  8
SUNPOU
  6
CONTINUOUS
 62
     4
 10
13859.95844786887
 20
15291.48697799999
 30
0.0
 11
13859.95844786887
 21
14182.986977999981
 31
0.0
  0
LINE
  5
1017B
  8
SUNPOU
  6
CONTINUOUS
 62
     4
 10
13152.537395745099
 20
16750.486977999979
 30
0.0
 11
13939.958447868879
 21
16750.486977999979
 31
0.0
  0
LINE
  5
1017C
  8
SUNPOU
  6
CONTINUOUS
 62
     4
 10
13229.256839868871
 20
15291.48697799999
 30
0.0
 11
13939.958447868879
 21
15291.48697799999
 31
0.0
  0
LINE
  5
1017D
  8
SUNPOU
  6
CONTINUOUS
 62
     4
 10
13859.958447868879
 20
16750.486977999979
 30
0.0
 11
13859.958447868879
 21
15291.48697799999
 31
0.0
  0
LINE
  5
1017E
  8
SUNPOU
  6
CONTINUOUS
 62
     4
 10
13229.256839868871
 20
18209.48697799999
 30
0.0
 11
13939.958447868879
 21
18209.48697799999
 31
0.0
  0
LINE
  5
1017F
  8
SUNPOU
  6
CONTINUOUS
 62
     4
 10
13152.537395745099
 20
16750.486977999979
 30
0.0
 11
13939.958447868879
 21
16750.486977999979
 31
0.0
  0
LINE
  5
10180
  8
SUNPOU
  6
CONTINUOUS
 62
     4
 10
13859.958447868879
 20
18209.48697799999
 30
0.0
 11
13859.958447868879
 21
16750.486977999979
 31
0.0
  0
LINE
  5
10181
  8
SUNPOU
  6
CONTINUOUS
 62
     4
 10
13092.95899586887
 20
13990.486977999981
 30
0.0
 11
13939.95877186888
 21
13990.486977999981
 31
0.0
  0
LINE
  5
10182
  8
SUNPOU
  6
CONTINUOUS
 62
     4
 10
13859.95877186888
 20
14182.986252000001
 30
0.0
 11
13859.95877186888
 21
13990.486977999981
 31
0.0
  0
LINE
  5
10183
  8
SUNPOU
  6
CONTINUOUS
 62
     4
 10
13229.256839868871
 20
18209.48697799999
 30
0.0
 11
13939.95877186888
 21
18209.48697799999
 31
0.0
  0
LINE
  5
10184
  8
SUNPOU
  6
CONTINUOUS
 62
     4
 10
13859.95877186888
 20
19317.986977999961
 30
0.0
 11
13859.95877186888
 21
18209.48697799999
 31
0.0
  0
LINE
  5
10185
  8
SUNPOU
  6
CONTINUOUS
 62
     4
 10
13779.95877186888
 20
19317.986977999961
 30
0.0
 11
13819.95877186888
 21
19317.986977999961
 31
0.0
  0
LINE
  5
10186
  8
SUNPOU
  6
CONTINUOUS
 62
     4
 10
13087.95972186888
 20
19540.486845999982
 30
0.0
 11
13899.95877186888
 21
19540.486845999982
 31
0.0
  0
LINE
  5
10187
  8
SUNPOU
  6
CONTINUOUS
 62
     4
 10
13859.95877186888
 20
19317.986977999961
 30
0.0
 11
13859.95877186888
 21
19540.486845999982
 31
0.0
  0
LINE
  5
10188
  8
SUNPOU
  6
CONTINUOUS
 62
     4
 10
13074.960222868889
 20
19500.48671399997
 30
0.0
 11
13539.95943086887
 21
19500.48671399997
 31
0.0
  0
LINE
  5
10189
  8
SUNPOU
  6
CONTINUOUS
 62
     4
 10
13087.95972186888
 20
19540.486845999982
 30
0.0
 11
13539.95943086887
 21
19540.486845999982
 31
0.0
  0
LINE
  5
1018A
  8
SUNPOU
  6
CONTINUOUS
 62
     4
 10
13459.95943086887
 20
19500.48671399997
 30
0.0
 11
13459.95943086887
 21
19260.486713999981
 31
0.0
  0
LINE
  5
1018B
  8
SUNPOU
  6
CONTINUOUS
 62
     4
 10
13459.95943086887
 20
19540.486845999982
 30
0.0
 11
13459.95943086887
 21
19780.486845999982
 31
0.0
  0
LINE
  5
1018C
  8
SUNPOU
  6
CONTINUOUS
 62
     4
 10
13459.95943086887
 20
19500.48671399997
 30
0.0
 11
13459.95943086887
 21
19540.486845999982
 31
0.0
  0
LINE
  5
1018D
  8
SUNPOU
  6
CONTINUOUS
 62
     4
 10
7562.958995868893
 20
20165.48889099999
 30
0.0
 11
7562.958995868893
 21
20240.487901999972
 31
0.0
  0
LINE
  5
1018E
  8
SUNPOU
  6
CONTINUOUS
 62
     4
 10
7477.458995868893
 20
19615.48856099998
 30
0.0
 11
7477.458995868893
 21
20240.487901999972
 31
0.0
  0
LINE
  5
1018F
  8
SUNPOU
  6
CONTINUOUS
 62
     4
 10
7562.958995868893
 20
20160.487901999972
 30
0.0
 11
7802.9589958688912
 21
20160.487901999972
 31
0.0
  0
LINE
  5
10190
  8
SUNPOU
  6
CONTINUOUS
 62
     4
 10
7480.458995868893
 20
20160.487901999972
 30
0.0
 11
7240.4589958688912
 21
20160.487901999972
 31
0.0
  0
LINE
  5
10191
  8
SUNPOU
  6
CONTINUOUS
 62
     4
 10
7562.958995868893
 20
20160.487901999972
 30
0.0
 11
7480.458995868893
 21
20160.487901999972
 31
0.0
  0
LINE
  5
10192
  8
SUNPOU
  6
CONTINUOUS
 62
     4
 10
10362.95899586889
 20
20165.48889099999
 30
0.0
 11
10362.95899586889
 21
20240.487901999972
 31
0.0
  0
LINE
  5
10193
  8
SUNPOU
  6
CONTINUOUS
 62
     4
 10
7562.958995868893
 20
20165.48889099999
 30
0.0
 11
7562.958995868893
 21
20240.487901999972
 31
0.0
  0
LINE
  5
10194
  8
SUNPOU
  6
CONTINUOUS
 62
     4
 10
10362.95899586889
 20
20160.487901999972
 30
0.0
 11
7562.958995868893
 21
20160.487901999972
 31
0.0
  0
LINE
  5
10195
  8
SUNPOU
  6
CONTINUOUS
 62
     4
 10
12930.45867186889
 20
19690.488560999969
 30
0.0
 11
12930.45867186889
 21
20240.487901999972
 31
0.0
  0
LINE
  5
10196
  8
SUNPOU
  6
CONTINUOUS
 62
     4
 10
10362.95899586889
 20
20165.48889099999
 30
0.0
 11
10362.95899586889
 21
20240.487901999972
 31
0.0
  0
LINE
  5
10197
  8
SUNPOU
  6
CONTINUOUS
 62
     4
 10
12930.45867186889
 20
20160.487901999972
 30
0.0
 11
10362.95899586889
 21
20160.487901999972
 31
0.0
  0
LINE
  5
10198
  8
SUNPOU
  6
CONTINUOUS
 62
     4
 10
12930.45867186889
 20
19690.488560999969
 30
0.0
 11
12930.45867186889
 21
20240.487901999972
 31
0.0
  0
LINE
  5
10199
  8
SUNPOU
  6
CONTINUOUS
 62
     4
 10
13015.95867186889
 20
19610.488297999989
 30
0.0
 11
13015.95867186889
 21
20240.487901999972
 31
0.0
  0
LINE
  5
1019A
  8
SUNPOU
  6
CONTINUOUS
 62
     4
 10
12930.45867186889
 20
20160.487901999972
 30
0.0
 11
12690.45867186889
 21
20160.487901999972
 31
0.0
  0
LINE
  5
1019B
  8
SUNPOU
  6
CONTINUOUS
 62
     4
 10
13012.95867186889
 20
20160.487901999972
 30
0.0
 11
13252.95867186889
 21
20160.487901999972
 31
0.0
  0
LINE
  5
1019C
  8
SUNPOU
  6
CONTINUOUS
 62
     4
 10
12930.45867186889
 20
20160.487901999972
 30
0.0
 11
13012.95867186889
 21
20160.487901999972
 31
0.0
  0
LINE
  5
1019D
  8
SUNPOU
  6
CONTINUOUS
 62
     4
 10
13015.95867186887
 20
13910.486977999981
 30
0.0
 11
13015.95867186887
 21
12620.48618599998
 31
0.0
  0
LINE
  5
1019E
  8
SUNPOU
  6
CONTINUOUS
 62
     4
 10
7477.4589958688903
 20
13910.486977999981
 30
0.0
 11
7477.4589958688903
 21
12620.48618599998
 31
0.0
  0
LINE
  5
1019F
  8
SUNPOU
  6
CONTINUOUS
 62
     4
 10
13012.95867186887
 20
12700.48618599998
 30
0.0
 11
7480.4589958688903
 21
12700.48618599998
 31
0.0
  0
LINE
  5
101A0
  8
0-6
  6
CONTINUOUS
 62
     6
 10
12064.2449616628
 20
16529.266191632942
 30
0.0
 11
12003.04784495979
 21
16679.485659000009
 31
0.0
  0
LINE
  5
101A1
  8
0-6
  6
CONTINUOUS
 62
     6
 10
12003.04784495979
 20
16679.485659000009
 30
0.0
 11
12109.658349382071
 21
16557.23303796077
 31
0.0
  0
LINE
  5
101A2
  8
0-6
  6
CONTINUOUS
 62
     6
 10
12109.658349382071
 20
16557.23303796077
 30
0.0
 11
12064.2449616628
 21
16529.266191632942
 31
0.0
  0
LINE
  5
101A3
  8
0-6
  6
CONTINUOUS
 62
     6
 10
12248.303732288499
 20
15110.07460336483
 30
0.0
 11
12178.446990445051
 21
15246.786015664071
 31
0.0
  0
LINE
  5
101A4
  8
0-6
  6
CONTINUOUS
 62
     6
 10
12178.446990445051
 20
15246.786015664071
 30
0.0
 11
12290.96003020153
 21
15142.0896080661
 31
0.0
  0
LINE
  5
101A5
  8
0-6
  6
CONTINUOUS
 62
     6
 10
12290.96003020153
 20
15142.0896080661
 30
0.0
 11
12248.303732288499
 21
15110.07460336483
 31
0.0
  0
LINE
  5
101A6
  8
0-6
  6
CONTINUOUS
 62
     6
 10
12248.303732288499
 20
18005.014099621269
 30
0.0
 11
12173.583987217869
 21
18148.986093999989
 31
0.0
  0
LINE
  5
101A7
  8
0-6
  6
CONTINUOUS
 62
     6
 10
12173.583987217869
 20
18148.986093999989
 30
0.0
 11
12290.96003020153
 21
18037.02910432253
 31
0.0
  0
LINE
  5
101A8
  8
0-6
  6
CONTINUOUS
 62
     6
 10
12290.96003020153
 20
18037.02910432253
 30
0.0
 11
12248.303732288499
 21
18005.014099621269
 31
0.0
  0
LINE
  5
101A9
  8
0-6
  6
CONTINUOUS
 62
     6
 10
11130.47893089876
 20
15541.97535243395
 30
0.0
 11
10993.029439962311
 21
15628.106722503841
 31
0.0
  0
LINE
  5
101AA
  8
0-6
  6
CONTINUOUS
 62
     6
 10
10993.029439962311
 20
15628.106722503841
 30
0.0
 11
11150.985444567261
 21
15591.20951917646
 31
0.0
  0
LINE
  5
101AB
  8
0-6
  6
CONTINUOUS
 62
     6
 10
11150.985444567261
 20
15591.20951917646
 30
0.0
 11
11130.47893089876
 21
15541.97535243395
 31
0.0
  0
LINE
  5
101AC
  8
SUNPOU
  6
CONTINUOUS
 62
     4
 10
26650.510792585152
 20
19440.48697799999
 30
0.0
 11
26650.510792585152
 21
20240.487901999972
 31
0.0
  0
LINE
  5
101AD
  8
SUNPOU
  6
CONTINUOUS
 62
     4
 10
26693.010792585152
 20
19440.48697799999
 30
0.0
 11
26693.010792585152
 21
20240.487901999972
 31
0.0
  0
LINE
  5
101AE
  8
SUNPOU
  6
CONTINUOUS
 62
     4
 10
26650.510792585152
 20
20160.487901999972
 30
0.0
 11
26410.510792585152
 21
20160.487901999972
 31
0.0
  0
LINE
  5
101AF
  8
SUNPOU
  6
CONTINUOUS
 62
     4
 10
26693.010792585152
 20
20160.487901999972
 30
0.0
 11
26933.010792585152
 21
20160.487901999972
 31
0.0
  0
LINE
  5
101B0
  8
SUNPOU
  6
CONTINUOUS
 62
     4
 10
26650.510792585152
 20
20160.487901999972
 30
0.0
 11
26693.010792585152
 21
20160.487901999972
 31
0.0
  0
LINE
  5
101B1
  8
0-6
  6
CONTINUOUS
 62
     6
 10
21425.23683753311
 20
19102.390205253341
 30
0.0
 11
21318.908813585142
 21
19224.88643699999
 31
0.0
  0
LINE
  5
101B2
  8
0-6
  6
CONTINUOUS
 62
     6
 10
21318.908813585142
 20
19224.88643699999
 30
0.0
 11
21379.760933178412
 21
19074.52513032452
 31
0.0
  0
LINE
  5
101B3
  8
0-6
  6
CONTINUOUS
 62
     6
 10
21379.760933178412
 20
19074.52513032452
 30
0.0
 11
21425.23683753311
 21
19102.390205253341
 31
0.0
  0
LINE
  5
101B4
  8
0-6
  6
CONTINUOUS
 62
     6
 10
21397.052492027131
 20
19518.20376193268
 30
0.0
 11
21328.008813585151
 21
19371.425201045851
 31
0.0
  0
LINE
  5
101B5
  8
0-6
  6
CONTINUOUS
 62
     6
 10
21328.008813585151
 20
19371.425201045851
 30
0.0
 11
21440.925813764308
 21
19487.877998670829
 31
0.0
  0
LINE
  5
101B6
  8
0-6
  6
CONTINUOUS
 62
     6
 10
21440.925813764308
 20
19487.877998670829
 30
0.0
 11
21397.052492027131
 21
19518.20376193268
 31
0.0
  0
LINE
  5
101B7
  8
0-6
  6
CONTINUOUS
 62
     6
 10
21425.23683753311
 20
16935.082773746632
 30
0.0
 11
21318.908813585142
 21
16812.586541999979
 31
0.0
  0
LINE
  5
101B8
  8
0-6
  6
CONTINUOUS
 62
     6
 10
21318.908813585142
 20
16812.586541999979
 30
0.0
 11
21379.760933178412
 21
16962.947848675431
 31
0.0
  0
LINE
  5
101B9
  8
0-6
  6
CONTINUOUS
 62
     6
 10
21379.760933178412
 20
16962.947848675431
 30
0.0
 11
21425.23683753311
 21
16935.082773746632
 31
0.0
  0
LINE
  5
101BA
  8
0-6
  6
CONTINUOUS
 62
     6
 10
21425.23683753311
 20
14378.083209746639
 30
0.0
 11
21318.908813585142
 21
14255.586977999979
 31
0.0
  0
LINE
  5
101BB
  8
0-6
  6
CONTINUOUS
 62
     6
 10
21318.908813585142
 20
14255.586977999979
 30
0.0
 11
21379.760933178412
 21
14405.94828467544
 31
0.0
  0
LINE
  5
101BC
  8
0-6
  6
CONTINUOUS
 62
     6
 10
21379.760933178412
 20
14405.94828467544
 30
0.0
 11
21425.23683753311
 21
14378.083209746639
 31
0.0
  0
LINE
  5
101BD
  8
0-6
  6
CONTINUOUS
 62
     6
 10
21397.052492027131
 20
16519.269217067282
 30
0.0
 11
21328.008813585151
 21
16666.047777954111
 31
0.0
  0
LINE
  5
101BE
  8
0-6
  6
CONTINUOUS
 62
     6
 10
21328.008813585151
 20
16666.047777954111
 30
0.0
 11
21440.925813764308
 21
16549.594980329141
 31
0.0
  0
LINE
  5
101BF
  8
0-6
  6
CONTINUOUS
 62
     6
 10
21440.925813764308
 20
16549.594980329141
 30
0.0
 11
21397.052492027131
 21
16519.269217067282
 31
0.0
  0
LINE
  5
101C0
  8
0-6
  6
CONTINUOUS
 62
     6
 10
21397.052492027131
 20
13982.20841711315
 30
0.0
 11
21328.008813585151
 21
14128.98697799999
 31
0.0
  0
LINE
  5
101C1
  8
0-6
  6
CONTINUOUS
 62
     6
 10
21328.008813585151
 20
14128.98697799999
 30
0.0
 11
21440.925813764308
 21
14012.534180375011
 31
0.0
  0
LINE
  5
101C2
  8
0-6
  6
CONTINUOUS
 62
     6
 10
21440.925813764308
 20
14012.534180375011
 30
0.0
 11
21397.052492027131
 21
13982.20841711315
 31
0.0
  0
LINE
  5
101E7
  8
SUNPOU
  6
CONTINUOUS
 62
     4
 10
25892.510792585152
 20
19440.48697799999
 30
0.0
 11
25892.510792585152
 21
20240.487901999972
 31
0.0
  0
LINE
  5
101E8
  8
SUNPOU
  6
CONTINUOUS
 62
     4
 10
26650.510792585152
 20
19440.48697799999
 30
0.0
 11
26650.510792585152
 21
20240.487901999972
 31
0.0
  0
LINE
  5
101E9
  8
SUNPOU
  6
CONTINUOUS
 62
     4
 10
25892.510792585152
 20
20160.487901999972
 30
0.0
 11
26650.510792585152
 21
20160.487901999972
 31
0.0
  0
LINE
  5
101EA
  8
SUNPOU
  6
CONTINUOUS
 62
     4
 10
25191.510792585152
 20
19440.48697799999
 30
0.0
 11
25191.510792585152
 21
20240.487901999972
 31
0.0
  0
LINE
  5
101EB
  8
SUNPOU
  6
CONTINUOUS
 62
     4
 10
25892.510792585152
 20
19440.48697799999
 30
0.0
 11
25892.510792585152
 21
20240.487901999972
 31
0.0
  0
LINE
  5
101EC
  8
SUNPOU
  6
CONTINUOUS
 62
     4
 10
25191.510792585152
 20
20160.487901999972
 30
0.0
 11
25892.510792585152
 21
20160.487901999972
 31
0.0
  0
LINE
  5
101ED
  8
SUNPOU
  6
CONTINUOUS
 62
     4
 10
24490.510792585152
 20
19440.48697799999
 30
0.0
 11
24490.510792585152
 21
20240.487901999972
 31
0.0
  0
LINE
  5
101EE
  8
SUNPOU
  6
CONTINUOUS
 62
     4
 10
25191.510792585152
 20
19440.48697799999
 30
0.0
 11
25191.510792585152
 21
20240.487901999972
 31
0.0
  0
LINE
  5
101EF
  8
SUNPOU
  6
CONTINUOUS
 62
     4
 10
24490.510792585152
 20
20160.487901999972
 30
0.0
 11
25191.510792585152
 21
20160.487901999972
 31
0.0
  0
LINE
  5
101F0
  8
SUNPOU
  6
CONTINUOUS
 62
     4
 10
24083.010792585152
 20
19520.48948499998
 30
0.0
 11
24083.010792585152
 21
20240.487901999972
 31
0.0
  0
LINE
  5
101F1
  8
SUNPOU
  6
CONTINUOUS
 62
     4
 10
24490.510792585152
 20
19440.48697799999
 30
0.0
 11
24490.510792585152
 21
20240.487901999972
 31
0.0
  0
LINE
  5
101F2
  8
SUNPOU
  6
CONTINUOUS
 62
     4
 10
24083.010792585152
 20
20160.487901999972
 30
0.0
 11
24490.510792585152
 21
20160.487901999972
 31
0.0
  0
LINE
  5
101F3
  8
SUNPOU
  6
CONTINUOUS
 62
     4
 10
24083.010792585152
 20
19520.48948499998
 30
0.0
 11
24083.010792585152
 21
20240.487901999972
 31
0.0
  0
LINE
  5
101F4
  8
SUNPOU
  6
CONTINUOUS
 62
     4
 10
24040.510792585152
 20
19440.48697799999
 30
0.0
 11
24040.510792585152
 21
20240.487901999972
 31
0.0
  0
LINE
  5
101F5
  8
SUNPOU
  6
CONTINUOUS
 62
     4
 10
24083.010792585152
 20
20160.487901999972
 30
0.0
 11
24323.010792585152
 21
20160.487901999972
 31
0.0
  0
LINE
  5
101F6
  8
SUNPOU
  6
CONTINUOUS
 62
     4
 10
24040.510792585152
 20
20160.487901999972
 30
0.0
 11
23800.510792585152
 21
20160.487901999972
 31
0.0
  0
LINE
  5
101F7
  8
SUNPOU
  6
CONTINUOUS
 62
     4
 10
24083.010792585152
 20
20160.487901999972
 30
0.0
 11
24040.510792585152
 21
20160.487901999972
 31
0.0
  0
LINE
  5
10205
  8
SUNPOU
  6
CONTINUOUS
 62
     4
 10
24083.008813585158
 20
20560.487901999972
 30
0.0
 11
21283.008813585151
 21
20560.487901999972
 31
0.0
  0
LINE
  5
10206
  8
SUNPOU
  6
CONTINUOUS
 62
     4
 10
26650.508813585151
 20
20560.487901999972
 30
0.0
 11
24083.008813585158
 21
20560.487901999972
 31
0.0
  0
LINE
  5
10207
  8
SUNPOU
  6
CONTINUOUS
 62
     4
 10
21283.008813585151
 20
19684.936751877311
 30
0.0
 11
21283.008813585151
 21
20240.487901999972
 31
0.0
  0
LINE
  5
10208
  8
SUNPOU
  6
CONTINUOUS
 62
     4
 10
21325.51105658515
 20
19523.837242000001
 30
0.0
 11
21325.51105658515
 21
20240.487901999972
 31
0.0
  0
LINE
  5
10209
  8
SUNPOU
  6
CONTINUOUS
 62
     4
 10
21283.008813585151
 20
20160.487901999972
 30
0.0
 11
21043.008813585158
 21
20160.487901999972
 31
0.0
  0
LINE
  5
1020A
  8
SUNPOU
  6
CONTINUOUS
 62
     4
 10
21325.51105658515
 20
20160.487901999972
 30
0.0
 11
21565.51105658515
 21
20160.487901999972
 31
0.0
  0
LINE
  5
1020B
  8
SUNPOU
  6
CONTINUOUS
 62
     4
 10
21283.008813585151
 20
20160.487901999972
 30
0.0
 11
21325.51105658515
 21
20160.487901999972
 31
0.0
  0
LINE
  5
1020C
  8
SUNPOU
  6
CONTINUOUS
 62
     4
 10
21283.008813585151
 20
19684.936751877311
 30
0.0
 11
21283.008813585151
 21
20240.487901999972
 31
0.0
  0
LINE
  5
1020D
  8
SUNPOU
  6
CONTINUOUS
 62
     4
 10
21240.510528585161
 20
19520.48948499998
 30
0.0
 11
21240.510528585161
 21
20240.487901999972
 31
0.0
  0
LINE
  5
1020E
  8
SUNPOU
  6
CONTINUOUS
 62
     4
 10
21283.008813585151
 20
20160.487901999972
 30
0.0
 11
21523.008813585151
 21
20160.487901999972
 31
0.0
  0
LINE
  5
1020F
  8
SUNPOU
  6
CONTINUOUS
 62
     4
 10
21240.510528585161
 20
20160.487901999972
 30
0.0
 11
21000.510528585161
 21
20160.487901999972
 31
0.0
  0
LINE
  5
10210
  8
SUNPOU
  6
CONTINUOUS
 62
     4
 10
21283.008813585151
 20
20160.487901999972
 30
0.0
 11
21240.510528585161
 21
20160.487901999972
 31
0.0
  0
LINE
  5
10211
  8
SUNPOU
  6
CONTINUOUS
 62
     4
 10
20898.403977633221
 20
16750.486977999979
 30
0.0
 11
19985.165189216521
 21
16750.486977999979
 31
0.0
  0
LINE
  5
10212
  8
SUNPOU
  6
CONTINUOUS
 62
     4
 10
20898.403977633221
 20
19317.986977999979
 30
0.0
 11
19985.165189216521
 21
19317.986977999979
 31
0.0
  0
LINE
  5
10213
  8
SUNPOU
  6
CONTINUOUS
 62
     4
 10
20065.165189216521
 20
16750.486977999979
 30
0.0
 11
20065.165189216521
 21
19317.986977999979
 31
0.0
  0
LINE
  5
10214
  8
SUNPOU
  6
CONTINUOUS
 62
     4
 10
20898.403977633221
 20
14182.986977999981
 30
0.0
 11
19985.165189216521
 21
14182.986978000001
 31
0.0
  0
LINE
  5
10215
  8
SUNPOU
  6
CONTINUOUS
 62
     4
 10
20898.403977633221
 20
16750.486977999979
 30
0.0
 11
19985.165189216521
 21
16750.486977999979
 31
0.0
  0
LINE
  5
10216
  8
SUNPOU
  6
CONTINUOUS
 62
     4
 10
20065.165189216521
 20
14182.986978000001
 30
0.0
 11
20065.165189216521
 21
16750.486977999979
 31
0.0
  0
ARC
  5
1022E
  8
1-前柱P
 10
21273.408813585142
 20
14251.386978
 30
0.0
 40
1.0
 50
0.0
 51
90.0
  0
LINE
  5
1022F
  8
1-前柱P
 10
21274.408813585149
 20
14251.386978
 30
0.0
 11
21274.408813585149
 21
14249.78697799998
 31
0.0
  0
LINE
  5
10230
  8
1-前柱P
 10
21274.408813585149
 20
14249.78697799998
 30
0.0
 11
21285.608813585139
 21
14249.78697799998
 31
0.0
  0
LINE
  5
10231
  8
1-前柱P
 10
21285.608813585139
 20
14249.78697799998
 30
0.0
 11
21285.608813585161
 21
14251.386978
 31
0.0
  0
ARC
  5
10232
  8
1-前柱P
 10
21286.60881358515
 20
14251.386978
 30
0.0
 40
1.0
 50
90.0
 51
180.0
  0
ARC
  5
10233
  8
1-中柱P
 10
21289.608813585161
 20
16818.786977999989
 30
0.0
 40
1.0
 50
90.0
 51
180.0
  0
LINE
  5
10234
  8
1-中柱P
 10
21288.608813585161
 20
16818.786977999989
 30
0.0
 11
21288.608813585161
 21
16817.186978000002
 31
0.0
  0
LINE
  5
10235
  8
1-中柱P
 10
21288.608813585161
 20
16817.186978000002
 30
0.0
 11
21277.408813585171
 21
16817.186978000002
 31
0.0
  0
LINE
  5
10236
  8
1-中柱P
 10
21277.408813585171
 20
16817.186978000002
 30
0.0
 11
21277.408813585171
 21
16818.786977999989
 31
0.0
  0
ARC
  5
10237
  8
1-中柱P
 10
21276.408813585149
 20
16818.786977999989
 30
0.0
 40
1.0
 50
0.0
 51
90.0
  0
ARC
  5
10238
  8
1-後柱P
 10
21292.608813585131
 20
19249.936977999991
 30
0.0
 40
1.0
 50
180.0
 51
270.0
  0
LINE
  5
10239
  8
1-後柱P
 10
21291.60881358515
 20
19249.936977999991
 30
0.0
 11
21291.60881358515
 21
19251.536977999989
 31
0.0
  0
LINE
  5
1023A
  8
1-後柱P
 10
21291.60881358515
 20
19251.536977999989
 30
0.0
 11
21280.408813585142
 21
19251.536977999989
 31
0.0
  0
LINE
  5
1023B
  8
1-後柱P
 10
21280.408813585142
 20
19251.536977999989
 30
0.0
 11
21280.408813585142
 21
19249.936977999991
 31
0.0
  0
ARC
  5
1023C
  8
1-後柱P
 10
21279.408813585142
 20
19249.936977999991
 30
0.0
 40
1.0
 50
270.0
 51
0.0
  0
LINE
  5
1023D
  8
SUNPOU
  6
CONTINUOUS
 62
     4
 10
13092.04714969357
 20
8478.188374000003
 30
0.0
 11
13092.04714969357
 21
9869.1883999999955
 31
0.0
  0
LINE
  5
1023E
  8
SUNPOU
  6
CONTINUOUS
 62
     4
 10
7542.047149693577
 20
8610.0781974124311
 30
0.0
 11
7542.047149693577
 21
9869.1883999999955
 31
0.0
  0
LINE
  5
1023F
  8
SUNPOU
  6
CONTINUOUS
 62
     4
 10
13092.04714969357
 20
9789.1883999999991
 30
0.0
 11
7542.047149693577
 21
9789.1883999999991
 31
0.0
  0
LINE
  5
10240
  8
SUNPOU
  6
CONTINUOUS
 62
     4
 10
7692.0471496935697
 20
8536.0984380000027
 30
0.0
 11
7692.0471496935697
 21
9469.1900500000029
 31
0.0
  0
LINE
  5
10241
  8
SUNPOU
  6
CONTINUOUS
 62
     4
 10
7542.047149693577
 20
8610.0781974124311
 30
0.0
 11
7542.047149693577
 21
9469.1900500000029
 31
0.0
  0
LINE
  5
10242
  8
SUNPOU
  6
CONTINUOUS
 62
     4
 10
7692.0471496935697
 20
9389.1900500000029
 30
0.0
 11
7932.0471496935706
 21
9389.1900500000029
 31
0.0
  0
LINE
  5
10243
  8
SUNPOU
  6
CONTINUOUS
 62
     4
 10
7542.047149693577
 20
9389.1900500000029
 30
0.0
 11
7302.0471496935779
 21
9389.1900500000029
 31
0.0
  0
LINE
  5
10244
  8
SUNPOU
  6
CONTINUOUS
 62
     4
 10
7692.0471496935697
 20
9389.1900500000029
 30
0.0
 11
7542.047149693577
 21
9389.1900500000029
 31
0.0
  0
LINE
  5
10245
  8
SUNPOU
  6
CONTINUOUS
 62
     4
 10
12912.04714969357
 20
8348.3741496838102
 30
0.0
 11
12912.04714969357
 21
9469.1900500000029
 31
0.0
  0
LINE
  5
10246
  8
SUNPOU
  6
CONTINUOUS
 62
     4
 10
7692.0471496935697
 20
8536.0984380000027
 30
0.0
 11
7692.0471496935697
 21
9469.1900500000029
 31
0.0
  0
LINE
  5
10247
  8
SUNPOU
  6
CONTINUOUS
 62
     4
 10
12912.04714969357
 20
9389.1900500000029
 30
0.0
 11
7692.0471496935697
 21
9389.1900500000029
 31
0.0
  0
LINE
  5
10248
  8
SUNPOU
  6
CONTINUOUS
 62
     4
 10
13092.04714969357
 20
8478.188374000003
 30
0.0
 11
13092.04714969357
 21
9469.1900500000029
 31
0.0
  0
LINE
  5
10249
  8
SUNPOU
  6
CONTINUOUS
 62
     4
 10
12912.04714969357
 20
8348.3741496838102
 30
0.0
 11
12912.04714969357
 21
9469.1900500000029
 31
0.0
  0
LINE
  5
1024A
  8
SUNPOU
  6
CONTINUOUS
 62
     4
 10
13092.04714969357
 20
9389.1900500000029
 30
0.0
 11
12912.04714969357
 21
9389.1900500000029
 31
0.0
  0
LINE
  5
1024B
  8
SUNPOU
  6
CONTINUOUS
 62
     4
 10
7599.547149693577
 20
6241.1883740000048
 30
0.0
 11
6522.0467536935757
 21
6241.1883740000048
 31
0.0
  0
LINE
  5
1024C
  8
SUNPOU
  6
CONTINUOUS
 62
     4
 10
7507.2398900942007
 20
8590.188374000003
 30
0.0
 11
6522.0467536935757
 21
8590.188374000003
 31
0.0
  0
LINE
  5
1024D
  8
SUNPOU
  6
CONTINUOUS
 62
     4
 10
6602.0467536935748
 20
6241.1883740000048
 30
0.0
 11
6602.0467536935748
 21
8590.188374000003
 31
0.0
  0
LINE
  5
1024E
  8
SUNPOU
  6
CONTINUOUS
 62
     4
 10
12999.54714969357
 20
6241.1883740000048
 30
0.0
 11
14082.04754569356
 21
6241.1883740000048
 31
0.0
  0
LINE
  5
1024F
  8
SUNPOU
  6
CONTINUOUS
 62
     4
 10
13172.04714969357
 20
8396.688374000003
 30
0.0
 11
14082.04754569356
 21
8396.688374000003
 31
0.0
  0
LINE
  5
10250
  8
SUNPOU
  6
CONTINUOUS
 62
     4
 10
14002.04754569356
 20
6241.1883740000048
 30
0.0
 11
14002.04754569356
 21
8396.688374000003
 31
0.0
  0
LINE
  5
10251
  8
SUNPOU
  6
CONTINUOUS
 62
     4
 10
12912.04714969357
 20
6161.1883740000048
 30
0.0
 11
12912.04714969357
 21
4461.1887040000001
 31
0.0
  0
LINE
  5
10252
  8
SUNPOU
  6
CONTINUOUS
 62
     4
 10
7692.0471496935697
 20
6161.1883740000048
 30
0.0
 11
7692.0471496935697
 21
4461.1887040000001
 31
0.0
  0
LINE
  5
10253
  8
SUNPOU
  6
CONTINUOUS
 62
     4
 10
12912.04714969357
 20
4541.1887040000001
 30
0.0
 11
7692.0471496935697
 21
4541.1887040000001
 31
0.0
  0
LINE
  5
10254
  8
SUNPOU
  6
CONTINUOUS
 62
     4
 10
7734.5471496935788
 20
5798.536116000002
 30
0.0
 11
7734.5471496935788
 21
4861.1885390000043
 31
0.0
  0
LINE
  5
10255
  8
SUNPOU
  6
CONTINUOUS
 62
     4
 10
7692.0471496935697
 20
6161.1883740000048
 30
0.0
 11
7692.0471496935697
 21
4861.1885390000043
 31
0.0
  0
LINE
  5
10256
  8
SUNPOU
  6
CONTINUOUS
 62
     4
 10
7734.5471496935788
 20
4941.1885390000016
 30
0.0
 11
7974.547149693577
 21
4941.1885390000016
 31
0.0
  0
LINE
  5
10257
  8
SUNPOU
  6
CONTINUOUS
 62
     4
 10
7692.0471496935697
 20
4941.1885390000016
 30
0.0
 11
7452.0471496935706
 21
4941.1885390000016
 31
0.0
  0
LINE
  5
10258
  8
SUNPOU
  6
CONTINUOUS
 62
     4
 10
7734.5471496935788
 20
4941.1885390000016
 30
0.0
 11
7692.0471496935697
 21
4941.1885390000016
 31
0.0
  0
LINE
  5
10259
  8
SUNPOU
  6
CONTINUOUS
 62
     4
 10
12869.54714969357
 20
5798.536116000002
 30
0.0
 11
12869.54714969357
 21
4861.1885390000043
 31
0.0
  0
LINE
  5
1025A
  8
SUNPOU
  6
CONTINUOUS
 62
     4
 10
12912.04714969357
 20
6161.1883740000048
 30
0.0
 11
12912.04714969357
 21
4861.1885390000043
 31
0.0
  0
LINE
  5
1025B
  8
SUNPOU
  6
CONTINUOUS
 62
     4
 10
12869.54714969357
 20
4941.1885390000016
 30
0.0
 11
12629.54714969357
 21
4941.1885390000016
 31
0.0
  0
LINE
  5
1025C
  8
SUNPOU
  6
CONTINUOUS
 62
     4
 10
12912.04714969357
 20
4941.1885390000016
 30
0.0
 11
13152.04714969357
 21
4941.1885390000016
 31
0.0
  0
LINE
  5
1025D
  8
SUNPOU
  6
CONTINUOUS
 62
     4
 10
12869.54714969357
 20
4941.1885390000016
 30
0.0
 11
12912.04714969357
 21
4941.1885390000016
 31
0.0
  0
LINE
  5
1025E
  8
SUNPOU
  6
CONTINUOUS
 62
     4
 10
10302.047149693581
 20
5798.536116000002
 30
0.0
 11
10302.047149693581
 21
4861.1885390000043
 31
0.0
  0
LINE
  5
1025F
  8
SUNPOU
  6
CONTINUOUS
 62
     4
 10
12869.54714969357
 20
5798.536116000002
 30
0.0
 11
12869.54714969357
 21
4861.1885390000043
 31
0.0
  0
LINE
  5
10260
  8
SUNPOU
  6
CONTINUOUS
 62
     4
 10
10302.047149693581
 20
4941.1885390000016
 30
0.0
 11
12869.54714969357
 21
4941.1885390000016
 31
0.0
  0
LINE
  5
10261
  8
SUNPOU
  6
CONTINUOUS
 62
     4
 10
10302.047149693581
 20
5798.536116000002
 30
0.0
 11
10302.047149693581
 21
4861.1885390000043
 31
0.0
  0
LINE
  5
10262
  8
SUNPOU
  6
CONTINUOUS
 62
     4
 10
7734.5471496935788
 20
5798.536116000002
 30
0.0
 11
7734.5471496935788
 21
4861.1885390000043
 31
0.0
  0
LINE
  5
10263
  8
SUNPOU
  6
CONTINUOUS
 62
     4
 10
10302.047149693581
 20
4941.1885390000016
 30
0.0
 11
7734.5471496935788
 21
4941.1885390000016
 31
0.0
  0
LINE
  5
10264
  8
SUNPOU
  6
CONTINUOUS
 62
     4
 10
26736.010528585171
 20
8669.6883999999955
 30
0.0
 11
26736.010528585171
 21
9869.1329740000092
 31
0.0
  0
LINE
  5
10265
  8
SUNPOU
  6
CONTINUOUS
 62
     4
 10
21197.510528585161
 20
8669.6883999999955
 30
0.0
 11
21197.510528585161
 21
9869.1329740000092
 31
0.0
  0
LINE
  5
10266
  8
SUNPOU
  6
CONTINUOUS
 62
     4
 10
26733.010528585171
 20
9789.1329740000092
 30
0.0
 11
21200.510528585161
 21
9789.1329740000092
 31
0.0
  0
LINE
  5
10267
  8
SUNPOU
  6
CONTINUOUS
 62
     4
 10
21240.510528585161
 20
8669.6883999999955
 30
0.0
 11
21240.510528585161
 21
9469.1900500000029
 31
0.0
  0
LINE
  5
10268
  8
SUNPOU
  6
CONTINUOUS
 62
     4
 10
21197.510528585161
 20
8669.6883999999955
 30
0.0
 11
21197.510528585161
 21
9469.1900500000029
 31
0.0
  0
LINE
  5
10269
  8
SUNPOU
  6
CONTINUOUS
 62
     4
 10
21240.510528585161
 20
9389.1900500000029
 30
0.0
 11
21480.51052858515
 21
9389.1900500000029
 31
0.0
  0
LINE
  5
1026A
  8
SUNPOU
  6
CONTINUOUS
 62
     4
 10
21200.510528585161
 20
9389.1900500000029
 30
0.0
 11
20960.510528585161
 21
9389.1900500000029
 31
0.0
  0
LINE
  5
1026B
  8
SUNPOU
  6
CONTINUOUS
 62
     4
 10
21240.510528585161
 20
9389.1900500000029
 30
0.0
 11
21200.510528585161
 21
9389.1900500000029
 31
0.0
  0
LINE
  5
1026C
  8
SUNPOU
  6
CONTINUOUS
 62
     4
 10
26693.010528585171
 20
8539.6884659999996
 30
0.0
 11
26693.010528585171
 21
9469.1900500000029
 31
0.0
  0
LINE
  5
1026D
  8
SUNPOU
  6
CONTINUOUS
 62
     4
 10
26736.010528585171
 20
8669.6883999999955
 30
0.0
 11
26736.010528585171
 21
9469.1900500000029
 31
0.0
  0
LINE
  5
1026E
  8
SUNPOU
  6
CONTINUOUS
 62
     4
 10
26693.010528585171
 20
9389.1900500000029
 30
0.0
 11
26453.010528585171
 21
9389.1900500000029
 31
0.0
  0
LINE
  5
1026F
  8
SUNPOU
  6
CONTINUOUS
 62
     4
 10
26733.010528585171
 20
9389.1900500000029
 30
0.0
 11
26973.010528585171
 21
9389.1900500000029
 31
0.0
  0
LINE
  5
10270
  8
SUNPOU
  6
CONTINUOUS
 62
     4
 10
26693.010528585171
 20
9389.1900500000029
 30
0.0
 11
26733.010528585171
 21
9389.1900500000029
 31
0.0
  0
LINE
  5
10271
  8
SUNPOU
  6
CONTINUOUS
 62
     4
 10
24040.510528585161
 20
8539.6884659999996
 30
0.0
 11
24040.510528585161
 21
9469.1900500000029
 31
0.0
  0
LINE
  5
10272
  8
SUNPOU
  6
CONTINUOUS
 62
     4
 10
26693.010528585171
 20
8539.6884659999996
 30
0.0
 11
26693.010528585171
 21
9469.1900500000029
 31
0.0
  0
LINE
  5
10273
  8
SUNPOU
  6
CONTINUOUS
 62
     4
 10
24040.510528585161
 20
9389.1900500000029
 30
0.0
 11
26693.010528585171
 21
9389.1900500000029
 31
0.0
  0
LINE
  5
10274
  8
SUNPOU
  6
CONTINUOUS
 62
     4
 10
26780.513167585159
 20
6241.1883740000048
 30
0.0
 11
28223.612779289891
 21
6241.1883740000048
 31
0.0
  0
LINE
  5
10275
  8
SUNPOU
  6
CONTINUOUS
 62
     4
 10
26813.010528585171
 20
8590.1883999999973
 30
0.0
 11
28223.61277928991
 21
8590.1883999999973
 31
0.0
  0
LINE
  5
10276
  8
SUNPOU
  6
CONTINUOUS
 62
     4
 10
28143.612779289891
 20
6241.1883740000048
 30
0.0
 11
28143.612779289899
 21
8590.1883999999973
 31
0.0
  0
LINE
  5
10277
  8
SUNPOU
  6
CONTINUOUS
 62
     4
 10
26780.513167585159
 20
6241.1883740000048
 30
0.0
 11
27580.51382758516
 21
6241.1883740000048
 31
0.0
  0
LINE
  5
10278
  8
SUNPOU
  6
CONTINUOUS
 62
     4
 10
26688.014223585142
 20
8132.6883740000021
 30
0.0
 11
27580.51382758516
 21
8132.6883740000021
 31
0.0
  0
LINE
  5
10279
  8
SUNPOU
  6
CONTINUOUS
 62
     4
 10
27500.51382758516
 20
6241.1883740000048
 30
0.0
 11
27500.51382758516
 21
8132.6883740000021
 31
0.0
  0
LINE
  5
1027A
  8
SUNPOU
  6
CONTINUOUS
 62
     4
 10
24037.51052858515
 20
6161.1883740000048
 30
0.0
 11
24037.51052858515
 21
5261.1883740000048
 31
0.0
  0
LINE
  5
1027B
  8
SUNPOU
  6
CONTINUOUS
 62
     4
 10
21325.510528585161
 20
6061.1885390000034
 30
0.0
 11
21325.510528585161
 21
5261.1883740000048
 31
0.0
  0
LINE
  5
1027C
  8
SUNPOU
  6
CONTINUOUS
 62
     4
 10
24037.51052858515
 20
5341.1883740000048
 30
0.0
 11
21325.510528585161
 21
5341.1883740000048
 31
0.0
  0
LINE
  5
1027D
  8
SUNPOU
  6
CONTINUOUS
 62
     4
 10
26692.970575637639
 20
6161.1883740000048
 30
0.0
 11
26692.970575637639
 21
4461.1887040000574
 31
0.0
  0
LINE
  5
1027E
  8
SUNPOU
  6
CONTINUOUS
 62
     4
 10
21240.510528585161
 20
6061.1885390000034
 30
0.0
 11
21240.510528585161
 21
4461.1887040000574
 31
0.0
  0
LINE
  5
1027F
  8
SUNPOU
  6
CONTINUOUS
 62
     4
 10
26692.970575637639
 20
4541.1887040000593
 30
0.0
 11
21240.510528585161
 21
4541.1887040000593
 31
0.0
  0
LINE
  5
10280
  8
SUNPOU
  6
CONTINUOUS
 62
     4
 10
26650.510528585171
 20
5798.536116000002
 30
0.0
 11
26650.510528585171
 21
4861.1885390000043
 31
0.0
  0
LINE
  5
10281
  8
SUNPOU
  6
CONTINUOUS
 62
     4
 10
26692.970575637639
 20
6161.1883740000048
 30
0.0
 11
26692.970575637639
 21
4861.1885390000043
 31
0.0
  0
LINE
  5
10282
  8
SUNPOU
  6
CONTINUOUS
 62
     4
 10
26650.510528585171
 20
4941.1885390000016
 30
0.0
 11
26410.510528585171
 21
4941.1885390000016
 31
0.0
  0
LINE
  5
10283
  8
SUNPOU
  6
CONTINUOUS
 62
     4
 10
26692.970575637639
 20
4941.1885390000016
 30
0.0
 11
26932.970575637639
 21
4941.1885390000016
 31
0.0
  0
LINE
  5
10284
  8
SUNPOU
  6
CONTINUOUS
 62
     4
 10
26650.510528585171
 20
4941.1885390000016
 30
0.0
 11
26692.970575637639
 21
4941.1885390000016
 31
0.0
  0
LINE
  5
10285
  8
SUNPOU
  6
CONTINUOUS
 62
     4
 10
24083.010528585161
 20
5798.536116000002
 30
0.0
 11
24083.010528585161
 21
4861.1885390000043
 31
0.0
  0
LINE
  5
10286
  8
SUNPOU
  6
CONTINUOUS
 62
     4
 10
26650.510528585171
 20
5798.536116000002
 30
0.0
 11
26650.510528585171
 21
4861.1885390000043
 31
0.0
  0
LINE
  5
10287
  8
SUNPOU
  6
CONTINUOUS
 62
     4
 10
24083.010528585161
 20
4941.1885390000016
 30
0.0
 11
26650.510528585171
 21
4941.1885390000016
 31
0.0
  0
LINE
  5
10288
  8
SUNPOU
  6
CONTINUOUS
 62
     4
 10
26556.510528585171
 20
6061.1885390000034
 30
0.0
 11
26556.510528585171
 21
5261.1883740000048
 31
0.0
  0
LINE
  5
10289
  8
SUNPOU
  6
CONTINUOUS
 62
     4
 10
24177.010528585171
 20
6061.1885390000034
 30
0.0
 11
24177.010528585171
 21
5261.1883740000048
 31
0.0
  0
LINE
  5
1028A
  8
SUNPOU
  6
CONTINUOUS
 62
     4
 10
26556.510528585171
 20
5341.1883740000048
 30
0.0
 11
24177.010528585171
 21
5341.1883740000048
 31
0.0
  0
LINE
  5
1028B
  8
SUNPOU
  6
CONTINUOUS
 62
     4
 10
21283.010528585161
 20
5798.536116000002
 30
0.0
 11
21283.010528585161
 21
4861.1885390000043
 31
0.0
  0
LINE
  5
1028C
  8
SUNPOU
  6
CONTINUOUS
 62
     4
 10
21240.510528585161
 20
6061.1885390000034
 30
0.0
 11
21240.510528585161
 21
4861.1885390000043
 31
0.0
  0
LINE
  5
1028D
  8
SUNPOU
  6
CONTINUOUS
 62
     4
 10
21283.010528585161
 20
4941.1885390000016
 30
0.0
 11
21523.010528585161
 21
4941.1885390000016
 31
0.0
  0
LINE
  5
1028E
  8
SUNPOU
  6
CONTINUOUS
 62
     4
 10
21240.510528585161
 20
4941.1885390000016
 30
0.0
 11
21000.510528585161
 21
4941.1885390000016
 31
0.0
  0
LINE
  5
1028F
  8
SUNPOU
  6
CONTINUOUS
 62
     4
 10
21283.010528585161
 20
4941.1885390000016
 30
0.0
 11
21240.510528585161
 21
4941.1885390000016
 31
0.0
  0
LINE
  5
10290
  8
SUNPOU
  6
CONTINUOUS
 62
     4
 10
24083.010528585161
 20
5798.536116000002
 30
0.0
 11
24083.010528585161
 21
4861.1885390000043
 31
0.0
  0
LINE
  5
10291
  8
SUNPOU
  6
CONTINUOUS
 62
     4
 10
21283.010528585161
 20
5798.536116000002
 30
0.0
 11
21283.010528585161
 21
4861.1885390000043
 31
0.0
  0
LINE
  5
10292
  8
SUNPOU
  6
CONTINUOUS
 62
     4
 10
24083.010528585161
 20
4941.1885390000016
 30
0.0
 11
21283.010528585161
 21
4941.1885390000016
 31
0.0
  0
LINE
  5
10293
  8
SUNPOU
  6
CONTINUOUS
 62
     4
 10
24040.510528585161
 20
8539.6884659999996
 30
0.0
 11
24040.510528585161
 21
9469.1900500000029
 31
0.0
  0
LINE
  5
10294
  8
SUNPOU
  6
CONTINUOUS
 62
     4
 10
21240.510528585161
 20
8669.6883999999955
 30
0.0
 11
21240.510528585161
 21
9469.1900500000029
 31
0.0
  0
LINE
  5
10295
  8
SUNPOU
  6
CONTINUOUS
 62
     4
 10
24040.510528585161
 20
9389.1900500000029
 30
0.0
 11
21240.510528585161
 21
9389.1900500000029
 31
0.0
  0
LINE
  5
10296
  8
SUNPOU
  6
CONTINUOUS
 62
     4
 10
21160.510528585161
 20
6241.1883740000048
 30
0.0
 11
20075.68813029076
 21
6241.1883740000048
 31
0.0
  0
LINE
  5
10297
  8
SUNPOU
  6
CONTINUOUS
 62
     4
 10
21160.510528585161
 20
8261.1883740000048
 30
0.0
 11
20075.68813029076
 21
8261.1883740000067
 31
0.0
  0
LINE
  5
10298
  8
SUNPOU
  6
CONTINUOUS
 62
     4
 10
20155.68813029076
 20
6241.1883740000048
 30
0.0
 11
20155.68813029076
 21
8261.1883740000067
 31
0.0
  0
TEXT
  5
10299
  8
0
  6
CONTINUOUS
 62
     7
 10
20075.68813029076
 20
6588.1883740000094
 30
0.0
 40
160.0
  1
有効高サ2020
 50
90.0
  0
TEXT
  5
1029A
  8
0
  6
CONTINUOUS
 62
     7
 10
22373.843861918482
 20
9469.1900500000029
 30
0.0
 40
160.0
  1
2800
  0
TEXT
  5
1029B
  8
0
  6
CONTINUOUS
 62
     7
 10
22416.343861918482
 20
5021.1885390000043
 30
0.0
 40
160.0
  1
2800
  0
TEXT
  5
1029C
  8
0
  6
CONTINUOUS
 62
     7
 10
20640.509868585181
 20
5021.1883080000043
 30
0.0
 40
160.0
  1
42.5
  0
TEXT
  5
1029D
  8
0
  6
CONTINUOUS
 62
     7
 10
24486.760528585161
 20
5421.1883740000048
 30
0.0
 40
160.0
  1
有効開口巾2379.5
  0
TEXT
  5
1029E
  8
0
  6
CONTINUOUS
 62
     7
 10
24966.760528585171
 20
5021.1885390000043
 30
0.0
 40
160.0
  1
2567.5
  0
TEXT
  5
1029F
  8
0
  6
CONTINUOUS
 62
     7
 10
26792.83355958516
 20
5028.7357170000032
 30
0.0
 40
160.0
  1
42.5
  0
TEXT
  5
102A0
  8
0
  6
CONTINUOUS
 62
     7
 10
23566.740552111401
 20
4621.1887040000584
 30
0.0
 40
160.0
  1
5452.5
  0
TEXT
  5
102A1
  8
0
  6
CONTINUOUS
 62
     7
 10
21934.843861918482
 20
5421.1883740000048
 30
0.0
 40
160.0
  1
有効開口巾2712
  0
TEXT
  5
102A2
  8
0
  6
CONTINUOUS
 62
     7
 10
27420.51382758516
 20
6264.2717073333424
 30
0.0
 40
160.0
  1
有効開口高サ1891.5
 50
90.0
  0
TEXT
  5
102A3
  8
0
  6
CONTINUOUS
 62
     7
 10
28063.612779289891
 20
6610.3550536666726
 30
0.0
 40
160.0
  1
2349（2589）
 50
90.0
  0
TEXT
  5
102A4
  8
0
  6
CONTINUOUS
 62
     7
 10
24966.760528585171
 20
9469.1900500000029
 30
0.0
 40
160.0
  1
2652.5
  0
TEXT
  5
102A5
  8
0
  6
CONTINUOUS
 62
     7
 10
26822.818514585171
 20
9469.1893240000081
 30
0.0
 40
160.0
  1
43
  0
TEXT
  5
102A6
  8
0
  6
CONTINUOUS
 62
     7
 10
20823.044708585141
 20
9469.1893240000081
 30
0.0
 40
160.0
  1
43
  0
TEXT
  5
102A7
  8
0
  6
CONTINUOUS
 62
     7
 10
23566.760528585161
 20
9869.1329740000092
 30
0.0
 40
160.0
  1
5538.5
  0
TEXT
  5
102A8
  8
0
  6
CONTINUOUS
 62
     7
 10
8618.2971496935806
 20
5021.1885390000043
 30
0.0
 40
160.0
  1
2567.5
  0
TEXT
  5
102A9
  8
0
  6
CONTINUOUS
 62
     7
 10
11185.79714969357
 20
5021.1885390000043
 30
0.0
 40
160.0
  1
2567.5
  0
TEXT
  5
102AA
  8
0
  6
CONTINUOUS
 62
     7
 10
13014.03676369357
 20
5022.1790570000012
 30
0.0
 40
160.0
  1
42.5
  0
TEXT
  5
102AB
  8
0
  6
CONTINUOUS
 62
     7
 10
7092.0454996935732
 20
5021.1883080000043
 30
0.0
 40
160.0
  1
42.5
  0
TEXT
  5
102AC
  8
0
  6
CONTINUOUS
 62
     7
 10
10022.047149693561
 20
4621.1887040000001
 30
0.0
 40
160.0
  1
5220
  0
TEXT
  5
102AD
  8
0
  6
CONTINUOUS
 62
     7
 10
13922.04754569356
 20
6326.9383740000076
 30
0.0
 40
160.0
  1
2155.5（2395.5）
 50
90.0
  0
TEXT
  5
102AE
  8
0
  6
CONTINUOUS
 62
     7
 10
6522.0467536935739
 20
6610.3550406666718
 30
0.0
 40
160.0
  1
2349（2589）
 50
90.0
  0
TEXT
  5
102AF
  8
0
  6
CONTINUOUS
 62
     7
 10
13199.722298162011
 20
9469.1900500000029
 30
0.0
 40
160.0
  1
180
  0
TEXT
  5
102B0
  8
0
  6
CONTINUOUS
 62
     7
 10
10022.047149693561
 20
9469.1900500000029
 30
0.0
 40
160.0
  1
5220
  0
TEXT
  5
102B1
  8
0
  6
CONTINUOUS
 62
     7
 10
7128.7138163602458
 20
9469.1900500000029
 30
0.0
 40
160.0
  1
150
  0
TEXT
  5
102B2
  8
0
  6
CONTINUOUS
 62
     7
 10
10037.047149693581
 20
9869.1883999999955
 30
0.0
 40
160.0
  1
5550
  0
TEXT
  5
102B8
  8
0
  6
CONTINUOUS
 62
     7
 10
19985.165189216521
 20
15066.73697799999
 30
0.0
 40
160.0
  1
2567.5
 50
90.0
  0
TEXT
  5
102B9
  8
0
  6
CONTINUOUS
 62
     7
 10
19985.165189216521
 20
17634.23697799999
 30
0.0
 40
160.0
  1
2567.5
 50
90.0
  0
TEXT
  5
102BA
  8
0
  6
CONTINUOUS
 62
     7
 10
20662.086885585159
 20
20240.486185999969
 30
0.0
 40
160.0
  1
42.5
  0
TEXT
  5
102BB
  8
0
  6
CONTINUOUS
 62
     7
 10
21340.182852585142
 20
20259.83004199999
 30
0.0
 40
160.0
  1
42.5
  0
TEXT
  5
102BC
  8
0
  6
CONTINUOUS
 62
     7
 10
24966.758813585158
 20
20640.487901999972
 30
0.0
 40
160.0
  1
2567.5
  0
TEXT
  5
102BD
  8
0
  6
CONTINUOUS
 62
     7
 10
22416.34214691849
 20
20640.487901999972
 30
0.0
 40
160.0
  1
2800
  0
TEXT
  5
102C1
  8
0
  6
CONTINUOUS
 62
     7
 10
23490.88700046482
 20
20259.83004199999
 30
0.0
 40
160.0
  1
42.5
  0
TEXT
  5
102C2
  8
0
  6
CONTINUOUS
 62
     7
 10
24158.2032356614
 20
20253.095746796189
 30
0.0
 40
160.0
  1
407.5
  0
TEXT
  5
102C3
  8
0
  6
CONTINUOUS
 62
     7
 10
24685.570545729421
 20
19916.773169146622
 30
0.0
 40
160.0
  1
701
  0
TEXT
  5
102C4
  8
0
  6
CONTINUOUS
 62
     7
 10
25368.677459251809
 20
20240.487901999972
 30
0.0
 40
160.0
  1
701
  0
TEXT
  5
102C5
  8
0
  6
CONTINUOUS
 62
     7
 10
26058.177459251809
 20
20240.487901999972
 30
0.0
 40
160.0
  1
758
  0
TEXT
  5
102D2
  8
0
  6
CONTINUOUS
 62
     7
 10
26791.43272058513
 20
20240.487901999972
 30
0.0
 40
160.0
  1
42.5
  0
TEXT
  5
102D3
  8
0
  6
CONTINUOUS
 62
     7
 10
9372.0421672022185
 20
12780.48618599998
 30
0.0
 40
160.0
  1
ケラバ外寸5538.5
  0
TEXT
  5
102D4
  8
0
  6
CONTINUOUS
 62
     7
 10
13025.60581586887
 20
20240.486185999969
 30
0.0
 40
160.0
  1
85.5
  0
TEXT
  5
102D5
  8
0
  6
CONTINUOUS
 62
     7
 10
11246.70883386889
 20
20240.487901999972
 30
0.0
 40
160.0
  1
2567.5
  0
TEXT
  5
102D6
  8
0
  6
CONTINUOUS
 62
     7
 10
8696.2923292022278
 20
20240.487901999972
 30
0.0
 40
160.0
  1
2800
  0
TEXT
  5
102D7
  8
0
  6
CONTINUOUS
 62
     7
 10
6899.6404360419256
 20
20240.486185999969
 30
0.0
 40
160.0
  1
85.5
  0
TEXT
  5
102D8
  8
0
  6
CONTINUOUS
 62
     7
 10
13410.084754863001
 20
19685.249039999981
 30
0.0
 40
160.0
  1
22
 50
90.0
  0
TEXT
  5
102D9
  8
0
  6
CONTINUOUS
 62
     7
 10
13779.95877186888
 20
19618.968500389201
 30
0.0
 40
160.0
  1
222.5
 50
90.0
  0
TEXT
  5
102DA
  8
0
  6
CONTINUOUS
 62
     7
 10
13779.95877186888
 20
18321.510483731279
 30
0.0
 40
160.0
  1
1108.5
 50
90.0
  0
TEXT
  5
102DB
  8
0
  6
CONTINUOUS
 62
     7
 10
13779.958771868891
 20
13326.49734959056
 30
0.0
 40
160.0
  1
192.5
 50
90.0
  0
TEXT
  5
102DC
  8
0
  6
CONTINUOUS
 62
     7
 10
13779.95844786887
 20
17213.320311333329
 30
0.0
 40
160.0
  1
1459
 50
90.0
  0
TEXT
  5
102DD
  8
0
  6
CONTINUOUS
 62
     7
 10
13779.95844786887
 20
15754.320311333309
 30
0.0
 40
160.0
  1
1459
 50
90.0
  0
TEXT
  5
102DE
  8
0
  6
CONTINUOUS
 62
     7
 10
13779.95844786887
 20
14403.90364466666
 30
0.0
 40
160.0
  1
1108.5
 50
90.0
  0
ARC
  5
102DF
  8
0
  6
BYBLOCK
 62
     0
 10
13859.95844786887
 20
15291.48697799999
 30
0.0
 40
15.0
 50
270.0
 51
90.0
  0
ARC
  5
102E0
  8
0
  6
BYBLOCK
 62
     0
 10
13859.95844786887
 20
15291.48697799999
 30
0.0
 40
15.0
 50
90.0
 51
270.0
  0
ARC
  5
102E1
  8
0
  6
BYBLOCK
 62
     0
 10
13859.95844786887
 20
14182.986977999981
 30
0.0
 40
15.0
 50
90.0
 51
270.0
  0
ARC
  5
102E2
  8
0
  6
BYBLOCK
 62
     0
 10
13859.95844786887
 20
14182.986977999981
 30
0.0
 40
15.0
 50
270.0
 51
90.0
  0
ARC
  5
102E3
  8
0
  6
BYBLOCK
 62
     0
 10
13859.958447868879
 20
16750.486977999979
 30
0.0
 40
15.0
 50
270.0
 51
90.0
  0
ARC
  5
102E4
  8
0
  6
BYBLOCK
 62
     0
 10
13859.958447868879
 20
16750.486977999979
 30
0.0
 40
15.0
 50
90.0
 51
270.0
  0
ARC
  5
102E5
  8
0
  6
BYBLOCK
 62
     0
 10
13859.958447868879
 20
15291.48697799999
 30
0.0
 40
15.0
 50
90.0
 51
270.0
  0
ARC
  5
102E6
  8
0
  6
BYBLOCK
 62
     0
 10
13859.958447868879
 20
15291.48697799999
 30
0.0
 40
15.0
 50
270.0
 51
90.0
  0
ARC
  5
102E7
  8
0
  6
BYBLOCK
 62
     0
 10
13859.958447868879
 20
18209.48697799999
 30
0.0
 40
15.0
 50
270.0
 51
90.0
  0
ARC
  5
102E8
  8
0
  6
BYBLOCK
 62
     0
 10
13859.958447868879
 20
18209.48697799999
 30
0.0
 40
15.0
 50
90.0
 51
270.0
  0
ARC
  5
102E9
  8
0
  6
BYBLOCK
 62
     0
 10
13859.958447868879
 20
16750.486977999979
 30
0.0
 40
15.0
 50
90.0
 51
270.0
  0
ARC
  5
102EA
  8
0
  6
BYBLOCK
 62
     0
 10
13859.958447868879
 20
16750.486977999979
 30
0.0
 40
15.0
 50
270.0
 51
90.0
  0
ARC
  5
102EB
  8
0
  6
BYBLOCK
 62
     0
 10
13859.95877186888
 20
14182.986252000001
 30
0.0
 40
15.0
 50
270.0
 51
90.0
  0
ARC
  5
102EC
  8
0
  6
BYBLOCK
 62
     0
 10
13859.95877186888
 20
14182.986252000001
 30
0.0
 40
15.0
 50
90.0
 51
270.0
  0
ARC
  5
102ED
  8
0
  6
BYBLOCK
 62
     0
 10
13859.95877186888
 20
13990.486977999981
 30
0.0
 40
15.0
 50
90.0
 51
270.0
  0
ARC
  5
102EE
  8
0
  6
BYBLOCK
 62
     0
 10
13859.95877186888
 20
13990.486977999981
 30
0.0
 40
15.0
 50
270.0
 51
90.0
  0
ARC
  5
102EF
  8
0
  6
BYBLOCK
 62
     0
 10
13859.95877186888
 20
19317.986977999961
 30
0.0
 40
15.0
 50
270.0
 51
90.0
  0
ARC
  5
102F0
  8
0
  6
BYBLOCK
 62
     0
 10
13859.95877186888
 20
19317.986977999961
 30
0.0
 40
15.0
 50
90.0
 51
270.0
  0
ARC
  5
102F1
  8
0
  6
BYBLOCK
 62
     0
 10
13859.95877186888
 20
18209.48697799999
 30
0.0
 40
15.0
 50
90.0
 51
270.0
  0
ARC
  5
102F2
  8
0
  6
BYBLOCK
 62
     0
 10
13859.95877186888
 20
18209.48697799999
 30
0.0
 40
15.0
 50
270.0
 51
90.0
  0
ARC
  5
102F3
  8
0
  6
BYBLOCK
 62
     0
 10
13859.95877186888
 20
19317.986977999961
 30
0.0
 40
15.0
 50
90.0
 51
270.0
  0
ARC
  5
102F4
  8
0
  6
BYBLOCK
 62
     0
 10
13859.95877186888
 20
19317.986977999961
 30
0.0
 40
15.0
 50
270.0
 51
90.0
  0
ARC
  5
102F5
  8
0
  6
BYBLOCK
 62
     0
 10
13859.95877186888
 20
19540.486845999982
 30
0.0
 40
15.0
 50
270.0
 51
90.0
  0
ARC
  5
102F6
  8
0
  6
BYBLOCK
 62
     0
 10
13859.95877186888
 20
19540.486845999982
 30
0.0
 40
15.0
 50
90.0
 51
270.0
  0
ARC
  5
102F7
  8
0
  6
BYBLOCK
 62
     0
 10
13459.95943086887
 20
19500.48671399997
 30
0.0
 40
15.0
 50
270.0
 51
90.0
  0
ARC
  5
102F8
  8
0
  6
BYBLOCK
 62
     0
 10
13459.95943086887
 20
19500.48671399997
 30
0.0
 40
15.0
 50
90.0
 51
270.0
  0
ARC
  5
102F9
  8
0
  6
BYBLOCK
 62
     0
 10
13459.95943086887
 20
19540.486845999982
 30
0.0
 40
15.0
 50
90.0
 51
270.0
  0
ARC
  5
102FA
  8
0
  6
BYBLOCK
 62
     0
 10
13459.95943086887
 20
19540.486845999982
 30
0.0
 40
15.0
 50
270.0
 51
90.0
  0
ARC
  5
102FB
  8
0
  6
BYBLOCK
 62
     0
 10
7562.958995868893
 20
20160.487901999972
 30
0.0
 40
15.0
 50
0.0
 51
180.0
  0
ARC
  5
102FC
  8
0
  6
BYBLOCK
 62
     0
 10
7562.958995868893
 20
20160.487901999972
 30
0.0
 40
15.0
 50
180.0
 51
0.0
  0
ARC
  5
102FD
  8
0
  6
BYBLOCK
 62
     0
 10
7477.458995868893
 20
20160.487901999972
 30
0.0
 40
15.0
 50
180.0
 51
0.0
  0
ARC
  5
102FE
  8
0
  6
BYBLOCK
 62
     0
 10
7477.458995868893
 20
20160.487901999972
 30
0.0
 40
15.0
 50
0.0
 51
180.0
  0
ARC
  5
102FF
  8
0
  6
BYBLOCK
 62
     0
 10
10362.95899586889
 20
20160.487901999972
 30
0.0
 40
15.0
 50
180.0
 51
0.0
  0
ARC
  5
10300
  8
0
  6
BYBLOCK
 62
     0
 10
10362.95899586889
 20
20160.487901999972
 30
0.0
 40
15.0
 50
0.0
 51
180.0
  0
ARC
  5
10301
  8
0
  6
BYBLOCK
 62
     0
 10
7562.958995868893
 20
20160.487901999972
 30
0.0
 40
15.0
 50
0.0
 51
180.0
  0
ARC
  5
10302
  8
0
  6
BYBLOCK
 62
     0
 10
7562.958995868893
 20
20160.487901999972
 30
0.0
 40
15.0
 50
180.0
 51
0.0
  0
ARC
  5
10303
  8
0
  6
BYBLOCK
 62
     0
 10
12930.45867186889
 20
20160.487901999972
 30
0.0
 40
15.0
 50
180.0
 51
0.0
  0
ARC
  5
10304
  8
0
  6
BYBLOCK
 62
     0
 10
12930.45867186889
 20
20160.487901999972
 30
0.0
 40
15.0
 50
0.0
 51
180.0
  0
ARC
  5
10305
  8
0
  6
BYBLOCK
 62
     0
 10
10362.95899586889
 20
20160.487901999972
 30
0.0
 40
15.0
 50
0.0
 51
180.0
  0
ARC
  5
10306
  8
0
  6
BYBLOCK
 62
     0
 10
10362.95899586889
 20
20160.487901999972
 30
0.0
 40
15.0
 50
180.0
 51
0.0
  0
ARC
  5
10307
  8
0
  6
BYBLOCK
 62
     0
 10
12930.45867186889
 20
20160.487901999972
 30
0.0
 40
15.0
 50
180.0
 51
0.0
  0
ARC
  5
10308
  8
0
  6
BYBLOCK
 62
     0
 10
12930.45867186889
 20
20160.487901999972
 30
0.0
 40
15.0
 50
0.0
 51
180.0
  0
ARC
  5
10309
  8
0
  6
BYBLOCK
 62
     0
 10
13015.95867186889
 20
20160.487901999972
 30
0.0
 40
15.0
 50
0.0
 51
180.0
  0
ARC
  5
1030A
  8
0
  6
BYBLOCK
 62
     0
 10
13015.95867186889
 20
20160.487901999972
 30
0.0
 40
15.0
 50
180.0
 51
0.0
  0
ARC
  5
1030B
  8
0
  6
BYBLOCK
 62
     0
 10
13015.95867186887
 20
12700.48618599998
 30
0.0
 40
15.0
 50
180.0
 51
0.0
  0
ARC
  5
1030C
  8
0
  6
BYBLOCK
 62
     0
 10
13015.95867186887
 20
12700.48618599998
 30
0.0
 40
15.0
 50
0.0
 51
180.0
  0
ARC
  5
1030D
  8
0
  6
BYBLOCK
 62
     0
 10
7477.4589958688903
 20
12700.48618599998
 30
0.0
 40
15.0
 50
0.0
 51
180.0
  0
ARC
  5
1030E
  8
0
  6
BYBLOCK
 62
     0
 10
7477.4589958688903
 20
12700.48618599998
 30
0.0
 40
15.0
 50
180.0
 51
0.0
  0
ARC
  5
1030F
  8
0
  6
BYBLOCK
 62
     0
 10
26650.510792585152
 20
20160.487901999972
 30
0.0
 40
15.0
 50
180.0
 51
0.0
  0
ARC
  5
10310
  8
0
  6
BYBLOCK
 62
     0
 10
26650.510792585152
 20
20160.487901999972
 30
0.0
 40
15.0
 50
0.0
 51
180.0
  0
ARC
  5
10311
  8
0
  6
BYBLOCK
 62
     0
 10
26693.010792585152
 20
20160.487901999972
 30
0.0
 40
15.0
 50
0.0
 51
180.0
  0
ARC
  5
10312
  8
0
  6
BYBLOCK
 62
     0
 10
26693.010792585152
 20
20160.487901999972
 30
0.0
 40
15.0
 50
180.0
 51
0.0
  0
ARC
  5
10343
  8
0
  6
BYBLOCK
 62
     0
 10
25892.510792585152
 20
20160.487901999972
 30
0.0
 40
15.0
 50
0.0
 51
180.0
  0
ARC
  5
10344
  8
0
  6
BYBLOCK
 62
     0
 10
25892.510792585152
 20
20160.487901999972
 30
0.0
 40
15.0
 50
180.0
 51
0.0
  0
ARC
  5
10345
  8
0
  6
BYBLOCK
 62
     0
 10
26650.510792585152
 20
20160.487901999972
 30
0.0
 40
15.0
 50
180.0
 51
0.0
  0
ARC
  5
10346
  8
0
  6
BYBLOCK
 62
     0
 10
26650.510792585152
 20
20160.487901999972
 30
0.0
 40
15.0
 50
0.0
 51
180.0
  0
ARC
  5
10347
  8
0
  6
BYBLOCK
 62
     0
 10
25191.510792585152
 20
20160.487901999972
 30
0.0
 40
15.0
 50
0.0
 51
180.0
  0
ARC
  5
10348
  8
0
  6
BYBLOCK
 62
     0
 10
25191.510792585152
 20
20160.487901999972
 30
0.0
 40
15.0
 50
180.0
 51
0.0
  0
ARC
  5
10349
  8
0
  6
BYBLOCK
 62
     0
 10
25892.510792585152
 20
20160.487901999972
 30
0.0
 40
15.0
 50
180.0
 51
0.0
  0
ARC
  5
1034A
  8
0
  6
BYBLOCK
 62
     0
 10
25892.510792585152
 20
20160.487901999972
 30
0.0
 40
15.0
 50
0.0
 51
180.0
  0
ARC
  5
1034B
  8
0
  6
BYBLOCK
 62
     0
 10
24490.510792585152
 20
20160.487901999972
 30
0.0
 40
15.0
 50
0.0
 51
180.0
  0
ARC
  5
1034C
  8
0
  6
BYBLOCK
 62
     0
 10
24490.510792585152
 20
20160.487901999972
 30
0.0
 40
15.0
 50
180.0
 51
0.0
  0
ARC
  5
1034D
  8
0
  6
BYBLOCK
 62
     0
 10
25191.510792585152
 20
20160.487901999972
 30
0.0
 40
15.0
 50
180.0
 51
0.0
  0
ARC
  5
1034E
  8
0
  6
BYBLOCK
 62
     0
 10
25191.510792585152
 20
20160.487901999972
 30
0.0
 40
15.0
 50
0.0
 51
180.0
  0
ARC
  5
1034F
  8
0
  6
BYBLOCK
 62
     0
 10
24083.010792585152
 20
20160.487901999972
 30
0.0
 40
15.0
 50
0.0
 51
180.0
  0
ARC
  5
10350
  8
0
  6
BYBLOCK
 62
     0
 10
24083.010792585152
 20
20160.487901999972
 30
0.0
 40
15.0
 50
180.0
 51
0.0
  0
ARC
  5
10351
  8
0
  6
BYBLOCK
 62
     0
 10
24490.510792585152
 20
20160.487901999972
 30
0.0
 40
15.0
 50
180.0
 51
0.0
  0
ARC
  5
10352
  8
0
  6
BYBLOCK
 62
     0
 10
24490.510792585152
 20
20160.487901999972
 30
0.0
 40
15.0
 50
0.0
 51
180.0
  0
ARC
  5
10353
  8
0
  6
BYBLOCK
 62
     0
 10
24083.010792585152
 20
20160.487901999972
 30
0.0
 40
15.0
 50
0.0
 51
180.0
  0
ARC
  5
10354
  8
0
  6
BYBLOCK
 62
     0
 10
24083.010792585152
 20
20160.487901999972
 30
0.0
 40
15.0
 50
180.0
 51
0.0
  0
ARC
  5
10355
  8
0
  6
BYBLOCK
 62
     0
 10
24040.510792585152
 20
20160.487901999972
 30
0.0
 40
15.0
 50
180.0
 51
0.0
  0
ARC
  5
10356
  8
0
  6
BYBLOCK
 62
     0
 10
24040.510792585152
 20
20160.487901999972
 30
0.0
 40
15.0
 50
0.0
 51
180.0
  0
ARC
  5
10363
  8
0
  6
BYBLOCK
 62
     0
 10
24083.008813585158
 20
20560.487901999972
 30
0.0
 40
15.0
 50
180.0
 51
0.0
  0
ARC
  5
10364
  8
0
  6
BYBLOCK
 62
     0
 10
24083.008813585158
 20
20560.487901999972
 30
0.0
 40
15.0
 50
0.0
 51
180.0
  0
ARC
  5
10365
  8
0
  6
BYBLOCK
 62
     0
 10
21283.008813585151
 20
20560.487901999972
 30
0.0
 40
15.0
 50
0.0
 51
180.0
  0
ARC
  5
10366
  8
0
  6
BYBLOCK
 62
     0
 10
21283.008813585151
 20
20560.487901999972
 30
0.0
 40
15.0
 50
180.0
 51
0.0
  0
ARC
  5
10367
  8
0
  6
BYBLOCK
 62
     0
 10
26650.508813585151
 20
20560.487901999972
 30
0.0
 40
15.0
 50
180.0
 51
0.0
  0
ARC
  5
10368
  8
0
  6
BYBLOCK
 62
     0
 10
26650.508813585151
 20
20560.487901999972
 30
0.0
 40
15.0
 50
0.0
 51
180.0
  0
ARC
  5
10369
  8
0
  6
BYBLOCK
 62
     0
 10
24083.008813585158
 20
20560.487901999972
 30
0.0
 40
15.0
 50
0.0
 51
180.0
  0
ARC
  5
1036A
  8
0
  6
BYBLOCK
 62
     0
 10
24083.008813585158
 20
20560.487901999972
 30
0.0
 40
15.0
 50
180.0
 51
0.0
  0
ARC
  5
1036B
  8
0
  6
BYBLOCK
 62
     0
 10
21283.008813585151
 20
20160.487901999972
 30
0.0
 40
15.0
 50
180.0
 51
0.0
  0
ARC
  5
1036C
  8
0
  6
BYBLOCK
 62
     0
 10
21283.008813585151
 20
20160.487901999972
 30
0.0
 40
15.0
 50
0.0
 51
180.0
  0
ARC
  5
1036D
  8
0
  6
BYBLOCK
 62
     0
 10
21325.51105658515
 20
20160.487901999972
 30
0.0
 40
15.0
 50
0.0
 51
180.0
  0
ARC
  5
1036E
  8
0
  6
BYBLOCK
 62
     0
 10
21325.51105658515
 20
20160.487901999972
 30
0.0
 40
15.0
 50
180.0
 51
0.0
  0
ARC
  5
1036F
  8
0
  6
BYBLOCK
 62
     0
 10
21283.008813585151
 20
20160.487901999972
 30
0.0
 40
15.0
 50
0.0
 51
180.0
  0
ARC
  5
10370
  8
0
  6
BYBLOCK
 62
     0
 10
21283.008813585151
 20
20160.487901999972
 30
0.0
 40
15.0
 50
180.0
 51
0.0
  0
ARC
  5
10371
  8
0
  6
BYBLOCK
 62
     0
 10
21240.510528585161
 20
20160.487901999972
 30
0.0
 40
15.0
 50
180.0
 51
0.0
  0
ARC
  5
10372
  8
0
  6
BYBLOCK
 62
     0
 10
21240.510528585161
 20
20160.487901999972
 30
0.0
 40
15.0
 50
0.0
 51
180.0
  0
ARC
  5
10373
  8
0
  6
BYBLOCK
 62
     0
 10
20065.165189216521
 20
16750.486977999979
 30
0.0
 40
15.0
 50
90.0
 51
270.0
  0
ARC
  5
10374
  8
0
  6
BYBLOCK
 62
     0
 10
20065.165189216521
 20
16750.486977999979
 30
0.0
 40
15.0
 50
270.0
 51
90.0
  0
ARC
  5
10375
  8
0
  6
BYBLOCK
 62
     0
 10
20065.165189216521
 20
19317.986977999979
 30
0.0
 40
15.0
 50
270.0
 51
90.0
  0
ARC
  5
10376
  8
0
  6
BYBLOCK
 62
     0
 10
20065.165189216521
 20
19317.986977999979
 30
0.0
 40
15.0
 50
90.0
 51
270.0
  0
ARC
  5
10377
  8
0
  6
BYBLOCK
 62
     0
 10
20065.165189216521
 20
14182.986978000001
 30
0.0
 40
15.0
 50
90.0
 51
270.0
  0
ARC
  5
10378
  8
0
  6
BYBLOCK
 62
     0
 10
20065.165189216521
 20
14182.986978000001
 30
0.0
 40
15.0
 50
270.0
 51
90.0
  0
ARC
  5
10379
  8
0
  6
BYBLOCK
 62
     0
 10
20065.165189216521
 20
16750.486977999979
 30
0.0
 40
15.0
 50
270.0
 51
90.0
  0
ARC
  5
1037A
  8
0
  6
BYBLOCK
 62
     0
 10
20065.165189216521
 20
16750.486977999979
 30
0.0
 40
15.0
 50
90.0
 51
270.0
  0
ARC
  5
1038F
  8
0
  6
BYBLOCK
 62
     0
 10
13092.04714969357
 20
9789.1883999999991
 30
0.0
 40
15.0
 50
180.0
 51
0.0
  0
ARC
  5
10390
  8
0
  6
BYBLOCK
 62
     0
 10
13092.04714969357
 20
9789.1883999999991
 30
0.0
 40
15.0
 50
0.0
 51
180.0
  0
ARC
  5
10391
  8
0
  6
BYBLOCK
 62
     0
 10
7542.047149693577
 20
9789.1883999999991
 30
0.0
 40
15.0
 50
0.0
 51
180.0
  0
ARC
  5
10392
  8
0
  6
BYBLOCK
 62
     0
 10
7542.047149693577
 20
9789.1883999999991
 30
0.0
 40
15.0
 50
180.0
 51
0.0
  0
ARC
  5
10393
  8
0
  6
BYBLOCK
 62
     0
 10
7692.0471496935697
 20
9389.1900500000029
 30
0.0
 40
15.0
 50
0.0
 51
180.0
  0
ARC
  5
10394
  8
0
  6
BYBLOCK
 62
     0
 10
7692.0471496935697
 20
9389.1900500000029
 30
0.0
 40
15.0
 50
180.0
 51
0.0
  0
ARC
  5
10395
  8
0
  6
BYBLOCK
 62
     0
 10
7542.047149693577
 20
9389.1900500000029
 30
0.0
 40
15.0
 50
180.0
 51
0.0
  0
ARC
  5
10396
  8
0
  6
BYBLOCK
 62
     0
 10
7542.047149693577
 20
9389.1900500000029
 30
0.0
 40
15.0
 50
0.0
 51
180.0
  0
ARC
  5
10397
  8
0
  6
BYBLOCK
 62
     0
 10
12912.04714969357
 20
9389.1900500000029
 30
0.0
 40
15.0
 50
180.0
 51
0.0
  0
ARC
  5
10398
  8
0
  6
BYBLOCK
 62
     0
 10
12912.04714969357
 20
9389.1900500000029
 30
0.0
 40
15.0
 50
0.0
 51
180.0
  0
ARC
  5
10399
  8
0
  6
BYBLOCK
 62
     0
 10
7692.0471496935697
 20
9389.1900500000029
 30
0.0
 40
15.0
 50
0.0
 51
180.0
  0
ARC
  5
1039A
  8
0
  6
BYBLOCK
 62
     0
 10
7692.0471496935697
 20
9389.1900500000029
 30
0.0
 40
15.0
 50
180.0
 51
0.0
  0
ARC
  5
1039B
  8
0
  6
BYBLOCK
 62
     0
 10
13092.04714969357
 20
9389.1900500000029
 30
0.0
 40
15.0
 50
180.0
 51
0.0
  0
ARC
  5
1039C
  8
0
  6
BYBLOCK
 62
     0
 10
13092.04714969357
 20
9389.1900500000029
 30
0.0
 40
15.0
 50
0.0
 51
180.0
  0
ARC
  5
1039D
  8
0
  6
BYBLOCK
 62
     0
 10
12912.04714969357
 20
9389.1900500000029
 30
0.0
 40
15.0
 50
0.0
 51
180.0
  0
ARC
  5
1039E
  8
0
  6
BYBLOCK
 62
     0
 10
12912.04714969357
 20
9389.1900500000029
 30
0.0
 40
15.0
 50
180.0
 51
0.0
  0
ARC
  5
1039F
  8
0
  6
BYBLOCK
 62
     0
 10
6602.0467536935748
 20
6241.1883740000048
 30
0.0
 40
15.0
 50
90.0
 51
270.0
  0
ARC
  5
103A0
  8
0
  6
BYBLOCK
 62
     0
 10
6602.0467536935748
 20
6241.1883740000048
 30
0.0
 40
15.0
 50
270.0
 51
90.0
  0
ARC
  5
103A1
  8
0
  6
BYBLOCK
 62
     0
 10
6602.0467536935748
 20
8590.188374000003
 30
0.0
 40
15.0
 50
270.0
 51
90.0
  0
ARC
  5
103A2
  8
0
  6
BYBLOCK
 62
     0
 10
6602.0467536935748
 20
8590.188374000003
 30
0.0
 40
15.0
 50
90.0
 51
270.0
  0
ARC
  5
103A3
  8
0
  6
BYBLOCK
 62
     0
 10
14002.04754569356
 20
6241.1883740000048
 30
0.0
 40
15.0
 50
90.0
 51
270.0
  0
ARC
  5
103A4
  8
0
  6
BYBLOCK
 62
     0
 10
14002.04754569356
 20
6241.1883740000048
 30
0.0
 40
15.0
 50
270.0
 51
90.0
  0
ARC
  5
103A5
  8
0
  6
BYBLOCK
 62
     0
 10
14002.04754569356
 20
8396.688374000003
 30
0.0
 40
15.0
 50
270.0
 51
90.0
  0
ARC
  5
103A6
  8
0
  6
BYBLOCK
 62
     0
 10
14002.04754569356
 20
8396.688374000003
 30
0.0
 40
15.0
 50
90.0
 51
270.0
  0
ARC
  5
103A7
  8
0
  6
BYBLOCK
 62
     0
 10
12912.04714969357
 20
4541.1887040000001
 30
0.0
 40
15.0
 50
180.0
 51
0.0
  0
ARC
  5
103A8
  8
0
  6
BYBLOCK
 62
     0
 10
12912.04714969357
 20
4541.1887040000001
 30
0.0
 40
15.0
 50
0.0
 51
180.0
  0
ARC
  5
103A9
  8
0
  6
BYBLOCK
 62
     0
 10
7692.0471496935697
 20
4541.1887040000001
 30
0.0
 40
15.0
 50
0.0
 51
180.0
  0
ARC
  5
103AA
  8
0
  6
BYBLOCK
 62
     0
 10
7692.0471496935697
 20
4541.1887040000001
 30
0.0
 40
15.0
 50
180.0
 51
0.0
  0
ARC
  5
103AB
  8
0
  6
BYBLOCK
 62
     0
 10
7734.5471496935788
 20
4941.1885390000016
 30
0.0
 40
15.0
 50
0.0
 51
180.0
  0
ARC
  5
103AC
  8
0
  6
BYBLOCK
 62
     0
 10
7734.5471496935788
 20
4941.1885390000016
 30
0.0
 40
15.0
 50
180.0
 51
0.0
  0
ARC
  5
103AD
  8
0
  6
BYBLOCK
 62
     0
 10
7692.0471496935697
 20
4941.1885390000016
 30
0.0
 40
15.0
 50
180.0
 51
0.0
  0
ARC
  5
103AE
  8
0
  6
BYBLOCK
 62
     0
 10
7692.0471496935697
 20
4941.1885390000016
 30
0.0
 40
15.0
 50
0.0
 51
180.0
  0
ARC
  5
103AF
  8
0
  6
BYBLOCK
 62
     0
 10
12869.54714969357
 20
4941.1885390000016
 30
0.0
 40
15.0
 50
180.0
 51
0.0
  0
ARC
  5
103B0
  8
0
  6
BYBLOCK
 62
     0
 10
12869.54714969357
 20
4941.1885390000016
 30
0.0
 40
15.0
 50
0.0
 51
180.0
  0
ARC
  5
103B1
  8
0
  6
BYBLOCK
 62
     0
 10
12912.04714969357
 20
4941.1885390000016
 30
0.0
 40
15.0
 50
0.0
 51
180.0
  0
ARC
  5
103B2
  8
0
  6
BYBLOCK
 62
     0
 10
12912.04714969357
 20
4941.1885390000016
 30
0.0
 40
15.0
 50
180.0
 51
0.0
  0
ARC
  5
103B3
  8
0
  6
BYBLOCK
 62
     0
 10
10302.047149693581
 20
4941.1885390000016
 30
0.0
 40
15.0
 50
0.0
 51
180.0
  0
ARC
  5
103B4
  8
0
  6
BYBLOCK
 62
     0
 10
10302.047149693581
 20
4941.1885390000016
 30
0.0
 40
15.0
 50
180.0
 51
0.0
  0
ARC
  5
103B5
  8
0
  6
BYBLOCK
 62
     0
 10
12869.54714969357
 20
4941.1885390000016
 30
0.0
 40
15.0
 50
180.0
 51
0.0
  0
ARC
  5
103B6
  8
0
  6
BYBLOCK
 62
     0
 10
12869.54714969357
 20
4941.1885390000016
 30
0.0
 40
15.0
 50
0.0
 51
180.0
  0
ARC
  5
103B7
  8
0
  6
BYBLOCK
 62
     0
 10
10302.047149693581
 20
4941.1885390000016
 30
0.0
 40
15.0
 50
180.0
 51
0.0
  0
ARC
  5
103B8
  8
0
  6
BYBLOCK
 62
     0
 10
10302.047149693581
 20
4941.1885390000016
 30
0.0
 40
15.0
 50
0.0
 51
180.0
  0
ARC
  5
103B9
  8
0
  6
BYBLOCK
 62
     0
 10
7734.5471496935788
 20
4941.1885390000016
 30
0.0
 40
15.0
 50
0.0
 51
180.0
  0
ARC
  5
103BA
  8
0
  6
BYBLOCK
 62
     0
 10
7734.5471496935788
 20
4941.1885390000016
 30
0.0
 40
15.0
 50
180.0
 51
0.0
  0
ARC
  5
103BB
  8
0
  6
BYBLOCK
 62
     0
 10
26736.010528585171
 20
9789.1329740000092
 30
0.0
 40
15.0
 50
180.0
 51
0.0
  0
ARC
  5
103BC
  8
0
  6
BYBLOCK
 62
     0
 10
26736.010528585171
 20
9789.1329740000092
 30
0.0
 40
15.0
 50
0.0
 51
180.0
  0
ARC
  5
103BD
  8
0
  6
BYBLOCK
 62
     0
 10
21197.510528585161
 20
9789.1329740000092
 30
0.0
 40
15.0
 50
0.0
 51
180.0
  0
ARC
  5
103BE
  8
0
  6
BYBLOCK
 62
     0
 10
21197.510528585161
 20
9789.1329740000092
 30
0.0
 40
15.0
 50
180.0
 51
0.0
  0
ARC
  5
103BF
  8
0
  6
BYBLOCK
 62
     0
 10
21240.510528585161
 20
9389.1900500000029
 30
0.0
 40
15.0
 50
0.0
 51
180.0
  0
ARC
  5
103C0
  8
0
  6
BYBLOCK
 62
     0
 10
21240.510528585161
 20
9389.1900500000029
 30
0.0
 40
15.0
 50
180.0
 51
0.0
  0
ARC
  5
103C1
  8
0
  6
BYBLOCK
 62
     0
 10
21197.510528585161
 20
9389.1900500000029
 30
0.0
 40
15.0
 50
180.0
 51
0.0
  0
ARC
  5
103C2
  8
0
  6
BYBLOCK
 62
     0
 10
21197.510528585161
 20
9389.1900500000029
 30
0.0
 40
15.0
 50
0.0
 51
180.0
  0
ARC
  5
103C3
  8
0
  6
BYBLOCK
 62
     0
 10
26693.010528585171
 20
9389.1900500000029
 30
0.0
 40
15.0
 50
180.0
 51
0.0
  0
ARC
  5
103C4
  8
0
  6
BYBLOCK
 62
     0
 10
26693.010528585171
 20
9389.1900500000029
 30
0.0
 40
15.0
 50
0.0
 51
180.0
  0
ARC
  5
103C5
  8
0
  6
BYBLOCK
 62
     0
 10
26736.010528585171
 20
9389.1900500000029
 30
0.0
 40
15.0
 50
0.0
 51
180.0
  0
ARC
  5
103C6
  8
0
  6
BYBLOCK
 62
     0
 10
26736.010528585171
 20
9389.1900500000029
 30
0.0
 40
15.0
 50
180.0
 51
0.0
  0
ARC
  5
103C7
  8
0
  6
BYBLOCK
 62
     0
 10
24040.510528585161
 20
9389.1900500000029
 30
0.0
 40
15.0
 50
0.0
 51
180.0
  0
ARC
  5
103C8
  8
0
  6
BYBLOCK
 62
     0
 10
24040.510528585161
 20
9389.1900500000029
 30
0.0
 40
15.0
 50
180.0
 51
0.0
  0
ARC
  5
103C9
  8
0
  6
BYBLOCK
 62
     0
 10
26693.010528585171
 20
9389.1900500000029
 30
0.0
 40
15.0
 50
180.0
 51
0.0
  0
ARC
  5
103CA
  8
0
  6
BYBLOCK
 62
     0
 10
26693.010528585171
 20
9389.1900500000029
 30
0.0
 40
15.0
 50
0.0
 51
180.0
  0
ARC
  5
103CB
  8
0
  6
BYBLOCK
 62
     0
 10
28143.612779289891
 20
6241.1883740000048
 30
0.0
 40
15.0
 50
90.0
 51
270.0
  0
ARC
  5
103CC
  8
0
  6
BYBLOCK
 62
     0
 10
28143.612779289891
 20
6241.1883740000048
 30
0.0
 40
15.0
 50
270.0
 51
90.0
  0
ARC
  5
103CD
  8
0
  6
BYBLOCK
 62
     0
 10
28143.612779289899
 20
8590.1883999999973
 30
0.0
 40
15.0
 50
270.0
 51
90.0
  0
ARC
  5
103CE
  8
0
  6
BYBLOCK
 62
     0
 10
28143.612779289899
 20
8590.1883999999973
 30
0.0
 40
15.0
 50
90.0
 51
270.0
  0
ARC
  5
103CF
  8
0
  6
BYBLOCK
 62
     0
 10
27500.51382758516
 20
6241.1883740000048
 30
0.0
 40
15.0
 50
90.0
 51
270.0
  0
ARC
  5
103D0
  8
0
  6
BYBLOCK
 62
     0
 10
27500.51382758516
 20
6241.1883740000048
 30
0.0
 40
15.0
 50
270.0
 51
90.0
  0
ARC
  5
103D1
  8
0
  6
BYBLOCK
 62
     0
 10
27500.51382758516
 20
8132.6883740000021
 30
0.0
 40
15.0
 50
270.0
 51
90.0
  0
ARC
  5
103D2
  8
0
  6
BYBLOCK
 62
     0
 10
27500.51382758516
 20
8132.6883740000021
 30
0.0
 40
15.0
 50
90.0
 51
270.0
  0
ARC
  5
103D3
  8
0
  6
BYBLOCK
 62
     0
 10
24037.51052858515
 20
5341.1883740000048
 30
0.0
 40
15.0
 50
180.0
 51
0.0
  0
ARC
  5
103D4
  8
0
  6
BYBLOCK
 62
     0
 10
24037.51052858515
 20
5341.1883740000048
 30
0.0
 40
15.0
 50
0.0
 51
180.0
  0
ARC
  5
103D5
  8
0
  6
BYBLOCK
 62
     0
 10
21325.510528585161
 20
5341.1883740000048
 30
0.0
 40
15.0
 50
0.0
 51
180.0
  0
ARC
  5
103D6
  8
0
  6
BYBLOCK
 62
     0
 10
21325.510528585161
 20
5341.1883740000048
 30
0.0
 40
15.0
 50
180.0
 51
0.0
  0
ARC
  5
103D7
  8
0
  6
BYBLOCK
 62
     0
 10
26692.970575637639
 20
4541.1887040000593
 30
0.0
 40
15.0
 50
180.0
 51
0.0
  0
ARC
  5
103D8
  8
0
  6
BYBLOCK
 62
     0
 10
26692.970575637639
 20
4541.1887040000593
 30
0.0
 40
15.0
 50
0.0
 51
180.0
  0
ARC
  5
103D9
  8
0
  6
BYBLOCK
 62
     0
 10
21240.510528585161
 20
4541.1887040000593
 30
0.0
 40
15.0
 50
0.0
 51
180.0
  0
ARC
  5
103DA
  8
0
  6
BYBLOCK
 62
     0
 10
21240.510528585161
 20
4541.1887040000593
 30
0.0
 40
15.0
 50
180.0
 51
0.0
  0
ARC
  5
103DB
  8
0
  6
BYBLOCK
 62
     0
 10
26650.510528585171
 20
4941.1885390000016
 30
0.0
 40
15.0
 50
180.0
 51
0.0
  0
ARC
  5
103DC
  8
0
  6
BYBLOCK
 62
     0
 10
26650.510528585171
 20
4941.1885390000016
 30
0.0
 40
15.0
 50
0.0
 51
180.0
  0
ARC
  5
103DD
  8
0
  6
BYBLOCK
 62
     0
 10
26692.970575637639
 20
4941.1885390000016
 30
0.0
 40
15.0
 50
0.0
 51
180.0
  0
ARC
  5
103DE
  8
0
  6
BYBLOCK
 62
     0
 10
26692.970575637639
 20
4941.1885390000016
 30
0.0
 40
15.0
 50
180.0
 51
0.0
  0
ARC
  5
103DF
  8
0
  6
BYBLOCK
 62
     0
 10
24083.010528585161
 20
4941.1885390000016
 30
0.0
 40
15.0
 50
0.0
 51
180.0
  0
ARC
  5
103E0
  8
0
  6
BYBLOCK
 62
     0
 10
24083.010528585161
 20
4941.1885390000016
 30
0.0
 40
15.0
 50
180.0
 51
0.0
  0
ARC
  5
103E1
  8
0
  6
BYBLOCK
 62
     0
 10
26650.510528585171
 20
4941.1885390000016
 30
0.0
 40
15.0
 50
180.0
 51
0.0
  0
ARC
  5
103E2
  8
0
  6
BYBLOCK
 62
     0
 10
26650.510528585171
 20
4941.1885390000016
 30
0.0
 40
15.0
 50
0.0
 51
180.0
  0
ARC
  5
103E3
  8
0
  6
BYBLOCK
 62
     0
 10
26556.510528585171
 20
5341.1883740000048
 30
0.0
 40
15.0
 50
180.0
 51
0.0
  0
ARC
  5
103E4
  8
0
  6
BYBLOCK
 62
     0
 10
26556.510528585171
 20
5341.1883740000048
 30
0.0
 40
15.0
 50
0.0
 51
180.0
  0
ARC
  5
103E5
  8
0
  6
BYBLOCK
 62
     0
 10
24177.010528585171
 20
5341.1883740000048
 30
0.0
 40
15.0
 50
0.0
 51
180.0
  0
ARC
  5
103E6
  8
0
  6
BYBLOCK
 62
     0
 10
24177.010528585171
 20
5341.1883740000048
 30
0.0
 40
15.0
 50
180.0
 51
0.0
  0
ARC
  5
103E7
  8
0
  6
BYBLOCK
 62
     0
 10
21283.010528585161
 20
4941.1885390000016
 30
0.0
 40
15.0
 50
0.0
 51
180.0
  0
ARC
  5
103E8
  8
0
  6
BYBLOCK
 62
     0
 10
21283.010528585161
 20
4941.1885390000016
 30
0.0
 40
15.0
 50
180.0
 51
0.0
  0
ARC
  5
103E9
  8
0
  6
BYBLOCK
 62
     0
 10
21240.510528585161
 20
4941.1885390000016
 30
0.0
 40
15.0
 50
180.0
 51
0.0
  0
ARC
  5
103EA
  8
0
  6
BYBLOCK
 62
     0
 10
21240.510528585161
 20
4941.1885390000016
 30
0.0
 40
15.0
 50
0.0
 51
180.0
  0
ARC
  5
103EB
  8
0
  6
BYBLOCK
 62
     0
 10
24083.010528585161
 20
4941.1885390000016
 30
0.0
 40
15.0
 50
180.0
 51
0.0
  0
ARC
  5
103EC
  8
0
  6
BYBLOCK
 62
     0
 10
24083.010528585161
 20
4941.1885390000016
 30
0.0
 40
15.0
 50
0.0
 51
180.0
  0
ARC
  5
103ED
  8
0
  6
BYBLOCK
 62
     0
 10
21283.010528585161
 20
4941.1885390000016
 30
0.0
 40
15.0
 50
0.0
 51
180.0
  0
ARC
  5
103EE
  8
0
  6
BYBLOCK
 62
     0
 10
21283.010528585161
 20
4941.1885390000016
 30
0.0
 40
15.0
 50
180.0
 51
0.0
  0
ARC
  5
103EF
  8
0
  6
BYBLOCK
 62
     0
 10
24040.510528585161
 20
9389.1900500000029
 30
0.0
 40
15.0
 50
180.0
 51
0.0
  0
ARC
  5
103F0
  8
0
  6
BYBLOCK
 62
     0
 10
24040.510528585161
 20
9389.1900500000029
 30
0.0
 40
15.0
 50
0.0
 51
180.0
  0
ARC
  5
103F1
  8
0
  6
BYBLOCK
 62
     0
 10
21240.510528585161
 20
9389.1900500000029
 30
0.0
 40
15.0
 50
0.0
 51
180.0
  0
ARC
  5
103F2
  8
0
  6
BYBLOCK
 62
     0
 10
21240.510528585161
 20
9389.1900500000029
 30
0.0
 40
15.0
 50
180.0
 51
0.0
  0
ARC
  5
103F3
  8
0
  6
BYBLOCK
 62
     0
 10
20155.68813029076
 20
6241.1883740000048
 30
0.0
 40
15.0
 50
90.0
 51
270.0
  0
ARC
  5
103F4
  8
0
  6
BYBLOCK
 62
     0
 10
20155.68813029076
 20
6241.1883740000048
 30
0.0
 40
15.0
 50
270.0
 51
90.0
  0
ARC
  5
103F5
  8
0
  6
BYBLOCK
 62
     0
 10
20155.68813029076
 20
8261.1883740000067
 30
0.0
 40
15.0
 50
270.0
 51
90.0
  0
ARC
  5
103F6
  8
0
  6
BYBLOCK
 62
     0
 10
20155.68813029076
 20
8261.1883740000067
 30
0.0
 40
15.0
 50
90.0
 51
270.0
  0
TEXT
  5
104CD
  8
NAME
 10
21595.82616625919
 20
1076.6369801169251
 30
0.0
 40
360.0
  1
VGCU-2652（H）+VKCU-2852（H）型-L（単棟）
 41
0.4200000000000001
  0
TEXT
  5
104CF
  8
NAME
 10
21933.552716389011
 20
1876.0
 30
0.0
 40
360.0
  1
ヨドガレージ ラヴィージュ
 41
0.75
  7
01
  0
LINE
  5
104D0
  8
NAME
  6
CONTINUOUS
 10
26067.886878884299
 20
2236.0
 30
0.0
 11
26067.886878884299
 21
1876.0
 31
0.0
  0
LINE
  5
104D1
  8
NAME
  6
CONTINUOUS
 10
26167.886878884299
 20
2236.0
 30
0.0
 11
26167.886878884299
 21
1876.0
 31
0.0
  0
LINE
  5
104D2
  8
NAME
  6
CONTINUOUS
 10
26267.88687888431
 20
2236.0
 30
0.0
 11
26267.88687888431
 21
1876.0
 31
0.0
  0
LINE
  5
104D3
  8
NAME
  6
CONTINUOUS
 10
26007.886878884299
 20
2236.0
 30
0.0
 11
26327.886878884299
 21
2236.0
 31
0.0
  0
LINE
  5
104D4
  8
NAME
  6
CONTINUOUS
 10
26327.886878884299
 20
1876.0
 30
0.0
 11
26007.886878884299
 21
1876.0
 31
0.0
  0
LINE
  5
104E0
  8
2-0
  6
CENTER2
 62
     6
 10
24083.008813585151
 20
20960.489220999989
 30
0.0
 11
24083.008813585151
 21
13825.23309953157
 31
0.0
  0
LINE
  5
104E3
  8
2-0
  6
CENTER2
 62
     6
 10
26650.508813585151
 20
20960.489220999989
 30
0.0
 11
26650.508813585151
 21
13825.23309953157
 31
0.0
  0
LINE
  5
10CC2
  8
2-0
  6
CONTINUOUS
 62
     6
 10
24967.34989758514
 20
13542.985855999979
 30
0.0
 11
25967.343299585111
 21
13542.985855999979
 31
0.0
  0
LINE
  5
10CC3
  8
2-0
  6
CONTINUOUS
 62
     6
 10
26435.283676585139
 20
14013.40656999997
 30
0.0
 11
25967.343299585111
 21
13542.985855999979
 31
0.0
  0
LINE
  5
10CC4
  8
2-0
  6
CONTINUOUS
 62
     6
 10
24984.060993585132
 20
17871.60592099998
 30
0.0
 11
26002.036341585139
 21
17871.60592099998
 31
0.0
  0
LINE
  5
10CC5
  8
2-0
  6
CONTINUOUS
 62
     6
 10
26458.461859585121
 20
18096.320869999981
 30
0.0
 11
26002.036341585139
 21
17871.60592099998
 31
0.0
  0
LINE
  5
10CC6
  8
2-0
  6
CONTINUOUS
 62
     6
 10
26396.643473585151
 20
16854.514216999989
 30
0.0
 11
26091.94805558513
 21
16958.167748
 31
0.0
  0
LINE
  5
10CC7
  8
2-0
  6
CONTINUOUS
 62
     6
 10
26551.665512585121
 20
16364.892172999989
 30
0.0
 11
26091.94805558513
 21
16120.978861999991
 31
0.0
  0
LINE
  5
10CC8
  8
2-0
  6
CONTINUOUS
 62
     6
 10
25171.945020585132
 20
16120.978861999991
 30
0.0
 11
26091.94805558513
 21
16120.978861999991
 31
0.0
  0
LINE
  5
10CC9
  8
2-0
  6
CONTINUOUS
 62
     6
 10
24891.953993585139
 20
16958.167748
 30
0.0
 11
26091.94805558513
 21
16958.167748
 31
0.0
  0
LINE
  5
10CCA
  8
2-0
  6
CONTINUOUS
 62
     6
 10
26467.842797585148
 20
14335.09021599996
 30
0.0
 11
26091.94805558513
 21
14516.034050999981
 31
0.0
  0
LINE
  5
10CCB
  8
2-0
  6
CONTINUOUS
 62
     6
 10
24984.060993585132
 20
14953.843462999979
 30
0.0
 11
26002.036341585139
 21
14953.843462999979
 31
0.0
  0
LINE
  5
10CCC
  8
2-0
  6
CONTINUOUS
 62
     6
 10
25571.946339585142
 20
14516.034050999981
 30
0.0
 11
26091.94805558513
 21
14516.034050999981
 31
0.0
  0
LINE
  5
10CCD
  8
2-0
  6
CONTINUOUS
 62
     6
 10
26458.461859585121
 20
15178.556432999991
 30
0.0
 11
26002.036341585139
 21
14953.843462999979
 31
0.0
  0
LINE
  5
10CCE
  8
2-0
  6
CONTINUOUS
 62
     3
 10
26663.009473585142
 20
19251.485051999971
 30
0.0
 11
26663.009473585142
 21
19245.489089999999
 31
0.0
  0
LINE
  5
10CCF
  8
2-0
  6
CONTINUOUS
 62
     3
 10
26663.009473585142
 20
19245.489089999999
 30
0.0
 11
26693.007097585149
 21
19245.489089999999
 31
0.0
  0
LINE
  5
10CD0
  8
2-0
  6
CONTINUOUS
 62
     3
 10
26693.007097585149
 20
19275.488693999981
 30
0.0
 11
26612.005197585131
 21
19275.488693999981
 31
0.0
  0
LINE
  5
10CD1
  8
2-0
  6
CONTINUOUS
 62
     3
 10
26663.009473585142
 20
19235.19163399997
 30
0.0
 11
26693.007097585149
 21
19235.19163399997
 31
0.0
  0
LINE
  5
10CD2
  8
2-0
  6
CONTINUOUS
 62
     3
 10
26663.009473585142
 20
19253.193375999988
 30
0.0
 11
26663.009473585142
 21
19235.19163399997
 31
0.0
  0
LINE
  5
10CD3
  8
2-0
  6
CONTINUOUS
 62
     3
 10
26688.006833585139
 20
19253.193375999988
 30
0.0
 11
26663.009473585142
 21
19253.193375999988
 31
0.0
  0
LINE
  5
10CD4
  8
2-0
  6
CONTINUOUS
 62
     3
 10
26688.006833585139
 20
19248.18519399998
 30
0.0
 11
26688.006833585139
 21
19253.193375999988
 31
0.0
  0
LINE
  5
10CD5
  8
2-0
  6
CONTINUOUS
 62
     3
 10
26681.005276585151
 20
19248.18519399998
 30
0.0
 11
26688.006833585139
 21
19248.18519399998
 31
0.0
  0
LINE
  5
10CD6
  8
2-0
  6
CONTINUOUS
 62
     3
 10
26580.709008585149
 20
19348.485420999979
 30
0.0
 11
26580.709008585149
 21
19355.490936999991
 31
0.0
  0
LINE
  5
10CD7
  8
2-0
  6
CONTINUOUS
 62
     3
 10
26580.709008585149
 20
19355.490936999991
 30
0.0
 11
26585.709272585129
 21
19355.490936999991
 31
0.0
  0
LINE
  5
10CD8
  8
2-0
  6
CONTINUOUS
 62
     3
 10
26585.709272585129
 20
19355.490936999991
 30
0.0
 11
26585.709272585129
 21
19330.481699999978
 31
0.0
  0
LINE
  5
10CD9
  8
2-0
  6
CONTINUOUS
 62
     3
 10
26585.709272585129
 20
19330.481699999978
 30
0.0
 11
26567.707530585121
 21
19330.481699999978
 31
0.0
  0
LINE
  5
10CDA
  8
2-0
  6
CONTINUOUS
 62
     3
 10
26567.707530585121
 20
19330.481699999978
 30
0.0
 11
26567.707530585121
 21
19360.485262999999
 31
0.0
  0
LINE
  5
10CDB
  8
2-0
  6
CONTINUOUS
 62
     3
 10
26578.00498658514
 20
19360.485262999999
 30
0.0
 11
26693.007097585149
 21
19360.485262999999
 31
0.0
  0
LINE
  5
10CDC
  8
2-0
  6
CONTINUOUS
 62
     3
 10
26578.00498658514
 20
19330.481699999978
 30
0.0
 11
26578.00498658514
 21
19360.485262999999
 31
0.0
  0
LINE
  5
10CDD
  8
2-0
  6
CONTINUOUS
 62
     3
 10
26584.006886585139
 20
19330.481699999978
 30
0.0
 11
26578.00498658514
 21
19330.481699999978
 31
0.0
  0
LINE
  5
10CDE
  8
2-0
  6
CONTINUOUS
 62
     3
 10
26681.005276585151
 20
18894.888371499928
 30
0.0
 11
26688.006833585139
 21
18894.888371499928
 31
0.0
  0
LINE
  5
10CDF
  8
2-0
  6
CONTINUOUS
 62
     3
 10
26688.006833585139
 20
18894.888371499928
 30
0.0
 11
26688.006833585139
 21
18899.888635499959
 31
0.0
  0
LINE
  5
10CE0
  8
2-0
  6
CONTINUOUS
 62
     3
 10
26688.006833585139
 20
18899.888635499959
 30
0.0
 11
26663.009473585142
 21
18899.888635499959
 31
0.0
  0
LINE
  5
10CE1
  8
2-0
  6
CONTINUOUS
 62
     3
 10
26663.009473585142
 20
18899.888635499959
 30
0.0
 11
26663.009473585142
 21
18881.892831499979
 31
0.0
  0
LINE
  5
10CE2
  8
2-0
  6
CONTINUOUS
 62
     3
 10
26663.009473585142
 20
18881.892831499979
 30
0.0
 11
26693.007097585149
 21
18881.892831499979
 31
0.0
  0
LINE
  5
10CE3
  8
2-0
  6
CONTINUOUS
 62
     3
 10
26663.009473585142
 20
18897.984338499959
 30
0.0
 11
26663.009473585142
 21
18891.986397499979
 31
0.0
  0
LINE
  5
10CE4
  8
2-0
  6
CONTINUOUS
 62
     3
 10
26663.009473585142
 20
18891.986397499979
 30
0.0
 11
26693.007097585149
 21
18891.986397499979
 31
0.0
  0
LINE
  5
10CE5
  8
2-0
  6
CONTINUOUS
 62
     3
 10
26693.007097585149
 20
18891.986397499979
 30
0.0
 11
26693.007097585149
 21
18928.987558499979
 31
0.0
  0
LINE
  5
10CE6
  8
2-0
  6
CONTINUOUS
 62
     3
 10
26663.009473585142
 20
18928.987558499979
 30
0.0
 11
26693.007097585149
 21
18928.987558499979
 31
0.0
  0
LINE
  5
10CE7
  8
2-0
  6
CONTINUOUS
 62
     3
 10
26663.009473585142
 20
18922.983678499972
 30
0.0
 11
26663.009473585142
 21
18928.987558499979
 31
0.0
  0
LINE
  5
10CE8
  8
2-0
  6
CONTINUOUS
 62
     3
 10
26663.009473585142
 20
18939.083103499968
 30
0.0
 11
26693.007097585149
 21
18939.083103499968
 31
0.0
  0
LINE
  5
10CE9
  8
2-0
  6
CONTINUOUS
 62
     3
 10
26663.009473585142
 20
18921.081361499979
 30
0.0
 11
26663.009473585142
 21
18939.083103499968
 31
0.0
  0
LINE
  5
10CEA
  8
2-0
  6
CONTINUOUS
 62
     3
 10
26688.006833585139
 20
18921.081361499979
 30
0.0
 11
26663.009473585142
 21
18921.081361499979
 31
0.0
  0
LINE
  5
10CEB
  8
2-0
  6
CONTINUOUS
 62
     3
 10
26688.006833585139
 20
18926.08162549997
 30
0.0
 11
26688.006833585139
 21
18921.081361499979
 31
0.0
  0
LINE
  5
10CEC
  8
2-0
  6
CONTINUOUS
 62
     3
 10
26681.005276585151
 20
18926.08162549997
 30
0.0
 11
26688.006833585139
 21
18926.08162549997
 31
0.0
  0
LINE
  5
10CED
  8
2-0
  6
CONTINUOUS
 62
     3
 10
26681.005276585151
 20
18193.887381999979
 30
0.0
 11
26688.006833585139
 21
18193.887381999979
 31
0.0
  0
LINE
  5
10CEE
  8
2-0
  6
CONTINUOUS
 62
     3
 10
26688.006833585139
 20
18193.887381999979
 30
0.0
 11
26688.006833585139
 21
18198.893583999969
 31
0.0
  0
LINE
  5
10CEF
  8
2-0
  6
CONTINUOUS
 62
     3
 10
26688.006833585139
 20
18198.893583999969
 30
0.0
 11
26663.009473585142
 21
18198.893583999969
 31
0.0
  0
LINE
  5
10CF0
  8
2-0
  6
CONTINUOUS
 62
     3
 10
26663.009473585142
 20
18198.893583999969
 30
0.0
 11
26663.009473585142
 21
18180.891841999979
 31
0.0
  0
LINE
  5
10CF1
  8
2-0
  6
CONTINUOUS
 62
     3
 10
26663.009473585142
 20
18180.891841999979
 30
0.0
 11
26693.007097585149
 21
18180.891841999979
 31
0.0
  0
LINE
  5
10CF2
  8
2-0
  6
CONTINUOUS
 62
     3
 10
26663.009473585142
 20
18196.983348999969
 30
0.0
 11
26663.009473585142
 21
18190.987386999968
 31
0.0
  0
LINE
  5
10CF3
  8
2-0
  6
CONTINUOUS
 62
     3
 10
26663.009473585142
 20
18190.987386999968
 30
0.0
 11
26693.007097585149
 21
18190.987386999968
 31
0.0
  0
LINE
  5
10CF4
  8
2-0
  6
CONTINUOUS
 62
     3
 10
26693.007097585149
 20
18190.987386999968
 30
0.0
 11
26693.007097585149
 21
18227.986568999979
 31
0.0
  0
LINE
  5
10CF5
  8
2-0
  6
CONTINUOUS
 62
     3
 10
26663.009473585142
 20
18227.986568999979
 30
0.0
 11
26693.007097585149
 21
18227.986568999979
 31
0.0
  0
LINE
  5
10CF6
  8
2-0
  6
CONTINUOUS
 62
     3
 10
26663.009473585142
 20
18221.990606999989
 30
0.0
 11
26663.009473585142
 21
18227.986568999979
 31
0.0
  0
LINE
  5
10CF7
  8
2-0
  6
CONTINUOUS
 62
     3
 10
26663.009473585142
 20
18238.082113999979
 30
0.0
 11
26693.007097585149
 21
18238.082113999979
 31
0.0
  0
LINE
  5
10CF8
  8
2-0
  6
CONTINUOUS
 62
     3
 10
26663.009473585142
 20
18220.080371999979
 30
0.0
 11
26663.009473585142
 21
18238.082113999979
 31
0.0
  0
LINE
  5
10CF9
  8
2-0
  6
CONTINUOUS
 62
     3
 10
26688.006833585139
 20
18220.080371999979
 30
0.0
 11
26663.009473585142
 21
18220.080371999979
 31
0.0
  0
LINE
  5
10CFA
  8
2-0
  6
CONTINUOUS
 62
     3
 10
26688.006833585139
 20
18225.08657399995
 30
0.0
 11
26688.006833585139
 21
18220.080371999979
 31
0.0
  0
LINE
  5
10CFB
  8
2-0
  6
CONTINUOUS
 62
     3
 10
26681.005276585151
 20
18225.08657399995
 30
0.0
 11
26688.006833585139
 21
18225.08657399995
 31
0.0
  0
LINE
  5
10CFC
  8
2-0
  6
CONTINUOUS
 62
     3
 10
26681.005276585151
 20
17524.08063599997
 30
0.0
 11
26688.006833585139
 21
17524.08063599997
 31
0.0
  0
LINE
  5
10CFD
  8
2-0
  6
CONTINUOUS
 62
     3
 10
26688.006833585139
 20
17524.08063599997
 30
0.0
 11
26688.006833585139
 21
17519.092248999979
 31
0.0
  0
LINE
  5
10CFE
  8
2-0
  6
CONTINUOUS
 62
     3
 10
26688.006833585139
 20
17519.092248999979
 30
0.0
 11
26663.009473585142
 21
17519.092248999979
 31
0.0
  0
LINE
  5
10CFF
  8
2-0
  6
CONTINUOUS
 62
     3
 10
26663.009473585142
 20
17519.092248999979
 30
0.0
 11
26663.009473585142
 21
17537.08805199997
 31
0.0
  0
LINE
  5
10D00
  8
2-0
  6
CONTINUOUS
 62
     3
 10
26663.009473585142
 20
17537.08805199997
 30
0.0
 11
26693.007097585149
 21
17537.08805199997
 31
0.0
  0
LINE
  5
10D01
  8
2-0
  6
CONTINUOUS
 62
     3
 10
26663.009473585142
 20
17520.990606999982
 30
0.0
 11
26663.009473585142
 21
17526.986568999971
 31
0.0
  0
LINE
  5
10D02
  8
2-0
  6
CONTINUOUS
 62
     3
 10
26663.009473585142
 20
17526.986568999971
 30
0.0
 11
26693.007097585149
 21
17526.986568999971
 31
0.0
  0
LINE
  5
10D03
  8
2-0
  6
CONTINUOUS
 62
     3
 10
26693.007097585149
 20
17526.986568999971
 30
0.0
 11
26693.007097585149
 21
17489.987386999979
 31
0.0
  0
LINE
  5
10D04
  8
2-0
  6
CONTINUOUS
 62
     3
 10
26663.009473585142
 20
17489.987386999979
 30
0.0
 11
26693.007097585149
 21
17489.987386999979
 31
0.0
  0
LINE
  5
10D05
  8
2-0
  6
CONTINUOUS
 62
     3
 10
26663.009473585142
 20
17495.98928799995
 30
0.0
 11
26663.009473585142
 21
17489.987386999979
 31
0.0
  0
LINE
  5
10D06
  8
2-0
  6
CONTINUOUS
 62
     3
 10
26663.009473585142
 20
17479.897780999981
 30
0.0
 11
26693.007097585149
 21
17479.897780999981
 31
0.0
  0
LINE
  5
10D07
  8
2-0
  6
CONTINUOUS
 62
     3
 10
26663.009473585142
 20
17497.893583999979
 30
0.0
 11
26663.009473585142
 21
17479.897780999981
 31
0.0
  0
LINE
  5
10D08
  8
2-0
  6
CONTINUOUS
 62
     3
 10
26688.006833585139
 20
17497.893583999979
 30
0.0
 11
26663.009473585142
 21
17497.893583999979
 31
0.0
  0
LINE
  5
10D09
  8
2-0
  6
CONTINUOUS
 62
     3
 10
26688.006833585139
 20
17492.893320999989
 30
0.0
 11
26688.006833585139
 21
17497.893583999979
 31
0.0
  0
LINE
  5
10D0A
  8
2-0
  6
CONTINUOUS
 62
     3
 10
26681.005276585151
 20
17492.893320999989
 30
0.0
 11
26688.006833585139
 21
17492.893320999989
 31
0.0
  0
LINE
  5
10D0B
  8
2-0
  6
CONTINUOUS
 62
     3
 10
26690.120959585151
 20
16772.984206999969
 30
0.0
 11
26690.120959585151
 21
16792.98526199998
 31
0.0
  0
LINE
  5
10D0C
  8
2-0
  6
CONTINUOUS
 62
     3
 10
26690.120959585151
 20
16792.98526199998
 30
0.0
 11
26605.12439058513
 21
16792.98526199998
 31
0.0
  0
LINE
  5
10D0D
  8
2-0
  6
CONTINUOUS
 62
     3
 10
26681.005276585151
 20
16819.59197199998
 30
0.0
 11
26688.006833585139
 21
16819.59197199998
 31
0.0
  0
LINE
  5
10D0E
  8
2-0
  6
CONTINUOUS
 62
     3
 10
26688.006833585139
 20
16819.59197199998
 30
0.0
 11
26688.006833585139
 21
16814.59764599998
 31
0.0
  0
LINE
  5
10D0F
  8
2-0
  6
CONTINUOUS
 62
     3
 10
26688.006833585139
 20
16814.59764599998
 30
0.0
 11
26663.009473585142
 21
16814.59764599998
 31
0.0
  0
LINE
  5
10D10
  8
2-0
  6
CONTINUOUS
 62
     3
 10
26663.009473585142
 20
16814.59764599998
 30
0.0
 11
26663.009473585142
 21
16832.593449999978
 31
0.0
  0
LINE
  5
10D11
  8
2-0
  6
CONTINUOUS
 62
     3
 10
26663.009473585142
 20
16832.593449999978
 30
0.0
 11
26693.007097585149
 21
16832.593449999978
 31
0.0
  0
LINE
  5
10D12
  8
2-0
  6
CONTINUOUS
 62
     3
 10
26663.009473585142
 20
16822.98486599997
 30
0.0
 11
26663.009473585142
 21
16816.98296599996
 31
0.0
  0
LINE
  5
10D13
  8
2-0
  6
CONTINUOUS
 62
     3
 10
26693.007097585149
 20
16822.98486599997
 30
0.0
 11
26663.009473585142
 21
16822.98486599997
 31
0.0
  0
LINE
  5
10D14
  8
2-0
  6
CONTINUOUS
 62
     3
 10
26693.007097585149
 20
16832.593449999978
 30
0.0
 11
26693.007097585149
 21
17479.897780999981
 31
0.0
  0
LINE
  5
10D15
  8
2-0
  6
CONTINUOUS
 62
     3
 10
26693.007097585149
 20
17537.08805199997
 30
0.0
 11
26693.007097585149
 21
18180.891841999979
 31
0.0
  0
LINE
  5
10D16
  8
2-0
  6
CONTINUOUS
 62
     3
 10
26693.007097585149
 20
16677.983150999979
 30
0.0
 11
26663.009473585142
 21
16677.983150999979
 31
0.0
  0
LINE
  5
10D17
  8
2-0
  6
CONTINUOUS
 62
     3
 10
26663.009473585142
 20
16677.983150999979
 30
0.0
 11
26663.009473585142
 21
16683.985050999971
 31
0.0
  0
LINE
  5
10D18
  8
2-0
  6
CONTINUOUS
 62
     3
 10
26605.12439058513
 20
16707.98869399996
 30
0.0
 11
26690.120959585151
 21
16707.98869399996
 31
0.0
  0
LINE
  5
10D19
  8
2-0
  6
CONTINUOUS
 62
     3
 10
26690.120959585151
 20
16707.98869399996
 30
0.0
 11
26690.120959585151
 21
16727.98381099998
 31
0.0
  0
LINE
  5
10D1A
  8
2-0
  6
CONTINUOUS
 62
     3
 10
26663.009473585142
 20
16668.374567999988
 30
0.0
 11
26693.007097585149
 21
16668.374567999988
 31
0.0
  0
LINE
  5
10D1B
  8
2-0
  6
CONTINUOUS
 62
     3
 10
26663.009473585142
 20
16686.370370999972
 30
0.0
 11
26663.009473585142
 21
16668.374567999988
 31
0.0
  0
LINE
  5
10D1C
  8
2-0
  6
CONTINUOUS
 62
     3
 10
26688.006833585139
 20
16686.370370999972
 30
0.0
 11
26663.009473585142
 21
16686.370370999972
 31
0.0
  0
LINE
  5
10D1D
  8
2-0
  6
CONTINUOUS
 62
     3
 10
26688.006833585139
 20
16681.370106999981
 30
0.0
 11
26688.006833585139
 21
16686.370370999972
 31
0.0
  0
LINE
  5
10D1E
  8
2-0
  6
CONTINUOUS
 62
     3
 10
26681.005276585151
 20
16681.370106999981
 30
0.0
 11
26688.006833585139
 21
16681.370106999981
 31
0.0
  0
LINE
  5
10D1F
  8
2-0
  6
CONTINUOUS
 62
     3
 10
26681.005276585151
 20
15976.887876499961
 30
0.0
 11
26688.006833585139
 21
15976.887876499961
 31
0.0
  0
LINE
  5
10D20
  8
2-0
  6
CONTINUOUS
 62
     3
 10
26688.006833585139
 20
15976.887876499961
 30
0.0
 11
26688.006833585139
 21
15981.888140499959
 31
0.0
  0
LINE
  5
10D21
  8
2-0
  6
CONTINUOUS
 62
     3
 10
26688.006833585139
 20
15981.888140499959
 30
0.0
 11
26663.009473585142
 21
15981.888140499959
 31
0.0
  0
LINE
  5
10D22
  8
2-0
  6
CONTINUOUS
 62
     3
 10
26663.009473585142
 20
15981.888140499959
 30
0.0
 11
26663.009473585142
 21
15963.88639849997
 31
0.0
  0
LINE
  5
10D23
  8
2-0
  6
CONTINUOUS
 62
     3
 10
26663.009473585142
 20
15963.88639849997
 30
0.0
 11
26693.007097585149
 21
15963.88639849997
 31
0.0
  0
LINE
  5
10D24
  8
2-0
  6
CONTINUOUS
 62
     3
 10
26663.009473585142
 20
15979.98384349996
 30
0.0
 11
26663.009473585142
 21
15973.98689249997
 31
0.0
  0
LINE
  5
10D25
  8
2-0
  6
CONTINUOUS
 62
     3
 10
26663.009473585142
 20
15973.98689249997
 30
0.0
 11
26693.007097585149
 21
15973.98689249997
 31
0.0
  0
LINE
  5
10D26
  8
2-0
  6
CONTINUOUS
 62
     3
 10
26693.007097585149
 20
15973.98689249997
 30
0.0
 11
26693.007097585149
 21
16010.987063499981
 31
0.0
  0
LINE
  5
10D27
  8
2-0
  6
CONTINUOUS
 62
     3
 10
26663.009473585142
 20
16010.987063499981
 30
0.0
 11
26693.007097585149
 21
16010.987063499981
 31
0.0
  0
LINE
  5
10D28
  8
2-0
  6
CONTINUOUS
 62
     3
 10
26663.009473585142
 20
16004.98417349997
 30
0.0
 11
26663.009473585142
 21
16010.987063499981
 31
0.0
  0
LINE
  5
10D29
  8
2-0
  6
CONTINUOUS
 62
     3
 10
26663.009473585142
 20
16021.082608499981
 30
0.0
 11
26693.007097585149
 21
16021.082608499981
 31
0.0
  0
LINE
  5
10D2A
  8
2-0
  6
CONTINUOUS
 62
     3
 10
26663.009473585142
 20
16003.074927499971
 30
0.0
 11
26663.009473585142
 21
16021.082608499981
 31
0.0
  0
LINE
  5
10D2B
  8
2-0
  6
CONTINUOUS
 62
     3
 10
26688.006833585139
 20
16003.074927499971
 30
0.0
 11
26663.009473585142
 21
16003.074927499971
 31
0.0
  0
LINE
  5
10D2C
  8
2-0
  6
CONTINUOUS
 62
     3
 10
26688.006833585139
 20
16008.081130499981
 30
0.0
 11
26688.006833585139
 21
16003.074927499971
 31
0.0
  0
LINE
  5
10D2D
  8
2-0
  6
CONTINUOUS
 62
     3
 10
26681.005276585151
 20
16008.081130499981
 30
0.0
 11
26688.006833585139
 21
16008.081130499981
 31
0.0
  0
LINE
  5
10D2E
  8
2-0
  6
CONTINUOUS
 62
     3
 10
26681.005276585151
 20
15307.32114699999
 30
0.0
 11
26688.006833585139
 21
15307.32114699999
 31
0.0
  0
LINE
  5
10D2F
  8
2-0
  6
CONTINUOUS
 62
     3
 10
26688.006833585139
 20
15307.32114699999
 30
0.0
 11
26688.006833585139
 21
15302.326821999981
 31
0.0
  0
LINE
  5
10D30
  8
2-0
  6
CONTINUOUS
 62
     3
 10
26688.006833585139
 20
15302.326821999981
 30
0.0
 11
26663.009473585142
 21
15302.326821999981
 31
0.0
  0
LINE
  5
10D31
  8
2-0
  6
CONTINUOUS
 62
     3
 10
26663.009473585142
 20
15302.326821999981
 30
0.0
 11
26663.009473585142
 21
15320.322624999981
 31
0.0
  0
LINE
  5
10D32
  8
2-0
  6
CONTINUOUS
 62
     3
 10
26663.009473585142
 20
15320.322624999981
 30
0.0
 11
26693.007097585149
 21
15320.322624999981
 31
0.0
  0
LINE
  5
10D33
  8
2-0
  6
CONTINUOUS
 62
     3
 10
26663.009473585142
 20
15304.22517999999
 30
0.0
 11
26663.009473585142
 21
15310.22707999999
 31
0.0
  0
LINE
  5
10D34
  8
2-0
  6
CONTINUOUS
 62
     3
 10
26663.009473585142
 20
15310.22707999999
 30
0.0
 11
26693.007097585149
 21
15310.22707999999
 31
0.0
  0
LINE
  5
10D35
  8
2-0
  6
CONTINUOUS
 62
     3
 10
26693.007097585149
 20
15273.22789899999
 30
0.0
 11
26693.007097585149
 21
15310.22707999999
 31
0.0
  0
LINE
  5
10D36
  8
2-0
  6
CONTINUOUS
 62
     3
 10
26663.009473585142
 20
15273.22789899999
 30
0.0
 11
26693.007097585149
 21
15273.22789899999
 31
0.0
  0
LINE
  5
10D37
  8
2-0
  6
CONTINUOUS
 62
     3
 10
26663.009473585142
 20
15279.22484999997
 30
0.0
 11
26663.009473585142
 21
15273.22789899999
 31
0.0
  0
LINE
  5
10D38
  8
2-0
  6
CONTINUOUS
 62
     3
 10
26663.009473585142
 20
15263.12641499999
 30
0.0
 11
26693.007097585149
 21
15263.12641499999
 31
0.0
  0
LINE
  5
10D39
  8
2-0
  6
CONTINUOUS
 62
     3
 10
26663.009473585142
 20
15281.13409599998
 30
0.0
 11
26663.009473585142
 21
15263.12641499999
 31
0.0
  0
LINE
  5
10D3A
  8
2-0
  6
CONTINUOUS
 62
     3
 10
26688.006833585139
 20
15281.13409599998
 30
0.0
 11
26663.009473585142
 21
15281.13409599998
 31
0.0
  0
LINE
  5
10D3B
  8
2-0
  6
CONTINUOUS
 62
     3
 10
26688.006833585139
 20
15276.13383199999
 30
0.0
 11
26688.006833585139
 21
15281.13409599998
 31
0.0
  0
LINE
  5
10D3C
  8
2-0
  6
CONTINUOUS
 62
     3
 10
26681.005276585151
 20
15276.13383199999
 30
0.0
 11
26688.006833585139
 21
15276.13383199999
 31
0.0
  0
LINE
  5
10D3D
  8
2-0
  6
CONTINUOUS
 62
     3
 10
26693.007097585149
 20
16668.374567999988
 30
0.0
 11
26693.007097585149
 21
16021.082608499981
 31
0.0
  0
LINE
  5
10D3E
  8
2-0
  6
CONTINUOUS
 62
     3
 10
26693.007097585149
 20
16822.98486599997
 30
0.0
 11
26693.007097585149
 21
16677.983150999979
 31
0.0
  0
LINE
  5
10D3F
  8
2-0
  6
CONTINUOUS
 62
     3
 10
26605.12439058513
 20
16792.98526199998
 30
0.0
 11
26605.12439058513
 21
16707.98869399996
 31
0.0
  0
LINE
  5
10D40
  8
2-0
  6
CONTINUOUS
 62
     6
 10
25066.915723585142
 20
18561.432527499968
 30
0.0
 11
26091.94805558513
 21
18561.432527499968
 31
0.0
  0
LINE
  5
10D41
  8
2-0
  6
CONTINUOUS
 62
     3
 10
26681.005276585151
 20
14574.892824999981
 30
0.0
 11
26688.006833585139
 21
14574.892824999981
 31
0.0
  0
LINE
  5
10D42
  8
2-0
  6
CONTINUOUS
 62
     3
 10
26688.006833585139
 20
14574.892824999981
 30
0.0
 11
26688.006833585139
 21
14579.887150999981
 31
0.0
  0
LINE
  5
10D43
  8
2-0
  6
CONTINUOUS
 62
     3
 10
26688.006833585139
 20
14579.887150999981
 30
0.0
 11
26663.009473585142
 21
14579.887150999981
 31
0.0
  0
LINE
  5
10D44
  8
2-0
  6
CONTINUOUS
 62
     3
 10
26663.009473585142
 20
14579.887150999981
 30
0.0
 11
26663.009473585142
 21
14561.891346999981
 31
0.0
  0
LINE
  5
10D45
  8
2-0
  6
CONTINUOUS
 62
     3
 10
26663.009473585142
 20
14561.891346999981
 30
0.0
 11
26693.007097585149
 21
14561.891346999981
 31
0.0
  0
LINE
  5
10D46
  8
2-0
  6
CONTINUOUS
 62
     3
 10
26663.009473585142
 20
14577.98978199999
 30
0.0
 11
26663.009473585142
 21
14571.986891999981
 31
0.0
  0
LINE
  5
10D47
  8
2-0
  6
CONTINUOUS
 62
     3
 10
26663.009473585142
 20
14571.986891999981
 30
0.0
 11
26693.007097585149
 21
14571.986891999981
 31
0.0
  0
LINE
  5
10D48
  8
2-0
  6
CONTINUOUS
 62
     3
 10
26693.007097585149
 20
14571.986891999981
 30
0.0
 11
26693.007097585149
 21
14608.987063999961
 31
0.0
  0
LINE
  5
10D49
  8
2-0
  6
CONTINUOUS
 62
     3
 10
26663.009473585142
 20
14608.987063999961
 30
0.0
 11
26693.007097585149
 21
14608.987063999961
 31
0.0
  0
LINE
  5
10D4A
  8
2-0
  6
CONTINUOUS
 62
     3
 10
26663.009473585142
 20
14602.99011199997
 30
0.0
 11
26663.009473585142
 21
14608.987063999961
 31
0.0
  0
LINE
  5
10D4B
  8
2-0
  6
CONTINUOUS
 62
     3
 10
26663.009473585142
 20
14619.087556999981
 30
0.0
 11
26693.007097585149
 21
14619.087556999981
 31
0.0
  0
LINE
  5
10D4C
  8
2-0
  6
CONTINUOUS
 62
     3
 10
26663.009473585142
 20
14601.080865999989
 30
0.0
 11
26663.009473585142
 21
14619.087556999981
 31
0.0
  0
LINE
  5
10D4D
  8
2-0
  6
CONTINUOUS
 62
     3
 10
26688.006833585139
 20
14601.080865999989
 30
0.0
 11
26663.009473585142
 21
14601.080865999989
 31
0.0
  0
LINE
  5
10D4E
  8
2-0
  6
CONTINUOUS
 62
     3
 10
26688.006833585139
 20
14606.08607899999
 30
0.0
 11
26688.006833585139
 21
14601.080865999989
 31
0.0
  0
LINE
  5
10D4F
  8
2-0
  6
CONTINUOUS
 62
     3
 10
26681.005276585151
 20
14606.08607899999
 30
0.0
 11
26688.006833585139
 21
14606.08607899999
 31
0.0
  0
LINE
  5
10D50
  8
2-0
  6
CONTINUOUS
 62
     3
 10
26663.009473585142
 20
14249.48890499996
 30
0.0
 11
26663.009473585142
 21
14255.49377399998
 31
0.0
  0
LINE
  5
10D51
  8
2-0
  6
CONTINUOUS
 62
     3
 10
26663.009473585142
 20
14255.49377399998
 30
0.0
 11
26693.007097585149
 21
14255.49377399998
 31
0.0
  0
LINE
  5
10D52
  8
2-0
  6
CONTINUOUS
 62
     3
 10
26693.007097585149
 20
14255.49377399998
 30
0.0
 11
26693.007097585149
 21
14140.489682999971
 31
0.0
  0
LINE
  5
10D53
  8
2-0
  6
CONTINUOUS
 62
     3
 10
26693.007097585149
 20
14140.489682999971
 30
0.0
 11
26608.00854958516
 21
14140.489682999971
 31
0.0
  0
LINE
  5
10D54
  8
2-0
  6
CONTINUOUS
 62
     3
 10
26608.00854958516
 20
14140.489682999971
 30
0.0
 11
26608.00854958516
 21
14225.48526199998
 31
0.0
  0
LINE
  5
10D55
  8
2-0
  6
CONTINUOUS
 62
     3
 10
26608.00854958516
 20
14225.48526199998
 30
0.0
 11
26640.007467585139
 21
14225.48526199998
 31
0.0
  0
LINE
  5
10D56
  8
2-0
  6
CONTINUOUS
 62
     3
 10
26681.005276585151
 20
14252.523506999971
 30
0.0
 11
26688.006833585139
 21
14252.523506999971
 31
0.0
  0
LINE
  5
10D57
  8
2-0
  6
CONTINUOUS
 62
     3
 10
26688.006833585139
 20
14252.523506999971
 30
0.0
 11
26688.006833585139
 21
14247.526211999961
 31
0.0
  0
LINE
  5
10D58
  8
2-0
  6
CONTINUOUS
 62
     3
 10
26688.006833585139
 20
14247.526211999961
 30
0.0
 11
26663.009473585142
 21
14247.526211999961
 31
0.0
  0
LINE
  5
10D59
  8
2-0
  6
CONTINUOUS
 62
     3
 10
26663.009473585142
 20
14247.526211999961
 30
0.0
 11
26663.009473585142
 21
14265.52498499998
 31
0.0
  0
LINE
  5
10D5A
  8
2-0
  6
CONTINUOUS
 62
     3
 10
26663.009473585142
 20
14265.52498499998
 30
0.0
 11
26693.007097585149
 21
14265.52498499998
 31
0.0
  0
LINE
  5
10D5B
  8
2-0
  6
CENTER2
 62
     6
 10
26650.508813585151
 20
13942.99212499997
 30
0.0
 11
26650.508813585151
 21
14748.36088299999
 31
0.0
  0
LINE
  5
10D5C
  8
2-0
  6
CONTINUOUS
 62
     3
 10
26693.007097585149
 20
18238.082113999979
 30
0.0
 11
26693.007097585149
 21
18881.892831499979
 31
0.0
  0
LINE
  5
10D5D
  8
2-0
  6
CONTINUOUS
 62
     6
 10
27385.511980585139
 20
20090.488165999999
 30
0.0
 11
28585.506042585119
 21
20090.488165999999
 31
0.0
  0
LINE
  5
10D5E
  8
2-0
  6
CONTINUOUS
 62
     6
 10
26523.47914758512
 20
18803.587035499972
 30
0.0
 11
26091.94805558513
 21
18561.432527499968
 31
0.0
  0
LINE
  5
10D5F
  8
2-0
  6
CONTINUOUS
 62
     6
 10
26845.047981585089
 20
19503.16500299998
 30
0.0
 11
27385.511980585139
 21
20090.488165999999
 31
0.0
  0
LINE
  5
10D60
  8
2-0
  6
CONTINUOUS
 62
     3
 10
26602.002690585141
 20
18166.98572399994
 30
0.0
 11
26649.008338585121
 21
18166.98572399994
 31
0.0
  0
LINE
  5
10D61
  8
2-0
  6
CONTINUOUS
 62
     3
 10
26649.008338585121
 20
18251.986251999981
 30
0.0
 11
26602.002690585141
 21
18251.986251999981
 31
0.0
  0
LINE
  5
10D62
  8
2-0
  6
CONTINUOUS
 62
     3
 10
26649.008338585121
 20
18166.98572399994
 30
0.0
 11
26649.008338585121
 21
18191.98902299998
 31
0.0
  0
LINE
  5
10D63
  8
2-0
  6
CONTINUOUS
 62
     3
 10
26649.008338585121
 20
18226.984931999988
 30
0.0
 11
26649.008338585121
 21
18251.986251999981
 31
0.0
  0
LINE
  5
10D64
  8
2-0
  6
CONTINUOUS
 62
     3
 10
26602.002690585141
 20
18251.986251999981
 30
0.0
 11
26602.002690585141
 21
18166.98572399994
 31
0.0
  0
LINE
  5
10D65
  8
2-0
  6
CONTINUOUS
 62
     3
 10
26693.007097585149
 20
15963.88639849997
 30
0.0
 11
26693.007097585149
 21
15320.322624999981
 31
0.0
  0
LINE
  5
10D66
  8
2-0
  6
CONTINUOUS
 62
     3
 10
26602.002690585141
 20
15248.988693999991
 30
0.0
 11
26649.008338585121
 21
15248.988693999991
 31
0.0
  0
LINE
  5
10D67
  8
2-0
  6
CONTINUOUS
 62
     3
 10
26649.008338585121
 20
15333.98526199996
 30
0.0
 11
26602.002690585141
 21
15333.98526199996
 31
0.0
  0
LINE
  5
10D68
  8
2-0
  6
CONTINUOUS
 62
     3
 10
26649.008338585121
 20
15248.988693999991
 30
0.0
 11
26649.008338585121
 21
15273.984074999989
 31
0.0
  0
LINE
  5
10D69
  8
2-0
  6
CONTINUOUS
 62
     3
 10
26649.008338585121
 20
15308.98394299999
 30
0.0
 11
26649.008338585121
 21
15333.98526199996
 31
0.0
  0
LINE
  5
10D6A
  8
2-0
  6
CONTINUOUS
 62
     3
 10
26602.002690585141
 20
15333.98526199996
 30
0.0
 11
26602.002690585141
 21
15248.988693999991
 31
0.0
  0
LINE
  5
10D6B
  8
2-0
  6
CONTINUOUS
 62
     6
 10
26510.42224258514
 20
18826.84637949997
 30
0.0
 11
26663.009473585142
 21
18881.892831499979
 31
0.0
  0
LINE
  5
10D6C
  8
2-0
  6
CONTINUOUS
 62
     6
 10
26663.009473585142
 20
18881.892831499979
 30
0.0
 11
26536.52813358514
 21
18780.333631499929
 31
0.0
  0
LINE
  5
10D6D
  8
2-0
  6
CONTINUOUS
 62
     6
 10
26510.42224258514
 20
18826.84637949997
 30
0.0
 11
26536.52813358514
 21
18780.333631499929
 31
0.0
  0
LINE
  5
10D6E
  8
2-0
  6
CONTINUOUS
 62
     6
 10
26536.52813358514
 20
18780.333631499929
 30
0.0
 11
26663.009473585142
 21
18881.892831499979
 31
0.0
  0
LINE
  5
10D6F
  8
2-0
  6
CONTINUOUS
 62
     6
 10
26663.009473585142
 20
18881.892831499979
 30
0.0
 11
26510.42224258514
 21
18826.84637949997
 31
0.0
  0
LINE
  5
10D70
  8
2-0
  6
CONTINUOUS
 62
     6
 10
26510.42224258514
 20
18826.84637949997
 30
0.0
 11
26663.009473585142
 21
18881.892831499979
 31
0.0
  0
LINE
  5
10D71
  8
2-0
  6
CONTINUOUS
 62
     6
 10
26536.52813358514
 20
18780.333631499929
 30
0.0
 11
26663.009473585142
 21
18881.892831499979
 31
0.0
  0
LINE
  5
10D72
  8
2-0
  6
CONTINUOUS
 62
     6
 10
26536.52813358514
 20
18780.333631499929
 30
0.0
 11
26510.42224258514
 21
18826.84637949997
 31
0.0
  0
LINE
  5
10D73
  8
2-0
  6
CONTINUOUS
 62
     6
 10
26864.66501058514
 20
19485.10387599999
 30
0.0
 11
26736.702990585149
 21
19385.421257999991
 31
0.0
  0
LINE
  5
10D74
  8
2-0
  6
CONTINUOUS
 62
     6
 10
26736.702990585149
 20
19385.421257999991
 30
0.0
 11
26825.41709558513
 21
19521.218213
 31
0.0
  0
LINE
  5
10D75
  8
2-0
  6
CONTINUOUS
 62
     6
 10
26864.66501058514
 20
19485.10387599999
 30
0.0
 11
26825.41709558513
 21
19521.218213
 31
0.0
  0
LINE
  5
10D76
  8
2-0
  6
CONTINUOUS
 62
     6
 10
26825.41709558513
 20
19521.218213
 30
0.0
 11
26736.702990585149
 21
19385.421257999991
 31
0.0
  0
LINE
  5
10D77
  8
2-0
  6
CONTINUOUS
 62
     6
 10
26736.702990585149
 20
19385.421257999991
 30
0.0
 11
26864.66501058514
 21
19485.10387599999
 31
0.0
  0
LINE
  5
10D78
  8
2-0
  6
CONTINUOUS
 62
     6
 10
26864.66501058514
 20
19485.10387599999
 30
0.0
 11
26736.702990585149
 21
19385.421257999991
 31
0.0
  0
LINE
  5
10D79
  8
2-0
  6
CONTINUOUS
 62
     6
 10
26825.41709558513
 20
19521.218213
 30
0.0
 11
26736.702990585149
 21
19385.421257999991
 31
0.0
  0
LINE
  5
10D7A
  8
2-0
  6
CONTINUOUS
 62
     6
 10
26825.41709558513
 20
19521.218213
 30
0.0
 11
26864.66501058514
 21
19485.10387599999
 31
0.0
  0
LINE
  5
10D7B
  8
2-0
  6
CONTINUOUS
 62
     6
 10
26446.683723585142
 20
15202.481883999981
 30
0.0
 11
26602.002690585141
 21
15249.229204999991
 31
0.0
  0
LINE
  5
10D7C
  8
2-0
  6
CONTINUOUS
 62
     6
 10
26602.002690585141
 20
15249.229204999991
 30
0.0
 11
26470.24197458514
 21
15154.636920000001
 31
0.0
  0
LINE
  5
10D7D
  8
2-0
  6
CONTINUOUS
 62
     6
 10
26446.683723585142
 20
15202.481883999981
 30
0.0
 11
26470.24197458514
 21
15154.636920000001
 31
0.0
  0
LINE
  5
10D7E
  8
2-0
  6
CONTINUOUS
 62
     6
 10
26470.24197458514
 20
15154.636920000001
 30
0.0
 11
26602.002690585141
 21
15249.229204999991
 31
0.0
  0
LINE
  5
10D7F
  8
2-0
  6
CONTINUOUS
 62
     6
 10
26602.002690585141
 20
15249.229204999991
 30
0.0
 11
26446.683723585142
 21
15202.481883999981
 31
0.0
  0
LINE
  5
10D80
  8
2-0
  6
CONTINUOUS
 62
     6
 10
26446.683723585142
 20
15202.481883999981
 30
0.0
 11
26602.002690585141
 21
15249.229204999991
 31
0.0
  0
LINE
  5
10D81
  8
2-0
  6
CONTINUOUS
 62
     6
 10
26470.24197458514
 20
15154.636920000001
 30
0.0
 11
26602.002690585141
 21
15249.229204999991
 31
0.0
  0
LINE
  5
10D82
  8
2-0
  6
CONTINUOUS
 62
     6
 10
26470.24197458514
 20
15154.636920000001
 30
0.0
 11
26446.683723585142
 21
15202.481883999981
 31
0.0
  0
LINE
  5
10D83
  8
2-0
  6
CONTINUOUS
 62
     6
 10
26416.369376585149
 20
14032.216944999969
 30
0.0
 11
26548.116235585148
 21
14126.843871999979
 31
0.0
  0
LINE
  5
10D84
  8
2-0
  6
CONTINUOUS
 62
     6
 10
26548.116235585148
 20
14126.843871999979
 30
0.0
 11
26454.186099585131
 21
13994.60510199997
 31
0.0
  0
LINE
  5
10D85
  8
2-0
  6
CONTINUOUS
 62
     6
 10
26416.369376585149
 20
14032.216944999969
 30
0.0
 11
26454.186099585131
 21
13994.60510199997
 31
0.0
  0
LINE
  5
10D86
  8
2-0
  6
CONTINUOUS
 62
     6
 10
26454.186099585131
 20
13994.60510199997
 30
0.0
 11
26548.116235585148
 21
14126.843871999979
 31
0.0
  0
LINE
  5
10D87
  8
2-0
  6
CONTINUOUS
 62
     6
 10
26548.116235585148
 20
14126.843871999979
 30
0.0
 11
26416.369376585149
 21
14032.216944999969
 31
0.0
  0
LINE
  5
10D88
  8
2-0
  6
CONTINUOUS
 62
     6
 10
26416.369376585149
 20
14032.216944999969
 30
0.0
 11
26548.116235585148
 21
14126.843871999979
 31
0.0
  0
LINE
  5
10D89
  8
2-0
  6
CONTINUOUS
 62
     6
 10
26454.186099585131
 20
13994.60510199997
 30
0.0
 11
26548.116235585148
 21
14126.843871999979
 31
0.0
  0
LINE
  5
10D8A
  8
2-0
  6
CONTINUOUS
 62
     6
 10
26454.186099585131
 20
13994.60510199997
 30
0.0
 11
26416.369376585149
 21
14032.216944999969
 31
0.0
  0
LINE
  5
10D8B
  8
2-0
  6
CONTINUOUS
 62
     6
 10
26479.405165585151
 20
14359.121571999969
 30
0.0
 11
26612.005197585131
 21
14265.693243999969
 31
0.0
  0
LINE
  5
10D8C
  8
2-0
  6
CONTINUOUS
 62
     6
 10
26612.005197585131
 20
14265.693243999969
 30
0.0
 11
26456.27251158515
 21
14311.068757999979
 31
0.0
  0
LINE
  5
10D8D
  8
2-0
  6
CONTINUOUS
 62
     6
 10
26479.405165585151
 20
14359.121571999969
 30
0.0
 11
26456.27251158515
 21
14311.068757999979
 31
0.0
  0
LINE
  5
10D8E
  8
2-0
  6
CONTINUOUS
 62
     6
 10
26456.27251158515
 20
14311.068757999979
 30
0.0
 11
26612.005197585131
 21
14265.693243999969
 31
0.0
  0
LINE
  5
10D8F
  8
2-0
  6
CONTINUOUS
 62
     6
 10
26612.005197585131
 20
14265.693243999969
 30
0.0
 11
26479.405165585151
 21
14359.121571999969
 31
0.0
  0
LINE
  5
10D90
  8
2-0
  6
CONTINUOUS
 62
     6
 10
26479.405165585151
 20
14359.121571999969
 30
0.0
 11
26612.005197585131
 21
14265.693243999969
 31
0.0
  0
LINE
  5
10D91
  8
2-0
  6
CONTINUOUS
 62
     6
 10
26456.27251158515
 20
14311.068757999979
 30
0.0
 11
26612.005197585131
 21
14265.693243999969
 31
0.0
  0
LINE
  5
10D92
  8
2-0
  6
CONTINUOUS
 62
     6
 10
26456.27251158515
 20
14311.068757999979
 30
0.0
 11
26479.405165585151
 21
14359.121571999969
 31
0.0
  0
LINE
  5
10D93
  8
2-0
  6
CONTINUOUS
 62
     6
 10
26539.168811585139
 20
16388.442504999999
 30
0.0
 11
26693.007097585149
 21
16439.876336000001
 31
0.0
  0
LINE
  5
10D94
  8
2-0
  6
CONTINUOUS
 62
     6
 10
26693.007097585149
 20
16439.876336000001
 30
0.0
 11
26564.172110585128
 21
16341.335901
 31
0.0
  0
LINE
  5
10D95
  8
2-0
  6
CONTINUOUS
 62
     6
 10
26539.168811585139
 20
16388.442504999999
 30
0.0
 11
26564.172110585128
 21
16341.335901
 31
0.0
  0
LINE
  5
10D96
  8
2-0
  6
CONTINUOUS
 62
     6
 10
26564.172110585128
 20
16341.335901
 30
0.0
 11
26693.007097585149
 21
16439.876336000001
 31
0.0
  0
LINE
  5
10D97
  8
2-0
  6
CONTINUOUS
 62
     6
 10
26693.007097585149
 20
16439.876336000001
 30
0.0
 11
26539.168811585139
 21
16388.442504999999
 31
0.0
  0
LINE
  5
10D98
  8
2-0
  6
CONTINUOUS
 62
     6
 10
26539.168811585139
 20
16388.442504999999
 30
0.0
 11
26693.007097585149
 21
16439.876336000001
 31
0.0
  0
LINE
  5
10D99
  8
2-0
  6
CONTINUOUS
 62
     6
 10
26564.172110585128
 20
16341.335901
 30
0.0
 11
26693.007097585149
 21
16439.876336000001
 31
0.0
  0
LINE
  5
10D9A
  8
2-0
  6
CONTINUOUS
 62
     6
 10
26564.172110585128
 20
16341.335901
 30
0.0
 11
26539.168811585139
 21
16388.442504999999
 31
0.0
  0
LINE
  5
10D9B
  8
2-0
  6
CONTINUOUS
 62
     6
 10
26405.232604585151
 20
16879.76099699999
 30
0.0
 11
26548.116235585148
 21
16802.98536799998
 31
0.0
  0
LINE
  5
10D9C
  8
2-0
  6
CONTINUOUS
 62
     6
 10
26548.116235585148
 20
16802.98536799998
 30
0.0
 11
26388.054342585139
 21
16829.267436999999
 31
0.0
  0
LINE
  5
10D9D
  8
2-0
  6
CONTINUOUS
 62
     6
 10
26405.232604585151
 20
16879.76099699999
 30
0.0
 11
26388.054342585139
 21
16829.267436999999
 31
0.0
  0
LINE
  5
10D9E
  8
2-0
  6
CONTINUOUS
 62
     6
 10
26388.054342585139
 20
16829.267436999999
 30
0.0
 11
26548.116235585148
 21
16802.98536799998
 31
0.0
  0
LINE
  5
10D9F
  8
2-0
  6
CONTINUOUS
 62
     6
 10
26548.116235585148
 20
16802.98536799998
 30
0.0
 11
26405.232604585151
 21
16879.76099699999
 31
0.0
  0
LINE
  5
10DA0
  8
2-0
  6
CONTINUOUS
 62
     6
 10
26405.232604585151
 20
16879.76099699999
 30
0.0
 11
26548.116235585148
 21
16802.98536799998
 31
0.0
  0
LINE
  5
10DA1
  8
2-0
  6
CONTINUOUS
 62
     6
 10
26388.054342585139
 20
16829.267436999999
 30
0.0
 11
26548.116235585148
 21
16802.98536799998
 31
0.0
  0
LINE
  5
10DA2
  8
2-0
  6
CONTINUOUS
 62
     6
 10
26388.054342585139
 20
16829.267436999999
 30
0.0
 11
26405.232604585151
 21
16879.76099699999
 31
0.0
  0
LINE
  5
10DA3
  8
2-0
  6
CONTINUOUS
 62
     6
 10
26446.683723585142
 20
18120.241371999979
 30
0.0
 11
26602.002690585141
 21
18166.98572399994
 31
0.0
  0
LINE
  5
10DA4
  8
2-0
  6
CONTINUOUS
 62
     6
 10
26602.002690585141
 20
18166.98572399994
 30
0.0
 11
26470.24197458514
 21
18072.390469999969
 31
0.0
  0
LINE
  5
10DA5
  8
2-0
  6
CONTINUOUS
 62
     6
 10
26446.683723585142
 20
18120.241371999979
 30
0.0
 11
26470.24197458514
 21
18072.390469999969
 31
0.0
  0
LINE
  5
10DA6
  8
2-0
  6
CONTINUOUS
 62
     6
 10
26470.24197458514
 20
18072.390469999969
 30
0.0
 11
26602.002690585141
 21
18166.98572399994
 31
0.0
  0
LINE
  5
10DA7
  8
2-0
  6
CONTINUOUS
 62
     6
 10
26602.002690585141
 20
18166.98572399994
 30
0.0
 11
26446.683723585142
 21
18120.241371999979
 31
0.0
  0
LINE
  5
10DA8
  8
2-0
  6
CONTINUOUS
 62
     6
 10
26446.683723585142
 20
18120.241371999979
 30
0.0
 11
26602.002690585141
 21
18166.98572399994
 31
0.0
  0
LINE
  5
10DA9
  8
2-0
  6
CONTINUOUS
 62
     6
 10
26470.24197458514
 20
18072.390469999969
 30
0.0
 11
26602.002690585141
 21
18166.98572399994
 31
0.0
  0
LINE
  5
10DAA
  8
2-0
  6
CONTINUOUS
 62
     6
 10
26470.24197458514
 20
18072.390469999969
 30
0.0
 11
26446.683723585142
 21
18120.241371999979
 31
0.0
  0
LINE
  5
10DAB
  8
2-0
  6
CONTINUOUS
 62
     3
 10
24070.51013358514
 20
19251.485051999971
 30
0.0
 11
24070.51013358514
 21
19245.489089999999
 31
0.0
  0
LINE
  5
10DAC
  8
2-0
  6
CONTINUOUS
 62
     3
 10
24070.51013358514
 20
19245.489089999999
 30
0.0
 11
24040.51250858514
 21
19245.489089999999
 31
0.0
  0
LINE
  5
10DAD
  8
2-0
  6
CONTINUOUS
 62
     3
 10
24040.51250858514
 20
19245.489089999999
 30
0.0
 11
24040.51250858514
 21
19360.485262999999
 31
0.0
  0
LINE
  5
10DAE
  8
2-0
  6
CONTINUOUS
 62
     3
 10
24040.51250858514
 20
19275.488693999981
 30
0.0
 11
24121.510449585141
 21
19275.488693999981
 31
0.0
  0
LINE
  5
10DAF
  8
2-0
  6
CONTINUOUS
 62
     3
 10
24070.51013358514
 20
19235.19163399997
 30
0.0
 11
24040.51250858514
 21
19235.19163399997
 31
0.0
  0
LINE
  5
10DB0
  8
2-0
  6
CONTINUOUS
 62
     3
 10
24070.51013358514
 20
19253.193375999988
 30
0.0
 11
24070.51013358514
 21
19235.19163399997
 31
0.0
  0
LINE
  5
10DB1
  8
2-0
  6
CONTINUOUS
 62
     3
 10
24045.516731585139
 20
19253.193375999988
 30
0.0
 11
24070.51013358514
 21
19253.193375999988
 31
0.0
  0
LINE
  5
10DB2
  8
2-0
  6
CONTINUOUS
 62
     3
 10
24045.516731585139
 20
19248.18519399998
 30
0.0
 11
24045.516731585139
 21
19253.193375999988
 31
0.0
  0
LINE
  5
10DB3
  8
2-0
  6
CONTINUOUS
 62
     3
 10
24052.514329585108
 20
19248.18519399998
 30
0.0
 11
24045.516731585139
 21
19248.18519399998
 31
0.0
  0
LINE
  5
10DB4
  8
2-0
  6
CONTINUOUS
 62
     3
 10
24152.808618585139
 20
19348.485420999979
 30
0.0
 11
24152.808618585139
 21
19355.490936999991
 31
0.0
  0
LINE
  5
10DB5
  8
2-0
  6
CONTINUOUS
 62
     3
 10
24152.808618585139
 20
19355.490936999991
 30
0.0
 11
24147.80637458514
 21
19355.490936999991
 31
0.0
  0
LINE
  5
10DB6
  8
2-0
  6
CONTINUOUS
 62
     3
 10
24147.80637458514
 20
19355.490936999991
 30
0.0
 11
24147.80637458514
 21
19330.481699999978
 31
0.0
  0
LINE
  5
10DB7
  8
2-0
  6
CONTINUOUS
 62
     3
 10
24147.80637458514
 20
19330.481699999978
 30
0.0
 11
24165.814055585131
 21
19330.481699999978
 31
0.0
  0
LINE
  5
10DB8
  8
2-0
  6
CONTINUOUS
 62
     3
 10
24165.814055585131
 20
19330.481699999978
 30
0.0
 11
24165.814055585131
 21
19360.485262999999
 31
0.0
  0
LINE
  5
10DB9
  8
2-0
  6
CONTINUOUS
 62
     3
 10
24155.514619585148
 20
19360.485262999999
 30
0.0
 11
24040.51250858514
 21
19360.485262999999
 31
0.0
  0
LINE
  5
10DBA
  8
2-0
  6
CONTINUOUS
 62
     3
 10
24155.514619585148
 20
19330.481699999978
 30
0.0
 11
24155.514619585148
 21
19360.485262999999
 31
0.0
  0
LINE
  5
10DBB
  8
2-0
  6
CONTINUOUS
 62
     3
 10
24149.510740585141
 20
19330.481699999978
 30
0.0
 11
24155.514619585148
 21
19330.481699999978
 31
0.0
  0
LINE
  5
10DBC
  8
2-0
  6
CONTINUOUS
 62
     3
 10
24070.51013358514
 20
19251.485051999971
 30
0.0
 11
24070.51013358514
 21
19245.489089999999
 31
0.0
  0
LINE
  5
10DBD
  8
2-0
  6
CONTINUOUS
 62
     3
 10
24070.51013358514
 20
19245.489089999999
 30
0.0
 11
24040.51250858514
 21
19245.489089999999
 31
0.0
  0
LINE
  5
10DBE
  8
2-0
  6
CONTINUOUS
 62
     3
 10
24040.51250858514
 20
19245.489089999999
 30
0.0
 11
24040.51250858514
 21
19360.485262999999
 31
0.0
  0
LINE
  5
10DBF
  8
2-0
  6
CONTINUOUS
 62
     3
 10
24040.51250858514
 20
19275.488693999981
 30
0.0
 11
24121.510449585141
 21
19275.488693999981
 31
0.0
  0
LINE
  5
10DC0
  8
2-0
  6
CONTINUOUS
 62
     3
 10
24070.51013358514
 20
19235.19163399997
 30
0.0
 11
24040.51250858514
 21
19235.19163399997
 31
0.0
  0
LINE
  5
10DC1
  8
2-0
  6
CONTINUOUS
 62
     3
 10
24070.51013358514
 20
19253.193375999988
 30
0.0
 11
24070.51013358514
 21
19235.19163399997
 31
0.0
  0
LINE
  5
10DC2
  8
2-0
  6
CONTINUOUS
 62
     3
 10
24045.516731585139
 20
19253.193375999988
 30
0.0
 11
24070.51013358514
 21
19253.193375999988
 31
0.0
  0
LINE
  5
10DC3
  8
2-0
  6
CONTINUOUS
 62
     3
 10
24045.516731585139
 20
19248.18519399998
 30
0.0
 11
24045.516731585139
 21
19253.193375999988
 31
0.0
  0
LINE
  5
10DC4
  8
2-0
  6
CONTINUOUS
 62
     3
 10
24052.514329585108
 20
19248.18519399998
 30
0.0
 11
24045.516731585139
 21
19248.18519399998
 31
0.0
  0
LINE
  5
10DC5
  8
2-0
  6
CONTINUOUS
 62
     3
 10
24052.514329585108
 20
18894.888371499928
 30
0.0
 11
24045.516731585139
 21
18894.888371499928
 31
0.0
  0
LINE
  5
10DC6
  8
2-0
  6
CONTINUOUS
 62
     3
 10
24045.516731585139
 20
18894.888371499928
 30
0.0
 11
24045.516731585139
 21
18899.888635499959
 31
0.0
  0
LINE
  5
10DC7
  8
2-0
  6
CONTINUOUS
 62
     3
 10
24045.516731585139
 20
18899.888635499959
 30
0.0
 11
24070.51013358514
 21
18899.888635499959
 31
0.0
  0
LINE
  5
10DC8
  8
2-0
  6
CONTINUOUS
 62
     3
 10
24070.51013358514
 20
18899.888635499959
 30
0.0
 11
24070.51013358514
 21
18881.892831499961
 31
0.0
  0
LINE
  5
10DC9
  8
2-0
  6
CONTINUOUS
 62
     3
 10
24070.51013358514
 20
18881.892831499961
 30
0.0
 11
24040.51250858514
 21
18881.892831499961
 31
0.0
  0
LINE
  5
10DCA
  8
2-0
  6
CONTINUOUS
 62
     3
 10
24070.51013358514
 20
18897.98433849994
 30
0.0
 11
24070.51013358514
 21
18891.986397499972
 31
0.0
  0
LINE
  5
10DCB
  8
2-0
  6
CONTINUOUS
 62
     3
 10
24070.51013358514
 20
18891.986397499972
 30
0.0
 11
24040.51250858514
 21
18891.986397499972
 31
0.0
  0
LINE
  5
10DCC
  8
2-0
  6
CONTINUOUS
 62
     3
 10
24040.51250858514
 20
18891.986397499972
 30
0.0
 11
24040.51250858514
 21
18928.987558499961
 31
0.0
  0
LINE
  5
10DCD
  8
2-0
  6
CONTINUOUS
 62
     3
 10
24070.51013358514
 20
18928.987558499961
 30
0.0
 11
24040.51250858514
 21
18928.987558499961
 31
0.0
  0
LINE
  5
10DCE
  8
2-0
  6
CONTINUOUS
 62
     3
 10
24070.51013358514
 20
18922.983678499972
 30
0.0
 11
24070.51013358514
 21
18928.987558499961
 31
0.0
  0
LINE
  5
10DCF
  8
2-0
  6
CONTINUOUS
 62
     3
 10
24070.51013358514
 20
18939.083103499939
 30
0.0
 11
24040.51250858514
 21
18939.083103499939
 31
0.0
  0
LINE
  5
10DD0
  8
2-0
  6
CONTINUOUS
 62
     3
 10
24070.51013358514
 20
18921.081361499979
 30
0.0
 11
24070.51013358514
 21
18939.083103499939
 31
0.0
  0
LINE
  5
10DD1
  8
2-0
  6
CONTINUOUS
 62
     3
 10
24045.516731585139
 20
18921.081361499979
 30
0.0
 11
24070.51013358514
 21
18921.081361499979
 31
0.0
  0
LINE
  5
10DD2
  8
2-0
  6
CONTINUOUS
 62
     3
 10
24045.516731585139
 20
18926.08162549997
 30
0.0
 11
24045.516731585139
 21
18921.081361499979
 31
0.0
  0
LINE
  5
10DD3
  8
2-0
  6
CONTINUOUS
 62
     3
 10
24052.514329585108
 20
18926.08162549997
 30
0.0
 11
24045.516731585139
 21
18926.08162549997
 31
0.0
  0
LINE
  5
10DD4
  8
2-0
  6
CONTINUOUS
 62
     3
 10
24052.514329585108
 20
18193.887381999972
 30
0.0
 11
24045.516731585139
 21
18193.887381999972
 31
0.0
  0
LINE
  5
10DD5
  8
2-0
  6
CONTINUOUS
 62
     3
 10
24045.516731585139
 20
18193.887381999972
 30
0.0
 11
24045.516731585139
 21
18198.89358399995
 31
0.0
  0
LINE
  5
10DD6
  8
2-0
  6
CONTINUOUS
 62
     3
 10
24045.516731585139
 20
18198.89358399995
 30
0.0
 11
24070.51013358514
 21
18198.89358399995
 31
0.0
  0
LINE
  5
10DD7
  8
2-0
  6
CONTINUOUS
 62
     3
 10
24070.51013358514
 20
18198.89358399995
 30
0.0
 11
24070.51013358514
 21
18180.891841999979
 31
0.0
  0
LINE
  5
10DD8
  8
2-0
  6
CONTINUOUS
 62
     3
 10
24070.51013358514
 20
18180.891841999979
 30
0.0
 11
24040.51250858514
 21
18180.891841999979
 31
0.0
  0
LINE
  5
10DD9
  8
2-0
  6
CONTINUOUS
 62
     3
 10
24070.51013358514
 20
18196.983348999929
 30
0.0
 11
24070.51013358514
 21
18190.987386999968
 31
0.0
  0
LINE
  5
10DDA
  8
2-0
  6
CONTINUOUS
 62
     3
 10
24070.51013358514
 20
18190.987386999968
 30
0.0
 11
24040.51250858514
 21
18190.987386999968
 31
0.0
  0
LINE
  5
10DDB
  8
2-0
  6
CONTINUOUS
 62
     3
 10
24040.51250858514
 20
18190.987386999968
 30
0.0
 11
24040.51250858514
 21
18227.986568999971
 31
0.0
  0
LINE
  5
10DDC
  8
2-0
  6
CONTINUOUS
 62
     3
 10
24070.51013358514
 20
18227.986568999971
 30
0.0
 11
24040.51250858514
 21
18227.986568999971
 31
0.0
  0
LINE
  5
10DDD
  8
2-0
  6
CONTINUOUS
 62
     3
 10
24070.51013358514
 20
18221.990606999971
 30
0.0
 11
24070.51013358514
 21
18227.986568999971
 31
0.0
  0
LINE
  5
10DDE
  8
2-0
  6
CONTINUOUS
 62
     3
 10
24070.51013358514
 20
18238.082113999979
 30
0.0
 11
24040.51250858514
 21
18238.082113999979
 31
0.0
  0
LINE
  5
10DDF
  8
2-0
  6
CONTINUOUS
 62
     3
 10
24070.51013358514
 20
18220.080371999971
 30
0.0
 11
24070.51013358514
 21
18238.082113999979
 31
0.0
  0
LINE
  5
10DE0
  8
2-0
  6
CONTINUOUS
 62
     3
 10
24045.516731585139
 20
18220.080371999971
 30
0.0
 11
24070.51013358514
 21
18220.080371999971
 31
0.0
  0
LINE
  5
10DE1
  8
2-0
  6
CONTINUOUS
 62
     3
 10
24045.516731585139
 20
18225.08657399995
 30
0.0
 11
24045.516731585139
 21
18220.080371999971
 31
0.0
  0
LINE
  5
10DE2
  8
2-0
  6
CONTINUOUS
 62
     3
 10
24052.514329585108
 20
18225.08657399995
 30
0.0
 11
24045.516731585139
 21
18225.08657399995
 31
0.0
  0
LINE
  5
10DE3
  8
2-0
  6
CONTINUOUS
 62
     3
 10
24052.514329585108
 20
17524.08063599997
 30
0.0
 11
24045.516731585139
 21
17524.08063599997
 31
0.0
  0
LINE
  5
10DE4
  8
2-0
  6
CONTINUOUS
 62
     3
 10
24045.516731585139
 20
17524.08063599997
 30
0.0
 11
24045.516731585139
 21
17519.092248999968
 31
0.0
  0
LINE
  5
10DE5
  8
2-0
  6
CONTINUOUS
 62
     3
 10
24045.516731585139
 20
17519.092248999968
 30
0.0
 11
24070.51013358514
 21
17519.092248999968
 31
0.0
  0
LINE
  5
10DE6
  8
2-0
  6
CONTINUOUS
 62
     3
 10
24070.51013358514
 20
17519.092248999968
 30
0.0
 11
24070.51013358514
 21
17537.08805199997
 31
0.0
  0
LINE
  5
10DE7
  8
2-0
  6
CONTINUOUS
 62
     3
 10
24070.51013358514
 20
17537.08805199997
 30
0.0
 11
24040.51250858514
 21
17537.08805199997
 31
0.0
  0
LINE
  5
10DE8
  8
2-0
  6
CONTINUOUS
 62
     3
 10
24070.51013358514
 20
17520.990606999971
 30
0.0
 11
24070.51013358514
 21
17526.986568999971
 31
0.0
  0
LINE
  5
10DE9
  8
2-0
  6
CONTINUOUS
 62
     3
 10
24070.51013358514
 20
17526.986568999971
 30
0.0
 11
24040.51250858514
 21
17526.986568999971
 31
0.0
  0
LINE
  5
10DEA
  8
2-0
  6
CONTINUOUS
 62
     3
 10
24040.51250858514
 20
17526.986568999971
 30
0.0
 11
24040.51250858514
 21
17489.987386999968
 31
0.0
  0
LINE
  5
10DEB
  8
2-0
  6
CONTINUOUS
 62
     3
 10
24070.51013358514
 20
17489.987386999968
 30
0.0
 11
24040.51250858514
 21
17489.987386999968
 31
0.0
  0
LINE
  5
10DEC
  8
2-0
  6
CONTINUOUS
 62
     3
 10
24070.51013358514
 20
17495.98928799995
 30
0.0
 11
24070.51013358514
 21
17489.987386999968
 31
0.0
  0
LINE
  5
10DED
  8
2-0
  6
CONTINUOUS
 62
     3
 10
24070.51013358514
 20
17479.89778099996
 30
0.0
 11
24040.51250858514
 21
17479.89778099996
 31
0.0
  0
LINE
  5
10DEE
  8
2-0
  6
CONTINUOUS
 62
     3
 10
24070.51013358514
 20
17497.893583999969
 30
0.0
 11
24070.51013358514
 21
17479.89778099996
 31
0.0
  0
LINE
  5
10DEF
  8
2-0
  6
CONTINUOUS
 62
     3
 10
24045.516731585139
 20
17497.893583999969
 30
0.0
 11
24070.51013358514
 21
17497.893583999969
 31
0.0
  0
LINE
  5
10DF0
  8
2-0
  6
CONTINUOUS
 62
     3
 10
24045.516731585139
 20
17492.89332099996
 30
0.0
 11
24045.516731585139
 21
17497.893583999969
 31
0.0
  0
LINE
  5
10DF1
  8
2-0
  6
CONTINUOUS
 62
     3
 10
24052.514329585108
 20
17492.89332099996
 30
0.0
 11
24045.516731585139
 21
17492.89332099996
 31
0.0
  0
LINE
  5
10DF2
  8
2-0
  6
CONTINUOUS
 62
     3
 10
24043.398646585141
 20
16772.984206999969
 30
0.0
 11
24043.398646585141
 21
16792.98526199998
 31
0.0
  0
LINE
  5
10DF3
  8
2-0
  6
CONTINUOUS
 62
     3
 10
24043.398646585141
 20
16792.98526199998
 30
0.0
 11
24128.399174585142
 21
16792.98526199998
 31
0.0
  0
LINE
  5
10DF4
  8
2-0
  6
CONTINUOUS
 62
     3
 10
24052.514329585108
 20
16819.59197199998
 30
0.0
 11
24045.516731585139
 21
16819.59197199998
 31
0.0
  0
LINE
  5
10DF5
  8
2-0
  6
CONTINUOUS
 62
     3
 10
24045.516731585139
 20
16819.59197199998
 30
0.0
 11
24045.516731585139
 21
16814.59764599998
 31
0.0
  0
LINE
  5
10DF6
  8
2-0
  6
CONTINUOUS
 62
     3
 10
24045.516731585139
 20
16814.59764599998
 30
0.0
 11
24070.51013358514
 21
16814.59764599998
 31
0.0
  0
LINE
  5
10DF7
  8
2-0
  6
CONTINUOUS
 62
     3
 10
24070.51013358514
 20
16814.59764599998
 30
0.0
 11
24070.51013358514
 21
16832.593449999978
 31
0.0
  0
LINE
  5
10DF8
  8
2-0
  6
CONTINUOUS
 62
     3
 10
24070.51013358514
 20
16832.593449999978
 30
0.0
 11
24040.51250858514
 21
16832.593449999978
 31
0.0
  0
LINE
  5
10DF9
  8
2-0
  6
CONTINUOUS
 62
     3
 10
24070.51013358514
 20
16822.98486599997
 30
0.0
 11
24070.51013358514
 21
16816.98296599996
 31
0.0
  0
LINE
  5
10DFA
  8
2-0
  6
CONTINUOUS
 62
     3
 10
24040.51250858514
 20
16822.98486599997
 30
0.0
 11
24070.51013358514
 21
16822.98486599997
 31
0.0
  0
LINE
  5
10DFB
  8
2-0
  6
CONTINUOUS
 62
     3
 10
24040.51250858514
 20
16832.593449999978
 30
0.0
 11
24040.51250858514
 21
17479.89778099996
 31
0.0
  0
LINE
  5
10DFC
  8
2-0
  6
CONTINUOUS
 62
     3
 10
24040.51250858514
 20
17537.08805199997
 30
0.0
 11
24040.51250858514
 21
18180.891841999979
 31
0.0
  0
LINE
  5
10DFD
  8
2-0
  6
CONTINUOUS
 62
     3
 10
24040.51250858514
 20
16677.983150999979
 30
0.0
 11
24070.51013358514
 21
16677.983150999979
 31
0.0
  0
LINE
  5
10DFE
  8
2-0
  6
CONTINUOUS
 62
     3
 10
24070.51013358514
 20
16677.983150999979
 30
0.0
 11
24070.51013358514
 21
16683.985050999971
 31
0.0
  0
LINE
  5
10DFF
  8
2-0
  6
CONTINUOUS
 62
     3
 10
24128.399174585142
 20
16707.98869399996
 30
0.0
 11
24043.398646585141
 21
16707.98869399996
 31
0.0
  0
LINE
  5
10E00
  8
2-0
  6
CONTINUOUS
 62
     3
 10
24043.398646585141
 20
16707.98869399996
 30
0.0
 11
24043.398646585141
 21
16727.98381099998
 31
0.0
  0
LINE
  5
10E01
  8
2-0
  6
CONTINUOUS
 62
     3
 10
24070.51013358514
 20
16668.374567999988
 30
0.0
 11
24040.51250858514
 21
16668.374567999988
 31
0.0
  0
LINE
  5
10E02
  8
2-0
  6
CONTINUOUS
 62
     3
 10
24070.51013358514
 20
16686.370370999972
 30
0.0
 11
24070.51013358514
 21
16668.374567999988
 31
0.0
  0
LINE
  5
10E03
  8
2-0
  6
CONTINUOUS
 62
     3
 10
24045.516731585139
 20
16686.370370999972
 30
0.0
 11
24070.51013358514
 21
16686.370370999972
 31
0.0
  0
LINE
  5
10E04
  8
2-0
  6
CONTINUOUS
 62
     3
 10
24045.516731585139
 20
16681.370106999981
 30
0.0
 11
24045.516731585139
 21
16686.370370999972
 31
0.0
  0
LINE
  5
10E05
  8
2-0
  6
CONTINUOUS
 62
     3
 10
24052.514329585108
 20
16681.370106999981
 30
0.0
 11
24045.516731585139
 21
16681.370106999981
 31
0.0
  0
LINE
  5
10E06
  8
2-0
  6
CONTINUOUS
 62
     3
 10
24052.514329585108
 20
15976.887876499961
 30
0.0
 11
24045.516731585139
 21
15976.887876499961
 31
0.0
  0
LINE
  5
10E07
  8
2-0
  6
CONTINUOUS
 62
     3
 10
24045.516731585139
 20
15976.887876499961
 30
0.0
 11
24045.516731585139
 21
15981.888140499959
 31
0.0
  0
LINE
  5
10E08
  8
2-0
  6
CONTINUOUS
 62
     3
 10
24045.516731585139
 20
15981.888140499959
 30
0.0
 11
24070.51013358514
 21
15981.888140499959
 31
0.0
  0
LINE
  5
10E09
  8
2-0
  6
CONTINUOUS
 62
     3
 10
24070.51013358514
 20
15981.888140499959
 30
0.0
 11
24070.51013358514
 21
15963.886398499961
 31
0.0
  0
LINE
  5
10E0A
  8
2-0
  6
CONTINUOUS
 62
     3
 10
24070.51013358514
 20
15963.886398499961
 30
0.0
 11
24040.51250858514
 21
15963.886398499961
 31
0.0
  0
LINE
  5
10E0B
  8
2-0
  6
CONTINUOUS
 62
     3
 10
24070.51013358514
 20
15979.98384349996
 30
0.0
 11
24070.51013358514
 21
15973.98689249997
 31
0.0
  0
LINE
  5
10E0C
  8
2-0
  6
CONTINUOUS
 62
     3
 10
24070.51013358514
 20
15973.98689249997
 30
0.0
 11
24040.51250858514
 21
15973.98689249997
 31
0.0
  0
LINE
  5
10E0D
  8
2-0
  6
CONTINUOUS
 62
     3
 10
24040.51250858514
 20
15973.98689249997
 30
0.0
 11
24040.51250858514
 21
16010.987063499981
 31
0.0
  0
LINE
  5
10E0E
  8
2-0
  6
CONTINUOUS
 62
     3
 10
24070.51013358514
 20
16010.987063499981
 30
0.0
 11
24040.51250858514
 21
16010.987063499981
 31
0.0
  0
LINE
  5
10E0F
  8
2-0
  6
CONTINUOUS
 62
     3
 10
24070.51013358514
 20
16004.98417349997
 30
0.0
 11
24070.51013358514
 21
16010.987063499981
 31
0.0
  0
LINE
  5
10E10
  8
2-0
  6
CONTINUOUS
 62
     3
 10
24070.51013358514
 20
16021.082608499981
 30
0.0
 11
24040.51250858514
 21
16021.082608499981
 31
0.0
  0
LINE
  5
10E11
  8
2-0
  6
CONTINUOUS
 62
     3
 10
24070.51013358514
 20
16003.074927499971
 30
0.0
 11
24070.51013358514
 21
16021.082608499981
 31
0.0
  0
LINE
  5
10E12
  8
2-0
  6
CONTINUOUS
 62
     3
 10
24045.516731585139
 20
16003.074927499971
 30
0.0
 11
24070.51013358514
 21
16003.074927499971
 31
0.0
  0
LINE
  5
10E13
  8
2-0
  6
CONTINUOUS
 62
     3
 10
24045.516731585139
 20
16008.081130499981
 30
0.0
 11
24045.516731585139
 21
16003.074927499971
 31
0.0
  0
LINE
  5
10E14
  8
2-0
  6
CONTINUOUS
 62
     3
 10
24052.514329585108
 20
16008.081130499981
 30
0.0
 11
24045.516731585139
 21
16008.081130499981
 31
0.0
  0
LINE
  5
10E15
  8
2-0
  6
CONTINUOUS
 62
     3
 10
24052.514329585108
 20
15307.32114699999
 30
0.0
 11
24045.516731585139
 21
15307.32114699999
 31
0.0
  0
LINE
  5
10E16
  8
2-0
  6
CONTINUOUS
 62
     3
 10
24045.516731585139
 20
15307.32114699999
 30
0.0
 11
24045.516731585139
 21
15302.326821999981
 31
0.0
  0
LINE
  5
10E17
  8
2-0
  6
CONTINUOUS
 62
     3
 10
24045.516731585139
 20
15302.326821999981
 30
0.0
 11
24070.51013358514
 21
15302.326821999981
 31
0.0
  0
LINE
  5
10E18
  8
2-0
  6
CONTINUOUS
 62
     3
 10
24070.51013358514
 20
15302.326821999981
 30
0.0
 11
24070.51013358514
 21
15320.322624999981
 31
0.0
  0
LINE
  5
10E19
  8
2-0
  6
CONTINUOUS
 62
     3
 10
24070.51013358514
 20
15320.322624999981
 30
0.0
 11
24040.51250858514
 21
15320.322624999981
 31
0.0
  0
LINE
  5
10E1A
  8
2-0
  6
CONTINUOUS
 62
     3
 10
24070.51013358514
 20
15304.225179999979
 30
0.0
 11
24070.51013358514
 21
15310.22707999999
 31
0.0
  0
LINE
  5
10E1B
  8
2-0
  6
CONTINUOUS
 62
     3
 10
24070.51013358514
 20
15310.22707999999
 30
0.0
 11
24040.51250858514
 21
15310.22707999999
 31
0.0
  0
LINE
  5
10E1C
  8
2-0
  6
CONTINUOUS
 62
     3
 10
24040.51250858514
 20
15273.22789899999
 30
0.0
 11
24040.51250858514
 21
15310.22707999999
 31
0.0
  0
LINE
  5
10E1D
  8
2-0
  6
CONTINUOUS
 62
     3
 10
24070.51013358514
 20
15273.22789899999
 30
0.0
 11
24040.51250858514
 21
15273.22789899999
 31
0.0
  0
LINE
  5
10E1E
  8
2-0
  6
CONTINUOUS
 62
     3
 10
24070.51013358514
 20
15279.22484999997
 30
0.0
 11
24070.51013358514
 21
15273.22789899999
 31
0.0
  0
LINE
  5
10E1F
  8
2-0
  6
CONTINUOUS
 62
     3
 10
24070.51013358514
 20
15263.126414999981
 30
0.0
 11
24040.51250858514
 21
15263.126414999981
 31
0.0
  0
LINE
  5
10E20
  8
2-0
  6
CONTINUOUS
 62
     3
 10
24070.51013358514
 20
15281.13409599998
 30
0.0
 11
24070.51013358514
 21
15263.126414999981
 31
0.0
  0
LINE
  5
10E21
  8
2-0
  6
CONTINUOUS
 62
     3
 10
24045.516731585139
 20
15281.13409599998
 30
0.0
 11
24070.51013358514
 21
15281.13409599998
 31
0.0
  0
LINE
  5
10E22
  8
2-0
  6
CONTINUOUS
 62
     3
 10
24045.516731585139
 20
15276.13383199999
 30
0.0
 11
24045.516731585139
 21
15281.13409599998
 31
0.0
  0
LINE
  5
10E23
  8
2-0
  6
CONTINUOUS
 62
     3
 10
24052.514329585108
 20
15276.13383199999
 30
0.0
 11
24045.516731585139
 21
15276.13383199999
 31
0.0
  0
LINE
  5
10E24
  8
2-0
  6
CONTINUOUS
 62
     3
 10
24040.51250858514
 20
16668.374567999988
 30
0.0
 11
24040.51250858514
 21
16021.082608499981
 31
0.0
  0
LINE
  5
10E25
  8
2-0
  6
CONTINUOUS
 62
     3
 10
24040.51250858514
 20
16822.98486599997
 30
0.0
 11
24040.51250858514
 21
16677.983150999979
 31
0.0
  0
LINE
  5
10E26
  8
2-0
  6
CONTINUOUS
 62
     3
 10
24128.399174585142
 20
16792.98526199998
 30
0.0
 11
24128.399174585142
 21
16707.98869399996
 31
0.0
  0
LINE
  5
10E27
  8
2-0
  6
CONTINUOUS
 62
     3
 10
24052.514329585108
 20
14574.892824999981
 30
0.0
 11
24045.516731585139
 21
14574.892824999981
 31
0.0
  0
LINE
  5
10E28
  8
2-0
  6
CONTINUOUS
 62
     3
 10
24045.516731585139
 20
14574.892824999981
 30
0.0
 11
24045.516731585139
 21
14579.887150999981
 31
0.0
  0
LINE
  5
10E29
  8
2-0
  6
CONTINUOUS
 62
     3
 10
24045.516731585139
 20
14579.887150999981
 30
0.0
 11
24070.51013358514
 21
14579.887150999981
 31
0.0
  0
LINE
  5
10E2A
  8
2-0
  6
CONTINUOUS
 62
     3
 10
24070.51013358514
 20
14579.887150999981
 30
0.0
 11
24070.51013358514
 21
14561.891346999981
 31
0.0
  0
LINE
  5
10E2B
  8
2-0
  6
CONTINUOUS
 62
     3
 10
24070.51013358514
 20
14561.891346999981
 30
0.0
 11
24040.51250858514
 21
14561.891346999981
 31
0.0
  0
LINE
  5
10E2C
  8
2-0
  6
CONTINUOUS
 62
     3
 10
24070.51013358514
 20
14577.98978199999
 30
0.0
 11
24070.51013358514
 21
14571.986891999981
 31
0.0
  0
LINE
  5
10E2D
  8
2-0
  6
CONTINUOUS
 62
     3
 10
24070.51013358514
 20
14571.986891999981
 30
0.0
 11
24040.51250858514
 21
14571.986891999981
 31
0.0
  0
LINE
  5
10E2E
  8
2-0
  6
CONTINUOUS
 62
     3
 10
24040.51250858514
 20
14571.986891999981
 30
0.0
 11
24040.51250858514
 21
14608.987063999961
 31
0.0
  0
LINE
  5
10E2F
  8
2-0
  6
CONTINUOUS
 62
     3
 10
24070.51013358514
 20
14608.987063999961
 30
0.0
 11
24040.51250858514
 21
14608.987063999961
 31
0.0
  0
LINE
  5
10E30
  8
2-0
  6
CONTINUOUS
 62
     3
 10
24070.51013358514
 20
14602.990111999979
 30
0.0
 11
24070.51013358514
 21
14608.987063999961
 31
0.0
  0
LINE
  5
10E31
  8
2-0
  6
CONTINUOUS
 62
     3
 10
24070.51013358514
 20
14619.087556999981
 30
0.0
 11
24040.51250858514
 21
14619.087556999981
 31
0.0
  0
LINE
  5
10E32
  8
2-0
  6
CONTINUOUS
 62
     3
 10
24070.51013358514
 20
14601.080865999989
 30
0.0
 11
24070.51013358514
 21
14619.087556999981
 31
0.0
  0
LINE
  5
10E33
  8
2-0
  6
CONTINUOUS
 62
     3
 10
24045.516731585139
 20
14601.080865999989
 30
0.0
 11
24070.51013358514
 21
14601.080865999989
 31
0.0
  0
LINE
  5
10E34
  8
2-0
  6
CONTINUOUS
 62
     3
 10
24045.516731585139
 20
14606.08607899999
 30
0.0
 11
24045.516731585139
 21
14601.080865999989
 31
0.0
  0
LINE
  5
10E35
  8
2-0
  6
CONTINUOUS
 62
     3
 10
24052.514329585108
 20
14606.08607899999
 30
0.0
 11
24045.516731585139
 21
14606.08607899999
 31
0.0
  0
LINE
  5
10E36
  8
2-0
  6
CONTINUOUS
 62
     3
 10
24070.51013358514
 20
14249.48890499996
 30
0.0
 11
24070.51013358514
 21
14255.49377399998
 31
0.0
  0
LINE
  5
10E37
  8
2-0
  6
CONTINUOUS
 62
     3
 10
24070.51013358514
 20
14255.49377399998
 30
0.0
 11
24040.51250858514
 21
14255.49377399998
 31
0.0
  0
LINE
  5
10E38
  8
2-0
  6
CONTINUOUS
 62
     3
 10
24040.51250858514
 20
14255.49377399998
 30
0.0
 11
24040.51250858514
 21
14140.489682999971
 31
0.0
  0
LINE
  5
10E39
  8
2-0
  6
CONTINUOUS
 62
     3
 10
24040.51250858514
 20
14140.489682999971
 30
0.0
 11
24125.511056585139
 21
14140.489682999971
 31
0.0
  0
LINE
  5
10E3A
  8
2-0
  6
CONTINUOUS
 62
     3
 10
24125.511056585139
 20
14140.489682999971
 30
0.0
 11
24125.511056585139
 21
14225.48526199998
 31
0.0
  0
LINE
  5
10E3B
  8
2-0
  6
CONTINUOUS
 62
     3
 10
24125.511056585139
 20
14225.48526199998
 30
0.0
 11
24093.514118585132
 21
14225.48526199998
 31
0.0
  0
LINE
  5
10E3C
  8
2-0
  6
CONTINUOUS
 62
     3
 10
24052.514329585108
 20
14252.523506999971
 30
0.0
 11
24045.516731585139
 21
14252.523506999971
 31
0.0
  0
LINE
  5
10E3D
  8
2-0
  6
CONTINUOUS
 62
     3
 10
24045.516731585139
 20
14252.523506999971
 30
0.0
 11
24045.516731585139
 21
14247.526211999961
 31
0.0
  0
LINE
  5
10E3E
  8
2-0
  6
CONTINUOUS
 62
     3
 10
24045.516731585139
 20
14247.526211999961
 30
0.0
 11
24070.51013358514
 21
14247.526211999961
 31
0.0
  0
LINE
  5
10E3F
  8
2-0
  6
CONTINUOUS
 62
     3
 10
24070.51013358514
 20
14247.526211999961
 30
0.0
 11
24070.51013358514
 21
14265.52498499998
 31
0.0
  0
LINE
  5
10E40
  8
2-0
  6
CONTINUOUS
 62
     3
 10
24070.51013358514
 20
14265.52498499998
 30
0.0
 11
24040.51250858514
 21
14265.52498499998
 31
0.0
  0
LINE
  5
10E41
  8
2-0
  6
CONTINUOUS
 62
     3
 10
24040.51250858514
 20
14619.087556999981
 30
0.0
 11
24040.51250858514
 21
15263.126414999981
 31
0.0
  0
LINE
  5
10E42
  8
2-0
  6
CONTINUOUS
 62
     3
 10
24040.51250858514
 20
18238.082113999979
 30
0.0
 11
24040.51250858514
 21
18881.892831499961
 31
0.0
  0
LINE
  5
10E43
  8
2-0
  6
CONTINUOUS
 62
     3
 10
24131.51493658515
 20
18166.98572399994
 30
0.0
 11
24084.511267585141
 21
18166.98572399994
 31
0.0
  0
LINE
  5
10E44
  8
2-0
  6
CONTINUOUS
 62
     3
 10
24084.511267585141
 20
18251.986251999981
 30
0.0
 11
24131.51493658515
 21
18251.986251999981
 31
0.0
  0
LINE
  5
10E45
  8
2-0
  6
CONTINUOUS
 62
     3
 10
24084.511267585141
 20
18166.98572399994
 30
0.0
 11
24084.511267585141
 21
18191.98902299998
 31
0.0
  0
LINE
  5
10E46
  8
2-0
  6
CONTINUOUS
 62
     3
 10
24084.511267585141
 20
18226.984931999981
 30
0.0
 11
24084.511267585141
 21
18251.986251999981
 31
0.0
  0
LINE
  5
10E47
  8
2-0
  6
CONTINUOUS
 62
     3
 10
24131.51493658515
 20
18251.986251999981
 30
0.0
 11
24131.51493658515
 21
18166.98572399994
 31
0.0
  0
LINE
  5
10E48
  8
2-0
  6
CONTINUOUS
 62
     3
 10
24040.51250858514
 20
15963.886398499961
 30
0.0
 11
24040.51250858514
 21
15320.322624999981
 31
0.0
  0
LINE
  5
10E49
  8
2-0
  6
CONTINUOUS
 62
     3
 10
24131.51493658515
 20
15248.98869399998
 30
0.0
 11
24084.511267585141
 21
15248.98869399998
 31
0.0
  0
LINE
  5
10E4A
  8
2-0
  6
CONTINUOUS
 62
     3
 10
24084.511267585141
 20
15333.98526199996
 30
0.0
 11
24131.51493658515
 21
15333.98526199996
 31
0.0
  0
LINE
  5
10E4B
  8
2-0
  6
CONTINUOUS
 62
     3
 10
24084.511267585141
 20
15248.98869399998
 30
0.0
 11
24084.511267585141
 21
15273.984074999989
 31
0.0
  0
LINE
  5
10E4C
  8
2-0
  6
CONTINUOUS
 62
     3
 10
24084.511267585141
 20
15308.98394299999
 30
0.0
 11
24084.511267585141
 21
15333.98526199996
 31
0.0
  0
LINE
  5
10E4D
  8
2-0
  6
CONTINUOUS
 62
     3
 10
24131.51493658515
 20
15333.98526199996
 30
0.0
 11
24131.51493658515
 21
15248.98869399998
 31
0.0
  0
LINE
  5
10E4E
  8
2-0
  6
CONTINUOUS
 62
     3
 10
26693.007097585149
 20
19245.489089999999
 30
0.0
 11
26693.007097585149
 21
19360.485262999999
 31
0.0
  0
LINE
  5
10E4F
  8
2-0
  6
CONTINUOUS
 62
     3
 10
24040.51250858514
 20
19275.488693999981
 30
0.0
 11
26612.005197585131
 21
19275.488693999981
 31
0.0
  0
LINE
  5
10E50
  8
2-0
  6
CONTINUOUS
 62
     3
 10
24040.51250858514
 20
14265.52498499998
 30
0.0
 11
24040.51250858514
 21
14561.891346999981
 31
0.0
  0
LINE
  5
10E51
  8
2-0
  6
CONTINUOUS
 62
     3
 10
26693.007097585149
 20
19235.19163399997
 30
0.0
 11
26693.007097585149
 21
18939.083103499968
 31
0.0
  0
LINE
  5
10E52
  8
2-0
  6
CONTINUOUS
 62
     3
 10
24040.51250858514
 20
19235.19163399997
 30
0.0
 11
24040.51250858514
 21
18939.083103499939
 31
0.0
  0
LINE
  5
10E53
  8
2-0
  6
CONTINUOUS
 62
     3
 10
24121.510449585141
 20
14225.48526199998
 30
0.0
 11
24121.510449585141
 21
19360.485262999999
 31
0.0
  0
LINE
  5
10E54
  8
2-0
  6
CONTINUOUS
 62
     3
 10
26612.005197585131
 20
14225.48526199998
 30
0.0
 11
26612.005197585131
 21
19360.485262999999
 31
0.0
  0
TEXT
  5
10E55
  8
2-0
  6
CONTINUOUS
 62
     7
 10
25047.35412058514
 20
13622.98809999998
 30
0.0
 40
160.0
  1
前柱（右）
 50
0.000213
 72
     4
 11
25463.35382317816
 21
13702.98964650077
 31
0.0
  0
TEXT
  5
10E56
  8
2-0
  6
CONTINUOUS
 62
     7
 10
25064.05333958516
 20
17951.610143999969
 30
0.0
 40
160.0
  1
補強柱 後
 50
359.99984199999989
 72
     4
 11
25474.720226859881
 21
18031.609011536959
 31
0.0
  0
TEXT
  5
10E57
  8
2-0
  6
CONTINUOUS
 62
     7
 10
25251.949243585139
 20
16200.98011599999
 30
0.0
 40
160.0
  1
壁パネル
 50
359.99982299999999
 72
     4
 11
25614.616157388689
 21
16280.978995637861
 31
0.0
  0
TEXT
  5
10E58
  8
2-0
  6
CONTINUOUS
 62
     7
 10
24971.946339585131
 20
17038.168011999991
 30
0.0
 40
160.0
  1
中柱（左右）
 50
0.000354
 72
     4
 11
25489.27917863135
 21
17118.171208324638
 31
0.0
  0
TEXT
  5
10E59
  8
2-0
  6
CONTINUOUS
 62
     7
 10
25651.948583585141
 20
14596.02936599997
 30
0.0
 40
160.0
  1
下枠
 50
0.001063
 72
     4
 11
25822.613765994429
 21
14676.032532339261
 31
0.0
  0
TEXT
  5
10E5A
  8
2-0
  6
CONTINUOUS
 62
     7
 10
25064.053339585109
 20
15033.850654999989
 30
0.0
 40
160.0
  1
補強柱 前
 50
359.99937
 72
     4
 11
25474.720885872899
 21
15113.846139479319
 31
0.0
  0
TEXT
  5
10E5B
  8
2-0
  6
CONTINUOUS
 62
     7
 10
25146.914007585161
 20
18641.43675049995
 30
0.0
 40
160.0
  1
間柱（側）
 72
     4
 11
25568.247340918489
 21
18721.43675049995
 31
0.0
  0
TEXT
  5
10E5C
  8
2-0
  6
CONTINUOUS
 62
     7
 10
27465.504326585131
 20
20170.484470999971
 30
0.0
 40
160.0
  1
後柱（左右）
 50
0.000354
 72
     4
 11
27977.50383229812
 21
20250.48763437281
 31
0.0
  0
LINE
  5
10E5D
  8
2-0
  6
CONTINUOUS
 62
     3
 10
25911.00939458514
 20
19360.485262999999
 30
0.0
 11
25874.008232585151
 21
19360.485262999999
 31
0.0
  0
LINE
  5
10E5E
  8
2-0
  6
CONTINUOUS
 62
     3
 10
25911.00939458514
 20
19330.481699999978
 30
0.0
 11
25911.00939458514
 21
19360.485262999999
 31
0.0
  0
LINE
  5
10E5F
  8
2-0
  6
CONTINUOUS
 62
     3
 10
25905.009473585131
 20
19330.481699999978
 30
0.0
 11
25911.00939458514
 21
19330.481699999978
 31
0.0
  0
LINE
  5
10E60
  8
2-0
  6
CONTINUOUS
 62
     3
 10
25921.106918585148
 20
19330.481699999978
 30
0.0
 11
25921.106918585148
 21
19360.485262999999
 31
0.0
  0
LINE
  5
10E61
  8
2-0
  6
CONTINUOUS
 62
     3
 10
25903.10319758514
 20
19330.481699999978
 30
0.0
 11
25921.106918585148
 21
19330.481699999978
 31
0.0
  0
LINE
  5
10E62
  8
2-0
  6
CONTINUOUS
 62
     3
 10
25903.10319758514
 20
19355.490936999991
 30
0.0
 11
25903.10319758514
 21
19330.481699999978
 31
0.0
  0
LINE
  5
10E63
  8
2-0
  6
CONTINUOUS
 62
     3
 10
25908.103461585139
 20
19355.490936999991
 30
0.0
 11
25903.10319758514
 21
19355.490936999991
 31
0.0
  0
LINE
  5
10E64
  8
2-0
  6
CONTINUOUS
 62
     3
 10
25908.103461585139
 20
19348.485420999979
 30
0.0
 11
25908.103461585139
 21
19355.490936999991
 31
0.0
  0
LINE
  5
10E65
  8
2-0
  6
CONTINUOUS
 62
     3
 10
25876.914166585131
 20
19348.485420999979
 30
0.0
 11
25876.914166585131
 21
19355.490936999991
 31
0.0
  0
LINE
  5
10E66
  8
2-0
  6
CONTINUOUS
 62
     3
 10
25876.914166585131
 20
19355.490936999991
 30
0.0
 11
25881.914430585151
 21
19355.490936999991
 31
0.0
  0
LINE
  5
10E67
  8
2-0
  6
CONTINUOUS
 62
     3
 10
25881.914430585151
 20
19355.490936999991
 30
0.0
 11
25881.914430585151
 21
19330.481699999978
 31
0.0
  0
LINE
  5
10E68
  8
2-0
  6
CONTINUOUS
 62
     3
 10
25881.914430585151
 20
19330.481699999978
 30
0.0
 11
25863.914667585152
 21
19330.481699999978
 31
0.0
  0
LINE
  5
10E69
  8
2-0
  6
CONTINUOUS
 62
     3
 10
25863.914667585152
 20
19330.481699999978
 30
0.0
 11
25863.914667585152
 21
19360.485262999999
 31
0.0
  0
LINE
  5
10E6A
  8
2-0
  6
CONTINUOUS
 62
     3
 10
25880.00815358515
 20
19330.481699999978
 30
0.0
 11
25874.008232585151
 21
19330.481699999978
 31
0.0
  0
LINE
  5
10E6B
  8
2-0
  6
CONTINUOUS
 62
     3
 10
25874.008232585151
 20
19330.481699999978
 30
0.0
 11
25874.008232585151
 21
19360.485262999999
 31
0.0
  0
LINE
  5
10E6C
  8
2-0
  6
CONTINUOUS
 62
     3
 10
25207.09851208514
 20
19348.485420999979
 30
0.0
 11
25207.09851208514
 21
19355.490936999991
 31
0.0
  0
LINE
  5
10E6D
  8
2-0
  6
CONTINUOUS
 62
     3
 10
25207.09851208514
 20
19355.490936999991
 30
0.0
 11
25202.098248085142
 21
19355.490936999991
 31
0.0
  0
LINE
  5
10E6E
  8
2-0
  6
CONTINUOUS
 62
     3
 10
25202.098248085142
 20
19355.490936999991
 30
0.0
 11
25202.098248085142
 21
19330.481699999978
 31
0.0
  0
LINE
  5
10E6F
  8
2-0
  6
CONTINUOUS
 62
     3
 10
25202.098248085142
 20
19330.481699999978
 30
0.0
 11
25220.103949085151
 21
19330.481699999978
 31
0.0
  0
LINE
  5
10E70
  8
2-0
  6
CONTINUOUS
 62
     3
 10
25220.103949085151
 20
19330.481699999978
 30
0.0
 11
25220.103949085151
 21
19360.485262999999
 31
0.0
  0
LINE
  5
10E71
  8
2-0
  6
CONTINUOUS
 62
     3
 10
25204.00650408513
 20
19330.481699999978
 30
0.0
 11
25210.00840408514
 21
19330.481699999978
 31
0.0
  0
LINE
  5
10E72
  8
2-0
  6
CONTINUOUS
 62
     3
 10
25210.00840408514
 20
19330.481699999978
 30
0.0
 11
25210.00840408514
 21
19360.485262999999
 31
0.0
  0
LINE
  5
10E73
  8
2-0
  6
CONTINUOUS
 62
     3
 10
25173.009223085141
 20
19360.485262999999
 30
0.0
 11
25210.00840408514
 21
19360.485262999999
 31
0.0
  0
LINE
  5
10E74
  8
2-0
  6
CONTINUOUS
 62
     3
 10
25173.009223085141
 20
19330.481699999978
 30
0.0
 11
25173.009223085141
 21
19360.485262999999
 31
0.0
  0
LINE
  5
10E75
  8
2-0
  6
CONTINUOUS
 62
     3
 10
25179.003205085141
 20
19330.481699999978
 30
0.0
 11
25173.009223085141
 21
19330.481699999978
 31
0.0
  0
LINE
  5
10E76
  8
2-0
  6
CONTINUOUS
 62
     3
 10
25162.913678085151
 20
19330.481699999978
 30
0.0
 11
25162.913678085151
 21
19360.485262999999
 31
0.0
  0
LINE
  5
10E77
  8
2-0
  6
CONTINUOUS
 62
     3
 10
25180.909481085138
 20
19330.481699999978
 30
0.0
 11
25162.913678085151
 21
19330.481699999978
 31
0.0
  0
LINE
  5
10E78
  8
2-0
  6
CONTINUOUS
 62
     3
 10
25180.909481085138
 20
19355.490936999991
 30
0.0
 11
25180.909481085138
 21
19330.481699999978
 31
0.0
  0
LINE
  5
10E79
  8
2-0
  6
CONTINUOUS
 62
     3
 10
25175.909217085151
 20
19355.490936999991
 30
0.0
 11
25180.909481085138
 21
19355.490936999991
 31
0.0
  0
LINE
  5
10E7A
  8
2-0
  6
CONTINUOUS
 62
     3
 10
25175.909217085151
 20
19348.485420999979
 30
0.0
 11
25175.909217085151
 21
19355.490936999991
 31
0.0
  0
LINE
  5
10E7B
  8
2-0
  6
CONTINUOUS
 62
     3
 10
25175.90822808514
 20
19348.485420999979
 30
0.0
 11
25175.90822808514
 21
19355.490936999991
 31
0.0
  0
LINE
  5
10E7C
  8
2-0
  6
CONTINUOUS
 62
     3
 10
25175.90822808514
 20
19355.490936999991
 30
0.0
 11
25180.908491085142
 21
19355.490936999991
 31
0.0
  0
LINE
  5
10E7D
  8
2-0
  6
CONTINUOUS
 62
     3
 10
25180.908491085142
 20
19355.490936999991
 30
0.0
 11
25180.908491085142
 21
19330.481699999978
 31
0.0
  0
LINE
  5
10E7E
  8
2-0
  6
CONTINUOUS
 62
     3
 10
25180.908491085142
 20
19330.481699999978
 30
0.0
 11
25162.914668085141
 21
19330.481699999978
 31
0.0
  0
LINE
  5
10E7F
  8
2-0
  6
CONTINUOUS
 62
     3
 10
25162.914668085141
 20
19330.481699999978
 30
0.0
 11
25162.914668085141
 21
19360.485262999999
 31
0.0
  0
LINE
  5
10E80
  8
2-0
  6
CONTINUOUS
 62
     3
 10
25179.00617408512
 20
19330.481699999978
 30
0.0
 11
25173.00823308514
 21
19330.481699999978
 31
0.0
  0
LINE
  5
10E81
  8
2-0
  6
CONTINUOUS
 62
     3
 10
25173.00823308514
 20
19330.481699999978
 30
0.0
 11
25173.00823308514
 21
19360.485262999999
 31
0.0
  0
LINE
  5
10E82
  8
2-0
  6
CONTINUOUS
 62
     3
 10
25210.00939408514
 20
19360.485262999999
 30
0.0
 11
25173.00823308514
 21
19360.485262999999
 31
0.0
  0
LINE
  5
10E83
  8
2-0
  6
CONTINUOUS
 62
     3
 10
25210.00939408514
 20
19330.481699999978
 30
0.0
 11
25210.00939408514
 21
19360.485262999999
 31
0.0
  0
LINE
  5
10E84
  8
2-0
  6
CONTINUOUS
 62
     3
 10
25204.00353508515
 20
19330.481699999978
 30
0.0
 11
25210.00939408514
 21
19330.481699999978
 31
0.0
  0
LINE
  5
10E85
  8
2-0
  6
CONTINUOUS
 62
     3
 10
25220.10295908515
 20
19330.481699999978
 30
0.0
 11
25220.10295908515
 21
19360.485262999999
 31
0.0
  0
LINE
  5
10E86
  8
2-0
  6
CONTINUOUS
 62
     3
 10
25202.107156085141
 20
19330.481699999978
 30
0.0
 11
25220.10295908515
 21
19330.481699999978
 31
0.0
  0
LINE
  5
10E87
  8
2-0
  6
CONTINUOUS
 62
     3
 10
25202.107156085141
 20
19355.490936999991
 30
0.0
 11
25202.107156085141
 21
19330.481699999978
 31
0.0
  0
LINE
  5
10E88
  8
2-0
  6
CONTINUOUS
 62
     3
 10
25207.09752208514
 20
19355.490936999991
 30
0.0
 11
25202.107156085141
 21
19355.490936999991
 31
0.0
  0
LINE
  5
10E89
  8
2-0
  6
CONTINUOUS
 62
     3
 10
25207.09752208514
 20
19348.485420999979
 30
0.0
 11
25207.09752208514
 21
19355.490936999991
 31
0.0
  0
LINE
  5
10E8A
  8
2-0
  6
CONTINUOUS
 62
     3
 10
25220.103949085151
 20
19360.485262999999
 30
0.0
 11
25162.914668085141
 21
19360.485262999999
 31
0.0
  0
LINE
  5
10E8B
  8
2-0
  6
CONTINUOUS
 62
     3
 10
24519.307839585159
 20
19360.485262999999
 30
0.0
 11
25162.913678085151
 21
19360.485262999999
 31
0.0
  0
LINE
  5
10E8C
  8
2-0
  6
CONTINUOUS
 62
     3
 10
26568.392443585151
 20
19360.485262999999
 30
0.0
 11
25921.106918585148
 21
19360.485262999999
 31
0.0
  0
LINE
  5
10E8D
  8
2-0
  6
CONTINUOUS
 62
     3
 10
25863.914667585152
 20
19360.485262999999
 30
0.0
 11
25220.10295908515
 21
19360.485262999999
 31
0.0
  0
LINE
  5
10E8E
  8
2-0
  6
CONTINUOUS
 62
     3
 10
24506.100491585152
 20
19348.485420999979
 30
0.0
 11
24506.100491585152
 21
19355.490936999991
 31
0.0
  0
LINE
  5
10E8F
  8
2-0
  6
CONTINUOUS
 62
     3
 10
24506.100491585152
 20
19355.490936999991
 30
0.0
 11
24501.100227585132
 21
19355.490936999991
 31
0.0
  0
LINE
  5
10E90
  8
2-0
  6
CONTINUOUS
 62
     3
 10
24501.100227585132
 20
19355.490936999991
 30
0.0
 11
24501.100227585132
 21
19330.481699999978
 31
0.0
  0
LINE
  5
10E91
  8
2-0
  6
CONTINUOUS
 62
     3
 10
24501.100227585132
 20
19330.481699999978
 30
0.0
 11
24519.101969585139
 21
19330.481699999978
 31
0.0
  0
LINE
  5
10E92
  8
2-0
  6
CONTINUOUS
 62
     3
 10
24519.101969585139
 20
19330.481699999978
 30
0.0
 11
24519.101969585139
 21
19360.485262999999
 31
0.0
  0
LINE
  5
10E93
  8
2-0
  6
CONTINUOUS
 62
     3
 10
24503.002544585161
 20
19330.481699999978
 30
0.0
 11
24509.006424585139
 21
19330.481699999978
 31
0.0
  0
LINE
  5
10E94
  8
2-0
  6
CONTINUOUS
 62
     3
 10
24509.006424585139
 20
19330.481699999978
 30
0.0
 11
24509.006424585139
 21
19360.485262999999
 31
0.0
  0
LINE
  5
10E95
  8
2-0
  6
CONTINUOUS
 62
     3
 10
24472.011202585141
 20
19360.485262999999
 30
0.0
 11
24509.006424585139
 21
19360.485262999999
 31
0.0
  0
LINE
  5
10E96
  8
2-0
  6
CONTINUOUS
 62
     3
 10
24472.011202585141
 20
19330.481699999978
 30
0.0
 11
24472.011202585141
 21
19360.485262999999
 31
0.0
  0
LINE
  5
10E97
  8
2-0
  6
CONTINUOUS
 62
     3
 10
24478.005184585141
 20
19330.481699999978
 30
0.0
 11
24472.011202585141
 21
19330.481699999978
 31
0.0
  0
LINE
  5
10E98
  8
2-0
  6
CONTINUOUS
 62
     3
 10
24461.915657585148
 20
19330.481699999978
 30
0.0
 11
24461.915657585148
 21
19360.485262999999
 31
0.0
  0
LINE
  5
10E99
  8
2-0
  6
CONTINUOUS
 62
     3
 10
24479.91146058515
 20
19330.481699999978
 30
0.0
 11
24461.915657585148
 21
19330.481699999978
 31
0.0
  0
LINE
  5
10E9A
  8
2-0
  6
CONTINUOUS
 62
     3
 10
24479.91146058515
 20
19355.490936999991
 30
0.0
 11
24479.91146058515
 21
19330.481699999978
 31
0.0
  0
LINE
  5
10E9B
  8
2-0
  6
CONTINUOUS
 62
     3
 10
24474.91317658516
 20
19355.490936999991
 30
0.0
 11
24479.91146058515
 21
19355.490936999991
 31
0.0
  0
LINE
  5
10E9C
  8
2-0
  6
CONTINUOUS
 62
     3
 10
24474.91317658516
 20
19348.485420999979
 30
0.0
 11
24474.91317658516
 21
19355.490936999991
 31
0.0
  0
LINE
  5
10E9D
  8
2-0
  6
CONTINUOUS
 62
     3
 10
24165.814055585131
 20
19360.485262999999
 30
0.0
 11
24461.915657585148
 21
19360.485262999999
 31
0.0
  0
LINE
  5
10E9E
  8
2-0
  6
CONTINUOUS
 62
     3
 10
26693.007097585149
 20
15263.12641499999
 30
0.0
 11
26693.007097585149
 21
14619.087556999981
 31
0.0
  0
LINE
  5
10E9F
  8
2-0
  6
CONTINUOUS
 62
     3
 10
26693.007097585149
 20
14561.891346999981
 30
0.0
 11
26693.007097585149
 21
14265.52498499998
 31
0.0
  0
LINE
  5
10EA0
  8
0-6
  6
CONTINUOUS
 62
     6
 10
24301.490827667902
 20
18961.033879465231
 30
0.0
 11
25326.5310776679
 21
18961.033879465231
 31
0.0
  0
TEXT
  5
10EA1
  8
0-6
  6
CONTINUOUS
 62
     7
 10
24381.4910916679
 20
19041.03612346523
 30
0.0
 40
160.0
  1
間柱（後）
 72
     4
 11
24802.824425001229
 21
19121.03612346523
 31
0.0
  0
LINE
  5
10EA2
  8
SUNPOU
  6
CONTINUOUS
 62
     4
 10
26773.007097585149
 20
14590.607233749981
 30
0.0
 11
27823.008417585152
 21
14590.607233749981
 31
0.0
  0
LINE
  5
10EA3
  8
SUNPOU
  6
CONTINUOUS
 62
     4
 10
27623.008417585152
 20
14183.107233749981
 30
0.0
 11
27823.008417585152
 21
14183.107233749981
 31
0.0
  0
LINE
  5
10EA4
  8
SUNPOU
  6
CONTINUOUS
 62
     4
 10
27743.008417585152
 20
14590.607233749981
 30
0.0
 11
27743.008417585152
 21
14183.107233749981
 31
0.0
  0
LINE
  5
10EA5
  8
SUNPOU
  6
CONTINUOUS
 62
     4
 10
26773.007097585149
 20
18910.486977999972
 30
0.0
 11
27823.008417585152
 21
18910.486977999972
 31
0.0
  0
LINE
  5
10EA6
  8
SUNPOU
  6
CONTINUOUS
 62
     4
 10
27623.008417585152
 20
19317.986977999972
 30
0.0
 11
27823.008417585152
 21
19317.986977999972
 31
0.0
  0
LINE
  5
10EA7
  8
SUNPOU
  6
CONTINUOUS
 62
     4
 10
27743.008417585152
 20
18910.486977999972
 30
0.0
 11
27743.008417585152
 21
19317.986977999972
 31
0.0
  0
LINE
  5
10EA8
  8
SUNPOU
  6
CONTINUOUS
 62
     4
 10
24083.00881358514
 20
13477.223543999969
 30
0.0
 11
24083.00881358514
 21
13131.538893999979
 31
0.0
  0
LINE
  5
10EA9
  8
SUNPOU
  6
CONTINUOUS
 62
     4
 10
24040.506570585148
 20
14060.489682999971
 30
0.0
 11
24040.506570585148
 21
13131.538893999979
 31
0.0
  0
LINE
  5
10EAA
  8
SUNPOU
  6
CONTINUOUS
 62
     4
 10
24083.00881358514
 20
13211.538893999979
 30
0.0
 11
24323.00881358514
 21
13211.538893999979
 31
0.0
  0
LINE
  5
10EAB
  8
SUNPOU
  6
CONTINUOUS
 62
     4
 10
24040.506570585148
 20
13211.538893999979
 30
0.0
 11
23800.506570585148
 21
13211.538893999979
 31
0.0
  0
LINE
  5
10EAC
  8
SUNPOU
  6
CONTINUOUS
 62
     4
 10
24083.00881358514
 20
13211.538893999979
 30
0.0
 11
24040.506570585148
 21
13211.538893999979
 31
0.0
  0
LINE
  5
10EAD
  8
SUNPOU
  6
CONTINUOUS
 62
     4
 10
26650.508813585151
 20
13477.223543999969
 30
0.0
 11
26650.508813585151
 21
13131.538893999979
 31
0.0
  0
LINE
  5
10EAE
  8
SUNPOU
  6
CONTINUOUS
 62
     4
 10
26693.011056585139
 20
14060.489682999971
 30
0.0
 11
26693.011056585139
 21
13131.538893999979
 31
0.0
  0
LINE
  5
10EAF
  8
SUNPOU
  6
CONTINUOUS
 62
     4
 10
26650.508813585151
 20
13211.538893999979
 30
0.0
 11
26410.508813585151
 21
13211.538893999979
 31
0.0
  0
LINE
  5
10EB0
  8
SUNPOU
  6
CONTINUOUS
 62
     4
 10
26693.011056585139
 20
13211.538893999979
 30
0.0
 11
26933.011056585139
 21
13211.538893999979
 31
0.0
  0
LINE
  5
10EB1
  8
SUNPOU
  6
CONTINUOUS
 62
     4
 10
26650.508813585151
 20
13211.538893999979
 30
0.0
 11
26693.011056585139
 21
13211.538893999979
 31
0.0
  0
LINE
  5
10EB2
  8
SUNPOU
  6
CONTINUOUS
 62
     4
 10
26650.508813585151
 20
14182.986977999981
 30
0.0
 11
26650.508813585151
 21
13131.538893999979
 31
0.0
  0
LINE
  5
10EB3
  8
SUNPOU
  6
CONTINUOUS
 62
     4
 10
26608.006570585141
 20
14060.489682999971
 30
0.0
 11
26608.006570585141
 21
13131.538893999979
 31
0.0
  0
LINE
  5
10EB4
  8
SUNPOU
  6
CONTINUOUS
 62
     4
 10
26650.508813585151
 20
13211.538893999979
 30
0.0
 11
26890.508813585151
 21
13211.538893999979
 31
0.0
  0
LINE
  5
10EB5
  8
SUNPOU
  6
CONTINUOUS
 62
     4
 10
26608.006570585141
 20
13211.538893999979
 30
0.0
 11
26368.006570585141
 21
13211.538893999979
 31
0.0
  0
LINE
  5
10EB6
  8
SUNPOU
  6
CONTINUOUS
 62
     4
 10
26650.508813585151
 20
13211.538893999979
 30
0.0
 11
26608.006570585141
 21
13211.538893999979
 31
0.0
  0
LINE
  5
10EB7
  8
SUNPOU
  6
CONTINUOUS
 62
     4
 10
24083.008813585151
 20
14182.986977999981
 30
0.0
 11
24083.00881358514
 21
13131.538893999979
 31
0.0
  0
LINE
  5
10EB8
  8
SUNPOU
  6
CONTINUOUS
 62
     4
 10
24125.511056585139
 20
14060.489682999971
 30
0.0
 11
24125.511056585139
 21
13131.538893999979
 31
0.0
  0
LINE
  5
10EB9
  8
SUNPOU
  6
CONTINUOUS
 62
     4
 10
24083.00881358514
 20
13211.538893999979
 30
0.0
 11
23843.008813585151
 21
13211.538893999979
 31
0.0
  0
LINE
  5
10EBA
  8
SUNPOU
  6
CONTINUOUS
 62
     4
 10
24125.511056585139
 20
13211.538893999979
 30
0.0
 11
24365.511056585139
 21
13211.538893999979
 31
0.0
  0
LINE
  5
10EBB
  8
SUNPOU
  6
CONTINUOUS
 62
     4
 10
24083.00881358514
 20
13211.538893999979
 30
0.0
 11
24125.511056585139
 21
13211.538893999979
 31
0.0
  0
LINE
  5
10EBC
  8
SUNPOU
  6
CONTINUOUS
 62
     4
 10
24040.506570585148
 20
14060.489682999971
 30
0.0
 11
24040.506570585148
 21
12731.538893999979
 31
0.0
  0
LINE
  5
10EBD
  8
SUNPOU
  6
CONTINUOUS
 62
     4
 10
26693.011056585139
 20
14060.489682999971
 30
0.0
 11
26693.011056585139
 21
12731.538893999979
 31
0.0
  0
LINE
  5
10EBE
  8
SUNPOU
  6
CONTINUOUS
 62
     4
 10
24040.506570585148
 20
12811.538893999979
 30
0.0
 11
26693.011056585139
 21
12811.538893999979
 31
0.0
  0
LINE
  5
10EBF
  8
SUNPOU
  6
CONTINUOUS
 62
     4
 10
26773.007097585149
 20
15291.727489499999
 30
0.0
 11
27823.008417585152
 21
15291.727489499999
 31
0.0
  0
LINE
  5
10EC0
  8
SUNPOU
  6
CONTINUOUS
 62
     4
 10
26773.007097585149
 20
14590.48697799997
 30
0.0
 11
27823.008417585152
 21
14590.48697799997
 31
0.0
  0
LINE
  5
10EC1
  8
SUNPOU
  6
CONTINUOUS
 62
     4
 10
27743.008417585152
 20
15291.727489499999
 30
0.0
 11
27743.008417585152
 21
14590.48697799997
 31
0.0
  0
LINE
  5
10EC2
  8
SUNPOU
  6
CONTINUOUS
 62
     4
 10
26773.007097585149
 20
15992.486977999981
 30
0.0
 11
27823.008417585152
 21
15992.486977999981
 31
0.0
  0
LINE
  5
10EC3
  8
SUNPOU
  6
CONTINUOUS
 62
     4
 10
26773.007097585149
 20
15291.727489499999
 30
0.0
 11
27823.008417585152
 21
15291.727489499999
 31
0.0
  0
LINE
  5
10EC4
  8
SUNPOU
  6
CONTINUOUS
 62
     4
 10
27743.008417585152
 20
15992.486977999981
 30
0.0
 11
27743.008417585152
 21
15291.727489499999
 31
0.0
  0
LINE
  5
10EC5
  8
SUNPOU
  6
CONTINUOUS
 62
     4
 10
27623.008417585152
 20
16750.486977999972
 30
0.0
 11
27823.008417585152
 21
16750.486977999972
 31
0.0
  0
LINE
  5
10EC6
  8
SUNPOU
  6
CONTINUOUS
 62
     4
 10
26773.007097585149
 20
15992.486977999981
 30
0.0
 11
27823.008417585152
 21
15992.486977999981
 31
0.0
  0
LINE
  5
10EC7
  8
SUNPOU
  6
CONTINUOUS
 62
     4
 10
27743.008417585152
 20
16750.486977999972
 30
0.0
 11
27743.008417585152
 21
15992.486977999981
 31
0.0
  0
LINE
  5
10EC8
  8
SUNPOU
  6
CONTINUOUS
 62
     4
 10
26773.007097585149
 20
17508.48697799995
 30
0.0
 11
27823.008417585152
 21
17508.48697799995
 31
0.0
  0
LINE
  5
10EC9
  8
SUNPOU
  6
CONTINUOUS
 62
     4
 10
27623.008417585152
 20
16750.486977999972
 30
0.0
 11
27823.008417585152
 21
16750.486977999972
 31
0.0
  0
LINE
  5
10ECA
  8
SUNPOU
  6
CONTINUOUS
 62
     4
 10
27743.008417585152
 20
17508.48697799995
 30
0.0
 11
27743.008417585152
 21
16750.486977999972
 31
0.0
  0
LINE
  5
10ECB
  8
SUNPOU
  6
CONTINUOUS
 62
     4
 10
26773.007097585149
 20
18209.486977999961
 30
0.0
 11
27823.008417585152
 21
18209.486977999961
 31
0.0
  0
LINE
  5
10ECC
  8
SUNPOU
  6
CONTINUOUS
 62
     4
 10
26773.007097585149
 20
17508.48697799995
 30
0.0
 11
27823.008417585152
 21
17508.48697799995
 31
0.0
  0
LINE
  5
10ECD
  8
SUNPOU
  6
CONTINUOUS
 62
     4
 10
27743.008417585152
 20
18209.486977999961
 30
0.0
 11
27743.008417585152
 21
17508.48697799995
 31
0.0
  0
LINE
  5
10ECE
  8
SUNPOU
  6
CONTINUOUS
 62
     4
 10
26773.007097585149
 20
18910.486977999972
 30
0.0
 11
27823.008417585152
 21
18910.486977999972
 31
0.0
  0
LINE
  5
10ECF
  8
SUNPOU
  6
CONTINUOUS
 62
     4
 10
26773.007097585149
 20
18209.486977999961
 30
0.0
 11
27823.008417585152
 21
18209.486977999961
 31
0.0
  0
LINE
  5
10ED0
  8
SUNPOU
  6
CONTINUOUS
 62
     4
 10
27743.008417585152
 20
18910.486977999972
 30
0.0
 11
27743.008417585152
 21
18209.486977999961
 31
0.0
  0
LINE
  5
10ED1
  8
SUNPOU
  6
CONTINUOUS
 62
     4
 10
27623.008417585152
 20
19317.986977999972
 30
0.0
 11
27823.008417585152
 21
19317.986977999972
 31
0.0
  0
LINE
  5
10ED2
  8
SUNPOU
  6
CONTINUOUS
 62
     4
 10
27623.008417585152
 20
14182.986977999981
 30
0.0
 11
27823.008417585152
 21
14182.986977999981
 31
0.0
  0
LINE
  5
10ED3
  8
SUNPOU
  6
CONTINUOUS
 62
     4
 10
26773.007097585149
 20
19360.48427299998
 30
0.0
 11
28623.008417585152
 21
19360.48427299998
 31
0.0
  0
LINE
  5
10ED4
  8
SUNPOU
  6
CONTINUOUS
 62
     4
 10
26773.007097585149
 20
14140.489682999971
 30
0.0
 11
28623.008417585152
 21
14140.489682999971
 31
0.0
  0
LINE
  5
10ED5
  8
SUNPOU
  6
CONTINUOUS
 62
     4
 10
28543.008417585152
 20
19360.48427299998
 30
0.0
 11
28543.008417585152
 21
14140.489682999971
 31
0.0
  0
LINE
  5
10ED6
  8
SUNPOU
  6
CONTINUOUS
 62
     4
 10
27623.008417585152
 20
19317.986977999972
 30
0.0
 11
27823.008417585152
 21
19317.986977999972
 31
0.0
  0
LINE
  5
10ED7
  8
SUNPOU
  6
CONTINUOUS
 62
     4
 10
26773.007097585149
 20
19360.48427299998
 30
0.0
 11
27823.008417585152
 21
19360.48427299998
 31
0.0
  0
LINE
  5
10ED8
  8
SUNPOU
  6
CONTINUOUS
 62
     4
 10
27743.008417585152
 20
19317.986977999972
 30
0.0
 11
27743.008417585152
 21
19077.986977999972
 31
0.0
  0
LINE
  5
10ED9
  8
SUNPOU
  6
CONTINUOUS
 62
     4
 10
27743.008417585152
 20
19317.986977999972
 30
0.0
 11
27743.008417585152
 21
20025.166615765971
 31
0.0
  0
LINE
  5
10EDA
  8
SUNPOU
  6
CONTINUOUS
 62
     4
 10
28143.008417585152
 20
19317.986977999972
 30
0.0
 11
28143.008417585152
 21
20025.166615765971
 31
0.0
  0
LINE
  5
10EDB
  8
SUNPOU
  6
CONTINUOUS
 62
     4
 10
27623.008417585152
 20
14182.986977999981
 30
0.0
 11
27823.008417585152
 21
14182.986977999981
 31
0.0
  0
LINE
  5
10EDC
  8
SUNPOU
  6
CONTINUOUS
 62
     4
 10
26773.007097585149
 20
14140.489682999971
 30
0.0
 11
27823.008417585152
 21
14140.489682999971
 31
0.0
  0
LINE
  5
10EDD
  8
SUNPOU
  6
CONTINUOUS
 62
     4
 10
27743.008417585152
 20
14182.986977999981
 30
0.0
 11
27743.008417585152
 21
14422.986977999981
 31
0.0
  0
LINE
  5
10EDE
  8
SUNPOU
  6
CONTINUOUS
 62
     4
 10
28143.008417585152
 20
14140.489682999971
 30
0.0
 11
28143.008417585152
 21
13900.489682999971
 31
0.0
  0
LINE
  5
10EDF
  8
SUNPOU
  6
CONTINUOUS
 62
     4
 10
27743.008417585152
 20
14182.986977999981
 30
0.0
 11
27743.008417585152
 21
13396.54983392869
 31
0.0
  0
LINE
  5
10EE0
  8
SUNPOU
  6
CONTINUOUS
 62
     4
 10
28143.008417585152
 20
14182.986977999981
 30
0.0
 11
28143.008417585152
 21
13396.54983392869
 31
0.0
  0
TEXT
  5
10EE1
  8
0
  6
CONTINUOUS
 62
     7
 10
28063.008417585152
 20
13566.93344660318
 30
0.0
 40
160.0
  1
42.5
 50
90.0
  0
TEXT
  5
10EE2
  8
0
  6
CONTINUOUS
 62
     7
 10
28063.008417585152
 20
19454.04050939676
 30
0.0
 40
160.0
  1
42.5
 50
90.0
  0
TEXT
  5
10EE3
  8
0
  6
CONTINUOUS
 62
     7
 10
28463.008417585152
 20
16470.486977999979
 30
0.0
 40
160.0
  1
5220
 50
90.0
  0
TEXT
  5
10EE4
  8
0
  6
CONTINUOUS
 62
     7
 10
27663.00841758513
 20
18386.653644666651
 30
0.0
 40
160.0
  1
701
 50
90.0
  0
TEXT
  5
10EE5
  8
0
  6
CONTINUOUS
 62
     7
 10
27663.00841758513
 20
17685.653644666651
 30
0.0
 40
160.0
  1
701
 50
90.0
  0
TEXT
  5
10EE6
  8
0
  6
CONTINUOUS
 62
     7
 10
27663.00841758513
 20
16916.153644666651
 30
0.0
 40
160.0
  1
758
 50
90.0
  0
TEXT
  5
10EE7
  8
0
  6
CONTINUOUS
 62
     7
 10
27663.00841758513
 20
16158.153644666651
 30
0.0
 40
160.0
  1
758
 50
90.0
  0
TEXT
  5
10EE8
  8
0
  6
CONTINUOUS
 62
     7
 10
27663.00841758513
 20
15468.773900416651
 30
0.0
 40
160.0
  1
701
 50
90.0
  0
TEXT
  5
10EE9
  8
0
  6
CONTINUOUS
 62
     7
 10
27663.00841758513
 20
14767.773900416651
 30
0.0
 40
160.0
  1
701
 50
90.0
  0
TEXT
  5
10EEA
  8
0
  6
CONTINUOUS
 62
     7
 10
24966.75881358514
 20
12891.538893999979
 30
0.0
 40
160.0
  1
2652.5
  0
TEXT
  5
10EEB
  8
0
  6
CONTINUOUS
 62
     7
 10
24201.062485967232
 20
13291.538893999979
 30
0.0
 40
160.0
  1
42.5
  0
TEXT
  5
10EEC
  8
0
  6
CONTINUOUS
 62
     7
 10
26052.45514120306
 20
13291.538893999979
 30
0.0
 40
160.0
  1
42.5
  0
TEXT
  5
10EED
  8
0
  6
CONTINUOUS
 62
     7
 10
26768.562485967232
 20
13291.538893999979
 30
0.0
 40
160.0
  1
42.5
  0
TEXT
  5
10EEE
  8
0
  6
CONTINUOUS
 62
     7
 10
23484.955141203049
 20
13291.538893999979
 30
0.0
 40
160.0
  1
42.5
  0
TEXT
  5
10EEF
  8
0
  6
CONTINUOUS
 62
     7
 10
27623.008417585159
 20
19397.077677939349
 30
0.0
 40
160.0
  1
407.5
 50
90.0
  0
TEXT
  5
10EF0
  8
0
  6
CONTINUOUS
 62
     7
 10
27623.008417585159
 20
13449.859857171259
 30
0.0
 40
160.0
  1
407.5
 50
90.0
  0
ARC
  5
10EF1
  8
0
  6
BYBLOCK
 62
     0
 10
27743.008417585152
 20
14590.607233749981
 30
0.0
 40
15.0
 50
270.0
 51
90.0
  0
ARC
  5
10EF2
  8
0
  6
BYBLOCK
 62
     0
 10
27743.008417585152
 20
14590.607233749981
 30
0.0
 40
15.0
 50
90.0
 51
270.0
  0
ARC
  5
10EF3
  8
0
  6
BYBLOCK
 62
     0
 10
27743.008417585152
 20
14183.107233749981
 30
0.0
 40
15.0
 50
90.0
 51
270.0
  0
ARC
  5
10EF4
  8
0
  6
BYBLOCK
 62
     0
 10
27743.008417585152
 20
14183.107233749981
 30
0.0
 40
15.0
 50
270.0
 51
90.0
  0
ARC
  5
10EF5
  8
0
  6
BYBLOCK
 62
     0
 10
27743.008417585152
 20
18910.486977999972
 30
0.0
 40
15.0
 50
90.0
 51
270.0
  0
ARC
  5
10EF6
  8
0
  6
BYBLOCK
 62
     0
 10
27743.008417585152
 20
18910.486977999972
 30
0.0
 40
15.0
 50
270.0
 51
90.0
  0
ARC
  5
10EF7
  8
0
  6
BYBLOCK
 62
     0
 10
27743.008417585152
 20
19317.986977999972
 30
0.0
 40
15.0
 50
270.0
 51
90.0
  0
ARC
  5
10EF8
  8
0
  6
BYBLOCK
 62
     0
 10
27743.008417585152
 20
19317.986977999972
 30
0.0
 40
15.0
 50
90.0
 51
270.0
  0
ARC
  5
10EF9
  8
0
  6
BYBLOCK
 62
     0
 10
24083.00881358514
 20
13211.538893999979
 30
0.0
 40
15.0
 50
0.0
 51
180.0
  0
ARC
  5
10EFA
  8
0
  6
BYBLOCK
 62
     0
 10
24083.00881358514
 20
13211.538893999979
 30
0.0
 40
15.0
 50
180.0
 51
0.0
  0
ARC
  5
10EFB
  8
0
  6
BYBLOCK
 62
     0
 10
24040.506570585148
 20
13211.538893999979
 30
0.0
 40
15.0
 50
180.0
 51
0.0
  0
ARC
  5
10EFC
  8
0
  6
BYBLOCK
 62
     0
 10
24040.506570585148
 20
13211.538893999979
 30
0.0
 40
15.0
 50
0.0
 51
180.0
  0
ARC
  5
10EFD
  8
0
  6
BYBLOCK
 62
     0
 10
26650.508813585151
 20
13211.538893999979
 30
0.0
 40
15.0
 50
180.0
 51
0.0
  0
ARC
  5
10EFE
  8
0
  6
BYBLOCK
 62
     0
 10
26650.508813585151
 20
13211.538893999979
 30
0.0
 40
15.0
 50
0.0
 51
180.0
  0
ARC
  5
10EFF
  8
0
  6
BYBLOCK
 62
     0
 10
26693.011056585139
 20
13211.538893999979
 30
0.0
 40
15.0
 50
0.0
 51
180.0
  0
ARC
  5
10F00
  8
0
  6
BYBLOCK
 62
     0
 10
26693.011056585139
 20
13211.538893999979
 30
0.0
 40
15.0
 50
180.0
 51
0.0
  0
ARC
  5
10F01
  8
0
  6
BYBLOCK
 62
     0
 10
26650.508813585151
 20
13211.538893999979
 30
0.0
 40
15.0
 50
0.0
 51
180.0
  0
ARC
  5
10F02
  8
0
  6
BYBLOCK
 62
     0
 10
26650.508813585151
 20
13211.538893999979
 30
0.0
 40
15.0
 50
180.0
 51
0.0
  0
ARC
  5
10F03
  8
0
  6
BYBLOCK
 62
     0
 10
26608.006570585141
 20
13211.538893999979
 30
0.0
 40
15.0
 50
180.0
 51
0.0
  0
ARC
  5
10F04
  8
0
  6
BYBLOCK
 62
     0
 10
26608.006570585141
 20
13211.538893999979
 30
0.0
 40
15.0
 50
0.0
 51
180.0
  0
ARC
  5
10F05
  8
0
  6
BYBLOCK
 62
     0
 10
24083.00881358514
 20
13211.538893999979
 30
0.0
 40
15.0
 50
180.0
 51
0.0
  0
ARC
  5
10F06
  8
0
  6
BYBLOCK
 62
     0
 10
24083.00881358514
 20
13211.538893999979
 30
0.0
 40
15.0
 50
0.0
 51
180.0
  0
ARC
  5
10F07
  8
0
  6
BYBLOCK
 62
     0
 10
24125.511056585139
 20
13211.538893999979
 30
0.0
 40
15.0
 50
0.0
 51
180.0
  0
ARC
  5
10F08
  8
0
  6
BYBLOCK
 62
     0
 10
24125.511056585139
 20
13211.538893999979
 30
0.0
 40
15.0
 50
180.0
 51
0.0
  0
ARC
  5
10F09
  8
0
  6
BYBLOCK
 62
     0
 10
24040.506570585148
 20
12811.538893999979
 30
0.0
 40
15.0
 50
0.0
 51
180.0
  0
ARC
  5
10F0A
  8
0
  6
BYBLOCK
 62
     0
 10
24040.506570585148
 20
12811.538893999979
 30
0.0
 40
15.0
 50
180.0
 51
0.0
  0
ARC
  5
10F0B
  8
0
  6
BYBLOCK
 62
     0
 10
26693.011056585139
 20
12811.538893999979
 30
0.0
 40
15.0
 50
180.0
 51
0.0
  0
ARC
  5
10F0C
  8
0
  6
BYBLOCK
 62
     0
 10
26693.011056585139
 20
12811.538893999979
 30
0.0
 40
15.0
 50
0.0
 51
180.0
  0
ARC
  5
10F0D
  8
0
  6
BYBLOCK
 62
     0
 10
27743.008417585152
 20
15291.727489499999
 30
0.0
 40
15.0
 50
270.0
 51
90.0
  0
ARC
  5
10F0E
  8
0
  6
BYBLOCK
 62
     0
 10
27743.008417585152
 20
15291.727489499999
 30
0.0
 40
15.0
 50
90.0
 51
270.0
  0
ARC
  5
10F0F
  8
0
  6
BYBLOCK
 62
     0
 10
27743.008417585152
 20
14590.48697799997
 30
0.0
 40
15.0
 50
90.0
 51
270.0
  0
ARC
  5
10F10
  8
0
  6
BYBLOCK
 62
     0
 10
27743.008417585152
 20
14590.48697799997
 30
0.0
 40
15.0
 50
270.0
 51
90.0
  0
ARC
  5
10F11
  8
0
  6
BYBLOCK
 62
     0
 10
27743.008417585152
 20
15992.486977999981
 30
0.0
 40
15.0
 50
270.0
 51
90.0
  0
ARC
  5
10F12
  8
0
  6
BYBLOCK
 62
     0
 10
27743.008417585152
 20
15992.486977999981
 30
0.0
 40
15.0
 50
90.0
 51
270.0
  0
ARC
  5
10F13
  8
0
  6
BYBLOCK
 62
     0
 10
27743.008417585152
 20
15291.727489499999
 30
0.0
 40
15.0
 50
90.0
 51
270.0
  0
ARC
  5
10F14
  8
0
  6
BYBLOCK
 62
     0
 10
27743.008417585152
 20
15291.727489499999
 30
0.0
 40
15.0
 50
270.0
 51
90.0
  0
ARC
  5
10F15
  8
0
  6
BYBLOCK
 62
     0
 10
27743.008417585152
 20
16750.486977999972
 30
0.0
 40
15.0
 50
270.0
 51
90.0
  0
ARC
  5
10F16
  8
0
  6
BYBLOCK
 62
     0
 10
27743.008417585152
 20
16750.486977999972
 30
0.0
 40
15.0
 50
90.0
 51
270.0
  0
ARC
  5
10F17
  8
0
  6
BYBLOCK
 62
     0
 10
27743.008417585152
 20
15992.486977999981
 30
0.0
 40
15.0
 50
90.0
 51
270.0
  0
ARC
  5
10F18
  8
0
  6
BYBLOCK
 62
     0
 10
27743.008417585152
 20
15992.486977999981
 30
0.0
 40
15.0
 50
270.0
 51
90.0
  0
ARC
  5
10F19
  8
0
  6
BYBLOCK
 62
     0
 10
27743.008417585152
 20
17508.48697799995
 30
0.0
 40
15.0
 50
270.0
 51
90.0
  0
ARC
  5
10F1A
  8
0
  6
BYBLOCK
 62
     0
 10
27743.008417585152
 20
17508.48697799995
 30
0.0
 40
15.0
 50
90.0
 51
270.0
  0
ARC
  5
10F1B
  8
0
  6
BYBLOCK
 62
     0
 10
27743.008417585152
 20
16750.486977999972
 30
0.0
 40
15.0
 50
90.0
 51
270.0
  0
ARC
  5
10F1C
  8
0
  6
BYBLOCK
 62
     0
 10
27743.008417585152
 20
16750.486977999972
 30
0.0
 40
15.0
 50
270.0
 51
90.0
  0
ARC
  5
10F1D
  8
0
  6
BYBLOCK
 62
     0
 10
27743.008417585152
 20
18209.486977999961
 30
0.0
 40
15.0
 50
270.0
 51
90.0
  0
ARC
  5
10F1E
  8
0
  6
BYBLOCK
 62
     0
 10
27743.008417585152
 20
18209.486977999961
 30
0.0
 40
15.0
 50
90.0
 51
270.0
  0
ARC
  5
10F1F
  8
0
  6
BYBLOCK
 62
     0
 10
27743.008417585152
 20
17508.48697799995
 30
0.0
 40
15.0
 50
90.0
 51
270.0
  0
ARC
  5
10F20
  8
0
  6
BYBLOCK
 62
     0
 10
27743.008417585152
 20
17508.48697799995
 30
0.0
 40
15.0
 50
270.0
 51
90.0
  0
ARC
  5
10F21
  8
0
  6
BYBLOCK
 62
     0
 10
27743.008417585152
 20
18910.486977999972
 30
0.0
 40
15.0
 50
270.0
 51
90.0
  0
ARC
  5
10F22
  8
0
  6
BYBLOCK
 62
     0
 10
27743.008417585152
 20
18910.486977999972
 30
0.0
 40
15.0
 50
90.0
 51
270.0
  0
ARC
  5
10F23
  8
0
  6
BYBLOCK
 62
     0
 10
27743.008417585152
 20
18209.486977999961
 30
0.0
 40
15.0
 50
90.0
 51
270.0
  0
ARC
  5
10F24
  8
0
  6
BYBLOCK
 62
     0
 10
27743.008417585152
 20
18209.486977999961
 30
0.0
 40
15.0
 50
270.0
 51
90.0
  0
ARC
  5
10F25
  8
0
  6
BYBLOCK
 62
     0
 10
27743.008417585152
 20
19317.986977999972
 30
0.0
 40
15.0
 50
270.0
 51
90.0
  0
ARC
  5
10F26
  8
0
  6
BYBLOCK
 62
     0
 10
27743.008417585152
 20
19317.986977999972
 30
0.0
 40
15.0
 50
90.0
 51
270.0
  0
ARC
  5
10F27
  8
0
  6
BYBLOCK
 62
     0
 10
27743.008417585152
 20
14182.986977999981
 30
0.0
 40
15.0
 50
90.0
 51
270.0
  0
ARC
  5
10F28
  8
0
  6
BYBLOCK
 62
     0
 10
27743.008417585152
 20
14182.986977999981
 30
0.0
 40
15.0
 50
270.0
 51
90.0
  0
ARC
  5
10F29
  8
0
  6
BYBLOCK
 62
     0
 10
28543.008417585152
 20
19360.48427299998
 30
0.0
 40
15.0
 50
270.0
 51
90.0
  0
ARC
  5
10F2A
  8
0
  6
BYBLOCK
 62
     0
 10
28543.008417585152
 20
19360.48427299998
 30
0.0
 40
15.0
 50
90.0
 51
270.0
  0
ARC
  5
10F2B
  8
0
  6
BYBLOCK
 62
     0
 10
28543.008417585152
 20
14140.489682999971
 30
0.0
 40
15.0
 50
90.0
 51
270.0
  0
ARC
  5
10F2C
  8
0
  6
BYBLOCK
 62
     0
 10
28543.008417585152
 20
14140.489682999971
 30
0.0
 40
15.0
 50
270.0
 51
90.0
  0
ARC
  5
10F2D
  8
0
  6
BYBLOCK
 62
     0
 10
27743.008417585152
 20
19317.986977999972
 30
0.0
 40
15.0
 50
270.0
 51
90.0
  0
ARC
  5
10F2E
  8
0
  6
BYBLOCK
 62
     0
 10
27743.008417585152
 20
19317.986977999972
 30
0.0
 40
15.0
 50
90.0
 51
270.0
  0
ARC
  5
10F2F
  8
0
  6
BYBLOCK
 62
     0
 10
28143.008417585152
 20
19360.48427299998
 30
0.0
 40
15.0
 50
90.0
 51
270.0
  0
ARC
  5
10F30
  8
0
  6
BYBLOCK
 62
     0
 10
28143.008417585152
 20
19360.48427299998
 30
0.0
 40
15.0
 50
270.0
 51
90.0
  0
ARC
  5
10F31
  8
0
  6
BYBLOCK
 62
     0
 10
27743.008417585152
 20
14182.986977999981
 30
0.0
 40
15.0
 50
90.0
 51
270.0
  0
ARC
  5
10F32
  8
0
  6
BYBLOCK
 62
     0
 10
27743.008417585152
 20
14182.986977999981
 30
0.0
 40
15.0
 50
270.0
 51
90.0
  0
ARC
  5
10F33
  8
0
  6
BYBLOCK
 62
     0
 10
28143.008417585152
 20
14140.489682999971
 30
0.0
 40
15.0
 50
270.0
 51
90.0
  0
ARC
  5
10F34
  8
0
  6
BYBLOCK
 62
     0
 10
28143.008417585152
 20
14140.489682999971
 30
0.0
 40
15.0
 50
90.0
 51
270.0
  0
LINE
  5
10F35
  8
2-0
  6
CONTINUOUS
 62
     6
 10
25732.06927221626
 20
19239.832368613112
 30
0.0
 11
25324.303406990141
 21
18959.502405420051
 31
0.0
  0
LINE
  5
10F36
  8
2-0
  6
CONTINUOUS
 62
     6
 10
25716.954746416352
 20
19261.810333972371
 30
0.0
 11
25863.914667585152
 21
19330.481699999978
 31
0.0
  0
LINE
  5
10F37
  8
2-0
  6
CONTINUOUS
 62
     6
 10
25863.914667585152
 20
19330.481699999978
 30
0.0
 11
25747.175372468992
 21
19217.85959982144
 31
0.0
  0
LINE
  5
10F38
  8
2-0
  6
CONTINUOUS
 62
     6
 10
25716.954746416352
 20
19261.810333972371
 30
0.0
 11
25747.175372468992
 21
19217.85959982144
 31
0.0
  0
LINE
  5
10F39
  8
2-0
  6
CONTINUOUS
 62
     6
 10
25747.175372468992
 20
19217.85959982144
 30
0.0
 11
25863.914667585152
 21
19330.481699999978
 31
0.0
  0
LINE
  5
10F3A
  8
2-0
  6
CONTINUOUS
 62
     6
 10
25863.914667585152
 20
19330.481699999978
 30
0.0
 11
25716.954746416352
 21
19261.810333972371
 31
0.0
  0
LINE
  5
10F3B
  8
2-0
  6
CONTINUOUS
 62
     6
 10
25716.954746416352
 20
19261.810333972371
 30
0.0
 11
25863.914667585152
 21
19330.481699999978
 31
0.0
  0
LINE
  5
10F3C
  8
2-0
  6
CONTINUOUS
 62
     6
 10
25747.175372468992
 20
19217.85959982144
 30
0.0
 11
25863.914667585152
 21
19330.481699999978
 31
0.0
  0
LINE
  5
10F3D
  8
2-0
  6
CONTINUOUS
 62
     6
 10
25747.175372468992
 20
19217.85959982144
 30
0.0
 11
25716.954746416352
 21
19261.810333972371
 31
0.0
  0
LINE
  5
10F3E
  8
SUNPOU
  6
CONTINUOUS
 62
     4
 10
27336.050145585152
 20
18209.486977999961
 30
0.0
 11
28223.008417585152
 21
18209.486977999961
 31
0.0
  0
LINE
  5
10F3F
  8
SUNPOU
  6
CONTINUOUS
 62
     4
 10
28143.008417585152
 20
18209.486977999961
 30
0.0
 11
28143.008417585152
 21
19317.986977999972
 31
0.0
  0
LINE
  5
10F40
  8
SUNPOU
  6
CONTINUOUS
 62
     4
 10
27336.050145585152
 20
18209.486977999961
 30
0.0
 11
28223.008417585152
 21
18209.486977999961
 31
0.0
  0
LINE
  5
10F41
  8
SUNPOU
  6
CONTINUOUS
 62
     4
 10
28143.008417585152
 20
16750.486977999972
 30
0.0
 11
28143.008417585152
 21
18209.486977999961
 31
0.0
  0
LINE
  5
10F42
  8
SUNPOU
  6
CONTINUOUS
 62
     4
 10
27336.050145585152
 20
15291.727489499999
 30
0.0
 11
28223.008417585152
 21
15291.727489499999
 31
0.0
  0
LINE
  5
10F43
  8
SUNPOU
  6
CONTINUOUS
 62
     4
 10
28143.008417585152
 20
15291.727489499999
 30
0.0
 11
28143.008417585152
 21
16750.486977999972
 31
0.0
  0
LINE
  5
10F44
  8
SUNPOU
  6
CONTINUOUS
 62
     4
 10
27336.050145585152
 20
15291.727489499999
 30
0.0
 11
28223.008417585152
 21
15291.727489499999
 31
0.0
  0
LINE
  5
10F45
  8
SUNPOU
  6
CONTINUOUS
 62
     4
 10
28143.008417585152
 20
14182.986977999981
 30
0.0
 11
28143.008417585152
 21
15291.727489499999
 31
0.0
  0
TEXT
  5
10F46
  8
0
  6
CONTINUOUS
 62
     7
 10
28063.008417585152
 20
14404.023900416651
 30
0.0
 40
160.0
  1
1108.5
 50
90.0
  0
TEXT
  5
10F47
  8
0
  6
CONTINUOUS
 62
     7
 10
28063.008417585152
 20
15754.440567083309
 30
0.0
 40
160.0
  1
1459
 50
90.0
  0
TEXT
  5
10F48
  8
0
  6
CONTINUOUS
 62
     7
 10
28063.008417585152
 20
17213.3203113333
 30
0.0
 40
160.0
  1
1459
 50
90.0
  0
TEXT
  5
10F49
  8
0
  6
CONTINUOUS
 62
     7
 10
28063.008417585152
 20
18430.403644666651
 30
0.0
 40
160.0
  1
1108.5
 50
90.0
  0
ARC
  5
10F4A
  8
0
  6
BYBLOCK
 62
     0
 10
28143.008417585152
 20
18209.486977999961
 30
0.0
 40
15.0
 50
90.0
 51
270.0
  0
ARC
  5
10F4B
  8
0
  6
BYBLOCK
 62
     0
 10
28143.008417585152
 20
18209.486977999961
 30
0.0
 40
15.0
 50
270.0
 51
90.0
  0
ARC
  5
10F4C
  8
0
  6
BYBLOCK
 62
     0
 10
28143.008417585152
 20
19317.986977999972
 30
0.0
 40
15.0
 50
270.0
 51
90.0
  0
ARC
  5
10F4D
  8
0
  6
BYBLOCK
 62
     0
 10
28143.008417585152
 20
19317.986977999972
 30
0.0
 40
15.0
 50
90.0
 51
270.0
  0
ARC
  5
10F4E
  8
0
  6
BYBLOCK
 62
     0
 10
28143.008417585152
 20
16750.486977999972
 30
0.0
 40
15.0
 50
90.0
 51
270.0
  0
ARC
  5
10F4F
  8
0
  6
BYBLOCK
 62
     0
 10
28143.008417585152
 20
16750.486977999972
 30
0.0
 40
15.0
 50
270.0
 51
90.0
  0
ARC
  5
10F50
  8
0
  6
BYBLOCK
 62
     0
 10
28143.008417585152
 20
18209.486977999961
 30
0.0
 40
15.0
 50
270.0
 51
90.0
  0
ARC
  5
10F51
  8
0
  6
BYBLOCK
 62
     0
 10
28143.008417585152
 20
18209.486977999961
 30
0.0
 40
15.0
 50
90.0
 51
270.0
  0
ARC
  5
10F52
  8
0
  6
BYBLOCK
 62
     0
 10
28143.008417585152
 20
15291.727489499999
 30
0.0
 40
15.0
 50
90.0
 51
270.0
  0
ARC
  5
10F53
  8
0
  6
BYBLOCK
 62
     0
 10
28143.008417585152
 20
15291.727489499999
 30
0.0
 40
15.0
 50
270.0
 51
90.0
  0
ARC
  5
10F54
  8
0
  6
BYBLOCK
 62
     0
 10
28143.008417585152
 20
16750.486977999972
 30
0.0
 40
15.0
 50
270.0
 51
90.0
  0
ARC
  5
10F55
  8
0
  6
BYBLOCK
 62
     0
 10
28143.008417585152
 20
16750.486977999972
 30
0.0
 40
15.0
 50
90.0
 51
270.0
  0
ARC
  5
10F56
  8
0
  6
BYBLOCK
 62
     0
 10
28143.008417585152
 20
14182.986977999981
 30
0.0
 40
15.0
 50
90.0
 51
270.0
  0
ARC
  5
10F57
  8
0
  6
BYBLOCK
 62
     0
 10
28143.008417585152
 20
14182.986977999981
 30
0.0
 40
15.0
 50
270.0
 51
90.0
  0
ARC
  5
10F58
  8
0
  6
BYBLOCK
 62
     0
 10
28143.008417585152
 20
15291.727489499999
 30
0.0
 40
15.0
 50
270.0
 51
90.0
  0
ARC
  5
10F59
  8
0
  6
BYBLOCK
 62
     0
 10
28143.008417585152
 20
15291.727489499999
 30
0.0
 40
15.0
 50
90.0
 51
270.0
  0
TEXT
  5
101109B
  8
FILENAME
  6
CONTINUOUS
 10
26099.238095238092
 20
348.0
 30
0.0
 40
200.0
  1
＜VGCU-2652+VKCU-2852-L-1-A_0.DXF ＞
  7
FILENAME
 72
     2
 11
32764.0
 21
348.0
 31
0.0
  0
LINE
  5
10110A0
  8
WAKUSEN-01
 10
868.00000000000193
 20
827.99999999999955
 30
0.0
 11
32764.000000000011
 21
827.99999999999943
 31
0.0
  0
LINE
  5
10110A1
  8
WAKUSEN-01
 10
868.00000000000193
 20
827.99999999999955
 30
0.0
 11
868.00000000000193
 21
22484.000000000011
 31
0.0
  0
LINE
  5
10110A2
  8
WAKUSEN-01
 10
32764.000000000011
 20
827.99999999999943
 30
0.0
 11
32764.000000000011
 21
22484.000000000011
 31
0.0
  0
LINE
  5
10110A3
  8
WAKUSEN-01
 10
20560.0
 20
827.99999999999716
 30
0.0
 11
20560.0
 21
2484.0
 31
0.0
  0
LINE
  5
10110A4
  8
WAKUSEN-02
 10
26868.0
 20
827.99999999999261
 30
0.0
 11
26868.0
 21
2484.0
 31
0.0
  0
ENDSEC
  0
EOF
