  0
SECTION
  2
HEADER
  9
$ACADVER
  1
AC1009
  9
$INSBASE
 10
0.0
 20
0.0
 30
0.0
  9
$EXTMIN
 10
867.99324330406671
 20
327.38164749855792
 30
-0.0000000000112498
  9
$EXTMAX
 10
32765.33210850941
 20
22484.553276491992
 30
0.0000000000002956
  9
$LIMMIN
 10
0.0
 20
0.0
  9
$LIMMAX
 10
33600.0
 20
23760.0
  9
$ORTHOMODE
 70
     1
  9
$REGENMODE
 70
     1
  9
$FILLMODE
 70
     1
  9
$QTEXTMODE
 70
     0
  9
$MIRRTEXT
 70
     0
  9
$DRAGMODE
 70
     2
  9
$LTSCALE
 40
80.0
  9
$OSMODE
 70
  3071
  9
$ATTMODE
 70
     1
  9
$TEXTSIZE
 40
0.2
  9
$TRACEWID
 40
0.05
  9
$TEXTSTYLE
  7
00
  9
$CLAYER
  8
0
  9
$CELTYPE
  6
BYLAYER
  9
$CECOLOR
 62
   256
  9
$DIMSCALE
 40
1.0
  9
$DIMASZ
 40
0.18
  9
$DIMEXO
 40
0.0625
  9
$DIMDLI
 40
0.38
  9
$DIMRND
 40
0.0
  9
$DIMDLE
 40
0.0
  9
$DIMEXE
 40
0.18
  9
$DIMTP
 40
0.0
  9
$DIMTM
 40
0.0
  9
$DIMTXT
 40
0.18
  9
$DIMCEN
 40
0.09
  9
$DIMTSZ
 40
0.0
  9
$DIMTOL
 70
     0
  9
$DIMLIM
 70
     0
  9
$DIMTIH
 70
     1
  9
$DIMTOH
 70
     1
  9
$DIMSE1
 70
     0
  9
$DIMSE2
 70
     0
  9
$DIMTAD
 70
     0
  9
$DIMZIN
 70
     0
  9
$DIMBLK
  1

  9
$DIMASO
 70
     1
  9
$DIMSHO
 70
     1
  9
$DIMPOST
  1

  9
$DIMAPOST
  1

  9
$DIMALT
 70
     0
  9
$DIMALTD
 70
     2
  9
$DIMALTF
 40
25.399999999999999
  9
$DIMLFAC
 40
1.0
  9
$DIMTOFL
 70
     0
  9
$DIMTVP
 40
0.0
  9
$DIMTIX
 70
     0
  9
$DIMSOXD
 70
     0
  9
$DIMSAH
 70
     0
  9
$DIMBLK1
  1

  9
$DIMBLK2
  1

  9
$DIMSTYLE
  2
STANDARD
  9
$DIMCLRD
 70
     0
  9
$DIMCLRE
 70
     0
  9
$DIMCLRT
 70
     0
  9
$DIMTFAC
 40
1.0
  9
$DIMGAP
 40
0.09
  9
$LUNITS
 70
     2
  9
$LUPREC
 70
     4
  9
$SKETCHINC
 40
0.1
  9
$FILLETRAD
 40
0.0
  9
$AUNITS
 70
     0
  9
$AUPREC
 70
     0
  9
$MENU
  1
acad
  9
$ELEVATION
 40
0.0
  9
$PELEVATION
 40
0.0
  9
$THICKNESS
 40
0.0
  9
$LIMCHECK
 70
     0
  9
$BLIPMODE
 70
     1
  9
$CHAMFERA
 40
0.0
  9
$CHAMFERB
 40
0.0
  9
$SKPOLY
 70
     0
  9
$TDCREATE
 40
2311940.075052408
  9
$TDUPDATE
 40
2458942.4562495602
  9
$TDINDWG
 40
0.3078043634
  9
$TDUSRTIMER
 40
0.307803831
  9
$USRTIMER
 70
     1
  9
$ANGBASE
 50
0.0
  9
$ANGDIR
 70
     0
  9
$PDMODE
 70
     0
  9
$PDSIZE
 40
0.0
  9
$PLINEWID
 40
0.0
  9
$COORDS
 70
     1
  9
$SPLFRAME
 70
     0
  9
$SPLINETYPE
 70
     6
  9
$SPLINESEGS
 70
     8
  9
$ATTDIA
 70
     1
  9
$ATTREQ
 70
     1
  9
$HANDLING
 70
     1
  9
$HANDSEED
  5
E612
  9
$SURFTAB1
 70
     6
  9
$SURFTAB2
 70
     6
  9
$SURFTYPE
 70
     6
  9
$SURFU
 70
     6
  9
$SURFV
 70
     6
  9
$UCSNAME
  2

  9
$UCSORG
 10
0.0
 20
0.0
 30
0.0
  9
$UCSXDIR
 10
1.0
 20
0.0
 30
0.0
  9
$UCSYDIR
 10
0.0
 20
1.0
 30
0.0
  9
$PUCSNAME
  2

  9
$PUCSORG
 10
0.0
 20
0.0
 30
0.0
  9
$PUCSXDIR
 10
1.0
 20
0.0
 30
0.0
  9
$PUCSYDIR
 10
0.0
 20
1.0
 30
0.0
  9
$USERI1
 70
     0
  9
$USERI2
 70
     0
  9
$USERI3
 70
     0
  9
$USERI4
 70
     0
  9
$USERI5
 70
     0
  9
$USERR1
 40
0.0
  9
$USERR2
 40
0.0
  9
$USERR3
 40
0.0
  9
$USERR4
 40
0.0
  9
$USERR5
 40
0.0
  9
$WORLDVIEW
 70
     1
  9
$SHADEDGE
 70
     3
  9
$SHADEDIF
 70
    70
  9
$TILEMODE
 70
     1
  9
$MAXACTVP
 70
    16
  9
$PLIMCHECK
 70
     0
  9
$PEXTMIN
 10
1.0000000000000000E+020
 20
1.0000000000000000E+020
 30
1.0000000000000000E+020
  9
$PEXTMAX
 10
-1.0000000000000000E+020
 20
-1.0000000000000000E+020
 30
-1.0000000000000000E+020
  9
$PLIMMIN
 10
0.0
 20
0.0
  9
$PLIMMAX
 10
12.0
 20
9.0
  9
$UNITMODE
 70
     0
  9
$VISRETAIN
 70
     0
  9
$PLINEGEN
 70
     1
  9
$PSLTSCALE
 70
     0
  0
ENDSEC
  0
SECTION
  2
TABLES
  0
TABLE
  2
VPORT
 70
     1
  0
VPORT
  2
*ACTIVE
 70
     0
 10
0.0
 20
0.0
 11
1.0
 21
1.0
 12
16800.0
 22
11880.0
 13
0.0
 23
0.0
 14
1.0
 24
1.0
 15
0.0
 25
0.0
 16
0.0
 26
0.0
 36
1.0
 17
0.0
 27
0.0
 37
0.0
 40
23981.023255813951
 41
2.195652173913043
 42
50.0
 43
0.0
 44
0.0
 50
0.0
 51
0.0
 71
     0
 72
 10000
 73
     1
 74
     1
 75
     0
 76
     0
 77
     0
 78
     0
  0
ENDTAB
  0
TABLE
  2
LTYPE
 70
     6
  0
LTYPE
  2
CONTINUOUS
 70
     0
  3
Solid line
 72
    65
 73
     0
 40
0.0
  0
LTYPE
  2
DASHED3
 70
     0
  3
------  ------  ------  ------  
 72
    65
 73
     2
 40
5.0
 49
3.75
 49
-1.25
  0
LTYPE
  2
CENTER2
 70
     0
  3
----------  --  ----------  --  
 72
    65
 73
     4
 40
20.0
 49
12.5
 49
-2.5
 49
2.5
 49
-2.5
  0
LTYPE
  2
HIDE-M
 70
     0
  3

 72
    65
 73
     2
 40
2.0
 49
1.0
 49
-1.0
  0
LTYPE
  2
1PL-M
 70
     0
  3

 72
    65
 73
     4
 40
15.0
 49
12.0
 49
-1.0
 49
1.0
 49
-1.0
  0
LTYPE
  2
PHANTOM2
 70
     0
  3
___ _ _ ___ _ _ ___ _ _ ___ _ _
 72
    65
 73
     6
 40
1.25
 49
0.625
 49
-0.125
 49
0.125
 49
-0.125
 49
0.125
 49
-0.125
  0
ENDTAB
  0
TABLE
  2
LAYER
 70
    24
  0
LAYER
  2
0
 70
     0
 62
     7
  6
CONTINUOUS
  0
LAYER
  2
SUNPOU
 70
     0
 62
     4
  6
CONTINUOUS
  0
LAYER
  2
0-1
 70
     0
 62
     7
  6
CONTINUOUS
  0
LAYER
  2
0-2
 70
     0
 62
     7
  6
CONTINUOUS
  0
LAYER
  2
0-5
 70
     0
 62
     7
  6
CONTINUOUS
  0
LAYER
  2
0-6
 70
     0
 62
     7
  6
CONTINUOUS
  0
LAYER
  2
2-0
 70
     0
 62
     7
  6
CONTINUOUS
  0
LAYER
  2
0-8
 70
     0
 62
     7
  6
CONTINUOUS
  0
LAYER
  2
YODOROGO
 70
     0
 62
   130
  6
CONTINUOUS
  0
LAYER
  2
WAKUSEN-01
 70
     0
 62
    50
  6
CONTINUOUS
  0
LAYER
  2
WAKUSEN-02
 70
     0
 62
   130
  6
CONTINUOUS
  0
LAYER
  2
WAKUMOJI-01
 70
     0
 62
   130
  6
CONTINUOUS
  0
LAYER
  2
FILENAME
 70
     0
 62
     7
  6
CONTINUOUS
  0
LAYER
  2
NAME
 70
     0
 62
    20
  6
CONTINUOUS
  0
LAYER
  2
0-4
 70
     0
 62
     7
  6
CONTINUOUS
  0
LAYER
  2
1-前柱P
 70
     0
 62
     3
  6
CONTINUOUS
  0
LAYER
  2
1-前柱カバ-P
 70
     0
 62
     3
  6
CONTINUOUS
  0
LAYER
  2
1-桁前P28
 70
     0
 62
     3
  6
CONTINUOUS
  0
LAYER
  2
1-後柱P
 70
     0
 62
     3
  6
CONTINUOUS
  0
LAYER
  2
1-中柱P
 70
     0
 62
     3
  6
CONTINUOUS
  0
LAYER
  2
1-後柱カバ-P
 70
     0
 62
     7
  6
CONTINUOUS
  0
LAYER
  2
1-中柱カバ-P
 70
     0
 62
     7
  6
CONTINUOUS
  0
ENDTAB
  0
TABLE
  2
STYLE
 70
     5
  0
STYLE
  2
STANDARD
 70
     0
 40
0.0
 41
1.0
 50
0.0
 71
     0
 42
0.0
  3
txt
  4
BIGFONT
  0
STYLE
  2
00
 70
     0
 40
0.0
 41
0.6666666666666666
 50
0.0
 71
     0
 42
0.2
  3
ROMANS
  4
BIGFONT
  0
STYLE
  2
01
 70
     0
 40
3.0
 41
1.0
 50
0.0
 71
     0
 42
0.2
  3
ROMANS
  4
BIGFONT
  0
STYLE
  2
WAKUMOJI
 70
     0
 40
3.0
 41
1.0
 50
0.0
 71
     0
 42
3.0
  3
SIMPLEX
  4
BIGFONT
  0
STYLE
  2
FILENAME
 70
     0
 40
200.0
 41
1.0
 50
0.0
 71
     0
 42
200.0
  3
romans
  4
bigfont
  0
ENDTAB
  0
TABLE
  2
VIEW
 70
     0
  0
ENDTAB
  0
TABLE
  2
UCS
 70
     0
  0
ENDTAB
  0
TABLE
  2
APPID
 70
    17
  0
APPID
  2
ACAD
 70
     0
  0
APPID
  2
ACADANNOTATIVE
 70
     0
  0
APPID
  2
ACAD_PSEXT
 70
     0
  0
APPID
  2
DCO15
 70
     0
  0
APPID
  2
ACAD_MLEADERVER
 70
     0
  0
APPID
  2
AUTOCAD_POSTSCRIPT_FIGURE
 70
     0
  0
APPID
  2
ACAD_EXEMPT_FROM_CAD_STANDARDS
 70
     0
  0
APPID
  2
ACLAYERTOOLS
 70
     0
  0
APPID
  2
ACAD_DSTYLE_DIMJAG
 70
     0
  0
APPID
  2
ACAD_DSTYLE_DIMTALN
 70
     0
  0
APPID
  2
ACAECLAYERSTANDARD
 70
     0
  0
APPID
  2
ACAD_DSTYLE_DIMBREAK
 70
     0
  0
APPID
  2
ACAD_DSTYLE_DIM_LINETYPE
 70
     0
  0
APPID
  2
ACAD_DSTYLE_DIM_EXT1_LINETYPE
 70
     0
  0
APPID
  2
ACAD_DSTYLE_DIM_EXT2_LINETYPE
 70
     0
  0
APPID
  2
ACAD_DSTYLE_DIMFLIPARROW_W
 70
     0
  0
APPID
  2
ACAD_NAV_VCDISPLAY
 70
     0
  0
ENDTAB
  0
TABLE
  2
DIMSTYLE
 70
     1
  0
DIMSTYLE
  2
STANDARD
 70
     0
  3

  4

  5

  6

  7

 40
1.0
 41
0.18
 42
0.0625
 43
0.38
 44
0.18
 45
0.0
 46
0.0
 47
0.0
 48
0.0
140
0.18
141
0.09
142
0.0
143
25.399999999999999
144
1.0
145
0.0
146
1.0
147
0.09
 71
     0
 72
     0
 73
     1
 74
     1
 75
     0
 76
     0
 77
     0
 78
     0
170
     0
171
     2
172
     0
173
     0
174
     0
175
     0
176
     0
177
     0
178
     0
  0
ENDTAB
  0
ENDSEC
  0
SECTION
  2
BLOCKS
  0
BLOCK
  8
0
  2
$MODEL_SPACE
 70
     0
 10
0.0
 20
0.0
 30
0.0
  3
$MODEL_SPACE
  1

  0
ENDBLK
  5
D05F
  8
0
  0
BLOCK
 67
     1
  8
0
  2
$PAPER_SPACE
 70
     0
 10
0.0
 20
0.0
 30
0.0
  3
$PAPER_SPACE
  1

  0
ENDBLK
  5
D05B
 67
     1
  8
0
  0
ENDSEC
  0
SECTION
  2
ENTITIES
  0
CIRCLE
  5
D099
  8
0-5
  6
CONTINUOUS
 62
     4
 10
15183.09822873439
 20
1421.969151421961
 30
0.0
 40
20.0
  0
ARC
  5
D09A
  8
0-5
  6
CONTINUOUS
 62
     4
 10
15183.09822873439
 20
1421.969151421961
 30
0.0
 40
20.0
 50
180.0
 51
0.0
  0
ARC
  5
D09B
  8
0-5
  6
CONTINUOUS
 62
     4
 10
15183.09822873439
 20
1421.969151421961
 30
0.0
 40
20.0
 50
0.0
 51
179.99998500000001
  0
CIRCLE
  5
D09C
  8
0-5
  6
CONTINUOUS
 62
     4
 10
15183.09822873439
 20
1821.968491421959
 30
0.0
 40
20.0
  0
ARC
  5
D09D
  8
0-5
  6
CONTINUOUS
 62
     4
 10
15183.09822873439
 20
1821.968491421959
 30
0.0
 40
20.0
 50
180.0
 51
0.0
  0
ARC
  5
D09E
  8
0-5
  6
CONTINUOUS
 62
     4
 10
15183.09822873439
 20
1821.968491421959
 30
0.0
 40
20.0
 50
0.0
 51
179.99998500000001
  0
TEXT
  5
D09F
  8
0-5
  6
CONTINUOUS
 62
     7
 10
16715.598954734382
 20
1701.968961421959
 30
0.0
 40
160.0
  1
H
  0
TEXT
  5
D0A0
  8
0-5
  6
CONTINUOUS
 62
     7
 10
15230.52848373439
 20
1701.968961421959
 30
0.0
 40
160.0
  1
（ ）内寸法ハ、  タイプヲ示ス。
  0
TEXT
  5
D0A1
  8
0-5
  6
CONTINUOUS
 62
     7
 10
15343.09776673439
 20
1301.96863142196
 30
0.0
 40
160.0
  1
有効高サハ、基礎高サヲ含ミマセン。
  0
TEXT
  5
D0A2
  8
2-0
  6
CONTINUOUS
 62
     7
 10
21476.132231394859
 20
3338.771758421959
 30
0.0
 40
160.0
  1
正 面 立 面 図
 72
     4
 11
22121.465564728191
 21
3418.771758421959
 31
0.0
  0
TEXT
  5
D0A3
  8
2-0
  6
CONTINUOUS
 62
     7
 10
9149.8649603458252
 20
3310.0360764219599
 30
0.0
 40
160.0
  1
側 面 立 面 図
 50
0.000139
 72
     4
 11
9795.1980995966478
 21
3390.0376420053349
 31
0.0
  0
TEXT
  5
D0A4
  8
2-0
  6
CONTINUOUS
 62
     7
 10
11146.69028473427
 20
3337.2330110053349
 30
0.0
 40
160.0
  1
1
 72
     4
 11
11173.35695140094
 21
3417.2330110053349
 31
0.0
  0
TEXT
  5
D0A5
  8
2-0
  6
CONTINUOUS
 62
     7
 10
11389.779001984951
 20
3257.2344790053371
 30
0.0
 40
160.0
  1
80
 72
     4
 11
11509.779001984951
 21
3337.2344790053362
 31
0.0
  0
TEXT
  5
D0A6
  8
2-0
  6
CONTINUOUS
 62
     7
 10
10647.69225073427
 20
3310.0376420053349
 30
0.0
 40
160.0
  1
(S=  /   )
 72
     4
 11
11207.69225073427
 21
3390.0376420053349
 31
0.0
  0
TEXT
  5
D0A7
  8
2-0
  6
CONTINUOUS
 62
     7
 10
23472.957749865829
 20
3365.96712742196
 30
0.0
 40
160.0
  1
1
 72
     4
 11
23499.624416532501
 21
3445.96712742196
 31
0.0
  0
TEXT
  5
D0A8
  8
2-0
  6
CONTINUOUS
 62
     7
 10
23716.046467116521
 20
3285.9685954219608
 30
0.0
 40
160.0
  1
80
 72
     4
 11
23836.046467116521
 21
3365.9685954219608
 31
0.0
  0
TEXT
  5
D0A9
  8
2-0
  6
CONTINUOUS
 62
     7
 10
22973.959715865829
 20
3338.771758421959
 30
0.0
 40
160.0
  1
(S=  /   )
 72
     4
 11
23533.959715865829
 21
3418.771758421959
 31
0.0
  0
TEXT
  5
D0AA
  8
2-0
  6
CONTINUOUS
 62
     7
 10
21552.063621441092
 20
11297.07361142196
 30
0.0
 40
160.0
  1
平　面　図
 72
     4
 11
22005.39695477442
 21
11371.74027808863
 31
0.0
  0
TEXT
  5
D0AB
  8
2-0
  6
CONTINUOUS
 62
     7
 10
9273.8355594670975
 20
11202.78617242194
 30
0.0
 40
160.0
  1
小 屋 伏 図
 72
     4
 11
9775.1688928004314
 21
11282.78617242194
 31
0.0
  0
TEXT
  5
D0AC
  8
2-0
  6
CONTINUOUS
 62
     7
 10
23356.889139912051
 20
11318.935647088631
 30
0.0
 40
160.0
  1
1
 72
     4
 11
23383.555806578712
 21
11398.935647088631
 31
0.0
  0
TEXT
  5
D0AD
  8
2-0
  6
CONTINUOUS
 62
     7
 10
23599.977857162728
 20
11238.937115088631
 30
0.0
 40
160.0
  1
80
 72
     4
 11
23719.977857162728
 21
11318.937115088631
 31
0.0
  0
TEXT
  5
D0AE
  8
2-0
  6
CONTINUOUS
 62
     7
 10
22857.89110591204
 20
11291.74027808863
 30
0.0
 40
160.0
  1
(S=  /   )
 72
     4
 11
23417.89110591204
 21
11371.74027808863
 31
0.0
  0
TEXT
  5
D0AF
  8
2-0
  6
CONTINUOUS
 62
     7
 10
11126.66107793805
 20
11229.98154142195
 30
0.0
 40
160.0
  1
1
 72
     4
 11
11153.32774460472
 21
11309.98154142195
 31
0.0
  0
TEXT
  5
D0B0
  8
2-0
  6
CONTINUOUS
 62
     7
 10
11369.749795188751
 20
11149.983009421951
 30
0.0
 40
160.0
  1
80
 72
     4
 11
11489.749795188751
 21
11229.983009421951
 31
0.0
  0
TEXT
  5
D0B1
  8
2-0
  6
CONTINUOUS
 62
     7
 10
10627.663043938041
 20
11202.78617242194
 30
0.0
 40
160.0
  1
(S=  /   )
 72
     4
 11
11187.663043938041
 21
11282.78617242194
 31
0.0
  0
LINE
  5
D0CA
  8
0-6
  6
CONTINUOUS
 62
     6
 10
9379.2644004446702
 20
19655.957615055831
 30
0.0
 11
9523.1655034446503
 21
20168.233270055829
 31
0.0
  0
LINE
  5
D0CB
  8
0-6
  6
CONTINUOUS
 62
     6
 10
8850.0076970578193
 20
19761.73517005585
 30
0.0
 11
8743.3126350578023
 21
19883.911057055841
 31
0.0
  0
LINE
  5
D0CC
  8
0-6
  6
CONTINUOUS
 62
     6
 10
8788.7020070578055
 20
19911.91134705584
 30
0.0
 11
8850.0076970578193
 21
19761.73517005585
 31
0.0
  0
LINE
  5
D0CD
  8
0-6
  6
CONTINUOUS
 62
     6
 10
8788.7020070578055
 20
19911.91134705584
 30
0.0
 11
8743.3126350578023
 21
19883.911057055841
 31
0.0
  0
LINE
  5
D0CE
  8
0-6
  6
CONTINUOUS
 62
     6
 10
8850.0076970578193
 20
19761.73517005585
 30
0.0
 11
8556.0798700578107
 21
20168.233270055829
 31
0.0
  0
LINE
  5
D0CF
  8
0-6
  6
CONTINUOUS
 62
     6
 10
9340.8746064446677
 20
19500.632710055841
 30
0.0
 11
9353.3762564446715
 21
19662.35739905584
 31
0.0
  0
LINE
  5
D0D0
  8
0-6
  6
CONTINUOUS
 62
     6
 10
9405.1495754446732
 20
19649.56179105585
 30
0.0
 11
9340.8746064446677
 21
19500.632710055841
 31
0.0
  0
LINE
  5
D0D1
  8
0-6
  6
CONTINUOUS
 62
     6
 10
9405.1495754446732
 20
19649.56179105585
 30
0.0
 11
9353.3762564446715
 21
19662.35739905584
 31
0.0
  0
LINE
  5
D0D2
  8
0-6
  6
CONTINUOUS
 62
     6
 10
9523.1655034446503
 20
20168.233270055829
 30
0.0
 11
10040.854151444661
 21
20168.233270055829
 31
0.0
  0
LINE
  5
D0D3
  8
0-6
  6
CONTINUOUS
 62
     6
 10
13566.92716262067
 20
18911.278260366718
 30
0.0
 11
13477.111455620659
 21
19046.350711366718
 31
0.0
  0
LINE
  5
D0D4
  8
0-6
  6
CONTINUOUS
 62
     6
 10
13477.111455620659
 20
19046.350711366718
 30
0.0
 11
13518.26564662067
 21
18889.45010936672
 31
0.0
  0
LINE
  5
D0D5
  8
0-6
  6
CONTINUOUS
 62
     6
 10
13477.111455620659
 20
19046.350711366718
 30
0.0
 11
13566.92716262067
 21
18911.278260366718
 31
0.0
  0
LINE
  5
D0D6
  8
0-6
  6
CONTINUOUS
 62
     6
 10
13566.92716262067
 20
18911.278260366718
 30
0.0
 11
13518.26564662067
 21
18889.45010936672
 31
0.0
  0
LINE
  5
D0D7
  8
0-6
  6
CONTINUOUS
 62
     6
 10
13518.26564662067
 20
18889.45010936672
 30
0.0
 11
13477.111455620659
 21
19046.350711366718
 31
0.0
  0
LINE
  5
D0D8
  8
0-6
  6
CONTINUOUS
 62
     6
 10
13518.26564662067
 20
18889.45010936672
 30
0.0
 11
13566.92716262067
 21
18911.278260366718
 31
0.0
  0
LINE
  5
D0D9
  8
0-6
  6
CONTINUOUS
 62
     6
 10
7756.0782210577972
 20
20168.233270055829
 30
0.0
 11
8556.0798700578107
 21
20168.233270055829
 31
0.0
  0
LINE
  5
D0E0
  8
0-6
  6
CONTINUOUS
 62
     6
 10
13641.63716262064
 20
18679.57165136671
 30
0.0
 11
14161.637888620649
 21
18679.57165136671
 31
0.0
  0
LINE
  5
D0E1
  8
0-6
  6
CONTINUOUS
 62
     6
 10
11067.989104289811
 20
13722.34612542196
 30
0.0
 11
11150.8764962898
 21
13899.28440442194
 31
0.0
  0
LINE
  5
D0E2
  8
0-6
  6
CONTINUOUS
 62
     6
 10
11150.8764962898
 20
13899.28440442194
 30
0.0
 11
11950.8771562898
 21
13899.28440442194
 31
0.0
  0
LINE
  5
D0E3
  8
0-6
  6
CONTINUOUS
 62
     6
 10
11675.03223128981
 20
13212.90910042195
 30
0.0
 11
11568.76177628981
 21
13335.45614742195
 31
0.0
  0
LINE
  5
D0E4
  8
0-6
  6
CONTINUOUS
 62
     6
 10
11568.76177628981
 20
13335.45614742195
 30
0.0
 11
11629.5438842898
 21
13185.067171421961
 31
0.0
  0
LINE
  5
D0E5
  8
0-6
  6
CONTINUOUS
 62
     6
 10
11568.76177628981
 20
13335.45614742195
 30
0.0
 11
11675.03223128981
 21
13212.90910042195
 31
0.0
  0
LINE
  5
D0E6
  8
0-6
  6
CONTINUOUS
 62
     6
 10
11675.03223128981
 20
13212.90910042195
 30
0.0
 11
11629.5438842898
 21
13185.067171421961
 31
0.0
  0
LINE
  5
D0E7
  8
0-6
  6
CONTINUOUS
 62
     6
 10
11629.5438842898
 20
13185.067171421961
 30
0.0
 11
11568.76177628981
 21
13335.45614742195
 31
0.0
  0
LINE
  5
D0E8
  8
0-6
  6
CONTINUOUS
 62
     6
 10
11629.5438842898
 20
13185.067171421961
 30
0.0
 11
11675.03223128981
 21
13212.90910042195
 31
0.0
  0
LINE
  5
D0E9
  8
0-6
  6
CONTINUOUS
 62
     6
 10
11043.8419472898
 20
13733.658084421961
 30
0.0
 11
11000.116361289811
 21
13577.45526342196
 31
0.0
  0
LINE
  5
D0EA
  8
0-6
  6
CONTINUOUS
 62
     6
 10
11000.116361289811
 20
13577.45526342196
 30
0.0
 11
11092.1372522898
 21
13711.03317642195
 31
0.0
  0
LINE
  5
D0EB
  8
0-6
  6
CONTINUOUS
 62
     6
 10
11000.116361289811
 20
13577.45526342196
 30
0.0
 11
11043.8419472898
 21
13733.658084421961
 31
0.0
  0
LINE
  5
D0EC
  8
0-6
  6
CONTINUOUS
 62
     6
 10
11043.8419472898
 20
13733.658084421961
 30
0.0
 11
11092.1372522898
 21
13711.03317642195
 31
0.0
  0
LINE
  5
D0ED
  8
0-6
  6
CONTINUOUS
 62
     6
 10
11092.1372522898
 20
13711.03317642195
 30
0.0
 11
11000.116361289811
 21
13577.45526342196
 31
0.0
  0
LINE
  5
D0EE
  8
0-6
  6
CONTINUOUS
 62
     6
 10
11092.1372522898
 20
13711.03317642195
 30
0.0
 11
11043.8419472898
 21
13733.658084421961
 31
0.0
  0
LINE
  5
D0EF
  8
0-6
  6
CONTINUOUS
 62
     6
 10
12058.400646289811
 20
12535.45647742196
 30
0.0
 11
12920.98081728981
 21
12535.45647742196
 31
0.0
  0
LINE
  5
D0F0
  8
0-6
  6
CONTINUOUS
 62
     6
 10
11652.2885532898
 20
13198.98813642196
 30
0.0
 11
12058.400646289811
 21
12535.45647742196
 31
0.0
  0
LINE
  5
D0F1
  8
0-6
  6
CONTINUOUS
 62
     6
 10
13539.56229762065
 20
13907.74585642196
 30
0.0
 11
13517.11158762065
 21
14068.39170742195
 31
0.0
  0
LINE
  5
D0F2
  8
0-6
  6
CONTINUOUS
 62
     6
 10
13517.11158762065
 20
14068.39170742195
 30
0.0
 11
13590.448791620671
 21
13923.71067342196
 31
0.0
  0
LINE
  5
D0F3
  8
0-6
  6
CONTINUOUS
 62
     6
 10
13517.11158762065
 20
14068.39170742195
 30
0.0
 11
13539.56229762065
 21
13907.74585642196
 31
0.0
  0
LINE
  5
D0F4
  8
0-6
  6
CONTINUOUS
 62
     6
 10
13539.56229762065
 20
13907.74585642196
 30
0.0
 11
13590.448791620671
 21
13923.71067342196
 31
0.0
  0
LINE
  5
D0F5
  8
0-6
  6
CONTINUOUS
 62
     6
 10
13590.448791620671
 20
13923.71067342196
 30
0.0
 11
13517.11158762065
 21
14068.39170742195
 31
0.0
  0
LINE
  5
D0F6
  8
0-6
  6
CONTINUOUS
 62
     6
 10
13590.448791620671
 20
13923.71067342196
 30
0.0
 11
13539.56229762065
 21
13907.74585642196
 31
0.0
  0
LINE
  5
D0F7
  8
0-6
  6
CONTINUOUS
 62
     6
 10
14151.74623462067
 20
12045.45535542194
 30
0.0
 11
15231.745838620671
 21
12045.45535542194
 31
0.0
  0
LINE
  5
D0F8
  8
0-6
  6
CONTINUOUS
 62
     6
 10
13565.00603962067
 20
13915.72727542195
 30
0.0
 11
14151.74623462065
 21
12045.45535542194
 31
0.0
  0
LINE
  5
D0F9
  8
0-6
  6
CONTINUOUS
 62
     6
 10
13542.596899620659
 20
18900.365174366711
 30
0.0
 11
13641.63716262064
 21
18679.57165136671
 31
0.0
  0
LINE
  5
D10D
  8
0-6
  6
CONTINUOUS
 62
     6
 10
7299.2444213987374
 20
19916.454748421958
 30
0.0
 11
7207.5570793987308
 21
20050.262286421948
 31
0.0
  0
LINE
  5
D10E
  8
0-6
  6
CONTINUOUS
 62
     6
 10
7169.1158183987336
 20
20013.294776421961
 30
0.0
 11
7299.2444213987374
 21
19916.454748421958
 31
0.0
  0
LINE
  5
D10F
  8
0-6
  6
CONTINUOUS
 62
     6
 10
7169.1158183987336
 20
20013.294776421961
 30
0.0
 11
7207.5570793987308
 21
20050.262286421948
 31
0.0
  0
LINE
  5
D110
  8
0-6
  6
CONTINUOUS
 62
     6
 10
7188.3359533987305
 20
20031.777541421961
 30
0.0
 11
6671.347065398737
 21
20536.455804421948
 31
0.0
  0
LINE
  5
D111
  8
0-6
  6
CONTINUOUS
 62
     6
 10
4996.3477253987257
 20
20536.455804421948
 30
0.0
 11
6671.347065398737
 21
20536.455804421948
 31
0.0
  0
TEXT
  5
D119
  8
0-6
  6
CONTINUOUS
 62
     7
 10
9603.1657674446742
 20
20248.233534055831
 30
0.0
 40
160.0
  1
屋根
 72
     4
 11
9773.8324341113403
 21
20328.233534055831
 31
0.0
  0
TEXT
  5
D11A
  8
0-6
  6
CONTINUOUS
 62
     7
 10
7852.079475057827
 20
20248.233534055831
 30
0.0
 40
160.0
  1
桁（P）
 72
     4
 11
8156.079475057827
 21
20328.233534055831
 31
0.0
  0
TEXT
  5
D11B
  8
0-6
  6
CONTINUOUS
 62
     7
 10
11230.8757702898
 20
13979.28466842196
 30
0.0
 40
160.0
  1
桁（前）
 72
     4
 11
11550.8757702898
 21
14059.28466842196
 31
0.0
  0
TEXT
  5
D11C
  8
0-6
  6
CONTINUOUS
 62
     7
 10
12138.399920289799
 20
12615.45575142196
 30
0.0
 40
160.0
  1
鼻隠し前
 72
     4
 11
12501.066586956469
 21
12695.45575142196
 31
0.0
  0
TEXT
  5
D11D
  8
0-6
  6
CONTINUOUS
 62
     7
 10
14231.746498620651
 20
12125.454629421951
 30
0.0
 40
160.0
  1
ケラバ 右
 72
     4
 11
14647.746498620651
 21
12205.454629421951
 31
0.0
  0
TEXT
  5
D11E
  8
0-6
  6
CONTINUOUS
 62
     7
 10
13721.63742662066
 20
18759.571915366709
 30
0.0
 40
160.0
  1
上枠
 72
     4
 11
13892.30409328733
 21
18839.571915366709
 31
0.0
  0
TEXT
  5
D11F
  8
0-6
  6
CONTINUOUS
 62
     7
 10
5076.3479893987333
 20
20616.45408842196
 30
0.0
 40
160.0
  1
鼻隠しコーナー後
 72
     4
 11
5823.0146560654002
 21
20696.45408842196
 31
0.0
  0
LINE
  5
D120
  8
0-6
  6
CONTINUOUS
 62
     6
 10
7290.3927609863067
 20
14375.991338486079
 30
0.0
 11
6390.9553515635398
 21
12535.45647742196
 31
0.0
  0
LINE
  5
D121
  8
0-6
  6
CONTINUOUS
 62
     6
 10
20277.534300780131
 20
12887.95627942196
 30
0.0
 11
21277.53364178013
 21
12887.95627942196
 31
0.0
  0
TEXT
  5
D122
  8
0-6
  6
CONTINUOUS
 62
     7
 10
20373.534564780111
 20
12967.95654342194
 30
0.0
 40
160.0
  1
前柱（P）
 72
     4
 11
20773.534564780111
 21
13047.95654342194
 31
0.0
  0
LINE
  5
D123
  8
0-6
  6
CONTINUOUS
 62
     6
 10
19872.45793695873
 20
13473.955421421961
 30
0.0
 11
20277.534300780131
 21
12887.95627942196
 31
0.0
  0
LINE
  5
D124
  8
0-6
  6
CONTINUOUS
 62
     6
 10
20277.534300780131
 20
16126.01707937607
 30
0.0
 11
21277.53364178013
 21
16126.01707937607
 31
0.0
  0
TEXT
  5
D125
  8
0-6
  6
CONTINUOUS
 62
     7
 10
20373.534564780111
 20
16206.01734337607
 30
0.0
 40
160.0
  1
中柱（P）
 72
     4
 11
20773.534564780111
 21
16286.01734337607
 31
0.0
  0
LINE
  5
D126
  8
0-6
  6
CONTINUOUS
 62
     6
 10
19872.45793695873
 20
16712.01622137607
 30
0.0
 11
20277.534300780131
 21
16126.01707937607
 31
0.0
  0
LINE
  5
D127
  8
0-6
  6
CONTINUOUS
 62
     6
 10
20191.422585914119
 20
14088.94615925084
 30
0.0
 11
21647.422585914119
 21
14088.94615925084
 31
0.0
  0
TEXT
  5
D128
  8
0-6
  6
CONTINUOUS
 62
     7
 10
20231.427859166521
 20
14168.946423250811
 30
0.0
 40
160.0
  1
前柱カバー（P）
 72
     4
 11
20919.427859166521
 21
14248.946423250811
 31
0.0
  0
LINE
  5
D129
  8
0-6
  6
CONTINUOUS
 62
     6
 10
19892.18499062318
 20
13600.555421421959
 30
0.0
 11
20191.422585914119
 21
14088.94615925084
 31
0.0
  0
LINE
  5
D12A
  8
0-6
  6
CONTINUOUS
 62
     6
 10
20191.422585914119
 20
17346.94572325081
 30
0.0
 11
21647.422585914119
 21
17346.94572325081
 31
0.0
  0
TEXT
  5
D12B
  8
0-6
  6
CONTINUOUS
 62
     7
 10
20231.427859166521
 20
17426.94598725082
 30
0.0
 40
160.0
  1
中柱カバー（P）
 72
     4
 11
20919.427859166521
 21
17506.94598725082
 31
0.0
  0
LINE
  5
D12C
  8
0-6
  6
CONTINUOUS
 62
     6
 10
19892.18499062318
 20
16858.554985421961
 30
0.0
 11
20191.422585914119
 21
17346.94572325081
 31
0.0
  0
LINE
  5
D12D
  8
0-6
  6
CONTINUOUS
 62
     6
 10
20127.589059237998
 20
20136.976198045479
 30
0.0
 11
21127.588400237979
 21
20136.976198045479
 31
0.0
  0
TEXT
  5
D12E
  8
0-6
  6
CONTINUOUS
 62
     7
 10
20223.589323237989
 20
20216.97646204547
 30
0.0
 40
160.0
  1
後柱（P）
 72
     4
 11
20623.589323237989
 21
20296.97646204547
 31
0.0
  0
LINE
  5
D12F
  8
0-6
  6
CONTINUOUS
 62
     6
 10
19872.45793695873
 20
19767.893644467811
 30
0.0
 11
20127.589059238009
 21
20136.976198045479
 31
0.0
  0
LINE
  5
D130
  8
0-6
  6
CONTINUOUS
 62
     6
 10
20191.422585914119
 20
19132.964142593079
 30
0.0
 11
21647.422585914119
 21
19132.964142593079
 31
0.0
  0
TEXT
  5
D131
  8
0-6
  6
CONTINUOUS
 62
     7
 10
20231.427859166521
 20
19212.96440659307
 30
0.0
 40
160.0
  1
後柱カバー（P）
 72
     4
 11
20919.427859166521
 21
19292.96440659307
 31
0.0
  0
LINE
  5
D132
  8
0-6
  6
CONTINUOUS
 62
     6
 10
19892.18499062318
 20
19621.354880421961
 30
0.0
 11
20191.422585914119
 21
19132.964142593079
 31
0.0
  0
LINE
  5
D133
  8
0-6
  6
CONTINUOUS
 62
     6
 10
11476.160212328859
 20
16088.37119568794
 30
0.0
 11
12356.15915632888
 21
16088.37119568794
 31
0.0
  0
LINE
  5
D134
  8
0-6
  6
CONTINUOUS
 62
     6
 10
11298.39807498047
 20
15918.35406801761
 30
0.0
 11
11476.160212328859
 21
16088.37119568794
 31
0.0
  0
LINE
  5
D135
  8
0-6
  6
CONTINUOUS
 62
     6
 10
11182.770434980481
 20
15807.764304017601
 30
0.0
 11
11279.96776698049
 21
15937.62666101761
 31
0.0
  0
LINE
  5
D136
  8
0-6
  6
CONTINUOUS
 62
     6
 10
11316.829371980481
 20
15899.081475017611
 30
0.0
 11
11182.770434980481
 21
15807.764304017601
 31
0.0
  0
LINE
  5
D137
  8
0-6
  6
CONTINUOUS
 62
     6
 10
11316.829371980481
 20
15899.081475017611
 30
0.0
 11
11279.96776698049
 21
15937.62666101761
 31
0.0
  0
TEXT
  5
D138
  8
0-6
  6
CONTINUOUS
 62
     7
 10
11556.16146632888
 20
16168.371459687931
 30
0.0
 40
160.0
  1
ブレース
 72
     4
 11
11918.82813299555
 21
16253.70479302127
 31
0.0
  0
LINE
  5
D139
  8
0-6
  6
CONTINUOUS
 62
     6
 10
12112.95117407589
 20
16830.957361421952
 30
0.0
 11
11993.653555743531
 21
17146.549699421961
 31
0.0
  0
LINE
  5
D13A
  8
0-6
  6
CONTINUOUS
 62
     6
 10
11193.082794743539
 20
17146.549699421961
 30
0.0
 11
11993.653555743531
 21
17146.549699421961
 31
0.0
  0
TEXT
  5
D13B
  8
0-6
  6
CONTINUOUS
 62
     7
 10
11273.653159743521
 20
17226.549963421949
 30
0.0
 40
160.0
  1
桁（中）
 72
     4
 11
11593.653159743521
 21
17306.549963421949
 31
0.0
  0
LINE
  5
D13C
  8
0-6
  6
CONTINUOUS
 62
     6
 10
8035.4864411448971
 20
14025.903384983059
 30
0.0
 11
8915.4853851449061
 21
14025.903384983059
 31
0.0
  0
LINE
  5
D13D
  8
0-6
  6
CONTINUOUS
 62
     6
 10
9283.2270907195234
 20
14493.75169161624
 30
0.0
 11
8915.4853851449061
 21
14025.903384983059
 31
0.0
  0
TEXT
  5
D13E
  8
0-6
  6
CONTINUOUS
 62
     7
 10
8115.487695144906
 20
14105.90364898306
 30
0.0
 40
160.0
  1
ブレース
 72
     4
 11
8478.1543618115738
 21
14191.23698231639
 31
0.0
  0
LINE
  5
D13F
  8
0-6
  6
CONTINUOUS
 62
     6
 10
8633.7233971465594
 20
16209.784114022381
 30
0.0
 11
8318.4321465319954
 21
16740.954590421989
 31
0.0
  0
LINE
  5
D2CF
  8
2-0
  6
CENTER2
 62
     6
 10
27976.042087782971
 20
19714.45542142195
 30
0.0
 11
27256.04340778297
 21
19714.45542142195
 31
0.0
  0
LINE
  5
D2D0
  8
2-0
  6
CENTER2
 62
     6
 10
27096.04340778297
 20
19714.45542142195
 30
0.0
 11
19560.436328831049
 21
19714.45542142195
 31
0.0
  0
LINE
  5
D2D1
  8
2-0
  6
CENTER2
 62
     6
 10
27976.042087782971
 20
16796.455421421939
 30
0.0
 11
27256.04340778297
 21
16796.455421421939
 31
0.0
  0
LINE
  5
D2D2
  8
2-0
  6
CENTER2
 62
     6
 10
26776.044067782961
 20
16796.455421421939
 30
0.0
 11
19560.436328831049
 21
16796.455421421939
 31
0.0
  0
LINE
  5
D2D3
  8
2-0
  6
CENTER2
 62
     6
 10
27976.042087782971
 20
13527.95542142195
 30
0.0
 11
27256.04340778297
 21
13527.95542142195
 31
0.0
  0
LINE
  5
D2D4
  8
2-0
  6
CENTER2
 62
     6
 10
27096.04340778297
 20
13527.95542142195
 30
0.0
 11
19560.436328831049
 21
13527.955421421961
 31
0.0
  0
CIRCLE
  5
D2D5
  8
0-5
  6
CONTINUOUS
 62
     4
 10
22665.041164782971
 20
21556.956345421939
 30
0.0
 40
199.9999949999999
  0
CIRCLE
  5
D2D6
  8
0-5
  6
CONTINUOUS
 62
     4
 10
28176.042747782969
 20
19714.45542142195
 30
0.0
 40
199.9999949999999
  0
CIRCLE
  5
D2D7
  8
0-5
  6
CONTINUOUS
 62
     4
 10
28176.042747782969
 20
16796.455421421939
 30
0.0
 40
199.9999949999999
  0
CIRCLE
  5
D2D8
  8
0-5
  6
CONTINUOUS
 62
     4
 10
28176.042747782969
 20
13527.95542142195
 30
0.0
 40
199.9999949999999
  0
CIRCLE
  5
D2D9
  8
0-5
  6
CONTINUOUS
 62
     4
 10
25933.541164782971
 20
21556.956345421939
 30
0.0
 40
199.9999949999999
  0
TEXT
  5
D2DA
  8
0-5
  6
CONTINUOUS
 62
     7
 10
22613.044842116298
 20
21470.730495421962
 30
0.0
 40
160.0
  1
2
 72
     4
 11
22666.37817544963
 21
21550.730495421962
 31
0.0
  0
TEXT
  5
D2DB
  8
0-5
  6
CONTINUOUS
 62
     7
 10
25880.207831449639
 20
21476.956345421939
 30
0.0
 40
160.0
  1
3
 72
     4
 11
25933.541164782971
 21
21556.956345421939
 31
0.0
  0
TEXT
  5
D2DC
  8
0-5
  6
CONTINUOUS
 62
     7
 10
28118.05244311631
 20
19622.837362421938
 30
0.0
 40
160.0
  1
C
 72
     4
 11
28171.385776449639
 21
19702.837362421938
 31
0.0
  0
TEXT
  5
D2DD
  8
0-5
  6
CONTINUOUS
 62
     7
 10
28118.05244311631
 20
16704.837363421961
 30
0.0
 40
160.0
  1
B
 72
     4
 11
28171.385776449639
 21
16784.837363421961
 31
0.0
  0
TEXT
  5
D2DE
  8
0-5
  6
CONTINUOUS
 62
     7
 10
28118.05244311631
 20
13436.33736242194
 30
0.0
 40
160.0
  1
A
 72
     4
 11
28171.385776449639
 21
13516.33736242194
 31
0.0
  0
LINE
  5
D2DF
  8
2-0
  6
CENTER2
 62
     6
 10
19865.04116478299
 20
21356.95766442196
 30
0.0
 11
19865.04116478299
 21
13178.040796945959
 31
0.0
  0
CIRCLE
  5
D2E0
  8
0-5
  6
CONTINUOUS
 62
     4
 10
19865.04116478299
 20
21556.956345421939
 30
0.0
 40
199.9999949999999
  0
TEXT
  5
D2E1
  8
0-5
  6
CONTINUOUS
 62
     7
 10
19839.711508782981
 20
21470.730495421962
 30
0.0
 40
160.0
  1
1
 72
     4
 11
19866.378175449649
 21
21550.730495421962
 31
0.0
  0
ARC
  5
D2E2
  8
1-後柱P
  6
HIDE-M
 62
     6
 10
19861.441164782958
 20
19646.40542142195
 30
0.0
 40
2.6000000000000001
 50
270.0
 51
0.000000000000007
  0
LINE
  5
D2E3
  8
1-後柱P
  6
HIDE-M
 62
     6
 10
19873.041164782971
 20
19644.356031268759
 30
0.0
 11
19873.041164782971
 21
19648.005421421942
 31
0.0
  0
LINE
  5
D2E4
  8
1-後柱P
  6
HIDE-M
 62
     6
 10
19863.041164782961
 20
19644.356031268759
 30
0.0
 11
19863.041164782961
 21
19648.005421421942
 31
0.0
  0
LINE
  5
D2E5
  8
1-後柱P
  6
1PL-M
 62
     6
 10
19868.041164782961
 20
19638.805421421959
 30
0.0
 11
19868.041164782961
 21
19653.005421421949
 31
0.0
  0
ARC
  5
D2E6
  8
1-後柱P
  6
HIDE-M
 62
     6
 10
19874.641164782981
 20
19646.40542142195
 30
0.0
 40
2.6000000000000001
 50
180.0
 51
270.0
  0
LINE
  5
D2E7
  8
1-後柱P
  6
HIDE-M
 62
     6
 10
19864.041164782961
 20
19646.40542142195
 30
0.0
 11
19864.041164782961
 21
19648.005421421942
 31
0.0
  0
LINE
  5
D2E8
  8
1-後柱P
  6
HIDE-M
 62
     6
 10
19872.041164782971
 20
19646.40542142195
 30
0.0
 11
19872.041164782971
 21
19648.005421421942
 31
0.0
  0
LINE
  5
D2E9
  8
1-後柱P
 10
19854.141164782981
 20
19758.70542142195
 30
0.0
 11
19875.94116478298
 21
19758.70542142195
 31
0.0
  0
LINE
  5
D2EA
  8
1-後柱P
 10
19905.94116478298
 20
19721.40542142195
 30
0.0
 11
19905.94116478298
 21
19728.705421421939
 31
0.0
  0
ARC
  5
D2EB
  8
1-後柱P
 10
19875.94116478298
 20
19728.705421421939
 30
0.0
 40
30.0
 50
0.000000000000007
 51
90.0
  0
ARC
  5
D2EC
  8
1-後柱P
 10
19875.94116478298
 20
19728.705421421939
 30
0.0
 40
31.600000000000001
 50
0.000000000000007
 51
90.0
  0
LINE
  5
D2ED
  8
1-後柱P
 10
19854.141164782981
 20
19760.305421421948
 30
0.0
 11
19875.94116478298
 21
19760.305421421948
 31
0.0
  0
LINE
  5
D2EE
  8
1-後柱P
 10
19907.541164782961
 20
19721.40542142195
 30
0.0
 11
19907.541164782961
 21
19728.705421421939
 31
0.0
  0
LINE
  5
D2EF
  8
1-後柱P
 10
19884.541164782961
 20
19699.805421421959
 30
0.0
 11
19884.541164782961
 21
19709.805421421948
 31
0.0
  0
LINE
  5
D2F0
  8
1-後柱P
 10
19882.94116478298
 20
19709.805421421948
 30
0.0
 11
19882.94116478298
 21
19699.805421421959
 31
0.0
  0
LINE
  5
D2F1
  8
1-後柱P
 10
19824.141164782981
 20
19721.40542142195
 30
0.0
 11
19824.141164782981
 21
19728.705421421939
 31
0.0
  0
ARC
  5
D2F2
  8
1-後柱P
 10
19854.141164782981
 20
19728.705421421939
 30
0.0
 40
30.0
 50
90.0
 51
180.0
  0
ARC
  5
D2F3
  8
1-後柱P
 10
19854.141164782981
 20
19728.705421421939
 30
0.0
 40
31.600000000000001
 50
90.0
 51
180.0
  0
LINE
  5
D2F4
  8
1-後柱P
 10
19822.541164782961
 20
19721.40542142195
 30
0.0
 11
19822.541164782961
 21
19728.705421421939
 31
0.0
  0
LINE
  5
D2F5
  8
1-後柱P
 10
19829.141164782981
 20
19714.805421421948
 30
0.0
 11
19840.541164782961
 21
19714.805421421948
 31
0.0
  0
ARC
  5
D2F6
  8
1-後柱P
 10
19829.141164782981
 20
19721.40542142195
 30
0.0
 40
6.599999999999997
 50
180.0
 51
270.0
  0
ARC
  5
D2F7
  8
1-後柱P
 10
19840.541164782961
 20
19709.805421421948
 30
0.0
 40
5.0
 50
0.000000000000007
 51
90.0
  0
LINE
  5
D2F8
  8
1-後柱P
 10
19829.141164782981
 20
19716.40542142195
 30
0.0
 11
19840.541164782961
 21
19716.40542142195
 31
0.0
  0
ARC
  5
D2F9
  8
1-後柱P
 10
19829.141164782981
 20
19721.40542142195
 30
0.0
 40
5.0
 50
180.0
 51
270.0
  0
LINE
  5
D2FA
  8
1-後柱P
 10
19845.541164782961
 20
19709.805421421948
 30
0.0
 11
19845.541164782961
 21
19650.40542142195
 31
0.0
  0
LINE
  5
D2FB
  8
1-後柱P
 10
19847.141164782981
 20
19709.805421421948
 30
0.0
 11
19847.141164782981
 21
19650.40542142195
 31
0.0
  0
ARC
  5
D2FC
  8
1-後柱P
 10
19840.541164782961
 20
19709.805421421948
 30
0.0
 40
6.599999999999997
 50
0.000000000000007
 51
90.0
  0
LINE
  5
D2FD
  8
1-後柱P
 10
19852.141164782981
 20
19643.805421421959
 30
0.0
 11
19885.541164782961
 21
19643.805421421959
 31
0.0
  0
ARC
  5
D2FE
  8
1-後柱P
 10
19852.141164782981
 20
19650.40542142195
 30
0.0
 40
6.599999999999997
 50
180.0
 51
270.0
  0
LINE
  5
D2FF
  8
1-後柱P
 10
19852.141164782981
 20
19645.40542142195
 30
0.0
 11
19885.541164782961
 21
19645.40542142195
 31
0.0
  0
ARC
  5
D300
  8
1-後柱P
 10
19852.141164782981
 20
19650.40542142195
 30
0.0
 40
5.0
 50
180.0
 51
270.0
  0
LINE
  5
D301
  8
1-後柱P
 10
19885.541164782961
 20
19645.40542142195
 30
0.0
 11
19885.541164782961
 21
19643.805421421959
 31
0.0
  0
LINE
  5
D302
  8
1-後柱P
 10
19900.94116478298
 20
19714.805421421948
 30
0.0
 11
19889.541164782961
 21
19714.805421421948
 31
0.0
  0
ARC
  5
D303
  8
1-後柱P
 10
19900.94116478298
 20
19721.40542142195
 30
0.0
 40
6.599999999999997
 50
270.0
 51
0.000000000000007
  0
ARC
  5
D304
  8
1-後柱P
 10
19889.541164782961
 20
19709.805421421948
 30
0.0
 40
5.0
 50
90.0
 51
180.0
  0
LINE
  5
D305
  8
1-後柱P
 10
19889.541164782961
 20
19716.40542142195
 30
0.0
 11
19900.94116478298
 21
19716.40542142195
 31
0.0
  0
ARC
  5
D306
  8
1-後柱P
 10
19889.541164782961
 20
19709.805421421948
 30
0.0
 40
6.599999999999997
 50
90.0
 51
180.0
  0
ARC
  5
D307
  8
1-後柱P
 10
19900.94116478298
 20
19721.40542142195
 30
0.0
 40
5.0
 50
270.0
 51
0.000000000000007
  0
LINE
  5
D308
  8
1-後柱P
 10
19884.541164782961
 20
19699.805421421959
 30
0.0
 11
19882.94116478298
 21
19699.805421421959
 31
0.0
  0
LINE
  5
D309
  8
1-後柱カバ-P
 10
19907.541164782961
 20
19708.105421421958
 30
0.0
 11
19907.541164782961
 21
19648.805421421948
 31
0.0
  0
ARC
  5
D30A
  8
1-後柱カバ-P
 10
19900.94116478298
 20
19648.805421421948
 30
0.0
 40
6.599999999999997
 50
270.0
 51
0.000000000000007
  0
LINE
  5
D30B
  8
1-後柱カバ-P
 10
19905.94116478298
 20
19708.105421421958
 30
0.0
 11
19905.94116478298
 21
19648.805421421948
 31
0.0
  0
ARC
  5
D30C
  8
1-後柱カバ-P
 10
19900.94116478298
 20
19708.105421421958
 30
0.0
 40
5.0
 50
0.000000000000007
 51
90.0
  0
LINE
  5
D30D
  8
1-後柱カバ-P
 10
19900.94116478298
 20
19642.20542142195
 30
0.0
 11
19829.141164782981
 21
19642.20542142195
 31
0.0
  0
ARC
  5
D30E
  8
1-後柱カバ-P
 10
19829.141164782981
 20
19648.805421421948
 30
0.0
 40
6.599999999999997
 50
180.0
 51
270.0
  0
LINE
  5
D30F
  8
1-後柱カバ-P
 10
19900.94116478298
 20
19643.805421421959
 30
0.0
 11
19829.141164782981
 21
19643.805421421959
 31
0.0
  0
ARC
  5
D310
  8
1-後柱カバ-P
 10
19829.141164782981
 20
19648.805421421948
 30
0.0
 40
5.0
 50
180.0
 51
270.0
  0
ARC
  5
D311
  8
1-後柱カバ-P
 10
19900.94116478298
 20
19648.805421421948
 30
0.0
 40
5.0
 50
270.0
 51
0.000000000000007
  0
LINE
  5
D312
  8
1-後柱カバ-P
 10
19822.541164782961
 20
19648.805421421948
 30
0.0
 11
19822.541164782961
 21
19708.105421421958
 31
0.0
  0
LINE
  5
D313
  8
1-後柱カバ-P
 10
19824.141164782981
 20
19648.805421421948
 30
0.0
 11
19824.141164782981
 21
19708.105421421958
 31
0.0
  0
ARC
  5
D314
  8
1-後柱カバ-P
 10
19829.141164782981
 20
19708.105421421958
 30
0.0
 40
5.0
 50
90.0
 51
180.0
  0
LINE
  5
D315
  8
1-後柱カバ-P
  6
1PL-M
 62
     6
 10
19865.041164782961
 20
19649.70542142195
 30
0.0
 11
19865.041164782961
 21
19636.70542142195
 31
0.0
  0
LINE
  5
D316
  8
1-後柱カバ-P
  6
HIDE-M
 62
     6
 10
19872.041164782971
 20
19642.20542142195
 30
0.0
 11
19872.041164782971
 21
19643.805421421959
 31
0.0
  0
LINE
  5
D317
  8
1-後柱カバ-P
  6
HIDE-M
 62
     6
 10
19858.041164782961
 20
19642.20542142195
 30
0.0
 11
19858.041164782961
 21
19643.805421421959
 31
0.0
  0
ARC
  5
D318
  8
1-後柱カバ-P
 10
19900.94116478298
 20
19708.105421421958
 30
0.0
 40
6.599999999999997
 50
0.000000000000007
 51
90.0
  0
ARC
  5
D319
  8
1-後柱カバ-P
 10
19829.141164782981
 20
19708.105421421958
 30
0.0
 40
6.599999999999997
 50
90.0
 51
180.0
  0
LINE
  5
D31A
  8
1-後柱カバ-P
 10
19837.541164782961
 20
19714.70542142195
 30
0.0
 11
19829.141164782981
 21
19714.70542142195
 31
0.0
  0
LINE
  5
D31B
  8
1-後柱カバ-P
 10
19892.541164782961
 20
19714.70542142195
 30
0.0
 11
19900.94116478298
 21
19714.70542142195
 31
0.0
  0
LINE
  5
D31C
  8
1-後柱カバ-P
 10
19837.541164782961
 20
19713.105421421958
 30
0.0
 11
19829.141164782981
 21
19713.105421421958
 31
0.0
  0
LINE
  5
D31D
  8
1-後柱カバ-P
 10
19892.541164782961
 20
19713.105421421958
 30
0.0
 11
19900.94116478298
 21
19713.105421421958
 31
0.0
  0
LINE
  5
D31E
  8
1-後柱カバ-P
 10
19892.541164782961
 20
19713.105421421958
 30
0.0
 11
19892.541164782961
 21
19714.70542142195
 31
0.0
  0
LINE
  5
D31F
  8
1-後柱カバ-P
 10
19837.541164782961
 20
19714.70542142195
 30
0.0
 11
19837.541164782961
 21
19713.105421421958
 31
0.0
  0
LINE
  5
D320
  8
1-後柱カバ-P
  6
HIDE-M
 62
     6
 10
19833.641164782981
 20
19693.705421421939
 30
0.0
 11
19822.041164782961
 21
19693.705421421939
 31
0.0
  0
LINE
  5
D321
  8
1-後柱カバ-P
  6
HIDE-M
 62
     6
 10
19833.641164782981
 20
19685.70542142195
 30
0.0
 11
19822.041164782961
 21
19685.70542142195
 31
0.0
  0
LINE
  5
D322
  8
1-後柱カバ-P
  6
HIDE-M
 62
     6
 10
19833.641164782981
 20
19692.705421421939
 30
0.0
 11
19822.041164782961
 21
19692.705421421939
 31
0.0
  0
LINE
  5
D323
  8
1-後柱カバ-P
  6
HIDE-M
 62
     6
 10
19833.641164782981
 20
19686.70542142195
 30
0.0
 11
19822.041164782961
 21
19686.70542142195
 31
0.0
  0
LINE
  5
D324
  8
1-後柱カバ-P
 10
19832.641164782981
 20
19684.20542142195
 30
0.0
 11
19825.641164782981
 21
19684.20542142195
 31
0.0
  0
LINE
  5
D325
  8
1-後柱カバ-P
 10
19825.641164782981
 20
19695.20542142195
 30
0.0
 11
19832.641164782981
 21
19695.20542142195
 31
0.0
  0
LINE
  5
D326
  8
1-後柱カバ-P
 10
19825.641164782981
 20
19695.95542142195
 30
0.0
 11
19825.641164782981
 21
19683.45542142195
 31
0.0
  0
LINE
  5
D327
  8
1-後柱カバ-P
 10
19822.041164782961
 20
19695.70542142195
 30
0.0
 11
19822.041164782961
 21
19683.70542142195
 31
0.0
  0
LINE
  5
D328
  8
1-後柱カバ-P
  6
HIDE-M
 62
     6
 10
19824.141164782981
 20
19684.20542142195
 30
0.0
 11
19822.541164782961
 21
19684.20542142195
 31
0.0
  0
LINE
  5
D329
  8
1-後柱カバ-P
 10
19822.041164782961
 20
19683.70542142195
 30
0.0
 11
19822.541164782961
 21
19684.20542142195
 31
0.0
  0
ARC
  5
D32A
  8
1-後柱カバ-P
 10
19824.891164782981
 20
19683.45542142195
 30
0.0
 40
0.75
 50
180.0
 51
0.000000000000007
  0
LINE
  5
D32B
  8
1-後柱カバ-P
  6
HIDE-M
 62
     6
 10
19822.541164782961
 20
19695.20542142195
 30
0.0
 11
19824.141164782981
 21
19695.20542142195
 31
0.0
  0
LINE
  5
D32C
  8
1-後柱カバ-P
 10
19822.041164782961
 20
19695.70542142195
 30
0.0
 11
19822.541164782961
 21
19695.20542142195
 31
0.0
  0
ARC
  5
D32D
  8
1-後柱カバ-P
 10
19824.891164782981
 20
19695.95542142195
 30
0.0
 40
0.75
 50
0.000000000000007
 51
180.0
  0
LINE
  5
D32E
  8
1-後柱カバ-P
 10
19833.641164782981
 20
19694.20542142195
 30
0.0
 11
19833.641164782981
 21
19685.205421421939
 31
0.0
  0
ARC
  5
D32F
  8
1-後柱カバ-P
 10
19832.641164782981
 20
19685.205421421939
 30
0.0
 40
1.0
 50
270.0
 51
0.000000000000007
  0
ARC
  5
D330
  8
1-後柱カバ-P
 10
19832.641164782981
 20
19694.20542142195
 30
0.0
 40
1.0
 50
0.000000000000007
 51
90.0
  0
LINE
  5
D331
  8
1-後柱カバ-P
  6
1PL-M
 62
     6
 10
19838.641164782981
 20
19689.705421421939
 30
0.0
 11
19817.041164782961
 21
19689.705421421939
 31
0.0
  0
LINE
  5
D332
  8
1-後柱カバ-P
 10
19832.641164782981
 20
19674.20542142195
 30
0.0
 11
19825.641164782981
 21
19674.20542142195
 31
0.0
  0
LINE
  5
D333
  8
1-後柱カバ-P
 10
19822.041164782961
 20
19681.70542142195
 30
0.0
 11
19822.041164782961
 21
19673.705421421939
 31
0.0
  0
LINE
  5
D334
  8
1-後柱カバ-P
  6
HIDE-M
 62
     6
 10
19824.141164782981
 20
19674.20542142195
 30
0.0
 11
19822.541164782961
 21
19674.20542142195
 31
0.0
  0
LINE
  5
D335
  8
1-後柱カバ-P
 10
19822.041164782961
 20
19673.705421421939
 30
0.0
 11
19822.541164782961
 21
19674.20542142195
 31
0.0
  0
ARC
  5
D336
  8
1-後柱カバ-P
 10
19824.891164782981
 20
19673.45542142195
 30
0.0
 40
0.75
 50
180.0
 51
0.000000000000007
  0
LINE
  5
D337
  8
1-後柱カバ-P
 10
19833.641164782981
 20
19683.205421421939
 30
0.0
 11
19833.641164782981
 21
19675.205421421939
 31
0.0
  0
ARC
  5
D338
  8
1-後柱カバ-P
 10
19832.641164782981
 20
19675.205421421939
 30
0.0
 40
1.0
 50
270.0
 51
0.000000000000007
  0
LINE
  5
D339
  8
1-後柱カバ-P
  6
1PL-M
 62
     6
 10
19838.641164782981
 20
19679.70542142195
 30
0.0
 11
19817.041164782961
 21
19679.70542142195
 31
0.0
  0
LINE
  5
D33A
  8
1-後柱カバ-P
 10
19825.641164782981
 20
19681.45542142195
 30
0.0
 11
19825.641164782981
 21
19673.45542142195
 31
0.0
  0
LINE
  5
D33B
  8
1-後柱カバ-P
  6
HIDE-M
 62
     6
 10
19896.44116478298
 20
19693.705421421939
 30
0.0
 11
19908.041164782961
 21
19693.705421421939
 31
0.0
  0
LINE
  5
D33C
  8
1-後柱カバ-P
  6
HIDE-M
 62
     6
 10
19896.44116478298
 20
19685.70542142195
 30
0.0
 11
19908.041164782961
 21
19685.70542142195
 31
0.0
  0
LINE
  5
D33D
  8
1-後柱カバ-P
  6
HIDE-M
 62
     6
 10
19896.44116478298
 20
19692.705421421939
 30
0.0
 11
19908.041164782961
 21
19692.705421421939
 31
0.0
  0
LINE
  5
D33E
  8
1-後柱カバ-P
  6
HIDE-M
 62
     6
 10
19896.44116478298
 20
19686.70542142195
 30
0.0
 11
19908.041164782961
 21
19686.70542142195
 31
0.0
  0
LINE
  5
D33F
  8
1-後柱カバ-P
 10
19897.44116478298
 20
19684.20542142195
 30
0.0
 11
19904.44116478298
 21
19684.20542142195
 31
0.0
  0
LINE
  5
D340
  8
1-後柱カバ-P
 10
19904.44116478298
 20
19695.20542142195
 30
0.0
 11
19897.44116478298
 21
19695.20542142195
 31
0.0
  0
LINE
  5
D341
  8
1-後柱カバ-P
 10
19904.44116478298
 20
19695.95542142195
 30
0.0
 11
19904.44116478298
 21
19683.45542142195
 31
0.0
  0
LINE
  5
D342
  8
1-後柱カバ-P
 10
19908.041164782961
 20
19695.70542142195
 30
0.0
 11
19908.041164782961
 21
19683.70542142195
 31
0.0
  0
LINE
  5
D343
  8
1-後柱カバ-P
  6
HIDE-M
 62
     6
 10
19905.94116478298
 20
19684.20542142195
 30
0.0
 11
19907.541164782961
 21
19684.20542142195
 31
0.0
  0
LINE
  5
D344
  8
1-後柱カバ-P
 10
19908.041164782961
 20
19683.70542142195
 30
0.0
 11
19907.541164782961
 21
19684.20542142195
 31
0.0
  0
ARC
  5
D345
  8
1-後柱カバ-P
 10
19905.19116478298
 20
19683.45542142195
 30
0.0
 40
0.75
 50
180.0
 51
0.000000000000007
  0
LINE
  5
D346
  8
1-後柱カバ-P
  6
HIDE-M
 62
     6
 10
19907.541164782961
 20
19695.20542142195
 30
0.0
 11
19905.94116478298
 21
19695.20542142195
 31
0.0
  0
LINE
  5
D347
  8
1-後柱カバ-P
 10
19908.041164782961
 20
19695.70542142195
 30
0.0
 11
19907.541164782961
 21
19695.20542142195
 31
0.0
  0
ARC
  5
D348
  8
1-後柱カバ-P
 10
19905.19116478298
 20
19695.95542142195
 30
0.0
 40
0.75
 50
0.000000000000007
 51
180.0
  0
LINE
  5
D349
  8
1-後柱カバ-P
 10
19896.44116478298
 20
19694.20542142195
 30
0.0
 11
19896.44116478298
 21
19685.205421421939
 31
0.0
  0
ARC
  5
D34A
  8
1-後柱カバ-P
 10
19897.44116478298
 20
19685.205421421939
 30
0.0
 40
1.0
 50
180.0
 51
270.0
  0
ARC
  5
D34B
  8
1-後柱カバ-P
 10
19897.44116478298
 20
19694.20542142195
 30
0.0
 40
1.0
 50
90.0
 51
180.0
  0
LINE
  5
D34C
  8
1-後柱カバ-P
  6
1PL-M
 62
     6
 10
19891.44116478298
 20
19689.705421421939
 30
0.0
 11
19913.041164782961
 21
19689.705421421939
 31
0.0
  0
LINE
  5
D34D
  8
1-後柱カバ-P
 10
19897.44116478298
 20
19674.20542142195
 30
0.0
 11
19904.44116478298
 21
19674.20542142195
 31
0.0
  0
LINE
  5
D34E
  8
1-後柱カバ-P
 10
19908.041164782961
 20
19681.70542142195
 30
0.0
 11
19908.041164782961
 21
19673.705421421939
 31
0.0
  0
LINE
  5
D34F
  8
1-後柱カバ-P
  6
HIDE-M
 62
     6
 10
19905.94116478298
 20
19674.20542142195
 30
0.0
 11
19907.541164782961
 21
19674.20542142195
 31
0.0
  0
LINE
  5
D350
  8
1-後柱カバ-P
 10
19908.041164782961
 20
19673.705421421939
 30
0.0
 11
19907.541164782961
 21
19674.20542142195
 31
0.0
  0
ARC
  5
D351
  8
1-後柱カバ-P
 10
19905.19116478298
 20
19673.45542142195
 30
0.0
 40
0.75
 50
180.0
 51
0.000000000000007
  0
LINE
  5
D352
  8
1-後柱カバ-P
 10
19896.44116478298
 20
19683.205421421939
 30
0.0
 11
19896.44116478298
 21
19675.205421421939
 31
0.0
  0
ARC
  5
D353
  8
1-後柱カバ-P
 10
19897.44116478298
 20
19675.205421421939
 30
0.0
 40
1.0
 50
180.0
 51
270.0
  0
LINE
  5
D354
  8
1-後柱カバ-P
  6
1PL-M
 62
     6
 10
19891.44116478298
 20
19679.70542142195
 30
0.0
 11
19913.041164782961
 21
19679.70542142195
 31
0.0
  0
LINE
  5
D355
  8
1-後柱カバ-P
 10
19904.44116478298
 20
19681.45542142195
 30
0.0
 11
19904.44116478298
 21
19673.45542142195
 31
0.0
  0
LINE
  5
D356
  8
1-後柱カバ-P
  6
HIDE-M
 62
     6
 10
19833.641164782981
 20
19675.705421421939
 30
0.0
 11
19822.041164782961
 21
19675.705421421939
 31
0.0
  0
LINE
  5
D357
  8
1-後柱カバ-P
  6
HIDE-M
 62
     6
 10
19833.641164782981
 20
19676.70542142195
 30
0.0
 11
19822.041164782961
 21
19676.70542142195
 31
0.0
  0
LINE
  5
D358
  8
1-後柱カバ-P
  6
HIDE-M
 62
     6
 10
19896.44116478298
 20
19675.705421421939
 30
0.0
 11
19908.041164782961
 21
19675.705421421939
 31
0.0
  0
LINE
  5
D359
  8
1-後柱カバ-P
  6
HIDE-M
 62
     6
 10
19896.44116478298
 20
19676.70542142195
 30
0.0
 11
19908.041164782961
 21
19676.70542142195
 31
0.0
  0
LINE
  5
D35A
  8
1-中柱P
 10
19829.141164782981
 20
16725.45542142195
 30
0.0
 11
19900.94116478298
 21
16725.45542142195
 31
0.0
  0
ARC
  5
D35B
  8
1-中柱P
 10
19829.141164782981
 20
16730.45542142195
 30
0.0
 40
5.0
 50
180.0
 51
270.0
  0
ARC
  5
D35C
  8
1-中柱P
 10
19900.94116478298
 20
16730.45542142195
 30
0.0
 40
5.0
 50
270.0
 51
0.000000000000007
  0
LINE
  5
D35D
  8
1-中柱P
 10
19829.141164782981
 20
16723.855421421958
 30
0.0
 11
19900.94116478298
 21
16723.855421421958
 31
0.0
  0
ARC
  5
D35E
  8
1-中柱P
 10
19829.141164782981
 20
16730.45542142195
 30
0.0
 40
6.599999999999997
 50
180.0
 51
270.0
  0
LINE
  5
D35F
  8
1-中柱P
 10
19907.54116478299
 20
16789.755421421949
 30
0.0
 11
19907.54116478299
 21
16730.45542142195
 31
0.0
  0
ARC
  5
D360
  8
1-中柱P
 10
19900.94116478298
 20
16730.45542142195
 30
0.0
 40
6.599999999999997
 50
270.0
 51
0.000000000000007
  0
LINE
  5
D361
  8
1-中柱P
 10
19905.94116478298
 20
16730.45542142195
 30
0.0
 11
19905.94116478298
 21
16789.755421421949
 31
0.0
  0
ARC
  5
D362
  8
1-中柱P
 10
19900.94116478298
 20
16789.755421421949
 30
0.0
 40
5.0
 50
0.000000000000007
 51
90.0
  0
LINE
  5
D363
  8
1-中柱P
 10
19822.54116478299
 20
16789.755421421949
 30
0.0
 11
19822.54116478299
 21
16730.45542142195
 31
0.0
  0
LINE
  5
D364
  8
1-中柱P
 10
19824.141164782981
 20
16730.45542142195
 30
0.0
 11
19824.141164782981
 21
16789.755421421949
 31
0.0
  0
LINE
  5
D365
  8
1-中柱P
 10
19829.141164782981
 20
16796.355421421958
 30
0.0
 11
19837.54116478299
 21
16796.355421421958
 31
0.0
  0
ARC
  5
D366
  8
1-中柱P
 10
19829.141164782981
 20
16789.755421421949
 30
0.0
 40
6.599999999999997
 50
90.0
 51
180.0
  0
LINE
  5
D367
  8
1-中柱P
 10
19829.141164782981
 20
16794.755421421949
 30
0.0
 11
19837.54116478299
 21
16794.755421421949
 31
0.0
  0
ARC
  5
D368
  8
1-中柱P
 10
19837.54116478299
 20
16801.355421421951
 30
0.0
 40
6.599999999999997
 50
270.0
 51
0.000000000000007
  0
ARC
  5
D369
  8
1-中柱P
 10
19829.141164782981
 20
16789.755421421949
 30
0.0
 40
5.0
 50
90.0
 51
180.0
  0
LINE
  5
D36A
  8
1-中柱P
 10
19842.541164782979
 20
16801.355421421951
 30
0.0
 11
19842.541164782979
 21
16860.755421421942
 31
0.0
  0
ARC
  5
D36B
  8
1-中柱P
 10
19837.54116478299
 20
16801.355421421951
 30
0.0
 40
5.0
 50
270.0
 51
0.000000000000007
  0
LINE
  5
D36C
  8
1-中柱P
 10
19844.141164782981
 20
16801.355421421951
 30
0.0
 11
19844.141164782981
 21
16860.755421421942
 31
0.0
  0
LINE
  5
D36D
  8
1-中柱P
 10
19849.141164782981
 20
16867.355421421951
 30
0.0
 11
19882.541164782979
 21
16867.355421421951
 31
0.0
  0
ARC
  5
D36E
  8
1-中柱P
 10
19849.141164782981
 20
16860.755421421942
 30
0.0
 40
6.599999999999997
 50
90.0
 51
180.0
  0
LINE
  5
D36F
  8
1-中柱P
 10
19849.141164782981
 20
16865.755421421949
 30
0.0
 11
19882.541164782979
 21
16865.755421421949
 31
0.0
  0
ARC
  5
D370
  8
1-中柱P
 10
19849.141164782981
 20
16860.755421421942
 30
0.0
 40
5.0
 50
90.0
 51
180.0
  0
LINE
  5
D371
  8
1-中柱P
 10
19882.541164782979
 20
16865.755421421949
 30
0.0
 11
19882.541164782979
 21
16867.355421421951
 31
0.0
  0
LINE
  5
D372
  8
1-中柱P
 10
19900.94116478298
 20
16796.355421421958
 30
0.0
 11
19892.54116478299
 21
16796.355421421958
 31
0.0
  0
ARC
  5
D373
  8
1-中柱P
 10
19900.94116478298
 20
16789.755421421949
 30
0.0
 40
6.599999999999997
 50
0.000000000000007
 51
90.0
  0
ARC
  5
D374
  8
1-中柱P
 10
19892.54116478299
 20
16801.355421421951
 30
0.0
 40
5.0
 50
180.0
 51
270.0
  0
LINE
  5
D375
  8
1-中柱P
 10
19892.54116478299
 20
16794.755421421949
 30
0.0
 11
19900.94116478298
 21
16794.755421421949
 31
0.0
  0
ARC
  5
D376
  8
1-中柱P
 10
19892.54116478299
 20
16801.355421421951
 30
0.0
 40
6.599999999999997
 50
180.0
 51
270.0
  0
ARC
  5
D377
  8
1-中柱P
  6
HIDE-M
 62
     6
 10
19858.44116478298
 20
16864.755421421949
 30
0.0
 40
2.6000000000000001
 50
0.000000000000007
 51
90.0
  0
LINE
  5
D378
  8
1-中柱P
  6
HIDE-M
 62
     6
 10
19870.041164782979
 20
16866.804811575141
 30
0.0
 11
19870.041164782979
 21
16863.155421421961
 31
0.0
  0
LINE
  5
D379
  8
1-中柱P
  6
HIDE-M
 62
     6
 10
19860.04116478299
 20
16866.804811575141
 30
0.0
 11
19860.04116478299
 21
16863.155421421961
 31
0.0
  0
LINE
  5
D37A
  8
1-中柱P
  6
1PL-M
 62
     6
 10
19865.04116478299
 20
16872.355421421951
 30
0.0
 11
19865.04116478299
 21
16858.155421421961
 31
0.0
  0
ARC
  5
D37B
  8
1-中柱P
  6
HIDE-M
 62
     6
 10
19871.641164782981
 20
16864.755421421949
 30
0.0
 40
2.6000000000000001
 50
90.0
 51
180.0
  0
LINE
  5
D37C
  8
1-中柱P
  6
HIDE-M
 62
     6
 10
19861.04116478299
 20
16864.755421421949
 30
0.0
 11
19861.04116478299
 21
16863.155421421961
 31
0.0
  0
LINE
  5
D37D
  8
1-中柱P
  6
HIDE-M
 62
     6
 10
19869.04116478299
 20
16864.755421421949
 30
0.0
 11
19869.04116478299
 21
16863.155421421961
 31
0.0
  0
LINE
  5
D37E
  8
1-中柱P
 10
19885.94116478298
 20
16801.355421421951
 30
0.0
 11
19885.94116478298
 21
16811.355421421951
 31
0.0
  0
LINE
  5
D37F
  8
1-中柱P
 10
19887.54116478299
 20
16801.355421421951
 30
0.0
 11
19887.54116478299
 21
16811.355421421951
 31
0.0
  0
LINE
  5
D380
  8
1-中柱P
 10
19885.94116478298
 20
16811.355421421951
 30
0.0
 11
19887.54116478299
 21
16811.355421421951
 31
0.0
  0
LINE
  5
D381
  8
1-中柱P
  6
1PL-M
 62
     6
 10
19837.54116478299
 20
16832.355421421951
 30
0.0
 11
19851.741164782969
 21
16832.355421421951
 31
0.0
  0
LINE
  5
D382
  8
1-中柱P
  6
HIDE-M
 62
     6
 10
19833.641164782981
 20
16775.355421421951
 30
0.0
 11
19822.04116478299
 21
16775.355421421951
 31
0.0
  0
LINE
  5
D383
  8
1-中柱P
  6
HIDE-M
 62
     6
 10
19833.641164782981
 20
16767.355421421951
 30
0.0
 11
19822.04116478299
 21
16767.355421421951
 31
0.0
  0
LINE
  5
D384
  8
1-中柱P
  6
HIDE-M
 62
     6
 10
19833.641164782981
 20
16774.355421421958
 30
0.0
 11
19822.04116478299
 21
16774.355421421958
 31
0.0
  0
LINE
  5
D385
  8
1-中柱P
  6
HIDE-M
 62
     6
 10
19833.641164782981
 20
16768.355421421951
 30
0.0
 11
19822.04116478299
 21
16768.355421421951
 31
0.0
  0
LINE
  5
D386
  8
1-中柱P
 10
19832.641164782981
 20
16765.855421421958
 30
0.0
 11
19825.641164782981
 21
16765.855421421958
 31
0.0
  0
LINE
  5
D387
  8
1-中柱P
 10
19825.641164782981
 20
16776.855421421951
 30
0.0
 11
19832.641164782981
 21
16776.855421421951
 31
0.0
  0
LINE
  5
D388
  8
1-中柱P
 10
19825.641164782981
 20
16777.605421421951
 30
0.0
 11
19825.641164782981
 21
16765.105421421951
 31
0.0
  0
LINE
  5
D389
  8
1-中柱P
 10
19822.04116478299
 20
16777.355421421958
 30
0.0
 11
19822.04116478299
 21
16765.355421421951
 31
0.0
  0
LINE
  5
D38A
  8
1-中柱P
  6
HIDE-M
 62
     6
 10
19824.141164782981
 20
16765.855421421958
 30
0.0
 11
19822.54116478299
 21
16765.855421421958
 31
0.0
  0
LINE
  5
D38B
  8
1-中柱P
 10
19822.04116478299
 20
16765.355421421951
 30
0.0
 11
19822.54116478299
 21
16765.855421421958
 31
0.0
  0
ARC
  5
D38C
  8
1-中柱P
 10
19824.891164782981
 20
16765.105421421951
 30
0.0
 40
0.75
 50
180.0
 51
0.000000000000007
  0
LINE
  5
D38D
  8
1-中柱P
  6
HIDE-M
 62
     6
 10
19822.54116478299
 20
16776.855421421951
 30
0.0
 11
19824.141164782981
 21
16776.855421421951
 31
0.0
  0
LINE
  5
D38E
  8
1-中柱P
 10
19822.04116478299
 20
16777.355421421958
 30
0.0
 11
19822.54116478299
 21
16776.855421421951
 31
0.0
  0
ARC
  5
D38F
  8
1-中柱P
 10
19824.891164782981
 20
16777.605421421951
 30
0.0
 40
0.75
 50
0.000000000000007
 51
180.0
  0
LINE
  5
D390
  8
1-中柱P
 10
19833.641164782981
 20
16775.855421421951
 30
0.0
 11
19833.641164782981
 21
16766.855421421958
 31
0.0
  0
ARC
  5
D391
  8
1-中柱P
 10
19832.641164782981
 20
16766.855421421958
 30
0.0
 40
1.0
 50
270.0
 51
0.000000000000007
  0
ARC
  5
D392
  8
1-中柱P
 10
19832.641164782981
 20
16775.855421421951
 30
0.0
 40
1.0
 50
0.000000000000007
 51
90.0
  0
LINE
  5
D393
  8
1-中柱P
  6
1PL-M
 62
     6
 10
19838.641164782981
 20
16771.355421421951
 30
0.0
 11
19817.04116478299
 21
16771.355421421951
 31
0.0
  0
LINE
  5
D394
  8
1-中柱P
 10
19832.641164782981
 20
16755.855421421951
 30
0.0
 11
19825.641164782981
 21
16755.855421421951
 31
0.0
  0
LINE
  5
D395
  8
1-中柱P
 10
19822.04116478299
 20
16763.355421421951
 30
0.0
 11
19822.04116478299
 21
16755.355421421958
 31
0.0
  0
LINE
  5
D396
  8
1-中柱P
  6
HIDE-M
 62
     6
 10
19824.141164782981
 20
16755.855421421951
 30
0.0
 11
19822.54116478299
 21
16755.855421421951
 31
0.0
  0
LINE
  5
D397
  8
1-中柱P
 10
19822.04116478299
 20
16755.355421421958
 30
0.0
 11
19822.54116478299
 21
16755.855421421951
 31
0.0
  0
ARC
  5
D398
  8
1-中柱P
 10
19824.891164782981
 20
16755.105421421951
 30
0.0
 40
0.75
 50
180.0
 51
0.000000000000007
  0
LINE
  5
D399
  8
1-中柱P
 10
19833.641164782981
 20
16764.855421421958
 30
0.0
 11
19833.641164782981
 21
16756.855421421951
 31
0.0
  0
ARC
  5
D39A
  8
1-中柱P
 10
19832.641164782981
 20
16756.855421421951
 30
0.0
 40
1.0
 50
270.0
 51
0.000000000000007
  0
LINE
  5
D39B
  8
1-中柱P
  6
1PL-M
 62
     6
 10
19838.641164782981
 20
16761.355421421951
 30
0.0
 11
19817.04116478299
 21
16761.355421421951
 31
0.0
  0
LINE
  5
D39C
  8
1-中柱P
 10
19825.641164782981
 20
16763.105421421951
 30
0.0
 11
19825.641164782981
 21
16755.105421421951
 31
0.0
  0
LINE
  5
D39D
  8
1-中柱P
  6
HIDE-M
 62
     6
 10
19833.641164782981
 20
16757.355421421951
 30
0.0
 11
19822.04116478299
 21
16757.355421421951
 31
0.0
  0
LINE
  5
D39E
  8
1-中柱P
  6
HIDE-M
 62
     6
 10
19833.641164782981
 20
16758.355421421958
 30
0.0
 11
19822.04116478299
 21
16758.355421421958
 31
0.0
  0
LINE
  5
D39F
  8
1-中柱P
  6
HIDE-M
 62
     6
 10
19896.44116478298
 20
16775.355421421951
 30
0.0
 11
19908.041164782979
 21
16775.355421421951
 31
0.0
  0
LINE
  5
D3A0
  8
1-中柱P
  6
HIDE-M
 62
     6
 10
19896.44116478298
 20
16767.355421421951
 30
0.0
 11
19908.041164782979
 21
16767.355421421951
 31
0.0
  0
LINE
  5
D3A1
  8
1-中柱P
  6
HIDE-M
 62
     6
 10
19896.44116478298
 20
16774.355421421958
 30
0.0
 11
19908.041164782979
 21
16774.355421421958
 31
0.0
  0
LINE
  5
D3A2
  8
1-中柱P
  6
HIDE-M
 62
     6
 10
19896.44116478298
 20
16768.355421421951
 30
0.0
 11
19908.041164782979
 21
16768.355421421951
 31
0.0
  0
LINE
  5
D3A3
  8
1-中柱P
 10
19897.44116478298
 20
16765.855421421958
 30
0.0
 11
19904.44116478298
 21
16765.855421421958
 31
0.0
  0
LINE
  5
D3A4
  8
1-中柱P
 10
19904.44116478298
 20
16776.855421421951
 30
0.0
 11
19897.44116478298
 21
16776.855421421951
 31
0.0
  0
LINE
  5
D3A5
  8
1-中柱P
 10
19904.44116478298
 20
16777.605421421951
 30
0.0
 11
19904.44116478298
 21
16765.105421421951
 31
0.0
  0
LINE
  5
D3A6
  8
1-中柱P
 10
19908.041164782979
 20
16777.355421421958
 30
0.0
 11
19908.041164782979
 21
16765.355421421951
 31
0.0
  0
LINE
  5
D3A7
  8
1-中柱P
  6
HIDE-M
 62
     6
 10
19905.94116478298
 20
16765.855421421958
 30
0.0
 11
19907.54116478299
 21
16765.855421421958
 31
0.0
  0
LINE
  5
D3A8
  8
1-中柱P
 10
19908.041164782979
 20
16765.355421421951
 30
0.0
 11
19907.54116478299
 21
16765.855421421958
 31
0.0
  0
ARC
  5
D3A9
  8
1-中柱P
 10
19905.19116478298
 20
16765.105421421951
 30
0.0
 40
0.75
 50
180.0
 51
0.000000000000007
  0
LINE
  5
D3AA
  8
1-中柱P
  6
HIDE-M
 62
     6
 10
19907.54116478299
 20
16776.855421421951
 30
0.0
 11
19905.94116478298
 21
16776.855421421951
 31
0.0
  0
LINE
  5
D3AB
  8
1-中柱P
 10
19908.041164782979
 20
16777.355421421958
 30
0.0
 11
19907.54116478299
 21
16776.855421421951
 31
0.0
  0
ARC
  5
D3AC
  8
1-中柱P
 10
19905.19116478298
 20
16777.605421421951
 30
0.0
 40
0.75
 50
0.000000000000007
 51
180.0
  0
LINE
  5
D3AD
  8
1-中柱P
 10
19896.44116478298
 20
16775.855421421951
 30
0.0
 11
19896.44116478298
 21
16766.855421421958
 31
0.0
  0
ARC
  5
D3AE
  8
1-中柱P
 10
19897.44116478298
 20
16766.855421421958
 30
0.0
 40
1.0
 50
180.0
 51
270.0
  0
ARC
  5
D3AF
  8
1-中柱P
 10
19897.44116478298
 20
16775.855421421951
 30
0.0
 40
1.0
 50
90.0
 51
180.0
  0
LINE
  5
D3B0
  8
1-中柱P
  6
1PL-M
 62
     6
 10
19891.44116478298
 20
16771.355421421951
 30
0.0
 11
19913.041164782979
 21
16771.355421421951
 31
0.0
  0
LINE
  5
D3B1
  8
1-中柱P
 10
19897.44116478298
 20
16755.855421421951
 30
0.0
 11
19904.44116478298
 21
16755.855421421951
 31
0.0
  0
LINE
  5
D3B2
  8
1-中柱P
 10
19908.041164782979
 20
16763.355421421951
 30
0.0
 11
19908.041164782979
 21
16755.355421421958
 31
0.0
  0
LINE
  5
D3B3
  8
1-中柱P
  6
HIDE-M
 62
     6
 10
19905.94116478298
 20
16755.855421421951
 30
0.0
 11
19907.54116478299
 21
16755.855421421951
 31
0.0
  0
LINE
  5
D3B4
  8
1-中柱P
 10
19908.041164782979
 20
16755.355421421958
 30
0.0
 11
19907.54116478299
 21
16755.855421421951
 31
0.0
  0
ARC
  5
D3B5
  8
1-中柱P
 10
19905.19116478298
 20
16755.105421421951
 30
0.0
 40
0.75
 50
180.0
 51
0.000000000000007
  0
LINE
  5
D3B6
  8
1-中柱P
 10
19896.44116478298
 20
16764.855421421958
 30
0.0
 11
19896.44116478298
 21
16756.855421421951
 31
0.0
  0
ARC
  5
D3B7
  8
1-中柱P
 10
19897.44116478298
 20
16756.855421421951
 30
0.0
 40
1.0
 50
180.0
 51
270.0
  0
LINE
  5
D3B8
  8
1-中柱P
  6
1PL-M
 62
     6
 10
19891.44116478298
 20
16761.355421421951
 30
0.0
 11
19913.041164782979
 21
16761.355421421951
 31
0.0
  0
LINE
  5
D3B9
  8
1-中柱P
 10
19904.44116478298
 20
16763.105421421951
 30
0.0
 11
19904.44116478298
 21
16755.105421421951
 31
0.0
  0
LINE
  5
D3BA
  8
1-中柱P
  6
HIDE-M
 62
     6
 10
19896.44116478298
 20
16757.355421421951
 30
0.0
 11
19908.041164782979
 21
16757.355421421951
 31
0.0
  0
LINE
  5
D3BB
  8
1-中柱P
  6
HIDE-M
 62
     6
 10
19896.44116478298
 20
16758.355421421958
 30
0.0
 11
19908.041164782979
 21
16758.355421421958
 31
0.0
  0
LINE
  5
D3BC
  8
1-中柱カバ-P
 10
19907.54116478299
 20
16803.055421421948
 30
0.0
 11
19907.54116478299
 21
16862.355421421951
 31
0.0
  0
ARC
  5
D3BD
  8
1-中柱カバ-P
 10
19900.94116478298
 20
16862.355421421951
 30
0.0
 40
6.599999999999997
 50
0.000000000000007
 51
90.0
  0
LINE
  5
D3BE
  8
1-中柱カバ-P
 10
19905.94116478298
 20
16803.055421421948
 30
0.0
 11
19905.94116478298
 21
16862.355421421951
 31
0.0
  0
ARC
  5
D3BF
  8
1-中柱カバ-P
 10
19900.94116478298
 20
16803.055421421948
 30
0.0
 40
5.0
 50
270.0
 51
0.000000000000007
  0
LINE
  5
D3C0
  8
1-中柱カバ-P
 10
19900.94116478298
 20
16868.955421421939
 30
0.0
 11
19829.141164782981
 21
16868.955421421939
 31
0.0
  0
ARC
  5
D3C1
  8
1-中柱カバ-P
 10
19829.141164782981
 20
16862.355421421951
 30
0.0
 40
6.599999999999997
 50
90.0
 51
180.0
  0
LINE
  5
D3C2
  8
1-中柱カバ-P
 10
19900.94116478298
 20
16867.355421421951
 30
0.0
 11
19829.141164782981
 21
16867.355421421951
 31
0.0
  0
ARC
  5
D3C3
  8
1-中柱カバ-P
 10
19829.141164782981
 20
16862.355421421951
 30
0.0
 40
5.0
 50
90.0
 51
180.0
  0
ARC
  5
D3C4
  8
1-中柱カバ-P
 10
19900.94116478298
 20
16862.355421421951
 30
0.0
 40
5.0
 50
0.000000000000007
 51
90.0
  0
LINE
  5
D3C5
  8
1-中柱カバ-P
 10
19822.54116478299
 20
16862.355421421951
 30
0.0
 11
19822.54116478299
 21
16803.055421421948
 31
0.0
  0
LINE
  5
D3C6
  8
1-中柱カバ-P
 10
19824.141164782981
 20
16862.355421421951
 30
0.0
 11
19824.141164782981
 21
16803.055421421948
 31
0.0
  0
ARC
  5
D3C7
  8
1-中柱カバ-P
 10
19829.141164782981
 20
16803.055421421948
 30
0.0
 40
5.0
 50
180.0
 51
270.0
  0
LINE
  5
D3C8
  8
1-中柱カバ-P
  6
1PL-M
 62
     6
 10
19865.04116478299
 20
16861.45542142195
 30
0.0
 11
19865.04116478299
 21
16874.455421421939
 31
0.0
  0
LINE
  5
D3C9
  8
1-中柱カバ-P
  6
HIDE-M
 62
     6
 10
19872.04116478299
 20
16868.955421421939
 30
0.0
 11
19872.04116478299
 21
16867.355421421951
 31
0.0
  0
LINE
  5
D3CA
  8
1-中柱カバ-P
  6
HIDE-M
 62
     6
 10
19858.04116478299
 20
16868.955421421939
 30
0.0
 11
19858.04116478299
 21
16867.355421421951
 31
0.0
  0
ARC
  5
D3CB
  8
1-中柱カバ-P
 10
19900.94116478298
 20
16803.055421421948
 30
0.0
 40
6.599999999999997
 50
270.0
 51
0.000000000000007
  0
ARC
  5
D3CC
  8
1-中柱カバ-P
 10
19829.141164782981
 20
16803.055421421948
 30
0.0
 40
6.599999999999997
 50
180.0
 51
270.0
  0
LINE
  5
D3CD
  8
1-中柱カバ-P
 10
19837.54116478299
 20
16796.455421421939
 30
0.0
 11
19829.141164782981
 21
16796.455421421939
 31
0.0
  0
LINE
  5
D3CE
  8
1-中柱カバ-P
 10
19892.54116478299
 20
16796.455421421939
 30
0.0
 11
19900.94116478298
 21
16796.455421421939
 31
0.0
  0
LINE
  5
D3CF
  8
1-中柱カバ-P
 10
19837.54116478299
 20
16798.055421421959
 30
0.0
 11
19829.141164782981
 21
16798.055421421959
 31
0.0
  0
LINE
  5
D3D0
  8
1-中柱カバ-P
 10
19892.54116478299
 20
16798.055421421959
 30
0.0
 11
19900.94116478298
 21
16798.055421421959
 31
0.0
  0
LINE
  5
D3D1
  8
1-中柱カバ-P
 10
19892.54116478299
 20
16798.055421421959
 30
0.0
 11
19892.54116478299
 21
16796.455421421939
 31
0.0
  0
LINE
  5
D3D2
  8
1-中柱カバ-P
 10
19837.54116478299
 20
16796.455421421939
 30
0.0
 11
19837.54116478299
 21
16798.055421421959
 31
0.0
  0
LINE
  5
D3D3
  8
1-中柱カバ-P
  6
HIDE-M
 62
     6
 10
19833.641164782981
 20
16817.455421421939
 30
0.0
 11
19822.04116478299
 21
16817.455421421939
 31
0.0
  0
LINE
  5
D3D4
  8
1-中柱カバ-P
  6
HIDE-M
 62
     6
 10
19833.641164782981
 20
16825.45542142195
 30
0.0
 11
19822.04116478299
 21
16825.45542142195
 31
0.0
  0
LINE
  5
D3D5
  8
1-中柱カバ-P
  6
HIDE-M
 62
     6
 10
19833.641164782981
 20
16818.455421421939
 30
0.0
 11
19822.04116478299
 21
16818.455421421939
 31
0.0
  0
LINE
  5
D3D6
  8
1-中柱カバ-P
  6
HIDE-M
 62
     6
 10
19833.641164782981
 20
16824.45542142195
 30
0.0
 11
19822.04116478299
 21
16824.45542142195
 31
0.0
  0
LINE
  5
D3D7
  8
1-中柱カバ-P
 10
19832.641164782981
 20
16826.955421421939
 30
0.0
 11
19825.641164782981
 21
16826.955421421939
 31
0.0
  0
LINE
  5
D3D8
  8
1-中柱カバ-P
 10
19825.641164782981
 20
16815.95542142195
 30
0.0
 11
19832.641164782981
 21
16815.95542142195
 31
0.0
  0
LINE
  5
D3D9
  8
1-中柱カバ-P
 10
19825.641164782981
 20
16815.20542142195
 30
0.0
 11
19825.641164782981
 21
16827.705421421939
 31
0.0
  0
LINE
  5
D3DA
  8
1-中柱カバ-P
 10
19822.04116478299
 20
16815.455421421939
 30
0.0
 11
19822.04116478299
 21
16827.45542142195
 31
0.0
  0
LINE
  5
D3DB
  8
1-中柱カバ-P
  6
HIDE-M
 62
     6
 10
19824.141164782981
 20
16826.955421421939
 30
0.0
 11
19822.54116478299
 21
16826.955421421939
 31
0.0
  0
LINE
  5
D3DC
  8
1-中柱カバ-P
 10
19822.04116478299
 20
16827.45542142195
 30
0.0
 11
19822.54116478299
 21
16826.955421421939
 31
0.0
  0
ARC
  5
D3DD
  8
1-中柱カバ-P
 10
19824.891164782981
 20
16827.705421421939
 30
0.0
 40
0.75
 50
0.000000000000007
 51
180.0
  0
LINE
  5
D3DE
  8
1-中柱カバ-P
  6
HIDE-M
 62
     6
 10
19822.54116478299
 20
16815.95542142195
 30
0.0
 11
19824.141164782981
 21
16815.95542142195
 31
0.0
  0
LINE
  5
D3DF
  8
1-中柱カバ-P
 10
19822.04116478299
 20
16815.455421421939
 30
0.0
 11
19822.54116478299
 21
16815.95542142195
 31
0.0
  0
ARC
  5
D3E0
  8
1-中柱カバ-P
 10
19824.891164782981
 20
16815.20542142195
 30
0.0
 40
0.75
 50
180.0
 51
0.000000000000007
  0
LINE
  5
D3E1
  8
1-中柱カバ-P
 10
19833.641164782981
 20
16816.95542142195
 30
0.0
 11
19833.641164782981
 21
16825.95542142195
 31
0.0
  0
ARC
  5
D3E2
  8
1-中柱カバ-P
 10
19832.641164782981
 20
16825.95542142195
 30
0.0
 40
1.0
 50
0.000000000000007
 51
90.0
  0
ARC
  5
D3E3
  8
1-中柱カバ-P
 10
19832.641164782981
 20
16816.95542142195
 30
0.0
 40
1.0
 50
270.0
 51
0.000000000000007
  0
LINE
  5
D3E4
  8
1-中柱カバ-P
  6
1PL-M
 62
     6
 10
19838.641164782981
 20
16821.45542142195
 30
0.0
 11
19817.04116478299
 21
16821.45542142195
 31
0.0
  0
LINE
  5
D3E5
  8
1-中柱カバ-P
 10
19832.641164782981
 20
16836.95542142195
 30
0.0
 11
19825.641164782981
 21
16836.95542142195
 31
0.0
  0
LINE
  5
D3E6
  8
1-中柱カバ-P
 10
19822.04116478299
 20
16829.45542142195
 30
0.0
 11
19822.04116478299
 21
16837.45542142195
 31
0.0
  0
LINE
  5
D3E7
  8
1-中柱カバ-P
  6
HIDE-M
 62
     6
 10
19824.141164782981
 20
16836.95542142195
 30
0.0
 11
19822.54116478299
 21
16836.95542142195
 31
0.0
  0
LINE
  5
D3E8
  8
1-中柱カバ-P
 10
19822.04116478299
 20
16837.45542142195
 30
0.0
 11
19822.54116478299
 21
16836.95542142195
 31
0.0
  0
ARC
  5
D3E9
  8
1-中柱カバ-P
 10
19824.891164782981
 20
16837.70542142195
 30
0.0
 40
0.75
 50
0.000000000000007
 51
180.0
  0
LINE
  5
D3EA
  8
1-中柱カバ-P
 10
19833.641164782981
 20
16827.955421421939
 30
0.0
 11
19833.641164782981
 21
16835.95542142195
 31
0.0
  0
ARC
  5
D3EB
  8
1-中柱カバ-P
 10
19832.641164782981
 20
16835.95542142195
 30
0.0
 40
1.0
 50
0.000000000000007
 51
90.0
  0
LINE
  5
D3EC
  8
1-中柱カバ-P
  6
1PL-M
 62
     6
 10
19838.641164782981
 20
16831.455421421939
 30
0.0
 11
19817.04116478299
 21
16831.455421421939
 31
0.0
  0
LINE
  5
D3ED
  8
1-中柱カバ-P
 10
19825.641164782981
 20
16829.70542142195
 30
0.0
 11
19825.641164782981
 21
16837.70542142195
 31
0.0
  0
LINE
  5
D3EE
  8
1-中柱カバ-P
  6
HIDE-M
 62
     6
 10
19896.44116478298
 20
16817.455421421939
 30
0.0
 11
19908.041164782979
 21
16817.455421421939
 31
0.0
  0
LINE
  5
D3EF
  8
1-中柱カバ-P
  6
HIDE-M
 62
     6
 10
19896.44116478298
 20
16825.45542142195
 30
0.0
 11
19908.041164782979
 21
16825.45542142195
 31
0.0
  0
LINE
  5
D3F0
  8
1-中柱カバ-P
  6
HIDE-M
 62
     6
 10
19896.44116478298
 20
16818.455421421939
 30
0.0
 11
19908.041164782979
 21
16818.455421421939
 31
0.0
  0
LINE
  5
D3F1
  8
1-中柱カバ-P
  6
HIDE-M
 62
     6
 10
19896.44116478298
 20
16824.45542142195
 30
0.0
 11
19908.041164782979
 21
16824.45542142195
 31
0.0
  0
LINE
  5
D3F2
  8
1-中柱カバ-P
 10
19897.44116478298
 20
16826.955421421939
 30
0.0
 11
19904.44116478298
 21
16826.955421421939
 31
0.0
  0
LINE
  5
D3F3
  8
1-中柱カバ-P
 10
19904.44116478298
 20
16815.95542142195
 30
0.0
 11
19897.44116478298
 21
16815.95542142195
 31
0.0
  0
LINE
  5
D3F4
  8
1-中柱カバ-P
 10
19904.44116478298
 20
16815.20542142195
 30
0.0
 11
19904.44116478298
 21
16827.705421421939
 31
0.0
  0
LINE
  5
D3F5
  8
1-中柱カバ-P
 10
19908.041164782979
 20
16815.455421421939
 30
0.0
 11
19908.041164782979
 21
16827.45542142195
 31
0.0
  0
LINE
  5
D3F6
  8
1-中柱カバ-P
  6
HIDE-M
 62
     6
 10
19905.94116478298
 20
16826.955421421939
 30
0.0
 11
19907.54116478299
 21
16826.955421421939
 31
0.0
  0
LINE
  5
D3F7
  8
1-中柱カバ-P
 10
19908.041164782979
 20
16827.45542142195
 30
0.0
 11
19907.54116478299
 21
16826.955421421939
 31
0.0
  0
ARC
  5
D3F8
  8
1-中柱カバ-P
 10
19905.19116478298
 20
16827.705421421939
 30
0.0
 40
0.75
 50
0.000000000000007
 51
180.0
  0
LINE
  5
D3F9
  8
1-中柱カバ-P
  6
HIDE-M
 62
     6
 10
19907.54116478299
 20
16815.95542142195
 30
0.0
 11
19905.94116478298
 21
16815.95542142195
 31
0.0
  0
LINE
  5
D3FA
  8
1-中柱カバ-P
 10
19908.041164782979
 20
16815.455421421939
 30
0.0
 11
19907.54116478299
 21
16815.95542142195
 31
0.0
  0
ARC
  5
D3FB
  8
1-中柱カバ-P
 10
19905.19116478298
 20
16815.20542142195
 30
0.0
 40
0.75
 50
180.0
 51
0.000000000000007
  0
LINE
  5
D3FC
  8
1-中柱カバ-P
 10
19896.44116478298
 20
16816.95542142195
 30
0.0
 11
19896.44116478298
 21
16825.95542142195
 31
0.0
  0
ARC
  5
D3FD
  8
1-中柱カバ-P
 10
19897.44116478298
 20
16825.95542142195
 30
0.0
 40
1.0
 50
90.0
 51
180.0
  0
ARC
  5
D3FE
  8
1-中柱カバ-P
 10
19897.44116478298
 20
16816.95542142195
 30
0.0
 40
1.0
 50
180.0
 51
270.0
  0
LINE
  5
D3FF
  8
1-中柱カバ-P
  6
1PL-M
 62
     6
 10
19891.44116478298
 20
16821.45542142195
 30
0.0
 11
19913.041164782979
 21
16821.45542142195
 31
0.0
  0
LINE
  5
D400
  8
1-中柱カバ-P
 10
19897.44116478298
 20
16836.95542142195
 30
0.0
 11
19904.44116478298
 21
16836.95542142195
 31
0.0
  0
LINE
  5
D401
  8
1-中柱カバ-P
 10
19908.041164782979
 20
16829.45542142195
 30
0.0
 11
19908.041164782979
 21
16837.45542142195
 31
0.0
  0
LINE
  5
D402
  8
1-中柱カバ-P
  6
HIDE-M
 62
     6
 10
19905.94116478298
 20
16836.95542142195
 30
0.0
 11
19907.54116478299
 21
16836.95542142195
 31
0.0
  0
LINE
  5
D403
  8
1-中柱カバ-P
 10
19908.041164782979
 20
16837.45542142195
 30
0.0
 11
19907.54116478299
 21
16836.95542142195
 31
0.0
  0
ARC
  5
D404
  8
1-中柱カバ-P
 10
19905.19116478298
 20
16837.70542142195
 30
0.0
 40
0.75
 50
0.000000000000007
 51
180.0
  0
LINE
  5
D405
  8
1-中柱カバ-P
 10
19896.44116478298
 20
16827.955421421939
 30
0.0
 11
19896.44116478298
 21
16835.95542142195
 31
0.0
  0
ARC
  5
D406
  8
1-中柱カバ-P
 10
19897.44116478298
 20
16835.95542142195
 30
0.0
 40
1.0
 50
90.0
 51
180.0
  0
LINE
  5
D407
  8
1-中柱カバ-P
  6
1PL-M
 62
     6
 10
19891.44116478298
 20
16831.455421421939
 30
0.0
 11
19913.041164782979
 21
16831.455421421939
 31
0.0
  0
LINE
  5
D408
  8
1-中柱カバ-P
 10
19904.44116478298
 20
16829.70542142195
 30
0.0
 11
19904.44116478298
 21
16837.70542142195
 31
0.0
  0
LINE
  5
D409
  8
1-中柱カバ-P
  6
HIDE-M
 62
     6
 10
19833.641164782981
 20
16835.455421421939
 30
0.0
 11
19822.04116478299
 21
16835.455421421939
 31
0.0
  0
LINE
  5
D40A
  8
1-中柱カバ-P
  6
HIDE-M
 62
     6
 10
19833.641164782981
 20
16834.455421421939
 30
0.0
 11
19822.04116478299
 21
16834.455421421939
 31
0.0
  0
LINE
  5
D40B
  8
1-中柱カバ-P
  6
HIDE-M
 62
     6
 10
19896.44116478298
 20
16835.455421421939
 30
0.0
 11
19908.041164782979
 21
16835.455421421939
 31
0.0
  0
LINE
  5
D40C
  8
1-中柱カバ-P
  6
HIDE-M
 62
     6
 10
19896.44116478298
 20
16834.455421421939
 30
0.0
 11
19908.041164782979
 21
16834.455421421939
 31
0.0
  0
ARC
  5
D40D
  8
1-前柱P
  6
HIDE-M
 62
     6
 10
19868.641164782981
 20
13596.35542142196
 30
0.0
 40
2.6000000000000001
 50
90.0
 51
180.0
  0
LINE
  5
D40E
  8
1-前柱P
  6
HIDE-M
 62
     6
 10
19857.041164782971
 20
13598.404811575139
 30
0.0
 11
19857.041164782971
 21
13594.75542142196
 31
0.0
  0
LINE
  5
D40F
  8
1-前柱P
  6
HIDE-M
 62
     6
 10
19867.041164782961
 20
13598.404811575139
 30
0.0
 11
19867.041164782961
 21
13594.75542142196
 31
0.0
  0
LINE
  5
D410
  8
1-前柱P
  6
1PL-M
 62
     6
 10
19862.041164782961
 20
13603.95542142195
 30
0.0
 11
19862.041164782961
 21
13589.755421421951
 31
0.0
  0
ARC
  5
D411
  8
1-前柱P
  6
HIDE-M
 62
     6
 10
19855.44116478298
 20
13596.35542142196
 30
0.0
 40
2.6000000000000001
 50
0.000000000000007
 51
90.0
  0
LINE
  5
D412
  8
1-前柱P
  6
HIDE-M
 62
     6
 10
19866.041164782961
 20
13596.35542142196
 30
0.0
 11
19866.041164782961
 21
13594.75542142196
 31
0.0
  0
LINE
  5
D413
  8
1-前柱P
  6
HIDE-M
 62
     6
 10
19858.041164782961
 20
13596.35542142196
 30
0.0
 11
19858.041164782961
 21
13594.75542142196
 31
0.0
  0
LINE
  5
D414
  8
1-前柱P
 10
19875.94116478298
 20
13484.055421421959
 30
0.0
 11
19854.141164782981
 21
13484.055421421959
 31
0.0
  0
LINE
  5
D415
  8
1-前柱P
 10
19824.141164782981
 20
13521.35542142196
 30
0.0
 11
19824.141164782981
 21
13514.055421421959
 31
0.0
  0
ARC
  5
D416
  8
1-前柱P
 10
19854.141164782981
 20
13514.055421421959
 30
0.0
 40
30.0
 50
180.0
 51
270.0
  0
ARC
  5
D417
  8
1-前柱P
 10
19854.141164782981
 20
13514.055421421959
 30
0.0
 40
31.600000000000001
 50
180.0
 51
270.0
  0
LINE
  5
D418
  8
1-前柱P
 10
19875.94116478298
 20
13482.45542142195
 30
0.0
 11
19854.141164782981
 21
13482.45542142195
 31
0.0
  0
LINE
  5
D419
  8
1-前柱P
 10
19822.541164782961
 20
13521.35542142196
 30
0.0
 11
19822.541164782961
 21
13514.055421421959
 31
0.0
  0
LINE
  5
D41A
  8
1-前柱P
 10
19845.541164782961
 20
13542.95542142195
 30
0.0
 11
19845.541164782961
 21
13532.95542142195
 31
0.0
  0
LINE
  5
D41B
  8
1-前柱P
 10
19847.141164782981
 20
13532.95542142195
 30
0.0
 11
19847.141164782981
 21
13542.95542142195
 31
0.0
  0
LINE
  5
D41C
  8
1-前柱P
 10
19905.94116478298
 20
13521.35542142196
 30
0.0
 11
19905.94116478298
 21
13514.055421421959
 31
0.0
  0
ARC
  5
D41D
  8
1-前柱P
 10
19875.94116478298
 20
13514.055421421959
 30
0.0
 40
30.0
 50
270.0
 51
0.000000000000007
  0
ARC
  5
D41E
  8
1-前柱P
 10
19875.94116478298
 20
13514.055421421959
 30
0.0
 40
31.600000000000001
 50
270.0
 51
0.000000000000007
  0
LINE
  5
D41F
  8
1-前柱P
 10
19907.541164782961
 20
13521.35542142196
 30
0.0
 11
19907.541164782961
 21
13514.055421421959
 31
0.0
  0
LINE
  5
D420
  8
1-前柱P
 10
19900.94116478298
 20
13527.95542142195
 30
0.0
 11
19889.541164782961
 21
13527.95542142195
 31
0.0
  0
ARC
  5
D421
  8
1-前柱P
 10
19900.94116478298
 20
13521.35542142196
 30
0.0
 40
6.599999999999997
 50
0.000000000000007
 51
90.0
  0
ARC
  5
D422
  8
1-前柱P
 10
19889.541164782961
 20
13532.95542142195
 30
0.0
 40
5.0
 50
180.0
 51
270.0
  0
LINE
  5
D423
  8
1-前柱P
 10
19900.94116478298
 20
13526.35542142196
 30
0.0
 11
19889.541164782961
 21
13526.35542142196
 31
0.0
  0
ARC
  5
D424
  8
1-前柱P
 10
19900.94116478298
 20
13521.35542142196
 30
0.0
 40
5.0
 50
0.000000000000007
 51
90.0
  0
LINE
  5
D425
  8
1-前柱P
 10
19884.541164782961
 20
13532.95542142195
 30
0.0
 11
19884.541164782961
 21
13592.355421421949
 31
0.0
  0
LINE
  5
D426
  8
1-前柱P
 10
19882.94116478298
 20
13532.95542142195
 30
0.0
 11
19882.94116478298
 21
13592.355421421949
 31
0.0
  0
ARC
  5
D427
  8
1-前柱P
 10
19889.541164782961
 20
13532.95542142195
 30
0.0
 40
6.599999999999997
 50
180.0
 51
270.0
  0
LINE
  5
D428
  8
1-前柱P
 10
19877.94116478298
 20
13598.95542142195
 30
0.0
 11
19844.541164782961
 21
13598.95542142195
 31
0.0
  0
ARC
  5
D429
  8
1-前柱P
 10
19877.94116478298
 20
13592.355421421949
 30
0.0
 40
6.599999999999997
 50
0.000000000000007
 51
90.0
  0
LINE
  5
D42A
  8
1-前柱P
 10
19877.94116478298
 20
13597.35542142196
 30
0.0
 11
19844.541164782961
 21
13597.35542142196
 31
0.0
  0
ARC
  5
D42B
  8
1-前柱P
 10
19877.94116478298
 20
13592.355421421949
 30
0.0
 40
5.0
 50
0.000000000000007
 51
90.0
  0
LINE
  5
D42C
  8
1-前柱P
 10
19844.541164782961
 20
13597.35542142196
 30
0.0
 11
19844.541164782961
 21
13598.95542142195
 31
0.0
  0
LINE
  5
D42D
  8
1-前柱P
 10
19829.141164782981
 20
13527.95542142195
 30
0.0
 11
19840.541164782961
 21
13527.95542142195
 31
0.0
  0
ARC
  5
D42E
  8
1-前柱P
 10
19829.141164782981
 20
13521.35542142196
 30
0.0
 40
6.599999999999997
 50
90.0
 51
180.0
  0
ARC
  5
D42F
  8
1-前柱P
 10
19840.541164782961
 20
13532.95542142195
 30
0.0
 40
5.0
 50
270.0
 51
0.000000000000007
  0
LINE
  5
D430
  8
1-前柱P
 10
19840.541164782961
 20
13526.35542142196
 30
0.0
 11
19829.141164782981
 21
13526.35542142196
 31
0.0
  0
ARC
  5
D431
  8
1-前柱P
 10
19840.541164782961
 20
13532.95542142195
 30
0.0
 40
6.599999999999997
 50
270.0
 51
0.000000000000007
  0
ARC
  5
D432
  8
1-前柱P
 10
19829.141164782981
 20
13521.35542142196
 30
0.0
 40
5.0
 50
90.0
 51
180.0
  0
LINE
  5
D433
  8
1-前柱P
 10
19845.541164782961
 20
13542.95542142195
 30
0.0
 11
19847.141164782981
 21
13542.95542142195
 31
0.0
  0
LINE
  5
D434
  8
1-前柱カバ-P
 10
19822.541164782961
 20
13534.65542142195
 30
0.0
 11
19822.541164782961
 21
13593.95542142195
 31
0.0
  0
ARC
  5
D435
  8
1-前柱カバ-P
 10
19829.141164782981
 20
13593.95542142195
 30
0.0
 40
6.599999999999997
 50
90.0
 51
180.0
  0
LINE
  5
D436
  8
1-前柱カバ-P
 10
19824.141164782981
 20
13534.65542142195
 30
0.0
 11
19824.141164782981
 21
13593.95542142195
 31
0.0
  0
ARC
  5
D437
  8
1-前柱カバ-P
 10
19829.141164782981
 20
13534.65542142195
 30
0.0
 40
5.0
 50
180.0
 51
270.0
  0
LINE
  5
D438
  8
1-前柱カバ-P
 10
19829.141164782981
 20
13600.555421421959
 30
0.0
 11
19900.94116478298
 21
13600.555421421959
 31
0.0
  0
ARC
  5
D439
  8
1-前柱カバ-P
 10
19900.94116478298
 20
13593.95542142195
 30
0.0
 40
6.599999999999997
 50
0.000000000000007
 51
90.0
  0
LINE
  5
D43A
  8
1-前柱カバ-P
 10
19829.141164782981
 20
13598.95542142195
 30
0.0
 11
19900.94116478298
 21
13598.95542142195
 31
0.0
  0
ARC
  5
D43B
  8
1-前柱カバ-P
 10
19900.94116478298
 20
13593.95542142195
 30
0.0
 40
5.0
 50
0.000000000000007
 51
90.0
  0
ARC
  5
D43C
  8
1-前柱カバ-P
 10
19829.141164782981
 20
13593.95542142195
 30
0.0
 40
5.0
 50
90.0
 51
180.0
  0
LINE
  5
D43D
  8
1-前柱カバ-P
 10
19907.541164782961
 20
13593.95542142195
 30
0.0
 11
19907.541164782961
 21
13534.65542142195
 31
0.0
  0
LINE
  5
D43E
  8
1-前柱カバ-P
 10
19905.94116478298
 20
13593.95542142195
 30
0.0
 11
19905.94116478298
 21
13534.65542142195
 31
0.0
  0
ARC
  5
D43F
  8
1-前柱カバ-P
 10
19900.94116478298
 20
13534.65542142195
 30
0.0
 40
5.0
 50
270.0
 51
0.000000000000007
  0
LINE
  5
D440
  8
1-前柱カバ-P
  6
1PL-M
 62
     6
 10
19865.041164782961
 20
13593.055421421959
 30
0.0
 11
19865.041164782961
 21
13606.055421421959
 31
0.0
  0
LINE
  5
D441
  8
1-前柱カバ-P
  6
HIDE-M
 62
     6
 10
19858.041164782961
 20
13600.555421421959
 30
0.0
 11
19858.041164782961
 21
13598.95542142195
 31
0.0
  0
LINE
  5
D442
  8
1-前柱カバ-P
  6
HIDE-M
 62
     6
 10
19872.041164782971
 20
13600.555421421959
 30
0.0
 11
19872.041164782971
 21
13598.95542142195
 31
0.0
  0
ARC
  5
D443
  8
1-前柱カバ-P
 10
19829.141164782981
 20
13534.65542142195
 30
0.0
 40
6.599999999999997
 50
180.0
 51
270.0
  0
ARC
  5
D444
  8
1-前柱カバ-P
 10
19900.94116478298
 20
13534.65542142195
 30
0.0
 40
6.599999999999997
 50
270.0
 51
0.000000000000007
  0
LINE
  5
D445
  8
1-前柱カバ-P
 10
19892.541164782961
 20
13528.055421421959
 30
0.0
 11
19900.94116478298
 21
13528.055421421959
 31
0.0
  0
LINE
  5
D446
  8
1-前柱カバ-P
 10
19837.541164782961
 20
13528.055421421959
 30
0.0
 11
19829.141164782981
 21
13528.055421421959
 31
0.0
  0
LINE
  5
D447
  8
1-前柱カバ-P
 10
19892.541164782961
 20
13529.65542142195
 30
0.0
 11
19900.94116478298
 21
13529.65542142195
 31
0.0
  0
LINE
  5
D448
  8
1-前柱カバ-P
 10
19837.541164782961
 20
13529.65542142195
 30
0.0
 11
19829.141164782981
 21
13529.65542142195
 31
0.0
  0
LINE
  5
D449
  8
1-前柱カバ-P
 10
19837.541164782961
 20
13529.65542142195
 30
0.0
 11
19837.541164782961
 21
13528.055421421959
 31
0.0
  0
LINE
  5
D44A
  8
1-前柱カバ-P
 10
19892.541164782961
 20
13528.055421421959
 30
0.0
 11
19892.541164782961
 21
13529.65542142195
 31
0.0
  0
LINE
  5
D44B
  8
1-前柱カバ-P
  6
HIDE-M
 62
     6
 10
19896.44116478298
 20
13549.055421421959
 30
0.0
 11
19908.041164782961
 21
13549.055421421959
 31
0.0
  0
LINE
  5
D44C
  8
1-前柱カバ-P
  6
HIDE-M
 62
     6
 10
19896.44116478298
 20
13557.055421421959
 30
0.0
 11
19908.041164782961
 21
13557.055421421959
 31
0.0
  0
LINE
  5
D44D
  8
1-前柱カバ-P
  6
HIDE-M
 62
     6
 10
19896.44116478298
 20
13550.055421421959
 30
0.0
 11
19908.041164782961
 21
13550.055421421959
 31
0.0
  0
LINE
  5
D44E
  8
1-前柱カバ-P
  6
HIDE-M
 62
     6
 10
19896.44116478298
 20
13556.055421421959
 30
0.0
 11
19908.041164782961
 21
13556.055421421959
 31
0.0
  0
LINE
  5
D44F
  8
1-前柱カバ-P
 10
19897.44116478298
 20
13558.555421421959
 30
0.0
 11
19904.44116478298
 21
13558.555421421959
 31
0.0
  0
LINE
  5
D450
  8
1-前柱カバ-P
 10
19904.44116478298
 20
13547.555421421959
 30
0.0
 11
19897.44116478298
 21
13547.555421421959
 31
0.0
  0
LINE
  5
D451
  8
1-前柱カバ-P
 10
19904.44116478298
 20
13546.805421421959
 30
0.0
 11
19904.44116478298
 21
13559.305421421959
 31
0.0
  0
LINE
  5
D452
  8
1-前柱カバ-P
 10
19908.041164782961
 20
13547.055421421959
 30
0.0
 11
19908.041164782961
 21
13559.055421421959
 31
0.0
  0
LINE
  5
D453
  8
1-前柱カバ-P
  6
HIDE-M
 62
     6
 10
19905.94116478298
 20
13558.555421421959
 30
0.0
 11
19907.541164782961
 21
13558.555421421959
 31
0.0
  0
LINE
  5
D454
  8
1-前柱カバ-P
 10
19908.041164782961
 20
13559.055421421959
 30
0.0
 11
19907.541164782961
 21
13558.555421421959
 31
0.0
  0
ARC
  5
D455
  8
1-前柱カバ-P
 10
19905.19116478298
 20
13559.305421421959
 30
0.0
 40
0.75
 50
0.000000000000007
 51
180.0
  0
LINE
  5
D456
  8
1-前柱カバ-P
  6
HIDE-M
 62
     6
 10
19907.541164782961
 20
13547.555421421959
 30
0.0
 11
19905.94116478298
 21
13547.555421421959
 31
0.0
  0
LINE
  5
D457
  8
1-前柱カバ-P
 10
19908.041164782961
 20
13547.055421421959
 30
0.0
 11
19907.541164782961
 21
13547.555421421959
 31
0.0
  0
ARC
  5
D458
  8
1-前柱カバ-P
 10
19905.19116478298
 20
13546.805421421959
 30
0.0
 40
0.75
 50
180.0
 51
0.000000000000007
  0
LINE
  5
D459
  8
1-前柱カバ-P
 10
19896.44116478298
 20
13548.555421421959
 30
0.0
 11
19896.44116478298
 21
13557.555421421959
 31
0.0
  0
ARC
  5
D45A
  8
1-前柱カバ-P
 10
19897.44116478298
 20
13557.555421421959
 30
0.0
 40
1.0
 50
90.0
 51
180.0
  0
ARC
  5
D45B
  8
1-前柱カバ-P
 10
19897.44116478298
 20
13548.555421421959
 30
0.0
 40
1.0
 50
180.0
 51
270.0
  0
LINE
  5
D45C
  8
1-前柱カバ-P
  6
1PL-M
 62
     6
 10
19891.44116478298
 20
13553.055421421959
 30
0.0
 11
19913.041164782961
 21
13553.055421421959
 31
0.0
  0
LINE
  5
D45D
  8
1-前柱カバ-P
 10
19897.44116478298
 20
13568.555421421959
 30
0.0
 11
19904.44116478298
 21
13568.555421421959
 31
0.0
  0
LINE
  5
D45E
  8
1-前柱カバ-P
 10
19908.041164782961
 20
13561.055421421959
 30
0.0
 11
19908.041164782961
 21
13569.055421421959
 31
0.0
  0
LINE
  5
D45F
  8
1-前柱カバ-P
  6
HIDE-M
 62
     6
 10
19905.94116478298
 20
13568.555421421959
 30
0.0
 11
19907.541164782961
 21
13568.555421421959
 31
0.0
  0
LINE
  5
D460
  8
1-前柱カバ-P
 10
19908.041164782961
 20
13569.055421421959
 30
0.0
 11
19907.541164782961
 21
13568.555421421959
 31
0.0
  0
ARC
  5
D461
  8
1-前柱カバ-P
 10
19905.19116478298
 20
13569.305421421959
 30
0.0
 40
0.75
 50
0.000000000000007
 51
180.0
  0
LINE
  5
D462
  8
1-前柱カバ-P
 10
19896.44116478298
 20
13559.555421421959
 30
0.0
 11
19896.44116478298
 21
13567.555421421959
 31
0.0
  0
ARC
  5
D463
  8
1-前柱カバ-P
 10
19897.44116478298
 20
13567.555421421959
 30
0.0
 40
1.0
 50
90.0
 51
180.0
  0
LINE
  5
D464
  8
1-前柱カバ-P
  6
1PL-M
 62
     6
 10
19891.44116478298
 20
13563.055421421959
 30
0.0
 11
19913.041164782961
 21
13563.055421421959
 31
0.0
  0
LINE
  5
D465
  8
1-前柱カバ-P
 10
19904.44116478298
 20
13561.305421421959
 30
0.0
 11
19904.44116478298
 21
13569.305421421959
 31
0.0
  0
LINE
  5
D466
  8
1-前柱カバ-P
  6
HIDE-M
 62
     6
 10
19833.641164782981
 20
13549.055421421959
 30
0.0
 11
19822.041164782961
 21
13549.055421421959
 31
0.0
  0
LINE
  5
D467
  8
1-前柱カバ-P
  6
HIDE-M
 62
     6
 10
19833.641164782981
 20
13557.055421421959
 30
0.0
 11
19822.041164782961
 21
13557.055421421959
 31
0.0
  0
LINE
  5
D468
  8
1-前柱カバ-P
  6
HIDE-M
 62
     6
 10
19833.641164782981
 20
13550.055421421959
 30
0.0
 11
19822.041164782961
 21
13550.055421421959
 31
0.0
  0
LINE
  5
D469
  8
1-前柱カバ-P
  6
HIDE-M
 62
     6
 10
19833.641164782981
 20
13556.055421421959
 30
0.0
 11
19822.041164782961
 21
13556.055421421959
 31
0.0
  0
LINE
  5
D46A
  8
1-前柱カバ-P
 10
19832.641164782981
 20
13558.555421421959
 30
0.0
 11
19825.641164782981
 21
13558.555421421959
 31
0.0
  0
LINE
  5
D46B
  8
1-前柱カバ-P
 10
19825.641164782981
 20
13547.555421421959
 30
0.0
 11
19832.641164782981
 21
13547.555421421959
 31
0.0
  0
LINE
  5
D46C
  8
1-前柱カバ-P
 10
19825.641164782981
 20
13546.805421421959
 30
0.0
 11
19825.641164782981
 21
13559.305421421959
 31
0.0
  0
LINE
  5
D46D
  8
1-前柱カバ-P
 10
19822.041164782961
 20
13547.055421421959
 30
0.0
 11
19822.041164782961
 21
13559.055421421959
 31
0.0
  0
LINE
  5
D46E
  8
1-前柱カバ-P
  6
HIDE-M
 62
     6
 10
19824.141164782981
 20
13558.555421421959
 30
0.0
 11
19822.541164782961
 21
13558.555421421959
 31
0.0
  0
LINE
  5
D46F
  8
1-前柱カバ-P
 10
19822.041164782961
 20
13559.055421421959
 30
0.0
 11
19822.541164782961
 21
13558.555421421959
 31
0.0
  0
ARC
  5
D470
  8
1-前柱カバ-P
 10
19824.891164782981
 20
13559.305421421959
 30
0.0
 40
0.75
 50
0.000000000000007
 51
180.0
  0
LINE
  5
D471
  8
1-前柱カバ-P
  6
HIDE-M
 62
     6
 10
19822.541164782961
 20
13547.555421421959
 30
0.0
 11
19824.141164782981
 21
13547.555421421959
 31
0.0
  0
LINE
  5
D472
  8
1-前柱カバ-P
 10
19822.041164782961
 20
13547.055421421959
 30
0.0
 11
19822.541164782961
 21
13547.555421421959
 31
0.0
  0
ARC
  5
D473
  8
1-前柱カバ-P
 10
19824.891164782981
 20
13546.805421421959
 30
0.0
 40
0.75
 50
180.0
 51
0.000000000000007
  0
LINE
  5
D474
  8
1-前柱カバ-P
 10
19833.641164782981
 20
13548.555421421959
 30
0.0
 11
19833.641164782981
 21
13557.555421421959
 31
0.0
  0
ARC
  5
D475
  8
1-前柱カバ-P
 10
19832.641164782981
 20
13557.555421421959
 30
0.0
 40
1.0
 50
0.000000000000007
 51
90.0
  0
ARC
  5
D476
  8
1-前柱カバ-P
 10
19832.641164782981
 20
13548.555421421959
 30
0.0
 40
1.0
 50
270.0
 51
0.000000000000007
  0
LINE
  5
D477
  8
1-前柱カバ-P
  6
1PL-M
 62
     6
 10
19838.641164782981
 20
13553.055421421959
 30
0.0
 11
19817.041164782961
 21
13553.055421421959
 31
0.0
  0
LINE
  5
D478
  8
1-前柱カバ-P
 10
19832.641164782981
 20
13568.555421421959
 30
0.0
 11
19825.641164782981
 21
13568.555421421959
 31
0.0
  0
LINE
  5
D479
  8
1-前柱カバ-P
 10
19822.041164782961
 20
13561.055421421959
 30
0.0
 11
19822.041164782961
 21
13569.055421421959
 31
0.0
  0
LINE
  5
D47A
  8
1-前柱カバ-P
  6
HIDE-M
 62
     6
 10
19824.141164782981
 20
13568.555421421959
 30
0.0
 11
19822.541164782961
 21
13568.555421421959
 31
0.0
  0
LINE
  5
D47B
  8
1-前柱カバ-P
 10
19822.041164782961
 20
13569.055421421959
 30
0.0
 11
19822.541164782961
 21
13568.555421421959
 31
0.0
  0
ARC
  5
D47C
  8
1-前柱カバ-P
 10
19824.891164782981
 20
13569.305421421959
 30
0.0
 40
0.75
 50
0.000000000000007
 51
180.0
  0
LINE
  5
D47D
  8
1-前柱カバ-P
 10
19833.641164782981
 20
13559.555421421959
 30
0.0
 11
19833.641164782981
 21
13567.555421421959
 31
0.0
  0
ARC
  5
D47E
  8
1-前柱カバ-P
 10
19832.641164782981
 20
13567.555421421959
 30
0.0
 40
1.0
 50
0.000000000000007
 51
90.0
  0
LINE
  5
D47F
  8
1-前柱カバ-P
  6
1PL-M
 62
     6
 10
19838.641164782981
 20
13563.055421421959
 30
0.0
 11
19817.041164782961
 21
13563.055421421959
 31
0.0
  0
LINE
  5
D480
  8
1-前柱カバ-P
 10
19825.641164782981
 20
13561.305421421959
 30
0.0
 11
19825.641164782981
 21
13569.305421421959
 31
0.0
  0
LINE
  5
D481
  8
1-前柱カバ-P
  6
HIDE-M
 62
     6
 10
19896.44116478298
 20
13567.055421421959
 30
0.0
 11
19908.041164782961
 21
13567.055421421959
 31
0.0
  0
LINE
  5
D482
  8
1-前柱カバ-P
  6
HIDE-M
 62
     6
 10
19896.44116478298
 20
13566.055421421959
 30
0.0
 11
19908.041164782961
 21
13566.055421421959
 31
0.0
  0
LINE
  5
D483
  8
1-前柱カバ-P
  6
HIDE-M
 62
     6
 10
19833.641164782981
 20
13567.055421421959
 30
0.0
 11
19822.041164782961
 21
13567.055421421959
 31
0.0
  0
LINE
  5
D484
  8
1-前柱カバ-P
  6
HIDE-M
 62
     6
 10
19833.641164782981
 20
13566.055421421959
 30
0.0
 11
19822.041164782961
 21
13566.055421421959
 31
0.0
  0
LINE
  5
D489
  8
0-1
  6
CONTINUOUS
 62
     3
 10
25891.044859782982
 20
8178.6575434219612
 30
0.0
 11
22707.541428782999
 21
8178.6575434219612
 31
0.0
  0
LINE
  5
D48A
  8
0-1
  6
CONTINUOUS
 62
     3
 10
25891.044859782982
 20
8371.6579124219625
 30
0.0
 11
22707.541428782999
 21
8371.6579124219625
 31
0.0
  0
LINE
  5
D48B
  8
0-1
  6
CONTINUOUS
 62
     3
 10
26019.04116478299
 20
8309.4718314219554
 30
0.0
 11
26019.04116478299
 21
8635.1575694219555
 31
0.0
  0
LINE
  5
D48C
  8
0-1
  6
CONTINUOUS
 62
     3
 10
22622.542879782999
 20
8505.1576354219578
 30
0.0
 11
26019.04116478299
 21
8505.1576354219578
 31
0.0
  0
LINE
  5
D48D
  8
0-1
  6
CONTINUOUS
 62
     3
 10
26019.04116478299
 20
8635.1575694219555
 30
0.0
 11
22642.539976782999
 21
8635.1575694219555
 31
0.0
  0
LINE
  5
D48E
  8
0-1
  6
CONTINUOUS
 62
     3
 10
13175.88937040959
 20
6337.157708421958
 30
0.0
 11
13175.88937040959
 21
8198.2035874219546
 31
0.0
  0
LINE
  5
D48F
  8
0-1
  6
CONTINUOUS
 62
     3
 10
13155.8883144096
 20
6337.157708421958
 30
0.0
 11
13155.8883144096
 21
8198.2035874219546
 31
0.0
  0
LINE
  5
D490
  8
0-1
  6
CONTINUOUS
 62
     3
 10
13225.88904040958
 20
6337.157708421958
 30
0.0
 11
13225.88904040958
 21
8198.2035874219546
 31
0.0
  0
LINE
  5
D491
  8
0-1
  6
CONTINUOUS
 62
     3
 10
13105.88963440957
 20
6337.157708421958
 30
0.0
 11
13105.88963440957
 21
8198.2035874219546
 31
0.0
  0
LINE
  5
D492
  8
0-1
  6
CONTINUOUS
 62
     3
 10
12972.8887504096
 20
6337.157708421958
 30
0.0
 11
12972.8887504096
 21
8198.2035874219546
 31
0.0
  0
LINE
  5
D493
  8
0-1
  6
CONTINUOUS
 62
     3
 10
12957.888948409571
 20
6337.157708421958
 30
0.0
 11
12957.888948409571
 21
8198.2035874219546
 31
0.0
  0
LINE
  5
D494
  8
0-1
  6
CONTINUOUS
 62
     3
 10
13358.888935409581
 20
6337.157708421958
 30
0.0
 11
13358.888935409581
 21
8198.2035874219546
 31
0.0
  0
LINE
  5
D495
  8
0-1
  6
CONTINUOUS
 62
     3
 10
13373.88873740959
 20
6337.157708421958
 30
0.0
 11
13373.88873740959
 21
8198.2035874219546
 31
0.0
  0
LINE
  5
D496
  8
0-1
  6
CONTINUOUS
 62
     3
 10
12097.389251409581
 20
8198.2035874219546
 30
0.0
 11
12097.389251409581
 21
6337.157708421958
 31
0.0
  0
LINE
  5
D497
  8
0-1
  6
CONTINUOUS
 62
     3
 10
12134.387443409591
 20
8198.2035874219546
 30
0.0
 11
12134.387443409591
 21
6337.157708421958
 31
0.0
  0
LINE
  5
D498
  8
0-1
  6
CONTINUOUS
 62
     3
 10
12797.38859240959
 20
8198.2035874219546
 30
0.0
 11
12797.38859240959
 21
6337.157708421958
 31
0.0
  0
LINE
  5
D499
  8
0-1
  6
CONTINUOUS
 62
     3
 10
12834.38876340959
 20
8198.2035874219546
 30
0.0
 11
12834.38876340959
 21
6337.157708421958
 31
0.0
  0
LINE
  5
D49A
  8
0-1
  6
CONTINUOUS
 62
     3
 10
11397.3899114096
 20
8198.2035874219546
 30
0.0
 11
11397.3899114096
 21
6337.157708421958
 31
0.0
  0
LINE
  5
D49B
  8
0-1
  6
CONTINUOUS
 62
     3
 10
11434.388103409599
 20
8198.2035874219546
 30
0.0
 11
11434.388103409599
 21
6337.157708421958
 31
0.0
  0
LINE
  5
D49C
  8
0-1
  6
CONTINUOUS
 62
     3
 10
11775.8897004096
 20
6337.157708421958
 30
0.0
 11
11775.8897004096
 21
8198.2035874219546
 31
0.0
  0
LINE
  5
D49D
  8
0-1
  6
CONTINUOUS
 62
     3
 10
11755.888644409581
 20
6337.157708421958
 30
0.0
 11
11755.888644409581
 21
8198.2035874219546
 31
0.0
  0
LINE
  5
D49E
  8
0-1
  6
CONTINUOUS
 62
     3
 10
11825.88838040958
 20
6337.157708421958
 30
0.0
 11
11825.88838040958
 21
8198.2035874219546
 31
0.0
  0
LINE
  5
D49F
  8
0-1
  6
CONTINUOUS
 62
     3
 10
11705.88897440959
 20
6337.157708421958
 30
0.0
 11
11705.88897440959
 21
8198.2035874219546
 31
0.0
  0
LINE
  5
D4A0
  8
0-1
  6
CONTINUOUS
 62
     3
 10
11572.88908040959
 20
6337.157708421958
 30
0.0
 11
11572.88908040959
 21
8198.2035874219546
 31
0.0
  0
LINE
  5
D4A1
  8
0-1
  6
CONTINUOUS
 62
     3
 10
11557.889278409581
 20
6337.157708421958
 30
0.0
 11
11557.889278409581
 21
8198.2035874219546
 31
0.0
  0
LINE
  5
D4A2
  8
0-1
  6
CONTINUOUS
 62
     3
 10
11958.8892654096
 20
6337.157708421958
 30
0.0
 11
11958.8892654096
 21
8198.2035874219546
 31
0.0
  0
LINE
  5
D4A3
  8
0-1
  6
CONTINUOUS
 62
     3
 10
11973.888077409591
 20
6337.157708421958
 30
0.0
 11
11973.888077409591
 21
8198.2035874219546
 31
0.0
  0
LINE
  5
D4A4
  8
0-1
  6
CONTINUOUS
 62
     3
 10
12673.889397409581
 20
6337.157708421958
 30
0.0
 11
12673.889397409581
 21
8198.2035874219546
 31
0.0
  0
LINE
  5
D4A5
  8
0-1
  6
CONTINUOUS
 62
     3
 10
12658.8886054096
 20
6337.157708421958
 30
0.0
 11
12658.8886054096
 21
8198.2035874219546
 31
0.0
  0
LINE
  5
D4A6
  8
0-1
  6
CONTINUOUS
 62
     3
 10
12257.88861840959
 20
6337.157708421958
 30
0.0
 11
12257.88861840959
 21
8198.2035874219546
 31
0.0
  0
LINE
  5
D4A7
  8
0-1
  6
CONTINUOUS
 62
     3
 10
12272.889410409591
 20
6337.157708421958
 30
0.0
 11
12272.889410409591
 21
8198.2035874219546
 31
0.0
  0
LINE
  5
D4A8
  8
0-1
  6
CONTINUOUS
 62
     3
 10
12405.8883144096
 20
6337.157708421958
 30
0.0
 11
12405.8883144096
 21
8198.2035874219546
 31
0.0
  0
LINE
  5
D4A9
  8
0-1
  6
CONTINUOUS
 62
     3
 10
12525.889700409591
 20
6337.157708421958
 30
0.0
 11
12525.889700409591
 21
8198.2035874219546
 31
0.0
  0
LINE
  5
D4AA
  8
0-1
  6
CONTINUOUS
 62
     3
 10
12455.886995409581
 20
6337.157708421958
 30
0.0
 11
12455.886995409581
 21
8198.2035874219546
 31
0.0
  0
LINE
  5
D4AB
  8
0-1
  6
CONTINUOUS
 62
     3
 10
12475.88805040958
 20
6337.157708421958
 30
0.0
 11
12475.88805040958
 21
8198.2035874219546
 31
0.0
  0
LINE
  5
D4AC
  8
0-1
  6
CONTINUOUS
 62
     3
 10
11273.889726409599
 20
6337.157708421958
 30
0.0
 11
11273.889726409599
 21
8198.2035874219546
 31
0.0
  0
LINE
  5
D4AD
  8
0-1
  6
CONTINUOUS
 62
     3
 10
11258.88893540959
 20
6337.157708421958
 30
0.0
 11
11258.88893540959
 21
8198.2035874219546
 31
0.0
  0
LINE
  5
D4AE
  8
0-1
  6
CONTINUOUS
 62
     3
 10
11125.88805040958
 20
6337.157708421958
 30
0.0
 11
11125.88805040958
 21
8198.2035874219546
 31
0.0
  0
LINE
  5
D4AF
  8
0-1
  6
CONTINUOUS
 62
     3
 10
10857.888948409571
 20
6337.157708421958
 30
0.0
 11
10857.888948409571
 21
8198.2035874219546
 31
0.0
  0
LINE
  5
D4B0
  8
0-1
  6
CONTINUOUS
 62
     3
 10
10872.887760409591
 20
6337.157708421958
 30
0.0
 11
10872.887760409591
 21
8198.2035874219546
 31
0.0
  0
LINE
  5
D4B1
  8
0-1
  6
CONTINUOUS
 62
     3
 10
11005.88864440959
 20
6337.157708421958
 30
0.0
 11
11005.88864440959
 21
8198.2035874219546
 31
0.0
  0
LINE
  5
D4B2
  8
0-1
  6
CONTINUOUS
 62
     3
 10
11055.8883144096
 20
6337.157708421958
 30
0.0
 11
11055.8883144096
 21
8198.2035874219546
 31
0.0
  0
LINE
  5
D4B3
  8
0-1
  6
CONTINUOUS
 62
     3
 10
11075.88739140958
 20
6337.157708421958
 30
0.0
 11
11075.88739140958
 21
8198.2035874219546
 31
0.0
  0
LINE
  5
D4B4
  8
0-1
  6
CONTINUOUS
 62
     3
 10
10247.888420409579
 20
6337.157708421958
 30
0.0
 11
10247.888420409579
 21
8198.2035874219546
 31
0.0
  0
LINE
  5
D4B5
  8
0-1
  6
CONTINUOUS
 62
     3
 10
10267.88749640959
 20
6337.157708421958
 30
0.0
 11
10267.88749640959
 21
8198.2035874219546
 31
0.0
  0
LINE
  5
D4B6
  8
0-1
  6
CONTINUOUS
 62
     3
 10
10197.8877604096
 20
6337.157708421958
 30
0.0
 11
10197.8877604096
 21
8198.2035874219546
 31
0.0
  0
LINE
  5
D4B7
  8
0-1
  6
CONTINUOUS
 62
     3
 10
10317.88815640959
 20
6337.157708421958
 30
0.0
 11
10317.88815640959
 21
8198.2035874219546
 31
0.0
  0
LINE
  5
D4B8
  8
0-1
  6
CONTINUOUS
 62
     3
 10
10450.888050409591
 20
6337.157708421958
 30
0.0
 11
10450.888050409591
 21
8198.2035874219546
 31
0.0
  0
LINE
  5
D4B9
  8
0-1
  6
CONTINUOUS
 62
     3
 10
10465.889832409601
 20
6337.157708421958
 30
0.0
 11
10465.889832409601
 21
8198.2035874219546
 31
0.0
  0
LINE
  5
D4BA
  8
0-1
  6
CONTINUOUS
 62
     3
 10
10064.88786640959
 20
6337.157708421958
 30
0.0
 11
10064.88786640959
 21
8198.2035874219546
 31
0.0
  0
LINE
  5
D4BB
  8
0-1
  6
CONTINUOUS
 62
     3
 10
10049.889053409581
 20
6337.157708421958
 30
0.0
 11
10049.889053409581
 21
8198.2035874219546
 31
0.0
  0
LINE
  5
D4BC
  8
0-1
  6
CONTINUOUS
 62
     3
 10
7949.8890534095908
 20
6337.157708421958
 30
0.0
 11
7949.8890534095908
 21
8198.2035874219546
 31
0.0
  0
LINE
  5
D4BD
  8
0-1
  6
CONTINUOUS
 62
     3
 10
7964.8878664095919
 20
6337.157708421958
 30
0.0
 11
7964.8878664095919
 21
8198.2035874219546
 31
0.0
  0
LINE
  5
D4BE
  8
0-1
  6
CONTINUOUS
 62
     3
 10
8365.8888424096058
 20
6337.157708421958
 30
0.0
 11
8365.8888424096058
 21
8198.2035874219546
 31
0.0
  0
LINE
  5
D4BF
  8
0-1
  6
CONTINUOUS
 62
     3
 10
8350.8890404095891
 20
6337.157708421958
 30
0.0
 11
8350.8890404095891
 21
8198.2035874219546
 31
0.0
  0
LINE
  5
D4C0
  8
0-1
  6
CONTINUOUS
 62
     3
 10
8217.8881564095936
 20
6337.157708421958
 30
0.0
 11
8217.8881564095936
 21
8198.2035874219546
 31
0.0
  0
LINE
  5
D4C1
  8
0-1
  6
CONTINUOUS
 62
     3
 10
8097.888750409591
 20
6337.157708421958
 30
0.0
 11
8097.888750409591
 21
8198.2035874219546
 31
0.0
  0
LINE
  5
D4C2
  8
0-1
  6
CONTINUOUS
 62
     3
 10
8167.8874964095894
 20
6337.157708421958
 30
0.0
 11
8167.8874964095894
 21
8198.2035874219546
 31
0.0
  0
LINE
  5
D4C3
  8
0-1
  6
CONTINUOUS
 62
     3
 10
8147.888420409593
 20
6337.157708421958
 30
0.0
 11
8147.888420409593
 21
8198.2035874219546
 31
0.0
  0
LINE
  5
D4C4
  8
0-1
  6
CONTINUOUS
 62
     3
 10
8847.8877604095906
 20
6337.157708421958
 30
0.0
 11
8847.8877604095906
 21
8198.2035874219546
 31
0.0
  0
LINE
  5
D4C5
  8
0-1
  6
CONTINUOUS
 62
     3
 10
8867.8888164095843
 20
6337.157708421958
 30
0.0
 11
8867.8888164095843
 21
8198.2035874219546
 31
0.0
  0
LINE
  5
D4C6
  8
0-1
  6
CONTINUOUS
 62
     3
 10
8797.8890804095863
 20
6337.157708421958
 30
0.0
 11
8797.8890804095863
 21
8198.2035874219546
 31
0.0
  0
LINE
  5
D4C7
  8
0-1
  6
CONTINUOUS
 62
     3
 10
8917.8874964095867
 20
6337.157708421958
 30
0.0
 11
8917.8874964095867
 21
8198.2035874219546
 31
0.0
  0
LINE
  5
D4C8
  8
0-1
  6
CONTINUOUS
 62
     3
 10
9050.8883804095858
 20
6337.157708421958
 30
0.0
 11
9050.8883804095858
 21
8198.2035874219546
 31
0.0
  0
LINE
  5
D4C9
  8
0-1
  6
CONTINUOUS
 62
     3
 10
9065.8881824096043
 20
6337.157708421958
 30
0.0
 11
9065.8881824096043
 21
8198.2035874219546
 31
0.0
  0
LINE
  5
D4CA
  8
0-1
  6
CONTINUOUS
 62
     3
 10
8664.8901754095878
 20
6337.157708421958
 30
0.0
 11
8664.8901754095878
 21
8198.2035874219546
 31
0.0
  0
LINE
  5
D4CB
  8
0-1
  6
CONTINUOUS
 62
     3
 10
8649.8883944095869
 20
6337.157708421958
 30
0.0
 11
8649.8883944095869
 21
8198.2035874219546
 31
0.0
  0
LINE
  5
D4CC
  8
0-1
  6
CONTINUOUS
 62
     3
 10
9349.8877344095963
 20
6337.157708421958
 30
0.0
 11
9349.8877344095963
 21
8198.2035874219546
 31
0.0
  0
LINE
  5
D4CD
  8
0-1
  6
CONTINUOUS
 62
     3
 10
9364.8895154095953
 20
6337.157708421958
 30
0.0
 11
9364.8895154095953
 21
8198.2035874219546
 31
0.0
  0
LINE
  5
D4CE
  8
0-1
  6
CONTINUOUS
 62
     3
 10
9765.8875234095904
 20
6337.157708421958
 30
0.0
 11
9765.8875234095904
 21
8198.2035874219546
 31
0.0
  0
LINE
  5
D4CF
  8
0-1
  6
CONTINUOUS
 62
     3
 10
9750.888710409592
 20
6337.157708421958
 30
0.0
 11
9750.888710409592
 21
8198.2035874219546
 31
0.0
  0
LINE
  5
D4D0
  8
0-1
  6
CONTINUOUS
 62
     3
 10
9617.8898064095865
 20
6337.157708421958
 30
0.0
 11
9617.8898064095865
 21
8198.2035874219546
 31
0.0
  0
LINE
  5
D4D1
  8
0-1
  6
CONTINUOUS
 62
     3
 10
9497.8884204095957
 20
6337.157708421958
 30
0.0
 11
9497.8884204095957
 21
8198.2035874219546
 31
0.0
  0
LINE
  5
D4D2
  8
0-1
  6
CONTINUOUS
 62
     3
 10
9567.8881564096082
 20
6337.157708421958
 30
0.0
 11
9567.8881564096082
 21
8198.2035874219546
 31
0.0
  0
LINE
  5
D4D3
  8
0-1
  6
CONTINUOUS
 62
     3
 10
9547.8890804095863
 20
6337.157708421958
 30
0.0
 11
9547.8890804095863
 21
8198.2035874219546
 31
0.0
  0
LINE
  5
D4D4
  8
0-1
  6
CONTINUOUS
 62
     3
 10
9889.3877074095926
 20
8198.2035874219546
 30
0.0
 11
9889.3877074095926
 21
6337.157708421958
 31
0.0
  0
LINE
  5
D4D5
  8
0-1
  6
CONTINUOUS
 62
     3
 10
9926.3888694095967
 20
8198.2035874219546
 30
0.0
 11
9926.3888694095967
 21
6337.157708421958
 31
0.0
  0
LINE
  5
D4D6
  8
0-1
  6
CONTINUOUS
 62
     3
 10
8489.3900174095907
 20
8198.2035874219546
 30
0.0
 11
8489.3900174095907
 21
6337.157708421958
 31
0.0
  0
LINE
  5
D4D7
  8
0-1
  6
CONTINUOUS
 62
     3
 10
8526.389199409603
 20
8198.2035874219546
 30
0.0
 11
8526.389199409603
 21
6337.157708421958
 31
0.0
  0
LINE
  5
D4D8
  8
0-1
  6
CONTINUOUS
 62
     3
 10
9189.3883674095996
 20
8198.2035874219546
 30
0.0
 11
9189.3883674095996
 21
6337.157708421958
 31
0.0
  0
LINE
  5
D4D9
  8
0-1
  6
CONTINUOUS
 62
     3
 10
9226.3885394095832
 20
8198.2035874219546
 30
0.0
 11
9226.3885394095832
 21
6337.157708421958
 31
0.0
  0
LINE
  5
D4DA
  8
0-1
  6
CONTINUOUS
 62
     3
 10
7789.3877074096017
 20
8198.2035874219546
 30
0.0
 11
7789.3877074096017
 21
6337.157708421958
 31
0.0
  0
LINE
  5
D4DB
  8
0-1
  6
CONTINUOUS
 62
     3
 10
7826.3888694095949
 20
8198.2035874219546
 30
0.0
 11
7826.3888694095949
 21
6337.157708421958
 31
0.0
  0
LINE
  5
D4DC
  8
0-1
  6
CONTINUOUS
 62
     3
 10
22615.042483782989
 20
6287.1575434219621
 30
0.0
 11
22715.041824782991
 21
6287.1575434219621
 31
0.0
  0
LINE
  5
D4DD
  8
0-1
  6
CONTINUOUS
 62
     3
 10
22715.041824782991
 20
6287.1575434219621
 30
0.0
 11
22715.041824782991
 21
6187.1577084219589
 31
0.0
  0
LINE
  5
D4DE
  8
0-1
  6
CONTINUOUS
 62
     3
 10
22615.042483782989
 20
6187.1577084219589
 30
0.0
 11
22615.042483782989
 21
6287.1575434219621
 31
0.0
  0
LINE
  5
D4DF
  8
0-1
  6
CONTINUOUS
 62
     3
 10
22707.541428782999
 20
8505.1576354219578
 30
0.0
 11
22707.541428782999
 21
6287.1575434219621
 31
0.0
  0
LINE
  5
D4E0
  8
0-1
  6
CONTINUOUS
 62
     3
 10
22759.04116478299
 20
8178.6575434219612
 30
0.0
 11
22759.04116478299
 21
6187.1577084219589
 31
0.0
  0
LINE
  5
D4E1
  8
0-1
  6
CONTINUOUS
 62
     3
 10
22642.539976782999
 20
8635.1575694219555
 30
0.0
 11
22642.539976782999
 21
6287.1575434219621
 31
0.0
  0
LINE
  5
D4E2
  8
0-1
  6
CONTINUOUS
 62
     3
 10
22622.541164782979
 20
8505.1576354219578
 30
0.0
 11
22622.541164782979
 21
6287.1575434219621
 31
0.0
  0
LINE
  5
D4E3
  8
0-1
  6
CONTINUOUS
 62
     3
 10
26019.04116478299
 20
8309.4718314219554
 30
0.0
 11
25976.04116478299
 21
8309.4718314219554
 31
0.0
  0
LINE
  5
D4E4
  8
0-1
  6
CONTINUOUS
 62
     3
 10
25983.543803782992
 20
6287.1575434219621
 30
0.0
 11
25883.54446378299
 21
6287.1575434219621
 31
0.0
  0
LINE
  5
D4E5
  8
0-1
  6
CONTINUOUS
 62
     3
 10
25883.54446378299
 20
6287.1575434219621
 30
0.0
 11
25883.54446378299
 21
6187.1577084219589
 31
0.0
  0
LINE
  5
D4E6
  8
0-1
  6
CONTINUOUS
 62
     3
 10
25983.543803782992
 20
6187.1577084219589
 30
0.0
 11
25983.543803782992
 21
6287.1575434219621
 31
0.0
  0
LINE
  5
D4E7
  8
0-1
  6
CONTINUOUS
 62
     3
 10
25839.541164783011
 20
8178.6575434219612
 30
0.0
 11
25839.541164783011
 21
6187.1577084219589
 31
0.0
  0
LINE
  5
D4E8
  8
0-1
  6
CONTINUOUS
 62
     3
 10
25891.044859782982
 20
8505.1576354219578
 30
0.0
 11
25891.044859782982
 21
6287.1575434219621
 31
0.0
  0
LINE
  5
D4E9
  8
0-1
  6
CONTINUOUS
 62
     3
 10
25956.044331782989
 20
8635.1575694219555
 30
0.0
 11
25956.044331782989
 21
6287.1575434219621
 31
0.0
  0
LINE
  5
D4EA
  8
0-1
  6
CONTINUOUS
 62
     3
 10
25976.04116478299
 20
8505.1576354219578
 30
0.0
 11
25976.04116478299
 21
6287.1575434219621
 31
0.0
  0
LINE
  5
D4EB
  8
0-1
  6
CONTINUOUS
 62
     3
 10
7338.3888954096046
 20
6287.1575434219621
 30
0.0
 11
7338.3888954096046
 21
6187.1577084219589
 31
0.0
  0
LINE
  5
D4EC
  8
0-1
  6
CONTINUOUS
 62
     3
 10
7370.8896864096023
 20
8501.4866184219627
 30
0.0
 11
7370.8896864096023
 21
6287.1575434219621
 31
0.0
  0
LINE
  5
D4ED
  8
0-1
  6
CONTINUOUS
 62
     3
 10
7350.8888954095983
 20
8502.0676074219573
 30
0.0
 11
7350.8888954095983
 21
6287.1575434219621
 31
0.0
  0
LINE
  5
D4EE
  8
0-1
  6
CONTINUOUS
 62
     3
 10
7465.8887634096081
 20
8198.2035874219546
 30
0.0
 11
7465.8887634096081
 21
6287.1575434219621
 31
0.0
  0
LINE
  5
D4EF
  8
0-1
  6
CONTINUOUS
 62
     3
 10
10661.8888954096
 20
8402.9590504219595
 30
0.0
 11
10661.8888954096
 21
8198.2035874219546
 31
0.0
  0
LINE
  5
D4F0
  8
0-1
  6
CONTINUOUS
 62
     3
 10
10734.38876340959
 20
8198.2035874219546
 30
0.0
 11
10734.38876340959
 21
6287.1575434219621
 31
0.0
  0
LINE
  5
D4F1
  8
0-1
  6
CONTINUOUS
 62
     3
 10
10589.3900174096
 20
8198.2035874219546
 30
0.0
 11
10589.3900174096
 21
6287.1575434219621
 31
0.0
  0
LINE
  5
D4F2
  8
0-1
  6
CONTINUOUS
 62
     3
 10
10589.3900174096
 20
6337.157708421958
 30
0.0
 11
7465.8887634096081
 21
6337.157708421958
 31
0.0
  0
LINE
  5
D4F3
  8
0-1
  6
CONTINUOUS
 62
     3
 10
25839.541164783011
 20
6707.1584344219546
 30
0.0
 11
22759.04116478299
 21
6707.1584344219546
 31
0.0
  0
LINE
  5
D4F4
  8
0-1
  6
CONTINUOUS
 62
     3
 10
25839.541164783011
 20
6642.1579724219591
 30
0.0
 11
22759.04116478299
 21
6642.1579724219591
 31
0.0
  0
LINE
  5
D4F5
  8
0-1
  6
CONTINUOUS
 62
     3
 10
25839.541164783011
 20
6577.1580054219576
 30
0.0
 11
22759.04116478299
 21
6577.1580054219576
 31
0.0
  0
LINE
  5
D4F6
  8
0-1
  6
CONTINUOUS
 62
     3
 10
25839.541164783011
 20
6512.1575434219603
 30
0.0
 11
22759.04116478299
 21
6512.1575434219603
 31
0.0
  0
LINE
  5
D4F7
  8
0-1
  6
CONTINUOUS
 62
     3
 10
25839.541164783011
 20
6447.1580714219663
 30
0.0
 11
22759.04116478299
 21
6447.1580714219663
 31
0.0
  0
LINE
  5
D4F8
  8
0-1
  6
CONTINUOUS
 62
     3
 10
25839.541164783011
 20
6382.158104421962
 30
0.0
 11
22759.04116478299
 21
6382.158104421962
 31
0.0
  0
LINE
  5
D4F9
  8
0-1
  6
CONTINUOUS
 62
     3
 10
25839.541164783011
 20
6317.1581374219604
 30
0.0
 11
22759.04116478299
 21
6317.1581374219604
 31
0.0
  0
LINE
  5
D4FA
  8
0-1
  6
CONTINUOUS
 62
     3
 10
25839.541164783011
 20
6252.1576754219623
 30
0.0
 11
22759.04116478299
 21
6252.1576754219623
 31
0.0
  0
LINE
  5
D4FB
  8
0-1
  6
CONTINUOUS
 62
     3
 10
25839.541164783011
 20
8072.1577414219619
 30
0.0
 11
22759.04116478299
 21
8072.1577414219619
 31
0.0
  0
LINE
  5
D4FC
  8
0-1
  6
CONTINUOUS
 62
     3
 10
25839.541164783011
 20
8007.1577744219603
 30
0.0
 11
22759.04116478299
 21
8007.1577744219603
 31
0.0
  0
LINE
  5
D4FD
  8
0-1
  6
CONTINUOUS
 62
     3
 10
25839.541164783011
 20
7942.1583024219653
 30
0.0
 11
22759.04116478299
 21
7942.1583024219653
 31
0.0
  0
LINE
  5
D4FE
  8
0-1
  6
CONTINUOUS
 62
     3
 10
25839.541164783011
 20
7877.158335421952
 30
0.0
 11
22759.04116478299
 21
7877.158335421952
 31
0.0
  0
LINE
  5
D4FF
  8
0-1
  6
CONTINUOUS
 62
     3
 10
25839.541164783011
 20
7812.158368421965
 30
0.0
 11
22759.04116478299
 21
7812.158368421965
 31
0.0
  0
LINE
  5
D500
  8
0-1
  6
CONTINUOUS
 62
     3
 10
25839.541164783011
 20
7747.1579064219613
 30
0.0
 11
22759.04116478299
 21
7747.1579064219613
 31
0.0
  0
LINE
  5
D501
  8
0-1
  6
CONTINUOUS
 62
     3
 10
25839.541164783011
 20
7682.1579394219571
 30
0.0
 11
22759.04116478299
 21
7682.1579394219571
 31
0.0
  0
LINE
  5
D502
  8
0-1
  6
CONTINUOUS
 62
     3
 10
25839.541164783011
 20
7617.1584674219621
 30
0.0
 11
22759.04116478299
 21
7617.1584674219621
 31
0.0
  0
LINE
  5
D503
  8
0-1
  6
CONTINUOUS
 62
     3
 10
25839.541164783011
 20
7552.1585004219569
 30
0.0
 11
22759.04116478299
 21
7552.1585004219569
 31
0.0
  0
LINE
  5
D504
  8
0-1
  6
CONTINUOUS
 62
     3
 10
25839.541164783011
 20
7487.1580384219606
 30
0.0
 11
22759.04116478299
 21
7487.1580384219606
 31
0.0
  0
LINE
  5
D505
  8
0-1
  6
CONTINUOUS
 62
     3
 10
25839.541164783011
 20
7422.1580714219581
 30
0.0
 11
22759.04116478299
 21
7422.1580714219581
 31
0.0
  0
LINE
  5
D506
  8
0-1
  6
CONTINUOUS
 62
     3
 10
25839.541164783011
 20
7357.158104421962
 30
0.0
 11
22759.04116478299
 21
7357.158104421962
 31
0.0
  0
LINE
  5
D507
  8
0-1
  6
CONTINUOUS
 62
     3
 10
25839.541164783011
 20
7292.1576424219584
 30
0.0
 11
22759.04116478299
 21
7292.1576424219584
 31
0.0
  0
LINE
  5
D508
  8
0-1
  6
CONTINUOUS
 62
     3
 10
25839.541164783011
 20
7227.1576754219559
 30
0.0
 11
22759.04116478299
 21
7227.1576754219559
 31
0.0
  0
LINE
  5
D509
  8
0-1
  6
CONTINUOUS
 62
     3
 10
25839.541164783011
 20
7162.1582034219591
 30
0.0
 11
22759.04116478299
 21
7162.1582034219591
 31
0.0
  0
LINE
  5
D50A
  8
0-1
  6
CONTINUOUS
 62
     3
 10
25839.541164783011
 20
7097.1582364219557
 30
0.0
 11
22759.04116478299
 21
7097.1582364219557
 31
0.0
  0
LINE
  5
D50B
  8
0-1
  6
CONTINUOUS
 62
     3
 10
25839.541164783011
 20
7032.1582694219596
 30
0.0
 11
22759.04116478299
 21
7032.1582694219596
 31
0.0
  0
LINE
  5
D50C
  8
0-1
  6
CONTINUOUS
 62
     3
 10
25839.541164783011
 20
6967.1578074219642
 30
0.0
 11
22759.04116478299
 21
6967.1578074219642
 31
0.0
  0
LINE
  5
D50D
  8
0-1
  6
CONTINUOUS
 62
     3
 10
25839.541164783011
 20
6902.1578404219608
 30
0.0
 11
22759.04116478299
 21
6902.1578404219608
 31
0.0
  0
LINE
  5
D50E
  8
0-1
  6
CONTINUOUS
 62
     3
 10
25839.541164783011
 20
6837.1583684219568
 30
0.0
 11
22759.04116478299
 21
6837.1583684219568
 31
0.0
  0
LINE
  5
D50F
  8
0-1
  6
CONTINUOUS
 62
     3
 10
25839.541164783011
 20
6772.1584014219598
 30
0.0
 11
22759.04116478299
 21
6772.1584014219598
 31
0.0
  0
LINE
  5
D510
  8
0-1
  6
CONTINUOUS
 62
     3
 10
25839.541164783011
 20
8126.6177614219587
 30
0.0
 11
22759.04116478299
 21
8126.6177614219587
 31
0.0
  0
LINE
  5
D511
  8
0-1
  6
CONTINUOUS
 62
     3
 10
25983.543803782992
 20
6187.1577084219589
 30
0.0
 11
19253.5627886578
 21
6187.1577084219589
 31
0.0
  0
LINE
  5
D512
  8
0-1
  6
CONTINUOUS
 62
     3
 10
13629.8888954096
 20
6187.1577084219589
 30
0.0
 11
13629.8888954096
 21
6287.1575434219621
 31
0.0
  0
LINE
  5
D513
  8
0-1
  6
CONTINUOUS
 62
     3
 10
13602.3890934096
 20
8314.9600464219584
 30
0.0
 11
13602.3890934096
 21
6287.1575434219621
 31
0.0
  0
LINE
  5
D514
  8
0-1
  6
CONTINUOUS
 62
     3
 10
13622.3888954096
 20
8314.3433191057684
 30
0.0
 11
13622.3888954096
 21
6287.1575434219621
 31
0.0
  0
LINE
  5
D515
  8
0-1
  6
CONTINUOUS
 62
     3
 10
13507.39001640959
 20
8198.2035874219546
 30
0.0
 11
13507.39001640959
 21
6287.1575434219621
 31
0.0
  0
LINE
  5
D516
  8
0-1
  6
CONTINUOUS
 62
     3
 10
13629.8888954096
 20
6287.1575434219621
 30
0.0
 11
7338.3888954096046
 21
6287.1575434219621
 31
0.0
  0
LINE
  5
D517
  8
0-1
  6
CONTINUOUS
 62
     3
 10
13507.39001640959
 20
6337.157708421958
 30
0.0
 11
10734.38876340959
 21
6337.157708421958
 31
0.0
  0
LINE
  5
D518
  8
0-1
  6
CONTINUOUS
 62
     3
 10
14312.38995040959
 20
6187.1577084219589
 30
0.0
 11
7338.3888954096046
 21
6187.1577084219589
 31
0.0
  0
LINE
  5
D519
  8
0-1
  6
CONTINUOUS
 62
     3
 10
13602.3890934096
 20
8198.2035874219546
 30
0.0
 11
7370.8896864096023
 21
8198.2035874219546
 31
0.0
  0
LINE
  5
D51A
  8
0-1
  6
CONTINUOUS
 62
     3
 10
25865.041903782989
 20
8380.6582894219573
 30
0.0
 11
25587.612373782998
 21
8380.6582894219573
 31
0.0
  0
LINE
  5
D51B
  8
0-1
  6
CONTINUOUS
 62
     3
 10
25865.041903782989
 20
8422.6577344219586
 30
0.0
 11
25555.61543578298
 21
8422.6577344219586
 31
0.0
  0
LINE
  5
D51C
  8
0-1
  6
CONTINUOUS
 62
     3
 10
25870.042166783001
 20
8385.6580584219537
 30
0.0
 11
25870.042166783001
 21
8417.6584604219588
 31
0.0
  0
LINE
  5
D51D
  8
0-1
  6
CONTINUOUS
 62
     3
 10
25891.044859782982
 20
8431.6576164219568
 30
0.0
 11
22707.541428782999
 21
8431.6576164219568
 31
0.0
  0
LINE
  5
D51E
  8
0-1
  6
CONTINUOUS
 62
     3
 10
25584.078933782988
 20
8382.1221434219606
 30
0.0
 11
25552.078035783012
 21
8414.1225454219584
 31
0.0
  0
LINE
  5
D51F
  8
0-1
  6
CONTINUOUS
 62
     3
 10
25870.042166783001
 20
8414.2581424219588
 30
0.0
 11
25551.949367783
 21
8414.2581424219588
 31
0.0
  0
LINE
  5
D520
  8
0-1
  6
CONTINUOUS
 62
     3
 10
25870.042166783001
 20
8405.858055421957
 30
0.0
 11
25560.342525782991
 21
8405.858055421957
 31
0.0
  0
LINE
  5
D521
  8
0-1
  6
CONTINUOUS
 62
     3
 10
25870.042166783001
 20
8397.4584634219573
 30
0.0
 11
25568.741623782978
 21
8397.4584634219573
 31
0.0
  0
LINE
  5
D522
  8
0-1
  6
CONTINUOUS
 62
     3
 10
25870.042166783001
 20
8389.0583764219627
 30
0.0
 11
25577.144679782989
 21
8389.0583764219627
 31
0.0
  0
LINE
  5
D523
  8
0-1
  6
CONTINUOUS
 62
     3
 10
22728.542140782989
 20
8414.2581424219588
 30
0.0
 11
23046.634940782991
 21
8414.2581424219588
 31
0.0
  0
LINE
  5
D524
  8
0-1
  6
CONTINUOUS
 62
     3
 10
22728.542140782989
 20
8405.858055421957
 30
0.0
 11
23038.239802782991
 21
8405.858055421957
 31
0.0
  0
LINE
  5
D525
  8
0-1
  6
CONTINUOUS
 62
     3
 10
22728.542140782989
 20
8397.4584634219573
 30
0.0
 11
23029.840705783001
 21
8397.4584634219573
 31
0.0
  0
LINE
  5
D526
  8
0-1
  6
CONTINUOUS
 62
     3
 10
22728.542140782989
 20
8389.0583764219627
 30
0.0
 11
23021.441607782999
 21
8389.0583764219627
 31
0.0
  0
LINE
  5
D527
  8
0-1
  6
CONTINUOUS
 62
     3
 10
22733.542404782991
 20
8422.6577344219586
 30
0.0
 11
23042.968872783
 21
8422.6577344219586
 31
0.0
  0
LINE
  5
D528
  8
0-1
  6
CONTINUOUS
 62
     3
 10
22733.542404782991
 20
8380.6582894219573
 30
0.0
 11
23010.971933782988
 21
8380.6582894219573
 31
0.0
  0
LINE
  5
D529
  8
0-1
  6
CONTINUOUS
 62
     3
 10
22728.542140782989
 20
8385.6580584219537
 30
0.0
 11
22728.542140782989
 21
8417.6584604219588
 31
0.0
  0
LINE
  5
D52A
  8
0-1
  6
CONTINUOUS
 62
     3
 10
23014.507354783
 20
8382.1221434219606
 30
0.0
 11
23046.504292782989
 21
8414.1225454219584
 31
0.0
  0
LINE
  5
D52B
  8
0-1
  6
CONTINUOUS
 62
     3
 10
13796.6907194096
 20
8349.1428684219627
 30
0.0
 11
7265.1992304095984
 21
8544.6589294219648
 31
0.0
  0
LINE
  5
D52C
  8
0-1
  6
CONTINUOUS
 62
     3
 10
7266.6997054096
 20
8594.6378144219634
 30
0.0
 11
13798.1902044096
 21
8399.1207644219558
 31
0.0
  0
LINE
  5
D52D
  8
0-1
  6
CONTINUOUS
 62
     3
 10
13801.280232409599
 20
8402.0296664219622
 30
0.0
 11
13802.240299409599
 21
8434.0152224219564
 31
0.0
  0
LINE
  5
D52E
  8
0-1
  6
CONTINUOUS
 62
     3
 10
13797.391468409591
 20
8439.162465421954
 30
0.0
 11
7246.9302534095978
 21
8635.2496174219577
 31
0.0
  0
LINE
  5
D52F
  8
0-1
  6
CONTINUOUS
 62
     3
 10
7243.025653409597
 20
8505.3080794219622
 30
0.0
 11
13793.490827409591
 21
8309.2214224219533
 31
0.0
  0
LINE
  5
D530
  8
0-1
  6
CONTINUOUS
 62
     3
 10
13798.63856540959
 20
8314.0687684219574
 30
0.0
 11
13799.597642409601
 21
8346.0548194219555
 31
0.0
  0
LINE
  5
D531
  8
0-1
  6
CONTINUOUS
 62
     3
 10
13799.92921140959
 20
8357.0495604219614
 30
0.0
 11
13800.949653409591
 21
8391.0339354219559
 31
0.0
  0
LINE
  5
D532
  8
0-1
  6
CONTINUOUS
 62
     3
 10
13798.04075040958
 20
8394.1229744219581
 30
0.0
 11
7266.5482724096
 21
8589.6405194219587
 31
0.0
  0
LINE
  5
D533
  8
0-1
  6
CONTINUOUS
 62
     3
 10
7265.3486844096042
 20
8549.6572134219587
 30
0.0
 11
13796.8391824096
 21
8354.1411534219587
 31
0.0
  0
LINE
  5
D534
  8
0-1
  6
CONTINUOUS
 62
     3
 10
10661.8888954096
 20
8402.9590504219595
 30
0.0
 11
10665.79151640959
 21
8532.9005884219569
 31
0.0
  0
LINE
  5
D535
  8
0-1
  6
CONTINUOUS
 62
     3
 10
7275.9925554095971
 20
8504.3173304219581
 30
0.0
 11
7279.8941864095959
 21
8634.2588684219572
 31
0.0
  0
LINE
  5
D536
  8
0-1
  6
CONTINUOUS
 62
     3
 10
13784.89872640959
 20
8439.5375844219616
 30
0.0
 11
13780.99610540958
 21
8309.5965414219572
 31
0.0
  0
LINE
  5
D537
  8
0-2
  6
CONTINUOUS
 62
     4
 10
23935.601144782999
 20
6934.3844024219543
 30
0.0
 11
24035.600484783012
 21
6934.3844024219543
 31
0.0
  0
LINE
  5
D538
  8
0-2
  6
CONTINUOUS
 62
     4
 10
24662.98514478299
 20
6934.3844024219543
 30
0.0
 11
24562.985804782998
 21
6934.3844024219543
 31
0.0
  0
LINE
  5
D539
  8
0-5
  6
CONTINUOUS
 62
     4
 10
22665.041164782979
 20
4507.1581044219538
 30
0.0
 11
22665.041164782979
 21
4347.1585664219583
 31
0.0
  0
LINE
  5
D53A
  8
0-5
  6
CONTINUOUS
 62
     4
 10
15610.251228455891
 20
6287.1575434219612
 30
0.0
 11
15490.25083245588
 21
6495.0045204219559
 31
0.0
  0
LINE
  5
D53B
  8
0-5
  6
CONTINUOUS
 62
     4
 10
15730.24964545588
 20
6495.0045204219559
 30
0.0
 11
15610.251228455891
 21
6287.1575434219612
 31
0.0
  0
LINE
  5
D53C
  8
0-5
  6
CONTINUOUS
 62
     4
 10
15490.25083245588
 20
6495.0045204219559
 30
0.0
 11
15730.24964545588
 21
6495.0045204219559
 31
0.0
  0
LINE
  5
D53D
  8
0-5
  6
CONTINUOUS
 62
     4
 10
16103.69053967453
 20
6287.1575434219612
 30
0.0
 11
14712.38929140959
 21
6287.1575434219612
 31
0.0
  0
LINE
  5
D53E
  8
0-5
  6
CONTINUOUS
 62
     4
 10
25933.54116478299
 20
4507.1581044219538
 30
0.0
 11
25933.54116478299
 21
4347.1585664219583
 31
0.0
  0
LINE
  5
D53F
  8
0-5
  6
CONTINUOUS
 62
     4
 10
7393.3888954096037
 20
4507.1581044219538
 30
0.0
 11
7393.3888954096037
 21
4347.1585664219583
 31
0.0
  0
LINE
  5
D540
  8
0-5
  6
CONTINUOUS
 62
     4
 10
10661.8888954096
 20
4507.1581044219538
 30
0.0
 11
10661.8888954096
 21
4347.1585664219583
 31
0.0
  0
LINE
  5
D541
  8
0-5
  6
CONTINUOUS
 62
     4
 10
13579.888895409589
 20
4507.1581044219538
 30
0.0
 11
13579.888895409589
 21
4347.1585664219583
 31
0.0
  0
LINE
  5
D542
  8
2-0
  6
CENTER2
 62
     6
 10
22665.041164782979
 20
5924.5052854219593
 30
0.0
 11
22665.041164782979
 21
6961.6483124219576
 31
0.0
  0
LINE
  5
D543
  8
2-0
  6
CENTER2
 62
     6
 10
25933.54116478299
 20
5924.5052854219593
 30
0.0
 11
25933.54116478299
 21
6961.6483124219576
 31
0.0
  0
LINE
  5
D544
  8
2-0
  6
CENTER2
 62
     6
 10
7393.3888954096037
 20
5924.5052854219593
 30
0.0
 11
7393.3888954096037
 21
6981.6478834219579
 31
0.0
  0
LINE
  5
D545
  8
2-0
  6
CENTER2
 62
     6
 10
10661.8888954096
 20
5924.5052854219593
 30
0.0
 11
10661.8888954096
 21
6981.6478834219579
 31
0.0
  0
LINE
  5
D546
  8
2-0
  6
CENTER2
 62
     6
 10
13579.888895409589
 20
5924.5052854219593
 30
0.0
 11
13579.888895409589
 21
6981.6478834219579
 31
0.0
  0
ARC
  5
D547
  8
0-1
  6
CONTINUOUS
 62
     3
 10
25865.041903782989
 20
8417.6584604219588
 30
0.0
 40
5.0
 50
0.000000000000007
 51
90.0
  0
ARC
  5
D548
  8
0-1
  6
CONTINUOUS
 62
     3
 10
25865.041903782989
 20
8385.6580584219537
 30
0.0
 40
5.0
 50
270.00001499981897
 51
0.000000000000007
  0
ARC
  5
D549
  8
0-1
  6
CONTINUOUS
 62
     3
 10
25587.612373782998
 20
8385.6580584219537
 30
0.0
 40
5.0
 50
225.00001499976199
 51
270.00001499981897
  0
ARC
  5
D54A
  8
0-1
  6
CONTINUOUS
 62
     3
 10
25555.61543578298
 20
8417.6584604219588
 30
0.0
 40
5.0
 50
90.0
 51
225.00001499976199
  0
ARC
  5
D54B
  8
0-1
  6
CONTINUOUS
 62
     3
 10
22733.542404782991
 20
8385.6580584219537
 30
0.0
 40
5.0
 50
180.0
 51
270.00001499981897
  0
ARC
  5
D54C
  8
0-1
  6
CONTINUOUS
 62
     3
 10
22733.542404782991
 20
8417.6584604219588
 30
0.0
 40
5.0
 50
90.0
 51
180.0
  0
ARC
  5
D54D
  8
0-1
  6
CONTINUOUS
 62
     3
 10
23042.968872783
 20
8417.6584604219588
 30
0.0
 40
5.0
 50
315.00001500002008
 51
90.0
  0
ARC
  5
D54E
  8
0-1
  6
CONTINUOUS
 62
     3
 10
23010.971933782988
 20
8385.6580584219537
 30
0.0
 40
5.0
 50
270.00001499981897
 51
315.00001500002008
  0
ARC
  5
D54F
  8
0-1
  6
CONTINUOUS
 62
     3
 10
7265.9494684096062
 20
8569.6493614219562
 30
0.0
 40
24.999998999999999
 50
88.280013999973605
 51
268.28001399997362
  0
ARC
  5
D550
  8
0-1
  6
CONTINUOUS
 62
     3
 10
13798.280272409591
 20
8402.1197344219599
 30
0.0
 40
3.0
 50
268.28001399997362
 51
358.2800139999739
  0
ARC
  5
D551
  8
0-1
  6
CONTINUOUS
 62
     3
 10
13797.243004409591
 20
8434.1646764219604
 30
0.0
 40
5.0
 50
358.2800139999739
 51
88.280013999973605
  0
ARC
  5
D552
  8
0-1
  6
CONTINUOUS
 62
     3
 10
7270.9467624096142
 20
8569.4989184219648
 30
0.0
 40
69.999999000000003
 50
110.066803000108
 51
246.49322500022339
  0
ARC
  5
D553
  8
0-1
  6
CONTINUOUS
 62
     3
 10
13793.63929140959
 20
8314.2192124219564
 30
0.0
 40
5.0
 50
268.28001399997362
 51
358.2800139999739
  0
ARC
  5
D554
  8
0-1
  6
CONTINUOUS
 62
     3
 10
13796.6006504096
 20
8346.144392421962
 30
0.0
 40
3.0
 50
358.2800139999739
 51
88.280013999973605
  0
ARC
  5
D555
  8
0-1
  6
CONTINUOUS
 62
     3
 10
13796.616487409599
 20
8396.6671504219557
 30
0.0
 40
2.5
 50
88.280013999973605
 51
268.28001399997362
  0
ARC
  5
D556
  8
0-1
  6
CONTINUOUS
 62
     3
 10
13795.266455409601
 20
8351.6870444219585
 30
0.0
 40
2.5
 50
88.280013999973605
 51
268.28001399997362
  0
ARC
  5
D557
  8
0-1
  6
CONTINUOUS
 62
     3
 10
13797.95068240959
 20
8391.1244984219575
 30
0.0
 40
3.0
 50
358.2800139999739
 51
88.280013999973605
  0
ARC
  5
D558
  8
0-1
  6
CONTINUOUS
 62
     3
 10
7265.9494684096062
 20
8569.6493614219562
 30
0.0
 40
20.0
 50
88.280013999973605
 51
268.28001399997362
  0
ARC
  5
D559
  8
0-1
  6
CONTINUOUS
 62
     3
 10
13796.930240409591
 20
8357.1391334219588
 30
0.0
 40
3.0
 50
268.28001399997362
 51
358.2800139999739
  0
CIRCLE
  5
D55A
  8
0-5
  6
CONTINUOUS
 62
     4
 10
22665.041164782979
 20
4147.1574114219602
 30
0.0
 40
199.9999949999999
  0
CIRCLE
  5
D55B
  8
0-5
  6
CONTINUOUS
 62
     4
 10
10661.8888954096
 20
4147.1574114219602
 30
0.0
 40
199.9999949999999
  0
CIRCLE
  5
D55C
  8
0-5
  6
CONTINUOUS
 62
     4
 10
7393.3888954096037
 20
4147.1574114219602
 30
0.0
 40
199.9999949999999
  0
CIRCLE
  5
D55D
  8
0-5
  6
CONTINUOUS
 62
     4
 10
25933.54116478299
 20
4147.1574114219602
 30
0.0
 40
199.9999949999999
  0
CIRCLE
  5
D55E
  8
0-5
  6
CONTINUOUS
 62
     4
 10
13579.888895409589
 20
4147.1574114219602
 30
0.0
 40
199.9999949999999
  0
TEXT
  5
D55F
  8
0-5
  6
CONTINUOUS
 62
     7
 10
22610.287373116331
 20
4057.68242942196
 30
0.0
 40
160.0
  1
2
 72
     4
 11
22663.620706449659
 21
4137.6824294219596
 31
0.0
  0
TEXT
  5
D560
  8
0-5
  6
CONTINUOUS
 62
     7
 10
27038.512929887151
 20
7033.9796055814022
 30
0.0
 40
160.0
  1
(2131.5)
 50
90.0
 72
     4
 11
26958.512929887151
 21
7487.3129389147352
 31
0.0
  0
TEXT
  5
D561
  8
0-5
  6
CONTINUOUS
 62
     7
 10
15152.00982412255
 20
6575.0037944219539
 30
0.0
 40
160.0
  1
布基礎天端
 72
     4
 11
15610.676490789219
 21
6655.0037944219539
 31
0.0
  0
TEXT
  5
D562
  8
0-5
  6
CONTINUOUS
 62
     7
 10
25880.207831449661
 20
4057.6824294219632
 30
0.0
 40
160.0
  1
3
 72
     4
 11
25933.541164783001
 21
4137.6824294219632
 31
0.0
  0
TEXT
  5
D563
  8
0-5
  6
CONTINUOUS
 62
     7
 10
7333.6783887429292
 20
4063.9466154219608
 30
0.0
 40
160.0
  1
A
 72
     4
 11
7387.0117220762622
 21
4143.9466154219608
 31
0.0
  0
TEXT
  5
D564
  8
0-5
  6
CONTINUOUS
 62
     7
 10
10602.178388742919
 20
4063.9466154219608
 30
0.0
 40
160.0
  1
B
 72
     4
 11
10655.51172207626
 21
4143.9466154219608
 31
0.0
  0
TEXT
  5
D565
  8
0-5
  6
CONTINUOUS
 62
     7
 10
13520.178388742919
 20
4063.9466154219608
 30
0.0
 40
160.0
  1
C
 72
     4
 11
13573.51172207626
 21
4143.9466154219608
 31
0.0
  0
CIRCLE
  5
D566
  8
0-4
  6
CONTINUOUS
 62
     4
 10
24299.29116478299
 20
6673.2141444219578
 30
0.0
 40
18.487504999999981
  0
LINE
  5
D567
  8
1-前柱カバ-P
 10
19907.54116478299
 20
8505.1576354219578
 30
0.0
 11
19907.54116478299
 21
6187.1577084219589
 31
0.0
  0
LINE
  5
D568
  8
1-前柱カバ-P
 10
19822.54116478299
 20
8635.1575694219555
 30
0.0
 11
19822.541164783001
 21
6187.1577084219589
 31
0.0
  0
LINE
  5
D569
  8
0-1
  6
CONTINUOUS
 62
     3
 10
19779.541164782979
 20
8505.1576354219633
 30
0.0
 11
22707.541428782999
 21
8505.1576354219578
 31
0.0
  0
LINE
  5
D56A
  8
0-1
  6
CONTINUOUS
 62
     3
 10
22642.539976782999
 20
8635.1575694219555
 30
0.0
 11
19779.541164782979
 21
8635.1575694219555
 31
0.0
  0
LINE
  5
D56B
  8
0-1
  6
CONTINUOUS
 62
     3
 10
19779.541164782979
 20
8309.4718314219645
 30
0.0
 11
19779.541164782979
 21
8635.1575694219555
 31
0.0
  0
LINE
  5
D56C
  8
0-1
  6
CONTINUOUS
 62
     3
 10
19779.541164782979
 20
8309.4718314219645
 30
0.0
 11
19822.54116478299
 21
8309.4718314219645
 31
0.0
  0
LINE
  5
D56D
  8
2-0
  6
CENTER2
 62
     6
 10
19865.04116478299
 20
5924.5052854219593
 30
0.0
 11
19865.04116478299
 21
6961.6483124219576
 31
0.0
  0
LINE
  5
D56E
  8
1-桁前P28
 10
19907.54116478299
 20
8307.4718314219645
 30
0.0
 11
22622.541164782979
 21
8307.4718314219645
 31
0.0
  0
LINE
  5
D56F
  8
0-5
  6
CONTINUOUS
 62
     4
 10
19865.04116478299
 20
4507.1581044219538
 30
0.0
 11
19865.04116478299
 21
4347.1585664219583
 31
0.0
  0
CIRCLE
  5
D570
  8
0-5
  6
CONTINUOUS
 62
     4
 10
19865.04116478299
 20
4147.1574114219602
 30
0.0
 40
199.9999949999999
  0
TEXT
  5
D571
  8
0-5
  6
CONTINUOUS
 62
     7
 10
19836.95403978297
 20
4057.68242942196
 30
0.0
 40
160.0
  1
1
 72
     4
 11
19863.620706449641
 21
4137.6824294219596
 31
0.0
  0
TEXT
  5
D572
  8
0-5
  6
CONTINUOUS
 62
     7
 10
18852.169777523599
 20
7284.3432191984257
 30
0.0
 40
160.0
  1
(2260)
 50
90.0
 72
     4
 11
18772.169777523599
 21
7671.0098858650927
 31
0.0
  0
LINE
  5
D573
  8
0-1
  6
CONTINUOUS
 62
     3
 10
7665.8865324096114
 20
6337.157708421958
 30
0.0
 11
7665.8865324096114
 21
8198.2035874219546
 31
0.0
  0
LINE
  5
D574
  8
0-1
  6
CONTINUOUS
 62
     3
 10
7650.8867304096002
 20
6337.157708421958
 30
0.0
 11
7650.8867304096002
 21
8198.2035874219546
 31
0.0
  0
LINE
  5
D575
  8
SUNPOU
  6
CONTINUOUS
 10
13802.3888954096
 20
9435.1592194219593
 30
0.0
 11
14307.176765303
 21
9435.1592194219593
 31
0.0
  0
LINE
  5
D576
  8
0-5
  6
CONTINUOUS
 62
     4
 10
17062.768864265061
 20
6395.0041904219597
 30
0.0
 11
16942.770448265059
 21
6187.1577084219589
 31
0.0
  0
LINE
  5
D577
  8
0-5
  6
CONTINUOUS
 62
     4
 10
19170.54009671144
 20
6187.1577084219589
 30
0.0
 11
14385.94960177463
 21
6187.1577084219589
 31
0.0
  0
LINE
  5
D578
  8
0-5
  6
CONTINUOUS
 62
     4
 10
16942.770448265059
 20
6187.1577084219589
 30
0.0
 11
16822.770052265059
 21
6395.0041904219597
 31
0.0
  0
LINE
  5
D579
  8
0-5
  6
CONTINUOUS
 62
     4
 10
16822.770052265059
 20
6395.0041904219597
 30
0.0
 11
17062.768864265061
 21
6395.0041904219597
 31
0.0
  0
TEXT
  5
D57A
  8
0-5
  6
CONTINUOUS
 62
     7
 10
16742.768864265061
 20
6475.0039594219579
 30
0.0
 40
160.0
  1
G.L
 72
     4
 11
16902.768864265061
 21
6555.0039594219579
 31
0.0
  0
LINE
  5
D57B
  8
0-1
  6
CONTINUOUS
 62
     3
 10
13445.11222162067
 20
16751.455026421962
 30
0.0
 11
10176.61222162066
 21
16751.455026421962
 31
0.0
  0
LINE
  5
D57C
  8
0-1
  6
CONTINUOUS
 62
     3
 10
10176.61222162066
 20
16751.455026421962
 30
0.0
 11
7604.2413708518661
 21
16751.455026421962
 31
0.0
  0
LINE
  5
D57D
  8
2-0
  6
DASHED3
 62
     6
 10
7604.2413708518661
 20
16751.455026421962
 30
0.0
 11
7376.6122216206613
 21
16751.455026421962
 31
0.0
  0
LINE
  5
D57E
  8
0-1
  6
CONTINUOUS
 62
     3
 10
10229.61185262065
 20
13491.45606842194
 30
0.0
 11
10229.61185262065
 21
17834.702821003179
 31
0.0
  0
LINE
  5
D57F
  8
0-1
  6
CONTINUOUS
 62
     3
 10
13395.111601620651
 20
13367.45605442196
 30
0.0
 11
13395.111601620651
 21
19145.241366846909
 31
0.0
  0
LINE
  5
D580
  8
0-1
  6
CONTINUOUS
 62
     3
 10
13395.111601620651
 20
19145.241366846909
 30
0.0
 11
13395.111601620651
 21
19878.955395421941
 31
0.0
  0
LINE
  5
D581
  8
0-1
  6
CONTINUOUS
 62
     3
 10
13530.61222162067
 20
13335.45614742195
 30
0.0
 11
13530.61222162067
 21
19201.14970639344
 31
0.0
  0
LINE
  5
D582
  8
0-1
  6
CONTINUOUS
 62
     3
 10
13530.61222162067
 20
19201.14970639344
 30
0.0
 11
13530.61222162067
 21
19926.956741421949
 31
0.0
  0
LINE
  5
D583
  8
0-1
  6
CONTINUOUS
 62
     3
 10
13487.611495620649
 20
13491.45606842194
 30
0.0
 11
7334.1109676206434
 21
13491.45606842194
 31
0.0
  0
LINE
  5
D584
  8
0-1
  6
CONTINUOUS
 62
     3
 10
13445.11222162067
 20
13570.45568542195
 30
0.0
 11
7376.6122216206613
 21
13570.45568542195
 31
0.0
  0
LINE
  5
D585
  8
0-1
  6
CONTINUOUS
 62
     3
 10
13530.61222162067
 20
13335.45614742195
 30
0.0
 11
7291.1122216206586
 21
13335.45614742195
 31
0.0
  0
LINE
  5
D586
  8
0-1
  6
CONTINUOUS
 62
     3
 10
13530.61222162067
 20
13367.45605442196
 30
0.0
 11
7291.1122216206586
 21
13367.45605442196
 31
0.0
  0
LINE
  5
D587
  8
0-1
  6
CONTINUOUS
 62
     3
 10
10176.61222162066
 20
13491.45606842194
 30
0.0
 11
10176.61222162066
 21
17812.834770839199
 31
0.0
  0
LINE
  5
D588
  8
0-1
  6
CONTINUOUS
 62
     3
 10
10134.110967620651
 20
13491.45606842194
 30
0.0
 11
10134.110967620651
 21
17795.29843073705
 31
0.0
  0
LINE
  5
D589
  8
0-1
  6
CONTINUOUS
 62
     3
 10
13445.11222162067
 20
13491.45606842194
 30
0.0
 11
13445.11222162067
 21
19167.10982507981
 31
0.0
  0
LINE
  5
D58A
  8
0-1
  6
CONTINUOUS
 62
     3
 10
13487.611495620649
 20
13491.45606842194
 30
0.0
 11
13487.611495620649
 21
19184.645348218921
 31
0.0
  0
LINE
  5
D58B
  8
0-1
  6
CONTINUOUS
 62
     3
 10
11724.11077062064
 20
18461.344526938989
 30
0.0
 11
11724.11077062064
 21
19878.955395421941
 31
0.0
  0
LINE
  5
D58C
  8
0-1
  6
CONTINUOUS
 62
     3
 10
11687.11059862064
 20
18446.077975038439
 30
0.0
 11
11687.11059862064
 21
19878.955395421941
 31
0.0
  0
LINE
  5
D58D
  8
0-1
  6
CONTINUOUS
 62
     3
 10
11524.11109962065
 20
18378.82314413524
 30
0.0
 11
11524.11109962065
 21
19878.955395421941
 31
0.0
  0
LINE
  5
D58E
  8
0-1
  6
CONTINUOUS
 62
     3
 10
11487.10993862065
 20
18363.556184165762
 30
0.0
 11
11487.10993862065
 21
19878.955395421941
 31
0.0
  0
LINE
  5
D58F
  8
0-1
  6
CONTINUOUS
 62
     3
 10
11324.11142962066
 20
18286.30165674409
 30
0.0
 11
11324.11142962066
 21
19878.955395421941
 31
0.0
  0
LINE
  5
D590
  8
0-1
  6
CONTINUOUS
 62
     3
 10
11287.11224862064
 20
18271.03551373765
 30
0.0
 11
11287.11224862064
 21
19878.955395421941
 31
0.0
  0
LINE
  5
D591
  8
0-1
  6
CONTINUOUS
 62
     3
 10
11124.11077062064
 20
18203.77986628404
 30
0.0
 11
11124.11077062064
 21
19878.955395421941
 31
0.0
  0
LINE
  5
D592
  8
0-1
  6
CONTINUOUS
 62
     3
 10
11087.11059862064
 20
18188.513314383468
 30
0.0
 11
11087.11059862064
 21
19878.955395421941
 31
0.0
  0
LINE
  5
D593
  8
0-1
  6
CONTINUOUS
 62
     3
 10
10924.11109962065
 20
18121.25848348028
 30
0.0
 11
10924.11109962065
 21
19878.955395421941
 31
0.0
  0
LINE
  5
D594
  8
0-1
  6
CONTINUOUS
 62
     3
 10
10887.109938620661
 20
18105.991523510798
 30
0.0
 11
10887.109938620661
 21
19878.955395421941
 31
0.0
  0
LINE
  5
D595
  8
0-1
  6
CONTINUOUS
 62
     3
 10
10724.111429620651
 20
18038.737101089129
 30
0.0
 11
10724.111429620651
 21
19878.955395421941
 31
0.0
  0
LINE
  5
D596
  8
0-1
  6
CONTINUOUS
 62
     3
 10
10687.11125862066
 20
18023.470549601181
 30
0.0
 11
10687.11125862066
 21
19878.955395421941
 31
0.0
  0
LINE
  5
D597
  8
0-1
  6
CONTINUOUS
 62
     3
 10
10524.110770620649
 20
17956.215310629079
 30
0.0
 11
10524.110770620649
 21
19878.955395421941
 31
0.0
  0
LINE
  5
D598
  8
0-1
  6
CONTINUOUS
 62
     3
 10
10487.11059862064
 20
17940.9487587285
 30
0.0
 11
10487.11059862064
 21
19878.955395421941
 31
0.0
  0
LINE
  5
D599
  8
0-1
  6
CONTINUOUS
 62
     3
 10
11924.111429620651
 20
18543.86631739905
 30
0.0
 11
11924.111429620651
 21
19878.955395421941
 31
0.0
  0
LINE
  5
D59A
  8
0-1
  6
CONTINUOUS
 62
     3
 10
11887.11224862065
 20
18528.600174392621
 30
0.0
 11
11887.11224862065
 21
19878.955395421941
 31
0.0
  0
LINE
  5
D59B
  8
0-1
  6
CONTINUOUS
 62
     3
 10
13445.11222162067
 20
16841.457797421961
 30
0.0
 11
10176.61222162066
 21
16841.457797421961
 31
0.0
  0
LINE
  5
D59C
  8
0-1
  6
CONTINUOUS
 62
     3
 10
10176.61222162066
 20
16841.457797421961
 30
0.0
 11
7822.373011131036
 21
16841.457797421961
 31
0.0
  0
LINE
  5
D59D
  8
2-0
  6
DASHED3
 62
     6
 10
7822.373011131036
 20
16841.457797421961
 30
0.0
 11
7376.6122216206613
 21
16841.457797421961
 31
0.0
  0
LINE
  5
D59E
  8
0-1
  6
CONTINUOUS
 62
     3
 10
10246.61132197683
 20
16796.457323080809
 30
0.0
 11
13375.111495620649
 21
13527.955421421961
 31
0.0
  0
LINE
  5
D59F
  8
0-1
  6
CONTINUOUS
 62
     3
 10
13375.111495620649
 20
16796.455421421939
 30
0.0
 11
10246.610967620651
 21
13527.955421421961
 31
0.0
  0
LINE
  5
D5A0
  8
0-1
  6
CONTINUOUS
 62
     3
 10
12263.109596644779
 20
18677.27490473236
 30
0.0
 11
10246.61132197683
 21
16796.457323080809
 31
0.0
  0
LINE
  5
D5A1
  8
0-1
  6
CONTINUOUS
 62
     3
 10
11636.67938192192
 20
18417.917480440941
 30
0.0
 11
13375.111495620649
 21
16796.455421421939
 31
0.0
  0
LINE
  5
D5A2
  8
0-1
  6
CONTINUOUS
 62
     3
 10
13512.61344862067
 20
19193.723275993321
 30
0.0
 11
13512.61344862067
 21
19919.456345421921
 31
0.0
  0
LINE
  5
D5A3
  8
0-1
  6
CONTINUOUS
 62
     3
 10
13457.11269662065
 20
19901.957400421921
 30
0.0
 11
13457.11269662065
 21
19931.95700442194
 31
0.0
  0
LINE
  5
D5A4
  8
0-1
  6
CONTINUOUS
 62
     3
 10
13530.61222162067
 20
19931.95700442194
 30
0.0
 11
13530.61222162067
 21
19896.955157421951
 31
0.0
  0
LINE
  5
D5A5
  8
0-1
  6
CONTINUOUS
 62
     3
 10
13462.11296062068
 20
19936.955289421941
 30
0.0
 11
13525.61294762067
 21
19936.955289421941
 31
0.0
  0
LINE
  5
D5A6
  8
0-1
  6
CONTINUOUS
 62
     3
 10
13512.61344862067
 20
19919.456345421921
 30
0.0
 11
13530.61222162067
 21
19919.456345421921
 31
0.0
  0
LINE
  5
D5A7
  8
0-1
  6
CONTINUOUS
 62
     3
 10
13512.61344862067
 20
19896.955157421951
 30
0.0
 11
13462.11296062068
 21
19896.955157421951
 31
0.0
  0
LINE
  5
D5A8
  8
2-0
  6
DASHED3
 62
     6
 10
13445.11222162067
 20
19675.45692542195
 30
0.0
 11
7376.6122216206613
 21
19675.45692542195
 31
0.0
  0
LINE
  5
D5A9
  8
2-0
  6
DASHED3
 62
     6
 10
13487.611495620649
 20
19184.645348218921
 30
0.0
 11
13487.611495620649
 21
19760.457453421961
 31
0.0
  0
LINE
  5
D5AA
  8
2-0
  6
DASHED3
 62
     6
 10
13445.11222162067
 20
19167.10982507981
 30
0.0
 11
13445.11222162067
 21
19760.457453421961
 31
0.0
  0
LINE
  5
D5AB
  8
2-0
  6
DASHED3
 62
     6
 10
13487.611495620649
 20
19760.457453421961
 30
0.0
 11
7376.6122216206613
 21
19760.457453421961
 31
0.0
  0
LINE
  5
D5AC
  8
2-0
  6
DASHED3
 62
     6
 10
10176.61222162066
 20
17812.83477083921
 30
0.0
 11
10176.61222162066
 21
19760.457453421961
 31
0.0
  0
LINE
  5
D5AD
  8
2-0
  6
DASHED3
 62
     6
 10
10134.110967620651
 20
17795.29843073705
 30
0.0
 11
10134.110967620651
 21
19760.457453421961
 31
0.0
  0
LINE
  5
D5AE
  8
2-0
  6
DASHED3
 62
     6
 10
13375.111495620649
 20
19714.45542142195
 30
0.0
 11
12263.109596644779
 21
18677.274904732381
 31
0.0
  0
LINE
  5
D5AF
  8
2-0
  6
DASHED3
 62
     6
 10
10246.610967620651
 20
19714.45542142195
 30
0.0
 11
11636.67938192192
 21
18417.917480440941
 31
0.0
  0
LINE
  5
D5B0
  8
2-0
  6
CENTER2
 62
     6
 10
10176.61222162066
 20
20956.95766442196
 30
0.0
 11
10176.61222162066
 21
20006.957004421929
 31
0.0
  0
LINE
  5
D5B1
  8
2-0
  6
CENTER2
 62
     6
 10
14774.61232662064
 20
19714.45542142195
 30
0.0
 11
13128.11310562066
 21
19714.45542142195
 31
0.0
  0
LINE
  5
D5B2
  8
0-8
  6
CONTINUOUS
 62
     6
 10
13445.11222162067
 20
20956.95766442196
 30
0.0
 11
13445.11222162067
 21
20006.957004421929
 31
0.0
  0
LINE
  5
D5B3
  8
2-0
  6
CENTER2
 62
     6
 10
14774.61232662064
 20
16796.455421421939
 30
0.0
 11
7204.8127736206552
 21
16796.455421421939
 31
0.0
  0
LINE
  5
D5B4
  8
2-0
  6
CENTER2
 62
     6
 10
14774.61232662064
 20
13527.955421421961
 30
0.0
 11
13128.11310562066
 21
13527.955421421961
 31
0.0
  0
ARC
  5
D5B5
  8
0-1
  6
CONTINUOUS
 62
     3
 10
13462.11296062068
 20
19901.957400421921
 30
0.0
 40
5.0
 50
180.0
 51
270.00001499981897
  0
ARC
  5
D5B6
  8
0-1
  6
CONTINUOUS
 62
     3
 10
13462.110259303179
 20
19931.95812334428
 30
0.0
 40
4.99729880777691
 50
89.969028448222716
 51
180.0128288362661
  0
ARC
  5
D5B7
  8
0-1
  6
CONTINUOUS
 62
     3
 10
13525.61587409688
 20
19931.95821660808
 30
0.0
 40
4.9970736707893684
 50
359.9861012352485
 51
90.033554587670935
  0
CIRCLE
  5
D5B8
  8
0-5
  6
CONTINUOUS
 62
     4
 10
10176.61222162066
 20
21156.956345421939
 30
0.0
 40
199.9999949999999
  0
CIRCLE
  5
D5B9
  8
0-5
  6
CONTINUOUS
 62
     4
 10
13445.11222162067
 20
21156.956345421939
 30
0.0
 40
199.9999949999999
  0
CIRCLE
  5
D5BA
  8
0-5
  6
CONTINUOUS
 62
     4
 10
14974.61199762065
 20
19714.45542142195
 30
0.0
 40
199.9999949999999
  0
CIRCLE
  5
D5BB
  8
0-5
  6
CONTINUOUS
 62
     4
 10
14974.61199762065
 20
16796.455421421939
 30
0.0
 40
199.9999949999999
  0
CIRCLE
  5
D5BC
  8
0-5
  6
CONTINUOUS
 62
     4
 10
14974.61199762065
 20
13527.955421421961
 30
0.0
 40
199.9999949999999
  0
TEXT
  5
D5BD
  8
0-5
  6
CONTINUOUS
 62
     7
 10
10123.662760953979
 20
21067.74142242195
 30
0.0
 40
160.0
  1
2
 72
     4
 11
10176.99609428732
 21
21147.74142242195
 31
0.0
  0
TEXT
  5
D5BE
  8
0-5
  6
CONTINUOUS
 62
     7
 10
13391.778888287339
 20
21076.956345421939
 30
0.0
 40
160.0
  1
3
 72
     4
 11
13445.11222162067
 21
21156.956345421939
 31
0.0
  0
TEXT
  5
D5BF
  8
0-5
  6
CONTINUOUS
 62
     7
 10
14921.405198953969
 20
19634.866897421951
 30
0.0
 40
160.0
  1
C
 72
     4
 11
14974.738532287311
 21
19714.866897421951
 31
0.0
  0
TEXT
  5
D5C0
  8
0-5
  6
CONTINUOUS
 62
     7
 10
14921.405198953969
 20
16716.867887421951
 30
0.0
 40
160.0
  1
B
 72
     4
 11
14974.738532287311
 21
16796.867887421951
 31
0.0
  0
TEXT
  5
D5C1
  8
0-5
  6
CONTINUOUS
 62
     7
 10
14921.405198953969
 20
13448.366897421951
 30
0.0
 40
160.0
  1
A
 72
     4
 11
14974.738532287311
 21
13528.366897421951
 31
0.0
  0
LINE
  5
D5C2
  8
2-0
  6
CENTER2
 62
     6
 10
7376.6122216206613
 20
20956.95766442196
 30
0.0
 11
7376.6122216206613
 21
20006.957004421929
 31
0.0
  0
CIRCLE
  5
D5C3
  8
0-5
  6
CONTINUOUS
 62
     4
 10
7376.6122216206613
 20
21156.956345421939
 30
0.0
 40
199.9999949999999
  0
TEXT
  5
D5C4
  8
0-5
  6
CONTINUOUS
 62
     7
 10
7350.329427620647
 20
21067.74142242195
 30
0.0
 40
160.0
  1
1
 72
     4
 11
7376.996094287314
 21
21147.74142242195
 31
0.0
  0
LINE
  5
D5C5
  8
0-1
  6
CONTINUOUS
 62
     3
 10
7309.1119836206544
 20
16630.92022318254
 30
0.0
 11
7309.1119836206544
 21
19919.456345421921
 31
0.0
  0
LINE
  5
D5C6
  8
0-1
  6
CONTINUOUS
 62
     3
 10
7309.1119836206544
 20
19919.456345421921
 30
0.0
 11
7291.1122216206613
 21
19919.456345421921
 31
0.0
  0
LINE
  5
D5C7
  8
0-1
  6
CONTINUOUS
 62
     3
 10
7364.612735620648
 20
19901.957400421921
 30
0.0
 11
7364.612735620648
 21
19931.95700442194
 31
0.0
  0
LINE
  5
D5C8
  8
0-1
  6
CONTINUOUS
 62
     3
 10
7309.1119836206544
 20
19896.955157421951
 30
0.0
 11
7359.6114816206446
 21
19896.955157421951
 31
0.0
  0
LINE
  5
D5C9
  8
0-1
  6
CONTINUOUS
 62
     3
 10
7291.1122216206613
 20
19931.95700442194
 30
0.0
 11
7291.1122216206613
 21
19896.955157421951
 31
0.0
  0
LINE
  5
D5CA
  8
0-1
  6
CONTINUOUS
 62
     3
 10
7359.6114816206446
 20
19936.955289421941
 30
0.0
 11
7296.1134746206644
 21
19936.955289421941
 31
0.0
  0
ARC
  5
D5CB
  8
0-1
  6
CONTINUOUS
 62
     3
 10
7296.1134746206644
 20
19931.95700442194
 30
0.0
 40
5.0
 50
90.0
 51
180.0
  0
ARC
  5
D5CC
  8
0-1
  6
CONTINUOUS
 62
     3
 10
7359.6114816206446
 20
19931.95700442194
 30
0.0
 40
5.0
 50
0.000000000000007
 51
90.0
  0
ARC
  5
D5CD
  8
0-1
  6
CONTINUOUS
 62
     3
 10
7359.6114816206446
 20
19901.957400421921
 30
0.0
 40
5.0
 50
270.00001499981897
 51
0.000000000000007
  0
LINE
  5
D5CE
  8
0-1
  6
CONTINUOUS
 62
     3
 10
10176.61222162066
 20
13491.45606842194
 30
0.0
 11
10176.61222162066
 21
13335.45614742195
 31
0.0
  0
LINE
  5
D5CF
  8
0-1
  6
CONTINUOUS
 62
     3
 10
13767.61162762065
 20
19300.17552865544
 30
0.0
 11
9767.8137682760134
 21
17644.161425081362
 31
0.0
  0
LINE
  5
D5D0
  8
0-1
  6
CONTINUOUS
 62
     3
 10
8843.4111626303784
 20
17262.745891226441
 30
0.0
 11
7026.52260501204
 21
16513.083877157522
 31
0.0
  0
LINE
  5
D5D1
  8
0-1
  6
CONTINUOUS
 62
     3
 10
7426.6118526206446
 20
13367.45605442196
 30
0.0
 11
7426.6118526206446
 21
16679.401561280039
 31
0.0
  0
LINE
  5
D5D2
  8
0-1
  6
CONTINUOUS
 62
     3
 10
7291.1122216206613
 20
13335.45614742195
 30
0.0
 11
7291.1122216206613
 21
16623.492813251982
 31
0.0
  0
LINE
  5
D5D3
  8
0-1
  6
CONTINUOUS
 62
     3
 10
7376.6122216206613
 20
13491.45606842194
 30
0.0
 11
7376.6122216206613
 21
16657.533511116071
 31
0.0
  0
LINE
  5
D5D4
  8
0-1
  6
CONTINUOUS
 62
     3
 10
7334.1109676206434
 20
13491.45606842194
 30
0.0
 11
7334.1109676206434
 21
16639.9971710139
 31
0.0
  0
LINE
  5
D5D5
  8
0-1
  6
CONTINUOUS
 62
     3
 10
7426.6118526206446
 20
16679.401561280039
 30
0.0
 11
7426.6118526206446
 21
19878.955395421948
 31
0.0
  0
LINE
  5
D5D6
  8
0-1
  6
CONTINUOUS
 62
     3
 10
7291.1122216206613
 20
16623.492813251982
 30
0.0
 11
7291.1122216206613
 21
19919.456345421921
 31
0.0
  0
LINE
  5
D5D7
  8
2-0
  6
DASHED3
 62
     6
 10
7376.6122216206613
 20
16657.533511116071
 30
0.0
 11
7376.6122216206613
 21
19878.955395421941
 31
0.0
  0
LINE
  5
D5D8
  8
2-0
  6
DASHED3
 62
     6
 10
7334.1109676206434
 20
16639.9971710139
 30
0.0
 11
7334.1109676206434
 21
19878.955395421941
 31
0.0
  0
LINE
  5
D5D9
  8
0-1
  6
CONTINUOUS
 62
     3
 10
10324.11011062065
 20
17873.693519756409
 30
0.0
 11
10324.11011062065
 21
19878.955395421941
 31
0.0
  0
LINE
  5
D5DA
  8
0-1
  6
CONTINUOUS
 62
     3
 10
10287.10993862065
 20
17858.426967855841
 30
0.0
 11
10287.10993862065
 21
19878.955395421948
 31
0.0
  0
LINE
  5
D5DB
  8
0-1
  6
CONTINUOUS
 62
     3
 10
10124.10945062063
 20
17791.171728883732
 30
0.0
 11
10124.10945062063
 21
19878.955395421941
 31
0.0
  0
LINE
  5
D5DC
  8
0-1
  6
CONTINUOUS
 62
     3
 10
10087.109278620621
 20
17775.905176983171
 30
0.0
 11
10087.109278620621
 21
19878.955395421948
 31
0.0
  0
LINE
  5
D5DD
  8
0-1
  6
CONTINUOUS
 62
     3
 10
9924.1087906206303
 20
17708.649938011062
 30
0.0
 11
9924.1087906206303
 21
19878.955395421941
 31
0.0
  0
LINE
  5
D5DE
  8
0-1
  6
CONTINUOUS
 62
     3
 10
9887.1086186206194
 20
17693.383386110509
 30
0.0
 11
9887.1086186206194
 21
19878.955395421948
 31
0.0
  0
LINE
  5
D5DF
  8
0-1
  6
CONTINUOUS
 62
     3
 10
9724.1081306206233
 20
17750.086857435181
 30
0.0
 11
9724.1081306206233
 21
19878.955395421941
 31
0.0
  0
LINE
  5
D5E0
  8
0-1
  6
CONTINUOUS
 62
     3
 10
9687.1079586206179
 20
17839.76085434993
 30
0.0
 11
9687.1079586206179
 21
19878.955395421948
 31
0.0
  0
LINE
  5
D5E1
  8
0-1
  6
CONTINUOUS
 62
     3
 10
9524.1074706206109
 20
17704.683263369581
 30
0.0
 11
9524.1074706206109
 21
19878.955395421941
 31
0.0
  0
LINE
  5
D5E2
  8
0-1
  6
CONTINUOUS
 62
     3
 10
9487.1072986206054
 20
17662.140022980711
 30
0.0
 11
9487.1072986206054
 21
19878.955395421948
 31
0.0
  0
LINE
  5
D5E3
  8
0-1
  6
CONTINUOUS
 62
     3
 10
9324.1068106206003
 20
17474.720111946601
 30
0.0
 11
9324.1068106206076
 21
19878.955395421941
 31
0.0
  0
LINE
  5
D5E4
  8
0-1
  6
CONTINUOUS
 62
     3
 10
9287.1066386205875
 20
17432.17687155772
 30
0.0
 11
9287.1066386205875
 21
19878.955395421948
 31
0.0
  0
LINE
  5
D5E5
  8
0-1
  6
CONTINUOUS
 62
     3
 10
9124.1061506205951
 20
17244.756960523609
 30
0.0
 11
9124.1061506205951
 21
19878.955395421941
 31
0.0
  0
LINE
  5
D5E6
  8
0-1
  6
CONTINUOUS
 62
     3
 10
9087.1059786205878
 20
17202.213720134721
 30
0.0
 11
9087.1059786205878
 21
19878.955395421948
 31
0.0
  0
LINE
  5
D5E7
  8
0-1
  6
CONTINUOUS
 62
     3
 10
8924.1054906205827
 20
17067.164947913789
 30
0.0
 11
8924.1054906205827
 21
19878.955395421941
 31
0.0
  0
LINE
  5
D5E8
  8
0-1
  6
CONTINUOUS
 62
     3
 10
8887.1053186205754
 20
17156.84322794569
 30
0.0
 11
8887.1053186205754
 21
19878.955395421948
 31
0.0
  0
LINE
  5
D5E9
  8
0-1
  6
CONTINUOUS
 62
     3
 10
8724.1048306205794
 20
17213.519192775049
 30
0.0
 11
8724.1048306205794
 21
19878.955395421941
 31
0.0
  0
LINE
  5
D5EA
  8
0-1
  6
CONTINUOUS
 62
     3
 10
8687.1046586205721
 20
17198.252640874482
 30
0.0
 11
8687.1046586205721
 21
19878.955395421948
 31
0.0
  0
LINE
  5
D5EB
  8
0-1
  6
CONTINUOUS
 62
     3
 10
8524.1041706205669
 20
17130.997401902368
 30
0.0
 11
8524.1041706205724
 21
19878.955395421941
 31
0.0
  0
LINE
  5
D5EC
  8
0-1
  6
CONTINUOUS
 62
     3
 10
8487.103998620556
 20
17115.730850001812
 30
0.0
 11
8487.103998620556
 21
19878.955395421948
 31
0.0
  0
LINE
  5
D5ED
  8
0-1
  6
CONTINUOUS
 62
     3
 10
8324.10351062056
 20
17048.475611029698
 30
0.0
 11
8324.10351062056
 21
19878.955395421941
 31
0.0
  0
LINE
  5
D5EE
  8
0-1
  6
CONTINUOUS
 62
     3
 10
8287.1033386205527
 20
17033.209059129149
 30
0.0
 11
8287.1033386205527
 21
19878.955395421948
 31
0.0
  0
LINE
  5
D5EF
  8
0-1
  6
CONTINUOUS
 62
     3
 10
8124.1028506205448
 20
16965.953820157029
 30
0.0
 11
8124.1028506205448
 21
19878.955395421941
 31
0.0
  0
LINE
  5
D5F0
  8
0-1
  6
CONTINUOUS
 62
     3
 10
8087.1026786205421
 20
16950.687268256461
 30
0.0
 11
8087.1026786205457
 21
19878.955395421948
 31
0.0
  0
LINE
  5
D5F1
  8
0-1
  6
CONTINUOUS
 62
     3
 10
7924.1021906205433
 20
16883.432029284369
 30
0.0
 11
7924.1021906205433
 21
19878.955395421941
 31
0.0
  0
LINE
  5
D5F2
  8
0-1
  6
CONTINUOUS
 62
     3
 10
7887.1020186205333
 20
16868.165477383809
 30
0.0
 11
7887.1020186205278
 21
19878.955395421948
 31
0.0
  0
LINE
  5
D5F3
  8
0-1
  6
CONTINUOUS
 62
     3
 10
7724.1015306205281
 20
16800.910238411689
 30
0.0
 11
7724.1015306205363
 21
19878.955395421941
 31
0.0
  0
LINE
  5
D5F4
  8
0-1
  6
CONTINUOUS
 62
     3
 10
7687.1013586205218
 20
16785.643686511132
 30
0.0
 11
7687.1013586205218
 21
19878.955395421948
 31
0.0
  0
LINE
  5
D5F5
  8
0-1
  6
CONTINUOUS
 62
     3
 10
7524.1008706205248
 20
16718.388447539019
 30
0.0
 11
7524.1008706205184
 21
19878.955395421941
 31
0.0
  0
LINE
  5
D5F6
  8
0-1
  6
CONTINUOUS
 62
     3
 10
7487.1006986205148
 20
16703.121895638451
 30
0.0
 11
7487.1006986205148
 21
19878.955395421948
 31
0.0
  0
LINE
  5
D5F7
  8
0-1
  6
CONTINUOUS
 62
     3
 10
10007.610967620651
 20
13527.955421421961
 30
0.0
 11
7593.2617392318116
 21
16746.92474704983
 31
0.0
  0
LINE
  5
D5F8
  8
0-1
  6
CONTINUOUS
 62
     3
 10
7556.1118526206437
 20
13527.955421421961
 30
0.0
 11
10007.610967620651
 21
16796.455421421961
 31
0.0
  0
LINE
  5
D5F9
  8
2-0
  6
DASHED3
 62
     6
 10
10007.610967620651
 20
19714.45542142195
 30
0.0
 11
7556.1118526206437
 21
16796.455421421939
 31
0.0
  0
LINE
  5
D5FA
  8
2-0
  6
DASHED3
 62
     6
 10
7556.1118526206437
 20
19714.45542142195
 30
0.0
 11
9381.9268462478794
 21
17541.20228059663
 31
0.0
  0
LINE
  5
D5FB
  8
0-1
  6
CONTINUOUS
 62
     3
 10
9381.9268462478794
 20
17541.20228059663
 30
0.0
 11
10007.610967620651
 21
16796.455421421961
 31
0.0
  0
LINE
  5
D5FC
  8
0-1
  6
CONTINUOUS
 62
     3
 10
9767.8143060357925
 20
17644.160121761241
 30
0.0
 11
9672.4602857122682
 21
17875.261104867441
 31
0.0
  0
LINE
  5
D5FD
  8
0-1
  6
CONTINUOUS
 62
     3
 10
8938.7607535290499
 20
17031.644605709811
 30
0.0
 11
8843.4101038515364
 21
17262.748457416281
 31
0.0
  0
LINE
  5
D5FE
  8
0-1
  6
CONTINUOUS
 62
     3
 10
8938.7607535290499
 20
17031.644605709811
 30
0.0
 11
9672.4602857122682
 21
17875.261104867441
 31
0.0
  0
LINE
  5
D5FF
  8
0-1
  6
CONTINUOUS
 62
     3
 10
7556.1118526206437
 20
16796.455421421939
 30
0.0
 11
7593.2617392318116
 21
16746.92474704983
 31
0.0
  0
LINE
  5
D600
  8
SUNPOU
  6
CONTINUOUS
 10
14374.611997620639
 20
19936.953309921959
 30
0.0
 11
14374.611997620639
 21
20733.920577700432
 31
0.0
  0
LINE
  5
D601
  8
SUNPOU
  6
CONTINUOUS
 10
14374.61199762067
 20
12594.14355726977
 30
0.0
 11
14374.61199762067
 21
13335.45614742195
 31
0.0
  0
LINE
  5
D602
  8
0-1
  6
CONTINUOUS
 62
     3
 10
12324.110770620629
 20
18702.530882156982
 30
0.0
 11
12324.110770620629
 21
19878.955395421941
 31
0.0
  0
LINE
  5
D603
  8
0-1
  6
CONTINUOUS
 62
     3
 10
12287.11059862064
 20
18687.21190634336
 30
0.0
 11
12287.11059862064
 21
19878.955395421941
 31
0.0
  0
LINE
  5
D604
  8
0-1
  6
CONTINUOUS
 62
     3
 10
12124.111099620641
 20
18619.726128633662
 30
0.0
 11
12124.111099620641
 21
19878.955395421941
 31
0.0
  0
LINE
  5
D605
  8
0-1
  6
CONTINUOUS
 62
     3
 10
12087.10993862065
 20
18604.406743349849
 30
0.0
 11
12087.10993862065
 21
19878.955395421941
 31
0.0
  0
LINE
  5
D606
  8
0-1
  6
CONTINUOUS
 62
     3
 10
12524.11142962064
 20
18785.336044736461
 30
0.0
 11
12524.11142962064
 21
19878.955395421941
 31
0.0
  0
LINE
  5
D607
  8
0-1
  6
CONTINUOUS
 62
     3
 10
12487.11224862064
 20
18770.017479221071
 30
0.0
 11
12487.11224862064
 21
19878.955395421941
 31
0.0
  0
LINE
  5
D608
  8
0-1
  6
CONTINUOUS
 62
     3
 10
12924.11077062062
 20
18950.945551369081
 30
0.0
 11
12924.11077062062
 21
19878.955395421941
 31
0.0
  0
LINE
  5
D609
  8
0-1
  6
CONTINUOUS
 62
     3
 10
12887.11059862062
 20
18935.626575555481
 30
0.0
 11
12887.11059862062
 21
19878.955395421941
 31
0.0
  0
LINE
  5
D60A
  8
0-1
  6
CONTINUOUS
 62
     3
 10
12724.11109962063
 20
18868.140797845761
 30
0.0
 11
12724.11109962063
 21
19878.955395421941
 31
0.0
  0
LINE
  5
D60B
  8
0-1
  6
CONTINUOUS
 62
     3
 10
12687.10993862063
 20
18852.821412561982
 30
0.0
 11
12687.10993862063
 21
19878.955395421941
 31
0.0
  0
LINE
  5
D60C
  8
0-1
  6
CONTINUOUS
 62
     3
 10
13124.111429620631
 20
19033.750713948561
 30
0.0
 11
13124.111429620631
 21
19878.955395421941
 31
0.0
  0
LINE
  5
D60D
  8
0-1
  6
CONTINUOUS
 62
     3
 10
13087.11224862062
 20
19018.432148433181
 30
0.0
 11
13087.11224862062
 21
19878.955395421941
 31
0.0
  0
LINE
  5
D60E
  8
0-1
  6
CONTINUOUS
 62
     3
 10
13324.112088620621
 20
19116.555876528058
 30
0.0
 11
13324.112088620621
 21
19878.955395421941
 31
0.0
  0
LINE
  5
D60F
  8
0-1
  6
CONTINUOUS
 62
     3
 10
13287.112907620631
 20
19101.237311012668
 30
0.0
 11
13287.112907620631
 21
19878.955395421941
 31
0.0
  0
LINE
  5
D610
  8
0-1
  6
CONTINUOUS
 62
     3
 10
7367.6117466206551
 20
19926.95872042195
 30
0.0
 11
13454.11269662067
 21
19926.95872042195
 31
0.0
  0
LINE
  5
D611
  8
0-1
  6
CONTINUOUS
 62
     3
 10
7312.1119836206544
 20
19878.955395421941
 30
0.0
 11
13509.61344862067
 21
19878.955395421941
 31
0.0
  0
LINE
  5
D612
  8
0-6
  6
CONTINUOUS
 62
     6
 10
11265.538689991619
 20
20069.36132842195
 30
0.0
 11
11222.236720991599
 21
20044.360008421951
 31
0.0
  0
LINE
  5
D613
  8
0-6
  6
CONTINUOUS
 62
     6
 10
11265.538689991619
 20
20069.36132842195
 30
0.0
 11
11318.88671599163
 21
19926.958720421921
 31
0.0
  0
LINE
  5
D614
  8
0-6
  6
CONTINUOUS
 62
     6
 10
11222.236720991599
 20
20044.360008421951
 30
0.0
 11
11265.538689991619
 21
20069.36132842195
 31
0.0
  0
LINE
  5
D615
  8
0-6
  6
CONTINUOUS
 62
     6
 10
11318.88671599163
 20
19926.958720421921
 30
0.0
 11
11222.236720991599
 21
20044.360008421951
 31
0.0
  0
LINE
  5
D616
  8
0-6
  6
CONTINUOUS
 62
     6
 10
11318.88671599163
 20
19926.958720421921
 30
0.0
 11
11265.538689991619
 21
20069.36132842195
 31
0.0
  0
LINE
  5
D617
  8
0-6
  6
CONTINUOUS
 62
     6
 10
11222.236720991599
 20
20044.360008421951
 30
0.0
 11
11318.88671599163
 21
19926.958720421921
 31
0.0
  0
LINE
  5
D618
  8
0-6
  6
CONTINUOUS
 62
     6
 10
11243.88869499163
 20
20056.86264842196
 30
0.0
 11
11018.30287832194
 21
20480.532488153061
 31
0.0
  0
TEXT
  5
D619
  8
0-6
  6
CONTINUOUS
 62
     7
 10
10844.63167499163
 20
21036.957928421951
 30
0.0
 40
160.0
  1
鼻隠し後
 72
     4
 11
11207.298341658299
 21
21116.957928421951
 31
0.0
  0
LINE
  5
D61A
  8
0-6
  6
CONTINUOUS
 62
     6
 10
10764.62943099163
 20
20956.957664421949
 30
0.0
 11
11607.068989991631
 21
20956.957664421949
 31
0.0
  0
LINE
  5
D61B
  8
0-6
  6
CONTINUOUS
 62
     6
 10
10950.269019269421
 20
20608.307167105351
 30
0.0
 11
10764.62943099163
 21
20956.957664421949
 31
0.0
  0
LINE
  5
D61C
  8
0-6
  6
CONTINUOUS
 62
     6
 10
12638.76426367292
 20
19761.73517005585
 30
0.0
 11
12532.06920167291
 21
19883.911057055841
 31
0.0
  0
LINE
  5
D61D
  8
0-6
  6
CONTINUOUS
 62
     6
 10
12577.45857367291
 20
19911.91134705584
 30
0.0
 11
12638.76426367292
 21
19761.73517005585
 31
0.0
  0
LINE
  5
D61E
  8
0-6
  6
CONTINUOUS
 62
     6
 10
12577.45857367291
 20
19911.91134705584
 30
0.0
 11
12532.06920167291
 21
19883.911057055841
 31
0.0
  0
LINE
  5
D61F
  8
0-6
  6
CONTINUOUS
 62
     6
 10
12638.76426367292
 20
19761.73517005585
 30
0.0
 11
12344.8364366729
 21
20168.233270055829
 31
0.0
  0
LINE
  5
D620
  8
0-6
  6
CONTINUOUS
 62
     6
 10
11544.8347876729
 20
20168.233270055829
 30
0.0
 11
12344.8364366729
 21
20168.233270055829
 31
0.0
  0
TEXT
  5
D621
  8
0-6
  6
CONTINUOUS
 62
     7
 10
11624.83604167293
 20
20248.233534055831
 30
0.0
 40
160.0
  1
桁（後）
 72
     4
 11
11944.83604167293
 21
20328.233534055831
 31
0.0
  0
LINE
  5
D622
  8
0-6
  6
CONTINUOUS
 62
     6
 10
8633.7233971465594
 20
16209.784114022381
 30
0.0
 11
9433.7250461465756
 21
16209.784114022381
 31
0.0
  0
TEXT
  5
D623
  8
0-6
  6
CONTINUOUS
 62
     7
 10
8729.7246511465873
 20
16289.78437802239
 30
0.0
 40
160.0
  1
桁（P）
 72
     4
 11
9033.7246511465873
 21
16369.78437802239
 31
0.0
  0
LINE
  5
D624
  8
0-6
  6
CONTINUOUS
 62
     6
 10
8633.7233971465594
 20
12804.28567102238
 30
0.0
 11
8318.4321465319954
 21
13335.45614742199
 31
0.0
  0
LINE
  5
D625
  8
0-6
  6
CONTINUOUS
 62
     6
 10
8633.7233971465594
 20
12804.28567102238
 30
0.0
 11
9433.7250461465756
 21
12804.28567102238
 31
0.0
  0
TEXT
  5
D626
  8
0-6
  6
CONTINUOUS
 62
     7
 10
8633.7246511465873
 20
12884.28593502237
 30
0.0
 40
160.0
  1
桁前（P）
 72
     4
 11
9033.7246511465873
 21
12964.28593502237
 31
0.0
  0
TEXT
  5
D62F
  8
0-6
  6
CONTINUOUS
 62
     7
 10
5440.1628704207369
 20
12615.45575142196
 30
0.0
 40
160.0
  1
梁（P）前
 72
     4
 11
5882.829537087403
 21
12695.45575142196
 31
0.0
  0
LINE
  5
D630
  8
0-6
  6
CONTINUOUS
 62
     6
 10
5375.965182238695
 20
12535.45647742196
 30
0.0
 11
6390.9553515635398
 21
12535.45647742196
 31
0.0
  0
LINE
  5
D633
  8
WAKUSEN-01
 10
868.00000000000193
 20
22484.000000000011
 30
0.0
 11
32764.000000000011
 21
22484.000000000011
 31
0.0
  0
LINE
  5
D636
  8
WAKUSEN-01
 10
20560.0
 20
2484.0
 30
0.0
 11
32764.0
 21
2484.0
 31
0.0
  0
LINE
  5
D637
  8
WAKUSEN-02
 10
20560.0
 20
1655.9999999999991
 30
0.0
 11
26868.0
 21
1655.9999999999991
 31
0.0
  0
TEXT
  5
D638
  8
WAKUMOJI-01
 10
20670.260259962761
 20
2125.9030093393221
 30
0.0
 40
240.0
  1
名　称
  7
WAKUMOJI
  0
TEXT
  5
D639
  8
WAKUMOJI-01
 10
20656.505485091919
 20
1319.12897497982
 30
0.0
 40
240.0
  1
機種名
  7
WAKUMOJI
  0
LINE
  5
D63C
  8
YODOROGO
 10
29977.604341291921
 20
1995.7494964292871
 30
0.0
 11
29829.604341291921
 21
1995.7494964292871
 31
0.0
1001
AUTOCAD_POSTSCRIPT_FIGURE
1002
{
1000
PSFILL
1000
Grayscale
1000
Grayscale
1070
    25
1002
}
  0
LINE
  5
D63D
  8
YODOROGO
 10
29829.604341291921
 20
1947.749496429288
 30
0.0
 11
29977.604341291921
 21
1947.749496429288
 31
0.0
1001
AUTOCAD_POSTSCRIPT_FIGURE
1002
{
1000
PSFILL
1000
Grayscale
1000
Grayscale
1070
    25
1002
}
  0
LINE
  5
D63E
  8
YODOROGO
 10
29977.604341291921
 20
1907.7494964292871
 30
0.0
 11
29829.604341291921
 21
1907.7494964292871
 31
0.0
1001
AUTOCAD_POSTSCRIPT_FIGURE
1002
{
1000
PSFILL
1000
Grayscale
1000
Grayscale
1070
    25
1002
}
  0
LINE
  5
D63F
  8
YODOROGO
 10
29829.604341291921
 20
1859.749496429288
 30
0.0
 11
29977.604341291921
 21
1859.749496429288
 31
0.0
1001
AUTOCAD_POSTSCRIPT_FIGURE
1002
{
1000
PSFILL
1000
Grayscale
1000
Grayscale
1070
    25
1002
}
  0
LINE
  5
D640
  8
YODOROGO
 10
29977.604341291921
 20
1819.7494964292871
 30
0.0
 11
29829.604341291921
 21
1819.7494964292871
 31
0.0
1001
AUTOCAD_POSTSCRIPT_FIGURE
1002
{
1000
PSFILL
1000
Grayscale
1000
Grayscale
1070
    25
1002
}
  0
LINE
  5
D641
  8
YODOROGO
 10
29921.60434129191
 20
1707.749496429288
 30
0.0
 11
29977.604341291921
 21
1707.749496429288
 31
0.0
1001
AUTOCAD_POSTSCRIPT_FIGURE
1002
{
1000
PSFILL
1000
Grayscale
1000
Grayscale
1070
    25
1002
}
  0
LINE
  5
D642
  8
YODOROGO
 10
29737.604341291921
 20
1427.749496429288
 30
0.0
 11
29937.604341291932
 21
1481.3393349155101
 31
0.0
  0
LINE
  5
D643
  8
YODOROGO
 10
29949.60434129191
 20
1707.749496429288
 30
0.0
 11
29885.604341291921
 21
1707.749496429288
 31
0.0
  0
ARC
  5
D644
  8
YODOROGO
 10
30254.34774982791
 20
1807.864609233261
 30
0.0
 40
381.88686420564721
 50
213.96111677667841
 51
264.47872074317792
  0
ARC
  5
D645
  8
YODOROGO
 10
30254.347749827921
 20
1807.864609233302
 30
0.0
 40
381.8868642056816
 50
208.14114420486601
 51
212.9210361185994
  0
LINE
  5
D646
  8
YODOROGO
 10
29771.409872985321
 20
1556.807661346234
 30
0.0
 11
29933.78413250855
 21
1600.3157130570869
 31
0.0
  0
LINE
  5
D647
  8
YODOROGO
 10
29737.604341291921
 20
1427.749496429288
 30
0.0
 11
29937.604341291932
 21
1481.3393349155101
 31
0.0
  0
LINE
  5
D648
  8
YODOROGO
 10
29949.60434129191
 20
1707.749496429288
 30
0.0
 11
29885.604341291921
 21
1707.749496429288
 31
0.0
  0
ARC
  5
D649
  8
YODOROGO
 10
30254.34774982791
 20
1807.864609233261
 30
0.0
 40
381.88686420564721
 50
213.96111677667841
 51
264.47872074317792
  0
LINE
  5
D64A
  8
YODOROGO
 10
28793.60434129191
 20
1819.7494964292871
 30
0.0
 11
28433.60434129191
 21
1819.7494964292871
 31
0.0
  0
LINE
  5
D64B
  8
YODOROGO
 10
28513.60434129191
 20
1427.749496429288
 30
0.0
 11
28793.60434129191
 21
1427.749496429288
 31
0.0
  0
LINE
  5
D64C
  8
YODOROGO
 10
28729.604341291921
 20
1923.7494964292871
 30
0.0
 11
28497.60434129191
 21
1923.7494964292871
 31
0.0
  0
LINE
  5
D64D
  8
YODOROGO
 10
28585.604341291921
 20
2027.749496429288
 30
0.0
 11
28657.604341291921
 21
2027.749496429288
 31
0.0
  0
LINE
  5
D64E
  8
YODOROGO
 10
28433.60434129191
 20
1707.749496429288
 30
0.0
 11
28433.60434129191
 21
1507.749496429288
 31
0.0
  0
LINE
  5
D64F
  8
YODOROGO
 10
28497.60434129191
 20
1563.7494964292871
 30
0.0
 11
28497.60434129191
 21
1707.749496429288
 31
0.0
  0
LINE
  5
D650
  8
YODOROGO
 10
28585.604341291921
 20
1747.74949642929
 30
0.0
 11
28585.604341291921
 21
1547.749496429288
 31
0.0
  0
LINE
  5
D651
  8
YODOROGO
 10
27857.604341291921
 20
1683.749496429288
 30
0.0
 11
27777.604341291921
 21
1619.9724140445701
 31
0.0
  0
LINE
  5
D652
  8
YODOROGO
 10
27937.604341291921
 20
1619.9724140445701
 30
0.0
 11
27857.604341291921
 21
1683.749496429288
 31
0.0
  0
LINE
  5
D653
  8
YODOROGO
 10
27857.604341291921
 20
1707.749496429288
 30
0.0
 11
27937.604341291921
 21
1643.9724140445701
 31
0.0
  0
LINE
  5
D654
  8
YODOROGO
 10
27777.604341291921
 20
1643.9724140445701
 30
0.0
 11
27857.604341291921
 21
1707.749496429288
 31
0.0
  0
LINE
  5
D655
  8
YODOROGO
 10
28040.913204016892
 20
1659.749496429288
 30
0.0
 11
28040.913204016892
 21
1683.7494964292871
 31
0.0
  0
LINE
  5
D656
  8
YODOROGO
 10
27977.604341291921
 20
1683.7494964292871
 30
0.0
 11
27977.604341291921
 21
1667.749496429285
 31
0.0
  0
LINE
  5
D657
  8
YODOROGO
 10
28098.135520230931
 20
1707.749496429288
 30
0.0
 11
28098.135520230931
 21
1655.5036372746561
 31
0.0
1001
AUTOCAD_POSTSCRIPT_FIGURE
1002
{
1000
PSFILL
1000
Grayscale
1000
Grayscale
1070
   100
1002
}
  0
LINE
  5
D658
  8
YODOROGO
 10
28082.135520230921
 20
1655.5036372746561
 30
0.0
 11
28082.135520230921
 21
1707.749496429288
 31
0.0
1001
AUTOCAD_POSTSCRIPT_FIGURE
1002
{
1000
PSFILL
1000
Grayscale
1000
Grayscale
1070
   100
1002
}
  0
LINE
  5
D659
  8
YODOROGO
 10
27809.604341291921
 20
1608.771904043258
 30
0.0
 11
27809.604341291921
 21
1632.771904043258
 31
0.0
  0
LINE
  5
D65A
  8
YODOROGO
 10
27905.604341291921
 20
1608.771904043258
 30
0.0
 11
27809.604341291921
 21
1608.771904043258
 31
0.0
  0
LINE
  5
D65B
  8
YODOROGO
 10
27905.604341291921
 20
1632.771904043258
 30
0.0
 11
27905.604341291921
 21
1608.771904043258
 31
0.0
  0
LINE
  5
D65C
  8
YODOROGO
 10
27809.604341291921
 20
1632.771904043258
 30
0.0
 11
27905.604341291921
 21
1632.771904043258
 31
0.0
  0
LINE
  5
D65D
  8
YODOROGO
 10
27824.509588915738
 20
1568.5028573704751
 30
0.0
 11
27785.604341291921
 21
1475.7494964292871
 31
0.0
1001
AUTOCAD_POSTSCRIPT_FIGURE
1002
{
1000
PSFILL
1000
Grayscale
1000
Grayscale
1070
   100
1002
}
  0
LINE
  5
D65E
  8
YODOROGO
 10
27777.604341291921
 20
1568.5028573704751
 30
0.0
 11
27824.509588915738
 21
1568.5028573704751
 31
0.0
1001
AUTOCAD_POSTSCRIPT_FIGURE
1002
{
1000
PSFILL
1000
Grayscale
1000
Grayscale
1070
   100
1002
}
  0
LINE
  5
D65F
  8
YODOROGO
 10
27777.604341291921
 20
1588.5028573704751
 30
0.0
 11
27777.604341291921
 21
1568.5028573704751
 31
0.0
1001
AUTOCAD_POSTSCRIPT_FIGURE
1002
{
1000
PSFILL
1000
Grayscale
1000
Grayscale
1070
   100
1002
}
  0
LINE
  5
D660
  8
YODOROGO
 10
27937.604341291921
 20
1588.5028573704751
 30
0.0
 11
27777.604341291921
 21
1588.5028573704751
 31
0.0
1001
AUTOCAD_POSTSCRIPT_FIGURE
1002
{
1000
PSFILL
1000
Grayscale
1000
Grayscale
1070
   100
1002
}
  0
LINE
  5
D661
  8
YODOROGO
 10
27937.604341291921
 20
1568.5028573704751
 30
0.0
 11
27937.604341291921
 21
1588.5028573704751
 31
0.0
1001
AUTOCAD_POSTSCRIPT_FIGURE
1002
{
1000
PSFILL
1000
Grayscale
1000
Grayscale
1070
   100
1002
}
  0
LINE
  5
D662
  8
YODOROGO
 10
27844.509588915738
 20
1568.5028573704751
 30
0.0
 11
27937.604341291921
 21
1568.5028573704751
 31
0.0
1001
AUTOCAD_POSTSCRIPT_FIGURE
1002
{
1000
PSFILL
1000
Grayscale
1000
Grayscale
1070
   100
1002
}
  0
LINE
  5
D663
  8
YODOROGO
 10
27815.546718284771
 20
1495.7494964292871
 30
0.0
 11
27844.509588915738
 21
1568.5028573704751
 31
0.0
1001
AUTOCAD_POSTSCRIPT_FIGURE
1002
{
1000
PSFILL
1000
Grayscale
1000
Grayscale
1070
   100
1002
}
  0
LINE
  5
D664
  8
YODOROGO
 10
27902.054790808648
 20
1495.7494964292871
 30
0.0
 11
27815.546718284771
 21
1495.7494964292871
 31
0.0
1001
AUTOCAD_POSTSCRIPT_FIGURE
1002
{
1000
PSFILL
1000
Grayscale
1000
Grayscale
1070
   100
1002
}
  0
LINE
  5
D665
  8
YODOROGO
 10
27885.065004790951
 20
1536.2338106976929
 30
0.0
 11
27902.054790808648
 21
1495.7494964292871
 31
0.0
1001
AUTOCAD_POSTSCRIPT_FIGURE
1002
{
1000
PSFILL
1000
Grayscale
1000
Grayscale
1070
   100
1002
}
  0
LINE
  5
D666
  8
YODOROGO
 10
27901.065004790951
 20
1536.2338106976929
 30
0.0
 11
27885.065004790951
 21
1536.2338106976929
 31
0.0
1001
AUTOCAD_POSTSCRIPT_FIGURE
1002
{
1000
PSFILL
1000
Grayscale
1000
Grayscale
1070
   100
1002
}
  0
LINE
  5
D667
  8
YODOROGO
 10
27929.604341291921
 20
1475.7494964292871
 30
0.0
 11
27901.065004790951
 21
1536.2338106976929
 31
0.0
1001
AUTOCAD_POSTSCRIPT_FIGURE
1002
{
1000
PSFILL
1000
Grayscale
1000
Grayscale
1070
   100
1002
}
  0
LINE
  5
D668
  8
YODOROGO
 10
27785.604341291921
 20
1475.7494964292871
 30
0.0
 11
27929.604341291921
 21
1475.7494964292871
 31
0.0
1001
AUTOCAD_POSTSCRIPT_FIGURE
1002
{
1000
PSFILL
1000
Grayscale
1000
Grayscale
1070
   100
1002
}
  0
LINE
  5
D669
  8
YODOROGO
 10
27777.604341291921
 20
1619.9724140445701
 30
0.0
 11
27777.604341291921
 21
1643.9724140445701
 31
0.0
  0
LINE
  5
D66A
  8
YODOROGO
 10
27937.604341291921
 20
1643.9724140445701
 30
0.0
 11
27937.604341291921
 21
1619.9724140445701
 31
0.0
  0
ARC
  5
D66B
  8
YODOROGO
 10
28225.940442146959
 20
1600.877765325326
 30
0.0
 40
175.9999999999998
 50
280.3644312771313
 51
3.5414836592180561
  0
ARC
  5
D66C
  8
YODOROGO
 10
28235.756030759301
 20
1633.5978069619041
 30
0.0
 40
111.9999999999982
 50
281.24905825041549
 51
348.75094174958321
  0
LINE
  5
D66D
  8
YODOROGO
 10
28257.604341291921
 20
1523.7494964292871
 30
0.0
 11
28257.604341291921
 21
1427.749496429288
 31
0.0
  0
LINE
  5
D66E
  8
YODOROGO
 10
28020.088903736909
 20
1610.650565061914
 30
0.0
 11
28040.913204016892
 21
1659.749496429288
 31
0.0
  0
LINE
  5
D66F
  8
YODOROGO
 10
28041.604341291921
 20
1583.120489948401
 30
0.0
 11
28020.088903736909
 21
1610.650565061914
 31
0.0
  0
LINE
  5
D670
  8
YODOROGO
 10
28041.604341291921
 20
1563.120489948398
 30
0.0
 11
28041.604341291921
 21
1583.120489948401
 31
0.0
  0
LINE
  5
D671
  8
YODOROGO
 10
28017.604341291921
 20
1585.2370637495301
 30
0.0
 11
28041.604341291921
 21
1563.120489948398
 31
0.0
  0
LINE
  5
D672
  8
YODOROGO
 10
28017.604341291921
 20
1475.7494964292871
 30
0.0
 11
28017.604341291921
 21
1585.2370637495301
 31
0.0
  0
LINE
  5
D673
  8
YODOROGO
 10
28001.604341291921
 20
1475.7494964292871
 30
0.0
 11
28017.604341291921
 21
1475.7494964292871
 31
0.0
  0
LINE
  5
D674
  8
YODOROGO
 10
28001.604341291921
 20
1580.0053496897469
 30
0.0
 11
28001.604341291921
 21
1475.7494964292871
 31
0.0
  0
LINE
  5
D675
  8
YODOROGO
 10
27977.604341291921
 20
1532.7680790334291
 30
0.0
 11
28001.604341291921
 21
1580.0053496897469
 31
0.0
  0
LINE
  5
D676
  8
YODOROGO
 10
27977.604341291921
 20
1556.76807903343
 30
0.0
 11
27977.604341291921
 21
1532.7680790334291
 31
0.0
  0
LINE
  5
D677
  8
YODOROGO
 10
28025.828774291349
 20
1667.749496429285
 30
0.0
 11
27977.604341291921
 21
1556.76807903343
 31
0.0
  0
LINE
  5
D678
  8
YODOROGO
 10
27977.604341291921
 20
1667.749496429285
 30
0.0
 11
28025.828774291349
 21
1667.749496429285
 31
0.0
  0
LINE
  5
D679
  8
YODOROGO
 10
28050.135520230899
 20
1655.5036372746561
 30
0.0
 11
28082.135520230921
 21
1655.5036372746561
 31
0.0
1001
AUTOCAD_POSTSCRIPT_FIGURE
1002
{
1000
PSFILL
1000
Grayscale
1000
Grayscale
1070
   100
1002
}
  0
LINE
  5
D67A
  8
YODOROGO
 10
28050.135520230899
 20
1631.5036372746561
 30
0.0
 11
28050.135520230899
 21
1655.5036372746561
 31
0.0
1001
AUTOCAD_POSTSCRIPT_FIGURE
1002
{
1000
PSFILL
1000
Grayscale
1000
Grayscale
1070
   100
1002
}
  0
LINE
  5
D67B
  8
YODOROGO
 10
28082.135520230921
 20
1631.5036372746561
 30
0.0
 11
28050.135520230899
 21
1631.5036372746561
 31
0.0
1001
AUTOCAD_POSTSCRIPT_FIGURE
1002
{
1000
PSFILL
1000
Grayscale
1000
Grayscale
1070
   100
1002
}
  0
LINE
  5
D67C
  8
YODOROGO
 10
28082.135520230921
 20
1499.749496429288
 30
0.0
 11
28082.135520230921
 21
1631.5036372746561
 31
0.0
1001
AUTOCAD_POSTSCRIPT_FIGURE
1002
{
1000
PSFILL
1000
Grayscale
1000
Grayscale
1070
   100
1002
}
  0
LINE
  5
D67D
  8
YODOROGO
 10
28050.135520230921
 20
1499.749496429288
 30
0.0
 11
28082.135520230921
 21
1499.749496429288
 31
0.0
1001
AUTOCAD_POSTSCRIPT_FIGURE
1002
{
1000
PSFILL
1000
Grayscale
1000
Grayscale
1070
   100
1002
}
  0
LINE
  5
D67E
  8
YODOROGO
 10
28050.135520230921
 20
1475.7494964292871
 30
0.0
 11
28050.135520230921
 21
1499.749496429288
 31
0.0
1001
AUTOCAD_POSTSCRIPT_FIGURE
1002
{
1000
PSFILL
1000
Grayscale
1000
Grayscale
1070
   100
1002
}
  0
LINE
  5
D67F
  8
YODOROGO
 10
28137.604341291921
 20
1475.7494964292871
 30
0.0
 11
28050.135520230921
 21
1475.7494964292871
 31
0.0
1001
AUTOCAD_POSTSCRIPT_FIGURE
1002
{
1000
PSFILL
1000
Grayscale
1000
Grayscale
1070
   100
1002
}
  0
LINE
  5
D680
  8
YODOROGO
 10
28137.604341291921
 20
1499.749496429288
 30
0.0
 11
28137.604341291921
 21
1475.7494964292871
 31
0.0
1001
AUTOCAD_POSTSCRIPT_FIGURE
1002
{
1000
PSFILL
1000
Grayscale
1000
Grayscale
1070
   100
1002
}
  0
LINE
  5
D681
  8
YODOROGO
 10
28098.135520230931
 20
1499.749496429288
 30
0.0
 11
28137.604341291921
 21
1499.749496429288
 31
0.0
1001
AUTOCAD_POSTSCRIPT_FIGURE
1002
{
1000
PSFILL
1000
Grayscale
1000
Grayscale
1070
   100
1002
}
  0
LINE
  5
D682
  8
YODOROGO
 10
28098.135520230931
 20
1631.5036372746561
 30
0.0
 11
28098.135520230931
 21
1499.749496429288
 31
0.0
1001
AUTOCAD_POSTSCRIPT_FIGURE
1002
{
1000
PSFILL
1000
Grayscale
1000
Grayscale
1070
   100
1002
}
  0
LINE
  5
D683
  8
YODOROGO
 10
28137.604341291921
 20
1631.5036372746561
 30
0.0
 11
28098.135520230931
 21
1631.5036372746561
 31
0.0
1001
AUTOCAD_POSTSCRIPT_FIGURE
1002
{
1000
PSFILL
1000
Grayscale
1000
Grayscale
1070
   100
1002
}
  0
LINE
  5
D684
  8
YODOROGO
 10
28137.604341291921
 20
1655.5036372746561
 30
0.0
 11
28137.604341291921
 21
1631.5036372746561
 31
0.0
1001
AUTOCAD_POSTSCRIPT_FIGURE
1002
{
1000
PSFILL
1000
Grayscale
1000
Grayscale
1070
   100
1002
}
  0
LINE
  5
D685
  8
YODOROGO
 10
28098.135520230931
 20
1655.5036372746561
 30
0.0
 11
28137.604341291921
 21
1655.5036372746561
 31
0.0
1001
AUTOCAD_POSTSCRIPT_FIGURE
1002
{
1000
PSFILL
1000
Grayscale
1000
Grayscale
1070
   100
1002
}
  0
LINE
  5
D686
  8
YODOROGO
 10
28401.60434129191
 20
1667.749496429288
 30
0.0
 11
28345.604341291921
 21
1667.749496429288
 31
0.0
  0
LINE
  5
D687
  8
YODOROGO
 10
28401.60434129191
 20
1611.749496429288
 30
0.0
 11
28401.60434129191
 21
1667.749496429288
 31
0.0
  0
LINE
  5
D688
  8
YODOROGO
 10
28345.604341291921
 20
1667.749496429288
 30
0.0
 11
28345.604341291921
 21
1611.749496429288
 31
0.0
  0
ARC
  5
D689
  8
YODOROGO
 10
28513.60434129191
 20
1507.749496429288
 30
0.0
 40
80.0
 50
180.0
 51
270.0
  0
ARC
  5
D68A
  8
YODOROGO
 10
28537.604341291921
 20
1563.7494964292871
 30
0.0
 40
40.0
 50
180.0
 51
270.0
  0
LINE
  5
D68B
  8
YODOROGO
 10
28561.604341291932
 20
1523.7494964292871
 30
0.0
 11
28537.604341291921
 21
1523.7494964292871
 31
0.0
  0
ARC
  5
D68C
  8
YODOROGO
 10
28561.604341291932
 20
1547.749496429285
 30
0.0
 40
23.999999999996358
 50
270.0
 51
0.0000000000054281
  0
LINE
  5
D68D
  8
YODOROGO
 10
27801.604341291921
 20
1890.786580793706
 30
0.0
 11
27777.604341291921
 21
1843.776747951672
 31
0.0
1001
AUTOCAD_POSTSCRIPT_FIGURE
1002
{
1000
PSFILL
1000
Grayscale
1000
Grayscale
1070
   100
1002
}
  0
LINE
  5
D68E
  8
YODOROGO
 10
27801.604341291921
 20
1747.749496429286
 30
0.0
 11
27801.604341291921
 21
1890.786580793706
 31
0.0
1001
AUTOCAD_POSTSCRIPT_FIGURE
1002
{
1000
PSFILL
1000
Grayscale
1000
Grayscale
1070
   100
1002
}
  0
LINE
  5
D68F
  8
YODOROGO
 10
27817.604341291921
 20
1747.749496429286
 30
0.0
 11
27801.604341291921
 21
1747.749496429286
 31
0.0
1001
AUTOCAD_POSTSCRIPT_FIGURE
1002
{
1000
PSFILL
1000
Grayscale
1000
Grayscale
1070
   100
1002
}
  0
LINE
  5
D690
  8
YODOROGO
 10
27817.604341291921
 20
1893.7713320852661
 30
0.0
 11
27817.604341291921
 21
1747.749496429286
 31
0.0
1001
AUTOCAD_POSTSCRIPT_FIGURE
1002
{
1000
PSFILL
1000
Grayscale
1000
Grayscale
1070
   100
1002
}
  0
LINE
  5
D691
  8
YODOROGO
 10
27841.604341291921
 20
1867.6547582841361
 30
0.0
 11
27817.604341291921
 21
1893.7713320852661
 31
0.0
1001
AUTOCAD_POSTSCRIPT_FIGURE
1002
{
1000
PSFILL
1000
Grayscale
1000
Grayscale
1070
   100
1002
}
  0
LINE
  5
D692
  8
YODOROGO
 10
27841.604341291921
 20
1883.6547582841361
 30
0.0
 11
27841.604341291921
 21
1867.6547582841361
 31
0.0
1001
AUTOCAD_POSTSCRIPT_FIGURE
1002
{
1000
PSFILL
1000
Grayscale
1000
Grayscale
1070
   100
1002
}
  0
LINE
  5
D693
  8
YODOROGO
 10
27817.604341291921
 20
1917.7713320852649
 30
0.0
 11
27841.604341291921
 21
1883.6547582841361
 31
0.0
1001
AUTOCAD_POSTSCRIPT_FIGURE
1002
{
1000
PSFILL
1000
Grayscale
1000
Grayscale
1070
   100
1002
}
  0
LINE
  5
D694
  8
YODOROGO
 10
27817.604341291921
 20
1939.749496429288
 30
0.0
 11
27817.604341291921
 21
1917.7713320852649
 31
0.0
1001
AUTOCAD_POSTSCRIPT_FIGURE
1002
{
1000
PSFILL
1000
Grayscale
1000
Grayscale
1070
   100
1002
}
  0
LINE
  5
D695
  8
YODOROGO
 10
27889.604341291921
 20
1939.749496429288
 30
0.0
 11
27817.604341291921
 21
1939.749496429288
 31
0.0
1001
AUTOCAD_POSTSCRIPT_FIGURE
1002
{
1000
PSFILL
1000
Grayscale
1000
Grayscale
1070
   100
1002
}
  0
LINE
  5
D696
  8
YODOROGO
 10
27889.604341291921
 20
1900.5683489363
 30
0.0
 11
27889.604341291921
 21
1939.749496429288
 31
0.0
1001
AUTOCAD_POSTSCRIPT_FIGURE
1002
{
1000
PSFILL
1000
Grayscale
1000
Grayscale
1070
   100
1002
}
  0
LINE
  5
D697
  8
YODOROGO
 10
27857.604341291921
 20
1900.5683489363
 30
0.0
 11
27889.604341291921
 21
1900.5683489363
 31
0.0
1001
AUTOCAD_POSTSCRIPT_FIGURE
1002
{
1000
PSFILL
1000
Grayscale
1000
Grayscale
1070
   100
1002
}
  0
LINE
  5
D698
  8
YODOROGO
 10
27857.604341291921
 20
1884.568348936298
 30
0.0
 11
27857.604341291921
 21
1900.5683489363
 31
0.0
1001
AUTOCAD_POSTSCRIPT_FIGURE
1002
{
1000
PSFILL
1000
Grayscale
1000
Grayscale
1070
   100
1002
}
  0
LINE
  5
D699
  8
YODOROGO
 10
27889.604341291921
 20
1884.568348936298
 30
0.0
 11
27857.604341291921
 21
1884.568348936298
 31
0.0
1001
AUTOCAD_POSTSCRIPT_FIGURE
1002
{
1000
PSFILL
1000
Grayscale
1000
Grayscale
1070
   100
1002
}
  0
LINE
  5
D69A
  8
YODOROGO
 10
27889.604341291921
 20
1879.6191779644371
 30
0.0
 11
27889.604341291921
 21
1884.568348936298
 31
0.0
1001
AUTOCAD_POSTSCRIPT_FIGURE
1002
{
1000
PSFILL
1000
Grayscale
1000
Grayscale
1070
   100
1002
}
  0
LINE
  5
D69B
  8
YODOROGO
 10
27849.604341291921
 20
1812.974981161417
 30
0.0
 11
27889.604341291921
 21
1879.6191779644371
 31
0.0
1001
AUTOCAD_POSTSCRIPT_FIGURE
1002
{
1000
PSFILL
1000
Grayscale
1000
Grayscale
1070
   100
1002
}
  0
LINE
  5
D69C
  8
YODOROGO
 10
27849.604341291921
 20
1796.9749811614161
 30
0.0
 11
27849.604341291921
 21
1812.974981161417
 31
0.0
1001
AUTOCAD_POSTSCRIPT_FIGURE
1002
{
1000
PSFILL
1000
Grayscale
1000
Grayscale
1070
   100
1002
}
  0
LINE
  5
D69D
  8
YODOROGO
 10
27889.604341291921
 20
1847.6191779644359
 30
0.0
 11
27849.604341291921
 21
1796.9749811614161
 31
0.0
1001
AUTOCAD_POSTSCRIPT_FIGURE
1002
{
1000
PSFILL
1000
Grayscale
1000
Grayscale
1070
   100
1002
}
  0
LINE
  5
D69E
  8
YODOROGO
 10
27889.604341291921
 20
1747.749496429286
 30
0.0
 11
27889.604341291921
 21
1847.6191779644359
 31
0.0
1001
AUTOCAD_POSTSCRIPT_FIGURE
1002
{
1000
PSFILL
1000
Grayscale
1000
Grayscale
1070
   100
1002
}
  0
LINE
  5
D69F
  8
YODOROGO
 10
27905.604341291921
 20
1747.749496429286
 30
0.0
 11
27889.604341291921
 21
1747.749496429286
 31
0.0
1001
AUTOCAD_POSTSCRIPT_FIGURE
1002
{
1000
PSFILL
1000
Grayscale
1000
Grayscale
1070
   100
1002
}
  0
LINE
  5
D6A0
  8
YODOROGO
 10
27905.604341291921
 20
1849.409012158806
 30
0.0
 11
27905.604341291921
 21
1747.749496429286
 31
0.0
1001
AUTOCAD_POSTSCRIPT_FIGURE
1002
{
1000
PSFILL
1000
Grayscale
1000
Grayscale
1070
   100
1002
}
  0
LINE
  5
D6A1
  8
YODOROGO
 10
27937.604341291921
 20
1796.9749811614161
 30
0.0
 11
27905.604341291921
 21
1849.409012158806
 31
0.0
1001
AUTOCAD_POSTSCRIPT_FIGURE
1002
{
1000
PSFILL
1000
Grayscale
1000
Grayscale
1070
   100
1002
}
  0
LINE
  5
D6A2
  8
YODOROGO
 10
27937.604341291921
 20
1812.974981161417
 30
0.0
 11
27937.604341291921
 21
1796.9749811614161
 31
0.0
1001
AUTOCAD_POSTSCRIPT_FIGURE
1002
{
1000
PSFILL
1000
Grayscale
1000
Grayscale
1070
   100
1002
}
  0
LINE
  5
D6A3
  8
YODOROGO
 10
27905.604341291921
 20
1881.4090121588081
 30
0.0
 11
27937.604341291921
 21
1812.974981161417
 31
0.0
1001
AUTOCAD_POSTSCRIPT_FIGURE
1002
{
1000
PSFILL
1000
Grayscale
1000
Grayscale
1070
   100
1002
}
  0
LINE
  5
D6A4
  8
YODOROGO
 10
27905.604341291921
 20
1884.5683489363
 30
0.0
 11
27905.604341291921
 21
1881.4090121588081
 31
0.0
1001
AUTOCAD_POSTSCRIPT_FIGURE
1002
{
1000
PSFILL
1000
Grayscale
1000
Grayscale
1070
   100
1002
}
  0
LINE
  5
D6A5
  8
YODOROGO
 10
27937.604341291921
 20
1884.568348936298
 30
0.0
 11
27905.604341291921
 21
1884.5683489363
 31
0.0
1001
AUTOCAD_POSTSCRIPT_FIGURE
1002
{
1000
PSFILL
1000
Grayscale
1000
Grayscale
1070
   100
1002
}
  0
LINE
  5
D6A6
  8
YODOROGO
 10
27937.604341291921
 20
1900.5683489363
 30
0.0
 11
27937.604341291921
 21
1884.568348936298
 31
0.0
1001
AUTOCAD_POSTSCRIPT_FIGURE
1002
{
1000
PSFILL
1000
Grayscale
1000
Grayscale
1070
   100
1002
}
  0
LINE
  5
D6A7
  8
YODOROGO
 10
27905.604341291921
 20
1900.5683489363
 30
0.0
 11
27937.604341291921
 21
1900.5683489363
 31
0.0
1001
AUTOCAD_POSTSCRIPT_FIGURE
1002
{
1000
PSFILL
1000
Grayscale
1000
Grayscale
1070
   100
1002
}
  0
LINE
  5
D6A8
  8
YODOROGO
 10
27905.604341291921
 20
1939.749496429288
 30
0.0
 11
27905.604341291921
 21
1900.5683489363
 31
0.0
1001
AUTOCAD_POSTSCRIPT_FIGURE
1002
{
1000
PSFILL
1000
Grayscale
1000
Grayscale
1070
   100
1002
}
  0
LINE
  5
D6A9
  8
YODOROGO
 10
27937.604341291921
 20
1939.749496429288
 30
0.0
 11
27905.604341291921
 21
1939.749496429288
 31
0.0
1001
AUTOCAD_POSTSCRIPT_FIGURE
1002
{
1000
PSFILL
1000
Grayscale
1000
Grayscale
1070
   100
1002
}
  0
LINE
  5
D6AA
  8
YODOROGO
 10
27937.604341291921
 20
1955.7494964292871
 30
0.0
 11
27937.604341291921
 21
1939.749496429288
 31
0.0
1001
AUTOCAD_POSTSCRIPT_FIGURE
1002
{
1000
PSFILL
1000
Grayscale
1000
Grayscale
1070
   100
1002
}
  0
LINE
  5
D6AB
  8
YODOROGO
 10
27905.604341291921
 20
1955.7494964292871
 30
0.0
 11
27937.604341291921
 21
1955.7494964292871
 31
0.0
1001
AUTOCAD_POSTSCRIPT_FIGURE
1002
{
1000
PSFILL
1000
Grayscale
1000
Grayscale
1070
   100
1002
}
  0
LINE
  5
D6AC
  8
YODOROGO
 10
27905.604341291921
 20
1979.749496429288
 30
0.0
 11
27905.604341291921
 21
1955.7494964292871
 31
0.0
1001
AUTOCAD_POSTSCRIPT_FIGURE
1002
{
1000
PSFILL
1000
Grayscale
1000
Grayscale
1070
   100
1002
}
  0
LINE
  5
D6AD
  8
YODOROGO
 10
27889.604341291921
 20
1979.749496429288
 30
0.0
 11
27905.604341291921
 21
1979.749496429288
 31
0.0
1001
AUTOCAD_POSTSCRIPT_FIGURE
1002
{
1000
PSFILL
1000
Grayscale
1000
Grayscale
1070
   100
1002
}
  0
LINE
  5
D6AE
  8
YODOROGO
 10
27889.604341291921
 20
1955.7494964292871
 30
0.0
 11
27889.604341291921
 21
1979.749496429288
 31
0.0
1001
AUTOCAD_POSTSCRIPT_FIGURE
1002
{
1000
PSFILL
1000
Grayscale
1000
Grayscale
1070
   100
1002
}
  0
LINE
  5
D6AF
  8
YODOROGO
 10
27865.604341291921
 20
1955.7494964292871
 30
0.0
 11
27889.604341291921
 21
1955.7494964292871
 31
0.0
1001
AUTOCAD_POSTSCRIPT_FIGURE
1002
{
1000
PSFILL
1000
Grayscale
1000
Grayscale
1070
   100
1002
}
  0
LINE
  5
D6B0
  8
YODOROGO
 10
27865.604341291921
 20
1979.749496429288
 30
0.0
 11
27865.604341291921
 21
1955.7494964292871
 31
0.0
1001
AUTOCAD_POSTSCRIPT_FIGURE
1002
{
1000
PSFILL
1000
Grayscale
1000
Grayscale
1070
   100
1002
}
  0
LINE
  5
D6B1
  8
YODOROGO
 10
27849.604341291921
 20
1979.749496429288
 30
0.0
 11
27865.604341291921
 21
1979.749496429288
 31
0.0
1001
AUTOCAD_POSTSCRIPT_FIGURE
1002
{
1000
PSFILL
1000
Grayscale
1000
Grayscale
1070
   100
1002
}
  0
LINE
  5
D6B2
  8
YODOROGO
 10
27849.604341291921
 20
1955.7494964292871
 30
0.0
 11
27849.604341291921
 21
1979.749496429288
 31
0.0
1001
AUTOCAD_POSTSCRIPT_FIGURE
1002
{
1000
PSFILL
1000
Grayscale
1000
Grayscale
1070
   100
1002
}
  0
LINE
  5
D6B3
  8
YODOROGO
 10
27817.604341291921
 20
1955.7494964292871
 30
0.0
 11
27849.604341291921
 21
1955.7494964292871
 31
0.0
1001
AUTOCAD_POSTSCRIPT_FIGURE
1002
{
1000
PSFILL
1000
Grayscale
1000
Grayscale
1070
   100
1002
}
  0
LINE
  5
D6B4
  8
YODOROGO
 10
27817.604341291921
 20
1979.749496429288
 30
0.0
 11
27817.604341291921
 21
1955.7494964292871
 31
0.0
1001
AUTOCAD_POSTSCRIPT_FIGURE
1002
{
1000
PSFILL
1000
Grayscale
1000
Grayscale
1070
   100
1002
}
  0
LINE
  5
D6B5
  8
YODOROGO
 10
27801.604341291921
 20
1979.749496429288
 30
0.0
 11
27817.604341291921
 21
1979.749496429288
 31
0.0
1001
AUTOCAD_POSTSCRIPT_FIGURE
1002
{
1000
PSFILL
1000
Grayscale
1000
Grayscale
1070
   100
1002
}
  0
LINE
  5
D6B6
  8
YODOROGO
 10
27801.604341291921
 20
1955.7494964292871
 30
0.0
 11
27801.604341291921
 21
1979.749496429288
 31
0.0
1001
AUTOCAD_POSTSCRIPT_FIGURE
1002
{
1000
PSFILL
1000
Grayscale
1000
Grayscale
1070
   100
1002
}
  0
LINE
  5
D6B7
  8
YODOROGO
 10
27777.604341291921
 20
1955.7494964292871
 30
0.0
 11
27801.604341291921
 21
1955.7494964292871
 31
0.0
1001
AUTOCAD_POSTSCRIPT_FIGURE
1002
{
1000
PSFILL
1000
Grayscale
1000
Grayscale
1070
   100
1002
}
  0
LINE
  5
D6B8
  8
YODOROGO
 10
27777.604341291921
 20
1939.749496429288
 30
0.0
 11
27777.604341291921
 21
1955.7494964292871
 31
0.0
1001
AUTOCAD_POSTSCRIPT_FIGURE
1002
{
1000
PSFILL
1000
Grayscale
1000
Grayscale
1070
   100
1002
}
  0
LINE
  5
D6B9
  8
YODOROGO
 10
27801.604341291921
 20
1939.749496429288
 30
0.0
 11
27777.604341291921
 21
1939.749496429288
 31
0.0
1001
AUTOCAD_POSTSCRIPT_FIGURE
1002
{
1000
PSFILL
1000
Grayscale
1000
Grayscale
1070
   100
1002
}
  0
LINE
  5
D6BA
  8
YODOROGO
 10
27801.604341291921
 20
1914.7865807937051
 30
0.0
 11
27801.604341291921
 21
1939.749496429288
 31
0.0
1001
AUTOCAD_POSTSCRIPT_FIGURE
1002
{
1000
PSFILL
1000
Grayscale
1000
Grayscale
1070
   100
1002
}
  0
LINE
  5
D6BB
  8
YODOROGO
 10
27777.604341291921
 20
1859.776747951671
 30
0.0
 11
27801.604341291921
 21
1914.7865807937051
 31
0.0
1001
AUTOCAD_POSTSCRIPT_FIGURE
1002
{
1000
PSFILL
1000
Grayscale
1000
Grayscale
1070
   100
1002
}
  0
LINE
  5
D6BC
  8
YODOROGO
 10
27777.604341291921
 20
1843.776747951672
 30
0.0
 11
27777.604341291921
 21
1859.776747951671
 31
0.0
1001
AUTOCAD_POSTSCRIPT_FIGURE
1002
{
1000
PSFILL
1000
Grayscale
1000
Grayscale
1070
   100
1002
}
  0
LINE
  5
D6BD
  8
YODOROGO
 10
28257.604341291921
 20
1867.7494964292871
 30
0.0
 11
28401.60434129191
 21
1824.877625640306
 31
0.0
1001
AUTOCAD_POSTSCRIPT_FIGURE
1002
{
1000
PSFILL
1000
Grayscale
1000
Grayscale
1070
   100
1002
}
  0
LINE
  5
D6BE
  8
YODOROGO
 10
28401.60434129191
 20
1752.877625640306
 30
0.0
 11
28257.604341291921
 21
1795.7494964292871
 31
0.0
1001
AUTOCAD_POSTSCRIPT_FIGURE
1002
{
1000
PSFILL
1000
Grayscale
1000
Grayscale
1070
   100
1002
}
  0
LINE
  5
D6BF
  8
YODOROGO
 10
28401.60434129191
 20
1984.877625640306
 30
0.0
 11
28257.604341291921
 21
2027.749496429288
 31
0.0
1001
AUTOCAD_POSTSCRIPT_FIGURE
1002
{
1000
PSFILL
1000
Grayscale
1000
Grayscale
1070
   100
1002
}
  0
LINE
  5
D6C0
  8
YODOROGO
 10
28257.604341291921
 20
1959.749496429288
 30
0.0
 11
28401.60434129191
 21
1916.8776256403071
 31
0.0
1001
AUTOCAD_POSTSCRIPT_FIGURE
1002
{
1000
PSFILL
1000
Grayscale
1000
Grayscale
1070
   100
1002
}
  0
LINE
  5
D6C1
  8
YODOROGO
 10
28257.604341291921
 20
1795.7494964292871
 30
0.0
 11
28257.604341291921
 21
1867.7494964292871
 31
0.0
1001
AUTOCAD_POSTSCRIPT_FIGURE
1002
{
1000
PSFILL
1000
Grayscale
1000
Grayscale
1070
   100
1002
}
  0
LINE
  5
D6C2
  8
YODOROGO
 10
28257.604341291921
 20
2027.749496429288
 30
0.0
 11
28257.604341291921
 21
1959.749496429288
 31
0.0
1001
AUTOCAD_POSTSCRIPT_FIGURE
1002
{
1000
PSFILL
1000
Grayscale
1000
Grayscale
1070
   100
1002
}
  0
LINE
  5
D6C3
  8
YODOROGO
 10
28080.236320206739
 20
1939.749496429288
 30
0.0
 11
28129.60434129191
 21
1747.749496429286
 31
0.0
1001
AUTOCAD_POSTSCRIPT_FIGURE
1002
{
1000
PSFILL
1000
Grayscale
1000
Grayscale
1070
   100
1002
}
  0
LINE
  5
D6C4
  8
YODOROGO
 10
27977.604341291921
 20
1939.749496429288
 30
0.0
 11
28080.236320206739
 21
1939.749496429288
 31
0.0
1001
AUTOCAD_POSTSCRIPT_FIGURE
1002
{
1000
PSFILL
1000
Grayscale
1000
Grayscale
1070
   100
1002
}
  0
LINE
  5
D6C5
  8
YODOROGO
 10
27977.604341291921
 20
1955.7494964292871
 30
0.0
 11
27977.604341291921
 21
1939.749496429288
 31
0.0
1001
AUTOCAD_POSTSCRIPT_FIGURE
1002
{
1000
PSFILL
1000
Grayscale
1000
Grayscale
1070
   100
1002
}
  0
LINE
  5
D6C6
  8
YODOROGO
 10
28076.60687851991
 20
1955.7494964292871
 30
0.0
 11
27977.604341291921
 21
1955.7494964292871
 31
0.0
1001
AUTOCAD_POSTSCRIPT_FIGURE
1002
{
1000
PSFILL
1000
Grayscale
1000
Grayscale
1070
   100
1002
}
  0
LINE
  5
D6C7
  8
YODOROGO
 10
28071.162715989711
 20
1979.749496429288
 30
0.0
 11
28076.60687851991
 21
1955.7494964292871
 31
0.0
1001
AUTOCAD_POSTSCRIPT_FIGURE
1002
{
1000
PSFILL
1000
Grayscale
1000
Grayscale
1070
   100
1002
}
  0
LINE
  5
D6C8
  8
YODOROGO
 10
28091.162715989711
 20
1979.749496429288
 30
0.0
 11
28071.162715989711
 21
1979.749496429288
 31
0.0
1001
AUTOCAD_POSTSCRIPT_FIGURE
1002
{
1000
PSFILL
1000
Grayscale
1000
Grayscale
1070
   100
1002
}
  0
LINE
  5
D6C9
  8
YODOROGO
 10
28095.806878519939
 20
1955.7494964292871
 30
0.0
 11
28091.162715989711
 21
1979.749496429288
 31
0.0
1001
AUTOCAD_POSTSCRIPT_FIGURE
1002
{
1000
PSFILL
1000
Grayscale
1000
Grayscale
1070
   100
1002
}
  0
LINE
  5
D6CA
  8
YODOROGO
 10
28121.604341291921
 20
1955.7494964292871
 30
0.0
 11
28095.806878519939
 21
1955.7494964292871
 31
0.0
1001
AUTOCAD_POSTSCRIPT_FIGURE
1002
{
1000
PSFILL
1000
Grayscale
1000
Grayscale
1070
   100
1002
}
  0
LINE
  5
D6CB
  8
YODOROGO
 10
28121.604341291921
 20
1979.749496429288
 30
0.0
 11
28121.604341291921
 21
1955.7494964292871
 31
0.0
1001
AUTOCAD_POSTSCRIPT_FIGURE
1002
{
1000
PSFILL
1000
Grayscale
1000
Grayscale
1070
   100
1002
}
  0
LINE
  5
D6CC
  8
YODOROGO
 10
28137.604341291921
 20
1979.749496429288
 30
0.0
 11
28121.604341291921
 21
1979.749496429288
 31
0.0
1001
AUTOCAD_POSTSCRIPT_FIGURE
1002
{
1000
PSFILL
1000
Grayscale
1000
Grayscale
1070
   100
1002
}
  0
LINE
  5
D6CD
  8
YODOROGO
 10
28137.604341291921
 20
1955.7494964292871
 30
0.0
 11
28137.604341291921
 21
1979.749496429288
 31
0.0
1001
AUTOCAD_POSTSCRIPT_FIGURE
1002
{
1000
PSFILL
1000
Grayscale
1000
Grayscale
1070
   100
1002
}
  0
LINE
  5
D6CE
  8
YODOROGO
 10
28137.604341291921
 20
1939.749496429288
 30
0.0
 11
28137.604341291921
 21
1955.7494964292871
 31
0.0
1001
AUTOCAD_POSTSCRIPT_FIGURE
1002
{
1000
PSFILL
1000
Grayscale
1000
Grayscale
1070
   100
1002
}
  0
LINE
  5
D6CF
  8
YODOROGO
 10
28098.902986873411
 20
1939.749496429288
 30
0.0
 11
28137.604341291921
 21
1939.749496429288
 31
0.0
1001
AUTOCAD_POSTSCRIPT_FIGURE
1002
{
1000
PSFILL
1000
Grayscale
1000
Grayscale
1070
   100
1002
}
  0
LINE
  5
D6D0
  8
YODOROGO
 10
28137.604341291921
 20
1747.749496429286
 30
0.0
 11
28098.902986873411
 21
1939.749496429288
 31
0.0
1001
AUTOCAD_POSTSCRIPT_FIGURE
1002
{
1000
PSFILL
1000
Grayscale
1000
Grayscale
1070
   100
1002
}
  0
LINE
  5
D6D1
  8
YODOROGO
 10
28129.60434129191
 20
1747.749496429286
 30
0.0
 11
28137.604341291921
 21
1747.749496429286
 31
0.0
1001
AUTOCAD_POSTSCRIPT_FIGURE
1002
{
1000
PSFILL
1000
Grayscale
1000
Grayscale
1070
   100
1002
}
  0
LINE
  5
D6D2
  8
YODOROGO
 10
28078.06921993379
 20
1775.7407762987939
 30
0.0
 11
27977.604341291921
 21
1747.749496429286
 31
0.0
  0
LINE
  5
D6D3
  8
YODOROGO
 10
28078.06921993379
 20
1798.6689795290731
 30
0.0
 11
28078.06921993379
 21
1775.7407762987939
 31
0.0
  0
LINE
  5
D6D4
  8
YODOROGO
 10
28033.83678061287
 20
1786.816933133767
 30
0.0
 11
28078.06921993379
 21
1798.6689795290731
 31
0.0
  0
LINE
  5
D6D5
  8
YODOROGO
 10
28033.83678061287
 20
1872.5683489362989
 30
0.0
 11
28033.83678061287
 21
1786.816933133767
 31
0.0
  0
LINE
  5
D6D6
  8
YODOROGO
 10
28078.06921993379
 20
1872.5683489362989
 30
0.0
 11
28033.83678061287
 21
1872.5683489362989
 31
0.0
  0
LINE
  5
D6D7
  8
YODOROGO
 10
28078.06921993379
 20
1892.568348936298
 30
0.0
 11
28078.06921993379
 21
1872.5683489362989
 31
0.0
  0
LINE
  5
D6D8
  8
YODOROGO
 10
27977.604341291921
 20
1892.568348936298
 30
0.0
 11
28078.06921993379
 21
1892.568348936298
 31
0.0
  0
LINE
  5
D6D9
  8
YODOROGO
 10
27977.604341291921
 20
1872.5683489362989
 30
0.0
 11
27977.604341291921
 21
1892.568348936298
 31
0.0
  0
LINE
  5
D6DA
  8
YODOROGO
 10
28021.836780612852
 20
1872.5683489362989
 30
0.0
 11
27977.604341291921
 21
1872.5683489362989
 31
0.0
  0
LINE
  5
D6DB
  8
YODOROGO
 10
28021.836780612852
 20
1784.673339594317
 30
0.0
 11
28021.836780612852
 21
1872.5683489362989
 31
0.0
  0
LINE
  5
D6DC
  8
YODOROGO
 10
27977.604341291921
 20
1771.749496429286
 30
0.0
 11
28021.836780612852
 21
1784.673339594317
 31
0.0
  0
LINE
  5
D6DD
  8
YODOROGO
 10
27977.604341291921
 20
1747.749496429286
 30
0.0
 11
27977.604341291921
 21
1771.749496429286
 31
0.0
  0
LINE
  5
D6DE
  8
YODOROGO
 10
28001.604341291921
 20
1707.749496429288
 30
0.0
 11
28001.604341291921
 21
1683.7494964292871
 31
0.0
  0
LINE
  5
D6DF
  8
YODOROGO
 10
28017.604341291921
 20
1707.749496429288
 30
0.0
 11
28001.604341291921
 21
1707.749496429288
 31
0.0
  0
LINE
  5
D6E0
  8
YODOROGO
 10
28017.604341291921
 20
1683.7494964292871
 30
0.0
 11
28017.604341291921
 21
1707.749496429288
 31
0.0
  0
LINE
  5
D6E1
  8
YODOROGO
 10
28040.913204016892
 20
1683.7494964292871
 30
0.0
 11
28017.604341291921
 21
1683.7494964292871
 31
0.0
  0
LINE
  5
D6E2
  8
YODOROGO
 10
28001.604341291921
 20
1683.7494964292871
 30
0.0
 11
27977.604341291921
 21
1683.7494964292871
 31
0.0
  0
LINE
  5
D6E3
  8
YODOROGO
 10
28082.135520230921
 20
1707.749496429288
 30
0.0
 11
28098.135520230931
 21
1707.749496429288
 31
0.0
1001
AUTOCAD_POSTSCRIPT_FIGURE
1002
{
1000
PSFILL
1000
Grayscale
1000
Grayscale
1070
   100
1002
}
  0
LINE
  5
D6E4
  8
YODOROGO
 10
28401.60434129191
 20
1824.877625640306
 30
0.0
 11
28401.60434129191
 21
1752.877625640306
 31
0.0
1001
AUTOCAD_POSTSCRIPT_FIGURE
1002
{
1000
PSFILL
1000
Grayscale
1000
Grayscale
1070
   100
1002
}
  0
LINE
  5
D6E5
  8
YODOROGO
 10
28401.60434129191
 20
1916.8776256403071
 30
0.0
 11
28401.60434129191
 21
1984.877625640306
 31
0.0
1001
AUTOCAD_POSTSCRIPT_FIGURE
1002
{
1000
PSFILL
1000
Grayscale
1000
Grayscale
1070
   100
1002
}
  0
LINE
  5
D6E6
  8
YODOROGO
 10
28433.60434129191
 20
1819.7494964292871
 30
0.0
 11
28433.60434129191
 21
1747.74949642929
 31
0.0
  0
LINE
  5
D6E7
  8
YODOROGO
 10
28497.60434129191
 20
1707.749496429288
 30
0.0
 11
28433.60434129191
 21
1707.749496429288
 31
0.0
  0
LINE
  5
D6E8
  8
YODOROGO
 10
28433.60434129191
 20
1747.74949642929
 30
0.0
 11
28585.604341291921
 21
1747.74949642929
 31
0.0
  0
LINE
  5
D6E9
  8
YODOROGO
 10
28497.60434129191
 20
1867.7494964292871
 30
0.0
 11
28433.60434129191
 21
1867.7494964292871
 31
0.0
  0
LINE
  5
D6EA
  8
YODOROGO
 10
28497.60434129191
 20
1923.7494964292871
 30
0.0
 11
28497.60434129191
 21
1867.7494964292871
 31
0.0
  0
LINE
  5
D6EB
  8
YODOROGO
 10
28585.604341291921
 20
1987.7494964292871
 30
0.0
 11
28585.604341291921
 21
2027.749496429288
 31
0.0
  0
LINE
  5
D6EC
  8
YODOROGO
 10
28433.60434129191
 20
1987.7494964292871
 30
0.0
 11
28585.604341291921
 21
1987.7494964292871
 31
0.0
  0
LINE
  5
D6ED
  8
YODOROGO
 10
28433.60434129191
 20
1867.7494964292871
 30
0.0
 11
28433.60434129191
 21
1987.7494964292871
 31
0.0
  0
LINE
  5
D6EE
  8
YODOROGO
 10
29001.60434129191
 20
2027.749496429288
 30
0.0
 11
29001.60434129191
 21
1619.749496429288
 31
0.0
  0
LINE
  5
D6EF
  8
YODOROGO
 10
29073.604341291921
 20
1579.749496429288
 30
0.0
 11
29073.604341291921
 21
2027.749496429288
 31
0.0
  0
LINE
  5
D6F0
  8
YODOROGO
 10
29261.604341291921
 20
1491.749496429286
 30
0.0
 11
29261.604341291921
 21
2007.749496429288
 31
0.0
  0
LINE
  5
D6F1
  8
YODOROGO
 10
29197.604341291921
 20
2007.749496429288
 30
0.0
 11
29197.604341291921
 21
1491.749496429286
 31
0.0
  0
LINE
  5
D6F2
  8
YODOROGO
 10
29385.604341291921
 20
2027.749496429288
 30
0.0
 11
29385.604341291921
 21
1427.749496429288
 31
0.0
  0
LINE
  5
D6F3
  8
YODOROGO
 10
29457.604341291921
 20
1427.749496429288
 30
0.0
 11
29457.604341291921
 21
2027.749496429288
 31
0.0
  0
LINE
  5
D6F4
  8
YODOROGO
 10
28657.604341291921
 20
1667.749496429288
 30
0.0
 11
28657.604341291921
 21
1747.74949642929
 31
0.0
  0
LINE
  5
D6F5
  8
YODOROGO
 10
29885.604341291921
 20
1707.749496429288
 30
0.0
 11
29885.604341291921
 21
1667.749496429288
 31
0.0
  0
LINE
  5
D6F6
  8
YODOROGO
 10
29885.604341291921
 20
1707.749496429288
 30
0.0
 11
29885.604341291921
 21
1667.749496429288
 31
0.0
  0
ARC
  5
D6F7
  8
YODOROGO
 10
28906.911576186842
 20
1618.217864442272
 30
0.0
 40
94.705151178741644
 50
274.05244162907098
 51
0.9266642149310712
  0
ARC
  5
D6F8
  8
YODOROGO
 10
28909.186170719819
 20
1592.61072861044
 30
0.0
 40
164.92042356085511
 50
271.5351210653775
 51
355.52727750585052
  0
LINE
  5
D6F9
  8
YODOROGO
 10
28913.604341291921
 20
1523.7494964292871
 30
0.0
 11
28913.604341291921
 21
1427.749496429288
 31
0.0
  0
LINE
  5
D6FA
  8
YODOROGO
 10
28793.60434129191
 20
1667.749496429288
 30
0.0
 11
28657.604341291921
 21
1667.749496429288
 31
0.0
  0
LINE
  5
D6FB
  8
YODOROGO
 10
28793.60434129191
 20
1603.7494964292871
 30
0.0
 11
28793.60434129191
 21
1667.749496429288
 31
0.0
  0
LINE
  5
D6FC
  8
YODOROGO
 10
28657.604341291921
 20
1603.7494964292871
 30
0.0
 11
28793.60434129191
 21
1603.7494964292871
 31
0.0
  0
LINE
  5
D6FD
  8
YODOROGO
 10
28657.604341291921
 20
1523.7494964292871
 30
0.0
 11
28657.604341291921
 21
1603.7494964292871
 31
0.0
  0
LINE
  5
D6FE
  8
YODOROGO
 10
28793.60434129191
 20
1523.7494964292871
 30
0.0
 11
28657.604341291921
 21
1523.7494964292871
 31
0.0
  0
LINE
  5
D6FF
  8
YODOROGO
 10
28793.60434129191
 20
1427.749496429288
 30
0.0
 11
28793.60434129191
 21
1523.7494964292871
 31
0.0
  0
LINE
  5
D700
  8
YODOROGO
 10
29197.604341291921
 20
1491.749496429286
 30
0.0
 11
29261.604341291921
 21
1491.749496429286
 31
0.0
  0
LINE
  5
D701
  8
YODOROGO
 10
29385.604341291921
 20
1427.749496429288
 30
0.0
 11
29457.604341291921
 21
1427.749496429288
 31
0.0
  0
LINE
  5
D702
  8
YODOROGO
 10
29737.604341291921
 20
1528.4414521705639
 30
0.0
 11
29737.604341291921
 21
1427.749496429288
 31
0.0
  0
LINE
  5
D703
  8
YODOROGO
 10
29617.604341291921
 20
1427.749496429288
 30
0.0
 11
29737.604341291921
 21
1528.4414521705639
 31
0.0
  0
LINE
  5
D704
  8
YODOROGO
 10
29617.604341291921
 20
1547.749496429288
 30
0.0
 11
29617.604341291921
 21
1427.749496429288
 31
0.0
  0
LINE
  5
D705
  8
YODOROGO
 10
29712.94462869945
 20
1627.749496429288
 30
0.0
 11
29617.604341291921
 21
1547.749496429288
 31
0.0
  0
LINE
  5
D706
  8
YODOROGO
 10
29617.604341291921
 20
1627.749496429288
 30
0.0
 11
29712.94462869945
 21
1627.749496429288
 31
0.0
  0
LINE
  5
D707
  8
YODOROGO
 10
29617.604341291921
 20
1667.749496429288
 30
0.0
 11
29617.604341291921
 21
1627.749496429288
 31
0.0
  0
LINE
  5
D708
  8
YODOROGO
 10
29885.604341291921
 20
1667.749496429288
 30
0.0
 11
29617.604341291921
 21
1667.749496429288
 31
0.0
  0
LINE
  5
D709
  8
YODOROGO
 10
29917.604341291921
 20
1627.749496429288
 30
0.0
 11
29777.604341291921
 21
1627.749496429288
 31
0.0
  0
LINE
  5
D70A
  8
YODOROGO
 10
29777.604341291921
 20
1562.0054374176559
 30
0.0
 11
29771.409872985321
 21
1556.807661346234
 31
0.0
  0
LINE
  5
D70B
  8
YODOROGO
 10
29777.604341291921
 20
1627.749496429288
 30
0.0
 11
29777.604341291921
 21
1562.0054374176559
 31
0.0
  0
LINE
  5
D70C
  8
YODOROGO
 10
29737.604341291921
 20
1528.4414521705639
 30
0.0
 11
29737.604341291921
 21
1427.749496429288
 31
0.0
  0
LINE
  5
D70D
  8
YODOROGO
 10
29617.604341291921
 20
1427.749496429288
 30
0.0
 11
29737.604341291921
 21
1528.4414521705639
 31
0.0
  0
LINE
  5
D70E
  8
YODOROGO
 10
29617.604341291921
 20
1547.749496429288
 30
0.0
 11
29617.604341291921
 21
1427.749496429288
 31
0.0
  0
LINE
  5
D70F
  8
YODOROGO
 10
29712.94462869945
 20
1627.749496429288
 30
0.0
 11
29617.604341291921
 21
1547.749496429288
 31
0.0
  0
LINE
  5
D710
  8
YODOROGO
 10
29617.604341291921
 20
1627.749496429288
 30
0.0
 11
29712.94462869945
 21
1627.749496429288
 31
0.0
  0
LINE
  5
D711
  8
YODOROGO
 10
29617.604341291921
 20
1667.749496429288
 30
0.0
 11
29617.604341291921
 21
1627.749496429288
 31
0.0
  0
LINE
  5
D712
  8
YODOROGO
 10
29885.604341291921
 20
1667.749496429288
 30
0.0
 11
29617.604341291921
 21
1667.749496429288
 31
0.0
  0
LINE
  5
D713
  8
YODOROGO
 10
28793.60434129191
 20
1747.74949642929
 30
0.0
 11
28793.60434129191
 21
1819.7494964292871
 31
0.0
  0
LINE
  5
D714
  8
YODOROGO
 10
28657.604341291921
 20
1747.74949642929
 30
0.0
 11
28793.60434129191
 21
1747.74949642929
 31
0.0
  0
LINE
  5
D715
  8
YODOROGO
 10
28729.604341291921
 20
1867.7494964292871
 30
0.0
 11
28729.604341291921
 21
1923.7494964292871
 31
0.0
  0
LINE
  5
D716
  8
YODOROGO
 10
28793.60434129191
 20
1867.7494964292871
 30
0.0
 11
28729.604341291921
 21
1867.7494964292871
 31
0.0
  0
LINE
  5
D717
  8
YODOROGO
 10
28793.60434129191
 20
1947.749496429288
 30
0.0
 11
28793.60434129191
 21
1867.7494964292871
 31
0.0
  0
ARC
  5
D718
  8
YODOROGO
 10
28753.60434129191
 20
1947.749496429288
 30
0.0
 40
40.0
 50
0.0
 51
90.0
  0
LINE
  5
D719
  8
YODOROGO
 10
28657.604341291921
 20
1987.7494964292871
 30
0.0
 11
28753.60434129191
 21
1987.7494964292871
 31
0.0
  0
LINE
  5
D71A
  8
YODOROGO
 10
28657.604341291921
 20
2027.749496429288
 30
0.0
 11
28657.604341291921
 21
1987.7494964292871
 31
0.0
  0
LINE
  5
D71B
  8
YODOROGO
 10
29073.604341291921
 20
2027.749496429288
 30
0.0
 11
29001.60434129191
 21
2027.749496429288
 31
0.0
  0
LINE
  5
D71C
  8
YODOROGO
 10
29261.604341291921
 20
2007.749496429288
 30
0.0
 11
29197.604341291921
 21
2007.749496429288
 31
0.0
  0
LINE
  5
D71D
  8
YODOROGO
 10
29457.604341291921
 20
2027.749496429288
 30
0.0
 11
29385.604341291921
 21
2027.749496429288
 31
0.0
  0
LINE
  5
D71E
  8
YODOROGO
 10
29673.604341291921
 20
1707.749496429288
 30
0.0
 11
29673.604341291921
 21
1771.7494964292871
 31
0.0
1001
AUTOCAD_POSTSCRIPT_FIGURE
1002
{
1000
PSFILL
1000
Grayscale
1000
Grayscale
1070
    25
1002
}
  0
LINE
  5
D71F
  8
YODOROGO
 10
29617.604341291921
 20
1707.749496429288
 30
0.0
 11
29673.604341291921
 21
1707.749496429288
 31
0.0
1001
AUTOCAD_POSTSCRIPT_FIGURE
1002
{
1000
PSFILL
1000
Grayscale
1000
Grayscale
1070
    25
1002
}
  0
LINE
  5
D720
  8
YODOROGO
 10
29617.604341291921
 20
1819.7494964292871
 30
0.0
 11
29617.604341291921
 21
1707.749496429288
 31
0.0
1001
AUTOCAD_POSTSCRIPT_FIGURE
1002
{
1000
PSFILL
1000
Grayscale
1000
Grayscale
1070
    25
1002
}
  0
LINE
  5
D721
  8
YODOROGO
 10
29765.604341291921
 20
1819.7494964292871
 30
0.0
 11
29617.604341291921
 21
1819.7494964292871
 31
0.0
1001
AUTOCAD_POSTSCRIPT_FIGURE
1002
{
1000
PSFILL
1000
Grayscale
1000
Grayscale
1070
    25
1002
}
  0
LINE
  5
D722
  8
YODOROGO
 10
29765.604341291921
 20
1859.749496429288
 30
0.0
 11
29765.604341291921
 21
1819.7494964292871
 31
0.0
1001
AUTOCAD_POSTSCRIPT_FIGURE
1002
{
1000
PSFILL
1000
Grayscale
1000
Grayscale
1070
    25
1002
}
  0
LINE
  5
D723
  8
YODOROGO
 10
29617.604341291921
 20
1859.749496429288
 30
0.0
 11
29765.604341291921
 21
1859.749496429288
 31
0.0
1001
AUTOCAD_POSTSCRIPT_FIGURE
1002
{
1000
PSFILL
1000
Grayscale
1000
Grayscale
1070
    25
1002
}
  0
LINE
  5
D724
  8
YODOROGO
 10
29617.604341291921
 20
1907.7494964292871
 30
0.0
 11
29617.604341291921
 21
1859.749496429288
 31
0.0
1001
AUTOCAD_POSTSCRIPT_FIGURE
1002
{
1000
PSFILL
1000
Grayscale
1000
Grayscale
1070
    25
1002
}
  0
LINE
  5
D725
  8
YODOROGO
 10
29765.604341291921
 20
1907.7494964292871
 30
0.0
 11
29617.604341291921
 21
1907.7494964292871
 31
0.0
1001
AUTOCAD_POSTSCRIPT_FIGURE
1002
{
1000
PSFILL
1000
Grayscale
1000
Grayscale
1070
    25
1002
}
  0
LINE
  5
D726
  8
YODOROGO
 10
29765.604341291921
 20
1947.749496429288
 30
0.0
 11
29765.604341291921
 21
1907.7494964292871
 31
0.0
1001
AUTOCAD_POSTSCRIPT_FIGURE
1002
{
1000
PSFILL
1000
Grayscale
1000
Grayscale
1070
    25
1002
}
  0
LINE
  5
D727
  8
YODOROGO
 10
29617.604341291921
 20
1947.749496429288
 30
0.0
 11
29765.604341291921
 21
1947.749496429288
 31
0.0
1001
AUTOCAD_POSTSCRIPT_FIGURE
1002
{
1000
PSFILL
1000
Grayscale
1000
Grayscale
1070
    25
1002
}
  0
LINE
  5
D728
  8
YODOROGO
 10
29617.604341291921
 20
2027.749496429288
 30
0.0
 11
29617.604341291921
 21
1947.749496429288
 31
0.0
1001
AUTOCAD_POSTSCRIPT_FIGURE
1002
{
1000
PSFILL
1000
Grayscale
1000
Grayscale
1070
    25
1002
}
  0
LINE
  5
D729
  8
YODOROGO
 10
29665.604341291921
 20
2027.749496429288
 30
0.0
 11
29617.604341291921
 21
2027.749496429288
 31
0.0
1001
AUTOCAD_POSTSCRIPT_FIGURE
1002
{
1000
PSFILL
1000
Grayscale
1000
Grayscale
1070
    25
1002
}
  0
LINE
  5
D72A
  8
YODOROGO
 10
29665.604341291921
 20
1995.7494964292871
 30
0.0
 11
29665.604341291921
 21
2027.749496429288
 31
0.0
1001
AUTOCAD_POSTSCRIPT_FIGURE
1002
{
1000
PSFILL
1000
Grayscale
1000
Grayscale
1070
    25
1002
}
  0
LINE
  5
D72B
  8
YODOROGO
 10
29765.604341291921
 20
1995.7494964292871
 30
0.0
 11
29665.604341291921
 21
1995.7494964292871
 31
0.0
1001
AUTOCAD_POSTSCRIPT_FIGURE
1002
{
1000
PSFILL
1000
Grayscale
1000
Grayscale
1070
    25
1002
}
  0
LINE
  5
D72C
  8
YODOROGO
 10
29765.604341291921
 20
2027.749496429288
 30
0.0
 11
29765.604341291921
 21
1995.7494964292871
 31
0.0
1001
AUTOCAD_POSTSCRIPT_FIGURE
1002
{
1000
PSFILL
1000
Grayscale
1000
Grayscale
1070
    25
1002
}
  0
LINE
  5
D72D
  8
YODOROGO
 10
29829.604341291921
 20
2027.749496429288
 30
0.0
 11
29765.604341291921
 21
2027.749496429288
 31
0.0
1001
AUTOCAD_POSTSCRIPT_FIGURE
1002
{
1000
PSFILL
1000
Grayscale
1000
Grayscale
1070
    25
1002
}
  0
LINE
  5
D72E
  8
YODOROGO
 10
29829.604341291921
 20
1995.7494964292871
 30
0.0
 11
29829.604341291921
 21
2027.749496429288
 31
0.0
1001
AUTOCAD_POSTSCRIPT_FIGURE
1002
{
1000
PSFILL
1000
Grayscale
1000
Grayscale
1070
    25
1002
}
  0
LINE
  5
D72F
  8
YODOROGO
 10
29829.604341291921
 20
1907.7494964292871
 30
0.0
 11
29829.604341291921
 21
1947.749496429288
 31
0.0
1001
AUTOCAD_POSTSCRIPT_FIGURE
1002
{
1000
PSFILL
1000
Grayscale
1000
Grayscale
1070
    25
1002
}
  0
LINE
  5
D730
  8
YODOROGO
 10
29829.604341291921
 20
1819.7494964292871
 30
0.0
 11
29829.604341291921
 21
1859.749496429288
 31
0.0
1001
AUTOCAD_POSTSCRIPT_FIGURE
1002
{
1000
PSFILL
1000
Grayscale
1000
Grayscale
1070
    25
1002
}
  0
LINE
  5
D731
  8
YODOROGO
 10
29921.60434129191
 20
1771.7494964292871
 30
0.0
 11
29921.60434129191
 21
1707.749496429288
 31
0.0
1001
AUTOCAD_POSTSCRIPT_FIGURE
1002
{
1000
PSFILL
1000
Grayscale
1000
Grayscale
1070
    25
1002
}
  0
LINE
  5
D732
  8
YODOROGO
 10
29829.604341291921
 20
1771.7494964292871
 30
0.0
 11
29921.60434129191
 21
1771.7494964292871
 31
0.0
1001
AUTOCAD_POSTSCRIPT_FIGURE
1002
{
1000
PSFILL
1000
Grayscale
1000
Grayscale
1070
    25
1002
}
  0
LINE
  5
D733
  8
YODOROGO
 10
29829.604341291921
 20
1707.749496429288
 30
0.0
 11
29829.604341291921
 21
1771.7494964292871
 31
0.0
1001
AUTOCAD_POSTSCRIPT_FIGURE
1002
{
1000
PSFILL
1000
Grayscale
1000
Grayscale
1070
    25
1002
}
  0
LINE
  5
D734
  8
YODOROGO
 10
29765.604341291921
 20
1707.749496429288
 30
0.0
 11
29829.604341291921
 21
1707.749496429288
 31
0.0
1001
AUTOCAD_POSTSCRIPT_FIGURE
1002
{
1000
PSFILL
1000
Grayscale
1000
Grayscale
1070
    25
1002
}
  0
LINE
  5
D735
  8
YODOROGO
 10
29765.604341291921
 20
1771.7494964292871
 30
0.0
 11
29765.604341291921
 21
1707.749496429288
 31
0.0
1001
AUTOCAD_POSTSCRIPT_FIGURE
1002
{
1000
PSFILL
1000
Grayscale
1000
Grayscale
1070
    25
1002
}
  0
LINE
  5
D736
  8
YODOROGO
 10
29673.604341291921
 20
1771.7494964292871
 30
0.0
 11
29765.604341291921
 21
1771.7494964292871
 31
0.0
1001
AUTOCAD_POSTSCRIPT_FIGURE
1002
{
1000
PSFILL
1000
Grayscale
1000
Grayscale
1070
    25
1002
}
  0
ARC
  5
D737
  8
YODOROGO
 10
31059.517893357912
 20
1602.6807375155761
 30
0.0
 40
178.22128111072141
 50
281.02627495425338
 51
357.77113575573799
  0
LINE
  5
D738
  8
YODOROGO
 10
31413.604341291921
 20
1907.7494964292871
 30
0.0
 11
31165.604341291921
 21
1907.7494964292871
 31
0.0
  0
LINE
  5
D739
  8
YODOROGO
 10
31413.604341291921
 20
2027.749496429288
 30
0.0
 11
31165.604341291921
 21
2027.749496429288
 31
0.0
  0
LINE
  5
D73A
  8
YODOROGO
 10
31165.604341291921
 20
1963.749496429286
 30
0.0
 11
31413.604341291921
 21
1963.749496429286
 31
0.0
  0
LINE
  5
D73B
  8
YODOROGO
 10
30791.604341291921
 20
1563.7494964292871
 30
0.0
 11
30791.604341291921
 21
1755.7494964292871
 31
0.0
  0
LINE
  5
D73C
  8
YODOROGO
 10
30763.604341291921
 20
1691.749496429288
 30
0.0
 11
30763.604341291921
 21
1563.7494964292871
 31
0.0
  0
LINE
  5
D73D
  8
YODOROGO
 10
30723.604341291921
 20
1491.749496429288
 30
0.0
 11
30723.604341291921
 21
1691.749496429288
 31
0.0
  0
LINE
  5
D73E
  8
YODOROGO
 10
30899.604341291932
 20
1691.749496429288
 30
0.0
 11
30899.604341291932
 21
1491.749496429288
 31
0.0
  0
LINE
  5
D73F
  8
YODOROGO
 10
30859.604341291932
 20
1563.7494964292871
 30
0.0
 11
30859.604341291932
 21
1691.749496429288
 31
0.0
  0
LINE
  5
D740
  8
YODOROGO
 10
30831.604341291921
 20
1755.7494964292871
 30
0.0
 11
30831.604341291921
 21
1563.7494964292871
 31
0.0
  0
LINE
  5
D741
  8
YODOROGO
 10
30973.604341291921
 20
2027.749496429288
 30
0.0
 11
30973.604341291921
 21
1467.749496429288
 31
0.0
  0
LINE
  5
D742
  8
YODOROGO
 10
30645.604341291921
 20
1427.749496429288
 30
0.0
 11
30645.604341291921
 21
2027.749496429288
 31
0.0
  0
LINE
  5
D743
  8
YODOROGO
 10
30697.604341291932
 20
1963.749496429286
 30
0.0
 11
30697.604341291932
 21
1427.749496429288
 31
0.0
  0
LINE
  5
D744
  8
YODOROGO
 10
30925.604341291921
 20
1547.749496429288
 30
0.0
 11
30925.604341291921
 21
1963.749496429286
 31
0.0
  0
LINE
  5
D745
  8
YODOROGO
 10
30381.604341291932
 20
1627.749496429288
 30
0.0
 11
30381.604341291932
 21
1679.749496429288
 31
0.0
  0
LINE
  5
D746
  8
YODOROGO
 10
30617.604341291921
 20
1679.749496429288
 30
0.0
 11
30617.604341291921
 21
1627.749496429288
 31
0.0
  0
LINE
  5
D747
  8
YODOROGO
 10
31165.604341291921
 20
1907.7494964292871
 30
0.0
 11
31165.604341291921
 21
1635.7494964292871
 31
0.0
  0
LINE
  5
D748
  8
YODOROGO
 10
29949.60434129191
 20
1667.749496429288
 30
0.0
 11
29949.60434129191
 21
1707.749496429288
 31
0.0
  0
LINE
  5
D749
  8
YODOROGO
 10
29949.60434129191
 20
1667.749496429288
 30
0.0
 11
29949.60434129191
 21
1707.749496429288
 31
0.0
  0
ARC
  5
D74A
  8
YODOROGO
 10
30537.604341291921
 20
1507.749496429288
 30
0.0
 40
80.0
 50
270.0
 51
0.0
  0
LINE
  5
D74B
  8
YODOROGO
 10
30569.604341291921
 20
1599.7494964292871
 30
0.0
 11
30617.604341291921
 21
1599.7494964292871
 31
0.0
  0
LINE
  5
D74C
  8
YODOROGO
 10
30617.604341291921
 20
1627.749496429288
 30
0.0
 11
30529.604341291939
 21
1627.749496429288
 31
0.0
  0
LINE
  5
D74D
  8
YODOROGO
 10
30217.604341291921
 20
1667.749496429288
 30
0.0
 11
29949.60434129191
 21
1667.749496429288
 31
0.0
  0
LINE
  5
D74E
  8
YODOROGO
 10
30217.604341291921
 20
1627.749496429288
 30
0.0
 11
30217.604341291921
 21
1667.749496429288
 31
0.0
  0
LINE
  5
D74F
  8
YODOROGO
 10
30017.604341291921
 20
1627.749496429288
 30
0.0
 11
30217.604341291921
 21
1627.749496429288
 31
0.0
  0
ARC
  5
D750
  8
YODOROGO
 10
30230.05882870136
 20
1868.885714952901
 30
0.0
 40
321.37763628522822
 50
228.6181454618993
 51
245.660289248906
  0
LINE
  5
D751
  8
YODOROGO
 10
30105.604341291921
 20
1603.7494964292871
 30
0.0
 11
30097.60434129195
 21
1576.0728158699001
 31
0.0
  0
LINE
  5
D752
  8
YODOROGO
 10
30189.604341291921
 20
1603.7494964292871
 30
0.0
 11
30105.604341291921
 21
1603.7494964292871
 31
0.0
  0
LINE
  5
D753
  8
YODOROGO
 10
30177.604341291921
 20
1551.817722473427
 30
0.0
 11
30189.604341291921
 21
1603.7494964292871
 31
0.0
  0
ARC
  5
D754
  8
YODOROGO
 10
30230.05882870045
 20
1868.885714953002
 30
0.0
 40
321.37763628529081
 50
260.60629297969911
 51
267.77903556555862
  0
LINE
  5
D755
  8
YODOROGO
 10
30217.604341291921
 20
1427.749496429285
 30
0.0
 11
30217.604341291921
 21
1547.749496429288
 31
0.0
  0
LINE
  5
D756
  8
YODOROGO
 10
29937.604341291932
 20
1481.3393349155101
 30
0.0
 11
29937.604341291921
 21
1594.531090531141
 31
0.0
  0
LINE
  5
D757
  8
YODOROGO
 10
30217.604341291921
 20
1667.749496429288
 30
0.0
 11
29949.60434129191
 21
1667.749496429288
 31
0.0
  0
LINE
  5
D758
  8
YODOROGO
 10
30217.604341291921
 20
1627.749496429288
 30
0.0
 11
30217.604341291921
 21
1667.749496429288
 31
0.0
  0
LINE
  5
D759
  8
YODOROGO
 10
30017.604341291921
 20
1627.749496429288
 30
0.0
 11
30217.604341291921
 21
1627.749496429288
 31
0.0
  0
ARC
  5
D75A
  8
YODOROGO
 10
30230.05882870136
 20
1868.885714952901
 30
0.0
 40
321.37763628522822
 50
228.6181454618993
 51
245.660289248906
  0
LINE
  5
D75B
  8
YODOROGO
 10
30105.604341291921
 20
1603.7494964292871
 30
0.0
 11
30097.60434129195
 21
1576.0728158699001
 31
0.0
  0
LINE
  5
D75C
  8
YODOROGO
 10
30189.604341291921
 20
1603.7494964292871
 30
0.0
 11
30105.604341291921
 21
1603.7494964292871
 31
0.0
  0
LINE
  5
D75D
  8
YODOROGO
 10
30177.604341291921
 20
1551.817722473427
 30
0.0
 11
30189.604341291921
 21
1603.7494964292871
 31
0.0
  0
ARC
  5
D75E
  8
YODOROGO
 10
30230.05882870045
 20
1868.885714953002
 30
0.0
 40
321.37763628529081
 50
260.60629297969911
 51
267.77903556555862
  0
LINE
  5
D75F
  8
YODOROGO
 10
30217.604341291921
 20
1427.749496429285
 30
0.0
 11
30217.604341291921
 21
1547.749496429288
 31
0.0
  0
LINE
  5
D760
  8
YODOROGO
 10
29937.604341291932
 20
1481.3393349155101
 30
0.0
 11
29937.604341291921
 21
1594.531090531141
 31
0.0
  0
LINE
  5
D761
  8
YODOROGO
 10
30433.604341291921
 20
1573.749496429288
 30
0.0
 11
30381.604341291932
 21
1573.749496429288
 31
0.0
  0
LINE
  5
D762
  8
YODOROGO
 10
30433.604341291921
 20
1601.749496429285
 30
0.0
 11
30433.604341291921
 21
1573.749496429288
 31
0.0
  0
LINE
  5
D763
  8
YODOROGO
 10
30381.604341291932
 20
1601.749496429285
 30
0.0
 11
30433.604341291921
 21
1601.749496429285
 31
0.0
  0
LINE
  5
D764
  8
YODOROGO
 10
30381.604341291932
 20
1573.749496429288
 30
0.0
 11
30381.604341291932
 21
1601.749496429285
 31
0.0
  0
LINE
  5
D765
  8
YODOROGO
 10
30429.604341291921
 20
1577.7494964292871
 30
0.0
 11
30385.604341291921
 21
1577.7494964292871
 31
0.0
  0
LINE
  5
D766
  8
YODOROGO
 10
30429.604341291921
 20
1597.749496429288
 30
0.0
 11
30429.604341291921
 21
1577.7494964292871
 31
0.0
  0
LINE
  5
D767
  8
YODOROGO
 10
30385.604341291921
 20
1597.749496429288
 30
0.0
 11
30429.604341291921
 21
1597.749496429288
 31
0.0
  0
LINE
  5
D768
  8
YODOROGO
 10
30385.604341291921
 20
1577.7494964292871
 30
0.0
 11
30385.604341291921
 21
1597.749496429288
 31
0.0
  0
LINE
  5
D769
  8
YODOROGO
 10
30425.604341291921
 20
1581.749496429286
 30
0.0
 11
30389.604341291921
 21
1581.749496429286
 31
0.0
  0
LINE
  5
D76A
  8
YODOROGO
 10
30425.604341291921
 20
1593.749496429288
 30
0.0
 11
30425.604341291921
 21
1581.749496429286
 31
0.0
  0
LINE
  5
D76B
  8
YODOROGO
 10
30389.604341291921
 20
1593.749496429288
 30
0.0
 11
30425.604341291921
 21
1593.749496429288
 31
0.0
  0
LINE
  5
D76C
  8
YODOROGO
 10
30389.604341291921
 20
1581.749496429286
 30
0.0
 11
30389.604341291921
 21
1593.749496429288
 31
0.0
  0
LINE
  5
D76D
  8
YODOROGO
 10
30421.604341291932
 20
1585.7494964292871
 30
0.0
 11
30393.604341291921
 21
1585.7494964292871
 31
0.0
  0
LINE
  5
D76E
  8
YODOROGO
 10
30421.604341291932
 20
1589.749496429288
 30
0.0
 11
30421.604341291932
 21
1585.7494964292871
 31
0.0
  0
LINE
  5
D76F
  8
YODOROGO
 10
30393.604341291921
 20
1589.749496429288
 30
0.0
 11
30421.604341291932
 21
1589.749496429288
 31
0.0
  0
LINE
  5
D770
  8
YODOROGO
 10
30393.604341291921
 20
1585.7494964292871
 30
0.0
 11
30393.604341291921
 21
1589.749496429288
 31
0.0
  0
LINE
  5
D771
  8
YODOROGO
 10
30465.604341291921
 20
1627.749496429288
 30
0.0
 11
30381.604341291932
 21
1627.749496429288
 31
0.0
  0
LINE
  5
D772
  8
YODOROGO
 10
30465.604341291921
 20
1547.749496429288
 30
0.0
 11
30465.604341291921
 21
1627.749496429288
 31
0.0
  0
LINE
  5
D773
  8
YODOROGO
 10
30381.604341291932
 20
1547.749496429288
 30
0.0
 11
30465.604341291921
 21
1547.749496429288
 31
0.0
  0
LINE
  5
D774
  8
YODOROGO
 10
30381.604341291932
 20
1427.749496429288
 30
0.0
 11
30381.604341291932
 21
1547.749496429288
 31
0.0
  0
LINE
  5
D775
  8
YODOROGO
 10
30537.604341291921
 20
1427.749496429288
 30
0.0
 11
30381.604341291932
 21
1427.749496429288
 31
0.0
  0
LINE
  5
D776
  8
YODOROGO
 10
30569.604341291921
 20
1571.749496429285
 30
0.0
 11
30569.604341291921
 21
1599.7494964292871
 31
0.0
  0
ARC
  5
D777
  8
YODOROGO
 10
30545.604341291921
 20
1571.749496429291
 30
0.0
 40
24.000000000003752
 50
270.0
 51
359.99999999998772
  0
LINE
  5
D778
  8
YODOROGO
 10
30529.604341291939
 20
1547.749496429288
 30
0.0
 11
30545.604341291921
 21
1547.749496429288
 31
0.0
  0
LINE
  5
D779
  8
YODOROGO
 10
30529.604341291939
 20
1627.749496429288
 30
0.0
 11
30529.604341291939
 21
1547.749496429288
 31
0.0
  0
LINE
  5
D77A
  8
YODOROGO
 10
30899.604341291932
 20
1547.749496429288
 30
0.0
 11
30925.604341291921
 21
1547.749496429288
 31
0.0
  0
LINE
  5
D77B
  8
YODOROGO
 10
30933.604341291921
 20
1427.749496429288
 30
0.0
 11
30899.604341291932
 21
1427.749496429288
 31
0.0
  0
LINE
  5
D77C
  8
YODOROGO
 10
30763.604341291921
 20
1563.7494964292871
 30
0.0
 11
30791.604341291921
 21
1563.7494964292871
 31
0.0
  0
LINE
  5
D77D
  8
YODOROGO
 10
30899.604341291932
 20
1491.749496429288
 30
0.0
 11
30723.604341291921
 21
1491.749496429288
 31
0.0
  0
LINE
  5
D77E
  8
YODOROGO
 10
30831.604341291921
 20
1563.7494964292871
 30
0.0
 11
30859.604341291932
 21
1563.7494964292871
 31
0.0
  0
LINE
  5
D77F
  8
YODOROGO
 10
30899.604341291932
 20
1427.749496429288
 30
0.0
 11
30899.604341291932
 21
1547.749496429288
 31
0.0
  0
LINE
  5
D780
  8
YODOROGO
 10
30697.604341291932
 20
1427.749496429288
 30
0.0
 11
30645.604341291921
 21
1427.749496429288
 31
0.0
  0
LINE
  5
D781
  8
YODOROGO
 10
30617.604341291921
 20
1599.7494964292871
 30
0.0
 11
30617.604341291921
 21
1507.749496429288
 31
0.0
  0
ARC
  5
D782
  8
YODOROGO
 10
30933.604341291921
 20
1467.749496429288
 30
0.0
 40
40.0
 50
270.0
 51
0.0
  0
LINE
  5
D783
  8
YODOROGO
 10
31093.604341291921
 20
1523.7494964292871
 30
0.0
 11
31093.604341291921
 21
1427.749496429288
 31
0.0
  0
ARC
  5
D784
  8
YODOROGO
 10
31039.721395566768
 20
1637.5313901097329
 30
0.0
 40
125.8955565916754
 50
295.34052442160112
 51
359.18902303418679
  0
LINE
  5
D785
  8
YODOROGO
 10
30617.604341291921
 20
1859.749496429288
 30
0.0
 11
30497.604341291921
 21
1939.749496429288
 31
0.0
  0
LINE
  5
D786
  8
YODOROGO
 10
30497.604341291921
 20
2027.749496429288
 30
0.0
 11
30617.604341291921
 21
1947.749496429288
 31
0.0
  0
LINE
  5
D787
  8
YODOROGO
 10
30529.604341291939
 20
1679.749496429288
 30
0.0
 11
30617.604341291921
 21
1679.749496429288
 31
0.0
  0
LINE
  5
D788
  8
YODOROGO
 10
30617.604341291921
 20
1735.7494964292871
 30
0.0
 11
30529.604341291939
 21
1735.7494964292871
 31
0.0
  0
LINE
  5
D789
  8
YODOROGO
 10
30381.604341291932
 20
1795.7494964292871
 30
0.0
 11
30617.604341291921
 21
1795.7494964292871
 31
0.0
  0
LINE
  5
D78A
  8
YODOROGO
 10
30081.604341291921
 20
2027.749496429288
 30
0.0
 11
30021.604341291921
 21
2027.749496429288
 31
0.0
  0
LINE
  5
D78B
  8
YODOROGO
 10
30081.604341291921
 20
1827.7494964292871
 30
0.0
 11
30081.604341291921
 21
2027.749496429288
 31
0.0
  0
LINE
  5
D78C
  8
YODOROGO
 10
30021.604341291921
 20
1827.7494964292871
 30
0.0
 11
30081.604341291921
 21
1827.7494964292871
 31
0.0
  0
LINE
  5
D78D
  8
YODOROGO
 10
30021.604341291921
 20
2027.749496429288
 30
0.0
 11
30021.604341291921
 21
1827.7494964292871
 31
0.0
  0
LINE
  5
D78E
  8
YODOROGO
 10
30161.604341291921
 20
2027.749496429288
 30
0.0
 11
30217.604341291921
 21
2027.749496429288
 31
0.0
  0
LINE
  5
D78F
  8
YODOROGO
 10
30161.604341291921
 20
1811.749496429288
 30
0.0
 11
30161.604341291921
 21
2027.749496429288
 31
0.0
  0
ARC
  5
D790
  8
YODOROGO
 10
30121.604341291921
 20
1811.749496429288
 30
0.0
 40
40.0
 50
270.0
 51
0.0
  0
LINE
  5
D791
  8
YODOROGO
 10
30021.604341291921
 20
1771.7494964292871
 30
0.0
 11
30121.604341291921
 21
1771.7494964292871
 31
0.0
  0
LINE
  5
D792
  8
YODOROGO
 10
30021.604341291921
 20
1707.749496429288
 30
0.0
 11
30021.604341291921
 21
1771.7494964292871
 31
0.0
  0
LINE
  5
D793
  8
YODOROGO
 10
30137.604341291921
 20
1707.749496429288
 30
0.0
 11
30021.604341291921
 21
1707.749496429288
 31
0.0
  0
ARC
  5
D794
  8
YODOROGO
 10
30137.604341291921
 20
1787.7494964292871
 30
0.0
 40
80.0
 50
270.0
 51
0.0
  0
LINE
  5
D795
  8
YODOROGO
 10
30217.604341291921
 20
2027.749496429288
 30
0.0
 11
30217.604341291921
 21
1787.7494964292871
 31
0.0
  0
LINE
  5
D796
  8
YODOROGO
 10
29977.604341291921
 20
1947.749496429288
 30
0.0
 11
29977.604341291921
 21
1995.7494964292871
 31
0.0
1001
AUTOCAD_POSTSCRIPT_FIGURE
1002
{
1000
PSFILL
1000
Grayscale
1000
Grayscale
1070
    25
1002
}
  0
LINE
  5
D797
  8
YODOROGO
 10
29977.604341291921
 20
1859.749496429288
 30
0.0
 11
29977.604341291921
 21
1907.7494964292871
 31
0.0
1001
AUTOCAD_POSTSCRIPT_FIGURE
1002
{
1000
PSFILL
1000
Grayscale
1000
Grayscale
1070
    25
1002
}
  0
LINE
  5
D798
  8
YODOROGO
 10
29977.604341291921
 20
1707.749496429288
 30
0.0
 11
29977.604341291921
 21
1819.7494964292871
 31
0.0
1001
AUTOCAD_POSTSCRIPT_FIGURE
1002
{
1000
PSFILL
1000
Grayscale
1000
Grayscale
1070
    25
1002
}
  0
LINE
  5
D799
  8
YODOROGO
 10
30381.604341291932
 20
1907.7494964292871
 30
0.0
 11
30497.604341291921
 21
2027.749496429288
 31
0.0
  0
LINE
  5
D79A
  8
YODOROGO
 10
30381.604341291932
 20
1819.7494964292871
 30
0.0
 11
30381.604341291932
 21
1907.7494964292871
 31
0.0
  0
LINE
  5
D79B
  8
YODOROGO
 10
30497.604341291921
 20
1939.749496429288
 30
0.0
 11
30381.604341291932
 21
1819.7494964292871
 31
0.0
  0
LINE
  5
D79C
  8
YODOROGO
 10
30465.604341291921
 20
1679.749496429288
 30
0.0
 11
30465.604341291921
 21
1735.7494964292871
 31
0.0
  0
LINE
  5
D79D
  8
YODOROGO
 10
30381.604341291932
 20
1679.749496429288
 30
0.0
 11
30465.604341291921
 21
1679.749496429288
 31
0.0
  0
LINE
  5
D79E
  8
YODOROGO
 10
30529.604341291939
 20
1735.7494964292871
 30
0.0
 11
30529.604341291939
 21
1679.749496429288
 31
0.0
  0
LINE
  5
D79F
  8
YODOROGO
 10
30381.604341291932
 20
1735.7494964292871
 30
0.0
 11
30381.604341291932
 21
1795.7494964292871
 31
0.0
  0
LINE
  5
D7A0
  8
YODOROGO
 10
30465.604341291921
 20
1735.7494964292871
 30
0.0
 11
30381.604341291932
 21
1735.7494964292871
 31
0.0
  0
LINE
  5
D7A1
  8
YODOROGO
 10
30645.604341291921
 20
2027.749496429288
 30
0.0
 11
30973.604341291921
 21
2027.749496429288
 31
0.0
  0
LINE
  5
D7A2
  8
YODOROGO
 10
30925.604341291921
 20
1963.749496429286
 30
0.0
 11
30697.604341291932
 21
1963.749496429286
 31
0.0
  0
LINE
  5
D7A3
  8
YODOROGO
 10
30873.604341291921
 20
1819.7494964292871
 30
0.0
 11
30899.604341291932
 21
1819.7494964292871
 31
0.0
  0
LINE
  5
D7A4
  8
YODOROGO
 10
30899.604341291932
 20
1939.749496429288
 30
0.0
 11
30873.604341291921
 21
1819.7494964292871
 31
0.0
  0
LINE
  5
D7A5
  8
YODOROGO
 10
30851.604341291939
 20
1939.749496429288
 30
0.0
 11
30899.604341291932
 21
1939.749496429288
 31
0.0
  0
LINE
  5
D7A6
  8
YODOROGO
 10
30825.604341291921
 20
1819.7494964292871
 30
0.0
 11
30851.604341291939
 21
1939.749496429288
 31
0.0
  0
LINE
  5
D7A7
  8
YODOROGO
 10
30797.604341291921
 20
1819.7494964292871
 30
0.0
 11
30825.604341291921
 21
1819.7494964292871
 31
0.0
  0
LINE
  5
D7A8
  8
YODOROGO
 10
30771.604341291939
 20
1939.749496429288
 30
0.0
 11
30797.604341291921
 21
1819.7494964292871
 31
0.0
  0
LINE
  5
D7A9
  8
YODOROGO
 10
30723.604341291921
 20
1939.749496429288
 30
0.0
 11
30771.604341291939
 21
1939.749496429288
 31
0.0
  0
LINE
  5
D7AA
  8
YODOROGO
 10
30749.604341291921
 20
1819.7494964292871
 30
0.0
 11
30723.604341291921
 21
1939.749496429288
 31
0.0
  0
LINE
  5
D7AB
  8
YODOROGO
 10
30723.604341291921
 20
1819.7494964292871
 30
0.0
 11
30749.604341291921
 21
1819.7494964292871
 31
0.0
  0
LINE
  5
D7AC
  8
YODOROGO
 10
30723.604341291921
 20
1755.7494964292871
 30
0.0
 11
30723.604341291921
 21
1819.7494964292871
 31
0.0
  0
LINE
  5
D7AD
  8
YODOROGO
 10
30899.604341291932
 20
1755.7494964292871
 30
0.0
 11
30723.604341291921
 21
1755.7494964292871
 31
0.0
  0
LINE
  5
D7AE
  8
YODOROGO
 10
30899.604341291932
 20
1819.7494964292871
 30
0.0
 11
30899.604341291932
 21
1755.7494964292871
 31
0.0
  0
LINE
  5
D7AF
  8
YODOROGO
 10
30617.604341291921
 20
1947.749496429288
 30
0.0
 11
30617.604341291921
 21
1859.749496429288
 31
0.0
  0
LINE
  5
D7B0
  8
YODOROGO
 10
30791.604341291921
 20
1755.7494964292871
 30
0.0
 11
30831.604341291921
 21
1755.7494964292871
 31
0.0
  0
LINE
  5
D7B1
  8
YODOROGO
 10
30723.604341291921
 20
1691.749496429288
 30
0.0
 11
30763.604341291921
 21
1691.749496429288
 31
0.0
  0
LINE
  5
D7B2
  8
YODOROGO
 10
30859.604341291932
 20
1691.749496429288
 30
0.0
 11
30899.604341291932
 21
1691.749496429288
 31
0.0
  0
LINE
  5
D7B3
  8
YODOROGO
 10
30617.604341291921
 20
1795.7494964292871
 30
0.0
 11
30617.604341291921
 21
1735.7494964292871
 31
0.0
  0
LINE
  5
D7B4
  8
YODOROGO
 10
31165.604341291921
 20
2027.749496429288
 30
0.0
 11
31165.604341291921
 21
1963.749496429286
 31
0.0
  0
LINE
  5
D7B5
  8
YODOROGO
 10
31533.604341291921
 20
1595.7494964292871
 30
0.0
 11
31533.60434129191
 21
1811.749496429288
 31
0.0
  0
LINE
  5
D7B6
  8
YODOROGO
 10
31461.60434129191
 20
1987.7494964292871
 30
0.0
 11
31461.60434129191
 21
1635.7494964292871
 31
0.0
  0
LINE
  5
D7B7
  8
YODOROGO
 10
31653.604341291921
 20
1427.749496429288
 30
0.0
 11
31653.60434129191
 21
1811.749496429288
 31
0.0
  0
LINE
  5
D7B8
  8
YODOROGO
 10
31589.604341291921
 20
1811.749496429288
 30
0.0
 11
31589.604341291921
 21
1427.749496429288
 31
0.0
  0
LINE
  5
D7B9
  8
YODOROGO
 10
31237.604341291921
 20
1595.7494964292871
 30
0.0
 11
31237.604341291921
 21
1707.749496429288
 31
0.0
  0
ARC
  5
D7BA
  8
YODOROGO
 10
31353.914865116069
 20
1607.790351288558
 30
0.0
 40
180.0924485759885
 50
268.62849102169793
 51
356.16638457330322
  0
LINE
  5
D7BB
  8
YODOROGO
 10
31349.604341291939
 20
1527.749496429288
 30
0.0
 11
31349.604341291939
 21
1427.749496429288
 31
0.0
  0
ARC
  5
D7BC
  8
YODOROGO
 10
31351.518075724562
 20
1637.838957017655
 30
0.0
 40
110.1060929836122
 50
269.00410209305932
 51
358.91264455492478
  0
LINE
  5
D7BD
  8
YODOROGO
 10
31589.604341291921
 20
1427.749496429288
 30
0.0
 11
31653.604341291921
 21
1427.749496429288
 31
0.0
  0
LINE
  5
D7BE
  8
YODOROGO
 10
31533.60434129191
 20
1811.749496429288
 30
0.0
 11
31589.604341291921
 21
1811.749496429288
 31
0.0
  0
LINE
  5
D7BF
  8
YODOROGO
 10
31621.604341291939
 20
1987.7494964292871
 30
0.0
 11
31461.60434129191
 21
1987.7494964292871
 31
0.0
  0
LINE
  5
D7C0
  8
YODOROGO
 10
31533.60434129191
 20
1915.7494964292871
 30
0.0
 11
31661.604341291939
 21
1915.7494964292871
 31
0.0
  0
LINE
  5
D7C1
  8
YODOROGO
 10
31701.604341291939
 20
1875.7494964292871
 30
0.0
 11
31533.60434129191
 21
1875.7494964292871
 31
0.0
  0
LINE
  5
D7C2
  8
YODOROGO
 10
31237.604341291921
 20
1779.749496429288
 30
0.0
 11
31349.604341291939
 21
1779.749496429288
 31
0.0
  0
LINE
  5
D7C3
  8
YODOROGO
 10
31237.604341291921
 20
1835.7494964292871
 30
0.0
 11
31237.604341291921
 21
1779.749496429288
 31
0.0
  0
LINE
  5
D7C4
  8
YODOROGO
 10
31349.604341291939
 20
1835.7494964292871
 30
0.0
 11
31237.604341291921
 21
1835.7494964292871
 31
0.0
  0
LINE
  5
D7C5
  8
YODOROGO
 10
31349.604341291939
 20
1779.749496429288
 30
0.0
 11
31349.604341291939
 21
1835.7494964292871
 31
0.0
  0
LINE
  5
D7C6
  8
YODOROGO
 10
31533.60434129191
 20
1875.7494964292871
 30
0.0
 11
31533.60434129191
 21
1915.7494964292871
 31
0.0
  0
LINE
  5
D7C7
  8
YODOROGO
 10
31413.604341291921
 20
1707.749496429288
 30
0.0
 11
31413.604341291921
 21
1907.7494964292871
 31
0.0
  0
LINE
  5
D7C8
  8
YODOROGO
 10
31237.604341291921
 20
1707.749496429288
 30
0.0
 11
31413.604341291921
 21
1707.749496429288
 31
0.0
  0
LINE
  5
D7C9
  8
YODOROGO
 10
31413.604341291921
 20
1963.749496429286
 30
0.0
 11
31413.604341291921
 21
2027.749496429288
 31
0.0
  0
ARC
  5
D7CA
  8
YODOROGO
 10
31621.604341291939
 20
2003.749496429285
 30
0.0
 40
15.999999999994539
 50
270.0
 51
0.0000000000081422
  0
LINE
  5
D7CB
  8
YODOROGO
 10
31637.604341291921
 20
2027.749496429288
 30
0.0
 11
31637.604341291921
 21
2003.7494964292871
 31
0.0
  0
LINE
  5
D7CC
  8
YODOROGO
 10
31701.604341291939
 20
2027.749496429288
 30
0.0
 11
31637.604341291921
 21
2027.749496429288
 31
0.0
  0
LINE
  5
D7CD
  8
YODOROGO
 10
31701.604341291939
 20
1955.7494964292871
 30
0.0
 11
31701.604341291939
 21
2027.749496429288
 31
0.0
  0
ARC
  5
D7CE
  8
YODOROGO
 10
31661.604341291939
 20
1955.7494964292871
 30
0.0
 40
40.0
 50
270.0
 51
0.0
  0
LINE
  5
D7CF
  8
YODOROGO
 10
31701.604341291939
 20
1811.749496429288
 30
0.0
 11
31701.604341291939
 21
1875.7494964292871
 31
0.0
  0
LINE
  5
D7D0
  8
YODOROGO
 10
31653.60434129191
 20
1811.749496429288
 30
0.0
 11
31701.604341291939
 21
1811.749496429288
 31
0.0
  0
LINE
  5
D7D1
  8
0-6
  6
CONTINUOUS
 62
     6
 10
8377.1821451607102
 20
13184.23815251264
 30
0.0
 11
8318.4321465319954
 21
13335.456147421981
 31
0.0
  0
LINE
  5
D7D2
  8
0-6
  6
CONTINUOUS
 62
     6
 10
8318.4321465319954
 20
13335.456147421981
 30
0.0
 11
8423.0431382188144
 21
13211.46024127354
 31
0.0
  0
LINE
  5
D7D3
  8
0-6
  6
CONTINUOUS
 62
     6
 10
8423.0431382188144
 20
13211.46024127354
 30
0.0
 11
8377.1821451607102
 21
13184.23815251264
 31
0.0
  0
LINE
  5
D7D4
  8
SUNPOU
  6
CONTINUOUS
 62
     4
 10
13607.61222162067
 20
13335.45614742195
 30
0.0
 11
14454.611997620639
 21
13335.45614742195
 31
0.0
  0
LINE
  5
D7D5
  8
SUNPOU
  6
CONTINUOUS
 62
     4
 10
14374.611997620639
 20
13527.955421421961
 30
0.0
 11
14374.611997620639
 21
13335.45614742195
 31
0.0
  0
LINE
  5
D7D6
  8
SUNPOU
  6
CONTINUOUS
 62
     4
 10
14374.611997620639
 20
16796.455421421939
 30
0.0
 11
14374.611997620639
 21
13527.955421421961
 31
0.0
  0
LINE
  5
D7D7
  8
SUNPOU
  6
CONTINUOUS
 62
     4
 10
14374.611997620639
 20
19714.45542142195
 30
0.0
 11
14374.611997620639
 21
16796.455421421939
 31
0.0
  0
LINE
  5
D7D8
  8
SUNPOU
  6
CONTINUOUS
 62
     4
 10
14294.611997620639
 20
19714.45542142195
 30
0.0
 11
14334.611997620639
 21
19714.45542142195
 31
0.0
  0
LINE
  5
D7D9
  8
SUNPOU
  6
CONTINUOUS
 62
     4
 10
13602.61294762067
 20
19936.955289421941
 30
0.0
 11
14414.611997620639
 21
19936.955289421941
 31
0.0
  0
LINE
  5
D7DA
  8
SUNPOU
  6
CONTINUOUS
 62
     4
 10
14374.611997620639
 20
19714.45542142195
 30
0.0
 11
14374.611997620639
 21
19936.955289421941
 31
0.0
  0
LINE
  5
D7DB
  8
SUNPOU
  6
CONTINUOUS
 62
     4
 10
13534.11269662067
 20
19926.95872042195
 30
0.0
 11
14054.61265662064
 21
19926.95872042195
 31
0.0
  0
LINE
  5
D7DC
  8
SUNPOU
  6
CONTINUOUS
 62
     4
 10
13602.61294762067
 20
19936.955289421941
 30
0.0
 11
14054.61265662064
 21
19936.955289421941
 31
0.0
  0
LINE
  5
D7DD
  8
SUNPOU
  6
CONTINUOUS
 62
     4
 10
13974.61265662064
 20
19926.95872042195
 30
0.0
 11
13974.61265662064
 21
19686.95872042195
 31
0.0
  0
LINE
  5
D7DE
  8
SUNPOU
  6
CONTINUOUS
 62
     4
 10
13974.61265662064
 20
19936.955289421941
 30
0.0
 11
13974.61265662064
 21
20176.955289421949
 31
0.0
  0
LINE
  5
D7DF
  8
SUNPOU
  6
CONTINUOUS
 62
     4
 10
13974.61265662064
 20
19926.95872042195
 30
0.0
 11
13974.61265662064
 21
19936.955289421941
 31
0.0
  0
LINE
  5
D7E0
  8
SUNPOU
  6
CONTINUOUS
 62
     4
 10
7376.6122216206613
 20
20561.957334421961
 30
0.0
 11
7376.6122216206613
 21
20636.956345421939
 31
0.0
  0
LINE
  5
D7E1
  8
SUNPOU
  6
CONTINUOUS
 62
     4
 10
7291.1122216206613
 20
20011.95700442194
 30
0.0
 11
7291.1122216206613
 21
20636.956345421939
 31
0.0
  0
LINE
  5
D7E2
  8
SUNPOU
  6
CONTINUOUS
 62
     4
 10
7376.6122216206613
 20
20556.95634542195
 30
0.0
 11
7616.6122216206622
 21
20556.95634542195
 31
0.0
  0
LINE
  5
D7E3
  8
SUNPOU
  6
CONTINUOUS
 62
     4
 10
7294.1122216206613
 20
20556.95634542195
 30
0.0
 11
7054.1122216206631
 21
20556.95634542195
 31
0.0
  0
LINE
  5
D7E4
  8
SUNPOU
  6
CONTINUOUS
 62
     4
 10
7376.6122216206613
 20
20556.95634542195
 30
0.0
 11
7294.1122216206613
 21
20556.95634542195
 31
0.0
  0
LINE
  5
D7E5
  8
SUNPOU
  6
CONTINUOUS
 62
     4
 10
10176.61222162066
 20
20561.957334421961
 30
0.0
 11
10176.61222162066
 21
20636.956345421939
 31
0.0
  0
LINE
  5
D7E6
  8
SUNPOU
  6
CONTINUOUS
 62
     4
 10
7376.6122216206613
 20
20561.957334421961
 30
0.0
 11
7376.6122216206613
 21
20636.956345421939
 31
0.0
  0
LINE
  5
D7E7
  8
SUNPOU
  6
CONTINUOUS
 62
     4
 10
10176.61222162066
 20
20556.95634542195
 30
0.0
 11
7376.6122216206613
 21
20556.95634542195
 31
0.0
  0
LINE
  5
D7E8
  8
SUNPOU
  6
CONTINUOUS
 62
     4
 10
13445.11222162067
 20
20086.957004421929
 30
0.0
 11
13445.11222162067
 21
20636.956345421939
 31
0.0
  0
LINE
  5
D7E9
  8
SUNPOU
  6
CONTINUOUS
 62
     4
 10
10176.61222162066
 20
20561.957334421961
 30
0.0
 11
10176.61222162066
 21
20636.956345421939
 31
0.0
  0
LINE
  5
D7EA
  8
SUNPOU
  6
CONTINUOUS
 62
     4
 10
13445.11222162067
 20
20556.95634542195
 30
0.0
 11
10176.61222162066
 21
20556.95634542195
 31
0.0
  0
LINE
  5
D7EB
  8
SUNPOU
  6
CONTINUOUS
 62
     4
 10
13445.11222162067
 20
20086.957004421929
 30
0.0
 11
13445.11222162067
 21
20636.956345421939
 31
0.0
  0
LINE
  5
D7EC
  8
SUNPOU
  6
CONTINUOUS
 62
     4
 10
13530.61222162067
 20
20006.95674142196
 30
0.0
 11
13530.61222162067
 21
20636.956345421939
 31
0.0
  0
LINE
  5
D7ED
  8
SUNPOU
  6
CONTINUOUS
 62
     4
 10
13445.11222162067
 20
20556.95634542195
 30
0.0
 11
13205.11222162067
 21
20556.95634542195
 31
0.0
  0
LINE
  5
D7EE
  8
SUNPOU
  6
CONTINUOUS
 62
     4
 10
13527.61222162067
 20
20556.95634542195
 30
0.0
 11
13767.61222162067
 21
20556.95634542195
 31
0.0
  0
LINE
  5
D7EF
  8
SUNPOU
  6
CONTINUOUS
 62
     4
 10
13445.11222162067
 20
20556.95634542195
 30
0.0
 11
13527.61222162067
 21
20556.95634542195
 31
0.0
  0
LINE
  5
D7F0
  8
SUNPOU
  6
CONTINUOUS
 62
     4
 10
13530.61222162067
 20
13255.45614742195
 30
0.0
 11
13530.61222162067
 21
11965.45535542194
 31
0.0
  0
LINE
  5
D7F1
  8
SUNPOU
  6
CONTINUOUS
 62
     4
 10
7291.1122216206613
 20
13255.456147421941
 30
0.0
 11
7291.1122216206613
 21
11965.45535542194
 31
0.0
  0
LINE
  5
D7F2
  8
SUNPOU
  6
CONTINUOUS
 62
     4
 10
13527.61222162067
 20
12045.45535542194
 30
0.0
 11
7294.1122216206613
 21
12045.45535542194
 31
0.0
  0
LINE
  5
D7F3
  8
SUNPOU
  6
CONTINUOUS
 62
     4
 10
25175.541164782971
 20
19836.955421421961
 30
0.0
 11
25175.541164782971
 21
20636.956345421939
 31
0.0
  0
LINE
  5
D7F4
  8
SUNPOU
  6
CONTINUOUS
 62
     4
 10
25933.541164782971
 20
19916.957928421951
 30
0.0
 11
25933.541164782971
 21
20636.956345421939
 31
0.0
  0
LINE
  5
D7F5
  8
SUNPOU
  6
CONTINUOUS
 62
     4
 10
25175.541164782971
 20
20556.95634542195
 30
0.0
 11
25933.541164782971
 21
20556.95634542195
 31
0.0
  0
LINE
  5
D7F6
  8
SUNPOU
  6
CONTINUOUS
 62
     4
 10
13802.3888954096
 20
8524.1575434219612
 30
0.0
 11
13802.3888954096
 21
9915.1575694219573
 31
0.0
  0
LINE
  5
D7F7
  8
SUNPOU
  6
CONTINUOUS
 62
     4
 10
7200.8888954096046
 20
8656.0473668343893
 30
0.0
 11
7200.8888954096046
 21
9915.1575694219573
 31
0.0
  0
LINE
  5
D7F8
  8
SUNPOU
  6
CONTINUOUS
 62
     4
 10
13802.3888954096
 20
9835.1575694219573
 30
0.0
 11
7200.8888954096046
 21
9835.1575694219573
 31
0.0
  0
LINE
  5
D7F9
  8
SUNPOU
  6
CONTINUOUS
 62
     4
 10
7350.8888954095983
 20
8582.0676074219573
 30
0.0
 11
7350.8888954095983
 21
9515.1592194219611
 31
0.0
  0
LINE
  5
D7FA
  8
SUNPOU
  6
CONTINUOUS
 62
     4
 10
7200.8888954096046
 20
8656.0473668343893
 30
0.0
 11
7200.8888954096046
 21
9515.1592194219611
 31
0.0
  0
LINE
  5
D7FB
  8
SUNPOU
  6
CONTINUOUS
 62
     4
 10
7350.8888954095983
 20
9435.1592194219593
 30
0.0
 11
7590.8888954095974
 21
9435.1592194219593
 31
0.0
  0
LINE
  5
D7FC
  8
SUNPOU
  6
CONTINUOUS
 62
     4
 10
7200.8888954096046
 20
9435.1592194219593
 30
0.0
 11
6960.8888954096037
 21
9435.1592194219593
 31
0.0
  0
LINE
  5
D7FD
  8
SUNPOU
  6
CONTINUOUS
 62
     4
 10
7350.8888954095983
 20
9435.1592194219593
 30
0.0
 11
7200.8888954096046
 21
9435.1592194219593
 31
0.0
  0
LINE
  5
D7FE
  8
SUNPOU
  6
CONTINUOUS
 62
     4
 10
13622.3888954096
 20
8394.3433191057684
 30
0.0
 11
13622.3888954096
 21
9515.1592194219611
 31
0.0
  0
LINE
  5
D7FF
  8
SUNPOU
  6
CONTINUOUS
 62
     4
 10
7350.8888954095983
 20
8582.0676074219573
 30
0.0
 11
7350.8888954095983
 21
9515.1592194219611
 31
0.0
  0
LINE
  5
D800
  8
SUNPOU
  6
CONTINUOUS
 62
     4
 10
13622.3888954096
 20
9435.1592194219593
 30
0.0
 11
7350.8888954095983
 21
9435.1592194219593
 31
0.0
  0
LINE
  5
D801
  8
SUNPOU
  6
CONTINUOUS
 62
     4
 10
13802.3888954096
 20
8524.1575434219612
 30
0.0
 11
13802.3888954096
 21
9515.1592194219611
 31
0.0
  0
LINE
  5
D802
  8
SUNPOU
  6
CONTINUOUS
 62
     4
 10
13622.3888954096
 20
8394.3433191057684
 30
0.0
 11
13622.3888954096
 21
9515.1592194219611
 31
0.0
  0
LINE
  5
D803
  8
SUNPOU
  6
CONTINUOUS
 62
     4
 10
13802.3888954096
 20
9435.1592194219593
 30
0.0
 11
13622.3888954096
 21
9435.1592194219593
 31
0.0
  0
LINE
  5
D804
  8
SUNPOU
  6
CONTINUOUS
 62
     4
 10
7258.3888954096064
 20
6287.1575434219621
 30
0.0
 11
6180.8884994096006
 21
6287.1575434219621
 31
0.0
  0
LINE
  5
D805
  8
SUNPOU
  6
CONTINUOUS
 62
     4
 10
7166.0816358102247
 20
8635.1575434219612
 30
0.0
 11
6180.8884994096006
 21
8635.1575434219612
 31
0.0
  0
LINE
  5
D806
  8
SUNPOU
  6
CONTINUOUS
 62
     4
 10
6260.8884994096006
 20
6287.1575434219621
 30
0.0
 11
6260.8884994096006
 21
8635.1575434219612
 31
0.0
  0
LINE
  5
D807
  8
SUNPOU
  6
CONTINUOUS
 62
     4
 10
13709.8888954096
 20
6287.1575434219621
 30
0.0
 11
14792.38929140959
 21
6287.1575434219612
 31
0.0
  0
LINE
  5
D808
  8
SUNPOU
  6
CONTINUOUS
 62
     4
 10
13882.3888954096
 20
8444.1575434219612
 30
0.0
 11
14792.38929140959
 21
8444.1575434219612
 31
0.0
  0
LINE
  5
D809
  8
SUNPOU
  6
CONTINUOUS
 62
     4
 10
14712.38929140959
 20
6287.1575434219612
 30
0.0
 11
14712.38929140959
 21
8444.1575434219612
 31
0.0
  0
LINE
  5
D80A
  8
SUNPOU
  6
CONTINUOUS
 62
     4
 10
13622.3888954096
 20
6207.1575434219603
 30
0.0
 11
13622.3888954096
 21
4507.1578734219556
 31
0.0
  0
LINE
  5
D80B
  8
SUNPOU
  6
CONTINUOUS
 62
     4
 10
7350.8888954095983
 20
6207.1575434219603
 30
0.0
 11
7350.8888954095983
 21
4507.1578734219556
 31
0.0
  0
LINE
  5
D80C
  8
SUNPOU
  6
CONTINUOUS
 62
     4
 10
13622.3888954096
 20
4587.1578734219574
 30
0.0
 11
7350.8888954095983
 21
4587.1578734219574
 31
0.0
  0
LINE
  5
D80D
  8
SUNPOU
  6
CONTINUOUS
 62
     4
 10
7393.3888954096037
 20
5844.5052854219593
 30
0.0
 11
7393.3888954096037
 21
4907.1577084219589
 31
0.0
  0
LINE
  5
D80E
  8
SUNPOU
  6
CONTINUOUS
 62
     4
 10
7350.8888954095983
 20
6207.1575434219603
 30
0.0
 11
7350.8888954095983
 21
4907.1577084219589
 31
0.0
  0
LINE
  5
D80F
  8
SUNPOU
  6
CONTINUOUS
 62
     4
 10
7393.3888954096037
 20
4987.1577084219589
 30
0.0
 11
7633.3888954096064
 21
4987.1577084219589
 31
0.0
  0
LINE
  5
D810
  8
SUNPOU
  6
CONTINUOUS
 62
     4
 10
7350.8888954095983
 20
4987.1577084219589
 30
0.0
 11
7110.8888954095992
 21
4987.1577084219589
 31
0.0
  0
LINE
  5
D811
  8
SUNPOU
  6
CONTINUOUS
 62
     4
 10
7393.3888954096037
 20
4987.1577084219589
 30
0.0
 11
7350.8888954095983
 21
4987.1577084219589
 31
0.0
  0
LINE
  5
D812
  8
SUNPOU
  6
CONTINUOUS
 62
     4
 10
13579.888895409589
 20
5844.5052854219593
 30
0.0
 11
13579.888895409589
 21
4907.1577084219589
 31
0.0
  0
LINE
  5
D813
  8
SUNPOU
  6
CONTINUOUS
 62
     4
 10
13622.3888954096
 20
6207.1575434219603
 30
0.0
 11
13622.3888954096
 21
4907.1577084219589
 31
0.0
  0
LINE
  5
D814
  8
SUNPOU
  6
CONTINUOUS
 62
     4
 10
13579.888895409589
 20
4987.1577084219589
 30
0.0
 11
13339.8888954096
 21
4987.1577084219589
 31
0.0
  0
LINE
  5
D815
  8
SUNPOU
  6
CONTINUOUS
 62
     4
 10
13622.3888954096
 20
4987.1577084219589
 30
0.0
 11
13862.3888954096
 21
4987.1577084219589
 31
0.0
  0
LINE
  5
D816
  8
SUNPOU
  6
CONTINUOUS
 62
     4
 10
13579.888895409589
 20
4987.1577084219589
 30
0.0
 11
13622.3888954096
 21
4987.1577084219589
 31
0.0
  0
LINE
  5
D817
  8
SUNPOU
  6
CONTINUOUS
 62
     4
 10
10661.8888954096
 20
5844.5052854219593
 30
0.0
 11
10661.8888954096
 21
4907.1577084219589
 31
0.0
  0
LINE
  5
D818
  8
SUNPOU
  6
CONTINUOUS
 62
     4
 10
13579.888895409589
 20
5844.5052854219593
 30
0.0
 11
13579.888895409589
 21
4907.1577084219589
 31
0.0
  0
LINE
  5
D819
  8
SUNPOU
  6
CONTINUOUS
 62
     4
 10
10661.8888954096
 20
4987.1577084219589
 30
0.0
 11
13579.888895409589
 21
4987.1577084219589
 31
0.0
  0
LINE
  5
D81A
  8
SUNPOU
  6
CONTINUOUS
 62
     4
 10
10661.8888954096
 20
5844.5052854219593
 30
0.0
 11
10661.8888954096
 21
4907.1577084219589
 31
0.0
  0
LINE
  5
D81B
  8
SUNPOU
  6
CONTINUOUS
 62
     4
 10
7393.3888954096037
 20
5844.5052854219593
 30
0.0
 11
7393.3888954096037
 21
4907.1577084219589
 31
0.0
  0
LINE
  5
D81C
  8
SUNPOU
  6
CONTINUOUS
 62
     4
 10
10661.8888954096
 20
4987.1577084219589
 30
0.0
 11
7393.3888954096037
 21
4987.1577084219589
 31
0.0
  0
LINE
  5
D81D
  8
SUNPOU
  6
CONTINUOUS
 62
     4
 10
26019.04116478299
 20
8715.1575694219555
 30
0.0
 11
26019.04116478299
 21
9915.1021434219656
 31
0.0
  0
LINE
  5
D81E
  8
SUNPOU
  6
CONTINUOUS
 62
     4
 10
19779.541164783001
 20
8715.1575694219555
 30
0.0
 11
19779.541164783001
 21
9915.1021434219656
 31
0.0
  0
LINE
  5
D81F
  8
SUNPOU
  6
CONTINUOUS
 62
     4
 10
26016.04116478299
 20
9835.1021434219638
 30
0.0
 11
19782.541164783001
 21
9835.1021434219638
 31
0.0
  0
LINE
  5
D820
  8
SUNPOU
  6
CONTINUOUS
 62
     4
 10
19822.54116478299
 20
8715.1575694219555
 30
0.0
 11
19822.54116478299
 21
9515.1592194219611
 31
0.0
  0
LINE
  5
D821
  8
SUNPOU
  6
CONTINUOUS
 62
     4
 10
19779.541164783001
 20
8715.1575694219555
 30
0.0
 11
19779.541164783001
 21
9515.1592194219611
 31
0.0
  0
LINE
  5
D822
  8
SUNPOU
  6
CONTINUOUS
 62
     4
 10
19822.54116478299
 20
9435.1592194219593
 30
0.0
 11
20062.54116478299
 21
9435.1592194219593
 31
0.0
  0
LINE
  5
D823
  8
SUNPOU
  6
CONTINUOUS
 62
     4
 10
19782.541164783001
 20
9435.1592194219593
 30
0.0
 11
19542.54116478299
 21
9435.1592194219593
 31
0.0
  0
LINE
  5
D824
  8
SUNPOU
  6
CONTINUOUS
 62
     4
 10
19822.54116478299
 20
9435.1592194219593
 30
0.0
 11
19782.541164783001
 21
9435.1592194219593
 31
0.0
  0
LINE
  5
D825
  8
SUNPOU
  6
CONTINUOUS
 62
     4
 10
25976.04116478299
 20
8585.1576354219542
 30
0.0
 11
25976.04116478299
 21
9515.1592194219611
 31
0.0
  0
LINE
  5
D826
  8
SUNPOU
  6
CONTINUOUS
 62
     4
 10
26019.04116478299
 20
8715.1575694219555
 30
0.0
 11
26019.04116478299
 21
9515.1592194219611
 31
0.0
  0
LINE
  5
D827
  8
SUNPOU
  6
CONTINUOUS
 62
     4
 10
25976.04116478299
 20
9435.1592194219593
 30
0.0
 11
25736.04116478299
 21
9435.1592194219593
 31
0.0
  0
LINE
  5
D828
  8
SUNPOU
  6
CONTINUOUS
 62
     4
 10
26016.04116478299
 20
9435.1592194219593
 30
0.0
 11
26256.04116478299
 21
9435.1592194219593
 31
0.0
  0
LINE
  5
D829
  8
SUNPOU
  6
CONTINUOUS
 62
     4
 10
25976.04116478299
 20
9435.1592194219593
 30
0.0
 11
26016.04116478299
 21
9435.1592194219593
 31
0.0
  0
LINE
  5
D82A
  8
SUNPOU
  6
CONTINUOUS
 62
     4
 10
22622.541164782979
 20
8585.1576354219542
 30
0.0
 11
22622.541164782979
 21
9515.1592194219611
 31
0.0
  0
LINE
  5
D82B
  8
SUNPOU
  6
CONTINUOUS
 62
     4
 10
25976.04116478299
 20
8585.1576354219542
 30
0.0
 11
25976.04116478299
 21
9515.1592194219611
 31
0.0
  0
LINE
  5
D82C
  8
SUNPOU
  6
CONTINUOUS
 62
     4
 10
22622.541164782979
 20
9435.1592194219593
 30
0.0
 11
25976.04116478299
 21
9435.1592194219593
 31
0.0
  0
LINE
  5
D82D
  8
SUNPOU
  6
CONTINUOUS
 62
     4
 10
26063.543803782992
 20
6287.1575434219621
 30
0.0
 11
27506.643415487721
 21
6287.1575434219612
 31
0.0
  0
LINE
  5
D82E
  8
SUNPOU
  6
CONTINUOUS
 62
     4
 10
26096.04116478299
 20
8635.1575694219555
 30
0.0
 11
27506.643415487732
 21
8635.1575694219555
 31
0.0
  0
LINE
  5
D82F
  8
SUNPOU
  6
CONTINUOUS
 62
     4
 10
27426.643415487721
 20
6287.1575434219612
 30
0.0
 11
27426.643415487732
 21
8635.1575694219555
 31
0.0
  0
LINE
  5
D830
  8
SUNPOU
  6
CONTINUOUS
 62
     4
 10
26063.543803782992
 20
6287.1575434219621
 30
0.0
 11
26863.544463782979
 21
6287.1575434219612
 31
0.0
  0
LINE
  5
D831
  8
SUNPOU
  6
CONTINUOUS
 62
     4
 10
25971.044859782982
 20
8178.6575434219612
 30
0.0
 11
26863.544463782979
 21
8178.6575434219612
 31
0.0
  0
LINE
  5
D832
  8
SUNPOU
  6
CONTINUOUS
 62
     4
 10
26783.544463782979
 20
6287.1575434219612
 30
0.0
 11
26783.544463782979
 21
8178.6575434219612
 31
0.0
  0
LINE
  5
D833
  8
SUNPOU
  6
CONTINUOUS
 62
     4
 10
22619.54116478299
 20
6207.1575434219603
 30
0.0
 11
22619.54116478299
 21
5307.1575434219612
 31
0.0
  0
LINE
  5
D834
  8
SUNPOU
  6
CONTINUOUS
 62
     4
 10
19907.54116478299
 20
6107.1577084219589
 30
0.0
 11
19907.54116478299
 21
5307.1575434219612
 31
0.0
  0
LINE
  5
D835
  8
SUNPOU
  6
CONTINUOUS
 62
     4
 10
22619.54116478299
 20
5387.1575434219612
 30
0.0
 11
19907.54116478299
 21
5387.1575434219612
 31
0.0
  0
LINE
  5
D836
  8
SUNPOU
  6
CONTINUOUS
 62
     4
 10
25976.001211835472
 20
6207.1575434219603
 30
0.0
 11
25976.001211835472
 21
4507.1578734220147
 31
0.0
  0
LINE
  5
D837
  8
SUNPOU
  6
CONTINUOUS
 62
     4
 10
19822.541164783001
 20
6107.1577084219589
 30
0.0
 11
19822.541164783001
 21
4507.1578734220147
 31
0.0
  0
LINE
  5
D838
  8
SUNPOU
  6
CONTINUOUS
 62
     4
 10
25976.001211835472
 20
4587.1578734220147
 30
0.0
 11
19822.541164783001
 21
4587.1578734220147
 31
0.0
  0
LINE
  5
D839
  8
SUNPOU
  6
CONTINUOUS
 62
     4
 10
25933.54116478299
 20
5844.5052854219593
 30
0.0
 11
25933.54116478299
 21
4907.1577084219589
 31
0.0
  0
LINE
  5
D83A
  8
SUNPOU
  6
CONTINUOUS
 62
     4
 10
25976.001211835472
 20
6207.1575434219603
 30
0.0
 11
25976.001211835472
 21
4907.1577084219589
 31
0.0
  0
LINE
  5
D83B
  8
SUNPOU
  6
CONTINUOUS
 62
     4
 10
25933.54116478299
 20
4987.1577084219589
 30
0.0
 11
25693.541164783001
 21
4987.1577084219589
 31
0.0
  0
LINE
  5
D83C
  8
SUNPOU
  6
CONTINUOUS
 62
     4
 10
25976.001211835472
 20
4987.1577084219589
 30
0.0
 11
26216.001211835479
 21
4987.1577084219589
 31
0.0
  0
LINE
  5
D83D
  8
SUNPOU
  6
CONTINUOUS
 62
     4
 10
25933.54116478299
 20
4987.1577084219589
 30
0.0
 11
25976.001211835472
 21
4987.1577084219589
 31
0.0
  0
LINE
  5
D83E
  8
SUNPOU
  6
CONTINUOUS
 62
     4
 10
22665.041164782979
 20
5844.5052854219593
 30
0.0
 11
22665.041164782979
 21
4907.1577084219589
 31
0.0
  0
LINE
  5
D83F
  8
SUNPOU
  6
CONTINUOUS
 62
     4
 10
25933.54116478299
 20
5844.5052854219593
 30
0.0
 11
25933.54116478299
 21
4907.1577084219589
 31
0.0
  0
LINE
  5
D840
  8
SUNPOU
  6
CONTINUOUS
 62
     4
 10
22665.041164782979
 20
4987.1577084219589
 30
0.0
 11
25933.54116478299
 21
4987.1577084219589
 31
0.0
  0
LINE
  5
D841
  8
SUNPOU
  6
CONTINUOUS
 62
     4
 10
25839.541164783011
 20
6107.1577084219589
 30
0.0
 11
25839.541164783011
 21
5307.1575434219612
 31
0.0
  0
LINE
  5
D842
  8
SUNPOU
  6
CONTINUOUS
 62
     4
 10
22759.04116478299
 20
6107.1577084219589
 30
0.0
 11
22759.04116478299
 21
5307.1575434219612
 31
0.0
  0
LINE
  5
D843
  8
SUNPOU
  6
CONTINUOUS
 62
     4
 10
25839.541164783011
 20
5387.1575434219612
 30
0.0
 11
22759.04116478299
 21
5387.1575434219612
 31
0.0
  0
LINE
  5
D844
  8
SUNPOU
  6
CONTINUOUS
 62
     4
 10
19865.04116478299
 20
5844.5052854219593
 30
0.0
 11
19865.04116478299
 21
4907.1577084219589
 31
0.0
  0
LINE
  5
D845
  8
SUNPOU
  6
CONTINUOUS
 62
     4
 10
19822.541164783001
 20
6107.1577084219589
 30
0.0
 11
19822.541164783001
 21
4907.1577084219589
 31
0.0
  0
LINE
  5
D846
  8
SUNPOU
  6
CONTINUOUS
 62
     4
 10
19865.04116478299
 20
4987.1577084219589
 30
0.0
 11
20105.04116478299
 21
4987.1577084219589
 31
0.0
  0
LINE
  5
D847
  8
SUNPOU
  6
CONTINUOUS
 62
     4
 10
19822.541164783001
 20
4987.1577084219589
 30
0.0
 11
19582.541164783001
 21
4987.1577084219589
 31
0.0
  0
LINE
  5
D848
  8
SUNPOU
  6
CONTINUOUS
 62
     4
 10
19865.04116478299
 20
4987.1577084219589
 30
0.0
 11
19822.541164783001
 21
4987.1577084219589
 31
0.0
  0
LINE
  5
D849
  8
SUNPOU
  6
CONTINUOUS
 62
     4
 10
22665.041164782979
 20
5844.5052854219593
 30
0.0
 11
22665.041164782979
 21
4907.1577084219589
 31
0.0
  0
LINE
  5
D84A
  8
SUNPOU
  6
CONTINUOUS
 62
     4
 10
19865.04116478299
 20
5844.5052854219593
 30
0.0
 11
19865.04116478299
 21
4907.1577084219589
 31
0.0
  0
LINE
  5
D84B
  8
SUNPOU
  6
CONTINUOUS
 62
     4
 10
22665.041164782979
 20
4987.1577084219589
 30
0.0
 11
19865.04116478299
 21
4987.1577084219589
 31
0.0
  0
LINE
  5
D84C
  8
SUNPOU
  6
CONTINUOUS
 62
     4
 10
22622.541164782979
 20
8585.1576354219542
 30
0.0
 11
22622.541164782979
 21
9515.1592194219611
 31
0.0
  0
LINE
  5
D84D
  8
SUNPOU
  6
CONTINUOUS
 62
     4
 10
19822.54116478299
 20
8715.1575694219555
 30
0.0
 11
19822.54116478299
 21
9515.1592194219611
 31
0.0
  0
LINE
  5
D84E
  8
SUNPOU
  6
CONTINUOUS
 62
     4
 10
22622.541164782979
 20
9435.1592194219593
 30
0.0
 11
19822.54116478299
 21
9435.1592194219593
 31
0.0
  0
LINE
  5
D84F
  8
SUNPOU
  6
CONTINUOUS
 62
     4
 10
19742.541164783001
 20
6287.4718314219654
 30
0.0
 11
18532.718766488611
 21
6287.4718314219654
 31
0.0
  0
LINE
  5
D850
  8
SUNPOU
  6
CONTINUOUS
 62
     4
 10
19702.541164782979
 20
8307.4718314219645
 30
0.0
 11
18532.718766488611
 21
8307.4718314219645
 31
0.0
  0
LINE
  5
D851
  8
SUNPOU
  6
CONTINUOUS
 62
     4
 10
18612.718766488601
 20
6287.4718314219654
 30
0.0
 11
18612.718766488601
 21
8307.4718314219645
 31
0.0
  0
LINE
  5
D86D
  8
SUNPOU
  6
CONTINUOUS
 62
     4
 10
22665.041164782971
 20
19836.955421421961
 30
0.0
 11
22665.041164782971
 21
20636.956345421939
 31
0.0
  0
LINE
  5
D86E
  8
SUNPOU
  6
CONTINUOUS
 62
     4
 10
22622.541164782971
 20
19836.955421421961
 30
0.0
 11
22622.541164782971
 21
20636.956345421939
 31
0.0
  0
LINE
  5
D86F
  8
SUNPOU
  6
CONTINUOUS
 62
     4
 10
22665.041164782971
 20
20556.95634542195
 30
0.0
 11
22905.041164782971
 21
20556.95634542195
 31
0.0
  0
LINE
  5
D870
  8
SUNPOU
  6
CONTINUOUS
 62
     4
 10
22622.541164782971
 20
20556.95634542195
 30
0.0
 11
22382.541164782971
 21
20556.95634542195
 31
0.0
  0
LINE
  5
D871
  8
SUNPOU
  6
CONTINUOUS
 62
     4
 10
22665.041164782971
 20
20556.95634542195
 30
0.0
 11
22622.541164782971
 21
20556.95634542195
 31
0.0
  0
LINE
  5
D872
  8
SUNPOU
  6
CONTINUOUS
 62
     4
 10
23072.541164782971
 20
19836.955421421961
 30
0.0
 11
23072.541164782971
 21
20636.956345421939
 31
0.0
  0
LINE
  5
D873
  8
SUNPOU
  6
CONTINUOUS
 62
     4
 10
22665.041164782971
 20
19836.955421421961
 30
0.0
 11
22665.041164782971
 21
20636.956345421939
 31
0.0
  0
LINE
  5
D874
  8
SUNPOU
  6
CONTINUOUS
 62
     4
 10
23072.541164782971
 20
20556.95634542195
 30
0.0
 11
22665.041164782971
 21
20556.95634542195
 31
0.0
  0
LINE
  5
D875
  8
SUNPOU
  6
CONTINUOUS
 62
     4
 10
23773.541164782971
 20
19836.955421421961
 30
0.0
 11
23773.541164782971
 21
20636.956345421939
 31
0.0
  0
LINE
  5
D876
  8
SUNPOU
  6
CONTINUOUS
 62
     4
 10
23072.541164782971
 20
19836.955421421961
 30
0.0
 11
23072.541164782971
 21
20636.956345421939
 31
0.0
  0
LINE
  5
D877
  8
SUNPOU
  6
CONTINUOUS
 62
     4
 10
23773.541164782971
 20
20556.95634542195
 30
0.0
 11
23072.541164782971
 21
20556.95634542195
 31
0.0
  0
LINE
  5
D878
  8
SUNPOU
  6
CONTINUOUS
 62
     4
 10
24474.541164782971
 20
19836.955421421961
 30
0.0
 11
24474.541164782971
 21
20636.956345421939
 31
0.0
  0
LINE
  5
D879
  8
SUNPOU
  6
CONTINUOUS
 62
     4
 10
23773.541164782971
 20
19836.955421421961
 30
0.0
 11
23773.541164782971
 21
20636.956345421939
 31
0.0
  0
LINE
  5
D87A
  8
SUNPOU
  6
CONTINUOUS
 62
     4
 10
24474.541164782971
 20
20556.95634542195
 30
0.0
 11
23773.541164782971
 21
20556.95634542195
 31
0.0
  0
LINE
  5
D87B
  8
SUNPOU
  6
CONTINUOUS
 62
     4
 10
25175.541164782971
 20
19836.955421421961
 30
0.0
 11
25175.541164782971
 21
20636.956345421939
 31
0.0
  0
LINE
  5
D87C
  8
SUNPOU
  6
CONTINUOUS
 62
     4
 10
24474.541164782971
 20
19836.955421421961
 30
0.0
 11
24474.541164782971
 21
20636.956345421939
 31
0.0
  0
LINE
  5
D87D
  8
SUNPOU
  6
CONTINUOUS
 62
     4
 10
25175.541164782971
 20
20556.95634542195
 30
0.0
 11
24474.541164782971
 21
20556.95634542195
 31
0.0
  0
LINE
  5
D87E
  8
SUNPOU
  6
CONTINUOUS
 62
     4
 10
25933.541164782971
 20
19916.957928421951
 30
0.0
 11
25933.541164782971
 21
20636.956345421939
 31
0.0
  0
LINE
  5
D87F
  8
SUNPOU
  6
CONTINUOUS
 62
     4
 10
25976.041164782971
 20
19836.955421421961
 30
0.0
 11
25976.041164782971
 21
20636.956345421939
 31
0.0
  0
LINE
  5
D880
  8
SUNPOU
  6
CONTINUOUS
 62
     4
 10
25933.541164782971
 20
20556.95634542195
 30
0.0
 11
25693.541164782971
 21
20556.95634542195
 31
0.0
  0
LINE
  5
D881
  8
SUNPOU
  6
CONTINUOUS
 62
     4
 10
25976.041164782971
 20
20556.95634542195
 30
0.0
 11
26216.041164782971
 21
20556.95634542195
 31
0.0
  0
LINE
  5
D882
  8
SUNPOU
  6
CONTINUOUS
 62
     4
 10
25933.541164782971
 20
20556.95634542195
 30
0.0
 11
25976.041164782971
 21
20556.95634542195
 31
0.0
  0
LINE
  5
D890
  8
SUNPOU
  6
CONTINUOUS
 62
     4
 10
22665.041164782971
 20
20956.956345421939
 30
0.0
 11
19865.041164782961
 21
20956.956345421939
 31
0.0
  0
LINE
  5
D891
  8
SUNPOU
  6
CONTINUOUS
 62
     4
 10
25933.541164782971
 20
20956.956345421939
 30
0.0
 11
22665.041164782971
 21
20956.956345421939
 31
0.0
  0
LINE
  5
D892
  8
SUNPOU
  6
CONTINUOUS
 62
     4
 10
19865.04116478299
 20
20081.405195299281
 30
0.0
 11
19865.04116478299
 21
20636.956345421939
 31
0.0
  0
LINE
  5
D893
  8
SUNPOU
  6
CONTINUOUS
 62
     4
 10
19907.54340778297
 20
19920.305685421961
 30
0.0
 11
19907.54340778297
 21
20636.956345421939
 31
0.0
  0
LINE
  5
D894
  8
SUNPOU
  6
CONTINUOUS
 62
     4
 10
19865.04116478299
 20
20556.95634542195
 30
0.0
 11
19625.04116478299
 21
20556.95634542195
 31
0.0
  0
LINE
  5
D895
  8
SUNPOU
  6
CONTINUOUS
 62
     4
 10
19907.54340778297
 20
20556.95634542195
 30
0.0
 11
20147.54340778297
 21
20556.95634542195
 31
0.0
  0
LINE
  5
D896
  8
SUNPOU
  6
CONTINUOUS
 62
     4
 10
19865.04116478299
 20
20556.95634542195
 30
0.0
 11
19907.54340778297
 21
20556.95634542195
 31
0.0
  0
LINE
  5
D897
  8
SUNPOU
  6
CONTINUOUS
 62
     4
 10
19865.04116478299
 20
20081.405195299281
 30
0.0
 11
19865.04116478299
 21
20636.956345421939
 31
0.0
  0
LINE
  5
D898
  8
SUNPOU
  6
CONTINUOUS
 62
     4
 10
19822.542879782992
 20
19916.957928421951
 30
0.0
 11
19822.542879782992
 21
20636.956345421939
 31
0.0
  0
LINE
  5
D899
  8
SUNPOU
  6
CONTINUOUS
 62
     4
 10
19865.04116478299
 20
20556.95634542195
 30
0.0
 11
20105.04116478299
 21
20556.95634542195
 31
0.0
  0
LINE
  5
D89A
  8
SUNPOU
  6
CONTINUOUS
 62
     4
 10
19822.542879782992
 20
20556.95634542195
 30
0.0
 11
19582.542879782992
 21
20556.95634542195
 31
0.0
  0
LINE
  5
D89B
  8
SUNPOU
  6
CONTINUOUS
 62
     4
 10
19865.04116478299
 20
20556.95634542195
 30
0.0
 11
19822.542879782992
 21
20556.95634542195
 31
0.0
  0
LINE
  5
D89C
  8
SUNPOU
  6
CONTINUOUS
 62
     4
 10
19480.436328831049
 20
16796.455421421939
 30
0.0
 11
18567.197540414349
 21
16796.455421421939
 31
0.0
  0
LINE
  5
D89D
  8
SUNPOU
  6
CONTINUOUS
 62
     4
 10
19480.436328831049
 20
19714.45542142195
 30
0.0
 11
18567.197540414349
 21
19714.45542142195
 31
0.0
  0
LINE
  5
D89E
  8
SUNPOU
  6
CONTINUOUS
 62
     4
 10
18647.19754041436
 20
16796.455421421939
 30
0.0
 11
18647.19754041436
 21
19714.45542142195
 31
0.0
  0
LINE
  5
D89F
  8
SUNPOU
  6
CONTINUOUS
 62
     4
 10
19480.436328831049
 20
13527.955421421961
 30
0.0
 11
18567.197540414349
 21
13527.955421421961
 31
0.0
  0
LINE
  5
D8A0
  8
SUNPOU
  6
CONTINUOUS
 62
     4
 10
19480.436328831049
 20
16796.455421421939
 30
0.0
 11
18567.197540414349
 21
16796.455421421939
 31
0.0
  0
LINE
  5
D8A1
  8
SUNPOU
  6
CONTINUOUS
 62
     4
 10
18647.19754041436
 20
13527.955421421961
 30
0.0
 11
18647.19754041436
 21
16796.455421421939
 31
0.0
  0
ARC
  5
D8B9
  8
1-前柱P
 10
19855.44116478298
 20
13596.35542142196
 30
0.0
 40
1.0
 50
0.0
 51
90.0
  0
LINE
  5
D8BA
  8
1-前柱P
 10
19856.44116478298
 20
13596.35542142196
 30
0.0
 11
19856.44116478298
 21
13594.75542142196
 31
0.0
  0
LINE
  5
D8BB
  8
1-前柱P
 10
19856.44116478298
 20
13594.75542142196
 30
0.0
 11
19867.641164782981
 21
13594.75542142196
 31
0.0
  0
LINE
  5
D8BC
  8
1-前柱P
 10
19867.641164782981
 20
13594.75542142196
 30
0.0
 11
19867.641164782981
 21
13596.35542142196
 31
0.0
  0
ARC
  5
D8BD
  8
1-前柱P
 10
19868.641164782981
 20
13596.35542142196
 30
0.0
 40
1.0
 50
90.0
 51
180.0
  0
ARC
  5
D8BE
  8
1-中柱P
 10
19871.641164782981
 20
16864.755421421949
 30
0.0
 40
1.0
 50
90.0
 51
180.0
  0
LINE
  5
D8BF
  8
1-中柱P
 10
19870.641164782981
 20
16864.755421421949
 30
0.0
 11
19870.641164782981
 21
16863.155421421961
 31
0.0
  0
LINE
  5
D8C0
  8
1-中柱P
 10
19870.641164782981
 20
16863.155421421961
 30
0.0
 11
19859.44116478298
 21
16863.155421421961
 31
0.0
  0
LINE
  5
D8C1
  8
1-中柱P
 10
19859.44116478298
 20
16863.155421421961
 30
0.0
 11
19859.44116478298
 21
16864.755421421949
 31
0.0
  0
ARC
  5
D8C2
  8
1-中柱P
 10
19858.44116478298
 20
16864.755421421949
 30
0.0
 40
1.0
 50
0.0
 51
90.0
  0
ARC
  5
D8C3
  8
1-後柱P
 10
19874.641164782981
 20
19646.40542142195
 30
0.0
 40
1.0
 50
180.0
 51
270.0
  0
LINE
  5
D8C4
  8
1-後柱P
 10
19873.641164782981
 20
19646.40542142195
 30
0.0
 11
19873.641164782981
 21
19648.005421421942
 31
0.0
  0
LINE
  5
D8C5
  8
1-後柱P
 10
19873.641164782981
 20
19648.005421421942
 30
0.0
 11
19862.44116478298
 21
19648.005421421942
 31
0.0
  0
LINE
  5
D8C6
  8
1-後柱P
 10
19862.44116478298
 20
19648.005421421942
 30
0.0
 11
19862.441164782969
 21
19646.40542142195
 31
0.0
  0
ARC
  5
D8C7
  8
1-後柱P
 10
19861.441164782958
 20
19646.40542142195
 30
0.0
 40
1.0
 50
270.0
 51
0.0
  0
LINE
  5
D8C8
  8
0-6
  6
CONTINUOUS
 62
     6
 10
8377.1821451607102
 20
16589.736595512652
 30
0.0
 11
8318.4321465319954
 21
16740.954590421989
 31
0.0
  0
LINE
  5
D8C9
  8
0-6
  6
CONTINUOUS
 62
     6
 10
8318.4321465319954
 20
16740.954590421989
 30
0.0
 11
8423.0431382188144
 21
16616.958684273552
 31
0.0
  0
LINE
  5
D8CA
  8
0-6
  6
CONTINUOUS
 62
     6
 10
8423.0431382188144
 20
16616.958684273552
 30
0.0
 11
8377.1821451607102
 21
16589.736595512652
 31
0.0
  0
LINE
  5
D8CB
  8
0-6
  6
CONTINUOUS
 62
     6
 10
9163.3723638129941
 20
14384.420594661
 30
0.0
 11
9283.2270907195125
 21
14493.75169161622
 31
0.0
  0
LINE
  5
D8CC
  8
0-6
  6
CONTINUOUS
 62
     6
 10
9283.2270907195125
 20
14493.75169161622
 30
0.0
 11
9205.3016926827313
 21
14351.46298277367
 31
0.0
  0
LINE
  5
D8CD
  8
0-6
  6
CONTINUOUS
 62
     6
 10
9205.3016926827313
 20
14351.46298277367
 30
0.0
 11
9163.3723638129941
 21
14384.420594661
 31
0.0
  0
LINE
  5
D8CE
  8
0-6
  6
CONTINUOUS
 62
     6
 10
12081.31152770715
 20
16990.071713700221
 30
0.0
 11
12112.95117407589
 21
16830.957361421952
 31
0.0
  0
LINE
  5
D8CF
  8
0-6
  6
CONTINUOUS
 62
     6
 10
12112.95117407589
 20
16830.957361421952
 30
0.0
 11
12031.42504817352
 21
16971.214037265301
 31
0.0
  0
LINE
  5
D8D0
  8
0-6
  6
CONTINUOUS
 62
     6
 10
12031.42504817352
 20
16971.214037265301
 30
0.0
 11
12081.31152770715
 21
16990.071713700221
 31
0.0
  0
LINE
  5
D8D1
  8
0-6
  6
CONTINUOUS
 62
     6
 10
19998.51301457113
 20
19498.858648675301
 30
0.0
 11
19892.18499062318
 21
19621.354880421961
 31
0.0
  0
LINE
  5
D8D2
  8
0-6
  6
CONTINUOUS
 62
     6
 10
19892.18499062318
 20
19621.354880421961
 30
0.0
 11
19953.037110216421
 21
19470.993573746509
 31
0.0
  0
LINE
  5
D8D3
  8
0-6
  6
CONTINUOUS
 62
     6
 10
19953.037110216421
 20
19470.993573746509
 30
0.0
 11
19998.51301457113
 21
19498.858648675301
 31
0.0
  0
LINE
  5
D8D4
  8
0-6
  6
CONTINUOUS
 62
     6
 10
19941.501615400732
 20
19914.67220535464
 30
0.0
 11
19872.45793695873
 21
19767.893644467811
 31
0.0
  0
LINE
  5
D8D5
  8
0-6
  6
CONTINUOUS
 62
     6
 10
19872.45793695873
 20
19767.893644467811
 30
0.0
 11
19985.37493713788
 21
19884.34644209281
 31
0.0
  0
LINE
  5
D8D6
  8
0-6
  6
CONTINUOUS
 62
     6
 10
19985.37493713788
 20
19884.34644209281
 30
0.0
 11
19941.501615400732
 21
19914.67220535464
 31
0.0
  0
LINE
  5
D8D7
  8
0-6
  6
CONTINUOUS
 62
     6
 10
19998.51301457113
 20
16981.051217168599
 30
0.0
 11
19892.184990623151
 21
16858.554985421961
 31
0.0
  0
LINE
  5
D8D8
  8
0-6
  6
CONTINUOUS
 62
     6
 10
19892.184990623151
 20
16858.554985421961
 30
0.0
 11
19953.037110216421
 21
17008.916292097401
 31
0.0
  0
LINE
  5
D8D9
  8
0-6
  6
CONTINUOUS
 62
     6
 10
19953.037110216421
 20
17008.916292097401
 30
0.0
 11
19998.51301457113
 21
16981.051217168599
 31
0.0
  0
LINE
  5
D8DA
  8
0-6
  6
CONTINUOUS
 62
     6
 10
19998.51301457113
 20
13723.051653168621
 30
0.0
 11
19892.18499062318
 21
13600.555421421959
 31
0.0
  0
LINE
  5
D8DB
  8
0-6
  6
CONTINUOUS
 62
     6
 10
19892.18499062318
 20
13600.555421421959
 30
0.0
 11
19953.037110216421
 21
13750.916728097411
 31
0.0
  0
LINE
  5
D8DC
  8
0-6
  6
CONTINUOUS
 62
     6
 10
19953.037110216421
 20
13750.916728097411
 30
0.0
 11
19998.51301457113
 21
13723.051653168621
 31
0.0
  0
LINE
  5
D8DD
  8
0-6
  6
CONTINUOUS
 62
     6
 10
19941.501615400721
 20
16565.23766048926
 30
0.0
 11
19872.45793695873
 21
16712.01622137607
 31
0.0
  0
LINE
  5
D8DE
  8
0-6
  6
CONTINUOUS
 62
     6
 10
19872.45793695873
 20
16712.01622137607
 30
0.0
 11
19985.37493713788
 21
16595.5634237511
 31
0.0
  0
LINE
  5
D8DF
  8
0-6
  6
CONTINUOUS
 62
     6
 10
19985.37493713788
 20
16595.5634237511
 30
0.0
 11
19941.501615400721
 21
16565.23766048926
 31
0.0
  0
LINE
  5
D8E0
  8
0-6
  6
CONTINUOUS
 62
     6
 10
19941.501615400721
 20
13327.17686053513
 30
0.0
 11
19872.45793695873
 21
13473.955421421961
 31
0.0
  0
LINE
  5
D8E1
  8
0-6
  6
CONTINUOUS
 62
     6
 10
19872.45793695873
 20
13473.955421421961
 30
0.0
 11
19985.37493713788
 21
13357.502623796991
 31
0.0
  0
LINE
  5
D8E2
  8
0-6
  6
CONTINUOUS
 62
     6
 10
19985.37493713788
 20
13357.502623796991
 30
0.0
 11
19941.501615400721
 21
13327.17686053513
 31
0.0
  0
LINE
  5
D8E3
  8
0-6
  6
CONTINUOUS
 62
     6
 10
7244.1024693206618
 20
14220.53013957678
 30
0.0
 11
7290.3927609863067
 21
14375.991338486079
 31
0.0
  0
LINE
  5
D8E4
  8
0-6
  6
CONTINUOUS
 62
     6
 10
7290.3927609863067
 20
14375.991338486079
 30
0.0
 11
7196.1833749895932
 21
14243.94553357635
 31
0.0
  0
LINE
  5
D8E5
  8
0-6
  6
CONTINUOUS
 62
     6
 10
7196.1833749895932
 20
14243.94553357635
 30
0.0
 11
7244.1024693206618
 21
14220.53013957678
 31
0.0
  0
TEXT
  5
D8EB
  8
0
  6
CONTINUOUS
 62
     7
 10
18567.197540414341
 20
14762.205421421961
 30
0.0
 40
160.0
  1
3268.5
 50
90.0
  0
TEXT
  5
D8EC
  8
0
  6
CONTINUOUS
 62
     7
 10
18567.197540414341
 20
17988.788754755278
 30
0.0
 40
160.0
  1
2918
 50
90.0
  0
TEXT
  5
D8ED
  8
0
  6
CONTINUOUS
 62
     7
 10
19244.11923678299
 20
20636.954629421962
 30
0.0
 40
160.0
  1
42.5
  0
TEXT
  5
D8EE
  8
0
  6
CONTINUOUS
 62
     7
 10
19922.215203782958
 20
20656.298485421961
 30
0.0
 40
160.0
  1
42.5
  0
TEXT
  5
D8EF
  8
0
  6
CONTINUOUS
 62
     7
 10
23899.291164782971
 20
21036.956345421939
 30
0.0
 40
160.0
  1
3268.5
  0
TEXT
  5
D8F0
  8
0
  6
CONTINUOUS
 62
     7
 10
20998.374498116311
 20
21036.956345421939
 30
0.0
 40
160.0
  1
2800
  0
TEXT
  5
D8F4
  8
0
  6
CONTINUOUS
 62
     7
 10
25990.715203782969
 20
20656.298485421961
 30
0.0
 40
160.0
  1
42.5
  0
TEXT
  5
D8F5
  8
0
  6
CONTINUOUS
 62
     7
 10
24651.707831449639
 20
20638.66702988444
 30
0.0
 40
160.0
  1
701
  0
TEXT
  5
D8F6
  8
0
  6
CONTINUOUS
 62
     7
 10
23950.707831449639
 20
20636.956345421939
 30
0.0
 40
160.0
  1
701
  0
TEXT
  5
D8F7
  8
0
  6
CONTINUOUS
 62
     7
 10
23260.892481131541
 20
20287.445271466418
 30
0.0
 40
160.0
  1
701
  0
TEXT
  5
D8F8
  8
0
  6
CONTINUOUS
 62
     7
 10
22726.124498116322
 20
20636.956345421939
 30
0.0
 40
160.0
  1
407.5
  0
TEXT
  5
D8F9
  8
0
  6
CONTINUOUS
 62
     7
 10
22044.11923678299
 20
20636.956345421939
 30
0.0
 40
160.0
  1
42.5
  0
TEXT
  5
D903
  8
0
  6
CONTINUOUS
 62
     7
 10
18532.718766488611
 20
6634.4718314219681
 30
0.0
 40
160.0
  1
有効高サ2020
 50
90.0
  0
TEXT
  5
D904
  8
0
  6
CONTINUOUS
 62
     7
 10
20955.874498116322
 20
9515.1592194219611
 30
0.0
 40
160.0
  1
2800
  0
TEXT
  5
D905
  8
0
  6
CONTINUOUS
 62
     7
 10
20998.374498116322
 20
5067.1577084219589
 30
0.0
 40
160.0
  1
2800
  0
TEXT
  5
D906
  8
0
  6
CONTINUOUS
 62
     7
 10
19222.54050478301
 20
5067.1574774219607
 30
0.0
 40
160.0
  1
42.5
  0
TEXT
  5
D907
  8
0
  6
CONTINUOUS
 62
     7
 10
23445.957831449668
 20
5467.1575434219612
 30
0.0
 40
160.0
  1
有効開口巾3080.5
  0
TEXT
  5
D908
  8
0
  6
CONTINUOUS
 62
     7
 10
23899.29116478299
 20
5067.1577084219589
 30
0.0
 40
160.0
  1
3268.5
  0
TEXT
  5
D909
  8
0
  6
CONTINUOUS
 62
     7
 10
26075.86419578299
 20
5074.7048864219623
 30
0.0
 40
160.0
  1
42.5
  0
TEXT
  5
D90A
  8
0
  6
CONTINUOUS
 62
     7
 10
22525.937854975899
 20
4667.1578734220147
 30
0.0
 40
160.0
  1
6153.5
  0
TEXT
  5
D90B
  8
0
  6
CONTINUOUS
 62
     7
 10
20516.874498116322
 20
5467.1575434219612
 30
0.0
 40
160.0
  1
有効開口巾2712
  0
TEXT
  5
D90C
  8
0
  6
CONTINUOUS
 62
     7
 10
26703.544463782979
 20
6310.240876755297
 30
0.0
 40
160.0
  1
有効開口高サ1891.5
 50
90.0
  0
TEXT
  5
D90D
  8
0
  6
CONTINUOUS
 62
     7
 10
27346.643415487721
 20
6655.8242230886281
 30
0.0
 40
160.0
  1
2348（2588）
 50
90.0
  0
TEXT
  5
D90E
  8
0
  6
CONTINUOUS
 62
     7
 10
23899.29116478299
 20
9515.1592194219611
 30
0.0
 40
160.0
  1
3353.5
  0
TEXT
  5
D90F
  8
0
  6
CONTINUOUS
 62
     7
 10
26105.849150782989
 20
9515.1584934219627
 30
0.0
 40
160.0
  1
43
  0
TEXT
  5
D910
  8
0
  6
CONTINUOUS
 62
     7
 10
19405.075344782981
 20
9515.1584934219627
 30
0.0
 40
160.0
  1
43
  0
TEXT
  5
D911
  8
0
  6
CONTINUOUS
 62
     7
 10
22499.29116478299
 20
9915.1021434219656
 30
0.0
 40
160.0
  1
6239.5
  0
TEXT
  5
D912
  8
0
  6
CONTINUOUS
 62
     7
 10
8627.6388954096037
 20
5067.1577084219589
 30
0.0
 40
160.0
  1
3268.5
  0
TEXT
  5
D913
  8
0
  6
CONTINUOUS
 62
     7
 10
11854.222228742939
 20
5067.1577084219589
 30
0.0
 40
160.0
  1
2918
  0
TEXT
  5
D914
  8
0
  6
CONTINUOUS
 62
     7
 10
13724.37850940958
 20
5068.1482264219567
 30
0.0
 40
160.0
  1
42.5
  0
TEXT
  5
D915
  8
0
  6
CONTINUOUS
 62
     7
 10
6750.8872454095981
 20
5067.1574774219607
 30
0.0
 40
160.0
  1
42.5
  0
TEXT
  5
D916
  8
0
  6
CONTINUOUS
 62
     7
 10
10113.305562076261
 20
4667.1578734219556
 30
0.0
 40
160.0
  1
6271.5
  0
TEXT
  5
D917
  8
0
  6
CONTINUOUS
 62
     7
 10
14632.38929140959
 20
6586.990876755297
 30
0.0
 40
160.0
  1
2157（2397）
 50
90.0
  0
TEXT
  5
D918
  8
0
  6
CONTINUOUS
 62
     7
 10
6180.8884994095997
 20
6655.8242100886291
 30
0.0
 40
160.0
  1
2348（2588）
 50
90.0
  0
TEXT
  5
D919
  8
0
  6
CONTINUOUS
 62
     7
 10
13910.064043878019
 20
9515.1592194219611
 30
0.0
 40
160.0
  1
180
  0
TEXT
  5
D91A
  8
0
  6
CONTINUOUS
 62
     7
 10
10113.305562076261
 20
9515.1592194219611
 30
0.0
 40
160.0
  1
6271.5
  0
TEXT
  5
D91B
  8
0
  6
CONTINUOUS
 62
     7
 10
6787.5555620762707
 20
9515.1592194219611
 30
0.0
 40
160.0
  1
150
  0
TEXT
  5
D91C
  8
0
  6
CONTINUOUS
 62
     7
 10
10141.6388954096
 20
9915.1575694219573
 30
0.0
 40
160.0
  1
6601.5
  0
TEXT
  5
D91D
  8
0
  6
CONTINUOUS
 62
     7
 10
25341.207831449639
 20
20636.956345421939
 30
0.0
 40
160.0
  1
758
  0
TEXT
  5
D91E
  8
0
  6
CONTINUOUS
 62
     7
 10
9536.1955549539998
 20
12125.45535542194
 30
0.0
 40
160.0
  1
ケラバ外寸6239.5
  0
TEXT
  5
D91F
  8
0
  6
CONTINUOUS
 62
     7
 10
13540.25936562065
 20
20636.954629421962
 30
0.0
 40
160.0
  1
85.5
  0
TEXT
  5
D920
  8
0
  6
CONTINUOUS
 62
     7
 10
11410.86222162067
 20
20636.956345421939
 30
0.0
 40
160.0
  1
3268.5
  0
TEXT
  5
D921
  8
0
  6
CONTINUOUS
 62
     7
 10
8509.9455549539998
 20
20636.956345421939
 30
0.0
 40
160.0
  1
2800
  0
TEXT
  5
D922
  8
0
  6
CONTINUOUS
 62
     7
 10
6750.2644336206504
 20
20636.954629421962
 30
0.0
 40
160.0
  1
85.5
  0
TEXT
  5
D923
  8
0
  6
CONTINUOUS
 62
     7
 10
13926.005726015819
 20
20108.384150088608
 30
0.0
 40
160.0
  1
10
 50
90.0
  0
TEXT
  5
D924
  8
0
  6
CONTINUOUS
 62
     7
 10
14294.611997620639
 20
20015.43694381119
 30
0.0
 40
160.0
  1
222.5
 50
90.0
  0
TEXT
  5
D925
  8
0
  6
CONTINUOUS
 62
     7
 10
14294.611997620639
 20
17988.788754755278
 30
0.0
 40
160.0
  1
2918
 50
90.0
  0
TEXT
  5
D926
  8
0
  6
CONTINUOUS
 62
     7
 10
14294.611997620639
 20
14762.205421421961
 30
0.0
 40
160.0
  1
3268.5
 50
90.0
  0
TEXT
  5
D927
  8
0
  6
CONTINUOUS
 62
     7
 10
14294.61199762067
 20
12671.466519012511
 30
0.0
 40
160.0
  1
192.5
 50
90.0
  0
ARC
  5
D928
  8
0
  6
BYBLOCK
 62
     0
 10
14374.611997620639
 20
13527.955421421961
 30
0.0
 40
15.0
 50
270.0
 51
90.0
  0
ARC
  5
D929
  8
0
  6
BYBLOCK
 62
     0
 10
14374.611997620639
 20
13527.955421421961
 30
0.0
 40
15.0
 50
90.0
 51
270.0
  0
ARC
  5
D92A
  8
0
  6
BYBLOCK
 62
     0
 10
14374.611997620639
 20
13335.45614742195
 30
0.0
 40
15.0
 50
90.0
 51
270.0
  0
ARC
  5
D92B
  8
0
  6
BYBLOCK
 62
     0
 10
14374.611997620639
 20
13335.45614742195
 30
0.0
 40
15.0
 50
270.0
 51
90.0
  0
ARC
  5
D92C
  8
0
  6
BYBLOCK
 62
     0
 10
14374.611997620639
 20
16796.455421421939
 30
0.0
 40
15.0
 50
270.0
 51
90.0
  0
ARC
  5
D92D
  8
0
  6
BYBLOCK
 62
     0
 10
14374.611997620639
 20
16796.455421421939
 30
0.0
 40
15.0
 50
90.0
 51
270.0
  0
ARC
  5
D92E
  8
0
  6
BYBLOCK
 62
     0
 10
14374.611997620639
 20
13527.955421421961
 30
0.0
 40
15.0
 50
90.0
 51
270.0
  0
ARC
  5
D92F
  8
0
  6
BYBLOCK
 62
     0
 10
14374.611997620639
 20
13527.955421421961
 30
0.0
 40
15.0
 50
270.0
 51
90.0
  0
ARC
  5
D930
  8
0
  6
BYBLOCK
 62
     0
 10
14374.611997620639
 20
19714.45542142195
 30
0.0
 40
15.0
 50
270.0
 51
90.0
  0
ARC
  5
D931
  8
0
  6
BYBLOCK
 62
     0
 10
14374.611997620639
 20
19714.45542142195
 30
0.0
 40
15.0
 50
90.0
 51
270.0
  0
ARC
  5
D932
  8
0
  6
BYBLOCK
 62
     0
 10
14374.611997620639
 20
16796.455421421939
 30
0.0
 40
15.0
 50
90.0
 51
270.0
  0
ARC
  5
D933
  8
0
  6
BYBLOCK
 62
     0
 10
14374.611997620639
 20
16796.455421421939
 30
0.0
 40
15.0
 50
270.0
 51
90.0
  0
ARC
  5
D934
  8
0
  6
BYBLOCK
 62
     0
 10
14374.611997620639
 20
19714.45542142195
 30
0.0
 40
15.0
 50
90.0
 51
270.0
  0
ARC
  5
D935
  8
0
  6
BYBLOCK
 62
     0
 10
14374.611997620639
 20
19714.45542142195
 30
0.0
 40
15.0
 50
270.0
 51
90.0
  0
ARC
  5
D936
  8
0
  6
BYBLOCK
 62
     0
 10
14374.611997620639
 20
19936.955289421941
 30
0.0
 40
15.0
 50
270.0
 51
90.0
  0
ARC
  5
D937
  8
0
  6
BYBLOCK
 62
     0
 10
14374.611997620639
 20
19936.955289421941
 30
0.0
 40
15.0
 50
90.0
 51
270.0
  0
ARC
  5
D938
  8
0
  6
BYBLOCK
 62
     0
 10
13974.61265662064
 20
19926.95872042195
 30
0.0
 40
15.0
 50
270.0
 51
90.0
  0
ARC
  5
D939
  8
0
  6
BYBLOCK
 62
     0
 10
13974.61265662064
 20
19926.95872042195
 30
0.0
 40
15.0
 50
90.0
 51
270.0
  0
ARC
  5
D93A
  8
0
  6
BYBLOCK
 62
     0
 10
13974.61265662064
 20
19936.955289421941
 30
0.0
 40
15.0
 50
90.0
 51
270.0
  0
ARC
  5
D93B
  8
0
  6
BYBLOCK
 62
     0
 10
13974.61265662064
 20
19936.955289421941
 30
0.0
 40
15.0
 50
270.0
 51
90.0
  0
ARC
  5
D93C
  8
0
  6
BYBLOCK
 62
     0
 10
7376.6122216206613
 20
20556.95634542195
 30
0.0
 40
15.0
 50
0.0
 51
180.0
  0
ARC
  5
D93D
  8
0
  6
BYBLOCK
 62
     0
 10
7376.6122216206613
 20
20556.95634542195
 30
0.0
 40
15.0
 50
180.0
 51
0.0
  0
ARC
  5
D93E
  8
0
  6
BYBLOCK
 62
     0
 10
7291.1122216206613
 20
20556.95634542195
 30
0.0
 40
15.0
 50
180.0
 51
0.0
  0
ARC
  5
D93F
  8
0
  6
BYBLOCK
 62
     0
 10
7291.1122216206613
 20
20556.95634542195
 30
0.0
 40
15.0
 50
0.0
 51
180.0
  0
ARC
  5
D940
  8
0
  6
BYBLOCK
 62
     0
 10
10176.61222162066
 20
20556.95634542195
 30
0.0
 40
15.0
 50
180.0
 51
0.0
  0
ARC
  5
D941
  8
0
  6
BYBLOCK
 62
     0
 10
10176.61222162066
 20
20556.95634542195
 30
0.0
 40
15.0
 50
0.0
 51
180.0
  0
ARC
  5
D942
  8
0
  6
BYBLOCK
 62
     0
 10
7376.6122216206613
 20
20556.95634542195
 30
0.0
 40
15.0
 50
0.0
 51
180.0
  0
ARC
  5
D943
  8
0
  6
BYBLOCK
 62
     0
 10
7376.6122216206613
 20
20556.95634542195
 30
0.0
 40
15.0
 50
180.0
 51
0.0
  0
ARC
  5
D944
  8
0
  6
BYBLOCK
 62
     0
 10
13445.11222162067
 20
20556.95634542195
 30
0.0
 40
15.0
 50
180.0
 51
0.0
  0
ARC
  5
D945
  8
0
  6
BYBLOCK
 62
     0
 10
13445.11222162067
 20
20556.95634542195
 30
0.0
 40
15.0
 50
0.0
 51
180.0
  0
ARC
  5
D946
  8
0
  6
BYBLOCK
 62
     0
 10
10176.61222162066
 20
20556.95634542195
 30
0.0
 40
15.0
 50
0.0
 51
180.0
  0
ARC
  5
D947
  8
0
  6
BYBLOCK
 62
     0
 10
10176.61222162066
 20
20556.95634542195
 30
0.0
 40
15.0
 50
180.0
 51
0.0
  0
ARC
  5
D948
  8
0
  6
BYBLOCK
 62
     0
 10
13445.11222162067
 20
20556.95634542195
 30
0.0
 40
15.0
 50
180.0
 51
0.0
  0
ARC
  5
D949
  8
0
  6
BYBLOCK
 62
     0
 10
13445.11222162067
 20
20556.95634542195
 30
0.0
 40
15.0
 50
0.0
 51
180.0
  0
ARC
  5
D94A
  8
0
  6
BYBLOCK
 62
     0
 10
13530.61222162067
 20
20556.95634542195
 30
0.0
 40
15.0
 50
0.0
 51
180.0
  0
ARC
  5
D94B
  8
0
  6
BYBLOCK
 62
     0
 10
13530.61222162067
 20
20556.95634542195
 30
0.0
 40
15.0
 50
180.0
 51
0.0
  0
ARC
  5
D94C
  8
0
  6
BYBLOCK
 62
     0
 10
13530.61222162067
 20
12045.45535542194
 30
0.0
 40
15.0
 50
180.0
 51
0.0
  0
ARC
  5
D94D
  8
0
  6
BYBLOCK
 62
     0
 10
13530.61222162067
 20
12045.45535542194
 30
0.0
 40
15.0
 50
0.0
 51
180.0
  0
ARC
  5
D94E
  8
0
  6
BYBLOCK
 62
     0
 10
7291.1122216206613
 20
12045.45535542194
 30
0.0
 40
15.0
 50
0.0
 51
180.0
  0
ARC
  5
D94F
  8
0
  6
BYBLOCK
 62
     0
 10
7291.1122216206613
 20
12045.45535542194
 30
0.0
 40
15.0
 50
180.0
 51
0.0
  0
ARC
  5
D950
  8
0
  6
BYBLOCK
 62
     0
 10
25175.541164782971
 20
20556.95634542195
 30
0.0
 40
15.0
 50
0.0
 51
180.0
  0
ARC
  5
D951
  8
0
  6
BYBLOCK
 62
     0
 10
25175.541164782971
 20
20556.95634542195
 30
0.0
 40
15.0
 50
180.0
 51
0.0
  0
ARC
  5
D952
  8
0
  6
BYBLOCK
 62
     0
 10
25933.541164782971
 20
20556.95634542195
 30
0.0
 40
15.0
 50
180.0
 51
0.0
  0
ARC
  5
D953
  8
0
  6
BYBLOCK
 62
     0
 10
25933.541164782971
 20
20556.95634542195
 30
0.0
 40
15.0
 50
0.0
 51
180.0
  0
ARC
  5
D954
  8
0
  6
BYBLOCK
 62
     0
 10
13802.3888954096
 20
9835.1575694219573
 30
0.0
 40
15.0
 50
180.0
 51
0.0
  0
ARC
  5
D955
  8
0
  6
BYBLOCK
 62
     0
 10
13802.3888954096
 20
9835.1575694219573
 30
0.0
 40
15.0
 50
0.0
 51
180.0
  0
ARC
  5
D956
  8
0
  6
BYBLOCK
 62
     0
 10
7200.8888954096046
 20
9835.1575694219573
 30
0.0
 40
15.0
 50
0.0
 51
180.0
  0
ARC
  5
D957
  8
0
  6
BYBLOCK
 62
     0
 10
7200.8888954096046
 20
9835.1575694219573
 30
0.0
 40
15.0
 50
180.0
 51
0.0
  0
ARC
  5
D958
  8
0
  6
BYBLOCK
 62
     0
 10
7350.8888954095983
 20
9435.1592194219593
 30
0.0
 40
15.0
 50
0.0
 51
180.0
  0
ARC
  5
D959
  8
0
  6
BYBLOCK
 62
     0
 10
7350.8888954095983
 20
9435.1592194219593
 30
0.0
 40
15.0
 50
180.0
 51
0.0
  0
ARC
  5
D95A
  8
0
  6
BYBLOCK
 62
     0
 10
7200.8888954096046
 20
9435.1592194219593
 30
0.0
 40
15.0
 50
180.0
 51
0.0
  0
ARC
  5
D95B
  8
0
  6
BYBLOCK
 62
     0
 10
7200.8888954096046
 20
9435.1592194219593
 30
0.0
 40
15.0
 50
0.0
 51
180.0
  0
ARC
  5
D95C
  8
0
  6
BYBLOCK
 62
     0
 10
13622.3888954096
 20
9435.1592194219593
 30
0.0
 40
15.0
 50
180.0
 51
0.0
  0
ARC
  5
D95D
  8
0
  6
BYBLOCK
 62
     0
 10
13622.3888954096
 20
9435.1592194219593
 30
0.0
 40
15.0
 50
0.0
 51
180.0
  0
ARC
  5
D95E
  8
0
  6
BYBLOCK
 62
     0
 10
7350.8888954095983
 20
9435.1592194219593
 30
0.0
 40
15.0
 50
0.0
 51
180.0
  0
ARC
  5
D95F
  8
0
  6
BYBLOCK
 62
     0
 10
7350.8888954095983
 20
9435.1592194219593
 30
0.0
 40
15.0
 50
180.0
 51
0.0
  0
ARC
  5
D960
  8
0
  6
BYBLOCK
 62
     0
 10
13802.3888954096
 20
9435.1592194219593
 30
0.0
 40
15.0
 50
180.0
 51
0.0
  0
ARC
  5
D961
  8
0
  6
BYBLOCK
 62
     0
 10
13802.3888954096
 20
9435.1592194219593
 30
0.0
 40
15.0
 50
0.0
 51
180.0
  0
ARC
  5
D962
  8
0
  6
BYBLOCK
 62
     0
 10
13622.3888954096
 20
9435.1592194219593
 30
0.0
 40
15.0
 50
0.0
 51
180.0
  0
ARC
  5
D963
  8
0
  6
BYBLOCK
 62
     0
 10
13622.3888954096
 20
9435.1592194219593
 30
0.0
 40
15.0
 50
180.0
 51
0.0
  0
ARC
  5
D964
  8
0
  6
BYBLOCK
 62
     0
 10
6260.8884994096006
 20
6287.1575434219621
 30
0.0
 40
15.0
 50
90.0
 51
270.0
  0
ARC
  5
D965
  8
0
  6
BYBLOCK
 62
     0
 10
6260.8884994096006
 20
6287.1575434219621
 30
0.0
 40
15.0
 50
270.0
 51
90.0
  0
ARC
  5
D966
  8
0
  6
BYBLOCK
 62
     0
 10
6260.8884994096006
 20
8635.1575434219612
 30
0.0
 40
15.0
 50
270.0
 51
90.0
  0
ARC
  5
D967
  8
0
  6
BYBLOCK
 62
     0
 10
6260.8884994096006
 20
8635.1575434219612
 30
0.0
 40
15.0
 50
90.0
 51
270.0
  0
ARC
  5
D968
  8
0
  6
BYBLOCK
 62
     0
 10
14712.38929140959
 20
6287.1575434219612
 30
0.0
 40
15.0
 50
90.0
 51
270.0
  0
ARC
  5
D969
  8
0
  6
BYBLOCK
 62
     0
 10
14712.38929140959
 20
6287.1575434219612
 30
0.0
 40
15.0
 50
270.0
 51
90.0
  0
ARC
  5
D96A
  8
0
  6
BYBLOCK
 62
     0
 10
14712.38929140959
 20
8444.1575434219612
 30
0.0
 40
15.0
 50
270.0
 51
90.0
  0
ARC
  5
D96B
  8
0
  6
BYBLOCK
 62
     0
 10
14712.38929140959
 20
8444.1575434219612
 30
0.0
 40
15.0
 50
90.0
 51
270.0
  0
ARC
  5
D96C
  8
0
  6
BYBLOCK
 62
     0
 10
13622.3888954096
 20
4587.1578734219574
 30
0.0
 40
15.0
 50
180.0
 51
0.0
  0
ARC
  5
D96D
  8
0
  6
BYBLOCK
 62
     0
 10
13622.3888954096
 20
4587.1578734219574
 30
0.0
 40
15.0
 50
0.0
 51
180.0
  0
ARC
  5
D96E
  8
0
  6
BYBLOCK
 62
     0
 10
7350.8888954095983
 20
4587.1578734219574
 30
0.0
 40
15.0
 50
0.0
 51
180.0
  0
ARC
  5
D96F
  8
0
  6
BYBLOCK
 62
     0
 10
7350.8888954095983
 20
4587.1578734219574
 30
0.0
 40
15.0
 50
180.0
 51
0.0
  0
ARC
  5
D970
  8
0
  6
BYBLOCK
 62
     0
 10
7393.3888954096037
 20
4987.1577084219589
 30
0.0
 40
15.0
 50
0.0
 51
180.0
  0
ARC
  5
D971
  8
0
  6
BYBLOCK
 62
     0
 10
7393.3888954096037
 20
4987.1577084219589
 30
0.0
 40
15.0
 50
180.0
 51
0.0
  0
ARC
  5
D972
  8
0
  6
BYBLOCK
 62
     0
 10
7350.8888954095983
 20
4987.1577084219589
 30
0.0
 40
15.0
 50
180.0
 51
0.0
  0
ARC
  5
D973
  8
0
  6
BYBLOCK
 62
     0
 10
7350.8888954095983
 20
4987.1577084219589
 30
0.0
 40
15.0
 50
0.0
 51
180.0
  0
ARC
  5
D974
  8
0
  6
BYBLOCK
 62
     0
 10
13579.888895409589
 20
4987.1577084219589
 30
0.0
 40
15.0
 50
180.0
 51
0.0
  0
ARC
  5
D975
  8
0
  6
BYBLOCK
 62
     0
 10
13579.888895409589
 20
4987.1577084219589
 30
0.0
 40
15.0
 50
0.0
 51
180.0
  0
ARC
  5
D976
  8
0
  6
BYBLOCK
 62
     0
 10
13622.3888954096
 20
4987.1577084219589
 30
0.0
 40
15.0
 50
0.0
 51
180.0
  0
ARC
  5
D977
  8
0
  6
BYBLOCK
 62
     0
 10
13622.3888954096
 20
4987.1577084219589
 30
0.0
 40
15.0
 50
180.0
 51
0.0
  0
ARC
  5
D978
  8
0
  6
BYBLOCK
 62
     0
 10
10661.8888954096
 20
4987.1577084219589
 30
0.0
 40
15.0
 50
0.0
 51
180.0
  0
ARC
  5
D979
  8
0
  6
BYBLOCK
 62
     0
 10
10661.8888954096
 20
4987.1577084219589
 30
0.0
 40
15.0
 50
180.0
 51
0.0
  0
ARC
  5
D97A
  8
0
  6
BYBLOCK
 62
     0
 10
13579.888895409589
 20
4987.1577084219589
 30
0.0
 40
15.0
 50
180.0
 51
0.0
  0
ARC
  5
D97B
  8
0
  6
BYBLOCK
 62
     0
 10
13579.888895409589
 20
4987.1577084219589
 30
0.0
 40
15.0
 50
0.0
 51
180.0
  0
ARC
  5
D97C
  8
0
  6
BYBLOCK
 62
     0
 10
10661.8888954096
 20
4987.1577084219589
 30
0.0
 40
15.0
 50
180.0
 51
0.0
  0
ARC
  5
D97D
  8
0
  6
BYBLOCK
 62
     0
 10
10661.8888954096
 20
4987.1577084219589
 30
0.0
 40
15.0
 50
0.0
 51
180.0
  0
ARC
  5
D97E
  8
0
  6
BYBLOCK
 62
     0
 10
7393.3888954096037
 20
4987.1577084219589
 30
0.0
 40
15.0
 50
0.0
 51
180.0
  0
ARC
  5
D97F
  8
0
  6
BYBLOCK
 62
     0
 10
7393.3888954096037
 20
4987.1577084219589
 30
0.0
 40
15.0
 50
180.0
 51
0.0
  0
ARC
  5
D980
  8
0
  6
BYBLOCK
 62
     0
 10
26019.04116478299
 20
9835.1021434219638
 30
0.0
 40
15.0
 50
180.0
 51
0.0
  0
ARC
  5
D981
  8
0
  6
BYBLOCK
 62
     0
 10
26019.04116478299
 20
9835.1021434219638
 30
0.0
 40
15.0
 50
0.0
 51
180.0
  0
ARC
  5
D982
  8
0
  6
BYBLOCK
 62
     0
 10
19779.541164783001
 20
9835.1021434219638
 30
0.0
 40
15.0
 50
0.0
 51
180.0
  0
ARC
  5
D983
  8
0
  6
BYBLOCK
 62
     0
 10
19779.541164783001
 20
9835.1021434219638
 30
0.0
 40
15.0
 50
180.0
 51
0.0
  0
ARC
  5
D984
  8
0
  6
BYBLOCK
 62
     0
 10
19822.54116478299
 20
9435.1592194219593
 30
0.0
 40
15.0
 50
0.0
 51
180.0
  0
ARC
  5
D985
  8
0
  6
BYBLOCK
 62
     0
 10
19822.54116478299
 20
9435.1592194219593
 30
0.0
 40
15.0
 50
180.0
 51
0.0
  0
ARC
  5
D986
  8
0
  6
BYBLOCK
 62
     0
 10
19779.541164783001
 20
9435.1592194219593
 30
0.0
 40
15.0
 50
180.0
 51
0.0
  0
ARC
  5
D987
  8
0
  6
BYBLOCK
 62
     0
 10
19779.541164783001
 20
9435.1592194219593
 30
0.0
 40
15.0
 50
0.0
 51
180.0
  0
ARC
  5
D988
  8
0
  6
BYBLOCK
 62
     0
 10
25976.04116478299
 20
9435.1592194219593
 30
0.0
 40
15.0
 50
180.0
 51
0.0
  0
ARC
  5
D989
  8
0
  6
BYBLOCK
 62
     0
 10
25976.04116478299
 20
9435.1592194219593
 30
0.0
 40
15.0
 50
0.0
 51
180.0
  0
ARC
  5
D98A
  8
0
  6
BYBLOCK
 62
     0
 10
26019.04116478299
 20
9435.1592194219593
 30
0.0
 40
15.0
 50
0.0
 51
180.0
  0
ARC
  5
D98B
  8
0
  6
BYBLOCK
 62
     0
 10
26019.04116478299
 20
9435.1592194219593
 30
0.0
 40
15.0
 50
180.0
 51
0.0
  0
ARC
  5
D98C
  8
0
  6
BYBLOCK
 62
     0
 10
22622.541164782979
 20
9435.1592194219593
 30
0.0
 40
15.0
 50
0.0
 51
180.0
  0
ARC
  5
D98D
  8
0
  6
BYBLOCK
 62
     0
 10
22622.541164782979
 20
9435.1592194219593
 30
0.0
 40
15.0
 50
180.0
 51
0.0
  0
ARC
  5
D98E
  8
0
  6
BYBLOCK
 62
     0
 10
25976.04116478299
 20
9435.1592194219593
 30
0.0
 40
15.0
 50
180.0
 51
0.0
  0
ARC
  5
D98F
  8
0
  6
BYBLOCK
 62
     0
 10
25976.04116478299
 20
9435.1592194219593
 30
0.0
 40
15.0
 50
0.0
 51
180.0
  0
ARC
  5
D990
  8
0
  6
BYBLOCK
 62
     0
 10
27426.643415487721
 20
6287.1575434219612
 30
0.0
 40
15.0
 50
90.0
 51
270.0
  0
ARC
  5
D991
  8
0
  6
BYBLOCK
 62
     0
 10
27426.643415487721
 20
6287.1575434219612
 30
0.0
 40
15.0
 50
270.0
 51
90.0
  0
ARC
  5
D992
  8
0
  6
BYBLOCK
 62
     0
 10
27426.643415487732
 20
8635.1575694219555
 30
0.0
 40
15.0
 50
270.0
 51
90.0
  0
ARC
  5
D993
  8
0
  6
BYBLOCK
 62
     0
 10
27426.643415487732
 20
8635.1575694219555
 30
0.0
 40
15.0
 50
90.0
 51
270.0
  0
ARC
  5
D994
  8
0
  6
BYBLOCK
 62
     0
 10
26783.544463782979
 20
6287.1575434219612
 30
0.0
 40
15.0
 50
90.0
 51
270.0
  0
ARC
  5
D995
  8
0
  6
BYBLOCK
 62
     0
 10
26783.544463782979
 20
6287.1575434219612
 30
0.0
 40
15.0
 50
270.0
 51
90.0
  0
ARC
  5
D996
  8
0
  6
BYBLOCK
 62
     0
 10
26783.544463782979
 20
8178.6575434219612
 30
0.0
 40
14.999999999999091
 50
270.0
 51
90.0
  0
ARC
  5
D997
  8
0
  6
BYBLOCK
 62
     0
 10
26783.544463782979
 20
8178.6575434219612
 30
0.0
 40
15.0
 50
90.0
 51
270.0
  0
ARC
  5
D998
  8
0
  6
BYBLOCK
 62
     0
 10
22619.54116478299
 20
5387.1575434219612
 30
0.0
 40
15.0
 50
180.0
 51
0.0
  0
ARC
  5
D999
  8
0
  6
BYBLOCK
 62
     0
 10
22619.54116478299
 20
5387.1575434219612
 30
0.0
 40
15.0
 50
0.0
 51
180.0
  0
ARC
  5
D99A
  8
0
  6
BYBLOCK
 62
     0
 10
19907.54116478299
 20
5387.1575434219612
 30
0.0
 40
15.0
 50
0.0
 51
180.0
  0
ARC
  5
D99B
  8
0
  6
BYBLOCK
 62
     0
 10
19907.54116478299
 20
5387.1575434219612
 30
0.0
 40
15.0
 50
180.0
 51
0.0
  0
ARC
  5
D99C
  8
0
  6
BYBLOCK
 62
     0
 10
25976.001211835472
 20
4587.1578734220147
 30
0.0
 40
15.0
 50
180.0
 51
0.0
  0
ARC
  5
D99D
  8
0
  6
BYBLOCK
 62
     0
 10
25976.001211835472
 20
4587.1578734220147
 30
0.0
 40
15.0
 50
0.0
 51
180.0
  0
ARC
  5
D99E
  8
0
  6
BYBLOCK
 62
     0
 10
19822.541164783001
 20
4587.1578734220147
 30
0.0
 40
15.0
 50
0.0
 51
180.0
  0
ARC
  5
D99F
  8
0
  6
BYBLOCK
 62
     0
 10
19822.541164783001
 20
4587.1578734220147
 30
0.0
 40
15.0
 50
180.0
 51
0.0
  0
ARC
  5
D9A0
  8
0
  6
BYBLOCK
 62
     0
 10
25933.54116478299
 20
4987.1577084219589
 30
0.0
 40
15.0
 50
180.0
 51
0.0
  0
ARC
  5
D9A1
  8
0
  6
BYBLOCK
 62
     0
 10
25933.54116478299
 20
4987.1577084219589
 30
0.0
 40
15.0
 50
0.0
 51
180.0
  0
ARC
  5
D9A2
  8
0
  6
BYBLOCK
 62
     0
 10
25976.001211835472
 20
4987.1577084219589
 30
0.0
 40
15.0
 50
0.0
 51
180.0
  0
ARC
  5
D9A3
  8
0
  6
BYBLOCK
 62
     0
 10
25976.001211835472
 20
4987.1577084219589
 30
0.0
 40
15.0
 50
180.0
 51
0.0
  0
ARC
  5
D9A4
  8
0
  6
BYBLOCK
 62
     0
 10
22665.041164782979
 20
4987.1577084219589
 30
0.0
 40
15.0
 50
0.0
 51
180.0
  0
ARC
  5
D9A5
  8
0
  6
BYBLOCK
 62
     0
 10
22665.041164782979
 20
4987.1577084219589
 30
0.0
 40
15.0
 50
180.0
 51
0.0
  0
ARC
  5
D9A6
  8
0
  6
BYBLOCK
 62
     0
 10
25933.54116478299
 20
4987.1577084219589
 30
0.0
 40
15.0
 50
180.0
 51
0.0
  0
ARC
  5
D9A7
  8
0
  6
BYBLOCK
 62
     0
 10
25933.54116478299
 20
4987.1577084219589
 30
0.0
 40
15.0
 50
0.0
 51
180.0
  0
ARC
  5
D9A8
  8
0
  6
BYBLOCK
 62
     0
 10
25839.541164783011
 20
5387.1575434219612
 30
0.0
 40
15.0
 50
180.0
 51
0.0
  0
ARC
  5
D9A9
  8
0
  6
BYBLOCK
 62
     0
 10
25839.541164783011
 20
5387.1575434219612
 30
0.0
 40
15.0
 50
0.0
 51
180.0
  0
ARC
  5
D9AA
  8
0
  6
BYBLOCK
 62
     0
 10
22759.04116478299
 20
5387.1575434219612
 30
0.0
 40
15.0
 50
0.0
 51
180.0
  0
ARC
  5
D9AB
  8
0
  6
BYBLOCK
 62
     0
 10
22759.04116478299
 20
5387.1575434219612
 30
0.0
 40
15.0
 50
180.0
 51
0.0
  0
ARC
  5
D9AC
  8
0
  6
BYBLOCK
 62
     0
 10
19865.04116478299
 20
4987.1577084219589
 30
0.0
 40
15.0
 50
0.0
 51
180.0
  0
ARC
  5
D9AD
  8
0
  6
BYBLOCK
 62
     0
 10
19865.04116478299
 20
4987.1577084219589
 30
0.0
 40
15.0
 50
180.0
 51
0.0
  0
ARC
  5
D9AE
  8
0
  6
BYBLOCK
 62
     0
 10
19822.541164783001
 20
4987.1577084219589
 30
0.0
 40
15.0
 50
180.0
 51
0.0
  0
ARC
  5
D9AF
  8
0
  6
BYBLOCK
 62
     0
 10
19822.541164783001
 20
4987.1577084219589
 30
0.0
 40
15.0
 50
0.0
 51
180.0
  0
ARC
  5
D9B0
  8
0
  6
BYBLOCK
 62
     0
 10
22665.041164782979
 20
4987.1577084219589
 30
0.0
 40
15.0
 50
180.0
 51
0.0
  0
ARC
  5
D9B1
  8
0
  6
BYBLOCK
 62
     0
 10
22665.041164782979
 20
4987.1577084219589
 30
0.0
 40
15.0
 50
0.0
 51
180.0
  0
ARC
  5
D9B2
  8
0
  6
BYBLOCK
 62
     0
 10
19865.04116478299
 20
4987.1577084219589
 30
0.0
 40
15.0
 50
0.0
 51
180.0
  0
ARC
  5
D9B3
  8
0
  6
BYBLOCK
 62
     0
 10
19865.04116478299
 20
4987.1577084219589
 30
0.0
 40
15.0
 50
180.0
 51
0.0
  0
ARC
  5
D9B4
  8
0
  6
BYBLOCK
 62
     0
 10
22622.541164782979
 20
9435.1592194219593
 30
0.0
 40
15.0
 50
180.0
 51
0.0
  0
ARC
  5
D9B5
  8
0
  6
BYBLOCK
 62
     0
 10
22622.541164782979
 20
9435.1592194219593
 30
0.0
 40
15.0
 50
0.0
 51
180.0
  0
ARC
  5
D9B6
  8
0
  6
BYBLOCK
 62
     0
 10
19822.54116478299
 20
9435.1592194219593
 30
0.0
 40
15.0
 50
0.0
 51
180.0
  0
ARC
  5
D9B7
  8
0
  6
BYBLOCK
 62
     0
 10
19822.54116478299
 20
9435.1592194219593
 30
0.0
 40
15.0
 50
180.0
 51
0.0
  0
ARC
  5
D9B8
  8
0
  6
BYBLOCK
 62
     0
 10
18612.718766488601
 20
6287.4718314219654
 30
0.0
 40
15.0
 50
90.0
 51
270.0
  0
ARC
  5
D9B9
  8
0
  6
BYBLOCK
 62
     0
 10
18612.718766488601
 20
6287.4718314219654
 30
0.0
 40
15.0
 50
270.0
 51
90.0
  0
ARC
  5
D9BA
  8
0
  6
BYBLOCK
 62
     0
 10
18612.718766488601
 20
8307.4718314219645
 30
0.0
 40
15.0
 50
270.0
 51
90.0
  0
ARC
  5
D9BB
  8
0
  6
BYBLOCK
 62
     0
 10
18612.718766488601
 20
8307.4718314219645
 30
0.0
 40
15.0
 50
90.0
 51
270.0
  0
ARC
  5
D9E0
  8
0
  6
BYBLOCK
 62
     0
 10
22665.041164782971
 20
20556.95634542195
 30
0.0
 40
15.0
 50
0.0
 51
180.0
  0
ARC
  5
D9E1
  8
0
  6
BYBLOCK
 62
     0
 10
22665.041164782971
 20
20556.95634542195
 30
0.0
 40
15.0
 50
180.0
 51
0.0
  0
ARC
  5
D9E2
  8
0
  6
BYBLOCK
 62
     0
 10
22622.541164782971
 20
20556.95634542195
 30
0.0
 40
15.0
 50
180.0
 51
0.0
  0
ARC
  5
D9E3
  8
0
  6
BYBLOCK
 62
     0
 10
22622.541164782971
 20
20556.95634542195
 30
0.0
 40
15.0
 50
0.0
 51
180.0
  0
ARC
  5
D9E4
  8
0
  6
BYBLOCK
 62
     0
 10
23072.541164782971
 20
20556.95634542195
 30
0.0
 40
15.0
 50
180.0
 51
0.0
  0
ARC
  5
D9E5
  8
0
  6
BYBLOCK
 62
     0
 10
23072.541164782971
 20
20556.95634542195
 30
0.0
 40
15.0
 50
0.0
 51
180.0
  0
ARC
  5
D9E6
  8
0
  6
BYBLOCK
 62
     0
 10
22665.041164782971
 20
20556.95634542195
 30
0.0
 40
15.0
 50
0.0
 51
180.0
  0
ARC
  5
D9E7
  8
0
  6
BYBLOCK
 62
     0
 10
22665.041164782971
 20
20556.95634542195
 30
0.0
 40
15.0
 50
180.0
 51
0.0
  0
ARC
  5
D9E8
  8
0
  6
BYBLOCK
 62
     0
 10
23773.541164782971
 20
20556.95634542195
 30
0.0
 40
15.0
 50
180.0
 51
0.0
  0
ARC
  5
D9E9
  8
0
  6
BYBLOCK
 62
     0
 10
23773.541164782971
 20
20556.95634542195
 30
0.0
 40
15.0
 50
0.0
 51
180.0
  0
ARC
  5
D9EA
  8
0
  6
BYBLOCK
 62
     0
 10
23072.541164782971
 20
20556.95634542195
 30
0.0
 40
15.0
 50
0.0
 51
180.0
  0
ARC
  5
D9EB
  8
0
  6
BYBLOCK
 62
     0
 10
23072.541164782971
 20
20556.95634542195
 30
0.0
 40
15.0
 50
180.0
 51
0.0
  0
ARC
  5
D9EC
  8
0
  6
BYBLOCK
 62
     0
 10
24474.541164782971
 20
20556.95634542195
 30
0.0
 40
15.0
 50
180.0
 51
0.0
  0
ARC
  5
D9ED
  8
0
  6
BYBLOCK
 62
     0
 10
24474.541164782971
 20
20556.95634542195
 30
0.0
 40
15.0
 50
0.0
 51
180.0
  0
ARC
  5
D9EE
  8
0
  6
BYBLOCK
 62
     0
 10
23773.541164782971
 20
20556.95634542195
 30
0.0
 40
15.0
 50
0.0
 51
180.0
  0
ARC
  5
D9EF
  8
0
  6
BYBLOCK
 62
     0
 10
23773.541164782971
 20
20556.95634542195
 30
0.0
 40
15.0
 50
180.0
 51
0.0
  0
ARC
  5
D9F0
  8
0
  6
BYBLOCK
 62
     0
 10
25175.541164782971
 20
20556.95634542195
 30
0.0
 40
15.0
 50
180.0
 51
0.0
  0
ARC
  5
D9F1
  8
0
  6
BYBLOCK
 62
     0
 10
25175.541164782971
 20
20556.95634542195
 30
0.0
 40
15.0
 50
0.0
 51
180.0
  0
ARC
  5
D9F2
  8
0
  6
BYBLOCK
 62
     0
 10
24474.541164782971
 20
20556.95634542195
 30
0.0
 40
15.0
 50
0.0
 51
180.0
  0
ARC
  5
D9F3
  8
0
  6
BYBLOCK
 62
     0
 10
24474.541164782971
 20
20556.95634542195
 30
0.0
 40
15.0
 50
180.0
 51
0.0
  0
ARC
  5
D9F4
  8
0
  6
BYBLOCK
 62
     0
 10
25933.541164782971
 20
20556.95634542195
 30
0.0
 40
15.0
 50
180.0
 51
0.0
  0
ARC
  5
D9F5
  8
0
  6
BYBLOCK
 62
     0
 10
25933.541164782971
 20
20556.95634542195
 30
0.0
 40
15.0
 50
0.0
 51
180.0
  0
ARC
  5
D9F6
  8
0
  6
BYBLOCK
 62
     0
 10
25976.041164782971
 20
20556.95634542195
 30
0.0
 40
15.0
 50
0.0
 51
180.0
  0
ARC
  5
D9F7
  8
0
  6
BYBLOCK
 62
     0
 10
25976.041164782971
 20
20556.95634542195
 30
0.0
 40
15.0
 50
180.0
 51
0.0
  0
ARC
  5
DA04
  8
0
  6
BYBLOCK
 62
     0
 10
22665.041164782971
 20
20956.956345421939
 30
0.0
 40
15.0
 50
180.0
 51
0.0
  0
ARC
  5
DA05
  8
0
  6
BYBLOCK
 62
     0
 10
22665.041164782971
 20
20956.956345421939
 30
0.0
 40
15.0
 50
0.0
 51
180.0
  0
ARC
  5
DA06
  8
0
  6
BYBLOCK
 62
     0
 10
19865.041164782961
 20
20956.956345421939
 30
0.0
 40
15.0
 50
0.0
 51
180.0
  0
ARC
  5
DA07
  8
0
  6
BYBLOCK
 62
     0
 10
19865.041164782961
 20
20956.956345421939
 30
0.0
 40
15.0
 50
180.0
 51
0.0
  0
ARC
  5
DA08
  8
0
  6
BYBLOCK
 62
     0
 10
25933.541164782971
 20
20956.956345421939
 30
0.0
 40
15.0
 50
180.0
 51
0.0
  0
ARC
  5
DA09
  8
0
  6
BYBLOCK
 62
     0
 10
25933.541164782971
 20
20956.956345421939
 30
0.0
 40
15.0
 50
0.0
 51
180.0
  0
ARC
  5
DA0A
  8
0
  6
BYBLOCK
 62
     0
 10
22665.041164782971
 20
20956.956345421939
 30
0.0
 40
15.0
 50
0.0
 51
180.0
  0
ARC
  5
DA0B
  8
0
  6
BYBLOCK
 62
     0
 10
22665.041164782971
 20
20956.956345421939
 30
0.0
 40
15.0
 50
180.0
 51
0.0
  0
ARC
  5
DA0C
  8
0
  6
BYBLOCK
 62
     0
 10
19865.04116478299
 20
20556.95634542195
 30
0.0
 40
15.0
 50
180.0
 51
0.0
  0
ARC
  5
DA0D
  8
0
  6
BYBLOCK
 62
     0
 10
19865.04116478299
 20
20556.95634542195
 30
0.0
 40
15.0
 50
0.0
 51
180.0
  0
ARC
  5
DA0E
  8
0
  6
BYBLOCK
 62
     0
 10
19907.54340778297
 20
20556.95634542195
 30
0.0
 40
15.0
 50
0.0
 51
180.0
  0
ARC
  5
DA0F
  8
0
  6
BYBLOCK
 62
     0
 10
19907.54340778297
 20
20556.95634542195
 30
0.0
 40
15.0
 50
180.0
 51
0.0
  0
ARC
  5
DA10
  8
0
  6
BYBLOCK
 62
     0
 10
19865.04116478299
 20
20556.95634542195
 30
0.0
 40
15.0
 50
0.0
 51
180.0
  0
ARC
  5
DA11
  8
0
  6
BYBLOCK
 62
     0
 10
19865.04116478299
 20
20556.95634542195
 30
0.0
 40
15.0
 50
180.0
 51
0.0
  0
ARC
  5
DA12
  8
0
  6
BYBLOCK
 62
     0
 10
19822.542879782992
 20
20556.95634542195
 30
0.0
 40
15.0
 50
180.0
 51
0.0
  0
ARC
  5
DA13
  8
0
  6
BYBLOCK
 62
     0
 10
19822.542879782992
 20
20556.95634542195
 30
0.0
 40
15.0
 50
0.0
 51
180.0
  0
ARC
  5
DA14
  8
0
  6
BYBLOCK
 62
     0
 10
18647.19754041436
 20
16796.455421421939
 30
0.0
 40
15.0
 50
90.0
 51
270.0
  0
ARC
  5
DA15
  8
0
  6
BYBLOCK
 62
     0
 10
18647.19754041436
 20
16796.455421421939
 30
0.0
 40
15.0
 50
270.0
 51
90.0
  0
ARC
  5
DA16
  8
0
  6
BYBLOCK
 62
     0
 10
18647.19754041436
 20
19714.45542142195
 30
0.0
 40
15.0
 50
270.0
 51
90.0
  0
ARC
  5
DA17
  8
0
  6
BYBLOCK
 62
     0
 10
18647.19754041436
 20
19714.45542142195
 30
0.0
 40
15.0
 50
90.0
 51
270.0
  0
ARC
  5
DA18
  8
0
  6
BYBLOCK
 62
     0
 10
18647.19754041436
 20
13527.955421421961
 30
0.0
 40
15.0
 50
90.0
 51
270.0
  0
ARC
  5
DA19
  8
0
  6
BYBLOCK
 62
     0
 10
18647.19754041436
 20
13527.955421421961
 30
0.0
 40
15.0
 50
270.0
 51
90.0
  0
ARC
  5
DA1A
  8
0
  6
BYBLOCK
 62
     0
 10
18647.19754041436
 20
16796.455421421939
 30
0.0
 40
15.0
 50
270.0
 51
90.0
  0
ARC
  5
DA1B
  8
0
  6
BYBLOCK
 62
     0
 10
18647.19754041436
 20
16796.455421421939
 30
0.0
 40
15.0
 50
90.0
 51
270.0
  0
TEXT
  5
DB0B
  8
NAME
 10
21595.82616625919
 20
1076.6369801169251
 30
0.0
 40
360.0
  1
VGC-3362（H）+VKC-2862（H）型-L（単棟）
 41
0.45
  0
TEXT
  5
DB0C
  8
NAME
 10
21933.552716389011
 20
1876.0
 30
0.0
 40
360.0
  1
ヨドガレージ ラヴィージュ
 41
0.75
  7
01
  0
LINE
  5
DB0D
  8
NAME
  6
CONTINUOUS
 10
26067.886878884299
 20
2236.0
 30
0.0
 11
26067.886878884299
 21
1876.0
 31
0.0
  0
LINE
  5
DB0E
  8
NAME
  6
CONTINUOUS
 10
26167.886878884299
 20
2236.0
 30
0.0
 11
26167.886878884299
 21
1876.0
 31
0.0
  0
LINE
  5
DB0F
  8
NAME
  6
CONTINUOUS
 10
26267.88687888431
 20
2236.0
 30
0.0
 11
26267.88687888431
 21
1876.0
 31
0.0
  0
LINE
  5
DB10
  8
NAME
  6
CONTINUOUS
 10
26007.886878884299
 20
2236.0
 30
0.0
 11
26327.886878884299
 21
2236.0
 31
0.0
  0
LINE
  5
DB11
  8
NAME
  6
CONTINUOUS
 10
26327.886878884299
 20
1876.0
 30
0.0
 11
26007.886878884299
 21
1876.0
 31
0.0
  0
LINE
  5
DB1D
  8
2-0
  6
CENTER2
 62
     6
 10
22665.04116478299
 20
21356.95766442196
 30
0.0
 11
22665.04116478299
 21
13178.040796945959
 31
0.0
  0
LINE
  5
DB20
  8
2-0
  6
CENTER2
 62
     6
 10
25933.54116478299
 20
21356.95766442196
 30
0.0
 11
25933.54116478299
 21
13178.040796945959
 31
0.0
  0
LINE
  5
E28F
  8
2-0
  6
CONTINUOUS
 62
     6
 10
24250.382248782949
 20
12887.954299421939
 30
0.0
 11
25250.375650782938
 21
12887.954299421939
 31
0.0
  0
LINE
  5
E290
  8
2-0
  6
CONTINUOUS
 62
     6
 10
25718.316027782959
 20
13358.37501342195
 30
0.0
 11
25250.375650782938
 21
12887.954299421939
 31
0.0
  0
LINE
  5
E291
  8
2-0
  6
CONTINUOUS
 62
     6
 10
25679.675824782949
 20
16900.482660421949
 30
0.0
 11
25374.980406782961
 21
17004.136191421971
 31
0.0
  0
LINE
  5
E292
  8
2-0
  6
CONTINUOUS
 62
     6
 10
25834.697863782931
 20
16410.86061642196
 30
0.0
 11
25374.980406782961
 21
16166.94730542196
 31
0.0
  0
LINE
  5
E293
  8
2-0
  6
CONTINUOUS
 62
     6
 10
24454.977371782941
 20
16166.94730542196
 30
0.0
 11
25374.980406782961
 21
16166.94730542196
 31
0.0
  0
LINE
  5
E294
  8
2-0
  6
CONTINUOUS
 62
     6
 10
24174.986344782959
 20
17004.136191421971
 30
0.0
 11
25374.980406782961
 21
17004.136191421971
 31
0.0
  0
LINE
  5
E295
  8
2-0
  6
CONTINUOUS
 62
     6
 10
25750.875148782969
 20
13680.058659421929
 30
0.0
 11
25374.980406782961
 21
13861.002494421949
 31
0.0
  0
LINE
  5
E296
  8
2-0
  6
CONTINUOUS
 62
     6
 10
24854.978690782958
 20
13861.002494421949
 30
0.0
 11
25374.980406782961
 21
13861.002494421949
 31
0.0
  0
LINE
  5
E297
  8
2-0
  6
CONTINUOUS
 62
     3
 10
25946.041824782969
 20
19647.95349542196
 30
0.0
 11
25946.041824782969
 21
19641.957533421959
 31
0.0
  0
LINE
  5
E298
  8
2-0
  6
CONTINUOUS
 62
     3
 10
25946.041824782969
 20
19641.957533421959
 30
0.0
 11
25976.039448782951
 21
19641.957533421959
 31
0.0
  0
LINE
  5
E299
  8
2-0
  6
CONTINUOUS
 62
     3
 10
25976.039448782951
 20
19671.957137421949
 30
0.0
 11
25895.037548782951
 21
19671.957137421949
 31
0.0
  0
LINE
  5
E29A
  8
2-0
  6
CONTINUOUS
 62
     3
 10
25946.041824782969
 20
19631.660077421951
 30
0.0
 11
25976.039448782951
 21
19631.660077421951
 31
0.0
  0
LINE
  5
E29B
  8
2-0
  6
CONTINUOUS
 62
     3
 10
25946.041824782969
 20
19649.661819421952
 30
0.0
 11
25946.041824782969
 21
19631.660077421951
 31
0.0
  0
LINE
  5
E29C
  8
2-0
  6
CONTINUOUS
 62
     3
 10
25971.03918478296
 20
19649.661819421952
 30
0.0
 11
25946.041824782969
 21
19649.661819421952
 31
0.0
  0
LINE
  5
E29D
  8
2-0
  6
CONTINUOUS
 62
     3
 10
25971.03918478296
 20
19644.653637421961
 30
0.0
 11
25971.03918478296
 21
19649.661819421952
 31
0.0
  0
LINE
  5
E29E
  8
2-0
  6
CONTINUOUS
 62
     3
 10
25964.037627782971
 20
19644.653637421961
 30
0.0
 11
25971.03918478296
 21
19644.653637421961
 31
0.0
  0
LINE
  5
E29F
  8
2-0
  6
CONTINUOUS
 62
     3
 10
25863.741359782969
 20
19744.953864421968
 30
0.0
 11
25863.741359782969
 21
19751.959380421958
 31
0.0
  0
LINE
  5
E2A0
  8
2-0
  6
CONTINUOUS
 62
     3
 10
25863.741359782969
 20
19751.959380421958
 30
0.0
 11
25868.741623782949
 21
19751.959380421958
 31
0.0
  0
LINE
  5
E2A1
  8
2-0
  6
CONTINUOUS
 62
     3
 10
25868.741623782949
 20
19751.959380421958
 30
0.0
 11
25868.741623782949
 21
19726.950143421949
 31
0.0
  0
LINE
  5
E2A2
  8
2-0
  6
CONTINUOUS
 62
     3
 10
25868.741623782949
 20
19726.950143421949
 30
0.0
 11
25850.739881782949
 21
19726.950143421949
 31
0.0
  0
LINE
  5
E2A3
  8
2-0
  6
CONTINUOUS
 62
     3
 10
25850.739881782949
 20
19726.950143421949
 30
0.0
 11
25850.739881782949
 21
19756.953706421958
 31
0.0
  0
LINE
  5
E2A4
  8
2-0
  6
CONTINUOUS
 62
     3
 10
25861.03733778296
 20
19756.953706421958
 30
0.0
 11
25976.039448782951
 21
19756.953706421958
 31
0.0
  0
LINE
  5
E2A5
  8
2-0
  6
CONTINUOUS
 62
     3
 10
25861.03733778296
 20
19726.950143421949
 30
0.0
 11
25861.03733778296
 21
19756.953706421958
 31
0.0
  0
LINE
  5
E2A6
  8
2-0
  6
CONTINUOUS
 62
     3
 10
25867.039237782959
 20
19726.950143421949
 30
0.0
 11
25861.03733778296
 21
19726.950143421949
 31
0.0
  0
LINE
  5
E2A7
  8
2-0
  6
CONTINUOUS
 62
     3
 10
25964.037627782971
 20
18940.856814921939
 30
0.0
 11
25971.03918478296
 21
18940.856814921939
 31
0.0
  0
LINE
  5
E2A8
  8
2-0
  6
CONTINUOUS
 62
     3
 10
25971.03918478296
 20
18940.856814921939
 30
0.0
 11
25971.03918478296
 21
18945.857078921948
 31
0.0
  0
LINE
  5
E2A9
  8
2-0
  6
CONTINUOUS
 62
     3
 10
25971.03918478296
 20
18945.857078921948
 30
0.0
 11
25946.041824782969
 21
18945.857078921948
 31
0.0
  0
LINE
  5
E2AA
  8
2-0
  6
CONTINUOUS
 62
     3
 10
25946.041824782969
 20
18945.857078921948
 30
0.0
 11
25946.041824782969
 21
18927.86127492195
 31
0.0
  0
LINE
  5
E2AB
  8
2-0
  6
CONTINUOUS
 62
     3
 10
25946.041824782969
 20
18927.86127492195
 30
0.0
 11
25976.039448782951
 21
18927.86127492195
 31
0.0
  0
LINE
  5
E2AC
  8
2-0
  6
CONTINUOUS
 62
     3
 10
25946.041824782969
 20
18943.952781921911
 30
0.0
 11
25946.041824782969
 21
18937.95484092195
 31
0.0
  0
LINE
  5
E2AD
  8
2-0
  6
CONTINUOUS
 62
     3
 10
25946.041824782969
 20
18937.95484092195
 30
0.0
 11
25976.039448782951
 21
18937.95484092195
 31
0.0
  0
LINE
  5
E2AE
  8
2-0
  6
CONTINUOUS
 62
     3
 10
25976.039448782951
 20
18937.95484092195
 30
0.0
 11
25976.039448782951
 21
18974.956001921939
 31
0.0
  0
LINE
  5
E2AF
  8
2-0
  6
CONTINUOUS
 62
     3
 10
25946.041824782969
 20
18974.956001921939
 30
0.0
 11
25976.039448782951
 21
18974.956001921939
 31
0.0
  0
LINE
  5
E2B0
  8
2-0
  6
CONTINUOUS
 62
     3
 10
25946.041824782969
 20
18968.952121921939
 30
0.0
 11
25946.041824782969
 21
18974.956001921939
 31
0.0
  0
LINE
  5
E2B1
  8
2-0
  6
CONTINUOUS
 62
     3
 10
25946.041824782969
 20
18985.051546921939
 30
0.0
 11
25976.039448782951
 21
18985.051546921939
 31
0.0
  0
LINE
  5
E2B2
  8
2-0
  6
CONTINUOUS
 62
     3
 10
25946.041824782969
 20
18967.04980492195
 30
0.0
 11
25946.041824782969
 21
18985.051546921939
 31
0.0
  0
LINE
  5
E2B3
  8
2-0
  6
CONTINUOUS
 62
     3
 10
25971.03918478296
 20
18967.04980492195
 30
0.0
 11
25946.041824782969
 21
18967.04980492195
 31
0.0
  0
LINE
  5
E2B4
  8
2-0
  6
CONTINUOUS
 62
     3
 10
25971.03918478296
 20
18972.050068921952
 30
0.0
 11
25971.03918478296
 21
18967.04980492195
 31
0.0
  0
LINE
  5
E2B5
  8
2-0
  6
CONTINUOUS
 62
     3
 10
25964.037627782971
 20
18972.050068921952
 30
0.0
 11
25971.03918478296
 21
18972.050068921952
 31
0.0
  0
LINE
  5
E2B6
  8
2-0
  6
CONTINUOUS
 62
     3
 10
25964.037627782971
 20
18239.85582542195
 30
0.0
 11
25971.03918478296
 21
18239.85582542195
 31
0.0
  0
LINE
  5
E2B7
  8
2-0
  6
CONTINUOUS
 62
     3
 10
25971.03918478296
 20
18239.85582542195
 30
0.0
 11
25971.03918478296
 21
18244.86202742195
 31
0.0
  0
LINE
  5
E2B8
  8
2-0
  6
CONTINUOUS
 62
     3
 10
25971.03918478296
 20
18244.86202742195
 30
0.0
 11
25946.041824782969
 21
18244.86202742195
 31
0.0
  0
LINE
  5
E2B9
  8
2-0
  6
CONTINUOUS
 62
     3
 10
25946.041824782969
 20
18244.86202742195
 30
0.0
 11
25946.041824782969
 21
18226.860285421961
 31
0.0
  0
LINE
  5
E2BA
  8
2-0
  6
CONTINUOUS
 62
     3
 10
25946.041824782969
 20
18226.860285421961
 30
0.0
 11
25976.039448782951
 21
18226.860285421961
 31
0.0
  0
LINE
  5
E2BB
  8
2-0
  6
CONTINUOUS
 62
     3
 10
25946.041824782969
 20
18242.95179242194
 30
0.0
 11
25946.041824782969
 21
18236.95583042195
 31
0.0
  0
LINE
  5
E2BC
  8
2-0
  6
CONTINUOUS
 62
     3
 10
25946.041824782969
 20
18236.95583042195
 30
0.0
 11
25976.039448782951
 21
18236.95583042195
 31
0.0
  0
LINE
  5
E2BD
  8
2-0
  6
CONTINUOUS
 62
     3
 10
25976.039448782951
 20
18236.95583042195
 30
0.0
 11
25976.039448782951
 21
18273.95501242195
 31
0.0
  0
LINE
  5
E2BE
  8
2-0
  6
CONTINUOUS
 62
     3
 10
25946.041824782969
 20
18273.95501242195
 30
0.0
 11
25976.039448782951
 21
18273.95501242195
 31
0.0
  0
LINE
  5
E2BF
  8
2-0
  6
CONTINUOUS
 62
     3
 10
25946.041824782969
 20
18267.959050421949
 30
0.0
 11
25946.041824782969
 21
18273.95501242195
 31
0.0
  0
LINE
  5
E2C0
  8
2-0
  6
CONTINUOUS
 62
     3
 10
25946.041824782969
 20
18284.050557421961
 30
0.0
 11
25976.039448782951
 21
18284.050557421961
 31
0.0
  0
LINE
  5
E2C1
  8
2-0
  6
CONTINUOUS
 62
     3
 10
25946.041824782969
 20
18266.04881542196
 30
0.0
 11
25946.041824782969
 21
18284.050557421961
 31
0.0
  0
LINE
  5
E2C2
  8
2-0
  6
CONTINUOUS
 62
     3
 10
25971.03918478296
 20
18266.04881542196
 30
0.0
 11
25946.041824782969
 21
18266.04881542196
 31
0.0
  0
LINE
  5
E2C3
  8
2-0
  6
CONTINUOUS
 62
     3
 10
25971.03918478296
 20
18271.055017421939
 30
0.0
 11
25971.03918478296
 21
18266.04881542196
 31
0.0
  0
LINE
  5
E2C4
  8
2-0
  6
CONTINUOUS
 62
     3
 10
25964.037627782971
 20
18271.055017421939
 30
0.0
 11
25971.03918478296
 21
18271.055017421939
 31
0.0
  0
LINE
  5
E2C5
  8
2-0
  6
CONTINUOUS
 62
     3
 10
25964.037627782971
 20
17570.049079421951
 30
0.0
 11
25971.03918478296
 21
17570.049079421951
 31
0.0
  0
LINE
  5
E2C6
  8
2-0
  6
CONTINUOUS
 62
     3
 10
25971.03918478296
 20
17570.049079421951
 30
0.0
 11
25971.03918478296
 21
17565.06069242195
 31
0.0
  0
LINE
  5
E2C7
  8
2-0
  6
CONTINUOUS
 62
     3
 10
25971.03918478296
 20
17565.06069242195
 30
0.0
 11
25946.041824782969
 21
17565.06069242195
 31
0.0
  0
LINE
  5
E2C8
  8
2-0
  6
CONTINUOUS
 62
     3
 10
25946.041824782969
 20
17565.06069242195
 30
0.0
 11
25946.041824782969
 21
17583.056495421952
 31
0.0
  0
LINE
  5
E2C9
  8
2-0
  6
CONTINUOUS
 62
     3
 10
25946.041824782969
 20
17583.056495421952
 30
0.0
 11
25976.039448782951
 21
17583.056495421952
 31
0.0
  0
LINE
  5
E2CA
  8
2-0
  6
CONTINUOUS
 62
     3
 10
25946.041824782969
 20
17566.959050421949
 30
0.0
 11
25946.041824782969
 21
17572.95501242196
 31
0.0
  0
LINE
  5
E2CB
  8
2-0
  6
CONTINUOUS
 62
     3
 10
25946.041824782969
 20
17572.95501242196
 30
0.0
 11
25976.039448782951
 21
17572.95501242196
 31
0.0
  0
LINE
  5
E2CC
  8
2-0
  6
CONTINUOUS
 62
     3
 10
25976.039448782951
 20
17572.95501242196
 30
0.0
 11
25976.039448782951
 21
17535.955830421961
 31
0.0
  0
LINE
  5
E2CD
  8
2-0
  6
CONTINUOUS
 62
     3
 10
25946.041824782969
 20
17535.955830421961
 30
0.0
 11
25976.039448782951
 21
17535.955830421961
 31
0.0
  0
LINE
  5
E2CE
  8
2-0
  6
CONTINUOUS
 62
     3
 10
25946.041824782969
 20
17541.957731421939
 30
0.0
 11
25946.041824782969
 21
17535.955830421961
 31
0.0
  0
LINE
  5
E2CF
  8
2-0
  6
CONTINUOUS
 62
     3
 10
25946.041824782969
 20
17525.866224421949
 30
0.0
 11
25976.039448782951
 21
17525.866224421949
 31
0.0
  0
LINE
  5
E2D0
  8
2-0
  6
CONTINUOUS
 62
     3
 10
25946.041824782969
 20
17543.862027421939
 30
0.0
 11
25946.041824782969
 21
17525.866224421949
 31
0.0
  0
LINE
  5
E2D1
  8
2-0
  6
CONTINUOUS
 62
     3
 10
25971.03918478296
 20
17543.862027421939
 30
0.0
 11
25946.041824782969
 21
17543.862027421939
 31
0.0
  0
LINE
  5
E2D2
  8
2-0
  6
CONTINUOUS
 62
     3
 10
25971.03918478296
 20
17538.861764421948
 30
0.0
 11
25971.03918478296
 21
17543.862027421939
 31
0.0
  0
LINE
  5
E2D3
  8
2-0
  6
CONTINUOUS
 62
     3
 10
25964.037627782971
 20
17538.861764421948
 30
0.0
 11
25971.03918478296
 21
17538.861764421948
 31
0.0
  0
LINE
  5
E2D4
  8
2-0
  6
CONTINUOUS
 62
     3
 10
25973.153310782978
 20
16818.95265042195
 30
0.0
 11
25973.153310782978
 21
16838.953705421951
 31
0.0
  0
LINE
  5
E2D5
  8
2-0
  6
CONTINUOUS
 62
     3
 10
25973.153310782978
 20
16838.953705421951
 30
0.0
 11
25888.15674178295
 21
16838.953705421951
 31
0.0
  0
LINE
  5
E2D6
  8
2-0
  6
CONTINUOUS
 62
     3
 10
25964.037627782971
 20
16865.560415421951
 30
0.0
 11
25971.03918478296
 21
16865.560415421951
 31
0.0
  0
LINE
  5
E2D7
  8
2-0
  6
CONTINUOUS
 62
     3
 10
25971.03918478296
 20
16865.560415421951
 30
0.0
 11
25971.03918478296
 21
16860.566089421962
 31
0.0
  0
LINE
  5
E2D8
  8
2-0
  6
CONTINUOUS
 62
     3
 10
25971.03918478296
 20
16860.566089421962
 30
0.0
 11
25946.041824782969
 21
16860.566089421962
 31
0.0
  0
LINE
  5
E2D9
  8
2-0
  6
CONTINUOUS
 62
     3
 10
25946.041824782969
 20
16860.566089421962
 30
0.0
 11
25946.041824782969
 21
16878.561893421938
 31
0.0
  0
LINE
  5
E2DA
  8
2-0
  6
CONTINUOUS
 62
     3
 10
25946.041824782969
 20
16878.561893421938
 30
0.0
 11
25976.039448782951
 21
16878.561893421938
 31
0.0
  0
LINE
  5
E2DB
  8
2-0
  6
CONTINUOUS
 62
     3
 10
25946.041824782969
 20
16868.953309421941
 30
0.0
 11
25946.041824782969
 21
16862.951409421948
 31
0.0
  0
LINE
  5
E2DC
  8
2-0
  6
CONTINUOUS
 62
     3
 10
25976.039448782951
 20
16868.953309421941
 30
0.0
 11
25946.041824782969
 21
16868.953309421941
 31
0.0
  0
LINE
  5
E2DD
  8
2-0
  6
CONTINUOUS
 62
     3
 10
25976.039448782951
 20
16878.561893421938
 30
0.0
 11
25976.039448782951
 21
17525.866224421949
 31
0.0
  0
LINE
  5
E2DE
  8
2-0
  6
CONTINUOUS
 62
     3
 10
25976.039448782951
 20
17583.056495421952
 30
0.0
 11
25976.039448782951
 21
18226.860285421961
 31
0.0
  0
LINE
  5
E2DF
  8
2-0
  6
CONTINUOUS
 62
     3
 10
25976.039448782951
 20
16723.951594421938
 30
0.0
 11
25946.041824782969
 21
16723.951594421938
 31
0.0
  0
LINE
  5
E2E0
  8
2-0
  6
CONTINUOUS
 62
     3
 10
25946.041824782969
 20
16723.951594421938
 30
0.0
 11
25946.041824782969
 21
16729.953494421949
 31
0.0
  0
LINE
  5
E2E1
  8
2-0
  6
CONTINUOUS
 62
     3
 10
25888.15674178295
 20
16753.957137421949
 30
0.0
 11
25973.153310782978
 21
16753.957137421949
 31
0.0
  0
LINE
  5
E2E2
  8
2-0
  6
CONTINUOUS
 62
     3
 10
25973.153310782978
 20
16753.957137421949
 30
0.0
 11
25973.153310782978
 21
16773.952254421962
 31
0.0
  0
LINE
  5
E2E3
  8
2-0
  6
CONTINUOUS
 62
     3
 10
25946.041824782969
 20
16714.343011421959
 30
0.0
 11
25976.039448782951
 21
16714.343011421959
 31
0.0
  0
LINE
  5
E2E4
  8
2-0
  6
CONTINUOUS
 62
     3
 10
25946.041824782969
 20
16732.338814421939
 30
0.0
 11
25946.041824782969
 21
16714.343011421959
 31
0.0
  0
LINE
  5
E2E5
  8
2-0
  6
CONTINUOUS
 62
     3
 10
25971.03918478296
 20
16732.338814421939
 30
0.0
 11
25946.041824782969
 21
16732.338814421939
 31
0.0
  0
LINE
  5
E2E6
  8
2-0
  6
CONTINUOUS
 62
     3
 10
25971.03918478296
 20
16727.338550421959
 30
0.0
 11
25971.03918478296
 21
16732.338814421939
 31
0.0
  0
LINE
  5
E2E7
  8
2-0
  6
CONTINUOUS
 62
     3
 10
25964.037627782971
 20
16727.338550421959
 30
0.0
 11
25971.03918478296
 21
16727.338550421959
 31
0.0
  0
LINE
  5
E2E8
  8
2-0
  6
CONTINUOUS
 62
     3
 10
25964.037627782971
 20
16022.85631992193
 30
0.0
 11
25971.03918478296
 21
16022.85631992193
 31
0.0
  0
LINE
  5
E2E9
  8
2-0
  6
CONTINUOUS
 62
     3
 10
25971.03918478296
 20
16022.85631992193
 30
0.0
 11
25971.03918478296
 21
16027.856583921939
 31
0.0
  0
LINE
  5
E2EA
  8
2-0
  6
CONTINUOUS
 62
     3
 10
25971.03918478296
 20
16027.856583921939
 30
0.0
 11
25946.041824782969
 21
16027.856583921939
 31
0.0
  0
LINE
  5
E2EB
  8
2-0
  6
CONTINUOUS
 62
     3
 10
25946.041824782969
 20
16027.856583921939
 30
0.0
 11
25946.041824782969
 21
16009.85484192195
 31
0.0
  0
LINE
  5
E2EC
  8
2-0
  6
CONTINUOUS
 62
     3
 10
25946.041824782969
 20
16009.85484192195
 30
0.0
 11
25976.039448782951
 21
16009.85484192195
 31
0.0
  0
LINE
  5
E2ED
  8
2-0
  6
CONTINUOUS
 62
     3
 10
25946.041824782969
 20
16025.952286921951
 30
0.0
 11
25946.041824782969
 21
16019.95533592195
 31
0.0
  0
LINE
  5
E2EE
  8
2-0
  6
CONTINUOUS
 62
     3
 10
25946.041824782969
 20
16019.95533592195
 30
0.0
 11
25976.039448782951
 21
16019.95533592195
 31
0.0
  0
LINE
  5
E2EF
  8
2-0
  6
CONTINUOUS
 62
     3
 10
25976.039448782951
 20
16019.95533592195
 30
0.0
 11
25976.039448782951
 21
16056.95550692195
 31
0.0
  0
LINE
  5
E2F0
  8
2-0
  6
CONTINUOUS
 62
     3
 10
25946.041824782969
 20
16056.95550692195
 30
0.0
 11
25976.039448782951
 21
16056.95550692195
 31
0.0
  0
LINE
  5
E2F1
  8
2-0
  6
CONTINUOUS
 62
     3
 10
25946.041824782969
 20
16050.95261692195
 30
0.0
 11
25946.041824782969
 21
16056.95550692195
 31
0.0
  0
LINE
  5
E2F2
  8
2-0
  6
CONTINUOUS
 62
     3
 10
25946.041824782969
 20
16067.05105192195
 30
0.0
 11
25976.039448782951
 21
16067.05105192195
 31
0.0
  0
LINE
  5
E2F3
  8
2-0
  6
CONTINUOUS
 62
     3
 10
25946.041824782969
 20
16049.04337092194
 30
0.0
 11
25946.041824782969
 21
16067.05105192195
 31
0.0
  0
LINE
  5
E2F4
  8
2-0
  6
CONTINUOUS
 62
     3
 10
25971.03918478296
 20
16049.04337092194
 30
0.0
 11
25946.041824782969
 21
16049.04337092194
 31
0.0
  0
LINE
  5
E2F5
  8
2-0
  6
CONTINUOUS
 62
     3
 10
25971.03918478296
 20
16054.04957392195
 30
0.0
 11
25971.03918478296
 21
16049.04337092194
 31
0.0
  0
LINE
  5
E2F6
  8
2-0
  6
CONTINUOUS
 62
     3
 10
25964.037627782971
 20
16054.04957392195
 30
0.0
 11
25971.03918478296
 21
16054.04957392195
 31
0.0
  0
LINE
  5
E2F7
  8
2-0
  6
CONTINUOUS
 62
     3
 10
25964.037627782971
 20
15353.289590421949
 30
0.0
 11
25971.03918478296
 21
15353.289590421949
 31
0.0
  0
LINE
  5
E2F8
  8
2-0
  6
CONTINUOUS
 62
     3
 10
25971.03918478296
 20
15353.289590421949
 30
0.0
 11
25971.03918478296
 21
15348.29526542195
 31
0.0
  0
LINE
  5
E2F9
  8
2-0
  6
CONTINUOUS
 62
     3
 10
25971.03918478296
 20
15348.29526542195
 30
0.0
 11
25946.041824782969
 21
15348.29526542195
 31
0.0
  0
LINE
  5
E2FA
  8
2-0
  6
CONTINUOUS
 62
     3
 10
25946.041824782969
 20
15348.29526542195
 30
0.0
 11
25946.041824782969
 21
15366.291068421961
 31
0.0
  0
LINE
  5
E2FB
  8
2-0
  6
CONTINUOUS
 62
     3
 10
25946.041824782969
 20
15366.291068421961
 30
0.0
 11
25976.039448782951
 21
15366.291068421961
 31
0.0
  0
LINE
  5
E2FC
  8
2-0
  6
CONTINUOUS
 62
     3
 10
25946.041824782969
 20
15350.193623421959
 30
0.0
 11
25946.041824782969
 21
15356.195523421949
 31
0.0
  0
LINE
  5
E2FD
  8
2-0
  6
CONTINUOUS
 62
     3
 10
25946.041824782969
 20
15356.195523421949
 30
0.0
 11
25976.039448782951
 21
15356.195523421949
 31
0.0
  0
LINE
  5
E2FE
  8
2-0
  6
CONTINUOUS
 62
     3
 10
25976.039448782951
 20
15319.196342421959
 30
0.0
 11
25976.039448782951
 21
15356.195523421949
 31
0.0
  0
LINE
  5
E2FF
  8
2-0
  6
CONTINUOUS
 62
     3
 10
25946.041824782969
 20
15319.196342421959
 30
0.0
 11
25976.039448782951
 21
15319.196342421959
 31
0.0
  0
LINE
  5
E300
  8
2-0
  6
CONTINUOUS
 62
     3
 10
25946.041824782969
 20
15325.193293421949
 30
0.0
 11
25946.041824782969
 21
15319.196342421959
 31
0.0
  0
LINE
  5
E301
  8
2-0
  6
CONTINUOUS
 62
     3
 10
25946.041824782969
 20
15309.09485842194
 30
0.0
 11
25976.039448782951
 21
15309.09485842194
 31
0.0
  0
LINE
  5
E302
  8
2-0
  6
CONTINUOUS
 62
     3
 10
25946.041824782969
 20
15327.10253942194
 30
0.0
 11
25946.041824782969
 21
15309.09485842194
 31
0.0
  0
LINE
  5
E303
  8
2-0
  6
CONTINUOUS
 62
     3
 10
25971.03918478296
 20
15327.10253942194
 30
0.0
 11
25946.041824782969
 21
15327.10253942194
 31
0.0
  0
LINE
  5
E304
  8
2-0
  6
CONTINUOUS
 62
     3
 10
25971.03918478296
 20
15322.10227542197
 30
0.0
 11
25971.03918478296
 21
15327.10253942194
 31
0.0
  0
LINE
  5
E305
  8
2-0
  6
CONTINUOUS
 62
     3
 10
25964.037627782971
 20
15322.10227542197
 30
0.0
 11
25971.03918478296
 21
15322.10227542197
 31
0.0
  0
LINE
  5
E306
  8
2-0
  6
CONTINUOUS
 62
     3
 10
25976.039448782951
 20
16714.343011421959
 30
0.0
 11
25976.039448782951
 21
16067.05105192195
 31
0.0
  0
LINE
  5
E307
  8
2-0
  6
CONTINUOUS
 62
     3
 10
25976.039448782951
 20
16868.953309421941
 30
0.0
 11
25976.039448782951
 21
16723.951594421938
 31
0.0
  0
LINE
  5
E308
  8
2-0
  6
CONTINUOUS
 62
     3
 10
25888.15674178295
 20
16838.953705421951
 30
0.0
 11
25888.15674178295
 21
16753.957137421949
 31
0.0
  0
LINE
  5
E309
  8
2-0
  6
CONTINUOUS
 62
     6
 10
24349.948074782969
 20
18607.40097092195
 30
0.0
 11
25374.980406782961
 21
18607.40097092195
 31
0.0
  0
LINE
  5
E30A
  8
2-0
  6
CONTINUOUS
 62
     3
 10
25964.037627782971
 20
14620.86126842195
 30
0.0
 11
25971.03918478296
 21
14620.86126842195
 31
0.0
  0
LINE
  5
E30B
  8
2-0
  6
CONTINUOUS
 62
     3
 10
25971.03918478296
 20
14620.86126842195
 30
0.0
 11
25971.03918478296
 21
14625.85559442195
 31
0.0
  0
LINE
  5
E30C
  8
2-0
  6
CONTINUOUS
 62
     3
 10
25971.03918478296
 20
14625.85559442195
 30
0.0
 11
25946.041824782969
 21
14625.85559442195
 31
0.0
  0
LINE
  5
E30D
  8
2-0
  6
CONTINUOUS
 62
     3
 10
25946.041824782969
 20
14625.85559442195
 30
0.0
 11
25946.041824782969
 21
14607.85979042195
 31
0.0
  0
LINE
  5
E30E
  8
2-0
  6
CONTINUOUS
 62
     3
 10
25946.041824782969
 20
14607.85979042195
 30
0.0
 11
25976.039448782951
 21
14607.85979042195
 31
0.0
  0
LINE
  5
E30F
  8
2-0
  6
CONTINUOUS
 62
     3
 10
25946.041824782969
 20
14623.958225421949
 30
0.0
 11
25946.041824782969
 21
14617.955335421961
 31
0.0
  0
LINE
  5
E310
  8
2-0
  6
CONTINUOUS
 62
     3
 10
25946.041824782969
 20
14617.955335421961
 30
0.0
 11
25976.039448782951
 21
14617.955335421961
 31
0.0
  0
LINE
  5
E311
  8
2-0
  6
CONTINUOUS
 62
     3
 10
25976.039448782951
 20
14617.955335421961
 30
0.0
 11
25976.039448782951
 21
14654.95550742193
 31
0.0
  0
LINE
  5
E312
  8
2-0
  6
CONTINUOUS
 62
     3
 10
25946.041824782969
 20
14654.95550742193
 30
0.0
 11
25976.039448782951
 21
14654.95550742193
 31
0.0
  0
LINE
  5
E313
  8
2-0
  6
CONTINUOUS
 62
     3
 10
25946.041824782969
 20
14648.958555421939
 30
0.0
 11
25946.041824782969
 21
14654.95550742193
 31
0.0
  0
LINE
  5
E314
  8
2-0
  6
CONTINUOUS
 62
     3
 10
25946.041824782969
 20
14665.05600042195
 30
0.0
 11
25976.039448782951
 21
14665.05600042195
 31
0.0
  0
LINE
  5
E315
  8
2-0
  6
CONTINUOUS
 62
     3
 10
25946.041824782969
 20
14647.049309421949
 30
0.0
 11
25946.041824782969
 21
14665.05600042195
 31
0.0
  0
LINE
  5
E316
  8
2-0
  6
CONTINUOUS
 62
     3
 10
25971.03918478296
 20
14647.049309421949
 30
0.0
 11
25946.041824782969
 21
14647.049309421949
 31
0.0
  0
LINE
  5
E317
  8
2-0
  6
CONTINUOUS
 62
     3
 10
25971.03918478296
 20
14652.05452242195
 30
0.0
 11
25971.03918478296
 21
14647.049309421949
 31
0.0
  0
LINE
  5
E318
  8
2-0
  6
CONTINUOUS
 62
     3
 10
25964.037627782971
 20
14652.05452242195
 30
0.0
 11
25971.03918478296
 21
14652.05452242195
 31
0.0
  0
LINE
  5
E319
  8
2-0
  6
CONTINUOUS
 62
     3
 10
25946.041824782969
 20
13594.457348421951
 30
0.0
 11
25946.041824782969
 21
13600.46221742194
 31
0.0
  0
LINE
  5
E31A
  8
2-0
  6
CONTINUOUS
 62
     3
 10
25946.041824782969
 20
13600.46221742194
 30
0.0
 11
25976.039448782951
 21
13600.46221742194
 31
0.0
  0
LINE
  5
E31B
  8
2-0
  6
CONTINUOUS
 62
     3
 10
25976.039448782951
 20
13600.46221742194
 30
0.0
 11
25976.039448782951
 21
13485.458126421951
 31
0.0
  0
LINE
  5
E31C
  8
2-0
  6
CONTINUOUS
 62
     3
 10
25976.039448782951
 20
13485.458126421951
 30
0.0
 11
25891.040900782969
 21
13485.458126421951
 31
0.0
  0
LINE
  5
E31D
  8
2-0
  6
CONTINUOUS
 62
     3
 10
25891.040900782969
 20
13485.458126421951
 30
0.0
 11
25891.040900782969
 21
13570.453705421951
 31
0.0
  0
LINE
  5
E31E
  8
2-0
  6
CONTINUOUS
 62
     3
 10
25891.040900782969
 20
13570.453705421951
 30
0.0
 11
25923.03981878296
 21
13570.453705421951
 31
0.0
  0
LINE
  5
E31F
  8
2-0
  6
CONTINUOUS
 62
     3
 10
25964.037627782971
 20
13597.491950421951
 30
0.0
 11
25971.03918478296
 21
13597.491950421951
 31
0.0
  0
LINE
  5
E320
  8
2-0
  6
CONTINUOUS
 62
     3
 10
25971.03918478296
 20
13597.491950421951
 30
0.0
 11
25971.03918478296
 21
13592.49465542193
 31
0.0
  0
LINE
  5
E321
  8
2-0
  6
CONTINUOUS
 62
     3
 10
25971.03918478296
 20
13592.49465542193
 30
0.0
 11
25946.041824782969
 21
13592.49465542193
 31
0.0
  0
LINE
  5
E322
  8
2-0
  6
CONTINUOUS
 62
     3
 10
25946.041824782969
 20
13592.49465542193
 30
0.0
 11
25946.041824782969
 21
13610.493428421951
 31
0.0
  0
LINE
  5
E323
  8
2-0
  6
CONTINUOUS
 62
     3
 10
25946.041824782969
 20
13610.493428421951
 30
0.0
 11
25976.039448782951
 21
13610.493428421951
 31
0.0
  0
LINE
  5
E324
  8
2-0
  6
CENTER2
 62
     6
 10
25933.541164782961
 20
13287.96056842194
 30
0.0
 11
25933.541164782961
 21
14794.32932642197
 31
0.0
  0
LINE
  5
E325
  8
2-0
  6
CONTINUOUS
 62
     3
 10
25976.039448782951
 20
18284.050557421961
 30
0.0
 11
25976.039448782951
 21
18927.86127492195
 31
0.0
  0
LINE
  5
E326
  8
2-0
  6
CONTINUOUS
 62
     6
 10
26668.544331782959
 20
20486.956609421959
 30
0.0
 11
27868.538393782939
 21
20486.956609421959
 31
0.0
  0
LINE
  5
E327
  8
2-0
  6
CONTINUOUS
 62
     6
 10
25806.511498782958
 20
18849.555478921939
 30
0.0
 11
25374.980406782961
 21
18607.40097092195
 31
0.0
  0
LINE
  5
E328
  8
2-0
  6
CONTINUOUS
 62
     6
 10
26128.080332782949
 20
19899.633446421969
 30
0.0
 11
26668.544331782959
 21
20486.956609421959
 31
0.0
  0
LINE
  5
E329
  8
2-0
  6
CONTINUOUS
 62
     3
 10
25976.039448782951
 20
16009.85484192195
 30
0.0
 11
25976.039448782951
 21
15366.291068421961
 31
0.0
  0
LINE
  5
E32A
  8
2-0
  6
CONTINUOUS
 62
     6
 10
25793.454593782972
 20
18872.814822921941
 30
0.0
 11
25946.041824782969
 21
18927.86127492195
 31
0.0
  0
LINE
  5
E32B
  8
2-0
  6
CONTINUOUS
 62
     6
 10
25946.041824782969
 20
18927.86127492195
 30
0.0
 11
25819.56048478296
 21
18826.302074921929
 31
0.0
  0
LINE
  5
E32C
  8
2-0
  6
CONTINUOUS
 62
     6
 10
25793.454593782972
 20
18872.814822921941
 30
0.0
 11
25819.56048478296
 21
18826.302074921929
 31
0.0
  0
LINE
  5
E32D
  8
2-0
  6
CONTINUOUS
 62
     6
 10
25819.56048478296
 20
18826.302074921929
 30
0.0
 11
25946.041824782969
 21
18927.86127492195
 31
0.0
  0
LINE
  5
E32E
  8
2-0
  6
CONTINUOUS
 62
     6
 10
25946.041824782969
 20
18927.86127492195
 30
0.0
 11
25793.454593782972
 21
18872.814822921941
 31
0.0
  0
LINE
  5
E32F
  8
2-0
  6
CONTINUOUS
 62
     6
 10
25793.454593782972
 20
18872.814822921941
 30
0.0
 11
25946.041824782969
 21
18927.86127492195
 31
0.0
  0
LINE
  5
E330
  8
2-0
  6
CONTINUOUS
 62
     6
 10
25819.56048478296
 20
18826.302074921929
 30
0.0
 11
25946.041824782969
 21
18927.86127492195
 31
0.0
  0
LINE
  5
E331
  8
2-0
  6
CONTINUOUS
 62
     6
 10
25819.56048478296
 20
18826.302074921929
 30
0.0
 11
25793.454593782972
 21
18872.814822921941
 31
0.0
  0
LINE
  5
E332
  8
2-0
  6
CONTINUOUS
 62
     6
 10
26147.69736178295
 20
19881.572319421972
 30
0.0
 11
26019.735341782969
 21
19781.889701421958
 31
0.0
  0
LINE
  5
E333
  8
2-0
  6
CONTINUOUS
 62
     6
 10
26019.735341782969
 20
19781.889701421958
 30
0.0
 11
26108.44944678295
 21
19917.68665642196
 31
0.0
  0
LINE
  5
E334
  8
2-0
  6
CONTINUOUS
 62
     6
 10
26147.69736178295
 20
19881.572319421972
 30
0.0
 11
26108.44944678295
 21
19917.68665642196
 31
0.0
  0
LINE
  5
E335
  8
2-0
  6
CONTINUOUS
 62
     6
 10
26108.44944678295
 20
19917.68665642196
 30
0.0
 11
26019.735341782969
 21
19781.889701421958
 31
0.0
  0
LINE
  5
E336
  8
2-0
  6
CONTINUOUS
 62
     6
 10
26019.735341782969
 20
19781.889701421958
 30
0.0
 11
26147.69736178295
 21
19881.572319421972
 31
0.0
  0
LINE
  5
E337
  8
2-0
  6
CONTINUOUS
 62
     6
 10
26147.69736178295
 20
19881.572319421972
 30
0.0
 11
26019.735341782969
 21
19781.889701421958
 31
0.0
  0
LINE
  5
E338
  8
2-0
  6
CONTINUOUS
 62
     6
 10
26108.44944678295
 20
19917.68665642196
 30
0.0
 11
26019.735341782969
 21
19781.889701421958
 31
0.0
  0
LINE
  5
E339
  8
2-0
  6
CONTINUOUS
 62
     6
 10
26108.44944678295
 20
19917.68665642196
 30
0.0
 11
26147.69736178295
 21
19881.572319421972
 31
0.0
  0
LINE
  5
E33A
  8
2-0
  6
CONTINUOUS
 62
     6
 10
25699.40172778297
 20
13377.18538842194
 30
0.0
 11
25831.148586782969
 21
13471.81231542195
 31
0.0
  0
LINE
  5
E33B
  8
2-0
  6
CONTINUOUS
 62
     6
 10
25831.148586782969
 20
13471.81231542195
 30
0.0
 11
25737.218450782959
 21
13339.573545421939
 31
0.0
  0
LINE
  5
E33C
  8
2-0
  6
CONTINUOUS
 62
     6
 10
25699.40172778297
 20
13377.18538842194
 30
0.0
 11
25737.218450782959
 21
13339.573545421939
 31
0.0
  0
LINE
  5
E33D
  8
2-0
  6
CONTINUOUS
 62
     6
 10
25737.218450782959
 20
13339.573545421939
 30
0.0
 11
25831.148586782969
 21
13471.81231542195
 31
0.0
  0
LINE
  5
E33E
  8
2-0
  6
CONTINUOUS
 62
     6
 10
25831.148586782969
 20
13471.81231542195
 30
0.0
 11
25699.40172778297
 21
13377.18538842194
 31
0.0
  0
LINE
  5
E33F
  8
2-0
  6
CONTINUOUS
 62
     6
 10
25699.40172778297
 20
13377.18538842194
 30
0.0
 11
25831.148586782969
 21
13471.81231542195
 31
0.0
  0
LINE
  5
E340
  8
2-0
  6
CONTINUOUS
 62
     6
 10
25737.218450782959
 20
13339.573545421939
 30
0.0
 11
25831.148586782969
 21
13471.81231542195
 31
0.0
  0
LINE
  5
E341
  8
2-0
  6
CONTINUOUS
 62
     6
 10
25737.218450782959
 20
13339.573545421939
 30
0.0
 11
25699.40172778297
 21
13377.18538842194
 31
0.0
  0
LINE
  5
E342
  8
2-0
  6
CONTINUOUS
 62
     6
 10
25762.43751678296
 20
13704.09001542194
 30
0.0
 11
25895.037548782951
 21
13610.66168742194
 31
0.0
  0
LINE
  5
E343
  8
2-0
  6
CONTINUOUS
 62
     6
 10
25895.037548782951
 20
13610.66168742194
 30
0.0
 11
25739.304862782948
 21
13656.03720142195
 31
0.0
  0
LINE
  5
E344
  8
2-0
  6
CONTINUOUS
 62
     6
 10
25762.43751678296
 20
13704.09001542194
 30
0.0
 11
25739.304862782948
 21
13656.03720142195
 31
0.0
  0
LINE
  5
E345
  8
2-0
  6
CONTINUOUS
 62
     6
 10
25739.304862782948
 20
13656.03720142195
 30
0.0
 11
25895.037548782951
 21
13610.66168742194
 31
0.0
  0
LINE
  5
E346
  8
2-0
  6
CONTINUOUS
 62
     6
 10
25895.037548782951
 20
13610.66168742194
 30
0.0
 11
25762.43751678296
 21
13704.09001542194
 31
0.0
  0
LINE
  5
E347
  8
2-0
  6
CONTINUOUS
 62
     6
 10
25762.43751678296
 20
13704.09001542194
 30
0.0
 11
25895.037548782951
 21
13610.66168742194
 31
0.0
  0
LINE
  5
E348
  8
2-0
  6
CONTINUOUS
 62
     6
 10
25739.304862782948
 20
13656.03720142195
 30
0.0
 11
25895.037548782951
 21
13610.66168742194
 31
0.0
  0
LINE
  5
E349
  8
2-0
  6
CONTINUOUS
 62
     6
 10
25739.304862782948
 20
13656.03720142195
 30
0.0
 11
25762.43751678296
 21
13704.09001542194
 31
0.0
  0
LINE
  5
E34A
  8
2-0
  6
CONTINUOUS
 62
     6
 10
25822.201162782942
 20
16434.410948421959
 30
0.0
 11
25976.039448782951
 21
16485.844779421968
 31
0.0
  0
LINE
  5
E34B
  8
2-0
  6
CONTINUOUS
 62
     6
 10
25976.039448782951
 20
16485.844779421968
 30
0.0
 11
25847.204461782931
 21
16387.304344421969
 31
0.0
  0
LINE
  5
E34C
  8
2-0
  6
CONTINUOUS
 62
     6
 10
25822.201162782942
 20
16434.410948421959
 30
0.0
 11
25847.204461782931
 21
16387.304344421969
 31
0.0
  0
LINE
  5
E34D
  8
2-0
  6
CONTINUOUS
 62
     6
 10
25847.204461782931
 20
16387.304344421969
 30
0.0
 11
25976.039448782951
 21
16485.844779421968
 31
0.0
  0
LINE
  5
E34E
  8
2-0
  6
CONTINUOUS
 62
     6
 10
25976.039448782951
 20
16485.844779421968
 30
0.0
 11
25822.201162782942
 21
16434.410948421959
 31
0.0
  0
LINE
  5
E34F
  8
2-0
  6
CONTINUOUS
 62
     6
 10
25822.201162782942
 20
16434.410948421959
 30
0.0
 11
25976.039448782951
 21
16485.844779421968
 31
0.0
  0
LINE
  5
E350
  8
2-0
  6
CONTINUOUS
 62
     6
 10
25847.204461782931
 20
16387.304344421969
 30
0.0
 11
25976.039448782951
 21
16485.844779421968
 31
0.0
  0
LINE
  5
E351
  8
2-0
  6
CONTINUOUS
 62
     6
 10
25847.204461782931
 20
16387.304344421969
 30
0.0
 11
25822.201162782942
 21
16434.410948421959
 31
0.0
  0
LINE
  5
E352
  8
2-0
  6
CONTINUOUS
 62
     6
 10
25688.26495578295
 20
16925.729440421961
 30
0.0
 11
25831.148586782969
 21
16848.95381142195
 31
0.0
  0
LINE
  5
E353
  8
2-0
  6
CONTINUOUS
 62
     6
 10
25831.148586782969
 20
16848.95381142195
 30
0.0
 11
25671.08669378296
 21
16875.235880421958
 31
0.0
  0
LINE
  5
E354
  8
2-0
  6
CONTINUOUS
 62
     6
 10
25688.26495578295
 20
16925.729440421961
 30
0.0
 11
25671.08669378296
 21
16875.235880421958
 31
0.0
  0
LINE
  5
E355
  8
2-0
  6
CONTINUOUS
 62
     6
 10
25671.08669378296
 20
16875.235880421958
 30
0.0
 11
25831.148586782969
 21
16848.95381142195
 31
0.0
  0
LINE
  5
E356
  8
2-0
  6
CONTINUOUS
 62
     6
 10
25831.148586782969
 20
16848.95381142195
 30
0.0
 11
25688.26495578295
 21
16925.729440421961
 31
0.0
  0
LINE
  5
E357
  8
2-0
  6
CONTINUOUS
 62
     6
 10
25688.26495578295
 20
16925.729440421961
 30
0.0
 11
25831.148586782969
 21
16848.95381142195
 31
0.0
  0
LINE
  5
E358
  8
2-0
  6
CONTINUOUS
 62
     6
 10
25671.08669378296
 20
16875.235880421958
 30
0.0
 11
25831.148586782969
 21
16848.95381142195
 31
0.0
  0
LINE
  5
E359
  8
2-0
  6
CONTINUOUS
 62
     6
 10
25671.08669378296
 20
16875.235880421958
 30
0.0
 11
25688.26495578295
 21
16925.729440421961
 31
0.0
  0
LINE
  5
E35A
  8
2-0
  6
CONTINUOUS
 62
     3
 10
22652.542484782949
 20
19647.95349542196
 30
0.0
 11
22652.542484782949
 21
19641.957533421959
 31
0.0
  0
LINE
  5
E35B
  8
2-0
  6
CONTINUOUS
 62
     3
 10
22652.542484782949
 20
19641.957533421959
 30
0.0
 11
22622.544859782949
 21
19641.957533421959
 31
0.0
  0
LINE
  5
E35C
  8
2-0
  6
CONTINUOUS
 62
     3
 10
22622.544859782949
 20
19641.957533421959
 30
0.0
 11
22622.544859782949
 21
19756.953706421958
 31
0.0
  0
LINE
  5
E35D
  8
2-0
  6
CONTINUOUS
 62
     3
 10
22622.544859782949
 20
19671.957137421949
 30
0.0
 11
22703.542800782969
 21
19671.957137421949
 31
0.0
  0
LINE
  5
E35E
  8
2-0
  6
CONTINUOUS
 62
     3
 10
22652.542484782949
 20
19631.660077421951
 30
0.0
 11
22622.544859782949
 21
19631.660077421951
 31
0.0
  0
LINE
  5
E35F
  8
2-0
  6
CONTINUOUS
 62
     3
 10
22652.542484782949
 20
19649.661819421952
 30
0.0
 11
22652.542484782949
 21
19631.660077421951
 31
0.0
  0
LINE
  5
E360
  8
2-0
  6
CONTINUOUS
 62
     3
 10
22627.549082782949
 20
19649.661819421952
 30
0.0
 11
22652.542484782949
 21
19649.661819421952
 31
0.0
  0
LINE
  5
E361
  8
2-0
  6
CONTINUOUS
 62
     3
 10
22627.549082782949
 20
19644.653637421961
 30
0.0
 11
22627.549082782949
 21
19649.661819421952
 31
0.0
  0
LINE
  5
E362
  8
2-0
  6
CONTINUOUS
 62
     3
 10
22634.54668078294
 20
19644.653637421961
 30
0.0
 11
22627.549082782949
 21
19644.653637421961
 31
0.0
  0
LINE
  5
E363
  8
2-0
  6
CONTINUOUS
 62
     3
 10
22734.840969782948
 20
19744.953864421968
 30
0.0
 11
22734.840969782948
 21
19751.959380421958
 31
0.0
  0
LINE
  5
E364
  8
2-0
  6
CONTINUOUS
 62
     3
 10
22734.840969782948
 20
19751.959380421958
 30
0.0
 11
22729.838725782949
 21
19751.959380421958
 31
0.0
  0
LINE
  5
E365
  8
2-0
  6
CONTINUOUS
 62
     3
 10
22729.838725782949
 20
19751.959380421958
 30
0.0
 11
22729.838725782949
 21
19726.950143421949
 31
0.0
  0
LINE
  5
E366
  8
2-0
  6
CONTINUOUS
 62
     3
 10
22729.838725782949
 20
19726.950143421949
 30
0.0
 11
22747.846406782952
 21
19726.950143421949
 31
0.0
  0
LINE
  5
E367
  8
2-0
  6
CONTINUOUS
 62
     3
 10
22747.846406782952
 20
19726.950143421949
 30
0.0
 11
22747.846406782952
 21
19756.953706421958
 31
0.0
  0
LINE
  5
E368
  8
2-0
  6
CONTINUOUS
 62
     3
 10
22737.546970782969
 20
19756.953706421958
 30
0.0
 11
22622.544859782949
 21
19756.953706421958
 31
0.0
  0
LINE
  5
E369
  8
2-0
  6
CONTINUOUS
 62
     3
 10
22737.546970782969
 20
19726.950143421949
 30
0.0
 11
22737.546970782969
 21
19756.953706421958
 31
0.0
  0
LINE
  5
E36A
  8
2-0
  6
CONTINUOUS
 62
     3
 10
22731.543091782962
 20
19726.950143421949
 30
0.0
 11
22737.546970782969
 21
19726.950143421949
 31
0.0
  0
LINE
  5
E36B
  8
2-0
  6
CONTINUOUS
 62
     3
 10
22652.542484782949
 20
19647.95349542196
 30
0.0
 11
22652.542484782949
 21
19641.957533421959
 31
0.0
  0
LINE
  5
E36C
  8
2-0
  6
CONTINUOUS
 62
     3
 10
22652.542484782949
 20
19641.957533421959
 30
0.0
 11
22622.544859782949
 21
19641.957533421959
 31
0.0
  0
LINE
  5
E36D
  8
2-0
  6
CONTINUOUS
 62
     3
 10
22622.544859782949
 20
19641.957533421959
 30
0.0
 11
22622.544859782949
 21
19756.953706421958
 31
0.0
  0
LINE
  5
E36E
  8
2-0
  6
CONTINUOUS
 62
     3
 10
22622.544859782949
 20
19671.957137421949
 30
0.0
 11
22703.542800782969
 21
19671.957137421949
 31
0.0
  0
LINE
  5
E36F
  8
2-0
  6
CONTINUOUS
 62
     3
 10
22652.542484782949
 20
19631.660077421951
 30
0.0
 11
22622.544859782949
 21
19631.660077421951
 31
0.0
  0
LINE
  5
E370
  8
2-0
  6
CONTINUOUS
 62
     3
 10
22652.542484782949
 20
19649.661819421952
 30
0.0
 11
22652.542484782949
 21
19631.660077421951
 31
0.0
  0
LINE
  5
E371
  8
2-0
  6
CONTINUOUS
 62
     3
 10
22627.549082782949
 20
19649.661819421952
 30
0.0
 11
22652.542484782949
 21
19649.661819421952
 31
0.0
  0
LINE
  5
E372
  8
2-0
  6
CONTINUOUS
 62
     3
 10
22627.549082782949
 20
19644.653637421961
 30
0.0
 11
22627.549082782949
 21
19649.661819421952
 31
0.0
  0
LINE
  5
E373
  8
2-0
  6
CONTINUOUS
 62
     3
 10
22634.54668078294
 20
19644.653637421961
 30
0.0
 11
22627.549082782949
 21
19644.653637421961
 31
0.0
  0
LINE
  5
E374
  8
2-0
  6
CONTINUOUS
 62
     3
 10
22634.54668078294
 20
18940.856814921939
 30
0.0
 11
22627.549082782949
 21
18940.856814921939
 31
0.0
  0
LINE
  5
E375
  8
2-0
  6
CONTINUOUS
 62
     3
 10
22627.549082782949
 20
18940.856814921939
 30
0.0
 11
22627.549082782949
 21
18945.857078921948
 31
0.0
  0
LINE
  5
E376
  8
2-0
  6
CONTINUOUS
 62
     3
 10
22627.549082782949
 20
18945.857078921948
 30
0.0
 11
22652.542484782949
 21
18945.857078921948
 31
0.0
  0
LINE
  5
E377
  8
2-0
  6
CONTINUOUS
 62
     3
 10
22652.542484782949
 20
18945.857078921948
 30
0.0
 11
22652.542484782949
 21
18927.861274921928
 31
0.0
  0
LINE
  5
E378
  8
2-0
  6
CONTINUOUS
 62
     3
 10
22652.542484782949
 20
18927.861274921928
 30
0.0
 11
22622.544859782949
 21
18927.861274921928
 31
0.0
  0
LINE
  5
E379
  8
2-0
  6
CONTINUOUS
 62
     3
 10
22652.542484782949
 20
18943.952781921911
 30
0.0
 11
22652.542484782949
 21
18937.954840921939
 31
0.0
  0
LINE
  5
E37A
  8
2-0
  6
CONTINUOUS
 62
     3
 10
22652.542484782949
 20
18937.954840921939
 30
0.0
 11
22622.544859782949
 21
18937.954840921939
 31
0.0
  0
LINE
  5
E37B
  8
2-0
  6
CONTINUOUS
 62
     3
 10
22622.544859782949
 20
18937.954840921939
 30
0.0
 11
22622.544859782949
 21
18974.956001921939
 31
0.0
  0
LINE
  5
E37C
  8
2-0
  6
CONTINUOUS
 62
     3
 10
22652.542484782949
 20
18974.956001921939
 30
0.0
 11
22622.544859782949
 21
18974.956001921939
 31
0.0
  0
LINE
  5
E37D
  8
2-0
  6
CONTINUOUS
 62
     3
 10
22652.542484782949
 20
18968.952121921939
 30
0.0
 11
22652.542484782949
 21
18974.956001921939
 31
0.0
  0
LINE
  5
E37E
  8
2-0
  6
CONTINUOUS
 62
     3
 10
22652.542484782949
 20
18985.051546921932
 30
0.0
 11
22622.544859782949
 21
18985.051546921932
 31
0.0
  0
LINE
  5
E37F
  8
2-0
  6
CONTINUOUS
 62
     3
 10
22652.542484782949
 20
18967.04980492195
 30
0.0
 11
22652.542484782949
 21
18985.051546921932
 31
0.0
  0
LINE
  5
E380
  8
2-0
  6
CONTINUOUS
 62
     3
 10
22627.549082782949
 20
18967.04980492195
 30
0.0
 11
22652.542484782949
 21
18967.04980492195
 31
0.0
  0
LINE
  5
E381
  8
2-0
  6
CONTINUOUS
 62
     3
 10
22627.549082782949
 20
18972.05006892193
 30
0.0
 11
22627.549082782949
 21
18967.04980492195
 31
0.0
  0
LINE
  5
E382
  8
2-0
  6
CONTINUOUS
 62
     3
 10
22634.54668078294
 20
18972.05006892193
 30
0.0
 11
22627.549082782949
 21
18972.05006892193
 31
0.0
  0
LINE
  5
E383
  8
2-0
  6
CONTINUOUS
 62
     3
 10
22634.54668078294
 20
18239.85582542195
 30
0.0
 11
22627.549082782949
 21
18239.85582542195
 31
0.0
  0
LINE
  5
E384
  8
2-0
  6
CONTINUOUS
 62
     3
 10
22627.549082782949
 20
18239.85582542195
 30
0.0
 11
22627.549082782949
 21
18244.86202742195
 31
0.0
  0
LINE
  5
E385
  8
2-0
  6
CONTINUOUS
 62
     3
 10
22627.549082782949
 20
18244.86202742195
 30
0.0
 11
22652.542484782949
 21
18244.86202742195
 31
0.0
  0
LINE
  5
E386
  8
2-0
  6
CONTINUOUS
 62
     3
 10
22652.542484782949
 20
18244.86202742195
 30
0.0
 11
22652.542484782949
 21
18226.860285421939
 31
0.0
  0
LINE
  5
E387
  8
2-0
  6
CONTINUOUS
 62
     3
 10
22652.542484782949
 20
18226.860285421939
 30
0.0
 11
22622.544859782949
 21
18226.860285421939
 31
0.0
  0
LINE
  5
E388
  8
2-0
  6
CONTINUOUS
 62
     3
 10
22652.542484782949
 20
18242.951792421929
 30
0.0
 11
22652.542484782949
 21
18236.955830421939
 31
0.0
  0
LINE
  5
E389
  8
2-0
  6
CONTINUOUS
 62
     3
 10
22652.542484782949
 20
18236.955830421939
 30
0.0
 11
22622.544859782949
 21
18236.955830421939
 31
0.0
  0
LINE
  5
E38A
  8
2-0
  6
CONTINUOUS
 62
     3
 10
22622.544859782949
 20
18236.955830421939
 30
0.0
 11
22622.544859782949
 21
18273.95501242195
 31
0.0
  0
LINE
  5
E38B
  8
2-0
  6
CONTINUOUS
 62
     3
 10
22652.542484782949
 20
18273.95501242195
 30
0.0
 11
22622.544859782949
 21
18273.95501242195
 31
0.0
  0
LINE
  5
E38C
  8
2-0
  6
CONTINUOUS
 62
     3
 10
22652.542484782949
 20
18267.959050421949
 30
0.0
 11
22652.542484782949
 21
18273.95501242195
 31
0.0
  0
LINE
  5
E38D
  8
2-0
  6
CONTINUOUS
 62
     3
 10
22652.542484782949
 20
18284.05055742195
 30
0.0
 11
22622.544859782949
 21
18284.05055742195
 31
0.0
  0
LINE
  5
E38E
  8
2-0
  6
CONTINUOUS
 62
     3
 10
22652.542484782949
 20
18266.048815421949
 30
0.0
 11
22652.542484782949
 21
18284.05055742195
 31
0.0
  0
LINE
  5
E38F
  8
2-0
  6
CONTINUOUS
 62
     3
 10
22627.549082782949
 20
18266.048815421949
 30
0.0
 11
22652.542484782949
 21
18266.048815421949
 31
0.0
  0
LINE
  5
E390
  8
2-0
  6
CONTINUOUS
 62
     3
 10
22627.549082782949
 20
18271.055017421939
 30
0.0
 11
22627.549082782949
 21
18266.048815421949
 31
0.0
  0
LINE
  5
E391
  8
2-0
  6
CONTINUOUS
 62
     3
 10
22634.54668078294
 20
18271.055017421939
 30
0.0
 11
22627.549082782949
 21
18271.055017421939
 31
0.0
  0
LINE
  5
E392
  8
2-0
  6
CONTINUOUS
 62
     3
 10
22634.54668078294
 20
17570.04907942194
 30
0.0
 11
22627.549082782949
 21
17570.04907942194
 31
0.0
  0
LINE
  5
E393
  8
2-0
  6
CONTINUOUS
 62
     3
 10
22627.549082782949
 20
17570.04907942194
 30
0.0
 11
22627.549082782949
 21
17565.06069242195
 31
0.0
  0
LINE
  5
E394
  8
2-0
  6
CONTINUOUS
 62
     3
 10
22627.549082782949
 20
17565.06069242195
 30
0.0
 11
22652.542484782949
 21
17565.06069242195
 31
0.0
  0
LINE
  5
E395
  8
2-0
  6
CONTINUOUS
 62
     3
 10
22652.542484782949
 20
17565.06069242195
 30
0.0
 11
22652.542484782949
 21
17583.056495421941
 31
0.0
  0
LINE
  5
E396
  8
2-0
  6
CONTINUOUS
 62
     3
 10
22652.542484782949
 20
17583.056495421941
 30
0.0
 11
22622.544859782949
 21
17583.056495421941
 31
0.0
  0
LINE
  5
E397
  8
2-0
  6
CONTINUOUS
 62
     3
 10
22652.542484782949
 20
17566.959050421949
 30
0.0
 11
22652.542484782949
 21
17572.955012421939
 31
0.0
  0
LINE
  5
E398
  8
2-0
  6
CONTINUOUS
 62
     3
 10
22652.542484782949
 20
17572.955012421939
 30
0.0
 11
22622.544859782949
 21
17572.955012421939
 31
0.0
  0
LINE
  5
E399
  8
2-0
  6
CONTINUOUS
 62
     3
 10
22622.544859782949
 20
17572.955012421939
 30
0.0
 11
22622.544859782949
 21
17535.955830421939
 31
0.0
  0
LINE
  5
E39A
  8
2-0
  6
CONTINUOUS
 62
     3
 10
22652.542484782949
 20
17535.955830421939
 30
0.0
 11
22622.544859782949
 21
17535.955830421939
 31
0.0
  0
LINE
  5
E39B
  8
2-0
  6
CONTINUOUS
 62
     3
 10
22652.542484782949
 20
17541.957731421939
 30
0.0
 11
22652.542484782949
 21
17535.955830421939
 31
0.0
  0
LINE
  5
E39C
  8
2-0
  6
CONTINUOUS
 62
     3
 10
22652.542484782949
 20
17525.866224421949
 30
0.0
 11
22622.544859782949
 21
17525.866224421949
 31
0.0
  0
LINE
  5
E39D
  8
2-0
  6
CONTINUOUS
 62
     3
 10
22652.542484782949
 20
17543.862027421928
 30
0.0
 11
22652.542484782949
 21
17525.866224421949
 31
0.0
  0
LINE
  5
E39E
  8
2-0
  6
CONTINUOUS
 62
     3
 10
22627.549082782949
 20
17543.862027421928
 30
0.0
 11
22652.542484782949
 21
17543.862027421928
 31
0.0
  0
LINE
  5
E39F
  8
2-0
  6
CONTINUOUS
 62
     3
 10
22627.549082782949
 20
17538.861764421948
 30
0.0
 11
22627.549082782949
 21
17543.862027421928
 31
0.0
  0
LINE
  5
E3A0
  8
2-0
  6
CONTINUOUS
 62
     3
 10
22634.54668078294
 20
17538.861764421948
 30
0.0
 11
22627.549082782949
 21
17538.861764421948
 31
0.0
  0
LINE
  5
E3A1
  8
2-0
  6
CONTINUOUS
 62
     3
 10
22625.430997782969
 20
16818.95265042195
 30
0.0
 11
22625.430997782969
 21
16838.953705421951
 31
0.0
  0
LINE
  5
E3A2
  8
2-0
  6
CONTINUOUS
 62
     3
 10
22625.430997782969
 20
16838.953705421951
 30
0.0
 11
22710.431525782969
 21
16838.953705421951
 31
0.0
  0
LINE
  5
E3A3
  8
2-0
  6
CONTINUOUS
 62
     3
 10
22634.54668078294
 20
16865.560415421951
 30
0.0
 11
22627.549082782949
 21
16865.560415421951
 31
0.0
  0
LINE
  5
E3A4
  8
2-0
  6
CONTINUOUS
 62
     3
 10
22627.549082782949
 20
16865.560415421951
 30
0.0
 11
22627.549082782949
 21
16860.566089421962
 31
0.0
  0
LINE
  5
E3A5
  8
2-0
  6
CONTINUOUS
 62
     3
 10
22627.549082782949
 20
16860.566089421962
 30
0.0
 11
22652.542484782949
 21
16860.566089421962
 31
0.0
  0
LINE
  5
E3A6
  8
2-0
  6
CONTINUOUS
 62
     3
 10
22652.542484782949
 20
16860.566089421962
 30
0.0
 11
22652.542484782949
 21
16878.561893421938
 31
0.0
  0
LINE
  5
E3A7
  8
2-0
  6
CONTINUOUS
 62
     3
 10
22652.542484782949
 20
16878.561893421938
 30
0.0
 11
22622.544859782949
 21
16878.561893421938
 31
0.0
  0
LINE
  5
E3A8
  8
2-0
  6
CONTINUOUS
 62
     3
 10
22652.542484782949
 20
16868.953309421941
 30
0.0
 11
22652.542484782949
 21
16862.951409421948
 31
0.0
  0
LINE
  5
E3A9
  8
2-0
  6
CONTINUOUS
 62
     3
 10
22622.544859782949
 20
16868.953309421941
 30
0.0
 11
22652.542484782949
 21
16868.953309421941
 31
0.0
  0
LINE
  5
E3AA
  8
2-0
  6
CONTINUOUS
 62
     3
 10
22622.544859782949
 20
16878.561893421938
 30
0.0
 11
22622.544859782949
 21
17525.866224421949
 31
0.0
  0
LINE
  5
E3AB
  8
2-0
  6
CONTINUOUS
 62
     3
 10
22622.544859782949
 20
17583.056495421941
 30
0.0
 11
22622.544859782949
 21
18226.860285421939
 31
0.0
  0
LINE
  5
E3AC
  8
2-0
  6
CONTINUOUS
 62
     3
 10
22622.544859782949
 20
16723.951594421938
 30
0.0
 11
22652.542484782949
 21
16723.951594421938
 31
0.0
  0
LINE
  5
E3AD
  8
2-0
  6
CONTINUOUS
 62
     3
 10
22652.542484782949
 20
16723.951594421938
 30
0.0
 11
22652.542484782949
 21
16729.953494421949
 31
0.0
  0
LINE
  5
E3AE
  8
2-0
  6
CONTINUOUS
 62
     3
 10
22710.431525782969
 20
16753.957137421949
 30
0.0
 11
22625.430997782969
 21
16753.957137421949
 31
0.0
  0
LINE
  5
E3AF
  8
2-0
  6
CONTINUOUS
 62
     3
 10
22625.430997782969
 20
16753.957137421949
 30
0.0
 11
22625.430997782969
 21
16773.952254421962
 31
0.0
  0
LINE
  5
E3B0
  8
2-0
  6
CONTINUOUS
 62
     3
 10
22652.542484782949
 20
16714.343011421959
 30
0.0
 11
22622.544859782949
 21
16714.343011421959
 31
0.0
  0
LINE
  5
E3B1
  8
2-0
  6
CONTINUOUS
 62
     3
 10
22652.542484782949
 20
16732.338814421939
 30
0.0
 11
22652.542484782949
 21
16714.343011421959
 31
0.0
  0
LINE
  5
E3B2
  8
2-0
  6
CONTINUOUS
 62
     3
 10
22627.549082782949
 20
16732.338814421939
 30
0.0
 11
22652.542484782949
 21
16732.338814421939
 31
0.0
  0
LINE
  5
E3B3
  8
2-0
  6
CONTINUOUS
 62
     3
 10
22627.549082782949
 20
16727.338550421959
 30
0.0
 11
22627.549082782949
 21
16732.338814421939
 31
0.0
  0
LINE
  5
E3B4
  8
2-0
  6
CONTINUOUS
 62
     3
 10
22634.54668078294
 20
16727.338550421959
 30
0.0
 11
22627.549082782949
 21
16727.338550421959
 31
0.0
  0
LINE
  5
E3B5
  8
2-0
  6
CONTINUOUS
 62
     3
 10
22634.54668078294
 20
16022.85631992193
 30
0.0
 11
22627.549082782949
 21
16022.85631992193
 31
0.0
  0
LINE
  5
E3B6
  8
2-0
  6
CONTINUOUS
 62
     3
 10
22627.549082782949
 20
16022.85631992193
 30
0.0
 11
22627.549082782949
 21
16027.856583921939
 31
0.0
  0
LINE
  5
E3B7
  8
2-0
  6
CONTINUOUS
 62
     3
 10
22627.549082782949
 20
16027.856583921939
 30
0.0
 11
22652.542484782949
 21
16027.856583921939
 31
0.0
  0
LINE
  5
E3B8
  8
2-0
  6
CONTINUOUS
 62
     3
 10
22652.542484782949
 20
16027.856583921939
 30
0.0
 11
22652.542484782949
 21
16009.854841921941
 31
0.0
  0
LINE
  5
E3B9
  8
2-0
  6
CONTINUOUS
 62
     3
 10
22652.542484782949
 20
16009.854841921941
 30
0.0
 11
22622.544859782949
 21
16009.854841921941
 31
0.0
  0
LINE
  5
E3BA
  8
2-0
  6
CONTINUOUS
 62
     3
 10
22652.542484782949
 20
16025.952286921951
 30
0.0
 11
22652.542484782949
 21
16019.95533592195
 31
0.0
  0
LINE
  5
E3BB
  8
2-0
  6
CONTINUOUS
 62
     3
 10
22652.542484782949
 20
16019.95533592195
 30
0.0
 11
22622.544859782949
 21
16019.95533592195
 31
0.0
  0
LINE
  5
E3BC
  8
2-0
  6
CONTINUOUS
 62
     3
 10
22622.544859782949
 20
16019.95533592195
 30
0.0
 11
22622.544859782949
 21
16056.95550692195
 31
0.0
  0
LINE
  5
E3BD
  8
2-0
  6
CONTINUOUS
 62
     3
 10
22652.542484782949
 20
16056.95550692195
 30
0.0
 11
22622.544859782949
 21
16056.95550692195
 31
0.0
  0
LINE
  5
E3BE
  8
2-0
  6
CONTINUOUS
 62
     3
 10
22652.542484782949
 20
16050.95261692195
 30
0.0
 11
22652.542484782949
 21
16056.95550692195
 31
0.0
  0
LINE
  5
E3BF
  8
2-0
  6
CONTINUOUS
 62
     3
 10
22652.542484782949
 20
16067.051051921941
 30
0.0
 11
22622.544859782949
 21
16067.051051921941
 31
0.0
  0
LINE
  5
E3C0
  8
2-0
  6
CONTINUOUS
 62
     3
 10
22652.542484782949
 20
16049.04337092194
 30
0.0
 11
22652.542484782949
 21
16067.051051921941
 31
0.0
  0
LINE
  5
E3C1
  8
2-0
  6
CONTINUOUS
 62
     3
 10
22627.549082782949
 20
16049.04337092194
 30
0.0
 11
22652.542484782949
 21
16049.04337092194
 31
0.0
  0
LINE
  5
E3C2
  8
2-0
  6
CONTINUOUS
 62
     3
 10
22627.549082782949
 20
16054.04957392195
 30
0.0
 11
22627.549082782949
 21
16049.04337092194
 31
0.0
  0
LINE
  5
E3C3
  8
2-0
  6
CONTINUOUS
 62
     3
 10
22634.54668078294
 20
16054.04957392195
 30
0.0
 11
22627.549082782949
 21
16054.04957392195
 31
0.0
  0
LINE
  5
E3C4
  8
2-0
  6
CONTINUOUS
 62
     3
 10
22634.54668078294
 20
15353.289590421949
 30
0.0
 11
22627.549082782949
 21
15353.289590421949
 31
0.0
  0
LINE
  5
E3C5
  8
2-0
  6
CONTINUOUS
 62
     3
 10
22627.549082782949
 20
15353.289590421949
 30
0.0
 11
22627.549082782949
 21
15348.29526542195
 31
0.0
  0
LINE
  5
E3C6
  8
2-0
  6
CONTINUOUS
 62
     3
 10
22627.549082782949
 20
15348.29526542195
 30
0.0
 11
22652.542484782949
 21
15348.29526542195
 31
0.0
  0
LINE
  5
E3C7
  8
2-0
  6
CONTINUOUS
 62
     3
 10
22652.542484782949
 20
15348.29526542195
 30
0.0
 11
22652.542484782949
 21
15366.291068421961
 31
0.0
  0
LINE
  5
E3C8
  8
2-0
  6
CONTINUOUS
 62
     3
 10
22652.542484782949
 20
15366.291068421961
 30
0.0
 11
22622.544859782949
 21
15366.291068421961
 31
0.0
  0
LINE
  5
E3C9
  8
2-0
  6
CONTINUOUS
 62
     3
 10
22652.542484782949
 20
15350.193623421939
 30
0.0
 11
22652.542484782949
 21
15356.195523421949
 31
0.0
  0
LINE
  5
E3CA
  8
2-0
  6
CONTINUOUS
 62
     3
 10
22652.542484782949
 20
15356.195523421949
 30
0.0
 11
22622.544859782949
 21
15356.195523421949
 31
0.0
  0
LINE
  5
E3CB
  8
2-0
  6
CONTINUOUS
 62
     3
 10
22622.544859782949
 20
15319.196342421959
 30
0.0
 11
22622.544859782949
 21
15356.195523421949
 31
0.0
  0
LINE
  5
E3CC
  8
2-0
  6
CONTINUOUS
 62
     3
 10
22652.542484782949
 20
15319.196342421959
 30
0.0
 11
22622.544859782949
 21
15319.196342421959
 31
0.0
  0
LINE
  5
E3CD
  8
2-0
  6
CONTINUOUS
 62
     3
 10
22652.542484782949
 20
15325.193293421949
 30
0.0
 11
22652.542484782949
 21
15319.196342421959
 31
0.0
  0
LINE
  5
E3CE
  8
2-0
  6
CONTINUOUS
 62
     3
 10
22652.542484782949
 20
15309.09485842194
 30
0.0
 11
22622.544859782949
 21
15309.09485842194
 31
0.0
  0
LINE
  5
E3CF
  8
2-0
  6
CONTINUOUS
 62
     3
 10
22652.542484782949
 20
15327.10253942194
 30
0.0
 11
22652.542484782949
 21
15309.09485842194
 31
0.0
  0
LINE
  5
E3D0
  8
2-0
  6
CONTINUOUS
 62
     3
 10
22627.549082782949
 20
15327.10253942194
 30
0.0
 11
22652.542484782949
 21
15327.10253942194
 31
0.0
  0
LINE
  5
E3D1
  8
2-0
  6
CONTINUOUS
 62
     3
 10
22627.549082782949
 20
15322.10227542197
 30
0.0
 11
22627.549082782949
 21
15327.10253942194
 31
0.0
  0
LINE
  5
E3D2
  8
2-0
  6
CONTINUOUS
 62
     3
 10
22634.54668078294
 20
15322.10227542197
 30
0.0
 11
22627.549082782949
 21
15322.10227542197
 31
0.0
  0
LINE
  5
E3D3
  8
2-0
  6
CONTINUOUS
 62
     3
 10
22622.544859782949
 20
16714.343011421959
 30
0.0
 11
22622.544859782949
 21
16067.051051921941
 31
0.0
  0
LINE
  5
E3D4
  8
2-0
  6
CONTINUOUS
 62
     3
 10
22622.544859782949
 20
16868.953309421941
 30
0.0
 11
22622.544859782949
 21
16723.951594421938
 31
0.0
  0
LINE
  5
E3D5
  8
2-0
  6
CONTINUOUS
 62
     3
 10
22710.431525782969
 20
16838.953705421951
 30
0.0
 11
22710.431525782969
 21
16753.957137421949
 31
0.0
  0
LINE
  5
E3D6
  8
2-0
  6
CONTINUOUS
 62
     3
 10
22634.54668078294
 20
14620.86126842195
 30
0.0
 11
22627.549082782949
 21
14620.86126842195
 31
0.0
  0
LINE
  5
E3D7
  8
2-0
  6
CONTINUOUS
 62
     3
 10
22627.549082782949
 20
14620.86126842195
 30
0.0
 11
22627.549082782949
 21
14625.855594421961
 31
0.0
  0
LINE
  5
E3D8
  8
2-0
  6
CONTINUOUS
 62
     3
 10
22627.549082782949
 20
14625.855594421961
 30
0.0
 11
22652.542484782949
 21
14625.855594421961
 31
0.0
  0
LINE
  5
E3D9
  8
2-0
  6
CONTINUOUS
 62
     3
 10
22652.542484782949
 20
14625.855594421961
 30
0.0
 11
22652.542484782949
 21
14607.85979042195
 31
0.0
  0
LINE
  5
E3DA
  8
2-0
  6
CONTINUOUS
 62
     3
 10
22652.542484782949
 20
14607.85979042195
 30
0.0
 11
22622.544859782949
 21
14607.85979042195
 31
0.0
  0
LINE
  5
E3DB
  8
2-0
  6
CONTINUOUS
 62
     3
 10
22652.542484782949
 20
14623.958225421949
 30
0.0
 11
22652.542484782949
 21
14617.955335421961
 31
0.0
  0
LINE
  5
E3DC
  8
2-0
  6
CONTINUOUS
 62
     3
 10
22652.542484782949
 20
14617.955335421961
 30
0.0
 11
22622.544859782949
 21
14617.955335421961
 31
0.0
  0
LINE
  5
E3DD
  8
2-0
  6
CONTINUOUS
 62
     3
 10
22622.544859782949
 20
14617.955335421961
 30
0.0
 11
22622.544859782949
 21
14654.95550742193
 31
0.0
  0
LINE
  5
E3DE
  8
2-0
  6
CONTINUOUS
 62
     3
 10
22652.542484782949
 20
14654.95550742193
 30
0.0
 11
22622.544859782949
 21
14654.95550742193
 31
0.0
  0
LINE
  5
E3DF
  8
2-0
  6
CONTINUOUS
 62
     3
 10
22652.542484782949
 20
14648.95855542195
 30
0.0
 11
22652.542484782949
 21
14654.95550742193
 31
0.0
  0
LINE
  5
E3E0
  8
2-0
  6
CONTINUOUS
 62
     3
 10
22652.542484782949
 20
14665.05600042195
 30
0.0
 11
22622.544859782949
 21
14665.05600042195
 31
0.0
  0
LINE
  5
E3E1
  8
2-0
  6
CONTINUOUS
 62
     3
 10
22652.542484782949
 20
14647.049309421949
 30
0.0
 11
22652.542484782949
 21
14665.05600042195
 31
0.0
  0
LINE
  5
E3E2
  8
2-0
  6
CONTINUOUS
 62
     3
 10
22627.549082782949
 20
14647.049309421949
 30
0.0
 11
22652.542484782949
 21
14647.049309421949
 31
0.0
  0
LINE
  5
E3E3
  8
2-0
  6
CONTINUOUS
 62
     3
 10
22627.549082782949
 20
14652.05452242195
 30
0.0
 11
22627.549082782949
 21
14647.049309421949
 31
0.0
  0
LINE
  5
E3E4
  8
2-0
  6
CONTINUOUS
 62
     3
 10
22634.54668078294
 20
14652.05452242195
 30
0.0
 11
22627.549082782949
 21
14652.05452242195
 31
0.0
  0
LINE
  5
E3E5
  8
2-0
  6
CONTINUOUS
 62
     3
 10
22652.542484782949
 20
13594.457348421951
 30
0.0
 11
22652.542484782949
 21
13600.46221742194
 31
0.0
  0
LINE
  5
E3E6
  8
2-0
  6
CONTINUOUS
 62
     3
 10
22652.542484782949
 20
13600.46221742194
 30
0.0
 11
22622.544859782949
 21
13600.46221742194
 31
0.0
  0
LINE
  5
E3E7
  8
2-0
  6
CONTINUOUS
 62
     3
 10
22622.544859782949
 20
13600.46221742194
 30
0.0
 11
22622.544859782949
 21
13485.458126421951
 31
0.0
  0
LINE
  5
E3E8
  8
2-0
  6
CONTINUOUS
 62
     3
 10
22622.544859782949
 20
13485.458126421951
 30
0.0
 11
22707.543407782949
 21
13485.458126421951
 31
0.0
  0
LINE
  5
E3E9
  8
2-0
  6
CONTINUOUS
 62
     3
 10
22707.543407782949
 20
13485.458126421951
 30
0.0
 11
22707.543407782949
 21
13570.453705421951
 31
0.0
  0
LINE
  5
E3EA
  8
2-0
  6
CONTINUOUS
 62
     3
 10
22707.543407782949
 20
13570.453705421951
 30
0.0
 11
22675.546469782948
 21
13570.453705421951
 31
0.0
  0
LINE
  5
E3EB
  8
2-0
  6
CONTINUOUS
 62
     3
 10
22634.54668078294
 20
13597.491950421951
 30
0.0
 11
22627.549082782949
 21
13597.491950421951
 31
0.0
  0
LINE
  5
E3EC
  8
2-0
  6
CONTINUOUS
 62
     3
 10
22627.549082782949
 20
13597.491950421951
 30
0.0
 11
22627.549082782949
 21
13592.49465542193
 31
0.0
  0
LINE
  5
E3ED
  8
2-0
  6
CONTINUOUS
 62
     3
 10
22627.549082782949
 20
13592.49465542193
 30
0.0
 11
22652.542484782949
 21
13592.49465542193
 31
0.0
  0
LINE
  5
E3EE
  8
2-0
  6
CONTINUOUS
 62
     3
 10
22652.542484782949
 20
13592.49465542193
 30
0.0
 11
22652.542484782949
 21
13610.493428421951
 31
0.0
  0
LINE
  5
E3EF
  8
2-0
  6
CONTINUOUS
 62
     3
 10
22652.542484782949
 20
13610.493428421951
 30
0.0
 11
22622.544859782949
 21
13610.493428421951
 31
0.0
  0
LINE
  5
E3F0
  8
2-0
  6
CONTINUOUS
 62
     3
 10
22622.544859782949
 20
14665.05600042195
 30
0.0
 11
22622.544859782949
 21
15309.09485842194
 31
0.0
  0
LINE
  5
E3F1
  8
2-0
  6
CONTINUOUS
 62
     3
 10
22622.544859782949
 20
18284.05055742195
 30
0.0
 11
22622.544859782949
 21
18927.861274921928
 31
0.0
  0
LINE
  5
E3F2
  8
2-0
  6
CONTINUOUS
 62
     3
 10
22622.544859782949
 20
16009.854841921941
 30
0.0
 11
22622.544859782949
 21
15366.291068421961
 31
0.0
  0
LINE
  5
E3F3
  8
2-0
  6
CONTINUOUS
 62
     3
 10
25976.039448782951
 20
19641.957533421959
 30
0.0
 11
25976.039448782951
 21
19756.953706421958
 31
0.0
  0
LINE
  5
E3F4
  8
2-0
  6
CONTINUOUS
 62
     3
 10
22622.544859782949
 20
19671.957137421949
 30
0.0
 11
25895.037548782951
 21
19671.957137421949
 31
0.0
  0
LINE
  5
E3F5
  8
2-0
  6
CONTINUOUS
 62
     3
 10
22622.544859782949
 20
13963.993151421961
 30
0.0
 11
22622.544859782949
 21
14607.85979042195
 31
0.0
  0
LINE
  5
E3F6
  8
2-0
  6
CONTINUOUS
 62
     3
 10
25976.039448782951
 20
19631.660077421951
 30
0.0
 11
25976.039448782951
 21
18985.051546921939
 31
0.0
  0
LINE
  5
E3F7
  8
2-0
  6
CONTINUOUS
 62
     3
 10
22622.544859782949
 20
19631.660077421951
 30
0.0
 11
22622.544859782949
 21
18985.051546921932
 31
0.0
  0
LINE
  5
E3F8
  8
2-0
  6
CONTINUOUS
 62
     3
 10
22634.54668078294
 20
13919.861763421961
 30
0.0
 11
22627.549082782949
 21
13919.861763421961
 31
0.0
  0
LINE
  5
E3F9
  8
2-0
  6
CONTINUOUS
 62
     3
 10
22627.549082782949
 20
13919.861763421961
 30
0.0
 11
22627.549082782949
 21
13924.85608942195
 31
0.0
  0
LINE
  5
E3FA
  8
2-0
  6
CONTINUOUS
 62
     3
 10
22627.549082782949
 20
13924.85608942195
 30
0.0
 11
22652.542484782949
 21
13924.85608942195
 31
0.0
  0
LINE
  5
E3FB
  8
2-0
  6
CONTINUOUS
 62
     3
 10
22652.542484782949
 20
13924.85608942195
 30
0.0
 11
22652.542484782949
 21
13906.860285421961
 31
0.0
  0
LINE
  5
E3FC
  8
2-0
  6
CONTINUOUS
 62
     3
 10
22652.542484782949
 20
13906.860285421961
 30
0.0
 11
22622.544859782949
 21
13906.860285421961
 31
0.0
  0
LINE
  5
E3FD
  8
2-0
  6
CONTINUOUS
 62
     3
 10
22652.542484782949
 20
13922.95773142195
 30
0.0
 11
22652.542484782949
 21
13916.95583042195
 31
0.0
  0
LINE
  5
E3FE
  8
2-0
  6
CONTINUOUS
 62
     3
 10
22652.542484782949
 20
13916.95583042195
 30
0.0
 11
22622.544859782949
 21
13916.95583042195
 31
0.0
  0
LINE
  5
E3FF
  8
2-0
  6
CONTINUOUS
 62
     3
 10
22622.544859782949
 20
13916.95583042195
 30
0.0
 11
22622.544859782949
 21
13953.955012421929
 31
0.0
  0
LINE
  5
E400
  8
2-0
  6
CONTINUOUS
 62
     3
 10
22652.542484782949
 20
13953.955012421929
 30
0.0
 11
22622.544859782949
 21
13953.955012421929
 31
0.0
  0
LINE
  5
E401
  8
2-0
  6
CONTINUOUS
 62
     3
 10
22652.542484782949
 20
13947.95905042196
 30
0.0
 11
22652.542484782949
 21
13953.955012421929
 31
0.0
  0
LINE
  5
E402
  8
2-0
  6
CONTINUOUS
 62
     3
 10
22652.542484782949
 20
13964.05649542195
 30
0.0
 11
22622.544859782949
 21
13964.05649542195
 31
0.0
  0
LINE
  5
E403
  8
2-0
  6
CONTINUOUS
 62
     3
 10
22652.542484782949
 20
13946.048815421929
 30
0.0
 11
22652.542484782949
 21
13964.05649542195
 31
0.0
  0
LINE
  5
E404
  8
2-0
  6
CONTINUOUS
 62
     3
 10
22627.549082782949
 20
13946.048815421929
 30
0.0
 11
22652.542484782949
 21
13946.048815421929
 31
0.0
  0
LINE
  5
E405
  8
2-0
  6
CONTINUOUS
 62
     3
 10
22627.549082782949
 20
13951.05501742195
 30
0.0
 11
22627.549082782949
 21
13946.048815421929
 31
0.0
  0
LINE
  5
E406
  8
2-0
  6
CONTINUOUS
 62
     3
 10
22634.54668078294
 20
13951.05501742195
 30
0.0
 11
22627.549082782949
 21
13951.05501742195
 31
0.0
  0
LINE
  5
E407
  8
2-0
  6
CONTINUOUS
 62
     3
 10
22622.544859782949
 20
13610.493428421951
 30
0.0
 11
22622.544859782949
 21
13906.860285421961
 31
0.0
  0
LINE
  5
E408
  8
2-0
  6
CONTINUOUS
 62
     3
 10
22703.542800782969
 20
13570.453705421951
 30
0.0
 11
22703.542800782969
 21
19756.953706421958
 31
0.0
  0
LINE
  5
E409
  8
2-0
  6
CONTINUOUS
 62
     3
 10
25964.037627782971
 20
13919.861763421961
 30
0.0
 11
25971.03918478296
 21
13919.861763421961
 31
0.0
  0
LINE
  5
E40A
  8
2-0
  6
CONTINUOUS
 62
     3
 10
25971.03918478296
 20
13919.861763421961
 30
0.0
 11
25971.03918478296
 21
13924.85608942195
 31
0.0
  0
LINE
  5
E40B
  8
2-0
  6
CONTINUOUS
 62
     3
 10
25971.03918478296
 20
13924.85608942195
 30
0.0
 11
25946.041824782969
 21
13924.85608942195
 31
0.0
  0
LINE
  5
E40C
  8
2-0
  6
CONTINUOUS
 62
     3
 10
25946.041824782969
 20
13924.85608942195
 30
0.0
 11
25946.041824782969
 21
13906.860285421961
 31
0.0
  0
LINE
  5
E40D
  8
2-0
  6
CONTINUOUS
 62
     3
 10
25946.041824782969
 20
13906.860285421961
 30
0.0
 11
25976.039448782951
 21
13906.860285421961
 31
0.0
  0
LINE
  5
E40E
  8
2-0
  6
CONTINUOUS
 62
     3
 10
25946.041824782969
 20
13922.95773142195
 30
0.0
 11
25946.041824782969
 21
13916.95583042195
 31
0.0
  0
LINE
  5
E40F
  8
2-0
  6
CONTINUOUS
 62
     3
 10
25946.041824782969
 20
13916.95583042195
 30
0.0
 11
25976.039448782951
 21
13916.95583042195
 31
0.0
  0
LINE
  5
E410
  8
2-0
  6
CONTINUOUS
 62
     3
 10
25976.039448782951
 20
13916.95583042195
 30
0.0
 11
25976.039448782951
 21
13953.955012421929
 31
0.0
  0
LINE
  5
E411
  8
2-0
  6
CONTINUOUS
 62
     3
 10
25946.041824782969
 20
13953.955012421929
 30
0.0
 11
25976.039448782951
 21
13953.955012421929
 31
0.0
  0
LINE
  5
E412
  8
2-0
  6
CONTINUOUS
 62
     3
 10
25946.041824782969
 20
13947.95905042197
 30
0.0
 11
25946.041824782969
 21
13953.955012421929
 31
0.0
  0
LINE
  5
E413
  8
2-0
  6
CONTINUOUS
 62
     3
 10
25946.041824782969
 20
13964.05649542195
 30
0.0
 11
25976.039448782951
 21
13964.05649542195
 31
0.0
  0
LINE
  5
E414
  8
2-0
  6
CONTINUOUS
 62
     3
 10
25946.041824782969
 20
13946.048815421929
 30
0.0
 11
25946.041824782969
 21
13964.05649542195
 31
0.0
  0
LINE
  5
E415
  8
2-0
  6
CONTINUOUS
 62
     3
 10
25971.03918478296
 20
13946.048815421929
 30
0.0
 11
25946.041824782969
 21
13946.048815421929
 31
0.0
  0
LINE
  5
E416
  8
2-0
  6
CONTINUOUS
 62
     3
 10
25971.03918478296
 20
13951.05501742195
 30
0.0
 11
25971.03918478296
 21
13946.048815421929
 31
0.0
  0
LINE
  5
E417
  8
2-0
  6
CONTINUOUS
 62
     3
 10
25964.037627782971
 20
13951.05501742195
 30
0.0
 11
25971.03918478296
 21
13951.05501742195
 31
0.0
  0
LINE
  5
E418
  8
2-0
  6
CONTINUOUS
 62
     3
 10
25976.039448782951
 20
13610.493428421951
 30
0.0
 11
25976.039448782951
 21
13906.860285421961
 31
0.0
  0
LINE
  5
E419
  8
2-0
  6
CONTINUOUS
 62
     3
 10
25895.037548782951
 20
13570.453705421951
 30
0.0
 11
25895.037548782951
 21
19756.953706421958
 31
0.0
  0
TEXT
  5
E41A
  8
2-0
  6
CONTINUOUS
 62
     7
 10
24330.38647178296
 20
12967.956543421949
 30
0.0
 40
160.0
  1
前柱（右）
 50
0.000213
 72
     4
 11
24746.386174375981
 21
13047.95808992274
 31
0.0
  0
TEXT
  5
E41B
  8
2-0
  6
CONTINUOUS
 62
     7
 10
24534.981594782959
 20
16246.94855942196
 30
0.0
 40
160.0
  1
壁パネル
 50
359.99982299999999
 72
     4
 11
24897.648508586521
 21
16326.94743905983
 31
0.0
  0
TEXT
  5
E41C
  8
2-0
  6
CONTINUOUS
 62
     7
 10
24254.978690782969
 20
17084.136455421969
 30
0.0
 40
160.0
  1
中柱（左右）
 50
0.000354
 72
     4
 11
24772.311529829181
 21
17164.13965174662
 31
0.0
  0
TEXT
  5
E41D
  8
2-0
  6
CONTINUOUS
 62
     7
 10
24934.980934782929
 20
13940.99780942194
 30
0.0
 40
160.0
  1
下枠
 50
0.001063
 72
     4
 11
25105.646117192231
 21
14021.00097576123
 31
0.0
  0
TEXT
  5
E41E
  8
2-0
  6
CONTINUOUS
 62
     7
 10
24429.946358782981
 20
18687.405193921939
 30
0.0
 40
160.0
  1
間柱（側）
 72
     4
 11
24851.27969211631
 21
18767.405193921939
 31
0.0
  0
TEXT
  5
E41F
  8
2-0
  6
CONTINUOUS
 62
     7
 10
26748.536677782959
 20
20566.95291442196
 30
0.0
 40
160.0
  1
後柱（左右）
 50
0.000354
 72
     4
 11
27260.53618349594
 21
20646.956077794799
 31
0.0
  0
LINE
  5
E420
  8
2-0
  6
CONTINUOUS
 62
     3
 10
25194.04174578295
 20
19756.953706421958
 30
0.0
 11
25157.040583782979
 21
19756.953706421958
 31
0.0
  0
LINE
  5
E421
  8
2-0
  6
CONTINUOUS
 62
     3
 10
25194.04174578295
 20
19726.950143421949
 30
0.0
 11
25194.04174578295
 21
19756.953706421958
 31
0.0
  0
LINE
  5
E422
  8
2-0
  6
CONTINUOUS
 62
     3
 10
25188.04182478294
 20
19726.950143421949
 30
0.0
 11
25194.04174578295
 21
19726.950143421949
 31
0.0
  0
LINE
  5
E423
  8
2-0
  6
CONTINUOUS
 62
     3
 10
25204.139269782969
 20
19726.950143421949
 30
0.0
 11
25204.139269782969
 21
19756.953706421958
 31
0.0
  0
LINE
  5
E424
  8
2-0
  6
CONTINUOUS
 62
     3
 10
25186.135548782961
 20
19726.950143421949
 30
0.0
 11
25204.139269782969
 21
19726.950143421949
 31
0.0
  0
LINE
  5
E425
  8
2-0
  6
CONTINUOUS
 62
     3
 10
25186.135548782961
 20
19751.959380421958
 30
0.0
 11
25186.135548782961
 21
19726.950143421949
 31
0.0
  0
LINE
  5
E426
  8
2-0
  6
CONTINUOUS
 62
     3
 10
25191.13581278297
 20
19751.959380421958
 30
0.0
 11
25186.135548782961
 21
19751.959380421958
 31
0.0
  0
LINE
  5
E427
  8
2-0
  6
CONTINUOUS
 62
     3
 10
25191.13581278297
 20
19744.953864421968
 30
0.0
 11
25191.13581278297
 21
19751.959380421958
 31
0.0
  0
LINE
  5
E428
  8
2-0
  6
CONTINUOUS
 62
     3
 10
25159.946517782941
 20
19744.953864421968
 30
0.0
 11
25159.946517782941
 21
19751.959380421958
 31
0.0
  0
LINE
  5
E429
  8
2-0
  6
CONTINUOUS
 62
     3
 10
25159.946517782941
 20
19751.959380421958
 30
0.0
 11
25164.946781782961
 21
19751.959380421958
 31
0.0
  0
LINE
  5
E42A
  8
2-0
  6
CONTINUOUS
 62
     3
 10
25164.946781782961
 20
19751.959380421958
 30
0.0
 11
25164.946781782961
 21
19726.950143421949
 31
0.0
  0
LINE
  5
E42B
  8
2-0
  6
CONTINUOUS
 62
     3
 10
25164.946781782961
 20
19726.950143421949
 30
0.0
 11
25146.947018782968
 21
19726.950143421949
 31
0.0
  0
LINE
  5
E42C
  8
2-0
  6
CONTINUOUS
 62
     3
 10
25146.947018782968
 20
19726.950143421949
 30
0.0
 11
25146.947018782968
 21
19756.953706421958
 31
0.0
  0
LINE
  5
E42D
  8
2-0
  6
CONTINUOUS
 62
     3
 10
25163.04050478297
 20
19726.950143421949
 30
0.0
 11
25157.040583782979
 21
19726.950143421949
 31
0.0
  0
LINE
  5
E42E
  8
2-0
  6
CONTINUOUS
 62
     3
 10
25157.040583782979
 20
19726.950143421949
 30
0.0
 11
25157.040583782979
 21
19756.953706421958
 31
0.0
  0
LINE
  5
E42F
  8
2-0
  6
CONTINUOUS
 62
     3
 10
23789.13086328296
 20
19744.953864421968
 30
0.0
 11
23789.13086328296
 21
19751.959380421958
 31
0.0
  0
LINE
  5
E430
  8
2-0
  6
CONTINUOUS
 62
     3
 10
23789.13086328296
 20
19751.959380421958
 30
0.0
 11
23784.130599282969
 21
19751.959380421958
 31
0.0
  0
LINE
  5
E431
  8
2-0
  6
CONTINUOUS
 62
     3
 10
23784.130599282969
 20
19751.959380421958
 30
0.0
 11
23784.130599282969
 21
19726.950143421949
 31
0.0
  0
LINE
  5
E432
  8
2-0
  6
CONTINUOUS
 62
     3
 10
23784.130599282969
 20
19726.950143421949
 30
0.0
 11
23802.13630028296
 21
19726.950143421949
 31
0.0
  0
LINE
  5
E433
  8
2-0
  6
CONTINUOUS
 62
     3
 10
23802.13630028296
 20
19726.950143421949
 30
0.0
 11
23802.13630028296
 21
19756.953706421958
 31
0.0
  0
LINE
  5
E434
  8
2-0
  6
CONTINUOUS
 62
     3
 10
23786.038855282961
 20
19726.950143421949
 30
0.0
 11
23792.040755282949
 21
19726.950143421949
 31
0.0
  0
LINE
  5
E435
  8
2-0
  6
CONTINUOUS
 62
     3
 10
23792.040755282949
 20
19726.950143421949
 30
0.0
 11
23792.040755282949
 21
19756.953706421958
 31
0.0
  0
LINE
  5
E436
  8
2-0
  6
CONTINUOUS
 62
     3
 10
23755.04157428295
 20
19756.953706421958
 30
0.0
 11
23792.040755282949
 21
19756.953706421958
 31
0.0
  0
LINE
  5
E437
  8
2-0
  6
CONTINUOUS
 62
     3
 10
23755.04157428295
 20
19726.950143421949
 30
0.0
 11
23755.04157428295
 21
19756.953706421958
 31
0.0
  0
LINE
  5
E438
  8
2-0
  6
CONTINUOUS
 62
     3
 10
23761.03555628295
 20
19726.950143421949
 30
0.0
 11
23755.04157428295
 21
19726.950143421949
 31
0.0
  0
LINE
  5
E439
  8
2-0
  6
CONTINUOUS
 62
     3
 10
23744.946029282961
 20
19726.950143421949
 30
0.0
 11
23744.946029282961
 21
19756.953706421958
 31
0.0
  0
LINE
  5
E43A
  8
2-0
  6
CONTINUOUS
 62
     3
 10
23762.94183228297
 20
19726.950143421949
 30
0.0
 11
23744.946029282961
 21
19726.950143421949
 31
0.0
  0
LINE
  5
E43B
  8
2-0
  6
CONTINUOUS
 62
     3
 10
23762.94183228297
 20
19751.959380421958
 30
0.0
 11
23762.94183228297
 21
19726.950143421949
 31
0.0
  0
LINE
  5
E43C
  8
2-0
  6
CONTINUOUS
 62
     3
 10
23757.94156828296
 20
19751.959380421958
 30
0.0
 11
23762.94183228297
 21
19751.959380421958
 31
0.0
  0
LINE
  5
E43D
  8
2-0
  6
CONTINUOUS
 62
     3
 10
23757.94156828296
 20
19744.953864421968
 30
0.0
 11
23757.94156828296
 21
19751.959380421958
 31
0.0
  0
LINE
  5
E43E
  8
2-0
  6
CONTINUOUS
 62
     3
 10
24458.940579282949
 20
19744.953864421968
 30
0.0
 11
24458.940579282949
 21
19751.959380421958
 31
0.0
  0
LINE
  5
E43F
  8
2-0
  6
CONTINUOUS
 62
     3
 10
24458.940579282949
 20
19751.959380421958
 30
0.0
 11
24463.940842282958
 21
19751.959380421958
 31
0.0
  0
LINE
  5
E440
  8
2-0
  6
CONTINUOUS
 62
     3
 10
24463.940842282958
 20
19751.959380421958
 30
0.0
 11
24463.940842282958
 21
19726.950143421949
 31
0.0
  0
LINE
  5
E441
  8
2-0
  6
CONTINUOUS
 62
     3
 10
24463.940842282958
 20
19726.950143421949
 30
0.0
 11
24445.94701928295
 21
19726.950143421949
 31
0.0
  0
LINE
  5
E442
  8
2-0
  6
CONTINUOUS
 62
     3
 10
24445.94701928295
 20
19726.950143421949
 30
0.0
 11
24445.94701928295
 21
19756.953706421958
 31
0.0
  0
LINE
  5
E443
  8
2-0
  6
CONTINUOUS
 62
     3
 10
24462.03852528294
 20
19726.950143421949
 30
0.0
 11
24456.040584282939
 21
19726.950143421949
 31
0.0
  0
LINE
  5
E444
  8
2-0
  6
CONTINUOUS
 62
     3
 10
24456.040584282939
 20
19726.950143421949
 30
0.0
 11
24456.040584282939
 21
19756.953706421958
 31
0.0
  0
LINE
  5
E445
  8
2-0
  6
CONTINUOUS
 62
     3
 10
24493.041745282961
 20
19756.953706421958
 30
0.0
 11
24456.040584282939
 21
19756.953706421958
 31
0.0
  0
LINE
  5
E446
  8
2-0
  6
CONTINUOUS
 62
     3
 10
24493.041745282961
 20
19726.950143421949
 30
0.0
 11
24493.041745282961
 21
19756.953706421958
 31
0.0
  0
LINE
  5
E447
  8
2-0
  6
CONTINUOUS
 62
     3
 10
24487.03588628296
 20
19726.950143421949
 30
0.0
 11
24493.041745282961
 21
19726.950143421949
 31
0.0
  0
LINE
  5
E448
  8
2-0
  6
CONTINUOUS
 62
     3
 10
24503.135310282949
 20
19726.950143421949
 30
0.0
 11
24503.135310282949
 21
19756.953706421958
 31
0.0
  0
LINE
  5
E449
  8
2-0
  6
CONTINUOUS
 62
     3
 10
24485.139507282951
 20
19726.950143421949
 30
0.0
 11
24503.135310282949
 21
19726.950143421949
 31
0.0
  0
LINE
  5
E44A
  8
2-0
  6
CONTINUOUS
 62
     3
 10
24485.139507282951
 20
19751.959380421958
 30
0.0
 11
24485.139507282951
 21
19726.950143421949
 31
0.0
  0
LINE
  5
E44B
  8
2-0
  6
CONTINUOUS
 62
     3
 10
24490.129873282949
 20
19751.959380421958
 30
0.0
 11
24485.139507282951
 21
19751.959380421958
 31
0.0
  0
LINE
  5
E44C
  8
2-0
  6
CONTINUOUS
 62
     3
 10
24490.129873282949
 20
19744.953864421968
 30
0.0
 11
24490.129873282949
 21
19751.959380421958
 31
0.0
  0
LINE
  5
E44D
  8
2-0
  6
CONTINUOUS
 62
     3
 10
23802.13630028296
 20
19756.953706421958
 30
0.0
 11
24445.94701928295
 21
19756.953706421958
 31
0.0
  0
LINE
  5
E44E
  8
2-0
  6
CONTINUOUS
 62
     3
 10
23101.34019078299
 20
19756.953706421958
 30
0.0
 11
23744.946029282961
 21
19756.953706421958
 31
0.0
  0
LINE
  5
E44F
  8
2-0
  6
CONTINUOUS
 62
     3
 10
25851.424794782961
 20
19756.953706421958
 30
0.0
 11
25204.139269782969
 21
19756.953706421958
 31
0.0
  0
LINE
  5
E450
  8
2-0
  6
CONTINUOUS
 62
     3
 10
25146.947018782968
 20
19756.953706421958
 30
0.0
 11
24503.135310282949
 21
19756.953706421958
 31
0.0
  0
LINE
  5
E451
  8
2-0
  6
CONTINUOUS
 62
     3
 10
23088.13284278295
 20
19744.953864421968
 30
0.0
 11
23088.13284278295
 21
19751.959380421958
 31
0.0
  0
LINE
  5
E452
  8
2-0
  6
CONTINUOUS
 62
     3
 10
23088.13284278295
 20
19751.959380421958
 30
0.0
 11
23083.132578782948
 21
19751.959380421958
 31
0.0
  0
LINE
  5
E453
  8
2-0
  6
CONTINUOUS
 62
     3
 10
23083.132578782948
 20
19751.959380421958
 30
0.0
 11
23083.132578782948
 21
19726.950143421949
 31
0.0
  0
LINE
  5
E454
  8
2-0
  6
CONTINUOUS
 62
     3
 10
23083.132578782948
 20
19726.950143421949
 30
0.0
 11
23101.13432078297
 21
19726.950143421949
 31
0.0
  0
LINE
  5
E455
  8
2-0
  6
CONTINUOUS
 62
     3
 10
23101.13432078297
 20
19726.950143421949
 30
0.0
 11
23101.13432078297
 21
19756.953706421958
 31
0.0
  0
LINE
  5
E456
  8
2-0
  6
CONTINUOUS
 62
     3
 10
23085.03489578297
 20
19726.950143421949
 30
0.0
 11
23091.038775782949
 21
19726.950143421949
 31
0.0
  0
LINE
  5
E457
  8
2-0
  6
CONTINUOUS
 62
     3
 10
23091.038775782949
 20
19726.950143421949
 30
0.0
 11
23091.038775782949
 21
19756.953706421958
 31
0.0
  0
LINE
  5
E458
  8
2-0
  6
CONTINUOUS
 62
     3
 10
23054.043553782951
 20
19756.953706421958
 30
0.0
 11
23091.038775782949
 21
19756.953706421958
 31
0.0
  0
LINE
  5
E459
  8
2-0
  6
CONTINUOUS
 62
     3
 10
23054.043553782951
 20
19726.950143421949
 30
0.0
 11
23054.043553782951
 21
19756.953706421958
 31
0.0
  0
LINE
  5
E45A
  8
2-0
  6
CONTINUOUS
 62
     3
 10
23060.037535782951
 20
19726.950143421949
 30
0.0
 11
23054.043553782951
 21
19726.950143421949
 31
0.0
  0
LINE
  5
E45B
  8
2-0
  6
CONTINUOUS
 62
     3
 10
23043.948008782969
 20
19726.950143421949
 30
0.0
 11
23043.948008782969
 21
19756.953706421958
 31
0.0
  0
LINE
  5
E45C
  8
2-0
  6
CONTINUOUS
 62
     3
 10
23061.94381178297
 20
19726.950143421949
 30
0.0
 11
23043.948008782969
 21
19726.950143421949
 31
0.0
  0
LINE
  5
E45D
  8
2-0
  6
CONTINUOUS
 62
     3
 10
23061.94381178297
 20
19751.959380421958
 30
0.0
 11
23061.94381178297
 21
19726.950143421949
 31
0.0
  0
LINE
  5
E45E
  8
2-0
  6
CONTINUOUS
 62
     3
 10
23056.945527782991
 20
19751.959380421958
 30
0.0
 11
23061.94381178297
 21
19751.959380421958
 31
0.0
  0
LINE
  5
E45F
  8
2-0
  6
CONTINUOUS
 62
     3
 10
23056.945527782991
 20
19744.953864421968
 30
0.0
 11
23056.945527782991
 21
19751.959380421958
 31
0.0
  0
LINE
  5
E460
  8
2-0
  6
CONTINUOUS
 62
     3
 10
22747.846406782952
 20
19756.953706421958
 30
0.0
 11
23043.948008782969
 21
19756.953706421958
 31
0.0
  0
LINE
  5
E461
  8
2-0
  6
CONTINUOUS
 62
     3
 10
25976.039448782951
 20
15309.09485842194
 30
0.0
 11
25976.039448782951
 21
14665.05600042195
 31
0.0
  0
LINE
  5
E462
  8
2-0
  6
CONTINUOUS
 62
     3
 10
25976.039448782951
 20
14607.85979042195
 30
0.0
 11
25976.039448782951
 21
13964.05649542195
 31
0.0
  0
LINE
  5
E463
  8
0-6
  6
CONTINUOUS
 62
     6
 10
24206.676656282951
 20
19045.635478421951
 30
0.0
 11
25231.716906282982
 21
19045.635478421951
 31
0.0
  0
LINE
  5
E464
  8
0-6
  6
CONTINUOUS
 62
     6
 10
23906.75187828295
 20
19602.988730421959
 30
0.0
 11
23802.13630028296
 21
19726.950143421949
 31
0.0
  0
LINE
  5
E465
  8
0-6
  6
CONTINUOUS
 62
     6
 10
23802.13630028296
 20
19726.950143421949
 30
0.0
 11
23860.894350282972
 21
19575.758473421971
 31
0.0
  0
LINE
  5
E466
  8
0-6
  6
CONTINUOUS
 62
     6
 10
23802.13630028296
 20
19726.950143421949
 30
0.0
 11
23906.75187828295
 21
19602.988730421959
 31
0.0
  0
LINE
  5
E467
  8
0-6
  6
CONTINUOUS
 62
     6
 10
23906.75187828295
 20
19602.988730421959
 30
0.0
 11
23860.894350282972
 21
19575.758473421971
 31
0.0
  0
LINE
  5
E468
  8
0-6
  6
CONTINUOUS
 62
     6
 10
23860.894350282972
 20
19575.758473421971
 30
0.0
 11
23802.13630028296
 21
19726.950143421949
 31
0.0
  0
LINE
  5
E469
  8
0-6
  6
CONTINUOUS
 62
     6
 10
23860.894350282972
 20
19575.758473421971
 30
0.0
 11
23906.75187828295
 21
19602.988730421959
 31
0.0
  0
LINE
  5
E46A
  8
0-6
  6
CONTINUOUS
 62
     6
 10
23883.823114282961
 20
19589.375581421958
 30
0.0
 11
24206.676656282951
 21
19045.635478421951
 31
0.0
  0
TEXT
  5
E46B
  8
0-6
  6
CONTINUOUS
 62
     7
 10
24286.67692028296
 20
19125.637722421969
 30
0.0
 40
160.0
  1
間柱（後）
 72
     4
 11
24708.010253616289
 21
19205.637722421969
 31
0.0
  0
LINE
  5
E46C
  8
SUNPOU
  6
CONTINUOUS
 62
     4
 10
22665.04116478295
 20
12822.191987421949
 30
0.0
 11
22665.04116478295
 21
12476.50733742195
 31
0.0
  0
LINE
  5
E46D
  8
SUNPOU
  6
CONTINUOUS
 62
     4
 10
22622.538921782991
 20
13405.458126421951
 30
0.0
 11
22622.538921782991
 21
12476.50733742195
 31
0.0
  0
LINE
  5
E46E
  8
SUNPOU
  6
CONTINUOUS
 62
     4
 10
22665.04116478295
 20
12556.50733742195
 30
0.0
 11
22905.04116478295
 21
12556.50733742195
 31
0.0
  0
LINE
  5
E46F
  8
SUNPOU
  6
CONTINUOUS
 62
     4
 10
22622.538921782991
 20
12556.50733742195
 30
0.0
 11
22382.538921782991
 21
12556.50733742195
 31
0.0
  0
LINE
  5
E470
  8
SUNPOU
  6
CONTINUOUS
 62
     4
 10
22665.04116478295
 20
12556.50733742195
 30
0.0
 11
22622.538921782991
 21
12556.50733742195
 31
0.0
  0
LINE
  5
E471
  8
SUNPOU
  6
CONTINUOUS
 62
     4
 10
25933.541164782961
 20
12822.191987421949
 30
0.0
 11
25933.541164782961
 21
12476.50733742195
 31
0.0
  0
LINE
  5
E472
  8
SUNPOU
  6
CONTINUOUS
 62
     4
 10
25976.04340778296
 20
13405.458126421951
 30
0.0
 11
25976.04340778296
 21
12476.50733742195
 31
0.0
  0
LINE
  5
E473
  8
SUNPOU
  6
CONTINUOUS
 62
     4
 10
25933.541164782961
 20
12556.50733742195
 30
0.0
 11
25693.541164782961
 21
12556.50733742195
 31
0.0
  0
LINE
  5
E474
  8
SUNPOU
  6
CONTINUOUS
 62
     4
 10
25976.04340778296
 20
12556.50733742195
 30
0.0
 11
26216.04340778296
 21
12556.50733742195
 31
0.0
  0
LINE
  5
E475
  8
SUNPOU
  6
CONTINUOUS
 62
     4
 10
25933.541164782961
 20
12556.50733742195
 30
0.0
 11
25976.04340778296
 21
12556.50733742195
 31
0.0
  0
LINE
  5
E476
  8
SUNPOU
  6
CONTINUOUS
 62
     4
 10
25933.541164782961
 20
13527.95542142195
 30
0.0
 11
25933.541164782961
 21
12476.50733742195
 31
0.0
  0
LINE
  5
E477
  8
SUNPOU
  6
CONTINUOUS
 62
     4
 10
25891.038921782969
 20
13405.458126421951
 30
0.0
 11
25891.038921782969
 21
12476.50733742195
 31
0.0
  0
LINE
  5
E478
  8
SUNPOU
  6
CONTINUOUS
 62
     4
 10
25933.541164782961
 20
12556.50733742195
 30
0.0
 11
26173.541164782961
 21
12556.50733742195
 31
0.0
  0
LINE
  5
E479
  8
SUNPOU
  6
CONTINUOUS
 62
     4
 10
25891.038921782969
 20
12556.50733742195
 30
0.0
 11
25651.038921782969
 21
12556.50733742195
 31
0.0
  0
LINE
  5
E47A
  8
SUNPOU
  6
CONTINUOUS
 62
     4
 10
25933.541164782961
 20
12556.50733742195
 30
0.0
 11
25891.038921782969
 21
12556.50733742195
 31
0.0
  0
LINE
  5
E47B
  8
SUNPOU
  6
CONTINUOUS
 62
     4
 10
22665.04116478295
 20
13527.95542142195
 30
0.0
 11
22665.04116478295
 21
12476.50733742195
 31
0.0
  0
LINE
  5
E47C
  8
SUNPOU
  6
CONTINUOUS
 62
     4
 10
22707.543407782949
 20
13405.458126421951
 30
0.0
 11
22707.543407782949
 21
12476.50733742195
 31
0.0
  0
LINE
  5
E47D
  8
SUNPOU
  6
CONTINUOUS
 62
     4
 10
22665.04116478295
 20
12556.50733742195
 30
0.0
 11
22425.04116478295
 21
12556.50733742195
 31
0.0
  0
LINE
  5
E47E
  8
SUNPOU
  6
CONTINUOUS
 62
     4
 10
22707.543407782949
 20
12556.50733742195
 30
0.0
 11
22947.543407782949
 21
12556.50733742195
 31
0.0
  0
LINE
  5
E47F
  8
SUNPOU
  6
CONTINUOUS
 62
     4
 10
22665.04116478295
 20
12556.50733742195
 30
0.0
 11
22707.543407782949
 21
12556.50733742195
 31
0.0
  0
LINE
  5
E480
  8
SUNPOU
  6
CONTINUOUS
 62
     4
 10
22622.538921782991
 20
13405.458126421951
 30
0.0
 11
22622.538921782991
 21
12076.50733742195
 31
0.0
  0
LINE
  5
E481
  8
SUNPOU
  6
CONTINUOUS
 62
     4
 10
25976.04340778296
 20
13405.458126421951
 30
0.0
 11
25976.04340778296
 21
12076.50733742195
 31
0.0
  0
LINE
  5
E482
  8
SUNPOU
  6
CONTINUOUS
 62
     4
 10
22622.538921782991
 20
12156.50733742195
 30
0.0
 11
25976.04340778296
 21
12156.50733742195
 31
0.0
  0
LINE
  5
E483
  8
SUNPOU
  6
CONTINUOUS
 62
     4
 10
26056.039448782951
 20
13935.45542142195
 30
0.0
 11
27106.04076878295
 21
13935.45542142195
 31
0.0
  0
LINE
  5
E484
  8
SUNPOU
  6
CONTINUOUS
 62
     4
 10
26906.040768782961
 20
13527.95542142195
 30
0.0
 11
27106.04076878295
 21
13527.95542142195
 31
0.0
  0
LINE
  5
E485
  8
SUNPOU
  6
CONTINUOUS
 62
     4
 10
27026.04076878295
 20
13935.45542142195
 30
0.0
 11
27026.04076878295
 21
13527.95542142195
 31
0.0
  0
LINE
  5
E486
  8
SUNPOU
  6
CONTINUOUS
 62
     4
 10
26056.039448782951
 20
14636.45542142195
 30
0.0
 11
27106.04076878295
 21
14636.45542142195
 31
0.0
  0
LINE
  5
E487
  8
SUNPOU
  6
CONTINUOUS
 62
     4
 10
26056.039448782951
 20
13935.45542142195
 30
0.0
 11
27106.04076878295
 21
13935.45542142195
 31
0.0
  0
LINE
  5
E488
  8
SUNPOU
  6
CONTINUOUS
 62
     4
 10
27026.04076878295
 20
14636.45542142195
 30
0.0
 11
27026.04076878295
 21
13935.45542142195
 31
0.0
  0
LINE
  5
E489
  8
SUNPOU
  6
CONTINUOUS
 62
     4
 10
26056.039448782951
 20
15337.695932921961
 30
0.0
 11
27106.04076878295
 21
15337.695932921961
 31
0.0
  0
LINE
  5
E48A
  8
SUNPOU
  6
CONTINUOUS
 62
     4
 10
26056.039448782951
 20
14636.45542142195
 30
0.0
 11
27106.04076878295
 21
14636.45542142195
 31
0.0
  0
LINE
  5
E48B
  8
SUNPOU
  6
CONTINUOUS
 62
     4
 10
27026.04076878295
 20
15337.695932921961
 30
0.0
 11
27026.04076878295
 21
14636.45542142195
 31
0.0
  0
LINE
  5
E48C
  8
SUNPOU
  6
CONTINUOUS
 62
     4
 10
26056.039448782951
 20
16038.45542142195
 30
0.0
 11
27106.04076878295
 21
16038.45542142195
 31
0.0
  0
LINE
  5
E48D
  8
SUNPOU
  6
CONTINUOUS
 62
     4
 10
26056.039448782951
 20
15337.695932921961
 30
0.0
 11
27106.04076878295
 21
15337.695932921961
 31
0.0
  0
LINE
  5
E48E
  8
SUNPOU
  6
CONTINUOUS
 62
     4
 10
27026.04076878295
 20
16038.45542142195
 30
0.0
 11
27026.04076878295
 21
15337.695932921961
 31
0.0
  0
LINE
  5
E48F
  8
SUNPOU
  6
CONTINUOUS
 62
     4
 10
26906.040768782961
 20
16796.455421421939
 30
0.0
 11
27106.04076878295
 21
16796.455421421939
 31
0.0
  0
LINE
  5
E490
  8
SUNPOU
  6
CONTINUOUS
 62
     4
 10
26056.039448782951
 20
16038.45542142195
 30
0.0
 11
27106.04076878295
 21
16038.45542142195
 31
0.0
  0
LINE
  5
E491
  8
SUNPOU
  6
CONTINUOUS
 62
     4
 10
27026.04076878295
 20
16796.455421421939
 30
0.0
 11
27026.04076878295
 21
16038.45542142195
 31
0.0
  0
LINE
  5
E492
  8
SUNPOU
  6
CONTINUOUS
 62
     4
 10
26056.039448782951
 20
17554.455421421939
 30
0.0
 11
27106.04076878295
 21
17554.455421421939
 31
0.0
  0
LINE
  5
E493
  8
SUNPOU
  6
CONTINUOUS
 62
     4
 10
26906.040768782961
 20
16796.455421421939
 30
0.0
 11
27106.04076878295
 21
16796.455421421939
 31
0.0
  0
LINE
  5
E494
  8
SUNPOU
  6
CONTINUOUS
 62
     4
 10
27026.04076878295
 20
17554.455421421939
 30
0.0
 11
27026.04076878295
 21
16796.455421421939
 31
0.0
  0
LINE
  5
E495
  8
SUNPOU
  6
CONTINUOUS
 62
     4
 10
26056.039448782951
 20
18255.455421421939
 30
0.0
 11
27106.04076878295
 21
18255.455421421939
 31
0.0
  0
LINE
  5
E496
  8
SUNPOU
  6
CONTINUOUS
 62
     4
 10
26056.039448782951
 20
17554.455421421939
 30
0.0
 11
27106.04076878295
 21
17554.455421421939
 31
0.0
  0
LINE
  5
E497
  8
SUNPOU
  6
CONTINUOUS
 62
     4
 10
27026.04076878295
 20
18255.455421421939
 30
0.0
 11
27026.04076878295
 21
17554.455421421939
 31
0.0
  0
LINE
  5
E498
  8
SUNPOU
  6
CONTINUOUS
 62
     4
 10
26056.039448782951
 20
18956.455421421961
 30
0.0
 11
27106.04076878295
 21
18956.455421421939
 31
0.0
  0
LINE
  5
E499
  8
SUNPOU
  6
CONTINUOUS
 62
     4
 10
26056.039448782951
 20
18255.455421421939
 30
0.0
 11
27106.04076878295
 21
18255.455421421939
 31
0.0
  0
LINE
  5
E49A
  8
SUNPOU
  6
CONTINUOUS
 62
     4
 10
27026.04076878295
 20
18956.455421421939
 30
0.0
 11
27026.04076878295
 21
18255.455421421939
 31
0.0
  0
LINE
  5
E49B
  8
SUNPOU
  6
CONTINUOUS
 62
     4
 10
26906.040768782961
 20
19714.45542142195
 30
0.0
 11
27106.04076878295
 21
19714.45542142195
 31
0.0
  0
LINE
  5
E49C
  8
SUNPOU
  6
CONTINUOUS
 62
     4
 10
26056.039448782951
 20
18956.455421421961
 30
0.0
 11
27106.04076878295
 21
18956.455421421939
 31
0.0
  0
LINE
  5
E49D
  8
SUNPOU
  6
CONTINUOUS
 62
     4
 10
27026.04076878295
 20
19714.45542142195
 30
0.0
 11
27026.04076878295
 21
18956.455421421939
 31
0.0
  0
LINE
  5
E49E
  8
SUNPOU
  6
CONTINUOUS
 62
     4
 10
26906.040768782961
 20
19714.45542142195
 30
0.0
 11
27106.04076878295
 21
19714.45542142195
 31
0.0
  0
LINE
  5
E49F
  8
SUNPOU
  6
CONTINUOUS
 62
     4
 10
26906.040768782961
 20
13527.95542142195
 30
0.0
 11
27106.04076878295
 21
13527.95542142195
 31
0.0
  0
LINE
  5
E4A0
  8
SUNPOU
  6
CONTINUOUS
 62
     4
 10
26056.039448782951
 20
19756.952716421951
 30
0.0
 11
27506.040768782968
 21
19756.952716421929
 31
0.0
  0
LINE
  5
E4A1
  8
SUNPOU
  6
CONTINUOUS
 62
     4
 10
26056.039448782951
 20
13485.458126421951
 30
0.0
 11
27506.040768782968
 21
13485.458126421951
 31
0.0
  0
LINE
  5
E4A2
  8
SUNPOU
  6
CONTINUOUS
 62
     4
 10
27426.040768782968
 20
19756.952716421929
 30
0.0
 11
27426.040768782968
 21
13485.458126421951
 31
0.0
  0
LINE
  5
E4A3
  8
SUNPOU
  6
CONTINUOUS
 62
     4
 10
26906.040768782961
 20
19714.45542142195
 30
0.0
 11
27106.04076878295
 21
19714.45542142195
 31
0.0
  0
LINE
  5
E4A4
  8
SUNPOU
  6
CONTINUOUS
 62
     4
 10
26056.039448782951
 20
19756.952716421951
 30
0.0
 11
27106.04076878295
 21
19756.952716421929
 31
0.0
  0
LINE
  5
E4A5
  8
SUNPOU
  6
CONTINUOUS
 62
     4
 10
27026.04076878295
 20
19714.45542142195
 30
0.0
 11
27026.04076878295
 21
19474.45542142195
 31
0.0
  0
LINE
  5
E4A6
  8
SUNPOU
  6
CONTINUOUS
 62
     4
 10
27026.04076878295
 20
19756.952716421929
 30
0.0
 11
27026.04076878295
 21
19996.952716421929
 31
0.0
  0
LINE
  5
E4A7
  8
SUNPOU
  6
CONTINUOUS
 62
     4
 10
27026.04076878295
 20
19714.45542142195
 30
0.0
 11
27026.04076878295
 21
19756.952716421929
 31
0.0
  0
LINE
  5
E4A8
  8
SUNPOU
  6
CONTINUOUS
 62
     4
 10
26906.040768782961
 20
13527.95542142195
 30
0.0
 11
27106.04076878295
 21
13527.95542142195
 31
0.0
  0
LINE
  5
E4A9
  8
SUNPOU
  6
CONTINUOUS
 62
     4
 10
26056.039448782951
 20
13485.458126421951
 30
0.0
 11
27106.04076878295
 21
13485.458126421951
 31
0.0
  0
LINE
  5
E4AA
  8
SUNPOU
  6
CONTINUOUS
 62
     4
 10
27026.04076878295
 20
13527.95542142195
 30
0.0
 11
27026.04076878295
 21
13767.955421421961
 31
0.0
  0
LINE
  5
E4AB
  8
SUNPOU
  6
CONTINUOUS
 62
     4
 10
27026.04076878295
 20
13485.458126421951
 30
0.0
 11
27026.04076878295
 21
13245.458126421951
 31
0.0
  0
LINE
  5
E4AC
  8
SUNPOU
  6
CONTINUOUS
 62
     4
 10
27026.04076878295
 20
13527.95542142195
 30
0.0
 11
27026.04076878295
 21
13485.458126421951
 31
0.0
  0
TEXT
  5
E4AD
  8
0
  6
CONTINUOUS
 62
     7
 10
26946.040768782961
 20
12911.90189002517
 30
0.0
 40
160.0
  1
42.5
 50
90.0
  0
TEXT
  5
E4AE
  8
0
  6
CONTINUOUS
 62
     7
 10
26946.040768782961
 20
19850.508952818749
 30
0.0
 40
160.0
  1
42.5
 50
90.0
  0
TEXT
  5
E4AF
  8
0
  6
CONTINUOUS
 62
     7
 10
27346.040768782968
 20
16247.87208808863
 30
0.0
 40
160.0
  1
6271.5
 50
90.0
  0
TEXT
  5
E4B0
  8
0
  6
CONTINUOUS
 62
     7
 10
26946.040768782961
 20
19122.122088088621
 30
0.0
 40
160.0
  1
758
 50
90.0
  0
TEXT
  5
E4B1
  8
0
  6
CONTINUOUS
 62
     7
 10
26946.040768782961
 20
18432.62208808861
 30
0.0
 40
160.0
  1
701
 50
90.0
  0
TEXT
  5
E4B2
  8
0
  6
CONTINUOUS
 62
     7
 10
26946.040768782961
 20
17731.622088088621
 30
0.0
 40
160.0
  1
701
 50
90.0
  0
TEXT
  5
E4B3
  8
0
  6
CONTINUOUS
 62
     7
 10
26946.040768782961
 20
16962.122088088599
 30
0.0
 40
160.0
  1
758
 50
90.0
  0
TEXT
  5
E4B4
  8
0
  6
CONTINUOUS
 62
     7
 10
26946.040768782961
 20
16204.122088088619
 30
0.0
 40
160.0
  1
758
 50
90.0
  0
TEXT
  5
E4B5
  8
0
  6
CONTINUOUS
 62
     7
 10
26946.040768782961
 20
15514.74234383863
 30
0.0
 40
160.0
  1
701
 50
90.0
  0
TEXT
  5
E4B6
  8
0
  6
CONTINUOUS
 62
     7
 10
26946.040768782961
 20
14813.74234383863
 30
0.0
 40
160.0
  1
701
 50
90.0
  0
TEXT
  5
E4B7
  8
0
  6
CONTINUOUS
 62
     7
 10
26946.040768782961
 20
14112.62208808861
 30
0.0
 40
160.0
  1
701
 50
90.0
  0
TEXT
  5
E4B8
  8
0
  6
CONTINUOUS
 62
     7
 10
27306.04076878295
 20
13600.775835625491
 30
0.0
 40
160.0
  1
407.5
 50
90.0
  0
TEXT
  5
E4B9
  8
0
  6
CONTINUOUS
 62
     7
 10
23899.291164782961
 20
12236.50733742195
 30
0.0
 40
160.0
  1
3353.5
  0
TEXT
  5
E4BA
  8
0
  6
CONTINUOUS
 62
     7
 10
22783.094837165048
 20
12636.50733742195
 30
0.0
 40
160.0
  1
42.5
  0
TEXT
  5
E4BB
  8
0
  6
CONTINUOUS
 62
     7
 10
25335.487492400862
 20
12636.50733742195
 30
0.0
 40
160.0
  1
42.5
  0
TEXT
  5
E4BC
  8
0
  6
CONTINUOUS
 62
     7
 10
26051.594837165048
 20
12636.50733742195
 30
0.0
 40
160.0
  1
42.5
  0
TEXT
  5
E4BD
  8
0
  6
CONTINUOUS
 62
     7
 10
22066.987492400869
 20
12636.50733742195
 30
0.0
 40
160.0
  1
42.5
  0
ARC
  5
E4BE
  8
0
  6
BYBLOCK
 62
     0
 10
22665.04116478295
 20
12556.50733742195
 30
0.0
 40
15.0
 50
0.0
 51
180.0
  0
ARC
  5
E4BF
  8
0
  6
BYBLOCK
 62
     0
 10
22665.04116478295
 20
12556.50733742195
 30
0.0
 40
15.0
 50
180.0
 51
0.0
  0
ARC
  5
E4C0
  8
0
  6
BYBLOCK
 62
     0
 10
22622.538921782991
 20
12556.50733742195
 30
0.0
 40
15.0
 50
180.0
 51
0.0
  0
ARC
  5
E4C1
  8
0
  6
BYBLOCK
 62
     0
 10
22622.538921782991
 20
12556.50733742195
 30
0.0
 40
15.0
 50
0.0
 51
180.0
  0
ARC
  5
E4C2
  8
0
  6
BYBLOCK
 62
     0
 10
25933.541164782961
 20
12556.50733742195
 30
0.0
 40
15.0
 50
180.0
 51
0.0
  0
ARC
  5
E4C3
  8
0
  6
BYBLOCK
 62
     0
 10
25933.541164782961
 20
12556.50733742195
 30
0.0
 40
15.0
 50
0.0
 51
180.0
  0
ARC
  5
E4C4
  8
0
  6
BYBLOCK
 62
     0
 10
25976.04340778296
 20
12556.50733742195
 30
0.0
 40
15.0
 50
0.0
 51
180.0
  0
ARC
  5
E4C5
  8
0
  6
BYBLOCK
 62
     0
 10
25976.04340778296
 20
12556.50733742195
 30
0.0
 40
15.0
 50
180.0
 51
0.0
  0
ARC
  5
E4C6
  8
0
  6
BYBLOCK
 62
     0
 10
25933.541164782961
 20
12556.50733742195
 30
0.0
 40
15.0
 50
0.0
 51
180.0
  0
ARC
  5
E4C7
  8
0
  6
BYBLOCK
 62
     0
 10
25933.541164782961
 20
12556.50733742195
 30
0.0
 40
15.0
 50
180.0
 51
0.0
  0
ARC
  5
E4C8
  8
0
  6
BYBLOCK
 62
     0
 10
25891.038921782969
 20
12556.50733742195
 30
0.0
 40
15.0
 50
180.0
 51
0.0
  0
ARC
  5
E4C9
  8
0
  6
BYBLOCK
 62
     0
 10
25891.038921782969
 20
12556.50733742195
 30
0.0
 40
15.0
 50
0.0
 51
180.0
  0
ARC
  5
E4CA
  8
0
  6
BYBLOCK
 62
     0
 10
22665.04116478295
 20
12556.50733742195
 30
0.0
 40
15.0
 50
180.0
 51
0.0
  0
ARC
  5
E4CB
  8
0
  6
BYBLOCK
 62
     0
 10
22665.04116478295
 20
12556.50733742195
 30
0.0
 40
15.0
 50
0.0
 51
180.0
  0
ARC
  5
E4CC
  8
0
  6
BYBLOCK
 62
     0
 10
22707.543407782949
 20
12556.50733742195
 30
0.0
 40
15.0
 50
0.0
 51
180.0
  0
ARC
  5
E4CD
  8
0
  6
BYBLOCK
 62
     0
 10
22707.543407782949
 20
12556.50733742195
 30
0.0
 40
15.0
 50
180.0
 51
0.0
  0
ARC
  5
E4CE
  8
0
  6
BYBLOCK
 62
     0
 10
22622.538921782991
 20
12156.50733742195
 30
0.0
 40
15.0
 50
0.0
 51
180.0
  0
ARC
  5
E4CF
  8
0
  6
BYBLOCK
 62
     0
 10
22622.538921782991
 20
12156.50733742195
 30
0.0
 40
15.0
 50
180.0
 51
0.0
  0
ARC
  5
E4D0
  8
0
  6
BYBLOCK
 62
     0
 10
25976.04340778296
 20
12156.50733742195
 30
0.0
 40
15.0
 50
180.0
 51
0.0
  0
ARC
  5
E4D1
  8
0
  6
BYBLOCK
 62
     0
 10
25976.04340778296
 20
12156.50733742195
 30
0.0
 40
15.0
 50
0.0
 51
180.0
  0
ARC
  5
E4D2
  8
0
  6
BYBLOCK
 62
     0
 10
27026.04076878295
 20
13935.45542142195
 30
0.0
 40
15.0
 50
270.0
 51
90.0
  0
ARC
  5
E4D3
  8
0
  6
BYBLOCK
 62
     0
 10
27026.04076878295
 20
13935.45542142195
 30
0.0
 40
15.0
 50
90.0
 51
270.0
  0
ARC
  5
E4D4
  8
0
  6
BYBLOCK
 62
     0
 10
27026.04076878295
 20
13527.95542142195
 30
0.0
 40
15.0
 50
90.0
 51
270.0
  0
ARC
  5
E4D5
  8
0
  6
BYBLOCK
 62
     0
 10
27026.04076878295
 20
13527.95542142195
 30
0.0
 40
15.0
 50
270.0
 51
90.0
  0
ARC
  5
E4D6
  8
0
  6
BYBLOCK
 62
     0
 10
27026.04076878295
 20
14636.45542142195
 30
0.0
 40
15.0
 50
270.0
 51
90.0
  0
ARC
  5
E4D7
  8
0
  6
BYBLOCK
 62
     0
 10
27026.04076878295
 20
14636.45542142195
 30
0.0
 40
15.0
 50
90.0
 51
270.0
  0
ARC
  5
E4D8
  8
0
  6
BYBLOCK
 62
     0
 10
27026.04076878295
 20
13935.45542142195
 30
0.0
 40
15.0
 50
90.0
 51
270.0
  0
ARC
  5
E4D9
  8
0
  6
BYBLOCK
 62
     0
 10
27026.04076878295
 20
13935.45542142195
 30
0.0
 40
15.0
 50
270.0
 51
90.0
  0
ARC
  5
E4DA
  8
0
  6
BYBLOCK
 62
     0
 10
27026.04076878295
 20
15337.695932921961
 30
0.0
 40
15.0
 50
270.0
 51
90.0
  0
ARC
  5
E4DB
  8
0
  6
BYBLOCK
 62
     0
 10
27026.04076878295
 20
15337.695932921961
 30
0.0
 40
15.0
 50
90.0
 51
270.0
  0
ARC
  5
E4DC
  8
0
  6
BYBLOCK
 62
     0
 10
27026.04076878295
 20
14636.45542142195
 30
0.0
 40
15.0
 50
90.0
 51
270.0
  0
ARC
  5
E4DD
  8
0
  6
BYBLOCK
 62
     0
 10
27026.04076878295
 20
14636.45542142195
 30
0.0
 40
15.0
 50
270.0
 51
90.0
  0
ARC
  5
E4DE
  8
0
  6
BYBLOCK
 62
     0
 10
27026.04076878295
 20
16038.45542142195
 30
0.0
 40
15.0
 50
270.0
 51
90.0
  0
ARC
  5
E4DF
  8
0
  6
BYBLOCK
 62
     0
 10
27026.04076878295
 20
16038.45542142195
 30
0.0
 40
15.0
 50
90.0
 51
270.0
  0
ARC
  5
E4E0
  8
0
  6
BYBLOCK
 62
     0
 10
27026.04076878295
 20
15337.695932921961
 30
0.0
 40
15.0
 50
90.0
 51
270.0
  0
ARC
  5
E4E1
  8
0
  6
BYBLOCK
 62
     0
 10
27026.04076878295
 20
15337.695932921961
 30
0.0
 40
15.0
 50
270.0
 51
90.0
  0
ARC
  5
E4E2
  8
0
  6
BYBLOCK
 62
     0
 10
27026.04076878295
 20
16796.455421421939
 30
0.0
 40
15.0
 50
270.0
 51
90.0
  0
ARC
  5
E4E3
  8
0
  6
BYBLOCK
 62
     0
 10
27026.04076878295
 20
16796.455421421939
 30
0.0
 40
15.0
 50
90.0
 51
270.0
  0
ARC
  5
E4E4
  8
0
  6
BYBLOCK
 62
     0
 10
27026.04076878295
 20
16038.45542142195
 30
0.0
 40
15.0
 50
90.0
 51
270.0
  0
ARC
  5
E4E5
  8
0
  6
BYBLOCK
 62
     0
 10
27026.04076878295
 20
16038.45542142195
 30
0.0
 40
15.0
 50
270.0
 51
90.0
  0
ARC
  5
E4E6
  8
0
  6
BYBLOCK
 62
     0
 10
27026.04076878295
 20
17554.455421421939
 30
0.0
 40
15.0
 50
270.0
 51
90.0
  0
ARC
  5
E4E7
  8
0
  6
BYBLOCK
 62
     0
 10
27026.04076878295
 20
17554.455421421939
 30
0.0
 40
15.0
 50
90.0
 51
270.0
  0
ARC
  5
E4E8
  8
0
  6
BYBLOCK
 62
     0
 10
27026.04076878295
 20
16796.455421421939
 30
0.0
 40
15.0
 50
90.0
 51
270.0
  0
ARC
  5
E4E9
  8
0
  6
BYBLOCK
 62
     0
 10
27026.04076878295
 20
16796.455421421939
 30
0.0
 40
15.0
 50
270.0
 51
90.0
  0
ARC
  5
E4EA
  8
0
  6
BYBLOCK
 62
     0
 10
27026.04076878295
 20
18255.455421421939
 30
0.0
 40
15.0
 50
270.0
 51
90.0
  0
ARC
  5
E4EB
  8
0
  6
BYBLOCK
 62
     0
 10
27026.04076878295
 20
18255.455421421939
 30
0.0
 40
15.0
 50
90.0
 51
270.0
  0
ARC
  5
E4EC
  8
0
  6
BYBLOCK
 62
     0
 10
27026.04076878295
 20
17554.455421421939
 30
0.0
 40
15.0
 50
90.0
 51
270.0
  0
ARC
  5
E4ED
  8
0
  6
BYBLOCK
 62
     0
 10
27026.04076878295
 20
17554.455421421939
 30
0.0
 40
15.0
 50
270.0
 51
90.0
  0
ARC
  5
E4EE
  8
0
  6
BYBLOCK
 62
     0
 10
27026.04076878295
 20
18956.455421421939
 30
0.0
 40
15.0
 50
270.0
 51
90.0
  0
ARC
  5
E4EF
  8
0
  6
BYBLOCK
 62
     0
 10
27026.04076878295
 20
18956.455421421939
 30
0.0
 40
15.0
 50
90.0
 51
270.0
  0
ARC
  5
E4F0
  8
0
  6
BYBLOCK
 62
     0
 10
27026.04076878295
 20
18255.455421421939
 30
0.0
 40
15.0
 50
90.0
 51
270.0
  0
ARC
  5
E4F1
  8
0
  6
BYBLOCK
 62
     0
 10
27026.04076878295
 20
18255.455421421939
 30
0.0
 40
15.0
 50
270.0
 51
90.0
  0
ARC
  5
E4F2
  8
0
  6
BYBLOCK
 62
     0
 10
27026.04076878295
 20
19714.45542142195
 30
0.0
 40
15.0
 50
270.0
 51
90.0
  0
ARC
  5
E4F3
  8
0
  6
BYBLOCK
 62
     0
 10
27026.04076878295
 20
19714.45542142195
 30
0.0
 40
15.0
 50
90.0
 51
270.0
  0
ARC
  5
E4F4
  8
0
  6
BYBLOCK
 62
     0
 10
27026.04076878295
 20
18956.455421421939
 30
0.0
 40
15.0
 50
90.0
 51
270.0
  0
ARC
  5
E4F5
  8
0
  6
BYBLOCK
 62
     0
 10
27026.04076878295
 20
18956.455421421939
 30
0.0
 40
15.0
 50
270.0
 51
90.0
  0
ARC
  5
E4F6
  8
0
  6
BYBLOCK
 62
     0
 10
27026.04076878295
 20
19714.45542142195
 30
0.0
 40
15.0
 50
270.0
 51
90.0
  0
ARC
  5
E4F7
  8
0
  6
BYBLOCK
 62
     0
 10
27026.04076878295
 20
19714.45542142195
 30
0.0
 40
15.0
 50
90.0
 51
270.0
  0
ARC
  5
E4F8
  8
0
  6
BYBLOCK
 62
     0
 10
27026.04076878295
 20
13527.95542142195
 30
0.0
 40
15.0
 50
90.0
 51
270.0
  0
ARC
  5
E4F9
  8
0
  6
BYBLOCK
 62
     0
 10
27026.04076878295
 20
13527.95542142195
 30
0.0
 40
15.0
 50
270.0
 51
90.0
  0
ARC
  5
E4FA
  8
0
  6
BYBLOCK
 62
     0
 10
27426.040768782968
 20
19756.952716421929
 30
0.0
 40
15.0
 50
270.0
 51
90.0
  0
ARC
  5
E4FB
  8
0
  6
BYBLOCK
 62
     0
 10
27426.040768782968
 20
19756.952716421929
 30
0.0
 40
15.0
 50
90.0
 51
270.0
  0
ARC
  5
E4FC
  8
0
  6
BYBLOCK
 62
     0
 10
27426.040768782968
 20
13485.458126421951
 30
0.0
 40
15.0
 50
90.0
 51
270.0
  0
ARC
  5
E4FD
  8
0
  6
BYBLOCK
 62
     0
 10
27426.040768782968
 20
13485.458126421951
 30
0.0
 40
15.0
 50
270.0
 51
90.0
  0
ARC
  5
E4FE
  8
0
  6
BYBLOCK
 62
     0
 10
27026.04076878295
 20
19714.45542142195
 30
0.0
 40
15.0
 50
270.0
 51
90.0
  0
ARC
  5
E4FF
  8
0
  6
BYBLOCK
 62
     0
 10
27026.04076878295
 20
19714.45542142195
 30
0.0
 40
15.0
 50
90.0
 51
270.0
  0
ARC
  5
E500
  8
0
  6
BYBLOCK
 62
     0
 10
27026.04076878295
 20
19756.952716421929
 30
0.0
 40
15.0
 50
90.0
 51
270.0
  0
ARC
  5
E501
  8
0
  6
BYBLOCK
 62
     0
 10
27026.04076878295
 20
19756.952716421929
 30
0.0
 40
15.0
 50
270.0
 51
90.0
  0
ARC
  5
E502
  8
0
  6
BYBLOCK
 62
     0
 10
27026.04076878295
 20
13527.95542142195
 30
0.0
 40
15.0
 50
90.0
 51
270.0
  0
ARC
  5
E503
  8
0
  6
BYBLOCK
 62
     0
 10
27026.04076878295
 20
13527.95542142195
 30
0.0
 40
15.0
 50
270.0
 51
90.0
  0
ARC
  5
E504
  8
0
  6
BYBLOCK
 62
     0
 10
27026.04076878295
 20
13485.458126421951
 30
0.0
 40
15.0
 50
270.0
 51
90.0
  0
ARC
  5
E505
  8
0
  6
BYBLOCK
 62
     0
 10
27026.04076878295
 20
13485.458126421951
 30
0.0
 40
15.0
 50
90.0
 51
270.0
  0
TEXT
  5
E5C5
  8
FILENAME
  6
CONTINUOUS
 10
26518.28571428571
 20
348.0
 30
0.0
 40
200.0
  1
＜VGC-3362+VKC-2862-L-1-A_0.DXF ＞
  7
FILENAME
 72
     2
 11
32764.0
 21
348.0
 31
0.0
  0
LINE
  5
E5CA
  8
WAKUSEN-01
 10
868.00000000000193
 20
827.99999999999955
 30
0.0
 11
32764.000000000011
 21
827.99999999999943
 31
0.0
  0
LINE
  5
E5CB
  8
WAKUSEN-01
 10
868.00000000000193
 20
827.99999999999955
 30
0.0
 11
868.00000000000193
 21
22484.000000000011
 31
0.0
  0
LINE
  5
E5CC
  8
WAKUSEN-01
 10
32764.000000000011
 20
827.99999999999943
 30
0.0
 11
32764.000000000011
 21
22484.000000000011
 31
0.0
  0
LINE
  5
E5CD
  8
WAKUSEN-01
 10
20560.0
 20
827.99999999999716
 30
0.0
 11
20560.0
 21
2484.0
 31
0.0
  0
LINE
  5
E5CE
  8
WAKUSEN-02
 10
26868.0
 20
827.99999999999261
 30
0.0
 11
26868.0
 21
2484.0
 31
0.0
  0
ENDSEC
  0
EOF
