  0
SECTION
  2
HEADER
  9
$ACADVER
  1
AC1009
  9
$INSBASE
 10
0.0
 20
0.0
 30
0.0
  9
$EXTMIN
 10
867.99324330406671
 20
327.38164749855792
 30
-0.0000000000000058
  9
$EXTMAX
 10
32765.33210850941
 20
22484.553276491992
 30
0.0000000000000104
  9
$LIMMIN
 10
0.0
 20
0.0
  9
$LIMMAX
 10
33600.0
 20
23760.0
  9
$ORTHOMODE
 70
     1
  9
$REGENMODE
 70
     1
  9
$FILLMODE
 70
     1
  9
$QTEXTMODE
 70
     0
  9
$MIRRTEXT
 70
     0
  9
$DRAGMODE
 70
     2
  9
$LTSCALE
 40
80.0
  9
$OSMODE
 70
  3071
  9
$ATTMODE
 70
     1
  9
$TEXTSIZE
 40
0.2
  9
$TRACEWID
 40
0.05
  9
$TEXTSTYLE
  7
00
  9
$CLAYER
  8
0
  9
$CELTYPE
  6
BYLAYER
  9
$CECOLOR
 62
   256
  9
$DIMSCALE
 40
1.0
  9
$DIMASZ
 40
0.18
  9
$DIMEXO
 40
0.0625
  9
$DIMDLI
 40
0.38
  9
$DIMRND
 40
0.0
  9
$DIMDLE
 40
0.0
  9
$DIMEXE
 40
0.18
  9
$DIMTP
 40
0.0
  9
$DIMTM
 40
0.0
  9
$DIMTXT
 40
0.18
  9
$DIMCEN
 40
0.09
  9
$DIMTSZ
 40
0.0
  9
$DIMTOL
 70
     0
  9
$DIMLIM
 70
     0
  9
$DIMTIH
 70
     1
  9
$DIMTOH
 70
     1
  9
$DIMSE1
 70
     0
  9
$DIMSE2
 70
     0
  9
$DIMTAD
 70
     0
  9
$DIMZIN
 70
     0
  9
$DIMBLK
  1

  9
$DIMASO
 70
     1
  9
$DIMSHO
 70
     1
  9
$DIMPOST
  1

  9
$DIMAPOST
  1

  9
$DIMALT
 70
     0
  9
$DIMALTD
 70
     2
  9
$DIMALTF
 40
25.399999999999999
  9
$DIMLFAC
 40
1.0
  9
$DIMTOFL
 70
     0
  9
$DIMTVP
 40
0.0
  9
$DIMTIX
 70
     0
  9
$DIMSOXD
 70
     0
  9
$DIMSAH
 70
     0
  9
$DIMBLK1
  1

  9
$DIMBLK2
  1

  9
$DIMSTYLE
  2
STANDARD
  9
$DIMCLRD
 70
     0
  9
$DIMCLRE
 70
     0
  9
$DIMCLRT
 70
     0
  9
$DIMTFAC
 40
1.0
  9
$DIMGAP
 40
0.09
  9
$LUNITS
 70
     2
  9
$LUPREC
 70
     4
  9
$SKETCHINC
 40
0.1
  9
$FILLETRAD
 40
0.0
  9
$AUNITS
 70
     0
  9
$AUPREC
 70
     0
  9
$MENU
  1
acad
  9
$ELEVATION
 40
0.0
  9
$PELEVATION
 40
0.0
  9
$THICKNESS
 40
0.0
  9
$LIMCHECK
 70
     0
  9
$BLIPMODE
 70
     1
  9
$CHAMFERA
 40
0.0
  9
$CHAMFERB
 40
0.0
  9
$SKPOLY
 70
     0
  9
$TDCREATE
 40
2311940.075052408
  9
$TDUPDATE
 40
2458942.4581568171
  9
$TDINDWG
 40
0.3190952431
  9
$TDUSRTIMER
 40
0.3190946644
  9
$USRTIMER
 70
     1
  9
$ANGBASE
 50
0.0
  9
$ANGDIR
 70
     0
  9
$PDMODE
 70
     0
  9
$PDSIZE
 40
0.0
  9
$PLINEWID
 40
0.0
  9
$COORDS
 70
     1
  9
$SPLFRAME
 70
     0
  9
$SPLINETYPE
 70
     6
  9
$SPLINESEGS
 70
     8
  9
$ATTDIA
 70
     1
  9
$ATTREQ
 70
     1
  9
$HANDLING
 70
     1
  9
$HANDSEED
  5
DCBB
  9
$SURFTAB1
 70
     6
  9
$SURFTAB2
 70
     6
  9
$SURFTYPE
 70
     6
  9
$SURFU
 70
     6
  9
$SURFV
 70
     6
  9
$UCSNAME
  2

  9
$UCSORG
 10
0.0
 20
0.0
 30
0.0
  9
$UCSXDIR
 10
1.0
 20
0.0
 30
0.0
  9
$UCSYDIR
 10
0.0
 20
1.0
 30
0.0
  9
$PUCSNAME
  2

  9
$PUCSORG
 10
0.0
 20
0.0
 30
0.0
  9
$PUCSXDIR
 10
1.0
 20
0.0
 30
0.0
  9
$PUCSYDIR
 10
0.0
 20
1.0
 30
0.0
  9
$USERI1
 70
     0
  9
$USERI2
 70
     0
  9
$USERI3
 70
     0
  9
$USERI4
 70
     0
  9
$USERI5
 70
     0
  9
$USERR1
 40
0.0
  9
$USERR2
 40
0.0
  9
$USERR3
 40
0.0
  9
$USERR4
 40
0.0
  9
$USERR5
 40
0.0
  9
$WORLDVIEW
 70
     1
  9
$SHADEDGE
 70
     3
  9
$SHADEDIF
 70
    70
  9
$TILEMODE
 70
     1
  9
$MAXACTVP
 70
    16
  9
$PLIMCHECK
 70
     0
  9
$PEXTMIN
 10
1.0000000000000000E+020
 20
1.0000000000000000E+020
 30
1.0000000000000000E+020
  9
$PEXTMAX
 10
-1.0000000000000000E+020
 20
-1.0000000000000000E+020
 30
-1.0000000000000000E+020
  9
$PLIMMIN
 10
0.0
 20
0.0
  9
$PLIMMAX
 10
12.0
 20
9.0
  9
$UNITMODE
 70
     0
  9
$VISRETAIN
 70
     0
  9
$PLINEGEN
 70
     1
  9
$PSLTSCALE
 70
     0
  0
ENDSEC
  0
SECTION
  2
TABLES
  0
TABLE
  2
VPORT
 70
     1
  0
VPORT
  2
*ACTIVE
 70
     0
 10
0.0
 20
0.0
 11
1.0
 21
1.0
 12
16800.0
 22
11880.0
 13
0.0
 23
0.0
 14
1.0
 24
1.0
 15
0.0
 25
0.0
 16
0.0
 26
0.0
 36
1.0
 17
0.0
 27
0.0
 37
0.0
 40
23981.023255813951
 41
2.195652173913043
 42
50.0
 43
0.0
 44
0.0
 50
0.0
 51
0.0
 71
     0
 72
 10000
 73
     1
 74
     1
 75
     0
 76
     0
 77
     0
 78
     0
  0
ENDTAB
  0
TABLE
  2
LTYPE
 70
     6
  0
LTYPE
  2
CONTINUOUS
 70
     0
  3
Solid line
 72
    65
 73
     0
 40
0.0
  0
LTYPE
  2
DASHED3
 70
     0
  3
------  ------  ------  ------  
 72
    65
 73
     2
 40
5.0
 49
3.75
 49
-1.25
  0
LTYPE
  2
CENTER2
 70
     0
  3
----------  --  ----------  --  
 72
    65
 73
     4
 40
20.0
 49
12.5
 49
-2.5
 49
2.5
 49
-2.5
  0
LTYPE
  2
HIDE-M
 70
     0
  3

 72
    65
 73
     2
 40
2.0
 49
1.0
 49
-1.0
  0
LTYPE
  2
1PL-M
 70
     0
  3

 72
    65
 73
     4
 40
15.0
 49
12.0
 49
-1.0
 49
1.0
 49
-1.0
  0
LTYPE
  2
PHANTOM2
 70
     0
  3
___ _ _ ___ _ _ ___ _ _ ___ _ _
 72
    65
 73
     6
 40
1.25
 49
0.625
 49
-0.125
 49
0.125
 49
-0.125
 49
0.125
 49
-0.125
  0
ENDTAB
  0
TABLE
  2
LAYER
 70
    24
  0
LAYER
  2
0
 70
     0
 62
     7
  6
CONTINUOUS
  0
LAYER
  2
SUNPOU
 70
     0
 62
     4
  6
CONTINUOUS
  0
LAYER
  2
0-1
 70
     0
 62
     7
  6
CONTINUOUS
  0
LAYER
  2
0-2
 70
     0
 62
     7
  6
CONTINUOUS
  0
LAYER
  2
0-5
 70
     0
 62
     7
  6
CONTINUOUS
  0
LAYER
  2
0-6
 70
     0
 62
     7
  6
CONTINUOUS
  0
LAYER
  2
2-0
 70
     0
 62
     7
  6
CONTINUOUS
  0
LAYER
  2
0-8
 70
     0
 62
     7
  6
CONTINUOUS
  0
LAYER
  2
YODOROGO
 70
     0
 62
   130
  6
CONTINUOUS
  0
LAYER
  2
WAKUSEN-01
 70
     0
 62
    50
  6
CONTINUOUS
  0
LAYER
  2
WAKUSEN-02
 70
     0
 62
   130
  6
CONTINUOUS
  0
LAYER
  2
WAKUMOJI-01
 70
     0
 62
   130
  6
CONTINUOUS
  0
LAYER
  2
FILENAME
 70
     0
 62
     7
  6
CONTINUOUS
  0
LAYER
  2
NAME
 70
     0
 62
    20
  6
CONTINUOUS
  0
LAYER
  2
0-4
 70
     0
 62
     7
  6
CONTINUOUS
  0
LAYER
  2
1-前柱P
 70
     0
 62
     3
  6
CONTINUOUS
  0
LAYER
  2
1-前柱カバ-P
 70
     0
 62
     3
  6
CONTINUOUS
  0
LAYER
  2
1-桁前P28
 70
     0
 62
     3
  6
CONTINUOUS
  0
LAYER
  2
1-後柱P
 70
     0
 62
     3
  6
CONTINUOUS
  0
LAYER
  2
1-中柱P
 70
     0
 62
     3
  6
CONTINUOUS
  0
LAYER
  2
1-後柱カバ-P
 70
     0
 62
     7
  6
CONTINUOUS
  0
LAYER
  2
1-中柱カバ-P
 70
     0
 62
     7
  6
CONTINUOUS
  0
ENDTAB
  0
TABLE
  2
STYLE
 70
     5
  0
STYLE
  2
STANDARD
 70
     0
 40
0.0
 41
1.0
 50
0.0
 71
     0
 42
0.0
  3
txt
  4
BIGFONT
  0
STYLE
  2
00
 70
     0
 40
0.0
 41
0.6666666666666666
 50
0.0
 71
     0
 42
0.2
  3
ROMANS
  4
BIGFONT
  0
STYLE
  2
01
 70
     0
 40
3.0
 41
1.0
 50
0.0
 71
     0
 42
0.2
  3
ROMANS
  4
BIGFONT
  0
STYLE
  2
WAKUMOJI
 70
     0
 40
3.0
 41
1.0
 50
0.0
 71
     0
 42
3.0
  3
SIMPLEX
  4
BIGFONT
  0
STYLE
  2
FILENAME
 70
     0
 40
200.0
 41
1.0
 50
0.0
 71
     0
 42
200.0
  3
romans
  4
bigfont
  0
ENDTAB
  0
TABLE
  2
VIEW
 70
     0
  0
ENDTAB
  0
TABLE
  2
UCS
 70
     0
  0
ENDTAB
  0
TABLE
  2
APPID
 70
    17
  0
APPID
  2
ACAD
 70
     0
  0
APPID
  2
ACADANNOTATIVE
 70
     0
  0
APPID
  2
ACAD_PSEXT
 70
     0
  0
APPID
  2
DCO15
 70
     0
  0
APPID
  2
ACAD_MLEADERVER
 70
     0
  0
APPID
  2
AUTOCAD_POSTSCRIPT_FIGURE
 70
     0
  0
APPID
  2
ACAD_EXEMPT_FROM_CAD_STANDARDS
 70
     0
  0
APPID
  2
ACLAYERTOOLS
 70
     0
  0
APPID
  2
ACAD_DSTYLE_DIMJAG
 70
     0
  0
APPID
  2
ACAD_DSTYLE_DIMTALN
 70
     0
  0
APPID
  2
ACAECLAYERSTANDARD
 70
     0
  0
APPID
  2
ACAD_DSTYLE_DIMBREAK
 70
     0
  0
APPID
  2
ACAD_DSTYLE_DIM_LINETYPE
 70
     0
  0
APPID
  2
ACAD_DSTYLE_DIM_EXT1_LINETYPE
 70
     0
  0
APPID
  2
ACAD_DSTYLE_DIM_EXT2_LINETYPE
 70
     0
  0
APPID
  2
ACAD_DSTYLE_DIMFLIPARROW_W
 70
     0
  0
APPID
  2
ACAD_NAV_VCDISPLAY
 70
     0
  0
ENDTAB
  0
TABLE
  2
DIMSTYLE
 70
     2
  0
DIMSTYLE
  2
STANDARD
 70
     0
  3

  4

  5

  6

  7

 40
1.0
 41
0.18
 42
0.0625
 43
0.38
 44
0.18
 45
0.0
 46
0.0
 47
0.0
 48
0.0
140
0.18
141
0.09
142
0.0
143
25.399999999999999
144
1.0
145
0.0
146
1.0
147
0.09
 71
     0
 72
     0
 73
     1
 74
     1
 75
     0
 76
     0
 77
     0
 78
     0
170
     0
171
     2
172
     0
173
     0
174
     0
175
     0
176
     0
177
     0
178
     0
  0
ENDTAB
  0
ENDSEC
  0
SECTION
  2
BLOCKS
  0
BLOCK
  8
0
  2
$MODEL_SPACE
 70
     0
 10
0.0
 20
0.0
 30
0.0
  3
$MODEL_SPACE
  1

  0
ENDBLK
  5
CC04
  8
0
  0
BLOCK
 67
     1
  8
0
  2
$PAPER_SPACE
 70
     0
 10
0.0
 20
0.0
 30
0.0
  3
$PAPER_SPACE
  1

  0
ENDBLK
  5
CC00
 67
     1
  8
0
  0
ENDSEC
  0
SECTION
  2
ENTITIES
  0
CIRCLE
  5
CC3E
  8
0-5
  6
CONTINUOUS
 62
     4
 10
15183.09822873439
 20
1421.969151421961
 30
0.0
 40
20.0
  0
ARC
  5
CC3F
  8
0-5
  6
CONTINUOUS
 62
     4
 10
15183.09822873439
 20
1421.969151421961
 30
0.0
 40
20.0
 50
180.0
 51
0.0
  0
ARC
  5
CC40
  8
0-5
  6
CONTINUOUS
 62
     4
 10
15183.09822873439
 20
1421.969151421961
 30
0.0
 40
20.0
 50
0.0
 51
179.99998500000001
  0
CIRCLE
  5
CC41
  8
0-5
  6
CONTINUOUS
 62
     4
 10
15183.09822873439
 20
1821.968491421959
 30
0.0
 40
20.0
  0
ARC
  5
CC42
  8
0-5
  6
CONTINUOUS
 62
     4
 10
15183.09822873439
 20
1821.968491421959
 30
0.0
 40
20.0
 50
180.0
 51
0.0
  0
ARC
  5
CC43
  8
0-5
  6
CONTINUOUS
 62
     4
 10
15183.09822873439
 20
1821.968491421959
 30
0.0
 40
20.0
 50
0.0
 51
179.99998500000001
  0
TEXT
  5
CC44
  8
0-5
  6
CONTINUOUS
 62
     7
 10
16715.598954734382
 20
1701.968961421959
 30
0.0
 40
160.0
  1
H
  0
TEXT
  5
CC45
  8
0-5
  6
CONTINUOUS
 62
     7
 10
15230.52848373439
 20
1701.968961421959
 30
0.0
 40
160.0
  1
（ ）内寸法ハ、  タイプヲ示ス。
  0
TEXT
  5
CC46
  8
0-5
  6
CONTINUOUS
 62
     7
 10
15343.09776673439
 20
1301.96863142196
 30
0.0
 40
160.0
  1
有効高サハ、基礎高サヲ含ミマセン。
  0
TEXT
  5
CC47
  8
2-0
  6
CONTINUOUS
 62
     7
 10
22832.576509940442
 20
3338.771758421959
 30
0.0
 40
160.0
  1
正 面 立 面 図
 72
     4
 11
23477.90984327377
 21
3418.771758421959
 31
0.0
  0
TEXT
  5
CC48
  8
2-0
  6
CONTINUOUS
 62
     7
 10
9149.8649603458252
 20
3310.0360764219599
 30
0.0
 40
160.0
  1
側 面 立 面 図
 50
0.000139
 72
     4
 11
9795.1980995966478
 21
3390.0376420053349
 31
0.0
  0
TEXT
  5
CC49
  8
2-0
  6
CONTINUOUS
 62
     7
 10
11146.69028473427
 20
3337.2330110053349
 30
0.0
 40
160.0
  1
1
 72
     4
 11
11173.35695140094
 21
3417.2330110053349
 31
0.0
  0
TEXT
  5
CC4A
  8
2-0
  6
CONTINUOUS
 62
     7
 10
11389.779001984951
 20
3257.2344790053371
 30
0.0
 40
160.0
  1
80
 72
     4
 11
11509.779001984951
 21
3337.2344790053362
 31
0.0
  0
TEXT
  5
CC4B
  8
2-0
  6
CONTINUOUS
 62
     7
 10
10647.69225073427
 20
3310.0376420053349
 30
0.0
 40
160.0
  1
(S=  /   )
 72
     4
 11
11207.69225073427
 21
3390.0376420053349
 31
0.0
  0
TEXT
  5
CC4C
  8
2-0
  6
CONTINUOUS
 62
     7
 10
24829.402028411379
 20
3365.96712742196
 30
0.0
 40
160.0
  1
1
 72
     4
 11
24856.068695078051
 21
3445.96712742196
 31
0.0
  0
TEXT
  5
CC4D
  8
2-0
  6
CONTINUOUS
 62
     7
 10
25072.490745662089
 20
3285.9685954219608
 30
0.0
 40
160.0
  1
80
 72
     4
 11
25192.490745662089
 21
3365.9685954219608
 31
0.0
  0
TEXT
  5
CC4E
  8
2-0
  6
CONTINUOUS
 62
     7
 10
24330.403994411379
 20
3338.771758421959
 30
0.0
 40
160.0
  1
(S=  /   )
 72
     4
 11
24890.403994411379
 21
3418.771758421959
 31
0.0
  0
TEXT
  5
CC4F
  8
2-0
  6
CONTINUOUS
 62
     7
 10
22429.92712756302
 20
11297.07361142196
 30
0.0
 40
160.0
  1
平　面　図
 72
     4
 11
22883.260460896359
 21
11371.74027808863
 31
0.0
  0
TEXT
  5
CC50
  8
2-0
  6
CONTINUOUS
 62
     7
 10
8610.5581317503365
 20
11202.78617242194
 30
0.0
 40
160.0
  1
小 屋 伏 図
 72
     4
 11
9111.8914650836687
 21
11282.78617242194
 31
0.0
  0
TEXT
  5
CC51
  8
2-0
  6
CONTINUOUS
 62
     7
 10
24234.75264603399
 20
11318.935647088631
 30
0.0
 40
160.0
  1
1
 72
     4
 11
24261.419312700651
 21
11398.935647088631
 31
0.0
  0
TEXT
  5
CC52
  8
2-0
  6
CONTINUOUS
 62
     7
 10
24477.841363284679
 20
11238.937115088631
 30
0.0
 40
160.0
  1
80
 72
     4
 11
24597.841363284679
 21
11318.937115088631
 31
0.0
  0
TEXT
  5
CC53
  8
2-0
  6
CONTINUOUS
 62
     7
 10
23735.754612033968
 20
11291.74027808863
 30
0.0
 40
160.0
  1
(S=  /   )
 72
     4
 11
24295.754612033968
 21
11371.74027808863
 31
0.0
  0
TEXT
  5
CC54
  8
2-0
  6
CONTINUOUS
 62
     7
 10
10463.3836502213
 20
11229.98154142195
 30
0.0
 40
160.0
  1
1
 72
     4
 11
10490.05031688797
 21
11309.98154142195
 31
0.0
  0
TEXT
  5
CC55
  8
2-0
  6
CONTINUOUS
 62
     7
 10
10706.47236747199
 20
11149.983009421951
 30
0.0
 40
160.0
  1
80
 72
     4
 11
10826.47236747199
 21
11229.983009421951
 31
0.0
  0
TEXT
  5
CC56
  8
2-0
  6
CONTINUOUS
 62
     7
 10
9964.3856162212924
 20
11202.78617242194
 30
0.0
 40
160.0
  1
(S=  /   )
 72
     4
 11
10524.385616221291
 21
11282.78617242194
 31
0.0
  0
LINE
  5
CC6F
  8
0-6
  6
CONTINUOUS
 62
     6
 10
7434.3770478352244
 20
19634.179357421941
 30
0.0
 11
7578.2781508352064
 21
20146.45501242195
 31
0.0
  0
LINE
  5
CC70
  8
0-6
  6
CONTINUOUS
 62
     6
 10
7395.987253835222
 20
19478.85445242194
 30
0.0
 11
7408.4889038352258
 21
19640.579141421949
 31
0.0
  0
LINE
  5
CC71
  8
0-6
  6
CONTINUOUS
 62
     6
 10
7460.2622228352247
 20
19627.78353342196
 30
0.0
 11
7395.987253835222
 21
19478.85445242194
 31
0.0
  0
LINE
  5
CC72
  8
0-6
  6
CONTINUOUS
 62
     6
 10
7460.2622228352247
 20
19627.78353342196
 30
0.0
 11
7408.4889038352258
 21
19640.579141421949
 31
0.0
  0
LINE
  5
CC73
  8
0-6
  6
CONTINUOUS
 62
     6
 10
7578.2781508352064
 20
20146.45501242195
 30
0.0
 11
8095.9667988352194
 21
20146.45501242195
 31
0.0
  0
LINE
  5
CC74
  8
0-6
  6
CONTINUOUS
 62
     6
 10
13838.813480835381
 20
18911.278260366718
 30
0.0
 11
13748.997773835359
 21
19046.350711366718
 31
0.0
  0
LINE
  5
CC75
  8
0-6
  6
CONTINUOUS
 62
     6
 10
13748.997773835359
 20
19046.350711366718
 30
0.0
 11
13790.15196483537
 21
18889.45010936672
 31
0.0
  0
LINE
  5
CC76
  8
0-6
  6
CONTINUOUS
 62
     6
 10
13748.997773835359
 20
19046.350711366718
 30
0.0
 11
13838.813480835381
 21
18911.278260366718
 31
0.0
  0
LINE
  5
CC77
  8
0-6
  6
CONTINUOUS
 62
     6
 10
13838.813480835381
 20
18911.278260366718
 30
0.0
 11
13790.15196483537
 21
18889.45010936672
 31
0.0
  0
LINE
  5
CC78
  8
0-6
  6
CONTINUOUS
 62
     6
 10
13790.15196483537
 20
18889.45010936672
 30
0.0
 11
13748.997773835359
 21
19046.350711366718
 31
0.0
  0
LINE
  5
CC79
  8
0-6
  6
CONTINUOUS
 62
     6
 10
13790.15196483537
 20
18889.45010936672
 30
0.0
 11
13838.813480835381
 21
18911.278260366718
 31
0.0
  0
LINE
  5
CC80
  8
0-6
  6
CONTINUOUS
 62
     6
 10
13913.523480835351
 20
18679.57165136671
 30
0.0
 11
14433.524206835369
 21
18679.57165136671
 31
0.0
  0
LINE
  5
CC81
  8
0-6
  6
CONTINUOUS
 62
     6
 10
11339.87542250452
 20
14072.84612542196
 30
0.0
 11
11422.7628145045
 21
14249.784404421949
 31
0.0
  0
LINE
  5
CC82
  8
0-6
  6
CONTINUOUS
 62
     6
 10
11422.7628145045
 20
14249.784404421949
 30
0.0
 11
12222.7634745045
 21
14249.784404421949
 31
0.0
  0
LINE
  5
CC83
  8
0-6
  6
CONTINUOUS
 62
     6
 10
11946.91854950452
 20
13563.40910042195
 30
0.0
 11
11840.64809450452
 21
13685.95614742195
 31
0.0
  0
LINE
  5
CC84
  8
0-6
  6
CONTINUOUS
 62
     6
 10
11840.64809450452
 20
13685.95614742195
 30
0.0
 11
11901.43020250452
 21
13535.567171421961
 31
0.0
  0
LINE
  5
CC85
  8
0-6
  6
CONTINUOUS
 62
     6
 10
11840.64809450452
 20
13685.95614742195
 30
0.0
 11
11946.91854950452
 21
13563.40910042195
 31
0.0
  0
LINE
  5
CC86
  8
0-6
  6
CONTINUOUS
 62
     6
 10
11946.91854950452
 20
13563.40910042195
 30
0.0
 11
11901.43020250452
 21
13535.567171421961
 31
0.0
  0
LINE
  5
CC87
  8
0-6
  6
CONTINUOUS
 62
     6
 10
11901.43020250452
 20
13535.567171421961
 30
0.0
 11
11840.64809450452
 21
13685.95614742195
 31
0.0
  0
LINE
  5
CC88
  8
0-6
  6
CONTINUOUS
 62
     6
 10
11901.43020250452
 20
13535.567171421961
 30
0.0
 11
11946.91854950452
 21
13563.40910042195
 31
0.0
  0
LINE
  5
CC89
  8
0-6
  6
CONTINUOUS
 62
     6
 10
11315.7282655045
 20
14084.158084421961
 30
0.0
 11
11272.002679504511
 21
13927.95526342196
 31
0.0
  0
LINE
  5
CC8A
  8
0-6
  6
CONTINUOUS
 62
     6
 10
11272.002679504511
 20
13927.95526342196
 30
0.0
 11
11364.02357050452
 21
14061.533176421941
 31
0.0
  0
LINE
  5
CC8B
  8
0-6
  6
CONTINUOUS
 62
     6
 10
11272.002679504511
 20
13927.95526342196
 30
0.0
 11
11315.7282655045
 21
14084.158084421961
 31
0.0
  0
LINE
  5
CC8C
  8
0-6
  6
CONTINUOUS
 62
     6
 10
11315.7282655045
 20
14084.158084421961
 30
0.0
 11
11364.02357050452
 21
14061.533176421941
 31
0.0
  0
LINE
  5
CC8D
  8
0-6
  6
CONTINUOUS
 62
     6
 10
11364.02357050452
 20
14061.533176421941
 30
0.0
 11
11272.002679504511
 21
13927.95526342196
 31
0.0
  0
LINE
  5
CC8E
  8
0-6
  6
CONTINUOUS
 62
     6
 10
11364.02357050452
 20
14061.533176421941
 30
0.0
 11
11315.7282655045
 21
14084.158084421961
 31
0.0
  0
LINE
  5
CC8F
  8
0-6
  6
CONTINUOUS
 62
     6
 10
12330.286964504499
 20
12885.95647742196
 30
0.0
 11
13192.867135504521
 21
12885.95647742196
 31
0.0
  0
LINE
  5
CC90
  8
0-6
  6
CONTINUOUS
 62
     6
 10
11924.174871504511
 20
13549.48813642196
 30
0.0
 11
12330.286964504499
 21
12885.95647742196
 31
0.0
  0
LINE
  5
CC91
  8
0-6
  6
CONTINUOUS
 62
     6
 10
13811.44861583537
 20
14258.24585642196
 30
0.0
 11
13788.997905835349
 21
14418.89170742195
 31
0.0
  0
LINE
  5
CC92
  8
0-6
  6
CONTINUOUS
 62
     6
 10
13788.997905835349
 20
14418.89170742195
 30
0.0
 11
13862.335109835371
 21
14274.21067342196
 31
0.0
  0
LINE
  5
CC93
  8
0-6
  6
CONTINUOUS
 62
     6
 10
13788.997905835349
 20
14418.89170742195
 30
0.0
 11
13811.44861583537
 21
14258.24585642196
 31
0.0
  0
LINE
  5
CC94
  8
0-6
  6
CONTINUOUS
 62
     6
 10
13811.44861583537
 20
14258.24585642196
 30
0.0
 11
13862.335109835371
 21
14274.21067342196
 31
0.0
  0
LINE
  5
CC95
  8
0-6
  6
CONTINUOUS
 62
     6
 10
13862.335109835371
 20
14274.21067342196
 30
0.0
 11
13788.997905835349
 21
14418.89170742195
 31
0.0
  0
LINE
  5
CC96
  8
0-6
  6
CONTINUOUS
 62
     6
 10
13862.335109835371
 20
14274.21067342196
 30
0.0
 11
13811.44861583537
 21
14258.24585642196
 31
0.0
  0
LINE
  5
CC97
  8
0-6
  6
CONTINUOUS
 62
     6
 10
14423.63255283535
 20
12395.95535542194
 30
0.0
 11
15503.632156835371
 21
12395.95535542194
 31
0.0
  0
LINE
  5
CC98
  8
0-6
  6
CONTINUOUS
 62
     6
 10
13836.89235783537
 20
14266.227275421939
 30
0.0
 11
14423.63255283535
 21
12395.95535542194
 31
0.0
  0
LINE
  5
CC99
  8
0-6
  6
CONTINUOUS
 62
     6
 10
13814.48321783537
 20
18900.365174366711
 30
0.0
 11
13913.523480835351
 21
18679.57165136671
 31
0.0
  0
LINE
  5
CCAD
  8
0-6
  6
CONTINUOUS
 62
     6
 10
5371.1307396134498
 20
19916.454748421958
 30
0.0
 11
5279.443397613446
 21
20050.262286421948
 31
0.0
  0
LINE
  5
CCAE
  8
0-6
  6
CONTINUOUS
 62
     6
 10
5241.0021366134451
 20
20013.294776421961
 30
0.0
 11
5371.1307396134498
 21
19916.454748421958
 31
0.0
  0
LINE
  5
CCAF
  8
0-6
  6
CONTINUOUS
 62
     6
 10
5241.0021366134451
 20
20013.294776421961
 30
0.0
 11
5279.443397613446
 21
20050.262286421948
 31
0.0
  0
LINE
  5
CCB0
  8
0-6
  6
CONTINUOUS
 62
     6
 10
5260.222271613442
 20
20031.777541421961
 30
0.0
 11
4743.2333836134494
 21
20536.455804421948
 31
0.0
  0
LINE
  5
CCB1
  8
0-6
  6
CONTINUOUS
 62
     6
 10
3068.23404361344
 20
20536.455804421948
 30
0.0
 11
4743.2333836134494
 21
20536.455804421948
 31
0.0
  0
TEXT
  5
CCB9
  8
0-6
  6
CONTINUOUS
 62
     7
 10
7658.2784148352266
 20
20226.455276421952
 30
0.0
 40
160.0
  1
屋根
 72
     4
 11
7828.9450815018954
 21
20306.455276421952
 31
0.0
  0
TEXT
  5
CCBA
  8
0-6
  6
CONTINUOUS
 62
     7
 10
11502.7620885045
 20
14329.78466842196
 30
0.0
 40
160.0
  1
桁（前）
 72
     4
 11
11822.7620885045
 21
14409.78466842196
 31
0.0
  0
TEXT
  5
CCBB
  8
0-6
  6
CONTINUOUS
 62
     7
 10
12410.286238504499
 20
12965.95575142196
 30
0.0
 40
160.0
  1
鼻隠し前
 72
     4
 11
12772.952905171171
 21
13045.95575142196
 31
0.0
  0
TEXT
  5
CCBC
  8
0-6
  6
CONTINUOUS
 62
     7
 10
14503.632816835359
 20
12475.954629421951
 30
0.0
 40
160.0
  1
ケラバ 右
 72
     4
 11
14919.632816835359
 21
12555.954629421951
 31
0.0
  0
TEXT
  5
CCBD
  8
0-6
  6
CONTINUOUS
 62
     7
 10
13993.523744835369
 20
18759.571915366709
 30
0.0
 40
160.0
  1
上枠
 72
     4
 11
14164.190411502041
 21
18839.571915366709
 31
0.0
  0
TEXT
  5
CCBE
  8
0-6
  6
CONTINUOUS
 62
     7
 10
3148.234307613448
 20
20616.45408842196
 30
0.0
 40
160.0
  1
鼻隠しコーナー後
 72
     4
 11
3894.900974280114
 21
20696.45408842196
 31
0.0
  0
LINE
  5
CCBF
  8
0-6
  6
CONTINUOUS
 62
     6
 10
5362.2790792010192
 20
14726.491338486079
 30
0.0
 11
5137.4197268453281
 21
14266.357623220039
 31
0.0
  0
LINE
  5
CCC0
  8
0-6
  6
CONTINUOUS
 62
     6
 10
19855.345410298341
 20
13238.45627942196
 30
0.0
 11
20855.344751298329
 21
13238.45627942196
 31
0.0
  0
TEXT
  5
CCC1
  8
0-6
  6
CONTINUOUS
 62
     7
 10
19951.345674298311
 20
13318.45654342194
 30
0.0
 40
160.0
  1
前柱（P）
 72
     4
 11
20351.345674298311
 21
13398.45654342194
 31
0.0
  0
LINE
  5
CCC2
  8
0-6
  6
CONTINUOUS
 62
     6
 10
19450.269046476918
 20
13824.455421421961
 30
0.0
 11
19855.345410298341
 21
13238.45627942196
 31
0.0
  0
LINE
  5
CCC3
  8
0-6
  6
CONTINUOUS
 62
     6
 10
19855.345410298341
 20
16126.01707937607
 30
0.0
 11
20855.344751298329
 21
16126.01707937607
 31
0.0
  0
TEXT
  5
CCC4
  8
0-6
  6
CONTINUOUS
 62
     7
 10
19951.345674298311
 20
16206.01734337607
 30
0.0
 40
160.0
  1
中柱（P）
 72
     4
 11
20351.345674298311
 21
16286.01734337607
 31
0.0
  0
LINE
  5
CCC5
  8
0-6
  6
CONTINUOUS
 62
     6
 10
19450.269046476918
 20
16712.01622137607
 30
0.0
 11
19855.345410298341
 21
16126.01707937607
 31
0.0
  0
LINE
  5
CCC6
  8
0-6
  6
CONTINUOUS
 62
     6
 10
19769.233695432311
 20
14439.446159250831
 30
0.0
 11
21225.233695432311
 21
14439.446159250831
 31
0.0
  0
TEXT
  5
CCC7
  8
0-6
  6
CONTINUOUS
 62
     7
 10
19809.23896868472
 20
14519.446423250811
 30
0.0
 40
160.0
  1
前柱カバー（P）
 72
     4
 11
20497.23896868472
 21
14599.446423250811
 31
0.0
  0
LINE
  5
CCC8
  8
0-6
  6
CONTINUOUS
 62
     6
 10
19469.996100141361
 20
13951.055421421959
 30
0.0
 11
19769.233695432311
 21
14439.446159250831
 31
0.0
  0
LINE
  5
CCC9
  8
0-6
  6
CONTINUOUS
 62
     6
 10
19769.233695432311
 20
17346.94572325081
 30
0.0
 11
21225.233695432311
 21
17346.94572325081
 31
0.0
  0
TEXT
  5
CCCA
  8
0-6
  6
CONTINUOUS
 62
     7
 10
19809.23896868472
 20
17426.94598725082
 30
0.0
 40
160.0
  1
中柱カバー（P）
 72
     4
 11
20497.23896868472
 21
17506.94598725082
 31
0.0
  0
LINE
  5
CCCB
  8
0-6
  6
CONTINUOUS
 62
     6
 10
19469.996100141361
 20
16858.554985421961
 30
0.0
 11
19769.233695432311
 21
17346.94572325081
 31
0.0
  0
LINE
  5
CCCC
  8
0-6
  6
CONTINUOUS
 62
     6
 10
19705.400168756201
 20
20136.976198045479
 30
0.0
 11
20705.399509756178
 21
20136.976198045479
 31
0.0
  0
TEXT
  5
CCCD
  8
0-6
  6
CONTINUOUS
 62
     7
 10
19801.400432756189
 20
20216.97646204547
 30
0.0
 40
160.0
  1
後柱（P）
 72
     4
 11
20201.400432756189
 21
20296.97646204547
 31
0.0
  0
LINE
  5
CCCE
  8
0-6
  6
CONTINUOUS
 62
     6
 10
19450.269046476918
 20
19767.893644467811
 30
0.0
 11
19705.400168756201
 21
20136.976198045479
 31
0.0
  0
LINE
  5
CCCF
  8
0-6
  6
CONTINUOUS
 62
     6
 10
19769.233695432311
 20
19132.964142593079
 30
0.0
 11
21225.233695432311
 21
19132.964142593079
 31
0.0
  0
TEXT
  5
CCD0
  8
0-6
  6
CONTINUOUS
 62
     7
 10
19809.23896868472
 20
19212.96440659307
 30
0.0
 40
160.0
  1
後柱カバー（P）
 72
     4
 11
20497.23896868472
 21
19292.96440659307
 31
0.0
  0
LINE
  5
CCD1
  8
0-6
  6
CONTINUOUS
 62
     6
 10
19469.996100141361
 20
19621.354880421961
 30
0.0
 11
19769.233695432311
 21
19132.964142593079
 31
0.0
  0
LINE
  5
CCD2
  8
0-6
  6
CONTINUOUS
 62
     6
 10
11805.66794898877
 20
16150.149297172031
 30
0.0
 11
12685.66689298878
 21
16150.149297172031
 31
0.0
  0
LINE
  5
CCD3
  8
0-6
  6
CONTINUOUS
 62
     6
 10
11627.90581164039
 20
15980.13216950169
 30
0.0
 11
11805.66794898877
 21
16150.149297172031
 31
0.0
  0
LINE
  5
CCD4
  8
0-6
  6
CONTINUOUS
 62
     6
 10
11512.278171640401
 20
15869.54240550169
 30
0.0
 11
11609.4755036404
 21
15999.404762501699
 31
0.0
  0
LINE
  5
CCD5
  8
0-6
  6
CONTINUOUS
 62
     6
 10
11646.33710864038
 20
15960.8595765017
 30
0.0
 11
11512.278171640401
 21
15869.54240550169
 31
0.0
  0
LINE
  5
CCD6
  8
0-6
  6
CONTINUOUS
 62
     6
 10
11646.33710864038
 20
15960.8595765017
 30
0.0
 11
11609.4755036404
 21
15999.404762501699
 31
0.0
  0
TEXT
  5
CCD7
  8
0-6
  6
CONTINUOUS
 62
     7
 10
11885.669202988791
 20
16230.149561172009
 30
0.0
 40
160.0
  1
ブレース
 72
     4
 11
12248.335869655461
 21
16315.48289450535
 31
0.0
  0
LINE
  5
CCD8
  8
0-6
  6
CONTINUOUS
 62
     6
 10
12384.83749229059
 20
16830.957361421952
 30
0.0
 11
12265.539873958231
 21
17146.549699421961
 31
0.0
  0
LINE
  5
CCD9
  8
0-6
  6
CONTINUOUS
 62
     6
 10
11464.969112958241
 20
17146.549699421961
 30
0.0
 11
12265.539873958231
 21
17146.549699421961
 31
0.0
  0
TEXT
  5
CCDA
  8
0-6
  6
CONTINUOUS
 62
     7
 10
11545.53947795822
 20
17226.549963421949
 30
0.0
 40
160.0
  1
桁（中）
 72
     4
 11
11865.53947795822
 21
17306.549963421949
 31
0.0
  0
LINE
  5
CCDB
  8
0-6
  6
CONTINUOUS
 62
     6
 10
7598.709057660968
 20
15412.010590459729
 30
0.0
 11
8478.7080016609743
 21
15412.010590459729
 31
0.0
  0
LINE
  5
CCDC
  8
0-6
  6
CONTINUOUS
 62
     6
 10
8846.4497072355953
 20
15879.85889709291
 30
0.0
 11
8478.7080016609743
 21
15412.010590459729
 31
0.0
  0
TEXT
  5
CCDD
  8
0-6
  6
CONTINUOUS
 62
     7
 10
7678.7103116609733
 20
15492.01085445973
 30
0.0
 40
160.0
  1
ブレース
 72
     4
 11
8041.3769783276402
 21
15577.344187793071
 31
0.0
  0
LINE
  5
CE4D
  8
2-0
  6
CENTER2
 62
     6
 10
29753.85319730116
 20
19714.45542142195
 30
0.0
 11
29033.854517301159
 21
19714.45542142195
 31
0.0
  0
LINE
  5
CE4E
  8
2-0
  6
CENTER2
 62
     6
 10
28873.854517301159
 20
19714.45542142195
 30
0.0
 11
19138.247438349241
 21
19714.45542142195
 31
0.0
  0
LINE
  5
CE4F
  8
2-0
  6
CENTER2
 62
     6
 10
29753.85319730116
 20
16796.455421421939
 30
0.0
 11
29393.853857301161
 21
16796.455421421939
 31
0.0
  0
LINE
  5
CE50
  8
2-0
  6
CENTER2
 62
     6
 10
28553.85517730116
 20
16796.455421421939
 30
0.0
 11
19138.247438349252
 21
16796.455421421939
 31
0.0
  0
LINE
  5
CE51
  8
2-0
  6
CENTER2
 62
     6
 10
29753.85319730116
 20
13878.45542142195
 30
0.0
 11
29033.854517301159
 21
13878.45542142195
 31
0.0
  0
LINE
  5
CE52
  8
2-0
  6
CENTER2
 62
     6
 10
28873.854517301159
 20
13878.45542142195
 30
0.0
 11
19138.247438349241
 21
13878.455421421961
 31
0.0
  0
CIRCLE
  5
CE53
  8
0-5
  6
CONTINUOUS
 62
     4
 10
24442.852274301182
 20
21556.956345421939
 30
0.0
 40
199.9999949999999
  0
CIRCLE
  5
CE54
  8
0-5
  6
CONTINUOUS
 62
     4
 10
29953.853857301161
 20
19714.45542142195
 30
0.0
 40
199.9999949999999
  0
CIRCLE
  5
CE55
  8
0-5
  6
CONTINUOUS
 62
     4
 10
29953.853857301161
 20
16796.455421421939
 30
0.0
 40
199.9999949999999
  0
CIRCLE
  5
CE56
  8
0-5
  6
CONTINUOUS
 62
     4
 10
29953.853857301161
 20
13878.45542142195
 30
0.0
 40
199.9999949999999
  0
CIRCLE
  5
CE57
  8
0-5
  6
CONTINUOUS
 62
     4
 10
27711.352274301182
 20
21556.956345421939
 30
0.0
 40
199.9999949999999
  0
TEXT
  5
CE58
  8
0-5
  6
CONTINUOUS
 62
     7
 10
24390.855951634509
 20
21470.730495421962
 30
0.0
 40
160.0
  1
2
 72
     4
 11
24444.189284967841
 21
21550.730495421962
 31
0.0
  0
TEXT
  5
CE59
  8
0-5
  6
CONTINUOUS
 62
     7
 10
27658.01894096785
 20
21476.956345421939
 30
0.0
 40
160.0
  1
3
 72
     4
 11
27711.352274301182
 21
21556.956345421939
 31
0.0
  0
TEXT
  5
CE5A
  8
0-5
  6
CONTINUOUS
 62
     7
 10
29895.863552634481
 20
19622.837362421938
 30
0.0
 40
160.0
  1
C
 72
     4
 11
29949.196885967809
 21
19702.837362421938
 31
0.0
  0
TEXT
  5
CE5B
  8
0-5
  6
CONTINUOUS
 62
     7
 10
29895.863552634481
 20
16704.837363421961
 30
0.0
 40
160.0
  1
B
 72
     4
 11
29949.19688596782
 21
16784.837363421961
 31
0.0
  0
TEXT
  5
CE5C
  8
0-5
  6
CONTINUOUS
 62
     7
 10
29895.863552634481
 20
13786.83736242194
 30
0.0
 40
160.0
  1
A
 72
     4
 11
29949.196885967809
 21
13866.83736242194
 31
0.0
  0
LINE
  5
CE5D
  8
2-0
  6
CENTER2
 62
     6
 10
19442.852274301182
 20
21356.95766442196
 30
0.0
 11
19442.852274301182
 21
13528.540796945959
 31
0.0
  0
CIRCLE
  5
CE5E
  8
0-5
  6
CONTINUOUS
 62
     4
 10
19442.852274301182
 20
21556.956345421939
 30
0.0
 40
199.9999949999999
  0
TEXT
  5
CE5F
  8
0-5
  6
CONTINUOUS
 62
     7
 10
19417.522618301169
 20
21470.730495421962
 30
0.0
 40
160.0
  1
1
 72
     4
 11
19444.189284967841
 21
21550.730495421962
 31
0.0
  0
ARC
  5
CE60
  8
1-後柱P
  6
HIDE-M
 62
     6
 10
19439.252274301161
 20
19646.40542142195
 30
0.0
 40
2.6000000000000001
 50
270.0
 51
0.000000000000007
  0
LINE
  5
CE61
  8
1-後柱P
  6
HIDE-M
 62
     6
 10
19450.85227430116
 20
19644.356031268759
 30
0.0
 11
19450.85227430116
 21
19648.005421421942
 31
0.0
  0
LINE
  5
CE62
  8
1-後柱P
  6
HIDE-M
 62
     6
 10
19440.85227430116
 20
19644.356031268759
 30
0.0
 11
19440.85227430116
 21
19648.005421421942
 31
0.0
  0
LINE
  5
CE63
  8
1-後柱P
  6
1PL-M
 62
     6
 10
19445.85227430116
 20
19638.805421421959
 30
0.0
 11
19445.85227430116
 21
19653.005421421949
 31
0.0
  0
ARC
  5
CE64
  8
1-後柱P
  6
HIDE-M
 62
     6
 10
19452.45227430118
 20
19646.40542142195
 30
0.0
 40
2.6000000000000001
 50
180.0
 51
270.0
  0
LINE
  5
CE65
  8
1-後柱P
  6
HIDE-M
 62
     6
 10
19441.85227430116
 20
19646.40542142195
 30
0.0
 11
19441.85227430116
 21
19648.005421421942
 31
0.0
  0
LINE
  5
CE66
  8
1-後柱P
  6
HIDE-M
 62
     6
 10
19449.85227430116
 20
19646.40542142195
 30
0.0
 11
19449.85227430116
 21
19648.005421421942
 31
0.0
  0
LINE
  5
CE67
  8
1-後柱P
 10
19431.95227430118
 20
19758.70542142195
 30
0.0
 11
19453.75227430118
 21
19758.70542142195
 31
0.0
  0
LINE
  5
CE68
  8
1-後柱P
 10
19483.75227430118
 20
19721.40542142195
 30
0.0
 11
19483.75227430118
 21
19728.705421421939
 31
0.0
  0
ARC
  5
CE69
  8
1-後柱P
 10
19453.75227430118
 20
19728.705421421939
 30
0.0
 40
30.0
 50
0.000000000000007
 51
90.0
  0
ARC
  5
CE6A
  8
1-後柱P
 10
19453.75227430118
 20
19728.705421421939
 30
0.0
 40
31.600000000000001
 50
0.000000000000007
 51
90.0
  0
LINE
  5
CE6B
  8
1-後柱P
 10
19431.95227430118
 20
19760.305421421948
 30
0.0
 11
19453.75227430118
 21
19760.305421421948
 31
0.0
  0
LINE
  5
CE6C
  8
1-後柱P
 10
19485.35227430116
 20
19721.40542142195
 30
0.0
 11
19485.35227430116
 21
19728.705421421939
 31
0.0
  0
LINE
  5
CE6D
  8
1-後柱P
 10
19462.35227430116
 20
19699.805421421959
 30
0.0
 11
19462.35227430116
 21
19709.805421421948
 31
0.0
  0
LINE
  5
CE6E
  8
1-後柱P
 10
19460.75227430118
 20
19709.805421421948
 30
0.0
 11
19460.75227430118
 21
19699.805421421959
 31
0.0
  0
LINE
  5
CE6F
  8
1-後柱P
 10
19401.95227430118
 20
19721.40542142195
 30
0.0
 11
19401.95227430118
 21
19728.705421421939
 31
0.0
  0
ARC
  5
CE70
  8
1-後柱P
 10
19431.95227430118
 20
19728.705421421939
 30
0.0
 40
30.0
 50
90.0
 51
180.0
  0
ARC
  5
CE71
  8
1-後柱P
 10
19431.95227430118
 20
19728.705421421939
 30
0.0
 40
31.600000000000001
 50
90.0
 51
180.0
  0
LINE
  5
CE72
  8
1-後柱P
 10
19400.352274301171
 20
19721.40542142195
 30
0.0
 11
19400.352274301171
 21
19728.705421421939
 31
0.0
  0
LINE
  5
CE73
  8
1-後柱P
 10
19406.952274301151
 20
19714.805421421948
 30
0.0
 11
19418.35227430116
 21
19714.805421421948
 31
0.0
  0
ARC
  5
CE74
  8
1-後柱P
 10
19406.952274301151
 20
19721.40542142195
 30
0.0
 40
6.599999999999997
 50
180.0
 51
270.0
  0
ARC
  5
CE75
  8
1-後柱P
 10
19418.35227430116
 20
19709.805421421948
 30
0.0
 40
5.0
 50
0.000000000000007
 51
90.0
  0
LINE
  5
CE76
  8
1-後柱P
 10
19406.952274301151
 20
19716.40542142195
 30
0.0
 11
19418.35227430116
 21
19716.40542142195
 31
0.0
  0
ARC
  5
CE77
  8
1-後柱P
 10
19406.952274301151
 20
19721.40542142195
 30
0.0
 40
5.0
 50
180.0
 51
270.0
  0
LINE
  5
CE78
  8
1-後柱P
 10
19423.35227430116
 20
19709.805421421948
 30
0.0
 11
19423.35227430116
 21
19650.40542142195
 31
0.0
  0
LINE
  5
CE79
  8
1-後柱P
 10
19424.95227430118
 20
19709.805421421948
 30
0.0
 11
19424.95227430118
 21
19650.40542142195
 31
0.0
  0
ARC
  5
CE7A
  8
1-後柱P
 10
19418.35227430116
 20
19709.805421421948
 30
0.0
 40
6.599999999999997
 50
0.000000000000007
 51
90.0
  0
LINE
  5
CE7B
  8
1-後柱P
 10
19429.952274301158
 20
19643.805421421959
 30
0.0
 11
19463.35227430116
 21
19643.805421421959
 31
0.0
  0
ARC
  5
CE7C
  8
1-後柱P
 10
19429.952274301158
 20
19650.40542142195
 30
0.0
 40
6.599999999999997
 50
180.0
 51
270.0
  0
LINE
  5
CE7D
  8
1-後柱P
 10
19429.952274301158
 20
19645.40542142195
 30
0.0
 11
19463.35227430116
 21
19645.40542142195
 31
0.0
  0
ARC
  5
CE7E
  8
1-後柱P
 10
19429.952274301158
 20
19650.40542142195
 30
0.0
 40
5.0
 50
180.0
 51
270.0
  0
LINE
  5
CE7F
  8
1-後柱P
 10
19463.35227430116
 20
19645.40542142195
 30
0.0
 11
19463.35227430116
 21
19643.805421421959
 31
0.0
  0
LINE
  5
CE80
  8
1-後柱P
 10
19478.75227430118
 20
19714.805421421948
 30
0.0
 11
19467.35227430116
 21
19714.805421421948
 31
0.0
  0
ARC
  5
CE81
  8
1-後柱P
 10
19478.75227430118
 20
19721.40542142195
 30
0.0
 40
6.599999999999997
 50
270.0
 51
0.000000000000007
  0
ARC
  5
CE82
  8
1-後柱P
 10
19467.35227430116
 20
19709.805421421948
 30
0.0
 40
5.0
 50
90.0
 51
180.0
  0
LINE
  5
CE83
  8
1-後柱P
 10
19467.35227430116
 20
19716.40542142195
 30
0.0
 11
19478.75227430118
 21
19716.40542142195
 31
0.0
  0
ARC
  5
CE84
  8
1-後柱P
 10
19467.35227430116
 20
19709.805421421948
 30
0.0
 40
6.599999999999997
 50
90.0
 51
180.0
  0
ARC
  5
CE85
  8
1-後柱P
 10
19478.75227430118
 20
19721.40542142195
 30
0.0
 40
5.0
 50
270.0
 51
0.000000000000007
  0
LINE
  5
CE86
  8
1-後柱P
 10
19462.35227430116
 20
19699.805421421959
 30
0.0
 11
19460.75227430118
 21
19699.805421421959
 31
0.0
  0
LINE
  5
CE87
  8
1-後柱カバ-P
 10
19485.35227430116
 20
19708.105421421958
 30
0.0
 11
19485.35227430116
 21
19648.805421421948
 31
0.0
  0
ARC
  5
CE88
  8
1-後柱カバ-P
 10
19478.75227430118
 20
19648.805421421948
 30
0.0
 40
6.599999999999997
 50
270.0
 51
0.000000000000007
  0
LINE
  5
CE89
  8
1-後柱カバ-P
 10
19483.75227430118
 20
19708.105421421958
 30
0.0
 11
19483.75227430118
 21
19648.805421421948
 31
0.0
  0
ARC
  5
CE8A
  8
1-後柱カバ-P
 10
19478.75227430118
 20
19708.105421421958
 30
0.0
 40
5.0
 50
0.000000000000007
 51
90.0
  0
LINE
  5
CE8B
  8
1-後柱カバ-P
 10
19478.75227430118
 20
19642.20542142195
 30
0.0
 11
19406.952274301151
 21
19642.20542142195
 31
0.0
  0
ARC
  5
CE8C
  8
1-後柱カバ-P
 10
19406.952274301151
 20
19648.805421421948
 30
0.0
 40
6.599999999999997
 50
180.0
 51
270.0
  0
LINE
  5
CE8D
  8
1-後柱カバ-P
 10
19478.75227430118
 20
19643.805421421959
 30
0.0
 11
19406.952274301151
 21
19643.805421421959
 31
0.0
  0
ARC
  5
CE8E
  8
1-後柱カバ-P
 10
19406.952274301151
 20
19648.805421421948
 30
0.0
 40
5.0
 50
180.0
 51
270.0
  0
ARC
  5
CE8F
  8
1-後柱カバ-P
 10
19478.75227430118
 20
19648.805421421948
 30
0.0
 40
5.0
 50
270.0
 51
0.000000000000007
  0
LINE
  5
CE90
  8
1-後柱カバ-P
 10
19400.352274301171
 20
19648.805421421948
 30
0.0
 11
19400.352274301171
 21
19708.105421421958
 31
0.0
  0
LINE
  5
CE91
  8
1-後柱カバ-P
 10
19401.95227430118
 20
19648.805421421948
 30
0.0
 11
19401.95227430118
 21
19708.105421421958
 31
0.0
  0
ARC
  5
CE92
  8
1-後柱カバ-P
 10
19406.952274301151
 20
19708.105421421958
 30
0.0
 40
5.0
 50
90.0
 51
180.0
  0
LINE
  5
CE93
  8
1-後柱カバ-P
  6
1PL-M
 62
     6
 10
19442.85227430116
 20
19649.70542142195
 30
0.0
 11
19442.85227430116
 21
19636.70542142195
 31
0.0
  0
LINE
  5
CE94
  8
1-後柱カバ-P
  6
HIDE-M
 62
     6
 10
19449.85227430116
 20
19642.20542142195
 30
0.0
 11
19449.85227430116
 21
19643.805421421959
 31
0.0
  0
LINE
  5
CE95
  8
1-後柱カバ-P
  6
HIDE-M
 62
     6
 10
19435.85227430116
 20
19642.20542142195
 30
0.0
 11
19435.85227430116
 21
19643.805421421959
 31
0.0
  0
ARC
  5
CE96
  8
1-後柱カバ-P
 10
19478.75227430118
 20
19708.105421421958
 30
0.0
 40
6.599999999999997
 50
0.000000000000007
 51
90.0
  0
ARC
  5
CE97
  8
1-後柱カバ-P
 10
19406.952274301151
 20
19708.105421421958
 30
0.0
 40
6.599999999999997
 50
90.0
 51
180.0
  0
LINE
  5
CE98
  8
1-後柱カバ-P
 10
19415.35227430116
 20
19714.70542142195
 30
0.0
 11
19406.952274301151
 21
19714.70542142195
 31
0.0
  0
LINE
  5
CE99
  8
1-後柱カバ-P
 10
19470.35227430116
 20
19714.70542142195
 30
0.0
 11
19478.75227430118
 21
19714.70542142195
 31
0.0
  0
LINE
  5
CE9A
  8
1-後柱カバ-P
 10
19415.35227430116
 20
19713.105421421958
 30
0.0
 11
19406.952274301151
 21
19713.105421421958
 31
0.0
  0
LINE
  5
CE9B
  8
1-後柱カバ-P
 10
19470.35227430116
 20
19713.105421421958
 30
0.0
 11
19478.75227430118
 21
19713.105421421958
 31
0.0
  0
LINE
  5
CE9C
  8
1-後柱カバ-P
 10
19470.35227430116
 20
19713.105421421958
 30
0.0
 11
19470.35227430116
 21
19714.70542142195
 31
0.0
  0
LINE
  5
CE9D
  8
1-後柱カバ-P
 10
19415.35227430116
 20
19714.70542142195
 30
0.0
 11
19415.35227430116
 21
19713.105421421958
 31
0.0
  0
LINE
  5
CE9E
  8
1-後柱カバ-P
  6
HIDE-M
 62
     6
 10
19411.452274301158
 20
19693.705421421939
 30
0.0
 11
19399.85227430116
 21
19693.705421421939
 31
0.0
  0
LINE
  5
CE9F
  8
1-後柱カバ-P
  6
HIDE-M
 62
     6
 10
19411.452274301158
 20
19685.70542142195
 30
0.0
 11
19399.85227430116
 21
19685.70542142195
 31
0.0
  0
LINE
  5
CEA0
  8
1-後柱カバ-P
  6
HIDE-M
 62
     6
 10
19411.452274301158
 20
19692.705421421939
 30
0.0
 11
19399.85227430116
 21
19692.705421421939
 31
0.0
  0
LINE
  5
CEA1
  8
1-後柱カバ-P
  6
HIDE-M
 62
     6
 10
19411.452274301158
 20
19686.70542142195
 30
0.0
 11
19399.85227430116
 21
19686.70542142195
 31
0.0
  0
LINE
  5
CEA2
  8
1-後柱カバ-P
 10
19410.45227430118
 20
19684.20542142195
 30
0.0
 11
19403.45227430118
 21
19684.20542142195
 31
0.0
  0
LINE
  5
CEA3
  8
1-後柱カバ-P
 10
19403.45227430118
 20
19695.20542142195
 30
0.0
 11
19410.45227430118
 21
19695.20542142195
 31
0.0
  0
LINE
  5
CEA4
  8
1-後柱カバ-P
 10
19403.45227430118
 20
19695.95542142195
 30
0.0
 11
19403.45227430118
 21
19683.45542142195
 31
0.0
  0
LINE
  5
CEA5
  8
1-後柱カバ-P
 10
19399.85227430116
 20
19695.70542142195
 30
0.0
 11
19399.85227430116
 21
19683.70542142195
 31
0.0
  0
LINE
  5
CEA6
  8
1-後柱カバ-P
  6
HIDE-M
 62
     6
 10
19401.95227430118
 20
19684.20542142195
 30
0.0
 11
19400.352274301171
 21
19684.20542142195
 31
0.0
  0
LINE
  5
CEA7
  8
1-後柱カバ-P
 10
19399.85227430116
 20
19683.70542142195
 30
0.0
 11
19400.352274301171
 21
19684.20542142195
 31
0.0
  0
ARC
  5
CEA8
  8
1-後柱カバ-P
 10
19402.70227430118
 20
19683.45542142195
 30
0.0
 40
0.75
 50
180.0
 51
0.000000000000007
  0
LINE
  5
CEA9
  8
1-後柱カバ-P
  6
HIDE-M
 62
     6
 10
19400.352274301171
 20
19695.20542142195
 30
0.0
 11
19401.95227430118
 21
19695.20542142195
 31
0.0
  0
LINE
  5
CEAA
  8
1-後柱カバ-P
 10
19399.85227430116
 20
19695.70542142195
 30
0.0
 11
19400.352274301171
 21
19695.20542142195
 31
0.0
  0
ARC
  5
CEAB
  8
1-後柱カバ-P
 10
19402.70227430118
 20
19695.95542142195
 30
0.0
 40
0.75
 50
0.000000000000007
 51
180.0
  0
LINE
  5
CEAC
  8
1-後柱カバ-P
 10
19411.452274301158
 20
19694.20542142195
 30
0.0
 11
19411.452274301158
 21
19685.205421421939
 31
0.0
  0
ARC
  5
CEAD
  8
1-後柱カバ-P
 10
19410.45227430118
 20
19685.205421421939
 30
0.0
 40
1.0
 50
270.0
 51
0.000000000000007
  0
ARC
  5
CEAE
  8
1-後柱カバ-P
 10
19410.45227430118
 20
19694.20542142195
 30
0.0
 40
1.0
 50
0.000000000000007
 51
90.0
  0
LINE
  5
CEAF
  8
1-後柱カバ-P
  6
1PL-M
 62
     6
 10
19416.452274301151
 20
19689.705421421939
 30
0.0
 11
19394.85227430116
 21
19689.705421421939
 31
0.0
  0
LINE
  5
CEB0
  8
1-後柱カバ-P
 10
19410.45227430118
 20
19674.20542142195
 30
0.0
 11
19403.45227430118
 21
19674.20542142195
 31
0.0
  0
LINE
  5
CEB1
  8
1-後柱カバ-P
 10
19399.85227430116
 20
19681.70542142195
 30
0.0
 11
19399.85227430116
 21
19673.705421421939
 31
0.0
  0
LINE
  5
CEB2
  8
1-後柱カバ-P
  6
HIDE-M
 62
     6
 10
19401.95227430118
 20
19674.20542142195
 30
0.0
 11
19400.352274301171
 21
19674.20542142195
 31
0.0
  0
LINE
  5
CEB3
  8
1-後柱カバ-P
 10
19399.85227430116
 20
19673.705421421939
 30
0.0
 11
19400.352274301171
 21
19674.20542142195
 31
0.0
  0
ARC
  5
CEB4
  8
1-後柱カバ-P
 10
19402.70227430118
 20
19673.45542142195
 30
0.0
 40
0.75
 50
180.0
 51
0.000000000000007
  0
LINE
  5
CEB5
  8
1-後柱カバ-P
 10
19411.452274301158
 20
19683.205421421939
 30
0.0
 11
19411.452274301158
 21
19675.205421421939
 31
0.0
  0
ARC
  5
CEB6
  8
1-後柱カバ-P
 10
19410.45227430118
 20
19675.205421421939
 30
0.0
 40
1.0
 50
270.0
 51
0.000000000000007
  0
LINE
  5
CEB7
  8
1-後柱カバ-P
  6
1PL-M
 62
     6
 10
19416.452274301151
 20
19679.70542142195
 30
0.0
 11
19394.85227430116
 21
19679.70542142195
 31
0.0
  0
LINE
  5
CEB8
  8
1-後柱カバ-P
 10
19403.45227430118
 20
19681.45542142195
 30
0.0
 11
19403.45227430118
 21
19673.45542142195
 31
0.0
  0
LINE
  5
CEB9
  8
1-後柱カバ-P
  6
HIDE-M
 62
     6
 10
19474.25227430118
 20
19693.705421421939
 30
0.0
 11
19485.85227430116
 21
19693.705421421939
 31
0.0
  0
LINE
  5
CEBA
  8
1-後柱カバ-P
  6
HIDE-M
 62
     6
 10
19474.25227430118
 20
19685.70542142195
 30
0.0
 11
19485.85227430116
 21
19685.70542142195
 31
0.0
  0
LINE
  5
CEBB
  8
1-後柱カバ-P
  6
HIDE-M
 62
     6
 10
19474.25227430118
 20
19692.705421421939
 30
0.0
 11
19485.85227430116
 21
19692.705421421939
 31
0.0
  0
LINE
  5
CEBC
  8
1-後柱カバ-P
  6
HIDE-M
 62
     6
 10
19474.25227430118
 20
19686.70542142195
 30
0.0
 11
19485.85227430116
 21
19686.70542142195
 31
0.0
  0
LINE
  5
CEBD
  8
1-後柱カバ-P
 10
19475.25227430118
 20
19684.20542142195
 30
0.0
 11
19482.25227430118
 21
19684.20542142195
 31
0.0
  0
LINE
  5
CEBE
  8
1-後柱カバ-P
 10
19482.25227430118
 20
19695.20542142195
 30
0.0
 11
19475.25227430118
 21
19695.20542142195
 31
0.0
  0
LINE
  5
CEBF
  8
1-後柱カバ-P
 10
19482.25227430118
 20
19695.95542142195
 30
0.0
 11
19482.25227430118
 21
19683.45542142195
 31
0.0
  0
LINE
  5
CEC0
  8
1-後柱カバ-P
 10
19485.85227430116
 20
19695.70542142195
 30
0.0
 11
19485.85227430116
 21
19683.70542142195
 31
0.0
  0
LINE
  5
CEC1
  8
1-後柱カバ-P
  6
HIDE-M
 62
     6
 10
19483.75227430118
 20
19684.20542142195
 30
0.0
 11
19485.35227430116
 21
19684.20542142195
 31
0.0
  0
LINE
  5
CEC2
  8
1-後柱カバ-P
 10
19485.85227430116
 20
19683.70542142195
 30
0.0
 11
19485.35227430116
 21
19684.20542142195
 31
0.0
  0
ARC
  5
CEC3
  8
1-後柱カバ-P
 10
19483.00227430118
 20
19683.45542142195
 30
0.0
 40
0.75
 50
180.0
 51
0.000000000000007
  0
LINE
  5
CEC4
  8
1-後柱カバ-P
  6
HIDE-M
 62
     6
 10
19485.35227430116
 20
19695.20542142195
 30
0.0
 11
19483.75227430118
 21
19695.20542142195
 31
0.0
  0
LINE
  5
CEC5
  8
1-後柱カバ-P
 10
19485.85227430116
 20
19695.70542142195
 30
0.0
 11
19485.35227430116
 21
19695.20542142195
 31
0.0
  0
ARC
  5
CEC6
  8
1-後柱カバ-P
 10
19483.00227430118
 20
19695.95542142195
 30
0.0
 40
0.75
 50
0.000000000000007
 51
180.0
  0
LINE
  5
CEC7
  8
1-後柱カバ-P
 10
19474.25227430118
 20
19694.20542142195
 30
0.0
 11
19474.25227430118
 21
19685.205421421939
 31
0.0
  0
ARC
  5
CEC8
  8
1-後柱カバ-P
 10
19475.25227430118
 20
19685.205421421939
 30
0.0
 40
1.0
 50
180.0
 51
270.0
  0
ARC
  5
CEC9
  8
1-後柱カバ-P
 10
19475.25227430118
 20
19694.20542142195
 30
0.0
 40
1.0
 50
90.0
 51
180.0
  0
LINE
  5
CECA
  8
1-後柱カバ-P
  6
1PL-M
 62
     6
 10
19469.25227430118
 20
19689.705421421939
 30
0.0
 11
19490.85227430116
 21
19689.705421421939
 31
0.0
  0
LINE
  5
CECB
  8
1-後柱カバ-P
 10
19475.25227430118
 20
19674.20542142195
 30
0.0
 11
19482.25227430118
 21
19674.20542142195
 31
0.0
  0
LINE
  5
CECC
  8
1-後柱カバ-P
 10
19485.85227430116
 20
19681.70542142195
 30
0.0
 11
19485.85227430116
 21
19673.705421421939
 31
0.0
  0
LINE
  5
CECD
  8
1-後柱カバ-P
  6
HIDE-M
 62
     6
 10
19483.75227430118
 20
19674.20542142195
 30
0.0
 11
19485.35227430116
 21
19674.20542142195
 31
0.0
  0
LINE
  5
CECE
  8
1-後柱カバ-P
 10
19485.85227430116
 20
19673.705421421939
 30
0.0
 11
19485.35227430116
 21
19674.20542142195
 31
0.0
  0
ARC
  5
CECF
  8
1-後柱カバ-P
 10
19483.00227430118
 20
19673.45542142195
 30
0.0
 40
0.75
 50
180.0
 51
0.000000000000007
  0
LINE
  5
CED0
  8
1-後柱カバ-P
 10
19474.25227430118
 20
19683.205421421939
 30
0.0
 11
19474.25227430118
 21
19675.205421421939
 31
0.0
  0
ARC
  5
CED1
  8
1-後柱カバ-P
 10
19475.25227430118
 20
19675.205421421939
 30
0.0
 40
1.0
 50
180.0
 51
270.0
  0
LINE
  5
CED2
  8
1-後柱カバ-P
  6
1PL-M
 62
     6
 10
19469.25227430118
 20
19679.70542142195
 30
0.0
 11
19490.85227430116
 21
19679.70542142195
 31
0.0
  0
LINE
  5
CED3
  8
1-後柱カバ-P
 10
19482.25227430118
 20
19681.45542142195
 30
0.0
 11
19482.25227430118
 21
19673.45542142195
 31
0.0
  0
LINE
  5
CED4
  8
1-後柱カバ-P
  6
HIDE-M
 62
     6
 10
19411.452274301158
 20
19675.705421421939
 30
0.0
 11
19399.85227430116
 21
19675.705421421939
 31
0.0
  0
LINE
  5
CED5
  8
1-後柱カバ-P
  6
HIDE-M
 62
     6
 10
19411.452274301158
 20
19676.70542142195
 30
0.0
 11
19399.85227430116
 21
19676.70542142195
 31
0.0
  0
LINE
  5
CED6
  8
1-後柱カバ-P
  6
HIDE-M
 62
     6
 10
19474.25227430118
 20
19675.705421421939
 30
0.0
 11
19485.85227430116
 21
19675.705421421939
 31
0.0
  0
LINE
  5
CED7
  8
1-後柱カバ-P
  6
HIDE-M
 62
     6
 10
19474.25227430118
 20
19676.70542142195
 30
0.0
 11
19485.85227430116
 21
19676.70542142195
 31
0.0
  0
LINE
  5
CED8
  8
1-中柱P
 10
19406.952274301151
 20
16725.45542142195
 30
0.0
 11
19478.75227430118
 21
16725.45542142195
 31
0.0
  0
ARC
  5
CED9
  8
1-中柱P
 10
19406.952274301151
 20
16730.45542142195
 30
0.0
 40
5.0
 50
180.0
 51
270.0
  0
ARC
  5
CEDA
  8
1-中柱P
 10
19478.75227430118
 20
16730.45542142195
 30
0.0
 40
5.0
 50
270.0
 51
0.000000000000007
  0
LINE
  5
CEDB
  8
1-中柱P
 10
19406.952274301151
 20
16723.855421421958
 30
0.0
 11
19478.75227430118
 21
16723.855421421958
 31
0.0
  0
ARC
  5
CEDC
  8
1-中柱P
 10
19406.952274301151
 20
16730.45542142195
 30
0.0
 40
6.599999999999997
 50
180.0
 51
270.0
  0
LINE
  5
CEDD
  8
1-中柱P
 10
19485.352274301182
 20
16789.755421421949
 30
0.0
 11
19485.352274301182
 21
16730.45542142195
 31
0.0
  0
ARC
  5
CEDE
  8
1-中柱P
 10
19478.75227430118
 20
16730.45542142195
 30
0.0
 40
6.599999999999997
 50
270.0
 51
0.000000000000007
  0
LINE
  5
CEDF
  8
1-中柱P
 10
19483.75227430118
 20
16730.45542142195
 30
0.0
 11
19483.75227430118
 21
16789.755421421949
 31
0.0
  0
ARC
  5
CEE0
  8
1-中柱P
 10
19478.75227430118
 20
16789.755421421949
 30
0.0
 40
5.0
 50
0.000000000000007
 51
90.0
  0
LINE
  5
CEE1
  8
1-中柱P
 10
19400.352274301182
 20
16789.755421421949
 30
0.0
 11
19400.352274301182
 21
16730.45542142195
 31
0.0
  0
LINE
  5
CEE2
  8
1-中柱P
 10
19401.95227430118
 20
16730.45542142195
 30
0.0
 11
19401.95227430118
 21
16789.755421421949
 31
0.0
  0
LINE
  5
CEE3
  8
1-中柱P
 10
19406.952274301151
 20
16796.355421421958
 30
0.0
 11
19415.352274301182
 21
16796.355421421958
 31
0.0
  0
ARC
  5
CEE4
  8
1-中柱P
 10
19406.952274301151
 20
16789.755421421949
 30
0.0
 40
6.599999999999997
 50
90.0
 51
180.0
  0
LINE
  5
CEE5
  8
1-中柱P
 10
19406.952274301151
 20
16794.755421421949
 30
0.0
 11
19415.352274301182
 21
16794.755421421949
 31
0.0
  0
ARC
  5
CEE6
  8
1-中柱P
 10
19415.352274301182
 20
16801.355421421951
 30
0.0
 40
6.599999999999997
 50
270.0
 51
0.000000000000007
  0
ARC
  5
CEE7
  8
1-中柱P
 10
19406.952274301151
 20
16789.755421421949
 30
0.0
 40
5.0
 50
90.0
 51
180.0
  0
LINE
  5
CEE8
  8
1-中柱P
 10
19420.352274301182
 20
16801.355421421951
 30
0.0
 11
19420.352274301182
 21
16860.755421421942
 31
0.0
  0
ARC
  5
CEE9
  8
1-中柱P
 10
19415.352274301182
 20
16801.355421421951
 30
0.0
 40
5.0
 50
270.0
 51
0.000000000000007
  0
LINE
  5
CEEA
  8
1-中柱P
 10
19421.95227430118
 20
16801.355421421951
 30
0.0
 11
19421.95227430118
 21
16860.755421421942
 31
0.0
  0
LINE
  5
CEEB
  8
1-中柱P
 10
19426.952274301151
 20
16867.355421421951
 30
0.0
 11
19460.352274301189
 21
16867.355421421951
 31
0.0
  0
ARC
  5
CEEC
  8
1-中柱P
 10
19426.952274301151
 20
16860.755421421942
 30
0.0
 40
6.599999999999997
 50
90.0
 51
180.0
  0
LINE
  5
CEED
  8
1-中柱P
 10
19426.952274301151
 20
16865.755421421949
 30
0.0
 11
19460.352274301189
 21
16865.755421421949
 31
0.0
  0
ARC
  5
CEEE
  8
1-中柱P
 10
19426.952274301151
 20
16860.755421421942
 30
0.0
 40
5.0
 50
90.0
 51
180.0
  0
LINE
  5
CEEF
  8
1-中柱P
 10
19460.352274301189
 20
16865.755421421949
 30
0.0
 11
19460.352274301189
 21
16867.355421421951
 31
0.0
  0
LINE
  5
CEF0
  8
1-中柱P
 10
19478.75227430118
 20
16796.355421421958
 30
0.0
 11
19470.352274301182
 21
16796.355421421958
 31
0.0
  0
ARC
  5
CEF1
  8
1-中柱P
 10
19478.75227430118
 20
16789.755421421949
 30
0.0
 40
6.599999999999997
 50
0.000000000000007
 51
90.0
  0
ARC
  5
CEF2
  8
1-中柱P
 10
19470.352274301182
 20
16801.355421421951
 30
0.0
 40
5.0
 50
180.0
 51
270.0
  0
LINE
  5
CEF3
  8
1-中柱P
 10
19470.352274301182
 20
16794.755421421949
 30
0.0
 11
19478.75227430118
 21
16794.755421421949
 31
0.0
  0
ARC
  5
CEF4
  8
1-中柱P
 10
19470.352274301182
 20
16801.355421421951
 30
0.0
 40
6.599999999999997
 50
180.0
 51
270.0
  0
ARC
  5
CEF5
  8
1-中柱P
  6
HIDE-M
 62
     6
 10
19436.25227430118
 20
16864.755421421949
 30
0.0
 40
2.6000000000000001
 50
0.000000000000007
 51
90.0
  0
LINE
  5
CEF6
  8
1-中柱P
  6
HIDE-M
 62
     6
 10
19447.852274301182
 20
16866.804811575141
 30
0.0
 11
19447.852274301182
 21
16863.155421421961
 31
0.0
  0
LINE
  5
CEF7
  8
1-中柱P
  6
HIDE-M
 62
     6
 10
19437.852274301182
 20
16866.804811575141
 30
0.0
 11
19437.852274301182
 21
16863.155421421961
 31
0.0
  0
LINE
  5
CEF8
  8
1-中柱P
  6
1PL-M
 62
     6
 10
19442.852274301182
 20
16872.355421421951
 30
0.0
 11
19442.852274301182
 21
16858.155421421961
 31
0.0
  0
ARC
  5
CEF9
  8
1-中柱P
  6
HIDE-M
 62
     6
 10
19449.452274301158
 20
16864.755421421949
 30
0.0
 40
2.6000000000000001
 50
90.0
 51
180.0
  0
LINE
  5
CEFA
  8
1-中柱P
  6
HIDE-M
 62
     6
 10
19438.852274301182
 20
16864.755421421949
 30
0.0
 11
19438.852274301182
 21
16863.155421421961
 31
0.0
  0
LINE
  5
CEFB
  8
1-中柱P
  6
HIDE-M
 62
     6
 10
19446.852274301182
 20
16864.755421421949
 30
0.0
 11
19446.852274301182
 21
16863.155421421961
 31
0.0
  0
LINE
  5
CEFC
  8
1-中柱P
 10
19463.75227430118
 20
16801.355421421951
 30
0.0
 11
19463.75227430118
 21
16811.355421421951
 31
0.0
  0
LINE
  5
CEFD
  8
1-中柱P
 10
19465.352274301182
 20
16801.355421421951
 30
0.0
 11
19465.352274301182
 21
16811.355421421951
 31
0.0
  0
LINE
  5
CEFE
  8
1-中柱P
 10
19463.75227430118
 20
16811.355421421951
 30
0.0
 11
19465.352274301182
 21
16811.355421421951
 31
0.0
  0
LINE
  5
CEFF
  8
1-中柱P
  6
1PL-M
 62
     6
 10
19415.352274301182
 20
16832.355421421951
 30
0.0
 11
19429.552274301161
 21
16832.355421421951
 31
0.0
  0
LINE
  5
CF00
  8
1-中柱P
  6
HIDE-M
 62
     6
 10
19411.452274301158
 20
16775.355421421951
 30
0.0
 11
19399.852274301182
 21
16775.355421421951
 31
0.0
  0
LINE
  5
CF01
  8
1-中柱P
  6
HIDE-M
 62
     6
 10
19411.452274301158
 20
16767.355421421951
 30
0.0
 11
19399.852274301182
 21
16767.355421421951
 31
0.0
  0
LINE
  5
CF02
  8
1-中柱P
  6
HIDE-M
 62
     6
 10
19411.452274301158
 20
16774.355421421958
 30
0.0
 11
19399.852274301182
 21
16774.355421421958
 31
0.0
  0
LINE
  5
CF03
  8
1-中柱P
  6
HIDE-M
 62
     6
 10
19411.452274301158
 20
16768.355421421951
 30
0.0
 11
19399.852274301182
 21
16768.355421421951
 31
0.0
  0
LINE
  5
CF04
  8
1-中柱P
 10
19410.45227430118
 20
16765.855421421958
 30
0.0
 11
19403.45227430118
 21
16765.855421421958
 31
0.0
  0
LINE
  5
CF05
  8
1-中柱P
 10
19403.45227430118
 20
16776.855421421951
 30
0.0
 11
19410.45227430118
 21
16776.855421421951
 31
0.0
  0
LINE
  5
CF06
  8
1-中柱P
 10
19403.45227430118
 20
16777.605421421951
 30
0.0
 11
19403.45227430118
 21
16765.105421421951
 31
0.0
  0
LINE
  5
CF07
  8
1-中柱P
 10
19399.852274301182
 20
16777.355421421958
 30
0.0
 11
19399.852274301182
 21
16765.355421421951
 31
0.0
  0
LINE
  5
CF08
  8
1-中柱P
  6
HIDE-M
 62
     6
 10
19401.95227430118
 20
16765.855421421958
 30
0.0
 11
19400.352274301182
 21
16765.855421421958
 31
0.0
  0
LINE
  5
CF09
  8
1-中柱P
 10
19399.852274301182
 20
16765.355421421951
 30
0.0
 11
19400.352274301182
 21
16765.855421421958
 31
0.0
  0
ARC
  5
CF0A
  8
1-中柱P
 10
19402.70227430118
 20
16765.105421421951
 30
0.0
 40
0.75
 50
180.0
 51
0.000000000000007
  0
LINE
  5
CF0B
  8
1-中柱P
  6
HIDE-M
 62
     6
 10
19400.352274301182
 20
16776.855421421951
 30
0.0
 11
19401.95227430118
 21
16776.855421421951
 31
0.0
  0
LINE
  5
CF0C
  8
1-中柱P
 10
19399.852274301182
 20
16777.355421421958
 30
0.0
 11
19400.352274301182
 21
16776.855421421951
 31
0.0
  0
ARC
  5
CF0D
  8
1-中柱P
 10
19402.70227430118
 20
16777.605421421951
 30
0.0
 40
0.75
 50
0.000000000000007
 51
180.0
  0
LINE
  5
CF0E
  8
1-中柱P
 10
19411.452274301158
 20
16775.855421421951
 30
0.0
 11
19411.452274301158
 21
16766.855421421958
 31
0.0
  0
ARC
  5
CF0F
  8
1-中柱P
 10
19410.45227430118
 20
16766.855421421958
 30
0.0
 40
1.0
 50
270.0
 51
0.000000000000007
  0
ARC
  5
CF10
  8
1-中柱P
 10
19410.45227430118
 20
16775.855421421951
 30
0.0
 40
1.0
 50
0.000000000000007
 51
90.0
  0
LINE
  5
CF11
  8
1-中柱P
  6
1PL-M
 62
     6
 10
19416.452274301151
 20
16771.355421421951
 30
0.0
 11
19394.852274301182
 21
16771.355421421951
 31
0.0
  0
LINE
  5
CF12
  8
1-中柱P
 10
19410.45227430118
 20
16755.855421421951
 30
0.0
 11
19403.45227430118
 21
16755.855421421951
 31
0.0
  0
LINE
  5
CF13
  8
1-中柱P
 10
19399.852274301182
 20
16763.355421421951
 30
0.0
 11
19399.852274301182
 21
16755.355421421958
 31
0.0
  0
LINE
  5
CF14
  8
1-中柱P
  6
HIDE-M
 62
     6
 10
19401.95227430118
 20
16755.855421421951
 30
0.0
 11
19400.352274301182
 21
16755.855421421951
 31
0.0
  0
LINE
  5
CF15
  8
1-中柱P
 10
19399.852274301182
 20
16755.355421421958
 30
0.0
 11
19400.352274301182
 21
16755.855421421951
 31
0.0
  0
ARC
  5
CF16
  8
1-中柱P
 10
19402.70227430118
 20
16755.105421421951
 30
0.0
 40
0.75
 50
180.0
 51
0.000000000000007
  0
LINE
  5
CF17
  8
1-中柱P
 10
19411.452274301158
 20
16764.855421421958
 30
0.0
 11
19411.452274301158
 21
16756.855421421951
 31
0.0
  0
ARC
  5
CF18
  8
1-中柱P
 10
19410.45227430118
 20
16756.855421421951
 30
0.0
 40
1.0
 50
270.0
 51
0.000000000000007
  0
LINE
  5
CF19
  8
1-中柱P
  6
1PL-M
 62
     6
 10
19416.452274301151
 20
16761.355421421951
 30
0.0
 11
19394.852274301182
 21
16761.355421421951
 31
0.0
  0
LINE
  5
CF1A
  8
1-中柱P
 10
19403.45227430118
 20
16763.105421421951
 30
0.0
 11
19403.45227430118
 21
16755.105421421951
 31
0.0
  0
LINE
  5
CF1B
  8
1-中柱P
  6
HIDE-M
 62
     6
 10
19411.452274301158
 20
16757.355421421951
 30
0.0
 11
19399.852274301182
 21
16757.355421421951
 31
0.0
  0
LINE
  5
CF1C
  8
1-中柱P
  6
HIDE-M
 62
     6
 10
19411.452274301158
 20
16758.355421421958
 30
0.0
 11
19399.852274301182
 21
16758.355421421958
 31
0.0
  0
LINE
  5
CF1D
  8
1-中柱P
  6
HIDE-M
 62
     6
 10
19474.25227430118
 20
16775.355421421951
 30
0.0
 11
19485.852274301182
 21
16775.355421421951
 31
0.0
  0
LINE
  5
CF1E
  8
1-中柱P
  6
HIDE-M
 62
     6
 10
19474.25227430118
 20
16767.355421421951
 30
0.0
 11
19485.852274301182
 21
16767.355421421951
 31
0.0
  0
LINE
  5
CF1F
  8
1-中柱P
  6
HIDE-M
 62
     6
 10
19474.25227430118
 20
16774.355421421958
 30
0.0
 11
19485.852274301182
 21
16774.355421421958
 31
0.0
  0
LINE
  5
CF20
  8
1-中柱P
  6
HIDE-M
 62
     6
 10
19474.25227430118
 20
16768.355421421951
 30
0.0
 11
19485.852274301182
 21
16768.355421421951
 31
0.0
  0
LINE
  5
CF21
  8
1-中柱P
 10
19475.25227430118
 20
16765.855421421958
 30
0.0
 11
19482.25227430118
 21
16765.855421421958
 31
0.0
  0
LINE
  5
CF22
  8
1-中柱P
 10
19482.25227430118
 20
16776.855421421951
 30
0.0
 11
19475.25227430118
 21
16776.855421421951
 31
0.0
  0
LINE
  5
CF23
  8
1-中柱P
 10
19482.25227430118
 20
16777.605421421951
 30
0.0
 11
19482.25227430118
 21
16765.105421421951
 31
0.0
  0
LINE
  5
CF24
  8
1-中柱P
 10
19485.852274301182
 20
16777.355421421958
 30
0.0
 11
19485.852274301182
 21
16765.355421421951
 31
0.0
  0
LINE
  5
CF25
  8
1-中柱P
  6
HIDE-M
 62
     6
 10
19483.75227430118
 20
16765.855421421958
 30
0.0
 11
19485.352274301182
 21
16765.855421421958
 31
0.0
  0
LINE
  5
CF26
  8
1-中柱P
 10
19485.852274301182
 20
16765.355421421951
 30
0.0
 11
19485.352274301182
 21
16765.855421421958
 31
0.0
  0
ARC
  5
CF27
  8
1-中柱P
 10
19483.00227430118
 20
16765.105421421951
 30
0.0
 40
0.75
 50
180.0
 51
0.000000000000007
  0
LINE
  5
CF28
  8
1-中柱P
  6
HIDE-M
 62
     6
 10
19485.352274301182
 20
16776.855421421951
 30
0.0
 11
19483.75227430118
 21
16776.855421421951
 31
0.0
  0
LINE
  5
CF29
  8
1-中柱P
 10
19485.852274301182
 20
16777.355421421958
 30
0.0
 11
19485.352274301182
 21
16776.855421421951
 31
0.0
  0
ARC
  5
CF2A
  8
1-中柱P
 10
19483.00227430118
 20
16777.605421421951
 30
0.0
 40
0.75
 50
0.000000000000007
 51
180.0
  0
LINE
  5
CF2B
  8
1-中柱P
 10
19474.25227430118
 20
16775.855421421951
 30
0.0
 11
19474.25227430118
 21
16766.855421421958
 31
0.0
  0
ARC
  5
CF2C
  8
1-中柱P
 10
19475.25227430118
 20
16766.855421421958
 30
0.0
 40
1.0
 50
180.0
 51
270.0
  0
ARC
  5
CF2D
  8
1-中柱P
 10
19475.25227430118
 20
16775.855421421951
 30
0.0
 40
1.0
 50
90.0
 51
180.0
  0
LINE
  5
CF2E
  8
1-中柱P
  6
1PL-M
 62
     6
 10
19469.25227430118
 20
16771.355421421951
 30
0.0
 11
19490.852274301189
 21
16771.355421421951
 31
0.0
  0
LINE
  5
CF2F
  8
1-中柱P
 10
19475.25227430118
 20
16755.855421421951
 30
0.0
 11
19482.25227430118
 21
16755.855421421951
 31
0.0
  0
LINE
  5
CF30
  8
1-中柱P
 10
19485.852274301182
 20
16763.355421421951
 30
0.0
 11
19485.852274301182
 21
16755.355421421958
 31
0.0
  0
LINE
  5
CF31
  8
1-中柱P
  6
HIDE-M
 62
     6
 10
19483.75227430118
 20
16755.855421421951
 30
0.0
 11
19485.352274301182
 21
16755.855421421951
 31
0.0
  0
LINE
  5
CF32
  8
1-中柱P
 10
19485.852274301182
 20
16755.355421421958
 30
0.0
 11
19485.352274301182
 21
16755.855421421951
 31
0.0
  0
ARC
  5
CF33
  8
1-中柱P
 10
19483.00227430118
 20
16755.105421421951
 30
0.0
 40
0.75
 50
180.0
 51
0.000000000000007
  0
LINE
  5
CF34
  8
1-中柱P
 10
19474.25227430118
 20
16764.855421421958
 30
0.0
 11
19474.25227430118
 21
16756.855421421951
 31
0.0
  0
ARC
  5
CF35
  8
1-中柱P
 10
19475.25227430118
 20
16756.855421421951
 30
0.0
 40
1.0
 50
180.0
 51
270.0
  0
LINE
  5
CF36
  8
1-中柱P
  6
1PL-M
 62
     6
 10
19469.25227430118
 20
16761.355421421951
 30
0.0
 11
19490.852274301189
 21
16761.355421421951
 31
0.0
  0
LINE
  5
CF37
  8
1-中柱P
 10
19482.25227430118
 20
16763.105421421951
 30
0.0
 11
19482.25227430118
 21
16755.105421421951
 31
0.0
  0
LINE
  5
CF38
  8
1-中柱P
  6
HIDE-M
 62
     6
 10
19474.25227430118
 20
16757.355421421951
 30
0.0
 11
19485.852274301182
 21
16757.355421421951
 31
0.0
  0
LINE
  5
CF39
  8
1-中柱P
  6
HIDE-M
 62
     6
 10
19474.25227430118
 20
16758.355421421958
 30
0.0
 11
19485.852274301182
 21
16758.355421421958
 31
0.0
  0
LINE
  5
CF3A
  8
1-中柱カバ-P
 10
19485.352274301182
 20
16803.055421421948
 30
0.0
 11
19485.352274301182
 21
16862.355421421951
 31
0.0
  0
ARC
  5
CF3B
  8
1-中柱カバ-P
 10
19478.75227430118
 20
16862.355421421951
 30
0.0
 40
6.599999999999997
 50
0.000000000000007
 51
90.0
  0
LINE
  5
CF3C
  8
1-中柱カバ-P
 10
19483.75227430118
 20
16803.055421421948
 30
0.0
 11
19483.75227430118
 21
16862.355421421951
 31
0.0
  0
ARC
  5
CF3D
  8
1-中柱カバ-P
 10
19478.75227430118
 20
16803.055421421948
 30
0.0
 40
5.0
 50
270.0
 51
0.000000000000007
  0
LINE
  5
CF3E
  8
1-中柱カバ-P
 10
19478.75227430118
 20
16868.955421421939
 30
0.0
 11
19406.952274301151
 21
16868.955421421939
 31
0.0
  0
ARC
  5
CF3F
  8
1-中柱カバ-P
 10
19406.952274301151
 20
16862.355421421951
 30
0.0
 40
6.599999999999997
 50
90.0
 51
180.0
  0
LINE
  5
CF40
  8
1-中柱カバ-P
 10
19478.75227430118
 20
16867.355421421951
 30
0.0
 11
19406.952274301151
 21
16867.355421421951
 31
0.0
  0
ARC
  5
CF41
  8
1-中柱カバ-P
 10
19406.952274301151
 20
16862.355421421951
 30
0.0
 40
5.0
 50
90.0
 51
180.0
  0
ARC
  5
CF42
  8
1-中柱カバ-P
 10
19478.75227430118
 20
16862.355421421951
 30
0.0
 40
5.0
 50
0.000000000000007
 51
90.0
  0
LINE
  5
CF43
  8
1-中柱カバ-P
 10
19400.352274301182
 20
16862.355421421951
 30
0.0
 11
19400.352274301182
 21
16803.055421421948
 31
0.0
  0
LINE
  5
CF44
  8
1-中柱カバ-P
 10
19401.95227430118
 20
16862.355421421951
 30
0.0
 11
19401.95227430118
 21
16803.055421421948
 31
0.0
  0
ARC
  5
CF45
  8
1-中柱カバ-P
 10
19406.952274301151
 20
16803.055421421948
 30
0.0
 40
5.0
 50
180.0
 51
270.0
  0
LINE
  5
CF46
  8
1-中柱カバ-P
  6
1PL-M
 62
     6
 10
19442.852274301182
 20
16861.45542142195
 30
0.0
 11
19442.852274301182
 21
16874.455421421939
 31
0.0
  0
LINE
  5
CF47
  8
1-中柱カバ-P
  6
HIDE-M
 62
     6
 10
19449.852274301182
 20
16868.955421421939
 30
0.0
 11
19449.852274301182
 21
16867.355421421951
 31
0.0
  0
LINE
  5
CF48
  8
1-中柱カバ-P
  6
HIDE-M
 62
     6
 10
19435.852274301182
 20
16868.955421421939
 30
0.0
 11
19435.852274301182
 21
16867.355421421951
 31
0.0
  0
ARC
  5
CF49
  8
1-中柱カバ-P
 10
19478.75227430118
 20
16803.055421421948
 30
0.0
 40
6.599999999999997
 50
270.0
 51
0.000000000000007
  0
ARC
  5
CF4A
  8
1-中柱カバ-P
 10
19406.952274301151
 20
16803.055421421948
 30
0.0
 40
6.599999999999997
 50
180.0
 51
270.0
  0
LINE
  5
CF4B
  8
1-中柱カバ-P
 10
19415.352274301182
 20
16796.455421421939
 30
0.0
 11
19406.952274301151
 21
16796.455421421939
 31
0.0
  0
LINE
  5
CF4C
  8
1-中柱カバ-P
 10
19470.352274301182
 20
16796.455421421939
 30
0.0
 11
19478.75227430118
 21
16796.455421421939
 31
0.0
  0
LINE
  5
CF4D
  8
1-中柱カバ-P
 10
19415.352274301182
 20
16798.055421421959
 30
0.0
 11
19406.952274301151
 21
16798.055421421959
 31
0.0
  0
LINE
  5
CF4E
  8
1-中柱カバ-P
 10
19470.352274301182
 20
16798.055421421959
 30
0.0
 11
19478.75227430118
 21
16798.055421421959
 31
0.0
  0
LINE
  5
CF4F
  8
1-中柱カバ-P
 10
19470.352274301182
 20
16798.055421421959
 30
0.0
 11
19470.352274301182
 21
16796.455421421939
 31
0.0
  0
LINE
  5
CF50
  8
1-中柱カバ-P
 10
19415.352274301182
 20
16796.455421421939
 30
0.0
 11
19415.352274301182
 21
16798.055421421959
 31
0.0
  0
LINE
  5
CF51
  8
1-中柱カバ-P
  6
HIDE-M
 62
     6
 10
19411.452274301158
 20
16817.455421421939
 30
0.0
 11
19399.852274301182
 21
16817.455421421939
 31
0.0
  0
LINE
  5
CF52
  8
1-中柱カバ-P
  6
HIDE-M
 62
     6
 10
19411.452274301158
 20
16825.45542142195
 30
0.0
 11
19399.852274301182
 21
16825.45542142195
 31
0.0
  0
LINE
  5
CF53
  8
1-中柱カバ-P
  6
HIDE-M
 62
     6
 10
19411.452274301158
 20
16818.455421421939
 30
0.0
 11
19399.852274301182
 21
16818.455421421939
 31
0.0
  0
LINE
  5
CF54
  8
1-中柱カバ-P
  6
HIDE-M
 62
     6
 10
19411.452274301158
 20
16824.45542142195
 30
0.0
 11
19399.852274301182
 21
16824.45542142195
 31
0.0
  0
LINE
  5
CF55
  8
1-中柱カバ-P
 10
19410.45227430118
 20
16826.955421421939
 30
0.0
 11
19403.45227430118
 21
16826.955421421939
 31
0.0
  0
LINE
  5
CF56
  8
1-中柱カバ-P
 10
19403.45227430118
 20
16815.95542142195
 30
0.0
 11
19410.45227430118
 21
16815.95542142195
 31
0.0
  0
LINE
  5
CF57
  8
1-中柱カバ-P
 10
19403.45227430118
 20
16815.20542142195
 30
0.0
 11
19403.45227430118
 21
16827.705421421939
 31
0.0
  0
LINE
  5
CF58
  8
1-中柱カバ-P
 10
19399.852274301182
 20
16815.455421421939
 30
0.0
 11
19399.852274301182
 21
16827.45542142195
 31
0.0
  0
LINE
  5
CF59
  8
1-中柱カバ-P
  6
HIDE-M
 62
     6
 10
19401.95227430118
 20
16826.955421421939
 30
0.0
 11
19400.352274301182
 21
16826.955421421939
 31
0.0
  0
LINE
  5
CF5A
  8
1-中柱カバ-P
 10
19399.852274301182
 20
16827.45542142195
 30
0.0
 11
19400.352274301182
 21
16826.955421421939
 31
0.0
  0
ARC
  5
CF5B
  8
1-中柱カバ-P
 10
19402.70227430118
 20
16827.705421421939
 30
0.0
 40
0.75
 50
0.000000000000007
 51
180.0
  0
LINE
  5
CF5C
  8
1-中柱カバ-P
  6
HIDE-M
 62
     6
 10
19400.352274301182
 20
16815.95542142195
 30
0.0
 11
19401.95227430118
 21
16815.95542142195
 31
0.0
  0
LINE
  5
CF5D
  8
1-中柱カバ-P
 10
19399.852274301182
 20
16815.455421421939
 30
0.0
 11
19400.352274301182
 21
16815.95542142195
 31
0.0
  0
ARC
  5
CF5E
  8
1-中柱カバ-P
 10
19402.70227430118
 20
16815.20542142195
 30
0.0
 40
0.75
 50
180.0
 51
0.000000000000007
  0
LINE
  5
CF5F
  8
1-中柱カバ-P
 10
19411.452274301158
 20
16816.95542142195
 30
0.0
 11
19411.452274301158
 21
16825.95542142195
 31
0.0
  0
ARC
  5
CF60
  8
1-中柱カバ-P
 10
19410.45227430118
 20
16825.95542142195
 30
0.0
 40
1.0
 50
0.000000000000007
 51
90.0
  0
ARC
  5
CF61
  8
1-中柱カバ-P
 10
19410.45227430118
 20
16816.95542142195
 30
0.0
 40
1.0
 50
270.0
 51
0.000000000000007
  0
LINE
  5
CF62
  8
1-中柱カバ-P
  6
1PL-M
 62
     6
 10
19416.452274301151
 20
16821.45542142195
 30
0.0
 11
19394.852274301182
 21
16821.45542142195
 31
0.0
  0
LINE
  5
CF63
  8
1-中柱カバ-P
 10
19410.45227430118
 20
16836.95542142195
 30
0.0
 11
19403.45227430118
 21
16836.95542142195
 31
0.0
  0
LINE
  5
CF64
  8
1-中柱カバ-P
 10
19399.852274301182
 20
16829.45542142195
 30
0.0
 11
19399.852274301182
 21
16837.45542142195
 31
0.0
  0
LINE
  5
CF65
  8
1-中柱カバ-P
  6
HIDE-M
 62
     6
 10
19401.95227430118
 20
16836.95542142195
 30
0.0
 11
19400.352274301182
 21
16836.95542142195
 31
0.0
  0
LINE
  5
CF66
  8
1-中柱カバ-P
 10
19399.852274301182
 20
16837.45542142195
 30
0.0
 11
19400.352274301182
 21
16836.95542142195
 31
0.0
  0
ARC
  5
CF67
  8
1-中柱カバ-P
 10
19402.70227430118
 20
16837.70542142195
 30
0.0
 40
0.75
 50
0.000000000000007
 51
180.0
  0
LINE
  5
CF68
  8
1-中柱カバ-P
 10
19411.452274301158
 20
16827.955421421939
 30
0.0
 11
19411.452274301158
 21
16835.95542142195
 31
0.0
  0
ARC
  5
CF69
  8
1-中柱カバ-P
 10
19410.45227430118
 20
16835.95542142195
 30
0.0
 40
1.0
 50
0.000000000000007
 51
90.0
  0
LINE
  5
CF6A
  8
1-中柱カバ-P
  6
1PL-M
 62
     6
 10
19416.452274301151
 20
16831.455421421939
 30
0.0
 11
19394.852274301182
 21
16831.455421421939
 31
0.0
  0
LINE
  5
CF6B
  8
1-中柱カバ-P
 10
19403.45227430118
 20
16829.70542142195
 30
0.0
 11
19403.45227430118
 21
16837.70542142195
 31
0.0
  0
LINE
  5
CF6C
  8
1-中柱カバ-P
  6
HIDE-M
 62
     6
 10
19474.25227430118
 20
16817.455421421939
 30
0.0
 11
19485.852274301182
 21
16817.455421421939
 31
0.0
  0
LINE
  5
CF6D
  8
1-中柱カバ-P
  6
HIDE-M
 62
     6
 10
19474.25227430118
 20
16825.45542142195
 30
0.0
 11
19485.852274301182
 21
16825.45542142195
 31
0.0
  0
LINE
  5
CF6E
  8
1-中柱カバ-P
  6
HIDE-M
 62
     6
 10
19474.25227430118
 20
16818.455421421939
 30
0.0
 11
19485.852274301182
 21
16818.455421421939
 31
0.0
  0
LINE
  5
CF6F
  8
1-中柱カバ-P
  6
HIDE-M
 62
     6
 10
19474.25227430118
 20
16824.45542142195
 30
0.0
 11
19485.852274301182
 21
16824.45542142195
 31
0.0
  0
LINE
  5
CF70
  8
1-中柱カバ-P
 10
19475.25227430118
 20
16826.955421421939
 30
0.0
 11
19482.25227430118
 21
16826.955421421939
 31
0.0
  0
LINE
  5
CF71
  8
1-中柱カバ-P
 10
19482.25227430118
 20
16815.95542142195
 30
0.0
 11
19475.25227430118
 21
16815.95542142195
 31
0.0
  0
LINE
  5
CF72
  8
1-中柱カバ-P
 10
19482.25227430118
 20
16815.20542142195
 30
0.0
 11
19482.25227430118
 21
16827.705421421939
 31
0.0
  0
LINE
  5
CF73
  8
1-中柱カバ-P
 10
19485.852274301182
 20
16815.455421421939
 30
0.0
 11
19485.852274301182
 21
16827.45542142195
 31
0.0
  0
LINE
  5
CF74
  8
1-中柱カバ-P
  6
HIDE-M
 62
     6
 10
19483.75227430118
 20
16826.955421421939
 30
0.0
 11
19485.352274301182
 21
16826.955421421939
 31
0.0
  0
LINE
  5
CF75
  8
1-中柱カバ-P
 10
19485.852274301182
 20
16827.45542142195
 30
0.0
 11
19485.352274301182
 21
16826.955421421939
 31
0.0
  0
ARC
  5
CF76
  8
1-中柱カバ-P
 10
19483.00227430118
 20
16827.705421421939
 30
0.0
 40
0.75
 50
0.000000000000007
 51
180.0
  0
LINE
  5
CF77
  8
1-中柱カバ-P
  6
HIDE-M
 62
     6
 10
19485.352274301182
 20
16815.95542142195
 30
0.0
 11
19483.75227430118
 21
16815.95542142195
 31
0.0
  0
LINE
  5
CF78
  8
1-中柱カバ-P
 10
19485.852274301182
 20
16815.455421421939
 30
0.0
 11
19485.352274301182
 21
16815.95542142195
 31
0.0
  0
ARC
  5
CF79
  8
1-中柱カバ-P
 10
19483.00227430118
 20
16815.20542142195
 30
0.0
 40
0.75
 50
180.0
 51
0.000000000000007
  0
LINE
  5
CF7A
  8
1-中柱カバ-P
 10
19474.25227430118
 20
16816.95542142195
 30
0.0
 11
19474.25227430118
 21
16825.95542142195
 31
0.0
  0
ARC
  5
CF7B
  8
1-中柱カバ-P
 10
19475.25227430118
 20
16825.95542142195
 30
0.0
 40
1.0
 50
90.0
 51
180.0
  0
ARC
  5
CF7C
  8
1-中柱カバ-P
 10
19475.25227430118
 20
16816.95542142195
 30
0.0
 40
1.0
 50
180.0
 51
270.0
  0
LINE
  5
CF7D
  8
1-中柱カバ-P
  6
1PL-M
 62
     6
 10
19469.25227430118
 20
16821.45542142195
 30
0.0
 11
19490.852274301189
 21
16821.45542142195
 31
0.0
  0
LINE
  5
CF7E
  8
1-中柱カバ-P
 10
19475.25227430118
 20
16836.95542142195
 30
0.0
 11
19482.25227430118
 21
16836.95542142195
 31
0.0
  0
LINE
  5
CF7F
  8
1-中柱カバ-P
 10
19485.852274301182
 20
16829.45542142195
 30
0.0
 11
19485.852274301182
 21
16837.45542142195
 31
0.0
  0
LINE
  5
CF80
  8
1-中柱カバ-P
  6
HIDE-M
 62
     6
 10
19483.75227430118
 20
16836.95542142195
 30
0.0
 11
19485.352274301182
 21
16836.95542142195
 31
0.0
  0
LINE
  5
CF81
  8
1-中柱カバ-P
 10
19485.852274301182
 20
16837.45542142195
 30
0.0
 11
19485.352274301182
 21
16836.95542142195
 31
0.0
  0
ARC
  5
CF82
  8
1-中柱カバ-P
 10
19483.00227430118
 20
16837.70542142195
 30
0.0
 40
0.75
 50
0.000000000000007
 51
180.0
  0
LINE
  5
CF83
  8
1-中柱カバ-P
 10
19474.25227430118
 20
16827.955421421939
 30
0.0
 11
19474.25227430118
 21
16835.95542142195
 31
0.0
  0
ARC
  5
CF84
  8
1-中柱カバ-P
 10
19475.25227430118
 20
16835.95542142195
 30
0.0
 40
1.0
 50
90.0
 51
180.0
  0
LINE
  5
CF85
  8
1-中柱カバ-P
  6
1PL-M
 62
     6
 10
19469.25227430118
 20
16831.455421421939
 30
0.0
 11
19490.852274301189
 21
16831.455421421939
 31
0.0
  0
LINE
  5
CF86
  8
1-中柱カバ-P
 10
19482.25227430118
 20
16829.70542142195
 30
0.0
 11
19482.25227430118
 21
16837.70542142195
 31
0.0
  0
LINE
  5
CF87
  8
1-中柱カバ-P
  6
HIDE-M
 62
     6
 10
19411.452274301158
 20
16835.455421421939
 30
0.0
 11
19399.852274301182
 21
16835.455421421939
 31
0.0
  0
LINE
  5
CF88
  8
1-中柱カバ-P
  6
HIDE-M
 62
     6
 10
19411.452274301158
 20
16834.455421421939
 30
0.0
 11
19399.852274301182
 21
16834.455421421939
 31
0.0
  0
LINE
  5
CF89
  8
1-中柱カバ-P
  6
HIDE-M
 62
     6
 10
19474.25227430118
 20
16835.455421421939
 30
0.0
 11
19485.852274301182
 21
16835.455421421939
 31
0.0
  0
LINE
  5
CF8A
  8
1-中柱カバ-P
  6
HIDE-M
 62
     6
 10
19474.25227430118
 20
16834.455421421939
 30
0.0
 11
19485.852274301182
 21
16834.455421421939
 31
0.0
  0
ARC
  5
CF8B
  8
1-前柱P
  6
HIDE-M
 62
     6
 10
19446.452274301169
 20
13946.85542142196
 30
0.0
 40
2.6000000000000001
 50
90.0
 51
180.0
  0
LINE
  5
CF8C
  8
1-前柱P
  6
HIDE-M
 62
     6
 10
19434.852274301182
 20
13948.904811575139
 30
0.0
 11
19434.852274301182
 21
13945.255421421951
 31
0.0
  0
LINE
  5
CF8D
  8
1-前柱P
  6
HIDE-M
 62
     6
 10
19444.852274301182
 20
13948.904811575139
 30
0.0
 11
19444.852274301182
 21
13945.255421421951
 31
0.0
  0
LINE
  5
CF8E
  8
1-前柱P
  6
1PL-M
 62
     6
 10
19439.852274301182
 20
13954.45542142195
 30
0.0
 11
19439.852274301182
 21
13940.255421421951
 31
0.0
  0
ARC
  5
CF8F
  8
1-前柱P
  6
HIDE-M
 62
     6
 10
19433.25227430118
 20
13946.85542142196
 30
0.0
 40
2.6000000000000001
 50
0.000000000000007
 51
90.0
  0
LINE
  5
CF90
  8
1-前柱P
  6
HIDE-M
 62
     6
 10
19443.852274301182
 20
13946.85542142196
 30
0.0
 11
19443.852274301182
 21
13945.255421421951
 31
0.0
  0
LINE
  5
CF91
  8
1-前柱P
  6
HIDE-M
 62
     6
 10
19435.852274301182
 20
13946.85542142196
 30
0.0
 11
19435.852274301182
 21
13945.255421421951
 31
0.0
  0
LINE
  5
CF92
  8
1-前柱P
 10
19453.75227430118
 20
13834.555421421959
 30
0.0
 11
19431.95227430118
 21
13834.555421421959
 31
0.0
  0
LINE
  5
CF93
  8
1-前柱P
 10
19401.95227430118
 20
13871.85542142196
 30
0.0
 11
19401.95227430118
 21
13864.555421421959
 31
0.0
  0
ARC
  5
CF94
  8
1-前柱P
 10
19431.95227430118
 20
13864.555421421959
 30
0.0
 40
30.0
 50
180.0
 51
270.0
  0
ARC
  5
CF95
  8
1-前柱P
 10
19431.95227430118
 20
13864.555421421959
 30
0.0
 40
31.600000000000001
 50
180.0
 51
270.0
  0
LINE
  5
CF96
  8
1-前柱P
 10
19453.75227430118
 20
13832.95542142195
 30
0.0
 11
19431.95227430118
 21
13832.95542142195
 31
0.0
  0
LINE
  5
CF97
  8
1-前柱P
 10
19400.352274301182
 20
13871.85542142196
 30
0.0
 11
19400.352274301182
 21
13864.555421421959
 31
0.0
  0
LINE
  5
CF98
  8
1-前柱P
 10
19423.352274301182
 20
13893.45542142195
 30
0.0
 11
19423.352274301182
 21
13883.45542142195
 31
0.0
  0
LINE
  5
CF99
  8
1-前柱P
 10
19424.95227430118
 20
13883.45542142195
 30
0.0
 11
19424.95227430118
 21
13893.45542142195
 31
0.0
  0
LINE
  5
CF9A
  8
1-前柱P
 10
19483.75227430118
 20
13871.85542142196
 30
0.0
 11
19483.75227430118
 21
13864.555421421959
 31
0.0
  0
ARC
  5
CF9B
  8
1-前柱P
 10
19453.75227430118
 20
13864.555421421959
 30
0.0
 40
30.0
 50
270.0
 51
0.000000000000007
  0
ARC
  5
CF9C
  8
1-前柱P
 10
19453.75227430118
 20
13864.555421421959
 30
0.0
 40
31.600000000000001
 50
270.0
 51
0.000000000000007
  0
LINE
  5
CF9D
  8
1-前柱P
 10
19485.352274301182
 20
13871.85542142196
 30
0.0
 11
19485.352274301182
 21
13864.555421421959
 31
0.0
  0
LINE
  5
CF9E
  8
1-前柱P
 10
19478.75227430118
 20
13878.45542142195
 30
0.0
 11
19467.352274301182
 21
13878.45542142195
 31
0.0
  0
ARC
  5
CF9F
  8
1-前柱P
 10
19478.75227430118
 20
13871.85542142196
 30
0.0
 40
6.599999999999997
 50
0.000000000000007
 51
90.0
  0
ARC
  5
CFA0
  8
1-前柱P
 10
19467.352274301182
 20
13883.45542142195
 30
0.0
 40
5.0
 50
180.0
 51
270.0
  0
LINE
  5
CFA1
  8
1-前柱P
 10
19478.75227430118
 20
13876.85542142196
 30
0.0
 11
19467.352274301182
 21
13876.85542142196
 31
0.0
  0
ARC
  5
CFA2
  8
1-前柱P
 10
19478.75227430118
 20
13871.85542142196
 30
0.0
 40
5.0
 50
0.000000000000007
 51
90.0
  0
LINE
  5
CFA3
  8
1-前柱P
 10
19462.352274301182
 20
13883.45542142195
 30
0.0
 11
19462.352274301182
 21
13942.85542142196
 31
0.0
  0
LINE
  5
CFA4
  8
1-前柱P
 10
19460.75227430118
 20
13883.45542142195
 30
0.0
 11
19460.75227430118
 21
13942.85542142196
 31
0.0
  0
ARC
  5
CFA5
  8
1-前柱P
 10
19467.352274301182
 20
13883.45542142195
 30
0.0
 40
6.599999999999997
 50
180.0
 51
270.0
  0
LINE
  5
CFA6
  8
1-前柱P
 10
19455.75227430118
 20
13949.45542142195
 30
0.0
 11
19422.352274301182
 21
13949.45542142195
 31
0.0
  0
ARC
  5
CFA7
  8
1-前柱P
 10
19455.75227430118
 20
13942.85542142196
 30
0.0
 40
6.599999999999997
 50
0.000000000000007
 51
90.0
  0
LINE
  5
CFA8
  8
1-前柱P
 10
19455.75227430118
 20
13947.85542142196
 30
0.0
 11
19422.352274301182
 21
13947.85542142196
 31
0.0
  0
ARC
  5
CFA9
  8
1-前柱P
 10
19455.75227430118
 20
13942.85542142196
 30
0.0
 40
5.0
 50
0.000000000000007
 51
90.0
  0
LINE
  5
CFAA
  8
1-前柱P
 10
19422.352274301182
 20
13947.85542142196
 30
0.0
 11
19422.352274301182
 21
13949.45542142195
 31
0.0
  0
LINE
  5
CFAB
  8
1-前柱P
 10
19406.952274301151
 20
13878.45542142195
 30
0.0
 11
19418.352274301182
 21
13878.45542142195
 31
0.0
  0
ARC
  5
CFAC
  8
1-前柱P
 10
19406.952274301151
 20
13871.85542142196
 30
0.0
 40
6.599999999999997
 50
90.0
 51
180.0
  0
ARC
  5
CFAD
  8
1-前柱P
 10
19418.352274301182
 20
13883.45542142195
 30
0.0
 40
5.0
 50
270.0
 51
0.000000000000007
  0
LINE
  5
CFAE
  8
1-前柱P
 10
19418.352274301182
 20
13876.85542142196
 30
0.0
 11
19406.952274301151
 21
13876.85542142196
 31
0.0
  0
ARC
  5
CFAF
  8
1-前柱P
 10
19418.352274301182
 20
13883.45542142195
 30
0.0
 40
6.599999999999997
 50
270.0
 51
0.000000000000007
  0
ARC
  5
CFB0
  8
1-前柱P
 10
19406.952274301151
 20
13871.85542142196
 30
0.0
 40
5.0
 50
90.0
 51
180.0
  0
LINE
  5
CFB1
  8
1-前柱P
 10
19423.352274301182
 20
13893.45542142195
 30
0.0
 11
19424.95227430118
 21
13893.45542142195
 31
0.0
  0
LINE
  5
CFB2
  8
1-前柱カバ-P
 10
19400.352274301182
 20
13885.15542142195
 30
0.0
 11
19400.352274301182
 21
13944.45542142195
 31
0.0
  0
ARC
  5
CFB3
  8
1-前柱カバ-P
 10
19406.952274301151
 20
13944.45542142195
 30
0.0
 40
6.599999999999997
 50
90.0
 51
180.0
  0
LINE
  5
CFB4
  8
1-前柱カバ-P
 10
19401.95227430118
 20
13885.15542142195
 30
0.0
 11
19401.95227430118
 21
13944.45542142195
 31
0.0
  0
ARC
  5
CFB5
  8
1-前柱カバ-P
 10
19406.952274301151
 20
13885.15542142195
 30
0.0
 40
5.0
 50
180.0
 51
270.0
  0
LINE
  5
CFB6
  8
1-前柱カバ-P
 10
19406.952274301151
 20
13951.055421421959
 30
0.0
 11
19478.75227430118
 21
13951.055421421959
 31
0.0
  0
ARC
  5
CFB7
  8
1-前柱カバ-P
 10
19478.75227430118
 20
13944.45542142195
 30
0.0
 40
6.599999999999997
 50
0.000000000000007
 51
90.0
  0
LINE
  5
CFB8
  8
1-前柱カバ-P
 10
19406.952274301151
 20
13949.45542142195
 30
0.0
 11
19478.75227430118
 21
13949.45542142195
 31
0.0
  0
ARC
  5
CFB9
  8
1-前柱カバ-P
 10
19478.75227430118
 20
13944.45542142195
 30
0.0
 40
5.0
 50
0.000000000000007
 51
90.0
  0
ARC
  5
CFBA
  8
1-前柱カバ-P
 10
19406.952274301151
 20
13944.45542142195
 30
0.0
 40
5.0
 50
90.0
 51
180.0
  0
LINE
  5
CFBB
  8
1-前柱カバ-P
 10
19485.352274301182
 20
13944.45542142195
 30
0.0
 11
19485.352274301182
 21
13885.15542142195
 31
0.0
  0
LINE
  5
CFBC
  8
1-前柱カバ-P
 10
19483.75227430118
 20
13944.45542142195
 30
0.0
 11
19483.75227430118
 21
13885.15542142195
 31
0.0
  0
ARC
  5
CFBD
  8
1-前柱カバ-P
 10
19478.75227430118
 20
13885.15542142195
 30
0.0
 40
5.0
 50
270.0
 51
0.000000000000007
  0
LINE
  5
CFBE
  8
1-前柱カバ-P
  6
1PL-M
 62
     6
 10
19442.852274301182
 20
13943.555421421959
 30
0.0
 11
19442.852274301182
 21
13956.555421421959
 31
0.0
  0
LINE
  5
CFBF
  8
1-前柱カバ-P
  6
HIDE-M
 62
     6
 10
19435.852274301182
 20
13951.055421421959
 30
0.0
 11
19435.852274301182
 21
13949.45542142195
 31
0.0
  0
LINE
  5
CFC0
  8
1-前柱カバ-P
  6
HIDE-M
 62
     6
 10
19449.852274301182
 20
13951.055421421959
 30
0.0
 11
19449.852274301182
 21
13949.45542142195
 31
0.0
  0
ARC
  5
CFC1
  8
1-前柱カバ-P
 10
19406.952274301151
 20
13885.15542142195
 30
0.0
 40
6.599999999999997
 50
180.0
 51
270.0
  0
ARC
  5
CFC2
  8
1-前柱カバ-P
 10
19478.75227430118
 20
13885.15542142195
 30
0.0
 40
6.599999999999997
 50
270.0
 51
0.000000000000007
  0
LINE
  5
CFC3
  8
1-前柱カバ-P
 10
19470.352274301182
 20
13878.555421421959
 30
0.0
 11
19478.75227430118
 21
13878.555421421959
 31
0.0
  0
LINE
  5
CFC4
  8
1-前柱カバ-P
 10
19415.352274301182
 20
13878.555421421959
 30
0.0
 11
19406.952274301151
 21
13878.555421421959
 31
0.0
  0
LINE
  5
CFC5
  8
1-前柱カバ-P
 10
19470.352274301182
 20
13880.15542142195
 30
0.0
 11
19478.75227430118
 21
13880.15542142195
 31
0.0
  0
LINE
  5
CFC6
  8
1-前柱カバ-P
 10
19415.352274301182
 20
13880.15542142195
 30
0.0
 11
19406.952274301151
 21
13880.15542142195
 31
0.0
  0
LINE
  5
CFC7
  8
1-前柱カバ-P
 10
19415.352274301182
 20
13880.15542142195
 30
0.0
 11
19415.352274301182
 21
13878.555421421959
 31
0.0
  0
LINE
  5
CFC8
  8
1-前柱カバ-P
 10
19470.352274301182
 20
13878.555421421959
 30
0.0
 11
19470.352274301182
 21
13880.15542142195
 31
0.0
  0
LINE
  5
CFC9
  8
1-前柱カバ-P
  6
HIDE-M
 62
     6
 10
19474.25227430118
 20
13899.555421421959
 30
0.0
 11
19485.852274301182
 21
13899.555421421959
 31
0.0
  0
LINE
  5
CFCA
  8
1-前柱カバ-P
  6
HIDE-M
 62
     6
 10
19474.25227430118
 20
13907.555421421959
 30
0.0
 11
19485.852274301182
 21
13907.555421421959
 31
0.0
  0
LINE
  5
CFCB
  8
1-前柱カバ-P
  6
HIDE-M
 62
     6
 10
19474.25227430118
 20
13900.555421421959
 30
0.0
 11
19485.852274301182
 21
13900.555421421959
 31
0.0
  0
LINE
  5
CFCC
  8
1-前柱カバ-P
  6
HIDE-M
 62
     6
 10
19474.25227430118
 20
13906.555421421959
 30
0.0
 11
19485.852274301182
 21
13906.555421421959
 31
0.0
  0
LINE
  5
CFCD
  8
1-前柱カバ-P
 10
19475.25227430118
 20
13909.055421421959
 30
0.0
 11
19482.25227430118
 21
13909.055421421959
 31
0.0
  0
LINE
  5
CFCE
  8
1-前柱カバ-P
 10
19482.25227430118
 20
13898.055421421959
 30
0.0
 11
19475.25227430118
 21
13898.055421421959
 31
0.0
  0
LINE
  5
CFCF
  8
1-前柱カバ-P
 10
19482.25227430118
 20
13897.305421421959
 30
0.0
 11
19482.25227430118
 21
13909.805421421959
 31
0.0
  0
LINE
  5
CFD0
  8
1-前柱カバ-P
 10
19485.852274301182
 20
13897.555421421959
 30
0.0
 11
19485.852274301182
 21
13909.555421421959
 31
0.0
  0
LINE
  5
CFD1
  8
1-前柱カバ-P
  6
HIDE-M
 62
     6
 10
19483.75227430118
 20
13909.055421421959
 30
0.0
 11
19485.352274301182
 21
13909.055421421959
 31
0.0
  0
LINE
  5
CFD2
  8
1-前柱カバ-P
 10
19485.852274301182
 20
13909.555421421959
 30
0.0
 11
19485.352274301182
 21
13909.055421421959
 31
0.0
  0
ARC
  5
CFD3
  8
1-前柱カバ-P
 10
19483.00227430118
 20
13909.805421421959
 30
0.0
 40
0.75
 50
0.000000000000007
 51
180.0
  0
LINE
  5
CFD4
  8
1-前柱カバ-P
  6
HIDE-M
 62
     6
 10
19485.352274301182
 20
13898.055421421959
 30
0.0
 11
19483.75227430118
 21
13898.055421421959
 31
0.0
  0
LINE
  5
CFD5
  8
1-前柱カバ-P
 10
19485.852274301182
 20
13897.555421421959
 30
0.0
 11
19485.352274301182
 21
13898.055421421959
 31
0.0
  0
ARC
  5
CFD6
  8
1-前柱カバ-P
 10
19483.00227430118
 20
13897.305421421959
 30
0.0
 40
0.75
 50
180.0
 51
0.000000000000007
  0
LINE
  5
CFD7
  8
1-前柱カバ-P
 10
19474.25227430118
 20
13899.055421421959
 30
0.0
 11
19474.25227430118
 21
13908.055421421959
 31
0.0
  0
ARC
  5
CFD8
  8
1-前柱カバ-P
 10
19475.25227430118
 20
13908.055421421959
 30
0.0
 40
1.0
 50
90.0
 51
180.0
  0
ARC
  5
CFD9
  8
1-前柱カバ-P
 10
19475.25227430118
 20
13899.055421421959
 30
0.0
 40
1.0
 50
180.0
 51
270.0
  0
LINE
  5
CFDA
  8
1-前柱カバ-P
  6
1PL-M
 62
     6
 10
19469.25227430118
 20
13903.555421421959
 30
0.0
 11
19490.85227430116
 21
13903.555421421959
 31
0.0
  0
LINE
  5
CFDB
  8
1-前柱カバ-P
 10
19475.25227430118
 20
13919.055421421959
 30
0.0
 11
19482.25227430118
 21
13919.055421421959
 31
0.0
  0
LINE
  5
CFDC
  8
1-前柱カバ-P
 10
19485.852274301182
 20
13911.555421421959
 30
0.0
 11
19485.852274301182
 21
13919.555421421959
 31
0.0
  0
LINE
  5
CFDD
  8
1-前柱カバ-P
  6
HIDE-M
 62
     6
 10
19483.75227430118
 20
13919.055421421959
 30
0.0
 11
19485.352274301182
 21
13919.055421421959
 31
0.0
  0
LINE
  5
CFDE
  8
1-前柱カバ-P
 10
19485.852274301182
 20
13919.555421421959
 30
0.0
 11
19485.352274301182
 21
13919.055421421959
 31
0.0
  0
ARC
  5
CFDF
  8
1-前柱カバ-P
 10
19483.00227430118
 20
13919.805421421959
 30
0.0
 40
0.75
 50
0.000000000000007
 51
180.0
  0
LINE
  5
CFE0
  8
1-前柱カバ-P
 10
19474.25227430118
 20
13910.055421421959
 30
0.0
 11
19474.25227430118
 21
13918.055421421959
 31
0.0
  0
ARC
  5
CFE1
  8
1-前柱カバ-P
 10
19475.25227430118
 20
13918.055421421959
 30
0.0
 40
1.0
 50
90.0
 51
180.0
  0
LINE
  5
CFE2
  8
1-前柱カバ-P
  6
1PL-M
 62
     6
 10
19469.25227430118
 20
13913.555421421959
 30
0.0
 11
19490.85227430116
 21
13913.555421421959
 31
0.0
  0
LINE
  5
CFE3
  8
1-前柱カバ-P
 10
19482.25227430118
 20
13911.805421421959
 30
0.0
 11
19482.25227430118
 21
13919.805421421959
 31
0.0
  0
LINE
  5
CFE4
  8
1-前柱カバ-P
  6
HIDE-M
 62
     6
 10
19411.452274301158
 20
13899.555421421959
 30
0.0
 11
19399.852274301182
 21
13899.555421421959
 31
0.0
  0
LINE
  5
CFE5
  8
1-前柱カバ-P
  6
HIDE-M
 62
     6
 10
19411.452274301158
 20
13907.555421421959
 30
0.0
 11
19399.852274301182
 21
13907.555421421959
 31
0.0
  0
LINE
  5
CFE6
  8
1-前柱カバ-P
  6
HIDE-M
 62
     6
 10
19411.452274301158
 20
13900.555421421959
 30
0.0
 11
19399.852274301182
 21
13900.555421421959
 31
0.0
  0
LINE
  5
CFE7
  8
1-前柱カバ-P
  6
HIDE-M
 62
     6
 10
19411.452274301158
 20
13906.555421421959
 30
0.0
 11
19399.852274301182
 21
13906.555421421959
 31
0.0
  0
LINE
  5
CFE8
  8
1-前柱カバ-P
 10
19410.45227430118
 20
13909.055421421959
 30
0.0
 11
19403.45227430118
 21
13909.055421421959
 31
0.0
  0
LINE
  5
CFE9
  8
1-前柱カバ-P
 10
19403.45227430118
 20
13898.055421421959
 30
0.0
 11
19410.45227430118
 21
13898.055421421959
 31
0.0
  0
LINE
  5
CFEA
  8
1-前柱カバ-P
 10
19403.45227430118
 20
13897.305421421959
 30
0.0
 11
19403.45227430118
 21
13909.805421421959
 31
0.0
  0
LINE
  5
CFEB
  8
1-前柱カバ-P
 10
19399.852274301182
 20
13897.555421421959
 30
0.0
 11
19399.852274301182
 21
13909.555421421959
 31
0.0
  0
LINE
  5
CFEC
  8
1-前柱カバ-P
  6
HIDE-M
 62
     6
 10
19401.95227430118
 20
13909.055421421959
 30
0.0
 11
19400.352274301182
 21
13909.055421421959
 31
0.0
  0
LINE
  5
CFED
  8
1-前柱カバ-P
 10
19399.852274301182
 20
13909.555421421959
 30
0.0
 11
19400.352274301182
 21
13909.055421421959
 31
0.0
  0
ARC
  5
CFEE
  8
1-前柱カバ-P
 10
19402.70227430118
 20
13909.805421421959
 30
0.0
 40
0.75
 50
0.000000000000007
 51
180.0
  0
LINE
  5
CFEF
  8
1-前柱カバ-P
  6
HIDE-M
 62
     6
 10
19400.352274301182
 20
13898.055421421959
 30
0.0
 11
19401.95227430118
 21
13898.055421421959
 31
0.0
  0
LINE
  5
CFF0
  8
1-前柱カバ-P
 10
19399.852274301182
 20
13897.555421421959
 30
0.0
 11
19400.352274301182
 21
13898.055421421959
 31
0.0
  0
ARC
  5
CFF1
  8
1-前柱カバ-P
 10
19402.70227430118
 20
13897.305421421959
 30
0.0
 40
0.75
 50
180.0
 51
0.000000000000007
  0
LINE
  5
CFF2
  8
1-前柱カバ-P
 10
19411.452274301158
 20
13899.055421421959
 30
0.0
 11
19411.452274301158
 21
13908.055421421959
 31
0.0
  0
ARC
  5
CFF3
  8
1-前柱カバ-P
 10
19410.45227430118
 20
13908.055421421959
 30
0.0
 40
1.0
 50
0.000000000000007
 51
90.0
  0
ARC
  5
CFF4
  8
1-前柱カバ-P
 10
19410.45227430118
 20
13899.055421421959
 30
0.0
 40
1.0
 50
270.0
 51
0.000000000000007
  0
LINE
  5
CFF5
  8
1-前柱カバ-P
  6
1PL-M
 62
     6
 10
19416.452274301151
 20
13903.555421421959
 30
0.0
 11
19394.852274301182
 21
13903.555421421959
 31
0.0
  0
LINE
  5
CFF6
  8
1-前柱カバ-P
 10
19410.45227430118
 20
13919.055421421959
 30
0.0
 11
19403.45227430118
 21
13919.055421421959
 31
0.0
  0
LINE
  5
CFF7
  8
1-前柱カバ-P
 10
19399.852274301182
 20
13911.555421421959
 30
0.0
 11
19399.852274301182
 21
13919.555421421959
 31
0.0
  0
LINE
  5
CFF8
  8
1-前柱カバ-P
  6
HIDE-M
 62
     6
 10
19401.95227430118
 20
13919.055421421959
 30
0.0
 11
19400.352274301182
 21
13919.055421421959
 31
0.0
  0
LINE
  5
CFF9
  8
1-前柱カバ-P
 10
19399.852274301182
 20
13919.555421421959
 30
0.0
 11
19400.352274301182
 21
13919.055421421959
 31
0.0
  0
ARC
  5
CFFA
  8
1-前柱カバ-P
 10
19402.70227430118
 20
13919.805421421959
 30
0.0
 40
0.75
 50
0.000000000000007
 51
180.0
  0
LINE
  5
CFFB
  8
1-前柱カバ-P
 10
19411.452274301158
 20
13910.055421421959
 30
0.0
 11
19411.452274301158
 21
13918.055421421959
 31
0.0
  0
ARC
  5
CFFC
  8
1-前柱カバ-P
 10
19410.45227430118
 20
13918.055421421959
 30
0.0
 40
1.0
 50
0.000000000000007
 51
90.0
  0
LINE
  5
CFFD
  8
1-前柱カバ-P
  6
1PL-M
 62
     6
 10
19416.452274301151
 20
13913.555421421959
 30
0.0
 11
19394.852274301182
 21
13913.555421421959
 31
0.0
  0
LINE
  5
CFFE
  8
1-前柱カバ-P
 10
19403.45227430118
 20
13911.805421421959
 30
0.0
 11
19403.45227430118
 21
13919.805421421959
 31
0.0
  0
LINE
  5
CFFF
  8
1-前柱カバ-P
  6
HIDE-M
 62
     6
 10
19474.25227430118
 20
13917.555421421959
 30
0.0
 11
19485.852274301182
 21
13917.555421421959
 31
0.0
  0
LINE
  5
D000
  8
1-前柱カバ-P
  6
HIDE-M
 62
     6
 10
19474.25227430118
 20
13916.555421421959
 30
0.0
 11
19485.852274301182
 21
13916.555421421959
 31
0.0
  0
LINE
  5
D001
  8
1-前柱カバ-P
  6
HIDE-M
 62
     6
 10
19411.452274301158
 20
13917.555421421959
 30
0.0
 11
19399.852274301182
 21
13917.555421421959
 31
0.0
  0
LINE
  5
D002
  8
1-前柱カバ-P
  6
HIDE-M
 62
     6
 10
19411.452274301158
 20
13916.555421421959
 30
0.0
 11
19399.852274301182
 21
13916.555421421959
 31
0.0
  0
LINE
  5
D007
  8
0-1
  6
CONTINUOUS
 62
     3
 10
27668.855969301181
 20
8178.6575434219612
 30
0.0
 11
24485.352538301198
 21
8178.6575434219612
 31
0.0
  0
LINE
  5
D008
  8
0-1
  6
CONTINUOUS
 62
     3
 10
27668.855969301181
 20
8372.1579124219625
 30
0.0
 11
24485.352538301198
 21
8372.1579124219625
 31
0.0
  0
LINE
  5
D009
  8
0-1
  6
CONTINUOUS
 62
     3
 10
27796.8522743012
 20
8309.9718314219554
 30
0.0
 11
27796.8522743012
 21
8635.6575694219555
 31
0.0
  0
LINE
  5
D00A
  8
0-1
  6
CONTINUOUS
 62
     3
 10
24400.353989301198
 20
8505.657635421956
 30
0.0
 11
27796.8522743012
 21
8505.657635421956
 31
0.0
  0
LINE
  5
D00B
  8
0-1
  6
CONTINUOUS
 62
     3
 10
27796.8522743012
 20
8635.6575694219555
 30
0.0
 11
24420.351086301202
 21
8635.6575694219555
 31
0.0
  0
LINE
  5
D00C
  8
0-1
  6
CONTINUOUS
 62
     3
 10
13175.88937040959
 20
6337.157708421958
 30
0.0
 11
13175.88937040959
 21
8198.2035874219546
 31
0.0
  0
LINE
  5
D00D
  8
0-1
  6
CONTINUOUS
 62
     3
 10
13155.8883144096
 20
6337.157708421958
 30
0.0
 11
13155.8883144096
 21
8198.2035874219546
 31
0.0
  0
LINE
  5
D00E
  8
0-1
  6
CONTINUOUS
 62
     3
 10
13225.88904040958
 20
6337.157708421958
 30
0.0
 11
13225.88904040958
 21
8198.2035874219546
 31
0.0
  0
LINE
  5
D00F
  8
0-1
  6
CONTINUOUS
 62
     3
 10
13105.88963440957
 20
6337.157708421958
 30
0.0
 11
13105.88963440957
 21
8198.2035874219546
 31
0.0
  0
LINE
  5
D010
  8
0-1
  6
CONTINUOUS
 62
     3
 10
12972.8887504096
 20
6337.157708421958
 30
0.0
 11
12972.8887504096
 21
8198.2035874219546
 31
0.0
  0
LINE
  5
D011
  8
0-1
  6
CONTINUOUS
 62
     3
 10
12957.888948409571
 20
6337.157708421958
 30
0.0
 11
12957.888948409571
 21
8198.2035874219546
 31
0.0
  0
LINE
  5
D012
  8
0-1
  6
CONTINUOUS
 62
     3
 10
13358.888935409581
 20
6337.157708421958
 30
0.0
 11
13358.888935409581
 21
8198.2035874219546
 31
0.0
  0
LINE
  5
D013
  8
0-1
  6
CONTINUOUS
 62
     3
 10
13373.88873740959
 20
6337.157708421958
 30
0.0
 11
13373.88873740959
 21
8198.2035874219546
 31
0.0
  0
LINE
  5
D014
  8
0-1
  6
CONTINUOUS
 62
     3
 10
12097.389251409581
 20
8198.2035874219546
 30
0.0
 11
12097.389251409581
 21
6337.157708421958
 31
0.0
  0
LINE
  5
D015
  8
0-1
  6
CONTINUOUS
 62
     3
 10
12134.387443409591
 20
8198.2035874219546
 30
0.0
 11
12134.387443409591
 21
6337.157708421958
 31
0.0
  0
LINE
  5
D016
  8
0-1
  6
CONTINUOUS
 62
     3
 10
12797.38859240959
 20
8198.2035874219546
 30
0.0
 11
12797.38859240959
 21
6337.157708421958
 31
0.0
  0
LINE
  5
D017
  8
0-1
  6
CONTINUOUS
 62
     3
 10
12834.38876340959
 20
8198.2035874219546
 30
0.0
 11
12834.38876340959
 21
6337.157708421958
 31
0.0
  0
LINE
  5
D018
  8
0-1
  6
CONTINUOUS
 62
     3
 10
11397.3899114096
 20
8198.2035874219546
 30
0.0
 11
11397.3899114096
 21
6337.157708421958
 31
0.0
  0
LINE
  5
D019
  8
0-1
  6
CONTINUOUS
 62
     3
 10
11434.388103409599
 20
8198.2035874219546
 30
0.0
 11
11434.388103409599
 21
6337.157708421958
 31
0.0
  0
LINE
  5
D01A
  8
0-1
  6
CONTINUOUS
 62
     3
 10
11775.8897004096
 20
6337.157708421958
 30
0.0
 11
11775.8897004096
 21
8198.2035874219546
 31
0.0
  0
LINE
  5
D01B
  8
0-1
  6
CONTINUOUS
 62
     3
 10
11755.888644409581
 20
6337.157708421958
 30
0.0
 11
11755.888644409581
 21
8198.2035874219546
 31
0.0
  0
LINE
  5
D01C
  8
0-1
  6
CONTINUOUS
 62
     3
 10
11825.88838040958
 20
6337.157708421958
 30
0.0
 11
11825.88838040958
 21
8198.2035874219546
 31
0.0
  0
LINE
  5
D01D
  8
0-1
  6
CONTINUOUS
 62
     3
 10
11705.88897440959
 20
6337.157708421958
 30
0.0
 11
11705.88897440959
 21
8198.2035874219546
 31
0.0
  0
LINE
  5
D01E
  8
0-1
  6
CONTINUOUS
 62
     3
 10
11572.88908040959
 20
6337.157708421958
 30
0.0
 11
11572.88908040959
 21
8198.2035874219546
 31
0.0
  0
LINE
  5
D01F
  8
0-1
  6
CONTINUOUS
 62
     3
 10
11557.889278409581
 20
6337.157708421958
 30
0.0
 11
11557.889278409581
 21
8198.2035874219546
 31
0.0
  0
LINE
  5
D020
  8
0-1
  6
CONTINUOUS
 62
     3
 10
11958.8892654096
 20
6337.157708421958
 30
0.0
 11
11958.8892654096
 21
8198.2035874219546
 31
0.0
  0
LINE
  5
D021
  8
0-1
  6
CONTINUOUS
 62
     3
 10
11973.888077409591
 20
6337.157708421958
 30
0.0
 11
11973.888077409591
 21
8198.2035874219546
 31
0.0
  0
LINE
  5
D022
  8
0-1
  6
CONTINUOUS
 62
     3
 10
12673.889397409581
 20
6337.157708421958
 30
0.0
 11
12673.889397409581
 21
8198.2035874219546
 31
0.0
  0
LINE
  5
D023
  8
0-1
  6
CONTINUOUS
 62
     3
 10
12658.8886054096
 20
6337.157708421958
 30
0.0
 11
12658.8886054096
 21
8198.2035874219546
 31
0.0
  0
LINE
  5
D024
  8
0-1
  6
CONTINUOUS
 62
     3
 10
12257.88861840959
 20
6337.157708421958
 30
0.0
 11
12257.88861840959
 21
8198.2035874219546
 31
0.0
  0
LINE
  5
D025
  8
0-1
  6
CONTINUOUS
 62
     3
 10
12272.889410409591
 20
6337.157708421958
 30
0.0
 11
12272.889410409591
 21
8198.2035874219546
 31
0.0
  0
LINE
  5
D026
  8
0-1
  6
CONTINUOUS
 62
     3
 10
12405.8883144096
 20
6337.157708421958
 30
0.0
 11
12405.8883144096
 21
8198.2035874219546
 31
0.0
  0
LINE
  5
D027
  8
0-1
  6
CONTINUOUS
 62
     3
 10
12525.889700409591
 20
6337.157708421958
 30
0.0
 11
12525.889700409591
 21
8198.2035874219546
 31
0.0
  0
LINE
  5
D028
  8
0-1
  6
CONTINUOUS
 62
     3
 10
12455.886995409581
 20
6337.157708421958
 30
0.0
 11
12455.886995409581
 21
8198.2035874219546
 31
0.0
  0
LINE
  5
D029
  8
0-1
  6
CONTINUOUS
 62
     3
 10
12475.88805040958
 20
6337.157708421958
 30
0.0
 11
12475.88805040958
 21
8198.2035874219546
 31
0.0
  0
LINE
  5
D02A
  8
0-1
  6
CONTINUOUS
 62
     3
 10
11273.889726409599
 20
6337.157708421958
 30
0.0
 11
11273.889726409599
 21
8198.2035874219546
 31
0.0
  0
LINE
  5
D02B
  8
0-1
  6
CONTINUOUS
 62
     3
 10
11258.88893540959
 20
6337.157708421958
 30
0.0
 11
11258.88893540959
 21
8198.2035874219546
 31
0.0
  0
LINE
  5
D02C
  8
0-1
  6
CONTINUOUS
 62
     3
 10
11125.88805040958
 20
6337.157708421958
 30
0.0
 11
11125.88805040958
 21
8198.2035874219546
 31
0.0
  0
LINE
  5
D02D
  8
0-1
  6
CONTINUOUS
 62
     3
 10
10857.888948409571
 20
6337.157708421958
 30
0.0
 11
10857.888948409571
 21
8198.2035874219546
 31
0.0
  0
LINE
  5
D02E
  8
0-1
  6
CONTINUOUS
 62
     3
 10
10872.887760409591
 20
6337.157708421958
 30
0.0
 11
10872.887760409591
 21
8198.2035874219546
 31
0.0
  0
LINE
  5
D02F
  8
0-1
  6
CONTINUOUS
 62
     3
 10
11005.88864440959
 20
6337.157708421958
 30
0.0
 11
11005.88864440959
 21
8198.2035874219546
 31
0.0
  0
LINE
  5
D030
  8
0-1
  6
CONTINUOUS
 62
     3
 10
11055.8883144096
 20
6337.157708421958
 30
0.0
 11
11055.8883144096
 21
8198.2035874219546
 31
0.0
  0
LINE
  5
D031
  8
0-1
  6
CONTINUOUS
 62
     3
 10
11075.88739140958
 20
6337.157708421958
 30
0.0
 11
11075.88739140958
 21
8198.2035874219546
 31
0.0
  0
LINE
  5
D032
  8
0-1
  6
CONTINUOUS
 62
     3
 10
10247.888420409579
 20
6337.157708421958
 30
0.0
 11
10247.888420409579
 21
8198.2035874219546
 31
0.0
  0
LINE
  5
D033
  8
0-1
  6
CONTINUOUS
 62
     3
 10
10267.88749640959
 20
6337.157708421958
 30
0.0
 11
10267.88749640959
 21
8198.2035874219546
 31
0.0
  0
LINE
  5
D034
  8
0-1
  6
CONTINUOUS
 62
     3
 10
10197.8877604096
 20
6337.157708421958
 30
0.0
 11
10197.8877604096
 21
8198.2035874219546
 31
0.0
  0
LINE
  5
D035
  8
0-1
  6
CONTINUOUS
 62
     3
 10
10317.88815640959
 20
6337.157708421958
 30
0.0
 11
10317.88815640959
 21
8198.2035874219546
 31
0.0
  0
LINE
  5
D036
  8
0-1
  6
CONTINUOUS
 62
     3
 10
10450.888050409591
 20
6337.157708421958
 30
0.0
 11
10450.888050409591
 21
8198.2035874219546
 31
0.0
  0
LINE
  5
D037
  8
0-1
  6
CONTINUOUS
 62
     3
 10
10465.889832409601
 20
6337.157708421958
 30
0.0
 11
10465.889832409601
 21
8198.2035874219546
 31
0.0
  0
LINE
  5
D038
  8
0-1
  6
CONTINUOUS
 62
     3
 10
10064.88786640959
 20
6337.157708421958
 30
0.0
 11
10064.88786640959
 21
8198.2035874219546
 31
0.0
  0
LINE
  5
D039
  8
0-1
  6
CONTINUOUS
 62
     3
 10
10049.889053409581
 20
6337.157708421958
 30
0.0
 11
10049.889053409581
 21
8198.2035874219546
 31
0.0
  0
LINE
  5
D03A
  8
0-1
  6
CONTINUOUS
 62
     3
 10
8365.8888424096058
 20
6337.157708421958
 30
0.0
 11
8365.8888424096058
 21
8198.2035874219546
 31
0.0
  0
LINE
  5
D03B
  8
0-1
  6
CONTINUOUS
 62
     3
 10
8350.8890404095891
 20
6337.157708421958
 30
0.0
 11
8350.8890404095891
 21
8198.2035874219546
 31
0.0
  0
LINE
  5
D03C
  8
0-1
  6
CONTINUOUS
 62
     3
 10
8217.8881564095936
 20
6337.157708421958
 30
0.0
 11
8217.8881564095936
 21
8198.2035874219546
 31
0.0
  0
LINE
  5
D03D
  8
0-1
  6
CONTINUOUS
 62
     3
 10
8097.888750409591
 20
6337.157708421958
 30
0.0
 11
8097.888750409591
 21
8198.2035874219546
 31
0.0
  0
LINE
  5
D03E
  8
0-1
  6
CONTINUOUS
 62
     3
 10
8167.8874964095894
 20
6337.157708421958
 30
0.0
 11
8167.8874964095894
 21
8198.2035874219546
 31
0.0
  0
LINE
  5
D03F
  8
0-1
  6
CONTINUOUS
 62
     3
 10
8147.888420409593
 20
6337.157708421958
 30
0.0
 11
8147.888420409593
 21
8198.2035874219546
 31
0.0
  0
LINE
  5
D040
  8
0-1
  6
CONTINUOUS
 62
     3
 10
8847.8877604095906
 20
6337.157708421958
 30
0.0
 11
8847.8877604095906
 21
8198.2035874219546
 31
0.0
  0
LINE
  5
D041
  8
0-1
  6
CONTINUOUS
 62
     3
 10
8867.8888164095843
 20
6337.157708421958
 30
0.0
 11
8867.8888164095843
 21
8198.2035874219546
 31
0.0
  0
LINE
  5
D042
  8
0-1
  6
CONTINUOUS
 62
     3
 10
8797.8890804095863
 20
6337.157708421958
 30
0.0
 11
8797.8890804095863
 21
8198.2035874219546
 31
0.0
  0
LINE
  5
D043
  8
0-1
  6
CONTINUOUS
 62
     3
 10
8917.8874964095867
 20
6337.157708421958
 30
0.0
 11
8917.8874964095867
 21
8198.2035874219546
 31
0.0
  0
LINE
  5
D044
  8
0-1
  6
CONTINUOUS
 62
     3
 10
9050.8883804095858
 20
6337.157708421958
 30
0.0
 11
9050.8883804095858
 21
8198.2035874219546
 31
0.0
  0
LINE
  5
D045
  8
0-1
  6
CONTINUOUS
 62
     3
 10
9065.8881824096043
 20
6337.157708421958
 30
0.0
 11
9065.8881824096043
 21
8198.2035874219546
 31
0.0
  0
LINE
  5
D046
  8
0-1
  6
CONTINUOUS
 62
     3
 10
8664.8901754095878
 20
6337.157708421958
 30
0.0
 11
8664.8901754095878
 21
8198.2035874219546
 31
0.0
  0
LINE
  5
D047
  8
0-1
  6
CONTINUOUS
 62
     3
 10
8649.8883944095869
 20
6337.157708421958
 30
0.0
 11
8649.8883944095869
 21
8198.2035874219546
 31
0.0
  0
LINE
  5
D048
  8
0-1
  6
CONTINUOUS
 62
     3
 10
9349.8877344095963
 20
6337.157708421958
 30
0.0
 11
9349.8877344095963
 21
8198.2035874219546
 31
0.0
  0
LINE
  5
D049
  8
0-1
  6
CONTINUOUS
 62
     3
 10
9364.8895154095953
 20
6337.157708421958
 30
0.0
 11
9364.8895154095953
 21
8198.2035874219546
 31
0.0
  0
LINE
  5
D04A
  8
0-1
  6
CONTINUOUS
 62
     3
 10
9765.8875234095904
 20
6337.157708421958
 30
0.0
 11
9765.8875234095904
 21
8198.2035874219546
 31
0.0
  0
LINE
  5
D04B
  8
0-1
  6
CONTINUOUS
 62
     3
 10
9750.888710409592
 20
6337.157708421958
 30
0.0
 11
9750.888710409592
 21
8198.2035874219546
 31
0.0
  0
LINE
  5
D04C
  8
0-1
  6
CONTINUOUS
 62
     3
 10
9617.8898064095865
 20
6337.157708421958
 30
0.0
 11
9617.8898064095865
 21
8198.2035874219546
 31
0.0
  0
LINE
  5
D04D
  8
0-1
  6
CONTINUOUS
 62
     3
 10
9497.8884204095957
 20
6337.157708421958
 30
0.0
 11
9497.8884204095957
 21
8198.2035874219546
 31
0.0
  0
LINE
  5
D04E
  8
0-1
  6
CONTINUOUS
 62
     3
 10
9567.8881564096082
 20
6337.157708421958
 30
0.0
 11
9567.8881564096082
 21
8198.2035874219546
 31
0.0
  0
LINE
  5
D04F
  8
0-1
  6
CONTINUOUS
 62
     3
 10
9547.8890804095863
 20
6337.157708421958
 30
0.0
 11
9547.8890804095863
 21
8198.2035874219546
 31
0.0
  0
LINE
  5
D050
  8
0-1
  6
CONTINUOUS
 62
     3
 10
9889.3877074095926
 20
8198.2035874219546
 30
0.0
 11
9889.3877074095926
 21
6337.157708421958
 31
0.0
  0
LINE
  5
D051
  8
0-1
  6
CONTINUOUS
 62
     3
 10
9926.3888694095967
 20
8198.2035874219546
 30
0.0
 11
9926.3888694095967
 21
6337.157708421958
 31
0.0
  0
LINE
  5
D052
  8
0-1
  6
CONTINUOUS
 62
     3
 10
8489.3900174095907
 20
8198.2035874219546
 30
0.0
 11
8489.3900174095907
 21
6337.157708421958
 31
0.0
  0
LINE
  5
D053
  8
0-1
  6
CONTINUOUS
 62
     3
 10
8526.389199409603
 20
8198.2035874219546
 30
0.0
 11
8526.389199409603
 21
6337.157708421958
 31
0.0
  0
LINE
  5
D054
  8
0-1
  6
CONTINUOUS
 62
     3
 10
9189.3883674095996
 20
8198.2035874219546
 30
0.0
 11
9189.3883674095996
 21
6337.157708421958
 31
0.0
  0
LINE
  5
D055
  8
0-1
  6
CONTINUOUS
 62
     3
 10
9226.3885394095832
 20
8198.2035874219546
 30
0.0
 11
9226.3885394095832
 21
6337.157708421958
 31
0.0
  0
LINE
  5
D056
  8
0-1
  6
CONTINUOUS
 62
     3
 10
24392.853593301192
 20
6287.1575434219621
 30
0.0
 11
24492.852934301191
 21
6287.1575434219621
 31
0.0
  0
LINE
  5
D057
  8
0-1
  6
CONTINUOUS
 62
     3
 10
24492.852934301191
 20
6287.1575434219621
 30
0.0
 11
24492.852934301191
 21
6187.1577084219589
 31
0.0
  0
LINE
  5
D058
  8
0-1
  6
CONTINUOUS
 62
     3
 10
24392.853593301192
 20
6187.1577084219589
 30
0.0
 11
24392.853593301192
 21
6287.1575434219621
 31
0.0
  0
LINE
  5
D059
  8
0-1
  6
CONTINUOUS
 62
     3
 10
24485.352538301198
 20
8505.657635421956
 30
0.0
 11
24485.352538301198
 21
6287.1575434219621
 31
0.0
  0
LINE
  5
D05A
  8
0-1
  6
CONTINUOUS
 62
     3
 10
24536.8522743012
 20
8178.6575434219612
 30
0.0
 11
24536.8522743012
 21
6187.1577084219589
 31
0.0
  0
LINE
  5
D05B
  8
0-1
  6
CONTINUOUS
 62
     3
 10
24420.351086301202
 20
8635.6575694219555
 30
0.0
 11
24420.351086301202
 21
6287.1575434219621
 31
0.0
  0
LINE
  5
D05C
  8
0-1
  6
CONTINUOUS
 62
     3
 10
24400.352274301182
 20
8505.657635421956
 30
0.0
 11
24400.352274301182
 21
6287.1575434219621
 31
0.0
  0
LINE
  5
D05D
  8
0-1
  6
CONTINUOUS
 62
     3
 10
27796.8522743012
 20
8309.9718314219554
 30
0.0
 11
27753.8522743012
 21
8309.9718314219554
 31
0.0
  0
LINE
  5
D05E
  8
0-1
  6
CONTINUOUS
 62
     3
 10
27761.354913301169
 20
6287.1575434219621
 30
0.0
 11
27661.355573301182
 21
6287.1575434219621
 31
0.0
  0
LINE
  5
D05F
  8
0-1
  6
CONTINUOUS
 62
     3
 10
27661.355573301182
 20
6287.1575434219621
 30
0.0
 11
27661.355573301182
 21
6187.1577084219589
 31
0.0
  0
LINE
  5
D060
  8
0-1
  6
CONTINUOUS
 62
     3
 10
27761.354913301169
 20
6187.1577084219589
 30
0.0
 11
27761.354913301169
 21
6287.1575434219621
 31
0.0
  0
LINE
  5
D061
  8
0-1
  6
CONTINUOUS
 62
     3
 10
27617.3522743012
 20
8178.6575434219612
 30
0.0
 11
27617.3522743012
 21
6187.1577084219589
 31
0.0
  0
LINE
  5
D062
  8
0-1
  6
CONTINUOUS
 62
     3
 10
27668.855969301181
 20
8505.657635421956
 30
0.0
 11
27668.855969301181
 21
6287.1575434219621
 31
0.0
  0
LINE
  5
D063
  8
0-1
  6
CONTINUOUS
 62
     3
 10
27733.855441301192
 20
8635.6575694219555
 30
0.0
 11
27733.855441301192
 21
6287.1575434219621
 31
0.0
  0
LINE
  5
D064
  8
0-1
  6
CONTINUOUS
 62
     3
 10
27753.8522743012
 20
8505.657635421956
 30
0.0
 11
27753.8522743012
 21
6287.1575434219621
 31
0.0
  0
LINE
  5
D065
  8
0-1
  6
CONTINUOUS
 62
     3
 10
7688.8888954096028
 20
6287.1575434219621
 30
0.0
 11
7688.8888954096028
 21
6187.1577084219589
 31
0.0
  0
LINE
  5
D066
  8
0-1
  6
CONTINUOUS
 62
     3
 10
7721.3896864096032
 20
8501.4866184219627
 30
0.0
 11
7721.3896864096032
 21
6287.1575434219621
 31
0.0
  0
LINE
  5
D067
  8
0-1
  6
CONTINUOUS
 62
     3
 10
7701.3888954095974
 20
8502.0676074219573
 30
0.0
 11
7701.3888954095974
 21
6287.1575434219621
 31
0.0
  0
LINE
  5
D068
  8
0-1
  6
CONTINUOUS
 62
     3
 10
7816.38876340961
 20
8198.2035874219546
 30
0.0
 11
7816.38876340961
 21
6287.1575434219621
 31
0.0
  0
LINE
  5
D069
  8
0-1
  6
CONTINUOUS
 62
     3
 10
10661.8888954096
 20
8402.9590504219595
 30
0.0
 11
10661.8888954096
 21
8198.2035874219546
 31
0.0
  0
LINE
  5
D06A
  8
0-1
  6
CONTINUOUS
 62
     3
 10
10734.38876340959
 20
8198.2035874219546
 30
0.0
 11
10734.38876340959
 21
6287.1575434219621
 31
0.0
  0
LINE
  5
D06B
  8
0-1
  6
CONTINUOUS
 62
     3
 10
10589.3900174096
 20
8198.2035874219546
 30
0.0
 11
10589.3900174096
 21
6287.1575434219621
 31
0.0
  0
LINE
  5
D06C
  8
0-1
  6
CONTINUOUS
 62
     3
 10
10589.3900174096
 20
6337.157708421958
 30
0.0
 11
7816.38876340961
 21
6337.157708421958
 31
0.0
  0
LINE
  5
D06D
  8
0-1
  6
CONTINUOUS
 62
     3
 10
27617.3522743012
 20
6707.1584344219546
 30
0.0
 11
24536.8522743012
 21
6707.1584344219546
 31
0.0
  0
LINE
  5
D06E
  8
0-1
  6
CONTINUOUS
 62
     3
 10
27617.3522743012
 20
6642.1579724219591
 30
0.0
 11
24536.8522743012
 21
6642.1579724219591
 31
0.0
  0
LINE
  5
D06F
  8
0-1
  6
CONTINUOUS
 62
     3
 10
27617.3522743012
 20
6577.1580054219576
 30
0.0
 11
24536.8522743012
 21
6577.1580054219576
 31
0.0
  0
LINE
  5
D070
  8
0-1
  6
CONTINUOUS
 62
     3
 10
27617.3522743012
 20
6512.1575434219603
 30
0.0
 11
24536.8522743012
 21
6512.1575434219603
 31
0.0
  0
LINE
  5
D071
  8
0-1
  6
CONTINUOUS
 62
     3
 10
27617.3522743012
 20
6447.1580714219663
 30
0.0
 11
24536.8522743012
 21
6447.1580714219663
 31
0.0
  0
LINE
  5
D072
  8
0-1
  6
CONTINUOUS
 62
     3
 10
27617.3522743012
 20
6382.158104421962
 30
0.0
 11
24536.8522743012
 21
6382.158104421962
 31
0.0
  0
LINE
  5
D073
  8
0-1
  6
CONTINUOUS
 62
     3
 10
27617.3522743012
 20
6317.1581374219604
 30
0.0
 11
24536.8522743012
 21
6317.1581374219604
 31
0.0
  0
LINE
  5
D074
  8
0-1
  6
CONTINUOUS
 62
     3
 10
27617.3522743012
 20
6252.1576754219623
 30
0.0
 11
24536.8522743012
 21
6252.1576754219623
 31
0.0
  0
LINE
  5
D075
  8
0-1
  6
CONTINUOUS
 62
     3
 10
27617.3522743012
 20
8072.1577414219619
 30
0.0
 11
24536.8522743012
 21
8072.1577414219619
 31
0.0
  0
LINE
  5
D076
  8
0-1
  6
CONTINUOUS
 62
     3
 10
27617.3522743012
 20
8007.1577744219603
 30
0.0
 11
24536.8522743012
 21
8007.1577744219603
 31
0.0
  0
LINE
  5
D077
  8
0-1
  6
CONTINUOUS
 62
     3
 10
27617.3522743012
 20
7942.1583024219653
 30
0.0
 11
24536.8522743012
 21
7942.1583024219653
 31
0.0
  0
LINE
  5
D078
  8
0-1
  6
CONTINUOUS
 62
     3
 10
27617.3522743012
 20
7877.158335421952
 30
0.0
 11
24536.8522743012
 21
7877.158335421952
 31
0.0
  0
LINE
  5
D079
  8
0-1
  6
CONTINUOUS
 62
     3
 10
27617.3522743012
 20
7812.158368421965
 30
0.0
 11
24536.8522743012
 21
7812.158368421965
 31
0.0
  0
LINE
  5
D07A
  8
0-1
  6
CONTINUOUS
 62
     3
 10
27617.3522743012
 20
7747.1579064219613
 30
0.0
 11
24536.8522743012
 21
7747.1579064219613
 31
0.0
  0
LINE
  5
D07B
  8
0-1
  6
CONTINUOUS
 62
     3
 10
27617.3522743012
 20
7682.1579394219571
 30
0.0
 11
24536.8522743012
 21
7682.1579394219571
 31
0.0
  0
LINE
  5
D07C
  8
0-1
  6
CONTINUOUS
 62
     3
 10
27617.3522743012
 20
7617.1584674219621
 30
0.0
 11
24536.8522743012
 21
7617.1584674219621
 31
0.0
  0
LINE
  5
D07D
  8
0-1
  6
CONTINUOUS
 62
     3
 10
27617.3522743012
 20
7552.1585004219569
 30
0.0
 11
24536.8522743012
 21
7552.1585004219569
 31
0.0
  0
LINE
  5
D07E
  8
0-1
  6
CONTINUOUS
 62
     3
 10
27617.3522743012
 20
7487.1580384219606
 30
0.0
 11
24536.8522743012
 21
7487.1580384219606
 31
0.0
  0
LINE
  5
D07F
  8
0-1
  6
CONTINUOUS
 62
     3
 10
27617.3522743012
 20
7422.1580714219581
 30
0.0
 11
24536.8522743012
 21
7422.1580714219581
 31
0.0
  0
LINE
  5
D080
  8
0-1
  6
CONTINUOUS
 62
     3
 10
27617.3522743012
 20
7357.158104421962
 30
0.0
 11
24536.8522743012
 21
7357.158104421962
 31
0.0
  0
LINE
  5
D081
  8
0-1
  6
CONTINUOUS
 62
     3
 10
27617.3522743012
 20
7292.1576424219584
 30
0.0
 11
24536.8522743012
 21
7292.1576424219584
 31
0.0
  0
LINE
  5
D082
  8
0-1
  6
CONTINUOUS
 62
     3
 10
27617.3522743012
 20
7227.1576754219559
 30
0.0
 11
24536.8522743012
 21
7227.1576754219559
 31
0.0
  0
LINE
  5
D083
  8
0-1
  6
CONTINUOUS
 62
     3
 10
27617.3522743012
 20
7162.1582034219591
 30
0.0
 11
24536.8522743012
 21
7162.1582034219591
 31
0.0
  0
LINE
  5
D084
  8
0-1
  6
CONTINUOUS
 62
     3
 10
27617.3522743012
 20
7097.1582364219557
 30
0.0
 11
24536.8522743012
 21
7097.1582364219557
 31
0.0
  0
LINE
  5
D085
  8
0-1
  6
CONTINUOUS
 62
     3
 10
27617.3522743012
 20
7032.1582694219596
 30
0.0
 11
24536.8522743012
 21
7032.1582694219596
 31
0.0
  0
LINE
  5
D086
  8
0-1
  6
CONTINUOUS
 62
     3
 10
27617.3522743012
 20
6967.1578074219642
 30
0.0
 11
24536.8522743012
 21
6967.1578074219642
 31
0.0
  0
LINE
  5
D087
  8
0-1
  6
CONTINUOUS
 62
     3
 10
27617.3522743012
 20
6902.1578404219608
 30
0.0
 11
24536.8522743012
 21
6902.1578404219608
 31
0.0
  0
LINE
  5
D088
  8
0-1
  6
CONTINUOUS
 62
     3
 10
27617.3522743012
 20
6837.1583684219568
 30
0.0
 11
24536.8522743012
 21
6837.1583684219568
 31
0.0
  0
LINE
  5
D089
  8
0-1
  6
CONTINUOUS
 62
     3
 10
27617.3522743012
 20
6772.1584014219598
 30
0.0
 11
24536.8522743012
 21
6772.1584014219598
 31
0.0
  0
LINE
  5
D08A
  8
0-1
  6
CONTINUOUS
 62
     3
 10
27617.3522743012
 20
8126.6177614219587
 30
0.0
 11
24536.8522743012
 21
8126.6177614219587
 31
0.0
  0
LINE
  5
D08B
  8
0-1
  6
CONTINUOUS
 62
     3
 10
27761.354913301169
 20
6187.1577084219589
 30
0.0
 11
18831.373898175982
 21
6187.1577084219589
 31
0.0
  0
LINE
  5
D08C
  8
0-1
  6
CONTINUOUS
 62
     3
 10
13629.8888954096
 20
6187.1577084219589
 30
0.0
 11
13629.8888954096
 21
6287.1575434219621
 31
0.0
  0
LINE
  5
D08D
  8
0-1
  6
CONTINUOUS
 62
     3
 10
13602.3890934096
 20
8314.9600464219584
 30
0.0
 11
13602.3890934096
 21
6287.1575434219621
 31
0.0
  0
LINE
  5
D08E
  8
0-1
  6
CONTINUOUS
 62
     3
 10
13622.3888954096
 20
8314.3433191057684
 30
0.0
 11
13622.3888954096
 21
6287.1575434219621
 31
0.0
  0
LINE
  5
D08F
  8
0-1
  6
CONTINUOUS
 62
     3
 10
13507.39001640959
 20
8198.2035874219546
 30
0.0
 11
13507.39001640959
 21
6287.1575434219621
 31
0.0
  0
LINE
  5
D090
  8
0-1
  6
CONTINUOUS
 62
     3
 10
13629.8888954096
 20
6287.1575434219621
 30
0.0
 11
7688.8888954096028
 21
6287.1575434219621
 31
0.0
  0
LINE
  5
D091
  8
0-1
  6
CONTINUOUS
 62
     3
 10
13507.39001640959
 20
6337.157708421958
 30
0.0
 11
10734.38876340959
 21
6337.157708421958
 31
0.0
  0
LINE
  5
D092
  8
0-1
  6
CONTINUOUS
 62
     3
 10
14312.38995040959
 20
6187.1577084219589
 30
0.0
 11
7688.8888954096028
 21
6187.1577084219589
 31
0.0
  0
LINE
  5
D093
  8
0-1
  6
CONTINUOUS
 62
     3
 10
13602.3890934096
 20
8198.2035874219546
 30
0.0
 11
7721.3896864096032
 21
8198.2035874219546
 31
0.0
  0
LINE
  5
D094
  8
0-1
  6
CONTINUOUS
 62
     3
 10
27642.853013301181
 20
8381.1582894219573
 30
0.0
 11
27365.423483301191
 21
8381.1582894219573
 31
0.0
  0
LINE
  5
D095
  8
0-1
  6
CONTINUOUS
 62
     3
 10
27642.853013301181
 20
8423.1577344219604
 30
0.0
 11
27333.426545301169
 21
8423.1577344219604
 31
0.0
  0
LINE
  5
D096
  8
0-1
  6
CONTINUOUS
 62
     3
 10
27647.85327630119
 20
8386.1580584219537
 30
0.0
 11
27647.85327630119
 21
8418.1584604219606
 31
0.0
  0
LINE
  5
D097
  8
0-1
  6
CONTINUOUS
 62
     3
 10
27668.855969301181
 20
8432.157616421955
 30
0.0
 11
24485.352538301198
 21
8432.157616421955
 31
0.0
  0
LINE
  5
D098
  8
0-1
  6
CONTINUOUS
 62
     3
 10
27361.890043301191
 20
8382.6221434219606
 30
0.0
 11
27329.8891453012
 21
8414.6225454219584
 31
0.0
  0
LINE
  5
D099
  8
0-1
  6
CONTINUOUS
 62
     3
 10
27647.85327630119
 20
8414.7581424219588
 30
0.0
 11
27329.76047730121
 21
8414.7581424219588
 31
0.0
  0
LINE
  5
D09A
  8
0-1
  6
CONTINUOUS
 62
     3
 10
27647.85327630119
 20
8406.358055421957
 30
0.0
 11
27338.15363530118
 21
8406.358055421957
 31
0.0
  0
LINE
  5
D09B
  8
0-1
  6
CONTINUOUS
 62
     3
 10
27647.85327630119
 20
8397.9584634219609
 30
0.0
 11
27346.552733301181
 21
8397.9584634219609
 31
0.0
  0
LINE
  5
D09C
  8
0-1
  6
CONTINUOUS
 62
     3
 10
27647.85327630119
 20
8389.5583764219609
 30
0.0
 11
27354.955789301181
 21
8389.5583764219609
 31
0.0
  0
LINE
  5
D09D
  8
0-1
  6
CONTINUOUS
 62
     3
 10
24506.353250301199
 20
8414.7581424219588
 30
0.0
 11
24824.44605030118
 21
8414.7581424219588
 31
0.0
  0
LINE
  5
D09E
  8
0-1
  6
CONTINUOUS
 62
     3
 10
24506.353250301199
 20
8406.358055421957
 30
0.0
 11
24816.050912301191
 21
8406.358055421957
 31
0.0
  0
LINE
  5
D09F
  8
0-1
  6
CONTINUOUS
 62
     3
 10
24506.353250301199
 20
8397.9584634219609
 30
0.0
 11
24807.6518153012
 21
8397.9584634219609
 31
0.0
  0
LINE
  5
D0A0
  8
0-1
  6
CONTINUOUS
 62
     3
 10
24506.353250301199
 20
8389.5583764219609
 30
0.0
 11
24799.252717301199
 21
8389.5583764219609
 31
0.0
  0
LINE
  5
D0A1
  8
0-1
  6
CONTINUOUS
 62
     3
 10
24511.353514301201
 20
8423.1577344219604
 30
0.0
 11
24820.779982301199
 21
8423.1577344219604
 31
0.0
  0
LINE
  5
D0A2
  8
0-1
  6
CONTINUOUS
 62
     3
 10
24511.353514301201
 20
8381.1582894219573
 30
0.0
 11
24788.783043301199
 21
8381.1582894219573
 31
0.0
  0
LINE
  5
D0A3
  8
0-1
  6
CONTINUOUS
 62
     3
 10
24506.353250301199
 20
8386.1580584219537
 30
0.0
 11
24506.353250301199
 21
8418.1584604219606
 31
0.0
  0
LINE
  5
D0A4
  8
0-1
  6
CONTINUOUS
 62
     3
 10
24792.318464301181
 20
8382.6221434219606
 30
0.0
 11
24824.315402301181
 21
8414.6225454219584
 31
0.0
  0
LINE
  5
D0A5
  8
0-1
  6
CONTINUOUS
 62
     3
 10
13796.6907194096
 20
8349.1428684219627
 30
0.0
 11
7615.6992304095984
 21
8544.6589294219648
 31
0.0
  0
LINE
  5
D0A6
  8
0-1
  6
CONTINUOUS
 62
     3
 10
7617.1997054096
 20
8594.6378144219634
 30
0.0
 11
13798.1902044096
 21
8399.1207644219558
 31
0.0
  0
LINE
  5
D0A7
  8
0-1
  6
CONTINUOUS
 62
     3
 10
13801.280232409599
 20
8402.0296664219622
 30
0.0
 11
13802.240299409599
 21
8434.0152224219564
 31
0.0
  0
LINE
  5
D0A8
  8
0-1
  6
CONTINUOUS
 62
     3
 10
13797.391468409591
 20
8439.162465421954
 30
0.0
 11
7597.4302534095968
 21
8635.2496174219577
 31
0.0
  0
LINE
  5
D0A9
  8
0-1
  6
CONTINUOUS
 62
     3
 10
7593.525653409597
 20
8505.3080794219622
 30
0.0
 11
13793.490827409591
 21
8309.2214224219533
 31
0.0
  0
LINE
  5
D0AA
  8
0-1
  6
CONTINUOUS
 62
     3
 10
13798.63856540959
 20
8314.0687684219574
 30
0.0
 11
13799.597642409601
 21
8346.0548194219555
 31
0.0
  0
LINE
  5
D0AB
  8
0-1
  6
CONTINUOUS
 62
     3
 10
13799.92921140959
 20
8357.0495604219614
 30
0.0
 11
13800.949653409591
 21
8391.0339354219559
 31
0.0
  0
LINE
  5
D0AC
  8
0-1
  6
CONTINUOUS
 62
     3
 10
13798.04075040958
 20
8394.1229744219581
 30
0.0
 11
7617.0482724096028
 21
8589.6405194219587
 31
0.0
  0
LINE
  5
D0AD
  8
0-1
  6
CONTINUOUS
 62
     3
 10
7615.8486844096051
 20
8549.6572134219587
 30
0.0
 11
13796.8391824096
 21
8354.1411534219587
 31
0.0
  0
LINE
  5
D0AE
  8
0-1
  6
CONTINUOUS
 62
     3
 10
10661.8888954096
 20
8402.9590504219595
 30
0.0
 11
10665.79151640959
 21
8532.9005884219569
 31
0.0
  0
LINE
  5
D0AF
  8
0-1
  6
CONTINUOUS
 62
     3
 10
7626.4925554095971
 20
8504.3173304219581
 30
0.0
 11
7630.3941864095968
 21
8634.2588684219572
 31
0.0
  0
LINE
  5
D0B0
  8
0-1
  6
CONTINUOUS
 62
     3
 10
13784.89872640959
 20
8439.5375844219616
 30
0.0
 11
13780.99610540958
 21
8309.5965414219572
 31
0.0
  0
LINE
  5
D0B1
  8
0-2
  6
CONTINUOUS
 62
     4
 10
25713.412254301191
 20
6934.3844024219543
 30
0.0
 11
25813.4115943012
 21
6934.3844024219543
 31
0.0
  0
LINE
  5
D0B2
  8
0-2
  6
CONTINUOUS
 62
     4
 10
26440.7962543012
 20
6934.3844024219543
 30
0.0
 11
26340.796914301201
 21
6934.3844024219543
 31
0.0
  0
LINE
  5
D0B3
  8
0-5
  6
CONTINUOUS
 62
     4
 10
24442.852274301182
 20
4507.1581044219538
 30
0.0
 11
24442.852274301182
 21
4347.1585664219583
 31
0.0
  0
LINE
  5
D0B4
  8
0-5
  6
CONTINUOUS
 62
     4
 10
15610.251228455891
 20
6287.1575434219612
 30
0.0
 11
15490.25083245588
 21
6495.0045204219559
 31
0.0
  0
LINE
  5
D0B5
  8
0-5
  6
CONTINUOUS
 62
     4
 10
15730.24964545588
 20
6495.0045204219559
 30
0.0
 11
15610.251228455891
 21
6287.1575434219612
 31
0.0
  0
LINE
  5
D0B6
  8
0-5
  6
CONTINUOUS
 62
     4
 10
15490.25083245588
 20
6495.0045204219559
 30
0.0
 11
15730.24964545588
 21
6495.0045204219559
 31
0.0
  0
LINE
  5
D0B7
  8
0-5
  6
CONTINUOUS
 62
     4
 10
16092.854084185599
 20
6287.1575434219612
 30
0.0
 11
14712.38929140959
 21
6287.1575434219612
 31
0.0
  0
LINE
  5
D0B8
  8
0-5
  6
CONTINUOUS
 62
     4
 10
27711.3522743012
 20
4507.1581044219538
 30
0.0
 11
27711.3522743012
 21
4347.1585664219583
 31
0.0
  0
LINE
  5
D0B9
  8
0-5
  6
CONTINUOUS
 62
     4
 10
7743.8888954096037
 20
4507.1581044219538
 30
0.0
 11
7743.8888954096037
 21
4347.1585664219583
 31
0.0
  0
LINE
  5
D0BA
  8
0-5
  6
CONTINUOUS
 62
     4
 10
10661.8888954096
 20
4507.1581044219538
 30
0.0
 11
10661.8888954096
 21
4347.1585664219583
 31
0.0
  0
LINE
  5
D0BB
  8
0-5
  6
CONTINUOUS
 62
     4
 10
13579.888895409589
 20
4507.1581044219538
 30
0.0
 11
13579.888895409589
 21
4347.1585664219583
 31
0.0
  0
LINE
  5
D0BC
  8
2-0
  6
CENTER2
 62
     6
 10
24442.852274301182
 20
5924.5052854219593
 30
0.0
 11
24442.852274301182
 21
6961.6483124219576
 31
0.0
  0
LINE
  5
D0BD
  8
2-0
  6
CENTER2
 62
     6
 10
27711.3522743012
 20
5924.5052854219593
 30
0.0
 11
27711.3522743012
 21
6961.6483124219576
 31
0.0
  0
LINE
  5
D0BE
  8
2-0
  6
CENTER2
 62
     6
 10
7743.8888954096037
 20
5924.5052854219593
 30
0.0
 11
7743.8888954096037
 21
6981.6478834219579
 31
0.0
  0
LINE
  5
D0BF
  8
2-0
  6
CENTER2
 62
     6
 10
10661.8888954096
 20
5924.5052854219593
 30
0.0
 11
10661.8888954096
 21
6981.6478834219579
 31
0.0
  0
LINE
  5
D0C0
  8
2-0
  6
CENTER2
 62
     6
 10
13579.888895409589
 20
5924.5052854219593
 30
0.0
 11
13579.888895409589
 21
6981.6478834219579
 31
0.0
  0
ARC
  5
D0C1
  8
0-1
  6
CONTINUOUS
 62
     3
 10
27642.853013301181
 20
8418.1584604219606
 30
0.0
 40
5.0
 50
0.000000000000007
 51
90.0
  0
ARC
  5
D0C2
  8
0-1
  6
CONTINUOUS
 62
     3
 10
27642.853013301181
 20
8386.1580584219537
 30
0.0
 40
5.0
 50
270.00001499981897
 51
0.000000000000007
  0
ARC
  5
D0C3
  8
0-1
  6
CONTINUOUS
 62
     3
 10
27365.423483301191
 20
8386.1580584219537
 30
0.0
 40
5.0
 50
225.00001499976199
 51
270.00001499981897
  0
ARC
  5
D0C4
  8
0-1
  6
CONTINUOUS
 62
     3
 10
27333.426545301169
 20
8418.1584604219606
 30
0.0
 40
5.0
 50
90.0
 51
225.00001499976199
  0
ARC
  5
D0C5
  8
0-1
  6
CONTINUOUS
 62
     3
 10
24511.353514301201
 20
8386.1580584219537
 30
0.0
 40
5.0
 50
180.0
 51
270.00001499981897
  0
ARC
  5
D0C6
  8
0-1
  6
CONTINUOUS
 62
     3
 10
24511.353514301201
 20
8418.1584604219606
 30
0.0
 40
5.0
 50
90.0
 51
180.0
  0
ARC
  5
D0C7
  8
0-1
  6
CONTINUOUS
 62
     3
 10
24820.779982301199
 20
8418.1584604219606
 30
0.0
 40
5.0
 50
315.00001500002008
 51
90.0
  0
ARC
  5
D0C8
  8
0-1
  6
CONTINUOUS
 62
     3
 10
24788.783043301199
 20
8386.1580584219537
 30
0.0
 40
5.0
 50
270.00001499981897
 51
315.00001500002008
  0
ARC
  5
D0C9
  8
0-1
  6
CONTINUOUS
 62
     3
 10
7616.4494684096044
 20
8569.6493614219562
 30
0.0
 40
24.999998999999999
 50
88.280013999973605
 51
268.28001399997362
  0
ARC
  5
D0CA
  8
0-1
  6
CONTINUOUS
 62
     3
 10
13798.280272409591
 20
8402.1197344219599
 30
0.0
 40
3.0
 50
268.28001399997362
 51
358.2800139999739
  0
ARC
  5
D0CB
  8
0-1
  6
CONTINUOUS
 62
     3
 10
13797.243004409591
 20
8434.1646764219604
 30
0.0
 40
5.0
 50
358.2800139999739
 51
88.280013999973605
  0
ARC
  5
D0CC
  8
0-1
  6
CONTINUOUS
 62
     3
 10
7621.446762409616
 20
8569.4989184219648
 30
0.0
 40
69.999999000000003
 50
110.066803000108
 51
246.49322500022339
  0
ARC
  5
D0CD
  8
0-1
  6
CONTINUOUS
 62
     3
 10
13793.63929140959
 20
8314.2192124219564
 30
0.0
 40
5.0
 50
268.28001399997362
 51
358.2800139999739
  0
ARC
  5
D0CE
  8
0-1
  6
CONTINUOUS
 62
     3
 10
13796.6006504096
 20
8346.144392421962
 30
0.0
 40
3.0
 50
358.2800139999739
 51
88.280013999973605
  0
ARC
  5
D0CF
  8
0-1
  6
CONTINUOUS
 62
     3
 10
13796.616487409599
 20
8396.6671504219557
 30
0.0
 40
2.5
 50
88.280013999973605
 51
268.28001399997362
  0
ARC
  5
D0D0
  8
0-1
  6
CONTINUOUS
 62
     3
 10
13795.266455409601
 20
8351.6870444219585
 30
0.0
 40
2.5
 50
88.280013999973605
 51
268.28001399997362
  0
ARC
  5
D0D1
  8
0-1
  6
CONTINUOUS
 62
     3
 10
13797.95068240959
 20
8391.1244984219575
 30
0.0
 40
3.0
 50
358.2800139999739
 51
88.280013999973605
  0
ARC
  5
D0D2
  8
0-1
  6
CONTINUOUS
 62
     3
 10
7616.4494684096044
 20
8569.6493614219562
 30
0.0
 40
20.0
 50
88.280013999973605
 51
268.28001399997362
  0
ARC
  5
D0D3
  8
0-1
  6
CONTINUOUS
 62
     3
 10
13796.930240409591
 20
8357.1391334219588
 30
0.0
 40
3.0
 50
268.28001399997362
 51
358.2800139999739
  0
CIRCLE
  5
D0D4
  8
0-5
  6
CONTINUOUS
 62
     4
 10
24442.852274301182
 20
4147.1574114219602
 30
0.0
 40
199.9999949999999
  0
CIRCLE
  5
D0D5
  8
0-5
  6
CONTINUOUS
 62
     4
 10
10661.8888954096
 20
4147.1574114219602
 30
0.0
 40
199.9999949999999
  0
CIRCLE
  5
D0D6
  8
0-5
  6
CONTINUOUS
 62
     4
 10
7743.8888954096037
 20
4147.1574114219602
 30
0.0
 40
199.9999949999999
  0
CIRCLE
  5
D0D7
  8
0-5
  6
CONTINUOUS
 62
     4
 10
27711.3522743012
 20
4147.1574114219602
 30
0.0
 40
199.9999949999999
  0
CIRCLE
  5
D0D8
  8
0-5
  6
CONTINUOUS
 62
     4
 10
13579.888895409589
 20
4147.1574114219602
 30
0.0
 40
199.9999949999999
  0
TEXT
  5
D0D9
  8
0-5
  6
CONTINUOUS
 62
     7
 10
24388.09848263453
 20
4057.68242942196
 30
0.0
 40
160.0
  1
2
 72
     4
 11
24441.431815967859
 21
4137.6824294219596
 31
0.0
  0
TEXT
  5
D0DA
  8
0-5
  6
CONTINUOUS
 62
     7
 10
28816.324039405328
 20
7033.9796055814022
 30
0.0
 40
160.0
  1
(2131.5)
 50
90.0
 72
     4
 11
28736.324039405328
 21
7487.3129389147352
 31
0.0
  0
TEXT
  5
D0DB
  8
0-5
  6
CONTINUOUS
 62
     7
 10
15152.00982412255
 20
6575.0037944219539
 30
0.0
 40
160.0
  1
布基礎天端
 72
     4
 11
15610.676490789219
 21
6655.0037944219539
 31
0.0
  0
TEXT
  5
D0DC
  8
0-5
  6
CONTINUOUS
 62
     7
 10
27658.018940967871
 20
4057.6824294219632
 30
0.0
 40
160.0
  1
3
 72
     4
 11
27711.3522743012
 21
4137.6824294219632
 31
0.0
  0
TEXT
  5
D0DD
  8
0-5
  6
CONTINUOUS
 62
     7
 10
7684.1783887429283
 20
4063.9466154219608
 30
0.0
 40
160.0
  1
A
 72
     4
 11
7737.5117220762622
 21
4143.9466154219608
 31
0.0
  0
TEXT
  5
D0DE
  8
0-5
  6
CONTINUOUS
 62
     7
 10
10602.178388742919
 20
4063.9466154219608
 30
0.0
 40
160.0
  1
B
 72
     4
 11
10655.51172207626
 21
4143.9466154219608
 31
0.0
  0
TEXT
  5
D0DF
  8
0-5
  6
CONTINUOUS
 62
     7
 10
13520.178388742919
 20
4063.9466154219608
 30
0.0
 40
160.0
  1
C
 72
     4
 11
13573.51172207626
 21
4143.9466154219608
 31
0.0
  0
CIRCLE
  5
D0E0
  8
0-4
  6
CONTINUOUS
 62
     4
 10
26077.1022743012
 20
6673.2141444219578
 30
0.0
 40
18.487504999999981
  0
LINE
  5
D0E1
  8
1-前柱カバ-P
 10
19485.352274301182
 20
8505.657635421956
 30
0.0
 11
19485.352274301182
 21
6187.1577084219589
 31
0.0
  0
LINE
  5
D0E2
  8
1-前柱カバ-P
 10
19400.352274301182
 20
8635.6575694219555
 30
0.0
 11
19400.352274301182
 21
6187.1577084219589
 31
0.0
  0
LINE
  5
D0E3
  8
0-1
  6
CONTINUOUS
 62
     3
 10
19357.352274301182
 20
8505.6576354219633
 30
0.0
 11
24485.352538301198
 21
8505.657635421956
 31
0.0
  0
LINE
  5
D0E4
  8
0-1
  6
CONTINUOUS
 62
     3
 10
24420.351086301202
 20
8635.6575694219555
 30
0.0
 11
19357.352274301182
 21
8635.6575694219555
 31
0.0
  0
LINE
  5
D0E5
  8
0-1
  6
CONTINUOUS
 62
     3
 10
19357.352274301182
 20
8309.9718314219608
 30
0.0
 11
19357.352274301182
 21
8635.6575694219555
 31
0.0
  0
LINE
  5
D0E6
  8
0-1
  6
CONTINUOUS
 62
     3
 10
19357.352274301182
 20
8309.9718314219608
 30
0.0
 11
19400.352274301182
 21
8309.9718314219608
 31
0.0
  0
LINE
  5
D0E7
  8
2-0
  6
CENTER2
 62
     6
 10
19442.852274301182
 20
5924.5052854219593
 30
0.0
 11
19442.852274301182
 21
6961.6483124219576
 31
0.0
  0
LINE
  5
D0E8
  8
1-桁前P28
 10
19485.352274301182
 20
8307.971831421959
 30
0.0
 11
24400.352274301182
 21
8307.971831421959
 31
0.0
  0
LINE
  5
D0E9
  8
0-5
  6
CONTINUOUS
 62
     4
 10
19442.852274301189
 20
4507.1581044219538
 30
0.0
 11
19442.852274301182
 21
4347.1585664219583
 31
0.0
  0
CIRCLE
  5
D0EA
  8
0-5
  6
CONTINUOUS
 62
     4
 10
19442.852274301182
 20
4147.1574114219602
 30
0.0
 40
199.9999949999999
  0
TEXT
  5
D0EB
  8
0-5
  6
CONTINUOUS
 62
     7
 10
19414.765149301169
 20
4057.68242942196
 30
0.0
 40
160.0
  1
1
 72
     4
 11
19441.431815967841
 21
4137.6824294219596
 31
0.0
  0
TEXT
  5
D0EC
  8
0-5
  6
CONTINUOUS
 62
     7
 10
18429.980887041791
 20
7280.6442389578897
 30
0.0
 40
160.0
  1
(2260)
 50
90.0
 72
     4
 11
18349.980887041791
 21
7667.3109056245567
 31
0.0
  0
LINE
  5
D0ED
  8
SUNPOU
  6
CONTINUOUS
 10
13802.3888954096
 20
9435.1592194219593
 30
0.0
 11
14307.176765303
 21
9435.1592194219593
 31
0.0
  0
LINE
  5
D0EE
  8
0-5
  6
CONTINUOUS
 62
     4
 10
17062.768864265061
 20
6395.0041904219597
 30
0.0
 11
16942.770448265059
 21
6187.1577084219589
 31
0.0
  0
LINE
  5
D0EF
  8
0-5
  6
CONTINUOUS
 62
     4
 10
18774.193911800761
 20
6187.1577084219589
 30
0.0
 11
14385.94960177463
 21
6187.1577084219589
 31
0.0
  0
LINE
  5
D0F0
  8
0-5
  6
CONTINUOUS
 62
     4
 10
16942.770448265059
 20
6187.1577084219589
 30
0.0
 11
16822.770052265059
 21
6395.0041904219597
 31
0.0
  0
LINE
  5
D0F1
  8
0-5
  6
CONTINUOUS
 62
     4
 10
16822.770052265059
 20
6395.0041904219597
 30
0.0
 11
17062.768864265061
 21
6395.0041904219597
 31
0.0
  0
TEXT
  5
D0F2
  8
0-5
  6
CONTINUOUS
 62
     7
 10
16742.768864265061
 20
6475.0039594219579
 30
0.0
 40
160.0
  1
G.L
 72
     4
 11
16902.768864265061
 21
6555.0039594219579
 31
0.0
  0
LINE
  5
D0F3
  8
0-1
  6
CONTINUOUS
 62
     3
 10
13716.99853983536
 20
16751.455026421962
 30
0.0
 11
10448.498539835349
 21
16751.455026421962
 31
0.0
  0
LINE
  5
D0F4
  8
0-1
  6
CONTINUOUS
 62
     3
 10
10448.498539835349
 20
16751.455026421962
 30
0.0
 11
7876.1276890665649
 21
16751.455026421962
 31
0.0
  0
LINE
  5
D0F5
  8
2-0
  6
DASHED3
 62
     6
 10
7876.1276890665649
 20
16751.455026421962
 30
0.0
 11
5448.4985398353747
 21
16751.455026421962
 31
0.0
  0
LINE
  5
D0F6
  8
0-1
  6
CONTINUOUS
 62
     3
 10
10501.498170835361
 20
13841.95606842195
 30
0.0
 11
10501.498170835361
 21
17834.702821003179
 31
0.0
  0
LINE
  5
D0F7
  8
0-1
  6
CONTINUOUS
 62
     3
 10
13666.997919835339
 20
13717.95605442196
 30
0.0
 11
13666.997919835339
 21
19145.241366846909
 31
0.0
  0
LINE
  5
D0F8
  8
0-1
  6
CONTINUOUS
 62
     3
 10
13666.997919835339
 20
19145.241366846909
 30
0.0
 11
13666.997919835339
 21
19878.955395421941
 31
0.0
  0
LINE
  5
D0F9
  8
0-1
  6
CONTINUOUS
 62
     3
 10
13802.498539835369
 20
13685.95614742195
 30
0.0
 11
13802.498539835369
 21
19201.14970639344
 31
0.0
  0
LINE
  5
D0FA
  8
0-1
  6
CONTINUOUS
 62
     3
 10
13802.498539835369
 20
19201.14970639344
 30
0.0
 11
13802.498539835369
 21
19926.956741421949
 31
0.0
  0
LINE
  5
D0FB
  8
0-1
  6
CONTINUOUS
 62
     3
 10
13759.497813835351
 20
13841.95606842195
 30
0.0
 11
5405.9972858353603
 21
13841.95606842195
 31
0.0
  0
LINE
  5
D0FC
  8
0-1
  6
CONTINUOUS
 62
     3
 10
13716.99853983536
 20
13920.955685421941
 30
0.0
 11
5448.4985398353747
 21
13920.955685421941
 31
0.0
  0
LINE
  5
D0FD
  8
0-1
  6
CONTINUOUS
 62
     3
 10
13802.498539835369
 20
13685.95614742195
 30
0.0
 11
5362.9985398353729
 21
13685.95614742195
 31
0.0
  0
LINE
  5
D0FE
  8
0-1
  6
CONTINUOUS
 62
     3
 10
13802.498539835369
 20
13717.95605442196
 30
0.0
 11
5362.9985398353729
 21
13717.95605442196
 31
0.0
  0
LINE
  5
D0FF
  8
0-1
  6
CONTINUOUS
 62
     3
 10
10448.498539835349
 20
13841.95606842195
 30
0.0
 11
10448.498539835349
 21
17812.834770839199
 31
0.0
  0
LINE
  5
D100
  8
0-1
  6
CONTINUOUS
 62
     3
 10
10405.99728583535
 20
13841.95606842195
 30
0.0
 11
10405.99728583535
 21
17795.29843073705
 31
0.0
  0
LINE
  5
D101
  8
0-1
  6
CONTINUOUS
 62
     3
 10
13716.99853983536
 20
13841.95606842195
 30
0.0
 11
13716.99853983536
 21
19167.10982507981
 31
0.0
  0
LINE
  5
D102
  8
0-1
  6
CONTINUOUS
 62
     3
 10
13759.497813835351
 20
13841.95606842195
 30
0.0
 11
13759.497813835351
 21
19184.645348218921
 31
0.0
  0
LINE
  5
D103
  8
0-1
  6
CONTINUOUS
 62
     3
 10
11995.997088835349
 20
18461.344526938989
 30
0.0
 11
11995.997088835349
 21
19878.955395421941
 31
0.0
  0
LINE
  5
D104
  8
0-1
  6
CONTINUOUS
 62
     3
 10
11958.99691683534
 20
18446.077975038439
 30
0.0
 11
11958.99691683534
 21
19878.955395421941
 31
0.0
  0
LINE
  5
D105
  8
0-1
  6
CONTINUOUS
 62
     3
 10
11795.99741783535
 20
18378.82314413524
 30
0.0
 11
11795.99741783535
 21
19878.955395421941
 31
0.0
  0
LINE
  5
D106
  8
0-1
  6
CONTINUOUS
 62
     3
 10
11758.996256835349
 20
18363.556184165762
 30
0.0
 11
11758.996256835349
 21
19878.955395421941
 31
0.0
  0
LINE
  5
D107
  8
0-1
  6
CONTINUOUS
 62
     3
 10
11595.99774783537
 20
18286.30165674409
 30
0.0
 11
11595.997747835359
 21
19878.955395421941
 31
0.0
  0
LINE
  5
D108
  8
0-1
  6
CONTINUOUS
 62
     3
 10
11558.998566835349
 20
18271.03551373765
 30
0.0
 11
11558.998566835349
 21
19878.955395421941
 31
0.0
  0
LINE
  5
D109
  8
0-1
  6
CONTINUOUS
 62
     3
 10
11395.997088835349
 20
18203.77986628404
 30
0.0
 11
11395.997088835349
 21
19878.955395421941
 31
0.0
  0
LINE
  5
D10A
  8
0-1
  6
CONTINUOUS
 62
     3
 10
11358.99691683534
 20
18188.513314383468
 30
0.0
 11
11358.99691683534
 21
19878.955395421941
 31
0.0
  0
LINE
  5
D10B
  8
0-1
  6
CONTINUOUS
 62
     3
 10
11195.99741783535
 20
18121.25848348028
 30
0.0
 11
11195.99741783535
 21
19878.955395421941
 31
0.0
  0
LINE
  5
D10C
  8
0-1
  6
CONTINUOUS
 62
     3
 10
11158.996256835349
 20
18105.991523510798
 30
0.0
 11
11158.996256835349
 21
19878.955395421941
 31
0.0
  0
LINE
  5
D10D
  8
0-1
  6
CONTINUOUS
 62
     3
 10
10995.997747835339
 20
18038.737101089129
 30
0.0
 11
10995.997747835339
 21
19878.955395421941
 31
0.0
  0
LINE
  5
D10E
  8
0-1
  6
CONTINUOUS
 62
     3
 10
10958.997576835371
 20
18023.470549601181
 30
0.0
 11
10958.997576835371
 21
19878.955395421941
 31
0.0
  0
LINE
  5
D10F
  8
0-1
  6
CONTINUOUS
 62
     3
 10
10795.997088835349
 20
17956.215310629079
 30
0.0
 11
10795.997088835349
 21
19878.955395421941
 31
0.0
  0
LINE
  5
D110
  8
0-1
  6
CONTINUOUS
 62
     3
 10
10758.99691683534
 20
17940.9487587285
 30
0.0
 11
10758.99691683534
 21
19878.955395421941
 31
0.0
  0
LINE
  5
D111
  8
0-1
  6
CONTINUOUS
 62
     3
 10
12195.997747835339
 20
18543.86631739905
 30
0.0
 11
12195.997747835339
 21
19878.955395421941
 31
0.0
  0
LINE
  5
D112
  8
0-1
  6
CONTINUOUS
 62
     3
 10
12158.998566835349
 20
18528.600174392621
 30
0.0
 11
12158.998566835349
 21
19878.955395421941
 31
0.0
  0
LINE
  5
D113
  8
0-1
  6
CONTINUOUS
 62
     3
 10
13716.99853983536
 20
16841.457797421961
 30
0.0
 11
10448.498539835349
 21
16841.457797421961
 31
0.0
  0
LINE
  5
D114
  8
0-1
  6
CONTINUOUS
 62
     3
 10
10448.498539835349
 20
16841.457797421961
 30
0.0
 11
8094.2593293457394
 21
16841.457797421961
 31
0.0
  0
LINE
  5
D115
  8
2-0
  6
DASHED3
 62
     6
 10
8094.2593293457394
 20
16841.457797421961
 30
0.0
 11
5448.4985398353747
 21
16841.457797421961
 31
0.0
  0
LINE
  5
D116
  8
0-1
  6
CONTINUOUS
 62
     3
 10
10518.49764019153
 20
16796.457323080809
 30
0.0
 11
13646.997813835351
 21
13878.455421421961
 31
0.0
  0
LINE
  5
D117
  8
0-1
  6
CONTINUOUS
 62
     3
 10
13646.997813835351
 20
16796.455421421939
 30
0.0
 11
10518.49728583535
 21
13878.455421421961
 31
0.0
  0
LINE
  5
D118
  8
0-1
  6
CONTINUOUS
 62
     3
 10
12534.995914859481
 20
18677.27490473236
 30
0.0
 11
10518.49764019153
 21
16796.457323080809
 31
0.0
  0
LINE
  5
D119
  8
0-1
  6
CONTINUOUS
 62
     3
 10
11908.565700136631
 20
18417.917480440941
 30
0.0
 11
13646.997813835351
 21
16796.455421421939
 31
0.0
  0
LINE
  5
D11A
  8
0-1
  6
CONTINUOUS
 62
     3
 10
13784.49976683537
 20
19193.723275993321
 30
0.0
 11
13784.49976683537
 21
19919.456345421921
 31
0.0
  0
LINE
  5
D11B
  8
0-1
  6
CONTINUOUS
 62
     3
 10
13728.99901483537
 20
19901.957400421921
 30
0.0
 11
13728.99901483537
 21
19931.95700442194
 31
0.0
  0
LINE
  5
D11C
  8
0-1
  6
CONTINUOUS
 62
     3
 10
13802.498539835369
 20
19931.95700442194
 30
0.0
 11
13802.498539835369
 21
19896.955157421951
 31
0.0
  0
LINE
  5
D11D
  8
0-1
  6
CONTINUOUS
 62
     3
 10
13733.999278835379
 20
19936.955289421941
 30
0.0
 11
13797.49926583536
 21
19936.955289421941
 31
0.0
  0
LINE
  5
D11E
  8
0-1
  6
CONTINUOUS
 62
     3
 10
13784.49976683537
 20
19919.456345421921
 30
0.0
 11
13802.498539835369
 21
19919.456345421921
 31
0.0
  0
LINE
  5
D11F
  8
0-1
  6
CONTINUOUS
 62
     3
 10
13784.49976683537
 20
19896.955157421951
 30
0.0
 11
13733.999278835379
 21
19896.955157421951
 31
0.0
  0
LINE
  5
D120
  8
2-0
  6
DASHED3
 62
     6
 10
13716.99853983536
 20
19675.45692542195
 30
0.0
 11
5448.4985398353747
 21
19675.45692542195
 31
0.0
  0
LINE
  5
D121
  8
2-0
  6
DASHED3
 62
     6
 10
13759.497813835351
 20
19184.645348218921
 30
0.0
 11
13759.497813835351
 21
19760.457453421961
 31
0.0
  0
LINE
  5
D122
  8
2-0
  6
DASHED3
 62
     6
 10
13716.99853983536
 20
19167.10982507981
 30
0.0
 11
13716.99853983536
 21
19760.457453421961
 31
0.0
  0
LINE
  5
D123
  8
2-0
  6
DASHED3
 62
     6
 10
13759.497813835351
 20
19760.457453421961
 30
0.0
 11
5448.4985398353747
 21
19760.457453421961
 31
0.0
  0
LINE
  5
D124
  8
2-0
  6
DASHED3
 62
     6
 10
10448.498539835349
 20
17812.83477083921
 30
0.0
 11
10448.498539835349
 21
19760.457453421961
 31
0.0
  0
LINE
  5
D125
  8
2-0
  6
DASHED3
 62
     6
 10
10405.99728583535
 20
17795.29843073705
 30
0.0
 11
10405.99728583535
 21
19760.457453421961
 31
0.0
  0
LINE
  5
D126
  8
2-0
  6
DASHED3
 62
     6
 10
13646.997813835351
 20
19714.45542142195
 30
0.0
 11
12534.995914859481
 21
18677.274904732381
 31
0.0
  0
LINE
  5
D127
  8
2-0
  6
DASHED3
 62
     6
 10
10518.49728583535
 20
19714.45542142195
 30
0.0
 11
11908.565700136631
 21
18417.917480440941
 31
0.0
  0
LINE
  5
D128
  8
2-0
  6
CENTER2
 62
     6
 10
10448.498539835349
 20
20956.95766442196
 30
0.0
 11
10448.498539835349
 21
20006.957004421929
 31
0.0
  0
LINE
  5
D129
  8
2-0
  6
CENTER2
 62
     6
 10
15046.49864483535
 20
19714.45542142195
 30
0.0
 11
13399.99942383537
 21
19714.45542142195
 31
0.0
  0
LINE
  5
D12A
  8
0-8
  6
CONTINUOUS
 62
     6
 10
13716.99853983536
 20
20956.95766442196
 30
0.0
 11
13716.99853983536
 21
20006.957004421929
 31
0.0
  0
LINE
  5
D12B
  8
2-0
  6
CENTER2
 62
     6
 10
15046.49864483535
 20
16796.455421421939
 30
0.0
 11
5276.6990918353722
 21
16796.455421421939
 31
0.0
  0
LINE
  5
D12C
  8
2-0
  6
CENTER2
 62
     6
 10
15046.49864483535
 20
13878.455421421961
 30
0.0
 11
13399.99942383537
 21
13878.455421421961
 31
0.0
  0
ARC
  5
D12D
  8
0-1
  6
CONTINUOUS
 62
     3
 10
13733.999278835379
 20
19901.957400421921
 30
0.0
 40
5.0
 50
180.0
 51
270.00001499981897
  0
ARC
  5
D12E
  8
0-1
  6
CONTINUOUS
 62
     3
 10
13733.996577517881
 20
19931.95812334428
 30
0.0
 40
4.99729880777691
 50
89.969028448222716
 51
180.0128288362661
  0
ARC
  5
D12F
  8
0-1
  6
CONTINUOUS
 62
     3
 10
13797.502192311589
 20
19931.95821660808
 30
0.0
 40
4.9970736707893684
 50
359.9861012352485
 51
90.033554587670935
  0
CIRCLE
  5
D130
  8
0-5
  6
CONTINUOUS
 62
     4
 10
10448.498539835349
 20
21156.956345421939
 30
0.0
 40
199.9999949999999
  0
CIRCLE
  5
D131
  8
0-5
  6
CONTINUOUS
 62
     4
 10
13716.99853983536
 20
21156.956345421939
 30
0.0
 40
199.9999949999999
  0
CIRCLE
  5
D132
  8
0-5
  6
CONTINUOUS
 62
     4
 10
15246.49831583535
 20
19714.45542142195
 30
0.0
 40
199.9999949999999
  0
CIRCLE
  5
D133
  8
0-5
  6
CONTINUOUS
 62
     4
 10
15246.49831583535
 20
16796.455421421939
 30
0.0
 40
199.9999949999999
  0
CIRCLE
  5
D134
  8
0-5
  6
CONTINUOUS
 62
     4
 10
15246.49831583535
 20
13878.455421421961
 30
0.0
 40
199.9999949999999
  0
TEXT
  5
D135
  8
0-5
  6
CONTINUOUS
 62
     7
 10
10395.549079168681
 20
21067.74142242195
 30
0.0
 40
160.0
  1
2
 72
     4
 11
10448.88241250202
 21
21147.74142242195
 31
0.0
  0
TEXT
  5
D136
  8
0-5
  6
CONTINUOUS
 62
     7
 10
13663.665206502021
 20
21076.956345421939
 30
0.0
 40
160.0
  1
3
 72
     4
 11
13716.99853983536
 21
21156.956345421939
 31
0.0
  0
TEXT
  5
D137
  8
0-5
  6
CONTINUOUS
 62
     7
 10
15193.291517168671
 20
19634.866897421951
 30
0.0
 40
160.0
  1
C
 72
     4
 11
15246.62485050201
 21
19714.866897421951
 31
0.0
  0
TEXT
  5
D138
  8
0-5
  6
CONTINUOUS
 62
     7
 10
15193.291517168671
 20
16716.867887421951
 30
0.0
 40
160.0
  1
B
 72
     4
 11
15246.62485050201
 21
16796.867887421951
 31
0.0
  0
TEXT
  5
D139
  8
0-5
  6
CONTINUOUS
 62
     7
 10
15193.291517168671
 20
13798.866897421951
 30
0.0
 40
160.0
  1
A
 72
     4
 11
15246.62485050201
 21
13878.866897421951
 31
0.0
  0
LINE
  5
D13A
  8
2-0
  6
CENTER2
 62
     6
 10
5448.4985398353747
 20
20956.95766442196
 30
0.0
 11
5448.4985398353747
 21
20006.957004421929
 31
0.0
  0
CIRCLE
  5
D13B
  8
0-5
  6
CONTINUOUS
 62
     4
 10
5448.4985398353747
 20
21156.956345421939
 30
0.0
 40
199.9999949999999
  0
TEXT
  5
D13C
  8
0-5
  6
CONTINUOUS
 62
     7
 10
5422.2157458353586
 20
21067.74142242195
 30
0.0
 40
160.0
  1
1
 72
     4
 11
5448.8824125020265
 21
21147.74142242195
 31
0.0
  0
LINE
  5
D13D
  8
0-1
  6
CONTINUOUS
 62
     3
 10
5380.9983018353669
 20
15723.18294765284
 30
0.0
 11
5380.9983018353669
 21
19919.456345421921
 31
0.0
  0
LINE
  5
D13E
  8
0-1
  6
CONTINUOUS
 62
     3
 10
5380.9983018353669
 20
19919.456345421921
 30
0.0
 11
5362.9985398353729
 21
19919.456345421921
 31
0.0
  0
LINE
  5
D13F
  8
0-1
  6
CONTINUOUS
 62
     3
 10
5436.4990538353577
 20
19901.957400421921
 30
0.0
 11
5436.4990538353577
 21
19931.95700442194
 31
0.0
  0
LINE
  5
D140
  8
0-1
  6
CONTINUOUS
 62
     3
 10
5380.9983018353669
 20
19896.955157421951
 30
0.0
 11
5431.497799835357
 21
19896.955157421951
 31
0.0
  0
LINE
  5
D141
  8
0-1
  6
CONTINUOUS
 62
     3
 10
5362.9985398353729
 20
19931.95700442194
 30
0.0
 11
5362.9985398353729
 21
19896.955157421951
 31
0.0
  0
LINE
  5
D142
  8
0-1
  6
CONTINUOUS
 62
     3
 10
5431.497799835357
 20
19936.955289421941
 30
0.0
 11
5367.9997928353769
 21
19936.955289421941
 31
0.0
  0
ARC
  5
D143
  8
0-1
  6
CONTINUOUS
 62
     3
 10
5367.9997928353769
 20
19931.95700442194
 30
0.0
 40
5.0
 50
90.0
 51
180.0
  0
ARC
  5
D144
  8
0-1
  6
CONTINUOUS
 62
     3
 10
5431.497799835357
 20
19931.95700442194
 30
0.0
 40
5.0
 50
0.000000000000007
 51
90.0
  0
ARC
  5
D145
  8
0-1
  6
CONTINUOUS
 62
     3
 10
5431.497799835357
 20
19901.957400421921
 30
0.0
 40
5.0
 50
270.00001499981897
 51
0.000000000000007
  0
LINE
  5
D146
  8
0-1
  6
CONTINUOUS
 62
     3
 10
10448.498539835349
 20
13841.95606842195
 30
0.0
 11
10448.498539835349
 21
13685.95614742195
 31
0.0
  0
LINE
  5
D147
  8
0-1
  6
CONTINUOUS
 62
     3
 10
14039.49794583535
 20
19300.17552865544
 30
0.0
 11
10039.70008649071
 21
17644.161425081362
 31
0.0
  0
LINE
  5
D148
  8
0-1
  6
CONTINUOUS
 62
     3
 10
9115.2974808450817
 20
17262.745891226441
 30
0.0
 11
5125.9971548353706
 21
15616.730286921809
 31
0.0
  0
LINE
  5
D149
  8
0-1
  6
CONTINUOUS
 62
     3
 10
5498.4981708353571
 20
13717.95605442196
 30
0.0
 11
5498.4981708353571
 21
15771.664857211859
 31
0.0
  0
LINE
  5
D14A
  8
0-1
  6
CONTINUOUS
 62
     3
 10
5362.9985398353729
 20
13685.95614742195
 30
0.0
 11
5362.9985398353729
 21
15715.7561091838
 31
0.0
  0
LINE
  5
D14B
  8
0-1
  6
CONTINUOUS
 62
     3
 10
5448.4985398353747
 20
13841.95606842195
 30
0.0
 11
5448.4985398353747
 21
15749.796807047869
 31
0.0
  0
LINE
  5
D14C
  8
0-1
  6
CONTINUOUS
 62
     3
 10
5405.9972858353603
 20
13841.95606842195
 30
0.0
 11
5405.9972858353603
 21
15732.260466945711
 31
0.0
  0
LINE
  5
D14D
  8
0-1
  6
CONTINUOUS
 62
     3
 10
5498.4981708353571
 20
15771.664857211859
 30
0.0
 11
5498.4981708353571
 21
19878.955395421941
 31
0.0
  0
LINE
  5
D14E
  8
0-1
  6
CONTINUOUS
 62
     3
 10
5362.9985398353729
 20
15715.7561091838
 30
0.0
 11
5362.9985398353729
 21
19919.456345421921
 31
0.0
  0
LINE
  5
D14F
  8
0-1
  6
CONTINUOUS
 62
     3
 10
5595.9984078353737
 20
15810.656372515499
 30
0.0
 11
5595.9984078353673
 21
19878.955395421941
 31
0.0
  0
LINE
  5
D150
  8
0-1
  6
CONTINUOUS
 62
     3
 10
5558.9962568353567
 20
15795.389004064529
 30
0.0
 11
5558.9962568353567
 21
19878.955395421941
 31
0.0
  0
LINE
  5
D151
  8
2-0
  6
DASHED3
 62
     6
 10
5448.4985398353747
 20
15749.796807047869
 30
0.0
 11
5448.4985398353747
 21
19878.955395421941
 31
0.0
  0
LINE
  5
D152
  8
2-0
  6
DASHED3
 62
     6
 10
5405.9972858353603
 20
15732.260466945711
 30
0.0
 11
5405.9972858353567
 21
19878.955395421941
 31
0.0
  0
LINE
  5
D153
  8
0-1
  6
CONTINUOUS
 62
     3
 10
10595.996428835349
 20
17873.693519756409
 30
0.0
 11
10595.99642883534
 21
19878.955395421941
 31
0.0
  0
LINE
  5
D154
  8
0-1
  6
CONTINUOUS
 62
     3
 10
10558.99625683534
 20
17858.426967855841
 30
0.0
 11
10558.99625683534
 21
19878.955395421941
 31
0.0
  0
LINE
  5
D155
  8
0-1
  6
CONTINUOUS
 62
     3
 10
10395.995768835341
 20
17791.171728883732
 30
0.0
 11
10395.995768835341
 21
19878.955395421941
 31
0.0
  0
LINE
  5
D156
  8
0-1
  6
CONTINUOUS
 62
     3
 10
10358.995596835341
 20
17775.905176983171
 30
0.0
 11
10358.995596835341
 21
19878.955395421941
 31
0.0
  0
LINE
  5
D157
  8
0-1
  6
CONTINUOUS
 62
     3
 10
10195.995108835319
 20
17708.649938011062
 30
0.0
 11
10195.995108835319
 21
19878.955395421941
 31
0.0
  0
LINE
  5
D158
  8
0-1
  6
CONTINUOUS
 62
     3
 10
10158.99493683531
 20
17693.383386110509
 30
0.0
 11
10158.99493683531
 21
19878.955395421941
 31
0.0
  0
LINE
  5
D159
  8
0-1
  6
CONTINUOUS
 62
     3
 10
9995.9944488353285
 20
17750.086857435181
 30
0.0
 11
9995.9944488353285
 21
19878.955395421941
 31
0.0
  0
LINE
  5
D15A
  8
0-1
  6
CONTINUOUS
 62
     3
 10
9958.9942768353194
 20
17839.76085434993
 30
0.0
 11
9958.9942768353194
 21
19878.955395421941
 31
0.0
  0
LINE
  5
D15B
  8
0-1
  6
CONTINUOUS
 62
     3
 10
9795.9937888353179
 20
17704.683263369581
 30
0.0
 11
9795.9937888353179
 21
19878.955395421941
 31
0.0
  0
LINE
  5
D15C
  8
0-1
  6
CONTINUOUS
 62
     3
 10
9758.9936168353106
 20
17662.140022980711
 30
0.0
 11
9758.9936168353106
 21
19878.955395421941
 31
0.0
  0
LINE
  5
D15D
  8
0-1
  6
CONTINUOUS
 62
     3
 10
9595.9931288353037
 20
17474.720111946601
 30
0.0
 11
9595.9931288353127
 21
19878.955395421941
 31
0.0
  0
LINE
  5
D15E
  8
0-1
  6
CONTINUOUS
 62
     3
 10
9558.9929568352945
 20
17432.17687155772
 30
0.0
 11
9558.9929568352945
 21
19878.955395421941
 31
0.0
  0
LINE
  5
D15F
  8
0-1
  6
CONTINUOUS
 62
     3
 10
9395.9924688353003
 20
17244.756960523609
 30
0.0
 11
9395.9924688353003
 21
19878.955395421941
 31
0.0
  0
LINE
  5
D160
  8
0-1
  6
CONTINUOUS
 62
     3
 10
9358.9922968352912
 20
17202.213720134721
 30
0.0
 11
9358.9922968352912
 21
19878.955395421941
 31
0.0
  0
LINE
  5
D161
  8
0-1
  6
CONTINUOUS
 62
     3
 10
9195.9918088352861
 20
17067.164947913789
 30
0.0
 11
9195.9918088352861
 21
19878.955395421941
 31
0.0
  0
LINE
  5
D162
  8
0-1
  6
CONTINUOUS
 62
     3
 10
9158.9916368352788
 20
17156.84322794569
 30
0.0
 11
9158.9916368352788
 21
19878.955395421941
 31
0.0
  0
LINE
  5
D163
  8
0-1
  6
CONTINUOUS
 62
     3
 10
8995.9911488352827
 20
17213.519192775049
 30
0.0
 11
8995.9911488352827
 21
19878.955395421941
 31
0.0
  0
LINE
  5
D164
  8
0-1
  6
CONTINUOUS
 62
     3
 10
8958.9909768352736
 20
17198.252640874482
 30
0.0
 11
8958.9909768352736
 21
19878.955395421941
 31
0.0
  0
LINE
  5
D165
  8
0-1
  6
CONTINUOUS
 62
     3
 10
8795.9904888352667
 20
17130.997401902368
 30
0.0
 11
8795.9904888352776
 21
19878.955395421941
 31
0.0
  0
LINE
  5
D166
  8
0-1
  6
CONTINUOUS
 62
     3
 10
8758.9903168352648
 20
17115.730850001812
 30
0.0
 11
8758.9903168352648
 21
19878.955395421941
 31
0.0
  0
LINE
  5
D167
  8
0-1
  6
CONTINUOUS
 62
     3
 10
8595.9898288352615
 20
17048.475611029698
 30
0.0
 11
8595.9898288352615
 21
19878.955395421941
 31
0.0
  0
LINE
  5
D168
  8
0-1
  6
CONTINUOUS
 62
     3
 10
8558.989656835256
 20
17033.209059129149
 30
0.0
 11
8558.989656835256
 21
19878.955395421941
 31
0.0
  0
LINE
  5
D169
  8
0-1
  6
CONTINUOUS
 62
     3
 10
8395.9891688352509
 20
16965.953820157029
 30
0.0
 11
8395.9891688352509
 21
19878.955395421941
 31
0.0
  0
LINE
  5
D16A
  8
0-1
  6
CONTINUOUS
 62
     3
 10
8358.9889968352436
 20
16950.687268256461
 30
0.0
 11
8358.9889968352509
 21
19878.955395421941
 31
0.0
  0
LINE
  5
D16B
  8
0-1
  6
CONTINUOUS
 62
     3
 10
8195.9885088352476
 20
16883.432029284369
 30
0.0
 11
8195.9885088352476
 21
19878.955395421941
 31
0.0
  0
LINE
  5
D16C
  8
0-1
  6
CONTINUOUS
 62
     3
 10
8158.9883368352394
 20
16868.165477383809
 30
0.0
 11
8158.9883368352321
 21
19878.955395421941
 31
0.0
  0
LINE
  5
D16D
  8
0-1
  6
CONTINUOUS
 62
     3
 10
7995.9878488352342
 20
16800.910238411689
 30
0.0
 11
7995.9878488352379
 21
19878.955395421941
 31
0.0
  0
LINE
  5
D16E
  8
0-1
  6
CONTINUOUS
 62
     3
 10
7958.9876768352242
 20
16785.643686511132
 30
0.0
 11
7958.9876768352242
 21
19878.955395421941
 31
0.0
  0
LINE
  5
D16F
  8
0-1
  6
CONTINUOUS
 62
     3
 10
7795.98718883523
 20
16718.388447539019
 30
0.0
 11
7795.9871888352209
 21
19878.955395421941
 31
0.0
  0
LINE
  5
D170
  8
0-1
  6
CONTINUOUS
 62
     3
 10
7758.9870168352199
 20
16703.121895638451
 30
0.0
 11
7758.9870168352199
 21
19878.955395421941
 31
0.0
  0
LINE
  5
D171
  8
0-1
  6
CONTINUOUS
 62
     3
 10
7595.9865288352112
 20
16635.86665666636
 30
0.0
 11
7595.9865288352112
 21
19878.955395421941
 31
0.0
  0
LINE
  5
D172
  8
0-1
  6
CONTINUOUS
 62
     3
 10
7558.9863568352139
 20
16620.600104765781
 30
0.0
 11
7558.9863568352139
 21
19878.955395421941
 31
0.0
  0
LINE
  5
D173
  8
0-1
  6
CONTINUOUS
 62
     3
 10
7395.9858688352097
 20
16553.34486579369
 30
0.0
 11
7395.9858688352097
 21
19878.955395421941
 31
0.0
  0
LINE
  5
D174
  8
0-1
  6
CONTINUOUS
 62
     3
 10
7358.9856968352015
 20
16538.078313893118
 30
0.0
 11
7358.9856968352015
 21
19878.955395421941
 31
0.0
  0
LINE
  5
D175
  8
0-1
  6
CONTINUOUS
 62
     3
 10
7195.9852088352054
 20
16470.82307492102
 30
0.0
 11
7195.9852088352054
 21
19878.955395421941
 31
0.0
  0
LINE
  5
D176
  8
0-1
  6
CONTINUOUS
 62
     3
 10
7158.9850368351899
 20
16455.556523020441
 30
0.0
 11
7158.9850368351899
 21
19878.955395421941
 31
0.0
  0
LINE
  5
D177
  8
0-1
  6
CONTINUOUS
 62
     3
 10
6995.984548835193
 20
16388.301284048339
 30
0.0
 11
6995.984548835193
 21
19878.955395421941
 31
0.0
  0
LINE
  5
D178
  8
0-1
  6
CONTINUOUS
 62
     3
 10
6958.9843768351857
 20
16373.03473214778
 30
0.0
 11
6958.9843768351857
 21
19878.955395421948
 31
0.0
  0
LINE
  5
D179
  8
0-1
  6
CONTINUOUS
 62
     3
 10
6795.9838888351806
 20
16305.77949317568
 30
0.0
 11
6795.9838888351806
 21
19878.955395421941
 31
0.0
  0
LINE
  5
D17A
  8
0-1
  6
CONTINUOUS
 62
     3
 10
6758.9837168351814
 20
16290.51294127511
 30
0.0
 11
6758.9837168351814
 21
19878.955395421948
 31
0.0
  0
LINE
  5
D17B
  8
0-1
  6
CONTINUOUS
 62
     3
 10
6595.9832288351754
 20
16223.25770230301
 30
0.0
 11
6595.9832288351754
 21
19878.955395421941
 31
0.0
  0
LINE
  5
D17C
  8
0-1
  6
CONTINUOUS
 62
     3
 10
6558.983056835169
 20
16207.99115040244
 30
0.0
 11
6558.983056835169
 21
19878.955395421941
 31
0.0
  0
LINE
  5
D17D
  8
0-1
  6
CONTINUOUS
 62
     3
 10
6395.9825688351712
 20
16140.73591143034
 30
0.0
 11
6395.9825688351712
 21
19878.955395421941
 31
0.0
  0
LINE
  5
D17E
  8
0-1
  6
CONTINUOUS
 62
     3
 10
6358.9823968351538
 20
16125.469359529759
 30
0.0
 11
6358.9823968351629
 21
19878.955395421941
 31
0.0
  0
LINE
  5
D17F
  8
0-1
  6
CONTINUOUS
 62
     3
 10
6195.9819088351569
 20
16058.214120557661
 30
0.0
 11
6195.9819088351569
 21
19878.955395421941
 31
0.0
  0
LINE
  5
D180
  8
0-1
  6
CONTINUOUS
 62
     3
 10
6158.9817368351496
 20
16042.94756865711
 30
0.0
 11
6158.9817368351496
 21
19878.955395421941
 31
0.0
  0
LINE
  5
D181
  8
0-1
  6
CONTINUOUS
 62
     3
 10
5995.9812488351463
 20
15975.692329685
 30
0.0
 11
5995.9812488351463
 21
19878.955395421941
 31
0.0
  0
LINE
  5
D182
  8
0-1
  6
CONTINUOUS
 62
     3
 10
5958.9810768351463
 20
15960.42577778443
 30
0.0
 11
5958.9810768351463
 21
19878.955395421941
 31
0.0
  0
LINE
  5
D183
  8
0-1
  6
CONTINUOUS
 62
     3
 10
5795.9805888351402
 20
15893.17053881233
 30
0.0
 11
5795.9805888351402
 21
19878.955395421941
 31
0.0
  0
LINE
  5
D184
  8
0-1
  6
CONTINUOUS
 62
     3
 10
5758.980416835132
 20
15877.903986911761
 30
0.0
 11
5758.980416835132
 21
19878.955395421941
 31
0.0
  0
LINE
  5
D185
  8
0-1
  6
CONTINUOUS
 62
     3
 10
10388.998170835361
 20
13878.455421421961
 30
0.0
 11
8139.9981708353598
 21
16796.455421421939
 31
0.0
  0
LINE
  5
D186
  8
2-0
  6
DASHED3
 62
     6
 10
6280.9611097565739
 20
16093.27718408442
 30
0.0
 11
5738.998170835358
 21
16796.455421421939
 31
0.0
  0
LINE
  5
D187
  8
0-1
  6
CONTINUOUS
 62
     3
 10
8139.9981708353598
 20
13878.455421421961
 30
0.0
 11
10388.998170835361
 21
16796.455421421939
 31
0.0
  0
LINE
  5
D188
  8
2-0
  6
DASHED3
 62
     6
 10
10388.998170835361
 20
19714.45542142195
 30
0.0
 11
8212.5489845420943
 21
16890.265007300732
 31
0.0
  0
LINE
  5
D189
  8
2-0
  6
DASHED3
 62
     6
 10
8139.9981708353598
 20
19714.45542142195
 30
0.0
 11
9738.0848038785916
 21
17638.09881971647
 31
0.0
  0
LINE
  5
D18A
  8
0-1
  6
CONTINUOUS
 62
     3
 10
9738.0848038785916
 20
17638.09881971647
 30
0.0
 11
10388.998170835361
 21
16796.455421421939
 31
0.0
  0
LINE
  5
D18B
  8
0-1
  6
CONTINUOUS
 62
     3
 10
10039.70062425049
 20
17644.160121761241
 30
0.0
 11
9944.3466039269697
 21
17875.261104867441
 31
0.0
  0
LINE
  5
D18C
  8
0-1
  6
CONTINUOUS
 62
     3
 10
9210.6470717437605
 20
17031.644605709811
 30
0.0
 11
9115.2964220662398
 21
17262.748457416281
 31
0.0
  0
LINE
  5
D18D
  8
0-1
  6
CONTINUOUS
 62
     3
 10
9210.6470717437605
 20
17031.644605709811
 30
0.0
 11
9944.3466039269697
 21
17875.261104867441
 31
0.0
  0
LINE
  5
D18E
  8
0-1
  6
CONTINUOUS
 62
     3
 10
8139.9981708353598
 20
16796.455421421961
 30
0.0
 11
8212.5489845420943
 21
16890.265007300732
 31
0.0
  0
LINE
  5
D18F
  8
2-0
  6
DASHED3
 62
     6
 10
7987.9981708353598
 20
19714.45542142195
 30
0.0
 11
5738.998170835358
 21
16796.455421421939
 31
0.0
  0
LINE
  5
D190
  8
2-0
  6
DASHED3
 62
     6
 10
5738.998170835358
 20
19714.45542142195
 30
0.0
 11
7987.9981708353598
 21
16796.455421421939
 31
0.0
  0
LINE
  5
D191
  8
0-1
  6
CONTINUOUS
 62
     3
 10
7987.9981708353598
 20
13878.455421421961
 30
0.0
 11
6280.9611097565739
 21
16093.27718408442
 31
0.0
  0
LINE
  5
D192
  8
0-1
  6
CONTINUOUS
 62
     3
 10
5738.998170835358
 20
13878.455421421961
 30
0.0
 11
7987.9981708353598
 21
16796.455421421939
 31
0.0
  0
LINE
  5
D193
  8
SUNPOU
  6
CONTINUOUS
 10
14646.49831583535
 20
19936.953309921959
 30
0.0
 11
14646.49831583535
 21
20733.920577700432
 31
0.0
  0
LINE
  5
D194
  8
SUNPOU
  6
CONTINUOUS
 10
14646.49831583535
 20
12944.643557269759
 30
0.0
 11
14646.49831583535
 21
13685.95614742195
 31
0.0
  0
LINE
  5
D195
  8
0-1
  6
CONTINUOUS
 62
     3
 10
12595.99708883534
 20
18702.530882156982
 30
0.0
 11
12595.99708883534
 21
19878.955395421941
 31
0.0
  0
LINE
  5
D196
  8
0-1
  6
CONTINUOUS
 62
     3
 10
12558.99691683534
 20
18687.21190634336
 30
0.0
 11
12558.99691683534
 21
19878.955395421941
 31
0.0
  0
LINE
  5
D197
  8
0-1
  6
CONTINUOUS
 62
     3
 10
12395.99741783534
 20
18619.726128633662
 30
0.0
 11
12395.99741783534
 21
19878.955395421941
 31
0.0
  0
LINE
  5
D198
  8
0-1
  6
CONTINUOUS
 62
     3
 10
12358.996256835349
 20
18604.406743349849
 30
0.0
 11
12358.996256835349
 21
19878.955395421941
 31
0.0
  0
LINE
  5
D199
  8
0-1
  6
CONTINUOUS
 62
     3
 10
12795.99774783533
 20
18785.336044736461
 30
0.0
 11
12795.99774783533
 21
19878.955395421941
 31
0.0
  0
LINE
  5
D19A
  8
0-1
  6
CONTINUOUS
 62
     3
 10
12758.99856683534
 20
18770.017479221071
 30
0.0
 11
12758.99856683534
 21
19878.955395421941
 31
0.0
  0
LINE
  5
D19B
  8
0-1
  6
CONTINUOUS
 62
     3
 10
13195.99708883532
 20
18950.945551369081
 30
0.0
 11
13195.99708883534
 21
19878.955395421941
 31
0.0
  0
LINE
  5
D19C
  8
0-1
  6
CONTINUOUS
 62
     3
 10
13158.99691683534
 20
18935.626575555481
 30
0.0
 11
13158.99691683534
 21
19878.955395421941
 31
0.0
  0
LINE
  5
D19D
  8
0-1
  6
CONTINUOUS
 62
     3
 10
12995.99741783534
 20
18868.140797845761
 30
0.0
 11
12995.99741783534
 21
19878.955395421941
 31
0.0
  0
LINE
  5
D19E
  8
0-1
  6
CONTINUOUS
 62
     3
 10
12958.99625683534
 20
18852.821412561982
 30
0.0
 11
12958.99625683534
 21
19878.955395421941
 31
0.0
  0
LINE
  5
D19F
  8
0-1
  6
CONTINUOUS
 62
     3
 10
13395.99774783533
 20
19033.750713948561
 30
0.0
 11
13395.99774783533
 21
19878.955395421941
 31
0.0
  0
LINE
  5
D1A0
  8
0-1
  6
CONTINUOUS
 62
     3
 10
13358.99856683532
 20
19018.432148433181
 30
0.0
 11
13358.99856683532
 21
19878.955395421941
 31
0.0
  0
LINE
  5
D1A1
  8
0-1
  6
CONTINUOUS
 62
     3
 10
13595.99840683533
 20
19116.555876528058
 30
0.0
 11
13595.99840683533
 21
19878.955395421941
 31
0.0
  0
LINE
  5
D1A2
  8
0-1
  6
CONTINUOUS
 62
     3
 10
13558.99922583533
 20
19101.237311012668
 30
0.0
 11
13558.99922583533
 21
19878.955395421941
 31
0.0
  0
LINE
  5
D1A3
  8
0-1
  6
CONTINUOUS
 62
     3
 10
5439.4980648353649
 20
19926.95872042195
 30
0.0
 11
13725.99901483537
 21
19926.95872042195
 31
0.0
  0
LINE
  5
D1A4
  8
0-1
  6
CONTINUOUS
 62
     3
 10
5383.9983018353669
 20
19878.955395421941
 30
0.0
 11
13781.49976683537
 21
19878.955395421941
 31
0.0
  0
LINE
  5
D1A5
  8
0-6
  6
CONTINUOUS
 62
     6
 10
9337.4250082063409
 20
20069.36132842195
 30
0.0
 11
9294.1230392063244
 21
20044.360008421951
 31
0.0
  0
LINE
  5
D1A6
  8
0-6
  6
CONTINUOUS
 62
     6
 10
9337.4250082063409
 20
20069.36132842195
 30
0.0
 11
9390.7730342063442
 21
19926.958720421921
 31
0.0
  0
LINE
  5
D1A7
  8
0-6
  6
CONTINUOUS
 62
     6
 10
9294.1230392063244
 20
20044.360008421951
 30
0.0
 11
9337.4250082063409
 21
20069.36132842195
 31
0.0
  0
LINE
  5
D1A8
  8
0-6
  6
CONTINUOUS
 62
     6
 10
9390.7730342063442
 20
19926.958720421921
 30
0.0
 11
9294.1230392063244
 21
20044.360008421951
 31
0.0
  0
LINE
  5
D1A9
  8
0-6
  6
CONTINUOUS
 62
     6
 10
9390.7730342063442
 20
19926.958720421921
 30
0.0
 11
9337.4250082063409
 21
20069.36132842195
 31
0.0
  0
LINE
  5
D1AA
  8
0-6
  6
CONTINUOUS
 62
     6
 10
9294.1230392063244
 20
20044.360008421951
 30
0.0
 11
9390.7730342063442
 21
19926.958720421921
 31
0.0
  0
LINE
  5
D1AB
  8
0-6
  6
CONTINUOUS
 62
     6
 10
9315.7750132063466
 20
20056.86264842196
 30
0.0
 11
9090.189196536654
 21
20480.532488153061
 31
0.0
  0
TEXT
  5
D1AC
  8
0-6
  6
CONTINUOUS
 62
     7
 10
8916.5179932063456
 20
21036.957928421951
 30
0.0
 40
160.0
  1
鼻隠し後
 72
     4
 11
9279.1846598730117
 21
21116.957928421951
 31
0.0
  0
LINE
  5
D1AD
  8
0-6
  6
CONTINUOUS
 62
     6
 10
8836.5157492063445
 20
20956.957664421949
 30
0.0
 11
9678.9553082063485
 21
20956.957664421949
 31
0.0
  0
LINE
  5
D1AE
  8
0-6
  6
CONTINUOUS
 62
     6
 10
9022.1553374841315
 20
20608.307167105351
 30
0.0
 11
8836.5157492063445
 21
20956.957664421949
 31
0.0
  0
LINE
  5
D1AF
  8
0-6
  6
CONTINUOUS
 62
     6
 10
12473.3745790588
 20
19739.95691242196
 30
0.0
 11
12366.679517058799
 21
19862.132799421961
 31
0.0
  0
LINE
  5
D1B0
  8
0-6
  6
CONTINUOUS
 62
     6
 10
12412.068889058801
 20
19890.133089421961
 30
0.0
 11
12473.3745790588
 21
19739.95691242196
 31
0.0
  0
LINE
  5
D1B1
  8
0-6
  6
CONTINUOUS
 62
     6
 10
12412.068889058801
 20
19890.133089421961
 30
0.0
 11
12366.679517058799
 21
19862.132799421961
 31
0.0
  0
LINE
  5
D1B2
  8
0-6
  6
CONTINUOUS
 62
     6
 10
12473.3745790588
 20
19739.95691242196
 30
0.0
 11
12179.4467520588
 21
20146.45501242195
 31
0.0
  0
LINE
  5
D1B3
  8
0-6
  6
CONTINUOUS
 62
     6
 10
11379.44510305879
 20
20146.45501242195
 30
0.0
 11
12179.4467520588
 21
20146.45501242195
 31
0.0
  0
TEXT
  5
D1B4
  8
0-6
  6
CONTINUOUS
 62
     7
 10
11459.44635705882
 20
20226.455276421952
 30
0.0
 40
160.0
  1
桁（後）
 72
     4
 11
11779.44635705882
 21
20306.455276421952
 31
0.0
  0
LINE
  5
D1BD
  8
0-6
  6
CONTINUOUS
 62
     6
 10
1732.5044851074911
 20
13765.68597356086
 30
0.0
 11
4361.4014737206153
 21
13765.68597356086
 31
0.0
  0
TEXT
  5
D1BE
  8
0-6
  6
CONTINUOUS
 62
     7
 10
1800.2387976990269
 20
13845.686237560871
 30
0.0
 40
160.0
  1
桁前（PU）+ 桁補強（PU）
 72
     4
 11
3048.2387976990281
 21
13925.686237560871
 31
0.0
  0
LINE
  5
D1BF
  8
0-6
  6
CONTINUOUS
 62
     6
 10
4361.4014737206153
 20
13765.68597356086
 30
0.0
 11
6022.7067146010759
 21
13339.75608419956
 31
0.0
  0
LINE
  5
D1C0
  8
0-6
  6
CONTINUOUS
 62
     6
 10
6022.7067146010759
 20
13339.75608419956
 30
0.0
 11
6399.6491780966162
 21
13841.9560684219
 31
0.0
  0
LINE
  5
D1C1
  8
0-6
  6
CONTINUOUS
 62
     6
 10
1831.5937868308961
 20
16675.184931560882
 30
0.0
 11
4361.4014737206153
 21
16675.184931560882
 31
0.0
  0
TEXT
  5
D1C2
  8
0-6
  6
CONTINUOUS
 62
     7
 10
1935.8655586781231
 20
16755.185195560862
 30
0.0
 40
160.0
  1
桁（PU）+ 桁補強（PU）
 72
     4
 11
3087.8655586781242
 21
16835.185195560862
 31
0.0
  0
LINE
  5
D1C3
  8
0-6
  6
CONTINUOUS
 62
     6
 10
4361.4014737206153
 20
16675.184931560882
 30
0.0
 11
6022.7067146010759
 21
16249.25504219956
 31
0.0
  0
LINE
  5
D1C4
  8
0-6
  6
CONTINUOUS
 62
     6
 10
6022.7067146010759
 20
16249.25504219956
 30
0.0
 11
6399.6491780966162
 21
16751.455026421911
 31
0.0
  0
LINE
  5
D1C5
  8
0-6
  6
CONTINUOUS
 62
     6
 10
1831.5937868308961
 20
19599.18683056088
 30
0.0
 11
4361.4014737206153
 21
19599.18683056088
 31
0.0
  0
TEXT
  5
D1C6
  8
0-6
  6
CONTINUOUS
 62
     7
 10
1935.8655586781231
 20
19679.187094560872
 30
0.0
 40
160.0
  1
桁（PU）+ 桁補強（PU）
 72
     4
 11
3087.8655586781242
 21
19759.187094560872
 31
0.0
  0
LINE
  5
D1C7
  8
0-6
  6
CONTINUOUS
 62
     6
 10
4361.4014737206153
 20
19599.18683056088
 30
0.0
 11
6022.7067146010759
 21
19173.256941199568
 31
0.0
  0
LINE
  5
D1C8
  8
0-6
  6
CONTINUOUS
 62
     6
 10
6022.7067146010759
 20
19173.256941199568
 30
0.0
 11
6399.6491780966162
 21
19675.456925421891
 31
0.0
  0
TEXT
  5
D1C9
  8
0-6
  6
CONTINUOUS
 62
     7
 10
4186.6272457025234
 20
14346.356897220039
 30
0.0
 40
160.0
  1
梁（P）前
 72
     4
 11
4629.2939123691904
 21
14426.356897220039
 31
0.0
  0
LINE
  5
D1CA
  8
0-6
  6
CONTINUOUS
 62
     6
 10
4122.4295575204787
 20
14266.357623220039
 30
0.0
 11
5137.4197268453281
 21
14266.357623220039
 31
0.0
  0
LINE
  5
D1CD
  8
WAKUSEN-01
 10
868.00000000000193
 20
22484.000000000011
 30
0.0
 11
32764.000000000011
 21
22484.000000000011
 31
0.0
  0
LINE
  5
D1D0
  8
WAKUSEN-01
 10
20560.0
 20
2484.0
 30
0.0
 11
32764.0
 21
2484.0
 31
0.0
  0
LINE
  5
D1D1
  8
WAKUSEN-02
 10
20560.0
 20
1655.9999999999991
 30
0.0
 11
26868.0
 21
1655.9999999999991
 31
0.0
  0
TEXT
  5
D1D2
  8
WAKUMOJI-01
 10
20670.260259962761
 20
2125.9030093393221
 30
0.0
 40
240.0
  1
名　称
  7
WAKUMOJI
  0
TEXT
  5
D1D3
  8
WAKUMOJI-01
 10
20656.505485091919
 20
1319.12897497982
 30
0.0
 40
240.0
  1
機種名
  7
WAKUMOJI
  0
LINE
  5
D1D6
  8
YODOROGO
 10
29977.604341291921
 20
1995.7494964292871
 30
0.0
 11
29829.604341291921
 21
1995.7494964292871
 31
0.0
1001
AUTOCAD_POSTSCRIPT_FIGURE
1002
{
1000
PSFILL
1000
Grayscale
1000
Grayscale
1070
    25
1002
}
  0
LINE
  5
D1D7
  8
YODOROGO
 10
29829.604341291921
 20
1947.749496429288
 30
0.0
 11
29977.604341291921
 21
1947.749496429288
 31
0.0
1001
AUTOCAD_POSTSCRIPT_FIGURE
1002
{
1000
PSFILL
1000
Grayscale
1000
Grayscale
1070
    25
1002
}
  0
LINE
  5
D1D8
  8
YODOROGO
 10
29977.604341291921
 20
1907.7494964292871
 30
0.0
 11
29829.604341291921
 21
1907.7494964292871
 31
0.0
1001
AUTOCAD_POSTSCRIPT_FIGURE
1002
{
1000
PSFILL
1000
Grayscale
1000
Grayscale
1070
    25
1002
}
  0
LINE
  5
D1D9
  8
YODOROGO
 10
29829.604341291921
 20
1859.749496429288
 30
0.0
 11
29977.604341291921
 21
1859.749496429288
 31
0.0
1001
AUTOCAD_POSTSCRIPT_FIGURE
1002
{
1000
PSFILL
1000
Grayscale
1000
Grayscale
1070
    25
1002
}
  0
LINE
  5
D1DA
  8
YODOROGO
 10
29977.604341291921
 20
1819.7494964292871
 30
0.0
 11
29829.604341291921
 21
1819.7494964292871
 31
0.0
1001
AUTOCAD_POSTSCRIPT_FIGURE
1002
{
1000
PSFILL
1000
Grayscale
1000
Grayscale
1070
    25
1002
}
  0
LINE
  5
D1DB
  8
YODOROGO
 10
29921.60434129191
 20
1707.749496429288
 30
0.0
 11
29977.604341291921
 21
1707.749496429288
 31
0.0
1001
AUTOCAD_POSTSCRIPT_FIGURE
1002
{
1000
PSFILL
1000
Grayscale
1000
Grayscale
1070
    25
1002
}
  0
LINE
  5
D1DC
  8
YODOROGO
 10
29737.604341291921
 20
1427.749496429288
 30
0.0
 11
29937.604341291932
 21
1481.3393349155101
 31
0.0
  0
LINE
  5
D1DD
  8
YODOROGO
 10
29949.60434129191
 20
1707.749496429288
 30
0.0
 11
29885.604341291921
 21
1707.749496429288
 31
0.0
  0
ARC
  5
D1DE
  8
YODOROGO
 10
30254.34774982791
 20
1807.864609233261
 30
0.0
 40
381.88686420564721
 50
213.96111677667841
 51
264.47872074317792
  0
ARC
  5
D1DF
  8
YODOROGO
 10
30254.347749827921
 20
1807.864609233302
 30
0.0
 40
381.8868642056816
 50
208.14114420486601
 51
212.9210361185994
  0
LINE
  5
D1E0
  8
YODOROGO
 10
29771.409872985321
 20
1556.807661346234
 30
0.0
 11
29933.78413250855
 21
1600.3157130570869
 31
0.0
  0
LINE
  5
D1E1
  8
YODOROGO
 10
29737.604341291921
 20
1427.749496429288
 30
0.0
 11
29937.604341291932
 21
1481.3393349155101
 31
0.0
  0
LINE
  5
D1E2
  8
YODOROGO
 10
29949.60434129191
 20
1707.749496429288
 30
0.0
 11
29885.604341291921
 21
1707.749496429288
 31
0.0
  0
ARC
  5
D1E3
  8
YODOROGO
 10
30254.34774982791
 20
1807.864609233261
 30
0.0
 40
381.88686420564721
 50
213.96111677667841
 51
264.47872074317792
  0
LINE
  5
D1E4
  8
YODOROGO
 10
28793.60434129191
 20
1819.7494964292871
 30
0.0
 11
28433.60434129191
 21
1819.7494964292871
 31
0.0
  0
LINE
  5
D1E5
  8
YODOROGO
 10
28513.60434129191
 20
1427.749496429288
 30
0.0
 11
28793.60434129191
 21
1427.749496429288
 31
0.0
  0
LINE
  5
D1E6
  8
YODOROGO
 10
28729.604341291921
 20
1923.7494964292871
 30
0.0
 11
28497.60434129191
 21
1923.7494964292871
 31
0.0
  0
LINE
  5
D1E7
  8
YODOROGO
 10
28585.604341291921
 20
2027.749496429288
 30
0.0
 11
28657.604341291921
 21
2027.749496429288
 31
0.0
  0
LINE
  5
D1E8
  8
YODOROGO
 10
28433.60434129191
 20
1707.749496429288
 30
0.0
 11
28433.60434129191
 21
1507.749496429288
 31
0.0
  0
LINE
  5
D1E9
  8
YODOROGO
 10
28497.60434129191
 20
1563.7494964292871
 30
0.0
 11
28497.60434129191
 21
1707.749496429288
 31
0.0
  0
LINE
  5
D1EA
  8
YODOROGO
 10
28585.604341291921
 20
1747.74949642929
 30
0.0
 11
28585.604341291921
 21
1547.749496429288
 31
0.0
  0
LINE
  5
D1EB
  8
YODOROGO
 10
27857.604341291921
 20
1683.749496429288
 30
0.0
 11
27777.604341291921
 21
1619.9724140445701
 31
0.0
  0
LINE
  5
D1EC
  8
YODOROGO
 10
27937.604341291921
 20
1619.9724140445701
 30
0.0
 11
27857.604341291921
 21
1683.749496429288
 31
0.0
  0
LINE
  5
D1ED
  8
YODOROGO
 10
27857.604341291921
 20
1707.749496429288
 30
0.0
 11
27937.604341291921
 21
1643.9724140445701
 31
0.0
  0
LINE
  5
D1EE
  8
YODOROGO
 10
27777.604341291921
 20
1643.9724140445701
 30
0.0
 11
27857.604341291921
 21
1707.749496429288
 31
0.0
  0
LINE
  5
D1EF
  8
YODOROGO
 10
28040.913204016892
 20
1659.749496429288
 30
0.0
 11
28040.913204016892
 21
1683.7494964292871
 31
0.0
  0
LINE
  5
D1F0
  8
YODOROGO
 10
27977.604341291921
 20
1683.7494964292871
 30
0.0
 11
27977.604341291921
 21
1667.749496429285
 31
0.0
  0
LINE
  5
D1F1
  8
YODOROGO
 10
28098.135520230931
 20
1707.749496429288
 30
0.0
 11
28098.135520230931
 21
1655.5036372746561
 31
0.0
1001
AUTOCAD_POSTSCRIPT_FIGURE
1002
{
1000
PSFILL
1000
Grayscale
1000
Grayscale
1070
   100
1002
}
  0
LINE
  5
D1F2
  8
YODOROGO
 10
28082.135520230921
 20
1655.5036372746561
 30
0.0
 11
28082.135520230921
 21
1707.749496429288
 31
0.0
1001
AUTOCAD_POSTSCRIPT_FIGURE
1002
{
1000
PSFILL
1000
Grayscale
1000
Grayscale
1070
   100
1002
}
  0
LINE
  5
D1F3
  8
YODOROGO
 10
27809.604341291921
 20
1608.771904043258
 30
0.0
 11
27809.604341291921
 21
1632.771904043258
 31
0.0
  0
LINE
  5
D1F4
  8
YODOROGO
 10
27905.604341291921
 20
1608.771904043258
 30
0.0
 11
27809.604341291921
 21
1608.771904043258
 31
0.0
  0
LINE
  5
D1F5
  8
YODOROGO
 10
27905.604341291921
 20
1632.771904043258
 30
0.0
 11
27905.604341291921
 21
1608.771904043258
 31
0.0
  0
LINE
  5
D1F6
  8
YODOROGO
 10
27809.604341291921
 20
1632.771904043258
 30
0.0
 11
27905.604341291921
 21
1632.771904043258
 31
0.0
  0
LINE
  5
D1F7
  8
YODOROGO
 10
27824.509588915738
 20
1568.5028573704751
 30
0.0
 11
27785.604341291921
 21
1475.7494964292871
 31
0.0
1001
AUTOCAD_POSTSCRIPT_FIGURE
1002
{
1000
PSFILL
1000
Grayscale
1000
Grayscale
1070
   100
1002
}
  0
LINE
  5
D1F8
  8
YODOROGO
 10
27777.604341291921
 20
1568.5028573704751
 30
0.0
 11
27824.509588915738
 21
1568.5028573704751
 31
0.0
1001
AUTOCAD_POSTSCRIPT_FIGURE
1002
{
1000
PSFILL
1000
Grayscale
1000
Grayscale
1070
   100
1002
}
  0
LINE
  5
D1F9
  8
YODOROGO
 10
27777.604341291921
 20
1588.5028573704751
 30
0.0
 11
27777.604341291921
 21
1568.5028573704751
 31
0.0
1001
AUTOCAD_POSTSCRIPT_FIGURE
1002
{
1000
PSFILL
1000
Grayscale
1000
Grayscale
1070
   100
1002
}
  0
LINE
  5
D1FA
  8
YODOROGO
 10
27937.604341291921
 20
1588.5028573704751
 30
0.0
 11
27777.604341291921
 21
1588.5028573704751
 31
0.0
1001
AUTOCAD_POSTSCRIPT_FIGURE
1002
{
1000
PSFILL
1000
Grayscale
1000
Grayscale
1070
   100
1002
}
  0
LINE
  5
D1FB
  8
YODOROGO
 10
27937.604341291921
 20
1568.5028573704751
 30
0.0
 11
27937.604341291921
 21
1588.5028573704751
 31
0.0
1001
AUTOCAD_POSTSCRIPT_FIGURE
1002
{
1000
PSFILL
1000
Grayscale
1000
Grayscale
1070
   100
1002
}
  0
LINE
  5
D1FC
  8
YODOROGO
 10
27844.509588915738
 20
1568.5028573704751
 30
0.0
 11
27937.604341291921
 21
1568.5028573704751
 31
0.0
1001
AUTOCAD_POSTSCRIPT_FIGURE
1002
{
1000
PSFILL
1000
Grayscale
1000
Grayscale
1070
   100
1002
}
  0
LINE
  5
D1FD
  8
YODOROGO
 10
27815.546718284771
 20
1495.7494964292871
 30
0.0
 11
27844.509588915738
 21
1568.5028573704751
 31
0.0
1001
AUTOCAD_POSTSCRIPT_FIGURE
1002
{
1000
PSFILL
1000
Grayscale
1000
Grayscale
1070
   100
1002
}
  0
LINE
  5
D1FE
  8
YODOROGO
 10
27902.054790808648
 20
1495.7494964292871
 30
0.0
 11
27815.546718284771
 21
1495.7494964292871
 31
0.0
1001
AUTOCAD_POSTSCRIPT_FIGURE
1002
{
1000
PSFILL
1000
Grayscale
1000
Grayscale
1070
   100
1002
}
  0
LINE
  5
D1FF
  8
YODOROGO
 10
27885.065004790951
 20
1536.2338106976929
 30
0.0
 11
27902.054790808648
 21
1495.7494964292871
 31
0.0
1001
AUTOCAD_POSTSCRIPT_FIGURE
1002
{
1000
PSFILL
1000
Grayscale
1000
Grayscale
1070
   100
1002
}
  0
LINE
  5
D200
  8
YODOROGO
 10
27901.065004790951
 20
1536.2338106976929
 30
0.0
 11
27885.065004790951
 21
1536.2338106976929
 31
0.0
1001
AUTOCAD_POSTSCRIPT_FIGURE
1002
{
1000
PSFILL
1000
Grayscale
1000
Grayscale
1070
   100
1002
}
  0
LINE
  5
D201
  8
YODOROGO
 10
27929.604341291921
 20
1475.7494964292871
 30
0.0
 11
27901.065004790951
 21
1536.2338106976929
 31
0.0
1001
AUTOCAD_POSTSCRIPT_FIGURE
1002
{
1000
PSFILL
1000
Grayscale
1000
Grayscale
1070
   100
1002
}
  0
LINE
  5
D202
  8
YODOROGO
 10
27785.604341291921
 20
1475.7494964292871
 30
0.0
 11
27929.604341291921
 21
1475.7494964292871
 31
0.0
1001
AUTOCAD_POSTSCRIPT_FIGURE
1002
{
1000
PSFILL
1000
Grayscale
1000
Grayscale
1070
   100
1002
}
  0
LINE
  5
D203
  8
YODOROGO
 10
27777.604341291921
 20
1619.9724140445701
 30
0.0
 11
27777.604341291921
 21
1643.9724140445701
 31
0.0
  0
LINE
  5
D204
  8
YODOROGO
 10
27937.604341291921
 20
1643.9724140445701
 30
0.0
 11
27937.604341291921
 21
1619.9724140445701
 31
0.0
  0
ARC
  5
D205
  8
YODOROGO
 10
28225.940442146959
 20
1600.877765325326
 30
0.0
 40
175.9999999999998
 50
280.3644312771313
 51
3.5414836592180561
  0
ARC
  5
D206
  8
YODOROGO
 10
28235.756030759301
 20
1633.5978069619041
 30
0.0
 40
111.9999999999982
 50
281.24905825041549
 51
348.75094174958321
  0
LINE
  5
D207
  8
YODOROGO
 10
28257.604341291921
 20
1523.7494964292871
 30
0.0
 11
28257.604341291921
 21
1427.749496429288
 31
0.0
  0
LINE
  5
D208
  8
YODOROGO
 10
28020.088903736909
 20
1610.650565061914
 30
0.0
 11
28040.913204016892
 21
1659.749496429288
 31
0.0
  0
LINE
  5
D209
  8
YODOROGO
 10
28041.604341291921
 20
1583.120489948401
 30
0.0
 11
28020.088903736909
 21
1610.650565061914
 31
0.0
  0
LINE
  5
D20A
  8
YODOROGO
 10
28041.604341291921
 20
1563.120489948398
 30
0.0
 11
28041.604341291921
 21
1583.120489948401
 31
0.0
  0
LINE
  5
D20B
  8
YODOROGO
 10
28017.604341291921
 20
1585.2370637495301
 30
0.0
 11
28041.604341291921
 21
1563.120489948398
 31
0.0
  0
LINE
  5
D20C
  8
YODOROGO
 10
28017.604341291921
 20
1475.7494964292871
 30
0.0
 11
28017.604341291921
 21
1585.2370637495301
 31
0.0
  0
LINE
  5
D20D
  8
YODOROGO
 10
28001.604341291921
 20
1475.7494964292871
 30
0.0
 11
28017.604341291921
 21
1475.7494964292871
 31
0.0
  0
LINE
  5
D20E
  8
YODOROGO
 10
28001.604341291921
 20
1580.0053496897469
 30
0.0
 11
28001.604341291921
 21
1475.7494964292871
 31
0.0
  0
LINE
  5
D20F
  8
YODOROGO
 10
27977.604341291921
 20
1532.7680790334291
 30
0.0
 11
28001.604341291921
 21
1580.0053496897469
 31
0.0
  0
LINE
  5
D210
  8
YODOROGO
 10
27977.604341291921
 20
1556.76807903343
 30
0.0
 11
27977.604341291921
 21
1532.7680790334291
 31
0.0
  0
LINE
  5
D211
  8
YODOROGO
 10
28025.828774291349
 20
1667.749496429285
 30
0.0
 11
27977.604341291921
 21
1556.76807903343
 31
0.0
  0
LINE
  5
D212
  8
YODOROGO
 10
27977.604341291921
 20
1667.749496429285
 30
0.0
 11
28025.828774291349
 21
1667.749496429285
 31
0.0
  0
LINE
  5
D213
  8
YODOROGO
 10
28050.135520230899
 20
1655.5036372746561
 30
0.0
 11
28082.135520230921
 21
1655.5036372746561
 31
0.0
1001
AUTOCAD_POSTSCRIPT_FIGURE
1002
{
1000
PSFILL
1000
Grayscale
1000
Grayscale
1070
   100
1002
}
  0
LINE
  5
D214
  8
YODOROGO
 10
28050.135520230899
 20
1631.5036372746561
 30
0.0
 11
28050.135520230899
 21
1655.5036372746561
 31
0.0
1001
AUTOCAD_POSTSCRIPT_FIGURE
1002
{
1000
PSFILL
1000
Grayscale
1000
Grayscale
1070
   100
1002
}
  0
LINE
  5
D215
  8
YODOROGO
 10
28082.135520230921
 20
1631.5036372746561
 30
0.0
 11
28050.135520230899
 21
1631.5036372746561
 31
0.0
1001
AUTOCAD_POSTSCRIPT_FIGURE
1002
{
1000
PSFILL
1000
Grayscale
1000
Grayscale
1070
   100
1002
}
  0
LINE
  5
D216
  8
YODOROGO
 10
28082.135520230921
 20
1499.749496429288
 30
0.0
 11
28082.135520230921
 21
1631.5036372746561
 31
0.0
1001
AUTOCAD_POSTSCRIPT_FIGURE
1002
{
1000
PSFILL
1000
Grayscale
1000
Grayscale
1070
   100
1002
}
  0
LINE
  5
D217
  8
YODOROGO
 10
28050.135520230921
 20
1499.749496429288
 30
0.0
 11
28082.135520230921
 21
1499.749496429288
 31
0.0
1001
AUTOCAD_POSTSCRIPT_FIGURE
1002
{
1000
PSFILL
1000
Grayscale
1000
Grayscale
1070
   100
1002
}
  0
LINE
  5
D218
  8
YODOROGO
 10
28050.135520230921
 20
1475.7494964292871
 30
0.0
 11
28050.135520230921
 21
1499.749496429288
 31
0.0
1001
AUTOCAD_POSTSCRIPT_FIGURE
1002
{
1000
PSFILL
1000
Grayscale
1000
Grayscale
1070
   100
1002
}
  0
LINE
  5
D219
  8
YODOROGO
 10
28137.604341291921
 20
1475.7494964292871
 30
0.0
 11
28050.135520230921
 21
1475.7494964292871
 31
0.0
1001
AUTOCAD_POSTSCRIPT_FIGURE
1002
{
1000
PSFILL
1000
Grayscale
1000
Grayscale
1070
   100
1002
}
  0
LINE
  5
D21A
  8
YODOROGO
 10
28137.604341291921
 20
1499.749496429288
 30
0.0
 11
28137.604341291921
 21
1475.7494964292871
 31
0.0
1001
AUTOCAD_POSTSCRIPT_FIGURE
1002
{
1000
PSFILL
1000
Grayscale
1000
Grayscale
1070
   100
1002
}
  0
LINE
  5
D21B
  8
YODOROGO
 10
28098.135520230931
 20
1499.749496429288
 30
0.0
 11
28137.604341291921
 21
1499.749496429288
 31
0.0
1001
AUTOCAD_POSTSCRIPT_FIGURE
1002
{
1000
PSFILL
1000
Grayscale
1000
Grayscale
1070
   100
1002
}
  0
LINE
  5
D21C
  8
YODOROGO
 10
28098.135520230931
 20
1631.5036372746561
 30
0.0
 11
28098.135520230931
 21
1499.749496429288
 31
0.0
1001
AUTOCAD_POSTSCRIPT_FIGURE
1002
{
1000
PSFILL
1000
Grayscale
1000
Grayscale
1070
   100
1002
}
  0
LINE
  5
D21D
  8
YODOROGO
 10
28137.604341291921
 20
1631.5036372746561
 30
0.0
 11
28098.135520230931
 21
1631.5036372746561
 31
0.0
1001
AUTOCAD_POSTSCRIPT_FIGURE
1002
{
1000
PSFILL
1000
Grayscale
1000
Grayscale
1070
   100
1002
}
  0
LINE
  5
D21E
  8
YODOROGO
 10
28137.604341291921
 20
1655.5036372746561
 30
0.0
 11
28137.604341291921
 21
1631.5036372746561
 31
0.0
1001
AUTOCAD_POSTSCRIPT_FIGURE
1002
{
1000
PSFILL
1000
Grayscale
1000
Grayscale
1070
   100
1002
}
  0
LINE
  5
D21F
  8
YODOROGO
 10
28098.135520230931
 20
1655.5036372746561
 30
0.0
 11
28137.604341291921
 21
1655.5036372746561
 31
0.0
1001
AUTOCAD_POSTSCRIPT_FIGURE
1002
{
1000
PSFILL
1000
Grayscale
1000
Grayscale
1070
   100
1002
}
  0
LINE
  5
D220
  8
YODOROGO
 10
28401.60434129191
 20
1667.749496429288
 30
0.0
 11
28345.604341291921
 21
1667.749496429288
 31
0.0
  0
LINE
  5
D221
  8
YODOROGO
 10
28401.60434129191
 20
1611.749496429288
 30
0.0
 11
28401.60434129191
 21
1667.749496429288
 31
0.0
  0
LINE
  5
D222
  8
YODOROGO
 10
28345.604341291921
 20
1667.749496429288
 30
0.0
 11
28345.604341291921
 21
1611.749496429288
 31
0.0
  0
ARC
  5
D223
  8
YODOROGO
 10
28513.60434129191
 20
1507.749496429288
 30
0.0
 40
80.0
 50
180.0
 51
270.0
  0
ARC
  5
D224
  8
YODOROGO
 10
28537.604341291921
 20
1563.7494964292871
 30
0.0
 40
40.0
 50
180.0
 51
270.0
  0
LINE
  5
D225
  8
YODOROGO
 10
28561.604341291932
 20
1523.7494964292871
 30
0.0
 11
28537.604341291921
 21
1523.7494964292871
 31
0.0
  0
ARC
  5
D226
  8
YODOROGO
 10
28561.604341291932
 20
1547.749496429285
 30
0.0
 40
23.999999999996358
 50
270.0
 51
0.0000000000054281
  0
LINE
  5
D227
  8
YODOROGO
 10
27801.604341291921
 20
1890.786580793706
 30
0.0
 11
27777.604341291921
 21
1843.776747951672
 31
0.0
1001
AUTOCAD_POSTSCRIPT_FIGURE
1002
{
1000
PSFILL
1000
Grayscale
1000
Grayscale
1070
   100
1002
}
  0
LINE
  5
D228
  8
YODOROGO
 10
27801.604341291921
 20
1747.749496429286
 30
0.0
 11
27801.604341291921
 21
1890.786580793706
 31
0.0
1001
AUTOCAD_POSTSCRIPT_FIGURE
1002
{
1000
PSFILL
1000
Grayscale
1000
Grayscale
1070
   100
1002
}
  0
LINE
  5
D229
  8
YODOROGO
 10
27817.604341291921
 20
1747.749496429286
 30
0.0
 11
27801.604341291921
 21
1747.749496429286
 31
0.0
1001
AUTOCAD_POSTSCRIPT_FIGURE
1002
{
1000
PSFILL
1000
Grayscale
1000
Grayscale
1070
   100
1002
}
  0
LINE
  5
D22A
  8
YODOROGO
 10
27817.604341291921
 20
1893.7713320852661
 30
0.0
 11
27817.604341291921
 21
1747.749496429286
 31
0.0
1001
AUTOCAD_POSTSCRIPT_FIGURE
1002
{
1000
PSFILL
1000
Grayscale
1000
Grayscale
1070
   100
1002
}
  0
LINE
  5
D22B
  8
YODOROGO
 10
27841.604341291921
 20
1867.6547582841361
 30
0.0
 11
27817.604341291921
 21
1893.7713320852661
 31
0.0
1001
AUTOCAD_POSTSCRIPT_FIGURE
1002
{
1000
PSFILL
1000
Grayscale
1000
Grayscale
1070
   100
1002
}
  0
LINE
  5
D22C
  8
YODOROGO
 10
27841.604341291921
 20
1883.6547582841361
 30
0.0
 11
27841.604341291921
 21
1867.6547582841361
 31
0.0
1001
AUTOCAD_POSTSCRIPT_FIGURE
1002
{
1000
PSFILL
1000
Grayscale
1000
Grayscale
1070
   100
1002
}
  0
LINE
  5
D22D
  8
YODOROGO
 10
27817.604341291921
 20
1917.7713320852649
 30
0.0
 11
27841.604341291921
 21
1883.6547582841361
 31
0.0
1001
AUTOCAD_POSTSCRIPT_FIGURE
1002
{
1000
PSFILL
1000
Grayscale
1000
Grayscale
1070
   100
1002
}
  0
LINE
  5
D22E
  8
YODOROGO
 10
27817.604341291921
 20
1939.749496429288
 30
0.0
 11
27817.604341291921
 21
1917.7713320852649
 31
0.0
1001
AUTOCAD_POSTSCRIPT_FIGURE
1002
{
1000
PSFILL
1000
Grayscale
1000
Grayscale
1070
   100
1002
}
  0
LINE
  5
D22F
  8
YODOROGO
 10
27889.604341291921
 20
1939.749496429288
 30
0.0
 11
27817.604341291921
 21
1939.749496429288
 31
0.0
1001
AUTOCAD_POSTSCRIPT_FIGURE
1002
{
1000
PSFILL
1000
Grayscale
1000
Grayscale
1070
   100
1002
}
  0
LINE
  5
D230
  8
YODOROGO
 10
27889.604341291921
 20
1900.5683489363
 30
0.0
 11
27889.604341291921
 21
1939.749496429288
 31
0.0
1001
AUTOCAD_POSTSCRIPT_FIGURE
1002
{
1000
PSFILL
1000
Grayscale
1000
Grayscale
1070
   100
1002
}
  0
LINE
  5
D231
  8
YODOROGO
 10
27857.604341291921
 20
1900.5683489363
 30
0.0
 11
27889.604341291921
 21
1900.5683489363
 31
0.0
1001
AUTOCAD_POSTSCRIPT_FIGURE
1002
{
1000
PSFILL
1000
Grayscale
1000
Grayscale
1070
   100
1002
}
  0
LINE
  5
D232
  8
YODOROGO
 10
27857.604341291921
 20
1884.568348936298
 30
0.0
 11
27857.604341291921
 21
1900.5683489363
 31
0.0
1001
AUTOCAD_POSTSCRIPT_FIGURE
1002
{
1000
PSFILL
1000
Grayscale
1000
Grayscale
1070
   100
1002
}
  0
LINE
  5
D233
  8
YODOROGO
 10
27889.604341291921
 20
1884.568348936298
 30
0.0
 11
27857.604341291921
 21
1884.568348936298
 31
0.0
1001
AUTOCAD_POSTSCRIPT_FIGURE
1002
{
1000
PSFILL
1000
Grayscale
1000
Grayscale
1070
   100
1002
}
  0
LINE
  5
D234
  8
YODOROGO
 10
27889.604341291921
 20
1879.6191779644371
 30
0.0
 11
27889.604341291921
 21
1884.568348936298
 31
0.0
1001
AUTOCAD_POSTSCRIPT_FIGURE
1002
{
1000
PSFILL
1000
Grayscale
1000
Grayscale
1070
   100
1002
}
  0
LINE
  5
D235
  8
YODOROGO
 10
27849.604341291921
 20
1812.974981161417
 30
0.0
 11
27889.604341291921
 21
1879.6191779644371
 31
0.0
1001
AUTOCAD_POSTSCRIPT_FIGURE
1002
{
1000
PSFILL
1000
Grayscale
1000
Grayscale
1070
   100
1002
}
  0
LINE
  5
D236
  8
YODOROGO
 10
27849.604341291921
 20
1796.9749811614161
 30
0.0
 11
27849.604341291921
 21
1812.974981161417
 31
0.0
1001
AUTOCAD_POSTSCRIPT_FIGURE
1002
{
1000
PSFILL
1000
Grayscale
1000
Grayscale
1070
   100
1002
}
  0
LINE
  5
D237
  8
YODOROGO
 10
27889.604341291921
 20
1847.6191779644359
 30
0.0
 11
27849.604341291921
 21
1796.9749811614161
 31
0.0
1001
AUTOCAD_POSTSCRIPT_FIGURE
1002
{
1000
PSFILL
1000
Grayscale
1000
Grayscale
1070
   100
1002
}
  0
LINE
  5
D238
  8
YODOROGO
 10
27889.604341291921
 20
1747.749496429286
 30
0.0
 11
27889.604341291921
 21
1847.6191779644359
 31
0.0
1001
AUTOCAD_POSTSCRIPT_FIGURE
1002
{
1000
PSFILL
1000
Grayscale
1000
Grayscale
1070
   100
1002
}
  0
LINE
  5
D239
  8
YODOROGO
 10
27905.604341291921
 20
1747.749496429286
 30
0.0
 11
27889.604341291921
 21
1747.749496429286
 31
0.0
1001
AUTOCAD_POSTSCRIPT_FIGURE
1002
{
1000
PSFILL
1000
Grayscale
1000
Grayscale
1070
   100
1002
}
  0
LINE
  5
D23A
  8
YODOROGO
 10
27905.604341291921
 20
1849.409012158806
 30
0.0
 11
27905.604341291921
 21
1747.749496429286
 31
0.0
1001
AUTOCAD_POSTSCRIPT_FIGURE
1002
{
1000
PSFILL
1000
Grayscale
1000
Grayscale
1070
   100
1002
}
  0
LINE
  5
D23B
  8
YODOROGO
 10
27937.604341291921
 20
1796.9749811614161
 30
0.0
 11
27905.604341291921
 21
1849.409012158806
 31
0.0
1001
AUTOCAD_POSTSCRIPT_FIGURE
1002
{
1000
PSFILL
1000
Grayscale
1000
Grayscale
1070
   100
1002
}
  0
LINE
  5
D23C
  8
YODOROGO
 10
27937.604341291921
 20
1812.974981161417
 30
0.0
 11
27937.604341291921
 21
1796.9749811614161
 31
0.0
1001
AUTOCAD_POSTSCRIPT_FIGURE
1002
{
1000
PSFILL
1000
Grayscale
1000
Grayscale
1070
   100
1002
}
  0
LINE
  5
D23D
  8
YODOROGO
 10
27905.604341291921
 20
1881.4090121588081
 30
0.0
 11
27937.604341291921
 21
1812.974981161417
 31
0.0
1001
AUTOCAD_POSTSCRIPT_FIGURE
1002
{
1000
PSFILL
1000
Grayscale
1000
Grayscale
1070
   100
1002
}
  0
LINE
  5
D23E
  8
YODOROGO
 10
27905.604341291921
 20
1884.5683489363
 30
0.0
 11
27905.604341291921
 21
1881.4090121588081
 31
0.0
1001
AUTOCAD_POSTSCRIPT_FIGURE
1002
{
1000
PSFILL
1000
Grayscale
1000
Grayscale
1070
   100
1002
}
  0
LINE
  5
D23F
  8
YODOROGO
 10
27937.604341291921
 20
1884.568348936298
 30
0.0
 11
27905.604341291921
 21
1884.5683489363
 31
0.0
1001
AUTOCAD_POSTSCRIPT_FIGURE
1002
{
1000
PSFILL
1000
Grayscale
1000
Grayscale
1070
   100
1002
}
  0
LINE
  5
D240
  8
YODOROGO
 10
27937.604341291921
 20
1900.5683489363
 30
0.0
 11
27937.604341291921
 21
1884.568348936298
 31
0.0
1001
AUTOCAD_POSTSCRIPT_FIGURE
1002
{
1000
PSFILL
1000
Grayscale
1000
Grayscale
1070
   100
1002
}
  0
LINE
  5
D241
  8
YODOROGO
 10
27905.604341291921
 20
1900.5683489363
 30
0.0
 11
27937.604341291921
 21
1900.5683489363
 31
0.0
1001
AUTOCAD_POSTSCRIPT_FIGURE
1002
{
1000
PSFILL
1000
Grayscale
1000
Grayscale
1070
   100
1002
}
  0
LINE
  5
D242
  8
YODOROGO
 10
27905.604341291921
 20
1939.749496429288
 30
0.0
 11
27905.604341291921
 21
1900.5683489363
 31
0.0
1001
AUTOCAD_POSTSCRIPT_FIGURE
1002
{
1000
PSFILL
1000
Grayscale
1000
Grayscale
1070
   100
1002
}
  0
LINE
  5
D243
  8
YODOROGO
 10
27937.604341291921
 20
1939.749496429288
 30
0.0
 11
27905.604341291921
 21
1939.749496429288
 31
0.0
1001
AUTOCAD_POSTSCRIPT_FIGURE
1002
{
1000
PSFILL
1000
Grayscale
1000
Grayscale
1070
   100
1002
}
  0
LINE
  5
D244
  8
YODOROGO
 10
27937.604341291921
 20
1955.7494964292871
 30
0.0
 11
27937.604341291921
 21
1939.749496429288
 31
0.0
1001
AUTOCAD_POSTSCRIPT_FIGURE
1002
{
1000
PSFILL
1000
Grayscale
1000
Grayscale
1070
   100
1002
}
  0
LINE
  5
D245
  8
YODOROGO
 10
27905.604341291921
 20
1955.7494964292871
 30
0.0
 11
27937.604341291921
 21
1955.7494964292871
 31
0.0
1001
AUTOCAD_POSTSCRIPT_FIGURE
1002
{
1000
PSFILL
1000
Grayscale
1000
Grayscale
1070
   100
1002
}
  0
LINE
  5
D246
  8
YODOROGO
 10
27905.604341291921
 20
1979.749496429288
 30
0.0
 11
27905.604341291921
 21
1955.7494964292871
 31
0.0
1001
AUTOCAD_POSTSCRIPT_FIGURE
1002
{
1000
PSFILL
1000
Grayscale
1000
Grayscale
1070
   100
1002
}
  0
LINE
  5
D247
  8
YODOROGO
 10
27889.604341291921
 20
1979.749496429288
 30
0.0
 11
27905.604341291921
 21
1979.749496429288
 31
0.0
1001
AUTOCAD_POSTSCRIPT_FIGURE
1002
{
1000
PSFILL
1000
Grayscale
1000
Grayscale
1070
   100
1002
}
  0
LINE
  5
D248
  8
YODOROGO
 10
27889.604341291921
 20
1955.7494964292871
 30
0.0
 11
27889.604341291921
 21
1979.749496429288
 31
0.0
1001
AUTOCAD_POSTSCRIPT_FIGURE
1002
{
1000
PSFILL
1000
Grayscale
1000
Grayscale
1070
   100
1002
}
  0
LINE
  5
D249
  8
YODOROGO
 10
27865.604341291921
 20
1955.7494964292871
 30
0.0
 11
27889.604341291921
 21
1955.7494964292871
 31
0.0
1001
AUTOCAD_POSTSCRIPT_FIGURE
1002
{
1000
PSFILL
1000
Grayscale
1000
Grayscale
1070
   100
1002
}
  0
LINE
  5
D24A
  8
YODOROGO
 10
27865.604341291921
 20
1979.749496429288
 30
0.0
 11
27865.604341291921
 21
1955.7494964292871
 31
0.0
1001
AUTOCAD_POSTSCRIPT_FIGURE
1002
{
1000
PSFILL
1000
Grayscale
1000
Grayscale
1070
   100
1002
}
  0
LINE
  5
D24B
  8
YODOROGO
 10
27849.604341291921
 20
1979.749496429288
 30
0.0
 11
27865.604341291921
 21
1979.749496429288
 31
0.0
1001
AUTOCAD_POSTSCRIPT_FIGURE
1002
{
1000
PSFILL
1000
Grayscale
1000
Grayscale
1070
   100
1002
}
  0
LINE
  5
D24C
  8
YODOROGO
 10
27849.604341291921
 20
1955.7494964292871
 30
0.0
 11
27849.604341291921
 21
1979.749496429288
 31
0.0
1001
AUTOCAD_POSTSCRIPT_FIGURE
1002
{
1000
PSFILL
1000
Grayscale
1000
Grayscale
1070
   100
1002
}
  0
LINE
  5
D24D
  8
YODOROGO
 10
27817.604341291921
 20
1955.7494964292871
 30
0.0
 11
27849.604341291921
 21
1955.7494964292871
 31
0.0
1001
AUTOCAD_POSTSCRIPT_FIGURE
1002
{
1000
PSFILL
1000
Grayscale
1000
Grayscale
1070
   100
1002
}
  0
LINE
  5
D24E
  8
YODOROGO
 10
27817.604341291921
 20
1979.749496429288
 30
0.0
 11
27817.604341291921
 21
1955.7494964292871
 31
0.0
1001
AUTOCAD_POSTSCRIPT_FIGURE
1002
{
1000
PSFILL
1000
Grayscale
1000
Grayscale
1070
   100
1002
}
  0
LINE
  5
D24F
  8
YODOROGO
 10
27801.604341291921
 20
1979.749496429288
 30
0.0
 11
27817.604341291921
 21
1979.749496429288
 31
0.0
1001
AUTOCAD_POSTSCRIPT_FIGURE
1002
{
1000
PSFILL
1000
Grayscale
1000
Grayscale
1070
   100
1002
}
  0
LINE
  5
D250
  8
YODOROGO
 10
27801.604341291921
 20
1955.7494964292871
 30
0.0
 11
27801.604341291921
 21
1979.749496429288
 31
0.0
1001
AUTOCAD_POSTSCRIPT_FIGURE
1002
{
1000
PSFILL
1000
Grayscale
1000
Grayscale
1070
   100
1002
}
  0
LINE
  5
D251
  8
YODOROGO
 10
27777.604341291921
 20
1955.7494964292871
 30
0.0
 11
27801.604341291921
 21
1955.7494964292871
 31
0.0
1001
AUTOCAD_POSTSCRIPT_FIGURE
1002
{
1000
PSFILL
1000
Grayscale
1000
Grayscale
1070
   100
1002
}
  0
LINE
  5
D252
  8
YODOROGO
 10
27777.604341291921
 20
1939.749496429288
 30
0.0
 11
27777.604341291921
 21
1955.7494964292871
 31
0.0
1001
AUTOCAD_POSTSCRIPT_FIGURE
1002
{
1000
PSFILL
1000
Grayscale
1000
Grayscale
1070
   100
1002
}
  0
LINE
  5
D253
  8
YODOROGO
 10
27801.604341291921
 20
1939.749496429288
 30
0.0
 11
27777.604341291921
 21
1939.749496429288
 31
0.0
1001
AUTOCAD_POSTSCRIPT_FIGURE
1002
{
1000
PSFILL
1000
Grayscale
1000
Grayscale
1070
   100
1002
}
  0
LINE
  5
D254
  8
YODOROGO
 10
27801.604341291921
 20
1914.7865807937051
 30
0.0
 11
27801.604341291921
 21
1939.749496429288
 31
0.0
1001
AUTOCAD_POSTSCRIPT_FIGURE
1002
{
1000
PSFILL
1000
Grayscale
1000
Grayscale
1070
   100
1002
}
  0
LINE
  5
D255
  8
YODOROGO
 10
27777.604341291921
 20
1859.776747951671
 30
0.0
 11
27801.604341291921
 21
1914.7865807937051
 31
0.0
1001
AUTOCAD_POSTSCRIPT_FIGURE
1002
{
1000
PSFILL
1000
Grayscale
1000
Grayscale
1070
   100
1002
}
  0
LINE
  5
D256
  8
YODOROGO
 10
27777.604341291921
 20
1843.776747951672
 30
0.0
 11
27777.604341291921
 21
1859.776747951671
 31
0.0
1001
AUTOCAD_POSTSCRIPT_FIGURE
1002
{
1000
PSFILL
1000
Grayscale
1000
Grayscale
1070
   100
1002
}
  0
LINE
  5
D257
  8
YODOROGO
 10
28257.604341291921
 20
1867.7494964292871
 30
0.0
 11
28401.60434129191
 21
1824.877625640306
 31
0.0
1001
AUTOCAD_POSTSCRIPT_FIGURE
1002
{
1000
PSFILL
1000
Grayscale
1000
Grayscale
1070
   100
1002
}
  0
LINE
  5
D258
  8
YODOROGO
 10
28401.60434129191
 20
1752.877625640306
 30
0.0
 11
28257.604341291921
 21
1795.7494964292871
 31
0.0
1001
AUTOCAD_POSTSCRIPT_FIGURE
1002
{
1000
PSFILL
1000
Grayscale
1000
Grayscale
1070
   100
1002
}
  0
LINE
  5
D259
  8
YODOROGO
 10
28401.60434129191
 20
1984.877625640306
 30
0.0
 11
28257.604341291921
 21
2027.749496429288
 31
0.0
1001
AUTOCAD_POSTSCRIPT_FIGURE
1002
{
1000
PSFILL
1000
Grayscale
1000
Grayscale
1070
   100
1002
}
  0
LINE
  5
D25A
  8
YODOROGO
 10
28257.604341291921
 20
1959.749496429288
 30
0.0
 11
28401.60434129191
 21
1916.8776256403071
 31
0.0
1001
AUTOCAD_POSTSCRIPT_FIGURE
1002
{
1000
PSFILL
1000
Grayscale
1000
Grayscale
1070
   100
1002
}
  0
LINE
  5
D25B
  8
YODOROGO
 10
28257.604341291921
 20
1795.7494964292871
 30
0.0
 11
28257.604341291921
 21
1867.7494964292871
 31
0.0
1001
AUTOCAD_POSTSCRIPT_FIGURE
1002
{
1000
PSFILL
1000
Grayscale
1000
Grayscale
1070
   100
1002
}
  0
LINE
  5
D25C
  8
YODOROGO
 10
28257.604341291921
 20
2027.749496429288
 30
0.0
 11
28257.604341291921
 21
1959.749496429288
 31
0.0
1001
AUTOCAD_POSTSCRIPT_FIGURE
1002
{
1000
PSFILL
1000
Grayscale
1000
Grayscale
1070
   100
1002
}
  0
LINE
  5
D25D
  8
YODOROGO
 10
28080.236320206739
 20
1939.749496429288
 30
0.0
 11
28129.60434129191
 21
1747.749496429286
 31
0.0
1001
AUTOCAD_POSTSCRIPT_FIGURE
1002
{
1000
PSFILL
1000
Grayscale
1000
Grayscale
1070
   100
1002
}
  0
LINE
  5
D25E
  8
YODOROGO
 10
27977.604341291921
 20
1939.749496429288
 30
0.0
 11
28080.236320206739
 21
1939.749496429288
 31
0.0
1001
AUTOCAD_POSTSCRIPT_FIGURE
1002
{
1000
PSFILL
1000
Grayscale
1000
Grayscale
1070
   100
1002
}
  0
LINE
  5
D25F
  8
YODOROGO
 10
27977.604341291921
 20
1955.7494964292871
 30
0.0
 11
27977.604341291921
 21
1939.749496429288
 31
0.0
1001
AUTOCAD_POSTSCRIPT_FIGURE
1002
{
1000
PSFILL
1000
Grayscale
1000
Grayscale
1070
   100
1002
}
  0
LINE
  5
D260
  8
YODOROGO
 10
28076.60687851991
 20
1955.7494964292871
 30
0.0
 11
27977.604341291921
 21
1955.7494964292871
 31
0.0
1001
AUTOCAD_POSTSCRIPT_FIGURE
1002
{
1000
PSFILL
1000
Grayscale
1000
Grayscale
1070
   100
1002
}
  0
LINE
  5
D261
  8
YODOROGO
 10
28071.162715989711
 20
1979.749496429288
 30
0.0
 11
28076.60687851991
 21
1955.7494964292871
 31
0.0
1001
AUTOCAD_POSTSCRIPT_FIGURE
1002
{
1000
PSFILL
1000
Grayscale
1000
Grayscale
1070
   100
1002
}
  0
LINE
  5
D262
  8
YODOROGO
 10
28091.162715989711
 20
1979.749496429288
 30
0.0
 11
28071.162715989711
 21
1979.749496429288
 31
0.0
1001
AUTOCAD_POSTSCRIPT_FIGURE
1002
{
1000
PSFILL
1000
Grayscale
1000
Grayscale
1070
   100
1002
}
  0
LINE
  5
D263
  8
YODOROGO
 10
28095.806878519939
 20
1955.7494964292871
 30
0.0
 11
28091.162715989711
 21
1979.749496429288
 31
0.0
1001
AUTOCAD_POSTSCRIPT_FIGURE
1002
{
1000
PSFILL
1000
Grayscale
1000
Grayscale
1070
   100
1002
}
  0
LINE
  5
D264
  8
YODOROGO
 10
28121.604341291921
 20
1955.7494964292871
 30
0.0
 11
28095.806878519939
 21
1955.7494964292871
 31
0.0
1001
AUTOCAD_POSTSCRIPT_FIGURE
1002
{
1000
PSFILL
1000
Grayscale
1000
Grayscale
1070
   100
1002
}
  0
LINE
  5
D265
  8
YODOROGO
 10
28121.604341291921
 20
1979.749496429288
 30
0.0
 11
28121.604341291921
 21
1955.7494964292871
 31
0.0
1001
AUTOCAD_POSTSCRIPT_FIGURE
1002
{
1000
PSFILL
1000
Grayscale
1000
Grayscale
1070
   100
1002
}
  0
LINE
  5
D266
  8
YODOROGO
 10
28137.604341291921
 20
1979.749496429288
 30
0.0
 11
28121.604341291921
 21
1979.749496429288
 31
0.0
1001
AUTOCAD_POSTSCRIPT_FIGURE
1002
{
1000
PSFILL
1000
Grayscale
1000
Grayscale
1070
   100
1002
}
  0
LINE
  5
D267
  8
YODOROGO
 10
28137.604341291921
 20
1955.7494964292871
 30
0.0
 11
28137.604341291921
 21
1979.749496429288
 31
0.0
1001
AUTOCAD_POSTSCRIPT_FIGURE
1002
{
1000
PSFILL
1000
Grayscale
1000
Grayscale
1070
   100
1002
}
  0
LINE
  5
D268
  8
YODOROGO
 10
28137.604341291921
 20
1939.749496429288
 30
0.0
 11
28137.604341291921
 21
1955.7494964292871
 31
0.0
1001
AUTOCAD_POSTSCRIPT_FIGURE
1002
{
1000
PSFILL
1000
Grayscale
1000
Grayscale
1070
   100
1002
}
  0
LINE
  5
D269
  8
YODOROGO
 10
28098.902986873411
 20
1939.749496429288
 30
0.0
 11
28137.604341291921
 21
1939.749496429288
 31
0.0
1001
AUTOCAD_POSTSCRIPT_FIGURE
1002
{
1000
PSFILL
1000
Grayscale
1000
Grayscale
1070
   100
1002
}
  0
LINE
  5
D26A
  8
YODOROGO
 10
28137.604341291921
 20
1747.749496429286
 30
0.0
 11
28098.902986873411
 21
1939.749496429288
 31
0.0
1001
AUTOCAD_POSTSCRIPT_FIGURE
1002
{
1000
PSFILL
1000
Grayscale
1000
Grayscale
1070
   100
1002
}
  0
LINE
  5
D26B
  8
YODOROGO
 10
28129.60434129191
 20
1747.749496429286
 30
0.0
 11
28137.604341291921
 21
1747.749496429286
 31
0.0
1001
AUTOCAD_POSTSCRIPT_FIGURE
1002
{
1000
PSFILL
1000
Grayscale
1000
Grayscale
1070
   100
1002
}
  0
LINE
  5
D26C
  8
YODOROGO
 10
28078.06921993379
 20
1775.7407762987939
 30
0.0
 11
27977.604341291921
 21
1747.749496429286
 31
0.0
  0
LINE
  5
D26D
  8
YODOROGO
 10
28078.06921993379
 20
1798.6689795290731
 30
0.0
 11
28078.06921993379
 21
1775.7407762987939
 31
0.0
  0
LINE
  5
D26E
  8
YODOROGO
 10
28033.83678061287
 20
1786.816933133767
 30
0.0
 11
28078.06921993379
 21
1798.6689795290731
 31
0.0
  0
LINE
  5
D26F
  8
YODOROGO
 10
28033.83678061287
 20
1872.5683489362989
 30
0.0
 11
28033.83678061287
 21
1786.816933133767
 31
0.0
  0
LINE
  5
D270
  8
YODOROGO
 10
28078.06921993379
 20
1872.5683489362989
 30
0.0
 11
28033.83678061287
 21
1872.5683489362989
 31
0.0
  0
LINE
  5
D271
  8
YODOROGO
 10
28078.06921993379
 20
1892.568348936298
 30
0.0
 11
28078.06921993379
 21
1872.5683489362989
 31
0.0
  0
LINE
  5
D272
  8
YODOROGO
 10
27977.604341291921
 20
1892.568348936298
 30
0.0
 11
28078.06921993379
 21
1892.568348936298
 31
0.0
  0
LINE
  5
D273
  8
YODOROGO
 10
27977.604341291921
 20
1872.5683489362989
 30
0.0
 11
27977.604341291921
 21
1892.568348936298
 31
0.0
  0
LINE
  5
D274
  8
YODOROGO
 10
28021.836780612852
 20
1872.5683489362989
 30
0.0
 11
27977.604341291921
 21
1872.5683489362989
 31
0.0
  0
LINE
  5
D275
  8
YODOROGO
 10
28021.836780612852
 20
1784.673339594317
 30
0.0
 11
28021.836780612852
 21
1872.5683489362989
 31
0.0
  0
LINE
  5
D276
  8
YODOROGO
 10
27977.604341291921
 20
1771.749496429286
 30
0.0
 11
28021.836780612852
 21
1784.673339594317
 31
0.0
  0
LINE
  5
D277
  8
YODOROGO
 10
27977.604341291921
 20
1747.749496429286
 30
0.0
 11
27977.604341291921
 21
1771.749496429286
 31
0.0
  0
LINE
  5
D278
  8
YODOROGO
 10
28001.604341291921
 20
1707.749496429288
 30
0.0
 11
28001.604341291921
 21
1683.7494964292871
 31
0.0
  0
LINE
  5
D279
  8
YODOROGO
 10
28017.604341291921
 20
1707.749496429288
 30
0.0
 11
28001.604341291921
 21
1707.749496429288
 31
0.0
  0
LINE
  5
D27A
  8
YODOROGO
 10
28017.604341291921
 20
1683.7494964292871
 30
0.0
 11
28017.604341291921
 21
1707.749496429288
 31
0.0
  0
LINE
  5
D27B
  8
YODOROGO
 10
28040.913204016892
 20
1683.7494964292871
 30
0.0
 11
28017.604341291921
 21
1683.7494964292871
 31
0.0
  0
LINE
  5
D27C
  8
YODOROGO
 10
28001.604341291921
 20
1683.7494964292871
 30
0.0
 11
27977.604341291921
 21
1683.7494964292871
 31
0.0
  0
LINE
  5
D27D
  8
YODOROGO
 10
28082.135520230921
 20
1707.749496429288
 30
0.0
 11
28098.135520230931
 21
1707.749496429288
 31
0.0
1001
AUTOCAD_POSTSCRIPT_FIGURE
1002
{
1000
PSFILL
1000
Grayscale
1000
Grayscale
1070
   100
1002
}
  0
LINE
  5
D27E
  8
YODOROGO
 10
28401.60434129191
 20
1824.877625640306
 30
0.0
 11
28401.60434129191
 21
1752.877625640306
 31
0.0
1001
AUTOCAD_POSTSCRIPT_FIGURE
1002
{
1000
PSFILL
1000
Grayscale
1000
Grayscale
1070
   100
1002
}
  0
LINE
  5
D27F
  8
YODOROGO
 10
28401.60434129191
 20
1916.8776256403071
 30
0.0
 11
28401.60434129191
 21
1984.877625640306
 31
0.0
1001
AUTOCAD_POSTSCRIPT_FIGURE
1002
{
1000
PSFILL
1000
Grayscale
1000
Grayscale
1070
   100
1002
}
  0
LINE
  5
D280
  8
YODOROGO
 10
28433.60434129191
 20
1819.7494964292871
 30
0.0
 11
28433.60434129191
 21
1747.74949642929
 31
0.0
  0
LINE
  5
D281
  8
YODOROGO
 10
28497.60434129191
 20
1707.749496429288
 30
0.0
 11
28433.60434129191
 21
1707.749496429288
 31
0.0
  0
LINE
  5
D282
  8
YODOROGO
 10
28433.60434129191
 20
1747.74949642929
 30
0.0
 11
28585.604341291921
 21
1747.74949642929
 31
0.0
  0
LINE
  5
D283
  8
YODOROGO
 10
28497.60434129191
 20
1867.7494964292871
 30
0.0
 11
28433.60434129191
 21
1867.7494964292871
 31
0.0
  0
LINE
  5
D284
  8
YODOROGO
 10
28497.60434129191
 20
1923.7494964292871
 30
0.0
 11
28497.60434129191
 21
1867.7494964292871
 31
0.0
  0
LINE
  5
D285
  8
YODOROGO
 10
28585.604341291921
 20
1987.7494964292871
 30
0.0
 11
28585.604341291921
 21
2027.749496429288
 31
0.0
  0
LINE
  5
D286
  8
YODOROGO
 10
28433.60434129191
 20
1987.7494964292871
 30
0.0
 11
28585.604341291921
 21
1987.7494964292871
 31
0.0
  0
LINE
  5
D287
  8
YODOROGO
 10
28433.60434129191
 20
1867.7494964292871
 30
0.0
 11
28433.60434129191
 21
1987.7494964292871
 31
0.0
  0
LINE
  5
D288
  8
YODOROGO
 10
29001.60434129191
 20
2027.749496429288
 30
0.0
 11
29001.60434129191
 21
1619.749496429288
 31
0.0
  0
LINE
  5
D289
  8
YODOROGO
 10
29073.604341291921
 20
1579.749496429288
 30
0.0
 11
29073.604341291921
 21
2027.749496429288
 31
0.0
  0
LINE
  5
D28A
  8
YODOROGO
 10
29261.604341291921
 20
1491.749496429286
 30
0.0
 11
29261.604341291921
 21
2007.749496429288
 31
0.0
  0
LINE
  5
D28B
  8
YODOROGO
 10
29197.604341291921
 20
2007.749496429288
 30
0.0
 11
29197.604341291921
 21
1491.749496429286
 31
0.0
  0
LINE
  5
D28C
  8
YODOROGO
 10
29385.604341291921
 20
2027.749496429288
 30
0.0
 11
29385.604341291921
 21
1427.749496429288
 31
0.0
  0
LINE
  5
D28D
  8
YODOROGO
 10
29457.604341291921
 20
1427.749496429288
 30
0.0
 11
29457.604341291921
 21
2027.749496429288
 31
0.0
  0
LINE
  5
D28E
  8
YODOROGO
 10
28657.604341291921
 20
1667.749496429288
 30
0.0
 11
28657.604341291921
 21
1747.74949642929
 31
0.0
  0
LINE
  5
D28F
  8
YODOROGO
 10
29885.604341291921
 20
1707.749496429288
 30
0.0
 11
29885.604341291921
 21
1667.749496429288
 31
0.0
  0
LINE
  5
D290
  8
YODOROGO
 10
29885.604341291921
 20
1707.749496429288
 30
0.0
 11
29885.604341291921
 21
1667.749496429288
 31
0.0
  0
ARC
  5
D291
  8
YODOROGO
 10
28906.911576186842
 20
1618.217864442272
 30
0.0
 40
94.705151178741644
 50
274.05244162907098
 51
0.9266642149310712
  0
ARC
  5
D292
  8
YODOROGO
 10
28909.186170719819
 20
1592.61072861044
 30
0.0
 40
164.92042356085511
 50
271.5351210653775
 51
355.52727750585052
  0
LINE
  5
D293
  8
YODOROGO
 10
28913.604341291921
 20
1523.7494964292871
 30
0.0
 11
28913.604341291921
 21
1427.749496429288
 31
0.0
  0
LINE
  5
D294
  8
YODOROGO
 10
28793.60434129191
 20
1667.749496429288
 30
0.0
 11
28657.604341291921
 21
1667.749496429288
 31
0.0
  0
LINE
  5
D295
  8
YODOROGO
 10
28793.60434129191
 20
1603.7494964292871
 30
0.0
 11
28793.60434129191
 21
1667.749496429288
 31
0.0
  0
LINE
  5
D296
  8
YODOROGO
 10
28657.604341291921
 20
1603.7494964292871
 30
0.0
 11
28793.60434129191
 21
1603.7494964292871
 31
0.0
  0
LINE
  5
D297
  8
YODOROGO
 10
28657.604341291921
 20
1523.7494964292871
 30
0.0
 11
28657.604341291921
 21
1603.7494964292871
 31
0.0
  0
LINE
  5
D298
  8
YODOROGO
 10
28793.60434129191
 20
1523.7494964292871
 30
0.0
 11
28657.604341291921
 21
1523.7494964292871
 31
0.0
  0
LINE
  5
D299
  8
YODOROGO
 10
28793.60434129191
 20
1427.749496429288
 30
0.0
 11
28793.60434129191
 21
1523.7494964292871
 31
0.0
  0
LINE
  5
D29A
  8
YODOROGO
 10
29197.604341291921
 20
1491.749496429286
 30
0.0
 11
29261.604341291921
 21
1491.749496429286
 31
0.0
  0
LINE
  5
D29B
  8
YODOROGO
 10
29385.604341291921
 20
1427.749496429288
 30
0.0
 11
29457.604341291921
 21
1427.749496429288
 31
0.0
  0
LINE
  5
D29C
  8
YODOROGO
 10
29737.604341291921
 20
1528.4414521705639
 30
0.0
 11
29737.604341291921
 21
1427.749496429288
 31
0.0
  0
LINE
  5
D29D
  8
YODOROGO
 10
29617.604341291921
 20
1427.749496429288
 30
0.0
 11
29737.604341291921
 21
1528.4414521705639
 31
0.0
  0
LINE
  5
D29E
  8
YODOROGO
 10
29617.604341291921
 20
1547.749496429288
 30
0.0
 11
29617.604341291921
 21
1427.749496429288
 31
0.0
  0
LINE
  5
D29F
  8
YODOROGO
 10
29712.94462869945
 20
1627.749496429288
 30
0.0
 11
29617.604341291921
 21
1547.749496429288
 31
0.0
  0
LINE
  5
D2A0
  8
YODOROGO
 10
29617.604341291921
 20
1627.749496429288
 30
0.0
 11
29712.94462869945
 21
1627.749496429288
 31
0.0
  0
LINE
  5
D2A1
  8
YODOROGO
 10
29617.604341291921
 20
1667.749496429288
 30
0.0
 11
29617.604341291921
 21
1627.749496429288
 31
0.0
  0
LINE
  5
D2A2
  8
YODOROGO
 10
29885.604341291921
 20
1667.749496429288
 30
0.0
 11
29617.604341291921
 21
1667.749496429288
 31
0.0
  0
LINE
  5
D2A3
  8
YODOROGO
 10
29917.604341291921
 20
1627.749496429288
 30
0.0
 11
29777.604341291921
 21
1627.749496429288
 31
0.0
  0
LINE
  5
D2A4
  8
YODOROGO
 10
29777.604341291921
 20
1562.0054374176559
 30
0.0
 11
29771.409872985321
 21
1556.807661346234
 31
0.0
  0
LINE
  5
D2A5
  8
YODOROGO
 10
29777.604341291921
 20
1627.749496429288
 30
0.0
 11
29777.604341291921
 21
1562.0054374176559
 31
0.0
  0
LINE
  5
D2A6
  8
YODOROGO
 10
29737.604341291921
 20
1528.4414521705639
 30
0.0
 11
29737.604341291921
 21
1427.749496429288
 31
0.0
  0
LINE
  5
D2A7
  8
YODOROGO
 10
29617.604341291921
 20
1427.749496429288
 30
0.0
 11
29737.604341291921
 21
1528.4414521705639
 31
0.0
  0
LINE
  5
D2A8
  8
YODOROGO
 10
29617.604341291921
 20
1547.749496429288
 30
0.0
 11
29617.604341291921
 21
1427.749496429288
 31
0.0
  0
LINE
  5
D2A9
  8
YODOROGO
 10
29712.94462869945
 20
1627.749496429288
 30
0.0
 11
29617.604341291921
 21
1547.749496429288
 31
0.0
  0
LINE
  5
D2AA
  8
YODOROGO
 10
29617.604341291921
 20
1627.749496429288
 30
0.0
 11
29712.94462869945
 21
1627.749496429288
 31
0.0
  0
LINE
  5
D2AB
  8
YODOROGO
 10
29617.604341291921
 20
1667.749496429288
 30
0.0
 11
29617.604341291921
 21
1627.749496429288
 31
0.0
  0
LINE
  5
D2AC
  8
YODOROGO
 10
29885.604341291921
 20
1667.749496429288
 30
0.0
 11
29617.604341291921
 21
1667.749496429288
 31
0.0
  0
LINE
  5
D2AD
  8
YODOROGO
 10
28793.60434129191
 20
1747.74949642929
 30
0.0
 11
28793.60434129191
 21
1819.7494964292871
 31
0.0
  0
LINE
  5
D2AE
  8
YODOROGO
 10
28657.604341291921
 20
1747.74949642929
 30
0.0
 11
28793.60434129191
 21
1747.74949642929
 31
0.0
  0
LINE
  5
D2AF
  8
YODOROGO
 10
28729.604341291921
 20
1867.7494964292871
 30
0.0
 11
28729.604341291921
 21
1923.7494964292871
 31
0.0
  0
LINE
  5
D2B0
  8
YODOROGO
 10
28793.60434129191
 20
1867.7494964292871
 30
0.0
 11
28729.604341291921
 21
1867.7494964292871
 31
0.0
  0
LINE
  5
D2B1
  8
YODOROGO
 10
28793.60434129191
 20
1947.749496429288
 30
0.0
 11
28793.60434129191
 21
1867.7494964292871
 31
0.0
  0
ARC
  5
D2B2
  8
YODOROGO
 10
28753.60434129191
 20
1947.749496429288
 30
0.0
 40
40.0
 50
0.0
 51
90.0
  0
LINE
  5
D2B3
  8
YODOROGO
 10
28657.604341291921
 20
1987.7494964292871
 30
0.0
 11
28753.60434129191
 21
1987.7494964292871
 31
0.0
  0
LINE
  5
D2B4
  8
YODOROGO
 10
28657.604341291921
 20
2027.749496429288
 30
0.0
 11
28657.604341291921
 21
1987.7494964292871
 31
0.0
  0
LINE
  5
D2B5
  8
YODOROGO
 10
29073.604341291921
 20
2027.749496429288
 30
0.0
 11
29001.60434129191
 21
2027.749496429288
 31
0.0
  0
LINE
  5
D2B6
  8
YODOROGO
 10
29261.604341291921
 20
2007.749496429288
 30
0.0
 11
29197.604341291921
 21
2007.749496429288
 31
0.0
  0
LINE
  5
D2B7
  8
YODOROGO
 10
29457.604341291921
 20
2027.749496429288
 30
0.0
 11
29385.604341291921
 21
2027.749496429288
 31
0.0
  0
LINE
  5
D2B8
  8
YODOROGO
 10
29673.604341291921
 20
1707.749496429288
 30
0.0
 11
29673.604341291921
 21
1771.7494964292871
 31
0.0
1001
AUTOCAD_POSTSCRIPT_FIGURE
1002
{
1000
PSFILL
1000
Grayscale
1000
Grayscale
1070
    25
1002
}
  0
LINE
  5
D2B9
  8
YODOROGO
 10
29617.604341291921
 20
1707.749496429288
 30
0.0
 11
29673.604341291921
 21
1707.749496429288
 31
0.0
1001
AUTOCAD_POSTSCRIPT_FIGURE
1002
{
1000
PSFILL
1000
Grayscale
1000
Grayscale
1070
    25
1002
}
  0
LINE
  5
D2BA
  8
YODOROGO
 10
29617.604341291921
 20
1819.7494964292871
 30
0.0
 11
29617.604341291921
 21
1707.749496429288
 31
0.0
1001
AUTOCAD_POSTSCRIPT_FIGURE
1002
{
1000
PSFILL
1000
Grayscale
1000
Grayscale
1070
    25
1002
}
  0
LINE
  5
D2BB
  8
YODOROGO
 10
29765.604341291921
 20
1819.7494964292871
 30
0.0
 11
29617.604341291921
 21
1819.7494964292871
 31
0.0
1001
AUTOCAD_POSTSCRIPT_FIGURE
1002
{
1000
PSFILL
1000
Grayscale
1000
Grayscale
1070
    25
1002
}
  0
LINE
  5
D2BC
  8
YODOROGO
 10
29765.604341291921
 20
1859.749496429288
 30
0.0
 11
29765.604341291921
 21
1819.7494964292871
 31
0.0
1001
AUTOCAD_POSTSCRIPT_FIGURE
1002
{
1000
PSFILL
1000
Grayscale
1000
Grayscale
1070
    25
1002
}
  0
LINE
  5
D2BD
  8
YODOROGO
 10
29617.604341291921
 20
1859.749496429288
 30
0.0
 11
29765.604341291921
 21
1859.749496429288
 31
0.0
1001
AUTOCAD_POSTSCRIPT_FIGURE
1002
{
1000
PSFILL
1000
Grayscale
1000
Grayscale
1070
    25
1002
}
  0
LINE
  5
D2BE
  8
YODOROGO
 10
29617.604341291921
 20
1907.7494964292871
 30
0.0
 11
29617.604341291921
 21
1859.749496429288
 31
0.0
1001
AUTOCAD_POSTSCRIPT_FIGURE
1002
{
1000
PSFILL
1000
Grayscale
1000
Grayscale
1070
    25
1002
}
  0
LINE
  5
D2BF
  8
YODOROGO
 10
29765.604341291921
 20
1907.7494964292871
 30
0.0
 11
29617.604341291921
 21
1907.7494964292871
 31
0.0
1001
AUTOCAD_POSTSCRIPT_FIGURE
1002
{
1000
PSFILL
1000
Grayscale
1000
Grayscale
1070
    25
1002
}
  0
LINE
  5
D2C0
  8
YODOROGO
 10
29765.604341291921
 20
1947.749496429288
 30
0.0
 11
29765.604341291921
 21
1907.7494964292871
 31
0.0
1001
AUTOCAD_POSTSCRIPT_FIGURE
1002
{
1000
PSFILL
1000
Grayscale
1000
Grayscale
1070
    25
1002
}
  0
LINE
  5
D2C1
  8
YODOROGO
 10
29617.604341291921
 20
1947.749496429288
 30
0.0
 11
29765.604341291921
 21
1947.749496429288
 31
0.0
1001
AUTOCAD_POSTSCRIPT_FIGURE
1002
{
1000
PSFILL
1000
Grayscale
1000
Grayscale
1070
    25
1002
}
  0
LINE
  5
D2C2
  8
YODOROGO
 10
29617.604341291921
 20
2027.749496429288
 30
0.0
 11
29617.604341291921
 21
1947.749496429288
 31
0.0
1001
AUTOCAD_POSTSCRIPT_FIGURE
1002
{
1000
PSFILL
1000
Grayscale
1000
Grayscale
1070
    25
1002
}
  0
LINE
  5
D2C3
  8
YODOROGO
 10
29665.604341291921
 20
2027.749496429288
 30
0.0
 11
29617.604341291921
 21
2027.749496429288
 31
0.0
1001
AUTOCAD_POSTSCRIPT_FIGURE
1002
{
1000
PSFILL
1000
Grayscale
1000
Grayscale
1070
    25
1002
}
  0
LINE
  5
D2C4
  8
YODOROGO
 10
29665.604341291921
 20
1995.7494964292871
 30
0.0
 11
29665.604341291921
 21
2027.749496429288
 31
0.0
1001
AUTOCAD_POSTSCRIPT_FIGURE
1002
{
1000
PSFILL
1000
Grayscale
1000
Grayscale
1070
    25
1002
}
  0
LINE
  5
D2C5
  8
YODOROGO
 10
29765.604341291921
 20
1995.7494964292871
 30
0.0
 11
29665.604341291921
 21
1995.7494964292871
 31
0.0
1001
AUTOCAD_POSTSCRIPT_FIGURE
1002
{
1000
PSFILL
1000
Grayscale
1000
Grayscale
1070
    25
1002
}
  0
LINE
  5
D2C6
  8
YODOROGO
 10
29765.604341291921
 20
2027.749496429288
 30
0.0
 11
29765.604341291921
 21
1995.7494964292871
 31
0.0
1001
AUTOCAD_POSTSCRIPT_FIGURE
1002
{
1000
PSFILL
1000
Grayscale
1000
Grayscale
1070
    25
1002
}
  0
LINE
  5
D2C7
  8
YODOROGO
 10
29829.604341291921
 20
2027.749496429288
 30
0.0
 11
29765.604341291921
 21
2027.749496429288
 31
0.0
1001
AUTOCAD_POSTSCRIPT_FIGURE
1002
{
1000
PSFILL
1000
Grayscale
1000
Grayscale
1070
    25
1002
}
  0
LINE
  5
D2C8
  8
YODOROGO
 10
29829.604341291921
 20
1995.7494964292871
 30
0.0
 11
29829.604341291921
 21
2027.749496429288
 31
0.0
1001
AUTOCAD_POSTSCRIPT_FIGURE
1002
{
1000
PSFILL
1000
Grayscale
1000
Grayscale
1070
    25
1002
}
  0
LINE
  5
D2C9
  8
YODOROGO
 10
29829.604341291921
 20
1907.7494964292871
 30
0.0
 11
29829.604341291921
 21
1947.749496429288
 31
0.0
1001
AUTOCAD_POSTSCRIPT_FIGURE
1002
{
1000
PSFILL
1000
Grayscale
1000
Grayscale
1070
    25
1002
}
  0
LINE
  5
D2CA
  8
YODOROGO
 10
29829.604341291921
 20
1819.7494964292871
 30
0.0
 11
29829.604341291921
 21
1859.749496429288
 31
0.0
1001
AUTOCAD_POSTSCRIPT_FIGURE
1002
{
1000
PSFILL
1000
Grayscale
1000
Grayscale
1070
    25
1002
}
  0
LINE
  5
D2CB
  8
YODOROGO
 10
29921.60434129191
 20
1771.7494964292871
 30
0.0
 11
29921.60434129191
 21
1707.749496429288
 31
0.0
1001
AUTOCAD_POSTSCRIPT_FIGURE
1002
{
1000
PSFILL
1000
Grayscale
1000
Grayscale
1070
    25
1002
}
  0
LINE
  5
D2CC
  8
YODOROGO
 10
29829.604341291921
 20
1771.7494964292871
 30
0.0
 11
29921.60434129191
 21
1771.7494964292871
 31
0.0
1001
AUTOCAD_POSTSCRIPT_FIGURE
1002
{
1000
PSFILL
1000
Grayscale
1000
Grayscale
1070
    25
1002
}
  0
LINE
  5
D2CD
  8
YODOROGO
 10
29829.604341291921
 20
1707.749496429288
 30
0.0
 11
29829.604341291921
 21
1771.7494964292871
 31
0.0
1001
AUTOCAD_POSTSCRIPT_FIGURE
1002
{
1000
PSFILL
1000
Grayscale
1000
Grayscale
1070
    25
1002
}
  0
LINE
  5
D2CE
  8
YODOROGO
 10
29765.604341291921
 20
1707.749496429288
 30
0.0
 11
29829.604341291921
 21
1707.749496429288
 31
0.0
1001
AUTOCAD_POSTSCRIPT_FIGURE
1002
{
1000
PSFILL
1000
Grayscale
1000
Grayscale
1070
    25
1002
}
  0
LINE
  5
D2CF
  8
YODOROGO
 10
29765.604341291921
 20
1771.7494964292871
 30
0.0
 11
29765.604341291921
 21
1707.749496429288
 31
0.0
1001
AUTOCAD_POSTSCRIPT_FIGURE
1002
{
1000
PSFILL
1000
Grayscale
1000
Grayscale
1070
    25
1002
}
  0
LINE
  5
D2D0
  8
YODOROGO
 10
29673.604341291921
 20
1771.7494964292871
 30
0.0
 11
29765.604341291921
 21
1771.7494964292871
 31
0.0
1001
AUTOCAD_POSTSCRIPT_FIGURE
1002
{
1000
PSFILL
1000
Grayscale
1000
Grayscale
1070
    25
1002
}
  0
ARC
  5
D2D1
  8
YODOROGO
 10
31059.517893357912
 20
1602.6807375155761
 30
0.0
 40
178.22128111072141
 50
281.02627495425338
 51
357.77113575573799
  0
LINE
  5
D2D2
  8
YODOROGO
 10
31413.604341291921
 20
1907.7494964292871
 30
0.0
 11
31165.604341291921
 21
1907.7494964292871
 31
0.0
  0
LINE
  5
D2D3
  8
YODOROGO
 10
31413.604341291921
 20
2027.749496429288
 30
0.0
 11
31165.604341291921
 21
2027.749496429288
 31
0.0
  0
LINE
  5
D2D4
  8
YODOROGO
 10
31165.604341291921
 20
1963.749496429286
 30
0.0
 11
31413.604341291921
 21
1963.749496429286
 31
0.0
  0
LINE
  5
D2D5
  8
YODOROGO
 10
30791.604341291921
 20
1563.7494964292871
 30
0.0
 11
30791.604341291921
 21
1755.7494964292871
 31
0.0
  0
LINE
  5
D2D6
  8
YODOROGO
 10
30763.604341291921
 20
1691.749496429288
 30
0.0
 11
30763.604341291921
 21
1563.7494964292871
 31
0.0
  0
LINE
  5
D2D7
  8
YODOROGO
 10
30723.604341291921
 20
1491.749496429288
 30
0.0
 11
30723.604341291921
 21
1691.749496429288
 31
0.0
  0
LINE
  5
D2D8
  8
YODOROGO
 10
30899.604341291932
 20
1691.749496429288
 30
0.0
 11
30899.604341291932
 21
1491.749496429288
 31
0.0
  0
LINE
  5
D2D9
  8
YODOROGO
 10
30859.604341291932
 20
1563.7494964292871
 30
0.0
 11
30859.604341291932
 21
1691.749496429288
 31
0.0
  0
LINE
  5
D2DA
  8
YODOROGO
 10
30831.604341291921
 20
1755.7494964292871
 30
0.0
 11
30831.604341291921
 21
1563.7494964292871
 31
0.0
  0
LINE
  5
D2DB
  8
YODOROGO
 10
30973.604341291921
 20
2027.749496429288
 30
0.0
 11
30973.604341291921
 21
1467.749496429288
 31
0.0
  0
LINE
  5
D2DC
  8
YODOROGO
 10
30645.604341291921
 20
1427.749496429288
 30
0.0
 11
30645.604341291921
 21
2027.749496429288
 31
0.0
  0
LINE
  5
D2DD
  8
YODOROGO
 10
30697.604341291932
 20
1963.749496429286
 30
0.0
 11
30697.604341291932
 21
1427.749496429288
 31
0.0
  0
LINE
  5
D2DE
  8
YODOROGO
 10
30925.604341291921
 20
1547.749496429288
 30
0.0
 11
30925.604341291921
 21
1963.749496429286
 31
0.0
  0
LINE
  5
D2DF
  8
YODOROGO
 10
30381.604341291932
 20
1627.749496429288
 30
0.0
 11
30381.604341291932
 21
1679.749496429288
 31
0.0
  0
LINE
  5
D2E0
  8
YODOROGO
 10
30617.604341291921
 20
1679.749496429288
 30
0.0
 11
30617.604341291921
 21
1627.749496429288
 31
0.0
  0
LINE
  5
D2E1
  8
YODOROGO
 10
31165.604341291921
 20
1907.7494964292871
 30
0.0
 11
31165.604341291921
 21
1635.7494964292871
 31
0.0
  0
LINE
  5
D2E2
  8
YODOROGO
 10
29949.60434129191
 20
1667.749496429288
 30
0.0
 11
29949.60434129191
 21
1707.749496429288
 31
0.0
  0
LINE
  5
D2E3
  8
YODOROGO
 10
29949.60434129191
 20
1667.749496429288
 30
0.0
 11
29949.60434129191
 21
1707.749496429288
 31
0.0
  0
ARC
  5
D2E4
  8
YODOROGO
 10
30537.604341291921
 20
1507.749496429288
 30
0.0
 40
80.0
 50
270.0
 51
0.0
  0
LINE
  5
D2E5
  8
YODOROGO
 10
30569.604341291921
 20
1599.7494964292871
 30
0.0
 11
30617.604341291921
 21
1599.7494964292871
 31
0.0
  0
LINE
  5
D2E6
  8
YODOROGO
 10
30617.604341291921
 20
1627.749496429288
 30
0.0
 11
30529.604341291939
 21
1627.749496429288
 31
0.0
  0
LINE
  5
D2E7
  8
YODOROGO
 10
30217.604341291921
 20
1667.749496429288
 30
0.0
 11
29949.60434129191
 21
1667.749496429288
 31
0.0
  0
LINE
  5
D2E8
  8
YODOROGO
 10
30217.604341291921
 20
1627.749496429288
 30
0.0
 11
30217.604341291921
 21
1667.749496429288
 31
0.0
  0
LINE
  5
D2E9
  8
YODOROGO
 10
30017.604341291921
 20
1627.749496429288
 30
0.0
 11
30217.604341291921
 21
1627.749496429288
 31
0.0
  0
ARC
  5
D2EA
  8
YODOROGO
 10
30230.05882870136
 20
1868.885714952901
 30
0.0
 40
321.37763628522822
 50
228.6181454618993
 51
245.660289248906
  0
LINE
  5
D2EB
  8
YODOROGO
 10
30105.604341291921
 20
1603.7494964292871
 30
0.0
 11
30097.60434129195
 21
1576.0728158699001
 31
0.0
  0
LINE
  5
D2EC
  8
YODOROGO
 10
30189.604341291921
 20
1603.7494964292871
 30
0.0
 11
30105.604341291921
 21
1603.7494964292871
 31
0.0
  0
LINE
  5
D2ED
  8
YODOROGO
 10
30177.604341291921
 20
1551.817722473427
 30
0.0
 11
30189.604341291921
 21
1603.7494964292871
 31
0.0
  0
ARC
  5
D2EE
  8
YODOROGO
 10
30230.05882870045
 20
1868.885714953002
 30
0.0
 40
321.37763628529081
 50
260.60629297969911
 51
267.77903556555862
  0
LINE
  5
D2EF
  8
YODOROGO
 10
30217.604341291921
 20
1427.749496429285
 30
0.0
 11
30217.604341291921
 21
1547.749496429288
 31
0.0
  0
LINE
  5
D2F0
  8
YODOROGO
 10
29937.604341291932
 20
1481.3393349155101
 30
0.0
 11
29937.604341291921
 21
1594.531090531141
 31
0.0
  0
LINE
  5
D2F1
  8
YODOROGO
 10
30217.604341291921
 20
1667.749496429288
 30
0.0
 11
29949.60434129191
 21
1667.749496429288
 31
0.0
  0
LINE
  5
D2F2
  8
YODOROGO
 10
30217.604341291921
 20
1627.749496429288
 30
0.0
 11
30217.604341291921
 21
1667.749496429288
 31
0.0
  0
LINE
  5
D2F3
  8
YODOROGO
 10
30017.604341291921
 20
1627.749496429288
 30
0.0
 11
30217.604341291921
 21
1627.749496429288
 31
0.0
  0
ARC
  5
D2F4
  8
YODOROGO
 10
30230.05882870136
 20
1868.885714952901
 30
0.0
 40
321.37763628522822
 50
228.6181454618993
 51
245.660289248906
  0
LINE
  5
D2F5
  8
YODOROGO
 10
30105.604341291921
 20
1603.7494964292871
 30
0.0
 11
30097.60434129195
 21
1576.0728158699001
 31
0.0
  0
LINE
  5
D2F6
  8
YODOROGO
 10
30189.604341291921
 20
1603.7494964292871
 30
0.0
 11
30105.604341291921
 21
1603.7494964292871
 31
0.0
  0
LINE
  5
D2F7
  8
YODOROGO
 10
30177.604341291921
 20
1551.817722473427
 30
0.0
 11
30189.604341291921
 21
1603.7494964292871
 31
0.0
  0
ARC
  5
D2F8
  8
YODOROGO
 10
30230.05882870045
 20
1868.885714953002
 30
0.0
 40
321.37763628529081
 50
260.60629297969911
 51
267.77903556555862
  0
LINE
  5
D2F9
  8
YODOROGO
 10
30217.604341291921
 20
1427.749496429285
 30
0.0
 11
30217.604341291921
 21
1547.749496429288
 31
0.0
  0
LINE
  5
D2FA
  8
YODOROGO
 10
29937.604341291932
 20
1481.3393349155101
 30
0.0
 11
29937.604341291921
 21
1594.531090531141
 31
0.0
  0
LINE
  5
D2FB
  8
YODOROGO
 10
30433.604341291921
 20
1573.749496429288
 30
0.0
 11
30381.604341291932
 21
1573.749496429288
 31
0.0
  0
LINE
  5
D2FC
  8
YODOROGO
 10
30433.604341291921
 20
1601.749496429285
 30
0.0
 11
30433.604341291921
 21
1573.749496429288
 31
0.0
  0
LINE
  5
D2FD
  8
YODOROGO
 10
30381.604341291932
 20
1601.749496429285
 30
0.0
 11
30433.604341291921
 21
1601.749496429285
 31
0.0
  0
LINE
  5
D2FE
  8
YODOROGO
 10
30381.604341291932
 20
1573.749496429288
 30
0.0
 11
30381.604341291932
 21
1601.749496429285
 31
0.0
  0
LINE
  5
D2FF
  8
YODOROGO
 10
30429.604341291921
 20
1577.7494964292871
 30
0.0
 11
30385.604341291921
 21
1577.7494964292871
 31
0.0
  0
LINE
  5
D300
  8
YODOROGO
 10
30429.604341291921
 20
1597.749496429288
 30
0.0
 11
30429.604341291921
 21
1577.7494964292871
 31
0.0
  0
LINE
  5
D301
  8
YODOROGO
 10
30385.604341291921
 20
1597.749496429288
 30
0.0
 11
30429.604341291921
 21
1597.749496429288
 31
0.0
  0
LINE
  5
D302
  8
YODOROGO
 10
30385.604341291921
 20
1577.7494964292871
 30
0.0
 11
30385.604341291921
 21
1597.749496429288
 31
0.0
  0
LINE
  5
D303
  8
YODOROGO
 10
30425.604341291921
 20
1581.749496429286
 30
0.0
 11
30389.604341291921
 21
1581.749496429286
 31
0.0
  0
LINE
  5
D304
  8
YODOROGO
 10
30425.604341291921
 20
1593.749496429288
 30
0.0
 11
30425.604341291921
 21
1581.749496429286
 31
0.0
  0
LINE
  5
D305
  8
YODOROGO
 10
30389.604341291921
 20
1593.749496429288
 30
0.0
 11
30425.604341291921
 21
1593.749496429288
 31
0.0
  0
LINE
  5
D306
  8
YODOROGO
 10
30389.604341291921
 20
1581.749496429286
 30
0.0
 11
30389.604341291921
 21
1593.749496429288
 31
0.0
  0
LINE
  5
D307
  8
YODOROGO
 10
30421.604341291932
 20
1585.7494964292871
 30
0.0
 11
30393.604341291921
 21
1585.7494964292871
 31
0.0
  0
LINE
  5
D308
  8
YODOROGO
 10
30421.604341291932
 20
1589.749496429288
 30
0.0
 11
30421.604341291932
 21
1585.7494964292871
 31
0.0
  0
LINE
  5
D309
  8
YODOROGO
 10
30393.604341291921
 20
1589.749496429288
 30
0.0
 11
30421.604341291932
 21
1589.749496429288
 31
0.0
  0
LINE
  5
D30A
  8
YODOROGO
 10
30393.604341291921
 20
1585.7494964292871
 30
0.0
 11
30393.604341291921
 21
1589.749496429288
 31
0.0
  0
LINE
  5
D30B
  8
YODOROGO
 10
30465.604341291921
 20
1627.749496429288
 30
0.0
 11
30381.604341291932
 21
1627.749496429288
 31
0.0
  0
LINE
  5
D30C
  8
YODOROGO
 10
30465.604341291921
 20
1547.749496429288
 30
0.0
 11
30465.604341291921
 21
1627.749496429288
 31
0.0
  0
LINE
  5
D30D
  8
YODOROGO
 10
30381.604341291932
 20
1547.749496429288
 30
0.0
 11
30465.604341291921
 21
1547.749496429288
 31
0.0
  0
LINE
  5
D30E
  8
YODOROGO
 10
30381.604341291932
 20
1427.749496429288
 30
0.0
 11
30381.604341291932
 21
1547.749496429288
 31
0.0
  0
LINE
  5
D30F
  8
YODOROGO
 10
30537.604341291921
 20
1427.749496429288
 30
0.0
 11
30381.604341291932
 21
1427.749496429288
 31
0.0
  0
LINE
  5
D310
  8
YODOROGO
 10
30569.604341291921
 20
1571.749496429285
 30
0.0
 11
30569.604341291921
 21
1599.7494964292871
 31
0.0
  0
ARC
  5
D311
  8
YODOROGO
 10
30545.604341291921
 20
1571.749496429291
 30
0.0
 40
24.000000000003752
 50
270.0
 51
359.99999999998772
  0
LINE
  5
D312
  8
YODOROGO
 10
30529.604341291939
 20
1547.749496429288
 30
0.0
 11
30545.604341291921
 21
1547.749496429288
 31
0.0
  0
LINE
  5
D313
  8
YODOROGO
 10
30529.604341291939
 20
1627.749496429288
 30
0.0
 11
30529.604341291939
 21
1547.749496429288
 31
0.0
  0
LINE
  5
D314
  8
YODOROGO
 10
30899.604341291932
 20
1547.749496429288
 30
0.0
 11
30925.604341291921
 21
1547.749496429288
 31
0.0
  0
LINE
  5
D315
  8
YODOROGO
 10
30933.604341291921
 20
1427.749496429288
 30
0.0
 11
30899.604341291932
 21
1427.749496429288
 31
0.0
  0
LINE
  5
D316
  8
YODOROGO
 10
30763.604341291921
 20
1563.7494964292871
 30
0.0
 11
30791.604341291921
 21
1563.7494964292871
 31
0.0
  0
LINE
  5
D317
  8
YODOROGO
 10
30899.604341291932
 20
1491.749496429288
 30
0.0
 11
30723.604341291921
 21
1491.749496429288
 31
0.0
  0
LINE
  5
D318
  8
YODOROGO
 10
30831.604341291921
 20
1563.7494964292871
 30
0.0
 11
30859.604341291932
 21
1563.7494964292871
 31
0.0
  0
LINE
  5
D319
  8
YODOROGO
 10
30899.604341291932
 20
1427.749496429288
 30
0.0
 11
30899.604341291932
 21
1547.749496429288
 31
0.0
  0
LINE
  5
D31A
  8
YODOROGO
 10
30697.604341291932
 20
1427.749496429288
 30
0.0
 11
30645.604341291921
 21
1427.749496429288
 31
0.0
  0
LINE
  5
D31B
  8
YODOROGO
 10
30617.604341291921
 20
1599.7494964292871
 30
0.0
 11
30617.604341291921
 21
1507.749496429288
 31
0.0
  0
ARC
  5
D31C
  8
YODOROGO
 10
30933.604341291921
 20
1467.749496429288
 30
0.0
 40
40.0
 50
270.0
 51
0.0
  0
LINE
  5
D31D
  8
YODOROGO
 10
31093.604341291921
 20
1523.7494964292871
 30
0.0
 11
31093.604341291921
 21
1427.749496429288
 31
0.0
  0
ARC
  5
D31E
  8
YODOROGO
 10
31039.721395566768
 20
1637.5313901097329
 30
0.0
 40
125.8955565916754
 50
295.34052442160112
 51
359.18902303418679
  0
LINE
  5
D31F
  8
YODOROGO
 10
30617.604341291921
 20
1859.749496429288
 30
0.0
 11
30497.604341291921
 21
1939.749496429288
 31
0.0
  0
LINE
  5
D320
  8
YODOROGO
 10
30497.604341291921
 20
2027.749496429288
 30
0.0
 11
30617.604341291921
 21
1947.749496429288
 31
0.0
  0
LINE
  5
D321
  8
YODOROGO
 10
30529.604341291939
 20
1679.749496429288
 30
0.0
 11
30617.604341291921
 21
1679.749496429288
 31
0.0
  0
LINE
  5
D322
  8
YODOROGO
 10
30617.604341291921
 20
1735.7494964292871
 30
0.0
 11
30529.604341291939
 21
1735.7494964292871
 31
0.0
  0
LINE
  5
D323
  8
YODOROGO
 10
30381.604341291932
 20
1795.7494964292871
 30
0.0
 11
30617.604341291921
 21
1795.7494964292871
 31
0.0
  0
LINE
  5
D324
  8
YODOROGO
 10
30081.604341291921
 20
2027.749496429288
 30
0.0
 11
30021.604341291921
 21
2027.749496429288
 31
0.0
  0
LINE
  5
D325
  8
YODOROGO
 10
30081.604341291921
 20
1827.7494964292871
 30
0.0
 11
30081.604341291921
 21
2027.749496429288
 31
0.0
  0
LINE
  5
D326
  8
YODOROGO
 10
30021.604341291921
 20
1827.7494964292871
 30
0.0
 11
30081.604341291921
 21
1827.7494964292871
 31
0.0
  0
LINE
  5
D327
  8
YODOROGO
 10
30021.604341291921
 20
2027.749496429288
 30
0.0
 11
30021.604341291921
 21
1827.7494964292871
 31
0.0
  0
LINE
  5
D328
  8
YODOROGO
 10
30161.604341291921
 20
2027.749496429288
 30
0.0
 11
30217.604341291921
 21
2027.749496429288
 31
0.0
  0
LINE
  5
D329
  8
YODOROGO
 10
30161.604341291921
 20
1811.749496429288
 30
0.0
 11
30161.604341291921
 21
2027.749496429288
 31
0.0
  0
ARC
  5
D32A
  8
YODOROGO
 10
30121.604341291921
 20
1811.749496429288
 30
0.0
 40
40.0
 50
270.0
 51
0.0
  0
LINE
  5
D32B
  8
YODOROGO
 10
30021.604341291921
 20
1771.7494964292871
 30
0.0
 11
30121.604341291921
 21
1771.7494964292871
 31
0.0
  0
LINE
  5
D32C
  8
YODOROGO
 10
30021.604341291921
 20
1707.749496429288
 30
0.0
 11
30021.604341291921
 21
1771.7494964292871
 31
0.0
  0
LINE
  5
D32D
  8
YODOROGO
 10
30137.604341291921
 20
1707.749496429288
 30
0.0
 11
30021.604341291921
 21
1707.749496429288
 31
0.0
  0
ARC
  5
D32E
  8
YODOROGO
 10
30137.604341291921
 20
1787.7494964292871
 30
0.0
 40
80.0
 50
270.0
 51
0.0
  0
LINE
  5
D32F
  8
YODOROGO
 10
30217.604341291921
 20
2027.749496429288
 30
0.0
 11
30217.604341291921
 21
1787.7494964292871
 31
0.0
  0
LINE
  5
D330
  8
YODOROGO
 10
29977.604341291921
 20
1947.749496429288
 30
0.0
 11
29977.604341291921
 21
1995.7494964292871
 31
0.0
1001
AUTOCAD_POSTSCRIPT_FIGURE
1002
{
1000
PSFILL
1000
Grayscale
1000
Grayscale
1070
    25
1002
}
  0
LINE
  5
D331
  8
YODOROGO
 10
29977.604341291921
 20
1859.749496429288
 30
0.0
 11
29977.604341291921
 21
1907.7494964292871
 31
0.0
1001
AUTOCAD_POSTSCRIPT_FIGURE
1002
{
1000
PSFILL
1000
Grayscale
1000
Grayscale
1070
    25
1002
}
  0
LINE
  5
D332
  8
YODOROGO
 10
29977.604341291921
 20
1707.749496429288
 30
0.0
 11
29977.604341291921
 21
1819.7494964292871
 31
0.0
1001
AUTOCAD_POSTSCRIPT_FIGURE
1002
{
1000
PSFILL
1000
Grayscale
1000
Grayscale
1070
    25
1002
}
  0
LINE
  5
D333
  8
YODOROGO
 10
30381.604341291932
 20
1907.7494964292871
 30
0.0
 11
30497.604341291921
 21
2027.749496429288
 31
0.0
  0
LINE
  5
D334
  8
YODOROGO
 10
30381.604341291932
 20
1819.7494964292871
 30
0.0
 11
30381.604341291932
 21
1907.7494964292871
 31
0.0
  0
LINE
  5
D335
  8
YODOROGO
 10
30497.604341291921
 20
1939.749496429288
 30
0.0
 11
30381.604341291932
 21
1819.7494964292871
 31
0.0
  0
LINE
  5
D336
  8
YODOROGO
 10
30465.604341291921
 20
1679.749496429288
 30
0.0
 11
30465.604341291921
 21
1735.7494964292871
 31
0.0
  0
LINE
  5
D337
  8
YODOROGO
 10
30381.604341291932
 20
1679.749496429288
 30
0.0
 11
30465.604341291921
 21
1679.749496429288
 31
0.0
  0
LINE
  5
D338
  8
YODOROGO
 10
30529.604341291939
 20
1735.7494964292871
 30
0.0
 11
30529.604341291939
 21
1679.749496429288
 31
0.0
  0
LINE
  5
D339
  8
YODOROGO
 10
30381.604341291932
 20
1735.7494964292871
 30
0.0
 11
30381.604341291932
 21
1795.7494964292871
 31
0.0
  0
LINE
  5
D33A
  8
YODOROGO
 10
30465.604341291921
 20
1735.7494964292871
 30
0.0
 11
30381.604341291932
 21
1735.7494964292871
 31
0.0
  0
LINE
  5
D33B
  8
YODOROGO
 10
30645.604341291921
 20
2027.749496429288
 30
0.0
 11
30973.604341291921
 21
2027.749496429288
 31
0.0
  0
LINE
  5
D33C
  8
YODOROGO
 10
30925.604341291921
 20
1963.749496429286
 30
0.0
 11
30697.604341291932
 21
1963.749496429286
 31
0.0
  0
LINE
  5
D33D
  8
YODOROGO
 10
30873.604341291921
 20
1819.7494964292871
 30
0.0
 11
30899.604341291932
 21
1819.7494964292871
 31
0.0
  0
LINE
  5
D33E
  8
YODOROGO
 10
30899.604341291932
 20
1939.749496429288
 30
0.0
 11
30873.604341291921
 21
1819.7494964292871
 31
0.0
  0
LINE
  5
D33F
  8
YODOROGO
 10
30851.604341291939
 20
1939.749496429288
 30
0.0
 11
30899.604341291932
 21
1939.749496429288
 31
0.0
  0
LINE
  5
D340
  8
YODOROGO
 10
30825.604341291921
 20
1819.7494964292871
 30
0.0
 11
30851.604341291939
 21
1939.749496429288
 31
0.0
  0
LINE
  5
D341
  8
YODOROGO
 10
30797.604341291921
 20
1819.7494964292871
 30
0.0
 11
30825.604341291921
 21
1819.7494964292871
 31
0.0
  0
LINE
  5
D342
  8
YODOROGO
 10
30771.604341291939
 20
1939.749496429288
 30
0.0
 11
30797.604341291921
 21
1819.7494964292871
 31
0.0
  0
LINE
  5
D343
  8
YODOROGO
 10
30723.604341291921
 20
1939.749496429288
 30
0.0
 11
30771.604341291939
 21
1939.749496429288
 31
0.0
  0
LINE
  5
D344
  8
YODOROGO
 10
30749.604341291921
 20
1819.7494964292871
 30
0.0
 11
30723.604341291921
 21
1939.749496429288
 31
0.0
  0
LINE
  5
D345
  8
YODOROGO
 10
30723.604341291921
 20
1819.7494964292871
 30
0.0
 11
30749.604341291921
 21
1819.7494964292871
 31
0.0
  0
LINE
  5
D346
  8
YODOROGO
 10
30723.604341291921
 20
1755.7494964292871
 30
0.0
 11
30723.604341291921
 21
1819.7494964292871
 31
0.0
  0
LINE
  5
D347
  8
YODOROGO
 10
30899.604341291932
 20
1755.7494964292871
 30
0.0
 11
30723.604341291921
 21
1755.7494964292871
 31
0.0
  0
LINE
  5
D348
  8
YODOROGO
 10
30899.604341291932
 20
1819.7494964292871
 30
0.0
 11
30899.604341291932
 21
1755.7494964292871
 31
0.0
  0
LINE
  5
D349
  8
YODOROGO
 10
30617.604341291921
 20
1947.749496429288
 30
0.0
 11
30617.604341291921
 21
1859.749496429288
 31
0.0
  0
LINE
  5
D34A
  8
YODOROGO
 10
30791.604341291921
 20
1755.7494964292871
 30
0.0
 11
30831.604341291921
 21
1755.7494964292871
 31
0.0
  0
LINE
  5
D34B
  8
YODOROGO
 10
30723.604341291921
 20
1691.749496429288
 30
0.0
 11
30763.604341291921
 21
1691.749496429288
 31
0.0
  0
LINE
  5
D34C
  8
YODOROGO
 10
30859.604341291932
 20
1691.749496429288
 30
0.0
 11
30899.604341291932
 21
1691.749496429288
 31
0.0
  0
LINE
  5
D34D
  8
YODOROGO
 10
30617.604341291921
 20
1795.7494964292871
 30
0.0
 11
30617.604341291921
 21
1735.7494964292871
 31
0.0
  0
LINE
  5
D34E
  8
YODOROGO
 10
31165.604341291921
 20
2027.749496429288
 30
0.0
 11
31165.604341291921
 21
1963.749496429286
 31
0.0
  0
LINE
  5
D34F
  8
YODOROGO
 10
31533.604341291921
 20
1595.7494964292871
 30
0.0
 11
31533.60434129191
 21
1811.749496429288
 31
0.0
  0
LINE
  5
D350
  8
YODOROGO
 10
31461.60434129191
 20
1987.7494964292871
 30
0.0
 11
31461.60434129191
 21
1635.7494964292871
 31
0.0
  0
LINE
  5
D351
  8
YODOROGO
 10
31653.604341291921
 20
1427.749496429288
 30
0.0
 11
31653.60434129191
 21
1811.749496429288
 31
0.0
  0
LINE
  5
D352
  8
YODOROGO
 10
31589.604341291921
 20
1811.749496429288
 30
0.0
 11
31589.604341291921
 21
1427.749496429288
 31
0.0
  0
LINE
  5
D353
  8
YODOROGO
 10
31237.604341291921
 20
1595.7494964292871
 30
0.0
 11
31237.604341291921
 21
1707.749496429288
 31
0.0
  0
ARC
  5
D354
  8
YODOROGO
 10
31353.914865116069
 20
1607.790351288558
 30
0.0
 40
180.0924485759885
 50
268.62849102169793
 51
356.16638457330322
  0
LINE
  5
D355
  8
YODOROGO
 10
31349.604341291939
 20
1527.749496429288
 30
0.0
 11
31349.604341291939
 21
1427.749496429288
 31
0.0
  0
ARC
  5
D356
  8
YODOROGO
 10
31351.518075724562
 20
1637.838957017655
 30
0.0
 40
110.1060929836122
 50
269.00410209305932
 51
358.91264455492478
  0
LINE
  5
D357
  8
YODOROGO
 10
31589.604341291921
 20
1427.749496429288
 30
0.0
 11
31653.604341291921
 21
1427.749496429288
 31
0.0
  0
LINE
  5
D358
  8
YODOROGO
 10
31533.60434129191
 20
1811.749496429288
 30
0.0
 11
31589.604341291921
 21
1811.749496429288
 31
0.0
  0
LINE
  5
D359
  8
YODOROGO
 10
31621.604341291939
 20
1987.7494964292871
 30
0.0
 11
31461.60434129191
 21
1987.7494964292871
 31
0.0
  0
LINE
  5
D35A
  8
YODOROGO
 10
31533.60434129191
 20
1915.7494964292871
 30
0.0
 11
31661.604341291939
 21
1915.7494964292871
 31
0.0
  0
LINE
  5
D35B
  8
YODOROGO
 10
31701.604341291939
 20
1875.7494964292871
 30
0.0
 11
31533.60434129191
 21
1875.7494964292871
 31
0.0
  0
LINE
  5
D35C
  8
YODOROGO
 10
31237.604341291921
 20
1779.749496429288
 30
0.0
 11
31349.604341291939
 21
1779.749496429288
 31
0.0
  0
LINE
  5
D35D
  8
YODOROGO
 10
31237.604341291921
 20
1835.7494964292871
 30
0.0
 11
31237.604341291921
 21
1779.749496429288
 31
0.0
  0
LINE
  5
D35E
  8
YODOROGO
 10
31349.604341291939
 20
1835.7494964292871
 30
0.0
 11
31237.604341291921
 21
1835.7494964292871
 31
0.0
  0
LINE
  5
D35F
  8
YODOROGO
 10
31349.604341291939
 20
1779.749496429288
 30
0.0
 11
31349.604341291939
 21
1835.7494964292871
 31
0.0
  0
LINE
  5
D360
  8
YODOROGO
 10
31533.60434129191
 20
1875.7494964292871
 30
0.0
 11
31533.60434129191
 21
1915.7494964292871
 31
0.0
  0
LINE
  5
D361
  8
YODOROGO
 10
31413.604341291921
 20
1707.749496429288
 30
0.0
 11
31413.604341291921
 21
1907.7494964292871
 31
0.0
  0
LINE
  5
D362
  8
YODOROGO
 10
31237.604341291921
 20
1707.749496429288
 30
0.0
 11
31413.604341291921
 21
1707.749496429288
 31
0.0
  0
LINE
  5
D363
  8
YODOROGO
 10
31413.604341291921
 20
1963.749496429286
 30
0.0
 11
31413.604341291921
 21
2027.749496429288
 31
0.0
  0
ARC
  5
D364
  8
YODOROGO
 10
31621.604341291939
 20
2003.749496429285
 30
0.0
 40
15.999999999994539
 50
270.0
 51
0.0000000000081422
  0
LINE
  5
D365
  8
YODOROGO
 10
31637.604341291921
 20
2027.749496429288
 30
0.0
 11
31637.604341291921
 21
2003.7494964292871
 31
0.0
  0
LINE
  5
D366
  8
YODOROGO
 10
31701.604341291939
 20
2027.749496429288
 30
0.0
 11
31637.604341291921
 21
2027.749496429288
 31
0.0
  0
LINE
  5
D367
  8
YODOROGO
 10
31701.604341291939
 20
1955.7494964292871
 30
0.0
 11
31701.604341291939
 21
2027.749496429288
 31
0.0
  0
ARC
  5
D368
  8
YODOROGO
 10
31661.604341291939
 20
1955.7494964292871
 30
0.0
 40
40.0
 50
270.0
 51
0.0
  0
LINE
  5
D369
  8
YODOROGO
 10
31701.604341291939
 20
1811.749496429288
 30
0.0
 11
31701.604341291939
 21
1875.7494964292871
 31
0.0
  0
LINE
  5
D36A
  8
YODOROGO
 10
31653.60434129191
 20
1811.749496429288
 30
0.0
 11
31701.604341291939
 21
1811.749496429288
 31
0.0
  0
LINE
  5
D36B
  8
0-6
  6
CONTINUOUS
 62
     6
 10
6324.9294330259718
 20
19531.48493104316
 30
0.0
 11
6399.6491780966016
 21
19675.456925421891
 31
0.0
  0
LINE
  5
D36C
  8
0-6
  6
CONTINUOUS
 62
     6
 10
6399.6491780966016
 20
19675.456925421891
 30
0.0
 11
6282.273135112946
 21
19563.499935744429
 31
0.0
  0
LINE
  5
D36D
  8
0-6
  6
CONTINUOUS
 62
     6
 10
6282.273135112946
 20
19563.499935744429
 30
0.0
 11
6324.9294330259718
 21
19531.48493104316
 31
0.0
  0
LINE
  5
D36E
  8
0-6
  6
CONTINUOUS
 62
     6
 10
6324.9294330259718
 20
16607.48303204319
 30
0.0
 11
6399.6491780966016
 21
16751.455026421911
 31
0.0
  0
LINE
  5
D36F
  8
0-6
  6
CONTINUOUS
 62
     6
 10
6399.6491780966016
 20
16751.455026421911
 30
0.0
 11
6282.273135112946
 21
16639.498036744451
 31
0.0
  0
LINE
  5
D370
  8
0-6
  6
CONTINUOUS
 62
     6
 10
6282.273135112946
 20
16639.498036744451
 30
0.0
 11
6324.9294330259718
 21
16607.48303204319
 31
0.0
  0
LINE
  5
D371
  8
0-6
  6
CONTINUOUS
 62
     6
 10
6324.9294330259718
 20
13697.984074043179
 30
0.0
 11
6399.6491780966016
 21
13841.9560684219
 31
0.0
  0
LINE
  5
D372
  8
0-6
  6
CONTINUOUS
 62
     6
 10
6399.6491780966016
 20
13841.9560684219
 30
0.0
 11
6282.273135112946
 21
13729.999078744429
 31
0.0
  0
LINE
  5
D373
  8
0-6
  6
CONTINUOUS
 62
     6
 10
6282.273135112946
 20
13729.999078744429
 30
0.0
 11
6324.9294330259718
 21
13697.984074043179
 31
0.0
  0
LINE
  5
D374
  8
SUNPOU
  6
CONTINUOUS
 62
     4
 10
13879.498539835369
 20
13685.95614742195
 30
0.0
 11
14726.49831583535
 21
13685.95614742195
 31
0.0
  0
LINE
  5
D375
  8
SUNPOU
  6
CONTINUOUS
 62
     4
 10
14646.49831583535
 20
13878.455421421961
 30
0.0
 11
14646.49831583535
 21
13685.95614742195
 31
0.0
  0
LINE
  5
D376
  8
SUNPOU
  6
CONTINUOUS
 62
     4
 10
14646.49831583535
 20
16796.455421421939
 30
0.0
 11
14646.49831583535
 21
13878.455421421961
 31
0.0
  0
LINE
  5
D377
  8
SUNPOU
  6
CONTINUOUS
 62
     4
 10
14646.49831583535
 20
19714.45542142195
 30
0.0
 11
14646.49831583535
 21
16796.455421421939
 31
0.0
  0
LINE
  5
D378
  8
SUNPOU
  6
CONTINUOUS
 62
     4
 10
14566.49831583535
 20
19714.45542142195
 30
0.0
 11
14606.49831583535
 21
19714.45542142195
 31
0.0
  0
LINE
  5
D379
  8
SUNPOU
  6
CONTINUOUS
 62
     4
 10
13874.49926583536
 20
19936.955289421941
 30
0.0
 11
14686.49831583535
 21
19936.955289421941
 31
0.0
  0
LINE
  5
D37A
  8
SUNPOU
  6
CONTINUOUS
 62
     4
 10
14646.49831583535
 20
19714.45542142195
 30
0.0
 11
14646.49831583535
 21
19936.955289421941
 31
0.0
  0
LINE
  5
D37B
  8
SUNPOU
  6
CONTINUOUS
 62
     4
 10
13805.998420835351
 20
19926.95872042195
 30
0.0
 11
14326.49897483534
 21
19926.95872042195
 31
0.0
  0
LINE
  5
D37C
  8
SUNPOU
  6
CONTINUOUS
 62
     4
 10
13874.49926583536
 20
19936.955289421941
 30
0.0
 11
14326.49897483534
 21
19936.955289421941
 31
0.0
  0
LINE
  5
D37D
  8
SUNPOU
  6
CONTINUOUS
 62
     4
 10
14246.49897483534
 20
19926.95872042195
 30
0.0
 11
14246.49897483534
 21
19686.95872042195
 31
0.0
  0
LINE
  5
D37E
  8
SUNPOU
  6
CONTINUOUS
 62
     4
 10
14246.49897483534
 20
19936.955289421941
 30
0.0
 11
14246.49897483534
 21
20176.955289421949
 31
0.0
  0
LINE
  5
D37F
  8
SUNPOU
  6
CONTINUOUS
 62
     4
 10
14246.49897483534
 20
19926.95872042195
 30
0.0
 11
14246.49897483534
 21
19936.955289421941
 31
0.0
  0
LINE
  5
D380
  8
SUNPOU
  6
CONTINUOUS
 62
     4
 10
5448.4985398353747
 20
20561.957334421961
 30
0.0
 11
5448.4985398353747
 21
20636.956345421939
 31
0.0
  0
LINE
  5
D381
  8
SUNPOU
  6
CONTINUOUS
 62
     4
 10
5362.9985398353729
 20
20011.95700442194
 30
0.0
 11
5362.9985398353729
 21
20636.956345421939
 31
0.0
  0
LINE
  5
D382
  8
SUNPOU
  6
CONTINUOUS
 62
     4
 10
5448.4985398353747
 20
20556.95634542195
 30
0.0
 11
5688.4985398353747
 21
20556.95634542195
 31
0.0
  0
LINE
  5
D383
  8
SUNPOU
  6
CONTINUOUS
 62
     4
 10
5365.9985398353738
 20
20556.95634542195
 30
0.0
 11
5125.9985398353747
 21
20556.95634542195
 31
0.0
  0
LINE
  5
D384
  8
SUNPOU
  6
CONTINUOUS
 62
     4
 10
5448.4985398353747
 20
20556.95634542195
 30
0.0
 11
5365.9985398353738
 21
20556.95634542195
 31
0.0
  0
LINE
  5
D385
  8
SUNPOU
  6
CONTINUOUS
 62
     4
 10
10448.498539835349
 20
20561.957334421961
 30
0.0
 11
10448.498539835349
 21
20636.956345421939
 31
0.0
  0
LINE
  5
D386
  8
SUNPOU
  6
CONTINUOUS
 62
     4
 10
5448.4985398353747
 20
20561.957334421961
 30
0.0
 11
5448.4985398353747
 21
20636.956345421939
 31
0.0
  0
LINE
  5
D387
  8
SUNPOU
  6
CONTINUOUS
 62
     4
 10
10448.498539835349
 20
20556.95634542195
 30
0.0
 11
5448.4985398353747
 21
20556.95634542195
 31
0.0
  0
LINE
  5
D388
  8
SUNPOU
  6
CONTINUOUS
 62
     4
 10
13716.99853983536
 20
20086.957004421929
 30
0.0
 11
13716.99853983536
 21
20636.956345421939
 31
0.0
  0
LINE
  5
D389
  8
SUNPOU
  6
CONTINUOUS
 62
     4
 10
10448.498539835349
 20
20561.957334421961
 30
0.0
 11
10448.498539835349
 21
20636.956345421939
 31
0.0
  0
LINE
  5
D38A
  8
SUNPOU
  6
CONTINUOUS
 62
     4
 10
13716.99853983536
 20
20556.95634542195
 30
0.0
 11
10448.498539835349
 21
20556.95634542195
 31
0.0
  0
LINE
  5
D38B
  8
SUNPOU
  6
CONTINUOUS
 62
     4
 10
13716.99853983536
 20
20086.957004421929
 30
0.0
 11
13716.99853983536
 21
20636.956345421939
 31
0.0
  0
LINE
  5
D38C
  8
SUNPOU
  6
CONTINUOUS
 62
     4
 10
13802.498539835369
 20
20006.95674142196
 30
0.0
 11
13802.498539835369
 21
20636.956345421939
 31
0.0
  0
LINE
  5
D38D
  8
SUNPOU
  6
CONTINUOUS
 62
     4
 10
13716.99853983536
 20
20556.95634542195
 30
0.0
 11
13476.99853983536
 21
20556.95634542195
 31
0.0
  0
LINE
  5
D38E
  8
SUNPOU
  6
CONTINUOUS
 62
     4
 10
13799.498539835369
 20
20556.95634542195
 30
0.0
 11
14039.49853983536
 21
20556.95634542195
 31
0.0
  0
LINE
  5
D38F
  8
SUNPOU
  6
CONTINUOUS
 62
     4
 10
13716.99853983536
 20
20556.95634542195
 30
0.0
 11
13799.498539835369
 21
20556.95634542195
 31
0.0
  0
LINE
  5
D390
  8
SUNPOU
  6
CONTINUOUS
 62
     4
 10
13802.498539835369
 20
13605.95614742195
 30
0.0
 11
13802.498539835369
 21
12315.95535542194
 31
0.0
  0
LINE
  5
D391
  8
SUNPOU
  6
CONTINUOUS
 62
     4
 10
5362.9985398353729
 20
13605.956147421941
 30
0.0
 11
5362.9985398353729
 21
12315.95535542194
 31
0.0
  0
LINE
  5
D392
  8
SUNPOU
  6
CONTINUOUS
 62
     4
 10
13799.498539835369
 20
12395.95535542194
 30
0.0
 11
5365.9985398353738
 21
12395.95535542194
 31
0.0
  0
LINE
  5
D393
  8
SUNPOU
  6
CONTINUOUS
 62
     4
 10
26953.352274301182
 20
19836.955421421961
 30
0.0
 11
26953.352274301182
 21
20636.956345421939
 31
0.0
  0
LINE
  5
D394
  8
SUNPOU
  6
CONTINUOUS
 62
     4
 10
27711.352274301182
 20
19916.957928421951
 30
0.0
 11
27711.352274301182
 21
20636.956345421939
 31
0.0
  0
LINE
  5
D395
  8
SUNPOU
  6
CONTINUOUS
 62
     4
 10
26953.352274301182
 20
20556.95634542195
 30
0.0
 11
27711.352274301182
 21
20556.95634542195
 31
0.0
  0
LINE
  5
D396
  8
SUNPOU
  6
CONTINUOUS
 62
     4
 10
13802.3888954096
 20
8524.1575434219612
 30
0.0
 11
13802.3888954096
 21
9915.1575694219573
 31
0.0
  0
LINE
  5
D397
  8
SUNPOU
  6
CONTINUOUS
 62
     4
 10
7551.3888954096028
 20
8656.0473668343893
 30
0.0
 11
7551.3888954096028
 21
9915.1575694219573
 31
0.0
  0
LINE
  5
D398
  8
SUNPOU
  6
CONTINUOUS
 62
     4
 10
13802.3888954096
 20
9835.1575694219573
 30
0.0
 11
7551.3888954096028
 21
9835.1575694219573
 31
0.0
  0
LINE
  5
D399
  8
SUNPOU
  6
CONTINUOUS
 62
     4
 10
7701.3888954095974
 20
8582.0676074219573
 30
0.0
 11
7701.3888954095974
 21
9515.1592194219611
 31
0.0
  0
LINE
  5
D39A
  8
SUNPOU
  6
CONTINUOUS
 62
     4
 10
7551.3888954096028
 20
8656.0473668343893
 30
0.0
 11
7551.3888954096028
 21
9515.1592194219611
 31
0.0
  0
LINE
  5
D39B
  8
SUNPOU
  6
CONTINUOUS
 62
     4
 10
7701.3888954095974
 20
9435.1592194219593
 30
0.0
 11
7941.3888954095983
 21
9435.1592194219593
 31
0.0
  0
LINE
  5
D39C
  8
SUNPOU
  6
CONTINUOUS
 62
     4
 10
7551.3888954096028
 20
9435.1592194219593
 30
0.0
 11
7311.3888954096064
 21
9435.1592194219593
 31
0.0
  0
LINE
  5
D39D
  8
SUNPOU
  6
CONTINUOUS
 62
     4
 10
7701.3888954095974
 20
9435.1592194219593
 30
0.0
 11
7551.3888954096028
 21
9435.1592194219593
 31
0.0
  0
LINE
  5
D39E
  8
SUNPOU
  6
CONTINUOUS
 62
     4
 10
13622.3888954096
 20
8394.3433191057684
 30
0.0
 11
13622.3888954096
 21
9515.1592194219611
 31
0.0
  0
LINE
  5
D39F
  8
SUNPOU
  6
CONTINUOUS
 62
     4
 10
7701.3888954095974
 20
8582.0676074219573
 30
0.0
 11
7701.3888954095974
 21
9515.1592194219611
 31
0.0
  0
LINE
  5
D3A0
  8
SUNPOU
  6
CONTINUOUS
 62
     4
 10
13622.3888954096
 20
9435.1592194219593
 30
0.0
 11
7701.3888954095974
 21
9435.1592194219593
 31
0.0
  0
LINE
  5
D3A1
  8
SUNPOU
  6
CONTINUOUS
 62
     4
 10
13802.3888954096
 20
8524.1575434219612
 30
0.0
 11
13802.3888954096
 21
9515.1592194219611
 31
0.0
  0
LINE
  5
D3A2
  8
SUNPOU
  6
CONTINUOUS
 62
     4
 10
13622.3888954096
 20
8394.3433191057684
 30
0.0
 11
13622.3888954096
 21
9515.1592194219611
 31
0.0
  0
LINE
  5
D3A3
  8
SUNPOU
  6
CONTINUOUS
 62
     4
 10
13802.3888954096
 20
9435.1592194219593
 30
0.0
 11
13622.3888954096
 21
9435.1592194219593
 31
0.0
  0
LINE
  5
D3A4
  8
SUNPOU
  6
CONTINUOUS
 62
     4
 10
7608.8888954096028
 20
6287.1575434219621
 30
0.0
 11
6531.3884994096006
 21
6287.1575434219621
 31
0.0
  0
LINE
  5
D3A5
  8
SUNPOU
  6
CONTINUOUS
 62
     4
 10
7516.5816358102247
 20
8635.6575434219612
 30
0.0
 11
6531.3884994096006
 21
8635.6575434219612
 31
0.0
  0
LINE
  5
D3A6
  8
SUNPOU
  6
CONTINUOUS
 62
     4
 10
6611.3884994096006
 20
6287.1575434219621
 30
0.0
 11
6611.3884994096006
 21
8635.6575434219612
 31
0.0
  0
LINE
  5
D3A7
  8
SUNPOU
  6
CONTINUOUS
 62
     4
 10
13709.8888954096
 20
6287.1575434219621
 30
0.0
 11
14792.38929140959
 21
6287.1575434219612
 31
0.0
  0
LINE
  5
D3A8
  8
SUNPOU
  6
CONTINUOUS
 62
     4
 10
13882.3888954096
 20
8443.6575434219612
 30
0.0
 11
14792.38929140959
 21
8443.6575434219612
 31
0.0
  0
LINE
  5
D3A9
  8
SUNPOU
  6
CONTINUOUS
 62
     4
 10
14712.38929140959
 20
6287.1575434219612
 30
0.0
 11
14712.38929140959
 21
8443.6575434219612
 31
0.0
  0
LINE
  5
D3AA
  8
SUNPOU
  6
CONTINUOUS
 62
     4
 10
13622.3888954096
 20
6207.1575434219603
 30
0.0
 11
13622.3888954096
 21
4507.1578734219556
 31
0.0
  0
LINE
  5
D3AB
  8
SUNPOU
  6
CONTINUOUS
 62
     4
 10
7701.3888954095974
 20
6207.1575434219603
 30
0.0
 11
7701.3888954095974
 21
4507.1578734219556
 31
0.0
  0
LINE
  5
D3AC
  8
SUNPOU
  6
CONTINUOUS
 62
     4
 10
13622.3888954096
 20
4587.1578734219574
 30
0.0
 11
7701.3888954095974
 21
4587.1578734219574
 31
0.0
  0
LINE
  5
D3AD
  8
SUNPOU
  6
CONTINUOUS
 62
     4
 10
7743.8888954096037
 20
5844.5052854219593
 30
0.0
 11
7743.8888954096037
 21
4907.1577084219589
 31
0.0
  0
LINE
  5
D3AE
  8
SUNPOU
  6
CONTINUOUS
 62
     4
 10
7701.3888954095974
 20
6207.1575434219603
 30
0.0
 11
7701.3888954095974
 21
4907.1577084219589
 31
0.0
  0
LINE
  5
D3AF
  8
SUNPOU
  6
CONTINUOUS
 62
     4
 10
7743.8888954096037
 20
4987.1577084219589
 30
0.0
 11
7983.8888954096028
 21
4987.1577084219589
 31
0.0
  0
LINE
  5
D3B0
  8
SUNPOU
  6
CONTINUOUS
 62
     4
 10
7701.3888954095974
 20
4987.1577084219589
 30
0.0
 11
7461.3888954095974
 21
4987.1577084219589
 31
0.0
  0
LINE
  5
D3B1
  8
SUNPOU
  6
CONTINUOUS
 62
     4
 10
7743.8888954096037
 20
4987.1577084219589
 30
0.0
 11
7701.3888954095974
 21
4987.1577084219589
 31
0.0
  0
LINE
  5
D3B2
  8
SUNPOU
  6
CONTINUOUS
 62
     4
 10
13579.888895409589
 20
5844.5052854219593
 30
0.0
 11
13579.888895409589
 21
4907.1577084219589
 31
0.0
  0
LINE
  5
D3B3
  8
SUNPOU
  6
CONTINUOUS
 62
     4
 10
13622.3888954096
 20
6207.1575434219603
 30
0.0
 11
13622.3888954096
 21
4907.1577084219589
 31
0.0
  0
LINE
  5
D3B4
  8
SUNPOU
  6
CONTINUOUS
 62
     4
 10
13579.888895409589
 20
4987.1577084219589
 30
0.0
 11
13339.8888954096
 21
4987.1577084219589
 31
0.0
  0
LINE
  5
D3B5
  8
SUNPOU
  6
CONTINUOUS
 62
     4
 10
13622.3888954096
 20
4987.1577084219589
 30
0.0
 11
13862.3888954096
 21
4987.1577084219589
 31
0.0
  0
LINE
  5
D3B6
  8
SUNPOU
  6
CONTINUOUS
 62
     4
 10
13579.888895409589
 20
4987.1577084219589
 30
0.0
 11
13622.3888954096
 21
4987.1577084219589
 31
0.0
  0
LINE
  5
D3B7
  8
SUNPOU
  6
CONTINUOUS
 62
     4
 10
10661.8888954096
 20
5844.5052854219593
 30
0.0
 11
10661.8888954096
 21
4907.1577084219589
 31
0.0
  0
LINE
  5
D3B8
  8
SUNPOU
  6
CONTINUOUS
 62
     4
 10
13579.888895409589
 20
5844.5052854219593
 30
0.0
 11
13579.888895409589
 21
4907.1577084219589
 31
0.0
  0
LINE
  5
D3B9
  8
SUNPOU
  6
CONTINUOUS
 62
     4
 10
10661.8888954096
 20
4987.1577084219589
 30
0.0
 11
13579.888895409589
 21
4987.1577084219589
 31
0.0
  0
LINE
  5
D3BA
  8
SUNPOU
  6
CONTINUOUS
 62
     4
 10
10661.8888954096
 20
5844.5052854219593
 30
0.0
 11
10661.8888954096
 21
4907.1577084219589
 31
0.0
  0
LINE
  5
D3BB
  8
SUNPOU
  6
CONTINUOUS
 62
     4
 10
7743.8888954096037
 20
5844.5052854219593
 30
0.0
 11
7743.8888954096037
 21
4907.1577084219589
 31
0.0
  0
LINE
  5
D3BC
  8
SUNPOU
  6
CONTINUOUS
 62
     4
 10
10661.8888954096
 20
4987.1577084219589
 30
0.0
 11
7743.8888954096037
 21
4987.1577084219589
 31
0.0
  0
LINE
  5
D3BD
  8
SUNPOU
  6
CONTINUOUS
 62
     4
 10
27796.8522743012
 20
8715.6575694219555
 30
0.0
 11
27796.8522743012
 21
9915.1021434219656
 31
0.0
  0
LINE
  5
D3BE
  8
SUNPOU
  6
CONTINUOUS
 62
     4
 10
19357.352274301182
 20
8715.6575694219555
 30
0.0
 11
19357.352274301182
 21
9915.1021434219656
 31
0.0
  0
LINE
  5
D3BF
  8
SUNPOU
  6
CONTINUOUS
 62
     4
 10
27793.8522743012
 20
9835.1021434219638
 30
0.0
 11
19360.352274301182
 21
9835.1021434219638
 31
0.0
  0
LINE
  5
D3C0
  8
SUNPOU
  6
CONTINUOUS
 62
     4
 10
19400.352274301182
 20
8715.6575694219555
 30
0.0
 11
19400.352274301182
 21
9515.1592194219611
 31
0.0
  0
LINE
  5
D3C1
  8
SUNPOU
  6
CONTINUOUS
 62
     4
 10
19357.352274301182
 20
8715.6575694219555
 30
0.0
 11
19357.352274301182
 21
9515.1592194219611
 31
0.0
  0
LINE
  5
D3C2
  8
SUNPOU
  6
CONTINUOUS
 62
     4
 10
19400.352274301182
 20
9435.1592194219593
 30
0.0
 11
19640.352274301182
 21
9435.1592194219593
 31
0.0
  0
LINE
  5
D3C3
  8
SUNPOU
  6
CONTINUOUS
 62
     4
 10
19360.352274301182
 20
9435.1592194219593
 30
0.0
 11
19120.352274301182
 21
9435.1592194219593
 31
0.0
  0
LINE
  5
D3C4
  8
SUNPOU
  6
CONTINUOUS
 62
     4
 10
19397.352274301182
 20
9435.1592194219593
 30
0.0
 11
19357.352274301182
 21
9435.1592194219593
 31
0.0
  0
LINE
  5
D3C5
  8
SUNPOU
  6
CONTINUOUS
 62
     4
 10
27753.8522743012
 20
8585.657635421956
 30
0.0
 11
27753.8522743012
 21
9515.1592194219611
 31
0.0
  0
LINE
  5
D3C6
  8
SUNPOU
  6
CONTINUOUS
 62
     4
 10
27796.8522743012
 20
8715.6575694219555
 30
0.0
 11
27796.8522743012
 21
9515.1592194219611
 31
0.0
  0
LINE
  5
D3C7
  8
SUNPOU
  6
CONTINUOUS
 62
     4
 10
27753.8522743012
 20
9435.1592194219593
 30
0.0
 11
27513.8522743012
 21
9435.1592194219593
 31
0.0
  0
LINE
  5
D3C8
  8
SUNPOU
  6
CONTINUOUS
 62
     4
 10
27793.8522743012
 20
9435.1592194219593
 30
0.0
 11
28033.852274301189
 21
9435.1592194219593
 31
0.0
  0
LINE
  5
D3C9
  8
SUNPOU
  6
CONTINUOUS
 62
     4
 10
27753.8522743012
 20
9435.1592194219593
 30
0.0
 11
27793.8522743012
 21
9435.1592194219593
 31
0.0
  0
LINE
  5
D3CA
  8
SUNPOU
  6
CONTINUOUS
 62
     4
 10
24400.352274301182
 20
8585.657635421956
 30
0.0
 11
24400.352274301182
 21
9515.1592194219611
 31
0.0
  0
LINE
  5
D3CB
  8
SUNPOU
  6
CONTINUOUS
 62
     4
 10
27753.8522743012
 20
8585.657635421956
 30
0.0
 11
27753.8522743012
 21
9515.1592194219611
 31
0.0
  0
LINE
  5
D3CC
  8
SUNPOU
  6
CONTINUOUS
 62
     4
 10
24400.352274301182
 20
9435.1592194219593
 30
0.0
 11
27753.8522743012
 21
9435.1592194219593
 31
0.0
  0
LINE
  5
D3CD
  8
SUNPOU
  6
CONTINUOUS
 62
     4
 10
27841.354913301169
 20
6287.1575434219621
 30
0.0
 11
29284.454525005931
 21
6287.1575434219621
 31
0.0
  0
LINE
  5
D3CE
  8
SUNPOU
  6
CONTINUOUS
 62
     4
 10
27873.8522743012
 20
8635.6575694219555
 30
0.0
 11
29284.454525005931
 21
8635.6575694219555
 31
0.0
  0
LINE
  5
D3CF
  8
SUNPOU
  6
CONTINUOUS
 62
     4
 10
29204.45452500592
 20
6287.1575434219621
 30
0.0
 11
29204.45452500592
 21
8635.6575694219555
 31
0.0
  0
LINE
  5
D3D0
  8
SUNPOU
  6
CONTINUOUS
 62
     4
 10
27841.354913301169
 20
6287.1575434219621
 30
0.0
 11
28641.355573301182
 21
6287.1575434219621
 31
0.0
  0
LINE
  5
D3D1
  8
SUNPOU
  6
CONTINUOUS
 62
     4
 10
27748.855969301181
 20
8178.6575434219612
 30
0.0
 11
28641.355573301182
 21
8178.6575434219612
 31
0.0
  0
LINE
  5
D3D2
  8
SUNPOU
  6
CONTINUOUS
 62
     4
 10
28561.355573301182
 20
6287.1575434219621
 30
0.0
 11
28561.355573301182
 21
8178.6575434219612
 31
0.0
  0
LINE
  5
D3D3
  8
SUNPOU
  6
CONTINUOUS
 62
     4
 10
24397.352274301182
 20
6207.1575434219603
 30
0.0
 11
24397.352274301182
 21
5307.1575434219612
 31
0.0
  0
LINE
  5
D3D4
  8
SUNPOU
  6
CONTINUOUS
 62
     4
 10
19485.352274301182
 20
6107.1577084219589
 30
0.0
 11
19485.352274301182
 21
5307.1575434219612
 31
0.0
  0
LINE
  5
D3D5
  8
SUNPOU
  6
CONTINUOUS
 62
     4
 10
24397.352274301182
 20
5387.1575434219612
 30
0.0
 11
19485.352274301182
 21
5387.1575434219612
 31
0.0
  0
LINE
  5
D3D6
  8
SUNPOU
  6
CONTINUOUS
 62
     4
 10
27753.812321353649
 20
6207.1575434219603
 30
0.0
 11
27753.812321353649
 21
4507.1578734220147
 31
0.0
  0
LINE
  5
D3D7
  8
SUNPOU
  6
CONTINUOUS
 62
     4
 10
19400.352274301182
 20
6107.1577084219589
 30
0.0
 11
19400.352274301182
 21
4507.1578734220147
 31
0.0
  0
LINE
  5
D3D8
  8
SUNPOU
  6
CONTINUOUS
 62
     4
 10
27753.812321353649
 20
4587.1578734220147
 30
0.0
 11
19400.352274301182
 21
4587.1578734220147
 31
0.0
  0
LINE
  5
D3D9
  8
SUNPOU
  6
CONTINUOUS
 62
     4
 10
27711.3522743012
 20
5844.5052854219593
 30
0.0
 11
27711.3522743012
 21
4907.1577084219589
 31
0.0
  0
LINE
  5
D3DA
  8
SUNPOU
  6
CONTINUOUS
 62
     4
 10
27753.812321353649
 20
6207.1575434219603
 30
0.0
 11
27753.812321353649
 21
4907.1577084219589
 31
0.0
  0
LINE
  5
D3DB
  8
SUNPOU
  6
CONTINUOUS
 62
     4
 10
27711.3522743012
 20
4987.1577084219589
 30
0.0
 11
27471.3522743012
 21
4987.1577084219589
 31
0.0
  0
LINE
  5
D3DC
  8
SUNPOU
  6
CONTINUOUS
 62
     4
 10
27753.812321353649
 20
4987.1577084219589
 30
0.0
 11
27993.812321353649
 21
4987.1577084219589
 31
0.0
  0
LINE
  5
D3DD
  8
SUNPOU
  6
CONTINUOUS
 62
     4
 10
27711.3522743012
 20
4987.1577084219589
 30
0.0
 11
27753.812321353649
 21
4987.1577084219589
 31
0.0
  0
LINE
  5
D3DE
  8
SUNPOU
  6
CONTINUOUS
 62
     4
 10
24442.852274301182
 20
5844.5052854219593
 30
0.0
 11
24442.852274301182
 21
4907.1577084219589
 31
0.0
  0
LINE
  5
D3DF
  8
SUNPOU
  6
CONTINUOUS
 62
     4
 10
27711.3522743012
 20
5844.5052854219593
 30
0.0
 11
27711.3522743012
 21
4907.1577084219589
 31
0.0
  0
LINE
  5
D3E0
  8
SUNPOU
  6
CONTINUOUS
 62
     4
 10
24442.852274301182
 20
4987.1577084219589
 30
0.0
 11
27711.3522743012
 21
4987.1577084219589
 31
0.0
  0
LINE
  5
D3E1
  8
SUNPOU
  6
CONTINUOUS
 62
     4
 10
27617.3522743012
 20
6107.1577084219589
 30
0.0
 11
27617.3522743012
 21
5307.1575434219612
 31
0.0
  0
LINE
  5
D3E2
  8
SUNPOU
  6
CONTINUOUS
 62
     4
 10
24536.8522743012
 20
6107.1577084219589
 30
0.0
 11
24536.8522743012
 21
5307.1575434219612
 31
0.0
  0
LINE
  5
D3E3
  8
SUNPOU
  6
CONTINUOUS
 62
     4
 10
27617.3522743012
 20
5387.1575434219612
 30
0.0
 11
24536.8522743012
 21
5387.1575434219612
 31
0.0
  0
LINE
  5
D3E4
  8
SUNPOU
  6
CONTINUOUS
 62
     4
 10
19442.852274301182
 20
5844.5052854219593
 30
0.0
 11
19442.852274301182
 21
4907.1577084219589
 31
0.0
  0
LINE
  5
D3E5
  8
SUNPOU
  6
CONTINUOUS
 62
     4
 10
19400.352274301182
 20
6107.1577084219589
 30
0.0
 11
19400.352274301182
 21
4907.1577084219589
 31
0.0
  0
LINE
  5
D3E6
  8
SUNPOU
  6
CONTINUOUS
 62
     4
 10
19442.852274301182
 20
4987.1577084219589
 30
0.0
 11
19682.852274301182
 21
4987.1577084219589
 31
0.0
  0
LINE
  5
D3E7
  8
SUNPOU
  6
CONTINUOUS
 62
     4
 10
19400.352274301182
 20
4987.1577084219589
 30
0.0
 11
19160.352274301182
 21
4987.1577084219589
 31
0.0
  0
LINE
  5
D3E8
  8
SUNPOU
  6
CONTINUOUS
 62
     4
 10
19442.852274301182
 20
4987.1577084219589
 30
0.0
 11
19400.352274301182
 21
4987.1577084219589
 31
0.0
  0
LINE
  5
D3E9
  8
SUNPOU
  6
CONTINUOUS
 62
     4
 10
24442.852274301182
 20
5844.5052854219593
 30
0.0
 11
24442.852274301182
 21
4907.1577084219589
 31
0.0
  0
LINE
  5
D3EA
  8
SUNPOU
  6
CONTINUOUS
 62
     4
 10
19442.852274301182
 20
5844.5052854219593
 30
0.0
 11
19442.852274301182
 21
4907.1577084219589
 31
0.0
  0
LINE
  5
D3EB
  8
SUNPOU
  6
CONTINUOUS
 62
     4
 10
24442.852274301182
 20
4987.1577084219589
 30
0.0
 11
19442.852274301182
 21
4987.1577084219589
 31
0.0
  0
LINE
  5
D3EC
  8
SUNPOU
  6
CONTINUOUS
 62
     4
 10
24400.352274301182
 20
8585.657635421956
 30
0.0
 11
24400.352274301182
 21
9515.1592194219611
 31
0.0
  0
LINE
  5
D3ED
  8
SUNPOU
  6
CONTINUOUS
 62
     4
 10
19400.352274301182
 20
8715.6575694219555
 30
0.0
 11
19400.352274301182
 21
9515.1592194219611
 31
0.0
  0
LINE
  5
D3EE
  8
SUNPOU
  6
CONTINUOUS
 62
     4
 10
24400.352274301182
 20
9435.1592194219593
 30
0.0
 11
19400.352274301182
 21
9435.1592194219593
 31
0.0
  0
LINE
  5
D3EF
  8
SUNPOU
  6
CONTINUOUS
 62
     4
 10
19320.352274301182
 20
6287.9718314219654
 30
0.0
 11
18110.529876006811
 21
6287.9718314219663
 31
0.0
  0
LINE
  5
D3F0
  8
SUNPOU
  6
CONTINUOUS
 62
     4
 10
19280.352274301182
 20
8307.971831421959
 30
0.0
 11
18110.529876006811
 21
8307.971831421959
 31
0.0
  0
LINE
  5
D3F1
  8
SUNPOU
  6
CONTINUOUS
 62
     4
 10
18190.529876006811
 20
6287.9718314219663
 30
0.0
 11
18190.529876006811
 21
8307.971831421959
 31
0.0
  0
LINE
  5
D40A
  8
SUNPOU
  6
CONTINUOUS
 62
     4
 10
24442.852274301182
 20
19836.955421421961
 30
0.0
 11
24442.852274301182
 21
20636.956345421939
 31
0.0
  0
LINE
  5
D40B
  8
SUNPOU
  6
CONTINUOUS
 62
     4
 10
24400.35227430116
 20
19836.955421421961
 30
0.0
 11
24400.35227430116
 21
20636.956345421939
 31
0.0
  0
LINE
  5
D40C
  8
SUNPOU
  6
CONTINUOUS
 62
     4
 10
24442.852274301182
 20
20556.95634542195
 30
0.0
 11
24682.852274301182
 21
20556.95634542195
 31
0.0
  0
LINE
  5
D40D
  8
SUNPOU
  6
CONTINUOUS
 62
     4
 10
24400.35227430116
 20
20556.95634542195
 30
0.0
 11
24160.35227430116
 21
20556.95634542195
 31
0.0
  0
LINE
  5
D40E
  8
SUNPOU
  6
CONTINUOUS
 62
     4
 10
24442.852274301182
 20
20556.95634542195
 30
0.0
 11
24400.35227430116
 21
20556.95634542195
 31
0.0
  0
LINE
  5
D40F
  8
SUNPOU
  6
CONTINUOUS
 62
     4
 10
24850.352274301182
 20
19836.955421421961
 30
0.0
 11
24850.352274301182
 21
20636.956345421939
 31
0.0
  0
LINE
  5
D410
  8
SUNPOU
  6
CONTINUOUS
 62
     4
 10
24442.852274301182
 20
19836.955421421961
 30
0.0
 11
24442.852274301182
 21
20636.956345421939
 31
0.0
  0
LINE
  5
D411
  8
SUNPOU
  6
CONTINUOUS
 62
     4
 10
24850.352274301182
 20
20556.95634542195
 30
0.0
 11
24442.852274301182
 21
20556.95634542195
 31
0.0
  0
LINE
  5
D412
  8
SUNPOU
  6
CONTINUOUS
 62
     4
 10
25551.35227430116
 20
19836.955421421961
 30
0.0
 11
25551.35227430116
 21
20636.956345421939
 31
0.0
  0
LINE
  5
D413
  8
SUNPOU
  6
CONTINUOUS
 62
     4
 10
24850.352274301182
 20
19836.955421421961
 30
0.0
 11
24850.352274301182
 21
20636.956345421939
 31
0.0
  0
LINE
  5
D414
  8
SUNPOU
  6
CONTINUOUS
 62
     4
 10
25551.35227430116
 20
20556.95634542195
 30
0.0
 11
24850.352274301182
 21
20556.95634542195
 31
0.0
  0
LINE
  5
D415
  8
SUNPOU
  6
CONTINUOUS
 62
     4
 10
26252.352274301182
 20
19836.955421421961
 30
0.0
 11
26252.352274301182
 21
20636.956345421939
 31
0.0
  0
LINE
  5
D416
  8
SUNPOU
  6
CONTINUOUS
 62
     4
 10
25551.35227430116
 20
19836.955421421961
 30
0.0
 11
25551.35227430116
 21
20636.956345421939
 31
0.0
  0
LINE
  5
D417
  8
SUNPOU
  6
CONTINUOUS
 62
     4
 10
26252.352274301182
 20
20556.95634542195
 30
0.0
 11
25551.35227430116
 21
20556.95634542195
 31
0.0
  0
LINE
  5
D418
  8
SUNPOU
  6
CONTINUOUS
 62
     4
 10
26953.352274301182
 20
19836.955421421961
 30
0.0
 11
26953.352274301182
 21
20636.956345421939
 31
0.0
  0
LINE
  5
D419
  8
SUNPOU
  6
CONTINUOUS
 62
     4
 10
26252.352274301182
 20
19836.955421421961
 30
0.0
 11
26252.352274301182
 21
20636.956345421939
 31
0.0
  0
LINE
  5
D41A
  8
SUNPOU
  6
CONTINUOUS
 62
     4
 10
26953.352274301182
 20
20556.95634542195
 30
0.0
 11
26252.352274301182
 21
20556.95634542195
 31
0.0
  0
LINE
  5
D41B
  8
SUNPOU
  6
CONTINUOUS
 62
     4
 10
27711.352274301182
 20
19916.957928421951
 30
0.0
 11
27711.352274301182
 21
20636.956345421939
 31
0.0
  0
LINE
  5
D41C
  8
SUNPOU
  6
CONTINUOUS
 62
     4
 10
27753.852274301182
 20
19836.955421421961
 30
0.0
 11
27753.852274301182
 21
20636.956345421939
 31
0.0
  0
LINE
  5
D41D
  8
SUNPOU
  6
CONTINUOUS
 62
     4
 10
27711.352274301182
 20
20556.95634542195
 30
0.0
 11
27471.352274301182
 21
20556.95634542195
 31
0.0
  0
LINE
  5
D41E
  8
SUNPOU
  6
CONTINUOUS
 62
     4
 10
27753.852274301182
 20
20556.95634542195
 30
0.0
 11
27993.852274301182
 21
20556.95634542195
 31
0.0
  0
LINE
  5
D41F
  8
SUNPOU
  6
CONTINUOUS
 62
     4
 10
27711.352274301182
 20
20556.95634542195
 30
0.0
 11
27753.852274301182
 21
20556.95634542195
 31
0.0
  0
LINE
  5
D42D
  8
SUNPOU
  6
CONTINUOUS
 62
     4
 10
24442.852274301182
 20
20956.956345421939
 30
0.0
 11
19442.852274301182
 21
20956.956345421939
 31
0.0
  0
LINE
  5
D42E
  8
SUNPOU
  6
CONTINUOUS
 62
     4
 10
27711.352274301182
 20
20956.956345421939
 30
0.0
 11
24442.852274301182
 21
20956.956345421939
 31
0.0
  0
LINE
  5
D42F
  8
SUNPOU
  6
CONTINUOUS
 62
     4
 10
19442.852274301182
 20
20081.405195299281
 30
0.0
 11
19442.852274301182
 21
20636.956345421939
 31
0.0
  0
LINE
  5
D430
  8
SUNPOU
  6
CONTINUOUS
 62
     4
 10
19485.354517301152
 20
19920.305685421961
 30
0.0
 11
19485.354517301152
 21
20636.956345421939
 31
0.0
  0
LINE
  5
D431
  8
SUNPOU
  6
CONTINUOUS
 62
     4
 10
19442.852274301182
 20
20556.95634542195
 30
0.0
 11
19202.852274301182
 21
20556.95634542195
 31
0.0
  0
LINE
  5
D432
  8
SUNPOU
  6
CONTINUOUS
 62
     4
 10
19485.354517301152
 20
20556.95634542195
 30
0.0
 11
19725.35451730117
 21
20556.95634542195
 31
0.0
  0
LINE
  5
D433
  8
SUNPOU
  6
CONTINUOUS
 62
     4
 10
19442.852274301182
 20
20556.95634542195
 30
0.0
 11
19485.354517301152
 21
20556.95634542195
 31
0.0
  0
LINE
  5
D434
  8
SUNPOU
  6
CONTINUOUS
 62
     4
 10
19442.852274301182
 20
20081.405195299281
 30
0.0
 11
19442.852274301182
 21
20636.956345421939
 31
0.0
  0
LINE
  5
D435
  8
SUNPOU
  6
CONTINUOUS
 62
     4
 10
19400.35398930118
 20
19916.957928421951
 30
0.0
 11
19400.35398930118
 21
20636.956345421939
 31
0.0
  0
LINE
  5
D436
  8
SUNPOU
  6
CONTINUOUS
 62
     4
 10
19442.852274301182
 20
20556.95634542195
 30
0.0
 11
19682.852274301182
 21
20556.95634542195
 31
0.0
  0
LINE
  5
D437
  8
SUNPOU
  6
CONTINUOUS
 62
     4
 10
19400.35398930118
 20
20556.95634542195
 30
0.0
 11
19160.35398930118
 21
20556.95634542195
 31
0.0
  0
LINE
  5
D438
  8
SUNPOU
  6
CONTINUOUS
 62
     4
 10
19442.852274301182
 20
20556.95634542195
 30
0.0
 11
19400.35398930118
 21
20556.95634542195
 31
0.0
  0
LINE
  5
D439
  8
SUNPOU
  6
CONTINUOUS
 62
     4
 10
19058.247438349241
 20
16796.455421421939
 30
0.0
 11
18145.008649932559
 21
16796.455421421939
 31
0.0
  0
LINE
  5
D43A
  8
SUNPOU
  6
CONTINUOUS
 62
     4
 10
19058.247438349241
 20
19714.45542142195
 30
0.0
 11
18145.008649932559
 21
19714.45542142195
 31
0.0
  0
LINE
  5
D43B
  8
SUNPOU
  6
CONTINUOUS
 62
     4
 10
18225.008649932552
 20
16796.455421421939
 30
0.0
 11
18225.008649932552
 21
19714.45542142195
 31
0.0
  0
LINE
  5
D43C
  8
SUNPOU
  6
CONTINUOUS
 62
     4
 10
19058.247438349241
 20
13878.455421421961
 30
0.0
 11
18145.008649932559
 21
13878.455421421961
 31
0.0
  0
LINE
  5
D43D
  8
SUNPOU
  6
CONTINUOUS
 62
     4
 10
19058.247438349241
 20
16796.455421421939
 30
0.0
 11
18145.008649932559
 21
16796.455421421939
 31
0.0
  0
LINE
  5
D43E
  8
SUNPOU
  6
CONTINUOUS
 62
     4
 10
18225.008649932552
 20
13878.455421421961
 30
0.0
 11
18225.008649932552
 21
16796.455421421939
 31
0.0
  0
ARC
  5
D456
  8
1-前柱P
 10
19433.25227430118
 20
13946.85542142196
 30
0.0
 40
1.0
 50
0.0
 51
90.0
  0
LINE
  5
D457
  8
1-前柱P
 10
19434.25227430118
 20
13946.85542142196
 30
0.0
 11
19434.25227430118
 21
13945.255421421951
 31
0.0
  0
LINE
  5
D458
  8
1-前柱P
 10
19434.25227430118
 20
13945.255421421951
 30
0.0
 11
19445.45227430118
 21
13945.255421421951
 31
0.0
  0
LINE
  5
D459
  8
1-前柱P
 10
19445.45227430118
 20
13945.255421421951
 30
0.0
 11
19445.45227430118
 21
13946.85542142196
 31
0.0
  0
ARC
  5
D45A
  8
1-前柱P
 10
19446.452274301169
 20
13946.85542142196
 30
0.0
 40
1.0
 50
90.0
 51
180.0
  0
ARC
  5
D45B
  8
1-中柱P
 10
19449.452274301158
 20
16864.755421421949
 30
0.0
 40
1.0
 50
90.0
 51
180.0
  0
LINE
  5
D45C
  8
1-中柱P
 10
19448.45227430118
 20
16864.755421421949
 30
0.0
 11
19448.45227430118
 21
16863.155421421961
 31
0.0
  0
LINE
  5
D45D
  8
1-中柱P
 10
19448.45227430118
 20
16863.155421421961
 30
0.0
 11
19437.25227430118
 21
16863.155421421961
 31
0.0
  0
LINE
  5
D45E
  8
1-中柱P
 10
19437.25227430118
 20
16863.155421421961
 30
0.0
 11
19437.25227430118
 21
16864.755421421949
 31
0.0
  0
ARC
  5
D45F
  8
1-中柱P
 10
19436.25227430118
 20
16864.755421421949
 30
0.0
 40
1.0
 50
0.0
 51
90.0
  0
ARC
  5
D460
  8
1-後柱P
 10
19452.45227430118
 20
19646.40542142195
 30
0.0
 40
1.0
 50
180.0
 51
270.0
  0
LINE
  5
D461
  8
1-後柱P
 10
19451.452274301151
 20
19646.40542142195
 30
0.0
 11
19451.452274301151
 21
19648.005421421942
 31
0.0
  0
LINE
  5
D462
  8
1-後柱P
 10
19451.452274301151
 20
19648.005421421942
 30
0.0
 11
19440.25227430118
 21
19648.005421421942
 31
0.0
  0
LINE
  5
D463
  8
1-後柱P
 10
19440.25227430118
 20
19648.005421421942
 30
0.0
 11
19440.252274301161
 21
19646.40542142195
 31
0.0
  0
ARC
  5
D464
  8
1-後柱P
 10
19439.252274301161
 20
19646.40542142195
 30
0.0
 40
1.0
 50
270.0
 51
0.0
  0
LINE
  5
D465
  8
0-6
  6
CONTINUOUS
 62
     6
 10
8726.5949803290623
 20
15770.527800137659
 30
0.0
 11
8846.4497072355807
 21
15879.85889709289
 31
0.0
  0
LINE
  5
D466
  8
0-6
  6
CONTINUOUS
 62
     6
 10
8846.4497072355807
 20
15879.85889709289
 30
0.0
 11
8768.5243091987995
 21
15737.570188250351
 31
0.0
  0
LINE
  5
D467
  8
0-6
  6
CONTINUOUS
 62
     6
 10
8768.5243091987995
 20
15737.570188250351
 30
0.0
 11
8726.5949803290623
 21
15770.527800137659
 31
0.0
  0
LINE
  5
D468
  8
0-6
  6
CONTINUOUS
 62
     6
 10
12353.19784592185
 20
16990.071713700221
 30
0.0
 11
12384.83749229059
 21
16830.957361421952
 31
0.0
  0
LINE
  5
D469
  8
0-6
  6
CONTINUOUS
 62
     6
 10
12384.83749229059
 20
16830.957361421952
 30
0.0
 11
12303.31136638822
 21
16971.214037265301
 31
0.0
  0
LINE
  5
D46A
  8
0-6
  6
CONTINUOUS
 62
     6
 10
12303.31136638822
 20
16971.214037265301
 30
0.0
 11
12353.19784592185
 21
16990.071713700221
 31
0.0
  0
LINE
  5
D46B
  8
0-6
  6
CONTINUOUS
 62
     6
 10
19576.324124089311
 20
19498.858648675301
 30
0.0
 11
19469.996100141361
 21
19621.354880421961
 31
0.0
  0
LINE
  5
D46C
  8
0-6
  6
CONTINUOUS
 62
     6
 10
19469.996100141361
 20
19621.354880421961
 30
0.0
 11
19530.84821973462
 21
19470.993573746509
 31
0.0
  0
LINE
  5
D46D
  8
0-6
  6
CONTINUOUS
 62
     6
 10
19530.84821973462
 20
19470.993573746509
 30
0.0
 11
19576.324124089311
 21
19498.858648675301
 31
0.0
  0
LINE
  5
D46E
  8
0-6
  6
CONTINUOUS
 62
     6
 10
19519.31272491892
 20
19914.67220535464
 30
0.0
 11
19450.269046476918
 21
19767.893644467811
 31
0.0
  0
LINE
  5
D46F
  8
0-6
  6
CONTINUOUS
 62
     6
 10
19450.269046476918
 20
19767.893644467811
 30
0.0
 11
19563.186046656061
 21
19884.34644209281
 31
0.0
  0
LINE
  5
D470
  8
0-6
  6
CONTINUOUS
 62
     6
 10
19563.186046656061
 20
19884.34644209281
 30
0.0
 11
19519.31272491892
 21
19914.67220535464
 31
0.0
  0
LINE
  5
D471
  8
0-6
  6
CONTINUOUS
 62
     6
 10
19576.324124089311
 20
16981.051217168599
 30
0.0
 11
19469.996100141361
 21
16858.554985421961
 31
0.0
  0
LINE
  5
D472
  8
0-6
  6
CONTINUOUS
 62
     6
 10
19469.996100141361
 20
16858.554985421961
 30
0.0
 11
19530.84821973462
 21
17008.916292097401
 31
0.0
  0
LINE
  5
D473
  8
0-6
  6
CONTINUOUS
 62
     6
 10
19530.84821973462
 20
17008.916292097401
 30
0.0
 11
19576.324124089311
 21
16981.051217168599
 31
0.0
  0
LINE
  5
D474
  8
0-6
  6
CONTINUOUS
 62
     6
 10
19576.324124089311
 20
14073.551653168621
 30
0.0
 11
19469.996100141361
 21
13951.055421421959
 31
0.0
  0
LINE
  5
D475
  8
0-6
  6
CONTINUOUS
 62
     6
 10
19469.996100141361
 20
13951.055421421959
 30
0.0
 11
19530.84821973462
 21
14101.41672809742
 31
0.0
  0
LINE
  5
D476
  8
0-6
  6
CONTINUOUS
 62
     6
 10
19530.84821973462
 20
14101.41672809742
 30
0.0
 11
19576.324124089311
 21
14073.551653168621
 31
0.0
  0
LINE
  5
D477
  8
0-6
  6
CONTINUOUS
 62
     6
 10
19519.312724918898
 20
16565.23766048926
 30
0.0
 11
19450.269046476918
 21
16712.01622137607
 31
0.0
  0
LINE
  5
D478
  8
0-6
  6
CONTINUOUS
 62
     6
 10
19450.269046476918
 20
16712.01622137607
 30
0.0
 11
19563.186046656061
 21
16595.5634237511
 31
0.0
  0
LINE
  5
D479
  8
0-6
  6
CONTINUOUS
 62
     6
 10
19563.186046656061
 20
16595.5634237511
 30
0.0
 11
19519.312724918898
 21
16565.23766048926
 31
0.0
  0
LINE
  5
D47A
  8
0-6
  6
CONTINUOUS
 62
     6
 10
19519.312724918898
 20
13677.67686053513
 30
0.0
 11
19450.269046476918
 21
13824.455421421961
 31
0.0
  0
LINE
  5
D47B
  8
0-6
  6
CONTINUOUS
 62
     6
 10
19450.269046476918
 20
13824.455421421961
 30
0.0
 11
19563.186046656061
 21
13708.002623796971
 31
0.0
  0
LINE
  5
D47C
  8
0-6
  6
CONTINUOUS
 62
     6
 10
19563.186046656061
 20
13708.002623796971
 30
0.0
 11
19519.312724918898
 21
13677.67686053513
 31
0.0
  0
LINE
  5
D47D
  8
0-6
  6
CONTINUOUS
 62
     6
 10
5315.9887875353743
 20
14571.03013957678
 30
0.0
 11
5362.2790792010192
 21
14726.491338486079
 31
0.0
  0
LINE
  5
D47E
  8
0-6
  6
CONTINUOUS
 62
     6
 10
5362.2790792010192
 20
14726.491338486079
 30
0.0
 11
5268.0696932043056
 21
14594.44553357634
 31
0.0
  0
LINE
  5
D47F
  8
0-6
  6
CONTINUOUS
 62
     6
 10
5268.0696932043056
 20
14594.44553357634
 30
0.0
 11
5315.9887875353743
 21
14571.03013957678
 31
0.0
  0
TEXT
  5
D485
  8
0
  6
CONTINUOUS
 62
     7
 10
18145.008649932541
 20
15070.78875475528
 30
0.0
 40
160.0
  1
2918
 50
90.0
  0
TEXT
  5
D486
  8
0
  6
CONTINUOUS
 62
     7
 10
18145.008649932541
 20
17988.788754755278
 30
0.0
 40
160.0
  1
2918
 50
90.0
  0
TEXT
  5
D487
  8
0
  6
CONTINUOUS
 62
     7
 10
18821.930346301189
 20
20636.954629421962
 30
0.0
 40
160.0
  1
42.5
  0
TEXT
  5
D488
  8
0
  6
CONTINUOUS
 62
     7
 10
19500.026313301161
 20
20656.298485421961
 30
0.0
 40
160.0
  1
42.5
  0
TEXT
  5
D489
  8
0
  6
CONTINUOUS
 62
     7
 10
25677.102274301182
 20
21036.956345421939
 30
0.0
 40
160.0
  1
3268.5
  0
TEXT
  5
D48A
  8
0
  6
CONTINUOUS
 62
     7
 10
21689.518940967839
 20
21036.956345421939
 30
0.0
 40
160.0
  1
5000
  0
TEXT
  5
D48E
  8
0
  6
CONTINUOUS
 62
     7
 10
27768.526313301161
 20
20656.298485421961
 30
0.0
 40
160.0
  1
42.5
  0
TEXT
  5
D48F
  8
0
  6
CONTINUOUS
 62
     7
 10
26429.51894096785
 20
20638.66702988444
 30
0.0
 40
160.0
  1
701
  0
TEXT
  5
D490
  8
0
  6
CONTINUOUS
 62
     7
 10
25728.518940967839
 20
20636.956345421939
 30
0.0
 40
160.0
  1
701
  0
TEXT
  5
D491
  8
0
  6
CONTINUOUS
 62
     7
 10
25038.703590649719
 20
20287.445271466418
 30
0.0
 40
160.0
  1
701
  0
TEXT
  5
D492
  8
0
  6
CONTINUOUS
 62
     7
 10
24503.93560763451
 20
20636.956345421939
 30
0.0
 40
160.0
  1
407.5
  0
TEXT
  5
D493
  8
0
  6
CONTINUOUS
 62
     7
 10
23821.930346301178
 20
20636.956345421939
 30
0.0
 40
160.0
  1
42.5
  0
TEXT
  5
D49C
  8
0
  6
CONTINUOUS
 62
     7
 10
18110.529876006811
 20
6634.9718314219663
 30
0.0
 40
160.0
  1
有効高サ2020
 50
90.0
  0
TEXT
  5
D49D
  8
0
  6
CONTINUOUS
 62
     7
 10
21647.01894096785
 20
9515.1592194219611
 30
0.0
 40
160.0
  1
5000
  0
TEXT
  5
D49E
  8
0
  6
CONTINUOUS
 62
     7
 10
21689.518940967839
 20
5067.1577084219589
 30
0.0
 40
160.0
  1
5000
  0
TEXT
  5
D49F
  8
0
  6
CONTINUOUS
 62
     7
 10
18800.351614301198
 20
5067.1574774219607
 30
0.0
 40
160.0
  1
42.5
  0
TEXT
  5
D4A0
  8
0
  6
CONTINUOUS
 62
     7
 10
25223.768940967871
 20
5467.1575434219612
 30
0.0
 40
160.0
  1
有効開口巾3080.5
  0
TEXT
  5
D4A1
  8
0
  6
CONTINUOUS
 62
     7
 10
25677.1022743012
 20
5067.1577084219589
 30
0.0
 40
160.0
  1
3268.5
  0
TEXT
  5
D4A2
  8
0
  6
CONTINUOUS
 62
     7
 10
27853.675305301182
 20
5074.7048864219623
 30
0.0
 40
160.0
  1
42.5
  0
TEXT
  5
D4A3
  8
0
  6
CONTINUOUS
 62
     7
 10
23177.08229782743
 20
4667.1578734220147
 30
0.0
 40
160.0
  1
8353.5
  0
TEXT
  5
D4A4
  8
0
  6
CONTINUOUS
 62
     7
 10
21194.685607634521
 20
5467.1575434219612
 30
0.0
 40
160.0
  1
有効開口巾4912
  0
TEXT
  5
D4A5
  8
0
  6
CONTINUOUS
 62
     7
 10
28481.355573301182
 20
6310.240876755297
 30
0.0
 40
160.0
  1
有効開口高サ1891.5
 50
90.0
  0
TEXT
  5
D4A6
  8
0
  6
CONTINUOUS
 62
     7
 10
29124.454525005931
 20
6442.740889755295
 30
0.0
 40
160.0
  1
2348.5（2588.5）
 50
90.0
  0
TEXT
  5
D4A7
  8
0
  6
CONTINUOUS
 62
     7
 10
25677.1022743012
 20
9515.1592194219611
 30
0.0
 40
160.0
  1
3353.5
  0
TEXT
  5
D4A8
  8
0
  6
CONTINUOUS
 62
     7
 10
27883.6602603012
 20
9515.1584934219627
 30
0.0
 40
160.0
  1
43
  0
TEXT
  5
D4A9
  8
0
  6
CONTINUOUS
 62
     7
 10
18982.88645430118
 20
9515.1584934219627
 30
0.0
 40
160.0
  1
43
  0
TEXT
  5
D4AA
  8
0
  6
CONTINUOUS
 62
     7
 10
23177.1022743012
 20
9915.1021434219656
 30
0.0
 40
160.0
  1
8439.5
  0
TEXT
  5
D4AB
  8
0
  6
CONTINUOUS
 62
     7
 10
8936.2222287429377
 20
5067.1577084219589
 30
0.0
 40
160.0
  1
2918
  0
TEXT
  5
D4AC
  8
0
  6
CONTINUOUS
 62
     7
 10
11854.222228742939
 20
5067.1577084219589
 30
0.0
 40
160.0
  1
2918
  0
TEXT
  5
D4AD
  8
0
  6
CONTINUOUS
 62
     7
 10
13724.37850940958
 20
5068.1482264219567
 30
0.0
 40
160.0
  1
42.5
  0
TEXT
  5
D4AE
  8
0
  6
CONTINUOUS
 62
     7
 10
7101.3872454095999
 20
5067.1574774219607
 30
0.0
 40
160.0
  1
42.5
  0
TEXT
  5
D4AF
  8
0
  6
CONTINUOUS
 62
     7
 10
10395.22222874293
 20
4667.1578734219556
 30
0.0
 40
160.0
  1
5921
  0
TEXT
  5
D4B0
  8
0
  6
CONTINUOUS
 62
     7
 10
14632.38929140959
 20
6373.407543421964
 30
0.0
 40
160.0
  1
2156.5（2396.5）
 50
90.0
  0
TEXT
  5
D4B1
  8
0
  6
CONTINUOUS
 62
     7
 10
6531.3884994095997
 20
6442.7408767552943
 30
0.0
 40
160.0
  1
2348.5（2588.5）
 50
90.0
  0
TEXT
  5
D4B2
  8
0
  6
CONTINUOUS
 62
     7
 10
13910.064043878019
 20
9515.1592194219611
 30
0.0
 40
160.0
  1
180
  0
TEXT
  5
D4B3
  8
0
  6
CONTINUOUS
 62
     7
 10
10395.22222874293
 20
9515.1592194219611
 30
0.0
 40
160.0
  1
5921
  0
TEXT
  5
D4B4
  8
0
  6
CONTINUOUS
 62
     7
 10
7138.0555620762707
 20
9515.1592194219611
 30
0.0
 40
160.0
  1
150
  0
TEXT
  5
D4B5
  8
0
  6
CONTINUOUS
 62
     7
 10
10410.222228742939
 20
9915.1575694219573
 30
0.0
 40
160.0
  1
6251
  0
TEXT
  5
D4B6
  8
0
  6
CONTINUOUS
 62
     7
 10
27119.018940967861
 20
20636.956345421939
 30
0.0
 40
160.0
  1
758
  0
TEXT
  5
D4B7
  8
0
  6
CONTINUOUS
 62
     7
 10
8708.0818731687068
 20
12475.95535542194
 30
0.0
 40
160.0
  1
ケラバ外寸8439.5
  0
TEXT
  5
D4B8
  8
0
  6
CONTINUOUS
 62
     7
 10
13812.14568383535
 20
20636.954629421962
 30
0.0
 40
160.0
  1
85.5
  0
TEXT
  5
D4B9
  8
0
  6
CONTINUOUS
 62
     7
 10
11682.748539835369
 20
20636.956345421939
 30
0.0
 40
160.0
  1
3268.5
  0
TEXT
  5
D4BA
  8
0
  6
CONTINUOUS
 62
     7
 10
7695.1652065020389
 20
20636.956345421939
 30
0.0
 40
160.0
  1
5000
  0
TEXT
  5
D4BB
  8
0
  6
CONTINUOUS
 62
     7
 10
4822.150751835361
 20
20636.954629421962
 30
0.0
 40
160.0
  1
85.5
  0
TEXT
  5
D4BC
  8
0
  6
CONTINUOUS
 62
     7
 10
14197.892044230521
 20
20108.384150088608
 30
0.0
 40
160.0
  1
10
 50
90.0
  0
TEXT
  5
D4BD
  8
0
  6
CONTINUOUS
 62
     7
 10
14566.49831583535
 20
20015.43694381119
 30
0.0
 40
160.0
  1
222.5
 50
90.0
  0
TEXT
  5
D4BE
  8
0
  6
CONTINUOUS
 62
     7
 10
14566.49831583535
 20
17988.788754755278
 30
0.0
 40
160.0
  1
2918
 50
90.0
  0
TEXT
  5
D4BF
  8
0
  6
CONTINUOUS
 62
     7
 10
14566.49831583535
 20
15070.78875475528
 30
0.0
 40
160.0
  1
2918
 50
90.0
  0
TEXT
  5
D4C0
  8
0
  6
CONTINUOUS
 62
     7
 10
14566.49831583535
 20
13021.96651901252
 30
0.0
 40
160.0
  1
192.5
 50
90.0
  0
ARC
  5
D4C1
  8
0
  6
BYBLOCK
 62
     0
 10
14646.49831583535
 20
13878.455421421961
 30
0.0
 40
15.0
 50
270.0
 51
90.0
  0
ARC
  5
D4C2
  8
0
  6
BYBLOCK
 62
     0
 10
14646.49831583535
 20
13878.455421421961
 30
0.0
 40
15.0
 50
90.0
 51
270.0
  0
ARC
  5
D4C3
  8
0
  6
BYBLOCK
 62
     0
 10
14646.49831583535
 20
13685.95614742195
 30
0.0
 40
15.0
 50
90.0
 51
270.0
  0
ARC
  5
D4C4
  8
0
  6
BYBLOCK
 62
     0
 10
14646.49831583535
 20
13685.95614742195
 30
0.0
 40
15.0
 50
270.0
 51
90.0
  0
ARC
  5
D4C5
  8
0
  6
BYBLOCK
 62
     0
 10
14646.49831583535
 20
16796.455421421939
 30
0.0
 40
15.0
 50
270.0
 51
90.0
  0
ARC
  5
D4C6
  8
0
  6
BYBLOCK
 62
     0
 10
14646.49831583535
 20
16796.455421421939
 30
0.0
 40
15.0
 50
90.0
 51
270.0
  0
ARC
  5
D4C7
  8
0
  6
BYBLOCK
 62
     0
 10
14646.49831583535
 20
13878.455421421961
 30
0.0
 40
15.0
 50
90.0
 51
270.0
  0
ARC
  5
D4C8
  8
0
  6
BYBLOCK
 62
     0
 10
14646.49831583535
 20
13878.455421421961
 30
0.0
 40
15.0
 50
270.0
 51
90.0
  0
ARC
  5
D4C9
  8
0
  6
BYBLOCK
 62
     0
 10
14646.49831583535
 20
19714.45542142195
 30
0.0
 40
15.0
 50
270.0
 51
90.0
  0
ARC
  5
D4CA
  8
0
  6
BYBLOCK
 62
     0
 10
14646.49831583535
 20
19714.45542142195
 30
0.0
 40
15.0
 50
90.0
 51
270.0
  0
ARC
  5
D4CB
  8
0
  6
BYBLOCK
 62
     0
 10
14646.49831583535
 20
16796.455421421939
 30
0.0
 40
15.0
 50
90.0
 51
270.0
  0
ARC
  5
D4CC
  8
0
  6
BYBLOCK
 62
     0
 10
14646.49831583535
 20
16796.455421421939
 30
0.0
 40
15.0
 50
270.0
 51
90.0
  0
ARC
  5
D4CD
  8
0
  6
BYBLOCK
 62
     0
 10
14646.49831583535
 20
19714.45542142195
 30
0.0
 40
15.0
 50
90.0
 51
270.0
  0
ARC
  5
D4CE
  8
0
  6
BYBLOCK
 62
     0
 10
14646.49831583535
 20
19714.45542142195
 30
0.0
 40
15.0
 50
270.0
 51
90.0
  0
ARC
  5
D4CF
  8
0
  6
BYBLOCK
 62
     0
 10
14646.49831583535
 20
19936.955289421941
 30
0.0
 40
15.0
 50
270.0
 51
90.0
  0
ARC
  5
D4D0
  8
0
  6
BYBLOCK
 62
     0
 10
14646.49831583535
 20
19936.955289421941
 30
0.0
 40
15.0
 50
90.0
 51
270.0
  0
ARC
  5
D4D1
  8
0
  6
BYBLOCK
 62
     0
 10
14246.49897483534
 20
19926.95872042195
 30
0.0
 40
15.0
 50
270.0
 51
90.0
  0
ARC
  5
D4D2
  8
0
  6
BYBLOCK
 62
     0
 10
14246.49897483534
 20
19926.95872042195
 30
0.0
 40
15.0
 50
90.0
 51
270.0
  0
ARC
  5
D4D3
  8
0
  6
BYBLOCK
 62
     0
 10
14246.49897483534
 20
19936.955289421941
 30
0.0
 40
15.0
 50
90.0
 51
270.0
  0
ARC
  5
D4D4
  8
0
  6
BYBLOCK
 62
     0
 10
14246.49897483534
 20
19936.955289421941
 30
0.0
 40
15.0
 50
270.0
 51
90.0
  0
ARC
  5
D4D5
  8
0
  6
BYBLOCK
 62
     0
 10
5448.4985398353747
 20
20556.95634542195
 30
0.0
 40
15.0
 50
0.0
 51
180.0
  0
ARC
  5
D4D6
  8
0
  6
BYBLOCK
 62
     0
 10
5448.4985398353747
 20
20556.95634542195
 30
0.0
 40
15.0
 50
180.0
 51
0.0
  0
ARC
  5
D4D7
  8
0
  6
BYBLOCK
 62
     0
 10
5362.9985398353729
 20
20556.95634542195
 30
0.0
 40
15.0
 50
180.0
 51
0.0
  0
ARC
  5
D4D8
  8
0
  6
BYBLOCK
 62
     0
 10
5362.9985398353729
 20
20556.95634542195
 30
0.0
 40
15.0
 50
0.0
 51
180.0
  0
ARC
  5
D4D9
  8
0
  6
BYBLOCK
 62
     0
 10
10448.498539835349
 20
20556.95634542195
 30
0.0
 40
15.0
 50
180.0
 51
0.0
  0
ARC
  5
D4DA
  8
0
  6
BYBLOCK
 62
     0
 10
10448.498539835349
 20
20556.95634542195
 30
0.0
 40
15.0
 50
0.0
 51
180.0
  0
ARC
  5
D4DB
  8
0
  6
BYBLOCK
 62
     0
 10
5448.4985398353747
 20
20556.95634542195
 30
0.0
 40
15.0
 50
0.0
 51
180.0
  0
ARC
  5
D4DC
  8
0
  6
BYBLOCK
 62
     0
 10
5448.4985398353747
 20
20556.95634542195
 30
0.0
 40
15.0
 50
180.0
 51
0.0
  0
ARC
  5
D4DD
  8
0
  6
BYBLOCK
 62
     0
 10
13716.99853983536
 20
20556.95634542195
 30
0.0
 40
15.0
 50
180.0
 51
0.0
  0
ARC
  5
D4DE
  8
0
  6
BYBLOCK
 62
     0
 10
13716.99853983536
 20
20556.95634542195
 30
0.0
 40
15.0
 50
0.0
 51
180.0
  0
ARC
  5
D4DF
  8
0
  6
BYBLOCK
 62
     0
 10
10448.498539835349
 20
20556.95634542195
 30
0.0
 40
15.0
 50
0.0
 51
180.0
  0
ARC
  5
D4E0
  8
0
  6
BYBLOCK
 62
     0
 10
10448.498539835349
 20
20556.95634542195
 30
0.0
 40
15.0
 50
180.0
 51
0.0
  0
ARC
  5
D4E1
  8
0
  6
BYBLOCK
 62
     0
 10
13716.99853983536
 20
20556.95634542195
 30
0.0
 40
15.0
 50
180.0
 51
0.0
  0
ARC
  5
D4E2
  8
0
  6
BYBLOCK
 62
     0
 10
13716.99853983536
 20
20556.95634542195
 30
0.0
 40
15.0
 50
0.0
 51
180.0
  0
ARC
  5
D4E3
  8
0
  6
BYBLOCK
 62
     0
 10
13802.498539835369
 20
20556.95634542195
 30
0.0
 40
15.0
 50
0.0
 51
180.0
  0
ARC
  5
D4E4
  8
0
  6
BYBLOCK
 62
     0
 10
13802.498539835369
 20
20556.95634542195
 30
0.0
 40
15.0
 50
180.0
 51
0.0
  0
ARC
  5
D4E5
  8
0
  6
BYBLOCK
 62
     0
 10
13802.498539835369
 20
12395.95535542194
 30
0.0
 40
15.0
 50
180.0
 51
0.0
  0
ARC
  5
D4E6
  8
0
  6
BYBLOCK
 62
     0
 10
13802.498539835369
 20
12395.95535542194
 30
0.0
 40
15.0
 50
0.0
 51
180.0
  0
ARC
  5
D4E7
  8
0
  6
BYBLOCK
 62
     0
 10
5362.9985398353729
 20
12395.95535542194
 30
0.0
 40
15.0
 50
0.0
 51
180.0
  0
ARC
  5
D4E8
  8
0
  6
BYBLOCK
 62
     0
 10
5362.9985398353729
 20
12395.95535542194
 30
0.0
 40
15.0
 50
180.0
 51
0.0
  0
ARC
  5
D4E9
  8
0
  6
BYBLOCK
 62
     0
 10
26953.352274301182
 20
20556.95634542195
 30
0.0
 40
15.0
 50
0.0
 51
180.0
  0
ARC
  5
D4EA
  8
0
  6
BYBLOCK
 62
     0
 10
26953.352274301182
 20
20556.95634542195
 30
0.0
 40
15.0
 50
180.0
 51
0.0
  0
ARC
  5
D4EB
  8
0
  6
BYBLOCK
 62
     0
 10
27711.352274301182
 20
20556.95634542195
 30
0.0
 40
15.0
 50
180.0
 51
0.0
  0
ARC
  5
D4EC
  8
0
  6
BYBLOCK
 62
     0
 10
27711.352274301182
 20
20556.95634542195
 30
0.0
 40
15.0
 50
0.0
 51
180.0
  0
ARC
  5
D4ED
  8
0
  6
BYBLOCK
 62
     0
 10
13802.3888954096
 20
9835.1575694219573
 30
0.0
 40
15.0
 50
180.0
 51
0.0
  0
ARC
  5
D4EE
  8
0
  6
BYBLOCK
 62
     0
 10
13802.3888954096
 20
9835.1575694219573
 30
0.0
 40
15.0
 50
0.0
 51
180.0
  0
ARC
  5
D4EF
  8
0
  6
BYBLOCK
 62
     0
 10
7551.3888954096028
 20
9835.1575694219573
 30
0.0
 40
15.0
 50
0.0
 51
180.0
  0
ARC
  5
D4F0
  8
0
  6
BYBLOCK
 62
     0
 10
7551.3888954096028
 20
9835.1575694219573
 30
0.0
 40
15.0
 50
180.0
 51
0.0
  0
ARC
  5
D4F1
  8
0
  6
BYBLOCK
 62
     0
 10
7701.3888954095974
 20
9435.1592194219593
 30
0.0
 40
15.0
 50
0.0
 51
180.0
  0
ARC
  5
D4F2
  8
0
  6
BYBLOCK
 62
     0
 10
7701.3888954095974
 20
9435.1592194219593
 30
0.0
 40
15.0
 50
180.0
 51
0.0
  0
ARC
  5
D4F3
  8
0
  6
BYBLOCK
 62
     0
 10
7551.3888954096028
 20
9435.1592194219593
 30
0.0
 40
15.0
 50
180.0
 51
0.0
  0
ARC
  5
D4F4
  8
0
  6
BYBLOCK
 62
     0
 10
7551.3888954096028
 20
9435.1592194219593
 30
0.0
 40
15.0
 50
0.0
 51
180.0
  0
ARC
  5
D4F5
  8
0
  6
BYBLOCK
 62
     0
 10
13622.3888954096
 20
9435.1592194219593
 30
0.0
 40
15.0
 50
180.0
 51
0.0
  0
ARC
  5
D4F6
  8
0
  6
BYBLOCK
 62
     0
 10
13622.3888954096
 20
9435.1592194219593
 30
0.0
 40
15.0
 50
0.0
 51
180.0
  0
ARC
  5
D4F7
  8
0
  6
BYBLOCK
 62
     0
 10
7701.3888954095974
 20
9435.1592194219593
 30
0.0
 40
15.0
 50
0.0
 51
180.0
  0
ARC
  5
D4F8
  8
0
  6
BYBLOCK
 62
     0
 10
7701.3888954095974
 20
9435.1592194219593
 30
0.0
 40
15.0
 50
180.0
 51
0.0
  0
ARC
  5
D4F9
  8
0
  6
BYBLOCK
 62
     0
 10
13802.3888954096
 20
9435.1592194219593
 30
0.0
 40
15.0
 50
180.0
 51
0.0
  0
ARC
  5
D4FA
  8
0
  6
BYBLOCK
 62
     0
 10
13802.3888954096
 20
9435.1592194219593
 30
0.0
 40
15.0
 50
0.0
 51
180.0
  0
ARC
  5
D4FB
  8
0
  6
BYBLOCK
 62
     0
 10
13622.3888954096
 20
9435.1592194219593
 30
0.0
 40
15.0
 50
0.0
 51
180.0
  0
ARC
  5
D4FC
  8
0
  6
BYBLOCK
 62
     0
 10
13622.3888954096
 20
9435.1592194219593
 30
0.0
 40
15.0
 50
180.0
 51
0.0
  0
ARC
  5
D4FD
  8
0
  6
BYBLOCK
 62
     0
 10
6611.3884994096006
 20
6287.1575434219621
 30
0.0
 40
15.0
 50
90.0
 51
270.0
  0
ARC
  5
D4FE
  8
0
  6
BYBLOCK
 62
     0
 10
6611.3884994096006
 20
6287.1575434219621
 30
0.0
 40
15.0
 50
270.0
 51
90.0
  0
ARC
  5
D4FF
  8
0
  6
BYBLOCK
 62
     0
 10
6611.3884994096006
 20
8635.6575434219612
 30
0.0
 40
15.0
 50
270.0
 51
90.0
  0
ARC
  5
D500
  8
0
  6
BYBLOCK
 62
     0
 10
6611.3884994096006
 20
8635.6575434219612
 30
0.0
 40
15.0
 50
90.0
 51
270.0
  0
ARC
  5
D501
  8
0
  6
BYBLOCK
 62
     0
 10
14712.38929140959
 20
6287.1575434219612
 30
0.0
 40
15.0
 50
90.0
 51
270.0
  0
ARC
  5
D502
  8
0
  6
BYBLOCK
 62
     0
 10
14712.38929140959
 20
6287.1575434219612
 30
0.0
 40
15.0
 50
270.0
 51
90.0
  0
ARC
  5
D503
  8
0
  6
BYBLOCK
 62
     0
 10
14712.38929140959
 20
8443.6575434219612
 30
0.0
 40
15.0
 50
270.0
 51
90.0
  0
ARC
  5
D504
  8
0
  6
BYBLOCK
 62
     0
 10
14712.38929140959
 20
8443.6575434219612
 30
0.0
 40
15.0
 50
90.0
 51
270.0
  0
ARC
  5
D505
  8
0
  6
BYBLOCK
 62
     0
 10
13622.3888954096
 20
4587.1578734219574
 30
0.0
 40
15.0
 50
180.0
 51
0.0
  0
ARC
  5
D506
  8
0
  6
BYBLOCK
 62
     0
 10
13622.3888954096
 20
4587.1578734219574
 30
0.0
 40
15.0
 50
0.0
 51
180.0
  0
ARC
  5
D507
  8
0
  6
BYBLOCK
 62
     0
 10
7701.3888954095974
 20
4587.1578734219574
 30
0.0
 40
15.0
 50
0.0
 51
180.0
  0
ARC
  5
D508
  8
0
  6
BYBLOCK
 62
     0
 10
7701.3888954095974
 20
4587.1578734219574
 30
0.0
 40
15.0
 50
180.0
 51
0.0
  0
ARC
  5
D509
  8
0
  6
BYBLOCK
 62
     0
 10
7743.8888954096037
 20
4987.1577084219589
 30
0.0
 40
15.0
 50
0.0
 51
180.0
  0
ARC
  5
D50A
  8
0
  6
BYBLOCK
 62
     0
 10
7743.8888954096037
 20
4987.1577084219589
 30
0.0
 40
15.0
 50
180.0
 51
0.0
  0
ARC
  5
D50B
  8
0
  6
BYBLOCK
 62
     0
 10
7701.3888954095974
 20
4987.1577084219589
 30
0.0
 40
15.0
 50
180.0
 51
0.0
  0
ARC
  5
D50C
  8
0
  6
BYBLOCK
 62
     0
 10
7701.3888954095974
 20
4987.1577084219589
 30
0.0
 40
15.0
 50
0.0
 51
180.0
  0
ARC
  5
D50D
  8
0
  6
BYBLOCK
 62
     0
 10
13579.888895409589
 20
4987.1577084219589
 30
0.0
 40
15.0
 50
180.0
 51
0.0
  0
ARC
  5
D50E
  8
0
  6
BYBLOCK
 62
     0
 10
13579.888895409589
 20
4987.1577084219589
 30
0.0
 40
15.0
 50
0.0
 51
180.0
  0
ARC
  5
D50F
  8
0
  6
BYBLOCK
 62
     0
 10
13622.3888954096
 20
4987.1577084219589
 30
0.0
 40
15.0
 50
0.0
 51
180.0
  0
ARC
  5
D510
  8
0
  6
BYBLOCK
 62
     0
 10
13622.3888954096
 20
4987.1577084219589
 30
0.0
 40
15.0
 50
180.0
 51
0.0
  0
ARC
  5
D511
  8
0
  6
BYBLOCK
 62
     0
 10
10661.8888954096
 20
4987.1577084219589
 30
0.0
 40
15.0
 50
0.0
 51
180.0
  0
ARC
  5
D512
  8
0
  6
BYBLOCK
 62
     0
 10
10661.8888954096
 20
4987.1577084219589
 30
0.0
 40
15.0
 50
180.0
 51
0.0
  0
ARC
  5
D513
  8
0
  6
BYBLOCK
 62
     0
 10
13579.888895409589
 20
4987.1577084219589
 30
0.0
 40
15.0
 50
180.0
 51
0.0
  0
ARC
  5
D514
  8
0
  6
BYBLOCK
 62
     0
 10
13579.888895409589
 20
4987.1577084219589
 30
0.0
 40
15.0
 50
0.0
 51
180.0
  0
ARC
  5
D515
  8
0
  6
BYBLOCK
 62
     0
 10
10661.8888954096
 20
4987.1577084219589
 30
0.0
 40
15.0
 50
180.0
 51
0.0
  0
ARC
  5
D516
  8
0
  6
BYBLOCK
 62
     0
 10
10661.8888954096
 20
4987.1577084219589
 30
0.0
 40
15.0
 50
0.0
 51
180.0
  0
ARC
  5
D517
  8
0
  6
BYBLOCK
 62
     0
 10
7743.8888954096037
 20
4987.1577084219589
 30
0.0
 40
15.0
 50
0.0
 51
180.0
  0
ARC
  5
D518
  8
0
  6
BYBLOCK
 62
     0
 10
7743.8888954096037
 20
4987.1577084219589
 30
0.0
 40
15.0
 50
180.0
 51
0.0
  0
ARC
  5
D519
  8
0
  6
BYBLOCK
 62
     0
 10
27796.8522743012
 20
9835.1021434219638
 30
0.0
 40
15.0
 50
180.0
 51
0.0
  0
ARC
  5
D51A
  8
0
  6
BYBLOCK
 62
     0
 10
27796.8522743012
 20
9835.1021434219638
 30
0.0
 40
15.0
 50
0.0
 51
180.0
  0
ARC
  5
D51B
  8
0
  6
BYBLOCK
 62
     0
 10
19357.352274301182
 20
9835.1021434219638
 30
0.0
 40
15.0
 50
0.0
 51
180.0
  0
ARC
  5
D51C
  8
0
  6
BYBLOCK
 62
     0
 10
19357.352274301182
 20
9835.1021434219638
 30
0.0
 40
15.0
 50
180.0
 51
0.0
  0
ARC
  5
D51D
  8
0
  6
BYBLOCK
 62
     0
 10
19400.352274301182
 20
9435.1592194219593
 30
0.0
 40
15.0
 50
0.0
 51
180.0
  0
ARC
  5
D51E
  8
0
  6
BYBLOCK
 62
     0
 10
19400.352274301182
 20
9435.1592194219593
 30
0.0
 40
15.0
 50
180.0
 51
0.0
  0
ARC
  5
D51F
  8
0
  6
BYBLOCK
 62
     0
 10
19357.352274301182
 20
9435.1592194219593
 30
0.0
 40
15.0
 50
180.0
 51
0.0
  0
ARC
  5
D520
  8
0
  6
BYBLOCK
 62
     0
 10
19357.352274301182
 20
9435.1592194219593
 30
0.0
 40
15.0
 50
0.0
 51
180.0
  0
ARC
  5
D521
  8
0
  6
BYBLOCK
 62
     0
 10
27753.8522743012
 20
9435.1592194219593
 30
0.0
 40
15.0
 50
180.0
 51
0.0
  0
ARC
  5
D522
  8
0
  6
BYBLOCK
 62
     0
 10
27753.8522743012
 20
9435.1592194219593
 30
0.0
 40
15.0
 50
0.0
 51
180.0
  0
ARC
  5
D523
  8
0
  6
BYBLOCK
 62
     0
 10
27796.8522743012
 20
9435.1592194219593
 30
0.0
 40
15.0
 50
0.0
 51
180.0
  0
ARC
  5
D524
  8
0
  6
BYBLOCK
 62
     0
 10
27796.8522743012
 20
9435.1592194219593
 30
0.0
 40
15.0
 50
180.0
 51
0.0
  0
ARC
  5
D525
  8
0
  6
BYBLOCK
 62
     0
 10
24400.352274301182
 20
9435.1592194219593
 30
0.0
 40
15.0
 50
0.0
 51
180.0
  0
ARC
  5
D526
  8
0
  6
BYBLOCK
 62
     0
 10
24400.352274301182
 20
9435.1592194219593
 30
0.0
 40
15.0
 50
180.0
 51
0.0
  0
ARC
  5
D527
  8
0
  6
BYBLOCK
 62
     0
 10
27753.8522743012
 20
9435.1592194219593
 30
0.0
 40
15.0
 50
180.0
 51
0.0
  0
ARC
  5
D528
  8
0
  6
BYBLOCK
 62
     0
 10
27753.8522743012
 20
9435.1592194219593
 30
0.0
 40
15.0
 50
0.0
 51
180.0
  0
ARC
  5
D529
  8
0
  6
BYBLOCK
 62
     0
 10
29204.45452500592
 20
6287.1575434219621
 30
0.0
 40
15.0
 50
90.0
 51
270.0
  0
ARC
  5
D52A
  8
0
  6
BYBLOCK
 62
     0
 10
29204.45452500592
 20
6287.1575434219621
 30
0.0
 40
15.0
 50
270.0
 51
90.0
  0
ARC
  5
D52B
  8
0
  6
BYBLOCK
 62
     0
 10
29204.45452500592
 20
8635.6575694219555
 30
0.0
 40
15.0
 50
270.0
 51
90.0
  0
ARC
  5
D52C
  8
0
  6
BYBLOCK
 62
     0
 10
29204.45452500592
 20
8635.6575694219555
 30
0.0
 40
15.0
 50
90.0
 51
270.0
  0
ARC
  5
D52D
  8
0
  6
BYBLOCK
 62
     0
 10
28561.355573301182
 20
6287.1575434219621
 30
0.0
 40
15.0
 50
90.0
 51
270.0
  0
ARC
  5
D52E
  8
0
  6
BYBLOCK
 62
     0
 10
28561.355573301182
 20
6287.1575434219621
 30
0.0
 40
15.0
 50
270.0
 51
90.0
  0
ARC
  5
D52F
  8
0
  6
BYBLOCK
 62
     0
 10
28561.355573301182
 20
8178.6575434219612
 30
0.0
 40
15.0
 50
270.0
 51
90.0
  0
ARC
  5
D530
  8
0
  6
BYBLOCK
 62
     0
 10
28561.355573301182
 20
8178.6575434219612
 30
0.0
 40
15.0
 50
90.0
 51
270.0
  0
ARC
  5
D531
  8
0
  6
BYBLOCK
 62
     0
 10
24397.352274301182
 20
5387.1575434219612
 30
0.0
 40
15.0
 50
180.0
 51
0.0
  0
ARC
  5
D532
  8
0
  6
BYBLOCK
 62
     0
 10
24397.352274301182
 20
5387.1575434219612
 30
0.0
 40
15.0
 50
0.0
 51
180.0
  0
ARC
  5
D533
  8
0
  6
BYBLOCK
 62
     0
 10
19485.352274301182
 20
5387.1575434219612
 30
0.0
 40
15.0
 50
0.0
 51
180.0
  0
ARC
  5
D534
  8
0
  6
BYBLOCK
 62
     0
 10
19485.352274301182
 20
5387.1575434219612
 30
0.0
 40
15.0
 50
180.0
 51
0.0
  0
ARC
  5
D535
  8
0
  6
BYBLOCK
 62
     0
 10
27753.812321353649
 20
4587.1578734220147
 30
0.0
 40
15.0
 50
180.0
 51
0.0
  0
ARC
  5
D536
  8
0
  6
BYBLOCK
 62
     0
 10
27753.812321353649
 20
4587.1578734220147
 30
0.0
 40
15.0
 50
0.0
 51
180.0
  0
ARC
  5
D537
  8
0
  6
BYBLOCK
 62
     0
 10
19400.352274301182
 20
4587.1578734220147
 30
0.0
 40
15.0
 50
0.0
 51
180.0
  0
ARC
  5
D538
  8
0
  6
BYBLOCK
 62
     0
 10
19400.352274301182
 20
4587.1578734220147
 30
0.0
 40
15.0
 50
180.0
 51
0.0
  0
ARC
  5
D539
  8
0
  6
BYBLOCK
 62
     0
 10
27711.3522743012
 20
4987.1577084219589
 30
0.0
 40
15.0
 50
180.0
 51
0.0
  0
ARC
  5
D53A
  8
0
  6
BYBLOCK
 62
     0
 10
27711.3522743012
 20
4987.1577084219589
 30
0.0
 40
15.0
 50
0.0
 51
180.0
  0
ARC
  5
D53B
  8
0
  6
BYBLOCK
 62
     0
 10
27753.812321353649
 20
4987.1577084219589
 30
0.0
 40
15.0
 50
0.0
 51
180.0
  0
ARC
  5
D53C
  8
0
  6
BYBLOCK
 62
     0
 10
27753.812321353649
 20
4987.1577084219589
 30
0.0
 40
15.0
 50
180.0
 51
0.0
  0
ARC
  5
D53D
  8
0
  6
BYBLOCK
 62
     0
 10
24442.852274301182
 20
4987.1577084219589
 30
0.0
 40
15.0
 50
0.0
 51
180.0
  0
ARC
  5
D53E
  8
0
  6
BYBLOCK
 62
     0
 10
24442.852274301182
 20
4987.1577084219589
 30
0.0
 40
15.0
 50
180.0
 51
0.0
  0
ARC
  5
D53F
  8
0
  6
BYBLOCK
 62
     0
 10
27711.3522743012
 20
4987.1577084219589
 30
0.0
 40
15.0
 50
180.0
 51
0.0
  0
ARC
  5
D540
  8
0
  6
BYBLOCK
 62
     0
 10
27711.3522743012
 20
4987.1577084219589
 30
0.0
 40
15.0
 50
0.0
 51
180.0
  0
ARC
  5
D541
  8
0
  6
BYBLOCK
 62
     0
 10
27617.3522743012
 20
5387.1575434219612
 30
0.0
 40
15.0
 50
180.0
 51
0.0
  0
ARC
  5
D542
  8
0
  6
BYBLOCK
 62
     0
 10
27617.3522743012
 20
5387.1575434219612
 30
0.0
 40
15.0
 50
0.0
 51
180.0
  0
ARC
  5
D543
  8
0
  6
BYBLOCK
 62
     0
 10
24536.8522743012
 20
5387.1575434219612
 30
0.0
 40
15.0
 50
0.0
 51
180.0
  0
ARC
  5
D544
  8
0
  6
BYBLOCK
 62
     0
 10
24536.8522743012
 20
5387.1575434219612
 30
0.0
 40
15.0
 50
180.0
 51
0.0
  0
ARC
  5
D545
  8
0
  6
BYBLOCK
 62
     0
 10
19442.852274301182
 20
4987.1577084219589
 30
0.0
 40
15.0
 50
0.0
 51
180.0
  0
ARC
  5
D546
  8
0
  6
BYBLOCK
 62
     0
 10
19442.852274301182
 20
4987.1577084219589
 30
0.0
 40
15.0
 50
180.0
 51
0.0
  0
ARC
  5
D547
  8
0
  6
BYBLOCK
 62
     0
 10
19400.352274301182
 20
4987.1577084219589
 30
0.0
 40
15.0
 50
180.0
 51
0.0
  0
ARC
  5
D548
  8
0
  6
BYBLOCK
 62
     0
 10
19400.352274301182
 20
4987.1577084219589
 30
0.0
 40
15.0
 50
0.0
 51
180.0
  0
ARC
  5
D549
  8
0
  6
BYBLOCK
 62
     0
 10
24442.852274301182
 20
4987.1577084219589
 30
0.0
 40
15.0
 50
180.0
 51
0.0
  0
ARC
  5
D54A
  8
0
  6
BYBLOCK
 62
     0
 10
24442.852274301182
 20
4987.1577084219589
 30
0.0
 40
15.0
 50
0.0
 51
180.0
  0
ARC
  5
D54B
  8
0
  6
BYBLOCK
 62
     0
 10
19442.852274301182
 20
4987.1577084219589
 30
0.0
 40
15.0
 50
0.0
 51
180.0
  0
ARC
  5
D54C
  8
0
  6
BYBLOCK
 62
     0
 10
19442.852274301182
 20
4987.1577084219589
 30
0.0
 40
15.0
 50
180.0
 51
0.0
  0
ARC
  5
D54D
  8
0
  6
BYBLOCK
 62
     0
 10
24400.352274301182
 20
9435.1592194219593
 30
0.0
 40
15.0
 50
180.0
 51
0.0
  0
ARC
  5
D54E
  8
0
  6
BYBLOCK
 62
     0
 10
24400.352274301182
 20
9435.1592194219593
 30
0.0
 40
15.0
 50
0.0
 51
180.0
  0
ARC
  5
D54F
  8
0
  6
BYBLOCK
 62
     0
 10
19400.352274301182
 20
9435.1592194219593
 30
0.0
 40
15.0
 50
0.0
 51
180.0
  0
ARC
  5
D550
  8
0
  6
BYBLOCK
 62
     0
 10
19400.352274301182
 20
9435.1592194219593
 30
0.0
 40
15.0
 50
180.0
 51
0.0
  0
ARC
  5
D551
  8
0
  6
BYBLOCK
 62
     0
 10
18190.529876006811
 20
6287.9718314219663
 30
0.0
 40
15.0
 50
90.0
 51
270.0
  0
ARC
  5
D552
  8
0
  6
BYBLOCK
 62
     0
 10
18190.529876006811
 20
6287.9718314219663
 30
0.0
 40
15.0
 50
270.0
 51
90.0
  0
ARC
  5
D553
  8
0
  6
BYBLOCK
 62
     0
 10
18190.529876006811
 20
8307.971831421959
 30
0.0
 40
15.0
 50
270.0
 51
90.0
  0
ARC
  5
D554
  8
0
  6
BYBLOCK
 62
     0
 10
18190.529876006811
 20
8307.971831421959
 30
0.0
 40
15.0
 50
90.0
 51
270.0
  0
ARC
  5
D575
  8
0
  6
BYBLOCK
 62
     0
 10
24442.852274301182
 20
20556.95634542195
 30
0.0
 40
15.0
 50
0.0
 51
180.0
  0
ARC
  5
D576
  8
0
  6
BYBLOCK
 62
     0
 10
24442.852274301182
 20
20556.95634542195
 30
0.0
 40
15.0
 50
180.0
 51
0.0
  0
ARC
  5
D577
  8
0
  6
BYBLOCK
 62
     0
 10
24400.35227430116
 20
20556.95634542195
 30
0.0
 40
15.0
 50
180.0
 51
0.0
  0
ARC
  5
D578
  8
0
  6
BYBLOCK
 62
     0
 10
24400.35227430116
 20
20556.95634542195
 30
0.0
 40
15.0
 50
0.0
 51
180.0
  0
ARC
  5
D579
  8
0
  6
BYBLOCK
 62
     0
 10
24850.352274301182
 20
20556.95634542195
 30
0.0
 40
15.0
 50
180.0
 51
0.0
  0
ARC
  5
D57A
  8
0
  6
BYBLOCK
 62
     0
 10
24850.352274301182
 20
20556.95634542195
 30
0.0
 40
15.0
 50
0.0
 51
180.0
  0
ARC
  5
D57B
  8
0
  6
BYBLOCK
 62
     0
 10
24442.852274301182
 20
20556.95634542195
 30
0.0
 40
15.0
 50
0.0
 51
180.0
  0
ARC
  5
D57C
  8
0
  6
BYBLOCK
 62
     0
 10
24442.852274301182
 20
20556.95634542195
 30
0.0
 40
15.0
 50
180.0
 51
0.0
  0
ARC
  5
D57D
  8
0
  6
BYBLOCK
 62
     0
 10
25551.35227430116
 20
20556.95634542195
 30
0.0
 40
15.0
 50
180.0
 51
0.0
  0
ARC
  5
D57E
  8
0
  6
BYBLOCK
 62
     0
 10
25551.35227430116
 20
20556.95634542195
 30
0.0
 40
15.0
 50
0.0
 51
180.0
  0
ARC
  5
D57F
  8
0
  6
BYBLOCK
 62
     0
 10
24850.352274301182
 20
20556.95634542195
 30
0.0
 40
15.0
 50
0.0
 51
180.0
  0
ARC
  5
D580
  8
0
  6
BYBLOCK
 62
     0
 10
24850.352274301182
 20
20556.95634542195
 30
0.0
 40
15.0
 50
180.0
 51
0.0
  0
ARC
  5
D581
  8
0
  6
BYBLOCK
 62
     0
 10
26252.352274301182
 20
20556.95634542195
 30
0.0
 40
15.0
 50
180.0
 51
0.0
  0
ARC
  5
D582
  8
0
  6
BYBLOCK
 62
     0
 10
26252.352274301182
 20
20556.95634542195
 30
0.0
 40
15.0
 50
0.0
 51
180.0
  0
ARC
  5
D583
  8
0
  6
BYBLOCK
 62
     0
 10
25551.35227430116
 20
20556.95634542195
 30
0.0
 40
15.0
 50
0.0
 51
180.0
  0
ARC
  5
D584
  8
0
  6
BYBLOCK
 62
     0
 10
25551.35227430116
 20
20556.95634542195
 30
0.0
 40
15.0
 50
180.0
 51
0.0
  0
ARC
  5
D585
  8
0
  6
BYBLOCK
 62
     0
 10
26953.352274301182
 20
20556.95634542195
 30
0.0
 40
15.0
 50
180.0
 51
0.0
  0
ARC
  5
D586
  8
0
  6
BYBLOCK
 62
     0
 10
26953.352274301182
 20
20556.95634542195
 30
0.0
 40
15.0
 50
0.0
 51
180.0
  0
ARC
  5
D587
  8
0
  6
BYBLOCK
 62
     0
 10
26252.352274301182
 20
20556.95634542195
 30
0.0
 40
15.0
 50
0.0
 51
180.0
  0
ARC
  5
D588
  8
0
  6
BYBLOCK
 62
     0
 10
26252.352274301182
 20
20556.95634542195
 30
0.0
 40
15.0
 50
180.0
 51
0.0
  0
ARC
  5
D589
  8
0
  6
BYBLOCK
 62
     0
 10
27711.352274301182
 20
20556.95634542195
 30
0.0
 40
15.0
 50
180.0
 51
0.0
  0
ARC
  5
D58A
  8
0
  6
BYBLOCK
 62
     0
 10
27711.352274301182
 20
20556.95634542195
 30
0.0
 40
15.0
 50
0.0
 51
180.0
  0
ARC
  5
D58B
  8
0
  6
BYBLOCK
 62
     0
 10
27753.852274301182
 20
20556.95634542195
 30
0.0
 40
15.0
 50
0.0
 51
180.0
  0
ARC
  5
D58C
  8
0
  6
BYBLOCK
 62
     0
 10
27753.852274301182
 20
20556.95634542195
 30
0.0
 40
15.0
 50
180.0
 51
0.0
  0
ARC
  5
D599
  8
0
  6
BYBLOCK
 62
     0
 10
24442.852274301182
 20
20956.956345421939
 30
0.0
 40
15.0
 50
180.0
 51
0.0
  0
ARC
  5
D59A
  8
0
  6
BYBLOCK
 62
     0
 10
24442.852274301182
 20
20956.956345421939
 30
0.0
 40
15.0
 50
0.0
 51
180.0
  0
ARC
  5
D59B
  8
0
  6
BYBLOCK
 62
     0
 10
19442.852274301182
 20
20956.956345421939
 30
0.0
 40
15.0
 50
0.0
 51
180.0
  0
ARC
  5
D59C
  8
0
  6
BYBLOCK
 62
     0
 10
19442.852274301182
 20
20956.956345421939
 30
0.0
 40
15.0
 50
180.0
 51
0.0
  0
ARC
  5
D59D
  8
0
  6
BYBLOCK
 62
     0
 10
27711.352274301182
 20
20956.956345421939
 30
0.0
 40
15.0
 50
180.0
 51
0.0
  0
ARC
  5
D59E
  8
0
  6
BYBLOCK
 62
     0
 10
27711.352274301182
 20
20956.956345421939
 30
0.0
 40
15.0
 50
0.0
 51
180.0
  0
ARC
  5
D59F
  8
0
  6
BYBLOCK
 62
     0
 10
24442.852274301182
 20
20956.956345421939
 30
0.0
 40
15.0
 50
0.0
 51
180.0
  0
ARC
  5
D5A0
  8
0
  6
BYBLOCK
 62
     0
 10
24442.852274301182
 20
20956.956345421939
 30
0.0
 40
15.0
 50
180.0
 51
0.0
  0
ARC
  5
D5A1
  8
0
  6
BYBLOCK
 62
     0
 10
19442.852274301182
 20
20556.95634542195
 30
0.0
 40
15.0
 50
180.0
 51
0.0
  0
ARC
  5
D5A2
  8
0
  6
BYBLOCK
 62
     0
 10
19442.852274301182
 20
20556.95634542195
 30
0.0
 40
15.0
 50
0.0
 51
180.0
  0
ARC
  5
D5A3
  8
0
  6
BYBLOCK
 62
     0
 10
19485.354517301152
 20
20556.95634542195
 30
0.0
 40
15.0
 50
0.0
 51
180.0
  0
ARC
  5
D5A4
  8
0
  6
BYBLOCK
 62
     0
 10
19485.354517301152
 20
20556.95634542195
 30
0.0
 40
15.0
 50
180.0
 51
0.0
  0
ARC
  5
D5A5
  8
0
  6
BYBLOCK
 62
     0
 10
19442.852274301182
 20
20556.95634542195
 30
0.0
 40
15.0
 50
0.0
 51
180.0
  0
ARC
  5
D5A6
  8
0
  6
BYBLOCK
 62
     0
 10
19442.852274301182
 20
20556.95634542195
 30
0.0
 40
15.0
 50
180.0
 51
0.0
  0
ARC
  5
D5A7
  8
0
  6
BYBLOCK
 62
     0
 10
19400.35398930118
 20
20556.95634542195
 30
0.0
 40
15.0
 50
180.0
 51
0.0
  0
ARC
  5
D5A8
  8
0
  6
BYBLOCK
 62
     0
 10
19400.35398930118
 20
20556.95634542195
 30
0.0
 40
15.0
 50
0.0
 51
180.0
  0
ARC
  5
D5A9
  8
0
  6
BYBLOCK
 62
     0
 10
18225.008649932552
 20
16796.455421421939
 30
0.0
 40
15.0
 50
90.0
 51
270.0
  0
ARC
  5
D5AA
  8
0
  6
BYBLOCK
 62
     0
 10
18225.008649932552
 20
16796.455421421939
 30
0.0
 40
15.0
 50
270.0
 51
90.0
  0
ARC
  5
D5AB
  8
0
  6
BYBLOCK
 62
     0
 10
18225.008649932552
 20
19714.45542142195
 30
0.0
 40
15.0
 50
270.0
 51
90.0
  0
ARC
  5
D5AC
  8
0
  6
BYBLOCK
 62
     0
 10
18225.008649932552
 20
19714.45542142195
 30
0.0
 40
15.0
 50
90.0
 51
270.0
  0
ARC
  5
D5AD
  8
0
  6
BYBLOCK
 62
     0
 10
18225.008649932552
 20
13878.455421421961
 30
0.0
 40
15.0
 50
90.0
 51
270.0
  0
ARC
  5
D5AE
  8
0
  6
BYBLOCK
 62
     0
 10
18225.008649932552
 20
13878.455421421961
 30
0.0
 40
15.0
 50
270.0
 51
90.0
  0
ARC
  5
D5AF
  8
0
  6
BYBLOCK
 62
     0
 10
18225.008649932552
 20
16796.455421421939
 30
0.0
 40
15.0
 50
270.0
 51
90.0
  0
ARC
  5
D5B0
  8
0
  6
BYBLOCK
 62
     0
 10
18225.008649932552
 20
16796.455421421939
 30
0.0
 40
15.0
 50
90.0
 51
270.0
  0
TEXT
  5
D69E
  8
NAME
 10
21595.82616625919
 20
1076.6369801169251
 30
0.0
 40
360.0
  1
VGC-3359（H）+VKC-5059（H）型-L（単棟）
 41
0.45
  0
TEXT
  5
D69F
  8
NAME
 10
21933.552716389011
 20
1876.0
 30
0.0
 40
360.0
  1
ヨドガレージ ラヴィージュ
 41
0.75
  7
01
  0
LINE
  5
D6A0
  8
NAME
  6
CONTINUOUS
 10
26067.886878884299
 20
2236.0
 30
0.0
 11
26067.886878884299
 21
1876.0
 31
0.0
  0
LINE
  5
D6A1
  8
NAME
  6
CONTINUOUS
 10
26167.886878884299
 20
2236.0
 30
0.0
 11
26167.886878884299
 21
1876.0
 31
0.0
  0
LINE
  5
D6A2
  8
NAME
  6
CONTINUOUS
 10
26267.88687888431
 20
2236.0
 30
0.0
 11
26267.88687888431
 21
1876.0
 31
0.0
  0
LINE
  5
D6A3
  8
NAME
  6
CONTINUOUS
 10
26007.886878884299
 20
2236.0
 30
0.0
 11
26327.886878884299
 21
2236.0
 31
0.0
  0
LINE
  5
D6A4
  8
NAME
  6
CONTINUOUS
 10
26327.886878884299
 20
1876.0
 30
0.0
 11
26007.886878884299
 21
1876.0
 31
0.0
  0
LINE
  5
D6B0
  8
2-0
  6
CENTER2
 62
     6
 10
24442.852274301182
 20
21356.95766442196
 30
0.0
 11
24442.852274301182
 21
13528.540796945959
 31
0.0
  0
LINE
  5
D6B3
  8
2-0
  6
CENTER2
 62
     6
 10
27711.352274301182
 20
21356.95766442196
 30
0.0
 11
27711.352274301182
 21
13528.540796945959
 31
0.0
  0
LINE
  5
D912
  8
2-0
  6
CONTINUOUS
 62
     6
 10
26028.193358301181
 20
13238.45429942195
 30
0.0
 11
27028.186760301141
 21
13238.45429942195
 31
0.0
  0
LINE
  5
D913
  8
2-0
  6
CONTINUOUS
 62
     6
 10
27496.12713730118
 20
13708.87501342195
 30
0.0
 11
27028.186760301141
 21
13238.45429942195
 31
0.0
  0
LINE
  5
D914
  8
2-0
  6
CONTINUOUS
 62
     6
 10
27457.48693430116
 20
16900.482660421949
 30
0.0
 11
27152.791516301171
 21
17004.136191421971
 31
0.0
  0
LINE
  5
D915
  8
2-0
  6
CONTINUOUS
 62
     6
 10
27612.508973301141
 20
16410.86061642196
 30
0.0
 11
27152.791516301171
 21
16166.94730542196
 31
0.0
  0
LINE
  5
D916
  8
2-0
  6
CONTINUOUS
 62
     6
 10
26232.788481301159
 20
16166.94730542196
 30
0.0
 11
27152.791516301171
 21
16166.94730542196
 31
0.0
  0
LINE
  5
D917
  8
2-0
  6
CONTINUOUS
 62
     6
 10
25952.79745430117
 20
17004.136191421971
 30
0.0
 11
27152.791516301171
 21
17004.136191421971
 31
0.0
  0
LINE
  5
D918
  8
2-0
  6
CONTINUOUS
 62
     6
 10
27528.686258301179
 20
14030.558659421929
 30
0.0
 11
27152.791516301171
 21
14211.502494421949
 31
0.0
  0
LINE
  5
D919
  8
2-0
  6
CONTINUOUS
 62
     6
 10
26632.789800301169
 20
14211.502494421949
 30
0.0
 11
27152.791516301171
 21
14211.502494421949
 31
0.0
  0
LINE
  5
D91A
  8
2-0
  6
CONTINUOUS
 62
     3
 10
27723.852934301169
 20
19647.95349542196
 30
0.0
 11
27723.852934301169
 21
19641.957533421959
 31
0.0
  0
LINE
  5
D91B
  8
2-0
  6
CONTINUOUS
 62
     3
 10
27723.852934301169
 20
19641.957533421959
 30
0.0
 11
27753.850558301168
 21
19641.957533421959
 31
0.0
  0
LINE
  5
D91C
  8
2-0
  6
CONTINUOUS
 62
     3
 10
27753.850558301168
 20
19671.957137421949
 30
0.0
 11
27672.848658301162
 21
19671.957137421949
 31
0.0
  0
LINE
  5
D91D
  8
2-0
  6
CONTINUOUS
 62
     3
 10
27723.852934301169
 20
19631.660077421951
 30
0.0
 11
27753.850558301168
 21
19631.660077421951
 31
0.0
  0
LINE
  5
D91E
  8
2-0
  6
CONTINUOUS
 62
     3
 10
27723.852934301169
 20
19649.661819421952
 30
0.0
 11
27723.852934301169
 21
19631.660077421951
 31
0.0
  0
LINE
  5
D91F
  8
2-0
  6
CONTINUOUS
 62
     3
 10
27748.85029430117
 20
19649.661819421952
 30
0.0
 11
27723.852934301169
 21
19649.661819421952
 31
0.0
  0
LINE
  5
D920
  8
2-0
  6
CONTINUOUS
 62
     3
 10
27748.85029430117
 20
19644.653637421961
 30
0.0
 11
27748.85029430117
 21
19649.661819421952
 31
0.0
  0
LINE
  5
D921
  8
2-0
  6
CONTINUOUS
 62
     3
 10
27741.848737301181
 20
19644.653637421961
 30
0.0
 11
27748.85029430117
 21
19644.653637421961
 31
0.0
  0
LINE
  5
D922
  8
2-0
  6
CONTINUOUS
 62
     3
 10
27641.552469301179
 20
19744.953864421968
 30
0.0
 11
27641.552469301179
 21
19751.959380421958
 31
0.0
  0
LINE
  5
D923
  8
2-0
  6
CONTINUOUS
 62
     3
 10
27641.552469301179
 20
19751.959380421958
 30
0.0
 11
27646.552733301149
 21
19751.959380421958
 31
0.0
  0
LINE
  5
D924
  8
2-0
  6
CONTINUOUS
 62
     3
 10
27646.552733301149
 20
19751.959380421958
 30
0.0
 11
27646.552733301149
 21
19726.950143421949
 31
0.0
  0
LINE
  5
D925
  8
2-0
  6
CONTINUOUS
 62
     3
 10
27646.552733301149
 20
19726.950143421949
 30
0.0
 11
27628.550991301148
 21
19726.950143421949
 31
0.0
  0
LINE
  5
D926
  8
2-0
  6
CONTINUOUS
 62
     3
 10
27628.550991301148
 20
19726.950143421949
 30
0.0
 11
27628.550991301148
 21
19756.953706421958
 31
0.0
  0
LINE
  5
D927
  8
2-0
  6
CONTINUOUS
 62
     3
 10
27638.84844730117
 20
19756.953706421958
 30
0.0
 11
27753.850558301168
 21
19756.953706421958
 31
0.0
  0
LINE
  5
D928
  8
2-0
  6
CONTINUOUS
 62
     3
 10
27638.84844730117
 20
19726.950143421949
 30
0.0
 11
27638.84844730117
 21
19756.953706421958
 31
0.0
  0
LINE
  5
D929
  8
2-0
  6
CONTINUOUS
 62
     3
 10
27644.850347301159
 20
19726.950143421949
 30
0.0
 11
27638.84844730117
 21
19726.950143421949
 31
0.0
  0
LINE
  5
D92A
  8
2-0
  6
CONTINUOUS
 62
     3
 10
27741.848737301181
 20
18940.856814921939
 30
0.0
 11
27748.85029430117
 21
18940.856814921939
 31
0.0
  0
LINE
  5
D92B
  8
2-0
  6
CONTINUOUS
 62
     3
 10
27748.85029430117
 20
18940.856814921939
 30
0.0
 11
27748.85029430117
 21
18945.857078921948
 31
0.0
  0
LINE
  5
D92C
  8
2-0
  6
CONTINUOUS
 62
     3
 10
27748.85029430117
 20
18945.857078921948
 30
0.0
 11
27723.852934301169
 21
18945.857078921948
 31
0.0
  0
LINE
  5
D92D
  8
2-0
  6
CONTINUOUS
 62
     3
 10
27723.852934301169
 20
18945.857078921948
 30
0.0
 11
27723.852934301169
 21
18927.86127492195
 31
0.0
  0
LINE
  5
D92E
  8
2-0
  6
CONTINUOUS
 62
     3
 10
27723.852934301169
 20
18927.86127492195
 30
0.0
 11
27753.850558301168
 21
18927.86127492195
 31
0.0
  0
LINE
  5
D92F
  8
2-0
  6
CONTINUOUS
 62
     3
 10
27723.852934301169
 20
18943.952781921918
 30
0.0
 11
27723.852934301169
 21
18937.95484092195
 31
0.0
  0
LINE
  5
D930
  8
2-0
  6
CONTINUOUS
 62
     3
 10
27723.852934301169
 20
18937.95484092195
 30
0.0
 11
27753.850558301168
 21
18937.95484092195
 31
0.0
  0
LINE
  5
D931
  8
2-0
  6
CONTINUOUS
 62
     3
 10
27753.850558301168
 20
18937.95484092195
 30
0.0
 11
27753.850558301168
 21
18974.956001921939
 31
0.0
  0
LINE
  5
D932
  8
2-0
  6
CONTINUOUS
 62
     3
 10
27723.852934301169
 20
18974.956001921939
 30
0.0
 11
27753.850558301168
 21
18974.956001921939
 31
0.0
  0
LINE
  5
D933
  8
2-0
  6
CONTINUOUS
 62
     3
 10
27723.852934301169
 20
18968.952121921939
 30
0.0
 11
27723.852934301169
 21
18974.956001921939
 31
0.0
  0
LINE
  5
D934
  8
2-0
  6
CONTINUOUS
 62
     3
 10
27723.852934301169
 20
18985.051546921939
 30
0.0
 11
27753.850558301168
 21
18985.051546921939
 31
0.0
  0
LINE
  5
D935
  8
2-0
  6
CONTINUOUS
 62
     3
 10
27723.852934301169
 20
18967.04980492195
 30
0.0
 11
27723.852934301169
 21
18985.051546921939
 31
0.0
  0
LINE
  5
D936
  8
2-0
  6
CONTINUOUS
 62
     3
 10
27748.85029430117
 20
18967.04980492195
 30
0.0
 11
27723.852934301169
 21
18967.04980492195
 31
0.0
  0
LINE
  5
D937
  8
2-0
  6
CONTINUOUS
 62
     3
 10
27748.85029430117
 20
18972.050068921952
 30
0.0
 11
27748.85029430117
 21
18967.04980492195
 31
0.0
  0
LINE
  5
D938
  8
2-0
  6
CONTINUOUS
 62
     3
 10
27741.848737301181
 20
18972.050068921952
 30
0.0
 11
27748.85029430117
 21
18972.050068921952
 31
0.0
  0
LINE
  5
D939
  8
2-0
  6
CONTINUOUS
 62
     3
 10
27741.848737301181
 20
18239.85582542195
 30
0.0
 11
27748.85029430117
 21
18239.85582542195
 31
0.0
  0
LINE
  5
D93A
  8
2-0
  6
CONTINUOUS
 62
     3
 10
27748.85029430117
 20
18239.85582542195
 30
0.0
 11
27748.85029430117
 21
18244.86202742195
 31
0.0
  0
LINE
  5
D93B
  8
2-0
  6
CONTINUOUS
 62
     3
 10
27748.85029430117
 20
18244.86202742195
 30
0.0
 11
27723.852934301169
 21
18244.86202742195
 31
0.0
  0
LINE
  5
D93C
  8
2-0
  6
CONTINUOUS
 62
     3
 10
27723.852934301169
 20
18244.86202742195
 30
0.0
 11
27723.852934301169
 21
18226.860285421961
 31
0.0
  0
LINE
  5
D93D
  8
2-0
  6
CONTINUOUS
 62
     3
 10
27723.852934301169
 20
18226.860285421961
 30
0.0
 11
27753.850558301168
 21
18226.860285421961
 31
0.0
  0
LINE
  5
D93E
  8
2-0
  6
CONTINUOUS
 62
     3
 10
27723.852934301169
 20
18242.95179242194
 30
0.0
 11
27723.852934301169
 21
18236.95583042195
 31
0.0
  0
LINE
  5
D93F
  8
2-0
  6
CONTINUOUS
 62
     3
 10
27723.852934301169
 20
18236.95583042195
 30
0.0
 11
27753.850558301168
 21
18236.95583042195
 31
0.0
  0
LINE
  5
D940
  8
2-0
  6
CONTINUOUS
 62
     3
 10
27753.850558301168
 20
18236.95583042195
 30
0.0
 11
27753.850558301168
 21
18273.95501242195
 31
0.0
  0
LINE
  5
D941
  8
2-0
  6
CONTINUOUS
 62
     3
 10
27723.852934301169
 20
18273.95501242195
 30
0.0
 11
27753.850558301168
 21
18273.95501242195
 31
0.0
  0
LINE
  5
D942
  8
2-0
  6
CONTINUOUS
 62
     3
 10
27723.852934301169
 20
18267.959050421949
 30
0.0
 11
27723.852934301169
 21
18273.95501242195
 31
0.0
  0
LINE
  5
D943
  8
2-0
  6
CONTINUOUS
 62
     3
 10
27723.852934301169
 20
18284.050557421961
 30
0.0
 11
27753.850558301168
 21
18284.050557421961
 31
0.0
  0
LINE
  5
D944
  8
2-0
  6
CONTINUOUS
 62
     3
 10
27723.852934301169
 20
18266.04881542196
 30
0.0
 11
27723.852934301169
 21
18284.050557421961
 31
0.0
  0
LINE
  5
D945
  8
2-0
  6
CONTINUOUS
 62
     3
 10
27748.85029430117
 20
18266.04881542196
 30
0.0
 11
27723.852934301169
 21
18266.04881542196
 31
0.0
  0
LINE
  5
D946
  8
2-0
  6
CONTINUOUS
 62
     3
 10
27748.85029430117
 20
18271.055017421939
 30
0.0
 11
27748.85029430117
 21
18266.04881542196
 31
0.0
  0
LINE
  5
D947
  8
2-0
  6
CONTINUOUS
 62
     3
 10
27741.848737301181
 20
18271.055017421939
 30
0.0
 11
27748.85029430117
 21
18271.055017421939
 31
0.0
  0
LINE
  5
D948
  8
2-0
  6
CONTINUOUS
 62
     3
 10
27741.848737301181
 20
17570.049079421951
 30
0.0
 11
27748.85029430117
 21
17570.049079421951
 31
0.0
  0
LINE
  5
D949
  8
2-0
  6
CONTINUOUS
 62
     3
 10
27748.85029430117
 20
17570.049079421951
 30
0.0
 11
27748.85029430117
 21
17565.06069242195
 31
0.0
  0
LINE
  5
D94A
  8
2-0
  6
CONTINUOUS
 62
     3
 10
27748.85029430117
 20
17565.06069242195
 30
0.0
 11
27723.852934301169
 21
17565.06069242195
 31
0.0
  0
LINE
  5
D94B
  8
2-0
  6
CONTINUOUS
 62
     3
 10
27723.852934301169
 20
17565.06069242195
 30
0.0
 11
27723.852934301169
 21
17583.056495421952
 31
0.0
  0
LINE
  5
D94C
  8
2-0
  6
CONTINUOUS
 62
     3
 10
27723.852934301169
 20
17583.056495421952
 30
0.0
 11
27753.850558301168
 21
17583.056495421952
 31
0.0
  0
LINE
  5
D94D
  8
2-0
  6
CONTINUOUS
 62
     3
 10
27723.852934301169
 20
17566.959050421949
 30
0.0
 11
27723.852934301169
 21
17572.95501242195
 31
0.0
  0
LINE
  5
D94E
  8
2-0
  6
CONTINUOUS
 62
     3
 10
27723.852934301169
 20
17572.95501242195
 30
0.0
 11
27753.850558301168
 21
17572.95501242195
 31
0.0
  0
LINE
  5
D94F
  8
2-0
  6
CONTINUOUS
 62
     3
 10
27753.850558301168
 20
17572.95501242195
 30
0.0
 11
27753.850558301168
 21
17535.955830421961
 31
0.0
  0
LINE
  5
D950
  8
2-0
  6
CONTINUOUS
 62
     3
 10
27723.852934301169
 20
17535.955830421961
 30
0.0
 11
27753.850558301168
 21
17535.955830421961
 31
0.0
  0
LINE
  5
D951
  8
2-0
  6
CONTINUOUS
 62
     3
 10
27723.852934301169
 20
17541.957731421939
 30
0.0
 11
27723.852934301169
 21
17535.955830421961
 31
0.0
  0
LINE
  5
D952
  8
2-0
  6
CONTINUOUS
 62
     3
 10
27723.852934301169
 20
17525.866224421949
 30
0.0
 11
27753.850558301168
 21
17525.866224421949
 31
0.0
  0
LINE
  5
D953
  8
2-0
  6
CONTINUOUS
 62
     3
 10
27723.852934301169
 20
17543.862027421939
 30
0.0
 11
27723.852934301169
 21
17525.866224421949
 31
0.0
  0
LINE
  5
D954
  8
2-0
  6
CONTINUOUS
 62
     3
 10
27748.85029430117
 20
17543.862027421939
 30
0.0
 11
27723.852934301169
 21
17543.862027421939
 31
0.0
  0
LINE
  5
D955
  8
2-0
  6
CONTINUOUS
 62
     3
 10
27748.85029430117
 20
17538.861764421948
 30
0.0
 11
27748.85029430117
 21
17543.862027421939
 31
0.0
  0
LINE
  5
D956
  8
2-0
  6
CONTINUOUS
 62
     3
 10
27741.848737301181
 20
17538.861764421948
 30
0.0
 11
27748.85029430117
 21
17538.861764421948
 31
0.0
  0
LINE
  5
D957
  8
2-0
  6
CONTINUOUS
 62
     3
 10
27750.964420301181
 20
16818.95265042195
 30
0.0
 11
27750.964420301181
 21
16838.953705421951
 31
0.0
  0
LINE
  5
D958
  8
2-0
  6
CONTINUOUS
 62
     3
 10
27750.964420301181
 20
16838.953705421951
 30
0.0
 11
27665.967851301171
 21
16838.953705421951
 31
0.0
  0
LINE
  5
D959
  8
2-0
  6
CONTINUOUS
 62
     3
 10
27741.848737301181
 20
16865.560415421951
 30
0.0
 11
27748.85029430117
 21
16865.560415421951
 31
0.0
  0
LINE
  5
D95A
  8
2-0
  6
CONTINUOUS
 62
     3
 10
27748.85029430117
 20
16865.560415421951
 30
0.0
 11
27748.85029430117
 21
16860.566089421962
 31
0.0
  0
LINE
  5
D95B
  8
2-0
  6
CONTINUOUS
 62
     3
 10
27748.85029430117
 20
16860.566089421962
 30
0.0
 11
27723.852934301169
 21
16860.566089421962
 31
0.0
  0
LINE
  5
D95C
  8
2-0
  6
CONTINUOUS
 62
     3
 10
27723.852934301169
 20
16860.566089421962
 30
0.0
 11
27723.852934301169
 21
16878.561893421938
 31
0.0
  0
LINE
  5
D95D
  8
2-0
  6
CONTINUOUS
 62
     3
 10
27723.852934301169
 20
16878.561893421938
 30
0.0
 11
27753.850558301168
 21
16878.561893421938
 31
0.0
  0
LINE
  5
D95E
  8
2-0
  6
CONTINUOUS
 62
     3
 10
27723.852934301169
 20
16868.953309421941
 30
0.0
 11
27723.852934301169
 21
16862.951409421948
 31
0.0
  0
LINE
  5
D95F
  8
2-0
  6
CONTINUOUS
 62
     3
 10
27753.850558301168
 20
16868.953309421941
 30
0.0
 11
27723.852934301169
 21
16868.953309421941
 31
0.0
  0
LINE
  5
D960
  8
2-0
  6
CONTINUOUS
 62
     3
 10
27753.850558301168
 20
16878.561893421938
 30
0.0
 11
27753.850558301168
 21
17525.866224421949
 31
0.0
  0
LINE
  5
D961
  8
2-0
  6
CONTINUOUS
 62
     3
 10
27753.850558301168
 20
17583.056495421952
 30
0.0
 11
27753.850558301168
 21
18226.860285421961
 31
0.0
  0
LINE
  5
D962
  8
2-0
  6
CONTINUOUS
 62
     3
 10
27753.850558301168
 20
16723.951594421938
 30
0.0
 11
27723.852934301169
 21
16723.951594421938
 31
0.0
  0
LINE
  5
D963
  8
2-0
  6
CONTINUOUS
 62
     3
 10
27723.852934301169
 20
16723.951594421938
 30
0.0
 11
27723.852934301169
 21
16729.953494421949
 31
0.0
  0
LINE
  5
D964
  8
2-0
  6
CONTINUOUS
 62
     3
 10
27665.967851301171
 20
16753.957137421949
 30
0.0
 11
27750.964420301181
 21
16753.957137421949
 31
0.0
  0
LINE
  5
D965
  8
2-0
  6
CONTINUOUS
 62
     3
 10
27750.964420301181
 20
16753.957137421949
 30
0.0
 11
27750.964420301181
 21
16773.952254421962
 31
0.0
  0
LINE
  5
D966
  8
2-0
  6
CONTINUOUS
 62
     3
 10
27723.852934301169
 20
16714.343011421959
 30
0.0
 11
27753.850558301168
 21
16714.343011421959
 31
0.0
  0
LINE
  5
D967
  8
2-0
  6
CONTINUOUS
 62
     3
 10
27723.852934301169
 20
16732.338814421939
 30
0.0
 11
27723.852934301169
 21
16714.343011421959
 31
0.0
  0
LINE
  5
D968
  8
2-0
  6
CONTINUOUS
 62
     3
 10
27748.85029430117
 20
16732.338814421939
 30
0.0
 11
27723.852934301169
 21
16732.338814421939
 31
0.0
  0
LINE
  5
D969
  8
2-0
  6
CONTINUOUS
 62
     3
 10
27748.85029430117
 20
16727.338550421959
 30
0.0
 11
27748.85029430117
 21
16732.338814421939
 31
0.0
  0
LINE
  5
D96A
  8
2-0
  6
CONTINUOUS
 62
     3
 10
27741.848737301181
 20
16727.338550421959
 30
0.0
 11
27748.85029430117
 21
16727.338550421959
 31
0.0
  0
LINE
  5
D96B
  8
2-0
  6
CONTINUOUS
 62
     3
 10
27741.848737301181
 20
16022.85631992193
 30
0.0
 11
27748.85029430117
 21
16022.85631992193
 31
0.0
  0
LINE
  5
D96C
  8
2-0
  6
CONTINUOUS
 62
     3
 10
27748.85029430117
 20
16022.85631992193
 30
0.0
 11
27748.85029430117
 21
16027.856583921939
 31
0.0
  0
LINE
  5
D96D
  8
2-0
  6
CONTINUOUS
 62
     3
 10
27748.85029430117
 20
16027.856583921939
 30
0.0
 11
27723.852934301169
 21
16027.856583921939
 31
0.0
  0
LINE
  5
D96E
  8
2-0
  6
CONTINUOUS
 62
     3
 10
27723.852934301169
 20
16027.856583921939
 30
0.0
 11
27723.852934301169
 21
16009.85484192195
 31
0.0
  0
LINE
  5
D96F
  8
2-0
  6
CONTINUOUS
 62
     3
 10
27723.852934301169
 20
16009.85484192195
 30
0.0
 11
27753.850558301168
 21
16009.85484192195
 31
0.0
  0
LINE
  5
D970
  8
2-0
  6
CONTINUOUS
 62
     3
 10
27723.852934301169
 20
16025.952286921951
 30
0.0
 11
27723.852934301169
 21
16019.95533592195
 31
0.0
  0
LINE
  5
D971
  8
2-0
  6
CONTINUOUS
 62
     3
 10
27723.852934301169
 20
16019.95533592195
 30
0.0
 11
27753.850558301168
 21
16019.95533592195
 31
0.0
  0
LINE
  5
D972
  8
2-0
  6
CONTINUOUS
 62
     3
 10
27753.850558301168
 20
16019.95533592195
 30
0.0
 11
27753.850558301168
 21
16056.95550692195
 31
0.0
  0
LINE
  5
D973
  8
2-0
  6
CONTINUOUS
 62
     3
 10
27723.852934301169
 20
16056.95550692195
 30
0.0
 11
27753.850558301168
 21
16056.95550692195
 31
0.0
  0
LINE
  5
D974
  8
2-0
  6
CONTINUOUS
 62
     3
 10
27723.852934301169
 20
16050.95261692195
 30
0.0
 11
27723.852934301169
 21
16056.95550692195
 31
0.0
  0
LINE
  5
D975
  8
2-0
  6
CONTINUOUS
 62
     3
 10
27723.852934301169
 20
16067.05105192195
 30
0.0
 11
27753.850558301168
 21
16067.05105192195
 31
0.0
  0
LINE
  5
D976
  8
2-0
  6
CONTINUOUS
 62
     3
 10
27723.852934301169
 20
16049.04337092194
 30
0.0
 11
27723.852934301169
 21
16067.05105192195
 31
0.0
  0
LINE
  5
D977
  8
2-0
  6
CONTINUOUS
 62
     3
 10
27748.85029430117
 20
16049.04337092194
 30
0.0
 11
27723.852934301169
 21
16049.04337092194
 31
0.0
  0
LINE
  5
D978
  8
2-0
  6
CONTINUOUS
 62
     3
 10
27748.85029430117
 20
16054.04957392195
 30
0.0
 11
27748.85029430117
 21
16049.04337092194
 31
0.0
  0
LINE
  5
D979
  8
2-0
  6
CONTINUOUS
 62
     3
 10
27741.848737301181
 20
16054.04957392195
 30
0.0
 11
27748.85029430117
 21
16054.04957392195
 31
0.0
  0
LINE
  5
D97A
  8
2-0
  6
CONTINUOUS
 62
     3
 10
27741.848737301181
 20
15353.289590421949
 30
0.0
 11
27748.85029430117
 21
15353.289590421949
 31
0.0
  0
LINE
  5
D97B
  8
2-0
  6
CONTINUOUS
 62
     3
 10
27748.85029430117
 20
15353.289590421949
 30
0.0
 11
27748.85029430117
 21
15348.29526542195
 31
0.0
  0
LINE
  5
D97C
  8
2-0
  6
CONTINUOUS
 62
     3
 10
27748.85029430117
 20
15348.29526542195
 30
0.0
 11
27723.852934301169
 21
15348.29526542195
 31
0.0
  0
LINE
  5
D97D
  8
2-0
  6
CONTINUOUS
 62
     3
 10
27723.852934301169
 20
15348.29526542195
 30
0.0
 11
27723.852934301169
 21
15366.291068421961
 31
0.0
  0
LINE
  5
D97E
  8
2-0
  6
CONTINUOUS
 62
     3
 10
27723.852934301169
 20
15366.291068421961
 30
0.0
 11
27753.850558301168
 21
15366.291068421961
 31
0.0
  0
LINE
  5
D97F
  8
2-0
  6
CONTINUOUS
 62
     3
 10
27723.852934301169
 20
15350.193623421959
 30
0.0
 11
27723.852934301169
 21
15356.195523421949
 31
0.0
  0
LINE
  5
D980
  8
2-0
  6
CONTINUOUS
 62
     3
 10
27723.852934301169
 20
15356.195523421949
 30
0.0
 11
27753.850558301168
 21
15356.195523421949
 31
0.0
  0
LINE
  5
D981
  8
2-0
  6
CONTINUOUS
 62
     3
 10
27753.850558301168
 20
15319.196342421959
 30
0.0
 11
27753.850558301168
 21
15356.195523421949
 31
0.0
  0
LINE
  5
D982
  8
2-0
  6
CONTINUOUS
 62
     3
 10
27723.852934301169
 20
15319.196342421959
 30
0.0
 11
27753.850558301168
 21
15319.196342421959
 31
0.0
  0
LINE
  5
D983
  8
2-0
  6
CONTINUOUS
 62
     3
 10
27723.852934301169
 20
15325.193293421949
 30
0.0
 11
27723.852934301169
 21
15319.196342421959
 31
0.0
  0
LINE
  5
D984
  8
2-0
  6
CONTINUOUS
 62
     3
 10
27723.852934301169
 20
15309.09485842194
 30
0.0
 11
27753.850558301168
 21
15309.09485842194
 31
0.0
  0
LINE
  5
D985
  8
2-0
  6
CONTINUOUS
 62
     3
 10
27723.852934301169
 20
15327.10253942194
 30
0.0
 11
27723.852934301169
 21
15309.09485842194
 31
0.0
  0
LINE
  5
D986
  8
2-0
  6
CONTINUOUS
 62
     3
 10
27748.85029430117
 20
15327.10253942194
 30
0.0
 11
27723.852934301169
 21
15327.10253942194
 31
0.0
  0
LINE
  5
D987
  8
2-0
  6
CONTINUOUS
 62
     3
 10
27748.85029430117
 20
15322.10227542197
 30
0.0
 11
27748.85029430117
 21
15327.10253942194
 31
0.0
  0
LINE
  5
D988
  8
2-0
  6
CONTINUOUS
 62
     3
 10
27741.848737301181
 20
15322.10227542197
 30
0.0
 11
27748.85029430117
 21
15322.10227542197
 31
0.0
  0
LINE
  5
D989
  8
2-0
  6
CONTINUOUS
 62
     3
 10
27753.850558301168
 20
16714.343011421959
 30
0.0
 11
27753.850558301168
 21
16067.05105192195
 31
0.0
  0
LINE
  5
D98A
  8
2-0
  6
CONTINUOUS
 62
     3
 10
27753.850558301168
 20
16868.953309421941
 30
0.0
 11
27753.850558301168
 21
16723.951594421938
 31
0.0
  0
LINE
  5
D98B
  8
2-0
  6
CONTINUOUS
 62
     3
 10
27665.967851301171
 20
16838.953705421951
 30
0.0
 11
27665.967851301171
 21
16753.957137421949
 31
0.0
  0
LINE
  5
D98C
  8
2-0
  6
CONTINUOUS
 62
     6
 10
26127.759184301169
 20
18607.40097092195
 30
0.0
 11
27152.791516301171
 21
18607.40097092195
 31
0.0
  0
LINE
  5
D98D
  8
2-0
  6
CONTINUOUS
 62
     3
 10
27741.848737301181
 20
14620.86126842195
 30
0.0
 11
27748.85029430117
 21
14620.86126842195
 31
0.0
  0
LINE
  5
D98E
  8
2-0
  6
CONTINUOUS
 62
     3
 10
27748.85029430117
 20
14620.86126842195
 30
0.0
 11
27748.85029430117
 21
14625.85559442195
 31
0.0
  0
LINE
  5
D98F
  8
2-0
  6
CONTINUOUS
 62
     3
 10
27748.85029430117
 20
14625.85559442195
 30
0.0
 11
27723.852934301169
 21
14625.85559442195
 31
0.0
  0
LINE
  5
D990
  8
2-0
  6
CONTINUOUS
 62
     3
 10
27723.852934301169
 20
14625.85559442195
 30
0.0
 11
27723.852934301169
 21
14607.85979042195
 31
0.0
  0
LINE
  5
D991
  8
2-0
  6
CONTINUOUS
 62
     3
 10
27723.852934301169
 20
14607.85979042195
 30
0.0
 11
27753.850558301168
 21
14607.85979042195
 31
0.0
  0
LINE
  5
D992
  8
2-0
  6
CONTINUOUS
 62
     3
 10
27723.852934301169
 20
14623.958225421949
 30
0.0
 11
27723.852934301169
 21
14617.955335421961
 31
0.0
  0
LINE
  5
D993
  8
2-0
  6
CONTINUOUS
 62
     3
 10
27723.852934301169
 20
14617.955335421961
 30
0.0
 11
27753.850558301168
 21
14617.955335421961
 31
0.0
  0
LINE
  5
D994
  8
2-0
  6
CONTINUOUS
 62
     3
 10
27753.850558301168
 20
14617.955335421961
 30
0.0
 11
27753.850558301168
 21
14654.95550742193
 31
0.0
  0
LINE
  5
D995
  8
2-0
  6
CONTINUOUS
 62
     3
 10
27723.852934301169
 20
14654.95550742193
 30
0.0
 11
27753.850558301168
 21
14654.95550742193
 31
0.0
  0
LINE
  5
D996
  8
2-0
  6
CONTINUOUS
 62
     3
 10
27723.852934301169
 20
14648.958555421939
 30
0.0
 11
27723.852934301169
 21
14654.95550742193
 31
0.0
  0
LINE
  5
D997
  8
2-0
  6
CONTINUOUS
 62
     3
 10
27723.852934301169
 20
14665.05600042195
 30
0.0
 11
27753.850558301168
 21
14665.05600042195
 31
0.0
  0
LINE
  5
D998
  8
2-0
  6
CONTINUOUS
 62
     3
 10
27723.852934301169
 20
14647.049309421949
 30
0.0
 11
27723.852934301169
 21
14665.05600042195
 31
0.0
  0
LINE
  5
D999
  8
2-0
  6
CONTINUOUS
 62
     3
 10
27748.85029430117
 20
14647.049309421949
 30
0.0
 11
27723.852934301169
 21
14647.049309421949
 31
0.0
  0
LINE
  5
D99A
  8
2-0
  6
CONTINUOUS
 62
     3
 10
27748.85029430117
 20
14652.05452242195
 30
0.0
 11
27748.85029430117
 21
14647.049309421949
 31
0.0
  0
LINE
  5
D99B
  8
2-0
  6
CONTINUOUS
 62
     3
 10
27741.848737301181
 20
14652.05452242195
 30
0.0
 11
27748.85029430117
 21
14652.05452242195
 31
0.0
  0
LINE
  5
D99C
  8
2-0
  6
CONTINUOUS
 62
     3
 10
27723.852934301169
 20
13944.957348421951
 30
0.0
 11
27723.852934301169
 21
13950.96221742194
 31
0.0
  0
LINE
  5
D99D
  8
2-0
  6
CONTINUOUS
 62
     3
 10
27723.852934301169
 20
13950.96221742194
 30
0.0
 11
27753.850558301168
 21
13950.96221742194
 31
0.0
  0
LINE
  5
D99E
  8
2-0
  6
CONTINUOUS
 62
     3
 10
27753.850558301168
 20
13950.96221742194
 30
0.0
 11
27753.850558301168
 21
13835.958126421951
 31
0.0
  0
LINE
  5
D99F
  8
2-0
  6
CONTINUOUS
 62
     3
 10
27753.850558301168
 20
13835.958126421951
 30
0.0
 11
27668.852010301169
 21
13835.958126421951
 31
0.0
  0
LINE
  5
D9A0
  8
2-0
  6
CONTINUOUS
 62
     3
 10
27668.852010301169
 20
13835.958126421951
 30
0.0
 11
27668.852010301169
 21
13920.953705421951
 31
0.0
  0
LINE
  5
D9A1
  8
2-0
  6
CONTINUOUS
 62
     3
 10
27668.852010301169
 20
13920.953705421951
 30
0.0
 11
27700.85092830117
 21
13920.953705421951
 31
0.0
  0
LINE
  5
D9A2
  8
2-0
  6
CONTINUOUS
 62
     3
 10
27741.848737301181
 20
13947.991950421951
 30
0.0
 11
27748.85029430117
 21
13947.991950421951
 31
0.0
  0
LINE
  5
D9A3
  8
2-0
  6
CONTINUOUS
 62
     3
 10
27748.85029430117
 20
13947.991950421951
 30
0.0
 11
27748.85029430117
 21
13942.99465542193
 31
0.0
  0
LINE
  5
D9A4
  8
2-0
  6
CONTINUOUS
 62
     3
 10
27748.85029430117
 20
13942.99465542193
 30
0.0
 11
27723.852934301169
 21
13942.99465542193
 31
0.0
  0
LINE
  5
D9A5
  8
2-0
  6
CONTINUOUS
 62
     3
 10
27723.852934301169
 20
13942.99465542193
 30
0.0
 11
27723.852934301169
 21
13960.99342842194
 31
0.0
  0
LINE
  5
D9A6
  8
2-0
  6
CONTINUOUS
 62
     3
 10
27723.852934301169
 20
13960.99342842194
 30
0.0
 11
27753.850558301168
 21
13960.99342842194
 31
0.0
  0
LINE
  5
D9A7
  8
2-0
  6
CENTER2
 62
     6
 10
27711.352274301182
 20
13638.46056842194
 30
0.0
 11
27711.352274301182
 21
14794.32932642197
 31
0.0
  0
LINE
  5
D9A8
  8
2-0
  6
CONTINUOUS
 62
     3
 10
27753.850558301168
 20
18284.050557421961
 30
0.0
 11
27753.850558301168
 21
18927.86127492195
 31
0.0
  0
LINE
  5
D9A9
  8
2-0
  6
CONTINUOUS
 62
     6
 10
28446.355441301159
 20
20486.956609421959
 30
0.0
 11
29646.349503301139
 21
20486.956609421959
 31
0.0
  0
LINE
  5
D9AA
  8
2-0
  6
CONTINUOUS
 62
     6
 10
27584.322608301161
 20
18849.555478921939
 30
0.0
 11
27152.791516301171
 21
18607.40097092195
 31
0.0
  0
LINE
  5
D9AB
  8
2-0
  6
CONTINUOUS
 62
     6
 10
27905.891442301141
 20
19899.633446421969
 30
0.0
 11
28446.355441301159
 21
20486.956609421959
 31
0.0
  0
LINE
  5
D9AC
  8
2-0
  6
CONTINUOUS
 62
     3
 10
27753.850558301168
 20
16009.85484192195
 30
0.0
 11
27753.850558301168
 21
15366.291068421961
 31
0.0
  0
LINE
  5
D9AD
  8
2-0
  6
CONTINUOUS
 62
     6
 10
27571.265703301171
 20
18872.814822921941
 30
0.0
 11
27723.852934301169
 21
18927.86127492195
 31
0.0
  0
LINE
  5
D9AE
  8
2-0
  6
CONTINUOUS
 62
     6
 10
27723.852934301169
 20
18927.86127492195
 30
0.0
 11
27597.37159430117
 21
18826.302074921929
 31
0.0
  0
LINE
  5
D9AF
  8
2-0
  6
CONTINUOUS
 62
     6
 10
27571.265703301171
 20
18872.814822921941
 30
0.0
 11
27597.37159430117
 21
18826.302074921929
 31
0.0
  0
LINE
  5
D9B0
  8
2-0
  6
CONTINUOUS
 62
     6
 10
27597.37159430117
 20
18826.302074921929
 30
0.0
 11
27723.852934301169
 21
18927.86127492195
 31
0.0
  0
LINE
  5
D9B1
  8
2-0
  6
CONTINUOUS
 62
     6
 10
27723.852934301169
 20
18927.86127492195
 30
0.0
 11
27571.265703301171
 21
18872.814822921941
 31
0.0
  0
LINE
  5
D9B2
  8
2-0
  6
CONTINUOUS
 62
     6
 10
27571.265703301171
 20
18872.814822921941
 30
0.0
 11
27723.852934301169
 21
18927.86127492195
 31
0.0
  0
LINE
  5
D9B3
  8
2-0
  6
CONTINUOUS
 62
     6
 10
27597.37159430117
 20
18826.302074921929
 30
0.0
 11
27723.852934301169
 21
18927.86127492195
 31
0.0
  0
LINE
  5
D9B4
  8
2-0
  6
CONTINUOUS
 62
     6
 10
27597.37159430117
 20
18826.302074921929
 30
0.0
 11
27571.265703301171
 21
18872.814822921941
 31
0.0
  0
LINE
  5
D9B5
  8
2-0
  6
CONTINUOUS
 62
     6
 10
27925.508471301171
 20
19881.572319421972
 30
0.0
 11
27797.546451301179
 21
19781.889701421958
 31
0.0
  0
LINE
  5
D9B6
  8
2-0
  6
CONTINUOUS
 62
     6
 10
27797.546451301179
 20
19781.889701421958
 30
0.0
 11
27886.26055630116
 21
19917.68665642196
 31
0.0
  0
LINE
  5
D9B7
  8
2-0
  6
CONTINUOUS
 62
     6
 10
27925.508471301171
 20
19881.572319421972
 30
0.0
 11
27886.26055630116
 21
19917.68665642196
 31
0.0
  0
LINE
  5
D9B8
  8
2-0
  6
CONTINUOUS
 62
     6
 10
27886.26055630116
 20
19917.68665642196
 30
0.0
 11
27797.546451301179
 21
19781.889701421958
 31
0.0
  0
LINE
  5
D9B9
  8
2-0
  6
CONTINUOUS
 62
     6
 10
27797.546451301179
 20
19781.889701421958
 30
0.0
 11
27925.508471301171
 21
19881.572319421972
 31
0.0
  0
LINE
  5
D9BA
  8
2-0
  6
CONTINUOUS
 62
     6
 10
27925.508471301171
 20
19881.572319421972
 30
0.0
 11
27797.546451301179
 21
19781.889701421958
 31
0.0
  0
LINE
  5
D9BB
  8
2-0
  6
CONTINUOUS
 62
     6
 10
27886.26055630116
 20
19917.68665642196
 30
0.0
 11
27797.546451301179
 21
19781.889701421958
 31
0.0
  0
LINE
  5
D9BC
  8
2-0
  6
CONTINUOUS
 62
     6
 10
27886.26055630116
 20
19917.68665642196
 30
0.0
 11
27925.508471301171
 21
19881.572319421972
 31
0.0
  0
LINE
  5
D9BD
  8
2-0
  6
CONTINUOUS
 62
     6
 10
27477.212837301169
 20
13727.68538842194
 30
0.0
 11
27608.959696301172
 21
13822.31231542195
 31
0.0
  0
LINE
  5
D9BE
  8
2-0
  6
CONTINUOUS
 62
     6
 10
27608.959696301172
 20
13822.31231542195
 30
0.0
 11
27515.029560301169
 21
13690.073545421939
 31
0.0
  0
LINE
  5
D9BF
  8
2-0
  6
CONTINUOUS
 62
     6
 10
27477.212837301169
 20
13727.68538842194
 30
0.0
 11
27515.029560301169
 21
13690.073545421939
 31
0.0
  0
LINE
  5
D9C0
  8
2-0
  6
CONTINUOUS
 62
     6
 10
27515.029560301169
 20
13690.073545421939
 30
0.0
 11
27608.959696301172
 21
13822.31231542195
 31
0.0
  0
LINE
  5
D9C1
  8
2-0
  6
CONTINUOUS
 62
     6
 10
27608.959696301172
 20
13822.31231542195
 30
0.0
 11
27477.212837301169
 21
13727.68538842194
 31
0.0
  0
LINE
  5
D9C2
  8
2-0
  6
CONTINUOUS
 62
     6
 10
27477.212837301169
 20
13727.68538842194
 30
0.0
 11
27608.959696301172
 21
13822.31231542195
 31
0.0
  0
LINE
  5
D9C3
  8
2-0
  6
CONTINUOUS
 62
     6
 10
27515.029560301169
 20
13690.073545421939
 30
0.0
 11
27608.959696301172
 21
13822.31231542195
 31
0.0
  0
LINE
  5
D9C4
  8
2-0
  6
CONTINUOUS
 62
     6
 10
27515.029560301169
 20
13690.073545421939
 30
0.0
 11
27477.212837301169
 21
13727.68538842194
 31
0.0
  0
LINE
  5
D9C5
  8
2-0
  6
CONTINUOUS
 62
     6
 10
27540.248626301171
 20
14054.59001542194
 30
0.0
 11
27672.848658301162
 21
13961.16168742194
 31
0.0
  0
LINE
  5
D9C6
  8
2-0
  6
CONTINUOUS
 62
     6
 10
27672.848658301162
 20
13961.16168742194
 30
0.0
 11
27517.115972301159
 21
14006.53720142195
 31
0.0
  0
LINE
  5
D9C7
  8
2-0
  6
CONTINUOUS
 62
     6
 10
27540.248626301171
 20
14054.59001542194
 30
0.0
 11
27517.115972301159
 21
14006.53720142195
 31
0.0
  0
LINE
  5
D9C8
  8
2-0
  6
CONTINUOUS
 62
     6
 10
27517.115972301159
 20
14006.53720142195
 30
0.0
 11
27672.848658301162
 21
13961.16168742194
 31
0.0
  0
LINE
  5
D9C9
  8
2-0
  6
CONTINUOUS
 62
     6
 10
27672.848658301162
 20
13961.16168742194
 30
0.0
 11
27540.248626301171
 21
14054.59001542194
 31
0.0
  0
LINE
  5
D9CA
  8
2-0
  6
CONTINUOUS
 62
     6
 10
27540.248626301171
 20
14054.59001542194
 30
0.0
 11
27672.848658301162
 21
13961.16168742194
 31
0.0
  0
LINE
  5
D9CB
  8
2-0
  6
CONTINUOUS
 62
     6
 10
27517.115972301159
 20
14006.53720142195
 30
0.0
 11
27672.848658301162
 21
13961.16168742194
 31
0.0
  0
LINE
  5
D9CC
  8
2-0
  6
CONTINUOUS
 62
     6
 10
27517.115972301159
 20
14006.53720142195
 30
0.0
 11
27540.248626301171
 21
14054.59001542194
 31
0.0
  0
LINE
  5
D9CD
  8
2-0
  6
CONTINUOUS
 62
     6
 10
27600.01227230117
 20
16434.410948421959
 30
0.0
 11
27753.850558301168
 21
16485.844779421968
 31
0.0
  0
LINE
  5
D9CE
  8
2-0
  6
CONTINUOUS
 62
     6
 10
27753.850558301168
 20
16485.844779421968
 30
0.0
 11
27625.015571301141
 21
16387.304344421969
 31
0.0
  0
LINE
  5
D9CF
  8
2-0
  6
CONTINUOUS
 62
     6
 10
27600.01227230117
 20
16434.410948421959
 30
0.0
 11
27625.015571301141
 21
16387.304344421969
 31
0.0
  0
LINE
  5
D9D0
  8
2-0
  6
CONTINUOUS
 62
     6
 10
27625.015571301141
 20
16387.304344421969
 30
0.0
 11
27753.850558301168
 21
16485.844779421968
 31
0.0
  0
LINE
  5
D9D1
  8
2-0
  6
CONTINUOUS
 62
     6
 10
27753.850558301168
 20
16485.844779421968
 30
0.0
 11
27600.01227230117
 21
16434.410948421959
 31
0.0
  0
LINE
  5
D9D2
  8
2-0
  6
CONTINUOUS
 62
     6
 10
27600.01227230117
 20
16434.410948421959
 30
0.0
 11
27753.850558301168
 21
16485.844779421968
 31
0.0
  0
LINE
  5
D9D3
  8
2-0
  6
CONTINUOUS
 62
     6
 10
27625.015571301141
 20
16387.304344421969
 30
0.0
 11
27753.850558301168
 21
16485.844779421968
 31
0.0
  0
LINE
  5
D9D4
  8
2-0
  6
CONTINUOUS
 62
     6
 10
27625.015571301141
 20
16387.304344421969
 30
0.0
 11
27600.01227230117
 21
16434.410948421959
 31
0.0
  0
LINE
  5
D9D5
  8
2-0
  6
CONTINUOUS
 62
     6
 10
27466.076065301171
 20
16925.729440421961
 30
0.0
 11
27608.959696301172
 21
16848.95381142195
 31
0.0
  0
LINE
  5
D9D6
  8
2-0
  6
CONTINUOUS
 62
     6
 10
27608.959696301172
 20
16848.95381142195
 30
0.0
 11
27448.897803301159
 21
16875.235880421958
 31
0.0
  0
LINE
  5
D9D7
  8
2-0
  6
CONTINUOUS
 62
     6
 10
27466.076065301171
 20
16925.729440421961
 30
0.0
 11
27448.897803301159
 21
16875.235880421958
 31
0.0
  0
LINE
  5
D9D8
  8
2-0
  6
CONTINUOUS
 62
     6
 10
27448.897803301159
 20
16875.235880421958
 30
0.0
 11
27608.959696301172
 21
16848.95381142195
 31
0.0
  0
LINE
  5
D9D9
  8
2-0
  6
CONTINUOUS
 62
     6
 10
27608.959696301172
 20
16848.95381142195
 30
0.0
 11
27466.076065301171
 21
16925.729440421961
 31
0.0
  0
LINE
  5
D9DA
  8
2-0
  6
CONTINUOUS
 62
     6
 10
27466.076065301171
 20
16925.729440421961
 30
0.0
 11
27608.959696301172
 21
16848.95381142195
 31
0.0
  0
LINE
  5
D9DB
  8
2-0
  6
CONTINUOUS
 62
     6
 10
27448.897803301159
 20
16875.235880421958
 30
0.0
 11
27608.959696301172
 21
16848.95381142195
 31
0.0
  0
LINE
  5
D9DC
  8
2-0
  6
CONTINUOUS
 62
     6
 10
27448.897803301159
 20
16875.235880421958
 30
0.0
 11
27466.076065301171
 21
16925.729440421961
 31
0.0
  0
LINE
  5
D9DD
  8
2-0
  6
CONTINUOUS
 62
     3
 10
24430.35359430117
 20
19647.95349542196
 30
0.0
 11
24430.35359430117
 21
19641.957533421959
 31
0.0
  0
LINE
  5
D9DE
  8
2-0
  6
CONTINUOUS
 62
     3
 10
24430.35359430117
 20
19641.957533421959
 30
0.0
 11
24400.35596930117
 21
19641.957533421959
 31
0.0
  0
LINE
  5
D9DF
  8
2-0
  6
CONTINUOUS
 62
     3
 10
24400.35596930117
 20
19641.957533421959
 30
0.0
 11
24400.35596930117
 21
19756.953706421958
 31
0.0
  0
LINE
  5
D9E0
  8
2-0
  6
CONTINUOUS
 62
     3
 10
24400.35596930117
 20
19671.957137421949
 30
0.0
 11
24481.353910301179
 21
19671.957137421949
 31
0.0
  0
LINE
  5
D9E1
  8
2-0
  6
CONTINUOUS
 62
     3
 10
24430.35359430117
 20
19631.660077421951
 30
0.0
 11
24400.35596930117
 21
19631.660077421951
 31
0.0
  0
LINE
  5
D9E2
  8
2-0
  6
CONTINUOUS
 62
     3
 10
24430.35359430117
 20
19649.661819421952
 30
0.0
 11
24430.35359430117
 21
19631.660077421951
 31
0.0
  0
LINE
  5
D9E3
  8
2-0
  6
CONTINUOUS
 62
     3
 10
24405.36019230117
 20
19649.661819421952
 30
0.0
 11
24430.35359430117
 21
19649.661819421952
 31
0.0
  0
LINE
  5
D9E4
  8
2-0
  6
CONTINUOUS
 62
     3
 10
24405.36019230117
 20
19644.653637421961
 30
0.0
 11
24405.36019230117
 21
19649.661819421952
 31
0.0
  0
LINE
  5
D9E5
  8
2-0
  6
CONTINUOUS
 62
     3
 10
24412.35779030115
 20
19644.653637421961
 30
0.0
 11
24405.36019230117
 21
19644.653637421961
 31
0.0
  0
LINE
  5
D9E6
  8
2-0
  6
CONTINUOUS
 62
     3
 10
24512.65207930117
 20
19744.953864421968
 30
0.0
 11
24512.65207930117
 21
19751.959380421958
 31
0.0
  0
LINE
  5
D9E7
  8
2-0
  6
CONTINUOUS
 62
     3
 10
24512.65207930117
 20
19751.959380421958
 30
0.0
 11
24507.64983530117
 21
19751.959380421958
 31
0.0
  0
LINE
  5
D9E8
  8
2-0
  6
CONTINUOUS
 62
     3
 10
24507.64983530117
 20
19751.959380421958
 30
0.0
 11
24507.64983530117
 21
19726.950143421949
 31
0.0
  0
LINE
  5
D9E9
  8
2-0
  6
CONTINUOUS
 62
     3
 10
24507.64983530117
 20
19726.950143421949
 30
0.0
 11
24525.657516301158
 21
19726.950143421949
 31
0.0
  0
LINE
  5
D9EA
  8
2-0
  6
CONTINUOUS
 62
     3
 10
24525.657516301158
 20
19726.950143421949
 30
0.0
 11
24525.657516301158
 21
19756.953706421958
 31
0.0
  0
LINE
  5
D9EB
  8
2-0
  6
CONTINUOUS
 62
     3
 10
24515.358080301168
 20
19756.953706421958
 30
0.0
 11
24400.35596930117
 21
19756.953706421958
 31
0.0
  0
LINE
  5
D9EC
  8
2-0
  6
CONTINUOUS
 62
     3
 10
24515.358080301168
 20
19726.950143421949
 30
0.0
 11
24515.358080301168
 21
19756.953706421958
 31
0.0
  0
LINE
  5
D9ED
  8
2-0
  6
CONTINUOUS
 62
     3
 10
24509.354201301168
 20
19726.950143421949
 30
0.0
 11
24515.358080301168
 21
19726.950143421949
 31
0.0
  0
LINE
  5
D9EE
  8
2-0
  6
CONTINUOUS
 62
     3
 10
24430.35359430117
 20
19647.95349542196
 30
0.0
 11
24430.35359430117
 21
19641.957533421959
 31
0.0
  0
LINE
  5
D9EF
  8
2-0
  6
CONTINUOUS
 62
     3
 10
24430.35359430117
 20
19641.957533421959
 30
0.0
 11
24400.35596930117
 21
19641.957533421959
 31
0.0
  0
LINE
  5
D9F0
  8
2-0
  6
CONTINUOUS
 62
     3
 10
24400.35596930117
 20
19641.957533421959
 30
0.0
 11
24400.35596930117
 21
19756.953706421958
 31
0.0
  0
LINE
  5
D9F1
  8
2-0
  6
CONTINUOUS
 62
     3
 10
24400.35596930117
 20
19671.957137421949
 30
0.0
 11
24481.353910301179
 21
19671.957137421949
 31
0.0
  0
LINE
  5
D9F2
  8
2-0
  6
CONTINUOUS
 62
     3
 10
24430.35359430117
 20
19631.660077421951
 30
0.0
 11
24400.35596930117
 21
19631.660077421951
 31
0.0
  0
LINE
  5
D9F3
  8
2-0
  6
CONTINUOUS
 62
     3
 10
24430.35359430117
 20
19649.661819421952
 30
0.0
 11
24430.35359430117
 21
19631.660077421951
 31
0.0
  0
LINE
  5
D9F4
  8
2-0
  6
CONTINUOUS
 62
     3
 10
24405.36019230117
 20
19649.661819421952
 30
0.0
 11
24430.35359430117
 21
19649.661819421952
 31
0.0
  0
LINE
  5
D9F5
  8
2-0
  6
CONTINUOUS
 62
     3
 10
24405.36019230117
 20
19644.653637421961
 30
0.0
 11
24405.36019230117
 21
19649.661819421952
 31
0.0
  0
LINE
  5
D9F6
  8
2-0
  6
CONTINUOUS
 62
     3
 10
24412.35779030115
 20
19644.653637421961
 30
0.0
 11
24405.36019230117
 21
19644.653637421961
 31
0.0
  0
LINE
  5
D9F7
  8
2-0
  6
CONTINUOUS
 62
     3
 10
24412.35779030115
 20
18940.856814921939
 30
0.0
 11
24405.36019230117
 21
18940.856814921939
 31
0.0
  0
LINE
  5
D9F8
  8
2-0
  6
CONTINUOUS
 62
     3
 10
24405.36019230117
 20
18940.856814921939
 30
0.0
 11
24405.36019230117
 21
18945.857078921948
 31
0.0
  0
LINE
  5
D9F9
  8
2-0
  6
CONTINUOUS
 62
     3
 10
24405.36019230117
 20
18945.857078921948
 30
0.0
 11
24430.35359430117
 21
18945.857078921948
 31
0.0
  0
LINE
  5
D9FA
  8
2-0
  6
CONTINUOUS
 62
     3
 10
24430.35359430117
 20
18945.857078921948
 30
0.0
 11
24430.35359430117
 21
18927.861274921928
 31
0.0
  0
LINE
  5
D9FB
  8
2-0
  6
CONTINUOUS
 62
     3
 10
24430.35359430117
 20
18927.861274921928
 30
0.0
 11
24400.35596930117
 21
18927.861274921928
 31
0.0
  0
LINE
  5
D9FC
  8
2-0
  6
CONTINUOUS
 62
     3
 10
24430.35359430117
 20
18943.952781921911
 30
0.0
 11
24430.35359430117
 21
18937.954840921939
 31
0.0
  0
LINE
  5
D9FD
  8
2-0
  6
CONTINUOUS
 62
     3
 10
24430.35359430117
 20
18937.954840921939
 30
0.0
 11
24400.35596930117
 21
18937.954840921939
 31
0.0
  0
LINE
  5
D9FE
  8
2-0
  6
CONTINUOUS
 62
     3
 10
24400.35596930117
 20
18937.954840921939
 30
0.0
 11
24400.35596930117
 21
18974.956001921939
 31
0.0
  0
LINE
  5
D9FF
  8
2-0
  6
CONTINUOUS
 62
     3
 10
24430.35359430117
 20
18974.956001921939
 30
0.0
 11
24400.35596930117
 21
18974.956001921939
 31
0.0
  0
LINE
  5
DA00
  8
2-0
  6
CONTINUOUS
 62
     3
 10
24430.35359430117
 20
18968.952121921939
 30
0.0
 11
24430.35359430117
 21
18974.956001921939
 31
0.0
  0
LINE
  5
DA01
  8
2-0
  6
CONTINUOUS
 62
     3
 10
24430.35359430117
 20
18985.051546921932
 30
0.0
 11
24400.35596930117
 21
18985.051546921932
 31
0.0
  0
LINE
  5
DA02
  8
2-0
  6
CONTINUOUS
 62
     3
 10
24430.35359430117
 20
18967.04980492195
 30
0.0
 11
24430.35359430117
 21
18985.051546921932
 31
0.0
  0
LINE
  5
DA03
  8
2-0
  6
CONTINUOUS
 62
     3
 10
24405.36019230117
 20
18967.04980492195
 30
0.0
 11
24430.35359430117
 21
18967.04980492195
 31
0.0
  0
LINE
  5
DA04
  8
2-0
  6
CONTINUOUS
 62
     3
 10
24405.36019230117
 20
18972.05006892193
 30
0.0
 11
24405.36019230117
 21
18967.04980492195
 31
0.0
  0
LINE
  5
DA05
  8
2-0
  6
CONTINUOUS
 62
     3
 10
24412.35779030115
 20
18972.05006892193
 30
0.0
 11
24405.36019230117
 21
18972.05006892193
 31
0.0
  0
LINE
  5
DA06
  8
2-0
  6
CONTINUOUS
 62
     3
 10
24412.35779030115
 20
18239.85582542195
 30
0.0
 11
24405.36019230117
 21
18239.85582542195
 31
0.0
  0
LINE
  5
DA07
  8
2-0
  6
CONTINUOUS
 62
     3
 10
24405.36019230117
 20
18239.85582542195
 30
0.0
 11
24405.36019230117
 21
18244.86202742195
 31
0.0
  0
LINE
  5
DA08
  8
2-0
  6
CONTINUOUS
 62
     3
 10
24405.36019230117
 20
18244.86202742195
 30
0.0
 11
24430.35359430117
 21
18244.86202742195
 31
0.0
  0
LINE
  5
DA09
  8
2-0
  6
CONTINUOUS
 62
     3
 10
24430.35359430117
 20
18244.86202742195
 30
0.0
 11
24430.35359430117
 21
18226.860285421939
 31
0.0
  0
LINE
  5
DA0A
  8
2-0
  6
CONTINUOUS
 62
     3
 10
24430.35359430117
 20
18226.860285421939
 30
0.0
 11
24400.35596930117
 21
18226.860285421939
 31
0.0
  0
LINE
  5
DA0B
  8
2-0
  6
CONTINUOUS
 62
     3
 10
24430.35359430117
 20
18242.951792421929
 30
0.0
 11
24430.35359430117
 21
18236.955830421939
 31
0.0
  0
LINE
  5
DA0C
  8
2-0
  6
CONTINUOUS
 62
     3
 10
24430.35359430117
 20
18236.955830421939
 30
0.0
 11
24400.35596930117
 21
18236.955830421939
 31
0.0
  0
LINE
  5
DA0D
  8
2-0
  6
CONTINUOUS
 62
     3
 10
24400.35596930117
 20
18236.955830421939
 30
0.0
 11
24400.35596930117
 21
18273.95501242195
 31
0.0
  0
LINE
  5
DA0E
  8
2-0
  6
CONTINUOUS
 62
     3
 10
24430.35359430117
 20
18273.95501242195
 30
0.0
 11
24400.35596930117
 21
18273.95501242195
 31
0.0
  0
LINE
  5
DA0F
  8
2-0
  6
CONTINUOUS
 62
     3
 10
24430.35359430117
 20
18267.959050421949
 30
0.0
 11
24430.35359430117
 21
18273.95501242195
 31
0.0
  0
LINE
  5
DA10
  8
2-0
  6
CONTINUOUS
 62
     3
 10
24430.35359430117
 20
18284.05055742195
 30
0.0
 11
24400.35596930117
 21
18284.05055742195
 31
0.0
  0
LINE
  5
DA11
  8
2-0
  6
CONTINUOUS
 62
     3
 10
24430.35359430117
 20
18266.048815421938
 30
0.0
 11
24430.35359430117
 21
18284.05055742195
 31
0.0
  0
LINE
  5
DA12
  8
2-0
  6
CONTINUOUS
 62
     3
 10
24405.36019230117
 20
18266.048815421938
 30
0.0
 11
24430.35359430117
 21
18266.048815421938
 31
0.0
  0
LINE
  5
DA13
  8
2-0
  6
CONTINUOUS
 62
     3
 10
24405.36019230117
 20
18271.055017421939
 30
0.0
 11
24405.36019230117
 21
18266.048815421938
 31
0.0
  0
LINE
  5
DA14
  8
2-0
  6
CONTINUOUS
 62
     3
 10
24412.35779030115
 20
18271.055017421939
 30
0.0
 11
24405.36019230117
 21
18271.055017421939
 31
0.0
  0
LINE
  5
DA15
  8
2-0
  6
CONTINUOUS
 62
     3
 10
24412.35779030115
 20
17570.04907942194
 30
0.0
 11
24405.36019230117
 21
17570.04907942194
 31
0.0
  0
LINE
  5
DA16
  8
2-0
  6
CONTINUOUS
 62
     3
 10
24405.36019230117
 20
17570.04907942194
 30
0.0
 11
24405.36019230117
 21
17565.06069242195
 31
0.0
  0
LINE
  5
DA17
  8
2-0
  6
CONTINUOUS
 62
     3
 10
24405.36019230117
 20
17565.06069242195
 30
0.0
 11
24430.35359430117
 21
17565.06069242195
 31
0.0
  0
LINE
  5
DA18
  8
2-0
  6
CONTINUOUS
 62
     3
 10
24430.35359430117
 20
17565.06069242195
 30
0.0
 11
24430.35359430117
 21
17583.056495421941
 31
0.0
  0
LINE
  5
DA19
  8
2-0
  6
CONTINUOUS
 62
     3
 10
24430.35359430117
 20
17583.056495421941
 30
0.0
 11
24400.35596930117
 21
17583.056495421941
 31
0.0
  0
LINE
  5
DA1A
  8
2-0
  6
CONTINUOUS
 62
     3
 10
24430.35359430117
 20
17566.959050421949
 30
0.0
 11
24430.35359430117
 21
17572.955012421939
 31
0.0
  0
LINE
  5
DA1B
  8
2-0
  6
CONTINUOUS
 62
     3
 10
24430.35359430117
 20
17572.955012421939
 30
0.0
 11
24400.35596930117
 21
17572.955012421939
 31
0.0
  0
LINE
  5
DA1C
  8
2-0
  6
CONTINUOUS
 62
     3
 10
24400.35596930117
 20
17572.955012421939
 30
0.0
 11
24400.35596930117
 21
17535.955830421939
 31
0.0
  0
LINE
  5
DA1D
  8
2-0
  6
CONTINUOUS
 62
     3
 10
24430.35359430117
 20
17535.955830421939
 30
0.0
 11
24400.35596930117
 21
17535.955830421939
 31
0.0
  0
LINE
  5
DA1E
  8
2-0
  6
CONTINUOUS
 62
     3
 10
24430.35359430117
 20
17541.957731421939
 30
0.0
 11
24430.35359430117
 21
17535.955830421939
 31
0.0
  0
LINE
  5
DA1F
  8
2-0
  6
CONTINUOUS
 62
     3
 10
24430.35359430117
 20
17525.866224421949
 30
0.0
 11
24400.35596930117
 21
17525.866224421949
 31
0.0
  0
LINE
  5
DA20
  8
2-0
  6
CONTINUOUS
 62
     3
 10
24430.35359430117
 20
17543.862027421928
 30
0.0
 11
24430.35359430117
 21
17525.866224421949
 31
0.0
  0
LINE
  5
DA21
  8
2-0
  6
CONTINUOUS
 62
     3
 10
24405.36019230117
 20
17543.862027421928
 30
0.0
 11
24430.35359430117
 21
17543.862027421928
 31
0.0
  0
LINE
  5
DA22
  8
2-0
  6
CONTINUOUS
 62
     3
 10
24405.36019230117
 20
17538.861764421948
 30
0.0
 11
24405.36019230117
 21
17543.862027421928
 31
0.0
  0
LINE
  5
DA23
  8
2-0
  6
CONTINUOUS
 62
     3
 10
24412.35779030115
 20
17538.861764421948
 30
0.0
 11
24405.36019230117
 21
17538.861764421948
 31
0.0
  0
LINE
  5
DA24
  8
2-0
  6
CONTINUOUS
 62
     3
 10
24403.242107301168
 20
16818.95265042195
 30
0.0
 11
24403.242107301168
 21
16838.953705421951
 31
0.0
  0
LINE
  5
DA25
  8
2-0
  6
CONTINUOUS
 62
     3
 10
24403.242107301168
 20
16838.953705421951
 30
0.0
 11
24488.24263530118
 21
16838.953705421951
 31
0.0
  0
LINE
  5
DA26
  8
2-0
  6
CONTINUOUS
 62
     3
 10
24412.35779030115
 20
16865.560415421951
 30
0.0
 11
24405.36019230117
 21
16865.560415421951
 31
0.0
  0
LINE
  5
DA27
  8
2-0
  6
CONTINUOUS
 62
     3
 10
24405.36019230117
 20
16865.560415421951
 30
0.0
 11
24405.36019230117
 21
16860.566089421962
 31
0.0
  0
LINE
  5
DA28
  8
2-0
  6
CONTINUOUS
 62
     3
 10
24405.36019230117
 20
16860.566089421962
 30
0.0
 11
24430.35359430117
 21
16860.566089421962
 31
0.0
  0
LINE
  5
DA29
  8
2-0
  6
CONTINUOUS
 62
     3
 10
24430.35359430117
 20
16860.566089421962
 30
0.0
 11
24430.35359430117
 21
16878.561893421938
 31
0.0
  0
LINE
  5
DA2A
  8
2-0
  6
CONTINUOUS
 62
     3
 10
24430.35359430117
 20
16878.561893421938
 30
0.0
 11
24400.35596930117
 21
16878.561893421938
 31
0.0
  0
LINE
  5
DA2B
  8
2-0
  6
CONTINUOUS
 62
     3
 10
24430.35359430117
 20
16868.953309421941
 30
0.0
 11
24430.35359430117
 21
16862.951409421948
 31
0.0
  0
LINE
  5
DA2C
  8
2-0
  6
CONTINUOUS
 62
     3
 10
24400.35596930117
 20
16868.953309421941
 30
0.0
 11
24430.35359430117
 21
16868.953309421941
 31
0.0
  0
LINE
  5
DA2D
  8
2-0
  6
CONTINUOUS
 62
     3
 10
24400.35596930117
 20
16878.561893421938
 30
0.0
 11
24400.35596930117
 21
17525.866224421949
 31
0.0
  0
LINE
  5
DA2E
  8
2-0
  6
CONTINUOUS
 62
     3
 10
24400.35596930117
 20
17583.056495421941
 30
0.0
 11
24400.35596930117
 21
18226.860285421939
 31
0.0
  0
LINE
  5
DA2F
  8
2-0
  6
CONTINUOUS
 62
     3
 10
24400.35596930117
 20
16723.951594421938
 30
0.0
 11
24430.35359430117
 21
16723.951594421938
 31
0.0
  0
LINE
  5
DA30
  8
2-0
  6
CONTINUOUS
 62
     3
 10
24430.35359430117
 20
16723.951594421938
 30
0.0
 11
24430.35359430117
 21
16729.953494421949
 31
0.0
  0
LINE
  5
DA31
  8
2-0
  6
CONTINUOUS
 62
     3
 10
24488.24263530118
 20
16753.957137421949
 30
0.0
 11
24403.242107301168
 21
16753.957137421949
 31
0.0
  0
LINE
  5
DA32
  8
2-0
  6
CONTINUOUS
 62
     3
 10
24403.242107301168
 20
16753.957137421949
 30
0.0
 11
24403.242107301168
 21
16773.952254421962
 31
0.0
  0
LINE
  5
DA33
  8
2-0
  6
CONTINUOUS
 62
     3
 10
24430.35359430117
 20
16714.343011421959
 30
0.0
 11
24400.35596930117
 21
16714.343011421959
 31
0.0
  0
LINE
  5
DA34
  8
2-0
  6
CONTINUOUS
 62
     3
 10
24430.35359430117
 20
16732.338814421939
 30
0.0
 11
24430.35359430117
 21
16714.343011421959
 31
0.0
  0
LINE
  5
DA35
  8
2-0
  6
CONTINUOUS
 62
     3
 10
24405.36019230117
 20
16732.338814421939
 30
0.0
 11
24430.35359430117
 21
16732.338814421939
 31
0.0
  0
LINE
  5
DA36
  8
2-0
  6
CONTINUOUS
 62
     3
 10
24405.36019230117
 20
16727.338550421959
 30
0.0
 11
24405.36019230117
 21
16732.338814421939
 31
0.0
  0
LINE
  5
DA37
  8
2-0
  6
CONTINUOUS
 62
     3
 10
24412.35779030115
 20
16727.338550421959
 30
0.0
 11
24405.36019230117
 21
16727.338550421959
 31
0.0
  0
LINE
  5
DA38
  8
2-0
  6
CONTINUOUS
 62
     3
 10
24412.35779030115
 20
16022.85631992193
 30
0.0
 11
24405.36019230117
 21
16022.85631992193
 31
0.0
  0
LINE
  5
DA39
  8
2-0
  6
CONTINUOUS
 62
     3
 10
24405.36019230117
 20
16022.85631992193
 30
0.0
 11
24405.36019230117
 21
16027.856583921939
 31
0.0
  0
LINE
  5
DA3A
  8
2-0
  6
CONTINUOUS
 62
     3
 10
24405.36019230117
 20
16027.856583921939
 30
0.0
 11
24430.35359430117
 21
16027.856583921939
 31
0.0
  0
LINE
  5
DA3B
  8
2-0
  6
CONTINUOUS
 62
     3
 10
24430.35359430117
 20
16027.856583921939
 30
0.0
 11
24430.35359430117
 21
16009.854841921941
 31
0.0
  0
LINE
  5
DA3C
  8
2-0
  6
CONTINUOUS
 62
     3
 10
24430.35359430117
 20
16009.854841921941
 30
0.0
 11
24400.35596930117
 21
16009.854841921941
 31
0.0
  0
LINE
  5
DA3D
  8
2-0
  6
CONTINUOUS
 62
     3
 10
24430.35359430117
 20
16025.952286921951
 30
0.0
 11
24430.35359430117
 21
16019.95533592195
 31
0.0
  0
LINE
  5
DA3E
  8
2-0
  6
CONTINUOUS
 62
     3
 10
24430.35359430117
 20
16019.95533592195
 30
0.0
 11
24400.35596930117
 21
16019.95533592195
 31
0.0
  0
LINE
  5
DA3F
  8
2-0
  6
CONTINUOUS
 62
     3
 10
24400.35596930117
 20
16019.95533592195
 30
0.0
 11
24400.35596930117
 21
16056.95550692195
 31
0.0
  0
LINE
  5
DA40
  8
2-0
  6
CONTINUOUS
 62
     3
 10
24430.35359430117
 20
16056.95550692195
 30
0.0
 11
24400.35596930117
 21
16056.95550692195
 31
0.0
  0
LINE
  5
DA41
  8
2-0
  6
CONTINUOUS
 62
     3
 10
24430.35359430117
 20
16050.95261692195
 30
0.0
 11
24430.35359430117
 21
16056.95550692195
 31
0.0
  0
LINE
  5
DA42
  8
2-0
  6
CONTINUOUS
 62
     3
 10
24430.35359430117
 20
16067.051051921941
 30
0.0
 11
24400.35596930117
 21
16067.051051921941
 31
0.0
  0
LINE
  5
DA43
  8
2-0
  6
CONTINUOUS
 62
     3
 10
24430.35359430117
 20
16049.04337092194
 30
0.0
 11
24430.35359430117
 21
16067.051051921941
 31
0.0
  0
LINE
  5
DA44
  8
2-0
  6
CONTINUOUS
 62
     3
 10
24405.36019230117
 20
16049.04337092194
 30
0.0
 11
24430.35359430117
 21
16049.04337092194
 31
0.0
  0
LINE
  5
DA45
  8
2-0
  6
CONTINUOUS
 62
     3
 10
24405.36019230117
 20
16054.04957392195
 30
0.0
 11
24405.36019230117
 21
16049.04337092194
 31
0.0
  0
LINE
  5
DA46
  8
2-0
  6
CONTINUOUS
 62
     3
 10
24412.35779030115
 20
16054.04957392195
 30
0.0
 11
24405.36019230117
 21
16054.04957392195
 31
0.0
  0
LINE
  5
DA47
  8
2-0
  6
CONTINUOUS
 62
     3
 10
24412.35779030115
 20
15353.289590421949
 30
0.0
 11
24405.36019230117
 21
15353.289590421949
 31
0.0
  0
LINE
  5
DA48
  8
2-0
  6
CONTINUOUS
 62
     3
 10
24405.36019230117
 20
15353.289590421949
 30
0.0
 11
24405.36019230117
 21
15348.29526542195
 31
0.0
  0
LINE
  5
DA49
  8
2-0
  6
CONTINUOUS
 62
     3
 10
24405.36019230117
 20
15348.29526542195
 30
0.0
 11
24430.35359430117
 21
15348.29526542195
 31
0.0
  0
LINE
  5
DA4A
  8
2-0
  6
CONTINUOUS
 62
     3
 10
24430.35359430117
 20
15348.29526542195
 30
0.0
 11
24430.35359430117
 21
15366.291068421961
 31
0.0
  0
LINE
  5
DA4B
  8
2-0
  6
CONTINUOUS
 62
     3
 10
24430.35359430117
 20
15366.291068421961
 30
0.0
 11
24400.35596930117
 21
15366.291068421961
 31
0.0
  0
LINE
  5
DA4C
  8
2-0
  6
CONTINUOUS
 62
     3
 10
24430.35359430117
 20
15350.193623421939
 30
0.0
 11
24430.35359430117
 21
15356.195523421949
 31
0.0
  0
LINE
  5
DA4D
  8
2-0
  6
CONTINUOUS
 62
     3
 10
24430.35359430117
 20
15356.195523421949
 30
0.0
 11
24400.35596930117
 21
15356.195523421949
 31
0.0
  0
LINE
  5
DA4E
  8
2-0
  6
CONTINUOUS
 62
     3
 10
24400.35596930117
 20
15319.196342421959
 30
0.0
 11
24400.35596930117
 21
15356.195523421949
 31
0.0
  0
LINE
  5
DA4F
  8
2-0
  6
CONTINUOUS
 62
     3
 10
24430.35359430117
 20
15319.196342421959
 30
0.0
 11
24400.35596930117
 21
15319.196342421959
 31
0.0
  0
LINE
  5
DA50
  8
2-0
  6
CONTINUOUS
 62
     3
 10
24430.35359430117
 20
15325.193293421949
 30
0.0
 11
24430.35359430117
 21
15319.196342421959
 31
0.0
  0
LINE
  5
DA51
  8
2-0
  6
CONTINUOUS
 62
     3
 10
24430.35359430117
 20
15309.09485842194
 30
0.0
 11
24400.35596930117
 21
15309.09485842194
 31
0.0
  0
LINE
  5
DA52
  8
2-0
  6
CONTINUOUS
 62
     3
 10
24430.35359430117
 20
15327.10253942194
 30
0.0
 11
24430.35359430117
 21
15309.09485842194
 31
0.0
  0
LINE
  5
DA53
  8
2-0
  6
CONTINUOUS
 62
     3
 10
24405.36019230117
 20
15327.10253942194
 30
0.0
 11
24430.35359430117
 21
15327.10253942194
 31
0.0
  0
LINE
  5
DA54
  8
2-0
  6
CONTINUOUS
 62
     3
 10
24405.36019230117
 20
15322.10227542197
 30
0.0
 11
24405.36019230117
 21
15327.10253942194
 31
0.0
  0
LINE
  5
DA55
  8
2-0
  6
CONTINUOUS
 62
     3
 10
24412.35779030115
 20
15322.10227542197
 30
0.0
 11
24405.36019230117
 21
15322.10227542197
 31
0.0
  0
LINE
  5
DA56
  8
2-0
  6
CONTINUOUS
 62
     3
 10
24400.35596930117
 20
16714.343011421959
 30
0.0
 11
24400.35596930117
 21
16067.051051921941
 31
0.0
  0
LINE
  5
DA57
  8
2-0
  6
CONTINUOUS
 62
     3
 10
24400.35596930117
 20
16868.953309421941
 30
0.0
 11
24400.35596930117
 21
16723.951594421938
 31
0.0
  0
LINE
  5
DA58
  8
2-0
  6
CONTINUOUS
 62
     3
 10
24488.24263530118
 20
16838.953705421951
 30
0.0
 11
24488.24263530118
 21
16753.957137421949
 31
0.0
  0
LINE
  5
DA59
  8
2-0
  6
CONTINUOUS
 62
     3
 10
24412.35779030115
 20
14620.86126842195
 30
0.0
 11
24405.36019230117
 21
14620.86126842195
 31
0.0
  0
LINE
  5
DA5A
  8
2-0
  6
CONTINUOUS
 62
     3
 10
24405.36019230117
 20
14620.86126842195
 30
0.0
 11
24405.36019230117
 21
14625.855594421961
 31
0.0
  0
LINE
  5
DA5B
  8
2-0
  6
CONTINUOUS
 62
     3
 10
24405.36019230117
 20
14625.855594421961
 30
0.0
 11
24430.35359430117
 21
14625.855594421961
 31
0.0
  0
LINE
  5
DA5C
  8
2-0
  6
CONTINUOUS
 62
     3
 10
24430.35359430117
 20
14625.855594421961
 30
0.0
 11
24430.35359430117
 21
14607.85979042195
 31
0.0
  0
LINE
  5
DA5D
  8
2-0
  6
CONTINUOUS
 62
     3
 10
24430.35359430117
 20
14607.85979042195
 30
0.0
 11
24400.35596930117
 21
14607.85979042195
 31
0.0
  0
LINE
  5
DA5E
  8
2-0
  6
CONTINUOUS
 62
     3
 10
24430.35359430117
 20
14623.958225421949
 30
0.0
 11
24430.35359430117
 21
14617.955335421961
 31
0.0
  0
LINE
  5
DA5F
  8
2-0
  6
CONTINUOUS
 62
     3
 10
24430.35359430117
 20
14617.955335421961
 30
0.0
 11
24400.35596930117
 21
14617.955335421961
 31
0.0
  0
LINE
  5
DA60
  8
2-0
  6
CONTINUOUS
 62
     3
 10
24400.35596930117
 20
14617.955335421961
 30
0.0
 11
24400.35596930117
 21
14654.95550742193
 31
0.0
  0
LINE
  5
DA61
  8
2-0
  6
CONTINUOUS
 62
     3
 10
24430.35359430117
 20
14654.95550742193
 30
0.0
 11
24400.35596930117
 21
14654.95550742193
 31
0.0
  0
LINE
  5
DA62
  8
2-0
  6
CONTINUOUS
 62
     3
 10
24430.35359430117
 20
14648.95855542195
 30
0.0
 11
24430.35359430117
 21
14654.95550742193
 31
0.0
  0
LINE
  5
DA63
  8
2-0
  6
CONTINUOUS
 62
     3
 10
24430.35359430117
 20
14665.05600042195
 30
0.0
 11
24400.35596930117
 21
14665.05600042195
 31
0.0
  0
LINE
  5
DA64
  8
2-0
  6
CONTINUOUS
 62
     3
 10
24430.35359430117
 20
14647.049309421949
 30
0.0
 11
24430.35359430117
 21
14665.05600042195
 31
0.0
  0
LINE
  5
DA65
  8
2-0
  6
CONTINUOUS
 62
     3
 10
24405.36019230117
 20
14647.049309421949
 30
0.0
 11
24430.35359430117
 21
14647.049309421949
 31
0.0
  0
LINE
  5
DA66
  8
2-0
  6
CONTINUOUS
 62
     3
 10
24405.36019230117
 20
14652.05452242195
 30
0.0
 11
24405.36019230117
 21
14647.049309421949
 31
0.0
  0
LINE
  5
DA67
  8
2-0
  6
CONTINUOUS
 62
     3
 10
24412.35779030115
 20
14652.05452242195
 30
0.0
 11
24405.36019230117
 21
14652.05452242195
 31
0.0
  0
LINE
  5
DA68
  8
2-0
  6
CONTINUOUS
 62
     3
 10
24430.35359430117
 20
13944.957348421951
 30
0.0
 11
24430.35359430117
 21
13950.96221742194
 31
0.0
  0
LINE
  5
DA69
  8
2-0
  6
CONTINUOUS
 62
     3
 10
24430.35359430117
 20
13950.96221742194
 30
0.0
 11
24400.35596930117
 21
13950.96221742194
 31
0.0
  0
LINE
  5
DA6A
  8
2-0
  6
CONTINUOUS
 62
     3
 10
24400.35596930117
 20
13950.96221742194
 30
0.0
 11
24400.35596930117
 21
13835.958126421951
 31
0.0
  0
LINE
  5
DA6B
  8
2-0
  6
CONTINUOUS
 62
     3
 10
24400.35596930117
 20
13835.958126421951
 30
0.0
 11
24485.354517301159
 21
13835.958126421951
 31
0.0
  0
LINE
  5
DA6C
  8
2-0
  6
CONTINUOUS
 62
     3
 10
24485.354517301159
 20
13835.958126421951
 30
0.0
 11
24485.354517301159
 21
13920.953705421951
 31
0.0
  0
LINE
  5
DA6D
  8
2-0
  6
CONTINUOUS
 62
     3
 10
24485.354517301159
 20
13920.953705421951
 30
0.0
 11
24453.357579301159
 21
13920.953705421951
 31
0.0
  0
LINE
  5
DA6E
  8
2-0
  6
CONTINUOUS
 62
     3
 10
24412.35779030115
 20
13947.991950421951
 30
0.0
 11
24405.36019230117
 21
13947.991950421951
 31
0.0
  0
LINE
  5
DA6F
  8
2-0
  6
CONTINUOUS
 62
     3
 10
24405.36019230117
 20
13947.991950421951
 30
0.0
 11
24405.36019230117
 21
13942.99465542193
 31
0.0
  0
LINE
  5
DA70
  8
2-0
  6
CONTINUOUS
 62
     3
 10
24405.36019230117
 20
13942.99465542193
 30
0.0
 11
24430.35359430117
 21
13942.99465542193
 31
0.0
  0
LINE
  5
DA71
  8
2-0
  6
CONTINUOUS
 62
     3
 10
24430.35359430117
 20
13942.99465542193
 30
0.0
 11
24430.35359430117
 21
13960.99342842194
 31
0.0
  0
LINE
  5
DA72
  8
2-0
  6
CONTINUOUS
 62
     3
 10
24430.35359430117
 20
13960.99342842194
 30
0.0
 11
24400.35596930117
 21
13960.99342842194
 31
0.0
  0
LINE
  5
DA73
  8
2-0
  6
CONTINUOUS
 62
     3
 10
24400.35596930117
 20
14665.05600042195
 30
0.0
 11
24400.35596930117
 21
15309.09485842194
 31
0.0
  0
LINE
  5
DA74
  8
2-0
  6
CONTINUOUS
 62
     3
 10
24400.35596930117
 20
18284.05055742195
 30
0.0
 11
24400.35596930117
 21
18927.861274921928
 31
0.0
  0
LINE
  5
DA75
  8
2-0
  6
CONTINUOUS
 62
     3
 10
24491.358397301181
 20
18212.954167421929
 30
0.0
 11
24444.354728301169
 21
18212.954167421929
 31
0.0
  0
LINE
  5
DA76
  8
2-0
  6
CONTINUOUS
 62
     3
 10
24444.354728301169
 20
18297.954695421951
 30
0.0
 11
24491.358397301181
 21
18297.954695421951
 31
0.0
  0
LINE
  5
DA77
  8
2-0
  6
CONTINUOUS
 62
     3
 10
24444.354728301169
 20
18212.954167421929
 30
0.0
 11
24444.354728301169
 21
18237.957466421951
 31
0.0
  0
LINE
  5
DA78
  8
2-0
  6
CONTINUOUS
 62
     3
 10
24444.354728301169
 20
18272.953375421948
 30
0.0
 11
24444.354728301169
 21
18297.954695421951
 31
0.0
  0
LINE
  5
DA79
  8
2-0
  6
CONTINUOUS
 62
     3
 10
24491.358397301181
 20
18297.954695421951
 30
0.0
 11
24491.358397301181
 21
18212.954167421929
 31
0.0
  0
LINE
  5
DA7A
  8
2-0
  6
CONTINUOUS
 62
     3
 10
24400.35596930117
 20
16009.854841921941
 30
0.0
 11
24400.35596930117
 21
15366.291068421961
 31
0.0
  0
LINE
  5
DA7B
  8
2-0
  6
CONTINUOUS
 62
     3
 10
27753.850558301168
 20
19641.957533421959
 30
0.0
 11
27753.850558301168
 21
19756.953706421958
 31
0.0
  0
LINE
  5
DA7C
  8
2-0
  6
CONTINUOUS
 62
     3
 10
24400.35596930117
 20
19671.957137421949
 30
0.0
 11
27672.848658301162
 21
19671.957137421949
 31
0.0
  0
LINE
  5
DA7D
  8
2-0
  6
CONTINUOUS
 62
     3
 10
24400.35596930117
 20
13960.99342842194
 30
0.0
 11
24400.35596930117
 21
14607.85979042195
 31
0.0
  0
LINE
  5
DA7E
  8
2-0
  6
CONTINUOUS
 62
     3
 10
27753.850558301168
 20
19631.660077421951
 30
0.0
 11
27753.850558301168
 21
18985.051546921939
 31
0.0
  0
LINE
  5
DA7F
  8
2-0
  6
CONTINUOUS
 62
     3
 10
24400.35596930117
 20
19631.660077421951
 30
0.0
 11
24400.35596930117
 21
18985.051546921932
 31
0.0
  0
LINE
  5
DA80
  8
2-0
  6
CONTINUOUS
 62
     3
 10
24481.353910301179
 20
13920.953705421951
 30
0.0
 11
24481.353910301179
 21
19756.953706421958
 31
0.0
  0
LINE
  5
DA81
  8
2-0
  6
CONTINUOUS
 62
     3
 10
27672.848658301162
 20
13920.953705421951
 30
0.0
 11
27672.848658301162
 21
19756.953706421958
 31
0.0
  0
TEXT
  5
DA82
  8
2-0
  6
CONTINUOUS
 62
     7
 10
26108.19758130117
 20
13318.45654342194
 30
0.0
 40
160.0
  1
前柱（右）
 50
0.000213
 72
     4
 11
26524.197283894191
 21
13398.458089922729
 31
0.0
  0
TEXT
  5
DA83
  8
2-0
  6
CONTINUOUS
 62
     7
 10
26312.79270430118
 20
16246.94855942196
 30
0.0
 40
160.0
  1
壁パネル
 50
359.99982299999999
 72
     4
 11
26675.459618104731
 21
16326.94743905983
 31
0.0
  0
TEXT
  5
DA84
  8
2-0
  6
CONTINUOUS
 62
     7
 10
26032.789800301161
 20
17084.136455421969
 30
0.0
 40
160.0
  1
中柱（左右）
 50
0.000354
 72
     4
 11
26550.12263934737
 21
17164.13965174662
 31
0.0
  0
TEXT
  5
DA85
  8
2-0
  6
CONTINUOUS
 62
     7
 10
26712.792044301161
 20
14291.49780942194
 30
0.0
 40
160.0
  1
下枠
 50
0.001063
 72
     4
 11
26883.45722671046
 21
14371.50097576123
 31
0.0
  0
TEXT
  5
DA86
  8
2-0
  6
CONTINUOUS
 62
     7
 10
26207.757468301181
 20
18687.405193921939
 30
0.0
 40
160.0
  1
間柱（側）
 72
     4
 11
26629.090801634509
 21
18767.405193921939
 31
0.0
  0
TEXT
  5
DA87
  8
2-0
  6
CONTINUOUS
 62
     7
 10
28526.347787301162
 20
20566.95291442196
 30
0.0
 40
160.0
  1
後柱（左右）
 50
0.000354
 72
     4
 11
29038.347293014151
 21
20646.956077794792
 31
0.0
  0
LINE
  5
DA88
  8
2-0
  6
CONTINUOUS
 62
     3
 10
26971.852855301149
 20
19756.953706421958
 30
0.0
 11
26934.851693301182
 21
19756.953706421958
 31
0.0
  0
LINE
  5
DA89
  8
2-0
  6
CONTINUOUS
 62
     3
 10
26971.852855301149
 20
19726.950143421949
 30
0.0
 11
26971.852855301149
 21
19756.953706421958
 31
0.0
  0
LINE
  5
DA8A
  8
2-0
  6
CONTINUOUS
 62
     3
 10
26965.852934301151
 20
19726.950143421949
 30
0.0
 11
26971.852855301149
 21
19726.950143421949
 31
0.0
  0
LINE
  5
DA8B
  8
2-0
  6
CONTINUOUS
 62
     3
 10
26981.950379301179
 20
19726.950143421949
 30
0.0
 11
26981.950379301179
 21
19756.953706421958
 31
0.0
  0
LINE
  5
DA8C
  8
2-0
  6
CONTINUOUS
 62
     3
 10
26963.946658301182
 20
19726.950143421949
 30
0.0
 11
26981.950379301179
 21
19726.950143421949
 31
0.0
  0
LINE
  5
DA8D
  8
2-0
  6
CONTINUOUS
 62
     3
 10
26963.946658301182
 20
19751.959380421958
 30
0.0
 11
26963.946658301182
 21
19726.950143421949
 31
0.0
  0
LINE
  5
DA8E
  8
2-0
  6
CONTINUOUS
 62
     3
 10
26968.94692230118
 20
19751.959380421958
 30
0.0
 11
26963.946658301182
 21
19751.959380421958
 31
0.0
  0
LINE
  5
DA8F
  8
2-0
  6
CONTINUOUS
 62
     3
 10
26968.94692230118
 20
19744.953864421968
 30
0.0
 11
26968.94692230118
 21
19751.959380421958
 31
0.0
  0
LINE
  5
DA90
  8
2-0
  6
CONTINUOUS
 62
     3
 10
26937.757627301158
 20
19744.953864421968
 30
0.0
 11
26937.757627301158
 21
19751.959380421958
 31
0.0
  0
LINE
  5
DA91
  8
2-0
  6
CONTINUOUS
 62
     3
 10
26937.757627301158
 20
19751.959380421958
 30
0.0
 11
26942.757891301178
 21
19751.959380421958
 31
0.0
  0
LINE
  5
DA92
  8
2-0
  6
CONTINUOUS
 62
     3
 10
26942.757891301178
 20
19751.959380421958
 30
0.0
 11
26942.757891301178
 21
19726.950143421949
 31
0.0
  0
LINE
  5
DA93
  8
2-0
  6
CONTINUOUS
 62
     3
 10
26942.757891301178
 20
19726.950143421949
 30
0.0
 11
26924.758128301179
 21
19726.950143421949
 31
0.0
  0
LINE
  5
DA94
  8
2-0
  6
CONTINUOUS
 62
     3
 10
26924.758128301179
 20
19726.950143421949
 30
0.0
 11
26924.758128301179
 21
19756.953706421958
 31
0.0
  0
LINE
  5
DA95
  8
2-0
  6
CONTINUOUS
 62
     3
 10
26940.851614301158
 20
19726.950143421949
 30
0.0
 11
26934.851693301182
 21
19726.950143421949
 31
0.0
  0
LINE
  5
DA96
  8
2-0
  6
CONTINUOUS
 62
     3
 10
26934.851693301182
 20
19726.950143421949
 30
0.0
 11
26934.851693301182
 21
19756.953706421958
 31
0.0
  0
LINE
  5
DA97
  8
2-0
  6
CONTINUOUS
 62
     3
 10
25566.941972801182
 20
19744.953864421968
 30
0.0
 11
25566.941972801182
 21
19751.959380421958
 31
0.0
  0
LINE
  5
DA98
  8
2-0
  6
CONTINUOUS
 62
     3
 10
25566.941972801182
 20
19751.959380421958
 30
0.0
 11
25561.941708801169
 21
19751.959380421958
 31
0.0
  0
LINE
  5
DA99
  8
2-0
  6
CONTINUOUS
 62
     3
 10
25561.941708801169
 20
19751.959380421958
 30
0.0
 11
25561.941708801169
 21
19726.950143421949
 31
0.0
  0
LINE
  5
DA9A
  8
2-0
  6
CONTINUOUS
 62
     3
 10
25561.941708801169
 20
19726.950143421949
 30
0.0
 11
25579.947409801181
 21
19726.950143421949
 31
0.0
  0
LINE
  5
DA9B
  8
2-0
  6
CONTINUOUS
 62
     3
 10
25579.947409801181
 20
19726.950143421949
 30
0.0
 11
25579.947409801181
 21
19756.953706421958
 31
0.0
  0
LINE
  5
DA9C
  8
2-0
  6
CONTINUOUS
 62
     3
 10
25563.849964801171
 20
19726.950143421949
 30
0.0
 11
25569.85186480116
 21
19726.950143421949
 31
0.0
  0
LINE
  5
DA9D
  8
2-0
  6
CONTINUOUS
 62
     3
 10
25569.85186480116
 20
19726.950143421949
 30
0.0
 11
25569.85186480116
 21
19756.953706421958
 31
0.0
  0
LINE
  5
DA9E
  8
2-0
  6
CONTINUOUS
 62
     3
 10
25532.852683801171
 20
19756.953706421958
 30
0.0
 11
25569.85186480116
 21
19756.953706421958
 31
0.0
  0
LINE
  5
DA9F
  8
2-0
  6
CONTINUOUS
 62
     3
 10
25532.852683801171
 20
19726.950143421949
 30
0.0
 11
25532.852683801171
 21
19756.953706421958
 31
0.0
  0
LINE
  5
DAA0
  8
2-0
  6
CONTINUOUS
 62
     3
 10
25538.846665801171
 20
19726.950143421949
 30
0.0
 11
25532.852683801171
 21
19726.950143421949
 31
0.0
  0
LINE
  5
DAA1
  8
2-0
  6
CONTINUOUS
 62
     3
 10
25522.757138801178
 20
19726.950143421949
 30
0.0
 11
25522.757138801178
 21
19756.953706421958
 31
0.0
  0
LINE
  5
DAA2
  8
2-0
  6
CONTINUOUS
 62
     3
 10
25540.752941801162
 20
19726.950143421949
 30
0.0
 11
25522.757138801178
 21
19726.950143421949
 31
0.0
  0
LINE
  5
DAA3
  8
2-0
  6
CONTINUOUS
 62
     3
 10
25540.752941801162
 20
19751.959380421958
 30
0.0
 11
25540.752941801162
 21
19726.950143421949
 31
0.0
  0
LINE
  5
DAA4
  8
2-0
  6
CONTINUOUS
 62
     3
 10
25535.752677801171
 20
19751.959380421958
 30
0.0
 11
25540.752941801162
 21
19751.959380421958
 31
0.0
  0
LINE
  5
DAA5
  8
2-0
  6
CONTINUOUS
 62
     3
 10
25535.752677801171
 20
19744.953864421968
 30
0.0
 11
25535.752677801171
 21
19751.959380421958
 31
0.0
  0
LINE
  5
DAA6
  8
2-0
  6
CONTINUOUS
 62
     3
 10
26236.751688801171
 20
19744.953864421968
 30
0.0
 11
26236.751688801171
 21
19751.959380421958
 31
0.0
  0
LINE
  5
DAA7
  8
2-0
  6
CONTINUOUS
 62
     3
 10
26236.751688801171
 20
19751.959380421958
 30
0.0
 11
26241.75195180118
 21
19751.959380421958
 31
0.0
  0
LINE
  5
DAA8
  8
2-0
  6
CONTINUOUS
 62
     3
 10
26241.75195180118
 20
19751.959380421958
 30
0.0
 11
26241.75195180118
 21
19726.950143421949
 31
0.0
  0
LINE
  5
DAA9
  8
2-0
  6
CONTINUOUS
 62
     3
 10
26241.75195180118
 20
19726.950143421949
 30
0.0
 11
26223.758128801172
 21
19726.950143421949
 31
0.0
  0
LINE
  5
DAAA
  8
2-0
  6
CONTINUOUS
 62
     3
 10
26223.758128801172
 20
19726.950143421949
 30
0.0
 11
26223.758128801172
 21
19756.953706421958
 31
0.0
  0
LINE
  5
DAAB
  8
2-0
  6
CONTINUOUS
 62
     3
 10
26239.84963480115
 20
19726.950143421949
 30
0.0
 11
26233.851693801171
 21
19726.950143421949
 31
0.0
  0
LINE
  5
DAAC
  8
2-0
  6
CONTINUOUS
 62
     3
 10
26233.851693801171
 20
19726.950143421949
 30
0.0
 11
26233.851693801171
 21
19756.953706421958
 31
0.0
  0
LINE
  5
DAAD
  8
2-0
  6
CONTINUOUS
 62
     3
 10
26270.852854801178
 20
19756.953706421958
 30
0.0
 11
26233.851693801171
 21
19756.953706421958
 31
0.0
  0
LINE
  5
DAAE
  8
2-0
  6
CONTINUOUS
 62
     3
 10
26270.852854801178
 20
19726.950143421949
 30
0.0
 11
26270.852854801178
 21
19756.953706421958
 31
0.0
  0
LINE
  5
DAAF
  8
2-0
  6
CONTINUOUS
 62
     3
 10
26264.846995801181
 20
19726.950143421949
 30
0.0
 11
26270.852854801178
 21
19726.950143421949
 31
0.0
  0
LINE
  5
DAB0
  8
2-0
  6
CONTINUOUS
 62
     3
 10
26280.946419801181
 20
19726.950143421949
 30
0.0
 11
26280.946419801181
 21
19756.953706421958
 31
0.0
  0
LINE
  5
DAB1
  8
2-0
  6
CONTINUOUS
 62
     3
 10
26262.950616801169
 20
19726.950143421949
 30
0.0
 11
26280.946419801181
 21
19726.950143421949
 31
0.0
  0
LINE
  5
DAB2
  8
2-0
  6
CONTINUOUS
 62
     3
 10
26262.950616801169
 20
19751.959380421958
 30
0.0
 11
26262.950616801169
 21
19726.950143421949
 31
0.0
  0
LINE
  5
DAB3
  8
2-0
  6
CONTINUOUS
 62
     3
 10
26267.940982801181
 20
19751.959380421958
 30
0.0
 11
26262.950616801169
 21
19751.959380421958
 31
0.0
  0
LINE
  5
DAB4
  8
2-0
  6
CONTINUOUS
 62
     3
 10
26267.940982801181
 20
19744.953864421968
 30
0.0
 11
26267.940982801181
 21
19751.959380421958
 31
0.0
  0
LINE
  5
DAB5
  8
2-0
  6
CONTINUOUS
 62
     3
 10
25579.947409801181
 20
19756.953706421958
 30
0.0
 11
26223.758128801172
 21
19756.953706421958
 31
0.0
  0
LINE
  5
DAB6
  8
2-0
  6
CONTINUOUS
 62
     3
 10
24879.151300301179
 20
19756.953706421958
 30
0.0
 11
25522.757138801178
 21
19756.953706421958
 31
0.0
  0
LINE
  5
DAB7
  8
2-0
  6
CONTINUOUS
 62
     3
 10
27629.235904301178
 20
19756.953706421958
 30
0.0
 11
26981.950379301179
 21
19756.953706421958
 31
0.0
  0
LINE
  5
DAB8
  8
2-0
  6
CONTINUOUS
 62
     3
 10
26924.758128301179
 20
19756.953706421958
 30
0.0
 11
26280.946419801181
 21
19756.953706421958
 31
0.0
  0
LINE
  5
DAB9
  8
2-0
  6
CONTINUOUS
 62
     3
 10
24865.943952301172
 20
19744.953864421968
 30
0.0
 11
24865.943952301172
 21
19751.959380421958
 31
0.0
  0
LINE
  5
DABA
  8
2-0
  6
CONTINUOUS
 62
     3
 10
24865.943952301172
 20
19751.959380421958
 30
0.0
 11
24860.943688301159
 21
19751.959380421958
 31
0.0
  0
LINE
  5
DABB
  8
2-0
  6
CONTINUOUS
 62
     3
 10
24860.943688301159
 20
19751.959380421958
 30
0.0
 11
24860.943688301159
 21
19726.950143421949
 31
0.0
  0
LINE
  5
DABC
  8
2-0
  6
CONTINUOUS
 62
     3
 10
24860.943688301159
 20
19726.950143421949
 30
0.0
 11
24878.945430301181
 21
19726.950143421949
 31
0.0
  0
LINE
  5
DABD
  8
2-0
  6
CONTINUOUS
 62
     3
 10
24878.945430301181
 20
19726.950143421949
 30
0.0
 11
24878.945430301181
 21
19756.953706421958
 31
0.0
  0
LINE
  5
DABE
  8
2-0
  6
CONTINUOUS
 62
     3
 10
24862.846005301191
 20
19726.950143421949
 30
0.0
 11
24868.849885301181
 21
19726.950143421949
 31
0.0
  0
LINE
  5
DABF
  8
2-0
  6
CONTINUOUS
 62
     3
 10
24868.849885301181
 20
19726.950143421949
 30
0.0
 11
24868.849885301181
 21
19756.953706421958
 31
0.0
  0
LINE
  5
DAC0
  8
2-0
  6
CONTINUOUS
 62
     3
 10
24831.854663301168
 20
19756.953706421958
 30
0.0
 11
24868.849885301181
 21
19756.953706421958
 31
0.0
  0
LINE
  5
DAC1
  8
2-0
  6
CONTINUOUS
 62
     3
 10
24831.854663301168
 20
19726.950143421949
 30
0.0
 11
24831.854663301168
 21
19756.953706421958
 31
0.0
  0
LINE
  5
DAC2
  8
2-0
  6
CONTINUOUS
 62
     3
 10
24837.848645301168
 20
19726.950143421949
 30
0.0
 11
24831.854663301168
 21
19726.950143421949
 31
0.0
  0
LINE
  5
DAC3
  8
2-0
  6
CONTINUOUS
 62
     3
 10
24821.759118301179
 20
19726.950143421949
 30
0.0
 11
24821.759118301179
 21
19756.953706421958
 31
0.0
  0
LINE
  5
DAC4
  8
2-0
  6
CONTINUOUS
 62
     3
 10
24839.754921301181
 20
19726.950143421949
 30
0.0
 11
24821.759118301179
 21
19726.950143421949
 31
0.0
  0
LINE
  5
DAC5
  8
2-0
  6
CONTINUOUS
 62
     3
 10
24839.754921301181
 20
19751.959380421958
 30
0.0
 11
24839.754921301181
 21
19726.950143421949
 31
0.0
  0
LINE
  5
DAC6
  8
2-0
  6
CONTINUOUS
 62
     3
 10
24834.75663730118
 20
19751.959380421958
 30
0.0
 11
24839.754921301181
 21
19751.959380421958
 31
0.0
  0
LINE
  5
DAC7
  8
2-0
  6
CONTINUOUS
 62
     3
 10
24834.75663730118
 20
19744.953864421968
 30
0.0
 11
24834.75663730118
 21
19751.959380421958
 31
0.0
  0
LINE
  5
DAC8
  8
2-0
  6
CONTINUOUS
 62
     3
 10
24525.657516301158
 20
19756.953706421958
 30
0.0
 11
24821.759118301179
 21
19756.953706421958
 31
0.0
  0
LINE
  5
DAC9
  8
2-0
  6
CONTINUOUS
 62
     3
 10
27753.850558301168
 20
15309.09485842194
 30
0.0
 11
27753.850558301168
 21
14665.05600042195
 31
0.0
  0
LINE
  5
DACA
  8
2-0
  6
CONTINUOUS
 62
     3
 10
27753.850558301168
 20
14607.85979042195
 30
0.0
 11
27753.850558301168
 21
13960.99342842194
 31
0.0
  0
LINE
  5
DACB
  8
0-6
  6
CONTINUOUS
 62
     6
 10
25984.487765801168
 20
19045.635478421951
 30
0.0
 11
27009.528015801181
 21
19045.635478421951
 31
0.0
  0
LINE
  5
DACC
  8
0-6
  6
CONTINUOUS
 62
     6
 10
25684.562987801171
 20
19602.988730421959
 30
0.0
 11
25579.947409801181
 21
19726.950143421949
 31
0.0
  0
LINE
  5
DACD
  8
0-6
  6
CONTINUOUS
 62
     6
 10
25579.947409801181
 20
19726.950143421949
 30
0.0
 11
25638.705459801178
 21
19575.758473421971
 31
0.0
  0
LINE
  5
DACE
  8
0-6
  6
CONTINUOUS
 62
     6
 10
25579.947409801181
 20
19726.950143421949
 30
0.0
 11
25684.562987801171
 21
19602.988730421959
 31
0.0
  0
LINE
  5
DACF
  8
0-6
  6
CONTINUOUS
 62
     6
 10
25684.562987801171
 20
19602.988730421959
 30
0.0
 11
25638.705459801178
 21
19575.758473421971
 31
0.0
  0
LINE
  5
DAD0
  8
0-6
  6
CONTINUOUS
 62
     6
 10
25638.705459801178
 20
19575.758473421971
 30
0.0
 11
25579.947409801181
 21
19726.950143421949
 31
0.0
  0
LINE
  5
DAD1
  8
0-6
  6
CONTINUOUS
 62
     6
 10
25638.705459801178
 20
19575.758473421971
 30
0.0
 11
25684.562987801171
 21
19602.988730421959
 31
0.0
  0
LINE
  5
DAD2
  8
0-6
  6
CONTINUOUS
 62
     6
 10
25661.634223801178
 20
19589.375581421958
 30
0.0
 11
25984.487765801168
 21
19045.635478421951
 31
0.0
  0
TEXT
  5
DAD3
  8
0-6
  6
CONTINUOUS
 62
     7
 10
26064.488029801181
 20
19125.637722421969
 30
0.0
 40
160.0
  1
間柱（後）
 72
     4
 11
26485.82136313451
 21
19205.637722421969
 31
0.0
  0
LINE
  5
DAD4
  8
SUNPOU
  6
CONTINUOUS
 62
     4
 10
24442.852274301182
 20
13172.691987421949
 30
0.0
 11
24442.852274301182
 21
12827.00733742195
 31
0.0
  0
LINE
  5
DAD5
  8
SUNPOU
  6
CONTINUOUS
 62
     4
 10
24400.350031301179
 20
13755.958126421951
 30
0.0
 11
24400.350031301179
 21
12827.00733742195
 31
0.0
  0
LINE
  5
DAD6
  8
SUNPOU
  6
CONTINUOUS
 62
     4
 10
24442.852274301182
 20
12907.00733742195
 30
0.0
 11
24682.852274301182
 21
12907.00733742195
 31
0.0
  0
LINE
  5
DAD7
  8
SUNPOU
  6
CONTINUOUS
 62
     4
 10
24400.350031301179
 20
12907.00733742195
 30
0.0
 11
24160.350031301179
 21
12907.00733742195
 31
0.0
  0
LINE
  5
DAD8
  8
SUNPOU
  6
CONTINUOUS
 62
     4
 10
24442.852274301182
 20
12907.00733742195
 30
0.0
 11
24400.350031301179
 21
12907.00733742195
 31
0.0
  0
LINE
  5
DAD9
  8
SUNPOU
  6
CONTINUOUS
 62
     4
 10
27711.352274301182
 20
13172.691987421949
 30
0.0
 11
27711.352274301182
 21
12827.00733742195
 31
0.0
  0
LINE
  5
DADA
  8
SUNPOU
  6
CONTINUOUS
 62
     4
 10
27753.85451730117
 20
13755.958126421951
 30
0.0
 11
27753.85451730117
 21
12827.00733742195
 31
0.0
  0
LINE
  5
DADB
  8
SUNPOU
  6
CONTINUOUS
 62
     4
 10
27711.352274301182
 20
12907.00733742195
 30
0.0
 11
27471.352274301182
 21
12907.00733742195
 31
0.0
  0
LINE
  5
DADC
  8
SUNPOU
  6
CONTINUOUS
 62
     4
 10
27753.85451730117
 20
12907.00733742195
 30
0.0
 11
27993.85451730117
 21
12907.00733742195
 31
0.0
  0
LINE
  5
DADD
  8
SUNPOU
  6
CONTINUOUS
 62
     4
 10
27711.352274301182
 20
12907.00733742195
 30
0.0
 11
27753.85451730117
 21
12907.00733742195
 31
0.0
  0
LINE
  5
DADE
  8
SUNPOU
  6
CONTINUOUS
 62
     4
 10
27711.352274301182
 20
13878.45542142195
 30
0.0
 11
27711.352274301182
 21
12827.00733742195
 31
0.0
  0
LINE
  5
DADF
  8
SUNPOU
  6
CONTINUOUS
 62
     4
 10
27668.850031301168
 20
13755.958126421951
 30
0.0
 11
27668.850031301168
 21
12827.00733742195
 31
0.0
  0
LINE
  5
DAE0
  8
SUNPOU
  6
CONTINUOUS
 62
     4
 10
27711.352274301182
 20
12907.00733742195
 30
0.0
 11
27951.352274301182
 21
12907.00733742195
 31
0.0
  0
LINE
  5
DAE1
  8
SUNPOU
  6
CONTINUOUS
 62
     4
 10
27668.850031301168
 20
12907.00733742195
 30
0.0
 11
27428.850031301168
 21
12907.00733742195
 31
0.0
  0
LINE
  5
DAE2
  8
SUNPOU
  6
CONTINUOUS
 62
     4
 10
27711.352274301182
 20
12907.00733742195
 30
0.0
 11
27668.850031301168
 21
12907.00733742195
 31
0.0
  0
LINE
  5
DAE3
  8
SUNPOU
  6
CONTINUOUS
 62
     4
 10
24442.852274301182
 20
13878.455421421961
 30
0.0
 11
24442.852274301182
 21
12827.00733742195
 31
0.0
  0
LINE
  5
DAE4
  8
SUNPOU
  6
CONTINUOUS
 62
     4
 10
24485.354517301159
 20
13755.958126421951
 30
0.0
 11
24485.354517301159
 21
12827.00733742195
 31
0.0
  0
LINE
  5
DAE5
  8
SUNPOU
  6
CONTINUOUS
 62
     4
 10
24442.852274301182
 20
12907.00733742195
 30
0.0
 11
24202.852274301182
 21
12907.00733742195
 31
0.0
  0
LINE
  5
DAE6
  8
SUNPOU
  6
CONTINUOUS
 62
     4
 10
24485.354517301159
 20
12907.00733742195
 30
0.0
 11
24725.35451730117
 21
12907.00733742195
 31
0.0
  0
LINE
  5
DAE7
  8
SUNPOU
  6
CONTINUOUS
 62
     4
 10
24442.852274301182
 20
12907.00733742195
 30
0.0
 11
24485.354517301159
 21
12907.00733742195
 31
0.0
  0
LINE
  5
DAE8
  8
SUNPOU
  6
CONTINUOUS
 62
     4
 10
24400.350031301179
 20
13755.958126421951
 30
0.0
 11
24400.350031301179
 21
12427.00733742195
 31
0.0
  0
LINE
  5
DAE9
  8
SUNPOU
  6
CONTINUOUS
 62
     4
 10
27753.85451730117
 20
13755.958126421951
 30
0.0
 11
27753.85451730117
 21
12427.00733742195
 31
0.0
  0
LINE
  5
DAEA
  8
SUNPOU
  6
CONTINUOUS
 62
     4
 10
24400.350031301179
 20
12507.00733742195
 30
0.0
 11
27753.85451730117
 21
12507.00733742195
 31
0.0
  0
LINE
  5
DAEB
  8
SUNPOU
  6
CONTINUOUS
 62
     4
 10
27833.850558301168
 20
14636.45542142195
 30
0.0
 11
28883.85187830116
 21
14636.45542142195
 31
0.0
  0
LINE
  5
DAEC
  8
SUNPOU
  6
CONTINUOUS
 62
     4
 10
28683.851878301171
 20
13878.45542142195
 30
0.0
 11
28883.85187830116
 21
13878.45542142195
 31
0.0
  0
LINE
  5
DAED
  8
SUNPOU
  6
CONTINUOUS
 62
     4
 10
28803.85187830116
 20
14636.45542142195
 30
0.0
 11
28803.85187830116
 21
13878.45542142195
 31
0.0
  0
LINE
  5
DAEE
  8
SUNPOU
  6
CONTINUOUS
 62
     4
 10
27833.850558301168
 20
15337.695932921961
 30
0.0
 11
28883.85187830116
 21
15337.695932921961
 31
0.0
  0
LINE
  5
DAEF
  8
SUNPOU
  6
CONTINUOUS
 62
     4
 10
27833.850558301168
 20
14636.45542142195
 30
0.0
 11
28883.85187830116
 21
14636.45542142195
 31
0.0
  0
LINE
  5
DAF0
  8
SUNPOU
  6
CONTINUOUS
 62
     4
 10
28803.85187830116
 20
15337.695932921961
 30
0.0
 11
28803.85187830116
 21
14636.45542142195
 31
0.0
  0
LINE
  5
DAF1
  8
SUNPOU
  6
CONTINUOUS
 62
     4
 10
27833.850558301168
 20
16038.45542142195
 30
0.0
 11
28883.85187830116
 21
16038.45542142195
 31
0.0
  0
LINE
  5
DAF2
  8
SUNPOU
  6
CONTINUOUS
 62
     4
 10
27833.850558301168
 20
15337.695932921961
 30
0.0
 11
28883.85187830116
 21
15337.695932921961
 31
0.0
  0
LINE
  5
DAF3
  8
SUNPOU
  6
CONTINUOUS
 62
     4
 10
28803.85187830116
 20
16038.45542142195
 30
0.0
 11
28803.85187830116
 21
15337.695932921961
 31
0.0
  0
LINE
  5
DAF4
  8
SUNPOU
  6
CONTINUOUS
 62
     4
 10
28683.851878301171
 20
16796.455421421939
 30
0.0
 11
28883.85187830116
 21
16796.455421421939
 31
0.0
  0
LINE
  5
DAF5
  8
SUNPOU
  6
CONTINUOUS
 62
     4
 10
27833.850558301168
 20
16038.45542142195
 30
0.0
 11
28883.85187830116
 21
16038.45542142195
 31
0.0
  0
LINE
  5
DAF6
  8
SUNPOU
  6
CONTINUOUS
 62
     4
 10
28803.85187830116
 20
16796.455421421939
 30
0.0
 11
28803.85187830116
 21
16038.45542142195
 31
0.0
  0
LINE
  5
DAF7
  8
SUNPOU
  6
CONTINUOUS
 62
     4
 10
27833.850558301168
 20
17554.455421421939
 30
0.0
 11
28883.85187830116
 21
17554.455421421939
 31
0.0
  0
LINE
  5
DAF8
  8
SUNPOU
  6
CONTINUOUS
 62
     4
 10
28683.851878301171
 20
16796.455421421939
 30
0.0
 11
28883.85187830116
 21
16796.455421421939
 31
0.0
  0
LINE
  5
DAF9
  8
SUNPOU
  6
CONTINUOUS
 62
     4
 10
28803.85187830116
 20
17554.455421421939
 30
0.0
 11
28803.85187830116
 21
16796.455421421939
 31
0.0
  0
LINE
  5
DAFA
  8
SUNPOU
  6
CONTINUOUS
 62
     4
 10
27833.850558301168
 20
18255.455421421939
 30
0.0
 11
28883.85187830116
 21
18255.455421421939
 31
0.0
  0
LINE
  5
DAFB
  8
SUNPOU
  6
CONTINUOUS
 62
     4
 10
27833.850558301168
 20
17554.455421421939
 30
0.0
 11
28883.85187830116
 21
17554.455421421939
 31
0.0
  0
LINE
  5
DAFC
  8
SUNPOU
  6
CONTINUOUS
 62
     4
 10
28803.85187830116
 20
18255.455421421939
 30
0.0
 11
28803.85187830116
 21
17554.455421421939
 31
0.0
  0
LINE
  5
DAFD
  8
SUNPOU
  6
CONTINUOUS
 62
     4
 10
27833.850558301168
 20
18956.45542142195
 30
0.0
 11
28883.85187830116
 21
18956.455421421939
 31
0.0
  0
LINE
  5
DAFE
  8
SUNPOU
  6
CONTINUOUS
 62
     4
 10
27833.850558301168
 20
18255.455421421939
 30
0.0
 11
28883.85187830116
 21
18255.455421421939
 31
0.0
  0
LINE
  5
DAFF
  8
SUNPOU
  6
CONTINUOUS
 62
     4
 10
28803.85187830116
 20
18956.455421421939
 30
0.0
 11
28803.85187830116
 21
18255.455421421939
 31
0.0
  0
LINE
  5
DB00
  8
SUNPOU
  6
CONTINUOUS
 62
     4
 10
28683.851878301171
 20
19714.45542142195
 30
0.0
 11
28883.85187830116
 21
19714.45542142195
 31
0.0
  0
LINE
  5
DB01
  8
SUNPOU
  6
CONTINUOUS
 62
     4
 10
27833.850558301168
 20
18956.45542142195
 30
0.0
 11
28883.85187830116
 21
18956.455421421939
 31
0.0
  0
LINE
  5
DB02
  8
SUNPOU
  6
CONTINUOUS
 62
     4
 10
28803.85187830116
 20
19714.45542142195
 30
0.0
 11
28803.85187830116
 21
18956.455421421939
 31
0.0
  0
LINE
  5
DB03
  8
SUNPOU
  6
CONTINUOUS
 62
     4
 10
28683.851878301171
 20
19714.45542142195
 30
0.0
 11
28883.85187830116
 21
19714.45542142195
 31
0.0
  0
LINE
  5
DB04
  8
SUNPOU
  6
CONTINUOUS
 62
     4
 10
28683.851878301171
 20
13878.45542142195
 30
0.0
 11
28883.85187830116
 21
13878.45542142195
 31
0.0
  0
LINE
  5
DB05
  8
SUNPOU
  6
CONTINUOUS
 62
     4
 10
27833.850558301168
 20
19756.952716421951
 30
0.0
 11
29283.851878301171
 21
19756.952716421929
 31
0.0
  0
LINE
  5
DB06
  8
SUNPOU
  6
CONTINUOUS
 62
     4
 10
27833.850558301168
 20
13835.958126421951
 30
0.0
 11
29283.851878301171
 21
13835.958126421951
 31
0.0
  0
LINE
  5
DB07
  8
SUNPOU
  6
CONTINUOUS
 62
     4
 10
29203.851878301171
 20
19756.952716421929
 30
0.0
 11
29203.851878301171
 21
13835.958126421951
 31
0.0
  0
LINE
  5
DB08
  8
SUNPOU
  6
CONTINUOUS
 62
     4
 10
28683.851878301171
 20
19714.45542142195
 30
0.0
 11
28883.85187830116
 21
19714.45542142195
 31
0.0
  0
LINE
  5
DB09
  8
SUNPOU
  6
CONTINUOUS
 62
     4
 10
27833.850558301168
 20
19756.952716421951
 30
0.0
 11
28883.85187830116
 21
19756.952716421929
 31
0.0
  0
LINE
  5
DB0A
  8
SUNPOU
  6
CONTINUOUS
 62
     4
 10
28803.85187830116
 20
19714.45542142195
 30
0.0
 11
28803.85187830116
 21
19474.45542142195
 31
0.0
  0
LINE
  5
DB0B
  8
SUNPOU
  6
CONTINUOUS
 62
     4
 10
28803.85187830116
 20
19756.952716421929
 30
0.0
 11
28803.85187830116
 21
19996.952716421929
 31
0.0
  0
LINE
  5
DB0C
  8
SUNPOU
  6
CONTINUOUS
 62
     4
 10
28803.85187830116
 20
19714.45542142195
 30
0.0
 11
28803.85187830116
 21
19756.952716421929
 31
0.0
  0
LINE
  5
DB0D
  8
SUNPOU
  6
CONTINUOUS
 62
     4
 10
28683.851878301171
 20
13878.45542142195
 30
0.0
 11
28883.85187830116
 21
13878.45542142195
 31
0.0
  0
LINE
  5
DB0E
  8
SUNPOU
  6
CONTINUOUS
 62
     4
 10
27833.850558301168
 20
13835.958126421951
 30
0.0
 11
28883.85187830116
 21
13835.958126421951
 31
0.0
  0
LINE
  5
DB0F
  8
SUNPOU
  6
CONTINUOUS
 62
     4
 10
28803.85187830116
 20
13878.45542142195
 30
0.0
 11
28803.85187830116
 21
14118.45542142195
 31
0.0
  0
LINE
  5
DB10
  8
SUNPOU
  6
CONTINUOUS
 62
     4
 10
28803.85187830116
 20
13835.958126421951
 30
0.0
 11
28803.85187830116
 21
13595.958126421951
 31
0.0
  0
LINE
  5
DB11
  8
SUNPOU
  6
CONTINUOUS
 62
     4
 10
28803.85187830116
 20
13878.45542142195
 30
0.0
 11
28803.85187830116
 21
13835.958126421951
 31
0.0
  0
TEXT
  5
DB12
  8
0
  6
CONTINUOUS
 62
     7
 10
28723.85187830116
 20
13262.401890025159
 30
0.0
 40
160.0
  1
42.5
 50
90.0
  0
TEXT
  5
DB13
  8
0
  6
CONTINUOUS
 62
     7
 10
28723.85187830116
 20
19850.508952818742
 30
0.0
 40
160.0
  1
42.5
 50
90.0
  0
TEXT
  5
DB14
  8
0
  6
CONTINUOUS
 62
     7
 10
29123.851878301171
 20
16529.788754755278
 30
0.0
 40
160.0
  1
5921
 50
90.0
  0
TEXT
  5
DB15
  8
0
  6
CONTINUOUS
 62
     7
 10
28723.851878301171
 20
19122.122088088621
 30
0.0
 40
160.0
  1
758
 50
90.0
  0
TEXT
  5
DB16
  8
0
  6
CONTINUOUS
 62
     7
 10
28723.851878301171
 20
18432.62208808861
 30
0.0
 40
160.0
  1
701
 50
90.0
  0
TEXT
  5
DB17
  8
0
  6
CONTINUOUS
 62
     7
 10
28723.851878301171
 20
17731.622088088621
 30
0.0
 40
160.0
  1
701
 50
90.0
  0
TEXT
  5
DB18
  8
0
  6
CONTINUOUS
 62
     7
 10
28723.851878301171
 20
16962.122088088599
 30
0.0
 40
160.0
  1
758
 50
90.0
  0
TEXT
  5
DB19
  8
0
  6
CONTINUOUS
 62
     7
 10
28723.851878301171
 20
16204.122088088619
 30
0.0
 40
160.0
  1
758
 50
90.0
  0
TEXT
  5
DB1A
  8
0
  6
CONTINUOUS
 62
     7
 10
28723.851878301171
 20
15514.74234383863
 30
0.0
 40
160.0
  1
701
 50
90.0
  0
TEXT
  5
DB1B
  8
0
  6
CONTINUOUS
 62
     7
 10
28723.851878301171
 20
14813.74234383863
 30
0.0
 40
160.0
  1
701
 50
90.0
  0
TEXT
  5
DB1C
  8
0
  6
CONTINUOUS
 62
     7
 10
28723.851878301171
 20
14044.122088088619
 30
0.0
 40
160.0
  1
758
 50
90.0
  0
TEXT
  5
DB1D
  8
0
  6
CONTINUOUS
 62
     7
 10
25677.102274301182
 20
12587.00733742195
 30
0.0
 40
160.0
  1
3353.5
  0
TEXT
  5
DB1E
  8
0
  6
CONTINUOUS
 62
     7
 10
24560.905946683259
 20
12987.00733742195
 30
0.0
 40
160.0
  1
42.5
  0
TEXT
  5
DB1F
  8
0
  6
CONTINUOUS
 62
     7
 10
27113.298601919068
 20
12987.00733742195
 30
0.0
 40
160.0
  1
42.5
  0
TEXT
  5
DB20
  8
0
  6
CONTINUOUS
 62
     7
 10
27829.405946683259
 20
12987.00733742195
 30
0.0
 40
160.0
  1
42.5
  0
TEXT
  5
DB21
  8
0
  6
CONTINUOUS
 62
     7
 10
23844.798601919068
 20
12987.00733742195
 30
0.0
 40
160.0
  1
42.5
  0
ARC
  5
DB22
  8
0
  6
BYBLOCK
 62
     0
 10
24442.852274301182
 20
12907.00733742195
 30
0.0
 40
15.0
 50
0.0
 51
180.0
  0
ARC
  5
DB23
  8
0
  6
BYBLOCK
 62
     0
 10
24442.852274301182
 20
12907.00733742195
 30
0.0
 40
15.0
 50
180.0
 51
0.0
  0
ARC
  5
DB24
  8
0
  6
BYBLOCK
 62
     0
 10
24400.350031301179
 20
12907.00733742195
 30
0.0
 40
15.0
 50
180.0
 51
0.0
  0
ARC
  5
DB25
  8
0
  6
BYBLOCK
 62
     0
 10
24400.350031301179
 20
12907.00733742195
 30
0.0
 40
15.0
 50
0.0
 51
180.0
  0
ARC
  5
DB26
  8
0
  6
BYBLOCK
 62
     0
 10
27711.352274301182
 20
12907.00733742195
 30
0.0
 40
15.0
 50
180.0
 51
0.0
  0
ARC
  5
DB27
  8
0
  6
BYBLOCK
 62
     0
 10
27711.352274301182
 20
12907.00733742195
 30
0.0
 40
15.0
 50
0.0
 51
180.0
  0
ARC
  5
DB28
  8
0
  6
BYBLOCK
 62
     0
 10
27753.85451730117
 20
12907.00733742195
 30
0.0
 40
15.0
 50
0.0
 51
180.0
  0
ARC
  5
DB29
  8
0
  6
BYBLOCK
 62
     0
 10
27753.85451730117
 20
12907.00733742195
 30
0.0
 40
15.0
 50
180.0
 51
0.0
  0
ARC
  5
DB2A
  8
0
  6
BYBLOCK
 62
     0
 10
27711.352274301182
 20
12907.00733742195
 30
0.0
 40
15.0
 50
0.0
 51
180.0
  0
ARC
  5
DB2B
  8
0
  6
BYBLOCK
 62
     0
 10
27711.352274301182
 20
12907.00733742195
 30
0.0
 40
15.0
 50
180.0
 51
0.0
  0
ARC
  5
DB2C
  8
0
  6
BYBLOCK
 62
     0
 10
27668.850031301168
 20
12907.00733742195
 30
0.0
 40
15.0
 50
180.0
 51
0.0
  0
ARC
  5
DB2D
  8
0
  6
BYBLOCK
 62
     0
 10
27668.850031301168
 20
12907.00733742195
 30
0.0
 40
15.0
 50
0.0
 51
180.0
  0
ARC
  5
DB2E
  8
0
  6
BYBLOCK
 62
     0
 10
24442.852274301182
 20
12907.00733742195
 30
0.0
 40
15.0
 50
180.0
 51
0.0
  0
ARC
  5
DB2F
  8
0
  6
BYBLOCK
 62
     0
 10
24442.852274301182
 20
12907.00733742195
 30
0.0
 40
15.0
 50
0.0
 51
180.0
  0
ARC
  5
DB30
  8
0
  6
BYBLOCK
 62
     0
 10
24485.354517301159
 20
12907.00733742195
 30
0.0
 40
15.0
 50
0.0
 51
180.0
  0
ARC
  5
DB31
  8
0
  6
BYBLOCK
 62
     0
 10
24485.354517301159
 20
12907.00733742195
 30
0.0
 40
15.0
 50
180.0
 51
0.0
  0
ARC
  5
DB32
  8
0
  6
BYBLOCK
 62
     0
 10
24400.350031301179
 20
12507.00733742195
 30
0.0
 40
15.0
 50
0.0
 51
180.0
  0
ARC
  5
DB33
  8
0
  6
BYBLOCK
 62
     0
 10
24400.350031301179
 20
12507.00733742195
 30
0.0
 40
15.0
 50
180.0
 51
0.0
  0
ARC
  5
DB34
  8
0
  6
BYBLOCK
 62
     0
 10
27753.85451730117
 20
12507.00733742195
 30
0.0
 40
15.0
 50
180.0
 51
0.0
  0
ARC
  5
DB35
  8
0
  6
BYBLOCK
 62
     0
 10
27753.85451730117
 20
12507.00733742195
 30
0.0
 40
15.0
 50
0.0
 51
180.0
  0
ARC
  5
DB36
  8
0
  6
BYBLOCK
 62
     0
 10
28803.85187830116
 20
14636.45542142195
 30
0.0
 40
15.0
 50
270.0
 51
90.0
  0
ARC
  5
DB37
  8
0
  6
BYBLOCK
 62
     0
 10
28803.85187830116
 20
14636.45542142195
 30
0.0
 40
15.0
 50
90.0
 51
270.0
  0
ARC
  5
DB38
  8
0
  6
BYBLOCK
 62
     0
 10
28803.85187830116
 20
13878.45542142195
 30
0.0
 40
15.0
 50
90.0
 51
270.0
  0
ARC
  5
DB39
  8
0
  6
BYBLOCK
 62
     0
 10
28803.85187830116
 20
13878.45542142195
 30
0.0
 40
15.0
 50
270.0
 51
90.0
  0
ARC
  5
DB3A
  8
0
  6
BYBLOCK
 62
     0
 10
28803.85187830116
 20
15337.695932921961
 30
0.0
 40
15.0
 50
270.0
 51
90.0
  0
ARC
  5
DB3B
  8
0
  6
BYBLOCK
 62
     0
 10
28803.85187830116
 20
15337.695932921961
 30
0.0
 40
15.0
 50
90.0
 51
270.0
  0
ARC
  5
DB3C
  8
0
  6
BYBLOCK
 62
     0
 10
28803.85187830116
 20
14636.45542142195
 30
0.0
 40
15.0
 50
90.0
 51
270.0
  0
ARC
  5
DB3D
  8
0
  6
BYBLOCK
 62
     0
 10
28803.85187830116
 20
14636.45542142195
 30
0.0
 40
15.0
 50
270.0
 51
90.0
  0
ARC
  5
DB3E
  8
0
  6
BYBLOCK
 62
     0
 10
28803.85187830116
 20
16038.45542142195
 30
0.0
 40
15.0
 50
270.0
 51
90.0
  0
ARC
  5
DB3F
  8
0
  6
BYBLOCK
 62
     0
 10
28803.85187830116
 20
16038.45542142195
 30
0.0
 40
15.0
 50
90.0
 51
270.0
  0
ARC
  5
DB40
  8
0
  6
BYBLOCK
 62
     0
 10
28803.85187830116
 20
15337.695932921961
 30
0.0
 40
15.0
 50
90.0
 51
270.0
  0
ARC
  5
DB41
  8
0
  6
BYBLOCK
 62
     0
 10
28803.85187830116
 20
15337.695932921961
 30
0.0
 40
15.0
 50
270.0
 51
90.0
  0
ARC
  5
DB42
  8
0
  6
BYBLOCK
 62
     0
 10
28803.85187830116
 20
16796.455421421939
 30
0.0
 40
15.0
 50
270.0
 51
90.0
  0
ARC
  5
DB43
  8
0
  6
BYBLOCK
 62
     0
 10
28803.85187830116
 20
16796.455421421939
 30
0.0
 40
15.0
 50
90.0
 51
270.0
  0
ARC
  5
DB44
  8
0
  6
BYBLOCK
 62
     0
 10
28803.85187830116
 20
16038.45542142195
 30
0.0
 40
15.0
 50
90.0
 51
270.0
  0
ARC
  5
DB45
  8
0
  6
BYBLOCK
 62
     0
 10
28803.85187830116
 20
16038.45542142195
 30
0.0
 40
15.0
 50
270.0
 51
90.0
  0
ARC
  5
DB46
  8
0
  6
BYBLOCK
 62
     0
 10
28803.85187830116
 20
17554.455421421939
 30
0.0
 40
15.0
 50
270.0
 51
90.0
  0
ARC
  5
DB47
  8
0
  6
BYBLOCK
 62
     0
 10
28803.85187830116
 20
17554.455421421939
 30
0.0
 40
15.0
 50
90.0
 51
270.0
  0
ARC
  5
DB48
  8
0
  6
BYBLOCK
 62
     0
 10
28803.85187830116
 20
16796.455421421939
 30
0.0
 40
15.0
 50
90.0
 51
270.0
  0
ARC
  5
DB49
  8
0
  6
BYBLOCK
 62
     0
 10
28803.85187830116
 20
16796.455421421939
 30
0.0
 40
15.0
 50
270.0
 51
90.0
  0
ARC
  5
DB4A
  8
0
  6
BYBLOCK
 62
     0
 10
28803.85187830116
 20
18255.455421421939
 30
0.0
 40
15.0
 50
270.0
 51
90.0
  0
ARC
  5
DB4B
  8
0
  6
BYBLOCK
 62
     0
 10
28803.85187830116
 20
18255.455421421939
 30
0.0
 40
15.0
 50
90.0
 51
270.0
  0
ARC
  5
DB4C
  8
0
  6
BYBLOCK
 62
     0
 10
28803.85187830116
 20
17554.455421421939
 30
0.0
 40
15.0
 50
90.0
 51
270.0
  0
ARC
  5
DB4D
  8
0
  6
BYBLOCK
 62
     0
 10
28803.85187830116
 20
17554.455421421939
 30
0.0
 40
15.0
 50
270.0
 51
90.0
  0
ARC
  5
DB4E
  8
0
  6
BYBLOCK
 62
     0
 10
28803.85187830116
 20
18956.455421421939
 30
0.0
 40
15.0
 50
270.0
 51
90.0
  0
ARC
  5
DB4F
  8
0
  6
BYBLOCK
 62
     0
 10
28803.85187830116
 20
18956.455421421939
 30
0.0
 40
15.0
 50
90.0
 51
270.0
  0
ARC
  5
DB50
  8
0
  6
BYBLOCK
 62
     0
 10
28803.85187830116
 20
18255.455421421939
 30
0.0
 40
15.0
 50
90.0
 51
270.0
  0
ARC
  5
DB51
  8
0
  6
BYBLOCK
 62
     0
 10
28803.85187830116
 20
18255.455421421939
 30
0.0
 40
15.0
 50
270.0
 51
90.0
  0
ARC
  5
DB52
  8
0
  6
BYBLOCK
 62
     0
 10
28803.85187830116
 20
19714.45542142195
 30
0.0
 40
15.0
 50
270.0
 51
90.0
  0
ARC
  5
DB53
  8
0
  6
BYBLOCK
 62
     0
 10
28803.85187830116
 20
19714.45542142195
 30
0.0
 40
15.0
 50
90.0
 51
270.0
  0
ARC
  5
DB54
  8
0
  6
BYBLOCK
 62
     0
 10
28803.85187830116
 20
18956.455421421939
 30
0.0
 40
15.0
 50
90.0
 51
270.0
  0
ARC
  5
DB55
  8
0
  6
BYBLOCK
 62
     0
 10
28803.85187830116
 20
18956.455421421939
 30
0.0
 40
15.0
 50
270.0
 51
90.0
  0
ARC
  5
DB56
  8
0
  6
BYBLOCK
 62
     0
 10
28803.85187830116
 20
19714.45542142195
 30
0.0
 40
15.0
 50
270.0
 51
90.0
  0
ARC
  5
DB57
  8
0
  6
BYBLOCK
 62
     0
 10
28803.85187830116
 20
19714.45542142195
 30
0.0
 40
15.0
 50
90.0
 51
270.0
  0
ARC
  5
DB58
  8
0
  6
BYBLOCK
 62
     0
 10
28803.85187830116
 20
13878.45542142195
 30
0.0
 40
15.0
 50
90.0
 51
270.0
  0
ARC
  5
DB59
  8
0
  6
BYBLOCK
 62
     0
 10
28803.85187830116
 20
13878.45542142195
 30
0.0
 40
15.0
 50
270.0
 51
90.0
  0
ARC
  5
DB5A
  8
0
  6
BYBLOCK
 62
     0
 10
29203.851878301171
 20
19756.952716421929
 30
0.0
 40
15.0
 50
270.0
 51
90.0
  0
ARC
  5
DB5B
  8
0
  6
BYBLOCK
 62
     0
 10
29203.851878301171
 20
19756.952716421929
 30
0.0
 40
15.0
 50
90.0
 51
270.0
  0
ARC
  5
DB5C
  8
0
  6
BYBLOCK
 62
     0
 10
29203.851878301171
 20
13835.958126421951
 30
0.0
 40
15.0
 50
90.0
 51
270.0
  0
ARC
  5
DB5D
  8
0
  6
BYBLOCK
 62
     0
 10
29203.851878301171
 20
13835.958126421951
 30
0.0
 40
15.0
 50
270.0
 51
90.0
  0
ARC
  5
DB5E
  8
0
  6
BYBLOCK
 62
     0
 10
28803.85187830116
 20
19714.45542142195
 30
0.0
 40
15.0
 50
270.0
 51
90.0
  0
ARC
  5
DB5F
  8
0
  6
BYBLOCK
 62
     0
 10
28803.85187830116
 20
19714.45542142195
 30
0.0
 40
15.0
 50
90.0
 51
270.0
  0
ARC
  5
DB60
  8
0
  6
BYBLOCK
 62
     0
 10
28803.85187830116
 20
19756.952716421929
 30
0.0
 40
15.0
 50
90.0
 51
270.0
  0
ARC
  5
DB61
  8
0
  6
BYBLOCK
 62
     0
 10
28803.85187830116
 20
19756.952716421929
 30
0.0
 40
15.0
 50
270.0
 51
90.0
  0
ARC
  5
DB62
  8
0
  6
BYBLOCK
 62
     0
 10
28803.85187830116
 20
13878.45542142195
 30
0.0
 40
15.0
 50
90.0
 51
270.0
  0
ARC
  5
DB63
  8
0
  6
BYBLOCK
 62
     0
 10
28803.85187830116
 20
13878.45542142195
 30
0.0
 40
15.0
 50
270.0
 51
90.0
  0
ARC
  5
DB64
  8
0
  6
BYBLOCK
 62
     0
 10
28803.85187830116
 20
13835.958126421951
 30
0.0
 40
15.0
 50
270.0
 51
90.0
  0
ARC
  5
DB65
  8
0
  6
BYBLOCK
 62
     0
 10
28803.85187830116
 20
13835.958126421951
 30
0.0
 40
15.0
 50
90.0
 51
270.0
  0
TEXT
  5
DC6E
  8
FILENAME
  6
CONTINUOUS
 10
26518.285714285721
 20
348.0
 30
0.0
 40
200.0
  1
＜VGC-3359+VKC-5059-L-1-A_0.DXF ＞
  7
FILENAME
 72
     2
 11
32764.0
 21
348.0
 31
0.0
  0
LINE
  5
DC73
  8
WAKUSEN-01
 10
868.00000000000193
 20
827.99999999999955
 30
0.0
 11
32764.000000000011
 21
827.99999999999943
 31
0.0
  0
LINE
  5
DC74
  8
WAKUSEN-01
 10
868.00000000000193
 20
827.99999999999955
 30
0.0
 11
868.00000000000193
 21
22484.000000000011
 31
0.0
  0
LINE
  5
DC75
  8
WAKUSEN-01
 10
32764.000000000011
 20
827.99999999999943
 30
0.0
 11
32764.000000000011
 21
22484.000000000011
 31
0.0
  0
LINE
  5
DC76
  8
WAKUSEN-01
 10
20560.0
 20
827.99999999999716
 30
0.0
 11
20560.0
 21
2484.0
 31
0.0
  0
LINE
  5
DC77
  8
WAKUSEN-02
 10
26868.0
 20
827.99999999999261
 30
0.0
 11
26868.0
 21
2484.0
 31
0.0
  0
ENDSEC
  0
EOF
